  0
SECTION
  2
HEADER
  9
$ACADVER
  1
AC1024
  9
$DWGCODEPAGE
  3
ANSI_1252
  9
$EXTMAX
 10
297.0
 20
210.0
 30
0.0
  9
$EXTMIN
 10
0.0
 20
0.0
 30
0.0
  9
$LIMMIN
 10
0.0
 20
0.0
  9
$LIMMAX
 10
297.0
 20
210.0
  9
$VIEWCTR
 10
148.5
 20
105.0
  9
$VIEWSIZE
 40
210.0
  9
$CLAYER
  8
0
  9
$LTSCALE
 40
16.335
  9
$CELTYPE
  6
BYLAYER
  9
$DIMSCALE
 40
1.0
  9
$DIMASZ
 40
3.0
  9
$DIMEXO
 40
0.5
  9
$DIMDLI
 40
11.286
  9
$DIMEXE
 40
1.5
  9
$DIMCEN
 40
2.673
  9
$DIMLFAC
 40
1.0
  9
$DIMBLK
  1
_FILLED
  9
$DIMALT
 70
0
  9
$DIMALTF
 40
0.0393700787
  9
$DIMTXT
 40
3.0
  9
$DIMTOL
 70
1
  9
$DIMLIM
 70
0
  9
$DIMTFAC
 40
1.0
  9
$DIMTP
 40
0.01
  9
$DIMTM
 40
0.01
  9
$DIMGAP
 40
0.625
  9
$DIMDSEP
 70
44
  9
$AUNITS
 70
0
  9
$PDMODE
 70
3
  9
$PDSIZE
 40
3.0
  9
$HANDSEED
  5
376
  9
$TILEMODE
 70
1
  9
$MEASUREMENT
 70
1
  9
$INSUNITS
 70
4
  0
ENDSEC
  0
SECTION
  2
CLASSES
  0
CLASS
  1
ACDBDICTIONARYWDFLT
  2
AcDbDictionaryWithDefault
  3
AutoCAD 2000
 90
0
 91
1
280
0
281
0
  0
CLASS
  1
ACDBPLACEHOLDER
  2
AcDbPlaceHolder
  3
AutoCAD 2000
 90
0
 91
1
280
0
281
0
  0
CLASS
  1
LAYOUT
  2
AcDbLayout
  3
AutoCAD 2000
 90
0
 91
0
280
0
281
0
  0
ENDSEC
  0
SECTION
  2
TABLES
  0
TABLE
  2
VPORT
  5
8
100
AcDbSymbolTable
 70
2
  0
VPORT
  5
1F4
100
AcDbSymbolTableRecord
100
AcDbViewportTableRecord
  2
*ACTIVE
 70
0
 10
0.0
 20
0.0
 11
1.0
 21
1.0
 12
148.5
 22
105.0
 13
0.0
 23
0.0
 14
1.0
 24
1.0
 15
0.0
 25
0.0
 16
0.0
 26
0.0
 36
1.0
 17
0.0
 27
0.0
 37
0.0
 40
210.0
 41
1.4142857143
 42
50.0
 43
0.0
 44
0.0
 50
0.0
 51
0.0
 71
0
 72
100
 73
1
 74
1
 75
0
 76
0
 77
0
 78
0
  0
ENDTAB
  0
TABLE
  2
LTYPE
  5
5
100
AcDbSymbolTable
 70
6
  0
LTYPE
  5
14
100
AcDbSymbolTableRecord
100
AcDbLinetypeTableRecord
  2
BYBLOCK
 70
0
  3

 72
65
 73
0
 40
0.0
  0
LTYPE
  5
15
100
AcDbSymbolTableRecord
100
AcDbLinetypeTableRecord
  2
BYLAYER
 70
0
  3

 72
65
 73
0
 40
0.0
  0
LTYPE
  5
16
100
AcDbSymbolTableRecord
100
AcDbLinetypeTableRecord
  2
CONTINUOUS
 70
64
  3
Solid line
 72
65
 73
0
 40
0.0
  0
LTYPE
  5
1F5
100
AcDbSymbolTableRecord
100
AcDbLinetypeTableRecord
  2
CENTER
 70
64
  3
____ _ ____ _ ____ _ ____ _ ____ _ ____ _ ____
 72
65
 73
4
 40
0.6
 49
0.375
 74
0
 49
-0.075
 74
0
 49
0.075
 74
0
 49
-0.075
 74
0
  0
LTYPE
  5
1F6
100
AcDbSymbolTableRecord
100
AcDbLinetypeTableRecord
  2
HIDDEN
 70
64
  3
- - - - - - - - - - - - - - - - - - - -
 72
65
 73
2
 40
0.2
 49
0.1
 74
0
 49
-0.1
 74
0
  0
LTYPE
  5
1F7
100
AcDbSymbolTableRecord
100
AcDbLinetypeTableRecord
  2
PHANTOM
 70
64
  3
_____ _ _ _____ _ _ _____ _ _ _____
 72
65
 73
6
 40
0.8
 49
0.45
 74
0
 49
-0.05
 74
0
 49
0.1
 74
0
 49
-0.05
 74
0
 49
0.1
 74
0
 49
-0.05
 74
0
  0
LTYPE
  5
1F8
100
AcDbSymbolTableRecord
100
AcDbLinetypeTableRecord
  2
DOT
 70
64
  3
. . . . . . . . . . . . . . . . . . . .
 72
65
 73
2
 40
0.2
 49
0.1
 74
0
 49
-0.1
 74
0
  0
LTYPE
  5
1F9
100
AcDbSymbolTableRecord
100
AcDbLinetypeTableRecord
  2
DASHED
 70
64
  3
- - - - - - - - - - - - - - - - - - - -
 72
65
 73
2
 40
0.2
 49
0.1
 74
0
 49
-0.1
 74
0
  0
ENDTAB
  0
TABLE
  2
LAYER
  5
2
100
AcDbSymbolTable
 70
36
  0
LAYER
  5
10
100
AcDbSymbolTableRecord
100
AcDbLayerTableRecord
  2
0
 70
0
 62
7
  6
CONTINUOUS
370
-3
390
F
  0
LAYER
  5
1FA
100
AcDbSymbolTableRecord
100
AcDbLayerTableRecord
  2
DEFAULT_1
 70
0
 62
7
  6
CENTER
370
-3
390
F
  0
LAYER
  5
1FB
100
AcDbSymbolTableRecord
100
AcDbLayerTableRecord
  2
DEFAULT_2
 70
0
 62
7
  6
HIDDEN
370
-3
390
F
  0
LAYER
  5
1FC
100
AcDbSymbolTableRecord
100
AcDbLayerTableRecord
  2
DEFAULT_3
 70
0
 62
7
  6
PHANTOM
370
-3
390
F
  0
LAYER
  5
1FD
100
AcDbSymbolTableRecord
100
AcDbLayerTableRecord
  2
ASSI
 70
0
 62
7
  6
CONTINUOUS
370
-3
390
F
  0
LAYER
  5
1FE
100
AcDbSymbolTableRecord
100
AcDbLayerTableRecord
  2
COLOR15
 70
0
 62
7
  6
CONTINUOUS
370
-3
390
F
  0
LAYER
  5
1FF
100
AcDbSymbolTableRecord
100
AcDbLayerTableRecord
  2
COLOR5
 70
0
 62
7
  6
CONTINUOUS
370
-3
390
F
  0
LAYER
  5
200
100
AcDbSymbolTableRecord
100
AcDbLayerTableRecord
  2
COORDINATE
 70
0
 62
7
  6
CONTINUOUS
370
-3
390
F
  0
LAYER
  5
201
100
AcDbSymbolTableRecord
100
AcDbLayerTableRecord
  2
COORD_ORIGINE
 70
0
 62
7
  6
CONTINUOUS
370
-3
390
F
  0
LAYER
  5
202
100
AcDbSymbolTableRecord
100
AcDbLayerTableRecord
  2
COSMETICHE
 70
0
 62
7
  6
CONTINUOUS
370
-3
390
F
  0
LAYER
  5
203
100
AcDbSymbolTableRecord
100
AcDbLayerTableRecord
  2
COSMETICI
 70
0
 62
7
  6
CONTINUOUS
370
-3
390
F
  0
LAYER
  5
204
100
AcDbSymbolTableRecord
100
AcDbLayerTableRecord
  2
CURVE
 70
0
 62
7
  6
CONTINUOUS
370
-3
390
F
  0
LAYER
  5
205
100
AcDbSymbolTableRecord
100
AcDbLayerTableRecord
  2
DRAFT
 70
0
 62
7
  6
CONTINUOUS
370
-3
390
F
  0
LAYER
  5
206
100
AcDbSymbolTableRecord
100
AcDbLayerTableRecord
  2
IMPORT_IGES
 70
0
 62
7
  6
CONTINUOUS
370
-3
390
F
  0
LAYER
  5
207
100
AcDbSymbolTableRecord
100
AcDbLayerTableRecord
  2
INTF_1
 70
0
 62
7
  6
CONTINUOUS
370
-3
390
F
  0
LAYER
  5
208
100
AcDbSymbolTableRecord
100
AcDbLayerTableRecord
  2
INTF_11
 70
0
 62
7
  6
CONTINUOUS
370
-3
390
F
  0
LAYER
  5
209
100
AcDbSymbolTableRecord
100
AcDbLayerTableRecord
  2
INTF_2
 70
0
 62
7
  6
CONTINUOUS
370
-3
390
F
  0
LAYER
  5
20A
100
AcDbSymbolTableRecord
100
AcDbLayerTableRecord
  2
INTF_3
 70
0
 62
7
  6
CONTINUOUS
370
-3
390
F
  0
LAYER
  5
20B
100
AcDbSymbolTableRecord
100
AcDbLayerTableRecord
  2
INTF_5
 70
0
 62
7
  6
CONTINUOUS
370
-3
390
F
  0
LAYER
  5
20C
100
AcDbSymbolTableRecord
100
AcDbLayerTableRecord
  2
INTF_YELLOW
 70
0
 62
7
  6
CONTINUOUS
370
-3
390
F
  0
LAYER
  5
20D
100
AcDbSymbolTableRecord
100
AcDbLayerTableRecord
  2
NOTE
 70
0
 62
7
  6
CONTINUOUS
370
-3
390
F
  0
LAYER
  5
20E
100
AcDbSymbolTableRecord
100
AcDbLayerTableRecord
  2
PIANI
 70
0
 62
7
  6
CONTINUOUS
370
-3
390
F
  0
LAYER
  5
20F
100
AcDbSymbolTableRecord
100
AcDbLayerTableRecord
  2
PIANI_ORIGINE
 70
0
 62
7
  6
CONTINUOUS
370
-3
390
F
  0
LAYER
  5
210
100
AcDbSymbolTableRecord
100
AcDbLayerTableRecord
  2
PUNTI
 70
0
 62
7
  6
CONTINUOUS
370
-3
390
F
  0
LAYER
  5
211
100
AcDbSymbolTableRecord
100
AcDbLayerTableRecord
  2
RACCORDO
 70
0
 62
7
  6
CONTINUOUS
370
-3
390
F
  0
LAYER
  5
212
100
AcDbSymbolTableRecord
100
AcDbLayerTableRecord
  2
RGB__255__255__255__
 70
0
 62
7
  6
CONTINUOUS
370
-3
390
F
  0
LAYER
  5
213
100
AcDbSymbolTableRecord
100
AcDbLayerTableRecord
  2
SIMBOLI
 70
0
 62
7
  6
CONTINUOUS
370
-3
390
F
  0
LAYER
  5
214
100
AcDbSymbolTableRecord
100
AcDbLayerTableRecord
  2
SMUSSO
 70
0
 62
7
  6
CONTINUOUS
370
-3
390
F
  0
LAYER
  5
215
100
AcDbSymbolTableRecord
100
AcDbLayerTableRecord
  2
SNAPLINE
 70
0
 62
7
  6
CONTINUOUS
370
-3
390
F
  0
LAYER
  5
216
100
AcDbSymbolTableRecord
100
AcDbLayerTableRecord
  2
SUPERFICI
 70
0
 62
7
  6
CONTINUOUS
370
-3
390
F
  0
LAYER
  5
217
100
AcDbSymbolTableRecord
100
AcDbLayerTableRecord
  2
TASSELLI
 70
0
 62
7
  6
CONTINUOUS
370
-3
390
F
  0
LAYER
  5
218
100
AcDbSymbolTableRecord
100
AcDbLayerTableRecord
  2
TRASH
 70
0
 62
7
  6
CONTINUOUS
370
-3
390
F
  0
LAYER
  5
219
100
AcDbSymbolTableRecord
100
AcDbLayerTableRecord
  2
VARIE
 70
0
 62
7
  6
CONTINUOUS
370
-3
390
F
  0
LAYER
  5
21A
100
AcDbSymbolTableRecord
100
AcDbLayerTableRecord
  2
XSEC_DATUMS
 70
0
 62
7
  6
CONTINUOUS
370
-3
390
F
  0
ENDTAB
  0
TABLE
  2
STYLE
  5
3
100
AcDbSymbolTable
 70
1
  0
STYLE
  5
11
100
AcDbSymbolTableRecord
100
AcDbTextStyleTableRecord
  2
STANDARD
 70
0
 40
0.0
 41
0.8
 50
0.0
 71
0
 42
0.2
  3
txt
  4

  0
STYLE
  5
21B
100
AcDbSymbolTableRecord
100
AcDbTextStyleTableRecord
  2
TEXTSTYLE_1
 70
0
 40
0.0
 41
0.8
 50
0.0
 71
0
 42
0.2
  3
gdt
  4

  0
ENDTAB
  0
TABLE
  2
VIEW
  5
6
100
AcDbSymbolTable
 70
0
  0
ENDTAB
  0
TABLE
  2
UCS
  5
7
100
AcDbSymbolTable
 70
0
  0
ENDTAB
  0
TABLE
  2
APPID
  5
9
100
AcDbSymbolTable
 70
1
  0
APPID
  5
21C
100
AcDbSymbolTableRecord
100
AcDbRegAppTableRecord
  2
ACAD
 70
0
  0
ENDTAB
  0
TABLE
  2
BLOCK_RECORD
  5
1
100
AcDbSymbolTable
 70
0
  0
BLOCK_RECORD
  5
21D
100
AcDbSymbolTableRecord
100
AcDbBlockTableRecord
  2
*Model_Space
  0
BLOCK_RECORD
  5
21E
100
AcDbSymbolTableRecord
100
AcDbBlockTableRecord
  2
*Paper_Space
  0
BLOCK_RECORD
  5
21F
100
AcDbSymbolTableRecord
100
AcDbBlockTableRecord
  2
_FILLED
  0
ENDTAB
  0
TABLE
  2
DIMSTYLE
  5
A
100
AcDbSymbolTable
 70
1
100
AcDbDimStyleTable
 71
0
  0
DIMSTYLE
105
220
100
AcDbSymbolTableRecord
100
AcDbDimStyleTableRecord
  2
STANDARD
 70
0
  3

  4

 40
1.0
 41
3.0
 42
0.5
 43
0.38
 44
1.5
 45
0.0
 46
0.0
 47
0.01
 48
0.01
140
3.0
141
0.09
142
0.0
143
25.4
144
1.0
145
0.0
146
1.0
147
0.625
 71
1
 72
0
 73
0
 74
0
 75
0
 76
0
 77
1
 78
8
 79
2
170
0
171
1
172
0
173
0
174
0
175
0
176
0
177
0
178
0
270
2
179
2
271
2
272
2
273
2
274
2
275
0
280
0
281
0
282
0
283
1
284
8
285
0
286
0
287
3
288
0
340
11
278
44
341
21F
342
21F
343
21F
344
21F
  0
ENDTAB
  0
ENDSEC
  0
SECTION
  2
BLOCKS
  0
BLOCK
  5
20
100
AcDbEntity
  8
0
100
AcDbBlockBegin
  2
*Model_Space
 70
0
 10
0.0
 20
0.0
 30
0.0
  3
*Model_Space
  1

  0
ENDBLK
  5
21
100
AcDbEntity
  8
0
100
AcDbBlockEnd
  0
BLOCK
  5
1C
100
AcDbEntity
  8
0
100
AcDbBlockBegin
  2
*Paper_Space
 70
0
 10
0.0
 20
0.0
 30
0.0
  3
*Paper_Space
  1

  0
ENDBLK
  5
1D
100
AcDbEntity
  8
0
100
AcDbBlockEnd
  0
BLOCK
  5
221
100
AcDbEntity
  8
0
100
AcDbBlockBegin
  2
_FILLED
 70
64
 10
0.0
 20
0.0
  3
_FILLED
  1

  0
SOLID
  5
222
100
AcDbEntity
  8
0
  6
BYBLOCK
 62
0
100
AcDbTrace
 10
0.0
 20
0.0
 11
-1.0
 21
0.3166666667
 12
-1.0
 22
-0.3166666667
 13
-1.0
 23
-0.3166666667
  0
ENDBLK
  5
223
100
AcDbEntity
  8
0
  6
BYBLOCK
 62
0
100
AcDbBlockEnd
  0
ENDSEC
  0
SECTION
  2
ENTITIES
  0
LINE
  5
224
100
AcDbEntity
  8
0
100
AcDbLine
 62
7
  6
CONTINUOUS
 10
-4.3
 20
-58.55
 11
4.3
 21
-58.55
  0
LINE
  5
225
100
AcDbEntity
  8
0
100
AcDbLine
 62
250
  6
CONTINUOUS
 10
5.1
 20
-57.75
 11
-5.1
 21
-57.75
  0
LINE
  5
226
100
AcDbEntity
  8
0
100
AcDbLine
 62
250
  6
CONTINUOUS
 10
-5.1
 20
-57.2
 11
5.1
 21
-57.2
  0
LINE
  5
227
100
AcDbEntity
  8
0
100
AcDbLine
 62
250
  6
CONTINUOUS
 10
-5.2421052632
 20
-57.0502079003
 11
5.2421052632
 21
-57.0502079003
  0
LINE
  5
228
100
AcDbEntity
  8
0
100
AcDbLine
 62
250
  6
CONTINUOUS
 10
6.0
 20
-56.2513167019
 11
-6.0
 21
-56.2513167019
  0
LINE
  5
229
100
AcDbEntity
  8
0
100
AcDbLine
 62
250
  6
CONTINUOUS
 10
12.0574688616
 20
-51.9744096755
 11
12.3030658362
 21
-52.0675286452
  0
LINE
  5
22A
100
AcDbEntity
  8
0
100
AcDbLine
 62
7
  6
CONTINUOUS
 10
-0.58843
 20
-36.956117
 11
0.593816
 21
-36.956117
  0
LINE
  5
22B
100
AcDbEntity
  8
0
100
AcDbLine
 62
7
  6
CONTINUOUS
 10
0.593816
 20
-36.539452
 11
0.224704
 21
-36.539452
  0
LINE
  5
22C
100
AcDbEntity
  8
0
100
AcDbLine
 62
7
  6
CONTINUOUS
 10
-0.219175
 20
-36.539452
 11
-0.58843
 21
-36.539452
  0
LINE
  5
22D
100
AcDbEntity
  8
0
100
AcDbLine
 62
250
  6
CONTINUOUS
 10
11.1999154062
 20
-35.55
 11
14.8009673701
 21
-35.549933045
  0
LINE
  5
22E
100
AcDbEntity
  8
0
100
AcDbLine
 62
250
  6
CONTINUOUS
 10
-14.800966201
 20
-35.5499514097
 11
-11.1999154079
 21
-35.55
  0
LINE
  5
22F
100
AcDbEntity
  8
0
100
AcDbLine
 62
7
  6
CONTINUOUS
 10
-0.574823
 20
-33.579254
 11
-0.219175
 21
-33.579254
  0
LINE
  5
230
100
AcDbEntity
  8
0
100
AcDbLine
 62
7
  6
CONTINUOUS
 10
0.224704
 20
-33.579254
 11
0.580209
 21
-33.579254
  0
LINE
  5
231
100
AcDbEntity
  8
0
100
AcDbLine
 62
7
  6
CONTINUOUS
 10
0.580209
 20
-33.160297
 11
-0.574823
 21
-33.160297
  0
LINE
  5
232
100
AcDbEntity
  8
0
100
AcDbLine
 62
250
  6
CONTINUOUS
 10
15.0150610482
 20
-30.5
 11
16.25
 21
-30.5
  0
LINE
  5
233
100
AcDbEntity
  8
0
100
AcDbLine
 62
250
  6
CONTINUOUS
 10
-15.0150610482
 20
-30.5
 11
-16.25
 21
-30.5
  0
LINE
  5
234
100
AcDbEntity
  8
0
100
AcDbLine
 62
7
  6
CONTINUOUS
 10
10.0606313439
 20
-27.5
 11
5.8368353099
 21
-27.5
  0
LINE
  5
235
100
AcDbEntity
  8
0
100
AcDbLine
 62
7
  6
CONTINUOUS
 10
5.8368353099
 20
-26.4440509915
 11
10.0606313439
 21
-26.4440509915
  0
LINE
  5
236
100
AcDbEntity
  8
0
100
AcDbLine
 62
7
  6
CONTINUOUS
 10
7.396784
 20
-25.210104
 11
7.080987
 21
-25.210104
  0
LINE
  5
237
100
AcDbEntity
  8
0
100
AcDbLine
 62
7
  6
CONTINUOUS
 10
7.1599363541
 20
-25.1311546572
 11
7.3178345212
 21
-25.1311546572
  0
LINE
  5
238
100
AcDbEntity
  8
0
100
AcDbLine
 62
7
  6
CONTINUOUS
 10
7.3178345212
 20
-24.815356915
 11
7.1599363541
 21
-24.815356915
  0
LINE
  5
239
100
AcDbEntity
  8
0
100
AcDbLine
 62
7
  6
CONTINUOUS
 10
8.272627
 20
-24.78904
 11
7.396784
 21
-24.78904
  0
LINE
  5
23A
100
AcDbEntity
  8
0
100
AcDbLine
 62
7
  6
CONTINUOUS
 10
7.129216
 20
-24.736407
 11
8.2726270487
 21
-24.736407
  0
LINE
  5
23B
100
AcDbEntity
  8
0
100
AcDbLine
 62
7
  6
CONTINUOUS
 10
-1.339536
 20
-34.213833
 11
-0.219175
 21
-35.157969
  0
LINE
  5
23C
100
AcDbEntity
  8
0
100
AcDbLine
 62
7
  6
CONTINUOUS
 10
-0.219175
 20
-34.641613
 11
-1.391249
 21
-33.6539
  0
LINE
  5
23D
100
AcDbEntity
  8
0
100
AcDbLine
 62
7
  6
CONTINUOUS
 10
-3.93959
 20
-24.382512
 11
-5.428126
 21
-24.382512
  0
LINE
  5
23E
100
AcDbEntity
  8
0
100
AcDbLine
 62
7
  6
CONTINUOUS
 10
-5.4281264558
 20
-23.617512
 11
-3.93959
 21
-23.617512
  0
LINE
  5
23F
100
AcDbEntity
  8
0
100
AcDbLine
 62
7
  6
CONTINUOUS
 10
8.5218810822
 20
-22.2889742733
 11
7.6008035127
 21
-22.2889742733
  0
LINE
  5
240
100
AcDbEntity
  8
0
100
AcDbLine
 62
7
  6
CONTINUOUS
 10
7.6534369391
 20
-22.236340847
 11
8.4692476558
 21
-22.236340847
  0
LINE
  5
241
100
AcDbEntity
  8
0
100
AcDbLine
 62
7
  6
CONTINUOUS
 10
8.4692476558
 20
-22.0784412719
 11
7.6534369391
 21
-22.0784412719
  0
LINE
  5
242
100
AcDbEntity
  8
0
100
AcDbLine
 62
7
  6
CONTINUOUS
 10
9.495591
 20
-22.025809
 11
9.024696
 21
-22.025809
  0
LINE
  5
243
100
AcDbEntity
  8
0
100
AcDbLine
 62
7
  6
CONTINUOUS
 10
7.6008035127
 20
-22.0258092535
 11
8.5218810822
 21
-22.0258092535
  0
LINE
  5
244
100
AcDbEntity
  8
0
100
AcDbLine
 62
7
  6
CONTINUOUS
 10
9.0293793272
 20
-21.9731758272
 11
9.4429579476
 21
-21.9731758272
  0
LINE
  5
245
100
AcDbEntity
  8
0
100
AcDbLine
 62
7
  6
CONTINUOUS
 10
9.3542075453
 20
-21.4994799178
 11
9.0707443697
 21
-21.4994799178
  0
LINE
  5
246
100
AcDbEntity
  8
0
100
AcDbLine
 62
7
  6
CONTINUOUS
 10
9.0179096091
 20
-21.4994799178
 11
8.9166286119
 21
-21.4994799178
  0
LINE
  5
247
100
AcDbEntity
  8
0
100
AcDbLine
 62
7
  6
CONTINUOUS
 10
8.8639951856
 20
-21.4468464915
 11
9.0225142507
 21
-21.4468464915
  0
LINE
  5
248
100
AcDbEntity
  8
0
100
AcDbLine
 62
7
  6
CONTINUOUS
 10
9.075348
 20
-21.446846
 11
9.406841
 21
-21.446846
  0
LINE
  5
249
100
AcDbEntity
  8
0
100
AcDbLine
 62
7
  6
CONTINUOUS
 10
9.258742
 20
-21.236315
 11
9.093768
 21
-21.236315
  0
LINE
  5
24A
100
AcDbEntity
  8
0
100
AcDbLine
 62
7
  6
CONTINUOUS
 10
9.0409342252
 20
-21.236314898
 11
6.8229978088
 21
-21.236314898
  0
LINE
  5
24B
100
AcDbEntity
  8
0
100
AcDbLine
 62
7
  6
CONTINUOUS
 10
6.770163
 20
-21.236315
 11
6.337613
 21
-21.236315
  0
LINE
  5
24C
100
AcDbEntity
  8
0
100
AcDbLine
 62
7
  6
CONTINUOUS
 10
6.337613
 20
-21.025783
 11
6.751744
 21
-21.025783
  0
LINE
  5
24D
100
AcDbEntity
  8
0
100
AcDbLine
 62
7
  6
CONTINUOUS
 10
6.804579
 20
-21.025783
 11
6.890259
 21
-21.025783
  0
LINE
  5
24E
100
AcDbEntity
  8
0
100
AcDbLine
 62
7
  6
CONTINUOUS
 10
7.153424
 20
-21.025783
 11
8.8962341407
 21
-21.025783
  0
LINE
  5
24F
100
AcDbEntity
  8
0
100
AcDbLine
 62
7
  6
CONTINUOUS
 10
6.942892
 20
-20.973149
 11
7.100791
 21
-20.973149
  0
LINE
  5
250
100
AcDbEntity
  8
0
100
AcDbLine
 62
7
  6
CONTINUOUS
 10
8.416615
 20
-20.81525
 11
7.70607
 21
-20.81525
  0
LINE
  5
251
100
AcDbEntity
  8
0
100
AcDbLine
 62
7
  6
CONTINUOUS
 10
7.758703
 20
-20.762618
 11
8.363982
 21
-20.762618
  0
LINE
  5
252
100
AcDbEntity
  8
0
100
AcDbLine
 62
7
  6
CONTINUOUS
 10
7.100791
 20
-20.631036
 11
6.942892
 21
-20.631036
  0
LINE
  5
253
100
AcDbEntity
  8
0
100
AcDbLine
 62
7
  6
CONTINUOUS
 10
6.890259
 20
-20.578402
 11
7.153424
 21
-20.578402
  0
LINE
  5
254
100
AcDbEntity
  8
0
100
AcDbLine
 62
7
  6
CONTINUOUS
 10
8.363982
 20
-20.552086
 11
7.758703
 21
-20.552086
  0
LINE
  5
255
100
AcDbEntity
  8
0
100
AcDbLine
 62
7
  6
CONTINUOUS
 10
7.70607
 20
-20.499453
 11
8.416615
 21
-20.499453
  0
LINE
  5
256
100
AcDbEntity
  8
0
100
AcDbLine
 62
7
  6
CONTINUOUS
 10
-16.25
 20
-5.8
 11
-16.25
 21
-30.5
  0
LINE
  5
257
100
AcDbEntity
  8
0
100
AcDbLine
 62
7
  6
CONTINUOUS
 10
0.772879
 20
-36.427022
 11
0.964676
 21
-36.768741
  0
LINE
  5
258
100
AcDbEntity
  8
0
100
AcDbLine
 62
250
  6
CONTINUOUS
 10
-16.0110790321
 20
-5.8
 11
-16.0110790321
 21
-30.5
  0
LINE
  5
259
100
AcDbEntity
  8
0
100
AcDbLine
 62
250
  6
CONTINUOUS
 10
-15.0150610482
 20
-30.5
 11
-15.0150610482
 21
-5.3
  0
LINE
  5
25A
100
AcDbEntity
  8
0
100
AcDbLine
 62
7
  6
CONTINUOUS
 10
-14.1581745744
 20
-5.0
 11
-14.1581745744
 21
-5.3
  0
LINE
  5
25B
100
AcDbEntity
  8
0
100
AcDbLine
 62
250
  6
CONTINUOUS
 10
9.5
 20
-15.725
 11
-9.5
 21
-15.725
  0
LINE
  5
25C
100
AcDbEntity
  8
0
100
AcDbLine
 62
7
  6
CONTINUOUS
 10
9.5
 20
-15.575
 11
-9.5
 21
-15.575
  0
LINE
  5
25D
100
AcDbEntity
  8
RACCORDO
100
AcDbLine
 62
7
  6
CONTINUOUS
 10
-9.5
 20
-15.55
 11
9.5
 21
-15.55
  0
LINE
  5
25E
100
AcDbEntity
  8
0
100
AcDbLine
 62
7
  6
CONTINUOUS
 10
9.8972210337
 20
-15.55
 11
9.5
 21
-15.55
  0
LINE
  5
25F
100
AcDbEntity
  8
0
100
AcDbLine
 62
7
  6
CONTINUOUS
 10
-9.5
 20
-15.55
 11
-9.8972210263
 21
-15.55
  0
LINE
  5
260
100
AcDbEntity
  8
RACCORDO
100
AcDbLine
 62
250
  6
CONTINUOUS
 10
-9.5
 20
-15.4013089803
 11
9.5
 21
-15.4013089803
  0
LINE
  5
261
100
AcDbEntity
  8
0
100
AcDbLine
 62
7
  6
CONTINUOUS
 10
-12.0918465103
 20
-14.3
 11
-12.0617376915
 21
-14.3
  0
LINE
  5
262
100
AcDbEntity
  8
0
100
AcDbLine
 62
7
  6
CONTINUOUS
 10
12.0617376915
 20
-14.3
 11
12.091846511
 21
-14.3
  0
LINE
  5
263
100
AcDbEntity
  8
0
100
AcDbLine
 62
250
  6
CONTINUOUS
 10
-12.1657131686
 20
-14.2008726535
 11
-12.1361303373
 21
-14.2008726535
  0
LINE
  5
264
100
AcDbEntity
  8
0
100
AcDbLine
 62
250
  6
CONTINUOUS
 10
12.1361303373
 20
-14.2008726535
 11
12.165713167
 21
-14.2008726535
  0
LINE
  5
265
100
AcDbEntity
  8
0
100
AcDbLine
 62
7
  6
CONTINUOUS
 10
12.7739084871
 20
-12.3
 11
12.75
 21
-12.3
  0
LINE
  5
266
100
AcDbEntity
  8
RACCORDO
100
AcDbLine
 62
7
  6
CONTINUOUS
 10
12.5999997236
 20
-12.3
 11
11.5
 21
-12.3
  0
LINE
  5
267
100
AcDbEntity
  8
0
100
AcDbLine
 62
7
  6
CONTINUOUS
 10
7.5
 20
-12.3
 11
2.0
 21
-12.3
  0
LINE
  5
268
100
AcDbEntity
  8
0
100
AcDbLine
 62
7
  6
CONTINUOUS
 10
-2.0
 20
-12.3
 11
-7.5
 21
-12.3
  0
LINE
  5
269
100
AcDbEntity
  8
RACCORDO
100
AcDbLine
 62
7
  6
CONTINUOUS
 10
-11.5
 20
-12.3
 11
-12.5999997236
 21
-12.3
  0
LINE
  5
26A
100
AcDbEntity
  8
0
100
AcDbLine
 62
7
  6
CONTINUOUS
 10
-12.75
 20
-12.3
 11
-12.7739084871
 21
-12.3
  0
LINE
  5
26B
100
AcDbEntity
  8
0
100
AcDbLine
 62
7
  6
CONTINUOUS
 10
5.574435
 20
-25.428121
 11
5.5
 21
-25.353687
  0
LINE
  5
26C
100
AcDbEntity
  8
0
100
AcDbLine
 62
7
  6
CONTINUOUS
 10
-11.0
 20
-9.3900037438
 11
-11.0
 21
-9.4168593513
  0
LINE
  5
26D
100
AcDbEntity
  8
0
100
AcDbLine
 62
250
  6
CONTINUOUS
 10
-9.5
 20
-8.875
 11
-9.5
 21
-9.05
  0
LINE
  5
26E
100
AcDbEntity
  8
RACCORDO
100
AcDbLine
 62
250
  6
CONTINUOUS
 10
-9.5
 20
-15.4013089803
 11
-9.5
 21
-15.55
  0
LINE
  5
26F
100
AcDbEntity
  8
0
100
AcDbLine
 62
250
  6
CONTINUOUS
 10
-9.5
 20
-15.725
 11
-9.5
 21
-15.575
  0
LINE
  5
270
100
AcDbEntity
  8
RACCORDO
100
AcDbLine
 62
250
  6
CONTINUOUS
 10
-9.5
 20
-9.1986910197
 11
-9.5000000001
 21
-9.05
  0
LINE
  5
271
100
AcDbEntity
  8
0
100
AcDbLine
 62
250
  6
CONTINUOUS
 10
12.1657131686
 20
-10.3991273465
 11
12.1361303373
 21
-10.3991273465
  0
LINE
  5
272
100
AcDbEntity
  8
0
100
AcDbLine
 62
250
  6
CONTINUOUS
 10
-12.1361303373
 20
-10.3991273465
 11
-12.165713167
 21
-10.3991273465
  0
LINE
  5
273
100
AcDbEntity
  8
0
100
AcDbLine
 62
7
  6
CONTINUOUS
 10
12.0918465103
 20
-10.3
 11
12.0617376915
 21
-10.3
  0
LINE
  5
274
100
AcDbEntity
  8
0
100
AcDbLine
 62
7
  6
CONTINUOUS
 10
-12.0617376915
 20
-10.3
 11
-12.091846511
 21
-10.3
  0
LINE
  5
275
100
AcDbEntity
  8
RACCORDO
100
AcDbLine
 62
250
  6
CONTINUOUS
 10
9.5
 20
-9.1986910197
 11
-9.5
 21
-9.1986910197
  0
LINE
  5
276
100
AcDbEntity
  8
0
100
AcDbLine
 62
7
  6
CONTINUOUS
 10
9.8972210263
 20
-9.05
 11
9.5
 21
-9.05
  0
LINE
  5
277
100
AcDbEntity
  8
RACCORDO
100
AcDbLine
 62
7
  6
CONTINUOUS
 10
9.5
 20
-9.05
 11
-9.5
 21
-9.05
  0
LINE
  5
278
100
AcDbEntity
  8
0
100
AcDbLine
 62
7
  6
CONTINUOUS
 10
-9.5
 20
-9.05
 11
-9.8972210337
 21
-9.05
  0
LINE
  5
279
100
AcDbEntity
  8
0
100
AcDbLine
 62
7
  6
CONTINUOUS
 10
-9.5
 20
-9.025
 11
9.5
 21
-9.025
  0
LINE
  5
27A
100
AcDbEntity
  8
0
100
AcDbLine
 62
250
  6
CONTINUOUS
 10
-9.5
 20
-8.875
 11
9.5
 21
-8.875
  0
LINE
  5
27B
100
AcDbEntity
  8
0
100
AcDbLine
 62
7
  6
CONTINUOUS
 10
7.8684844745
 20
-22.9852029886
 11
6.8904370482
 21
-22.0071562663
  0
LINE
  5
27C
100
AcDbEntity
  8
0
100
AcDbLine
 62
7
  6
CONTINUOUS
 10
6.832538
 20
-21.949256
 11
5.5
 21
-20.616719
  0
LINE
  5
27D
100
AcDbEntity
  8
0
100
AcDbLine
 62
7
  6
CONTINUOUS
 10
10.311402
 20
-25.428121
 11
8.854495
 21
-23.971214
  0
LINE
  5
27E
100
AcDbEntity
  8
0
100
AcDbLine
 62
7
  6
CONTINUOUS
 10
8.805912
 20
-23.922631
 11
7.942918
 21
-23.059637
  0
LINE
  5
27F
100
AcDbEntity
  8
0
100
AcDbLine
 62
7
  6
CONTINUOUS
 10
8.866472
 20
-23.834323
 11
10.385837
 21
-25.353687
  0
LINE
  5
280
100
AcDbEntity
  8
0
100
AcDbLine
 62
7
  6
CONTINUOUS
 10
5.574435
 20
-20.542285
 11
6.818265
 21
-21.786115
  0
LINE
  5
281
100
AcDbEntity
  8
0
100
AcDbLine
 62
7
  6
CONTINUOUS
 10
6.8761641374
 20
-21.8440149603
 11
7.9429183201
 21
-22.910769143
  0
LINE
  5
282
100
AcDbEntity
  8
0
100
AcDbLine
 62
7
  6
CONTINUOUS
 10
8.0173521657
 20
-22.9852029886
 11
8.8178875241
 21
-23.785738347
  0
LINE
  5
283
100
AcDbEntity
  8
0
100
AcDbLine
 62
7
  6
CONTINUOUS
 10
-7.76459
 20
-21.462794
 11
-7.76459
 21
-22.23332
  0
LINE
  5
284
100
AcDbEntity
  8
0
100
AcDbLine
 62
7
  6
CONTINUOUS
 10
-7.76459
 20
-25.766704
 11
-7.76459
 21
-26.53723
  0
LINE
  5
285
100
AcDbEntity
  8
0
100
AcDbLine
 62
250
  6
CONTINUOUS
 10
-6.3582575695
 20
-15.55
 11
-6.3582575695
 21
-15.575
  0
LINE
  5
286
100
AcDbEntity
  8
0
100
AcDbLine
 62
7
  6
CONTINUOUS
 10
-6.0
 20
-56.2513167019
 11
-6.0
 21
-55.5424997656
  0
LINE
  5
287
100
AcDbEntity
  8
0
100
AcDbLine
 62
7
  6
CONTINUOUS
 10
-6.0
 20
-9.025
 11
-6.0
 21
-9.05
  0
LINE
  5
288
100
AcDbEntity
  8
0
100
AcDbLine
 62
7
  6
CONTINUOUS
 10
-6.0
 20
-15.55
 11
-6.0
 21
-15.575
  0
LINE
  5
289
100
AcDbEntity
  8
0
100
AcDbLine
 62
7
  6
CONTINUOUS
 10
-5.1
 20
-57.75
 11
-5.1
 21
-57.2
  0
LINE
  5
28A
100
AcDbEntity
  8
0
100
AcDbLine
 62
7
  6
CONTINUOUS
 10
-3.93959
 20
-23.617512
 11
-3.93959
 21
-24.382512
  0
LINE
  5
28B
100
AcDbEntity
  8
0
100
AcDbLine
 62
7
  6
CONTINUOUS
 10
-6.5048001429
 20
-15.575
 11
-6.5043637662
 21
-15.55
  0
LINE
  5
28C
100
AcDbEntity
  8
0
100
AcDbLine
 62
7
  6
CONTINUOUS
 10
-6.2927649091
 20
-9.05
 11
-6.2923285325
 21
-9.025
  0
LINE
  5
28D
100
AcDbEntity
  8
0
100
AcDbLine
 62
250
  6
CONTINUOUS
 10
-7.9412489099
 20
-55.0227906286
 11
-7.9587300106
 21
-55.2857866998
  0
LINE
  5
28E
100
AcDbEntity
  8
0
100
AcDbLine
 62
250
  6
CONTINUOUS
 10
-16.25
 20
-5.8
 11
16.25
 21
-5.8
  0
LINE
  5
28F
100
AcDbEntity
  8
0
100
AcDbLine
 62
7
  6
CONTINUOUS
 10
-15.75
 20
-5.3
 11
15.75
 21
-5.3
  0
LINE
  5
290
100
AcDbEntity
  8
0
100
AcDbLine
 62
7
  6
CONTINUOUS
 10
-14.1581745744
 20
-5.0
 11
14.1581745744
 21
-5.0
  0
LINE
  5
291
100
AcDbEntity
  8
0
100
AcDbLine
 62
7
  6
CONTINUOUS
 10
10.311402
 20
-20.542285
 11
10.385837
 21
-20.616719
  0
LINE
  5
292
100
AcDbEntity
  8
0
100
AcDbLine
 62
7
  6
CONTINUOUS
 10
-3.2072350909
 20
-9.05
 11
-3.2076714675
 21
-9.025
  0
LINE
  5
293
100
AcDbEntity
  8
0
100
AcDbLine
 62
7
  6
CONTINUOUS
 10
-2.9951998571
 20
-15.575
 11
-2.9956362338
 21
-15.55
  0
LINE
  5
294
100
AcDbEntity
  8
0
100
AcDbLine
 62
7
  6
CONTINUOUS
 10
-3.5
 20
-9.025
 11
-3.5
 21
-9.05
  0
LINE
  5
295
100
AcDbEntity
  8
0
100
AcDbLine
 62
7
  6
CONTINUOUS
 10
-3.5
 20
-15.55
 11
-3.5
 21
-15.575
  0
LINE
  5
296
100
AcDbEntity
  8
0
100
AcDbLine
 62
7
  6
CONTINUOUS
 10
-3.42959
 20
-21.462794
 11
-3.42959
 21
-22.23332
  0
LINE
  5
297
100
AcDbEntity
  8
0
100
AcDbLine
 62
7
  6
CONTINUOUS
 10
-3.42959
 20
-25.7667035501
 11
-3.42959
 21
-26.53723
  0
LINE
  5
298
100
AcDbEntity
  8
0
100
AcDbLine
 62
250
  6
CONTINUOUS
 10
-3.1417424305
 20
-15.575
 11
-3.1417424305
 21
-15.55
  0
LINE
  5
299
100
AcDbEntity
  8
0
100
AcDbLine
 62
7
  6
CONTINUOUS
 10
-0.58843
 20
-36.539452
 11
-0.58843
 21
-36.956117
  0
LINE
  5
29A
100
AcDbEntity
  8
0
100
AcDbLine
 62
7
  6
CONTINUOUS
 10
-0.574823
 20
-33.160297
 11
-0.574823
 21
-33.579254
  0
LINE
  5
29B
100
AcDbEntity
  8
0
100
AcDbLine
 62
7
  6
CONTINUOUS
 10
-0.219175
 20
-33.579254
 11
-0.219175
 21
-34.641613
  0
LINE
  5
29C
100
AcDbEntity
  8
0
100
AcDbLine
 62
7
  6
CONTINUOUS
 10
-0.219175
 20
-35.157969
 11
-0.219175
 21
-36.539452
  0
LINE
  5
29D
100
AcDbEntity
  8
0
100
AcDbLine
 62
7
  6
CONTINUOUS
 10
-0.0
 20
-54.7076985752
 11
0.0
 21
-47.38706668
  0
LINE
  5
29E
100
AcDbEntity
  8
0
100
AcDbLine
 62
7
  6
CONTINUOUS
 10
0.224704
 20
-36.539452
 11
0.224704
 21
-35.153309
  0
LINE
  5
29F
100
AcDbEntity
  8
0
100
AcDbLine
 62
7
  6
CONTINUOUS
 10
0.224704
 20
-34.641613
 11
0.224704
 21
-33.579254
  0
LINE
  5
2A0
100
AcDbEntity
  8
0
100
AcDbLine
 62
250
  6
CONTINUOUS
 10
7.9412485294
 20
-55.022790653
 11
7.9587300106
 21
-55.2857866998
  0
LINE
  5
2A1
100
AcDbEntity
  8
0
100
AcDbLine
 62
7
  6
CONTINUOUS
 10
0.580209
 20
-33.579254
 11
0.580209
 21
-33.160297
  0
LINE
  5
2A2
100
AcDbEntity
  8
0
100
AcDbLine
 62
7
  6
CONTINUOUS
 10
0.593816
 20
-36.956117
 11
0.593816
 21
-36.539452
  0
LINE
  5
2A3
100
AcDbEntity
  8
0
100
AcDbLine
 62
250
  6
CONTINUOUS
 10
3.1417424305
 20
-15.55
 11
3.1417424305
 21
-15.575
  0
LINE
  5
2A4
100
AcDbEntity
  8
0
100
AcDbLine
 62
7
  6
CONTINUOUS
 10
3.5
 20
-9.025
 11
3.5
 21
-9.05
  0
LINE
  5
2A5
100
AcDbEntity
  8
0
100
AcDbLine
 62
7
  6
CONTINUOUS
 10
3.5
 20
-15.55
 11
3.5
 21
-15.575
  0
LINE
  5
2A6
100
AcDbEntity
  8
0
100
AcDbLine
 62
7
  6
CONTINUOUS
 10
2.9951998571
 20
-15.575
 11
2.9956362338
 21
-15.55
  0
LINE
  5
2A7
100
AcDbEntity
  8
0
100
AcDbLine
 62
7
  6
CONTINUOUS
 10
3.2072350909
 20
-9.05
 11
3.2076714675
 21
-9.025
  0
LINE
  5
2A8
100
AcDbEntity
  8
0
100
AcDbLine
 62
7
  6
CONTINUOUS
 10
6.818265
 20
-21.786115
 11
6.770163
 21
-21.236315
  0
LINE
  5
2A9
100
AcDbEntity
  8
0
100
AcDbLine
 62
7
  6
CONTINUOUS
 10
6.751744
 20
-21.025783
 11
6.7357899461
 21
-20.8434273834
  0
LINE
  5
2AA
100
AcDbEntity
  8
0
100
AcDbLine
 62
7
  6
CONTINUOUS
 10
6.999222
 20
-23.854465
 11
6.832538
 21
-21.949256
  0
LINE
  5
2AB
100
AcDbEntity
  8
0
100
AcDbLine
 62
7
  6
CONTINUOUS
 10
7.080987
 20
-24.78904
 11
7.011199
 21
-23.991358
  0
LINE
  5
2AC
100
AcDbEntity
  8
0
100
AcDbLine
 62
7
  6
CONTINUOUS
 10
6.7916050066
 20
-20.8774920753
 11
6.804579
 21
-21.025783
  0
LINE
  5
2AD
100
AcDbEntity
  8
0
100
AcDbLine
 62
7
  6
CONTINUOUS
 10
7.059782
 20
-23.942773
 11
7.129216
 21
-24.736407
  0
LINE
  5
2AE
100
AcDbEntity
  8
0
100
AcDbLine
 62
7
  6
CONTINUOUS
 10
6.8904370482
 20
-22.0071562663
 11
7.0478051289
 21
-23.8058816303
  0
LINE
  5
2AF
100
AcDbEntity
  8
0
100
AcDbLine
 62
7
  6
CONTINUOUS
 10
6.8229978088
 20
-21.236314898
 11
6.8761641374
 21
-21.8440149603
  0
LINE
  5
2B0
100
AcDbEntity
  8
0
100
AcDbLine
 62
7
  6
CONTINUOUS
 10
6.2927649091
 20
-9.05
 11
6.2923285325
 21
-9.025
  0
LINE
  5
2B1
100
AcDbEntity
  8
0
100
AcDbLine
 62
7
  6
CONTINUOUS
 10
6.5048001429
 20
-15.575
 11
6.5043637662
 21
-15.55
  0
LINE
  5
2B2
100
AcDbEntity
  8
0
100
AcDbLine
 62
7
  6
CONTINUOUS
 10
5.1
 20
-57.75
 11
5.1
 21
-57.2
  0
LINE
  5
2B3
100
AcDbEntity
  8
0
100
AcDbLine
 62
7
  6
CONTINUOUS
 10
5.8368353099
 20
-27.5
 11
5.8368353099
 21
-26.4440509915
  0
LINE
  5
2B4
100
AcDbEntity
  8
0
100
AcDbLine
 62
7
  6
CONTINUOUS
 10
6.0
 20
-56.2513167019
 11
6.0
 21
-55.5424997656
  0
LINE
  5
2B5
100
AcDbEntity
  8
0
100
AcDbLine
 62
7
  6
CONTINUOUS
 10
6.0
 20
-9.025
 11
6.0
 21
-9.05
  0
LINE
  5
2B6
100
AcDbEntity
  8
0
100
AcDbLine
 62
7
  6
CONTINUOUS
 10
6.0
 20
-15.55
 11
6.0
 21
-15.575
  0
LINE
  5
2B7
100
AcDbEntity
  8
0
100
AcDbLine
 62
7
  6
CONTINUOUS
 10
6.337613
 20
-21.236315
 11
6.337613
 21
-21.025783
  0
LINE
  5
2B8
100
AcDbEntity
  8
0
100
AcDbLine
 62
250
  6
CONTINUOUS
 10
6.3582575695
 20
-15.575
 11
6.3582575695
 21
-15.55
  0
LINE
  5
2B9
100
AcDbEntity
  8
0
100
AcDbLine
 62
7
  6
CONTINUOUS
 10
6.890259
 20
-21.025783
 11
6.890259
 21
-20.840245
  0
LINE
  5
2BA
100
AcDbEntity
  8
0
100
AcDbLine
 62
7
  6
CONTINUOUS
 10
6.890259
 20
-20.784452
 11
6.890259
 21
-20.578402
  0
LINE
  5
2BB
100
AcDbEntity
  8
0
100
AcDbLine
 62
7
  6
CONTINUOUS
 10
6.942892
 20
-20.631036
 11
6.942892
 21
-20.7667321802
  0
LINE
  5
2BC
100
AcDbEntity
  8
0
100
AcDbLine
 62
7
  6
CONTINUOUS
 10
6.942892
 20
-20.8221416504
 11
6.942892
 21
-20.973149
  0
LINE
  5
2BD
100
AcDbEntity
  8
0
100
AcDbLine
 62
7
  6
CONTINUOUS
 10
7.080987
 20
-25.210104
 11
7.080987
 21
-24.78904
  0
LINE
  5
2BE
100
AcDbEntity
  8
0
100
AcDbLine
 62
7
  6
CONTINUOUS
 10
7.100791
 20
-20.720486
 11
7.100791
 21
-20.631036
  0
LINE
  5
2BF
100
AcDbEntity
  8
0
100
AcDbLine
 62
7
  6
CONTINUOUS
 10
7.100791
 20
-20.973149
 11
7.100791
 21
-20.774917
  0
LINE
  5
2C0
100
AcDbEntity
  8
0
100
AcDbLine
 62
7
  6
CONTINUOUS
 10
7.153424
 20
-20.578402
 11
7.153424
 21
-20.7073094622
  0
LINE
  5
2C1
100
AcDbEntity
  8
0
100
AcDbLine
 62
7
  6
CONTINUOUS
 10
7.153424
 20
-20.7614659775
 11
7.153424
 21
-21.025783
  0
LINE
  5
2C2
100
AcDbEntity
  8
0
100
AcDbLine
 62
7
  6
CONTINUOUS
 10
7.1599363541
 20
-24.815356915
 11
7.1599363541
 21
-25.1311546572
  0
LINE
  5
2C3
100
AcDbEntity
  8
0
100
AcDbLine
 62
7
  6
CONTINUOUS
 10
7.3178345212
 20
-25.1311546572
 11
7.3178345212
 21
-24.815356915
  0
LINE
  5
2C4
100
AcDbEntity
  8
0
100
AcDbLine
 62
7
  6
CONTINUOUS
 10
7.396784
 20
-24.78904
 11
7.396784
 21
-25.210104
  0
LINE
  5
2C5
100
AcDbEntity
  8
0
100
AcDbLine
 62
7
  6
CONTINUOUS
 10
7.6008035127
 20
-22.2889742733
 11
7.6008035127
 21
-22.0258092535
  0
LINE
  5
2C6
100
AcDbEntity
  8
0
100
AcDbLine
 62
7
  6
CONTINUOUS
 10
7.6534369391
 20
-22.0784412719
 11
7.6534369391
 21
-22.236340847
  0
LINE
  5
2C7
100
AcDbEntity
  8
0
100
AcDbLine
 62
7
  6
CONTINUOUS
 10
7.70607
 20
-20.81525
 11
7.70607
 21
-20.685233
  0
LINE
  5
2C8
100
AcDbEntity
  8
0
100
AcDbLine
 62
7
  6
CONTINUOUS
 10
7.70607
 20
-20.632571
 11
7.70607
 21
-20.499453
  0
LINE
  5
2C9
100
AcDbEntity
  8
0
100
AcDbLine
 62
7
  6
CONTINUOUS
 10
7.758703
 20
-20.552086
 11
7.758703
 21
-20.6313172091
  0
LINE
  5
2CA
100
AcDbEntity
  8
0
100
AcDbLine
 62
7
  6
CONTINUOUS
 10
7.758703
 20
-20.6839564646
 11
7.758703
 21
-20.762618
  0
LINE
  5
2CB
100
AcDbEntity
  8
0
100
AcDbLine
 62
7
  6
CONTINUOUS
 10
8.363982
 20
-20.762618
 11
8.363982
 21
-20.743379
  0
LINE
  5
2CC
100
AcDbEntity
  8
0
100
AcDbLine
 62
7
  6
CONTINUOUS
 10
8.363982
 20
-20.689583
 11
8.363982
 21
-20.552086
  0
LINE
  5
2CD
100
AcDbEntity
  8
0
100
AcDbLine
 62
7
  6
CONTINUOUS
 10
8.416615
 20
-20.499453
 11
8.416615
 21
-20.7011304305
  0
LINE
  5
2CE
100
AcDbEntity
  8
0
100
AcDbLine
 62
7
  6
CONTINUOUS
 10
8.416615
 20
-20.7551607592
 11
8.416615
 21
-20.81525
  0
LINE
  5
2CF
100
AcDbEntity
  8
0
100
AcDbLine
 62
7
  6
CONTINUOUS
 10
8.4692476558
 20
-22.236340847
 11
8.4692476558
 21
-22.0784412719
  0
LINE
  5
2D0
100
AcDbEntity
  8
0
100
AcDbLine
 62
7
  6
CONTINUOUS
 10
8.5218810822
 20
-22.0258092535
 11
8.5218810822
 21
-22.2889742733
  0
LINE
  5
2D1
100
AcDbEntity
  8
0
100
AcDbLine
 62
7
  6
CONTINUOUS
 10
8.8639951856
 20
-21.9896915736
 11
8.8639951856
 21
-21.4468464915
  0
LINE
  5
2D2
100
AcDbEntity
  8
0
100
AcDbLine
 62
7
  6
CONTINUOUS
 10
8.9166286119
 20
-21.4994799178
 11
8.9166286119
 21
-21.9370588512
  0
LINE
  5
2D3
100
AcDbEntity
  8
0
100
AcDbLine
 62
7
  6
CONTINUOUS
 10
9.258742
 20
-21.170084
 11
9.258742
 21
-21.236315
  0
LINE
  5
2D4
100
AcDbEntity
  8
0
100
AcDbLine
 62
7
  6
CONTINUOUS
 10
9.4429579476
 20
-21.9731758272
 11
9.4429579476
 21
-21.5595972068
  0
LINE
  5
2D5
100
AcDbEntity
  8
0
100
AcDbLine
 62
7
  6
CONTINUOUS
 10
9.495591
 20
-21.506965
 11
9.495591
 21
-22.025809
  0
LINE
  5
2D6
100
AcDbEntity
  8
0
100
AcDbLine
 62
250
  6
CONTINUOUS
 10
9.5
 20
-8.875
 11
9.5
 21
-9.05
  0
LINE
  5
2D7
100
AcDbEntity
  8
RACCORDO
100
AcDbLine
 62
250
  6
CONTINUOUS
 10
9.5
 20
-15.4013089803
 11
9.5000000001
 21
-15.55
  0
LINE
  5
2D8
100
AcDbEntity
  8
0
100
AcDbLine
 62
250
  6
CONTINUOUS
 10
9.5
 20
-15.725
 11
9.5
 21
-15.575
  0
LINE
  5
2D9
100
AcDbEntity
  8
RACCORDO
100
AcDbLine
 62
250
  6
CONTINUOUS
 10
9.5
 20
-9.1986910197
 11
9.5
 21
-9.05
  0
LINE
  5
2DA
100
AcDbEntity
  8
0
100
AcDbLine
 62
7
  6
CONTINUOUS
 10
10.0606313439
 20
-26.4440509915
 11
10.0606313439
 21
-27.5
  0
LINE
  5
2DB
100
AcDbEntity
  8
0
100
AcDbLine
 62
7
  6
CONTINUOUS
 10
11.0
 20
-9.3900037431
 11
11.0
 21
-9.4168593513
  0
LINE
  5
2DC
100
AcDbEntity
  8
0
100
AcDbLine
 62
7
  6
CONTINUOUS
 10
8.9856665581
 20
-21.8680202011
 11
9.0179096091
 21
-21.4994799178
  0
LINE
  5
2DD
100
AcDbEntity
  8
0
100
AcDbLine
 62
7
  6
CONTINUOUS
 10
8.8178875241
 20
-23.785738347
 11
8.9713936473
 21
-22.0311615071
  0
LINE
  5
2DE
100
AcDbEntity
  8
0
100
AcDbLine
 62
7
  6
CONTINUOUS
 10
8.772551
 20
-24.303937
 11
8.805912
 21
-23.922631
  0
LINE
  5
2DF
100
AcDbEntity
  8
0
100
AcDbLine
 62
7
  6
CONTINUOUS
 10
9.0225142507
 20
-21.4468464915
 11
9.0409342252
 21
-21.236314898
  0
LINE
  5
2E0
100
AcDbEntity
  8
0
100
AcDbLine
 62
7
  6
CONTINUOUS
 10
8.854495
 20
-23.971214
 11
8.824722055
 21
-24.3115303708
  0
LINE
  5
2E1
100
AcDbEntity
  8
0
100
AcDbLine
 62
7
  6
CONTINUOUS
 10
9.024696
 20
-22.025809
 11
8.866472
 21
-23.834323
  0
LINE
  5
2E2
100
AcDbEntity
  8
0
100
AcDbLine
 62
7
  6
CONTINUOUS
 10
9.0707443697
 20
-21.4994799178
 11
9.0435663541
 21
-21.810121109
  0
LINE
  5
2E3
100
AcDbEntity
  8
0
100
AcDbLine
 62
7
  6
CONTINUOUS
 10
9.093768
 20
-21.236315
 11
9.075348
 21
-21.446846
  0
LINE
  5
2E4
100
AcDbEntity
  8
0
100
AcDbLine
 62
7
  6
CONTINUOUS
 10
14.1581745744
 20
-5.0
 11
14.1581745744
 21
-5.3
  0
LINE
  5
2E5
100
AcDbEntity
  8
0
100
AcDbLine
 62
250
  6
CONTINUOUS
 10
15.0150610482
 20
-30.5
 11
15.0150610482
 21
-5.3
  0
LINE
  5
2E6
100
AcDbEntity
  8
0
100
AcDbLine
 62
250
  6
CONTINUOUS
 10
16.0110790321
 20
-30.5
 11
16.0110790321
 21
-5.8
  0
LINE
  5
2E7
100
AcDbEntity
  8
0
100
AcDbLine
 62
7
  6
CONTINUOUS
 10
16.25
 20
-5.8
 11
16.25
 21
-30.5
  0
LINE
  5
2E8
100
AcDbEntity
  8
0
100
AcDbLine
 62
7
  6
CONTINUOUS
 10
-0.9646758237
 20
-36.7687406859
 11
-0.7728790635
 21
-36.4270221132
  0
LINE
  5
2E9
100
AcDbEntity
  8
0
100
AcDbLine
 62
7
  6
CONTINUOUS
 10
5.5
 20
-20.616719
 11
5.574435
 21
-20.542285
  0
LINE
  5
2EA
100
AcDbEntity
  8
0
100
AcDbLine
 62
7
  6
CONTINUOUS
 10
1.508932
 20
-38.279018
 11
1.72636
 21
-37.97078
  0
LINE
  5
2EB
100
AcDbEntity
  8
0
100
AcDbLine
 62
7
  6
CONTINUOUS
 10
8.9166286119
 20
-21.9370588512
 11
8.9856665581
 21
-21.8680202011
  0
LINE
  5
2EC
100
AcDbEntity
  8
0
100
AcDbLine
 62
7
  6
CONTINUOUS
 10
7.9429183201
 20
-22.910769143
 11
8.8639951856
 21
-21.9896915736
  0
LINE
  5
2ED
100
AcDbEntity
  8
0
100
AcDbLine
 62
7
  6
CONTINUOUS
 10
5.5
 20
-25.353687
 11
6.999222
 21
-23.854465
  0
LINE
  5
2EE
100
AcDbEntity
  8
0
100
AcDbLine
 62
7
  6
CONTINUOUS
 10
9.0435663541
 20
-21.810121109
 11
9.3542075453
 21
-21.4994799178
  0
LINE
  5
2EF
100
AcDbEntity
  8
0
100
AcDbLine
 62
7
  6
CONTINUOUS
 10
9.406841
 20
-21.446846
 11
10.311402
 21
-20.542285
  0
LINE
  5
2F0
100
AcDbEntity
  8
0
100
AcDbLine
 62
7
  6
CONTINUOUS
 10
7.0478051289
 20
-23.8058816303
 11
7.8684844745
 21
-22.9852029886
  0
LINE
  5
2F1
100
AcDbEntity
  8
0
100
AcDbLine
 62
7
  6
CONTINUOUS
 10
10.385837
 20
-20.616719
 11
9.495591
 21
-21.506965
  0
LINE
  5
2F2
100
AcDbEntity
  8
0
100
AcDbLine
 62
7
  6
CONTINUOUS
 10
9.4429579476
 20
-21.5595972068
 11
9.0293793272
 21
-21.9731758272
  0
LINE
  5
2F3
100
AcDbEntity
  8
0
100
AcDbLine
 62
7
  6
CONTINUOUS
 10
8.9713936473
 20
-22.0311615071
 11
8.0173521657
 21
-22.9852029886
  0
LINE
  5
2F4
100
AcDbEntity
  8
0
100
AcDbLine
 62
7
  6
CONTINUOUS
 10
7.942918
 20
-23.059637
 11
7.059782
 21
-23.942773
  0
LINE
  5
2F5
100
AcDbEntity
  8
0
100
AcDbLine
 62
7
  6
CONTINUOUS
 10
7.011199
 20
-23.991358
 11
5.574435
 21
-25.428121
  0
LINE
  5
2F6
100
AcDbEntity
  8
0
100
AcDbLine
 62
7
  6
CONTINUOUS
 10
10.385837
 20
-25.353687
 11
10.311402
 21
-25.428121
  0
LINE
  5
2F7
100
AcDbEntity
  8
0
100
AcDbLine
 62
7
  6
CONTINUOUS
 10
1.393779389
 20
-33.6564256722
 11
0.224704
 21
-34.641613
  0
LINE
  5
2F8
100
AcDbEntity
  8
0
100
AcDbLine
 62
7
  6
CONTINUOUS
 10
0.224704
 20
-35.153309
 11
1.3395358982
 21
-34.2138330858
  0
LINE
  5
2F9
100
AcDbEntity
  8
0
100
AcDbLine
 62
250
  6
CONTINUOUS
 10
-12.0574659825
 20
-51.9744173191
 11
-12.3030658362
 21
-52.0675286452
  0
ARC
  5
2FA
100
AcDbEntity
  8
0
100
AcDbCircle
 62
7
  6
CONTINUOUS
 10
-44.65
 20
-30.5
 40
60.9
100
AcDbArc
 50
339.2588487548
 51
360.0
  0
ARC
  5
2FB
100
AcDbEntity
  8
0
100
AcDbCircle
 62
250
  6
CONTINUOUS
 10
-44.65
 20
-30.5
 40
60.6610790321
100
AcDbArc
 50
355.1411811247
 51
360.0
  0
ARC
  5
2FC
100
AcDbEntity
  8
0
100
AcDbCircle
 62
250
  6
CONTINUOUS
 10
-44.360892858
 20
-30.4494861079
 40
60.3773357412
100
AcDbArc
 50
343.8367484003
 51
355.0701798222
  0
ARC
  5
2FD
100
AcDbEntity
  8
0
100
AcDbCircle
 62
250
  6
CONTINUOUS
 10
-44.65
 20
-30.5
 40
59.6650610482
100
AcDbArc
 50
355.1447895536
 51
360.0
  0
ARC
  5
2FE
100
AcDbEntity
  8
0
100
AcDbCircle
 62
7
  6
CONTINUOUS
 10
-6.1499999831
 20
-55.5424997699
 40
0.1499999996
100
AcDbArc
 50
0.0000016197
 51
87.0659817956
  0
ARC
  5
2FF
100
AcDbEntity
  8
0
100
AcDbCircle
 62
7
  6
CONTINUOUS
 10
-7.6271162601
 20
-50.2967955873
 40
5.0
100
AcDbArc
 50
200.7411512452
 51
266.1971949475
  0
ARC
  5
300
100
AcDbEntity
  8
0
100
AcDbCircle
 62
250
  6
CONTINUOUS
 10
-7.6376954228
 20
-50.3095721787
 40
4.7229822741
100
AcDbArc
 50
200.6404559234
 51
266.3149711998
  0
ARC
  5
301
100
AcDbEntity
  8
0
100
AcDbCircle
 62
7
  6
CONTINUOUS
 10
-5.25
 20
-57.2
 40
0.15
100
AcDbArc
 50
0.0
 51
86.9830386902
  0
ARC
  5
302
100
AcDbEntity
  8
0
100
AcDbCircle
 62
7
  6
CONTINUOUS
 10
-5.2
 20
-56.2513167019
 40
0.8
100
AcDbArc
 50
180.0
 51
266.9830386902
  0
ARC
  5
303
100
AcDbEntity
  8
0
100
AcDbCircle
 62
7
  6
CONTINUOUS
 10
-4.3
 20
-57.75
 40
0.8
100
AcDbArc
 50
180.0
 51
270.0
  0
ARC
  5
304
100
AcDbEntity
  8
0
100
AcDbCircle
 62
7
  6
CONTINUOUS
 10
-0.079357
 20
-39.996093
 40
2.3390187052
100
AcDbArc
 50
47.2312712626
 51
84.2012689375
  0
ARC
  5
305
100
AcDbEntity
  8
0
100
AcDbCircle
 62
250
  6
CONTINUOUS
 10
-9.5
 20
-12.3
 40
3.425
100
AcDbArc
 50
90.0
 51
270.0
  0
ARC
  5
306
100
AcDbEntity
  8
0
100
AcDbCircle
 62
7
  6
CONTINUOUS
 10
-9.5
 20
-12.3
 40
3.275
100
AcDbArc
 50
90.0
 51
270.0
  0
ARC
  5
307
100
AcDbEntity
  8
RACCORDO
100
AcDbCircle
 62
7
  6
CONTINUOUS
 10
-9.5
 20
-12.3
 40
3.25
100
AcDbArc
 50
90.0
 51
270.0
  0
ARC
  5
308
100
AcDbEntity
  8
RACCORDO
100
AcDbCircle
 62
250
  6
CONTINUOUS
 10
-9.4999721909
 20
-12.298718817
 40
3.1000277975
100
AcDbArc
 50
90.000513977
 51
180.023679265
  0
ARC
  5
309
100
AcDbEntity
  8
RACCORDO
100
AcDbCircle
 62
250
  6
CONTINUOUS
 10
-9.4999786712
 20
-12.30127873
 40
3.1000257832
100
AcDbArc
 50
179.9763660232
 51
269.9996057945
  0
ARC
  5
30A
100
AcDbEntity
  8
0
100
AcDbCircle
 62
7
  6
CONTINUOUS
 10
-3.68459
 20
-24.000012
 40
2.5500000352
100
AcDbArc
 50
84.2608296022
 51
275.7391703978
  0
ARC
  5
30B
100
AcDbEntity
  8
0
100
AcDbCircle
 62
7
  6
CONTINUOUS
 10
-8.01959
 20
-24.000012
 40
2.5500000352
100
AcDbArc
 50
84.2608296022
 51
275.7391703978
  0
CIRCLE
  5
30C
100
AcDbEntity
  8
0
100
AcDbCircle
 62
7
  6
CONTINUOUS
 10
-9.5
 20
-12.3
 40
2.0
  0
ARC
  5
30D
100
AcDbEntity
  8
0
100
AcDbCircle
 62
7
  6
CONTINUOUS
 10
-3.68459
 20
-24.000012
 40
1.7850001745
100
AcDbArc
 50
81.7867901066
 51
167.6263761124
  0
ARC
  5
30E
100
AcDbEntity
  8
0
100
AcDbCircle
 62
7
  6
CONTINUOUS
 10
-8.01959
 20
-24.000012
 40
1.7850001745
100
AcDbArc
 50
81.7867901066
 51
278.2132098934
  0
ARC
  5
30F
100
AcDbEntity
  8
0
100
AcDbCircle
 62
7
  6
CONTINUOUS
 10
-3.68459
 20
-24.000012
 40
1.7849997292
100
AcDbArc
 50
192.373627023
 51
278.2132119563
  0
ARC
  5
310
100
AcDbEntity
  8
0
100
AcDbCircle
 62
7
  6
CONTINUOUS
 10
-15.75
 20
-5.8
 40
0.5
100
AcDbArc
 50
90.0
 51
180.0
  0
ARC
  5
311
100
AcDbEntity
  8
0
100
AcDbCircle
 62
7
  6
CONTINUOUS
 10
-6.0010740568
 20
-15.7002733126
 40
0.2002106739
100
AcDbArc
 50
131.3493996454
 51
141.2551311043
  0
ARC
  5
312
100
AcDbEntity
  8
0
100
AcDbCircle
 62
250
  6
CONTINUOUS
 10
-0.0367287724
 20
66.7853243514
 40
122.0643031832
100
AcDbArc
 50
266.2870986841
 51
270.0172401255
  0
ARC
  5
313
100
AcDbEntity
  8
0
100
AcDbCircle
 62
7
  6
CONTINUOUS
 10
7.6271162601
 20
-50.2967955873
 40
5.0
100
AcDbArc
 50
273.8028050525
 51
339.2588487548
  0
ARC
  5
314
100
AcDbEntity
  8
0
100
AcDbCircle
 62
250
  6
CONTINUOUS
 10
7.6376953111
 20
-50.3095720456
 40
4.7229824282
100
AcDbArc
 50
273.6850254237
 51
339.3596421311
  0
ARC
  5
315
100
AcDbEntity
  8
0
100
AcDbCircle
 62
7
  6
CONTINUOUS
 10
0.0
 20
-35.05
 40
2.6237424326
100
AcDbArc
 50
292.0885384701
 51
273.4297403372
  0
ARC
  5
316
100
AcDbEntity
  8
0
100
AcDbCircle
 62
7
  6
CONTINUOUS
 10
0.104722
 20
-39.617224
 40
2.3109495123
100
AcDbArc
 50
45.4348886633
 51
67.5658624856
  0
CIRCLE
  5
317
100
AcDbEntity
  8
0
100
AcDbCircle
 62
7
  6
CONTINUOUS
 10
0.0
 20
-35.05
 40
2.20376
  0
ARC
  5
318
100
AcDbEntity
  8
0
100
AcDbCircle
 62
7
  6
CONTINUOUS
 10
0.0
 20
-35.05
 40
1.9709567246
100
AcDbArc
 50
299.3041457634
 51
44.9957848404
  0
ARC
  5
319
100
AcDbEntity
  8
0
100
AcDbCircle
 62
7
  6
CONTINUOUS
 10
0.0
 20
-35.05
 40
1.9709563643
100
AcDbArc
 50
134.9002846268
 51
240.6958542366
  0
ARC
  5
31A
100
AcDbEntity
  8
0
100
AcDbCircle
 62
7
  6
CONTINUOUS
 10
0.0
 20
-35.05
 40
1.5790921275
100
AcDbArc
 50
148.0267086216
 51
240.6958772397
  0
ARC
  5
31B
100
AcDbEntity
  8
0
100
AcDbCircle
 62
7
  6
CONTINUOUS
 10
0.0
 20
-35.05
 40
1.5790919977
100
AcDbArc
 50
299.3041227603
 51
31.9732906939
  0
ARC
  5
31C
100
AcDbEntity
  8
0
100
AcDbCircle
 62
7
  6
CONTINUOUS
 10
4.3
 20
-57.75
 40
0.8
100
AcDbArc
 50
270.0
 51
360.0
  0
ARC
  5
31D
100
AcDbEntity
  8
0
100
AcDbCircle
 62
7
  6
CONTINUOUS
 10
5.2
 20
-56.2513167019
 40
0.8
100
AcDbArc
 50
273.0169613098
 51
360.0
  0
ARC
  5
31E
100
AcDbEntity
  8
0
100
AcDbCircle
 62
7
  6
CONTINUOUS
 10
5.25
 20
-57.2
 40
0.15
100
AcDbArc
 50
93.0169613098
 51
180.0
  0
ARC
  5
31F
100
AcDbEntity
  8
0
100
AcDbCircle
 62
7
  6
CONTINUOUS
 10
6.1499999832
 20
-55.5424997696
 40
0.1499999996
100
AcDbArc
 50
92.934018254
 51
179.9999984689
  0
ARC
  5
320
100
AcDbEntity
  8
0
100
AcDbCircle
 62
250
  6
CONTINUOUS
 10
9.5
 20
-12.3
 40
3.425
100
AcDbArc
 50
270.0
 51
90.0
  0
ARC
  5
321
100
AcDbEntity
  8
0
100
AcDbCircle
 62
7
  6
CONTINUOUS
 10
9.5
 20
-12.3
 40
3.275
100
AcDbArc
 50
270.0
 51
90.0
  0
ARC
  5
322
100
AcDbEntity
  8
RACCORDO
100
AcDbCircle
 62
7
  6
CONTINUOUS
 10
9.5
 20
-12.3
 40
3.25
100
AcDbArc
 50
270.0
 51
90.0
  0
ARC
  5
323
100
AcDbEntity
  8
RACCORDO
100
AcDbCircle
 62
250
  6
CONTINUOUS
 10
9.4999714432
 20
-12.3012804356
 40
3.1000285449
100
AcDbArc
 50
270.0005277968
 51
0.0236654452
  0
ARC
  5
324
100
AcDbEntity
  8
RACCORDO
100
AcDbCircle
 62
250
  6
CONTINUOUS
 10
9.4999787673
 20
-12.298721191
 40
3.1000256957
100
AcDbArc
 50
359.9763645612
 51
89.9996075709
  0
ARC
  5
325
100
AcDbEntity
  8
0
100
AcDbCircle
 62
7
  6
CONTINUOUS
 10
7.798177
 20
-23.39427
 40
2.7632347531
100
AcDbArc
 50
66.1507637753
 51
77.0671216482
  0
ARC
  5
326
100
AcDbEntity
  8
0
100
AcDbCircle
 62
7
  6
CONTINUOUS
 10
7.798178
 20
-23.394266
 40
2.7632314626
100
AcDbArc
 50
104.6184497817
 51
108.0305369434
  0
ARC
  5
327
100
AcDbEntity
  8
0
100
AcDbCircle
 62
7
  6
CONTINUOUS
 10
7.798178
 20
-23.394266
 40
2.7632310843
100
AcDbArc
 50
109.1820946666
 51
112.6110343049
  0
ARC
  5
328
100
AcDbEntity
  8
0
100
AcDbCircle
 62
7
  6
CONTINUOUS
 10
7.798178
 20
-23.394266
 40
2.7632307716
100
AcDbArc
 50
78.184446852
 51
90.8185446753
  0
ARC
  5
329
100
AcDbEntity
  8
0
100
AcDbCircle
 62
7
  6
CONTINUOUS
 10
7.798178
 20
-23.394266
 40
2.7632305652
100
AcDbArc
 50
91.9102196963
 51
103.4934031171
  0
ARC
  5
32A
100
AcDbEntity
  8
0
100
AcDbCircle
 62
7
  6
CONTINUOUS
 10
7.798178
 20
-23.394267
 40
2.7105988403
100
AcDbArc
 50
66.0805617868
 51
76.8115198353
  0
ARC
  5
32B
100
AcDbEntity
  8
0
100
AcDbCircle
 62
7
  6
CONTINUOUS
 10
7.798178
 20
-23.394266
 40
2.7105983986
100
AcDbArc
 50
91.9473249207
 51
103.7605109732
  0
ARC
  5
32C
100
AcDbEntity
  8
0
100
AcDbCircle
 62
7
  6
CONTINUOUS
 10
7.798178
 20
-23.394266
 40
2.7105977531
100
AcDbArc
 50
109.569593574
 51
111.7987290567
  0
ARC
  5
32D
100
AcDbEntity
  8
0
100
AcDbCircle
 62
7
  6
CONTINUOUS
 10
7.798178
 20
-23.394266
 40
2.7105973164
100
AcDbArc
 50
104.9088268946
 51
108.3930624951
  0
ARC
  5
32E
100
AcDbEntity
  8
0
100
AcDbCircle
 62
7
  6
CONTINUOUS
 10
7.798178
 20
-23.394266
 40
2.710596992
100
AcDbArc
 50
77.951606784
 51
90.8344401099
  0
CIRCLE
  5
32F
100
AcDbEntity
  8
0
100
AcDbCircle
 62
7
  6
CONTINUOUS
 10
9.5
 20
-12.3
 40
2.0
  0
CIRCLE
  5
330
100
AcDbEntity
  8
0
100
AcDbCircle
 62
7
  6
CONTINUOUS
 10
0.0
 20
-12.3
 40
2.0
  0
ARC
  5
331
100
AcDbEntity
  8
0
100
AcDbCircle
 62
7
  6
CONTINUOUS
 10
15.75
 20
-5.8
 40
0.5
100
AcDbArc
 50
0.0
 51
90.0
  0
ARC
  5
332
100
AcDbEntity
  8
0
100
AcDbCircle
 62
7
  6
CONTINUOUS
 10
8.732413
 20
-24.762723
 40
0.4605385438
100
AcDbArc
 50
183.2758927354
 51
78.4374736907
  0
ARC
  5
333
100
AcDbEntity
  8
0
100
AcDbCircle
 62
7
  6
CONTINUOUS
 10
8.732413
 20
-24.762723
 40
0.460538438
100
AcDbArc
 50
85.0000711379
 51
176.7242311253
  0
CIRCLE
  5
334
100
AcDbEntity
  8
0
100
AcDbCircle
 62
7
  6
CONTINUOUS
 10
8.732413
 20
-24.762723
 40
0.263165
  0
ARC
  5
335
100
AcDbEntity
  8
0
100
AcDbCircle
 62
7
  6
CONTINUOUS
 10
9.12716
 20
-20.973149
 40
0.2368485105
100
AcDbArc
 50
303.748841422
 51
153.3683120519
  0
ARC
  5
336
100
AcDbEntity
  8
0
100
AcDbCircle
 62
7
  6
CONTINUOUS
 10
9.12716
 20
-20.973149
 40
0.2368482435
100
AcDbArc
 50
166.1529728172
 51
192.8398506624
  0
ARC
  5
337
100
AcDbEntity
  8
0
100
AcDbCircle
 62
7
  6
CONTINUOUS
 10
6.0010744045
 20
-15.700272831
 40
0.2002100878
100
AcDbArc
 50
38.745836223
 51
48.6499002181
  0
CIRCLE
  5
338
100
AcDbEntity
  8
0
100
AcDbCircle
 62
7
  6
CONTINUOUS
 10
8.732413
 20
-24.762723
 40
0.157898
  0
ARC
  5
339
100
AcDbEntity
  8
0
100
AcDbCircle
 62
7
  6
CONTINUOUS
 10
44.65
 20
-30.5
 40
60.9
100
AcDbArc
 50
180.0
 51
200.7411512452
  0
ARC
  5
33A
100
AcDbEntity
  8
0
100
AcDbCircle
 62
250
  6
CONTINUOUS
 10
44.65
 20
-30.5
 40
60.6610790321
100
AcDbArc
 50
180.0
 51
184.8588188752
  0
ARC
  5
33B
100
AcDbEntity
  8
0
100
AcDbCircle
 62
250
  6
CONTINUOUS
 10
44.3608953283
 20
-30.449485648
 40
60.3773382419
100
AcDbArc
 50
184.9298204112
 51
196.1632513663
  0
ARC
  5
33C
100
AcDbEntity
  8
0
100
AcDbCircle
 62
250
  6
CONTINUOUS
 10
44.65
 20
-30.5
 40
59.6650610482
100
AcDbArc
 50
180.0
 51
184.8552281136
  0
ARC
  5
33D
100
AcDbEntity
  8
0
100
AcDbCircle
 62
250
  6
CONTINUOUS
 10
0.0367292087
 20
66.7853215878
 40
122.0643003932
100
AcDbArc
 50
269.9827596694
 51
273.7129010166
  0
ARC
  5
33E
100
AcDbEntity
  8
0
100
AcDbCircle
 62
7
  6
CONTINUOUS
 10
0.0
 20
64.45
 40
120.0
100
AcDbArc
 50
272.9126910838
 51
273.8028050525
  0
ARC
  5
33F
100
AcDbEntity
  8
0
100
AcDbCircle
 62
7
  6
CONTINUOUS
 10
0.0
 20
64.45
 40
120.0
100
AcDbArc
 50
266.1971949475
 51
267.0873088832
  0
SPLINE
  5
340
100
AcDbEntity
  8
0
100
AcDbSpline
 62
7
  6
CONTINUOUS
 70
0
 71
3
 72
15
 73
11
 74
0
 42
0.0000001
 43
0.0000001
 44
0.0000000001
 40
0.0
 40
0.0
 40
0.0
 40
0.0
 40
0.0096054945
 40
0.02604552
 40
0.0843995112
 40
0.1767066019
 40
0.3000998194
 40
0.4501537446
 40
0.6212235628
 40
1.0
 40
1.0
 40
1.0
 40
1.0
 10
14.1848256012
 20
-5.3
 30
0.0
 10
14.1838533005
 20
-5.3
 30
0.0
 10
14.18150613
 20
-5.298135947
 30
0.0
 10
14.17790818
 20
-5.2904885497
 30
0.0
 10
14.1737748559
 20
-5.2738617147
 30
0.0
 10
14.1695656763
 20
-5.2465228171
 30
0.0
 10
14.1656934201
 20
-5.2096539916
 30
0.0
 10
14.1624641064
 20
-5.1647827829
 30
0.0
 10
14.1591025337
 20
-5.0940059255
 30
0.0
 10
14.1581745744
 20
-5.0383410319
 30
0.0
 10
14.1581745744
 20
-5.0
 30
0.0
  0
SPLINE
  5
341
100
AcDbEntity
  8
RACCORDO
100
AcDbSpline
 62
250
  6
CONTINUOUS
 70
0
 71
3
 72
18
 73
14
 74
0
 42
0.0000001
 43
0.0000001
 44
0.0000000001
 40
0.0
 40
0.0
 40
0.0
 40
0.0
 40
0.1946587627
 40
0.3826280596
 40
0.555559702
 40
0.7070084536
 40
0.8312783905
 40
0.881766077
 40
0.9237676747
 40
0.9568027089
 40
0.9806315127
 40
0.995078109
 40
1.0
 40
1.0
 40
1.0
 40
1.0
 10
-12.5999997236
 20
-12.3
 30
0.0
 10
-12.6097339768
 20
-12.2999958907
 30
0.0
 10
-12.6288681054
 20
-12.2999714722
 30
0.0
 10
-12.6566491241
 20
-12.2998877713
 30
0.0
 10
-12.6822717469
 20
-12.2997615149
 30
0.0
 10
-12.7047007181
 20
-12.299592042
 30
0.0
 10
-12.721027049
 20
-12.2994298771
 30
0.0
 10
-12.7318419781
 20
-12.2992546737
 30
0.0
 10
-12.7381686361
 20
-12.2991737796
 30
0.0
 10
-12.7429783264
 20
-12.2989647339
 30
0.0
 10
-12.7468471038
 20
-12.2990549259
 30
0.0
 10
-12.7484632881
 20
-12.2985765686
 30
0.0
 10
-12.7499971056
 20
-12.2988738108
 30
0.0
 10
-12.7499970016
 20
-12.298627683
 30
0.0
  0
SPLINE
  5
342
100
AcDbEntity
  8
RACCORDO
100
AcDbSpline
 62
250
  6
CONTINUOUS
 70
0
 71
3
 72
18
 73
14
 74
0
 42
0.0000001
 43
0.0000001
 44
0.0000000001
 40
0.0
 40
0.0
 40
0.0
 40
0.0
 40
0.1946587747
 40
0.3826280771
 40
0.5555597199
 40
0.7070084684
 40
0.8312784005
 40
0.8817660844
 40
0.9237676796
 40
0.9568027118
 40
0.9806315141
 40
0.9950781094
 40
1.0
 40
1.0
 40
1.0
 40
1.0
 10
12.5999997236
 20
-12.3
 30
0.0
 10
12.6097339754
 20
-12.3000041093
 30
0.0
 10
12.6288681007
 20
-12.3000285279
 30
0.0
 10
12.6566491145
 20
-12.3001122289
 30
0.0
 10
12.682271732
 20
-12.3002384854
 30
0.0
 10
12.7047006981
 20
-12.3004079583
 30
0.0
 10
12.721027025
 20
-12.3005701232
 30
0.0
 10
12.7318419512
 20
-12.3007453266
 30
0.0
 10
12.7381686076
 20
-12.3008262206
 30
0.0
 10
12.7429782966
 20
-12.3010352663
 30
0.0
 10
12.7468470729
 20
-12.3009450743
 30
0.0
 10
12.7484632567
 20
-12.3014234314
 30
0.0
 10
12.7499970737
 20
-12.3011261893
 30
0.0
 10
12.7499969698
 20
-12.301372317
 30
0.0
  0
SPLINE
  5
343
100
AcDbEntity
  8
0
100
AcDbSpline
 62
7
  6
CONTINUOUS
 70
0
 71
3
 72
9
 73
5
 74
0
 42
0.0000001
 43
0.0000001
 44
0.0000000001
 40
0.0
 40
0.0
 40
0.0
 40
0.0
 40
0.216188866
 40
1.0
 40
1.0
 40
1.0
 40
1.0
 10
-6.0977008043
 20
-55.3949750507
 30
0.0
 10
-6.0942139548
 20
-55.3951524529
 30
0.0
 10
-6.0780803259
 20
-55.3958766025
 30
0.0
 10
-6.061934403
 20
-55.3962954554
 30
0.0
 10
-6.0492786278
 20
-55.3965442799
 30
0.0
  0
SPLINE
  5
344
100
AcDbEntity
  8
0
100
AcDbSpline
 62
7
  6
CONTINUOUS
 70
0
 71
3
 72
23
 73
19
 74
0
 42
0.0000001
 43
0.0000001
 44
0.0000000001
 40
0.0
 40
0.0
 40
0.0
 40
0.0
 40
0.0095829477
 40
0.0229028283
 40
0.0603203579
 40
0.1111037335
 40
0.1737040203
 40
0.2462170789
 40
0.3264398779
 40
0.5000960733
 40
0.6737383045
 40
0.7539443082
 40
0.8264344755
 40
0.8890062801
 40
0.9397562781
 40
0.9771367155
 40
0.9904370601
 40
1.0
 40
1.0
 40
1.0
 40
1.0
 10
-6.0492786278
 20
-55.3965442799
 30
0.0
 10
-6.0106325473
 20
-55.3973040985
 30
0.0
 10
-5.9182423014
 20
-55.3974436991
 30
0.0
 10
-5.674951631
 20
-55.3947602328
 30
0.0
 10
-5.2655487756
 20
-55.3857611666
 30
0.0
 10
-4.6574702545
 20
-55.3707425366
 30
0.0
 10
-3.9078570174
 20
-55.3526960106
 30
0.0
 10
-3.0394672869
 20
-55.3346576698
 30
0.0
 10
-1.7231017068
 20
-55.3137075582
 30
0.0
 10
0.0013519696
 20
-55.3021029625
 30
0.0
 10
1.7257376792
 20
-55.3137368608
 30
0.0
 10
3.0418865704
 20
-55.3347027694
 30
0.0
 10
3.9100011905
 20
-55.3527448009
 30
0.0
 10
4.6592725765
 20
-55.3707876271
 30
0.0
 10
5.2669521024
 20
-55.3857945581
 30
0.0
 10
5.6759922044
 20
-55.3947798339
 30
0.0
 10
5.9189738804
 20
-55.3974475913
 30
0.0
 10
6.0112046875
 20
-55.39729996
 30
0.0
 10
6.0497699396
 20
-55.3965345855
 30
0.0
  0
SPLINE
  5
345
100
AcDbEntity
  8
0
100
AcDbSpline
 62
7
  6
CONTINUOUS
 70
0
 71
3
 72
9
 73
5
 74
0
 42
0.0000001
 43
0.0000001
 44
0.0000000001
 40
0.0
 40
0.0
 40
0.0
 40
0.0
 40
0.2835413777
 40
1.0
 40
1.0
 40
1.0
 40
1.0
 10
6.0497699396
 20
-55.3965345855
 30
0.0
 10
6.0543016449
 20
-55.3964446482
 30
0.0
 10
6.0702830387
 20
-55.3960844308
 30
0.0
 10
6.086262369
 20
-55.3955570106
 30
0.0
 10
6.0977006425
 20
-55.3949750589
 30
0.0
  0
SPLINE
  5
346
100
AcDbEntity
  8
0
100
AcDbSpline
 62
7
  6
CONTINUOUS
 70
0
 71
3
 72
9
 73
5
 74
0
 42
0.0000001
 43
0.0000001
 44
0.0000000001
 40
0.0
 40
0.0
 40
0.0
 40
0.0
 40
0.749930573
 40
1.0
 40
1.0
 40
1.0
 40
1.0
 10
11.1997752836
 20
-35.5602829903
 30
0.0
 10
11.0759994226
 20
-36.0121203883
 30
0.0
 10
10.8768427502
 20
-36.6062608089
 30
0.0
 10
10.6316502487
 20
-37.1809264502
 30
0.0
 10
10.5674205408
 20
-37.3233307962
 30
0.0
  0
SPLINE
  5
347
100
AcDbEntity
  8
0
100
AcDbSpline
 62
250
  6
CONTINUOUS
 70
0
 71
3
 72
27
 73
23
 74
0
 42
0.0000001
 43
0.0000001
 44
0.0000000001
 40
0.0
 40
0.0
 40
0.0
 40
0.0
 40
0.031262659
 40
0.0625242418
 40
0.1250114939
 40
0.1875055877
 40
0.2187694764
 40
0.2500340291
 40
0.312526884
 40
0.3750173783
 40
0.4375081873
 40
0.4999994697
 40
0.5624907819
 40
0.6249815783
 40
0.6874720812
 40
0.7499651846
 40
0.7812300781
 40
0.8124942133
 40
0.8749884886
 40
0.9374757583
 40
0.9687373412
 40
1.0
 40
1.0
 40
1.0
 40
1.0
 10
-10.5674203834
 20
-37.3233311481
 30
0.0
 10
-10.4387384132
 20
-37.56224327
 30
0.0
 10
-10.169021842
 20
-38.0336412022
 30
0.0
 10
-9.5700601425
 20
-38.9392376488
 30
0.0
 10
-8.7086560282
 20
-39.9926356336
 30
0.0
 10
-7.7136627412
 20
-40.9199288193
 30
0.0
 10
-6.8557516872
 20
-41.5854821975
 30
0.0
 10
-5.9554265074
 20
-42.1926144801
 30
0.0
 10
-4.7562712699
 20
-42.8358877173
 30
0.0
 10
-3.224730808
 20
-43.4013213705
 30
0.0
 10
-1.6285952852
 20
-43.7449208657
 30
0.0
 10
-0.0000133061
 20
-43.8616741525
 30
0.0
 10
1.628568794
 20
-43.7449242388
 30
0.0
 10
3.2247053589
 20
-43.4013289337
 30
0.0
 10
4.7562493364
 20
-42.8358976746
 30
0.0
 10
5.9554081113
 20
-42.1926208065
 30
0.0
 10
6.8557444613
 20
-41.5854921978
 30
0.0
 10
7.7136620974
 20
-40.9199360323
 30
0.0
 10
8.7086536231
 20
-39.9926353337
 30
0.0
 10
9.5700601907
 20
-38.9392374542
 30
0.0
 10
10.1690220403
 20
-38.0336408651
 30
0.0
 10
10.4387387847
 20
-37.5622430319
 30
0.0
 10
10.5674205408
 20
-37.3233307962
 30
0.0
  0
SPLINE
  5
348
100
AcDbEntity
  8
0
100
AcDbSpline
 62
7
  6
CONTINUOUS
 70
0
 71
3
 72
9
 73
5
 74
0
 42
0.0000001
 43
0.0000001
 44
0.0000000001
 40
0.0
 40
0.0
 40
0.0
 40
0.0
 40
0.2500694842
 40
1.0
 40
1.0
 40
1.0
 40
1.0
 10
-10.5674203834
 20
-37.3233311481
 30
0.0
 10
-10.6316524353
 20
-37.1809216181
 30
0.0
 10
-10.876855398
 20
-36.606235933
 30
0.0
 10
-11.0760127051
 20
-36.0120706738
 30
0.0
 10
-11.1997781837
 20
-35.5602128899
 30
0.0
  0
LINE
  5
349
100
AcDbEntity
  8
0
100
AcDbLine
 62
250
  6
CONTINUOUS
 10
-6.0
 20
-55.5424997656
 11
-5.9564071752
 21
-55.5447815532
  0
SPLINE
  5
34A
100
AcDbEntity
  8
0
100
AcDbSpline
 62
250
  6
CONTINUOUS
 70
0
 71
3
 72
13
 73
9
 74
0
 42
0.0000001
 43
0.0000001
 44
0.0000000001
 40
0.0
 40
0.0
 40
0.0
 40
0.0
 40
0.3634365644
 40
0.6775438812
 40
0.8023820308
 40
0.8997737643
 40
0.9664158057
 40
1.0
 40
1.0
 40
1.0
 40
1.0
 10
-14.8009630695
 20
-35.55
 30
0.0
 10
-14.921176187
 20
-35.560424596
 30
0.0
 10
-15.145268025
 20
-35.5800629883
 30
0.0
 10
-15.4106415634
 20
-35.6034103705
 30
0.0
 10
-15.5880128019
 20
-35.6191502399
 30
0.0
 10
-15.6835419907
 20
-35.6276812939
 30
0.0
 10
-15.7488696099
 20
-35.6337479578
 30
0.0
 10
-15.7820097794
 20
-35.6367869424
 30
0.0
 10
-15.7930893149
 20
-35.6380408142
 30
0.0
  0
SPLINE
  5
34B
100
AcDbEntity
  8
0
100
AcDbSpline
 62
250
  6
CONTINUOUS
 70
0
 71
3
 72
11
 73
7
 74
0
 42
0.0000001
 43
0.0000001
 44
0.0000000001
 40
0.0
 40
0.0
 40
0.0
 40
0.0
 40
0.2504790222
 40
0.5006516428
 40
0.750442592
 40
1.0
 40
1.0
 40
1.0
 40
1.0
 10
16.0110790321
 20
-5.8
 30
0.0
 10
16.0110790321
 20
-5.7349749794
 30
0.0
 10
15.9851961886
 20
-5.6035895365
 30
0.0
 10
15.8744429419
 20
-5.437407063
 30
0.0
 10
15.7089144912
 20
-5.3260586537
 30
0.0
 10
15.5778558073
 20
-5.3
 30
0.0
 10
15.5130700401
 20
-5.3
 30
0.0
  0
SPLINE
  5
34C
100
AcDbEntity
  8
0
100
AcDbSpline
 62
250
  6
CONTINUOUS
 70
0
 71
3
 72
11
 73
7
 74
0
 42
0.0000001
 43
0.0000001
 44
0.0000000001
 40
0.0
 40
0.0
 40
0.0
 40
0.0
 40
0.2504790213
 40
0.5006516425
 40
0.7504425927
 40
1.0
 40
1.0
 40
1.0
 40
1.0
 10
-16.0110790323
 20
-5.8
 30
0.0
 10
-16.0110790323
 20
-5.7349749796
 30
0.0
 10
-15.9851961886
 20
-5.6035895369
 30
0.0
 10
-15.8744429421
 20
-5.437407063
 30
0.0
 10
-15.7089144911
 20
-5.3260586537
 30
0.0
 10
-15.5778558071
 20
-5.3
 30
0.0
 10
-15.5130700401
 20
-5.3
 30
0.0
  0
SPLINE
  5
34D
100
AcDbEntity
  8
0
100
AcDbSpline
 62
250
  6
CONTINUOUS
 70
0
 71
3
 72
29
 73
25
 74
0
 42
0.0000001
 43
0.0000001
 44
0.0000000001
 40
0.0
 40
0.0
 40
0.0
 40
0.0
 40
0.0075369758
 40
0.0191124786
 40
0.0346350843
 40
0.0539779586
 40
0.0769814202
 40
0.1034559474
 40
0.1659275849
 40
0.2393531681
 40
0.3213317387
 40
0.4091766313
 40
0.4999992847
 40
0.5908219074
 40
0.6786669797
 40
0.7606460545
 40
0.8340721606
 40
0.8965441599
 40
0.9230187405
 40
0.946022149
 40
0.9653649995
 40
0.98088759
 40
0.9924630609
 40
1.0
 40
1.0
 40
1.0
 40
1.0
 10
-5.9564071752
 20
-55.5447815532
 30
0.0
 10
-5.9265143831
 20
-55.5463401854
 30
0.0
 10
-5.8505825919
 20
-55.5473308315
 30
0.0
 10
-5.7130407369
 20
-55.5467214925
 30
0.0
 10
-5.5286127889
 20
-55.5438241528
 30
0.0
 10
-5.2988366027
 20
-55.5390053154
 30
0.0
 10
-5.0255891544
 20
-55.5324578131
 30
0.0
 10
-4.581118003
 20
-55.5212686117
 30
0.0
 10
-3.93645512
 20
-55.5050718193
 30
0.0
 10
-3.0713584157
 20
-55.4860954682
 30
0.0
 10
-2.105417824
 20
-55.4697662462
 30
0.0
 10
-1.0703018558
 20
-55.4587803206
 30
0.0
 10
-0.0000086445
 20
-55.4549103982
 30
0.0
 10
1.0702852825
 20
-55.4587800442
 30
0.0
 10
2.1054038433
 20
-55.4697660997
 30
0.0
 10
3.0713492287
 20
-55.486095299
 30
0.0
 10
3.9364514493
 20
-55.5050717209
 30
0.0
 10
4.5811180568
 20
-55.5212686131
 30
0.0
 10
5.0255906455
 20
-55.5324578514
 30
0.0
 10
5.2988380001
 20
-55.5390053506
 30
0.0
 10
5.5286138209
 20
-55.5438241685
 30
0.0
 10
5.7130414878
 20
-55.5467215009
 30
0.0
 10
5.8505830098
 20
-55.5473308181
 30
0.0
 10
5.926514529
 20
-55.5463401866
 30
0.0
 10
5.9564071752
 20
-55.5447815532
 30
0.0
  0
LINE
  5
34E
100
AcDbEntity
  8
0
100
AcDbLine
 62
250
  6
CONTINUOUS
 10
5.9564071752
 20
-55.5447815532
 11
6.0
 21
-55.5424997656
  0
SPLINE
  5
34F
100
AcDbEntity
  8
0
100
AcDbSpline
 62
250
  6
CONTINUOUS
 70
0
 71
3
 72
10
 73
6
 74
0
 42
0.0000001
 43
0.0000001
 44
0.0000000001
 40
0.0
 40
0.0
 40
0.0
 40
0.0
 40
0.49997438
 40
0.74998845
 40
1.0
 40
1.0
 40
1.0
 40
1.0
 10
-13.6298733748
 20
-47.2570350943
 30
0.0
 10
-13.399553878
 20
-48.0532949654
 30
0.0
 10
-13.0298853858
 20
-49.2409263898
 30
0.0
 10
-12.4899078595
 20
-50.8085012838
 30
0.0
 10
-12.2033208077
 20
-51.5864365711
 30
0.0
 10
-12.0574659897
 20
-51.9744173218
 30
0.0
  0
SPLINE
  5
350
100
AcDbEntity
  8
0
100
AcDbSpline
 62
250
  6
CONTINUOUS
 70
0
 71
3
 72
11
 73
7
 74
0
 42
0.0000001
 43
0.0000001
 44
0.0000000001
 40
0.0
 40
0.0
 40
0.0
 40
0.0
 40
0.2491816701
 40
0.4988317586
 40
0.7491592411
 40
1.0
 40
1.0
 40
1.0
 40
1.0
 10
-6.0976952324
 20
-55.3949752727
 30
0.0
 10
-6.0789621441
 20
-55.3959283422
 30
0.0
 10
-6.0414442271
 20
-55.4051707449
 30
0.0
 10
-5.9946486507
 20
-55.438980785
 30
0.0
 10
-5.963598474
 20
-55.487784426
 30
0.0
 10
-5.956392739
 20
-55.5258993524
 30
0.0
 10
-5.9564066552
 20
-55.5447815532
 30
0.0
  0
SPLINE
  5
351
100
AcDbEntity
  8
0
100
AcDbSpline
 62
250
  6
CONTINUOUS
 70
0
 71
3
 72
11
 73
7
 74
0
 42
0.0000001
 43
0.0000001
 44
0.0000000001
 40
0.0
 40
0.0
 40
0.0
 40
0.0
 40
0.2491816702
 40
0.49883176
 40
0.7491592427
 40
1.0
 40
1.0
 40
1.0
 40
1.0
 10
6.0976952358
 20
-55.3949753403
 30
0.0
 10
6.078962192
 20
-55.3959284672
 30
0.0
 10
6.0414443881
 20
-55.4051709515
 30
0.0
 10
5.9946489827
 20
-55.4389809996
 30
0.0
 10
5.9635989248
 20
-55.487784557
 30
0.0
 10
5.9563932083
 20
-55.5258993943
 30
0.0
 10
5.9564071169
 20
-55.5447815532
 30
0.0
  0
SPLINE
  5
352
100
AcDbEntity
  8
0
100
AcDbSpline
 62
250
  6
CONTINUOUS
 70
0
 71
3
 72
10
 73
6
 74
0
 42
0.0000001
 43
0.0000001
 44
0.0000000001
 40
0.0
 40
0.0
 40
0.0
 40
0.0
 40
0.2500116101
 40
0.5000256642
 40
1.0
 40
1.0
 40
1.0
 40
1.0
 10
12.0574688721
 20
-51.9744096795
 30
0.0
 10
12.2033229985
 20
-51.5864292892
 30
0.0
 10
12.4899102645
 20
-50.8084954577
 30
0.0
 10
13.0298862813
 20
-49.2409229119
 30
0.0
 10
13.3995542758
 20
-48.0532935877
 30
0.0
 10
13.6298733748
 20
-47.2570350943
 30
0.0
  0
SPLINE
  5
353
100
AcDbEntity
  8
0
100
AcDbSpline
 62
250
  6
CONTINUOUS
 70
0
 71
3
 72
16
 73
12
 74
0
 42
0.0000001
 43
0.0000001
 44
0.0000000001
 40
0.0
 40
0.0
 40
0.0
 40
0.0
 40
0.2500000913
 40
0.375001545
 40
0.5000026423
 40
0.6250032606
 40
0.7500032929
 40
0.8750025639
 40
0.9375021812
 40
0.9687517328
 40
1.0
 40
1.0
 40
1.0
 40
1.0
 10
-0.0
 20
-54.7076985752
 30
0.0
 10
0.6610183831
 20
-54.7051426142
 30
0.0
 10
1.652550883
 20
-54.6907027095
 30
0.0
 10
2.9740079794
 20
-54.6504757906
 30
0.0
 10
3.9647407377
 20
-54.6099202198
 30
0.0
 10
4.9549960618
 20
-54.5591378165
 30
0.0
 10
5.9446737736
 20
-54.498227224
 30
0.0
 10
6.7688703735
 20
-54.4394335183
 30
0.0
 10
7.3454686203
 20
-54.3939103355
 30
0.0
 10
7.6748277901
 20
-54.3663830268
 30
0.0
 10
7.8393529759
 20
-54.3508871158
 30
0.0
 10
7.9215827232
 20
-54.3428323679
 30
0.0
  0
SPLINE
  5
354
100
AcDbEntity
  8
0
100
AcDbSpline
 62
250
  6
CONTINUOUS
 70
0
 71
3
 72
19
 73
15
 74
0
 42
0.0000001
 43
0.0000001
 44
0.0000000001
 40
0.0
 40
0.0
 40
0.0
 40
0.0
 40
0.1264858645
 40
0.2527993831
 40
0.3787993598
 40
0.5043467663
 40
0.5669168196
 40
0.6293082909
 40
0.691507058
 40
0.7534953897
 40
0.8153072854
 40
0.8769886835
 40
0.9385511706
 40
1.0
 40
1.0
 40
1.0
 40
1.0
 10
0.0
 20
-47.3870666779
 30
0.0
 10
0.4678238446
 20
-47.3890606653
 30
0.0
 10
1.4040249592
 20
-47.3376810073
 30
0.0
 10
2.7870645548
 20
-47.0942916171
 30
0.0
 10
4.1271961828
 20
-46.6852419656
 30
0.0
 10
5.189973516
 20
-46.2078374376
 30
0.0
 10
5.9972366712
 20
-45.7521270987
 30
0.0
 10
6.5782346847
 20
-45.3748903887
 30
0.0
 10
7.1326244
 20
-44.9632342569
 30
0.0
 10
7.659276433
 20
-44.5198807157
 30
0.0
 10
8.1531264858
 20
-44.0428872016
 30
0.0
 10
8.6110718491
 20
-43.5333948311
 30
0.0
 10
9.0305476425
 20
-42.9935777102
 30
0.0
 10
9.2844431954
 20
-42.6154685254
 30
0.0
 10
9.4038552343
 20
-42.422087611
 30
0.0
  0
SPLINE
  5
355
100
AcDbEntity
  8
0
100
AcDbSpline
 62
250
  6
CONTINUOUS
 70
0
 71
3
 72
9
 73
5
 74
0
 42
0.0000001
 43
0.0000001
 44
0.0000000001
 40
0.0
 40
0.0
 40
0.0
 40
0.0
 40
0.2470706228
 40
1.0
 40
1.0
 40
1.0
 40
1.0
 10
12.9303649994
 20
-47.039200472
 30
0.0
 10
12.6350447822
 20
-46.6627248383
 30
0.0
 10
11.445948206
 20
-45.1341079155
 30
0.0
 10
10.2777290529
 20
-43.5893660957
 30
0.0
 10
9.4038552343
 20
-42.422087611
 30
0.0
  0
SPLINE
  5
356
100
AcDbEntity
  8
0
100
AcDbSpline
 62
250
  6
CONTINUOUS
 70
0
 71
3
 72
16
 73
12
 74
0
 42
0.0000001
 43
0.0000001
 44
0.0000000001
 40
0.0
 40
0.0
 40
0.0
 40
0.0
 40
0.0625007266
 40
0.1250021454
 40
0.187503236
 40
0.2500048627
 40
0.3125068955
 40
0.3750086679
 40
0.5000109356
 40
0.7500084807
 40
1.0
 40
1.0
 40
1.0
 40
1.0
 10
11.4002337797
 20
-51.750904969
 30
0.0
 10
11.4400681555
 20
-51.6556290848
 30
0.0
 10
11.5186895143
 20
-51.4646263906
 30
0.0
 10
11.6301927466
 20
-51.1755603354
 30
0.0
 10
11.7369157678
 20
-50.8846986489
 30
0.0
 10
11.8383941334
 20
-50.591973353
 30
0.0
 10
11.9389469848
 20
-50.2989376618
 30
0.0
 10
12.0716879169
 20
-49.9077670041
 30
0.0
 10
12.2971902341
 20
-49.2209500784
 30
0.0
 10
12.6007725521
 20
-48.2338155419
 30
0.0
 10
12.8239860134
 20
-47.4383198951
 30
0.0
 10
12.9303649994
 20
-47.039200472
 30
0.0
  0
SPLINE
  5
357
100
AcDbEntity
  8
0
100
AcDbSpline
 62
250
  6
CONTINUOUS
 70
0
 71
3
 72
17
 73
13
 74
0
 42
0.0000001
 43
0.0000001
 44
0.0000000001
 40
0.0
 40
0.0
 40
0.0
 40
0.0
 40
0.0625100394
 40
0.1250228633
 40
0.1875371217
 40
0.250054285
 40
0.3750245859
 40
0.5000042756
 40
0.62499395
 40
0.7499961284
 40
0.8750017264
 40
1.0
 40
1.0
 40
1.0
 40
1.0
 10
7.9215827232
 20
-54.3428323679
 30
0.0
 10
8.0160338917
 20
-54.3335806576
 30
0.0
 10
8.2042209416
 20
-54.3074072528
 30
0.0
 10
8.4834073986
 20
-54.2507133353
 30
0.0
 10
8.7583052035
 20
-54.1756303529
 30
0.0
 10
9.1170137706
 20
-54.0508512658
 30
0.0
 10
9.5484180517
 20
-53.8497527161
 30
0.0
 10
10.0284714555
 20
-53.5406475896
 30
0.0
 10
10.462118613
 20
-53.1691052327
 30
0.0
 10
10.84160221
 20
-52.7423297174
 30
0.0
 10
11.1594520211
 20
-52.2679029273
 30
0.0
 10
11.3270305508
 20
-51.9259912073
 30
0.0
 10
11.4002337797
 20
-51.750904969
 30
0.0
  0
SPLINE
  5
358
100
AcDbEntity
  8
0
100
AcDbSpline
 62
250
  6
CONTINUOUS
 70
0
 71
3
 72
16
 73
12
 74
0
 42
0.0000001
 43
0.0000001
 44
0.0000000001
 40
0.0
 40
0.0
 40
0.0
 40
0.0
 40
0.0312482527
 40
0.0624978047
 40
0.1249974233
 40
0.2499966957
 40
0.3749967305
 40
0.499997351
 40
0.6249984485
 40
0.7499999016
 40
1.0
 40
1.0
 40
1.0
 40
1.0
 10
-7.9215827232
 20
-54.3428323679
 30
0.0
 10
-7.8393530167
 20
-54.3508871342
 30
0.0
 10
-7.6748274355
 20
-54.3663783678
 30
0.0
 10
-7.3454687532
 20
-54.3939107901
 30
0.0
 10
-6.7688702779
 20
-54.4394315113
 30
0.0
 10
-5.9446738859
 20
-54.4982278914
 30
0.0
 10
-4.9549960931
 20
-54.559137623
 30
0.0
 10
-3.9647407811
 20
-54.609920284
 30
0.0
 10
-2.9740080168
 20
-54.6504757708
 30
0.0
 10
-1.6525509114
 20
-54.6907027243
 30
0.0
 10
-0.6610183984
 20
-54.7051425984
 30
0.0
 10
-0.0
 20
-54.7076985752
 30
0.0
  0
SPLINE
  5
359
100
AcDbEntity
  8
0
100
AcDbSpline
 62
250
  6
CONTINUOUS
 70
0
 71
3
 72
17
 73
13
 74
0
 42
0.0000001
 43
0.0000001
 44
0.0000000001
 40
0.0
 40
0.0
 40
0.0
 40
0.0
 40
0.1249972481
 40
0.2500034025
 40
0.3750067109
 40
0.4999971965
 40
0.6249765508
 40
0.7499464282
 40
0.8124634042
 40
0.8749774804
 40
0.93749013
 40
1.0
 40
1.0
 40
1.0
 40
1.0
 10
-11.4002337797
 20
-51.750904969
 30
0.0
 10
-11.3270322535
 20
-51.9259902493
 30
0.0
 10
-11.1594590243
 20
-52.2679041872
 30
0.0
 10
-10.8416010538
 20
-52.7423269468
 30
0.0
 10
-10.4621176485
 20
-53.1691073161
 30
0.0
 10
-10.0284675107
 20
-53.5406504162
 30
0.0
 10
-9.5484137469
 20
-53.8497550303
 30
0.0
 10
-9.1170105107
 20
-54.0508525699
 30
0.0
 10
-8.7583029195
 20
-54.1756308709
 30
0.0
 10
-8.4834059049
 20
-54.250713678
 30
0.0
 10
-8.2042202145
 20
-54.3074075121
 30
0.0
 10
-8.0160336437
 20
-54.3335806812
 30
0.0
 10
-7.9215827232
 20
-54.3428323679
 30
0.0
  0
SPLINE
  5
35A
100
AcDbEntity
  8
0
100
AcDbSpline
 62
250
  6
CONTINUOUS
 70
0
 71
3
 72
16
 73
12
 74
0
 42
0.0000001
 43
0.0000001
 44
0.0000000001
 40
0.0
 40
0.0
 40
0.0
 40
0.0
 40
0.2499915629
 40
0.4999891435
 40
0.6249914297
 40
0.6874932122
 40
0.7499952535
 40
0.8124969092
 40
0.8749979559
 40
0.9374993303
 40
1.0
 40
1.0
 40
1.0
 40
1.0
 10
-12.9303649994
 20
-47.039200472
 30
0.0
 10
-12.8239859934
 20
-47.4383199692
 30
0.0
 10
-12.6007727453
 20
-48.2338158263
 30
0.0
 10
-12.2971897282
 20
-49.2209503264
 30
0.0
 10
-12.0716884709
 20
-49.9077677022
 30
0.0
 10
-11.9389490365
 20
-50.2989389497
 30
0.0
 10
-11.8384040818
 20
-50.5919773692
 30
0.0
 10
-11.7369291183
 20
-50.8847040917
 30
0.0
 10
-11.6301683723
 20
-51.1755516323
 30
0.0
 10
-11.5187030414
 20
-51.4646319962
 30
0.0
 10
-11.4400679586
 20
-51.655629103
 30
0.0
 10
-11.4002337797
 20
-51.750904969
 30
0.0
  0
SPLINE
  5
35B
100
AcDbEntity
  8
0
100
AcDbSpline
 62
250
  6
CONTINUOUS
 70
0
 71
3
 72
9
 73
5
 74
0
 42
0.0000001
 43
0.0000001
 44
0.0000000001
 40
0.0
 40
0.0
 40
0.0
 40
0.0
 40
0.2470706239
 40
1.0
 40
1.0
 40
1.0
 40
1.0
 10
-12.9303649994
 20
-47.039200472
 30
0.0
 10
-12.6350449468
 20
-46.6627250481
 30
0.0
 10
-11.4459490349
 20
-45.1341089865
 30
0.0
 10
-10.277730525
 20
-43.5893680441
 30
0.0
 10
-9.4038571899
 20
-42.4220902232
 30
0.0
  0
SPLINE
  5
35C
100
AcDbEntity
  8
0
100
AcDbSpline
 62
250
  6
CONTINUOUS
 70
0
 71
3
 72
19
 73
15
 74
0
 42
0.0000001
 43
0.0000001
 44
0.0000000001
 40
0.0
 40
0.0
 40
0.0
 40
0.0
 40
0.0614488054
 40
0.1230113914
 40
0.1846929281
 40
0.2465049504
 40
0.3084932789
 40
0.3706920864
 40
0.4330835816
 40
0.4956536175
 40
0.6212008569
 40
0.7472006573
 40
0.8735141091
 40
1.0
 40
1.0
 40
1.0
 40
1.0
 10
-9.4038571899
 20
-42.4220902232
 30
0.0
 10
-9.2844329662
 20
-42.6154655396
 30
0.0
 10
-9.0305355144
 20
-42.9935766012
 30
0.0
 10
-8.6110826575
 20
-43.5334188141
 30
0.0
 10
-8.1531641479
 20
-44.042943743
 30
0.0
 10
-7.6593444415
 20
-44.5199779232
 30
0.0
 10
-7.1327046852
 20
-44.9633557328
 30
0.0
 10
-6.5783239188
 20
-45.3750331647
 30
0.0
 10
-5.9973261531
 20
-45.7522811825
 30
0.0
 10
-5.1900552452
 20
-46.2079897586
 30
0.0
 10
-4.1272599522
 20
-46.6853876197
 30
0.0
 10
-2.7870925864
 20
-47.0943137981
 30
0.0
 10
-1.4040329547
 20
-47.337791198
 30
0.0
 10
-0.4678285834
 20
-47.3887876708
 30
0.0
 10
0.0
 20
-47.38706668
 30
0.0
  0
SPLINE
  5
35D
100
AcDbEntity
  8
0
100
AcDbSpline
 62
250
  6
CONTINUOUS
 70
0
 71
3
 72
33
 73
29
 74
0
 42
0.0000001
 43
0.0000001
 44
0.0000000001
 40
0.0
 40
0.0
 40
0.0
 40
0.0
 40
0.0156334833
 40
0.0312669286
 40
0.0468995458
 40
0.0625311006
 40
0.0937846587
 40
0.1250351752
 40
0.1562842789
 40
0.1875363455
 40
0.2500130007
 40
0.3125047276
 40
0.3750003812
 40
0.437499032
 40
0.499999299
 40
0.562499592
 40
0.6249982288
 40
0.6874938972
 40
0.749985889
 40
0.8124633565
 40
0.8437156209
 40
0.8749647959
 40
0.9062153368
 40
0.9374688992
 40
0.953100454
 40
0.9687330712
 40
0.9843665166
 40
1.0
 40
1.0
 40
1.0
 40
1.0
 10
-10.5674203834
 20
-37.3233311481
 30
0.0
 10
-10.5247817107
 20
-37.4579722134
 30
0.0
 10
-10.4269861098
 20
-37.7232923838
 30
0.0
 10
-10.2587840855
 20
-38.1122895391
 30
0.0
 10
-10.0727120719
 20
-38.4930830931
 30
0.0
 10
-9.8032810023
 20
-38.9896032074
 30
0.0
 10
-9.4284280681
 20
-39.5887145768
 30
0.0
 10
-8.9232014421
 20
-40.2695186379
 30
0.0
 10
-8.3662438976
 20
-40.9087804765
 30
0.0
 10
-7.5584840545
 20
-41.6991318388
 30
0.0
 10
-6.4329035074
 20
-42.5606671894
 30
0.0
 10
-4.9462784911
 20
-43.3837523536
 30
0.0
 10
-3.3556589944
 20
-43.9830666198
 30
0.0
 10
-1.6952754268
 20
-44.346174663
 30
0.0
 10
-0.0000191169
 20
-44.4690847855
 30
0.0
 10
1.6952372845
 20
-44.3461797862
 30
0.0
 10
3.3556227258
 20
-43.9830777097
 30
0.0
 10
4.946244662
 20
-43.3837652005
 30
0.0
 10
6.4328864227
 20
-42.560686664
 30
0.0
 10
7.5584624242
 20
-41.6991282276
 30
0.0
 10
8.3662462423
 20
-40.9087875751
 30
0.0
 10
8.9232001483
 20
-40.269518457
 30
0.0
 10
9.4284279378
 20
-39.5887145057
 30
0.0
 10
9.8032815313
 20
-38.9896031305
 30
0.0
 10
10.0727124013
 20
-38.4930828673
 30
0.0
 10
10.258784081
 20
-38.1122891489
 30
0.0
 10
10.4269857949
 20
-37.7232918515
 30
0.0
 10
10.5247814167
 20
-37.4579717198
 30
0.0
 10
10.5674205408
 20
-37.3233307962
 30
0.0
  0
SPLINE
  5
35E
100
AcDbEntity
  8
0
100
AcDbSpline
 62
250
  6
CONTINUOUS
 70
0
 71
3
 72
23
 73
19
 74
0
 42
0.0000001
 43
0.0000001
 44
0.0000000001
 40
0.0
 40
0.0
 40
0.0
 40
0.0
 40
0.1236230354
 40
0.2476532771
 40
0.3721091186
 40
0.4969866113
 40
0.6222668299
 40
0.7479069113
 40
0.8108568723
 40
0.8738666868
 40
0.9053906824
 40
0.9369227337
 40
0.9684600378
 40
0.9842299735
 40
0.9881724813
 40
0.9921151286
 40
0.9960574472
 40
1.0
 40
1.0
 40
1.0
 40
1.0
 10
8.7556319027
 20
-42.0263535924
 30
0.0
 10
8.9367101899
 20
-41.7999218869
 30
0.0
 10
9.2865301709
 20
-41.335667368
 30
0.0
 10
9.7604800324
 20
-40.6018843108
 30
0.0
 10
10.1763926845
 20
-39.8302167636
 30
0.0
 10
10.5285144182
 20
-39.0241770764
 30
0.0
 10
10.8130155438
 20
-38.1889253984
 30
0.0
 10
10.989651895
 20
-37.4732245787
 30
0.0
 10
11.0917888684
 20
-36.8918816259
 30
0.0
 10
11.1388765093
 20
-36.5254048328
 30
0.0
 10
11.1667777278
 20
-36.2310447174
 30
0.0
 10
11.1828817259
 20
-36.0097626649
 30
0.0
 10
11.1922973766
 20
-35.825085646
 30
0.0
 10
11.1964911153
 20
-35.704961929
 30
0.0
 10
11.198015354
 20
-35.649503581
 30
0.0
 10
11.1986940736
 20
-35.6217754124
 30
0.0
 10
11.1996148041
 20
-35.5940417921
 30
0.0
 10
11.1987853791
 20
-35.5755474665
 30
0.0
 10
11.1989769854
 20
-35.5663030127
 30
0.0
  0
SPLINE
  5
35F
100
AcDbEntity
  8
0
100
AcDbSpline
 62
250
  6
CONTINUOUS
 70
0
 71
3
 72
16
 73
12
 74
0
 42
0.0000001
 43
0.0000001
 44
0.0000000001
 40
0.0
 40
0.0
 40
0.0
 40
0.0
 40
0.252032501
 40
0.3778123188
 40
0.5031432997
 40
0.627943128
 40
0.6901687142
 40
0.7522644675
 40
0.8761812224
 40
0.9381054219
 40
1.0
 40
1.0
 40
1.0
 40
1.0
 10
-0.0000109319
 20
-46.4037895656
 30
0.0
 10
0.8501416575
 20
-46.400882209
 30
0.0
 10
2.1302045119
 20
-46.2399772902
 30
0.0
 10
3.7548727955
 20
-45.7410129589
 30
0.0
 10
4.9193037689
 20
-45.2313250004
 30
0.0
 10
5.8308643813
 20
-44.6980608282
 30
0.0
 10
6.5182728169
 20
-44.2140242228
 30
0.0
 10
7.1746000304
 20
-43.693428407
 30
0.0
 10
7.7874163006
 20
-43.1217013755
 30
0.0
 10
8.3551181995
 20
-42.5082551209
 30
0.0
 10
8.6252372384
 20
-42.1894107662
 30
0.0
 10
8.7556319027
 20
-42.0263535924
 30
0.0
  0
SPLINE
  5
360
100
AcDbEntity
  8
0
100
AcDbSpline
 62
250
  6
CONTINUOUS
 70
0
 71
3
 72
16
 73
12
 74
0
 42
0.0000001
 43
0.0000001
 44
0.0000000001
 40
0.0
 40
0.0
 40
0.0
 40
0.0
 40
0.0618944827
 40
0.1238190019
 40
0.2477367006
 40
0.3098327986
 40
0.3720586078
 40
0.4968585032
 40
0.6221890861
 40
0.7479683111
 40
1.0
 40
1.0
 40
1.0
 40
1.0
 10
-8.7556373045
 20
-42.0263534553
 30
0.0
 10
-8.6252475334
 20
-42.1894124554
 30
0.0
 10
-8.3551277534
 20
-42.5082542331
 30
0.0
 10
-7.7874056545
 20
-43.1216802101
 30
0.0
 10
-7.1745660623
 20
-43.6933825329
 30
0.0
 10
-6.5182216504
 20
-44.2139560711
 30
0.0
 10
-5.8308070704
 20
-44.6979783613
 30
0.0
 10
-4.9192519346
 20
-45.2312350485
 30
0.0
 10
-3.7548396355
 20
-45.740941708
 30
0.0
 10
-2.130208115
 20
-46.2399329412
 30
0.0
 10
-0.8501558867
 20
-46.4010112138
 30
0.0
 10
-0.0000109319
 20
-46.4037895656
 30
0.0
  0
SPLINE
  5
361
100
AcDbEntity
  8
0
100
AcDbSpline
 62
250
  6
CONTINUOUS
 70
0
 71
3
 72
23
 73
19
 74
0
 42
0.0000001
 43
0.0000001
 44
0.0000000001
 40
0.0
 40
0.0
 40
0.0
 40
0.0
 40
0.0039425547
 40
0.0078848743
 40
0.0118275233
 40
0.0157700345
 40
0.0315399839
 40
0.0630773171
 40
0.0946094015
 40
0.1261334342
 40
0.1891433352
 40
0.2520933946
 40
0.3777336879
 40
0.5030140533
 40
0.6278915566
 40
0.7523472747
 40
0.876377352
 40
1.0
 40
1.0
 40
1.0
 40
1.0
 10
-11.1989828232
 20
-35.5662028658
 30
0.0
 10
-11.1987862132
 20
-35.5754473145
 30
0.0
 10
-11.1996081461
 20
-35.593942104
 30
0.0
 10
-11.1986951054
 20
-35.6216760031
 30
0.0
 10
-11.1980137476
 20
-35.6494044615
 30
0.0
 10
-11.196489626
 20
-35.7048634025
 30
0.0
 10
-11.1922921542
 20
-35.824988375
 30
0.0
 10
-11.1828732976
 20
-36.0096672875
 30
0.0
 10
-11.1667639107
 20
-36.2309514938
 30
0.0
 10
-11.138855971
 20
-36.5253143989
 30
0.0
 10
-11.0917604376
 20
-36.891794523
 30
0.0
 10
-10.9896145366
 20
-37.4731429713
 30
0.0
 10
-10.8129748236
 20
-38.1888515761
 30
0.0
 10
-10.5284789615
 20
-39.0241152725
 30
0.0
 10
-10.1763680686
 20
-39.8301697528
 30
0.0
 10
-9.7604608302
 20
-40.6018496415
 30
0.0
 10
-9.286525038
 20
-41.3356505047
 30
0.0
 10
-8.9367110937
 20
-41.799915485
 30
0.0
 10
-8.7556373045
 20
-42.0263534553
 30
0.0
  0
SPLINE
  5
362
100
AcDbEntity
  8
0
100
AcDbSpline
 62
250
  6
CONTINUOUS
 70
0
 71
3
 72
14
 73
10
 74
0
 42
0.0000001
 43
0.0000001
 44
0.0000000001
 40
0.0
 40
0.0
 40
0.0
 40
0.0
 40
0.0353520032
 40
0.1003959526
 40
0.1939177184
 40
0.3138170829
 40
0.4576423498
 40
0.6224098348
 40
1.0
 40
1.0
 40
1.0
 40
1.0
 10
12.0574290865
 20
-51.9745085847
 30
0.0
 10
12.0492812935
 20
-51.9737410481
 30
0.0
 10
12.0266964856
 20
-51.9676464187
 30
0.0
 10
11.9836440362
 20
-51.9552822175
 30
0.0
 10
11.9222616132
 20
-51.9354079863
 30
0.0
 10
11.8438576431
 20
-51.9091585975
 30
0.0
 10
11.7501084887
 20
-51.8767184766
 30
0.0
 10
11.6003324969
 20
-51.8238098923
 30
0.0
 10
11.4822972465
 20
-51.7810026683
 30
0.0
 10
11.4002318895
 20
-51.7509040796
 30
0.0
  0
SPLINE
  5
363
100
AcDbEntity
  8
0
100
AcDbSpline
 62
250
  6
CONTINUOUS
 70
0
 71
3
 72
14
 73
10
 74
0
 42
0.0000001
 43
0.0000001
 44
0.0000000001
 40
0.0
 40
0.0
 40
0.0
 40
0.0
 40
0.0355284289
 40
0.1005671392
 40
0.1939568918
 40
0.3136613099
 40
0.4572981714
 40
0.6219653353
 40
1.0
 40
1.0
 40
1.0
 40
1.0
 10
7.941248897
 20
-55.0227906081
 30
0.0
 10
7.9430292658
 20
-55.0149296742
 30
0.0
 10
7.944002709
 20
-54.9919666601
 30
0.0
 10
7.9450234814
 20
-54.9480861094
 30
0.0
 10
7.9442280964
 20
-54.884931544
 30
0.0
 10
7.9423156964
 20
-54.8040475704
 30
0.0
 10
7.9389611677
 20
-54.7069972923
 30
0.0
 10
7.9324900302
 20
-54.5514309668
 30
0.0
 10
7.9262578607
 20
-54.4284662538
 30
0.0
 10
7.9215827211
 20
-54.3428323535
 30
0.0
  0
LINE
  5
364
100
AcDbEntity
  8
0
100
AcDbLine
 62
250
  6
CONTINUOUS
 10
0.0
 20
-54.7076985701
 11
0.0
 21
-55.2789602604
  0
SPLINE
  5
365
100
AcDbEntity
  8
0
100
AcDbSpline
 62
250
  6
CONTINUOUS
 70
0
 71
3
 72
14
 73
10
 74
0
 42
0.0000001
 43
0.0000001
 44
0.0000000001
 40
0.0
 40
0.0
 40
0.0
 40
0.0
 40
0.0355284405
 40
0.1005671578
 40
0.1939569138
 40
0.3136613321
 40
0.4572981909
 40
0.6219653498
 40
1.0
 40
1.0
 40
1.0
 40
1.0
 10
-7.9412488984
 20
-55.0227906301
 30
0.0
 10
-7.9430292767
 20
-55.0149296953
 30
0.0
 10
-7.9440027322
 20
-54.9919666753
 30
0.0
 10
-7.94502352
 20
-54.9480861187
 30
0.0
 10
-7.9442281468
 20
-54.8849315477
 30
0.0
 10
-7.942315754
 20
-54.8040475704
 30
0.0
 10
-7.9389612258
 20
-54.7069972897
 30
0.0
 10
-7.9324900771
 20
-54.5514309631
 30
0.0
 10
-7.9262578842
 20
-54.4284662502
 30
0.0
 10
-7.9215827207
 20
-54.3428323509
 30
0.0
  0
SPLINE
  5
366
100
AcDbEntity
  8
0
100
AcDbSpline
 62
250
  6
CONTINUOUS
 70
0
 71
3
 72
14
 73
10
 74
0
 42
0.0000001
 43
0.0000001
 44
0.0000000001
 40
0.0
 40
0.0
 40
0.0
 40
0.0
 40
0.0353512876
 40
0.1003948972
 40
0.1939165475
 40
0.3138159583
 40
0.4576413925
 40
0.6224091362
 40
1.0
 40
1.0
 40
1.0
 40
1.0
 10
-12.0574310524
 20
-51.9745093291
 30
0.0
 10
-12.0492835319
 20
-51.9737405923
 30
0.0
 10
-12.0266994755
 20
-51.9676446536
 30
0.0
 10
-11.983647697
 20
-51.9552785983
 30
0.0
 10
-11.9222658126
 20
-51.9354030251
 30
0.0
 10
-11.8438620304
 20
-51.909152719
 30
0.0
 10
-11.7501127212
 20
-51.8767124831
 30
0.0
 10
-11.6003358883
 20
-51.8238050837
 30
0.0
 10
-11.4822993478
 20
-51.7810004849
 30
0.0
 10
-11.4002327837
 20
-51.7509044996
 30
0.0
  0
SPLINE
  5
367
100
AcDbEntity
  8
0
100
AcDbSpline
 62
250
  6
CONTINUOUS
 70
0
 71
3
 72
14
 73
10
 74
0
 42
0.0000001
 43
0.0000001
 44
0.0000000001
 40
0.0
 40
0.0
 40
0.0
 40
0.0
 40
0.0348348458
 40
0.0998959504
 40
0.1937333281
 40
0.3142494914
 40
0.4586313178
 40
0.6236219283
 40
1.0
 40
1.0
 40
1.0
 40
1.0
 10
-13.6298733764
 20
-47.2570350948
 30
0.0
 10
-13.6222595696
 20
-47.2532365942
 30
0.0
 10
-13.5992002304
 20
-47.2450199277
 30
0.0
 10
-13.5545521182
 20
-47.2295004236
 30
0.0
 10
-13.4895567333
 20
-47.2085798136
 30
0.0
 10
-13.405991266
 20
-47.1822552823
 30
0.0
 10
-13.3056249692
 20
-47.1513767449
 30
0.0
 10
-13.1453230513
 20
-47.1028029195
 30
0.0
 10
-13.0185586933
 20
-47.0651564802
 30
0.0
 10
-12.9303649999
 20
-47.0392004721
 30
0.0
  0
SPLINE
  5
368
100
AcDbEntity
  8
0
100
AcDbSpline
 62
250
  6
CONTINUOUS
 70
0
 71
3
 72
11
 73
7
 74
0
 42
0.0000001
 43
0.0000001
 44
0.0000000001
 40
0.0
 40
0.0
 40
0.0
 40
0.0
 40
0.250000876
 40
0.4999887587
 40
0.7499810523
 40
1.0
 40
1.0
 40
1.0
 40
1.0
 10
12.9303649994
 20
-47.039200472
 30
0.0
 10
13.1793311505
 20
-46.1003690537
 30
0.0
 10
13.6259995488
 20
-44.2087572032
 30
0.0
 10
14.1466392212
 20
-41.3407431839
 30
0.0
 10
14.5364385504
 20
-38.4522923178
 30
0.0
 10
14.7237377985
 20
-36.5182600199
 30
0.0
 10
14.8003397663
 20
-35.5499330567
 30
0.0
  0
SPLINE
  5
369
100
AcDbEntity
  8
0
100
AcDbSpline
 62
250
  6
CONTINUOUS
 70
0
 71
3
 72
17
 73
13
 74
0
 42
0.0000001
 43
0.0000001
 44
0.0000000001
 40
0.0
 40
0.0
 40
0.0
 40
0.0
 40
0.123137006
 40
0.2467952552
 40
0.3710133757
 40
0.49580352
 40
0.621166305
 40
0.7470624117
 40
0.8101898631
 40
0.8734062698
 40
0.9366863322
 40
1.0
 40
1.0
 40
1.0
 40
1.0
 10
9.4038552343
 20
-42.422087611
 30
0.0
 10
9.5562031154
 20
-42.1698824794
 30
0.0
 10
9.8450644348
 20
-41.6541382009
 30
0.0
 10
10.2193213754
 20
-40.8481590274
 30
0.0
 10
10.5321001593
 20
-40.0121583014
 30
0.0
 10
10.7834169411
 20
-39.1515392456
 30
0.0
 10
10.977156208
 20
-38.2722001309
 30
0.0
 10
11.0923618596
 20
-37.5282267927
 30
0.0
 10
11.1551574607
 20
-36.9278318709
 30
0.0
 10
11.1865837875
 20
-36.475082411
 30
0.0
 10
11.202432852
 20
-36.021094558
 30
0.0
 10
11.2027302273
 20
-35.718096101
 30
0.0
 10
11.1999029813
 20
-35.5666226927
 30
0.0
  0
SPLINE
  5
36A
100
AcDbEntity
  8
0
100
AcDbSpline
 62
250
  6
CONTINUOUS
 70
0
 71
3
 72
9
 73
5
 74
0
 42
0.0000001
 43
0.0000001
 44
0.0000000001
 40
0.0
 40
0.0
 40
0.0
 40
0.0
 40
0.2073926656
 40
1.0
 40
1.0
 40
1.0
 40
1.0
 10
11.1999154062
 20
-35.55
 30
0.0
 10
11.1999193739
 20
-35.5507109666
 30
0.0
 10
11.1999109004
 20
-35.5534333993
 30
0.0
 10
11.2002367392
 20
-35.5629607135
 30
0.0
 10
11.1997752836
 20
-35.5602829903
 30
0.0
  0
SPLINE
  5
36B
100
AcDbEntity
  8
0
100
AcDbSpline
 62
250
  6
CONTINUOUS
 70
0
 71
3
 72
11
 73
7
 74
0
 42
0.0000001
 43
0.0000001
 44
0.0000000001
 40
0.0
 40
0.0
 40
0.0
 40
0.0
 40
0.250018545
 40
0.5000107857
 40
0.7499986095
 40
1.0
 40
1.0
 40
1.0
 40
1.0
 10
-14.800338451
 20
-35.5499514182
 30
0.0
 10
-14.7237366662
 20
-36.518275282
 30
0.0
 10
-14.5364371714
 20
-38.4523027046
 30
0.0
 10
-14.1466367737
 20
-41.3407467098
 30
0.0
 10
-13.6259994687
 20
-44.2087580321
 30
0.0
 10
-13.1793312386
 20
-46.1003686026
 30
0.0
 10
-12.9303649994
 20
-47.039200472
 30
0.0
  0
SPLINE
  5
36C
100
AcDbEntity
  8
0
100
AcDbSpline
 62
250
  6
CONTINUOUS
 70
0
 71
3
 72
9
 73
5
 74
0
 42
0.0000001
 43
0.0000001
 44
0.0000000001
 40
0.0
 40
0.0
 40
0.0
 40
0.0
 40
0.5276787672
 40
1.0
 40
1.0
 40
1.0
 40
1.0
 10
9.4038552343
 20
-42.422087611
 30
0.0
 10
9.2953172453
 20
-42.3440264118
 30
0.0
 10
9.0840921246
 20
-42.2037624852
 30
0.0
 10
8.8632344421
 20
-42.0787196719
 30
0.0
 10
8.7556319027
 20
-42.0263535924
 30
0.0
  0
SPLINE
  5
36D
100
AcDbEntity
  8
0
100
AcDbSpline
 62
250
  6
CONTINUOUS
 70
0
 71
3
 72
9
 73
5
 74
0
 42
0.0000001
 43
0.0000001
 44
0.0000000001
 40
0.0
 40
0.0
 40
0.0
 40
0.0
 40
0.2901558977
 40
1.0
 40
1.0
 40
1.0
 40
1.0
 10
-11.1997781837
 20
-35.5602128899
 30
0.0
 10
-11.1999403824
 20
-35.5611875994
 30
0.0
 10
-11.1998972522
 20
-35.5534261024
 30
0.0
 10
-11.1999286685
 20
-35.5524173058
 30
0.0
 10
-11.1999154079
 20
-35.55
 30
0.0
  0
SPLINE
  5
36E
100
AcDbEntity
  8
0
100
AcDbSpline
 62
250
  6
CONTINUOUS
 70
0
 71
3
 72
17
 73
13
 74
0
 42
0.0000001
 43
0.0000001
 44
0.0000000001
 40
0.0
 40
0.0
 40
0.0
 40
0.0
 40
0.0633136823
 40
0.1265937657
 40
0.1898101989
 40
0.2529376826
 40
0.3788338687
 40
0.5041967408
 40
0.6289869246
 40
0.75320499
 40
0.8768631722
 40
1.0
 40
1.0
 40
1.0
 40
1.0
 10
-11.1999031336
 20
-35.5665210568
 30
0.0
 10
-11.2027366627
 20
-35.7179970995
 30
0.0
 10
-11.2024513858
 20
-36.021001105
 30
0.0
 10
-11.1866178728
 20
-36.4749978138
 30
0.0
 10
-11.1552064278
 20
-36.927756659
 30
0.0
 10
-11.092429445
 20
-37.5281647455
 30
0.0
 10
-10.9772418452
 20
-38.2721552614
 30
0.0
 10
-10.7835058562
 20
-39.1515125433
 30
0.0
 10
-10.5321732836
 20
-40.0121444136
 30
0.0
 10
-10.2193677185
 20
-40.848151764
 30
0.0
 10
-9.8451012383
 20
-41.6541430252
 30
0.0
 10
-9.5562214609
 20
-42.1698893182
 30
0.0
 10
-9.4038571899
 20
-42.4220902232
 30
0.0
  0
SPLINE
  5
36F
100
AcDbEntity
  8
0
100
AcDbSpline
 62
250
  6
CONTINUOUS
 70
0
 71
3
 72
13
 73
9
 74
0
 42
0.0000001
 43
0.0000001
 44
0.0000000001
 40
0.0
 40
0.0
 40
0.0
 40
0.0
 40
0.36343246
 40
0.6775355041
 40
0.8023722365
 40
0.8997637255
 40
0.9664078588
 40
1.0
 40
1.0
 40
1.0
 40
1.0
 10
14.8009630695
 20
-35.55
 30
0.0
 10
14.9212007731
 20
-35.5601394295
 30
0.0
 10
15.1453522773
 20
-35.5790798003
 30
0.0
 10
15.4107588153
 20
-35.6020754002
 30
0.0
 10
15.5881062969
 20
-35.6180612399
 30
0.0
 10
15.6836238151
 20
-35.6267841057
 30
0.0
 10
15.7489073511
 20
-35.6332725986
 30
0.0
 10
15.7820466902
 20
-35.6364753097
 30
0.0
 10
15.7930893149
 20
-35.6380408142
 30
0.0
  0
SPLINE
  5
370
100
AcDbEntity
  8
0
100
AcDbSpline
 62
250
  6
CONTINUOUS
 70
0
 71
3
 72
14
 73
10
 74
0
 42
0.0000001
 43
0.0000001
 44
0.0000000001
 40
0.0
 40
0.0
 40
0.0
 40
0.0
 40
0.0348348473
 40
0.0998959529
 40
0.1937333313
 40
0.3142494947
 40
0.4586313207
 40
0.6236219305
 40
1.0
 40
1.0
 40
1.0
 40
1.0
 10
13.6298733693
 20
-47.2570350927
 30
0.0
 10
13.622259562
 20
-47.2532365925
 30
0.0
 10
13.5992002223
 20
-47.2450199261
 30
0.0
 10
13.5545521094
 20
-47.2295004224
 30
0.0
 10
13.4895567242
 20
-47.2085798126
 30
0.0
 10
13.4059912572
 20
-47.1822552817
 30
0.0
 10
13.3056249611
 20
-47.1513767445
 30
0.0
 10
13.1453230449
 20
-47.1028029192
 30
0.0
 10
13.0185586883
 20
-47.0651564796
 30
0.0
 10
12.9303649961
 20
-47.0392004712
 30
0.0
  0
SPLINE
  5
371
100
AcDbEntity
  8
0
100
AcDbSpline
 62
250
  6
CONTINUOUS
 70
0
 71
3
 72
13
 73
9
 74
0
 42
0.0000001
 43
0.0000001
 44
0.0000000001
 40
0.0
 40
0.0
 40
0.0
 40
0.0
 40
0.1980519508
 40
0.3160276352
 40
0.4436963926
 40
0.5785657709
 40
0.7180354088
 40
1.0
 40
1.0
 40
1.0
 40
1.0
 10
-0.0000109263
 20
-46.4037886834
 30
0.0
 10
0.003229559
 20
-46.4686251556
 30
0.0
 10
0.0049373399
 20
-46.5722585881
 30
0.0
 10
0.0032286842
 20
-46.7176765921
 30
0.0
 10
0.0025541167
 20
-46.8424017245
 30
0.0
 10
0.0021055845
 20
-46.9741703612
 30
0.0
 10
0.0010772949
 20
-47.1565127605
 30
0.0
 10
0.000431845
 20
-47.2946487327
 30
0.0
 10
-0.0000000881
 20
-47.3870699802
 30
0.0
  0
SPLINE
  5
372
100
AcDbEntity
  8
0
100
AcDbSpline
 62
250
  6
CONTINUOUS
 70
0
 71
3
 72
9
 73
5
 74
0
 42
0.0000001
 43
0.0000001
 44
0.0000000001
 40
0.0
 40
0.0
 40
0.0
 40
0.0
 40
0.5276776291
 40
1.0
 40
1.0
 40
1.0
 40
1.0
 10
-9.4038571899
 20
-42.4220902232
 30
0.0
 10
-9.2953242252
 20
-42.3440227187
 30
0.0
 10
-9.0841037257
 20
-42.2037516861
 30
0.0
 10
-8.8632432952
 20
-42.0787128787
 30
0.0
 10
-8.7556373045
 20
-42.0263534553
 30
0.0
  0
ELLIPSE
  5
373
100
AcDbEntity
  8
0
100
AcDbEllipse
 62
7
  6
CONTINUOUS
 10
5.9825386487
 20
-15.7174613513
 30
0.0
 11
0.1414321262
 21
0.1414321262
 31
0.0
 40
0.9999238505
 41
0.0088603878
 42
0.2090699699
  0
ENDSEC
  0
SECTION
  2
OBJECTS
  0
DICTIONARY
  5
C
100
AcDbDictionary
280
0
281
1
  3
ACAD_GROUP
350
D
  3
ACAD_MLINESTYLE
350
17
  3
ACAD_LAYOUT
350
1A
  3
ACAD_PLOTSETTINGS
350
19
  3
ACAD_PLOTSTYLENAME
350
E
  0
DICTIONARY
  5
D
102
{ACAD_REACTORS
330
C
102
}
100
AcDbDictionary
280
0
281
1
  0
ACDBDICTIONARYWDFLT
  5
E
102
{ACAD_REACTORS
330
C
102
}
100
AcDbDictionary
281
1
  3
Normal
350
F
100
AcDbDictionaryWithDefault
340
F
  0
DICTIONARY
  5
17
102
{ACAD_REACTORS
330
C
102
}
100
AcDbDictionary
280
0
281
1
  3
Standard
350
18
  0
DICTIONARY
  5
19
102
{ACAD_REACTORS
330
C
102
}
100
AcDbDictionary
281
1
  0
DICTIONARY
  5
1A
102
{ACAD_REACTORS
330
C
102
}
100
AcDbDictionary
281
1
  3
Model
350
374
  3
Layout1
350
375
  0
ACDBPLACEHOLDER
  5
F
102
{ACAD_REACTORS
330
E
102
}
  0
MLINESTYLE
  5
18
102
{ACAD_REACTORS
330
17
102
}
100
AcDbMlineStyle
  2
STANDARD
 70
0
  3

 62
256
 51
90.0
 52
90.0
 71
2
 49
0.5
 62
256
  6
BYLAYER
 49
-0.5
 62
256
  6
BYLAYER
  0
LAYOUT
  5
374
102
{ACAD_REACTORS
330
1A
102
}
100
AcDbPlotSettings
  1

  2
none_device
  4
ISO_A4_(297.00_x_210.00_MM)
  6

 40
0.0
 41
0.0
 42
0.0
 43
0.0
 44
297.0
 45
210.0
 46
0.0
 47
0.0
 48
0.0
 49
0.0
140
0.0
141
0.0
142
1.0
143
1.0
 70
1024
 72
1
 73
0
 74
0
  7

 75
0
147
1.0
148
0.0
149
0.0
100
AcDbLayout
  1
Model
 70
0
 71
0
 10
0.0
 20
0.0
 11
297.0
 21
210.0
 12
0.0
 22
0.0
 32
0.0
 14
0.0
 24
0.0
 34
0.0
 15
0.0
 25
0.0
 35
0.0
146
0.0
 13
0.0
 23
0.0
 33
0.0
 16
1.0
 26
0.0
 36
0.0
 17
0.0
 27
1.0
 37
0.0
 76
0
330
21D
345
0
346
0
  0
LAYOUT
  5
375
102
{ACAD_REACTORS
330
1A
102
}
100
AcDbPlotSettings
  1

  2
none_device
  4
ISO_A4_(297.00_x_210.00_MM)
  6

 40
0.0
 41
0.0
 42
0.0
 43
0.0
 44
297.0
 45
210.0
 46
0.0
 47
0.0
 48
0.0
 49
0.0
140
0.0
141
0.0
142
1.0
143
1.0
 70
0
 72
1
 73
0
 74
0
  7

 75
0
147
1.0
148
0.0
149
0.0
100
AcDbLayout
  1
Layout1
 70
0
 71
1
 10
0.0
 20
0.0
 11
297.0
 21
210.0
 12
0.0
 22
0.0
 32
0.0
 14
0.0
 24
0.0
 34
0.0
 15
0.0
 25
0.0
 35
0.0
146
0.0
 13
0.0
 23
0.0
 33
0.0
 16
1.0
 26
0.0
 36
0.0
 17
0.0
 27
1.0
 37
0.0
 76
0
330
21E
345
0
346
0
  0
ENDSEC
  0
EOF
