  0
SECTION
  2
HEADER
  9
$ACADVER
  1
AC1024
  9
$DWGCODEPAGE
  3
ANSI_1252
  9
$EXTMAX
 10
297.0
 20
210.0
 30
0.0
  9
$EXTMIN
 10
0.0
 20
0.0
 30
0.0
  9
$LIMMIN
 10
0.0
 20
0.0
  9
$LIMMAX
 10
297.0
 20
210.0
  9
$VIEWCTR
 10
148.5
 20
105.0
  9
$VIEWSIZE
 40
210.0
  9
$CLAYER
  8
0
  9
$LTSCALE
 40
16.335
  9
$CELTYPE
  6
BYLAYER
  9
$DIMSCALE
 40
1.0
  9
$DIMASZ
 40
3.0
  9
$DIMEXO
 40
0.5
  9
$DIMDLI
 40
11.286
  9
$DIMEXE
 40
1.5
  9
$DIMCEN
 40
2.673
  9
$DIMLFAC
 40
1.0
  9
$DIMBLK
  1
_FILLED
  9
$DIMALT
 70
0
  9
$DIMALTF
 40
0.0393700787
  9
$DIMTXT
 40
3.0
  9
$DIMTOL
 70
1
  9
$DIMLIM
 70
0
  9
$DIMTFAC
 40
1.0
  9
$DIMTP
 40
0.01
  9
$DIMTM
 40
0.01
  9
$DIMGAP
 40
0.625
  9
$DIMDSEP
 70
44
  9
$AUNITS
 70
0
  9
$PDMODE
 70
3
  9
$PDSIZE
 40
3.0
  9
$HANDSEED
  5
37B
  9
$TILEMODE
 70
1
  9
$MEASUREMENT
 70
1
  9
$INSUNITS
 70
4
  0
ENDSEC
  0
SECTION
  2
CLASSES
  0
CLASS
  1
ACDBDICTIONARYWDFLT
  2
AcDbDictionaryWithDefault
  3
AutoCAD 2000
 90
0
 91
1
280
0
281
0
  0
CLASS
  1
ACDBPLACEHOLDER
  2
AcDbPlaceHolder
  3
AutoCAD 2000
 90
0
 91
1
280
0
281
0
  0
CLASS
  1
LAYOUT
  2
AcDbLayout
  3
AutoCAD 2000
 90
0
 91
0
280
0
281
0
  0
ENDSEC
  0
SECTION
  2
TABLES
  0
TABLE
  2
VPORT
  5
8
100
AcDbSymbolTable
 70
2
  0
VPORT
  5
1F4
100
AcDbSymbolTableRecord
100
AcDbViewportTableRecord
  2
*ACTIVE
 70
0
 10
0.0
 20
0.0
 11
1.0
 21
1.0
 12
148.5
 22
105.0
 13
0.0
 23
0.0
 14
1.0
 24
1.0
 15
0.0
 25
0.0
 16
0.0
 26
0.0
 36
1.0
 17
0.0
 27
0.0
 37
0.0
 40
210.0
 41
1.4142857143
 42
50.0
 43
0.0
 44
0.0
 50
0.0
 51
0.0
 71
0
 72
100
 73
1
 74
1
 75
0
 76
0
 77
0
 78
0
  0
ENDTAB
  0
TABLE
  2
LTYPE
  5
5
100
AcDbSymbolTable
 70
6
  0
LTYPE
  5
14
100
AcDbSymbolTableRecord
100
AcDbLinetypeTableRecord
  2
BYBLOCK
 70
0
  3

 72
65
 73
0
 40
0.0
  0
LTYPE
  5
15
100
AcDbSymbolTableRecord
100
AcDbLinetypeTableRecord
  2
BYLAYER
 70
0
  3

 72
65
 73
0
 40
0.0
  0
LTYPE
  5
16
100
AcDbSymbolTableRecord
100
AcDbLinetypeTableRecord
  2
CONTINUOUS
 70
64
  3
Solid line
 72
65
 73
0
 40
0.0
  0
LTYPE
  5
1F5
100
AcDbSymbolTableRecord
100
AcDbLinetypeTableRecord
  2
CENTER
 70
64
  3
____ _ ____ _ ____ _ ____ _ ____ _ ____ _ ____
 72
65
 73
4
 40
0.6
 49
0.375
 74
0
 49
-0.075
 74
0
 49
0.075
 74
0
 49
-0.075
 74
0
  0
LTYPE
  5
1F6
100
AcDbSymbolTableRecord
100
AcDbLinetypeTableRecord
  2
HIDDEN
 70
64
  3
- - - - - - - - - - - - - - - - - - - -
 72
65
 73
2
 40
0.2
 49
0.1
 74
0
 49
-0.1
 74
0
  0
LTYPE
  5
1F7
100
AcDbSymbolTableRecord
100
AcDbLinetypeTableRecord
  2
PHANTOM
 70
64
  3
_____ _ _ _____ _ _ _____ _ _ _____
 72
65
 73
6
 40
0.8
 49
0.45
 74
0
 49
-0.05
 74
0
 49
0.1
 74
0
 49
-0.05
 74
0
 49
0.1
 74
0
 49
-0.05
 74
0
  0
LTYPE
  5
1F8
100
AcDbSymbolTableRecord
100
AcDbLinetypeTableRecord
  2
DOT
 70
64
  3
. . . . . . . . . . . . . . . . . . . .
 72
65
 73
2
 40
0.2
 49
0.1
 74
0
 49
-0.1
 74
0
  0
LTYPE
  5
1F9
100
AcDbSymbolTableRecord
100
AcDbLinetypeTableRecord
  2
DASHED
 70
64
  3
- - - - - - - - - - - - - - - - - - - -
 72
65
 73
2
 40
0.2
 49
0.1
 74
0
 49
-0.1
 74
0
  0
ENDTAB
  0
TABLE
  2
LAYER
  5
2
100
AcDbSymbolTable
 70
36
  0
LAYER
  5
10
100
AcDbSymbolTableRecord
100
AcDbLayerTableRecord
  2
0
 70
0
 62
7
  6
CONTINUOUS
370
-3
390
F
  0
LAYER
  5
1FA
100
AcDbSymbolTableRecord
100
AcDbLayerTableRecord
  2
DEFAULT_1
 70
0
 62
7
  6
CENTER
370
-3
390
F
  0
LAYER
  5
1FB
100
AcDbSymbolTableRecord
100
AcDbLayerTableRecord
  2
DEFAULT_2
 70
0
 62
7
  6
HIDDEN
370
-3
390
F
  0
LAYER
  5
1FC
100
AcDbSymbolTableRecord
100
AcDbLayerTableRecord
  2
DEFAULT_3
 70
0
 62
7
  6
PHANTOM
370
-3
390
F
  0
LAYER
  5
1FD
100
AcDbSymbolTableRecord
100
AcDbLayerTableRecord
  2
ASSI
 70
0
 62
7
  6
CONTINUOUS
370
-3
390
F
  0
LAYER
  5
1FE
100
AcDbSymbolTableRecord
100
AcDbLayerTableRecord
  2
COLOR15
 70
0
 62
7
  6
CONTINUOUS
370
-3
390
F
  0
LAYER
  5
1FF
100
AcDbSymbolTableRecord
100
AcDbLayerTableRecord
  2
COLOR5
 70
0
 62
7
  6
CONTINUOUS
370
-3
390
F
  0
LAYER
  5
200
100
AcDbSymbolTableRecord
100
AcDbLayerTableRecord
  2
COORDINATE
 70
0
 62
7
  6
CONTINUOUS
370
-3
390
F
  0
LAYER
  5
201
100
AcDbSymbolTableRecord
100
AcDbLayerTableRecord
  2
COORD_ORIGINE
 70
0
 62
7
  6
CONTINUOUS
370
-3
390
F
  0
LAYER
  5
202
100
AcDbSymbolTableRecord
100
AcDbLayerTableRecord
  2
COSMETICHE
 70
0
 62
7
  6
CONTINUOUS
370
-3
390
F
  0
LAYER
  5
203
100
AcDbSymbolTableRecord
100
AcDbLayerTableRecord
  2
CURVE
 70
0
 62
7
  6
CONTINUOUS
370
-3
390
F
  0
LAYER
  5
204
100
AcDbSymbolTableRecord
100
AcDbLayerTableRecord
  2
DRAFT
 70
0
 62
7
  6
CONTINUOUS
370
-3
390
F
  0
LAYER
  5
205
100
AcDbSymbolTableRecord
100
AcDbLayerTableRecord
  2
IMPORT_IGES
 70
0
 62
7
  6
CONTINUOUS
370
-3
390
F
  0
LAYER
  5
206
100
AcDbSymbolTableRecord
100
AcDbLayerTableRecord
  2
INTF_1
 70
0
 62
7
  6
CONTINUOUS
370
-3
390
F
  0
LAYER
  5
207
100
AcDbSymbolTableRecord
100
AcDbLayerTableRecord
  2
INTF_11
 70
0
 62
7
  6
CONTINUOUS
370
-3
390
F
  0
LAYER
  5
208
100
AcDbSymbolTableRecord
100
AcDbLayerTableRecord
  2
INTF_2
 70
0
 62
7
  6
CONTINUOUS
370
-3
390
F
  0
LAYER
  5
209
100
AcDbSymbolTableRecord
100
AcDbLayerTableRecord
  2
INTF_3
 70
0
 62
7
  6
CONTINUOUS
370
-3
390
F
  0
LAYER
  5
20A
100
AcDbSymbolTableRecord
100
AcDbLayerTableRecord
  2
INTF_5
 70
0
 62
7
  6
CONTINUOUS
370
-3
390
F
  0
LAYER
  5
20B
100
AcDbSymbolTableRecord
100
AcDbLayerTableRecord
  2
INTF_YELLOW
 70
0
 62
7
  6
CONTINUOUS
370
-3
390
F
  0
LAYER
  5
20C
100
AcDbSymbolTableRecord
100
AcDbLayerTableRecord
  2
NOTE
 70
0
 62
7
  6
CONTINUOUS
370
-3
390
F
  0
LAYER
  5
20D
100
AcDbSymbolTableRecord
100
AcDbLayerTableRecord
  2
PIANI
 70
0
 62
7
  6
CONTINUOUS
370
-3
390
F
  0
LAYER
  5
20E
100
AcDbSymbolTableRecord
100
AcDbLayerTableRecord
  2
PIANI_ORIGINE
 70
0
 62
7
  6
CONTINUOUS
370
-3
390
F
  0
LAYER
  5
20F
100
AcDbSymbolTableRecord
100
AcDbLayerTableRecord
  2
PUNTI
 70
0
 62
7
  6
CONTINUOUS
370
-3
390
F
  0
LAYER
  5
210
100
AcDbSymbolTableRecord
100
AcDbLayerTableRecord
  2
RACCORDO
 70
0
 62
7
  6
CONTINUOUS
370
-3
390
F
  0
LAYER
  5
211
100
AcDbSymbolTableRecord
100
AcDbLayerTableRecord
  2
RGB__255__255__255__
 70
0
 62
7
  6
CONTINUOUS
370
-3
390
F
  0
LAYER
  5
212
100
AcDbSymbolTableRecord
100
AcDbLayerTableRecord
  2
SMUSSO
 70
0
 62
7
  6
CONTINUOUS
370
-3
390
F
  0
LAYER
  5
213
100
AcDbSymbolTableRecord
100
AcDbLayerTableRecord
  2
SNAPLINE
 70
0
 62
7
  6
CONTINUOUS
370
-3
390
F
  0
LAYER
  5
214
100
AcDbSymbolTableRecord
100
AcDbLayerTableRecord
  2
SUPERFICI
 70
0
 62
7
  6
CONTINUOUS
370
-3
390
F
  0
LAYER
  5
215
100
AcDbSymbolTableRecord
100
AcDbLayerTableRecord
  2
TASSELLI
 70
0
 62
7
  6
CONTINUOUS
370
-3
390
F
  0
LAYER
  5
216
100
AcDbSymbolTableRecord
100
AcDbLayerTableRecord
  2
TRASH
 70
0
 62
7
  6
CONTINUOUS
370
-3
390
F
  0
LAYER
  5
217
100
AcDbSymbolTableRecord
100
AcDbLayerTableRecord
  2
VARIE
 70
0
 62
7
  6
CONTINUOUS
370
-3
390
F
  0
LAYER
  5
218
100
AcDbSymbolTableRecord
100
AcDbLayerTableRecord
  2
XSEC_DATUMS
 70
0
 62
7
  6
CONTINUOUS
370
-3
390
F
  0
ENDTAB
  0
TABLE
  2
STYLE
  5
3
100
AcDbSymbolTable
 70
1
  0
STYLE
  5
11
100
AcDbSymbolTableRecord
100
AcDbTextStyleTableRecord
  2
STANDARD
 70
0
 40
0.0
 41
0.8
 50
0.0
 71
0
 42
0.2
  3
txt
  4

  0
STYLE
  5
219
100
AcDbSymbolTableRecord
100
AcDbTextStyleTableRecord
  2
TEXTSTYLE_1
 70
0
 40
0.0
 41
0.8
 50
0.0
 71
0
 42
0.2
  3
gdt
  4

  0
ENDTAB
  0
TABLE
  2
VIEW
  5
6
100
AcDbSymbolTable
 70
0
  0
ENDTAB
  0
TABLE
  2
UCS
  5
7
100
AcDbSymbolTable
 70
0
  0
ENDTAB
  0
TABLE
  2
APPID
  5
9
100
AcDbSymbolTable
 70
1
  0
APPID
  5
21A
100
AcDbSymbolTableRecord
100
AcDbRegAppTableRecord
  2
ACAD
 70
0
  0
ENDTAB
  0
TABLE
  2
BLOCK_RECORD
  5
1
100
AcDbSymbolTable
 70
0
  0
BLOCK_RECORD
  5
21B
100
AcDbSymbolTableRecord
100
AcDbBlockTableRecord
  2
*Model_Space
  0
BLOCK_RECORD
  5
21C
100
AcDbSymbolTableRecord
100
AcDbBlockTableRecord
  2
*Paper_Space
  0
BLOCK_RECORD
  5
21D
100
AcDbSymbolTableRecord
100
AcDbBlockTableRecord
  2
_FILLED
  0
ENDTAB
  0
TABLE
  2
DIMSTYLE
  5
A
100
AcDbSymbolTable
 70
1
100
AcDbDimStyleTable
 71
0
  0
DIMSTYLE
105
21E
100
AcDbSymbolTableRecord
100
AcDbDimStyleTableRecord
  2
STANDARD
 70
0
  3

  4

 40
1.0
 41
3.0
 42
0.5
 43
0.38
 44
1.5
 45
0.0
 46
0.0
 47
0.01
 48
0.01
140
3.0
141
0.09
142
0.0
143
25.4
144
1.0
145
0.0
146
1.0
147
0.625
 71
1
 72
0
 73
0
 74
0
 75
0
 76
0
 77
1
 78
8
 79
2
170
0
171
1
172
0
173
0
174
0
175
0
176
0
177
0
178
0
270
2
179
2
271
2
272
2
273
2
274
2
275
0
280
0
281
0
282
0
283
1
284
8
285
0
286
0
287
3
288
0
340
11
278
44
341
21D
342
21D
343
21D
344
21D
  0
ENDTAB
  0
ENDSEC
  0
SECTION
  2
BLOCKS
  0
BLOCK
  5
20
100
AcDbEntity
  8
0
100
AcDbBlockBegin
  2
*Model_Space
 70
0
 10
0.0
 20
0.0
 30
0.0
  3
*Model_Space
  1

  0
ENDBLK
  5
21
100
AcDbEntity
  8
0
100
AcDbBlockEnd
  0
BLOCK
  5
1C
100
AcDbEntity
  8
0
100
AcDbBlockBegin
  2
*Paper_Space
 70
0
 10
0.0
 20
0.0
 30
0.0
  3
*Paper_Space
  1

  0
ENDBLK
  5
1D
100
AcDbEntity
  8
0
100
AcDbBlockEnd
  0
BLOCK
  5
21F
100
AcDbEntity
  8
0
100
AcDbBlockBegin
  2
_FILLED
 70
64
 10
0.0
 20
0.0
  3
_FILLED
  1

  0
SOLID
  5
220
100
AcDbEntity
  8
0
  6
BYBLOCK
 62
0
100
AcDbTrace
 10
0.0
 20
0.0
 11
-1.0
 21
0.3166666667
 12
-1.0
 22
-0.3166666667
 13
-1.0
 23
-0.3166666667
  0
ENDBLK
  5
221
100
AcDbEntity
  8
0
  6
BYBLOCK
 62
0
100
AcDbBlockEnd
  0
ENDSEC
  0
SECTION
  2
ENTITIES
  0
LINE
  5
222
100
AcDbEntity
  8
0
100
AcDbLine
 62
7
  6
CONTINUOUS
 10
4.4998052187
 20
-64.3
 11
4.0
 21
-64.3
  0
LINE
  5
223
100
AcDbEntity
  8
0
100
AcDbLine
 62
7
  6
CONTINUOUS
 10
-4.0
 20
-64.3
 11
-4.4998052187
 21
-64.3
  0
LINE
  5
224
100
AcDbEntity
  8
0
100
AcDbLine
 62
250
  6
CONTINUOUS
 10
-5.3
 20
-62.95
 11
5.3
 21
-62.95
  0
LINE
  5
225
100
AcDbEntity
  8
0
100
AcDbLine
 62
250
  6
CONTINUOUS
 10
-5.4184210526
 20
-62.8033617714
 11
5.4184210526
 21
-62.8033617714
  0
LINE
  5
226
100
AcDbEntity
  8
0
100
AcDbLine
 62
250
  6
CONTINUOUS
 10
6.05
 20
-62.0212912189
 11
-6.05
 21
-62.0212912189
  0
LINE
  5
227
100
AcDbEntity
  8
0
100
AcDbLine
 62
7
  6
CONTINUOUS
 10
0.593816
 20
-41.706117
 11
-0.58843
 21
-41.706117
  0
LINE
  5
228
100
AcDbEntity
  8
0
100
AcDbLine
 62
7
  6
CONTINUOUS
 10
-0.58843
 20
-41.289452
 11
-0.219175
 21
-41.289452
  0
LINE
  5
229
100
AcDbEntity
  8
0
100
AcDbLine
 62
7
  6
CONTINUOUS
 10
0.224704
 20
-41.289452
 11
0.593816
 21
-41.289452
  0
LINE
  5
22A
100
AcDbEntity
  8
0
100
AcDbLine
 62
250
  6
CONTINUOUS
 10
13.7206646819
 20
-58.0959684516
 11
14.0421791447
 21
-58.2695674305
  0
LINE
  5
22B
100
AcDbEntity
  8
0
100
AcDbLine
 62
7
  6
CONTINUOUS
 10
0.580209
 20
-38.329254
 11
0.224704
 21
-38.329254
  0
LINE
  5
22C
100
AcDbEntity
  8
0
100
AcDbLine
 62
7
  6
CONTINUOUS
 10
-0.219175
 20
-38.329254
 11
-0.574823
 21
-38.329254
  0
LINE
  5
22D
100
AcDbEntity
  8
0
100
AcDbLine
 62
7
  6
CONTINUOUS
 10
-0.574823
 20
-37.910297
 11
0.580209
 21
-37.910297
  0
LINE
  5
22E
100
AcDbEntity
  8
0
100
AcDbLine
 62
250
  6
CONTINUOUS
 10
15.1999643994
 20
-37.3000104019
 11
18.8959717611
 21
-37.2999754111
  0
LINE
  5
22F
100
AcDbEntity
  8
0
100
AcDbLine
 62
250
  6
CONTINUOUS
 10
-18.8959717483
 20
-37.2999756001
 11
-15.1999667913
 21
-37.3
  0
LINE
  5
230
100
AcDbEntity
  8
0
100
AcDbLine
 62
250
  6
CONTINUOUS
 10
19.887034559
 20
-37.3808310001
 11
18.895970091
 21
-37.3
  0
LINE
  5
231
100
AcDbEntity
  8
0
100
AcDbLine
 62
250
  6
CONTINUOUS
 10
19.0669617417
 20
-33.1
 11
20.4
 21
-33.1
  0
LINE
  5
232
100
AcDbEntity
  8
0
100
AcDbLine
 62
250
  6
CONTINUOUS
 10
-19.0669617417
 20
-33.1
 11
-20.4
 21
-33.1
  0
LINE
  5
233
100
AcDbEntity
  8
0
100
AcDbLine
 62
7
  6
CONTINUOUS
 10
7.3368353099
 20
-31.0
 11
11.5606313439
 21
-31.0
  0
LINE
  5
234
100
AcDbEntity
  8
0
100
AcDbLine
 62
7
  6
CONTINUOUS
 10
11.5606313439
 20
-29.9440509915
 11
7.3368353099
 21
-29.9440509915
  0
LINE
  5
235
100
AcDbEntity
  8
0
100
AcDbLine
 62
7
  6
CONTINUOUS
 10
8.580987
 20
-28.710104
 11
8.896784
 21
-28.710104
  0
LINE
  5
236
100
AcDbEntity
  8
0
100
AcDbLine
 62
7
  6
CONTINUOUS
 10
8.8178345212
 20
-28.6311546572
 11
8.6599363541
 21
-28.6311546572
  0
LINE
  5
237
100
AcDbEntity
  8
0
100
AcDbLine
 62
7
  6
CONTINUOUS
 10
-7.428126
 20
-28.382512
 11
-5.93959
 21
-28.382512
  0
LINE
  5
238
100
AcDbEntity
  8
0
100
AcDbLine
 62
7
  6
CONTINUOUS
 10
8.6599363541
 20
-28.315356915
 11
8.8178345212
 21
-28.315356915
  0
LINE
  5
239
100
AcDbEntity
  8
0
100
AcDbLine
 62
7
  6
CONTINUOUS
 10
8.896784
 20
-28.28904
 11
9.772627
 21
-28.28904
  0
LINE
  5
23A
100
AcDbEntity
  8
0
100
AcDbLine
 62
7
  6
CONTINUOUS
 10
9.7726270487
 20
-28.236407
 11
8.629216
 21
-28.236407
  0
LINE
  5
23B
100
AcDbEntity
  8
0
100
AcDbLine
 62
7
  6
CONTINUOUS
 10
-5.93959
 20
-27.617512
 11
-7.4281264558
 21
-27.617512
  0
LINE
  5
23C
100
AcDbEntity
  8
0
100
AcDbLine
 62
7
  6
CONTINUOUS
 10
-0.219175
 20
-39.907969
 11
-1.339536
 21
-38.963833
  0
LINE
  5
23D
100
AcDbEntity
  8
0
100
AcDbLine
 62
7
  6
CONTINUOUS
 10
-1.391249
 20
-38.4039
 11
-0.219175
 21
-39.391613
  0
LINE
  5
23E
100
AcDbEntity
  8
0
100
AcDbLine
 62
7
  6
CONTINUOUS
 10
9.1008035127
 20
-25.7889742733
 11
10.0218810822
 21
-25.7889742733
  0
LINE
  5
23F
100
AcDbEntity
  8
0
100
AcDbLine
 62
7
  6
CONTINUOUS
 10
9.9692476558
 20
-25.736340847
 11
9.1534369391
 21
-25.736340847
  0
LINE
  5
240
100
AcDbEntity
  8
0
100
AcDbLine
 62
7
  6
CONTINUOUS
 10
9.1534369391
 20
-25.5784412719
 11
9.9692476558
 21
-25.5784412719
  0
LINE
  5
241
100
AcDbEntity
  8
0
100
AcDbLine
 62
7
  6
CONTINUOUS
 10
10.0218810822
 20
-25.5258092535
 11
9.1008035127
 21
-25.5258092535
  0
LINE
  5
242
100
AcDbEntity
  8
0
100
AcDbLine
 62
7
  6
CONTINUOUS
 10
10.524696
 20
-25.525809
 11
10.995591
 21
-25.525809
  0
LINE
  5
243
100
AcDbEntity
  8
0
100
AcDbLine
 62
7
  6
CONTINUOUS
 10
10.9429579476
 20
-25.4731758272
 11
10.5293793272
 21
-25.4731758272
  0
LINE
  5
244
100
AcDbEntity
  8
0
100
AcDbLine
 62
7
  6
CONTINUOUS
 10
10.5707443697
 20
-24.9994799178
 11
10.8542075453
 21
-24.9994799178
  0
LINE
  5
245
100
AcDbEntity
  8
0
100
AcDbLine
 62
7
  6
CONTINUOUS
 10
10.4166286119
 20
-24.9994799178
 11
10.5179096091
 21
-24.9994799178
  0
LINE
  5
246
100
AcDbEntity
  8
0
100
AcDbLine
 62
7
  6
CONTINUOUS
 10
10.906841
 20
-24.946846
 11
10.575348
 21
-24.946846
  0
LINE
  5
247
100
AcDbEntity
  8
0
100
AcDbLine
 62
7
  6
CONTINUOUS
 10
10.5225142507
 20
-24.9468464915
 11
10.3639951856
 21
-24.9468464915
  0
LINE
  5
248
100
AcDbEntity
  8
0
100
AcDbLine
 62
7
  6
CONTINUOUS
 10
7.837613
 20
-24.736315
 11
8.270163
 21
-24.736315
  0
LINE
  5
249
100
AcDbEntity
  8
0
100
AcDbLine
 62
7
  6
CONTINUOUS
 10
8.3229978088
 20
-24.736314898
 11
10.5409342252
 21
-24.736314898
  0
LINE
  5
24A
100
AcDbEntity
  8
0
100
AcDbLine
 62
7
  6
CONTINUOUS
 10
10.593768
 20
-24.736315
 11
10.758742
 21
-24.736315
  0
LINE
  5
24B
100
AcDbEntity
  8
0
100
AcDbLine
 62
7
  6
CONTINUOUS
 10
10.3962341407
 20
-24.525783
 11
8.653424
 21
-24.525783
  0
LINE
  5
24C
100
AcDbEntity
  8
0
100
AcDbLine
 62
7
  6
CONTINUOUS
 10
8.390259
 20
-24.525783
 11
8.304579
 21
-24.525783
  0
LINE
  5
24D
100
AcDbEntity
  8
0
100
AcDbLine
 62
7
  6
CONTINUOUS
 10
8.251744
 20
-24.525783
 11
7.837613
 21
-24.525783
  0
LINE
  5
24E
100
AcDbEntity
  8
0
100
AcDbLine
 62
7
  6
CONTINUOUS
 10
8.600791
 20
-24.473149
 11
8.442892
 21
-24.473149
  0
LINE
  5
24F
100
AcDbEntity
  8
0
100
AcDbLine
 62
7
  6
CONTINUOUS
 10
9.20607
 20
-24.31525
 11
9.916615
 21
-24.31525
  0
LINE
  5
250
100
AcDbEntity
  8
0
100
AcDbLine
 62
7
  6
CONTINUOUS
 10
9.863982
 20
-24.262618
 11
9.258703
 21
-24.262618
  0
LINE
  5
251
100
AcDbEntity
  8
0
100
AcDbLine
 62
7
  6
CONTINUOUS
 10
8.442892
 20
-24.131036
 11
8.600791
 21
-24.131036
  0
LINE
  5
252
100
AcDbEntity
  8
0
100
AcDbLine
 62
7
  6
CONTINUOUS
 10
8.653424
 20
-24.078402
 11
8.390259
 21
-24.078402
  0
LINE
  5
253
100
AcDbEntity
  8
0
100
AcDbLine
 62
7
  6
CONTINUOUS
 10
9.258703
 20
-24.052086
 11
9.863982
 21
-24.052086
  0
LINE
  5
254
100
AcDbEntity
  8
0
100
AcDbLine
 62
7
  6
CONTINUOUS
 10
9.916615
 20
-23.999453
 11
9.20607
 21
-23.999453
  0
LINE
  5
255
100
AcDbEntity
  8
0
100
AcDbLine
 62
7
  6
CONTINUOUS
 10
-20.4
 20
-6.8
 11
-20.4
 21
-33.1
  0
LINE
  5
256
100
AcDbEntity
  8
0
100
AcDbLine
 62
250
  6
CONTINUOUS
 10
-20.0613170254
 20
-6.8
 11
-20.0613170254
 21
-33.1
  0
LINE
  5
257
100
AcDbEntity
  8
0
100
AcDbLine
 62
250
  6
CONTINUOUS
 10
-19.0669617417
 20
-33.1
 11
-19.0669617417
 21
-6.3
  0
LINE
  5
258
100
AcDbEntity
  8
0
100
AcDbLine
 62
7
  6
CONTINUOUS
 10
-18.3
 20
-6.3
 11
-18.3
 21
-6.0
  0
LINE
  5
259
100
AcDbEntity
  8
0
100
AcDbLine
 62
250
  6
CONTINUOUS
 10
13.0
 20
-18.225
 11
-13.0
 21
-18.225
  0
LINE
  5
25A
100
AcDbEntity
  8
0
100
AcDbLine
 62
7
  6
CONTINUOUS
 10
13.0
 20
-18.075
 11
-13.0
 21
-18.075
  0
LINE
  5
25B
100
AcDbEntity
  8
RACCORDO
100
AcDbLine
 62
7
  6
CONTINUOUS
 10
-13.0
 20
-18.05
 11
13.0
 21
-18.05
  0
LINE
  5
25C
100
AcDbEntity
  8
RACCORDO
100
AcDbLine
 62
250
  6
CONTINUOUS
 10
-13.0
 20
-17.9013089803
 11
13.0
 21
-17.9013089803
  0
LINE
  5
25D
100
AcDbEntity
  8
0
100
AcDbLine
 62
7
  6
CONTINUOUS
 10
-14.6373943776
 20
-17.7
 11
-14.5781694538
 21
-17.7
  0
LINE
  5
25E
100
AcDbEntity
  8
0
100
AcDbLine
 62
7
  6
CONTINUOUS
 10
14.5781688666
 20
-17.7
 11
14.6373943769
 21
-17.7
  0
LINE
  5
25F
100
AcDbEntity
  8
0
100
AcDbLine
 62
7
  6
CONTINUOUS
 10
0.964676
 20
-41.518741
 11
0.772879
 21
-41.177022
  0
LINE
  5
260
100
AcDbEntity
  8
0
100
AcDbLine
 62
7
  6
CONTINUOUS
 10
-14.85
 20
-11.0103932055
 11
-14.85
 21
-11.0389645047
  0
LINE
  5
261
100
AcDbEntity
  8
0
100
AcDbLine
 62
250
  6
CONTINUOUS
 10
-13.0
 20
-10.375
 11
-13.0
 21
-10.525
  0
LINE
  5
262
100
AcDbEntity
  8
RACCORDO
100
AcDbLine
 62
250
  6
CONTINUOUS
 10
-13.0
 20
-17.9013089803
 11
-13.0
 21
-18.05
  0
LINE
  5
263
100
AcDbEntity
  8
0
100
AcDbLine
 62
250
  6
CONTINUOUS
 10
-13.0
 20
-18.225
 11
-13.0
 21
-18.075
  0
LINE
  5
264
100
AcDbEntity
  8
RACCORDO
100
AcDbLine
 62
250
  6
CONTINUOUS
 10
-13.0
 20
-10.6986910197
 11
-12.9999999993
 21
-10.55
  0
LINE
  5
265
100
AcDbEntity
  8
0
100
AcDbLine
 62
250
  6
CONTINUOUS
 10
-16.6656523917
 20
-15.1967249726
 11
-16.6638377053
 21
-15.092761657
  0
LINE
  5
266
100
AcDbEntity
  8
RACCORDO
100
AcDbLine
 62
7
  6
CONTINUOUS
 10
16.599999762
 20
-14.3
 11
15.5
 21
-14.3
  0
LINE
  5
267
100
AcDbEntity
  8
0
100
AcDbLine
 62
7
  6
CONTINUOUS
 10
10.5
 20
-14.3
 11
2.5
 21
-14.3
  0
LINE
  5
268
100
AcDbEntity
  8
0
100
AcDbLine
 62
7
  6
CONTINUOUS
 10
-2.5
 20
-14.3
 11
-10.5
 21
-14.3
  0
LINE
  5
269
100
AcDbEntity
  8
RACCORDO
100
AcDbLine
 62
7
  6
CONTINUOUS
 10
-15.5
 20
-14.3
 11
-16.599999762
 21
-14.3
  0
LINE
  5
26A
100
AcDbEntity
  8
0
100
AcDbLine
 62
7
  6
CONTINUOUS
 10
7.0
 20
-28.853687
 11
7.074435
 21
-28.928121
  0
LINE
  5
26B
100
AcDbEntity
  8
0
100
AcDbLine
 62
7
  6
CONTINUOUS
 10
-9.76459
 20
-30.53723
 11
-9.76459
 21
-29.766704
  0
LINE
  5
26C
100
AcDbEntity
  8
0
100
AcDbLine
 62
7
  6
CONTINUOUS
 10
-9.76459
 20
-26.23332
 11
-9.76459
 21
-25.462794
  0
LINE
  5
26D
100
AcDbEntity
  8
0
100
AcDbLine
 62
7
  6
CONTINUOUS
 10
-8.75
 20
-18.05
 11
-8.75
 21
-18.075
  0
LINE
  5
26E
100
AcDbEntity
  8
0
100
AcDbLine
 62
7
  6
CONTINUOUS
 10
-10.0135276753
 20
-18.075
 11
-10.0130912987
 21
-18.05
  0
LINE
  5
26F
100
AcDbEntity
  8
0
100
AcDbLine
 62
7
  6
CONTINUOUS
 10
-9.0514924415
 20
-10.55
 11
-9.0510560649
 21
-10.525
  0
LINE
  5
270
100
AcDbEntity
  8
0
100
AcDbLine
 62
250
  6
CONTINUOUS
 10
-8.751538133
 20
-10.55
 11
-8.7511017564
 21
-10.525
  0
LINE
  5
271
100
AcDbEntity
  8
0
100
AcDbLine
 62
7
  6
CONTINUOUS
 10
14.6373943776
 20
-10.9
 11
14.5781694289
 21
-10.9
  0
LINE
  5
272
100
AcDbEntity
  8
0
100
AcDbLine
 62
7
  6
CONTINUOUS
 10
-14.5781688434
 20
-10.9
 11
-14.6373943769
 21
-10.9
  0
LINE
  5
273
100
AcDbEntity
  8
RACCORDO
100
AcDbLine
 62
250
  6
CONTINUOUS
 10
13.0
 20
-10.6986910197
 11
-13.0
 21
-10.6986910197
  0
LINE
  5
274
100
AcDbEntity
  8
RACCORDO
100
AcDbLine
 62
7
  6
CONTINUOUS
 10
13.0
 20
-10.55
 11
-13.0
 21
-10.55
  0
LINE
  5
275
100
AcDbEntity
  8
0
100
AcDbLine
 62
7
  6
CONTINUOUS
 10
-13.0
 20
-10.525
 11
13.0
 21
-10.525
  0
LINE
  5
276
100
AcDbEntity
  8
0
100
AcDbLine
 62
250
  6
CONTINUOUS
 10
-13.0
 20
-10.375
 11
13.0
 21
-10.375
  0
LINE
  5
277
100
AcDbEntity
  8
0
100
AcDbLine
 62
7
  6
CONTINUOUS
 10
8.3904370482
 20
-25.5071562663
 11
9.3684844745
 21
-26.4852029886
  0
LINE
  5
278
100
AcDbEntity
  8
0
100
AcDbLine
 62
7
  6
CONTINUOUS
 10
7.0
 20
-24.116719
 11
8.332538
 21
-25.449256
  0
LINE
  5
279
100
AcDbEntity
  8
0
100
AcDbLine
 62
7
  6
CONTINUOUS
 10
9.442918
 20
-26.559637
 11
10.305912
 21
-27.422631
  0
LINE
  5
27A
100
AcDbEntity
  8
0
100
AcDbLine
 62
7
  6
CONTINUOUS
 10
10.354495
 20
-27.471214
 11
11.811402
 21
-28.928121
  0
LINE
  5
27B
100
AcDbEntity
  8
0
100
AcDbLine
 62
7
  6
CONTINUOUS
 10
11.885837
 20
-28.853687
 11
10.366472
 21
-27.334323
  0
LINE
  5
27C
100
AcDbEntity
  8
0
100
AcDbLine
 62
7
  6
CONTINUOUS
 10
10.3178875241
 20
-27.285738347
 11
9.5173521657
 21
-26.4852029886
  0
LINE
  5
27D
100
AcDbEntity
  8
0
100
AcDbLine
 62
7
  6
CONTINUOUS
 10
9.4429183201
 20
-26.410769143
 11
8.3761641374
 21
-25.3440149603
  0
LINE
  5
27E
100
AcDbEntity
  8
0
100
AcDbLine
 62
7
  6
CONTINUOUS
 10
8.318265
 20
-25.286115
 11
7.074435
 21
-24.042285
  0
LINE
  5
27F
100
AcDbEntity
  8
0
100
AcDbLine
 62
7
  6
CONTINUOUS
 10
11.885837
 20
-24.116719
 11
11.811402
 21
-24.042285
  0
LINE
  5
280
100
AcDbEntity
  8
0
100
AcDbLine
 62
250
  6
CONTINUOUS
 10
-4.2484652484
 20
-10.55
 11
-4.2489015919
 21
-10.525
  0
LINE
  5
281
100
AcDbEntity
  8
0
100
AcDbLine
 62
7
  6
CONTINUOUS
 10
-3.9489439351
 20
-10.525
 11
-3.9485075585
 21
-10.55
  0
LINE
  5
282
100
AcDbEntity
  8
0
100
AcDbLine
 62
7
  6
CONTINUOUS
 10
-6.05
 20
-62.0212912189
 11
-6.05
 21
-61.2899266605
  0
LINE
  5
283
100
AcDbEntity
  8
0
100
AcDbLine
 62
7
  6
CONTINUOUS
 10
-5.93959
 20
-28.382512
 11
-5.93959
 21
-27.617512
  0
LINE
  5
284
100
AcDbEntity
  8
0
100
AcDbLine
 62
7
  6
CONTINUOUS
 10
-5.42959
 20
-30.53723
 11
-5.42959
 21
-29.7667035501
  0
LINE
  5
285
100
AcDbEntity
  8
0
100
AcDbLine
 62
7
  6
CONTINUOUS
 10
-5.42959
 20
-26.23332
 11
-5.42959
 21
-25.462794
  0
LINE
  5
286
100
AcDbEntity
  8
0
100
AcDbLine
 62
7
  6
CONTINUOUS
 10
-5.3
 20
-63.4989021232
 11
-5.3
 21
-62.95
  0
LINE
  5
287
100
AcDbEntity
  8
0
100
AcDbLine
 62
7
  6
CONTINUOUS
 10
-4.25
 20
-18.05
 11
-4.25
 21
-18.075
  0
LINE
  5
288
100
AcDbEntity
  8
0
100
AcDbLine
 62
250
  6
CONTINUOUS
 10
-10.0305538769
 20
-60.5129481078
 11
-10.0611898069
 21
-60.8774747169
  0
LINE
  5
289
100
AcDbEntity
  8
0
100
AcDbLine
 62
250
  6
CONTINUOUS
 10
-20.4
 20
-6.8
 11
20.4
 21
-6.8
  0
LINE
  5
28A
100
AcDbEntity
  8
0
100
AcDbLine
 62
7
  6
CONTINUOUS
 10
-19.9
 20
-6.3
 11
19.9
 21
-6.3
  0
LINE
  5
28B
100
AcDbEntity
  8
0
100
AcDbLine
 62
7
  6
CONTINUOUS
 10
-18.3
 20
-6.0
 11
18.3
 21
-6.0
  0
LINE
  5
28C
100
AcDbEntity
  8
0
100
AcDbLine
 62
7
  6
CONTINUOUS
 10
-2.9864723247
 20
-18.075
 11
-2.9869087013
 21
-18.05
  0
LINE
  5
28D
100
AcDbEntity
  8
0
100
AcDbLine
 62
250
  6
CONTINUOUS
 10
-3.6
 20
-18.075
 11
-3.6
 21
-18.05
  0
LINE
  5
28E
100
AcDbEntity
  8
0
100
AcDbLine
 62
250
  6
CONTINUOUS
 10
-3.4
 20
-18.075
 11
-3.4
 21
-18.05
  0
LINE
  5
28F
100
AcDbEntity
  8
0
100
AcDbLine
 62
7
  6
CONTINUOUS
 10
-0.58843
 20
-41.706117
 11
-0.58843
 21
-41.289452
  0
LINE
  5
290
100
AcDbEntity
  8
0
100
AcDbLine
 62
7
  6
CONTINUOUS
 10
-0.574823
 20
-38.329254
 11
-0.574823
 21
-37.910297
  0
LINE
  5
291
100
AcDbEntity
  8
0
100
AcDbLine
 62
7
  6
CONTINUOUS
 10
-0.219175
 20
-41.289452
 11
-0.219175
 21
-39.907969
  0
LINE
  5
292
100
AcDbEntity
  8
0
100
AcDbLine
 62
7
  6
CONTINUOUS
 10
-0.219175
 20
-39.391613
 11
-0.219175
 21
-38.329254
  0
LINE
  5
293
100
AcDbEntity
  8
0
100
AcDbLine
 62
250
  6
CONTINUOUS
 10
0.0
 20
-60.3417678917
 11
0.0
 21
-53.1083524618
  0
LINE
  5
294
100
AcDbEntity
  8
0
100
AcDbLine
 62
7
  6
CONTINUOUS
 10
0.224704
 20
-38.329254
 11
0.224704
 21
-39.391613
  0
LINE
  5
295
100
AcDbEntity
  8
0
100
AcDbLine
 62
7
  6
CONTINUOUS
 10
0.224704
 20
-39.903309
 11
0.224704
 21
-41.289452
  0
LINE
  5
296
100
AcDbEntity
  8
0
100
AcDbLine
 62
7
  6
CONTINUOUS
 10
0.580209
 20
-37.910297
 11
0.580209
 21
-38.329254
  0
LINE
  5
297
100
AcDbEntity
  8
0
100
AcDbLine
 62
7
  6
CONTINUOUS
 10
0.593816
 20
-41.289452
 11
0.593816
 21
-41.706117
  0
LINE
  5
298
100
AcDbEntity
  8
0
100
AcDbLine
 62
250
  6
CONTINUOUS
 10
10.0305537725
 20
-60.5129481164
 11
10.0611898069
 21
-60.8774747169
  0
LINE
  5
299
100
AcDbEntity
  8
0
100
AcDbLine
 62
250
  6
CONTINUOUS
 10
3.4
 20
-18.05
 11
3.4
 21
-18.075
  0
LINE
  5
29A
100
AcDbEntity
  8
0
100
AcDbLine
 62
250
  6
CONTINUOUS
 10
3.6
 20
-18.05
 11
3.6
 21
-18.075
  0
LINE
  5
29B
100
AcDbEntity
  8
0
100
AcDbLine
 62
7
  6
CONTINUOUS
 10
4.25
 20
-18.05
 11
4.25
 21
-18.075
  0
LINE
  5
29C
100
AcDbEntity
  8
0
100
AcDbLine
 62
7
  6
CONTINUOUS
 10
2.9864723247
 20
-18.075
 11
2.9869087013
 21
-18.05
  0
LINE
  5
29D
100
AcDbEntity
  8
0
100
AcDbLine
 62
7
  6
CONTINUOUS
 10
3.9485075585
 20
-10.55
 11
3.9489439351
 21
-10.525
  0
LINE
  5
29E
100
AcDbEntity
  8
0
100
AcDbLine
 62
250
  6
CONTINUOUS
 10
4.248461867
 20
-10.55
 11
4.2488982436
 21
-10.525
  0
LINE
  5
29F
100
AcDbEntity
  8
0
100
AcDbLine
 62
7
  6
CONTINUOUS
 10
8.270163
 20
-24.736315
 11
8.318265
 21
-25.286115
  0
LINE
  5
2A0
100
AcDbEntity
  8
0
100
AcDbLine
 62
7
  6
CONTINUOUS
 10
8.2357899461
 20
-24.3434273834
 11
8.251744
 21
-24.525783
  0
LINE
  5
2A1
100
AcDbEntity
  8
0
100
AcDbLine
 62
7
  6
CONTINUOUS
 10
8.332538
 20
-25.449256
 11
8.499222
 21
-27.354465
  0
LINE
  5
2A2
100
AcDbEntity
  8
0
100
AcDbLine
 62
7
  6
CONTINUOUS
 10
8.511199
 20
-27.491358
 11
8.580987
 21
-28.28904
  0
LINE
  5
2A3
100
AcDbEntity
  8
0
100
AcDbLine
 62
7
  6
CONTINUOUS
 10
8.304579
 20
-24.525783
 11
8.2916050066
 21
-24.3774920753
  0
LINE
  5
2A4
100
AcDbEntity
  8
0
100
AcDbLine
 62
7
  6
CONTINUOUS
 10
8.629216
 20
-28.236407
 11
8.559782
 21
-27.442773
  0
LINE
  5
2A5
100
AcDbEntity
  8
0
100
AcDbLine
 62
7
  6
CONTINUOUS
 10
8.5478051289
 20
-27.3058816303
 11
8.3904370482
 21
-25.5071562663
  0
LINE
  5
2A6
100
AcDbEntity
  8
0
100
AcDbLine
 62
7
  6
CONTINUOUS
 10
8.3761641374
 20
-25.3440149603
 11
8.3229978088
 21
-24.736314898
  0
LINE
  5
2A7
100
AcDbEntity
  8
0
100
AcDbLine
 62
250
  6
CONTINUOUS
 10
8.7515347516
 20
-10.55
 11
8.7510984081
 21
-10.525
  0
LINE
  5
2A8
100
AcDbEntity
  8
0
100
AcDbLine
 62
7
  6
CONTINUOUS
 10
9.0510560649
 20
-10.525
 11
9.0514924415
 21
-10.55
  0
LINE
  5
2A9
100
AcDbEntity
  8
0
100
AcDbLine
 62
7
  6
CONTINUOUS
 10
5.3
 20
-63.4989021232
 11
5.3
 21
-62.95
  0
LINE
  5
2AA
100
AcDbEntity
  8
0
100
AcDbLine
 62
7
  6
CONTINUOUS
 10
6.05
 20
-62.0212912189
 11
6.05
 21
-61.2899266605
  0
LINE
  5
2AB
100
AcDbEntity
  8
0
100
AcDbLine
 62
7
  6
CONTINUOUS
 10
7.3368353099
 20
-29.9440509915
 11
7.3368353099
 21
-31.0
  0
LINE
  5
2AC
100
AcDbEntity
  8
0
100
AcDbLine
 62
7
  6
CONTINUOUS
 10
7.837613
 20
-24.525783
 11
7.837613
 21
-24.736315
  0
LINE
  5
2AD
100
AcDbEntity
  8
0
100
AcDbLine
 62
7
  6
CONTINUOUS
 10
8.390259
 20
-24.078402
 11
8.390259
 21
-24.284452
  0
LINE
  5
2AE
100
AcDbEntity
  8
0
100
AcDbLine
 62
7
  6
CONTINUOUS
 10
8.390259
 20
-24.340245
 11
8.390259
 21
-24.525783
  0
LINE
  5
2AF
100
AcDbEntity
  8
0
100
AcDbLine
 62
7
  6
CONTINUOUS
 10
8.442892
 20
-24.473149
 11
8.442892
 21
-24.3221416504
  0
LINE
  5
2B0
100
AcDbEntity
  8
0
100
AcDbLine
 62
7
  6
CONTINUOUS
 10
8.442892
 20
-24.2667321802
 11
8.442892
 21
-24.131036
  0
LINE
  5
2B1
100
AcDbEntity
  8
0
100
AcDbLine
 62
7
  6
CONTINUOUS
 10
8.580987
 20
-28.28904
 11
8.580987
 21
-28.710104
  0
LINE
  5
2B2
100
AcDbEntity
  8
0
100
AcDbLine
 62
7
  6
CONTINUOUS
 10
8.600791
 20
-24.131036
 11
8.600791
 21
-24.220486
  0
LINE
  5
2B3
100
AcDbEntity
  8
0
100
AcDbLine
 62
7
  6
CONTINUOUS
 10
8.600791
 20
-24.274917
 11
8.600791
 21
-24.473149
  0
LINE
  5
2B4
100
AcDbEntity
  8
0
100
AcDbLine
 62
7
  6
CONTINUOUS
 10
8.653424
 20
-24.525783
 11
8.653424
 21
-24.2614659775
  0
LINE
  5
2B5
100
AcDbEntity
  8
0
100
AcDbLine
 62
7
  6
CONTINUOUS
 10
8.653424
 20
-24.2073094622
 11
8.653424
 21
-24.078402
  0
LINE
  5
2B6
100
AcDbEntity
  8
0
100
AcDbLine
 62
7
  6
CONTINUOUS
 10
8.6599363541
 20
-28.6311546572
 11
8.6599363541
 21
-28.315356915
  0
LINE
  5
2B7
100
AcDbEntity
  8
0
100
AcDbLine
 62
7
  6
CONTINUOUS
 10
8.75
 20
-18.05
 11
8.75
 21
-18.075
  0
LINE
  5
2B8
100
AcDbEntity
  8
0
100
AcDbLine
 62
7
  6
CONTINUOUS
 10
8.8178345212
 20
-28.315356915
 11
8.8178345212
 21
-28.6311546572
  0
LINE
  5
2B9
100
AcDbEntity
  8
0
100
AcDbLine
 62
7
  6
CONTINUOUS
 10
8.896784
 20
-28.710104
 11
8.896784
 21
-28.28904
  0
LINE
  5
2BA
100
AcDbEntity
  8
0
100
AcDbLine
 62
7
  6
CONTINUOUS
 10
9.1008035127
 20
-25.5258092535
 11
9.1008035127
 21
-25.7889742733
  0
LINE
  5
2BB
100
AcDbEntity
  8
0
100
AcDbLine
 62
7
  6
CONTINUOUS
 10
9.1534369391
 20
-25.736340847
 11
9.1534369391
 21
-25.5784412719
  0
LINE
  5
2BC
100
AcDbEntity
  8
0
100
AcDbLine
 62
7
  6
CONTINUOUS
 10
9.20607
 20
-23.999453
 11
9.20607
 21
-24.132571
  0
LINE
  5
2BD
100
AcDbEntity
  8
0
100
AcDbLine
 62
7
  6
CONTINUOUS
 10
9.20607
 20
-24.185233
 11
9.20607
 21
-24.31525
  0
LINE
  5
2BE
100
AcDbEntity
  8
0
100
AcDbLine
 62
7
  6
CONTINUOUS
 10
9.258703
 20
-24.262618
 11
9.258703
 21
-24.1839564646
  0
LINE
  5
2BF
100
AcDbEntity
  8
0
100
AcDbLine
 62
7
  6
CONTINUOUS
 10
9.258703
 20
-24.1313172091
 11
9.258703
 21
-24.052086
  0
LINE
  5
2C0
100
AcDbEntity
  8
0
100
AcDbLine
 62
7
  6
CONTINUOUS
 10
10.0135276753
 20
-18.075
 11
10.0130912987
 21
-18.05
  0
LINE
  5
2C1
100
AcDbEntity
  8
0
100
AcDbLine
 62
250
  6
CONTINUOUS
 10
13.0018112992
 20
-10.5249984071
 11
13.0018179676
 21
-10.5499995151
  0
LINE
  5
2C2
100
AcDbEntity
  8
0
100
AcDbLine
 62
7
  6
CONTINUOUS
 10
9.863982
 20
-24.052086
 11
9.863982
 21
-24.189583
  0
LINE
  5
2C3
100
AcDbEntity
  8
0
100
AcDbLine
 62
7
  6
CONTINUOUS
 10
9.863982
 20
-24.243379
 11
9.863982
 21
-24.262618
  0
LINE
  5
2C4
100
AcDbEntity
  8
0
100
AcDbLine
 62
7
  6
CONTINUOUS
 10
9.916615
 20
-24.31525
 11
9.916615
 21
-24.2551607592
  0
LINE
  5
2C5
100
AcDbEntity
  8
0
100
AcDbLine
 62
7
  6
CONTINUOUS
 10
9.916615
 20
-24.2011304305
 11
9.916615
 21
-23.999453
  0
LINE
  5
2C6
100
AcDbEntity
  8
0
100
AcDbLine
 62
7
  6
CONTINUOUS
 10
9.9692476558
 20
-25.5784412719
 11
9.9692476558
 21
-25.736340847
  0
LINE
  5
2C7
100
AcDbEntity
  8
0
100
AcDbLine
 62
7
  6
CONTINUOUS
 10
10.0218810822
 20
-25.7889742733
 11
10.0218810822
 21
-25.5258092535
  0
LINE
  5
2C8
100
AcDbEntity
  8
0
100
AcDbLine
 62
7
  6
CONTINUOUS
 10
10.3639951856
 20
-24.9468464915
 11
10.3639951856
 21
-25.4896915736
  0
LINE
  5
2C9
100
AcDbEntity
  8
0
100
AcDbLine
 62
7
  6
CONTINUOUS
 10
10.4166286119
 20
-25.4370588512
 11
10.4166286119
 21
-24.9994799178
  0
LINE
  5
2CA
100
AcDbEntity
  8
0
100
AcDbLine
 62
7
  6
CONTINUOUS
 10
10.758742
 20
-24.736315
 11
10.758742
 21
-24.670084
  0
LINE
  5
2CB
100
AcDbEntity
  8
0
100
AcDbLine
 62
7
  6
CONTINUOUS
 10
10.9429579476
 20
-25.0595972068
 11
10.9429579476
 21
-25.4731758272
  0
LINE
  5
2CC
100
AcDbEntity
  8
0
100
AcDbLine
 62
7
  6
CONTINUOUS
 10
10.995591
 20
-25.525809
 11
10.995591
 21
-25.006965
  0
LINE
  5
2CD
100
AcDbEntity
  8
0
100
AcDbLine
 62
7
  6
CONTINUOUS
 10
11.5606313439
 20
-31.0
 11
11.5606313439
 21
-29.9440509915
  0
LINE
  5
2CE
100
AcDbEntity
  8
0
100
AcDbLine
 62
250
  6
CONTINUOUS
 10
13.0
 20
-10.375
 11
13.0
 21
-10.525
  0
LINE
  5
2CF
100
AcDbEntity
  8
0
100
AcDbLine
 62
250
  6
CONTINUOUS
 10
13.0
 20
-18.225
 11
13.0
 21
-18.075
  0
LINE
  5
2D0
100
AcDbEntity
  8
RACCORDO
100
AcDbLine
 62
250
  6
CONTINUOUS
 10
13.0
 20
-10.6986910197
 11
13.0
 21
-10.55
  0
LINE
  5
2D1
100
AcDbEntity
  8
RACCORDO
100
AcDbLine
 62
250
  6
CONTINUOUS
 10
13.0
 20
-17.9013089803
 11
12.9999999993
 21
-18.05
  0
LINE
  5
2D2
100
AcDbEntity
  8
0
100
AcDbLine
 62
7
  6
CONTINUOUS
 10
10.5179096091
 20
-24.9994799178
 11
10.4856665581
 21
-25.3680202011
  0
LINE
  5
2D3
100
AcDbEntity
  8
0
100
AcDbLine
 62
7
  6
CONTINUOUS
 10
10.4713936473
 20
-25.5311615071
 11
10.3178875241
 21
-27.285738347
  0
LINE
  5
2D4
100
AcDbEntity
  8
0
100
AcDbLine
 62
7
  6
CONTINUOUS
 10
10.305912
 20
-27.422631
 11
10.272551
 21
-27.803937
  0
LINE
  5
2D5
100
AcDbEntity
  8
0
100
AcDbLine
 62
7
  6
CONTINUOUS
 10
10.5409342252
 20
-24.736314898
 11
10.5225142507
 21
-24.9468464915
  0
LINE
  5
2D6
100
AcDbEntity
  8
0
100
AcDbLine
 62
7
  6
CONTINUOUS
 10
10.324722055
 20
-27.8115303708
 11
10.354495
 21
-27.471214
  0
LINE
  5
2D7
100
AcDbEntity
  8
0
100
AcDbLine
 62
7
  6
CONTINUOUS
 10
10.366472
 20
-27.334323
 11
10.524696
 21
-25.525809
  0
LINE
  5
2D8
100
AcDbEntity
  8
0
100
AcDbLine
 62
7
  6
CONTINUOUS
 10
10.5435663541
 20
-25.310121109
 11
10.5707443697
 21
-24.9994799178
  0
LINE
  5
2D9
100
AcDbEntity
  8
0
100
AcDbLine
 62
7
  6
CONTINUOUS
 10
10.575348
 20
-24.946846
 11
10.593768
 21
-24.736315
  0
LINE
  5
2DA
100
AcDbEntity
  8
0
100
AcDbLine
 62
7
  6
CONTINUOUS
 10
14.85
 20
-11.010393205
 11
14.85
 21
-11.0389643072
  0
LINE
  5
2DB
100
AcDbEntity
  8
0
100
AcDbLine
 62
7
  6
CONTINUOUS
 10
18.3
 20
-6.3
 11
18.3
 21
-6.0
  0
LINE
  5
2DC
100
AcDbEntity
  8
0
100
AcDbLine
 62
250
  6
CONTINUOUS
 10
16.6656523917
 20
-13.4032750274
 11
16.6638376869
 21
-13.5072394001
  0
LINE
  5
2DD
100
AcDbEntity
  8
0
100
AcDbLine
 62
250
  6
CONTINUOUS
 10
19.0669617417
 20
-33.1
 11
19.0669617417
 21
-6.3
  0
LINE
  5
2DE
100
AcDbEntity
  8
0
100
AcDbLine
 62
250
  6
CONTINUOUS
 10
20.0613170254
 20
-33.1
 11
20.0613170254
 21
-6.8
  0
LINE
  5
2DF
100
AcDbEntity
  8
0
100
AcDbLine
 62
7
  6
CONTINUOUS
 10
20.4
 20
-6.8
 11
20.4
 21
-33.1
  0
LINE
  5
2E0
100
AcDbEntity
  8
0
100
AcDbLine
 62
7
  6
CONTINUOUS
 10
-0.7728790635
 20
-41.1770221132
 11
-0.9646758237
 21
-41.5187406859
  0
LINE
  5
2E1
100
AcDbEntity
  8
0
100
AcDbLine
 62
7
  6
CONTINUOUS
 10
7.074435
 20
-24.042285
 11
7.0
 21
-24.116719
  0
LINE
  5
2E2
100
AcDbEntity
  8
0
100
AcDbLine
 62
7
  6
CONTINUOUS
 10
1.72636
 20
-42.72078
 11
1.508932
 21
-43.029018
  0
LINE
  5
2E3
100
AcDbEntity
  8
0
100
AcDbLine
 62
7
  6
CONTINUOUS
 10
10.4856665581
 20
-25.3680202011
 11
10.4166286119
 21
-25.4370588512
  0
LINE
  5
2E4
100
AcDbEntity
  8
0
100
AcDbLine
 62
7
  6
CONTINUOUS
 10
10.3639951856
 20
-25.4896915736
 11
9.4429183201
 21
-26.410769143
  0
LINE
  5
2E5
100
AcDbEntity
  8
0
100
AcDbLine
 62
7
  6
CONTINUOUS
 10
11.811402
 20
-24.042285
 11
10.906841
 21
-24.946846
  0
LINE
  5
2E6
100
AcDbEntity
  8
0
100
AcDbLine
 62
7
  6
CONTINUOUS
 10
10.8542075453
 20
-24.9994799178
 11
10.5435663541
 21
-25.310121109
  0
LINE
  5
2E7
100
AcDbEntity
  8
0
100
AcDbLine
 62
7
  6
CONTINUOUS
 10
8.499222
 20
-27.354465
 11
7.0
 21
-28.853687
  0
LINE
  5
2E8
100
AcDbEntity
  8
0
100
AcDbLine
 62
7
  6
CONTINUOUS
 10
9.3684844745
 20
-26.4852029886
 11
8.5478051289
 21
-27.3058816303
  0
LINE
  5
2E9
100
AcDbEntity
  8
0
100
AcDbLine
 62
7
  6
CONTINUOUS
 10
8.559782
 20
-27.442773
 11
9.442918
 21
-26.559637
  0
LINE
  5
2EA
100
AcDbEntity
  8
0
100
AcDbLine
 62
7
  6
CONTINUOUS
 10
9.5173521657
 20
-26.4852029886
 11
10.4713936473
 21
-25.5311615071
  0
LINE
  5
2EB
100
AcDbEntity
  8
0
100
AcDbLine
 62
7
  6
CONTINUOUS
 10
10.5293793272
 20
-25.4731758272
 11
10.9429579476
 21
-25.0595972068
  0
LINE
  5
2EC
100
AcDbEntity
  8
0
100
AcDbLine
 62
7
  6
CONTINUOUS
 10
10.995591
 20
-25.006965
 11
11.885837
 21
-24.116719
  0
LINE
  5
2ED
100
AcDbEntity
  8
0
100
AcDbLine
 62
7
  6
CONTINUOUS
 10
7.074435
 20
-28.928121
 11
8.511199
 21
-27.491358
  0
LINE
  5
2EE
100
AcDbEntity
  8
0
100
AcDbLine
 62
7
  6
CONTINUOUS
 10
11.811402
 20
-28.928121
 11
11.885837
 21
-28.853687
  0
LINE
  5
2EF
100
AcDbEntity
  8
0
100
AcDbLine
 62
7
  6
CONTINUOUS
 10
0.224704
 20
-39.391613
 11
1.3937793924
 21
-38.4064256693
  0
LINE
  5
2F0
100
AcDbEntity
  8
0
100
AcDbLine
 62
7
  6
CONTINUOUS
 10
1.3395358997
 20
-38.9638330845
 11
0.224704
 21
-39.903309
  0
LINE
  5
2F1
100
AcDbEntity
  8
0
100
AcDbLine
 62
250
  6
CONTINUOUS
 10
-13.7206654678
 20
-58.0959669888
 11
-14.0421791447
 21
-58.2695674305
  0
ARC
  5
2F2
100
AcDbEntity
  8
0
100
AcDbCircle
 62
7
  6
CONTINUOUS
 10
-9.641973565
 20
-55.895079937
 40
5.0
100
AcDbArc
 50
208.3526763886
 51
265.1904895677
  0
ARC
  5
2F3
100
AcDbEntity
  8
0
100
AcDbCircle
 62
250
  6
CONTINUOUS
 10
-9.6534487634
 20
-55.9117552276
 40
4.6166288764
100
AcDbArc
 50
208.2370710904
 51
265.3146177392
  0
ARC
  5
2F4
100
AcDbEntity
  8
0
100
AcDbCircle
 62
7
  6
CONTINUOUS
 10
-6.1999999802
 20
-61.2899266656
 40
0.1499999995
100
AcDbArc
 50
0.0000019194
 51
87.0421081789
  0
ARC
  5
2F5
100
AcDbEntity
  8
0
100
AcDbCircle
 62
7
  6
CONTINUOUS
 10
-5.45
 20
-62.95
 40
0.15
100
AcDbArc
 50
0.0
 51
77.846802531
  0
ARC
  5
2F6
100
AcDbEntity
  8
0
100
AcDbCircle
 62
7
  6
CONTINUOUS
 10
-5.25
 20
-62.0212912189
 40
0.8
100
AcDbArc
 50
180.0
 51
257.846802531
  0
ARC
  5
2F7
100
AcDbEntity
  8
0
100
AcDbCircle
 62
7
  6
CONTINUOUS
 10
-4.4992737916
 20
-63.4993346735
 40
0.8006974175
100
AcDbArc
 50
179.9690489637
 51
269.9619709706
  0
ARC
  5
2F8
100
AcDbEntity
  8
0
100
AcDbCircle
 62
7
  6
CONTINUOUS
 10
-0.079357
 20
-44.746093
 40
2.3390187052
100
AcDbArc
 50
47.2312712626
 51
84.2012841963
  0
ARC
  5
2F9
100
AcDbEntity
  8
0
100
AcDbCircle
 62
7
  6
CONTINUOUS
 10
-32.6
 20
-33.1
 40
53.0
100
AcDbArc
 50
331.6473236114
 51
360.0
  0
ARC
  5
2FA
100
AcDbEntity
  8
0
100
AcDbCircle
 62
250
  6
CONTINUOUS
 10
-32.6
 20
-33.1
 40
52.6613170254
100
AcDbArc
 50
355.3330316276
 51
360.0
  0
ARC
  5
2FB
100
AcDbEntity
  8
0
100
AcDbCircle
 62
250
  6
CONTINUOUS
 10
-32.0959293918
 20
-33.0947239595
 40
52.1593674874
100
AcDbArc
 50
344.7405682872
 51
355.2822032883
  0
ARC
  5
2FC
100
AcDbEntity
  8
0
100
AcDbCircle
 62
250
  6
CONTINUOUS
 10
-32.6
 20
-33.1
 40
51.6669617417
100
AcDbArc
 50
355.3373166509
 51
360.0
  0
ARC
  5
2FD
100
AcDbEntity
  8
0
100
AcDbCircle
 62
7
  6
CONTINUOUS
 10
-0.0182316958
 20
-34.4349554639
 40
15.4497106997
100
AcDbArc
 50
190.6869758244
 51
198.6476973089
  0
ARC
  5
2FE
100
AcDbEntity
  8
0
100
AcDbCircle
 62
250
  6
CONTINUOUS
 10
-13.0
 20
-14.3
 40
3.925
100
AcDbArc
 50
90.0
 51
270.0
  0
ARC
  5
2FF
100
AcDbEntity
  8
0
100
AcDbCircle
 62
7
  6
CONTINUOUS
 10
-13.0
 20
-14.3
 40
3.775
100
AcDbArc
 50
90.0
 51
270.0
  0
ARC
  5
300
100
AcDbEntity
  8
RACCORDO
100
AcDbCircle
 62
7
  6
CONTINUOUS
 10
-13.0
 20
-14.3
 40
3.75
100
AcDbArc
 50
90.0
 51
270.0
  0
ARC
  5
301
100
AcDbEntity
  8
RACCORDO
100
AcDbCircle
 62
250
  6
CONTINUOUS
 10
-12.9999757944
 20
-14.2987152165
 40
3.6000241969
100
AcDbArc
 50
90.0003852415
 51
180.0204478278
  0
ARC
  5
302
100
AcDbEntity
  8
RACCORDO
100
AcDbCircle
 62
250
  6
CONTINUOUS
 10
-12.9999759989
 20
-14.3012849879
 40
3.6000239925
100
AcDbArc
 50
179.9795489179
 51
269.9996180127
  0
ARC
  5
303
100
AcDbEntity
  8
0
100
AcDbCircle
 62
7
  6
CONTINUOUS
 10
-10.01959
 20
-28.000012
 40
2.5500000352
100
AcDbArc
 50
84.2608296022
 51
275.7391703978
  0
ARC
  5
304
100
AcDbEntity
  8
0
100
AcDbCircle
 62
7
  6
CONTINUOUS
 10
-5.68459
 20
-28.000012
 40
2.5500000352
100
AcDbArc
 50
84.2608296022
 51
275.7391703978
  0
CIRCLE
  5
305
100
AcDbEntity
  8
0
100
AcDbCircle
 62
7
  6
CONTINUOUS
 10
-13.0
 20
-14.3
 40
2.5
  0
ARC
  5
306
100
AcDbEntity
  8
0
100
AcDbCircle
 62
7
  6
CONTINUOUS
 10
-5.68459
 20
-28.000012
 40
1.7850001745
100
AcDbArc
 50
81.7867901066
 51
167.6263761124
  0
ARC
  5
307
100
AcDbEntity
  8
0
100
AcDbCircle
 62
7
  6
CONTINUOUS
 10
-10.01959
 20
-28.000012
 40
1.7850001745
100
AcDbArc
 50
81.7867901066
 51
278.2132098934
  0
ARC
  5
308
100
AcDbEntity
  8
0
100
AcDbCircle
 62
7
  6
CONTINUOUS
 10
-5.68459
 20
-28.000012
 40
1.7849997292
100
AcDbArc
 50
192.373627023
 51
278.2132119563
  0
ARC
  5
309
100
AcDbEntity
  8
0
100
AcDbCircle
 62
7
  6
CONTINUOUS
 10
-19.9
 20
-6.8
 40
0.5
100
AcDbArc
 50
90.0
 51
180.0
  0
ARC
  5
30A
100
AcDbEntity
  8
0
100
AcDbCircle
 62
250
  6
CONTINUOUS
 10
-19.5640662013
 20
-6.7950198504
 40
0.4950198558
100
AcDbArc
 50
90.008470439
 51
120.1540866283
  0
ARC
  5
30B
100
AcDbEntity
  8
0
100
AcDbCircle
 62
7
  6
CONTINUOUS
 10
-16.5130456003
 20
-15.05
 40
0.3
100
AcDbArc
 50
131.4247275518
 51
137.5052430887
  0
ARC
  5
30C
100
AcDbEntity
  8
0
100
AcDbCircle
 62
7
  6
CONTINUOUS
 10
-16.5130456003
 20
-13.55
 40
0.3
100
AcDbArc
 50
222.4947569146
 51
228.575362058
  0
ARC
  5
30D
100
AcDbEntity
  8
0
100
AcDbCircle
 62
7
  6
CONTINUOUS
 10
-8.5
 20
-10.65
 40
0.25
100
AcDbArc
 50
150.0
 51
156.4094275498
  0
ARC
  5
30E
100
AcDbEntity
  8
0
100
AcDbCircle
 62
7
  6
CONTINUOUS
 10
-4.5
 20
-10.65
 40
0.25
100
AcDbArc
 50
23.5905724502
 51
30.0
  0
ARC
  5
30F
100
AcDbEntity
  8
0
100
AcDbCircle
 62
7
  6
CONTINUOUS
 10
9.641973565
 20
-55.895079937
 40
5.0
100
AcDbArc
 50
274.8095104323
 51
331.6473236114
  0
ARC
  5
310
100
AcDbEntity
  8
0
100
AcDbCircle
 62
250
  6
CONTINUOUS
 10
9.6534487579
 20
-55.911755233
 40
4.6166288744
100
AcDbArc
 50
274.6853810333
 51
331.7629083926
  0
ARC
  5
311
100
AcDbEntity
  8
0
100
AcDbCircle
 62
7
  6
CONTINUOUS
 10
0.0
 20
-39.8
 40
2.6237424326
100
AcDbArc
 50
292.0885393584
 51
273.4297246723
  0
ARC
  5
312
100
AcDbEntity
  8
0
100
AcDbCircle
 62
7
  6
CONTINUOUS
 10
0.104722
 20
-44.367224
 40
2.3109495123
100
AcDbArc
 50
45.4348886633
 51
67.5658613447
  0
CIRCLE
  5
313
100
AcDbEntity
  8
0
100
AcDbCircle
 62
7
  6
CONTINUOUS
 10
0.0
 20
-39.8
 40
2.20376
  0
ARC
  5
314
100
AcDbEntity
  8
0
100
AcDbCircle
 62
7
  6
CONTINUOUS
 10
0.0
 20
-39.8
 40
1.9709567246
100
AcDbArc
 50
299.3041457634
 51
44.9957848293
  0
ARC
  5
315
100
AcDbEntity
  8
0
100
AcDbCircle
 62
7
  6
CONTINUOUS
 10
0.0
 20
-39.8
 40
1.9709563643
100
AcDbArc
 50
134.9002846268
 51
240.6958542366
  0
ARC
  5
316
100
AcDbEntity
  8
0
100
AcDbCircle
 62
7
  6
CONTINUOUS
 10
0.0
 20
-39.8
 40
1.5790921275
100
AcDbArc
 50
148.0267086216
 51
240.6958772397
  0
ARC
  5
317
100
AcDbEntity
  8
0
100
AcDbCircle
 62
7
  6
CONTINUOUS
 10
0.0
 20
-39.8
 40
1.5790919977
100
AcDbArc
 50
299.3041227603
 51
31.9732907039
  0
ARC
  5
318
100
AcDbEntity
  8
0
100
AcDbCircle
 62
7
  6
CONTINUOUS
 10
4.4992737676
 20
-63.4993346932
 40
0.8006975758
100
AcDbArc
 50
270.0380307531
 51
0.0309524425
  0
ARC
  5
319
100
AcDbEntity
  8
0
100
AcDbCircle
 62
7
  6
CONTINUOUS
 10
5.25
 20
-62.0212912189
 40
0.8
100
AcDbArc
 50
282.153197469
 51
360.0
  0
ARC
  5
31A
100
AcDbEntity
  8
0
100
AcDbCircle
 62
7
  6
CONTINUOUS
 10
5.45
 20
-62.95
 40
0.15
100
AcDbArc
 50
102.153197469
 51
180.0
  0
ARC
  5
31B
100
AcDbEntity
  8
0
100
AcDbCircle
 62
7
  6
CONTINUOUS
 10
6.1999999791
 20
-61.2899266655
 40
0.1499999995
100
AcDbArc
 50
92.9578913736
 51
179.9999980949
  0
ARC
  5
31C
100
AcDbEntity
  8
0
100
AcDbCircle
 62
7
  6
CONTINUOUS
 10
0.0182315928
 20
-34.4349555189
 40
15.4497107398
100
AcDbArc
 50
341.3523031718
 51
349.3129848951
  0
ARC
  5
31D
100
AcDbEntity
  8
0
100
AcDbCircle
 62
7
  6
CONTINUOUS
 10
9.298177
 20
-26.89427
 40
2.7632347531
100
AcDbArc
 50
66.1507637753
 51
77.0671216482
  0
ARC
  5
31E
100
AcDbEntity
  8
0
100
AcDbCircle
 62
7
  6
CONTINUOUS
 10
9.298178
 20
-26.894266
 40
2.7632314626
100
AcDbArc
 50
104.6184497817
 51
108.0305369434
  0
ARC
  5
31F
100
AcDbEntity
  8
0
100
AcDbCircle
 62
7
  6
CONTINUOUS
 10
9.298178
 20
-26.894266
 40
2.7632310843
100
AcDbArc
 50
109.1820946666
 51
112.6110343049
  0
ARC
  5
320
100
AcDbEntity
  8
0
100
AcDbCircle
 62
7
  6
CONTINUOUS
 10
9.298178
 20
-26.894266
 40
2.7632307716
100
AcDbArc
 50
78.184446852
 51
90.8185446753
  0
ARC
  5
321
100
AcDbEntity
  8
0
100
AcDbCircle
 62
7
  6
CONTINUOUS
 10
9.298178
 20
-26.894266
 40
2.7632305652
100
AcDbArc
 50
91.9102196963
 51
103.4934031171
  0
ARC
  5
322
100
AcDbEntity
  8
0
100
AcDbCircle
 62
7
  6
CONTINUOUS
 10
9.298178
 20
-26.894267
 40
2.7105988403
100
AcDbArc
 50
66.0805617868
 51
76.8115198353
  0
ARC
  5
323
100
AcDbEntity
  8
0
100
AcDbCircle
 62
7
  6
CONTINUOUS
 10
9.298178
 20
-26.894266
 40
2.7105983986
100
AcDbArc
 50
91.9473249207
 51
103.7605109732
  0
ARC
  5
324
100
AcDbEntity
  8
0
100
AcDbCircle
 62
7
  6
CONTINUOUS
 10
9.298178
 20
-26.894266
 40
2.7105977531
100
AcDbArc
 50
109.569593574
 51
111.7987290567
  0
ARC
  5
325
100
AcDbEntity
  8
0
100
AcDbCircle
 62
7
  6
CONTINUOUS
 10
9.298178
 20
-26.894266
 40
2.7105973164
100
AcDbArc
 50
104.9088268946
 51
108.3930624951
  0
ARC
  5
326
100
AcDbEntity
  8
0
100
AcDbCircle
 62
7
  6
CONTINUOUS
 10
9.298178
 20
-26.894266
 40
2.710596992
100
AcDbArc
 50
77.951606784
 51
90.8344401099
  0
ARC
  5
327
100
AcDbEntity
  8
0
100
AcDbCircle
 62
7
  6
CONTINUOUS
 10
10.232413
 20
-28.262723
 40
0.4605385438
100
AcDbArc
 50
183.2758927354
 51
78.4374736907
  0
ARC
  5
328
100
AcDbEntity
  8
0
100
AcDbCircle
 62
7
  6
CONTINUOUS
 10
10.232413
 20
-28.262723
 40
0.460538438
100
AcDbArc
 50
85.0000711379
 51
176.7242311253
  0
CIRCLE
  5
329
100
AcDbEntity
  8
0
100
AcDbCircle
 62
7
  6
CONTINUOUS
 10
10.232413
 20
-28.262723
 40
0.263165
  0
ARC
  5
32A
100
AcDbEntity
  8
0
100
AcDbCircle
 62
7
  6
CONTINUOUS
 10
10.62716
 20
-24.473149
 40
0.2368485105
100
AcDbArc
 50
303.748841422
 51
153.3683120519
  0
ARC
  5
32B
100
AcDbEntity
  8
0
100
AcDbCircle
 62
7
  6
CONTINUOUS
 10
10.62716
 20
-24.473149
 40
0.2368482435
100
AcDbArc
 50
166.1529728172
 51
192.8398506624
  0
CIRCLE
  5
32C
100
AcDbEntity
  8
0
100
AcDbCircle
 62
7
  6
CONTINUOUS
 10
10.232413
 20
-28.262723
 40
0.157898
  0
ARC
  5
32D
100
AcDbEntity
  8
0
100
AcDbCircle
 62
250
  6
CONTINUOUS
 10
13.0
 20
-14.3
 40
3.925
100
AcDbArc
 50
270.0
 51
90.0
  0
ARC
  5
32E
100
AcDbEntity
  8
0
100
AcDbCircle
 62
7
  6
CONTINUOUS
 10
13.0
 20
-14.3
 40
3.775
100
AcDbArc
 50
270.0
 51
90.0
  0
ARC
  5
32F
100
AcDbEntity
  8
RACCORDO
100
AcDbCircle
 62
7
  6
CONTINUOUS
 10
13.0
 20
-14.3
 40
3.75
100
AcDbArc
 50
270.0
 51
90.0
  0
ARC
  5
330
100
AcDbEntity
  8
RACCORDO
100
AcDbCircle
 62
250
  6
CONTINUOUS
 10
12.9999757769
 20
-14.301284766
 40
3.6000242144
100
AcDbArc
 50
270.0003855206
 51
0.0204475488
  0
ARC
  5
331
100
AcDbEntity
  8
RACCORDO
100
AcDbCircle
 62
250
  6
CONTINUOUS
 10
12.9999759865
 20
-14.2987150245
 40
3.6000240049
100
AcDbArc
 50
359.9795491154
 51
89.9996178153
  0
CIRCLE
  5
332
100
AcDbEntity
  8
0
100
AcDbCircle
 62
7
  6
CONTINUOUS
 10
13.0
 20
-14.3
 40
2.5
  0
CIRCLE
  5
333
100
AcDbEntity
  8
0
100
AcDbCircle
 62
7
  6
CONTINUOUS
 10
0.0
 20
-14.3
 40
2.5
  0
ARC
  5
334
100
AcDbEntity
  8
0
100
AcDbCircle
 62
7
  6
CONTINUOUS
 10
4.5
 20
-10.65
 40
0.25
100
AcDbArc
 50
150.0
 51
156.4094275498
  0
ARC
  5
335
100
AcDbEntity
  8
0
100
AcDbCircle
 62
7
  6
CONTINUOUS
 10
8.5
 20
-10.65
 40
0.25
100
AcDbArc
 50
23.5905724502
 51
30.0
  0
ARC
  5
336
100
AcDbEntity
  8
0
100
AcDbCircle
 62
7
  6
CONTINUOUS
 10
32.6
 20
-33.1
 40
53.0
100
AcDbArc
 50
180.0
 51
208.3526763886
  0
ARC
  5
337
100
AcDbEntity
  8
0
100
AcDbCircle
 62
250
  6
CONTINUOUS
 10
32.6
 20
-33.1
 40
52.6613170254
100
AcDbArc
 50
180.0
 51
184.6669683724
  0
ARC
  5
338
100
AcDbEntity
  8
0
100
AcDbCircle
 62
250
  6
CONTINUOUS
 10
32.0962563806
 20
-33.0946663695
 40
52.159698105
100
AcDbArc
 50
184.7178302156
 51
195.2593982088
  0
ARC
  5
339
100
AcDbEntity
  8
0
100
AcDbCircle
 62
250
  6
CONTINUOUS
 10
32.6
 20
-33.1
 40
51.6669617417
100
AcDbArc
 50
180.0
 51
184.6626835591
  0
ARC
  5
33A
100
AcDbEntity
  8
0
100
AcDbCircle
 62
7
  6
CONTINUOUS
 10
19.9
 20
-6.8
 40
0.5
100
AcDbArc
 50
0.0
 51
90.0
  0
ARC
  5
33B
100
AcDbEntity
  8
0
100
AcDbCircle
 62
250
  6
CONTINUOUS
 10
19.5640662012
 20
-6.795019851
 40
0.4950198564
100
AcDbArc
 50
59.8459051877
 51
89.991529547
  0
ARC
  5
33C
100
AcDbEntity
  8
0
100
AcDbCircle
 62
7
  6
CONTINUOUS
 10
16.5130456003
 20
-13.55
 40
0.3
100
AcDbArc
 50
311.4247199898
 51
317.5052430887
  0
ARC
  5
33D
100
AcDbEntity
  8
0
100
AcDbCircle
 62
7
  6
CONTINUOUS
 10
16.5130456003
 20
-15.05
 40
0.3
100
AcDbArc
 50
42.4947569146
 51
48.5753546134
  0
ARC
  5
33E
100
AcDbEntity
  8
0
100
AcDbCircle
 62
250
  6
CONTINUOUS
 10
0.0416866657
 20
60.3842618038
 40
121.3091203155
100
AcDbArc
 50
269.9803082183
 51
274.7232100442
  0
ARC
  5
33F
100
AcDbEntity
  8
0
100
AcDbCircle
 62
250
  6
CONTINUOUS
 10
-0.0416867275
 20
60.3842566499
 40
121.3091152294
100
AcDbArc
 50
265.276789735
 51
270.0196864844
  0
ARC
  5
340
100
AcDbEntity
  8
0
100
AcDbCircle
 62
7
  6
CONTINUOUS
 10
0.0
 20
58.7
 40
120.0
100
AcDbArc
 50
272.9367440317
 51
274.8095104323
  0
ARC
  5
341
100
AcDbEntity
  8
0
100
AcDbCircle
 62
7
  6
CONTINUOUS
 10
0.0
 20
58.7
 40
120.0
100
AcDbArc
 50
265.1904895677
 51
267.0632560508
  0
ARC
  5
342
100
AcDbEntity
  8
0
100
AcDbCircle
 62
250
  6
CONTINUOUS
 10
334.0598998032
 20
-52.631495282
 40
334.0602401492
100
AcDbArc
 50
179.9182127413
 51
180.0817873752
  0
LINE
  5
343
100
AcDbEntity
  8
0
100
AcDbLine
 62
250
  6
CONTINUOUS
 10
16.6734831384
 20
-13.5541061674
 11
16.6998335889
 21
-13.5545291104
  0
SPLINE
  5
344
100
AcDbEntity
  8
RACCORDO
100
AcDbSpline
 62
250
  6
CONTINUOUS
 70
0
 71
3
 72
18
 73
14
 74
0
 42
0.0000001
 43
0.0000001
 44
0.0000000001
 40
0.0
 40
0.0
 40
0.0
 40
0.0
 40
0.194659583
 40
0.3826292175
 40
0.5555608538
 40
0.7070093829
 40
0.8312790009
 40
0.881766524
 40
0.9237679721
 40
0.9568028814
 40
0.9806315908
 40
0.9950781277
 40
1.0
 40
1.0
 40
1.0
 40
1.0
 10
16.599999762
 20
-14.3
 30
0.0
 10
16.6097339076
 20
-14.3000035394
 30
0.0
 10
16.6288678028
 20
-14.3000268372
 30
0.0
 10
16.6566484591
 20
-14.3001089102
 30
0.0
 10
16.6822707029
 20
-14.3002336642
 30
0.0
 10
16.7046993136
 20
-14.300401821
 30
0.0
 10
16.721025369
 20
-14.3005630279
 30
0.0
 10
16.7318401114
 20
-14.3007375958
 30
0.0
 10
16.7381666552
 20
-14.3008181193
 30
0.0
 10
16.7429762664
 20
-14.3010268798
 30
0.0
 10
16.7468449637
 20
-14.3009364664
 30
0.0
 10
16.7484611456
 20
-14.3014147179
 30
0.0
 10
16.7499949151
 20
-14.3011173967
 30
0.0
 10
16.7499948256
 20
-14.3013635198
 30
0.0
  0
SPLINE
  5
345
100
AcDbEntity
  8
RACCORDO
100
AcDbSpline
 62
250
  6
CONTINUOUS
 70
0
 71
3
 72
18
 73
14
 74
0
 42
0.0000001
 43
0.0000001
 44
0.0000000001
 40
0.0
 40
0.0
 40
0.0
 40
0.0
 40
0.1946594944
 40
0.3826290911
 40
0.5555607268
 40
0.7070092792
 40
0.831278932
 40
0.8817664732
 40
0.9237679379
 40
0.9568028612
 40
0.9806315812
 40
0.9950781249
 40
1.0
 40
1.0
 40
1.0
 40
1.0
 10
-16.599999762
 20
-14.3
 30
0.0
 10
-16.6097339189
 20
-14.2999964611
 30
0.0
 10
-16.6288678388
 20
-14.299973164
 30
0.0
 10
-16.6566485338
 20
-14.2998910919
 30
0.0
 10
-16.6822708182
 20
-14.2997663384
 30
0.0
 10
-16.7046994682
 20
-14.2995981818
 30
0.0
 10
-16.7210255538
 20
-14.2994369748
 30
0.0
 10
-16.7318403172
 20
-14.2992624064
 30
0.0
 10
-16.7381668737
 20
-14.2991818827
 30
0.0
 10
-16.7429764947
 20
-14.2989731217
 30
0.0
 10
-16.7468451999
 20
-14.2990635349
 30
0.0
 10
-16.7484613852
 20
-14.2985852826
 30
0.0
 10
-16.7499951579
 20
-14.2988826038
 30
0.0
 10
-16.7499950684
 20
-14.2986364801
 30
0.0
  0
LINE
  5
346
100
AcDbEntity
  8
0
100
AcDbLine
 62
7
  6
CONTINUOUS
 10
0.5435955828
 20
-18.0750001508
 11
0.544461786
 21
-18.0500003548
  0
LINE
  5
347
100
AcDbEntity
  8
0
100
AcDbLine
 62
7
  6
CONTINUOUS
 10
-0.5444617859
 20
-18.050000348
 11
-0.5435955825
 21
-18.0750001473
  0
LINE
  5
348
100
AcDbEntity
  8
0
100
AcDbLine
 62
250
  6
CONTINUOUS
 10
-16.6734832045
 20
-15.0458938315
 11
-16.6998335889
 21
-15.0454708896
  0
SPLINE
  5
349
100
AcDbEntity
  8
0
100
AcDbSpline
 62
7
  6
CONTINUOUS
 70
0
 71
3
 72
9
 73
5
 74
0
 42
0.0000001
 43
0.0000001
 44
0.0000000001
 40
0.0
 40
0.0
 40
0.0
 40
0.0
 40
0.2203010475
 40
1.0
 40
1.0
 40
1.0
 40
1.0
 10
-6.1480209901
 20
-61.1424041726
 30
0.0
 10
-6.1450899717
 20
-61.1425545086
 30
0.0
 10
-6.1317818658
 20
-61.1431687302
 30
0.0
 10
-6.118464282
 20
-61.1435591575
 30
0.0
 10
-6.1080798328
 20
-61.1437991782
 30
0.0
  0
SPLINE
  5
34A
100
AcDbEntity
  8
0
100
AcDbSpline
 62
7
  6
CONTINUOUS
 70
0
 71
3
 72
23
 73
19
 74
0
 42
0.0000001
 43
0.0000001
 44
0.0000000001
 40
0.0
 40
0.0
 40
0.0
 40
0.0
 40
0.0092447412
 40
0.0222795363
 40
0.0592861455
 40
0.1098710985
 40
0.1724609119
 40
0.245117177
 40
0.3256005349
 40
0.4999924097
 40
0.6743854153
 40
0.7548701241
 40
0.827528206
 40
0.890120274
 40
0.9407078471
 40
0.9777173597
 40
0.9907536899
 40
1.0
 40
1.0
 40
1.0
 40
1.0
 10
-6.1080798328
 20
-61.1437991782
 30
0.0
 10
-6.070439556
 20
-61.1446691758
 30
0.0
 10
-5.9796918167
 20
-61.1449299113
 30
0.0
 10
-5.7382572379
 20
-61.142390118
 30
0.0
 10
-5.3285329978
 20
-61.1333156158
 30
0.0
 10
-4.717097087
 20
-61.1180301115
 30
0.0
 10
-3.9605014676
 20
-61.0995383359
 30
0.0
 10
-3.0821105055
 20
-61.0809974775
 30
0.0
 10
-1.7483681243
 20
-61.0594097585
 30
0.0
 10
-0.0001063525
 20
-61.0474317474
 30
0.0
 10
1.7481609395
 20
-61.059407406
 30
0.0
 10
3.0819208497
 20
-61.0809938892
 30
0.0
 10
3.9603339066
 20
-61.0995344623
 30
0.0
 10
4.7169567779
 20
-61.1180265506
 30
0.0
 10
5.3284243551
 20
-61.1333130073
 30
0.0
 10
5.7381773177
 20
-61.1423886053
 30
0.0
 10
5.9796363536
 20
-61.1449296695
 30
0.0
 10
6.0703967288
 20
-61.1446695567
 30
0.0
 10
6.1080434073
 20
-61.1438000148
 30
0.0
  0
SPLINE
  5
34B
100
AcDbEntity
  8
0
100
AcDbSpline
 62
7
  6
CONTINUOUS
 70
0
 71
3
 72
9
 73
5
 74
0
 42
0.0000001
 43
0.0000001
 44
0.0000000001
 40
0.0
 40
0.0
 40
0.0
 40
0.0
 40
0.2796914765
 40
1.0
 40
1.0
 40
1.0
 40
1.0
 10
6.1080434073
 20
-61.1438000148
 30
0.0
 10
6.1117718852
 20
-61.1437138966
 30
0.0
 10
6.1251016213
 20
-61.1433722765
 30
0.0
 10
6.1384289462
 20
-61.1428961614
 30
0.0
 10
6.1480211012
 20
-61.1424041669
 30
0.0
  0
SPLINE
  5
34C
100
AcDbEntity
  8
0
100
AcDbSpline
 62
250
  6
CONTINUOUS
 70
0
 71
3
 72
11
 73
7
 74
0
 42
0.0000001
 43
0.0000001
 44
0.0000000001
 40
0.0
 40
0.0
 40
0.0
 40
0.0
 40
0.2503865219
 40
0.5005905562
 40
0.7504781973
 40
1.0
 40
1.0
 40
1.0
 40
1.0
 10
20.0613170254
 20
-6.8
 30
0.0
 10
20.0613170254
 20
-6.7564954419
 30
0.0
 10
20.0499073498
 20
-6.6690972044
 30
0.0
 10
19.9996817884
 20
-6.547210187
 30
0.0
 10
19.919855824
 20
-6.4424773621
 30
0.0
 10
19.8502188772
 20
-6.3887598947
 30
0.0
 10
19.8127282045
 20
-6.3669872981
 30
0.0
  0
SPLINE
  5
34D
100
AcDbEntity
  8
0
100
AcDbSpline
 62
250
  6
CONTINUOUS
 70
0
 71
3
 72
11
 73
7
 74
0
 42
0.0000001
 43
0.0000001
 44
0.0000000001
 40
0.0
 40
0.0
 40
0.0
 40
0.0
 40
0.2503865209
 40
0.5005905545
 40
0.7504781965
 40
1.0
 40
1.0
 40
1.0
 40
1.0
 10
-20.0613170256
 20
-6.8
 30
0.0
 10
-20.0613170256
 20
-6.7564954362
 30
0.0
 10
-20.0499073468
 20
-6.6690971872
 30
0.0
 10
-19.9996817722
 20
-6.5472101556
 30
0.0
 10
-19.9198557875
 20
-6.4424773232
 30
0.0
 10
-19.8502188242
 20
-6.3887598567
 30
0.0
 10
-19.8127281432
 20
-6.3669872625
 30
0.0
  0
SPLINE
  5
34E
100
AcDbEntity
  8
0
100
AcDbSpline
 62
250
  6
CONTINUOUS
 70
0
 71
3
 72
39
 73
35
 74
0
 42
0.0000001
 43
0.0000001
 44
0.0000000001
 40
0.0
 40
0.0
 40
0.0
 40
0.0
 40
0.0156298181
 40
0.0312594249
 40
0.0468890552
 40
0.0625187793
 40
0.0781486422
 40
0.0937785044
 40
0.1094083951
 40
0.1250382753
 40
0.1562937397
 40
0.1875493134
 40
0.2188056105
 40
0.2500627996
 40
0.3125353008
 40
0.3750146774
 40
0.4375037327
 40
0.4999999481
 40
0.5624961759
 40
0.6249851681
 40
0.6874645922
 40
0.7499370927
 40
0.7811942932
 40
0.8124505837
 40
0.8437061535
 40
0.8749616287
 40
0.8905915111
 40
0.9062214003
 40
0.9218512606
 40
0.9374811136
 40
0.9531108703
 40
0.9687405507
 40
0.9843701807
 40
1.0
 40
1.0
 40
1.0
 40
1.0
 10
-14.6568720725
 20
-39.3749725313
 30
0.0
 10
-14.5802315724
 20
-39.5569531762
 30
0.0
 10
-14.4250760817
 20
-39.9201615905
 30
0.0
 10
-14.1745675893
 20
-40.457098349
 30
0.0
 10
-13.9055905301
 20
-40.9850247964
 30
0.0
 10
-13.617684962
 20
-41.502882354
 30
0.0
 10
-13.3114268103
 20
-42.0101036992
 30
0.0
 10
-12.9871306081
 20
-42.5059837895
 30
0.0
 10
-12.6459307687
 20
-42.9903776553
 30
0.0
 10
-12.1707689239
 20
-43.6213612405
 30
0.0
 10
-11.5392560197
 20
-44.381234722
 30
0.0
 10
-10.7175687038
 20
-45.2359897868
 30
0.0
 10
-9.835180214
 20
-46.0281341595
 30
0.0
 10
-8.5831384885
 20
-46.9922880952
 30
0.0
 10
-6.8853392942
 20
-48.0147438559
 30
0.0
 10
-4.6846111679
 20
-48.913838283
 30
0.0
 10
-2.3709288527
 20
-49.4628053317
 30
0.0
 10
-0.0000004409
 20
-49.647440594
 30
0.0
 10
2.3709203851
 20
-49.4627736413
 30
0.0
 10
4.6846148141
 20
-48.9138595539
 30
0.0
 10
6.8853402007
 20
-48.0147508877
 30
0.0
 10
8.5831343059
 20
-46.9922882482
 30
0.0
 10
9.8351804174
 20
-46.0281399353
 30
0.0
 10
10.7175669472
 20
-45.2359925876
 30
0.0
 10
11.5392478156
 20
-44.3812328179
 30
0.0
 10
12.1707832365
 20
-43.6213767195
 30
0.0
 10
12.6459189589
 20
-42.9903735495
 30
0.0
 10
12.9871405287
 20
-42.5059949659
 30
0.0
 10
13.3114148372
 20
-42.0101005577
 30
0.0
 10
13.6176852215
 20
-41.5028866665
 30
0.0
 10
13.905589964
 20
-40.9850273274
 30
0.0
 10
14.1745667072
 20
-40.4570992972
 30
0.0
 10
14.4250755547
 20
-39.9201616734
 30
0.0
 10
14.5802321817
 20
-39.5569534036
 30
0.0
 10
14.656872049
 20
-39.3749724763
 30
0.0
  0
SPLINE
  5
34F
100
AcDbEntity
  8
0
100
AcDbSpline
 62
250
  6
CONTINUOUS
 70
0
 71
3
 72
24
 73
20
 74
0
 42
0.0000001
 43
0.0000001
 44
0.0000000001
 40
0.0
 40
0.0
 40
0.0
 40
0.0
 40
0.194438816
 40
0.3813889232
 40
0.5536876939
 40
0.6322474069
 40
0.7047266673
 40
0.7704350459
 40
0.8287470745
 40
0.8791120105
 40
0.9210636155
 40
0.9542242489
 40
0.9674200669
 40
0.9783308303
 40
0.9869531517
 40
0.9933093328
 40
0.9956681384
 40
0.9975178852
 40
1.0
 40
1.0
 40
1.0
 40
1.0
 10
-0.0000008064
 20
-63.2630671165
 30
0.0
 10
-0.344837679
 20
-63.2630671466
 30
0.0
 10
-1.0212344557
 20
-63.2659747836
 30
0.0
 10
-2.0031249832
 20
-63.278972833
 30
0.0
 10
-2.7793872994
 20
-63.2969828427
 30
0.0
 10
-3.3525227228
 20
-63.3157584363
 30
0.0
 10
-3.7366203224
 20
-63.3311255538
 30
0.0
 10
-4.0847067435
 20
-63.3480431274
 30
0.0
 10
-4.3934436008
 20
-63.3663360447
 30
0.0
 10
-4.6598890999
 20
-63.3857703645
 30
0.0
 10
-4.8814978462
 20
-63.4061498952
 30
0.0
 10
-5.0370564565
 20
-63.4246874399
 30
0.0
 10
-5.13738494
 20
-63.440561959
 30
0.0
 10
-5.1943900007
 20
-63.4515827557
 30
0.0
 10
-5.2389771558
 20
-63.4626828616
 30
0.0
 10
-5.2681819629
 20
-63.4724233844
 30
0.0
 10
-5.2850322768
 20
-63.4809382237
 30
0.0
 10
-5.2947097217
 20
-63.4874330356
 30
0.0
 10
-5.2999993031
 20
-63.4945000973
 30
0.0
 10
-5.3
 20
-63.4989021232
 30
0.0
  0
SPLINE
  5
350
100
AcDbEntity
  8
0
100
AcDbSpline
 62
250
  6
CONTINUOUS
 70
0
 71
3
 72
24
 73
20
 74
0
 42
0.0000001
 43
0.0000001
 44
0.0000000001
 40
0.0
 40
0.0
 40
0.0
 40
0.0
 40
0.0024822493
 40
0.0043319611
 40
0.0066907835
 40
0.0130474363
 40
0.0216695219
 40
0.0325800278
 40
0.0457767664
 40
0.0789365954
 40
0.1208883236
 40
0.1712542913
 40
0.2295658196
 40
0.2952734639
 40
0.3677534421
 40
0.4463133468
 40
0.6186106751
 40
0.8055629419
 40
1.0
 40
1.0
 40
1.0
 40
1.0
 10
5.3
 20
-63.4989021232
 30
0.0
 10
5.2999991829
 20
-63.4944998566
 30
0.0
 10
5.2947108535
 20
-63.4874320446
 30
0.0
 10
5.2850332754
 20
-63.48093662
 30
0.0
 10
5.2681822592
 20
-63.4724214818
 30
0.0
 10
5.2389761523
 20
-63.4626830511
 30
0.0
 10
5.1943892887
 20
-63.4515824093
 30
0.0
 10
5.1373834137
 20
-63.4405613131
 30
0.0
 10
5.0370549552
 20
-63.4246881005
 30
0.0
 10
4.8814961299
 20
-63.4061482655
 30
0.0
 10
4.6598864891
 20
-63.3857700077
 30
0.0
 10
4.3934396762
 20
-63.3663361561
 30
0.0
 10
4.0847030303
 20
-63.3480430364
 30
0.0
 10
3.7366173677
 20
-63.3311250635
 30
0.0
 10
3.3525192298
 20
-63.3157586767
 30
0.0
 10
2.7793844539
 20
-63.2969833562
 30
0.0
 10
2.003120148
 20
-63.2789724985
 30
0.0
 10
1.0212309552
 20
-63.2659750759
 30
0.0
 10
0.3448331243
 20
-63.2630671038
 30
0.0
 10
-0.0000008064
 20
-63.2630671165
 30
0.0
  0
SPLINE
  5
351
100
AcDbEntity
  8
0
100
AcDbSpline
 62
250
  6
CONTINUOUS
 70
0
 71
3
 72
29
 73
25
 74
0
 42
0.0000001
 43
0.0000001
 44
0.0000000001
 40
0.0
 40
0.0
 40
0.0
 40
0.0
 40
0.0075003302
 40
0.0190481596
 40
0.0345497119
 40
0.0538802803
 40
0.0768790229
 40
0.1033561682
 40
0.1658465119
 40
0.2392961882
 40
0.3212953869
 40
0.4091570477
 40
0.4999999657
 40
0.5908428995
 40
0.6787045734
 40
0.7607037762
 40
0.8341534399
 40
0.8966437864
 40
0.923120937
 40
0.9461196814
 40
0.9654502544
 40
0.9809518178
 40
0.9924996592
 40
1.0
 40
1.0
 40
1.0
 40
1.0
 10
-6.0067525543
 20
-61.2922084971
 30
0.0
 10
-5.9767541643
 20
-61.293784305
 30
0.0
 10
-5.9004368891
 20
-61.2947634419
 30
0.0
 10
-5.7620744931
 20
-61.2941176664
 30
0.0
 10
-5.5763321699
 20
-61.2911352146
 30
0.0
 10
-5.3447672722
 20
-61.2861966782
 30
0.0
 10
-5.0692691683
 20
-61.2794992541
 30
0.0
 10
-4.6209769043
 20
-61.2680609628
 30
0.0
 10
-3.970685883
 20
-61.2515208962
 30
0.0
 10
-3.0980246713
 20
-61.2321549507
 30
0.0
 10
-2.1236727154
 20
-61.2154981714
 30
0.0
 10
-1.0795738496
 20
-61.2042940022
 30
0.0
 10
-0.0000003487
 20
-61.2003483886
 30
0.0
 10
1.0795732045
 20
-61.2042939946
 30
0.0
 10
2.123672202
 20
-61.2154981657
 30
0.0
 10
3.0980241764
 20
-61.232154941
 30
0.0
 10
3.9706853654
 20
-61.2515208837
 30
0.0
 10
4.620976369
 20
-61.2680609468
 30
0.0
 10
5.0692686723
 20
-61.2794992432
 30
0.0
 10
5.3447668231
 20
-61.2861966676
 30
0.0
 10
5.5763317906
 20
-61.291135204
 30
0.0
 10
5.7620742248
 20
-61.2941176734
 30
0.0
 10
5.9004367559
 20
-61.2947634308
 30
0.0
 10
5.9767541217
 20
-61.2937843027
 30
0.0
 10
6.0067525543
 20
-61.2922084971
 30
0.0
  0
LINE
  5
352
100
AcDbEntity
  8
0
100
AcDbLine
 62
250
  6
CONTINUOUS
 10
6.0067525543
 20
-61.2922084971
 11
6.05
 21
-61.2899266605
  0
SPLINE
  5
353
100
AcDbEntity
  8
0
100
AcDbSpline
 62
250
  6
CONTINUOUS
 70
0
 71
3
 72
14
 73
10
 74
0
 42
0.0000001
 43
0.0000001
 44
0.0000000001
 40
0.0
 40
0.0
 40
0.0
 40
0.0
 40
0.2499670061
 40
0.4999550303
 40
0.6249653814
 40
0.7499767321
 40
0.8749884928
 40
0.9374960117
 40
1.0
 40
1.0
 40
1.0
 40
1.0
 10
-18.2245080624
 20
-46.8225493917
 30
0.0
 10
-17.9581001066
 20
-47.8005521802
 30
0.0
 10
-17.3695125369
 20
-49.7419131693
 30
0.0
 10
-16.4966770744
 20
-52.1226812422
 30
0.0
 10
-15.7176366017
 20
-53.9948867095
 30
0.0
 10
-15.0933310087
 20
-55.3818632843
 30
0.0
 10
-14.540057677
 20
-56.5222616683
 30
0.0
 10
-14.0780731177
 20
-57.4247909846
 30
0.0
 10
-13.8404109773
 20
-57.8725781346
 30
0.0
 10
-13.7206654222
 20
-58.0959669642
 30
0.0
  0
SPLINE
  5
354
100
AcDbEntity
  8
0
100
AcDbSpline
 62
250
  6
CONTINUOUS
 70
0
 71
3
 72
11
 73
7
 74
0
 42
0.0000001
 43
0.0000001
 44
0.0000000001
 40
0.0
 40
0.0
 40
0.0
 40
0.0
 40
0.2491951137
 40
0.4988508395
 40
0.7491728405
 40
1.0
 40
1.0
 40
1.0
 40
1.0
 10
-6.1479952973
 20
-61.1424052535
 30
0.0
 10
-6.1292654817
 20
-61.1433658344
 30
0.0
 10
-6.0917578191
 20
-61.1526189344
 30
0.0
 10
-6.0449782798
 20
-61.1864309931
 30
0.0
 10
-6.0139397693
 20
-61.2352258699
 30
0.0
 10
-6.0067366404
 20
-61.2733312426
 30
0.0
 10
-6.0067504607
 20
-61.2922084971
 30
0.0
  0
SPLINE
  5
355
100
AcDbEntity
  8
0
100
AcDbSpline
 62
250
  6
CONTINUOUS
 70
0
 71
3
 72
11
 73
7
 74
0
 42
0.0000001
 43
0.0000001
 44
0.0000000001
 40
0.0
 40
0.0
 40
0.0
 40
0.0
 40
0.249195114
 40
0.4988508459
 40
0.7491728472
 40
1.0
 40
1.0
 40
1.0
 40
1.0
 10
6.1479953098
 20
-61.1424054965
 30
0.0
 10
6.1292656857
 20
-61.143366331
 30
0.0
 10
6.0917585128
 20
-61.152619794
 30
0.0
 10
6.0449797195
 20
-61.186431902
 30
0.0
 10
6.0139417358
 20
-61.2352264301
 30
0.0
 10
6.0067387003
 20
-61.2733314225
 30
0.0
 10
6.006752495
 20
-61.2922084971
 30
0.0
  0
SPLINE
  5
356
100
AcDbEntity
  8
0
100
AcDbSpline
 62
250
  6
CONTINUOUS
 70
0
 71
3
 72
16
 73
12
 74
0
 42
0.0000001
 43
0.0000001
 44
0.0000000001
 40
0.0
 40
0.0
 40
0.0
 40
0.0
 40
0.2499985723
 40
0.374999963
 40
0.5000010394
 40
0.6250017221
 40
0.7500019199
 40
0.8125020777
 40
0.8750020957
 40
0.937501919
 40
1.0
 40
1.0
 40
1.0
 40
1.0
 10
0.0
 20
-60.3417678917
 30
0.0
 10
0.834367917
 20
-60.33918253
 30
0.0
 10
2.0859519616
 20
-60.319508321
 30
0.0
 10
3.7537478952
 20
-60.2620649746
 30
0.0
 10
5.0039894424
 20
-60.2035565931
 30
0.0
 10
6.253420446
 20
-60.1298935062
 30
0.0
 10
7.2938012359
 20
-60.0560123718
 30
0.0
 10
8.1255479278
 20
-59.989760882
 30
0.0
 10
8.7490420285
 20
-59.9362168572
 30
0.0
 10
9.3722452675
 20
-59.8796342989
 30
0.0
 10
9.7874868506
 20
-59.8390998387
 30
0.0
 10
9.9947329623
 20
-59.815479808
 30
0.0
  0
SPLINE
  5
357
100
AcDbEntity
  8
0
100
AcDbSpline
 62
250
  6
CONTINUOUS
 70
0
 71
3
 72
23
 73
19
 74
0
 42
0.0000001
 43
0.0000001
 44
0.0000000001
 40
0.0
 40
0.0
 40
0.0
 40
0.0
 40
0.1257326873
 40
0.2513793328
 40
0.3141874329
 40
0.3769421028
 40
0.4396252649
 40
0.5022140412
 40
0.5334728914
 40
0.5647026039
 40
0.6270852833
 40
0.6893884669
 40
0.7516188654
 40
0.8137850323
 40
0.8758970566
 40
0.9379640137
 40
0.9689870742
 40
1.0
 40
1.0
 40
1.0
 40
1.0
 10
0.0
 20
-53.1083524618
 30
0.0
 10
0.7539960228
 20
-53.1103883671
 30
0.0
 10
2.2640263437
 20
-53.0020215233
 30
0.0
 10
4.1096366208
 20
-52.5891518156
 30
0.0
 10
5.5359082327
 20
-52.1006416633
 30
0.0
 10
6.5751239121
 20
-51.6570793016
 30
0.0
 10
7.5789374807
 20
-51.1415813263
 30
0.0
 10
8.3831926802
 20
-50.6559530301
 30
0.0
 10
9.0043991383
 20
-50.2353663849
 30
0.0
 10
9.609985519
 20
-49.7946680403
 30
0.0
 10
10.335100967
 20
-49.2029164356
 30
0.0
 10
11.1495649191
 20
-48.4313297067
 30
0.0
 10
11.9030359419
 20
-47.6017531955
 30
0.0
 10
12.5908554762
 20
-46.7184078134
 30
0.0
 10
13.2076771861
 20
-45.7852024172
 30
0.0
 10
13.6571272341
 20
-44.9689506874
 30
0.0
 10
13.9771196541
 20
-44.2968743557
 30
0.0
 10
14.1229134011
 20
-43.9544378206
 30
0.0
 10
14.1914930387
 20
-43.7815643863
 30
0.0
  0
SPLINE
  5
358
100
AcDbEntity
  8
0
100
AcDbSpline
 62
250
  6
CONTINUOUS
 70
0
 71
3
 72
9
 73
5
 74
0
 42
0.0000001
 43
0.0000001
 44
0.0000000001
 40
0.0
 40
0.0
 40
0.0
 40
0.0
 40
0.2481915916
 40
1.0
 40
1.0
 40
1.0
 40
1.0
 10
17.4480934704
 20
-46.5924803008
 30
0.0
 10
17.1758959893
 20
-46.363182124
 30
0.0
 10
16.0826272237
 20
-45.4352025642
 30
0.0
 10
15.0011703754
 20
-44.4933952774
 30
0.0
 10
14.1914930387
 20
-43.7815643863
 30
0.0
  0
SPLINE
  5
359
100
AcDbEntity
  8
0
100
AcDbSpline
 62
250
  6
CONTINUOUS
 70
0
 71
3
 72
23
 73
19
 74
0
 42
0.0000001
 43
0.0000001
 44
0.0000000001
 40
0.0
 40
0.0
 40
0.0
 40
0.0
 40
0.0156253474
 40
0.0312516455
 40
0.0468777815
 40
0.0625040004
 40
0.0781303655
 40
0.0937567245
 40
0.1250094101
 40
0.1562620522
 40
0.1875146914
 40
0.2187673473
 40
0.2500200041
 40
0.3750257024
 40
0.5000310479
 40
0.6250356132
 40
0.7500386907
 40
1.0
 40
1.0
 40
1.0
 40
1.0
 10
13.0895346908
 20
-57.7819376148
 30
0.0
 10
13.1207358088
 20
-57.7275280697
 30
0.0
 10
13.1829811896
 20
-57.6186151424
 30
0.0
 10
13.2764303203
 20
-57.4552882374
 30
0.0
 10
13.3671683806
 20
-57.2904202488
 30
0.0
 10
13.4543058955
 20
-57.1236300629
 30
0.0
 10
13.5405560667
 20
-56.956387635
 30
0.0
 10
13.655035703
 20
-56.7331268662
 30
0.0
 10
13.7969390198
 20
-56.4534400434
 30
0.0
 10
13.9649862806
 20
-56.1166886141
 30
0.0
 10
14.1301217494
 20
-55.778499209
 30
0.0
 10
14.2925239199
 20
-55.4389890717
 30
0.0
 10
14.6122245556
 20
-54.7575788649
 30
0.0
 10
15.0719518318
 20
-53.7261808222
 30
0.0
 10
15.6410950662
 20
-52.3323321645
 30
0.0
 10
16.1653235476
 20
-50.9209353771
 30
0.0
 10
16.802625679
 20
-49.0176683552
 30
0.0
 10
17.2096385216
 20
-47.5670896169
 30
0.0
 10
17.4480934704
 20
-46.5924803008
 30
0.0
  0
SPLINE
  5
35A
100
AcDbEntity
  8
0
100
AcDbSpline
 62
250
  6
CONTINUOUS
 70
0
 71
3
 72
13
 73
9
 74
0
 42
0.0000001
 43
0.0000001
 44
0.0000000001
 40
0.0
 40
0.0
 40
0.0
 40
0.0
 40
0.0625845848
 40
0.125169861
 40
0.2502969443
 40
0.5001509465
 40
0.7500466782
 40
1.0
 40
1.0
 40
1.0
 40
1.0
 10
9.9947329623
 20
-59.815479808
 30
0.0
 10
10.0742329248
 20
-59.8064227756
 30
0.0
 10
10.2326712791
 20
-59.7831663952
 30
0.0
 10
10.5464936068
 20
-59.7198271501
 30
0.0
 10
11.0840888676
 20
-59.5609690373
 30
0.0
 10
11.8060532282
 20
-59.2003927898
 30
0.0
 10
12.5460185989
 20
-58.578210378
 30
0.0
 10
12.9305551646
 20
-58.0591506064
 30
0.0
 10
13.0895346908
 20
-57.7819376148
 30
0.0
  0
SPLINE
  5
35B
100
AcDbEntity
  8
0
100
AcDbSpline
 62
250
  6
CONTINUOUS
 70
0
 71
3
 72
16
 73
12
 74
0
 42
0.0000001
 43
0.0000001
 44
0.0000000001
 40
0.0
 40
0.0
 40
0.0
 40
0.0
 40
0.0624980864
 40
0.1249979151
 40
0.1874979384
 40
0.2499981008
 40
0.374998303
 40
0.4999989868
 40
0.6250000615
 40
0.7500014472
 40
1.0
 40
1.0
 40
1.0
 40
1.0
 10
-9.9947329623
 20
-59.815479808
 30
0.0
 10
-9.7874870097
 20
-59.839101392
 30
0.0
 10
-9.3722451279
 20
-59.87963355
 30
0.0
 10
-8.7490419303
 20
-59.9362169219
 30
0.0
 10
-8.1255477578
 20
-59.9897607845
 30
0.0
 10
-7.2938010394
 20
-60.0560125107
 30
0.0
 10
-6.2534201967
 20
-60.1298934021
 30
0.0
 10
-5.0039891902
 20
-60.2035566238
 30
0.0
 10
-3.75374766
 20
-60.2620649811
 30
0.0
 10
-2.0859518145
 20
-60.3195083253
 30
0.0
 10
-0.8343678516
 20
-60.3391825298
 30
0.0
 10
0.0
 20
-60.3417678917
 30
0.0
  0
SPLINE
  5
35C
100
AcDbEntity
  8
0
100
AcDbSpline
 62
250
  6
CONTINUOUS
 70
0
 71
3
 72
13
 73
9
 74
0
 42
0.0000001
 43
0.0000001
 44
0.0000000001
 40
0.0
 40
0.0
 40
0.0
 40
0.0
 40
0.2499533215
 40
0.4998490536
 40
0.7497030557
 40
0.8748301386
 40
0.9374154155
 40
1.0
 40
1.0
 40
1.0
 40
1.0
 10
-13.0895346908
 20
-57.7819376148
 30
0.0
 10
-12.9305548316
 20
-58.0591504152
 30
0.0
 10
-12.5460187651
 20
-58.5782104813
 30
0.0
 10
-11.8060531806
 20
-59.200392743
 30
0.0
 10
-11.0840888827
 20
-59.5609690961
 30
0.0
 10
-10.5464935926
 20
-59.7198270703
 30
0.0
 10
-10.2326712949
 20
-59.7831665095
 30
0.0
 10
-10.0742329086
 20
-59.8064226364
 30
0.0
 10
-9.9947329623
 20
-59.815479808
 30
0.0
  0
SPLINE
  5
35D
100
AcDbEntity
  8
0
100
AcDbSpline
 62
250
  6
CONTINUOUS
 70
0
 71
3
 72
23
 73
19
 74
0
 42
0.0000001
 43
0.0000001
 44
0.0000000001
 40
0.0
 40
0.0
 40
0.0
 40
0.0
 40
0.2499614735
 40
0.3749645752
 40
0.4999691368
 40
0.6249744535
 40
0.7499801053
 40
0.7812327475
 40
0.8124853879
 40
0.8437380111
 40
0.8749906362
 40
0.9062433018
 40
0.92186965
 40
0.9374959985
 40
0.9531222229
 40
0.9687483685
 40
0.9843746609
 40
1.0
 40
1.0
 40
1.0
 40
1.0
 10
-17.4480934704
 20
-46.5924803008
 30
0.0
 10
-17.2096383606
 20
-47.5670902675
 30
0.0
 10
-16.8026252911
 20
-49.0176697497
 30
0.0
 10
-16.1653228402
 20
-50.9209374654
 30
0.0
 10
-15.6410942938
 20
-52.3323342269
 30
0.0
 10
-15.0719505587
 20
-53.7261823184
 30
0.0
 10
-14.6122252762
 20
-54.7575808986
 30
0.0
 10
-14.2925229791
 20
-55.4389899996
 30
0.0
 10
-14.1301204078
 20
-55.7784997415
 30
0.0
 10
-13.9649855143
 20
-56.1166892132
 30
0.0
 10
-13.7969390121
 20
-56.4534407889
 30
0.0
 10
-13.6550359863
 20
-56.7331275491
 30
0.0
 10
-13.5405542345
 20
-56.9563870337
 30
0.0
 10
-13.4543040047
 20
-57.1236292993
 30
0.0
 10
-13.3671760997
 20
-57.2904245719
 30
0.0
 10
-13.2764310986
 20
-57.4552888433
 30
0.0
 10
-13.182983847
 20
-57.6186167523
 30
0.0
 10
-13.1207357574
 20
-57.727528078
 30
0.0
 10
-13.0895346908
 20
-57.7819376148
 30
0.0
  0
SPLINE
  5
35E
100
AcDbEntity
  8
0
100
AcDbSpline
 62
250
  6
CONTINUOUS
 70
0
 71
3
 72
9
 73
5
 74
0
 42
0.0000001
 43
0.0000001
 44
0.0000000001
 40
0.0
 40
0.0
 40
0.0
 40
0.0
 40
0.2481915917
 40
1.0
 40
1.0
 40
1.0
 40
1.0
 10
-17.4480934704
 20
-46.5924803008
 30
0.0
 10
-17.1758960223
 20
-46.3631821518
 30
0.0
 10
-16.0826273897
 20
-45.4352027058
 30
0.0
 10
-15.0011706717
 20
-44.4933955357
 30
0.0
 10
-14.1914934329
 20
-43.7815647328
 30
0.0
  0
SPLINE
  5
35F
100
AcDbEntity
  8
0
100
AcDbSpline
 62
250
  6
CONTINUOUS
 70
0
 71
3
 72
23
 73
19
 74
0
 42
0.0000001
 43
0.0000001
 44
0.0000000001
 40
0.0
 40
0.0
 40
0.0
 40
0.0
 40
0.031012927
 40
0.0620359875
 40
0.1241029442
 40
0.1862149671
 40
0.2483811336
 40
0.3106115331
 40
0.3729147195
 40
0.4352974047
 40
0.4665271165
 40
0.4977859691
 40
0.5603747404
 40
0.6230579012
 40
0.6858125666
 40
0.7486206647
 40
0.8742673119
 40
1.0
 40
1.0
 40
1.0
 40
1.0
 10
-14.1914934329
 20
-43.7815647328
 30
0.0
 10
-14.1229131373
 20
-43.9544379083
 30
0.0
 10
-13.9771203182
 20
-44.296874823
 30
0.0
 10
-13.6571257728
 20
-44.9689501493
 30
0.0
 10
-13.207677159
 20
-45.7852025373
 30
0.0
 10
-12.5908551686
 20
-46.7184077452
 30
0.0
 10
-11.9030358994
 20
-47.6017533436
 30
0.0
 10
-11.1495645211
 20
-48.4313292455
 30
0.0
 10
-10.3351030801
 20
-49.2029193409
 30
0.0
 10
-9.6099803096
 20
-49.7946611519
 30
0.0
 10
-9.0044044447
 20
-50.2353741706
 30
0.0
 10
-8.38318723
 20
-50.6559449948
 30
0.0
 10
-7.5789395817
 20
-51.1415848833
 30
0.0
 10
-6.5751212955
 20
-51.6570742876
 30
0.0
 10
-5.5359082811
 20
-52.1006419415
 30
0.0
 10
-4.1096363683
 20
-52.5891515624
 30
0.0
 10
-2.2640263662
 20
-53.0020228771
 30
0.0
 10
-0.7539960115
 20
-53.1103860935
 30
0.0
 10
0.0
 20
-53.1083524618
 30
0.0
  0
SPLINE
  5
360
100
AcDbEntity
  8
0
100
AcDbSpline
 62
250
  6
CONTINUOUS
 70
0
 71
3
 72
45
 73
41
 74
0
 42
0.0000001
 43
0.0000001
 44
0.0000000001
 40
0.0
 40
0.0
 40
0.0
 40
0.0
 40
0.0078155657
 40
0.0156306625
 40
0.0234455725
 40
0.0312605711
 40
0.0390749398
 40
0.0468891985
 40
0.0625158413
 40
0.0781416404
 40
0.0937669039
 40
0.1093923122
 40
0.1250189782
 40
0.1562698643
 40
0.1875248331
 40
0.2187822217
 40
0.250041461
 40
0.312517309
 40
0.3750020004
 40
0.4374972229
 40
0.4999998947
 40
0.5625025827
 40
0.6249977295
 40
0.6874824697
 40
0.7499583146
 40
0.7812175597
 40
0.8124749508
 40
0.8437299086
 40
0.8749807685
 40
0.8906074539
 40
0.9062328425
 40
0.9218581151
 40
0.9374839111
 40
0.9531106038
 40
0.9609248924
 40
0.9687392734
 40
0.9765543923
 40
0.9843692483
 40
0.9921844194
 40
1.0
 40
1.0
 40
1.0
 40
1.0
 10
-14.6568720725
 20
-39.3749725313
 30
0.0
 10
-14.6446299401
 20
-39.4761100974
 30
0.0
 10
-14.599732431
 20
-39.6755628538
 30
0.0
 10
-14.5164925924
 20
-39.9694905243
 30
0.0
 10
-14.4225406522
 20
-40.2604068869
 30
0.0
 10
-14.3207262199
 20
-40.5485606643
 30
0.0
 10
-14.2118710638
 20
-40.834139354
 30
0.0
 10
-14.0579515941
 20
-41.2113867687
 30
0.0
 10
-13.8498509791
 20
-41.6763591684
 30
0.0
 10
-13.5757908539
 20
-42.2227180027
 30
0.0
 10
-13.2780698074
 20
-42.7565372474
 30
0.0
 10
-12.9570610226
 20
-43.2767182709
 30
0.0
 10
-12.4980759172
 20
-43.9501487109
 30
0.0
 10
-11.8681974299
 20
-44.7522148473
 30
0.0
 10
-11.0364802883
 20
-45.6494789659
 30
0.0
 10
-10.135397934
 20
-46.4773974089
 30
0.0
 10
-8.8510267454
 20
-47.4821104267
 30
0.0
 10
-7.1029683948
 20
-48.5442160006
 30
0.0
 10
-4.8336293963
 20
-49.4760037762
 30
0.0
 10
-2.4465244665
 20
-50.0442244404
 30
0.0
 10
-0.0000033534
 20
-50.2352130752
 30
0.0
 10
2.4465109576
 20
-50.0441972247
 30
0.0
 10
4.8336261559
 20
-49.4760225264
 30
0.0
 10
7.1029639609
 20
-48.5442255952
 30
0.0
 10
8.8510176004
 20
-47.4821138197
 30
0.0
 10
10.1353939725
 20
-46.4774069179
 30
0.0
 10
11.0364724165
 20
-45.649484465
 30
0.0
 10
11.8681910451
 20
-44.7522214336
 30
0.0
 10
12.4980557036
 20
-43.9501461879
 30
0.0
 10
12.9570643492
 20
-43.2767318133
 30
0.0
 10
13.2780527488
 20
-42.7565380246
 30
0.0
 10
13.5757909981
 20
-42.2227289456
 30
0.0
 10
13.8498474469
 20
-41.6763670261
 30
0.0
 10
14.0579467638
 20
-41.2113931631
 30
0.0
 10
14.2118687544
 20
-40.8341454128
 30
0.0
 10
14.3207222612
 20
-40.5485639205
 30
0.0
 10
14.4225466227
 20
-40.2604124715
 30
0.0
 10
14.5164879147
 20
-39.9694907417
 30
0.0
 10
14.5997364033
 20
-39.6755652481
 30
0.0
 10
14.6446322505
 20
-39.4761105211
 30
0.0
 10
14.656872049
 20
-39.3749724763
 30
0.0
  0
SPLINE
  5
361
100
AcDbEntity
  8
0
100
AcDbSpline
 62
250
  6
CONTINUOUS
 70
0
 71
3
 72
27
 73
23
 74
0
 42
0.0000001
 43
0.0000001
 44
0.0000000001
 40
0.0
 40
0.0
 40
0.0
 40
0.0
 40
0.1242833661
 40
0.248839146
 40
0.3736394063
 40
0.4986484001
 40
0.5612247381
 40
0.6238386718
 40
0.6864852266
 40
0.749158691
 40
0.8118531236
 40
0.843207019
 40
0.8745638815
 40
0.9059222558
 40
0.9216018519
 40
0.9372815899
 40
0.9529613338
 40
0.9686409053
 40
0.9764810438
 40
0.9843204668
 40
0.992160376
 40
1.0
 40
1.0
 40
1.0
 40
1.0
 10
13.5499223266
 20
-43.5336921082
 30
0.0
 10
13.6684312767
 20
-43.2922181923
 30
0.0
 10
13.8962570837
 20
-42.8039936661
 30
0.0
 10
14.2029644429
 20
-42.0553975838
 30
0.0
 10
14.4722903667
 20
-41.2908551164
 30
0.0
 10
14.6629426025
 20
-40.64182944
 30
0.0
 10
14.7946828513
 20
-40.1165370302
 30
0.0
 10
14.8829000428
 20
-39.7196344359
 30
0.0
 10
14.9605706577
 20
-39.3203280827
 30
0.0
 10
15.0279201578
 20
-38.9189671391
 30
0.0
 10
15.0748402332
 20
-38.5830022879
 30
0.0
 10
15.1090455375
 20
-38.3137513547
 30
0.0
 10
15.1331178238
 20
-38.111581002
 30
0.0
 10
15.1509351057
 20
-37.9428429513
 30
0.0
 10
15.163831461
 20
-37.8077158309
 30
0.0
 10
15.1727193086
 20
-37.7062965062
 30
0.0
 10
15.1808410994
 20
-37.6048134551
 30
0.0
 10
15.1868616564
 20
-37.5201853573
 30
0.0
 10
15.1913496534
 20
-37.4524661476
 30
0.0
 10
15.194535754
 20
-37.4016533322
 30
0.0
 10
15.1967833542
 20
-37.350827846
 30
0.0
 10
15.2003467385
 20
-37.3169630766
 30
0.0
 10
15.1999667394
 20
-37.3
 30
0.0
  0
SPLINE
  5
362
100
AcDbEntity
  8
0
100
AcDbSpline
 62
250
  6
CONTINUOUS
 70
0
 71
3
 72
19
 73
15
 74
0
 42
0.0000001
 43
0.0000001
 44
0.0000000001
 40
0.0
 40
0.0
 40
0.0
 40
0.0
 40
0.1256597844
 40
0.2512271687
 40
0.3766201214
 40
0.5017322244
 40
0.564193304
 40
0.62657537
 40
0.6888919174
 40
0.7511537916
 40
0.8133755402
 40
0.8755739347
 40
0.9377761362
 40
1.0
 40
1.0
 40
1.0
 40
1.0
 10
0.0
 20
-52.1546396573
 30
0.0
 10
0.7091707711
 20
-52.1530170446
 30
0.0
 10
2.1287875297
 20
-52.0497723641
 30
0.0
 10
4.2125641494
 20
-51.5977375758
 30
0.0
 10
6.2094701462
 20
-50.858230855
 30
0.0
 10
7.7667299363
 20
-50.0102750728
 30
0.0
 10
8.9238278158
 20
-49.2015752731
 30
0.0
 10
9.7451693916
 20
-48.5360169764
 30
0.0
 10
10.5174361826
 20
-47.8158290689
 30
0.0
 10
11.2373606378
 20
-47.0445617762
 30
0.0
 10
11.9029918708
 20
-46.2269032497
 30
0.0
 10
12.5119545243
 20
-45.3665423512
 30
0.0
 10
13.0620613598
 20
-44.4677247842
 30
0.0
 10
13.3952247209
 20
-43.8489480455
 30
0.0
 10
13.5499223266
 20
-43.5336921082
 30
0.0
  0
SPLINE
  5
363
100
AcDbEntity
  8
0
100
AcDbSpline
 62
250
  6
CONTINUOUS
 70
0
 71
3
 72
19
 73
15
 74
0
 42
0.0000001
 43
0.0000001
 44
0.0000000001
 40
0.0
 40
0.0
 40
0.0
 40
0.0
 40
0.0622238706
 40
0.1244260731
 40
0.1866244682
 40
0.2488462182
 40
0.3111080936
 40
0.3734246425
 40
0.4358067344
 40
0.4982678025
 40
0.6233798935
 40
0.7487728233
 40
0.8743402118
 40
1.0
 40
1.0
 40
1.0
 40
1.0
 10
-13.549923251
 20
-43.5336921684
 30
0.0
 10
-13.3952246251
 20
-43.8489476385
 30
0.0
 10
-13.0620610678
 20
-44.4677242348
 30
0.0
 10
-12.5119545451
 20
-45.366542037
 30
0.0
 10
-11.9029920189
 20
-46.2269030118
 30
0.0
 10
-11.2373608153
 20
-47.0445615743
 30
0.0
 10
-10.5174362927
 20
-47.8158287386
 30
0.0
 10
-9.7451702575
 20
-48.5360177708
 30
0.0
 10
-8.923826165
 20
-49.2015730538
 30
0.0
 10
-7.7667290482
 20
-50.010273838
 30
0.0
 10
-6.2094682279
 20
-50.858226978
 30
0.0
 10
-4.2125644515
 20
-51.5977385477
 30
0.0
 10
-2.1287874293
 20
-52.049772594
 30
0.0
 10
-0.7091707727
 20
-52.1530160099
 30
0.0
 10
0.0
 20
-52.1546396573
 30
0.0
  0
SPLINE
  5
364
100
AcDbEntity
  8
0
100
AcDbSpline
 62
250
  6
CONTINUOUS
 70
0
 71
3
 72
29
 73
25
 74
0
 42
0.0000001
 43
0.0000001
 44
0.0000000001
 40
0.0
 40
0.0
 40
0.0
 40
0.0
 40
0.0078367991
 40
0.0156829975
 40
0.0235206703
 40
0.0313601538
 40
0.0392007381
 40
0.0470405114
 40
0.0627200608
 40
0.0783998238
 40
0.0940793667
 40
0.1254376881
 40
0.1567944313
 40
0.188148286
 40
0.219498611
 40
0.2508437741
 40
0.3135173781
 40
0.3761630132
 40
0.4387773114
 40
0.5013535591
 40
0.6263625747
 40
0.7511622998
 40
0.8757173323
 40
1.0
 40
1.0
 40
1.0
 40
1.0
 10
-15.1999667913
 20
-37.3
 30
0.0
 10
-15.2003898581
 20
-37.3169559841
 30
0.0
 10
-15.1978680094
 20
-37.3508877561
 30
0.0
 10
-15.1938504383
 20
-37.4016059103
 30
0.0
 10
-15.191494429
 20
-37.45247727
 30
0.0
 10
-15.1880697232
 20
-37.5032606409
 30
0.0
 10
-15.1844236172
 20
-37.5540344814
 30
0.0
 10
-15.1794816883
 20
-37.6217268525
 30
0.0
 10
-15.1727310922
 20
-37.706298064
 30
0.0
 10
-15.1638200022
 20
-37.8077149394
 30
0.0
 10
-15.1509502745
 20
-37.9428447069
 30
0.0
 10
-15.1331005659
 20
-38.1115800721
 30
0.0
 10
-15.1089655528
 20
-38.3137409847
 30
0.0
 10
-15.0836646811
 20
-38.5157436072
 30
0.0
 10
-15.0556719233
 20
-38.7173641295
 30
0.0
 10
-15.0170918607
 20
-38.9859515296
 30
0.0
 10
-14.960237835
 20
-39.3202743267
 30
0.0
 10
-14.8830265942
 20
-39.719661504
 30
0.0
 10
-14.7946455516
 20
-40.1165329617
 30
0.0
 10
-14.6629639998
 20
-40.6418387439
 30
0.0
 10
-14.4722852379
 20
-41.290860055
 30
0.0
 10
-14.202961938
 20
-42.0554011869
 30
0.0
 10
-13.8962584802
 20
-42.8039968903
 30
0.0
 10
-13.6684320704
 20
-43.2922191196
 30
0.0
 10
-13.549923251
 20
-43.5336921684
 30
0.0
  0
SPLINE
  5
365
100
AcDbEntity
  8
0
100
AcDbSpline
 62
250
  6
CONTINUOUS
 70
0
 71
3
 72
14
 73
10
 74
0
 42
0.0000001
 43
0.0000001
 44
0.0000000001
 40
0.0
 40
0.0
 40
0.0
 40
0.0
 40
0.0380280067
 40
0.1050315939
 40
0.1996649528
 40
0.3199843071
 40
0.4633933164
 40
0.6268940961
 40
1.0
 40
1.0
 40
1.0
 40
1.0
 10
13.7206231169
 20
-58.0960458182
 30
0.0
 10
13.7120055554
 20
-58.0936701529
 30
0.0
 10
13.6891510705
 20
-58.0840804693
 30
0.0
 10
13.6463373899
 20
-58.0649900102
 30
0.0
 10
13.5865426904
 20
-58.036323546
 30
0.0
 10
13.5109761696
 20
-57.9991226009
 30
0.0
 10
13.4212817564
 20
-57.9539405528
 30
0.0
 10
13.2789795875
 20
-57.8811332652
 30
0.0
 10
13.1671463757
 20
-57.8227835739
 30
0.0
 10
13.0895346928
 20
-57.7819376161
 30
0.0
  0
SPLINE
  5
366
100
AcDbEntity
  8
0
100
AcDbSpline
 62
250
  6
CONTINUOUS
 70
0
 71
3
 72
14
 73
10
 74
0
 42
0.0000001
 43
0.0000001
 44
0.0000000001
 40
0.0
 40
0.0
 40
0.0
 40
0.0
 40
0.0380715328
 40
0.1050535329
 40
0.1996744609
 40
0.3198475379
 40
0.4631573573
 40
0.6266844287
 40
1.0
 40
1.0
 40
1.0
 40
1.0
 10
10.0305190266
 20
-60.5129517803
 30
0.0
 10
10.0317401149
 20
-60.5041702225
 30
0.0
 10
10.0320424929
 20
-60.4796160927
 30
0.0
 10
10.0316066089
 20
-60.4331725231
 30
0.0
 10
10.0291957106
 20
-60.3675653253
 30
0.0
 10
10.0252842929
 20
-60.2842727645
 30
0.0
 10
10.0197160562
 20
-60.1849821707
 30
0.0
 10
10.0098733127
 20
-60.0268963989
 30
0.0
 10
10.0011210004
 20
-59.9021808675
 30
0.0
 10
9.9947327744
 20
-59.8154786534
 30
0.0
  0
SPLINE
  5
367
100
AcDbEntity
  8
0
100
AcDbSpline
 62
250
  6
CONTINUOUS
 70
0
 71
3
 72
11
 73
7
 74
0
 42
0.0000001
 43
0.0000001
 44
0.0000000001
 40
0.0
 40
0.0
 40
0.0
 40
0.0
 40
0.1058471368
 40
0.3182639123
 40
0.6230895
 40
1.0
 40
1.0
 40
1.0
 40
1.0
 10
-0.0021948087
 20
-60.9248742562
 30
0.0
 10
-0.0017266945
 20
-60.9043059878
 30
0.0
 10
-0.0014669469
 20
-60.8424408369
 30
0.0
 10
-0.0007751696
 20
-60.7213355707
 30
0.0
 10
-0.0003643617
 20
-60.5475370673
 30
0.0
 10
-0.0001053561
 20
-60.4150282177
 30
0.0
 10
-0.0
 20
-60.3417678909
 30
0.0
  0
SPLINE
  5
368
100
AcDbEntity
  8
0
100
AcDbSpline
 62
250
  6
CONTINUOUS
 70
0
 71
3
 72
14
 73
10
 74
0
 42
0.0000001
 43
0.0000001
 44
0.0000000001
 40
0.0
 40
0.0
 40
0.0
 40
0.0
 40
0.038071168
 40
0.1050527954
 40
0.1996734564
 40
0.3198464123
 40
0.4631562748
 40
0.6266835558
 40
1.0
 40
1.0
 40
1.0
 40
1.0
 10
-10.030518959
 20
-60.5129509768
 30
0.0
 10
-10.0317409125
 20
-60.5041696443
 30
0.0
 10
-10.0320441783
 20
-60.4796156574
 30
0.0
 10
-10.031609421
 20
-60.4331724653
 30
0.0
 10
-10.0291991636
 20
-60.3675655292
 30
0.0
 10
-10.0252880533
 20
-60.2842732236
 30
0.0
 10
-10.0197196331
 20
-60.1849828172
 30
0.0
 10
-10.0098759697
 20
-60.0268971807
 30
0.0
 10
-10.001122292
 20
-59.9021817571
 30
0.0
 10
-9.9947329301
 20
-59.8154796095
 30
0.0
  0
SPLINE
  5
369
100
AcDbEntity
  8
0
100
AcDbSpline
 62
250
  6
CONTINUOUS
 70
0
 71
3
 72
14
 73
10
 74
0
 42
0.0000001
 43
0.0000001
 44
0.0000000001
 40
0.0
 40
0.0
 40
0.0
 40
0.0
 40
0.0380283935
 40
0.1050322445
 40
0.1996657414
 40
0.3199851143
 40
0.4633940352
 40
0.6268946362
 40
1.0
 40
1.0
 40
1.0
 40
1.0
 10
-13.7206212736
 20
-58.0960448234
 30
0.0
 10
-13.7120036505
 20
-58.0936690944
 30
0.0
 10
-13.6891490681
 20
-58.0840793681
 30
0.0
 10
-13.6463352968
 20
-58.0649888337
 30
0.0
 10
-13.5865406087
 20
-58.0363223727
 30
0.0
 10
-13.5109741987
 20
-57.9991214746
 30
0.0
 10
-13.4212799841
 20
-57.9539395265
 30
0.0
 10
-13.2789782155
 20
-57.8811324444
 30
0.0
 10
-13.1671453349
 20
-57.8227829278
 30
0.0
 10
-13.0895338907
 20
-57.7819370958
 30
0.0
  0
SPLINE
  5
36A
100
AcDbEntity
  8
0
100
AcDbSpline
 62
250
  6
CONTINUOUS
 70
0
 71
3
 72
14
 73
10
 74
0
 42
0.0000001
 43
0.0000001
 44
0.0000000001
 40
0.0
 40
0.0
 40
0.0
 40
0.0
 40
0.037122978
 40
0.1043827544
 40
0.2001135806
 40
0.3219429754
 40
0.4667200284
 40
0.63081958
 40
1.0
 40
1.0
 40
1.0
 40
1.0
 10
-18.2245080578
 20
-46.8225493905
 30
0.0
 10
-18.2154882766
 20
-46.8181788996
 30
0.0
 10
-18.1888020335
 20
-46.8088561651
 30
0.0
 10
-18.1376139789
 20
-46.7917377261
 30
0.0
 10
-18.0641047048
 20
-46.7690539299
 30
0.0
 10
-17.970418316
 20
-46.7409285525
 30
0.0
 10
-17.8587937122
 20
-46.7083151304
 30
0.0
 10
-17.6828195938
 20
-46.6578480085
 30
0.0
 10
-17.5441628956
 20
-46.6190475977
 30
0.0
 10
-17.448093469
 20
-46.5924803005
 30
0.0
  0
SPLINE
  5
36B
100
AcDbEntity
  8
0
100
AcDbSpline
 62
250
  6
CONTINUOUS
 70
0
 71
3
 72
11
 73
7
 74
0
 42
0.0000001
 43
0.0000001
 44
0.0000000001
 40
0.0
 40
0.0
 40
0.0
 40
0.0
 40
0.2499973029
 40
0.4999901298
 40
0.7499872066
 40
1.0
 40
1.0
 40
1.0
 40
1.0
 10
17.4480934704
 20
-46.5924803008
 30
0.0
 10
17.6337950213
 20
-45.8302797662
 30
0.0
 10
17.9697905815
 20
-44.2970531045
 30
0.0
 10
18.3736203104
 20
-41.9778354374
 30
0.0
 10
18.6853174898
 20
-39.6444873215
 30
0.0
 10
18.8351131485
 20
-38.0821922854
 30
0.0
 10
18.895509836
 20
-37.2999754157
 30
0.0
  0
SPLINE
  5
36C
100
AcDbEntity
  8
0
100
AcDbSpline
 62
250
  6
CONTINUOUS
 70
0
 71
3
 72
26
 73
22
 74
0
 42
0.0000001
 43
0.0000001
 44
0.0000000001
 40
0.0
 40
0.0
 40
0.0
 40
0.0
 40
0.1240586523
 40
0.2484294655
 40
0.3731038785
 40
0.4980612163
 40
0.6232729575
 40
0.685967996
 40
0.7487105873
 40
0.780098097
 40
0.8114949474
 40
0.8428990688
 40
0.8743101254
 40
0.9057270021
 40
0.9371484763
 40
0.9528606386
 40
0.968573394
 40
0.976429973
 40
0.9842865825
 40
0.99214326
 40
1.0
 40
1.0
 40
1.0
 40
1.0
 10
14.1914930387
 20
-43.7815643863
 30
0.0
 10
14.2905602493
 20
-43.5263969897
 30
0.0
 10
14.4774904617
 20
-43.0108484115
 30
0.0
 10
14.7177053507
 20
-42.2230699999
 30
0.0
 10
14.9164630102
 20
-41.421754497
 30
0.0
 10
15.0723814964
 20
-40.6091373165
 30
0.0
 10
15.166637621
 20
-39.9249561791
 30
0.0
 10
15.2208490403
 20
-39.3745311861
 30
0.0
 10
15.2453442962
 20
-39.0293358335
 30
0.0
 10
15.2600028316
 20
-38.7527545531
 30
0.0
 10
15.2676485271
 20
-38.545065075
 30
0.0
 10
15.2700326169
 20
-38.3371693166
 30
0.0
 10
15.2647923382
 20
-38.1292867103
 30
0.0
 10
15.2547920181
 20
-37.9215609685
 30
0.0
 10
15.2426027891
 20
-37.7486621338
 30
0.0
 10
15.2310306058
 20
-37.6104804295
 30
0.0
 10
15.2230944167
 20
-37.5241722784
 30
0.0
 10
15.2163287554
 20
-37.4551649341
 30
0.0
 10
15.2109906014
 20
-37.4034335424
 30
0.0
 10
15.2059587004
 20
-37.3516768549
 30
0.0
 10
15.2011758342
 20
-37.3173033918
 30
0.0
 10
15.1999674105
 20
-37.3000104019
 30
0.0
  0
SPLINE
  5
36D
100
AcDbEntity
  8
0
100
AcDbSpline
 62
250
  6
CONTINUOUS
 70
0
 71
3
 72
11
 73
7
 74
0
 42
0.0000001
 43
0.0000001
 44
0.0000000001
 40
0.0
 40
0.0
 40
0.0
 40
0.0
 40
0.2500127933
 40
0.5000098703
 40
0.7500026971
 40
1.0
 40
1.0
 40
1.0
 40
1.0
 10
-18.895509823
 20
-37.2999756031
 30
0.0
 10
-18.835112605
 20
-38.0821924159
 30
0.0
 10
-18.6853178138
 20
-39.6444874909
 30
0.0
 10
-18.373620173
 20
-41.9778355176
 30
0.0
 10
-17.9697905952
 20
-44.2970531503
 30
0.0
 10
-17.6337951254
 20
-45.8302798077
 30
0.0
 10
-17.4480934704
 20
-46.5924803008
 30
0.0
  0
SPLINE
  5
36E
100
AcDbEntity
  8
0
100
AcDbSpline
 62
250
  6
CONTINUOUS
 70
0
 71
3
 72
27
 73
23
 74
0
 42
0.0000001
 43
0.0000001
 44
0.0000000001
 40
0.0
 40
0.0
 40
0.0
 40
0.0
 40
0.0078560488
 40
0.0157139208
 40
0.023570295
 40
0.031426831
 40
0.0471395738
 40
0.0628517215
 40
0.0942731942
 40
0.1256900541
 40
0.1571009319
 40
0.1885060466
 40
0.2199024615
 40
0.2512902003
 40
0.2826677575
 40
0.3140339997
 40
0.3767288212
 40
0.5019406705
 40
0.626898038
 40
0.7515719293
 40
0.875942115
 40
1.0
 40
1.0
 40
1.0
 40
1.0
 10
-15.1999662395
 20
-37.3
 30
0.0
 10
-15.2011746275
 20
-37.3172915212
 30
0.0
 10
-15.2053699306
 20
-37.35172905
 30
0.0
 10
-15.2113740698
 20
-37.4033813768
 30
0.0
 10
-15.2162237548
 20
-37.4551659254
 30
0.0
 10
-15.2230916159
 20
-37.5241617799
 30
0.0
 10
-15.2310378019
 20
-37.6104699824
 30
0.0
 10
-15.242594387
 20
-37.7486530241
 30
0.0
 10
-15.2547967539
 20
-37.9215519631
 30
0.0
 10
-15.2647809736
 20
-38.1292771035
 30
0.0
 10
-15.2701158806
 20
-38.3371638528
 30
0.0
 10
-15.2674185654
 20
-38.5450540955
 30
0.0
 10
-15.2603808701
 20
-38.7527670765
 30
0.0
 10
-15.2488995677
 20
-38.9602193708
 30
0.0
 10
-15.2354835363
 20
-39.1674809125
 30
0.0
 10
-15.2140758146
 20
-39.4434305751
 30
0.0
 10
-15.166612447
 20
-39.9249543026
 30
0.0
 10
-15.0723797853
 20
-40.6091378414
 30
0.0
 10
-14.9164653527
 20
-41.4217592495
 30
0.0
 10
-14.7177004039
 20
-42.2230726466
 30
0.0
 10
-14.4775001237
 20
-43.0108541534
 30
0.0
 10
-14.2905601428
 20
-43.5263979844
 30
0.0
 10
-14.1914934329
 20
-43.7815647328
 30
0.0
  0
SPLINE
  5
36F
100
AcDbEntity
  8
0
100
AcDbSpline
 62
250
  6
CONTINUOUS
 70
0
 71
3
 72
9
 73
5
 74
0
 42
0.0000001
 43
0.0000001
 44
0.0000000001
 40
0.0
 40
0.0
 40
0.0
 40
0.0
 40
0.5215733908
 40
1.0
 40
1.0
 40
1.0
 40
1.0
 10
-14.1914934688
 20
-43.7815647111
 30
0.0
 10
-14.0828565965
 20
-43.7314358495
 30
0.0
 10
-13.871554964
 20
-43.6417848327
 30
0.0
 10
-13.6550060029
 20
-43.565348687
 30
0.0
 10
-13.5499234867
 20
-43.5336923509
 30
0.0
  0
SPLINE
  5
370
100
AcDbEntity
  8
0
100
AcDbSpline
 62
250
  6
CONTINUOUS
 70
0
 71
3
 72
14
 73
10
 74
0
 42
0.0000001
 43
0.0000001
 44
0.0000000001
 40
0.0
 40
0.0
 40
0.0
 40
0.0
 40
0.0625040126
 40
0.1250115598
 40
0.2500233646
 40
0.3750347465
 40
0.5000451142
 40
0.7500331156
 40
1.0
 40
1.0
 40
1.0
 40
1.0
 10
13.7206646361
 20
-58.0959684268
 30
0.0
 10
13.8404102516
 20
-57.8725794783
 30
0.0
 10
14.0780726488
 20
-57.4247921444
 30
0.0
 10
14.5400572921
 20
-56.5222622745
 30
0.0
 10
15.0933309861
 20
-55.3818634095
 30
0.0
 10
15.7176367846
 20
-53.9948862882
 30
0.0
 10
16.4966773786
 20
-52.1226804623
 30
0.0
 10
17.369512734
 20
-49.7419125337
 30
0.0
 10
17.9581002037
 20
-47.8005518387
 30
0.0
 10
18.2245080624
 20
-46.8225493917
 30
0.0
  0
LINE
  5
371
100
AcDbEntity
  8
0
100
AcDbLine
 62
250
  6
CONTINUOUS
 10
-6.05
 20
-61.2899266605
 11
-6.0067525543
 21
-61.2922084971
  0
SPLINE
  5
372
100
AcDbEntity
  8
0
100
AcDbSpline
 62
250
  6
CONTINUOUS
 70
0
 71
3
 72
23
 73
19
 74
0
 42
0.0000001
 43
0.0000001
 44
0.0000000001
 40
0.0
 40
0.0
 40
0.0
 40
0.0
 40
0.0064677418
 40
0.0092687577
 40
0.0126152519
 40
0.0209935947
 40
0.0316569613
 40
0.0446151878
 40
0.0598545884
 40
0.0773487405
 40
0.1189576326
 40
0.1690774818
 40
0.2272436594
 40
0.2929064938
 40
0.444140548
 40
0.6169614548
 40
0.8046756119
 40
1.0
 40
1.0
 40
1.0
 40
1.0
 10
4.4998052187
 20
-64.3
 30
0.0
 10
4.5015092359
 20
-64.2903965657
 30
0.0
 10
4.4864757325
 20
-64.2785212455
 30
0.0
 10
4.4702186289
 20
-64.270554654
 30
0.0
 10
4.4496686812
 20
-64.262139805
 30
0.0
 10
4.4174725987
 20
-64.2524016355
 30
0.0
 10
4.3704403407
 20
-64.2412200084
 30
0.0
 10
4.3128965227
 20
-64.2301868331
 30
0.0
 10
4.2448527723
 20
-64.2192373638
 30
0.0
 10
4.1337841608
 20
-64.2039668322
 30
0.0
 10
3.9700297296
 20
-64.1859921068
 30
0.0
 10
3.7448308608
 20
-64.1663588482
 30
0.0
 10
3.4831540947
 20
-64.147892627
 30
0.0
 10
3.0690380446
 20
-64.1239649762
 30
0.0
 10
2.4818207637
 20
-64.0993231452
 30
0.0
 10
1.7103409754
 20
-64.078050501
 30
0.0
 10
0.8721828289
 20
-64.0649162214
 30
0.0
 10
0.2945511137
 20
-64.0619707337
 30
0.0
 10
-0.0000006912
 20
-64.0619707443
 30
0.0
  0
SPLINE
  5
373
100
AcDbEntity
  8
0
100
AcDbSpline
 62
250
  6
CONTINUOUS
 70
0
 71
3
 72
12
 73
8
 74
0
 42
0.0000001
 43
0.0000001
 44
0.0000000001
 40
0.0
 40
0.0
 40
0.0
 40
0.0
 40
0.3048063466
 40
0.5866196859
 40
0.8242552677
 40
0.9207951374
 40
1.0
 40
1.0
 40
1.0
 40
1.0
 10
-0.0000006912
 20
-64.0619707443
 30
0.0
 10
-0.4082153408
 20
-64.061970778
 30
0.0
 10
-1.1938685062
 20
-64.0674464336
 30
0.0
 10
-2.297521579
 20
-64.0918482202
 30
0.0
 10
-3.1219176426
 20
-64.1251481121
 30
0.0
 10
-3.6744351752
 20
-64.1604270203
 30
0.0
 10
-3.9089959191
 20
-64.180334915
 30
0.0
 10
-4.0145083725
 20
-64.1912529379
 30
0.0
  0
SPLINE
  5
374
100
AcDbEntity
  8
0
100
AcDbSpline
 62
250
  6
CONTINUOUS
 70
0
 71
3
 72
18
 73
14
 74
0
 42
0.0000001
 43
0.0000001
 44
0.0000000001
 40
0.0
 40
0.0
 40
0.0
 40
0.0
 40
0.2264323086
 40
0.4240937308
 40
0.5924175284
 40
0.7309438776
 40
0.8395102968
 40
0.8826306237
 40
0.9184265633
 40
0.947144425
 40
0.9693012959
 40
0.9860535615
 40
1.0
 40
1.0
 40
1.0
 40
1.0
 10
-4.0145083725
 20
-64.1912529379
 30
0.0
 10
-4.0526369096
 20
-64.1951983323
 30
0.0
 10
-4.1240001047
 20
-64.203087326
 30
0.0
 10
-4.2234589689
 20
-64.2160123612
 30
0.0
 10
-4.3078650971
 20
-64.2291540168
 30
0.0
 10
-4.376931016
 20
-64.2424656952
 30
0.0
 10
-4.4246697438
 20
-64.2542947638
 30
0.0
 10
-4.4548318444
 20
-64.2642309851
 30
0.0
 10
-4.471723094
 20
-64.2711084087
 30
0.0
 10
-4.4847307948
 20
-64.2779911742
 30
0.0
 10
-4.493914604
 20
-64.2849173271
 30
0.0
 10
-4.499500796
 20
-64.2922009711
 30
0.0
 10
-4.5002178375
 20
-64.2976753805
 30
0.0
 10
-4.4998052187
 20
-64.3
 30
0.0
  0
SPLINE
  5
375
100
AcDbEntity
  8
0
100
AcDbSpline
 62
250
  6
CONTINUOUS
 70
0
 71
3
 72
9
 73
5
 74
0
 42
0.0000001
 43
0.0000001
 44
0.0000000001
 40
0.0
 40
0.0
 40
0.0
 40
0.0
 40
0.5215734361
 40
1.0
 40
1.0
 40
1.0
 40
1.0
 10
14.1914933153
 20
-43.7815642187
 30
0.0
 10
14.0828554119
 20
-43.7314368337
 30
0.0
 10
13.8715530495
 20
-43.6417863019
 30
0.0
 10
13.6550040873
 20
-43.5653483997
 30
0.0
 10
13.5499214732
 20
-43.5336914471
 30
0.0
  0
SPLINE
  5
376
100
AcDbEntity
  8
0
100
AcDbSpline
 62
250
  6
CONTINUOUS
 70
0
 71
3
 72
17
 73
13
 74
0
 42
0.0000001
 43
0.0000001
 44
0.0000000001
 40
0.0
 40
0.0
 40
0.0
 40
0.0
 40
0.0141281979
 40
0.0363699139
 40
0.0666325897
 40
0.1047129994
 40
0.2029629681
 40
0.3278500404
 40
0.4752108417
 40
0.6400631508
 40
0.8170417919
 40
1.0
 40
1.0
 40
1.0
 40
1.0
 10
-19.887034559
 20
-37.3808310001
 30
0.0
 10
-19.8824337638
 20
-37.3817220424
 30
0.0
 10
-19.870315893
 20
-37.3823119601
 30
0.0
 10
-19.8482392774
 20
-37.3819176787
 30
0.0
 10
-19.8182417984
 20
-37.3798428856
 30
0.0
 10
-19.7632415227
 20
-37.3745795613
 30
0.0
 10
-19.6770112455
 20
-37.3660507503
 30
0.0
 10
-19.5545542082
 20
-37.3557019574
 30
0.0
 10
-19.4101178311
 20
-37.3431014601
 30
0.0
 10
-19.2484371141
 20
-37.3293586593
 30
0.0
 10
-19.0749731613
 20
-37.3148317805
 30
0.0
 10
-18.9559903465
 20
-37.3049783306
 30
0.0
 10
-18.8955081356
 20
-37.2999999969
 30
0.0
  0
SPLINE
  5
377
100
AcDbEntity
  8
0
100
AcDbSpline
 62
250
  6
CONTINUOUS
 70
0
 71
3
 72
14
 73
10
 74
0
 42
0.0000001
 43
0.0000001
 44
0.0000000001
 40
0.0
 40
0.0
 40
0.0
 40
0.0
 40
0.0371229647
 40
0.1043827317
 40
0.2001135523
 40
0.3219429455
 40
0.4667200006
 40
0.6308195581
 40
1.0
 40
1.0
 40
1.0
 40
1.0
 10
18.2245079942
 20
-46.8225493733
 30
0.0
 10
18.215488216
 20
-46.8181788866
 30
0.0
 10
18.1888019799
 20
-46.8088561589
 30
0.0
 10
18.1376139359
 20
-46.791737728
 30
0.0
 10
18.0641046721
 20
-46.7690539385
 30
0.0
 10
17.9704182929
 20
-46.7409285658
 30
0.0
 10
17.858793698
 20
-46.7083151457
 30
0.0
 10
17.6828195895
 20
-46.6578480219
 30
0.0
 10
17.5441628992
 20
-46.6190476053
 30
0.0
 10
17.4480934778
 20
-46.5924803019
 30
0.0
  0
ELLIPSE
  5
378
100
AcDbEntity
  8
0
100
AcDbEllipse
 62
7
  6
CONTINUOUS
 10
0.0
 20
-64.3
 30
0.0
 11
4.0
 21
0.0
 31
0.0
 40
0.0524077793
 41
-0.0
 42
3.1415926536
  0
ENDSEC
  0
SECTION
  2
OBJECTS
  0
DICTIONARY
  5
C
100
AcDbDictionary
280
0
281
1
  3
ACAD_GROUP
350
D
  3
ACAD_MLINESTYLE
350
17
  3
ACAD_LAYOUT
350
1A
  3
ACAD_PLOTSETTINGS
350
19
  3
ACAD_PLOTSTYLENAME
350
E
  0
DICTIONARY
  5
D
102
{ACAD_REACTORS
330
C
102
}
100
AcDbDictionary
280
0
281
1
  0
ACDBDICTIONARYWDFLT
  5
E
102
{ACAD_REACTORS
330
C
102
}
100
AcDbDictionary
281
1
  3
Normal
350
F
100
AcDbDictionaryWithDefault
340
F
  0
DICTIONARY
  5
17
102
{ACAD_REACTORS
330
C
102
}
100
AcDbDictionary
280
0
281
1
  3
Standard
350
18
  0
DICTIONARY
  5
19
102
{ACAD_REACTORS
330
C
102
}
100
AcDbDictionary
281
1
  0
DICTIONARY
  5
1A
102
{ACAD_REACTORS
330
C
102
}
100
AcDbDictionary
281
1
  3
Model
350
379
  3
Layout1
350
37A
  0
ACDBPLACEHOLDER
  5
F
102
{ACAD_REACTORS
330
E
102
}
  0
MLINESTYLE
  5
18
102
{ACAD_REACTORS
330
17
102
}
100
AcDbMlineStyle
  2
STANDARD
 70
0
  3

 62
256
 51
90.0
 52
90.0
 71
2
 49
0.5
 62
256
  6
BYLAYER
 49
-0.5
 62
256
  6
BYLAYER
  0
LAYOUT
  5
379
102
{ACAD_REACTORS
330
1A
102
}
100
AcDbPlotSettings
  1

  2
none_device
  4
ISO_A4_(297.00_x_210.00_MM)
  6

 40
0.0
 41
0.0
 42
0.0
 43
0.0
 44
297.0
 45
210.0
 46
0.0
 47
0.0
 48
0.0
 49
0.0
140
0.0
141
0.0
142
1.0
143
1.0
 70
1024
 72
1
 73
0
 74
0
  7

 75
0
147
1.0
148
0.0
149
0.0
100
AcDbLayout
  1
Model
 70
0
 71
0
 10
0.0
 20
0.0
 11
297.0
 21
210.0
 12
0.0
 22
0.0
 32
0.0
 14
0.0
 24
0.0
 34
0.0
 15
0.0
 25
0.0
 35
0.0
146
0.0
 13
0.0
 23
0.0
 33
0.0
 16
1.0
 26
0.0
 36
0.0
 17
0.0
 27
1.0
 37
0.0
 76
0
330
21B
345
0
346
0
  0
LAYOUT
  5
37A
102
{ACAD_REACTORS
330
1A
102
}
100
AcDbPlotSettings
  1

  2
none_device
  4
ISO_A4_(297.00_x_210.00_MM)
  6

 40
0.0
 41
0.0
 42
0.0
 43
0.0
 44
297.0
 45
210.0
 46
0.0
 47
0.0
 48
0.0
 49
0.0
140
0.0
141
0.0
142
1.0
143
1.0
 70
0
 72
1
 73
0
 74
0
  7

 75
0
147
1.0
148
0.0
149
0.0
100
AcDbLayout
  1
Layout1
 70
0
 71
1
 10
0.0
 20
0.0
 11
297.0
 21
210.0
 12
0.0
 22
0.0
 32
0.0
 14
0.0
 24
0.0
 34
0.0
 15
0.0
 25
0.0
 35
0.0
146
0.0
 13
0.0
 23
0.0
 33
0.0
 16
1.0
 26
0.0
 36
0.0
 17
0.0
 27
1.0
 37
0.0
 76
0
330
21C
345
0
346
0
  0
ENDSEC
  0
EOF
