  0
SECTION
  2
HEADER
  9
$ACADVER
  1
AC1024
  9
$DWGCODEPAGE
  3
ANSI_1252
  9
$EXTMAX
 10
558.8
 20
431.8
 30
0.0
  9
$EXTMIN
 10
0.0
 20
0.0
 30
0.0
  9
$LIMMIN
 10
0.0
 20
0.0
  9
$LIMMAX
 10
558.8
 20
431.8
  9
$VIEWCTR
 10
279.4
 20
215.9
  9
$VIEWSIZE
 40
431.8
  9
$CLAYER
  8
0
  9
$LTSCALE
 40
30.734
  9
$CELTYPE
  6
BYLAYER
  9
$DIMSCALE
 40
1.0
  9
$DIMASZ
 40
3.0
  9
$DIMEXO
 40
0.5
  9
$DIMDLI
 40
21.2344
  9
$DIMEXE
 40
1.5
  9
$DIMCEN
 40
5.0292
  9
$DIMLFAC
 40
1.0
  9
$DIMBLK
  1
_FILLED
  9
$DIMALT
 70
0
  9
$DIMALTF
 40
0.0393700787
  9
$DIMTXT
 40
3.0
  9
$DIMTOL
 70
1
  9
$DIMLIM
 70
0
  9
$DIMTFAC
 40
1.0
  9
$DIMTP
 40
0.01
  9
$DIMTM
 40
0.01
  9
$DIMGAP
 40
0.625
  9
$DIMDSEP
 70
44
  9
$AUNITS
 70
0
  9
$PDMODE
 70
3
  9
$PDSIZE
 40
3.0
  9
$HANDSEED
  5
3B9
  9
$TILEMODE
 70
1
  9
$MEASUREMENT
 70
1
  9
$INSUNITS
 70
4
  0
ENDSEC
  0
SECTION
  2
CLASSES
  0
CLASS
  1
ACDBDICTIONARYWDFLT
  2
AcDbDictionaryWithDefault
  3
AutoCAD 2000
 90
0
 91
1
280
0
281
0
  0
CLASS
  1
ACDBPLACEHOLDER
  2
AcDbPlaceHolder
  3
AutoCAD 2000
 90
0
 91
1
280
0
281
0
  0
CLASS
  1
LAYOUT
  2
AcDbLayout
  3
AutoCAD 2000
 90
0
 91
0
280
0
281
0
  0
ENDSEC
  0
SECTION
  2
TABLES
  0
TABLE
  2
VPORT
  5
8
100
AcDbSymbolTable
 70
2
  0
VPORT
  5
1F4
100
AcDbSymbolTableRecord
100
AcDbViewportTableRecord
  2
*ACTIVE
 70
0
 10
0.0
 20
0.0
 11
1.0
 21
1.0
 12
279.4
 22
215.9
 13
0.0
 23
0.0
 14
1.0
 24
1.0
 15
0.0
 25
0.0
 16
0.0
 26
0.0
 36
1.0
 17
0.0
 27
0.0
 37
0.0
 40
431.8
 41
1.2941176471
 42
50.0
 43
0.0
 44
0.0
 50
0.0
 51
0.0
 71
0
 72
100
 73
1
 74
1
 75
0
 76
0
 77
0
 78
0
  0
ENDTAB
  0
TABLE
  2
LTYPE
  5
5
100
AcDbSymbolTable
 70
6
  0
LTYPE
  5
14
100
AcDbSymbolTableRecord
100
AcDbLinetypeTableRecord
  2
BYBLOCK
 70
0
  3

 72
65
 73
0
 40
0.0
  0
LTYPE
  5
15
100
AcDbSymbolTableRecord
100
AcDbLinetypeTableRecord
  2
BYLAYER
 70
0
  3

 72
65
 73
0
 40
0.0
  0
LTYPE
  5
16
100
AcDbSymbolTableRecord
100
AcDbLinetypeTableRecord
  2
CONTINUOUS
 70
64
  3
Solid line
 72
65
 73
0
 40
0.0
  0
LTYPE
  5
1F5
100
AcDbSymbolTableRecord
100
AcDbLinetypeTableRecord
  2
CENTER
 70
64
  3
____ _ ____ _ ____ _ ____ _ ____ _ ____ _ ____
 72
65
 73
4
 40
0.6
 49
0.375
 74
0
 49
-0.075
 74
0
 49
0.075
 74
0
 49
-0.075
 74
0
  0
LTYPE
  5
1F6
100
AcDbSymbolTableRecord
100
AcDbLinetypeTableRecord
  2
HIDDEN
 70
64
  3
- - - - - - - - - - - - - - - - - - - -
 72
65
 73
2
 40
0.2
 49
0.1
 74
0
 49
-0.1
 74
0
  0
LTYPE
  5
1F7
100
AcDbSymbolTableRecord
100
AcDbLinetypeTableRecord
  2
PHANTOM
 70
64
  3
_____ _ _ _____ _ _ _____ _ _ _____
 72
65
 73
6
 40
0.8
 49
0.45
 74
0
 49
-0.05
 74
0
 49
0.1
 74
0
 49
-0.05
 74
0
 49
0.1
 74
0
 49
-0.05
 74
0
  0
LTYPE
  5
1F8
100
AcDbSymbolTableRecord
100
AcDbLinetypeTableRecord
  2
DOT
 70
64
  3
. . . . . . . . . . . . . . . . . . . .
 72
65
 73
2
 40
0.2
 49
0.1
 74
0
 49
-0.1
 74
0
  0
LTYPE
  5
1F9
100
AcDbSymbolTableRecord
100
AcDbLinetypeTableRecord
  2
DASHED
 70
64
  3
- - - - - - - - - - - - - - - - - - - -
 72
65
 73
2
 40
0.2
 49
0.1
 74
0
 49
-0.1
 74
0
  0
ENDTAB
  0
TABLE
  2
LAYER
  5
2
100
AcDbSymbolTable
 70
36
  0
LAYER
  5
10
100
AcDbSymbolTableRecord
100
AcDbLayerTableRecord
  2
0
 70
0
 62
7
  6
CONTINUOUS
370
-3
390
F
  0
LAYER
  5
1FA
100
AcDbSymbolTableRecord
100
AcDbLayerTableRecord
  2
DEFAULT_1
 70
0
 62
7
  6
CENTER
370
-3
390
F
  0
LAYER
  5
1FB
100
AcDbSymbolTableRecord
100
AcDbLayerTableRecord
  2
DEFAULT_2
 70
0
 62
7
  6
HIDDEN
370
-3
390
F
  0
LAYER
  5
1FC
100
AcDbSymbolTableRecord
100
AcDbLayerTableRecord
  2
DEFAULT_3
 70
0
 62
7
  6
PHANTOM
370
-3
390
F
  0
LAYER
  5
1FD
100
AcDbSymbolTableRecord
100
AcDbLayerTableRecord
  2
ASSI
 70
0
 62
7
  6
CONTINUOUS
370
-3
390
F
  0
LAYER
  5
1FE
100
AcDbSymbolTableRecord
100
AcDbLayerTableRecord
  2
COLOR5
 70
0
 62
7
  6
CONTINUOUS
370
-3
390
F
  0
LAYER
  5
1FF
100
AcDbSymbolTableRecord
100
AcDbLayerTableRecord
  2
COORDINATE
 70
0
 62
7
  6
CONTINUOUS
370
-3
390
F
  0
LAYER
  5
200
100
AcDbSymbolTableRecord
100
AcDbLayerTableRecord
  2
COORD_ORIGINE
 70
0
 62
7
  6
CONTINUOUS
370
-3
390
F
  0
LAYER
  5
201
100
AcDbSymbolTableRecord
100
AcDbLayerTableRecord
  2
COSMETICHE
 70
0
 62
7
  6
CONTINUOUS
370
-3
390
F
  0
LAYER
  5
202
100
AcDbSymbolTableRecord
100
AcDbLayerTableRecord
  2
CURVE
 70
0
 62
7
  6
CONTINUOUS
370
-3
390
F
  0
LAYER
  5
203
100
AcDbSymbolTableRecord
100
AcDbLayerTableRecord
  2
DRAFT
 70
0
 62
7
  6
CONTINUOUS
370
-3
390
F
  0
LAYER
  5
204
100
AcDbSymbolTableRecord
100
AcDbLayerTableRecord
  2
IGES
 70
0
 62
7
  6
CONTINUOUS
370
-3
390
F
  0
LAYER
  5
205
100
AcDbSymbolTableRecord
100
AcDbLayerTableRecord
  2
INTF_1
 70
0
 62
7
  6
CONTINUOUS
370
-3
390
F
  0
LAYER
  5
206
100
AcDbSymbolTableRecord
100
AcDbLayerTableRecord
  2
INTF_11
 70
0
 62
7
  6
CONTINUOUS
370
-3
390
F
  0
LAYER
  5
207
100
AcDbSymbolTableRecord
100
AcDbLayerTableRecord
  2
INTF_2
 70
0
 62
7
  6
CONTINUOUS
370
-3
390
F
  0
LAYER
  5
208
100
AcDbSymbolTableRecord
100
AcDbLayerTableRecord
  2
INTF_3
 70
0
 62
7
  6
CONTINUOUS
370
-3
390
F
  0
LAYER
  5
209
100
AcDbSymbolTableRecord
100
AcDbLayerTableRecord
  2
INTF_YELLOW
 70
0
 62
7
  6
CONTINUOUS
370
-3
390
F
  0
LAYER
  5
20A
100
AcDbSymbolTableRecord
100
AcDbLayerTableRecord
  2
NOTE
 70
0
 62
7
  6
CONTINUOUS
370
-3
390
F
  0
LAYER
  5
20B
100
AcDbSymbolTableRecord
100
AcDbLayerTableRecord
  2
PIANI
 70
0
 62
7
  6
CONTINUOUS
370
-3
390
F
  0
LAYER
  5
20C
100
AcDbSymbolTableRecord
100
AcDbLayerTableRecord
  2
PIANI_ORIGINE
 70
0
 62
7
  6
CONTINUOUS
370
-3
390
F
  0
LAYER
  5
20D
100
AcDbSymbolTableRecord
100
AcDbLayerTableRecord
  2
PUNTI
 70
0
 62
7
  6
CONTINUOUS
370
-3
390
F
  0
LAYER
  5
20E
100
AcDbSymbolTableRecord
100
AcDbLayerTableRecord
  2
RACCORDO
 70
0
 62
7
  6
CONTINUOUS
370
-3
390
F
  0
LAYER
  5
20F
100
AcDbSymbolTableRecord
100
AcDbLayerTableRecord
  2
SMUSSO
 70
0
 62
7
  6
CONTINUOUS
370
-3
390
F
  0
LAYER
  5
210
100
AcDbSymbolTableRecord
100
AcDbLayerTableRecord
  2
SNAPLINE
 70
0
 62
7
  6
CONTINUOUS
370
-3
390
F
  0
LAYER
  5
211
100
AcDbSymbolTableRecord
100
AcDbLayerTableRecord
  2
SUPERFICI
 70
0
 62
7
  6
CONTINUOUS
370
-3
390
F
  0
LAYER
  5
212
100
AcDbSymbolTableRecord
100
AcDbLayerTableRecord
  2
TRASH
 70
0
 62
7
  6
CONTINUOUS
370
-3
390
F
  0
LAYER
  5
213
100
AcDbSymbolTableRecord
100
AcDbLayerTableRecord
  2
XSEC_DATUMS
 70
0
 62
7
  6
CONTINUOUS
370
-3
390
F
  0
ENDTAB
  0
TABLE
  2
STYLE
  5
3
100
AcDbSymbolTable
 70
1
  0
STYLE
  5
11
100
AcDbSymbolTableRecord
100
AcDbTextStyleTableRecord
  2
STANDARD
 70
0
 40
0.0
 41
0.8
 50
0.0
 71
0
 42
0.2
  3
txt
  4

  0
STYLE
  5
214
100
AcDbSymbolTableRecord
100
AcDbTextStyleTableRecord
  2
TEXTSTYLE_1
 70
0
 40
0.0
 41
0.8
 50
0.0
 71
0
 42
0.2
  3
gdt
  4

  0
ENDTAB
  0
TABLE
  2
VIEW
  5
6
100
AcDbSymbolTable
 70
0
  0
ENDTAB
  0
TABLE
  2
UCS
  5
7
100
AcDbSymbolTable
 70
0
  0
ENDTAB
  0
TABLE
  2
APPID
  5
9
100
AcDbSymbolTable
 70
1
  0
APPID
  5
215
100
AcDbSymbolTableRecord
100
AcDbRegAppTableRecord
  2
ACAD
 70
0
  0
ENDTAB
  0
TABLE
  2
BLOCK_RECORD
  5
1
100
AcDbSymbolTable
 70
0
  0
BLOCK_RECORD
  5
216
100
AcDbSymbolTableRecord
100
AcDbBlockTableRecord
  2
*Model_Space
  0
BLOCK_RECORD
  5
217
100
AcDbSymbolTableRecord
100
AcDbBlockTableRecord
  2
*Paper_Space
  0
BLOCK_RECORD
  5
218
100
AcDbSymbolTableRecord
100
AcDbBlockTableRecord
  2
_FILLED
  0
ENDTAB
  0
TABLE
  2
DIMSTYLE
  5
A
100
AcDbSymbolTable
 70
1
100
AcDbDimStyleTable
 71
0
  0
DIMSTYLE
105
219
100
AcDbSymbolTableRecord
100
AcDbDimStyleTableRecord
  2
STANDARD
 70
0
  3

  4

 40
1.0
 41
3.0
 42
0.5
 43
0.38
 44
1.5
 45
0.0
 46
0.0
 47
0.01
 48
0.01
140
3.0
141
0.09
142
0.0
143
25.4
144
1.0
145
0.0
146
1.0
147
0.625
 71
1
 72
0
 73
0
 74
0
 75
0
 76
0
 77
1
 78
8
 79
2
170
0
171
1
172
0
173
0
174
0
175
0
176
0
177
0
178
0
270
2
179
2
271
2
272
2
273
2
274
2
275
0
280
0
281
0
282
0
283
1
284
8
285
0
286
0
287
3
288
0
340
11
278
44
341
218
342
218
343
218
344
218
  0
ENDTAB
  0
ENDSEC
  0
SECTION
  2
BLOCKS
  0
BLOCK
  5
20
100
AcDbEntity
  8
0
100
AcDbBlockBegin
  2
*Model_Space
 70
0
 10
0.0
 20
0.0
 30
0.0
  3
*Model_Space
  1

  0
ENDBLK
  5
21
100
AcDbEntity
  8
0
100
AcDbBlockEnd
  0
BLOCK
  5
1C
100
AcDbEntity
  8
0
100
AcDbBlockBegin
  2
*Paper_Space
 70
0
 10
0.0
 20
0.0
 30
0.0
  3
*Paper_Space
  1

  0
ENDBLK
  5
1D
100
AcDbEntity
  8
0
100
AcDbBlockEnd
  0
BLOCK
  5
21A
100
AcDbEntity
  8
0
100
AcDbBlockBegin
  2
_FILLED
 70
64
 10
0.0
 20
0.0
  3
_FILLED
  1

  0
SOLID
  5
21B
100
AcDbEntity
  8
0
  6
BYBLOCK
 62
0
100
AcDbTrace
 10
0.0
 20
0.0
 11
-1.0
 21
0.3166666667
 12
-1.0
 22
-0.3166666667
 13
-1.0
 23
-0.3166666667
  0
ENDBLK
  5
21C
100
AcDbEntity
  8
0
  6
BYBLOCK
 62
0
100
AcDbBlockEnd
  0
ENDSEC
  0
SECTION
  2
ENTITIES
  0
LINE
  5
21D
100
AcDbEntity
  8
DRAFT
100
AcDbLine
 62
7
  6
CONTINUOUS
 10
-7.6718171695
 20
20.570884973
 11
-7.65
 21
20.5927021425
  0
LINE
  5
21E
100
AcDbEntity
  8
RACCORDO
100
AcDbLine
 62
250
  6
CONTINUOUS
 10
-10.10639984
 20
-18.10082991
 11
-10.5961359821
 21
-18.1169081887
  0
LINE
  5
21F
100
AcDbEntity
  8
0
100
AcDbLine
 62
7
  6
CONTINUOUS
 10
7.5707541195
 20
-18.0072978575
 11
9.25
 21
-18.0072978575
  0
LINE
  5
220
100
AcDbEntity
  8
0
100
AcDbLine
 62
7
  6
CONTINUOUS
 10
-7.5707541195
 20
-18.0072978575
 11
-10.0767913472
 21
-18.0072978575
  0
LINE
  5
221
100
AcDbEntity
  8
0
100
AcDbLine
 62
7
  6
CONTINUOUS
 10
-8.6602947271
 20
-17.9072978575
 11
-9.8999057384
 21
-17.9072978575
  0
LINE
  5
222
100
AcDbEntity
  8
0
100
AcDbLine
 62
7
  6
CONTINUOUS
 10
8.6602947271
 20
-17.9072978575
 11
9.4
 21
-17.9072978575
  0
LINE
  5
223
100
AcDbEntity
  8
0
100
AcDbLine
 62
7
  6
CONTINUOUS
 10
9.4
 20
-17.7022647907
 11
9.25
 21
-17.7022647907
  0
LINE
  5
224
100
AcDbEntity
  8
RACCORDO
100
AcDbLine
 62
7
  6
CONTINUOUS
 10
9.2130439266
 20
-16.4074336835
 11
9.25
 21
-16.4074380587
  0
LINE
  5
225
100
AcDbEntity
  8
RACCORDO
100
AcDbLine
 62
250
  6
CONTINUOUS
 10
10.10639984
 20
-18.10082991
 11
10.5961359821
 21
-18.1169081887
  0
LINE
  5
226
100
AcDbEntity
  8
DRAFT
100
AcDbLine
 62
7
  6
CONTINUOUS
 10
-8.6587267447
 20
14.614519312
 11
-8.6708848374
 21
14.5962819158
  0
LINE
  5
227
100
AcDbEntity
  8
DRAFT
100
AcDbLine
 62
7
  6
CONTINUOUS
 10
-8.6708848374
 20
-14.4037180842
 11
-8.8062833599
 21
-14.4039264331
  0
LINE
  5
228
100
AcDbEntity
  8
0
100
AcDbLine
 62
7
  6
CONTINUOUS
 10
-9.15
 20
-14.4075596635
 11
-8.8205872211
 21
-14.4075596635
  0
LINE
  5
229
100
AcDbEntity
  8
0
100
AcDbLine
 62
7
  6
CONTINUOUS
 10
9.15
 20
-14.4075596635
 11
8.8205872211
 21
-14.4075596635
  0
LINE
  5
22A
100
AcDbEntity
  8
DRAFT
100
AcDbLine
 62
7
  6
CONTINUOUS
 10
-8.65
 20
-14.4072978575
 11
-7.65
 21
-14.4072978575
  0
LINE
  5
22B
100
AcDbEntity
  8
DRAFT
100
AcDbLine
 62
7
  6
CONTINUOUS
 10
8.65
 20
-14.4072978575
 11
7.65
 21
-14.4072978575
  0
LINE
  5
22C
100
AcDbEntity
  8
DRAFT
100
AcDbLine
 62
7
  6
CONTINUOUS
 10
7.6718171695
 20
-14.385480688
 11
8.6587267447
 21
-14.385480688
  0
LINE
  5
22D
100
AcDbEntity
  8
DRAFT
100
AcDbLine
 62
7
  6
CONTINUOUS
 10
-7.6718171695
 20
-14.385480688
 11
-8.6587267447
 21
-14.385480688
  0
LINE
  5
22E
100
AcDbEntity
  8
RACCORDO
100
AcDbLine
 62
7
  6
CONTINUOUS
 10
8.2
 20
-14.3072978575
 11
9.25
 21
-14.3072978575
  0
LINE
  5
22F
100
AcDbEntity
  8
RACCORDO
100
AcDbLine
 62
7
  6
CONTINUOUS
 10
-8.2
 20
-14.3072978575
 11
-9.6141428429
 21
-14.3072978575
  0
LINE
  5
230
100
AcDbEntity
  8
RACCORDO
100
AcDbLine
 62
250
  6
CONTINUOUS
 10
3.6
 20
-12.9072978575
 11
3.75
 21
-12.9072978575
  0
LINE
  5
231
100
AcDbEntity
  8
RACCORDO
100
AcDbLine
 62
250
  6
CONTINUOUS
 10
-3.6
 20
-12.9072978575
 11
-3.75
 21
-12.9072978567
  0
LINE
  5
232
100
AcDbEntity
  8
RACCORDO
100
AcDbLine
 62
250
  6
CONTINUOUS
 10
3.775
 20
-12.9072978575
 11
4.0933735166
 21
-12.9072978575
  0
LINE
  5
233
100
AcDbEntity
  8
RACCORDO
100
AcDbLine
 62
250
  6
CONTINUOUS
 10
-3.775
 20
-12.9072978575
 11
-4.0933735166
 21
-12.9072978575
  0
LINE
  5
234
100
AcDbEntity
  8
DRAFT
100
AcDbLine
 62
7
  6
CONTINUOUS
 10
8.6708848374
 20
-14.4037180842
 11
8.8062833599
 21
-14.4039264331
  0
LINE
  5
235
100
AcDbEntity
  8
DRAFT
100
AcDbLine
 62
7
  6
CONTINUOUS
 10
-7.65
 20
-14.4072978575
 11
-7.6718171695
 21
-14.385480688
  0
LINE
  5
236
100
AcDbEntity
  8
0
100
AcDbLine
 62
7
  6
CONTINUOUS
 10
-10.0767913472
 20
-18.0072978575
 11
-10.0767913472
 21
33.0047633166
  0
LINE
  5
237
100
AcDbEntity
  8
0
100
AcDbLine
 62
7
  6
CONTINUOUS
 10
-9.8999057384
 20
-17.9072978575
 11
-9.8999057384
 21
33.006306974
  0
LINE
  5
238
100
AcDbEntity
  8
0
100
AcDbLine
 62
7
  6
CONTINUOUS
 10
-9.6141428429
 20
-14.3072978575
 11
-9.6141428429
 21
-8.5072978575
  0
LINE
  5
239
100
AcDbEntity
  8
0
100
AcDbLine
 62
7
  6
CONTINUOUS
 10
-9.6141428429
 20
14.6927021425
 11
-9.6141428429
 21
20.4927021425
  0
LINE
  5
23A
100
AcDbEntity
  8
DRAFT
100
AcDbLine
 62
7
  6
CONTINUOUS
 10
-8.6587267447
 20
-8.429115027
 11
-8.6708848374
 21
-8.4108776308
  0
LINE
  5
23B
100
AcDbEntity
  8
0
100
AcDbLine
 62
7
  6
CONTINUOUS
 10
-9.4
 20
-17.9072978575
 11
-9.4
 21
-14.3072978575
  0
LINE
  5
23C
100
AcDbEntity
  8
0
100
AcDbLine
 62
7
  6
CONTINUOUS
 10
-9.4
 20
-8.5072978575
 11
-9.4
 21
14.6927021425
  0
LINE
  5
23D
100
AcDbEntity
  8
DRAFT
100
AcDbLine
 62
7
  6
CONTINUOUS
 10
-9.4
 20
20.4927021425
 11
-9.4
 21
33.0106695853
  0
LINE
  5
23E
100
AcDbEntity
  8
0
100
AcDbLine
 62
7
  6
CONTINUOUS
 10
-9.15
 20
-14.4051307015
 11
-9.15
 21
-17.9072978575
  0
LINE
  5
23F
100
AcDbEntity
  8
0
100
AcDbLine
 62
7
  6
CONTINUOUS
 10
-9.15
 20
-8.4094650135
 11
-9.15
 21
14.5948692985
  0
LINE
  5
240
100
AcDbEntity
  8
0
100
AcDbLine
 62
7
  6
CONTINUOUS
 10
-9.15
 20
20.5905349865
 11
-9.15
 21
32.7731771016
  0
LINE
  5
241
100
AcDbEntity
  8
DRAFT
100
AcDbLine
 62
7
  6
CONTINUOUS
 10
-9.0087267447
 20
20.5898630374
 11
-9.0087267447
 21
20.4927021425
  0
LINE
  5
242
100
AcDbEntity
  8
DRAFT
100
AcDbLine
 62
7
  6
CONTINUOUS
 10
-9.0087267447
 20
-8.4101369626
 11
-9.0087267447
 21
-8.5072978575
  0
LINE
  5
243
100
AcDbEntity
  8
DRAFT
100
AcDbLine
 62
7
  6
CONTINUOUS
 10
-9.0087267447
 20
-14.3072978575
 11
-9.0087267447
 21
-14.4044587524
  0
LINE
  5
244
100
AcDbEntity
  8
0
100
AcDbLine
 62
7
  6
CONTINUOUS
 10
-8.8205872211
 20
-17.9072978575
 11
-8.8205872211
 21
-14.4075596635
  0
LINE
  5
245
100
AcDbEntity
  8
0
100
AcDbLine
 62
7
  6
CONTINUOUS
 10
-8.8205872211
 20
-8.4070360515
 11
-8.8205872211
 21
14.5924403365
  0
LINE
  5
246
100
AcDbEntity
  8
0
100
AcDbLine
 62
7
  6
CONTINUOUS
 10
-8.8205872211
 20
20.5929639485
 11
-8.8205872211
 21
32.7846804494
  0
LINE
  5
247
100
AcDbEntity
  8
DRAFT
100
AcDbLine
 62
250
  6
CONTINUOUS
 10
-8.65
 20
-17.9096964284
 11
-8.65
 21
-14.4072978575
  0
LINE
  5
248
100
AcDbEntity
  8
DRAFT
100
AcDbLine
 62
250
  6
CONTINUOUS
 10
-8.65
 20
-8.4072978575
 11
-8.65
 21
14.5927021425
  0
LINE
  5
249
100
AcDbEntity
  8
DRAFT
100
AcDbLine
 62
250
  6
CONTINUOUS
 10
-8.65
 20
20.5927021425
 11
-8.65
 21
32.7906374864
  0
LINE
  5
24A
100
AcDbEntity
  8
RACCORDO
100
AcDbLine
 62
250
  6
CONTINUOUS
 10
-8.55
 20
20.4927021425
 11
-8.55
 21
14.6927021425
  0
LINE
  5
24B
100
AcDbEntity
  8
RACCORDO
100
AcDbLine
 62
250
  6
CONTINUOUS
 10
-8.55
 20
-8.5072978575
 11
-8.55
 21
-14.3072978575
  0
LINE
  5
24C
100
AcDbEntity
  8
RACCORDO
100
AcDbLine
 62
7
  6
CONTINUOUS
 10
-8.2
 20
20.4927021425
 11
-8.2
 21
14.6927021425
  0
LINE
  5
24D
100
AcDbEntity
  8
RACCORDO
100
AcDbLine
 62
7
  6
CONTINUOUS
 10
-8.2
 20
-8.5072978575
 11
-8.2
 21
-14.3072978575
  0
LINE
  5
24E
100
AcDbEntity
  8
DRAFT
100
AcDbLine
 62
7
  6
CONTINUOUS
 10
-7.6718171695
 20
20.570884973
 11
-7.6718171695
 21
14.614519312
  0
LINE
  5
24F
100
AcDbEntity
  8
DRAFT
100
AcDbLine
 62
7
  6
CONTINUOUS
 10
-7.6718171695
 20
-8.429115027
 11
-7.6718171695
 21
-14.385480688
  0
LINE
  5
250
100
AcDbEntity
  8
DRAFT
100
AcDbLine
 62
7
  6
CONTINUOUS
 10
-7.65
 20
20.5927021425
 11
-7.65
 21
14.5927021425
  0
LINE
  5
251
100
AcDbEntity
  8
DRAFT
100
AcDbLine
 62
7
  6
CONTINUOUS
 10
-7.65
 20
-8.4072978575
 11
-7.65
 21
-14.4072978575
  0
LINE
  5
252
100
AcDbEntity
  8
DRAFT
100
AcDbLine
 62
7
  6
CONTINUOUS
 10
-6.9
 20
33.0324867547
 11
-6.9
 21
32.851748833
  0
LINE
  5
253
100
AcDbEntity
  8
RACCORDO
100
AcDbLine
 62
7
  6
CONTINUOUS
 10
-9.2486025543
 20
22.7447536767
 11
-9.2483910353
 21
24.3763993692
  0
LINE
  5
254
100
AcDbEntity
  8
DRAFT
100
AcDbLine
 62
7
  6
CONTINUOUS
 10
8.6708848374
 20
-8.4108776308
 11
8.8062833599
 21
-8.410669282
  0
LINE
  5
255
100
AcDbEntity
  8
RACCORDO
100
AcDbLine
 62
7
  6
CONTINUOUS
 10
8.2
 20
-8.5072978575
 11
9.25
 21
-8.5072978575
  0
LINE
  5
256
100
AcDbEntity
  8
RACCORDO
100
AcDbLine
 62
7
  6
CONTINUOUS
 10
-8.2
 20
-8.5072978575
 11
-9.6141428429
 21
-8.5072978575
  0
LINE
  5
257
100
AcDbEntity
  8
DRAFT
100
AcDbLine
 62
7
  6
CONTINUOUS
 10
7.6718171695
 20
-8.429115027
 11
8.6587267447
 21
-8.429115027
  0
LINE
  5
258
100
AcDbEntity
  8
DRAFT
100
AcDbLine
 62
7
  6
CONTINUOUS
 10
-7.6718171695
 20
-8.429115027
 11
-8.6587267447
 21
-8.429115027
  0
LINE
  5
259
100
AcDbEntity
  8
DRAFT
100
AcDbLine
 62
7
  6
CONTINUOUS
 10
-8.65
 20
-8.4072978575
 11
-7.65
 21
-8.4072978575
  0
LINE
  5
25A
100
AcDbEntity
  8
DRAFT
100
AcDbLine
 62
7
  6
CONTINUOUS
 10
8.65
 20
-8.4072978575
 11
7.65
 21
-8.4072978575
  0
LINE
  5
25B
100
AcDbEntity
  8
0
100
AcDbLine
 62
7
  6
CONTINUOUS
 10
3.775
 20
-8.4072978575
 11
3.75
 21
-8.4072978575
  0
LINE
  5
25C
100
AcDbEntity
  8
0
100
AcDbLine
 62
7
  6
CONTINUOUS
 10
-3.75
 20
-8.4072978575
 11
-3.775
 21
-8.4072978575
  0
LINE
  5
25D
100
AcDbEntity
  8
0
100
AcDbLine
 62
7
  6
CONTINUOUS
 10
8.8205872211
 20
-8.4070360515
 11
9.15
 21
-8.4070360515
  0
LINE
  5
25E
100
AcDbEntity
  8
0
100
AcDbLine
 62
7
  6
CONTINUOUS
 10
-8.8205872211
 20
-8.4070360515
 11
-9.15
 21
-8.4070360515
  0
LINE
  5
25F
100
AcDbEntity
  8
ASSI
100
AcDbLine
 62
7
  6
CONTINUOUS
 10
-9.15
 20
-6.9072978575
 11
-9.4
 21
-6.9072978575
  0
LINE
  5
260
100
AcDbEntity
  8
RACCORDO
100
AcDbLine
 62
7
  6
CONTINUOUS
 10
9.15
 20
-6.9072978575
 11
9.25
 21
-6.9072978575
  0
LINE
  5
261
100
AcDbEntity
  8
DRAFT
100
AcDbLine
 62
7
  6
CONTINUOUS
 10
-8.6708848374
 20
-8.4108776308
 11
-8.8062833599
 21
-8.410669282
  0
LINE
  5
262
100
AcDbEntity
  8
RACCORDO
100
AcDbLine
 62
250
  6
CONTINUOUS
 10
-7.0008
 20
34.3222206518
 11
-7.04
 21
34.8106501349
  0
LINE
  5
263
100
AcDbEntity
  8
ASSI
100
AcDbLine
 62
7
  6
CONTINUOUS
 10
-6.05
 20
34.8844870657
 11
-6.05
 21
35.7942663208
  0
LINE
  5
264
100
AcDbEntity
  8
ASSI
100
AcDbLine
 62
7
  6
CONTINUOUS
 10
-5.3
 20
36.7229751018
 11
-5.3
 21
37.2927021425
  0
LINE
  5
265
100
AcDbEntity
  8
RACCORDO
100
AcDbLine
 62
250
  6
CONTINUOUS
 10
-4.0933735166
 20
-12.9072978575
 11
-4.0933735166
 21
13.0927021425
  0
LINE
  5
266
100
AcDbEntity
  8
RACCORDO
100
AcDbLine
 62
250
  6
CONTINUOUS
 10
-3.793419208
 20
-12.9072978575
 11
-3.793419208
 21
13.0927021425
  0
LINE
  5
267
100
AcDbEntity
  8
0
100
AcDbLine
 62
7
  6
CONTINUOUS
 10
-3.775
 20
-12.9072978575
 11
-3.775
 21
13.0927021425
  0
LINE
  5
268
100
AcDbEntity
  8
RACCORDO
100
AcDbLine
 62
7
  6
CONTINUOUS
 10
-3.75
 20
13.0927021425
 11
-3.75
 21
-12.9072978575
  0
LINE
  5
269
100
AcDbEntity
  8
RACCORDO
100
AcDbLine
 62
250
  6
CONTINUOUS
 10
-3.6
 20
13.0927021425
 11
-3.6
 21
-12.9072978575
  0
LINE
  5
26A
100
AcDbEntity
  8
RACCORDO
100
AcDbLine
 62
7
  6
CONTINUOUS
 10
-3.4
 20
32.9739715262
 11
-3.4
 21
38.0927021425
  0
LINE
  5
26B
100
AcDbEntity
  8
0
100
AcDbLine
 62
7
  6
CONTINUOUS
 10
-1.323272
 20
29.8020221425
 11
-1.224282
 21
30.7637031425
  0
LINE
  5
26C
100
AcDbEntity
  8
0
100
AcDbLine
 62
7
  6
CONTINUOUS
 10
-1.4772261335
 20
30.4721661414
 11
-1.527833
 21
30.0928081425
  0
LINE
  5
26D
100
AcDbEntity
  8
0
100
AcDbLine
 62
7
  6
CONTINUOUS
 10
1.382654
 20
29.7524691425
 11
1.830713
 21
31.5722611425
  0
LINE
  5
26E
100
AcDbEntity
  8
0
100
AcDbLine
 62
7
  6
CONTINUOUS
 10
1.599701
 20
31.5722611425
 11
1.151264
 21
29.7524691425
  0
LINE
  5
26F
100
AcDbEntity
  8
RACCORDO
100
AcDbLine
 62
250
  6
CONTINUOUS
 10
9.5764919632
 20
33.6414362512
 11
9.7837464322
 21
34.0854470451
  0
LINE
  5
270
100
AcDbEntity
  8
DRAFT
100
AcDbLine
 62
7
  6
CONTINUOUS
 10
8.6587267447
 20
20.570884973
 11
8.6708848374
 21
20.5891223692
  0
LINE
  5
271
100
AcDbEntity
  8
DRAFT
100
AcDbLine
 62
7
  6
CONTINUOUS
 10
7.65
 20
14.5927021425
 11
7.6718171695
 21
14.614519312
  0
LINE
  5
272
100
AcDbEntity
  8
ASSI
100
AcDbLine
 62
250
  6
CONTINUOUS
 10
-9.15
 20
-5.4072978575
 11
-9.4
 21
-5.4072978575
  0
LINE
  5
273
100
AcDbEntity
  8
RACCORDO
100
AcDbLine
 62
250
  6
CONTINUOUS
 10
9.1703419274
 20
-5.4072978575
 11
9.25
 21
-5.4072978575
  0
LINE
  5
274
100
AcDbEntity
  8
0
100
AcDbLine
 62
7
  6
CONTINUOUS
 10
3.775
 20
-3.4072978575
 11
3.75
 21
-3.4072978575
  0
LINE
  5
275
100
AcDbEntity
  8
0
100
AcDbLine
 62
7
  6
CONTINUOUS
 10
-3.75
 20
-3.4072978575
 11
-3.775
 21
-3.4072978575
  0
LINE
  5
276
100
AcDbEntity
  8
RACCORDO
100
AcDbLine
 62
250
  6
CONTINUOUS
 10
9.1703419274
 20
-5.4072978575
 11
9.15
 21
-5.4069743096
  0
LINE
  5
277
100
AcDbEntity
  8
0
100
AcDbLine
 62
7
  6
CONTINUOUS
 10
-2.112106
 20
30.0928081425
 11
-2.112106
 21
29.8020221425
  0
LINE
  5
278
100
AcDbEntity
  8
0
100
AcDbLine
 62
7
  6
CONTINUOUS
 10
-0.738329
 20
31.5535891425
 11
-0.738329
 21
31.2477891425
  0
LINE
  5
279
100
AcDbEntity
  8
RACCORDO
100
AcDbLine
 62
7
  6
CONTINUOUS
 10
-0.0
 20
-20.9072978575
 11
-0.0
 21
-18.9072978575
  0
LINE
  5
27A
100
AcDbEntity
  8
RACCORDO
100
AcDbLine
 62
250
  6
CONTINUOUS
 10
-5.5314
 20
-20.0281837631
 11
-5.6
 21
-20.5133579999
  0
LINE
  5
27B
100
AcDbEntity
  8
RACCORDO
100
AcDbLine
 62
250
  6
CONTINUOUS
 10
-9.6395686533
 20
-18.8081686497
 11
-9.8469007443
 21
-19.2521432031
  0
LINE
  5
27C
100
AcDbEntity
  8
DRAFT
100
AcDbLine
 62
7
  6
CONTINUOUS
 10
7.6718171695
 20
-8.429115027
 11
7.65
 21
-8.4072978575
  0
LINE
  5
27D
100
AcDbEntity
  8
DRAFT
100
AcDbLine
 62
7
  6
CONTINUOUS
 10
8.6587267447
 20
-14.385480688
 11
8.6708848374
 21
-14.4037180842
  0
LINE
  5
27E
100
AcDbEntity
  8
RACCORDO
100
AcDbLine
 62
7
  6
CONTINUOUS
 10
3.4
 20
32.9739715262
 11
3.4
 21
38.0917985909
  0
LINE
  5
27F
100
AcDbEntity
  8
RACCORDO
100
AcDbLine
 62
250
  6
CONTINUOUS
 10
3.6
 20
-12.9072978575
 11
3.6
 21
13.0927021425
  0
LINE
  5
280
100
AcDbEntity
  8
RACCORDO
100
AcDbLine
 62
7
  6
CONTINUOUS
 10
3.75
 20
-12.9072978575
 11
3.75
 21
13.0927021425
  0
LINE
  5
281
100
AcDbEntity
  8
DRAFT
100
AcDbLine
 62
7
  6
CONTINUOUS
 10
-8.6587267447
 20
-14.385480688
 11
-8.6708848374
 21
-14.4037180842
  0
LINE
  5
282
100
AcDbEntity
  8
DRAFT
100
AcDbLine
 62
7
  6
CONTINUOUS
 10
-7.6718171695
 20
-8.429115027
 11
-7.65
 21
-8.4072978575
  0
LINE
  5
283
100
AcDbEntity
  8
0
100
AcDbLine
 62
7
  6
CONTINUOUS
 10
-3.775
 20
3.5927021425
 11
-3.75
 21
3.5927021425
  0
LINE
  5
284
100
AcDbEntity
  8
0
100
AcDbLine
 62
7
  6
CONTINUOUS
 10
3.775
 20
3.5927021425
 11
3.75
 21
3.5927021425
  0
LINE
  5
285
100
AcDbEntity
  8
RACCORDO
100
AcDbLine
 62
250
  6
CONTINUOUS
 10
9.6395686533
 20
-18.8081686497
 11
9.8469007443
 21
-19.2521432031
  0
LINE
  5
286
100
AcDbEntity
  8
RACCORDO
100
AcDbLine
 62
250
  6
CONTINUOUS
 10
5.5314
 20
-20.0281837631
 11
5.6
 21
-20.5133579999
  0
LINE
  5
287
100
AcDbEntity
  8
0
100
AcDbLine
 62
7
  6
CONTINUOUS
 10
3.775
 20
-12.9072978575
 11
3.775
 21
13.0927021425
  0
LINE
  5
288
100
AcDbEntity
  8
RACCORDO
100
AcDbLine
 62
250
  6
CONTINUOUS
 10
3.793419208
 20
13.0927021425
 11
3.793419208
 21
-12.9072978575
  0
LINE
  5
289
100
AcDbEntity
  8
0
100
AcDbLine
 62
7
  6
CONTINUOUS
 10
4.067613
 20
31.5852661425
 11
4.067613
 21
29.8343641425
  0
LINE
  5
28A
100
AcDbEntity
  8
RACCORDO
100
AcDbLine
 62
250
  6
CONTINUOUS
 10
4.0933735166
 20
13.0927021425
 11
4.0933735166
 21
-12.9072978575
  0
LINE
  5
28B
100
AcDbEntity
  8
0
100
AcDbLine
 62
7
  6
CONTINUOUS
 10
4.350603
 20
30.3794681425
 11
4.350603
 21
31.5852661425
  0
LINE
  5
28C
100
AcDbEntity
  8
0
100
AcDbLine
 62
7
  6
CONTINUOUS
 10
4.692353
 20
30.1375243544
 11
4.692353
 21
30.3794681425
  0
LINE
  5
28D
100
AcDbEntity
  8
ASSI
100
AcDbLine
 62
7
  6
CONTINUOUS
 10
5.3
 20
36.7230055347
 11
5.3
 21
37.2927021425
  0
LINE
  5
28E
100
AcDbEntity
  8
ASSI
100
AcDbLine
 62
7
  6
CONTINUOUS
 10
6.05
 20
34.8844870657
 11
6.05
 21
35.7942967537
  0
LINE
  5
28F
100
AcDbEntity
  8
RACCORDO
100
AcDbLine
 62
250
  6
CONTINUOUS
 10
7.0008
 20
34.3222206518
 11
7.04
 21
34.8106501349
  0
LINE
  5
290
100
AcDbEntity
  8
DRAFT
100
AcDbLine
 62
7
  6
CONTINUOUS
 10
-7.65
 20
14.5927021425
 11
-7.6718171695
 21
14.614519312
  0
LINE
  5
291
100
AcDbEntity
  8
DRAFT
100
AcDbLine
 62
7
  6
CONTINUOUS
 10
-8.6587267447
 20
20.570884973
 11
-8.6708848374
 21
20.5891223692
  0
LINE
  5
292
100
AcDbEntity
  8
RACCORDO
100
AcDbLine
 62
250
  6
CONTINUOUS
 10
-9.5764919632
 20
33.6414362512
 11
-9.7837464322
 21
34.0854470451
  0
LINE
  5
293
100
AcDbEntity
  8
0
100
AcDbLine
 62
7
  6
CONTINUOUS
 10
-3.848164936
 20
30.882497948
 11
-3.916824473
 21
31.0910155421
  0
LINE
  5
294
100
AcDbEntity
  8
0
100
AcDbLine
 62
7
  6
CONTINUOUS
 10
-4.7261986979
 20
30.8824972202
 11
-4.6579038498
 21
30.6739766839
  0
LINE
  5
295
100
AcDbEntity
  8
DRAFT
100
AcDbLine
 62
7
  6
CONTINUOUS
 10
7.65
 20
20.5927021425
 11
7.65
 21
14.5927021425
  0
LINE
  5
296
100
AcDbEntity
  8
DRAFT
100
AcDbLine
 62
7
  6
CONTINUOUS
 10
7.65
 20
-8.4072978575
 11
7.65
 21
-14.4072978575
  0
LINE
  5
297
100
AcDbEntity
  8
DRAFT
100
AcDbLine
 62
7
  6
CONTINUOUS
 10
7.6718171695
 20
20.570884973
 11
7.6718171695
 21
14.614519312
  0
LINE
  5
298
100
AcDbEntity
  8
DRAFT
100
AcDbLine
 62
7
  6
CONTINUOUS
 10
7.6718171695
 20
-8.429115027
 11
7.6718171695
 21
-14.385480688
  0
LINE
  5
299
100
AcDbEntity
  8
RACCORDO
100
AcDbLine
 62
7
  6
CONTINUOUS
 10
8.2
 20
-8.5072978575
 11
8.2
 21
-14.3072978575
  0
LINE
  5
29A
100
AcDbEntity
  8
RACCORDO
100
AcDbLine
 62
7
  6
CONTINUOUS
 10
8.2
 20
14.6927021425
 11
8.2
 21
20.4927021425
  0
LINE
  5
29B
100
AcDbEntity
  8
RACCORDO
100
AcDbLine
 62
250
  6
CONTINUOUS
 10
8.55
 20
-8.5072978575
 11
8.55
 21
-14.3072978575
  0
LINE
  5
29C
100
AcDbEntity
  8
RACCORDO
100
AcDbLine
 62
250
  6
CONTINUOUS
 10
8.55
 20
14.6927021425
 11
8.55
 21
20.4927021425
  0
LINE
  5
29D
100
AcDbEntity
  8
DRAFT
100
AcDbLine
 62
250
  6
CONTINUOUS
 10
8.65
 20
-17.9096964284
 11
8.65
 21
-14.4072978575
  0
LINE
  5
29E
100
AcDbEntity
  8
DRAFT
100
AcDbLine
 62
250
  6
CONTINUOUS
 10
8.65
 20
-8.4072978575
 11
8.65
 21
14.5927021425
  0
LINE
  5
29F
100
AcDbEntity
  8
DRAFT
100
AcDbLine
 62
250
  6
CONTINUOUS
 10
8.65
 20
20.5927021425
 11
8.65
 21
32.7906374864
  0
LINE
  5
2A0
100
AcDbEntity
  8
0
100
AcDbLine
 62
7
  6
CONTINUOUS
 10
8.8205872211
 20
32.7846804494
 11
8.8205872211
 21
20.5929639485
  0
LINE
  5
2A1
100
AcDbEntity
  8
0
100
AcDbLine
 62
7
  6
CONTINUOUS
 10
8.8205872211
 20
14.5924403365
 11
8.8205872211
 21
-8.4070360515
  0
LINE
  5
2A2
100
AcDbEntity
  8
0
100
AcDbLine
 62
7
  6
CONTINUOUS
 10
8.8205872211
 20
-14.4075596635
 11
8.8205872211
 21
-17.9072978575
  0
LINE
  5
2A3
100
AcDbEntity
  8
DRAFT
100
AcDbLine
 62
7
  6
CONTINUOUS
 10
9.0087267447
 20
20.5898630374
 11
9.0087267447
 21
20.4927021425
  0
LINE
  5
2A4
100
AcDbEntity
  8
DRAFT
100
AcDbLine
 62
7
  6
CONTINUOUS
 10
9.0087267447
 20
-8.4101369626
 11
9.0087267447
 21
-8.5072978575
  0
LINE
  5
2A5
100
AcDbEntity
  8
DRAFT
100
AcDbLine
 62
7
  6
CONTINUOUS
 10
9.0087267447
 20
-14.3072978575
 11
9.0087267447
 21
-14.4044587524
  0
LINE
  5
2A6
100
AcDbEntity
  8
0
100
AcDbLine
 62
7
  6
CONTINUOUS
 10
9.15
 20
-17.9072978575
 11
9.15
 21
-14.4051307015
  0
LINE
  5
2A7
100
AcDbEntity
  8
0
100
AcDbLine
 62
7
  6
CONTINUOUS
 10
9.15
 20
-8.4094650135
 11
9.15
 21
14.5948692985
  0
LINE
  5
2A8
100
AcDbEntity
  8
0
100
AcDbLine
 62
7
  6
CONTINUOUS
 10
9.15
 20
20.5905349865
 11
9.15
 21
32.7731771016
  0
LINE
  5
2A9
100
AcDbEntity
  8
0
100
AcDbLine
 62
7
  6
CONTINUOUS
 10
9.25
 20
-18.0072978575
 11
9.25
 21
-17.9072978575
  0
LINE
  5
2AA
100
AcDbEntity
  8
0
100
AcDbLine
 62
7
  6
CONTINUOUS
 10
9.25
 20
-17.7022647907
 11
9.25
 21
32.493145476
  0
LINE
  5
2AB
100
AcDbEntity
  8
0
100
AcDbLine
 62
7
  6
CONTINUOUS
 10
9.4
 20
-17.9072978575
 11
9.4
 21
-17.7022647907
  0
LINE
  5
2AC
100
AcDbEntity
  8
0
100
AcDbLine
 62
7
  6
CONTINUOUS
 10
9.4
 20
32.493145476
 11
9.4
 21
33.0106695853
  0
LINE
  5
2AD
100
AcDbEntity
  8
0
100
AcDbLine
 62
7
  6
CONTINUOUS
 10
-3.775
 20
8.5927021425
 11
-3.75
 21
8.5927021425
  0
LINE
  5
2AE
100
AcDbEntity
  8
0
100
AcDbLine
 62
7
  6
CONTINUOUS
 10
3.775
 20
8.5927021425
 11
3.75
 21
8.5927021425
  0
LINE
  5
2AF
100
AcDbEntity
  8
DRAFT
100
AcDbLine
 62
7
  6
CONTINUOUS
 10
8.6587267447
 20
-8.429115027
 11
8.6708848374
 21
-8.4108776308
  0
LINE
  5
2B0
100
AcDbEntity
  8
RACCORDO
100
AcDbLine
 62
250
  6
CONTINUOUS
 10
-3.6
 20
13.0927021425
 11
-3.75
 21
13.0927021425
  0
LINE
  5
2B1
100
AcDbEntity
  8
RACCORDO
100
AcDbLine
 62
250
  6
CONTINUOUS
 10
3.6
 20
13.0927021425
 11
3.75
 21
13.0927021417
  0
LINE
  5
2B2
100
AcDbEntity
  8
RACCORDO
100
AcDbLine
 62
250
  6
CONTINUOUS
 10
-3.775
 20
13.0927021425
 11
-4.0933735166
 21
13.0927021425
  0
LINE
  5
2B3
100
AcDbEntity
  8
RACCORDO
100
AcDbLine
 62
250
  6
CONTINUOUS
 10
3.775
 20
13.0927021425
 11
4.0933735166
 21
13.0927021425
  0
LINE
  5
2B4
100
AcDbEntity
  8
DRAFT
100
AcDbLine
 62
7
  6
CONTINUOUS
 10
7.65
 20
-14.4072978575
 11
7.6718171695
 21
-14.385480688
  0
LINE
  5
2B5
100
AcDbEntity
  8
DRAFT
100
AcDbLine
 62
7
  6
CONTINUOUS
 10
-8.6708848374
 20
14.5962819158
 11
-8.8062833599
 21
14.5960735669
  0
LINE
  5
2B6
100
AcDbEntity
  8
0
100
AcDbLine
 62
7
  6
CONTINUOUS
 10
-9.15
 20
14.5924403365
 11
-8.8205872211
 21
14.5924403365
  0
LINE
  5
2B7
100
AcDbEntity
  8
0
100
AcDbLine
 62
7
  6
CONTINUOUS
 10
9.15
 20
14.5924403365
 11
8.8205872211
 21
14.5924403365
  0
LINE
  5
2B8
100
AcDbEntity
  8
DRAFT
100
AcDbLine
 62
7
  6
CONTINUOUS
 10
-8.65
 20
14.5927021425
 11
-7.65
 21
14.5927021425
  0
LINE
  5
2B9
100
AcDbEntity
  8
DRAFT
100
AcDbLine
 62
7
  6
CONTINUOUS
 10
8.65
 20
14.5927021425
 11
7.65
 21
14.5927021425
  0
LINE
  5
2BA
100
AcDbEntity
  8
DRAFT
100
AcDbLine
 62
7
  6
CONTINUOUS
 10
7.6718171695
 20
14.614519312
 11
8.6587267447
 21
14.614519312
  0
LINE
  5
2BB
100
AcDbEntity
  8
DRAFT
100
AcDbLine
 62
7
  6
CONTINUOUS
 10
-7.6718171695
 20
14.614519312
 11
-8.6587267447
 21
14.614519312
  0
LINE
  5
2BC
100
AcDbEntity
  8
RACCORDO
100
AcDbLine
 62
7
  6
CONTINUOUS
 10
8.2
 20
14.6927021425
 11
9.25
 21
14.6927021425
  0
LINE
  5
2BD
100
AcDbEntity
  8
RACCORDO
100
AcDbLine
 62
7
  6
CONTINUOUS
 10
-8.2
 20
14.6927021425
 11
-9.6141428429
 21
14.6927021425
  0
LINE
  5
2BE
100
AcDbEntity
  8
DRAFT
100
AcDbLine
 62
7
  6
CONTINUOUS
 10
8.6708848374
 20
14.5962819158
 11
8.8062833599
 21
14.5960735669
  0
LINE
  5
2BF
100
AcDbEntity
  8
DRAFT
100
AcDbLine
 62
7
  6
CONTINUOUS
 10
8.6587267447
 20
14.614519312
 11
8.6708848374
 21
14.5962819158
  0
LINE
  5
2C0
100
AcDbEntity
  8
0
100
AcDbLine
 62
7
  6
CONTINUOUS
 10
-10.9237153363
 20
17.1201581425
 11
-10.9501913781
 21
17.1201581425
  0
LINE
  5
2C1
100
AcDbEntity
  8
0
100
AcDbLine
 62
7
  6
CONTINUOUS
 10
10.9190081453
 20
17.4514541425
 11
10.945423316
 21
17.4514541425
  0
LINE
  5
2C2
100
AcDbEntity
  8
0
100
AcDbLine
 62
7
  6
CONTINUOUS
 10
-10.9146212688
 20
17.7602061425
 11
-10.9408481112
 21
17.7602061425
  0
LINE
  5
2C3
100
AcDbEntity
  8
0
100
AcDbLine
 62
7
  6
CONTINUOUS
 10
10.9087654695
 20
18.1723421425
 11
10.9345426533
 21
18.1723421425
  0
LINE
  5
2C4
100
AcDbEntity
  8
0
100
AcDbLine
 62
7
  6
CONTINUOUS
 10
10.8981934901
 20
18.8137261425
 11
10.916487357
 21
18.8137261425
  0
LINE
  5
2C5
100
AcDbEntity
  8
0
100
AcDbLine
 62
7
  6
CONTINUOUS
 10
-10.8912017738
 20
19.2143421425
 11
-10.9175903023
 21
19.2143421425
  0
LINE
  5
2C6
100
AcDbEntity
  8
0
100
AcDbLine
 62
7
  6
CONTINUOUS
 10
10.888443315
 20
19.3723981425
 11
10.9148922951
 21
19.3723981425
  0
LINE
  5
2C7
100
AcDbEntity
  8
0
100
AcDbLine
 62
7
  6
CONTINUOUS
 10
-10.8800318099
 20
19.8543661425
 11
-10.906459665
 21
19.8543661425
  0
LINE
  5
2C8
100
AcDbEntity
  8
0
100
AcDbLine
 62
7
  6
CONTINUOUS
 10
10.8772732115
 20
20.0124301425
 11
10.9036266147
 21
20.0124301425
  0
LINE
  5
2C9
100
AcDbEntity
  8
DRAFT
100
AcDbLine
 62
7
  6
CONTINUOUS
 10
7.6718171695
 20
20.570884973
 11
7.65
 21
20.5927021425
  0
LINE
  5
2CA
100
AcDbEntity
  8
DRAFT
100
AcDbLine
 62
7
  6
CONTINUOUS
 10
8.6708848374
 20
20.5891223692
 11
8.8062833599
 21
20.589330718
  0
LINE
  5
2CB
100
AcDbEntity
  8
0
100
AcDbLine
 62
7
  6
CONTINUOUS
 10
10.8698266154
 20
20.4391101425
 11
10.895812774
 21
20.4391101425
  0
LINE
  5
2CC
100
AcDbEntity
  8
RACCORDO
100
AcDbLine
 62
7
  6
CONTINUOUS
 10
8.2
 20
20.4927021425
 11
9.25
 21
20.4927021425
  0
LINE
  5
2CD
100
AcDbEntity
  8
RACCORDO
100
AcDbLine
 62
7
  6
CONTINUOUS
 10
-8.2
 20
20.4927021425
 11
-9.6141428429
 21
20.4927021425
  0
LINE
  5
2CE
100
AcDbEntity
  8
0
100
AcDbLine
 62
7
  6
CONTINUOUS
 10
-10.8688621252
 20
20.4943741425
 11
-10.8947829484
 21
20.4943741425
  0
LINE
  5
2CF
100
AcDbEntity
  8
DRAFT
100
AcDbLine
 62
7
  6
CONTINUOUS
 10
-8.6587267447
 20
20.570884973
 11
-7.6718171695
 21
20.570884973
  0
LINE
  5
2D0
100
AcDbEntity
  8
DRAFT
100
AcDbLine
 62
7
  6
CONTINUOUS
 10
8.6587267447
 20
20.570884973
 11
7.6718171695
 21
20.570884973
  0
LINE
  5
2D1
100
AcDbEntity
  8
DRAFT
100
AcDbLine
 62
7
  6
CONTINUOUS
 10
-8.65
 20
20.5927021425
 11
-7.65
 21
20.5927021425
  0
LINE
  5
2D2
100
AcDbEntity
  8
DRAFT
100
AcDbLine
 62
7
  6
CONTINUOUS
 10
8.65
 20
20.5927021425
 11
7.65
 21
20.5927021425
  0
LINE
  5
2D3
100
AcDbEntity
  8
0
100
AcDbLine
 62
7
  6
CONTINUOUS
 10
8.8205872211
 20
20.5929639485
 11
9.15
 21
20.5929639485
  0
LINE
  5
2D4
100
AcDbEntity
  8
0
100
AcDbLine
 62
7
  6
CONTINUOUS
 10
-8.8205872211
 20
20.5929639485
 11
-9.15
 21
20.5929639485
  0
LINE
  5
2D5
100
AcDbEntity
  8
0
100
AcDbLine
 62
7
  6
CONTINUOUS
 10
10.8577379299
 20
21.0791421425
 11
10.8836363218
 21
21.0791421425
  0
LINE
  5
2D6
100
AcDbEntity
  8
0
100
AcDbLine
 62
7
  6
CONTINUOUS
 10
-10.8565943086
 20
21.1343981425
 11
-10.8825595054
 21
21.1343981425
  0
LINE
  5
2D7
100
AcDbEntity
  8
0
100
AcDbLine
 62
7
  6
CONTINUOUS
 10
10.8535561868
 20
21.2811901425
 11
10.8761940627
 21
21.2811901425
  0
LINE
  5
2D8
100
AcDbEntity
  8
0
100
AcDbLine
 62
7
  6
CONTINUOUS
 10
-10.8440706038
 20
21.7395021425
 11
-10.8705004211
 21
21.7395021425
  0
LINE
  5
2D9
100
AcDbEntity
  8
0
100
AcDbLine
 62
7
  6
CONTINUOUS
 10
10.8326357153
 20
22.2919981425
 11
10.8555781251
 21
22.2919981425
  0
LINE
  5
2DA
100
AcDbEntity
  8
0
100
AcDbLine
 62
7
  6
CONTINUOUS
 10
-10.8308244986
 20
22.3795101425
 11
-10.8572141326
 21
22.3795101425
  0
LINE
  5
2DB
100
AcDbEntity
  8
0
100
AcDbLine
 62
7
  6
CONTINUOUS
 10
10.8284538066
 20
22.4940541425
 11
10.8547786
 21
22.4940541425
  0
LINE
  5
2DC
100
AcDbEntity
  8
0
100
AcDbLine
 62
7
  6
CONTINUOUS
 10
-10.8183006283
 20
22.9846221425
 11
-10.8441497317
 21
22.9846221425
  0
LINE
  5
2DD
100
AcDbEntity
  8
0
100
AcDbLine
 62
7
  6
CONTINUOUS
 10
10.8152073702
 20
23.1340781425
 11
10.840847725
 21
23.1340781425
  0
LINE
  5
2DE
100
AcDbEntity
  8
0
100
AcDbLine
 62
7
  6
CONTINUOUS
 10
10.8052963333
 20
23.5607581425
 11
10.8312568681
 21
23.5607581425
  0
LINE
  5
2DF
100
AcDbEntity
  8
0
100
AcDbLine
 62
7
  6
CONTINUOUS
 10
-10.8037667535
 20
23.6246461425
 11
-10.8297998925
 21
23.6246461425
  0
LINE
  5
2E0
100
AcDbEntity
  8
DRAFT
100
AcDbLine
 62
7
  6
CONTINUOUS
 10
-8.6708848374
 20
20.5891223692
 11
-8.8062833599
 21
20.589330718
  0
LINE
  5
2E1
100
AcDbEntity
  8
0
100
AcDbLine
 62
7
  6
CONTINUOUS
 10
-10.7935513589
 20
24.0513261425
 11
-10.81992974
 21
24.0513261425
  0
LINE
  5
2E2
100
AcDbEntity
  8
0
100
AcDbLine
 62
7
  6
CONTINUOUS
 10
10.7899731457
 20
24.2007821425
 11
10.8164150076
 21
24.2007821425
  0
LINE
  5
2E3
100
AcDbEntity
  8
0
100
AcDbLine
 62
7
  6
CONTINUOUS
 10
-10.7782281713
 20
24.6913501425
 11
-10.8046688745
 21
24.6913501425
  0
LINE
  5
2E4
100
AcDbEntity
  8
0
100
AcDbLine
 62
7
  6
CONTINUOUS
 10
10.7754858067
 20
24.8058941425
 11
10.8018800015
 21
24.8058941425
  0
LINE
  5
2E5
100
AcDbEntity
  8
0
100
AcDbLine
 62
7
  6
CONTINUOUS
 10
-10.7733906309
 20
24.8934061425
 11
-10.7962522523
 21
24.8934061425
  0
LINE
  5
2E6
100
AcDbEntity
  8
0
100
AcDbLine
 62
7
  6
CONTINUOUS
 10
10.7601630022
 20
25.4459021425
 11
10.7859751435
 21
25.4459021425
  0
LINE
  5
2E7
100
AcDbEntity
  8
0
100
AcDbLine
 62
7
  6
CONTINUOUS
 10
-10.7483963311
 20
25.9042141425
 11
-10.7707643015
 21
25.9042141425
  0
LINE
  5
2E8
100
AcDbEntity
  8
0
100
AcDbLine
 62
7
  6
CONTINUOUS
 10
10.7444055134
 20
26.0510061425
 11
10.7704349044
 21
26.0510061425
  0
LINE
  5
2E9
100
AcDbEntity
  8
0
100
AcDbLine
 62
7
  6
CONTINUOUS
 10
-10.7429032746
 20
26.1062621425
 11
-10.7689914362
 21
26.1062621425
  0
LINE
  5
2EA
100
AcDbEntity
  8
0
100
AcDbLine
 62
7
  6
CONTINUOUS
 10
10.727005252
 20
26.6910301425
 11
10.7534660527
 21
26.6910301425
  0
LINE
  5
2EB
100
AcDbEntity
  8
0
100
AcDbLine
 62
7
  6
CONTINUOUS
 10
-10.7255027958
 20
26.7462941425
 11
-10.7519752046
 21
26.7462941425
  0
LINE
  5
2EC
100
AcDbEntity
  8
0
100
AcDbLine
 62
7
  6
CONTINUOUS
 10
-10.7139026941
 20
27.1729741425
 11
-10.7403274502
 21
27.1729741425
  0
LINE
  5
2ED
100
AcDbEntity
  8
0
100
AcDbLine
 62
7
  6
CONTINUOUS
 10
10.7096054257
 20
27.3310381425
 11
10.7359508953
 21
27.3310381425
  0
LINE
  5
2EE
100
AcDbEntity
  8
0
100
AcDbLine
 62
7
  6
CONTINUOUS
 10
-10.6965022152
 20
27.8130061425
 11
-10.7223998871
 21
27.8130061425
  0
LINE
  5
2EF
100
AcDbEntity
  8
0
100
AcDbLine
 62
7
  6
CONTINUOUS
 10
10.6922051643
 20
27.9710621425
 11
10.7178885559
 21
27.9710621425
  0
LINE
  5
2F0
100
AcDbEntity
  8
0
100
AcDbLine
 62
7
  6
CONTINUOUS
 10
-10.6804027925
 20
28.3716781425
 11
-10.6985101035
 21
28.3716781425
  0
LINE
  5
2F1
100
AcDbEntity
  8
0
100
AcDbLine
 62
7
  6
CONTINUOUS
 10
-10.6608837025
 20
29.0130621425
 11
-10.6873119111
 21
29.0130621425
  0
LINE
  5
2F2
100
AcDbEntity
  8
0
100
AcDbLine
 62
7
  6
CONTINUOUS
 10
10.6483412636
 20
29.4251981425
 11
10.6748181307
 21
29.4251981425
  0
LINE
  5
2F3
100
AcDbEntity
  8
0
100
AcDbLine
 62
7
  6
CONTINUOUS
 10
-10.6389450858
 20
29.7339501425
 11
-10.6653097146
 21
29.7339501425
  0
LINE
  5
2F4
100
AcDbEntity
  8
0
100
AcDbLine
 62
7
  6
CONTINUOUS
 10
1.151264
 20
29.7524691425
 11
1.382654
 21
29.7524691425
  0
LINE
  5
2F5
100
AcDbEntity
  8
0
100
AcDbLine
 62
7
  6
CONTINUOUS
 10
-2.112106
 20
29.8020221425
 11
-1.323272
 21
29.8020221425
  0
LINE
  5
2F6
100
AcDbEntity
  8
0
100
AcDbLine
 62
7
  6
CONTINUOUS
 10
4.067613
 20
29.8343641425
 11
4.3000088432
 21
29.8343641425
  0
LINE
  5
2F7
100
AcDbEntity
  8
0
100
AcDbLine
 62
7
  6
CONTINUOUS
 10
10.6288628318
 20
30.0652461425
 11
10.6549656598
 21
30.0652461425
  0
LINE
  5
2F8
100
AcDbEntity
  8
0
100
AcDbLine
 62
7
  6
CONTINUOUS
 10
-1.527833
 20
30.0928081425
 11
-2.112106
 21
30.0928081425
  0
LINE
  5
2F9
100
AcDbEntity
  8
0
100
AcDbLine
 62
7
  6
CONTINUOUS
 10
2.8422265528
 20
30.2351801425
 11
2.561110101
 21
30.2351801425
  0
LINE
  5
2FA
100
AcDbEntity
  8
RACCORDO
100
AcDbLine
 62
250
  6
CONTINUOUS
 10
10.0433833615
 20
32.9360366965
 11
10.533078306
 21
32.953324303
  0
LINE
  5
2FB
100
AcDbEntity
  8
0
100
AcDbLine
 62
7
  6
CONTINUOUS
 10
-3.4
 20
32.9739715262
 11
-9.15
 21
32.7731771016
  0
LINE
  5
2FC
100
AcDbEntity
  8
0
100
AcDbLine
 62
7
  6
CONTINUOUS
 10
-10.0767913472
 20
33.0047633166
 11
-3.4
 21
33.063030792
  0
LINE
  5
2FD
100
AcDbEntity
  8
0
100
AcDbLine
 62
7
  6
CONTINUOUS
 10
4.692353
 20
30.3794681425
 11
4.350603
 21
30.3794681425
  0
LINE
  5
2FE
100
AcDbEntity
  8
0
100
AcDbLine
 62
7
  6
CONTINUOUS
 10
0.2266078979
 20
30.4216301425
 11
-0.0483211342
 21
30.4216301425
  0
LINE
  5
2FF
100
AcDbEntity
  8
0
100
AcDbLine
 62
7
  6
CONTINUOUS
 10
-1.462858322
 20
31.0548111425
 11
-1.1798076531
 21
31.0548111425
  0
LINE
  5
300
100
AcDbEntity
  8
0
100
AcDbLine
 62
7
  6
CONTINUOUS
 10
-0.738329
 20
31.2477891425
 11
-0.1126987203
 21
31.2477891425
  0
LINE
  5
301
100
AcDbEntity
  8
0
100
AcDbLine
 62
7
  6
CONTINUOUS
 10
0.2424691824
 20
31.5535891425
 11
-0.738329
 21
31.5535891425
  0
LINE
  5
302
100
AcDbEntity
  8
0
100
AcDbLine
 62
7
  6
CONTINUOUS
 10
1.830713
 20
31.5722611425
 11
1.599701
 21
31.5722611425
  0
LINE
  5
303
100
AcDbEntity
  8
0
100
AcDbLine
 62
7
  6
CONTINUOUS
 10
4.350603
 20
31.5852661425
 11
4.067613
 21
31.5852661425
  0
LINE
  5
304
100
AcDbEntity
  8
0
100
AcDbLine
 62
7
  6
CONTINUOUS
 10
9.4
 20
32.493145476
 11
9.25
 21
32.493145476
  0
LINE
  5
305
100
AcDbEntity
  8
DRAFT
100
AcDbLine
 62
7
  6
CONTINUOUS
 10
3.4
 20
33.063030792
 11
9.4
 21
33.0106695853
  0
LINE
  5
306
100
AcDbEntity
  8
0
100
AcDbLine
 62
7
  6
CONTINUOUS
 10
3.4
 20
32.9739715262
 11
9.15
 21
32.7731771016
  0
LINE
  5
307
100
AcDbEntity
  8
0
100
AcDbLine
 62
250
  6
CONTINUOUS
 10
-10.0767913472
 20
32.9372160922
 11
-10.533078306
 21
32.953324303
  0
LINE
  5
308
100
AcDbEntity
  8
0
100
AcDbLine
 62
7
  6
CONTINUOUS
 10
-1.224282
 20
30.7637031425
 11
-1.4766025177
 21
30.7787491734
  0
LINE
  5
309
100
AcDbEntity
  8
RACCORDO
100
AcDbLine
 62
250
  6
CONTINUOUS
 10
3.4
 20
34.5927021425
 11
-3.4
 21
34.5927021425
  0
LINE
  5
30A
100
AcDbEntity
  8
RACCORDO
100
AcDbLine
 62
7
  6
CONTINUOUS
 10
3.4
 20
35.0927021425
 11
-3.4
 21
35.0927021425
  0
LINE
  5
30B
100
AcDbEntity
  8
RACCORDO
100
AcDbLine
 62
250
  6
CONTINUOUS
 10
-6.05
 20
35.7942663208
 11
6.05
 21
35.7942967537
  0
LINE
  5
30C
100
AcDbEntity
  8
RACCORDO
100
AcDbLine
 62
250
  6
CONTINUOUS
 10
5.4184210526
 20
36.5763673062
 11
-5.4184210526
 21
36.5763368732
  0
LINE
  5
30D
100
AcDbEntity
  8
RACCORDO
100
AcDbLine
 62
250
  6
CONTINUOUS
 10
5.3
 20
36.7230055347
 11
-5.3
 21
36.7229751018
  0
LINE
  5
30E
100
AcDbEntity
  8
RACCORDO
100
AcDbLine
 62
250
  6
CONTINUOUS
 10
-5.3
 20
37.2927021425
 11
5.3
 21
37.2927021425
  0
LINE
  5
30F
100
AcDbEntity
  8
RACCORDO
100
AcDbLine
 62
7
  6
CONTINUOUS
 10
-4.5
 20
38.0927021425
 11
4.5
 21
38.0927021425
  0
ARC
  5
310
100
AcDbEntity
  8
RACCORDO
100
AcDbCircle
 62
7
  6
CONTINUOUS
 10
-9.2968360131
 20
-18.0742515308
 40
1.3
100
AcDbArc
 50
181.8803732732
 51
244.9678518567
  0
ARC
  5
311
100
AcDbEntity
  8
RACCORDO
100
AcDbCircle
 62
250
  6
CONTINUOUS
 10
-9.2968360131
 20
-18.0742515308
 40
0.8099999941
100
AcDbArc
 50
181.8803732732
 51
244.9678518567
  0
ARC
  5
312
100
AcDbEntity
  8
0
100
AcDbCircle
 62
7
  6
CONTINUOUS
 10
-739.0
 20
6.4927021425
 40
750.025487794
100
AcDbArc
 50
1.7521271853
 51
1.8010451048
  0
ARC
  5
313
100
AcDbEntity
  8
0
100
AcDbCircle
 62
7
  6
CONTINUOUS
 10
-739.0
 20
6.4927021425
 40
750.025487794
100
AcDbArc
 50
1.592082381
 51
1.6409944191
  0
ARC
  5
314
100
AcDbEntity
  8
0
100
AcDbCircle
 62
7
  6
CONTINUOUS
 10
-739.0
 20
6.4927021425
 40
750.025487775
100
AcDbArc
 50
1.3039716844
 51
1.3528774006
  0
ARC
  5
315
100
AcDbEntity
  8
0
100
AcDbCircle
 62
7
  6
CONTINUOUS
 10
-739.0
 20
6.4927021425
 40
750.025487775
100
AcDbArc
 50
1.494262973
 51
1.543172726
  0
ARC
  5
316
100
AcDbEntity
  8
0
100
AcDbCircle
 62
7
  6
CONTINUOUS
 10
-739.0
 20
6.4927021425
 40
750.025487756
100
AcDbArc
 50
1.3991163162
 51
1.4480227606
  0
ARC
  5
317
100
AcDbEntity
  8
0
100
AcDbCircle
 62
7
  6
CONTINUOUS
 10
-739.0
 20
6.4927021425
 40
750.025487756
100
AcDbArc
 50
1.0654522886
 51
1.1143543191
  0
ARC
  5
318
100
AcDbEntity
  8
0
100
AcDbCircle
 62
7
  6
CONTINUOUS
 10
-739.0
 20
6.4927021425
 40
750.025487756
100
AcDbArc
 50
1.222464455
 51
1.2713686074
  0
ARC
  5
319
100
AcDbEntity
  8
0
100
AcDbCircle
 62
7
  6
CONTINUOUS
 10
-739.0
 20
6.4927021425
 40
750.025487737
100
AcDbArc
 50
0.9839512232
 51
1.0328519797
  0
ARC
  5
31A
100
AcDbEntity
  8
0
100
AcDbCircle
 62
7
  6
CONTINUOUS
 10
-739.0
 20
6.4927021425
 40
750.025487718
100
AcDbArc
 50
0.8371883246
 51
0.8922645142
  0
ARC
  5
31B
100
AcDbEntity
  8
0
100
AcDbCircle
 62
7
  6
CONTINUOUS
 10
-739.0
 20
6.4927021425
 40
750.0220035435
100
AcDbArc
 50
1.1297973342
 51
1.2070311764
  0
ARC
  5
31C
100
AcDbEntity
  8
0
100
AcDbCircle
 62
7
  6
CONTINUOUS
 10
-739.0
 20
6.4927021425
 40
750.0176968547
100
AcDbArc
 50
0.94127703
 51
0.983955944
  0
ARC
  5
31D
100
AcDbEntity
  8
RACCORDO
100
AcDbCircle
 62
7
  6
CONTINUOUS
 10
-739.0
 20
6.4927021425
 40
750.0
100
AcDbArc
 50
358.1196267268
 51
2.0218622266
  0
ARC
  5
31E
100
AcDbEntity
  8
0
100
AcDbCircle
 62
7
  6
CONTINUOUS
 10
-739.0
 20
6.4927021425
 40
750.0
100
AcDbArc
 50
358.3078068042
 51
358.3778695698
  0
ARC
  5
31F
100
AcDbEntity
  8
0
100
AcDbCircle
 62
7
  6
CONTINUOUS
 10
-739.0
 20
6.4927021425
 40
750.0
100
AcDbArc
 50
0.6590423294
 51
0.6618417326
  0
ARC
  5
320
100
AcDbEntity
  8
0
100
AcDbCircle
 62
7
  6
CONTINUOUS
 10
-739.0
 20
6.4927021425
 40
750.0
100
AcDbArc
 50
358.3806674094
 51
358.4516648579
  0
ARC
  5
321
100
AcDbEntity
  8
RACCORDO
100
AcDbCircle
 62
250
  6
CONTINUOUS
 10
-739.0
 20
6.4927021425
 40
749.51
100
AcDbArc
 50
358.1196267268
 51
2.0218622266
  0
ARC
  5
322
100
AcDbEntity
  8
RACCORDO
100
AcDbCircle
 62
250
  6
CONTINUOUS
 10
-739.0
 20
6.4927021425
 40
748.2649734818
100
AcDbArc
 50
0.3527388906
 51
0.6278989567
  0
ARC
  5
323
100
AcDbEntity
  8
RACCORDO
100
AcDbCircle
 62
250
  6
CONTINUOUS
 10
-739.0
 20
6.4927021425
 40
748.2649734818
100
AcDbArc
 50
359.0887606067
 51
359.6452577384
  0
ARC
  5
324
100
AcDbEntity
  8
RACCORDO
100
AcDbCircle
 62
7
  6
CONTINUOUS
 10
-3.5
 20
-5.6610854465
 40
15.0
100
AcDbArc
 50
244.9678518567
 51
261.9521537527
  0
ARC
  5
325
100
AcDbEntity
  8
RACCORDO
100
AcDbCircle
 62
250
  6
CONTINUOUS
 10
-3.5
 20
-5.6610854465
 40
14.5100000039
100
AcDbArc
 50
244.9678518567
 51
261.9521537527
  0
ARC
  5
326
100
AcDbEntity
  8
0
100
AcDbCircle
 62
7
  6
CONTINUOUS
 10
-3.5
 20
-5.6610854465
 40
13.0
100
AcDbArc
 50
251.7517419855
 51
261.9521537527
  0
ARC
  5
327
100
AcDbEntity
  8
0
100
AcDbCircle
 62
7
  6
CONTINUOUS
 10
-83.1357410158
 20
15.8451604145
 40
94.0990650558
100
AcDbArc
 50
1.417137217
 51
1.8078236209
  0
ARC
  5
328
100
AcDbEntity
  8
0
100
AcDbCircle
 62
7
  6
CONTINUOUS
 10
-28.576520437
 20
28.2504974707
 40
39.2734364948
100
AcDbArc
 50
2.6484689518
 51
4.0566816189
  0
ARC
  5
329
100
AcDbEntity
  8
0
100
AcDbCircle
 62
7
  6
CONTINUOUS
 10
-28.2463366935
 20
19.7389853227
 40
39.1529157085
100
AcDbArc
 50
1.9615481994
 51
2.257422999
  0
ARC
  5
32A
100
AcDbEntity
  8
0
100
AcDbCircle
 62
7
  6
CONTINUOUS
 10
-28.2230478001
 20
22.2383956387
 40
39.0786626873
100
AcDbArc
 50
0.0785901561
 51
0.3748403028
  0
ARC
  5
32B
100
AcDbEntity
  8
0
100
AcDbCircle
 62
7
  6
CONTINUOUS
 10
-28.3929524945
 20
28.8083299454
 40
39.0726404021
100
AcDbArc
 50
359.4751301274
 51
0.9046077324
  0
ARC
  5
32C
100
AcDbEntity
  8
0
100
AcDbCircle
 62
7
  6
CONTINUOUS
 10
-20.8069136628
 20
24.123658488
 40
31.620546349
100
AcDbArc
 50
2.3965770805
 51
3.492787992
  0
ARC
  5
32D
100
AcDbEntity
  8
0
100
AcDbCircle
 62
7
  6
CONTINUOUS
 10
-20.6977965739
 20
24.5584855699
 40
31.5006481736
100
AcDbArc
 50
359.3493823149
 51
0.4500101931
  0
ARC
  5
32E
100
AcDbEntity
  8
RACCORDO
100
AcDbCircle
 62
7
  6
CONTINUOUS
 10
-6.4
 20
26.8362912265
 40
8.0
100
AcDbArc
 50
94.5885657358
 51
115.0221312809
  0
ARC
  5
32F
100
AcDbEntity
  8
RACCORDO
100
AcDbCircle
 62
250
  6
CONTINUOUS
 10
-6.4
 20
26.8362912265
 40
7.5100000061
100
AcDbArc
 50
94.5885657358
 51
115.0221312809
  0
ARC
  5
330
100
AcDbEntity
  8
DRAFT
100
AcDbCircle
 62
7
  6
CONTINUOUS
 10
-6.6
 20
22.9927021425
 40
3.0
100
AcDbArc
 50
148.2132962045
 51
158.9605302187
  0
ARC
  5
331
100
AcDbEntity
  8
DRAFT
100
AcDbCircle
 62
7
  6
CONTINUOUS
 10
-6.6
 20
22.9927021425
 40
3.0
100
AcDbArc
 50
201.0394697813
 51
211.7867037955
  0
ARC
  5
332
100
AcDbEntity
  8
RACCORDO
100
AcDbCircle
 62
7
  6
CONTINUOUS
 10
-6.7483910563
 20
24.3760752807
 40
2.5
100
AcDbArc
 50
179.3973583288
 51
179.9925724392
  0
ARC
  5
333
100
AcDbEntity
  8
RACCORDO
100
AcDbCircle
 62
7
  6
CONTINUOUS
 10
-6.7486025753
 20
22.7444295883
 40
2.5
100
AcDbArc
 50
179.9925724392
 51
196.0859869767
  0
ARC
  5
334
100
AcDbEntity
  8
RACCORDO
100
AcDbCircle
 62
7
  6
CONTINUOUS
 10
-9.2338876369
 20
32.9074592246
 40
1.3
100
AcDbArc
 50
115.0221312809
 51
177.9781377734
  0
ARC
  5
335
100
AcDbEntity
  8
0
100
AcDbCircle
 62
250
  6
CONTINUOUS
 10
-9.2338876369
 20
32.9074592246
 40
0.81
100
AcDbArc
 50
115.0221312809
 51
173.0763476804
  0
ARC
  5
336
100
AcDbEntity
  8
RACCORDO
100
AcDbCircle
 62
7
  6
CONTINUOUS
 10
-5.25
 20
35.7942663208
 40
0.8
100
AcDbArc
 50
102.153197469
 51
180.0
  0
ARC
  5
337
100
AcDbEntity
  8
RACCORDO
100
AcDbCircle
 62
7
  6
CONTINUOUS
 10
-4.5
 20
37.2927021425
 40
0.8
100
AcDbArc
 50
90.0
 51
180.0
  0
ARC
  5
338
100
AcDbEntity
  8
RACCORDO
100
AcDbCircle
 62
7
  6
CONTINUOUS
 10
-5.45
 20
36.7229751018
 40
0.15
100
AcDbArc
 50
282.153197469
 51
360.0
  0
ARC
  5
339
100
AcDbEntity
  8
RACCORDO
100
AcDbCircle
 62
7
  6
CONTINUOUS
 10
-0.0
 20
-52.9072978575
 40
88.0
100
AcDbArc
 50
92.2142516995
 51
94.5885657358
  0
ARC
  5
33A
100
AcDbEntity
  8
RACCORDO
100
AcDbCircle
 62
7
  6
CONTINUOUS
 10
-0.0
 20
-52.9072978575
 40
88.0
100
AcDbArc
 50
85.4114342642
 51
87.7857483005
  0
ARC
  5
33B
100
AcDbEntity
  8
RACCORDO
100
AcDbCircle
 62
250
  6
CONTINUOUS
 10
-0.0
 20
-52.9072978575
 40
87.51
100
AcDbArc
 50
92.2266563211
 51
94.5885657358
  0
ARC
  5
33C
100
AcDbEntity
  8
RACCORDO
100
AcDbCircle
 62
250
  6
CONTINUOUS
 10
-0.0
 20
-52.9072978575
 40
87.51
100
AcDbArc
 50
85.4114342642
 51
87.7733436789
  0
ARC
  5
33D
100
AcDbEntity
  8
RACCORDO
100
AcDbCircle
 62
7
  6
CONTINUOUS
 10
4.4454677017
 20
-7.9486004644
 40
10.435856477
100
AcDbArc
 50
296.7954094373
 51
297.1279840789
  0
ARC
  5
33E
100
AcDbEntity
  8
RACCORDO
100
AcDbCircle
 62
7
  6
CONTINUOUS
 10
7.0536781481
 20
-13.0393176453
 40
4.7158771497
100
AcDbArc
 50
296.3931065708
 51
297.1277430863
  0
ARC
  5
33F
100
AcDbEntity
  8
RACCORDO
100
AcDbCircle
 62
250
  6
CONTINUOUS
 10
-0.0
 20
-12.9072978575
 40
4.0933735117
100
AcDbArc
 50
180.0
 51
360.0
  0
ARC
  5
340
100
AcDbEntity
  8
RACCORDO
100
AcDbCircle
 62
250
  6
CONTINUOUS
 10
-0.0
 20
-12.9072978575
 40
3.793419208
100
AcDbArc
 50
180.0
 51
360.0
  0
ARC
  5
341
100
AcDbEntity
  8
DRAFT
100
AcDbCircle
 62
7
  6
CONTINUOUS
 10
-0.0
 20
-12.9072978575
 40
3.775
100
AcDbArc
 50
180.0
 51
360.0
  0
ARC
  5
342
100
AcDbEntity
  8
RACCORDO
100
AcDbCircle
 62
7
  6
CONTINUOUS
 10
-0.0
 20
-12.9072978575
 40
3.75
100
AcDbArc
 50
180.0
 51
360.0
  0
ARC
  5
343
100
AcDbEntity
  8
RACCORDO
100
AcDbCircle
 62
250
  6
CONTINUOUS
 10
-0.0
 20
-12.9072978575
 40
3.5999996728
100
AcDbArc
 50
180.0
 51
360.0
  0
CIRCLE
  5
344
100
AcDbEntity
  8
0
100
AcDbCircle
 62
7
  6
CONTINUOUS
 10
-0.0
 20
-12.9072978575
 40
2.5
  0
ARC
  5
345
100
AcDbEntity
  8
RACCORDO
100
AcDbCircle
 62
7
  6
CONTINUOUS
 10
9.2968360131
 20
-18.0742515308
 40
1.3
100
AcDbArc
 50
295.0321481433
 51
358.1196267268
  0
ARC
  5
346
100
AcDbEntity
  8
RACCORDO
100
AcDbCircle
 62
250
  6
CONTINUOUS
 10
9.2968360131
 20
-18.0742515308
 40
0.8099999941
100
AcDbArc
 50
295.0321481433
 51
358.1196267269
  0
ARC
  5
347
100
AcDbEntity
  8
RACCORDO
100
AcDbCircle
 62
7
  6
CONTINUOUS
 10
9.2130025176
 20
-17.0079368717
 40
0.6005031896
100
AcDbArc
 50
89.9960490446
 51
96.0227549021
  0
ARC
  5
348
100
AcDbEntity
  8
RACCORDO
100
AcDbCircle
 62
7
  6
CONTINUOUS
 10
3.5
 20
-5.6610854465
 40
15.0
100
AcDbArc
 50
278.0478462473
 51
295.0321481433
  0
ARC
  5
349
100
AcDbEntity
  8
0
100
AcDbCircle
 62
7
  6
CONTINUOUS
 10
3.5
 20
-5.6610854465
 40
15.0
100
AcDbArc
 50
278.0478462473
 51
295.0321481433
  0
ARC
  5
34A
100
AcDbEntity
  8
RACCORDO
100
AcDbCircle
 62
250
  6
CONTINUOUS
 10
3.5
 20
-5.6610854465
 40
14.5100000039
100
AcDbArc
 50
278.0478462473
 51
295.0321481433
  0
ARC
  5
34B
100
AcDbEntity
  8
0
100
AcDbCircle
 62
7
  6
CONTINUOUS
 10
3.5
 20
-5.6610854465
 40
13.0
100
AcDbArc
 50
278.0478462473
 51
288.2482580145
  0
ARC
  5
34C
100
AcDbEntity
  8
RACCORDO
100
AcDbCircle
 62
250
  6
CONTINUOUS
 10
-0.0
 20
13.0927021425
 40
4.0933735117
100
AcDbArc
 50
0.0
 51
180.0
  0
ARC
  5
34D
100
AcDbEntity
  8
RACCORDO
100
AcDbCircle
 62
250
  6
CONTINUOUS
 10
-0.0
 20
13.0927021425
 40
3.793419208
100
AcDbArc
 50
0.0
 51
180.0
  0
ARC
  5
34E
100
AcDbEntity
  8
DRAFT
100
AcDbCircle
 62
7
  6
CONTINUOUS
 10
-0.0
 20
13.0927021425
 40
3.775
100
AcDbArc
 50
0.0
 51
180.0
  0
ARC
  5
34F
100
AcDbEntity
  8
RACCORDO
100
AcDbCircle
 62
7
  6
CONTINUOUS
 10
-0.0
 20
13.0927021425
 40
3.75
100
AcDbArc
 50
0.0
 51
180.0
  0
ARC
  5
350
100
AcDbEntity
  8
RACCORDO
100
AcDbCircle
 62
250
  6
CONTINUOUS
 10
-0.0
 20
13.0927021425
 40
3.5999996728
100
AcDbArc
 50
0.0
 51
180.0
  0
CIRCLE
  5
351
100
AcDbEntity
  8
0
100
AcDbCircle
 62
7
  6
CONTINUOUS
 10
-0.0
 20
13.0927021425
 40
2.5
  0
CIRCLE
  5
352
100
AcDbEntity
  8
0
100
AcDbCircle
 62
7
  6
CONTINUOUS
 10
-0.0
 20
0.0927021425
 40
2.5
  0
ARC
  5
353
100
AcDbEntity
  8
RACCORDO
100
AcDbCircle
 62
7
  6
CONTINUOUS
 10
-0.0
 20
19.0927021425
 40
40.0
100
AcDbArc
 50
261.9521537527
 51
278.0478462473
  0
ARC
  5
354
100
AcDbEntity
  8
RACCORDO
100
AcDbCircle
 62
250
  6
CONTINUOUS
 10
-0.0
 20
19.0927021425
 40
39.51
100
AcDbArc
 50
261.9521537527
 51
278.0478462473
  0
ARC
  5
355
100
AcDbEntity
  8
0
100
AcDbCircle
 62
7
  6
CONTINUOUS
 10
28.2155397569
 20
16.5924701196
 40
39.1737963222
100
AcDbArc
 50
176.8682981983
 51
178.2918107362
  0
ARC
  5
356
100
AcDbEntity
  8
0
100
AcDbCircle
 62
7
  6
CONTINUOUS
 10
28.3385942711
 20
23.1620447823
 40
39.1731263058
100
AcDbArc
 50
177.4668341993
 51
177.7626239255
  0
ARC
  5
357
100
AcDbEntity
  8
0
100
AcDbCircle
 62
7
  6
CONTINUOUS
 10
28.144576493
 20
17.1446466622
 40
39.0947755408
100
AcDbArc
 50
180.0358894226
 51
181.4579726576
  0
ARC
  5
358
100
AcDbEntity
  8
0
100
AcDbCircle
 62
7
  6
CONTINUOUS
 10
28.3032415576
 20
25.6623919955
 40
39.0747541493
100
AcDbArc
 50
179.3491338946
 51
179.6454110292
  0
ARC
  5
359
100
AcDbEntity
  8
0
100
AcDbCircle
 62
7
  6
CONTINUOUS
 10
-0.0
 20
19.0927021425
 40
38.0
100
AcDbArc
 50
261.9521537527
 51
278.0478462473
  0
ARC
  5
35A
100
AcDbEntity
  8
DRAFT
100
AcDbCircle
 62
7
  6
CONTINUOUS
 10
-0.0
 20
19.0927021425
 40
38.0
100
AcDbArc
 50
256.8423271102
 51
283.1576728898
  0
ARC
  5
35B
100
AcDbEntity
  8
0
100
AcDbCircle
 62
7
  6
CONTINUOUS
 10
20.7255229741
 20
21.1869793134
 40
31.6052434404
100
AcDbArc
 50
176.7409491791
 51
177.8375991022
  0
ARC
  5
35C
100
AcDbEntity
  8
0
100
AcDbCircle
 62
7
  6
CONTINUOUS
 10
20.6339517496
 20
21.620918777
 40
31.504675345
100
AcDbArc
 50
179.7843385995
 51
180.8848428616
  0
ARC
  5
35D
100
AcDbEntity
  8
RACCORDO
100
AcDbCircle
 62
7
  6
CONTINUOUS
 10
6.4
 20
26.8362912265
 40
8.0
100
AcDbArc
 50
64.9778687191
 51
85.4114342642
  0
ARC
  5
35E
100
AcDbEntity
  8
0
100
AcDbCircle
 62
7
  6
CONTINUOUS
 10
6.4
 20
26.8362912265
 40
8.0
100
AcDbArc
 50
67.2533371263
 51
84.3601066018
  0
ARC
  5
35F
100
AcDbEntity
  8
0
100
AcDbCircle
 62
7
  6
CONTINUOUS
 10
6.4
 20
26.8362912265
 40
8.0
100
AcDbArc
 50
65.2110312261
 51
67.2344753699
  0
ARC
  5
360
100
AcDbEntity
  8
RACCORDO
100
AcDbCircle
 62
250
  6
CONTINUOUS
 10
6.4
 20
26.8362912265
 40
7.5100000061
100
AcDbArc
 50
64.9778687191
 51
85.4114342642
  0
ARC
  5
361
100
AcDbEntity
  8
DRAFT
100
AcDbCircle
 62
7
  6
CONTINUOUS
 10
6.6
 20
29.1927021425
 40
3.0
100
AcDbArc
 50
328.213296214
 51
332.0567773013
  0
ARC
  5
362
100
AcDbEntity
  8
RACCORDO
100
AcDbCircle
 62
7
  6
CONTINUOUS
 10
6.7522788319
 20
29.5426794534
 40
2.5
100
AcDbArc
 50
1.8286607213
 51
16.4121133836
  0
ARC
  5
363
100
AcDbEntity
  8
0
100
AcDbCircle
 62
7
  6
CONTINUOUS
 10
9.2338876369
 20
32.9074592246
 40
1.3
100
AcDbArc
 50
59.9230434499
 51
60.3693539752
  0
ARC
  5
364
100
AcDbEntity
  8
RACCORDO
100
AcDbCircle
 62
7
  6
CONTINUOUS
 10
9.2338876369
 20
32.9074592246
 40
1.3
100
AcDbArc
 50
2.0218622266
 51
64.9778687191
  0
ARC
  5
365
100
AcDbEntity
  8
RACCORDO
100
AcDbCircle
 62
250
  6
CONTINUOUS
 10
9.2338876369
 20
32.9074592246
 40
0.8099999941
100
AcDbArc
 50
2.0218622265
 51
64.9778687191
  0
ARC
  5
366
100
AcDbEntity
  8
RACCORDO
100
AcDbCircle
 62
7
  6
CONTINUOUS
 10
5.25
 20
35.7942967537
 40
0.8
100
AcDbArc
 50
0.0
 51
77.846802531
  0
ARC
  5
367
100
AcDbEntity
  8
RACCORDO
100
AcDbCircle
 62
7
  6
CONTINUOUS
 10
4.5
 20
37.2927021425
 40
0.8
100
AcDbArc
 50
0.0
 51
90.0
  0
ARC
  5
368
100
AcDbEntity
  8
RACCORDO
100
AcDbCircle
 62
7
  6
CONTINUOUS
 10
5.45
 20
36.7230055347
 40
0.15
100
AcDbArc
 50
180.0
 51
257.846802531
  0
ARC
  5
369
100
AcDbEntity
  8
0
100
AcDbCircle
 62
7
  6
CONTINUOUS
 10
83.2990991799
 20
27.0513241942
 40
94.006882118
100
AcDbArc
 50
178.8042634555
 51
179.1952376838
  0
ARC
  5
36A
100
AcDbEntity
  8
0
100
AcDbCircle
 62
7
  6
CONTINUOUS
 10
739.0
 20
6.4927021425
 40
750.025487794
100
AcDbArc
 50
178.9792247494
 51
179.0281247145
  0
ARC
  5
36B
100
AcDbEntity
  8
0
100
AcDbCircle
 62
7
  6
CONTINUOUS
 10
739.0
 20
6.4927021425
 40
750.025487794
100
AcDbArc
 50
179.139222972
 51
179.1881225866
  0
ARC
  5
36C
100
AcDbEntity
  8
0
100
AcDbCircle
 62
7
  6
CONTINUOUS
 10
739.0
 20
6.4927021425
 40
750.025487775
100
AcDbArc
 50
178.6911465288
 51
178.7400513882
  0
ARC
  5
36D
100
AcDbEntity
  8
0
100
AcDbCircle
 62
7
  6
CONTINUOUS
 10
739.0
 20
6.4927021425
 40
750.025487775
100
AcDbArc
 50
178.8814237754
 51
178.9303252633
  0
ARC
  5
36E
100
AcDbEntity
  8
0
100
AcDbCircle
 62
7
  6
CONTINUOUS
 10
739.0
 20
6.4927021425
 40
750.025487756
100
AcDbArc
 50
178.452604023
 51
178.5015144829
  0
ARC
  5
36F
100
AcDbEntity
  8
0
100
AcDbCircle
 62
7
  6
CONTINUOUS
 10
739.0
 20
6.4927021425
 40
750.025487756
100
AcDbArc
 50
178.6096364966
 51
178.6585429654
  0
ARC
  5
370
100
AcDbEntity
  8
0
100
AcDbCircle
 62
7
  6
CONTINUOUS
 10
739.0
 20
6.4927021425
 40
750.025487756
100
AcDbArc
 50
178.7862877425
 51
178.8351896261
  0
ARC
  5
371
100
AcDbEntity
  8
0
100
AcDbCircle
 62
7
  6
CONTINUOUS
 10
739.0
 20
6.4927021425
 40
750.025487737
100
AcDbArc
 50
178.3710846769
 51
178.4199970365
  0
ARC
  5
372
100
AcDbEntity
  8
0
100
AcDbCircle
 62
7
  6
CONTINUOUS
 10
739.0
 20
6.4927021425
 40
750.025487718
100
AcDbArc
 50
178.2242755187
 51
178.2793710795
  0
ARC
  5
373
100
AcDbEntity
  8
0
100
AcDbCircle
 62
7
  6
CONTINUOUS
 10
739.0
 20
6.4927021425
 40
750.0220035435
100
AcDbArc
 50
178.5169476237
 51
178.5941899515
  0
ARC
  5
374
100
AcDbEntity
  8
0
100
AcDbCircle
 62
7
  6
CONTINUOUS
 10
739.0
 20
6.4927021425
 40
750.0176968547
100
AcDbArc
 50
178.3283716517
 51
178.3710622492
  0
ARC
  5
375
100
AcDbEntity
  8
RACCORDO
100
AcDbCircle
 62
7
  6
CONTINUOUS
 10
739.0
 20
6.4927021425
 40
750.0
100
AcDbArc
 50
177.9781377734
 51
181.8803732732
  0
ARC
  5
376
100
AcDbEntity
  8
0
100
AcDbCircle
 62
250
  6
CONTINUOUS
 10
739.0
 20
6.4927021425
 40
749.51
100
AcDbArc
 50
178.0518679285
 51
181.8803732732
  0
ARC
  5
377
100
AcDbEntity
  8
0
100
AcDbCircle
 62
7
  6
CONTINUOUS
 10
739.0
 20
6.4927021425
 40
747.794870108
100
AcDbArc
 50
179.3717062969
 51
179.3791038196
  0
ARC
  5
378
100
AcDbEntity
  8
RACCORDO
100
AcDbCircle
 62
250
  6
CONTINUOUS
 10
739.0
 20
6.4927021425
 40
747.7587047888
100
AcDbArc
 50
179.3716756065
 51
179.3790691237
  0
SPLINE
  5
379
100
AcDbEntity
  8
RACCORDO
100
AcDbSpline
 62
250
  6
CONTINUOUS
 70
0
 71
3
 72
23
 73
19
 74
0
 42
0.0000001
 43
0.0000001
 44
0.0000000001
 40
0.0
 40
0.0
 40
0.0
 40
0.0
 40
0.2129929876
 40
0.4069111552
 40
0.5781402138
 40
0.6542287138
 40
0.7234821074
 40
0.7855764681
 40
0.8402219902
 40
0.8871636841
 40
0.9261822795
 40
0.9570956443
 40
0.9694669655
 40
0.9797611516
 40
0.9879675963
 40
0.9940768864
 40
0.9980851171
 40
1.0
 40
1.0
 40
1.0
 40
1.0
 10
9.2040058392
 20
-17.2364104971
 30
0.0
 10
9.2050055725
 20
-17.1775559513
 30
0.0
 10
9.2068681605
 20
-17.0651168275
 30
0.0
 10
9.2093444179
 20
-16.9053603589
 30
0.0
 10
9.211073689
 20
-16.7834320503
 30
0.0
 10
9.2121918873
 20
-16.6959511956
 30
0.0
 10
9.2128618268
 20
-16.6386277314
 30
0.0
 10
9.2133937878
 20
-16.5872290922
 30
0.0
 10
9.2137850425
 20
-16.5419955341
 30
0.0
 10
9.2140351593
 20
-16.5031381507
 30
0.0
 10
9.2141416607
 20
-16.4708392528
 30
0.0
 10
9.2141171157
 20
-16.4480928677
 30
0.0
 10
9.2140047306
 20
-16.4332873008
 30
0.0
 10
9.2138991761
 20
-16.4247535302
 30
0.0
 10
9.2137395099
 20
-16.4179607302
 30
0.0
 10
9.2136017146
 20
-16.4128826101
 30
0.0
 10
9.213333368
 20
-16.409596154
 30
0.0
 10
9.2132427579
 20
-16.4079242141
 30
0.0
 10
9.2130441827
 20
-16.4074336836
 30
0.0
  0
SPLINE
  5
37A
100
AcDbEntity
  8
RACCORDO
100
AcDbSpline
 62
250
  6
CONTINUOUS
 70
0
 71
3
 72
9
 73
5
 74
0
 42
0.0000001
 43
0.0000001
 44
0.0000000001
 40
0.0
 40
0.0
 40
0.0
 40
0.0
 40
0.2554606238
 40
1.0
 40
1.0
 40
1.0
 40
1.0
 10
9.1703419274
 20
-5.4072978575
 30
0.0
 10
9.1698996484
 20
-5.4536319353
 30
0.0
 10
9.1669121881
 20
-5.6349907351
 30
0.0
 10
9.1590590167
 20
-5.816282466
 30
0.0
 10
9.150009756
 20
-5.9510256476
 30
0.0
  0
LINE
  5
37B
100
AcDbEntity
  8
DRAFT
100
AcDbLine
 62
7
  6
CONTINUOUS
 10
-8.6602947271
 20
-17.9072978575
 11
-8.65
 21
-17.9096964284
  0
SPLINE
  5
37C
100
AcDbEntity
  8
0
100
AcDbSpline
 62
7
  6
CONTINUOUS
 70
0
 71
3
 72
13
 73
9
 74
0
 42
0.0000001
 43
0.0000001
 44
0.0000000001
 40
0.0
 40
0.0
 40
0.0
 40
0.0
 40
0.0885467785
 40
0.1776467694
 40
0.3560229191
 40
0.6077132217
 40
0.8027577803
 40
1.0
 40
1.0
 40
1.0
 40
1.0
 10
-3.9168244669
 20
31.0910155396
 30
0.0
 10
-3.9194883391
 20
31.0842347699
 30
0.0
 10
-3.9248040019
 20
31.0706230716
 30
0.0
 10
-3.935688176
 20
31.0434064784
 30
0.0
 10
-3.9552773839
 20
31.0054426065
 30
0.0
 10
-3.9842747822
 20
30.9622038808
 30
0.0
 10
-4.0274976229
 20
30.9298254091
 30
0.0
 10
-4.0600730973
 20
30.921730866
 30
0.0
 10
-4.0763013719
 20
30.921730866
 30
0.0
  0
SPLINE
  5
37D
100
AcDbEntity
  8
0
100
AcDbSpline
 62
7
  6
CONTINUOUS
 70
0
 71
3
 72
14
 73
10
 74
0
 42
0.0000001
 43
0.0000001
 44
0.0000000001
 40
0.0
 40
0.0
 40
0.0
 40
0.0
 40
0.0714327663
 40
0.1403990094
 40
0.2953599924
 40
0.5296764681
 40
0.7323168775
 40
0.9228551289
 40
1.0
 40
1.0
 40
1.0
 40
1.0
 10
-4.0763013719
 20
30.921730866
 30
0.0
 10
-4.086982151
 20
30.921730866
 30
0.0
 10
-4.1079564551
 20
30.9234837112
 30
0.0
 10
-4.1516299244
 20
30.9303894687
 30
0.0
 10
-4.2165882945
 20
30.9544256355
 30
0.0
 10
-4.291055691
 20
31.0027555298
 30
0.0
 10
-4.3697572307
 20
31.0537007994
 30
0.0
 10
-4.436947404
 20
31.0788242131
 30
0.0
 10
-4.4770825674
 20
31.0815714534
 30
0.0
 10
-4.4886174326
 20
31.0815714534
 30
0.0
  0
SPLINE
  5
37E
100
AcDbEntity
  8
0
100
AcDbSpline
 62
7
  6
CONTINUOUS
 70
0
 71
3
 72
13
 73
9
 74
0
 42
0.0000001
 43
0.0000001
 44
0.0000000001
 40
0.0
 40
0.0
 40
0.0
 40
0.0
 40
0.1280421216
 40
0.2491998695
 40
0.4072933493
 40
0.6543072307
 40
0.8263078124
 40
1.0
 40
1.0
 40
1.0
 40
1.0
 10
-4.4886174326
 20
31.0815714534
 30
0.0
 10
-4.5025183034
 20
31.0815714534
 30
0.0
 10
-4.5295767107
 20
31.0780395877
 30
0.0
 10
-4.5719837798
 20
31.0643752398
 30
0.0
 10
-4.6198686314
 20
31.0319014925
 30
0.0
 10
-4.6620879031
 20
30.9848202784
 30
0.0
 10
-4.697129767
 20
30.9308136788
 30
0.0
 10
-4.7165324831
 20
30.8986881296
 30
0.0
 10
-4.7261986976
 20
30.88249722
 30
0.0
  0
SPLINE
  5
37F
100
AcDbEntity
  8
0
100
AcDbSpline
 62
7
  6
CONTINUOUS
 70
0
 71
3
 72
13
 73
9
 74
0
 42
0.0000001
 43
0.0000001
 44
0.0000000001
 40
0.0
 40
0.0
 40
0.0
 40
0.0
 40
0.1401997236
 40
0.2798373984
 40
0.544326592
 40
0.7811496423
 40
0.8890939886
 40
1.0
 40
1.0
 40
1.0
 40
1.0
 10
-4.6579038496
 20
30.6739766838
 30
0.0
 10
-4.6522728646
 20
30.6841487804
 30
0.0
 10
-4.6410896419
 20
30.7044775132
 30
0.0
 10
-4.6189004306
 20
30.743823436
 30
0.0
 10
-4.5896564802
 20
30.788108057
 30
0.0
 10
-4.552881753
 20
30.824758352
 30
0.0
 10
-4.5177564614
 20
30.8395507072
 30
0.0
 10
-4.4996311675
 20
30.8429003945
 30
0.0
 10
-4.4904338029
 20
30.8429003945
 30
0.0
  0
SPLINE
  5
380
100
AcDbEntity
  8
0
100
AcDbSpline
 62
7
  6
CONTINUOUS
 70
0
 71
3
 72
13
 73
9
 74
0
 42
0.0000001
 43
0.0000001
 44
0.0000000001
 40
0.0
 40
0.0
 40
0.0
 40
0.0
 40
0.1345694109
 40
0.3030713837
 40
0.463210334
 40
0.7157783978
 40
0.8649137229
 40
1.0
 40
1.0
 40
1.0
 40
1.0
 10
-4.4904338029
 20
30.8429003945
 30
0.0
 10
-4.4707558058
 20
30.8429003945
 30
0.0
 10
-4.4272293895
 20
30.8289035947
 30
0.0
 10
-4.3679432415
 20
30.796853767
 30
0.0
 10
-4.2938757865
 20
30.7550445914
 30
0.0
 10
-4.2211247878
 20
30.7164081335
 30
0.0
 10
-4.1469592104
 20
30.6902764876
 30
0.0
 10
-4.1055000756
 20
30.6830598071
 30
0.0
 10
-4.0857464975
 20
30.6830598071
 30
0.0
  0
SPLINE
  5
381
100
AcDbEntity
  8
0
100
AcDbSpline
 62
7
  6
CONTINUOUS
 70
0
 71
3
 72
13
 73
9
 74
0
 42
0.0000001
 43
0.0000001
 44
0.0000000001
 40
0.0
 40
0.0
 40
0.0
 40
0.0
 40
0.0927728998
 40
0.2643731697
 40
0.4670990065
 40
0.6707029398
 40
0.8364062033
 40
1.0
 40
1.0
 40
1.0
 40
1.0
 10
-4.0857464975
 20
30.6830598071
 30
0.0
 10
-4.0755489086
 20
30.6830598071
 30
0.0
 10
-4.0465068329
 20
30.6852090803
 30
0.0
 10
-3.9961310359
 20
30.698636864
 30
0.0
 10
-3.9430039461
 20
30.7354898036
 30
0.0
 10
-3.9011258149
 20
30.7829130215
 30
0.0
 10
-3.8704790587
 20
30.8330946082
 30
0.0
 10
-3.8557159879
 20
30.8661779702
 30
0.0
 10
-3.848164944
 20
30.8824979518
 30
0.0
  0
SPLINE
  5
382
100
AcDbEntity
  8
0
100
AcDbSpline
 62
7
  6
CONTINUOUS
 70
0
 71
3
 72
14
 73
10
 74
0
 42
0.0000001
 43
0.0000001
 44
0.0000000001
 40
0.0
 40
0.0
 40
0.0
 40
0.0
 40
0.2834028275
 40
0.4539271409
 40
0.6746867381
 40
0.8239194675
 40
0.8975057799
 40
0.9468330802
 40
1.0
 40
1.0
 40
1.0
 40
1.0
 10
-2.9010201438
 20
30.6701463145
 30
0.0
 10
-2.9010201438
 20
30.6024645138
 30
0.0
 10
-2.9016723728
 20
30.4939324599
 30
0.0
 10
-2.9142809965
 20
30.3333576577
 30
0.0
 10
-2.9317901383
 20
30.2048532674
 30
0.0
 10
-2.9779769639
 20
30.106257857
 30
0.0
 10
-3.029069369
 20
30.062880341
 30
0.0
 10
-3.0699687321
 20
30.0509632706
 30
0.0
 10
-3.0944249494
 20
30.0483600396
 30
0.0
 10
-3.1071221864
 20
30.0483600396
 30
0.0
  0
SPLINE
  5
383
100
AcDbEntity
  8
0
100
AcDbSpline
 62
7
  6
CONTINUOUS
 70
0
 71
3
 72
14
 73
10
 74
0
 42
0.0000001
 43
0.0000001
 44
0.0000000001
 40
0.0
 40
0.0
 40
0.0
 40
0.0
 40
0.0531286742
 40
0.1024204909
 40
0.2014589346
 40
0.3259305922
 40
0.546432472
 40
0.783696216
 40
1.0
 40
1.0
 40
1.0
 40
1.0
 10
-3.1071221864
 20
30.0483600396
 30
0.0
 10
-3.1198194234
 20
30.0483600396
 30
0.0
 10
-3.1443031201
 20
30.0509202342
 30
0.0
 10
-3.1909766272
 20
30.0648064499
 30
0.0
 10
-3.2409733181
 20
30.1115311035
 30
0.0
 10
-3.2828413952
 20
30.2106583976
 30
0.0
 10
-3.3026046562
 20
30.3492884656
 30
0.0
 10
-3.3118275126
 20
30.5100064521
 30
0.0
 10
-3.313610912
 20
30.6184518115
 30
0.0
 10
-3.313610912
 20
30.6701463145
 30
0.0
  0
SPLINE
  5
384
100
AcDbEntity
  8
0
100
AcDbSpline
 62
7
  6
CONTINUOUS
 70
0
 71
3
 72
13
 73
9
 74
0
 42
0.0000001
 43
0.0000001
 44
0.0000000001
 40
0.0
 40
0.0
 40
0.0
 40
0.0
 40
0.2157397901
 40
0.4010006197
 40
0.6351243765
 40
0.7990235885
 40
0.8982798778
 40
1.0
 40
1.0
 40
1.0
 40
1.0
 10
-3.313610912
 20
30.6701463145
 30
0.0
 10
-3.313610912
 20
30.7217763803
 30
0.0
 10
-3.3116515475
 20
30.817696488
 30
0.0
 10
-3.3052732906
 20
30.969760321
 30
0.0
 10
-3.286442805
 20
31.1078235708
 30
0.0
 10
-3.2482191576
 20
31.2236269772
 30
0.0
 10
-3.1814160235
 20
31.2860881929
 30
0.0
 10
-3.1314654779
 20
31.2938660045
 30
0.0
 10
-3.1071221864
 20
31.2938660045
 30
0.0
  0
SPLINE
  5
385
100
AcDbEntity
  8
0
100
AcDbSpline
 62
7
  6
CONTINUOUS
 70
0
 71
3
 72
14
 73
10
 74
0
 42
0.0000001
 43
0.0000001
 44
0.0000000001
 40
0.0
 40
0.0
 40
0.0
 40
0.0
 40
0.0529996926
 40
0.15006521
 40
0.2917823737
 40
0.4038991228
 40
0.59903006
 40
0.7177500359
 40
1.0
 40
1.0
 40
1.0
 40
1.0
 10
-3.1071221864
 20
31.2938660045
 30
0.0
 10
-3.0944373858
 20
31.2938660045
 30
0.0
 10
-3.0584284847
 20
31.2914025765
 30
0.0
 10
-2.9919203898
 20
31.2594880952
 30
0.0
 10
-2.9518358682
 20
31.1807851996
 30
0.0
 10
-2.922118007
 20
31.0781284005
 30
0.0
 10
-2.9109469065
 20
30.9760227393
 30
0.0
 10
-2.9019842192
 20
30.8337825598
 30
0.0
 10
-2.9010201438
 20
30.7376992443
 30
0.0
 10
-2.9010201438
 20
30.6701463145
 30
0.0
  0
SPLINE
  5
386
100
AcDbEntity
  8
0
100
AcDbSpline
 62
7
  6
CONTINUOUS
 70
0
 71
3
 72
13
 73
9
 74
0
 42
0.0000001
 43
0.0000001
 44
0.0000000001
 40
0.0
 40
0.0
 40
0.0
 40
0.0
 40
0.1856479259
 40
0.4427973682
 40
0.6049969334
 40
0.7707561477
 40
0.8970169567
 40
1.0
 40
1.0
 40
1.0
 40
1.0
 10
-3.6047832162
 20
30.6701463145
 30
0.0
 10
-3.6047832162
 20
30.5989451722
 30
0.0
 10
-3.5982842541
 20
30.4292659585
 30
0.0
 10
-3.5686449611
 20
30.1976814493
 30
0.0
 10
-3.4918947129
 20
29.9849493824
 30
0.0
 10
-3.3769922735
 20
29.8452892425
 30
0.0
 10
-3.2347477669
 20
29.7831997088
 30
0.0
 10
-3.1466190474
 20
29.7722683728
 30
0.0
 10
-3.1071221864
 20
29.7722683728
 30
0.0
  0
SPLINE
  5
387
100
AcDbEntity
  8
0
100
AcDbSpline
 62
7
  6
CONTINUOUS
 70
0
 71
3
 72
14
 73
10
 74
0
 42
0.0000001
 43
0.0000001
 44
0.0000000001
 40
0.0
 40
0.0
 40
0.0
 40
0.0
 40
0.0352191342
 40
0.1029219007
 40
0.1983527216
 40
0.2939909865
 40
0.5145961338
 40
0.7563515445
 40
1.0
 40
1.0
 40
1.0
 40
1.0
 10
-3.1071221864
 20
29.7722683728
 30
0.0
 10
-3.0936180824
 20
29.7722683728
 30
0.0
 10
-3.0542628193
 20
29.7763125104
 30
0.0
 10
-2.9789089337
 20
29.7862850882
 30
0.0
 10
-2.8835593128
 20
29.8201523304
 30
0.0
 10
-2.7617869357
 20
29.924921733
 30
0.0
 10
-2.6636920828
 20
30.122661927
 30
0.0
 10
-2.6164485857
 20
30.3903113912
 30
0.0
 10
-2.6098478397
 20
30.5767239704
 30
0.0
 10
-2.6098478397
 20
30.6701463145
 30
0.0
  0
SPLINE
  5
388
100
AcDbEntity
  8
0
100
AcDbSpline
 62
7
  6
CONTINUOUS
 70
0
 71
3
 72
14
 73
10
 74
0
 42
0.0000001
 43
0.0000001
 44
0.0000000001
 40
0.0
 40
0.0
 40
0.0
 40
0.0
 40
0.1850879033
 40
0.2954786164
 40
0.4852756959
 40
0.6744966508
 40
0.8331073612
 40
0.9296647263
 40
1.0
 40
1.0
 40
1.0
 40
1.0
 10
-2.6098478397
 20
30.6701463145
 30
0.0
 10
-2.6098478397
 20
30.7412186558
 30
0.0
 10
-2.6140069271
 20
30.8547134417
 30
0.0
 10
-2.6330169843
 20
31.0402883827
 30
0.0
 10
-2.6714271167
 20
31.2242069454
 30
0.0
 10
-2.7554723654
 20
31.4187771398
 30
0.0
 10
-2.8950979496
 20
31.5283857323
 30
0.0
 10
-3.0157465674
 20
31.566449371
 30
0.0
 10
-3.0801139785
 20
31.5699576713
 30
0.0
 10
-3.1071221864
 20
31.5699576713
 30
0.0
  0
SPLINE
  5
389
100
AcDbEntity
  8
0
100
AcDbSpline
 62
7
  6
CONTINUOUS
 70
0
 71
3
 72
13
 73
9
 74
0
 42
0.0000001
 43
0.0000001
 44
0.0000000001
 40
0.0
 40
0.0
 40
0.0
 40
0.0
 40
0.1028854479
 40
0.2291659425
 40
0.3952737717
 40
0.6046312464
 40
0.8148635236
 40
1.0
 40
1.0
 40
1.0
 40
1.0
 10
-3.1071221864
 20
31.5699576713
 30
0.0
 10
-3.1466190474
 20
31.5699576713
 30
0.0
 10
-3.2348343247
 20
31.5591007461
 30
0.0
 10
-3.3771091969
 20
31.4964003249
 30
0.0
 10
-3.5038498039
 20
31.3417097594
 30
0.0
 10
-3.5694369585
 20
31.1235008991
 30
0.0
 10
-3.5994631631
 20
30.8931389942
 30
0.0
 10
-3.6047832162
 20
30.7412186558
 30
0.0
 10
-3.6047832162
 20
30.6701463145
 30
0.0
  0
SPLINE
  5
38A
100
AcDbEntity
  8
0
100
AcDbSpline
 62
7
  6
CONTINUOUS
 70
0
 71
3
 72
14
 73
10
 74
0
 42
0.0000001
 43
0.0000001
 44
0.0000000001
 40
0.0
 40
0.0
 40
0.0
 40
0.0
 40
0.109054128
 40
0.3038686294
 40
0.4748077139
 40
0.6318156592
 40
0.7808752177
 40
0.9273823817
 40
1.0
 40
1.0
 40
1.0
 40
1.0
 10
-1.1798076541
 20
31.0548111424
 30
0.0
 10
-1.1823891548
 20
31.0828024253
 30
0.0
 10
-1.1865796153
 20
31.1611113474
 30
0.0
 10
-1.2192137463
 20
31.2807440313
 30
0.0
 10
-1.2860470763
 20
31.3994541742
 30
0.0
 10
-1.3753168048
 20
31.4864600605
 30
0.0
 10
-1.4786192128
 20
31.5432189551
 30
0.0
 10
-1.5716603685
 20
31.5671743138
 30
0.0
 10
-1.6282085326
 20
31.5699369983
 30
0.0
 10
-1.6469266352
 20
31.5699369983
 30
0.0
  0
SPLINE
  5
38B
100
AcDbEntity
  8
0
100
AcDbSpline
 62
7
  6
CONTINUOUS
 70
0
 71
3
 72
15
 73
11
 74
0
 42
0.0000001
 43
0.0000001
 44
0.0000000001
 40
0.0
 40
0.0
 40
0.0
 40
0.0
 40
0.108062554
 40
0.2049264
 40
0.3364521058
 40
0.4602456247
 40
0.6223569364
 40
0.742136643
 40
0.8952441235
 40
1.0
 40
1.0
 40
1.0
 40
1.0
 10
-1.6469266352
 20
31.5699369983
 30
0.0
 10
-1.6800241307
 20
31.5699369983
 30
0.0
 10
-1.7428812787
 20
31.565303518
 30
0.0
 10
-1.8437268394
 20
31.5408867163
 30
0.0
 10
-1.9390878919
 20
31.4875544915
 30
0.0
 10
-2.0355066798
 20
31.4018936511
 30
0.0
 10
-2.099895818
 20
31.2930103211
 30
0.0
 10
-2.1422384661
 20
31.1664107852
 30
0.0
 10
-2.1636243327
 20
31.0522658815
 30
0.0
 10
-2.1685620114
 20
30.9732751526
 30
0.0
 10
-2.1685620114
 20
30.9411904293
 30
0.0
  0
SPLINE
  5
38C
100
AcDbEntity
  8
0
100
AcDbSpline
 62
7
  6
CONTINUOUS
 70
0
 71
3
 72
16
 73
12
 74
0
 42
0.0000001
 43
0.0000001
 44
0.0000000001
 40
0.0
 40
0.0
 40
0.0
 40
0.0
 40
0.0603102014
 40
0.1752889121
 40
0.3305005989
 40
0.4654288584
 40
0.5887925441
 40
0.7012171469
 40
0.8072151964
 40
0.9061924244
 40
1.0
 40
1.0
 40
1.0
 40
1.0
 10
-2.1685620114
 20
30.9411904293
 30
0.0
 10
-2.1685620114
 20
30.9252532037
 30
0.0
 10
-2.1653070393
 20
30.8789920023
 30
0.0
 10
-2.1578913311
 20
30.7920117843
 30
0.0
 10
-2.1336283027
 20
30.686699737
 30
0.0
 10
-2.0847599451
 20
30.5884006334
 30
0.0
 10
-2.0282468733
 20
30.5073066604
 30
0.0
 10
-1.9580860791
 20
30.4494427068
 30
0.0
 10
-1.8859806814
 20
30.4052969414
 30
0.0
 10
-1.8094789422
 20
30.3835494346
 30
0.0
 10
-1.7587193601
 20
30.3762465564
 30
0.0
 10
-1.7339303118
 20
30.3762465564
 30
0.0
  0
SPLINE
  5
38D
100
AcDbEntity
  8
0
100
AcDbSpline
 62
7
  6
CONTINUOUS
 70
0
 71
3
 72
12
 73
8
 74
0
 42
0.0000001
 43
0.0000001
 44
0.0000000001
 40
0.0
 40
0.0
 40
0.0
 40
0.0
 40
0.1731224509
 40
0.3282668207
 40
0.5074297559
 40
0.7384135026
 40
1.0
 40
1.0
 40
1.0
 40
1.0
 10
-1.7339303118
 20
30.3762465564
 30
0.0
 10
-1.7177289296
 20
30.3762465564
 30
0.0
 10
-1.6870309847
 20
30.3783177164
 30
0.0
 10
-1.6398666564
 20
30.3844214683
 30
0.0
 10
-1.5887949626
 20
30.3991331395
 30
0.0
 10
-1.5321776398
 20
30.4275698727
 30
0.0
 10
-1.4960799826
 20
30.4565517253
 30
0.0
 10
-1.4772261236
 20
30.4721661294
 30
0.0
  0
SPLINE
  5
38E
100
AcDbEntity
  8
0
100
AcDbSpline
 62
7
  6
CONTINUOUS
 70
0
 71
3
 72
13
 73
9
 74
0
 42
0.0000001
 43
0.0000001
 44
0.0000000001
 40
0.0
 40
0.0
 40
0.0
 40
0.0
 40
0.0016705881
 40
0.1354966259
 40
0.3641314781
 40
0.6397560266
 40
0.7940224239
 40
1.0
 40
1.0
 40
1.0
 40
1.0
 10
-1.476602517
 20
30.778749173
 30
0.0
 10
-1.4766637716
 20
30.7786317724
 30
0.0
 10
-1.4816273376
 20
30.7691073599
 30
0.0
 10
-1.4940010586
 20
30.742999072
 30
0.0
 10
-1.5247335834
 20
30.7020540856
 30
0.0
 10
-1.5683788209
 20
30.6711758912
 30
0.0
 10
-1.6165493098
 20
30.6552739502
 30
0.0
 10
-1.645293691
 20
30.6527249062
 30
0.0
 10
-1.6616205895
 20
30.6527249062
 30
0.0
  0
SPLINE
  5
38F
100
AcDbEntity
  8
0
100
AcDbSpline
 62
7
  6
CONTINUOUS
 70
0
 71
3
 72
14
 73
10
 74
0
 42
0.0000001
 43
0.0000001
 44
0.0000000001
 40
0.0
 40
0.0
 40
0.0
 40
0.0
 40
0.0966121779
 40
0.2120371391
 40
0.3982235185
 40
0.5578504468
 40
0.7291778851
 40
0.8177850235
 40
1.0
 40
1.0
 40
1.0
 40
1.0
 10
-1.6616205895
 20
30.6527249062
 30
0.0
 10
-1.6753222453
 20
30.6527249062
 30
0.0
 10
-1.7056641028
 20
30.6539519243
 30
0.0
 10
-1.7593642409
 20
30.6741258005
 30
0.0
 10
-1.8110730218
 20
30.7173802901
 30
0.0
 10
-1.8467090613
 20
30.7825414615
 30
0.0
 10
-1.8638801527
 20
30.8398206876
 30
0.0
 10
-1.8746810374
 20
30.9016173952
 30
0.0
 10
-1.8773897073
 20
30.9400961936
 30
0.0
 10
-1.8773897073
 20
30.9659381417
 30
0.0
  0
SPLINE
  5
390
100
AcDbEntity
  8
0
100
AcDbSpline
 62
7
  6
CONTINUOUS
 70
0
 71
3
 72
14
 73
10
 74
0
 42
0.0000001
 43
0.0000001
 44
0.0000000001
 40
0.0
 40
0.0
 40
0.0
 40
0.0
 40
0.1555851968
 40
0.347323569
 40
0.5981461645
 40
0.7460489305
 40
0.8528530836
 40
0.9249812045
 40
1.0
 40
1.0
 40
1.0
 40
1.0
 10
-1.8773897073
 20
30.9659381417
 30
0.0
 10
-1.8773897073
 20
30.9884708845
 30
0.0
 10
-1.8741319429
 20
31.0388020399
 30
0.0
 10
-1.8587247423
 20
31.1242040207
 30
0.0
 10
-1.8238182947
 20
31.2044552489
 30
0.0
 10
-1.7725932145
 20
31.2582921463
 30
0.0
 10
-1.7310635143
 20
31.2822462912
 30
0.0
 10
-1.6954193364
 20
31.292269439
 30
0.0
 10
-1.6740319749
 20
31.2938453315
 30
0.0
 10
-1.6631673215
 20
31.2938453315
 30
0.0
  0
SPLINE
  5
391
100
AcDbEntity
  8
0
100
AcDbSpline
 62
7
  6
CONTINUOUS
 70
0
 71
3
 72
14
 73
10
 74
0
 42
0.0000001
 43
0.0000001
 44
0.0000000001
 40
0.0
 40
0.0
 40
0.0
 40
0.0
 40
0.0871461812
 40
0.2803676709
 40
0.4669712
 40
0.6274068639
 40
0.7582200147
 40
0.8999572563
 40
1.0
 40
1.0
 40
1.0
 40
1.0
 10
-1.6631673215
 20
31.2938453315
 30
0.0
 10
-1.6530929284
 20
31.2938453315
 30
0.0
 10
-1.6206416666
 20
31.2921238691
 30
0.0
 10
-1.5680857662
 20
31.2743746553
 30
0.0
 10
-1.519643264
 20
31.2325938505
 30
0.0
 10
-1.4919620903
 20
31.1839191537
 30
0.0
 10
-1.4767144773
 20
31.1361830411
 30
0.0
 10
-1.4663252722
 20
31.0942227548
 30
0.0
 10
-1.4641511265
 20
31.066303938
 30
0.0
 10
-1.4628583187
 20
31.0548111429
 30
0.0
  0
SPLINE
  5
392
100
AcDbEntity
  8
0
100
AcDbSpline
 62
7
  6
CONTINUOUS
 70
0
 71
3
 72
14
 73
10
 74
0
 42
0.0000001
 43
0.0000001
 44
0.0000000001
 40
0.0
 40
0.0
 40
0.0
 40
0.0
 40
0.0904463275
 40
0.1776035502
 40
0.3108354685
 40
0.5103583983
 40
0.7196593008
 40
0.8492223838
 40
1.0
 40
1.0
 40
1.0
 40
1.0
 10
-0.2428180594
 20
29.8026874478
 30
0.0
 10
-0.2164428641
 20
29.8026874478
 30
0.0
 10
-0.1644755679
 20
29.8063762902
 30
0.0
 10
-0.0763690879
 20
29.8292294188
 30
0.0
 10
0.0347451801
 20
29.8842225996
 30
0.0
 10
0.1450110832
 20
30.0046963393
 30
0.0
 10
0.199328171
 20
30.1547252089
 30
0.0
 10
0.2234814809
 20
30.2957588236
 30
0.0
 10
0.2242941173
 20
30.3777225671
 30
0.0
 10
0.2266078958
 20
30.4216301426
 30
0.0
  0
SPLINE
  5
393
100
AcDbEntity
  8
0
100
AcDbSpline
 62
7
  6
CONTINUOUS
 70
0
 71
3
 72
12
 73
8
 74
0
 42
0.0000001
 43
0.0000001
 44
0.0000000001
 40
0.0
 40
0.0
 40
0.0
 40
0.0
 40
0.1987967627
 40
0.4492218426
 40
0.6849987951
 40
0.8954609423
 40
1.0
 40
1.0
 40
1.0
 40
1.0
 10
-0.0483211337
 20
30.4216301425
 30
0.0
 10
-0.0493024588
 20
30.3925981077
 30
0.0
 10
-0.0507008128
 20
30.3269130182
 30
0.0
 10
-0.065627848
 20
30.2275922703
 30
0.0
 10
-0.1161170543
 20
30.1331532092
 30
0.0
 10
-0.1935023386
 20
30.0973973412
 30
0.0
 10
-0.2395345741
 20
30.0930895307
 30
0.0
 10
-0.2548052327
 20
30.0934730689
 30
0.0
  0
SPLINE
  5
394
100
AcDbEntity
  8
0
100
AcDbSpline
 62
7
  6
CONTINUOUS
 70
0
 71
3
 72
11
 73
7
 74
0
 42
0.0000001
 43
0.0000001
 44
0.0000000001
 40
0.0
 40
0.0
 40
0.0
 40
0.0
 40
0.1802594941
 40
0.5400380017
 40
0.8325598106
 40
1.0
 40
1.0
 40
1.0
 40
1.0
 10
-0.2548052327
 20
30.0934730689
 30
0.0
 10
-0.2759368665
 20
30.0922173925
 30
0.0
 10
-0.3405765116
 20
30.1038609299
 30
0.0
 10
-0.4175204788
 20
30.1760957554
 30
0.0
 10
-0.4487573484
 20
30.2691645955
 30
0.0
 10
-0.4529903382
 20
30.3232209989
 30
0.0
 10
-0.4531736151
 20
30.3428836083
 30
0.0
  0
SPLINE
  5
395
100
AcDbEntity
  8
0
100
AcDbSpline
 62
7
  6
CONTINUOUS
 70
0
 71
3
 72
14
 73
10
 74
0
 42
0.0000001
 43
0.0000001
 44
0.0000000001
 40
0.0
 40
0.0
 40
0.0
 40
0.0
 40
0.0326556104
 40
0.1208667671
 40
0.3416589687
 40
0.5791634922
 40
0.7948114963
 40
0.9100659187
 40
1.0
 40
1.0
 40
1.0
 40
1.0
 10
-0.4531736151
 20
30.3428836083
 30
0.0
 10
-0.4531736151
 20
30.358627723
 30
0.0
 10
-0.4507190044
 20
30.4168752414
 30
0.0
 10
-0.4052988488
 20
30.5798510093
 30
0.0
 10
-0.2002867574
 20
30.7627601757
 30
0.0
 10
0.045727206
 20
30.970248185
 30
0.0
 10
0.1952322116
 20
31.2108787655
 30
0.0
 10
0.235139997
 20
31.4114637003
 30
0.0
 10
0.2401902406
 20
31.5102895263
 30
0.0
 10
0.2424691688
 20
31.5535891432
 30
0.0
  0
SPLINE
  5
396
100
AcDbEntity
  8
0
100
AcDbSpline
 62
7
  6
CONTINUOUS
 70
0
 71
3
 72
14
 73
10
 74
0
 42
0.0000001
 43
0.0000001
 44
0.0000000001
 40
0.0
 40
0.0
 40
0.0
 40
0.0
 40
0.0652551466
 40
0.1182319273
 40
0.3304958467
 40
0.57883564
 40
0.7944477031
 40
0.9357562169
 40
1.0
 40
1.0
 40
1.0
 40
1.0
 10
-0.1126987196
 20
31.2477891421
 30
0.0
 10
-0.1253689902
 20
31.2268068936
 30
0.0
 10
-0.1473913209
 20
31.1878837863
 30
0.0
 10
-0.2333222757
 20
31.0975344174
 30
0.0
 10
-0.3792793758
 20
30.971911309
 30
0.0
 10
-0.5797750982
 20
30.8130632163
 30
0.0
 10
-0.700253178
 20
30.6126956567
 30
0.0
 10
-0.7325460416
 20
30.456206841
 30
0.0
 10
-0.7362255761
 20
30.3790019218
 30
0.0
 10
-0.7362255761
 20
30.3548707815
 30
0.0
  0
SPLINE
  5
397
100
AcDbEntity
  8
0
100
AcDbSpline
 62
7
  6
CONTINUOUS
 70
0
 71
3
 72
13
 73
9
 74
0
 42
0.0000001
 43
0.0000001
 44
0.0000000001
 40
0.0
 40
0.0
 40
0.0
 40
0.0
 40
0.1032302293
 40
0.2441442576
 40
0.4936344215
 40
0.6857525144
 40
0.8397495956
 40
1.0
 40
1.0
 40
1.0
 40
1.0
 10
-0.7362255761
 20
30.3548707815
 30
0.0
 10
-0.7363380605
 20
30.3263433933
 30
0.0
 10
-0.7327820388
 20
30.2587657414
 30
0.0
 10
-0.7058512672
 20
30.1245899247
 30
0.0
 10
-0.633027068
 20
29.9760276637
 30
0.0
 10
-0.5061657278
 20
29.8650833212
 30
0.0
 10
-0.3743603535
 20
29.8129959147
 30
0.0
 10
-0.287103159
 20
29.8026944508
 30
0.0
 10
-0.2428180594
 20
29.8026874478
 30
0.0
  0
SPLINE
  5
398
100
AcDbEntity
  8
0
100
AcDbSpline
 62
7
  6
CONTINUOUS
 70
0
 71
3
 72
12
 73
8
 74
0
 42
0.0000001
 43
0.0000001
 44
0.0000000001
 40
0.0
 40
0.0
 40
0.0
 40
0.0
 40
0.1256213689
 40
0.1823918692
 40
0.5178944537
 40
0.8039625183
 40
1.0
 40
1.0
 40
1.0
 40
1.0
 10
3.2385640968
 20
30.9873759022
 30
0.0
 10
3.2385640968
 20
30.9700920417
 30
0.0
 10
3.238412869
 20
30.944871538
 30
0.0
 10
3.2276574172
 20
30.8745117201
 30
0.0
 10
3.2051357837
 20
30.7806903255
 30
0.0
 10
3.1163514053
 20
30.6993650496
 30
0.0
 10
3.0489938114
 20
30.6865365229
 30
0.0
 10
3.022021613
 20
30.6865365229
 30
0.0
  0
SPLINE
  5
399
100
AcDbEntity
  8
0
100
AcDbSpline
 62
7
  6
CONTINUOUS
 70
0
 71
3
 72
12
 73
8
 74
0
 42
0.0000001
 43
0.0000001
 44
0.0000000001
 40
0.0
 40
0.0
 40
0.0
 40
0.0
 40
0.1785070189
 40
0.3861756488
 40
0.5984366329
 40
0.8688776476
 40
1.0
 40
1.0
 40
1.0
 40
1.0
 10
3.022021613
 20
30.6865365229
 30
0.0
 10
2.9983092587
 20
30.6865365229
 30
0.0
 10
2.9466066757
 20
30.6977610437
 30
0.0
 10
2.8803218271
 20
30.7464647839
 30
0.0
 10
2.8353951627
 20
30.828608682
 30
0.0
 10
2.8179369173
 20
30.9092480097
 30
0.0
 10
2.8159195704
 20
30.9626110123
 30
0.0
 10
2.8159195704
 20
30.980028925
 30
0.0
  0
SPLINE
  5
39A
100
AcDbEntity
  8
0
100
AcDbSpline
 62
7
  6
CONTINUOUS
 70
0
 71
3
 72
12
 73
8
 74
0
 42
0.0000001
 43
0.0000001
 44
0.0000000001
 40
0.0
 40
0.0
 40
0.0
 40
0.0
 40
0.1318074585
 40
0.3034329874
 40
0.6181924422
 40
0.8205587368
 40
1.0
 40
1.0
 40
1.0
 40
1.0
 10
2.8159195704
 20
30.980028925
 30
0.0
 10
2.8159195704
 20
30.9988585303
 30
0.0
 10
2.8171713226
 20
31.0422793598
 30
0.0
 10
2.828855069
 20
31.1296965926
 30
0.0
 10
2.8596546988
 20
31.226159389
 30
0.0
 10
2.9328389727
 20
31.2994991743
 30
0.0
 10
2.9886535298
 20
31.3129629939
 30
0.0
 10
3.0142879529
 20
31.3129629939
 30
0.0
  0
SPLINE
  5
39B
100
AcDbEntity
  8
0
100
AcDbSpline
 62
7
  6
CONTINUOUS
 70
0
 71
3
 72
12
 73
8
 74
0
 42
0.0000001
 43
0.0000001
 44
0.0000000001
 40
0.0
 40
0.0
 40
0.0
 40
0.0
 40
0.0753026129
 40
0.218853156
 40
0.4424161071
 40
0.793665707
 40
1.0
 40
1.0
 40
1.0
 40
1.0
 10
3.0142879529
 20
31.3129629939
 30
0.0
 10
3.0252810605
 20
31.3129629939
 30
0.0
 10
3.0572754157
 20
31.3105067654
 30
0.0
 10
3.1195249824
 20
31.2881843997
 30
0.0
 10
3.1956656552
 20
31.2105659726
 30
0.0
 10
3.2330891512
 20
31.0988237597
 30
0.0
 10
3.2385640968
 20
31.0174977666
 30
0.0
 10
3.2385640968
 20
30.9873759022
 30
0.0
  0
SPLINE
  5
39C
100
AcDbEntity
  8
0
100
AcDbSpline
 62
7
  6
CONTINUOUS
 70
0
 71
3
 72
12
 73
8
 74
0
 42
0.0000001
 43
0.0000001
 44
0.0000000001
 40
0.0
 40
0.0
 40
0.0
 40
0.0
 40
0.1647259497
 40
0.4005949281
 40
0.6534590834
 40
0.8613396785
 40
1.0
 40
1.0
 40
1.0
 40
1.0
 10
3.245533048
 20
30.5636707229
 30
0.0
 10
3.2435312894
 20
30.5307529147
 30
0.0
 10
3.2388235664
 20
30.4507015848
 30
0.0
 10
3.2224406613
 20
30.3205926928
 30
0.0
 10
3.1850864373
 20
30.1857140365
 30
0.0
 10
3.1070759446
 20
30.0841875729
 30
0.0
 10
3.0354745432
 20
30.067457029
 30
0.0
 10
3.0077143418
 20
30.067457029
 30
0.0
  0
SPLINE
  5
39D
100
AcDbEntity
  8
0
100
AcDbSpline
 62
7
  6
CONTINUOUS
 70
0
 71
3
 72
13
 73
9
 74
0
 42
0.0000001
 43
0.0000001
 44
0.0000000001
 40
0.0
 40
0.0
 40
0.0
 40
0.0
 40
0.0960549316
 40
0.2261229842
 40
0.4987157118
 40
0.6953281162
 40
0.9081674869
 40
1.0
 40
1.0
 40
1.0
 40
1.0
 10
3.0077143418
 20
30.067457029
 30
0.0
 10
2.999320361
 20
30.067457029
 30
0.0
 10
2.9795136216
 20
30.0686063851
 30
0.0
 10
2.9368933402
 20
30.0781112815
 30
0.0
 10
2.8892694819
 20
30.1059233125
 30
0.0
 10
2.8582578272
 20
30.1582323895
 30
0.0
 10
2.8459383354
 20
30.2007115683
 30
0.0
 10
2.8432517592
 20
30.2272209029
 30
0.0
 10
2.84222656
 20
30.2351801434
 30
0.0
  0
SPLINE
  5
39E
100
AcDbEntity
  8
0
100
AcDbSpline
 62
7
  6
CONTINUOUS
 70
0
 71
3
 72
13
 73
9
 74
0
 42
0.0000001
 43
0.0000001
 44
0.0000000001
 40
0.0
 40
0.0
 40
0.0
 40
0.0
 40
0.0934850451
 40
0.3373815373
 40
0.6340371951
 40
0.8101904432
 40
0.9115548003
 40
1.0
 40
1.0
 40
1.0
 40
1.0
 10
2.5611101084
 20
30.2351801436
 30
0.0
 10
2.5642702815
 20
30.2141739466
 30
0.0
 10
2.5756143155
 20
30.1383821244
 30
0.0
 10
2.6114307626
 20
29.9978195809
 30
0.0
 10
2.7187436329
 20
29.8611954194
 30
0.0
 10
2.8430594007
 20
29.8141486651
 30
0.0
 10
2.9241146008
 20
29.7960944508
 30
0.0
 10
2.9672354914
 20
29.7913653622
 30
0.0
 10
2.9873328642
 20
29.7913653622
 30
0.0
  0
SPLINE
  5
39F
100
AcDbEntity
  8
0
100
AcDbSpline
 62
7
  6
CONTINUOUS
 70
0
 71
3
 72
14
 73
10
 74
0
 42
0.0000001
 43
0.0000001
 44
0.0000000001
 40
0.0
 40
0.0
 40
0.0
 40
0.0
 40
0.0974209039
 40
0.1835207442
 40
0.4205557156
 40
0.588396897
 40
0.761472812
 40
0.8859059353
 40
1.0
 40
1.0
 40
1.0
 40
1.0
 10
2.9873328642
 20
29.7913653622
 30
0.0
 10
3.0260283869
 20
29.7913653622
 30
0.0
 10
3.099259918
 20
29.7978599621
 30
0.0
 10
3.259440424
 20
29.8510066849
 30
0.0
 10
3.4024259517
 20
30.0048206054
 30
0.0
 10
3.4775363378
 20
30.2228012904
 30
0.0
 10
3.5091675192
 20
30.405652534
 30
0.0
 10
3.519192079
 20
30.568909349
 30
0.0
 10
3.5216160578
 20
30.6636460455
 30
0.0
 10
3.5216160578
 20
30.7089641373
 30
0.0
  0
SPLINE
  5
3A0
100
AcDbEntity
  8
0
100
AcDbSpline
 62
7
  6
CONTINUOUS
 70
0
 71
3
 72
14
 73
10
 74
0
 42
0.0000001
 43
0.0000001
 44
0.0000000001
 40
0.0
 40
0.0
 40
0.0
 40
0.0
 40
0.1419026395
 40
0.325351858
 40
0.5355361309
 40
0.7223169155
 40
0.8717797923
 40
0.955697981
 40
1.0
 40
1.0
 40
1.0
 40
1.0
 10
3.5216160578
 20
30.7089641373
 30
0.0
 10
3.5216160578
 20
30.7632565444
 30
0.0
 10
3.5176631794
 20
30.887805278
 30
0.0
 10
3.4958227482
 20
31.0915773822
 30
0.0
 10
3.4416592895
 20
31.3093606674
 30
0.0
 10
3.3193245448
 20
31.4870631876
 30
0.0
 10
3.1731953677
 20
31.5679179291
 30
0.0
 10
3.0676478823
 20
31.5827012233
 30
0.0
 10
3.0188641919
 20
31.5890546607
 30
0.0
 10
3.0019140967
 20
31.5890546607
 30
0.0
  0
SPLINE
  5
3A1
100
AcDbEntity
  8
0
100
AcDbSpline
 62
7
  6
CONTINUOUS
 70
0
 71
3
 72
12
 73
8
 74
0
 42
0.0000001
 43
0.0000001
 44
0.0000000001
 40
0.0
 40
0.0
 40
0.0
 40
0.0
 40
0.186655837
 40
0.4080174125
 40
0.6556453203
 40
0.8943305364
 40
1.0
 40
1.0
 40
1.0
 40
1.0
 10
3.0019140967
 20
31.5890546607
 30
0.0
 10
2.9472233552
 20
31.5890546607
 30
0.0
 10
2.8261123624
 20
31.5644271693
 30
0.0
 10
2.6686100286
 20
31.4425261287
 30
0.0
 10
2.5709975308
 20
31.2541377815
 30
0.0
 10
2.5366935846
 20
31.0825400762
 30
0.0
 10
2.5328676094
 20
30.9816024984
 30
0.0
 10
2.5328676094
 20
30.9506410165
 30
0.0
  0
SPLINE
  5
3A2
100
AcDbEntity
  8
0
100
AcDbSpline
 62
7
  6
CONTINUOUS
 70
0
 71
3
 72
14
 73
10
 74
0
 42
0.0000001
 43
0.0000001
 44
0.0000000001
 40
0.0
 40
0.0
 40
0.0
 40
0.0
 40
0.1270925824
 40
0.2543731419
 40
0.4608291989
 40
0.541698735
 40
0.7010184163
 40
0.8653682949
 40
1.0
 40
1.0
 40
1.0
 40
1.0
 10
2.5328676094
 20
30.9506410165
 30
0.0
 10
2.5328676094
 20
30.9178151314
 30
0.0
 10
2.5383165039
 20
30.8521207422
 30
0.0
 10
2.5605887866
 20
30.7349521308
 30
0.0
 10
2.6044275496
 20
30.6352568686
 30
0.0
 10
2.6709780401
 20
30.5409083019
 30
0.0
 10
2.7488472836
 20
30.4683969767
 30
0.0
 10
2.8595715457
 20
30.4208204473
 30
0.0
 10
2.9369797079
 20
30.410444856
 30
0.0
 10
2.9717528221
 20
30.410444856
 30
0.0
  0
SPLINE
  5
3A3
100
AcDbEntity
  8
0
100
AcDbSpline
 62
7
  6
CONTINUOUS
 70
0
 71
3
 72
12
 73
8
 74
0
 42
0.0000001
 43
0.0000001
 44
0.0000000001
 40
0.0
 40
0.0
 40
0.0
 40
0.0
 40
0.1149232047
 40
0.3185514617
 40
0.5717520337
 40
0.85187164
 40
1.0
 40
1.0
 40
1.0
 40
1.0
 10
2.9717528221
 20
30.410444856
 30
0.0
 10
2.9843949846
 20
30.410444856
 30
0.0
 10
3.0194410059
 20
30.4117610056
 30
0.0
 10
3.0818717154
 20
30.422357208
 30
0.0
 10
3.1567523408
 20
30.4566399953
 30
0.0
 10
3.2120670972
 20
30.5097644385
 30
0.0
 10
3.236721454
 20
30.5499637988
 30
0.0
 10
3.245533048
 20
30.5636707229
 30
0.0
  0
SPLINE
  5
3A4
100
AcDbEntity
  8
0
100
AcDbSpline
 62
7
  6
CONTINUOUS
 70
0
 71
3
 72
12
 73
8
 74
0
 42
0.0000001
 43
0.0000001
 44
0.0000000001
 40
0.0
 40
0.0
 40
0.0
 40
0.0
 40
0.1543906119
 40
0.2524812587
 40
0.5370586833
 40
0.8132916481
 40
1.0
 40
1.0
 40
1.0
 40
1.0
 10
4.3000088806
 20
29.834364139
 30
0.0
 10
4.302672263
 20
29.862995771
 30
0.0
 10
4.3093911944
 20
29.9098898948
 30
0.0
 10
4.34317702
 20
30.0044542056
 30
0.0
 10
4.4322784447
 20
30.1007145512
 30
0.0
 10
4.5714352093
 20
30.1379435659
 30
0.0
 10
4.6575785765
 20
30.137524825
 30
0.0
 10
4.692353
 20
30.1375243685
 30
0.0
  0
LINE
  5
3A5
100
AcDbEntity
  8
DRAFT
100
AcDbLine
 62
7
  6
CONTINUOUS
 10
8.6602947271
 20
-17.9072978575
 11
8.65
 21
-17.9096964284
  0
ELLIPSE
  5
3A6
100
AcDbEntity
  8
DRAFT
100
AcDbEllipse
 62
7
  6
CONTINUOUS
 10
-6.9
 20
-17.9072978575
 30
0.0
 11
171.882975194
 21
-0.0
 31
0.0
 40
0.0087268678
 41
1.5838870024
 42
1.5853416193
  0
ELLIPSE
  5
3A7
100
AcDbEntity
  8
0
100
AcDbEllipse
 62
7
  6
CONTINUOUS
 10
-8.65
 20
-14.4116612914
 30
0.0
 11
0.9
 21
-0.0
 31
0.0
 40
0.0087268678
 41
1.745329252
 42
2.159827297
  0
ELLIPSE
  5
3A8
100
AcDbEntity
  8
0
100
AcDbEllipse
 62
7
  6
CONTINUOUS
 10
-8.65
 20
-8.4029344236
 30
0.0
 11
0.9
 21
-0.0
 31
0.0
 40
0.0087268678
 41
-2.159827297
 42
-1.745329252
  0
ELLIPSE
  5
3A9
100
AcDbEntity
  8
0
100
AcDbEllipse
 62
7
  6
CONTINUOUS
 10
-8.65
 20
14.5883387086
 30
0.0
 11
0.9
 21
-0.0
 31
0.0
 40
0.0087268678
 41
1.745329252
 42
2.159827297
  0
ELLIPSE
  5
3AA
100
AcDbEntity
  8
0
100
AcDbEllipse
 62
7
  6
CONTINUOUS
 10
-8.65
 20
20.5970655764
 30
0.0
 11
0.9
 21
0.0
 31
0.0
 40
0.0087268678
 41
-2.159827297
 42
-1.745329252
  0
ELLIPSE
  5
3AB
100
AcDbEntity
  8
0
100
AcDbEllipse
 62
7
  6
CONTINUOUS
 10
8.65
 20
-14.4116612914
 30
0.0
 11
0.9
 21
-0.0
 31
0.0
 40
0.0087268678
 41
0.9817653566
 42
1.3962634016
  0
ELLIPSE
  5
3AC
100
AcDbEntity
  8
0
100
AcDbEllipse
 62
7
  6
CONTINUOUS
 10
8.65
 20
-8.4029344236
 30
0.0
 11
0.9
 21
-0.0
 31
0.0
 40
0.0087268678
 41
-1.3962634016
 42
-0.9817653566
  0
ELLIPSE
  5
3AD
100
AcDbEntity
  8
0
100
AcDbEllipse
 62
7
  6
CONTINUOUS
 10
8.65
 20
14.5883387086
 30
0.0
 11
0.9
 21
0.0
 31
0.0
 40
0.0087268678
 41
0.9817653566
 42
1.3962634016
  0
ELLIPSE
  5
3AE
100
AcDbEntity
  8
0
100
AcDbEllipse
 62
7
  6
CONTINUOUS
 10
8.65
 20
20.5970655764
 30
0.0
 11
0.9
 21
-0.0
 31
0.0
 40
0.0087268678
 41
-1.3962634016
 42
-0.9817653566
  0
ELLIPSE
  5
3AF
100
AcDbEntity
  8
0
100
AcDbEllipse
 62
7
  6
CONTINUOUS
 10
-8.65
 20
-14.4116612914
 30
0.0
 11
0.5
 21
-0.0
 31
0.0
 40
0.0087268678
 41
1.5707963268
 42
1.9189623481
  0
ELLIPSE
  5
3B0
100
AcDbEntity
  8
0
100
AcDbEllipse
 62
7
  6
CONTINUOUS
 10
-8.65
 20
14.5883387086
 30
0.0
 11
0.5
 21
-0.0
 31
0.0
 40
0.0087268678
 41
1.5707963268
 42
1.9189623481
  0
ELLIPSE
  5
3B1
100
AcDbEntity
  8
0
100
AcDbEllipse
 62
7
  6
CONTINUOUS
 10
-8.65
 20
-8.4029344236
 30
0.0
 11
0.5
 21
0.0
 31
0.0
 40
0.0087268678
 41
-1.9189623481
 42
-1.5707963268
  0
ELLIPSE
  5
3B2
100
AcDbEntity
  8
0
100
AcDbEllipse
 62
7
  6
CONTINUOUS
 10
-8.65
 20
20.5970655764
 30
0.0
 11
0.5
 21
0.0
 31
0.0
 40
0.0087268678
 41
-1.9189623481
 42
-1.5707963268
  0
ELLIPSE
  5
3B3
100
AcDbEntity
  8
0
100
AcDbEllipse
 62
7
  6
CONTINUOUS
 10
8.65
 20
-14.4116612914
 30
0.0
 11
0.5
 21
-0.0
 31
0.0
 40
0.0087268678
 41
1.2226303055
 42
1.5707963268
  0
ELLIPSE
  5
3B4
100
AcDbEntity
  8
0
100
AcDbEllipse
 62
7
  6
CONTINUOUS
 10
8.65
 20
14.5883387086
 30
0.0
 11
0.5
 21
0.0
 31
0.0
 40
0.0087268678
 41
1.2226303055
 42
1.5707963268
  0
ELLIPSE
  5
3B5
100
AcDbEntity
  8
0
100
AcDbEllipse
 62
7
  6
CONTINUOUS
 10
8.65
 20
-8.4029344236
 30
0.0
 11
0.5
 21
0.0
 31
0.0
 40
0.0087268678
 41
-1.5707963268
 42
-1.2226303055
  0
ELLIPSE
  5
3B6
100
AcDbEntity
  8
0
100
AcDbEllipse
 62
7
  6
CONTINUOUS
 10
8.65
 20
20.5970655764
 30
0.0
 11
0.5
 21
-0.0
 31
0.0
 40
0.0087268678
 41
-1.5707963268
 42
-1.2226303055
  0
ENDSEC
  0
SECTION
  2
OBJECTS
  0
DICTIONARY
  5
C
100
AcDbDictionary
280
0
281
1
  3
ACAD_GROUP
350
D
  3
ACAD_MLINESTYLE
350
17
  3
ACAD_LAYOUT
350
1A
  3
ACAD_PLOTSETTINGS
350
19
  3
ACAD_PLOTSTYLENAME
350
E
  0
DICTIONARY
  5
D
102
{ACAD_REACTORS
330
C
102
}
100
AcDbDictionary
280
0
281
1
  0
ACDBDICTIONARYWDFLT
  5
E
102
{ACAD_REACTORS
330
C
102
}
100
AcDbDictionary
281
1
  3
Normal
350
F
100
AcDbDictionaryWithDefault
340
F
  0
DICTIONARY
  5
17
102
{ACAD_REACTORS
330
C
102
}
100
AcDbDictionary
280
0
281
1
  3
Standard
350
18
  0
DICTIONARY
  5
19
102
{ACAD_REACTORS
330
C
102
}
100
AcDbDictionary
281
1
  0
DICTIONARY
  5
1A
102
{ACAD_REACTORS
330
C
102
}
100
AcDbDictionary
281
1
  3
Model
350
3B7
  3
Layout1
350
3B8
  0
ACDBPLACEHOLDER
  5
F
102
{ACAD_REACTORS
330
E
102
}
  0
MLINESTYLE
  5
18
102
{ACAD_REACTORS
330
17
102
}
100
AcDbMlineStyle
  2
STANDARD
 70
0
  3

 62
256
 51
90.0
 52
90.0
 71
2
 49
0.5
 62
256
  6
BYLAYER
 49
-0.5
 62
256
  6
BYLAYER
  0
LAYOUT
  5
3B7
102
{ACAD_REACTORS
330
1A
102
}
100
AcDbPlotSettings
  1

  2
none_device
  4
ANSI_C_(22.00_x_17.00_Inches)
  6

 40
0.0
 41
0.0
 42
0.0
 43
0.0
 44
558.8
 45
431.8
 46
0.0
 47
0.0
 48
0.0
 49
0.0
140
0.0
141
0.0
142
1.0
143
1.0
 70
1024
 72
1
 73
0
 74
0
  7

 75
0
147
1.0
148
0.0
149
0.0
100
AcDbLayout
  1
Model
 70
0
 71
0
 10
0.0
 20
0.0
 11
558.8
 21
431.8
 12
0.0
 22
0.0
 32
0.0
 14
0.0
 24
0.0
 34
0.0
 15
0.0
 25
0.0
 35
0.0
146
0.0
 13
0.0
 23
0.0
 33
0.0
 16
1.0
 26
0.0
 36
0.0
 17
0.0
 27
1.0
 37
0.0
 76
0
330
216
345
0
346
0
  0
LAYOUT
  5
3B8
102
{ACAD_REACTORS
330
1A
102
}
100
AcDbPlotSettings
  1

  2
none_device
  4
ANSI_C_(22.00_x_17.00_Inches)
  6

 40
0.0
 41
0.0
 42
0.0
 43
0.0
 44
558.8
 45
431.8
 46
0.0
 47
0.0
 48
0.0
 49
0.0
140
0.0
141
0.0
142
1.0
143
1.0
 70
0
 72
1
 73
0
 74
0
  7

 75
0
147
1.0
148
0.0
149
0.0
100
AcDbLayout
  1
Layout1
 70
0
 71
1
 10
0.0
 20
0.0
 11
558.8
 21
431.8
 12
0.0
 22
0.0
 32
0.0
 14
0.0
 24
0.0
 34
0.0
 15
0.0
 25
0.0
 35
0.0
146
0.0
 13
0.0
 23
0.0
 33
0.0
 16
1.0
 26
0.0
 36
0.0
 17
0.0
 27
1.0
 37
0.0
 76
0
330
217
345
0
346
0
  0
ENDSEC
  0
EOF
