  0
SECTION
  2
HEADER
  9
$ACADVER
  1
AC1021
  9
$DWGCODEPAGE
  3
ANSI_1252
  9
$EXTMAX
 10
297.0
 20
210.0
 30
0.0
  9
$EXTMIN
 10
0.0
 20
0.0
 30
0.0
  9
$LIMMIN
 10
0.0
 20
0.0
  9
$LIMMAX
 10
297.0
 20
210.0
  9
$VIEWCTR
 10
148.5
 20
105.0
  9
$VIEWSIZE
 40
210.0
  9
$CLAYER
  8
0
  9
$LTSCALE
 40
16.335
  9
$CELTYPE
  6
BYLAYER
  9
$DIMSCALE
 40
1.0
  9
$DIMASZ
 40
3.0
  9
$DIMEXO
 40
0.5
  9
$DIMDLI
 40
11.286
  9
$DIMEXE
 40
1.5
  9
$DIMCEN
 40
2.673
  9
$DIMLFAC
 40
1.0
  9
$DIMBLK
  1
_FILLED
  9
$DIMALT
 70
0
  9
$DIMALTF
 40
25.4
  9
$DIMTXT
 40
3.0
  9
$DIMTOL
 70
1
  9
$DIMLIM
 70
0
  9
$DIMTFAC
 40
1.0
  9
$DIMTP
 40
0.01
  9
$DIMTM
 40
0.01
  9
$DIMGAP
 40
0.625
  9
$DIMDSEP
 70
44
  9
$AUNITS
 70
0
  9
$PDMODE
 70
3
  9
$PDSIZE
 40
3.0
  9
$HANDSEED
  5
717
  9
$TILEMODE
 70
1
  9
$MEASUREMENT
 70
1
  9
$INSUNITS
 70
4
  0
ENDSEC
  0
SECTION
  2
CLASSES
  0
CLASS
  1
ACDBDICTIONARYWDFLT
  2
AcDbDictionaryWithDefault
  3
AutoCAD 2000
 90
0
 91
1
280
0
281
0
  0
CLASS
  1
ACDBPLACEHOLDER
  2
AcDbPlaceHolder
  3
AutoCAD 2000
 90
0
 91
1
280
0
281
0
  0
CLASS
  1
LAYOUT
  2
AcDbLayout
  3
AutoCAD 2000
 90
0
 91
0
280
0
281
0
  0
ENDSEC
  0
SECTION
  2
TABLES
  0
TABLE
  2
VPORT
  5
8
100
AcDbSymbolTable
 70
2
  0
VPORT
  5
1F4
100
AcDbSymbolTableRecord
100
AcDbViewportTableRecord
  2
*ACTIVE
 70
0
 10
0.0
 20
0.0
 11
1.0
 21
1.0
 12
148.5
 22
105.0
 13
0.0
 23
0.0
 14
1.0
 24
1.0
 15
0.0
 25
0.0
 16
0.0
 26
0.0
 36
1.0
 17
0.0
 27
0.0
 37
0.0
 40
210.0
 41
1.4142857143
 42
50.0
 43
0.0
 44
0.0
 50
0.0
 51
0.0
 71
0
 72
100
 73
1
 74
1
 75
0
 76
0
 77
0
 78
0
  0
ENDTAB
  0
TABLE
  2
LTYPE
  5
5
100
AcDbSymbolTable
 70
6
  0
LTYPE
  5
14
100
AcDbSymbolTableRecord
100
AcDbLinetypeTableRecord
  2
BYBLOCK
 70
0
  3

 72
65
 73
0
 40
0.0
  0
LTYPE
  5
15
100
AcDbSymbolTableRecord
100
AcDbLinetypeTableRecord
  2
BYLAYER
 70
0
  3

 72
65
 73
0
 40
0.0
  0
LTYPE
  5
16
100
AcDbSymbolTableRecord
100
AcDbLinetypeTableRecord
  2
CONTINUOUS
 70
64
  3
Solid line
 72
65
 73
0
 40
0.0
  0
LTYPE
  5
1F5
100
AcDbSymbolTableRecord
100
AcDbLinetypeTableRecord
  2
CENTER
 70
64
  3
____ _ ____ _ ____ _ ____ _ ____ _ ____ _ ____
 72
65
 73
4
 40
0.6
 49
0.375
 74
0
 49
-0.075
 74
0
 49
0.075
 74
0
 49
-0.075
 74
0
  0
LTYPE
  5
1F6
100
AcDbSymbolTableRecord
100
AcDbLinetypeTableRecord
  2
HIDDEN
 70
64
  3
- - - - - - - - - - - - - - - - - - - -
 72
65
 73
2
 40
0.2
 49
0.1
 74
0
 49
-0.1
 74
0
  0
LTYPE
  5
1F7
100
AcDbSymbolTableRecord
100
AcDbLinetypeTableRecord
  2
PHANTOM
 70
64
  3
_____ _ _ _____ _ _ _____ _ _ _____
 72
65
 73
6
 40
0.8
 49
0.45
 74
0
 49
-0.05
 74
0
 49
0.1
 74
0
 49
-0.05
 74
0
 49
0.1
 74
0
 49
-0.05
 74
0
  0
LTYPE
  5
1F8
100
AcDbSymbolTableRecord
100
AcDbLinetypeTableRecord
  2
DOT
 70
64
  3
. . . . . . . . . . . . . . . . . . . .
 72
65
 73
2
 40
0.2
 49
0.1
 74
0
 49
-0.1
 74
0
  0
LTYPE
  5
1F9
100
AcDbSymbolTableRecord
100
AcDbLinetypeTableRecord
  2
DASHED
 70
64
  3
- - - - - - - - - - - - - - - - - - - -
 72
65
 73
2
 40
0.2
 49
0.1
 74
0
 49
-0.1
 74
0
  0
ENDTAB
  0
TABLE
  2
LAYER
  5
2
100
AcDbSymbolTable
 70
36
  0
LAYER
  5
10
100
AcDbSymbolTableRecord
100
AcDbLayerTableRecord
  2
0
 70
0
 62
7
  6
CONTINUOUS
370
-3
390
F
  0
LAYER
  5
1FA
100
AcDbSymbolTableRecord
100
AcDbLayerTableRecord
  2
DEFAULT_1
 70
0
 62
7
  6
CENTER
370
-3
390
F
  0
LAYER
  5
1FB
100
AcDbSymbolTableRecord
100
AcDbLayerTableRecord
  2
DEFAULT_2
 70
0
 62
7
  6
HIDDEN
370
-3
390
F
  0
LAYER
  5
1FC
100
AcDbSymbolTableRecord
100
AcDbLayerTableRecord
  2
DEFAULT_3
 70
0
 62
7
  6
PHANTOM
370
-3
390
F
  0
LAYER
  5
1FD
100
AcDbSymbolTableRecord
100
AcDbLayerTableRecord
  2
ASSI
 70
0
 62
7
  6
CONTINUOUS
370
-3
390
F
  0
LAYER
  5
1FE
100
AcDbSymbolTableRecord
100
AcDbLayerTableRecord
  2
COORDINATE
 70
0
 62
7
  6
CONTINUOUS
370
-3
390
F
  0
LAYER
  5
1FF
100
AcDbSymbolTableRecord
100
AcDbLayerTableRecord
  2
COPY_PUBLISH
 70
0
 62
7
  6
CONTINUOUS
370
-3
390
F
  0
LAYER
  5
200
100
AcDbSymbolTableRecord
100
AcDbLayerTableRecord
  2
COSMETICI
 70
0
 62
7
  6
CONTINUOUS
370
-3
390
F
  0
LAYER
  5
201
100
AcDbSymbolTableRecord
100
AcDbLayerTableRecord
  2
CURVE
 70
0
 62
7
  6
CONTINUOUS
370
-3
390
F
  0
LAYER
  5
202
100
AcDbSymbolTableRecord
100
AcDbLayerTableRecord
  2
DRAFT
 70
0
 62
7
  6
CONTINUOUS
370
-3
390
F
  0
LAYER
  5
203
100
AcDbSymbolTableRecord
100
AcDbLayerTableRecord
  2
IMPORT_IGES
 70
0
 62
7
  6
CONTINUOUS
370
-3
390
F
  0
LAYER
  5
204
100
AcDbSymbolTableRecord
100
AcDbLayerTableRecord
  2
NOTE
 70
0
 62
7
  6
CONTINUOUS
370
-3
390
F
  0
LAYER
  5
205
100
AcDbSymbolTableRecord
100
AcDbLayerTableRecord
  2
PIANI
 70
0
 62
7
  6
CONTINUOUS
370
-3
390
F
  0
LAYER
  5
206
100
AcDbSymbolTableRecord
100
AcDbLayerTableRecord
  2
PUNTI
 70
0
 62
7
  6
CONTINUOUS
370
-3
390
F
  0
LAYER
  5
207
100
AcDbSymbolTableRecord
100
AcDbLayerTableRecord
  2
RACCORDO
 70
0
 62
7
  6
CONTINUOUS
370
-3
390
F
  0
LAYER
  5
208
100
AcDbSymbolTableRecord
100
AcDbLayerTableRecord
  2
SIMBOLI
 70
0
 62
7
  6
CONTINUOUS
370
-3
390
F
  0
LAYER
  5
209
100
AcDbSymbolTableRecord
100
AcDbLayerTableRecord
  2
SMUSSO
 70
0
 62
7
  6
CONTINUOUS
370
-3
390
F
  0
LAYER
  5
20A
100
AcDbSymbolTableRecord
100
AcDbLayerTableRecord
  2
SNAPLINE
 70
0
 62
7
  6
CONTINUOUS
370
-3
390
F
  0
LAYER
  5
20B
100
AcDbSymbolTableRecord
100
AcDbLayerTableRecord
  2
SUPERFICI
 70
0
 62
7
  6
CONTINUOUS
370
-3
390
F
  0
LAYER
  5
20C
100
AcDbSymbolTableRecord
100
AcDbLayerTableRecord
  2
TRASH
 70
0
 62
7
  6
CONTINUOUS
370
-3
390
F
  0
ENDTAB
  0
TABLE
  2
STYLE
  5
3
100
AcDbSymbolTable
 70
1
  0
STYLE
  5
11
100
AcDbSymbolTableRecord
100
AcDbTextStyleTableRecord
  2
STANDARD
 70
0
 40
0.0
 41
0.8
 50
0.0
 71
0
 42
0.2
  3
txt
  4

  0
STYLE
  5
20D
100
AcDbSymbolTableRecord
100
AcDbTextStyleTableRecord
  2
TEXTSTYLE_1
 70
0
 40
0.0
 41
0.8
 50
0.0
 71
0
 42
0.2
  3
gdt
  4

  0
ENDTAB
  0
TABLE
  2
VIEW
  5
6
100
AcDbSymbolTable
 70
0
  0
ENDTAB
  0
TABLE
  2
UCS
  5
7
100
AcDbSymbolTable
 70
0
  0
ENDTAB
  0
TABLE
  2
APPID
  5
9
100
AcDbSymbolTable
 70
1
  0
APPID
  5
20E
100
AcDbSymbolTableRecord
100
AcDbRegAppTableRecord
  2
ACAD
 70
0
  0
ENDTAB
  0
TABLE
  2
BLOCK_RECORD
  5
1
100
AcDbSymbolTable
 70
0
  0
BLOCK_RECORD
  5
20F
100
AcDbSymbolTableRecord
100
AcDbBlockTableRecord
  2
*Model_Space
  0
BLOCK_RECORD
  5
210
100
AcDbSymbolTableRecord
100
AcDbBlockTableRecord
  2
*Paper_Space
  0
ENDTAB
  0
TABLE
  2
DIMSTYLE
  5
A
100
AcDbSymbolTable
 70
1
100
AcDbDimStyleTable
 71
0
  0
DIMSTYLE
105
211
100
AcDbSymbolTableRecord
100
AcDbDimStyleTableRecord
  2
STANDARD
 70
0
  3

  4

 40
1.0
 41
3.0
 42
0.5
 43
0.38
 44
1.5
 45
0.0
 46
0.0
 47
0.01
 48
0.01
140
3.0
141
0.09
142
0.0
143
25.4
144
1.0
145
0.0
146
1.0
147
0.625
 71
1.0
 72
0.0
 73
0
 74
0
 75
0
 76
0
 77
1
 78
8
170
0
171
1
172
0
173
0
174
0
175
0
176
0
177
0
178
0
270
2
271
2
272
2
273
2
274
2
275
0
280
0
281
0
282
0
283
1
284
8
285
0
286
0
287
3
288
0
340
11
278
44
  0
ENDTAB
  0
ENDSEC
  0
SECTION
  2
BLOCKS
  0
BLOCK
  5
20
100
AcDbEntity
  8
0
100
AcDbBlockBegin
  2
*Model_Space
 70
0
 10
0.0
 20
0.0
 30
0.0
  3
*Model_Space
  1

  0
ENDBLK
  5
21
100
AcDbEntity
  8
0
100
AcDbBlockEnd
  0
BLOCK
  5
1C
100
AcDbEntity
  8
0
100
AcDbBlockBegin
  2
*Paper_Space
 70
0
 10
0.0
 20
0.0
 30
0.0
  3
*Paper_Space
  1

  0
ENDBLK
  5
1D
100
AcDbEntity
  8
0
100
AcDbBlockEnd
  0
ENDSEC
  0
SECTION
  2
ENTITIES
  0
LWPOLYLINE
  5
212
100
AcDbEntity
  8
IMPORT_IGES
100
AcDbPolyline
 62
253
  6
CONTINUOUS
 90
22
 70
0
 10
-26.4719851331
 20
-17.6764758739
 10
-26.4680468037
 20
-17.6813266572
 10
-26.4588897016
 20
-17.6861133217
 10
-26.4446871026
 20
-17.6908116474
 10
-26.4257027766
 20
-17.6953845531
 10
-26.4021154762
 20
-17.6998257607
 10
-26.3738671142
 20
-17.7041565007
 10
-26.3410076955
 20
-17.7083632865
 10
-26.303738869
 20
-17.7124152715
 10
-26.2620892776
 20
-17.7163037497
 10
-26.216224324
 20
-17.7200056074
 10
-26.1663171389
 20
-17.7234998433
 10
-26.1123624543
 20
-17.7267772876
 10
-26.0543792946
 20
-17.7298230146
 10
-25.9927554144
 20
-17.7326035787
 10
-25.9280895316
 20
-17.7350847032
 10
-25.8608055002
 20
-17.737247192
 10
-25.7911669968
 20
-17.7390797395
 10
-25.7196146391
 20
-17.740567792
 10
-25.6465617414
 20
-17.741700631
 10
-25.5723857541
 20
-17.7424703166
 10
-25.4974980494
 20
-17.7428703301
  0
LINE
  5
213
100
AcDbEntity
  8
IMPORT_IGES
100
AcDbLine
 62
7
  6
CONTINUOUS
 10
-26.6157802462
 20
17.3527733631
 11
-26.6123195809
 21
17.2557484396
  0
LINE
  5
214
100
AcDbEntity
  8
IMPORT_IGES
100
AcDbLine
 62
7
  6
CONTINUOUS
 10
-26.6123195809
 20
17.2557484396
 11
-26.6057384366
 21
17.0292631134
  0
LINE
  5
215
100
AcDbEntity
  8
IMPORT_IGES
100
AcDbLine
 62
7
  6
CONTINUOUS
 10
-26.6057384366
 20
17.0292631134
 11
-26.5996409613
 21
16.7608299112
  0
LINE
  5
216
100
AcDbEntity
  8
IMPORT_IGES
100
AcDbLine
 62
7
  6
CONTINUOUS
 10
-26.5996409613
 20
16.7608299112
 11
-26.5916013252
 21
16.2881014218
  0
LINE
  5
217
100
AcDbEntity
  8
IMPORT_IGES
100
AcDbLine
 62
253
  6
CONTINUOUS
 10
-26.4737401578
 20
19.5781033433
 11
-26.4729570329
 21
19.5279936235
  0
LINE
  5
218
100
AcDbEntity
  8
IMPORT_IGES
100
AcDbLine
 62
7
  6
CONTINUOUS
 10
-26.5916013252
 20
16.2881014218
 11
-26.5832953348
 21
15.5491421096
  0
LINE
  5
219
100
AcDbEntity
  8
IMPORT_IGES
100
AcDbLine
 62
253
  6
CONTINUOUS
 10
-26.4729570329
 20
19.5279936235
 11
-26.4723850153
 21
19.468832366
  0
LINE
  5
21A
100
AcDbEntity
  8
IMPORT_IGES
100
AcDbLine
 62
7
  6
CONTINUOUS
 10
-26.5832953348
 20
15.5491421096
 11
-26.5781274527
 21
14.7208509785
  0
LINE
  5
21B
100
AcDbEntity
  8
IMPORT_IGES
100
AcDbLine
 62
253
  6
CONTINUOUS
 10
-26.4723850153
 20
19.468832366
 11
-26.4719851576
 21
19.3717243004
  0
LINE
  5
21C
100
AcDbEntity
  8
IMPORT_IGES
100
AcDbLine
 62
253
  6
CONTINUOUS
 10
-26.4719851576
 20
19.3717243004
 11
-26.4660113483
 21
13.2015904915
  0
LINE
  5
21D
100
AcDbEntity
  8
IMPORT_IGES
100
AcDbLine
 62
7
  6
CONTINUOUS
 10
-26.5781274527
 20
14.7208509785
 11
-26.5763749117
 21
13.8479323674
  0
LINE
  5
21E
100
AcDbEntity
  8
IMPORT_IGES
100
AcDbLine
 62
253
  6
CONTINUOUS
 10
-26.4660113483
 20
13.2015904915
 11
-26.4624265514
 21
7.0265102016
  0
LINE
  5
21F
100
AcDbEntity
  8
IMPORT_IGES
100
AcDbLine
 62
7
  6
CONTINUOUS
 10
-26.6435769118
 20
-15.6022383782
 11
-26.6435769118
 21
17.2974882038
  0
LINE
  5
220
100
AcDbEntity
  8
IMPORT_IGES
100
AcDbLine
 62
7
  6
CONTINUOUS
 10
-26.6418309373
 20
20.4131397163
 11
-26.6418309373
 21
17.6963157962
  0
LINE
  5
221
100
AcDbEntity
  8
IMPORT_IGES
100
AcDbLine
 62
7
  6
CONTINUOUS
 10
-26.6418311318
 20
-16.0010686737
 11
-26.6418311318
 21
-18.7178794071
  0
LINE
  5
222
100
AcDbEntity
  8
IMPORT_IGES
100
AcDbLine
 62
253
  6
CONTINUOUS
 10
-26.4624265514
 20
7.0265102016
 11
-26.4612311003
 21
0.8476249262
  0
LINE
  5
223
100
AcDbEntity
  8
IMPORT_IGES
100
AcDbLine
 62
253
  6
CONTINUOUS
 10
-26.4612311003
 20
0.8476249262
 11
-26.4624265513
 21
-5.3312603507
  0
LINE
  5
224
100
AcDbEntity
  8
IMPORT_IGES
100
AcDbLine
 62
253
  6
CONTINUOUS
 10
-25.4888379937
 20
-7.4196894845
 11
-25.4974980512
 21
19.4381140043
  0
LINE
  5
225
100
AcDbEntity
  8
IMPORT_IGES
100
AcDbLine
 62
253
  6
CONTINUOUS
 10
-26.4624265513
 20
-5.3312603507
 11
-26.4660113482
 21
-11.5063406349
  0
LINE
  5
226
100
AcDbEntity
  8
IMPORT_IGES
100
AcDbLine
 62
253
  6
CONTINUOUS
 10
-25.4974980517
 20
-17.7428649518
 11
-25.4888379937
 21
-7.4196894845
  0
LINE
  5
227
100
AcDbEntity
  8
IMPORT_IGES
100
AcDbLine
 62
7
  6
CONTINUOUS
 10
-26.5763746523
 20
13.8477341983
 11
-26.5773627079
 21
-12.810057846
  0
LINE
  5
228
100
AcDbEntity
  8
IMPORT_IGES
100
AcDbLine
 62
253
  6
CONTINUOUS
 10
-26.4660113482
 20
-11.5063406349
 11
-26.4722031778
 21
-17.7443121059
  0
LINE
  5
229
100
AcDbEntity
  8
IMPORT_IGES
100
AcDbLine
 62
7
  6
CONTINUOUS
 10
-26.5773627079
 20
-12.810057846
 11
-26.5816925331
 21
-13.6532050968
  0
LINE
  5
22A
100
AcDbEntity
  8
IMPORT_IGES
100
AcDbLine
 62
253
  6
CONTINUOUS
 10
-26.4722031778
 20
-17.7443121059
 11
-26.4726671368
 21
-17.8064672588
  0
LINE
  5
22B
100
AcDbEntity
  8
IMPORT_IGES
100
AcDbLine
 62
7
  6
CONTINUOUS
 10
-26.5816925331
 20
-13.6532050968
 11
-26.5892539769
 21
-14.4187581293
  0
LWPOLYLINE
  5
22C
100
AcDbEntity
  8
IMPORT_IGES
100
AcDbPolyline
 62
253
  6
CONTINUOUS
 90
8
 70
0
 10
-26.4726671368
 20
-17.8064672588
 10
-26.4733633756
 20
-17.8617459383
 10
-26.473784207
 20
-17.8851219693
 10
-26.4742517261
 20
-17.9057839242
 10
-26.4747442318
 20
-17.9231144376
 10
-26.4752544906
 20
-17.936907721
 10
-26.4757897361
 20
-17.947369563
 10
-26.4763499683
 20
-17.9544999634
  0
LINE
  5
22D
100
AcDbEntity
  8
IMPORT_IGES
100
AcDbLine
 62
7
  6
CONTINUOUS
 10
-26.5892539769
 20
-14.4187581293
 11
-26.5968090099
 21
-14.9170104937
  0
LINE
  5
22E
100
AcDbEntity
  8
IMPORT_IGES
100
AcDbLine
 62
7
  6
CONTINUOUS
 10
-26.5968090099
 20
-14.9170104937
 11
-26.6026181089
 21
-15.2045595509
  0
LWPOLYLINE
  5
22F
100
AcDbEntity
  8
IMPORT_IGES
100
AcDbPolyline
 62
7
  6
CONTINUOUS
 90
3
 70
0
 10
-26.6026181089
 20
-15.2045595509
 10
-26.6089720791
 20
-15.4527017241
 10
-26.6123197088
 20
-15.5605024615
  0
LINE
  5
230
100
AcDbEntity
  8
IMPORT_IGES
100
AcDbLine
 62
7
  6
CONTINUOUS
 10
-26.6123197088
 20
-15.5605024615
 11
-26.6157803634
 21
-15.6575265845
  0
LWPOLYLINE
  5
231
100
AcDbEntity
  8
IMPORT_IGES
100
AcDbPolyline
 62
7
  6
CONTINUOUS
 90
19
 70
0
 10
-26.6418309373
 20
20.4131397163
 10
-26.6386200065
 20
20.4920187099
 10
-26.6294903508
 20
20.5694845539
 10
-26.6144419703
 20
20.6455372483
 10
-26.5933114964
 20
20.7206224485
 10
-26.5662622976
 20
20.7942944991
 10
-26.5337844793
 20
20.8652164335
 10
-26.4957787874
 20
20.9333381198
 10
-26.452344476
 20
20.9987096899
 10
-26.4042694121
 20
21.0601445724
 10
-26.351468974
 20
21.1175708115
 10
-26.2940277834
 20
21.171060363
 10
-26.2329875721
 20
21.2196425228
 10
-26.1682851492
 20
21.2632269386
 10
-26.0999837056
 20
21.3019039628
 10
-26.0293145467
 20
21.3349739486
 10
-25.9566881074
 20
21.3622036803
 10
-25.8816939528
 20
21.3838263735
 10
-25.8043320827
 20
21.3998420282
  0
LWPOLYLINE
  5
232
100
AcDbEntity
  8
IMPORT_IGES
100
AcDbPolyline
 62
7
  6
CONTINUOUS
 90
8
 70
0
 10
-26.6157803634
 20
-15.6575265845
 10
-26.6193202652
 20
-15.742826108
 10
-26.6229401888
 20
-15.8162871535
 10
-26.6266393597
 20
-15.8780235997
 10
-26.6303816769
 20
-15.9274290973
 10
-26.6341551067
 20
-15.9643015301
 10
-26.6379716829
 20
-15.9888430144
 10
-26.6418314053
 20
-16.0010535501
  0
LWPOLYLINE
  5
233
100
AcDbEntity
  8
IMPORT_IGES
100
AcDbPolyline
 62
253
  6
CONTINUOUS
 90
19
 70
0
 10
-26.4763523865
 20
19.6497619806
 10
-26.4730009215
 20
19.727772897
 10
-26.463546695
 20
19.8044813806
 10
-26.4482419547
 20
19.8794401627
 10
-26.4274910064
 20
19.9518638966
 10
-26.4015343624
 20
20.0217695904
 10
-26.3701630106
 20
20.0898760692
 10
-26.3333106337
 20
20.1560441725
 10
-26.2912484264
 20
20.2195422584
 10
-26.2440375855
 20
20.2800922853
 10
-26.191757125
 20
20.3373627221
 10
-26.1347179433
 20
20.3908016817
 10
-26.0733952826
 20
20.4398333425
 10
-26.0082215616
 20
20.4840452005
 10
-25.9394840281
 20
20.5231792578
 10
-25.8675215603
 20
20.5569587033
 10
-25.7927346095
 20
20.5851034138
 10
-25.7155917794
 20
20.6073475726
 10
-25.636567803
 20
20.6234694987
  0
LWPOLYLINE
  5
234
100
AcDbEntity
  8
IMPORT_IGES
100
AcDbPolyline
 62
7
  6
CONTINUOUS
 90
19
 70
0
 10
-25.8043202856
 20
-19.7045940826
 10
-25.8816873238
 20
-19.6885766216
 10
-25.9566854745
 20
-19.6669525047
 10
-26.0293147375
 20
-19.6397217318
 10
-26.0999851749
 20
-19.606651238
 10
-26.1682867248
 20
-19.5679740882
 10
-26.2329892008
 20
-19.5243894775
 10
-26.2940297903
 20
-19.4758069003
 10
-26.351471306
 20
-19.4223168621
 10
-26.4042720001
 20
-19.3648900747
 10
-26.4523472552
 20
-19.3034545714
 10
-26.4957816887
 20
-19.2380823189
 10
-26.5337874042
 20
-19.1699599291
 10
-26.5662651657
 20
-19.0990372551
 10
-26.5933142092
 20
-19.0253644437
 10
-26.6144443464
 20
-18.950278548
 10
-26.6294921812
 20
-18.8742252521
 10
-26.6386211096
 20
-18.7967588718
 10
-26.6418311318
 20
-18.7178794071
  0
LWPOLYLINE
  5
235
100
AcDbEntity
  8
IMPORT_IGES
100
AcDbPolyline
 62
253
  6
CONTINUOUS
 90
4
 70
0
 10
-25.6365432831
 20
20.6234763774
 10
-25.6348341662
 20
20.6043991012
 10
-25.6322686158
 20
20.5783975774
 10
-25.624595491
 20
20.5061980396
  0
LWPOLYLINE
  5
236
100
AcDbEntity
  8
IMPORT_IGES
100
AcDbPolyline
 62
253
  6
CONTINUOUS
 90
6
 70
0
 10
-26.4763503882
 20
19.6497606149
 10
-26.4757722226
 20
19.6422149026
 10
-26.4752234499
 20
19.6313296907
 10
-26.4747040701
 20
19.6171049793
 10
-26.4742074175
 20
19.5992739111
 10
-26.4737401578
 20
19.5781033433
  0
LWPOLYLINE
  5
237
100
AcDbEntity
  8
IMPORT_IGES
100
AcDbPolyline
 62
253
  6
CONTINUOUS
 90
3
 70
0
 10
-25.632282813
 20
-18.8832407262
 10
-25.634841755
 20
-18.9091924165
 10
-25.6365429388
 20
-18.9282265766
  0
LINE
  5
238
100
AcDbEntity
  8
IMPORT_IGES
100
AcDbLine
 62
253
  6
CONTINUOUS
 10
-25.6246193776
 20
-18.8111333238
 11
-25.632282813
 21
-18.8832407262
  0
LWPOLYLINE
  5
239
100
AcDbEntity
  8
IMPORT_IGES
100
AcDbPolyline
 62
253
  6
CONTINUOUS
 90
10
 70
0
 10
-26.4763499683
 20
-17.9544999634
 10
-26.4946107292
 20
-18.1158713592
 10
-26.512907596
 20
-18.2581257531
 10
-26.5312405686
 20
-18.381263145
 10
-26.5496157664
 20
-18.4853117777
 10
-26.5680270702
 20
-18.5702434083
 10
-26.5864561217
 20
-18.6359733088
 10
-26.6048968017
 20
-18.6824732365
 10
-26.6233552296
 20
-18.7097714341
 10
-26.6418314053
 20
-18.7178679015
  0
LINE
  5
23A
100
AcDbEntity
  8
IMPORT_IGES
100
AcDbLine
 62
253
  6
CONTINUOUS
 10
-25.6070594728
 20
-18.6553594115
 11
-25.6246193776
 21
-18.8111333238
  0
LWPOLYLINE
  5
23B
100
AcDbEntity
  8
IMPORT_IGES
100
AcDbPolyline
 62
253
  6
CONTINUOUS
 90
3
 70
0
 10
-25.5207641683
 20
-17.9319241945
 10
-25.5537092046
 20
-18.2040530469
 10
-25.6070594728
 20
-18.6553594115
  0
LWPOLYLINE
  5
23C
100
AcDbEntity
  8
IMPORT_IGES
100
AcDbPolyline
 62
253
  6
CONTINUOUS
 90
22
 70
0
 10
-21.5567221147
 20
20.0283692558
 10
-21.4833694062
 20
20.0499992066
 10
-21.4106112691
 20
20.0685057281
 10
-21.3391132718
 20
20.0838795773
 10
-21.2698753922
 20
20.096083505
 10
-21.2031028887
 20
20.1051097896
 10
-21.1382253431
 20
20.111000649
 10
-21.0757148709
 20
20.1137741198
 10
-21.0160619231
 20
20.1133707556
 10
-20.9587932167
 20
20.1097408828
 10
-20.9043097055
 20
20.1028914886
 10
-20.853152266
 20
20.0927738181
 10
-20.8052247096
 20
20.0792698137
 10
-20.7608795486
 20
20.0621967929
 10
-20.7207205057
 20
20.0416810179
 10
-20.6850900702
 20
20.0180690734
 10
-20.654648821
 20
19.9916137167
 10
-20.6291680939
 20
19.9619798869
 10
-20.6081529275
 20
19.9286333888
 10
-20.5921268365
 20
19.891361916
 10
-20.5819285191
 20
19.8502716067
 10
-20.5779655263
 20
19.8052981862
  0
LINE
  5
23D
100
AcDbEntity
  8
IMPORT_IGES
100
AcDbLine
 62
253
  6
CONTINUOUS
 10
24.4770080739
 20
-19.0669809148
 11
25.3494149481
 21
-18.9282230263
  0
LWPOLYLINE
  5
23E
100
AcDbEntity
  8
IMPORT_IGES
100
AcDbPolyline
 62
253
  6
CONTINUOUS
 90
22
 70
0
 10
19.1474454705
 20
-19.3734520058
 10
19.2363212448
 20
-19.359666512
 10
19.3234036041
 20
-19.340057502
 10
19.408310655
 20
-19.3148431173
 10
19.4904596209
 20
-19.2843553861
 10
19.5697573096
 20
-19.248790242
 10
19.6465328155
 20
-19.2080593017
 10
19.7205588191
 20
-19.162245115
 10
19.791352071
 20
-19.1116071239
 10
19.858781298
 20
-19.0561833955
 10
19.9224837477
 20
-18.9961793378
 10
19.9821219412
 20
-18.931813856
 10
20.0375411018
 20
-18.863101237
 10
20.088498527
 20
-18.7900886542
 10
20.1344828397
 20
-18.7132277794
 10
20.1749820168
 20
-18.6331884001
 10
20.2097139228
 20
-18.5504325101
 10
20.2385048099
 20
-18.4652621652
 10
20.2611379014
 20
-18.3781850074
 10
20.2774646915
 20
-18.2896611563
 10
20.2873823445
 20
-18.200093564
 10
20.2908095304
 20
-18.1099273216
  0
LINE
  5
23F
100
AcDbEntity
  8
IMPORT_IGES
100
AcDbLine
 62
253
  6
CONTINUOUS
 10
23.6038353292
 20
-19.2009082071
 11
24.4770080739
 21
-19.0669809148
  0
LINE
  5
240
100
AcDbEntity
  8
IMPORT_IGES
100
AcDbLine
 62
253
  6
CONTINUOUS
 10
22.729921047
 20
-19.3300012066
 11
23.6038353292
 21
-19.2009082071
  0
LWPOLYLINE
  5
241
100
AcDbEntity
  8
IMPORT_IGES
100
AcDbPolyline
 62
253
  6
CONTINUOUS
 90
3
 70
0
 10
21.4177022262
 20
-19.5145700551
 10
21.8552834883
 20
-19.4542572223
 10
22.729921047
 20
-19.3300012066
  0
LWPOLYLINE
  5
242
100
AcDbEntity
  8
IMPORT_IGES
100
AcDbPolyline
 62
253
  6
CONTINUOUS
 90
25
 70
0
 10
-21.7048565163
 20
-19.5145699849
 10
-21.5621484397
 20
-19.5332858723
 10
-21.4201366145
 20
-19.5501997925
 10
-21.2788246946
 20
-19.5653064524
 10
-21.137271576
 20
-19.5786867245
 10
-20.9964236667
 20
-19.5902337466
 10
-20.8591154905
 20
-19.5996630215
 10
-20.7256566754
 20
-19.6068997126
 10
-20.5957402035
 20
-19.6119872993
 10
-20.4712753427
 20
-19.6148300251
 10
-20.3528994562
 20
-19.6154153492
 10
-20.2399740777
 20
-19.6137202052
 10
-20.1324937881
 20
-19.6096337024
 10
-20.0295880018
 20
-19.6030410583
 10
-19.9321212911
 20
-19.5939866219
 10
-19.8426904628
 20
-19.582611232
 10
-19.7618187557
 20
-19.568889304
 10
-19.688974266
 20
-19.5528052705
 10
-19.625171577
 20
-19.5345456183
 10
-19.5707200197
 20
-19.5143576267
 10
-19.525299894
 20
-19.491970701
 10
-19.4889798503
 20
-19.4667836818
 10
-19.4617749705
 20
-19.4385566146
 10
-19.4436492223
 20
-19.4074340086
 10
-19.4345907914
 20
-19.3733649083
  0
LINE
  5
243
100
AcDbEntity
  8
IMPORT_IGES
100
AcDbLine
 62
253
  6
CONTINUOUS
 10
-22.5798441934
 20
-19.3927342462
 11
-21.7048565163
 21
-19.5145699849
  0
LINE
  5
244
100
AcDbEntity
  8
IMPORT_IGES
100
AcDbLine
 62
253
  6
CONTINUOUS
 10
-23.4541222998
 20
-19.2660595042
 11
-22.5798441934
 21
-19.3927342462
  0
LINE
  5
245
100
AcDbEntity
  8
IMPORT_IGES
100
AcDbLine
 62
253
  6
CONTINUOUS
 10
-24.3276669464
 20
-19.1345493349
 11
-23.4541222998
 21
-19.2660595042
  0
LWPOLYLINE
  5
246
100
AcDbEntity
  8
IMPORT_IGES
100
AcDbPolyline
 62
253
  6
CONTINUOUS
 90
3
 70
0
 10
-25.6365689266
 20
-18.928223515
 10
-25.2004616538
 20
-18.9982061377
 10
-24.3276669464
 20
-19.1345493349
  0
LWPOLYLINE
  5
247
100
AcDbEntity
  8
IMPORT_IGES
100
AcDbPolyline
 62
253
  6
CONTINUOUS
 90
19
 70
0
 10
-25.636567641
 20
-18.9282156899
 10
-25.7133290354
 20
-18.9126471999
 10
-25.7880896045
 20
-18.8913783899
 10
-25.8604341184
 20
-18.8646651217
 10
-25.9297085677
 20
-18.83292566
 10
-25.9958519206
 20
-18.7963688772
 10
-26.059285431
 20
-18.754793598
 10
-26.1197941896
 20
-18.7082174745
 10
-26.1767602462
 20
-18.6569853163
 10
-26.2298924564
 20
-18.6012345882
 10
-26.2788625869
 20
-18.5411300353
 10
-26.3232000443
 20
-18.4770515036
 10
-26.3624413413
 20
-18.4095154
 10
-26.3962448287
 20
-18.3390097136
 10
-26.4244006947
 20
-18.2658553911
 10
-26.4467014769
 20
-18.1903749784
 10
-26.4629235178
 20
-18.1129827683
 10
-26.4728591537
 20
-18.0341934442
 10
-26.4763513665
 20
-17.9545055058
  0
LINE
  5
248
100
AcDbEntity
  8
IMPORT_IGES
100
AcDbLine
 62
253
  6
CONTINUOUS
 10
-25.5916658881
 20
20.2183212579
 11
-25.5208036232
 21
19.6275782756
  0
LWPOLYLINE
  5
249
100
AcDbEntity
  8
IMPORT_IGES
100
AcDbPolyline
 62
7
  6
CONTINUOUS
 90
10
 70
0
 10
-25.6365684469
 20
20.6234734255
 10
-25.6551104276
 20
20.7872521306
 10
-25.6736851921
 20
20.9317398087
 10
-25.6922956841
 20
21.0568886559
 10
-25.7109487474
 20
21.1626570681
 10
-25.7296394328
 20
21.2490093862
 10
-25.7483512275
 20
21.3159175146
 10
-25.7670768699
 20
21.3633605432
 10
-25.785818113
 20
21.391323148
 10
-25.8045702021
 20
21.39979645
  0
LWPOLYLINE
  5
24A
100
AcDbEntity
  8
IMPORT_IGES
100
AcDbPolyline
 62
253
  6
CONTINUOUS
 90
3
 70
0
 10
-25.624595491
 20
20.5061980396
 10
-25.6195086511
 20
20.4603626862
 10
-25.5916658881
 20
20.2183212579
  0
LWPOLYLINE
  5
24B
100
AcDbEntity
  8
IMPORT_IGES
100
AcDbPolyline
 62
253
  6
CONTINUOUS
 90
22
 70
0
 10
-20.5779633854
 20
-18.1099290646
 10
-20.5746919789
 20
-18.1979729441
 10
-20.5653003103
 20
-18.2849753825
 10
-20.5499635011
 20
-18.3705389302
 10
-20.5289479179
 20
-18.4540572473
 10
-20.5024409557
 20
-18.5354160648
 10
-20.4703927109
 20
-18.6149456466
 10
-20.4328595591
 20
-18.6924150124
 10
-20.3900462995
 20
-18.7673233331
 10
-20.3419756726
 20
-18.8395385122
 10
-20.288812208
 20
-18.9086832604
 10
-20.2307372062
 20
-18.9744031661
 10
-20.1677465207
 20
-19.0365460566
 10
-20.0998587291
 20
-19.0948703689
 10
-20.0274701721
 20
-19.1488246552
 10
-19.9511983022
 20
-19.1978305386
 10
-19.87147865
 20
-19.2415575971
 10
-19.7885954912
 20
-19.2798013038
 10
-19.7030338899
 20
-19.3122910198
 10
-19.6152410188
 20
-19.3388265807
 10
-19.5256140307
 20
-19.3592582709
 10
-19.4345943694
 20
-19.3734526558
  0
LINE
  5
24C
100
AcDbEntity
  8
IMPORT_IGES
100
AcDbLine
 62
253
  6
CONTINUOUS
 10
-21.5567214457
 20
20.0283694465
 11
-21.5512151072
 21
5.1131870615
  0
LINE
  5
24D
100
AcDbEntity
  8
IMPORT_IGES
100
AcDbLine
 62
253
  6
CONTINUOUS
 10
-21.5512151072
 20
5.1131870615
 11
-21.5520737409
 21
-7.6825098564
  0
LINE
  5
24E
100
AcDbEntity
  8
IMPORT_IGES
100
AcDbLine
 62
253
  6
CONTINUOUS
 10
-21.5520737409
 20
-7.6825098564
 11
-21.5567215147
 21
-18.333117896
  0
LWPOLYLINE
  5
24F
100
AcDbEntity
  8
IMPORT_IGES
100
AcDbPolyline
 62
253
  6
CONTINUOUS
 90
22
 70
0
 10
-20.5712231798
 20
19.6400259714
 10
-20.5679699446
 20
19.7272412187
 10
-20.5585550881
 20
19.8143268371
 10
-20.5430021988
 20
19.9007283489
 10
-20.521402968
 20
19.9857754404
 10
-20.4938777452
 20
20.0690516088
 10
-20.4605220564
 20
20.1504013397
 10
-20.4214887034
 20
20.2293593964
 10
-20.3770080035
 20
20.3054028263
 10
-20.3272698796
 20
20.3783400052
 10
-20.2724658728
 20
20.4478211445
 10
-20.2129064688
 20
20.5133824517
 10
-20.1489363754
 20
20.5747711748
 10
-20.080719978
 20
20.6317893761
 10
-20.0086027946
 20
20.6840650775
 10
-19.9331690201
 20
20.7312831314
 10
-19.8545009982
 20
20.7733901725
 10
-19.7729001542
 20
20.8101341406
 10
-19.6892405354
 20
20.8411964691
 10
-19.6038771727
 20
20.866530127
 10
-19.5166487358
 20
20.8861322773
 10
-19.4276140351
 20
20.8998667984
  0
LWPOLYLINE
  5
250
100
AcDbEntity
  8
IMPORT_IGES
100
AcDbPolyline
 62
253
  6
CONTINUOUS
 90
22
 70
0
 10
-20.5712231798
 20
19.6400259714
 10
-20.5670960253
 20
19.6739658289
 10
-20.5562662454
 20
19.7077113332
 10
-20.5388002305
 20
19.7410883401
 10
-20.5148005221
 20
19.7739223531
 10
-20.4844000119
 20
19.8060477288
 10
-20.4477563856
 20
19.8373078695
 10
-20.4050634865
 20
19.8675430665
 10
-20.3565467461
 20
19.8965979939
 10
-20.302449728
 20
19.9243295372
 10
-20.2430523771
 20
19.9505954127
 10
-20.1786618251
 20
19.9752609189
 10
-20.1095967618
 20
19.9982039783
 10
-20.0362112427
 20
20.0193060172
 10
-19.9588816614
 20
20.0384579015
 10
-19.8779886687
 20
20.0555636339
 10
-19.7939460328
 20
20.0705333656
 10
-19.7071841447
 20
20.0832878949
 10
-19.6181300763
 20
20.0937611257
 10
-19.5272343136
 20
20.1018961929
 10
-19.4349700947
 20
20.1076470821
 10
-19.3418130067
 20
20.1109806998
  0
LINE
  5
251
100
AcDbEntity
  8
IMPORT_IGES
100
AcDbLine
 62
253
  6
CONTINUOUS
 10
-25.4974796501
 20
-17.7428703965
 11
-25.5207641683
 21
-17.9319241945
  0
LINE
  5
252
100
AcDbEntity
  8
IMPORT_IGES
100
AcDbLine
 62
253
  6
CONTINUOUS
 10
25.2103441536
 20
-17.7428581396
 11
24.3360470751
 21
-17.8825911113
  0
LINE
  5
253
100
AcDbEntity
  8
IMPORT_IGES
100
AcDbLine
 62
253
  6
CONTINUOUS
 10
24.3360470751
 20
-17.8825911113
 11
23.4609206798
 21
-18.0174326031
  0
LINE
  5
254
100
AcDbEntity
  8
IMPORT_IGES
100
AcDbLine
 62
253
  6
CONTINUOUS
 10
23.4609206798
 20
-18.0174326031
 11
22.5849728701
 21
-18.1473813952
  0
LWPOLYLINE
  5
255
100
AcDbEntity
  8
IMPORT_IGES
100
AcDbPolyline
 62
253
  6
CONTINUOUS
 90
3
 70
0
 10
22.5849728701
 20
-18.1473813952
 10
21.7082348711
 20
-18.2724312639
 10
21.2695676257
 20
-18.3331196509
  0
LWPOLYLINE
  5
256
100
AcDbEntity
  8
IMPORT_IGES
100
AcDbPolyline
 62
253
  6
CONTINUOUS
 90
16
 70
0
 10
19.0090177345
 20
-18.0324207667
 10
16.4644756623
 20
-18.3222355201
 10
13.916892203
 20
-18.5706756131
 10
11.3662652773
 20
-18.7777484627
 10
8.8119097804
 20
-18.9434944501
 10
6.25450322
 20
-19.0678846289
 10
3.6960859621
 20
-19.1508206817
 10
1.1366507029
 20
-19.1922711656
 10
-1.4238067978
 20
-19.1922714738
 10
-3.9832420663
 20
-19.1508216061
 10
-6.5416594585
 20
-19.067886158
 10
-9.0990661626
 20
-18.9434965835
 10
-11.6534214657
 20
-18.7777512335
 10
-14.2040477448
 20
-18.5706790654
 10
-16.7516302201
 20
-18.3222396869
 10
-19.296170971
 20
-18.0324256811
  0
LWPOLYLINE
  5
257
100
AcDbEntity
  8
IMPORT_IGES
100
AcDbPolyline
 62
253
  6
CONTINUOUS
 90
16
 70
0
 10
-19.4276967363
 20
-19.2044069348
 10
-16.8666920742
 20
-19.4952262854
 10
-14.3013350349
 20
-19.7446338433
 10
-11.7322822861
 20
-19.9525687175
 10
-9.1601753701
 20
-20.1189797888
 10
-6.5856879728
 20
-20.2438244593
 10
-4.0095258409
 20
-20.3270712589
 10
-1.4323449618
 20
-20.3687004492
 10
1.145193114
 20
-20.3687003536
 10
3.7223739918
 20
-20.3270709723
 10
6.298536005
 20
-20.2438239864
 10
8.8730232825
 20
-20.1189791336
 10
11.4451304257
 20
-19.9525678589
 10
14.0141838632
 20
-19.7446327332
 10
16.5795419346
 20
-19.4952248646
 10
19.14054797
 20
-19.2044051273
  0
LINE
  5
258
100
AcDbEntity
  8
IMPORT_IGES
100
AcDbLine
 62
253
  6
CONTINUOUS
 10
-21.5567215147
 20
-18.333117896
 11
-22.4338585807
 21
-18.2105182136
  0
LINE
  5
259
100
AcDbEntity
  8
IMPORT_IGES
100
AcDbLine
 62
253
  6
CONTINUOUS
 10
-22.4338585807
 20
-18.2105182136
 11
-23.3102031583
 21
-18.0830204734
  0
LINE
  5
25A
100
AcDbEntity
  8
IMPORT_IGES
100
AcDbLine
 62
253
  6
CONTINUOUS
 10
-23.3102031583
 20
-18.0830204734
 11
-24.1857466678
 21
-17.9506260248
  0
LWPOLYLINE
  5
25B
100
AcDbEntity
  8
IMPORT_IGES
100
AcDbPolyline
 62
253
  6
CONTINUOUS
 90
22
 70
0
 10
-19.4276138536
 20
-19.2046200087
 10
-19.5162733721
 20
-19.1909324535
 10
-19.6036380739
 20
-19.1713278637
 10
-19.6893640915
 20
-19.1459084696
 10
-19.7731646431
 20
-19.1147750424
 10
-19.8546448724
 20
-19.0780569038
 10
-19.9333091451
 20
-19.0359553931
 10
-20.0088130229
 20
-18.9886798999
 10
-20.0808552013
 20
-18.9364216589
 10
-20.1490262887
 20
-18.8794436914
 10
-20.2130097286
 20
-18.8180385844
 10
-20.2725380555
 20
-18.75247479
 10
-20.3273001858
 20
-18.6830507441
 10
-20.3770293817
 20
-18.610133848
 10
-20.4215066551
 20
-18.5340662425
 10
-20.4605182284
 20
-18.4551609091
 10
-20.4938674456
 20
-18.3738445427
 10
-20.5214014197
 20
-18.2905215011
 10
-20.5429965655
 20
-18.2055052693
 10
-20.5585442679
 20
-18.1192064449
 10
-20.5679660887
 20
-18.0321269162
 10
-20.5712232739
 20
-17.94473355
  0
LWPOLYLINE
  5
25C
100
AcDbEntity
  8
IMPORT_IGES
100
AcDbPolyline
 62
253
  6
CONTINUOUS
 90
3
 70
0
 10
-24.1857466678
 20
-17.9506260248
 10
-25.0604549959
 20
-17.8133415413
 10
-25.4974980517
 20
-17.7428649518
  0
LINE
  5
25D
100
AcDbEntity
  8
IMPORT_IGES
100
AcDbLine
 62
253
  6
CONTINUOUS
 10
-25.5208036232
 20
19.6275782756
 11
-25.4974753145
 21
19.4381204659
  0
LINE
  5
25E
100
AcDbEntity
  8
IMPORT_IGES
100
AcDbLine
 62
253
  6
CONTINUOUS
 10
-19.290673105
 20
3.8997817936
 11
-19.2975437306
 21
3.9979374816
  0
LINE
  5
25F
100
AcDbEntity
  8
IMPORT_IGES
100
AcDbLine
 62
253
  6
CONTINUOUS
 10
-19.2975437306
 20
3.9979374816
 11
-19.3098608826
 21
4.1934727769
  0
LINE
  5
260
100
AcDbEntity
  8
IMPORT_IGES
100
AcDbLine
 62
253
  6
CONTINUOUS
 10
-19.3098608826
 20
4.1934727769
 11
-19.3208534597
 21
4.3813274458
  0
LWPOLYLINE
  5
261
100
AcDbEntity
  8
IMPORT_IGES
100
AcDbPolyline
 62
253
  6
CONTINUOUS
 90
4
 70
0
 10
-19.3208534597
 20
4.3813274458
 10
-19.3300030817
 20
4.5584938849
 10
-19.33390816
 20
4.6415334274
 10
-19.3372516863
 20
4.7206395604
  0
LINE
  5
262
100
AcDbEntity
  8
IMPORT_IGES
100
AcDbLine
 62
253
  6
CONTINUOUS
 10
-20.5779638588
 20
19.8051884118
 11
-20.5712229843
 21
19.6399843782
  0
LINE
  5
263
100
AcDbEntity
  8
IMPORT_IGES
100
AcDbLine
 62
253
  6
CONTINUOUS
 10
-19.4277021329
 20
20.8996548673
 11
-19.434595995
 21
21.0686189188
  0
LWPOLYLINE
  5
264
100
AcDbEntity
  8
IMPORT_IGES
100
AcDbPolyline
 62
253
  6
CONTINUOUS
 90
22
 70
0
 10
-20.5433615467
 20
6.5146683535
 10
-20.5400212711
 20
6.4216270566
 10
-20.530124815
 20
6.3297183624
 10
-20.5138624302
 20
6.2393919622
 10
-20.4915233657
 20
6.1513149676
 10
-20.4633152898
 20
6.0656345379
 10
-20.4291955218
 20
5.9820313532
 10
-20.3892421851
 20
5.9007880336
 10
-20.3436818479
 20
5.8224435022
 10
-20.2925306713
 20
5.7471305699
 10
-20.2359700591
 20
5.6752696126
 10
-20.1742099847
 20
5.6072672774
 10
-20.1072485949
 20
5.5433032379
 10
-20.0351026042
 20
5.4836521003
 10
-19.9582325863
 20
5.4289395106
 10
-19.8773694947
 20
5.3798191156
 10
-19.7930419566
 20
5.3366602196
 10
-19.7055522189
 20
5.2996638832
 10
-19.6153937443
 20
5.2690946775
 10
-19.5230517515
 20
5.2451637967
 10
-19.4289961208
 20
5.2280387742
 10
-19.3337272652
 20
5.2178577345
  0
LWPOLYLINE
  5
265
100
AcDbEntity
  8
IMPORT_IGES
100
AcDbPolyline
 62
253
  6
CONTINUOUS
 90
22
 70
0
 10
-20.4022260891
 20
6.6463097156
 10
-20.3989004073
 20
6.55344991
 10
-20.3889500661
 20
6.4610645852
 10
-20.3724258982
 20
6.3696257386
 10
-20.3494123196
 20
6.2796005061
 10
-20.320026902
 20
6.1914488596
 10
-20.2844197882
 20
6.1056212518
 10
-20.2427729178
 20
6.0225562055
 10
-20.1952990669
 20
5.9426780715
 10
-20.1422407718
 20
5.8663949416
 10
-20.0838691085
 20
5.7940965495
 10
-20.0204823081
 20
5.7261522724
 10
-19.9524042146
 20
5.6629092381
 10
-19.8799826389
 20
5.6046905622
 10
-19.8035875899
 20
5.5517936889
 10
-19.7236093791
 20
5.5044888674
 10
-19.6404497241
 20
5.4630146528
 10
-19.554539935
 20
5.427587061
 10
-19.4663408132
 20
5.3983934765
 10
-19.3763117539
 20
5.3755799859
 10
-19.2849063582
 20
5.3592556978
 10
-19.192591786
 20
5.3494991168
  0
LWPOLYLINE
  5
266
100
AcDbEntity
  8
IMPORT_IGES
100
AcDbPolyline
 62
253
  6
CONTINUOUS
 90
12
 70
0
 10
-19.3372516863
 20
4.7206395604
 10
-19.3423728017
 20
4.8644589565
 10
-19.3440994051
 20
4.9286030128
 10
-19.3452527852
 20
4.9870159336
 10
-19.3458641849
 20
5.0392587304
 10
-19.3458767792
 20
5.0853721463
 10
-19.345278739
 20
5.1249187018
 10
-19.3441039737
 20
5.1575998323
 10
-19.342380449
 20
5.1834384343
 10
-19.3401221232
 20
5.2022093703
 10
-19.3373117927
 20
5.2136849259
 10
-19.3339308359
 20
5.2178732311
  0
LINE
  5
267
100
AcDbEntity
  8
IMPORT_IGES
100
AcDbLine
 62
253
  6
CONTINUOUS
 10
-20.5566368655
 20
18.0964568084
 11
-20.5590474444
 21
18.1967440401
  0
LINE
  5
268
100
AcDbEntity
  8
IMPORT_IGES
100
AcDbLine
 62
253
  6
CONTINUOUS
 10
-20.5590474444
 20
18.1967440401
 11
-20.5613482894
 21
18.3278960986
  0
LINE
  5
269
100
AcDbEntity
  8
IMPORT_IGES
100
AcDbLine
 62
253
  6
CONTINUOUS
 10
-20.5613482894
 20
18.3278960986
 11
-20.5654857516
 21
18.675158529
  0
LINE
  5
26A
100
AcDbEntity
  8
IMPORT_IGES
100
AcDbLine
 62
253
  6
CONTINUOUS
 10
-20.5654857516
 20
18.675158529
 11
-20.5701560267
 21
19.3719438458
  0
LINE
  5
26B
100
AcDbEntity
  8
IMPORT_IGES
100
AcDbLine
 62
253
  6
CONTINUOUS
 10
-20.5701560267
 20
19.3719438458
 11
-20.5712229843
 21
19.6399843782
  0
LINE
  5
26C
100
AcDbEntity
  8
IMPORT_IGES
100
AcDbLine
 62
253
  6
CONTINUOUS
 10
-20.4022276246
 20
6.6463104078
 11
-20.4022276246
 21
17.8489378838
  0
LINE
  5
26D
100
AcDbEntity
  8
IMPORT_IGES
100
AcDbLine
 62
253
  6
CONTINUOUS
 10
-19.4022656453
 20
17.8489367877
 11
-19.4022656453
 21
6.6463113623
  0
LINE
  5
26E
100
AcDbEntity
  8
IMPORT_IGES
100
AcDbLine
 62
253
  6
CONTINUOUS
 10
-20.5748599654
 20
-11.7955745075
 11
-20.5779638588
 21
19.8051884118
  0
LINE
  5
26F
100
AcDbEntity
  8
IMPORT_IGES
100
AcDbLine
 62
253
  6
CONTINUOUS
 10
-20.5779638636
 20
-18.1099403199
 11
-20.5748599654
 21
-11.7955745075
  0
LINE
  5
270
100
AcDbEntity
  8
IMPORT_IGES
100
AcDbLine
 62
253
  6
CONTINUOUS
 10
-20.5669822581
 20
-8.2489108681
 11
-20.571223256
 21
-17.9447436594
  0
LINE
  5
271
100
AcDbEntity
  8
IMPORT_IGES
100
AcDbLine
 62
253
  6
CONTINUOUS
 10
-19.296170971
 20
-18.0324256811
 11
-19.290767862
 21
3.8993437406
  0
LINE
  5
272
100
AcDbEntity
  8
IMPORT_IGES
100
AcDbLine
 62
253
  6
CONTINUOUS
 10
-20.5669822581
 20
-8.2489108681
 11
-20.5652773698
 21
4.4857915885
  0
LINE
  5
273
100
AcDbEntity
  8
IMPORT_IGES
100
AcDbLine
 62
253
  6
CONTINUOUS
 10
-20.5652773698
 20
4.4857915885
 11
-20.5614866035
 21
5.4465452366
  0
LINE
  5
274
100
AcDbEntity
  8
IMPORT_IGES
100
AcDbLine
 62
253
  6
CONTINUOUS
 10
-20.5614866035
 20
5.4465452366
 11
-20.5568416861
 21
5.9885860432
  0
LINE
  5
275
100
AcDbEntity
  8
IMPORT_IGES
100
AcDbLine
 62
253
  6
CONTINUOUS
 10
-20.5568416861
 20
5.9885860432
 11
-20.5534492055
 21
6.232302803
  0
LWPOLYLINE
  5
276
100
AcDbEntity
  8
IMPORT_IGES
100
AcDbPolyline
 62
253
  6
CONTINUOUS
 90
8
 70
0
 10
-20.5534492055
 20
6.232302803
 10
-20.5510310436
 20
6.3536121367
 10
-20.5497907406
 20
6.401658112
 10
-20.5485287863
 20
6.4413317751
 10
-20.5472541459
 20
6.4724844319
 10
-20.545969808
 20
6.4950665177
 10
-20.544672784
 20
6.5091275973
 10
-20.5433630739
 20
6.5146676706
  0
LWPOLYLINE
  5
277
100
AcDbEntity
  8
IMPORT_IGES
100
AcDbPolyline
 62
253
  6
CONTINUOUS
 90
5
 70
0
 10
-19.3567759085
 20
19.7420343101
 10
-19.3521134356
 20
19.8803654676
 10
-19.3491599727
 20
19.9547358159
 10
-19.3457378829
 20
20.0317794679
 10
-19.3418145954
 20
20.1109406435
  0
LINE
  5
278
100
AcDbEntity
  8
IMPORT_IGES
100
AcDbLine
 62
253
  6
CONTINUOUS
 10
-20.571223256
 20
-17.9447436594
 11
-20.5779638636
 21
-18.1099403199
  0
LINE
  5
279
100
AcDbEntity
  8
IMPORT_IGES
100
AcDbLine
 62
253
  6
CONTINUOUS
 10
-19.4345907914
 20
-19.3733649083
 11
-19.4276967363
 21
-19.2044069348
  0
LWPOLYLINE
  5
27A
100
AcDbEntity
  8
IMPORT_IGES
100
AcDbPolyline
 62
253
  6
CONTINUOUS
 90
3
 70
0
 10
-19.1230556108
 20
6.3470425756
 10
-19.1921053675
 20
5.3530991605
 10
-19.1923874124
 20
5.3494876454
  0
LWPOLYLINE
  5
27B
100
AcDbEntity
  8
IMPORT_IGES
100
AcDbPolyline
 62
253
  6
CONTINUOUS
 90
22
 70
0
 10
-20.5779655276
 20
-18.1100487999
 10
-20.5819935078
 20
-18.1554432265
 10
-20.5923866866
 20
-18.1969123728
 10
-20.6087527088
 20
-18.2345219528
 10
-20.6302606558
 20
-18.2681850754
 10
-20.6563913926
 20
-18.2980980343
 10
-20.6876475435
 20
-18.3247440086
 10
-20.7242957336
 20
-18.3484572889
 10
-20.7656390487
 20
-18.3689903329
 10
-20.8111877897
 20
-18.3859534563
 10
-20.8602477368
 20
-18.3991739476
 10
-20.912447956
 20
-18.4088794278
 10
-20.9677999372
 20
-18.4152790073
 10
-21.0257420529
 20
-18.4184037066
 10
-21.085817303
 20
-18.4182583035
 10
-21.148349816
 20
-18.4150246557
 10
-21.2128429612
 20
-18.4087366799
 10
-21.2788042249
 20
-18.3993898487
 10
-21.3466346189
 20
-18.3871274515
 10
-21.4161006439
 20
-18.3720117849
 10
-21.4863237292
 20
-18.3540077538
 10
-21.5567221545
 20
-18.3331177073
  0
LWPOLYLINE
  5
27C
100
AcDbEntity
  8
IMPORT_IGES
100
AcDbPolyline
 62
253
  6
CONTINUOUS
 90
5
 70
0
 10
-21.6927659594
 20
-19.3929041005
 10
-21.6972440382
 20
-19.4336135448
 10
-21.7007835341
 20
-19.4677575662
 10
-21.7033276025
 20
-19.4948176048
 10
-21.7048565141
 20
-19.5145701489
  0
LINE
  5
27D
100
AcDbEntity
  8
IMPORT_IGES
100
AcDbLine
 62
253
  6
CONTINUOUS
 10
-21.6811377288
 20
-19.2929435523
 11
-21.6927659594
 21
-19.3929041005
  0
LINE
  5
27E
100
AcDbEntity
  8
IMPORT_IGES
100
AcDbLine
 62
253
  6
CONTINUOUS
 10
-21.6575717647
 20
-19.1011406952
 11
-21.6811377288
 21
-19.2929435523
  0
LINE
  5
27F
100
AcDbEntity
  8
IMPORT_IGES
100
AcDbLine
 62
253
  6
CONTINUOUS
 10
-21.6173814714
 20
-18.7881992734
 11
-21.6575717647
 21
-19.1011406952
  0
LINE
  5
280
100
AcDbEntity
  8
IMPORT_IGES
100
AcDbLine
 62
253
  6
CONTINUOUS
 10
-21.5567217278
 20
-18.3331221607
 11
-21.6173814714
 21
-18.7881992734
  0
LINE
  5
281
100
AcDbEntity
  8
IMPORT_IGES
100
AcDbLine
 62
7
  6
CONTINUOUS
 10
-9.5287435024
 20
17.5572694693
 11
-9.5740955237
 21
17.5103233088
  0
LINE
  5
282
100
AcDbEntity
  8
IMPORT_IGES
100
AcDbLine
 62
7
  6
CONTINUOUS
 10
-9.3813893332
 20
17.393946042
 11
-9.3508418585
 21
17.4213769566
  0
LINE
  5
283
100
AcDbEntity
  8
IMPORT_IGES
100
AcDbLine
 62
7
  6
CONTINUOUS
 10
-9.480303702
 20
17.5961349644
 11
-9.5287435024
 21
17.5572694693
  0
LINE
  5
284
100
AcDbEntity
  8
IMPORT_IGES
100
AcDbLine
 62
7
  6
CONTINUOUS
 10
-9.3508418585
 20
17.4213769566
 11
-9.3174722191
 21
17.4436319979
  0
LINE
  5
285
100
AcDbEntity
  8
IMPORT_IGES
100
AcDbLine
 62
7
  6
CONTINUOUS
 10
-8.0883692291
 20
17.6134410504
 11
-8.1144914612
 21
17.5968265099
  0
LINE
  5
286
100
AcDbEntity
  8
IMPORT_IGES
100
AcDbLine
 62
7
  6
CONTINUOUS
 10
-9.4281558209
 20
17.6275161784
 11
-9.480303702
 21
17.5961349644
  0
LINE
  5
287
100
AcDbEntity
  8
IMPORT_IGES
100
AcDbLine
 62
7
  6
CONTINUOUS
 10
-8.0602538392
 20
17.6290639396
 11
-8.0883692291
 21
17.6134410504
  0
LINE
  5
288
100
AcDbEntity
  8
IMPORT_IGES
100
AcDbLine
 62
7
  6
CONTINUOUS
 10
-9.3174722191
 20
17.4436319979
 11
-9.2810107775
 21
17.4608445492
  0
LINE
  5
289
100
AcDbEntity
  8
IMPORT_IGES
100
AcDbLine
 62
7
  6
CONTINUOUS
 10
-7.9532485258
 20
17.4436319979
 11
-7.9167870842
 21
17.4608445492
  0
LINE
  5
28A
100
AcDbEntity
  8
IMPORT_IGES
100
AcDbLine
 62
7
  6
CONTINUOUS
 10
-8.0300662377
 20
17.6429960433
 11
-8.0602538392
 21
17.6290639396
  0
LINE
  5
28B
100
AcDbEntity
  8
IMPORT_IGES
100
AcDbLine
 62
7
  6
CONTINUOUS
 10
-9.3712841823
 20
17.6520170869
 11
-9.4281558209
 21
17.6275161784
  0
LINE
  5
28C
100
AcDbEntity
  8
IMPORT_IGES
100
AcDbLine
 62
7
  6
CONTINUOUS
 10
-7.9977126189
 20
17.6551836484
 11
-8.0300662377
 21
17.6429960433
  0
LINE
  5
28D
100
AcDbEntity
  8
IMPORT_IGES
100
AcDbLine
 62
7
  6
CONTINUOUS
 10
-9.2810107775
 20
17.4608445492
 11
-9.2413676545
 21
17.4730590715
  0
LINE
  5
28E
100
AcDbEntity
  8
IMPORT_IGES
100
AcDbLine
 62
7
  6
CONTINUOUS
 10
-7.9632867885
 20
17.665680468
 11
-7.9977126189
 21
17.6551836484
  0
LINE
  5
28F
100
AcDbEntity
  8
IMPORT_IGES
100
AcDbLine
 62
7
  6
CONTINUOUS
 10
-9.3093502274
 20
17.6698390152
 11
-9.3712841823
 21
17.6520170869
  0
LWPOLYLINE
  5
290
100
AcDbEntity
  8
IMPORT_IGES
100
AcDbPolyline
 62
253
  6
CONTINUOUS
 90
22
 70
0
 10
25.2103441712
 20
-17.7428644759
 10
25.2832450385
 20
-17.7424799306
 10
25.3550487089
 20
-17.7417504703
 10
25.4253950875
 20
-17.7406882139
 10
25.4937328638
 20
-17.7393116147
 10
25.5599720464
 20
-17.7376327008
 10
25.6244305613
 20
-17.7356470786
 10
25.6869066722
 20
-17.7333584127
 10
25.7469413304
 20
-17.7307808743
 10
25.8044042806
 20
-17.7279165846
 10
25.8589518911
 20
-17.7247771118
 10
25.9102724842
 20
-17.7213744852
 10
25.9582279198
 20
-17.7177085879
 10
26.0025940678
 20
-17.7137810614
 10
26.0428774284
 20
-17.7096185017
 10
26.0785773373
 20
-17.7052615359
 10
26.1094154143
 20
-17.7007388359
 10
26.1352285461
 20
-17.6960681591
 10
26.1558093539
 20
-17.6912790078
 10
26.1710067042
 20
-17.6863990507
 10
26.1807100484
 20
-17.6814535923
 10
26.1848312828
 20
-17.6764701168
  0
LWPOLYLINE
  5
291
100
AcDbEntity
  8
IMPORT_IGES
100
AcDbPolyline
 62
253
  6
CONTINUOUS
 90
22
 70
0
 10
-19.2961709649
 20
-18.0323983723
 10
-19.3915096393
 20
-18.0319826005
 10
-19.4862012148
 20
-18.0310961238
 10
-19.5797347461
 20
-18.0297437013
 10
-19.6716060093
 20
-18.0279325947
 10
-19.7613186501
 20
-18.0256725599
 10
-19.8483869968
 20
-18.0229758188
 10
-19.9323407605
 20
-18.019856942
 10
-20.0127274333
 20
-18.0163327449
 10
-20.0891132524
 20
-18.0124222436
 10
-20.1610860437
 20
-18.0081465392
 10
-20.2282574456
 20
-18.0035287031
 10
-20.2902650043
 20
-17.998593653
 10
-20.3467741301
 20
-17.993368018
 10
-20.3974799025
 20
-17.9878799956
 10
-20.4421087155
 20
-17.9821591988
 10
-20.4804197545
 20
-17.9762364967
 10
-20.5122062946
 20
-17.970143848
 10
-20.5372968171
 20
-17.9639141284
 10
-20.5555559348
 20
-17.9575809531
 10
-20.5668851228
 20
-17.9511784957
 10
-20.5712232496
 20
-17.9447413035
  0
LWPOLYLINE
  5
292
100
AcDbEntity
  8
IMPORT_IGES
100
AcDbPolyline
 62
7
  6
CONTINUOUS
 90
8
 70
0
 10
-26.6418314053
 20
17.6963041826
 10
-26.6379716615
 20
17.6840931687
 10
-26.6341550656
 20
17.6595511885
 10
-26.6303816175
 20
17.622678242
 10
-26.6266392836
 20
17.5732722344
 10
-26.6229400975
 20
17.5115352604
 10
-26.6193201602
 20
17.4380736048
 10
-26.6157802462
 20
17.3527733631
  0
LINE
  5
293
100
AcDbEntity
  8
IMPORT_IGES
100
AcDbLine
 62
253
  6
CONTINUOUS
 10
-21.5567211155
 20
20.0283695291
 11
-21.6174538574
 21
20.48400515
  0
LINE
  5
294
100
AcDbEntity
  8
IMPORT_IGES
100
AcDbLine
 62
253
  6
CONTINUOUS
 10
-21.6174538574
 20
20.48400515
 11
-21.6575838008
 21
20.7964894144
  0
LINE
  5
295
100
AcDbEntity
  8
IMPORT_IGES
100
AcDbLine
 62
253
  6
CONTINUOUS
 10
-21.6575838008
 20
20.7964894144
 11
-21.6811443043
 21
20.9882521564
  0
LWPOLYLINE
  5
296
100
AcDbEntity
  8
IMPORT_IGES
100
AcDbPolyline
 62
253
  6
CONTINUOUS
 90
6
 70
0
 10
-21.6811443043
 20
20.9882521564
 10
-21.6927727547
 20
21.08821866
 10
-21.6972490937
 20
21.1289152771
 10
-21.7007858174
 20
21.1630356841
 10
-21.7033278964
 20
21.1900771744
 10
-21.7048559196
 20
21.2098197622
  0
LINE
  5
297
100
AcDbEntity
  8
IMPORT_IGES
100
AcDbLine
 62
253
  6
CONTINUOUS
 10
-19.4128844952
 20
20.743472116
 11
-19.3967270359
 21
20.5923710685
  0
LWPOLYLINE
  5
298
100
AcDbEntity
  8
IMPORT_IGES
100
AcDbPolyline
 62
253
  6
CONTINUOUS
 90
5
 70
0
 10
-19.4276140351
 20
20.8998667984
 10
-19.425961946
 20
20.8788634678
 10
-19.4236488955
 20
20.8525762509
 10
-19.4206872213
 20
20.8211371111
 10
-19.4128844952
 20
20.743472116
  0
LINE
  5
299
100
AcDbEntity
  8
IMPORT_IGES
100
AcDbLine
 62
253
  6
CONTINUOUS
 10
-19.192317674
 20
19.1457666038
 11
-19.123058711
 21
18.1482068981
  0
LWPOLYLINE
  5
29A
100
AcDbEntity
  8
IMPORT_IGES
100
AcDbPolyline
 62
253
  6
CONTINUOUS
 90
4
 70
0
 10
-19.4197766541
 20
-19.1164945323
 10
-19.4231667723
 20
-19.1520657835
 10
-19.4257836182
 20
-19.1814908714
 10
-19.4276138536
 20
-19.2046200087
  0
LINE
  5
29B
100
AcDbEntity
  8
IMPORT_IGES
100
AcDbLine
 62
253
  6
CONTINUOUS
 10
-19.410749612
 20
-19.0276681938
 11
-19.4197766541
 21
-19.1164945323
  0
LINE
  5
29C
100
AcDbEntity
  8
IMPORT_IGES
100
AcDbLine
 62
253
  6
CONTINUOUS
 10
-19.3919638027
 20
-18.8538228022
 11
-19.410749612
 21
-19.0276681938
  0
LINE
  5
29D
100
AcDbEntity
  8
IMPORT_IGES
100
AcDbLine
 62
253
  6
CONTINUOUS
 10
-19.3585288719
 20
-18.5591116082
 11
-19.3919638027
 21
-18.8538228022
  0
LINE
  5
29E
100
AcDbEntity
  8
IMPORT_IGES
100
AcDbLine
 62
253
  6
CONTINUOUS
 10
-19.2961563471
 20
-18.0324271535
 11
-19.3585288719
 21
-18.5591116082
  0
LINE
  5
29F
100
AcDbEntity
  8
IMPORT_IGES
100
AcDbLine
 62
7
  6
CONTINUOUS
 10
-9.6157394643
 20
17.4558928672
 11
-9.6528300949
 21
17.3951633213
  0
LINE
  5
2A0
100
AcDbEntity
  8
IMPORT_IGES
100
AcDbLine
 62
7
  6
CONTINUOUS
 10
-9.4343028343
 20
17.3224702594
 11
-9.4092571661
 21
17.3607960873
  0
LINE
  5
2A1
100
AcDbEntity
  8
IMPORT_IGES
100
AcDbLine
 62
7
  6
CONTINUOUS
 10
-8.2467182854
 20
17.4635516686
 11
-8.2597971655
 21
17.4439592668
  0
LINE
  5
2A2
100
AcDbEntity
  8
IMPORT_IGES
100
AcDbLine
 62
7
  6
CONTINUOUS
 10
-8.2323293193
 20
17.4831462926
 11
-8.2467182854
 21
17.4635516686
  0
LINE
  5
2A3
100
AcDbEntity
  8
IMPORT_IGES
100
AcDbLine
 62
7
  6
CONTINUOUS
 10
-9.5740955237
 20
17.5103233088
 11
-9.6157394643
 21
17.4558928672
  0
LINE
  5
2A4
100
AcDbEntity
  8
IMPORT_IGES
100
AcDbLine
 62
7
  6
CONTINUOUS
 10
-8.7614397678
 20
16.0246509005
 11
-8.7190064803
 21
16.0799854996
  0
LINE
  5
2A5
100
AcDbEntity
  8
IMPORT_IGES
100
AcDbLine
 62
7
  6
CONTINUOUS
 10
-8.2166462748
 20
17.5028027308
 11
-8.2323293193
 21
17.4831462926
  0
LINE
  5
2A6
100
AcDbEntity
  8
IMPORT_IGES
100
AcDbLine
 62
7
  6
CONTINUOUS
 10
-8.9054785874
 20
16.1924963948
 11
-8.9344692682
 21
16.1562856081
  0
LINE
  5
2A7
100
AcDbEntity
  8
IMPORT_IGES
100
AcDbLine
 62
7
  6
CONTINUOUS
 10
-9.4092571661
 20
17.3607960873
 11
-9.3813893332
 21
17.393946042
  0
LINE
  5
2A8
100
AcDbEntity
  8
IMPORT_IGES
100
AcDbLine
 62
7
  6
CONTINUOUS
 10
-8.0450334727
 20
17.3607960874
 11
-8.0171656399
 21
17.3939460421
  0
LINE
  5
2A9
100
AcDbEntity
  8
IMPORT_IGES
100
AcDbLine
 62
7
  6
CONTINUOUS
 10
-8.1996531444
 20
17.522461391
 11
-8.2166462748
 21
17.5028027308
  0
LINE
  5
2AA
100
AcDbEntity
  8
IMPORT_IGES
100
AcDbLine
 62
7
  6
CONTINUOUS
 10
-8.807623303
 20
15.9769004118
 11
-8.7614397678
 21
16.0246509005
  0
LINE
  5
2AB
100
AcDbEntity
  8
IMPORT_IGES
100
AcDbLine
 62
7
  6
CONTINUOUS
 10
-8.1809782642
 20
17.5417321149
 11
-8.1996531444
 21
17.522461391
  0
LINE
  5
2AC
100
AcDbEntity
  8
IMPORT_IGES
100
AcDbLine
 62
7
  6
CONTINUOUS
 10
-6.7745444084
 20
17.41552399
 11
-6.7449461096
 21
17.4459692061
  0
LINE
  5
2AD
100
AcDbEntity
  8
IMPORT_IGES
100
AcDbLine
 62
7
  6
CONTINUOUS
 10
-8.9344692682
 20
16.1562856081
 11
-8.9671489749
 21
16.1249819514
  0
LINE
  5
2AE
100
AcDbEntity
  8
IMPORT_IGES
100
AcDbLine
 62
7
  6
CONTINUOUS
 10
-7.570245575
 20
16.1562856081
 11
-7.6029252816
 21
16.1249819514
  0
LINE
  5
2AF
100
AcDbEntity
  8
IMPORT_IGES
100
AcDbLine
 62
253
  6
CONTINUOUS
 10
-20.4022276246
 20
6.6463104078
 11
-20.5433630739
 21
6.5146676706
  0
LINE
  5
2B0
100
AcDbEntity
  8
IMPORT_IGES
100
AcDbLine
 62
253
  6
CONTINUOUS
 10
-19.3337272652
 20
5.2178577345
 11
-19.192591786
 21
5.3494991168
  0
LINE
  5
2B1
100
AcDbEntity
  8
IMPORT_IGES
100
AcDbLine
 62
7
  6
CONTINUOUS
 10
-6.8927607201
 20
17.5841445622
 11
-6.9382593986
 21
17.5417656874
  0
LINE
  5
2B2
100
AcDbEntity
  8
IMPORT_IGES
100
AcDbLine
 62
7
  6
CONTINUOUS
 10
-8.1606015489
 20
17.5606860879
 11
-8.1809782642
 21
17.5417321149
  0
LINE
  5
2B3
100
AcDbEntity
  8
IMPORT_IGES
100
AcDbLine
 62
7
  6
CONTINUOUS
 10
-8.0171656399
 20
17.3939460421
 11
-7.9866181651
 21
17.4213769566
  0
LINE
  5
2B4
100
AcDbEntity
  8
IMPORT_IGES
100
AcDbLine
 62
7
  6
CONTINUOUS
 10
-6.1691388402
 20
16.9305209879
 11
-6.1292395457
 21
16.965696237
  0
LINE
  5
2B5
100
AcDbEntity
  8
IMPORT_IGES
100
AcDbLine
 62
7
  6
CONTINUOUS
 10
-8.138543084
 20
17.5792521245
 11
-8.1606015489
 21
17.5606860879
  0
LINE
  5
2B6
100
AcDbEntity
  8
IMPORT_IGES
100
AcDbLine
 62
7
  6
CONTINUOUS
 10
-5.4075201427
 20
17.4244134981
 11
-5.4524692085
 21
17.386743027
  0
LINE
  5
2B7
100
AcDbEntity
  8
IMPORT_IGES
100
AcDbLine
 62
7
  6
CONTINUOUS
 10
-7.4872748244
 20
15.9411328496
 11
-7.4386248765
 21
15.9812655701
  0
LINE
  5
2B8
100
AcDbEntity
  8
IMPORT_IGES
100
AcDbLine
 62
7
  6
CONTINUOUS
 10
-8.8568988455
 20
15.9373258409
 11
-8.807623303
 21
15.9769004118
  0
LINE
  5
2B9
100
AcDbEntity
  8
IMPORT_IGES
100
AcDbLine
 62
7
  6
CONTINUOUS
 10
-5.366677021
 20
17.2036467711
 11
-5.3249388676
 21
17.2367115839
  0
LINE
  5
2BA
100
AcDbEntity
  8
IMPORT_IGES
100
AcDbLine
 62
7
  6
CONTINUOUS
 10
-5.4524692085
 20
17.386743027
 11
-5.5005461893
 21
17.350001199
  0
LINE
  5
2BB
100
AcDbEntity
  8
IMPORT_IGES
100
AcDbLine
 62
7
  6
CONTINUOUS
 10
-6.7449461096
 20
17.4459692061
 11
-6.7114238211
 21
17.4713263273
  0
LINE
  5
2BC
100
AcDbEntity
  8
IMPORT_IGES
100
AcDbLine
 62
7
  6
CONTINUOUS
 10
-6.3299782053
 20
17.0352074915
 11
-6.3605888787
 21
17.0122304549
  0
LINE
  5
2BD
100
AcDbEntity
  8
IMPORT_IGES
100
AcDbLine
 62
7
  6
CONTINUOUS
 10
-8.9671489749
 20
16.1249819514
 11
-9.0033562246
 21
16.0984584385
  0
LINE
  5
2BE
100
AcDbEntity
  8
IMPORT_IGES
100
AcDbLine
 62
7
  6
CONTINUOUS
 10
-7.6029252816
 20
16.1249819514
 11
-7.6391325314
 21
16.0984584385
  0
LINE
  5
2BF
100
AcDbEntity
  8
IMPORT_IGES
100
AcDbLine
 62
7
  6
CONTINUOUS
 10
-8.1144914612
 20
17.5968265099
 11
-8.138543084
 21
17.5792521245
  0
LINE
  5
2C0
100
AcDbEntity
  8
IMPORT_IGES
100
AcDbLine
 62
7
  6
CONTINUOUS
 10
-6.8425253179
 20
17.6204259474
 11
-6.8927607201
 21
17.5841445622
  0
LINE
  5
2C1
100
AcDbEntity
  8
IMPORT_IGES
100
AcDbLine
 62
7
  6
CONTINUOUS
 10
-5.410896372
 20
17.1717495242
 11
-5.366677021
 21
17.2036467711
  0
LINE
  5
2C2
100
AcDbEntity
  8
IMPORT_IGES
100
AcDbLine
 62
7
  6
CONTINUOUS
 10
-5.5005461893
 20
17.350001199
 11
-5.5518624168
 21
17.3147431646
  0
LINE
  5
2C3
100
AcDbEntity
  8
IMPORT_IGES
100
AcDbLine
 62
7
  6
CONTINUOUS
 10
-6.2151241491
 20
16.8991879597
 11
-6.1691388402
 21
16.9305209879
  0
LINE
  5
2C4
100
AcDbEntity
  8
IMPORT_IGES
100
AcDbLine
 62
7
  6
CONTINUOUS
 10
-7.9866181651
 20
17.4213769566
 11
-7.9532485258
 21
17.4436319979
  0
LINE
  5
2C5
100
AcDbEntity
  8
IMPORT_IGES
100
AcDbLine
 62
7
  6
CONTINUOUS
 10
-5.4577065397
 20
17.140981628
 11
-5.410896372
 21
17.1717495242
  0
LINE
  5
2C6
100
AcDbEntity
  8
IMPORT_IGES
100
AcDbLine
 62
7
  6
CONTINUOUS
 10
-6.3136811612
 20
16.1239694549
 11
-6.3540127233
 21
16.0975093793
  0
LINE
  5
2C7
100
AcDbEntity
  8
IMPORT_IGES
100
AcDbLine
 62
7
  6
CONTINUOUS
 10
-7.539618423
 20
15.9085589133
 11
-7.4872748244
 21
15.9411328496
  0
LINE
  5
2C8
100
AcDbEntity
  8
IMPORT_IGES
100
AcDbLine
 62
7
  6
CONTINUOUS
 10
-5.5518624168
 20
17.3147431646
 11
-5.6064550017
 21
17.281153974
  0
LINE
  5
2C9
100
AcDbEntity
  8
IMPORT_IGES
100
AcDbLine
 62
7
  6
CONTINUOUS
 10
-8.9099246358
 20
15.9053353804
 11
-8.8568988455
 21
15.9373258409
  0
LINE
  5
2CA
100
AcDbEntity
  8
IMPORT_IGES
100
AcDbLine
 62
7
  6
CONTINUOUS
 10
-5.5069979049
 20
17.1113812977
 11
-5.4577065397
 21
17.140981628
  0
LINE
  5
2CB
100
AcDbEntity
  8
IMPORT_IGES
100
AcDbLine
 62
7
  6
CONTINUOUS
 10
-6.3605888787
 20
17.0122304549
 11
-6.3948415673
 21
16.9921274473
  0
LINE
  5
2CC
100
AcDbEntity
  8
IMPORT_IGES
100
AcDbLine
 62
7
  6
CONTINUOUS
 10
-5.6064550017
 20
17.281153974
 11
-5.6642868334
 21
17.2490485771
  0
LINE
  5
2CD
100
AcDbEntity
  8
IMPORT_IGES
100
AcDbLine
 62
7
  6
CONTINUOUS
 10
-5.5584416105
 20
17.0830631788
 11
-5.5069979049
 21
17.1113812977
  0
LINE
  5
2CE
100
AcDbEntity
  8
IMPORT_IGES
100
AcDbLine
 62
7
  6
CONTINUOUS
 10
-6.2576871343
 20
15.9275752395
 11
-6.1962333571
 21
15.9611473001
  0
LINE
  5
2CF
100
AcDbEntity
  8
IMPORT_IGES
100
AcDbLine
 62
7
  6
CONTINUOUS
 10
-6.7114238211
 20
17.4713263273
 11
-6.6741761098
 21
17.4916686646
  0
LINE
  5
2D0
100
AcDbEntity
  8
IMPORT_IGES
100
AcDbLine
 62
7
  6
CONTINUOUS
 10
-6.7873604061
 20
17.6503904252
 11
-6.8425253179
 21
17.6204259474
  0
LINE
  5
2D1
100
AcDbEntity
  8
IMPORT_IGES
100
AcDbLine
 62
7
  6
CONTINUOUS
 10
-9.0033562246
 20
16.0984584385
 11
-9.0422723039
 21
16.0777443854
  0
LINE
  5
2D2
100
AcDbEntity
  8
IMPORT_IGES
100
AcDbLine
 62
7
  6
CONTINUOUS
 10
-7.6391325314
 20
16.0984584385
 11
-7.6780486106
 21
16.0777443854
  0
LINE
  5
2D3
100
AcDbEntity
  8
IMPORT_IGES
100
AcDbLine
 62
7
  6
CONTINUOUS
 10
-6.2671954722
 20
16.8716971523
 11
-6.2151241491
 21
16.8991879597
  0
LINE
  5
2D4
100
AcDbEntity
  8
IMPORT_IGES
100
AcDbLine
 62
7
  6
CONTINUOUS
 10
-5.6119280373
 20
17.0560654865
 11
-5.5584416105
 21
17.0830631788
  0
LINE
  5
2D5
100
AcDbEntity
  8
IMPORT_IGES
100
AcDbLine
 62
7
  6
CONTINUOUS
 10
-5.6642868334
 20
17.2490485771
 11
-5.7253579118
 21
17.2184269737
  0
LINE
  5
2D6
100
AcDbEntity
  8
IMPORT_IGES
100
AcDbLine
 62
7
  6
CONTINUOUS
 10
-6.3540127233
 20
16.0975093793
 11
-6.3968512905
 21
16.0769621652
  0
LINE
  5
2D7
100
AcDbEntity
  8
IMPORT_IGES
100
AcDbLine
 62
7
  6
CONTINUOUS
 10
-5.6675668044
 20
17.0303500056
 11
-5.6119280373
 21
17.0560654865
  0
LINE
  5
2D8
100
AcDbEntity
  8
IMPORT_IGES
100
AcDbLine
 62
7
  6
CONTINUOUS
 10
-6.3948415673
 20
16.9921274473
 11
-6.4334165045
 21
16.9743725637
  0
LINE
  5
2D9
100
AcDbEntity
  8
IMPORT_IGES
100
AcDbLine
 62
7
  6
CONTINUOUS
 10
-7.5966636841
 20
15.8828868209
 11
-7.539618423
 21
15.9085589133
  0
LINE
  5
2DA
100
AcDbEntity
  8
IMPORT_IGES
100
AcDbLine
 62
7
  6
CONTINUOUS
 10
-8.967771653
 20
15.8803221611
 11
-8.9099246358
 21
15.9053353804
  0
LINE
  5
2DB
100
AcDbEntity
  8
IMPORT_IGES
100
AcDbLine
 62
7
  6
CONTINUOUS
 10
-5.7253579118
 20
17.005916736
 11
-5.6675668044
 21
17.0303500056
  0
LINE
  5
2DC
100
AcDbEntity
  8
IMPORT_IGES
100
AcDbLine
 62
7
  6
CONTINUOUS
 10
-6.3239525639
 20
15.90159455
 11
-6.2576871343
 21
15.9275752395
  0
LINE
  5
2DD
100
AcDbEntity
  8
IMPORT_IGES
100
AcDbLine
 62
7
  6
CONTINUOUS
 10
-6.7274850024
 20
17.6733311766
 11
-6.7873604061
 21
17.6503904252
  0
LINE
  5
2DE
100
AcDbEntity
  8
IMPORT_IGES
100
AcDbLine
 62
7
  6
CONTINUOUS
 10
-6.6741761098
 20
17.4916686646
 11
-6.6341126343
 21
17.506444081
  0
LINE
  5
2DF
100
AcDbEntity
  8
IMPORT_IGES
100
AcDbLine
 62
7
  6
CONTINUOUS
 10
-6.4334165045
 20
16.9743725637
 11
-6.4756334569
 21
16.9594917089
  0
LINE
  5
2E0
100
AcDbEntity
  8
IMPORT_IGES
100
AcDbLine
 62
7
  6
CONTINUOUS
 10
-9.0422723039
 20
16.0777443854
 11
-9.083624308
 21
16.0631828975
  0
LINE
  5
2E1
100
AcDbEntity
  8
IMPORT_IGES
100
AcDbLine
 62
7
  6
CONTINUOUS
 10
-7.6780486106
 20
16.0777443854
 11
-7.7194006147
 21
16.0631828975
  0
LINE
  5
2E2
100
AcDbEntity
  8
IMPORT_IGES
100
AcDbLine
 62
7
  6
CONTINUOUS
 10
-7.9167870842
 20
17.4608445492
 11
-7.8771439612
 21
17.4730590715
  0
LINE
  5
2E3
100
AcDbEntity
  8
IMPORT_IGES
100
AcDbLine
 62
7
  6
CONTINUOUS
 10
-6.3968512905
 20
16.0769621652
 11
-6.4428829181
 21
16.0628707442
  0
LINE
  5
2E4
100
AcDbEntity
  8
IMPORT_IGES
100
AcDbLine
 62
7
  6
CONTINUOUS
 10
-7.6587466118
 20
15.8638975926
 11
-7.5966636841
 21
15.8828868209
  0
LINE
  5
2E5
100
AcDbEntity
  8
IMPORT_IGES
100
AcDbLine
 62
7
  6
CONTINUOUS
 10
-9.0307968901
 20
15.8620838933
 11
-8.967771653
 21
15.8803221611
  0
LINE
  5
2E6
100
AcDbEntity
  8
IMPORT_IGES
100
AcDbLine
 62
253
  6
CONTINUOUS
 10
-19.3832489094
 20
20.4710231861
 11
-19.3418130067
 21
20.1109806998
  0
LINE
  5
2E7
100
AcDbEntity
  8
IMPORT_IGES
100
AcDbLine
 62
253
  6
CONTINUOUS
 10
-19.3967270359
 20
20.5923710685
 11
-19.3832489094
 21
20.4710231861
  0
LINE
  5
2E8
100
AcDbEntity
  8
IMPORT_IGES
100
AcDbLine
 62
7
  6
CONTINUOUS
 10
-9.7128041645
 20
17.2546824096
 11
-9.7359368985
 21
17.1763652341
  0
LINE
  5
2E9
100
AcDbEntity
  8
IMPORT_IGES
100
AcDbLine
 62
7
  6
CONTINUOUS
 10
-9.4910443355
 20
17.1856907095
 11
-9.475196419
 21
17.2349175705
  0
LINE
  5
2EA
100
AcDbEntity
  8
IMPORT_IGES
100
AcDbLine
 62
7
  6
CONTINUOUS
 10
-9.6850937846
 20
17.3280724176
 11
-9.7128041645
 21
17.2546824096
  0
LINE
  5
2EB
100
AcDbEntity
  8
IMPORT_IGES
100
AcDbLine
 62
7
  6
CONTINUOUS
 10
-9.475196419
 20
17.2349175705
 11
-9.4563684073
 21
17.2804646759
  0
LINE
  5
2EC
100
AcDbEntity
  8
IMPORT_IGES
100
AcDbLine
 62
7
  6
CONTINUOUS
 10
-8.1109727257
 20
17.2349175706
 11
-8.092144714
 21
17.280464676
  0
LINE
  5
2ED
100
AcDbEntity
  8
IMPORT_IGES
100
AcDbLine
 62
7
  6
CONTINUOUS
 10
-8.332840636
 20
17.2970425661
 11
-8.3429377511
 21
17.2734189838
  0
LINE
  5
2EE
100
AcDbEntity
  8
IMPORT_IGES
100
AcDbLine
 62
7
  6
CONTINUOUS
 10
-8.3193036797
 20
17.3315284169
 11
-8.3113729436
 21
17.3494264916
  0
LINE
  5
2EF
100
AcDbEntity
  8
IMPORT_IGES
100
AcDbLine
 62
7
  6
CONTINUOUS
 10
-9.6528300949
 20
17.3951633213
 11
-9.6850937846
 21
17.3280724176
  0
LINE
  5
2F0
100
AcDbEntity
  8
IMPORT_IGES
100
AcDbLine
 62
7
  6
CONTINUOUS
 10
-8.6812271825
 20
16.1417356553
 11
-8.6483832411
 21
16.2099605831
  0
LINE
  5
2F1
100
AcDbEntity
  8
IMPORT_IGES
100
AcDbLine
 62
7
  6
CONTINUOUS
 10
-8.858414121
 20
16.2778481254
 11
-8.8800154496
 21
16.2334873254
  0
LINE
  5
2F2
100
AcDbEntity
  8
IMPORT_IGES
100
AcDbLine
 62
7
  6
CONTINUOUS
 10
-8.3025718836
 20
17.3679370843
 11
-8.3115610951
 21
17.3495098626
  0
LINE
  5
2F3
100
AcDbEntity
  8
IMPORT_IGES
100
AcDbLine
 62
7
  6
CONTINUOUS
 10
-8.2931654139
 20
17.3865374291
 11
-8.3025718836
 21
17.3679370843
  0
LINE
  5
2F4
100
AcDbEntity
  8
IMPORT_IGES
100
AcDbLine
 62
7
  6
CONTINUOUS
 10
-9.4563684073
 20
17.2804646759
 11
-9.4343028343
 21
17.3224702594
  0
LINE
  5
2F5
100
AcDbEntity
  8
IMPORT_IGES
100
AcDbLine
 62
7
  6
CONTINUOUS
 10
-8.092144714
 20
17.280464676
 11
-8.070079141
 21
17.3224702595
  0
LINE
  5
2F6
100
AcDbEntity
  8
IMPORT_IGES
100
AcDbLine
 62
7
  6
CONTINUOUS
 10
-8.2830207298
 20
17.405452147
 11
-8.2931654139
 21
17.3865374291
  0
LINE
  5
2F7
100
AcDbEntity
  8
IMPORT_IGES
100
AcDbLine
 62
7
  6
CONTINUOUS
 10
-6.8222507801
 20
17.3403612775
 11
-6.8004172846
 21
17.3800639902
  0
LINE
  5
2F8
100
AcDbEntity
  8
IMPORT_IGES
100
AcDbLine
 62
7
  6
CONTINUOUS
 10
-8.2718896013
 20
17.4245804692
 11
-8.2830207298
 21
17.405452147
  0
LINE
  5
2F9
100
AcDbEntity
  8
IMPORT_IGES
100
AcDbLine
 62
7
  6
CONTINUOUS
 10
-7.351107278
 20
16.0854493915
 11
-7.3138289251
 21
16.1476733764
  0
LINE
  5
2FA
100
AcDbEntity
  8
IMPORT_IGES
100
AcDbLine
 62
7
  6
CONTINUOUS
 10
-8.7190064803
 20
16.0799854996
 11
-8.6812271825
 21
16.1417356553
  0
LINE
  5
2FB
100
AcDbEntity
  8
IMPORT_IGES
100
AcDbLine
 62
7
  6
CONTINUOUS
 10
-8.8800154496
 20
16.2334873254
 11
-8.9054785874
 21
16.1924963948
  0
LINE
  5
2FC
100
AcDbEntity
  8
IMPORT_IGES
100
AcDbLine
 62
7
  6
CONTINUOUS
 10
-7.5157917564
 20
16.2334873254
 11
-7.5412548941
 21
16.1924963948
  0
LINE
  5
2FD
100
AcDbEntity
  8
IMPORT_IGES
100
AcDbLine
 62
7
  6
CONTINUOUS
 10
-8.2597971655
 20
17.4439592668
 11
-8.2718896013
 21
17.4245804692
  0
LINE
  5
2FE
100
AcDbEntity
  8
IMPORT_IGES
100
AcDbLine
 62
7
  6
CONTINUOUS
 10
-6.9788285676
 20
17.4930699053
 11
-7.0136708513
 21
17.438105782
  0
LINE
  5
2FF
100
AcDbEntity
  8
IMPORT_IGES
100
AcDbLine
 62
7
  6
CONTINUOUS
 10
-6.095313339
 20
17.0050534284
 11
-6.0674731466
 21
17.0482528406
  0
LINE
  5
300
100
AcDbEntity
  8
IMPORT_IGES
100
AcDbLine
 62
7
  6
CONTINUOUS
 10
-8.070079141
 20
17.3224702595
 11
-8.0450334727
 21
17.3607960874
  0
LINE
  5
301
100
AcDbEntity
  8
IMPORT_IGES
100
AcDbLine
 62
7
  6
CONTINUOUS
 10
-6.2173713032
 20
16.2304789048
 11
-6.2453604512
 21
16.1904542177
  0
LINE
  5
302
100
AcDbEntity
  8
IMPORT_IGES
100
AcDbLine
 62
7
  6
CONTINUOUS
 10
-6.2831353279
 20
17.090954526
 11
-6.3040501662
 21
17.0613794258
  0
LINE
  5
303
100
AcDbEntity
  8
IMPORT_IGES
100
AcDbLine
 62
7
  6
CONTINUOUS
 10
-6.8004172846
 20
17.3800639902
 11
-6.7745444084
 21
17.41552399
  0
LINE
  5
304
100
AcDbEntity
  8
IMPORT_IGES
100
AcDbLine
 62
7
  6
CONTINUOUS
 10
-7.3930192519
 20
16.0295780888
 11
-7.351107278
 21
16.0854493915
  0
LINE
  5
305
100
AcDbEntity
  8
IMPORT_IGES
100
AcDbLine
 62
7
  6
CONTINUOUS
 10
-5.2597942897
 20
17.5834294754
 11
-5.291329104
 21
17.5424416189
  0
LINE
  5
306
100
AcDbEntity
  8
IMPORT_IGES
100
AcDbLine
 62
7
  6
CONTINUOUS
 10
-7.5412548941
 20
16.1924963948
 11
-7.570245575
 21
16.1562856081
  0
LINE
  5
307
100
AcDbEntity
  8
IMPORT_IGES
100
AcDbLine
 62
7
  6
CONTINUOUS
 10
-6.9382593986
 20
17.5417656874
 11
-6.9788285676
 21
17.4930699053
  0
LINE
  5
308
100
AcDbEntity
  8
IMPORT_IGES
100
AcDbLine
 62
7
  6
CONTINUOUS
 10
-6.1292395457
 20
16.965696237
 11
-6.095313339
 21
17.0050534284
  0
LINE
  5
309
100
AcDbEntity
  8
IMPORT_IGES
100
AcDbLine
 62
7
  6
CONTINUOUS
 10
-6.0882939251
 20
16.0483814417
 11
-6.0418082705
 21
16.1020435226
  0
LINE
  5
30A
100
AcDbEntity
  8
IMPORT_IGES
100
AcDbLine
 62
7
  6
CONTINUOUS
 10
-5.291329104
 20
17.5424416189
 11
-5.3266183012
 21
17.5022409811
  0
LINE
  5
30B
100
AcDbEntity
  8
IMPORT_IGES
100
AcDbLine
 62
7
  6
CONTINUOUS
 10
-6.2453604512
 20
16.1904542177
 11
-6.2774775609
 21
16.1549299344
  0
LINE
  5
30C
100
AcDbEntity
  8
IMPORT_IGES
100
AcDbLine
 62
7
  6
CONTINUOUS
 10
-7.4386248765
 20
15.9812655701
 11
-7.3930192519
 21
16.0295780888
  0
LINE
  5
30D
100
AcDbEntity
  8
IMPORT_IGES
100
AcDbLine
 62
7
  6
CONTINUOUS
 10
-5.3266183012
 20
17.5022409811
 11
-5.3655052645
 21
17.4628629181
  0
LINE
  5
30E
100
AcDbEntity
  8
IMPORT_IGES
100
AcDbLine
 62
7
  6
CONTINUOUS
 10
-6.3040501662
 20
17.0613794258
 11
-6.3299782053
 21
17.0352074915
  0
LINE
  5
30F
100
AcDbEntity
  8
IMPORT_IGES
100
AcDbLine
 62
7
  6
CONTINUOUS
 10
-5.3655052645
 20
17.4628629181
 11
-5.4075201427
 21
17.4244134981
  0
LINE
  5
310
100
AcDbEntity
  8
IMPORT_IGES
100
AcDbLine
 62
7
  6
CONTINUOUS
 10
-6.1400304073
 20
16.0011495535
 11
-6.0882939251
 21
16.0483814417
  0
LINE
  5
311
100
AcDbEntity
  8
IMPORT_IGES
100
AcDbLine
 62
7
  6
CONTINUOUS
 10
-5.3249388676
 20
17.2367115839
 11
-5.2856819118
 21
17.2709439627
  0
LINE
  5
312
100
AcDbEntity
  8
IMPORT_IGES
100
AcDbLine
 62
7
  6
CONTINUOUS
 10
-6.2774775609
 20
16.1549299344
 11
-6.3136811612
 21
16.1239694549
  0
LINE
  5
313
100
AcDbEntity
  8
IMPORT_IGES
100
AcDbLine
 62
7
  6
CONTINUOUS
 10
-6.1962333571
 20
15.9611473001
 11
-6.1400304073
 21
16.0011495535
  0
LWPOLYLINE
  5
314
100
AcDbEntity
  8
IMPORT_IGES
100
AcDbPolyline
 62
253
  6
CONTINUOUS
 90
25
 70
0
 10
-19.434595995
 20
21.0686189188
 10
-19.4431453125
 20
21.102152511
 10
-19.4607376672
 20
21.1328760965
 10
-19.4873841437
 20
21.1608352224
 10
-19.5232853606
 20
21.1859236312
 10
-19.5682603421
 20
21.2083316336
 10
-19.6217446532
 20
21.2285312809
 10
-19.6835883408
 20
21.2467247826
 10
-19.7539520852
 20
21.2627436124
 10
-19.8327351606
 20
21.2764917145
 10
-19.9206593877
 20
21.2880241821
 10
-20.0170110226
 20
21.2973151993
 10
-20.1195362337
 20
21.3041690672
 10
-20.2278878086
 20
21.3085387632
 10
-20.3424187872
 20
21.3105306483
 10
-20.4619255569
 20
21.3102006012
 10
-20.5865005674
 20
21.3075513238
 10
-20.7160528761
 20
21.3026259251
 10
-20.8491029829
 20
21.295546702
 10
-20.9856366055
 20
21.2863332349
 10
-21.1256655814
 20
21.2749987674
 10
-21.2677489409
 20
21.2616605138
 10
-21.4114044182
 20
21.2463654334
 10
-21.5571081723
 20
21.2290846308
 10
-21.7048560498
 20
21.2098198807
  0
LWPOLYLINE
  5
315
100
AcDbEntity
  8
IMPORT_IGES
100
AcDbPolyline
 62
253
  6
CONTINUOUS
 90
6
 70
0
 10
-20.5503143337
 20
17.987058287
 10
-20.5516019693
 20
17.9925033552
 10
-20.5528772307
 20
18.0061424008
 10
-20.554140118
 20
18.0279754238
 10
-20.5553946788
 20
18.0581191274
 10
-20.5566368655
 20
18.0964568084
  0
LINE
  5
316
100
AcDbEntity
  8
IMPORT_IGES
100
AcDbLine
 62
7
  6
CONTINUOUS
 10
-9.7683753185
 20
17.004783053
 11
-9.7794533243
 21
16.9083512715
  0
LINE
  5
317
100
AcDbEntity
  8
IMPORT_IGES
100
AcDbLine
 62
7
  6
CONTINUOUS
 10
-9.5245001362
 20
17.022882029
 11
-9.5156961941
 21
17.0796729387
  0
LINE
  5
318
100
AcDbEntity
  8
IMPORT_IGES
100
AcDbLine
 62
7
  6
CONTINUOUS
 10
-9.7544449314
 20
17.0930377272
 11
-9.7683753185
 21
17.004783053
  0
LINE
  5
319
100
AcDbEntity
  8
IMPORT_IGES
100
AcDbLine
 62
7
  6
CONTINUOUS
 10
-8.8171152552
 20
16.4297394674
 11
-8.828034743
 21
16.3763212301
  0
LINE
  5
31A
100
AcDbEntity
  8
IMPORT_IGES
100
AcDbLine
 62
7
  6
CONTINUOUS
 10
-9.5156961941
 20
17.0796729387
 11
-9.5045266239
 21
17.1338655093
  0
LINE
  5
31B
100
AcDbEntity
  8
IMPORT_IGES
100
AcDbLine
 62
7
  6
CONTINUOUS
 10
-8.3830704889
 20
17.1280975489
 11
-8.3876366493
 21
17.1061695939
  0
LINE
  5
31C
100
AcDbEntity
  8
IMPORT_IGES
100
AcDbLine
 62
7
  6
CONTINUOUS
 10
-8.5967169681
 20
16.3643109089
 11
-8.5780560132
 21
16.4494592229
  0
LINE
  5
31D
100
AcDbEntity
  8
IMPORT_IGES
100
AcDbLine
 62
7
  6
CONTINUOUS
 10
-9.7359368985
 20
17.1763652341
 11
-9.7544449314
 21
17.0930377272
  0
LINE
  5
31E
100
AcDbEntity
  8
IMPORT_IGES
100
AcDbLine
 62
7
  6
CONTINUOUS
 10
-8.3782843783
 20
17.1493452959
 11
-8.3830704889
 21
17.1280975489
  0
LINE
  5
31F
100
AcDbEntity
  8
IMPORT_IGES
100
AcDbLine
 62
7
  6
CONTINUOUS
 10
-9.5045266239
 20
17.1338655093
 11
-9.4910443355
 21
17.1856907095
  0
LINE
  5
320
100
AcDbEntity
  8
IMPORT_IGES
100
AcDbLine
 62
7
  6
CONTINUOUS
 10
-8.1403029306
 20
17.1338655094
 11
-8.1268206422
 21
17.1856907096
  0
LINE
  5
321
100
AcDbEntity
  8
IMPORT_IGES
100
AcDbLine
 62
7
  6
CONTINUOUS
 10
-8.828034743
 20
16.3763212301
 11
-8.8412935275
 21
16.325399743
  0
LINE
  5
322
100
AcDbEntity
  8
IMPORT_IGES
100
AcDbLine
 62
7
  6
CONTINUOUS
 10
-8.3627788265
 20
17.2090662224
 11
-8.3681436197
 21
17.1898035323
  0
LINE
  5
323
100
AcDbEntity
  8
IMPORT_IGES
100
AcDbLine
 62
7
  6
CONTINUOUS
 10
-8.3681436197
 20
17.1898035323
 11
-8.3752177037
 21
17.1651140146
  0
LINE
  5
324
100
AcDbEntity
  8
IMPORT_IGES
100
AcDbLine
 62
7
  6
CONTINUOUS
 10
-8.6201932894
 20
16.2846010676
 11
-8.5967169681
 21
16.3643109089
  0
LINE
  5
325
100
AcDbEntity
  8
IMPORT_IGES
100
AcDbLine
 62
7
  6
CONTINUOUS
 10
-8.3572762674
 20
17.2276281879
 11
-8.3627788265
 21
17.2090662224
  0
LINE
  5
326
100
AcDbEntity
  8
IMPORT_IGES
100
AcDbLine
 62
7
  6
CONTINUOUS
 10
-8.3516055288
 20
17.2455643476
 11
-8.3572762674
 21
17.2276281879
  0
LINE
  5
327
100
AcDbEntity
  8
IMPORT_IGES
100
AcDbLine
 62
7
  6
CONTINUOUS
 10
-8.1268206422
 20
17.1856907096
 11
-8.1109727257
 21
17.2349175706
  0
LINE
  5
328
100
AcDbEntity
  8
IMPORT_IGES
100
AcDbLine
 62
7
  6
CONTINUOUS
 10
-7.0425204579
 20
17.3768895062
 11
-7.0656431793
 21
17.3094048893
  0
LINE
  5
329
100
AcDbEntity
  8
IMPORT_IGES
100
AcDbLine
 62
7
  6
CONTINUOUS
 10
-9.5648699001
 20
8.5292206222
 11
-9.575314136
 21
8.4993765811
  0
LINE
  5
32A
100
AcDbEntity
  8
IMPORT_IGES
100
AcDbLine
 62
7
  6
CONTINUOUS
 10
-8.3436033256
 20
17.2679159895
 11
-8.3516055288
 21
17.2455643476
  0
LINE
  5
32B
100
AcDbEntity
  8
IMPORT_IGES
100
AcDbLine
 62
7
  6
CONTINUOUS
 10
-8.8412935275
 20
16.325399743
 11
-8.858414121
 21
16.2778481254
  0
LINE
  5
32C
100
AcDbEntity
  8
IMPORT_IGES
100
AcDbLine
 62
7
  6
CONTINUOUS
 10
-7.4770698342
 20
16.325399743
 11
-7.4941904277
 21
16.2778481253
  0
LINE
  5
32D
100
AcDbEntity
  8
IMPORT_IGES
100
AcDbLine
 62
7
  6
CONTINUOUS
 10
-8.3265432404
 20
17.3141287751
 11
-8.332840636
 21
17.2970425661
  0
LINE
  5
32E
100
AcDbEntity
  8
IMPORT_IGES
100
AcDbLine
 62
7
  6
CONTINUOUS
 10
-7.2814785501
 20
16.2162874328
 11
-7.253761796
 21
16.2912541713
  0
LINE
  5
32F
100
AcDbEntity
  8
IMPORT_IGES
100
AcDbLine
 62
7
  6
CONTINUOUS
 10
-8.6483832411
 20
16.2099605831
 11
-8.6201932894
 21
16.2846010676
  0
LINE
  5
330
100
AcDbEntity
  8
IMPORT_IGES
100
AcDbLine
 62
7
  6
CONTINUOUS
 10
-8.3198064766
 20
17.331751209
 11
-8.3265432404
 21
17.3141287751
  0
LINE
  5
331
100
AcDbEntity
  8
IMPORT_IGES
100
AcDbLine
 62
7
  6
CONTINUOUS
 10
-9.5547056048
 20
8.5550422918
 11
-9.5648699001
 21
8.5292206222
  0
LINE
  5
332
100
AcDbEntity
  8
IMPORT_IGES
100
AcDbLine
 62
7
  6
CONTINUOUS
 10
-9.3830055649
 20
8.4551525226
 11
-9.3674476627
 21
8.4938736233
  0
LINE
  5
333
100
AcDbEntity
  8
IMPORT_IGES
100
AcDbLine
 62
7
  6
CONTINUOUS
 10
-6.8399402425
 20
17.2966732089
 11
-6.8222507801
 21
17.3403612775
  0
LINE
  5
334
100
AcDbEntity
  8
IMPORT_IGES
100
AcDbLine
 62
7
  6
CONTINUOUS
 10
-9.5437450106
 20
8.5792000345
 11
-9.5547056048
 21
8.5550422918
  0
LINE
  5
335
100
AcDbEntity
  8
IMPORT_IGES
100
AcDbLine
 62
7
  6
CONTINUOUS
 10
-6.0674731466
 20
17.0482528406
 11
-6.0460577481
 21
17.094275309
  0
LINE
  5
336
100
AcDbEntity
  8
IMPORT_IGES
100
AcDbLine
 62
7
  6
CONTINUOUS
 10
-7.0136708513
 20
17.438105782
 11
-7.0425204579
 21
17.3768895062
  0
LINE
  5
337
100
AcDbEntity
  8
IMPORT_IGES
100
AcDbLine
 62
7
  6
CONTINUOUS
 10
-7.3138289251
 20
16.1476733764
 11
-7.2814785501
 21
16.2162874328
  0
LINE
  5
338
100
AcDbEntity
  8
IMPORT_IGES
100
AcDbLine
 62
7
  6
CONTINUOUS
 10
-7.4941904277
 20
16.2778481253
 11
-7.5157917564
 21
16.2334873254
  0
LINE
  5
339
100
AcDbEntity
  8
IMPORT_IGES
100
AcDbLine
 62
7
  6
CONTINUOUS
 10
-9.5537098165
 20
7.6487819709
 11
-9.579124375
 21
7.5972392652
  0
LINE
  5
33A
100
AcDbEntity
  8
IMPORT_IGES
100
AcDbLine
 62
7
  6
CONTINUOUS
 10
-6.266903124
 20
17.1237245239
 11
-6.2831353279
 21
17.090954526
  0
LINE
  5
33B
100
AcDbEntity
  8
IMPORT_IGES
100
AcDbLine
 62
7
  6
CONTINUOUS
 10
-6.0033656983
 20
16.1585762923
 11
-5.9741124247
 21
16.2173879641
  0
LINE
  5
33C
100
AcDbEntity
  8
IMPORT_IGES
100
AcDbLine
 62
7
  6
CONTINUOUS
 10
-6.1952554881
 20
16.2734013382
 11
-6.2173713032
 21
16.2304789048
  0
LINE
  5
33D
100
AcDbEntity
  8
IMPORT_IGES
100
AcDbLine
 62
7
  6
CONTINUOUS
 10
-9.5317383554
 20
8.6020032813
 11
-9.5437450106
 21
8.5792000345
  0
LINE
  5
33E
100
AcDbEntity
  8
IMPORT_IGES
100
AcDbLine
 62
7
  6
CONTINUOUS
 10
-9.3674476627
 20
8.4938736233
 11
-9.3481170904
 21
8.5284258882
  0
LINE
  5
33F
100
AcDbEntity
  8
IMPORT_IGES
100
AcDbLine
 62
7
  6
CONTINUOUS
 10
-5.2075179591
 20
17.6678729128
 11
-5.2318572414
 21
17.6252399067
  0
LINE
  5
340
100
AcDbEntity
  8
IMPORT_IGES
100
AcDbLine
 62
7
  6
CONTINUOUS
 10
-9.5180005603
 20
8.6243775376
 11
-9.5317383554
 21
8.6020032813
  0
LINE
  5
341
100
AcDbEntity
  8
IMPORT_IGES
100
AcDbLine
 62
7
  6
CONTINUOUS
 10
-9.5221067103
 20
7.6974000286
 11
-9.5537098165
 21
7.6487819709
  0
LINE
  5
342
100
AcDbEntity
  8
IMPORT_IGES
100
AcDbLine
 62
7
  6
CONTINUOUS
 10
-9.3925499319
 20
7.5607944614
 11
-9.364331794
 21
7.6031198396
  0
LINE
  5
343
100
AcDbEntity
  8
IMPORT_IGES
100
AcDbLine
 62
7
  6
CONTINUOUS
 10
-5.2318572414
 20
17.6252399067
 11
-5.2597942897
 21
17.5834294754
  0
LINE
  5
344
100
AcDbEntity
  8
IMPORT_IGES
100
AcDbLine
 62
7
  6
CONTINUOUS
 10
-6.0418082705
 20
16.1020435226
 11
-6.0033656983
 21
16.1585762923
  0
LINE
  5
345
100
AcDbEntity
  8
IMPORT_IGES
100
AcDbLine
 62
7
  6
CONTINUOUS
 10
-9.502507913
 20
8.6467420816
 11
-9.5180005603
 21
8.6243775376
  0
LINE
  5
346
100
AcDbEntity
  8
IMPORT_IGES
100
AcDbLine
 62
7
  6
CONTINUOUS
 10
-4.4817969118
 20
16.4545789128
 11
-3.9188659118
 21
17.2652489128
  0
LINE
  5
347
100
AcDbEntity
  8
IMPORT_IGES
100
AcDbLine
 62
7
  6
CONTINUOUS
 10
-3.8783929118
 20
17.6196879128
 11
-4.6988739118
 21
16.4545789128
  0
LINE
  5
348
100
AcDbEntity
  8
IMPORT_IGES
100
AcDbLine
 62
7
  6
CONTINUOUS
 10
-9.3481170904
 20
8.5284258882
 11
-9.3248928122
 21
8.5583903445
  0
LINE
  5
349
100
AcDbEntity
  8
IMPORT_IGES
100
AcDbLine
 62
7
  6
CONTINUOUS
 10
-8.8494783721
 20
8.1992080583
 11
-8.8758175399
 21
8.1655231927
  0
LINE
  5
34A
100
AcDbEntity
  8
IMPORT_IGES
100
AcDbLine
 62
7
  6
CONTINUOUS
 10
-9.4852841257
 20
8.6686776351
 11
-9.502507913
 21
8.6467420816
  0
LINE
  5
34B
100
AcDbEntity
  8
IMPORT_IGES
100
AcDbLine
 62
7
  6
CONTINUOUS
 10
-9.4849410868
 20
7.7430606094
 11
-9.5221067103
 21
7.6974000286
  0
LINE
  5
34C
100
AcDbEntity
  8
IMPORT_IGES
100
AcDbLine
 62
7
  6
CONTINUOUS
 10
-9.364331794
 20
7.6031198396
 11
-9.328869229
 21
7.6435872319
  0
LINE
  5
34D
100
AcDbEntity
  8
IMPORT_IGES
100
AcDbLine
 62
7
  6
CONTINUOUS
 10
-9.4657152562
 20
8.6898518692
 11
-9.4852841257
 21
8.6686776351
  0
LINE
  5
34E
100
AcDbEntity
  8
IMPORT_IGES
100
AcDbLine
 62
7
  6
CONTINUOUS
 10
-9.4421985382
 20
7.7862051962
 11
-9.4849410868
 21
7.7430606094
  0
LINE
  5
34F
100
AcDbEntity
  8
IMPORT_IGES
100
AcDbLine
 62
7
  6
CONTINUOUS
 10
-8.8758175399
 20
8.1655231927
 11
-8.9078971082
 21
8.1340738213
  0
LINE
  5
350
100
AcDbEntity
  8
IMPORT_IGES
100
AcDbLine
 62
7
  6
CONTINUOUS
 10
-9.3248928122
 20
8.5583903445
 11
-9.2978958639
 21
8.5841859648
  0
LINE
  5
351
100
AcDbEntity
  8
IMPORT_IGES
100
AcDbLine
 62
7
  6
CONTINUOUS
 10
-9.4436531779
 20
8.7104333308
 11
-9.4657152562
 21
8.6898518692
  0
LINE
  5
352
100
AcDbEntity
  8
IMPORT_IGES
100
AcDbLine
 62
7
  6
CONTINUOUS
 10
-9.4192460174
 20
8.7302534729
 11
-9.4436531779
 21
8.7104333308
  0
LINE
  5
353
100
AcDbEntity
  8
IMPORT_IGES
100
AcDbLine
 62
7
  6
CONTINUOUS
 10
-9.2978958639
 20
8.5841859648
 11
-9.2671674995
 21
8.6055957442
  0
LINE
  5
354
100
AcDbEntity
  8
IMPORT_IGES
100
AcDbLine
 62
7
  6
CONTINUOUS
 10
-9.3923242118
 20
8.7484743266
 11
-9.4192460174
 21
8.7302534729
  0
LINE
  5
355
100
AcDbEntity
  8
IMPORT_IGES
100
AcDbLine
 62
7
  6
CONTINUOUS
 10
-9.3627435596
 20
8.7650115895
 11
-9.3923242118
 21
8.7484743266
  0
LINE
  5
356
100
AcDbEntity
  8
IMPORT_IGES
100
AcDbLine
 62
253
  6
CONTINUOUS
 10
-26.6435769118
 20
-12.1523750872
 11
-26.5763746523
 21
-12.1523750872
  0
LINE
  5
357
100
AcDbEntity
  8
IMPORT_IGES
100
AcDbLine
 62
253
  6
CONTINUOUS
 10
26.2892210882
 20
-12.1523750872
 11
26.3564230882
 21
-12.1523750872
  0
LINE
  5
358
100
AcDbEntity
  8
IMPORT_IGES
100
AcDbLine
 62
7
  6
CONTINUOUS
 10
-9.7822686702
 20
16.7169209181
 11
-9.7810984786
 21
16.6278963399
  0
LINE
  5
359
100
AcDbEntity
  8
IMPORT_IGES
100
AcDbLine
 62
7
  6
CONTINUOUS
 10
-9.5409321773
 20
16.7080537427
 11
-9.5410128939
 21
16.774008718
  0
LINE
  5
35A
100
AcDbEntity
  8
IMPORT_IGES
100
AcDbLine
 62
7
  6
CONTINUOUS
 10
-9.7816792135
 20
16.8167293342
 11
-9.7822686702
 21
16.7169209181
  0
LINE
  5
35B
100
AcDbEntity
  8
IMPORT_IGES
100
AcDbLine
 62
7
  6
CONTINUOUS
 10
-9.5410128939
 20
16.774008718
 11
-9.5396563845
 21
16.8385380357
  0
LINE
  5
35C
100
AcDbEntity
  8
IMPORT_IGES
100
AcDbLine
 62
7
  6
CONTINUOUS
 10
-9.7794533243
 20
16.9083512715
 11
-9.7816792135
 21
16.8167293342
  0
LINE
  5
35D
100
AcDbEntity
  8
IMPORT_IGES
100
AcDbLine
 62
7
  6
CONTINUOUS
 10
-8.791569788
 20
16.7328316608
 11
-8.7934242014
 21
16.667411996
  0
LINE
  5
35E
100
AcDbEntity
  8
IMPORT_IGES
100
AcDbLine
 62
7
  6
CONTINUOUS
 10
-9.6062445515
 20
8.2747989012
 11
-9.6050774979
 21
8.3110676953
  0
LINE
  5
35F
100
AcDbEntity
  8
IMPORT_IGES
100
AcDbLine
 62
7
  6
CONTINUOUS
 10
-9.4091879836
 20
8.3238273512
 11
-9.4110504038
 21
8.2748046132
  0
LINE
  5
360
100
AcDbEntity
  8
IMPORT_IGES
100
AcDbLine
 62
7
  6
CONTINUOUS
 10
-8.4160823397
 20
16.8735759932
 11
-8.41752185
 21
16.8433477583
  0
LINE
  5
361
100
AcDbEntity
  8
IMPORT_IGES
100
AcDbLine
 62
7
  6
CONTINUOUS
 10
-9.5396563845
 20
16.8385380357
 11
-9.5364802314
 21
16.9023145775
  0
LINE
  5
362
100
AcDbEntity
  8
IMPORT_IGES
100
AcDbLine
 62
7
  6
CONTINUOUS
 10
-8.7934242014
 20
16.667411996
 11
-8.7968700596
 21
16.6041015616
  0
LINE
  5
363
100
AcDbEntity
  8
IMPORT_IGES
100
AcDbLine
 62
7
  6
CONTINUOUS
 10
-8.8011331505
 20
8.3446458736
 11
-8.80270047
 21
8.3158369507
  0
LINE
  5
364
100
AcDbEntity
  8
IMPORT_IGES
100
AcDbLine
 62
7
  6
CONTINUOUS
 10
-9.6385034441
 20
7.3552370581
 11
-9.6422058913
 21
7.2892374371
  0
LINE
  5
365
100
AcDbEntity
  8
IMPORT_IGES
100
AcDbLine
 62
7
  6
CONTINUOUS
 10
-8.4142472548
 20
16.9028192469
 11
-8.4160823397
 21
16.8735759932
  0
LINE
  5
366
100
AcDbEntity
  8
IMPORT_IGES
100
AcDbLine
 62
7
  6
CONTINUOUS
 10
-9.6050772187
 20
8.311069987
 11
-9.602760311
 21
8.3460816969
  0
LINE
  5
367
100
AcDbEntity
  8
IMPORT_IGES
100
AcDbLine
 62
7
  6
CONTINUOUS
 10
-8.4120411378
 20
16.931172191
 11
-8.4142472548
 21
16.9028192469
  0
LINE
  5
368
100
AcDbEntity
  8
IMPORT_IGES
100
AcDbLine
 62
7
  6
CONTINUOUS
 10
-8.7968700596
 20
16.6041015616
 11
-8.8017411954
 21
16.5437425629
  0
LINE
  5
369
100
AcDbEntity
  8
IMPORT_IGES
100
AcDbLine
 62
7
  6
CONTINUOUS
 10
-8.5939705589
 20
8.2829181378
 11
-8.5897901836
 21
8.3337003758
  0
LINE
  5
36A
100
AcDbEntity
  8
IMPORT_IGES
100
AcDbLine
 62
7
  6
CONTINUOUS
 10
-9.5364802314
 20
16.9023145775
 11
-9.531394188
 21
16.9638812905
  0
LINE
  5
36B
100
AcDbEntity
  8
IMPORT_IGES
100
AcDbLine
 62
7
  6
CONTINUOUS
 10
-8.1722565381
 20
16.9023145776
 11
-8.1671704947
 21
16.9638812906
  0
LINE
  5
36C
100
AcDbEntity
  8
IMPORT_IGES
100
AcDbLine
 62
7
  6
CONTINUOUS
 10
-8.8032560257
 20
8.3156058852
 11
-8.8032319809
 21
8.3158830591
  0
LINE
  5
36D
100
AcDbEntity
  8
IMPORT_IGES
100
AcDbLine
 62
7
  6
CONTINUOUS
 10
-8.4094802448
 20
16.9586395784
 11
-8.4120411378
 21
16.931172191
  0
LINE
  5
36E
100
AcDbEntity
  8
IMPORT_IGES
100
AcDbLine
 62
7
  6
CONTINUOUS
 10
-9.4095274638
 20
8.3188386151
 11
-9.4047350502
 21
8.3674622192
  0
LINE
  5
36F
100
AcDbEntity
  8
IMPORT_IGES
100
AcDbLine
 62
7
  6
CONTINUOUS
 10
-9.6027598254
 20
8.3460839743
 11
-9.599293115
 21
8.3798359631
  0
LINE
  5
370
100
AcDbEntity
  8
IMPORT_IGES
100
AcDbLine
 62
7
  6
CONTINUOUS
 10
-8.4065789311
 20
16.9852163927
 11
-8.4094802448
 21
16.9586395784
  0
LINE
  5
371
100
AcDbEntity
  8
IMPORT_IGES
100
AcDbLine
 62
7
  6
CONTINUOUS
 10
-8.8017411954
 20
16.5437425629
 11
-8.8082585769
 21
16.48549264
  0
LINE
  5
372
100
AcDbEntity
  8
IMPORT_IGES
100
AcDbLine
 62
7
  6
CONTINUOUS
 10
-7.4375175021
 20
16.5437425628
 11
-7.4440348837
 21
16.48549264
  0
LINE
  5
373
100
AcDbEntity
  8
IMPORT_IGES
100
AcDbLine
 62
7
  6
CONTINUOUS
 10
-8.5641086888
 20
16.5396768937
 11
-8.5530321632
 21
16.6373831815
  0
LINE
  5
374
100
AcDbEntity
  8
IMPORT_IGES
100
AcDbLine
 62
7
  6
CONTINUOUS
 10
-9.531394188
 20
16.9638812905
 11
-9.5245001362
 21
17.022882029
  0
LINE
  5
375
100
AcDbEntity
  8
IMPORT_IGES
100
AcDbLine
 62
7
  6
CONTINUOUS
 10
-8.1671704947
 20
16.9638812906
 11
-8.1602764429
 21
17.0228820291
  0
LINE
  5
376
100
AcDbEntity
  8
IMPORT_IGES
100
AcDbLine
 62
7
  6
CONTINUOUS
 10
-8.3429377511
 20
17.2734189838
 11
-8.3436033256
 21
17.2679159895
  0
LINE
  5
377
100
AcDbEntity
  8
IMPORT_IGES
100
AcDbLine
 62
7
  6
CONTINUOUS
 10
-8.4033614602
 20
17.010982954
 11
-8.4065789311
 21
16.9852163927
  0
LINE
  5
378
100
AcDbEntity
  8
IMPORT_IGES
100
AcDbLine
 62
7
  6
CONTINUOUS
 10
-8.3998426087
 20
17.0359427773
 11
-8.4033614602
 21
17.010982954
  0
LINE
  5
379
100
AcDbEntity
  8
IMPORT_IGES
100
AcDbLine
 62
7
  6
CONTINUOUS
 10
-8.2547699118
 20
8.7910429128
 11
-8.3710829118
 21
7.9686689128
  0
LINE
  5
37A
100
AcDbEntity
  8
IMPORT_IGES
100
AcDbLine
 62
7
  6
CONTINUOUS
 10
-9.599292355
 20
8.3798383891
 11
-9.5946627404
 21
8.4123605421
  0
LINE
  5
37B
100
AcDbEntity
  8
IMPORT_IGES
100
AcDbLine
 62
7
  6
CONTINUOUS
 10
-7.2125021108
 20
16.4567180174
 11
-7.1989591796
 21
16.5472151251
  0
LINE
  5
37C
100
AcDbEntity
  8
IMPORT_IGES
100
AcDbLine
 62
7
  6
CONTINUOUS
 10
-9.6283012763
 20
7.4230663866
 11
-9.6385034441
 21
7.3552370581
  0
LINE
  5
37D
100
AcDbEntity
  8
IMPORT_IGES
100
AcDbLine
 62
7
  6
CONTINUOUS
 10
-8.1758899435
 20
8.1809287063
 11
-8.1108249118
 21
8.6054489128
  0
LINE
  5
37E
100
AcDbEntity
  8
IMPORT_IGES
100
AcDbLine
 62
7
  6
CONTINUOUS
 10
-8.5780560132
 20
16.4494592229
 11
-8.5641086888
 21
16.5396768937
  0
LINE
  5
37F
100
AcDbEntity
  8
IMPORT_IGES
100
AcDbLine
 62
7
  6
CONTINUOUS
 10
-8.1602764429
 20
17.0228820291
 11
-8.1514725008
 21
17.0796729388
  0
LINE
  5
380
100
AcDbEntity
  8
IMPORT_IGES
100
AcDbLine
 62
7
  6
CONTINUOUS
 10
-8.3960355333
 20
17.0600919788
 11
-8.3998426087
 21
17.0359427773
  0
LINE
  5
381
100
AcDbEntity
  8
IMPORT_IGES
100
AcDbLine
 62
7
  6
CONTINUOUS
 10
-8.8082585769
 20
16.48549264
 11
-8.8171152552
 21
16.4297394674
  0
LINE
  5
382
100
AcDbEntity
  8
IMPORT_IGES
100
AcDbLine
 62
7
  6
CONTINUOUS
 10
-7.4440348837
 20
16.48549264
 11
-7.4528915619
 21
16.4297394674
  0
LINE
  5
383
100
AcDbEntity
  8
IMPORT_IGES
100
AcDbLine
 62
7
  6
CONTINUOUS
 10
-8.3919623905
 20
17.083500062
 11
-8.3960355333
 21
17.0600919788
  0
LINE
  5
384
100
AcDbEntity
  8
IMPORT_IGES
100
AcDbLine
 62
7
  6
CONTINUOUS
 10
-6.8632010255
 20
17.196568933
 11
-6.8535903243
 21
17.2487424274
  0
LINE
  5
385
100
AcDbEntity
  8
IMPORT_IGES
100
AcDbLine
 62
7
  6
CONTINUOUS
 10
-9.5946595811
 20
8.4123744124
 11
-9.588880325
 21
8.4436356859
  0
LINE
  5
386
100
AcDbEntity
  8
IMPORT_IGES
100
AcDbLine
 62
7
  6
CONTINUOUS
 10
-8.3876366493
 20
17.1061695939
 11
-8.3919623905
 21
17.083500062
  0
LINE
  5
387
100
AcDbEntity
  8
IMPORT_IGES
100
AcDbLine
 62
7
  6
CONTINUOUS
 10
-8.3752177037
 20
17.1651140146
 11
-8.3782843783
 21
17.1493452959
  0
LINE
  5
388
100
AcDbEntity
  8
IMPORT_IGES
100
AcDbLine
 62
7
  6
CONTINUOUS
 10
-6.1681162298
 20
16.3766038979
 11
-6.1796266543
 21
16.3197893425
  0
LINE
  5
389
100
AcDbEntity
  8
IMPORT_IGES
100
AcDbLine
 62
7
  6
CONTINUOUS
 10
-7.4528915619
 20
16.4297394674
 11
-7.4638110497
 21
16.3763212301
  0
LINE
  5
38A
100
AcDbEntity
  8
IMPORT_IGES
100
AcDbLine
 62
7
  6
CONTINUOUS
 10
-8.1514725008
 20
17.0796729388
 11
-8.1403029306
 21
17.1338655094
  0
LINE
  5
38B
100
AcDbEntity
  8
IMPORT_IGES
100
AcDbLine
 62
7
  6
CONTINUOUS
 10
-9.4047350502
 20
8.3674622192
 11
-9.3951126493
 21
8.4137365089
  0
LINE
  5
38C
100
AcDbEntity
  8
IMPORT_IGES
100
AcDbLine
 62
7
  6
CONTINUOUS
 10
-9.615158439
 20
7.484741453
 11
-9.6283012763
 21
7.4230663866
  0
LINE
  5
38D
100
AcDbEntity
  8
IMPORT_IGES
100
AcDbLine
 62
7
  6
CONTINUOUS
 10
-7.2307355625
 20
16.3712553218
 11
-7.2125021108
 21
16.4567180174
  0
LINE
  5
38E
100
AcDbEntity
  8
IMPORT_IGES
100
AcDbLine
 62
7
  6
CONTINUOUS
 10
-5.9529022336
 20
16.2790703246
 11
-5.9385422633
 21
16.3444444829
  0
LINE
  5
38F
100
AcDbEntity
  8
IMPORT_IGES
100
AcDbLine
 62
7
  6
CONTINUOUS
 10
-9.5819341223
 20
8.4735240235
 11
-9.5887605701
 21
8.4436135469
  0
LINE
  5
390
100
AcDbEntity
  8
IMPORT_IGES
100
AcDbLine
 62
7
  6
CONTINUOUS
 10
-8.80270047
 20
8.3158369507
 11
-8.8129120561
 21
8.271872873
  0
LINE
  5
391
100
AcDbEntity
  8
IMPORT_IGES
100
AcDbLine
 62
7
  6
CONTINUOUS
 10
-7.0656431793
 20
17.3094048893
 11
-7.0830390154
 21
17.2356519312
  0
LINE
  5
392
100
AcDbEntity
  8
IMPORT_IGES
100
AcDbLine
 62
7
  6
CONTINUOUS
 10
-9.575314136
 20
8.4993765811
 11
-9.5819341223
 21
8.4735240235
  0
LINE
  5
393
100
AcDbEntity
  8
IMPORT_IGES
100
AcDbLine
 62
7
  6
CONTINUOUS
 10
-7.4638110497
 20
16.3763212301
 11
-7.4770698342
 21
16.325399743
  0
LINE
  5
394
100
AcDbEntity
  8
IMPORT_IGES
100
AcDbLine
 62
7
  6
CONTINUOUS
 10
-8.6097348496
 20
8.2226579174
 11
-8.5939705589
 21
8.2829181378
  0
LINE
  5
395
100
AcDbEntity
  8
IMPORT_IGES
100
AcDbLine
 62
7
  6
CONTINUOUS
 10
-9.5989764163
 20
7.5427390826
 11
-9.615158439
 21
7.484741453
  0
LINE
  5
396
100
AcDbEntity
  8
IMPORT_IGES
100
AcDbLine
 62
7
  6
CONTINUOUS
 10
-7.5891130859
 20
7.6917127666
 11
-7.6026656187
 21
7.6437756642
  0
LINE
  5
397
100
AcDbEntity
  8
IMPORT_IGES
100
AcDbLine
 62
7
  6
CONTINUOUS
 10
-6.8535903243
 20
17.2487424274
 11
-6.8399402425
 21
17.2966732089
  0
LINE
  5
398
100
AcDbEntity
  8
IMPORT_IGES
100
AcDbLine
 62
7
  6
CONTINUOUS
 10
-7.253761796
 20
16.2912541713
 11
-7.2307355625
 21
16.3712553218
  0
LINE
  5
399
100
AcDbEntity
  8
IMPORT_IGES
100
AcDbLine
 62
7
  6
CONTINUOUS
 10
-9.3951126493
 20
8.4137365089
 11
-9.3830055649
 21
8.4551525226
  0
LINE
  5
39A
100
AcDbEntity
  8
IMPORT_IGES
100
AcDbLine
 62
7
  6
CONTINUOUS
 10
-6.0460577481
 20
17.094275309
 11
-6.0309636246
 21
17.1432848063
  0
LINE
  5
39B
100
AcDbEntity
  8
IMPORT_IGES
100
AcDbLine
 62
7
  6
CONTINUOUS
 10
-7.4135830069
 20
7.5821450258
 11
-7.3946003879
 21
7.6413332889
  0
LINE
  5
39C
100
AcDbEntity
  8
IMPORT_IGES
100
AcDbLine
 62
7
  6
CONTINUOUS
 10
-6.2546183192
 20
17.1619733787
 11
-6.266903124
 21
17.1237245239
  0
LINE
  5
39D
100
AcDbEntity
  8
IMPORT_IGES
100
AcDbLine
 62
7
  6
CONTINUOUS
 10
-9.4291837067
 20
7.4705509128
 11
-9.4141672361
 21
7.5166048192
  0
LINE
  5
39E
100
AcDbEntity
  8
IMPORT_IGES
100
AcDbLine
 62
7
  6
CONTINUOUS
 10
-6.1796266543
 20
16.3197893425
 11
-6.1952554881
 21
16.2734013382
  0
LINE
  5
39F
100
AcDbEntity
  8
IMPORT_IGES
100
AcDbLine
 62
7
  6
CONTINUOUS
 10
-5.9741124247
 20
16.2173879641
 11
-5.9529022336
 21
16.2790703246
  0
LINE
  5
3A0
100
AcDbEntity
  8
IMPORT_IGES
100
AcDbLine
 62
7
  6
CONTINUOUS
 10
-9.579124375
 20
7.5972392652
 11
-9.5989764163
 21
7.5427390826
  0
LINE
  5
3A1
100
AcDbEntity
  8
IMPORT_IGES
100
AcDbLine
 62
7
  6
CONTINUOUS
 10
-7.1315491865
 20
8.5077079134
 11
-7.1549640799
 21
8.4445160043
  0
LINE
  5
3A2
100
AcDbEntity
  8
IMPORT_IGES
100
AcDbLine
 62
7
  6
CONTINUOUS
 10
-7.6026656187
 20
7.6437756642
 11
-7.6178096245
 21
7.6042878447
  0
LINE
  5
3A3
100
AcDbEntity
  8
IMPORT_IGES
100
AcDbLine
 62
7
  6
CONTINUOUS
 10
-6.9509162807
 20
8.4315510397
 11
-6.9349412204
 21
8.4704166879
  0
LINE
  5
3A4
100
AcDbEntity
  8
IMPORT_IGES
100
AcDbLine
 62
7
  6
CONTINUOUS
 10
-8.6312586398
 20
8.1704500455
 11
-8.6097348496
 21
8.2226579174
  0
LINE
  5
3A5
100
AcDbEntity
  8
IMPORT_IGES
100
AcDbLine
 62
7
  6
CONTINUOUS
 10
-8.8129120561
 20
8.271872873
 11
-8.8283358305
 21
8.2347137022
  0
LINE
  5
3A6
100
AcDbEntity
  8
IMPORT_IGES
100
AcDbLine
 62
7
  6
CONTINUOUS
 10
-7.4365491851
 20
7.527600036
 11
-7.4135830069
 21
7.5821450258
  0
LINE
  5
3A7
100
AcDbEntity
  8
IMPORT_IGES
100
AcDbLine
 62
7
  6
CONTINUOUS
 10
-7.1041595428
 20
8.5655757283
 11
-7.1315491865
 21
8.5077079134
  0
LINE
  5
3A8
100
AcDbEntity
  8
IMPORT_IGES
100
AcDbLine
 62
7
  6
CONTINUOUS
 10
-9.4141672361
 20
7.5166048192
 11
-9.3925499319
 21
7.5607944614
  0
LINE
  5
3A9
100
AcDbEntity
  8
IMPORT_IGES
100
AcDbLine
 62
7
  6
CONTINUOUS
 10
-7.6178096245
 20
7.6042878447
 11
-7.6357185808
 21
7.5686508787
  0
LINE
  5
3AA
100
AcDbEntity
  8
IMPORT_IGES
100
AcDbLine
 62
7
  6
CONTINUOUS
 10
-6.9349412204
 20
8.4704166879
 11
-6.9161755075
 21
8.5063483458
  0
LINE
  5
3AB
100
AcDbEntity
  8
IMPORT_IGES
100
AcDbLine
 62
7
  6
CONTINUOUS
 10
-7.4627288094
 20
7.4787516156
 11
-7.4365491851
 21
7.527600036
  0
LINE
  5
3AC
100
AcDbEntity
  8
IMPORT_IGES
100
AcDbLine
 62
7
  6
CONTINUOUS
 10
-8.6579498442
 20
8.1225778643
 11
-8.6312586398
 21
8.1704500455
  0
LINE
  5
3AD
100
AcDbEntity
  8
IMPORT_IGES
100
AcDbLine
 62
7
  6
CONTINUOUS
 10
-8.8283358305
 20
8.2347137022
 11
-8.8494783721
 21
8.1992080583
  0
LINE
  5
3AE
100
AcDbEntity
  8
IMPORT_IGES
100
AcDbLine
 62
7
  6
CONTINUOUS
 10
-7.0725477417
 20
8.6180998504
 11
-7.1041595428
 21
8.5655757283
  0
LINE
  5
3AF
100
AcDbEntity
  8
IMPORT_IGES
100
AcDbLine
 62
7
  6
CONTINUOUS
 10
-6.9161755075
 20
8.5063483458
 11
-6.8948461461
 21
8.5392105503
  0
LINE
  5
3B0
100
AcDbEntity
  8
IMPORT_IGES
100
AcDbLine
 62
7
  6
CONTINUOUS
 10
-7.6357185808
 20
7.5686508787
 11
-7.6568409859
 21
7.5363077451
  0
LINE
  5
3B1
100
AcDbEntity
  8
IMPORT_IGES
100
AcDbLine
 62
7
  6
CONTINUOUS
 10
-7.4928919929
 20
7.4345464685
 11
-7.4627288094
 21
7.4787516156
  0
LINE
  5
3B2
100
AcDbEntity
  8
IMPORT_IGES
100
AcDbLine
 62
7
  6
CONTINUOUS
 10
-8.6896388838
 20
8.0802234944
 11
-8.6579498442
 21
8.1225778643
  0
LINE
  5
3B3
100
AcDbEntity
  8
IMPORT_IGES
100
AcDbLine
 62
7
  6
CONTINUOUS
 10
-7.0369611904
 20
8.6652998784
 11
-7.0725477417
 21
8.6180998504
  0
LINE
  5
3B4
100
AcDbEntity
  8
IMPORT_IGES
100
AcDbLine
 62
7
  6
CONTINUOUS
 10
-6.4621655109
 20
7.5454978202
 11
-6.4863012239
 21
7.5149727329
  0
LINE
  5
3B5
100
AcDbEntity
  8
IMPORT_IGES
100
AcDbLine
 62
7
  6
CONTINUOUS
 10
-6.8948461461
 20
8.5392105503
 11
-6.8710775096
 21
8.5676666159
  0
LINE
  5
3B6
100
AcDbEntity
  8
IMPORT_IGES
100
AcDbLine
 62
7
  6
CONTINUOUS
 10
-7.6568409859
 20
7.5363077451
 11
-7.6809563792
 21
7.5077549427
  0
LINE
  5
3B7
100
AcDbEntity
  8
IMPORT_IGES
100
AcDbLine
 62
7
  6
CONTINUOUS
 10
-8.2046888922
 20
7.9590689116
 11
-8.1737528158
 21
7.9954874082
  0
LINE
  5
3B8
100
AcDbEntity
  8
IMPORT_IGES
100
AcDbLine
 62
7
  6
CONTINUOUS
 10
-7.5271579766
 20
7.3949613384
 11
-7.4928919929
 21
7.4345464685
  0
LINE
  5
3B9
100
AcDbEntity
  8
IMPORT_IGES
100
AcDbLine
 62
7
  6
CONTINUOUS
 10
-6.3755736874
 20
7.3636148284
 11
-6.3366059581
 21
7.4051764977
  0
LINE
  5
3BA
100
AcDbEntity
  8
IMPORT_IGES
100
AcDbLine
 62
7
  6
CONTINUOUS
 10
-6.9981042293
 20
8.7060371579
 11
-7.0369611904
 21
8.6652998784
  0
LINE
  5
3BB
100
AcDbEntity
  8
IMPORT_IGES
100
AcDbLine
 62
7
  6
CONTINUOUS
 10
-8.7264953376
 20
8.0422048152
 11
-8.6896388838
 21
8.0802234944
  0
LINE
  5
3BC
100
AcDbEntity
  8
IMPORT_IGES
100
AcDbLine
 62
7
  6
CONTINUOUS
 10
-6.4863012239
 20
7.5149727329
 11
-6.5142573739
 21
7.4877863129
  0
LINE
  5
3BD
100
AcDbEntity
  8
IMPORT_IGES
100
AcDbLine
 62
7
  6
CONTINUOUS
 10
-8.1737528158
 20
7.9954874082
 11
-8.1409912305
 21
8.0265595797
  0
LINE
  5
3BE
100
AcDbEntity
  8
IMPORT_IGES
100
AcDbLine
 62
7
  6
CONTINUOUS
 10
-7.5652768024
 20
7.3598862551
 11
-7.5271579766
 21
7.3949613384
  0
LINE
  5
3BF
100
AcDbEntity
  8
IMPORT_IGES
100
AcDbLine
 62
7
  6
CONTINUOUS
 10
-7.6809563792
 20
7.5077549427
 11
-7.707866072
 21
7.4830489142
  0
LINE
  5
3C0
100
AcDbEntity
  8
IMPORT_IGES
100
AcDbLine
 62
7
  6
CONTINUOUS
 10
-9.328869229
 20
7.6435872319
 11
-9.2868058302
 21
7.6821903601
  0
LINE
  5
3C1
100
AcDbEntity
  8
IMPORT_IGES
100
AcDbLine
 62
7
  6
CONTINUOUS
 10
-6.8710775096
 20
8.5676666159
 11
-6.8449956365
 21
8.5912480311
  0
LINE
  5
3C2
100
AcDbEntity
  8
IMPORT_IGES
100
AcDbLine
 62
7
  6
CONTINUOUS
 10
-8.7670567575
 20
8.0064401965
 11
-8.7264953376
 21
8.0422048152
  0
LINE
  5
3C3
100
AcDbEntity
  8
IMPORT_IGES
100
AcDbLine
 62
7
  6
CONTINUOUS
 10
-6.4172642473
 20
7.3290554743
 11
-6.3755736874
 21
7.3636148284
  0
LINE
  5
3C4
100
AcDbEntity
  8
IMPORT_IGES
100
AcDbLine
 62
7
  6
CONTINUOUS
 10
-9.3918758455
 20
7.8270115808
 11
-9.4421985382
 21
7.7862051962
  0
LINE
  5
3C5
100
AcDbEntity
  8
IMPORT_IGES
100
AcDbLine
 62
7
  6
CONTINUOUS
 10
-6.9564544757
 20
8.7397774454
 11
-6.9981042293
 21
8.7060371579
  0
LINE
  5
3C6
100
AcDbEntity
  8
IMPORT_IGES
100
AcDbLine
 62
7
  6
CONTINUOUS
 10
-8.9078971082
 20
8.1340738213
 11
-8.9451733027
 21
8.1044452282
  0
LINE
  5
3C7
100
AcDbEntity
  8
IMPORT_IGES
100
AcDbLine
 62
7
  6
CONTINUOUS
 10
-9.2868058302
 20
7.6821903601
 11
-9.2400723782
 21
7.7189103894
  0
LINE
  5
3C8
100
AcDbEntity
  8
IMPORT_IGES
100
AcDbLine
 62
7
  6
CONTINUOUS
 10
-8.8112624083
 20
7.9728754446
 11
-8.7670567575
 21
8.0064401965
  0
LINE
  5
3C9
100
AcDbEntity
  8
IMPORT_IGES
100
AcDbLine
 62
7
  6
CONTINUOUS
 10
-6.5142573739
 20
7.4877863129
 11
-6.5456051556
 21
7.4641790048
  0
LINE
  5
3CA
100
AcDbEntity
  8
IMPORT_IGES
100
AcDbLine
 62
7
  6
CONTINUOUS
 10
-8.1409912305
 20
8.0265595797
 11
-8.1064041363
 21
8.0522854262
  0
LINE
  5
3CB
100
AcDbEntity
  8
IMPORT_IGES
100
AcDbLine
 62
7
  6
CONTINUOUS
 10
-7.6074984285
 20
7.3294311889
 11
-7.5652768024
 21
7.3598862551
  0
LINE
  5
3CC
100
AcDbEntity
  8
IMPORT_IGES
100
AcDbLine
 62
7
  6
CONTINUOUS
 10
-8.9451733027
 20
8.1044452282
 11
-8.9854926603
 21
8.0755605171
  0
LINE
  5
3CD
100
AcDbEntity
  8
IMPORT_IGES
100
AcDbLine
 62
7
  6
CONTINUOUS
 10
-8.1358054316
 20
8.2096037213
 11
-8.1758899435
 21
8.1809287063
  0
LINE
  5
3CE
100
AcDbEntity
  8
IMPORT_IGES
100
AcDbLine
 62
7
  6
CONTINUOUS
 10
-7.707866072
 20
7.4830489142
 11
-7.7377687529
 21
7.4621332167
  0
LINE
  5
3CF
100
AcDbEntity
  8
IMPORT_IGES
100
AcDbLine
 62
7
  6
CONTINUOUS
 10
-9.3359762278
 20
7.8653019715
 11
-9.3918758455
 21
7.8270115808
  0
LINE
  5
3D0
100
AcDbEntity
  8
IMPORT_IGES
100
AcDbLine
 62
7
  6
CONTINUOUS
 10
-6.8449956365
 20
8.5912480311
 11
-6.8164744884
 21
8.6104233074
  0
LINE
  5
3D1
100
AcDbEntity
  8
IMPORT_IGES
100
AcDbLine
 62
7
  6
CONTINUOUS
 10
-9.2400723782
 20
7.7189103894
 11
-9.1876811234
 21
7.7533358097
  0
LINE
  5
3D2
100
AcDbEntity
  8
IMPORT_IGES
100
AcDbLine
 62
7
  6
CONTINUOUS
 10
-8.8591730251
 20
7.9415647531
 11
-8.8112624083
 21
7.9728754446
  0
LINE
  5
3D3
100
AcDbEntity
  8
IMPORT_IGES
100
AcDbLine
 62
7
  6
CONTINUOUS
 10
-8.9854926603
 20
8.0755605171
 11
-9.0283785959
 21
8.0476064817
  0
LINE
  5
3D4
100
AcDbEntity
  8
IMPORT_IGES
100
AcDbLine
 62
7
  6
CONTINUOUS
 10
-9.2804949343
 20
7.9009844758
 11
-9.3359762278
 21
7.8653019715
  0
LINE
  5
3D5
100
AcDbEntity
  8
IMPORT_IGES
100
AcDbLine
 62
7
  6
CONTINUOUS
 10
-8.9095083652
 20
7.9105890727
 11
-8.8591730251
 21
7.9415647531
  0
LINE
  5
3D6
100
AcDbEntity
  8
IMPORT_IGES
100
AcDbLine
 62
7
  6
CONTINUOUS
 10
-6.9115343124
 20
8.7670549844
 11
-6.9564544757
 21
8.7397774454
  0
LINE
  5
3D7
100
AcDbEntity
  8
IMPORT_IGES
100
AcDbLine
 62
7
  6
CONTINUOUS
 10
-9.2267966711
 20
7.9334569663
 11
-9.2804949343
 21
7.9009844758
  0
LINE
  5
3D8
100
AcDbEntity
  8
IMPORT_IGES
100
AcDbLine
 62
7
  6
CONTINUOUS
 10
-9.0283785959
 20
8.0476064817
 11
-9.0743076945
 21
8.0203963281
  0
LINE
  5
3D9
100
AcDbEntity
  8
IMPORT_IGES
100
AcDbLine
 62
7
  6
CONTINUOUS
 10
-8.9625752637
 20
7.8796428586
 11
-8.9095083652
 21
7.9105890727
  0
LINE
  5
3DA
100
AcDbEntity
  8
IMPORT_IGES
100
AcDbLine
 62
7
  6
CONTINUOUS
 10
-9.0743076945
 20
8.0203963281
 11
-9.1225562484
 21
7.9922927786
  0
LINE
  5
3DB
100
AcDbEntity
  8
IMPORT_IGES
100
AcDbLine
 62
7
  6
CONTINUOUS
 10
-9.1876811234
 20
7.7533358097
 11
-9.1306198153
 21
7.785878131
  0
LINE
  5
3DC
100
AcDbEntity
  8
IMPORT_IGES
100
AcDbLine
 62
7
  6
CONTINUOUS
 10
-9.1225562484
 20
7.9922927786
 11
-9.173516732
 21
7.9633215705
  0
LINE
  5
3DD
100
AcDbEntity
  8
IMPORT_IGES
100
AcDbLine
 62
7
  6
CONTINUOUS
 10
-9.1306198153
 20
7.785878131
 11
-9.0180668855
 21
7.8490316554
  0
LINE
  5
3DE
100
AcDbEntity
  8
IMPORT_IGES
100
AcDbLine
 62
7
  6
CONTINUOUS
 10
-9.173516732
 20
7.9633215705
 11
-9.2267966711
 21
7.9334569663
  0
LINE
  5
3DF
100
AcDbEntity
  8
IMPORT_IGES
100
AcDbLine
 62
7
  6
CONTINUOUS
 10
-8.1064041363
 20
8.0522854262
 11
-8.0702049553
 21
8.0724630565
  0
LINE
  5
3E0
100
AcDbEntity
  8
IMPORT_IGES
100
AcDbLine
 62
7
  6
CONTINUOUS
 10
-8.0930982665
 20
8.233191664
 11
-8.1358054316
 21
8.2096037213
  0
LINE
  5
3E1
100
AcDbEntity
  8
IMPORT_IGES
100
AcDbLine
 62
7
  6
CONTINUOUS
 10
-9.0180668855
 20
7.8490316554
 11
-8.9625752637
 21
7.8796428586
  0
LINE
  5
3E2
100
AcDbEntity
  8
IMPORT_IGES
100
AcDbLine
 62
7
  6
CONTINUOUS
 10
-7.6546919694
 20
7.3039027945
 11
-7.6074984285
 21
7.3294311889
  0
LINE
  5
3E3
100
AcDbEntity
  8
IMPORT_IGES
100
AcDbLine
 62
7
  6
CONTINUOUS
 10
-7.7377687529
 20
7.4621332167
 11
-7.7710400267
 21
7.4453350205
  0
LINE
  5
3E4
100
AcDbEntity
  8
IMPORT_IGES
100
AcDbLine
 62
7
  6
CONTINUOUS
 10
-9.2671674995
 20
8.6055957442
 11
-9.2321531708
 21
8.6225906729
  0
LINE
  5
3E5
100
AcDbEntity
  8
IMPORT_IGES
100
AcDbLine
 62
7
  6
CONTINUOUS
 10
-6.8164744884
 20
8.6104233074
 11
-6.7852603224
 21
8.6252612936
  0
LINE
  5
3E6
100
AcDbEntity
  8
IMPORT_IGES
100
AcDbLine
 62
7
  6
CONTINUOUS
 10
-9.3306482624
 20
8.7799495638
 11
-9.3627435596
 21
8.7650115895
  0
LINE
  5
3E7
100
AcDbEntity
  8
IMPORT_IGES
100
AcDbLine
 62
7
  6
CONTINUOUS
 10
-6.8626152278
 20
8.7883338515
 11
-6.9115343124
 21
8.7670549844
  0
LINE
  5
3E8
100
AcDbEntity
  8
IMPORT_IGES
100
AcDbLine
 62
7
  6
CONTINUOUS
 10
-8.0477684484
 20
8.2516925345
 11
-8.0930982665
 21
8.233191664
  0
LINE
  5
3E9
100
AcDbEntity
  8
IMPORT_IGES
100
AcDbLine
 62
7
  6
CONTINUOUS
 10
-8.0702049553
 20
8.0724630565
 11
-8.0321802655
 21
8.0872943618
  0
LINE
  5
3EA
100
AcDbEntity
  8
IMPORT_IGES
100
AcDbLine
 62
7
  6
CONTINUOUS
 10
-9.2963013616
 20
8.7927031876
 11
-9.3306482624
 21
8.7799495638
  0
LINE
  5
3EB
100
AcDbEntity
  8
IMPORT_IGES
100
AcDbLine
 62
7
  6
CONTINUOUS
 10
-9.2321531708
 20
8.6225906729
 11
-9.1934074259
 21
8.6351997606
  0
LINE
  5
3EC
100
AcDbEntity
  8
IMPORT_IGES
100
AcDbLine
 62
7
  6
CONTINUOUS
 10
-6.7852603224
 20
8.6252612936
 11
-6.7512685577
 21
8.6357849392
  0
LINE
  5
3ED
100
AcDbEntity
  8
IMPORT_IGES
100
AcDbLine
 62
7
  6
CONTINUOUS
 10
-6.8094543849
 20
8.803768739
 11
-6.8626152278
 21
8.7883338515
  0
LINE
  5
3EE
100
AcDbEntity
  8
IMPORT_IGES
100
AcDbLine
 62
7
  6
CONTINUOUS
 10
-8.2215554577
 20
7.6423543619
 11
-8.2254770973
 21
7.6784874457
  0
LINE
  5
3EF
100
AcDbEntity
  8
IMPORT_IGES
100
AcDbLine
 62
7
  6
CONTINUOUS
 10
-9.5289202319
 20
16.5172161229
 11
-9.5349131029
 21
16.5773600058
  0
LINE
  5
3F0
100
AcDbEntity
  8
IMPORT_IGES
100
AcDbLine
 62
7
  6
CONTINUOUS
 10
-9.7810984786
 20
16.6278963399
 11
-9.7713314588
 21
16.528560355
  0
LINE
  5
3F1
100
AcDbEntity
  8
IMPORT_IGES
100
AcDbLine
 62
7
  6
CONTINUOUS
 10
-8.5897901836
 20
8.3964166946
 11
-8.5954080224
 21
8.4535846768
  0
LINE
  5
3F2
100
AcDbEntity
  8
IMPORT_IGES
100
AcDbLine
 62
7
  6
CONTINUOUS
 10
-8.5604823261
 20
17.0148880345
 11
-8.5527543345
 21
16.9242506641
  0
LINE
  5
3F3
100
AcDbEntity
  8
IMPORT_IGES
100
AcDbLine
 62
7
  6
CONTINUOUS
 10
-8.413842955
 20
16.6021681187
 11
-8.4105241015
 21
16.5630210271
  0
LINE
  5
3F4
100
AcDbEntity
  8
IMPORT_IGES
100
AcDbLine
 62
7
  6
CONTINUOUS
 10
-8.4062440643
 20
16.5225576243
 11
-8.4031518283
 21
16.4855489611
  0
LINE
  5
3F5
100
AcDbEntity
  8
IMPORT_IGES
100
AcDbLine
 62
7
  6
CONTINUOUS
 10
-8.4248502394
 20
7.6784874457
 11
-8.4205246576
 21
7.6246846815
  0
LINE
  5
3F6
100
AcDbEntity
  8
IMPORT_IGES
100
AcDbLine
 62
7
  6
CONTINUOUS
 10
-8.8005569954
 20
16.9835380136
 11
-8.7958182153
 21
16.9236031299
  0
LINE
  5
3F7
100
AcDbEntity
  8
IMPORT_IGES
100
AcDbLine
 62
7
  6
CONTINUOUS
 10
-7.5818128818
 20
7.7761928138
 11
-7.584819893
 21
7.823025384
  0
LINE
  5
3F8
100
AcDbEntity
  8
IMPORT_IGES
100
AcDbLine
 62
7
  6
CONTINUOUS
 10
-8.4162624197
 20
16.6400949549
 11
-8.413842955
 21
16.6021681187
  0
LINE
  5
3F9
100
AcDbEntity
  8
IMPORT_IGES
100
AcDbLine
 62
7
  6
CONTINUOUS
 10
-9.5349131029
 20
16.5773600058
 11
-9.5389121222
 21
16.6413456306
  0
LINE
  5
3FA
100
AcDbEntity
  8
IMPORT_IGES
100
AcDbLine
 62
7
  6
CONTINUOUS
 10
-8.1706894097
 20
16.577360006
 11
-8.174688429
 21
16.6413456308
  0
LINE
  5
3FB
100
AcDbEntity
  8
IMPORT_IGES
100
AcDbLine
 62
7
  6
CONTINUOUS
 10
-8.7958182153
 20
16.9236031299
 11
-8.792821596
 21
16.8609270731
  0
LINE
  5
3FC
100
AcDbEntity
  8
IMPORT_IGES
100
AcDbLine
 62
7
  6
CONTINUOUS
 10
-8.4179180154
 20
16.6767949051
 11
-8.4162624197
 21
16.6400949549
  0
LINE
  5
3FD
100
AcDbEntity
  8
IMPORT_IGES
100
AcDbLine
 62
7
  6
CONTINUOUS
 10
-7.2099552369
 20
7.9023833253
 11
-7.2135625434
 21
7.9845260962
  0
LINE
  5
3FE
100
AcDbEntity
  8
IMPORT_IGES
100
AcDbLine
 62
7
  6
CONTINUOUS
 10
-8.8000535362
 20
8.3525289156
 11
-8.8014768173
 21
8.3931425313
  0
LINE
  5
3FF
100
AcDbEntity
  8
IMPORT_IGES
100
AcDbLine
 62
7
  6
CONTINUOUS
 10
-9.5389121222
 20
16.6413456306
 11
-9.5409321773
 21
16.7080537427
  0
LINE
  5
400
100
AcDbEntity
  8
IMPORT_IGES
100
AcDbLine
 62
7
  6
CONTINUOUS
 10
-8.174688429
 20
16.6413456308
 11
-8.176708484
 21
16.7080537428
  0
LINE
  5
401
100
AcDbEntity
  8
IMPORT_IGES
100
AcDbLine
 62
7
  6
CONTINUOUS
 10
-7.0066007594
 20
7.9851841067
 11
-7.0050149351
 21
7.9286393103
  0
LINE
  5
402
100
AcDbEntity
  8
IMPORT_IGES
100
AcDbLine
 62
7
  6
CONTINUOUS
 10
-8.4188760617
 20
16.7122762302
 11
-8.4179180154
 21
16.6767949051
  0
LINE
  5
403
100
AcDbEntity
  8
IMPORT_IGES
100
AcDbLine
 62
7
  6
CONTINUOUS
 10
-8.792821596
 20
16.8609270731
 11
-8.7914958765
 21
16.7974454347
  0
LINE
  5
404
100
AcDbEntity
  8
IMPORT_IGES
100
AcDbLine
 62
7
  6
CONTINUOUS
 10
-7.4285979027
 20
16.8609270731
 11
-7.4272721832
 21
16.7974454347
  0
LINE
  5
405
100
AcDbEntity
  8
IMPORT_IGES
100
AcDbLine
 62
7
  6
CONTINUOUS
 10
-7.1861945948
 20
16.835580526
 11
-7.1878899822
 21
16.9309585711
  0
LINE
  5
406
100
AcDbEntity
  8
IMPORT_IGES
100
AcDbLine
 62
7
  6
CONTINUOUS
 10
-8.550310826
 20
16.8284568449
 11
-8.5515852404
 21
16.9193220025
  0
LINE
  5
407
100
AcDbEntity
  8
IMPORT_IGES
100
AcDbLine
 62
7
  6
CONTINUOUS
 10
-8.4192575917
 20
16.7466595277
 11
-8.4188760617
 21
16.7122762302
  0
LINE
  5
408
100
AcDbEntity
  8
IMPORT_IGES
100
AcDbLine
 62
7
  6
CONTINUOUS
 10
-8.5894411486
 20
8.3992408811
 11
-8.5888258848
 21
8.3370311658
  0
LINE
  5
409
100
AcDbEntity
  8
IMPORT_IGES
100
AcDbLine
 62
7
  6
CONTINUOUS
 10
-7.3759781577
 20
7.8292572639
 11
-7.3757978937
 21
7.7648645645
  0
LINE
  5
40A
100
AcDbEntity
  8
IMPORT_IGES
100
AcDbLine
 62
7
  6
CONTINUOUS
 10
-7.0067133414
 20
8.041024957
 11
-7.0066007484
 21
7.985183822
  0
LINE
  5
40B
100
AcDbEntity
  8
IMPORT_IGES
100
AcDbLine
 62
7
  6
CONTINUOUS
 10
-8.176708484
 20
16.7080537428
 11
-8.1767892006
 21
16.7740087182
  0
LINE
  5
40C
100
AcDbEntity
  8
IMPORT_IGES
100
AcDbLine
 62
7
  6
CONTINUOUS
 10
-8.5950759118
 20
7.4705509128
 11
-8.5950759118
 21
7.2892239128
  0
LINE
  5
40D
100
AcDbEntity
  8
IMPORT_IGES
100
AcDbLine
 62
7
  6
CONTINUOUS
 10
-7.4612449118
 20
8.7910429128
 11
-7.4612449118
 21
8.6054489128
  0
LINE
  5
40E
100
AcDbEntity
  8
IMPORT_IGES
100
AcDbLine
 62
7
  6
CONTINUOUS
 10
-8.7914958765
 20
16.7974454347
 11
-8.791569788
 21
16.7328316608
  0
LINE
  5
40F
100
AcDbEntity
  8
IMPORT_IGES
100
AcDbLine
 62
7
  6
CONTINUOUS
 10
-7.4272721832
 20
16.7974454347
 11
-7.4273460947
 21
16.7328316607
  0
LINE
  5
410
100
AcDbEntity
  8
IMPORT_IGES
100
AcDbLine
 62
7
  6
CONTINUOUS
 10
-7.1864141303
 20
16.7366421666
 11
-7.1861945948
 21
16.835580526
  0
LINE
  5
411
100
AcDbEntity
  8
IMPORT_IGES
100
AcDbLine
 62
7
  6
CONTINUOUS
 10
-7.2135630822
 20
7.9845365555
 11
-7.2133272683
 21
8.0694321258
  0
LINE
  5
412
100
AcDbEntity
  8
IMPORT_IGES
100
AcDbLine
 62
7
  6
CONTINUOUS
 10
-8.4191424316
 20
16.7799488106
 11
-8.4192575917
 21
16.7466595277
  0
LINE
  5
413
100
AcDbEntity
  8
IMPORT_IGES
100
AcDbLine
 62
7
  6
CONTINUOUS
 10
-8.5508344034
 20
16.7291711424
 11
-8.550310826
 21
16.8284568449
  0
LINE
  5
414
100
AcDbEntity
  8
IMPORT_IGES
100
AcDbLine
 62
7
  6
CONTINUOUS
 10
-8.4185513855
 20
16.8121407224
 11
-8.4191424316
 21
16.7799488106
  0
LINE
  5
415
100
AcDbEntity
  8
IMPORT_IGES
100
AcDbLine
 62
7
  6
CONTINUOUS
 10
-8.1767892006
 20
16.7740087182
 11
-8.1754326912
 21
16.8385380359
  0
LINE
  5
416
100
AcDbEntity
  8
IMPORT_IGES
100
AcDbLine
 62
7
  6
CONTINUOUS
 10
-7.1883687999
 20
16.6450390688
 11
-7.1864141303
 21
16.7366421666
  0
LINE
  5
417
100
AcDbEntity
  8
IMPORT_IGES
100
AcDbLine
 62
7
  6
CONTINUOUS
 10
-7.0054804189
 20
8.0955591125
 11
-7.0067133343
 21
8.0410252264
  0
LINE
  5
418
100
AcDbEntity
  8
IMPORT_IGES
100
AcDbLine
 62
7
  6
CONTINUOUS
 10
-8.5530321632
 20
16.6373831815
 11
-8.5508344034
 21
16.7291711424
  0
LINE
  5
419
100
AcDbEntity
  8
IMPORT_IGES
100
AcDbLine
 62
7
  6
CONTINUOUS
 10
-7.4273460947
 20
16.7328316607
 11
-7.4292005081
 21
16.6674119959
  0
LINE
  5
41A
100
AcDbEntity
  8
IMPORT_IGES
100
AcDbLine
 62
7
  6
CONTINUOUS
 10
-8.41752185
 20
16.8433477583
 11
-8.4185513855
 21
16.8121407224
  0
LINE
  5
41B
100
AcDbEntity
  8
IMPORT_IGES
100
AcDbLine
 62
7
  6
CONTINUOUS
 10
-8.8008695153
 20
8.3525147402
 11
-8.8011331505
 21
8.3446458736
  0
LINE
  5
41C
100
AcDbEntity
  8
IMPORT_IGES
100
AcDbLine
 62
7
  6
CONTINUOUS
 10
-7.5835856551
 20
7.7304202572
 11
-7.5818113208
 21
7.7761379803
  0
LINE
  5
41D
100
AcDbEntity
  8
IMPORT_IGES
100
AcDbLine
 62
7
  6
CONTINUOUS
 10
-7.2133261386
 20
8.0694522186
 11
-7.2092920641
 21
8.1516952413
  0
LINE
  5
41E
100
AcDbEntity
  8
IMPORT_IGES
100
AcDbLine
 62
7
  6
CONTINUOUS
 10
-8.1754326912
 20
16.8385380359
 11
-8.1722565381
 21
16.9023145776
  0
LINE
  5
41F
100
AcDbEntity
  8
IMPORT_IGES
100
AcDbLine
 62
7
  6
CONTINUOUS
 10
-7.0027742763
 20
8.1493901233
 11
-7.0054804189
 21
8.0955591125
  0
LINE
  5
420
100
AcDbEntity
  8
IMPORT_IGES
100
AcDbLine
 62
7
  6
CONTINUOUS
 10
-7.4292005081
 20
16.6674119959
 11
-7.4326463664
 21
16.6041015615
  0
LINE
  5
421
100
AcDbEntity
  8
IMPORT_IGES
100
AcDbLine
 62
7
  6
CONTINUOUS
 10
-7.3805965212
 20
7.7072312308
 11
-7.3764291897
 21
7.7648629341
  0
LINE
  5
422
100
AcDbEntity
  8
IMPORT_IGES
100
AcDbLine
 62
7
  6
CONTINUOUS
 10
-7.4326463664
 20
16.6041015615
 11
-7.4375175021
 21
16.5437425628
  0
LINE
  5
423
100
AcDbEntity
  8
IMPORT_IGES
100
AcDbLine
 62
7
  6
CONTINUOUS
 10
-6.1696564222
 20
16.3717136455
 11
-6.1658963208
 21
16.4179166936
  0
LINE
  5
424
100
AcDbEntity
  8
IMPORT_IGES
100
AcDbLine
 62
7
  6
CONTINUOUS
 10
-6.9984598763
 20
8.2014142545
 11
-7.0027742763
 21
8.1493901233
  0
LINE
  5
425
100
AcDbEntity
  8
IMPORT_IGES
100
AcDbLine
 62
7
  6
CONTINUOUS
 10
-6.3762508389
 20
7.8371795341
 11
-6.3720278265
 21
7.8871179776
  0
LINE
  5
426
100
AcDbEntity
  8
IMPORT_IGES
100
AcDbLine
 62
7
  6
CONTINUOUS
 10
-7.2025212121
 20
8.2273490559
 11
-7.210159466
 21
8.146790172
  0
LINE
  5
427
100
AcDbEntity
  8
IMPORT_IGES
100
AcDbLine
 62
7
  6
CONTINUOUS
 10
-5.9329901863
 20
16.40469629
 11
-5.9388332246
 21
16.3444727126
  0
LINE
  5
428
100
AcDbEntity
  8
IMPORT_IGES
100
AcDbLine
 62
7
  6
CONTINUOUS
 10
-7.1989591796
 20
16.5472151251
 11
-7.1883687999
 21
16.6450390688
  0
LINE
  5
429
100
AcDbEntity
  8
IMPORT_IGES
100
AcDbLine
 62
7
  6
CONTINUOUS
 10
-6.3818214187
 20
7.78894987
 11
-6.3762508389
 21
7.8371795341
  0
LINE
  5
42A
100
AcDbEntity
  8
IMPORT_IGES
100
AcDbLine
 62
7
  6
CONTINUOUS
 10
-6.992625124
 20
8.2513743682
 11
-6.9984598763
 21
8.2014142545
  0
LINE
  5
42B
100
AcDbEntity
  8
IMPORT_IGES
100
AcDbLine
 62
7
  6
CONTINUOUS
 10
-6.6471582215
 20
16.9415323777
 11
-6.6714540686
 21
16.7495646747
  0
LINE
  5
42C
100
AcDbEntity
  8
IMPORT_IGES
100
AcDbLine
 62
7
  6
CONTINUOUS
 10
-7.5832673659
 20
7.7354069629
 11
-7.5891130859
 21
7.6917127666
  0
LINE
  5
42D
100
AcDbEntity
  8
IMPORT_IGES
100
AcDbLine
 62
7
  6
CONTINUOUS
 10
-6.9851821141
 20
8.2995276023
 11
-6.992625124
 21
8.2513743682
  0
LINE
  5
42E
100
AcDbEntity
  8
IMPORT_IGES
100
AcDbLine
 62
7
  6
CONTINUOUS
 10
-6.1833678115
 20
7.7699088054
 11
-6.1709281875
 21
7.8493631039
  0
LINE
  5
42F
100
AcDbEntity
  8
IMPORT_IGES
100
AcDbLine
 62
7
  6
CONTINUOUS
 10
-7.1899498076
 20
8.305655986
 11
-7.2025212121
 21
8.2273490559
  0
LINE
  5
430
100
AcDbEntity
  8
IMPORT_IGES
100
AcDbLine
 62
7
  6
CONTINUOUS
 10
-6.3893042609
 20
7.7427327236
 11
-6.3818214187
 21
7.78894987
  0
LINE
  5
431
100
AcDbEntity
  8
IMPORT_IGES
100
AcDbLine
 62
7
  6
CONTINUOUS
 10
-7.5899280241
 20
7.6915125095
 11
-7.5898751934
 21
7.6918368888
  0
LINE
  5
432
100
AcDbEntity
  8
IMPORT_IGES
100
AcDbLine
 62
7
  6
CONTINUOUS
 10
-6.0309636246
 20
17.1432848063
 11
-6.021504639
 21
17.2002983932
  0
LINE
  5
433
100
AcDbEntity
  8
IMPORT_IGES
100
AcDbLine
 62
7
  6
CONTINUOUS
 10
-6.254971902
 20
17.1618673608
 11
-6.2480438336
 21
17.2018017268
  0
LINE
  5
434
100
AcDbEntity
  8
IMPORT_IGES
100
AcDbLine
 62
7
  6
CONTINUOUS
 10
-6.9757320941
 20
8.3455416792
 11
-6.9851821141
 21
8.2995276023
  0
LINE
  5
435
100
AcDbEntity
  8
IMPORT_IGES
100
AcDbLine
 62
7
  6
CONTINUOUS
 10
-6.3984871151
 20
7.6983822101
 11
-6.3893042609
 21
7.7427327236
  0
LINE
  5
436
100
AcDbEntity
  8
IMPORT_IGES
100
AcDbLine
 62
7
  6
CONTINUOUS
 10
-6.1987678063
 20
7.6972603938
 11
-6.1833678115
 21
7.7699088054
  0
LINE
  5
437
100
AcDbEntity
  8
IMPORT_IGES
100
AcDbLine
 62
7
  6
CONTINUOUS
 10
-7.3946003879
 20
7.6413332889
 11
-7.3805965212
 21
7.7072312308
  0
LINE
  5
438
100
AcDbEntity
  8
IMPORT_IGES
100
AcDbLine
 62
7
  6
CONTINUOUS
 10
-7.174442104
 20
8.3771974514
 11
-7.1899498076
 21
8.305655986
  0
LINE
  5
439
100
AcDbEntity
  8
IMPORT_IGES
100
AcDbLine
 62
7
  6
CONTINUOUS
 10
-6.9757320941
 20
8.3455416792
 11
-6.9643276925
 21
8.3896159381
  0
LINE
  5
43A
100
AcDbEntity
  8
IMPORT_IGES
100
AcDbLine
 62
7
  6
CONTINUOUS
 10
-6.3984871151
 20
7.6983822101
 11
-6.4095822316
 21
7.6560442143
  0
LINE
  5
43B
100
AcDbEntity
  8
IMPORT_IGES
100
AcDbLine
 62
7
  6
CONTINUOUS
 10
-6.2182321815
 20
7.629130454
 11
-6.1987678063
 21
7.6972603938
  0
LINE
  5
43C
100
AcDbEntity
  8
IMPORT_IGES
100
AcDbLine
 62
7
  6
CONTINUOUS
 10
-7.1549640799
 20
8.4445160043
 11
-7.174442104
 21
8.3771974514
  0
LINE
  5
43D
100
AcDbEntity
  8
IMPORT_IGES
100
AcDbLine
 62
7
  6
CONTINUOUS
 10
-6.9643276925
 20
8.3896159381
 11
-6.9509162807
 21
8.4315510397
  0
LINE
  5
43E
100
AcDbEntity
  8
IMPORT_IGES
100
AcDbLine
 62
7
  6
CONTINUOUS
 10
-4.881098928
 20
8.8561079303
 11
-5.3271556227
 21
7.524053064
  0
LINE
  5
43F
100
AcDbEntity
  8
IMPORT_IGES
100
AcDbLine
 62
7
  6
CONTINUOUS
 10
-6.4095822316
 20
7.6560442143
 11
-6.4237910562
 21
7.6164601294
  0
LINE
  5
440
100
AcDbEntity
  8
IMPORT_IGES
100
AcDbLine
 62
7
  6
CONTINUOUS
 10
-5.215044211
 20
7.2903376165
 11
-4.6510131755
 21
8.8561079303
  0
LINE
  5
441
100
AcDbEntity
  8
IMPORT_IGES
100
AcDbLine
 62
7
  6
CONTINUOUS
 10
-6.2416842733
 20
7.5651721634
 11
-6.2182321815
 21
7.629130454
  0
LINE
  5
442
100
AcDbEntity
  8
IMPORT_IGES
100
AcDbLine
 62
7
  6
CONTINUOUS
 10
-4.5483665686
 20
7.8297156216
 11
-4.5617872382
 21
7.79840689
  0
LINE
  5
443
100
AcDbEntity
  8
IMPORT_IGES
100
AcDbLine
 62
7
  6
CONTINUOUS
 10
-4.4622440984
 20
7.6922620349
 11
-4.4495031033
 21
7.7200542617
  0
LINE
  5
444
100
AcDbEntity
  8
IMPORT_IGES
100
AcDbLine
 62
7
  6
CONTINUOUS
 10
-6.2691426163
 20
7.5065272798
 11
-6.2416842733
 21
7.5651721634
  0
LINE
  5
445
100
AcDbEntity
  8
IMPORT_IGES
100
AcDbLine
 62
7
  6
CONTINUOUS
 10
-6.4237910562
 20
7.6164601294
 11
-6.4414214295
 21
7.5796020193
  0
LINE
  5
446
100
AcDbEntity
  8
IMPORT_IGES
100
AcDbLine
 62
7
  6
CONTINUOUS
 10
-4.5323560786
 20
7.8609985376
 11
-4.5483665686
 21
7.8297156216
  0
LINE
  5
447
100
AcDbEntity
  8
IMPORT_IGES
100
AcDbLine
 62
7
  6
CONTINUOUS
 10
-4.4495031033
 20
7.7200542617
 11
-4.4354507851
 21
7.7463183002
  0
LINE
  5
448
100
AcDbEntity
  8
IMPORT_IGES
100
AcDbLine
 62
7
  6
CONTINUOUS
 10
-4.5141298908
 20
7.8920279278
 11
-4.5323560786
 21
7.8609985376
  0
LINE
  5
449
100
AcDbEntity
  8
IMPORT_IGES
100
AcDbLine
 62
7
  6
CONTINUOUS
 10
-6.3008711616
 20
7.4531951852
 11
-6.2691426163
 21
7.5065272798
  0
LINE
  5
44A
100
AcDbEntity
  8
IMPORT_IGES
100
AcDbLine
 62
7
  6
CONTINUOUS
 10
-6.4414214295
 20
7.5796020193
 11
-6.4621655109
 21
7.5454978202
  0
LINE
  5
44B
100
AcDbEntity
  8
IMPORT_IGES
100
AcDbLine
 62
7
  6
CONTINUOUS
 10
-4.4354507851
 20
7.7463183002
 11
-4.419891476
 21
7.7705384492
  0
LINE
  5
44C
100
AcDbEntity
  8
IMPORT_IGES
100
AcDbLine
 62
7
  6
CONTINUOUS
 10
-4.4936880053
 20
7.9228037922
 11
-4.5141298908
 21
7.8920279278
  0
LINE
  5
44D
100
AcDbEntity
  8
IMPORT_IGES
100
AcDbLine
 62
7
  6
CONTINUOUS
 10
-6.3366059581
 20
7.4051764977
 11
-6.3008711616
 21
7.4531951852
  0
LINE
  5
44E
100
AcDbEntity
  8
IMPORT_IGES
100
AcDbLine
 62
7
  6
CONTINUOUS
 10
-3.4721439264
 20
7.7466759976
 11
-3.448956555
 21
7.7767640056
  0
LINE
  5
44F
100
AcDbEntity
  8
IMPORT_IGES
100
AcDbLine
 62
7
  6
CONTINUOUS
 10
-3.5149746477
 20
7.9350031761
 11
-3.5348391942
 21
7.9103778514
  0
LINE
  5
450
100
AcDbEntity
  8
IMPORT_IGES
100
AcDbLine
 62
7
  6
CONTINUOUS
 10
-4.419891476
 20
7.7705384492
 11
-4.4022381727
 21
7.7911676052
  0
LINE
  5
451
100
AcDbEntity
  8
IMPORT_IGES
100
AcDbLine
 62
7
  6
CONTINUOUS
 10
-4.4666036319
 20
7.9523454918
 11
-4.4936880053
 21
7.9228037922
  0
LINE
  5
452
100
AcDbEntity
  8
IMPORT_IGES
100
AcDbLine
 62
7
  6
CONTINUOUS
 10
-3.4980777726
 20
7.7210233047
 11
-3.4721439264
 21
7.7466759976
  0
LINE
  5
453
100
AcDbEntity
  8
IMPORT_IGES
100
AcDbLine
 62
7
  6
CONTINUOUS
 10
-3.5348391942
 20
7.9103778514
 11
-3.5564312671
 21
7.8898306317
  0
LINE
  5
454
100
AcDbEntity
  8
IMPORT_IGES
100
AcDbLine
 62
7
  6
CONTINUOUS
 10
-4.4375986126
 20
7.9769732096
 11
-4.4666036319
 21
7.9523454918
  0
LINE
  5
455
100
AcDbEntity
  8
IMPORT_IGES
100
AcDbLine
 62
7
  6
CONTINUOUS
 10
-4.4022381727
 20
7.7911676052
 11
-4.382259349
 21
7.8077194291
  0
LINE
  5
456
100
AcDbEntity
  8
IMPORT_IGES
100
AcDbLine
 62
7
  6
CONTINUOUS
 10
-3.5273249959
 20
7.700310202
 11
-3.4980777726
 21
7.7210233047
  0
LINE
  5
457
100
AcDbEntity
  8
IMPORT_IGES
100
AcDbLine
 62
7
  6
CONTINUOUS
 10
-3.5564312671
 20
7.8898306317
 11
-3.5795428272
 21
7.8736717089
  0
LINE
  5
458
100
AcDbEntity
  8
IMPORT_IGES
100
AcDbLine
 62
7
  6
CONTINUOUS
 10
-4.4066729475
 20
7.9966869454
 11
-4.4375986126
 21
7.9769732096
  0
LINE
  5
459
100
AcDbEntity
  8
IMPORT_IGES
100
AcDbLine
 62
7
  6
CONTINUOUS
 10
-6.46218774
 20
7.3009531386
 11
-6.4172642473
 21
7.3290554743
  0
LINE
  5
45A
100
AcDbEntity
  8
IMPORT_IGES
100
AcDbLine
 62
7
  6
CONTINUOUS
 10
-4.382259349
 20
7.8077194291
 11
-4.3601865311
 21
7.8206802599
  0
LINE
  5
45B
100
AcDbEntity
  8
IMPORT_IGES
100
AcDbLine
 62
7
  6
CONTINUOUS
 10
-6.5456051556
 20
7.4641790048
 11
-6.579336076
 21
7.4456973434
  0
LINE
  5
45C
100
AcDbEntity
  8
IMPORT_IGES
100
AcDbLine
 62
7
  6
CONTINUOUS
 10
-3.559318694
 20
7.6840324144
 11
-3.5273249959
 21
7.700310202
  0
LINE
  5
45D
100
AcDbEntity
  8
IMPORT_IGES
100
AcDbLine
 62
7
  6
CONTINUOUS
 10
-3.5795428272
 20
7.8736717089
 11
-3.6090412383
 21
7.8594696542
  0
LINE
  5
45E
100
AcDbEntity
  8
IMPORT_IGES
100
AcDbLine
 62
7
  6
CONTINUOUS
 10
-6.5111011533
 20
7.2788155418
 11
-6.46218774
 21
7.3009531386
  0
LWPOLYLINE
  5
45F
100
AcDbEntity
  8
IMPORT_IGES
100
AcDbPolyline
 62
7
  6
CONTINUOUS
 90
10
 70
0
 10
25.517418605
 20
21.3997960835
 10
25.4986662476
 20
21.3913228856
 10
25.4799247642
 20
21.3633604516
 10
25.4611989011
 20
21.3159176076
 10
25.4424868883
 20
21.2490096015
 10
25.4237959852
 20
21.1626573022
 10
25.4051427263
 20
21.0568888581
 10
25.3865320719
 20
20.9317399695
 10
25.3679571693
 20
20.7872522111
 10
25.3494150744
 20
20.6234733876
  0
LINE
  5
460
100
AcDbEntity
  8
IMPORT_IGES
100
AcDbLine
 62
7
  6
CONTINUOUS
 10
-4.3738991273
 20
8.0113098771
 11
-4.4066729475
 21
7.9966869454
  0
LINE
  5
461
100
AcDbEntity
  8
IMPORT_IGES
100
AcDbLine
 62
7
  6
CONTINUOUS
 10
-7.7080434053
 20
7.2833432328
 11
-7.6546919694
 21
7.3039027945
  0
LINE
  5
462
100
AcDbEntity
  8
IMPORT_IGES
100
AcDbLine
 62
7
  6
CONTINUOUS
 10
-4.3601865311
 20
7.8206802599
 11
-4.3320459081
 21
7.8313906669
  0
LINE
  5
463
100
AcDbEntity
  8
IMPORT_IGES
100
AcDbLine
 62
7
  6
CONTINUOUS
 10
-6.579336076
 20
7.4456973434
 11
-6.6151139708
 21
7.4328568403
  0
LINE
  5
464
100
AcDbEntity
  8
IMPORT_IGES
100
AcDbLine
 62
7
  6
CONTINUOUS
 10
-3.5984077877
 20
7.6702606436
 11
-3.559318694
 21
7.6840324144
  0
LINE
  5
465
100
AcDbEntity
  8
IMPORT_IGES
100
AcDbLine
 62
7
  6
CONTINUOUS
 10
-7.7710400267
 20
7.4453350205
 11
-7.8085434242
 21
7.4327382318
  0
LINE
  5
466
100
AcDbEntity
  8
IMPORT_IGES
100
AcDbLine
 62
7
  6
CONTINUOUS
 10
-6.5642568165
 20
7.2624785909
 11
-6.5111011533
 21
7.2788155418
  0
LWPOLYLINE
  5
467
100
AcDbEntity
  8
IMPORT_IGES
100
AcDbPolyline
 62
253
  6
CONTINUOUS
 90
10
 70
0
 10
26.3546775817
 20
-18.7178730808
 10
26.3362014546
 20
-18.7097777858
 10
26.3177430755
 20
-18.6824805452
 10
26.2993024442
 20
-18.6359813591
 10
26.2808734444
 20
-18.5702520067
 10
26.2624621924
 20
-18.4853207087
 10
26.2440870381
 20
-18.3812721275
 10
26.225754098
 20
-18.2581344838
 10
26.2074572556
 20
-18.115879557
 10
26.1891965108
 20
-17.9545073469
  0
LINE
  5
468
100
AcDbEntity
  8
IMPORT_IGES
100
AcDbLine
 62
7
  6
CONTINUOUS
 10
-9.7713314588
 20
16.528560355
 11
-9.7585558138
 21
16.440000305
  0
LINE
  5
469
100
AcDbEntity
  8
IMPORT_IGES
100
AcDbLine
 62
7
  6
CONTINUOUS
 10
-9.5208885493
 20
16.4597945468
 11
-9.5289202319
 21
16.5172161229
  0
LINE
  5
46A
100
AcDbEntity
  8
IMPORT_IGES
100
AcDbLine
 62
7
  6
CONTINUOUS
 10
-8.8062938499
 20
8.4281524816
 11
-8.8012383176
 21
8.3881500581
  0
LINE
  5
46B
100
AcDbEntity
  8
IMPORT_IGES
100
AcDbLine
 62
7
  6
CONTINUOUS
 10
-8.8070784379
 20
17.0400062839
 11
-8.8005569954
 21
16.9835380136
  0
LINE
  5
46C
100
AcDbEntity
  8
IMPORT_IGES
100
AcDbLine
 62
7
  6
CONTINUOUS
 10
-6.3737393729
 20
8.2079996931
 11
-6.3790547356
 21
8.2570245565
  0
LINE
  5
46D
100
AcDbEntity
  8
IMPORT_IGES
100
AcDbLine
 62
7
  6
CONTINUOUS
 10
-8.4105241015
 20
16.5630210271
 11
-8.4062440643
 21
16.5225576243
  0
LINE
  5
46E
100
AcDbEntity
  8
IMPORT_IGES
100
AcDbLine
 62
7
  6
CONTINUOUS
 10
-8.1646965386
 20
16.517216123
 11
-8.1706894097
 21
16.577360006
  0
LINE
  5
46F
100
AcDbEntity
  8
IMPORT_IGES
100
AcDbLine
 62
7
  6
CONTINUOUS
 10
-7.0017078249
 20
7.8743068916
 11
-6.9967177677
 21
7.8231080244
  0
LINE
  5
470
100
AcDbEntity
  8
IMPORT_IGES
100
AcDbLine
 62
7
  6
CONTINUOUS
 10
-7.2104976793
 20
7.9023907312
 11
-7.203614052
 21
7.8269888836
  0
LINE
  5
471
100
AcDbEntity
  8
IMPORT_IGES
100
AcDbLine
 62
7
  6
CONTINUOUS
 10
-7.1969647604
 20
17.0210981667
 11
-7.1889437038
 21
16.9309487494
  0
LINE
  5
472
100
AcDbEntity
  8
IMPORT_IGES
100
AcDbLine
 62
7
  6
CONTINUOUS
 10
-6.1629361154
 20
8.1717271293
 11
-6.1692613696
 21
8.2456724354
  0
LINE
  5
473
100
AcDbEntity
  8
IMPORT_IGES
100
AcDbLine
 62
7
  6
CONTINUOUS
 10
-7.3764772403
 20
7.828147277
 11
-7.3812335355
 21
7.8848345105
  0
LINE
  5
474
100
AcDbEntity
  8
IMPORT_IGES
100
AcDbLine
 62
7
  6
CONTINUOUS
 10
-7.4363333021
 20
16.9835380135
 11
-7.431594522
 21
16.9236031299
  0
LINE
  5
475
100
AcDbEntity
  8
IMPORT_IGES
100
AcDbLine
 62
7
  6
CONTINUOUS
 10
-6.2462919648
 20
17.2421079645
 11
-6.2491647547
 21
17.2810513366
  0
LINE
  5
476
100
AcDbEntity
  8
IMPORT_IGES
100
AcDbLine
 62
7
  6
CONTINUOUS
 10
-6.3699973079
 20
8.1557863146
 11
-6.3737393729
 21
8.2079996931
  0
LINE
  5
477
100
AcDbEntity
  8
IMPORT_IGES
100
AcDbLine
 62
7
  6
CONTINUOUS
 10
-7.0050149351
 20
7.9286393103
 11
-7.0017078249
 21
7.8743068916
  0
LINE
  5
478
100
AcDbEntity
  8
IMPORT_IGES
100
AcDbLine
 62
7
  6
CONTINUOUS
 10
-7.431594522
 20
16.9236031299
 11
-7.4285979027
 21
16.8609270731
  0
LINE
  5
479
100
AcDbEntity
  8
IMPORT_IGES
100
AcDbLine
 62
7
  6
CONTINUOUS
 10
-6.1634503081
 20
8.1717334725
 11
-6.1600817233
 21
8.0909495514
  0
LINE
  5
47A
100
AcDbEntity
  8
IMPORT_IGES
100
AcDbLine
 62
7
  6
CONTINUOUS
 10
-6.3677712816
 20
8.1012591039
 11
-6.3699973079
 21
8.1557863146
  0
LINE
  5
47B
100
AcDbEntity
  8
IMPORT_IGES
100
AcDbLine
 62
7
  6
CONTINUOUS
 10
-6.021504639
 20
17.2002983932
 11
-6.0225053347
 21
17.2496195192
  0
LINE
  5
47C
100
AcDbEntity
  8
IMPORT_IGES
100
AcDbLine
 62
7
  6
CONTINUOUS
 10
-6.3668795055
 20
8.0468825963
 11
-6.3677712816
 21
8.1012591039
  0
LINE
  5
47D
100
AcDbEntity
  8
IMPORT_IGES
100
AcDbLine
 62
7
  6
CONTINUOUS
 10
-6.2475994668
 20
17.2420841171
 11
-6.2474420639
 21
17.2067174218
  0
LINE
  5
47E
100
AcDbEntity
  8
IMPORT_IGES
100
AcDbLine
 62
7
  6
CONTINUOUS
 10
-5.9335289218
 20
16.4006186275
 11
-5.9335289218
 21
16.4679722268
  0
LINE
  5
47F
100
AcDbEntity
  8
IMPORT_IGES
100
AcDbLine
 62
7
  6
CONTINUOUS
 10
-5.7253579118
 20
17.2184269737
 11
-5.7253579118
 21
17.005916736
  0
LINE
  5
480
100
AcDbEntity
  8
IMPORT_IGES
100
AcDbLine
 62
7
  6
CONTINUOUS
 10
-5.2856819118
 20
17.2709439627
 11
-5.2856819118
 21
15.8700869128
  0
LINE
  5
481
100
AcDbEntity
  8
IMPORT_IGES
100
AcDbLine
 62
7
  6
CONTINUOUS
 10
-5.0658439118
 20
15.8700869128
 11
-5.0658439118
 21
17.6678729128
  0
LINE
  5
482
100
AcDbEntity
  8
IMPORT_IGES
100
AcDbLine
 62
7
  6
CONTINUOUS
 10
-4.6988739118
 20
16.4545789128
 11
-4.6988739118
 21
16.2522179128
  0
LINE
  5
483
100
AcDbEntity
  8
IMPORT_IGES
100
AcDbLine
 62
7
  6
CONTINUOUS
 10
-6.160081267
 20
8.0909401923
 11
-6.1603122715
 21
8.0072407794
  0
LINE
  5
484
100
AcDbEntity
  8
IMPORT_IGES
100
AcDbLine
 62
7
  6
CONTINUOUS
 10
-6.3672569209
 20
7.9929579933
 11
-6.3668795004
 21
8.046882167
  0
LINE
  5
485
100
AcDbEntity
  8
IMPORT_IGES
100
AcDbLine
 62
7
  6
CONTINUOUS
 10
-6.1669176431
 20
16.4593230124
 11
-6.1673685014
 21
16.4179424654
  0
LINE
  5
486
100
AcDbEntity
  8
IMPORT_IGES
100
AcDbLine
 62
7
  6
CONTINUOUS
 10
-6.3689685911
 20
7.9391834298
 11
-6.3672568982
 21
7.9929584483
  0
LINE
  5
487
100
AcDbEntity
  8
IMPORT_IGES
100
AcDbLine
 62
7
  6
CONTINUOUS
 10
-6.1603128458
 20
8.0072318244
 11
-6.1642831993
 21
7.9255228302
  0
LINE
  5
488
100
AcDbEntity
  8
IMPORT_IGES
100
AcDbLine
 62
7
  6
CONTINUOUS
 10
-6.3720278265
 20
7.8871179776
 11
-6.3689685911
 21
7.9391834298
  0
LINE
  5
489
100
AcDbEntity
  8
IMPORT_IGES
100
AcDbLine
 62
7
  6
CONTINUOUS
 10
-6.1709281875
 20
7.8493631039
 11
-6.163432661
 21
7.9304309489
  0
LINE
  5
48A
100
AcDbEntity
  8
IMPORT_IGES
100
AcDbLine
 62
7
  6
CONTINUOUS
 10
-4.6017990475
 20
7.6634093747
 11
-4.6062905712
 21
7.6305848966
  0
LINE
  5
48B
100
AcDbEntity
  8
IMPORT_IGES
100
AcDbLine
 62
7
  6
CONTINUOUS
 10
-3.3469247265
 20
8.0143545417
 11
-3.3365741764
 21
8.0625329128
  0
LINE
  5
48C
100
AcDbEntity
  8
IMPORT_IGES
100
AcDbLine
 62
7
  6
CONTINUOUS
 10
-4.5924962882
 20
7.7006824396
 11
-4.6017990475
 21
7.6634093747
  0
LINE
  5
48D
100
AcDbEntity
  8
IMPORT_IGES
100
AcDbLine
 62
7
  6
CONTINUOUS
 10
-3.3592022766
 20
7.9685996254
 11
-3.3469247265
 21
8.0143545417
  0
LINE
  5
48E
100
AcDbEntity
  8
IMPORT_IGES
100
AcDbLine
 62
7
  6
CONTINUOUS
 10
-3.4702988379
 20
8.026224985
 11
-3.4603036333
 21
8.0625329128
  0
LINE
  5
48F
100
AcDbEntity
  8
IMPORT_IGES
100
AcDbLine
 62
7
  6
CONTINUOUS
 10
-4.5924962882
 20
7.7006824396
 11
-4.5831038524
 21
7.7343457191
  0
LINE
  5
490
100
AcDbEntity
  8
IMPORT_IGES
100
AcDbLine
 62
7
  6
CONTINUOUS
 10
-4.4734781027
 20
7.6624259186
 11
-4.483205116
 21
7.6305459128
  0
LINE
  5
491
100
AcDbEntity
  8
IMPORT_IGES
100
AcDbLine
 62
7
  6
CONTINUOUS
 10
-4.57299221
 20
7.7668446325
 11
-4.5831038524
 21
7.7343457191
  0
LINE
  5
492
100
AcDbEntity
  8
IMPORT_IGES
100
AcDbLine
 62
7
  6
CONTINUOUS
 10
-3.3734068268
 20
7.9252681639
 11
-3.3592022766
 21
7.9685996254
  0
LINE
  5
493
100
AcDbEntity
  8
IMPORT_IGES
100
AcDbLine
 62
7
  6
CONTINUOUS
 10
-4.5617872382
 20
7.79840689
 11
-4.57299221
 21
7.7668446325
  0
LINE
  5
494
100
AcDbEntity
  8
IMPORT_IGES
100
AcDbLine
 62
7
  6
CONTINUOUS
 10
-3.4702988379
 20
8.026224985
 11
-3.4827044696
 21
7.992926743
  0
LINE
  5
495
100
AcDbEntity
  8
IMPORT_IGES
100
AcDbLine
 62
7
  6
CONTINUOUS
 10
-4.4734781027
 20
7.6624259186
 11
-4.4622440984
 21
7.6922620349
  0
LINE
  5
496
100
AcDbEntity
  8
IMPORT_IGES
100
AcDbLine
 62
7
  6
CONTINUOUS
 10
-3.389576279
 20
7.8841804773
 11
-3.3734068268
 21
7.9252681639
  0
LINE
  5
497
100
AcDbEntity
  8
IMPORT_IGES
100
AcDbLine
 62
7
  6
CONTINUOUS
 10
-3.4076727313
 20
7.8455162454
 11
-3.389576279
 21
7.8841804773
  0
LINE
  5
498
100
AcDbEntity
  8
IMPORT_IGES
100
AcDbLine
 62
7
  6
CONTINUOUS
 10
-3.4827044696
 20
7.992926743
 11
-3.4975205284
 21
7.9626381866
  0
LINE
  5
499
100
AcDbEntity
  8
IMPORT_IGES
100
AcDbLine
 62
7
  6
CONTINUOUS
 10
-3.4275824774
 20
7.8098145082
 11
-3.4076727313
 21
7.8455162454
  0
LINE
  5
49A
100
AcDbEntity
  8
IMPORT_IGES
100
AcDbLine
 62
7
  6
CONTINUOUS
 10
-3.4975205284
 20
7.9626381866
 11
-3.5149746477
 21
7.9350031761
  0
LINE
  5
49B
100
AcDbEntity
  8
IMPORT_IGES
100
AcDbLine
 62
7
  6
CONTINUOUS
 10
-3.448956555
 20
7.7767640056
 11
-3.4275824774
 21
7.8098145082
  0
LINE
  5
49C
100
AcDbEntity
  8
IMPORT_IGES
100
AcDbLine
 62
7
  6
CONTINUOUS
 10
-8.3896343806
 20
7.5149534606
 11
-8.3673923033
 21
7.4695750987
  0
LINE
  5
49D
100
AcDbEntity
  8
IMPORT_IGES
100
AcDbLine
 62
7
  6
CONTINUOUS
 10
-8.8349674618
 20
8.5091840124
 11
-8.8190395765
 21
8.4729848292
  0
LINE
  5
49E
100
AcDbEntity
  8
IMPORT_IGES
100
AcDbLine
 62
7
  6
CONTINUOUS
 10
-8.1943261947
 20
7.5650017113
 11
-8.2091287068
 21
7.599333099
  0
LINE
  5
49F
100
AcDbEntity
  8
IMPORT_IGES
100
AcDbLine
 62
7
  6
CONTINUOUS
 10
-8.6124660017
 20
8.5145294415
 11
-8.6348762757
 21
8.5676775382
  0
LINE
  5
4A0
100
AcDbEntity
  8
IMPORT_IGES
100
AcDbLine
 62
7
  6
CONTINUOUS
 10
-8.4068779713
 20
7.5649717111
 11
-8.3896343806
 21
7.5149534606
  0
LINE
  5
4A1
100
AcDbEntity
  8
IMPORT_IGES
100
AcDbLine
 62
7
  6
CONTINUOUS
 10
-7.6044920239
 20
7.906308501
 11
-7.590703909
 21
7.8616338974
  0
LINE
  5
4A2
100
AcDbEntity
  8
IMPORT_IGES
100
AcDbLine
 62
7
  6
CONTINUOUS
 10
-6.957410412
 20
7.6410306061
 11
-6.9703527356
 21
7.6830824251
  0
LINE
  5
4A3
100
AcDbEntity
  8
IMPORT_IGES
100
AcDbLine
 62
7
  6
CONTINUOUS
 10
-7.1760318585
 20
7.6778690358
 11
-7.1561725751
 21
7.6107705461
  0
LINE
  5
4A4
100
AcDbEntity
  8
IMPORT_IGES
100
AcDbLine
 62
7
  6
CONTINUOUS
 10
-9.7408521413
 20
16.3563061623
 11
-9.7180019602
 21
16.2775063414
  0
LINE
  5
4A5
100
AcDbEntity
  8
IMPORT_IGES
100
AcDbLine
 62
7
  6
CONTINUOUS
 10
-8.2091287068
 20
7.599333099
 11
-8.2215554577
 21
7.6423543619
  0
LINE
  5
4A6
100
AcDbEntity
  8
IMPORT_IGES
100
AcDbLine
 62
7
  6
CONTINUOUS
 10
-8.8190395765
 20
8.4729848292
 11
-8.8062938499
 21
8.4281524816
  0
LINE
  5
4A7
100
AcDbEntity
  8
IMPORT_IGES
100
AcDbLine
 62
7
  6
CONTINUOUS
 10
-8.5954080224
 20
8.4535846768
 11
-8.6124660017
 21
8.5145294415
  0
LINE
  5
4A8
100
AcDbEntity
  8
IMPORT_IGES
100
AcDbLine
 62
7
  6
CONTINUOUS
 10
-9.4974832824
 20
16.3532677747
 11
-9.5104041625
 21
16.4052121601
  0
LINE
  5
4A9
100
AcDbEntity
  8
IMPORT_IGES
100
AcDbLine
 62
7
  6
CONTINUOUS
 10
-6.9703527356
 20
7.6830824251
 11
-6.9812106355
 21
7.7274966618
  0
LINE
  5
4AA
100
AcDbEntity
  8
IMPORT_IGES
100
AcDbLine
 62
7
  6
CONTINUOUS
 10
-7.3812335355
 20
7.8848345105
 11
-7.3956910753
 21
7.945322199
  0
LINE
  5
4AB
100
AcDbEntity
  8
IMPORT_IGES
100
AcDbLine
 62
7
  6
CONTINUOUS
 10
-8.3851527724
 20
16.393169082
 11
-8.3743503773
 21
16.3472993729
  0
LINE
  5
4AC
100
AcDbEntity
  8
IMPORT_IGES
100
AcDbLine
 62
7
  6
CONTINUOUS
 10
-8.8367893336
 20
17.1940268759
 11
-8.8253523617
 21
17.1449601309
  0
LINE
  5
4AD
100
AcDbEntity
  8
IMPORT_IGES
100
AcDbLine
 62
7
  6
CONTINUOUS
 10
-8.4205246576
 20
7.6246846815
 11
-8.4068779713
 21
7.5649717111
  0
LINE
  5
4AE
100
AcDbEntity
  8
IMPORT_IGES
100
AcDbLine
 62
7
  6
CONTINUOUS
 10
-6.394243594
 20
8.3482926488
 11
-6.4038652559
 21
8.3909492665
  0
LINE
  5
4AF
100
AcDbEntity
  8
IMPORT_IGES
100
AcDbLine
 62
7
  6
CONTINUOUS
 10
-7.1914516802
 20
7.7490556279
 11
-7.1760318585
 21
7.6778690358
  0
LINE
  5
4B0
100
AcDbEntity
  8
IMPORT_IGES
100
AcDbLine
 62
7
  6
CONTINUOUS
 10
-9.7585558138
 20
16.440000305
 11
-9.7408521413
 21
16.3563061623
  0
LINE
  5
4B1
100
AcDbEntity
  8
IMPORT_IGES
100
AcDbLine
 62
7
  6
CONTINUOUS
 10
-6.1805002531
 20
8.3219887599
 11
-6.1950127699
 21
8.3916916625
  0
LINE
  5
4B2
100
AcDbEntity
  8
IMPORT_IGES
100
AcDbLine
 62
7
  6
CONTINUOUS
 10
-8.572513271
 20
17.1022052386
 11
-8.5894811991
 21
17.1846478334
  0
LINE
  5
4B3
100
AcDbEntity
  8
IMPORT_IGES
100
AcDbLine
 62
7
  6
CONTINUOUS
 10
-8.3942815259
 20
16.4376864918
 11
-8.3851527724
 21
16.393169082
  0
LINE
  5
4B4
100
AcDbEntity
  8
IMPORT_IGES
100
AcDbLine
 62
7
  6
CONTINUOUS
 10
-8.8253523617
 20
17.1449601309
 11
-8.8153420412
 21
17.093733381
  0
LINE
  5
4B5
100
AcDbEntity
  8
IMPORT_IGES
100
AcDbLine
 62
7
  6
CONTINUOUS
 10
-9.5104041625
 20
16.4052121601
 11
-9.5208885493
 21
16.4597945468
  0
LINE
  5
4B6
100
AcDbEntity
  8
IMPORT_IGES
100
AcDbLine
 62
7
  6
CONTINUOUS
 10
-8.1461804692
 20
16.4052121601
 11
-8.156664856
 21
16.4597945469
  0
LINE
  5
4B7
100
AcDbEntity
  8
IMPORT_IGES
100
AcDbLine
 62
7
  6
CONTINUOUS
 10
-6.9900064134
 20
7.7741211342
 11
-6.9812106355
 21
7.7274966618
  0
LINE
  5
4B8
100
AcDbEntity
  8
IMPORT_IGES
100
AcDbLine
 62
7
  6
CONTINUOUS
 10
-6.3858861371
 20
8.3037355877
 11
-6.394243594
 21
8.3482926488
  0
LINE
  5
4B9
100
AcDbEntity
  8
IMPORT_IGES
100
AcDbLine
 62
7
  6
CONTINUOUS
 10
-8.3940933919
 20
16.4377163905
 11
-8.400941311
 21
16.4808059624
  0
LINE
  5
4BA
100
AcDbEntity
  8
IMPORT_IGES
100
AcDbLine
 62
7
  6
CONTINUOUS
 10
-7.1050229458
 20
16.3746189082
 11
-7.093659333
 21
16.3022171391
  0
LINE
  5
4BB
100
AcDbEntity
  8
IMPORT_IGES
100
AcDbLine
 62
7
  6
CONTINUOUS
 10
-7.203614052
 20
7.8269888836
 11
-7.1914516802
 21
7.7490556279
  0
LINE
  5
4BC
100
AcDbEntity
  8
IMPORT_IGES
100
AcDbLine
 62
7
  6
CONTINUOUS
 10
-8.8153420412
 20
17.093733381
 11
-8.8070784379
 21
17.0400062839
  0
LINE
  5
4BD
100
AcDbEntity
  8
IMPORT_IGES
100
AcDbLine
 62
7
  6
CONTINUOUS
 10
-7.4511183479
 20
17.093733381
 11
-7.4428547446
 21
17.0400062838
  0
LINE
  5
4BE
100
AcDbEntity
  8
IMPORT_IGES
100
AcDbLine
 62
7
  6
CONTINUOUS
 10
-6.1692613696
 20
8.2456724354
 11
-6.1805002531
 21
8.3219887599
  0
LINE
  5
4BF
100
AcDbEntity
  8
IMPORT_IGES
100
AcDbLine
 62
7
  6
CONTINUOUS
 10
-6.3790547356
 20
8.2570245565
 11
-6.3858861371
 21
8.3037355877
  0
LINE
  5
4C0
100
AcDbEntity
  8
IMPORT_IGES
100
AcDbLine
 62
7
  6
CONTINUOUS
 10
-7.1967407472
 20
17.0211180983
 11
-7.2092744346
 21
17.1078609988
  0
LINE
  5
4C1
100
AcDbEntity
  8
IMPORT_IGES
100
AcDbLine
 62
7
  6
CONTINUOUS
 10
-7.590703909
 20
7.8616338974
 11
-7.5852113036
 21
7.8230002524
  0
LINE
  5
4C2
100
AcDbEntity
  8
IMPORT_IGES
100
AcDbLine
 62
7
  6
CONTINUOUS
 10
-8.560266457
 20
17.0149064401
 11
-8.572513271
 21
17.1022052386
  0
LINE
  5
4C3
100
AcDbEntity
  8
IMPORT_IGES
100
AcDbLine
 62
7
  6
CONTINUOUS
 10
-8.156664856
 20
16.4597945469
 11
-8.1646965386
 21
16.517216123
  0
LINE
  5
4C4
100
AcDbEntity
  8
IMPORT_IGES
100
AcDbLine
 62
7
  6
CONTINUOUS
 10
-6.9967177677
 20
7.8231080244
 11
-6.9900064134
 21
7.7741211342
  0
LINE
  5
4C5
100
AcDbEntity
  8
IMPORT_IGES
100
AcDbLine
 62
7
  6
CONTINUOUS
 10
-7.4428547446
 20
17.0400062838
 11
-7.4363333021
 21
16.9835380135
  0
LINE
  5
4C6
100
AcDbEntity
  8
IMPORT_IGES
100
AcDbLine
 62
7
  6
CONTINUOUS
 10
-6.026267342
 20
17.3009604806
 11
-6.0208445752
 21
17.2496387301
  0
LINE
  5
4C7
100
AcDbEntity
  8
IMPORT_IGES
100
AcDbLine
 62
7
  6
CONTINUOUS
 10
-3.9188659118
 20
17.2652489128
 11
-3.9188659118
 21
16.4545789128
  0
LINE
  5
4C8
100
AcDbEntity
  8
IMPORT_IGES
100
AcDbLine
 62
7
  6
CONTINUOUS
 10
-3.9188659118
 20
16.2522179128
 11
-3.9188659118
 21
15.8217419128
  0
LINE
  5
4C9
100
AcDbEntity
  8
IMPORT_IGES
100
AcDbLine
 62
7
  6
CONTINUOUS
 10
-3.6981079118
 20
15.8217419128
 11
-3.6981079118
 21
16.2522179128
  0
LINE
  5
4CA
100
AcDbEntity
  8
IMPORT_IGES
100
AcDbLine
 62
7
  6
CONTINUOUS
 10
-3.6981079118
 20
16.4545789128
 11
-3.6981079118
 21
17.6196879128
  0
LINE
  5
4CB
100
AcDbEntity
  8
IMPORT_IGES
100
AcDbLine
 62
7
  6
CONTINUOUS
 10
-3.4552749118
 20
16.2522179128
 11
-3.4552749118
 21
16.4545789128
  0
LINE
  5
4CC
100
AcDbEntity
  8
IMPORT_IGES
100
AcDbLine
 62
7
  6
CONTINUOUS
 10
-8.6611143861
 20
8.6159081769
 11
-8.6898710368
 21
8.658448017
  0
LINE
  5
4CD
100
AcDbEntity
  8
IMPORT_IGES
100
AcDbLine
 62
7
  6
CONTINUOUS
 10
-8.3673923033
 20
7.4695750987
 11
-8.340211284
 21
7.4287089705
  0
LINE
  5
4CE
100
AcDbEntity
  8
IMPORT_IGES
100
AcDbLine
 62
7
  6
CONTINUOUS
 10
-8.8557137311
 20
8.5412531904
 11
-8.8349674618
 21
8.5091840124
  0
LINE
  5
4CF
100
AcDbEntity
  8
IMPORT_IGES
100
AcDbLine
 62
7
  6
CONTINUOUS
 10
-7.6421126484
 20
7.9759669366
 11
-7.6211613094
 21
7.9428239278
  0
LINE
  5
4D0
100
AcDbEntity
  8
IMPORT_IGES
100
AcDbLine
 62
7
  6
CONTINUOUS
 10
-7.1038918397
 20
7.4903243669
 11
-7.0714435767
 21
7.4385602394
  0
LINE
  5
4D1
100
AcDbEntity
  8
IMPORT_IGES
100
AcDbLine
 62
7
  6
CONTINUOUS
 10
-6.9030819602
 20
7.5322250671
 11
-6.9237750243
 21
7.5656019271
  0
LINE
  5
4D2
100
AcDbEntity
  8
IMPORT_IGES
100
AcDbLine
 62
7
  6
CONTINUOUS
 10
-8.1757071444
 20
7.5342055539
 11
-8.1943261947
 21
7.5650017113
  0
LINE
  5
4D3
100
AcDbEntity
  8
IMPORT_IGES
100
AcDbLine
 62
7
  6
CONTINUOUS
 10
-8.6348762757
 20
8.5676775382
 11
-8.6611143861
 21
8.6159081769
  0
LINE
  5
4D4
100
AcDbEntity
  8
IMPORT_IGES
100
AcDbLine
 62
7
  6
CONTINUOUS
 10
-7.4152238888
 20
7.997051506
 11
-7.44146668
 21
8.0458130609
  0
LINE
  5
4D5
100
AcDbEntity
  8
IMPORT_IGES
100
AcDbLine
 62
7
  6
CONTINUOUS
 10
-6.9237750243
 20
7.5656019271
 11
-6.9419536333
 21
7.6019481922
  0
LINE
  5
4D6
100
AcDbEntity
  8
IMPORT_IGES
100
AcDbLine
 62
7
  6
CONTINUOUS
 10
-7.132067069
 20
7.5477814017
 11
-7.1038918397
 21
7.4903243669
  0
LINE
  5
4D7
100
AcDbEntity
  8
IMPORT_IGES
100
AcDbLine
 62
7
  6
CONTINUOUS
 10
-6.2369851074
 20
8.51950623
 11
-6.2642635139
 21
8.575890087
  0
LINE
  5
4D8
100
AcDbEntity
  8
IMPORT_IGES
100
AcDbLine
 62
7
  6
CONTINUOUS
 10
-7.6211613094
 20
7.9428239278
 11
-7.6044920239
 21
7.906308501
  0
LINE
  5
4D9
100
AcDbEntity
  8
IMPORT_IGES
100
AcDbLine
 62
7
  6
CONTINUOUS
 10
-6.4443184726
 20
8.5044841614
 11
-6.4284823145
 21
8.4691998746
  0
LINE
  5
4DA
100
AcDbEntity
  8
IMPORT_IGES
100
AcDbLine
 62
7
  6
CONTINUOUS
 10
-9.4638208849
 20
16.2586170192
 11
-9.4821096981
 21
16.3041625788
  0
LINE
  5
4DB
100
AcDbEntity
  8
IMPORT_IGES
100
AcDbLine
 62
7
  6
CONTINUOUS
 10
-6.9419536333
 20
7.6019481922
 11
-6.957410412
 21
7.6410306061
  0
LINE
  5
4DC
100
AcDbEntity
  8
IMPORT_IGES
100
AcDbLine
 62
7
  6
CONTINUOUS
 10
-7.1561725751
 20
7.6107705461
 11
-7.132067069
 21
7.5477814017
  0
LINE
  5
4DD
100
AcDbEntity
  8
IMPORT_IGES
100
AcDbLine
 62
7
  6
CONTINUOUS
 10
-7.3956910753
 20
7.945322199
 11
-7.4152238888
 21
7.997051506
  0
LINE
  5
4DE
100
AcDbEntity
  8
IMPORT_IGES
100
AcDbLine
 62
7
  6
CONTINUOUS
 10
-9.7180019602
 20
16.2775063414
 11
-9.6902237516
 21
16.2035724279
  0
LINE
  5
4DF
100
AcDbEntity
  8
IMPORT_IGES
100
AcDbLine
 62
7
  6
CONTINUOUS
 10
-6.2139051738
 20
8.4575862858
 11
-6.2369851074
 21
8.51950623
  0
LINE
  5
4E0
100
AcDbEntity
  8
IMPORT_IGES
100
AcDbLine
 62
7
  6
CONTINUOUS
 10
-8.6116214736
 20
17.262461629
 11
-8.6387057311
 21
17.335482913
  0
LINE
  5
4E1
100
AcDbEntity
  8
IMPORT_IGES
100
AcDbLine
 62
7
  6
CONTINUOUS
 10
-8.8658681823
 20
17.2838791229
 11
-8.8499730225
 21
17.2405932736
  0
LINE
  5
4E2
100
AcDbEntity
  8
IMPORT_IGES
100
AcDbLine
 62
7
  6
CONTINUOUS
 10
-6.0065836242
 20
8.8561079303
 11
-5.434882211
 21
7.2903376165
  0
LINE
  5
4E3
100
AcDbEntity
  8
IMPORT_IGES
100
AcDbLine
 62
7
  6
CONTINUOUS
 10
-6.4284823145
 20
8.4691998746
 11
-6.4150129732
 21
8.4314519142
  0
LINE
  5
4E4
100
AcDbEntity
  8
IMPORT_IGES
100
AcDbLine
 62
7
  6
CONTINUOUS
 10
-8.361479538
 20
16.300124556
 11
-8.34516594
 21
16.2520307324
  0
LINE
  5
4E5
100
AcDbEntity
  8
IMPORT_IGES
100
AcDbLine
 62
7
  6
CONTINUOUS
 10
-5.3271556227
 20
7.524053064
 11
-5.7764978717
 21
8.8561079303
  0
LINE
  5
4E6
100
AcDbEntity
  8
IMPORT_IGES
100
AcDbLine
 62
7
  6
CONTINUOUS
 10
-9.4821096981
 20
16.3041625788
 11
-9.4974832824
 21
16.3532677747
  0
LINE
  5
4E7
100
AcDbEntity
  8
IMPORT_IGES
100
AcDbLine
 62
7
  6
CONTINUOUS
 10
-8.1178860048
 20
16.3041625788
 11
-8.1332595891
 21
16.3532677747
  0
LINE
  5
4E8
100
AcDbEntity
  8
IMPORT_IGES
100
AcDbLine
 62
7
  6
CONTINUOUS
 10
-7.2264899746
 20
17.1897190698
 11
-7.2488593234
 21
17.2669332726
  0
LINE
  5
4E9
100
AcDbEntity
  8
IMPORT_IGES
100
AcDbLine
 62
7
  6
CONTINUOUS
 10
-6.1950127699
 20
8.3916916625
 11
-6.2139051738
 21
8.4575862858
  0
LINE
  5
4EA
100
AcDbEntity
  8
IMPORT_IGES
100
AcDbLine
 62
7
  6
CONTINUOUS
 10
-8.5894811991
 20
17.1846478334
 11
-8.6116214736
 21
17.262461629
  0
LINE
  5
4EB
100
AcDbEntity
  8
IMPORT_IGES
100
AcDbLine
 62
7
  6
CONTINUOUS
 10
-8.8499730225
 20
17.2405932736
 11
-8.8367893336
 21
17.1940268759
  0
LINE
  5
4EC
100
AcDbEntity
  8
IMPORT_IGES
100
AcDbLine
 62
7
  6
CONTINUOUS
 10
-7.4857493292
 20
17.2405932736
 11
-7.4725656403
 21
17.1940268759
  0
LINE
  5
4ED
100
AcDbEntity
  8
IMPORT_IGES
100
AcDbLine
 62
7
  6
CONTINUOUS
 10
-6.4150129732
 20
8.4314519142
 11
-6.4038652559
 21
8.3909492665
  0
LINE
  5
4EE
100
AcDbEntity
  8
IMPORT_IGES
100
AcDbLine
 62
7
  6
CONTINUOUS
 10
-7.093659333
 20
16.3022171391
 11
-7.0752299289
 21
16.2347267144
  0
LINE
  5
4EF
100
AcDbEntity
  8
IMPORT_IGES
100
AcDbLine
 62
7
  6
CONTINUOUS
 10
-8.3743503773
 20
16.3472993729
 11
-8.361479538
 21
16.300124556
  0
LINE
  5
4F0
100
AcDbEntity
  8
IMPORT_IGES
100
AcDbLine
 62
7
  6
CONTINUOUS
 10
-8.1332595891
 20
16.3532677747
 11
-8.1461804692
 21
16.4052121601
  0
LINE
  5
4F1
100
AcDbEntity
  8
IMPORT_IGES
100
AcDbLine
 62
7
  6
CONTINUOUS
 10
-7.4725656403
 20
17.1940268759
 11
-7.4611286684
 21
17.1449601309
  0
LINE
  5
4F2
100
AcDbEntity
  8
IMPORT_IGES
100
AcDbLine
 62
7
  6
CONTINUOUS
 10
-6.8739439299
 20
16.3530410488
 11
-6.8851848782
 21
16.4039307839
  0
LINE
  5
4F3
100
AcDbEntity
  8
IMPORT_IGES
100
AcDbLine
 62
7
  6
CONTINUOUS
 10
-6.2578175793
 20
17.3223559707
 11
-6.2478295797
 21
17.2761301611
  0
LINE
  5
4F4
100
AcDbEntity
  8
IMPORT_IGES
100
AcDbLine
 62
7
  6
CONTINUOUS
 10
-7.2092744346
 20
17.1078609988
 11
-7.2264899746
 21
17.1897190698
  0
LINE
  5
4F5
100
AcDbEntity
  8
IMPORT_IGES
100
AcDbLine
 62
7
  6
CONTINUOUS
 10
-7.4611286684
 20
17.1449601309
 11
-7.4511183479
 21
17.093733381
  0
LINE
  5
4F6
100
AcDbEntity
  8
IMPORT_IGES
100
AcDbLine
 62
7
  6
CONTINUOUS
 10
-6.1674248507
 20
16.4640868792
 11
-6.1750011699
 21
16.51148401
  0
LINE
  5
4F7
100
AcDbEntity
  8
IMPORT_IGES
100
AcDbLine
 62
7
  6
CONTINUOUS
 10
-5.94106381
 20
16.5322482055
 11
-5.9336936183
 21
16.4712573339
  0
LINE
  5
4F8
100
AcDbEntity
  8
IMPORT_IGES
100
AcDbLine
 62
253
  6
CONTINUOUS
 10
19.053537626
 20
19.2838739529
 11
18.9054511115
 21
19.1457499408
  0
LINE
  5
4F9
100
AcDbEntity
  8
IMPORT_IGES
100
AcDbLine
 62
7
  6
CONTINUOUS
 10
-8.7224555238
 20
8.696070399
 11
-8.759682428
 21
8.7288249558
  0
LINE
  5
4FA
100
AcDbEntity
  8
IMPORT_IGES
100
AcDbLine
 62
7
  6
CONTINUOUS
 10
-8.3082699571
 20
7.3919721104
 11
-8.2715245549
 21
7.3592765766
  0
LINE
  5
4FB
100
AcDbEntity
  8
IMPORT_IGES
100
AcDbLine
 62
7
  6
CONTINUOUS
 10
-8.1266270076
 20
7.4831056243
 11
-8.1532061523
 21
7.5069257426
  0
LINE
  5
4FC
100
AcDbEntity
  8
IMPORT_IGES
100
AcDbLine
 62
253
  6
CONTINUOUS
 10
-20.5503143337
 20
17.987058287
 11
-20.4022276246
 21
17.8489378838
  0
LINE
  5
4FD
100
AcDbEntity
  8
IMPORT_IGES
100
AcDbLine
 62
7
  6
CONTINUOUS
 10
-6.8547842383
 20
7.4786754258
 11
-6.8800665347
 21
7.503124368
  0
LINE
  5
4FE
100
AcDbEntity
  8
IMPORT_IGES
100
AcDbLine
 62
7
  6
CONTINUOUS
 10
-7.0349255904
 20
7.3923282214
 11
-6.9951243111
 21
7.3525686846
  0
LINE
  5
4FF
100
AcDbEntity
  8
IMPORT_IGES
100
AcDbLine
 62
7
  6
CONTINUOUS
 10
-7.4751590614
 20
8.0925895634
 11
-7.5155614206
 21
8.1363983138
  0
LINE
  5
500
100
AcDbEntity
  8
IMPORT_IGES
100
AcDbLine
 62
7
  6
CONTINUOUS
 10
-8.8811098048
 20
8.5698674902
 11
-8.8557137311
 21
8.5412531904
  0
LINE
  5
501
100
AcDbEntity
  8
IMPORT_IGES
100
AcDbLine
 62
7
  6
CONTINUOUS
 10
-8.340211284
 20
7.4287089705
 11
-8.3082699571
 21
7.3919721104
  0
LINE
  5
502
100
AcDbEntity
  8
IMPORT_IGES
100
AcDbLine
 62
7
  6
CONTINUOUS
 10
-8.6898710368
 20
8.658448017
 11
-8.7224555238
 21
8.696070399
  0
LINE
  5
503
100
AcDbEntity
  8
IMPORT_IGES
100
AcDbLine
 62
7
  6
CONTINUOUS
 10
-7.6673464789
 20
8.0057465216
 11
-7.6421126484
 21
7.9759669366
  0
LINE
  5
504
100
AcDbEntity
  8
IMPORT_IGES
100
AcDbLine
 62
7
  6
CONTINUOUS
 10
-8.1532061523
 20
7.5069257426
 11
-8.1757071444
 21
7.5342055539
  0
LINE
  5
505
100
AcDbEntity
  8
IMPORT_IGES
100
AcDbLine
 62
7
  6
CONTINUOUS
 10
-6.2959129998
 20
8.6264158363
 11
-6.3317609586
 21
8.6714054984
  0
LINE
  5
506
100
AcDbEntity
  8
IMPORT_IGES
100
AcDbLine
 62
7
  6
CONTINUOUS
 10
-6.8800665347
 20
7.503124368
 11
-6.9030819602
 21
7.5322250671
  0
LINE
  5
507
100
AcDbEntity
  8
IMPORT_IGES
100
AcDbLine
 62
7
  6
CONTINUOUS
 10
-7.0714435767
 20
7.4385602394
 11
-7.0349255904
 21
7.3923282214
  0
LINE
  5
508
100
AcDbEntity
  8
IMPORT_IGES
100
AcDbLine
 62
7
  6
CONTINUOUS
 10
-6.48361565
 20
8.565314914
 11
-6.4624762547
 21
8.5370137609
  0
LINE
  5
509
100
AcDbEntity
  8
IMPORT_IGES
100
AcDbLine
 62
7
  6
CONTINUOUS
 10
-7.44146668
 20
8.0458130609
 11
-7.4751590614
 21
8.0925895634
  0
LINE
  5
50A
100
AcDbEntity
  8
IMPORT_IGES
100
AcDbLine
 62
7
  6
CONTINUOUS
 10
-6.2642635139
 20
8.575890087
 11
-6.2959129998
 21
8.6264158363
  0
LINE
  5
50B
100
AcDbEntity
  8
IMPORT_IGES
100
AcDbLine
 62
7
  6
CONTINUOUS
 10
-9.6577464927
 20
16.1360770863
 11
-9.6203270185
 21
16.0751877075
  0
LINE
  5
50C
100
AcDbEntity
  8
IMPORT_IGES
100
AcDbLine
 62
7
  6
CONTINUOUS
 10
-6.4624762547
 20
8.5370137609
 11
-6.4443184726
 21
8.5044841614
  0
LINE
  5
50D
100
AcDbEntity
  8
IMPORT_IGES
100
AcDbLine
 62
7
  6
CONTINUOUS
 10
-9.4423697155
 20
16.2163847801
 11
-9.4638208849
 21
16.2586170192
  0
LINE
  5
50E
100
AcDbEntity
  8
IMPORT_IGES
100
AcDbLine
 62
7
  6
CONTINUOUS
 10
-8.0781460222
 20
16.21638478
 11
-8.0995971916
 21
16.2586170192
  0
LINE
  5
50F
100
AcDbEntity
  8
IMPORT_IGES
100
AcDbLine
 62
7
  6
CONTINUOUS
 10
-8.6387057311
 20
17.335482913
 11
-8.6707037859
 21
17.4019109314
  0
LINE
  5
510
100
AcDbEntity
  8
IMPORT_IGES
100
AcDbLine
 62
7
  6
CONTINUOUS
 10
-9.6902237516
 20
16.2035724279
 11
-9.6577464927
 21
16.1360770863
  0
LINE
  5
511
100
AcDbEntity
  8
IMPORT_IGES
100
AcDbLine
 62
7
  6
CONTINUOUS
 10
-8.8845839341
 20
17.324145595
 11
-8.8658681823
 21
17.2838791229
  0
LINE
  5
512
100
AcDbEntity
  8
IMPORT_IGES
100
AcDbLine
 62
7
  6
CONTINUOUS
 10
-7.5203602408
 20
17.3241455949
 11
-7.501644489
 21
17.2838791228
  0
LINE
  5
513
100
AcDbEntity
  8
IMPORT_IGES
100
AcDbLine
 62
7
  6
CONTINUOUS
 10
-8.3256283718
 20
16.2025293923
 11
-8.3026480449
 21
16.1521090454
  0
LINE
  5
514
100
AcDbEntity
  8
IMPORT_IGES
100
AcDbLine
 62
7
  6
CONTINUOUS
 10
-7.0752299289
 20
16.2347267144
 11
-7.0497347335
 21
16.1721476342
  0
LINE
  5
515
100
AcDbEntity
  8
IMPORT_IGES
100
AcDbLine
 62
7
  6
CONTINUOUS
 10
-8.0995971916
 20
16.2586170192
 11
-8.1178860048
 21
16.3041625788
  0
LINE
  5
516
100
AcDbEntity
  8
IMPORT_IGES
100
AcDbLine
 62
7
  6
CONTINUOUS
 10
-8.34516594
 20
16.2520307324
 11
-8.3256283718
 21
16.2025293923
  0
LINE
  5
517
100
AcDbEntity
  8
IMPORT_IGES
100
AcDbLine
 62
7
  6
CONTINUOUS
 10
-6.842428907
 20
16.2616682849
 11
-6.8596919395
 21
16.3056202158
  0
LINE
  5
518
100
AcDbEntity
  8
IMPORT_IGES
100
AcDbLine
 62
7
  6
CONTINUOUS
 10
-5.9552502204
 20
16.591581056
 11
-5.9755225223
 21
16.6443062926
  0
LINE
  5
519
100
AcDbEntity
  8
IMPORT_IGES
100
AcDbLine
 62
7
  6
CONTINUOUS
 10
-7.2488593234
 20
17.2669332726
 11
-7.2761423505
 21
17.3393305174
  0
LINE
  5
51A
100
AcDbEntity
  8
IMPORT_IGES
100
AcDbLine
 62
7
  6
CONTINUOUS
 10
-7.501644489
 20
17.2838791228
 11
-7.4857493292
 21
17.2405932736
  0
LINE
  5
51B
100
AcDbEntity
  8
IMPORT_IGES
100
AcDbLine
 62
7
  6
CONTINUOUS
 10
-6.2715360806
 20
17.359843471
 11
-6.2578175793
 21
17.3223559707
  0
LINE
  5
51C
100
AcDbEntity
  8
IMPORT_IGES
100
AcDbLine
 62
7
  6
CONTINUOUS
 10
-6.0394671618
 20
17.3602467567
 11
-6.0590076102
 21
17.4140562259
  0
LINE
  5
51D
100
AcDbEntity
  8
IMPORT_IGES
100
AcDbLine
 62
7
  6
CONTINUOUS
 10
-6.8596919395
 20
16.3056202158
 11
-6.8739439299
 21
16.3530410488
  0
LINE
  5
51E
100
AcDbEntity
  8
IMPORT_IGES
100
AcDbLine
 62
7
  6
CONTINUOUS
 10
-6.188531156
 20
16.5588281027
 11
-6.174691838
 21
16.511533456
  0
LINE
  5
51F
100
AcDbEntity
  8
IMPORT_IGES
100
AcDbLine
 62
7
  6
CONTINUOUS
 10
-5.9407362516
 20
16.532287788
 11
-5.9552502204
 21
16.591581056
  0
LINE
  5
520
100
AcDbEntity
  8
IMPORT_IGES
100
AcDbLine
 62
7
  6
CONTINUOUS
 10
-6.0241521688
 20
17.2961829162
 11
-6.0394671618
 21
17.3602467567
  0
LINE
  5
521
100
AcDbEntity
  8
IMPORT_IGES
100
AcDbLine
 62
253
  6
CONTINUOUS
 10
20.115073801
 20
17.8489391745
 11
20.263160338
 21
17.9870631639
  0
LWPOLYLINE
  5
522
100
AcDbEntity
  8
IMPORT_IGES
100
AcDbPolyline
 62
253
  6
CONTINUOUS
 90
22
 70
0
 10
19.0466117857
 20
5.2178594607
 10
19.1395228432
 20
5.2277052354
 10
19.2307357198
 20
5.2440363771
 10
19.3198158292
 20
5.2666083237
 10
19.4060778911
 20
5.295047121
 10
19.4894428967
 20
5.3291241937
 10
19.5703605172
 20
5.3689511345
 10
19.6486070789
 20
5.4144715005
 10
19.7235987181
 20
5.465401432
 10
19.795159712
 20
5.5216873031
 10
19.8628702026
 20
5.5831005339
 10
19.9263598139
 20
5.6494135209
 10
19.985460409
 20
5.720623393
 10
20.0398950249
 20
5.7966852412
 10
20.0890806456
 20
5.8771041344
 10
20.1324370273
 20
5.9611462246
 10
20.1696398599
 20
6.048300531
 10
20.2004818945
 20
6.1382193288
 10
20.2247085178
 20
6.2303194344
 10
20.2421469132
 20
6.3240744312
 10
20.2526782044
 20
6.4190271339
 10
20.2562077732
 20
6.5146688992
  0
LWPOLYLINE
  5
523
100
AcDbEntity
  8
IMPORT_IGES
100
AcDbPolyline
 62
253
  6
CONTINUOUS
 90
22
 70
0
 10
18.9054762934
 20
5.3495018563
 10
18.997777333
 20
5.3592592851
 10
19.0891725123
 20
5.3755831978
 10
19.1791947031
 20
5.3983957931
 10
19.2673912506
 20
5.4275890335
 10
19.3533015222
 20
5.4630172739
 10
19.4364615932
 20
5.5044922158
 10
19.5164392352
 20
5.5517972543
 10
19.5928337196
 20
5.6046942832
 10
19.6652547376
 20
5.6629130525
 10
19.7333322864
 20
5.72615612
 10
19.7967185605
 20
5.7941003724
 10
19.8550897186
 20
5.8663986812
 10
19.9081475356
 20
5.9426816718
 10
19.9556209411
 20
6.022559614
 10
19.9972674021
 20
6.1056244156
 10
20.0328741387
 20
6.191451704
 10
20.0622592302
 20
6.2796029857
 10
20.0852725556
 20
6.3696278914
 10
20.1017965352
 20
6.4610664847
 10
20.1117467318
 20
6.553451611
 10
20.115072299
 20
6.6463112778
  0
LWPOLYLINE
  5
524
100
AcDbEntity
  8
IMPORT_IGES
100
AcDbPolyline
 62
253
  6
CONTINUOUS
 90
13
 70
0
 10
-19.2904477154
 20
3.8995165583
 10
-16.1028675951
 20
3.6973282121
 10
-12.913811976
 20
3.5318934651
 10
-9.7233184837
 20
3.403213023
 10
-6.5309927564
 20
3.3112790903
 10
-3.337302104
 20
3.2561003041
 10
-0.1435758084
 20
3.2377017582
 10
3.0501504878
 20
3.2561001161
 10
6.2438411413
 20
3.3112787144
 10
9.4361668697
 20
3.4032124591
 10
12.6266603627
 20
3.5318927133
 10
15.8157159824
 20
3.6973272726
 10
19.0032961031
 20
3.899515431
  0
LINE
  5
525
100
AcDbEntity
  8
IMPORT_IGES
100
AcDbLine
 62
7
  6
CONTINUOUS
 10
-8.0603388234
 20
7.4452698501
 11
-8.0955219919
 21
7.4624578907
  0
LINE
  5
526
100
AcDbEntity
  8
IMPORT_IGES
100
AcDbLine
 62
7
  6
CONTINUOUS
 10
-8.230018845
 20
7.3307103109
 11
-8.1840627643
 21
7.3061541741
  0
LINE
  5
527
100
AcDbEntity
  8
IMPORT_IGES
100
AcDbLine
 62
7
  6
CONTINUOUS
 10
-6.9525390096
 20
7.3197475085
 11
-6.9066704151
 21
7.2933988134
  0
LINE
  5
528
100
AcDbEntity
  8
IMPORT_IGES
100
AcDbLine
 62
7
  6
CONTINUOUS
 10
-8.9434321806
 20
8.6140384046
 11
-8.9103076856
 21
8.5941698257
  0
LINE
  5
529
100
AcDbEntity
  8
IMPORT_IGES
100
AcDbLine
 62
7
  6
CONTINUOUS
 10
-8.759682428
 20
8.7288249558
 11
-8.8031213845
 21
8.7568151377
  0
LINE
  5
52A
100
AcDbEntity
  8
IMPORT_IGES
100
AcDbLine
 62
7
  6
CONTINUOUS
 10
-7.5607155726
 20
8.174900236
 11
-7.6111342961
 21
8.2078014722
  0
LINE
  5
52B
100
AcDbEntity
  8
IMPORT_IGES
100
AcDbLine
 62
7
  6
CONTINUOUS
 10
-8.0955219919
 20
7.4624578907
 11
-8.1266270076
 21
7.4831056243
  0
LINE
  5
52C
100
AcDbEntity
  8
IMPORT_IGES
100
AcDbLine
 62
7
  6
CONTINUOUS
 10
-7.7303909415
 20
8.0548030341
 11
-7.6968623628
 21
8.0321536885
  0
LINE
  5
52D
100
AcDbEntity
  8
IMPORT_IGES
100
AcDbLine
 62
7
  6
CONTINUOUS
 10
-8.2715245549
 20
7.3592765766
 11
-8.230018845
 21
7.3307103109
  0
LINE
  5
52E
100
AcDbEntity
  8
IMPORT_IGES
100
AcDbLine
 62
7
  6
CONTINUOUS
 10
-6.8271795804
 20
7.4585026444
 11
-6.8547842383
 21
7.4786754258
  0
LINE
  5
52F
100
AcDbEntity
  8
IMPORT_IGES
100
AcDbLine
 62
7
  6
CONTINUOUS
 10
-6.3713005141
 20
8.7102637269
 11
-6.4141372149
 21
8.7426742878
  0
LINE
  5
530
100
AcDbEntity
  8
IMPORT_IGES
100
AcDbLine
 62
7
  6
CONTINUOUS
 10
-6.9951243111
 20
7.3525686846
 11
-6.9525390096
 21
7.3197475085
  0
LWPOLYLINE
  5
531
100
AcDbEntity
  8
IMPORT_IGES
100
AcDbPolyline
 62
253
  6
CONTINUOUS
 90
14
 70
0
 10
-19.3409772335
 20
19.2838537772
 10
-19.3449464306
 20
19.2871520907
 10
-19.3484507361
 20
19.2961688888
 10
-19.3515082825
 20
19.3108911147
 10
-19.3541461946
 20
19.3311712441
 10
-19.3563541754
 20
19.3568708729
 10
-19.3580944943
 20
19.387997123
 10
-19.3593664587
 20
19.4243611679
 10
-19.3601722424
 20
19.4657005233
 10
-19.3604878813
 20
19.5120335131
 10
-19.3602835476
 20
19.5630753215
 10
-19.3595739123
 20
19.6184796189
 10
-19.3584107201
 20
19.6782679056
 10
-19.3567759085
 20
19.7420343101
  0
LINE
  5
532
100
AcDbEntity
  8
IMPORT_IGES
100
AcDbLine
 62
7
  6
CONTINUOUS
 10
-8.9103076856
 20
8.5941698257
 11
-8.8811098048
 21
8.5698674902
  0
LINE
  5
533
100
AcDbEntity
  8
IMPORT_IGES
100
AcDbLine
 62
7
  6
CONTINUOUS
 10
-7.5155614206
 20
8.1363983138
 11
-7.5607155726
 21
8.174900236
  0
LINE
  5
534
100
AcDbEntity
  8
IMPORT_IGES
100
AcDbLine
 62
7
  6
CONTINUOUS
 10
-7.6968623628
 20
8.0321536885
 11
-7.6673464789
 21
8.0057465216
  0
LINE
  5
535
100
AcDbEntity
  8
IMPORT_IGES
100
AcDbLine
 62
253
  6
CONTINUOUS
 10
-19.1926457299
 20
19.1457456064
 11
-19.3407322307
 21
19.2838719263
  0
LINE
  5
536
100
AcDbEntity
  8
IMPORT_IGES
100
AcDbLine
 62
7
  6
CONTINUOUS
 10
-6.5079262813
 20
8.5888799451
 11
-6.48361565
 21
8.565314914
  0
LINE
  5
537
100
AcDbEntity
  8
IMPORT_IGES
100
AcDbLine
 62
7
  6
CONTINUOUS
 10
-6.3317609586
 20
8.6714054984
 11
-6.3713005141
 21
8.7102637269
  0
LINE
  5
538
100
AcDbEntity
  8
IMPORT_IGES
100
AcDbLine
 62
7
  6
CONTINUOUS
 10
-9.3910005472
 20
16.1440586057
 11
-9.4180033171
 21
16.1777121773
  0
LINE
  5
539
100
AcDbEntity
  8
IMPORT_IGES
100
AcDbLine
 62
7
  6
CONTINUOUS
 10
-9.6203270185
 20
16.0751877075
 11
-9.578208494
 21
16.0207369007
  0
LINE
  5
53A
100
AcDbEntity
  8
IMPORT_IGES
100
AcDbLine
 62
7
  6
CONTINUOUS
 10
-8.2741942789
 20
16.1026213216
 11
-8.2391737527
 21
16.0529970417
  0
LINE
  5
53B
100
AcDbEntity
  8
IMPORT_IGES
100
AcDbLine
 62
7
  6
CONTINUOUS
 10
-9.4180033171
 20
16.1777121773
 11
-9.4423697155
 21
16.2163847801
  0
LINE
  5
53C
100
AcDbEntity
  8
IMPORT_IGES
100
AcDbLine
 62
7
  6
CONTINUOUS
 10
-8.0537796238
 20
16.1777121773
 11
-8.0781460222
 21
16.21638478
  0
LINE
  5
53D
100
AcDbEntity
  8
IMPORT_IGES
100
AcDbLine
 62
7
  6
CONTINUOUS
 10
-8.6707037859
 20
17.4019109314
 11
-8.7078072389
 21
17.4613533579
  0
LINE
  5
53E
100
AcDbEntity
  8
IMPORT_IGES
100
AcDbLine
 62
7
  6
CONTINUOUS
 10
-6.7992729037
 20
16.1835842242
 11
-6.8223564264
 21
16.2208918035
  0
LINE
  5
53F
100
AcDbEntity
  8
IMPORT_IGES
100
AcDbLine
 62
7
  6
CONTINUOUS
 10
-8.9060111568
 20
17.3611315187
 11
-8.8845839341
 21
17.324145595
  0
LINE
  5
540
100
AcDbEntity
  8
IMPORT_IGES
100
AcDbLine
 62
7
  6
CONTINUOUS
 10
-7.5417874634
 20
17.3611315186
 11
-7.5203602408
 21
17.3241455949
  0
LINE
  5
541
100
AcDbEntity
  8
IMPORT_IGES
100
AcDbLine
 62
7
  6
CONTINUOUS
 10
-8.3026480449
 20
16.1521090454
 11
-8.2741942789
 21
16.1026213216
  0
LINE
  5
542
100
AcDbEntity
  8
IMPORT_IGES
100
AcDbLine
 62
7
  6
CONTINUOUS
 10
-7.0497347335
 20
16.1721476342
 11
-7.0166393032
 21
16.1141215052
  0
LINE
  5
543
100
AcDbEntity
  8
IMPORT_IGES
100
AcDbLine
 62
7
  6
CONTINUOUS
 10
-6.2904322378
 20
17.3943105576
 11
-6.2715360806
 21
17.359843471
  0
LINE
  5
544
100
AcDbEntity
  8
IMPORT_IGES
100
AcDbLine
 62
7
  6
CONTINUOUS
 10
-5.9755225223
 20
16.6443062926
 11
-6.0013116376
 21
16.6921500796
  0
LINE
  5
545
100
AcDbEntity
  8
IMPORT_IGES
100
AcDbLine
 62
7
  6
CONTINUOUS
 10
-6.0590076102
 20
17.4140562259
 11
-6.0850815973
 21
17.4641788203
  0
LINE
  5
546
100
AcDbEntity
  8
IMPORT_IGES
100
AcDbLine
 62
7
  6
CONTINUOUS
 10
-6.8223564264
 20
16.2208918035
 11
-6.842428907
 21
16.2616682849
  0
LINE
  5
547
100
AcDbEntity
  8
IMPORT_IGES
100
AcDbLine
 62
7
  6
CONTINUOUS
 10
-7.2761423505
 20
17.3393305174
 11
-7.3082591211
 21
17.4051341981
  0
LINE
  5
548
100
AcDbEntity
  8
IMPORT_IGES
100
AcDbLine
 62
7
  6
CONTINUOUS
 10
-6.2073471717
 20
16.5997247824
 11
-6.188531156
 21
16.5588281027
  0
LWPOLYLINE
  5
549
100
AcDbEntity
  8
IMPORT_IGES
100
AcDbPolyline
 62
253
  6
CONTINUOUS
 90
10
 70
0
 10
19.0468450526
 20
5.2178760318
 10
16.9174511897
 20
5.0776471214
 10
14.7870333406
 20
4.9538958729
 10
12.6557186862
 20
4.8466297632
 10
10.5236234643
 20
4.755854872
 10
8.3908859499
 20
4.6815773062
 10
6.257666477
 20
4.6238023464
 10
4.1241034211
 20
4.5825329447
 10
1.9903131627
 20
4.5577705783
 10
-0.1435769118
 20
4.5495160762
  0
LWPOLYLINE
  5
54A
100
AcDbEntity
  8
IMPORT_IGES
100
AcDbPolyline
 62
253
  6
CONTINUOUS
 90
6
 70
0
 10
-20.4700241845
 20
3.8904023139
 10
-20.5034429054
 20
3.8893972623
 10
-20.5299085726
 20
3.888366125
 10
-20.5492209888
 20
3.8873149534
 10
-20.5612333903
 20
3.8862493301
 10
-20.5658304206
 20
3.8851752988
  0
LINE
  5
54B
100
AcDbEntity
  8
IMPORT_IGES
100
AcDbLine
 62
253
  6
CONTINUOUS
 10
-20.3833630724
 20
3.8923110739
 11
-20.4700241845
 21
3.8904023139
  0
LINE
  5
54C
100
AcDbEntity
  8
IMPORT_IGES
100
AcDbLine
 62
253
  6
CONTINUOUS
 10
-20.2726311366
 20
3.894046562
 11
-20.3833630724
 21
3.8923110739
  0
LINE
  5
54D
100
AcDbEntity
  8
IMPORT_IGES
100
AcDbLine
 62
253
  6
CONTINUOUS
 10
-20.0709273058
 20
3.8962273867
 11
-20.2726311366
 21
3.894046562
  0
LINE
  5
54E
100
AcDbEntity
  8
IMPORT_IGES
100
AcDbLine
 62
253
  6
CONTINUOUS
 10
-19.6629763081
 20
3.8986335128
 11
-20.0709273058
 21
3.8962273867
  0
LINE
  5
54F
100
AcDbEntity
  8
IMPORT_IGES
100
AcDbLine
 62
253
  6
CONTINUOUS
 10
-19.290767862
 20
3.8993437406
 11
-19.6629763081
 21
3.8986335128
  0
LWPOLYLINE
  5
550
100
AcDbEntity
  8
IMPORT_IGES
100
AcDbPolyline
 62
253
  6
CONTINUOUS
 90
10
 70
0
 10
-0.1435769118
 20
4.5495160762
 10
-2.2774594974
 20
4.5577705028
 10
-4.4112422597
 20
4.5825326826
 10
-6.5447978135
 20
4.6238017864
 10
-8.6780097735
 20
4.6815763367
 10
-10.8107397714
 20
4.7558533811
 10
-12.9428274932
 20
4.84662764
 10
-15.074134671
 20
4.9538930071
 10
-17.2045450623
 20
5.0776434026
 10
-19.3339314872
 20
5.21787135
  0
LINE
  5
551
100
AcDbEntity
  8
IMPORT_IGES
100
AcDbLine
 62
253
  6
CONTINUOUS
 10
19.4811020093
 20
3.8981987046
 11
19.0036162303
 21
3.8993426252
  0
LINE
  5
552
100
AcDbEntity
  8
IMPORT_IGES
100
AcDbLine
 62
253
  6
CONTINUOUS
 10
19.8115923845
 20
3.8959775453
 11
19.4811020093
 21
3.8981987046
  0
LINE
  5
553
100
AcDbEntity
  8
IMPORT_IGES
100
AcDbLine
 62
253
  6
CONTINUOUS
 10
20.0077660931
 20
3.8937373315
 11
19.8115923845
 21
3.8959775453
  0
LINE
  5
554
100
AcDbEntity
  8
IMPORT_IGES
100
AcDbLine
 62
253
  6
CONTINUOUS
 10
20.1108058237
 20
3.8920338509
 11
20.0077660931
 21
3.8937373315
  0
LINE
  5
555
100
AcDbEntity
  8
IMPORT_IGES
100
AcDbLine
 62
7
  6
CONTINUOUS
 10
-8.0781553865
 20
7.2679267484
 11
-8.0145834013
 21
7.2553569227
  0
LINE
  5
556
100
AcDbEntity
  8
IMPORT_IGES
100
AcDbLine
 62
7
  6
CONTINUOUS
 10
-8.0222244467
 20
7.4323467745
 11
-7.9749756709
 21
7.4229411961
  0
LINE
  5
557
100
AcDbEntity
  8
IMPORT_IGES
100
AcDbLine
 62
7
  6
CONTINUOUS
 10
-6.8568071456
 20
7.2730653324
 11
-6.8027120737
 21
7.2585946429
  0
LINE
  5
558
100
AcDbEntity
  8
IMPORT_IGES
100
AcDbLine
 62
7
  6
CONTINUOUS
 10
-8.1333342608
 20
7.2850353968
 11
-8.0781553865
 21
7.2679267484
  0
LINE
  5
559
100
AcDbEntity
  8
IMPORT_IGES
100
AcDbLine
 62
7
  6
CONTINUOUS
 10
-8.0222244467
 20
7.4323467745
 11
-8.0603388234
 21
7.4452698501
  0
LINE
  5
55A
100
AcDbEntity
  8
IMPORT_IGES
100
AcDbLine
 62
7
  6
CONTINUOUS
 10
-6.7650885871
 20
7.4315854572
 11
-6.7972781832
 21
7.4427859918
  0
LINE
  5
55B
100
AcDbEntity
  8
IMPORT_IGES
100
AcDbLine
 62
7
  6
CONTINUOUS
 10
-7.8110547944
 20
8.0895808838
 11
-7.7687165206
 21
8.0740708697
  0
LINE
  5
55C
100
AcDbEntity
  8
IMPORT_IGES
100
AcDbLine
 62
7
  6
CONTINUOUS
 10
-8.8512027582
 20
8.7799374943
 11
-8.9000322239
 21
8.7979313075
  0
LINE
  5
55D
100
AcDbEntity
  8
IMPORT_IGES
100
AcDbLine
 62
7
  6
CONTINUOUS
 10
-7.6663048125
 20
8.2353958802
 11
-7.7227306006
 21
8.2562259584
  0
LINE
  5
55E
100
AcDbEntity
  8
IMPORT_IGES
100
AcDbLine
 62
7
  6
CONTINUOUS
 10
-6.9066704151
 20
7.2933988134
 11
-6.8568071456
 21
7.2730653324
  0
LINE
  5
55F
100
AcDbEntity
  8
IMPORT_IGES
100
AcDbLine
 62
7
  6
CONTINUOUS
 10
-8.1840627643
 20
7.3061541741
 11
-8.1333342608
 21
7.2850353968
  0
LINE
  5
560
100
AcDbEntity
  8
IMPORT_IGES
100
AcDbLine
 62
7
  6
CONTINUOUS
 10
-8.9803584828
 20
8.6295950192
 11
-8.9434321806
 21
8.6140384046
  0
LINE
  5
561
100
AcDbEntity
  8
IMPORT_IGES
100
AcDbLine
 62
7
  6
CONTINUOUS
 10
-8.8031213845
 20
8.7568151377
 11
-8.8512027582
 21
8.7799374943
  0
LINE
  5
562
100
AcDbEntity
  8
IMPORT_IGES
100
AcDbLine
 62
7
  6
CONTINUOUS
 10
-6.5655835055
 20
8.623373937
 11
-6.5352185259
 21
8.6082165299
  0
LINE
  5
563
100
AcDbEntity
  8
IMPORT_IGES
100
AcDbLine
 62
7
  6
CONTINUOUS
 10
-7.6111342961
 20
8.2078014722
 11
-7.6663048125
 21
8.2353958802
  0
LINE
  5
564
100
AcDbEntity
  8
IMPORT_IGES
100
AcDbLine
 62
7
  6
CONTINUOUS
 10
-7.7687165206
 20
8.0740708697
 11
-7.7303909415
 21
8.0548030341
  0
LINE
  5
565
100
AcDbEntity
  8
IMPORT_IGES
100
AcDbLine
 62
7
  6
CONTINUOUS
 10
-6.7972781832
 20
7.4427859918
 11
-6.8271795804
 21
7.4585026444
  0
LINE
  5
566
100
AcDbEntity
  8
IMPORT_IGES
100
AcDbLine
 62
7
  6
CONTINUOUS
 10
-6.4141372149
 20
8.7426742878
 11
-6.4606655124
 21
8.7689534152
  0
LINE
  5
567
100
AcDbEntity
  8
IMPORT_IGES
100
AcDbLine
 62
7
  6
CONTINUOUS
 10
-6.5352185259
 20
8.6082165299
 11
-6.5079262813
 21
8.5888799451
  0
LINE
  5
568
100
AcDbEntity
  8
IMPORT_IGES
100
AcDbLine
 62
7
  6
CONTINUOUS
 10
-9.3614441004
 20
16.1158722826
 11
-9.3910005472
 21
16.1440586057
  0
LINE
  5
569
100
AcDbEntity
  8
IMPORT_IGES
100
AcDbLine
 62
7
  6
CONTINUOUS
 10
-9.578208494
 20
16.0207369007
 11
-9.5323493914
 21
15.9737951575
  0
LINE
  5
56A
100
AcDbEntity
  8
IMPORT_IGES
100
AcDbLine
 62
7
  6
CONTINUOUS
 10
-8.2391737527
 20
16.0529970417
 11
-8.1986797875
 21
16.0043053848
  0
LINE
  5
56B
100
AcDbEntity
  8
IMPORT_IGES
100
AcDbLine
 62
7
  6
CONTINUOUS
 10
-6.7725735564
 20
16.1506259044
 11
-6.7992729037
 21
16.1835842242
  0
LINE
  5
56C
100
AcDbEntity
  8
IMPORT_IGES
100
AcDbLine
 62
7
  6
CONTINUOUS
 10
-7.345375281
 20
17.4639301893
 11
-7.3873251846
 21
17.5161326165
  0
LINE
  5
56D
100
AcDbEntity
  8
IMPORT_IGES
100
AcDbLine
 62
7
  6
CONTINUOUS
 10
-8.0267768539
 20
16.1440586057
 11
-8.0537796238
 21
16.1777121773
  0
LINE
  5
56E
100
AcDbEntity
  8
IMPORT_IGES
100
AcDbLine
 62
7
  6
CONTINUOUS
 10
-8.7078072389
 20
17.4613533579
 11
-8.7498244891
 21
17.5142025188
  0
LINE
  5
56F
100
AcDbEntity
  8
IMPORT_IGES
100
AcDbLine
 62
7
  6
CONTINUOUS
 10
-8.9307872403
 20
17.3932731785
 11
-8.9060111568
 21
17.3611315187
  0
LINE
  5
570
100
AcDbEntity
  8
IMPORT_IGES
100
AcDbLine
 62
7
  6
CONTINUOUS
 10
-7.566563547
 20
17.3932731785
 11
-7.5417874634
 21
17.3611315186
  0
LINE
  5
571
100
AcDbEntity
  8
IMPORT_IGES
100
AcDbLine
 62
7
  6
CONTINUOUS
 10
-7.0166393032
 20
16.1141215052
 11
-6.9764780817
 21
16.0610067207
  0
LINE
  5
572
100
AcDbEntity
  8
IMPORT_IGES
100
AcDbLine
 62
7
  6
CONTINUOUS
 10
-6.0013116376
 20
16.6921500796
 11
-6.03243032
 21
16.7349284022
  0
LINE
  5
573
100
AcDbEntity
  8
IMPORT_IGES
100
AcDbLine
 62
7
  6
CONTINUOUS
 10
-6.0850815973
 20
17.4641788203
 11
-6.1177749346
 21
17.5114624621
  0
LINE
  5
574
100
AcDbEntity
  8
IMPORT_IGES
100
AcDbLine
 62
7
  6
CONTINUOUS
 10
-6.2316178518
 20
16.6374466844
 11
-6.2073471717
 21
16.5997247824
  0
LINE
  5
575
100
AcDbEntity
  8
IMPORT_IGES
100
AcDbLine
 62
7
  6
CONTINUOUS
 10
-7.3082591211
 20
17.4051341981
 11
-7.345375281
 21
17.4639301893
  0
LINE
  5
576
100
AcDbEntity
  8
IMPORT_IGES
100
AcDbLine
 62
7
  6
CONTINUOUS
 10
-3.6294711331
 20
7.6647665557
 11
-3.6677052725
 21
7.6617725805
  0
LINE
  5
577
100
AcDbEntity
  8
IMPORT_IGES
100
AcDbLine
 62
7
  6
CONTINUOUS
 10
-7.8546438069
 20
7.4232301003
 11
-7.8919896181
 21
7.4203120447
  0
LINE
  5
578
100
AcDbEntity
  8
IMPORT_IGES
100
AcDbLine
 62
7
  6
CONTINUOUS
 10
-7.8907729305
 20
7.2520571472
 11
-7.8296286901
 21
7.2563745459
  0
LINE
  5
579
100
AcDbEntity
  8
IMPORT_IGES
100
AcDbLine
 62
7
  6
CONTINUOUS
 10
-6.6938191768
 20
7.4225527741
 11
-6.6532750044
 21
7.4251419839
  0
LINE
  5
57A
100
AcDbEntity
  8
IMPORT_IGES
100
AcDbLine
 62
7
  6
CONTINUOUS
 10
-4.2814847238
 20
7.8368543405
 11
-4.3098343585
 21
7.8352457217
  0
LINE
  5
57B
100
AcDbEntity
  8
IMPORT_IGES
100
AcDbLine
 62
7
  6
CONTINUOUS
 10
-6.682527995
 20
7.2482817753
 11
-6.6266353062
 21
7.2511610518
  0
LINE
  5
57C
100
AcDbEntity
  8
IMPORT_IGES
100
AcDbLine
 62
7
  6
CONTINUOUS
 10
-4.302399881
 20
8.0263436176
 11
-4.2629433559
 21
8.0272572236
  0
LINE
  5
57D
100
AcDbEntity
  8
IMPORT_IGES
100
AcDbLine
 62
7
  6
CONTINUOUS
 10
-7.8907774475
 20
7.2516577204
 11
-7.9568852651
 21
7.2512378576
  0
LINE
  5
57E
100
AcDbEntity
  8
IMPORT_IGES
100
AcDbLine
 62
7
  6
CONTINUOUS
 10
-7.9352529681
 20
7.4198803545
 11
-7.8914281928
 21
7.4199726369
  0
LINE
  5
57F
100
AcDbEntity
  8
IMPORT_IGES
100
AcDbLine
 62
253
  6
CONTINUOUS
 10
-20.4022276243
 20
6.6463107717
 11
-19.4022656453
 21
6.6463107717
  0
LINE
  5
580
100
AcDbEntity
  8
IMPORT_IGES
100
AcDbLine
 62
253
  6
CONTINUOUS
 10
19.1151118217
 20
6.6463108455
 11
20.1150738007
 21
6.6463108455
  0
LINE
  5
581
100
AcDbEntity
  8
IMPORT_IGES
100
AcDbLine
 62
7
  6
CONTINUOUS
 10
-8.5950759118
 20
7.2892239128
 11
-9.6422050523
 21
7.2892239128
  0
LINE
  5
582
100
AcDbEntity
  8
IMPORT_IGES
100
AcDbLine
 62
7
  6
CONTINUOUS
 10
-5.215044211
 20
7.2903376165
 11
-5.434882211
 21
7.2903376165
  0
LINE
  5
583
100
AcDbEntity
  8
IMPORT_IGES
100
AcDbLine
 62
7
  6
CONTINUOUS
 10
-9.4291837067
 20
7.4705509128
 11
-8.5950759118
 21
7.4705509128
  0
LINE
  5
584
100
AcDbEntity
  8
IMPORT_IGES
100
AcDbLine
 62
7
  6
CONTINUOUS
 10
-4.483205116
 20
7.6305459128
 11
-4.6062847442
 21
7.6305459128
  0
LINE
  5
585
100
AcDbEntity
  8
IMPORT_IGES
100
AcDbLine
 62
7
  6
CONTINUOUS
 10
-8.4248508835
 20
7.6785449128
 11
-8.2254762293
 21
7.6785449128
  0
LINE
  5
586
100
AcDbEntity
  8
IMPORT_IGES
100
AcDbLine
 62
7
  6
CONTINUOUS
 10
-3.4603036333
 20
8.0625329128
 11
-3.3365741764
 21
8.0625329128
  0
LINE
  5
587
100
AcDbEntity
  8
IMPORT_IGES
100
AcDbLine
 62
7
  6
CONTINUOUS
 10
-7.8960410484
 20
8.2766726693
 11
-7.8394270947
 21
8.2754763173
  0
LINE
  5
588
100
AcDbEntity
  8
IMPORT_IGES
100
AcDbLine
 62
7
  6
CONTINUOUS
 10
-3.6677471805
 20
7.661769668
 11
-3.7063473558
 21
7.6628352435
  0
LINE
  5
589
100
AcDbEntity
  8
IMPORT_IGES
100
AcDbLine
 62
7
  6
CONTINUOUS
 10
-3.6894227157
 20
7.8515902501
 11
-3.661932317
 21
7.8506403622
  0
LINE
  5
58A
100
AcDbEntity
  8
IMPORT_IGES
100
AcDbLine
 62
7
  6
CONTINUOUS
 10
-6.6825462612
 20
7.2476992343
 11
-6.7402926455
 21
7.249968987
  0
LINE
  5
58B
100
AcDbEntity
  8
IMPORT_IGES
100
AcDbLine
 62
7
  6
CONTINUOUS
 10
-4.2521138502
 20
7.8356436857
 11
-4.2814691175
 21
7.8368546405
  0
LINE
  5
58C
100
AcDbEntity
  8
IMPORT_IGES
100
AcDbLine
 62
7
  6
CONTINUOUS
 10
-8.2046888922
 20
7.9590689116
 11
-8.3710829118
 21
7.9686689128
  0
LINE
  5
58D
100
AcDbEntity
  8
IMPORT_IGES
100
AcDbLine
 62
7
  6
CONTINUOUS
 10
-8.0145834013
 20
7.2553569227
 11
-7.9568933132
 21
7.2518606785
  0
LINE
  5
58E
100
AcDbEntity
  8
IMPORT_IGES
100
AcDbLine
 62
7
  6
CONTINUOUS
 10
-7.900301788
 20
8.1033797426
 11
-7.8597600221
 21
8.1008903795
  0
LINE
  5
58F
100
AcDbEntity
  8
IMPORT_IGES
100
AcDbLine
 62
7
  6
CONTINUOUS
 10
-6.7306022517
 20
7.4248410513
 11
-6.6938191768
 21
7.4225527741
  0
LINE
  5
590
100
AcDbEntity
  8
IMPORT_IGES
100
AcDbLine
 62
7
  6
CONTINUOUS
 10
-7.9352537794
 20
7.4202888458
 11
-7.9749698268
 21
7.4229705539
  0
LINE
  5
591
100
AcDbEntity
  8
IMPORT_IGES
100
AcDbLine
 62
7
  6
CONTINUOUS
 10
-9.0470882551
 20
8.8208785785
 11
-8.9988551976
 21
8.8169049245
  0
LINE
  5
592
100
AcDbEntity
  8
IMPORT_IGES
100
AcDbLine
 62
7
  6
CONTINUOUS
 10
-4.2628976991
 20
8.027253621
 11
-4.2213245072
 21
8.0237827468
  0
LINE
  5
593
100
AcDbEntity
  8
IMPORT_IGES
100
AcDbLine
 62
7
  6
CONTINUOUS
 10
-7.7856584795
 20
8.2705072635
 11
-7.8444224707
 21
8.2755475089
  0
LINE
  5
594
100
AcDbEntity
  8
IMPORT_IGES
100
AcDbLine
 62
7
  6
CONTINUOUS
 10
-7.9752458476
 20
7.4235292327
 11
-7.9749215645
 21
7.4234996529
  0
LINE
  5
595
100
AcDbEntity
  8
IMPORT_IGES
100
AcDbLine
 62
7
  6
CONTINUOUS
 10
-7.8595070789
 20
8.1002631603
 11
-7.8598162971
 21
8.1002922533
  0
LINE
  5
596
100
AcDbEntity
  8
IMPORT_IGES
100
AcDbLine
 62
7
  6
CONTINUOUS
 10
-9.0673905306
 20
8.6460741841
 11
-9.0250492283
 21
8.6417581096
  0
LINE
  5
597
100
AcDbEntity
  8
IMPORT_IGES
100
AcDbLine
 62
7
  6
CONTINUOUS
 10
-3.739390069
 20
7.6672032578
 11
-3.7022577463
 21
7.6627379018
  0
LINE
  5
598
100
AcDbEntity
  8
IMPORT_IGES
100
AcDbLine
 62
7
  6
CONTINUOUS
 10
-3.7204284397
 20
7.8555728581
 11
-3.6894524868
 21
7.8515962257
  0
LINE
  5
599
100
AcDbEntity
  8
IMPORT_IGES
100
AcDbLine
 62
7
  6
CONTINUOUS
 10
-9.0248190204
 20
8.6410003152
 11
-9.025143377
 21
8.64104302
  0
LINE
  5
59A
100
AcDbEntity
  8
IMPORT_IGES
100
AcDbLine
 62
7
  6
CONTINUOUS
 10
-4.2219781733
 20
7.8316128293
 11
-4.2520857191
 21
7.8356376338
  0
LINE
  5
59B
100
AcDbEntity
  8
IMPORT_IGES
100
AcDbLine
 62
7
  6
CONTINUOUS
 10
-8.9542607416
 20
8.811421899
 11
-8.9988740316
 21
8.8176580007
  0
LINE
  5
59C
100
AcDbEntity
  8
IMPORT_IGES
100
AcDbLine
 62
7
  6
CONTINUOUS
 10
-4.1839905546
 20
8.0181051192
 11
-4.2213509598
 21
8.0234659037
  0
LINE
  5
59D
100
AcDbEntity
  8
IMPORT_IGES
100
AcDbLine
 62
7
  6
CONTINUOUS
 10
-6.7403198185
 20
7.2495128993
 11
-6.8027120737
 21
7.2585946429
  0
LINE
  5
59E
100
AcDbEntity
  8
IMPORT_IGES
100
AcDbLine
 62
7
  6
CONTINUOUS
 10
-6.6319874645
 20
8.814126665
 11
-6.5670518265
 21
8.8042952205
  0
LINE
  5
59F
100
AcDbEntity
  8
IMPORT_IGES
100
AcDbLine
 62
7
  6
CONTINUOUS
 10
-6.5990515937
 20
8.6343685891
 11
-6.6355924169
 21
8.6411840634
  0
LINE
  5
5A0
100
AcDbEntity
  8
IMPORT_IGES
100
AcDbLine
 62
7
  6
CONTINUOUS
 10
-4.2220105793
 20
7.8313704167
 11
-4.2026495495
 21
7.8277499825
  0
LINE
  5
5A1
100
AcDbEntity
  8
IMPORT_IGES
100
AcDbLine
 62
7
  6
CONTINUOUS
 10
-3.7203950439
 20
7.8558329946
 11
-3.7492330816
 21
7.8612906332
  0
LINE
  5
5A2
100
AcDbEntity
  8
IMPORT_IGES
100
AcDbLine
 62
7
  6
CONTINUOUS
 10
-4.2026495495
 20
7.8277499825
 11
-4.193567324
 21
7.825975912
  0
LINE
  5
5A3
100
AcDbEntity
  8
IMPORT_IGES
100
AcDbLine
 62
7
  6
CONTINUOUS
 10
-6.7650885871
 20
7.4315854572
 11
-6.7306022517
 21
7.4248410513
  0
LINE
  5
5A4
100
AcDbEntity
  8
IMPORT_IGES
100
AcDbLine
 62
7
  6
CONTINUOUS
 10
-7.7227306006
 20
8.2562259584
 11
-7.7856584795
 21
8.2705072635
  0
LINE
  5
5A5
100
AcDbEntity
  8
IMPORT_IGES
100
AcDbLine
 62
7
  6
CONTINUOUS
 10
-7.8597600221
 20
8.1008903795
 11
-7.8110547944
 21
8.0895808838
  0
LINE
  5
5A6
100
AcDbEntity
  8
IMPORT_IGES
100
AcDbLine
 62
7
  6
CONTINUOUS
 10
-8.9000322239
 20
8.7979313075
 11
-8.9542607416
 21
8.811421899
  0
LINE
  5
5A7
100
AcDbEntity
  8
IMPORT_IGES
100
AcDbLine
 62
7
  6
CONTINUOUS
 10
-3.7832167201
 20
7.6782777711
 11
-3.739390069
 21
7.6672032578
  0
LINE
  5
5A8
100
AcDbEntity
  8
IMPORT_IGES
100
AcDbLine
 62
7
  6
CONTINUOUS
 10
-6.5115618853
 20
8.7894544643
 11
-6.5670518265
 21
8.8042952205
  0
LINE
  5
5A9
100
AcDbEntity
  8
IMPORT_IGES
100
AcDbLine
 62
7
  6
CONTINUOUS
 10
-9.0250492283
 20
8.6417581096
 11
-8.9803584828
 21
8.6295950192
  0
LINE
  5
5AA
100
AcDbEntity
  8
IMPORT_IGES
100
AcDbLine
 62
7
  6
CONTINUOUS
 10
-4.1349811384
 20
8.0046432955
 11
-4.1839905546
 21
8.0181051192
  0
LINE
  5
5AB
100
AcDbEntity
  8
IMPORT_IGES
100
AcDbLine
 62
7
  6
CONTINUOUS
 10
-4.193567324
 20
7.825975912
 11
-4.1589957154
 21
7.815973714
  0
LINE
  5
5AC
100
AcDbEntity
  8
IMPORT_IGES
100
AcDbLine
 62
7
  6
CONTINUOUS
 10
-3.822544595
 20
7.6900346574
 11
-3.7832167201
 21
7.6782777711
  0
LINE
  5
5AD
100
AcDbEntity
  8
IMPORT_IGES
100
AcDbLine
 62
7
  6
CONTINUOUS
 10
-3.7492330816
 20
7.8612906332
 11
-3.7842839215
 21
7.8724543794
  0
LINE
  5
5AE
100
AcDbEntity
  8
IMPORT_IGES
100
AcDbLine
 62
7
  6
CONTINUOUS
 10
-6.5990515937
 20
8.6343685891
 11
-6.5655835055
 21
8.623373937
  0
LINE
  5
5AF
100
AcDbEntity
  8
IMPORT_IGES
100
AcDbLine
 62
7
  6
CONTINUOUS
 10
-4.1589957154
 20
7.815973714
 11
-4.1265583497
 21
7.8050530481
  0
LINE
  5
5B0
100
AcDbEntity
  8
IMPORT_IGES
100
AcDbLine
 62
7
  6
CONTINUOUS
 10
-3.8632515268
 20
7.7038549408
 11
-3.822544595
 21
7.6900346574
  0
LINE
  5
5B1
100
AcDbEntity
  8
IMPORT_IGES
100
AcDbLine
 62
7
  6
CONTINUOUS
 10
-3.7842839215
 20
7.8724543794
 11
-3.8177441159
 21
7.8838262059
  0
LINE
  5
5B2
100
AcDbEntity
  8
IMPORT_IGES
100
AcDbLine
 62
7
  6
CONTINUOUS
 10
-4.0901584859
 20
7.9889703374
 11
-4.1349811384
 21
8.0046432955
  0
LINE
  5
5B3
100
AcDbEntity
  8
IMPORT_IGES
100
AcDbLine
 62
7
  6
CONTINUOUS
 10
-3.8177441159
 20
7.8838262059
 11
-3.8521321563
 21
7.8964201768
  0
LINE
  5
5B4
100
AcDbEntity
  8
IMPORT_IGES
100
AcDbLine
 62
7
  6
CONTINUOUS
 10
-4.0465033819
 20
7.9728587914
 11
-4.0901584859
 21
7.9889703374
  0
LINE
  5
5B5
100
AcDbEntity
  8
IMPORT_IGES
100
AcDbLine
 62
7
  6
CONTINUOUS
 10
-4.0045873444
 20
7.9569943311
 11
-4.0465033819
 21
7.9728587914
  0
LINE
  5
5B6
100
AcDbEntity
  8
IMPORT_IGES
100
AcDbLine
 62
7
  6
CONTINUOUS
 10
-4.0586121245
 20
7.7786185977
 11
-3.8632515268
 21
7.7038549408
  0
LINE
  5
5B7
100
AcDbEntity
  8
IMPORT_IGES
100
AcDbLine
 62
7
  6
CONTINUOUS
 10
-4.1265583497
 20
7.8050530481
 11
-4.0586121245
 21
7.7786185977
  0
LINE
  5
5B8
100
AcDbEntity
  8
IMPORT_IGES
100
AcDbLine
 62
7
  6
CONTINUOUS
 10
-3.8521321563
 20
7.8964201768
 11
-4.0045873444
 21
7.9569943311
  0
LINE
  5
5B9
100
AcDbEntity
  8
IMPORT_IGES
100
AcDbLine
 62
7
  6
CONTINUOUS
 10
-6.4606655124
 20
8.7689534152
 11
-6.5115618853
 21
8.7894544643
  0
LINE
  5
5BA
100
AcDbEntity
  8
IMPORT_IGES
100
AcDbLine
 62
7
  6
CONTINUOUS
 10
-9.3292512821
 20
16.0927049907
 11
-9.3614441004
 21
16.1158722826
  0
LINE
  5
5BB
100
AcDbEntity
  8
IMPORT_IGES
100
AcDbLine
 62
7
  6
CONTINUOUS
 10
-9.5323493914
 20
15.9737951575
 11
-9.4834117398
 21
15.9349206764
  0
LINE
  5
5BC
100
AcDbEntity
  8
IMPORT_IGES
100
AcDbLine
 62
7
  6
CONTINUOUS
 10
-6.7419252173
 20
16.1220792226
 11
-6.7725735564
 21
16.1506259044
  0
LINE
  5
5BD
100
AcDbEntity
  8
IMPORT_IGES
100
AcDbLine
 62
7
  6
CONTINUOUS
 10
-8.9590594109
 20
17.4200087998
 11
-8.9307872403
 21
17.3932731785
  0
LINE
  5
5BE
100
AcDbEntity
  8
IMPORT_IGES
100
AcDbLine
 62
7
  6
CONTINUOUS
 10
-7.5948357176
 20
17.4200087998
 11
-7.566563547
 21
17.3932731785
  0
LINE
  5
5BF
100
AcDbEntity
  8
IMPORT_IGES
100
AcDbLine
 62
7
  6
CONTINUOUS
 10
-7.9972204071
 20
16.1158722826
 11
-8.0267768539
 21
16.1440586057
  0
LINE
  5
5C0
100
AcDbEntity
  8
IMPORT_IGES
100
AcDbLine
 62
7
  6
CONTINUOUS
 10
-8.1986797875
 20
16.0043053848
 11
-8.1539616665
 21
15.9616055182
  0
LINE
  5
5C1
100
AcDbEntity
  8
IMPORT_IGES
100
AcDbLine
 62
7
  6
CONTINUOUS
 10
-7.3873251846
 20
17.5161326165
 11
-7.43353196
 21
17.5612072498
  0
LINE
  5
5C2
100
AcDbEntity
  8
IMPORT_IGES
100
AcDbLine
 62
7
  6
CONTINUOUS
 10
-8.7498244891
 20
17.5142025188
 11
-8.7961505481
 21
17.5598346388
  0
LINE
  5
5C3
100
AcDbEntity
  8
IMPORT_IGES
100
AcDbLine
 62
7
  6
CONTINUOUS
 10
-6.9764780817
 20
16.0610067207
 11
-6.9308543994
 21
16.0138784607
  0
LINE
  5
5C4
100
AcDbEntity
  8
IMPORT_IGES
100
AcDbLine
 62
7
  6
CONTINUOUS
 10
-6.03243032
 20
16.7349284022
 11
-6.0690658157
 21
16.7728252753
  0
LINE
  5
5C5
100
AcDbEntity
  8
IMPORT_IGES
100
AcDbLine
 62
7
  6
CONTINUOUS
 10
-6.1177749346
 20
17.5114624621
 11
-6.156890276
 21
17.5542999912
  0
LINE
  5
5C6
100
AcDbEntity
  8
IMPORT_IGES
100
AcDbLine
 62
7
  6
CONTINUOUS
 10
-6.2602608807
 20
16.6711307498
 11
-6.2316178518
 21
16.6374466844
  0
LINE
  5
5C7
100
AcDbEntity
  8
IMPORT_IGES
100
AcDbLine
 62
7
  6
CONTINUOUS
 10
-6.3150216187
 20
17.4258936776
 11
-6.2904322378
 21
17.3943105576
  0
LWPOLYLINE
  5
5C8
100
AcDbEntity
  8
IMPORT_IGES
100
AcDbPolyline
 62
7
  6
CONTINUOUS
 90
10
 70
0
 10
-25.8045724225
 20
-19.7045462589
 10
-25.7858200636
 20
-19.6960730607
 10
-25.7670785801
 20
-19.6681106251
 10
-25.7483527181
 20
-19.6206677782
 10
-25.7296407078
 20
-19.5537597681
 10
-25.7109498085
 20
-19.4674074636
 10
-25.6922965548
 20
-19.3616390129
 10
-25.6736859071
 20
-19.2364901165
 10
-25.6551110123
 20
-19.092002349
 10
-25.6365689266
 20
-18.928223515
  0
LINE
  5
5C9
100
AcDbEntity
  8
IMPORT_IGES
100
AcDbLine
 62
7
  6
CONTINUOUS
 10
-7.9997412816
 20
8.2650931208
 11
-8.0477684484
 21
8.2516925345
  0
LINE
  5
5CA
100
AcDbEntity
  8
IMPORT_IGES
100
AcDbLine
 62
7
  6
CONTINUOUS
 10
-4.3340181074
 20
8.0224299123
 11
-4.3738991273
 21
8.0113098771
  0
LINE
  5
5CB
100
AcDbEntity
  8
IMPORT_IGES
100
AcDbLine
 62
7
  6
CONTINUOUS
 10
-7.7663667561
 20
7.267710343
 11
-7.7080434053
 21
7.2833432328
  0
LINE
  5
5CC
100
AcDbEntity
  8
IMPORT_IGES
100
AcDbLine
 62
7
  6
CONTINUOUS
 10
-8.0321802655
 20
8.0872943618
 11
-7.9864917502
 21
8.0986867798
  0
LINE
  5
5CD
100
AcDbEntity
  8
IMPORT_IGES
100
AcDbLine
 62
7
  6
CONTINUOUS
 10
-3.6090412383
 20
7.8594696542
 11
-3.6308398536
 21
7.8541076923
  0
LINE
  5
5CE
100
AcDbEntity
  8
IMPORT_IGES
100
AcDbLine
 62
7
  6
CONTINUOUS
 10
-7.8085434242
 20
7.4327382318
 11
-7.8546438069
 21
7.4232301003
  0
LINE
  5
5CF
100
AcDbEntity
  8
IMPORT_IGES
100
AcDbLine
 62
7
  6
CONTINUOUS
 10
-3.5982488842
 20
7.6711392073
 11
-3.5985734173
 21
7.6710730424
  0
LINE
  5
5D0
100
AcDbEntity
  8
IMPORT_IGES
100
AcDbLine
 62
7
  6
CONTINUOUS
 10
-6.6532750044
 20
7.4251419839
 11
-6.6151139708
 21
7.4328568403
  0
LINE
  5
5D1
100
AcDbEntity
  8
IMPORT_IGES
100
AcDbLine
 62
7
  6
CONTINUOUS
 10
-9.1477814124
 20
8.6442564976
 11
-9.1934074259
 21
8.6351997606
  0
LINE
  5
5D2
100
AcDbEntity
  8
IMPORT_IGES
100
AcDbLine
 62
7
  6
CONTINUOUS
 10
-6.6266353062
 20
7.2511610518
 11
-6.5642568165
 21
7.2624785909
  0
LINE
  5
5D3
100
AcDbEntity
  8
IMPORT_IGES
100
AcDbLine
 62
7
  6
CONTINUOUS
 10
-7.8296286901
 20
7.2563745459
 11
-7.7663667561
 21
7.267710343
  0
LINE
  5
5D4
100
AcDbEntity
  8
IMPORT_IGES
100
AcDbLine
 62
7
  6
CONTINUOUS
 10
-6.7145837752
 20
8.6419712947
 11
-6.7512685577
 21
8.6357849392
  0
LINE
  5
5D5
100
AcDbEntity
  8
IMPORT_IGES
100
AcDbLine
 62
7
  6
CONTINUOUS
 10
-3.6294993937
 20
7.6651274543
 11
-3.5984077877
 21
7.6702606436
  0
LINE
  5
5D6
100
AcDbEntity
  8
IMPORT_IGES
100
AcDbLine
 62
7
  6
CONTINUOUS
 10
-7.9997412816
 20
8.2650931208
 11
-7.9439778485
 21
8.2742459684
  0
LINE
  5
5D7
100
AcDbEntity
  8
IMPORT_IGES
100
AcDbLine
 62
7
  6
CONTINUOUS
 10
-6.7472827193
 20
8.8139634348
 11
-6.8094543849
 21
8.803768739
  0
LINE
  5
5D8
100
AcDbEntity
  8
IMPORT_IGES
100
AcDbLine
 62
7
  6
CONTINUOUS
 10
-4.3320459081
 20
7.8313906669
 11
-4.3050547858
 21
7.8357378773
  0
LINE
  5
5D9
100
AcDbEntity
  8
IMPORT_IGES
100
AcDbLine
 62
7
  6
CONTINUOUS
 10
-9.1800209897
 20
8.8180021766
 11
-9.2181083121
 21
8.812338093
  0
LINE
  5
5DA
100
AcDbEntity
  8
IMPORT_IGES
100
AcDbLine
 62
7
  6
CONTINUOUS
 10
-4.3342488846
 20
8.0217353572
 11
-4.3339244671
 21
8.0217822631
  0
LINE
  5
5DB
100
AcDbEntity
  8
IMPORT_IGES
100
AcDbLine
 62
7
  6
CONTINUOUS
 10
-4.2987486006
 20
8.0263827229
 11
-4.3125357762
 21
8.024758905
  0
LINE
  5
5DC
100
AcDbEntity
  8
IMPORT_IGES
100
AcDbLine
 62
7
  6
CONTINUOUS
 10
-4.3125357762
 20
8.024758905
 11
-4.3340181074
 21
8.0224299123
  0
LINE
  5
5DD
100
AcDbEntity
  8
IMPORT_IGES
100
AcDbLine
 62
7
  6
CONTINUOUS
 10
-7.9864917502
 20
8.0986867798
 11
-7.9429047125
 21
8.1031467997
  0
LINE
  5
5DE
100
AcDbEntity
  8
IMPORT_IGES
100
AcDbLine
 62
7
  6
CONTINUOUS
 10
-3.6308398536
 20
7.8541076923
 11
-3.6571837999
 21
7.8514207773
  0
LINE
  5
5DF
100
AcDbEntity
  8
IMPORT_IGES
100
AcDbLine
 62
7
  6
CONTINUOUS
 10
-9.1800291069
 20
8.8172715729
 11
-9.1374968538
 21
8.8210095062
  0
LINE
  5
5E0
100
AcDbEntity
  8
IMPORT_IGES
100
AcDbLine
 62
7
  6
CONTINUOUS
 10
-9.1477652234
 20
8.6441749407
 11
-9.1088733363
 21
8.6462751225
  0
LINE
  5
5E1
100
AcDbEntity
  8
IMPORT_IGES
100
AcDbLine
 62
7
  6
CONTINUOUS
 10
-6.6752059749
 20
8.64382036
 11
-6.7145837752
 21
8.6419712947
  0
LINE
  5
5E2
100
AcDbEntity
  8
IMPORT_IGES
100
AcDbLine
 62
7
  6
CONTINUOUS
 10
-6.6911364042
 20
8.8160696591
 11
-6.7472827193
 21
8.8139634348
  0
LINE
  5
5E3
100
AcDbEntity
  8
IMPORT_IGES
100
AcDbLine
 62
7
  6
CONTINUOUS
 10
-7.8960455671
 20
8.2759391844
 11
-7.9439677212
 21
8.2741842683
  0
LINE
  5
5E4
100
AcDbEntity
  8
IMPORT_IGES
100
AcDbLine
 62
7
  6
CONTINUOUS
 10
-9.137478171
 20
8.8210115976
 11
-9.0930854783
 21
8.8224215594
  0
LINE
  5
5E5
100
AcDbEntity
  8
IMPORT_IGES
100
AcDbLine
 62
7
  6
CONTINUOUS
 10
-7.9003137763
 20
8.1041024904
 11
-7.9472619323
 21
8.1031135046
  0
LINE
  5
5E6
100
AcDbEntity
  8
IMPORT_IGES
100
AcDbLine
 62
7
  6
CONTINUOUS
 10
-9.4105373669
 20
8.2747929128
 11
-9.6059369609
 21
8.2747929128
  0
LINE
  5
5E7
100
AcDbEntity
  8
IMPORT_IGES
100
AcDbLine
 62
7
  6
CONTINUOUS
 10
-7.4612449118
 20
8.6054489128
 11
-8.1108249118
 21
8.6054489128
  0
LINE
  5
5E8
100
AcDbEntity
  8
IMPORT_IGES
100
AcDbLine
 62
7
  6
CONTINUOUS
 10
-8.2547699118
 20
8.7910429128
 11
-7.4612449118
 21
8.7910429128
  0
LINE
  5
5E9
100
AcDbEntity
  8
IMPORT_IGES
100
AcDbLine
 62
7
  6
CONTINUOUS
 10
-6.0065836242
 20
8.8561079303
 11
-5.7764978717
 21
8.8561079303
  0
LINE
  5
5EA
100
AcDbEntity
  8
IMPORT_IGES
100
AcDbLine
 62
7
  6
CONTINUOUS
 10
-4.881098928
 20
8.8561079303
 11
-4.6510131755
 21
8.8561079303
  0
LINE
  5
5EB
100
AcDbEntity
  8
IMPORT_IGES
100
AcDbLine
 62
7
  6
CONTINUOUS
 10
-9.0630502561
 20
8.6460368531
 11
-9.1088692114
 21
8.6469231068
  0
LINE
  5
5EC
100
AcDbEntity
  8
IMPORT_IGES
100
AcDbLine
 62
7
  6
CONTINUOUS
 10
-9.0930750398
 20
8.8224215363
 11
-9.0471063037
 21
8.8208804829
  0
LINE
  5
5ED
100
AcDbEntity
  8
IMPORT_IGES
100
AcDbLine
 62
7
  6
CONTINUOUS
 10
-6.6319963239
 20
8.8140681492
 11
-6.6911364042
 21
8.8160696591
  0
LINE
  5
5EE
100
AcDbEntity
  8
IMPORT_IGES
100
AcDbLine
 62
7
  6
CONTINUOUS
 10
-6.6355924169
 20
8.6411840634
 11
-6.6752059749
 21
8.64382036
  0
LWPOLYLINE
  5
5EF
100
AcDbEntity
  8
IMPORT_IGES
100
AcDbPolyline
 62
253
  6
CONTINUOUS
 90
7
 70
0
 10
20.2786765955
 20
3.8851741134
 10
20.2743038844
 20
3.8862189209
 10
20.263003044
 20
3.8872496373
 10
20.2450041377
 20
3.8882609498
 10
20.2206573837
 20
3.8892447195
 10
20.190202918
 20
3.8901995977
 10
20.1108058237
 20
3.8920338509
  0
LWPOLYLINE
  5
5F0
100
AcDbEntity
  8
IMPORT_IGES
100
AcDbPolyline
 62
253
  6
CONTINUOUS
 90
10
 70
0
 10
-26.6418314053
 20
20.4131231964
 10
-26.623355286
 20
20.4050275533
 10
-26.6048969144
 20
20.3777301411
 10
-26.5864562905
 20
20.3312309597
 10
-26.5680272981
 20
20.2655017907
 10
-26.5496160535
 20
20.1805708526
 10
-26.5312409053
 20
20.0765228005
 10
-26.5129079698
 20
19.9533858527
 10
-26.4946111308
 20
19.8111317908
 10
-26.4763503882
 20
19.6497606149
  0
LINE
  5
5F1
100
AcDbEntity
  8
IMPORT_IGES
100
AcDbLine
 62
7
  6
CONTINUOUS
 10
-9.294452866
 20
16.0746714723
 11
-9.3292512821
 21
16.0927049907
  0
LINE
  5
5F2
100
AcDbEntity
  8
IMPORT_IGES
100
AcDbLine
 62
7
  6
CONTINUOUS
 10
-8.105525698
 20
15.9263885561
 11
-8.0528655737
 21
15.8971633841
  0
LINE
  5
5F3
100
AcDbEntity
  8
IMPORT_IGES
100
AcDbLine
 62
7
  6
CONTINUOUS
 10
-9.4834117398
 20
15.9349206764
 11
-9.4307335101
 21
15.9035552589
  0
LINE
  5
5F4
100
AcDbEntity
  8
IMPORT_IGES
100
AcDbLine
 62
7
  6
CONTINUOUS
 10
-6.8800963186
 20
15.9726734294
 11
-6.823875777
 21
15.9374549226
  0
LINE
  5
5F5
100
AcDbEntity
  8
IMPORT_IGES
100
AcDbLine
 62
7
  6
CONTINUOUS
 10
-6.3306962536
 20
16.7267542226
 11
-6.2932923928
 21
16.7009614045
  0
LINE
  5
5F6
100
AcDbEntity
  8
IMPORT_IGES
100
AcDbLine
 62
7
  6
CONTINUOUS
 10
-8.9906804423
 20
17.4419001572
 11
-8.9590594109
 21
17.4200087998
  0
LINE
  5
5F7
100
AcDbEntity
  8
IMPORT_IGES
100
AcDbLine
 62
7
  6
CONTINUOUS
 10
-7.626456749
 20
17.4419001572
 11
-7.5948357176
 21
17.4200087998
  0
LINE
  5
5F8
100
AcDbEntity
  8
IMPORT_IGES
100
AcDbLine
 62
7
  6
CONTINUOUS
 10
-6.7076610535
 20
16.0978818002
 11
-6.7419252173
 21
16.1220792226
  0
LINE
  5
5F9
100
AcDbEntity
  8
IMPORT_IGES
100
AcDbLine
 62
7
  6
CONTINUOUS
 10
-7.9650275888
 20
16.0927049907
 11
-7.9972204071
 21
16.1158722826
  0
LINE
  5
5FA
100
AcDbEntity
  8
IMPORT_IGES
100
AcDbLine
 62
7
  6
CONTINUOUS
 10
-8.1539616665
 20
15.9616055182
 11
-8.105525698
 21
15.9263885561
  0
LINE
  5
5FB
100
AcDbEntity
  8
IMPORT_IGES
100
AcDbLine
 62
7
  6
CONTINUOUS
 10
-7.43353196
 20
17.5612072498
 11
-7.4835042732
 21
17.5988301226
  0
LINE
  5
5FC
100
AcDbEntity
  8
IMPORT_IGES
100
AcDbLine
 62
7
  6
CONTINUOUS
 10
-8.7961505481
 20
17.5598346388
 11
-8.8462900813
 21
17.597892904
  0
LINE
  5
5FD
100
AcDbEntity
  8
IMPORT_IGES
100
AcDbLine
 62
7
  6
CONTINUOUS
 10
-6.0690658157
 20
16.7728252753
 11
-6.1108926284
 21
16.8054860516
  0
LINE
  5
5FE
100
AcDbEntity
  8
IMPORT_IGES
100
AcDbLine
 62
7
  6
CONTINUOUS
 10
-6.9308543994
 20
16.0138784607
 11
-6.8800963186
 21
15.9726734294
  0
LINE
  5
5FF
100
AcDbEntity
  8
IMPORT_IGES
100
AcDbLine
 62
7
  6
CONTINUOUS
 10
-6.156890276
 20
17.5542999912
 11
-6.2025927606
 21
17.592727474
  0
LINE
  5
600
100
AcDbEntity
  8
IMPORT_IGES
100
AcDbLine
 62
7
  6
CONTINUOUS
 10
-6.2932923928
 20
16.7009614045
 11
-6.2602608807
 21
16.6711307498
  0
LINE
  5
601
100
AcDbEntity
  8
IMPORT_IGES
100
AcDbLine
 62
7
  6
CONTINUOUS
 10
-6.3447886555
 20
17.4544563839
 11
-6.3150216187
 21
17.4258936776
  0
LINE
  5
602
100
AcDbEntity
  8
IMPORT_IGES
100
AcDbLine
 62
7
  6
CONTINUOUS
 10
-9.2596552608
 20
8.8031256874
 11
-9.2963013616
 21
8.7927031876
  0
LINE
  5
603
100
AcDbEntity
  8
IMPORT_IGES
100
AcDbLine
 62
7
  6
CONTINUOUS
 10
-9.2181083121
 20
8.812338093
 11
-9.2596552608
 21
8.8031256874
  0
LINE
  5
604
100
AcDbEntity
  8
IMPORT_IGES
100
AcDbLine
 62
7
  6
CONTINUOUS
 10
16.9564230882
 20
12.2476250516
 11
16.8563203281
 21
12.2476250516
  0
LINE
  5
605
100
AcDbEntity
  8
IMPORT_IGES
100
AcDbLine
 62
7
  6
CONTINUOUS
 10
8.8565257988
 20
12.2476249128
 11
8.7564230882
 21
12.2476249128
  0
LINE
  5
606
100
AcDbEntity
  8
IMPORT_IGES
100
AcDbLine
 62
7
  6
CONTINUOUS
 10
3.9564230882
 20
12.2476249128
 11
3.8563203418
 21
12.2476249128
  0
LINE
  5
607
100
AcDbEntity
  8
IMPORT_IGES
100
AcDbLine
 62
7
  6
CONTINUOUS
 10
-4.1434742012
 20
12.2476249128
 11
-4.2435769118
 21
12.2476249128
  0
LINE
  5
608
100
AcDbEntity
  8
IMPORT_IGES
100
AcDbLine
 62
7
  6
CONTINUOUS
 10
-9.0435769118
 20
12.2476249128
 11
-9.1436796582
 21
12.2476249128
  0
LINE
  5
609
100
AcDbEntity
  8
IMPORT_IGES
100
AcDbLine
 62
7
  6
CONTINUOUS
 10
-17.1434742148
 20
12.247624775
 11
-17.2435769118
 21
12.247624775
  0
LINE
  5
60A
100
AcDbEntity
  8
IMPORT_IGES
100
AcDbLine
 62
7
  6
CONTINUOUS
 10
-9.25705911
 20
16.061809975
 11
-9.294452866
 21
16.0746714723
  0
LINE
  5
60B
100
AcDbEntity
  8
IMPORT_IGES
100
AcDbLine
 62
7
  6
CONTINUOUS
 10
-7.8928354167
 20
16.061809975
 11
-7.9302291727
 21
16.0746714723
  0
LINE
  5
60C
100
AcDbEntity
  8
IMPORT_IGES
100
AcDbLine
 62
7
  6
CONTINUOUS
 10
-8.0528655737
 20
15.8971633841
 11
-7.9957116514
 21
15.8745158269
  0
LINE
  5
60D
100
AcDbEntity
  8
IMPORT_IGES
100
AcDbLine
 62
7
  6
CONTINUOUS
 10
-9.4307335101
 20
15.9035552589
 11
-9.3732870873
 21
15.8790948011
  0
LINE
  5
60E
100
AcDbEntity
  8
IMPORT_IGES
100
AcDbLine
 62
7
  6
CONTINUOUS
 10
-6.823875777
 20
15.9374549226
 11
-6.7628119191
 21
15.9094880082
  0
LINE
  5
60F
100
AcDbEntity
  8
IMPORT_IGES
100
AcDbLine
 62
7
  6
CONTINUOUS
 10
-9.025846046
 20
17.4590688597
 11
-8.9906804423
 21
17.4419001572
  0
LINE
  5
610
100
AcDbEntity
  8
IMPORT_IGES
100
AcDbLine
 62
7
  6
CONTINUOUS
 10
-7.6616223527
 20
17.4590688597
 11
-7.626456749
 21
17.4419001572
  0
LINE
  5
611
100
AcDbEntity
  8
IMPORT_IGES
100
AcDbLine
 62
7
  6
CONTINUOUS
 10
-6.3713417445
 20
16.7470928669
 11
-6.3306962536
 21
16.7267542226
  0
LINE
  5
612
100
AcDbEntity
  8
IMPORT_IGES
100
AcDbLine
 62
7
  6
CONTINUOUS
 10
-6.6701757846
 20
16.0787268596
 11
-6.7076610535
 21
16.0978818002
  0
LINE
  5
613
100
AcDbEntity
  8
IMPORT_IGES
100
AcDbLine
 62
7
  6
CONTINUOUS
 10
-7.9302291727
 20
16.0746714723
 11
-7.9650275888
 21
16.0927049907
  0
LINE
  5
614
100
AcDbEntity
  8
IMPORT_IGES
100
AcDbLine
 62
7
  6
CONTINUOUS
 10
-7.4835042732
 20
17.5988301226
 11
-7.5377334584
 21
17.6293252017
  0
LINE
  5
615
100
AcDbEntity
  8
IMPORT_IGES
100
AcDbLine
 62
7
  6
CONTINUOUS
 10
-8.8462900813
 20
17.597892904
 11
-8.9007384232
 21
17.6287341284
  0
LINE
  5
616
100
AcDbEntity
  8
IMPORT_IGES
100
AcDbLine
 62
7
  6
CONTINUOUS
 10
-6.1108926284
 20
16.8054860516
 11
-6.1578022594
 21
16.8327925153
  0
LINE
  5
617
100
AcDbEntity
  8
IMPORT_IGES
100
AcDbLine
 62
7
  6
CONTINUOUS
 10
-6.2025927606
 20
17.592727474
 11
-6.2547172494
 21
17.6267088442
  0
LINE
  5
618
100
AcDbEntity
  8
IMPORT_IGES
100
AcDbLine
 62
7
  6
CONTINUOUS
 10
-6.3781246134
 20
17.4780271851
 11
-6.3447886555
 21
17.4544563839
  0
LINE
  5
619
100
AcDbEntity
  8
IMPORT_IGES
100
AcDbLine
 62
253
  6
CONTINUOUS
 10
26.3564230882
 20
13.8476249128
 11
26.2892210882
 21
13.8476249128
  0
LINE
  5
61A
100
AcDbEntity
  8
IMPORT_IGES
100
AcDbLine
 62
253
  6
CONTINUOUS
 10
-26.5763746523
 20
13.8476249128
 11
-26.6435769118
 21
13.8476249128
  0
LINE
  5
61B
100
AcDbEntity
  8
IMPORT_IGES
100
AcDbLine
 62
7
  6
CONTINUOUS
 10
-7.9339740505
 20
15.8586411592
 11
-7.8601567205
 21
15.848154001
  0
LINE
  5
61C
100
AcDbEntity
  8
IMPORT_IGES
100
AcDbLine
 62
7
  6
CONTINUOUS
 10
-9.3107299331
 20
15.8613379348
 11
-9.2358678358
 21
15.848885968
  0
LINE
  5
61D
100
AcDbEntity
  8
IMPORT_IGES
100
AcDbLine
 62
7
  6
CONTINUOUS
 10
-9.2170597561
 20
16.0540822512
 11
-9.25705911
 21
16.061809975
  0
LINE
  5
61E
100
AcDbEntity
  8
IMPORT_IGES
100
AcDbLine
 62
7
  6
CONTINUOUS
 10
-7.8528360628
 20
16.0540822512
 11
-7.8928354167
 21
16.061809975
  0
LINE
  5
61F
100
AcDbEntity
  8
IMPORT_IGES
100
AcDbLine
 62
7
  6
CONTINUOUS
 10
-6.6960742689
 20
15.8890056921
 11
-6.6170340589
 21
15.8737222842
  0
LINE
  5
620
100
AcDbEntity
  8
IMPORT_IGES
100
AcDbLine
 62
7
  6
CONTINUOUS
 10
-6.5768935312
 20
16.0539448079
 11
-6.6289179877
 21
16.0646274604
  0
LINE
  5
621
100
AcDbEntity
  8
IMPORT_IGES
100
AcDbLine
 62
7
  6
CONTINUOUS
 10
-7.9957116514
 20
15.8745158269
 11
-7.9339740505
 21
15.8586411592
  0
LINE
  5
622
100
AcDbEntity
  8
IMPORT_IGES
100
AcDbLine
 62
7
  6
CONTINUOUS
 10
-8.960376589
 20
17.652804979
 11
-9.0254982505
 21
17.6702543448
  0
LINE
  5
623
100
AcDbEntity
  8
IMPORT_IGES
100
AcDbLine
 62
7
  6
CONTINUOUS
 10
-9.3732870873
 20
15.8790948011
 11
-9.3107299331
 21
15.8613379348
  0
LINE
  5
624
100
AcDbEntity
  8
IMPORT_IGES
100
AcDbLine
 62
7
  6
CONTINUOUS
 10
-6.2099032073
 20
16.8548628822
 11
-6.2671954722
 21
16.8716971523
  0
LINE
  5
625
100
AcDbEntity
  8
IMPORT_IGES
100
AcDbLine
 62
7
  6
CONTINUOUS
 10
-6.7628119191
 20
15.9094880082
 11
-6.6960742689
 21
15.8890056921
  0
LINE
  5
626
100
AcDbEntity
  8
IMPORT_IGES
100
AcDbLine
 62
7
  6
CONTINUOUS
 10
-9.0646214591
 20
17.4715554434
 11
-9.025846046
 21
17.4590688597
  0
LINE
  5
627
100
AcDbEntity
  8
IMPORT_IGES
100
AcDbLine
 62
7
  6
CONTINUOUS
 10
-7.7003977658
 20
17.4715554434
 11
-7.6616223527
 21
17.4590688597
  0
LINE
  5
628
100
AcDbEntity
  8
IMPORT_IGES
100
AcDbLine
 62
7
  6
CONTINUOUS
 10
-6.4581818022
 20
17.5100018565
 11
-6.4150768627
 21
17.4961057664
  0
LINE
  5
629
100
AcDbEntity
  8
IMPORT_IGES
100
AcDbLine
 62
7
  6
CONTINUOUS
 10
-6.4152065297
 20
16.7615863264
 11
-6.3713417445
 21
16.7470928669
  0
LINE
  5
62A
100
AcDbEntity
  8
IMPORT_IGES
100
AcDbLine
 62
7
  6
CONTINUOUS
 10
-6.3125709798
 20
17.6545287431
 11
-6.3778169904
 21
17.6761818785
  0
LINE
  5
62B
100
AcDbEntity
  8
IMPORT_IGES
100
AcDbLine
 62
7
  6
CONTINUOUS
 10
-6.6289179877
 20
16.0646274604
 11
-6.6701757846
 21
16.0787268596
  0
LINE
  5
62C
100
AcDbEntity
  8
IMPORT_IGES
100
AcDbLine
 62
7
  6
CONTINUOUS
 10
-7.5377334584
 20
17.6293252017
 11
-7.5971166458
 21
17.6531301574
  0
LINE
  5
62D
100
AcDbEntity
  8
IMPORT_IGES
100
AcDbLine
 62
7
  6
CONTINUOUS
 10
-8.9007384232
 20
17.6287341284
 11
-8.960376589
 21
17.652804979
  0
LINE
  5
62E
100
AcDbEntity
  8
IMPORT_IGES
100
AcDbLine
 62
7
  6
CONTINUOUS
 10
-6.1578022594
 20
16.8327925153
 11
-6.2099032073
 21
16.8548628822
  0
LINE
  5
62F
100
AcDbEntity
  8
IMPORT_IGES
100
AcDbLine
 62
7
  6
CONTINUOUS
 10
-6.2547172494
 20
17.6267088442
 11
-6.3125709798
 21
17.6545287431
  0
LINE
  5
630
100
AcDbEntity
  8
IMPORT_IGES
100
AcDbLine
 62
7
  6
CONTINUOUS
 10
-6.4150768627
 20
17.4961057664
 11
-6.3781246134
 21
17.4780271851
  0
LWPOLYLINE
  5
631
100
AcDbEntity
  8
IMPORT_IGES
100
AcDbPolyline
 62
253
  6
CONTINUOUS
 90
25
 70
0
 10
19.1474420916
 20
-19.3733690025
 10
19.1559914446
 20
-19.40690264
 10
19.1735838266
 20
-19.4376262581
 10
19.2002303222
 20
-19.4655854045
 10
19.2361315479
 20
-19.4906738183
 10
19.2811065302
 20
-19.5130818146
 10
19.3345908402
 20
-19.5332814567
 10
19.3964345257
 20
-19.5514749578
 10
19.4667982662
 20
-19.5674937877
 10
19.5455813391
 20
-19.5812418899
 10
19.6335055674
 20
-19.5927743573
 10
19.729857205
 20
-19.6020653741
 10
19.8323824175
 20
-19.6089192418
 10
19.9407339913
 20
-19.6132889377
 10
20.0552649675
 20
-19.6152808227
 10
20.1747717344
 20
-19.6149507756
 10
20.2993467417
 20
-19.6123014983
 10
20.4288990467
 20
-19.6073760998
 10
20.5619491504
 20
-19.6002968769
 10
20.6984827705
 20
-19.5910834101
 10
20.8385117446
 20
-19.579748943
 10
20.9805951041
 20
-19.5664106895
 10
21.1242505838
 20
-19.5511156089
 10
21.2699543423
 20
-19.5338348059
 10
21.4177022262
 20
-19.5145700551
  0
LINE
  5
632
100
AcDbEntity
  8
IMPORT_IGES
100
AcDbLine
 62
7
  6
CONTINUOUS
 10
-6.3970647196
 20
15.8835168675
 11
-6.3239525639
 21
15.90159455
  0
LINE
  5
633
100
AcDbEntity
  8
IMPORT_IGES
100
AcDbLine
 62
7
  6
CONTINUOUS
 10
-7.7194006147
 20
16.0631828975
 11
-7.7634614482
 21
16.0544308693
  0
LINE
  5
634
100
AcDbEntity
  8
IMPORT_IGES
100
AcDbLine
 62
7
  6
CONTINUOUS
 10
-7.7329958568
 20
15.8497747476
 11
-7.6587466118
 21
15.8638975926
  0
LINE
  5
635
100
AcDbEntity
  8
IMPORT_IGES
100
AcDbLine
 62
7
  6
CONTINUOUS
 10
-9.1061630146
 20
15.8491102744
 11
-9.0307968901
 21
15.8620838933
  0
LINE
  5
636
100
AcDbEntity
  8
IMPORT_IGES
100
AcDbLine
 62
7
  6
CONTINUOUS
 10
-6.4428829181
 20
16.0628707442
 11
-6.4988393736
 21
16.0534602937
  0
LINE
  5
637
100
AcDbEntity
  8
IMPORT_IGES
100
AcDbLine
 62
7
  6
CONTINUOUS
 10
-6.4846579913
 20
15.8717280666
 11
-6.3970647196
 21
15.8835168675
  0
LINE
  5
638
100
AcDbEntity
  8
IMPORT_IGES
100
AcDbLine
 62
7
  6
CONTINUOUS
 10
-6.8851848782
 20
16.4039307839
 11
-7.1050229458
 21
16.3746189082
  0
LINE
  5
639
100
AcDbEntity
  8
IMPORT_IGES
100
AcDbLine
 62
7
  6
CONTINUOUS
 10
-7.7281652716
 20
15.8516191355
 11
-7.7969899464
 21
15.8466266632
  0
LINE
  5
63A
100
AcDbEntity
  8
IMPORT_IGES
100
AcDbLine
 62
7
  6
CONTINUOUS
 10
-7.7634614482
 20
16.0544308693
 11
-7.8102311112
 21
16.051488301
  0
LINE
  5
63B
100
AcDbEntity
  8
IMPORT_IGES
100
AcDbLine
 62
7
  6
CONTINUOUS
 10
-9.1276851415
 20
16.0544308693
 11
-9.1744548044
 21
16.051488301
  0
LINE
  5
63C
100
AcDbEntity
  8
IMPORT_IGES
100
AcDbLine
 62
7
  6
CONTINUOUS
 10
-9.1012783736
 20
15.8506675314
 11
-9.1713038122
 21
15.8465395077
  0
LINE
  5
63D
100
AcDbEntity
  8
IMPORT_IGES
100
AcDbLine
 62
7
  6
CONTINUOUS
 10
-7.8601567205
 20
15.848154001
 11
-7.7970058251
 21
15.848525948
  0
LINE
  5
63E
100
AcDbEntity
  8
IMPORT_IGES
100
AcDbLine
 62
7
  6
CONTINUOUS
 10
-3.9188659118
 20
15.8217419128
 11
-3.6981079118
 21
15.8217419128
  0
LINE
  5
63F
100
AcDbEntity
  8
IMPORT_IGES
100
AcDbLine
 62
7
  6
CONTINUOUS
 10
-5.2856819118
 20
15.8700869128
 11
-5.0658439118
 21
15.8700869128
  0
LINE
  5
640
100
AcDbEntity
  8
IMPORT_IGES
100
AcDbLine
 62
7
  6
CONTINUOUS
 10
-4.6988739118
 20
16.2522179128
 11
-3.9188659118
 21
16.2522179128
  0
LINE
  5
641
100
AcDbEntity
  8
IMPORT_IGES
100
AcDbLine
 62
7
  6
CONTINUOUS
 10
-3.6981079118
 20
16.2522179128
 11
-3.4552749118
 21
16.2522179128
  0
LINE
  5
642
100
AcDbEntity
  8
IMPORT_IGES
100
AcDbLine
 62
7
  6
CONTINUOUS
 10
-3.4552749118
 20
16.4545789128
 11
-3.6981079118
 21
16.4545789128
  0
LINE
  5
643
100
AcDbEntity
  8
IMPORT_IGES
100
AcDbLine
 62
7
  6
CONTINUOUS
 10
-3.9188659118
 20
16.4545789128
 11
-4.4817969118
 21
16.4545789128
  0
LINE
  5
644
100
AcDbEntity
  8
IMPORT_IGES
100
AcDbLine
 62
7
  6
CONTINUOUS
 10
-6.568303805
 20
16.9415856385
 11
-6.6471582215
 21
16.9415323777
  0
LINE
  5
645
100
AcDbEntity
  8
IMPORT_IGES
100
AcDbLine
 62
7
  6
CONTINUOUS
 10
-6.55511549
 20
16.7727065182
 11
-6.5115902612
 21
16.7726208551
  0
LINE
  5
646
100
AcDbEntity
  8
IMPORT_IGES
100
AcDbLine
 62
7
  6
CONTINUOUS
 10
-6.4988393736
 20
16.0534602937
 11
-6.5387957075
 21
16.0535661985
  0
LINE
  5
647
100
AcDbEntity
  8
IMPORT_IGES
100
AcDbLine
 62
7
  6
CONTINUOUS
 10
-9.2358678358
 20
15.848885968
 11
-9.1713100937
 21
15.8485224066
  0
LINE
  5
648
100
AcDbEntity
  8
IMPORT_IGES
100
AcDbLine
 62
7
  6
CONTINUOUS
 10
-6.55119215
 20
15.8723088508
 11
-6.4846579913
 21
15.8717280666
  0
LINE
  5
649
100
AcDbEntity
  8
IMPORT_IGES
100
AcDbLine
 62
7
  6
CONTINUOUS
 10
-9.1744548044
 20
16.051488301
 11
-9.2170597561
 21
16.0540822512
  0
LINE
  5
64A
100
AcDbEntity
  8
IMPORT_IGES
100
AcDbLine
 62
7
  6
CONTINUOUS
 10
-7.8102311112
 20
16.051488301
 11
-7.8528360628
 21
16.0540822512
  0
LINE
  5
64B
100
AcDbEntity
  8
IMPORT_IGES
100
AcDbLine
 62
7
  6
CONTINUOUS
 10
-9.1528060018
 20
17.4823606459
 11
-9.1069414443
 21
17.4793193722
  0
LINE
  5
64C
100
AcDbEntity
  8
IMPORT_IGES
100
AcDbLine
 62
7
  6
CONTINUOUS
 10
-7.7885823085
 20
17.4823606459
 11
-7.742717751
 21
17.4793193722
  0
LINE
  5
64D
100
AcDbEntity
  8
IMPORT_IGES
100
AcDbLine
 62
7
  6
CONTINUOUS
 10
-6.464787831
 20
16.7707934262
 11
-6.5115793972
 21
16.773966208
  0
LINE
  5
64E
100
AcDbEntity
  8
IMPORT_IGES
100
AcDbLine
 62
7
  6
CONTINUOUS
 10
-6.5819642295
 20
16.0553883676
 11
-6.5388076285
 21
16.0522115903
  0
LINE
  5
64F
100
AcDbEntity
  8
IMPORT_IGES
100
AcDbLine
 62
7
  6
CONTINUOUS
 10
-6.5512185074
 20
15.8703647607
 11
-6.6218602833
 21
15.8755805609
  0
LINE
  5
650
100
AcDbEntity
  8
IMPORT_IGES
100
AcDbLine
 62
7
  6
CONTINUOUS
 10
-6.5194044475
 20
17.6992601581
 11
-6.4514185389
 21
17.6919557135
  0
LINE
  5
651
100
AcDbEntity
  8
IMPORT_IGES
100
AcDbLine
 62
7
  6
CONTINUOUS
 10
-7.6619528789
 20
17.67039088
 11
-7.7394854599
 21
17.6825042076
  0
LINE
  5
652
100
AcDbEntity
  8
IMPORT_IGES
100
AcDbLine
 62
7
  6
CONTINUOUS
 10
-9.0254982505
 20
17.6702543448
 11
-9.1033497871
 21
17.6824915293
  0
LINE
  5
653
100
AcDbEntity
  8
IMPORT_IGES
100
AcDbLine
 62
7
  6
CONTINUOUS
 10
-7.0830390154
 20
17.2356519312
 11
-6.8632010255
 21
17.196568933
  0
LINE
  5
654
100
AcDbEntity
  8
IMPORT_IGES
100
AcDbLine
 62
7
  6
CONTINUOUS
 10
-6.4580793912
 20
17.5096392723
 11
-6.5002099697
 21
17.5172259208
  0
LINE
  5
655
100
AcDbEntity
  8
IMPORT_IGES
100
AcDbLine
 62
7
  6
CONTINUOUS
 10
-9.1069414443
 20
17.4793193722
 11
-9.0646214591
 21
17.4715554434
  0
LINE
  5
656
100
AcDbEntity
  8
IMPORT_IGES
100
AcDbLine
 62
7
  6
CONTINUOUS
 10
-7.742717751
 20
17.4793193722
 11
-7.7003977658
 21
17.4715554434
  0
LINE
  5
657
100
AcDbEntity
  8
IMPORT_IGES
100
AcDbLine
 62
7
  6
CONTINUOUS
 10
-6.4698629236
 20
16.772203426
 11
-6.4152065297
 21
16.7615863264
  0
LINE
  5
658
100
AcDbEntity
  8
IMPORT_IGES
100
AcDbLine
 62
7
  6
CONTINUOUS
 10
-6.3778169904
 20
17.6761818785
 11
-6.4513855905
 21
17.69226238
  0
LINE
  5
659
100
AcDbEntity
  8
IMPORT_IGES
100
AcDbLine
 62
7
  6
CONTINUOUS
 10
-7.5971166458
 20
17.6531301574
 11
-7.6619528789
 21
17.67039088
  0
LINE
  5
65A
100
AcDbEntity
  8
IMPORT_IGES
100
AcDbLine
 62
253
  6
CONTINUOUS
 10
18.9054762934
 20
5.3495018563
 11
19.0466117857
 21
5.2178594607
  0
LINE
  5
65B
100
AcDbEntity
  8
IMPORT_IGES
100
AcDbLine
 62
253
  6
CONTINUOUS
 10
19.1235909642
 20
-19.0276751023
 11
19.1048052492
 21
-18.8538449819
  0
LWPOLYLINE
  5
65C
100
AcDbEntity
  8
IMPORT_IGES
100
AcDbPolyline
 62
253
  6
CONTINUOUS
 90
5
 70
0
 10
19.1404575698
 20
-19.2046176251
 10
19.1386266696
 20
-19.1814887787
 10
19.1360092061
 20
-19.1520645283
 10
19.1326185586
 20
-19.1164948677
 10
19.1235909642
 20
-19.0276751023
  0
LINE
  5
65D
100
AcDbEntity
  8
IMPORT_IGES
100
AcDbLine
 62
253
  6
CONTINUOUS
 10
19.14054797
 20
-19.2044051273
 11
19.1474420916
 21
-19.3733690025
  0
LINE
  5
65E
100
AcDbEntity
  8
IMPORT_IGES
100
AcDbLine
 62
253
  6
CONTINUOUS
 10
19.1474369677
 20
21.0686147312
 11
19.1405429114
 21
20.8996567868
  0
LINE
  5
65F
100
AcDbEntity
  8
IMPORT_IGES
100
AcDbLine
 62
253
  6
CONTINUOUS
 10
18.8359048721
 20
18.1482071388
 11
18.9051637311
 21
19.1457670392
  0
LWPOLYLINE
  5
660
100
AcDbEntity
  8
IMPORT_IGES
100
AcDbPolyline
 62
253
  6
CONTINUOUS
 90
4
 70
0
 10
19.1404571928
 20
20.899870295
 10
19.1387972901
 20
20.8787717354
 10
19.1364830086
 20
20.8524767927
 10
19.133535528
 20
20.8211880148
  0
LWPOLYLINE
  5
661
100
AcDbEntity
  8
IMPORT_IGES
100
AcDbPolyline
 62
253
  6
CONTINUOUS
 90
22
 70
0
 10
20.290811704
 20
19.8052986282
 10
20.2948396845
 20
19.8506930545
 10
20.3052328635
 20
19.8921622004
 10
20.3215988857
 20
19.9297717798
 10
20.3431068327
 20
19.9634349017
 10
20.3692375692
 20
19.9933478597
 10
20.4004937194
 20
20.0199938333
 10
20.4371419087
 20
20.043707113
 10
20.4784852225
 20
20.0642401567
 10
20.5240339623
 20
20.0812032801
 10
20.5730939082
 20
20.0944237718
 10
20.6252941263
 20
20.1041292528
 10
20.6806461064
 20
20.1105288329
 10
20.7385882211
 20
20.1136535327
 10
20.7986634702
 20
20.1135081302
 10
20.8611959823
 20
20.1102744823
 10
20.9256891258
 20
20.1039865055
 10
20.9916503878
 20
20.0946396727
 10
21.059480782
 20
20.082377274
 10
21.1289468097
 20
20.0672616062
 10
21.1991698994
 20
20.0492575741
 10
21.2695683307
 20
20.0283675267
  0
LINE
  5
662
100
AcDbEntity
  8
IMPORT_IGES
100
AcDbLine
 62
253
  6
CONTINUOUS
 10
19.133535528
 20
20.8211880148
 11
19.125863501
 21
20.744779557
  0
LINE
  5
663
100
AcDbEntity
  8
IMPORT_IGES
100
AcDbLine
 62
253
  6
CONTINUOUS
 10
19.125863501
 20
20.744779557
 11
19.1099191501
 21
20.5955448772
  0
LINE
  5
664
100
AcDbEntity
  8
IMPORT_IGES
100
AcDbLine
 62
253
  6
CONTINUOUS
 10
19.1099191501
 20
20.5955448772
 11
19.0810666762
 21
20.3386318853
  0
LINE
  5
665
100
AcDbEntity
  8
IMPORT_IGES
100
AcDbLine
 62
253
  6
CONTINUOUS
 10
19.0810666762
 20
20.3386318853
 11
19.0546586097
 21
20.1109874598
  0
LINE
  5
666
100
AcDbEntity
  8
IMPORT_IGES
100
AcDbLine
 62
253
  6
CONTINUOUS
 10
21.3410296972
 20
20.5664013615
 11
21.3790147106
 21
20.8653021101
  0
LWPOLYLINE
  5
667
100
AcDbEntity
  8
IMPORT_IGES
100
AcDbPolyline
 62
253
  6
CONTINUOUS
 90
3
 70
0
 10
21.2695679032
 20
20.028371979
 10
21.2824219491
 20
20.1234893406
 10
21.3410296972
 20
20.5664013615
  0
LINE
  5
668
100
AcDbEntity
  8
IMPORT_IGES
100
AcDbLine
 62
7
  6
CONTINUOUS
 10
-6.4756334569
 20
16.9594917089
 11
-6.5210159715
 21
16.9481144104
  0
LINE
  5
669
100
AcDbEntity
  8
IMPORT_IGES
100
AcDbLine
 62
7
  6
CONTINUOUS
 10
-6.6714540686
 20
16.7495646747
 11
-6.615990554
 21
16.763396401
  0
LINE
  5
66A
100
AcDbEntity
  8
IMPORT_IGES
100
AcDbLine
 62
7
  6
CONTINUOUS
 10
-6.6613861611
 20
17.689291671
 11
-6.7274850024
 21
17.6733311766
  0
LINE
  5
66B
100
AcDbEntity
  8
IMPORT_IGES
100
AcDbLine
 62
7
  6
CONTINUOUS
 10
-7.926914821
 20
17.6741273437
 11
-7.9632867885
 21
17.665680468
  0
LINE
  5
66C
100
AcDbEntity
  8
IMPORT_IGES
100
AcDbLine
 62
7
  6
CONTINUOUS
 10
-6.6341126343
 20
17.506444081
 11
-6.5824421144
 21
17.5170239999
  0
LINE
  5
66D
100
AcDbEntity
  8
IMPORT_IGES
100
AcDbLine
 62
7
  6
CONTINUOUS
 10
-9.083624308
 20
16.0631828975
 11
-9.1276851415
 21
16.0544308693
  0
LINE
  5
66E
100
AcDbEntity
  8
IMPORT_IGES
100
AcDbLine
 62
7
  6
CONTINUOUS
 10
-9.2351619795
 20
17.6824259758
 11
-9.3093502274
 21
17.6698390152
  0
LINE
  5
66F
100
AcDbEntity
  8
IMPORT_IGES
100
AcDbLine
 62
7
  6
CONTINUOUS
 10
-7.8771439612
 20
17.4730590715
 11
-7.834409036
 21
17.4802311037
  0
LINE
  5
670
100
AcDbEntity
  8
IMPORT_IGES
100
AcDbLine
 62
7
  6
CONTINUOUS
 10
-9.2413676545
 20
17.4730590715
 11
-9.1986327293
 21
17.4802311037
  0
LINE
  5
671
100
AcDbEntity
  8
IMPORT_IGES
100
AcDbLine
 62
7
  6
CONTINUOUS
 10
-7.9268897127
 20
17.6739641041
 11
-7.8888642883
 21
17.679812859
  0
LINE
  5
672
100
AcDbEntity
  8
IMPORT_IGES
100
AcDbLine
 62
7
  6
CONTINUOUS
 10
-6.615990554
 20
16.763396401
 11
-6.55511549
 21
16.7727065182
  0
LINE
  5
673
100
AcDbEntity
  8
IMPORT_IGES
100
AcDbLine
 62
7
  6
CONTINUOUS
 10
-6.563308242
 20
16.9421626426
 11
-6.5210512057
 21
16.9483548567
  0
LINE
  5
674
100
AcDbEntity
  8
IMPORT_IGES
100
AcDbLine
 62
7
  6
CONTINUOUS
 10
-6.5864943774
 20
17.6986975758
 11
-6.6613861611
 21
17.689291671
  0
LINE
  5
675
100
AcDbEntity
  8
IMPORT_IGES
100
AcDbLine
 62
7
  6
CONTINUOUS
 10
-6.5430866122
 20
17.518854152
 11
-6.5873552943
 21
17.515625982
  0
LINE
  5
676
100
AcDbEntity
  8
IMPORT_IGES
100
AcDbLine
 62
7
  6
CONTINUOUS
 10
-9.2400571399
 20
17.6809305802
 11
-9.1713179207
 21
17.684841564
  0
LINE
  5
677
100
AcDbEntity
  8
IMPORT_IGES
100
AcDbLine
 62
7
  6
CONTINUOUS
 10
-7.834409036
 20
17.4802311037
 11
-7.7885823085
 21
17.4823606459
  0
LINE
  5
678
100
AcDbEntity
  8
IMPORT_IGES
100
AcDbLine
 62
7
  6
CONTINUOUS
 10
-9.1986327293
 20
17.4802311037
 11
-9.1528060018
 21
17.4823606459
  0
LINE
  5
679
100
AcDbEntity
  8
IMPORT_IGES
100
AcDbLine
 62
7
  6
CONTINUOUS
 10
-7.848928945
 20
17.6827470808
 11
-7.883982602
 21
17.6812817043
  0
LINE
  5
67A
100
AcDbEntity
  8
IMPORT_IGES
100
AcDbLine
 62
7
  6
CONTINUOUS
 10
-7.8070860297
 20
17.6834204246
 11
-7.848928945
 21
17.6827470808
  0
LINE
  5
67B
100
AcDbEntity
  8
IMPORT_IGES
100
AcDbLine
 62
7
  6
CONTINUOUS
 10
-6.5430631854
 20
17.5174873768
 11
-6.5045859158
 21
17.5177492775
  0
LWPOLYLINE
  5
67C
100
AcDbEntity
  8
IMPORT_IGES
100
AcDbPolyline
 62
253
  6
CONTINUOUS
 90
22
 70
0
 10
-25.497498048
 20
19.4381202985
 10
-25.5703989148
 20
19.4377357524
 10
-25.6422025842
 20
19.4370062909
 10
-25.7125489615
 20
19.4359440329
 10
-25.780886736
 20
19.4345674315
 10
-25.8471259166
 20
19.432888515
 10
-25.9115844294
 20
19.4309028898
 10
-25.9740605383
 20
19.4286142204
 10
-26.0340951945
 20
19.4260366781
 10
-26.0915581426
 20
19.4231723841
 10
-26.1461057509
 20
19.4200329066
 10
-26.1974263418
 20
19.416630275
 10
-26.2453817751
 20
19.4129643723
 10
-26.289747921
 20
19.40903684
 10
-26.3300312794
 20
19.4048742742
 10
-26.3657311865
 20
19.400517302
 10
-26.3965692621
 20
19.3959945953
 10
-26.4223823928
 20
19.3913239117
 10
-26.4429631993
 20
19.3865347535
 10
-26.4581605485
 20
19.3816547895
 10
-26.4678638922
 20
19.3767093242
 10
-26.4719851272
 20
19.3717258419
  0
LINE
  5
67D
100
AcDbEntity
  8
IMPORT_IGES
100
AcDbLine
 62
7
  6
CONTINUOUS
 10
-3.6981079118
 20
17.6196879128
 11
-3.8783929118
 21
17.6196879128
  0
LINE
  5
67E
100
AcDbEntity
  8
IMPORT_IGES
100
AcDbLine
 62
7
  6
CONTINUOUS
 10
-5.0658439118
 20
17.6678729128
 11
-5.2075179591
 21
17.6678729128
  0
LINE
  5
67F
100
AcDbEntity
  8
IMPORT_IGES
100
AcDbLine
 62
7
  6
CONTINUOUS
 10
-6.5161208289
 20
17.6986975758
 11
-6.5864943774
 21
17.6986975758
  0
LINE
  5
680
100
AcDbEntity
  8
IMPORT_IGES
100
AcDbLine
 62
253
  6
CONTINUOUS
 10
20.1150738007
 20
17.8489390667
 11
19.1151118217
 21
17.8489390667
  0
LINE
  5
681
100
AcDbEntity
  8
IMPORT_IGES
100
AcDbLine
 62
253
  6
CONTINUOUS
 10
-19.4022656453
 20
17.8489389822
 11
-20.4022276243
 21
17.8489389822
  0
LINE
  5
682
100
AcDbEntity
  8
IMPORT_IGES
100
AcDbLine
 62
7
  6
CONTINUOUS
 10
-9.1033497871
 20
17.6824915293
 11
-9.1713121704
 21
17.6829209514
  0
LINE
  5
683
100
AcDbEntity
  8
IMPORT_IGES
100
AcDbLine
 62
7
  6
CONTINUOUS
 10
-7.7394854599
 20
17.6825042076
 11
-7.8070860297
 21
17.6834204246
  0
LINE
  5
684
100
AcDbEntity
  8
IMPORT_IGES
100
AcDbLine
 62
253
  6
CONTINUOUS
 10
20.2562092654
 20
6.5146689588
 11
20.115073801
 21
6.6463112267
  0
LWPOLYLINE
  5
685
100
AcDbEntity
  8
IMPORT_IGES
100
AcDbPolyline
 62
253
  6
CONTINUOUS
 90
11
 70
0
 10
19.0468444545
 20
5.2178766793
 10
19.0502235634
 20
5.2136557272
 10
19.0530297604
 20
5.202098195
 10
19.0552808256
 20
5.1832115991
 10
19.0569890554
 20
5.157245235
 10
19.0581428457
 20
5.1244429005
 10
19.058724514
 20
5.0847881658
 10
19.0587029972
 20
5.0385931967
 10
19.0580852904
 20
4.9863081446
 10
19.0569279899
 20
4.9278830044
 10
19.055199927
 20
4.8637584888
  0
LINE
  5
686
100
AcDbEntity
  8
IMPORT_IGES
100
AcDbLine
 62
253
  6
CONTINUOUS
 10
21.269567296
 20
-18.3331197333
 11
21.3303000363
 21
-18.7887553441
  0
LWPOLYLINE
  5
687
100
AcDbEntity
  8
IMPORT_IGES
100
AcDbPolyline
 62
253
  6
CONTINUOUS
 90
3
 70
0
 10
21.3303000363
 20
-18.7887553441
 10
21.3704299787
 20
-19.1012396005
 10
21.3790229389
 20
-19.1701219654
  0
LINE
  5
688
100
AcDbEntity
  8
IMPORT_IGES
100
AcDbLine
 62
253
  6
CONTINUOUS
 10
19.0713706415
 20
-18.5591504846
 11
19.009000024
 21
-18.0324226804
  0
LINE
  5
689
100
AcDbEntity
  8
IMPORT_IGES
100
AcDbLine
 62
253
  6
CONTINUOUS
 10
19.1048052492
 20
-18.8538449819
 11
19.0713706415
 21
-18.5591504846
  0
LINE
  5
68A
100
AcDbEntity
  8
IMPORT_IGES
100
AcDbLine
 62
253
  6
CONTINUOUS
 10
18.9051638513
 20
5.3494832229
 11
18.8359049028
 21
6.3470426889
  0
LWPOLYLINE
  5
68B
100
AcDbEntity
  8
IMPORT_IGES
100
AcDbPolyline
 62
253
  6
CONTINUOUS
 90
3
 70
0
 10
19.0546607012
 20
20.110941879
 10
19.0585860759
 20
20.0317245561
 10
19.0620092051
 20
19.9546284396
  0
LINE
  5
68C
100
AcDbEntity
  8
IMPORT_IGES
100
AcDbLine
 62
253
  6
CONTINUOUS
 10
20.2908100352
 20
-18.1099385842
 11
20.2840694219
 21
-17.9447412056
  0
LWPOLYLINE
  5
68D
100
AcDbEntity
  8
IMPORT_IGES
100
AcDbPolyline
 62
253
  6
CONTINUOUS
 90
22
 70
0
 10
20.2908095623
 20
19.8051788979
 10
20.2875381561
 20
19.8932227755
 10
20.2781464879
 20
19.9802252123
 10
20.2628096791
 20
20.065788759
 10
20.2417940964
 20
20.1493070757
 10
20.2152871344
 20
20.2306658933
 10
20.1832388898
 20
20.3101954752
 10
20.1457057383
 20
20.3876648411
 10
20.1028924788
 20
20.4625731618
 10
20.054821852
 20
20.5347883411
 10
20.0016583875
 20
20.6039330893
 10
19.9435833858
 20
20.6696529952
 10
19.8805927002
 20
20.7317958859
 10
19.8127049084
 20
20.7901201983
 10
19.7403163514
 20
20.8440744849
 10
19.6640444812
 20
20.8930803685
 10
19.5843248288
 20
20.9368074272
 10
19.5014416696
 20
20.9750511341
 10
19.415880068
 20
21.0075408502
 10
19.3280871966
 20
21.0340764112
 10
19.2384602081
 20
21.0545081014
 10
19.1474405465
 20
21.0687024863
  0
LWPOLYLINE
  5
68E
100
AcDbEntity
  8
IMPORT_IGES
100
AcDbPolyline
 62
253
  6
CONTINUOUS
 90
22
 70
0
 10
20.2631586465
 20
17.9870631451
 10
20.2598091578
 20
18.0802338371
 10
20.2498912739
 20
18.1722272939
 10
20.2336047131
 20
18.2625935357
 10
20.2112533342
 20
18.3506482001
 10
20.1830507728
 20
18.4362654939
 10
20.1489390825
 20
18.519820501
 10
20.1089807706
 20
18.6010538524
 10
20.0634090828
 20
18.6794002114
 10
20.0122515955
 20
18.7547062172
 10
19.9556983154
 20
18.82654446
 10
19.8939549133
 20
18.8945189073
 10
19.8270142514
 20
18.9584573908
 10
19.7548947987
 20
19.0180843278
 10
19.6780551574
 20
19.0727763741
 10
19.5972119361
 20
19.1218882024
 10
19.5128806974
 20
19.1650529934
 10
19.4253724284
 20
19.2020599643
 10
19.3351992692
 20
19.2326354389
 10
19.2428537334
 20
19.2565677541
 10
19.1487996532
 20
19.273692917
 10
19.053537626
 20
19.2838739529
  0
LWPOLYLINE
  5
68F
100
AcDbEntity
  8
IMPORT_IGES
100
AcDbPolyline
 62
253
  6
CONTINUOUS
 90
16
 70
0
 10
19.0620092051
 20
19.9546284396
 10
19.0675034263
 20
19.8091742076
 10
19.0696226013
 20
19.7418010698
 10
19.0712546391
 20
19.6780084039
 10
19.0724137968
 20
19.6182010245
 10
19.0731183132
 20
19.5627875691
 10
19.0733166928
 20
19.5117544208
 10
19.0729933697
 20
19.4654489272
 10
19.0721783699
 20
19.4241477137
 10
19.0708974497
 20
19.3878253192
 10
19.0691479788
 20
19.3567401973
 10
19.0669307614
 20
19.3310804335
 10
19.0642862432
 20
19.3108371307
 10
19.0612254646
 20
19.2961454154
 10
19.0577201611
 20
19.2871492131
 10
19.0537520761
 20
19.2838587557
  0
LWPOLYLINE
  5
690
100
AcDbEntity
  8
IMPORT_IGES
100
AcDbPolyline
 62
253
  6
CONTINUOUS
 90
22
 70
0
 10
20.1150721539
 20
17.8489391535
 10
20.1117465446
 20
17.9417991588
 10
20.1017962582
 20
18.034184608
 10
20.0852721441
 20
18.1256235037
 10
20.0622586422
 20
18.215648687
 10
20.0328733362
 20
18.3038002171
 10
19.9972663515
 20
18.3896277199
 10
19.9556196141
 20
18.4726926972
 10
19.908145908
 20
18.5525707755
 10
19.8550877681
 20
18.6288538648
 10
19.7967162688
 20
18.7011522328
 10
19.7333296396
 20
18.7690965032
 10
19.6652517228
 20
18.8323395489
 10
19.5928303276
 20
18.8905582553
 10
19.516435461
 20
18.9434551786
 10
19.436457433
 20
18.9907600698
 10
19.3532976123
 20
19.0322345319
 10
19.2673876334
 20
19.0676623411
 10
19.1791893995
 20
19.0968557901
 10
19.0891627426
 20
19.119668948
 10
18.9977609302
 20
19.1359930838
 10
18.9054511115
 20
19.1457499408
  0
LINE
  5
691
100
AcDbEntity
  8
IMPORT_IGES
100
AcDbLine
 62
253
  6
CONTINUOUS
 10
20.2626851536
 20
6.3995133214
 11
20.265166053
 21
6.293333063
  0
LINE
  5
692
100
AcDbEntity
  8
IMPORT_IGES
100
AcDbLine
 62
253
  6
CONTINUOUS
 10
20.265166053
 20
6.293333063
 11
20.267523219
 21
6.1553307405
  0
LINE
  5
693
100
AcDbEntity
  8
IMPORT_IGES
100
AcDbLine
 62
253
  6
CONTINUOUS
 10
20.267523219
 20
6.1553307405
 11
20.271701649
 21
5.7918119703
  0
LINE
  5
694
100
AcDbEntity
  8
IMPORT_IGES
100
AcDbLine
 62
253
  6
CONTINUOUS
 10
20.271701649
 20
5.7918119703
 11
20.2763956222
 21
5.0519443702
  0
LINE
  5
695
100
AcDbEntity
  8
IMPORT_IGES
100
AcDbLine
 62
253
  6
CONTINUOUS
 10
20.2763956222
 20
5.0519443702
 11
20.2786520667
 21
4.0369154298
  0
LINE
  5
696
100
AcDbEntity
  8
IMPORT_IGES
100
AcDbLine
 62
253
  6
CONTINUOUS
 10
20.2840694219
 20
-17.9447412056
 11
20.2798284332
 21
-8.2489094831
  0
LINE
  5
697
100
AcDbEntity
  8
IMPORT_IGES
100
AcDbLine
 62
253
  6
CONTINUOUS
 10
19.1151118217
 20
6.64631304
 11
19.1151118217
 21
17.848938476
  0
LINE
  5
698
100
AcDbEntity
  8
IMPORT_IGES
100
AcDbLine
 62
253
  6
CONTINUOUS
 10
20.115073801
 20
17.8489391745
 11
20.115073801
 21
6.6463112267
  0
LINE
  5
699
100
AcDbEntity
  8
IMPORT_IGES
100
AcDbLine
 62
253
  6
CONTINUOUS
 10
20.2852223774
 20
0.8476252802
 11
20.2908100352
 21
-18.1099385842
  0
LWPOLYLINE
  5
69A
100
AcDbEntity
  8
IMPORT_IGES
100
AcDbPolyline
 62
253
  6
CONTINUOUS
 90
3
 70
0
 10
19.0090177345
 20
-18.0324207667
 10
19.0035161719
 20
2.5431930233
 10
19.0036162303
 20
3.8993426252
  0
LINE
  5
69B
100
AcDbEntity
  8
IMPORT_IGES
100
AcDbLine
 62
253
  6
CONTINUOUS
 10
20.2798284332
 20
-8.2489094831
 11
20.2786520667
 21
4.0369154298
  0
LINE
  5
69C
100
AcDbEntity
  8
IMPORT_IGES
100
AcDbLine
 62
253
  6
CONTINUOUS
 10
20.29081004
 20
19.8051901514
 11
20.2852223774
 21
0.8476252802
  0
LINE
  5
69D
100
AcDbEntity
  8
IMPORT_IGES
100
AcDbLine
 62
253
  6
CONTINUOUS
 10
20.2840691669
 20
19.6399867515
 11
20.2792558967
 21
18.7786886376
  0
LINE
  5
69E
100
AcDbEntity
  8
IMPORT_IGES
100
AcDbLine
 62
253
  6
CONTINUOUS
 10
20.2792558967
 20
18.7786886376
 11
20.2752947434
 21
18.4047233837
  0
LINE
  5
69F
100
AcDbEntity
  8
IMPORT_IGES
100
AcDbLine
 62
253
  6
CONTINUOUS
 10
20.2752947434
 20
18.4047233837
 11
20.2730661096
 21
18.258920918
  0
LWPOLYLINE
  5
6A0
100
AcDbEntity
  8
IMPORT_IGES
100
AcDbPolyline
 62
253
  6
CONTINUOUS
 90
8
 70
0
 10
20.2730661096
 20
18.258920918
 10
20.2707043695
 20
18.1427854884
 10
20.2694863181
 20
18.0965663753
 10
20.2682436422
 20
18.0581927927
 10
20.2669884913
 20
18.0280201404
 10
20.2657249152
 20
18.0061668847
 10
20.2644488641
 20
17.9925145592
 10
20.263160338
 20
17.9870631639
  0
LWPOLYLINE
  5
6A1
100
AcDbEntity
  8
IMPORT_IGES
100
AcDbPolyline
 62
253
  6
CONTINUOUS
 90
22
 70
0
 10
20.2840694254
 20
-17.9447405517
 10
20.280812043
 20
-18.032127805
 10
20.2713906442
 20
-18.1192028947
 10
20.2558436324
 20
-18.2054989803
 10
20.2342489729
 20
-18.2905145708
 10
20.2067150079
 20
-18.373838544
 10
20.1733655525
 20
-18.4551560798
 10
20.1343536184
 20
-18.5340624586
 10
20.0898756884
 20
-18.6101312808
 10
20.040145639
 20
-18.6830493324
 10
19.9853824496
 20
-18.7524744666
 10
19.9258528759
 20
-18.8180392374
 10
19.8618682299
 20
-18.8794449904
 10
19.7936960259
 20
-18.9364233068
 10
19.7216528652
 20
-18.9886816273
 10
19.6461484368
 20
-19.0359568092
 10
19.5674843495
 20
-19.078057599
 10
19.4860048641
 20
-19.1147748682
 10
19.4022051677
 20
-19.1459075368
 10
19.3164799453
 20
-19.1713263322
 10
19.2291161266
 20
-19.1909304346
 10
19.1404575698
 20
-19.2046176251
  0
LWPOLYLINE
  5
6A2
100
AcDbEntity
  8
IMPORT_IGES
100
AcDbPolyline
 62
253
  6
CONTINUOUS
 90
3
 70
0
 10
19.055199927
 20
4.8637584888
 10
19.050080206
 20
4.7200745279
 10
19.0467391986
 20
4.6410663142
  0
LINE
  5
6A3
100
AcDbEntity
  8
IMPORT_IGES
100
AcDbLine
 62
253
  6
CONTINUOUS
 10
20.2840691669
 20
19.6399867515
 11
20.29081004
 21
19.8051901514
  0
LINE
  5
6A4
100
AcDbEntity
  8
IMPORT_IGES
100
AcDbLine
 62
253
  6
CONTINUOUS
 10
19.0467391986
 20
4.6410663142
 11
19.0385119674
 21
4.4712576278
  0
LINE
  5
6A5
100
AcDbEntity
  8
IMPORT_IGES
100
AcDbLine
 62
253
  6
CONTINUOUS
 10
19.0385119674
 20
4.4712576278
 11
19.0283665303
 21
4.2887066029
  0
LWPOLYLINE
  5
6A6
100
AcDbEntity
  8
IMPORT_IGES
100
AcDbPolyline
 62
253
  6
CONTINUOUS
 90
4
 70
0
 10
19.0283665303
 20
4.2887066029
 10
19.0167727628
 20
4.096220323
 10
19.0103961898
 20
3.997997968
 10
19.003521486
 20
3.8997807487
  0
LWPOLYLINE
  5
6A7
100
AcDbEntity
  8
IMPORT_IGES
100
AcDbPolyline
 62
253
  6
CONTINUOUS
 90
5
 70
0
 10
21.4056121358
 20
21.0881539254
 10
21.4100902146
 20
21.12886337
 10
21.4136297105
 20
21.1630073915
 10
21.416173779
 20
21.1900674303
 10
21.4177026905
 20
21.2098199745
  0
LINE
  5
6A8
100
AcDbEntity
  8
IMPORT_IGES
100
AcDbLine
 62
253
  6
CONTINUOUS
 10
21.3939839051
 20
20.9881933767
 11
21.4056121358
 21
21.0881539254
  0
LINE
  5
6A9
100
AcDbEntity
  8
IMPORT_IGES
100
AcDbLine
 62
253
  6
CONTINUOUS
 10
21.3790147106
 20
20.8653021101
 11
21.3939839051
 21
20.9881933767
  0
LWPOLYLINE
  5
6AA
100
AcDbEntity
  8
IMPORT_IGES
100
AcDbPolyline
 62
7
  6
CONTINUOUS
 90
8
 70
0
 10
26.3546775817
 20
17.6962997014
 10
26.3508110552
 20
17.6840378776
 10
26.3469891799
 20
17.6594406378
 10
26.3432119559
 20
17.622507982
 10
26.3394675236
 20
17.5730287835
 10
26.3357677426
 20
17.511214169
 10
26.3321481916
 20
17.4376975183
 10
26.3286096593
 20
17.3523698385
  0
LWPOLYLINE
  5
6AB
100
AcDbEntity
  8
IMPORT_IGES
100
AcDbPolyline
 62
253
  6
CONTINUOUS
 90
22
 70
0
 10
-19.3407322307
 20
19.2838719263
 10
-19.4335113251
 20
19.2740438131
 10
-19.52463857
 20
19.2577397307
 10
-19.6136790072
 20
19.2351945424
 10
-19.6999636589
 20
19.2067661512
 10
-19.7833915784
 20
19.1726785198
 10
-19.8643573871
 20
19.1328392275
 10
-19.9426162455
 20
19.0873212019
 10
-20.0176090122
 20
19.0364002116
 10
-20.0891765134
 20
18.9801195834
 10
-20.1569031126
 20
18.9187019889
 10
-20.2204117231
 20
18.8523783577
 10
-20.2795321
 20
18.7811521256
 10
-20.3339897877
 20
18.7050625453
 10
-20.3831963653
 20
18.6246091437
 10
-20.4265616036
 20
18.5405444892
 10
-20.4637591112
 20
18.4533946846
 10
-20.4945918739
 20
18.3634964829
 10
-20.5188135168
 20
18.2714127997
 10
-20.5362512265
 20
18.1776623623
 10
-20.5467828997
 20
18.0827089646
 10
-20.5503127461
 20
17.9870611317
  0
LWPOLYLINE
  5
6AC
100
AcDbEntity
  8
IMPORT_IGES
100
AcDbPolyline
 62
253
  6
CONTINUOUS
 90
22
 70
0
 10
-19.1926457299
 20
19.1457456064
 10
-19.2849412453
 20
19.1359878351
 10
-19.3763322455
 20
19.1196640817
 10
-19.466351616
 20
19.0968518625
 10
-19.5545470885
 20
19.0676587794
 10
-19.6404575269
 20
19.032230299
 10
-19.7236177344
 20
18.9907550935
 10
-19.8035951079
 20
18.94345001
 10
-19.8799893257
 20
18.8905529718
 10
-19.9524100862
 20
18.8323342255
 10
-20.0204873904
 20
18.7690912113
 10
-20.0838734355
 20
18.7011470413
 10
-20.142244385
 20
18.6288488395
 10
-20.1953020169
 20
18.5525659766
 10
-20.2427752614
 20
18.472688181
 10
-20.2844215867
 20
18.3896235432
 10
-20.3200281749
 20
18.3037965384
 10
-20.3494131612
 20
18.2156455568
 10
-20.3724264978
 20
18.1256206337
 10
-20.3889505507
 20
18.0341815769
 10
-20.3989007789
 20
17.9417956427
 10
-20.402226263
 20
17.8489348282
  0
LWPOLYLINE
  5
6AD
100
AcDbEntity
  8
IMPORT_IGES
100
AcDbPolyline
 62
253
  6
CONTINUOUS
 90
13
 70
0
 10
-19.3409772339
 20
19.2838537818
 10
-17.8357883058
 20
19.3846005979
 10
-16.308500814
 20
19.4784044631
 10
-14.7591392292
 20
19.5649026835
 10
-13.1846749739
 20
19.643875158
 10
-11.5881953767
 20
19.714765984
 10
-9.9789118462
 20
19.7768608787
 10
-8.3574075256
 20
19.8299229726
 10
-6.7231942564
 20
19.8737537094
 10
-5.0838911943
 20
19.9079885062
 10
-3.4420771538
 20
19.9325071304
 10
-1.7952864844
 20
19.9472839751
 10
-0.1435769118
 20
19.952231255
  0
LWPOLYLINE
  5
6AE
100
AcDbEntity
  8
IMPORT_IGES
100
AcDbPolyline
 62
253
  6
CONTINUOUS
 90
13
 70
0
 10
-0.1435769118
 20
19.952231255
 10
1.5080629019
 20
19.9472843779
 10
3.1547968633
 20
19.9325086204
 10
4.7965672507
 20
19.9079915306
 10
6.4358488001
 20
19.87375827
 10
8.0700536083
 20
19.8299289386
 10
9.6915352706
 20
19.7768688374
 10
11.3007491665
 20
19.7147781185
 10
12.8971449713
 20
19.6438929289
 10
14.4715823855
 20
19.5649240243
 10
16.0209977232
 20
19.478424936
 10
17.5483958
 20
19.3846159332
 10
19.0537520783
 20
19.2838587874
  0
LWPOLYLINE
  5
6AF
100
AcDbEntity
  8
IMPORT_IGES
100
AcDbPolyline
 62
253
  6
CONTINUOUS
 90
16
 70
0
 10
19.0546576322
 20
20.1109822166
 10
16.5036583585
 20
20.3383942745
 10
13.9493655954
 20
20.5332833634
 10
11.3920885988
 20
20.6958188901
 10
8.8317570019
 20
20.8260361971
 10
6.2689729428
 20
20.9238433057
 10
3.7050240249
 20
20.989113535
 10
1.1401651303
 20
21.0217785939
 10
-1.425359947
 20
21.021786994
 10
-3.990283668
 20
20.989147583
 10
-6.5543724325
 20
20.9239019564
 10
-9.1173728112
 20
20.8261017338
 10
-11.677986275
 20
20.6958878445
 10
-14.2356086798
 20
20.5333540035
 10
-16.7903183781
 20
20.3384410268
 10
-19.3418130658
 20
20.110980698
  0
LWPOLYLINE
  5
6B0
100
AcDbEntity
  8
IMPORT_IGES
100
AcDbPolyline
 62
253
  6
CONTINUOUS
 90
6
 70
0
 10
20.2562092654
 20
6.5146689588
 10
20.2575198815
 20
6.509433305
 10
20.2588215872
 20
6.4953472898
 10
20.2601143824
 20
6.4724109131
 10
20.2614042232
 20
6.440387298
 10
20.2626851536
 20
6.3995133214
  0
LINE
  5
6B1
100
AcDbEntity
  8
IMPORT_IGES
100
AcDbLine
 62
253
  6
CONTINUOUS
 10
21.3790229389
 20
-19.1701219654
 11
21.3939904814
 21
-19.2930023369
  0
LWPOLYLINE
  5
6B2
100
AcDbEntity
  8
IMPORT_IGES
100
AcDbPolyline
 62
253
  6
CONTINUOUS
 90
6
 70
0
 10
21.3939904814
 20
-19.2930023369
 10
21.4056189314
 20
-19.3929688377
 10
21.4100952703
 20
-19.4336654536
 10
21.4136319939
 20
-19.4677858596
 10
21.4161740728
 20
-19.4948273493
 10
21.417702096
 20
-19.5145699366
  0
LINE
  5
6B3
100
AcDbEntity
  8
IMPORT_IGES
100
AcDbLine
 62
253
  6
CONTINUOUS
 10
21.2695676257
 20
-18.3331196509
 11
21.2649198818
 21
-7.6825106381
  0
LINE
  5
6B4
100
AcDbEntity
  8
IMPORT_IGES
100
AcDbLine
 62
253
  6
CONTINUOUS
 10
21.2649198818
 20
-7.6825106381
 11
21.2638465578
 21
2.980467532
  0
LINE
  5
6B5
100
AcDbEntity
  8
IMPORT_IGES
100
AcDbLine
 62
253
  6
CONTINUOUS
 10
21.2638465578
 20
2.980467532
 11
21.2683526596
 21
17.8999780946
  0
LINE
  5
6B6
100
AcDbEntity
  8
IMPORT_IGES
100
AcDbLine
 62
253
  6
CONTINUOUS
 10
21.2683526596
 20
17.8999780946
 11
21.2695676904
 21
20.0283677156
  0
LWPOLYLINE
  5
6B7
100
AcDbEntity
  8
IMPORT_IGES
100
AcDbPolyline
 62
253
  6
CONTINUOUS
 90
3
 70
0
 10
25.3451289575
 20
20.5784906983
 10
25.3476879107
 20
20.6044424427
 10
25.3493891029
 20
20.6234766513
  0
LINE
  5
6B8
100
AcDbEntity
  8
IMPORT_IGES
100
AcDbLine
 62
253
  6
CONTINUOUS
 10
25.3374654899
 20
20.5063831194
 11
25.3451289575
 21
20.5784906983
  0
LINE
  5
6B9
100
AcDbEntity
  8
IMPORT_IGES
100
AcDbLine
 62
253
  6
CONTINUOUS
 10
25.3199055334
 20
20.3506088476
 11
25.3374654899
 21
20.5063831194
  0
LINE
  5
6BA
100
AcDbEntity
  8
IMPORT_IGES
100
AcDbLine
 62
253
  6
CONTINUOUS
 10
25.2665552879
 20
19.8993026492
 11
25.3199055334
 21
20.3506088476
  0
LINE
  5
6BB
100
AcDbEntity
  8
IMPORT_IGES
100
AcDbLine
 62
253
  6
CONTINUOUS
 10
25.2103258578
 20
19.4381206962
 11
25.2665552879
 21
19.8993026492
  0
LINE
  5
6BC
100
AcDbEntity
  8
IMPORT_IGES
100
AcDbLine
 62
253
  6
CONTINUOUS
 10
-25.4974980512
 20
19.4381140043
 11
-24.6232009568
 21
19.5778453186
  0
LWPOLYLINE
  5
6BD
100
AcDbEntity
  8
IMPORT_IGES
100
AcDbPolyline
 62
253
  6
CONTINUOUS
 90
22
 70
0
 10
-19.4345993697
 20
21.0687018224
 10
-19.5234751393
 20
21.0549163242
 10
-19.610557494
 20
21.0353073103
 10
-19.69546454
 20
21.0100929224
 10
-19.777613501
 20
20.9796051884
 10
-19.8569111849
 20
20.9440400422
 10
-19.9336866859
 20
20.9033091002
 10
-20.0077126845
 20
20.8574949125
 10
-20.0785059315
 20
20.8068569208
 10
-20.1459351537
 20
20.7514331922
 10
-20.2096375987
 20
20.6914291351
 10
-20.2692757879
 20
20.6270636542
 10
-20.3246949443
 20
20.5583510366
 10
-20.3756523655
 20
20.4853384557
 10
-20.4216366746
 20
20.4084775832
 10
-20.4621358485
 20
20.3284382067
 10
-20.4968677518
 20
20.2456823199
 10
-20.5256586367
 20
20.1605119784
 10
-20.5482917265
 20
20.0734348241
 10
-20.5646185155
 20
19.9849109764
 10
-20.574536168
 20
19.8953433875
 10
-20.5779633538
 20
19.8051771482
  0
LINE
  5
6BE
100
AcDbEntity
  8
IMPORT_IGES
100
AcDbLine
 62
253
  6
CONTINUOUS
 10
-24.3276689703
 20
20.8297988597
 11
-25.2004624241
 21
20.693455849
  0
LINE
  5
6BF
100
AcDbEntity
  8
IMPORT_IGES
100
AcDbLine
 62
253
  6
CONTINUOUS
 10
-24.6232009568
 20
19.5778453186
 11
-23.7480745324
 21
19.7126853314
  0
LINE
  5
6C0
100
AcDbEntity
  8
IMPORT_IGES
100
AcDbLine
 62
253
  6
CONTINUOUS
 10
-23.4541236335
 20
20.9613091426
 11
-24.3276689703
 21
20.8297988597
  0
LINE
  5
6C1
100
AcDbEntity
  8
IMPORT_IGES
100
AcDbLine
 62
253
  6
CONTINUOUS
 10
-23.7480745324
 20
19.7126853314
 11
-22.8721266891
 21
19.8426328214
  0
LINE
  5
6C2
100
AcDbEntity
  8
IMPORT_IGES
100
AcDbLine
 62
253
  6
CONTINUOUS
 10
-22.5798445579
 20
21.0879840288
 11
-23.4541236335
 21
20.9613091426
  0
LWPOLYLINE
  5
6C3
100
AcDbEntity
  8
IMPORT_IGES
100
AcDbPolyline
 62
253
  6
CONTINUOUS
 90
3
 70
0
 10
-22.8721266891
 20
19.8426328214
 10
-21.9953886849
 20
19.9676815599
 10
-21.5567214457
 20
20.0283694465
  0
LINE
  5
6C4
100
AcDbEntity
  8
IMPORT_IGES
100
AcDbLine
 62
253
  6
CONTINUOUS
 10
-21.7048560498
 20
21.2098198807
 11
-22.5798445579
 21
21.0879840288
  0
LWPOLYLINE
  5
6C5
100
AcDbEntity
  8
IMPORT_IGES
100
AcDbPolyline
 62
253
  6
CONTINUOUS
 90
16
 70
0
 10
19.1405429114
 20
20.8996567868
 10
16.5795378124
 20
21.1904761876
 10
14.0141804435
 20
21.4398837705
 10
11.445127473
 20
21.6478186497
 10
8.8730204803
 20
21.8142297094
 10
6.2985331156
 20
21.9390743603
 10
3.7223710165
 20
22.0223211401
 10
1.1451901341
 20
22.0639503106
 10
-1.4323479446
 20
22.0639501941
 10
-4.0095288252
 20
22.0223207905
 10
-6.5856908661
 20
21.9390737799
 10
-9.160178171
 20
21.8142289002
 10
-11.7322852653
 20
21.6478176022
 10
-14.3013385527
 20
21.4398824624
 10
-16.8666963984
 20
21.1904745914
 10
-19.4277021329
 20
20.8996548673
  0
LWPOLYLINE
  5
6C6
100
AcDbEntity
  8
IMPORT_IGES
100
AcDbPolyline
 62
253
  6
CONTINUOUS
 90
25
 70
0
 10
21.4177026928
 20
21.2098198105
 10
21.2749946145
 20
21.2285356981
 10
21.132982788
 20
21.2454496184
 10
20.991670867
 20
21.2605562784
 10
20.8501177479
 20
21.2739365505
 10
20.7092698384
 20
21.2854835726
 10
20.5719616624
 20
21.2949128474
 10
20.4385028481
 20
21.3021495384
 10
20.3085863775
 20
21.307237125
 10
20.1841215178
 20
21.3100798507
 10
20.0657456324
 20
21.3106651748
 10
19.9528202547
 20
21.3089700309
 10
19.8453399658
 20
21.3048835281
 10
19.7424341795
 20
21.298290884
 10
19.6449674685
 20
21.2892364475
 10
19.55553664
 20
21.2778610577
 10
19.4746649333
 20
21.2641391299
 10
19.4018204441
 20
21.2480550967
 10
19.3380177556
 20
21.2297954447
 10
19.2835661985
 20
21.2096074535
 10
19.2381460728
 20
21.1872205282
 10
19.2018260289
 20
21.1620335088
 10
19.1746211485
 20
21.1338064408
 10
19.1564953996
 20
21.1026838335
 10
19.1474369677
 20
21.0686147312
  0
LINE
  5
6C7
100
AcDbEntity
  8
IMPORT_IGES
100
AcDbLine
 62
253
  6
CONTINUOUS
 10
22.2926903605
 20
21.0879840817
 11
21.4177026928
 21
21.2098198105
  0
LINE
  5
6C8
100
AcDbEntity
  8
IMPORT_IGES
100
AcDbLine
 62
253
  6
CONTINUOUS
 10
21.2695676904
 20
20.0283677156
 11
22.1467047628
 21
19.9057681363
  0
LINE
  5
6C9
100
AcDbEntity
  8
IMPORT_IGES
100
AcDbLine
 62
253
  6
CONTINUOUS
 10
23.1669684571
 20
20.9613093504
 11
22.2926903605
 21
21.0879840817
  0
LINE
  5
6CA
100
AcDbEntity
  8
IMPORT_IGES
100
AcDbLine
 62
253
  6
CONTINUOUS
 10
22.1467047628
 20
19.9057681363
 11
23.0230493473
 21
19.7782705008
  0
LINE
  5
6CB
100
AcDbEntity
  8
IMPORT_IGES
100
AcDbLine
 62
253
  6
CONTINUOUS
 10
24.0405130947
 20
20.829799192
 11
23.1669684571
 21
20.9613093504
  0
LINE
  5
6CC
100
AcDbEntity
  8
IMPORT_IGES
100
AcDbLine
 62
253
  6
CONTINUOUS
 10
23.0230493473
 20
19.7782705008
 11
23.8985928651
 21
19.6458761584
  0
LWPOLYLINE
  5
6CD
100
AcDbEntity
  8
IMPORT_IGES
100
AcDbPolyline
 62
253
  6
CONTINUOUS
 90
22
 70
0
 10
19.1404571928
 20
20.899870295
 10
19.2294815289
 20
20.8861376926
 10
19.316701601
 20
20.8665385588
 10
19.402058634
 20
20.8412085849
 10
19.4857145072
 20
20.8101499559
 10
19.5673135453
 20
20.7734094504
 10
19.6459800167
 20
20.731306211
 10
19.7214118504
 20
20.6840927664
 10
19.7935274909
 20
20.6318221104
 10
19.8617432982
 20
20.5748089338
 10
19.9257137604
 20
20.5134249932
 10
19.9852744203
 20
20.447868106
 10
20.040080851
 20
20.3783904563
 10
20.0898223969
 20
20.3054555661
 10
20.1343072954
 20
20.2294130203
 10
20.1733456127
 20
20.1504538142
 10
20.2067068919
 20
20.0691000459
 10
20.2342375772
 20
19.9858174162
 10
20.2558413694
 20
19.9007629451
 10
20.2713977107
 20
19.8143537778
 10
20.2808149352
 20
19.7272598466
 10
20.2840693517
 20
19.6400357738
  0
LWPOLYLINE
  5
6CE
100
AcDbEntity
  8
IMPORT_IGES
100
AcDbPolyline
 62
253
  6
CONTINUOUS
 90
3
 70
0
 10
23.8985928651
 20
19.6458761584
 10
24.7733012073
 20
19.5085917819
 10
25.2103442722
 20
19.4381152462
  0
LWPOLYLINE
  5
6CF
100
AcDbEntity
  8
IMPORT_IGES
100
AcDbPolyline
 62
253
  6
CONTINUOUS
 90
22
 70
0
 10
20.2840693517
 20
19.6400357738
 10
20.2799572377
 20
19.673902236
 10
20.2691627095
 20
19.7075938536
 10
20.2517414216
 20
19.740936884
 10
20.2277831969
 20
19.7737593882
 10
20.197411576
 20
19.8058920986
 10
20.1607831921
 20
19.8371692935
 10
20.1180869404
 20
19.8674296759
 10
20.0695429927
 20
19.8965172034
 10
20.0154016827
 20
19.9242818762
 10
19.9559422084
 20
19.9505805163
 10
19.8914711933
 20
19.9752775057
 10
19.8223211042
 20
19.9982454858
 10
19.7488485374
 20
20.0193660144
 10
19.6714323794
 20
20.0385301761
 10
19.5904718533
 20
20.0556391445
 10
19.5063844598
 20
20.0706046912
 10
19.4196038245
 20
20.0833496412
 10
19.3305774616
 20
20.0938082709
 10
19.2397644661
 20
20.1019266466
 10
19.1476331466
 20
20.1076629033
 10
19.0546586097
 20
20.1109874598
  0
LINE
  5
6D0
100
AcDbEntity
  8
IMPORT_IGES
100
AcDbLine
 62
253
  6
CONTINUOUS
 10
25.304515161
 20
-18.5230851854
 11
25.2103213556
 21
-17.7428647114
  0
LWPOLYLINE
  5
6D1
100
AcDbEntity
  8
IMPORT_IGES
100
AcDbPolyline
 62
7
  6
CONTINUOUS
 90
10
 70
0
 10
25.3494149481
 20
-18.9282230263
 10
25.3679567887
 20
-19.0920018646
 10
25.386531437
 20
-19.2364896582
 10
25.405141837
 20
-19.361638603
 10
25.4237948327
 20
-19.4674070952
 10
25.442485475
 20
-19.5537594767
 10
25.4611972515
 20
-19.6206676529
 10
25.4799229004
 20
-19.6681107137
 10
25.4986641746
 20
-19.6960733338
 10
25.5174163194
 20
-19.7045466341
  0
LWPOLYLINE
  5
6D2
100
AcDbEntity
  8
IMPORT_IGES
100
AcDbPolyline
 62
253
  6
CONTINUOUS
 90
3
 70
0
 10
25.3374432259
 20
-18.8109520332
 10
25.3323568593
 20
-18.7651195988
 10
25.304515161
 20
-18.5230851854
  0
LWPOLYLINE
  5
6D3
100
AcDbEntity
  8
IMPORT_IGES
100
AcDbPolyline
 62
253
  6
CONTINUOUS
 90
4
 70
0
 10
25.349389784
 20
-18.9282233361
 10
25.3476808807
 20
-18.9091471723
 10
25.3451156031
 20
-18.8831470115
 10
25.3374432259
 20
-18.8109520332
  0
LWPOLYLINE
  5
6D4
100
AcDbEntity
  8
IMPORT_IGES
100
AcDbPolyline
 62
253
  6
CONTINUOUS
 90
6
 70
0
 10
26.1891965108
 20
-17.9545073469
 10
26.1886184175
 20
-17.9469633135
 10
26.1880696917
 20
-17.9360790959
 10
26.1875503335
 20
-17.9218546941
 10
26.1870536674
 20
-17.9040231282
 10
26.1865863689
 20
-17.8828513781
  0
LWPOLYLINE
  5
6D5
100
AcDbEntity
  8
IMPORT_IGES
100
AcDbPolyline
 62
7
  6
CONTINUOUS
 90
8
 70
0
 10
26.3286090289
 20
-15.6571062455
 10
26.3321476183
 20
-15.7424364435
 10
26.3357672392
 20
-15.8159552122
 10
26.3394671023
 20
-15.8777715457
 10
26.3432116262
 20
-15.9272517785
 10
26.3469889506
 20
-15.9641846887
 10
26.3508109357
 20
-15.9887814983
 10
26.3546775817
 20
-16.0010422072
  0
LINE
  5
6D6
100
AcDbEntity
  8
IMPORT_IGES
100
AcDbLine
 62
253
  6
CONTINUOUS
 10
25.2000847413
 20
-3.2865492291
 11
25.2103441536
 21
-17.7428581396
  0
LINE
  5
6D7
100
AcDbEntity
  8
IMPORT_IGES
100
AcDbLine
 62
253
  6
CONTINUOUS
 10
25.2103442722
 20
19.4381152462
 11
25.2000847413
 21
-3.2865492291
  0
LWPOLYLINE
  5
6D8
100
AcDbEntity
  8
IMPORT_IGES
100
AcDbPolyline
 62
253
  6
CONTINUOUS
 90
10
 70
0
 10
26.1891961507
 20
19.6497501324
 10
26.2074569117
 20
19.811121455
 10
26.2257537783
 20
19.9533757863
 10
26.2440867505
 20
20.0765131262
 10
26.2624619477
 20
20.1805617168
 10
26.2808732504
 20
20.265493316
 10
26.2993023009
 20
20.3312231975
 10
26.3177429801
 20
20.3777231193
 10
26.336201407
 20
20.4050213233
 10
26.3546775817
 20
20.4131178096
  0
LWPOLYLINE
  5
6D9
100
AcDbEntity
  8
IMPORT_IGES
100
AcDbPolyline
 62
253
  6
CONTINUOUS
 90
22
 70
0
 10
21.2695682931
 20
-18.3331194606
 10
21.1962155922
 20
-18.3547494052
 10
21.1234574609
 20
-18.3732559207
 10
21.0519594672
 20
-18.3886297643
 10
20.9827215885
 20
-18.4008336864
 10
20.9159490837
 20
-18.4098599656
 10
20.8510715359
 20
-18.4157508215
 10
20.788561061
 20
-18.4185242916
 10
20.7289081099
 20
-18.4181209284
 10
20.6716394
 20
-18.4144910567
 10
20.617155885
 20
-18.4076416631
 10
20.5659984419
 20
-18.3975239933
 10
20.5180708826
 20
-18.384019989
 10
20.4737257196
 20
-18.366946967
 10
20.4335666755
 20
-18.3464311902
 10
20.3979362399
 20
-18.3228192443
 10
20.3674949918
 20
-18.2963638873
 10
20.3420142662
 20
-18.2667300576
 10
20.3209991014
 20
-18.2333835598
 10
20.3049730117
 20
-18.1961120873
 10
20.2947746953
 20
-18.1550217786
 10
20.2908117027
 20
-18.1100483589
  0
LINE
  5
6DA
100
AcDbEntity
  8
IMPORT_IGES
100
AcDbLine
 62
253
  6
CONTINUOUS
 10
-25.2004624241
 20
20.693455849
 11
-25.6365684469
 21
20.6234734255
  0
LWPOLYLINE
  5
6DB
100
AcDbEntity
  8
IMPORT_IGES
100
AcDbPolyline
 62
253
  6
CONTINUOUS
 90
3
 70
0
 10
25.3494150744
 20
20.6234733876
 10
24.9133078003
 20
20.6934560053
 10
24.0405130947
 20
20.829799192
  0
LWPOLYLINE
  5
6DC
100
AcDbEntity
  8
IMPORT_IGES
100
AcDbPolyline
 62
253
  6
CONTINUOUS
 90
19
 70
0
 10
25.3494138242
 20
20.6234657786
 10
25.4261752161
 20
20.6078972886
 10
25.5009357827
 20
20.5866284789
 10
25.5732802942
 20
20.5599152113
 10
25.6425547413
 20
20.5281757505
 10
25.7086980922
 20
20.4916189688
 10
25.7721316005
 20
20.4500436911
 10
25.8326403575
 20
20.4034675693
 10
25.8896064126
 20
20.3522354132
 10
25.9427386216
 20
20.2964846875
 10
25.9917087513
 20
20.2363801372
 10
26.0360462082
 20
20.1723016083
 10
26.0752875052
 20
20.1047655078
 10
26.1090909933
 20
20.0342598242
 10
26.1372468604
 20
19.9611055048
 10
26.159547644
 20
19.8856250961
 10
26.1757696868
 20
19.8082328913
 10
26.1857053255
 20
19.7294435737
 10
26.1891975423
 20
19.6497556425
  0
LWPOLYLINE
  5
6DD
100
AcDbEntity
  8
IMPORT_IGES
100
AcDbPolyline
 62
7
  6
CONTINUOUS
 90
19
 70
0
 10
25.5171636922
 20
21.3998444473
 10
25.5945311612
 20
21.3838270513
 10
25.6695296725
 20
21.3622029996
 10
25.7421592259
 20
21.3349722924
 10
25.8128298614
 20
21.3019018696
 10
25.8811315392
 20
21.2632247913
 10
25.9458341391
 20
21.2196402372
 10
26.0068748707
 20
21.1710576969
 10
26.0643165245
 20
21.1175676808
 10
26.1171173518
 20
21.0601409004
 10
26.165192736
 20
20.9987053894
 10
26.2086272937
 20
20.9333331141
 10
26.2466331253
 20
20.8652106842
 10
26.2791109961
 20
20.7942879491
 10
26.3061601408
 20
20.7206150594
 10
26.3272903641
 20
20.6455290773
 10
26.3423382677
 20
20.56947569
 10
26.35146725
 20
20.4920092102
 10
26.3546773109
 20
20.413129638
  0
LINE
  5
6DE
100
AcDbEntity
  8
IMPORT_IGES
100
AcDbLine
 62
7
  6
CONTINUOUS
 10
26.3251506817
 20
-15.5600736124
 11
26.3286090289
 21
-15.6571062455
  0
LINE
  5
6DF
100
AcDbEntity
  8
IMPORT_IGES
100
AcDbLine
 62
7
  6
CONTINUOUS
 10
26.3185754693
 20
-15.3336845306
 11
26.3251506817
 21
-15.5600736124
  0
LINE
  5
6E0
100
AcDbEntity
  8
IMPORT_IGES
100
AcDbLine
 62
7
  6
CONTINUOUS
 10
26.312485062
 20
-15.065485856
 11
26.3185754693
 21
-15.3336845306
  0
LINE
  5
6E1
100
AcDbEntity
  8
IMPORT_IGES
100
AcDbLine
 62
7
  6
CONTINUOUS
 10
26.3044542407
 20
-14.593300525
 11
26.312485062
 21
-15.065485856
  0
LINE
  5
6E2
100
AcDbEntity
  8
IMPORT_IGES
100
AcDbLine
 62
253
  6
CONTINUOUS
 10
26.1865863689
 20
-17.8828513781
 11
26.1858031848
 21
-17.8327379919
  0
LINE
  5
6E3
100
AcDbEntity
  8
IMPORT_IGES
100
AcDbLine
 62
7
  6
CONTINUOUS
 10
26.2961522062
 20
-13.8550635109
 11
26.3044542407
 21
-14.593300525
  0
LINE
  5
6E4
100
AcDbEntity
  8
IMPORT_IGES
100
AcDbLine
 62
253
  6
CONTINUOUS
 10
26.1858031848
 20
-17.8327379919
 11
26.1852311364
 21
-17.773572866
  0
LINE
  5
6E5
100
AcDbEntity
  8
IMPORT_IGES
100
AcDbLine
 62
7
  6
CONTINUOUS
 10
26.2909788349
 20
-13.026816746
 11
26.2961522062
 21
-13.8550635109
  0
LINE
  5
6E6
100
AcDbEntity
  8
IMPORT_IGES
100
AcDbLine
 62
253
  6
CONTINUOUS
 10
26.1852311364
 20
-17.773572866
 11
26.1848313123
 21
-17.6764686654
  0
LINE
  5
6E7
100
AcDbEntity
  8
IMPORT_IGES
100
AcDbLine
 62
253
  6
CONTINUOUS
 10
26.1848313123
 20
-17.6764686654
 11
26.1788575134
 21
-11.5063357168
  0
LINE
  5
6E8
100
AcDbEntity
  8
IMPORT_IGES
100
AcDbLine
 62
253
  6
CONTINUOUS
 10
26.1788575134
 20
-11.5063357168
 11
26.1752727243
 21
-5.3312562953
  0
LINE
  5
6E9
100
AcDbEntity
  8
IMPORT_IGES
100
AcDbLine
 62
7
  6
CONTINUOUS
 10
26.2892210882
 20
-12.152764238
 11
26.2909788349
 21
-13.026816746
  0
LINE
  5
6EA
100
AcDbEntity
  8
IMPORT_IGES
100
AcDbLine
 62
253
  6
CONTINUOUS
 10
26.1752727243
 20
-5.3312562953
 11
26.1740772786
 21
0.847628104
  0
LINE
  5
6EB
100
AcDbEntity
  8
IMPORT_IGES
100
AcDbLine
 62
7
  6
CONTINUOUS
 10
26.3546771061
 20
-18.7178891288
 11
26.3546771061
 21
-16.0010686734
  0
LINE
  5
6EC
100
AcDbEntity
  8
IMPORT_IGES
100
AcDbLine
 62
7
  6
CONTINUOUS
 10
26.3546773109
 20
17.6963157966
 11
26.3546773109
 21
20.413129638
  0
LINE
  5
6ED
100
AcDbEntity
  8
IMPORT_IGES
100
AcDbLine
 62
7
  6
CONTINUOUS
 10
26.3564230882
 20
17.2976249128
 11
26.3564230882
 21
-15.6023750872
  0
LINE
  5
6EE
100
AcDbEntity
  8
IMPORT_IGES
100
AcDbLine
 62
253
  6
CONTINUOUS
 10
26.1740772786
 20
0.847628104
 11
26.1752727323
 21
7.0265125001
  0
LINE
  5
6EF
100
AcDbEntity
  8
IMPORT_IGES
100
AcDbLine
 62
253
  6
CONTINUOUS
 10
26.1752727323
 20
7.0265125001
 11
26.1788575294
 21
13.2015918992
  0
LINE
  5
6F0
100
AcDbEntity
  8
IMPORT_IGES
100
AcDbLine
 62
7
  6
CONTINUOUS
 10
26.2909789367
 20
14.7220958357
 11
26.2892210882
 21
-12.152764238
  0
LINE
  5
6F1
100
AcDbEntity
  8
IMPORT_IGES
100
AcDbLine
 62
253
  6
CONTINUOUS
 10
26.1788575294
 20
13.2015918992
 11
26.1850493545
 21
19.439562106
  0
LINE
  5
6F2
100
AcDbEntity
  8
IMPORT_IGES
100
AcDbLine
 62
7
  6
CONTINUOUS
 10
26.2961526199
 20
15.5503552173
 11
26.2909789367
 21
14.7220958357
  0
LINE
  5
6F3
100
AcDbEntity
  8
IMPORT_IGES
100
AcDbLine
 62
253
  6
CONTINUOUS
 10
26.1850493545
 20
19.439562106
 11
26.1855133112
 21
19.5017170807
  0
LINE
  5
6F4
100
AcDbEntity
  8
IMPORT_IGES
100
AcDbLine
 62
7
  6
CONTINUOUS
 10
26.3044548868
 20
16.2885874768
 11
26.2961526199
 21
15.5503552173
  0
LWPOLYLINE
  5
6F5
100
AcDbEntity
  8
IMPORT_IGES
100
AcDbPolyline
 62
253
  6
CONTINUOUS
 90
8
 70
0
 10
26.1855133112
 20
19.5017170807
 10
26.1862095478
 20
19.5569957558
 10
26.1866303789
 20
19.5803718198
 10
26.187097898
 20
19.601033832
 10
26.1875904048
 20
19.6183644078
 10
26.1881006658
 20
19.6321577524
 10
26.1886359144
 20
19.6426196606
 10
26.1891961507
 20
19.6497501324
  0
LINE
  5
6F6
100
AcDbEntity
  8
IMPORT_IGES
100
AcDbLine
 62
7
  6
CONTINUOUS
 10
26.3124857909
 20
16.7607648363
 11
26.3044548868
 21
16.2885874768
  0
LINE
  5
6F7
100
AcDbEntity
  8
IMPORT_IGES
100
AcDbLine
 62
7
  6
CONTINUOUS
 10
26.3185761964
 20
17.0289571967
 11
26.3124857909
 21
16.7607648363
  0
LINE
  5
6F8
100
AcDbEntity
  8
IMPORT_IGES
100
AcDbLine
 62
7
  6
CONTINUOUS
 10
26.3251513571
 20
17.2553401225
 11
26.3185761964
 21
17.0289571967
  0
LINE
  5
6F9
100
AcDbEntity
  8
IMPORT_IGES
100
AcDbLine
 62
7
  6
CONTINUOUS
 10
26.3286096593
 20
17.3523698385
 11
26.3251513571
 21
17.2553401225
  0
LWPOLYLINE
  5
6FA
100
AcDbEntity
  8
IMPORT_IGES
100
AcDbPolyline
 62
7
  6
CONTINUOUS
 90
19
 70
0
 10
26.3546771061
 20
-18.7178891288
 10
26.3514662089
 20
-18.7967681891
 10
26.3423365755
 20
-18.8742341019
 10
26.327288206
 20
-18.9502868673
 10
26.3061577316
 20
-19.0253721432
 10
26.279108521
 20
-19.0990442716
 10
26.2466306801
 20
-19.1699662792
 10
26.2086249543
 20
-19.2380880331
 10
26.1651905981
 20
-19.3034596662
 10
26.1171154814
 20
-19.3648946031
 10
26.0643149828
 20
-19.4223208873
 10
26.0068737236
 20
-19.4758104755
 10
25.9458334373
 20
-19.524392662
 10
25.8811309627
 20
-19.5679770799
 10
25.8128294609
 20
-19.6066540961
 10
25.7421601486
 20
-19.6397241063
 10
25.6695334313
 20
-19.6669539088
 10
25.5945389035
 20
-19.6885767052
 10
25.5171765652
 20
-19.7045924955
  0
LWPOLYLINE
  5
6FB
100
AcDbEntity
  8
IMPORT_IGES
100
AcDbPolyline
 62
253
  6
CONTINUOUS
 90
19
 70
0
 10
26.1891985362
 20
-17.9545089013
 10
26.1858469796
 20
-18.03252092
 10
26.176392488
 20
-18.1092304704
 10
26.1610873185
 20
-18.1841902648
 10
26.1403357932
 20
-18.2566149306
 10
26.1143784345
 20
-18.3265214704
 10
26.0830062233
 20
-18.3946287199
 10
26.0461528416
 20
-18.4607975072
 10
26.0040894975
 20
-18.524296165
 10
25.9568773947
 20
-18.5848466355
 10
25.9045955553
 20
-18.6421173718
 10
25.8475548952
 20
-18.695556467
 10
25.786230682
 20
-18.7445880815
 10
25.7210547125
 20
-18.7888001004
 10
25.6523148376
 20
-18.8279340126
 10
25.5803520724
 20
-18.8617121029
 10
25.5055678217
 20
-18.8898545014
 10
25.4284301522
 20
-18.9120962767
 10
25.3494138483
 20
-18.9282163066
  0
LWPOLYLINE
  5
6FC
100
AcDbEntity
  8
IMPORT_IGES
100
AcDbPolyline
 62
253
  6
CONTINUOUS
 90
22
 70
0
 10
20.284069426
 20
-17.9447408049
 10
20.2797311946
 20
-17.9511780693
 10
20.2684017232
 20
-17.9575805975
 10
20.2501421464
 20
-17.9639138411
 10
20.2250509942
 20
-17.9701436252
 10
20.1932636604
 20
-17.9762363334
 10
20.1549516728
 20
-17.9821590888
 10
20.1103217663
 20
-17.9878799316
 10
20.0596147678
 20
-17.9933679917
 10
20.003104297
 20
-17.998593655
 10
19.9410952893
 20
-18.0035287233
 10
19.8739223509
 20
-18.0081465667
 10
19.8019479532
 20
-18.0124222667
 10
19.7255604764
 20
-18.0163327514
 10
19.6451721142
 20
-18.0198569193
 10
19.5612166495
 20
-18.0229757538
 10
19.4741457055
 20
-18.0256724649
 10
19.3844304487
 20
-18.0279324474
 10
19.2925594364
 20
-18.0297434304
 10
19.199030154
 20
-18.0310956893
 10
19.1043459535
 20
-18.0319820271
 10
19.0090177425
 20
-18.0323977296
  0
LWPOLYLINE
  5
6FD
100
AcDbEntity
  8
IMPORT_IGES
100
AcDbPolyline
 62
253
  6
CONTINUOUS
 90
22
 70
0
 10
26.1848313096
 20
19.3717261823
 10
26.1808930513
 20
19.3765769126
 10
26.1717361306
 20
19.3813635253
 10
26.1575338196
 20
19.3860618009
 10
26.1385498822
 20
19.3906346592
 10
26.1149630659
 20
19.3950758224
 10
26.0867152803
 20
19.399406522
 10
26.0538565235
 20
19.403613272
 10
26.0165884381
 20
19.4076652263
 10
25.9749396693
 20
19.4115536788
 10
25.9290756146
 20
19.4152555165
 10
25.8791693967
 20
19.4187497388
 10
25.8252157471
 20
19.4220271762
 10
25.7672336914
 20
19.4250729038
 10
25.7056109651
 20
19.4278534768
 10
25.6409462526
 20
19.4303346199
 10
25.5736639645
 20
19.4324971205
 10
25.504027223
 20
19.4343296954
 10
25.4324747943
 20
19.4358178244
 10
25.3594192587
 20
19.4369507698
 10
25.2852386188
 20
19.4377205492
 10
25.2103442678
 20
19.438120615
  0
ARC
  5
6FE
100
AcDbEntity
  8
IMPORT_IGES
100
AcDbCircle
 62
253
  6
CONTINUOUS
 10
-0.1435769118
 20
-255.2023750872
 40
275.0086507125
100
AcDbArc
 50
86.0281568059
 51
93.9718453427
  0
ARC
  5
6FF
100
AcDbEntity
  8
IMPORT_IGES
100
AcDbCircle
 62
253
  6
CONTINUOUS
 10
-0.1435769118
 20
279.6976249128
 40
275.0086507125
100
AcDbArc
 50
266.0281574023
 51
273.9718445283
  0
ARC
  5
700
100
AcDbEntity
  8
IMPORT_IGES
100
AcDbCircle
 62
253
  6
CONTINUOUS
 10
-0.1435769118
 20
279.6976249128
 40
274.0086887894
100
AcDbArc
 50
266.0281718367
 51
273.9718278647
  0
ARC
  5
701
100
AcDbEntity
  8
IMPORT_IGES
100
AcDbCircle
 62
253
  6
CONTINUOUS
 10
-0.1435769118
 20
-255.2023750872
 40
274.0086887894
100
AcDbArc
 50
86.0281718162
 51
93.971827868
  0
ARC
  5
702
100
AcDbEntity
  8
IMPORT_IGES
100
AcDbCircle
 62
7
  6
CONTINUOUS
 10
-0.1435769118
 20
136.1976249128
 40
157.9999166666
100
AcDbArc
 50
260.6531998446
 51
279.346803864
  0
ARC
  5
703
100
AcDbEntity
  8
IMPORT_IGES
100
AcDbCircle
 62
7
  6
CONTINUOUS
 10
-0.1435769118
 20
-134.5023750872
 40
157.9999166666
100
AcDbArc
 50
80.6532008674
 51
99.3468044874
  0
CIRCLE
  5
704
100
AcDbEntity
  8
IMPORT_IGES
100
AcDbCircle
 62
7
  6
CONTINUOUS
 10
12.8564230882
 20
12.2476249128
 40
4.1
  0
CIRCLE
  5
705
100
AcDbEntity
  8
IMPORT_IGES
100
AcDbCircle
 62
7
  6
CONTINUOUS
 10
-13.1435769118
 20
12.2476249128
 40
4.1
  0
CIRCLE
  5
706
100
AcDbEntity
  8
IMPORT_IGES
100
AcDbCircle
 62
7
  6
CONTINUOUS
 10
-0.1435769118
 20
12.2476249128
 40
4.1
  0
CIRCLE
  5
707
100
AcDbEntity
  8
IMPORT_IGES
100
AcDbCircle
 62
7
  6
CONTINUOUS
 10
12.8564230882
 20
12.2476249128
 40
4.0
  0
CIRCLE
  5
708
100
AcDbEntity
  8
IMPORT_IGES
100
AcDbCircle
 62
7
  6
CONTINUOUS
 10
-13.1435769118
 20
12.2476249128
 40
4.0
  0
CIRCLE
  5
709
100
AcDbEntity
  8
IMPORT_IGES
100
AcDbCircle
 62
7
  6
CONTINUOUS
 10
-0.1435769118
 20
12.2476249128
 40
4.0
  0
CIRCLE
  5
70A
100
AcDbEntity
  8
IMPORT_IGES
100
AcDbCircle
 62
7
  6
CONTINUOUS
 10
-13.1435769118
 20
12.2476249128
 40
2.5
  0
CIRCLE
  5
70B
100
AcDbEntity
  8
IMPORT_IGES
100
AcDbCircle
 62
7
  6
CONTINUOUS
 10
12.8564230882
 20
12.2476249128
 40
2.5
  0
CIRCLE
  5
70C
100
AcDbEntity
  8
IMPORT_IGES
100
AcDbCircle
 62
7
  6
CONTINUOUS
 10
-0.1435769118
 20
12.2476249128
 40
2.5
  0
ARC
  5
70D
100
AcDbEntity
  8
IMPORT_IGES
100
AcDbCircle
 62
7
  6
CONTINUOUS
 10
26.0564230882
 20
17.2976249128
 40
0.3
100
AcDbArc
 50
0.0
 51
23.4911634838
  0
ARC
  5
70E
100
AcDbEntity
  8
IMPORT_IGES
100
AcDbCircle
 62
7
  6
CONTINUOUS
 10
26.0564230882
 20
-15.6023750872
 40
0.3
100
AcDbArc
 50
336.5087984884
 51
360.0
  0
ARC
  5
70F
100
AcDbEntity
  8
IMPORT_IGES
100
AcDbCircle
 62
7
  6
CONTINUOUS
 10
-26.3435769118
 20
17.2976249128
 40
0.3
100
AcDbArc
 50
156.5096052186
 51
180.0
  0
ARC
  5
710
100
AcDbEntity
  8
IMPORT_IGES
100
AcDbCircle
 62
7
  6
CONTINUOUS
 10
-26.3435769118
 20
-15.6023750872
 40
0.3
100
AcDbArc
 50
180.0
 51
203.4903931639
  0
ARC
  5
711
100
AcDbEntity
  8
IMPORT_IGES
100
AcDbCircle
 62
253
  6
CONTINUOUS
 10
-19.1022813029
 20
6.6463066892
 40
0.2999843022
100
AcDbArc
 50
179.9991074483
 51
266.0291296305
  0
ARC
  5
712
100
AcDbEntity
  8
IMPORT_IGES
100
AcDbCircle
 62
253
  6
CONTINUOUS
 10
18.815127491
 20
17.8489431539
 40
0.2999842904
100
AcDbArc
 50
359.999106548
 51
86.0291128941
  0
ARC
  5
713
100
AcDbEntity
  8
IMPORT_IGES
100
AcDbCircle
 62
253
  6
CONTINUOUS
 10
18.8151274857
 20
6.6463066777
 40
0.2999841529
100
AcDbArc
 50
273.9705965601
 51
0.0012151613
  0
ARC
  5
714
100
AcDbEntity
  8
IMPORT_IGES
100
AcDbCircle
 62
253
  6
CONTINUOUS
 10
-19.1022813113
 20
17.8489431509
 40
0.2999841508
100
AcDbArc
 50
93.9705992715
 51
180.0012153495
  0
ENDSEC
  0
SECTION
  2
OBJECTS
  0
DICTIONARY
  5
C
100
AcDbDictionary
280
0
281
1
  3
ACAD_GROUP
350
D
  3
ACAD_MLINESTYLE
350
17
  3
ACAD_LAYOUT
350
1A
  3
ACAD_PLOTSETTINGS
350
19
  3
ACAD_PLOTSTYLENAME
350
E
  0
DICTIONARY
  5
D
102
{ACAD_REACTORS
330
C
102
}
100
AcDbDictionary
280
0
281
1
  0
ACDBDICTIONARYWDFLT
  5
E
102
{ACAD_REACTORS
330
C
102
}
100
AcDbDictionary
281
1
  3
Normal
350
F
100
AcDbDictionaryWithDefault
340
F
  0
DICTIONARY
  5
17
102
{ACAD_REACTORS
330
C
102
}
100
AcDbDictionary
280
0
281
1
  3
Standard
350
18
  0
DICTIONARY
  5
19
102
{ACAD_REACTORS
330
C
102
}
100
AcDbDictionary
281
1
  0
DICTIONARY
  5
1A
102
{ACAD_REACTORS
330
C
102
}
100
AcDbDictionary
281
1
  3
Model
350
715
  3
Layout1
350
716
  0
ACDBPLACEHOLDER
  5
F
102
{ACAD_REACTORS
330
E
102
}
  0
MLINESTYLE
  5
18
102
{ACAD_REACTORS
330
17
102
}
100
AcDbMlineStyle
  2
STANDARD
 70
0
  3

 62
256
 51
90.0
 52
90.0
 71
2
 49
0.5
 62
256
  6
BYLAYER
 49
-0.5
 62
256
  6
BYLAYER
  0
LAYOUT
  5
715
102
{ACAD_REACTORS
330
1A
102
}
100
AcDbPlotSettings
  1

  2
none_device
  4
ISO_A4_(297.00_x_210.00_MM)
  6

 40
0.0
 41
0.0
 42
0.0
 43
0.0
 44
297.0
 45
210.0
 46
0.0
 47
0.0
 48
0.0
 49
0.0
140
0.0
141
0.0
142
1.0
143
1.0
 70
1024
 72
1
 73
0
 74
0
  7

 75
0
147
1.0
148
0.0
149
0.0
100
AcDbLayout
  1
Model
 70
0
 71
0
 10
0.0
 20
0.0
 11
297.0
 21
210.0
 12
0.0
 22
0.0
 32
0.0
 14
0.0
 24
0.0
 34
0.0
 15
0.0
 25
0.0
 35
0.0
146
0.0
 13
0.0
 23
0.0
 33
0.0
 16
1.0
 26
0.0
 36
0.0
 17
0.0
 27
1.0
 37
0.0
 76
0
330
20F
345
0
346
0
  0
LAYOUT
  5
716
102
{ACAD_REACTORS
330
1A
102
}
100
AcDbPlotSettings
  1

  2
none_device
  4
ISO_A4_(297.00_x_210.00_MM)
  6

 40
0.0
 41
0.0
 42
0.0
 43
0.0
 44
297.0
 45
210.0
 46
0.0
 47
0.0
 48
0.0
 49
0.0
140
0.0
141
0.0
142
1.0
143
1.0
 70
0
 72
1
 73
0
 74
0
  7

 75
0
147
1.0
148
0.0
149
0.0
100
AcDbLayout
  1
Layout1
 70
0
 71
1
 10
0.0
 20
0.0
 11
297.0
 21
210.0
 12
0.0
 22
0.0
 32
0.0
 14
0.0
 24
0.0
 34
0.0
 15
0.0
 25
0.0
 35
0.0
146
0.0
 13
0.0
 23
0.0
 33
0.0
 16
1.0
 26
0.0
 36
0.0
 17
0.0
 27
1.0
 37
0.0
 76
0
330
210
345
0
346
0
  0
ENDSEC
  0
EOF
