  0
SECTION
  2
HEADER
  9
$ACADVER
  1
AC1024
  9
$DWGCODEPAGE
  3
ANSI_1252
  9
$EXTMAX
 10
420.0
 20
297.0
 30
0.0
  9
$EXTMIN
 10
0.0
 20
-0.0
 30
0.0
  9
$LIMMIN
 10
0.0
 20
-0.0
  9
$LIMMAX
 10
420.0
 20
297.0
  9
$VIEWCTR
 10
210.0
 20
148.5
  9
$VIEWSIZE
 40
297.0
  9
$CLAYER
  8
0
  9
$LTSCALE
 40
23.1
  9
$CELTYPE
  6
BYLAYER
  9
$DIMSCALE
 40
1.0
  9
$DIMASZ
 40
3.0
  9
$DIMEXO
 40
0.5
  9
$DIMDLI
 40
15.96
  9
$DIMEXE
 40
1.5
  9
$DIMCEN
 40
3.78
  9
$DIMLFAC
 40
1.0
  9
$DIMBLK
  1
_FILLED
  9
$DIMALT
 70
0
  9
$DIMALTF
 40
0.0393700787
  9
$DIMTXT
 40
3.0
  9
$DIMTOL
 70
1
  9
$DIMLIM
 70
0
  9
$DIMTFAC
 40
1.0
  9
$DIMTP
 40
0.01
  9
$DIMTM
 40
0.01
  9
$DIMGAP
 40
0.625
  9
$DIMDSEP
 70
44
  9
$AUNITS
 70
0
  9
$PDMODE
 70
3
  9
$PDSIZE
 40
3.0
  9
$HANDSEED
  5
460
  9
$TILEMODE
 70
1
  9
$MEASUREMENT
 70
1
  9
$INSUNITS
 70
4
  0
ENDSEC
  0
SECTION
  2
CLASSES
  0
CLASS
  1
ACDBDICTIONARYWDFLT
  2
AcDbDictionaryWithDefault
  3
AutoCAD 2000
 90
0
 91
1
280
0
281
0
  0
CLASS
  1
ACDBPLACEHOLDER
  2
AcDbPlaceHolder
  3
AutoCAD 2000
 90
0
 91
1
280
0
281
0
  0
CLASS
  1
LAYOUT
  2
AcDbLayout
  3
AutoCAD 2000
 90
0
 91
0
280
0
281
0
  0
ENDSEC
  0
SECTION
  2
TABLES
  0
TABLE
  2
VPORT
  5
8
100
AcDbSymbolTable
 70
2
  0
VPORT
  5
1F4
100
AcDbSymbolTableRecord
100
AcDbViewportTableRecord
  2
*ACTIVE
 70
0
 10
0.0
 20
0.0
 11
1.0
 21
1.0
 12
210.0
 22
148.5
 13
0.0
 23
0.0
 14
1.0
 24
1.0
 15
0.0
 25
0.0
 16
0.0
 26
0.0
 36
1.0
 17
0.0
 27
0.0
 37
0.0
 40
297.0
 41
1.4141414141
 42
50.0
 43
0.0
 44
0.0
 50
0.0
 51
0.0
 71
0
 72
100
 73
1
 74
1
 75
0
 76
0
 77
0
 78
0
  0
ENDTAB
  0
TABLE
  2
LTYPE
  5
5
100
AcDbSymbolTable
 70
6
  0
LTYPE
  5
14
100
AcDbSymbolTableRecord
100
AcDbLinetypeTableRecord
  2
BYBLOCK
 70
0
  3

 72
65
 73
0
 40
0.0
  0
LTYPE
  5
15
100
AcDbSymbolTableRecord
100
AcDbLinetypeTableRecord
  2
BYLAYER
 70
0
  3

 72
65
 73
0
 40
0.0
  0
LTYPE
  5
16
100
AcDbSymbolTableRecord
100
AcDbLinetypeTableRecord
  2
CONTINUOUS
 70
64
  3
Solid line
 72
65
 73
0
 40
0.0
  0
LTYPE
  5
1F5
100
AcDbSymbolTableRecord
100
AcDbLinetypeTableRecord
  2
CENTER
 70
64
  3
____ _ ____ _ ____ _ ____ _ ____ _ ____ _ ____
 72
65
 73
4
 40
0.6
 49
0.375
 74
0
 49
-0.075
 74
0
 49
0.075
 74
0
 49
-0.075
 74
0
  0
LTYPE
  5
1F6
100
AcDbSymbolTableRecord
100
AcDbLinetypeTableRecord
  2
HIDDEN
 70
64
  3
- - - - - - - - - - - - - - - - - - - -
 72
65
 73
2
 40
0.2
 49
0.1
 74
0
 49
-0.1
 74
0
  0
LTYPE
  5
1F7
100
AcDbSymbolTableRecord
100
AcDbLinetypeTableRecord
  2
PHANTOM
 70
64
  3
_____ _ _ _____ _ _ _____ _ _ _____
 72
65
 73
6
 40
0.8
 49
0.45
 74
0
 49
-0.05
 74
0
 49
0.1
 74
0
 49
-0.05
 74
0
 49
0.1
 74
0
 49
-0.05
 74
0
  0
LTYPE
  5
1F8
100
AcDbSymbolTableRecord
100
AcDbLinetypeTableRecord
  2
DOT
 70
64
  3
. . . . . . . . . . . . . . . . . . . .
 72
65
 73
2
 40
0.2
 49
0.1
 74
0
 49
-0.1
 74
0
  0
LTYPE
  5
1F9
100
AcDbSymbolTableRecord
100
AcDbLinetypeTableRecord
  2
DASHED
 70
64
  3
- - - - - - - - - - - - - - - - - - - -
 72
65
 73
2
 40
0.2
 49
0.1
 74
0
 49
-0.1
 74
0
  0
ENDTAB
  0
TABLE
  2
LAYER
  5
2
100
AcDbSymbolTable
 70
36
  0
LAYER
  5
10
100
AcDbSymbolTableRecord
100
AcDbLayerTableRecord
  2
0
 70
0
 62
7
  6
CONTINUOUS
370
-3
390
F
  0
LAYER
  5
1FA
100
AcDbSymbolTableRecord
100
AcDbLayerTableRecord
  2
DEFAULT_1
 70
0
 62
7
  6
CENTER
370
-3
390
F
  0
LAYER
  5
1FB
100
AcDbSymbolTableRecord
100
AcDbLayerTableRecord
  2
DEFAULT_2
 70
0
 62
7
  6
HIDDEN
370
-3
390
F
  0
LAYER
  5
1FC
100
AcDbSymbolTableRecord
100
AcDbLayerTableRecord
  2
DEFAULT_3
 70
0
 62
7
  6
PHANTOM
370
-3
390
F
  0
LAYER
  5
1FD
100
AcDbSymbolTableRecord
100
AcDbLayerTableRecord
  2
1
 70
0
 62
7
  6
CONTINUOUS
370
-3
390
F
  0
LAYER
  5
1FE
100
AcDbSymbolTableRecord
100
AcDbLayerTableRecord
  2
10
 70
0
 62
7
  6
CONTINUOUS
370
-3
390
F
  0
LAYER
  5
1FF
100
AcDbSymbolTableRecord
100
AcDbLayerTableRecord
  2
11
 70
0
 62
7
  6
CONTINUOUS
370
-3
390
F
  0
LAYER
  5
200
100
AcDbSymbolTableRecord
100
AcDbLayerTableRecord
  2
12
 70
0
 62
7
  6
CONTINUOUS
370
-3
390
F
  0
LAYER
  5
201
100
AcDbSymbolTableRecord
100
AcDbLayerTableRecord
  2
13
 70
0
 62
7
  6
CONTINUOUS
370
-3
390
F
  0
LAYER
  5
202
100
AcDbSymbolTableRecord
100
AcDbLayerTableRecord
  2
14
 70
0
 62
7
  6
CONTINUOUS
370
-3
390
F
  0
LAYER
  5
203
100
AcDbSymbolTableRecord
100
AcDbLayerTableRecord
  2
14_1
 70
0
 62
7
  6
CONTINUOUS
370
-3
390
F
  0
LAYER
  5
204
100
AcDbSymbolTableRecord
100
AcDbLayerTableRecord
  2
14_2
 70
0
 62
7
  6
CONTINUOUS
370
-3
390
F
  0
LAYER
  5
205
100
AcDbSymbolTableRecord
100
AcDbLayerTableRecord
  2
14_3
 70
0
 62
7
  6
CONTINUOUS
370
-3
390
F
  0
LAYER
  5
206
100
AcDbSymbolTableRecord
100
AcDbLayerTableRecord
  2
15
 70
0
 62
7
  6
CONTINUOUS
370
-3
390
F
  0
LAYER
  5
207
100
AcDbSymbolTableRecord
100
AcDbLayerTableRecord
  2
15_1
 70
0
 62
7
  6
CONTINUOUS
370
-3
390
F
  0
LAYER
  5
208
100
AcDbSymbolTableRecord
100
AcDbLayerTableRecord
  2
15_2
 70
0
 62
7
  6
CONTINUOUS
370
-3
390
F
  0
LAYER
  5
209
100
AcDbSymbolTableRecord
100
AcDbLayerTableRecord
  2
15_3
 70
0
 62
7
  6
CONTINUOUS
370
-3
390
F
  0
LAYER
  5
20A
100
AcDbSymbolTableRecord
100
AcDbLayerTableRecord
  2
15_4
 70
0
 62
7
  6
CONTINUOUS
370
-3
390
F
  0
LAYER
  5
20B
100
AcDbSymbolTableRecord
100
AcDbLayerTableRecord
  2
15_5
 70
0
 62
7
  6
CONTINUOUS
370
-3
390
F
  0
LAYER
  5
20C
100
AcDbSymbolTableRecord
100
AcDbLayerTableRecord
  2
2
 70
0
 62
7
  6
CONTINUOUS
370
-3
390
F
  0
LAYER
  5
20D
100
AcDbSymbolTableRecord
100
AcDbLayerTableRecord
  2
3
 70
0
 62
7
  6
CONTINUOUS
370
-3
390
F
  0
LAYER
  5
20E
100
AcDbSymbolTableRecord
100
AcDbLayerTableRecord
  2
4
 70
0
 62
7
  6
CONTINUOUS
370
-3
390
F
  0
LAYER
  5
20F
100
AcDbSymbolTableRecord
100
AcDbLayerTableRecord
  2
4_1
 70
0
 62
7
  6
CONTINUOUS
370
-3
390
F
  0
LAYER
  5
210
100
AcDbSymbolTableRecord
100
AcDbLayerTableRecord
  2
4_2
 70
0
 62
7
  6
CONTINUOUS
370
-3
390
F
  0
LAYER
  5
211
100
AcDbSymbolTableRecord
100
AcDbLayerTableRecord
  2
5
 70
0
 62
7
  6
CONTINUOUS
370
-3
390
F
  0
LAYER
  5
212
100
AcDbSymbolTableRecord
100
AcDbLayerTableRecord
  2
6
 70
0
 62
7
  6
CONTINUOUS
370
-3
390
F
  0
LAYER
  5
213
100
AcDbSymbolTableRecord
100
AcDbLayerTableRecord
  2
7
 70
0
 62
7
  6
CONTINUOUS
370
-3
390
F
  0
LAYER
  5
214
100
AcDbSymbolTableRecord
100
AcDbLayerTableRecord
  2
8
 70
0
 62
7
  6
CONTINUOUS
370
-3
390
F
  0
LAYER
  5
215
100
AcDbSymbolTableRecord
100
AcDbLayerTableRecord
  2
9
 70
0
 62
7
  6
CONTINUOUS
370
-3
390
F
  0
LAYER
  5
216
100
AcDbSymbolTableRecord
100
AcDbLayerTableRecord
  2
ASSI
 70
0
 62
7
  6
CONTINUOUS
370
-3
390
F
  0
LAYER
  5
217
100
AcDbSymbolTableRecord
100
AcDbLayerTableRecord
  2
COLOR1
 70
0
 62
7
  6
CONTINUOUS
370
-3
390
F
  0
LAYER
  5
218
100
AcDbSymbolTableRecord
100
AcDbLayerTableRecord
  2
COLOR11
 70
0
 62
7
  6
CONTINUOUS
370
-3
390
F
  0
LAYER
  5
219
100
AcDbSymbolTableRecord
100
AcDbLayerTableRecord
  2
COLOR13
 70
0
 62
7
  6
CONTINUOUS
370
-3
390
F
  0
LAYER
  5
21A
100
AcDbSymbolTableRecord
100
AcDbLayerTableRecord
  2
COLOR15
 70
0
 62
7
  6
CONTINUOUS
370
-3
390
F
  0
LAYER
  5
21B
100
AcDbSymbolTableRecord
100
AcDbLayerTableRecord
  2
COLOR18
 70
0
 62
7
  6
CONTINUOUS
370
-3
390
F
  0
LAYER
  5
21C
100
AcDbSymbolTableRecord
100
AcDbLayerTableRecord
  2
COLOR5
 70
0
 62
7
  6
CONTINUOUS
370
-3
390
F
  0
LAYER
  5
21D
100
AcDbSymbolTableRecord
100
AcDbLayerTableRecord
  2
COORDINATE
 70
0
 62
7
  6
CONTINUOUS
370
-3
390
F
  0
LAYER
  5
21E
100
AcDbSymbolTableRecord
100
AcDbLayerTableRecord
  2
COPY_PUBLISH
 70
0
 62
7
  6
CONTINUOUS
370
-3
390
F
  0
LAYER
  5
21F
100
AcDbSymbolTableRecord
100
AcDbLayerTableRecord
  2
COSMETICI
 70
0
 62
7
  6
CONTINUOUS
370
-3
390
F
  0
LAYER
  5
220
100
AcDbSymbolTableRecord
100
AcDbLayerTableRecord
  2
CURVE
 70
0
 62
7
  6
CONTINUOUS
370
-3
390
F
  0
LAYER
  5
221
100
AcDbSymbolTableRecord
100
AcDbLayerTableRecord
  2
DRAFT
 70
0
 62
7
  6
CONTINUOUS
370
-3
390
F
  0
LAYER
  5
222
100
AcDbSymbolTableRecord
100
AcDbLayerTableRecord
  2
IMPORT_IGES
 70
0
 62
7
  6
CONTINUOUS
370
-3
390
F
  0
LAYER
  5
223
100
AcDbSymbolTableRecord
100
AcDbLayerTableRecord
  2
INTF_1
 70
0
 62
7
  6
CONTINUOUS
370
-3
390
F
  0
LAYER
  5
224
100
AcDbSymbolTableRecord
100
AcDbLayerTableRecord
  2
INTF_10
 70
0
 62
7
  6
CONTINUOUS
370
-3
390
F
  0
LAYER
  5
225
100
AcDbSymbolTableRecord
100
AcDbLayerTableRecord
  2
INTF_11
 70
0
 62
7
  6
CONTINUOUS
370
-3
390
F
  0
LAYER
  5
226
100
AcDbSymbolTableRecord
100
AcDbLayerTableRecord
  2
INTF_12
 70
0
 62
7
  6
CONTINUOUS
370
-3
390
F
  0
LAYER
  5
227
100
AcDbSymbolTableRecord
100
AcDbLayerTableRecord
  2
INTF_13
 70
0
 62
7
  6
CONTINUOUS
370
-3
390
F
  0
LAYER
  5
228
100
AcDbSymbolTableRecord
100
AcDbLayerTableRecord
  2
INTF_14
 70
0
 62
7
  6
CONTINUOUS
370
-3
390
F
  0
LAYER
  5
229
100
AcDbSymbolTableRecord
100
AcDbLayerTableRecord
  2
INTF_15
 70
0
 62
7
  6
CONTINUOUS
370
-3
390
F
  0
LAYER
  5
22A
100
AcDbSymbolTableRecord
100
AcDbLayerTableRecord
  2
INTF_2
 70
0
 62
7
  6
CONTINUOUS
370
-3
390
F
  0
LAYER
  5
22B
100
AcDbSymbolTableRecord
100
AcDbLayerTableRecord
  2
INTF_3
 70
0
 62
7
  6
CONTINUOUS
370
-3
390
F
  0
LAYER
  5
22C
100
AcDbSymbolTableRecord
100
AcDbLayerTableRecord
  2
INTF_4
 70
0
 62
7
  6
CONTINUOUS
370
-3
390
F
  0
LAYER
  5
22D
100
AcDbSymbolTableRecord
100
AcDbLayerTableRecord
  2
INTF_5
 70
0
 62
7
  6
CONTINUOUS
370
-3
390
F
  0
LAYER
  5
22E
100
AcDbSymbolTableRecord
100
AcDbLayerTableRecord
  2
INTF_6
 70
0
 62
7
  6
CONTINUOUS
370
-3
390
F
  0
LAYER
  5
22F
100
AcDbSymbolTableRecord
100
AcDbLayerTableRecord
  2
INTF_7
 70
0
 62
7
  6
CONTINUOUS
370
-3
390
F
  0
LAYER
  5
230
100
AcDbSymbolTableRecord
100
AcDbLayerTableRecord
  2
INTF_8
 70
0
 62
7
  6
CONTINUOUS
370
-3
390
F
  0
LAYER
  5
231
100
AcDbSymbolTableRecord
100
AcDbLayerTableRecord
  2
INTF_9
 70
0
 62
7
  6
CONTINUOUS
370
-3
390
F
  0
LAYER
  5
232
100
AcDbSymbolTableRecord
100
AcDbLayerTableRecord
  2
NOTE
 70
0
 62
7
  6
CONTINUOUS
370
-3
390
F
  0
LAYER
  5
233
100
AcDbSymbolTableRecord
100
AcDbLayerTableRecord
  2
PIANI
 70
0
 62
7
  6
CONTINUOUS
370
-3
390
F
  0
LAYER
  5
234
100
AcDbSymbolTableRecord
100
AcDbLayerTableRecord
  2
PUNTI
 70
0
 62
7
  6
CONTINUOUS
370
-3
390
F
  0
LAYER
  5
235
100
AcDbSymbolTableRecord
100
AcDbLayerTableRecord
  2
RACCORDO
 70
0
 62
7
  6
CONTINUOUS
370
-3
390
F
  0
LAYER
  5
236
100
AcDbSymbolTableRecord
100
AcDbLayerTableRecord
  2
SIMBOLI
 70
0
 62
7
  6
CONTINUOUS
370
-3
390
F
  0
LAYER
  5
237
100
AcDbSymbolTableRecord
100
AcDbLayerTableRecord
  2
SMUSSO
 70
0
 62
7
  6
CONTINUOUS
370
-3
390
F
  0
LAYER
  5
238
100
AcDbSymbolTableRecord
100
AcDbLayerTableRecord
  2
SNAPLINE
 70
0
 62
7
  6
CONTINUOUS
370
-3
390
F
  0
LAYER
  5
239
100
AcDbSymbolTableRecord
100
AcDbLayerTableRecord
  2
SUPERFICI
 70
0
 62
7
  6
CONTINUOUS
370
-3
390
F
  0
LAYER
  5
23A
100
AcDbSymbolTableRecord
100
AcDbLayerTableRecord
  2
TRASH
 70
0
 62
7
  6
CONTINUOUS
370
-3
390
F
  0
LAYER
  5
23B
100
AcDbSymbolTableRecord
100
AcDbLayerTableRecord
  2
VIMAR-IS-03KU3_1_1
 70
0
 62
7
  6
CONTINUOUS
370
-3
390
F
  0
LAYER
  5
23C
100
AcDbSymbolTableRecord
100
AcDbLayerTableRecord
  2
VIMAR-IS-03KU3_1_1_18
 70
0
 62
7
  6
CONTINUOUS
370
-3
390
F
  0
LAYER
  5
23D
100
AcDbSymbolTableRecord
100
AcDbLayerTableRecord
  2
VIMAR-IS-03KU3_1_1_19
 70
0
 62
7
  6
CONTINUOUS
370
-3
390
F
  0
LAYER
  5
23E
100
AcDbSymbolTableRecord
100
AcDbLayerTableRecord
  2
VIMAR-IS-03KU3_1_1_20
 70
0
 62
7
  6
CONTINUOUS
370
-3
390
F
  0
LAYER
  5
23F
100
AcDbSymbolTableRecord
100
AcDbLayerTableRecord
  2
VIMAR-IS-03KU3_1_1_83
 70
0
 62
7
  6
CONTINUOUS
370
-3
390
F
  0
LAYER
  5
240
100
AcDbSymbolTableRecord
100
AcDbLayerTableRecord
  2
VIMAR-IS-03KU3_1_1_84
 70
0
 62
7
  6
CONTINUOUS
370
-3
390
F
  0
LAYER
  5
241
100
AcDbSymbolTableRecord
100
AcDbLayerTableRecord
  2
VIMAR-IS-03KU3_1_1_85
 70
0
 62
7
  6
CONTINUOUS
370
-3
390
F
  0
LAYER
  5
242
100
AcDbSymbolTableRecord
100
AcDbLayerTableRecord
  2
VIMAR-IS-03KU3_1_1_86
 70
0
 62
7
  6
CONTINUOUS
370
-3
390
F
  0
LAYER
  5
243
100
AcDbSymbolTableRecord
100
AcDbLayerTableRecord
  2
VIMAR-IS-03KU3_1_1_87
 70
0
 62
7
  6
CONTINUOUS
370
-3
390
F
  0
LAYER
  5
244
100
AcDbSymbolTableRecord
100
AcDbLayerTableRecord
  2
VIMAR-IS-03K_1
 70
0
 62
7
  6
CONTINUOUS
370
-3
390
F
  0
LAYER
  5
245
100
AcDbSymbolTableRecord
100
AcDbLayerTableRecord
  2
VIMAR-IS-03K_1_11
 70
0
 62
7
  6
CONTINUOUS
370
-3
390
F
  0
LAYER
  5
246
100
AcDbSymbolTableRecord
100
AcDbLayerTableRecord
  2
VIMAR-IS-03K_1_43
 70
0
 62
7
  6
CONTINUOUS
370
-3
390
F
  0
LAYER
  5
247
100
AcDbSymbolTableRecord
100
AcDbLayerTableRecord
  2
___SHELL
 70
0
 62
7
  6
CONTINUOUS
370
-3
390
F
  0
ENDTAB
  0
TABLE
  2
STYLE
  5
3
100
AcDbSymbolTable
 70
1
  0
STYLE
  5
11
100
AcDbSymbolTableRecord
100
AcDbTextStyleTableRecord
  2
STANDARD
 70
0
 40
0.0
 41
0.8
 50
0.0
 71
0
 42
0.2
  3
txt
  4

  0
STYLE
  5
248
100
AcDbSymbolTableRecord
100
AcDbTextStyleTableRecord
  2
TEXTSTYLE_1
 70
0
 40
0.0
 41
0.8
 50
0.0
 71
0
 42
0.2
  3
gdt
  4

  0
ENDTAB
  0
TABLE
  2
VIEW
  5
6
100
AcDbSymbolTable
 70
0
  0
ENDTAB
  0
TABLE
  2
UCS
  5
7
100
AcDbSymbolTable
 70
0
  0
ENDTAB
  0
TABLE
  2
APPID
  5
9
100
AcDbSymbolTable
 70
1
  0
APPID
  5
249
100
AcDbSymbolTableRecord
100
AcDbRegAppTableRecord
  2
ACAD
 70
0
  0
ENDTAB
  0
TABLE
  2
BLOCK_RECORD
  5
1
100
AcDbSymbolTable
 70
0
  0
BLOCK_RECORD
  5
24A
100
AcDbSymbolTableRecord
100
AcDbBlockTableRecord
  2
*Model_Space
  0
BLOCK_RECORD
  5
24B
100
AcDbSymbolTableRecord
100
AcDbBlockTableRecord
  2
*Paper_Space
  0
BLOCK_RECORD
  5
24C
100
AcDbSymbolTableRecord
100
AcDbBlockTableRecord
  2
_FILLED
  0
ENDTAB
  0
TABLE
  2
DIMSTYLE
  5
A
100
AcDbSymbolTable
 70
1
100
AcDbDimStyleTable
 71
0
  0
DIMSTYLE
105
24D
100
AcDbSymbolTableRecord
100
AcDbDimStyleTableRecord
  2
STANDARD
 70
0
  3

  4

 40
1.0
 41
3.0
 42
0.5
 43
0.38
 44
1.5
 45
0.0
 46
0.0
 47
0.01
 48
0.01
140
3.0
141
0.09
142
0.0
143
25.4
144
1.0
145
0.0
146
1.0
147
0.625
 71
1
 72
0
 73
0
 74
0
 75
0
 76
0
 77
1
 78
8
 79
2
170
0
171
1
172
0
173
0
174
0
175
0
176
0
177
0
178
0
270
2
179
2
271
2
272
2
273
2
274
2
275
0
280
0
281
0
282
0
283
1
284
8
285
0
286
0
287
3
288
0
340
11
278
44
341
24C
342
24C
343
24C
344
24C
  0
ENDTAB
  0
ENDSEC
  0
SECTION
  2
BLOCKS
  0
BLOCK
  5
20
100
AcDbEntity
  8
0
100
AcDbBlockBegin
  2
*Model_Space
 70
0
 10
0.0
 20
0.0
 30
0.0
  3
*Model_Space
  1

  0
ENDBLK
  5
21
100
AcDbEntity
  8
0
100
AcDbBlockEnd
  0
BLOCK
  5
1C
100
AcDbEntity
  8
0
100
AcDbBlockBegin
  2
*Paper_Space
 70
0
 10
0.0
 20
0.0
 30
0.0
  3
*Paper_Space
  1

  0
ENDBLK
  5
1D
100
AcDbEntity
  8
0
100
AcDbBlockEnd
  0
BLOCK
  5
24E
100
AcDbEntity
  8
0
100
AcDbBlockBegin
  2
_FILLED
 70
64
 10
0.0
 20
0.0
  3
_FILLED
  1

  0
SOLID
  5
24F
100
AcDbEntity
  8
0
  6
BYBLOCK
 62
0
100
AcDbTrace
 10
0.0
 20
0.0
 11
-1.0
 21
0.3166666667
 12
-1.0
 22
-0.3166666667
 13
-1.0
 23
-0.3166666667
  0
ENDBLK
  5
250
100
AcDbEntity
  8
0
  6
BYBLOCK
 62
0
100
AcDbBlockEnd
  0
ENDSEC
  0
SECTION
  2
ENTITIES
  0
LINE
  5
251
100
AcDbEntity
  8
IMPORT_IGES
100
AcDbLine
 62
7
  6
CONTINUOUS
 10
53.8938259707
 20
106.5445049061
 11
53.8983015622
 21
106.501606925
  0
LINE
  5
252
100
AcDbEntity
  8
IMPORT_IGES
100
AcDbLine
 62
7
  6
CONTINUOUS
 10
53.8894564645
 20
106.5895547205
 11
53.8938259707
 21
106.5445049061
  0
LINE
  5
253
100
AcDbEntity
  8
IMPORT_IGES
100
AcDbLine
 62
7
  6
CONTINUOUS
 10
53.8851675099
 20
106.636955527
 11
53.8894564645
 21
106.5895547205
  0
LINE
  5
254
100
AcDbEntity
  8
IMPORT_IGES
100
AcDbLine
 62
7
  6
CONTINUOUS
 10
53.8809380038
 20
106.686908935
 11
53.8851675099
 21
106.636955527
  0
LWPOLYLINE
  5
255
100
AcDbEntity
  8
IMPORT_IGES
100
AcDbPolyline
 62
250
  6
CONTINUOUS
 90
17
 70
0
 10
54.879282118
 20
105.8235057014
 10
54.8833168037
 20
105.7719913652
 10
54.8873724911
 20
105.723547326
 10
54.8914491664
 20
105.6781891285
 10
54.8955428692
 20
105.6359312934
 10
54.8996535158
 20
105.596787393
 10
54.90378119
 20
105.5607700048
 10
54.9079221829
 20
105.52789068
 10
54.9120764677
 20
105.4981600031
 10
54.9162440711
 20
105.4715875474
 10
54.9204213647
 20
105.4481818557
 10
54.9246072714
 20
105.4279504953
 10
54.9288028682
 20
105.4109000097
 10
54.9330077574
 20
105.3970359103
 10
54.9372218066
 20
105.3863627203
 10
54.9414451483
 20
105.3788839557
 10
54.9456777824
 20
105.3746021028
  0
LINE
  5
256
100
AcDbEntity
  8
IMPORT_IGES
100
AcDbLine
 62
7
  6
CONTINUOUS
 10
53.8767543749
 20
106.7395694514
 11
53.8809380038
 21
106.686908935
  0
LINE
  5
257
100
AcDbEntity
  8
IMPORT_IGES
100
AcDbLine
 62
7
  6
CONTINUOUS
 10
53.8726038886
 20
106.7951130859
 11
53.8767543749
 21
106.7395694514
  0
LINE
  5
258
100
AcDbEntity
  8
IMPORT_IGES
100
AcDbLine
 62
250
  6
CONTINUOUS
 10
54.8712796294
 20
105.9356782607
 11
54.879282118
 21
105.8235057014
  0
LINE
  5
259
100
AcDbEntity
  8
IMPORT_IGES
100
AcDbLine
 62
7
  6
CONTINUOUS
 10
53.866423453
 20
106.8841410864
 11
53.8726038886
 21
106.7951130859
  0
LINE
  5
25A
100
AcDbEntity
  8
IMPORT_IGES
100
AcDbLine
 62
7
  6
CONTINUOUS
 10
53.8602820312
 20
106.9804048774
 11
53.866423453
 21
106.8841410864
  0
LINE
  5
25B
100
AcDbEntity
  8
IMPORT_IGES
100
AcDbLine
 62
250
  6
CONTINUOUS
 10
54.8633768727
 20
106.0599213561
 11
54.8712796294
 21
105.9356782607
  0
LINE
  5
25C
100
AcDbEntity
  8
IMPORT_IGES
100
AcDbLine
 62
7
  6
CONTINUOUS
 10
53.8541694273
 20
107.0842908904
 11
53.8602820312
 21
106.9804048774
  0
LINE
  5
25D
100
AcDbEntity
  8
IMPORT_IGES
100
AcDbLine
 62
250
  6
CONTINUOUS
 10
54.8555850577
 20
106.1960759593
 11
54.8633768727
 21
106.0599213561
  0
LINE
  5
25E
100
AcDbEntity
  8
IMPORT_IGES
100
AcDbLine
 62
7
  6
CONTINUOUS
 10
53.8460569185
 20
107.2352552759
 11
53.8541694273
 21
107.0842908904
  0
LINE
  5
25F
100
AcDbEntity
  8
IMPORT_IGES
100
AcDbLine
 62
250
  6
CONTINUOUS
 10
54.8479116337
 20
106.3439678006
 11
54.8555850577
 21
106.1960759593
  0
LINE
  5
260
100
AcDbEntity
  8
IMPORT_IGES
100
AcDbLine
 62
7
  6
CONTINUOUS
 10
53.8379881885
 20
107.4011061666
 11
53.8460569185
 21
107.2352552759
  0
LINE
  5
261
100
AcDbEntity
  8
IMPORT_IGES
100
AcDbLine
 62
250
  6
CONTINUOUS
 10
54.8366478564
 20
106.5873950372
 11
54.8479116337
 21
106.3439678006
  0
LINE
  5
262
100
AcDbEntity
  8
IMPORT_IGES
100
AcDbLine
 62
7
  6
CONTINUOUS
 10
53.8279779359
 20
107.6303040946
 11
53.8379881885
 21
107.4011061666
  0
LINE
  5
263
100
AcDbEntity
  8
IMPORT_IGES
100
AcDbLine
 62
250
  6
CONTINUOUS
 10
54.8257077542
 20
106.8561015968
 11
54.8366478564
 21
106.5873950372
  0
LINE
  5
264
100
AcDbEntity
  8
IMPORT_IGES
100
AcDbLine
 62
7
  6
CONTINUOUS
 10
53.8180712993
 20
107.8850300114
 11
53.8279779359
 21
107.6303040946
  0
LINE
  5
265
100
AcDbEntity
  8
IMPORT_IGES
100
AcDbLine
 62
250
  6
CONTINUOUS
 10
54.8116792393
 20
107.2523543506
 11
54.8257077542
 21
106.8561015968
  0
LINE
  5
266
100
AcDbEntity
  8
IMPORT_IGES
100
AcDbLine
 62
7
  6
CONTINUOUS
 10
53.8063456475
 20
108.2266819417
 11
53.8180712993
 21
107.8850300114
  0
LWPOLYLINE
  5
267
100
AcDbEntity
  8
IMPORT_IGES
100
AcDbPolyline
 62
7
  6
CONTINUOUS
 90
16
 70
0
 10
53.952768781
 20
106.3743034061
 10
53.9545181041
 20
106.3157938505
 10
53.9595916897
 20
106.257883035
 10
53.9679895378
 20
106.2005709596
 10
53.9797635057
 20
106.1436696949
 10
53.9948617362
 20
106.0873671703
 10
54.0131286573
 20
106.0322271736
 10
54.0345956431
 20
105.9782616518
 10
54.0592313196
 20
105.9254586578
 10
54.0867859933
 20
105.8743461392
 10
54.1172886159
 20
105.8249407399
 10
54.1507102357
 20
105.7772258159
 10
54.186714303
 20
105.7316793822
 10
54.2253262453
 20
105.6883231235
 10
54.266520635
 20
105.6471353551
 10
54.3098846403
 20
105.6085290376
  0
LINE
  5
268
100
AcDbEntity
  8
IMPORT_IGES
100
AcDbLine
 62
250
  6
CONTINUOUS
 10
54.798352839
 20
107.6901403796
 11
54.8116792393
 21
107.2523543506
  0
LINE
  5
269
100
AcDbEntity
  8
IMPORT_IGES
100
AcDbLine
 62
7
  6
CONTINUOUS
 10
53.7929560049
 20
108.6784936034
 11
53.8063456475
 21
108.2266819417
  0
LINE
  5
26A
100
AcDbEntity
  8
IMPORT_IGES
100
AcDbLine
 62
250
  6
CONTINUOUS
 10
54.7827888471
 20
108.2923508202
 11
54.798352839
 21
107.6901403796
  0
LINE
  5
26B
100
AcDbEntity
  8
IMPORT_IGES
100
AcDbLine
 62
7
  6
CONTINUOUS
 10
53.7781860631
 20
109.2704862279
 11
53.7929560049
 21
108.6784936034
  0
LINE
  5
26C
100
AcDbEntity
  8
IMPORT_IGES
100
AcDbLine
 62
250
  6
CONTINUOUS
 10
54.7658764473
 20
109.0892282246
 11
54.7827888471
 21
108.2923508202
  0
LINE
  5
26D
100
AcDbEntity
  8
IMPORT_IGES
100
AcDbLine
 62
7
  6
CONTINUOUS
 10
53.7625416543
 20
110.0406325881
 11
53.7781860631
 21
109.2704862279
  0
LINE
  5
26E
100
AcDbEntity
  8
IMPORT_IGES
100
AcDbLine
 62
250
  6
CONTINUOUS
 10
54.7488222683
 20
110.1095872466
 11
54.7658764473
 21
109.0892282246
  0
LINE
  5
26F
100
AcDbEntity
  8
IMPORT_IGES
100
AcDbLine
 62
7
  6
CONTINUOUS
 10
53.7469045755
 20
111.0352860717
 11
53.7625416543
 21
110.0406325881
  0
LINE
  5
270
100
AcDbEntity
  8
IMPORT_IGES
100
AcDbLine
 62
250
  6
CONTINUOUS
 10
54.7315362669
 20
111.5401408296
 11
54.7488222683
 21
110.1095872466
  0
LINE
  5
271
100
AcDbEntity
  8
IMPORT_IGES
100
AcDbLine
 62
7
  6
CONTINUOUS
 10
53.7327563114
 20
112.3091545271
 11
53.7469045755
 21
111.0352860717
  0
LINE
  5
272
100
AcDbEntity
  8
IMPORT_IGES
100
AcDbLine
 62
250
  6
CONTINUOUS
 10
54.7189435542
 20
113.2440985069
 11
54.7315362669
 21
111.5401408296
  0
LINE
  5
273
100
AcDbEntity
  8
IMPORT_IGES
100
AcDbLine
 62
7
  6
CONTINUOUS
 10
53.7231323945
 20
113.7813752778
 11
53.7327563114
 21
112.3091545271
  0
LINE
  5
274
100
AcDbEntity
  8
IMPORT_IGES
100
AcDbLine
 62
250
  6
CONTINUOUS
 10
54.7135785479
 20
115.1946708962
 11
54.7189435542
 21
113.2440985069
  0
LINE
  5
275
100
AcDbEntity
  8
IMPORT_IGES
100
AcDbLine
 62
7
  6
CONTINUOUS
 10
53.719837625
 20
115.3734760844
 11
53.7231323945
 21
113.7813752778
  0
LINE
  5
276
100
AcDbEntity
  8
IMPORT_IGES
100
AcDbLine
 62
7
  6
CONTINUOUS
 10
53.7166615708
 20
190.8132949035
 11
53.7135162649
 21
115.3733799922
  0
LINE
  5
277
100
AcDbEntity
  8
IMPORT_IGES
100
AcDbLine
 62
250
  6
CONTINUOUS
 10
54.7167340033
 20
190.7781644423
 11
54.7135785479
 21
115.1946708962
  0
LINE
  5
278
100
AcDbEntity
  8
IMPORT_IGES
100
AcDbLine
 62
7
  6
CONTINUOUS
 10
53.7265271868
 20
192.296365966
 11
53.7166615708
 21
190.8132949035
  0
LINE
  5
279
100
AcDbEntity
  8
IMPORT_IGES
100
AcDbLine
 62
250
  6
CONTINUOUS
 10
54.728768733
 20
192.5284643836
 11
54.7167340033
 21
190.7781644423
  0
LINE
  5
27A
100
AcDbEntity
  8
IMPORT_IGES
100
AcDbLine
 62
250
  6
CONTINUOUS
 10
54.7454290175
 20
194.0194616838
 11
54.728768733
 21
192.5284643836
  0
LINE
  5
27B
100
AcDbEntity
  8
IMPORT_IGES
100
AcDbLine
 62
7
  6
CONTINUOUS
 10
53.7410840294
 20
193.5840036217
 11
53.7265271868
 21
192.296365966
  0
LINE
  5
27C
100
AcDbEntity
  8
IMPORT_IGES
100
AcDbLine
 62
7
  6
CONTINUOUS
 10
53.7571939542
 20
194.5933312715
 11
53.7410840294
 21
193.5840036217
  0
LINE
  5
27D
100
AcDbEntity
  8
IMPORT_IGES
100
AcDbLine
 62
250
  6
CONTINUOUS
 10
54.7672327169
 20
195.3874973321
 11
54.7454290175
 21
194.0194616838
  0
LINE
  5
27E
100
AcDbEntity
  8
IMPORT_IGES
100
AcDbLine
 62
7
  6
CONTINUOUS
 10
53.7733992027
 20
195.3778242485
 11
53.7571939542
 21
194.5933312715
  0
LINE
  5
27F
100
AcDbEntity
  8
IMPORT_IGES
100
AcDbLine
 62
250
  6
CONTINUOUS
 10
54.7891696611
 20
196.4517937699
 11
54.7672327169
 21
195.3874973321
  0
LINE
  5
280
100
AcDbEntity
  8
IMPORT_IGES
100
AcDbLine
 62
250
  6
CONTINUOUS
 10
54.8071608609
 20
197.1563485988
 11
54.7891696611
 21
196.4517937699
  0
LINE
  5
281
100
AcDbEntity
  8
IMPORT_IGES
100
AcDbLine
 62
7
  6
CONTINUOUS
 10
53.7888320322
 20
195.9821908162
 11
53.7733992027
 21
195.3778242485
  0
LINE
  5
282
100
AcDbEntity
  8
IMPORT_IGES
100
AcDbLine
 62
7
  6
CONTINUOUS
 10
53.8029013177
 20
196.4431481052
 11
53.7888320322
 21
195.9821908162
  0
LINE
  5
283
100
AcDbEntity
  8
IMPORT_IGES
100
AcDbLine
 62
250
  6
CONTINUOUS
 10
54.8233771796
 20
197.6873112468
 11
54.8071608609
 21
197.1563485988
  0
LINE
  5
284
100
AcDbEntity
  8
IMPORT_IGES
100
AcDbLine
 62
250
  6
CONTINUOUS
 10
54.8335727966
 20
197.9755953465
 11
54.8233771796
 21
197.6873112468
  0
LINE
  5
285
100
AcDbEntity
  8
IMPORT_IGES
100
AcDbLine
 62
7
  6
CONTINUOUS
 10
53.8152121091
 20
196.790894282
 11
53.8029013177
 21
196.4431481052
  0
LINE
  5
286
100
AcDbEntity
  8
IMPORT_IGES
100
AcDbLine
 62
7
  6
CONTINUOUS
 10
53.8255630663
 20
197.0493124664
 11
53.8152121091
 21
196.790894282
  0
LINE
  5
287
100
AcDbEntity
  8
IMPORT_IGES
100
AcDbLine
 62
250
  6
CONTINUOUS
 10
54.8441031117
 20
198.2386361907
 11
54.8335727966
 21
197.9755953465
  0
LINE
  5
288
100
AcDbEntity
  8
IMPORT_IGES
100
AcDbLine
 62
7
  6
CONTINUOUS
 10
53.8359426446
 20
197.2809334795
 11
53.8255630663
 21
197.0493124664
  0
LINE
  5
289
100
AcDbEntity
  8
IMPORT_IGES
100
AcDbLine
 62
250
  6
CONTINUOUS
 10
54.854944268
 20
198.4757646073
 11
54.8441031117
 21
198.2386361907
  0
LINE
  5
28A
100
AcDbEntity
  8
IMPORT_IGES
100
AcDbLine
 62
7
  6
CONTINUOUS
 10
53.8442401862
 20
197.4480532212
 11
53.8359426446
 21
197.2809334795
  0
LINE
  5
28B
100
AcDbEntity
  8
IMPORT_IGES
100
AcDbLine
 62
250
  6
CONTINUOUS
 10
54.8623244822
 20
198.6191079917
 11
54.854944268
 21
198.4757646073
  0
LINE
  5
28C
100
AcDbEntity
  8
IMPORT_IGES
100
AcDbLine
 62
7
  6
CONTINUOUS
 10
53.8525156115
 20
197.5999397353
 11
53.8442401862
 21
197.4480532212
  0
LINE
  5
28D
100
AcDbEntity
  8
IMPORT_IGES
100
AcDbLine
 62
250
  6
CONTINUOUS
 10
54.8698180659
 20
198.7504368505
 11
54.8623244822
 21
198.6191079917
  0
LINE
  5
28E
100
AcDbEntity
  8
IMPORT_IGES
100
AcDbLine
 62
7
  6
CONTINUOUS
 10
53.8607605782
 20
197.7374805153
 11
53.8525156115
 21
197.5999397353
  0
LINE
  5
28F
100
AcDbEntity
  8
IMPORT_IGES
100
AcDbLine
 62
7
  6
CONTINUOUS
 10
53.8669243998
 20
197.8317826532
 11
53.8607605782
 21
197.7374805153
  0
LINE
  5
290
100
AcDbEntity
  8
IMPORT_IGES
100
AcDbLine
 62
7
  6
CONTINUOUS
 10
53.8730776897
 20
197.9189782539
 11
53.8669243998
 21
197.8317826532
  0
LINE
  5
291
100
AcDbEntity
  8
IMPORT_IGES
100
AcDbLine
 62
7
  6
CONTINUOUS
 10
53.8792365584
 20
197.9995784604
 11
53.8730776897
 21
197.9189782539
  0
LINE
  5
292
100
AcDbEntity
  8
IMPORT_IGES
100
AcDbLine
 62
7
  6
CONTINUOUS
 10
53.8833578417
 20
198.0499162546
 11
53.8792365584
 21
197.9995784604
  0
LINE
  5
293
100
AcDbEntity
  8
IMPORT_IGES
100
AcDbLine
 62
7
  6
CONTINUOUS
 10
53.8875030964
 20
198.0977314112
 11
53.8833578417
 21
198.0499162546
  0
LINE
  5
294
100
AcDbEntity
  8
IMPORT_IGES
100
AcDbLine
 62
7
  6
CONTINUOUS
 10
53.8916873817
 20
198.1432171278
 11
53.8875030964
 21
198.0977314112
  0
LINE
  5
295
100
AcDbEntity
  8
IMPORT_IGES
100
AcDbLine
 62
7
  6
CONTINUOUS
 10
53.8959260696
 20
198.1865369069
 11
53.8916873817
 21
198.1432171278
  0
LINE
  5
296
100
AcDbEntity
  8
IMPORT_IGES
100
AcDbLine
 62
7
  6
CONTINUOUS
 10
53.9002424572
 20
198.2278984458
 11
53.8959260696
 21
198.1865369069
  0
LINE
  5
297
100
AcDbEntity
  8
IMPORT_IGES
100
AcDbLine
 62
7
  6
CONTINUOUS
 10
53.9046703636
 20
198.2675565089
 11
53.9002424572
 21
198.2278984458
  0
LWPOLYLINE
  5
298
100
AcDbEntity
  8
IMPORT_IGES
100
AcDbPolyline
 62
7
  6
CONTINUOUS
 90
38
 70
0
 10
53.8983015622
 20
106.501606925
 10
53.9005869366
 20
106.4809174469
 10
53.9029150193
 20
106.4606555176
 10
53.9052888431
 20
106.4408158112
 10
53.9077143569
 20
106.4213711547
 10
53.9102090193
 20
106.4022123361
 10
53.9127779267
 20
106.3833379007
 10
53.9154312366
 20
106.3647132208
 10
53.918199973
 20
106.3461744443
 10
53.9210930871
 20
106.3277274067
 10
53.924128607
 20
106.3093267731
 10
53.9273626179
 20
106.2907261299
 10
53.9308176857
 20
106.2719125191
 10
53.9345218262
 20
106.2528571314
 10
53.9385600157
 20
106.2332776705
 10
53.9429723013
 20
106.2131662507
 10
53.9478121246
 20
106.1924770423
 10
53.9532201393
 20
106.170853624
 10
53.9592802164
 20
106.1482559941
 10
53.9660803799
 20
106.1246695575
 10
53.9738215945
 20
106.0997634148
 10
53.982617605
 20
106.0735866624
 10
53.9926418205
 20
106.0460620862
 10
54.0042784124
 20
106.0166727956
 10
54.0178475096
 20
105.9852441015
 10
54.0335056979
 20
105.9520340353
 10
54.0514541058
 20
105.9172101465
 10
54.0720527454
 20
105.880697679
 10
54.0954482988
 20
105.8428745704
 10
54.1214287276
 20
105.8046133222
 10
54.1500192304
 20
105.7663004438
 10
54.1814825394
 20
105.7280193144
 10
54.2158405476
 20
105.6901974449
 10
54.2530014398
 20
105.6533506638
 10
54.2931883404
 20
105.6175803554
 10
54.3368794516
 20
105.5827877427
 10
54.384011461
 20
105.5494136354
 10
54.3969792297
 20
105.5409213586
  0
LWPOLYLINE
  5
299
100
AcDbEntity
  8
IMPORT_IGES
100
AcDbPolyline
 62
250
  6
CONTINUOUS
 90
19
 70
0
 10
54.9456903236
 20
199.3723519494
 10
54.9415826884
 20
199.3682110596
 10
54.9374795414
 20
199.3609898389
 10
54.9333808826
 20
199.3506529647
 10
54.9292853108
 20
199.3371641533
 10
54.9251942271
 20
199.3204909137
 10
54.9211118351
 20
199.3006083712
 10
54.9170360663
 20
199.2774752988
 10
54.9129689892
 20
199.2510741704
 10
54.9089210125
 20
199.2214390593
 10
54.9048927774
 20
199.1885660571
 10
54.9008836427
 20
199.1524475001
 10
54.8969020943
 20
199.1131480734
 10
54.8929510681
 20
199.0707054551
 10
54.8890276281
 20
199.025112185
 10
54.8851314527
 20
198.9763828794
 10
54.8812625027
 20
198.9245332352
 10
54.8774208174
 20
198.8695802019
 10
54.8698180659
 20
198.7504368505
  0
LWPOLYLINE
  5
29A
100
AcDbEntity
  8
IMPORT_IGES
100
AcDbPolyline
 62
250
  6
CONTINUOUS
 90
88
 70
0
 10
60.244538545
 20
115.3734772002
 10
60.2949412815
 20
115.3033735588
 10
60.3475454935
 20
115.2335764372
 10
60.402351181
 20
115.1640891694
 10
60.4596541868
 20
115.0945491327
 10
60.5191586681
 20
115.0253255128
 10
60.5799770969
 20
114.957518513
 10
60.6420015826
 20
114.8913086903
 10
60.7053400157
 20
114.826519082
 10
60.7694285403
 20
114.7637118088
 10
60.8339096475
 20
114.7032432872
 10
60.8991408462
 20
114.6447571191
 10
60.9656308068
 20
114.5877456997
 10
61.0335364659
 20
114.5320441062
 10
61.1027008869
 20
114.4778171428
 10
61.1731619307
 20
114.4250520936
 10
61.2450627134
 20
114.3736542086
 10
61.3182601188
 20
114.3237168977
 10
61.3923626598
 20
114.2755090185
 10
61.4673517408
 20
114.2290617339
 10
61.5432459575
 20
114.1843406287
 10
61.6197096092
 20
114.1415152997
 10
61.6966301104
 20
114.1006531822
 10
61.7741200466
 20
114.061682389
 10
61.8521814739
 20
114.0245632152
 10
61.9308355251
 20
113.9892811258
 10
62.0100610673
 20
113.9558461784
 10
62.089796758
 20
113.9242556011
 10
62.1700733253
 20
113.8944962716
 10
62.2508600411
 20
113.8665769385
 10
62.332003379
 20
113.8405276589
 10
62.41348198
 20
113.8163557617
 10
62.4953172032
 20
113.794049847
 10
62.577419599
 20
113.7736119682
 10
62.6597374785
 20
113.7550480564
 10
62.7423225307
 20
113.7383487597
 10
62.8252403723
 20
113.7234934077
 10
62.9085445425
 20
113.7104706034
 10
62.9921815021
 20
113.6992891987
 10
63.0760562508
 20
113.6899591306
 10
63.1602117012
 20
113.682476946
 10
63.2446049406
 20
113.6768444972
 10
63.3290122308
 20
113.6730799212
 10
63.4133566768
 20
113.6711881325
 10
63.4977151736
 20
113.6711636624
 10
63.5820946682
 20
113.6730093399
 10
63.6665505276
 20
113.6767289724
 10
63.7510273849
 20
113.6823192984
 10
63.8353660865
 20
113.6897728136
 10
63.9195749514
 20
113.6990934839
 10
64.0036456608
 20
113.7102789541
 10
64.087394104
 20
113.7233124831
 10
64.1707700757
 20
113.7381907639
 10
64.2538237813
 20
113.7549196639
 10
64.3365217273
 20
113.7734964146
 10
64.4188775689
 20
113.7939241332
 10
64.5008776509
 20
113.8162030876
 10
64.5824475145
 20
113.8403264083
 10
64.66359334
 20
113.8662986813
 10
64.7443089471
 20
113.8941193275
 10
64.8245013362
 20
113.9237738288
 10
64.9041597569
 20
113.9552594901
 10
64.9832949597
 20
113.9885833599
 10
65.061846196
 20
114.0237455743
 10
65.1397976722
 20
114.0607385335
 10
65.2171651819
 20
114.0995742861
 10
65.2939353578
 20
114.1402824655
 10
65.3702024719
 20
114.182924154
 10
65.4458722522
 20
114.2274426513
 10
65.5206485145
 20
114.2736906222
 10
65.594558707
 20
114.3217063167
 10
65.6675753815
 20
114.371454765
 10
65.7393200088
 20
114.4226779645
 10
65.8096527361
 20
114.4752837179
 10
65.878713416
 20
114.5293656309
 10
65.9465430775
 20
114.584943767
 10
66.0129444917
 20
114.6418121916
 10
66.0781148874
 20
114.7001770088
 10
66.1426869792
 20
114.7606768122
 10
66.2070940891
 20
114.8237430696
 10
66.2709028951
 20
114.888944697
 10
66.3334461459
 20
114.9556259785
 10
66.394860531
 20
115.0240065015
 10
66.4550093609
 20
115.0938630955
 10
66.512815316
 20
115.1638738212
 10
66.5679192899
 20
115.2335954348
 10
66.6206803892
 20
115.303464351
 10
66.6710986137
 20
115.3734771894
  0
LWPOLYLINE
  5
29B
100
AcDbEntity
  8
IMPORT_IGES
100
AcDbPolyline
 62
7
  6
CONTINUOUS
 90
4
 70
0
 10
54.3098846403
 20
105.6085290376
 10
54.3554398502
 20
105.5725296179
 10
54.4031646756
 20
105.5391116491
 10
54.4525815168
 20
105.5086117521
  0
LWPOLYLINE
  5
29C
100
AcDbEntity
  8
IMPORT_IGES
100
AcDbPolyline
 62
7
  6
CONTINUOUS
 90
37
 70
0
 10
54.3945424159
 20
199.2068906514
 10
54.3821588319
 20
199.1985922317
 10
54.3351416561
 20
199.1645674264
 10
54.2916031367
 20
199.1291533284
 10
54.2516109163
 20
199.092803637
 10
54.2147403314
 20
199.0554840814
 10
54.1807320042
 20
199.0172992834
 10
54.1496726862
 20
198.9787766678
 10
54.1216036653
 20
198.9404500987
 10
54.0962733679
 20
198.9024623894
 10
54.0735876141
 20
198.8651459498
 10
54.0536968108
 20
198.8293106029
 10
54.0364570794
 20
198.7953620029
 10
54.0214798369
 20
198.7631836179
 10
54.0084873216
 20
198.7327701029
 10
53.9973092398
 20
198.7043108597
 10
53.9876649861
 20
198.6776929418
 10
53.9791917666
 20
198.6524276148
 10
53.9717367817
 20
198.6284816438
 10
53.9651831897
 20
198.6058778294
 10
53.959315395
 20
198.5842105397
 10
53.954051704
 20
198.5634565161
 10
53.9493220911
 20
198.5436019293
 10
53.9449836107
 20
198.5242610387
 10
53.9409856565
 20
198.5053748435
 10
53.9372980823
 20
198.4869582859
 10
53.9338412257
 20
198.4687453382
 10
53.9305861202
 20
198.4506863326
 10
53.9275170532
 20
198.4327914804
 10
53.9245915293
 20
198.4148966504
 10
53.9217935578
 20
198.3969717784
 10
53.9191133983
 20
198.3790187065
 10
53.9165273164
 20
198.3609344343
 10
53.9140290565
 20
198.3427233637
 10
53.9116096493
 20
198.3243660049
 10
53.9092468945
 20
198.3057296118
 10
53.9046703636
 20
198.2675565089
  0
LWPOLYLINE
  5
29D
100
AcDbEntity
  8
IMPORT_IGES
100
AcDbPolyline
 62
7
  6
CONTINUOUS
 90
12
 70
0
 10
54.3945552827
 20
199.2068711351
 10
54.3999275358
 20
199.2103886857
 10
54.4498666109
 20
199.2408530998
 10
54.5013855097
 20
199.2682624757
 10
54.5544780056
 20
199.2926510017
 10
54.6085225453
 20
199.3138060468
 10
54.6635285844
 20
199.3316590794
 10
54.7194866673
 20
199.3462786312
 10
54.7757468747
 20
199.3576576666
 10
54.8320925666
 20
199.3657938404
 10
54.8887403829
 20
199.3706894978
 10
54.9456903236
 20
199.3723446388
  0
LWPOLYLINE
  5
29E
100
AcDbEntity
  8
IMPORT_IGES
100
AcDbPolyline
 62
7
  6
CONTINUOUS
 90
4
 70
0
 10
54.4525772627
 20
199.2383399956
 10
54.4031590737
 20
199.2078387184
 10
54.3554325819
 20
199.1744189953
 10
54.3098759876
 20
199.1384177667
  0
LWPOLYLINE
  5
29F
100
AcDbEntity
  8
IMPORT_IGES
100
AcDbPolyline
 62
250
  6
CONTINUOUS
 90
29
 70
0
 10
60.1850767334
 20
120.0554327892
 10
60.0859106122
 20
119.9074632557
 10
59.993519755
 20
119.7553100532
 10
59.9078317432
 20
119.5989203132
 10
59.8292805072
 20
119.4390276222
 10
59.7578573268
 20
119.275530633
 10
59.6935709221
 20
119.1085306926
 10
59.6368813833
 20
118.9390654286
 10
59.5878438178
 20
118.767088749
 10
59.5464031183
 20
118.5926467457
 10
59.5128540525
 20
118.4169153218
 10
59.4872639592
 20
118.2399307549
 10
59.4695654997
 20
118.0616567673
 10
59.4598514252
 20
117.8831604298
 10
59.4581964091
 20
117.7043293457
 10
59.4645257782
 20
117.5252759117
 10
59.4787082634
 20
117.347404388
 10
59.5007337541
 20
117.1710390339
 10
59.5306123609
 20
116.9958555901
 10
59.5682431468
 20
116.8222855386
 10
59.6136804534
 20
116.6501009668
 10
59.6668699391
 20
116.4795297874
 10
59.7275476425
 20
116.3116872207
 10
59.7957663157
 20
116.1466000412
 10
59.8714732065
 20
115.9842414744
 10
59.9542460967
 20
115.8256464172
 10
60.0439442468
 20
115.6711598353
 10
60.1407083963
 20
115.5204367629
 10
60.244538545
 20
115.3734772002
  0
LWPOLYLINE
  5
2A0
100
AcDbEntity
  8
IMPORT_IGES
100
AcDbPolyline
 62
7
  6
CONTINUOUS
 90
3
 70
0
 10
54.4525815168
 20
105.5086117521
 10
54.5037069896
 20
105.4810587727
 10
54.5565244781
 20
105.456423865
  0
LINE
  5
2A1
100
AcDbEntity
  8
IMPORT_IGES
100
AcDbLine
 62
250
  6
CONTINUOUS
 10
66.2695116519
 20
115.6713488939
 11
66.6711970396
 21
115.3735780795
  0
LWPOLYLINE
  5
2A2
100
AcDbEntity
  8
IMPORT_IGES
100
AcDbPolyline
 62
250
  6
CONTINUOUS
 90
72
 70
0
 10
66.6710986137
 20
115.3734771894
 10
66.7743827385
 20
115.5195462524
 10
66.8707410007
 20
115.6695330577
 10
66.9601734001
 20
115.8234376054
 10
67.0428496426
 20
115.9816140587
 10
67.1186000223
 20
116.1437082544
 10
67.1869154223
 20
116.3086577027
 10
67.2477338621
 20
116.4764993564
 10
67.3011173221
 20
116.6471962627
 10
67.3467426265
 20
116.8195750736
 10
67.3845433578
 20
116.9934102744
 10
67.4145859335
 20
117.1689273799
 10
67.4367464291
 20
117.3456295853
 10
67.4510248697
 20
117.5238347083
 10
67.4574212303
 20
117.7032249312
 10
67.4558115115
 20
117.8823499972
 10
67.4461138552
 20
118.0610946532
 10
67.4284101194
 20
118.2395741523
 10
67.4028218784
 20
118.4166839965
 10
67.3692765204
 20
118.592454718
 10
67.3278466571
 20
118.7668557847
 10
67.2788716981
 20
118.9386911019
 10
67.2223100659
 20
119.1078819713
 10
67.1582033379
 20
119.2745070913
 10
67.0870156559
 20
119.4376064617
 10
67.0087889451
 20
119.5970565572
 10
66.9234812802
 20
119.7529809031
 10
66.8314310269
 20
119.904790076
 10
66.7325481589
 20
120.0525930033
 10
66.6269227025
 20
120.1962807576
 10
66.5151631028
 20
120.3349371325
 10
66.39720763
 20
120.4685418525
 10
66.273118014
 20
120.5971151933
 10
66.1436878886
 20
120.7198017754
 10
66.0088934094
 20
120.8365423178
 10
65.8687584208
 20
120.9473961015
 10
65.7241480903
 20
121.0516855906
 10
65.5750615739
 20
121.1493558432
 10
65.4214997154
 20
121.2404618012
 10
65.2643302141
 20
121.3244907535
 10
65.10353525
 20
121.4014094451
 10
64.939132643
 20
121.4712511311
 10
64.7720435515
 20
121.5336028657
 10
64.6021988763
 20
121.5884333885
 10
64.4296677167
 20
121.63577396
 10
64.2555785283
 20
121.675305416
 10
64.0799518132
 20
121.7069644319
 10
63.9027670695
 20
121.7308143324
 10
63.7250912473
 20
121.7467259276
 10
63.5469296835
 20
121.7546515219
 10
63.3682770414
 20
121.7546388109
 10
63.1901842602
 20
121.7467016928
 10
63.0126622868
 20
121.73079755
 10
62.8357001744
 20
121.706969
 10
62.6603160221
 20
121.6753577926
 10
62.4864881174
 20
121.6359083846
 10
62.3142381727
 20
121.5886763192
 10
62.1446494249
 20
121.5339699767
 10
61.9777750992
 20
121.4717564034
 10
61.8135619703
 20
121.402068553
 10
61.652933599
 20
121.3253136663
 10
61.495901669
 20
121.241452408
 10
61.3424544965
 20
121.1505241134
 10
61.193480591
 20
121.0530540296
 10
61.0489978431
 20
120.9490000683
 10
60.9089883621
 20
120.8384043177
 10
60.7742869862
 20
120.7219182897
 10
60.6449241431
 20
120.5995053053
 10
60.520869405
 20
120.4712020434
 10
60.4028663273
 20
120.3377700526
 10
60.2909457001
 20
120.1991657854
 10
60.1850767334
 20
120.0554327892
  0
LWPOLYLINE
  5
2A3
100
AcDbEntity
  8
IMPORT_IGES
100
AcDbPolyline
 62
7
  6
CONTINUOUS
 90
8
 70
0
 10
54.6105065352
 20
105.4349571119
 10
54.5529372679
 20
105.4589934332
 10
54.525042778
 20
105.4711255457
 10
54.4974667065
 20
105.4841506501
 10
54.470143928
 20
105.4980983244
 10
54.4431395679
 20
105.5129389906
 10
54.4166169816
 20
105.5285971209
 10
54.396981974
 20
105.5409256183
  0
LWPOLYLINE
  5
2A4
100
AcDbEntity
  8
IMPORT_IGES
100
AcDbPolyline
 62
7
  6
CONTINUOUS
 90
6
 70
0
 10
54.6105065352
 20
105.4349571119
 10
54.6656650644
 20
105.4166895105
 10
54.7219881622
 20
105.4015900636
 10
54.7789126701
 20
105.3898158633
 10
54.8362508686
 20
105.3814192736
 10
54.8941904773
 20
105.3763479304
  0
LINE
  5
2A5
100
AcDbEntity
  8
IMPORT_IGES
100
AcDbLine
 62
7
  6
CONTINUOUS
 10
131.8209399234
 20
145.6027687991
 11
131.8209399234
 21
144.6781375991
  0
LINE
  5
2A6
100
AcDbEntity
  8
IMPORT_IGES
100
AcDbLine
 62
7
  6
CONTINUOUS
 10
131.8209399234
 20
140.4380767991
 11
131.8209399234
 21
139.5134455991
  0
LINE
  5
2A7
100
AcDbEntity
  8
IMPORT_IGES
100
AcDbLine
 62
7
  6
CONTINUOUS
 10
136.4109399234
 20
143.0171071991
 11
136.4109399234
 21
142.0991071991
  0
LINE
  5
2A8
100
AcDbEntity
  8
IMPORT_IGES
100
AcDbLine
 62
7
  6
CONTINUOUS
 10
137.0229399234
 20
145.6027687991
 11
137.0229399234
 21
144.6781375991
  0
LINE
  5
2A9
100
AcDbEntity
  8
IMPORT_IGES
100
AcDbLine
 62
7
  6
CONTINUOUS
 10
137.0229399234
 20
140.4380773087
 11
137.0229399234
 21
139.5134455991
  0
LINE
  5
2AA
100
AcDbEntity
  8
IMPORT_IGES
100
AcDbLine
 62
7
  6
CONTINUOUS
 10
150.3079895566
 20
150.1825354322
 11
150.3079895566
 21
150.4729947121
  0
LINE
  5
2AB
100
AcDbEntity
  8
IMPORT_IGES
100
AcDbLine
 62
7
  6
CONTINUOUS
 10
150.9123043066
 20
139.8517310535
 11
150.9123043066
 21
141.3619145535
  0
LWPOLYLINE
  5
2AC
100
AcDbEntity
  8
IMPORT_IGES
100
AcDbPolyline
 62
7
  6
CONTINUOUS
 90
28
 70
0
 10
152.7501548274
 20
144.0343498603
 10
152.7505913072
 20
144.0302930572
 10
152.751301993
 20
144.0261233068
 10
152.7522868847
 20
144.0218406091
 10
152.7535320186
 20
144.0174363089
 10
152.7550513584
 20
144.0129190613
 10
152.7568867957
 20
144.0083148319
 10
152.7590467866
 20
144.003608578
 10
152.7615228751
 20
143.9988153422
 10
152.7643315843
 20
143.9940062179
 10
152.7674926236
 20
143.9891655757
 10
152.7709862838
 20
143.984309045
 10
152.7747699598
 20
143.9795546074
 10
152.7788657799
 20
143.974899072
 10
152.7832516158
 20
143.9703456298
 10
152.7878184786
 20
143.9660218351
 10
152.792578253
 20
143.9619409379
 10
152.7975190541
 20
143.9580896883
 10
152.8024962384
 20
143.9545558909
 10
152.8074977319
 20
143.9513645808
 10
152.8125356085
 20
143.9484907229
 10
152.8175014463
 20
143.9459470171
 10
152.8223748239
 20
143.9437493177
 10
152.8271761628
 20
143.9418817704
 10
152.8318583051
 20
143.9403095118
 10
152.8364055317
 20
143.9390209208
 10
152.8408335618
 20
143.9380276186
 10
152.8451423954
 20
143.9373296051
  0
LINE
  5
2AD
100
AcDbEntity
  8
IMPORT_IGES
100
AcDbLine
 62
7
  6
CONTINUOUS
 10
152.6683205425
 20
144.9855299585
 11
152.7501548274
 21
144.0343498603
  0
LINE
  5
2AE
100
AcDbEntity
  8
IMPORT_IGES
100
AcDbLine
 62
7
  6
CONTINUOUS
 10
152.3296771064
 20
148.9221937823
 11
152.3843865488
 21
148.2861978759
  0
LINE
  5
2AF
100
AcDbEntity
  8
IMPORT_IGES
100
AcDbLine
 62
7
  6
CONTINUOUS
 10
152.4118705565
 20
147.9667932923
 11
152.6457485252
 21
145.2479054563
  0
LINE
  5
2B0
100
AcDbEntity
  8
IMPORT_IGES
100
AcDbLine
 62
7
  6
CONTINUOUS
 10
152.9549706484
 20
144.1505472722
 11
152.8658572564
 21
145.1865437164
  0
LINE
  5
2B1
100
AcDbEntity
  8
IMPORT_IGES
100
AcDbLine
 62
7
  6
CONTINUOUS
 10
152.6206333066
 20
148.0373930535
 11
152.5452838066
 21
148.9133285535
  0
LINE
  5
2B2
100
AcDbEntity
  8
IMPORT_IGES
100
AcDbLine
 62
7
  6
CONTINUOUS
 10
152.8433038066
 20
145.4489390535
 11
152.6481148438
 21
147.7179907209
  0
LINE
  5
2B3
100
AcDbEntity
  8
IMPORT_IGES
100
AcDbLine
 62
7
  6
CONTINUOUS
 10
152.0718110906
 20
148.9221937823
 11
152.0718110906
 21
149.1362497831
  0
LINE
  5
2B4
100
AcDbEntity
  8
IMPORT_IGES
100
AcDbLine
 62
7
  6
CONTINUOUS
 10
152.7407001647
 20
149.5657183612
 11
152.7407001647
 21
149.707190991
  0
LINE
  5
2B5
100
AcDbEntity
  8
IMPORT_IGES
100
AcDbLine
 62
7
  6
CONTINUOUS
 10
152.8451423954
 20
143.6144437306
 11
152.8451423954
 21
143.9373296051
  0
LINE
  5
2B6
100
AcDbEntity
  8
IMPORT_IGES
100
AcDbLine
 62
7
  6
CONTINUOUS
 10
153.1064684432
 20
149.1362497831
 11
153.1064684432
 21
149.461829213
  0
LINE
  5
2B7
100
AcDbEntity
  8
IMPORT_IGES
100
AcDbLine
 62
7
  6
CONTINUOUS
 10
153.2418059944
 20
143.9365086913
 11
153.2418059944
 21
143.6144437306
  0
LINE
  5
2B8
100
AcDbEntity
  8
IMPORT_IGES
100
AcDbLine
 62
7
  6
CONTINUOUS
 10
153.6504733066
 20
147.4239440535
 11
153.6504733066
 21
147.8520560535
  0
LINE
  5
2B9
100
AcDbEntity
  8
IMPORT_IGES
100
AcDbLine
 62
7
  6
CONTINUOUS
 10
153.6861860257
 20
149.5458280766
 11
153.6861860257
 21
149.3235313639
  0
LINE
  5
2BA
100
AcDbEntity
  8
IMPORT_IGES
100
AcDbLine
 62
7
  6
CONTINUOUS
 10
153.6861860257
 20
149.7650044457
 11
153.6861860257
 21
149.8497697859
  0
LINE
  5
2BB
100
AcDbEntity
  8
IMPORT_IGES
100
AcDbLine
 62
7
  6
CONTINUOUS
 10
154.738609521
 20
149.3235313639
 11
154.7386008111
 21
149.5233171825
  0
LINE
  5
2BC
100
AcDbEntity
  8
IMPORT_IGES
100
AcDbLine
 62
7
  6
CONTINUOUS
 10
154.9615858066
 20
147.6045480354
 11
154.9615858066
 21
147.8520560535
  0
LINE
  5
2BD
100
AcDbEntity
  8
IMPORT_IGES
100
AcDbLine
 62
7
  6
CONTINUOUS
 10
155.4787813066
 20
148.5895505535
 11
155.4787813066
 21
148.1308475535
  0
LINE
  5
2BE
100
AcDbEntity
  8
IMPORT_IGES
100
AcDbLine
 62
7
  6
CONTINUOUS
 10
156.0177748066
 20
148.3939700744
 11
156.0177748066
 21
148.0356815535
  0
LINE
  5
2BF
100
AcDbEntity
  8
IMPORT_IGES
100
AcDbLine
 62
7
  6
CONTINUOUS
 10
156.2051078273
 20
148.5846037747
 11
156.2051078273
 21
147.8432092608
  0
LINE
  5
2C0
100
AcDbEntity
  8
IMPORT_IGES
100
AcDbLine
 62
7
  6
CONTINUOUS
 10
157.1140963066
 20
141.3619145535
 11
157.1140963066
 21
139.8517310535
  0
LINE
  5
2C1
100
AcDbEntity
  8
IMPORT_IGES
100
AcDbLine
 62
7
  6
CONTINUOUS
 10
157.8086366834
 20
150.5017310508
 11
157.8086366834
 21
150.2163857112
  0
LINE
  5
2C2
100
AcDbEntity
  8
IMPORT_IGES
100
AcDbLine
 62
7
  6
CONTINUOUS
 10
154.738609521
 20
149.8497697859
 11
154.7385921011
 21
149.7412796008
  0
LINE
  5
2C3
100
AcDbEntity
  8
IMPORT_IGES
100
AcDbLine
 62
7
  6
CONTINUOUS
 10
155.6022733066
 20
148.9133285535
 11
155.5721083066
 21
148.5895505535
  0
LINE
  5
2C4
100
AcDbEntity
  8
IMPORT_IGES
100
AcDbLine
 62
7
  6
CONTINUOUS
 10
155.5052869082
 20
147.8724767601
 11
155.2614598066
 21
145.2561635535
  0
LINE
  5
2C5
100
AcDbEntity
  8
IMPORT_IGES
100
AcDbLine
 62
7
  6
CONTINUOUS
 10
155.2368177647
 20
144.9916560552
 11
155.2223945045
 21
144.8369172379
  0
LINE
  5
2C6
100
AcDbEntity
  8
IMPORT_IGES
100
AcDbLine
 62
7
  6
CONTINUOUS
 10
155.4572498921
 20
145.0499922794
 11
155.7175775606
 21
147.8432092608
  0
LINE
  5
2C7
100
AcDbEntity
  8
IMPORT_IGES
100
AcDbLine
 62
7
  6
CONTINUOUS
 10
155.7871276877
 20
148.5895690827
 11
155.8179037434
 21
148.9195912281
  0
LINE
  5
2C8
100
AcDbEntity
  8
IMPORT_IGES
100
AcDbLine
 62
7
  6
CONTINUOUS
 10
155.7354883066
 20
148.0356815535
 11
155.7428072252
 21
148.1141577525
  0
LINE
  5
2C9
100
AcDbEntity
  8
IMPORT_IGES
100
AcDbLine
 62
250
  6
CONTINUOUS
 10
60.2444401191
 20
115.3735780795
 11
60.6461255068
 21
115.6713488939
  0
LINE
  5
2CA
100
AcDbEntity
  8
IMPORT_IGES
100
AcDbLine
 62
250
  6
CONTINUOUS
 10
170.1127095945
 20
115.3735524039
 11
169.755960944
 21
115.7239396045
  0
LINE
  5
2CB
100
AcDbEntity
  8
IMPORT_IGES
100
AcDbLine
 62
7
  6
CONTINUOUS
 10
167.1425612477
 20
115.3159902591
 11
167.1425612477
 21
117.206019598
  0
LINE
  5
2CC
100
AcDbEntity
  8
IMPORT_IGES
100
AcDbLine
 62
7
  6
CONTINUOUS
 10
167.1425612477
 20
118.306019598
 11
167.1425612477
 21
120.1960489261
  0
LINE
  5
2CD
100
AcDbEntity
  8
IMPORT_IGES
100
AcDbLine
 62
7
  6
CONTINUOUS
 10
168.2314138548
 20
115.3159902698
 11
168.2314138548
 21
117.206019598
  0
LINE
  5
2CE
100
AcDbEntity
  8
IMPORT_IGES
100
AcDbLine
 62
7
  6
CONTINUOUS
 10
168.2314138548
 20
118.306019598
 11
168.2314138548
 21
120.1960489368
  0
LINE
  5
2CF
100
AcDbEntity
  8
IMPORT_IGES
100
AcDbLine
 62
7
  6
CONTINUOUS
 10
168.9161565232
 20
127.2514752928
 11
168.9161565232
 21
152.6514752928
  0
LINE
  5
2D0
100
AcDbEntity
  8
IMPORT_IGES
100
AcDbLine
 62
7
  6
CONTINUOUS
 10
171.0425612477
 20
164.5839902591
 11
171.0425612477
 21
166.474019598
  0
LINE
  5
2D1
100
AcDbEntity
  8
IMPORT_IGES
100
AcDbLine
 62
7
  6
CONTINUOUS
 10
171.0425612477
 20
167.574019598
 11
171.0425612477
 21
169.4640489261
  0
LINE
  5
2D2
100
AcDbEntity
  8
IMPORT_IGES
100
AcDbLine
 62
7
  6
CONTINUOUS
 10
172.1314138548
 20
164.5839902698
 11
172.1314138548
 21
166.474019598
  0
LINE
  5
2D3
100
AcDbEntity
  8
IMPORT_IGES
100
AcDbLine
 62
7
  6
CONTINUOUS
 10
172.1314138548
 20
167.574019598
 11
172.1314138548
 21
169.4640489368
  0
LWPOLYLINE
  5
2D4
100
AcDbEntity
  8
IMPORT_IGES
100
AcDbPolyline
 62
7
  6
CONTINUOUS
 90
7
 70
0
 10
262.4797673332
 20
105.3764852491
 10
262.5377102151
 20
105.3814727791
 10
262.5950513736
 20
105.3898135547
 10
262.6519785257
 20
105.40156923
 10
262.7083039546
 20
105.4166781509
 10
262.7634645099
 20
105.4349553543
 10
262.8203387477
 20
105.4587025831
  0
LINE
  5
2D5
100
AcDbEntity
  8
IMPORT_IGES
100
AcDbLine
 62
7
  6
CONTINUOUS
 10
262.4283440919
 20
105.3750497589
 11
262.4797673332
 21
105.3764852491
  0
LINE
  5
2D6
100
AcDbEntity
  8
IMPORT_IGES
100
AcDbLine
 62
7
  6
CONTINUOUS
 10
262.4282854832
 20
105.3771492857
 11
54.9456507735
 21
105.382243879
  0
LWPOLYLINE
  5
2D7
100
AcDbEntity
  8
IMPORT_IGES
100
AcDbPolyline
 62
7
  6
CONTINUOUS
 90
13
 70
0
 10
54.9456507735
 20
105.382243879
 10
54.9145163633
 20
105.3825588967
 10
54.8833876166
 20
105.3838320417
 10
54.8522645335
 20
105.3860633141
 10
54.8210579782
 20
105.3892646395
 10
54.7898570865
 20
105.3934240923
 10
54.7589292657
 20
105.3985058953
 10
54.7283062235
 20
105.4045186197
 10
54.6979562521
 20
105.4114536944
 10
54.6680516354
 20
105.4192496294
 10
54.6386814398
 20
105.4278796196
 10
54.6097565988
 20
105.4373704702
 10
54.5811821966
 20
105.447741106
  0
LINE
  5
2D8
100
AcDbEntity
  8
IMPORT_IGES
100
AcDbLine
 62
7
  6
CONTINUOUS
 10
54.8941904773
 20
105.3763479304
 11
54.9454293314
 21
105.3748196346
  0
LINE
  5
2D9
100
AcDbEntity
  8
IMPORT_IGES
100
AcDbLine
 62
7
  6
CONTINUOUS
 10
150.4385104993
 20
143.0017796322
 11
150.5811622453
 21
142.8615994646
  0
LINE
  5
2DA
100
AcDbEntity
  8
IMPORT_IGES
100
AcDbLine
 62
7
  6
CONTINUOUS
 10
153.9775746946
 20
146.3178564783
 11
155.2368177647
 21
144.9916560552
  0
LINE
  5
2DB
100
AcDbEntity
  8
IMPORT_IGES
100
AcDbLine
 62
7
  6
CONTINUOUS
 10
152.6481148438
 20
147.7179907209
 11
153.8397723941
 21
146.4629715685
  0
LINE
  5
2DC
100
AcDbEntity
  8
IMPORT_IGES
100
AcDbLine
 62
7
  6
CONTINUOUS
 10
155.9748473247
 20
144.2144142294
 11
157.2378808359
 21
142.8842242173
  0
LINE
  5
2DD
100
AcDbEntity
  8
IMPORT_IGES
100
AcDbLine
 62
7
  6
CONTINUOUS
 10
150.3079895566
 20
150.1825354322
 11
152.4118705565
 21
147.9667932923
  0
LINE
  5
2DE
100
AcDbEntity
  8
IMPORT_IGES
100
AcDbLine
 62
7
  6
CONTINUOUS
 10
155.2614598066
 20
145.2561635535
 11
154.117833056
 21
146.4606000253
  0
LINE
  5
2DF
100
AcDbEntity
  8
IMPORT_IGES
100
AcDbLine
 62
7
  6
CONTINUOUS
 10
153.9800308066
 20
146.6057150535
 11
152.6206333066
 21
148.0373930535
  0
LINE
  5
2E0
100
AcDbEntity
  8
IMPORT_IGES
100
AcDbLine
 62
7
  6
CONTINUOUS
 10
157.3829504058
 20
143.0219007308
 11
155.4572498921
 21
145.0499922794
  0
LINE
  5
2E1
100
AcDbEntity
  8
IMPORT_IGES
100
AcDbLine
 62
7
  6
CONTINUOUS
 10
152.3843865488
 20
148.2861978759
 11
150.3079895566
 21
150.4729947121
  0
LWPOLYLINE
  5
2E2
100
AcDbEntity
  8
IMPORT_IGES
100
AcDbPolyline
 62
7
  6
CONTINUOUS
 90
19
 70
0
 10
155.703985875
 20
149.3588817462
 10
155.6757990307
 20
149.3900715433
 10
155.6441872526
 20
149.4203575751
 10
155.6091505408
 20
149.4497398416
 10
155.5706145779
 20
149.478337952
 10
155.5286536812
 20
149.5060322971
 10
155.4834908031
 20
149.5324640494
 10
155.4349684105
 20
149.5575621571
 10
155.3832440365
 20
149.5813976721
 10
155.3290132327
 20
149.6038249226
 10
155.272402878
 20
149.624813945
 10
155.2132860934
 20
149.6443947029
 10
155.151977794
 20
149.6625114156
 10
155.0885882816
 20
149.6791112515
 10
155.0230072543
 20
149.694247042
 10
154.9552187217
 20
149.7080215009
 10
154.8852173536
 20
149.7204688659
 10
154.81300848
 20
149.7315548992
 10
154.7385921011
 20
149.7412796008
  0
LINE
  5
2E3
100
AcDbEntity
  8
IMPORT_IGES
100
AcDbLine
 62
7
  6
CONTINUOUS
 10
184.6019685232
 20
155.4514747938
 11
184.6019685232
 21
159.9511967938
  0
LINE
  5
2E4
100
AcDbEntity
  8
IMPORT_IGES
100
AcDbLine
 62
7
  6
CONTINUOUS
 10
185.5411805232
 20
159.9511967938
 11
185.5411805232
 21
155.4514747938
  0
LINE
  5
2E5
100
AcDbEntity
  8
IMPORT_IGES
100
AcDbLine
 62
7
  6
CONTINUOUS
 10
186.4530625232
 20
159.9509267938
 11
186.0467875232
 21
155.4514747938
  0
LINE
  5
2E6
100
AcDbEntity
  8
IMPORT_IGES
100
AcDbLine
 62
7
  6
CONTINUOUS
 10
183.3148545232
 20
159.9509267938
 11
182.4309775232
 21
156.8538147938
  0
LINE
  5
2E7
100
AcDbEntity
  8
IMPORT_IGES
100
AcDbLine
 62
7
  6
CONTINUOUS
 10
182.8071205232
 20
155.4514747938
 11
184.2534245232
 21
159.9509267938
  0
LINE
  5
2E8
100
AcDbEntity
  8
IMPORT_IGES
100
AcDbLine
 62
7
  6
CONTINUOUS
 10
153.8397723941
 20
146.4629715685
 11
152.8433038066
 21
145.4489390535
  0
LINE
  5
2E9
100
AcDbEntity
  8
IMPORT_IGES
100
AcDbLine
 62
7
  6
CONTINUOUS
 10
157.8086366834
 20
150.5017310508
 11
155.9295823657
 21
148.5895690827
  0
LINE
  5
2EA
100
AcDbEntity
  8
IMPORT_IGES
100
AcDbLine
 62
7
  6
CONTINUOUS
 10
152.6457485252
 20
145.2479054563
 11
150.4385104993
 21
143.0017796322
  0
LINE
  5
2EB
100
AcDbEntity
  8
IMPORT_IGES
100
AcDbLine
 62
7
  6
CONTINUOUS
 10
155.4787813066
 20
148.1308475535
 11
154.9615858066
 21
147.6045480354
  0
LINE
  5
2EC
100
AcDbEntity
  8
IMPORT_IGES
100
AcDbLine
 62
7
  6
CONTINUOUS
 10
154.7841059429
 20
147.4239440535
 11
153.9800308066
 21
146.6057150535
  0
LINE
  5
2ED
100
AcDbEntity
  8
IMPORT_IGES
100
AcDbLine
 62
7
  6
CONTINUOUS
 10
152.8658572564
 20
145.1865437164
 11
153.9775746946
 21
146.3178564783
  0
LINE
  5
2EE
100
AcDbEntity
  8
IMPORT_IGES
100
AcDbLine
 62
7
  6
CONTINUOUS
 10
155.7428072252
 20
148.1141577525
 11
156.0177748066
 21
148.3939700744
  0
LINE
  5
2EF
100
AcDbEntity
  8
IMPORT_IGES
100
AcDbLine
 62
7
  6
CONTINUOUS
 10
156.2051078273
 20
148.5846037747
 11
157.8086366834
 21
150.2163857112
  0
LINE
  5
2F0
100
AcDbEntity
  8
IMPORT_IGES
100
AcDbLine
 62
7
  6
CONTINUOUS
 10
150.5811622453
 20
142.8615994646
 11
152.6683205425
 21
144.9855299585
  0
LINE
  5
2F1
100
AcDbEntity
  8
IMPORT_IGES
100
AcDbLine
 62
7
  6
CONTINUOUS
 10
154.117833056
 20
146.4606000253
 11
155.5052869082
 21
147.8724767601
  0
LINE
  5
2F2
100
AcDbEntity
  8
IMPORT_IGES
100
AcDbLine
 62
7
  6
CONTINUOUS
 10
157.2378808359
 20
142.8842242173
 11
157.3829504058
 21
143.0219007308
  0
LINE
  5
2F3
100
AcDbEntity
  8
IMPORT_IGES
100
AcDbLine
 62
7
  6
CONTINUOUS
 10
155.9076525443
 20
144.1587377519
 11
155.9748473247
 21
144.2144142294
  0
LINE
  5
2F4
100
AcDbEntity
  8
IMPORT_IGES
100
AcDbLine
 62
250
  6
CONTINUOUS
 10
66.6710986137
 20
115.3734771894
 11
165.2613967258
 21
115.3734770176
  0
LINE
  5
2F5
100
AcDbEntity
  8
IMPORT_IGES
100
AcDbLine
 62
250
  6
CONTINUOUS
 10
170.1125782848
 20
115.3734771907
 11
250.7028761471
 21
115.3734770176
  0
LINE
  5
2F6
100
AcDbEntity
  8
IMPORT_IGES
100
AcDbLine
 62
7
  6
CONTINUOUS
 10
167.1425612477
 20
117.206019598
 11
168.2314138548
 21
117.206019598
  0
LINE
  5
2F7
100
AcDbEntity
  8
IMPORT_IGES
100
AcDbLine
 62
7
  6
CONTINUOUS
 10
167.1425612477
 20
118.306019598
 11
168.2314138548
 21
118.306019598
  0
LWPOLYLINE
  5
2F8
100
AcDbEntity
  8
IMPORT_IGES
100
AcDbPolyline
 62
250
  6
CONTINUOUS
 90
3
 70
0
 10
54.4097230735
 20
115.3734387978
 10
54.4688919413
 20
115.373409168
 10
60.244538545
 20
115.3734772002
  0
LWPOLYLINE
  5
2F9
100
AcDbEntity
  8
IMPORT_IGES
100
AcDbPolyline
 62
250
  6
CONTINUOUS
 90
4
 70
0
 10
53.7139911245
 20
115.3734760433
 10
54.3519760779
 20
115.3734684256
 10
54.3806909339
 20
115.373454555
 10
54.4097230735
 20
115.3734387978
  0
LINE
  5
2FA
100
AcDbEntity
  8
IMPORT_IGES
100
AcDbLine
 62
250
  6
CONTINUOUS
 10
263.6604588373
 20
115.3734770175
 11
257.1294365541
 21
115.3734772015
  0
LINE
  5
2FB
100
AcDbEntity
  8
IMPORT_IGES
100
AcDbLine
 62
7
  6
CONTINUOUS
 10
180.5530255232
 20
159.9509267938
 11
181.9794395232
 21
155.4514747938
  0
LINE
  5
2FC
100
AcDbEntity
  8
IMPORT_IGES
100
AcDbLine
 62
7
  6
CONTINUOUS
 10
182.4309775232
 20
156.8538147938
 11
181.5733005232
 21
159.9509267938
  0
LINE
  5
2FD
100
AcDbEntity
  8
IMPORT_IGES
100
AcDbLine
 62
7
  6
CONTINUOUS
 10
190.6100095232
 20
155.4514747938
 11
190.1892605232
 21
159.9509267938
  0
LINE
  5
2FE
100
AcDbEntity
  8
IMPORT_IGES
100
AcDbLine
 62
7
  6
CONTINUOUS
 10
189.4982465232
 20
158.3772847938
 11
189.6912105232
 21
155.4514747938
  0
LINE
  5
2FF
100
AcDbEntity
  8
IMPORT_IGES
100
AcDbLine
 62
7
  6
CONTINUOUS
 10
194.7337217884
 20
155.4514752928
 11
194.7337217884
 21
159.8983581033
  0
LINE
  5
300
100
AcDbEntity
  8
IMPORT_IGES
100
AcDbLine
 62
7
  6
CONTINUOUS
 10
195.6380118313
 20
157.9492133998
 11
195.6380118313
 21
159.1844005157
  0
LINE
  5
301
100
AcDbEntity
  8
IMPORT_IGES
100
AcDbLine
 62
7
  6
CONTINUOUS
 10
195.6691546883
 20
157.2123119955
 11
195.6691546883
 21
155.4514752928
  0
LINE
  5
302
100
AcDbEntity
  8
IMPORT_IGES
100
AcDbLine
 62
7
  6
CONTINUOUS
 10
197.1805283427
 20
157.5889031668
 11
197.1805283427
 21
157.5377189574
  0
LWPOLYLINE
  5
303
100
AcDbEntity
  8
IMPORT_IGES
100
AcDbPolyline
 62
7
  6
CONTINUOUS
 90
28
 70
0
 10
196.9043418041
 20
158.6484262113
 10
196.9041533997
 20
158.5996237158
 10
196.9018028239
 20
158.5524856914
 10
196.8972900766
 20
158.507012138
 10
196.8906493659
 20
158.4631901519
 10
196.8818464836
 20
158.4210326367
 10
196.8707788057
 20
158.3805783042
 10
196.8573899228
 20
158.3418603882
 10
196.8417362442
 20
158.3048456548
 10
196.823884373
 20
158.2694731139
 10
196.8037697088
 20
158.2356400487
 10
196.781456852
 20
158.2034491759
 10
196.7572062073
 20
158.1731476552
 10
196.7311005014
 20
158.1447765935
 10
196.7030570074
 20
158.1182948839
 10
196.67308795
 20
158.0938263653
 10
196.6411015251
 20
158.071432914
 10
196.6071895367
 20
158.0510526537
 10
196.5716396206
 20
158.032623795
 10
196.5346125896
 20
158.0161955466
 10
196.4959476309
 20
158.0017186999
 10
196.4554499413
 20
157.9889838391
 10
196.4130110557
 20
157.9779035347
 10
196.3687394391
 20
157.9685652163
 10
196.3227656837
 20
157.9610217564
 10
196.2751333202
 20
157.9552907791
 10
196.2257988178
 20
157.9513546602
 10
196.1747621766
 20
157.9492133998
  0
LINE
  5
304
100
AcDbEntity
  8
IMPORT_IGES
100
AcDbLine
 62
7
  6
CONTINUOUS
 10
186.9453085232
 20
155.4514747938
 11
187.1479895232
 21
158.3895317938
  0
LINE
  5
305
100
AcDbEntity
  8
IMPORT_IGES
100
AcDbLine
 62
7
  6
CONTINUOUS
 10
192.1377975232
 20
157.0447887938
 11
192.6054465232
 21
158.7145917938
  0
LINE
  5
306
100
AcDbEntity
  8
IMPORT_IGES
100
AcDbLine
 62
7
  6
CONTINUOUS
 10
191.6865135232
 20
155.4514747938
 11
191.9456765232
 21
156.3497257938
  0
LINE
  5
307
100
AcDbEntity
  8
IMPORT_IGES
100
AcDbLine
 62
7
  6
CONTINUOUS
 10
192.1688055232
 20
159.9509267938
 11
190.7574905232
 21
155.4514747938
  0
LINE
  5
308
100
AcDbEntity
  8
IMPORT_IGES
100
AcDbLine
 62
7
  6
CONTINUOUS
 10
189.2600015232
 20
159.9509267938
 11
188.3207905232
 21
157.4528167938
  0
LINE
  5
309
100
AcDbEntity
  8
IMPORT_IGES
100
AcDbLine
 62
7
  6
CONTINUOUS
 10
188.3815235232
 20
155.4514747938
 11
189.4982465232
 21
158.3772847938
  0
LWPOLYLINE
  5
30A
100
AcDbEntity
  8
IMPORT_IGES
100
AcDbPolyline
 62
7
  6
CONTINUOUS
 90
16
 70
0
 10
152.7407001647
 20
149.5657183612
 10
152.6931957207
 20
149.5430248044
 10
152.6481466899
 20
149.5191866962
 10
152.6055530724
 20
149.4942040366
 10
152.5653544074
 20
149.468010465
 10
152.5276111558
 20
149.4406723421
 10
152.4925046996
 20
149.4123887494
 10
152.4600384236
 20
149.3830459204
 10
152.430208943
 20
149.3527576216
 10
152.4031874863
 20
149.3220642343
 10
152.3790932479
 20
149.290932109
 10
152.3578070332
 20
149.2593948951
 10
152.3391424875
 20
149.2280939227
 10
152.3230374924
 20
149.1972429681
 10
152.3095541663
 20
149.1666282549
 10
152.298692509
 20
149.1362497831
  0
LINE
  5
30B
100
AcDbEntity
  8
IMPORT_IGES
100
AcDbLine
 62
7
  6
CONTINUOUS
 10
209.6161565232
 20
126.9514752928
 11
169.2161565232
 21
126.9514752928
  0
LINE
  5
30C
100
AcDbEntity
  8
IMPORT_IGES
100
AcDbLine
 62
7
  6
CONTINUOUS
 10
187.1479895232
 20
158.3895317938
 11
188.2497995232
 21
155.4514747938
  0
LINE
  5
30D
100
AcDbEntity
  8
IMPORT_IGES
100
AcDbLine
 62
7
  6
CONTINUOUS
 10
188.3207905232
 20
157.4528167938
 11
187.3914975232
 21
159.9509267938
  0
LINE
  5
30E
100
AcDbEntity
  8
IMPORT_IGES
100
AcDbLine
 62
7
  6
CONTINUOUS
 10
194.4579235232
 20
155.4514747938
 11
193.0773805232
 21
159.9509267938
  0
LINE
  5
30F
100
AcDbEntity
  8
IMPORT_IGES
100
AcDbLine
 62
7
  6
CONTINUOUS
 10
193.2247275232
 20
156.3497257938
 11
193.4680325232
 21
155.4514747938
  0
LINE
  5
310
100
AcDbEntity
  8
IMPORT_IGES
100
AcDbLine
 62
7
  6
CONTINUOUS
 10
192.6054465232
 20
158.7145917938
 11
193.0370265232
 21
157.0447887938
  0
LWPOLYLINE
  5
311
100
AcDbEntity
  8
IMPORT_IGES
100
AcDbPolyline
 62
250
  6
CONTINUOUS
 90
34
 70
0
 10
165.1841222051
 20
120.0572487734
 10
165.0811226124
 20
119.9398864714
 10
164.9833716781
 20
119.8176414189
 10
164.8915147815
 20
119.6913034071
 10
164.8055928889
 20
119.5608402536
 10
164.725565034
 20
119.4262841407
 10
164.6519536972
 20
119.2885214067
 10
164.5848257457
 20
119.1476286313
 10
164.5241143123
 20
119.0035292348
 10
164.4701412771
 20
118.8568798163
 10
164.4228929656
 20
118.7075075495
 10
164.3823830522
 20
118.5555852607
 10
164.3489744398
 20
118.4022880285
 10
164.3227484325
 20
118.2476653716
 10
164.3036237262
 20
118.0916677713
 10
164.2917193118
 20
117.93532175
 10
164.2870851359
 20
117.7786354893
 10
164.2896712519
 20
117.6216008076
 10
164.2994468108
 20
117.4652196827
 10
164.3164949176
 20
117.3094002544
 10
164.3407324673
 20
117.1542343828
 10
164.3718792961
 20
117.0009996265
 10
164.409885434
 20
116.8500011041
 10
164.4548008509
 20
116.7009336969
 10
164.5064952927
 20
116.5541596074
 10
164.565052521
 20
116.4094565676
 10
164.6303887743
 20
116.2670468455
 10
164.7021225131
 20
116.1279594478
 10
164.7803010885
 20
115.9922331125
 10
164.8648771495
 20
115.8598291016
 10
164.955327103
 20
115.7316602074
 10
165.051476418
 20
115.608030694
 10
165.1534996257
 20
115.4886362974
 10
165.2613967258
 20
115.3734770176
  0
LWPOLYLINE
  5
312
100
AcDbEntity
  8
IMPORT_IGES
100
AcDbPolyline
 62
250
  6
CONTINUOUS
 90
70
 70
0
 10
170.1125782848
 20
115.3734771907
 10
170.2197998454
 20
115.4878086055
 10
170.3213144693
 20
115.6065171527
 10
170.4171221563
 20
115.7296028325
 10
170.5074296069
 20
115.8573751568
 10
170.5920301206
 20
115.9895246136
 10
170.6703035964
 20
116.1251226664
 10
170.7421942186
 20
116.2642204195
 10
170.8077578028
 20
116.4067667687
 10
170.8665416944
 20
116.5516798644
 10
170.9184494576
 20
116.6987417559
 10
170.9635775282
 20
116.8481703939
 10
171.001762559
 20
116.9995377807
 10
171.0330428649
 20
117.1531432496
 10
171.0573801311
 20
117.3086874672
 10
171.0744960662
 20
117.464844436
 10
171.0842998321
 20
117.6215194064
 10
171.086882267
 20
117.778807128
 10
171.0822375936
 20
117.9356658523
 10
171.0703096904
 20
118.0920995762
 10
171.0511546789
 20
118.2481043029
 10
171.024935146
 20
118.4026262932
 10
170.9915743756
 20
118.5556911506
 10
170.9511490839
 20
118.7072732716
 10
170.9040520059
 20
118.856242106
 10
170.8503281399
 20
119.0023879711
 10
170.7899324877
 20
119.1459205495
 10
170.72312279
 20
119.2863383391
 10
170.6498367388
 20
119.4237562093
 10
170.5701366421
 20
119.5580592908
 10
170.4844671642
 20
119.6884014732
 10
170.3927542582
 20
119.8147957151
 10
170.2950719709
 20
119.937229058
 10
170.1920871074
 20
120.0548165152
 10
170.0837673823
 20
120.1675020576
 10
169.9701450809
 20
120.2753417142
 10
169.8519838639
 20
120.377618586
 10
169.7292734629
 20
120.474277888
 10
169.6020241463
 20
120.565374405
 10
169.4710303806
 20
120.6503555933
 10
169.3363160373
 20
120.72917295
 10
169.1978572449
 20
120.8018749778
 10
169.0563768559
 20
120.8680546415
 10
168.9117665215
 20
120.9277127353
 10
168.7641345904
 20
120.9808484649
 10
168.6145289614
 20
121.0270524122
 10
168.4629631259
 20
121.066257436
 10
168.3094235924
 20
121.0985306774
 10
168.1549177859
 20
121.1236641411
 10
167.9994461804
 20
121.1416071869
 10
167.8430083018
 20
121.152410455
 10
167.6866101535
 20
121.1560178703
 10
167.5302624719
 20
121.1523839108
 10
167.3739545205
 20
121.1415540985
 10
167.2186600928
 20
121.1236089249
 10
167.0643843507
 20
121.0985054112
 10
166.9111221322
 20
121.0662865362
 10
166.7598317448
 20
121.0271617273
 10
166.6104930812
 20
120.9810690492
 10
166.4631262486
 20
120.9280704371
 10
166.3187498761
 20
120.8685611248
 10
166.1774576179
 20
120.8025366208
 10
166.0391558198
 20
120.7300014166
 10
165.9045821477
 20
120.65136422
 10
165.7737152269
 20
120.566574891
 10
165.6465764321
 20
120.4756835696
 10
165.5239675536
 20
120.3792493843
 10
165.4059162738
 20
120.2772386734
 10
165.2923949103
 20
120.1696850987
 10
165.1841222051
 20
120.0572487734
  0
LINE
  5
313
100
AcDbEntity
  8
IMPORT_IGES
100
AcDbLine
 62
250
  6
CONTINUOUS
 10
165.6180141585
 20
115.7239396045
 11
165.2612655081
 21
115.3735524039
  0
LWPOLYLINE
  5
314
100
AcDbEntity
  8
IMPORT_IGES
100
AcDbPolyline
 62
7
  6
CONTINUOUS
 90
94
 70
0
 10
197.1805283427
 20
157.5889031668
 10
197.1886172603
 20
157.5932138543
 10
197.196918861
 20
157.5977779136
 10
197.2054331447
 20
157.6025953448
 10
197.2141481845
 20
157.6076562239
 10
197.2230759072
 20
157.6129704749
 10
197.2322520938
 20
157.6185678696
 10
197.2416844731
 20
157.6244306704
 10
197.2513653161
 20
157.630576615
 10
197.2613072174
 20
157.6370886886
 10
197.2715135932
 20
157.6439659164
 10
197.2819810272
 20
157.6512092731
 10
197.2927118642
 20
157.658904668
 10
197.3037048866
 20
157.667059193
 10
197.314961312
 20
157.6756657562
 10
197.3264871379
 20
157.6847889916
 10
197.3382809782
 20
157.6944287171
 10
197.3503442189
 20
157.7045851147
 10
197.3626870162
 20
157.7153233648
 10
197.3753084596
 20
157.726636035
 10
197.3882094595
 20
157.7385305578
 10
197.4014029041
 20
157.7510944112
 10
197.4148955234
 20
157.7643104082
 10
197.4286805874
 20
157.7781957359
 10
197.4427507941
 20
157.7928894334
 10
197.4571132984
 20
157.8083776014
 10
197.4717609454
 20
157.8246741393
 10
197.4866649682
 20
157.8419597836
 10
197.5018370641
 20
157.8602234994
 10
197.5172655359
 20
157.8794763215
 10
197.5328865246
 20
157.8999320921
 10
197.5487085894
 20
157.9215631424
 10
197.5647231712
 20
157.944397141
 10
197.5808407339
 20
157.9687309354
 10
197.597128555
 20
157.9946290587
 10
197.613519357
 20
158.0220269777
 10
197.6297217704
 20
158.0510279406
 10
197.6458219723
 20
158.081857917
 10
197.6617337856
 20
158.1142909373
 10
197.6769073105
 20
158.14775234
 10
197.6912485532
 20
158.1821807692
 10
197.7048515074
 20
158.2176375809
 10
197.7174482549
 20
158.2537321813
 10
197.728964876
 20
158.2903334458
 10
197.7394752905
 20
158.327572499
 10
197.7489333393
 20
158.365452121
 10
197.7573424706
 20
158.4039288958
 10
197.7646992362
 20
158.4430462395
 10
197.7709471325
 20
158.4829371801
 10
197.7760962758
 20
158.5236282124
 10
197.7801365497
 20
158.5650928417
 10
197.7829811015
 20
158.6073846118
 10
197.7846112794
 20
158.6508743911
 10
197.7850457351
 20
158.6951913113
 10
197.7842535712
 20
158.7392763104
 10
197.7821835795
 20
158.7830473726
 10
197.7788869682
 20
158.8265865139
 10
197.7744864646
 20
158.86908072
 10
197.7690005831
 20
158.9101930006
 10
197.7624108093
 20
158.9502603462
 10
197.7547843267
 20
158.9894807142
 10
197.7461224325
 20
159.0278861471
 10
197.7364238296
 20
159.0654446026
 10
197.7257518098
 20
159.1022579108
 10
197.7141182286
 20
159.1383377039
 10
197.7015112305
 20
159.1736723499
 10
197.6879585412
 20
159.2083287832
 10
197.6734711641
 20
159.2423015068
 10
197.6580380956
 20
159.2755960178
 10
197.6416540506
 20
159.3082957419
 10
197.6243066268
 20
159.3404409148
 10
197.6060082263
 20
159.3719913009
 10
197.58679077
 20
159.4029096192
 10
197.5666586387
 20
159.433192226
 10
197.5456074516
 20
159.4628427651
 10
197.523655987
 20
159.4918348865
 10
197.5007998255
 20
159.5201769616
 10
197.4770433865
 20
159.5478606191
 10
197.4524187074
 20
159.5748343947
 10
197.4268974331
 20
159.6011190312
 10
197.4005079187
 20
159.6266937858
 10
197.3733672659
 20
159.6514449658
 10
197.345240206
 20
159.67550888
 10
197.3163620078
 20
159.6987492196
 10
197.2875555796
 20
159.7206433662
 10
197.2588733949
 20
159.7410981406
 10
197.2302629802
 20
159.760206722
 10
197.2023898231
 20
159.7777260301
 10
197.175490971
 20
159.7935007832
 10
197.1493293765
 20
159.807686263
 10
197.1238593857
 20
159.8205052351
 10
197.0990657803
 20
159.8320319546
 10
197.0749637786
 20
159.8421921663
 10
197.0515533804
 20
159.8509858702
  0
LWPOLYLINE
  5
315
100
AcDbEntity
  8
IMPORT_IGES
100
AcDbPolyline
 62
7
  6
CONTINUOUS
 90
79
 70
0
 10
344.059509896
 20
136.2741520478
 10
344.1399444661
 20
136.2756493982
 10
344.2175573412
 20
136.2787685611
 10
344.2923485212
 20
136.2834544054
 10
344.3642360807
 20
136.2896426024
 10
344.4333019451
 20
136.2972839647
 10
344.4997918905
 20
136.3063653755
 10
344.5637121786
 20
136.316862386
 10
344.6250565477
 20
136.3287317576
 10
344.6840519883
 20
136.3419567373
 10
344.7407082191
 20
136.3565080536
 10
344.7950155213
 20
136.3723559272
 10
344.8471717289
 20
136.3894938743
 10
344.8972067779
 20
136.4079016131
 10
344.9450907324
 20
136.4275513765
 10
344.990931618
 20
136.4484334152
 10
345.0347437569
 20
136.4705296195
 10
345.0765128269
 20
136.4938149531
 10
345.1163038872
 20
136.5182726694
 10
345.1541315101
 20
136.5438933639
 10
345.1899811233
 20
136.5706452465
 10
345.2238740687
 20
136.5984744761
 10
345.2558020358
 20
136.6273552426
 10
345.2857733352
 20
136.6572625867
 10
345.3138342408
 20
136.6881358422
 10
345.3399614066
 20
136.7199165501
 10
345.3641781787
 20
136.7526032021
 10
345.3866008689
 20
136.7862222413
 10
345.4072365615
 20
136.8207423423
 10
345.4260781723
 20
136.8561480564
 10
345.4432207599
 20
136.8925025937
 10
345.4586851741
 20
136.9298213493
 10
345.4724505652
 20
136.9680594191
 10
345.4845494431
 20
137.0071966062
 10
345.4949820849
 20
137.0472316687
 10
345.5037482135
 20
137.0881345021
 10
345.5108795064
 20
137.1298376441
 10
345.5163709565
 20
137.1722877839
 10
345.520227571
 20
137.2154976533
 10
345.5224960482
 20
137.2594985906
 10
345.5231855343
 20
137.3042634848
 10
345.5222868831
 20
137.3497867356
 10
345.5198193545
 20
137.3961403034
 10
345.5157978303
 20
137.4433013022
 10
345.5102074287
 20
137.4912700053
 10
345.5030227639
 20
137.5401650234
 10
345.494264231
 20
137.589972182
 10
345.4839114351
 20
137.6406962567
 10
345.471877805
 20
137.692499182
 10
345.4581804136
 20
137.7453947015
 10
345.4428021881
 20
137.7993754504
 10
345.4256053396
 20
137.8545861205
 10
345.406599862
 20
137.9110530122
 10
345.3857757612
 20
137.9687675986
 10
345.3629652666
 20
138.0278325286
 10
345.3381511011
 20
138.0883127831
 10
345.3113505418
 20
138.1501679655
 10
345.2824476484
 20
138.2133433961
 10
345.2513932027
 20
138.2779134431
 10
345.2182364229
 20
138.3438202614
 10
345.1830090247
 20
138.4107965748
 10
345.1457189344
 20
138.4787815931
 10
345.1063582256
 20
138.5478252278
 10
345.0649348345
 20
138.6178108437
 10
345.0214821926
 20
138.6886689257
 10
344.9759668684
 20
138.7604482246
 10
344.9282965033
 20
138.8332073816
 10
344.8785311974
 20
138.9068757601
 10
344.8266108505
 20
138.9815063496
 10
344.7722628035
 20
139.0573533964
 10
344.7155371541
 20
139.1343943059
 10
344.6563838046
 20
139.2126490049
 10
344.5943798019
 20
139.2924529365
 10
344.5295441752
 20
139.3738364376
 10
344.4618578954
 20
139.4567831173
 10
344.3908409221
 20
139.541574675
 10
344.3163332419
 20
139.6283160549
 10
344.2384948682
 20
139.7169268598
 10
344.1573258011
 20
139.8074167256
  0
LINE
  5
316
100
AcDbEntity
  8
IMPORT_IGES
100
AcDbLine
 62
7
  6
CONTINUOUS
 10
365.4869875513
 20
136.274019598
 11
344.059782766
 21
136.274019598
  0
LINE
  5
317
100
AcDbEntity
  8
IMPORT_IGES
100
AcDbLine
 62
7
  6
CONTINUOUS
 10
157.1140963066
 20
139.8517310535
 11
150.9123043066
 21
139.8517310535
  0
LINE
  5
318
100
AcDbEntity
  8
IMPORT_IGES
100
AcDbLine
 62
7
  6
CONTINUOUS
 10
382.4869875513
 20
141.024019598
 11
375.4768854899
 21
141.024019598
  0
LINE
  5
319
100
AcDbEntity
  8
ASSI
100
AcDbLine
 62
7
  6
CONTINUOUS
 10
375.1768854899
 20
141.1240196013
 11
365.4869875513
 21
141.1240195988
  0
LINE
  5
31A
100
AcDbEntity
  8
IMPORT_IGES
100
AcDbLine
 62
7
  6
CONTINUOUS
 10
150.9123043066
 20
141.3619145535
 11
157.1140963066
 21
141.3619145535
  0
LINE
  5
31B
100
AcDbEntity
  8
IMPORT_IGES
100
AcDbLine
 62
7
  6
CONTINUOUS
 10
136.4109399234
 20
142.0991071991
 11
134.6246967234
 21
142.0991071991
  0
LWPOLYLINE
  5
31C
100
AcDbEntity
  8
IMPORT_IGES
100
AcDbPolyline
 62
7
  6
CONTINUOUS
 90
37
 70
0
 10
154.7386008111
 20
149.5233171825
 10
154.7876832159
 20
149.5165456184
 10
154.8349610953
 20
149.5094130342
 10
154.8804344494
 20
149.5019194299
 10
154.9240479608
 20
149.494044457
 10
154.9658569468
 20
149.485808464
 10
155.0060273598
 20
149.4772724967
 10
155.0445872311
 20
149.468466859
 10
155.0815085294
 20
149.4593612469
 10
155.1168731127
 20
149.4499257945
 10
155.1506755708
 20
149.440126898
 10
155.1829213139
 20
149.4299981612
 10
155.2137084308
 20
149.4196105293
 10
155.243026609
 20
149.4089587076
 10
155.2708861609
 20
149.3980479909
 10
155.2974161128
 20
149.3869652086
 10
155.3226290284
 20
149.3757302611
 10
155.3465123441
 20
149.3643232479
 10
155.3691573957
 20
149.3527712976
 10
155.3905718883
 20
149.3410659138
 10
155.4107481167
 20
149.3292155929
 10
155.4297543017
 20
149.3172729518
 10
155.4475923302
 20
149.3052260297
 10
155.4642603151
 20
149.2930867875
 10
155.4798208164
 20
149.2809437248
 10
155.4942464492
 20
149.2688139883
 10
155.5075645983
 20
149.2566804313
 10
155.5199199782
 20
149.2445801135
 10
155.5313056957
 20
149.2325324214
 10
155.5417286439
 20
149.2205179686
 10
155.5513542162
 20
149.2085156547
 10
155.5601939315
 20
149.196535658
 10
155.568236271
 20
149.1845678003
 10
155.5756120713
 20
149.1725604473
 10
155.5823649446
 20
149.1604963878
 10
155.5884512787
 20
149.1483928331
 10
155.5938710737
 20
149.1362497831
  0
LWPOLYLINE
  5
31D
100
AcDbEntity
  8
IMPORT_IGES
100
AcDbPolyline
 62
7
  6
CONTINUOUS
 90
5
 70
0
 10
196.6967340046
 20
156.8158563407
 10
196.7409762737
 20
156.6788040233
 10
196.785469365
 20
156.5380879962
 10
196.8302132785
 20
156.3937082594
 10
196.8750789662
 20
156.2456283923
  0
LINE
  5
31E
100
AcDbEntity
  8
IMPORT_IGES
100
AcDbLine
 62
7
  6
CONTINUOUS
 10
196.8750789662
 20
156.2456283923
 11
197.0124714426
 21
155.7797707394
  0
LINE
  5
31F
100
AcDbEntity
  8
IMPORT_IGES
100
AcDbLine
 62
7
  6
CONTINUOUS
 10
197.0124714426
 20
155.7797707394
 11
197.1074283221
 21
155.4514752928
  0
LINE
  5
320
100
AcDbEntity
  8
IMPORT_IGES
100
AcDbLine
 62
7
  6
CONTINUOUS
 10
197.7998416444
 20
156.256702006
 11
197.6897626324
 21
156.6692858416
  0
LWPOLYLINE
  5
321
100
AcDbEntity
  8
IMPORT_IGES
100
AcDbPolyline
 62
7
  6
CONTINUOUS
 90
19
 70
0
 10
197.6897626324
 20
156.6692858416
 10
197.6713942737
 20
156.739030785
 10
197.6523490482
 20
156.806770265
 10
197.632626956
 20
156.8725042817
 10
197.6124641375
 20
156.9363585828
 10
197.5916244523
 20
156.9982074205
 10
197.5693994787
 20
157.0576735521
 10
197.545671476
 20
157.1147949602
 10
197.520558185
 20
157.1695336622
 10
197.4937044066
 20
157.2213984665
 10
197.4649952146
 20
157.2704327393
 10
197.4345455352
 20
157.3165931144
 10
197.4023449486
 20
157.3592583019
 10
197.3680871367
 20
157.3983282032
 10
197.3320784175
 20
157.4339029169
 10
197.2952273251
 20
157.4656614487
 10
197.2578367042
 20
157.4934968002
 10
197.21960371
 20
157.5175159698
 10
197.1805283427
 20
157.5377189574
  0
LINE
  5
322
100
AcDbEntity
  8
IMPORT_IGES
100
AcDbLine
 62
7
  6
CONTINUOUS
 10
198.0108411014
 20
155.4514752928
 11
197.7998416444
 21
156.256702006
  0
LINE
  5
323
100
AcDbEntity
  8
IMPORT_IGES
100
AcDbLine
 62
7
  6
CONTINUOUS
 10
209.9161565232
 20
152.6514752928
 11
209.9161565232
 21
127.2514752928
  0
LWPOLYLINE
  5
324
100
AcDbEntity
  8
IMPORT_IGES
100
AcDbPolyline
 62
250
  6
CONTINUOUS
 90
37
 70
0
 10
170.1125782848
 20
115.3734771079
 10
170.0031977875
 20
115.2614954248
 10
169.8903609042
 20
115.1555878258
 10
169.7740676348
 20
115.0557630748
 10
169.6543014819
 20
114.9621082549
 10
169.5310789429
 20
114.8745434445
 10
169.4044495102
 20
114.7928225623
 10
169.274163693
 20
114.7167217035
 10
169.1404709822
 20
114.6464590162
 10
169.0041693431
 20
114.5824487604
 10
168.8654278791
 20
114.5246884981
 10
168.7240774869
 20
114.4731673071
 10
168.5804088218
 20
114.4282848128
 10
168.4340237326
 20
114.3900318364
 10
168.2853203705
 20
114.3584034115
 10
168.1357838442
 20
114.3338053255
 10
167.9856286564
 20
114.316359185
 10
167.8346403044
 20
114.3059342886
 10
167.6836603893
 20
114.3025595433
 10
167.5326818771
 20
114.3062600807
 10
167.3817118018
 20
114.3170108434
 10
167.2316128666
 20
114.3347677838
 10
167.0821697562
 20
114.3596660421
 10
166.9335977859
 20
114.3915796726
 10
166.7874056049
 20
114.4300745246
 10
166.6440030905
 20
114.4751501952
 10
166.5029803654
 20
114.5268211546
 10
166.3646164465
 20
114.5846753283
 10
166.2287398511
 20
114.6487226638
 10
166.0955220619
 20
114.7189663669
 10
165.9657565443
 20
114.7949822999
 10
165.8397022777
 20
114.8765578562
 10
165.7171002827
 20
114.9639111894
 10
165.5979670865
 20
115.0572615423
 10
165.4823081982
 20
115.1566798517
 10
165.3701181086
 20
115.2620879586
 10
165.2613968177
 20
115.3734771894
  0
LINE
  5
325
100
AcDbEntity
  8
IMPORT_IGES
100
AcDbLine
 62
7
  6
CONTINUOUS
 10
134.6246962079
 20
143.0171071991
 11
136.4109399234
 21
143.0171071991
  0
LINE
  5
326
100
AcDbEntity
  8
IMPORT_IGES
100
AcDbLine
 62
250
  6
CONTINUOUS
 10
365.4869875513
 20
143.274019598
 11
345.3822292227
 21
143.274019598
  0
LINE
  5
327
100
AcDbEntity
  8
IMPORT_IGES
100
AcDbLine
 62
7
  6
CONTINUOUS
 10
153.2418059944
 20
143.6144437306
 11
152.8451423954
 21
143.6144437306
  0
LINE
  5
328
100
AcDbEntity
  8
IMPORT_IGES
100
AcDbLine
 62
7
  6
CONTINUOUS
 10
154.7496484583
 20
143.9365086913
 11
153.2418059944
 21
143.9365086913
  0
LINE
  5
329
100
AcDbEntity
  8
IMPORT_IGES
100
AcDbLine
 62
7
  6
CONTINUOUS
 10
154.6825456809
 20
144.1505472723
 11
152.9549706484
 21
144.1505472722
  0
LINE
  5
32A
100
AcDbEntity
  8
ASSI
100
AcDbLine
 62
7
  6
CONTINUOUS
 10
365.4869875513
 20
144.9240195972
 11
375.1768854899
 21
144.9240195947
  0
LINE
  5
32B
100
AcDbEntity
  8
IMPORT_IGES
100
AcDbLine
 62
7
  6
CONTINUOUS
 10
382.4869875513
 20
145.024019598
 11
375.4768854899
 21
145.024019598
  0
LINE
  5
32C
100
AcDbEntity
  8
IMPORT_IGES
100
AcDbLine
 62
7
  6
CONTINUOUS
 10
324.4822292227
 20
145.524019598
 11
308.4822292227
 21
145.524019598
  0
LINE
  5
32D
100
AcDbEntity
  8
IMPORT_IGES
100
AcDbLine
 62
7
  6
CONTINUOUS
 10
324.4822292227
 20
146.824019598
 11
322.4822292227
 21
146.824019598
  0
LINE
  5
32E
100
AcDbEntity
  8
IMPORT_IGES
100
AcDbLine
 62
7
  6
CONTINUOUS
 10
320.4822292227
 20
146.824019598
 11
318.4822292227
 21
146.824019598
  0
LINE
  5
32F
100
AcDbEntity
  8
IMPORT_IGES
100
AcDbLine
 62
7
  6
CONTINUOUS
 10
316.4822292227
 20
146.824019598
 11
314.4822292227
 21
146.824019598
  0
LINE
  5
330
100
AcDbEntity
  8
IMPORT_IGES
100
AcDbLine
 62
7
  6
CONTINUOUS
 10
312.4822292227
 20
146.824019598
 11
310.4822292227
 21
146.824019598
  0
LINE
  5
331
100
AcDbEntity
  8
IMPORT_IGES
100
AcDbLine
 62
7
  6
CONTINUOUS
 10
154.7841059429
 20
147.4239440535
 11
153.6504733066
 21
147.4239440535
  0
LINE
  5
332
100
AcDbEntity
  8
IMPORT_IGES
100
AcDbLine
 62
7
  6
CONTINUOUS
 10
263.6604588374
 20
147.524019598
 11
278.1869875513
 21
147.524019598
  0
LINE
  5
333
100
AcDbEntity
  8
IMPORT_IGES
100
AcDbLine
 62
7
  6
CONTINUOUS
 10
156.2051078273
 20
147.8432092608
 11
155.7175775606
 21
147.8432092608
  0
LINE
  5
334
100
AcDbEntity
  8
IMPORT_IGES
100
AcDbLine
 62
7
  6
CONTINUOUS
 10
153.6504733066
 20
147.8520560535
 11
154.9615858066
 21
147.8520560535
  0
LINE
  5
335
100
AcDbEntity
  8
IMPORT_IGES
100
AcDbLine
 62
7
  6
CONTINUOUS
 10
156.0177748066
 20
148.0356815535
 11
155.7354883066
 21
148.0356815535
  0
LINE
  5
336
100
AcDbEntity
  8
IMPORT_IGES
100
AcDbLine
 62
7
  6
CONTINUOUS
 10
155.5721083066
 20
148.5895505535
 11
155.4787813066
 21
148.5895505535
  0
LINE
  5
337
100
AcDbEntity
  8
IMPORT_IGES
100
AcDbLine
 62
7
  6
CONTINUOUS
 10
155.7871276877
 20
148.5895690827
 11
155.9295823657
 21
148.5895690827
  0
LINE
  5
338
100
AcDbEntity
  8
IMPORT_IGES
100
AcDbLine
 62
7
  6
CONTINUOUS
 10
278.1869875513
 20
148.8740196014
 11
308.4822292227
 21
148.874019598
  0
LINE
  5
339
100
AcDbEntity
  8
IMPORT_IGES
100
AcDbLine
 62
7
  6
CONTINUOUS
 10
310.4822292227
 20
148.874019598
 11
312.4822292227
 21
148.874019598
  0
LINE
  5
33A
100
AcDbEntity
  8
IMPORT_IGES
100
AcDbLine
 62
7
  6
CONTINUOUS
 10
314.4822292227
 20
148.874019598
 11
316.4822292227
 21
148.874019598
  0
LINE
  5
33B
100
AcDbEntity
  8
IMPORT_IGES
100
AcDbLine
 62
7
  6
CONTINUOUS
 10
318.4822292227
 20
148.874019598
 11
320.4822292227
 21
148.874019598
  0
LINE
  5
33C
100
AcDbEntity
  8
IMPORT_IGES
100
AcDbLine
 62
7
  6
CONTINUOUS
 10
322.4822292227
 20
148.874019598
 11
324.4822292227
 21
148.874019598
  0
LINE
  5
33D
100
AcDbEntity
  8
IMPORT_IGES
100
AcDbLine
 62
7
  6
CONTINUOUS
 10
152.5452838066
 20
148.9133285535
 11
155.6022733066
 21
148.9133285535
  0
LINE
  5
33E
100
AcDbEntity
  8
IMPORT_IGES
100
AcDbLine
 62
7
  6
CONTINUOUS
 10
152.3296771064
 20
148.9221937823
 11
152.0718110906
 21
148.9221937823
  0
LINE
  5
33F
100
AcDbEntity
  8
IMPORT_IGES
100
AcDbLine
 62
7
  6
CONTINUOUS
 10
322.4822292227
 20
149.024019598
 11
320.4822292227
 21
149.024019598
  0
LINE
  5
340
100
AcDbEntity
  8
IMPORT_IGES
100
AcDbLine
 62
7
  6
CONTINUOUS
 10
318.4822292227
 20
149.024019598
 11
316.4822292227
 21
149.024019598
  0
LINE
  5
341
100
AcDbEntity
  8
IMPORT_IGES
100
AcDbLine
 62
7
  6
CONTINUOUS
 10
314.4822292227
 20
149.024019598
 11
312.4822292227
 21
149.024019598
  0
LINE
  5
342
100
AcDbEntity
  8
IMPORT_IGES
100
AcDbLine
 62
7
  6
CONTINUOUS
 10
310.4822292227
 20
149.024019598
 11
308.4822292227
 21
149.024019598
  0
LINE
  5
343
100
AcDbEntity
  8
IMPORT_IGES
100
AcDbLine
 62
7
  6
CONTINUOUS
 10
155.5938710737
 20
149.1362497831
 11
153.1064684432
 21
149.1362497831
  0
LINE
  5
344
100
AcDbEntity
  8
IMPORT_IGES
100
AcDbLine
 62
7
  6
CONTINUOUS
 10
152.0718110906
 20
149.1362497831
 11
152.298692509
 21
149.1362497831
  0
LINE
  5
345
100
AcDbEntity
  8
IMPORT_IGES
100
AcDbLine
 62
7
  6
CONTINUOUS
 10
153.6861860257
 20
149.3235313639
 11
154.738609521
 21
149.3235313639
  0
LINE
  5
346
100
AcDbEntity
  8
IMPORT_IGES
100
AcDbLine
 62
7
  6
CONTINUOUS
 10
152.7407001647
 20
149.707190991
 11
153.210775172
 21
149.707190991
  0
LINE
  5
347
100
AcDbEntity
  8
IMPORT_IGES
100
AcDbLine
 62
7
  6
CONTINUOUS
 10
153.6861860257
 20
149.8497697859
 11
154.738609521
 21
149.8497697859
  0
LINE
  5
348
100
AcDbEntity
  8
IMPORT_IGES
100
AcDbLine
 62
7
  6
CONTINUOUS
 10
382.9869875513
 20
150.524019598
 11
365.4869875513
 21
150.524019598
  0
LINE
  5
349
100
AcDbEntity
  8
IMPORT_IGES
100
AcDbLine
 62
7
  6
CONTINUOUS
 10
310.4822292227
 20
150.824019598
 11
312.4822292227
 21
150.824019598
  0
LINE
  5
34A
100
AcDbEntity
  8
IMPORT_IGES
100
AcDbLine
 62
7
  6
CONTINUOUS
 10
314.4822292227
 20
150.824019598
 11
316.4822292227
 21
150.824019598
  0
LINE
  5
34B
100
AcDbEntity
  8
IMPORT_IGES
100
AcDbLine
 62
7
  6
CONTINUOUS
 10
318.4822292227
 20
150.824019598
 11
320.4822292227
 21
150.824019598
  0
LINE
  5
34C
100
AcDbEntity
  8
IMPORT_IGES
100
AcDbLine
 62
7
  6
CONTINUOUS
 10
322.4822292227
 20
150.824019598
 11
324.4822292227
 21
150.824019598
  0
LINE
  5
34D
100
AcDbEntity
  8
ASSI
100
AcDbLine
 62
7
  6
CONTINUOUS
 10
352.9104375513
 20
151.4229017938
 11
353.6485295513
 21
151.4229017938
  0
LINE
  5
34E
100
AcDbEntity
  8
ASSI
100
AcDbLine
 62
7
  6
CONTINUOUS
 10
358.8923095513
 20
151.4470057938
 11
359.6344615513
 21
151.4470057938
  0
LINE
  5
34F
100
AcDbEntity
  8
ASSI
100
AcDbLine
 62
7
  6
CONTINUOUS
 10
353.6485295513
 20
152.0767557938
 11
356.1039825513
 21
152.0767557938
  0
LINE
  5
350
100
AcDbEntity
  8
ASSI
100
AcDbLine
 62
7
  6
CONTINUOUS
 10
357.0104155513
 20
152.0767557938
 11
358.8923095513
 21
152.0767557938
  0
LINE
  5
351
100
AcDbEntity
  8
ASSI
100
AcDbLine
 62
7
  6
CONTINUOUS
 10
358.8923095513
 20
152.8630567938
 11
357.0104155513
 21
152.8630567938
  0
LINE
  5
352
100
AcDbEntity
  8
ASSI
100
AcDbLine
 62
7
  6
CONTINUOUS
 10
356.0957285513
 20
152.8630567938
 11
353.6485295513
 21
152.8630567938
  0
LINE
  5
353
100
AcDbEntity
  8
IMPORT_IGES
100
AcDbLine
 62
7
  6
CONTINUOUS
 10
169.2161565232
 20
152.9514752928
 11
209.6161565232
 21
152.9514752928
  0
LINE
  5
354
100
AcDbEntity
  8
ASSI
100
AcDbLine
 62
7
  6
CONTINUOUS
 10
359.6344615513
 20
153.4930617938
 11
358.8923095513
 21
153.4930617938
  0
LINE
  5
355
100
AcDbEntity
  8
ASSI
100
AcDbLine
 62
7
  6
CONTINUOUS
 10
353.6485295513
 20
153.5171657938
 11
352.9104375513
 21
153.5171657938
  0
LWPOLYLINE
  5
356
100
AcDbEntity
  8
IMPORT_IGES
100
AcDbPolyline
 62
7
  6
CONTINUOUS
 90
19
 70
0
 10
197.0515533804
 20
159.8509858702
 10
196.9611961597
 20
159.8812543813
 10
196.8657558841
 20
159.9081012444
 10
196.7652325537
 20
159.9315264597
 10
196.6593933009
 20
159.951493525
 10
196.5484709934
 20
159.9680389423
 10
196.433164233
 20
159.981272218
 10
196.3135769093
 20
159.9911735534
 10
196.1896051329
 20
159.997762747
 10
196.0616358376
 20
160.0012087014
 10
195.9297775074
 20
160.0014832446
 10
195.7939216584
 20
159.9986145486
 10
195.6541297728
 20
159.9928560307
 10
195.5103898582
 20
159.9842835485
 10
195.362713907
 20
159.9728212445
 10
195.2111993785
 20
159.9584949635
 10
195.0558787591
 20
159.9413133205
 10
194.8967195624
 20
159.9212677004
 10
194.7337217884
 20
159.8983581033
  0
LINE
  5
357
100
AcDbEntity
  8
IMPORT_IGES
100
AcDbLine
 62
250
  6
CONTINUOUS
 10
256.7278495958
 20
115.6713488939
 11
257.129535325
 21
115.3735778264
  0
LWPOLYLINE
  5
358
100
AcDbEntity
  8
IMPORT_IGES
100
AcDbPolyline
 62
7
  6
CONTINUOUS
 90
10
 70
0
 10
153.1064684432
 20
149.461829213
 10
153.1652686617
 20
149.4750672745
 10
153.2254998038
 20
149.4873006091
 10
153.2871618696
 20
149.4985292167
 10
153.3502918084
 20
149.5087150794
 10
153.4148526708
 20
149.5178962151
 10
153.4807336086
 20
149.5261866774
 10
153.5478976723
 20
149.5336244839
 10
153.6163818113
 20
149.540171617
 10
153.6861860257
 20
149.5458280766
  0
LINE
  5
359
100
AcDbEntity
  8
IMPORT_IGES
100
AcDbLine
 62
7
  6
CONTINUOUS
 10
195.7613683177
 20
159.2004771954
 11
195.8436938354
 21
159.2130748631
  0
LWPOLYLINE
  5
35A
100
AcDbEntity
  8
IMPORT_IGES
100
AcDbPolyline
 62
7
  6
CONTINUOUS
 90
3
 70
0
 10
195.6380118313
 20
159.1844005157
 10
195.6791191139
 20
159.1896203572
 10
195.7613683177
 20
159.2004771954
  0
LWPOLYLINE
  5
35B
100
AcDbEntity
  8
IMPORT_IGES
100
AcDbPolyline
 62
7
  6
CONTINUOUS
 90
10
 70
0
 10
195.8436938354
 20
159.2130748631
 10
195.8848287202
 20
159.2178053404
 10
195.925914538
 20
159.219595153
 10
195.9669667086
 20
159.2197470831
 10
196.0079862978
 20
159.2203925437
 10
196.049007847
 20
159.2229729368
 10
196.0899968149
 20
159.2260468603
 10
196.1308506431
 20
159.2274215212
 10
196.1715029522
 20
159.2257997756
 10
196.2524987316
 20
159.2191571347
  0
LWPOLYLINE
  5
35C
100
AcDbEntity
  8
IMPORT_IGES
100
AcDbPolyline
 62
7
  6
CONTINUOUS
 90
10
 70
0
 10
153.6861860257
 20
149.7650044457
 10
153.6299336406
 20
149.7610545763
 10
153.5745252731
 20
149.7564945493
 10
153.5199609232
 20
149.7513243646
 10
153.4662229621
 20
149.7455550948
 10
153.4133290186
 20
149.7391756673
 10
153.3613319791
 20
149.732152865
 10
153.3102494727
 20
149.7244756152
 10
153.2600638703
 20
149.7161549906
 10
153.210775172
 20
149.707190991
  0
LINE
  5
35D
100
AcDbEntity
  8
IMPORT_IGES
100
AcDbLine
 62
7
  6
CONTINUOUS
 10
320.4822292227
 20
154.224019598
 11
318.4822292227
 21
154.224019598
  0
LINE
  5
35E
100
AcDbEntity
  8
IMPORT_IGES
100
AcDbLine
 62
7
  6
CONTINUOUS
 10
316.4822292227
 20
154.224019598
 11
314.4822292227
 21
154.224019598
  0
LINE
  5
35F
100
AcDbEntity
  8
IMPORT_IGES
100
AcDbLine
 62
7
  6
CONTINUOUS
 10
312.4822292227
 20
154.224019598
 11
310.4822292227
 21
154.224019598
  0
LINE
  5
360
100
AcDbEntity
  8
IMPORT_IGES
100
AcDbLine
 62
7
  6
CONTINUOUS
 10
322.4822292227
 20
154.224019598
 11
324.4822292227
 21
154.224019598
  0
LINE
  5
361
100
AcDbEntity
  8
IMPORT_IGES
100
AcDbLine
 62
7
  6
CONTINUOUS
 10
382.9869875513
 20
154.524019598
 11
365.4869875513
 21
154.524019598
  0
LINE
  5
362
100
AcDbEntity
  8
IMPORT_IGES
100
AcDbLine
 62
7
  6
CONTINUOUS
 10
194.4579235232
 20
155.4514747938
 11
193.4680325232
 21
155.4514747938
  0
LINE
  5
363
100
AcDbEntity
  8
IMPORT_IGES
100
AcDbLine
 62
7
  6
CONTINUOUS
 10
191.6865135232
 20
155.4514747938
 11
190.7574905232
 21
155.4514747938
  0
LINE
  5
364
100
AcDbEntity
  8
IMPORT_IGES
100
AcDbLine
 62
7
  6
CONTINUOUS
 10
190.6100095232
 20
155.4514747938
 11
189.6912105232
 21
155.4514747938
  0
LINE
  5
365
100
AcDbEntity
  8
IMPORT_IGES
100
AcDbLine
 62
7
  6
CONTINUOUS
 10
188.3815235232
 20
155.4514747938
 11
188.2497995232
 21
155.4514747938
  0
LINE
  5
366
100
AcDbEntity
  8
IMPORT_IGES
100
AcDbLine
 62
7
  6
CONTINUOUS
 10
186.9453085232
 20
155.4514747938
 11
186.0467875232
 21
155.4514747938
  0
LINE
  5
367
100
AcDbEntity
  8
IMPORT_IGES
100
AcDbLine
 62
7
  6
CONTINUOUS
 10
185.5411805232
 20
155.4514747938
 11
184.6019685232
 21
155.4514747938
  0
LINE
  5
368
100
AcDbEntity
  8
IMPORT_IGES
100
AcDbLine
 62
7
  6
CONTINUOUS
 10
182.8071205232
 20
155.4514747938
 11
181.9794395232
 21
155.4514747938
  0
LINE
  5
369
100
AcDbEntity
  8
IMPORT_IGES
100
AcDbLine
 62
7
  6
CONTINUOUS
 10
198.0108411014
 20
155.4514752928
 11
197.1074283221
 21
155.4514752928
  0
LINE
  5
36A
100
AcDbEntity
  8
IMPORT_IGES
100
AcDbLine
 62
7
  6
CONTINUOUS
 10
195.6691546883
 20
155.4514752928
 11
194.7337217884
 21
155.4514752928
  0
LINE
  5
36B
100
AcDbEntity
  8
IMPORT_IGES
100
AcDbLine
 62
7
  6
CONTINUOUS
 10
322.4822292227
 20
156.024019598
 11
320.4822292227
 21
156.024019598
  0
LINE
  5
36C
100
AcDbEntity
  8
IMPORT_IGES
100
AcDbLine
 62
7
  6
CONTINUOUS
 10
318.4822292227
 20
156.024019598
 11
316.4822292227
 21
156.024019598
  0
LINE
  5
36D
100
AcDbEntity
  8
IMPORT_IGES
100
AcDbLine
 62
7
  6
CONTINUOUS
 10
314.4822292227
 20
156.024019598
 11
312.4822292227
 21
156.024019598
  0
LINE
  5
36E
100
AcDbEntity
  8
IMPORT_IGES
100
AcDbLine
 62
7
  6
CONTINUOUS
 10
310.4822292227
 20
156.024019598
 11
308.4822292227
 21
156.024019598
  0
LINE
  5
36F
100
AcDbEntity
  8
IMPORT_IGES
100
AcDbLine
 62
7
  6
CONTINUOUS
 10
308.4822292227
 20
156.174019598
 11
278.1869875513
 21
156.1740195945
  0
LINE
  5
370
100
AcDbEntity
  8
IMPORT_IGES
100
AcDbLine
 62
7
  6
CONTINUOUS
 10
310.4822292227
 20
156.174019598
 11
312.4822292227
 21
156.174019598
  0
LINE
  5
371
100
AcDbEntity
  8
IMPORT_IGES
100
AcDbLine
 62
7
  6
CONTINUOUS
 10
314.4822292227
 20
156.174019598
 11
316.4822292227
 21
156.174019598
  0
LINE
  5
372
100
AcDbEntity
  8
IMPORT_IGES
100
AcDbLine
 62
7
  6
CONTINUOUS
 10
318.4822292227
 20
156.174019598
 11
320.4822292227
 21
156.174019598
  0
LINE
  5
373
100
AcDbEntity
  8
IMPORT_IGES
100
AcDbLine
 62
7
  6
CONTINUOUS
 10
322.4822292227
 20
156.174019598
 11
324.4822292227
 21
156.174019598
  0
LINE
  5
374
100
AcDbEntity
  8
IMPORT_IGES
100
AcDbLine
 62
7
  6
CONTINUOUS
 10
193.2247275232
 20
156.3497257938
 11
191.9456765232
 21
156.3497257938
  0
LINE
  5
375
100
AcDbEntity
  8
IMPORT_IGES
100
AcDbLine
 62
7
  6
CONTINUOUS
 10
193.0370265232
 20
157.0447887938
 11
192.1377975232
 21
157.0447887938
  0
LINE
  5
376
100
AcDbEntity
  8
IMPORT_IGES
100
AcDbLine
 62
7
  6
CONTINUOUS
 10
196.1727377221
 20
157.2123119955
 11
195.6691546883
 21
157.2123119955
  0
LINE
  5
377
100
AcDbEntity
  8
IMPORT_IGES
100
AcDbLine
 62
7
  6
CONTINUOUS
 10
263.6604588374
 20
157.524019598
 11
278.1869875513
 21
157.524019598
  0
LINE
  5
378
100
AcDbEntity
  8
IMPORT_IGES
100
AcDbLine
 62
7
  6
CONTINUOUS
 10
196.1747621766
 20
157.9492133998
 11
195.6380118313
 21
157.9492133998
  0
LINE
  5
379
100
AcDbEntity
  8
IMPORT_IGES
100
AcDbLine
 62
7
  6
CONTINUOUS
 10
324.4822292227
 20
158.224019598
 11
322.4822292227
 21
158.224019598
  0
LINE
  5
37A
100
AcDbEntity
  8
IMPORT_IGES
100
AcDbLine
 62
7
  6
CONTINUOUS
 10
310.4822292227
 20
158.224019598
 11
312.4822292227
 21
158.224019598
  0
LINE
  5
37B
100
AcDbEntity
  8
IMPORT_IGES
100
AcDbLine
 62
7
  6
CONTINUOUS
 10
314.4822292227
 20
158.224019598
 11
316.4822292227
 21
158.224019598
  0
LINE
  5
37C
100
AcDbEntity
  8
IMPORT_IGES
100
AcDbLine
 62
7
  6
CONTINUOUS
 10
318.4822292227
 20
158.224019598
 11
320.4822292227
 21
158.224019598
  0
LINE
  5
37D
100
AcDbEntity
  8
IMPORT_IGES
100
AcDbLine
 62
7
  6
CONTINUOUS
 10
324.4822292227
 20
159.524019598
 11
308.4822292227
 21
159.524019598
  0
LINE
  5
37E
100
AcDbEntity
  8
IMPORT_IGES
100
AcDbLine
 62
7
  6
CONTINUOUS
 10
180.5530255232
 20
159.9509267938
 11
181.5733005232
 21
159.9509267938
  0
LINE
  5
37F
100
AcDbEntity
  8
IMPORT_IGES
100
AcDbLine
 62
7
  6
CONTINUOUS
 10
183.3148545232
 20
159.9509267938
 11
184.2534245232
 21
159.9509267938
  0
LINE
  5
380
100
AcDbEntity
  8
IMPORT_IGES
100
AcDbLine
 62
7
  6
CONTINUOUS
 10
186.4530625232
 20
159.9509267938
 11
187.3914975232
 21
159.9509267938
  0
LINE
  5
381
100
AcDbEntity
  8
IMPORT_IGES
100
AcDbLine
 62
7
  6
CONTINUOUS
 10
189.2600015232
 20
159.9509267938
 11
190.1892605232
 21
159.9509267938
  0
LINE
  5
382
100
AcDbEntity
  8
IMPORT_IGES
100
AcDbLine
 62
7
  6
CONTINUOUS
 10
192.1688055232
 20
159.9509267938
 11
193.0773805232
 21
159.9509267938
  0
LINE
  5
383
100
AcDbEntity
  8
IMPORT_IGES
100
AcDbLine
 62
7
  6
CONTINUOUS
 10
184.6019685232
 20
159.9511967938
 11
185.5411805232
 21
159.9511967938
  0
LINE
  5
384
100
AcDbEntity
  8
IMPORT_IGES
100
AcDbLine
 62
7
  6
CONTINUOUS
 10
375.4768854899
 20
160.024019598
 11
382.4869875513
 21
160.024019598
  0
LINE
  5
385
100
AcDbEntity
  8
ASSI
100
AcDbLine
 62
7
  6
CONTINUOUS
 10
365.4869875513
 20
160.1240195988
 11
375.1768854899
 21
160.1240196013
  0
LINE
  5
386
100
AcDbEntity
  8
IMPORT_IGES
100
AcDbLine
 62
250
  6
CONTINUOUS
 10
345.3822292227
 20
161.774019598
 11
365.4869875513
 21
161.774019598
  0
LINE
  5
387
100
AcDbEntity
  8
ASSI
100
AcDbLine
 62
7
  6
CONTINUOUS
 10
375.1768854899
 20
163.9240195947
 11
365.4869875513
 21
163.9240195972
  0
LINE
  5
388
100
AcDbEntity
  8
IMPORT_IGES
100
AcDbLine
 62
7
  6
CONTINUOUS
 10
375.4768854899
 20
164.024019598
 11
382.4869875513
 21
164.024019598
  0
LWPOLYLINE
  5
389
100
AcDbEntity
  8
IMPORT_IGES
100
AcDbPolyline
 62
7
  6
CONTINUOUS
 90
19
 70
0
 10
196.1727377221
 20
157.2123119955
 10
196.2121972819
 20
157.2107006782
 10
196.2505518566
 20
157.2066433965
 10
196.2878014462
 20
157.2001401504
 10
196.3239800103
 20
157.1911618047
 10
196.3590535893
 20
157.1797374947
 10
196.3929203042
 20
157.1659546264
 10
196.4255660075
 20
157.1498357551
 10
196.4570048466
 20
157.1313583256
 10
196.4871773849
 20
157.110542078
 10
196.5161144623
 20
157.0874105318
 10
196.5437852389
 20
157.0619401676
 10
196.570037758
 20
157.0340801673
 10
196.5948484618
 20
157.0038424743
 10
196.6182409083
 20
156.9712151451
 10
196.6401338141
 20
156.9361115319
 10
196.6605000849
 20
156.8985027522
 10
196.6793668151
 20
156.8584176884
 10
196.6967340046
 20
156.8158563407
  0
LINE
  5
38A
100
AcDbEntity
  8
IMPORT_IGES
100
AcDbLine
 62
7
  6
CONTINUOUS
 10
196.2524987316
 20
159.2191571347
 11
196.3737997857
 21
159.2108871275
  0
LWPOLYLINE
  5
38B
100
AcDbEntity
  8
IMPORT_IGES
100
AcDbPolyline
 62
7
  6
CONTINUOUS
 90
22
 70
0
 10
196.3737997857
 20
159.2108871275
 10
196.4173375967
 20
159.2042238623
 10
196.4596780268
 20
159.1950212206
 10
196.500821076
 20
159.1832792023
 10
196.5409694713
 20
159.1688976919
 10
196.5799204856
 20
159.151976805
 10
196.6170659381
 20
159.1328168882
 10
196.6523514142
 20
159.1114421942
 10
196.6858313283
 20
159.0878284703
 10
196.7170607433
 20
159.0622033055
 10
196.745945066
 20
159.0344767142
 10
196.7725788896
 20
159.0047386821
 10
196.7968010568
 20
158.9734867551
 10
196.8185671342
 20
158.9406705846
 10
196.8379215551
 20
158.9063405193
 10
196.8548364623
 20
158.871145152
 10
196.8693284436
 20
158.8351033686
 10
196.8813809111
 20
158.7981962832
 10
196.890916243
 20
158.7610158313
 10
196.8979085656
 20
158.7237593245
 10
196.9023837526
 20
158.6862294512
 10
196.9043418041
 20
158.6484262113
  0
LINE
  5
38C
100
AcDbEntity
  8
IMPORT_IGES
100
AcDbLine
 62
7
  6
CONTINUOUS
 10
171.0425612477
 20
166.474019598
 11
172.1314138548
 21
166.474019598
  0
LINE
  5
38D
100
AcDbEntity
  8
IMPORT_IGES
100
AcDbLine
 62
7
  6
CONTINUOUS
 10
171.0425612477
 20
167.574019598
 11
172.1314138548
 21
167.574019598
  0
LINE
  5
38E
100
AcDbEntity
  8
IMPORT_IGES
100
AcDbLine
 62
7
  6
CONTINUOUS
 10
365.4869875513
 20
168.774019598
 11
344.059782766
 21
168.774019598
  0
LWPOLYLINE
  5
38F
100
AcDbEntity
  8
IMPORT_IGES
100
AcDbPolyline
 62
7
  6
CONTINUOUS
 90
79
 70
0
 10
344.059509896
 20
168.7738871482
 10
344.1402384089
 20
168.7723811191
 10
344.2181106326
 20
168.769242139
 10
344.2931265669
 20
168.7645269497
 10
344.3652009642
 20
168.7583016652
 10
344.4344190722
 20
168.750616909
 10
344.5010366338
 20
168.7414864438
 10
344.5650596562
 20
168.7309359074
 10
344.6264821322
 20
168.7190095696
 10
344.6855417831
 20
168.7057236934
 10
344.7422495588
 20
168.6911081339
 10
344.7965945093
 20
168.6751932551
 10
344.8487815068
 20
168.6579840994
 10
344.8988410811
 20
168.6395011895
 10
344.9467427022
 20
168.6197722943
 10
344.9925996523
 20
168.5988043657
 10
345.0364255349
 20
168.5766161991
 10
345.0782067465
 20
168.5532314499
 10
345.1180157585
 20
168.5286593588
 10
345.1558714789
 20
168.5029056201
 10
345.1917549997
 20
168.476002627
 10
345.2256820682
 20
168.4480020403
 10
345.2576513634
 20
168.4189190579
 10
345.2876642063
 20
168.3887856042
 10
345.3157403078
 20
168.3576897179
 10
345.3418494636
 20
168.3256930369
 10
345.366021878
 20
168.2927975637
 10
345.3883678756
 20
168.2590060595
 10
345.4088835514
 20
168.2243718913
 10
345.4275728103
 20
168.188898076
 10
345.4445576909
 20
168.1524991946
 10
345.4598630426
 20
168.1151653165
 10
345.4734640159
 20
168.0769397155
 10
345.4854081015
 20
168.0378043554
 10
345.4957026249
 20
167.9977433739
 10
345.5043402604
 20
167.9568006176
 10
345.5113465222
 20
167.9150489857
 10
345.5167155599
 20
167.8725420814
 10
345.5204532239
 20
167.829265383
 10
345.5226025784
 20
167.785190593
 10
345.5231734297
 20
167.7403509455
 10
345.5221559716
 20
167.6947452143
 10
345.51956385
 20
167.6482843675
 10
345.5154122596
 20
167.6009825498
 10
345.5096860056
 20
167.5528451924
 10
345.5023531503
 20
167.5037576534
 10
345.4934289662
 20
167.4537202187
 10
345.4828981809
 20
167.4027395027
 10
345.4706830389
 20
167.3506980112
 10
345.4567940201
 20
167.2975813008
 10
345.4412206448
 20
167.2433998325
 10
345.4238537178
 20
167.1880637705
 10
345.404698428
 20
167.1315547797
 10
345.3837495866
 20
167.0738808853
 10
345.3608824312
 20
167.0149859391
 10
345.3360896232
 20
166.9548379437
 10
345.3093785012
 20
166.8934559875
 10
345.2806463198
 20
166.8308599418
 10
345.2498795081
 20
166.7670277524
 10
345.2170916368
 20
166.7019734229
 10
345.1822206734
 20
166.6357757911
 10
345.1452624772
 20
166.5684421932
 10
345.1062211889
 20
166.4999667996
 10
345.0650471967
 20
166.4304148275
 10
345.0217455006
 20
166.3598055013
 10
344.9763111008
 20
166.2881282944
 10
344.928679386
 20
166.2154073508
 10
344.8789135506
 20
166.1417265068
 10
344.8269504003
 20
166.0670155048
 10
344.7725357407
 20
165.99106164
 10
344.7157140953
 20
165.9138858041
 10
344.6564409407
 20
165.8354683265
 10
344.5943285113
 20
165.7555210428
 10
344.5293930274
 20
165.674017102
 10
344.4616182689
 20
165.5909708638
 10
344.3905678096
 20
165.5061421405
 10
344.3160961742
 20
165.4194414997
 10
344.238348838
 20
165.3309375907
 10
344.1573258011
 20
165.2406224703
  0
LINE
  5
390
100
AcDbEntity
  8
IMPORT_IGES
100
AcDbLine
 62
7
  6
CONTINUOUS
 10
263.5051222772
 20
197.8598429761
 11
263.4986262521
 21
197.9494635626
  0
LINE
  5
391
100
AcDbEntity
  8
IMPORT_IGES
100
AcDbLine
 62
250
  6
CONTINUOUS
 10
262.4926987424
 20
198.9245343782
 11
262.5003465905
 21
198.8115434641
  0
LINE
  5
392
100
AcDbEntity
  8
IMPORT_IGES
100
AcDbLine
 62
7
  6
CONTINUOUS
 10
263.5115819442
 20
197.7631518164
 11
263.5051222772
 21
197.8598429761
  0
LINE
  5
393
100
AcDbEntity
  8
IMPORT_IGES
100
AcDbLine
 62
7
  6
CONTINUOUS
 10
263.5180155531
 20
197.6590173627
 11
263.5115819442
 21
197.7631518164
  0
LINE
  5
394
100
AcDbEntity
  8
IMPORT_IGES
100
AcDbLine
 62
250
  6
CONTINUOUS
 10
262.5003465905
 20
198.8115434641
 11
262.5078830693
 21
198.686287466
  0
LINE
  5
395
100
AcDbEntity
  8
IMPORT_IGES
100
AcDbLine
 62
7
  6
CONTINUOUS
 10
263.5265604399
 20
197.5080106915
 11
263.5180155531
 21
197.6590173627
  0
LINE
  5
396
100
AcDbEntity
  8
IMPORT_IGES
100
AcDbLine
 62
250
  6
CONTINUOUS
 10
262.5078830693
 20
198.686287466
 11
262.5153072643
 21
198.5489293234
  0
LINE
  5
397
100
AcDbEntity
  8
IMPORT_IGES
100
AcDbLine
 62
7
  6
CONTINUOUS
 10
263.5350663857
 20
197.3424414519
 11
263.5265604399
 21
197.5080106915
  0
LINE
  5
398
100
AcDbEntity
  8
IMPORT_IGES
100
AcDbLine
 62
250
  6
CONTINUOUS
 10
262.5153072643
 20
198.5489293234
 11
262.5226172556
 21
198.3996479458
  0
LINE
  5
399
100
AcDbEntity
  8
IMPORT_IGES
100
AcDbLine
 62
7
  6
CONTINUOUS
 10
263.5456291614
 20
197.1139955339
 11
263.5350663857
 21
197.3424414519
  0
LINE
  5
39A
100
AcDbEntity
  8
IMPORT_IGES
100
AcDbLine
 62
250
  6
CONTINUOUS
 10
262.5226172556
 20
198.3996479458
 11
262.5333566113
 21
198.1538005941
  0
LINE
  5
39B
100
AcDbEntity
  8
IMPORT_IGES
100
AcDbLine
 62
7
  6
CONTINUOUS
 10
263.5560941467
 20
196.8603161112
 11
263.5456291614
 21
197.1139955339
  0
LINE
  5
39C
100
AcDbEntity
  8
IMPORT_IGES
100
AcDbLine
 62
250
  6
CONTINUOUS
 10
262.5333566113
 20
198.1538005941
 11
262.5437889404
 21
197.8822888517
  0
LINE
  5
39D
100
AcDbEntity
  8
IMPORT_IGES
100
AcDbLine
 62
7
  6
CONTINUOUS
 10
263.5684913201
 20
196.5200503776
 11
263.5560941467
 21
196.8603161112
  0
LINE
  5
39E
100
AcDbEntity
  8
IMPORT_IGES
100
AcDbLine
 62
250
  6
CONTINUOUS
 10
262.5437889404
 20
197.8822888517
 11
262.5571858873
 21
197.4819814311
  0
LINE
  5
39F
100
AcDbEntity
  8
IMPORT_IGES
100
AcDbLine
 62
7
  6
CONTINUOUS
 10
263.5826496833
 20
196.069464649
 11
263.5684913201
 21
196.5200503776
  0
LINE
  5
3A0
100
AcDbEntity
  8
IMPORT_IGES
100
AcDbLine
 62
250
  6
CONTINUOUS
 10
262.5571858873
 20
197.4819814311
 11
262.5730018278
 21
196.928940819
  0
LINE
  5
3A1
100
AcDbEntity
  8
IMPORT_IGES
100
AcDbLine
 62
7
  6
CONTINUOUS
 10
263.5963346591
 20
195.5559131135
 11
263.5826496833
 21
196.069464649
  0
LINE
  5
3A2
100
AcDbEntity
  8
IMPORT_IGES
100
AcDbLine
 62
250
  6
CONTINUOUS
 10
262.5730018278
 20
196.928940819
 11
262.5904710874
 21
196.2010097168
  0
LINE
  5
3A3
100
AcDbEntity
  8
IMPORT_IGES
100
AcDbLine
 62
7
  6
CONTINUOUS
 10
263.6111604323
 20
194.8863205292
 11
263.5963346591
 21
195.5559131135
  0
LINE
  5
3A4
100
AcDbEntity
  8
IMPORT_IGES
100
AcDbLine
 62
250
  6
CONTINUOUS
 10
262.5904710874
 20
196.2010097168
 11
262.6093179971
 21
195.2432157328
  0
LINE
  5
3A5
100
AcDbEntity
  8
IMPORT_IGES
100
AcDbLine
 62
7
  6
CONTINUOUS
 10
263.6264653274
 20
194.0223662614
 11
263.6111604323
 21
194.8863205292
  0
LINE
  5
3A6
100
AcDbEntity
  8
IMPORT_IGES
100
AcDbLine
 62
250
  6
CONTINUOUS
 10
262.6093179971
 20
195.2432157328
 11
262.6240080437
 21
194.3355601054
  0
LINE
  5
3A7
100
AcDbEntity
  8
IMPORT_IGES
100
AcDbLine
 62
250
  6
CONTINUOUS
 10
262.6240080437
 20
194.3355601054
 11
262.6365310919
 21
193.3695975088
  0
LINE
  5
3A8
100
AcDbEntity
  8
IMPORT_IGES
100
AcDbLine
 62
7
  6
CONTINUOUS
 10
263.6411619555
 20
192.9190734448
 11
263.6264653274
 21
194.0223662614
  0
LINE
  5
3A9
100
AcDbEntity
  8
IMPORT_IGES
100
AcDbLine
 62
250
  6
CONTINUOUS
 10
262.6365310919
 20
193.3695975088
 11
262.6482183767
 21
192.1844676291
  0
LINE
  5
3AA
100
AcDbEntity
  8
IMPORT_IGES
100
AcDbLine
 62
7
  6
CONTINUOUS
 10
263.6534668788
 20
191.5211427874
 11
263.6411619555
 21
192.9190734448
  0
LINE
  5
3AB
100
AcDbEntity
  8
IMPORT_IGES
100
AcDbLine
 62
250
  6
CONTINUOUS
 10
262.6482183767
 20
192.1844676291
 11
262.6554945253
 21
191.1325794915
  0
LINE
  5
3AC
100
AcDbEntity
  8
IMPORT_IGES
100
AcDbLine
 62
250
  6
CONTINUOUS
 10
262.6554945253
 20
191.1325794915
 11
262.6595660016
 21
190.0714374381
  0
LINE
  5
3AD
100
AcDbEntity
  8
IMPORT_IGES
100
AcDbLine
 62
7
  6
CONTINUOUS
 10
263.6596969956
 20
190.0783182915
 11
263.6534668788
 21
191.5211427874
  0
LINE
  5
3AE
100
AcDbEntity
  8
IMPORT_IGES
100
AcDbLine
 62
7
  6
CONTINUOUS
 10
263.6604588373
 20
115.373376252
 11
263.6596969956
 21
190.0783182915
  0
LINE
  5
3AF
100
AcDbEntity
  8
IMPORT_IGES
100
AcDbLine
 62
250
  6
CONTINUOUS
 10
262.6594813918
 20
114.4805740969
 11
262.6595660016
 21
190.0714374381
  0
LINE
  5
3B0
100
AcDbEntity
  8
IMPORT_IGES
100
AcDbLine
 62
7
  6
CONTINUOUS
 10
263.6508839472
 20
113.7909477615
 11
263.654137477
 21
115.3734758321
  0
LINE
  5
3B1
100
AcDbEntity
  8
IMPORT_IGES
100
AcDbLine
 62
250
  6
CONTINUOUS
 10
262.6520003783
 20
112.7232456745
 11
262.6594813918
 21
114.4805740969
  0
LINE
  5
3B2
100
AcDbEntity
  8
IMPORT_IGES
100
AcDbLine
 62
7
  6
CONTINUOUS
 10
263.6413631322
 20
112.3255054949
 11
263.6508839472
 21
113.7909477615
  0
LINE
  5
3B3
100
AcDbEntity
  8
IMPORT_IGES
100
AcDbLine
 62
250
  6
CONTINUOUS
 10
262.6372713114
 20
111.0503860699
 11
262.6520003783
 21
112.7232456745
  0
LINE
  5
3B4
100
AcDbEntity
  8
IMPORT_IGES
100
AcDbLine
 62
7
  6
CONTINUOUS
 10
263.6273562537
 20
111.0564855921
 11
263.6413631322
 21
112.3255054949
  0
LINE
  5
3B5
100
AcDbEntity
  8
IMPORT_IGES
100
AcDbLine
 62
250
  6
CONTINUOUS
 10
262.6205769302
 20
109.8089169983
 11
262.6372713114
 21
111.0503860699
  0
LINE
  5
3B6
100
AcDbEntity
  8
IMPORT_IGES
100
AcDbLine
 62
7
  6
CONTINUOUS
 10
263.6118733497
 20
110.0650074529
 11
263.6273562537
 21
111.0564855921
  0
LINE
  5
3B7
100
AcDbEntity
  8
IMPORT_IGES
100
AcDbLine
 62
250
  6
CONTINUOUS
 10
262.6026736762
 20
108.8150940642
 11
262.6205769302
 21
109.8089169983
  0
LINE
  5
3B8
100
AcDbEntity
  8
IMPORT_IGES
100
AcDbLine
 62
7
  6
CONTINUOUS
 10
263.5963612019
 20
109.2957619507
 11
263.6118733497
 21
110.0650074529
  0
LINE
  5
3B9
100
AcDbEntity
  8
IMPORT_IGES
100
AcDbLine
 62
250
  6
CONTINUOUS
 10
262.5850998123
 20
108.0443926292
 11
262.6026736762
 21
108.8150940642
  0
LINE
  5
3BA
100
AcDbEntity
  8
IMPORT_IGES
100
AcDbLine
 62
7
  6
CONTINUOUS
 10
263.5816727837
 20
108.7024526285
 11
263.5963612019
 21
109.2957619507
  0
LINE
  5
3BB
100
AcDbEntity
  8
IMPORT_IGES
100
AcDbLine
 62
250
  6
CONTINUOUS
 10
262.5690366403
 20
107.4661865535
 11
262.5850998123
 21
108.0443926292
  0
LINE
  5
3BC
100
AcDbEntity
  8
IMPORT_IGES
100
AcDbLine
 62
7
  6
CONTINUOUS
 10
263.5683406346
 20
108.2489327075
 11
263.5816727837
 21
108.7024526285
  0
LINE
  5
3BD
100
AcDbEntity
  8
IMPORT_IGES
100
AcDbLine
 62
250
  6
CONTINUOUS
 10
262.5553503649
 20
107.0489011181
 11
262.5690366403
 21
107.4661865535
  0
LINE
  5
3BE
100
AcDbEntity
  8
IMPORT_IGES
100
AcDbLine
 62
7
  6
CONTINUOUS
 10
263.5566932547
 20
107.9066099398
 11
263.5683406346
 21
108.2489327075
  0
LINE
  5
3BF
100
AcDbEntity
  8
IMPORT_IGES
100
AcDbLine
 62
250
  6
CONTINUOUS
 10
262.5446432405
 20
106.7637671495
 11
262.5553503649
 21
107.0489011181
  0
LINE
  5
3C0
100
AcDbEntity
  8
IMPORT_IGES
100
AcDbLine
 62
7
  6
CONTINUOUS
 10
263.5469017774
 20
107.6523708063
 11
263.5566932547
 21
107.9066099398
  0
LINE
  5
3C1
100
AcDbEntity
  8
IMPORT_IGES
100
AcDbLine
 62
250
  6
CONTINUOUS
 10
262.5335912775
 20
106.5034051421
 11
262.5446432405
 21
106.7637671495
  0
LINE
  5
3C2
100
AcDbEntity
  8
IMPORT_IGES
100
AcDbLine
 62
7
  6
CONTINUOUS
 10
263.5370781493
 20
107.4247967198
 11
263.5469017774
 21
107.6523708063
  0
LINE
  5
3C3
100
AcDbEntity
  8
IMPORT_IGES
100
AcDbLine
 62
250
  6
CONTINUOUS
 10
262.5260470292
 20
106.343965523
 11
262.5335912775
 21
106.5034051421
  0
LINE
  5
3C4
100
AcDbEntity
  8
IMPORT_IGES
100
AcDbLine
 62
7
  6
CONTINUOUS
 10
263.5292190863
 20
107.2609091965
 11
263.5370781493
 21
107.4247967198
  0
LINE
  5
3C5
100
AcDbEntity
  8
IMPORT_IGES
100
AcDbLine
 62
250
  6
CONTINUOUS
 10
262.5183732594
 20
106.1960739551
 11
262.5260470292
 21
106.343965523
  0
LINE
  5
3C6
100
AcDbEntity
  8
IMPORT_IGES
100
AcDbLine
 62
7
  6
CONTINUOUS
 10
263.5213734268
 20
107.112278356
 11
263.5292190863
 21
107.2609091965
  0
LINE
  5
3C7
100
AcDbEntity
  8
IMPORT_IGES
100
AcDbLine
 62
250
  6
CONTINUOUS
 10
262.5105811153
 20
106.0599196055
 11
262.5183732594
 21
106.1960739551
  0
LINE
  5
3C8
100
AcDbEntity
  8
IMPORT_IGES
100
AcDbLine
 62
7
  6
CONTINUOUS
 10
263.5155012853
 20
107.0102807445
 11
263.5213734268
 21
107.112278356
  0
LINE
  5
3C9
100
AcDbEntity
  8
IMPORT_IGES
100
AcDbLine
 62
7
  6
CONTINUOUS
 10
263.5096383415
 20
106.9159594917
 11
263.5155012853
 21
107.0102807445
  0
LINE
  5
3CA
100
AcDbEntity
  8
IMPORT_IGES
100
AcDbLine
 62
250
  6
CONTINUOUS
 10
262.5026780781
 20
105.9356767457
 11
262.5105811153
 21
106.0599196055
  0
LINE
  5
3CB
100
AcDbEntity
  8
IMPORT_IGES
100
AcDbLine
 62
7
  6
CONTINUOUS
 10
263.5037782754
 20
106.8288728985
 11
263.5096383415
 21
106.9159594917
  0
LINE
  5
3CC
100
AcDbEntity
  8
IMPORT_IGES
100
AcDbLine
 62
7
  6
CONTINUOUS
 10
263.4979060538
 20
106.7485113822
 11
263.5037782754
 21
106.8288728985
  0
LWPOLYLINE
  5
3CD
100
AcDbEntity
  8
IMPORT_IGES
100
AcDbPolyline
 62
250
  6
CONTINUOUS
 90
29
 70
0
 10
250.6434146773
 20
120.0554327892
 10
250.5442485561
 20
119.9074632557
 10
250.4518576988
 20
119.7553100532
 10
250.3661696871
 20
119.5989203132
 10
250.2876184511
 20
119.4390276222
 10
250.2161952707
 20
119.275530633
 10
250.1519088659
 20
119.1085306926
 10
250.0952193271
 20
118.9390654286
 10
250.0461817617
 20
118.767088749
 10
250.0047410622
 20
118.5926467457
 10
249.9711919964
 20
118.4169153218
 10
249.9456019031
 20
118.2399307549
 10
249.9279034435
 20
118.0616567673
 10
249.918189369
 20
117.8831604298
 10
249.916534353
 20
117.7043293457
 10
249.9228637221
 20
117.5252759117
 10
249.9370462072
 20
117.347404388
 10
249.9590716979
 20
117.1710390339
 10
249.9889503047
 20
116.9958555901
 10
250.0265810907
 20
116.8222855386
 10
250.0720183973
 20
116.6501009668
 10
250.125207883
 20
116.4795297874
 10
250.1858855863
 20
116.3116872207
 10
250.2541042722
 20
116.1466000479
 10
250.3298111757
 20
115.9842414879
 10
250.4125840406
 20
115.8256464172
 10
250.5022821147
 20
115.6711597947
 10
250.5990461502
 20
115.5204366615
 10
250.7028761471
 20
115.3734770176
  0
LINE
  5
3CE
100
AcDbEntity
  8
IMPORT_IGES
100
AcDbLine
 62
250
  6
CONTINUOUS
 10
53.7135162651
 20
189.3734770176
 11
263.6604588375
 21
189.3734770176
  0
LINE
  5
3CF
100
AcDbEntity
  8
IMPORT_IGES
100
AcDbLine
 62
7
  6
CONTINUOUS
 10
54.9456903236
 20
199.3723446388
 11
262.4282723759
 21
199.3720908352
  0
LINE
  5
3D0
100
AcDbEntity
  8
IMPORT_IGES
100
AcDbLine
 62
7
  6
CONTINUOUS
 10
263.4763709895
 20
198.2029408942
 11
263.4716930241
 21
198.2465075165
  0
LINE
  5
3D1
100
AcDbEntity
  8
IMPORT_IGES
100
AcDbLine
 62
7
  6
CONTINUOUS
 10
263.4809446798
 20
198.1572390484
 11
263.4763709895
 21
198.2029408942
  0
LINE
  5
3D2
100
AcDbEntity
  8
IMPORT_IGES
100
AcDbLine
 62
7
  6
CONTINUOUS
 10
263.4854391035
 20
198.1092159773
 11
263.4809446798
 21
198.1572390484
  0
LINE
  5
3D3
100
AcDbEntity
  8
IMPORT_IGES
100
AcDbLine
 62
7
  6
CONTINUOUS
 10
263.4898753211
 20
198.0586795843
 11
263.4854391035
 21
198.1092159773
  0
LINE
  5
3D4
100
AcDbEntity
  8
IMPORT_IGES
100
AcDbLine
 62
7
  6
CONTINUOUS
 10
263.4942667993
 20
198.00548441
 11
263.4898753211
 21
198.0586795843
  0
LINE
  5
3D5
100
AcDbEntity
  8
IMPORT_IGES
100
AcDbLine
 62
7
  6
CONTINUOUS
 10
263.4986262521
 20
197.9494635626
 11
263.4942667993
 21
198.00548441
  0
LINE
  5
3D6
100
AcDbEntity
  8
IMPORT_IGES
100
AcDbLine
 62
7
  6
CONTINUOUS
 10
278.1869875513
 20
147.5240198933
 11
278.1869875513
 21
157.5240193027
  0
LINE
  5
3D7
100
AcDbEntity
  8
IMPORT_IGES
100
AcDbLine
 62
7
  6
CONTINUOUS
 10
263.4939728941
 20
106.6984035985
 11
263.4979060538
 21
106.7485113822
  0
LINE
  5
3D8
100
AcDbEntity
  8
IMPORT_IGES
100
AcDbLine
 62
7
  6
CONTINUOUS
 10
263.4900139273
 20
106.650873133
 11
263.4939728941
 21
106.6984035985
  0
LINE
  5
3D9
100
AcDbEntity
  8
IMPORT_IGES
100
AcDbLine
 62
7
  6
CONTINUOUS
 10
263.4860146131
 20
106.6057234053
 11
263.4900139273
 21
106.650873133
  0
LINE
  5
3DA
100
AcDbEntity
  8
IMPORT_IGES
100
AcDbLine
 62
7
  6
CONTINUOUS
 10
263.4819598422
 20
106.5627851755
 11
263.4860146131
 21
106.6057234053
  0
LINE
  5
3DB
100
AcDbEntity
  8
IMPORT_IGES
100
AcDbLine
 62
7
  6
CONTINUOUS
 10
263.4778267371
 20
106.5218448585
 11
263.4819598422
 21
106.5627851755
  0
LINE
  5
3DC
100
AcDbEntity
  8
IMPORT_IGES
100
AcDbLine
 62
7
  6
CONTINUOUS
 10
263.473581687
 20
106.4826383742
 11
263.4778267371
 21
106.5218448585
  0
LWPOLYLINE
  5
3DD
100
AcDbEntity
  8
IMPORT_IGES
100
AcDbPolyline
 62
250
  6
CONTINUOUS
 90
72
 70
0
 10
257.1294365541
 20
115.3734772015
 10
257.2327206805
 20
115.5195462591
 10
257.3290789438
 20
115.6695330604
 10
257.418511344
 20
115.8234376054
 10
257.5011875867
 20
115.9816140578
 10
257.5769379663
 20
116.1437082539
 10
257.6452533662
 20
116.3086577027
 10
257.706071806
 20
116.4764993564
 10
257.759455266
 20
116.6471962627
 10
257.8050805703
 20
116.8195750735
 10
257.8428813017
 20
116.9934102744
 10
257.8729238773
 20
117.1689273799
 10
257.8950843729
 20
117.3456295853
 10
257.9093628136
 20
117.5238347083
 10
257.9157591742
 20
117.7032249312
 10
257.9141494553
 20
117.8823499972
 10
257.9044517991
 20
118.0610946532
 10
257.8867480633
 20
118.2395741523
 10
257.8611598223
 20
118.4166839965
 10
257.8276144643
 20
118.592454718
 10
257.786184601
 20
118.7668557847
 10
257.7372096419
 20
118.9386911019
 10
257.6806480097
 20
119.1078819713
 10
257.6165412818
 20
119.2745070913
 10
257.5453535998
 20
119.4376064617
 10
257.4671268889
 20
119.5970565572
 10
257.381819224
 20
119.7529809031
 10
257.2897689708
 20
119.904790076
 10
257.1908861027
 20
120.0525930033
 10
257.0852606463
 20
120.1962807576
 10
256.9735010466
 20
120.3349371325
 10
256.8555455739
 20
120.4685418525
 10
256.7314559579
 20
120.5971151933
 10
256.6020258325
 20
120.7198017754
 10
256.4672313533
 20
120.8365423178
 10
256.3270963647
 20
120.9473961015
 10
256.1824860342
 20
121.0516855906
 10
256.0333995177
 20
121.1493558432
 10
255.8798376593
 20
121.2404618011
 10
255.7226681579
 20
121.3244907535
 10
255.5618731939
 20
121.4014094451
 10
255.3974705868
 20
121.4712511311
 10
255.2303814953
 20
121.5336028657
 10
255.0605368202
 20
121.5884333885
 10
254.8880056605
 20
121.63577396
 10
254.7139164722
 20
121.675305416
 10
254.5382897571
 20
121.7069644319
 10
254.3611050133
 20
121.7308143324
 10
254.1834291911
 20
121.7467259276
 10
254.0052676274
 20
121.7546515219
 10
253.8266149852
 20
121.7546388109
 10
253.648522204
 20
121.7467016928
 10
253.4710002307
 20
121.73079755
 10
253.2940381183
 20
121.706969
 10
253.118653966
 20
121.6753577926
 10
252.9448260612
 20
121.6359083846
 10
252.7725761166
 20
121.5886763192
 10
252.6029873688
 20
121.5339699767
 10
252.4361130431
 20
121.4717564034
 10
252.2718999142
 20
121.402068553
 10
252.1112715429
 20
121.3253136663
 10
251.9542396129
 20
121.241452408
 10
251.8007924404
 20
121.1505241134
 10
251.6518185349
 20
121.0530540296
 10
251.5073357869
 20
120.9490000683
 10
251.367326306
 20
120.8384043177
 10
251.2326249301
 20
120.7219182897
 10
251.1032620869
 20
120.5995053053
 10
250.9792073488
 20
120.4712020434
 10
250.8612042712
 20
120.3377700526
 10
250.749283644
 20
120.1991657854
 10
250.6434146773
 20
120.0554327892
  0
LWPOLYLINE
  5
3DE
100
AcDbEntity
  8
IMPORT_IGES
100
AcDbPolyline
 62
250
  6
CONTINUOUS
 90
88
 70
0
 10
257.1294365541
 20
115.3734772735
 10
257.0788100389
 20
115.3031899384
 10
257.0259063428
 20
115.2331285451
 10
256.9707254656
 20
115.1632964837
 10
256.9129207339
 20
115.093274761
 10
256.8528388213
 20
115.0234891399
 10
256.7915197482
 20
114.9552092144
 10
256.7291006475
 20
114.8886551768
 10
256.6654443863
 20
114.8236103403
 10
256.6011795876
 20
114.7606869639
 10
256.5367279557
 20
114.7003016252
 10
256.4716677862
 20
114.6420373858
 10
256.4053625883
 20
114.5852558003
 10
256.3376222573
 20
114.5297560194
 10
256.268636898
 20
114.4757387456
 10
256.1983403338
 20
114.4231683555
 10
256.1265836138
 20
114.3719436904
 10
256.053515689
 20
114.3221645958
 10
255.9795172364
 20
114.2740963308
 10
255.9046071417
 20
114.2277698612
 10
255.8287665191
 20
114.1831510173
 10
255.7523193885
 20
114.140406475
 10
255.6753627455
 20
114.0995959772
 10
255.5977995946
 20
114.060655401
 10
255.5196629682
 20
114.0235652794
 10
255.4409368939
 20
113.9883151504
 10
255.3616373442
 20
113.954910996
 10
255.2818452696
 20
113.9233580174
 10
255.2015437144
 20
113.8936484663
 10
255.1207496343
 20
113.8657856953
 10
255.0395948468
 20
113.8397915806
 10
254.9580940544
 20
113.8156708134
 10
254.8762325546
 20
113.7934146418
 10
254.7940980566
 20
113.7730248773
 10
254.7117313967
 20
113.7545056364
 10
254.6290917387
 20
113.7378493921
 10
254.5461442833
 20
113.7230406882
 10
254.4628455557
 20
113.7100705825
 10
254.3792390308
 20
113.6989454736
 10
254.2954203344
 20
113.6896731476
 10
254.2113653538
 20
113.6822504962
 10
254.1270982018
 20
113.6766790362
 10
254.0427868431
 20
113.6729737354
 10
253.9584911015
 20
113.6711375257
 10
253.8741511531
 20
113.671166933
 10
253.7897554912
 20
113.6730675835
 10
253.7052288262
 20
113.6768451358
 10
253.6206464475
 20
113.6824944887
 10
253.5362227167
 20
113.6900053997
 10
253.4519671495
 20
113.6993815853
 10
253.3678702301
 20
113.7106209486
 10
253.2841177728
 20
113.7237047688
 10
253.2007694673
 20
113.7386276523
 10
253.1177656239
 20
113.7553975546
 10
253.035112988
 20
113.7740159907
 10
252.9527880437
 20
113.7944877107
 10
252.8708143067
 20
113.8168113573
 10
252.78926907
 20
113.8409794599
 10
252.7081374834
 20
113.8670002965
 10
252.627434397
 20
113.8948696033
 10
252.5472816537
 20
113.9245611803
 10
252.4677061538
 20
113.9560660522
 10
252.3886809971
 20
113.9893975107
 10
252.310247325
 20
114.0245627886
 10
252.2324320166
 20
114.0615470168
 10
252.1552081928
 20
114.1003694888
 10
252.0785363585
 20
114.1410887612
 10
252.0023059851
 20
114.1837726736
 10
251.9266276012
 20
114.2283578483
 10
251.8517932977
 20
114.2747057786
 10
251.777765079
 20
114.3228621433
 10
251.7045809407
 20
114.3727846484
 10
251.6326469601
 20
114.4242019792
 10
251.5620938004
 20
114.477032369
 10
251.4927907985
 20
114.5313590385
 10
251.4247520423
 20
114.5871574265
 10
251.35814613
 20
114.6442560037
 10
251.2928044635
 20
114.7028263948
 10
251.2282353361
 20
114.7633589942
 10
251.1640945802
 20
114.8261971699
 10
251.1007263634
 20
114.8909974757
 10
251.0386714818
 20
114.957219586
 10
250.9778186207
 20
115.0250422551
 10
250.9182790949
 20
115.0942831365
 10
250.860927645
 20
115.1638584814
 10
250.8060558515
 20
115.2334045937
 10
250.7533721339
 20
115.3032786105
 10
250.7028764923
 20
115.3734771907
  0
LINE
  5
3DF
100
AcDbEntity
  8
IMPORT_IGES
100
AcDbLine
 62
250
  6
CONTINUOUS
 10
250.7027780663
 20
115.3735780821
 11
251.1044634506
 21
115.6713488939
  0
LWPOLYLINE
  5
3E0
100
AcDbEntity
  8
IMPORT_IGES
100
AcDbPolyline
 62
7
  6
CONTINUOUS
 90
13
 70
0
 10
262.7921390157
 20
105.4474925413
 10
262.763614018
 20
105.4371615906
 10
262.7347422096
 20
105.4277079809
 10
262.7054250463
 20
105.4191114517
 10
262.6755719933
 20
105.4113446126
 10
262.6452735855
 20
105.404434854
 10
262.6147028825
 20
105.3984440873
 10
262.5838294636
 20
105.3935697218
 10
262.5526837496
 20
105.3896143481
 10
262.5215300623
 20
105.3860476493
 10
262.4904565091
 20
105.3826928532
 10
262.4593749828
 20
105.379726732
 10
262.4282854832
 20
105.3771492857
  0
LWPOLYLINE
  5
3E1
100
AcDbEntity
  8
IMPORT_IGES
100
AcDbPolyline
 62
7
  6
CONTINUOUS
 90
12
 70
0
 10
262.4282723759
 20
199.3720908352
 10
262.4852247161
 20
199.370548904
 10
262.5418751173
 20
199.3657379597
 10
262.5982235795
 20
199.3576580022
 10
262.6544868204
 20
199.3462973209
 10
262.7104481223
 20
199.3316676264
 10
262.7654573316
 20
199.313804051
 10
262.8195049274
 20
199.2926474536
 10
262.8726004305
 20
199.2682569754
 10
262.9241222503
 20
199.2408451725
 10
262.9740642962
 20
199.2103777307
 10
262.97941555
 20
199.2068738755
  0
LWPOLYLINE
  5
3E2
100
AcDbEntity
  8
IMPORT_IGES
100
AcDbPolyline
 62
7
  6
CONTINUOUS
 90
36
 70
0
 10
263.4668798041
 20
198.2881303757
 10
263.4644074853
 20
198.3083012583
 10
263.4618846369
 20
198.3280719375
 10
263.4592942077
 20
198.3475467841
 10
263.4566313588
 20
198.3667264496
 10
263.4538863127
 20
198.3856434601
 10
263.4510289282
 20
198.4044546637
 10
263.4480507473
 20
198.4231538158
 10
263.4449345317
 20
198.4417836303
 10
263.4416261584
 20
198.4605798626
 10
263.4381043841
 20
198.479553761
 10
263.4343426307
 20
198.4987326264
 10
263.4302592556
 20
198.518387688
 10
263.4258163751
 20
198.538526748
 10
263.420963845
 20
198.5591918087
 10
263.4155682486
 20
198.5807220619
 10
263.4095525054
 20
198.6031497086
 10
263.4028329212
 20
198.6264942862
 10
263.3952147579
 20
198.6510883249
 10
263.3865941129
 20
198.6768763776
 10
263.3768052062
 20
198.7039407707
 10
263.36546844
 20
198.7328173683
 10
263.3522843183
 20
198.7636568195
 10
263.3370939506
 20
198.796234099
 10
263.3196530138
 20
198.8304878631
 10
263.299586831
 20
198.8665232505
 10
263.2767533184
 20
198.903950286
 10
263.2513316053
 20
198.9419364449
 10
263.2232670303
 20
198.9801230758
 10
263.1922996775
 20
199.0184120785
 10
263.158422121
 20
199.0563502785
 10
263.1217178018
 20
199.0934234698
 10
263.081937938
 20
199.1295266995
 10
263.0386102988
 20
199.1647388128
 10
262.9917962719
 20
199.1986058474
 10
262.9794284512
 20
199.2068934443
  0
LINE
  5
3E3
100
AcDbEntity
  8
IMPORT_IGES
100
AcDbLine
 62
7
  6
CONTINUOUS
 10
263.4716930241
 20
198.2465075165
 11
263.4668798041
 21
198.2881303757
  0
LWPOLYLINE
  5
3E4
100
AcDbEntity
  8
IMPORT_IGES
100
AcDbPolyline
 62
250
  6
CONTINUOUS
 90
18
 70
0
 10
262.4283155661
 20
105.3746021383
 10
262.4325342894
 20
105.3788839612
 10
262.4367467753
 20
105.3863626418
 10
262.4409530236
 20
105.3970357201
 10
262.4451540032
 20
105.4108997172
 10
262.4493487454
 20
105.4279501296
 10
262.4535343433
 20
105.4481814257
 10
262.4577111632
 20
105.4715870584
 10
262.4618788388
 20
105.4981594732
 10
262.4660333649
 20
105.5278901007
 10
262.4701747285
 20
105.5607693471
 10
262.4743029426
 20
105.5967866375
 10
262.4784140415
 20
105.6359304346
 10
262.4825080073
 20
105.6781881667
 10
262.4865848579
 20
105.7235462567
 10
262.4906406814
 20
105.7719901862
 10
262.4946754592
 20
105.8235044121
 10
262.5026780781
 20
105.9356767457
  0
LWPOLYLINE
  5
3E5
100
AcDbEntity
  8
IMPORT_IGES
100
AcDbPolyline
 62
7
  6
CONTINUOUS
 90
16
 70
0
 10
263.0640975038
 20
105.6085349144
 10
263.1074630952
 20
105.647143498
 10
263.1486587299
 20
105.6883336673
 10
263.1872716124
 20
105.7316924032
 10
263.2232764187
 20
105.7772416548
 10
263.2566984729
 20
105.824959473
 10
263.2872009524
 20
105.8743669923
 10
263.3147546152
 20
105.9254803337
 10
263.3393887034
 20
105.9782833761
 10
263.3608541194
 20
106.032248891
 10
263.3791220155
 20
106.0873890476
 10
263.3942212396
 20
106.1436916766
 10
263.405989237
 20
106.2005930416
 10
263.4143718231
 20
106.2579052303
 10
263.4194231826
 20
106.3158161549
 10
263.4211433155
 20
106.3743258154
  0
LINE
  5
3E6
100
AcDbEntity
  8
IMPORT_IGES
100
AcDbLine
 62
7
  6
CONTINUOUS
 10
331.5412223956
 20
158.4840864714
 11
331.9822294227
 21
158.8261374998
  0
LINE
  5
3E7
100
AcDbEntity
  8
IMPORT_IGES
100
AcDbLine
 62
7
  6
CONTINUOUS
 10
331.0982378254
 20
158.1460763378
 11
331.5412223956
 21
158.4840864714
  0
LINE
  5
3E8
100
AcDbEntity
  8
IMPORT_IGES
100
AcDbLine
 62
7
  6
CONTINUOUS
 10
330.6532846404
 20
157.8121138565
 11
331.0982378254
 21
158.1460763378
  0
LWPOLYLINE
  5
3E9
100
AcDbEntity
  8
IMPORT_IGES
100
AcDbPolyline
 62
7
  6
CONTINUOUS
 90
3
 70
0
 10
329.9822284399
 20
157.3188084736
 10
330.2063985536
 20
157.482226057
 10
330.6532846404
 20
157.8121138565
  0
LWPOLYLINE
  5
3EA
100
AcDbEntity
  8
IMPORT_IGES
100
AcDbPolyline
 62
7
  6
CONTINUOUS
 90
37
 70
0
 10
262.9769938788
 20
105.5409200747
 10
262.9913837373
 20
105.5503610734
 10
263.0387211783
 20
105.5840126635
 10
263.0825761136
 20
105.6190920438
 10
263.1228824038
 20
105.6551496279
 10
263.1600945324
 20
105.6922531309
 10
263.1944546654
 20
105.7302991138
 10
263.2258702472
 20
105.7687545939
 10
263.2543278955
 20
105.8071253121
 10
263.2800797151
 20
105.8452792021
 10
263.3031961741
 20
105.8828617708
 10
263.3235130681
 20
105.9190560613
 10
263.3411790127
 20
105.9534774531
 10
263.3565619029
 20
105.9862088556
 10
263.3699004635
 20
106.0171665591
 10
263.3813658913
 20
106.0461480862
 10
263.3912486131
 20
106.0732752354
 10
263.3999008519
 20
106.0989817681
 10
263.4074791972
 20
106.1232829393
 10
263.414115309
 20
106.1461765693
 10
263.4200316938
 20
106.168070521
 10
263.425314942
 20
106.1889870335
 10
263.4300408636
 20
106.2089452898
 10
263.4343577956
 20
106.2283419278
 10
263.4383193318
 20
106.2472385291
 10
263.4419581257
 20
106.2656216213
 10
263.4453564705
 20
106.2837649556
 10
263.4485449184
 20
106.3017203961
 10
263.4515404272
 20
106.3194782404
 10
263.4543865165
 20
106.3372058804
 10
263.4570990186
 20
106.3549277544
 10
263.4596893243
 20
106.3726479372
 10
263.4621842083
 20
106.3904896962
 10
263.4645907117
 20
106.408453207
 10
263.4669175348
 20
106.4265556064
 10
263.4691879136
 20
106.4449408003
 10
263.473581687
 20
106.4826383742
  0
LWPOLYLINE
  5
3EB
100
AcDbEntity
  8
IMPORT_IGES
100
AcDbPolyline
 62
7
  6
CONTINUOUS
 90
5
 70
0
 10
262.976991209
 20
105.5409242189
 10
262.9565082524
 20
105.5280780158
 10
262.9300080386
 20
105.5124683308
 10
262.9030263144
 20
105.4976728397
 10
262.8757316891
 20
105.4837696995
  0
LWPOLYLINE
  5
3EC
100
AcDbEntity
  8
IMPORT_IGES
100
AcDbPolyline
 62
7
  6
CONTINUOUS
 90
4
 70
0
 10
262.9213937843
 20
105.5086116964
 10
262.9708128286
 20
105.5391132126
 10
263.0185401446
 20
105.5725332707
 10
263.0640975038
 20
105.6085349144
  0
LINE
  5
3ED
100
AcDbEntity
  8
ASSI
100
AcDbLine
 62
7
  6
CONTINUOUS
 10
353.8476915513
 20
151.1057027938
 11
353.2423615513
 21
150.7659497938
  0
LINE
  5
3EE
100
AcDbEntity
  8
IMPORT_IGES
100
AcDbLine
 62
7
  6
CONTINUOUS
 10
262.8702668029
 20
105.4810577936
 11
262.8722820053
 21
105.4821438482
  0
LINE
  5
3EF
100
AcDbEntity
  8
IMPORT_IGES
100
AcDbLine
 62
7
  6
CONTINUOUS
 10
262.8174480931
 20
105.4564224327
 11
262.8757316891
 21
105.4837696995
  0
LINE
  5
3F0
100
AcDbEntity
  8
IMPORT_IGES
100
AcDbLine
 62
7
  6
CONTINUOUS
 10
262.8481916689
 20
105.4707899658
 11
262.8203387477
 21
105.4587025831
  0
LINE
  5
3F1
100
AcDbEntity
  8
ASSI
100
AcDbLine
 62
7
  6
CONTINUOUS
 10
353.2423615475
 20
154.1836577959
 11
353.8476924831
 21
153.8439042707
  0
LINE
  5
3F2
100
AcDbEntity
  8
IMPORT_IGES
100
AcDbLine
 62
7
  6
CONTINUOUS
 10
330.4300786648
 20
147.4013669218
 11
329.982229689
 21
147.7292334107
  0
LINE
  5
3F3
100
AcDbEntity
  8
IMPORT_IGES
100
AcDbLine
 62
7
  6
CONTINUOUS
 10
330.8759959346
 20
147.0694368817
 11
330.4300786648
 21
147.4013669218
  0
LINE
  5
3F4
100
AcDbEntity
  8
IMPORT_IGES
100
AcDbLine
 62
7
  6
CONTINUOUS
 10
331.3199725987
 20
146.7334499975
 11
330.8759959346
 21
147.0694368817
  0
LWPOLYLINE
  5
3F5
100
AcDbEntity
  8
IMPORT_IGES
100
AcDbPolyline
 62
7
  6
CONTINUOUS
 90
3
 70
0
 10
331.9822344371
 20
146.2219117168
 10
331.7619730587
 20
146.3934330986
 10
331.3199725987
 20
146.7334499975
  0
LWPOLYLINE
  5
3F6
100
AcDbEntity
  8
IMPORT_IGES
100
AcDbPolyline
 62
250
  6
CONTINUOUS
 90
17
 70
0
 10
262.4282723488
 20
199.3723519494
 10
262.4323762251
 20
199.3682110553
 10
262.4364766699
 20
199.3609898273
 10
262.4405736831
 20
199.3506529447
 10
262.4446688586
 20
199.3371641238
 10
262.4487606025
 20
199.3204908765
 10
262.4528441331
 20
199.3006083357
 10
262.4569215331
 20
199.2774752823
 10
262.4609907199
 20
199.2510741923
 10
262.4650406638
 20
199.2214391386
 10
262.4690707104
 20
199.1885662161
 10
262.4730815141
 20
199.1524477641
 10
262.4770640079
 20
199.1131484636
 10
262.4810151598
 20
199.0707059906
 10
262.4849380018
 20
199.0251128893
 10
262.488832563
 20
198.976383781
 10
262.4926987424
 20
198.9245343782
  0
LINE
  5
3F7
100
AcDbEntity
  8
ASSI
100
AcDbLine
 62
7
  6
CONTINUOUS
 10
350.5670135513
 20
149.8018387938
 11
351.1130345513
 21
149.4166807938
  0
LINE
  5
3F8
100
AcDbEntity
  8
IMPORT_IGES
100
AcDbLine
 62
7
  6
CONTINUOUS
 10
308.4822292227
 20
145.524019598
 11
308.4822292227
 21
159.524019598
  0
LINE
  5
3F9
100
AcDbEntity
  8
IMPORT_IGES
100
AcDbLine
 62
7
  6
CONTINUOUS
 10
310.4822292227
 20
146.824019598
 11
310.4822292227
 21
150.824019598
  0
LINE
  5
3FA
100
AcDbEntity
  8
IMPORT_IGES
100
AcDbLine
 62
7
  6
CONTINUOUS
 10
310.4822292227
 20
154.224019598
 11
310.4822292227
 21
158.224019598
  0
LINE
  5
3FB
100
AcDbEntity
  8
IMPORT_IGES
100
AcDbLine
 62
7
  6
CONTINUOUS
 10
312.4822292227
 20
158.224019598
 11
312.4822292227
 21
154.224019598
  0
LINE
  5
3FC
100
AcDbEntity
  8
IMPORT_IGES
100
AcDbLine
 62
7
  6
CONTINUOUS
 10
312.4822292227
 20
150.824019598
 11
312.4822292227
 21
146.824019598
  0
LINE
  5
3FD
100
AcDbEntity
  8
IMPORT_IGES
100
AcDbLine
 62
7
  6
CONTINUOUS
 10
314.4822292227
 20
146.824019598
 11
314.4822292227
 21
150.824019598
  0
LINE
  5
3FE
100
AcDbEntity
  8
IMPORT_IGES
100
AcDbLine
 62
7
  6
CONTINUOUS
 10
314.4822292227
 20
154.224019598
 11
314.4822292227
 21
158.224019598
  0
LINE
  5
3FF
100
AcDbEntity
  8
IMPORT_IGES
100
AcDbLine
 62
7
  6
CONTINUOUS
 10
316.4822292227
 20
158.224019598
 11
316.4822292227
 21
154.224019598
  0
LINE
  5
400
100
AcDbEntity
  8
IMPORT_IGES
100
AcDbLine
 62
7
  6
CONTINUOUS
 10
316.4822292227
 20
150.824019598
 11
316.4822292227
 21
146.824019598
  0
LINE
  5
401
100
AcDbEntity
  8
IMPORT_IGES
100
AcDbLine
 62
7
  6
CONTINUOUS
 10
318.4822292227
 20
146.824019598
 11
318.4822292227
 21
150.824019598
  0
LINE
  5
402
100
AcDbEntity
  8
IMPORT_IGES
100
AcDbLine
 62
7
  6
CONTINUOUS
 10
318.4822292227
 20
154.224019598
 11
318.4822292227
 21
158.224019598
  0
LINE
  5
403
100
AcDbEntity
  8
IMPORT_IGES
100
AcDbLine
 62
7
  6
CONTINUOUS
 10
320.4822292227
 20
158.224019598
 11
320.4822292227
 21
154.224019598
  0
LINE
  5
404
100
AcDbEntity
  8
IMPORT_IGES
100
AcDbLine
 62
7
  6
CONTINUOUS
 10
320.4822292227
 20
150.824019598
 11
320.4822292227
 21
146.824019598
  0
LINE
  5
405
100
AcDbEntity
  8
IMPORT_IGES
100
AcDbLine
 62
7
  6
CONTINUOUS
 10
322.4822292227
 20
146.824019598
 11
322.4822292227
 21
150.824019598
  0
LINE
  5
406
100
AcDbEntity
  8
IMPORT_IGES
100
AcDbLine
 62
7
  6
CONTINUOUS
 10
322.4822292227
 20
154.224019598
 11
322.4822292227
 21
158.224019598
  0
LINE
  5
407
100
AcDbEntity
  8
ASSI
100
AcDbLine
 62
7
  6
CONTINUOUS
 10
357.7681965513
 20
154.8476957938
 11
356.0957285513
 21
152.8630567938
  0
LINE
  5
408
100
AcDbEntity
  8
ASSI
100
AcDbLine
 62
7
  6
CONTINUOUS
 10
356.1039825513
 20
152.0767557938
 11
357.7681972551
 21
150.1019109586
  0
LINE
  5
409
100
AcDbEntity
  8
IMPORT_IGES
100
AcDbLine
 62
7
  6
CONTINUOUS
 10
324.4822292227
 20
145.524019598
 11
324.4822292227
 21
159.524019598
  0
LINE
  5
40A
100
AcDbEntity
  8
IMPORT_IGES
100
AcDbLine
 62
7
  6
CONTINUOUS
 10
329.9822292227
 20
157.3188037045
 11
329.9822279996
 21
147.7292307222
  0
LINE
  5
40B
100
AcDbEntity
  8
IMPORT_IGES
100
AcDbLine
 62
7
  6
CONTINUOUS
 10
331.9822294227
 20
158.8261374998
 11
331.9822344371
 21
146.2219117168
  0
LINE
  5
40C
100
AcDbEntity
  8
ASSI
100
AcDbLine
 62
7
  6
CONTINUOUS
 10
357.0104155513
 20
152.8630567938
 11
358.7600795513
 21
154.9393007938
  0
LINE
  5
40D
100
AcDbEntity
  8
ASSI
100
AcDbLine
 62
7
  6
CONTINUOUS
 10
358.7556033063
 20
150.0058230844
 11
357.0104155513
 21
152.0767557938
  0
LWPOLYLINE
  5
40E
100
AcDbEntity
  8
IMPORT_IGES
100
AcDbPolyline
 62
7
  6
CONTINUOUS
 90
19
 70
0
 10
344.1573258011
 20
165.2406487181
 10
344.2977328856
 20
165.0482397798
 10
344.4288228794
 20
164.8555862876
 10
344.5505957824
 20
164.6626882413
 10
344.6627541958
 20
164.4694799948
 10
344.7655955185
 20
164.2760271943
 10
344.8600119466
 20
164.0825267784
 10
344.946075177
 20
163.8890953801
 10
345.0237135128
 20
163.6956163664
 10
345.0936040601
 20
163.501936778
 10
345.1559549121
 20
163.3077304863
 10
345.2105579756
 20
163.1133236198
 10
345.2574660773
 20
162.9195416056
 10
345.2965189342
 20
162.7265707961
 10
345.3278768292
 20
162.5342248388
 10
345.3520734381
 20
162.3427701034
 10
345.3692866525
 20
162.1522953797
 10
345.3793385807
 20
161.9627118779
 10
345.3822292227
 20
161.774019598
  0
LINE
  5
40F
100
AcDbEntity
  8
IMPORT_IGES
100
AcDbLine
 62
7
  6
CONTINUOUS
 10
343.3822292227
 20
165.0234016213
 11
343.3822292227
 21
140.0246375747
  0
LINE
  5
410
100
AcDbEntity
  8
IMPORT_IGES
100
AcDbLine
 62
7
  6
CONTINUOUS
 10
345.3822292227
 20
143.274019598
 11
345.3822292227
 21
161.774019598
  0
LWPOLYLINE
  5
411
100
AcDbEntity
  8
IMPORT_IGES
100
AcDbPolyline
 62
7
  6
CONTINUOUS
 90
19
 70
0
 10
345.3822292227
 20
143.274019598
 10
345.3793242561
 20
143.085076212
 10
345.3692491569
 20
142.8952764025
 10
345.352003925
 20
142.7046201698
 10
345.3277631715
 20
142.5130203613
 10
345.2963522853
 20
142.3205641294
 10
345.2572474334
 20
142.1275129312
 10
345.2102885632
 20
141.9336797569
 10
345.1556357273
 20
141.7392516162
 10
345.0932452504
 20
141.545050995
 10
345.0233263457
 20
141.3514052927
 10
344.9456697999
 20
141.1579871098
 10
344.8596042975
 20
140.9646367338
 10
344.7652006876
 20
140.7712360574
 10
344.6623881212
 20
140.5779031879
 10
344.5502827356
 20
140.3848327342
 10
344.4285899099
 20
140.1920895662
 10
344.2976042651
 20
139.9996088141
 10
344.1573258011
 20
139.8073904779
  0
LINE
  5
412
100
AcDbEntity
  8
ASSI
100
AcDbLine
 62
7
  6
CONTINUOUS
 10
352.9104375513
 20
153.5171657938
 11
352.9104375513
 21
151.4229017938
  0
LINE
  5
413
100
AcDbEntity
  8
ASSI
100
AcDbLine
 62
7
  6
CONTINUOUS
 10
353.6485295513
 20
151.4229017938
 11
353.6485295513
 21
152.0767557938
  0
LINE
  5
414
100
AcDbEntity
  8
ASSI
100
AcDbLine
 62
7
  6
CONTINUOUS
 10
353.6485295513
 20
152.8630567938
 11
353.6485295513
 21
153.5171657938
  0
LINE
  5
415
100
AcDbEntity
  8
ASSI
100
AcDbLine
 62
7
  6
CONTINUOUS
 10
358.8923095513
 20
153.4930617938
 11
358.8923095513
 21
152.8630567938
  0
LINE
  5
416
100
AcDbEntity
  8
ASSI
100
AcDbLine
 62
7
  6
CONTINUOUS
 10
358.8923095513
 20
152.0767557938
 11
358.8923095513
 21
151.4470057938
  0
LINE
  5
417
100
AcDbEntity
  8
ASSI
100
AcDbLine
 62
7
  6
CONTINUOUS
 10
359.6344615513
 20
151.4470057938
 11
359.6344615513
 21
153.4930617938
  0
LINE
  5
418
100
AcDbEntity
  8
IMPORT_IGES
100
AcDbLine
 62
7
  6
CONTINUOUS
 10
365.4869875513
 20
136.274019598
 11
365.4869875513
 21
168.774019598
  0
LINE
  5
419
100
AcDbEntity
  8
IMPORT_IGES
100
AcDbLine
 62
7
  6
CONTINUOUS
 10
375.1768854899
 20
144.9240195947
 11
375.1768854899
 21
141.1240196013
  0
LINE
  5
41A
100
AcDbEntity
  8
IMPORT_IGES
100
AcDbLine
 62
7
  6
CONTINUOUS
 10
375.1768854899
 20
160.1240196013
 11
375.1768854899
 21
163.9240195947
  0
LINE
  5
41B
100
AcDbEntity
  8
IMPORT_IGES
100
AcDbLine
 62
250
  6
CONTINUOUS
 10
375.4768854899
 20
141.024019598
 11
375.4768854899
 21
145.024019598
  0
LINE
  5
41C
100
AcDbEntity
  8
IMPORT_IGES
100
AcDbLine
 62
250
  6
CONTINUOUS
 10
375.4768854899
 20
160.024019598
 11
375.4768854899
 21
164.024019598
  0
LINE
  5
41D
100
AcDbEntity
  8
IMPORT_IGES
100
AcDbLine
 62
250
  6
CONTINUOUS
 10
382.4869875513
 20
141.024019598
 11
382.4869875513
 21
145.024019598
  0
LINE
  5
41E
100
AcDbEntity
  8
IMPORT_IGES
100
AcDbLine
 62
250
  6
CONTINUOUS
 10
382.4869875513
 20
160.024019598
 11
382.4869875513
 21
164.024019598
  0
LINE
  5
41F
100
AcDbEntity
  8
IMPORT_IGES
100
AcDbLine
 62
250
  6
CONTINUOUS
 10
382.9869875513
 20
150.524019598
 11
382.9869875513
 21
154.524019598
  0
CIRCLE
  5
420
100
AcDbEntity
  8
IMPORT_IGES
100
AcDbCircle
 62
7
  6
CONTINUOUS
 10
63.4578185793
 20
117.7556670236
 40
3.5
  0
CIRCLE
  5
421
100
AcDbEntity
  8
IMPORT_IGES
100
AcDbCircle
 62
7
  6
CONTINUOUS
 10
63.4578185793
 20
117.7556670236
 40
3.45
  0
CIRCLE
  5
422
100
AcDbEntity
  8
IMPORT_IGES
100
AcDbCircle
 62
250
  6
CONTINUOUS
 10
63.4578185793
 20
117.7556670236
 40
3.1499854475
  0
ARC
  5
423
100
AcDbEntity
  8
IMPORT_IGES
100
AcDbCircle
 62
7
  6
CONTINUOUS
 10
131.5149399234
 20
142.5581071991
 40
3.0600000422
100
AcDbArc
 50
84.2608296023
 51
275.7391703977
  0
ARC
  5
424
100
AcDbEntity
  8
IMPORT_IGES
100
AcDbCircle
 62
7
  6
CONTINUOUS
 10
131.5149399234
 20
142.5581071991
 40
2.1420002094
100
AcDbArc
 50
81.7867901066
 51
278.2132098934
  0
CIRCLE
  5
425
100
AcDbEntity
  8
IMPORT_IGES
100
AcDbCircle
 62
7
  6
CONTINUOUS
 10
167.6869875513
 20
117.756019598
 40
2.9
  0
CIRCLE
  5
426
100
AcDbEntity
  8
IMPORT_IGES
100
AcDbCircle
 62
7
  6
CONTINUOUS
 10
167.6869875513
 20
117.756019598
 40
2.4999993374
  0
ARC
  5
427
100
AcDbEntity
  8
IMPORT_IGES
100
AcDbCircle
 62
250
  6
CONTINUOUS
 10
167.6869875513
 20
117.756019598
 40
2.2222222222
100
AcDbArc
 50
284.1813512976
 51
75.8186487024
  0
ARC
  5
428
100
AcDbEntity
  8
IMPORT_IGES
100
AcDbCircle
 62
250
  6
CONTINUOUS
 10
167.6869875513
 20
117.756019598
 40
2.222209717
100
AcDbArc
 50
104.1819873104
 51
255.8180126897
  0
ARC
  5
429
100
AcDbEntity
  8
IMPORT_IGES
100
AcDbCircle
 62
7
  6
CONTINUOUS
 10
169.2161565232
 20
127.2514752928
 40
0.3
100
AcDbArc
 50
180.0000000005
 51
269.9999999996
  0
ARC
  5
42A
100
AcDbEntity
  8
IMPORT_IGES
100
AcDbCircle
 62
7
  6
CONTINUOUS
 10
209.6161565232
 20
127.2514752928
 40
0.3
100
AcDbArc
 50
270.0000000004
 51
359.9999999995
  0
ARC
  5
42B
100
AcDbEntity
  8
IMPORT_IGES
100
AcDbCircle
 62
7
  6
CONTINUOUS
 10
136.7169399234
 20
142.5581071991
 40
3.0600000422
100
AcDbArc
 50
84.2608296023
 51
275.739170325
  0
ARC
  5
42C
100
AcDbEntity
  8
IMPORT_IGES
100
AcDbCircle
 62
7
  6
CONTINUOUS
 10
136.7169399234
 20
142.5581071991
 40
2.1420002094
100
AcDbArc
 50
81.7867901067
 51
167.6263759501
  0
ARC
  5
42D
100
AcDbEntity
  8
IMPORT_IGES
100
AcDbCircle
 62
7
  6
CONTINUOUS
 10
136.7169399234
 20
142.5581071991
 40
2.1419996751
100
AcDbArc
 50
192.3736270231
 51
278.2132118486
  0
ARC
  5
42E
100
AcDbEntity
  8
IMPORT_IGES
100
AcDbCircle
 62
7
  6
CONTINUOUS
 10
155.3038030824
 20
144.2245229771
 40
0.6256461971
100
AcDbArc
 50
179.9952981584
 51
186.7904741417
  0
ARC
  5
42F
100
AcDbEntity
  8
IMPORT_IGES
100
AcDbCircle
 62
7
  6
CONTINUOUS
 10
155.2946923066
 20
144.2245745535
 40
0.6164857967
100
AcDbArc
 50
207.8572889376
 51
353.8694806319
  0
ARC
  5
430
100
AcDbEntity
  8
IMPORT_IGES
100
AcDbCircle
 62
7
  6
CONTINUOUS
 10
155.2947757563
 20
144.2245576523
 40
0.6162244003
100
AcDbArc
 50
96.7411156741
 51
179.9984513195
  0
ARC
  5
431
100
AcDbEntity
  8
IMPORT_IGES
100
AcDbCircle
 62
7
  6
CONTINUOUS
 10
155.928584478
 20
149.1827163732
 40
0.2854448654
100
AcDbArc
 50
247.1864725133
 51
141.890905943
  0
CIRCLE
  5
432
100
AcDbEntity
  8
IMPORT_IGES
100
AcDbCircle
 62
250
  6
CONTINUOUS
 10
63.4578185793
 20
174.70096376
 40
3.9999752971
  0
CIRCLE
  5
433
100
AcDbEntity
  8
IMPORT_IGES
100
AcDbCircle
 62
7
  6
CONTINUOUS
 10
63.4578185793
 20
174.70096376
 40
3.5
  0
CIRCLE
  5
434
100
AcDbEntity
  8
IMPORT_IGES
100
AcDbCircle
 62
7
  6
CONTINUOUS
 10
63.4578185793
 20
174.70096376
 40
3.45
  0
CIRCLE
  5
435
100
AcDbEntity
  8
IMPORT_IGES
100
AcDbCircle
 62
250
  6
CONTINUOUS
 10
171.5869875513
 20
167.024019598
 40
3.3999784116
  0
CIRCLE
  5
436
100
AcDbEntity
  8
IMPORT_IGES
100
AcDbCircle
 62
250
  6
CONTINUOUS
 10
63.4578185793
 20
174.70096376
 40
3.1499854475
  0
CIRCLE
  5
437
100
AcDbEntity
  8
IMPORT_IGES
100
AcDbCircle
 62
7
  6
CONTINUOUS
 10
171.5869875513
 20
167.024019598
 40
2.9
  0
CIRCLE
  5
438
100
AcDbEntity
  8
IMPORT_IGES
100
AcDbCircle
 62
7
  6
CONTINUOUS
 10
171.5869875513
 20
167.024019598
 40
2.4999993374
  0
ARC
  5
439
100
AcDbEntity
  8
IMPORT_IGES
100
AcDbCircle
 62
250
  6
CONTINUOUS
 10
171.5869875513
 20
167.024019598
 40
2.2222222222
100
AcDbArc
 50
284.1813512976
 51
75.8186487024
  0
ARC
  5
43A
100
AcDbEntity
  8
IMPORT_IGES
100
AcDbCircle
 62
250
  6
CONTINUOUS
 10
171.5869875513
 20
167.024019598
 40
2.222209717
100
AcDbArc
 50
104.1819873104
 51
255.8180126897
  0
ARC
  5
43B
100
AcDbEntity
  8
IMPORT_IGES
100
AcDbCircle
 62
7
  6
CONTINUOUS
 10
169.2161565232
 20
152.6514752928
 40
0.3
100
AcDbArc
 50
89.999999998
 51
180.0
  0
ARC
  5
43C
100
AcDbEntity
  8
IMPORT_IGES
100
AcDbCircle
 62
7
  6
CONTINUOUS
 10
209.6161565232
 20
152.6514752928
 40
0.3
100
AcDbArc
 50
0.0
 51
90.000000002
  0
ARC
  5
43D
100
AcDbEntity
  8
IMPORT_IGES
100
AcDbCircle
 62
7
  6
CONTINUOUS
 10
311.7817792891
 20
95.478841646
 40
55.3295547004
100
AcDbArc
 50
70.7951708333
 51
76.7298991677
  0
ARC
  5
43E
100
AcDbEntity
  8
IMPORT_IGES
100
AcDbCircle
 62
7
  6
CONTINUOUS
 10
311.7817792891
 20
95.478841646
 40
54.6158711599
100
AcDbArc
 50
54.6483994145
 51
68.2928515602
  0
ARC
  5
43F
100
AcDbEntity
  8
IMPORT_IGES
100
AcDbCircle
 62
7
  6
CONTINUOUS
 10
311.7817792891
 20
95.4788416461
 40
51.9999999999
100
AcDbArc
 50
51.7447736749
 51
75.8631096128
  0
ARC
  5
440
100
AcDbEntity
  8
IMPORT_IGES
100
AcDbCircle
 62
7
  6
CONTINUOUS
 10
338.5369051547
 20
124.6627091422
 40
12.8578655931
100
AcDbArc
 50
64.5634195159
 51
64.9630425405
  0
CIRCLE
  5
441
100
AcDbEntity
  8
ASSI
100
AcDbCircle
 62
7
  6
CONTINUOUS
 10
355.4869875513
 20
152.5239608901
 40
6.0
  0
ARC
  5
442
100
AcDbEntity
  8
ASSI
100
AcDbCircle
 62
7
  6
CONTINUOUS
 10
356.2869875513
 20
152.4748037938
 40
4.6477727604
100
AcDbArc
 50
202.0885400684
 51
183.4298331581
  0
ARC
  5
443
100
AcDbEntity
  8
ASSI
100
AcDbCircle
 62
7
  6
CONTINUOUS
 10
348.1964765513
 20
152.2892957938
 40
4.0936814123
100
AcDbArc
 50
315.4348980565
 51
337.5658614676
  0
CIRCLE
  5
444
100
AcDbEntity
  8
ASSI
100
AcDbCircle
 62
7
  6
CONTINUOUS
 10
356.2869875513
 20
152.4748037938
 40
3.903804
  0
CIRCLE
  5
445
100
AcDbEntity
  8
IMPORT_IGES
100
AcDbCircle
 62
7
  6
CONTINUOUS
 10
253.9161565232
 20
117.7556670236
 40
3.5
  0
ARC
  5
446
100
AcDbEntity
  8
ASSI
100
AcDbCircle
 62
7
  6
CONTINUOUS
 10
356.2869875513
 20
152.4748037938
 40
3.4914079543
100
AcDbArc
 50
44.9002637264
 51
150.6958558882
  0
ARC
  5
447
100
AcDbEntity
  8
ASSI
100
AcDbCircle
 62
7
  6
CONTINUOUS
 10
356.2869875513
 20
152.4748037938
 40
3.49140795
100
AcDbArc
 50
209.3041441118
 51
314.9957650772
  0
CIRCLE
  5
448
100
AcDbEntity
  8
IMPORT_IGES
100
AcDbCircle
 62
7
  6
CONTINUOUS
 10
253.9161565232
 20
117.7556670236
 40
3.45
  0
CIRCLE
  5
449
100
AcDbEntity
  8
IMPORT_IGES
100
AcDbCircle
 62
250
  6
CONTINUOUS
 10
253.9161565232
 20
117.7556670236
 40
3.1499854475
  0
ARC
  5
44A
100
AcDbEntity
  8
ASSI
100
AcDbCircle
 62
7
  6
CONTINUOUS
 10
356.2869875513
 20
152.4748037938
 40
2.7972490994
100
AcDbArc
 50
209.3041427885
 51
301.9732789064
  0
ARC
  5
44B
100
AcDbEntity
  8
ASSI
100
AcDbCircle
 62
7
  6
CONTINUOUS
 10
356.2869875513
 20
152.4748037938
 40
2.7972480307
100
AcDbArc
 50
58.0267242642
 51
150.6958572115
  0
ARC
  5
44C
100
AcDbEntity
  8
IMPORT_IGES
100
AcDbCircle
 62
7
  6
CONTINUOUS
 10
382.4869875513
 20
143.024019598
 40
2.0
100
AcDbArc
 50
269.9999999999
 51
90.0
  0
ARC
  5
44D
100
AcDbEntity
  8
IMPORT_IGES
100
AcDbCircle
 62
7
  6
CONTINUOUS
 10
375.4768854899
 20
141.524019598
 40
0.5
100
AcDbArc
 50
233.1301023532
 51
269.9999999998
  0
ARC
  5
44E
100
AcDbEntity
  8
IMPORT_IGES
100
AcDbCircle
 62
7
  6
CONTINUOUS
 10
375.4768854899
 20
144.524019598
 40
0.5
100
AcDbArc
 50
90.0
 51
126.8698976456
  0
ARC
  5
44F
100
AcDbEntity
  8
IMPORT_IGES
100
AcDbCircle
 62
7
  6
CONTINUOUS
 10
311.7817792891
 20
209.5691975499
 40
55.3295547003
100
AcDbArc
 50
283.2701008323
 51
289.2048287383
  0
ARC
  5
450
100
AcDbEntity
  8
IMPORT_IGES
100
AcDbCircle
 62
7
  6
CONTINUOUS
 10
311.7817792891
 20
209.5691975499
 40
54.6158711599
100
AcDbArc
 50
291.7071484398
 51
305.3516005855
  0
ARC
  5
451
100
AcDbEntity
  8
IMPORT_IGES
100
AcDbCircle
 62
7
  6
CONTINUOUS
 10
311.7817792891
 20
209.56919755
 40
52.0000000001
100
AcDbArc
 50
284.1368903872
 51
308.2552263347
  0
ARC
  5
452
100
AcDbEntity
  8
IMPORT_IGES
100
AcDbCircle
 62
7
  6
CONTINUOUS
 10
338.536905373
 20
180.3853295907
 40
12.8578650811
100
AcDbArc
 50
295.0369575235
 51
295.4365805269
  0
ARC
  5
453
100
AcDbEntity
  8
ASSI
100
AcDbCircle
 62
7
  6
CONTINUOUS
 10
347.5253375513
 20
152.6153797938
 40
4.143405103
100
AcDbArc
 50
317.2312690148
 51
354.2011526168
  0
CIRCLE
  5
454
100
AcDbEntity
  8
IMPORT_IGES
100
AcDbCircle
 62
250
  6
CONTINUOUS
 10
253.9161565232
 20
174.70096376
 40
3.9999752971
  0
CIRCLE
  5
455
100
AcDbEntity
  8
IMPORT_IGES
100
AcDbCircle
 62
7
  6
CONTINUOUS
 10
253.9161565232
 20
174.70096376
 40
3.5
  0
CIRCLE
  5
456
100
AcDbEntity
  8
IMPORT_IGES
100
AcDbCircle
 62
7
  6
CONTINUOUS
 10
253.9161565232
 20
174.70096376
 40
3.45
  0
CIRCLE
  5
457
100
AcDbEntity
  8
IMPORT_IGES
100
AcDbCircle
 62
250
  6
CONTINUOUS
 10
253.9161565232
 20
174.70096376
 40
3.1499854475
  0
ARC
  5
458
100
AcDbEntity
  8
IMPORT_IGES
100
AcDbCircle
 62
7
  6
CONTINUOUS
 10
382.9869875513
 20
152.524019598
 40
2.0
100
AcDbArc
 50
270.0
 51
90.0
  0
ARC
  5
459
100
AcDbEntity
  8
IMPORT_IGES
100
AcDbCircle
 62
7
  6
CONTINUOUS
 10
382.4869875513
 20
162.024019598
 40
2.0
100
AcDbArc
 50
270.0
 51
90.0
  0
ARC
  5
45A
100
AcDbEntity
  8
IMPORT_IGES
100
AcDbCircle
 62
7
  6
CONTINUOUS
 10
375.4768854899
 20
163.524019598
 40
0.5
100
AcDbArc
 50
90.0000000002
 51
126.8698976462
  0
ARC
  5
45B
100
AcDbEntity
  8
IMPORT_IGES
100
AcDbCircle
 62
7
  6
CONTINUOUS
 10
375.4768854899
 20
160.524019598
 40
0.5
100
AcDbArc
 50
233.1301023543
 51
270.0
  0
ELLIPSE
  5
45C
100
AcDbEntity
  8
IMPORT_IGES
100
AcDbEllipse
 62
7
  6
CONTINUOUS
 10
329.4985662603
 20
95.4788416459
 30
0.0
 11
49.6632458757
 21
-0.0000000016
 31
0.0
 40
0.9342043206
 41
1.2711700665
 42
1.28746459
  0
ELLIPSE
  5
45D
100
AcDbEntity
  8
IMPORT_IGES
100
AcDbEllipse
 62
7
  6
CONTINUOUS
 10
329.4985662593
 20
209.5691975498
 30
0.0
 11
49.6632458753
 21
-0.0000000019
 31
0.0
 40
0.9342043206
 41
-1.2874645899
 42
-1.2711700664
  0
ENDSEC
  0
SECTION
  2
OBJECTS
  0
DICTIONARY
  5
C
100
AcDbDictionary
280
0
281
1
  3
ACAD_GROUP
350
D
  3
ACAD_MLINESTYLE
350
17
  3
ACAD_LAYOUT
350
1A
  3
ACAD_PLOTSETTINGS
350
19
  3
ACAD_PLOTSTYLENAME
350
E
  0
DICTIONARY
  5
D
102
{ACAD_REACTORS
330
C
102
}
100
AcDbDictionary
280
0
281
1
  0
ACDBDICTIONARYWDFLT
  5
E
102
{ACAD_REACTORS
330
C
102
}
100
AcDbDictionary
281
1
  3
Normal
350
F
100
AcDbDictionaryWithDefault
340
F
  0
DICTIONARY
  5
17
102
{ACAD_REACTORS
330
C
102
}
100
AcDbDictionary
280
0
281
1
  3
Standard
350
18
  0
DICTIONARY
  5
19
102
{ACAD_REACTORS
330
C
102
}
100
AcDbDictionary
281
1
  0
DICTIONARY
  5
1A
102
{ACAD_REACTORS
330
C
102
}
100
AcDbDictionary
281
1
  3
Model
350
45E
  3
Layout1
350
45F
  0
ACDBPLACEHOLDER
  5
F
102
{ACAD_REACTORS
330
E
102
}
  0
MLINESTYLE
  5
18
102
{ACAD_REACTORS
330
17
102
}
100
AcDbMlineStyle
  2
STANDARD
 70
0
  3

 62
256
 51
90.0
 52
90.0
 71
2
 49
0.5
 62
256
  6
BYLAYER
 49
-0.5
 62
256
  6
BYLAYER
  0
LAYOUT
  5
45E
102
{ACAD_REACTORS
330
1A
102
}
100
AcDbPlotSettings
  1

  2
none_device
  4
ISO_A3_(420.00_x_297.00_MM)
  6

 40
0.0
 41
0.0
 42
0.0
 43
0.0
 44
420.0
 45
297.0
 46
0.0
 47
0.0
 48
0.0
 49
0.0
140
0.0
141
0.0
142
1.0
143
1.0
 70
1024
 72
1
 73
0
 74
0
  7

 75
0
147
1.0
148
0.0
149
0.0
100
AcDbLayout
  1
Model
 70
0
 71
0
 10
0.0
 20
0.0
 11
420.0
 21
297.0
 12
0.0
 22
0.0
 32
0.0
 14
0.0
 24
0.0
 34
0.0
 15
0.0
 25
0.0
 35
0.0
146
0.0
 13
0.0
 23
0.0
 33
0.0
 16
1.0
 26
0.0
 36
0.0
 17
0.0
 27
1.0
 37
0.0
 76
0
330
24A
345
0
346
0
  0
LAYOUT
  5
45F
102
{ACAD_REACTORS
330
1A
102
}
100
AcDbPlotSettings
  1

  2
none_device
  4
ISO_A3_(420.00_x_297.00_MM)
  6

 40
0.0
 41
0.0
 42
0.0
 43
0.0
 44
420.0
 45
297.0
 46
0.0
 47
0.0
 48
0.0
 49
0.0
140
0.0
141
0.0
142
1.0
143
1.0
 70
0
 72
1
 73
0
 74
0
  7

 75
0
147
1.0
148
0.0
149
0.0
100
AcDbLayout
  1
Layout1
 70
0
 71
1
 10
0.0
 20
0.0
 11
420.0
 21
297.0
 12
0.0
 22
0.0
 32
0.0
 14
0.0
 24
0.0
 34
0.0
 15
0.0
 25
0.0
 35
0.0
146
0.0
 13
0.0
 23
0.0
 33
0.0
 16
1.0
 26
0.0
 36
0.0
 17
0.0
 27
1.0
 37
0.0
 76
0
330
24B
345
0
346
0
  0
ENDSEC
  0
EOF
