  0
SECTION
  2
HEADER
  9
$ACADVER
  1
AC1024
  9
$DWGCODEPAGE
  3
ANSI_1252
  9
$EXTMAX
 10
297.0
 20
210.0
 30
0.0
  9
$EXTMIN
 10
0.0
 20
0.0
 30
0.0
  9
$LIMMIN
 10
0.0
 20
0.0
  9
$LIMMAX
 10
297.0
 20
210.0
  9
$VIEWCTR
 10
148.5
 20
105.0
  9
$VIEWSIZE
 40
210.0
  9
$CLAYER
  8
0
  9
$LTSCALE
 40
16.335
  9
$CELTYPE
  6
BYLAYER
  9
$DIMSCALE
 40
1.0
  9
$DIMASZ
 40
3.0
  9
$DIMEXO
 40
0.5
  9
$DIMDLI
 40
11.286
  9
$DIMEXE
 40
1.5
  9
$DIMCEN
 40
2.673
  9
$DIMLFAC
 40
1.0
  9
$DIMBLK
  1
_FILLED
  9
$DIMALT
 70
0
  9
$DIMALTF
 40
0.0393700787
  9
$DIMTXT
 40
3.0
  9
$DIMTOL
 70
1
  9
$DIMLIM
 70
0
  9
$DIMTFAC
 40
1.0
  9
$DIMTP
 40
0.01
  9
$DIMTM
 40
0.01
  9
$DIMGAP
 40
0.625
  9
$DIMDSEP
 70
44
  9
$AUNITS
 70
0
  9
$PDMODE
 70
3
  9
$PDSIZE
 40
3.0
  9
$HANDSEED
  5
3F3
  9
$TILEMODE
 70
1
  9
$MEASUREMENT
 70
1
  9
$INSUNITS
 70
4
  0
ENDSEC
  0
SECTION
  2
CLASSES
  0
CLASS
  1
ACDBDICTIONARYWDFLT
  2
AcDbDictionaryWithDefault
  3
AutoCAD 2000
 90
0
 91
1
280
0
281
0
  0
CLASS
  1
ACDBPLACEHOLDER
  2
AcDbPlaceHolder
  3
AutoCAD 2000
 90
0
 91
1
280
0
281
0
  0
CLASS
  1
LAYOUT
  2
AcDbLayout
  3
AutoCAD 2000
 90
0
 91
0
280
0
281
0
  0
ENDSEC
  0
SECTION
  2
TABLES
  0
TABLE
  2
VPORT
  5
8
100
AcDbSymbolTable
 70
2
  0
VPORT
  5
1F4
100
AcDbSymbolTableRecord
100
AcDbViewportTableRecord
  2
*ACTIVE
 70
0
 10
0.0
 20
0.0
 11
1.0
 21
1.0
 12
148.5
 22
105.0
 13
0.0
 23
0.0
 14
1.0
 24
1.0
 15
0.0
 25
0.0
 16
0.0
 26
0.0
 36
1.0
 17
0.0
 27
0.0
 37
0.0
 40
210.0
 41
1.4142857143
 42
50.0
 43
0.0
 44
0.0
 50
0.0
 51
0.0
 71
0
 72
100
 73
1
 74
1
 75
0
 76
0
 77
0
 78
0
  0
ENDTAB
  0
TABLE
  2
LTYPE
  5
5
100
AcDbSymbolTable
 70
6
  0
LTYPE
  5
14
100
AcDbSymbolTableRecord
100
AcDbLinetypeTableRecord
  2
BYBLOCK
 70
0
  3

 72
65
 73
0
 40
0.0
  0
LTYPE
  5
15
100
AcDbSymbolTableRecord
100
AcDbLinetypeTableRecord
  2
BYLAYER
 70
0
  3

 72
65
 73
0
 40
0.0
  0
LTYPE
  5
16
100
AcDbSymbolTableRecord
100
AcDbLinetypeTableRecord
  2
CONTINUOUS
 70
64
  3
Solid line
 72
65
 73
0
 40
0.0
  0
LTYPE
  5
1F5
100
AcDbSymbolTableRecord
100
AcDbLinetypeTableRecord
  2
CENTER
 70
64
  3
____ _ ____ _ ____ _ ____ _ ____ _ ____ _ ____
 72
65
 73
4
 40
0.6
 49
0.375
 74
0
 49
-0.075
 74
0
 49
0.075
 74
0
 49
-0.075
 74
0
  0
LTYPE
  5
1F6
100
AcDbSymbolTableRecord
100
AcDbLinetypeTableRecord
  2
HIDDEN
 70
64
  3
- - - - - - - - - - - - - - - - - - - -
 72
65
 73
2
 40
0.2
 49
0.1
 74
0
 49
-0.1
 74
0
  0
LTYPE
  5
1F7
100
AcDbSymbolTableRecord
100
AcDbLinetypeTableRecord
  2
PHANTOM
 70
64
  3
_____ _ _ _____ _ _ _____ _ _ _____
 72
65
 73
6
 40
0.8
 49
0.45
 74
0
 49
-0.05
 74
0
 49
0.1
 74
0
 49
-0.05
 74
0
 49
0.1
 74
0
 49
-0.05
 74
0
  0
LTYPE
  5
1F8
100
AcDbSymbolTableRecord
100
AcDbLinetypeTableRecord
  2
DOT
 70
64
  3
. . . . . . . . . . . . . . . . . . . .
 72
65
 73
2
 40
0.2
 49
0.1
 74
0
 49
-0.1
 74
0
  0
LTYPE
  5
1F9
100
AcDbSymbolTableRecord
100
AcDbLinetypeTableRecord
  2
DASHED
 70
64
  3
- - - - - - - - - - - - - - - - - - - -
 72
65
 73
2
 40
0.2
 49
0.1
 74
0
 49
-0.1
 74
0
  0
ENDTAB
  0
TABLE
  2
LAYER
  5
2
100
AcDbSymbolTable
 70
36
  0
LAYER
  5
10
100
AcDbSymbolTableRecord
100
AcDbLayerTableRecord
  2
0
 70
0
 62
7
  6
CONTINUOUS
370
-3
390
F
  0
LAYER
  5
1FA
100
AcDbSymbolTableRecord
100
AcDbLayerTableRecord
  2
DEFAULT_1
 70
0
 62
7
  6
CENTER
370
-3
390
F
  0
LAYER
  5
1FB
100
AcDbSymbolTableRecord
100
AcDbLayerTableRecord
  2
DEFAULT_2
 70
0
 62
7
  6
HIDDEN
370
-3
390
F
  0
LAYER
  5
1FC
100
AcDbSymbolTableRecord
100
AcDbLayerTableRecord
  2
DEFAULT_3
 70
0
 62
7
  6
PHANTOM
370
-3
390
F
  0
LAYER
  5
1FD
100
AcDbSymbolTableRecord
100
AcDbLayerTableRecord
  2
ASSI
 70
0
 62
7
  6
CONTINUOUS
370
-3
390
F
  0
LAYER
  5
1FE
100
AcDbSymbolTableRecord
100
AcDbLayerTableRecord
  2
COORDINATE
 70
0
 62
7
  6
CONTINUOUS
370
-3
390
F
  0
LAYER
  5
1FF
100
AcDbSymbolTableRecord
100
AcDbLayerTableRecord
  2
COORD_ORIGINE
 70
0
 62
7
  6
CONTINUOUS
370
-3
390
F
  0
LAYER
  5
200
100
AcDbSymbolTableRecord
100
AcDbLayerTableRecord
  2
COPY_PUBLISH
 70
0
 62
7
  6
CONTINUOUS
370
-3
390
F
  0
LAYER
  5
201
100
AcDbSymbolTableRecord
100
AcDbLayerTableRecord
  2
COSMETIC
 70
0
 62
7
  6
CONTINUOUS
370
-3
390
F
  0
LAYER
  5
202
100
AcDbSymbolTableRecord
100
AcDbLayerTableRecord
  2
CURVE
 70
0
 62
7
  6
CONTINUOUS
370
-3
390
F
  0
LAYER
  5
203
100
AcDbSymbolTableRecord
100
AcDbLayerTableRecord
  2
DRAFT
 70
0
 62
7
  6
CONTINUOUS
370
-3
390
F
  0
LAYER
  5
204
100
AcDbSymbolTableRecord
100
AcDbLayerTableRecord
  2
IMPORT_IGES
 70
0
 62
7
  6
CONTINUOUS
370
-3
390
F
  0
LAYER
  5
205
100
AcDbSymbolTableRecord
100
AcDbLayerTableRecord
  2
INTF_1
 70
0
 62
7
  6
CONTINUOUS
370
-3
390
F
  0
LAYER
  5
206
100
AcDbSymbolTableRecord
100
AcDbLayerTableRecord
  2
NOTE
 70
0
 62
7
  6
CONTINUOUS
370
-3
390
F
  0
LAYER
  5
207
100
AcDbSymbolTableRecord
100
AcDbLayerTableRecord
  2
PIANI
 70
0
 62
7
  6
CONTINUOUS
370
-3
390
F
  0
LAYER
  5
208
100
AcDbSymbolTableRecord
100
AcDbLayerTableRecord
  2
PIANI_ORIGINE
 70
0
 62
7
  6
CONTINUOUS
370
-3
390
F
  0
LAYER
  5
209
100
AcDbSymbolTableRecord
100
AcDbLayerTableRecord
  2
PUNTI
 70
0
 62
7
  6
CONTINUOUS
370
-3
390
F
  0
LAYER
  5
20A
100
AcDbSymbolTableRecord
100
AcDbLayerTableRecord
  2
RACCORDO
 70
0
 62
7
  6
CONTINUOUS
370
-3
390
F
  0
LAYER
  5
20B
100
AcDbSymbolTableRecord
100
AcDbLayerTableRecord
  2
SCRITTE
 70
0
 62
7
  6
CONTINUOUS
370
-3
390
F
  0
LAYER
  5
20C
100
AcDbSymbolTableRecord
100
AcDbLayerTableRecord
  2
SMUSSO
 70
0
 62
7
  6
CONTINUOUS
370
-3
390
F
  0
LAYER
  5
20D
100
AcDbSymbolTableRecord
100
AcDbLayerTableRecord
  2
SNAPLINE
 70
0
 62
7
  6
CONTINUOUS
370
-3
390
F
  0
LAYER
  5
20E
100
AcDbSymbolTableRecord
100
AcDbLayerTableRecord
  2
SUPERFICI
 70
0
 62
7
  6
CONTINUOUS
370
-3
390
F
  0
LAYER
  5
20F
100
AcDbSymbolTableRecord
100
AcDbLayerTableRecord
  2
TRASH
 70
0
 62
7
  6
CONTINUOUS
370
-3
390
F
  0
LAYER
  5
210
100
AcDbSymbolTableRecord
100
AcDbLayerTableRecord
  2
XSEC_DATUMS
 70
0
 62
7
  6
CONTINUOUS
370
-3
390
F
  0
ENDTAB
  0
TABLE
  2
STYLE
  5
3
100
AcDbSymbolTable
 70
1
  0
STYLE
  5
11
100
AcDbSymbolTableRecord
100
AcDbTextStyleTableRecord
  2
STANDARD
 70
0
 40
0.0
 41
0.8
 50
0.0
 71
0
 42
0.2
  3
txt
  4

  0
STYLE
  5
211
100
AcDbSymbolTableRecord
100
AcDbTextStyleTableRecord
  2
TEXTSTYLE_1
 70
0
 40
0.0
 41
0.8
 50
0.0
 71
0
 42
0.2
  3
gdt
  4

  0
ENDTAB
  0
TABLE
  2
VIEW
  5
6
100
AcDbSymbolTable
 70
0
  0
ENDTAB
  0
TABLE
  2
UCS
  5
7
100
AcDbSymbolTable
 70
0
  0
ENDTAB
  0
TABLE
  2
APPID
  5
9
100
AcDbSymbolTable
 70
1
  0
APPID
  5
212
100
AcDbSymbolTableRecord
100
AcDbRegAppTableRecord
  2
ACAD
 70
0
  0
ENDTAB
  0
TABLE
  2
BLOCK_RECORD
  5
1
100
AcDbSymbolTable
 70
0
  0
BLOCK_RECORD
  5
213
100
AcDbSymbolTableRecord
100
AcDbBlockTableRecord
  2
*Model_Space
  0
BLOCK_RECORD
  5
214
100
AcDbSymbolTableRecord
100
AcDbBlockTableRecord
  2
*Paper_Space
  0
BLOCK_RECORD
  5
215
100
AcDbSymbolTableRecord
100
AcDbBlockTableRecord
  2
_FILLED
  0
ENDTAB
  0
TABLE
  2
DIMSTYLE
  5
A
100
AcDbSymbolTable
 70
1
100
AcDbDimStyleTable
 71
0
  0
DIMSTYLE
105
216
100
AcDbSymbolTableRecord
100
AcDbDimStyleTableRecord
  2
STANDARD
 70
0
  3

  4

 40
1.0
 41
3.0
 42
0.5
 43
0.38
 44
1.5
 45
0.0
 46
0.0
 47
0.01
 48
0.01
140
3.0
141
0.09
142
0.0
143
25.4
144
1.0
145
0.0
146
1.0
147
0.625
 71
1.0
 72
0.0
 73
0
 74
0
 75
0
 76
0
 77
1
 78
8
 79
2
170
0
171
1
172
0
173
0
174
0
175
0
176
0
177
0
178
0
270
2
179
2
271
2
272
2
273
2
274
2
275
0
280
0
281
0
282
0
283
1
284
8
285
0
286
0
287
3
288
0
340
11
278
44
341
215
342
215
343
215
344
215
  0
ENDTAB
  0
ENDSEC
  0
SECTION
  2
BLOCKS
  0
BLOCK
  5
20
100
AcDbEntity
  8
0
100
AcDbBlockBegin
  2
*Model_Space
 70
0
 10
0.0
 20
0.0
 30
0.0
  3
*Model_Space
  1

  0
ENDBLK
  5
21
100
AcDbEntity
  8
0
100
AcDbBlockEnd
  0
BLOCK
  5
1C
100
AcDbEntity
  8
0
100
AcDbBlockBegin
  2
*Paper_Space
 70
0
 10
0.0
 20
0.0
 30
0.0
  3
*Paper_Space
  1

  0
ENDBLK
  5
1D
100
AcDbEntity
  8
0
100
AcDbBlockEnd
  0
BLOCK
  5
217
100
AcDbEntity
  8
0
100
AcDbBlockBegin
  2
_FILLED
 70
64
 10
0.0
 20
0.0
  3
_FILLED
  1

  0
SOLID
  5
218
100
AcDbEntity
  8
0
  6
BYBLOCK
 62
0
100
AcDbTrace
 10
0.0
 20
0.0
 11
-1.0
 21
0.3166666667
 12
-1.0
 22
-0.3166666667
 13
-1.0
 23
-0.3166666667
  0
ENDBLK
  5
219
100
AcDbEntity
  8
0
  6
BYBLOCK
 62
0
100
AcDbBlockEnd
  0
ENDSEC
  0
SECTION
  2
ENTITIES
  0
LINE
  5
21A
100
AcDbEntity
  8
RACCORDO
100
AcDbLine
 62
7
  6
CONTINUOUS
 10
-5.38037688
 20
-13.6700010131
 11
2.33962312
 21
-13.6700010131
  0
LINE
  5
21B
100
AcDbEntity
  8
ASSI
100
AcDbLine
 62
7
  6
CONTINUOUS
 10
-5.38037688
 20
-13.6700010131
 11
2.33962312
 21
-13.6700010131
  0
LINE
  5
21C
100
AcDbEntity
  8
RACCORDO
100
AcDbLine
 62
250
  6
CONTINUOUS
 10
3.13962312
 20
-12.8700010131
 11
-6.18037688
 21
-12.8700010131
  0
LINE
  5
21D
100
AcDbEntity
  8
ASSI
100
AcDbLine
 62
250
  6
CONTINUOUS
 10
3.13962312
 20
-12.8700010131
 11
-6.18037688
 21
-12.8700010131
  0
LINE
  5
21E
100
AcDbEntity
  8
ASSI
100
AcDbLine
 62
7
  6
CONTINUOUS
 10
2.33962312
 20
-12.6896162554
 11
-5.38037688
 21
-12.6896162554
  0
LWPOLYLINE
  5
21F
100
AcDbEntity
  8
ASSI
100
AcDbPolyline
 62
7
  6
CONTINUOUS
 90
55
 70
0
 10
-5.38037688
 20
-12.6896162554
 10
-5.4085473237
 20
-12.6893622429
 10
-5.4367137621
 20
-12.6884931353
 10
-5.4648410091
 20
-12.6870089324
 10
-5.4929639907
 20
-12.6849299085
 10
-5.5209762256
 20
-12.6822357893
 10
-5.5486338453
 20
-12.6788657523
 10
-5.5758698396
 20
-12.6748305022
 10
-5.6026921874
 20
-12.6701193342
 10
-5.6289781148
 20
-12.6646393113
 10
-5.6546098386
 20
-12.6584445686
 10
-5.6796646948
 20
-12.6514809709
 10
-5.7043111305
 20
-12.6434931765
 10
-5.7285121886
 20
-12.6345745496
 10
-5.7522570735
 20
-12.624631726
 10
-5.7757363955
 20
-12.6131292704
 10
-5.7990393659
 20
-12.6001417398
 10
-5.8220023395
 20
-12.5855945772
 10
-5.8444352141
 20
-12.5687286769
 10
-5.8664975795
 20
-12.5495283589
 10
-5.8879714295
 20
-12.5280093031
 10
-5.9081679589
 20
-12.5034594443
 10
-5.9273083829
 20
-12.4755203557
 10
-5.9452357747
 20
-12.444550464
 10
-5.9608602496
 20
-12.4109129841
 10
-5.9742125484
 20
-12.3742955241
 10
-5.9855390116
 20
-12.3350104759
 10
-5.9942184977
 20
-12.2943582302
 10
-6.0002060733
 20
-12.2522740027
 10
-6.0037919579
 20
-12.2088225777
 10
-6.0048631546
 20
-12.1654986989
 10
-6.0033348823
 20
-12.1224384974
 10
-5.9992833442
 20
-12.079505842
 10
-5.9927771749
 20
-12.0377870833
 10
-5.9836068919
 20
-11.9972939192
 10
-5.9717209881
 20
-11.9580146517
 10
-5.9574080942
 20
-11.9210005373
 10
-5.9403036643
 20
-11.88635485
 10
-5.9204105609
 20
-11.8539743157
 10
-5.8986857699
 20
-11.8246003695
 10
-5.8753905803
 20
-11.798739443
 10
-5.8501208137
 20
-11.7758851044
 10
-5.8229614344
 20
-11.7552594937
 10
-5.7938606267
 20
-11.736725656
 10
-5.7627772236
 20
-11.7204205461
 10
-5.7298531679
 20
-11.705977169
 10
-5.6949249663
 20
-11.6933434423
 10
-5.6581531541
 20
-11.6825714483
 10
-5.6202376953
 20
-11.6734504397
 10
-5.5812764464
 20
-11.6660060123
 10
-5.5413236038
 20
-11.6602125702
 10
-5.50108647
 20
-11.6557825786
 10
-5.4608815839
 20
-11.6526201923
 10
-5.4206103077
 20
-11.6508212564
 10
-5.38037688
 20
-11.6503857708
  0
LINE
  5
220
100
AcDbEntity
  8
ASSI
100
AcDbLine
 62
7
  6
CONTINUOUS
 10
2.33962312
 20
-11.6503857708
 11
-5.38037688
 21
-11.6503857708
  0
LWPOLYLINE
  5
221
100
AcDbEntity
  8
ASSI
100
AcDbPolyline
 62
7
  6
CONTINUOUS
 90
55
 70
0
 10
2.33962312
 20
-11.6503857708
 10
2.3675541708
 20
-11.6506359881
 10
2.3954817674
 20
-11.6514902467
 10
2.4233716132
 20
-11.6529485466
 10
2.4512570476
 20
-11.6549911142
 10
2.4790350024
 20
-11.657637723
 10
2.5064698145
 20
-11.6609476939
 10
2.5334967571
 20
-11.6649106003
 10
2.5601226802
 20
-11.6695368688
 10
2.5862274833
 20
-11.6749171001
 10
2.6116981066
 20
-11.6810001096
 10
2.6366074423
 20
-11.6878370819
 10
2.6611131497
 20
-11.6956721715
 10
2.6851793093
 20
-11.7044181067
 10
2.7087952528
 20
-11.7141621592
 10
2.7321407368
 20
-11.7254102986
 10
2.7552989899
 20
-11.7380940644
 10
2.7781157524
 20
-11.752281917
 10
2.8004131347
 20
-11.7686852079
 10
2.8223311126
 20
-11.7873042796
 10
2.8436740807
 20
-11.8081387896
 10
2.8638207972
 20
-11.8318990619
 10
2.8829850897
 20
-11.8588907206
 10
2.901005211
 20
-11.8888081416
 10
2.9168486391
 20
-11.9214447767
 10
2.9305722464
 20
-11.9571519672
 10
2.9423735557
 20
-11.9955783718
 10
2.9515777118
 20
-12.0354634176
 10
2.9581363003
 20
-12.0768835797
 10
2.9623504975
 20
-12.1197623831
 10
2.9640864668
 20
-12.1626098294
 10
2.9633013379
 20
-12.2051908719
 10
2.9600554127
 20
-12.2477405574
 10
2.9543104383
 20
-12.2894740272
 10
2.9458281775
 20
-12.3306080379
 10
2.9345989695
 20
-12.370925833
 10
2.9209001015
 20
-12.4089922852
 10
2.9043672406
 20
-12.4445906261
 10
2.8849946464
 20
-12.4779376241
 10
2.8637063255
 20
-12.5082484571
 10
2.8407469351
 20
-12.5350064342
 10
2.8157053252
 20
-12.5587282463
 10
2.7886440505
 20
-12.5801791442
 10
2.7594759465
 20
-12.5995060612
 10
2.7281688047
 20
-12.616562064
 10
2.6949138166
 20
-12.6316716024
 10
2.6595434492
 20
-12.6448715905
 10
2.6222125746
 20
-12.6561251143
 10
2.5836799152
 20
-12.6656458812
 10
2.5440543196
 20
-12.6734011917
 10
2.5033861691
 20
-12.6794237453
 10
2.4624277291
 20
-12.684025348
 10
2.4215156805
 20
-12.6873099348
 10
2.3805441515
 20
-12.6891735706
 10
2.33962312
 20
-12.6896162554
  0
LWPOLYLINE
  5
222
100
AcDbEntity
  8
ASSI
100
AcDbPolyline
 62
7
  6
CONTINUOUS
 90
55
 70
0
 10
-5.38037688
 20
-10.8896162554
 10
-5.4085473237
 20
-10.8893622429
 10
-5.4367137621
 20
-10.8884931353
 10
-5.4648410091
 20
-10.8870089324
 10
-5.4929639907
 20
-10.8849299085
 10
-5.5209762256
 20
-10.8822357893
 10
-5.5486338453
 20
-10.8788657523
 10
-5.5758698396
 20
-10.8748305022
 10
-5.6026921874
 20
-10.8701193342
 10
-5.6289781148
 20
-10.8646393113
 10
-5.6546098386
 20
-10.8584445686
 10
-5.6796646948
 20
-10.8514809709
 10
-5.7043111305
 20
-10.8434931765
 10
-5.7285121886
 20
-10.8345745496
 10
-5.7522570735
 20
-10.824631726
 10
-5.7757363955
 20
-10.8131292704
 10
-5.7990393659
 20
-10.8001417398
 10
-5.8220023395
 20
-10.7855945772
 10
-5.8444352141
 20
-10.7687286769
 10
-5.8664975795
 20
-10.7495283589
 10
-5.8879714295
 20
-10.7280093031
 10
-5.9081679589
 20
-10.7034594443
 10
-5.9273083829
 20
-10.6755203557
 10
-5.9452357747
 20
-10.644550464
 10
-5.9608602496
 20
-10.6109129841
 10
-5.9742125484
 20
-10.5742955241
 10
-5.9855390116
 20
-10.5350104759
 10
-5.9942184977
 20
-10.4943582302
 10
-6.0002060733
 20
-10.4522740027
 10
-6.0037919579
 20
-10.4088225777
 10
-6.0048631546
 20
-10.3654986989
 10
-6.0033348823
 20
-10.3224384974
 10
-5.9992833442
 20
-10.279505842
 10
-5.9927771749
 20
-10.2377870833
 10
-5.9836068919
 20
-10.1972939192
 10
-5.9717209881
 20
-10.1580146517
 10
-5.9574080942
 20
-10.1210005373
 10
-5.9403036643
 20
-10.08635485
 10
-5.9204105609
 20
-10.0539743157
 10
-5.8986857699
 20
-10.0246003695
 10
-5.8753905803
 20
-9.998739443
 10
-5.8501208137
 20
-9.9758851044
 10
-5.8229614344
 20
-9.9552594937
 10
-5.7938606267
 20
-9.936725656
 10
-5.7627772236
 20
-9.9204205461
 10
-5.7298531679
 20
-9.905977169
 10
-5.6949249663
 20
-9.8933434423
 10
-5.6581531541
 20
-9.8825714483
 10
-5.6202376953
 20
-9.8734504397
 10
-5.5812764464
 20
-9.8660060123
 10
-5.5413236038
 20
-9.8602125702
 10
-5.50108647
 20
-9.8557825786
 10
-5.4608815839
 20
-9.8526201923
 10
-5.4206103077
 20
-9.8508212564
 10
-5.38037688
 20
-9.8503857708
  0
LINE
  5
223
100
AcDbEntity
  8
ASSI
100
AcDbLine
 62
7
  6
CONTINUOUS
 10
2.33962312
 20
-10.8896162554
 11
-5.38037688
 21
-10.8896162554
  0
LINE
  5
224
100
AcDbEntity
  8
ASSI
100
AcDbLine
 62
7
  6
CONTINUOUS
 10
2.33962312
 20
-9.8503857708
 11
-5.38037688
 21
-9.8503857708
  0
LINE
  5
225
100
AcDbEntity
  8
ASSI
100
AcDbLine
 62
7
  6
CONTINUOUS
 10
2.33962312
 20
-9.0896162554
 11
-5.38037688
 21
-9.0896162554
  0
LWPOLYLINE
  5
226
100
AcDbEntity
  8
ASSI
100
AcDbPolyline
 62
7
  6
CONTINUOUS
 90
55
 70
0
 10
-5.38037688
 20
-9.0896162554
 10
-5.4085473237
 20
-9.0893622429
 10
-5.4367137621
 20
-9.0884931353
 10
-5.4648410091
 20
-9.0870089324
 10
-5.4929639907
 20
-9.0849299085
 10
-5.5209762256
 20
-9.0822357893
 10
-5.5486338453
 20
-9.0788657523
 10
-5.5758698396
 20
-9.0748305022
 10
-5.6026921874
 20
-9.0701193342
 10
-5.6289781148
 20
-9.0646393113
 10
-5.6546098386
 20
-9.0584445686
 10
-5.6796646948
 20
-9.0514809709
 10
-5.7043111305
 20
-9.0434931765
 10
-5.7285121886
 20
-9.0345745496
 10
-5.7522570735
 20
-9.024631726
 10
-5.7757363955
 20
-9.0131292704
 10
-5.7990393659
 20
-9.0001417398
 10
-5.8220023395
 20
-8.9855945772
 10
-5.8444352141
 20
-8.9687286769
 10
-5.8664975795
 20
-8.9495283589
 10
-5.8879714295
 20
-8.9280093031
 10
-5.9081679589
 20
-8.9034594443
 10
-5.9273083829
 20
-8.8755203557
 10
-5.9452357747
 20
-8.844550464
 10
-5.9608602496
 20
-8.8109129841
 10
-5.9742125484
 20
-8.7742955241
 10
-5.9855390116
 20
-8.7350104759
 10
-5.9942184977
 20
-8.6943582302
 10
-6.0002060733
 20
-8.6522740027
 10
-6.0037919579
 20
-8.6088225777
 10
-6.0048631546
 20
-8.5654986989
 10
-6.0033348823
 20
-8.5224384974
 10
-5.9992833442
 20
-8.479505842
 10
-5.9927771749
 20
-8.4377870833
 10
-5.9836068919
 20
-8.3972939192
 10
-5.9717209881
 20
-8.3580146517
 10
-5.9574080942
 20
-8.3210005373
 10
-5.9403036643
 20
-8.28635485
 10
-5.9204105609
 20
-8.2539743157
 10
-5.8986857699
 20
-8.2246003695
 10
-5.8753905803
 20
-8.198739443
 10
-5.8501208137
 20
-8.1758851044
 10
-5.8229614344
 20
-8.1552594937
 10
-5.7938606267
 20
-8.136725656
 10
-5.7627772236
 20
-8.1204205461
 10
-5.7298531679
 20
-8.105977169
 10
-5.6949249663
 20
-8.0933434423
 10
-5.6581531541
 20
-8.0825714483
 10
-5.6202376953
 20
-8.0734504397
 10
-5.5812764464
 20
-8.0660060123
 10
-5.5413236038
 20
-8.0602125702
 10
-5.50108647
 20
-8.0557825786
 10
-5.4608815839
 20
-8.0526201923
 10
-5.4206103077
 20
-8.0508212564
 10
-5.38037688
 20
-8.0503857708
  0
LWPOLYLINE
  5
227
100
AcDbEntity
  8
ASSI
100
AcDbPolyline
 62
7
  6
CONTINUOUS
 90
55
 70
0
 10
2.33962312
 20
-9.8503857708
 10
2.3682842471
 20
-9.8506479662
 10
2.3969371544
 20
-9.8515477285
 10
2.4255448137
 20
-9.8530850577
 10
2.4541434366
 20
-9.8552384276
 10
2.4826215668
 20
-9.8580293645
 10
2.5107244257
 20
-9.8615224473
 10
2.5383765641
 20
-9.8657044255
 10
2.5655919959
 20
-9.8705885496
 10
2.5922589965
 20
-9.8762791506
 10
2.6182536711
 20
-9.8827144301
 10
2.6436573333
 20
-9.8899561864
 10
2.668663152
 20
-9.8982941457
 10
2.6932518183
 20
-9.9076334675
 10
2.7173891174
 20
-9.9180689923
 10
2.7412286507
 20
-9.930174967
 10
2.7648700334
 20
-9.9438803792
 10
2.7881358431
 20
-9.9592562412
 10
2.8107692402
 20
-9.9770898378
 10
2.8329393145
 20
-9.9974128998
 10
2.8544272557
 20
-10.0201936962
 10
2.8744763083
 20
-10.0461243194
 10
2.8933108739
 20
-10.0756021457
 10
2.9107992861
 20
-10.1082297987
 10
2.925829283
 20
-10.1435072415
 10
2.9384209415
 20
-10.1817816479
 10
2.9488569913
 20
-10.2227058441
 10
2.9565572358
 20
-10.2647382718
 10
2.9614625299
 20
-10.307808075
 10
2.9638590051
 20
-10.3519861096
 10
2.9636732653
 20
-10.3959433857
 10
2.9608354186
 20
-10.4395877668
 10
2.9553571866
 20
-10.4830113894
 10
2.947220003
 20
-10.5251616722
 10
2.936047775
 20
-10.5662195135
 10
2.9218791904
 20
-10.606004015
 10
2.9053302681
 20
-10.6429199012
 10
2.8860965586
 20
-10.6765505391
 10
2.8641356693
 20
-10.7073125616
 10
2.8406410796
 20
-10.7348605921
 10
2.8159845631
 20
-10.7587426213
 10
2.7897391717
 20
-10.7794106584
 10
2.7620525619
 20
-10.7978753543
 10
2.7329795106
 20
-10.8142922022
 10
2.7024568279
 20
-10.8285057088
 10
2.6704802261
 20
-10.8410600453
 10
2.6369153493
 20
-10.8520560389
 10
2.6019288281
 20
-10.8613928623
 10
2.5660044485
 20
-10.8693122043
 10
2.5292149069
 20
-10.8758178971
 10
2.4916204629
 20
-10.8809061086
 10
2.4537314304
 20
-10.8848070309
 10
2.4157824512
 20
-10.8875973948
 10
2.3777172774
 20
-10.8892004697
 10
2.33962312
 20
-10.8896162554
  0
LINE
  5
228
100
AcDbEntity
  8
ASSI
100
AcDbLine
 62
7
  6
CONTINUOUS
 10
2.33962312
 20
-8.0503857708
 11
-5.38037688
 21
-8.0503857708
  0
LWPOLYLINE
  5
229
100
AcDbEntity
  8
ASSI
100
AcDbPolyline
 62
7
  6
CONTINUOUS
 90
55
 70
0
 10
2.33962312
 20
-8.0503857708
 10
2.3682842471
 20
-8.0506479662
 10
2.3969371544
 20
-8.0515477285
 10
2.4255448137
 20
-8.0530850577
 10
2.4541434366
 20
-8.0552384276
 10
2.4826215668
 20
-8.0580293645
 10
2.5107244257
 20
-8.0615224473
 10
2.5383765641
 20
-8.0657044255
 10
2.5655919959
 20
-8.0705885496
 10
2.5922589965
 20
-8.0762791506
 10
2.6182536711
 20
-8.0827144301
 10
2.6436573333
 20
-8.0899561864
 10
2.668663152
 20
-8.0982941457
 10
2.6932518183
 20
-8.1076334675
 10
2.7173891174
 20
-8.1180689923
 10
2.7412286507
 20
-8.130174967
 10
2.7648700334
 20
-8.1438803792
 10
2.7881358431
 20
-8.1592562412
 10
2.8107692402
 20
-8.1770898378
 10
2.8329393145
 20
-8.1974128998
 10
2.8544272557
 20
-8.2201936962
 10
2.8744763083
 20
-8.2461243194
 10
2.8933108739
 20
-8.2756021457
 10
2.9107992861
 20
-8.3082297987
 10
2.925829283
 20
-8.3435072415
 10
2.9384209415
 20
-8.3817816479
 10
2.9488569913
 20
-8.4227058441
 10
2.9565572358
 20
-8.4647382718
 10
2.9614625299
 20
-8.507808075
 10
2.9638590051
 20
-8.5519861096
 10
2.9636732653
 20
-8.5959433857
 10
2.9608354186
 20
-8.6395877668
 10
2.9553571866
 20
-8.6830113894
 10
2.947220003
 20
-8.7251616722
 10
2.936047775
 20
-8.7662195135
 10
2.9218791904
 20
-8.806004015
 10
2.9053302681
 20
-8.8429199012
 10
2.8860965586
 20
-8.8765505391
 10
2.8641356693
 20
-8.9073125616
 10
2.8406410796
 20
-8.9348605921
 10
2.8159845631
 20
-8.9587426213
 10
2.7897391717
 20
-8.9794106584
 10
2.7620525619
 20
-8.9978753543
 10
2.7329795106
 20
-9.0142922022
 10
2.7024568279
 20
-9.0285057088
 10
2.6704802261
 20
-9.0410600453
 10
2.6369153493
 20
-9.0520560389
 10
2.6019288281
 20
-9.0613928623
 10
2.5660044485
 20
-9.0693122043
 10
2.5292149069
 20
-9.0758178971
 10
2.4916204629
 20
-9.0809061086
 10
2.4537314304
 20
-9.0848070309
 10
2.4157824512
 20
-9.0875973948
 10
2.3777172774
 20
-9.0892004697
 10
2.33962312
 20
-9.0896162554
  0
LINE
  5
22A
100
AcDbEntity
  8
CURVE
100
AcDbLine
 62
250
  6
CONTINUOUS
 10
-3.36356088
 20
-7.6699490131
 11
-3.72037688
 21
-7.6699490131
  0
LINE
  5
22B
100
AcDbEntity
  8
0
100
AcDbLine
 62
250
  6
CONTINUOUS
 10
-3.36356088
 20
-7.6699490131
 11
-3.72037688
 21
-7.6699490131
  0
LINE
  5
22C
100
AcDbEntity
  8
CURVE
100
AcDbLine
 62
250
  6
CONTINUOUS
 10
-3.88556988
 20
-7.2602720131
 11
-3.55518388
 21
-7.2602720131
  0
LINE
  5
22D
100
AcDbEntity
  8
0
100
AcDbLine
 62
250
  6
CONTINUOUS
 10
-3.88556988
 20
-7.2602720131
 11
-3.55518388
 21
-7.2602720131
  0
LINE
  5
22E
100
AcDbEntity
  8
CURVE
100
AcDbLine
 62
250
  6
CONTINUOUS
 10
-4.60772488
 20
-5.4812070131
 11
-3.72037688
 21
-6.1700010131
  0
LINE
  5
22F
100
AcDbEntity
  8
0
100
AcDbLine
 62
250
  6
CONTINUOUS
 10
-4.60772488
 20
-5.4812070131
 11
-3.72037688
 21
-6.1700010131
  0
LINE
  5
230
100
AcDbEntity
  8
RACCORDO
100
AcDbLine
 62
7
  6
CONTINUOUS
 10
-6.18037688
 20
10.7299989869
 11
-6.18037688
 21
-12.8700010131
  0
LINE
  5
231
100
AcDbEntity
  8
ASSI
100
AcDbLine
 62
7
  6
CONTINUOUS
 10
-6.18037688
 20
10.7299989869
 11
-6.18037688
 21
-12.8700010131
  0
LINE
  5
232
100
AcDbEntity
  8
CURVE
100
AcDbLine
 62
250
  6
CONTINUOUS
 10
2.11347912
 20
-6.3905890131
 11
1.25436212
 21
-6.3905890131
  0
LINE
  5
233
100
AcDbEntity
  8
0
100
AcDbLine
 62
250
  6
CONTINUOUS
 10
2.11347912
 20
-6.3905890131
 11
1.25436212
 21
-6.3905890131
  0
LINE
  5
234
100
AcDbEntity
  8
ASSI
100
AcDbLine
 62
250
  6
CONTINUOUS
 10
-5.38037688
 20
9.5103837446
 11
-5.38037688
 21
8.7496142292
  0
LINE
  5
235
100
AcDbEntity
  8
ASSI
100
AcDbLine
 62
250
  6
CONTINUOUS
 10
-5.38037688
 20
7.7103837446
 11
-5.38037688
 21
6.9496142292
  0
LINE
  5
236
100
AcDbEntity
  8
ASSI
100
AcDbLine
 62
250
  6
CONTINUOUS
 10
-5.38037688
 20
5.9103837446
 11
-5.38037688
 21
-8.0503857708
  0
LINE
  5
237
100
AcDbEntity
  8
ASSI
100
AcDbLine
 62
250
  6
CONTINUOUS
 10
-5.38037688
 20
-9.0896162554
 11
-5.38037688
 21
-9.8503857708
  0
LINE
  5
238
100
AcDbEntity
  8
ASSI
100
AcDbLine
 62
250
  6
CONTINUOUS
 10
-5.38037688
 20
-10.8896162554
 11
-5.38037688
 21
-11.6503857708
  0
LINE
  5
239
100
AcDbEntity
  8
RACCORDO
100
AcDbLine
 62
250
  6
CONTINUOUS
 10
-5.38037688
 20
-12.8700010131
 11
-5.38037688
 21
-13.6700010131
  0
LINE
  5
23A
100
AcDbEntity
  8
ASSI
100
AcDbLine
 62
250
  6
CONTINUOUS
 10
-5.38037688
 20
-12.6896162554
 11
-5.38037688
 21
-13.6700010131
  0
LINE
  5
23B
100
AcDbEntity
  8
RACCORDO
100
AcDbLine
 62
250
  6
CONTINUOUS
 10
-5.38037688
 20
10.7299989869
 11
-5.38037688
 21
11.5299989869
  0
LINE
  5
23C
100
AcDbEntity
  8
ASSI
100
AcDbLine
 62
250
  6
CONTINUOUS
 10
-5.38037688
 20
10.5496142292
 11
-5.38037688
 21
11.5299989869
  0
LINE
  5
23D
100
AcDbEntity
  8
CURVE
100
AcDbLine
 62
250
  6
CONTINUOUS
 10
-5.02037688
 20
-0.0985724161
 11
-5.02037688
 21
0.1157132854
  0
LINE
  5
23E
100
AcDbEntity
  8
CURVE
100
AcDbLine
 62
250
  6
CONTINUOUS
 10
-4.15206488
 20
4.0274929869
 11
-3.81814288
 21
5.1975609869
  0
LINE
  5
23F
100
AcDbEntity
  8
0
100
AcDbLine
 62
250
  6
CONTINUOUS
 10
-4.15206488
 20
4.0274929869
 11
-3.81814288
 21
5.1975609869
  0
LINE
  5
240
100
AcDbEntity
  8
CURVE
100
AcDbLine
 62
250
  6
CONTINUOUS
 10
-3.46355688
 20
5.1975609869
 11
-4.00996088
 21
3.4976979869
  0
LINE
  5
241
100
AcDbEntity
  8
0
100
AcDbLine
 62
250
  6
CONTINUOUS
 10
-3.46355688
 20
5.1975609869
 11
-4.00996088
 21
3.4976979869
  0
LINE
  5
242
100
AcDbEntity
  8
CURVE
100
AcDbLine
 62
250
  6
CONTINUOUS
 10
-4.5560912679
 20
2.3442847301
 11
-4.4346626911
 21
2.5871418585
  0
LINE
  5
243
100
AcDbEntity
  8
CURVE
100
AcDbLine
 62
250
  6
CONTINUOUS
 10
-5.4489483009
 20
0.3299989869
 11
-5.62037688
 21
0.0085703899
  0
LINE
  5
244
100
AcDbEntity
  8
CURVE
100
AcDbLine
 62
250
  6
CONTINUOUS
 10
-4.4346626911
 20
2.5871418585
 11
-4.19180555
 21
2.8299989869
  0
LINE
  5
245
100
AcDbEntity
  8
CURVE
100
AcDbLine
 62
250
  6
CONTINUOUS
 10
1.25436212
 20
-5.9494130131
 11
2.11347912
 21
-5.9494130131
  0
LINE
  5
246
100
AcDbEntity
  8
0
100
AcDbLine
 62
250
  6
CONTINUOUS
 10
1.25436212
 20
-5.9494130131
 11
2.11347912
 21
-5.9494130131
  0
LINE
  5
247
100
AcDbEntity
  8
CURVE
100
AcDbLine
 62
250
  6
CONTINUOUS
 10
-3.88556988
 20
-5.0797300131
 11
-3.55518388
 21
-5.0797300131
  0
LINE
  5
248
100
AcDbEntity
  8
0
100
AcDbLine
 62
250
  6
CONTINUOUS
 10
-3.88556988
 20
-5.0797300131
 11
-3.55518388
 21
-5.0797300131
  0
LINE
  5
249
100
AcDbEntity
  8
0
100
AcDbLine
 62
250
  6
CONTINUOUS
 10
-4.15162688
 20
-3.8575010131
 11
-4.03912688
 21
-3.9137510131
  0
LINE
  5
24A
100
AcDbEntity
  8
0
100
AcDbLine
 62
250
  6
CONTINUOUS
 10
-4.26412688
 20
-3.7450010131
 11
-4.15162688
 21
-3.8575010131
  0
LINE
  5
24B
100
AcDbEntity
  8
0
100
AcDbLine
 62
250
  6
CONTINUOUS
 10
-4.32037688
 20
-3.5762510131
 11
-4.26412688
 21
-3.7450010131
  0
LINE
  5
24C
100
AcDbEntity
  8
0
100
AcDbLine
 62
7
  6
CONTINUOUS
 10
-4.82037688
 20
13.2299985394
 11
-4.82037688
 21
11.5299989869
  0
LINE
  5
24D
100
AcDbEntity
  8
CURVE
100
AcDbLine
 62
250
  6
CONTINUOUS
 10
-4.5560912679
 20
1.6157132943
 11
-4.5560912679
 21
2.3442847301
  0
LINE
  5
24E
100
AcDbEntity
  8
0
100
AcDbLine
 62
250
  6
CONTINUOUS
 10
-4.32037688
 20
-3.4075010131
 11
-4.32037688
 21
-3.5762510131
  0
LINE
  5
24F
100
AcDbEntity
  8
0
100
AcDbLine
 62
250
  6
CONTINUOUS
 10
-4.15162688
 20
-2.6200010131
 11
-4.15162688
 21
-2.6762510131
  0
LINE
  5
250
100
AcDbEntity
  8
CURVE
100
AcDbLine
 62
250
  6
CONTINUOUS
 10
-4.0775197576
 20
-0.0985724161
 11
-4.0775197576
 21
0.1157132854
  0
LINE
  5
251
100
AcDbEntity
  8
CURVE
100
AcDbLine
 62
250
  6
CONTINUOUS
 10
-3.7060912679
 20
1.6157132943
 11
-3.8275198321
 21
1.3728561406
  0
LINE
  5
252
100
AcDbEntity
  8
CURVE
100
AcDbLine
 62
250
  6
CONTINUOUS
 10
-3.2203770112
 20
2.3442847301
 11
-3.0989483963
 21
2.5871418585
  0
LINE
  5
253
100
AcDbEntity
  8
CURVE
100
AcDbLine
 62
250
  6
CONTINUOUS
 10
-4.5060911964
 20
0.3299989869
 11
-4.6775197576
 21
0.0085703899
  0
LINE
  5
254
100
AcDbEntity
  8
CURVE
100
AcDbLine
 62
250
  6
CONTINUOUS
 10
-5.62037688
 20
-1.1700010131
 11
-5.02037688
 21
-0.0985724161
  0
LINE
  5
255
100
AcDbEntity
  8
CURVE
100
AcDbLine
 62
250
  6
CONTINUOUS
 10
-3.0989483963
 20
2.5871418585
 11
-2.8560912679
 21
2.8299989869
  0
LINE
  5
256
100
AcDbEntity
  8
INTF_1
100
AcDbLine
 62
7
  6
CONTINUOUS
 10
-1.79487988
 20
-4.1643090131
 11
-2.37123088
 21
-4.1643090131
  0
LINE
  5
257
100
AcDbEntity
  8
0
100
AcDbLine
 62
250
  6
CONTINUOUS
 10
-1.79487988
 20
-4.1643090131
 11
-2.37123088
 21
-4.1643090131
  0
LINE
  5
258
100
AcDbEntity
  8
0
100
AcDbLine
 62
250
  6
CONTINUOUS
 10
-4.03912688
 20
-3.9137510131
 11
-3.87037688
 21
-3.9700010131
  0
LINE
  5
259
100
AcDbEntity
  8
0
100
AcDbLine
 62
250
  6
CONTINUOUS
 10
-4.03912688
 20
-2.8450010131
 11
-3.92662688
 21
-2.9012510131
  0
LINE
  5
25A
100
AcDbEntity
  8
0
100
AcDbLine
 62
250
  6
CONTINUOUS
 10
-4.09537688
 20
-2.7887510131
 11
-4.03912688
 21
-2.8450010131
  0
LINE
  5
25B
100
AcDbEntity
  8
0
100
AcDbLine
 62
250
  6
CONTINUOUS
 10
-4.15162688
 20
-2.6762510131
 11
-4.09537688
 21
-2.7887510131
  0
LINE
  5
25C
100
AcDbEntity
  8
CURVE
100
AcDbLine
 62
250
  6
CONTINUOUS
 10
-3.7346626352
 20
-0.7414295654
 11
-3.7346626352
 21
-0.0985724161
  0
LINE
  5
25D
100
AcDbEntity
  8
CURVE
100
AcDbLine
 62
250
  6
CONTINUOUS
 10
-3.72037688
 20
-5.0797300131
 11
-3.72037688
 21
-7.2602720131
  0
LINE
  5
25E
100
AcDbEntity
  8
0
100
AcDbLine
 62
250
  6
CONTINUOUS
 10
-3.72037688
 20
-5.0797300131
 11
-3.72037688
 21
-7.2602720131
  0
LINE
  5
25F
100
AcDbEntity
  8
CURVE
100
AcDbLine
 62
250
  6
CONTINUOUS
 10
-3.7060912679
 20
2.3442847301
 11
-3.7060912679
 21
1.6157132943
  0
LINE
  5
260
100
AcDbEntity
  8
0
100
AcDbLine
 62
7
  6
CONTINUOUS
 10
-3.42037688
 20
13.2299985394
 11
-3.42037688
 21
11.5299989869
  0
LINE
  5
261
100
AcDbEntity
  8
CURVE
100
AcDbLine
 62
250
  6
CONTINUOUS
 10
-3.33187888
 20
5.1976629869
 11
-3.33187888
 21
3.4976979869
  0
LINE
  5
262
100
AcDbEntity
  8
0
100
AcDbLine
 62
250
  6
CONTINUOUS
 10
-3.33187888
 20
5.1976629869
 11
-3.33187888
 21
3.4976979869
  0
LINE
  5
263
100
AcDbEntity
  8
CURVE
100
AcDbLine
 62
250
  6
CONTINUOUS
 10
-3.2203770112
 20
1.6157132943
 11
-3.2203770112
 21
2.3442847301
  0
LINE
  5
264
100
AcDbEntity
  8
CURVE
100
AcDbLine
 62
250
  6
CONTINUOUS
 10
-3.1346626352
 20
-0.0985724161
 11
-3.1346626352
 21
-0.7414295654
  0
LINE
  5
265
100
AcDbEntity
  8
CURVE
100
AcDbLine
 62
250
  6
CONTINUOUS
 10
-2.97705088
 20
3.4976979869
 11
-2.97705088
 21
5.1976629869
  0
LINE
  5
266
100
AcDbEntity
  8
0
100
AcDbLine
 62
250
  6
CONTINUOUS
 10
-2.97705088
 20
3.4976979869
 11
-2.97705088
 21
5.1976629869
  0
LINE
  5
267
100
AcDbEntity
  8
CURVE
100
AcDbLine
 62
250
  6
CONTINUOUS
 10
-2.78603588
 20
3.4976979869
 11
-2.63254888
 21
5.1975609869
  0
LINE
  5
268
100
AcDbEntity
  8
0
100
AcDbLine
 62
250
  6
CONTINUOUS
 10
-2.78603588
 20
3.4976979869
 11
-2.63254888
 21
5.1975609869
  0
LINE
  5
269
100
AcDbEntity
  8
0
100
AcDbLine
 62
250
  6
CONTINUOUS
 10
-4.09537688
 20
-2.4512510131
 11
-4.15162688
 21
-2.6200010131
  0
LINE
  5
26A
100
AcDbEntity
  8
0
100
AcDbLine
 62
250
  6
CONTINUOUS
 10
-4.26412688
 20
-3.2387510131
 11
-4.32037688
 21
-3.4075010131
  0
LINE
  5
26B
100
AcDbEntity
  8
CURVE
100
AcDbLine
 62
250
  6
CONTINUOUS
 10
-1.92693288
 20
4.2537919869
 11
-1.57210488
 21
5.1975609869
  0
LINE
  5
26C
100
AcDbEntity
  8
0
100
AcDbLine
 62
250
  6
CONTINUOUS
 10
-1.92693288
 20
4.2537919869
 11
-1.57210488
 21
5.1975609869
  0
LINE
  5
26D
100
AcDbEntity
  8
CURVE
100
AcDbLine
 62
250
  6
CONTINUOUS
 10
-1.48209788
 20
4.6030499869
 11
-1.90398888
 21
3.4976979869
  0
LINE
  5
26E
100
AcDbEntity
  8
0
100
AcDbLine
 62
250
  6
CONTINUOUS
 10
-1.48209788
 20
4.6030499869
 11
-1.90398888
 21
3.4976979869
  0
LINE
  5
26F
100
AcDbEntity
  8
CURVE
100
AcDbLine
 62
250
  6
CONTINUOUS
 10
-3.7346626352
 20
-0.0985724161
 11
-3.6489482473
 21
0.1157132854
  0
LINE
  5
270
100
AcDbEntity
  8
CURVE
100
AcDbLine
 62
250
  6
CONTINUOUS
 10
-4.6775197576
 20
-1.1700010131
 11
-4.0775197576
 21
-0.0985724161
  0
LINE
  5
271
100
AcDbEntity
  8
CURVE
100
AcDbLine
 62
250
  6
CONTINUOUS
 10
-3.6489482473
 20
0.1157132854
 11
-3.4775197576
 21
0.3299989869
  0
LINE
  5
272
100
AcDbEntity
  8
CURVE
100
AcDbLine
 62
250
  6
CONTINUOUS
 10
-3.8275198321
 20
1.3728561406
 11
-4.0703769605
 21
1.1299989869
  0
LINE
  5
273
100
AcDbEntity
  8
CURVE
100
AcDbLine
 62
250
  6
CONTINUOUS
 10
-1.6418055247
 20
2.8299989869
 11
-1.8846627544
 21
2.5871418585
  0
LINE
  5
274
100
AcDbEntity
  8
0
100
AcDbLine
 62
250
  6
CONTINUOUS
 10
-3.87037688
 20
-3.9700010131
 11
-3.70162688
 21
-3.9700010131
  0
LINE
  5
275
100
AcDbEntity
  8
0
100
AcDbLine
 62
7
  6
CONTINUOUS
 10
5.8796226724
 20
-3.8700010131
 11
3.751161768
 21
-3.8700010131
  0
LINE
  5
276
100
AcDbEntity
  8
0
100
AcDbLine
 62
7
  6
CONTINUOUS
 10
3.13962312
 20
-3.8700010131
 11
3.751161768
 21
-3.8700010131
  0
LINE
  5
277
100
AcDbEntity
  8
INTF_1
100
AcDbLine
 62
7
  6
CONTINUOUS
 10
0.92551912
 20
-3.7828610131
 11
0.71485512
 21
-3.7828610131
  0
LINE
  5
278
100
AcDbEntity
  8
0
100
AcDbLine
 62
250
  6
CONTINUOUS
 10
0.92551912
 20
-3.7828610131
 11
0.71485512
 21
-3.7828610131
  0
LINE
  5
279
100
AcDbEntity
  8
0
100
AcDbLine
 62
7
  6
CONTINUOUS
 10
3.3019481387
 20
-3.67466822
 11
3.4740210697
 21
-3.67466822
  0
LINE
  5
27A
100
AcDbEntity
  8
INTF_1
100
AcDbLine
 62
7
  6
CONTINUOUS
 10
0.71485512
 20
-3.5848680131
 11
0.92551912
 21
-3.5848680131
  0
LINE
  5
27B
100
AcDbEntity
  8
0
100
AcDbLine
 62
250
  6
CONTINUOUS
 10
0.71485512
 20
-3.5848680131
 11
0.92551912
 21
-3.5848680131
  0
LINE
  5
27C
100
AcDbEntity
  8
INTF_1
100
AcDbLine
 62
7
  6
CONTINUOUS
 10
0.66258412
 20
-3.3266860131
 11
0.54062112
 21
-3.3266860131
  0
LINE
  5
27D
100
AcDbEntity
  8
0
100
AcDbLine
 62
250
  6
CONTINUOUS
 10
0.66258412
 20
-3.3266860131
 11
0.54062112
 21
-3.3266860131
  0
LINE
  5
27E
100
AcDbEntity
  8
INTF_1
100
AcDbLine
 62
7
  6
CONTINUOUS
 10
1.40624512
 20
-3.2162060131
 11
1.28323112
 21
-3.2162060131
  0
LINE
  5
27F
100
AcDbEntity
  8
0
100
AcDbLine
 62
250
  6
CONTINUOUS
 10
1.40624512
 20
-3.2162060131
 11
1.28323112
 21
-3.2162060131
  0
LINE
  5
280
100
AcDbEntity
  8
0
100
AcDbLine
 62
250
  6
CONTINUOUS
 10
-0.52306988
 20
-3.4789350131
 11
1.11519712
 21
-3.6312200131
  0
LINE
  5
281
100
AcDbEntity
  8
INTF_1
100
AcDbLine
 62
7
  6
CONTINUOUS
 10
-0.52306988
 20
-3.4789350131
 11
1.11519712
 21
-3.6312200131
  0
LINE
  5
282
100
AcDbEntity
  8
0
100
AcDbLine
 62
250
  6
CONTINUOUS
 10
-3.47662688
 20
-2.3387510131
 11
-3.70162688
 21
-2.2825010131
  0
LINE
  5
283
100
AcDbEntity
  8
0
100
AcDbLine
 62
250
  6
CONTINUOUS
 10
-3.92662688
 20
-2.9012510131
 11
-3.75787688
 21
-2.9575010131
  0
LINE
  5
284
100
AcDbEntity
  8
0
100
AcDbLine
 62
250
  6
CONTINUOUS
 10
-3.30787688
 20
-2.3950010131
 11
-3.47662688
 21
-2.3387510131
  0
LINE
  5
285
100
AcDbEntity
  8
0
100
AcDbLine
 62
250
  6
CONTINUOUS
 10
-3.19537688
 20
-2.4512510131
 11
-3.30787688
 21
-2.3950010131
  0
LINE
  5
286
100
AcDbEntity
  8
CURVE
100
AcDbLine
 62
250
  6
CONTINUOUS
 10
-5.02037688
 20
0.1157132854
 11
-5.1918054412
 21
0.3299989869
  0
LINE
  5
287
100
AcDbEntity
  8
CURVE
100
AcDbLine
 62
250
  6
CONTINUOUS
 10
-3.4775197576
 20
-1.1700010131
 11
-3.6489482473
 21
-0.9557152892
  0
LINE
  5
288
100
AcDbEntity
  8
CURVE
100
AcDbLine
 62
250
  6
CONTINUOUS
 10
-4.0775197576
 20
0.1157132854
 11
-4.2489482473
 21
0.3299989869
  0
LINE
  5
289
100
AcDbEntity
  8
CURVE
100
AcDbLine
 62
250
  6
CONTINUOUS
 10
-4.4346626911
 20
1.3728561406
 11
-4.5560912679
 21
1.6157132943
  0
LINE
  5
28A
100
AcDbEntity
  8
CURVE
100
AcDbLine
 62
250
  6
CONTINUOUS
 10
-3.6489482473
 20
-0.9557152892
 11
-3.7346626352
 21
-0.7414295654
  0
LINE
  5
28B
100
AcDbEntity
  8
CURVE
100
AcDbLine
 62
250
  6
CONTINUOUS
 10
-4.32265288
 20
3.4976979869
 11
-4.86154288
 21
5.1975609869
  0
LINE
  5
28C
100
AcDbEntity
  8
0
100
AcDbLine
 62
250
  6
CONTINUOUS
 10
-4.32265288
 20
3.4976979869
 11
-4.86154288
 21
5.1975609869
  0
LINE
  5
28D
100
AcDbEntity
  8
INTF_1
100
AcDbLine
 62
7
  6
CONTINUOUS
 10
-2.37123088
 20
-4.1643090131
 11
-2.37123088
 21
-1.7974400131
  0
LINE
  5
28E
100
AcDbEntity
  8
0
100
AcDbLine
 62
250
  6
CONTINUOUS
 10
-2.37123088
 20
-4.1643090131
 11
-2.37123088
 21
-1.7974400131
  0
LINE
  5
28F
100
AcDbEntity
  8
CURVE
100
AcDbLine
 62
250
  6
CONTINUOUS
 10
-2.3703770112
 20
2.3442847301
 11
-2.3703770112
 21
1.6157132943
  0
LINE
  5
290
100
AcDbEntity
  8
CURVE
100
AcDbLine
 62
250
  6
CONTINUOUS
 10
-2.37000888
 20
4.6076769869
 11
-2.44658088
 21
3.4976979869
  0
LINE
  5
291
100
AcDbEntity
  8
0
100
AcDbLine
 62
250
  6
CONTINUOUS
 10
-2.37000888
 20
4.6076769869
 11
-2.44658088
 21
3.4976979869
  0
LINE
  5
292
100
AcDbEntity
  8
CURVE
100
AcDbLine
 62
250
  6
CONTINUOUS
 10
-1.00636388
 20
3.4976979869
 11
-0.47317888
 21
5.1975609869
  0
LINE
  5
293
100
AcDbEntity
  8
0
100
AcDbLine
 62
250
  6
CONTINUOUS
 10
-1.00636388
 20
3.4976979869
 11
-0.47317888
 21
5.1975609869
  0
LINE
  5
294
100
AcDbEntity
  8
CURVE
100
AcDbLine
 62
250
  6
CONTINUOUS
 10
-3.1346626352
 20
-0.7414295654
 11
-3.22037688
 21
-0.9557152892
  0
LINE
  5
295
100
AcDbEntity
  8
CURVE
100
AcDbLine
 62
250
  6
CONTINUOUS
 10
-2.3703770112
 20
1.6157132943
 11
-2.4918055247
 21
1.3728561406
  0
LINE
  5
296
100
AcDbEntity
  8
CURVE
100
AcDbLine
 62
250
  6
CONTINUOUS
 10
-3.22037688
 20
-0.9557152892
 11
-3.3918055128
 21
-1.1700010131
  0
LINE
  5
297
100
AcDbEntity
  8
CURVE
100
AcDbLine
 62
250
  6
CONTINUOUS
 10
-2.4918055247
 20
1.3728561406
 11
-2.7346627544
 21
1.1299989869
  0
LINE
  5
298
100
AcDbEntity
  8
CURVE
100
AcDbLine
 62
250
  6
CONTINUOUS
 10
-1.6418055247
 20
1.1299989869
 11
-1.1560912679
 21
1.6157132943
  0
LINE
  5
299
100
AcDbEntity
  8
CURVE
100
AcDbLine
 62
250
  6
CONTINUOUS
 10
-0.0632342409
 20
2.1014276018
 11
0.1391467501
 21
2.2228561153
  0
LINE
  5
29A
100
AcDbEntity
  8
0
100
AcDbLine
 62
250
  6
CONTINUOUS
 10
-3.70162688
 20
-3.9700010131
 11
-3.47662688
 21
-3.9137510131
  0
LINE
  5
29B
100
AcDbEntity
  8
0
100
AcDbLine
 62
250
  6
CONTINUOUS
 10
1.13078012
 20
-2.3763210131
 11
-0.77088288
 21
-2.5426350131
  0
LINE
  5
29C
100
AcDbEntity
  8
INTF_1
100
AcDbLine
 62
7
  6
CONTINUOUS
 10
1.13078012
 20
-2.3763210131
 11
-0.77088288
 21
-2.5426350131
  0
LINE
  5
29D
100
AcDbEntity
  8
0
100
AcDbLine
 62
250
  6
CONTINUOUS
 10
-3.75787688
 20
-2.9575010131
 11
-3.70162688
 21
-2.9575010131
  0
LINE
  5
29E
100
AcDbEntity
  8
INTF_1
100
AcDbLine
 62
7
  6
CONTINUOUS
 10
1.28354712
 20
-2.8921170131
 11
1.40656112
 21
-2.8921170131
  0
LINE
  5
29F
100
AcDbEntity
  8
0
100
AcDbLine
 62
250
  6
CONTINUOUS
 10
1.28354712
 20
-2.8921170131
 11
1.40656112
 21
-2.8921170131
  0
LINE
  5
2A0
100
AcDbEntity
  8
0
100
AcDbLine
 62
250
  6
CONTINUOUS
 10
0.54062112
 20
-2.8610070131
 11
0.66258412
 21
-2.8610070131
  0
LINE
  5
2A1
100
AcDbEntity
  8
INTF_1
100
AcDbLine
 62
7
  6
CONTINUOUS
 10
0.54062112
 20
-2.8610070131
 11
0.66258412
 21
-2.8610070131
  0
LINE
  5
2A2
100
AcDbEntity
  8
0
100
AcDbLine
 62
7
  6
CONTINUOUS
 10
3.3019481387
 20
-2.6653338062
 11
3.4740210697
 21
-2.6653338062
  0
LINE
  5
2A3
100
AcDbEntity
  8
0
100
AcDbLine
 62
250
  6
CONTINUOUS
 10
-0.77088288
 20
-2.6412350131
 11
-0.88199288
 21
-2.6412350131
  0
LINE
  5
2A4
100
AcDbEntity
  8
INTF_1
100
AcDbLine
 62
7
  6
CONTINUOUS
 10
-0.77088288
 20
-2.6412350131
 11
-0.88199288
 21
-2.6412350131
  0
LINE
  5
2A5
100
AcDbEntity
  8
0
100
AcDbLine
 62
250
  6
CONTINUOUS
 10
1.35397512
 20
-2.5949050131
 11
1.13078012
 21
-2.5949050131
  0
LINE
  5
2A6
100
AcDbEntity
  8
INTF_1
100
AcDbLine
 62
7
  6
CONTINUOUS
 10
1.35397512
 20
-2.5949050131
 11
1.13078012
 21
-2.5949050131
  0
LINE
  5
2A7
100
AcDbEntity
  8
0
100
AcDbLine
 62
250
  6
CONTINUOUS
 10
-0.88199288
 20
-2.5747100131
 11
-0.77088288
 21
-2.5747100131
  0
LINE
  5
2A8
100
AcDbEntity
  8
INTF_1
100
AcDbLine
 62
7
  6
CONTINUOUS
 10
-0.88199288
 20
-2.5747100131
 11
-0.77088288
 21
-2.5747100131
  0
LINE
  5
2A9
100
AcDbEntity
  8
0
100
AcDbLine
 62
250
  6
CONTINUOUS
 10
1.13078012
 20
-2.5387000131
 11
1.35397512
 21
-2.5387000131
  0
LINE
  5
2AA
100
AcDbEntity
  8
INTF_1
100
AcDbLine
 62
7
  6
CONTINUOUS
 10
1.13078012
 20
-2.5387000131
 11
1.35397512
 21
-2.5387000131
  0
LINE
  5
2AB
100
AcDbEntity
  8
0
100
AcDbLine
 62
7
  6
CONTINUOUS
 10
5.8796226724
 20
-2.4700010131
 11
3.751161768
 21
-2.4700010131
  0
LINE
  5
2AC
100
AcDbEntity
  8
0
100
AcDbLine
 62
7
  6
CONTINUOUS
 10
3.13962312
 20
-2.4700010131
 11
3.751161768
 21
-2.4700010131
  0
LINE
  5
2AD
100
AcDbEntity
  8
0
100
AcDbLine
 62
250
  6
CONTINUOUS
 10
-3.70162688
 20
-2.2825010131
 11
-3.81412688
 21
-2.2825010131
  0
LWPOLYLINE
  5
2AE
100
AcDbEntity
  8
INTF_1
100
AcDbPolyline
 62
7
  6
CONTINUOUS
 90
60
 70
0
 10
1.1307802032
 20
-2.3619913239
 10
1.1375451141
 20
-2.3622015682
 10
1.144196238
 20
-2.3628234476
 10
1.1507341357
 20
-2.3638436825
 10
1.1571593686
 20
-2.3652489928
 10
1.1634724975
 20
-2.3670260987
 10
1.1696740837
 20
-2.3691617202
 10
1.1757646883
 20
-2.3716425776
 10
1.1817448722
 20
-2.3744553908
 10
1.1876151966
 20
-2.37758688
 10
1.1933762227
 20
-2.3810237654
 10
1.1990285114
 20
-2.3847527669
 10
1.2045726239
 20
-2.3887606048
 10
1.2100091212
 20
-2.3930339991
 10
1.2153385646
 20
-2.39755967
 10
1.2205615149
 20
-2.4023243375
 10
1.2256785335
 20
-2.4073147217
 10
1.2306901812
 20
-2.4125175428
 10
1.2355970193
 20
-2.4179195209
 10
1.2403996088
 20
-2.4235073761
 10
1.2450985108
 20
-2.4292678285
 10
1.2496942865
 20
-2.4351875981
 10
1.2541874968
 20
-2.4412534052
 10
1.2585787029
 20
-2.4474519697
 10
1.2628684658
 20
-2.4537700119
 10
1.2670573468
 20
-2.4601942518
 10
1.2711459068
 20
-2.4667114096
 10
1.275134707
 20
-2.4733082053
 10
1.2790243084
 20
-2.479971359
 10
1.2828152721
 20
-2.486687591
 10
1.2865081593
 20
-2.4934436211
 10
1.290103531
 20
-2.5002261697
 10
1.2936019482
 20
-2.5070219567
 10
1.2970039722
 20
-2.5138177023
 10
1.3040905757
 20
-2.5285920738
 10
1.3107367146
 20
-2.5433081754
 10
1.3169573671
 20
-2.5579710468
 10
1.3227675113
 20
-2.5725857278
 10
1.3281821252
 20
-2.587157258
 10
1.333216187
 20
-2.601690677
 10
1.3378846747
 20
-2.6161910245
 10
1.3422025664
 20
-2.6306633402
 10
1.3461848401
 20
-2.6451126638
 10
1.3498464741
 20
-2.6595440349
 10
1.3532024463
 20
-2.6739624932
 10
1.3562677348
 20
-2.6883730784
 10
1.3590573177
 20
-2.7027808301
 10
1.3615861731
 20
-2.717190788
 10
1.3638692791
 20
-2.7316079917
 10
1.3659216138
 20
-2.746037481
 10
1.3677581552
 20
-2.7604842954
 10
1.3693938814
 20
-2.7749534748
 10
1.3708437705
 20
-2.7894500586
 10
1.3721228006
 20
-2.8039790867
 10
1.3732459498
 20
-2.8185455986
 10
1.3742281961
 20
-2.833154634
 10
1.3750845177
 20
-2.8478112327
 10
1.3758298926
 20
-2.8625204342
 10
1.3764792988
 20
-2.8772872782
 10
1.3770477146
 20
-2.8921168045
  0
LINE
  5
2AF
100
AcDbEntity
  8
CURVE
100
AcDbLine
 62
250
  6
CONTINUOUS
 10
-4.19180555
 20
1.1299989869
 11
-4.4346626911
 21
1.3728561406
  0
LINE
  5
2B0
100
AcDbEntity
  8
CURVE
100
AcDbLine
 62
250
  6
CONTINUOUS
 10
-3.3918055128
 20
0.3299989869
 11
-3.22037688
 21
0.1157132854
  0
LINE
  5
2B1
100
AcDbEntity
  8
CURVE
100
AcDbLine
 62
250
  6
CONTINUOUS
 10
-3.8275198321
 20
2.5871418585
 11
-3.7060912679
 21
2.3442847301
  0
LINE
  5
2B2
100
AcDbEntity
  8
CURVE
100
AcDbLine
 62
250
  6
CONTINUOUS
 10
-3.0989483963
 20
1.3728561406
 11
-3.2203770112
 21
1.6157132943
  0
LINE
  5
2B3
100
AcDbEntity
  8
CURVE
100
AcDbLine
 62
250
  6
CONTINUOUS
 10
-3.22037688
 20
0.1157132854
 11
-3.1346626352
 21
-0.0985724161
  0
LINE
  5
2B4
100
AcDbEntity
  8
CURVE
100
AcDbLine
 62
250
  6
CONTINUOUS
 10
-4.47608988
 20
5.1975609869
 11
-4.15206488
 21
4.0274929869
  0
LINE
  5
2B5
100
AcDbEntity
  8
0
100
AcDbLine
 62
250
  6
CONTINUOUS
 10
-4.47608988
 20
5.1975609869
 11
-4.15206488
 21
4.0274929869
  0
LINE
  5
2B6
100
AcDbEntity
  8
CURVE
100
AcDbLine
 62
250
  6
CONTINUOUS
 10
-1.40919688
 20
3.4976979869
 11
-1.48209788
 21
4.6030499869
  0
LINE
  5
2B7
100
AcDbEntity
  8
0
100
AcDbLine
 62
250
  6
CONTINUOUS
 10
-1.40919688
 20
3.4976979869
 11
-1.48209788
 21
4.6030499869
  0
LINE
  5
2B8
100
AcDbEntity
  8
CURVE
100
AcDbLine
 62
250
  6
CONTINUOUS
 10
-1.8846627544
 20
2.5871418585
 11
-1.8846627544
 21
2.1014276018
  0
LINE
  5
2B9
100
AcDbEntity
  8
INTF_1
100
AcDbLine
 62
7
  6
CONTINUOUS
 10
-1.79487988
 20
-1.7974400131
 11
-1.79487988
 21
-4.1643090131
  0
LINE
  5
2BA
100
AcDbEntity
  8
0
100
AcDbLine
 62
250
  6
CONTINUOUS
 10
-1.79487988
 20
-1.7974400131
 11
-1.79487988
 21
-4.1643090131
  0
LINE
  5
2BB
100
AcDbEntity
  8
CURVE
100
AcDbLine
 62
250
  6
CONTINUOUS
 10
-1.3346626352
 20
-0.0985724161
 11
-1.3346626352
 21
0.1157132854
  0
LINE
  5
2BC
100
AcDbEntity
  8
CURVE
100
AcDbLine
 62
250
  6
CONTINUOUS
 10
-1.0346627544
 20
2.1014276018
 11
-1.0346627544
 21
2.5871418585
  0
LINE
  5
2BD
100
AcDbEntity
  8
CURVE
100
AcDbLine
 62
250
  6
CONTINUOUS
 10
-1.1560912679
 20
1.6157132943
 11
-1.0346627544
 21
2.1014276018
  0
LINE
  5
2BE
100
AcDbEntity
  8
CURVE
100
AcDbLine
 62
250
  6
CONTINUOUS
 10
-0.30821888
 20
4.7304819869
 11
-0.48489288
 21
4.0996409869
  0
LINE
  5
2BF
100
AcDbEntity
  8
0
100
AcDbLine
 62
250
  6
CONTINUOUS
 10
-0.30821888
 20
4.7304819869
 11
-0.48489288
 21
4.0996409869
  0
LINE
  5
2C0
100
AcDbEntity
  8
CURVE
100
AcDbLine
 62
250
  6
CONTINUOUS
 10
-0.55747488
 20
3.8370509869
 11
-0.65538588
 21
3.4976979869
  0
LINE
  5
2C1
100
AcDbEntity
  8
0
100
AcDbLine
 62
250
  6
CONTINUOUS
 10
-0.55747488
 20
3.8370509869
 11
-0.65538588
 21
3.4976979869
  0
LINE
  5
2C2
100
AcDbEntity
  8
CURVE
100
AcDbLine
 62
250
  6
CONTINUOUS
 10
-1.7632341455
 20
0.3299989869
 11
-1.9346626352
 21
0.0085703899
  0
LINE
  5
2C3
100
AcDbEntity
  8
CURVE
100
AcDbLine
 62
250
  6
CONTINUOUS
 10
-1.9346626352
 20
-1.1700010131
 11
-1.3346626352
 21
-0.0985724161
  0
LINE
  5
2C4
100
AcDbEntity
  8
0
100
AcDbLine
 62
250
  6
CONTINUOUS
 10
-3.98287688
 20
-2.3387510131
 11
-4.09537688
 21
-2.4512510131
  0
LWPOLYLINE
  5
2C5
100
AcDbEntity
  8
0
100
AcDbPolyline
 62
7
  6
CONTINUOUS
 90
6
 70
0
 10
3.2341805286
 20
2.1350804519
 10
3.285162228
 20
2.1549603214
 10
3.3350042006
 20
2.1748548006
 10
3.3833574682
 20
2.194777322
 10
3.4298159804
 20
2.2147144531
 10
3.4740210697
 20
2.2346661938
  0
LINE
  5
2C6
100
AcDbEntity
  8
0
100
AcDbLine
 62
7
  6
CONTINUOUS
 10
3.13962312
 20
2.098897002
 11
3.2341805286
 21
2.1350804519
  0
LINE
  5
2C7
100
AcDbEntity
  8
0
100
AcDbLine
 62
250
  6
CONTINUOUS
 10
-3.70162688
 20
-2.9575010131
 11
-3.92662688
 21
-3.0137510131
  0
LINE
  5
2C8
100
AcDbEntity
  8
INTF_1
100
AcDbLine
 62
7
  6
CONTINUOUS
 10
-2.37123088
 20
-1.7974400131
 11
-1.79487988
 21
-1.7974400131
  0
LINE
  5
2C9
100
AcDbEntity
  8
0
100
AcDbLine
 62
250
  6
CONTINUOUS
 10
-2.37123088
 20
-1.7974400131
 11
-1.79487988
 21
-1.7974400131
  0
LINE
  5
2CA
100
AcDbEntity
  8
CURVE
100
AcDbLine
 62
250
  6
CONTINUOUS
 10
0.293908589
 20
-1.1700010131
 11
0.2081946303
 21
-1.1700010131
  0
LINE
  5
2CB
100
AcDbEntity
  8
CURVE
100
AcDbLine
 62
250
  6
CONTINUOUS
 10
-1.3346626352
 20
-1.1700010131
 11
-1.9346626352
 21
-1.1700010131
  0
LINE
  5
2CC
100
AcDbEntity
  8
CURVE
100
AcDbLine
 62
250
  6
CONTINUOUS
 10
-3.3918055128
 20
-1.1700010131
 11
-3.4775197576
 21
-1.1700010131
  0
LINE
  5
2CD
100
AcDbEntity
  8
CURVE
100
AcDbLine
 62
250
  6
CONTINUOUS
 10
-4.0775197576
 20
-1.1700010131
 11
-4.6775197576
 21
-1.1700010131
  0
LINE
  5
2CE
100
AcDbEntity
  8
CURVE
100
AcDbLine
 62
250
  6
CONTINUOUS
 10
-5.02037688
 20
-1.1700010131
 11
-5.62037688
 21
-1.1700010131
  0
LWPOLYLINE
  5
2CF
100
AcDbEntity
  8
0
100
AcDbPolyline
 62
7
  6
CONTINUOUS
 90
7
 70
0
 10
3.4740210697
 20
-3.67466822
 10
3.4298159804
 20
-3.6547164793
 10
3.3833574682
 20
-3.6347793482
 10
3.3350042006
 20
-3.6148568268
 10
3.285162228
 20
-3.5949623477
 10
3.2341805286
 20
-3.5750824781
 10
3.13962312
 20
-3.5388990282
  0
LINE
  5
2D0
100
AcDbEntity
  8
0
100
AcDbLine
 62
250
  6
CONTINUOUS
 10
-1.18928988
 20
-1.6372290131
 11
1.64450912
 21
-4.4293740131
  0
LINE
  5
2D1
100
AcDbEntity
  8
INTF_1
100
AcDbLine
 62
7
  6
CONTINUOUS
 10
-1.18928988
 20
-1.6372290131
 11
1.64450912
 21
-4.4293740131
  0
LINE
  5
2D2
100
AcDbEntity
  8
CURVE
100
AcDbLine
 62
250
  6
CONTINUOUS
 10
-2.8560912679
 20
1.1299989869
 11
-3.0989483963
 21
1.3728561406
  0
LINE
  5
2D3
100
AcDbEntity
  8
CURVE
100
AcDbLine
 62
250
  6
CONTINUOUS
 10
-1.22103788
 20
5.1975609869
 11
-1.06208088
 21
3.4976979869
  0
LINE
  5
2D4
100
AcDbEntity
  8
0
100
AcDbLine
 62
250
  6
CONTINUOUS
 10
-1.22103788
 20
5.1975609869
 11
-1.06208088
 21
3.4976979869
  0
LINE
  5
2D5
100
AcDbEntity
  8
0
100
AcDbLine
 62
250
  6
CONTINUOUS
 10
-0.88199288
 20
-2.6412350131
 11
-0.88199288
 21
-2.5747100131
  0
LINE
  5
2D6
100
AcDbEntity
  8
INTF_1
100
AcDbLine
 62
7
  6
CONTINUOUS
 10
-0.88199288
 20
-2.6412350131
 11
-0.88199288
 21
-2.5747100131
  0
LINE
  5
2D7
100
AcDbEntity
  8
0
100
AcDbLine
 62
250
  6
CONTINUOUS
 10
-0.77088288
 20
-2.5426350131
 11
-0.77088288
 21
-3.3038540131
  0
LINE
  5
2D8
100
AcDbEntity
  8
INTF_1
100
AcDbLine
 62
7
  6
CONTINUOUS
 10
-0.77088288
 20
-2.5426350131
 11
-0.77088288
 21
-3.3038540131
  0
LINE
  5
2D9
100
AcDbEntity
  8
CURVE
100
AcDbLine
 62
250
  6
CONTINUOUS
 10
-0.591805179
 20
-1.1700010131
 11
-0.591805179
 21
-0.4200010131
  0
LINE
  5
2DA
100
AcDbEntity
  8
CURVE
100
AcDbLine
 62
250
  6
CONTINUOUS
 10
-0.23070288
 20
-4.6711540131
 11
-0.23070288
 21
-5.1128130131
  0
LINE
  5
2DB
100
AcDbEntity
  8
0
100
AcDbLine
 62
250
  6
CONTINUOUS
 10
-0.23070288
 20
-4.6711540131
 11
-0.23070288
 21
-5.1128130131
  0
LINE
  5
2DC
100
AcDbEntity
  8
CURVE
100
AcDbLine
 62
250
  6
CONTINUOUS
 10
-0.23070288
 20
-7.2271890131
 11
-0.23070288
 21
-7.6688480131
  0
LINE
  5
2DD
100
AcDbEntity
  8
0
100
AcDbLine
 62
250
  6
CONTINUOUS
 10
-0.23070288
 20
-7.2271890131
 11
-0.23070288
 21
-7.6688480131
  0
LINE
  5
2DE
100
AcDbEntity
  8
CURVE
100
AcDbLine
 62
250
  6
CONTINUOUS
 10
-0.0489483904
 20
-0.7414295654
 11
-0.0489483904
 21
-0.0985724161
  0
LINE
  5
2DF
100
AcDbEntity
  8
CURVE
100
AcDbLine
 62
250
  6
CONTINUOUS
 10
-0.9918053697
 20
-0.8485724385
 11
-0.7346623491
 21
0.3299989869
  0
LINE
  5
2E0
100
AcDbEntity
  8
CURVE
100
AcDbLine
 62
250
  6
CONTINUOUS
 10
-0.0489483904
 20
-0.0985724161
 11
0.0367661406
 21
0.1157132854
  0
LINE
  5
2E1
100
AcDbEntity
  8
CURVE
100
AcDbLine
 62
250
  6
CONTINUOUS
 10
0.9081942726
 20
2.8299989869
 11
0.6653372456
 21
2.4657132437
  0
LINE
  5
2E2
100
AcDbEntity
  8
CURVE
100
AcDbLine
 62
250
  6
CONTINUOUS
 10
0.6653372456
 20
1.1299989869
 11
1.5153372456
 21
2.3442847301
  0
LINE
  5
2E3
100
AcDbEntity
  8
CURVE
100
AcDbLine
 62
250
  6
CONTINUOUS
 10
0.0367661406
 20
0.1157132854
 11
0.2081946303
 21
0.3299989869
  0
LINE
  5
2E4
100
AcDbEntity
  8
CURVE
100
AcDbLine
 62
250
  6
CONTINUOUS
 10
0.0581942726
 20
1.1299989869
 11
0.1796231915
 21
1.2514275638
  0
LINE
  5
2E5
100
AcDbEntity
  8
0
100
AcDbLine
 62
250
  6
CONTINUOUS
 10
-4.15162688
 20
-3.1262510131
 11
-4.26412688
 21
-3.2387510131
  0
LINE
  5
2E6
100
AcDbEntity
  8
0
100
AcDbLine
 62
7
  6
CONTINUOUS
 10
-2.37123088
 20
-1.854191159
 11
-2.3144797342
 21
-1.7974400131
  0
LINE
  5
2E7
100
AcDbEntity
  8
0
100
AcDbLine
 62
7
  6
CONTINUOUS
 10
-2.37123088
 20
-2.064201873
 11
-2.1044690202
 21
-1.7974400131
  0
LINE
  5
2E8
100
AcDbEntity
  8
0
100
AcDbLine
 62
7
  6
CONTINUOUS
 10
-2.37123088
 20
-2.274212587
 11
-1.8944583061
 21
-1.7974400131
  0
LINE
  5
2E9
100
AcDbEntity
  8
0
100
AcDbLine
 62
7
  6
CONTINUOUS
 10
-2.37123088
 20
-2.484223301
 11
-1.79487988
 21
-1.907872301
  0
LINE
  5
2EA
100
AcDbEntity
  8
0
100
AcDbLine
 62
7
  6
CONTINUOUS
 10
3.3019481387
 20
2.2346661938
 11
3.5790888371
 21
2.4299989869
  0
LINE
  5
2EB
100
AcDbEntity
  8
0
100
AcDbLine
 62
7
  6
CONTINUOUS
 10
3.4740210697
 20
2.2346661938
 11
3.751161768
 21
2.4299989869
  0
LINE
  5
2EC
100
AcDbEntity
  8
CURVE
100
AcDbLine
 62
250
  6
CONTINUOUS
 10
-0.3918053697
 20
-0.8485724385
 11
-0.9918053697
 21
-0.8485724385
  0
LINE
  5
2ED
100
AcDbEntity
  8
CURVE
100
AcDbLine
 62
250
  6
CONTINUOUS
 10
-2.7918053697
 20
-0.6342867146
 11
-2.2775196146
 21
-0.6342867146
  0
LINE
  5
2EE
100
AcDbEntity
  8
0
100
AcDbLine
 62
7
  6
CONTINUOUS
 10
3.5790888371
 20
-3.8700010131
 11
3.3019481387
 21
-3.67466822
  0
LINE
  5
2EF
100
AcDbEntity
  8
0
100
AcDbLine
 62
7
  6
CONTINUOUS
 10
3.751161768
 20
-3.8700010131
 11
3.4740210697
 21
-3.67466822
  0
LWPOLYLINE
  5
2F0
100
AcDbEntity
  8
0
100
AcDbPolyline
 62
7
  6
CONTINUOUS
 90
6
 70
0
 10
3.3019481387
 20
-3.67466822
 10
3.2741325527
 20
-3.6497410382
 10
3.244613999
 20
-3.6248216057
 10
3.213746477
 20
-3.5999099224
 10
3.1819049401
 20
-3.5750085714
 10
3.13962312
 20
-3.5426165366
  0
LINE
  5
2F1
100
AcDbEntity
  8
CURVE
100
AcDbLine
 62
250
  6
CONTINUOUS
 10
-4.0703769605
 20
2.8299989869
 11
-3.8275198321
 21
2.5871418585
  0
LINE
  5
2F2
100
AcDbEntity
  8
CURVE
100
AcDbLine
 62
250
  6
CONTINUOUS
 10
-1.3346626352
 20
0.1157132854
 11
-1.5060911249
 21
0.3299989869
  0
LINE
  5
2F3
100
AcDbEntity
  8
CURVE
100
AcDbLine
 62
250
  6
CONTINUOUS
 10
0.2081946303
 20
-1.1700010131
 11
0.0367661406
 21
-0.9557152892
  0
LINE
  5
2F4
100
AcDbEntity
  8
CURVE
100
AcDbLine
 62
250
  6
CONTINUOUS
 10
-2.4918055247
 20
2.5871418585
 11
-2.3703770112
 21
2.3442847301
  0
LINE
  5
2F5
100
AcDbEntity
  8
CURVE
100
AcDbLine
 62
250
  6
CONTINUOUS
 10
0.0367661406
 20
-0.9557152892
 11
-0.0489483904
 21
-0.7414295654
  0
LINE
  5
2F6
100
AcDbEntity
  8
CURVE
100
AcDbLine
 62
250
  6
CONTINUOUS
 10
-1.95375288
 20
3.4976979869
 11
-2.37000888
 21
4.6076769869
  0
LINE
  5
2F7
100
AcDbEntity
  8
0
100
AcDbLine
 62
250
  6
CONTINUOUS
 10
-1.95375288
 20
3.4976979869
 11
-2.37000888
 21
4.6076769869
  0
LINE
  5
2F8
100
AcDbEntity
  8
CURVE
100
AcDbLine
 62
250
  6
CONTINUOUS
 10
-2.27801388
 20
5.1975609869
 11
-1.92693288
 21
4.2537919869
  0
LINE
  5
2F9
100
AcDbEntity
  8
0
100
AcDbLine
 62
250
  6
CONTINUOUS
 10
-2.27801388
 20
5.1975609869
 11
-1.92693288
 21
4.2537919869
  0
LINE
  5
2FA
100
AcDbEntity
  8
CURVE
100
AcDbLine
 62
250
  6
CONTINUOUS
 10
0.1391467501
 20
2.2228561153
 11
0.1391467501
 21
2.5871418585
  0
LINE
  5
2FB
100
AcDbEntity
  8
CURVE
100
AcDbLine
 62
250
  6
CONTINUOUS
 10
0.1796231915
 20
1.2514275638
 11
0.1796231915
 21
1.8585704227
  0
LINE
  5
2FC
100
AcDbEntity
  8
CURVE
100
AcDbLine
 62
250
  6
CONTINUOUS
 10
0.4958297839
 20
5.1777010691
 11
0.4958297839
 21
3.4976983002
  0
LINE
  5
2FD
100
AcDbEntity
  8
0
100
AcDbLine
 62
250
  6
CONTINUOUS
 10
0.4958297839
 20
5.1777010691
 11
0.4958297839
 21
3.4976983002
  0
LINE
  5
2FE
100
AcDbEntity
  8
0
100
AcDbLine
 62
250
  6
CONTINUOUS
 10
0.54062112
 20
-3.3266860131
 11
0.54062112
 21
-2.8610070131
  0
LINE
  5
2FF
100
AcDbEntity
  8
INTF_1
100
AcDbLine
 62
7
  6
CONTINUOUS
 10
0.54062112
 20
-3.3266860131
 11
0.54062112
 21
-2.8610070131
  0
LINE
  5
300
100
AcDbEntity
  8
CURVE
100
AcDbLine
 62
250
  6
CONTINUOUS
 10
0.5510516096
 20
-0.0985724161
 11
0.5510516096
 21
-0.7414295654
  0
LINE
  5
301
100
AcDbEntity
  8
0
100
AcDbLine
 62
250
  6
CONTINUOUS
 10
0.66258412
 20
-2.8610070131
 11
0.66258412
 21
-3.3266860131
  0
LINE
  5
302
100
AcDbEntity
  8
INTF_1
100
AcDbLine
 62
7
  6
CONTINUOUS
 10
0.66258412
 20
-2.8610070131
 11
0.66258412
 21
-3.3266860131
  0
LINE
  5
303
100
AcDbEntity
  8
INTF_1
100
AcDbLine
 62
7
  6
CONTINUOUS
 10
0.71485512
 20
-3.7828610131
 11
0.71485512
 21
-3.5848680131
  0
LINE
  5
304
100
AcDbEntity
  8
0
100
AcDbLine
 62
250
  6
CONTINUOUS
 10
0.71485512
 20
-3.7828610131
 11
0.71485512
 21
-3.5848680131
  0
LINE
  5
305
100
AcDbEntity
  8
CURVE
100
AcDbLine
 62
250
  6
CONTINUOUS
 10
0.8374645516
 20
4.4413271554
 11
0.8374645516
 21
4.9079726379
  0
LINE
  5
306
100
AcDbEntity
  8
0
100
AcDbLine
 62
250
  6
CONTINUOUS
 10
0.8374645516
 20
4.4413271554
 11
0.8374645516
 21
4.9079726379
  0
LINE
  5
307
100
AcDbEntity
  8
CURVE
100
AcDbLine
 62
250
  6
CONTINUOUS
 10
0.8492301159
 20
3.4976983002
 11
0.8492301159
 21
4.1629307028
  0
LINE
  5
308
100
AcDbEntity
  8
0
100
AcDbLine
 62
250
  6
CONTINUOUS
 10
0.8492301159
 20
3.4976983002
 11
0.8492301159
 21
4.1629307028
  0
LINE
  5
309
100
AcDbEntity
  8
INTF_1
100
AcDbLine
 62
7
  6
CONTINUOUS
 10
0.92551912
 20
-3.5848680131
 11
0.92551912
 21
-3.7828610131
  0
LINE
  5
30A
100
AcDbEntity
  8
0
100
AcDbLine
 62
250
  6
CONTINUOUS
 10
0.92551912
 20
-3.5848680131
 11
0.92551912
 21
-3.7828610131
  0
LINE
  5
30B
100
AcDbEntity
  8
CURVE
100
AcDbLine
 62
250
  6
CONTINUOUS
 10
0.5510516096
 20
-0.7414295654
 11
0.4653376509
 21
-0.9557152892
  0
LINE
  5
30C
100
AcDbEntity
  8
CURVE
100
AcDbLine
 62
250
  6
CONTINUOUS
 10
0.4653376509
 20
-0.9557152892
 11
0.293908589
 21
-1.1700010131
  0
LINE
  5
30D
100
AcDbEntity
  8
0
100
AcDbLine
 62
7
  6
CONTINUOUS
 10
-2.37123088
 20
-2.694234015
 11
-1.79487988
 21
-2.117883015
  0
LINE
  5
30E
100
AcDbEntity
  8
0
100
AcDbLine
 62
250
  6
CONTINUOUS
 10
-3.30787688
 20
-3.8012510131
 11
-3.19537688
 21
-3.6887510131
  0
LINE
  5
30F
100
AcDbEntity
  8
0
100
AcDbLine
 62
7
  6
CONTINUOUS
 10
-2.37123088
 20
-2.904244729
 11
-1.79487988
 21
-2.327893729
  0
LINE
  5
310
100
AcDbEntity
  8
0
100
AcDbLine
 62
7
  6
CONTINUOUS
 10
-2.37123088
 20
-3.114255443
 11
-1.79487988
 21
-2.537904443
  0
LINE
  5
311
100
AcDbEntity
  8
0
100
AcDbLine
 62
7
  6
CONTINUOUS
 10
-2.37123088
 20
-3.3242661571
 11
-1.79487988
 21
-2.7479151571
  0
LINE
  5
312
100
AcDbEntity
  8
0
100
AcDbLine
 62
7
  6
CONTINUOUS
 10
-2.37123088
 20
-3.5342768711
 11
-1.79487988
 21
-2.9579258711
  0
LINE
  5
313
100
AcDbEntity
  8
0
100
AcDbLine
 62
7
  6
CONTINUOUS
 10
-2.37123088
 20
-3.7442875851
 11
-1.79487988
 21
-3.1679365851
  0
LINE
  5
314
100
AcDbEntity
  8
0
100
AcDbLine
 62
7
  6
CONTINUOUS
 10
-2.37123088
 20
-3.9542982991
 11
-1.79487988
 21
-3.3779472991
  0
LWPOLYLINE
  5
315
100
AcDbEntity
  8
0
100
AcDbPolyline
 62
7
  6
CONTINUOUS
 90
5
 70
0
 10
3.1819049401
 20
2.1350065452
 10
3.213746477
 20
2.1599078962
 10
3.244613999
 20
2.1848195795
 10
3.2741325527
 20
2.209739012
 10
3.3019481387
 20
2.2346661938
  0
LINE
  5
316
100
AcDbEntity
  8
0
100
AcDbLine
 62
7
  6
CONTINUOUS
 10
3.13962312
 20
2.1026145103
 11
3.1819049401
 21
2.1350065452
  0
LINE
  5
317
100
AcDbEntity
  8
0
100
AcDbLine
 62
250
  6
CONTINUOUS
 10
-3.92662688
 20
-3.0137510131
 11
-4.15162688
 21
-3.1262510131
  0
LINE
  5
318
100
AcDbEntity
  8
0
100
AcDbLine
 62
250
  6
CONTINUOUS
 10
-3.81412688
 20
-2.2825010131
 11
-3.98287688
 21
-2.3387510131
  0
LINE
  5
319
100
AcDbEntity
  8
CURVE
100
AcDbLine
 62
250
  6
CONTINUOUS
 10
-3.4775197576
 20
0.3299989869
 11
-3.3918055128
 21
0.3299989869
  0
LINE
  5
31A
100
AcDbEntity
  8
CURVE
100
AcDbLine
 62
250
  6
CONTINUOUS
 10
0.2081946303
 20
0.3299989869
 11
0.293908589
 21
0.3299989869
  0
LINE
  5
31B
100
AcDbEntity
  8
CURVE
100
AcDbLine
 62
250
  6
CONTINUOUS
 10
-1.5060911249
 20
0.3299989869
 11
-1.7632341455
 21
0.3299989869
  0
LINE
  5
31C
100
AcDbEntity
  8
CURVE
100
AcDbLine
 62
250
  6
CONTINUOUS
 10
-4.2489482473
 20
0.3299989869
 11
-4.5060911964
 21
0.3299989869
  0
LINE
  5
31D
100
AcDbEntity
  8
CURVE
100
AcDbLine
 62
250
  6
CONTINUOUS
 10
-5.1918054412
 20
0.3299989869
 11
-5.4489483009
 21
0.3299989869
  0
LINE
  5
31E
100
AcDbEntity
  8
CURVE
100
AcDbLine
 62
250
  6
CONTINUOUS
 10
-2.7346627544
 20
2.8299989869
 11
-2.4918055247
 21
2.5871418585
  0
LINE
  5
31F
100
AcDbEntity
  8
CURVE
100
AcDbLine
 62
250
  6
CONTINUOUS
 10
-1.8846627544
 20
2.1014276018
 11
-1.6418055247
 21
1.8585704227
  0
LINE
  5
320
100
AcDbEntity
  8
CURVE
100
AcDbLine
 62
250
  6
CONTINUOUS
 10
0.293908589
 20
0.3299989869
 11
0.4653376509
 21
0.1157132854
  0
LINE
  5
321
100
AcDbEntity
  8
CURVE
100
AcDbLine
 62
250
  6
CONTINUOUS
 10
0.4653376509
 20
0.1157132854
 11
0.5510516096
 21
-0.0985724161
  0
LINE
  5
322
100
AcDbEntity
  8
CURVE
100
AcDbLine
 62
250
  6
CONTINUOUS
 10
-0.14517088
 20
4.0996409869
 11
-0.30821888
 21
4.7304819869
  0
LINE
  5
323
100
AcDbEntity
  8
0
100
AcDbLine
 62
250
  6
CONTINUOUS
 10
-0.14517088
 20
4.0996409869
 11
-0.30821888
 21
4.7304819869
  0
LWPOLYLINE
  5
324
100
AcDbEntity
  8
0
100
AcDbPolyline
 62
250
  6
CONTINUOUS
 90
60
 70
0
 10
1.3770477146
 20
-2.8921168045
 10
1.3764792988
 20
-2.8772872782
 10
1.3758298926
 20
-2.8625204342
 10
1.3750845177
 20
-2.8478112327
 10
1.3742281961
 20
-2.833154634
 10
1.3732459498
 20
-2.8185455986
 10
1.3721228006
 20
-2.8039790867
 10
1.3708437705
 20
-2.7894500586
 10
1.3693938814
 20
-2.7749534748
 10
1.3677581552
 20
-2.7604842954
 10
1.3659216138
 20
-2.746037481
 10
1.3638692791
 20
-2.7316079917
 10
1.3615861731
 20
-2.717190788
 10
1.3590573177
 20
-2.7027808301
 10
1.3562677348
 20
-2.6883730784
 10
1.3532024463
 20
-2.6739624932
 10
1.3498464741
 20
-2.6595440349
 10
1.3461848401
 20
-2.6451126638
 10
1.3422025664
 20
-2.6306633402
 10
1.3378846747
 20
-2.6161910245
 10
1.333216187
 20
-2.601690677
 10
1.3281821252
 20
-2.587157258
 10
1.3227675113
 20
-2.5725857278
 10
1.3169573671
 20
-2.5579710468
 10
1.3107367146
 20
-2.5433081754
 10
1.3040905757
 20
-2.5285920738
 10
1.2970039722
 20
-2.5138177023
 10
1.2936019482
 20
-2.5070219567
 10
1.290103531
 20
-2.5002261697
 10
1.2865081593
 20
-2.4934436211
 10
1.2828152721
 20
-2.486687591
 10
1.2790243084
 20
-2.479971359
 10
1.275134707
 20
-2.4733082053
 10
1.2711459068
 20
-2.4667114096
 10
1.2670573468
 20
-2.4601942518
 10
1.2628684658
 20
-2.4537700119
 10
1.2585787029
 20
-2.4474519697
 10
1.2541874968
 20
-2.4412534052
 10
1.2496942865
 20
-2.4351875981
 10
1.2450985108
 20
-2.4292678285
 10
1.2403996088
 20
-2.4235073761
 10
1.2355970193
 20
-2.4179195209
 10
1.2306901812
 20
-2.4125175428
 10
1.2256785335
 20
-2.4073147217
 10
1.2205615149
 20
-2.4023243375
 10
1.2153385646
 20
-2.39755967
 10
1.2100091212
 20
-2.3930339991
 10
1.2045726239
 20
-2.3887606048
 10
1.1990285114
 20
-2.3847527669
 10
1.1933762227
 20
-2.3810237654
 10
1.1876151966
 20
-2.37758688
 10
1.1817448722
 20
-2.3744553908
 10
1.1757646883
 20
-2.3716425776
 10
1.1696740837
 20
-2.3691617202
 10
1.1634724975
 20
-2.3670260987
 10
1.1571593686
 20
-2.3652489928
 10
1.1507341357
 20
-2.3638436825
 10
1.144196238
 20
-2.3628234476
 10
1.1375451141
 20
-2.3622015682
 10
1.1307802032
 20
-2.3619913239
  0
LWPOLYLINE
  5
325
100
AcDbEntity
  8
CURVE
100
AcDbPolyline
 62
250
  6
CONTINUOUS
 90
59
 70
0
 10
1.3158755984
 20
4.7054851081
 10
1.3158951038
 20
4.6981045717
 10
1.3157267821
 20
4.690666962
 10
1.3153705502
 20
4.6831824654
 10
1.3148263251
 20
4.6756612686
 10
1.3140940234
 20
4.6681135582
 10
1.3131735622
 20
4.6605495206
 10
1.3120648584
 20
4.6529793425
 10
1.3107678287
 20
4.6454132104
 10
1.3092823901
 20
4.6378613108
 10
1.3076084594
 20
4.6303338304
 10
1.3057459536
 20
4.6228409556
 10
1.3036947894
 20
4.615392873
 10
1.3014548838
 20
4.6079997692
 10
1.2990261537
 20
4.6006718308
 10
1.2964085159
 20
4.5934192442
 10
1.2936018873
 20
4.5862521961
 10
1.2906061848
 20
4.579180873
 10
1.2874213253
 20
4.5722154615
 10
1.2840472256
 20
4.5653661481
 10
1.2804838026
 20
4.5586431194
 10
1.2767309731
 20
4.5520565619
 10
1.2727886542
 20
4.5456166622
 10
1.2686567626
 20
4.5393336069
 10
1.2643352152
 20
4.5332175824
 10
1.2598239289
 20
4.5272787754
 10
1.2551228206
 20
4.5215273725
 10
1.2502318071
 20
4.5159735601
 10
1.2451508053
 20
4.5106275249
 10
1.2398797322
 20
4.5054994533
 10
1.2344185045
 20
4.500599532
 10
1.2288457583
 20
4.495996548
 10
1.2230965732
 20
4.4916205882
 10
1.2171796664
 20
4.4874667063
 10
1.2111037552
 20
4.4835299561
 10
1.2048775566
 20
4.4798053912
 10
1.198509788
 20
4.4762880655
 10
1.1920091665
 20
4.4729730326
 10
1.1853844093
 20
4.4698553463
 10
1.1786442337
 20
4.4669300603
 10
1.1717973567
 20
4.4641922284
 10
1.1648524957
 20
4.4616369042
 10
1.1578183679
 20
4.4592591416
 10
1.1507036903
 20
4.4570539943
 10
1.1435171803
 20
4.4550165159
 10
1.136267555
 20
4.4531417603
 10
1.1289635317
 20
4.4514247811
 10
1.1216138275
 20
4.4498606322
 10
1.1142271597
 20
4.4484443672
 10
1.1068122454
 20
4.4471710398
 10
1.0993778018
 20
4.4460357039
 10
1.0919325462
 20
4.4450334131
 10
1.0844851957
 20
4.4441592212
 10
1.0770444676
 20
4.4434081819
 10
1.0696190791
 20
4.442775349
 10
1.0622177473
 20
4.4422557761
 10
1.0548491894
 20
4.4418445171
 10
1.0475221227
 20
4.4415366256
 10
1.0402452644
 20
4.4413271554
  0
LWPOLYLINE
  5
326
100
AcDbEntity
  8
0
100
AcDbPolyline
 62
250
  6
CONTINUOUS
 90
59
 70
0
 10
1.3158755984
 20
4.7054851081
 10
1.3158951038
 20
4.6981045717
 10
1.3157267821
 20
4.690666962
 10
1.3153705502
 20
4.6831824654
 10
1.3148263251
 20
4.6756612686
 10
1.3140940234
 20
4.6681135582
 10
1.3131735622
 20
4.6605495206
 10
1.3120648584
 20
4.6529793425
 10
1.3107678287
 20
4.6454132104
 10
1.3092823901
 20
4.6378613108
 10
1.3076084594
 20
4.6303338304
 10
1.3057459536
 20
4.6228409556
 10
1.3036947894
 20
4.615392873
 10
1.3014548838
 20
4.6079997692
 10
1.2990261537
 20
4.6006718308
 10
1.2964085159
 20
4.5934192442
 10
1.2936018873
 20
4.5862521961
 10
1.2906061848
 20
4.579180873
 10
1.2874213253
 20
4.5722154615
 10
1.2840472256
 20
4.5653661481
 10
1.2804838026
 20
4.5586431194
 10
1.2767309731
 20
4.5520565619
 10
1.2727886542
 20
4.5456166622
 10
1.2686567626
 20
4.5393336069
 10
1.2643352152
 20
4.5332175824
 10
1.2598239289
 20
4.5272787754
 10
1.2551228206
 20
4.5215273725
 10
1.2502318071
 20
4.5159735601
 10
1.2451508053
 20
4.5106275249
 10
1.2398797322
 20
4.5054994533
 10
1.2344185045
 20
4.500599532
 10
1.2288457583
 20
4.495996548
 10
1.2230965732
 20
4.4916205882
 10
1.2171796664
 20
4.4874667063
 10
1.2111037552
 20
4.4835299561
 10
1.2048775566
 20
4.4798053912
 10
1.198509788
 20
4.4762880655
 10
1.1920091665
 20
4.4729730326
 10
1.1853844093
 20
4.4698553463
 10
1.1786442337
 20
4.4669300603
 10
1.1717973567
 20
4.4641922284
 10
1.1648524957
 20
4.4616369042
 10
1.1578183679
 20
4.4592591416
 10
1.1507036903
 20
4.4570539943
 10
1.1435171803
 20
4.4550165159
 10
1.136267555
 20
4.4531417603
 10
1.1289635317
 20
4.4514247811
 10
1.1216138275
 20
4.4498606322
 10
1.1142271597
 20
4.4484443672
 10
1.1068122454
 20
4.4471710398
 10
1.0993778018
 20
4.4460357039
 10
1.0919325462
 20
4.4450334131
 10
1.0844851957
 20
4.4441592212
 10
1.0770444676
 20
4.4434081819
 10
1.0696190791
 20
4.442775349
 10
1.0622177473
 20
4.4422557761
 10
1.0548491894
 20
4.4418445171
 10
1.0475221227
 20
4.4415366256
 10
1.0402452644
 20
4.4413271554
  0
LINE
  5
327
100
AcDbEntity
  8
0
100
AcDbLine
 62
250
  6
CONTINUOUS
 10
1.13078012
 20
-2.2399570131
 11
1.13078012
 21
-3.6188310131
  0
LINE
  5
328
100
AcDbEntity
  8
INTF_1
100
AcDbLine
 62
7
  6
CONTINUOUS
 10
1.13078012
 20
-2.2399570131
 11
1.13078012
 21
-3.6188310131
  0
LINE
  5
329
100
AcDbEntity
  8
0
100
AcDbLine
 62
250
  6
CONTINUOUS
 10
1.35397512
 20
-2.5387000131
 11
1.35397512
 21
-2.5949050131
  0
LINE
  5
32A
100
AcDbEntity
  8
INTF_1
100
AcDbLine
 62
7
  6
CONTINUOUS
 10
1.35397512
 20
-2.5387000131
 11
1.35397512
 21
-2.5949050131
  0
LINE
  5
32B
100
AcDbEntity
  8
CURVE
100
AcDbLine
 62
250
  6
CONTINUOUS
 10
1.4080753027
 20
4.2911791785
 11
1.4080753027
 21
4.3012238857
  0
LINE
  5
32C
100
AcDbEntity
  8
0
100
AcDbLine
 62
250
  6
CONTINUOUS
 10
1.4080753027
 20
4.2911791785
 11
1.4080753027
 21
4.3012238857
  0
LINE
  5
32D
100
AcDbEntity
  8
CURVE
100
AcDbLine
 62
250
  6
CONTINUOUS
 10
1.5153372456
 20
2.3442847301
 11
1.5153372456
 21
2.5871418585
  0
LINE
  5
32E
100
AcDbEntity
  8
INTF_1
100
AcDbLine
 62
7
  6
CONTINUOUS
 10
1.28323112
 20
-3.2162060131
 11
1.28354712
 21
-2.8921170131
  0
LINE
  5
32F
100
AcDbEntity
  8
0
100
AcDbLine
 62
250
  6
CONTINUOUS
 10
1.28323112
 20
-3.2162060131
 11
1.28354712
 21
-2.8921170131
  0
LINE
  5
330
100
AcDbEntity
  8
INTF_1
100
AcDbLine
 62
7
  6
CONTINUOUS
 10
1.40656112
 20
-2.8921170131
 11
1.40624512
 21
-3.2162060131
  0
LINE
  5
331
100
AcDbEntity
  8
0
100
AcDbLine
 62
250
  6
CONTINUOUS
 10
1.40656112
 20
-2.8921170131
 11
1.40624512
 21
-3.2162060131
  0
LWPOLYLINE
  5
332
100
AcDbEntity
  8
INTF_1
100
AcDbPolyline
 62
7
  6
CONTINUOUS
 90
36
 70
0
 10
1.3713231608
 20
-3.2162061214
 10
1.3668773426
 20
-3.2468797033
 10
1.3645389242
 20
-3.2621807799
 10
1.3620768899
 20
-3.2774663778
 10
1.3594562824
 20
-3.2927427448
 10
1.3566421445
 20
-3.3080161289
 10
1.3535995189
 20
-3.3232927781
 10
1.3502934484
 20
-3.3385789405
 10
1.3478595343
 20
-3.3490590711
 10
1.345282324
 20
-3.359538449
 10
1.3425585946
 20
-3.3700089233
 10
1.3396851232
 20
-3.3804623428
 10
1.3366586871
 20
-3.3908905565
 10
1.3334760635
 20
-3.4012854133
 10
1.3301340295
 20
-3.4116387622
 10
1.3266293624
 20
-3.4219424521
 10
1.3229588393
 20
-3.4321883318
 10
1.3191192374
 20
-3.4423682504
 10
1.315107334
 20
-3.4524740568
 10
1.3109199061
 20
-3.4624975999
 10
1.3065537311
 20
-3.4724307287
 10
1.3020055861
 20
-3.482265292
 10
1.2972722483
 20
-3.4919931388
 10
1.2923504948
 20
-3.5016061181
 10
1.2872371029
 20
-3.5110960787
 10
1.2819288498
 20
-3.5204548696
 10
1.2764225127
 20
-3.5296743398
 10
1.2707148687
 20
-3.5387463381
 10
1.264802695
 20
-3.5476627135
 10
1.2586827689
 20
-3.556415315
 10
1.2523518675
 20
-3.5649959914
 10
1.245806768
 20
-3.5733965917
 10
1.2390442476
 20
-3.5816089649
 10
1.2320610836
 20
-3.5896249598
 10
1.224854053
 20
-3.5974364254
 10
1.2174199331
 20
-3.6050352106
  0
LINE
  5
333
100
AcDbEntity
  8
CURVE
100
AcDbLine
 62
250
  6
CONTINUOUS
 10
1.2367661406
 20
-1.1700010131
 11
1.57962312
 21
0.3299989869
  0
LINE
  5
334
100
AcDbEntity
  8
0
100
AcDbLine
 62
7
  6
CONTINUOUS
 10
-2.37123088
 20
-4.1643090131
 11
-1.79487988
 21
-3.5879580131
  0
LINE
  5
335
100
AcDbEntity
  8
0
100
AcDbLine
 62
7
  6
CONTINUOUS
 10
-2.161220166
 20
-4.1643090131
 11
-1.79487988
 21
-3.7979687271
  0
LINE
  5
336
100
AcDbEntity
  8
0
100
AcDbLine
 62
7
  6
CONTINUOUS
 10
-1.951209452
 20
-4.1643090131
 11
-1.79487988
 21
-4.0079794411
  0
LINE
  5
337
100
AcDbEntity
  8
0
100
AcDbLine
 62
250
  6
CONTINUOUS
 10
-3.47662688
 20
-3.9137510131
 11
-3.30787688
 21
-3.8012510131
  0
LINE
  5
338
100
AcDbEntity
  8
CURVE
100
AcDbLine
 62
250
  6
CONTINUOUS
 10
1.9224800993
 20
-0.7057152818
 11
2.1224804808
 21
-0.598572431
  0
LINE
  5
339
100
AcDbEntity
  8
CURVE
100
AcDbLine
 62
250
  6
CONTINUOUS
 10
2.3510516096
 20
-0.8128581549
 11
2.5796233107
 21
-0.7057152818
  0
LINE
  5
33A
100
AcDbEntity
  8
0
100
AcDbLine
 62
7
  6
CONTINUOUS
 10
5.8796226724
 20
1.0299989869
 11
3.751161768
 21
1.0299989869
  0
LINE
  5
33B
100
AcDbEntity
  8
0
100
AcDbLine
 62
7
  6
CONTINUOUS
 10
3.13962312
 20
1.0299989869
 11
3.751161768
 21
1.0299989869
  0
LINE
  5
33C
100
AcDbEntity
  8
CURVE
100
AcDbLine
 62
250
  6
CONTINUOUS
 10
1.5153372456
 20
1.1299989869
 11
0.6653372456
 21
1.1299989869
  0
LINE
  5
33D
100
AcDbEntity
  8
CURVE
100
AcDbLine
 62
250
  6
CONTINUOUS
 10
-0.548948295
 20
1.1299989869
 11
0.0581942726
 21
1.1299989869
  0
LINE
  5
33E
100
AcDbEntity
  8
CURVE
100
AcDbLine
 62
250
  6
CONTINUOUS
 10
-2.7346627544
 20
1.1299989869
 11
-2.8560912679
 21
1.1299989869
  0
LINE
  5
33F
100
AcDbEntity
  8
CURVE
100
AcDbLine
 62
250
  6
CONTINUOUS
 10
-4.0703769605
 20
1.1299989869
 11
-4.19180555
 21
1.1299989869
  0
LINE
  5
340
100
AcDbEntity
  8
0
100
AcDbLine
 62
7
  6
CONTINUOUS
 10
3.3019481387
 20
1.22533178
 11
3.4740210697
 21
1.22533178
  0
LINE
  5
341
100
AcDbEntity
  8
CURVE
100
AcDbLine
 62
250
  6
CONTINUOUS
 10
-1.6418055247
 20
1.8585704227
 11
-1.1156152319
 21
1.8585704227
  0
LINE
  5
342
100
AcDbEntity
  8
CURVE
100
AcDbLine
 62
250
  6
CONTINUOUS
 10
2.1224804808
 20
-0.598572431
 11
2.3510516096
 21
-0.8128581549
  0
LINE
  5
343
100
AcDbEntity
  8
CURVE
100
AcDbLine
 62
250
  6
CONTINUOUS
 10
-1.0346627544
 20
2.5871418585
 11
-1.2775197815
 21
2.8299989869
  0
LINE
  5
344
100
AcDbEntity
  8
CURVE
100
AcDbLine
 62
250
  6
CONTINUOUS
 10
0.1796231915
 20
1.8585704227
 11
-0.0632342409
 21
2.1014276018
  0
LINE
  5
345
100
AcDbEntity
  8
CURVE
100
AcDbLine
 62
250
  6
CONTINUOUS
 10
0.1391467501
 20
2.5871418585
 11
-0.0632342409
 21
2.8299989869
  0
LINE
  5
346
100
AcDbEntity
  8
CURVE
100
AcDbLine
 62
250
  6
CONTINUOUS
 10
-0.12992488
 20
5.1975609869
 11
0.39163512
 21
3.4976979869
  0
LINE
  5
347
100
AcDbEntity
  8
0
100
AcDbLine
 62
250
  6
CONTINUOUS
 10
-0.12992488
 20
5.1975609869
 11
0.39163512
 21
3.4976979869
  0
LINE
  5
348
100
AcDbEntity
  8
CURVE
100
AcDbLine
 62
250
  6
CONTINUOUS
 10
0.01766112
 20
3.4976979869
 11
-0.07425788
 21
3.8370509869
  0
LINE
  5
349
100
AcDbEntity
  8
0
100
AcDbLine
 62
250
  6
CONTINUOUS
 10
0.01766112
 20
3.4976979869
 11
-0.07425788
 21
3.8370509869
  0
LINE
  5
34A
100
AcDbEntity
  8
CURVE
100
AcDbLine
 62
250
  6
CONTINUOUS
 10
0.893908589
 20
0.3299989869
 11
1.2367661406
 21
-1.1700010131
  0
LINE
  5
34B
100
AcDbEntity
  8
CURVE
100
AcDbLine
 62
250
  6
CONTINUOUS
 10
2.11347912
 20
-5.9494130131
 11
2.11347912
 21
-6.3905890131
  0
LINE
  5
34C
100
AcDbEntity
  8
0
100
AcDbLine
 62
250
  6
CONTINUOUS
 10
2.11347912
 20
-5.9494130131
 11
2.11347912
 21
-6.3905890131
  0
LINE
  5
34D
100
AcDbEntity
  8
RACCORDO
100
AcDbLine
 62
250
  6
CONTINUOUS
 10
2.33962312
 20
-12.8700010131
 11
2.33962312
 21
-13.6700010131
  0
LINE
  5
34E
100
AcDbEntity
  8
ASSI
100
AcDbLine
 62
250
  6
CONTINUOUS
 10
2.33962312
 20
-13.6700010131
 11
2.33962312
 21
-12.6896162554
  0
LINE
  5
34F
100
AcDbEntity
  8
ASSI
100
AcDbLine
 62
250
  6
CONTINUOUS
 10
2.33962312
 20
-11.6503857708
 11
2.33962312
 21
-10.8896162554
  0
LINE
  5
350
100
AcDbEntity
  8
ASSI
100
AcDbLine
 62
250
  6
CONTINUOUS
 10
2.33962312
 20
-9.8503857708
 11
2.33962312
 21
-9.0896162554
  0
LINE
  5
351
100
AcDbEntity
  8
ASSI
100
AcDbLine
 62
250
  6
CONTINUOUS
 10
2.33962312
 20
-8.0503857708
 11
2.33962312
 21
5.9103837446
  0
LINE
  5
352
100
AcDbEntity
  8
ASSI
100
AcDbLine
 62
250
  6
CONTINUOUS
 10
2.33962312
 20
6.9496142292
 11
2.33962312
 21
7.7103837446
  0
LINE
  5
353
100
AcDbEntity
  8
ASSI
100
AcDbLine
 62
250
  6
CONTINUOUS
 10
2.33962312
 20
8.7496142292
 11
2.33962312
 21
9.5103837446
  0
LINE
  5
354
100
AcDbEntity
  8
RACCORDO
100
AcDbLine
 62
250
  6
CONTINUOUS
 10
2.33962312
 20
10.7299989869
 11
2.33962312
 21
11.5299989869
  0
LINE
  5
355
100
AcDbEntity
  8
ASSI
100
AcDbLine
 62
250
  6
CONTINUOUS
 10
2.33962312
 20
10.5496142292
 11
2.33962312
 21
11.5299989869
  0
LINE
  5
356
100
AcDbEntity
  8
CURVE
100
AcDbLine
 62
250
  6
CONTINUOUS
 10
2.34877412
 20
-4.6711540131
 11
2.34877412
 21
-5.1128130131
  0
LINE
  5
357
100
AcDbEntity
  8
0
100
AcDbLine
 62
250
  6
CONTINUOUS
 10
2.34877412
 20
-4.6711540131
 11
2.34877412
 21
-5.1128130131
  0
LINE
  5
358
100
AcDbEntity
  8
CURVE
100
AcDbLine
 62
250
  6
CONTINUOUS
 10
2.34877412
 20
-7.2271890131
 11
2.34877412
 21
-7.6688480131
  0
LINE
  5
359
100
AcDbEntity
  8
0
100
AcDbLine
 62
250
  6
CONTINUOUS
 10
2.34877412
 20
-7.2271890131
 11
2.34877412
 21
-7.6688480131
  0
LINE
  5
35A
100
AcDbEntity
  8
0
100
AcDbLine
 62
250
  6
CONTINUOUS
 10
1.63111912
 20
-1.5668080131
 11
-1.18401988
 21
-4.2430360131
  0
LINE
  5
35B
100
AcDbEntity
  8
INTF_1
100
AcDbLine
 62
7
  6
CONTINUOUS
 10
1.63111912
 20
-1.5668080131
 11
-1.18401988
 21
-4.2430360131
  0
LINE
  5
35C
100
AcDbEntity
  8
CURVE
100
AcDbLine
 62
250
  6
CONTINUOUS
 10
-3.72037688
 20
-6.1700010131
 11
-2.83302888
 21
-5.4812070131
  0
LINE
  5
35D
100
AcDbEntity
  8
0
100
AcDbLine
 62
250
  6
CONTINUOUS
 10
-3.72037688
 20
-6.1700010131
 11
-2.83302888
 21
-5.4812070131
  0
LINE
  5
35E
100
AcDbEntity
  8
CURVE
100
AcDbLine
 62
250
  6
CONTINUOUS
 10
-0.0632342409
 20
2.1014276018
 11
-0.3060912679
 21
2.1014276018
  0
LINE
  5
35F
100
AcDbEntity
  8
0
100
AcDbLine
 62
7
  6
CONTINUOUS
 10
3.3019481387
 20
2.2346661938
 11
3.4740210697
 21
2.2346661938
  0
LINE
  5
360
100
AcDbEntity
  8
0
100
AcDbLine
 62
7
  6
CONTINUOUS
 10
5.8796226724
 20
2.4299989869
 11
3.751161768
 21
2.4299989869
  0
LINE
  5
361
100
AcDbEntity
  8
0
100
AcDbLine
 62
7
  6
CONTINUOUS
 10
3.13962312
 20
2.4299989869
 11
3.751161768
 21
2.4299989869
  0
LINE
  5
362
100
AcDbEntity
  8
CURVE
100
AcDbLine
 62
250
  6
CONTINUOUS
 10
-4.19180555
 20
2.8299989869
 11
-4.0703769605
 21
2.8299989869
  0
LINE
  5
363
100
AcDbEntity
  8
CURVE
100
AcDbLine
 62
250
  6
CONTINUOUS
 10
-2.8560912679
 20
2.8299989869
 11
-2.7346627544
 21
2.8299989869
  0
LINE
  5
364
100
AcDbEntity
  8
CURVE
100
AcDbLine
 62
250
  6
CONTINUOUS
 10
1.2724802185
 20
2.8299989869
 11
0.9081942726
 21
2.8299989869
  0
LINE
  5
365
100
AcDbEntity
  8
CURVE
100
AcDbLine
 62
250
  6
CONTINUOUS
 10
-0.0632342409
 20
2.8299989869
 11
-0.548948295
 21
2.8299989869
  0
LINE
  5
366
100
AcDbEntity
  8
CURVE
100
AcDbLine
 62
250
  6
CONTINUOUS
 10
-1.2775197815
 20
2.8299989869
 11
-1.6418055247
 21
2.8299989869
  0
LWPOLYLINE
  5
367
100
AcDbEntity
  8
0
100
AcDbPolyline
 62
7
  6
CONTINUOUS
 90
7
 70
0
 10
3.4740210697
 20
1.22533178
 10
3.4298159804
 20
1.2452835207
 10
3.3833574682
 20
1.2652206518
 10
3.3350042006
 20
1.2851431732
 10
3.285162228
 20
1.3050376523
 10
3.2341805286
 20
1.3249175219
 10
3.13962312
 20
1.3611009718
  0
LWPOLYLINE
  5
368
100
AcDbEntity
  8
CURVE
100
AcDbPolyline
 62
250
  6
CONTINUOUS
 90
8
 70
0
 10
1.2374427517
 20
4.0131523915
 10
1.2460673585
 20
3.9896286109
 10
1.2543404106
 20
3.9659836862
 10
1.2623001333
 20
3.9422310064
 10
1.2699847518
 20
3.91838396
 10
1.2774324913
 20
3.8944559358
 10
1.284681577
 20
3.8704603226
 10
1.2917702341
 20
3.846410509
  0
LWPOLYLINE
  5
369
100
AcDbEntity
  8
0
100
AcDbPolyline
 62
250
  6
CONTINUOUS
 90
8
 70
0
 10
1.2374427517
 20
4.0131523915
 10
1.2460673585
 20
3.9896286109
 10
1.2543404106
 20
3.9659836862
 10
1.2623001333
 20
3.9422310064
 10
1.2699847518
 20
3.91838396
 10
1.2774324913
 20
3.8944559358
 10
1.284681577
 20
3.8704603226
 10
1.2917702341
 20
3.846410509
  0
LINE
  5
36A
100
AcDbEntity
  8
CURVE
100
AcDbLine
 62
250
  6
CONTINUOUS
 10
1.3261449731
 20
3.7258170418
 11
1.3926003351
 21
3.4976983002
  0
LINE
  5
36B
100
AcDbEntity
  8
0
100
AcDbLine
 62
250
  6
CONTINUOUS
 10
1.3261449731
 20
3.7258170418
 11
1.3926003351
 21
3.4976983002
  0
LINE
  5
36C
100
AcDbEntity
  8
CURVE
100
AcDbLine
 62
250
  6
CONTINUOUS
 10
1.2917702341
 20
3.846410509
 11
1.3056191634
 21
3.7982018358
  0
LINE
  5
36D
100
AcDbEntity
  8
0
100
AcDbLine
 62
250
  6
CONTINUOUS
 10
1.2917702341
 20
3.846410509
 11
1.3056191634
 21
3.7982018358
  0
LINE
  5
36E
100
AcDbEntity
  8
CURVE
100
AcDbLine
 62
250
  6
CONTINUOUS
 10
1.3056191634
 20
3.7982018358
 11
1.3261449731
 21
3.7258170418
  0
LINE
  5
36F
100
AcDbEntity
  8
0
100
AcDbLine
 62
250
  6
CONTINUOUS
 10
1.3056191634
 20
3.7982018358
 11
1.3261449731
 21
3.7258170418
  0
LWPOLYLINE
  5
370
100
AcDbEntity
  8
CURVE
100
AcDbPolyline
 62
250
  6
CONTINUOUS
 90
45
 70
0
 10
1.6018924836
 20
3.9972751752
 10
1.5982354202
 20
4.0104162868
 10
1.5944499081
 20
4.0235908604
 10
1.5904850086
 20
4.0368262539
 10
1.5862897832
 20
4.0501498253
 10
1.5838840606
 20
4.0574719266
 10
1.5813928822
 20
4.0648211071
 10
1.5788146965
 20
4.0721899807
 10
1.5761479519
 20
4.0795711609
 10
1.5733910967
 20
4.0869572615
 10
1.5705425793
 20
4.0943408963
 10
1.567600848
 20
4.1017146789
 10
1.5645643513
 20
4.109071223
 10
1.5614315374
 20
4.1164031423
 10
1.5582008548
 20
4.1237030507
 10
1.5548707518
 20
4.1309635617
 10
1.5514396768
 20
4.1381772891
 10
1.5479060782
 20
4.1453368466
 10
1.5442684042
 20
4.1524348479
 10
1.5405251033
 20
4.1594639067
 10
1.5366746239
 20
4.1664166368
 10
1.5327154143
 20
4.1732856518
 10
1.5286459229
 20
4.1800635655
 10
1.524464598
 20
4.1867429915
 10
1.520169888
 20
4.1933165436
 10
1.5157602413
 20
4.1997768356
 10
1.5112341062
 20
4.206116481
 10
1.5065899311
 20
4.2123280936
 10
1.5018261644
 20
4.2184042871
 10
1.4969412545
 20
4.2243376753
 10
1.4919336497
 20
4.2301208719
 10
1.4868017983
 20
4.2357464905
 10
1.4815441487
 20
4.2412071448
 10
1.4761591494
 20
4.2464954487
 10
1.4706452486
 20
4.2516040157
 10
1.4650008948
 20
4.2565254597
 10
1.4592245363
 20
4.2612523943
 10
1.4533146214
 20
4.2657774332
 10
1.4472695986
 20
4.2700931901
 10
1.4410879161
 20
4.2741922788
 10
1.4347680225
 20
4.278067313
 10
1.4283083659
 20
4.2817109063
 10
1.4217073949
 20
4.2851156725
 10
1.4149635577
 20
4.2882742254
 10
1.4080753027
 20
4.2911791785
  0
LWPOLYLINE
  5
371
100
AcDbEntity
  8
0
100
AcDbPolyline
 62
250
  6
CONTINUOUS
 90
45
 70
0
 10
1.6018924836
 20
3.9972751752
 10
1.5982354202
 20
4.0104162868
 10
1.5944499081
 20
4.0235908604
 10
1.5904850086
 20
4.0368262539
 10
1.5862897832
 20
4.0501498253
 10
1.5838840606
 20
4.0574719266
 10
1.5813928822
 20
4.0648211071
 10
1.5788146965
 20
4.0721899807
 10
1.5761479519
 20
4.0795711609
 10
1.5733910967
 20
4.0869572615
 10
1.5705425793
 20
4.0943408963
 10
1.567600848
 20
4.1017146789
 10
1.5645643513
 20
4.109071223
 10
1.5614315374
 20
4.1164031423
 10
1.5582008548
 20
4.1237030507
 10
1.5548707518
 20
4.1309635617
 10
1.5514396768
 20
4.1381772891
 10
1.5479060782
 20
4.1453368466
 10
1.5442684042
 20
4.1524348479
 10
1.5405251033
 20
4.1594639067
 10
1.5366746239
 20
4.1664166368
 10
1.5327154143
 20
4.1732856518
 10
1.5286459229
 20
4.1800635655
 10
1.524464598
 20
4.1867429915
 10
1.520169888
 20
4.1933165436
 10
1.5157602413
 20
4.1997768356
 10
1.5112341062
 20
4.206116481
 10
1.5065899311
 20
4.2123280936
 10
1.5018261644
 20
4.2184042871
 10
1.4969412545
 20
4.2243376753
 10
1.4919336497
 20
4.2301208719
 10
1.4868017983
 20
4.2357464905
 10
1.4815441487
 20
4.2412071448
 10
1.4761591494
 20
4.2464954487
 10
1.4706452486
 20
4.2516040157
 10
1.4650008948
 20
4.2565254597
 10
1.4592245363
 20
4.2612523943
 10
1.4533146214
 20
4.2657774332
 10
1.4472695986
 20
4.2700931901
 10
1.4410879161
 20
4.2741922788
 10
1.4347680225
 20
4.278067313
 10
1.4283083659
 20
4.2817109063
 10
1.4217073949
 20
4.2851156725
 10
1.4149635577
 20
4.2882742254
 10
1.4080753027
 20
4.2911791785
  0
LINE
  5
372
100
AcDbEntity
  8
CURVE
100
AcDbLine
 62
250
  6
CONTINUOUS
 10
1.6291747549
 20
3.8963788823
 11
1.6018924836
 21
3.9972751752
  0
LINE
  5
373
100
AcDbEntity
  8
0
100
AcDbLine
 62
250
  6
CONTINUOUS
 10
1.6291747549
 20
3.8963788823
 11
1.6018924836
 21
3.9972751752
  0
LINE
  5
374
100
AcDbEntity
  8
CURVE
100
AcDbLine
 62
250
  6
CONTINUOUS
 10
1.7339036784
 20
3.4976983002
 11
1.7177148682
 21
3.5583864845
  0
LINE
  5
375
100
AcDbEntity
  8
0
100
AcDbLine
 62
250
  6
CONTINUOUS
 10
1.7339036784
 20
3.4976983002
 11
1.7177148682
 21
3.5583864845
  0
LINE
  5
376
100
AcDbEntity
  8
CURVE
100
AcDbLine
 62
250
  6
CONTINUOUS
 10
1.6616556981
 20
3.7734009071
 11
1.6291747549
 21
3.8963788823
  0
LINE
  5
377
100
AcDbEntity
  8
0
100
AcDbLine
 62
250
  6
CONTINUOUS
 10
1.6616556981
 20
3.7734009071
 11
1.6291747549
 21
3.8963788823
  0
LINE
  5
378
100
AcDbEntity
  8
CURVE
100
AcDbLine
 62
250
  6
CONTINUOUS
 10
1.7177148682
 20
3.5583864845
 11
1.6616556981
 21
3.7734009071
  0
LINE
  5
379
100
AcDbEntity
  8
0
100
AcDbLine
 62
250
  6
CONTINUOUS
 10
1.7177148682
 20
3.5583864845
 11
1.6616556981
 21
3.7734009071
  0
LINE
  5
37A
100
AcDbEntity
  8
RACCORDO
100
AcDbLine
 62
7
  6
CONTINUOUS
 10
3.13962312
 20
-12.8700010131
 11
3.13962312
 21
10.7299989869
  0
LINE
  5
37B
100
AcDbEntity
  8
ASSI
100
AcDbLine
 62
7
  6
CONTINUOUS
 10
3.13962312
 20
-12.8700010131
 11
3.13962312
 21
10.7299989869
  0
LINE
  5
37C
100
AcDbEntity
  8
0
100
AcDbLine
 62
250
  6
CONTINUOUS
 10
3.4740210697
 20
2.2346661938
 11
3.4740210697
 21
1.22533178
  0
LINE
  5
37D
100
AcDbEntity
  8
0
100
AcDbLine
 62
250
  6
CONTINUOUS
 10
3.4740210697
 20
-2.6653338062
 11
3.4740210697
 21
-3.67466822
  0
LWPOLYLINE
  5
37E
100
AcDbEntity
  8
0
100
AcDbPolyline
 62
250
  6
CONTINUOUS
 90
36
 70
0
 10
1.2174199331
 20
-3.6050352106
 10
1.224854053
 20
-3.5974364254
 10
1.2320610836
 20
-3.5896249598
 10
1.2390442476
 20
-3.5816089649
 10
1.245806768
 20
-3.5733965917
 10
1.2523518675
 20
-3.5649959914
 10
1.2586827689
 20
-3.556415315
 10
1.264802695
 20
-3.5476627135
 10
1.2707148687
 20
-3.5387463381
 10
1.2764225127
 20
-3.5296743398
 10
1.2819288498
 20
-3.5204548696
 10
1.2872371029
 20
-3.5110960787
 10
1.2923504948
 20
-3.5016061181
 10
1.2972722483
 20
-3.4919931388
 10
1.3020055861
 20
-3.482265292
 10
1.3065537311
 20
-3.4724307287
 10
1.3109199061
 20
-3.4624975999
 10
1.315107334
 20
-3.4524740568
 10
1.3191192374
 20
-3.4423682504
 10
1.3229588393
 20
-3.4321883318
 10
1.3266293624
 20
-3.4219424521
 10
1.3301340295
 20
-3.4116387622
 10
1.3334760635
 20
-3.4012854133
 10
1.3366586871
 20
-3.3908905565
 10
1.3396851232
 20
-3.3804623428
 10
1.3425585946
 20
-3.3700089233
 10
1.345282324
 20
-3.359538449
 10
1.3478595343
 20
-3.3490590711
 10
1.3502934484
 20
-3.3385789405
 10
1.3535995189
 20
-3.3232927781
 10
1.3566421445
 20
-3.3080161289
 10
1.3594562824
 20
-3.2927427448
 10
1.3620768899
 20
-3.2774663778
 10
1.3645389242
 20
-3.2621807799
 10
1.3668773426
 20
-3.2468797033
 10
1.3713231608
 20
-3.2162061214
  0
LWPOLYLINE
  5
37F
100
AcDbEntity
  8
0
100
AcDbPolyline
 62
7
  6
CONTINUOUS
 90
5
 70
0
 10
3.1819049401
 20
-2.7649934548
 10
3.213746477
 20
-2.7400921038
 10
3.244613999
 20
-2.7151804205
 10
3.2741325527
 20
-2.690260988
 10
3.3019481387
 20
-2.6653338062
  0
LINE
  5
380
100
AcDbEntity
  8
0
100
AcDbLine
 62
7
  6
CONTINUOUS
 10
3.13962312
 20
-2.7973854897
 11
3.1819049401
 21
-2.7649934548
  0
LINE
  5
381
100
AcDbEntity
  8
0
100
AcDbLine
 62
7
  6
CONTINUOUS
 10
3.3019481387
 20
-2.6653338062
 11
3.5790888371
 21
-2.4700010131
  0
LWPOLYLINE
  5
382
100
AcDbEntity
  8
0
100
AcDbPolyline
 62
7
  6
CONTINUOUS
 90
6
 70
0
 10
3.2341805286
 20
-2.7649195481
 10
3.285162228
 20
-2.7450396786
 10
3.3350042006
 20
-2.7251451994
 10
3.3833574682
 20
-2.705222678
 10
3.4298159804
 20
-2.6852855469
 10
3.4740210697
 20
-2.6653338062
  0
LINE
  5
383
100
AcDbEntity
  8
0
100
AcDbLine
 62
7
  6
CONTINUOUS
 10
3.13962312
 20
-2.801102998
 11
3.2341805286
 21
-2.7649195481
  0
LINE
  5
384
100
AcDbEntity
  8
CURVE
100
AcDbLine
 62
250
  6
CONTINUOUS
 10
-3.33187888
 20
3.4976979869
 11
-2.97705088
 21
3.4976979869
  0
LINE
  5
385
100
AcDbEntity
  8
0
100
AcDbLine
 62
250
  6
CONTINUOUS
 10
-3.33187888
 20
3.4976979869
 11
-2.97705088
 21
3.4976979869
  0
LINE
  5
386
100
AcDbEntity
  8
CURVE
100
AcDbLine
 62
250
  6
CONTINUOUS
 10
0.39163512
 20
3.4976979869
 11
0.01766112
 21
3.4976979869
  0
LINE
  5
387
100
AcDbEntity
  8
0
100
AcDbLine
 62
250
  6
CONTINUOUS
 10
0.39163512
 20
3.4976979869
 11
0.01766112
 21
3.4976979869
  0
LINE
  5
388
100
AcDbEntity
  8
CURVE
100
AcDbLine
 62
250
  6
CONTINUOUS
 10
-0.65538588
 20
3.4976979869
 11
-1.00636388
 21
3.4976979869
  0
LINE
  5
389
100
AcDbEntity
  8
0
100
AcDbLine
 62
250
  6
CONTINUOUS
 10
-0.65538588
 20
3.4976979869
 11
-1.00636388
 21
3.4976979869
  0
LINE
  5
38A
100
AcDbEntity
  8
CURVE
100
AcDbLine
 62
250
  6
CONTINUOUS
 10
-1.06208088
 20
3.4976979869
 11
-1.40919688
 21
3.4976979869
  0
LINE
  5
38B
100
AcDbEntity
  8
0
100
AcDbLine
 62
250
  6
CONTINUOUS
 10
-1.06208088
 20
3.4976979869
 11
-1.40919688
 21
3.4976979869
  0
LINE
  5
38C
100
AcDbEntity
  8
CURVE
100
AcDbLine
 62
250
  6
CONTINUOUS
 10
-1.90398888
 20
3.4976979869
 11
-1.95375288
 21
3.4976979869
  0
LINE
  5
38D
100
AcDbEntity
  8
0
100
AcDbLine
 62
250
  6
CONTINUOUS
 10
-1.90398888
 20
3.4976979869
 11
-1.95375288
 21
3.4976979869
  0
LINE
  5
38E
100
AcDbEntity
  8
CURVE
100
AcDbLine
 62
250
  6
CONTINUOUS
 10
-2.44658088
 20
3.4976979869
 11
-2.78603588
 21
3.4976979869
  0
LINE
  5
38F
100
AcDbEntity
  8
0
100
AcDbLine
 62
250
  6
CONTINUOUS
 10
-2.44658088
 20
3.4976979869
 11
-2.78603588
 21
3.4976979869
  0
LINE
  5
390
100
AcDbEntity
  8
CURVE
100
AcDbLine
 62
250
  6
CONTINUOUS
 10
-4.00996088
 20
3.4976979869
 11
-4.32265288
 21
3.4976979869
  0
LINE
  5
391
100
AcDbEntity
  8
0
100
AcDbLine
 62
250
  6
CONTINUOUS
 10
-4.00996088
 20
3.4976979869
 11
-4.32265288
 21
3.4976979869
  0
LINE
  5
392
100
AcDbEntity
  8
CURVE
100
AcDbLine
 62
250
  6
CONTINUOUS
 10
0.4958297839
 20
3.4976983002
 11
0.8492301159
 21
3.4976983002
  0
LINE
  5
393
100
AcDbEntity
  8
0
100
AcDbLine
 62
250
  6
CONTINUOUS
 10
0.4958297839
 20
3.4976983002
 11
0.8492301159
 21
3.4976983002
  0
LINE
  5
394
100
AcDbEntity
  8
CURVE
100
AcDbLine
 62
250
  6
CONTINUOUS
 10
1.3926003351
 20
3.4976983002
 11
1.7339036784
 21
3.4976983002
  0
LINE
  5
395
100
AcDbEntity
  8
0
100
AcDbLine
 62
250
  6
CONTINUOUS
 10
1.3926003351
 20
3.4976983002
 11
1.7339036784
 21
3.4976983002
  0
LINE
  5
396
100
AcDbEntity
  8
CURVE
100
AcDbLine
 62
250
  6
CONTINUOUS
 10
-0.07425788
 20
3.8370509869
 11
-0.55747488
 21
3.8370509869
  0
LINE
  5
397
100
AcDbEntity
  8
0
100
AcDbLine
 62
250
  6
CONTINUOUS
 10
-0.07425788
 20
3.8370509869
 11
-0.55747488
 21
3.8370509869
  0
LINE
  5
398
100
AcDbEntity
  8
0
100
AcDbLine
 62
7
  6
CONTINUOUS
 10
3.5790888371
 20
1.0299989869
 11
3.3019481387
 21
1.22533178
  0
LINE
  5
399
100
AcDbEntity
  8
0
100
AcDbLine
 62
7
  6
CONTINUOUS
 10
3.751161768
 20
1.0299989869
 11
3.4740210697
 21
1.22533178
  0
LWPOLYLINE
  5
39A
100
AcDbEntity
  8
0
100
AcDbPolyline
 62
7
  6
CONTINUOUS
 90
6
 70
0
 10
3.3019481387
 20
1.22533178
 10
3.2741325527
 20
1.2502589618
 10
3.244613999
 20
1.2751783943
 10
3.213746477
 20
1.3000900776
 10
3.1819049401
 20
1.3249914286
 10
3.13962312
 20
1.3573834634
  0
LINE
  5
39B
100
AcDbEntity
  8
CURVE
100
AcDbLine
 62
250
  6
CONTINUOUS
 10
1.5153372456
 20
2.5871418585
 11
1.2724802185
 21
2.8299989869
  0
LINE
  5
39C
100
AcDbEntity
  8
0
100
AcDbLine
 62
7
  6
CONTINUOUS
 10
3.4740210697
 20
-2.6653338062
 11
3.751161768
 21
-2.4700010131
  0
LWPOLYLINE
  5
39D
100
AcDbEntity
  8
CURVE
100
AcDbPolyline
 62
250
  6
CONTINUOUS
 90
73
 70
0
 10
1.4080753027
 20
4.3012238857
 10
1.4138649973
 20
4.3022866337
 10
1.4194845051
 20
4.3039156731
 10
1.4249480515
 20
4.3060481443
 10
1.4302698618
 20
4.3086211874
 10
1.4354641616
 20
4.3115719427
 10
1.4405451763
 20
4.3148375505
 10
1.4455271311
 20
4.3183551508
 10
1.4504242515
 20
4.3220618841
 10
1.455250763
 20
4.3258948904
 10
1.4600208908
 20
4.3297913101
 10
1.471838244
 20
4.3396408954
 10
1.4833729369
 20
4.3495442442
 10
1.4946096707
 20
4.359551609
 10
1.5055331466
 20
4.3697132426
 10
1.5161280657
 20
4.3800793976
 10
1.526379129
 20
4.3907003266
 10
1.5362710377
 20
4.4016262824
 10
1.545788493
 20
4.4129075175
 10
1.5556313646
 20
4.4255323183
 10
1.565012046
 20
4.4385955042
 10
1.5739229822
 20
4.4520624187
 10
1.5823566178
 20
4.4658984054
 10
1.5903053979
 20
4.4800688076
 10
1.5977617673
 20
4.494538969
 10
1.6047181708
 20
4.509274233
 10
1.6111670533
 20
4.5242399431
 10
1.6171008596
 20
4.5394014429
 10
1.6225120346
 20
4.5547240759
 10
1.6273912463
 20
4.5701634678
 10
1.6317480218
 20
4.5857201995
 10
1.6355891549
 20
4.6013853624
 10
1.638921439
 20
4.6171500478
 10
1.6417516676
 20
4.6330053471
 10
1.6440866344
 20
4.6489423516
 10
1.6461581039
 20
4.6672484662
 10
1.6476022146
 20
4.6856264741
 10
1.6484299852
 20
4.7040531311
 10
1.648652434
 20
4.7225051927
 10
1.6482805798
 20
4.7409594149
 10
1.647325441
 20
4.7593925531
 10
1.6458379538
 20
4.7773234178
 10
1.6437863212
 20
4.7951903604
 10
1.6411504741
 20
4.8129716033
 10
1.6379103437
 20
4.8306453689
 10
1.6340458609
 20
4.8481898797
 10
1.630024421
 20
4.8638319372
 10
1.6254783894
 20
4.8793329466
 10
1.6204038872
 20
4.8946738986
 10
1.6147970355
 20
4.909835784
 10
1.6086539557
 20
4.9247995938
 10
1.6013557551
 20
4.9408416501
 10
1.5934329267
 20
4.9565997549
 10
1.5849009157
 20
4.9720472207
 10
1.5757751672
 20
4.9871573603
 10
1.5660711264
 20
5.0019034863
 10
1.5558042386
 20
5.0162589112
 10
1.544989949
 20
5.0301969477
 10
1.5336437027
 20
5.0436909085
 10
1.5224533782
 20
5.056005903
 10
1.5108180234
 20
5.0678912968
 10
1.498753351
 20
5.079337424
 10
1.4862750742
 20
5.0903346185
 10
1.4733989059
 20
5.1008732144
 10
1.4601405592
 20
5.1109435455
 10
1.446515747
 20
5.1205359458
 10
1.4363615471
 20
5.1272157261
 10
1.4260204252
 20
5.1335998388
 10
1.4154918147
 20
5.1396516771
 10
1.4047751489
 20
5.1453346345
 10
1.3938698611
 20
5.1506121042
 10
1.3827753849
 20
5.1554474797
 10
1.3714911535
 20
5.1598041543
  0
LWPOLYLINE
  5
39E
100
AcDbEntity
  8
0
100
AcDbPolyline
 62
250
  6
CONTINUOUS
 90
73
 70
0
 10
1.4080753027
 20
4.3012238857
 10
1.4138649973
 20
4.3022866337
 10
1.4194845051
 20
4.3039156731
 10
1.4249480515
 20
4.3060481443
 10
1.4302698618
 20
4.3086211874
 10
1.4354641616
 20
4.3115719427
 10
1.4405451763
 20
4.3148375505
 10
1.4455271311
 20
4.3183551508
 10
1.4504242515
 20
4.3220618841
 10
1.455250763
 20
4.3258948904
 10
1.4600208908
 20
4.3297913101
 10
1.471838244
 20
4.3396408954
 10
1.4833729369
 20
4.3495442442
 10
1.4946096707
 20
4.359551609
 10
1.5055331466
 20
4.3697132426
 10
1.5161280657
 20
4.3800793976
 10
1.526379129
 20
4.3907003266
 10
1.5362710377
 20
4.4016262824
 10
1.545788493
 20
4.4129075175
 10
1.5556313646
 20
4.4255323183
 10
1.565012046
 20
4.4385955042
 10
1.5739229822
 20
4.4520624187
 10
1.5823566178
 20
4.4658984054
 10
1.5903053979
 20
4.4800688076
 10
1.5977617673
 20
4.494538969
 10
1.6047181708
 20
4.509274233
 10
1.6111670533
 20
4.5242399431
 10
1.6171008596
 20
4.5394014429
 10
1.6225120346
 20
4.5547240759
 10
1.6273912463
 20
4.5701634678
 10
1.6317480218
 20
4.5857201995
 10
1.6355891549
 20
4.6013853624
 10
1.638921439
 20
4.6171500478
 10
1.6417516676
 20
4.6330053471
 10
1.6440866344
 20
4.6489423516
 10
1.6461581039
 20
4.6672484662
 10
1.6476022146
 20
4.6856264741
 10
1.6484299852
 20
4.7040531311
 10
1.648652434
 20
4.7225051927
 10
1.6482805798
 20
4.7409594149
 10
1.647325441
 20
4.7593925531
 10
1.6458379538
 20
4.7773234178
 10
1.6437863212
 20
4.7951903604
 10
1.6411504741
 20
4.8129716033
 10
1.6379103437
 20
4.8306453689
 10
1.6340458609
 20
4.8481898797
 10
1.630024421
 20
4.8638319372
 10
1.6254783894
 20
4.8793329466
 10
1.6204038872
 20
4.8946738986
 10
1.6147970355
 20
4.909835784
 10
1.6086539557
 20
4.9247995938
 10
1.6013557551
 20
4.9408416501
 10
1.5934329267
 20
4.9565997549
 10
1.5849009157
 20
4.9720472207
 10
1.5757751672
 20
4.9871573603
 10
1.5660711264
 20
5.0019034863
 10
1.5558042386
 20
5.0162589112
 10
1.544989949
 20
5.0301969477
 10
1.5336437027
 20
5.0436909085
 10
1.5224533782
 20
5.056005903
 10
1.5108180234
 20
5.0678912968
 10
1.498753351
 20
5.079337424
 10
1.4862750742
 20
5.0903346185
 10
1.4733989059
 20
5.1008732144
 10
1.4601405592
 20
5.1109435455
 10
1.446515747
 20
5.1205359458
 10
1.4363615471
 20
5.1272157261
 10
1.4260204252
 20
5.1335998388
 10
1.4154918147
 20
5.1396516771
 10
1.4047751489
 20
5.1453346345
 10
1.3938698611
 20
5.1506121042
 10
1.3827753849
 20
5.1554474797
 10
1.3714911535
 20
5.1598041543
  0
LWPOLYLINE
  5
39F
100
AcDbEntity
  8
CURVE
100
AcDbPolyline
 62
250
  6
CONTINUOUS
 90
22
 70
0
 10
0.8374645516
 20
4.9079726379
 10
0.8498541011
 20
4.9100439374
 10
0.8622587167
 20
4.9120214302
 10
0.8746805504
 20
4.91388927
 10
0.8871217543
 20
4.9156316106
 10
0.8995844806
 20
4.9172326058
 10
0.9120708812
 20
4.9186764095
 10
0.925575535
 20
4.9200433994
 10
0.9391060615
 20
4.9212087484
 10
0.9526582476
 20
4.9221723907
 10
0.9662278801
 20
4.9229342607
 10
0.9798107459
 20
4.923494293
 10
0.9934026319
 20
4.9238524218
 10
1.006999325
 20
4.9240085816
 10
1.020596612
 20
4.9239627068
 10
1.0341902799
 20
4.9237147317
 10
1.0477761155
 20
4.9232645909
 10
1.0613499057
 20
4.9226122186
 10
1.0749074374
 20
4.9217575494
 10
1.0884444974
 20
4.9207005176
 10
1.1019568728
 20
4.9194410576
 10
1.1154403502
 20
4.9179791038
  0
LWPOLYLINE
  5
3A0
100
AcDbEntity
  8
0
100
AcDbPolyline
 62
250
  6
CONTINUOUS
 90
22
 70
0
 10
0.8374645516
 20
4.9079726379
 10
0.8498541011
 20
4.9100439374
 10
0.8622587167
 20
4.9120214302
 10
0.8746805504
 20
4.91388927
 10
0.8871217543
 20
4.9156316106
 10
0.8995844806
 20
4.9172326058
 10
0.9120708812
 20
4.9186764095
 10
0.925575535
 20
4.9200433994
 10
0.9391060615
 20
4.9212087484
 10
0.9526582476
 20
4.9221723907
 10
0.9662278801
 20
4.9229342607
 10
0.9798107459
 20
4.923494293
 10
0.9934026319
 20
4.9238524218
 10
1.006999325
 20
4.9240085816
 10
1.020596612
 20
4.9239627068
 10
1.0341902799
 20
4.9237147317
 10
1.0477761155
 20
4.9232645909
 10
1.0613499057
 20
4.9226122186
 10
1.0749074374
 20
4.9217575494
 10
1.0884444974
 20
4.9207005176
 10
1.1019568728
 20
4.9194410576
 10
1.1154403502
 20
4.9179791038
  0
LINE
  5
3A1
100
AcDbEntity
  8
CURVE
100
AcDbLine
 62
250
  6
CONTINUOUS
 10
-0.48489288
 20
4.0996409869
 11
-0.14517088
 21
4.0996409869
  0
LINE
  5
3A2
100
AcDbEntity
  8
0
100
AcDbLine
 62
250
  6
CONTINUOUS
 10
-0.48489288
 20
4.0996409869
 11
-0.14517088
 21
4.0996409869
  0
LINE
  5
3A3
100
AcDbEntity
  8
CURVE
100
AcDbLine
 62
250
  6
CONTINUOUS
 10
0.8492301159
 20
4.1629307028
 11
1.039480439
 21
4.1629307028
  0
LINE
  5
3A4
100
AcDbEntity
  8
0
100
AcDbLine
 62
250
  6
CONTINUOUS
 10
0.8492301159
 20
4.1629307028
 11
1.039480439
 21
4.1629307028
  0
LINE
  5
3A5
100
AcDbEntity
  8
CURVE
100
AcDbLine
 62
250
  6
CONTINUOUS
 10
1.0402452644
 20
4.4413271554
 11
0.8374645516
 21
4.4413271554
  0
LINE
  5
3A6
100
AcDbEntity
  8
0
100
AcDbLine
 62
250
  6
CONTINUOUS
 10
1.0402452644
 20
4.4413271554
 11
0.8374645516
 21
4.4413271554
  0
LWPOLYLINE
  5
3A7
100
AcDbEntity
  8
CURVE
100
AcDbPolyline
 62
250
  6
CONTINUOUS
 90
48
 70
0
 10
1.039480439
 20
4.1629307028
 10
1.0447067143
 20
4.1628761175
 10
1.0499330611
 20
4.1627056925
 10
1.0551552259
 20
4.162409424
 10
1.0603689556
 20
4.1619773082
 10
1.0655699969
 20
4.1613993414
 10
1.0707540964
 20
4.1606655196
 10
1.0759170008
 20
4.1597658393
 10
1.0812790369
 20
4.1586416801
 10
1.0866104087
 20
4.1573304074
 10
1.091908177
 20
4.155836505
 10
1.0971694031
 20
4.1541644569
 10
1.1023911477
 20
4.1523187472
 10
1.1075704719
 20
4.1503038596
 10
1.1127044366
 20
4.1481242783
 10
1.117790103
 20
4.1457844872
 10
1.1228245318
 20
4.1432889701
 10
1.1278047841
 20
4.1406422112
 10
1.132727921
 20
4.1378486942
 10
1.1375910033
 20
4.1349129033
 10
1.142391092
 20
4.1318393224
 10
1.1471252482
 20
4.1286324353
 10
1.1517905328
 20
4.1252967262
 10
1.1563840068
 20
4.1218366789
 10
1.1609027312
 20
4.1182567774
 10
1.1653437669
 20
4.1145615056
 10
1.169704175
 20
4.1107553476
 10
1.1739810163
 20
4.1068427873
 10
1.178171352
 20
4.1028283085
 10
1.182272243
 20
4.0987163954
 10
1.1862807502
 20
4.0945115319
 10
1.1901939347
 20
4.0902182019
 10
1.1940088574
 20
4.0858408893
 10
1.1977225793
 20
4.0813840782
 10
1.2013321613
 20
4.0768522525
 10
1.2048346646
 20
4.0722498962
 10
1.20822715
 20
4.0675814932
 10
1.2115066785
 20
4.0628515274
 10
1.2146703111
 20
4.0580644829
 10
1.2177151089
 20
4.0532248436
 10
1.2206381327
 20
4.0483370935
 10
1.2234364435
 20
4.0434057164
 10
1.2261071024
 20
4.0384351965
 10
1.2286471703
 20
4.0334300176
 10
1.2310537082
 20
4.0283946637
 10
1.2333237771
 20
4.0233336187
 10
1.2354544379
 20
4.0182513667
 10
1.2374427517
 20
4.0131523915
  0
LWPOLYLINE
  5
3A8
100
AcDbEntity
  8
0
100
AcDbPolyline
 62
250
  6
CONTINUOUS
 90
48
 70
0
 10
1.039480439
 20
4.1629307028
 10
1.0447067143
 20
4.1628761175
 10
1.0499330611
 20
4.1627056925
 10
1.0551552259
 20
4.162409424
 10
1.0603689556
 20
4.1619773082
 10
1.0655699969
 20
4.1613993414
 10
1.0707540964
 20
4.1606655196
 10
1.0759170008
 20
4.1597658393
 10
1.0812790369
 20
4.1586416801
 10
1.0866104087
 20
4.1573304074
 10
1.091908177
 20
4.155836505
 10
1.0971694031
 20
4.1541644569
 10
1.1023911477
 20
4.1523187472
 10
1.1075704719
 20
4.1503038596
 10
1.1127044366
 20
4.1481242783
 10
1.117790103
 20
4.1457844872
 10
1.1228245318
 20
4.1432889701
 10
1.1278047841
 20
4.1406422112
 10
1.132727921
 20
4.1378486942
 10
1.1375910033
 20
4.1349129033
 10
1.142391092
 20
4.1318393224
 10
1.1471252482
 20
4.1286324353
 10
1.1517905328
 20
4.1252967262
 10
1.1563840068
 20
4.1218366789
 10
1.1609027312
 20
4.1182567774
 10
1.1653437669
 20
4.1145615056
 10
1.169704175
 20
4.1107553476
 10
1.1739810163
 20
4.1068427873
 10
1.178171352
 20
4.1028283085
 10
1.182272243
 20
4.0987163954
 10
1.1862807502
 20
4.0945115319
 10
1.1901939347
 20
4.0902182019
 10
1.1940088574
 20
4.0858408893
 10
1.1977225793
 20
4.0813840782
 10
1.2013321613
 20
4.0768522525
 10
1.2048346646
 20
4.0722498962
 10
1.20822715
 20
4.0675814932
 10
1.2115066785
 20
4.0628515274
 10
1.2146703111
 20
4.0580644829
 10
1.2177151089
 20
4.0532248436
 10
1.2206381327
 20
4.0483370935
 10
1.2234364435
 20
4.0434057164
 10
1.2261071024
 20
4.0384351965
 10
1.2286471703
 20
4.0334300176
 10
1.2310537082
 20
4.0283946637
 10
1.2333237771
 20
4.0233336187
 10
1.2354544379
 20
4.0182513667
 10
1.2374427517
 20
4.0131523915
  0
LINE
  5
3A9
100
AcDbEntity
  8
0
100
AcDbLine
 62
250
  6
CONTINUOUS
 10
5.5811266254
 20
-3.8700010131
 11
5.5811266254
 21
-2.4700010131
  0
LINE
  5
3AA
100
AcDbEntity
  8
0
100
AcDbLine
 62
250
  6
CONTINUOUS
 10
5.5811266254
 20
1.0299989869
 11
5.5811266254
 21
2.4299989869
  0
LINE
  5
3AB
100
AcDbEntity
  8
CURVE
100
AcDbLine
 62
250
  6
CONTINUOUS
 10
0.549522011
 20
5.1854553067
 11
0.4958297839
 21
5.1777010691
  0
LINE
  5
3AC
100
AcDbEntity
  8
0
100
AcDbLine
 62
250
  6
CONTINUOUS
 10
0.549522011
 20
5.1854553067
 11
0.4958297839
 21
5.1777010691
  0
LINE
  5
3AD
100
AcDbEntity
  8
CURVE
100
AcDbLine
 62
250
  6
CONTINUOUS
 10
-4.86154288
 20
5.1975609869
 11
-4.47608988
 21
5.1975609869
  0
LINE
  5
3AE
100
AcDbEntity
  8
0
100
AcDbLine
 62
250
  6
CONTINUOUS
 10
-4.86154288
 20
5.1975609869
 11
-4.47608988
 21
5.1975609869
  0
LINE
  5
3AF
100
AcDbEntity
  8
CURVE
100
AcDbLine
 62
250
  6
CONTINUOUS
 10
-3.81814288
 20
5.1975609869
 11
-3.46355688
 21
5.1975609869
  0
LINE
  5
3B0
100
AcDbEntity
  8
0
100
AcDbLine
 62
250
  6
CONTINUOUS
 10
-3.81814288
 20
5.1975609869
 11
-3.46355688
 21
5.1975609869
  0
LINE
  5
3B1
100
AcDbEntity
  8
CURVE
100
AcDbLine
 62
250
  6
CONTINUOUS
 10
-2.63254888
 20
5.1975609869
 11
-2.27801388
 21
5.1975609869
  0
LINE
  5
3B2
100
AcDbEntity
  8
0
100
AcDbLine
 62
250
  6
CONTINUOUS
 10
-2.63254888
 20
5.1975609869
 11
-2.27801388
 21
5.1975609869
  0
LINE
  5
3B3
100
AcDbEntity
  8
CURVE
100
AcDbLine
 62
250
  6
CONTINUOUS
 10
-1.57210488
 20
5.1975609869
 11
-1.22103788
 21
5.1975609869
  0
LINE
  5
3B4
100
AcDbEntity
  8
0
100
AcDbLine
 62
250
  6
CONTINUOUS
 10
-1.57210488
 20
5.1975609869
 11
-1.22103788
 21
5.1975609869
  0
LINE
  5
3B5
100
AcDbEntity
  8
CURVE
100
AcDbLine
 62
250
  6
CONTINUOUS
 10
-0.47317888
 20
5.1975609869
 11
-0.12992488
 21
5.1975609869
  0
LINE
  5
3B6
100
AcDbEntity
  8
0
100
AcDbLine
 62
250
  6
CONTINUOUS
 10
-0.47317888
 20
5.1975609869
 11
-0.12992488
 21
5.1975609869
  0
LINE
  5
3B7
100
AcDbEntity
  8
CURVE
100
AcDbLine
 62
250
  6
CONTINUOUS
 10
-2.97705088
 20
5.1976629869
 11
-3.33187888
 21
5.1976629869
  0
LINE
  5
3B8
100
AcDbEntity
  8
0
100
AcDbLine
 62
250
  6
CONTINUOUS
 10
-2.97705088
 20
5.1976629869
 11
-3.33187888
 21
5.1976629869
  0
LWPOLYLINE
  5
3B9
100
AcDbEntity
  8
CURVE
100
AcDbPolyline
 62
250
  6
CONTINUOUS
 90
49
 70
0
 10
1.1154403502
 20
4.9179791038
 10
1.1219434742
 20
4.9171363383
 10
1.1284470415
 20
4.9161177878
 10
1.1349438894
 20
4.9149239465
 10
1.1414268551
 20
4.9135553086
 10
1.1478887758
 20
4.9120123683
 10
1.1543224886
 20
4.9102956197
 10
1.1607208308
 20
4.9084055569
 10
1.1670766396
 20
4.9063426742
 10
1.1733827522
 20
4.9041074658
 10
1.1796320058
 20
4.9017004257
 10
1.1858172376
 20
4.8991220483
 10
1.1919312847
 20
4.8963728276
 10
1.1979669845
 20
4.8934532579
 10
1.203917174
 20
4.8903638332
 10
1.2097746906
 20
4.8871050478
 10
1.2155323714
 20
4.8836773959
 10
1.2211830535
 20
4.8800813716
 10
1.2267195743
 20
4.8763174691
 10
1.2321347709
 20
4.8723861826
 10
1.2374214805
 20
4.8682880062
 10
1.2425725403
 20
4.8640234342
 10
1.2475807875
 20
4.8595929606
 10
1.2524390593
 20
4.8549970797
 10
1.257140193
 20
4.8502362857
 10
1.2616538588
 20
4.8453392567
 10
1.266002932
 20
4.8402872585
 10
1.2701853549
 20
4.8350879735
 10
1.2741990696
 20
4.829749084
 10
1.2780420183
 20
4.8242782723
 10
1.2817121432
 20
4.8186832207
 10
1.2852073864
 20
4.8129716115
 10
1.2885256901
 20
4.8071511271
 10
1.2916649966
 20
4.8012294497
 10
1.2946232479
 20
4.7952142617
 10
1.2973983863
 20
4.7891132453
 10
1.2999883539
 20
4.782934083
 10
1.3023910929
 20
4.7766844569
 10
1.3046045455
 20
4.7703720495
 10
1.3066266539
 20
4.764004543
 10
1.3084553603
 20
4.7575896197
 10
1.3100886067
 20
4.751134962
 10
1.3115243355
 20
4.7446482522
 10
1.3127604888
 20
4.7381371725
 10
1.3137950087
 20
4.7316094054
 10
1.3146258374
 20
4.7250726331
 10
1.3152509172
 20
4.7185345379
 10
1.3156681901
 20
4.7120028021
 10
1.3158755984
 20
4.7054851081
  0
LWPOLYLINE
  5
3BA
100
AcDbEntity
  8
0
100
AcDbPolyline
 62
250
  6
CONTINUOUS
 90
49
 70
0
 10
1.1154403502
 20
4.9179791038
 10
1.1219434742
 20
4.9171363383
 10
1.1284470415
 20
4.9161177878
 10
1.1349438894
 20
4.9149239465
 10
1.1414268551
 20
4.9135553086
 10
1.1478887758
 20
4.9120123683
 10
1.1543224886
 20
4.9102956197
 10
1.1607208308
 20
4.9084055569
 10
1.1670766396
 20
4.9063426742
 10
1.1733827522
 20
4.9041074658
 10
1.1796320058
 20
4.9017004257
 10
1.1858172376
 20
4.8991220483
 10
1.1919312847
 20
4.8963728276
 10
1.1979669845
 20
4.8934532579
 10
1.203917174
 20
4.8903638332
 10
1.2097746906
 20
4.8871050478
 10
1.2155323714
 20
4.8836773959
 10
1.2211830535
 20
4.8800813716
 10
1.2267195743
 20
4.8763174691
 10
1.2321347709
 20
4.8723861826
 10
1.2374214805
 20
4.8682880062
 10
1.2425725403
 20
4.8640234342
 10
1.2475807875
 20
4.8595929606
 10
1.2524390593
 20
4.8549970797
 10
1.257140193
 20
4.8502362857
 10
1.2616538588
 20
4.8453392567
 10
1.266002932
 20
4.8402872585
 10
1.2701853549
 20
4.8350879735
 10
1.2741990696
 20
4.829749084
 10
1.2780420183
 20
4.8242782723
 10
1.2817121432
 20
4.8186832207
 10
1.2852073864
 20
4.8129716115
 10
1.2885256901
 20
4.8071511271
 10
1.2916649966
 20
4.8012294497
 10
1.2946232479
 20
4.7952142617
 10
1.2973983863
 20
4.7891132453
 10
1.2999883539
 20
4.782934083
 10
1.3023910929
 20
4.7766844569
 10
1.3046045455
 20
4.7703720495
 10
1.3066266539
 20
4.764004543
 10
1.3084553603
 20
4.7575896197
 10
1.3100886067
 20
4.751134962
 10
1.3115243355
 20
4.7446482522
 10
1.3127604888
 20
4.7381371725
 10
1.3137950087
 20
4.7316094054
 10
1.3146258374
 20
4.7250726331
 10
1.3152509172
 20
4.7185345379
 10
1.3156681901
 20
4.7120028021
 10
1.3158755984
 20
4.7054851081
  0
LWPOLYLINE
  5
3BB
100
AcDbEntity
  8
CURVE
100
AcDbPolyline
 62
250
  6
CONTINUOUS
 90
32
 70
0
 10
1.3714911535
 20
5.1598041543
 10
1.3535004533
 20
5.1660312803
 10
1.3353500374
 20
5.1717992288
 10
1.3170647884
 20
5.1771411989
 10
1.2986695891
 20
5.1820903896
 10
1.2801893224
 20
5.18668
 10
1.2538208235
 20
5.1926360494
 10
1.2273381055
 20
5.1979542132
 10
1.2007484757
 20
5.2026556399
 10
1.1740592409
 20
5.2067614784
 10
1.1472777081
 20
5.2102928772
 10
1.1204111844
 20
5.213270985
 10
1.0934669769
 20
5.2157169504
 10
1.0664523924
 20
5.2176519222
 10
1.0393747381
 20
5.219097049
 10
1.0122413209
 20
5.2200734794
 10
0.9850594479
 20
5.2206023621
 10
0.9578364261
 20
5.2207048457
 10
0.9305795625
 20
5.220402079
 10
0.903296164
 20
5.2197152106
 10
0.8759935379
 20
5.2186653892
 10
0.8486789909
 20
5.2172737633
 10
0.8213598302
 20
5.2155614818
 10
0.7940433628
 20
5.2135496931
 10
0.7667368957
 20
5.2112595461
 10
0.7394477358
 20
5.2087121893
 10
0.7121831903
 20
5.2059287715
 10
0.6849505662
 20
5.2029304412
 10
0.6577571704
 20
5.1997383472
 10
0.63061031
 20
5.196373638
 10
0.6035172919
 20
5.1928574625
 10
0.549522011
 20
5.1854553067
  0
LWPOLYLINE
  5
3BC
100
AcDbEntity
  8
0
100
AcDbPolyline
 62
250
  6
CONTINUOUS
 90
32
 70
0
 10
1.3714911535
 20
5.1598041543
 10
1.3535004533
 20
5.1660312803
 10
1.3353500374
 20
5.1717992288
 10
1.3170647884
 20
5.1771411989
 10
1.2986695891
 20
5.1820903896
 10
1.2801893224
 20
5.18668
 10
1.2538208235
 20
5.1926360494
 10
1.2273381055
 20
5.1979542132
 10
1.2007484757
 20
5.2026556399
 10
1.1740592409
 20
5.2067614784
 10
1.1472777081
 20
5.2102928772
 10
1.1204111844
 20
5.213270985
 10
1.0934669769
 20
5.2157169504
 10
1.0664523924
 20
5.2176519222
 10
1.0393747381
 20
5.219097049
 10
1.0122413209
 20
5.2200734794
 10
0.9850594479
 20
5.2206023621
 10
0.9578364261
 20
5.2207048457
 10
0.9305795625
 20
5.220402079
 10
0.903296164
 20
5.2197152106
 10
0.8759935379
 20
5.2186653892
 10
0.8486789909
 20
5.2172737633
 10
0.8213598302
 20
5.2155614818
 10
0.7940433628
 20
5.2135496931
 10
0.7667368957
 20
5.2112595461
 10
0.7394477358
 20
5.2087121893
 10
0.7121831903
 20
5.2059287715
 10
0.6849505662
 20
5.2029304412
 10
0.6577571704
 20
5.1997383472
 10
0.63061031
 20
5.196373638
 10
0.6035172919
 20
5.1928574625
 10
0.549522011
 20
5.1854553067
  0
LINE
  5
3BD
100
AcDbEntity
  8
0
100
AcDbLine
 62
7
  6
CONTINUOUS
 10
5.87962312
 20
2.4299989869
 11
5.87962312
 21
1.0299989869
  0
LINE
  5
3BE
100
AcDbEntity
  8
0
100
AcDbLine
 62
7
  6
CONTINUOUS
 10
5.87962312
 20
-2.4700010131
 11
5.87962312
 21
-3.8700010131
  0
LINE
  5
3BF
100
AcDbEntity
  8
ASSI
100
AcDbLine
 62
7
  6
CONTINUOUS
 10
2.33962312
 20
5.9103837446
 11
-5.38037688
 21
5.9103837446
  0
LWPOLYLINE
  5
3C0
100
AcDbEntity
  8
ASSI
100
AcDbPolyline
 62
7
  6
CONTINUOUS
 90
55
 70
0
 10
-5.38037688
 20
5.9103837446
 10
-5.4085473237
 20
5.9106377571
 10
-5.4367137621
 20
5.9115068647
 10
-5.4648410091
 20
5.9129910676
 10
-5.4929639907
 20
5.9150700915
 10
-5.5209762256
 20
5.9177642107
 10
-5.5486338453
 20
5.9211342477
 10
-5.5758698396
 20
5.9251694978
 10
-5.6026921874
 20
5.9298806658
 10
-5.6289781148
 20
5.9353606887
 10
-5.6546098386
 20
5.9415554314
 10
-5.6796646948
 20
5.9485190291
 10
-5.7043111305
 20
5.9565068235
 10
-5.7285121886
 20
5.9654254504
 10
-5.7522570735
 20
5.975368274
 10
-5.7757363955
 20
5.9868707296
 10
-5.7990393659
 20
5.9998582602
 10
-5.8220023395
 20
6.0144054228
 10
-5.8444352141
 20
6.0312713231
 10
-5.8664975795
 20
6.0504716411
 10
-5.8879714295
 20
6.0719906969
 10
-5.9081679589
 20
6.0965405557
 10
-5.9273083829
 20
6.1244796443
 10
-5.9452357747
 20
6.155449536
 10
-5.9608602496
 20
6.1890870159
 10
-5.9742125484
 20
6.2257044759
 10
-5.9855390116
 20
6.2649895241
 10
-5.9942184977
 20
6.3056417698
 10
-6.0002060733
 20
6.3477259973
 10
-6.0037919579
 20
6.3911774223
 10
-6.0048631546
 20
6.4345013011
 10
-6.0033348823
 20
6.4775615026
 10
-5.9992833442
 20
6.520494158
 10
-5.9927771749
 20
6.5622129167
 10
-5.9836068919
 20
6.6027060808
 10
-5.9717209881
 20
6.6419853483
 10
-5.9574080942
 20
6.6789994627
 10
-5.9403036643
 20
6.71364515
 10
-5.9204105609
 20
6.7460256843
 10
-5.8986857699
 20
6.7753996305
 10
-5.8753905803
 20
6.801260557
 10
-5.8501208137
 20
6.8241148956
 10
-5.8229614344
 20
6.8447405063
 10
-5.7938606267
 20
6.863274344
 10
-5.7627772236
 20
6.8795794539
 10
-5.7298531679
 20
6.894022831
 10
-5.6949249663
 20
6.9066565577
 10
-5.6581531541
 20
6.9174285517
 10
-5.6202376953
 20
6.9265495603
 10
-5.5812764464
 20
6.9339939877
 10
-5.5413236038
 20
6.9397874298
 10
-5.50108647
 20
6.9442174214
 10
-5.4608815839
 20
6.9473798077
 10
-5.4206103077
 20
6.9491787436
 10
-5.38037688
 20
6.9496142292
  0
LINE
  5
3C1
100
AcDbEntity
  8
ASSI
100
AcDbLine
 62
7
  6
CONTINUOUS
 10
2.33962312
 20
6.9496142292
 11
-5.38037688
 21
6.9496142292
  0
LINE
  5
3C2
100
AcDbEntity
  8
ASSI
100
AcDbLine
 62
7
  6
CONTINUOUS
 10
2.33962312
 20
7.7103837446
 11
-5.38037688
 21
7.7103837446
  0
LWPOLYLINE
  5
3C3
100
AcDbEntity
  8
ASSI
100
AcDbPolyline
 62
7
  6
CONTINUOUS
 90
55
 70
0
 10
-5.38037688
 20
7.7103837446
 10
-5.4085473237
 20
7.7106377571
 10
-5.4367137621
 20
7.7115068647
 10
-5.4648410091
 20
7.7129910676
 10
-5.4929639907
 20
7.7150700915
 10
-5.5209762256
 20
7.7177642107
 10
-5.5486338453
 20
7.7211342477
 10
-5.5758698396
 20
7.7251694978
 10
-5.6026921874
 20
7.7298806658
 10
-5.6289781148
 20
7.7353606887
 10
-5.6546098386
 20
7.7415554314
 10
-5.6796646948
 20
7.7485190291
 10
-5.7043111305
 20
7.7565068235
 10
-5.7285121886
 20
7.7654254504
 10
-5.7522570735
 20
7.775368274
 10
-5.7757363955
 20
7.7868707296
 10
-5.7990393659
 20
7.7998582602
 10
-5.8220023395
 20
7.8144054228
 10
-5.8444352141
 20
7.8312713231
 10
-5.8664975795
 20
7.8504716411
 10
-5.8879714295
 20
7.8719906969
 10
-5.9081679589
 20
7.8965405557
 10
-5.9273083829
 20
7.9244796443
 10
-5.9452357747
 20
7.955449536
 10
-5.9608602496
 20
7.9890870159
 10
-5.9742125484
 20
8.0257044759
 10
-5.9855390116
 20
8.0649895241
 10
-5.9942184977
 20
8.1056417698
 10
-6.0002060733
 20
8.1477259973
 10
-6.0037919579
 20
8.1911774223
 10
-6.0048631546
 20
8.2345013011
 10
-6.0033348823
 20
8.2775615026
 10
-5.9992833442
 20
8.320494158
 10
-5.9927771749
 20
8.3622129167
 10
-5.9836068919
 20
8.4027060808
 10
-5.9717209881
 20
8.4419853483
 10
-5.9574080942
 20
8.4789994627
 10
-5.9403036643
 20
8.51364515
 10
-5.9204105609
 20
8.5460256843
 10
-5.8986857699
 20
8.5753996305
 10
-5.8753905803
 20
8.601260557
 10
-5.8501208137
 20
8.6241148956
 10
-5.8229614344
 20
8.6447405063
 10
-5.7938606267
 20
8.663274344
 10
-5.7627772236
 20
8.6795794539
 10
-5.7298531679
 20
8.694022831
 10
-5.6949249663
 20
8.7066565577
 10
-5.6581531541
 20
8.7174285517
 10
-5.6202376953
 20
8.7265495603
 10
-5.5812764464
 20
8.7339939877
 10
-5.5413236038
 20
8.7397874298
 10
-5.50108647
 20
8.7442174214
 10
-5.4608815839
 20
8.7473798077
 10
-5.4206103077
 20
8.7491787436
 10
-5.38037688
 20
8.7496142292
  0
LWPOLYLINE
  5
3C4
100
AcDbEntity
  8
ASSI
100
AcDbPolyline
 62
7
  6
CONTINUOUS
 90
55
 70
0
 10
2.33962312
 20
6.9496142292
 10
2.3682842471
 20
6.9493520338
 10
2.3969371544
 20
6.9484522715
 10
2.4255448137
 20
6.9469149423
 10
2.4541434366
 20
6.9447615724
 10
2.4826215668
 20
6.9419706355
 10
2.5107244257
 20
6.9384775527
 10
2.5383765641
 20
6.9342955745
 10
2.5655919959
 20
6.9294114504
 10
2.5922589965
 20
6.9237208494
 10
2.6182536711
 20
6.9172855699
 10
2.6436573333
 20
6.9100438136
 10
2.668663152
 20
6.9017058543
 10
2.6932518183
 20
6.8923665325
 10
2.7173891174
 20
6.8819310077
 10
2.7412286507
 20
6.869825033
 10
2.7648700334
 20
6.8561196208
 10
2.7881358431
 20
6.8407437588
 10
2.8107692402
 20
6.8229101622
 10
2.8329393145
 20
6.8025871002
 10
2.8544272557
 20
6.7798063038
 10
2.8744763083
 20
6.7538756806
 10
2.8933108739
 20
6.7243978543
 10
2.9107992861
 20
6.6917702013
 10
2.925829283
 20
6.6564927585
 10
2.9384209415
 20
6.6182183521
 10
2.9488569913
 20
6.5772941559
 10
2.9565572358
 20
6.5352617282
 10
2.9614625299
 20
6.492191925
 10
2.9638590051
 20
6.4480138904
 10
2.9636732653
 20
6.4040566143
 10
2.9608354186
 20
6.3604122332
 10
2.9553571866
 20
6.3169886106
 10
2.947220003
 20
6.2748383278
 10
2.936047775
 20
6.2337804865
 10
2.9218791904
 20
6.193995985
 10
2.9053302681
 20
6.1570800988
 10
2.8860965586
 20
6.1234494609
 10
2.8641356693
 20
6.0926874384
 10
2.8406410796
 20
6.0651394079
 10
2.8159845631
 20
6.0412573787
 10
2.7897391717
 20
6.0205893416
 10
2.7620525619
 20
6.0021246457
 10
2.7329795106
 20
5.9857077978
 10
2.7024568279
 20
5.9714942912
 10
2.6704802261
 20
5.9589399547
 10
2.6369153493
 20
5.9479439611
 10
2.6019288281
 20
5.9386071377
 10
2.5660044485
 20
5.9306877957
 10
2.5292149069
 20
5.9241821029
 10
2.4916204629
 20
5.9190938914
 10
2.4537314304
 20
5.9151929691
 10
2.4157824512
 20
5.9124026052
 10
2.3777172774
 20
5.9107995303
 10
2.33962312
 20
5.9103837446
  0
LINE
  5
3C5
100
AcDbEntity
  8
ASSI
100
AcDbLine
 62
7
  6
CONTINUOUS
 10
2.33962312
 20
8.7496142292
 11
-5.38037688
 21
8.7496142292
  0
LINE
  5
3C6
100
AcDbEntity
  8
ASSI
100
AcDbLine
 62
7
  6
CONTINUOUS
 10
2.33962312
 20
9.5103837446
 11
-5.38037688
 21
9.5103837446
  0
LWPOLYLINE
  5
3C7
100
AcDbEntity
  8
ASSI
100
AcDbPolyline
 62
7
  6
CONTINUOUS
 90
55
 70
0
 10
2.33962312
 20
8.7496142292
 10
2.3682842471
 20
8.7493520338
 10
2.3969371544
 20
8.7484522715
 10
2.4255448137
 20
8.7469149423
 10
2.4541434366
 20
8.7447615724
 10
2.4826215668
 20
8.7419706355
 10
2.5107244257
 20
8.7384775527
 10
2.5383765641
 20
8.7342955745
 10
2.5655919959
 20
8.7294114504
 10
2.5922589965
 20
8.7237208494
 10
2.6182536711
 20
8.7172855699
 10
2.6436573333
 20
8.7100438136
 10
2.668663152
 20
8.7017058543
 10
2.6932518183
 20
8.6923665325
 10
2.7173891174
 20
8.6819310077
 10
2.7412286507
 20
8.669825033
 10
2.7648700334
 20
8.6561196208
 10
2.7881358431
 20
8.6407437588
 10
2.8107692402
 20
8.6229101622
 10
2.8329393145
 20
8.6025871002
 10
2.8544272557
 20
8.5798063038
 10
2.8744763083
 20
8.5538756806
 10
2.8933108739
 20
8.5243978543
 10
2.9107992861
 20
8.4917702013
 10
2.925829283
 20
8.4564927585
 10
2.9384209415
 20
8.4182183521
 10
2.9488569913
 20
8.3772941559
 10
2.9565572358
 20
8.3352617282
 10
2.9614625299
 20
8.292191925
 10
2.9638590051
 20
8.2480138904
 10
2.9636732653
 20
8.2040566143
 10
2.9608354186
 20
8.1604122332
 10
2.9553571866
 20
8.1169886106
 10
2.947220003
 20
8.0748383278
 10
2.936047775
 20
8.0337804865
 10
2.9218791904
 20
7.993995985
 10
2.9053302681
 20
7.9570800988
 10
2.8860965586
 20
7.9234494609
 10
2.8641356693
 20
7.8926874384
 10
2.8406410796
 20
7.8651394079
 10
2.8159845631
 20
7.8412573787
 10
2.7897391717
 20
7.8205893416
 10
2.7620525619
 20
7.8021246457
 10
2.7329795106
 20
7.7857077978
 10
2.7024568279
 20
7.7714942912
 10
2.6704802261
 20
7.7589399547
 10
2.6369153493
 20
7.7479439611
 10
2.6019288281
 20
7.7386071377
 10
2.5660044485
 20
7.7306877957
 10
2.5292149069
 20
7.7241821029
 10
2.4916204629
 20
7.7190938914
 10
2.4537314304
 20
7.7151929691
 10
2.4157824512
 20
7.7124026052
 10
2.3777172774
 20
7.7107995303
 10
2.33962312
 20
7.7103837446
  0
LWPOLYLINE
  5
3C8
100
AcDbEntity
  8
ASSI
100
AcDbPolyline
 62
7
  6
CONTINUOUS
 90
52
 70
0
 10
-5.38037688
 20
9.5103837446
 10
-5.4095754022
 20
9.5106548225
 10
-5.4387623583
 20
9.511588872
 10
-5.4678986175
 20
9.5131858932
 10
-5.4970229411
 20
9.5154230405
 10
-5.5260170655
 20
9.5183231595
 10
-5.5546104957
 20
9.521954786
 10
-5.5827209427
 20
9.526303005
 10
-5.6103666066
 20
9.5313827315
 10
-5.6374372813
 20
9.5373072468
 10
-5.6637995842
 20
9.5440064132
 10
-5.6895430286
 20
9.5515503685
 10
-5.7148876225
 20
9.5602628067
 10
-5.739820214
 20
9.5700379258
 10
-5.764295912
 20
9.5809815278
 10
-5.788467832
 20
9.5937347134
 10
-5.8124536086
 20
9.6082215859
 10
-5.8360507262
 20
9.624518042
 10
-5.8589414595
 20
9.6434928725
 10
-5.881333285
 20
9.6652294828
 10
-5.9029711104
 20
9.6896444676
 10
-5.9229476201
 20
9.7173564014
 10
-5.9414749823
 20
9.7488240386
 10
-5.9584743547
 20
9.783588625
 10
-5.9728022305
 20
9.8208924725
 10
-5.9844497272
 20
9.8610431942
 10
-5.9937608696
 20
9.903733177
 10
-6.0002462698
 20
9.9472818943
 10
-6.0038357058
 20
9.9915935253
 10
-6.004794496
 20
10.0367638908
 10
-6.0031042412
 20
10.0813999251
 10
-5.9986459506
 20
10.1254286856
 10
-5.9914176952
 20
10.168923115
 10
-5.9815121081
 20
10.2107089758
 10
-5.9685830098
 20
10.2507925615
 10
-5.9526030838
 20
10.2891675785
 10
-5.9341751386
 20
10.3246409086
 10
-5.913299117
 20
10.3567190604
 10
-5.8896475745
 20
10.3858955253
 10
-5.8634341539
 20
10.412457659
 10
-5.8345903605
 20
10.4364164132
 10
-5.8029419019
 20
10.4577608362
 10
-5.7686165986
 20
10.4767454298
 10
-5.7312725183
 20
10.4934115844
 10
-5.6911311068
 20
10.5077179095
 10
-5.6493008515
 20
10.5197947357
 10
-5.6059157912
 20
10.5295404195
 10
-5.5610267512
 20
10.5370566045
 10
-5.5157677664
 20
10.5427785519
 10
-5.4706398499
 20
10.5468513486
 10
-5.4254600165
 20
10.5491299077
 10
-5.38037688
 20
10.5496142292
  0
LINE
  5
3C9
100
AcDbEntity
  8
ASSI
100
AcDbLine
 62
7
  6
CONTINUOUS
 10
2.33962312
 20
10.5496142292
 11
-5.38037688
 21
10.5496142292
  0
LWPOLYLINE
  5
3CA
100
AcDbEntity
  8
ASSI
100
AcDbPolyline
 62
7
  6
CONTINUOUS
 90
55
 70
0
 10
2.33962312
 20
10.5496142292
 10
2.3682842471
 20
10.5493520338
 10
2.3969371544
 20
10.5484522715
 10
2.4255448137
 20
10.5469149423
 10
2.4541434366
 20
10.5447615724
 10
2.4826215668
 20
10.5419706355
 10
2.5107244257
 20
10.5384775527
 10
2.5383765641
 20
10.5342955745
 10
2.5655919959
 20
10.5294114504
 10
2.5922589965
 20
10.5237208494
 10
2.6182536711
 20
10.5172855699
 10
2.6436573333
 20
10.5100438136
 10
2.668663152
 20
10.5017058543
 10
2.6932518183
 20
10.4923665325
 10
2.7173891174
 20
10.4819310077
 10
2.7412286507
 20
10.469825033
 10
2.7648700334
 20
10.4561196208
 10
2.7881358431
 20
10.4407437588
 10
2.8107692402
 20
10.4229101622
 10
2.8329393145
 20
10.4025871002
 10
2.8544272557
 20
10.3798063038
 10
2.8744763083
 20
10.3538756806
 10
2.8933108739
 20
10.3243978543
 10
2.9107992861
 20
10.2917702013
 10
2.925829283
 20
10.2564927585
 10
2.9384209415
 20
10.2182183521
 10
2.9488569913
 20
10.1772941559
 10
2.9565572358
 20
10.1352617282
 10
2.9614625299
 20
10.092191925
 10
2.9638590051
 20
10.0480138904
 10
2.9636732653
 20
10.0040566143
 10
2.9608354186
 20
9.9604122332
 10
2.9553571866
 20
9.9169886106
 10
2.947220003
 20
9.8748383278
 10
2.936047775
 20
9.8337804865
 10
2.9218791904
 20
9.793995985
 10
2.9053302681
 20
9.7570800988
 10
2.8860965586
 20
9.7234494609
 10
2.8641356693
 20
9.6926874384
 10
2.8406410796
 20
9.6651394079
 10
2.8159845631
 20
9.6412573787
 10
2.7897391717
 20
9.6205893416
 10
2.7620525619
 20
9.6021246457
 10
2.7329795106
 20
9.5857077978
 10
2.7024568279
 20
9.5714942912
 10
2.6704802261
 20
9.5589399547
 10
2.6369153493
 20
9.5479439611
 10
2.6019288281
 20
9.5386071377
 10
2.5660044485
 20
9.5306877957
 10
2.5292149069
 20
9.5241821029
 10
2.4916204629
 20
9.5190938914
 10
2.4537314304
 20
9.5151929691
 10
2.4157824512
 20
9.5124026052
 10
2.3777172774
 20
9.5107995303
 10
2.33962312
 20
9.5103837446
  0
LINE
  5
3CB
100
AcDbEntity
  8
RACCORDO
100
AcDbLine
 62
250
  6
CONTINUOUS
 10
3.13962312
 20
10.7299989869
 11
-6.18037688
 21
10.7299989869
  0
LINE
  5
3CC
100
AcDbEntity
  8
ASSI
100
AcDbLine
 62
250
  6
CONTINUOUS
 10
3.13962312
 20
10.7299989869
 11
-6.18037688
 21
10.7299989869
  0
LINE
  5
3CD
100
AcDbEntity
  8
RACCORDO
100
AcDbLine
 62
7
  6
CONTINUOUS
 10
2.33962312
 20
11.5299989869
 11
-5.38037688
 21
11.5299989869
  0
LINE
  5
3CE
100
AcDbEntity
  8
ASSI
100
AcDbLine
 62
7
  6
CONTINUOUS
 10
2.33962312
 20
11.5299989869
 11
-5.38037688
 21
11.5299989869
  0
LINE
  5
3CF
100
AcDbEntity
  8
0
100
AcDbLine
 62
250
  6
CONTINUOUS
 10
-3.42037688
 20
12.9315024923
 11
-4.82037688
 21
12.9315024923
  0
LINE
  5
3D0
100
AcDbEntity
  8
0
100
AcDbLine
 62
7
  6
CONTINUOUS
 10
-4.82037688
 20
13.2299989869
 11
-3.42037688
 21
13.2299989869
  0
CIRCLE
  5
3D1
100
AcDbEntity
  8
CURVE
100
AcDbCircle
 62
250
  6
CONTINUOUS
 10
-3.72037688
 20
-6.1700010131
 40
1.499948
  0
CIRCLE
  5
3D2
100
AcDbEntity
  8
0
100
AcDbCircle
 62
250
  6
CONTINUOUS
 10
-3.72037688
 20
-6.1700010131
 40
1.499948
  0
ARC
  5
3D3
100
AcDbEntity
  8
CURVE
100
AcDbCircle
 62
250
  6
CONTINUOUS
 10
-3.72037688
 20
-6.1700010131
 40
1.1233092395
100
AcDbArc
 50
142.1799962019
 51
229.6797913243
  0
ARC
  5
3D4
100
AcDbEntity
  8
0
100
AcDbCircle
 62
250
  6
CONTINUOUS
 10
-3.72037688
 20
-6.1700010131
 40
1.1233092395
100
AcDbArc
 50
142.1799962019
 51
229.6797913243
  0
ARC
  5
3D5
100
AcDbEntity
  8
CURVE
100
AcDbCircle
 62
250
  6
CONTINUOUS
 10
-3.72037688
 20
-6.1700010131
 40
1.1233091477
100
AcDbArc
 50
310.3202086757
 51
37.8200037981
  0
ARC
  5
3D6
100
AcDbEntity
  8
0
100
AcDbCircle
 62
250
  6
CONTINUOUS
 10
-3.72037688
 20
-6.1700010131
 40
1.1233091477
100
AcDbArc
 50
310.3202086757
 51
37.8200037981
  0
ARC
  5
3D7
100
AcDbEntity
  8
RACCORDO
100
AcDbCircle
 62
7
  6
CONTINUOUS
 10
-5.38037688
 20
-12.8700010131
 40
0.8
100
AcDbArc
 50
180.0
 51
270.0
  0
ARC
  5
3D8
100
AcDbEntity
  8
ASSI
100
AcDbCircle
 62
7
  6
CONTINUOUS
 10
-5.38037688
 20
-12.8700010131
 40
0.8
100
AcDbArc
 50
180.0
 51
270.0
  0
ARC
  5
3D9
100
AcDbEntity
  8
CURVE
100
AcDbCircle
 62
250
  6
CONTINUOUS
 10
-3.36356088
 20
-8.3307190131
 40
0.6607694198
100
AcDbArc
 50
43.6301208844
 51
90.0
  0
ARC
  5
3DA
100
AcDbEntity
  8
0
100
AcDbCircle
 62
250
  6
CONTINUOUS
 10
-3.36356088
 20
-8.3307190131
 40
0.6607694198
100
AcDbArc
 50
43.6301208844
 51
90.0
  0
ARC
  5
3DB
100
AcDbEntity
  8
RACCORDO
100
AcDbCircle
 62
7
  6
CONTINUOUS
 10
-5.38037688
 20
10.7299989869
 40
0.8
100
AcDbArc
 50
90.0
 51
180.0
  0
ARC
  5
3DC
100
AcDbEntity
  8
ASSI
100
AcDbCircle
 62
7
  6
CONTINUOUS
 10
-5.38037688
 20
10.7299989869
 40
0.8
100
AcDbArc
 50
90.0
 51
180.0
  0
ARC
  5
3DD
100
AcDbEntity
  8
CURVE
100
AcDbCircle
 62
250
  6
CONTINUOUS
 10
2.28995012
 20
-6.1700010131
 40
1.4999989049
100
AcDbArc
 50
87.7524725246
 51
272.2474863117
  0
ARC
  5
3DE
100
AcDbEntity
  8
0
100
AcDbCircle
 62
250
  6
CONTINUOUS
 10
2.28995012
 20
-6.1700010131
 40
1.4999989049
100
AcDbArc
 50
87.7524725246
 51
272.2474863117
  0
ARC
  5
3DF
100
AcDbEntity
  8
CURVE
100
AcDbCircle
 62
250
  6
CONTINUOUS
 10
-0.28952588
 20
-6.1700010131
 40
1.4999988265
100
AcDbArc
 50
87.7525488602
 51
272.2474481439
  0
ARC
  5
3E0
100
AcDbEntity
  8
0
100
AcDbCircle
 62
250
  6
CONTINUOUS
 10
-0.28952588
 20
-6.1700010131
 40
1.4999988265
100
AcDbArc
 50
87.7525488602
 51
272.2474481439
  0
ARC
  5
3E1
100
AcDbEntity
  8
CURVE
100
AcDbCircle
 62
250
  6
CONTINUOUS
 10
2.28995012
 20
-6.1700010131
 40
1.0588232762
100
AcDbArc
 50
86.8152351968
 51
167.9752941132
  0
ARC
  5
3E2
100
AcDbEntity
  8
0
100
AcDbCircle
 62
250
  6
CONTINUOUS
 10
2.28995012
 20
-6.1700010131
 40
1.0588232762
100
AcDbArc
 50
86.8152351968
 51
167.9752941132
  0
ARC
  5
3E3
100
AcDbEntity
  8
CURVE
100
AcDbCircle
 62
250
  6
CONTINUOUS
 10
-0.28952588
 20
-6.1700010131
 40
1.0588232207
100
AcDbArc
 50
86.815289226
 51
273.1847077678
  0
ARC
  5
3E4
100
AcDbEntity
  8
0
100
AcDbCircle
 62
250
  6
CONTINUOUS
 10
-0.28952588
 20
-6.1700010131
 40
1.0588232207
100
AcDbArc
 50
86.815289226
 51
273.1847077678
  0
ARC
  5
3E5
100
AcDbEntity
  8
CURVE
100
AcDbCircle
 62
250
  6
CONTINUOUS
 10
2.28995012
 20
-6.1700010131
 40
1.0588218182
100
AcDbArc
 50
192.0247058868
 51
273.184815826
  0
ARC
  5
3E6
100
AcDbEntity
  8
0
100
AcDbCircle
 62
250
  6
CONTINUOUS
 10
2.28995012
 20
-6.1700010131
 40
1.0588218182
100
AcDbArc
 50
192.0247058868
 51
273.184815826
  0
ARC
  5
3E7
100
AcDbEntity
  8
RACCORDO
100
AcDbCircle
 62
7
  6
CONTINUOUS
 10
2.33962312
 20
-12.8700010131
 40
0.8
100
AcDbArc
 50
270.0
 51
360.0
  0
ARC
  5
3E8
100
AcDbEntity
  8
ASSI
100
AcDbCircle
 62
7
  6
CONTINUOUS
 10
2.33962312
 20
-12.8700010131
 40
0.8
100
AcDbArc
 50
270.0
 51
360.0
  0
CIRCLE
  5
3E9
100
AcDbEntity
  8
0
100
AcDbCircle
 62
250
  6
CONTINUOUS
 10
-0.70236388
 20
-3.4699460131
 40
0.179629
  0
CIRCLE
  5
3EA
100
AcDbEntity
  8
INTF_1
100
AcDbCircle
 62
7
  6
CONTINUOUS
 10
-0.70236388
 20
-3.4699460131
 40
0.179629
  0
CIRCLE
  5
3EB
100
AcDbEntity
  8
0
100
AcDbCircle
 62
250
  6
CONTINUOUS
 10
1.18987212
 20
-3.7104460131
 40
0.108924
  0
CIRCLE
  5
3EC
100
AcDbEntity
  8
INTF_1
100
AcDbCircle
 62
7
  6
CONTINUOUS
 10
1.18987212
 20
-3.7104460131
 40
0.108924
  0
CIRCLE
  5
3ED
100
AcDbEntity
  8
0
100
AcDbCircle
 62
250
  6
CONTINUOUS
 10
-0.70236388
 20
-3.4699460131
 40
0.079472
  0
CIRCLE
  5
3EE
100
AcDbEntity
  8
INTF_1
100
AcDbCircle
 62
7
  6
CONTINUOUS
 10
-0.70236388
 20
-3.4699460131
 40
0.079472
  0
ARC
  5
3EF
100
AcDbEntity
  8
RACCORDO
100
AcDbCircle
 62
7
  6
CONTINUOUS
 10
2.33962312
 20
10.7299989869
 40
0.8
100
AcDbArc
 50
0.0
 51
90.0
  0
ARC
  5
3F0
100
AcDbEntity
  8
ASSI
100
AcDbCircle
 62
7
  6
CONTINUOUS
 10
2.33962312
 20
10.7299989869
 40
0.8
100
AcDbArc
 50
0.0
 51
90.0
  0
ENDSEC
  0
SECTION
  2
OBJECTS
  0
DICTIONARY
  5
C
100
AcDbDictionary
280
0
281
1
  3
ACAD_GROUP
350
D
  3
ACAD_MLINESTYLE
350
17
  3
ACAD_LAYOUT
350
1A
  3
ACAD_PLOTSETTINGS
350
19
  3
ACAD_PLOTSTYLENAME
350
E
  0
DICTIONARY
  5
D
102
{ACAD_REACTORS
330
C
102
}
100
AcDbDictionary
280
0
281
1
  0
ACDBDICTIONARYWDFLT
  5
E
102
{ACAD_REACTORS
330
C
102
}
100
AcDbDictionary
281
1
  3
Normal
350
F
100
AcDbDictionaryWithDefault
340
F
  0
DICTIONARY
  5
17
102
{ACAD_REACTORS
330
C
102
}
100
AcDbDictionary
280
0
281
1
  3
Standard
350
18
  0
DICTIONARY
  5
19
102
{ACAD_REACTORS
330
C
102
}
100
AcDbDictionary
281
1
  0
DICTIONARY
  5
1A
102
{ACAD_REACTORS
330
C
102
}
100
AcDbDictionary
281
1
  3
Model
350
3F1
  3
Layout1
350
3F2
  0
ACDBPLACEHOLDER
  5
F
102
{ACAD_REACTORS
330
E
102
}
  0
MLINESTYLE
  5
18
102
{ACAD_REACTORS
330
17
102
}
100
AcDbMlineStyle
  2
STANDARD
 70
0
  3

 62
256
 51
90.0
 52
90.0
 71
2
 49
0.5
 62
256
  6
BYLAYER
 49
-0.5
 62
256
  6
BYLAYER
  0
LAYOUT
  5
3F1
102
{ACAD_REACTORS
330
1A
102
}
100
AcDbPlotSettings
  1

  2
none_device
  4
ISO_A4_(297.00_x_210.00_MM)
  6

 40
0.0
 41
0.0
 42
0.0
 43
0.0
 44
297.0
 45
210.0
 46
0.0
 47
0.0
 48
0.0
 49
0.0
140
0.0
141
0.0
142
1.0
143
1.0
 70
1024
 72
1
 73
0
 74
0
  7

 75
0
147
1.0
148
0.0
149
0.0
100
AcDbLayout
  1
Model
 70
0
 71
0
 10
0.0
 20
0.0
 11
297.0
 21
210.0
 12
0.0
 22
0.0
 32
0.0
 14
0.0
 24
0.0
 34
0.0
 15
0.0
 25
0.0
 35
0.0
146
0.0
 13
0.0
 23
0.0
 33
0.0
 16
1.0
 26
0.0
 36
0.0
 17
0.0
 27
1.0
 37
0.0
 76
0
330
213
345
0
346
0
  0
LAYOUT
  5
3F2
102
{ACAD_REACTORS
330
1A
102
}
100
AcDbPlotSettings
  1

  2
none_device
  4
ISO_A4_(297.00_x_210.00_MM)
  6

 40
0.0
 41
0.0
 42
0.0
 43
0.0
 44
297.0
 45
210.0
 46
0.0
 47
0.0
 48
0.0
 49
0.0
140
0.0
141
0.0
142
1.0
143
1.0
 70
0
 72
1
 73
0
 74
0
  7

 75
0
147
1.0
148
0.0
149
0.0
100
AcDbLayout
  1
Layout1
 70
0
 71
1
 10
0.0
 20
0.0
 11
297.0
 21
210.0
 12
0.0
 22
0.0
 32
0.0
 14
0.0
 24
0.0
 34
0.0
 15
0.0
 25
0.0
 35
0.0
146
0.0
 13
0.0
 23
0.0
 33
0.0
 16
1.0
 26
0.0
 36
0.0
 17
0.0
 27
1.0
 37
0.0
 76
0
330
214
345
0
346
0
  0
ENDSEC
  0
EOF
