  0
SECTION
  2
HEADER
  9
$ACADVER
  1
AC1021
  9
$DWGCODEPAGE
  3
ANSI_1252
  9
$EXTMAX
 10
297.0
 20
210.0
 30
0.0
  9
$EXTMIN
 10
0.0
 20
0.0
 30
0.0
  9
$LIMMIN
 10
0.0
 20
0.0
  9
$LIMMAX
 10
297.0
 20
210.0
  9
$VIEWCTR
 10
148.5
 20
105.0
  9
$VIEWSIZE
 40
210.0
  9
$CLAYER
  8
0
  9
$LTSCALE
 40
16.335
  9
$CELTYPE
  6
BYLAYER
  9
$DIMSCALE
 40
1.0
  9
$DIMASZ
 40
3.0
  9
$DIMEXO
 40
0.5
  9
$DIMDLI
 40
11.286
  9
$DIMEXE
 40
1.5
  9
$DIMCEN
 40
2.673
  9
$DIMLFAC
 40
1.0
  9
$DIMBLK
  1
_FILLED
  9
$DIMALT
 70
0
  9
$DIMALTF
 40
0.0393700787
  9
$DIMTXT
 40
3.0
  9
$DIMTOL
 70
1
  9
$DIMLIM
 70
0
  9
$DIMTFAC
 40
1.0
  9
$DIMTP
 40
0.01
  9
$DIMTM
 40
0.01
  9
$DIMGAP
 40
0.625
  9
$DIMDSEP
 70
44
  9
$AUNITS
 70
0
  9
$PDMODE
 70
3
  9
$PDSIZE
 40
3.0
  9
$HANDSEED
  5
5C7
  9
$TILEMODE
 70
1
  9
$MEASUREMENT
 70
1
  9
$INSUNITS
 70
4
  0
ENDSEC
  0
SECTION
  2
CLASSES
  0
CLASS
  1
ACDBDICTIONARYWDFLT
  2
AcDbDictionaryWithDefault
  3
AutoCAD 2000
 90
0
 91
1
280
0
281
0
  0
CLASS
  1
ACDBPLACEHOLDER
  2
AcDbPlaceHolder
  3
AutoCAD 2000
 90
0
 91
1
280
0
281
0
  0
CLASS
  1
LAYOUT
  2
AcDbLayout
  3
AutoCAD 2000
 90
0
 91
0
280
0
281
0
  0
ENDSEC
  0
SECTION
  2
TABLES
  0
TABLE
  2
VPORT
  5
8
100
AcDbSymbolTable
 70
2
  0
VPORT
  5
1F4
100
AcDbSymbolTableRecord
100
AcDbViewportTableRecord
  2
*ACTIVE
 70
0
 10
0.0
 20
0.0
 11
1.0
 21
1.0
 12
148.5
 22
105.0
 13
0.0
 23
0.0
 14
1.0
 24
1.0
 15
0.0
 25
0.0
 16
0.0
 26
0.0
 36
1.0
 17
0.0
 27
0.0
 37
0.0
 40
210.0
 41
1.4142857143
 42
50.0
 43
0.0
 44
0.0
 50
0.0
 51
0.0
 71
0
 72
100
 73
1
 74
1
 75
0
 76
0
 77
0
 78
0
  0
ENDTAB
  0
TABLE
  2
LTYPE
  5
5
100
AcDbSymbolTable
 70
6
  0
LTYPE
  5
14
100
AcDbSymbolTableRecord
100
AcDbLinetypeTableRecord
  2
BYBLOCK
 70
0
  3

 72
65
 73
0
 40
0.0
  0
LTYPE
  5
15
100
AcDbSymbolTableRecord
100
AcDbLinetypeTableRecord
  2
BYLAYER
 70
0
  3

 72
65
 73
0
 40
0.0
  0
LTYPE
  5
16
100
AcDbSymbolTableRecord
100
AcDbLinetypeTableRecord
  2
CONTINUOUS
 70
64
  3
Solid line
 72
65
 73
0
 40
0.0
  0
LTYPE
  5
1F5
100
AcDbSymbolTableRecord
100
AcDbLinetypeTableRecord
  2
CENTER
 70
64
  3
____ _ ____ _ ____ _ ____ _ ____ _ ____ _ ____
 72
65
 73
4
 40
0.6
 49
0.375
 74
0
 49
-0.075
 74
0
 49
0.075
 74
0
 49
-0.075
 74
0
  0
LTYPE
  5
1F6
100
AcDbSymbolTableRecord
100
AcDbLinetypeTableRecord
  2
HIDDEN
 70
64
  3
- - - - - - - - - - - - - - - - - - - -
 72
65
 73
2
 40
0.2
 49
0.1
 74
0
 49
-0.1
 74
0
  0
LTYPE
  5
1F7
100
AcDbSymbolTableRecord
100
AcDbLinetypeTableRecord
  2
PHANTOM
 70
64
  3
_____ _ _ _____ _ _ _____ _ _ _____
 72
65
 73
6
 40
0.8
 49
0.45
 74
0
 49
-0.05
 74
0
 49
0.1
 74
0
 49
-0.05
 74
0
 49
0.1
 74
0
 49
-0.05
 74
0
  0
LTYPE
  5
1F8
100
AcDbSymbolTableRecord
100
AcDbLinetypeTableRecord
  2
DOT
 70
64
  3
. . . . . . . . . . . . . . . . . . . .
 72
65
 73
2
 40
0.2
 49
0.1
 74
0
 49
-0.1
 74
0
  0
LTYPE
  5
1F9
100
AcDbSymbolTableRecord
100
AcDbLinetypeTableRecord
  2
DASHED
 70
64
  3
- - - - - - - - - - - - - - - - - - - -
 72
65
 73
2
 40
0.2
 49
0.1
 74
0
 49
-0.1
 74
0
  0
ENDTAB
  0
TABLE
  2
LAYER
  5
2
100
AcDbSymbolTable
 70
36
  0
LAYER
  5
10
100
AcDbSymbolTableRecord
100
AcDbLayerTableRecord
  2
0
 70
0
 62
7
  6
CONTINUOUS
370
-3
390
F
  0
LAYER
  5
1FA
100
AcDbSymbolTableRecord
100
AcDbLayerTableRecord
  2
DEFAULT_1
 70
0
 62
7
  6
CENTER
370
-3
390
F
  0
LAYER
  5
1FB
100
AcDbSymbolTableRecord
100
AcDbLayerTableRecord
  2
DEFAULT_2
 70
0
 62
7
  6
HIDDEN
370
-3
390
F
  0
LAYER
  5
1FC
100
AcDbSymbolTableRecord
100
AcDbLayerTableRecord
  2
DEFAULT_3
 70
0
 62
7
  6
PHANTOM
370
-3
390
F
  0
LAYER
  5
1FD
100
AcDbSymbolTableRecord
100
AcDbLayerTableRecord
  2
ASSI
 70
0
 62
7
  6
CONTINUOUS
370
-3
390
F
  0
LAYER
  5
1FE
100
AcDbSymbolTableRecord
100
AcDbLayerTableRecord
  2
COLOR1
 70
0
 62
7
  6
CONTINUOUS
370
-3
390
F
  0
LAYER
  5
1FF
100
AcDbSymbolTableRecord
100
AcDbLayerTableRecord
  2
COLOR14
 70
0
 62
7
  6
CONTINUOUS
370
-3
390
F
  0
LAYER
  5
200
100
AcDbSymbolTableRecord
100
AcDbLayerTableRecord
  2
COLOR5
 70
0
 62
7
  6
CONTINUOUS
370
-3
390
F
  0
LAYER
  5
201
100
AcDbSymbolTableRecord
100
AcDbLayerTableRecord
  2
COORDINATE
 70
0
 62
7
  6
CONTINUOUS
370
-3
390
F
  0
LAYER
  5
202
100
AcDbSymbolTableRecord
100
AcDbLayerTableRecord
  2
COORD_ORIGINE
 70
0
 62
7
  6
CONTINUOUS
370
-3
390
F
  0
LAYER
  5
203
100
AcDbSymbolTableRecord
100
AcDbLayerTableRecord
  2
COPY_PUBLISH
 70
0
 62
7
  6
CONTINUOUS
370
-3
390
F
  0
LAYER
  5
204
100
AcDbSymbolTableRecord
100
AcDbLayerTableRecord
  2
COSMETIC
 70
0
 62
7
  6
CONTINUOUS
370
-3
390
F
  0
LAYER
  5
205
100
AcDbSymbolTableRecord
100
AcDbLayerTableRecord
  2
COSMETICI
 70
0
 62
7
  6
CONTINUOUS
370
-3
390
F
  0
LAYER
  5
206
100
AcDbSymbolTableRecord
100
AcDbLayerTableRecord
  2
CURVE
 70
0
 62
7
  6
CONTINUOUS
370
-3
390
F
  0
LAYER
  5
207
100
AcDbSymbolTableRecord
100
AcDbLayerTableRecord
  2
DRAFT
 70
0
 62
7
  6
CONTINUOUS
370
-3
390
F
  0
LAYER
  5
208
100
AcDbSymbolTableRecord
100
AcDbLayerTableRecord
  2
IGES_HOLGER
 70
0
 62
7
  6
CONTINUOUS
370
-3
390
F
  0
LAYER
  5
209
100
AcDbSymbolTableRecord
100
AcDbLayerTableRecord
  2
IMPORT_IGES
 70
0
 62
7
  6
CONTINUOUS
370
-3
390
F
  0
LAYER
  5
20A
100
AcDbSymbolTableRecord
100
AcDbLayerTableRecord
  2
INTFCLR_1
 70
0
 62
7
  6
CONTINUOUS
370
-3
390
F
  0
LAYER
  5
20B
100
AcDbSymbolTableRecord
100
AcDbLayerTableRecord
  2
INTFCLR_3
 70
0
 62
7
  6
CONTINUOUS
370
-3
390
F
  0
LAYER
  5
20C
100
AcDbSymbolTableRecord
100
AcDbLayerTableRecord
  2
INTFCLR_4
 70
0
 62
7
  6
CONTINUOUS
370
-3
390
F
  0
LAYER
  5
20D
100
AcDbSymbolTableRecord
100
AcDbLayerTableRecord
  2
INTFCLR_5
 70
0
 62
7
  6
CONTINUOUS
370
-3
390
F
  0
LAYER
  5
20E
100
AcDbSymbolTableRecord
100
AcDbLayerTableRecord
  2
INTFCLR_6
 70
0
 62
7
  6
CONTINUOUS
370
-3
390
F
  0
LAYER
  5
20F
100
AcDbSymbolTableRecord
100
AcDbLayerTableRecord
  2
INTF_6
 70
0
 62
7
  6
CONTINUOUS
370
-3
390
F
  0
LAYER
  5
210
100
AcDbSymbolTableRecord
100
AcDbLayerTableRecord
  2
INTF_8
 70
0
 62
7
  6
CONTINUOUS
370
-3
390
F
  0
LAYER
  5
211
100
AcDbSymbolTableRecord
100
AcDbLayerTableRecord
  2
INTF_GREEN
 70
0
 62
7
  6
CONTINUOUS
370
-3
390
F
  0
LAYER
  5
212
100
AcDbSymbolTableRecord
100
AcDbLayerTableRecord
  2
INTF_YELLOW
 70
0
 62
7
  6
CONTINUOUS
370
-3
390
F
  0
LAYER
  5
213
100
AcDbSymbolTableRecord
100
AcDbLayerTableRecord
  2
LIVELLO_1
 70
0
 62
7
  6
CONTINUOUS
370
-3
390
F
  0
LAYER
  5
214
100
AcDbSymbolTableRecord
100
AcDbLayerTableRecord
  2
NOTE
 70
0
 62
7
  6
CONTINUOUS
370
-3
390
F
  0
LAYER
  5
215
100
AcDbSymbolTableRecord
100
AcDbLayerTableRecord
  2
PIANI
 70
0
 62
7
  6
CONTINUOUS
370
-3
390
F
  0
LAYER
  5
216
100
AcDbSymbolTableRecord
100
AcDbLayerTableRecord
  2
PIANI_ORIGINE
 70
0
 62
7
  6
CONTINUOUS
370
-3
390
F
  0
LAYER
  5
217
100
AcDbSymbolTableRecord
100
AcDbLayerTableRecord
  2
PIANI_RIFERIMENTO
 70
0
 62
7
  6
CONTINUOUS
370
-3
390
F
  0
LAYER
  5
218
100
AcDbSymbolTableRecord
100
AcDbLayerTableRecord
  2
PUNTI
 70
0
 62
7
  6
CONTINUOUS
370
-3
390
F
  0
LAYER
  5
219
100
AcDbSymbolTableRecord
100
AcDbLayerTableRecord
  2
RACCORDO
 70
0
 62
7
  6
CONTINUOUS
370
-3
390
F
  0
LAYER
  5
21A
100
AcDbSymbolTableRecord
100
AcDbLayerTableRecord
  2
SIMBOLI
 70
0
 62
7
  6
CONTINUOUS
370
-3
390
F
  0
LAYER
  5
21B
100
AcDbSymbolTableRecord
100
AcDbLayerTableRecord
  2
SMUSSO
 70
0
 62
7
  6
CONTINUOUS
370
-3
390
F
  0
LAYER
  5
21C
100
AcDbSymbolTableRecord
100
AcDbLayerTableRecord
  2
SNAPLINE
 70
0
 62
7
  6
CONTINUOUS
370
-3
390
F
  0
LAYER
  5
21D
100
AcDbSymbolTableRecord
100
AcDbLayerTableRecord
  2
SUPERFICI
 70
0
 62
7
  6
CONTINUOUS
370
-3
390
F
  0
LAYER
  5
21E
100
AcDbSymbolTableRecord
100
AcDbLayerTableRecord
  2
TASSELLO
 70
0
 62
7
  6
CONTINUOUS
370
-3
390
F
  0
LAYER
  5
21F
100
AcDbSymbolTableRecord
100
AcDbLayerTableRecord
  2
TRASH
 70
0
 62
7
  6
CONTINUOUS
370
-3
390
F
  0
LAYER
  5
220
100
AcDbSymbolTableRecord
100
AcDbLayerTableRecord
  2
WHITE
 70
0
 62
7
  6
CONTINUOUS
370
-3
390
F
  0
LAYER
  5
221
100
AcDbSymbolTableRecord
100
AcDbLayerTableRecord
  2
XSEC_DATUMS
 70
0
 62
7
  6
CONTINUOUS
370
-3
390
F
  0
ENDTAB
  0
TABLE
  2
STYLE
  5
3
100
AcDbSymbolTable
 70
1
  0
STYLE
  5
11
100
AcDbSymbolTableRecord
100
AcDbTextStyleTableRecord
  2
STANDARD
 70
0
 40
0.0
 41
0.8
 50
0.0
 71
0
 42
0.2
  3
txt
  4

  0
STYLE
  5
222
100
AcDbSymbolTableRecord
100
AcDbTextStyleTableRecord
  2
TEXTSTYLE_1
 70
0
 40
0.0
 41
0.8
 50
0.0
 71
0
 42
0.2
  3
gdt
  4

  0
ENDTAB
  0
TABLE
  2
VIEW
  5
6
100
AcDbSymbolTable
 70
0
  0
ENDTAB
  0
TABLE
  2
UCS
  5
7
100
AcDbSymbolTable
 70
0
  0
ENDTAB
  0
TABLE
  2
APPID
  5
9
100
AcDbSymbolTable
 70
1
  0
APPID
  5
223
100
AcDbSymbolTableRecord
100
AcDbRegAppTableRecord
  2
ACAD
 70
0
  0
ENDTAB
  0
TABLE
  2
BLOCK_RECORD
  5
1
100
AcDbSymbolTable
 70
0
  0
BLOCK_RECORD
  5
224
100
AcDbSymbolTableRecord
100
AcDbBlockTableRecord
  2
*Model_Space
  0
BLOCK_RECORD
  5
225
100
AcDbSymbolTableRecord
100
AcDbBlockTableRecord
  2
*Paper_Space
  0
ENDTAB
  0
TABLE
  2
DIMSTYLE
  5
A
100
AcDbSymbolTable
 70
1
100
AcDbDimStyleTable
 71
0
  0
DIMSTYLE
105
226
100
AcDbSymbolTableRecord
100
AcDbDimStyleTableRecord
  2
STANDARD
 70
0
  3

  4

 40
1.0
 41
3.0
 42
0.5
 43
0.38
 44
1.5
 45
0.0
 46
0.0
 47
0.01
 48
0.01
140
3.0
141
0.09
142
0.0
143
25.4
144
1.0
145
0.0
146
1.0
147
0.625
 71
1.0
 72
0.0
 73
0
 74
0
 75
0
 76
0
 77
1
 78
8
170
0
171
2
172
0
173
0
174
0
175
0
176
0
177
0
178
0
270
2
271
2
272
2
273
2
274
2
275
0
280
0
281
0
282
0
283
1
284
8
285
0
286
0
287
3
288
0
340
11
278
44
  0
ENDTAB
  0
ENDSEC
  0
SECTION
  2
BLOCKS
  0
BLOCK
  5
20
100
AcDbEntity
  8
0
100
AcDbBlockBegin
  2
*Model_Space
 70
0
 10
0.0
 20
0.0
 30
0.0
  3
*Model_Space
  1

  0
ENDBLK
  5
21
100
AcDbEntity
  8
0
100
AcDbBlockEnd
  0
BLOCK
  5
1C
100
AcDbEntity
  8
0
100
AcDbBlockBegin
  2
*Paper_Space
 70
0
 10
0.0
 20
0.0
 30
0.0
  3
*Paper_Space
  1

  0
ENDBLK
  5
1D
100
AcDbEntity
  8
0
100
AcDbBlockEnd
  0
ENDSEC
  0
SECTION
  2
ENTITIES
  0
LINE
  5
227
100
AcDbEntity
  8
0
100
AcDbLine
 62
7
  6
CONTINUOUS
 10
24.1771632831
 20
136.5915378581
 11
24.1626415825
 21
136.5601446851
  0
LINE
  5
228
100
AcDbEntity
  8
0
100
AcDbLine
 62
7
  6
CONTINUOUS
 10
24.1917092368
 20
136.6225291578
 11
24.1771632831
 21
136.5915378581
  0
LINE
  5
229
100
AcDbEntity
  8
0
100
AcDbLine
 62
7
  6
CONTINUOUS
 10
24.2062792448
 20
136.653135114
 11
24.1917092368
 21
136.6225291578
  0
LWPOLYLINE
  5
22A
100
AcDbEntity
  8
0
100
AcDbPolyline
 62
7
  6
CONTINUOUS
 90
10
 70
0
 10
23.9886934289
 20
135.4997693497
 10
24.024777908
 20
135.5728125591
 10
24.0567155896
 20
135.6472474665
 10
24.0845064735
 20
135.7230740721
 10
24.1082071317
 20
135.800529946
 10
24.1277609923
 20
135.879377518
 10
24.1429983393
 20
135.9589040772
 10
24.1538626006
 20
136.0388720533
 10
24.1604103484
 20
136.1195190166
 10
24.1626415825
 20
136.200844967
  0
LWPOLYLINE
  5
22B
100
AcDbEntity
  8
0
100
AcDbPolyline
 62
253
  6
CONTINUOUS
 90
10
 70
0
 10
23.9635716461
 20
135.5085903362
 10
23.9949835454
 20
135.5718134853
 10
24.024324509
 20
135.6387308414
 10
24.0511943459
 20
135.7093282504
 10
24.0751501046
 20
135.7834701902
 10
24.0957959891
 20
135.8611603522
 10
24.1127378691
 20
135.9425508565
 10
24.1254876135
 20
136.0275763283
 10
24.1335150059
 20
136.1159368634
 10
24.1363066696
 20
136.2073669509
  0
LWPOLYLINE
  5
22C
100
AcDbEntity
  8
0
100
AcDbPolyline
 62
253
  6
CONTINUOUS
 90
10
 70
0
 10
23.5212261395
 20
135.7415158744
 10
23.5426262705
 20
135.7837060133
 10
23.5620959564
 20
135.8283060468
 10
23.5796351973
 20
135.8753159749
 10
23.5955383809
 20
135.9247586265
 10
23.6095111195
 20
135.9766111728
 10
23.6206702492
 20
136.030805127
 10
23.6287213822
 20
136.0873176603
 10
23.6339589063
 20
136.1461716016
 10
23.6363828215
 20
136.2073669509
  0
LWPOLYLINE
  5
22D
100
AcDbEntity
  8
0
100
AcDbPolyline
 62
253
  6
CONTINUOUS
 90
10
 70
0
 10
28.1828472276
 20
43.3612600904
 10
28.1172478131
 20
43.4190337599
 10
28.0486100261
 20
43.4702816844
 10
27.9813585109
 20
43.515382701
 10
27.9234294569
 20
43.5597221231
 10
27.8763756101
 20
43.5997356454
 10
27.8361580861
 20
43.6264493102
 10
27.8044055339
 20
43.6416473601
 10
27.7869090584
 20
43.6533815241
 10
27.7857696993
 20
43.6649923572
  0
LINE
  5
22E
100
AcDbEntity
  8
0
100
AcDbLine
 62
253
  6
CONTINUOUS
 10
34.5278685409
 20
34.9090884606
 11
34.5889612681
 21
34.8479957333
  0
LINE
  5
22F
100
AcDbEntity
  8
0
100
AcDbLine
 62
7
  6
CONTINUOUS
 10
34.2411671472
 20
36.3345600388
 11
34.2277314526
 21
36.3479957333
  0
LWPOLYLINE
  5
230
100
AcDbEntity
  8
0
100
AcDbPolyline
 62
7
  6
CONTINUOUS
 90
20
 70
0
 10
23.9886934289
 20
135.4997693497
 10
23.8369125636
 20
135.1281717724
 10
23.7501996028
 20
134.7572958011
 10
23.7285545466
 20
134.3871414356
 10
23.7751814066
 20
134.0064730997
 10
23.8868761711
 20
133.6265263696
 10
24.0540268053
 20
133.2810079742
 10
24.281356128
 20
132.9737566652
 10
24.5641413204
 20
132.7009336908
 10
24.8786018915
 20
132.4847295242
 10
25.2273475786
 20
132.3297216864
 10
25.6077686444
 20
132.2313326564
 10
25.988255385
 20
132.1980203453
 10
26.3689313804
 20
132.2350822568
 10
26.7496730507
 20
132.3372208871
 10
27.0984999526
 20
132.4970016356
 10
27.4132559482
 20
132.7184350106
 10
27.6960971754
 20
132.9975105037
 10
27.9215116049
 20
133.3147619889
 10
28.080995227
 20
133.6637007577
  0
LINE
  5
231
100
AcDbEntity
  8
0
100
AcDbLine
 62
7
  6
CONTINUOUS
 10
28.3248295504
 20
136.0265435255
 11
28.3014731174
 21
135.9829058632
  0
LINE
  5
232
100
AcDbEntity
  8
0
100
AcDbLine
 62
7
  6
CONTINUOUS
 10
46.4777314526
 20
143.0432653438
 11
46.517010335
 21
143.0694479411
  0
LINE
  5
233
100
AcDbEntity
  8
0
100
AcDbLine
 62
7
  6
CONTINUOUS
 10
35.7363066686
 20
43.5394205173
 11
35.8062792448
 21
43.4694479411
  0
LWPOLYLINE
  5
234
100
AcDbEntity
  8
0
100
AcDbPolyline
 62
7
  6
CONTINUOUS
 90
10
 70
0
 10
34.2411671472
 20
36.3345600388
 10
34.255239257
 20
36.3130236178
 10
34.2887213694
 20
36.2811028798
 10
34.3369293613
 20
36.2387978247
 10
34.3945456774
 20
36.1835960622
 10
34.4578907599
 20
36.1180099827
 10
34.5261504287
 20
36.0495767572
 10
34.5979011435
 20
35.9808087762
 10
34.6701364942
 20
35.9091936492
 10
34.7409958096
 20
35.8347313763
  0
LWPOLYLINE
  5
235
100
AcDbEntity
  8
0
100
AcDbPolyline
 62
253
  6
CONTINUOUS
 90
8
 70
0
 10
22.7240084051
 20
108.0871987854
 10
22.724393813
 20
108.08933922
 10
22.7247710054
 20
108.0941569013
 10
22.7251399822
 20
108.1016518292
 10
22.7255075474
 20
108.1118039922
 10
22.7258668971
 20
108.1246334018
 10
22.7261976193
 20
108.1402000934
 10
22.7267761097
 20
108.1799022751
  0
LWPOLYLINE
  5
236
100
AcDbEntity
  8
0
100
AcDbPolyline
 62
7
  6
CONTINUOUS
 90
3
 70
0
 10
28.080995227
 20
133.6637007577
 10
28.1830520515
 20
134.0508155186
 10
28.2276820782
 20
134.4761062716
  0
LINE
  5
237
100
AcDbEntity
  8
0
100
AcDbLine
 62
253
  6
CONTINUOUS
 10
22.9275030928
 20
107.4979957333
 11
23.0239627136
 21
107.787609925
  0
LINE
  5
238
100
AcDbEntity
  8
0
100
AcDbLine
 62
253
  6
CONTINUOUS
 10
22.6277314526
 20
107.7983160308
 11
22.7240084051
 21
108.0871987854
  0
LINE
  5
239
100
AcDbEntity
  8
0
100
AcDbLine
 62
7
  6
CONTINUOUS
 10
44.2777314526
 20
136.4479957333
 11
44.2384525703
 21
136.408716851
  0
LWPOLYLINE
  5
23A
100
AcDbEntity
  8
0
100
AcDbPolyline
 62
253
  6
CONTINUOUS
 90
22
 70
0
 10
23.7271644077
 20
34.9475809933
 10
23.6736618567
 20
34.9490179211
 10
23.6186663117
 20
34.9534938751
 10
23.5623675781
 20
34.9612681604
 10
23.5050687879
 20
34.9725760776
 10
23.4469375119
 20
34.9876726848
 10
23.3880196011
 20
35.006878518
 10
23.3287148906
 20
35.0304293405
 10
23.2693335575
 20
35.0585879726
 10
23.2098986687
 20
35.0918117355
 10
23.1508957993
 20
35.1303872184
 10
23.092921491
 20
35.1745267834
 10
23.0363344084
 20
35.2246599898
 10
22.9818108089
 20
35.2810289264
 10
22.9302164174
 20
35.3436772536
 10
22.8823513778
 20
35.4127002082
 10
22.8391291681
 20
35.4880380184
 10
22.801530713
 20
35.5694691913
 10
22.7705424712
 20
35.6566846921
 10
22.7471764692
 20
35.7492115563
 10
22.7324426345
 20
35.8463974728
 10
22.7273167126
 20
35.9474286884
  0
LINE
  5
23B
100
AcDbEntity
  8
0
100
AcDbLine
 62
7
  6
CONTINUOUS
 10
24.1277314526
 20
43.7369455926
 11
24.1142957581
 21
43.7404578975
  0
LWPOLYLINE
  5
23C
100
AcDbEntity
  8
0
100
AcDbPolyline
 62
7
  6
CONTINUOUS
 90
10
 70
0
 10
35.7363066686
 20
43.5394205173
 10
35.7229857851
 20
43.560327959
 10
35.6899099835
 20
43.5918191871
 10
35.6418329844
 20
43.6338942015
 10
35.5841528731
 20
43.6891181667
 10
35.5206241042
 20
43.7549259182
 10
35.4521052228
 20
43.8236219631
 10
35.3800540711
 20
43.892641137
 10
35.3075172799
 20
43.9645486043
 10
35.2363828211
 20
44.0393443649
  0
LINE
  5
23D
100
AcDbEntity
  8
0
100
AcDbLine
 62
253
  6
CONTINUOUS
 10
22.6562847824
 20
71.6121287723
 11
22.6277314526
 21
71.6976752983
  0
LINE
  5
23E
100
AcDbEntity
  8
0
100
AcDbLine
 62
253
  6
CONTINUOUS
 10
22.7240084051
 20
68.9087926812
 11
22.6662239853
 21
69.0822869151
  0
LINE
  5
23F
100
AcDbEntity
  8
0
100
AcDbLine
 62
253
  6
CONTINUOUS
 10
23.0239627136
 20
69.2083815416
 11
22.9711407551
 21
69.3669762851
  0
LINE
  5
240
100
AcDbEntity
  8
0
100
AcDbLine
 62
253
  6
CONTINUOUS
 10
22.9562390909
 20
71.9117176327
 11
22.9527906138
 21
71.9220714771
  0
LWPOLYLINE
  5
241
100
AcDbEntity
  8
0
100
AcDbPolyline
 62
253
  6
CONTINUOUS
 90
10
 70
0
 10
22.7240084051
 20
108.0871987854
 10
22.7286067754
 20
108.0352105665
 10
22.7421677104
 20
107.9847986432
 10
22.764280347
 20
107.9374929353
 10
22.7942742787
 20
107.894729247
 10
22.8312397786
 20
107.8578057961
 10
22.8740553094
 20
107.8278437316
 10
22.9214216794
 20
107.8057529261
 10
22.9719015079
 20
107.7922043857
 10
23.0239627137
 20
107.7876099252
  0
LWPOLYLINE
  5
242
100
AcDbEntity
  8
0
100
AcDbPolyline
 62
253
  6
CONTINUOUS
 90
6
 70
0
 10
22.7261991071
 20
68.8555072987
 10
22.7258421492
 20
68.8723526214
 10
22.7254437972
 20
68.8862477977
 10
22.7250067273
 20
68.8967129052
 10
22.7245282633
 20
68.9042278664
 10
22.7240084051
 20
68.9087926812
  0
LINE
  5
243
100
AcDbEntity
  8
0
100
AcDbLine
 62
253
  6
CONTINUOUS
 10
22.6662239853
 20
71.0427122164
 11
22.6562847824
 21
71.6121287723
  0
LINE
  5
244
100
AcDbEntity
  8
0
100
AcDbLine
 62
253
  6
CONTINUOUS
 10
22.9661782939
 20
71.2548442508
 11
22.9562390909
 21
71.8242608066
  0
LWPOLYLINE
  5
245
100
AcDbEntity
  8
0
100
AcDbPolyline
 62
253
  6
CONTINUOUS
 90
4
 70
0
 10
23.02539915
 20
69.1519438279
 10
23.0249619153
 20
69.1798907484
 10
23.0244831032
 20
69.1991136557
 10
23.0239627136
 20
69.2083815416
  0
LINE
  5
246
100
AcDbEntity
  8
0
100
AcDbLine
 62
253
  6
CONTINUOUS
 10
22.7267613786
 20
68.8173621852
 11
22.7261991071
 21
68.8555072987
  0
LINE
  5
247
100
AcDbEntity
  8
0
100
AcDbLine
 62
253
  6
CONTINUOUS
 10
23.0261541328
 20
69.0752830193
 11
23.02539915
 21
69.1519438279
  0
LINE
  5
248
100
AcDbEntity
  8
0
100
AcDbLine
 62
253
  6
CONTINUOUS
 10
22.7271246733
 20
68.774461982
 11
22.7267613786
 21
68.8173621852
  0
LINE
  5
249
100
AcDbEntity
  8
0
100
AcDbLine
 62
253
  6
CONTINUOUS
 10
22.727300032
 20
68.7311657983
 11
22.7271246733
 21
68.774461982
  0
LINE
  5
24A
100
AcDbEntity
  8
0
100
AcDbLine
 62
253
  6
CONTINUOUS
 10
23.027078612
 20
68.8723380697
 11
23.0261541328
 21
69.0752830193
  0
LINE
  5
24B
100
AcDbEntity
  8
DRAFT
100
AcDbLine
 62
7
  6
CONTINUOUS
 10
22.6277314526
 20
113.6816664866
 11
22.6277314526
 21
113.2479957333
  0
LINE
  5
24C
100
AcDbEntity
  8
DRAFT
100
AcDbLine
 62
7
  6
CONTINUOUS
 10
22.6277314526
 20
68.441785411
 11
22.6277314526
 21
65.8143249801
  0
LINE
  5
24D
100
AcDbEntity
  8
RACCORDO
100
AcDbLine
 62
7
  6
CONTINUOUS
 10
22.6277314526
 20
35.8478434285
 11
22.6277314526
 21
53.8479957333
  0
LINE
  5
24E
100
AcDbEntity
  8
DRAFT
100
AcDbLine
 62
7
  6
CONTINUOUS
 10
22.6277314526
 20
53.8479957333
 11
22.6277314526
 21
65.6479957333
  0
LINE
  5
24F
100
AcDbEntity
  8
ASSI
100
AcDbLine
 62
7
  6
CONTINUOUS
 10
22.6277314526
 20
43.4979195809
 11
22.6277314526
 21
68.1668860588
  0
LINE
  5
250
100
AcDbEntity
  8
0
100
AcDbLine
 62
7
  6
CONTINUOUS
 10
22.6277314526
 20
65.6479957333
 11
22.6277314526
 21
68.1668860588
  0
LINE
  5
251
100
AcDbEntity
  8
0
100
AcDbLine
 62
7
  6
CONTINUOUS
 10
22.6277314526
 20
71.6121287723
 11
22.6277314526
 21
71.6978584221
  0
LINE
  5
252
100
AcDbEntity
  8
0
100
AcDbLine
 62
7
  6
CONTINUOUS
 10
22.6277314526
 20
107.7981330446
 11
22.6277314526
 21
113.2479957333
  0
LINE
  5
253
100
AcDbEntity
  8
0
100
AcDbLine
 62
7
  6
CONTINUOUS
 10
22.6277314526
 20
113.372259802
 11
22.6277314526
 21
113.8479957333
  0
LINE
  5
254
100
AcDbEntity
  8
RACCORDO
100
AcDbLine
 62
7
  6
CONTINUOUS
 10
22.6277314526
 20
125.6479957333
 11
22.6277314526
 21
143.6481480382
  0
LINE
  5
255
100
AcDbEntity
  8
DRAFT
100
AcDbLine
 62
7
  6
CONTINUOUS
 10
22.6277314526
 20
113.8479957333
 11
22.6277314526
 21
125.6479957333
  0
LINE
  5
256
100
AcDbEntity
  8
ASSI
100
AcDbLine
 62
7
  6
CONTINUOUS
 10
22.6277314526
 20
113.372259802
 11
22.6277314526
 21
135.9980718857
  0
LINE
  5
257
100
AcDbEntity
  8
0
100
AcDbLine
 62
7
  6
CONTINUOUS
 10
22.633059362
 20
71.793194292
 11
22.633059362
 21
107.7027971747
  0
LINE
  5
258
100
AcDbEntity
  8
ASSI
100
AcDbLine
 62
7
  6
CONTINUOUS
 10
22.6399499981
 20
57.0979957333
 11
22.6399499981
 21
62.3979957333
  0
LINE
  5
259
100
AcDbEntity
  8
DRAFT
100
AcDbLine
 62
7
  6
CONTINUOUS
 10
22.6399499981
 20
57.0979957333
 11
22.6399499981
 21
62.3979957333
  0
LINE
  5
25A
100
AcDbEntity
  8
ASSI
100
AcDbLine
 62
7
  6
CONTINUOUS
 10
22.6399499981
 20
117.0979957333
 11
22.6399499981
 21
122.3979957333
  0
LINE
  5
25B
100
AcDbEntity
  8
DRAFT
100
AcDbLine
 62
7
  6
CONTINUOUS
 10
22.6399499981
 20
117.0979957333
 11
22.6399499981
 21
122.3979957333
  0
LINE
  5
25C
100
AcDbEntity
  8
0
100
AcDbLine
 62
253
  6
CONTINUOUS
 10
22.6662239853
 20
69.0822869151
 11
22.6662239853
 21
71.0427122164
  0
LINE
  5
25D
100
AcDbEntity
  8
ASSI
100
AcDbLine
 62
7
  6
CONTINUOUS
 10
22.6975517123
 20
122.3979957333
 11
22.6975517123
 21
117.0979957333
  0
LINE
  5
25E
100
AcDbEntity
  8
DRAFT
100
AcDbLine
 62
7
  6
CONTINUOUS
 10
22.6975517123
 20
122.3979957333
 11
22.6975517123
 21
117.0979957333
  0
LINE
  5
25F
100
AcDbEntity
  8
ASSI
100
AcDbLine
 62
7
  6
CONTINUOUS
 10
22.6975517123
 20
62.3979957333
 11
22.6975517123
 21
57.0979957333
  0
LINE
  5
260
100
AcDbEntity
  8
DRAFT
100
AcDbLine
 62
7
  6
CONTINUOUS
 10
22.6975517123
 20
62.3979957333
 11
22.6975517123
 21
57.0979957333
  0
LINE
  5
261
100
AcDbEntity
  8
0
100
AcDbLine
 62
253
  6
CONTINUOUS
 10
22.7273167126
 20
35.9474286884
 11
22.7273167126
 21
53.7812517466
  0
LINE
  5
262
100
AcDbEntity
  8
0
100
AcDbLine
 62
253
  6
CONTINUOUS
 10
22.7273167126
 20
65.7147397201
 11
22.727300032
 21
68.7311657983
  0
LINE
  5
263
100
AcDbEntity
  8
0
100
AcDbLine
 62
253
  6
CONTINUOUS
 10
22.7273167126
 20
125.7147397201
 11
22.7273167126
 21
143.5485627782
  0
LINE
  5
264
100
AcDbEntity
  8
ASSI
100
AcDbLine
 62
7
  6
CONTINUOUS
 10
22.7289708292
 20
54.931932373
 11
22.7289708292
 21
64.5640590936
  0
LINE
  5
265
100
AcDbEntity
  8
RACCORDO
100
AcDbLine
 62
7
  6
CONTINUOUS
 10
22.7289708292
 20
54.931932373
 11
22.7289708292
 21
64.5640590936
  0
LINE
  5
266
100
AcDbEntity
  8
ASSI
100
AcDbLine
 62
7
  6
CONTINUOUS
 10
22.7289708292
 20
114.931932373
 11
22.7289708292
 21
124.5640590936
  0
LINE
  5
267
100
AcDbEntity
  8
RACCORDO
100
AcDbLine
 62
7
  6
CONTINUOUS
 10
22.7289708292
 20
114.931932373
 11
22.7289708292
 21
124.5640590936
  0
LINE
  5
268
100
AcDbEntity
  8
0
100
AcDbLine
 62
253
  6
CONTINUOUS
 10
22.9330136705
 20
71.9979957333
 11
22.9330136705
 21
107.4979957333
  0
LINE
  5
269
100
AcDbEntity
  8
0
100
AcDbLine
 62
253
  6
CONTINUOUS
 10
22.9562390909
 20
71.8242608066
 11
22.9562390909
 21
71.9117176327
  0
LINE
  5
26A
100
AcDbEntity
  8
0
100
AcDbLine
 62
253
  6
CONTINUOUS
 10
22.9661782939
 20
69.3669762851
 11
22.9661782939
 21
71.2548442508
  0
LINE
  5
26B
100
AcDbEntity
  8
0
100
AcDbLine
 62
253
  6
CONTINUOUS
 10
23.0272710211
 20
35.9474286884
 11
23.0272710211
 21
53.7863968762
  0
LINE
  5
26C
100
AcDbEntity
  8
0
100
AcDbLine
 62
253
  6
CONTINUOUS
 10
23.0272710211
 20
65.7095945905
 11
23.027078612
 21
68.8723380697
  0
LINE
  5
26D
100
AcDbEntity
  8
0
100
AcDbLine
 62
253
  6
CONTINUOUS
 10
23.0272710211
 20
125.7095945905
 11
23.0272710211
 21
143.5485627782
  0
LINE
  5
26E
100
AcDbEntity
  8
0
100
AcDbLine
 62
253
  6
CONTINUOUS
 10
23.6144670956
 20
35.8347313763
 11
23.6144670956
 21
43.5910831453
  0
LINE
  5
26F
100
AcDbEntity
  8
0
100
AcDbLine
 62
253
  6
CONTINUOUS
 10
23.6363828215
 20
136.2073669509
 11
23.6363828211
 21
143.6393443649
  0
LINE
  5
270
100
AcDbEntity
  8
0
100
AcDbLine
 62
253
  6
CONTINUOUS
 10
23.7271644077
 20
144.5484104734
 11
23.7271644077
 21
144.2484561648
  0
LINE
  5
271
100
AcDbEntity
  8
0
100
AcDbLine
 62
253
  6
CONTINUOUS
 10
23.7271644077
 20
34.9475809933
 11
23.7271644077
 21
35.2475353018
  0
LINE
  5
272
100
AcDbEntity
  8
ASSI
100
AcDbLine
 62
7
  6
CONTINUOUS
 10
24.0777314526
 20
122.4479957333
 11
24.0777314526
 21
117.0479957333
  0
LINE
  5
273
100
AcDbEntity
  8
0
100
AcDbLine
 62
7
  6
CONTINUOUS
 10
24.0777314526
 20
122.4479957333
 11
24.0777314526
 21
117.0479957333
  0
LINE
  5
274
100
AcDbEntity
  8
ASSI
100
AcDbLine
 62
7
  6
CONTINUOUS
 10
24.0777314526
 20
57.0479957333
 11
24.0777314526
 21
62.4479957333
  0
LINE
  5
275
100
AcDbEntity
  8
0
100
AcDbLine
 62
7
  6
CONTINUOUS
 10
24.0777314526
 20
57.0479957333
 11
24.0777314526
 21
62.4479957333
  0
LINE
  5
276
100
AcDbEntity
  8
0
100
AcDbLine
 62
253
  6
CONTINUOUS
 10
24.1142957581
 20
36.3345600388
 11
24.1142957581
 21
43.7404578975
  0
LINE
  5
277
100
AcDbEntity
  8
0
100
AcDbLine
 62
7
  6
CONTINUOUS
 10
24.1277314526
 20
43.7369455926
 11
24.1277314526
 21
36.3479957333
  0
LINE
  5
278
100
AcDbEntity
  8
0
100
AcDbLine
 62
253
  6
CONTINUOUS
 10
24.1363066686
 20
136.2073669509
 11
24.1363066686
 21
143.1394205173
  0
LINE
  5
279
100
AcDbEntity
  8
0
100
AcDbLine
 62
7
  6
CONTINUOUS
 10
24.1626415825
 20
136.200844967
 11
24.1626415825
 21
136.5601446851
  0
LINE
  5
27A
100
AcDbEntity
  8
0
100
AcDbLine
 62
7
  6
CONTINUOUS
 10
24.2062792448
 20
136.653135114
 11
24.2062792448
 21
143.0694479411
  0
LINE
  5
27B
100
AcDbEntity
  8
ASSI
100
AcDbLine
 62
7
  6
CONTINUOUS
 10
24.3455790891
 20
54.931932373
 11
24.3455790891
 21
57.0479957333
  0
LINE
  5
27C
100
AcDbEntity
  8
RACCORDO
100
AcDbLine
 62
7
  6
CONTINUOUS
 10
24.3455790891
 20
54.931932373
 11
24.3455790891
 21
57.0479957333
  0
LINE
  5
27D
100
AcDbEntity
  8
ASSI
100
AcDbLine
 62
7
  6
CONTINUOUS
 10
24.3455790891
 20
62.4479957333
 11
24.3455790891
 21
64.5640590936
  0
LINE
  5
27E
100
AcDbEntity
  8
RACCORDO
100
AcDbLine
 62
7
  6
CONTINUOUS
 10
24.3455790891
 20
62.4479957333
 11
24.3455790891
 21
64.5640590936
  0
LINE
  5
27F
100
AcDbEntity
  8
ASSI
100
AcDbLine
 62
7
  6
CONTINUOUS
 10
24.3455790891
 20
114.931932373
 11
24.3455790891
 21
117.0479957333
  0
LINE
  5
280
100
AcDbEntity
  8
RACCORDO
100
AcDbLine
 62
7
  6
CONTINUOUS
 10
24.3455790891
 20
114.931932373
 11
24.3455790891
 21
117.0479957333
  0
LINE
  5
281
100
AcDbEntity
  8
ASSI
100
AcDbLine
 62
7
  6
CONTINUOUS
 10
24.3455790891
 20
122.4479957333
 11
24.3455790891
 21
124.5640590936
  0
LINE
  5
282
100
AcDbEntity
  8
RACCORDO
100
AcDbLine
 62
7
  6
CONTINUOUS
 10
24.3455790891
 20
122.4479957333
 11
24.3455790891
 21
124.5640590936
  0
LINE
  5
283
100
AcDbEntity
  8
ASSI
100
AcDbLine
 62
7
  6
CONTINUOUS
 10
24.3539293979
 20
122.4479957333
 11
24.3539293979
 21
117.0479957333
  0
LINE
  5
284
100
AcDbEntity
  8
DRAFT
100
AcDbLine
 62
7
  6
CONTINUOUS
 10
24.3539293979
 20
122.4479957333
 11
24.3539293979
 21
117.0479957333
  0
LINE
  5
285
100
AcDbEntity
  8
ASSI
100
AcDbLine
 62
7
  6
CONTINUOUS
 10
24.3539293979
 20
57.0479957333
 11
24.3539293979
 21
62.4479957333
  0
LINE
  5
286
100
AcDbEntity
  8
DRAFT
100
AcDbLine
 62
7
  6
CONTINUOUS
 10
24.3539293979
 20
57.0479957333
 11
24.3539293979
 21
62.4479957333
  0
LINE
  5
287
100
AcDbEntity
  8
ASSI
100
AcDbLine
 62
7
  6
CONTINUOUS
 10
24.3795668454
 20
122.0479957333
 11
24.3795668454
 21
117.4479957333
  0
LINE
  5
288
100
AcDbEntity
  8
DRAFT
100
AcDbLine
 62
7
  6
CONTINUOUS
 10
24.3795668454
 20
122.0479957333
 11
24.3795668454
 21
117.4479957333
  0
LINE
  5
289
100
AcDbEntity
  8
ASSI
100
AcDbLine
 62
7
  6
CONTINUOUS
 10
24.3795668454
 20
62.0479957333
 11
24.3795668454
 21
57.4479957333
  0
LINE
  5
28A
100
AcDbEntity
  8
DRAFT
100
AcDbLine
 62
7
  6
CONTINUOUS
 10
24.3795668454
 20
62.0479957333
 11
24.3795668454
 21
57.4479957333
  0
LINE
  5
28B
100
AcDbEntity
  8
DRAFT
100
AcDbLine
 62
7
  6
CONTINUOUS
 10
24.4393303098
 20
125.7095945905
 11
24.4393303098
 21
122.0479957333
  0
LINE
  5
28C
100
AcDbEntity
  8
DRAFT
100
AcDbLine
 62
7
  6
CONTINUOUS
 10
24.4393303098
 20
53.7863968762
 11
24.4393303098
 21
57.4479957333
  0
LINE
  5
28D
100
AcDbEntity
  8
DRAFT
100
AcDbLine
 62
7
  6
CONTINUOUS
 10
24.4393303098
 20
62.0479957333
 11
24.4393303098
 21
65.7095945905
  0
LINE
  5
28E
100
AcDbEntity
  8
DRAFT
100
AcDbLine
 62
7
  6
CONTINUOUS
 10
24.4393303098
 20
113.7863968762
 11
24.4393303098
 21
117.4479957333
  0
LINE
  5
28F
100
AcDbEntity
  8
DRAFT
100
AcDbLine
 62
7
  6
CONTINUOUS
 10
24.516121695
 20
122.0479957333
 11
24.516121695
 21
117.4479957333
  0
LINE
  5
290
100
AcDbEntity
  8
DRAFT
100
AcDbLine
 62
7
  6
CONTINUOUS
 10
24.516121695
 20
57.4479957333
 11
24.516121695
 21
62.0479957333
  0
LINE
  5
291
100
AcDbEntity
  8
0
100
AcDbLine
 62
253
  6
CONTINUOUS
 10
22.727157409
 20
108.2289689394
 11
22.7273167126
 21
113.7812517466
  0
LINE
  5
292
100
AcDbEntity
  8
0
100
AcDbLine
 62
253
  6
CONTINUOUS
 10
23.0267339122
 20
108.0199297877
 11
23.0272710211
 21
113.7863968762
  0
LINE
  5
293
100
AcDbEntity
  8
0
100
AcDbLine
 62
253
  6
CONTINUOUS
 10
23.0258233318
 20
107.881465216
 11
23.0267339122
 21
108.0199297877
  0
LINE
  5
294
100
AcDbEntity
  8
0
100
AcDbLine
 62
253
  6
CONTINUOUS
 10
22.7267761097
 20
108.1799022751
 11
22.727157409
 21
108.2289689394
  0
LWPOLYLINE
  5
295
100
AcDbEntity
  8
0
100
AcDbPolyline
 62
253
  6
CONTINUOUS
 90
22
 70
0
 10
23.0272710211
 20
143.5485627782
 10
23.027988817
 20
143.5863953068
 10
23.0311978907
 20
143.6249563492
 10
23.036898242
 20
143.6642459053
 10
23.0448946453
 20
143.7044056269
 10
23.0553823264
 20
143.7452938622
 10
23.0689469624
 20
143.7864856561
 10
23.0855643813
 20
143.8280656069
 10
23.1052587552
 20
143.8699491162
 10
23.1286882783
 20
143.9114574331
 10
23.1558878546
 20
143.9527559383
 10
23.1868225801
 20
143.993679251
 10
23.2220459377
 20
144.0330524781
 10
23.2617394631
 20
144.0710724008
 10
23.3057216206
 20
144.1075422379
 10
23.3540012852
 20
144.1406967527
 10
23.406832536
 20
144.1706147712
 10
23.4639612939
 20
144.1972174673
 10
23.5246341962
 20
144.2185031262
 10
23.5886001222
 20
144.2338045097
 10
23.6561101927
 20
144.2437888558
 10
23.7271644077
 20
144.2484561648
  0
LWPOLYLINE
  5
296
100
AcDbEntity
  8
0
100
AcDbPolyline
 62
253
  6
CONTINUOUS
 90
22
 70
0
 10
22.7273167126
 20
143.5485627782
 10
22.7287643107
 20
143.6022637967
 10
22.7332719074
 20
143.6574475603
 10
22.7410981419
 20
143.7139224908
 10
22.7524741272
 20
143.7713695631
 10
22.7676553612
 20
143.8296339772
 10
22.7869759996
 20
143.8887090752
 10
22.8106906901
 20
143.9482197087
 10
22.8390592845
 20
144.0078188229
 10
22.8725181327
 20
144.0674306724
 10
22.9113494415
 20
144.1265663729
 10
22.9557609067
 20
144.1846272626
 10
23.0061419138
 20
144.2412150977
 10
23.062714094
 20
144.2956547615
 10
23.1255124453
 20
144.3470969665
 10
23.1945975475
 20
144.3947401973
 10
23.269889467
 20
144.4376893851
 10
23.3511597023
 20
144.4749923293
 10
23.4380840002
 20
144.5056888271
 10
23.5301835094
 20
144.5288000386
 10
23.6268114132
 20
144.5433532672
 10
23.7271644077
 20
144.5484104734
  0
LWPOLYLINE
  5
297
100
AcDbEntity
  8
0
100
AcDbPolyline
 62
253
  6
CONTINUOUS
 90
5
 70
0
 10
23.0239627136
 20
107.787609925
 10
23.0243488994
 20
107.7933748741
 10
23.0247267105
 20
107.8053492172
 10
23.0250961471
 20
107.8238841999
 10
23.0258233318
 20
107.881465216
  0
LWPOLYLINE
  5
298
100
AcDbEntity
  8
0
100
AcDbPolyline
 62
253
  6
CONTINUOUS
 90
10
 70
0
 10
22.7240084051
 20
68.9087926812
 10
22.7286076483
 20
68.9607858196
 10
22.7421706985
 20
69.0112010049
 10
22.7642859272
 20
69.0585081735
 10
22.7942821536
 20
69.1012715881
 10
22.8312490146
 20
69.1381934107
 10
22.8740645934
 20
69.1681530914
 10
22.9214294688
 20
69.1902413762
 10
22.9719061522
 20
69.2037879019
 10
23.0239627136
 20
69.2083815416
  0
LWPOLYLINE
  5
299
100
AcDbEntity
  8
0
100
AcDbPolyline
 62
7
  6
CONTINUOUS
 90
8
 70
0
 10
22.6562847824
 20
71.6121287723
 10
22.6609045598
 20
71.6642375613
 10
22.67452753
 20
71.7147571918
 10
22.6967380813
 20
71.7621476718
 10
22.726883558
 20
71.8049937975
 10
22.7640302505
 20
71.8419517826
 10
22.8069441669
 20
71.8718363884
 10
22.8144087954
 20
71.8759816855
  0
LWPOLYLINE
  5
29A
100
AcDbEntity
  8
0
100
AcDbPolyline
 62
7
  6
CONTINUOUS
 90
10
 70
0
 10
28.2276820782
 20
134.4761062716
 10
28.2560146322
 20
134.7515455674
 10
28.3230063324
 20
135.0038673616
 10
28.4286571791
 20
135.2330716542
 10
28.5784079623
 20
135.4443408159
 10
28.7668178919
 20
135.6324924761
 10
28.977564597
 20
135.7819795221
 10
29.2052072875
 20
135.8876195832
 10
29.4551867536
 20
135.9545950302
 10
29.7275029954
 20
135.9829058632
  0
LWPOLYLINE
  5
29B
100
AcDbEntity
  8
0
100
AcDbPolyline
 62
253
  6
CONTINUOUS
 90
10
 70
0
 10
22.6562847824
 20
71.6121287723
 10
22.6614299657
 20
71.6487625724
 10
22.6754322129
 20
71.6842953278
 10
22.6978705399
 20
71.7176595716
 10
22.728095228
 20
71.7478737069
 10
22.7651833156
 20
71.7740035691
 10
22.8079196525
 20
71.7952224775
 10
22.8549549014
 20
71.8109194842
 10
22.9048932088
 20
71.8206820829
 10
22.9562390909
 20
71.8242608058
  0
LWPOLYLINE
  5
29C
100
AcDbEntity
  8
0
100
AcDbPolyline
 62
253
  6
CONTINUOUS
 90
10
 70
0
 10
22.6662239853
 20
71.0427122164
 10
22.6713720505
 20
71.0793568765
 10
22.6853823193
 20
71.1148993835
 10
22.7078332255
 20
71.1482713646
 10
22.7380774112
 20
71.1784931194
 10
22.7751888097
 20
71.2046263081
 10
22.8179377321
 20
71.2258383273
 10
22.8649651933
 20
71.2415215743
 10
22.9148770192
 20
71.2512713946
 10
22.9661782939
 20
71.2548442508
  0
LINE
  5
29D
100
AcDbEntity
  8
ASSI
100
AcDbLine
 62
7
  6
CONTINUOUS
 10
22.6277314526
 20
113.8479957333
 11
22.7118203972
 21
113.9320846779
  0
LINE
  5
29E
100
AcDbEntity
  8
RACCORDO
100
AcDbLine
 62
7
  6
CONTINUOUS
 10
22.6277314526
 20
113.8479957333
 11
22.7118203972
 21
113.9320846779
  0
LINE
  5
29F
100
AcDbEntity
  8
0
100
AcDbLine
 62
7
  6
CONTINUOUS
 10
22.7273167126
 20
113.7812517466
 11
22.6277314526
 21
113.6816664866
  0
LINE
  5
2A0
100
AcDbEntity
  8
ASSI
100
AcDbLine
 62
7
  6
CONTINUOUS
 10
23.7388241799
 20
113.8479957333
 11
23.7562792448
 21
113.8654507983
  0
LINE
  5
2A1
100
AcDbEntity
  8
DRAFT
100
AcDbLine
 62
7
  6
CONTINUOUS
 10
23.7388241799
 20
113.8479957333
 11
23.7562792448
 21
113.8654507983
  0
LINE
  5
2A2
100
AcDbEntity
  8
0
100
AcDbLine
 62
7
  6
CONTINUOUS
 10
129.3278837575
 20
34.8479957333
 11
34.5889612681
 21
34.8479957333
  0
LINE
  5
2A3
100
AcDbEntity
  8
0
100
AcDbLine
 62
7
  6
CONTINUOUS
 10
23.8665016371
 20
34.8479957333
 11
23.6275791478
 21
34.8479957333
  0
LINE
  5
2A4
100
AcDbEntity
  8
0
100
AcDbLine
 62
253
  6
CONTINUOUS
 10
129.2282984975
 20
34.9475809933
 11
23.7271644077
 21
34.9475809933
  0
LINE
  5
2A5
100
AcDbEntity
  8
0
100
AcDbLine
 62
253
  6
CONTINUOUS
 10
129.2282984975
 20
35.2475353018
 11
23.7271644077
 21
35.2475353018
  0
LINE
  5
2A6
100
AcDbEntity
  8
0
100
AcDbLine
 62
7
  6
CONTINUOUS
 10
81.0824618422
 20
35.7432653438
 11
71.873001063
 21
35.7432653438
  0
LINE
  5
2A7
100
AcDbEntity
  8
0
100
AcDbLine
 62
253
  6
CONTINUOUS
 10
34.7409958096
 20
35.8347313763
 11
23.6144670956
 21
35.8347313763
  0
LINE
  5
2A8
100
AcDbEntity
  8
0
100
AcDbLine
 62
7
  6
CONTINUOUS
 10
80.9777314526
 20
35.8479957333
 11
71.9777314526
 21
35.8479957333
  0
LINE
  5
2A9
100
AcDbEntity
  8
0
100
AcDbLine
 62
253
  6
CONTINUOUS
 10
129.3190800842
 20
35.8566471018
 11
81.9863828211
 21
35.8566471018
  0
LINE
  5
2AA
100
AcDbEntity
  8
0
100
AcDbLine
 62
253
  6
CONTINUOUS
 10
70.9690800842
 20
35.8566471018
 11
35.2363828211
 21
35.8566471018
  0
LINE
  5
2AB
100
AcDbEntity
  8
0
100
AcDbLine
 62
253
  6
CONTINUOUS
 10
130.2281461927
 20
35.9474286884
 11
129.9281918841
 21
35.9474286884
  0
LINE
  5
2AC
100
AcDbEntity
  8
0
100
AcDbLine
 62
253
  6
CONTINUOUS
 10
22.7273167126
 20
35.9474286884
 11
23.0272710211
 21
35.9474286884
  0
LINE
  5
2AD
100
AcDbEntity
  8
0
100
AcDbLine
 62
253
  6
CONTINUOUS
 10
34.2411671472
 20
36.3345600388
 11
24.1142957581
 21
36.3345600388
  0
LINE
  5
2AE
100
AcDbEntity
  8
0
100
AcDbLine
 62
7
  6
CONTINUOUS
 10
24.1277314526
 20
36.3479957333
 11
34.2277314526
 21
36.3479957333
  0
LINE
  5
2AF
100
AcDbEntity
  8
0
100
AcDbLine
 62
253
  6
CONTINUOUS
 10
128.8191562366
 20
36.3565709493
 11
82.4863066686
 21
36.3565709493
  0
LINE
  5
2B0
100
AcDbEntity
  8
0
100
AcDbLine
 62
253
  6
CONTINUOUS
 10
70.4691562366
 20
36.3565709493
 11
35.7363066686
 21
36.3565709493
  0
LINE
  5
2B1
100
AcDbEntity
  8
0
100
AcDbLine
 62
7
  6
CONTINUOUS
 10
35.8062792448
 20
36.4265435255
 11
67.2384525703
 21
36.4265435255
  0
LINE
  5
2B2
100
AcDbEntity
  8
0
100
AcDbLine
 62
7
  6
CONTINUOUS
 10
69.517010335
 20
36.4265435255
 11
70.3991836604
 21
36.4265435255
  0
LINE
  5
2B3
100
AcDbEntity
  8
0
100
AcDbLine
 62
7
  6
CONTINUOUS
 10
82.5562792448
 20
36.4265435255
 11
83.4384525703
 21
36.4265435255
  0
LINE
  5
2B4
100
AcDbEntity
  8
0
100
AcDbLine
 62
7
  6
CONTINUOUS
 10
85.717010335
 20
36.4265435255
 11
106.4384525703
 21
36.4265435255
  0
LINE
  5
2B5
100
AcDbEntity
  8
0
100
AcDbLine
 62
7
  6
CONTINUOUS
 10
108.717010335
 20
36.4265435255
 11
128.7491836604
 21
36.4265435255
  0
LINE
  5
2B6
100
AcDbEntity
  8
0
100
AcDbLine
 62
7
  6
CONTINUOUS
 10
108.6777314526
 20
36.4527261229
 11
106.4777314526
 21
36.4527261229
  0
LINE
  5
2B7
100
AcDbEntity
  8
0
100
AcDbLine
 62
7
  6
CONTINUOUS
 10
85.6777314526
 20
36.4527261229
 11
83.4777314526
 21
36.4527261229
  0
LINE
  5
2B8
100
AcDbEntity
  8
0
100
AcDbLine
 62
7
  6
CONTINUOUS
 10
69.4777314526
 20
36.4527261229
 11
67.2777314526
 21
36.4527261229
  0
LINE
  5
2B9
100
AcDbEntity
  8
0
100
AcDbLine
 62
7
  6
CONTINUOUS
 10
30.2277314526
 20
36.7956145791
 11
28.2277314526
 21
36.7956145791
  0
LINE
  5
2BA
100
AcDbEntity
  8
0
100
AcDbLine
 62
253
  6
CONTINUOUS
 10
34.7409958096
 20
38.8479957333
 11
34.2277314526
 21
38.8479957333
  0
LWPOLYLINE
  5
2BB
100
AcDbEntity
  8
0
100
AcDbPolyline
 62
253
  6
CONTINUOUS
 90
22
 70
0
 10
23.7271644077
 20
35.2475353018
 10
23.6894845518
 20
35.2482419678
 10
23.6510608969
 20
35.2514276657
 10
23.611893443
 20
35.2570923957
 10
23.5718349379
 20
35.2650429084
 10
23.5310326339
 20
35.2754724531
 10
23.4899282873
 20
35.2889607777
 10
23.4484546528
 20
35.3054749504
 10
23.4066789757
 20
35.3250479029
 10
23.3652447478
 20
35.3483581789
 10
23.323971349
 20
35.3754450379
 10
23.2830393995
 20
35.4062692202
 10
23.2436342518
 20
35.4413914904
 10
23.2055626065
 20
35.4809824887
 10
23.1690177629
 20
35.5248715749
 10
23.1357649723
 20
35.5731075927
 10
23.1057126819
 20
35.6259467592
 10
23.0789524443
 20
35.6831328574
 10
23.0575241686
 20
35.7439460802
 10
23.0421078243
 20
35.8081464918
 10
23.0320234418
 20
35.8759740278
 10
23.0272710211
 20
35.9474286884
  0
LWPOLYLINE
  5
2BC
100
AcDbEntity
  8
0
100
AcDbPolyline
 62
7
  6
CONTINUOUS
 90
10
 70
0
 10
28.1611649957
 20
42.8479957333
 10
28.0311508491
 20
42.867866495
 10
27.9199273584
 20
42.9103748001
 10
27.8274945237
 20
42.9755206487
 10
27.7501715722
 20
43.070220046
 10
27.6916392766
 20
43.1875569867
 10
27.6629399558
 20
43.3067834552
 10
27.6677543827
 20
43.420983446
 10
27.7024017844
 20
43.5370729644
 10
27.7668821608
 20
43.6550520106
  0
LINE
  5
2BD
100
AcDbEntity
  8
ASSI
100
AcDbLine
 62
7
  6
CONTINUOUS
 10
22.7118203972
 20
65.5639067888
 11
22.6277314526
 21
65.6479957333
  0
LINE
  5
2BE
100
AcDbEntity
  8
RACCORDO
100
AcDbLine
 62
7
  6
CONTINUOUS
 10
22.7118203972
 20
65.5639067888
 11
22.6277314526
 21
65.6479957333
  0
LINE
  5
2BF
100
AcDbEntity
  8
0
100
AcDbLine
 62
7
  6
CONTINUOUS
 10
22.7273167126
 20
65.7147397201
 11
22.6277314526
 21
65.8143249801
  0
LINE
  5
2C0
100
AcDbEntity
  8
ASSI
100
AcDbLine
 62
7
  6
CONTINUOUS
 10
23.7388241799
 20
65.6479957333
 11
23.7562792448
 21
65.6305406684
  0
LINE
  5
2C1
100
AcDbEntity
  8
DRAFT
100
AcDbLine
 62
7
  6
CONTINUOUS
 10
23.7388241799
 20
65.6479957333
 11
23.7562792448
 21
65.6305406684
  0
LINE
  5
2C2
100
AcDbEntity
  8
0
100
AcDbLine
 62
253
  6
CONTINUOUS
 10
28.1828472276
 20
43.3612600904
 11
28.1828472276
 21
42.8614314279
  0
LINE
  5
2C3
100
AcDbEntity
  8
0
100
AcDbLine
 62
253
  6
CONTINUOUS
 10
28.2277314526
 20
36.8479957333
 11
28.2277314526
 21
36.7956145791
  0
LINE
  5
2C4
100
AcDbEntity
  8
0
100
AcDbLine
 62
253
  6
CONTINUOUS
 10
29.7538379092
 20
135.4566471018
 11
29.7538379092
 21
135.9565709493
  0
LINE
  5
2C5
100
AcDbEntity
  8
0
100
AcDbLine
 62
253
  6
CONTINUOUS
 10
30.2277314526
 20
43.3612600904
 11
30.2277314526
 21
42.8479957333
  0
LINE
  5
2C6
100
AcDbEntity
  8
0
100
AcDbLine
 62
253
  6
CONTINUOUS
 10
30.2277314526
 20
36.8479957333
 11
30.2277314526
 21
36.7956145791
  0
LINE
  5
2C7
100
AcDbEntity
  8
0
100
AcDbLine
 62
253
  6
CONTINUOUS
 10
30.2277314526
 20
40.8479957333
 11
30.2277314526
 21
40.9003768876
  0
LINE
  5
2C8
100
AcDbEntity
  8
0
100
AcDbLine
 62
7
  6
CONTINUOUS
 10
69.4777314526
 20
143.0432653438
 11
69.517010335
 21
143.0694479411
  0
LWPOLYLINE
  5
2C9
100
AcDbEntity
  8
0
100
AcDbPolyline
 62
253
  6
CONTINUOUS
 90
25
 70
0
 10
123.201624996
 20
43.5394205173
 10
123.2657423724
 20
43.5407977737
 10
123.332010464
 20
43.5451109574
 10
123.4002795956
 20
43.5526531065
 10
123.4703055649
 20
43.5637067156
 10
123.5419489105
 20
43.5785716425
 10
123.6151665066
 20
43.597594782
 10
123.6896037746
 20
43.6210650083
 10
123.7650187175
 20
43.6493052807
 10
123.8414493721
 20
43.6827948829
 10
123.9183399271
 20
43.7218080694
 10
123.9953390826
 20
43.7667168509
 10
124.0726128975
 20
43.8183112086
 10
124.1495015711
 20
43.8769973865
 10
124.2252127074
 20
43.9430927832
 10
124.2994225772
 20
44.0174262281
 10
124.3713490111
 20
44.100622836
 10
124.4395524748
 20
44.1926065391
 10
124.5025681218
 20
44.2930517323
 10
124.5593034711
 20
44.4020913141
 10
124.608336155
 20
44.5192241467
 10
124.6480208591
 20
44.6427565218
 10
124.6773004514
 20
44.7715575285
 10
124.6953859801
 20
44.905195181
 10
124.7013927017
 20
45.0426887548
  0
LWPOLYLINE
  5
2CA
100
AcDbEntity
  8
0
100
AcDbPolyline
 62
253
  6
CONTINUOUS
 90
25
 70
0
 10
123.201624996
 20
44.0393443649
 10
123.2445732938
 20
44.0399320615
 10
123.2887241233
 20
44.042868859
 10
123.3340774843
 20
44.0481547574
 10
123.3807526682
 20
44.0555784742
 10
123.4286303836
 20
44.065351292
 10
123.4773527574
 20
44.0781070579
 10
123.5269611834
 20
44.0938082749
 10
123.5774142677
 20
44.11249244
 10
123.6282299546
 20
44.1349058915
 10
123.6794760841
 20
44.1609691469
 10
123.7310848162
 20
44.1907616886
 10
123.782370576
 20
44.2252683019
 10
123.8335832445
 20
44.2644997271
 10
123.8844729407
 20
44.3084452239
 10
123.9336044466
 20
44.3580573567
 10
123.9813392376
 20
44.4137155361
 10
124.0273158383
 20
44.4750403515
 10
124.0690146048
 20
44.5418461346
 10
124.106442259
 20
44.6146593825
 10
124.1395920789
 20
44.6929535981
 10
124.1659242545
 20
44.7749636228
 10
124.1845921824
 20
44.8601010701
 10
124.1964424659
 20
44.9489543265
 10
124.201475105
 20
45.0415233919
  0
LINE
  5
2CB
100
AcDbEntity
  8
RACCORDO
100
AcDbLine
 62
7
  6
CONTINUOUS
 10
80.377807605
 20
39.6479957333
 11
72.5776553002
 21
39.6479957333
  0
LINE
  5
2CC
100
AcDbEntity
  8
RACCORDO
100
AcDbLine
 62
7
  6
CONTINUOUS
 10
80.3027508258
 20
39.7230525125
 11
72.6527120794
 21
39.7230525125
  0
LINE
  5
2CD
100
AcDbEntity
  8
0
100
AcDbLine
 62
7
  6
CONTINUOUS
 10
28.2277314526
 20
40.9003768876
 11
30.2277314526
 21
40.9003768876
  0
LINE
  5
2CE
100
AcDbEntity
  8
DRAFT
100
AcDbLine
 62
7
  6
CONTINUOUS
 10
73.1666387254
 20
41.1479957333
 11
79.7888241799
 21
41.1479957333
  0
LINE
  5
2CF
100
AcDbEntity
  8
0
100
AcDbLine
 62
7
  6
CONTINUOUS
 10
30.2277314526
 20
42.8479957333
 11
28.1611649957
 21
42.8479957333
  0
LINE
  5
2D0
100
AcDbEntity
  8
0
100
AcDbLine
 62
253
  6
CONTINUOUS
 10
28.1828472276
 20
42.8614314279
 11
30.2277314526
 21
42.8614314279
  0
LINE
  5
2D1
100
AcDbEntity
  8
ASSI
100
AcDbLine
 62
7
  6
CONTINUOUS
 10
108.6777314526
 20
42.9979957333
 11
106.4777314526
 21
42.9979957333
  0
LINE
  5
2D2
100
AcDbEntity
  8
RACCORDO
100
AcDbLine
 62
7
  6
CONTINUOUS
 10
108.6777314526
 20
42.9979957333
 11
106.4777314526
 21
42.9979957333
  0
LINE
  5
2D3
100
AcDbEntity
  8
ASSI
100
AcDbLine
 62
7
  6
CONTINUOUS
 10
85.6777314526
 20
42.9979957333
 11
83.4777314526
 21
42.9979957333
  0
LINE
  5
2D4
100
AcDbEntity
  8
RACCORDO
100
AcDbLine
 62
7
  6
CONTINUOUS
 10
85.6777314526
 20
42.9979957333
 11
83.4777314526
 21
42.9979957333
  0
LINE
  5
2D5
100
AcDbEntity
  8
ASSI
100
AcDbLine
 62
7
  6
CONTINUOUS
 10
80.9777314526
 20
42.9979957333
 11
80.8777314526
 21
42.9979957333
  0
LINE
  5
2D6
100
AcDbEntity
  8
RACCORDO
100
AcDbLine
 62
7
  6
CONTINUOUS
 10
80.9777314526
 20
42.9979957333
 11
80.8777314526
 21
42.9979957333
  0
LINE
  5
2D7
100
AcDbEntity
  8
ASSI
100
AcDbLine
 62
7
  6
CONTINUOUS
 10
79.7137674007
 20
42.9979957333
 11
73.2416955046
 21
42.9979957333
  0
LINE
  5
2D8
100
AcDbEntity
  8
RACCORDO
100
AcDbLine
 62
7
  6
CONTINUOUS
 10
79.7137674007
 20
42.9979957333
 11
73.2416955046
 21
42.9979957333
  0
LINE
  5
2D9
100
AcDbEntity
  8
ASSI
100
AcDbLine
 62
7
  6
CONTINUOUS
 10
72.0777314526
 20
42.9979957333
 11
71.9777314526
 21
42.9979957333
  0
LINE
  5
2DA
100
AcDbEntity
  8
RACCORDO
100
AcDbLine
 62
7
  6
CONTINUOUS
 10
72.0777314526
 20
42.9979957333
 11
71.9777314526
 21
42.9979957333
  0
LINE
  5
2DB
100
AcDbEntity
  8
ASSI
100
AcDbLine
 62
7
  6
CONTINUOUS
 10
69.4777314526
 20
42.9979957333
 11
67.2777314526
 21
42.9979957333
  0
LINE
  5
2DC
100
AcDbEntity
  8
RACCORDO
100
AcDbLine
 62
7
  6
CONTINUOUS
 10
69.4777314526
 20
42.9979957333
 11
67.2777314526
 21
42.9979957333
  0
LINE
  5
2DD
100
AcDbEntity
  8
0
100
AcDbLine
 62
7
  6
CONTINUOUS
 10
67.2777314526
 20
43.0479957333
 11
69.4777314526
 21
43.0479957333
  0
LINE
  5
2DE
100
AcDbEntity
  8
0
100
AcDbLine
 62
7
  6
CONTINUOUS
 10
106.4777314526
 20
43.0479957333
 11
108.6777314526
 21
43.0479957333
  0
LINE
  5
2DF
100
AcDbEntity
  8
0
100
AcDbLine
 62
7
  6
CONTINUOUS
 10
67.2384525703
 20
43.0872746157
 11
69.517010335
 21
43.0872746157
  0
LINE
  5
2E0
100
AcDbEntity
  8
0
100
AcDbLine
 62
7
  6
CONTINUOUS
 10
83.4384525703
 20
43.0872746157
 11
85.717010335
 21
43.0872746157
  0
LINE
  5
2E1
100
AcDbEntity
  8
0
100
AcDbLine
 62
7
  6
CONTINUOUS
 10
106.4384525703
 20
43.0872746157
 11
108.717010335
 21
43.0872746157
  0
LINE
  5
2E2
100
AcDbEntity
  8
0
100
AcDbLine
 62
253
  6
CONTINUOUS
 10
129.3190800837
 20
43.2886245157
 11
128.8191562366
 21
43.2886245157
  0
LINE
  5
2E3
100
AcDbEntity
  8
DRAFT
100
AcDbLine
 62
7
  6
CONTINUOUS
 10
79.7399499981
 20
43.3479957333
 11
73.2155129072
 21
43.3479957333
  0
LINE
  5
2E4
100
AcDbEntity
  8
0
100
AcDbLine
 62
253
  6
CONTINUOUS
 10
28.1828472276
 20
43.3612600904
 11
30.2277314526
 21
43.3612600904
  0
LINE
  5
2E5
100
AcDbEntity
  8
0
100
AcDbLine
 62
7
  6
CONTINUOUS
 10
35.8062792448
 20
43.4694479411
 11
70.3991836604
 21
43.4694479411
  0
LINE
  5
2E6
100
AcDbEntity
  8
0
100
AcDbLine
 62
7
  6
CONTINUOUS
 10
82.5562792448
 20
43.4694479411
 11
124.6306333549
 21
43.4694479411
  0
LINE
  5
2E7
100
AcDbEntity
  8
0
100
AcDbLine
 62
7
  6
CONTINUOUS
 10
124.6539897878
 20
43.5130856035
 11
123.2279599099
 21
43.5130856035
  0
LINE
  5
2E8
100
AcDbEntity
  8
0
100
AcDbLine
 62
253
  6
CONTINUOUS
 10
35.7363066686
 20
43.5394205173
 11
70.4691562366
 21
43.5394205173
  0
LINE
  5
2E9
100
AcDbEntity
  8
0
100
AcDbLine
 62
253
  6
CONTINUOUS
 10
82.4863066686
 20
43.5394205173
 11
123.201624996
 21
43.5394205173
  0
LINE
  5
2EA
100
AcDbEntity
  8
0
100
AcDbLine
 62
253
  6
CONTINUOUS
 10
35.2363828211
 20
44.0393443649
 11
70.9690800842
 21
44.0393443649
  0
LINE
  5
2EB
100
AcDbEntity
  8
0
100
AcDbLine
 62
253
  6
CONTINUOUS
 10
81.9863828211
 20
44.0393443649
 11
123.201624996
 21
44.0393443649
  0
LINE
  5
2EC
100
AcDbEntity
  8
0
100
AcDbLine
 62
7
  6
CONTINUOUS
 10
69.4777314526
 20
36.4527261229
 11
69.517010335
 21
36.4265435255
  0
LWPOLYLINE
  5
2ED
100
AcDbEntity
  8
0
100
AcDbPolyline
 62
7
  6
CONTINUOUS
 90
10
 70
0
 10
22.633059362
 20
107.7027971747
 10
22.6374622703
 20
107.6783990682
 10
22.6517033013
 20
107.6527581684
 10
22.6741403805
 20
107.6258744753
 10
22.7019839275
 20
107.5955434676
 10
22.7341954091
 20
107.5639696667
 10
22.7734215897
 20
107.5377666364
 10
22.8209196975
 20
107.519138898
 10
22.87460099
 20
107.5058819303
 10
22.9330136705
 20
107.4979957333
  0
LINE
  5
2EE
100
AcDbEntity
  8
0
100
AcDbLine
 62
7
  6
CONTINUOUS
 10
34.2277314526
 20
36.3479957333
 11
34.2277314526
 21
38.8479957333
  0
LINE
  5
2EF
100
AcDbEntity
  8
0
100
AcDbLine
 62
253
  6
CONTINUOUS
 10
34.2411671472
 20
38.8479957333
 11
34.2411671472
 21
36.3345600388
  0
LINE
  5
2F0
100
AcDbEntity
  8
0
100
AcDbLine
 62
253
  6
CONTINUOUS
 10
34.7409958096
 20
38.8479957333
 11
34.7409958096
 21
35.8347313763
  0
LINE
  5
2F1
100
AcDbEntity
  8
0
100
AcDbLine
 62
253
  6
CONTINUOUS
 10
35.2363828211
 20
35.8566471018
 11
35.2363828211
 21
44.0393443649
  0
LINE
  5
2F2
100
AcDbEntity
  8
0
100
AcDbLine
 62
253
  6
CONTINUOUS
 10
35.7363066686
 20
36.3565709493
 11
35.7363066686
 21
43.5394205173
  0
LINE
  5
2F3
100
AcDbEntity
  8
0
100
AcDbLine
 62
7
  6
CONTINUOUS
 10
35.8062792448
 20
43.4694479411
 11
35.8062792448
 21
36.4265435255
  0
LINE
  5
2F4
100
AcDbEntity
  8
0
100
AcDbLine
 62
253
  6
CONTINUOUS
 10
124.201475105
 20
45.0415233919
 11
124.7014028417
 21
45.0426888294
  0
LINE
  5
2F5
100
AcDbEntity
  8
ASSI
100
AcDbLine
 62
7
  6
CONTINUOUS
 10
80.9777314526
 20
44.7979957333
 11
80.8777314526
 21
44.7979957333
  0
LINE
  5
2F6
100
AcDbEntity
  8
DRAFT
100
AcDbLine
 62
7
  6
CONTINUOUS
 10
80.9777314526
 20
44.7979957333
 11
80.8777314526
 21
44.7979957333
  0
LINE
  5
2F7
100
AcDbEntity
  8
ASSI
100
AcDbLine
 62
7
  6
CONTINUOUS
 10
72.0777314526
 20
44.7979957333
 11
71.9777314526
 21
44.7979957333
  0
LINE
  5
2F8
100
AcDbEntity
  8
DRAFT
100
AcDbLine
 62
7
  6
CONTINUOUS
 10
72.0777314526
 20
44.7979957333
 11
71.9777314526
 21
44.7979957333
  0
LINE
  5
2F9
100
AcDbEntity
  8
ASSI
100
AcDbLine
 62
7
  6
CONTINUOUS
 10
80.9777314526
 20
44.8486115665
 11
80.8777314526
 21
44.8486115665
  0
LINE
  5
2FA
100
AcDbEntity
  8
DRAFT
100
AcDbLine
 62
7
  6
CONTINUOUS
 10
80.9777314526
 20
44.8486115665
 11
80.8777314526
 21
44.8486115665
  0
LINE
  5
2FB
100
AcDbEntity
  8
ASSI
100
AcDbLine
 62
7
  6
CONTINUOUS
 10
72.0777314526
 20
44.8486115665
 11
71.9777314526
 21
44.8486115665
  0
LINE
  5
2FC
100
AcDbEntity
  8
DRAFT
100
AcDbLine
 62
7
  6
CONTINUOUS
 10
72.0777314526
 20
44.8486115665
 11
71.9777314526
 21
44.8486115665
  0
LINE
  5
2FD
100
AcDbEntity
  8
0
100
AcDbLine
 62
7
  6
CONTINUOUS
 10
71.9777314526
 20
45.0479957333
 11
72.0777314526
 21
45.0479957333
  0
LINE
  5
2FE
100
AcDbEntity
  8
0
100
AcDbLine
 62
7
  6
CONTINUOUS
 10
80.8777314526
 20
45.0479957333
 11
80.9777314526
 21
45.0479957333
  0
LINE
  5
2FF
100
AcDbEntity
  8
0
100
AcDbLine
 62
7
  6
CONTINUOUS
 10
80.9777314526
 20
46.0479957333
 11
80.8991836604
 21
46.0479957333
  0
LINE
  5
300
100
AcDbEntity
  8
0
100
AcDbLine
 62
7
  6
CONTINUOUS
 10
72.0562792448
 20
46.0479957333
 11
71.9777314526
 21
46.0479957333
  0
LINE
  5
301
100
AcDbEntity
  8
ASSI
100
AcDbLine
 62
7
  6
CONTINUOUS
 10
80.9384575565
 20
46.1479957333
 11
80.8777314526
 21
46.1479957333
  0
LINE
  5
302
100
AcDbEntity
  8
0
100
AcDbLine
 62
7
  6
CONTINUOUS
 10
80.9384575565
 20
46.1479957333
 11
80.8777314526
 21
46.1479957333
  0
LINE
  5
303
100
AcDbEntity
  8
ASSI
100
AcDbLine
 62
7
  6
CONTINUOUS
 10
72.0777314526
 20
46.1479957333
 11
72.0170053487
 21
46.1479957333
  0
LINE
  5
304
100
AcDbEntity
  8
0
100
AcDbLine
 62
7
  6
CONTINUOUS
 10
72.0777314526
 20
46.1479957333
 11
72.0170053487
 21
46.1479957333
  0
LINE
  5
305
100
AcDbEntity
  8
ASSI
100
AcDbLine
 62
7
  6
CONTINUOUS
 10
80.9268035736
 20
46.1776693437
 11
80.8777314526
 21
46.1776693437
  0
LINE
  5
306
100
AcDbEntity
  8
0
100
AcDbLine
 62
7
  6
CONTINUOUS
 10
80.9268035736
 20
46.1776693437
 11
80.8777314526
 21
46.1776693437
  0
LINE
  5
307
100
AcDbEntity
  8
ASSI
100
AcDbLine
 62
7
  6
CONTINUOUS
 10
72.0777314526
 20
46.1776693437
 11
72.0286593316
 21
46.1776693437
  0
LINE
  5
308
100
AcDbEntity
  8
0
100
AcDbLine
 62
7
  6
CONTINUOUS
 10
72.0777314526
 20
46.1776693437
 11
72.0286593316
 21
46.1776693437
  0
LINE
  5
309
100
AcDbEntity
  8
0
100
AcDbLine
 62
7
  6
CONTINUOUS
 10
71.873001063
 20
46.2741783307
 11
72.8015488552
 21
46.2741783307
  0
LINE
  5
30A
100
AcDbEntity
  8
0
100
AcDbLine
 62
7
  6
CONTINUOUS
 10
80.15391405
 20
46.2741783307
 11
81.0824618422
 21
46.2741783307
  0
LINE
  5
30B
100
AcDbEntity
  8
DRAFT
100
AcDbLine
 62
7
  6
CONTINUOUS
 10
73.2155129072
 20
48.1479957333
 11
79.7399499981
 21
48.1479957333
  0
LINE
  5
30C
100
AcDbEntity
  8
0
100
AcDbLine
 62
7
  6
CONTINUOUS
 10
70.3991836604
 20
36.4265435255
 11
70.4691562366
 21
36.3565709493
  0
LINE
  5
30D
100
AcDbEntity
  8
DRAFT
100
AcDbLine
 62
7
  6
CONTINUOUS
 10
38.9777314526
 20
105.6979957333
 11
38.9777314526
 21
107.7656354602
  0
LINE
  5
30E
100
AcDbEntity
  8
DRAFT
100
AcDbLine
 62
7
  6
CONTINUOUS
 10
40.7277314526
 20
105.6979957333
 11
40.7277314526
 21
107.7656354602
  0
LINE
  5
30F
100
AcDbEntity
  8
0
100
AcDbLine
 62
7
  6
CONTINUOUS
 10
67.2777314526
 20
136.4479957333
 11
67.2384525703
 21
136.408716851
  0
LINE
  5
310
100
AcDbEntity
  8
0
100
AcDbLine
 62
7
  6
CONTINUOUS
 10
85.6777314526
 20
143.0432653438
 11
85.717010335
 21
143.0694479411
  0
LINE
  5
311
100
AcDbEntity
  8
0
100
AcDbLine
 62
7
  6
CONTINUOUS
 10
23.0272710211
 20
53.7863968762
 11
24.4393303098
 21
53.7863968762
  0
LINE
  5
312
100
AcDbEntity
  8
0
100
AcDbLine
 62
7
  6
CONTINUOUS
 10
128.5161325955
 20
53.7863968762
 11
129.9281918841
 21
53.7863968762
  0
LINE
  5
313
100
AcDbEntity
  8
ASSI
100
AcDbLine
 62
7
  6
CONTINUOUS
 10
130.3277314526
 20
53.8479957333
 11
129.2166387254
 21
53.8479957333
  0
LINE
  5
314
100
AcDbEntity
  8
DRAFT
100
AcDbLine
 62
7
  6
CONTINUOUS
 10
130.3277314526
 20
53.8479957333
 11
129.2166387254
 21
53.8479957333
  0
LINE
  5
315
100
AcDbEntity
  8
ASSI
100
AcDbLine
 62
7
  6
CONTINUOUS
 10
23.7388241799
 20
53.8479957333
 11
22.6277314526
 21
53.8479957333
  0
LINE
  5
316
100
AcDbEntity
  8
DRAFT
100
AcDbLine
 62
7
  6
CONTINUOUS
 10
23.7388241799
 20
53.8479957333
 11
22.6277314526
 21
53.8479957333
  0
LINE
  5
317
100
AcDbEntity
  8
ASSI
100
AcDbLine
 62
7
  6
CONTINUOUS
 10
24.4293634007
 20
53.8654507983
 11
23.7562792448
 21
53.8654507983
  0
LINE
  5
318
100
AcDbEntity
  8
DRAFT
100
AcDbLine
 62
7
  6
CONTINUOUS
 10
24.4293634007
 20
53.8654507983
 11
23.7562792448
 21
53.8654507983
  0
LINE
  5
319
100
AcDbEntity
  8
ASSI
100
AcDbLine
 62
7
  6
CONTINUOUS
 10
128.5260995045
 20
53.8654507983
 11
129.1991836604
 21
53.8654507983
  0
LINE
  5
31A
100
AcDbEntity
  8
DRAFT
100
AcDbLine
 62
7
  6
CONTINUOUS
 10
128.5260995045
 20
53.8654507983
 11
129.1991836604
 21
53.8654507983
  0
LINE
  5
31B
100
AcDbEntity
  8
ASSI
100
AcDbLine
 62
253
  6
CONTINUOUS
 10
22.7118203972
 20
53.9320846779
 11
24.3627295211
 21
53.9320846779
  0
LINE
  5
31C
100
AcDbEntity
  8
RACCORDO
100
AcDbLine
 62
253
  6
CONTINUOUS
 10
22.7118203972
 20
53.9320846779
 11
24.3627295211
 21
53.9320846779
  0
LINE
  5
31D
100
AcDbEntity
  8
ASSI
100
AcDbLine
 62
253
  6
CONTINUOUS
 10
128.5927333841
 20
53.9320846779
 11
130.2436425081
 21
53.9320846779
  0
LINE
  5
31E
100
AcDbEntity
  8
RACCORDO
100
AcDbLine
 62
253
  6
CONTINUOUS
 10
128.5927333841
 20
53.9320846779
 11
130.2436425081
 21
53.9320846779
  0
LINE
  5
31F
100
AcDbEntity
  8
0
100
AcDbLine
 62
7
  6
CONTINUOUS
 10
85.6777314526
 20
36.4527261229
 11
85.717010335
 21
36.4265435255
  0
LINE
  5
320
100
AcDbEntity
  8
0
100
AcDbLine
 62
7
  6
CONTINUOUS
 10
67.2777314526
 20
43.0479957333
 11
67.2384525703
 21
43.0872746157
  0
LINE
  5
321
100
AcDbEntity
  8
DRAFT
100
AcDbLine
 62
7
  6
CONTINUOUS
 10
42.2277314526
 20
105.6979957333
 11
42.2277314526
 21
107.7656354602
  0
LINE
  5
322
100
AcDbEntity
  8
DRAFT
100
AcDbLine
 62
7
  6
CONTINUOUS
 10
43.9777314526
 20
105.6979957333
 11
43.9777314526
 21
107.7656354602
  0
LINE
  5
323
100
AcDbEntity
  8
0
100
AcDbLine
 62
7
  6
CONTINUOUS
 10
44.2384525703
 20
143.0694479411
 11
44.2384525703
 21
136.408716851
  0
LINE
  5
324
100
AcDbEntity
  8
0
100
AcDbLine
 62
7
  6
CONTINUOUS
 10
44.2777314526
 20
136.4479957333
 11
44.2777314526
 21
143.0432653438
  0
LINE
  5
325
100
AcDbEntity
  8
DRAFT
100
AcDbLine
 62
7
  6
CONTINUOUS
 10
73.1666387254
 20
55.7366586664
 11
73.2277314526
 21
55.7530284133
  0
LINE
  5
326
100
AcDbEntity
  8
ASSI
100
AcDbLine
 62
253
  6
CONTINUOUS
 10
22.7289708292
 20
54.931932373
 11
24.3455790891
 21
54.931932373
  0
LINE
  5
327
100
AcDbEntity
  8
RACCORDO
100
AcDbLine
 62
253
  6
CONTINUOUS
 10
22.7289708292
 20
54.931932373
 11
24.3455790891
 21
54.931932373
  0
LINE
  5
328
100
AcDbEntity
  8
ASSI
100
AcDbLine
 62
253
  6
CONTINUOUS
 10
128.6098838162
 20
54.931932373
 11
130.226492076
 21
54.931932373
  0
LINE
  5
329
100
AcDbEntity
  8
RACCORDO
100
AcDbLine
 62
253
  6
CONTINUOUS
 10
128.6098838162
 20
54.931932373
 11
130.226492076
 21
54.931932373
  0
LINE
  5
32A
100
AcDbEntity
  8
ASSI
100
AcDbLine
 62
7
  6
CONTINUOUS
 10
24.3539293979
 20
57.0479957333
 11
24.0777314526
 21
57.0479957333
  0
LINE
  5
32B
100
AcDbEntity
  8
DRAFT
100
AcDbLine
 62
7
  6
CONTINUOUS
 10
24.3539293979
 20
57.0479957333
 11
24.0777314526
 21
57.0479957333
  0
LINE
  5
32C
100
AcDbEntity
  8
ASSI
100
AcDbLine
 62
7
  6
CONTINUOUS
 10
128.6015335073
 20
57.0479957333
 11
128.8777314526
 21
57.0479957333
  0
LINE
  5
32D
100
AcDbEntity
  8
DRAFT
100
AcDbLine
 62
7
  6
CONTINUOUS
 10
128.6015335073
 20
57.0479957333
 11
128.8777314526
 21
57.0479957333
  0
LINE
  5
32E
100
AcDbEntity
  8
ASSI
100
AcDbLine
 62
7
  6
CONTINUOUS
 10
130.3155129072
 20
57.0979957333
 11
130.2579111929
 21
57.0979957333
  0
LINE
  5
32F
100
AcDbEntity
  8
DRAFT
100
AcDbLine
 62
7
  6
CONTINUOUS
 10
130.3155129072
 20
57.0979957333
 11
130.2579111929
 21
57.0979957333
  0
LINE
  5
330
100
AcDbEntity
  8
ASSI
100
AcDbLine
 62
7
  6
CONTINUOUS
 10
22.6975517123
 20
57.0979957333
 11
22.6399499981
 21
57.0979957333
  0
LINE
  5
331
100
AcDbEntity
  8
DRAFT
100
AcDbLine
 62
7
  6
CONTINUOUS
 10
22.6975517123
 20
57.0979957333
 11
22.6399499981
 21
57.0979957333
  0
LINE
  5
332
100
AcDbEntity
  8
DRAFT
100
AcDbLine
 62
7
  6
CONTINUOUS
 10
128.5758960598
 20
57.4479957333
 11
128.4393412103
 21
57.4479957333
  0
LINE
  5
333
100
AcDbEntity
  8
DRAFT
100
AcDbLine
 62
7
  6
CONTINUOUS
 10
24.3795668454
 20
57.4479957333
 11
24.516121695
 21
57.4479957333
  0
LINE
  5
334
100
AcDbEntity
  8
DRAFT
100
AcDbLine
 62
7
  6
CONTINUOUS
 10
22.6399499981
 20
62.3979957333
 11
22.6971154878
 21
62.3930020387
  0
LINE
  5
335
100
AcDbEntity
  8
0
100
AcDbLine
 62
253
  6
CONTINUOUS
 10
128.8191562366
 20
43.2886245157
 11
128.7928213228
 21
43.2951464996
  0
LINE
  5
336
100
AcDbEntity
  8
DRAFT
100
AcDbLine
 62
7
  6
CONTINUOUS
 10
79.7888241799
 20
55.7366586664
 11
79.7277314526
 21
55.7530284133
  0
LINE
  5
337
100
AcDbEntity
  8
0
100
AcDbLine
 62
7
  6
CONTINUOUS
 10
80.9777314526
 20
35.8479957333
 11
81.0824618422
 21
35.7432653438
  0
LINE
  5
338
100
AcDbEntity
  8
0
100
AcDbLine
 62
7
  6
CONTINUOUS
 10
72.8277314526
 20
46.2479957333
 11
72.8015488552
 21
46.2741783307
  0
LINE
  5
339
100
AcDbEntity
  8
RACCORDO
100
AcDbLine
 62
253
  6
CONTINUOUS
 10
80.377807605
 20
39.6479957333
 11
80.3027508258
 21
39.7230525125
  0
LINE
  5
33A
100
AcDbEntity
  8
RACCORDO
100
AcDbLine
 62
253
  6
CONTINUOUS
 10
80.8777314526
 20
40.1479195809
 11
80.8026746734
 21
40.2229763601
  0
LWPOLYLINE
  5
33B
100
AcDbEntity
  8
0
100
AcDbPolyline
 62
7
  6
CONTINUOUS
 90
10
 70
0
 10
70.4691562366
 20
36.3565709493
 10
70.4824771201
 20
36.3356635076
 10
70.5155529218
 20
36.3041722796
 10
70.5636299208
 20
36.2620972651
 10
70.6213100321
 20
36.2068733
 10
70.6848388011
 20
36.1410655484
 10
70.7533576824
 20
36.0723695035
 10
70.8254088341
 20
36.0033503296
 10
70.8979456253
 20
35.9314428624
 10
70.9690800842
 20
35.8566471018
  0
LINE
  5
33C
100
AcDbEntity
  8
0
100
AcDbLine
 62
7
  6
CONTINUOUS
 10
46.4777314526
 20
143.0432653438
 11
46.4777314526
 21
136.4479957333
  0
LINE
  5
33D
100
AcDbEntity
  8
0
100
AcDbLine
 62
7
  6
CONTINUOUS
 10
46.517010335
 20
143.0694479411
 11
46.517010335
 21
136.408716851
  0
LINE
  5
33E
100
AcDbEntity
  8
0
100
AcDbLine
 62
7
  6
CONTINUOUS
 10
83.4777314526
 20
136.4479957333
 11
83.4384525703
 21
136.408716851
  0
LINE
  5
33F
100
AcDbEntity
  8
DRAFT
100
AcDbLine
 62
7
  6
CONTINUOUS
 10
79.7888241799
 20
60.3593328003
 11
79.7277314526
 21
60.3429630534
  0
LINE
  5
340
100
AcDbEntity
  8
DRAFT
100
AcDbLine
 62
7
  6
CONTINUOUS
 10
22.6399499981
 20
57.0979957333
 11
22.6971154878
 21
57.102989428
  0
LINE
  5
341
100
AcDbEntity
  8
DRAFT
100
AcDbLine
 62
7
  6
CONTINUOUS
 10
128.5758960598
 20
62.0479957333
 11
128.4393412103
 21
62.0479957333
  0
LINE
  5
342
100
AcDbEntity
  8
DRAFT
100
AcDbLine
 62
7
  6
CONTINUOUS
 10
24.3795668454
 20
62.0479957333
 11
24.516121695
 21
62.0479957333
  0
LINE
  5
343
100
AcDbEntity
  8
ASSI
100
AcDbLine
 62
7
  6
CONTINUOUS
 10
22.6399499981
 20
62.3979957333
 11
22.6975517123
 21
62.3979957333
  0
LINE
  5
344
100
AcDbEntity
  8
DRAFT
100
AcDbLine
 62
7
  6
CONTINUOUS
 10
22.6399499981
 20
62.3979957333
 11
22.6975517123
 21
62.3979957333
  0
LINE
  5
345
100
AcDbEntity
  8
ASSI
100
AcDbLine
 62
7
  6
CONTINUOUS
 10
130.2579111929
 20
62.3979957333
 11
130.3155129072
 21
62.3979957333
  0
LINE
  5
346
100
AcDbEntity
  8
DRAFT
100
AcDbLine
 62
7
  6
CONTINUOUS
 10
130.2579111929
 20
62.3979957333
 11
130.3155129072
 21
62.3979957333
  0
LINE
  5
347
100
AcDbEntity
  8
ASSI
100
AcDbLine
 62
7
  6
CONTINUOUS
 10
24.3539293979
 20
62.4479957333
 11
24.0777314526
 21
62.4479957333
  0
LINE
  5
348
100
AcDbEntity
  8
DRAFT
100
AcDbLine
 62
7
  6
CONTINUOUS
 10
24.3539293979
 20
62.4479957333
 11
24.0777314526
 21
62.4479957333
  0
LINE
  5
349
100
AcDbEntity
  8
ASSI
100
AcDbLine
 62
7
  6
CONTINUOUS
 10
128.6015335073
 20
62.4479957333
 11
128.8777314526
 21
62.4479957333
  0
LINE
  5
34A
100
AcDbEntity
  8
DRAFT
100
AcDbLine
 62
7
  6
CONTINUOUS
 10
128.6015335073
 20
62.4479957333
 11
128.8777314526
 21
62.4479957333
  0
LINE
  5
34B
100
AcDbEntity
  8
ASSI
100
AcDbLine
 62
253
  6
CONTINUOUS
 10
130.226492076
 20
64.5640590936
 11
128.6098838162
 21
64.5640590936
  0
LINE
  5
34C
100
AcDbEntity
  8
RACCORDO
100
AcDbLine
 62
253
  6
CONTINUOUS
 10
130.226492076
 20
64.5640590936
 11
128.6098838162
 21
64.5640590936
  0
LINE
  5
34D
100
AcDbEntity
  8
ASSI
100
AcDbLine
 62
253
  6
CONTINUOUS
 10
24.3455790891
 20
64.5640590936
 11
22.7289708292
 21
64.5640590936
  0
LINE
  5
34E
100
AcDbEntity
  8
RACCORDO
100
AcDbLine
 62
253
  6
CONTINUOUS
 10
24.3455790891
 20
64.5640590936
 11
22.7289708292
 21
64.5640590936
  0
LINE
  5
34F
100
AcDbEntity
  8
DRAFT
100
AcDbLine
 62
7
  6
CONTINUOUS
 10
73.1666387254
 20
60.3593328003
 11
73.2277314526
 21
60.3429630534
  0
LINE
  5
350
100
AcDbEntity
  8
0
100
AcDbLine
 62
253
  6
CONTINUOUS
 10
128.9918912596
 20
43.9874011302
 11
128.9667694764
 21
43.996222117
  0
LINE
  5
351
100
AcDbEntity
  8
0
100
AcDbLine
 62
7
  6
CONTINUOUS
 10
108.6777314526
 20
36.4527261229
 11
108.717010335
 21
36.4265435255
  0
LINE
  5
352
100
AcDbEntity
  8
0
100
AcDbLine
 62
7
  6
CONTINUOUS
 10
82.4863066686
 20
43.5394205173
 11
82.5562792448
 21
43.4694479411
  0
LINE
  5
353
100
AcDbEntity
  8
0
100
AcDbLine
 62
7
  6
CONTINUOUS
 10
83.4777314526
 20
43.0479957333
 11
83.4384525703
 21
43.0872746157
  0
LWPOLYLINE
  5
354
100
AcDbEntity
  8
0
100
AcDbPolyline
 62
7
  6
CONTINUOUS
 90
5
 70
0
 10
28.2277314526
 20
134.4831343204
 10
28.2306675012
 20
134.475142184
 10
28.2336107102
 20
134.4687096177
 10
28.2365501526
 20
134.4638365968
 10
28.2394762579
 20
134.4610432923
  0
LWPOLYLINE
  5
355
100
AcDbEntity
  8
0
100
AcDbPolyline
 62
7
  6
CONTINUOUS
 90
10
 70
0
 10
117.2191562366
 20
143.1394205173
 10
117.2400636783
 20
143.1527414008
 10
117.2715549064
 20
143.1858172025
 10
117.3136299208
 20
143.2338942015
 10
117.368853886
 20
143.2915743128
 10
117.4346616375
 20
143.3551030818
 10
117.5033576824
 20
143.4236219631
 10
117.5723768563
 20
143.4956731148
 10
117.6442843236
 20
143.568209906
 10
117.7190800842
 20
143.6393443649
  0
LWPOLYLINE
  5
356
100
AcDbEntity
  8
0
100
AcDbPolyline
 62
7
  6
CONTINUOUS
 90
10
 70
0
 10
128.8411671472
 20
135.7555333868
 10
128.8510674821
 20
135.7595271785
 10
128.8757507435
 20
135.7671662491
 10
128.9142537805
 20
135.7784505987
 10
128.9651934772
 20
135.7940394581
 10
129.0268994686
 20
135.8132735964
 10
129.0975295093
 20
135.8341753212
 10
129.1749877806
 20
135.8560854015
 10
129.2569392366
 20
135.8796630682
 10
129.3409958096
 20
135.9049083213
  0
LINE
  5
357
100
AcDbEntity
  8
ASSI
100
AcDbLine
 62
253
  6
CONTINUOUS
 10
130.2436425081
 20
65.5639067888
 11
128.5927333841
 21
65.5639067888
  0
LINE
  5
358
100
AcDbEntity
  8
RACCORDO
100
AcDbLine
 62
253
  6
CONTINUOUS
 10
130.2436425081
 20
65.5639067888
 11
128.5927333841
 21
65.5639067888
  0
LINE
  5
359
100
AcDbEntity
  8
ASSI
100
AcDbLine
 62
253
  6
CONTINUOUS
 10
24.3627295211
 20
65.5639067888
 11
22.7118203972
 21
65.5639067888
  0
LINE
  5
35A
100
AcDbEntity
  8
RACCORDO
100
AcDbLine
 62
253
  6
CONTINUOUS
 10
24.3627295211
 20
65.5639067888
 11
22.7118203972
 21
65.5639067888
  0
LINE
  5
35B
100
AcDbEntity
  8
ASSI
100
AcDbLine
 62
7
  6
CONTINUOUS
 10
24.4293634007
 20
65.6305406684
 11
23.7562792448
 21
65.6305406684
  0
LINE
  5
35C
100
AcDbEntity
  8
DRAFT
100
AcDbLine
 62
7
  6
CONTINUOUS
 10
24.4293634007
 20
65.6305406684
 11
23.7562792448
 21
65.6305406684
  0
LINE
  5
35D
100
AcDbEntity
  8
ASSI
100
AcDbLine
 62
7
  6
CONTINUOUS
 10
128.5260995045
 20
65.6305406684
 11
129.1991836604
 21
65.6305406684
  0
LINE
  5
35E
100
AcDbEntity
  8
DRAFT
100
AcDbLine
 62
7
  6
CONTINUOUS
 10
128.5260995045
 20
65.6305406684
 11
129.1991836604
 21
65.6305406684
  0
LINE
  5
35F
100
AcDbEntity
  8
ASSI
100
AcDbLine
 62
7
  6
CONTINUOUS
 10
22.6277314526
 20
65.6479957333
 11
23.7388241799
 21
65.6479957333
  0
LINE
  5
360
100
AcDbEntity
  8
DRAFT
100
AcDbLine
 62
7
  6
CONTINUOUS
 10
22.6277314526
 20
65.6479957333
 11
23.7388241799
 21
65.6479957333
  0
LINE
  5
361
100
AcDbEntity
  8
ASSI
100
AcDbLine
 62
7
  6
CONTINUOUS
 10
129.2166387254
 20
65.6479957333
 11
130.3277314526
 21
65.6479957333
  0
LINE
  5
362
100
AcDbEntity
  8
DRAFT
100
AcDbLine
 62
7
  6
CONTINUOUS
 10
129.2166387254
 20
65.6479957333
 11
130.3277314526
 21
65.6479957333
  0
LINE
  5
363
100
AcDbEntity
  8
0
100
AcDbLine
 62
7
  6
CONTINUOUS
 10
129.9281918841
 20
65.7095945905
 11
128.5161325955
 21
65.7095945905
  0
LINE
  5
364
100
AcDbEntity
  8
0
100
AcDbLine
 62
7
  6
CONTINUOUS
 10
24.4393303098
 20
65.7095945905
 11
23.0272710211
 21
65.7095945905
  0
LINE
  5
365
100
AcDbEntity
  8
0
100
AcDbLine
 62
7
  6
CONTINUOUS
 10
71.9166387254
 20
68.4718131359
 11
72.8015488552
 21
68.4718131359
  0
LINE
  5
366
100
AcDbEntity
  8
0
100
AcDbLine
 62
7
  6
CONTINUOUS
 10
80.15391405
 20
68.4718131359
 11
81.0388241799
 21
68.4718131359
  0
LINE
  5
367
100
AcDbEntity
  8
0
100
AcDbLine
 62
7
  6
CONTINUOUS
 10
73.2416955046
 20
68.6979957333
 11
73.3277314526
 21
68.6979957333
  0
LINE
  5
368
100
AcDbEntity
  8
0
100
AcDbLine
 62
7
  6
CONTINUOUS
 10
79.6277314526
 20
68.6979957333
 11
79.7137674007
 21
68.6979957333
  0
LINE
  5
369
100
AcDbEntity
  8
0
100
AcDbLine
 62
253
  6
CONTINUOUS
 10
130.2281461927
 20
68.7090667743
 11
81.0388241799
 21
68.7090667743
  0
LINE
  5
36A
100
AcDbEntity
  8
0
100
AcDbLine
 62
253
  6
CONTINUOUS
 10
22.7273167126
 20
68.7090667743
 11
71.9166387254
 21
68.7090667743
  0
LINE
  5
36B
100
AcDbEntity
  8
0
100
AcDbLine
 62
253
  6
CONTINUOUS
 10
129.9315001916
 20
69.2083815416
 11
81.0305534112
 21
69.2083815416
  0
LINE
  5
36C
100
AcDbEntity
  8
0
100
AcDbLine
 62
253
  6
CONTINUOUS
 10
71.9249094941
 20
69.2083815416
 11
23.0239627136
 21
69.2083815416
  0
LINE
  5
36D
100
AcDbEntity
  8
0
100
AcDbLine
 62
7
  6
CONTINUOUS
 10
129.9892846114
 20
69.3669762851
 11
80.9777314526
 21
69.3669762851
  0
LINE
  5
36E
100
AcDbEntity
  8
0
100
AcDbLine
 62
7
  6
CONTINUOUS
 10
71.9777314526
 20
69.3669762851
 11
22.9661782939
 21
69.3669762851
  0
LINE
  5
36F
100
AcDbEntity
  8
0
100
AcDbLine
 62
7
  6
CONTINUOUS
 10
124.7159866474
 20
45.0349481743
 11
124.7101533814
 21
45.0374168545
  0
LINE
  5
370
100
AcDbEntity
  8
DRAFT
100
AcDbLine
 62
7
  6
CONTINUOUS
 10
73.1666387254
 20
55.7366586664
 11
72.8277314526
 21
56.3236632818
  0
LINE
  5
371
100
AcDbEntity
  8
0
100
AcDbLine
 62
7
  6
CONTINUOUS
 10
71.9777314526
 20
46.0479957333
 11
71.9201766537
 21
46.1945429431
  0
LWPOLYLINE
  5
372
100
AcDbEntity
  8
0
100
AcDbPolyline
 62
253
  6
CONTINUOUS
 90
10
 70
0
 10
27.7857696993
 20
43.6649923572
 10
27.7237096142
 20
43.5587275497
 10
27.6895150182
 20
43.4404785296
 10
27.685261023
 20
43.3174219518
 10
27.7112056118
 20
43.1970261883
 10
27.7657740206
 20
43.0865980063
 10
27.8456543826
 20
42.9928391466
 10
27.9459987003
 20
42.9214396984
 10
28.0607170386
 20
42.8767327586
 10
28.182847175
 20
42.8614314279
  0
LWPOLYLINE
  5
373
100
AcDbEntity
  8
0
100
AcDbPolyline
 62
7
  6
CONTINUOUS
 90
10
 70
0
 10
128.8411671472
 20
143.1614314279
 10
128.8627035682
 20
143.1755035377
 10
128.8946243062
 20
143.2089856501
 10
128.9369293613
 20
143.257193642
 10
128.9921311237
 20
143.3148099581
 10
129.0577172033
 20
143.3781550406
 10
129.1261504287
 20
143.4464147094
 10
129.1949184098
 20
143.5181654242
 10
129.2665335367
 20
143.5904007749
 10
129.3409958096
 20
143.6612600904
  0
LINE
  5
374
100
AcDbEntity
  8
0
100
AcDbLine
 62
253
  6
CONTINUOUS
 10
125.1885807444
 20
135.8409394561
 11
125.1696932044
 21
135.8309991074
  0
LWPOLYLINE
  5
375
100
AcDbEntity
  8
0
100
AcDbPolyline
 62
7
  6
CONTINUOUS
 90
10
 70
0
 10
22.9711407551
 20
69.3669762851
 10
22.906792246
 20
69.3605573464
 10
22.8484893983
 20
69.3423706699
 10
22.7979892651
 20
69.3152090585
 10
22.7565276412
 20
69.2823248745
 10
22.7237438139
 20
69.2459328008
 10
22.6985607843
 20
69.2064929839
 10
22.6807197025
 20
69.1649189119
 10
22.6701344659
 20
69.1231250428
 10
22.6662239853
 20
69.0822869151
  0
LINE
  5
376
100
AcDbEntity
  8
DRAFT
100
AcDbLine
 62
7
  6
CONTINUOUS
 10
79.7888241799
 20
70.4479957333
 11
73.1666387254
 21
70.4479957333
  0
LINE
  5
377
100
AcDbEntity
  8
0
100
AcDbLine
 62
253
  6
CONTINUOUS
 10
130.2892389199
 20
71.0427122164
 11
80.9777314526
 21
71.0427122164
  0
LINE
  5
378
100
AcDbEntity
  8
0
100
AcDbLine
 62
253
  6
CONTINUOUS
 10
71.9777314526
 20
71.0427122164
 11
22.6662239853
 21
71.0427122164
  0
LINE
  5
379
100
AcDbEntity
  8
0
100
AcDbLine
 62
253
  6
CONTINUOUS
 10
129.9892846114
 20
71.2548442508
 11
80.9761977116
 21
71.2548442508
  0
LINE
  5
37A
100
AcDbEntity
  8
0
100
AcDbLine
 62
253
  6
CONTINUOUS
 10
71.9792651937
 20
71.2548442508
 11
22.9661782939
 21
71.2548442508
  0
LINE
  5
37B
100
AcDbEntity
  8
0
100
AcDbLine
 62
253
  6
CONTINUOUS
 10
22.9562390909
 20
71.8242608066
 11
71.9892043966
 21
71.8242608066
  0
LINE
  5
37C
100
AcDbEntity
  8
0
100
AcDbLine
 62
253
  6
CONTINUOUS
 10
80.9662585086
 20
71.8242608066
 11
129.9992238143
 21
71.8242608066
  0
LINE
  5
37D
100
AcDbEntity
  8
0
100
AcDbLine
 62
253
  6
CONTINUOUS
 10
22.9562390909
 20
71.9117176327
 11
71.9926331168
 21
71.9117176327
  0
LINE
  5
37E
100
AcDbEntity
  8
0
100
AcDbLine
 62
253
  6
CONTINUOUS
 10
80.9628297884
 20
71.9117176327
 11
129.9992238143
 21
71.9117176327
  0
LINE
  5
37F
100
AcDbEntity
  8
0
100
AcDbLine
 62
7
  6
CONTINUOUS
 10
130.0224492347
 20
71.9979957333
 11
80.9340937903
 21
71.9979957333
  0
LINE
  5
380
100
AcDbEntity
  8
0
100
AcDbLine
 62
7
  6
CONTINUOUS
 10
72.0213691149
 20
71.9979957333
 11
22.9330136705
 21
71.9979957333
  0
LINE
  5
381
100
AcDbEntity
  8
DRAFT
100
AcDbLine
 62
7
  6
CONTINUOUS
 10
72.1527882318
 20
72.1479957333
 11
80.8026746734
 21
72.1479957333
  0
LINE
  5
382
100
AcDbEntity
  8
DRAFT
100
AcDbLine
 62
7
  6
CONTINUOUS
 10
72.117878102
 20
74.1479957333
 11
80.8375848033
 21
74.1479957333
  0
LINE
  5
383
100
AcDbEntity
  8
0
100
AcDbLine
 62
253
  6
CONTINUOUS
 10
129.4342367658
 20
43.7544755923
 11
128.9918912596
 21
43.9874011303
  0
LWPOLYLINE
  5
384
100
AcDbEntity
  8
0
100
AcDbPolyline
 62
7
  6
CONTINUOUS
 90
10
 70
0
 10
82.4863066686
 20
43.5394205173
 10
82.4729857851
 20
43.560327959
 10
82.4399099835
 20
43.5918191871
 10
82.3918329844
 20
43.6338942015
 10
82.3341528731
 20
43.6891181667
 10
82.2706241042
 20
43.7549259182
 10
82.2021052228
 20
43.8236219631
 10
82.1300540711
 20
43.892641137
 10
82.0575172799
 20
43.9645486043
 10
81.9863828211
 20
44.0393443649
  0
LWPOLYLINE
  5
385
100
AcDbEntity
  8
0
100
AcDbPolyline
 62
7
  6
CONTINUOUS
 90
10
 70
0
 10
24.1363066686
 20
143.1394205173
 10
24.1229857851
 20
143.160327959
 10
24.0899099835
 20
143.1918191871
 10
24.0418329844
 20
143.2338942015
 10
23.9841528731
 20
143.2891181667
 10
23.9206241042
 20
143.3549259182
 10
23.8521052228
 20
143.4236219631
 10
23.7800540711
 20
143.492641137
 10
23.7075172799
 20
143.5645486043
 10
23.6363828211
 20
143.6393443649
  0
LINE
  5
386
100
AcDbEntity
  8
DRAFT
100
AcDbLine
 62
7
  6
CONTINUOUS
 10
72.8277314526
 20
56.4458487363
 11
73.2277314526
 21
55.7530284133
  0
LINE
  5
387
100
AcDbEntity
  8
ASSI
100
AcDbLine
 62
7
  6
CONTINUOUS
 10
22.6277314526
 20
53.8479957333
 11
22.7118203972
 21
53.9320846779
  0
LINE
  5
388
100
AcDbEntity
  8
RACCORDO
100
AcDbLine
 62
7
  6
CONTINUOUS
 10
22.6277314526
 20
53.8479957333
 11
22.7118203972
 21
53.9320846779
  0
LINE
  5
389
100
AcDbEntity
  8
0
100
AcDbLine
 62
7
  6
CONTINUOUS
 10
22.7273167126
 20
53.7812517466
 11
22.6277314526
 21
53.6816664866
  0
LINE
  5
38A
100
AcDbEntity
  8
ASSI
100
AcDbLine
 62
7
  6
CONTINUOUS
 10
23.7388241799
 20
53.8479957333
 11
23.7562792448
 21
53.8654507983
  0
LINE
  5
38B
100
AcDbEntity
  8
DRAFT
100
AcDbLine
 62
7
  6
CONTINUOUS
 10
23.7388241799
 20
53.8479957333
 11
23.7562792448
 21
53.8654507983
  0
LINE
  5
38C
100
AcDbEntity
  8
0
100
AcDbLine
 62
253
  6
CONTINUOUS
 10
124.7942979095
 20
136.6479957333
 11
124.7726156776
 21
136.6345600388
  0
LWPOLYLINE
  5
38D
100
AcDbEntity
  8
0
100
AcDbPolyline
 62
7
  6
CONTINUOUS
 90
10
 70
0
 10
22.9275030928
 20
71.9979957333
 10
22.870667777
 20
71.9930724922
 10
22.8185788428
 20
71.9789630263
 10
22.7724735673
 20
71.9576955299
 10
22.7326205756
 20
71.9309465878
 10
22.6996830867
 20
71.9008202751
 10
22.6742844403
 20
71.8703175807
 10
22.6556462353
 20
71.8416309066
 10
22.6422912339
 20
71.8156282866
 10
22.633059362
 20
71.793194292
  0
LWPOLYLINE
  5
38E
100
AcDbEntity
  8
0
100
AcDbPolyline
 62
7
  6
CONTINUOUS
 90
10
 70
0
 10
129.9892846114
 20
69.3669762851
 10
130.0517276373
 20
69.3557869171
 10
130.1085397754
 20
69.3384080578
 10
130.1580328298
 20
69.3148397074
 10
130.1989310938
 20
69.2836434721
 10
130.2314732668
 20
69.2462577455
 10
130.2566343498
 20
69.2069977085
 10
130.2745894119
 20
69.1673017545
 10
130.2853009928
 20
69.1257314901
 10
130.2892389199
 20
69.0822869151
  0
LINE
  5
38F
100
AcDbEntity
  8
0
100
AcDbLine
 62
7
  6
CONTINUOUS
 10
124.7101533814
 20
45.0374168545
 11
124.7013927017
 21
45.0426887548
  0
LINE
  5
390
100
AcDbEntity
  8
ASSI
100
AcDbLine
 62
7
  6
CONTINUOUS
 10
22.7118203972
 20
125.5639067888
 11
22.6277314526
 21
125.6479957333
  0
LINE
  5
391
100
AcDbEntity
  8
RACCORDO
100
AcDbLine
 62
7
  6
CONTINUOUS
 10
22.7118203972
 20
125.5639067888
 11
22.6277314526
 21
125.6479957333
  0
LINE
  5
392
100
AcDbEntity
  8
0
100
AcDbLine
 62
7
  6
CONTINUOUS
 10
22.7273167126
 20
125.7147397201
 11
22.6277314526
 21
125.8143249801
  0
LINE
  5
393
100
AcDbEntity
  8
0
100
AcDbLine
 62
7
  6
CONTINUOUS
 10
80.15391405
 20
68.4718131359
 11
80.1277314526
 21
68.4979957333
  0
LINE
  5
394
100
AcDbEntity
  8
ASSI
100
AcDbLine
 62
7
  6
CONTINUOUS
 10
23.7388241799
 20
125.6479957333
 11
23.7562792448
 21
125.6305406684
  0
LINE
  5
395
100
AcDbEntity
  8
DRAFT
100
AcDbLine
 62
7
  6
CONTINUOUS
 10
23.7388241799
 20
125.6479957333
 11
23.7562792448
 21
125.6305406684
  0
LINE
  5
396
100
AcDbEntity
  8
0
100
AcDbLine
 62
7
  6
CONTINUOUS
 10
106.4777314526
 20
43.0479957333
 11
106.4384525703
 21
43.0872746157
  0
LINE
  5
397
100
AcDbEntity
  8
DRAFT
100
AcDbLine
 62
7
  6
CONTINUOUS
 10
80.1277314526
 20
59.6501427303
 11
79.7277314526
 21
60.3429630534
  0
LINE
  5
398
100
AcDbEntity
  8
DRAFT
100
AcDbLine
 62
7
  6
CONTINUOUS
 10
80.1277314526
 20
59.7723281848
 11
79.7888241799
 21
60.3593328003
  0
LINE
  5
399
100
AcDbEntity
  8
0
100
AcDbLine
 62
7
  6
CONTINUOUS
 10
71.9777314526
 20
68.5868846222
 11
72.0087213294
 21
68.5079775622
  0
LINE
  5
39A
100
AcDbEntity
  8
0
100
AcDbLine
 62
7
  6
CONTINUOUS
 10
80.9777314526
 20
46.0479957333
 11
80.9147666876
 21
46.2083179099
  0
LINE
  5
39B
100
AcDbEntity
  8
DRAFT
100
AcDbLine
 62
7
  6
CONTINUOUS
 10
72.1527882318
 20
72.1479957333
 11
72.117878102
 21
74.1479957333
  0
LINE
  5
39C
100
AcDbEntity
  8
0
100
AcDbLine
 62
7
  6
CONTINUOUS
 10
67.2384525703
 20
143.0694479411
 11
67.2384525703
 21
136.408716851
  0
LINE
  5
39D
100
AcDbEntity
  8
0
100
AcDbLine
 62
7
  6
CONTINUOUS
 10
67.2384525703
 20
36.4265435255
 11
67.2384525703
 21
43.0872746157
  0
LINE
  5
39E
100
AcDbEntity
  8
0
100
AcDbLine
 62
7
  6
CONTINUOUS
 10
67.2777314526
 20
36.4527261229
 11
67.2777314526
 21
43.0479957333
  0
LINE
  5
39F
100
AcDbEntity
  8
0
100
AcDbLine
 62
7
  6
CONTINUOUS
 10
69.4777314526
 20
143.0432653438
 11
69.4777314526
 21
136.4479957333
  0
LINE
  5
3A0
100
AcDbEntity
  8
0
100
AcDbLine
 62
7
  6
CONTINUOUS
 10
69.517010335
 20
143.0694479411
 11
69.517010335
 21
136.408716851
  0
LINE
  5
3A1
100
AcDbEntity
  8
0
100
AcDbLine
 62
7
  6
CONTINUOUS
 10
69.517010335
 20
36.4265435255
 11
69.517010335
 21
43.0872746157
  0
LINE
  5
3A2
100
AcDbEntity
  8
0
100
AcDbLine
 62
7
  6
CONTINUOUS
 10
70.3991836604
 20
43.4694479411
 11
70.3991836604
 21
36.4265435255
  0
LINE
  5
3A3
100
AcDbEntity
  8
0
100
AcDbLine
 62
253
  6
CONTINUOUS
 10
70.4691562366
 20
43.5394205173
 11
70.4691562366
 21
36.3565709493
  0
LINE
  5
3A4
100
AcDbEntity
  8
RACCORDO
100
AcDbLine
 62
7
  6
CONTINUOUS
 10
70.5405888377
 20
90.7022939608
 11
70.5405888377
 21
88.7936975058
  0
LINE
  5
3A5
100
AcDbEntity
  8
0
100
AcDbLine
 62
253
  6
CONTINUOUS
 10
70.9690800842
 20
44.0393443649
 11
70.9690800842
 21
35.8566471018
  0
LINE
  5
3A6
100
AcDbEntity
  8
RACCORDO
100
AcDbLine
 62
7
  6
CONTINUOUS
 10
71.4954229062
 20
88.7936975058
 11
71.4954229062
 21
90.7022939608
  0
LINE
  5
3A7
100
AcDbEntity
  8
0
100
AcDbLine
 62
7
  6
CONTINUOUS
 10
71.873001063
 20
35.7432653438
 11
71.873001063
 21
46.2741783307
  0
LINE
  5
3A8
100
AcDbEntity
  8
0
100
AcDbLine
 62
7
  6
CONTINUOUS
 10
71.9166387254
 20
68.7090667743
 11
71.9166387254
 21
68.4718131359
  0
LINE
  5
3A9
100
AcDbEntity
  8
0
100
AcDbLine
 62
7
  6
CONTINUOUS
 10
71.9777314526
 20
71.0427122164
 11
71.9777314526
 21
69.3669762851
  0
LINE
  5
3AA
100
AcDbEntity
  8
0
100
AcDbLine
 62
7
  6
CONTINUOUS
 10
71.9777314526
 20
46.0479957333
 11
71.9777314526
 21
35.8479957333
  0
LINE
  5
3AB
100
AcDbEntity
  8
DRAFT
100
AcDbLine
 62
7
  6
CONTINUOUS
 10
71.9777314526
 20
88.2479957333
 11
71.9777314526
 21
91.2479957333
  0
LINE
  5
3AC
100
AcDbEntity
  8
0
100
AcDbLine
 62
7
  6
CONTINUOUS
 10
72.0213691149
 20
68.6979957333
 11
72.0213691149
 21
71.9979957333
  0
LINE
  5
3AD
100
AcDbEntity
  8
0
100
AcDbLine
 62
7
  6
CONTINUOUS
 10
117.2191562366
 20
143.1394205173
 11
117.1491836604
 21
143.0694479411
  0
LWPOLYLINE
  5
3AE
100
AcDbEntity
  8
0
100
AcDbPolyline
 62
253
  6
CONTINUOUS
 90
4
 70
0
 10
22.8144087954
 20
71.8759816855
 10
22.8542507399
 20
71.8937753275
 10
22.9045249322
 20
71.9071843665
 10
22.9562390909
 20
71.9117176327
  0
LINE
  5
3AF
100
AcDbEntity
  8
RACCORDO
100
AcDbLine
 62
7
  6
CONTINUOUS
 10
72.0777314526
 20
40.1479195809
 11
72.0777314526
 21
46.2479957333
  0
LINE
  5
3B0
100
AcDbEntity
  8
RACCORDO
100
AcDbLine
 62
7
  6
CONTINUOUS
 10
72.0777314526
 20
68.4979957333
 11
72.0777314526
 21
73.0479957333
  0
LINE
  5
3B1
100
AcDbEntity
  8
RACCORDO
100
AcDbLine
 62
7
  6
CONTINUOUS
 10
72.0986775305
 20
73.8479957333
 11
72.0986775305
 21
73.3479957333
  0
LINE
  5
3B2
100
AcDbEntity
  8
RACCORDO
100
AcDbLine
 62
7
  6
CONTINUOUS
 10
72.1527882318
 20
40.2229763601
 11
72.1527882318
 21
46.2479957333
  0
LINE
  5
3B3
100
AcDbEntity
  8
RACCORDO
100
AcDbLine
 62
7
  6
CONTINUOUS
 10
72.1527882318
 20
68.4979957333
 11
72.1527882318
 21
72.1479957333
  0
LINE
  5
3B4
100
AcDbEntity
  8
0
100
AcDbLine
 62
7
  6
CONTINUOUS
 10
72.8015488552
 20
46.2741783307
 11
72.8015488552
 21
68.4718131359
  0
LINE
  5
3B5
100
AcDbEntity
  8
DRAFT
100
AcDbLine
 62
7
  6
CONTINUOUS
 10
73.1666387254
 20
70.4479957333
 11
73.1666387254
 21
60.3593328003
  0
LINE
  5
3B6
100
AcDbEntity
  8
DRAFT
100
AcDbLine
 62
7
  6
CONTINUOUS
 10
73.1666387254
 20
55.7366586664
 11
73.1666387254
 21
41.1479957333
  0
LINE
  5
3B7
100
AcDbEntity
  8
DRAFT
100
AcDbLine
 62
7
  6
CONTINUOUS
 10
73.2155129072
 20
43.3479957333
 11
73.2155129072
 21
48.1479957333
  0
LINE
  5
3B8
100
AcDbEntity
  8
DRAFT
100
AcDbLine
 62
7
  6
CONTINUOUS
 10
73.2277314526
 20
60.3429630534
 11
73.2277314526
 21
55.7530284133
  0
LINE
  5
3B9
100
AcDbEntity
  8
DRAFT
100
AcDbLine
 62
7
  6
CONTINUOUS
 10
73.2416955046
 20
70.4479957333
 11
73.2416955046
 21
48.1479957333
  0
LINE
  5
3BA
100
AcDbEntity
  8
DRAFT
100
AcDbLine
 62
7
  6
CONTINUOUS
 10
73.2416955046
 20
43.3479957333
 11
73.2416955046
 21
41.1479957333
  0
LINE
  5
3BB
100
AcDbEntity
  8
0
100
AcDbLine
 62
7
  6
CONTINUOUS
 10
73.3277314526
 20
68.6979957333
 11
73.3277314526
 21
48.1479957333
  0
LINE
  5
3BC
100
AcDbEntity
  8
DRAFT
100
AcDbLine
 62
7
  6
CONTINUOUS
 10
73.9777314526
 20
105.6979957333
 11
73.9777314526
 21
107.7656354602
  0
LINE
  5
3BD
100
AcDbEntity
  8
DRAFT
100
AcDbLine
 62
7
  6
CONTINUOUS
 10
75.7277314526
 20
105.6979957333
 11
75.7277314526
 21
107.7656354602
  0
LINE
  5
3BE
100
AcDbEntity
  8
DRAFT
100
AcDbLine
 62
7
  6
CONTINUOUS
 10
72.1000806517
 20
74.1479957333
 11
72.0986775305
 21
73.8479957333
  0
LINE
  5
3BF
100
AcDbEntity
  8
0
100
AcDbLine
 62
7
  6
CONTINUOUS
 10
71.9892043966
 20
71.8242608066
 11
71.9792651937
 21
71.2548442508
  0
LINE
  5
3C0
100
AcDbEntity
  8
0
100
AcDbLine
 62
253
  6
CONTINUOUS
 10
129.0889612681
 20
144.6479957333
 11
129.0278685409
 21
144.5869030061
  0
LINE
  5
3C1
100
AcDbEntity
  8
0
100
AcDbLine
 62
253
  6
CONTINUOUS
 10
129.3278837575
 20
144.6479957333
 11
129.2282984975
 21
144.5484104734
  0
LINE
  5
3C2
100
AcDbEntity
  8
0
100
AcDbLine
 62
7
  6
CONTINUOUS
 10
128.8411671472
 20
143.1614314279
 11
128.8277314526
 21
143.1479957333
  0
LINE
  5
3C3
100
AcDbEntity
  8
0
100
AcDbLine
 62
253
  6
CONTINUOUS
 10
130.3277314526
 20
143.6481480382
 11
130.2281461927
 21
143.5485627782
  0
LINE
  5
3C4
100
AcDbEntity
  8
0
100
AcDbLine
 62
253
  6
CONTINUOUS
 10
22.6277314526
 20
35.8478434285
 11
22.7273167126
 21
35.9474286884
  0
LINE
  5
3C5
100
AcDbEntity
  8
RACCORDO
100
AcDbLine
 62
7
  6
CONTINUOUS
 10
80.9777314526
 20
88.2479957333
 11
81.3307410488
 21
88.2940020923
  0
LINE
  5
3C6
100
AcDbEntity
  8
DRAFT
100
AcDbLine
 62
7
  6
CONTINUOUS
 10
80.9777314526
 20
88.2479957333
 11
82.4777314526
 21
88.2479957333
  0
LINE
  5
3C7
100
AcDbEntity
  8
RACCORDO
100
AcDbLine
 62
253
  6
CONTINUOUS
 10
70.5237378116
 20
88.2940020923
 11
71.6247218565
 21
88.2940020923
  0
LINE
  5
3C8
100
AcDbEntity
  8
RACCORDO
100
AcDbLine
 62
253
  6
CONTINUOUS
 10
81.3307410488
 20
88.2940020923
 11
82.4317250936
 21
88.2940020923
  0
LINE
  5
3C9
100
AcDbEntity
  8
RACCORDO
100
AcDbLine
 62
253
  6
CONTINUOUS
 10
70.5405888377
 20
88.7936975058
 11
71.4954229062
 21
88.7936975058
  0
LINE
  5
3CA
100
AcDbEntity
  8
RACCORDO
100
AcDbLine
 62
253
  6
CONTINUOUS
 10
81.460039999
 20
88.7936975058
 11
82.4148740675
 21
88.7936975058
  0
LINE
  5
3CB
100
AcDbEntity
  8
RACCORDO
100
AcDbLine
 62
7
  6
CONTINUOUS
 10
71.9777314526
 20
88.2479957333
 11
71.6247218565
 21
88.2940020923
  0
LINE
  5
3CC
100
AcDbEntity
  8
RACCORDO
100
AcDbLine
 62
7
  6
CONTINUOUS
 10
70.4777314526
 20
91.2479957333
 11
70.5237378116
 21
91.2019893743
  0
LINE
  5
3CD
100
AcDbEntity
  8
0
100
AcDbLine
 62
253
  6
CONTINUOUS
 10
129.2282984975
 20
34.9475809933
 11
129.3278837575
 21
34.8479957333
  0
LINE
  5
3CE
100
AcDbEntity
  8
0
100
AcDbLine
 62
7
  6
CONTINUOUS
 10
128.7491836604
 20
36.4265435255
 11
128.8191562366
 21
36.3565709493
  0
LINE
  5
3CF
100
AcDbEntity
  8
0
100
AcDbLine
 62
253
  6
CONTINUOUS
 10
29.7275029954
 20
135.9829058632
 11
29.7538379092
 21
135.9565709493
  0
LINE
  5
3D0
100
AcDbEntity
  8
0
100
AcDbLine
 62
253
  6
CONTINUOUS
 10
130.2281461927
 20
35.9474286884
 11
130.3277314526
 21
35.8478434285
  0
LINE
  5
3D1
100
AcDbEntity
  8
0
100
AcDbLine
 62
253
  6
CONTINUOUS
 10
22.7273167126
 20
143.5485627782
 11
22.6277314526
 21
143.6481480382
  0
LINE
  5
3D2
100
AcDbEntity
  8
0
100
AcDbLine
 62
253
  6
CONTINUOUS
 10
123.2279599099
 20
43.5130856035
 11
123.201624996
 21
43.5394205173
  0
LINE
  5
3D3
100
AcDbEntity
  8
0
100
AcDbLine
 62
7
  6
CONTINUOUS
 10
80.9340937903
 20
68.6979957333
 11
80.9777314526
 21
68.5868846222
  0
LINE
  5
3D4
100
AcDbEntity
  8
0
100
AcDbLine
 62
7
  6
CONTINUOUS
 10
81.0305534112
 20
69.2083815416
 11
80.9777314526
 21
69.3669762851
  0
LINE
  5
3D5
100
AcDbEntity
  8
0
100
AcDbLine
 62
7
  6
CONTINUOUS
 10
80.9628297884
 20
71.9117176327
 11
80.9340937903
 21
71.9979957333
  0
LINE
  5
3D6
100
AcDbEntity
  8
0
100
AcDbLine
 62
7
  6
CONTINUOUS
 10
80.9761977116
 20
71.2548442508
 11
80.9662585086
 21
71.8242608066
  0
LINE
  5
3D7
100
AcDbEntity
  8
DRAFT
100
AcDbLine
 62
7
  6
CONTINUOUS
 10
80.8553822535
 20
74.1479957333
 11
80.8567853747
 21
73.8479957333
  0
LINE
  5
3D8
100
AcDbEntity
  8
DRAFT
100
AcDbLine
 62
7
  6
CONTINUOUS
 10
77.2277314526
 20
105.6979957333
 11
77.2277314526
 21
107.7656354602
  0
LINE
  5
3D9
100
AcDbEntity
  8
DRAFT
100
AcDbLine
 62
7
  6
CONTINUOUS
 10
78.9777314526
 20
105.6979957333
 11
78.9777314526
 21
107.7656354602
  0
LINE
  5
3DA
100
AcDbEntity
  8
0
100
AcDbLine
 62
7
  6
CONTINUOUS
 10
79.6277314526
 20
48.1479957333
 11
79.6277314526
 21
68.6979957333
  0
LINE
  5
3DB
100
AcDbEntity
  8
DRAFT
100
AcDbLine
 62
7
  6
CONTINUOUS
 10
79.7137674007
 20
41.1479957333
 11
79.7137674007
 21
43.3479957333
  0
LINE
  5
3DC
100
AcDbEntity
  8
DRAFT
100
AcDbLine
 62
7
  6
CONTINUOUS
 10
79.7137674007
 20
48.1479957333
 11
79.7137674007
 21
70.4479957333
  0
LINE
  5
3DD
100
AcDbEntity
  8
DRAFT
100
AcDbLine
 62
7
  6
CONTINUOUS
 10
79.7277314526
 20
55.7530284133
 11
79.7277314526
 21
60.3429630534
  0
LINE
  5
3DE
100
AcDbEntity
  8
DRAFT
100
AcDbLine
 62
7
  6
CONTINUOUS
 10
79.7399499981
 20
43.3479957333
 11
79.7399499981
 21
48.1479957333
  0
LINE
  5
3DF
100
AcDbEntity
  8
DRAFT
100
AcDbLine
 62
7
  6
CONTINUOUS
 10
79.7888241799
 20
41.1479957333
 11
79.7888241799
 21
55.7366586664
  0
LINE
  5
3E0
100
AcDbEntity
  8
DRAFT
100
AcDbLine
 62
7
  6
CONTINUOUS
 10
79.7888241799
 20
60.3593328003
 11
79.7888241799
 21
70.4479957333
  0
LINE
  5
3E1
100
AcDbEntity
  8
0
100
AcDbLine
 62
7
  6
CONTINUOUS
 10
80.15391405
 20
68.4718131359
 11
80.15391405
 21
46.2741783307
  0
LINE
  5
3E2
100
AcDbEntity
  8
RACCORDO
100
AcDbLine
 62
7
  6
CONTINUOUS
 10
80.8026746734
 20
72.1479957333
 11
80.8026746734
 21
68.4979957333
  0
LINE
  5
3E3
100
AcDbEntity
  8
RACCORDO
100
AcDbLine
 62
7
  6
CONTINUOUS
 10
80.8026746734
 20
46.2479957333
 11
80.8026746734
 21
40.2229763601
  0
LINE
  5
3E4
100
AcDbEntity
  8
RACCORDO
100
AcDbLine
 62
7
  6
CONTINUOUS
 10
80.8567853747
 20
73.8479957333
 11
80.8567853747
 21
73.3479957333
  0
LINE
  5
3E5
100
AcDbEntity
  8
RACCORDO
100
AcDbLine
 62
7
  6
CONTINUOUS
 10
80.8777314526
 20
73.0479957333
 11
80.8777314526
 21
68.4979957333
  0
LINE
  5
3E6
100
AcDbEntity
  8
RACCORDO
100
AcDbLine
 62
7
  6
CONTINUOUS
 10
80.8777314526
 20
46.2479957333
 11
80.8777314526
 21
40.1479195809
  0
LINE
  5
3E7
100
AcDbEntity
  8
DRAFT
100
AcDbLine
 62
7
  6
CONTINUOUS
 10
80.9777314526
 20
91.2479957333
 11
80.9777314526
 21
88.2479957333
  0
LINE
  5
3E8
100
AcDbEntity
  8
0
100
AcDbLine
 62
7
  6
CONTINUOUS
 10
80.9777314526
 20
71.0427122164
 11
80.9777314526
 21
69.3669762851
  0
LINE
  5
3E9
100
AcDbEntity
  8
0
100
AcDbLine
 62
7
  6
CONTINUOUS
 10
80.9777314526
 20
46.0479957333
 11
80.9777314526
 21
35.8479957333
  0
LINE
  5
3EA
100
AcDbEntity
  8
0
100
AcDbLine
 62
7
  6
CONTINUOUS
 10
81.0388241799
 20
68.7090667743
 11
81.0388241799
 21
68.4718131359
  0
LINE
  5
3EB
100
AcDbEntity
  8
0
100
AcDbLine
 62
7
  6
CONTINUOUS
 10
81.0824618422
 20
46.2741783307
 11
81.0824618422
 21
35.7432653438
  0
LINE
  5
3EC
100
AcDbEntity
  8
RACCORDO
100
AcDbLine
 62
7
  6
CONTINUOUS
 10
81.460039999
 20
90.7022939608
 11
81.460039999
 21
88.7936975058
  0
LINE
  5
3ED
100
AcDbEntity
  8
0
100
AcDbLine
 62
253
  6
CONTINUOUS
 10
81.9863828211
 20
35.8566471018
 11
81.9863828211
 21
44.0393443649
  0
LINE
  5
3EE
100
AcDbEntity
  8
DRAFT
100
AcDbLine
 62
7
  6
CONTINUOUS
 10
80.8026746734
 20
72.1479957333
 11
80.8375848033
 21
74.1479957333
  0
LINE
  5
3EF
100
AcDbEntity
  8
0
100
AcDbLine
 62
7
  6
CONTINUOUS
 10
71.9926331168
 20
71.9117176327
 11
72.0213691149
 21
71.9979957333
  0
LINE
  5
3F0
100
AcDbEntity
  8
0
100
AcDbLine
 62
7
  6
CONTINUOUS
 10
71.9249094941
 20
69.2083815416
 11
71.9777314526
 21
69.3669762851
  0
LINE
  5
3F1
100
AcDbEntity
  8
0
100
AcDbLine
 62
7
  6
CONTINUOUS
 10
72.0213691149
 20
68.6979957333
 11
71.9777314526
 21
68.5868846222
  0
LINE
  5
3F2
100
AcDbEntity
  8
0
100
AcDbLine
 62
7
  6
CONTINUOUS
 10
24.1142957581
 20
36.3345600388
 11
24.1277314526
 21
36.3479957333
  0
LINE
  5
3F3
100
AcDbEntity
  8
0
100
AcDbLine
 62
253
  6
CONTINUOUS
 10
23.6275791478
 20
34.8479957333
 11
23.7271644077
 21
34.9475809933
  0
LINE
  5
3F4
100
AcDbEntity
  8
0
100
AcDbLine
 62
253
  6
CONTINUOUS
 10
23.8665016371
 20
34.8479957333
 11
23.9275943643
 21
34.9090884606
  0
LINE
  5
3F5
100
AcDbEntity
  8
RACCORDO
100
AcDbLine
 62
7
  6
CONTINUOUS
 10
82.4777314526
 20
91.2479957333
 11
82.4317250936
 21
91.2019893743
  0
LINE
  5
3F6
100
AcDbEntity
  8
RACCORDO
100
AcDbLine
 62
7
  6
CONTINUOUS
 10
71.9777314526
 20
91.2479957333
 11
71.6247218565
 21
91.2019893743
  0
LINE
  5
3F7
100
AcDbEntity
  8
RACCORDO
100
AcDbLine
 62
253
  6
CONTINUOUS
 10
82.4148740675
 20
90.7022939608
 11
81.460039999
 21
90.7022939608
  0
LINE
  5
3F8
100
AcDbEntity
  8
RACCORDO
100
AcDbLine
 62
253
  6
CONTINUOUS
 10
71.4954229062
 20
90.7022939608
 11
70.5405888377
 21
90.7022939608
  0
LINE
  5
3F9
100
AcDbEntity
  8
RACCORDO
100
AcDbLine
 62
253
  6
CONTINUOUS
 10
82.4317250936
 20
91.2019893743
 11
81.3307410488
 21
91.2019893743
  0
LINE
  5
3FA
100
AcDbEntity
  8
RACCORDO
100
AcDbLine
 62
253
  6
CONTINUOUS
 10
71.6247218565
 20
91.2019893743
 11
70.5237378116
 21
91.2019893743
  0
LINE
  5
3FB
100
AcDbEntity
  8
DRAFT
100
AcDbLine
 62
7
  6
CONTINUOUS
 10
82.4777314526
 20
91.2479957333
 11
80.9777314526
 21
91.2479957333
  0
LINE
  5
3FC
100
AcDbEntity
  8
RACCORDO
100
AcDbLine
 62
7
  6
CONTINUOUS
 10
80.9777314526
 20
91.2479957333
 11
81.3307410488
 21
91.2019893743
  0
LWPOLYLINE
  5
3FD
100
AcDbEntity
  8
0
100
AcDbPolyline
 62
253
  6
CONTINUOUS
 90
4
 70
0
 10
130.141039501
 20
71.8759895278
 10
130.1012119492
 20
71.8937754034
 10
130.0509378412
 20
71.9071843842
 10
129.9992238113
 20
71.9117176235
  0
LINE
  5
3FE
100
AcDbEntity
  8
0
100
AcDbLine
 62
7
  6
CONTINUOUS
 10
24.1363066686
 20
143.1394205173
 11
24.2062792448
 21
143.0694479411
  0
LINE
  5
3FF
100
AcDbEntity
  8
0
100
AcDbLine
 62
253
  6
CONTINUOUS
 10
23.7271644077
 20
144.5484104734
 11
23.6275791478
 21
144.6479957333
  0
LINE
  5
400
100
AcDbEntity
  8
RACCORDO
100
AcDbLine
 62
7
  6
CONTINUOUS
 10
82.4777314526
 20
88.2479957333
 11
82.4317250936
 21
88.2940020923
  0
LINE
  5
401
100
AcDbEntity
  8
RACCORDO
100
AcDbLine
 62
7
  6
CONTINUOUS
 10
82.4148740675
 20
88.7936975058
 11
82.4148740675
 21
90.7022939608
  0
LINE
  5
402
100
AcDbEntity
  8
DRAFT
100
AcDbLine
 62
7
  6
CONTINUOUS
 10
82.4777314526
 20
88.2479957333
 11
82.4777314526
 21
91.2479957333
  0
LINE
  5
403
100
AcDbEntity
  8
0
100
AcDbLine
 62
253
  6
CONTINUOUS
 10
82.4863066686
 20
36.3565709493
 11
82.4863066686
 21
43.5394205173
  0
LINE
  5
404
100
AcDbEntity
  8
0
100
AcDbLine
 62
7
  6
CONTINUOUS
 10
82.5562792448
 20
43.4694479411
 11
82.5562792448
 21
36.4265435255
  0
LINE
  5
405
100
AcDbEntity
  8
0
100
AcDbLine
 62
7
  6
CONTINUOUS
 10
83.4384525703
 20
143.0694479411
 11
83.4384525703
 21
136.408716851
  0
LINE
  5
406
100
AcDbEntity
  8
0
100
AcDbLine
 62
7
  6
CONTINUOUS
 10
83.4384525703
 20
36.4265435255
 11
83.4384525703
 21
43.0872746157
  0
LINE
  5
407
100
AcDbEntity
  8
0
100
AcDbLine
 62
7
  6
CONTINUOUS
 10
83.4777314526
 20
36.4527261229
 11
83.4777314526
 21
43.0479957333
  0
LINE
  5
408
100
AcDbEntity
  8
0
100
AcDbLine
 62
7
  6
CONTINUOUS
 10
83.4777314526
 20
136.4479957333
 11
83.4777314526
 21
143.0432653438
  0
LINE
  5
409
100
AcDbEntity
  8
0
100
AcDbLine
 62
7
  6
CONTINUOUS
 10
85.6777314526
 20
143.0432653438
 11
85.6777314526
 21
136.4479957333
  0
LINE
  5
40A
100
AcDbEntity
  8
0
100
AcDbLine
 62
7
  6
CONTINUOUS
 10
85.717010335
 20
143.0694479411
 11
85.717010335
 21
136.408716851
  0
LINE
  5
40B
100
AcDbEntity
  8
0
100
AcDbLine
 62
7
  6
CONTINUOUS
 10
85.717010335
 20
36.4265435255
 11
85.717010335
 21
43.0872746157
  0
LINE
  5
40C
100
AcDbEntity
  8
0
100
AcDbLine
 62
7
  6
CONTINUOUS
 10
35.7363066686
 20
36.3565709493
 11
35.8062792448
 21
36.4265435255
  0
LINE
  5
40D
100
AcDbEntity
  8
0
100
AcDbLine
 62
7
  6
CONTINUOUS
 10
71.9777314526
 20
46.0479957333
 11
72.0406962177
 21
46.2083179099
  0
LINE
  5
40E
100
AcDbEntity
  8
0
100
AcDbLine
 62
7
  6
CONTINUOUS
 10
80.9777314526
 20
68.5868846222
 11
80.9467415758
 21
68.5079775622
  0
LINE
  5
40F
100
AcDbEntity
  8
DRAFT
100
AcDbLine
 62
7
  6
CONTINUOUS
 10
73.1666387254
 20
60.3593328003
 11
72.8277314526
 21
59.7723281848
  0
LINE
  5
410
100
AcDbEntity
  8
DRAFT
100
AcDbLine
 62
7
  6
CONTINUOUS
 10
73.2277314526
 20
60.3429630534
 11
72.8277314526
 21
59.6501427303
  0
LINE
  5
411
100
AcDbEntity
  8
ASSI
100
AcDbLine
 62
7
  6
CONTINUOUS
 10
129.2166387254
 20
125.6479957333
 11
129.1991836604
 21
125.6305406684
  0
LINE
  5
412
100
AcDbEntity
  8
DRAFT
100
AcDbLine
 62
7
  6
CONTINUOUS
 10
129.2166387254
 20
125.6479957333
 11
129.1991836604
 21
125.6305406684
  0
LINE
  5
413
100
AcDbEntity
  8
0
100
AcDbLine
 62
7
  6
CONTINUOUS
 10
72.8015488552
 20
68.4718131359
 11
72.8277314526
 21
68.4979957333
  0
LINE
  5
414
100
AcDbEntity
  8
0
100
AcDbLine
 62
7
  6
CONTINUOUS
 10
130.2281461927
 20
125.7147397201
 11
130.3277314526
 21
125.8143249801
  0
LINE
  5
415
100
AcDbEntity
  8
ASSI
100
AcDbLine
 62
7
  6
CONTINUOUS
 10
130.2436425081
 20
125.5639067888
 11
130.3277314526
 21
125.6479957333
  0
LINE
  5
416
100
AcDbEntity
  8
RACCORDO
100
AcDbLine
 62
7
  6
CONTINUOUS
 10
130.2436425081
 20
125.5639067888
 11
130.3277314526
 21
125.6479957333
  0
LINE
  5
417
100
AcDbEntity
  8
0
100
AcDbLine
 62
253
  6
CONTINUOUS
 10
28.1611649957
 20
42.8479957333
 11
28.1828472276
 21
42.8614314279
  0
LWPOLYLINE
  5
418
100
AcDbEntity
  8
0
100
AcDbPolyline
 62
7
  6
CONTINUOUS
 90
10
 70
0
 10
130.0279598125
 20
107.4979957333
 10
130.0847951282
 20
107.5029189745
 10
130.1368840625
 20
107.5170284403
 10
130.182989338
 20
107.5382959367
 10
130.2228423297
 20
107.5650448788
 10
130.2557798185
 20
107.5951711915
 10
130.281178465
 20
107.625673886
 10
130.29981667
 20
107.6543605601
 10
130.3131716713
 20
107.68036318
 10
130.3224035433
 20
107.7027971747
  0
LINE
  5
419
100
AcDbEntity
  8
0
100
AcDbLine
 62
7
  6
CONTINUOUS
 10
113.9777314526
 20
105.6979957333
 11
112.2277314526
 21
105.6979957333
  0
LINE
  5
41A
100
AcDbEntity
  8
0
100
AcDbLine
 62
7
  6
CONTINUOUS
 10
110.7277314526
 20
105.6979957333
 11
108.9777314526
 21
105.6979957333
  0
LINE
  5
41B
100
AcDbEntity
  8
0
100
AcDbLine
 62
7
  6
CONTINUOUS
 10
78.9777314526
 20
105.6979957333
 11
77.2277314526
 21
105.6979957333
  0
LINE
  5
41C
100
AcDbEntity
  8
0
100
AcDbLine
 62
7
  6
CONTINUOUS
 10
75.7277314526
 20
105.6979957333
 11
73.9777314526
 21
105.6979957333
  0
LINE
  5
41D
100
AcDbEntity
  8
0
100
AcDbLine
 62
7
  6
CONTINUOUS
 10
43.9777314526
 20
105.6979957333
 11
42.2277314526
 21
105.6979957333
  0
LINE
  5
41E
100
AcDbEntity
  8
0
100
AcDbLine
 62
7
  6
CONTINUOUS
 10
40.7277314526
 20
105.6979957333
 11
38.9777314526
 21
105.6979957333
  0
LINE
  5
41F
100
AcDbEntity
  8
0
100
AcDbLine
 62
253
  6
CONTINUOUS
 10
23.5212261395
 20
135.7415158744
 11
23.9635716457
 21
135.5085903363
  0
LINE
  5
420
100
AcDbEntity
  8
0
100
AcDbLine
 62
7
  6
CONTINUOUS
 10
28.2453095238
 20
134.4585746121
 11
28.2540702036
 21
134.4533027141
  0
LINE
  5
421
100
AcDbEntity
  8
0
100
AcDbLine
 62
7
  6
CONTINUOUS
 10
46.4777314526
 20
136.4479957333
 11
46.517010335
 21
136.408716851
  0
LINE
  5
422
100
AcDbEntity
  8
ASSI
100
AcDbLine
 62
7
  6
CONTINUOUS
 10
129.2166387254
 20
53.8479957333
 11
129.1991836604
 21
53.8654507983
  0
LINE
  5
423
100
AcDbEntity
  8
DRAFT
100
AcDbLine
 62
7
  6
CONTINUOUS
 10
129.2166387254
 20
53.8479957333
 11
129.1991836604
 21
53.8654507983
  0
LINE
  5
424
100
AcDbEntity
  8
0
100
AcDbLine
 62
7
  6
CONTINUOUS
 10
130.2281461927
 20
53.7812517466
 11
130.3277314526
 21
53.6816664866
  0
LINE
  5
425
100
AcDbEntity
  8
ASSI
100
AcDbLine
 62
7
  6
CONTINUOUS
 10
130.3277314526
 20
53.8479957333
 11
130.2436425081
 21
53.9320846779
  0
LINE
  5
426
100
AcDbEntity
  8
RACCORDO
100
AcDbLine
 62
7
  6
CONTINUOUS
 10
130.3277314526
 20
53.8479957333
 11
130.2436425081
 21
53.9320846779
  0
LWPOLYLINE
  5
427
100
AcDbEntity
  8
0
100
AcDbPolyline
 62
7
  6
CONTINUOUS
 90
10
 70
0
 10
128.8191562366
 20
36.3565709493
 10
128.8324771201
 20
36.3356635076
 10
128.8655529218
 20
36.3041722796
 10
128.9136299208
 20
36.2620972651
 10
128.9713100321
 20
36.2068733
 10
129.0348388011
 20
36.1410655484
 10
129.1033576824
 20
36.0723695035
 10
129.1754088341
 20
36.0033503296
 10
129.2479456253
 20
35.9314428624
 10
129.3190800842
 20
35.8566471018
  0
LINE
  5
428
100
AcDbEntity
  8
0
100
AcDbLine
 62
7
  6
CONTINUOUS
 10
80.9777314526
 20
46.0479957333
 11
81.0352862515
 21
46.1945429431
  0
LINE
  5
429
100
AcDbEntity
  8
DRAFT
100
AcDbLine
 62
7
  6
CONTINUOUS
 10
79.7277314526
 20
55.7530284133
 11
80.1277314526
 21
56.4458487363
  0
LINE
  5
42A
100
AcDbEntity
  8
DRAFT
100
AcDbLine
 62
7
  6
CONTINUOUS
 10
79.7888241799
 20
55.7366586664
 11
80.1277314526
 21
56.3236632818
  0
LWPOLYLINE
  5
42B
100
AcDbEntity
  8
0
100
AcDbPolyline
 62
253
  6
CONTINUOUS
 90
10
 70
0
 10
125.1696932059
 20
135.8309991094
 10
125.2317532911
 20
135.9372639169
 10
125.265947887
 20
136.0555129371
 10
125.2702018823
 20
136.1785695149
 10
125.2442572934
 20
136.2989652783
 10
125.1896888846
 20
136.4093934603
 10
125.1098085226
 20
136.50315232
 10
125.0094642049
 20
136.5745517683
 10
124.8947458666
 20
136.6192587081
 10
124.7726157303
 20
136.6345600388
  0
LWPOLYLINE
  5
42C
100
AcDbEntity
  8
0
100
AcDbPolyline
 62
7
  6
CONTINUOUS
 90
10
 70
0
 10
24.1142957581
 20
36.3345600388
 10
24.0927593371
 20
36.320487929
 10
24.060838599
 20
36.2870058165
 10
24.018533544
 20
36.2387978247
 10
23.9633317815
 20
36.1811815086
 10
23.897745702
 20
36.1178364261
 10
23.8293124765
 20
36.0495767572
 10
23.7605444955
 20
35.9778260424
 10
23.6889293685
 20
35.9055906918
 10
23.6144670956
 20
35.8347313763
  0
LINE
  5
42D
100
AcDbEntity
  8
0
100
AcDbLine
 62
253
  6
CONTINUOUS
 10
27.7668821608
 20
43.6550520106
 11
27.7857697008
 21
43.6649923592
  0
LINE
  5
42E
100
AcDbEntity
  8
0
100
AcDbLine
 62
7
  6
CONTINUOUS
 10
130.0279598125
 20
107.4979957333
 11
113.9777314526
 21
107.4979957333
  0
LINE
  5
42F
100
AcDbEntity
  8
0
100
AcDbLine
 62
7
  6
CONTINUOUS
 10
112.2277314526
 20
107.4979957333
 11
110.7277314526
 21
107.4979957333
  0
LINE
  5
430
100
AcDbEntity
  8
0
100
AcDbLine
 62
7
  6
CONTINUOUS
 10
108.9777314526
 20
107.4979957333
 11
78.9777314526
 21
107.4979957333
  0
LINE
  5
431
100
AcDbEntity
  8
0
100
AcDbLine
 62
7
  6
CONTINUOUS
 10
77.2277314526
 20
107.4979957333
 11
75.7277314526
 21
107.4979957333
  0
LINE
  5
432
100
AcDbEntity
  8
0
100
AcDbLine
 62
7
  6
CONTINUOUS
 10
73.9777314526
 20
107.4979957333
 11
43.9777314526
 21
107.4979957333
  0
LINE
  5
433
100
AcDbEntity
  8
0
100
AcDbLine
 62
7
  6
CONTINUOUS
 10
42.2277314526
 20
107.4979957333
 11
40.7277314526
 21
107.4979957333
  0
LINE
  5
434
100
AcDbEntity
  8
0
100
AcDbLine
 62
7
  6
CONTINUOUS
 10
38.9777314526
 20
107.4979957333
 11
22.9275030928
 21
107.4979957333
  0
LINE
  5
435
100
AcDbEntity
  8
0
100
AcDbLine
 62
253
  6
CONTINUOUS
 10
23.0239627136
 20
107.787609925
 11
129.9315001916
 21
107.787609925
  0
LINE
  5
436
100
AcDbEntity
  8
0
100
AcDbLine
 62
253
  6
CONTINUOUS
 10
22.7273167126
 20
108.2869246924
 11
130.2281461927
 21
108.2869246924
  0
LWPOLYLINE
  5
437
100
AcDbEntity
  8
0
100
AcDbPolyline
 62
7
  6
CONTINUOUS
 90
10
 70
0
 10
35.7363066686
 20
36.3565709493
 10
35.7153992269
 20
36.3432500658
 10
35.6839079989
 20
36.3101742642
 10
35.6418329844
 20
36.2620972651
 10
35.5866090193
 20
36.2044171538
 10
35.5208012677
 20
36.1408883849
 10
35.4521052228
 20
36.0723695035
 10
35.3830860489
 20
36.0003183518
 10
35.3111785817
 20
35.9277815606
 10
35.2363828211
 20
35.8566471018
  0
LWPOLYLINE
  5
438
100
AcDbEntity
  8
0
100
AcDbPolyline
 62
7
  6
CONTINUOUS
 90
10
 70
0
 10
24.1142957581
 20
43.7404580798
 10
24.1043954231
 20
43.7364642882
 10
24.0797121617
 20
43.7288252175
 10
24.0412091247
 20
43.7175408679
 10
23.9902694281
 20
43.7019520086
 10
23.9285634367
 20
43.6827178702
 10
23.8579333959
 20
43.6618161455
 10
23.7804751246
 20
43.6399060652
 10
23.6985236686
 20
43.6163283985
 10
23.6144670956
 20
43.5910831453
  0
LINE
  5
439
100
AcDbEntity
  8
0
100
AcDbLine
 62
7
  6
CONTINUOUS
 10
129.9281918841
 20
113.7863968762
 11
128.5161325955
 21
113.7863968762
  0
LINE
  5
43A
100
AcDbEntity
  8
0
100
AcDbLine
 62
7
  6
CONTINUOUS
 10
24.4393303098
 20
113.7863968762
 11
23.0272710211
 21
113.7863968762
  0
LINE
  5
43B
100
AcDbEntity
  8
ASSI
100
AcDbLine
 62
7
  6
CONTINUOUS
 10
130.3277314526
 20
113.8479957333
 11
129.2166387254
 21
113.8479957333
  0
LINE
  5
43C
100
AcDbEntity
  8
DRAFT
100
AcDbLine
 62
7
  6
CONTINUOUS
 10
130.3277314526
 20
113.8479957333
 11
129.2166387254
 21
113.8479957333
  0
LINE
  5
43D
100
AcDbEntity
  8
ASSI
100
AcDbLine
 62
7
  6
CONTINUOUS
 10
23.7388241799
 20
113.8479957333
 11
22.6277314526
 21
113.8479957333
  0
LINE
  5
43E
100
AcDbEntity
  8
DRAFT
100
AcDbLine
 62
7
  6
CONTINUOUS
 10
23.7388241799
 20
113.8479957333
 11
22.6277314526
 21
113.8479957333
  0
LINE
  5
43F
100
AcDbEntity
  8
ASSI
100
AcDbLine
 62
7
  6
CONTINUOUS
 10
24.4293634007
 20
113.8654507983
 11
23.7562792448
 21
113.8654507983
  0
LINE
  5
440
100
AcDbEntity
  8
DRAFT
100
AcDbLine
 62
7
  6
CONTINUOUS
 10
24.4293634007
 20
113.8654507983
 11
23.7562792448
 21
113.8654507983
  0
LINE
  5
441
100
AcDbEntity
  8
ASSI
100
AcDbLine
 62
7
  6
CONTINUOUS
 10
128.5260995045
 20
113.8654507983
 11
129.1991836604
 21
113.8654507983
  0
LINE
  5
442
100
AcDbEntity
  8
DRAFT
100
AcDbLine
 62
7
  6
CONTINUOUS
 10
128.5260995045
 20
113.8654507983
 11
129.1991836604
 21
113.8654507983
  0
LINE
  5
443
100
AcDbEntity
  8
ASSI
100
AcDbLine
 62
253
  6
CONTINUOUS
 10
22.7118203972
 20
113.9320846779
 11
24.3627295211
 21
113.9320846779
  0
LINE
  5
444
100
AcDbEntity
  8
RACCORDO
100
AcDbLine
 62
253
  6
CONTINUOUS
 10
22.7118203972
 20
113.9320846779
 11
24.3627295211
 21
113.9320846779
  0
LINE
  5
445
100
AcDbEntity
  8
ASSI
100
AcDbLine
 62
253
  6
CONTINUOUS
 10
128.5927333841
 20
113.9320846779
 11
130.2436425081
 21
113.9320846779
  0
LINE
  5
446
100
AcDbEntity
  8
RACCORDO
100
AcDbLine
 62
253
  6
CONTINUOUS
 10
128.5927333841
 20
113.9320846779
 11
130.2436425081
 21
113.9320846779
  0
LINE
  5
447
100
AcDbEntity
  8
ASSI
100
AcDbLine
 62
253
  6
CONTINUOUS
 10
22.7289708292
 20
114.931932373
 11
24.3455790891
 21
114.931932373
  0
LINE
  5
448
100
AcDbEntity
  8
RACCORDO
100
AcDbLine
 62
253
  6
CONTINUOUS
 10
22.7289708292
 20
114.931932373
 11
24.3455790891
 21
114.931932373
  0
LINE
  5
449
100
AcDbEntity
  8
ASSI
100
AcDbLine
 62
253
  6
CONTINUOUS
 10
128.6098838162
 20
114.931932373
 11
130.226492076
 21
114.931932373
  0
LINE
  5
44A
100
AcDbEntity
  8
RACCORDO
100
AcDbLine
 62
253
  6
CONTINUOUS
 10
128.6098838162
 20
114.931932373
 11
130.226492076
 21
114.931932373
  0
LINE
  5
44B
100
AcDbEntity
  8
0
100
AcDbLine
 62
253
  6
CONTINUOUS
 10
23.9635716457
 20
135.5085903364
 11
23.9886934288
 21
135.4997693496
  0
LINE
  5
44C
100
AcDbEntity
  8
0
100
AcDbLine
 62
7
  6
CONTINUOUS
 10
28.2394762579
 20
134.4610432923
 11
28.2453095238
 21
134.4585746121
  0
LINE
  5
44D
100
AcDbEntity
  8
0
100
AcDbLine
 62
7
  6
CONTINUOUS
 10
106.4384525703
 20
36.4265435255
 11
106.4384525703
 21
43.0872746157
  0
LINE
  5
44E
100
AcDbEntity
  8
0
100
AcDbLine
 62
7
  6
CONTINUOUS
 10
106.4777314526
 20
36.4527261229
 11
106.4777314526
 21
43.0479957333
  0
LINE
  5
44F
100
AcDbEntity
  8
0
100
AcDbLine
 62
7
  6
CONTINUOUS
 10
69.4777314526
 20
43.0479957333
 11
69.517010335
 21
43.0872746157
  0
LINE
  5
450
100
AcDbEntity
  8
0
100
AcDbLine
 62
7
  6
CONTINUOUS
 10
70.4691562366
 20
43.5394205173
 11
70.3991836604
 21
43.4694479411
  0
LINE
  5
451
100
AcDbEntity
  8
ASSI
100
AcDbLine
 62
7
  6
CONTINUOUS
 10
24.3539293979
 20
117.0479957333
 11
24.0777314526
 21
117.0479957333
  0
LINE
  5
452
100
AcDbEntity
  8
DRAFT
100
AcDbLine
 62
7
  6
CONTINUOUS
 10
24.3539293979
 20
117.0479957333
 11
24.0777314526
 21
117.0479957333
  0
LINE
  5
453
100
AcDbEntity
  8
ASSI
100
AcDbLine
 62
7
  6
CONTINUOUS
 10
128.6015335073
 20
117.0479957333
 11
128.8777314526
 21
117.0479957333
  0
LINE
  5
454
100
AcDbEntity
  8
DRAFT
100
AcDbLine
 62
7
  6
CONTINUOUS
 10
128.6015335073
 20
117.0479957333
 11
128.8777314526
 21
117.0479957333
  0
LINE
  5
455
100
AcDbEntity
  8
ASSI
100
AcDbLine
 62
7
  6
CONTINUOUS
 10
130.3155129072
 20
117.0979957333
 11
130.2579111929
 21
117.0979957333
  0
LINE
  5
456
100
AcDbEntity
  8
DRAFT
100
AcDbLine
 62
7
  6
CONTINUOUS
 10
130.3155129072
 20
117.0979957333
 11
130.2579111929
 21
117.0979957333
  0
LINE
  5
457
100
AcDbEntity
  8
ASSI
100
AcDbLine
 62
7
  6
CONTINUOUS
 10
22.6975517123
 20
117.0979957333
 11
22.6399499981
 21
117.0979957333
  0
LINE
  5
458
100
AcDbEntity
  8
DRAFT
100
AcDbLine
 62
7
  6
CONTINUOUS
 10
22.6975517123
 20
117.0979957333
 11
22.6399499981
 21
117.0979957333
  0
LINE
  5
459
100
AcDbEntity
  8
DRAFT
100
AcDbLine
 62
7
  6
CONTINUOUS
 10
128.5758960598
 20
117.4479957333
 11
128.4393412103
 21
117.4479957333
  0
LINE
  5
45A
100
AcDbEntity
  8
DRAFT
100
AcDbLine
 62
7
  6
CONTINUOUS
 10
24.3795668454
 20
117.4479957333
 11
24.516121695
 21
117.4479957333
  0
LINE
  5
45B
100
AcDbEntity
  8
DRAFT
100
AcDbLine
 62
7
  6
CONTINUOUS
 10
22.6399499981
 20
122.3979957333
 11
22.6971154878
 21
122.3930020387
  0
LINE
  5
45C
100
AcDbEntity
  8
0
100
AcDbLine
 62
7
  6
CONTINUOUS
 10
44.2777314526
 20
143.0432653438
 11
44.2384525703
 21
143.0694479411
  0
LINE
  5
45D
100
AcDbEntity
  8
0
100
AcDbLine
 62
7
  6
CONTINUOUS
 10
69.4777314526
 20
136.4479957333
 11
69.517010335
 21
136.408716851
  0
LWPOLYLINE
  5
45E
100
AcDbEntity
  8
0
100
AcDbPolyline
 62
7
  6
CONTINUOUS
 90
5
 70
0
 10
124.7277314526
 20
45.0128571462
 10
124.724795404
 20
45.0208492827
 10
124.7218521951
 20
45.027281849
 10
124.7189127527
 20
45.0321548698
 10
124.7159866474
 20
45.0349481743
  0
LINE
  5
45F
100
AcDbEntity
  8
0
100
AcDbLine
 62
7
  6
CONTINUOUS
 10
108.6777314526
 20
43.0479957333
 11
108.6777314526
 21
36.4527261229
  0
LINE
  5
460
100
AcDbEntity
  8
0
100
AcDbLine
 62
7
  6
CONTINUOUS
 10
108.717010335
 20
36.4265435255
 11
108.717010335
 21
43.0872746157
  0
LINE
  5
461
100
AcDbEntity
  8
DRAFT
100
AcDbLine
 62
7
  6
CONTINUOUS
 10
108.9777314526
 20
105.6979957333
 11
108.9777314526
 21
107.7656354602
  0
LINE
  5
462
100
AcDbEntity
  8
DRAFT
100
AcDbLine
 62
7
  6
CONTINUOUS
 10
110.7277314526
 20
105.6979957333
 11
110.7277314526
 21
107.7656354602
  0
LINE
  5
463
100
AcDbEntity
  8
DRAFT
100
AcDbLine
 62
7
  6
CONTINUOUS
 10
112.2277314526
 20
105.6979957333
 11
112.2277314526
 21
107.7656354602
  0
LINE
  5
464
100
AcDbEntity
  8
RACCORDO
100
AcDbLine
 62
253
  6
CONTINUOUS
 10
72.0777314526
 20
40.1479195809
 11
72.1527882318
 21
40.2229763601
  0
LINE
  5
465
100
AcDbEntity
  8
RACCORDO
100
AcDbLine
 62
253
  6
CONTINUOUS
 10
72.5776553002
 20
39.6479957333
 11
72.6527120794
 21
39.7230525125
  0
LINE
  5
466
100
AcDbEntity
  8
0
100
AcDbLine
 62
7
  6
CONTINUOUS
 10
80.1277314526
 20
46.2479957333
 11
80.15391405
 21
46.2741783307
  0
LINE
  5
467
100
AcDbEntity
  8
0
100
AcDbLine
 62
7
  6
CONTINUOUS
 10
71.9777314526
 20
35.8479957333
 11
71.873001063
 21
35.7432653438
  0
LWPOLYLINE
  5
468
100
AcDbEntity
  8
0
100
AcDbPolyline
 62
7
  6
CONTINUOUS
 90
10
 70
0
 10
70.4691562366
 20
43.5394205173
 10
70.4900636783
 20
43.5527414008
 10
70.5215549064
 20
43.5858172025
 10
70.5636299208
 20
43.6338942015
 10
70.618853886
 20
43.6915743128
 10
70.6846616375
 20
43.7551030818
 10
70.7533576824
 20
43.8236219631
 10
70.8223768563
 20
43.8956731148
 10
70.8942843236
 20
43.968209906
 10
70.9690800842
 20
44.0393443649
  0
LINE
  5
469
100
AcDbEntity
  8
DRAFT
100
AcDbLine
 62
7
  6
CONTINUOUS
 10
22.6399499981
 20
117.0979957333
 11
22.6971154878
 21
117.102989428
  0
LINE
  5
46A
100
AcDbEntity
  8
DRAFT
100
AcDbLine
 62
7
  6
CONTINUOUS
 10
128.5758960598
 20
122.0479957333
 11
128.4393412103
 21
122.0479957333
  0
LINE
  5
46B
100
AcDbEntity
  8
DRAFT
100
AcDbLine
 62
7
  6
CONTINUOUS
 10
24.3795668454
 20
122.0479957333
 11
24.516121695
 21
122.0479957333
  0
LINE
  5
46C
100
AcDbEntity
  8
ASSI
100
AcDbLine
 62
7
  6
CONTINUOUS
 10
22.6399499981
 20
122.3979957333
 11
22.6975517123
 21
122.3979957333
  0
LINE
  5
46D
100
AcDbEntity
  8
DRAFT
100
AcDbLine
 62
7
  6
CONTINUOUS
 10
22.6399499981
 20
122.3979957333
 11
22.6975517123
 21
122.3979957333
  0
LINE
  5
46E
100
AcDbEntity
  8
ASSI
100
AcDbLine
 62
7
  6
CONTINUOUS
 10
130.2579111929
 20
122.3979957333
 11
130.3155129072
 21
122.3979957333
  0
LINE
  5
46F
100
AcDbEntity
  8
DRAFT
100
AcDbLine
 62
7
  6
CONTINUOUS
 10
130.2579111929
 20
122.3979957333
 11
130.3155129072
 21
122.3979957333
  0
LINE
  5
470
100
AcDbEntity
  8
ASSI
100
AcDbLine
 62
7
  6
CONTINUOUS
 10
24.3539293979
 20
122.4479957333
 11
24.0777314526
 21
122.4479957333
  0
LINE
  5
471
100
AcDbEntity
  8
DRAFT
100
AcDbLine
 62
7
  6
CONTINUOUS
 10
24.3539293979
 20
122.4479957333
 11
24.0777314526
 21
122.4479957333
  0
LINE
  5
472
100
AcDbEntity
  8
ASSI
100
AcDbLine
 62
7
  6
CONTINUOUS
 10
128.6015335073
 20
122.4479957333
 11
128.8777314526
 21
122.4479957333
  0
LINE
  5
473
100
AcDbEntity
  8
DRAFT
100
AcDbLine
 62
7
  6
CONTINUOUS
 10
128.6015335073
 20
122.4479957333
 11
128.8777314526
 21
122.4479957333
  0
LINE
  5
474
100
AcDbEntity
  8
ASSI
100
AcDbLine
 62
253
  6
CONTINUOUS
 10
130.226492076
 20
124.5640590936
 11
128.6098838162
 21
124.5640590936
  0
LINE
  5
475
100
AcDbEntity
  8
RACCORDO
100
AcDbLine
 62
253
  6
CONTINUOUS
 10
130.226492076
 20
124.5640590936
 11
128.6098838162
 21
124.5640590936
  0
LINE
  5
476
100
AcDbEntity
  8
ASSI
100
AcDbLine
 62
253
  6
CONTINUOUS
 10
24.3455790891
 20
124.5640590936
 11
22.7289708292
 21
124.5640590936
  0
LINE
  5
477
100
AcDbEntity
  8
RACCORDO
100
AcDbLine
 62
253
  6
CONTINUOUS
 10
24.3455790891
 20
124.5640590936
 11
22.7289708292
 21
124.5640590936
  0
LINE
  5
478
100
AcDbEntity
  8
ASSI
100
AcDbLine
 62
253
  6
CONTINUOUS
 10
130.2436425081
 20
125.5639067888
 11
128.5927333841
 21
125.5639067888
  0
LINE
  5
479
100
AcDbEntity
  8
RACCORDO
100
AcDbLine
 62
253
  6
CONTINUOUS
 10
130.2436425081
 20
125.5639067888
 11
128.5927333841
 21
125.5639067888
  0
LINE
  5
47A
100
AcDbEntity
  8
ASSI
100
AcDbLine
 62
253
  6
CONTINUOUS
 10
24.3627295211
 20
125.5639067888
 11
22.7118203972
 21
125.5639067888
  0
LINE
  5
47B
100
AcDbEntity
  8
RACCORDO
100
AcDbLine
 62
253
  6
CONTINUOUS
 10
24.3627295211
 20
125.5639067888
 11
22.7118203972
 21
125.5639067888
  0
LINE
  5
47C
100
AcDbEntity
  8
ASSI
100
AcDbLine
 62
7
  6
CONTINUOUS
 10
24.4293634007
 20
125.6305406684
 11
23.7562792448
 21
125.6305406684
  0
LINE
  5
47D
100
AcDbEntity
  8
DRAFT
100
AcDbLine
 62
7
  6
CONTINUOUS
 10
24.4293634007
 20
125.6305406684
 11
23.7562792448
 21
125.6305406684
  0
LINE
  5
47E
100
AcDbEntity
  8
ASSI
100
AcDbLine
 62
7
  6
CONTINUOUS
 10
128.5260995045
 20
125.6305406684
 11
129.1991836604
 21
125.6305406684
  0
LINE
  5
47F
100
AcDbEntity
  8
DRAFT
100
AcDbLine
 62
7
  6
CONTINUOUS
 10
128.5260995045
 20
125.6305406684
 11
129.1991836604
 21
125.6305406684
  0
LINE
  5
480
100
AcDbEntity
  8
ASSI
100
AcDbLine
 62
7
  6
CONTINUOUS
 10
22.6277314526
 20
125.6479957333
 11
23.7388241799
 21
125.6479957333
  0
LINE
  5
481
100
AcDbEntity
  8
DRAFT
100
AcDbLine
 62
7
  6
CONTINUOUS
 10
22.6277314526
 20
125.6479957333
 11
23.7388241799
 21
125.6479957333
  0
LINE
  5
482
100
AcDbEntity
  8
ASSI
100
AcDbLine
 62
7
  6
CONTINUOUS
 10
129.2166387254
 20
125.6479957333
 11
130.3277314526
 21
125.6479957333
  0
LINE
  5
483
100
AcDbEntity
  8
DRAFT
100
AcDbLine
 62
7
  6
CONTINUOUS
 10
129.2166387254
 20
125.6479957333
 11
130.3277314526
 21
125.6479957333
  0
LINE
  5
484
100
AcDbEntity
  8
0
100
AcDbLine
 62
7
  6
CONTINUOUS
 10
23.0272710211
 20
125.7095945905
 11
24.4393303098
 21
125.7095945905
  0
LINE
  5
485
100
AcDbEntity
  8
0
100
AcDbLine
 62
7
  6
CONTINUOUS
 10
128.5161325955
 20
125.7095945905
 11
129.9281918841
 21
125.7095945905
  0
LINE
  5
486
100
AcDbEntity
  8
0
100
AcDbLine
 62
253
  6
CONTINUOUS
 10
24.1363066686
 20
136.2073669509
 11
24.1626415825
 21
136.200844967
  0
LINE
  5
487
100
AcDbEntity
  8
DRAFT
100
AcDbLine
 62
7
  6
CONTINUOUS
 10
113.9777314526
 20
105.6979957333
 11
113.9777314526
 21
107.7656354602
  0
LINE
  5
488
100
AcDbEntity
  8
0
100
AcDbLine
 62
7
  6
CONTINUOUS
 10
117.1491836604
 20
143.0694479411
 11
117.1491836604
 21
136.0265435255
  0
LINE
  5
489
100
AcDbEntity
  8
0
100
AcDbLine
 62
253
  6
CONTINUOUS
 10
117.2191562366
 20
143.1394205173
 11
117.2191562366
 21
135.9565709493
  0
LINE
  5
48A
100
AcDbEntity
  8
0
100
AcDbLine
 62
253
  6
CONTINUOUS
 10
117.7190800842
 20
143.6393443649
 11
117.7190800842
 21
135.4566471018
  0
LINE
  5
48B
100
AcDbEntity
  8
0
100
AcDbLine
 62
7
  6
CONTINUOUS
 10
85.6777314526
 20
43.0479957333
 11
85.717010335
 21
43.0872746157
  0
LINE
  5
48C
100
AcDbEntity
  8
0
100
AcDbLine
 62
7
  6
CONTINUOUS
 10
67.2777314526
 20
36.4527261229
 11
67.2384525703
 21
36.4265435255
  0
LINE
  5
48D
100
AcDbEntity
  8
0
100
AcDbLine
 62
7
  6
CONTINUOUS
 10
67.2777314526
 20
143.0432653438
 11
67.2384525703
 21
143.0694479411
  0
LINE
  5
48E
100
AcDbEntity
  8
0
100
AcDbLine
 62
7
  6
CONTINUOUS
 10
85.6777314526
 20
136.4479957333
 11
85.717010335
 21
136.408716851
  0
LINE
  5
48F
100
AcDbEntity
  8
0
100
AcDbLine
 62
253
  6
CONTINUOUS
 10
118.2144670956
 20
140.6479957333
 11
118.2144670956
 21
143.6612600904
  0
LINE
  5
490
100
AcDbEntity
  8
0
100
AcDbLine
 62
253
  6
CONTINUOUS
 10
118.7142957581
 20
140.6479957333
 11
118.7142957581
 21
143.1614314279
  0
LINE
  5
491
100
AcDbEntity
  8
0
100
AcDbLine
 62
7
  6
CONTINUOUS
 10
118.7277314526
 20
143.1479957333
 11
118.7277314526
 21
140.6479957333
  0
LINE
  5
492
100
AcDbEntity
  8
0
100
AcDbLine
 62
253
  6
CONTINUOUS
 10
122.7277314526
 20
138.6479957333
 11
122.7277314526
 21
138.5956145791
  0
LINE
  5
493
100
AcDbEntity
  8
0
100
AcDbLine
 62
253
  6
CONTINUOUS
 10
122.7277314526
 20
136.1347313763
 11
122.7277314526
 21
136.6479957333
  0
LINE
  5
494
100
AcDbEntity
  8
0
100
AcDbLine
 62
253
  6
CONTINUOUS
 10
123.201624996
 20
44.0393443649
 11
123.2016249961
 21
43.5394205173
  0
LINE
  5
495
100
AcDbEntity
  8
0
100
AcDbLine
 62
7
  6
CONTINUOUS
 10
82.5562792448
 20
36.4265435255
 11
82.4863066686
 21
36.3565709493
  0
LWPOLYLINE
  5
496
100
AcDbEntity
  8
0
100
AcDbPolyline
 62
253
  6
CONTINUOUS
 90
25
 70
0
 10
29.7538379092
 20
135.4566471018
 10
29.7108896114
 20
135.4560594052
 10
29.666738782
 20
135.4531226077
 10
29.6213854209
 20
135.4478367093
 10
29.5747102371
 20
135.4404129924
 10
29.5268325216
 20
135.4306401746
 10
29.4781101479
 20
135.4178844088
 10
29.4285017218
 20
135.4021831917
 10
29.3780486376
 20
135.3834990266
 10
29.3272329506
 20
135.3610855752
 10
29.2759868212
 20
135.3350223198
 10
29.224378089
 20
135.3052297781
 10
29.1730923292
 20
135.2707231648
 10
29.1218796607
 20
135.2314917396
 10
29.0709899645
 20
135.1875462427
 10
29.0218584586
 20
135.13793411
 10
28.9741236676
 20
135.0822759305
 10
28.9281470669
 20
135.0209511152
 10
28.8864483005
 20
134.954145332
 10
28.8490206462
 20
134.8813320842
 10
28.8158708263
 20
134.8030378685
 10
28.7895386507
 20
134.7210278439
 10
28.7708707228
 20
134.6358903965
 10
28.7590204394
 20
134.5470371401
 10
28.7539878002
 20
134.4544680747
  0
LINE
  5
497
100
AcDbEntity
  8
0
100
AcDbLine
 62
253
  6
CONTINUOUS
 10
28.7539878002
 20
134.4544680747
 11
28.2540600635
 21
134.4533026372
  0
LINE
  5
498
100
AcDbEntity
  8
0
100
AcDbLine
 62
253
  6
CONTINUOUS
 10
117.7190800842
 20
135.4566471018
 11
29.7538379092
 21
135.4566471018
  0
LINE
  5
499
100
AcDbEntity
  8
0
100
AcDbLine
 62
253
  6
CONTINUOUS
 10
117.2191562366
 20
135.9565709493
 11
29.7538379092
 21
135.9565709493
  0
LINE
  5
49A
100
AcDbEntity
  8
0
100
AcDbLine
 62
7
  6
CONTINUOUS
 10
29.7275029954
 20
135.9829058632
 11
28.3014731174
 21
135.9829058632
  0
LINE
  5
49B
100
AcDbEntity
  8
0
100
AcDbLine
 62
7
  6
CONTINUOUS
 10
28.3248295504
 20
136.0265435255
 11
117.1491836604
 21
136.0265435255
  0
LINE
  5
49C
100
AcDbEntity
  8
0
100
AcDbLine
 62
253
  6
CONTINUOUS
 10
124.7726156776
 20
136.1347313763
 11
122.7277314526
 21
136.1347313763
  0
LINE
  5
49D
100
AcDbEntity
  8
0
100
AcDbLine
 62
253
  6
CONTINUOUS
 10
23.6363828215
 20
136.2073669509
 11
24.1363066686
 21
136.2073669509
  0
LINE
  5
49E
100
AcDbEntity
  8
0
100
AcDbLine
 62
7
  6
CONTINUOUS
 10
85.717010335
 20
136.408716851
 11
83.4384525703
 21
136.408716851
  0
LINE
  5
49F
100
AcDbEntity
  8
0
100
AcDbLine
 62
7
  6
CONTINUOUS
 10
69.517010335
 20
136.408716851
 11
67.2384525703
 21
136.408716851
  0
LINE
  5
4A0
100
AcDbEntity
  8
0
100
AcDbLine
 62
7
  6
CONTINUOUS
 10
46.517010335
 20
136.408716851
 11
44.2384525703
 21
136.408716851
  0
LINE
  5
4A1
100
AcDbEntity
  8
0
100
AcDbLine
 62
7
  6
CONTINUOUS
 10
85.6777314526
 20
136.4479957333
 11
83.4777314526
 21
136.4479957333
  0
LINE
  5
4A2
100
AcDbEntity
  8
0
100
AcDbLine
 62
7
  6
CONTINUOUS
 10
46.4777314526
 20
136.4479957333
 11
44.2777314526
 21
136.4479957333
  0
LINE
  5
4A3
100
AcDbEntity
  8
ASSI
100
AcDbLine
 62
7
  6
CONTINUOUS
 10
85.6777314526
 20
136.4979957333
 11
83.4777314526
 21
136.4979957333
  0
LINE
  5
4A4
100
AcDbEntity
  8
RACCORDO
100
AcDbLine
 62
7
  6
CONTINUOUS
 10
85.6777314526
 20
136.4979957333
 11
83.4777314526
 21
136.4979957333
  0
LINE
  5
4A5
100
AcDbEntity
  8
ASSI
100
AcDbLine
 62
7
  6
CONTINUOUS
 10
69.4777314526
 20
136.4979957333
 11
67.2777314526
 21
136.4979957333
  0
LINE
  5
4A6
100
AcDbEntity
  8
RACCORDO
100
AcDbLine
 62
7
  6
CONTINUOUS
 10
69.4777314526
 20
136.4979957333
 11
67.2777314526
 21
136.4979957333
  0
LINE
  5
4A7
100
AcDbEntity
  8
ASSI
100
AcDbLine
 62
7
  6
CONTINUOUS
 10
46.4777314526
 20
136.4979957333
 11
44.2777314526
 21
136.4979957333
  0
LINE
  5
4A8
100
AcDbEntity
  8
RACCORDO
100
AcDbLine
 62
7
  6
CONTINUOUS
 10
46.4777314526
 20
136.4979957333
 11
44.2777314526
 21
136.4979957333
  0
LWPOLYLINE
  5
4A9
100
AcDbEntity
  8
0
100
AcDbPolyline
 62
7
  6
CONTINUOUS
 90
8
 70
0
 10
130.2991692123
 20
71.6141805053
 10
130.2945583252
 20
71.6642376754
 10
130.2809353049
 20
71.7147573841
 10
130.25872469
 20
71.7621479026
 10
130.228579151
 20
71.8049940307
 10
130.1914324129
 20
71.8419519854
 10
130.1485184859
 20
71.8718365333
 10
130.141039501
 20
71.8759895278
  0
LWPOLYLINE
  5
4AA
100
AcDbEntity
  8
0
100
AcDbPolyline
 62
253
  6
CONTINUOUS
 90
10
 70
0
 10
130.2314545001
 20
68.9087926812
 10
130.2268561299
 20
68.9607809002
 10
130.2132951948
 20
69.0111928234
 10
130.1911825583
 20
69.0584985314
 10
130.1611886265
 20
69.1012622197
 10
130.1242231266
 20
69.1381856705
 10
130.0814075958
 20
69.1681477351
 10
130.0340412258
 20
69.1902385406
 10
129.9835613974
 20
69.2037870809
 10
129.9315001915
 20
69.2083815415
  0
LINE
  5
4AB
100
AcDbEntity
  8
0
100
AcDbLine
 62
253
  6
CONTINUOUS
 10
124.7277314526
 20
138.6479957333
 11
124.7277314526
 21
138.5956145791
  0
LINE
  5
4AC
100
AcDbEntity
  8
0
100
AcDbLine
 62
253
  6
CONTINUOUS
 10
124.7277314526
 20
142.6479957333
 11
124.7277314526
 21
142.7003768876
  0
LINE
  5
4AD
100
AcDbEntity
  8
0
100
AcDbLine
 62
253
  6
CONTINUOUS
 10
124.7726156776
 20
136.1347313763
 11
124.7726156776
 21
136.6345600388
  0
LWPOLYLINE
  5
4AE
100
AcDbEntity
  8
0
100
AcDbPolyline
 62
253
  6
CONTINUOUS
 90
10
 70
0
 10
130.2314545001
 20
108.0871987854
 10
130.226855257
 20
108.035205647
 10
130.2132922068
 20
107.9847904618
 10
130.191176978
 20
107.9374832931
 10
130.1611807516
 20
107.8947198786
 10
130.1242138906
 20
107.857798056
 10
130.0813983119
 20
107.8278383752
 10
130.0340334364
 20
107.8057500905
 10
129.983556753
 20
107.7922035647
 10
129.9315001916
 20
107.787609925
  0
LINE
  5
4AF
100
AcDbEntity
  8
0
100
AcDbLine
 62
7
  6
CONTINUOUS
 10
83.4777314526
 20
36.4527261229
 11
83.4384525703
 21
36.4265435255
  0
LWPOLYLINE
  5
4B0
100
AcDbEntity
  8
0
100
AcDbPolyline
 62
7
  6
CONTINUOUS
 90
10
 70
0
 10
82.4863066686
 20
36.3565709493
 10
82.4653992269
 20
36.3432500658
 10
82.4339079989
 20
36.3101742642
 10
82.3918329844
 20
36.2620972651
 10
82.3366090193
 20
36.2044171538
 10
82.2708012677
 20
36.1408883849
 10
82.2021052228
 20
36.0723695035
 10
82.1330860489
 20
36.0003183518
 10
82.0611785817
 20
35.9277815606
 10
81.9863828211
 20
35.8566471018
  0
LWPOLYLINE
  5
4B1
100
AcDbEntity
  8
0
100
AcDbPolyline
 62
253
  6
CONTINUOUS
 90
25
 70
0
 10
29.7538379092
 20
135.9565709493
 10
29.6897205328
 20
135.9551936929
 10
29.6234524412
 20
135.9508805092
 10
29.5551833096
 20
135.9433383601
 10
29.4851573404
 20
135.9322847511
 10
29.4135139948
 20
135.9174198241
 10
29.3402963986
 20
135.8983966846
 10
29.2658591307
 20
135.8749264583
 10
29.1904441877
 20
135.8466861859
 10
29.1140135331
 20
135.8131965837
 10
29.0371229782
 20
135.7741833972
 10
28.9601238226
 20
135.7292746158
 10
28.8828500077
 20
135.677680258
 10
28.8059613342
 20
135.6189940802
 10
28.7302501979
 20
135.5528986834
 10
28.6560403281
 20
135.4785652385
 10
28.5841138942
 20
135.3953686306
 10
28.5159104304
 20
135.3033849276
 10
28.4528947834
 20
135.2029397343
 10
28.3961594341
 20
135.0939001525
 10
28.3471267502
 20
134.9767673198
 10
28.3074420461
 20
134.8532349449
 10
28.278162454
 20
134.7244339386
 10
28.2600769252
 20
134.5907962869
 10
28.2540702036
 20
134.4533027141
  0
LINE
  5
4B2
100
AcDbEntity
  8
0
100
AcDbLine
 62
253
  6
CONTINUOUS
 10
124.7726156776
 20
136.6345600388
 11
122.7277314526
 21
136.6345600388
  0
LINE
  5
4B3
100
AcDbEntity
  8
0
100
AcDbLine
 62
7
  6
CONTINUOUS
 10
122.7277314526
 20
136.6479957333
 11
124.7942979095
 21
136.6479957333
  0
LINE
  5
4B4
100
AcDbEntity
  8
0
100
AcDbLine
 62
7
  6
CONTINUOUS
 10
124.7277314526
 20
138.5956145791
 11
122.7277314526
 21
138.5956145791
  0
LINE
  5
4B5
100
AcDbEntity
  8
0
100
AcDbLine
 62
253
  6
CONTINUOUS
 10
118.2144670956
 20
140.6479957333
 11
118.7277314526
 21
140.6479957333
  0
LINE
  5
4B6
100
AcDbEntity
  8
0
100
AcDbLine
 62
7
  6
CONTINUOUS
 10
83.4777314526
 20
143.0432653438
 11
83.4384525703
 21
143.0694479411
  0
LWPOLYLINE
  5
4B7
100
AcDbEntity
  8
0
100
AcDbPolyline
 62
7
  6
CONTINUOUS
 90
10
 70
0
 10
130.3224035433
 20
71.793194292
 10
130.3180006349
 20
71.8175923985
 10
130.303759604
 20
71.8432332983
 10
130.2813225247
 20
71.8701169914
 10
130.2534789778
 20
71.900447999
 10
130.2212674962
 20
71.9320218
 10
130.1820413155
 20
71.9582248303
 10
130.1345432078
 20
71.9768525686
 10
130.0808619152
 20
71.9901095363
 10
130.0224492347
 20
71.9979957333
  0
LWPOLYLINE
  5
4B8
100
AcDbEntity
  8
0
100
AcDbPolyline
 62
253
  6
CONTINUOUS
 90
10
 70
0
 10
130.2892389199
 20
71.0427122164
 10
130.2840910872
 20
71.0793560006
 10
130.2700812441
 20
71.1148981394
 10
130.2476306147
 20
71.148270236
 10
130.2173859649
 20
71.1784927265
 10
130.1802732983
 20
71.2046267826
 10
130.1375233319
 20
71.2258390835
 10
130.0904957473
 20
71.2415220833
 10
130.0405845252
 20
71.2512715583
 10
129.9892846111
 20
71.2548442235
  0
LWPOLYLINE
  5
4B9
100
AcDbEntity
  8
0
100
AcDbPolyline
 62
253
  6
CONTINUOUS
 90
10
 70
0
 10
130.2991781229
 20
71.6121287723
 10
130.2940329308
 20
71.6487626055
 10
130.2800306665
 20
71.6842953766
 10
130.2575923257
 20
71.7176596194
 10
130.227367646
 20
71.747873733
 10
130.1902795921
 20
71.7740035676
 10
130.1475432854
 20
71.7952224641
 10
130.1005080434
 20
71.810919474
 10
130.0505697255
 20
71.8206820795
 10
129.9992238143
 20
71.8242608066
  0
LWPOLYLINE
  5
4BA
100
AcDbEntity
  8
0
100
AcDbPolyline
 62
253
  6
CONTINUOUS
 90
6
 70
0
 10
130.2292637981
 20
108.1404841679
 10
130.229620756
 20
108.1236388453
 10
130.2300191081
 20
108.109743669
 10
130.2304561779
 20
108.0992785614
 10
130.2309346419
 20
108.0917636002
 10
130.2314545001
 20
108.0871987854
  0
LWPOLYLINE
  5
4BB
100
AcDbEntity
  8
0
100
AcDbPolyline
 62
253
  6
CONTINUOUS
 90
4
 70
0
 10
129.9300637553
 20
107.8440476388
 10
129.9305009899
 20
107.8161007182
 10
129.9309798021
 20
107.7968778109
 10
129.9315001916
 20
107.787609925
  0
LINE
  5
4BC
100
AcDbEntity
  8
0
100
AcDbLine
 62
253
  6
CONTINUOUS
 10
130.2287015266
 20
108.1786292815
 11
130.2292637981
 21
108.1404841679
  0
LINE
  5
4BD
100
AcDbEntity
  8
0
100
AcDbLine
 62
253
  6
CONTINUOUS
 10
129.9293087724
 20
107.9207084474
 11
129.9300637553
 21
107.8440476388
  0
LINE
  5
4BE
100
AcDbEntity
  8
0
100
AcDbLine
 62
253
  6
CONTINUOUS
 10
130.2283382319
 20
108.2215294846
 11
130.2287015266
 21
108.1786292815
  0
LINE
  5
4BF
100
AcDbEntity
  8
0
100
AcDbLine
 62
253
  6
CONTINUOUS
 10
130.2991781229
 20
71.6121287723
 11
130.2991692123
 21
71.6141805053
  0
LINE
  5
4C0
100
AcDbEntity
  8
0
100
AcDbLine
 62
253
  6
CONTINUOUS
 10
130.2281628732
 20
108.2648256683
 11
130.2283382319
 21
108.2215294846
  0
LINE
  5
4C1
100
AcDbEntity
  8
0
100
AcDbLine
 62
253
  6
CONTINUOUS
 10
129.9283842933
 20
108.1236533969
 11
129.9293087724
 21
107.9207084474
  0
LINE
  5
4C2
100
AcDbEntity
  8
DRAFT
100
AcDbLine
 62
7
  6
CONTINUOUS
 10
128.4393412103
 20
62.0479957333
 11
128.4393412103
 21
57.4479957333
  0
LINE
  5
4C3
100
AcDbEntity
  8
DRAFT
100
AcDbLine
 62
7
  6
CONTINUOUS
 10
128.4393412103
 20
117.4479957333
 11
128.4393412103
 21
122.0479957333
  0
LINE
  5
4C4
100
AcDbEntity
  8
DRAFT
100
AcDbLine
 62
7
  6
CONTINUOUS
 10
128.5161325955
 20
125.7095945905
 11
128.5161325955
 21
122.0479957333
  0
LINE
  5
4C5
100
AcDbEntity
  8
DRAFT
100
AcDbLine
 62
7
  6
CONTINUOUS
 10
128.5161325955
 20
53.7863968762
 11
128.5161325955
 21
57.4479957333
  0
LINE
  5
4C6
100
AcDbEntity
  8
DRAFT
100
AcDbLine
 62
7
  6
CONTINUOUS
 10
128.5161325955
 20
62.0479957333
 11
128.5161325955
 21
65.7095945905
  0
LINE
  5
4C7
100
AcDbEntity
  8
DRAFT
100
AcDbLine
 62
7
  6
CONTINUOUS
 10
128.5161325955
 20
113.7863968762
 11
128.5161325955
 21
117.4479957333
  0
LINE
  5
4C8
100
AcDbEntity
  8
ASSI
100
AcDbLine
 62
7
  6
CONTINUOUS
 10
128.5758960598
 20
122.0479957333
 11
128.5758960598
 21
117.4479957333
  0
LINE
  5
4C9
100
AcDbEntity
  8
DRAFT
100
AcDbLine
 62
7
  6
CONTINUOUS
 10
128.5758960598
 20
122.0479957333
 11
128.5758960598
 21
117.4479957333
  0
LINE
  5
4CA
100
AcDbEntity
  8
ASSI
100
AcDbLine
 62
7
  6
CONTINUOUS
 10
128.5758960598
 20
62.0479957333
 11
128.5758960598
 21
57.4479957333
  0
LINE
  5
4CB
100
AcDbEntity
  8
DRAFT
100
AcDbLine
 62
7
  6
CONTINUOUS
 10
128.5758960598
 20
62.0479957333
 11
128.5758960598
 21
57.4479957333
  0
LINE
  5
4CC
100
AcDbEntity
  8
ASSI
100
AcDbLine
 62
7
  6
CONTINUOUS
 10
128.6015335073
 20
122.4479957333
 11
128.6015335073
 21
117.0479957333
  0
LINE
  5
4CD
100
AcDbEntity
  8
DRAFT
100
AcDbLine
 62
7
  6
CONTINUOUS
 10
128.6015335073
 20
122.4479957333
 11
128.6015335073
 21
117.0479957333
  0
LINE
  5
4CE
100
AcDbEntity
  8
ASSI
100
AcDbLine
 62
7
  6
CONTINUOUS
 10
128.6015335073
 20
57.0479957333
 11
128.6015335073
 21
62.4479957333
  0
LINE
  5
4CF
100
AcDbEntity
  8
DRAFT
100
AcDbLine
 62
7
  6
CONTINUOUS
 10
128.6015335073
 20
57.0479957333
 11
128.6015335073
 21
62.4479957333
  0
LINE
  5
4D0
100
AcDbEntity
  8
ASSI
100
AcDbLine
 62
7
  6
CONTINUOUS
 10
128.6098838162
 20
54.931932373
 11
128.6098838162
 21
57.0479957333
  0
LINE
  5
4D1
100
AcDbEntity
  8
RACCORDO
100
AcDbLine
 62
7
  6
CONTINUOUS
 10
128.6098838162
 20
54.931932373
 11
128.6098838162
 21
57.0479957333
  0
LINE
  5
4D2
100
AcDbEntity
  8
ASSI
100
AcDbLine
 62
7
  6
CONTINUOUS
 10
128.6098838162
 20
62.4479957333
 11
128.6098838162
 21
64.5640590936
  0
LINE
  5
4D3
100
AcDbEntity
  8
RACCORDO
100
AcDbLine
 62
7
  6
CONTINUOUS
 10
128.6098838162
 20
62.4479957333
 11
128.6098838162
 21
64.5640590936
  0
LINE
  5
4D4
100
AcDbEntity
  8
ASSI
100
AcDbLine
 62
7
  6
CONTINUOUS
 10
128.6098838162
 20
114.931932373
 11
128.6098838162
 21
117.0479957333
  0
LINE
  5
4D5
100
AcDbEntity
  8
RACCORDO
100
AcDbLine
 62
7
  6
CONTINUOUS
 10
128.6098838162
 20
114.931932373
 11
128.6098838162
 21
117.0479957333
  0
LINE
  5
4D6
100
AcDbEntity
  8
ASSI
100
AcDbLine
 62
7
  6
CONTINUOUS
 10
128.6098838162
 20
122.4479957333
 11
128.6098838162
 21
124.5640590936
  0
LINE
  5
4D7
100
AcDbEntity
  8
RACCORDO
100
AcDbLine
 62
7
  6
CONTINUOUS
 10
128.6098838162
 20
122.4479957333
 11
128.6098838162
 21
124.5640590936
  0
LINE
  5
4D8
100
AcDbEntity
  8
0
100
AcDbLine
 62
7
  6
CONTINUOUS
 10
128.7491836604
 20
36.4265435255
 11
128.7491836604
 21
42.8428563527
  0
LINE
  5
4D9
100
AcDbEntity
  8
0
100
AcDbLine
 62
7
  6
CONTINUOUS
 10
128.7928213228
 20
43.2951464996
 11
128.7928213228
 21
42.9358467815
  0
LINE
  5
4DA
100
AcDbEntity
  8
0
100
AcDbLine
 62
253
  6
CONTINUOUS
 10
128.8191562366
 20
43.2886245157
 11
128.8191562366
 21
36.3565709493
  0
LINE
  5
4DB
100
AcDbEntity
  8
0
100
AcDbLine
 62
7
  6
CONTINUOUS
 10
128.8277314526
 20
135.759045874
 11
128.8277314526
 21
143.1479957333
  0
LINE
  5
4DC
100
AcDbEntity
  8
0
100
AcDbLine
 62
253
  6
CONTINUOUS
 10
128.8411671472
 20
143.1614314279
 11
128.8411671472
 21
135.7555335691
  0
LINE
  5
4DD
100
AcDbEntity
  8
ASSI
100
AcDbLine
 62
7
  6
CONTINUOUS
 10
128.8777314526
 20
122.4479957333
 11
128.8777314526
 21
117.0479957333
  0
LINE
  5
4DE
100
AcDbEntity
  8
0
100
AcDbLine
 62
7
  6
CONTINUOUS
 10
128.8777314526
 20
122.4479957333
 11
128.8777314526
 21
117.0479957333
  0
LINE
  5
4DF
100
AcDbEntity
  8
ASSI
100
AcDbLine
 62
7
  6
CONTINUOUS
 10
128.8777314526
 20
57.0479957333
 11
128.8777314526
 21
62.4479957333
  0
LINE
  5
4E0
100
AcDbEntity
  8
0
100
AcDbLine
 62
7
  6
CONTINUOUS
 10
128.8777314526
 20
57.0479957333
 11
128.8777314526
 21
62.4479957333
  0
LINE
  5
4E1
100
AcDbEntity
  8
0
100
AcDbLine
 62
253
  6
CONTINUOUS
 10
129.2282984975
 20
144.5484104734
 11
129.2282984975
 21
144.2484561648
  0
LINE
  5
4E2
100
AcDbEntity
  8
0
100
AcDbLine
 62
253
  6
CONTINUOUS
 10
129.2282984975
 20
34.9475809933
 11
129.2282984975
 21
35.2475353018
  0
LINE
  5
4E3
100
AcDbEntity
  8
0
100
AcDbLine
 62
253
  6
CONTINUOUS
 10
129.3190800837
 20
43.2886245157
 11
129.3190800842
 21
35.8566471018
  0
LINE
  5
4E4
100
AcDbEntity
  8
0
100
AcDbLine
 62
253
  6
CONTINUOUS
 10
129.3409958096
 20
143.6612600904
 11
129.3409958096
 21
135.9049083213
  0
LINE
  5
4E5
100
AcDbEntity
  8
0
100
AcDbLine
 62
253
  6
CONTINUOUS
 10
129.9281918841
 20
143.5485627782
 11
129.9281918841
 21
125.7095945905
  0
LINE
  5
4E6
100
AcDbEntity
  8
0
100
AcDbLine
 62
253
  6
CONTINUOUS
 10
129.9281918841
 20
113.7863968762
 11
129.9283842933
 21
108.1236533969
  0
LINE
  5
4E7
100
AcDbEntity
  8
0
100
AcDbLine
 62
253
  6
CONTINUOUS
 10
129.9281918841
 20
53.7863968762
 11
129.9281918841
 21
35.9474286884
  0
LINE
  5
4E8
100
AcDbEntity
  8
0
100
AcDbLine
 62
253
  6
CONTINUOUS
 10
129.9892846114
 20
71.2548442508
 11
129.9892846114
 21
69.3669762851
  0
LINE
  5
4E9
100
AcDbEntity
  8
0
100
AcDbLine
 62
253
  6
CONTINUOUS
 10
129.9992238143
 20
71.9117176327
 11
129.9992238143
 21
71.8242608066
  0
LINE
  5
4EA
100
AcDbEntity
  8
0
100
AcDbLine
 62
253
  6
CONTINUOUS
 10
130.0224492347
 20
107.4979957333
 11
130.0224492347
 21
71.9979957333
  0
LINE
  5
4EB
100
AcDbEntity
  8
ASSI
100
AcDbLine
 62
7
  6
CONTINUOUS
 10
130.226492076
 20
54.931932373
 11
130.226492076
 21
64.5640590936
  0
LINE
  5
4EC
100
AcDbEntity
  8
RACCORDO
100
AcDbLine
 62
7
  6
CONTINUOUS
 10
130.226492076
 20
54.931932373
 11
130.226492076
 21
64.5640590936
  0
LINE
  5
4ED
100
AcDbEntity
  8
ASSI
100
AcDbLine
 62
7
  6
CONTINUOUS
 10
130.226492076
 20
114.931932373
 11
130.226492076
 21
124.5640590936
  0
LINE
  5
4EE
100
AcDbEntity
  8
RACCORDO
100
AcDbLine
 62
7
  6
CONTINUOUS
 10
130.226492076
 20
114.931932373
 11
130.226492076
 21
124.5640590936
  0
LINE
  5
4EF
100
AcDbEntity
  8
0
100
AcDbLine
 62
253
  6
CONTINUOUS
 10
130.2281461927
 20
143.5485627782
 11
130.2281461927
 21
125.7147397201
  0
LINE
  5
4F0
100
AcDbEntity
  8
0
100
AcDbLine
 62
253
  6
CONTINUOUS
 10
130.2281461927
 20
113.7812517466
 11
130.2281628732
 21
108.2648256683
  0
LINE
  5
4F1
100
AcDbEntity
  8
0
100
AcDbLine
 62
253
  6
CONTINUOUS
 10
130.2281461927
 20
53.7812517466
 11
130.2281461927
 21
35.9474286884
  0
LINE
  5
4F2
100
AcDbEntity
  8
ASSI
100
AcDbLine
 62
7
  6
CONTINUOUS
 10
130.2579111929
 20
57.0979957333
 11
130.2579111929
 21
62.3979957333
  0
LINE
  5
4F3
100
AcDbEntity
  8
DRAFT
100
AcDbLine
 62
7
  6
CONTINUOUS
 10
130.2579111929
 20
57.0979957333
 11
130.2579111929
 21
62.3979957333
  0
LINE
  5
4F4
100
AcDbEntity
  8
ASSI
100
AcDbLine
 62
7
  6
CONTINUOUS
 10
130.2579111929
 20
117.0979957333
 11
130.2579111929
 21
122.3979957333
  0
LINE
  5
4F5
100
AcDbEntity
  8
DRAFT
100
AcDbLine
 62
7
  6
CONTINUOUS
 10
130.2579111929
 20
117.0979957333
 11
130.2579111929
 21
122.3979957333
  0
LINE
  5
4F6
100
AcDbEntity
  8
0
100
AcDbLine
 62
253
  6
CONTINUOUS
 10
130.2892389199
 20
71.0427122164
 11
130.2892389199
 21
69.0822869151
  0
LINE
  5
4F7
100
AcDbEntity
  8
ASSI
100
AcDbLine
 62
7
  6
CONTINUOUS
 10
130.3155129072
 20
122.3979957333
 11
130.3155129072
 21
117.0979957333
  0
LINE
  5
4F8
100
AcDbEntity
  8
DRAFT
100
AcDbLine
 62
7
  6
CONTINUOUS
 10
130.3155129072
 20
122.3979957333
 11
130.3155129072
 21
117.0979957333
  0
LINE
  5
4F9
100
AcDbEntity
  8
ASSI
100
AcDbLine
 62
7
  6
CONTINUOUS
 10
130.3155129072
 20
62.3979957333
 11
130.3155129072
 21
57.0979957333
  0
LINE
  5
4FA
100
AcDbEntity
  8
DRAFT
100
AcDbLine
 62
7
  6
CONTINUOUS
 10
130.3155129072
 20
62.3979957333
 11
130.3155129072
 21
57.0979957333
  0
LINE
  5
4FB
100
AcDbEntity
  8
0
100
AcDbLine
 62
7
  6
CONTINUOUS
 10
130.3224035433
 20
107.7027971747
 11
130.3224035433
 21
71.793194292
  0
LINE
  5
4FC
100
AcDbEntity
  8
RACCORDO
100
AcDbLine
 62
7
  6
CONTINUOUS
 10
130.3277314526
 20
35.8478434285
 11
130.3277314526
 21
53.8479957333
  0
LINE
  5
4FD
100
AcDbEntity
  8
DRAFT
100
AcDbLine
 62
7
  6
CONTINUOUS
 10
130.3277314526
 20
53.8479957333
 11
130.3277314526
 21
65.6479957333
  0
LINE
  5
4FE
100
AcDbEntity
  8
ASSI
100
AcDbLine
 62
7
  6
CONTINUOUS
 10
130.3277314526
 20
43.4979195809
 11
130.3277314526
 21
68.1668860588
  0
LINE
  5
4FF
100
AcDbEntity
  8
0
100
AcDbLine
 62
7
  6
CONTINUOUS
 10
130.3277314526
 20
65.6479957333
 11
130.3277314526
 21
68.1668860588
  0
LINE
  5
500
100
AcDbEntity
  8
DRAFT
100
AcDbLine
 62
7
  6
CONTINUOUS
 10
130.3277314526
 20
65.8143249801
 11
130.3277314526
 21
68.441785411
  0
LINE
  5
501
100
AcDbEntity
  8
0
100
AcDbLine
 62
7
  6
CONTINUOUS
 10
130.3277314526
 20
71.6141805053
 11
130.3277314526
 21
71.6976752983
  0
LINE
  5
502
100
AcDbEntity
  8
0
100
AcDbLine
 62
7
  6
CONTINUOUS
 10
130.3277314526
 20
107.7983160308
 11
130.3277314526
 21
113.2479957333
  0
LINE
  5
503
100
AcDbEntity
  8
0
100
AcDbLine
 62
7
  6
CONTINUOUS
 10
130.3277314526
 20
113.372259802
 11
130.3277314526
 21
113.8479957333
  0
LINE
  5
504
100
AcDbEntity
  8
DRAFT
100
AcDbLine
 62
7
  6
CONTINUOUS
 10
130.3277314526
 20
113.2479957333
 11
130.3277314526
 21
113.6816664866
  0
LINE
  5
505
100
AcDbEntity
  8
DRAFT
100
AcDbLine
 62
7
  6
CONTINUOUS
 10
130.3277314526
 20
113.8479957333
 11
130.3277314526
 21
125.6479957333
  0
LINE
  5
506
100
AcDbEntity
  8
ASSI
100
AcDbLine
 62
7
  6
CONTINUOUS
 10
130.3277314526
 20
113.372259802
 11
130.3277314526
 21
135.9980718857
  0
LINE
  5
507
100
AcDbEntity
  8
RACCORDO
100
AcDbLine
 62
7
  6
CONTINUOUS
 10
130.3277314526
 20
125.6479957333
 11
130.3277314526
 21
143.6481480382
  0
LINE
  5
508
100
AcDbEntity
  8
0
100
AcDbLine
 62
253
  6
CONTINUOUS
 10
129.928728993
 20
68.976061679
 11
129.9281918841
 21
65.7095945905
  0
LINE
  5
509
100
AcDbEntity
  8
0
100
AcDbLine
 62
253
  6
CONTINUOUS
 10
130.2283054963
 20
68.7670225273
 11
130.2281461927
 21
65.7147397201
  0
LINE
  5
50A
100
AcDbEntity
  8
0
100
AcDbLine
 62
253
  6
CONTINUOUS
 10
129.9296395735
 20
69.1145262506
 11
129.928728993
 21
68.976061679
  0
LINE
  5
50B
100
AcDbEntity
  8
0
100
AcDbLine
 62
253
  6
CONTINUOUS
 10
130.2286867955
 20
68.8160891915
 11
130.2283054963
 21
68.7670225273
  0
LINE
  5
50C
100
AcDbEntity
  8
0
100
AcDbLine
 62
253
  6
CONTINUOUS
 10
129.9992238143
 20
71.8242608066
 11
129.9892846114
 21
71.2548442508
  0
LINE
  5
50D
100
AcDbEntity
  8
0
100
AcDbLine
 62
253
  6
CONTINUOUS
 10
130.2991781229
 20
71.6121287723
 11
130.2892389199
 21
71.0427122164
  0
LWPOLYLINE
  5
50E
100
AcDbEntity
  8
0
100
AcDbPolyline
 62
253
  6
CONTINUOUS
 90
22
 70
0
 10
129.9281918841
 20
35.9474286884
 10
129.9274740882
 20
35.9095961598
 10
129.9242650146
 20
35.8710351175
 10
129.9185646632
 20
35.8317455614
 10
129.9105682599
 20
35.7915858398
 10
129.9000805789
 20
35.7506976044
 10
129.8865159428
 20
35.7095058106
 10
129.869898524
 20
35.6679258597
 10
129.8502041501
 20
35.6260423504
 10
129.8267746269
 20
35.5845340335
 10
129.7995750507
 20
35.5432355284
 10
129.7686403251
 20
35.5023122157
 10
129.7334169676
 20
35.4629389885
 10
129.6937234421
 20
35.4249190658
 10
129.6497412846
 20
35.3884492287
 10
129.6014616201
 20
35.3552947139
 10
129.5486303693
 20
35.3253766955
 10
129.4915016114
 20
35.2987739993
 10
129.430828709
 20
35.2774883404
 10
129.366862783
 20
35.262186957
 10
129.2993527125
 20
35.2522026108
 10
129.2282984975
 20
35.2475353018
  0
LWPOLYLINE
  5
50F
100
AcDbEntity
  8
0
100
AcDbPolyline
 62
253
  6
CONTINUOUS
 90
22
 70
0
 10
130.2281461927
 20
35.9474286884
 10
130.2266985946
 20
35.89372767
 10
130.2221909978
 20
35.8385439063
 10
130.2143647634
 20
35.7820689758
 10
130.2029887781
 20
35.7246219035
 10
130.187807544
 20
35.6663574895
 10
130.1684869057
 20
35.6072823915
 10
130.1447722151
 20
35.5477717579
 10
130.1164036208
 20
35.4881726438
 10
130.0829447725
 20
35.4285607942
 10
130.0441134638
 20
35.3694250937
 10
129.9997019986
 20
35.3113642041
 10
129.9493209915
 20
35.2547763689
 10
129.8927488112
 20
35.2003367052
 10
129.8299504599
 20
35.1488945002
 10
129.7608653577
 20
35.1012512693
 10
129.6855734382
 20
35.0583020815
 10
129.604303203
 20
35.0209991374
 10
129.517378905
 20
34.9903026396
 10
129.4252793958
 20
34.967191428
 10
129.3286514921
 20
34.9526381995
 10
129.2282984975
 20
34.9475809933
  0
LWPOLYLINE
  5
510
100
AcDbEntity
  8
0
100
AcDbPolyline
 62
253
  6
CONTINUOUS
 90
5
 70
0
 10
129.9315001916
 20
69.2083815416
 10
129.9311140058
 20
69.2026165926
 10
129.9307361947
 20
69.1906422495
 10
129.9303667582
 20
69.1721072667
 10
129.9296395735
 20
69.1145262506
  0
LWPOLYLINE
  5
511
100
AcDbEntity
  8
0
100
AcDbPolyline
 62
7
  6
CONTINUOUS
 90
10
 70
0
 10
124.7277808269
 20
45.0198851996
 10
124.699448273
 20
44.7444459018
 10
124.6324565728
 20
44.4921241061
 10
124.5268057262
 20
44.2629198125
 10
124.377054943
 20
44.0516506504
 10
124.1886450134
 20
43.8634989904
 10
123.9778983082
 20
43.7140119445
 10
123.7502556177
 20
43.6083718834
 10
123.5002761516
 20
43.5413964364
 10
123.2279599099
 20
43.5130856035
  0
LWPOLYLINE
  5
512
100
AcDbEntity
  8
0
100
AcDbPolyline
 62
253
  6
CONTINUOUS
 90
8
 70
0
 10
130.2314545001
 20
68.9087926812
 10
130.2310690922
 20
68.9066522467
 10
130.2306918999
 20
68.9018345654
 10
130.2303229231
 20
68.8943396374
 10
130.2299553578
 20
68.8841874745
 10
130.2295960082
 20
68.8713580649
 10
130.2292652859
 20
68.8557913733
 10
130.2286867955
 20
68.8160891915
  0
LINE
  5
513
100
AcDbEntity
  8
0
100
AcDbLine
 62
253
  6
CONTINUOUS
 10
130.0026731838
 20
71.9220741565
 11
129.9992238143
 21
71.9117176327
  0
LINE
  5
514
100
AcDbEntity
  8
0
100
AcDbLine
 62
253
  6
CONTINUOUS
 10
130.3277314526
 20
71.6976752983
 11
130.2991781229
 21
71.6121287723
  0
LINE
  5
515
100
AcDbEntity
  8
ASSI
100
AcDbLine
 62
7
  6
CONTINUOUS
 10
129.2166387254
 20
65.6479957333
 11
129.1991836604
 21
65.6305406684
  0
LINE
  5
516
100
AcDbEntity
  8
DRAFT
100
AcDbLine
 62
7
  6
CONTINUOUS
 10
129.2166387254
 20
65.6479957333
 11
129.1991836604
 21
65.6305406684
  0
LINE
  5
517
100
AcDbEntity
  8
0
100
AcDbLine
 62
7
  6
CONTINUOUS
 10
130.2281461927
 20
65.7147397201
 11
130.3277314526
 21
65.8143249801
  0
LINE
  5
518
100
AcDbEntity
  8
ASSI
100
AcDbLine
 62
7
  6
CONTINUOUS
 10
130.2436425081
 20
65.5639067888
 11
130.3277314526
 21
65.6479957333
  0
LINE
  5
519
100
AcDbEntity
  8
RACCORDO
100
AcDbLine
 62
7
  6
CONTINUOUS
 10
130.2436425081
 20
65.5639067888
 11
130.3277314526
 21
65.6479957333
  0
LINE
  5
51A
100
AcDbEntity
  8
0
100
AcDbLine
 62
7
  6
CONTINUOUS
 10
108.6777314526
 20
43.0479957333
 11
108.717010335
 21
43.0872746157
  0
LINE
  5
51B
100
AcDbEntity
  8
0
100
AcDbLine
 62
7
  6
CONTINUOUS
 10
122.7277314526
 20
142.7003768876
 11
124.7277314526
 21
142.7003768876
  0
LINE
  5
51C
100
AcDbEntity
  8
0
100
AcDbLine
 62
7
  6
CONTINUOUS
 10
44.2777314526
 20
143.0432653438
 11
46.4777314526
 21
143.0432653438
  0
LINE
  5
51D
100
AcDbEntity
  8
0
100
AcDbLine
 62
7
  6
CONTINUOUS
 10
67.2777314526
 20
143.0432653438
 11
69.4777314526
 21
143.0432653438
  0
LINE
  5
51E
100
AcDbEntity
  8
0
100
AcDbLine
 62
7
  6
CONTINUOUS
 10
83.4777314526
 20
143.0432653438
 11
85.6777314526
 21
143.0432653438
  0
LINE
  5
51F
100
AcDbEntity
  8
0
100
AcDbLine
 62
7
  6
CONTINUOUS
 10
24.2062792448
 20
143.0694479411
 11
44.2384525703
 21
143.0694479411
  0
LINE
  5
520
100
AcDbEntity
  8
0
100
AcDbLine
 62
7
  6
CONTINUOUS
 10
46.517010335
 20
143.0694479411
 11
67.2384525703
 21
143.0694479411
  0
LINE
  5
521
100
AcDbEntity
  8
0
100
AcDbLine
 62
7
  6
CONTINUOUS
 10
69.517010335
 20
143.0694479411
 11
83.4384525703
 21
143.0694479411
  0
LINE
  5
522
100
AcDbEntity
  8
0
100
AcDbLine
 62
7
  6
CONTINUOUS
 10
85.717010335
 20
143.0694479411
 11
117.1491836604
 21
143.0694479411
  0
LINE
  5
523
100
AcDbEntity
  8
0
100
AcDbLine
 62
253
  6
CONTINUOUS
 10
24.1363066686
 20
143.1394205173
 11
117.2191562366
 21
143.1394205173
  0
LINE
  5
524
100
AcDbEntity
  8
0
100
AcDbLine
 62
7
  6
CONTINUOUS
 10
128.8277314526
 20
143.1479957333
 11
118.7277314526
 21
143.1479957333
  0
LINE
  5
525
100
AcDbEntity
  8
0
100
AcDbLine
 62
253
  6
CONTINUOUS
 10
118.7142957581
 20
143.1614314279
 11
128.8411671472
 21
143.1614314279
  0
LINE
  5
526
100
AcDbEntity
  8
0
100
AcDbLine
 62
253
  6
CONTINUOUS
 10
130.2281461927
 20
143.5485627782
 11
129.9281918841
 21
143.5485627782
  0
LINE
  5
527
100
AcDbEntity
  8
0
100
AcDbLine
 62
253
  6
CONTINUOUS
 10
22.7273167126
 20
143.5485627782
 11
23.0272710211
 21
143.5485627782
  0
LINE
  5
528
100
AcDbEntity
  8
0
100
AcDbLine
 62
253
  6
CONTINUOUS
 10
23.6363828211
 20
143.6393443649
 11
117.7190800842
 21
143.6393443649
  0
LINE
  5
529
100
AcDbEntity
  8
0
100
AcDbLine
 62
253
  6
CONTINUOUS
 10
118.2144670956
 20
143.6612600904
 11
129.3409958096
 21
143.6612600904
  0
LINE
  5
52A
100
AcDbEntity
  8
0
100
AcDbLine
 62
253
  6
CONTINUOUS
 10
23.7271644077
 20
144.2484561648
 11
129.2282984975
 21
144.2484561648
  0
LINE
  5
52B
100
AcDbEntity
  8
0
100
AcDbLine
 62
253
  6
CONTINUOUS
 10
23.7271644077
 20
144.5484104734
 11
129.2282984975
 21
144.5484104734
  0
LINE
  5
52C
100
AcDbEntity
  8
0
100
AcDbLine
 62
7
  6
CONTINUOUS
 10
129.3278837575
 20
144.6479957333
 11
129.0889612681
 21
144.6479957333
  0
LINE
  5
52D
100
AcDbEntity
  8
0
100
AcDbLine
 62
7
  6
CONTINUOUS
 10
118.3665016371
 20
144.6479957333
 11
23.6275791478
 21
144.6479957333
  0
LWPOLYLINE
  5
52E
100
AcDbEntity
  8
0
100
AcDbPolyline
 62
253
  6
CONTINUOUS
 90
22
 70
0
 10
129.2282984975
 20
144.2484561648
 10
129.2659783534
 20
144.2477494989
 10
129.3044020084
 20
144.2445638009
 10
129.3435694623
 20
144.2388990709
 10
129.3836279673
 20
144.2309485583
 10
129.4244302713
 20
144.2205190136
 10
129.465534618
 20
144.207030689
 10
129.5070082524
 20
144.1905165163
 10
129.5487839296
 20
144.1709435637
 10
129.5902181574
 20
144.1476332877
 10
129.6314915562
 20
144.1205464288
 10
129.6724235057
 20
144.0897222464
 10
129.7118286534
 20
144.0545999762
 10
129.7499002988
 20
144.0150089779
 10
129.7864451423
 20
143.9711198918
 10
129.819697933
 20
143.922883874
 10
129.8497502234
 20
143.8700447074
 10
129.8765104609
 20
143.8128586092
 10
129.8979387367
 20
143.7520453864
 10
129.9133550809
 20
143.6878449749
 10
129.9234394634
 20
143.6200174388
 10
129.9281918841
 20
143.5485627782
  0
LWPOLYLINE
  5
52F
100
AcDbEntity
  8
0
100
AcDbPolyline
 62
253
  6
CONTINUOUS
 90
22
 70
0
 10
129.2282984975
 20
144.5484104734
 10
129.2818010486
 20
144.5469735456
 10
129.3367965935
 20
144.5424975915
 10
129.3930953272
 20
144.5347233062
 10
129.4503941173
 20
144.523415389
 10
129.5085253933
 20
144.5083187819
 10
129.5674433041
 20
144.4891129487
 10
129.6267480147
 20
144.4655621261
 10
129.6861293478
 20
144.4374034941
 10
129.7455642365
 20
144.4041797311
 10
129.804567106
 20
144.3656042483
 10
129.8625414142
 20
144.3214646833
 10
129.9191284968
 20
144.2713314769
 10
129.9736520963
 20
144.2149625403
 10
130.0252464878
 20
144.152314213
 10
130.0731115274
 20
144.0832912584
 10
130.1163337371
 20
144.0079534482
 10
130.1539321923
 20
143.9265222754
 10
130.184920434
 20
143.8393067745
 10
130.208286436
 20
143.7467799104
 10
130.2230202708
 20
143.6495939939
 10
130.2281461927
 20
143.5485627782
  0
LWPOLYLINE
  5
530
100
AcDbEntity
  8
0
100
AcDbPolyline
 62
7
  6
CONTINUOUS
 90
10
 70
0
 10
124.7942979095
 20
136.6479957333
 10
124.9243120562
 20
136.6281249717
 10
125.0355355468
 20
136.5856166666
 10
125.1279683815
 20
136.520470818
 10
125.2052913331
 20
136.4257714207
 10
125.2638236286
 20
136.3084344799
 10
125.2925229494
 20
136.1892080115
 10
125.2877085225
 20
136.0750080207
 10
125.2530611208
 20
135.9589185022
 10
125.1885807444
 20
135.8409394561
  0
LINE
  5
531
100
AcDbEntity
  8
ASSI
100
AcDbLine
 62
7
  6
CONTINUOUS
 10
129.2166387254
 20
113.8479957333
 11
129.1991836604
 21
113.8654507983
  0
LINE
  5
532
100
AcDbEntity
  8
DRAFT
100
AcDbLine
 62
7
  6
CONTINUOUS
 10
129.2166387254
 20
113.8479957333
 11
129.1991836604
 21
113.8654507983
  0
LINE
  5
533
100
AcDbEntity
  8
0
100
AcDbLine
 62
7
  6
CONTINUOUS
 10
130.2281461927
 20
113.7812517466
 11
130.3277314526
 21
113.6816664866
  0
LINE
  5
534
100
AcDbEntity
  8
ASSI
100
AcDbLine
 62
7
  6
CONTINUOUS
 10
130.3277314526
 20
113.8479957333
 11
130.2436425081
 21
113.9320846779
  0
LINE
  5
535
100
AcDbEntity
  8
RACCORDO
100
AcDbLine
 62
7
  6
CONTINUOUS
 10
130.3277314526
 20
113.8479957333
 11
130.2436425081
 21
113.9320846779
  0
LINE
  5
536
100
AcDbEntity
  8
0
100
AcDbLine
 62
253
  6
CONTINUOUS
 10
130.2314545001
 20
108.0871987854
 11
130.3277314526
 21
107.7983160308
  0
LINE
  5
537
100
AcDbEntity
  8
0
100
AcDbLine
 62
253
  6
CONTINUOUS
 10
129.9315001916
 20
107.787609925
 11
130.0279598125
 21
107.4979957333
  0
LWPOLYLINE
  5
538
100
AcDbEntity
  8
0
100
AcDbPolyline
 62
7
  6
CONTINUOUS
 90
3
 70
0
 10
124.8744676794
 20
45.8322907124
 10
124.7724108544
 20
45.445175952
 10
124.7277808269
 20
45.0198851996
  0
LINE
  5
539
100
AcDbEntity
  8
0
100
AcDbLine
 62
253
  6
CONTINUOUS
 10
129.9843221501
 20
69.3669762851
 11
129.9315001916
 21
69.2083815416
  0
LINE
  5
53A
100
AcDbEntity
  8
0
100
AcDbLine
 62
253
  6
CONTINUOUS
 10
130.2892389199
 20
69.0822869151
 11
130.2314545001
 21
68.9087926812
  0
LINE
  5
53B
100
AcDbEntity
  8
0
100
AcDbLine
 62
7
  6
CONTINUOUS
 10
106.4777314526
 20
36.4527261229
 11
106.4384525703
 21
36.4265435255
  0
LINE
  5
53C
100
AcDbEntity
  8
0
100
AcDbLine
 62
7
  6
CONTINUOUS
 10
128.8277314526
 20
135.759045874
 11
128.8411671472
 21
135.7555335691
  0
LINE
  5
53D
100
AcDbEntity
  8
0
100
AcDbLine
 62
7
  6
CONTINUOUS
 10
117.1491836604
 20
136.0265435255
 11
117.2191562366
 21
135.9565709493
  0
LWPOLYLINE
  5
53E
100
AcDbEntity
  8
0
100
AcDbPolyline
 62
7
  6
CONTINUOUS
 90
10
 70
0
 10
117.2191562366
 20
135.9565709493
 10
117.2324771201
 20
135.9356635076
 10
117.2655529218
 20
135.9041722796
 10
117.3136299208
 20
135.8620972651
 10
117.3713100321
 20
135.8068733
 10
117.4348388011
 20
135.7410655484
 10
117.5033576824
 20
135.6723695035
 10
117.5754088341
 20
135.6033503296
 10
117.6479456253
 20
135.5314428624
 10
117.7190800842
 20
135.4566471018
  0
LWPOLYLINE
  5
53F
100
AcDbEntity
  8
0
100
AcDbPolyline
 62
7
  6
CONTINUOUS
 90
20
 70
0
 10
128.9667694764
 20
43.996222117
 10
129.1185503416
 20
44.367819694
 10
129.2052633024
 20
44.7386956651
 10
129.2269083586
 20
45.1088500305
 10
129.1802814988
 20
45.4895183662
 10
129.0685867345
 20
45.8694650961
 10
128.9014361005
 20
46.2149834914
 10
128.6741067781
 20
46.5222348005
 10
128.391321586
 20
46.7950577749
 10
128.0768610153
 20
47.0112619416
 10
127.7281153284
 20
47.1662697796
 10
127.3476942629
 20
47.2646588099
 10
126.9672075225
 20
47.2979711214
 10
126.5865315272
 20
47.2609092103
 10
126.205789857
 20
47.1587705804
 10
125.8569629551
 20
46.9989898325
 10
125.5422069593
 20
46.777556458
 10
125.2593657319
 20
46.4984809653
 10
125.033951302
 20
46.1812294806
 10
124.8744676794
 20
45.8322907124
  0
LINE
  5
540
100
AcDbEntity
  8
0
100
AcDbLine
 62
7
  6
CONTINUOUS
 10
128.7782996221
 20
42.9044536085
 11
128.7928213228
 21
42.9358467815
  0
LWPOLYLINE
  5
541
100
AcDbEntity
  8
0
100
AcDbPolyline
 62
7
  6
CONTINUOUS
 90
3
 70
0
 10
128.7588996718
 20
42.8632175075
 10
128.7637536685
 20
42.8734623088
 10
128.7782996221
 20
42.9044536085
  0
LWPOLYLINE
  5
542
100
AcDbEntity
  8
0
100
AcDbPolyline
 62
7
  6
CONTINUOUS
 90
10
 70
0
 10
128.9667694764
 20
43.996222117
 10
128.9306849972
 20
43.9231789076
 10
128.8987473157
 20
43.8487440001
 10
128.8709564318
 20
43.7729173946
 10
128.8472557735
 20
43.6954615206
 10
128.8277019129
 20
43.6166139486
 10
128.812464566
 20
43.5370873894
 10
128.8016003046
 20
43.4571194134
 10
128.7950525569
 20
43.3764724501
 10
128.7928213228
 20
43.2951464996
  0
LINE
  5
543
100
AcDbEntity
  8
0
100
AcDbLine
 62
7
  6
CONTINUOUS
 10
124.6306333549
 20
43.4694479411
 11
124.6539897878
 21
43.5130856035
  0
LWPOLYLINE
  5
544
100
AcDbEntity
  8
0
100
AcDbPolyline
 62
253
  6
CONTINUOUS
 90
10
 70
0
 10
124.7726156776
 20
136.1347313763
 10
124.8382150922
 20
136.0769577067
 10
124.9068528791
 20
136.0257097823
 10
124.9741043943
 20
135.9806087656
 10
125.0320334484
 20
135.9362693436
 10
125.0790872952
 20
135.8962558213
 10
125.1193048191
 20
135.8695421564
 10
125.1510573713
 20
135.8543441065
 10
125.1685538468
 20
135.8426099426
 10
125.1696932059
 20
135.8309991094
  0
LWPOLYLINE
  5
545
100
AcDbEntity
  8
0
100
AcDbPolyline
 62
7
  6
CONTINUOUS
 90
10
 70
0
 10
118.7142957581
 20
143.1614314279
 10
118.7002236482
 20
143.1829678489
 10
118.6667415358
 20
143.2148885869
 10
118.618533544
 20
143.257193642
 10
118.5609172279
 20
143.3123954044
 10
118.4975721453
 20
143.377981484
 10
118.4293124765
 20
143.4464147094
 10
118.3575617617
 20
143.5151826905
 10
118.2853264111
 20
143.5867978174
 10
118.2144670956
 20
143.6612600904
  0
LINE
  5
546
100
AcDbEntity
  8
0
100
AcDbLine
 62
7
  6
CONTINUOUS
 10
128.7491836604
 20
42.8428563527
 11
128.7588996718
 21
42.8632175075
  0
LWPOLYLINE
  5
547
100
AcDbEntity
  8
0
100
AcDbPolyline
 62
253
  6
CONTINUOUS
 90
10
 70
0
 10
128.9918912591
 20
43.9874011305
 10
128.9604793598
 20
43.9241779813
 10
128.9311383962
 20
43.8572606252
 10
128.9042685593
 20
43.7866632163
 10
128.8803128007
 20
43.7125212764
 10
128.8596669161
 20
43.6348311145
 10
128.8427250362
 20
43.5534406102
 10
128.8299752917
 20
43.4684151384
 10
128.8219478993
 20
43.3800546033
 10
128.8191562356
 20
43.2886245157
  0
LWPOLYLINE
  5
548
100
AcDbEntity
  8
0
100
AcDbPolyline
 62
253
  6
CONTINUOUS
 90
10
 70
0
 10
129.4342367658
 20
43.7544755923
 10
129.4128366348
 20
43.7122854534
 10
129.3933669488
 20
43.6676854199
 10
129.375827708
 20
43.6206754917
 10
129.3599245243
 20
43.5712328401
 10
129.3459517858
 20
43.5193802939
 10
129.334792656
 20
43.4651863397
 10
129.3267415231
 20
43.4086738063
 10
129.321503999
 20
43.349819865
 10
129.3190800837
 20
43.2886245157
  0
LINE
  5
549
100
AcDbEntity
  8
0
100
AcDbLine
 62
7
  6
CONTINUOUS
 10
118.7142957581
 20
143.1614314279
 11
118.7277314526
 21
143.1479957333
  0
LINE
  5
54A
100
AcDbEntity
  8
0
100
AcDbLine
 62
253
  6
CONTINUOUS
 10
118.4275943643
 20
144.5869030061
 11
118.3665016371
 21
144.6479957333
  0
ARC
  5
54B
100
AcDbEntity
  8
0
100
AcDbCircle
 62
253
  6
CONTINUOUS
 10
30.2277314526
 20
38.8479957333
 40
4.513264357
100
AcDbArc
 50
0.0
 51
90.0
  0
ARC
  5
54C
100
AcDbEntity
  8
0
100
AcDbCircle
 62
253
  6
CONTINUOUS
 10
30.2277314526
 20
38.8479957333
 40
4.0134356945
100
AcDbArc
 50
0.0
 51
90.0
  0
ARC
  5
54D
100
AcDbEntity
  8
0
100
AcDbCircle
 62
7
  6
CONTINUOUS
 10
30.2277314526
 20
38.8479957333
 40
4.0
100
AcDbArc
 50
0.0
 51
90.0
  0
ARC
  5
54E
100
AcDbEntity
  8
0
100
AcDbCircle
 62
253
  6
CONTINUOUS
 10
25.9777314526
 20
45.0479957333
 40
2.7762587614
100
AcDbArc
 50
322.5869278278
 51
211.6531314569
  0
ARC
  5
54F
100
AcDbEntity
  8
0
100
AcDbCircle
 62
253
  6
CONTINUOUS
 10
25.9777314526
 20
45.0479957333
 40
2.2763349138
100
AcDbArc
 50
322.5869278276
 51
215.0588893005
  0
ARC
  5
550
100
AcDbEntity
  8
0
100
AcDbCircle
 62
7
  6
CONTINUOUS
 10
25.9777314526
 20
45.0479957333
 40
2.2674550649
100
AcDbArc
 50
215.3242756286
 51
322.0974498284
  0
CIRCLE
  5
551
100
AcDbEntity
  8
DRAFT
100
AcDbCircle
 62
7
  6
CONTINUOUS
 10
25.9777314526
 20
45.0479957333
 40
2.25
  0
ARC
  5
552
100
AcDbEntity
  8
0
100
AcDbCircle
 62
7
  6
CONTINUOUS
 10
28.2277314526
 20
38.8479957333
 40
2.0523811542
100
AcDbArc
 50
90.0
 51
270.0
  0
ARC
  5
553
100
AcDbEntity
  8
0
100
AcDbCircle
 62
7
  6
CONTINUOUS
 10
30.2277314526
 20
38.8479957333
 40
2.0523811542
100
AcDbArc
 50
270.0
 51
90.0
  0
CIRCLE
  5
554
100
AcDbEntity
  8
DRAFT
100
AcDbCircle
 62
7
  6
CONTINUOUS
 10
25.9777314526
 20
45.0479957333
 40
1.3198202597
  0
CIRCLE
  5
555
100
AcDbEntity
  8
DRAFT
100
AcDbCircle
 62
7
  6
CONTINUOUS
 10
25.9777314526
 20
45.0479957333
 40
1.25
  0
CIRCLE
  5
556
100
AcDbEntity
  8
ASSI
100
AcDbCircle
 62
7
  6
CONTINUOUS
 10
25.9777314526
 20
44.9979957333
 40
1.0
  0
CIRCLE
  5
557
100
AcDbEntity
  8
DRAFT
100
AcDbCircle
 62
7
  6
CONTINUOUS
 10
25.9777314526
 20
44.9979957333
 40
1.0
  0
CIRCLE
  5
558
100
AcDbEntity
  8
ASSI
100
AcDbCircle
 62
7
  6
CONTINUOUS
 10
25.9777314526
 20
44.9979957333
 40
0.9520022272
  0
CIRCLE
  5
559
100
AcDbEntity
  8
DRAFT
100
AcDbCircle
 62
7
  6
CONTINUOUS
 10
25.9777314526
 20
44.9979957333
 40
0.9520022272
  0
ARC
  5
55A
100
AcDbEntity
  8
0
100
AcDbCircle
 62
7
  6
CONTINUOUS
 10
25.9777314526
 20
134.4479957333
 40
2.8285477922
100
AcDbArc
 50
33.9229214863
 51
128.7759197329
  0
ARC
  5
55B
100
AcDbEntity
  8
0
100
AcDbCircle
 62
7
  6
CONTINUOUS
 10
25.9777314526
 20
134.4479957333
 40
2.7849101299
100
AcDbArc
 50
33.4461140173
 51
130.6743445222
  0
ARC
  5
55C
100
AcDbEntity
  8
0
100
AcDbCircle
 62
253
  6
CONTINUOUS
 10
25.9777314526
 20
134.4479957333
 40
2.7762587614
100
AcDbArc
 50
152.2300888772
 51
0.1335745433
  0
ARC
  5
55D
100
AcDbEntity
  8
0
100
AcDbCircle
 62
253
  6
CONTINUOUS
 10
25.9777314526
 20
134.4479957333
 40
2.2763349138
100
AcDbArc
 50
152.2300888772
 51
0.1335754395
  0
CIRCLE
  5
55E
100
AcDbEntity
  8
DRAFT
100
AcDbCircle
 62
7
  6
CONTINUOUS
 10
25.9777314526
 20
134.4479957333
 40
1.3198202597
  0
CIRCLE
  5
55F
100
AcDbEntity
  8
DRAFT
100
AcDbCircle
 62
7
  6
CONTINUOUS
 10
25.9777314526
 20
134.4479957333
 40
1.25
  0
CIRCLE
  5
560
100
AcDbEntity
  8
ASSI
100
AcDbCircle
 62
7
  6
CONTINUOUS
 10
25.9777314526
 20
134.4979957333
 40
1.0
  0
CIRCLE
  5
561
100
AcDbEntity
  8
DRAFT
100
AcDbCircle
 62
7
  6
CONTINUOUS
 10
25.9777314526
 20
134.4979957333
 40
1.0
  0
CIRCLE
  5
562
100
AcDbEntity
  8
ASSI
100
AcDbCircle
 62
7
  6
CONTINUOUS
 10
25.9777314526
 20
134.4979957333
 40
0.9520022272
  0
CIRCLE
  5
563
100
AcDbEntity
  8
DRAFT
100
AcDbCircle
 62
7
  6
CONTINUOUS
 10
25.9777314526
 20
134.4979957333
 40
0.9520022272
  0
ARC
  5
564
100
AcDbEntity
  8
0
100
AcDbCircle
 62
7
  6
CONTINUOUS
 10
126.9777314526
 20
45.0479957333
 40
2.8285477922
100
AcDbArc
 50
213.9229214863
 51
308.7759197329
  0
ARC
  5
565
100
AcDbEntity
  8
0
100
AcDbCircle
 62
7
  6
CONTINUOUS
 10
126.9777314526
 20
45.0479957333
 40
2.7849101299
100
AcDbArc
 50
213.4461140173
 51
310.6743445222
  0
ARC
  5
566
100
AcDbEntity
  8
0
100
AcDbCircle
 62
253
  6
CONTINUOUS
 10
126.9777314526
 20
45.0479957333
 40
2.7762587614
100
AcDbArc
 50
332.2300888772
 51
180.1335745433
  0
ARC
  5
567
100
AcDbEntity
  8
0
100
AcDbCircle
 62
253
  6
CONTINUOUS
 10
126.9777314526
 20
45.0479957333
 40
2.2763349138
100
AcDbArc
 50
332.2300888772
 51
180.1335753833
  0
CIRCLE
  5
568
100
AcDbEntity
  8
DRAFT
100
AcDbCircle
 62
7
  6
CONTINUOUS
 10
126.9777314526
 20
45.0479957333
 40
1.3198202597
  0
CIRCLE
  5
569
100
AcDbEntity
  8
DRAFT
100
AcDbCircle
 62
7
  6
CONTINUOUS
 10
126.9777314526
 20
45.0479957333
 40
1.25
  0
CIRCLE
  5
56A
100
AcDbEntity
  8
ASSI
100
AcDbCircle
 62
7
  6
CONTINUOUS
 10
126.9777314526
 20
44.9979957333
 40
1.0
  0
CIRCLE
  5
56B
100
AcDbEntity
  8
DRAFT
100
AcDbCircle
 62
7
  6
CONTINUOUS
 10
126.9777314526
 20
44.9979957333
 40
1.0
  0
CIRCLE
  5
56C
100
AcDbEntity
  8
ASSI
100
AcDbCircle
 62
7
  6
CONTINUOUS
 10
126.9777314526
 20
44.9979957333
 40
0.9520022272
  0
CIRCLE
  5
56D
100
AcDbEntity
  8
DRAFT
100
AcDbCircle
 62
7
  6
CONTINUOUS
 10
126.9777314526
 20
44.9979957333
 40
0.9520022272
  0
ARC
  5
56E
100
AcDbEntity
  8
0
100
AcDbCircle
 62
253
  6
CONTINUOUS
 10
122.7277314526
 20
140.6479957333
 40
4.513264357
100
AcDbArc
 50
180.0
 51
270.0
  0
ARC
  5
56F
100
AcDbEntity
  8
0
100
AcDbCircle
 62
253
  6
CONTINUOUS
 10
122.7277314526
 20
140.6479957333
 40
4.0134356945
100
AcDbArc
 50
180.0
 51
270.0
  0
ARC
  5
570
100
AcDbEntity
  8
0
100
AcDbCircle
 62
7
  6
CONTINUOUS
 10
122.7277314526
 20
140.6479957333
 40
4.0
100
AcDbArc
 50
180.0
 51
270.0
  0
ARC
  5
571
100
AcDbEntity
  8
0
100
AcDbCircle
 62
253
  6
CONTINUOUS
 10
126.9777314526
 20
134.4479957333
 40
2.7762587614
100
AcDbArc
 50
142.5869278278
 51
31.6531314569
  0
ARC
  5
572
100
AcDbEntity
  8
0
100
AcDbCircle
 62
253
  6
CONTINUOUS
 10
126.9777314526
 20
134.4479957333
 40
2.2763349138
100
AcDbArc
 50
142.5869278276
 51
35.0588893005
  0
ARC
  5
573
100
AcDbEntity
  8
0
100
AcDbCircle
 62
7
  6
CONTINUOUS
 10
126.9777314526
 20
134.4479957333
 40
2.2674550649
100
AcDbArc
 50
35.3242756286
 51
142.0974498284
  0
ARC
  5
574
100
AcDbEntity
  8
DRAFT
100
AcDbCircle
 62
7
  6
CONTINUOUS
 10
126.9777314526
 20
134.4479957333
 40
2.25
100
AcDbArc
 50
180.0
 51
360.0
  0
ARC
  5
575
100
AcDbEntity
  8
0
100
AcDbCircle
 62
7
  6
CONTINUOUS
 10
122.7277314526
 20
140.6479957333
 40
2.0523811542
100
AcDbArc
 50
90.0
 51
270.0
  0
ARC
  5
576
100
AcDbEntity
  8
0
100
AcDbCircle
 62
7
  6
CONTINUOUS
 10
124.7277314526
 20
140.6479957333
 40
2.0523811542
100
AcDbArc
 50
270.0
 51
90.0
  0
CIRCLE
  5
577
100
AcDbEntity
  8
DRAFT
100
AcDbCircle
 62
7
  6
CONTINUOUS
 10
126.9777314526
 20
134.4479957333
 40
1.3198202597
  0
CIRCLE
  5
578
100
AcDbEntity
  8
DRAFT
100
AcDbCircle
 62
7
  6
CONTINUOUS
 10
126.9777314526
 20
134.4479957333
 40
1.25
  0
CIRCLE
  5
579
100
AcDbEntity
  8
ASSI
100
AcDbCircle
 62
7
  6
CONTINUOUS
 10
126.9777314526
 20
134.4979957333
 40
1.0
  0
CIRCLE
  5
57A
100
AcDbEntity
  8
DRAFT
100
AcDbCircle
 62
7
  6
CONTINUOUS
 10
126.9777314526
 20
134.4979957333
 40
1.0
  0
CIRCLE
  5
57B
100
AcDbEntity
  8
ASSI
100
AcDbCircle
 62
7
  6
CONTINUOUS
 10
126.9777314526
 20
134.4979957333
 40
0.9520022272
  0
CIRCLE
  5
57C
100
AcDbEntity
  8
DRAFT
100
AcDbCircle
 62
7
  6
CONTINUOUS
 10
126.9777314526
 20
134.4979957333
 40
0.9520022272
  0
ELLIPSE
  5
57D
100
AcDbEntity
  8
RACCORDO
100
AcDbEllipse
 62
7
  6
CONTINUOUS
 10
72.0934410111
 20
73.3479957333
 30
0.0
 11
-0.0
 21
0.3
 31
0.0
 40
0.0174550649
 41
-3.1415926536
 42
-1.5707963268
  0
ELLIPSE
  5
57E
100
AcDbEntity
  8
RACCORDO
100
AcDbEllipse
 62
7
  6
CONTINUOUS
 10
80.8620218942
 20
73.3479957333
 30
0.0
 11
-0.0
 21
0.3
 31
0.0
 40
0.0174550649
 41
-4.7123889804
 42
-3.1415926536
  0
ELLIPSE
  5
57F
100
AcDbEntity
  8
RACCORDO
100
AcDbEllipse
 62
7
  6
CONTINUOUS
 10
72.5778076166
 20
40.1480718973
 30
0.0
 11
0.3536610946
 21
0.3536610946
 31
0.0
 40
0.9996954599
 41
-3.9268385237
 42
-2.3563467834
  0
ELLIPSE
  5
580
100
AcDbEntity
  8
RACCORDO
100
AcDbEllipse
 62
7
  6
CONTINUOUS
 10
80.3776552886
 20
40.1480718973
 30
0.0
 11
0.3536610946
 21
-0.3536610946
 31
0.0
 40
0.9996954599
 41
-0.7852458701
 42
0.7852458701
  0
ELLIPSE
  5
581
100
AcDbEntity
  8
RACCORDO
100
AcDbEllipse
 62
7
  6
CONTINUOUS
 10
72.6528643958
 20
40.2231286765
 30
0.0
 11
-0.3536610946
 21
-0.3536610946
 31
0.0
 40
0.9996954599
 41
-0.7852458701
 42
0.7852458701
  0
ELLIPSE
  5
582
100
AcDbEntity
  8
RACCORDO
100
AcDbEllipse
 62
7
  6
CONTINUOUS
 10
80.3025985094
 20
40.2231286765
 30
0.0
 11
0.3536610946
 21
-0.3536610946
 31
0.0
 40
0.9996954599
 41
-0.7852458701
 42
0.7852458701
  0
ELLIPSE
  5
583
100
AcDbEntity
  8
ASSI
100
AcDbEllipse
 62
7
  6
CONTINUOUS
 10
130.3224949331
 20
68.1668860588
 30
0.0
 11
0.0
 21
0.3
 31
0.0
 40
0.0174550649
 41
-1.5707963268
 42
-1.4874627558
  0
ELLIPSE
  5
584
100
AcDbEntity
  8
ASSI
100
AcDbEllipse
 62
7
  6
CONTINUOUS
 10
22.6329679721
 20
113.372259802
 30
0.0
 11
-0.0
 21
0.3
 31
0.0
 40
0.0174550649
 41
-4.7123889804
 42
-4.6240318185
  0
ELLIPSE
  5
585
100
AcDbEntity
  8
ASSI
100
AcDbEllipse
 62
7
  6
CONTINUOUS
 10
128.5924287512
 20
124.5640590936
 30
0.0
 11
-0.0
 21
1.0
 31
0.0
 40
0.0174550649
 41
-1.5707963268
 42
-0.0174532925
  0
ELLIPSE
  5
586
100
AcDbEntity
  8
ASSI
100
AcDbEllipse
 62
7
  6
CONTINUOUS
 10
128.5924287512
 20
114.931932373
 30
0.0
 11
-0.0
 21
1.0
 31
0.0
 40
0.0174550649
 41
-3.1241393611
 42
-1.5707963268
  0
ELLIPSE
  5
587
100
AcDbEntity
  8
ASSI
100
AcDbEllipse
 62
7
  6
CONTINUOUS
 10
128.5924287512
 20
64.5640590936
 30
0.0
 11
-0.0
 21
1.0
 31
0.0
 40
0.0174550649
 41
-1.5707963268
 42
-0.0174532925
  0
ELLIPSE
  5
588
100
AcDbEntity
  8
ASSI
100
AcDbEllipse
 62
7
  6
CONTINUOUS
 10
128.5924287512
 20
54.931932373
 30
0.0
 11
0.0
 21
1.0
 31
0.0
 40
0.0174550649
 41
-3.1241393611
 42
-1.5707963268
  0
ELLIPSE
  5
589
100
AcDbEntity
  8
ASSI
100
AcDbEllipse
 62
7
  6
CONTINUOUS
 10
24.363034154
 20
54.931932373
 30
0.0
 11
0.0
 21
1.0
 31
0.0
 40
0.0174550649
 41
-4.7123889804
 42
-3.1590459461
  0
ELLIPSE
  5
58A
100
AcDbEntity
  8
ASSI
100
AcDbEllipse
 62
7
  6
CONTINUOUS
 10
24.363034154
 20
64.5640590936
 30
0.0
 11
0.0
 21
1.0
 31
0.0
 40
0.0174550649
 41
0.0174532925
 42
1.5707963268
  0
ELLIPSE
  5
58B
100
AcDbEntity
  8
ASSI
100
AcDbEllipse
 62
7
  6
CONTINUOUS
 10
24.363034154
 20
114.931932373
 30
0.0
 11
-0.0
 21
1.0
 31
0.0
 40
0.0174550649
 41
-4.7123889804
 42
-3.1590459461
  0
ELLIPSE
  5
58C
100
AcDbEntity
  8
ASSI
100
AcDbEllipse
 62
7
  6
CONTINUOUS
 10
24.363034154
 20
124.5640590936
 30
0.0
 11
0.0
 21
1.0
 31
0.0
 40
0.0174550649
 41
0.0174532925
 42
1.5707963268
  0
ELLIPSE
  5
58D
100
AcDbEntity
  8
ASSI
100
AcDbEllipse
 62
7
  6
CONTINUOUS
 10
130.243947141
 20
124.5640590936
 30
0.0
 11
0.0
 21
1.0
 31
0.0
 40
0.0174550649
 41
0.0174532925
 42
1.5707963268
  0
ELLIPSE
  5
58E
100
AcDbEntity
  8
ASSI
100
AcDbEllipse
 62
7
  6
CONTINUOUS
 10
130.243947141
 20
114.931932373
 30
0.0
 11
-0.0
 21
1.0
 31
0.0
 40
0.0174550649
 41
-4.7123889804
 42
-3.1590459461
  0
ELLIPSE
  5
58F
100
AcDbEntity
  8
ASSI
100
AcDbEllipse
 62
7
  6
CONTINUOUS
 10
130.243947141
 20
64.5640590936
 30
0.0
 11
-0.0
 21
1.0
 31
0.0
 40
0.0174550649
 41
0.0174532925
 42
1.5707963268
  0
ELLIPSE
  5
590
100
AcDbEntity
  8
ASSI
100
AcDbEllipse
 62
7
  6
CONTINUOUS
 10
130.243947141
 20
54.931932373
 30
0.0
 11
-0.0
 21
1.0
 31
0.0
 40
0.0174550649
 41
-4.7123889804
 42
-3.1590459461
  0
ELLIPSE
  5
591
100
AcDbEntity
  8
ASSI
100
AcDbEllipse
 62
7
  6
CONTINUOUS
 10
22.7115157643
 20
114.931932373
 30
0.0
 11
-0.0
 21
1.0
 31
0.0
 40
0.0174550649
 41
-3.1241393611
 42
-1.5707963268
  0
ELLIPSE
  5
592
100
AcDbEntity
  8
ASSI
100
AcDbEllipse
 62
7
  6
CONTINUOUS
 10
22.7115157643
 20
124.5640590936
 30
0.0
 11
0.0
 21
1.0
 31
0.0
 40
0.0174550649
 41
-1.5707963268
 42
-0.0174532925
  0
ELLIPSE
  5
593
100
AcDbEntity
  8
ASSI
100
AcDbEllipse
 62
7
  6
CONTINUOUS
 10
22.7115157643
 20
54.931932373
 30
0.0
 11
0.0
 21
1.0
 31
0.0
 40
0.0174550649
 41
-3.1241393611
 42
-1.5707963268
  0
ELLIPSE
  5
594
100
AcDbEntity
  8
ASSI
100
AcDbEllipse
 62
7
  6
CONTINUOUS
 10
22.7115157643
 20
64.5640590936
 30
0.0
 11
-0.0
 21
1.0
 31
0.0
 40
0.0174550649
 41
-1.5707963268
 42
-0.0174532925
  0
ELLIPSE
  5
595
100
AcDbEntity
  8
0
100
AcDbEllipse
 62
7
  6
CONTINUOUS
 10
22.6329679721
 20
113.372259802
 30
0.0
 11
-0.0
 21
0.3
 31
0.0
 40
0.0174550649
 41
-4.7123889804
 42
-4.6240318185
  0
ELLIPSE
  5
596
100
AcDbEntity
  8
0
100
AcDbEllipse
 62
7
  6
CONTINUOUS
 10
130.3224949331
 20
68.1668860588
 30
0.0
 11
0.0
 21
0.3
 31
0.0
 40
0.0174550649
 41
-1.5707963268
 42
-1.4874627558
  0
ELLIPSE
  5
597
100
AcDbEntity
  8
RACCORDO
100
AcDbEllipse
 62
7
  6
CONTINUOUS
 10
24.363034154
 20
64.5640590936
 30
0.0
 11
0.0
 21
1.0
 31
0.0
 40
0.0174550649
 41
0.0174532925
 42
1.5707963268
  0
ELLIPSE
  5
598
100
AcDbEntity
  8
RACCORDO
100
AcDbEllipse
 62
7
  6
CONTINUOUS
 10
24.363034154
 20
54.931932373
 30
0.0
 11
0.0
 21
1.0
 31
0.0
 40
0.0174550649
 41
-4.7123889804
 42
-3.1590459461
  0
ELLIPSE
  5
599
100
AcDbEntity
  8
RACCORDO
100
AcDbEllipse
 62
7
  6
CONTINUOUS
 10
128.5924287512
 20
54.931932373
 30
0.0
 11
0.0
 21
1.0
 31
0.0
 40
0.0174550649
 41
-3.1241393611
 42
-1.5707963268
  0
ELLIPSE
  5
59A
100
AcDbEntity
  8
RACCORDO
100
AcDbEllipse
 62
7
  6
CONTINUOUS
 10
128.5924287512
 20
64.5640590936
 30
0.0
 11
-0.0
 21
1.0
 31
0.0
 40
0.0174550649
 41
-1.5707963268
 42
-0.0174532925
  0
ELLIPSE
  5
59B
100
AcDbEntity
  8
RACCORDO
100
AcDbEllipse
 62
7
  6
CONTINUOUS
 10
128.5924287512
 20
114.931932373
 30
0.0
 11
-0.0
 21
1.0
 31
0.0
 40
0.0174550649
 41
-3.1241393611
 42
-1.5707963268
  0
ELLIPSE
  5
59C
100
AcDbEntity
  8
RACCORDO
100
AcDbEllipse
 62
7
  6
CONTINUOUS
 10
128.5924287512
 20
124.5640590936
 30
0.0
 11
-0.0
 21
1.0
 31
0.0
 40
0.0174550649
 41
-1.5707963268
 42
-0.0174532925
  0
ELLIPSE
  5
59D
100
AcDbEntity
  8
RACCORDO
100
AcDbEllipse
 62
7
  6
CONTINUOUS
 10
22.7115157643
 20
64.5640590936
 30
0.0
 11
-0.0
 21
1.0
 31
0.0
 40
0.0174550649
 41
-1.5707963268
 42
-0.0174532925
  0
ELLIPSE
  5
59E
100
AcDbEntity
  8
RACCORDO
100
AcDbEllipse
 62
7
  6
CONTINUOUS
 10
22.7115157643
 20
54.931932373
 30
0.0
 11
0.0
 21
1.0
 31
0.0
 40
0.0174550649
 41
-3.1241393611
 42
-1.5707963268
  0
ELLIPSE
  5
59F
100
AcDbEntity
  8
RACCORDO
100
AcDbEllipse
 62
7
  6
CONTINUOUS
 10
22.7115157643
 20
124.5640590936
 30
0.0
 11
0.0
 21
1.0
 31
0.0
 40
0.0174550649
 41
-1.5707963268
 42
-0.0174532925
  0
ELLIPSE
  5
5A0
100
AcDbEntity
  8
RACCORDO
100
AcDbEllipse
 62
7
  6
CONTINUOUS
 10
22.7115157643
 20
114.931932373
 30
0.0
 11
-0.0
 21
1.0
 31
0.0
 40
0.0174550649
 41
-3.1241393611
 42
-1.5707963268
  0
ELLIPSE
  5
5A1
100
AcDbEntity
  8
RACCORDO
100
AcDbEllipse
 62
7
  6
CONTINUOUS
 10
130.243947141
 20
54.931932373
 30
0.0
 11
-0.0
 21
1.0
 31
0.0
 40
0.0174550649
 41
-4.7123889804
 42
-3.1590459461
  0
ELLIPSE
  5
5A2
100
AcDbEntity
  8
RACCORDO
100
AcDbEllipse
 62
7
  6
CONTINUOUS
 10
130.243947141
 20
64.5640590936
 30
0.0
 11
-0.0
 21
1.0
 31
0.0
 40
0.0174550649
 41
0.0174532925
 42
1.5707963268
  0
ELLIPSE
  5
5A3
100
AcDbEntity
  8
RACCORDO
100
AcDbEllipse
 62
7
  6
CONTINUOUS
 10
130.243947141
 20
114.931932373
 30
0.0
 11
-0.0
 21
1.0
 31
0.0
 40
0.0174550649
 41
-4.7123889804
 42
-3.1590459461
  0
ELLIPSE
  5
5A4
100
AcDbEntity
  8
RACCORDO
100
AcDbEllipse
 62
7
  6
CONTINUOUS
 10
130.243947141
 20
124.5640590936
 30
0.0
 11
0.0
 21
1.0
 31
0.0
 40
0.0174550649
 41
0.0174532925
 42
1.5707963268
  0
ELLIPSE
  5
5A5
100
AcDbEntity
  8
RACCORDO
100
AcDbEllipse
 62
7
  6
CONTINUOUS
 10
24.363034154
 20
124.5640590936
 30
0.0
 11
0.0
 21
1.0
 31
0.0
 40
0.0174550649
 41
0.0174532925
 42
1.5707963268
  0
ELLIPSE
  5
5A6
100
AcDbEntity
  8
RACCORDO
100
AcDbEllipse
 62
7
  6
CONTINUOUS
 10
24.363034154
 20
114.931932373
 30
0.0
 11
-0.0
 21
1.0
 31
0.0
 40
0.0174550649
 41
-4.7123889804
 42
-3.1590459461
  0
ELLIPSE
  5
5A7
100
AcDbEntity
  8
0
100
AcDbEllipse
 62
7
  6
CONTINUOUS
 10
23.866593027
 20
35.1480414317
 30
0.0
 11
0.2121966568
 21
0.2121966568
 31
0.0
 40
0.9996954599
 41
-2.3563467834
 42
-1.5707963265
  0
ELLIPSE
  5
5A8
100
AcDbEntity
  8
0
100
AcDbEllipse
 62
7
  6
CONTINUOUS
 10
129.0888698783
 20
144.3479500349
 30
0.0
 11
0.2121966568
 21
0.2121966568
 31
0.0
 40
0.9996954599
 41
0.7852458701
 42
1.570796327
  0
ELLIPSE
  5
5A9
100
AcDbEntity
  8
RACCORDO
100
AcDbEllipse
 62
7
  6
CONTINUOUS
 10
129.3275791246
 20
143.6478434053
 30
0.0
 11
0.7073221892
 21
0.7073221892
 31
0.0
 40
0.9996954599
 41
-0.7852458701
 42
0.7852458701
  0
ELLIPSE
  5
5AA
100
AcDbEntity
  8
0
100
AcDbEllipse
 62
7
  6
CONTINUOUS
 10
118.366593027
 20
144.3479500349
 30
0.0
 11
0.2121966568
 21
-0.2121966568
 31
0.0
 40
0.9996954599
 41
1.5707963265
 42
2.3563467834
  0
ELLIPSE
  5
5AB
100
AcDbEntity
  8
RACCORDO
100
AcDbEllipse
 62
7
  6
CONTINUOUS
 10
23.6278837807
 20
143.6478434053
 30
0.0
 11
0.7073221892
 21
-0.7073221892
 31
0.0
 40
0.9996954599
 41
2.3563467834
 42
3.9268385237
  0
ELLIPSE
  5
5AC
100
AcDbEntity
  8
RACCORDO
100
AcDbEllipse
 62
7
  6
CONTINUOUS
 10
23.6278837807
 20
35.8481480614
 30
0.0
 11
0.7073221892
 21
0.7073221892
 31
0.0
 40
0.9996954599
 41
-3.9268385237
 42
-2.3563467834
  0
ELLIPSE
  5
5AD
100
AcDbEntity
  8
0
100
AcDbEllipse
 62
7
  6
CONTINUOUS
 10
34.5888698783
 20
35.1480414317
 30
0.0
 11
-0.2121966568
 21
0.2121966568
 31
0.0
 40
0.9996954599
 41
1.5707963265
 42
2.3563467834
  0
ELLIPSE
  5
5AE
100
AcDbEntity
  8
RACCORDO
100
AcDbEllipse
 62
7
  6
CONTINUOUS
 10
129.3275791246
 20
35.8481480614
 30
0.0
 11
-0.7073221892
 21
0.7073221892
 31
0.0
 40
0.9996954599
 41
-3.9268385237
 42
-2.3563467834
  0
ELLIPSE
  5
5AF
100
AcDbEntity
  8
0
100
AcDbEllipse
 62
7
  6
CONTINUOUS
 10
129.9281918841
 20
53.7811603567
 30
0.0
 11
0.3
 21
0.0
 31
0.0
 40
0.0174550649
 41
0.0174532925
 42
1.5707963268
  0
ELLIPSE
  5
5B0
100
AcDbEntity
  8
0
100
AcDbEllipse
 62
7
  6
CONTINUOUS
 10
129.9281918841
 20
65.71483111
 30
0.0
 11
0.3
 21
-0.0
 31
0.0
 40
0.0174550649
 41
-1.5707963268
 42
-0.0174532925
  0
ELLIPSE
  5
5B1
100
AcDbEntity
  8
0
100
AcDbEllipse
 62
7
  6
CONTINUOUS
 10
23.0272710211
 20
65.71483111
 30
0.0
 11
0.3
 21
-0.0
 31
0.0
 40
0.0174550649
 41
-3.1241393611
 42
-1.5707963268
  0
ELLIPSE
  5
5B2
100
AcDbEntity
  8
0
100
AcDbEllipse
 62
7
  6
CONTINUOUS
 10
23.0272710211
 20
53.7811603567
 30
0.0
 11
0.3
 21
-0.0
 31
0.0
 40
0.0174550649
 41
1.5707963268
 42
3.1241393611
  0
ELLIPSE
  5
5B3
100
AcDbEntity
  8
0
100
AcDbEllipse
 62
7
  6
CONTINUOUS
 10
129.9281918841
 20
125.71483111
 30
0.0
 11
0.3
 21
-0.0
 31
0.0
 40
0.0174550649
 41
-1.5707963268
 42
-0.0174532925
  0
ELLIPSE
  5
5B4
100
AcDbEntity
  8
0
100
AcDbEllipse
 62
7
  6
CONTINUOUS
 10
129.9281918841
 20
113.7811603567
 30
0.0
 11
0.3
 21
0.0
 31
0.0
 40
0.0174550649
 41
0.0174532925
 42
1.5707963268
  0
ELLIPSE
  5
5B5
100
AcDbEntity
  8
0
100
AcDbEllipse
 62
7
  6
CONTINUOUS
 10
23.0272710211
 20
113.7811603567
 30
0.0
 11
0.3
 21
0.0
 31
0.0
 40
0.0174550649
 41
1.5707963268
 42
3.1241393611
  0
ELLIPSE
  5
5B6
100
AcDbEntity
  8
0
100
AcDbEllipse
 62
7
  6
CONTINUOUS
 10
23.0272710211
 20
125.71483111
 30
0.0
 11
0.3
 21
0.0
 31
0.0
 40
0.0174550649
 41
-3.1241393611
 42
-1.5707963268
  0
ELLIPSE
  5
5B7
100
AcDbEntity
  8
0
100
AcDbEllipse
 62
7
  6
CONTINUOUS
 10
80.9724949331
 20
71.0427122164
 30
0.0
 11
0.0
 21
0.3
 31
0.0
 40
0.0174550649
 41
-1.5707963268
 42
-0.7853981634
  0
ELLIPSE
  5
5B8
100
AcDbEntity
  8
0
100
AcDbEllipse
 62
7
  6
CONTINUOUS
 10
80.9625557302
 20
71.6121287723
 30
0.0
 11
-0.0
 21
0.3
 31
0.0
 40
0.0174550649
 41
-0.7853981634
 42
-0.0523598776
  0
ELLIPSE
  5
5B9
100
AcDbEntity
  8
0
100
AcDbEllipse
 62
7
  6
CONTINUOUS
 10
81.0300966474
 20
68.7090667743
 30
0.0
 11
0.0
 21
0.5
 31
0.0
 40
0.0174550649
 41
4.7123889804
 42
6.2308254296
  0
ELLIPSE
  5
5BA
100
AcDbEntity
  8
0
100
AcDbEllipse
 62
7
  6
CONTINUOUS
 10
71.9829679721
 20
71.0427122164
 30
0.0
 11
-0.0
 21
0.3
 31
0.0
 40
0.0174550649
 41
0.7853981634
 42
1.5707963268
  0
ELLIPSE
  5
5BB
100
AcDbEntity
  8
0
100
AcDbEllipse
 62
7
  6
CONTINUOUS
 10
71.9253662578
 20
68.7090667743
 30
0.0
 11
0.0
 21
0.5
 31
0.0
 40
0.0174550649
 41
0.0523598776
 42
1.5707963268
  0
ELLIPSE
  5
5BC
100
AcDbEntity
  8
0
100
AcDbEllipse
 62
7
  6
CONTINUOUS
 10
71.9929071751
 20
71.6121287723
 30
0.0
 11
0.0
 21
0.3
 31
0.0
 40
0.0174550649
 41
0.0523598776
 42
0.7853981634
  0
ELLIPSE
  5
5BD
100
AcDbEntity
  8
RACCORDO
100
AcDbEllipse
 62
7
  6
CONTINUOUS
 10
70.523128453
 20
90.7022939608
 30
0.0
 11
-0.0
 21
0.5
 31
0.0
 40
0.0349207695
 41
-1.5707963268
 42
-0.034906585
  0
ELLIPSE
  5
5BE
100
AcDbEntity
  8
RACCORDO
100
AcDbEllipse
 62
7
  6
CONTINUOUS
 10
70.523128453
 20
88.7936975058
 30
0.0
 11
0.0
 21
0.5
 31
0.0
 40
0.0349207695
 41
-3.1066860685
 42
-1.5707963268
  0
ELLIPSE
  5
5BF
100
AcDbEntity
  8
RACCORDO
100
AcDbEllipse
 62
7
  6
CONTINUOUS
 10
82.4323344523
 20
88.7936975058
 30
0.0
 11
0.0
 21
0.5
 31
0.0
 40
0.0349207695
 41
-4.7123889804
 42
-3.1764992386
  0
ELLIPSE
  5
5C0
100
AcDbEntity
  8
RACCORDO
100
AcDbEllipse
 62
7
  6
CONTINUOUS
 10
82.4323344523
 20
90.7022939608
 30
0.0
 11
-0.0
 21
0.5
 31
0.0
 40
0.0349207695
 41
0.034906585
 42
1.5707963268
  0
ELLIPSE
  5
5C1
100
AcDbEntity
  8
RACCORDO
100
AcDbEllipse
 62
7
  6
CONTINUOUS
 10
71.6293975025
 20
90.7022939608
 30
0.0
 11
-0.0
 21
0.5
 31
0.0
 40
0.2679491924
 41
0.034906585
 42
1.5707963268
  0
ELLIPSE
  5
5C2
100
AcDbEntity
  8
RACCORDO
100
AcDbEllipse
 62
7
  6
CONTINUOUS
 10
71.6293975025
 20
88.7936975058
 30
0.0
 11
-0.0
 21
0.5
 31
0.0
 40
0.2679491924
 41
-4.7123889804
 42
-3.1764992386
  0
ELLIPSE
  5
5C3
100
AcDbEntity
  8
RACCORDO
100
AcDbEllipse
 62
7
  6
CONTINUOUS
 10
81.3260654028
 20
88.7936975058
 30
0.0
 11
-0.0
 21
0.5
 31
0.0
 40
0.2679491924
 41
-3.1066860685
 42
-1.5707963268
  0
ELLIPSE
  5
5C4
100
AcDbEntity
  8
RACCORDO
100
AcDbEllipse
 62
7
  6
CONTINUOUS
 10
81.3260654028
 20
90.7022939608
 30
0.0
 11
-0.0
 21
0.5
 31
0.0
 40
0.2679491924
 41
-1.5707963268
 42
-0.034906585
  0
ENDSEC
  0
SECTION
  2
OBJECTS
  0
DICTIONARY
  5
C
100
AcDbDictionary
280
0
281
1
  3
ACAD_GROUP
350
D
  3
ACAD_MLINESTYLE
350
17
  3
ACAD_LAYOUT
350
1A
  3
ACAD_PLOTSETTINGS
350
19
  3
ACAD_PLOTSTYLENAME
350
E
  0
DICTIONARY
  5
D
102
{ACAD_REACTORS
330
C
102
}
100
AcDbDictionary
280
0
281
1
  0
ACDBDICTIONARYWDFLT
  5
E
102
{ACAD_REACTORS
330
C
102
}
100
AcDbDictionary
281
1
  3
Normal
350
F
100
AcDbDictionaryWithDefault
340
F
  0
DICTIONARY
  5
17
102
{ACAD_REACTORS
330
C
102
}
100
AcDbDictionary
280
0
281
1
  3
Standard
350
18
  0
DICTIONARY
  5
19
102
{ACAD_REACTORS
330
C
102
}
100
AcDbDictionary
281
1
  0
DICTIONARY
  5
1A
102
{ACAD_REACTORS
330
C
102
}
100
AcDbDictionary
281
1
  3
Model
350
5C5
  3
Layout1
350
5C6
  0
ACDBPLACEHOLDER
  5
F
102
{ACAD_REACTORS
330
E
102
}
  0
MLINESTYLE
  5
18
102
{ACAD_REACTORS
330
17
102
}
100
AcDbMlineStyle
  2
STANDARD
 70
0
  3

 62
256
 51
90.0
 52
90.0
 71
2
 49
0.5
 62
256
  6
BYLAYER
 49
-0.5
 62
256
  6
BYLAYER
  0
LAYOUT
  5
5C5
102
{ACAD_REACTORS
330
1A
102
}
100
AcDbPlotSettings
  1

  2
none_device
  4
ISO_A4_(297.00_x_210.00_MM)
  6

 40
0.0
 41
0.0
 42
0.0
 43
0.0
 44
297.0
 45
210.0
 46
0.0
 47
0.0
 48
0.0
 49
0.0
140
0.0
141
0.0
142
1.0
143
1.0
 70
1024
 72
1
 73
0
 74
0
  7

 75
0
147
1.0
148
0.0
149
0.0
100
AcDbLayout
  1
Model
 70
0
 71
0
 10
0.0
 20
0.0
 11
297.0
 21
210.0
 12
0.0
 22
0.0
 32
0.0
 14
0.0
 24
0.0
 34
0.0
 15
0.0
 25
0.0
 35
0.0
146
0.0
 13
0.0
 23
0.0
 33
0.0
 16
1.0
 26
0.0
 36
0.0
 17
0.0
 27
1.0
 37
0.0
 76
0
330
224
345
0
346
0
  0
LAYOUT
  5
5C6
102
{ACAD_REACTORS
330
1A
102
}
100
AcDbPlotSettings
  1

  2
none_device
  4
ISO_A4_(297.00_x_210.00_MM)
  6

 40
0.0
 41
0.0
 42
0.0
 43
0.0
 44
297.0
 45
210.0
 46
0.0
 47
0.0
 48
0.0
 49
0.0
140
0.0
141
0.0
142
1.0
143
1.0
 70
0
 72
1
 73
0
 74
0
  7

 75
0
147
1.0
148
0.0
149
0.0
100
AcDbLayout
  1
Layout1
 70
0
 71
1
 10
0.0
 20
0.0
 11
297.0
 21
210.0
 12
0.0
 22
0.0
 32
0.0
 14
0.0
 24
0.0
 34
0.0
 15
0.0
 25
0.0
 35
0.0
146
0.0
 13
0.0
 23
0.0
 33
0.0
 16
1.0
 26
0.0
 36
0.0
 17
0.0
 27
1.0
 37
0.0
 76
0
330
225
345
0
346
0
  0
ENDSEC
  0
EOF
