0
SECTION
2
HEADER
9
$ACADVER
1
AC1015
9
$DWGCODEPAGE
3
ANSI_1252
9
$EXTMAX
10
297.0000000000
20
210.0000000000
30
0.0000000000
9
$EXTMIN
10
0.0000000000
20
0.0000000000
30
0.0000000000
9
$LIMMIN
10
0.0000000000
20
0.0000000000
9
$LIMMAX
10
297.0000000000
20
210.0000000000
9
$VIEWCTR
10
148.5000000000
20
105.0000000000
9
$VIEWSIZE
40
210.0000000000
9
$CLAYER
8
0
9
$LTSCALE
40
16.3350000000
9
$CELTYPE
6
BYLAYER
9
$DIMSCALE
40
1
9
$DIMASZ
40
3.0000000000
9
$DIMEXO
40
1.8562500000
9
$DIMDLI
40
11.2860000000
9
$DIMEXE
40
5.3460000000
9
$DIMCEN
40
2.6730000000
9
$DIMLFAC
40
1.0000000000
9
$DIMBLK
1
_FILLED
9
$DIMTXT
40
3.0000000000
9
$DIMTOL
70
1
9
$DIMLIM
70
0
9
$DIMTFAC
40
1.0000000000
9
$DIMTP
40
0.0100000000
9
$DIMTM
40
0.0100000000
9
$PDMODE
70
3
9
$PDSIZE
40
3.0000000000
9
$HANDSEED
5
5AC
9
$MEASUREMENT
70
1
9
$INSUNITS
70
4
0
ENDSEC
0
SECTION
2
CLASSES
0
CLASS
1
ACDBDICTIONARYWDFLT
2
AcDbDictionaryWithDefault
3
AutoCAD 2000
90
0
280
0
281
0
0
CLASS
1
ACDBPLACEHOLDER
2
AcDbPlaceHolder
3
AutoCAD 2000
90
0
280
0
281
0
0
CLASS
1
LAYOUT
2
AcDbLayout
3
AutoCAD 2000
90
0
280
0
281
0
0
ENDSEC
0
SECTION
2
TABLES
0
TABLE
2
VPORT
5
8
100
AcDbSymbolTable
70
2
0
VPORT
5
1F4
100
AcDbSymbolTableRecord
100
AcDbViewportTableRecord
2
*ACTIVE
70
0
10
0.0
20
0.0
11
1.0
21
1.0
12
148.5000000000
22
105.0000000000
13
0.0
23
0.0
14
1.0
24
1.0
15
0.0
25
0.0
16
0.0
26
0.0
36
1.0
17
0.0
27
0.0
37
0.0
40
210.0000000000
41
1.4142857143
42
50.0
43
0.0
44
0.0
50
0.0
51
0.0
71
0
72
100
73
1
74
1
75
0
76
0
77
0
78
0
0
ENDTAB
0
TABLE
2
LTYPE
5
5
100
AcDbSymbolTable
70
6
0
LTYPE
5
14
100
AcDbSymbolTableRecord
100
AcDbLinetypeTableRecord
2
BYBLOCK
70
0
3

72
65
73
0
40
0.0
0
LTYPE
5
15
100
AcDbSymbolTableRecord
100
AcDbLinetypeTableRecord
2
BYLAYER
70
0
3

72
65
73
0
40
0.0
0
LTYPE
5
16
100
AcDbSymbolTableRecord
100
AcDbLinetypeTableRecord
2
CONTINUOUS
70
64
3
Solid line
72
65
73
0
40
0
0
LTYPE
5
1F5
100
AcDbSymbolTableRecord
100
AcDbLinetypeTableRecord
2
CENTER
70
64
3
____ _ ____ _ ____ _ ____ _ ____ _ ____ _ ____
72
65
73
4
40
0.6
49
0.375
74
0
49
-0.075
74
0
49
0.075
74
0
49
-0.075
74
0
0
LTYPE
5
1F6
100
AcDbSymbolTableRecord
100
AcDbLinetypeTableRecord
2
HIDDEN
70
64
3
- - - - - - - - - - - - - - - - - - - -
72
65
73
2
40
0.2
49
0.1
74
0
49
-0.1
74
0
0
LTYPE
5
1F7
100
AcDbSymbolTableRecord
100
AcDbLinetypeTableRecord
2
PHANTOM
70
64
3
_____ _ _ _____ _ _ _____ _ _ _____
72
65
73
6
40
0.8
49
0.45
74
0
49
-0.05
74
0
49
0.1
74
0
49
-0.05
74
0
49
0.1
74
0
49
-0.05
74
0
0
LTYPE
5
1F8
100
AcDbSymbolTableRecord
100
AcDbLinetypeTableRecord
2
DOT
70
64
3
. . . . . . . . . . . . . . . . . . . .
72
65
73
2
40
0.2
49
0.1
74
0
49
-0.1
74
0
0
LTYPE
5
1F9
100
AcDbSymbolTableRecord
100
AcDbLinetypeTableRecord
2
DASHED
70
64
3
- - - - - - - - - - - - - - - - - - - -
72
65
73
2
40
0.2
49
0.1
74
0
49
-0.1
74
0
0
ENDTAB
0
TABLE
2
LAYER
5
2
100
AcDbSymbolTable
70
36
0
LAYER
5
10
100
AcDbSymbolTableRecord
100
AcDbLayerTableRecord
2
0
70
0
62
7
6
CONTINUOUS
370
-3
390
F
0
LAYER
5
1FA
100
AcDbSymbolTableRecord
100
AcDbLayerTableRecord
2
DEFAULT_1
70
0
62
7
6
CENTER
370
-3
390
F
0
LAYER
5
1FB
100
AcDbSymbolTableRecord
100
AcDbLayerTableRecord
2
DEFAULT_2
70
0
62
0
6
HIDDEN
370
-3
390
F
0
LAYER
5
1FC
100
AcDbSymbolTableRecord
100
AcDbLayerTableRecord
2
DEFAULT_3
70
0
62
7
6
PHANTOM
370
-3
390
F
0
LAYER
5
1FD
100
AcDbSymbolTableRecord
100
AcDbLayerTableRecord
2
_BLACK_HOLE
70
0
62
7
6
CONTINUOUS
370
-3
390
F
0
LAYER
5
1FE
100
AcDbSymbolTableRecord
100
AcDbLayerTableRecord
2
ASSI
70
0
62
7
6
CONTINUOUS
370
-3
390
F
0
LAYER
5
1FF
100
AcDbSymbolTableRecord
100
AcDbLayerTableRecord
2
COORDINATE
70
0
62
7
6
CONTINUOUS
370
-3
390
F
0
LAYER
5
200
100
AcDbSymbolTableRecord
100
AcDbLayerTableRecord
2
COORD_ORIGINE
70
0
62
7
6
CONTINUOUS
370
-3
390
F
0
LAYER
5
201
100
AcDbSymbolTableRecord
100
AcDbLayerTableRecord
2
COPY-PUBBLISH
70
0
62
7
6
CONTINUOUS
370
-3
390
F
0
LAYER
5
202
100
AcDbSymbolTableRecord
100
AcDbLayerTableRecord
2
COPY_PUBLISH
70
0
62
7
6
CONTINUOUS
370
-3
390
F
0
LAYER
5
203
100
AcDbSymbolTableRecord
100
AcDbLayerTableRecord
2
COSMETIC
70
0
62
7
6
CONTINUOUS
370
-3
390
F
0
LAYER
5
204
100
AcDbSymbolTableRecord
100
AcDbLayerTableRecord
2
CURVE
70
0
62
7
6
CONTINUOUS
370
-3
390
F
0
LAYER
5
205
100
AcDbSymbolTableRecord
100
AcDbLayerTableRecord
2
CURVE_INCISIONI
70
0
62
7
6
CONTINUOUS
370
-3
390
F
0
LAYER
5
206
100
AcDbSymbolTableRecord
100
AcDbLayerTableRecord
2
DRAFT
70
0
62
7
6
CONTINUOUS
370
-3
390
F
0
LAYER
5
207
100
AcDbSymbolTableRecord
100
AcDbLayerTableRecord
2
IGES
70
0
62
7
6
CONTINUOUS
370
-3
390
F
0
LAYER
5
208
100
AcDbSymbolTableRecord
100
AcDbLayerTableRecord
2
IMPORT_IGES
70
0
62
7
6
CONTINUOUS
370
-3
390
F
0
LAYER
5
209
100
AcDbSymbolTableRecord
100
AcDbLayerTableRecord
2
INTF_CYAN
70
0
62
7
6
CONTINUOUS
370
-3
390
F
0
LAYER
5
20A
100
AcDbSymbolTableRecord
100
AcDbLayerTableRecord
2
PIANI
70
0
62
7
6
CONTINUOUS
370
-3
390
F
0
LAYER
5
20B
100
AcDbSymbolTableRecord
100
AcDbLayerTableRecord
2
PIANI_ORIGINE
70
0
62
7
6
CONTINUOUS
370
-3
390
F
0
LAYER
5
20C
100
AcDbSymbolTableRecord
100
AcDbLayerTableRecord
2
PUNTI
70
0
62
7
6
CONTINUOUS
370
-3
390
F
0
LAYER
5
20D
100
AcDbSymbolTableRecord
100
AcDbLayerTableRecord
2
RACCORDO
70
0
62
7
6
CONTINUOUS
370
-3
390
F
0
LAYER
5
20E
100
AcDbSymbolTableRecord
100
AcDbLayerTableRecord
2
SMUSSO
70
0
62
7
6
CONTINUOUS
370
-3
390
F
0
LAYER
5
20F
100
AcDbSymbolTableRecord
100
AcDbLayerTableRecord
2
SNAPLINE
70
0
62
7
6
CONTINUOUS
370
-3
390
F
0
LAYER
5
210
100
AcDbSymbolTableRecord
100
AcDbLayerTableRecord
2
TRASH
70
0
62
7
6
CONTINUOUS
370
-3
390
F
0
LAYER
5
211
100
AcDbSymbolTableRecord
100
AcDbLayerTableRecord
2
XSEC_DATUMS
70
0
62
7
6
CONTINUOUS
370
-3
390
F
0
ENDTAB
0
TABLE
2
STYLE
5
3
100
AcDbSymbolTable
70
1
0
STYLE
5
11
100
AcDbSymbolTableRecord
100
AcDbTextStyleTableRecord
2
STANDARD
70
0
40
0.0
41
0.8000000000
50
0.0
71
0
42
0.2
3
txt
4

0
ENDTAB
0
TABLE
2
VIEW
5
6
100
AcDbSymbolTable
70
0
0
ENDTAB
0
TABLE
2
UCS
5
7
100
AcDbSymbolTable
70
0
0
ENDTAB
0
TABLE
2
APPID
5
9
100
AcDbSymbolTable
70
1
0
APPID
5
212
100
AcDbSymbolTableRecord
100
AcDbRegAppTableRecord
2
ACAD
70
0
0
ENDTAB
0
TABLE
2
BLOCK_RECORD
5
1
100
AcDbSymbolTable
70
0
0
BLOCK_RECORD
5
1F
100
AcDbSymbolTableRecord
100
AcDbBlockTableRecord
2
*MODEL_SPACE
0
BLOCK_RECORD
5
1B
100
AcDbSymbolTableRecord
100
AcDbBlockTableRecord
2
*PAPER_SPACE
0
ENDTAB
0
TABLE
2
DIMSTYLE
5
A
100
AcDbSymbolTable
70
1
100
AcDbDimStyleTable
71
0
0
DIMSTYLE
105
213
100
AcDbSymbolTableRecord
100
AcDbDimStyleTableRecord
2
STANDARD
70
0
3

4

40
1.0
41
3.0000000000
42
0.0625
43
0.38
44
0.18
45
0.0
46
0.0
47
0.0100000000
48
0.0100000000
140
3.0000000000
141
0.09
142
0.0
143
25.4
144
1.0000000000
145
0.0
146
1.0000000000
147
0.09
71
1
72
0
73
0
74
0
75
0
76
0
77
1
78
8
170
0
171
2
172
0
173
0
174
0
175
0
176
0
177
0
178
0
270
2
271
2
272
2
273
2
274
2
275
0
280
0
281
0
282
0
283
1
284
8
285
0
286
0
287
3
288
0
340
11
0
ENDTAB
0
ENDSEC
0
SECTION
2
BLOCKS
0
BLOCK
5
20
100
AcDbEntity
8
0
100
AcDbBlockBegin
2
*MODEL_SPACE
70
0
10
0.0
20
0.0
30
0.0
3
*MODEL_SPACE
1

0
ENDBLK
5
21
100
AcDbEntity
8
0
100
AcDbBlockEnd
0
BLOCK
5
1C
100
AcDbEntity
8
0
100
AcDbBlockBegin
2
*PAPER_SPACE
70
0
10
0.0
20
0.0
30
0.0
3
*PAPER_SPACE
1

0
ENDBLK
5
1D
100
AcDbEntity
8
0
100
AcDbBlockEnd
0
ENDSEC
0
SECTION
2
ENTITIES
0
LINE
5
214
100
AcDbEntity
8
0
100
AcDbLine
62
0
6
CONTINUOUS
10
-33.7187952766
20
-30.9752574804
11
-33.7187952766
21
31.3501918703
0
LINE
5
215
100
AcDbEntity
8
0
100
AcDbLine
62
0
6
CONTINUOUS
10
12.7161414005
20
-31.3038052726
11
12.6723970687
21
-31.3125328050
0
LINE
5
216
100
AcDbEntity
8
0
100
AcDbLine
62
0
6
CONTINUOUS
10
-31.7187952766
20
-1.5625328050
11
-31.7187952766
21
1.9374671950
0
LINE
5
217
100
AcDbEntity
8
0
100
AcDbLine
62
0
6
CONTINUOUS
10
-1.2537540998
20
-31.2823521528
11
1.8450309491
21
-31.2275967670
0
LINE
5
218
100
AcDbEntity
8
0
100
AcDbLine
62
0
6
CONTINUOUS
10
-1.6073074904
20
-30.8316334270
11
1.2161414005
21
-30.7817432181
0
LINE
5
219
100
AcDbEntity
8
0
100
AcDbLine
62
0
6
CONTINUOUS
10
-14.2690478083
20
-31.1419577584
11
-4.7187952766
21
-30.9752574804
0
LINE
5
21A
100
AcDbEntity
8
0
100
AcDbLine
62
0
6
CONTINUOUS
10
32.7162175529
20
-31.3125328050
11
18.7598857322
21
-31.3125328050
0
LINE
5
21B
100
AcDbEntity
8
0
100
AcDbLine
62
0
6
CONTINUOUS
10
12.6723970687
20
-31.3125328050
11
-1.2839347520
21
-31.3125328050
0
LINE
5
21C
100
AcDbEntity
8
0
100
AcDbLine
62
0
6
CONTINUOUS
10
18.7161414005
20
-31.3038052726
11
12.7161414005
21
-31.3038052726
0
LINE
5
21D
100
AcDbEntity
8
0
100
AcDbLine
62
0
6
CONTINUOUS
10
29.5872518518
20
-31.2275967670
11
1.8450309491
21
-31.2275967670
0
LINE
5
21E
100
AcDbEntity
8
0
100
AcDbLine
62
0
6
CONTINUOUS
10
-33.7187952766
20
-30.9752574804
11
-24.1685427449
21
-31.1419577584
0
LINE
5
21F
100
AcDbEntity
8
0
100
AcDbLine
62
0
6
CONTINUOUS
10
32.6860369007
20
-31.2823521528
11
29.5872518518
21
-31.2275967670
0
LINE
5
220
100
AcDbEntity
8
0
100
AcDbLine
62
0
6
CONTINUOUS
10
33.0395902913
20
-30.8316334270
11
30.2161414005
21
-30.7817432181
0
LINE
5
221
100
AcDbEntity
8
0
100
AcDbLine
62
0
6
CONTINUOUS
10
-24.1685427449
20
-29.7214311248
11
-29.6331397778
21
-29.5306031915
0
LINE
5
222
100
AcDbEntity
8
0
100
AcDbLine
62
0
6
CONTINUOUS
10
-29.6331397778
20
29.9055375814
11
-29.6331397778
21
8.8646345000
0
LINE
5
223
100
AcDbEntity
8
0
100
AcDbLine
62
0
6
CONTINUOUS
10
-29.6331397778
20
7.5102998899
11
-29.6331397778
21
3.9010619428
0
LINE
5
224
100
AcDbEntity
8
0
100
AcDbLine
62
0
6
CONTINUOUS
10
-29.6331397778
20
-3.5261275529
11
-29.6331397778
21
-7.1353655000
0
LINE
5
225
100
AcDbEntity
8
0
100
AcDbLine
62
0
6
CONTINUOUS
10
-29.6331397778
20
-8.4897001101
11
-29.6331397778
21
-29.5306031915
0
LINE
5
226
100
AcDbEntity
8
0
100
AcDbLine
62
0
6
CONTINUOUS
10
-28.7798909737
20
29.8938005836
11
-28.7798909737
21
8.8763714979
0
LINE
5
227
100
AcDbEntity
8
0
100
AcDbLine
62
0
6
CONTINUOUS
10
-28.7798909737
20
7.4985628920
11
-28.7798909737
21
3.9069286537
0
LINE
5
228
100
AcDbEntity
8
0
100
AcDbLine
62
0
6
CONTINUOUS
10
-28.7798909737
20
-3.5319942638
11
-28.7798909737
21
-7.1236285021
0
LINE
5
229
100
AcDbEntity
8
0
100
AcDbLine
62
0
6
CONTINUOUS
10
-28.7798909737
20
-8.5014371080
11
-28.7798909737
21
-29.5188661937
0
LINE
5
22A
100
AcDbEntity
8
0
100
AcDbLine
62
0
6
CONTINUOUS
10
-28.7187952766
20
-29.4577704966
11
-28.7187952766
21
-8.5625328050
0
LINE
5
22B
100
AcDbEntity
8
0
100
AcDbLine
62
0
6
CONTINUOUS
10
-28.7187952766
20
-7.0625328050
11
-28.7187952766
21
-3.5625328050
0
LINE
5
22C
100
AcDbEntity
8
0
100
AcDbLine
62
0
6
CONTINUOUS
10
-28.7187952766
20
3.9374671950
11
-28.7187952766
21
7.4374671950
0
LINE
5
22D
100
AcDbEntity
8
0
100
AcDbLine
62
0
6
CONTINUOUS
10
-28.7187952766
20
8.9374671950
11
-28.7187952766
21
29.8327048865
0
LINE
5
22E
100
AcDbEntity
8
0
100
AcDbLine
62
0
6
CONTINUOUS
10
-28.3254840025
20
-3.5033023364
11
-28.3254840025
21
-1.6217632737
0
LINE
5
22F
100
AcDbEntity
8
0
100
AcDbLine
62
0
6
CONTINUOUS
10
-28.3254840025
20
1.9966976636
11
-28.3254840025
21
3.8782367263
0
LINE
5
230
100
AcDbEntity
8
0
100
AcDbLine
62
0
6
CONTINUOUS
10
-28.2187952766
20
1.6700134594
11
-28.2187952766
21
-1.2950790695
0
LINE
5
231
100
AcDbEntity
8
0
100
AcDbLine
62
0
6
CONTINUOUS
10
-27.4720067643
20
-3.5093213174
11
-27.4720067643
21
-1.6157442927
0
LINE
5
232
100
AcDbEntity
8
0
100
AcDbLine
62
0
6
CONTINUOUS
10
-27.4720067643
20
1.9906786826
11
-27.4720067643
21
3.8842557073
0
LINE
5
233
100
AcDbEntity
8
0
100
AcDbLine
62
0
6
CONTINUOUS
10
-27.4187952766
20
3.9374671950
11
-27.4187952766
21
1.9374671950
0
LINE
5
234
100
AcDbEntity
8
0
100
AcDbLine
62
0
6
CONTINUOUS
10
-27.4187952766
20
-1.5625328050
11
-27.4187952766
21
-3.5625328050
0
LINE
5
235
100
AcDbEntity
8
0
100
AcDbLine
62
0
6
CONTINUOUS
10
-9.7187952766
20
29.8327048865
11
-9.6576995795
21
29.8938005836
0
LINE
5
236
100
AcDbEntity
8
0
100
AcDbLine
62
0
6
CONTINUOUS
10
-8.8044507754
20
-29.5306031915
11
-14.2690478083
21
-29.7214311248
0
LINE
5
237
100
AcDbEntity
8
0
100
AcDbLine
62
0
6
CONTINUOUS
10
26.9749547034
20
-29.4125099516
11
26.9661414005
21
-29.4125315985
0
LINE
5
238
100
AcDbEntity
8
0
100
AcDbLine
62
0
6
CONTINUOUS
10
3.6749547034
20
-29.4125099516
11
3.6661414005
21
-29.4125315985
0
LINE
5
239
100
AcDbEntity
8
0
100
AcDbLine
62
0
6
CONTINUOUS
10
24.4108015813
20
-29.8571929859
11
21.0214812196
21
-29.8571929859
0
LINE
5
23A
100
AcDbEntity
8
0
100
AcDbLine
62
0
6
CONTINUOUS
10
10.4108015813
20
-29.8571929859
11
7.0214812196
21
-29.8571929859
0
LINE
5
23B
100
AcDbEntity
8
0
100
AcDbLine
62
0
6
CONTINUOUS
10
24.3661414005
20
-29.8125328050
11
24.1690127252
21
-29.8125328050
0
LINE
5
23C
100
AcDbEntity
8
0
100
AcDbLine
62
0
6
CONTINUOUS
10
21.2632700758
20
-29.8125328050
11
21.0661414005
21
-29.8125328050
0
LINE
5
23D
100
AcDbEntity
8
0
100
AcDbLine
62
0
6
CONTINUOUS
10
10.3661414005
20
-29.8125328050
11
10.1690127252
21
-29.8125328050
0
LINE
5
23E
100
AcDbEntity
8
0
100
AcDbLine
62
0
6
CONTINUOUS
10
7.2632700758
20
-29.8125328050
11
7.0661414005
21
-29.8125328050
0
LINE
5
23F
100
AcDbEntity
8
0
100
AcDbLine
62
0
6
CONTINUOUS
10
7.2737431147
20
-29.8125328050
11
10.1585396862
21
-29.8125328050
0
LINE
5
240
100
AcDbEntity
8
0
100
AcDbLine
62
0
6
CONTINUOUS
10
21.2737431147
20
-29.8125328050
11
24.1585396862
21
-29.8125328050
0
LINE
5
241
100
AcDbEntity
8
0
100
AcDbLine
62
0
6
CONTINUOUS
10
-28.7187952766
20
-29.4577704966
11
-9.7187952766
21
-29.4577704966
0
LINE
5
242
100
AcDbEntity
8
0
100
AcDbLine
62
0
6
CONTINUOUS
10
10.3661414005
20
-29.2426912661
11
10.1725037381
21
-29.2426912661
0
LINE
5
243
100
AcDbEntity
8
0
100
AcDbLine
62
0
6
CONTINUOUS
10
7.2597790628
20
-29.2426912661
11
7.0661414005
21
-29.2426912661
0
LINE
5
244
100
AcDbEntity
8
0
100
AcDbLine
62
0
6
CONTINUOUS
10
21.0661414005
20
-29.2426912661
11
21.2597790628
21
-29.2426912661
0
LINE
5
245
100
AcDbEntity
8
0
100
AcDbLine
62
0
6
CONTINUOUS
10
24.1725037381
20
-29.2426912661
11
24.3661414005
21
-29.2426912661
0
LINE
5
246
100
AcDbEntity
8
0
100
AcDbLine
62
0
6
CONTINUOUS
10
7.2859616602
20
-29.1125328050
11
10.1463211407
21
-29.1125328050
0
LINE
5
247
100
AcDbEntity
8
0
100
AcDbLine
62
0
6
CONTINUOUS
10
21.2859616602
20
-29.1125328050
11
24.1463211407
21
-29.1125328050
0
LINE
5
248
100
AcDbEntity
8
0
100
AcDbLine
62
0
6
CONTINUOUS
10
7.0451043528
20
-28.7089647055
11
7.2161414005
21
-28.7089647055
0
LINE
5
249
100
AcDbEntity
8
0
100
AcDbLine
62
0
6
CONTINUOUS
10
10.2161414005
20
-28.7089647055
11
10.3871784481
21
-28.7089647055
0
LINE
5
24A
100
AcDbEntity
8
0
100
AcDbLine
62
0
6
CONTINUOUS
10
21.0451043528
20
-28.7089647055
11
21.2161414005
21
-28.7089647055
0
LINE
5
24B
100
AcDbEntity
8
0
100
AcDbLine
62
0
6
CONTINUOUS
10
24.2161414005
20
-28.7089647055
11
24.3871784481
21
-28.7089647055
0
LINE
5
24C
100
AcDbEntity
8
0
100
AcDbLine
62
0
6
CONTINUOUS
10
24.1463211407
20
-28.1823530648
11
21.2859616602
21
-28.1823530648
0
LINE
5
24D
100
AcDbEntity
8
0
100
AcDbLine
62
0
6
CONTINUOUS
10
10.1463211407
20
-28.1823530648
11
7.2859616602
21
-28.1823530648
0
LINE
5
24E
100
AcDbEntity
8
0
100
AcDbLine
62
0
6
CONTINUOUS
10
24.3906642624
20
-27.3125328050
11
21.0416185385
21
-27.3125328050
0
LINE
5
24F
100
AcDbEntity
8
0
100
AcDbLine
62
0
6
CONTINUOUS
10
10.3906642624
20
-27.3125328050
11
7.0416185385
21
-27.3125328050
0
LINE
5
250
100
AcDbEntity
8
0
100
AcDbLine
62
0
6
CONTINUOUS
10
7.0151136092
20
-27.2615050138
11
10.4171691917
21
-27.2615050138
0
LINE
5
251
100
AcDbEntity
8
0
100
AcDbLine
62
0
6
CONTINUOUS
10
21.0151136092
20
-27.2615050138
11
24.4171691917
21
-27.2615050138
0
LINE
5
252
100
AcDbEntity
8
0
100
AcDbLine
62
0
6
CONTINUOUS
10
4.4573280975
20
-29.4125099516
11
4.4661414005
21
-29.4125315985
0
LINE
5
253
100
AcDbEntity
8
0
100
AcDbLine
62
0
6
CONTINUOUS
10
27.7573280975
20
-29.4125099516
11
27.7661414005
21
-29.4125315985
0
LINE
5
254
100
AcDbEntity
8
0
100
AcDbLine
62
0
6
CONTINUOUS
10
18.7598857322
20
-31.3125328050
11
18.7161414005
21
-31.3038052726
0
LINE
5
255
100
AcDbEntity
8
0
100
AcDbLine
62
0
6
CONTINUOUS
10
-9.7187952766
20
-29.4577704966
11
-9.6576995795
21
-29.5188661937
0
LINE
5
256
100
AcDbEntity
8
0
100
AcDbLine
62
0
6
CONTINUOUS
10
-27.2187952766
20
-1.7984173730
11
-27.2187952766
21
-1.3125328050
0
LINE
5
257
100
AcDbEntity
8
0
100
AcDbLine
62
0
6
CONTINUOUS
10
-27.2187952766
20
1.6874671950
11
-27.2187952766
21
2.1733517629
0
LINE
5
258
100
AcDbEntity
8
0
100
AcDbLine
62
0
6
CONTINUOUS
10
-27.2046798446
20
2.1733517629
11
-27.2046798446
21
1.6733517629
0
LINE
5
259
100
AcDbEntity
8
0
100
AcDbLine
62
0
6
CONTINUOUS
10
-27.2046798446
20
-1.2984173730
11
-27.2046798446
21
-1.7984173730
0
LINE
5
25A
100
AcDbEntity
8
0
100
AcDbLine
62
0
6
CONTINUOUS
10
-27.0116884954
20
-8.3981570142
11
-27.0116884954
21
-7.2269085959
0
LINE
5
25B
100
AcDbEntity
8
0
100
AcDbLine
62
0
6
CONTINUOUS
10
-27.0116884954
20
7.6018429858
11
-27.0116884954
21
8.7730914041
0
LINE
5
25C
100
AcDbEntity
8
0
100
AcDbLine
62
0
6
CONTINUOUS
10
-26.4329107086
20
2.1733517629
11
-26.4329107086
21
1.6733517629
0
LINE
5
25D
100
AcDbEntity
8
0
100
AcDbLine
62
0
6
CONTINUOUS
10
-26.4329107086
20
-1.2984173730
11
-26.4329107086
21
-1.7984173730
0
LINE
5
25E
100
AcDbEntity
8
0
100
AcDbLine
62
0
6
CONTINUOUS
10
-26.4187952766
20
2.1733517629
11
-26.4187952766
21
1.6874671950
0
LINE
5
25F
100
AcDbEntity
8
0
100
AcDbLine
62
0
6
CONTINUOUS
10
-26.4187952766
20
-1.3125328050
11
-26.4187952766
21
-1.7984173730
0
LINE
5
260
100
AcDbEntity
8
0
100
AcDbLine
62
0
6
CONTINUOUS
10
-26.3045817142
20
-8.3879289576
11
-26.3045817142
21
-7.2371366525
0
LINE
5
261
100
AcDbEntity
8
0
100
AcDbLine
62
0
6
CONTINUOUS
10
-26.3045817142
20
7.6120710424
11
-26.3045817142
21
8.7628633475
0
LINE
5
262
100
AcDbEntity
8
0
100
AcDbLine
62
0
6
CONTINUOUS
10
-26.2187952766
20
-3.0625328050
11
-26.2187952766
21
-1.6428261037
0
LINE
5
263
100
AcDbEntity
8
0
100
AcDbLine
62
0
6
CONTINUOUS
10
-26.2187952766
20
2.0177604936
11
-26.2187952766
21
3.4374671950
0
LINE
5
264
100
AcDbEntity
8
0
100
AcDbLine
62
0
6
CONTINUOUS
10
-26.1315186227
20
-2.9752561512
11
-26.1315186227
21
-1.1125328050
0
LINE
5
265
100
AcDbEntity
8
0
100
AcDbLine
62
0
6
CONTINUOUS
10
-26.1315186227
20
1.4874671950
11
-26.1315186227
21
3.3501905411
0
LINE
5
266
100
AcDbEntity
8
0
100
AcDbLine
62
0
6
CONTINUOUS
10
-25.6227924195
20
-2.9665299479
11
-25.6227924195
21
-1.6213365015
0
LINE
5
267
100
AcDbEntity
8
0
100
AcDbLine
62
0
6
CONTINUOUS
10
-25.6227924195
20
1.9962708914
11
-25.6227924195
21
3.3414643378
0
LINE
5
268
100
AcDbEntity
8
0
100
AcDbLine
62
0
6
CONTINUOUS
10
-28.7798909737
20
8.8763714979
11
-28.7187952766
21
8.9374671950
0
LINE
5
269
100
AcDbEntity
8
CURVE_INCISIONI
100
AcDbLine
62
0
6
CONTINUOUS
10
25.4875699617
20
-25.3125328050
11
24.3447128154
21
-25.3125328050
0
LINE
5
26A
100
AcDbEntity
8
CURVE_INCISIONI
100
AcDbLine
62
0
6
CONTINUOUS
10
22.4875699617
20
-25.3125328050
11
21.3447128154
21
-25.3125328050
0
LINE
5
26B
100
AcDbEntity
8
CURVE_INCISIONI
100
AcDbLine
62
0
6
CONTINUOUS
10
21.8018556453
20
-24.4325328050
11
22.7161414005
21
-24.4325328050
0
LINE
5
26C
100
AcDbEntity
8
0
100
AcDbLine
62
0
6
CONTINUOUS
10
-23.6838851468
20
-24.3125328050
11
-23.1926113500
21
-24.3125328050
0
LINE
5
26D
100
AcDbEntity
8
0
100
AcDbLine
62
0
6
CONTINUOUS
10
-14.7537054065
20
-24.3125328050
11
-15.2449792033
21
-24.3125328050
0
LINE
5
26E
100
AcDbEntity
8
CURVE_INCISIONI
100
AcDbLine
62
0
6
CONTINUOUS
10
22.7161414005
20
-23.9296756922
11
21.5732842304
21
-23.9296756922
0
LINE
5
26F
100
AcDbEntity
8
0
100
AcDbLine
62
0
6
CONTINUOUS
10
-28.7798909737
20
-8.5014371080
11
-28.7187952766
21
-8.5625328050
0
LINE
5
270
100
AcDbEntity
8
0
100
AcDbLine
62
0
6
CONTINUOUS
10
-23.8147981337
20
1.9962708914
11
-23.8059169322
21
1.4874671950
0
LINE
5
271
100
AcDbEntity
8
0
100
AcDbLine
62
0
6
CONTINUOUS
10
-24.1685427449
20
31.5168921483
11
-24.1685427449
21
30.0963655147
0
LINE
5
272
100
AcDbEntity
8
0
100
AcDbLine
62
0
6
CONTINUOUS
10
-24.1685427449
20
-29.7214311248
11
-24.1685427449
21
-31.1419577584
0
LINE
5
273
100
AcDbEntity
8
0
100
AcDbLine
62
0
6
CONTINUOUS
10
-23.8147981337
20
-2.9665299479
11
-23.8147981337
21
-1.6213365015
0
LINE
5
274
100
AcDbEntity
8
0
100
AcDbLine
62
0
6
CONTINUOUS
10
-23.8147981337
20
1.9962708914
11
-23.8147981337
21
3.3414643378
0
LINE
5
275
100
AcDbEntity
8
0
100
AcDbLine
62
0
6
CONTINUOUS
10
-23.7187952766
20
3.4374671950
11
-23.7187952766
21
2.0177604936
0
LINE
5
276
100
AcDbEntity
8
0
100
AcDbLine
62
0
6
CONTINUOUS
10
-23.7187952766
20
-1.6428261037
11
-23.7187952766
21
-3.0625328050
0
LINE
5
277
100
AcDbEntity
8
0
100
AcDbLine
62
0
6
CONTINUOUS
10
-23.6838851468
20
-24.3125328050
11
-23.6838851468
21
-18.8125328050
0
LINE
5
278
100
AcDbEntity
8
0
100
AcDbLine
62
0
6
CONTINUOUS
10
-23.6838851468
20
19.1874671950
11
-23.6838851468
21
24.6874671950
0
LINE
5
279
100
AcDbEntity
8
0
100
AcDbLine
62
0
6
CONTINUOUS
10
-23.4687952766
20
2.0177604936
11
-23.4687952766
21
1.6874671950
0
LINE
5
27A
100
AcDbEntity
8
0
100
AcDbLine
62
0
6
CONTINUOUS
10
-23.4687952766
20
-1.3125328050
11
-23.4687952766
21
-1.6428261037
0
LINE
5
27B
100
AcDbEntity
8
0
100
AcDbLine
62
0
6
CONTINUOUS
10
-23.1926113500
20
-24.3125328050
11
-23.1926113500
21
-18.8125328050
0
LINE
5
27C
100
AcDbEntity
8
0
100
AcDbLine
62
0
6
CONTINUOUS
10
-23.1926113500
20
19.1874671950
11
-23.1926113500
21
24.6874671950
0
LINE
5
27D
100
AcDbEntity
8
0
100
AcDbLine
62
0
6
CONTINUOUS
10
-22.7187952766
20
-3.5625328050
11
-22.7187952766
21
-1.5625328050
0
LINE
5
27E
100
AcDbEntity
8
0
100
AcDbLine
62
0
6
CONTINUOUS
10
-22.7187952766
20
1.9374671950
11
-22.7187952766
21
3.9374671950
0
LINE
5
27F
100
AcDbEntity
8
0
100
AcDbLine
62
0
6
CONTINUOUS
10
-22.6227924195
20
3.8414643378
11
-22.6227924195
21
2.0334700521
0
LINE
5
280
100
AcDbEntity
8
0
100
AcDbLine
62
0
6
CONTINUOUS
10
-22.6227924195
20
-3.4665299479
11
-22.6227924195
21
-1.6585356622
0
LINE
5
281
100
AcDbEntity
8
0
100
AcDbLine
62
0
6
CONTINUOUS
10
-23.8059169322
20
-1.1125328050
11
-23.8147981337
21
-1.6213365015
0
LINE
5
282
100
AcDbEntity
8
0
100
AcDbLine
62
0
6
CONTINUOUS
10
-27.4720067643
20
3.8842557073
11
-27.4187952766
21
3.9374671950
0
LINE
5
283
100
AcDbEntity
8
CURVE_INCISIONI
100
AcDbLine
62
0
6
CONTINUOUS
10
25.6018556811
20
-23.8458661733
11
24.1161414005
21
-23.8458661733
0
LINE
5
284
100
AcDbEntity
8
CURVE_INCISIONI
100
AcDbLine
62
0
6
CONTINUOUS
10
21.6875699855
20
-23.3430089556
11
21.9161414005
21
-23.3430089556
0
LINE
5
285
100
AcDbEntity
8
CURVE_INCISIONI
100
AcDbLine
62
0
6
CONTINUOUS
10
12.2202744005
20
-23.1804678050
11
10.7886034005
21
-23.1804678050
0
LINE
5
286
100
AcDbEntity
8
CURVE_INCISIONI
100
AcDbLine
62
0
6
CONTINUOUS
10
25.6018556811
20
-22.9658660684
11
25.2589985229
21
-22.9658660684
0
LINE
5
287
100
AcDbEntity
8
CURVE_INCISIONI
100
AcDbLine
62
0
6
CONTINUOUS
10
22.6018556811
20
-22.7982470308
11
22.2589985229
21
-22.7982470308
0
LINE
5
288
100
AcDbEntity
8
CURVE_INCISIONI
100
AcDbLine
62
0
6
CONTINUOUS
10
10.7885995999
20
-22.4452728050
11
12.2202744005
21
-22.4452728050
0
LINE
5
289
100
AcDbEntity
8
CURVE_INCISIONI
100
AcDbLine
62
0
6
CONTINUOUS
10
25.7161414005
20
-22.2115805040
11
24.8018556453
21
-22.2115805040
0
LINE
5
28A
100
AcDbEntity
8
CURVE_INCISIONI
100
AcDbLine
62
0
6
CONTINUOUS
10
22.7161414005
20
-22.0439614664
11
21.8018556453
21
-22.0439614664
0
LINE
5
28B
100
AcDbEntity
8
CURVE_INCISIONI
100
AcDbLine
62
0
6
CONTINUOUS
10
25.0304271079
20
-21.7087231813
11
24.6875699855
21
-21.7087231813
0
LINE
5
28C
100
AcDbEntity
8
CURVE_INCISIONI
100
AcDbLine
62
0
6
CONTINUOUS
10
22.6018556811
20
-21.5411043535
11
21.6875699855
21
-21.5411043535
0
LINE
5
28D
100
AcDbEntity
8
CURVE_INCISIONI
100
AcDbLine
62
0
6
CONTINUOUS
10
25.6018556811
20
-20.9544374071
11
25.2589985229
21
-20.9544374071
0
LINE
5
28E
100
AcDbEntity
8
0
100
AcDbLine
62
0
6
CONTINUOUS
10
-27.4720067643
20
-3.5093213174
11
-27.4187952766
21
-3.5625328050
0
LINE
5
28F
100
AcDbEntity
8
0
100
AcDbLine
62
0
6
CONTINUOUS
10
-19.9687952766
20
4.7687686122
11
-19.9687952766
21
3.9374671950
0
LINE
5
290
100
AcDbEntity
8
0
100
AcDbLine
62
0
6
CONTINUOUS
10
-19.9687952766
20
-3.5625328050
11
-19.9687952766
21
-4.3938342223
0
LINE
5
291
100
AcDbEntity
8
0
100
AcDbLine
62
0
6
CONTINUOUS
10
-19.7941914292
20
4.9122299762
11
-19.7941914292
21
3.8501918703
0
LINE
5
292
100
AcDbEntity
8
0
100
AcDbLine
62
0
6
CONTINUOUS
10
-19.7941914292
20
-3.4752574804
11
-19.7941914292
21
-4.5372955863
0
LINE
5
293
100
AcDbEntity
8
0
100
AcDbLine
62
0
6
CONTINUOUS
10
-18.6433991241
20
-4.5372955863
11
-18.6433991241
21
-3.4752574804
0
LINE
5
294
100
AcDbEntity
8
0
100
AcDbLine
62
0
6
CONTINUOUS
10
-18.6433991241
20
3.8501918703
11
-18.6433991241
21
4.9122299762
0
LINE
5
295
100
AcDbEntity
8
0
100
AcDbLine
62
0
6
CONTINUOUS
10
-18.4687952766
20
-4.3938342223
11
-18.4687952766
21
-3.5625328050
0
LINE
5
296
100
AcDbEntity
8
0
100
AcDbLine
62
0
6
CONTINUOUS
10
-18.4687952766
20
3.9374671950
11
-18.4687952766
21
4.7687686122
0
LINE
5
297
100
AcDbEntity
8
0
100
AcDbLine
62
0
6
CONTINUOUS
10
-23.7187952766
20
3.4374671950
11
-23.8147981337
21
3.3414643378
0
LINE
5
298
100
AcDbEntity
8
0
100
AcDbLine
62
0
6
CONTINUOUS
10
-27.4720067643
20
-1.6157442927
11
-27.4187952766
21
-1.5625328050
0
LINE
5
299
100
AcDbEntity
8
CURVE_INCISIONI
100
AcDbLine
62
0
6
CONTINUOUS
10
21.1161414005
20
-20.7868185793
11
22.7161414005
21
-20.7868185793
0
LINE
5
29A
100
AcDbEntity
8
CURVE_INCISIONI
100
AcDbLine
62
0
6
CONTINUOUS
10
25.0304271079
20
-20.4515805040
11
24.6875699855
21
-20.4515805040
0
LINE
5
29B
100
AcDbEntity
8
CURVE_INCISIONI
100
AcDbLine
62
0
6
CONTINUOUS
10
22.4875699617
20
-20.2839612566
11
21.8018556453
21
-20.2839612566
0
LINE
5
29C
100
AcDbEntity
8
CURVE_INCISIONI
100
AcDbLine
62
0
6
CONTINUOUS
10
25.6018556811
20
-19.6972947298
11
25.2589985229
21
-19.6972947298
0
LINE
5
29D
100
AcDbEntity
8
CURVE_INCISIONI
100
AcDbLine
62
0
6
CONTINUOUS
10
21.8018556453
20
-19.5296754824
11
22.4875699617
21
-19.5296754824
0
LINE
5
29E
100
AcDbEntity
8
CURVE_INCISIONI
100
AcDbLine
62
0
6
CONTINUOUS
10
25.4875699617
20
-19.1944374071
11
24.8018556453
21
-19.1944374071
0
LINE
5
29F
100
AcDbEntity
8
CURVE_INCISIONI
100
AcDbLine
62
0
6
CONTINUOUS
10
22.7161414005
20
-19.0268185793
11
22.6018556811
21
-19.0268185793
0
LINE
5
2A0
100
AcDbEntity
8
CURVE_INCISIONI
100
AcDbLine
62
0
6
CONTINUOUS
10
22.0304271079
20
-19.0268185793
11
21.9161414005
21
-19.0268185793
0
LINE
5
2A1
100
AcDbEntity
8
0
100
AcDbLine
62
0
6
CONTINUOUS
10
-23.6838851468
20
-18.8125328050
11
-23.1926113500
21
-18.8125328050
0
LINE
5
2A2
100
AcDbEntity
8
CURVE_INCISIONI
100
AcDbLine
62
0
6
CONTINUOUS
10
6.1639985478
20
-18.8125328050
11
6.3132842843
21
-18.8125328050
0
LINE
5
2A3
100
AcDbEntity
8
CURVE_INCISIONI
100
AcDbLine
62
0
6
CONTINUOUS
10
8.8511414005
20
-18.8125328050
11
9.2989985789
21
-18.8125328050
0
LINE
5
2A4
100
AcDbEntity
8
CURVE_INCISIONI
100
AcDbLine
62
0
6
CONTINUOUS
10
10.1947126867
20
-18.8125328050
11
11.2397126867
21
-18.8125328050
0
LINE
5
2A5
100
AcDbEntity
8
CURVE_INCISIONI
100
AcDbLine
62
0
6
CONTINUOUS
10
12.1354270436
20
-18.8125328050
11
12.5832844712
21
-18.8125328050
0
LINE
5
2A6
100
AcDbEntity
8
0
100
AcDbLine
62
0
6
CONTINUOUS
10
-14.7537054065
20
-18.8125328050
11
-15.2449792033
21
-18.8125328050
0
LINE
5
2A7
100
AcDbEntity
8
CURVE_INCISIONI
100
AcDbLine
62
0
6
CONTINUOUS
10
24.8018556453
20
-18.4401520525
11
25.1447128154
21
-18.4401520525
0
LINE
5
2A8
100
AcDbEntity
8
CURVE_INCISIONI
100
AcDbLine
62
0
6
CONTINUOUS
10
25.7161414005
20
-17.9372943102
11
25.6018556811
21
-17.9372943102
0
LINE
5
2A9
100
AcDbEntity
8
CURVE_INCISIONI
100
AcDbLine
62
0
6
CONTINUOUS
10
25.0304271079
20
-17.9372943102
11
24.9161414005
21
-17.9372943102
0
LINE
5
2AA
100
AcDbEntity
8
CURVE_INCISIONI
100
AcDbLine
62
0
6
CONTINUOUS
10
21.1161414005
20
-17.8953897081
11
22.7161414005
21
-17.8953897081
0
LINE
5
2AB
100
AcDbEntity
8
0
100
AcDbLine
62
0
6
CONTINUOUS
10
-23.7187952766
20
-3.0625328050
11
-23.8147981337
21
-2.9665299479
0
LINE
5
2AC
100
AcDbEntity
8
0
100
AcDbLine
62
0
6
CONTINUOUS
10
-27.4187952766
20
1.9374671950
11
-27.4720067643
21
1.9906786826
0
LINE
5
2AD
100
AcDbEntity
8
0
100
AcDbLine
62
0
6
CONTINUOUS
10
-15.8147981337
20
3.8414643378
11
-15.8147981337
21
2.0334700521
0
LINE
5
2AE
100
AcDbEntity
8
0
100
AcDbLine
62
0
6
CONTINUOUS
10
-15.8147981337
20
-3.4665299479
11
-15.8147981337
21
-1.6585356622
0
LINE
5
2AF
100
AcDbEntity
8
0
100
AcDbLine
62
0
6
CONTINUOUS
10
-15.7187952766
20
3.9374671950
11
-15.7187952766
21
1.9374671950
0
LINE
5
2B0
100
AcDbEntity
8
0
100
AcDbLine
62
0
6
CONTINUOUS
10
-15.7187952766
20
-1.5625328050
11
-15.7187952766
21
-3.5625328050
0
LINE
5
2B1
100
AcDbEntity
8
0
100
AcDbLine
62
0
6
CONTINUOUS
10
-15.2449792033
20
24.6874671950
11
-15.2449792033
21
19.1874671950
0
LINE
5
2B2
100
AcDbEntity
8
0
100
AcDbLine
62
0
6
CONTINUOUS
10
-15.2449792033
20
-18.8125328050
11
-15.2449792033
21
-24.3125328050
0
LINE
5
2B3
100
AcDbEntity
8
0
100
AcDbLine
62
0
6
CONTINUOUS
10
-21.1934724599
20
1.9374671950
11
-21.3879169044
21
1.6874671950
0
LINE
5
2B4
100
AcDbEntity
8
0
100
AcDbLine
62
0
6
CONTINUOUS
10
-23.7187952766
20
2.0177604936
11
-23.7990885753
21
1.9374671950
0
LINE
5
2B5
100
AcDbEntity
8
0
100
AcDbLine
62
0
6
CONTINUOUS
10
-22.7187952766
20
1.9374671950
11
-22.6227924195
21
2.0334700521
0
LINE
5
2B6
100
AcDbEntity
8
0
100
AcDbLine
62
0
6
CONTINUOUS
10
-26.1385019780
20
-1.5625328050
11
-26.2187952766
21
-1.6428261037
0
LINE
5
2B7
100
AcDbEntity
8
0
100
AcDbLine
62
0
6
CONTINUOUS
10
-26.2187952766
20
-3.0625328050
11
-26.1315186227
21
-2.9752561512
0
LINE
5
2B8
100
AcDbEntity
8
0
100
AcDbLine
62
0
6
CONTINUOUS
10
-28.7798909737
20
-7.1236285021
11
-28.7187952766
21
-7.0625328050
0
LINE
5
2B9
100
AcDbEntity
8
0
100
AcDbLine
62
0
6
CONTINUOUS
10
-28.7187952766
20
3.9374671950
11
-28.7798909737
21
3.9069286537
0
LINE
5
2BA
100
AcDbEntity
8
CURVE_INCISIONI
100
AcDbLine
62
0
6
CONTINUOUS
10
12.5832844712
20
-17.7268184708
11
12.1354270436
21
-17.7268184708
0
LINE
5
2BB
100
AcDbEntity
8
CURVE_INCISIONI
100
AcDbLine
62
0
6
CONTINUOUS
10
9.2989985789
20
-17.7268184708
11
8.8511414005
21
-17.7268184708
0
LINE
5
2BC
100
AcDbEntity
8
CURVE_INCISIONI
100
AcDbLine
62
0
6
CONTINUOUS
10
25.7161414005
20
-16.9734851061
11
24.1161414005
21
-16.9734851061
0
LINE
5
2BD
100
AcDbEntity
8
CURVE_INCISIONI
100
AcDbLine
62
0
6
CONTINUOUS
10
6.3132842843
20
-16.9125328050
11
6.1639985478
21
-16.9125328050
0
LINE
5
2BE
100
AcDbEntity
8
CURVE_INCISIONI
100
AcDbLine
62
0
6
CONTINUOUS
10
8.8511414005
20
-16.9125328050
11
9.2989985789
21
-16.9125328050
0
LINE
5
2BF
100
AcDbEntity
8
CURVE_INCISIONI
100
AcDbLine
62
0
6
CONTINUOUS
10
10.4932844712
20
-16.9125328050
11
10.9411414005
21
-16.9125328050
0
LINE
5
2C0
100
AcDbEntity
8
CURVE_INCISIONI
100
AcDbLine
62
0
6
CONTINUOUS
10
12.1354270436
20
-16.9125328050
11
12.5832844712
21
-16.9125328050
0
LINE
5
2C1
100
AcDbEntity
8
CURVE_INCISIONI
100
AcDbLine
62
0
6
CONTINUOUS
10
25.7161414005
20
-15.8420566545
11
24.1161414005
21
-15.8420566545
0
LINE
5
2C2
100
AcDbEntity
8
CURVE_INCISIONI
100
AcDbLine
62
0
6
CONTINUOUS
10
14.6768374005
20
-15.8045288050
11
14.0389064005
21
-15.8045288050
0
LINE
5
2C3
100
AcDbEntity
8
CURVE_INCISIONI
100
AcDbLine
62
0
6
CONTINUOUS
10
12.8908124005
20
-15.8045288050
11
12.2921084005
21
-15.8045288050
0
LINE
5
2C4
100
AcDbEntity
8
CURVE_INCISIONI
100
AcDbLine
62
0
6
CONTINUOUS
10
12.1970644005
20
-15.8045288050
11
11.6049484005
21
-15.8045288050
0
LINE
5
2C5
100
AcDbEntity
8
CURVE_INCISIONI
100
AcDbLine
62
0
6
CONTINUOUS
10
10.7609254005
20
-15.8045288050
11
10.6760364005
21
-15.8045288050
0
LINE
5
2C6
100
AcDbEntity
8
CURVE_INCISIONI
100
AcDbLine
62
0
6
CONTINUOUS
10
9.8353624005
20
-15.8045288050
11
9.2563144005
21
-15.8045288050
0
LINE
5
2C7
100
AcDbEntity
8
CURVE_INCISIONI
100
AcDbLine
62
0
6
CONTINUOUS
10
7.1685244005
20
-15.8045288050
11
6.6351284005
21
-15.8045288050
0
LINE
5
2C8
100
AcDbEntity
8
CURVE_INCISIONI
100
AcDbLine
62
0
6
CONTINUOUS
10
8.3252064005
20
-15.8045288050
11
8.9304774005
21
-15.8045288050
0
LINE
5
2C9
100
AcDbEntity
8
CURVE_INCISIONI
100
AcDbLine
62
0
6
CONTINUOUS
10
14.8545740561
20
-15.8045291573
11
15.4574100172
21
-15.8045291573
0
LINE
5
2CA
100
AcDbEntity
8
CURVE_INCISIONI
100
AcDbLine
62
0
6
CONTINUOUS
10
16.3842996621
20
-15.8045291573
11
16.9665003857
21
-15.8045291573
0
LINE
5
2CB
100
AcDbEntity
8
CURVE_INCISIONI
100
AcDbLine
62
0
6
CONTINUOUS
10
13.8821084005
20
-15.2256548050
11
13.0578294005
21
-15.2256548050
0
LINE
5
2CC
100
AcDbEntity
8
CURVE_INCISIONI
100
AcDbLine
62
0
6
CONTINUOUS
10
13.1816414005
20
-14.7777248050
11
13.7611454005
21
-14.7777248050
0
LINE
5
2CD
100
AcDbEntity
8
0
100
AcDbLine
62
0
6
CONTINUOUS
10
-28.7187952766
20
-3.5625328050
11
-28.7798909737
21
-3.5319942638
0
LINE
5
2CE
100
AcDbEntity
8
0
100
AcDbLine
62
0
6
CONTINUOUS
10
-23.7990885753
20
-1.5625328050
11
-23.7187952766
21
-1.6428261037
0
LINE
5
2CF
100
AcDbEntity
8
0
100
AcDbLine
62
0
6
CONTINUOUS
10
-22.6227924195
20
-1.6585356622
11
-22.7187952766
21
-1.5625328050
0
LINE
5
2D0
100
AcDbEntity
8
0
100
AcDbLine
62
0
6
CONTINUOUS
10
-26.2187952766
20
2.0177604936
11
-26.1385019780
21
1.9374671950
0
LINE
5
2D1
100
AcDbEntity
8
0
100
AcDbLine
62
0
6
CONTINUOUS
10
-26.2187952766
20
3.4374671950
11
-26.1315186227
21
3.3501905411
0
LINE
5
2D2
100
AcDbEntity
8
0
100
AcDbLine
62
0
6
CONTINUOUS
10
-28.7798909737
20
7.4985628920
11
-28.7187952766
21
7.4374671950
0
LINE
5
2D3
100
AcDbEntity
8
0
100
AcDbLine
62
0
6
CONTINUOUS
10
-21.3879169044
20
-1.3125328050
11
-21.1934724599
21
-1.5625328050
0
LINE
5
2D4
100
AcDbEntity
8
0
100
AcDbLine
62
0
6
CONTINUOUS
10
-14.6227924195
20
-1.6213365015
11
-14.6316736211
21
-1.1125328050
0
LINE
5
2D5
100
AcDbEntity
8
0
100
AcDbLine
62
0
6
CONTINUOUS
10
-14.9687952766
20
-1.6428261037
11
-14.9687952766
21
-1.3125328050
0
LINE
5
2D6
100
AcDbEntity
8
0
100
AcDbLine
62
0
6
CONTINUOUS
10
-14.9687952766
20
1.6874671950
11
-14.9687952766
21
2.0177604936
0
LINE
5
2D7
100
AcDbEntity
8
0
100
AcDbLine
62
0
6
CONTINUOUS
10
-14.7537054065
20
24.6874671950
11
-14.7537054065
21
19.1874671950
0
LINE
5
2D8
100
AcDbEntity
8
0
100
AcDbLine
62
0
6
CONTINUOUS
10
-14.7537054065
20
-18.8125328050
11
-14.7537054065
21
-24.3125328050
0
LINE
5
2D9
100
AcDbEntity
8
0
100
AcDbLine
62
0
6
CONTINUOUS
10
-14.7187952766
20
-3.0625328050
11
-14.7187952766
21
-1.6428261037
0
LINE
5
2DA
100
AcDbEntity
8
0
100
AcDbLine
62
0
6
CONTINUOUS
10
-14.7187952766
20
2.0177604936
11
-14.7187952766
21
3.4374671950
0
LINE
5
2DB
100
AcDbEntity
8
0
100
AcDbLine
62
0
6
CONTINUOUS
10
-14.6227924195
20
3.3414643378
11
-14.6227924195
21
1.9962708914
0
LINE
5
2DC
100
AcDbEntity
8
0
100
AcDbLine
62
0
6
CONTINUOUS
10
-14.6227924195
20
-1.6213365015
11
-14.6227924195
21
-2.9665299479
0
LINE
5
2DD
100
AcDbEntity
8
0
100
AcDbLine
62
0
6
CONTINUOUS
10
-14.2690478083
20
31.5168921483
11
-14.2690478083
21
30.0963655147
0
LINE
5
2DE
100
AcDbEntity
8
0
100
AcDbLine
62
0
6
CONTINUOUS
10
-14.2690478083
20
-29.7214311248
11
-14.2690478083
21
-31.1419577584
0
LINE
5
2DF
100
AcDbEntity
8
0
100
AcDbLine
62
0
6
CONTINUOUS
10
-12.8147981337
20
3.3414643378
11
-12.8147981337
21
1.9962708914
0
LINE
5
2E0
100
AcDbEntity
8
0
100
AcDbLine
62
0
6
CONTINUOUS
10
-12.8147981337
20
-1.6213365015
11
-12.8147981337
21
-2.9665299479
0
LINE
5
2E1
100
AcDbEntity
8
0
100
AcDbLine
62
0
6
CONTINUOUS
10
-12.3060719305
20
3.3501905411
11
-12.3060719305
21
1.4874671950
0
LINE
5
2E2
100
AcDbEntity
8
0
100
AcDbLine
62
0
6
CONTINUOUS
10
-12.3060719305
20
-1.1125328050
11
-12.3060719305
21
-2.9752561512
0
LINE
5
2E3
100
AcDbEntity
8
0
100
AcDbLine
62
0
6
CONTINUOUS
10
-12.2187952766
20
3.4374671950
11
-12.2187952766
21
2.0177604936
0
LINE
5
2E4
100
AcDbEntity
8
0
100
AcDbLine
62
0
6
CONTINUOUS
10
-12.2187952766
20
-1.6428261037
11
-12.2187952766
21
-3.0625328050
0
LINE
5
2E5
100
AcDbEntity
8
0
100
AcDbLine
62
0
6
CONTINUOUS
10
-12.1330088390
20
-8.3879289576
11
-12.1330088390
21
-7.2371366525
0
LINE
5
2E6
100
AcDbEntity
8
0
100
AcDbLine
62
0
6
CONTINUOUS
10
-12.1330088390
20
7.6120710424
11
-12.1330088390
21
8.7628633475
0
LINE
5
2E7
100
AcDbEntity
8
0
100
AcDbLine
62
0
6
CONTINUOUS
10
-14.6316736211
20
1.4874671950
11
-14.6227924195
21
1.9962708914
0
LINE
5
2E8
100
AcDbEntity
8
0
100
AcDbLine
62
0
6
CONTINUOUS
10
-17.2441180933
20
-1.5625328050
11
-17.0496736489
21
-1.3125328050
0
LINE
5
2E9
100
AcDbEntity
8
0
100
AcDbLine
62
0
6
CONTINUOUS
10
7.3121442576
20
28.5834700521
11
7.0247157145
21
28.2960415090
0
LINE
5
2EA
100
AcDbEntity
8
0
100
AcDbLine
62
0
6
CONTINUOUS
10
6.9788660758
20
27.6001918703
11
7.0050486732
21
27.6263744677
0
LINE
5
2EB
100
AcDbEntity
8
0
100
AcDbLine
62
0
6
CONTINUOUS
10
10.3661414005
20
30.1874671950
11
10.4534167251
21
30.2747425196
0
LINE
5
2EC
100
AcDbEntity
8
0
100
AcDbLine
62
0
6
CONTINUOUS
10
-15.8147981337
20
3.8414643378
11
-15.7187952766
21
3.9374671950
0
LINE
5
2ED
100
AcDbEntity
8
0
100
AcDbLine
62
0
6
CONTINUOUS
10
-22.6227924195
20
-3.4665299479
11
-22.7187952766
21
-3.5625328050
0
LINE
5
2EE
100
AcDbEntity
8
CURVE_INCISIONI
100
AcDbLine
62
0
6
CONTINUOUS
10
15.4574100172
20
-14.6697650431
11
15.7819420732
21
-14.6697650431
0
LINE
5
2EF
100
AcDbEntity
8
CURVE_INCISIONI
100
AcDbLine
62
0
6
CONTINUOUS
10
15.7832467247
20
-14.1948719039
11
15.4373401286
21
-14.1948719039
0
LINE
5
2F0
100
AcDbEntity
8
CURVE_INCISIONI
100
AcDbLine
62
0
6
CONTINUOUS
10
5.7158814005
20
-12.9048758050
11
6.3733934005
21
-12.9048758050
0
LINE
5
2F1
100
AcDbEntity
8
CURVE_INCISIONI
100
AcDbLine
62
0
6
CONTINUOUS
10
7.4957314005
20
-12.9048758050
11
8.1005894005
21
-12.9048758050
0
LINE
5
2F2
100
AcDbEntity
8
CURVE_INCISIONI
100
AcDbLine
62
0
6
CONTINUOUS
10
9.5181364005
20
-12.9048758050
11
10.1229074005
21
-12.9048758050
0
LINE
5
2F3
100
AcDbEntity
8
CURVE_INCISIONI
100
AcDbLine
62
0
6
CONTINUOUS
10
11.3270574005
20
-12.9048758050
11
11.9259144005
21
-12.9048758050
0
LINE
5
2F4
100
AcDbEntity
8
CURVE_INCISIONI
100
AcDbLine
62
0
6
CONTINUOUS
10
13.2016244005
20
-12.9048758050
11
13.7871514005
21
-12.9048758050
0
LINE
5
2F5
100
AcDbEntity
8
CURVE_INCISIONI
100
AcDbLine
62
0
6
CONTINUOUS
10
8.9304774005
20
-12.9047018050
11
8.3252064005
21
-12.9047018050
0
LINE
5
2F6
100
AcDbEntity
8
0
100
AcDbLine
62
0
6
CONTINUOUS
10
7.2859616602
20
-28.1823530648
11
7.0432170069
21
-27.9396084115
0
LINE
5
2F7
100
AcDbEntity
8
0
100
AcDbLine
62
0
6
CONTINUOUS
10
7.0416185385
20
-27.2880099431
11
7.0151136092
21
-27.2615050138
0
LINE
5
2F8
100
AcDbEntity
8
0
100
AcDbLine
62
0
6
CONTINUOUS
10
10.3661414005
20
-29.8125328050
11
10.4108015813
21
-29.8571929859
0
LINE
5
2F9
100
AcDbEntity
8
0
100
AcDbLine
62
0
6
CONTINUOUS
10
-15.8147981337
20
-3.4665299479
11
-15.7187952766
21
-3.5625328050
0
LINE
5
2FA
100
AcDbEntity
8
0
100
AcDbLine
62
0
6
CONTINUOUS
10
-22.6227924195
20
3.8414643378
11
-22.7187952766
21
3.9374671950
0
LINE
5
2FB
100
AcDbEntity
8
0
100
AcDbLine
62
0
6
CONTINUOUS
10
-17.0496736489
20
1.6874671950
11
-17.2441180933
21
1.9374671950
0
LINE
5
2FC
100
AcDbEntity
8
0
100
AcDbLine
62
0
6
CONTINUOUS
10
-12.0187952766
20
-1.7984173730
11
-12.0187952766
21
-1.3125328050
0
LINE
5
2FD
100
AcDbEntity
8
0
100
AcDbLine
62
0
6
CONTINUOUS
10
-12.0187952766
20
1.6874671950
11
-12.0187952766
21
2.1733517629
0
LINE
5
2FE
100
AcDbEntity
8
0
100
AcDbLine
62
0
6
CONTINUOUS
10
-12.0046798446
20
2.1733517629
11
-12.0046798446
21
1.6733517629
0
LINE
5
2FF
100
AcDbEntity
8
0
100
AcDbLine
62
0
6
CONTINUOUS
10
-12.0046798446
20
-1.2984173730
11
-12.0046798446
21
-1.7984173730
0
LINE
5
300
100
AcDbEntity
8
0
100
AcDbLine
62
0
6
CONTINUOUS
10
-11.4259020578
20
-8.3981570142
11
-11.4259020578
21
-7.2269085959
0
LINE
5
301
100
AcDbEntity
8
0
100
AcDbLine
62
0
6
CONTINUOUS
10
-11.4259020578
20
7.6018429858
11
-11.4259020578
21
8.7730914041
0
LINE
5
302
100
AcDbEntity
8
0
100
AcDbLine
62
0
6
CONTINUOUS
10
-11.2329107086
20
2.1733517629
11
-11.2329107086
21
1.6733517629
0
LINE
5
303
100
AcDbEntity
8
0
100
AcDbLine
62
0
6
CONTINUOUS
10
-11.2329107086
20
-1.2984173730
11
-11.2329107086
21
-1.7984173730
0
LINE
5
304
100
AcDbEntity
8
0
100
AcDbLine
62
0
6
CONTINUOUS
10
-11.2187952766
20
2.1733517629
11
-11.2187952766
21
1.6874671950
0
LINE
5
305
100
AcDbEntity
8
0
100
AcDbLine
62
0
6
CONTINUOUS
10
-11.2187952766
20
-1.3125328050
11
-11.2187952766
21
-1.7984173730
0
LINE
5
306
100
AcDbEntity
8
0
100
AcDbLine
62
0
6
CONTINUOUS
10
-11.0187952766
20
-3.5625328050
11
-11.0187952766
21
-1.5625328050
0
LINE
5
307
100
AcDbEntity
8
0
100
AcDbLine
62
0
6
CONTINUOUS
10
-11.0187952766
20
1.9374671950
11
-11.0187952766
21
3.9374671950
0
LINE
5
308
100
AcDbEntity
8
0
100
AcDbLine
62
0
6
CONTINUOUS
10
-10.9655837890
20
3.8842557073
11
-10.9655837890
21
1.9906786826
0
LINE
5
309
100
AcDbEntity
8
0
100
AcDbLine
62
0
6
CONTINUOUS
10
-10.9655837890
20
-1.6157442927
11
-10.9655837890
21
-3.5093213174
0
LINE
5
30A
100
AcDbEntity
8
0
100
AcDbLine
62
0
6
CONTINUOUS
10
-10.2187952766
20
1.6700134594
11
-10.2187952766
21
-1.2950790695
0
LINE
5
30B
100
AcDbEntity
8
0
100
AcDbLine
62
0
6
CONTINUOUS
10
-10.1121065508
20
3.8782367263
11
-10.1121065508
21
1.9966976636
0
LINE
5
30C
100
AcDbEntity
8
0
100
AcDbLine
62
0
6
CONTINUOUS
10
-10.1121065508
20
-1.6217632737
11
-10.1121065508
21
-3.5033023364
0
LINE
5
30D
100
AcDbEntity
8
0
100
AcDbLine
62
0
6
CONTINUOUS
10
-9.7187952766
20
-29.4577704966
11
-9.7187952766
21
-8.5625328050
0
LINE
5
30E
100
AcDbEntity
8
0
100
AcDbLine
62
0
6
CONTINUOUS
10
-9.7187952766
20
-7.0625328050
11
-9.7187952766
21
-3.5625328050
0
LINE
5
30F
100
AcDbEntity
8
0
100
AcDbLine
62
0
6
CONTINUOUS
10
-9.7187952766
20
3.9374671950
11
-9.7187952766
21
7.4374671950
0
LINE
5
310
100
AcDbEntity
8
0
100
AcDbLine
62
0
6
CONTINUOUS
10
-9.7187952766
20
8.9374671950
11
-9.7187952766
21
29.8327048865
0
LINE
5
311
100
AcDbEntity
8
0
100
AcDbLine
62
0
6
CONTINUOUS
10
-9.6576995795
20
29.8938005836
11
-9.6576995795
21
8.8763714979
0
LINE
5
312
100
AcDbEntity
8
0
100
AcDbLine
62
0
6
CONTINUOUS
10
-9.6576995795
20
7.4985628920
11
-9.6576995795
21
3.9069286537
0
LINE
5
313
100
AcDbEntity
8
0
100
AcDbLine
62
0
6
CONTINUOUS
10
-9.6576995795
20
-3.5319942638
11
-9.6576995795
21
-7.1236285021
0
LINE
5
314
100
AcDbEntity
8
0
100
AcDbLine
62
0
6
CONTINUOUS
10
-9.6576995795
20
-8.5014371080
11
-9.6576995795
21
-29.5188661937
0
LINE
5
315
100
AcDbEntity
8
0
100
AcDbLine
62
0
6
CONTINUOUS
10
-9.7187952766
20
7.4374671950
11
-9.6576995795
21
7.4985628920
0
LINE
5
316
100
AcDbEntity
8
0
100
AcDbLine
62
0
6
CONTINUOUS
10
-12.2187952766
20
3.4374671950
11
-12.3060719305
21
3.3501905411
0
LINE
5
317
100
AcDbEntity
8
0
100
AcDbLine
62
0
6
CONTINUOUS
10
-12.2187952766
20
2.0177604936
11
-12.2990885753
21
1.9374671950
0
LINE
5
318
100
AcDbEntity
8
0
100
AcDbLine
62
0
6
CONTINUOUS
10
-15.8147981337
20
-1.6585356622
11
-15.7187952766
21
-1.5625328050
0
LINE
5
319
100
AcDbEntity
8
0
100
AcDbLine
62
0
6
CONTINUOUS
10
-14.6385019780
20
-1.5625328050
11
-14.7187952766
21
-1.6428261037
0
LINE
5
31A
100
AcDbEntity
8
0
100
AcDbLine
62
0
6
CONTINUOUS
10
-11.0187952766
20
1.9374671950
11
-10.9655837890
21
1.9906786826
0
LINE
5
31B
100
AcDbEntity
8
0
100
AcDbLine
62
0
6
CONTINUOUS
10
-18.4687952766
20
3.9374671950
11
-18.6433991241
21
3.8501918703
0
LINE
5
31C
100
AcDbEntity
8
0
100
AcDbLine
62
0
6
CONTINUOUS
10
-21.1899035287
20
1.9392127014
11
-21.1934724599
21
1.9374671950
0
LINE
5
31D
100
AcDbEntity
8
0
100
AcDbLine
62
0
6
CONTINUOUS
10
13.2203054303
20
-7.8826564863
11
13.7194718130
21
-7.8130749193
0
LINE
5
31E
100
AcDbEntity
8
0
100
AcDbLine
62
0
6
CONTINUOUS
10
-11.4259020578
20
-8.3981570142
11
-8.8044507754
21
-8.4897001101
0
LINE
5
31F
100
AcDbEntity
8
0
100
AcDbLine
62
0
6
CONTINUOUS
10
-21.1899035287
20
-1.5642783115
11
-21.1934724599
21
-1.5625328050
0
LINE
5
320
100
AcDbEntity
8
0
100
AcDbLine
62
0
6
CONTINUOUS
10
-18.4687952766
20
-3.5625328050
11
-18.6433991241
21
-3.4752574804
0
LINE
5
321
100
AcDbEntity
8
CURVE_INCISIONI
100
AcDbLine
62
0
6
CONTINUOUS
10
8.8511414005
20
-17.7268184708
11
8.6520937933
21
-17.5911042498
0
LINE
5
322
100
AcDbEntity
8
CURVE_INCISIONI
100
AcDbLine
62
0
6
CONTINUOUS
10
5.8654271214
20
-18.5411042215
11
6.1639985478
21
-18.8125328050
0
LINE
5
323
100
AcDbEntity
8
0
100
AcDbLine
62
0
6
CONTINUOUS
10
-9.7187952766
20
-7.0625328050
11
-9.6576995795
21
-7.1236285021
0
LINE
5
324
100
AcDbEntity
8
0
100
AcDbLine
62
0
6
CONTINUOUS
10
-12.2187952766
20
-3.0625328050
11
-12.3060719305
21
-2.9752561512
0
LINE
5
325
100
AcDbEntity
8
0
100
AcDbLine
62
0
6
CONTINUOUS
10
-12.2990885753
20
-1.5625328050
11
-12.2187952766
21
-1.6428261037
0
LINE
5
326
100
AcDbEntity
8
0
100
AcDbLine
62
0
6
CONTINUOUS
10
-15.7187952766
20
1.9374671950
11
-15.8147981337
21
2.0334700521
0
LINE
5
327
100
AcDbEntity
8
0
100
AcDbLine
62
0
6
CONTINUOUS
10
-14.7187952766
20
2.0177604936
11
-14.6385019780
21
1.9374671950
0
LINE
5
328
100
AcDbEntity
8
0
100
AcDbLine
62
0
6
CONTINUOUS
10
-10.9655837890
20
-1.6157442927
11
-11.0187952766
21
-1.5625328050
0
LINE
5
329
100
AcDbEntity
8
0
100
AcDbLine
62
0
6
CONTINUOUS
10
-8.8044507754
20
29.9055375814
11
-8.8044507754
21
8.8646345000
0
LINE
5
32A
100
AcDbEntity
8
0
100
AcDbLine
62
0
6
CONTINUOUS
10
-8.8044507754
20
7.5102998899
11
-8.8044507754
21
3.9010619428
0
LINE
5
32B
100
AcDbEntity
8
0
100
AcDbLine
62
0
6
CONTINUOUS
10
-8.8044507754
20
-3.5261275529
11
-8.8044507754
21
-7.1353655000
0
LINE
5
32C
100
AcDbEntity
8
0
100
AcDbLine
62
0
6
CONTINUOUS
10
-8.8044507754
20
-8.4897001101
11
-8.8044507754
21
-29.5306031915
0
LINE
5
32D
100
AcDbEntity
8
0
100
AcDbLine
62
0
6
CONTINUOUS
10
-6.7187952766
20
1.9374671950
11
-6.7187952766
21
-1.5625328050
0
LINE
5
32E
100
AcDbEntity
8
0
100
AcDbLine
62
0
6
CONTINUOUS
10
7.0050486732
20
29.4430218085
11
7.0661414005
21
29.5652445017
0
LINE
5
32F
100
AcDbEntity
8
0
100
AcDbLine
62
0
6
CONTINUOUS
10
-14.7187952766
20
-3.0625328050
11
-14.6227924195
21
-2.9665299479
0
LINE
5
330
100
AcDbEntity
8
0
100
AcDbLine
62
0
6
CONTINUOUS
10
-17.2476870246
20
-1.5642783115
11
-17.2441180933
21
-1.5625328050
0
LINE
5
331
100
AcDbEntity
8
0
100
AcDbLine
62
0
6
CONTINUOUS
10
-29.6331397778
20
-8.4897001101
11
-27.0116884954
21
-8.3981570142
0
LINE
5
332
100
AcDbEntity
8
0
100
AcDbLine
62
0
6
CONTINUOUS
10
-8.8044507754
20
-7.1353655000
11
-11.4259020578
21
-7.2269085959
0
LINE
5
333
100
AcDbEntity
8
0
100
AcDbLine
62
0
6
CONTINUOUS
10
-28.7187952766
20
-8.5625328050
11
-22.6374938594
21
-8.5625328050
0
LINE
5
334
100
AcDbEntity
8
0
100
AcDbLine
62
0
6
CONTINUOUS
10
-15.8000966938
20
-8.5625328050
11
-9.7187952766
21
-8.5625328050
0
LINE
5
335
100
AcDbEntity
8
0
100
AcDbLine
62
0
6
CONTINUOUS
10
-12.1330088390
20
-8.3879289576
11
-15.9435580579
21
-8.3879289576
0
LINE
5
336
100
AcDbEntity
8
0
100
AcDbLine
62
0
6
CONTINUOUS
10
-22.4940324954
20
-8.3879289576
11
-26.3045817142
21
-8.3879289576
0
LINE
5
337
100
AcDbEntity
8
0
100
AcDbLine
62
0
6
CONTINUOUS
10
-12.1330088390
20
-7.2371366525
11
-15.9435580579
21
-7.2371366525
0
LINE
5
338
100
AcDbEntity
8
0
100
AcDbLine
62
0
6
CONTINUOUS
10
-22.4940324954
20
-7.2371366525
11
-26.3045817142
21
-7.2371366525
0
LINE
5
339
100
AcDbEntity
8
0
100
AcDbLine
62
0
6
CONTINUOUS
10
-28.7187952766
20
-7.0625328050
11
-22.6374938594
21
-7.0625328050
0
LINE
5
33A
100
AcDbEntity
8
0
100
AcDbLine
62
0
6
CONTINUOUS
10
-15.8000966938
20
-7.0625328050
11
-9.7187952766
21
-7.0625328050
0
LINE
5
33B
100
AcDbEntity
8
0
100
AcDbLine
62
0
6
CONTINUOUS
10
-27.0116884954
20
-7.2269085959
11
-29.6331397778
21
-7.1353655000
0
LINE
5
33C
100
AcDbEntity
8
0
100
AcDbLine
62
0
6
CONTINUOUS
10
-17.2476870246
20
1.9392127014
11
-17.2441180933
21
1.9374671950
0
LINE
5
33D
100
AcDbEntity
8
CURVE_INCISIONI
100
AcDbLine
62
0
6
CONTINUOUS
10
12.1354270436
20
-17.7268184708
11
11.9363796855
21
-17.5911042498
0
LINE
5
33E
100
AcDbEntity
8
CURVE_INCISIONI
100
AcDbLine
62
0
6
CONTINUOUS
10
6.6118556951
20
-17.1839613603
11
6.3132842843
21
-16.9125328050
0
LINE
5
33F
100
AcDbEntity
8
CURVE_INCISIONI
100
AcDbLine
62
0
6
CONTINUOUS
10
8.5525698651
20
-18.5411042215
11
8.8511414005
21
-18.8125328050
0
LINE
5
340
100
AcDbEntity
8
CURVE_INCISIONI
100
AcDbLine
62
0
6
CONTINUOUS
10
9.5975698651
20
-17.9982470827
11
9.2989985789
21
-17.7268184708
0
LINE
5
341
100
AcDbEntity
8
CURVE_INCISIONI
100
AcDbLine
62
0
6
CONTINUOUS
10
11.8368557574
20
-18.5411042215
11
12.1354270436
21
-18.8125328050
0
LINE
5
342
100
AcDbEntity
8
0
100
AcDbLine
62
0
6
CONTINUOUS
10
-14.7187952766
20
3.4374671950
11
-14.6227924195
21
3.3414643378
0
LINE
5
343
100
AcDbEntity
8
0
100
AcDbLine
62
0
6
CONTINUOUS
10
7.0463163666
20
-29.2030291142
11
7.0661414005
21
-29.2426912661
0
LINE
5
344
100
AcDbEntity
8
0
100
AcDbLine
62
0
6
CONTINUOUS
10
-4.7187952766
20
-30.9752574804
11
-4.7187952766
21
31.3501918703
0
LINE
5
345
100
AcDbEntity
8
0
100
AcDbLine
62
0
6
CONTINUOUS
10
-10.9655837890
20
-3.5093213174
11
-11.0187952766
21
-3.5625328050
0
LINE
5
346
100
AcDbEntity
8
0
100
AcDbLine
62
0
6
CONTINUOUS
10
21.3121442576
20
28.5834700521
11
21.0199652932
21
28.2912910877
0
LINE
5
347
100
AcDbEntity
8
0
100
AcDbLine
62
0
6
CONTINUOUS
10
20.9788660758
20
27.6001918703
11
21.0050486732
21
27.6263744677
0
LINE
5
348
100
AcDbEntity
8
0
100
AcDbLine
62
0
6
CONTINUOUS
10
24.3661414005
20
30.1874671950
11
24.4534167251
21
30.2747425196
0
LINE
5
349
100
AcDbEntity
8
0
100
AcDbLine
62
0
6
CONTINUOUS
10
-19.9687952766
20
-3.5625328050
11
-19.7941914292
21
-3.4752574804
0
LINE
5
34A
100
AcDbEntity
8
0
100
AcDbLine
62
0
6
CONTINUOUS
10
32.9666444915
20
-1.6201988927
11
30.2161414005
21
-1.8125328050
0
LINE
5
34B
100
AcDbEntity
8
0
100
AcDbLine
62
0
6
CONTINUOUS
10
-29.6331397778
20
-3.5261275529
11
-28.3254840025
21
-3.5033023364
0
LINE
5
34C
100
AcDbEntity
8
0
100
AcDbLine
62
0
6
CONTINUOUS
10
-25.6227924195
20
-2.9665299479
11
-26.1315186227
21
-2.9752561512
0
LINE
5
34D
100
AcDbEntity
8
0
100
AcDbLine
62
0
6
CONTINUOUS
10
-28.7187952766
20
-3.5625328050
11
-27.4187952766
21
-3.5625328050
0
LINE
5
34E
100
AcDbEntity
8
0
100
AcDbLine
62
0
6
CONTINUOUS
10
-22.7187952766
20
-3.5625328050
11
-19.9687952766
21
-3.5625328050
0
LINE
5
34F
100
AcDbEntity
8
0
100
AcDbLine
62
0
6
CONTINUOUS
10
-18.4687952766
20
-3.5625328050
11
-15.7187952766
21
-3.5625328050
0
LINE
5
350
100
AcDbEntity
8
0
100
AcDbLine
62
0
6
CONTINUOUS
10
-11.0187952766
20
-3.5625328050
11
-9.7187952766
21
-3.5625328050
0
LINE
5
351
100
AcDbEntity
8
0
100
AcDbLine
62
0
6
CONTINUOUS
10
-18.6433991241
20
-3.4752574804
11
-19.7941914292
21
-3.4752574804
0
LINE
5
352
100
AcDbEntity
8
0
100
AcDbLine
62
0
6
CONTINUOUS
10
-22.6227924195
20
-3.4665299479
11
-15.8147981337
21
-3.4665299479
0
LINE
5
353
100
AcDbEntity
8
0
100
AcDbLine
62
0
6
CONTINUOUS
10
-12.2187952766
20
-3.0625328050
11
-14.7187952766
21
-3.0625328050
0
LINE
5
354
100
AcDbEntity
8
0
100
AcDbLine
62
0
6
CONTINUOUS
10
-23.7187952766
20
-3.0625328050
11
-26.2187952766
21
-3.0625328050
0
LINE
5
355
100
AcDbEntity
8
0
100
AcDbLine
62
0
6
CONTINUOUS
10
-25.6227924195
20
-2.9665299479
11
-23.8147981337
21
-2.9665299479
0
LINE
5
356
100
AcDbEntity
8
0
100
AcDbLine
62
0
6
CONTINUOUS
10
-12.8147981337
20
-2.9665299479
11
-14.6227924195
21
-2.9665299479
0
LINE
5
357
100
AcDbEntity
8
0
100
AcDbLine
62
0
6
CONTINUOUS
10
-12.3060719305
20
-2.9752561512
11
-12.8147981337
21
-2.9665299479
0
LINE
5
358
100
AcDbEntity
8
0
100
AcDbLine
62
0
6
CONTINUOUS
10
-10.1121065508
20
-3.5033023364
11
-8.8044507754
21
-3.5261275529
0
LINE
5
359
100
AcDbEntity
8
0
100
AcDbLine
62
0
6
CONTINUOUS
10
18.2119773433
20
-7.8827355476
11
17.7128131364
21
-7.8131374551
0
LINE
5
35A
100
AcDbEntity
8
0
100
AcDbLine
62
0
6
CONTINUOUS
10
-19.9687952766
20
3.9374671950
11
-19.7941914292
21
3.8501918703
0
LINE
5
35B
100
AcDbEntity
8
CURVE_INCISIONI
100
AcDbLine
62
0
6
CONTINUOUS
10
10.9411414005
20
-16.9125328050
11
11.2397126867
21
-17.1839613603
0
LINE
5
35C
100
AcDbEntity
8
CURVE_INCISIONI
100
AcDbLine
62
0
6
CONTINUOUS
10
12.8818557574
20
-17.9982470827
11
12.5832844712
21
-17.7268184708
0
LINE
5
35D
100
AcDbEntity
8
0
100
AcDbLine
62
0
6
CONTINUOUS
10
-10.9655837890
20
3.8842557073
11
-11.0187952766
21
3.9374671950
0
LINE
5
35E
100
AcDbEntity
8
0
100
AcDbLine
62
0
6
CONTINUOUS
10
21.2859616602
20
-28.1823530648
11
21.0432170069
21
-27.9396084115
0
LINE
5
35F
100
AcDbEntity
8
0
100
AcDbLine
62
0
6
CONTINUOUS
10
21.0416185385
20
-27.2880099431
11
21.0151136092
21
-27.2615050138
0
LINE
5
360
100
AcDbEntity
8
0
100
AcDbLine
62
0
6
CONTINUOUS
10
24.3661414005
20
-29.8125328050
11
24.4108015813
21
-29.8571929859
0
LINE
5
361
100
AcDbEntity
8
CURVE_INCISIONI
100
AcDbLine
62
0
6
CONTINUOUS
10
5.7161414005
20
-18.2696756379
11
5.8654271214
21
-18.5411042215
0
LINE
5
362
100
AcDbEntity
8
0
100
AcDbLine
62
0
6
CONTINUOUS
10
-1.7838585995
20
-30.8126089575
11
-1.7838585995
21
31.1875433474
0
LINE
5
363
100
AcDbEntity
8
0
100
AcDbLine
62
0
6
CONTINUOUS
10
-1.6807932731
20
-1.5954717569
11
-1.6807932731
21
31.0844780210
0
LINE
5
364
100
AcDbEntity
8
0
100
AcDbLine
62
0
6
CONTINUOUS
10
-1.5344228161
20
-1.6201946183
11
-1.5344228161
21
31.0844780210
0
LINE
5
365
100
AcDbEntity
8
0
100
AcDbLine
62
0
6
CONTINUOUS
10
-1.7536779473
20
-30.7824283053
11
-1.6807932731
21
-1.5954717569
0
LINE
5
366
100
AcDbEntity
8
0
100
AcDbLine
62
0
6
CONTINUOUS
10
-1.6073074904
20
-30.8316334270
11
-1.5343616905
21
-1.6201988927
0
LINE
5
367
100
AcDbEntity
8
0
100
AcDbLine
62
0
6
CONTINUOUS
10
7.0247157145
20
28.5091550231
11
7.2161414005
21
29.0838990954
0
LINE
5
368
100
AcDbEntity
8
0
100
AcDbLine
62
0
6
CONTINUOUS
10
-9.7187952766
20
-8.5625328050
11
-9.6576995795
21
-8.5014371080
0
LINE
5
369
100
AcDbEntity
8
0
100
AcDbLine
62
0
6
CONTINUOUS
10
-9.7187952766
20
-3.5625328050
11
-9.6576995795
21
-3.5319942638
0
LINE
5
36A
100
AcDbEntity
8
0
100
AcDbLine
62
0
6
CONTINUOUS
10
-6.7187952766
20
-1.5625328050
11
-10.1121065508
21
-1.6217632737
0
LINE
5
36B
100
AcDbEntity
8
0
100
AcDbLine
62
0
6
CONTINUOUS
10
-6.7187952766
20
-1.2994425034
11
-8.2187952766
21
-1.3125328050
0
LINE
5
36C
100
AcDbEntity
8
0
100
AcDbLine
62
0
6
CONTINUOUS
10
-28.2187952766
20
-1.2950790695
11
-30.2187952766
21
-1.3125328050
0
LINE
5
36D
100
AcDbEntity
8
0
100
AcDbLine
62
0
6
CONTINUOUS
10
16.7325130613
20
-1.8894522982
11
14.6997697396
21
-1.8894522982
0
LINE
5
36E
100
AcDbEntity
8
0
100
AcDbLine
62
0
6
CONTINUOUS
10
27.7573280975
20
-1.8474962110
11
26.9749547034
21
-1.8474962110
0
LINE
5
36F
100
AcDbEntity
8
0
100
AcDbLine
62
0
6
CONTINUOUS
10
4.4573280975
20
-1.8474962110
11
3.6749547034
21
-1.8474962110
0
LINE
5
370
100
AcDbEntity
8
0
100
AcDbLine
62
0
6
CONTINUOUS
10
30.2161414005
20
-1.8125328050
11
27.7661411938
21
-1.8126170302
0
LINE
5
371
100
AcDbEntity
8
0
100
AcDbLine
62
0
6
CONTINUOUS
10
13.1806074945
20
-1.8125328050
11
4.4661411938
21
-1.8126170302
0
LINE
5
372
100
AcDbEntity
8
0
100
AcDbLine
62
0
6
CONTINUOUS
10
26.9748689329
20
-1.8125328050
11
18.2516753064
21
-1.8125328050
0
LINE
5
373
100
AcDbEntity
8
0
100
AcDbLine
62
0
6
CONTINUOUS
10
3.6748689329
20
-1.8125328050
11
1.2161414005
21
-1.8125328050
0
LINE
5
374
100
AcDbEntity
8
0
100
AcDbLine
62
0
6
CONTINUOUS
10
-11.2329107086
20
-1.8125328050
11
-12.0046798446
21
-1.8125328050
0
LINE
5
375
100
AcDbEntity
8
0
100
AcDbLine
62
0
6
CONTINUOUS
10
-26.4329107086
20
-1.8125328050
11
-27.2046798446
21
-1.8125328050
0
LINE
5
376
100
AcDbEntity
8
0
100
AcDbLine
62
0
6
CONTINUOUS
10
-22.6227924195
20
-1.6585356622
11
-15.8147981337
21
-1.6585356622
0
LINE
5
377
100
AcDbEntity
8
0
100
AcDbLine
62
0
6
CONTINUOUS
10
-12.0046798446
20
-1.6428261037
11
-12.2187952766
21
-1.6428261037
0
LINE
5
378
100
AcDbEntity
8
0
100
AcDbLine
62
0
6
CONTINUOUS
10
-14.7187952766
20
-1.6428261037
11
-14.9687952766
21
-1.6428261037
0
LINE
5
379
100
AcDbEntity
8
0
100
AcDbLine
62
0
6
CONTINUOUS
10
-23.4687952766
20
-1.6428261037
11
-23.7187952766
21
-1.6428261037
0
LINE
5
37A
100
AcDbEntity
8
0
100
AcDbLine
62
0
6
CONTINUOUS
10
-26.2187952766
20
-1.6428261037
11
-26.4329107086
21
-1.6428261037
0
LINE
5
37B
100
AcDbEntity
8
0
100
AcDbLine
62
0
6
CONTINUOUS
10
-12.8147981337
20
-1.6213365015
11
-14.6227924195
21
-1.6213365015
0
LINE
5
37C
100
AcDbEntity
8
0
100
AcDbLine
62
0
6
CONTINUOUS
10
-23.8147981337
20
-1.6213365015
11
-25.6227924195
21
-1.6213365015
0
LINE
5
37D
100
AcDbEntity
8
0
100
AcDbLine
62
0
6
CONTINUOUS
10
-17.2476870246
20
-1.5642783115
11
-21.1899035287
21
-1.5642783115
0
LINE
5
37E
100
AcDbEntity
8
0
100
AcDbLine
62
0
6
CONTINUOUS
10
-31.7187952766
20
-1.5625328050
11
-27.4187952766
21
-1.5625328050
0
LINE
5
37F
100
AcDbEntity
8
0
100
AcDbLine
62
0
6
CONTINUOUS
10
-22.7187952766
20
-1.5625328050
11
-21.1934724599
21
-1.5625328050
0
LINE
5
380
100
AcDbEntity
8
0
100
AcDbLine
62
0
6
CONTINUOUS
10
-17.2441180933
20
-1.5625328050
11
-15.7187952766
21
-1.5625328050
0
LINE
5
381
100
AcDbEntity
8
0
100
AcDbLine
62
0
6
CONTINUOUS
10
-11.0187952766
20
-1.5625328050
11
-6.7187952766
21
-1.5625328050
0
LINE
5
382
100
AcDbEntity
8
0
100
AcDbLine
62
0
6
CONTINUOUS
10
-30.2187952766
20
-1.3125328050
11
-27.2187952766
21
-1.3125328050
0
LINE
5
383
100
AcDbEntity
8
0
100
AcDbLine
62
0
6
CONTINUOUS
10
-26.4187952766
20
-1.3125328050
11
-26.1385019780
21
-1.3125328050
0
LINE
5
384
100
AcDbEntity
8
0
100
AcDbLine
62
0
6
CONTINUOUS
10
-23.7990885753
20
-1.3125328050
11
-14.6385019780
21
-1.3125328050
0
LINE
5
385
100
AcDbEntity
8
0
100
AcDbLine
62
0
6
CONTINUOUS
10
-12.2990885753
20
-1.3125328050
11
-12.0187952766
21
-1.3125328050
0
LINE
5
386
100
AcDbEntity
8
0
100
AcDbLine
62
0
6
CONTINUOUS
10
-11.2187952766
20
-1.3125328050
11
-8.2187952766
21
-1.3125328050
0
LINE
5
387
100
AcDbEntity
8
0
100
AcDbLine
62
0
6
CONTINUOUS
10
-28.2187952766
20
-1.2950790695
11
-26.1385019780
21
-1.2950790695
0
LINE
5
388
100
AcDbEntity
8
0
100
AcDbLine
62
0
6
CONTINUOUS
10
-23.7990885753
20
-1.2950790695
11
-14.6385019780
21
-1.2950790695
0
LINE
5
389
100
AcDbEntity
8
0
100
AcDbLine
62
0
6
CONTINUOUS
10
-12.2990885753
20
-1.2950790695
11
-10.2187952766
21
-1.2950790695
0
LINE
5
38A
100
AcDbEntity
8
0
100
AcDbLine
62
0
6
CONTINUOUS
10
-12.3059169322
20
-1.1125328050
11
-14.6316736211
21
-1.1125328050
0
LINE
5
38B
100
AcDbEntity
8
0
100
AcDbLine
62
0
6
CONTINUOUS
10
-23.8059169322
20
-1.1125328050
11
-26.1316736211
21
-1.1125328050
0
LINE
5
38C
100
AcDbEntity
8
0
100
AcDbLine
62
0
6
CONTINUOUS
10
-30.2187952766
20
-1.3125328050
11
-31.7187952766
21
-1.2994425034
0
LINE
5
38D
100
AcDbEntity
8
0
100
AcDbLine
62
0
6
CONTINUOUS
10
-8.2187952766
20
-1.3125328050
11
-10.2187952766
21
-1.2950790695
0
LINE
5
38E
100
AcDbEntity
8
0
100
AcDbLine
62
0
6
CONTINUOUS
10
4.4574138680
20
-1.8125328050
11
4.4661414004
21
-1.8126170302
0
LINE
5
38F
100
AcDbEntity
8
0
100
AcDbLine
62
0
6
CONTINUOUS
10
27.7574138680
20
-1.8125328050
11
27.7661414004
21
-1.8126170302
0
LINE
5
390
100
AcDbEntity
8
0
100
AcDbLine
62
0
6
CONTINUOUS
10
-28.3254840025
20
-1.6217632737
11
-31.7187952766
21
-1.5625328050
0
LINE
5
391
100
AcDbEntity
8
0
100
AcDbLine
62
0
6
CONTINUOUS
10
1.2161414005
20
-1.8125328050
11
-1.5343616905
21
-1.6201988927
0
LINE
5
392
100
AcDbEntity
8
0
100
AcDbLine
62
0
6
CONTINUOUS
10
-9.7187952766
20
3.9374671950
11
-9.6576995795
21
3.9069286537
0
LINE
5
393
100
AcDbEntity
8
CURVE_INCISIONI
100
AcDbLine
62
0
6
CONTINUOUS
10
21.9161414005
20
-18.9430089556
11
22.0304271079
21
-19.0268185793
0
LINE
5
394
100
AcDbEntity
8
CURVE_INCISIONI
100
AcDbLine
62
0
6
CONTINUOUS
10
22.6018556811
20
-18.9430089556
11
22.7161414005
21
-19.0268185793
0
LINE
5
395
100
AcDbEntity
8
CURVE_INCISIONI
100
AcDbLine
62
0
6
CONTINUOUS
10
24.9161414005
20
-17.8534851061
11
25.0304271079
21
-17.9372943102
0
LINE
5
396
100
AcDbEntity
8
0
100
AcDbLine
62
0
6
CONTINUOUS
10
-9.7187952766
20
8.9374671950
11
-9.6576995795
21
8.8763714979
0
LINE
5
397
100
AcDbEntity
8
CURVE_INCISIONI
100
AcDbLine
62
0
6
CONTINUOUS
10
21.3447128154
20
-25.3125328050
11
21.1161414005
21
-25.0611042224
0
LINE
5
398
100
AcDbEntity
8
CURVE_INCISIONI
100
AcDbLine
62
0
6
CONTINUOUS
10
9.2989985789
20
-16.9125328050
11
9.4980461861
21
-17.1839613603
0
LINE
5
399
100
AcDbEntity
8
CURVE_INCISIONI
100
AcDbLine
62
0
6
CONTINUOUS
10
12.5832844712
20
-16.9125328050
11
12.7823318292
21
-17.1839613603
0
LINE
5
39A
100
AcDbEntity
8
CURVE_INCISIONI
100
AcDbLine
62
0
6
CONTINUOUS
10
6.7611414005
20
-17.4553899155
11
6.6118556951
21
-17.1839613603
0
LINE
5
39B
100
AcDbEntity
8
0
100
AcDbLine
62
0
6
CONTINUOUS
10
7.0438352434
20
-28.1916258650
11
7.2161414005
21
-28.7089647055
0
LINE
5
39C
100
AcDbEntity
8
0
100
AcDbLine
62
0
6
CONTINUOUS
10
1.2161414005
20
-30.7817432181
11
1.2161414005
21
31.0364667440
0
LINE
5
39D
100
AcDbEntity
8
0
100
AcDbLine
62
0
6
CONTINUOUS
10
10.1639338732
20
29.5307172442
11
10.1463211407
21
29.4778360778
0
LINE
5
39E
100
AcDbEntity
8
0
100
AcDbLine
62
0
6
CONTINUOUS
10
-28.7187952766
20
-29.4577704966
11
-28.7798909737
21
-29.5188661937
0
LINE
5
39F
100
AcDbEntity
8
0
100
AcDbLine
62
0
6
CONTINUOUS
10
32.7162175529
20
31.6874671950
11
32.6131522265
21
31.5844018685
0
LINE
5
3A0
100
AcDbEntity
8
0
100
AcDbLine
62
0
6
CONTINUOUS
10
33.2161414005
20
31.1875433474
11
33.1130760740
21
31.0844780210
0
LINE
5
3A1
100
AcDbEntity
8
0
100
AcDbLine
62
0
6
CONTINUOUS
10
-31.7187952766
20
1.9374671950
11
-28.3254840025
21
1.9966976636
0
LINE
5
3A2
100
AcDbEntity
8
0
100
AcDbLine
62
0
6
CONTINUOUS
10
-12.8147981337
20
3.3414643378
11
-12.3060719305
21
3.3501905411
0
LINE
5
3A3
100
AcDbEntity
8
0
100
AcDbLine
62
0
6
CONTINUOUS
10
-8.2187952766
20
1.6874671950
11
-10.2187952766
21
1.6700134594
0
LINE
5
3A4
100
AcDbEntity
8
0
100
AcDbLine
62
0
6
CONTINUOUS
10
-30.2187952766
20
1.6874671950
11
-31.7187952766
21
1.6743768933
0
LINE
5
3A5
100
AcDbEntity
8
0
100
AcDbLine
62
0
6
CONTINUOUS
10
-26.1316736211
20
1.4874671950
11
-23.8059169322
21
1.4874671950
0
LINE
5
3A6
100
AcDbEntity
8
0
100
AcDbLine
62
0
6
CONTINUOUS
10
-14.6316736211
20
1.4874671950
11
-12.3059169322
21
1.4874671950
0
LINE
5
3A7
100
AcDbEntity
8
0
100
AcDbLine
62
0
6
CONTINUOUS
10
-10.2187952766
20
1.6700134594
11
-12.2990885753
21
1.6700134594
0
LINE
5
3A8
100
AcDbEntity
8
0
100
AcDbLine
62
0
6
CONTINUOUS
10
-14.6385019780
20
1.6700134594
11
-23.7990885753
21
1.6700134594
0
LINE
5
3A9
100
AcDbEntity
8
0
100
AcDbLine
62
0
6
CONTINUOUS
10
-26.1385019780
20
1.6700134594
11
-28.2187952766
21
1.6700134594
0
LINE
5
3AA
100
AcDbEntity
8
0
100
AcDbLine
62
0
6
CONTINUOUS
10
-30.2187952766
20
1.6874671950
11
-27.2187952766
21
1.6874671950
0
LINE
5
3AB
100
AcDbEntity
8
0
100
AcDbLine
62
0
6
CONTINUOUS
10
-26.4187952766
20
1.6874671950
11
-26.1385019780
21
1.6874671950
0
LINE
5
3AC
100
AcDbEntity
8
0
100
AcDbLine
62
0
6
CONTINUOUS
10
-23.7990885753
20
1.6874671950
11
-14.6385019780
21
1.6874671950
0
LINE
5
3AD
100
AcDbEntity
8
0
100
AcDbLine
62
0
6
CONTINUOUS
10
-12.2990885753
20
1.6874671950
11
-12.0187952766
21
1.6874671950
0
LINE
5
3AE
100
AcDbEntity
8
0
100
AcDbLine
62
0
6
CONTINUOUS
10
-11.2187952766
20
1.6874671950
11
-8.2187952766
21
1.6874671950
0
LINE
5
3AF
100
AcDbEntity
8
0
100
AcDbLine
62
0
6
CONTINUOUS
10
-31.7187952766
20
1.9374671950
11
-27.4187952766
21
1.9374671950
0
LINE
5
3B0
100
AcDbEntity
8
0
100
AcDbLine
62
0
6
CONTINUOUS
10
-22.7187952766
20
1.9374671950
11
-21.1934724599
21
1.9374671950
0
LINE
5
3B1
100
AcDbEntity
8
0
100
AcDbLine
62
0
6
CONTINUOUS
10
-17.2441180933
20
1.9374671950
11
-15.7187952766
21
1.9374671950
0
LINE
5
3B2
100
AcDbEntity
8
0
100
AcDbLine
62
0
6
CONTINUOUS
10
-11.0187952766
20
1.9374671950
11
-6.7187952766
21
1.9374671950
0
LINE
5
3B3
100
AcDbEntity
8
0
100
AcDbLine
62
0
6
CONTINUOUS
10
-17.2476870246
20
1.9392127014
11
-21.1899035287
21
1.9392127014
0
LINE
5
3B4
100
AcDbEntity
8
0
100
AcDbLine
62
0
6
CONTINUOUS
10
-25.6227924195
20
1.9962708914
11
-23.8147981337
21
1.9962708914
0
LINE
5
3B5
100
AcDbEntity
8
0
100
AcDbLine
62
0
6
CONTINUOUS
10
-14.6227924195
20
1.9962708914
11
-12.8147981337
21
1.9962708914
0
LINE
5
3B6
100
AcDbEntity
8
0
100
AcDbLine
62
0
6
CONTINUOUS
10
-26.4329107086
20
2.0177604936
11
-26.2187952766
21
2.0177604936
0
LINE
5
3B7
100
AcDbEntity
8
0
100
AcDbLine
62
0
6
CONTINUOUS
10
-23.7187952766
20
2.0177604936
11
-23.4687952766
21
2.0177604936
0
LINE
5
3B8
100
AcDbEntity
8
0
100
AcDbLine
62
0
6
CONTINUOUS
10
-14.9687952766
20
2.0177604936
11
-14.7187952766
21
2.0177604936
0
LINE
5
3B9
100
AcDbEntity
8
0
100
AcDbLine
62
0
6
CONTINUOUS
10
-12.2187952766
20
2.0177604936
11
-12.0046798446
21
2.0177604936
0
LINE
5
3BA
100
AcDbEntity
8
0
100
AcDbLine
62
0
6
CONTINUOUS
10
-15.8147981337
20
2.0334700521
11
-22.6227924195
21
2.0334700521
0
LINE
5
3BB
100
AcDbEntity
8
0
100
AcDbLine
62
0
6
CONTINUOUS
10
-27.2046798446
20
2.1874671950
11
-26.4329107086
21
2.1874671950
0
LINE
5
3BC
100
AcDbEntity
8
0
100
AcDbLine
62
0
6
CONTINUOUS
10
-12.0046798446
20
2.1874671950
11
-11.2329107086
21
2.1874671950
0
LINE
5
3BD
100
AcDbEntity
8
0
100
AcDbLine
62
0
6
CONTINUOUS
10
17.8761919068
20
2.3374671950
11
16.4619783444
21
2.3374671950
0
LINE
5
3BE
100
AcDbEntity
8
0
100
AcDbLine
62
0
6
CONTINUOUS
10
14.9703044565
20
2.3374671950
11
13.5560908941
21
2.3374671950
0
LINE
5
3BF
100
AcDbEntity
8
0
100
AcDbLine
62
0
6
CONTINUOUS
10
-25.6227924195
20
3.3414643378
11
-23.8147981337
21
3.3414643378
0
LINE
5
3C0
100
AcDbEntity
8
0
100
AcDbLine
62
0
6
CONTINUOUS
10
-12.8147981337
20
3.3414643378
11
-14.6227924195
21
3.3414643378
0
LINE
5
3C1
100
AcDbEntity
8
0
100
AcDbLine
62
0
6
CONTINUOUS
10
-26.2187952766
20
3.4374671950
11
-23.7187952766
21
3.4374671950
0
LINE
5
3C2
100
AcDbEntity
8
0
100
AcDbLine
62
0
6
CONTINUOUS
10
-14.7187952766
20
3.4374671950
11
-12.2187952766
21
3.4374671950
0
LINE
5
3C3
100
AcDbEntity
8
0
100
AcDbLine
62
0
6
CONTINUOUS
10
-28.2187952766
20
1.6700134594
11
-30.2187952766
21
1.6874671950
0
LINE
5
3C4
100
AcDbEntity
8
0
100
AcDbLine
62
0
6
CONTINUOUS
10
-6.7187952766
20
1.6743768933
11
-8.2187952766
21
1.6874671950
0
LINE
5
3C5
100
AcDbEntity
8
0
100
AcDbLine
62
0
6
CONTINUOUS
10
-26.1315186227
20
3.3501905411
11
-25.6227924195
21
3.3414643378
0
LINE
5
3C6
100
AcDbEntity
8
0
100
AcDbLine
62
0
6
CONTINUOUS
10
-10.1121065508
20
1.9966976636
11
-6.7187952766
21
1.9374671950
0
LINE
5
3C7
100
AcDbEntity
8
0
100
AcDbLine
62
0
6
CONTINUOUS
10
-28.3254840025
20
3.8782367263
11
-29.6331397778
21
3.9010619428
0
LINE
5
3C8
100
AcDbEntity
8
CURVE_INCISIONI
100
AcDbLine
62
0
6
CONTINUOUS
10
25.6018556811
20
-17.8534851061
11
25.7161414005
21
-17.9372943102
0
LINE
5
3C9
100
AcDbEntity
8
0
100
AcDbLine
62
0
6
CONTINUOUS
10
-28.7187952766
20
29.8327048865
11
-28.7798909737
21
29.8938005836
0
LINE
5
3CA
100
AcDbEntity
8
CURVE_INCISIONI
100
AcDbLine
62
0
6
CONTINUOUS
10
24.3447128154
20
-25.3125328050
11
24.1161414005
21
-25.0611042224
0
LINE
5
3CB
100
AcDbEntity
8
CURVE_INCISIONI
100
AcDbLine
62
0
6
CONTINUOUS
10
21.8018556453
20
-20.2839612566
11
21.5732842304
21
-20.0325328050
0
LINE
5
3CC
100
AcDbEntity
8
CURVE_INCISIONI
100
AcDbLine
62
0
6
CONTINUOUS
10
6.6351284005
20
-15.8045288050
11
5.7158814005
21
-12.9048758050
0
LINE
5
3CD
100
AcDbEntity
8
CURVE_INCISIONI
100
AcDbLine
62
0
6
CONTINUOUS
10
6.3733934005
20
-12.9048758050
11
6.9261204005
21
-14.9007968050
0
LINE
5
3CE
100
AcDbEntity
8
0
100
AcDbLine
62
0
6
CONTINUOUS
10
3.6661414005
20
-29.4125315985
11
3.6661414005
21
29.7874671950
0
LINE
5
3CF
100
AcDbEntity
8
0
100
AcDbLine
62
0
6
CONTINUOUS
10
3.6748689329
20
29.7874671950
11
3.6749547034
21
-29.4125099516
0
LINE
5
3D0
100
AcDbEntity
8
0
100
AcDbLine
62
0
6
CONTINUOUS
10
4.4661414005
20
-29.4125315985
11
4.4661414005
21
29.7874671950
0
LINE
5
3D1
100
AcDbEntity
8
CURVE_INCISIONI
100
AcDbLine
62
0
6
CONTINUOUS
10
5.7161414005
20
-17.4553899155
11
5.7161414005
21
-18.2696756379
0
LINE
5
3D2
100
AcDbEntity
8
0
100
AcDbLine
62
0
6
CONTINUOUS
10
4.4573280975
20
-29.4125099516
11
4.4574138680
21
29.7874671950
0
LINE
5
3D3
100
AcDbEntity
8
0
100
AcDbLine
62
0
6
CONTINUOUS
10
21.0050486732
20
29.4430218085
11
21.0661414005
21
29.5652445017
0
LINE
5
3D4
100
AcDbEntity
8
0
100
AcDbLine
62
0
6
CONTINUOUS
10
-8.8044507754
20
3.9010619428
11
-10.1121065508
21
3.8782367263
0
LINE
5
3D5
100
AcDbEntity
8
0
100
AcDbLine
62
0
6
CONTINUOUS
10
-22.6227924195
20
3.8414643378
11
-15.8147981337
21
3.8414643378
0
LINE
5
3D6
100
AcDbEntity
8
0
100
AcDbLine
62
0
6
CONTINUOUS
10
-19.7941914292
20
3.8501918703
11
-18.6433991241
21
3.8501918703
0
LINE
5
3D7
100
AcDbEntity
8
0
100
AcDbLine
62
0
6
CONTINUOUS
10
-28.7187952766
20
3.9374671950
11
-27.4187952766
21
3.9374671950
0
LINE
5
3D8
100
AcDbEntity
8
0
100
AcDbLine
62
0
6
CONTINUOUS
10
-22.7187952766
20
3.9374671950
11
-19.9687952766
21
3.9374671950
0
LINE
5
3D9
100
AcDbEntity
8
0
100
AcDbLine
62
0
6
CONTINUOUS
10
-18.4687952766
20
3.9374671950
11
-15.7187952766
21
3.9374671950
0
LINE
5
3DA
100
AcDbEntity
8
0
100
AcDbLine
62
0
6
CONTINUOUS
10
-11.0187952766
20
3.9374671950
11
-9.7187952766
21
3.9374671950
0
LINE
5
3DB
100
AcDbEntity
8
CURVE_INCISIONI
100
AcDbLine
62
0
6
CONTINUOUS
10
22.4875699617
20
-19.5296754824
11
22.7161414005
21
-19.7811043535
0
LINE
5
3DC
100
AcDbEntity
8
CURVE_INCISIONI
100
AcDbLine
62
0
6
CONTINUOUS
10
21.5732842304
20
-18.3982470308
11
21.1161414005
21
-17.8953897081
0
LINE
5
3DD
100
AcDbEntity
8
CURVE_INCISIONI
100
AcDbLine
62
0
6
CONTINUOUS
10
24.6875699855
20
-21.7087231813
11
24.5732842304
21
-21.5830089556
0
LINE
5
3DE
100
AcDbEntity
8
CURVE_INCISIONI
100
AcDbLine
62
0
6
CONTINUOUS
10
24.6875699855
20
-20.4515805040
11
24.5732842304
21
-20.3258662783
0
LINE
5
3DF
100
AcDbEntity
8
CURVE_INCISIONI
100
AcDbLine
62
0
6
CONTINUOUS
10
25.7161414005
20
-21.0801520525
11
25.6018556811
21
-20.9544374071
0
LINE
5
3E0
100
AcDbEntity
8
CURVE_INCISIONI
100
AcDbLine
62
0
6
CONTINUOUS
10
24.8018556453
20
-19.1944374071
11
24.5732842304
21
-18.9430089556
0
LINE
5
3E1
100
AcDbEntity
8
CURVE_INCISIONI
100
AcDbLine
62
0
6
CONTINUOUS
10
25.7161414005
20
-19.8230089556
11
25.6018556811
21
-19.6972947298
0
LINE
5
3E2
100
AcDbEntity
8
0
100
AcDbLine
62
0
6
CONTINUOUS
10
21.0463163666
20
-29.2030291142
11
21.0661414005
21
-29.2426912661
0
LINE
5
3E3
100
AcDbEntity
8
CURVE_INCISIONI
100
AcDbLine
62
0
6
CONTINUOUS
10
10.6760364005
20
-15.8045288050
11
9.9659794005
21
-13.9111098050
0
LINE
5
3E4
100
AcDbEntity
8
CURVE_INCISIONI
100
AcDbLine
62
0
6
CONTINUOUS
10
10.1229074005
20
-12.9048758050
11
10.7217864005
21
-14.5147718050
0
LINE
5
3E5
100
AcDbEntity
8
0
100
AcDbLine
62
0
6
CONTINUOUS
10
7.3121442576
20
29.4874671950
11
7.2999257121
21
30.1874671950
0
LINE
5
3E6
100
AcDbEntity
8
0
100
AcDbLine
62
0
6
CONTINUOUS
10
7.0214812196
20
-29.8571929859
11
7.0151136092
21
-27.2615050138
0
LINE
5
3E7
100
AcDbEntity
8
CURVE_INCISIONI
100
AcDbLine
62
0
6
CONTINUOUS
10
6.7611414005
20
-18.2696756379
11
6.7611414005
21
-17.4553899155
0
LINE
5
3E8
100
AcDbEntity
8
0
100
AcDbLine
62
0
6
CONTINUOUS
10
6.9788660758
20
27.6001918703
11
6.9788660758
21
30.2747425196
0
LINE
5
3E9
100
AcDbEntity
8
0
100
AcDbLine
62
0
6
CONTINUOUS
10
7.0247157145
20
28.2960415090
11
7.0247157145
21
28.5091550231
0
LINE
5
3EA
100
AcDbEntity
8
0
100
AcDbLine
62
0
6
CONTINUOUS
10
7.0661414005
20
30.1874671950
11
7.0661414005
21
29.5652445017
0
LINE
5
3EB
100
AcDbEntity
8
0
100
AcDbLine
62
0
6
CONTINUOUS
10
7.0661414005
20
-29.8125328050
11
7.0661414005
21
-29.2426912661
0
LINE
5
3EC
100
AcDbEntity
8
0
100
AcDbLine
62
0
6
CONTINUOUS
10
7.2161414005
20
29.5652445017
11
7.2161414005
21
29.0838990954
0
LINE
5
3ED
100
AcDbEntity
8
0
100
AcDbLine
62
0
6
CONTINUOUS
10
7.2161414005
20
-28.7089647055
11
7.2161414005
21
-29.2030291142
0
LINE
5
3EE
100
AcDbEntity
8
0
100
AcDbLine
62
0
6
CONTINUOUS
10
7.2859616602
20
-28.1823530648
11
7.2859616602
21
-29.1125328050
0
LINE
5
3EF
100
AcDbEntity
8
0
100
AcDbLine
62
0
6
CONTINUOUS
10
7.3121442576
20
29.4874671950
11
7.3121442576
21
28.5834700521
0
LINE
5
3F0
100
AcDbEntity
8
CURVE_INCISIONI
100
AcDbLine
62
0
6
CONTINUOUS
10
7.9554270436
20
-18.8125328050
11
7.9554270436
21
-16.9125328050
0
LINE
5
3F1
100
AcDbEntity
8
CURVE_INCISIONI
100
AcDbLine
62
0
6
CONTINUOUS
10
8.3138294005
20
-20.3151308050
11
8.3138294005
21
-21.0511268050
0
LINE
5
3F2
100
AcDbEntity
8
CURVE_INCISIONI
100
AcDbLine
62
0
6
CONTINUOUS
10
8.3138294005
20
-24.5746148050
11
8.3138294005
21
-25.3106108050
0
LINE
5
3F3
100
AcDbEntity
8
CURVE_INCISIONI
100
AcDbLine
62
0
6
CONTINUOUS
10
8.3252064005
20
-12.9047018050
11
8.3252064005
21
-15.8045288050
0
LINE
5
3F4
100
AcDbEntity
8
CURVE_INCISIONI
100
AcDbLine
62
0
6
CONTINUOUS
10
8.5525698651
20
-17.9982470827
11
8.5525698651
21
-18.5411042215
0
LINE
5
3F5
100
AcDbEntity
8
CURVE_INCISIONI
100
AcDbLine
62
0
6
CONTINUOUS
10
8.6520937933
20
-17.5911042498
11
8.6520937933
21
-17.1839613603
0
LINE
5
3F6
100
AcDbEntity
8
CURVE_INCISIONI
100
AcDbLine
62
0
6
CONTINUOUS
10
8.9304774005
20
-15.8045288050
11
8.9304774005
21
-12.9047018050
0
LINE
5
3F7
100
AcDbEntity
8
0
100
AcDbLine
62
0
6
CONTINUOUS
10
7.2737431147
20
-29.8125328050
11
7.2859616602
21
-29.1125328050
0
LINE
5
3F8
100
AcDbEntity
8
0
100
AcDbLine
62
0
6
CONTINUOUS
10
-29.6331397778
20
7.5102998899
11
-27.0116884954
21
7.6018429858
0
LINE
5
3F9
100
AcDbEntity
8
0
100
AcDbLine
62
0
6
CONTINUOUS
10
-8.8044507754
20
8.8646345000
11
-11.4259020578
21
8.7730914041
0
LINE
5
3FA
100
AcDbEntity
8
0
100
AcDbLine
62
0
6
CONTINUOUS
10
-28.7187952766
20
7.4374671950
11
-22.6374938594
21
7.4374671950
0
LINE
5
3FB
100
AcDbEntity
8
0
100
AcDbLine
62
0
6
CONTINUOUS
10
-15.8000966938
20
7.4374671950
11
-9.7187952766
21
7.4374671950
0
LINE
5
3FC
100
AcDbEntity
8
0
100
AcDbLine
62
0
6
CONTINUOUS
10
-12.1330088390
20
7.6120710424
11
-15.9435580579
21
7.6120710424
0
LINE
5
3FD
100
AcDbEntity
8
0
100
AcDbLine
62
0
6
CONTINUOUS
10
-22.4940324954
20
7.6120710424
11
-26.3045817142
21
7.6120710424
0
LINE
5
3FE
100
AcDbEntity
8
0
100
AcDbLine
62
0
6
CONTINUOUS
10
-12.1330088390
20
8.7628633475
11
-15.9435580579
21
8.7628633475
0
LINE
5
3FF
100
AcDbEntity
8
0
100
AcDbLine
62
0
6
CONTINUOUS
10
-22.4940324954
20
8.7628633475
11
-26.3045817142
21
8.7628633475
0
LINE
5
400
100
AcDbEntity
8
0
100
AcDbLine
62
0
6
CONTINUOUS
10
-28.7187952766
20
8.9374671950
11
-22.6374938594
21
8.9374671950
0
LINE
5
401
100
AcDbEntity
8
0
100
AcDbLine
62
0
6
CONTINUOUS
10
-15.8000966938
20
8.9374671950
11
-9.7187952766
21
8.9374671950
0
LINE
5
402
100
AcDbEntity
8
0
100
AcDbLine
62
0
6
CONTINUOUS
10
-11.4259020578
20
7.6018429858
11
-8.8044507754
21
7.5102998899
0
LINE
5
403
100
AcDbEntity
8
0
100
AcDbLine
62
0
6
CONTINUOUS
10
-27.0116884954
20
8.7730914041
11
-29.6331397778
21
8.8646345000
0
LINE
5
404
100
AcDbEntity
8
0
100
AcDbLine
62
0
6
CONTINUOUS
10
13.1806074945
20
-1.8125328050
11
5.0341608851
21
6.3339138044
0
LINE
5
405
100
AcDbEntity
8
0
100
AcDbLine
62
0
6
CONTINUOUS
10
14.6554812287
20
-1.8731929768
11
5.7412676663
21
7.0410205855
0
LINE
5
406
100
AcDbEntity
8
0
100
AcDbLine
62
0
6
CONTINUOUS
10
13.1806074945
20
-1.8125328050
11
13.9470403351
21
-2.5816338704
0
LINE
5
407
100
AcDbEntity
8
CURVE_INCISIONI
100
AcDbLine
62
0
6
CONTINUOUS
10
13.7871514005
20
-12.9048758050
11
14.6768374005
21
-15.8045288050
0
LINE
5
408
100
AcDbEntity
8
CURVE_INCISIONI
100
AcDbLine
62
0
6
CONTINUOUS
10
11.9259144005
20
-12.9048758050
11
12.1970644005
21
-15.8045288050
0
LINE
5
409
100
AcDbEntity
8
CURVE_INCISIONI
100
AcDbLine
62
0
6
CONTINUOUS
10
11.6049484005
20
-15.8045288050
11
11.4805934005
21
-13.9190028050
0
LINE
5
40A
100
AcDbEntity
8
0
100
AcDbLine
62
0
6
CONTINUOUS
10
10.1463211407
20
-29.1125328050
11
10.1585396862
21
-29.8125328050
0
LINE
5
40B
100
AcDbEntity
8
CURVE_INCISIONI
100
AcDbLine
62
0
6
CONTINUOUS
10
9.4980461861
20
-17.1839613603
11
9.4980461861
21
-17.5911042498
0
LINE
5
40C
100
AcDbEntity
8
CURVE_INCISIONI
100
AcDbLine
62
0
6
CONTINUOUS
10
9.5975698651
20
-18.5411042215
11
9.5975698651
21
-17.9982470827
0
LINE
5
40D
100
AcDbEntity
8
0
100
AcDbLine
62
0
6
CONTINUOUS
10
10.1201385434
20
28.5834700521
11
10.1201385434
21
29.4874671950
0
LINE
5
40E
100
AcDbEntity
8
0
100
AcDbLine
62
0
6
CONTINUOUS
10
10.1463211407
20
-29.1125328050
11
10.1463211407
21
-28.1823530648
0
LINE
5
40F
100
AcDbEntity
8
0
100
AcDbLine
62
0
6
CONTINUOUS
10
10.2161414005
20
-29.2030291142
11
10.2161414005
21
-28.7089647055
0
LINE
5
410
100
AcDbEntity
8
0
100
AcDbLine
62
0
6
CONTINUOUS
10
10.2161414005
20
29.0838990954
11
10.2161414005
21
29.5652445017
0
LINE
5
411
100
AcDbEntity
8
0
100
AcDbLine
62
0
6
CONTINUOUS
10
10.3661414005
20
-29.2426912661
11
10.3661414005
21
-29.8125328050
0
LINE
5
412
100
AcDbEntity
8
0
100
AcDbLine
62
0
6
CONTINUOUS
10
10.3661414005
20
29.5652445017
11
10.3661414005
21
30.1874671950
0
LINE
5
413
100
AcDbEntity
8
0
100
AcDbLine
62
0
6
CONTINUOUS
10
10.4123175077
20
28.2912910877
11
10.4123175077
21
28.4948921697
0
LINE
5
414
100
AcDbEntity
8
0
100
AcDbLine
62
0
6
CONTINUOUS
10
10.4534167251
20
30.2747425196
11
10.4534167251
21
27.6001918703
0
LINE
5
415
100
AcDbEntity
8
CURVE_INCISIONI
100
AcDbLine
62
0
6
CONTINUOUS
10
11.2397126867
20
-17.1839613603
11
11.2397126867
21
-17.4553899155
0
LINE
5
416
100
AcDbEntity
8
CURVE_INCISIONI
100
AcDbLine
62
0
6
CONTINUOUS
10
11.8368557574
20
-17.9982470827
11
11.8368557574
21
-18.5411042215
0
LINE
5
417
100
AcDbEntity
8
CURVE_INCISIONI
100
AcDbLine
62
0
6
CONTINUOUS
10
11.9363796855
20
-17.5911042498
11
11.9363796855
21
-17.1839613603
0
LINE
5
418
100
AcDbEntity
8
0
100
AcDbLine
62
0
6
CONTINUOUS
10
12.2161414005
20
0.5661468514
11
12.2161414005
21
-0.8480667110
0
LINE
5
419
100
AcDbEntity
8
0
100
AcDbLine
62
0
6
CONTINUOUS
10
12.2161414005
20
18.6874671950
11
12.2161414005
21
25.1874671950
0
LINE
5
41A
100
AcDbEntity
8
CURVE_INCISIONI
100
AcDbLine
62
0
6
CONTINUOUS
10
12.2202744005
20
-22.4452728050
11
12.2202744005
21
-23.1804678050
0
LINE
5
41B
100
AcDbEntity
8
0
100
AcDbLine
62
0
6
CONTINUOUS
10
10.4171691917
20
-27.2615050138
11
10.4108015813
21
-29.8571929859
0
LINE
5
41C
100
AcDbEntity
8
0
100
AcDbLine
62
0
6
CONTINUOUS
10
10.1323570888
20
30.1874671950
11
10.1201385434
21
29.4874671950
0
LINE
5
41D
100
AcDbEntity
8
CURVE_INCISIONI
100
AcDbLine
62
0
6
CONTINUOUS
10
9.9659794005
20
-13.9111098050
11
9.8353624005
21
-15.8045288050
0
LINE
5
41E
100
AcDbEntity
8
CURVE_INCISIONI
100
AcDbLine
62
0
6
CONTINUOUS
10
9.2563144005
20
-15.8045288050
11
9.5181364005
21
-12.9048758050
0
LINE
5
41F
100
AcDbEntity
8
CURVE_INCISIONI
100
AcDbLine
62
0
6
CONTINUOUS
10
6.9261204005
20
-14.9007968050
11
7.4957314005
21
-12.9048758050
0
LINE
5
420
100
AcDbEntity
8
CURVE_INCISIONI
100
AcDbLine
62
0
6
CONTINUOUS
10
8.1005894005
20
-12.9048758050
11
7.1685244005
21
-15.8045288050
0
LINE
5
421
100
AcDbEntity
8
0
100
AcDbLine
62
0
6
CONTINUOUS
10
21.0199652932
20
28.4948921697
11
21.2161414005
21
29.0838990954
0
LINE
5
422
100
AcDbEntity
8
0
100
AcDbLine
62
0
6
CONTINUOUS
10
15.8575627567
20
1.7330516072
11
21.1655317350
21
7.0410205855
0
LINE
5
423
100
AcDbEntity
8
0
100
AcDbLine
62
0
6
CONTINUOUS
10
16.3525105793
20
0.8137858674
11
21.8726385162
21
6.3339138044
0
LINE
5
424
100
AcDbEntity
8
0
100
AcDbLine
62
0
6
CONTINUOUS
10
9.5596442847
20
6.3339138044
11
15.0797722217
21
0.8137858674
0
LINE
5
425
100
AcDbEntity
8
0
100
AcDbLine
62
0
6
CONTINUOUS
10
10.2667510659
20
7.0410205855
11
15.5747200442
21
1.7330516072
0
LINE
5
426
100
AcDbEntity
8
CURVE_INCISIONI
100
AcDbLine
62
0
6
CONTINUOUS
10
22.2589985229
20
-22.7982470308
11
22.1447128154
21
-22.5468185793
0
LINE
5
427
100
AcDbEntity
8
CURVE_INCISIONI
100
AcDbLine
62
0
6
CONTINUOUS
10
21.6875699855
20
-21.5411043535
11
21.5732842304
21
-21.2896754824
0
LINE
5
428
100
AcDbEntity
8
0
100
AcDbLine
62
0
6
CONTINUOUS
10
21.0438352434
20
-28.1916258650
11
21.2161414005
21
-28.7089647055
0
LINE
5
429
100
AcDbEntity
8
CURVE_INCISIONI
100
AcDbLine
62
0
6
CONTINUOUS
10
14.0389064005
20
-15.8045288050
11
13.8821084005
21
-15.2256548050
0
LINE
5
42A
100
AcDbEntity
8
CURVE_INCISIONI
100
AcDbLine
62
0
6
CONTINUOUS
10
13.7611454005
20
-14.7777248050
11
13.4830154005
21
-13.7016268050
0
LINE
5
42B
100
AcDbEntity
8
CURVE_INCISIONI
100
AcDbLine
62
0
6
CONTINUOUS
10
12.6123784005
20
-20.3151306873
11
12.6123784005
21
-21.0511268050
0
LINE
5
42C
100
AcDbEntity
8
CURVE_INCISIONI
100
AcDbLine
62
0
6
CONTINUOUS
10
12.6123784005
20
-24.5746108735
11
12.6123784005
21
-25.3106109228
0
LINE
5
42D
100
AcDbEntity
8
CURVE_INCISIONI
100
AcDbLine
62
0
6
CONTINUOUS
10
12.7823318292
20
-17.1839613603
11
12.7823318292
21
-17.5911042498
0
LINE
5
42E
100
AcDbEntity
8
CURVE_INCISIONI
100
AcDbLine
62
0
6
CONTINUOUS
10
12.8818557574
20
-18.5411042215
11
12.8818557574
21
-17.9982470827
0
LINE
5
42F
100
AcDbEntity
8
0
100
AcDbLine
62
0
6
CONTINUOUS
10
13.6161414005
20
16.3874671950
11
13.6161414005
21
19.1874671950
0
LINE
5
430
100
AcDbEntity
8
0
100
AcDbLine
62
0
6
CONTINUOUS
10
13.6161414005
20
22.1874671950
11
13.6161414005
21
24.9874671950
0
LINE
5
431
100
AcDbEntity
8
0
100
AcDbLine
62
0
6
CONTINUOUS
10
14.2161414005
20
27.6874671950
11
14.2161414005
21
18.1874671950
0
LINE
5
432
100
AcDbEntity
8
0
100
AcDbLine
62
0
6
CONTINUOUS
10
14.8161414005
20
27.6874671950
11
14.8161414005
21
17.6874671950
0
LINE
5
433
100
AcDbEntity
8
CURVE_INCISIONI
100
AcDbLine
62
0
6
CONTINUOUS
10
14.8545740561
20
-12.9387534577
11
14.8545740561
21
-15.8045291573
0
LINE
5
434
100
AcDbEntity
8
CURVE_INCISIONI
100
AcDbLine
62
0
6
CONTINUOUS
10
15.4373401286
20
-14.1948719039
11
15.4373401286
21
-13.3988605468
0
LINE
5
435
100
AcDbEntity
8
CURVE_INCISIONI
100
AcDbLine
62
0
6
CONTINUOUS
10
15.4574100172
20
-15.8045291573
11
15.4574100172
21
-14.6697650431
0
LINE
5
436
100
AcDbEntity
8
0
100
AcDbLine
62
0
6
CONTINUOUS
10
14.3680724317
20
-0.5136731098
11
14.2522904103
21
-1.0359320583
0
LINE
5
437
100
AcDbEntity
8
0
100
AcDbLine
62
0
6
CONTINUOUS
10
24.1639338732
20
29.5307172442
11
24.1463211407
21
29.4778360778
0
LINE
5
438
100
AcDbEntity
8
CURVE_INCISIONI
100
AcDbLine
62
0
6
CONTINUOUS
10
10.7217864005
20
-14.5147718050
11
11.3270574005
21
-12.9048758050
0
LINE
5
439
100
AcDbEntity
8
CURVE_INCISIONI
100
AcDbLine
62
0
6
CONTINUOUS
10
5.8654271214
20
-17.1839613603
11
5.7161414005
21
-17.4553899155
0
LINE
5
43A
100
AcDbEntity
8
CURVE_INCISIONI
100
AcDbLine
62
0
6
CONTINUOUS
10
6.6118556951
20
-18.5411042215
11
6.7611414005
21
-18.2696756379
0
LINE
5
43B
100
AcDbEntity
8
0
100
AcDbLine
62
0
6
CONTINUOUS
10
18.2516753064
20
-1.8125328050
11
17.4852424658
21
-2.5816338704
0
LINE
5
43C
100
AcDbEntity
8
0
100
AcDbLine
62
0
6
CONTINUOUS
10
25.6910151346
20
7.0410205855
11
16.7768015722
21
-1.8731929768
0
LINE
5
43D
100
AcDbEntity
8
0
100
AcDbLine
62
0
6
CONTINUOUS
10
26.3981219158
20
6.3339138044
11
18.2516753064
21
-1.8125328050
0
LINE
5
43E
100
AcDbEntity
8
CURVE_INCISIONI
100
AcDbLine
62
0
6
CONTINUOUS
10
25.2589985229
20
-22.9658660684
11
25.1447128154
21
-22.7144376169
0
LINE
5
43F
100
AcDbEntity
8
0
100
AcDbLine
62
0
6
CONTINUOUS
10
15.7161414005
20
27.9961185634
11
15.7161414005
21
17.6874671950
0
LINE
5
440
100
AcDbEntity
8
0
100
AcDbLine
62
0
6
CONTINUOUS
10
18.2161414005
20
27.6264074416
11
18.2161414005
21
18.1874671950
0
LINE
5
441
100
AcDbEntity
8
CURVE_INCISIONI
100
AcDbLine
62
0
6
CONTINUOUS
10
13.4830154005
20
-13.7016268050
11
13.1816414005
21
-14.7777248050
0
LINE
5
442
100
AcDbEntity
8
CURVE_INCISIONI
100
AcDbLine
62
0
6
CONTINUOUS
10
13.0578294005
20
-15.2256548050
11
12.8908124005
21
-15.8045288050
0
LINE
5
443
100
AcDbEntity
8
CURVE_INCISIONI
100
AcDbLine
62
0
6
CONTINUOUS
10
12.2921084005
20
-15.8045288050
11
13.2016244005
21
-12.9048758050
0
LINE
5
444
100
AcDbEntity
8
CURVE_INCISIONI
100
AcDbLine
62
0
6
CONTINUOUS
10
11.4805934005
20
-13.9190028050
11
10.7609254005
21
-15.8045288050
0
LINE
5
445
100
AcDbEntity
8
CURVE_INCISIONI
100
AcDbLine
62
0
6
CONTINUOUS
10
8.6520937933
20
-17.1839613603
11
8.8511414005
21
-16.9125328050
0
LINE
5
446
100
AcDbEntity
8
CURVE_INCISIONI
100
AcDbLine
62
0
6
CONTINUOUS
10
10.1947126867
20
-17.3196756945
11
10.4932844712
21
-16.9125328050
0
LINE
5
447
100
AcDbEntity
8
CURVE_INCISIONI
100
AcDbLine
62
0
6
CONTINUOUS
10
6.1639985478
20
-16.9125328050
11
5.8654271214
21
-17.1839613603
0
LINE
5
448
100
AcDbEntity
8
CURVE_INCISIONI
100
AcDbLine
62
0
6
CONTINUOUS
10
7.9554270436
20
-16.9125328050
11
7.3582842220
21
-17.4553899155
0
LINE
5
449
100
AcDbEntity
8
CURVE_INCISIONI
100
AcDbLine
62
0
6
CONTINUOUS
10
6.3132842843
20
-18.8125328050
11
6.6118556951
21
-18.5411042215
0
LINE
5
44A
100
AcDbEntity
8
0
100
AcDbLine
62
0
6
CONTINUOUS
10
13.0898539582
20
16.3874671950
11
13.6161414005
21
16.3874671950
0
LINE
5
44B
100
AcDbEntity
8
0
100
AcDbLine
62
0
6
CONTINUOUS
10
17.7161414005
20
17.6874671950
11
14.7161414005
21
17.6874671950
0
LINE
5
44C
100
AcDbEntity
8
0
100
AcDbLine
62
0
6
CONTINUOUS
10
7.2683489278
20
29.5307172442
11
7.2859616602
21
29.4778360778
0
LINE
5
44D
100
AcDbEntity
8
0
100
AcDbLine
62
0
6
CONTINUOUS
10
17.1799923906
20
-1.0359320583
11
17.0642103692
21
-0.5136731098
0
LINE
5
44E
100
AcDbEntity
8
0
100
AcDbLine
62
0
6
CONTINUOUS
10
21.0214812196
20
-29.8571929859
11
21.0151136092
21
-27.2615050138
0
LINE
5
44F
100
AcDbEntity
8
0
100
AcDbLine
62
0
6
CONTINUOUS
10
19.2161414005
20
25.1874671950
11
19.2161414005
21
18.6874671950
0
LINE
5
450
100
AcDbEntity
8
0
100
AcDbLine
62
0
6
CONTINUOUS
10
19.2161414005
20
-0.8480667110
11
19.2161414005
21
0.5661468514
0
LINE
5
451
100
AcDbEntity
8
0
100
AcDbLine
62
0
6
CONTINUOUS
10
20.9788660758
20
27.6001918703
11
20.9788660758
21
30.2747425196
0
LINE
5
452
100
AcDbEntity
8
0
100
AcDbLine
62
0
6
CONTINUOUS
10
21.0199652932
20
28.2912910877
11
21.0199652932
21
28.4948921697
0
LINE
5
453
100
AcDbEntity
8
0
100
AcDbLine
62
0
6
CONTINUOUS
10
21.0661414005
20
30.1874671950
11
21.0661414005
21
29.5652445017
0
LINE
5
454
100
AcDbEntity
8
0
100
AcDbLine
62
0
6
CONTINUOUS
10
21.0661414005
20
-29.8125328050
11
21.0661414005
21
-29.2426912661
0
LINE
5
455
100
AcDbEntity
8
CURVE_INCISIONI
100
AcDbLine
62
0
6
CONTINUOUS
10
21.1161414005
20
-25.0611042224
11
21.1161414005
21
-24.4325328050
0
LINE
5
456
100
AcDbEntity
8
0
100
AcDbLine
62
0
6
CONTINUOUS
10
21.2161414005
20
29.5652445017
11
21.2161414005
21
29.0838990954
0
LINE
5
457
100
AcDbEntity
8
0
100
AcDbLine
62
0
6
CONTINUOUS
10
21.2161414005
20
-28.7089647055
11
21.2161414005
21
-29.2030291142
0
LINE
5
458
100
AcDbEntity
8
0
100
AcDbLine
62
0
6
CONTINUOUS
10
21.2859616602
20
-28.1823530648
11
21.2859616602
21
-29.1125328050
0
LINE
5
459
100
AcDbEntity
8
0
100
AcDbLine
62
0
6
CONTINUOUS
10
21.3121442576
20
29.4874671950
11
21.3121442576
21
28.5834700521
0
LINE
5
45A
100
AcDbEntity
8
CURVE_INCISIONI
100
AcDbLine
62
0
6
CONTINUOUS
10
21.5732842304
20
-23.9296756922
11
21.5732842304
21
-23.4268185793
0
LINE
5
45B
100
AcDbEntity
8
CURVE_INCISIONI
100
AcDbLine
62
0
6
CONTINUOUS
10
21.5732842304
20
-21.2896754824
11
21.5732842304
21
-20.7868185793
0
LINE
5
45C
100
AcDbEntity
8
CURVE_INCISIONI
100
AcDbLine
62
0
6
CONTINUOUS
10
21.5732842304
20
-20.0325328050
11
21.5732842304
21
-19.7811043535
0
LINE
5
45D
100
AcDbEntity
8
CURVE_INCISIONI
100
AcDbLine
62
0
6
CONTINUOUS
10
21.5732842304
20
-22.1696756922
11
21.5732842304
21
-22.7982470308
0
LINE
5
45E
100
AcDbEntity
8
0
100
AcDbLine
62
0
6
CONTINUOUS
10
10.3884475576
20
-28.1916258650
11
10.2161414005
21
-28.7089647055
0
LINE
5
45F
100
AcDbEntity
8
CURVE_INCISIONI
100
AcDbLine
62
0
6
CONTINUOUS
10
11.9363796855
20
-17.1839613603
11
12.1354270436
21
-16.9125328050
0
LINE
5
460
100
AcDbEntity
8
CURVE_INCISIONI
100
AcDbLine
62
0
6
CONTINUOUS
10
11.2397126867
20
-17.4553899155
11
10.1947126867
21
-18.8125328050
0
LINE
5
461
100
AcDbEntity
8
CURVE_INCISIONI
100
AcDbLine
62
0
6
CONTINUOUS
10
8.8511414005
20
-17.7268184708
11
8.5525698651
21
-17.9982470827
0
LINE
5
462
100
AcDbEntity
8
CURVE_INCISIONI
100
AcDbLine
62
0
6
CONTINUOUS
10
9.2989985789
20
-18.8125328050
11
9.5975698651
21
-18.5411042215
0
LINE
5
463
100
AcDbEntity
8
CURVE_INCISIONI
100
AcDbLine
62
0
6
CONTINUOUS
10
12.1354270436
20
-17.7268184708
11
11.8368557574
21
-17.9982470827
0
LINE
5
464
100
AcDbEntity
8
CURVE_INCISIONI
100
AcDbLine
62
0
6
CONTINUOUS
10
9.4980461861
20
-17.5911042498
11
9.2989985789
21
-17.7268184708
0
LINE
5
465
100
AcDbEntity
8
0
100
AcDbLine
62
0
6
CONTINUOUS
10
-23.6838851468
20
19.1874671950
11
-23.1926113500
21
19.1874671950
0
LINE
5
466
100
AcDbEntity
8
0
100
AcDbLine
62
0
6
CONTINUOUS
10
13.6161414005
20
19.1874671950
11
12.2161414005
21
19.1874671950
0
LINE
5
467
100
AcDbEntity
8
0
100
AcDbLine
62
0
6
CONTINUOUS
10
-14.7537054065
20
19.1874671950
11
-15.2449792033
21
19.1874671950
0
LINE
5
468
100
AcDbEntity
8
0
100
AcDbLine
62
0
6
CONTINUOUS
10
-1.7838585995
20
31.1875433474
11
-1.6807932731
21
31.0844780210
0
LINE
5
469
100
AcDbEntity
8
0
100
AcDbLine
62
0
6
CONTINUOUS
10
-1.2839347520
20
31.6874671950
11
-1.1808694255
21
31.5844018685
0
LINE
5
46A
100
AcDbEntity
8
0
100
AcDbLine
62
0
6
CONTINUOUS
10
10.4123175077
20
28.4948921697
11
10.2161414005
21
29.0838990954
0
LINE
5
46B
100
AcDbEntity
8
0
100
AcDbLine
62
0
6
CONTINUOUS
10
21.3121442576
20
29.4874671950
11
21.2999257121
21
30.1874671950
0
LINE
5
46C
100
AcDbEntity
8
0
100
AcDbLine
62
0
6
CONTINUOUS
10
24.1463211407
20
-29.1125328050
11
24.1585396862
21
-29.8125328050
0
LINE
5
46D
100
AcDbEntity
8
CURVE_INCISIONI
100
AcDbLine
62
0
6
CONTINUOUS
10
21.8018556453
20
-24.8096756397
11
21.8018556453
21
-24.4325328050
0
LINE
5
46E
100
AcDbEntity
8
CURVE_INCISIONI
100
AcDbLine
62
0
6
CONTINUOUS
10
21.9161414005
20
-19.0268185793
11
21.9161414005
21
-18.9430089556
0
LINE
5
46F
100
AcDbEntity
8
CURVE_INCISIONI
100
AcDbLine
62
0
6
CONTINUOUS
10
22.1447128154
20
-22.5468185793
11
22.1447128154
21
-22.0439614664
0
LINE
5
470
100
AcDbEntity
8
CURVE_INCISIONI
100
AcDbLine
62
0
6
CONTINUOUS
10
22.6018556811
20
-19.0268185793
11
22.6018556811
21
-18.9430089556
0
LINE
5
471
100
AcDbEntity
8
CURVE_INCISIONI
100
AcDbLine
62
0
6
CONTINUOUS
10
22.7161414005
20
-19.7811043535
11
22.7161414005
21
-20.0325328050
0
LINE
5
472
100
AcDbEntity
8
CURVE_INCISIONI
100
AcDbLine
62
0
6
CONTINUOUS
10
22.7161414005
20
-20.7868185793
11
22.7161414005
21
-21.2896754824
0
LINE
5
473
100
AcDbEntity
8
CURVE_INCISIONI
100
AcDbLine
62
0
6
CONTINUOUS
10
22.7161414005
20
-22.0439614664
11
22.7161414005
21
-22.5468185793
0
LINE
5
474
100
AcDbEntity
8
CURVE_INCISIONI
100
AcDbLine
62
0
6
CONTINUOUS
10
22.7161414005
20
-24.4325328050
11
22.7161414005
21
-25.0611042224
0
LINE
5
475
100
AcDbEntity
8
CURVE_INCISIONI
100
AcDbLine
62
0
6
CONTINUOUS
10
24.1161414005
20
-25.0611042224
11
24.1161414005
21
-24.5582470833
0
LINE
5
476
100
AcDbEntity
8
0
100
AcDbLine
62
0
6
CONTINUOUS
10
24.1201385434
20
28.5834700521
11
24.1201385434
21
29.4874671950
0
LINE
5
477
100
AcDbEntity
8
0
100
AcDbLine
62
0
6
CONTINUOUS
10
24.1463211407
20
-29.1125328050
11
24.1463211407
21
-28.1823530648
0
LINE
5
478
100
AcDbEntity
8
0
100
AcDbLine
62
0
6
CONTINUOUS
10
24.2161414005
20
-29.2030291142
11
24.2161414005
21
-28.7089647055
0
LINE
5
479
100
AcDbEntity
8
0
100
AcDbLine
62
0
6
CONTINUOUS
10
24.2161414005
20
29.0838990954
11
24.2161414005
21
29.5652445017
0
LINE
5
47A
100
AcDbEntity
8
0
100
AcDbLine
62
0
6
CONTINUOUS
10
24.3661414005
20
-29.2426912661
11
24.3661414005
21
-29.8125328050
0
LINE
5
47B
100
AcDbEntity
8
0
100
AcDbLine
62
0
6
CONTINUOUS
10
24.3661414005
20
29.5652445017
11
24.3661414005
21
30.1874671950
0
LINE
5
47C
100
AcDbEntity
8
0
100
AcDbLine
62
0
6
CONTINUOUS
10
24.4075670864
20
28.2960415090
11
24.4075670864
21
28.5091550231
0
LINE
5
47D
100
AcDbEntity
8
0
100
AcDbLine
62
0
6
CONTINUOUS
10
24.4534167251
20
30.2747425196
11
24.4534167251
21
27.6001918703
0
LINE
5
47E
100
AcDbEntity
8
CURVE_INCISIONI
100
AcDbLine
62
0
6
CONTINUOUS
10
24.5732842304
20
-21.5830089556
11
24.5732842304
21
-21.0801520525
0
LINE
5
47F
100
AcDbEntity
8
CURVE_INCISIONI
100
AcDbLine
62
0
6
CONTINUOUS
10
24.5732842304
20
-20.3258662783
11
24.5732842304
21
-19.8230089556
0
LINE
5
480
100
AcDbEntity
8
CURVE_INCISIONI
100
AcDbLine
62
0
6
CONTINUOUS
10
24.5732842304
20
-18.9430089556
11
24.5732842304
21
-18.6915805040
0
LINE
5
481
100
AcDbEntity
8
CURVE_INCISIONI
100
AcDbLine
62
0
6
CONTINUOUS
10
24.5732842304
20
-22.3372947298
11
24.5732842304
21
-22.9658660684
0
LINE
5
482
100
AcDbEntity
8
0
100
AcDbLine
62
0
6
CONTINUOUS
10
24.4171691917
20
-27.2615050138
11
24.4108015813
21
-29.8571929859
0
LINE
5
483
100
AcDbEntity
8
0
100
AcDbLine
62
0
6
CONTINUOUS
10
21.2737431147
20
-29.8125328050
11
21.2859616602
21
-29.1125328050
0
LINE
5
484
100
AcDbEntity
8
0
100
AcDbLine
62
0
6
CONTINUOUS
10
24.1323570888
20
30.1874671950
11
24.1201385434
21
29.4874671950
0
LINE
5
485
100
AcDbEntity
8
0
100
AcDbLine
62
0
6
CONTINUOUS
10
10.3859664343
20
-29.2030291142
11
10.3661414005
21
-29.2426912661
0
LINE
5
486
100
AcDbEntity
8
CURVE_INCISIONI
100
AcDbLine
62
0
6
CONTINUOUS
10
12.5832844712
20
-18.8125328050
11
12.8818557574
21
-18.5411042215
0
LINE
5
487
100
AcDbEntity
8
CURVE_INCISIONI
100
AcDbLine
62
0
6
CONTINUOUS
10
12.7823318292
20
-17.5911042498
11
12.5832844712
21
-17.7268184708
0
LINE
5
488
100
AcDbEntity
8
0
100
AcDbLine
62
0
6
CONTINUOUS
10
12.2161414005
20
22.1874671950
11
13.6161414005
21
22.1874671950
0
LINE
5
489
100
AcDbEntity
8
0
100
AcDbLine
62
0
6
CONTINUOUS
10
-23.6838851468
20
24.6874671950
11
-23.1926113500
21
24.6874671950
0
LINE
5
48A
100
AcDbEntity
8
0
100
AcDbLine
62
0
6
CONTINUOUS
10
-14.7537054065
20
24.6874671950
11
-15.2449792033
21
24.6874671950
0
LINE
5
48B
100
AcDbEntity
8
0
100
AcDbLine
62
0
6
CONTINUOUS
10
13.6161414005
20
24.9874671950
11
12.2161414005
21
24.9874671950
0
LINE
5
48C
100
AcDbEntity
8
0
100
AcDbLine
62
0
6
CONTINUOUS
10
10.4272341277
20
29.4430218085
11
10.3661414005
21
29.5652445017
0
LINE
5
48D
100
AcDbEntity
8
CURVE_INCISIONI
100
AcDbLine
62
0
6
CONTINUOUS
10
24.9161414005
20
-17.9372943102
11
24.9161414005
21
-17.8534851061
0
LINE
5
48E
100
AcDbEntity
8
CURVE_INCISIONI
100
AcDbLine
62
0
6
CONTINUOUS
10
25.1447128154
20
-22.7144376169
11
25.1447128154
21
-22.2115805040
0
LINE
5
48F
100
AcDbEntity
8
CURVE_INCISIONI
100
AcDbLine
62
0
6
CONTINUOUS
10
25.1447128154
20
-18.4401520525
11
25.1447128154
21
-19.1944374071
0
LINE
5
490
100
AcDbEntity
8
CURVE_INCISIONI
100
AcDbLine
62
0
6
CONTINUOUS
10
25.6018556811
20
-17.9372943102
11
25.6018556811
21
-17.8534851061
0
LINE
5
491
100
AcDbEntity
8
CURVE_INCISIONI
100
AcDbLine
62
0
6
CONTINUOUS
10
25.7161414005
20
-18.4401520525
11
25.7161414005
21
-18.9430089556
0
LINE
5
492
100
AcDbEntity
8
CURVE_INCISIONI
100
AcDbLine
62
0
6
CONTINUOUS
10
25.7161414005
20
-21.5830089556
11
25.7161414005
21
-21.0801520525
0
LINE
5
493
100
AcDbEntity
8
CURVE_INCISIONI
100
AcDbLine
62
0
6
CONTINUOUS
10
25.7161414005
20
-20.3258662783
11
25.7161414005
21
-19.8230089556
0
LINE
5
494
100
AcDbEntity
8
CURVE_INCISIONI
100
AcDbLine
62
0
6
CONTINUOUS
10
25.7161414005
20
-22.2115805040
11
25.7161414005
21
-22.7144376169
0
LINE
5
495
100
AcDbEntity
8
CURVE_INCISIONI
100
AcDbLine
62
0
6
CONTINUOUS
10
25.7161414005
20
-23.4687231813
11
25.7161414005
21
-23.7201518427
0
LINE
5
496
100
AcDbEntity
8
CURVE_INCISIONI
100
AcDbLine
62
0
6
CONTINUOUS
10
25.7161414005
20
-24.5582470833
11
25.7161414005
21
-25.0611042224
0
LINE
5
497
100
AcDbEntity
8
0
100
AcDbLine
62
0
6
CONTINUOUS
10
26.9661414005
20
-29.4125315985
11
26.9661414005
21
29.7874671950
0
LINE
5
498
100
AcDbEntity
8
0
100
AcDbLine
62
0
6
CONTINUOUS
10
26.9748689329
20
29.7874671950
11
26.9749547034
21
-29.4125099516
0
LINE
5
499
100
AcDbEntity
8
0
100
AcDbLine
62
0
6
CONTINUOUS
10
7.0661414005
20
-29.8125328050
11
7.0214812196
21
-29.8571929859
0
LINE
5
49A
100
AcDbEntity
8
0
100
AcDbLine
62
0
6
CONTINUOUS
10
10.3906642624
20
-27.2880099431
11
10.4171691917
21
-27.2615050138
0
LINE
5
49B
100
AcDbEntity
8
0
100
AcDbLine
62
0
6
CONTINUOUS
10
10.1463211407
20
-28.1823530648
11
10.3890657940
21
-27.9396084115
0
LINE
5
49C
100
AcDbEntity
8
0
100
AcDbLine
62
0
6
CONTINUOUS
10
18.7161414005
20
31.6787396625
11
18.7598857322
21
31.6874671950
0
LINE
5
49D
100
AcDbEntity
8
0
100
AcDbLine
62
0
6
CONTINUOUS
10
24.4534167251
20
27.6001918703
11
20.9788660758
21
27.6001918703
0
LINE
5
49E
100
AcDbEntity
8
0
100
AcDbLine
62
0
6
CONTINUOUS
10
10.4534167251
20
27.6001918703
11
6.9788660758
21
27.6001918703
0
LINE
5
49F
100
AcDbEntity
8
0
100
AcDbLine
62
0
6
CONTINUOUS
10
7.0050486732
20
27.6874671950
11
10.4272341277
21
27.6874671950
0
LINE
5
4A0
100
AcDbEntity
8
0
100
AcDbLine
62
0
6
CONTINUOUS
10
13.2813712383
20
27.6874671950
11
14.8161414005
21
27.6874671950
0
LINE
5
4A1
100
AcDbEntity
8
0
100
AcDbLine
62
0
6
CONTINUOUS
10
21.0050486732
20
27.6874671950
11
24.4272341277
21
27.6874671950
0
LINE
5
4A2
100
AcDbEntity
8
0
100
AcDbLine
62
0
6
CONTINUOUS
10
15.7161414005
20
27.6961185634
11
14.8161414005
21
27.6961185634
0
LINE
5
4A3
100
AcDbEntity
8
0
100
AcDbLine
62
0
6
CONTINUOUS
10
7.0661414005
20
30.1874671950
11
6.9788660758
21
30.2747425196
0
LINE
5
4A4
100
AcDbEntity
8
0
100
AcDbLine
62
0
6
CONTINUOUS
10
10.4534167251
20
27.6001918703
11
10.4272341277
21
27.6263744677
0
LINE
5
4A5
100
AcDbEntity
8
0
100
AcDbLine
62
0
6
CONTINUOUS
10
10.1201385434
20
28.5834700521
11
10.4123175077
21
28.2912910877
0
LINE
5
4A6
100
AcDbEntity
8
0
100
AcDbLine
62
0
6
CONTINUOUS
10
27.7661414005
20
-29.4125315985
11
27.7661414005
21
29.7874671950
0
LINE
5
4A7
100
AcDbEntity
8
0
100
AcDbLine
62
0
6
CONTINUOUS
10
30.2161414005
20
-30.7817432181
11
30.2161414005
21
31.0364667440
0
LINE
5
4A8
100
AcDbEntity
8
0
100
AcDbLine
62
0
6
CONTINUOUS
10
27.7573280975
20
-29.4125099516
11
27.7574138680
21
29.7874671950
0
LINE
5
4A9
100
AcDbEntity
8
CURVE_INCISIONI
100
AcDbLine
62
0
6
CONTINUOUS
10
25.1828080512
20
-19.8230089556
11
25.1066175796
21
-20.3258662783
0
LINE
5
4AA
100
AcDbEntity
8
CURVE_INCISIONI
100
AcDbLine
62
0
6
CONTINUOUS
10
25.1828080512
20
-21.0801520525
11
25.1066175796
21
-21.5830089556
0
LINE
5
4AB
100
AcDbEntity
8
CURVE_INCISIONI
100
AcDbLine
62
0
6
CONTINUOUS
10
22.7161414005
20
-21.2896754824
11
22.6018556811
21
-21.5411043535
0
LINE
5
4AC
100
AcDbEntity
8
CURVE_INCISIONI
100
AcDbLine
62
0
6
CONTINUOUS
10
22.7161414005
20
-22.5468185793
11
22.6018556811
21
-22.7982470308
0
LINE
5
4AD
100
AcDbEntity
8
CURVE_INCISIONI
100
AcDbLine
62
0
6
CONTINUOUS
10
21.5732842304
20
-19.7811043535
11
21.8018556453
21
-19.5296754824
0
LINE
5
4AE
100
AcDbEntity
8
CURVE_INCISIONI
100
AcDbLine
62
0
6
CONTINUOUS
10
22.7161414005
20
-20.0325328050
11
22.4875699617
21
-20.2839612566
0
LINE
5
4AF
100
AcDbEntity
8
CURVE_INCISIONI
100
AcDbLine
62
0
6
CONTINUOUS
10
21.8018556453
20
-22.0439614664
11
21.5732842304
21
-22.1696756922
0
LINE
5
4B0
100
AcDbEntity
8
0
100
AcDbLine
62
0
6
CONTINUOUS
10
-29.6331397778
20
29.9055375814
11
-24.1685427449
21
30.0963655147
0
LINE
5
4B1
100
AcDbEntity
8
0
100
AcDbLine
62
0
6
CONTINUOUS
10
32.9667056171
20
31.0844780210
11
30.2161414005
21
31.0364667440
0
LINE
5
4B2
100
AcDbEntity
8
0
100
AcDbLine
62
0
6
CONTINUOUS
10
32.6131522265
20
31.5844018685
11
29.5177608225
21
31.5303716106
0
LINE
5
4B3
100
AcDbEntity
8
0
100
AcDbLine
62
0
6
CONTINUOUS
10
7.4552961354
20
28.1960424110
11
7.0050486732
21
28.1960424110
0
LINE
5
4B4
100
AcDbEntity
8
0
100
AcDbLine
62
0
6
CONTINUOUS
10
7.3121442576
20
28.5834700521
11
10.1201385434
21
28.5834700521
0
LINE
5
4B5
100
AcDbEntity
8
0
100
AcDbLine
62
0
6
CONTINUOUS
10
21.3121442576
20
28.5834700521
11
24.1201385434
21
28.5834700521
0
LINE
5
4B6
100
AcDbEntity
8
0
100
AcDbLine
62
0
6
CONTINUOUS
10
7.0050486732
20
29.0838990954
11
7.2161414005
21
29.0838990954
0
LINE
5
4B7
100
AcDbEntity
8
0
100
AcDbLine
62
0
6
CONTINUOUS
10
10.2161414005
20
29.0838990954
11
10.4272341277
21
29.0838990954
0
LINE
5
4B8
100
AcDbEntity
8
0
100
AcDbLine
62
0
6
CONTINUOUS
10
21.0050486732
20
29.0838990954
11
21.2161414005
21
29.0838990954
0
LINE
5
4B9
100
AcDbEntity
8
0
100
AcDbLine
62
0
6
CONTINUOUS
10
24.2161414005
20
29.0838990954
11
24.4272341277
21
29.0838990954
0
LINE
5
4BA
100
AcDbEntity
8
0
100
AcDbLine
62
0
6
CONTINUOUS
10
24.1201385434
20
29.4874671950
11
21.3121442576
21
29.4874671950
0
LINE
5
4BB
100
AcDbEntity
8
0
100
AcDbLine
62
0
6
CONTINUOUS
10
10.1201385434
20
29.4874671950
11
7.3121442576
21
29.4874671950
0
LINE
5
4BC
100
AcDbEntity
8
0
100
AcDbLine
62
0
6
CONTINUOUS
10
10.3661414005
20
29.5652445017
11
10.1463211407
21
29.5652445017
0
LINE
5
4BD
100
AcDbEntity
8
0
100
AcDbLine
62
0
6
CONTINUOUS
10
7.2859616602
20
29.5652445017
11
7.0661414005
21
29.5652445017
0
LINE
5
4BE
100
AcDbEntity
8
0
100
AcDbLine
62
0
6
CONTINUOUS
10
21.0661414005
20
29.5652445017
11
21.2859616602
21
29.5652445017
0
LINE
5
4BF
100
AcDbEntity
8
0
100
AcDbLine
62
0
6
CONTINUOUS
10
24.1463211407
20
29.5652445017
11
24.3661414005
21
29.5652445017
0
LINE
5
4C0
100
AcDbEntity
8
0
100
AcDbLine
62
0
6
CONTINUOUS
10
27.7661414005
20
29.7874671950
11
27.7574138680
21
29.7874671950
0
LINE
5
4C1
100
AcDbEntity
8
0
100
AcDbLine
62
0
6
CONTINUOUS
10
4.4661414005
20
29.7874671950
11
4.4574138680
21
29.7874671950
0
LINE
5
4C2
100
AcDbEntity
8
0
100
AcDbLine
62
0
6
CONTINUOUS
10
3.6661414005
20
29.7874671950
11
3.6748689329
21
29.7874671950
0
LINE
5
4C3
100
AcDbEntity
8
0
100
AcDbLine
62
0
6
CONTINUOUS
10
26.9661414005
20
29.7874671950
11
26.9748689329
21
29.7874671950
0
LINE
5
4C4
100
AcDbEntity
8
0
100
AcDbLine
62
0
6
CONTINUOUS
10
-28.7187952766
20
29.8327048865
11
-9.7187952766
21
29.8327048865
0
LINE
5
4C5
100
AcDbEntity
8
0
100
AcDbLine
62
0
6
CONTINUOUS
10
24.3661414005
20
30.1874671950
11
24.1463211407
21
30.1874671950
0
LINE
5
4C6
100
AcDbEntity
8
0
100
AcDbLine
62
0
6
CONTINUOUS
10
24.1323570888
20
30.1874671950
11
21.2999257121
21
30.1874671950
0
LINE
5
4C7
100
AcDbEntity
8
0
100
AcDbLine
62
0
6
CONTINUOUS
10
21.2894526732
20
30.1874671950
11
21.0661414005
21
30.1874671950
0
LINE
5
4C8
100
AcDbEntity
8
0
100
AcDbLine
62
0
6
CONTINUOUS
10
10.3661414005
20
30.1874671950
11
10.1428301278
21
30.1874671950
0
LINE
5
4C9
100
AcDbEntity
8
0
100
AcDbLine
62
0
6
CONTINUOUS
10
10.1323570888
20
30.1874671950
11
7.2999257121
21
30.1874671950
0
LINE
5
4CA
100
AcDbEntity
8
0
100
AcDbLine
62
0
6
CONTINUOUS
10
7.2894526732
20
30.1874671950
11
7.0661414005
21
30.1874671950
0
LINE
5
4CB
100
AcDbEntity
8
0
100
AcDbLine
62
0
6
CONTINUOUS
10
6.9788660758
20
30.2747425196
11
10.4534167251
21
30.2747425196
0
LINE
5
4CC
100
AcDbEntity
8
0
100
AcDbLine
62
0
6
CONTINUOUS
10
20.9788660758
20
30.2747425196
11
24.4534167251
21
30.2747425196
0
LINE
5
4CD
100
AcDbEntity
8
0
100
AcDbLine
62
0
6
CONTINUOUS
10
33.1130760740
20
31.0844780210
11
32.9667056171
21
31.0844780210
0
LINE
5
4CE
100
AcDbEntity
8
0
100
AcDbLine
62
0
6
CONTINUOUS
10
-1.6807932731
20
31.0844780210
11
-1.5344228161
21
31.0844780210
0
LINE
5
4CF
100
AcDbEntity
8
0
100
AcDbLine
62
0
6
CONTINUOUS
10
-1.5344228161
20
31.0844780210
11
1.2161414005
21
31.0364667440
0
LINE
5
4D0
100
AcDbEntity
8
0
100
AcDbLine
62
0
6
CONTINUOUS
10
-14.2690478083
20
30.0963655147
11
-8.8044507754
21
29.9055375814
0
LINE
5
4D1
100
AcDbEntity
8
0
100
AcDbLine
62
0
6
CONTINUOUS
10
21.2683489278
20
29.5307172442
11
21.2859616602
21
29.4778360778
0
LINE
5
4D2
100
AcDbEntity
8
0
100
AcDbLine
62
0
6
CONTINUOUS
10
32.9666444915
20
-1.6201988927
11
33.0395902913
21
-30.8316334270
0
LINE
5
4D3
100
AcDbEntity
8
0
100
AcDbLine
62
0
6
CONTINUOUS
10
33.1130760740
20
-1.5954717569
11
33.1859607483
21
-30.7824283053
0
LINE
5
4D4
100
AcDbEntity
8
0
100
AcDbLine
62
0
6
CONTINUOUS
10
32.9667056171
20
31.0844780210
11
32.9667056171
21
-1.6201946183
0
LINE
5
4D5
100
AcDbEntity
8
0
100
AcDbLine
62
0
6
CONTINUOUS
10
33.1130760740
20
31.0844780210
11
33.1130760740
21
-1.5954717569
0
LINE
5
4D6
100
AcDbEntity
8
0
100
AcDbLine
62
0
6
CONTINUOUS
10
33.2161414005
20
31.1875433474
11
33.2161414005
21
-30.8126089575
0
LINE
5
4D7
100
AcDbEntity
8
0
100
AcDbLine
62
0
6
CONTINUOUS
10
24.3884475576
20
-28.1916258650
11
24.2161414005
21
-28.7089647055
0
LINE
5
4D8
100
AcDbEntity
8
CURVE_INCISIONI
100
AcDbLine
62
0
6
CONTINUOUS
10
25.7161414005
20
-22.7144376169
11
25.6018556811
21
-22.9658660684
0
LINE
5
4D9
100
AcDbEntity
8
CURVE_INCISIONI
100
AcDbLine
62
0
6
CONTINUOUS
10
25.2589985229
20
-19.6972947298
11
25.1828080512
21
-19.8230089556
0
LINE
5
4DA
100
AcDbEntity
8
CURVE_INCISIONI
100
AcDbLine
62
0
6
CONTINUOUS
10
25.1066175796
20
-20.3258662783
11
25.0304271079
21
-20.4515805040
0
LINE
5
4DB
100
AcDbEntity
8
CURVE_INCISIONI
100
AcDbLine
62
0
6
CONTINUOUS
10
25.2589985229
20
-20.9544374071
11
25.1828080512
21
-21.0801520525
0
LINE
5
4DC
100
AcDbEntity
8
CURVE_INCISIONI
100
AcDbLine
62
0
6
CONTINUOUS
10
25.1066175796
20
-21.5830089556
11
25.0304271079
21
-21.7087231813
0
LINE
5
4DD
100
AcDbEntity
8
CURVE_INCISIONI
100
AcDbLine
62
0
6
CONTINUOUS
10
24.5732842304
20
-18.6915805040
11
24.8018556453
21
-18.4401520525
0
LINE
5
4DE
100
AcDbEntity
8
CURVE_INCISIONI
100
AcDbLine
62
0
6
CONTINUOUS
10
24.5732842304
20
-19.8230089556
11
24.6875699855
21
-19.6972947298
0
LINE
5
4DF
100
AcDbEntity
8
CURVE_INCISIONI
100
AcDbLine
62
0
6
CONTINUOUS
10
25.7161414005
20
-18.9430089556
11
25.4875699617
21
-19.1944374071
0
LINE
5
4E0
100
AcDbEntity
8
CURVE_INCISIONI
100
AcDbLine
62
0
6
CONTINUOUS
10
24.5732842304
20
-21.0801520525
11
24.6875699855
21
-20.9544374071
0
LINE
5
4E1
100
AcDbEntity
8
CURVE_INCISIONI
100
AcDbLine
62
0
6
CONTINUOUS
10
25.6018556811
20
-20.4515805040
11
25.7161414005
21
-20.3258662783
0
LINE
5
4E2
100
AcDbEntity
8
CURVE_INCISIONI
100
AcDbLine
62
0
6
CONTINUOUS
10
25.6018556811
20
-21.7087231813
11
25.7161414005
21
-21.5830089556
0
LINE
5
4E3
100
AcDbEntity
8
CURVE_INCISIONI
100
AcDbLine
62
0
6
CONTINUOUS
10
22.7161414005
20
-25.0611042224
11
22.4875699617
21
-25.3125328050
0
LINE
5
4E4
100
AcDbEntity
8
CURVE_INCISIONI
100
AcDbLine
62
0
6
CONTINUOUS
10
21.5732842304
20
-23.4268185793
11
21.6875699855
21
-23.3430089556
0
LINE
5
4E5
100
AcDbEntity
8
CURVE_INCISIONI
100
AcDbLine
62
0
6
CONTINUOUS
10
24.8018556453
20
-22.2115805040
11
24.5732842304
21
-22.3372947298
0
LINE
5
4E6
100
AcDbEntity
8
0
100
AcDbLine
62
0
6
CONTINUOUS
10
-33.7187952766
20
31.3501918703
11
-24.1685427449
21
31.5168921483
0
LINE
5
4E7
100
AcDbEntity
8
0
100
AcDbLine
62
0
6
CONTINUOUS
10
29.5177608225
20
31.5303716106
11
1.9145219784
21
31.5303716106
0
LINE
5
4E8
100
AcDbEntity
8
0
100
AcDbLine
62
0
6
CONTINUOUS
10
12.7161414005
20
31.6787396625
11
18.7161414005
21
31.6787396625
0
LINE
5
4E9
100
AcDbEntity
8
0
100
AcDbLine
62
0
6
CONTINUOUS
10
-1.2839347520
20
31.6874671950
11
12.6723970687
21
31.6874671950
0
LINE
5
4EA
100
AcDbEntity
8
0
100
AcDbLine
62
0
6
CONTINUOUS
10
18.7598857322
20
31.6874671950
11
32.7162175529
21
31.6874671950
0
LINE
5
4EB
100
AcDbEntity
8
0
100
AcDbLine
62
0
6
CONTINUOUS
10
-14.2690478083
20
31.5168921483
11
-4.7187952766
21
31.3501918703
0
LINE
5
4EC
100
AcDbEntity
8
0
100
AcDbLine
62
0
6
CONTINUOUS
10
-1.1808694255
20
31.5844018685
11
1.9145219784
21
31.5303716106
0
LINE
5
4ED
100
AcDbEntity
8
0
100
AcDbLine
62
0
6
CONTINUOUS
10
12.6723970687
20
31.6874671950
11
12.7161414005
21
31.6787396625
0
LINE
5
4EE
100
AcDbEntity
8
0
100
AcDbLine
62
0
6
CONTINUOUS
10
24.4075670864
20
28.5091550231
11
24.2161414005
21
29.0838990954
0
LINE
5
4EF
100
AcDbEntity
8
0
100
AcDbLine
62
0
6
CONTINUOUS
10
24.3859664343
20
-29.2030291142
11
24.3661414005
21
-29.2426912661
0
LINE
5
4F0
100
AcDbEntity
8
CURVE_INCISIONI
100
AcDbLine
62
0
6
CONTINUOUS
10
25.7161414005
20
-23.7201518427
11
25.6018556811
21
-23.8458661733
0
LINE
5
4F1
100
AcDbEntity
8
CURVE_INCISIONI
100
AcDbLine
62
0
6
CONTINUOUS
10
25.7161414005
20
-25.0611042224
11
25.4875699617
21
-25.3125328050
0
LINE
5
4F2
100
AcDbEntity
8
0
100
AcDbLine
62
0
6
CONTINUOUS
10
21.0661414005
20
-29.8125328050
11
21.0214812196
21
-29.8571929859
0
LINE
5
4F3
100
AcDbEntity
8
0
100
AcDbLine
62
0
6
CONTINUOUS
10
24.3906642624
20
-27.2880099431
11
24.4171691917
21
-27.2615050138
0
LINE
5
4F4
100
AcDbEntity
8
0
100
AcDbLine
62
0
6
CONTINUOUS
10
21.0661414005
20
30.1874671950
11
20.9788660758
21
30.2747425196
0
LINE
5
4F5
100
AcDbEntity
8
0
100
AcDbLine
62
0
6
CONTINUOUS
10
24.4534167251
20
27.6001918703
11
24.4272341277
21
27.6263744677
0
LINE
5
4F6
100
AcDbEntity
8
0
100
AcDbLine
62
0
6
CONTINUOUS
10
24.4272341277
20
29.4430218085
11
24.3661414005
21
29.5652445017
0
LINE
5
4F7
100
AcDbEntity
8
0
100
AcDbLine
62
0
6
CONTINUOUS
10
24.1463211407
20
-28.1823530648
11
24.3890657940
21
-27.9396084115
0
LINE
5
4F8
100
AcDbEntity
8
0
100
AcDbLine
62
0
6
CONTINUOUS
10
24.1201385434
20
28.5834700521
11
24.4075670864
21
28.2960415090
0
ARC
5
4F9
100
AcDbEntity
8
0
100
AcDbCircle
62
0
6
CONTINUOUS
10
14.7161414005
20
18.1874671950
40
0.5000000000
100
AcDbArc
50
180.0000000000
51
270.0000000000
0
ARC
5
4FA
100
AcDbEntity
8
0
100
AcDbCircle
62
0
6
CONTINUOUS
10
17.7161414005
20
18.1874671950
40
0.5000000000
100
AcDbArc
50
270.0000000000
51
360.0000000000
0
CIRCLE
5
4FB
100
AcDbEntity
8
0
100
AcDbCircle
62
0
6
CONTINUOUS
10
-19.2187952766
20
8.1874671950
40
1.8778145455
0
CIRCLE
5
4FC
100
AcDbEntity
8
0
100
AcDbCircle
62
0
6
CONTINUOUS
10
-19.2187952766
20
-7.8125328050
40
1.8778145455
0
ARC
5
4FD
100
AcDbEntity
8
0
100
AcDbCircle
62
0
6
CONTINUOUS
10
-19.2187952766
20
-24.3125328050
40
3.9738099313
100
AcDbArc
50
180.0000000000
51
360.0000000000
0
ARC
5
4FE
100
AcDbEntity
8
0
100
AcDbCircle
62
0
6
CONTINUOUS
10
-19.2187952766
20
-18.8125328050
40
3.9738099313
100
AcDbArc
50
0.0000000000
51
180.0000000000
0
ARC
5
4FF
100
AcDbEntity
8
0
100
AcDbCircle
62
0
6
CONTINUOUS
10
-19.2187952766
20
19.1874671950
40
3.9738099313
100
AcDbArc
50
180.0000000000
51
360.0000000000
0
ARC
5
500
100
AcDbEntity
8
0
100
AcDbCircle
62
0
6
CONTINUOUS
10
-19.2187952766
20
24.6874671950
40
3.9738099313
100
AcDbArc
50
0.0000000000
51
180.0000000000
0
ARC
5
501
100
AcDbEntity
8
0
100
AcDbCircle
62
0
6
CONTINUOUS
10
-19.2187952766
20
-24.3125328050
40
4.4643669261
100
AcDbArc
50
180.0000000000
51
360.0000000000
0
ARC
5
502
100
AcDbEntity
8
0
100
AcDbCircle
62
0
6
CONTINUOUS
10
-19.2187952766
20
-18.8125328050
40
4.4643669261
100
AcDbArc
50
0.0000000000
51
180.0000000000
0
ARC
5
503
100
AcDbEntity
8
0
100
AcDbCircle
62
0
6
CONTINUOUS
10
-19.2187952766
20
19.1874671950
40
4.4643669261
100
AcDbArc
50
180.0000000000
51
360.0000000000
0
ARC
5
504
100
AcDbEntity
8
0
100
AcDbCircle
62
0
6
CONTINUOUS
10
-19.2187952766
20
24.6874671950
40
4.4643669261
100
AcDbArc
50
0.0000000000
51
180.0000000000
0
ARC
5
505
100
AcDbEntity
8
0
100
AcDbCircle
62
0
6
CONTINUOUS
10
-19.2187952766
20
8.1874671950
40
3.5000000000
100
AcDbArc
50
12.3736251162
51
167.6263748838
0
ARC
5
506
100
AcDbEntity
8
0
100
AcDbCircle
62
0
6
CONTINUOUS
10
-19.2187952766
20
8.1874671950
40
3.3253961525
100
AcDbArc
50
9.9640865882
51
170.0359134118
0
ARC
5
507
100
AcDbEntity
8
0
100
AcDbCircle
62
0
6
CONTINUOUS
10
-19.2187952766
20
8.1874671950
40
3.5000000000
100
AcDbArc
50
192.3736251162
51
257.6263748838
0
ARC
5
508
100
AcDbEntity
8
0
100
AcDbCircle
62
0
6
CONTINUOUS
10
-19.2187952766
20
8.1874671950
40
3.3253961525
100
AcDbArc
50
189.9640865882
51
260.0359134118
0
ARC
5
509
100
AcDbEntity
8
0
100
AcDbCircle
62
0
6
CONTINUOUS
10
-19.2187952766
20
8.1874671950
40
3.3253961525
100
AcDbArc
50
279.9640865882
51
350.0359134118
0
ARC
5
50A
100
AcDbEntity
8
0
100
AcDbCircle
62
0
6
CONTINUOUS
10
-19.2187952766
20
8.1874671950
40
3.5000000000
100
AcDbArc
50
282.3736251162
51
347.6263748838
0
ARC
5
50B
100
AcDbEntity
8
0
100
AcDbCircle
62
0
6
CONTINUOUS
10
-19.2187952766
20
-7.8125328050
40
3.3253961525
100
AcDbArc
50
189.9640865882
51
350.0359134118
0
ARC
5
50C
100
AcDbEntity
8
0
100
AcDbCircle
62
0
6
CONTINUOUS
10
-19.2187952766
20
-7.8125328050
40
3.5000000000
100
AcDbArc
50
192.3736251162
51
347.6263748838
0
ARC
5
50D
100
AcDbEntity
8
0
100
AcDbCircle
62
0
6
CONTINUOUS
10
-19.2187952766
20
-7.8125328050
40
3.3253961525
100
AcDbArc
50
99.9640865882
51
170.0359134118
0
ARC
5
50E
100
AcDbEntity
8
0
100
AcDbCircle
62
0
6
CONTINUOUS
10
-19.2187952766
20
-7.8125328050
40
3.5000000000
100
AcDbArc
50
102.3736251162
51
167.6263748838
0
ARC
5
50F
100
AcDbEntity
8
0
100
AcDbCircle
62
0
6
CONTINUOUS
10
-19.2187952766
20
-7.8125328050
40
3.5000000000
100
AcDbArc
50
12.3736251162
51
77.6263748838
0
ARC
5
510
100
AcDbEntity
8
0
100
AcDbCircle
62
0
6
CONTINUOUS
10
-19.2187952766
20
-7.8125328050
40
3.3253961525
100
AcDbArc
50
9.9640865882
51
80.0359134118
0
CIRCLE
5
511
100
AcDbEntity
8
0
100
AcDbCircle
62
0
6
CONTINUOUS
10
15.7161414005
20
8.1874671950
40
2.0000000000
0
CIRCLE
5
512
100
AcDbEntity
8
0
100
AcDbCircle
62
0
6
CONTINUOUS
10
15.7161414005
20
-7.8125328050
40
2.0000000000
0
ARC
5
513
100
AcDbEntity
8
0
100
AcDbCircle
62
0
6
CONTINUOUS
10
15.7161414005
20
25.1874671950
40
3.5000000000
100
AcDbArc
50
0.0000000000
51
180.0000000000
0
ARC
5
514
100
AcDbEntity
8
0
100
AcDbCircle
62
0
6
CONTINUOUS
10
15.7161414005
20
18.6874671950
40
3.5000000000
100
AcDbArc
50
180.0000000000
51
360.0000000000
0
ARC
5
515
100
AcDbEntity
8
0
100
AcDbCircle
62
0
6
CONTINUOUS
10
15.7161414005
20
-0.8125328050
40
1.5000000000
100
AcDbArc
50
81.8688068092
51
98.1311931908
0
ARC
5
516
100
AcDbEntity
8
0
100
AcDbCircle
62
0
6
CONTINUOUS
10
15.7161414005
20
1.8744729635
40
0.2000000000
100
AcDbArc
50
225.0000000000
51
315.0000000000
0
ARC
5
517
100
AcDbEntity
8
0
100
AcDbCircle
62
0
6
CONTINUOUS
10
21.5190851256
20
6.6874671950
40
0.5000000000
100
AcDbArc
50
315.0000000000
51
135.0000000000
0
ARC
5
518
100
AcDbEntity
8
0
100
AcDbCircle
62
0
6
CONTINUOUS
10
9.9131976753
20
6.6874671950
40
0.5000000000
100
AcDbArc
50
45.0000000000
51
225.0000000000
0
ARC
5
519
100
AcDbEntity
8
0
100
AcDbCircle
62
0
6
CONTINUOUS
10
26.0445685252
20
6.6874671950
40
0.5000000000
100
AcDbArc
50
315.0000000000
51
135.0000000000
0
ARC
5
51A
100
AcDbEntity
8
0
100
AcDbCircle
62
0
6
CONTINUOUS
10
5.3877142757
20
6.6874671950
40
0.5000000000
100
AcDbArc
50
45.0000000000
51
225.0000000000
0
ARC
5
51B
100
AcDbEntity
8
0
100
AcDbCircle
62
0
6
CONTINUOUS
10
27.3661414005
20
29.7874671950
40
0.4000000000
100
AcDbArc
50
0.0000000000
51
180.0000000000
0
ARC
5
51C
100
AcDbEntity
8
0
100
AcDbCircle
62
0
6
CONTINUOUS
10
4.0661414005
20
29.7874671950
40
0.4000000000
100
AcDbArc
50
0.0000000000
51
180.0000000000
0
ARC
5
51D
100
AcDbEntity
8
0
100
AcDbCircle
62
0
6
CONTINUOUS
10
15.7161414005
20
-0.8125328050
40
1.4807994286
100
AcDbArc
50
313.3431983379
51
351.3230028789
0
ARC
5
51E
100
AcDbEntity
8
0
100
AcDbCircle
62
0
6
CONTINUOUS
10
15.7161414005
20
-0.8125328050
40
1.3807994286
100
AcDbArc
50
12.5000000000
51
167.5000000000
0
ARC
5
51F
100
AcDbEntity
8
0
100
AcDbCircle
62
0
6
CONTINUOUS
10
15.7161414005
20
-0.8125328050
40
1.4807994286
100
AcDbArc
50
188.6769971211
51
226.6568016621
0
ARC
5
520
100
AcDbEntity
8
0
100
AcDbCircle
62
0
6
CONTINUOUS
10
27.3661414005
20
29.7874671950
40
0.3912724675
100
AcDbArc
50
0.0000000000
51
180.0000000000
0
ARC
5
521
100
AcDbEntity
8
0
100
AcDbCircle
62
0
6
CONTINUOUS
10
4.0661414005
20
29.7874671950
40
0.3912724675
100
AcDbArc
50
0.0000000000
51
180.0000000000
0
SPLINE
5
522
100
AcDbEntity
8
0
100
AcDbSpline
62
0
6
CONTINUOUS
70
0
71
3
72
12
73
8
74
6
42
0.0000001000
43
0.0000001000
44
0.0000000001
12
0.5457650276
22
-0.5457650276
32
0.0000000000
13
0.5457650276
23
0.5457650276
33
0.0000000000
40
0.0000000000
40
0.0000000000
40
0.0000000000
40
0.0000000000
40
0.0968794388
40
0.3461926083
40
0.6538072962
40
0.9031205347
40
1.0000000000
40
1.0000000000
40
1.0000000000
40
1.0000000000
10
-27.2046798446
20
2.1733517629
30
0.0000000000
10
-27.1870553747
20
2.1557272931
30
0.0000000000
10
-27.0816580817
20
2.1906449455
30
0.0000000000
10
-26.9275906316
20
2.1629898972
30
0.0000000000
10
-26.7099999773
20
2.1629898979
30
0.0000000000
10
-26.5559325055
20
2.1906449510
30
0.0000000000
10
-26.4505351833
20
2.1557272882
30
0.0000000000
10
-26.4329107086
20
2.1733517629
30
0.0000000000
11
-27.2046798446
21
2.1733517629
31
0.0000000000
11
-27.1299313174
21
2.1713889657
31
0.0000000000
11
-26.9375081749
21
2.1701767684
31
0.0000000000
11
-26.7000824521
21
2.1701767682
31
0.0000000000
11
-26.5076592562
21
2.1713889654
31
0.0000000000
11
-26.4329107086
21
2.1733517629
31
0.0000000000
0
SPLINE
5
523
100
AcDbEntity
8
0
100
AcDbSpline
62
0
6
CONTINUOUS
70
0
71
3
72
10
73
6
74
4
42
0.0000001000
43
0.0000001000
44
0.0000000001
12
-0.3859166553
22
0.0000000000
32
0.0000000000
13
-0.2728842839
23
0.2728842839
33
0.0000000000
40
0.0000000000
40
0.0000000000
40
0.0000000000
40
0.0000000000
40
0.4948082963
40
0.8598476199
40
1.0000000000
40
1.0000000000
40
1.0000000000
40
1.0000000000
10
-26.8187952766
20
1.6700134594
30
0.0000000000
10
-26.8824468642
20
1.6700134594
30
0.0000000000
10
-26.9965493862
20
1.6625306597
30
0.0000000000
10
-27.1151311428
20
1.6856229071
30
0.0000000000
10
-27.1919313840
20
1.6606033023
30
0.0000000000
10
-27.2046798446
20
1.6733517629
30
0.0000000000
11
-26.8187952766
21
1.6700134594
31
0.0000000000
11
-27.0097495296
21
1.6704546600
31
0.0000000000
11
-27.1506191115
21
1.6716619099
31
0.0000000000
11
-27.2046798446
21
1.6733517629
31
0.0000000000
0
SPLINE
5
524
100
AcDbEntity
8
0
100
AcDbSpline
62
0
6
CONTINUOUS
70
0
71
3
72
10
73
6
74
4
42
0.0000001000
43
0.0000001000
44
0.0000000001
12
-0.2728842839
22
-0.2728842839
32
0.0000000000
13
-0.3859166553
23
-0.0000000000
33
0.0000000000
40
0.0000000000
40
0.0000000000
40
0.0000000000
40
0.0000000000
40
0.1401523851
40
0.5051917357
40
1.0000000000
40
1.0000000000
40
1.0000000000
40
1.0000000000
10
-26.4329107086
20
1.6733517629
30
0.0000000000
10
-26.4456591697
20
1.6606033018
30
0.0000000000
10
-26.5224594157
20
1.6856229081
30
0.0000000000
10
-26.6410411720
20
1.6625306601
30
0.0000000000
10
-26.7551436932
20
1.6700134594
30
0.0000000000
10
-26.8187952766
20
1.6700134594
30
0.0000000000
11
-26.4329107086
21
1.6733517629
31
0.0000000000
11
-26.4869714437
21
1.6716619099
31
0.0000000000
11
-26.6278410360
21
1.6704546599
31
0.0000000000
11
-26.8187952766
21
1.6700134594
31
0.0000000000
0
SPLINE
5
525
100
AcDbEntity
8
0
100
AcDbSpline
62
0
6
CONTINUOUS
70
0
71
3
72
12
73
8
74
6
42
0.0000001000
43
0.0000001000
44
0.0000000001
12
-0.5457650276
22
0.5457650276
32
0.0000000000
13
-0.5457650276
23
-0.5457650276
33
0.0000000000
40
0.0000000000
40
0.0000000000
40
0.0000000000
40
0.0000000000
40
0.0968794653
40
0.3461927038
40
0.6538073917
40
0.9031205612
40
1.0000000000
40
1.0000000000
40
1.0000000000
40
1.0000000000
10
-26.4329107086
20
-1.7984173730
30
0.0000000000
10
-26.4505351833
20
-1.7807928983
30
0.0000000000
10
-26.5559325055
20
-1.8157105611
30
0.0000000000
10
-26.7099999773
20
-1.7880555080
30
0.0000000000
10
-26.9275906316
20
-1.7880555073
30
0.0000000000
10
-27.0816580817
20
-1.8157105556
30
0.0000000000
10
-27.1870553747
20
-1.7807929032
30
0.0000000000
10
-27.2046798446
20
-1.7984173730
30
0.0000000000
11
-26.4329107086
21
-1.7984173730
31
0.0000000000
11
-26.5076592562
21
-1.7964545755
31
0.0000000000
11
-26.7000824521
21
-1.7952423783
31
0.0000000000
11
-26.9375081749
21
-1.7952423785
31
0.0000000000
11
-27.1299313174
21
-1.7964545758
31
0.0000000000
11
-27.2046798446
21
-1.7984173730
31
0.0000000000
0
SPLINE
5
526
100
AcDbEntity
8
0
100
AcDbSpline
62
0
6
CONTINUOUS
70
0
71
3
72
10
73
6
74
4
42
0.0000001000
43
0.0000001000
44
0.0000000001
12
-0.3859166553
22
0.0000000000
32
0.0000000000
13
-0.2728842839
23
0.2728842839
33
0.0000000000
40
0.0000000000
40
0.0000000000
40
0.0000000000
40
0.0000000000
40
0.4948082963
40
0.8598476199
40
1.0000000000
40
1.0000000000
40
1.0000000000
40
1.0000000000
10
-11.6187952766
20
1.6700134594
30
0.0000000000
10
-11.6824468642
20
1.6700134594
30
0.0000000000
10
-11.7965493862
20
1.6625306597
30
0.0000000000
10
-11.9151311428
20
1.6856229071
30
0.0000000000
10
-11.9919313840
20
1.6606033023
30
0.0000000000
10
-12.0046798446
20
1.6733517629
30
0.0000000000
11
-11.6187952766
21
1.6700134594
31
0.0000000000
11
-11.8097495296
21
1.6704546600
31
0.0000000000
11
-11.9506191115
21
1.6716619099
31
0.0000000000
11
-12.0046798446
21
1.6733517629
31
0.0000000000
0
SPLINE
5
527
100
AcDbEntity
8
0
100
AcDbSpline
62
0
6
CONTINUOUS
70
0
71
3
72
10
73
6
74
4
42
0.0000001000
43
0.0000001000
44
0.0000000001
12
-0.2728842839
22
-0.2728842839
32
0.0000000000
13
-0.3859166553
23
0.0000000000
33
0.0000000000
40
0.0000000000
40
0.0000000000
40
0.0000000000
40
0.0000000000
40
0.1401523851
40
0.5051917357
40
1.0000000000
40
1.0000000000
40
1.0000000000
40
1.0000000000
10
-11.2329107086
20
1.6733517629
30
0.0000000000
10
-11.2456591697
20
1.6606033018
30
0.0000000000
10
-11.3224594157
20
1.6856229081
30
0.0000000000
10
-11.4410411720
20
1.6625306601
30
0.0000000000
10
-11.5551436932
20
1.6700134594
30
0.0000000000
10
-11.6187952766
20
1.6700134594
30
0.0000000000
11
-11.2329107086
21
1.6733517629
31
0.0000000000
11
-11.2869714437
21
1.6716619099
31
0.0000000000
11
-11.4278410360
21
1.6704546599
31
0.0000000000
11
-11.6187952766
21
1.6700134594
31
0.0000000000
0
SPLINE
5
528
100
AcDbEntity
8
0
100
AcDbSpline
62
0
6
CONTINUOUS
70
0
71
3
72
10
73
6
74
4
42
0.0000001000
43
0.0000001000
44
0.0000000001
12
0.3859166553
22
0.0000000000
32
0.0000000000
13
0.2728842839
23
-0.2728842839
33
0.0000000000
40
0.0000000000
40
0.0000000000
40
0.0000000000
40
0.0000000000
40
0.4948082643
40
0.8598476149
40
1.0000000000
40
1.0000000000
40
1.0000000000
40
1.0000000000
10
-11.6187952766
20
-1.2950790695
30
0.0000000000
10
-11.5551436932
20
-1.2950790695
30
0.0000000000
10
-11.4410411720
20
-1.2875962702
30
0.0000000000
10
-11.3224594157
20
-1.3106885182
30
0.0000000000
10
-11.2456591697
20
-1.2856689119
30
0.0000000000
10
-11.2329107086
20
-1.2984173730
30
0.0000000000
11
-11.6187952766
21
-1.2950790695
31
0.0000000000
11
-11.4278410360
21
-1.2955202700
31
0.0000000000
11
-11.2869714437
21
-1.2967275200
31
0.0000000000
11
-11.2329107086
21
-1.2984173730
31
0.0000000000
0
SPLINE
5
529
100
AcDbEntity
8
0
100
AcDbSpline
62
0
6
CONTINUOUS
70
0
71
3
72
10
73
6
74
4
42
0.0000001000
43
0.0000001000
44
0.0000000001
12
0.2728842839
22
0.2728842839
32
0.0000000000
13
0.3859166553
23
0.0000000000
33
0.0000000000
40
0.0000000000
40
0.0000000000
40
0.0000000000
40
0.0000000000
40
0.1401523801
40
0.5051917037
40
1.0000000000
40
1.0000000000
40
1.0000000000
40
1.0000000000
10
-12.0046798446
20
-1.2984173730
30
0.0000000000
10
-11.9919313840
20
-1.2856689124
30
0.0000000000
10
-11.9151311428
20
-1.3106885172
30
0.0000000000
10
-11.7965493862
20
-1.2875962698
30
0.0000000000
10
-11.6824468642
20
-1.2950790695
30
0.0000000000
10
-11.6187952766
20
-1.2950790695
30
0.0000000000
11
-12.0046798446
21
-1.2984173730
31
0.0000000000
11
-11.9506191115
21
-1.2967275200
31
0.0000000000
11
-11.8097495296
21
-1.2955202701
31
0.0000000000
11
-11.6187952766
21
-1.2950790695
31
0.0000000000
0
SPLINE
5
52A
100
AcDbEntity
8
0
100
AcDbSpline
62
0
6
CONTINUOUS
70
0
71
3
72
10
73
6
74
4
42
0.0000001000
43
0.0000001000
44
0.0000000001
12
0.2728842839
22
0.2728842839
32
0.0000000000
13
0.3859166553
23
0.0000000000
33
0.0000000000
40
0.0000000000
40
0.0000000000
40
0.0000000000
40
0.0000000000
40
0.1401523801
40
0.5051917037
40
1.0000000000
40
1.0000000000
40
1.0000000000
40
1.0000000000
10
-27.2046798446
20
-1.2984173730
30
0.0000000000
10
-27.1919313840
20
-1.2856689124
30
0.0000000000
10
-27.1151311428
20
-1.3106885172
30
0.0000000000
10
-26.9965493862
20
-1.2875962698
30
0.0000000000
10
-26.8824468642
20
-1.2950790695
30
0.0000000000
10
-26.8187952766
20
-1.2950790695
30
0.0000000000
11
-27.2046798446
21
-1.2984173730
31
0.0000000000
11
-27.1506191115
21
-1.2967275200
31
0.0000000000
11
-27.0097495296
21
-1.2955202701
31
0.0000000000
11
-26.8187952766
21
-1.2950790695
31
0.0000000000
0
SPLINE
5
52B
100
AcDbEntity
8
0
100
AcDbSpline
62
0
6
CONTINUOUS
70
0
71
3
72
12
73
8
74
6
42
0.0000001000
43
0.0000001000
44
0.0000000001
12
-0.5457650276
22
0.5457650276
32
0.0000000000
13
-0.5457650276
23
-0.5457650276
33
0.0000000000
40
0.0000000000
40
0.0000000000
40
0.0000000000
40
0.0000000000
40
0.0968794653
40
0.3461927038
40
0.6538073917
40
0.9031205612
40
1.0000000000
40
1.0000000000
40
1.0000000000
40
1.0000000000
10
-11.2329107086
20
-1.7984173730
30
0.0000000000
10
-11.2505351833
20
-1.7807928983
30
0.0000000000
10
-11.3559325055
20
-1.8157105611
30
0.0000000000
10
-11.5099999773
20
-1.7880555080
30
0.0000000000
10
-11.7275906316
20
-1.7880555073
30
0.0000000000
10
-11.8816580817
20
-1.8157105556
30
0.0000000000
10
-11.9870553747
20
-1.7807929032
30
0.0000000000
10
-12.0046798446
20
-1.7984173730
30
0.0000000000
11
-11.2329107086
21
-1.7984173730
31
0.0000000000
11
-11.3076592562
21
-1.7964545755
31
0.0000000000
11
-11.5000824521
21
-1.7952423783
31
0.0000000000
11
-11.7375081749
21
-1.7952423785
31
0.0000000000
11
-11.9299313174
21
-1.7964545758
31
0.0000000000
11
-12.0046798446
21
-1.7984173730
31
0.0000000000
0
SPLINE
5
52C
100
AcDbEntity
8
0
100
AcDbSpline
62
0
6
CONTINUOUS
70
0
71
3
72
12
73
8
74
6
42
0.0000001000
43
0.0000001000
44
0.0000000001
12
0.5457650276
22
-0.5457650276
32
0.0000000000
13
0.5457650276
23
0.5457650276
33
0.0000000000
40
0.0000000000
40
0.0000000000
40
0.0000000000
40
0.0000000000
40
0.0968794388
40
0.3461926083
40
0.6538072962
40
0.9031205347
40
1.0000000000
40
1.0000000000
40
1.0000000000
40
1.0000000000
10
-12.0046798446
20
2.1733517629
30
0.0000000000
10
-11.9870553747
20
2.1557272931
30
0.0000000000
10
-11.8816580817
20
2.1906449455
30
0.0000000000
10
-11.7275906316
20
2.1629898972
30
0.0000000000
10
-11.5099999773
20
2.1629898979
30
0.0000000000
10
-11.3559325055
20
2.1906449510
30
0.0000000000
10
-11.2505351833
20
2.1557272882
30
0.0000000000
10
-11.2329107086
20
2.1733517629
30
0.0000000000
11
-12.0046798446
21
2.1733517629
31
0.0000000000
11
-11.9299313174
21
2.1713889657
31
0.0000000000
11
-11.7375081749
21
2.1701767684
31
0.0000000000
11
-11.5000824521
21
2.1701767682
31
0.0000000000
11
-11.3076592562
21
2.1713889654
31
0.0000000000
11
-11.2329107086
21
2.1733517629
31
0.0000000000
0
SPLINE
5
52D
100
AcDbEntity
8
0
100
AcDbSpline
62
0
6
CONTINUOUS
70
0
71
3
72
9
73
5
74
3
42
0.0000001000
43
0.0000001000
44
0.0000000001
12
2.9726120683
22
-0.0049263060
32
0.0000000000
13
2.9709911426
23
-0.0984893145
33
0.0000000000
40
0.0000000000
40
0.0000000000
40
0.0000000000
40
0.0000000000
40
0.7714550163
40
1.0000000000
40
1.0000000000
40
1.0000000000
40
1.0000000000
10
7.4552961354
20
28.1960424110
30
0.0000000000
10
8.2197082993
20
28.1947756032
30
0.0000000000
10
9.2105167855
20
28.1736396237
30
0.0000000000
10
10.2009072577
20
28.1423107293
30
0.0000000000
10
10.4272422984
20
28.1348076497
30
0.0000000000
11
7.4552961354
21
28.1960424110
31
0.0000000000
11
9.7481878749
21
28.1560984480
31
0.0000000000
11
10.4272422984
21
28.1348076497
31
0.0000000000
0
SPLINE
5
52E
100
AcDbEntity
8
0
100
AcDbSpline
62
0
6
CONTINUOUS
70
0
71
3
72
9
73
5
74
3
42
0.0000001000
43
0.0000001000
44
0.0000000001
12
2.0311274045
22
-0.0537569256
32
0.0000000000
13
2.0318076068
23
0.0000000000
33
0.0000000000
40
0.0000000000
40
0.0000000000
40
0.0000000000
40
0.0000000000
40
0.0903652233
40
1.0000000000
40
1.0000000000
40
1.0000000000
40
1.0000000000
10
13.6845515399
20
28.0252340812
30
0.0000000000
10
13.7457326338
20
28.0236148290
30
0.0000000000
10
14.4227933860
20
28.0062876601
30
0.0000000000
10
15.1000737809
20
27.9961185634
30
0.0000000000
10
15.7161414005
20
27.9961185634
30
0.0000000000
11
13.6845515399
21
28.0252340812
31
0.0000000000
11
13.8680999195
21
28.0205417340
31
0.0000000000
11
15.7161414005
21
27.9961185634
31
0.0000000000
0
SPLINE
5
52F
100
AcDbEntity
8
0
100
AcDbSpline
62
0
6
CONTINUOUS
70
0
71
3
72
10
73
6
74
4
42
0.0000001000
43
0.0000001000
44
0.0000000001
12
3.3876000281
22
-0.0059095073
32
0.0000000000
13
3.3876032750
23
-0.0035949497
33
0.0000000000
40
0.0000000000
40
0.0000000000
40
0.0000000000
40
0.0000000000
40
0.3329770308
40
0.6663290255
40
1.0000000000
40
1.0000000000
40
1.0000000000
40
1.0000000000
10
7.0247157145
20
28.2960415090
30
0.0000000000
10
7.4007133808
20
28.2953855989
30
0.0000000000
10
8.1531322756
20
28.2941590603
30
0.0000000000
10
9.2823329019
20
28.2925757203
30
0.0000000000
10
10.0355358791
20
28.2916909311
30
0.0000000000
10
10.4123175077
20
28.2912910877
30
0.0000000000
11
7.0247157145
21
28.2960415090
31
0.0000000000
11
8.1527089307
21
28.2942025806
31
0.0000000000
11
9.2819727653
21
28.2926190182
31
0.0000000000
11
10.4123175077
21
28.2912910877
31
0.0000000000
0
SPLINE
5
530
100
AcDbEntity
8
0
100
AcDbSpline
62
0
6
CONTINUOUS
70
0
71
3
72
8
73
4
74
2
42
0.0000001000
43
0.0000001000
44
0.0000000001
12
2.2775990886
22
-0.0015555978
32
0.0000000000
13
2.2775990886
23
0.0015555978
33
0.0000000000
40
0.0000000000
40
0.0000000000
40
0.0000000000
40
0.0000000000
40
1.0000000000
40
1.0000000000
40
1.0000000000
40
1.0000000000
10
14.5773416972
20
28.4868392161
30
0.0000000000
10
15.3365413934
20
28.4863206835
30
0.0000000000
10
16.0957414075
20
28.4863206835
30
0.0000000000
10
16.8549411037
20
28.4868392161
30
0.0000000000
11
14.5773416972
21
28.4868392161
31
0.0000000000
11
16.8549411037
21
28.4868392161
31
0.0000000000
0
SPLINE
5
531
100
AcDbEntity
8
0
100
AcDbSpline
62
0
6
CONTINUOUS
70
0
71
3
72
10
73
6
74
4
42
0.0000001000
43
0.0000001000
44
0.0000000001
12
3.3876032750
22
0.0035949497
32
0.0000000000
13
3.3876000281
23
0.0059095073
33
0.0000000000
40
0.0000000000
40
0.0000000000
40
0.0000000000
40
0.0000000000
40
0.3336709745
40
0.6670229692
40
1.0000000000
40
1.0000000000
40
1.0000000000
40
1.0000000000
10
21.0199652932
20
28.2912910877
30
0.0000000000
10
21.3967469218
20
28.2916909311
30
0.0000000000
10
22.1499498991
20
28.2925757203
30
0.0000000000
10
23.2791505253
20
28.2941590603
30
0.0000000000
10
24.0315694201
20
28.2953855989
30
0.0000000000
10
24.4075670864
20
28.2960415090
30
0.0000000000
11
21.0199652932
21
28.2912910877
31
0.0000000000
11
22.1503100356
21
28.2926190182
31
0.0000000000
11
23.2795738702
21
28.2942025806
31
0.0000000000
11
24.4075670864
21
28.2960415090
31
0.0000000000
0
SPLINE
5
532
100
AcDbEntity
8
0
100
AcDbSpline
62
0
6
CONTINUOUS
70
0
71
3
72
10
73
6
74
4
42
0.0000001000
43
0.0000001000
44
0.0000000001
12
3.3876032750
22
-0.0035949497
32
0.0000000000
13
3.3876000281
23
-0.0059095073
33
0.0000000000
40
0.0000000000
40
0.0000000000
40
0.0000000000
40
0.0000000000
40
0.3336709745
40
0.6670229692
40
1.0000000000
40
1.0000000000
40
1.0000000000
40
1.0000000000
10
21.0199652932
20
-27.9163566978
30
0.0000000000
10
21.3967469218
20
-27.9167565412
30
0.0000000000
10
22.1499498991
20
-27.9176413304
30
0.0000000000
10
23.2791505253
20
-27.9192246704
30
0.0000000000
10
24.0315694201
20
-27.9204512090
30
0.0000000000
10
24.4075670864
20
-27.9211071191
30
0.0000000000
11
21.0199652932
21
-27.9163566978
31
0.0000000000
11
22.1503100356
21
-27.9176846283
31
0.0000000000
11
23.2795738702
21
-27.9192681907
31
0.0000000000
11
24.4075670864
21
-27.9211071191
31
0.0000000000
0
SPLINE
5
533
100
AcDbEntity
8
0
100
AcDbSpline
62
0
6
CONTINUOUS
70
0
71
3
72
10
73
6
74
4
42
0.0000001000
43
0.0000001000
44
0.0000000001
12
3.3876000281
22
0.0059095073
32
0.0000000000
13
3.3876032750
23
0.0035949497
33
0.0000000000
40
0.0000000000
40
0.0000000000
40
0.0000000000
40
0.0000000000
40
0.3329770308
40
0.6663290255
40
1.0000000000
40
1.0000000000
40
1.0000000000
40
1.0000000000
10
7.0247157145
20
-27.9211071191
30
0.0000000000
10
7.4007133808
20
-27.9204512090
30
0.0000000000
10
8.1531322756
20
-27.9192246704
30
0.0000000000
10
9.2823329019
20
-27.9176413304
30
0.0000000000
10
10.0355358791
20
-27.9167565412
30
0.0000000000
10
10.4123175077
20
-27.9163566978
30
0.0000000000
11
7.0247157145
21
-27.9211071191
31
0.0000000000
11
8.1527089307
21
-27.9192681907
31
0.0000000000
11
9.2819727653
21
-27.9176846283
31
0.0000000000
11
10.4123175077
21
-27.9163566978
31
0.0000000000
0
SPLINE
5
534
100
AcDbEntity
8
0
100
AcDbSpline
62
0
6
CONTINUOUS
70
0
71
3
72
9
73
5
74
3
42
0.0000001000
43
0.0000001000
44
0.0000000001
12
0.4502474276
22
-0.0007872303
32
0.0000000000
13
0.4502474974
23
-0.0007461643
33
0.0000000000
40
0.0000000000
40
0.0000000000
40
0.0000000000
40
0.0000000000
40
0.1679912074
40
1.0000000000
40
1.0000000000
40
1.0000000000
40
1.0000000000
10
7.0050486726
20
28.1968091031
30
0.0000000000
10
7.0302612089
20
28.1967650205
30
0.0000000000
10
7.1803436868
20
28.1965037611
30
0.0000000000
10
7.3304261765
20
28.1962493494
30
0.0000000000
10
7.4552961354
20
28.1960424110
30
0.0000000000
11
7.0050486726
21
28.1968091031
31
0.0000000000
11
7.0806862826
21
28.1966774352
31
0.0000000000
11
7.4552961354
21
28.1960424110
31
0.0000000000
0
SPLINE
5
535
100
AcDbEntity
8
0
100
AcDbSpline
62
0
6
CONTINUOUS
70
0
71
3
72
12
73
8
74
6
42
0.0000001000
43
0.0000001000
44
0.0000000001
12
-9.8983390872
22
-0.1727761514
32
0.0000000000
13
-9.8983390872
23
0.1727761514
33
0.0000000000
40
0.0000000000
40
0.0000000000
40
0.0000000000
40
0.0000000000
40
0.1789941299
40
0.3893915020
40
0.6106086206
40
0.8210059165
40
1.0000000000
40
1.0000000000
40
1.0000000000
40
1.0000000000
10
-14.2690478083
20
-31.1419577584
30
0.0000000000
10
-14.8596293391
20
-31.1522663974
30
0.0000000000
10
-16.1445314537
20
-31.1673694882
30
0.0000000000
10
-18.1594866736
20
-31.1782637467
30
0.0000000000
10
-20.2781048420
20
-31.1782637436
30
0.0000000000
10
-22.2930596573
20
-31.1673694824
30
0.0000000000
10
-23.5779613673
20
-31.1522663947
30
0.0000000000
10
-24.1685427449
20
-31.1419577584
30
0.0000000000
11
-14.2690478083
21
-31.1419577584
31
0.0000000000
11
-16.0409198113
21
-31.1644281482
31
0.0000000000
11
-18.1237880830
21
-31.1762408380
31
0.0000000000
11
-20.3138036840
21
-31.1762408346
31
0.0000000000
11
-22.3966712016
21
-31.1644281441
31
0.0000000000
11
-24.1685427449
21
-31.1419577584
31
0.0000000000
0
SPLINE
5
536
100
AcDbEntity
8
0
100
AcDbSpline
62
0
6
CONTINUOUS
70
0
71
3
72
12
73
8
74
6
42
0.0000001000
43
0.0000001000
44
0.0000000001
12
9.8983390872
22
0.1727761514
32
0.0000000000
13
9.8983390872
23
-0.1727761514
33
0.0000000000
40
0.0000000000
40
0.0000000000
40
0.0000000000
40
0.0000000000
40
0.1789940835
40
0.3893913794
40
0.6106084980
40
0.8210058701
40
1.0000000000
40
1.0000000000
40
1.0000000000
40
1.0000000000
10
-24.1685427449
20
31.5168921483
30
0.0000000000
10
-23.5779613673
20
31.5272007846
30
0.0000000000
10
-22.2930596573
20
31.5423038723
30
0.0000000000
10
-20.2781048420
20
31.5531981335
30
0.0000000000
10
-18.1594866736
20
31.5531981366
30
0.0000000000
10
-16.1445314537
20
31.5423038781
30
0.0000000000
10
-14.8596293391
20
31.5272007873
30
0.0000000000
10
-14.2690478083
20
31.5168921483
30
0.0000000000
11
-24.1685427449
21
31.5168921483
31
0.0000000000
11
-22.3966712016
21
31.5393625341
31
0.0000000000
11
-20.3138036840
21
31.5511752245
31
0.0000000000
11
-18.1237880830
21
31.5511752279
31
0.0000000000
11
-16.0409198113
21
31.5393625381
31
0.0000000000
11
-14.2690478083
21
31.5168921483
31
0.0000000000
0
SPLINE
5
537
100
AcDbEntity
8
0
100
AcDbSpline
62
0
6
CONTINUOUS
70
0
71
3
72
11
73
7
74
5
42
0.0000001000
43
0.0000001000
44
0.0000000001
12
-0.7633541548
22
-0.3815607883
32
0.0000000000
13
-0.8532739132
23
0.0148939516
33
0.0000000000
40
0.0000000000
40
0.0000000000
40
0.0000000000
40
0.0000000000
40
0.1072285609
40
0.3709946559
40
0.7050196177
40
1.0000000000
40
1.0000000000
40
1.0000000000
40
1.0000000000
10
-28.7798909737
20
3.9069286537
30
0.0000000000
10
-28.8071754296
20
3.8932905823
30
0.0000000000
10
-28.9194495257
20
3.9131000261
30
0.0000000000
10
-29.1146382174
20
3.8928337706
30
0.0000000000
10
-29.3707746396
20
3.8998446555
30
0.0000000000
10
-29.5492400894
20
3.8995974683
30
0.0000000000
10
-29.6331397778
20
3.9010619428
30
0.0000000000
11
-28.7798909737
21
3.9069286537
31
0.0000000000
11
-28.8712777759
21
3.9021958863
31
0.0000000000
11
-29.0963556734
21
3.8991128538
31
0.0000000000
11
-29.3814135598
21
3.8986886119
31
0.0000000000
11
-29.6331397778
21
3.9010619428
31
0.0000000000
0
SPLINE
5
538
100
AcDbEntity
8
0
100
AcDbSpline
62
0
6
CONTINUOUS
70
0
71
3
72
11
73
7
74
5
42
0.0000001000
43
0.0000001000
44
0.0000000001
12
0.8533483335
22
0.0297995804
32
0.0000000000
13
0.6037761975
23
-0.6037761975
33
0.0000000000
40
0.0000000000
40
0.0000000000
40
0.0000000000
40
0.0000000000
40
0.2948370956
40
0.6286336259
40
0.8923575458
40
1.0000000000
40
1.0000000000
40
1.0000000000
40
1.0000000000
10
-29.6331397778
20
7.5102998899
30
0.0000000000
10
-29.5492735298
20
7.5132285638
30
0.0000000000
10
-29.3716217720
20
7.5135922369
30
0.0000000000
10
-29.1117027166
20
7.5236472948
30
0.0000000000
10
-28.9256810498
20
7.4928813207
30
0.0000000000
10
-28.8015549576
20
7.5202268759
30
0.0000000000
10
-28.7798909737
20
7.4985628920
30
0.0000000000
11
-29.6331397778
21
7.5102998899
31
0.0000000000
11
-29.3814324497
21
7.5150478611
31
0.0000000000
11
-29.0964153723
21
7.5142000768
31
0.0000000000
11
-28.8713142882
21
7.5080331153
31
0.0000000000
11
-28.7798909737
21
7.4985628920
31
0.0000000000
0
SPLINE
5
539
100
AcDbEntity
8
0
100
AcDbSpline
62
0
6
CONTINUOUS
70
0
71
3
72
11
73
7
74
5
42
0.0000001000
43
0.0000001000
44
0.0000000001
12
-0.6036155885
22
0.6036155885
32
0.0000000000
13
-0.8535113380
23
-0.0148980958
33
0.0000000000
40
0.0000000000
40
0.0000000000
40
0.0000000000
40
0.0000000000
40
0.1030915986
40
0.3664218486
40
0.7025981899
40
1.0000000000
40
1.0000000000
40
1.0000000000
40
1.0000000000
10
-27.4720067643
20
1.9906786826
30
0.0000000000
10
-27.4927493296
20
2.0114212479
30
0.0000000000
10
-27.6158157059
20
1.9755516809
30
0.0000000000
10
-27.8004723038
20
2.0092961853
30
0.0000000000
10
-28.0619424205
20
1.9967052847
30
0.0000000000
10
-28.2408720635
20
1.9981745705
30
0.0000000000
10
-28.3254840025
20
1.9966976636
30
0.0000000000
11
-27.4720067643
21
1.9906786826
31
0.0000000000
11
-27.5598794880
21
1.9954699990
31
0.0000000000
11
-27.7846470274
21
1.9986185324
31
0.0000000000
11
-28.0716206849
21
1.9990786692
31
0.0000000000
11
-28.3254840025
21
1.9966976636
31
0.0000000000
0
SPLINE
5
53A
100
AcDbEntity
8
0
100
AcDbSpline
62
0
6
CONTINUOUS
70
0
71
3
72
11
73
7
74
5
42
0.0000001000
43
0.0000001000
44
0.0000000001
12
-0.8535113380
22
0.0148980958
32
0.0000000000
13
-0.6036155885
23
-0.6036155885
33
0.0000000000
40
0.0000000000
40
0.0000000000
40
0.0000000000
40
0.0000000000
40
0.2974018101
40
0.6335781514
40
0.8969084014
40
1.0000000000
40
1.0000000000
40
1.0000000000
40
1.0000000000
10
-10.1121065508
20
1.9966976636
30
0.0000000000
10
-10.1967184897
20
1.9981745705
30
0.0000000000
10
-10.3756481327
20
1.9967052847
30
0.0000000000
10
-10.6371182494
20
2.0092961853
30
0.0000000000
10
-10.8217748474
20
1.9755516809
30
0.0000000000
10
-10.9448412236
20
2.0114212479
30
0.0000000000
10
-10.9655837890
20
1.9906786826
30
0.0000000000
11
-10.1121065508
21
1.9966976636
31
0.0000000000
11
-10.3659698683
21
1.9990786692
31
0.0000000000
11
-10.6529435259
21
1.9986185324
31
0.0000000000
11
-10.8777110653
21
1.9954699990
31
0.0000000000
11
-10.9655837890
21
1.9906786826
31
0.0000000000
0
SPLINE
5
53B
100
AcDbEntity
8
0
100
AcDbSpline
62
0
6
CONTINUOUS
70
0
71
3
72
11
73
7
74
5
42
0.0000001000
43
0.0000001000
44
0.0000000001
12
0.8535113380
22
-0.0148980958
32
0.0000000000
13
0.6036155885
23
0.6036155885
33
0.0000000000
40
0.0000000000
40
0.0000000000
40
0.0000000000
40
0.0000000000
40
0.2974018101
40
0.6335781514
40
0.8969084014
40
1.0000000000
40
1.0000000000
40
1.0000000000
40
1.0000000000
10
-28.3254840025
20
-1.6217632737
30
0.0000000000
10
-28.2408720635
20
-1.6232401805
30
0.0000000000
10
-28.0619424205
20
-1.6217708948
30
0.0000000000
10
-27.8004723038
20
-1.6343617954
30
0.0000000000
10
-27.6158157059
20
-1.6006172910
30
0.0000000000
10
-27.4927493296
20
-1.6364868580
30
0.0000000000
10
-27.4720067643
20
-1.6157442927
30
0.0000000000
11
-28.3254840025
21
-1.6217632737
31
0.0000000000
11
-28.0716206849
21
-1.6241442793
31
0.0000000000
11
-27.7846470274
21
-1.6236841425
31
0.0000000000
11
-27.5598794880
21
-1.6205356091
31
0.0000000000
11
-27.4720067643
21
-1.6157442927
31
0.0000000000
0
SPLINE
5
53C
100
AcDbEntity
8
0
100
AcDbSpline
62
0
6
CONTINUOUS
70
0
71
3
72
11
73
7
74
5
42
0.0000001000
43
0.0000001000
44
0.0000000001
12
0.6036155885
22
-0.6036155885
32
0.0000000000
13
0.8535113380
23
0.0148980958
33
0.0000000000
40
0.0000000000
40
0.0000000000
40
0.0000000000
40
0.0000000000
40
0.1030915986
40
0.3664218486
40
0.7025981899
40
1.0000000000
40
1.0000000000
40
1.0000000000
40
1.0000000000
10
-10.9655837890
20
-1.6157442927
30
0.0000000000
10
-10.9448412236
20
-1.6364868580
30
0.0000000000
10
-10.8217748474
20
-1.6006172910
30
0.0000000000
10
-10.6371182494
20
-1.6343617954
30
0.0000000000
10
-10.3756481327
20
-1.6217708948
30
0.0000000000
10
-10.1967184897
20
-1.6232401805
30
0.0000000000
10
-10.1121065508
20
-1.6217632737
30
0.0000000000
11
-10.9655837890
21
-1.6157442927
31
0.0000000000
11
-10.8777110653
21
-1.6205356091
31
0.0000000000
11
-10.6529435259
21
-1.6236841425
31
0.0000000000
11
-10.3659698683
21
-1.6241442793
31
0.0000000000
11
-10.1121065508
21
-1.6217632737
31
0.0000000000
0
SPLINE
5
53D
100
AcDbEntity
8
0
100
AcDbSpline
62
0
6
CONTINUOUS
70
0
71
3
72
11
73
7
74
5
42
0.0000001000
43
0.0000001000
44
0.0000000001
12
0.6036155885
22
-0.6036155885
32
0.0000000000
13
0.8535113380
23
0.0148980958
33
0.0000000000
40
0.0000000000
40
0.0000000000
40
0.0000000000
40
0.0000000000
40
0.1030915986
40
0.3664218486
40
0.7025981899
40
1.0000000000
40
1.0000000000
40
1.0000000000
40
1.0000000000
10
-10.9655837890
20
3.8842557073
30
0.0000000000
10
-10.9448412236
20
3.8635131420
30
0.0000000000
10
-10.8217748474
20
3.8993827090
30
0.0000000000
10
-10.6371182494
20
3.8656382046
30
0.0000000000
10
-10.3756481327
20
3.8782291052
30
0.0000000000
10
-10.1967184897
20
3.8767598195
30
0.0000000000
10
-10.1121065508
20
3.8782367263
30
0.0000000000
11
-10.9655837890
21
3.8842557073
31
0.0000000000
11
-10.8777110653
21
3.8794643909
31
0.0000000000
11
-10.6529435259
21
3.8763158575
31
0.0000000000
11
-10.3659698683
21
3.8758557207
31
0.0000000000
11
-10.1121065508
21
3.8782367263
31
0.0000000000
0
SPLINE
5
53E
100
AcDbEntity
8
0
100
AcDbSpline
62
0
6
CONTINUOUS
70
0
71
3
72
11
73
7
74
5
42
0.0000001000
43
0.0000001000
44
0.0000000001
12
0.8535113380
22
-0.0148980958
32
0.0000000000
13
0.6036155885
23
0.6036155885
33
0.0000000000
40
0.0000000000
40
0.0000000000
40
0.0000000000
40
0.0000000000
40
0.2974018101
40
0.6335781514
40
0.8969084014
40
1.0000000000
40
1.0000000000
40
1.0000000000
40
1.0000000000
10
-28.3254840025
20
3.8782367263
30
0.0000000000
10
-28.2408720635
20
3.8767598195
30
0.0000000000
10
-28.0619424205
20
3.8782291052
30
0.0000000000
10
-27.8004723038
20
3.8656382046
30
0.0000000000
10
-27.6158157059
20
3.8993827090
30
0.0000000000
10
-27.4927493296
20
3.8635131420
30
0.0000000000
10
-27.4720067643
20
3.8842557073
30
0.0000000000
11
-28.3254840025
21
3.8782367263
31
0.0000000000
11
-28.0716206849
21
3.8758557207
31
0.0000000000
11
-27.7846470274
21
3.8763158575
31
0.0000000000
11
-27.5598794880
21
3.8794643909
31
0.0000000000
11
-27.4720067643
21
3.8842557073
31
0.0000000000
0
SPLINE
5
53F
100
AcDbEntity
8
0
100
AcDbSpline
62
0
6
CONTINUOUS
70
0
71
3
72
11
73
7
74
5
42
0.0000001000
43
0.0000001000
44
0.0000000001
12
-0.8535113380
22
0.0148980958
32
0.0000000000
13
-0.6036155885
23
-0.6036155885
33
0.0000000000
40
0.0000000000
40
0.0000000000
40
0.0000000000
40
0.0000000000
40
0.2974018101
40
0.6335781514
40
0.8969084014
40
1.0000000000
40
1.0000000000
40
1.0000000000
40
1.0000000000
10
-10.1121065508
20
-3.5033023364
30
0.0000000000
10
-10.1967184897
20
-3.5018254295
30
0.0000000000
10
-10.3756481327
20
-3.5032947153
30
0.0000000000
10
-10.6371182494
20
-3.4907038147
30
0.0000000000
10
-10.8217748474
20
-3.5244483191
30
0.0000000000
10
-10.9448412236
20
-3.4885787521
30
0.0000000000
10
-10.9655837890
20
-3.5093213174
30
0.0000000000
11
-10.1121065508
21
-3.5033023364
31
0.0000000000
11
-10.3659698683
21
-3.5009213308
31
0.0000000000
11
-10.6529435259
21
-3.5013814676
31
0.0000000000
11
-10.8777110653
21
-3.5045300010
31
0.0000000000
11
-10.9655837890
21
-3.5093213174
31
0.0000000000
0
SPLINE
5
540
100
AcDbEntity
8
0
100
AcDbSpline
62
0
6
CONTINUOUS
70
0
71
3
72
11
73
7
74
5
42
0.0000001000
43
0.0000001000
44
0.0000000001
12
-0.6036155885
22
0.6036155885
32
0.0000000000
13
-0.8535113380
23
-0.0148980958
33
0.0000000000
40
0.0000000000
40
0.0000000000
40
0.0000000000
40
0.0000000000
40
0.1030915986
40
0.3664218486
40
0.7025981899
40
1.0000000000
40
1.0000000000
40
1.0000000000
40
1.0000000000
10
-27.4720067643
20
-3.5093213174
30
0.0000000000
10
-27.4927493296
20
-3.4885787521
30
0.0000000000
10
-27.6158157059
20
-3.5244483191
30
0.0000000000
10
-27.8004723038
20
-3.4907038147
30
0.0000000000
10
-28.0619424205
20
-3.5032947153
30
0.0000000000
10
-28.2408720635
20
-3.5018254295
30
0.0000000000
10
-28.3254840025
20
-3.5033023364
30
0.0000000000
11
-27.4720067643
21
-3.5093213174
31
0.0000000000
11
-27.5598794880
21
-3.5045300010
31
0.0000000000
11
-27.7846470274
21
-3.5013814676
31
0.0000000000
11
-28.0716206849
21
-3.5009213308
31
0.0000000000
11
-28.3254840025
21
-3.5033023364
31
0.0000000000
0
SPLINE
5
541
100
AcDbEntity
8
0
100
AcDbSpline
62
0
6
CONTINUOUS
70
0
71
3
72
10
73
6
74
4
42
0.0000001000
43
0.0000001000
44
0.0000000001
12
-0.1416437590
22
-0.1760862975
32
0.0000000000
13
-0.1453147740
23
-0.1730692205
33
0.0000000000
40
0.0000000000
40
0.0000000000
40
0.0000000000
40
0.0000000000
40
0.3326972695
40
0.6660081726
40
1.0000000000
40
1.0000000000
40
1.0000000000
40
1.0000000000
10
-15.8000966938
20
8.9374671950
30
0.0000000000
10
-15.8158048578
20
8.9179393848
30
0.0000000000
10
-15.8473818465
20
8.8789534447
30
0.0000000000
10
-15.8951974263
20
8.8207458442
30
0.0000000000
10
-15.9273800756
20
8.7821312492
30
0.0000000000
10
-15.9435580579
20
8.7628633475
30
0.0000000000
11
-15.8000966938
21
8.9374671950
31
0.0000000000
11
-15.8474197736
21
8.8790440645
31
0.0000000000
11
-15.8952335227
21
8.8208422371
31
0.0000000000
11
-15.9435580579
21
8.7628633475
31
0.0000000000
0
SPLINE
5
542
100
AcDbEntity
8
0
100
AcDbSpline
62
0
6
CONTINUOUS
70
0
71
3
72
10
73
6
74
4
42
0.0000001000
43
0.0000001000
44
0.0000000001
12
0.1416437590
22
-0.1760862975
32
0.0000000000
13
0.1453147740
23
-0.1730692205
33
0.0000000000
40
0.0000000000
40
0.0000000000
40
0.0000000000
40
0.0000000000
40
0.3326972695
40
0.6660081726
40
1.0000000000
40
1.0000000000
40
1.0000000000
40
1.0000000000
10
-22.6374938594
20
8.9374671950
30
0.0000000000
10
-22.6217856955
20
8.9179393848
30
0.0000000000
10
-22.5902087068
20
8.8789534447
30
0.0000000000
10
-22.5423931270
20
8.8207458442
30
0.0000000000
10
-22.5102104777
20
8.7821312492
30
0.0000000000
10
-22.4940324954
20
8.7628633475
30
0.0000000000
11
-22.6374938594
21
8.9374671950
31
0.0000000000
11
-22.5901707797
21
8.8790440645
31
0.0000000000
11
-22.5423570305
21
8.8208422371
31
0.0000000000
11
-22.4940324954
21
8.7628633475
31
0.0000000000
0
SPLINE
5
543
100
AcDbEntity
8
0
100
AcDbSpline
62
0
6
CONTINUOUS
70
0
71
3
72
10
73
6
74
4
42
0.0000001000
43
0.0000001000
44
0.0000000001
12
0.1760862975
22
0.1416437590
32
0.0000000000
13
0.1730692205
23
0.1453147740
33
0.0000000000
40
0.0000000000
40
0.0000000000
40
0.0000000000
40
0.0000000000
40
0.3326972695
40
0.6660081726
40
1.0000000000
40
1.0000000000
40
1.0000000000
40
1.0000000000
10
-19.9687952766
20
4.7687686122
30
0.0000000000
10
-19.9492674665
20
4.7844767761
30
0.0000000000
10
-19.9102815264
20
4.8160537648
30
0.0000000000
10
-19.8520739259
20
4.8638693446
30
0.0000000000
10
-19.8134593309
20
4.8960519939
30
0.0000000000
10
-19.7941914292
20
4.9122299762
30
0.0000000000
11
-19.9687952766
21
4.7687686122
31
0.0000000000
11
-19.9103721462
21
4.8160916919
31
0.0000000000
11
-19.8521703188
21
4.8639054411
31
0.0000000000
11
-19.7941914292
21
4.9122299762
31
0.0000000000
0
SPLINE
5
544
100
AcDbEntity
8
0
100
AcDbSpline
62
0
6
CONTINUOUS
70
0
71
3
72
10
73
6
74
4
42
0.0000001000
43
0.0000001000
44
0.0000000001
12
0.1416437590
22
0.1760862975
32
0.0000000000
13
0.1453147740
23
0.1730692205
33
0.0000000000
40
0.0000000000
40
0.0000000000
40
0.0000000000
40
0.0000000000
40
0.3326972695
40
0.6660081726
40
1.0000000000
40
1.0000000000
40
1.0000000000
40
1.0000000000
10
-22.6374938594
20
7.4374671950
30
0.0000000000
10
-22.6217856955
20
7.4569950051
30
0.0000000000
10
-22.5902087068
20
7.4959809452
30
0.0000000000
10
-22.5423931270
20
7.5541885457
30
0.0000000000
10
-22.5102104777
20
7.5928031407
30
0.0000000000
10
-22.4940324954
20
7.6120710424
30
0.0000000000
11
-22.6374938594
21
7.4374671950
31
0.0000000000
11
-22.5901707797
21
7.4958903254
31
0.0000000000
11
-22.5423570305
21
7.5540921528
31
0.0000000000
11
-22.4940324954
21
7.6120710424
31
0.0000000000
0
SPLINE
5
545
100
AcDbEntity
8
0
100
AcDbSpline
62
0
6
CONTINUOUS
70
0
71
3
72
10
73
6
74
4
42
0.0000001000
43
0.0000001000
44
0.0000000001
12
-0.1760862975
22
0.1416437590
32
0.0000000000
13
-0.1730692205
23
0.1453147740
33
0.0000000000
40
0.0000000000
40
0.0000000000
40
0.0000000000
40
0.0000000000
40
0.3326972695
40
0.6660081726
40
1.0000000000
40
1.0000000000
40
1.0000000000
40
1.0000000000
10
-18.4687952766
20
4.7687686122
30
0.0000000000
10
-18.4883230867
20
4.7844767761
30
0.0000000000
10
-18.5273090268
20
4.8160537648
30
0.0000000000
10
-18.5855166274
20
4.8638693446
30
0.0000000000
10
-18.6241312223
20
4.8960519939
30
0.0000000000
10
-18.6433991241
20
4.9122299762
30
0.0000000000
11
-18.4687952766
21
4.7687686122
31
0.0000000000
11
-18.5272184071
21
4.8160916919
31
0.0000000000
11
-18.5854202344
21
4.8639054411
31
0.0000000000
11
-18.6433991241
21
4.9122299762
31
0.0000000000
0
SPLINE
5
546
100
AcDbEntity
8
0
100
AcDbSpline
62
0
6
CONTINUOUS
70
0
71
3
72
10
73
6
74
4
42
0.0000001000
43
0.0000001000
44
0.0000000001
12
-0.1416437590
22
0.1760862975
32
0.0000000000
13
-0.1453147740
23
0.1730692205
33
0.0000000000
40
0.0000000000
40
0.0000000000
40
0.0000000000
40
0.0000000000
40
0.3326972695
40
0.6660081726
40
1.0000000000
40
1.0000000000
40
1.0000000000
40
1.0000000000
10
-15.8000966938
20
7.4374671950
30
0.0000000000
10
-15.8158048578
20
7.4569950051
30
0.0000000000
10
-15.8473818465
20
7.4959809452
30
0.0000000000
10
-15.8951974263
20
7.5541885457
30
0.0000000000
10
-15.9273800756
20
7.5928031407
30
0.0000000000
10
-15.9435580579
20
7.6120710424
30
0.0000000000
11
-15.8000966938
21
7.4374671950
31
0.0000000000
11
-15.8474197736
21
7.4958903254
31
0.0000000000
11
-15.8952335227
21
7.5540921528
31
0.0000000000
11
-15.9435580579
21
7.6120710424
31
0.0000000000
0
SPLINE
5
547
100
AcDbEntity
8
0
100
AcDbSpline
62
0
6
CONTINUOUS
70
0
71
3
72
10
73
6
74
4
42
0.0000001000
43
0.0000001000
44
0.0000000001
12
-0.1416437590
22
0.1760862975
32
0.0000000000
13
-0.1453147740
23
0.1730692205
33
0.0000000000
40
0.0000000000
40
0.0000000000
40
0.0000000000
40
0.0000000000
40
0.3326972695
40
0.6660081726
40
1.0000000000
40
1.0000000000
40
1.0000000000
40
1.0000000000
10
-15.8000966938
20
-8.5625328050
30
0.0000000000
10
-15.8158048578
20
-8.5430049949
30
0.0000000000
10
-15.8473818465
20
-8.5040190548
30
0.0000000000
10
-15.8951974263
20
-8.4458114543
30
0.0000000000
10
-15.9273800756
20
-8.4071968593
30
0.0000000000
10
-15.9435580579
20
-8.3879289576
30
0.0000000000
11
-15.8000966938
21
-8.5625328050
31
0.0000000000
11
-15.8474197736
21
-8.5041096746
31
0.0000000000
11
-15.8952335227
21
-8.4459078472
31
0.0000000000
11
-15.9435580579
21
-8.3879289576
31
0.0000000000
0
SPLINE
5
548
100
AcDbEntity
8
0
100
AcDbSpline
62
0
6
CONTINUOUS
70
0
71
3
72
10
73
6
74
4
42
0.0000001000
43
0.0000001000
44
0.0000000001
12
0.1416437590
22
0.1760862975
32
0.0000000000
13
0.1453147740
23
0.1730692205
33
0.0000000000
40
0.0000000000
40
0.0000000000
40
0.0000000000
40
0.0000000000
40
0.3326972695
40
0.6660081726
40
1.0000000000
40
1.0000000000
40
1.0000000000
40
1.0000000000
10
-22.6374938594
20
-8.5625328050
30
0.0000000000
10
-22.6217856955
20
-8.5430049949
30
0.0000000000
10
-22.5902087068
20
-8.5040190548
30
0.0000000000
10
-22.5423931270
20
-8.4458114543
30
0.0000000000
10
-22.5102104777
20
-8.4071968593
30
0.0000000000
10
-22.4940324954
20
-8.3879289576
30
0.0000000000
11
-22.6374938594
21
-8.5625328050
31
0.0000000000
11
-22.5901707797
21
-8.5041096746
31
0.0000000000
11
-22.5423570305
21
-8.4459078472
31
0.0000000000
11
-22.4940324954
21
-8.3879289576
31
0.0000000000
0
SPLINE
5
549
100
AcDbEntity
8
0
100
AcDbSpline
62
0
6
CONTINUOUS
70
0
71
3
72
10
73
6
74
4
42
0.0000001000
43
0.0000001000
44
0.0000000001
12
0.1760862975
22
-0.1416437590
32
0.0000000000
13
0.1730692205
23
-0.1453147740
33
0.0000000000
40
0.0000000000
40
0.0000000000
40
0.0000000000
40
0.0000000000
40
0.3326972695
40
0.6660081726
40
1.0000000000
40
1.0000000000
40
1.0000000000
40
1.0000000000
10
-19.9687952766
20
-4.3938342223
30
0.0000000000
10
-19.9492674665
20
-4.4095423862
30
0.0000000000
10
-19.9102815264
20
-4.4411193749
30
0.0000000000
10
-19.8520739259
20
-4.4889349547
30
0.0000000000
10
-19.8134593309
20
-4.5211176040
30
0.0000000000
10
-19.7941914292
20
-4.5372955863
30
0.0000000000
11
-19.9687952766
21
-4.3938342223
31
0.0000000000
11
-19.9103721462
21
-4.4411573020
31
0.0000000000
11
-19.8521703188
21
-4.4889710512
31
0.0000000000
11
-19.7941914292
21
-4.5372955863
31
0.0000000000
0
SPLINE
5
54A
100
AcDbEntity
8
0
100
AcDbSpline
62
0
6
CONTINUOUS
70
0
71
3
72
10
73
6
74
4
42
0.0000001000
43
0.0000001000
44
0.0000000001
12
0.1416437590
22
-0.1760862975
32
0.0000000000
13
0.1453147740
23
-0.1730692205
33
0.0000000000
40
0.0000000000
40
0.0000000000
40
0.0000000000
40
0.0000000000
40
0.3326972695
40
0.6660081726
40
1.0000000000
40
1.0000000000
40
1.0000000000
40
1.0000000000
10
-22.6374938594
20
-7.0625328050
30
0.0000000000
10
-22.6217856955
20
-7.0820606152
30
0.0000000000
10
-22.5902087068
20
-7.1210465553
30
0.0000000000
10
-22.5423931270
20
-7.1792541558
30
0.0000000000
10
-22.5102104777
20
-7.2178687508
30
0.0000000000
10
-22.4940324954
20
-7.2371366525
30
0.0000000000
11
-22.6374938594
21
-7.0625328050
31
0.0000000000
11
-22.5901707797
21
-7.1209559355
31
0.0000000000
11
-22.5423570305
21
-7.1791577629
31
0.0000000000
11
-22.4940324954
21
-7.2371366525
31
0.0000000000
0
SPLINE
5
54B
100
AcDbEntity
8
0
100
AcDbSpline
62
0
6
CONTINUOUS
70
0
71
3
72
10
73
6
74
4
42
0.0000001000
43
0.0000001000
44
0.0000000001
12
-0.1760862975
22
-0.1416437590
32
0.0000000000
13
-0.1730692205
23
-0.1453147740
33
0.0000000000
40
0.0000000000
40
0.0000000000
40
0.0000000000
40
0.0000000000
40
0.3326972695
40
0.6660081726
40
1.0000000000
40
1.0000000000
40
1.0000000000
40
1.0000000000
10
-18.4687952766
20
-4.3938342223
30
0.0000000000
10
-18.4883230867
20
-4.4095423862
30
0.0000000000
10
-18.5273090268
20
-4.4411193749
30
0.0000000000
10
-18.5855166274
20
-4.4889349547
30
0.0000000000
10
-18.6241312223
20
-4.5211176040
30
0.0000000000
10
-18.6433991241
20
-4.5372955863
30
0.0000000000
11
-18.4687952766
21
-4.3938342223
31
0.0000000000
11
-18.5272184071
21
-4.4411573020
31
0.0000000000
11
-18.5854202344
21
-4.4889710512
31
0.0000000000
11
-18.6433991241
21
-4.5372955863
31
0.0000000000
0
SPLINE
5
54C
100
AcDbEntity
8
0
100
AcDbSpline
62
0
6
CONTINUOUS
70
0
71
3
72
10
73
6
74
4
42
0.0000001000
43
0.0000001000
44
0.0000000001
12
-0.1416437590
22
-0.1760862975
32
0.0000000000
13
-0.1453147740
23
-0.1730692205
33
0.0000000000
40
0.0000000000
40
0.0000000000
40
0.0000000000
40
0.0000000000
40
0.3326972695
40
0.6660081726
40
1.0000000000
40
1.0000000000
40
1.0000000000
40
1.0000000000
10
-15.8000966938
20
-7.0625328050
30
0.0000000000
10
-15.8158048578
20
-7.0820606152
30
0.0000000000
10
-15.8473818465
20
-7.1210465553
30
0.0000000000
10
-15.8951974263
20
-7.1792541558
30
0.0000000000
10
-15.9273800756
20
-7.2178687508
30
0.0000000000
10
-15.9435580579
20
-7.2371366525
30
0.0000000000
11
-15.8000966938
21
-7.0625328050
31
0.0000000000
11
-15.8474197736
21
-7.1209559355
31
0.0000000000
11
-15.8952335227
21
-7.1791577629
31
0.0000000000
11
-15.9435580579
21
-7.2371366525
31
0.0000000000
0
SPLINE
5
54D
100
AcDbEntity
8
0
100
AcDbSpline
62
0
6
CONTINUOUS
70
0
71
3
72
10
73
6
74
4
42
0.0000001000
43
0.0000001000
44
0.0000000001
12
0.7067782716
22
-0.0246812411
32
0.0000000000
13
0.7072090842
23
-0.0000000000
33
0.0000000000
40
0.0000000000
40
0.0000000000
40
0.0000000000
40
0.0000000000
40
0.2930003871
40
0.6340651233
40
1.0000000000
40
1.0000000000
40
1.0000000000
40
1.0000000000
10
-27.0116884954
20
8.7730914041
30
0.0000000000
10
-26.9426597264
20
8.7706808663
30
0.0000000000
10
-26.7932291153
20
8.7668890965
30
0.0000000000
10
-26.5575127624
20
8.7636024867
30
0.0000000000
10
-26.3908458706
20
8.7628633475
30
0.0000000000
10
-26.3045817142
20
8.7628633475
30
0.0000000000
11
-27.0116884954
21
8.7730914041
31
0.0000000000
11
-26.8045503043
21
8.7675412102
31
0.0000000000
11
-26.5633714490
21
8.7640529696
31
0.0000000000
11
-26.3045817142
21
8.7628633475
31
0.0000000000
0
SPLINE
5
54E
100
AcDbEntity
8
0
100
AcDbSpline
62
0
6
CONTINUOUS
70
0
71
3
72
10
73
6
74
4
42
0.0000001000
43
0.0000001000
44
0.0000000001
12
0.7072090842
22
0.0000000000
32
0.0000000000
13
0.7067782716
23
0.0246812411
33
0.0000000000
40
0.0000000000
40
0.0000000000
40
0.0000000000
40
0.0000000000
40
0.3659349575
40
0.7069996406
40
1.0000000000
40
1.0000000000
40
1.0000000000
40
1.0000000000
10
-12.1330088390
20
8.7628633475
30
0.0000000000
10
-12.0467446636
20
8.7628633475
30
0.0000000000
10
-11.8800777652
20
8.7636024869
30
0.0000000000
10
-11.6443614124
20
8.7668890970
30
0.0000000000
10
-11.4949308203
20
8.7706808666
30
0.0000000000
10
-11.4259020578
20
8.7730914041
30
0.0000000000
11
-12.1330088390
21
8.7628633475
31
0.0000000000
11
-11.8742190470
21
8.7640529702
31
0.0000000000
11
-11.6330402293
21
8.7675412106
31
0.0000000000
11
-11.4259020578
21
8.7730914041
31
0.0000000000
0
SPLINE
5
54F
100
AcDbEntity
8
0
100
AcDbSpline
62
0
6
CONTINUOUS
70
0
71
3
72
10
73
6
74
4
42
0.0000001000
43
0.0000001000
44
0.0000000001
12
-0.7072090842
22
0.0000000000
32
0.0000000000
13
-0.7067782716
23
-0.0246812411
33
0.0000000000
40
0.0000000000
40
0.0000000000
40
0.0000000000
40
0.0000000000
40
0.3659348767
40
0.7069996129
40
1.0000000000
40
1.0000000000
40
1.0000000000
40
1.0000000000
10
-26.3045817142
20
7.6120710424
30
0.0000000000
10
-26.3908458706
20
7.6120710424
30
0.0000000000
10
-26.5575127624
20
7.6113319032
30
0.0000000000
10
-26.7932291153
20
7.6080452934
30
0.0000000000
10
-26.9426597264
20
7.6042535236
30
0.0000000000
10
-27.0116884954
20
7.6018429858
30
0.0000000000
11
-26.3045817142
21
7.6120710424
31
0.0000000000
11
-26.5633714490
21
7.6108814203
31
0.0000000000
11
-26.8045503043
21
7.6073931797
31
0.0000000000
11
-27.0116884954
21
7.6018429858
31
0.0000000000
0
SPLINE
5
550
100
AcDbEntity
8
0
100
AcDbSpline
62
0
6
CONTINUOUS
70
0
71
3
72
10
73
6
74
4
42
0.0000001000
43
0.0000001000
44
0.0000000001
12
-0.7067782716
22
0.0246812411
32
0.0000000000
13
-0.7072090842
23
-0.0000000000
33
0.0000000000
40
0.0000000000
40
0.0000000000
40
0.0000000000
40
0.0000000000
40
0.2930003594
40
0.6340650425
40
1.0000000000
40
1.0000000000
40
1.0000000000
40
1.0000000000
10
-11.4259020578
20
7.6018429858
30
0.0000000000
10
-11.4949308203
20
7.6042535233
30
0.0000000000
10
-11.6443614124
20
7.6080452929
30
0.0000000000
10
-11.8800777652
20
7.6113319030
30
0.0000000000
10
-12.0467446636
20
7.6120710424
30
0.0000000000
10
-12.1330088390
20
7.6120710424
30
0.0000000000
11
-11.4259020578
21
7.6018429858
31
0.0000000000
11
-11.6330402293
21
7.6073931793
31
0.0000000000
11
-11.8742190470
21
7.6108814198
31
0.0000000000
11
-12.1330088390
21
7.6120710424
31
0.0000000000
0
SPLINE
5
551
100
AcDbEntity
8
0
100
AcDbSpline
62
0
6
CONTINUOUS
70
0
71
3
72
10
73
6
74
4
42
0.0000001000
43
0.0000001000
44
0.0000000001
12
-0.7067782716
22
0.0246812411
32
0.0000000000
13
-0.7072090842
23
-0.0000000000
33
0.0000000000
40
0.0000000000
40
0.0000000000
40
0.0000000000
40
0.0000000000
40
0.2930003594
40
0.6340650425
40
1.0000000000
40
1.0000000000
40
1.0000000000
40
1.0000000000
10
-11.4259020578
20
-8.3981570142
30
0.0000000000
10
-11.4949308203
20
-8.3957464767
30
0.0000000000
10
-11.6443614124
20
-8.3919547071
30
0.0000000000
10
-11.8800777652
20
-8.3886680970
30
0.0000000000
10
-12.0467446636
20
-8.3879289576
30
0.0000000000
10
-12.1330088390
20
-8.3879289576
30
0.0000000000
11
-11.4259020578
21
-8.3981570142
31
0.0000000000
11
-11.6330402293
21
-8.3926068207
31
0.0000000000
11
-11.8742190470
21
-8.3891185802
31
0.0000000000
11
-12.1330088390
21
-8.3879289576
31
0.0000000000
0
SPLINE
5
552
100
AcDbEntity
8
0
100
AcDbSpline
62
0
6
CONTINUOUS
70
0
71
3
72
10
73
6
74
4
42
0.0000001000
43
0.0000001000
44
0.0000000001
12
-0.7072090842
22
0.0000000000
32
0.0000000000
13
-0.7067782716
23
-0.0246812411
33
0.0000000000
40
0.0000000000
40
0.0000000000
40
0.0000000000
40
0.0000000000
40
0.3659348767
40
0.7069996129
40
1.0000000000
40
1.0000000000
40
1.0000000000
40
1.0000000000
10
-26.3045817142
20
-8.3879289576
30
0.0000000000
10
-26.3908458706
20
-8.3879289576
30
0.0000000000
10
-26.5575127624
20
-8.3886680968
30
0.0000000000
10
-26.7932291153
20
-8.3919547066
30
0.0000000000
10
-26.9426597264
20
-8.3957464764
30
0.0000000000
10
-27.0116884954
20
-8.3981570142
30
0.0000000000
11
-26.3045817142
21
-8.3879289576
31
0.0000000000
11
-26.5633714490
21
-8.3891185797
31
0.0000000000
11
-26.8045503043
21
-8.3926068203
31
0.0000000000
11
-27.0116884954
21
-8.3981570142
31
0.0000000000
0
SPLINE
5
553
100
AcDbEntity
8
0
100
AcDbSpline
62
0
6
CONTINUOUS
70
0
71
3
72
10
73
6
74
4
42
0.0000001000
43
0.0000001000
44
0.0000000001
12
0.7072090842
22
0.0000000000
32
0.0000000000
13
0.7067782716
23
0.0246812411
33
0.0000000000
40
0.0000000000
40
0.0000000000
40
0.0000000000
40
0.0000000000
40
0.3659349575
40
0.7069996406
40
1.0000000000
40
1.0000000000
40
1.0000000000
40
1.0000000000
10
-12.1330088390
20
-7.2371366525
30
0.0000000000
10
-12.0467446636
20
-7.2371366525
30
0.0000000000
10
-11.8800777652
20
-7.2363975131
30
0.0000000000
10
-11.6443614124
20
-7.2331109030
30
0.0000000000
10
-11.4949308203
20
-7.2293191334
30
0.0000000000
10
-11.4259020578
20
-7.2269085959
30
0.0000000000
11
-12.1330088390
21
-7.2371366525
31
0.0000000000
11
-11.8742190470
21
-7.2359470298
31
0.0000000000
11
-11.6330402293
21
-7.2324587894
31
0.0000000000
11
-11.4259020578
21
-7.2269085959
31
0.0000000000
0
SPLINE
5
554
100
AcDbEntity
8
0
100
AcDbSpline
62
0
6
CONTINUOUS
70
0
71
3
72
10
73
6
74
4
42
0.0000001000
43
0.0000001000
44
0.0000000001
12
0.7067782716
22
-0.0246812411
32
0.0000000000
13
0.7072090842
23
0.0000000000
33
0.0000000000
40
0.0000000000
40
0.0000000000
40
0.0000000000
40
0.0000000000
40
0.2930003871
40
0.6340651233
40
1.0000000000
40
1.0000000000
40
1.0000000000
40
1.0000000000
10
-27.0116884954
20
-7.2269085959
30
0.0000000000
10
-26.9426597264
20
-7.2293191337
30
0.0000000000
10
-26.7932291153
20
-7.2331109035
30
0.0000000000
10
-26.5575127624
20
-7.2363975133
30
0.0000000000
10
-26.3908458706
20
-7.2371366525
30
0.0000000000
10
-26.3045817142
20
-7.2371366525
30
0.0000000000
11
-27.0116884954
21
-7.2269085959
31
0.0000000000
11
-26.8045503043
21
-7.2324587898
31
0.0000000000
11
-26.5633714490
21
-7.2359470304
31
0.0000000000
11
-26.3045817142
21
-7.2371366525
31
0.0000000000
0
SPLINE
5
555
100
AcDbEntity
8
0
100
AcDbSpline
62
0
6
CONTINUOUS
70
0
71
3
72
12
73
8
74
6
42
0.0000001000
43
0.0000001000
44
0.0000000001
12
9.8948720658
22
-0.3455365466
32
0.0000000000
13
9.8948720658
23
0.3455365466
33
0.0000000000
40
0.0000000000
40
0.0000000000
40
0.0000000000
40
0.0000000000
40
0.1790356356
40
0.3894131389
40
0.6105863696
40
0.8209641783
40
1.0000000000
40
1.0000000000
40
1.0000000000
40
1.0000000000
10
-24.1685427449
20
-29.7214311248
30
0.0000000000
10
-23.5780311752
20
-29.7420522432
30
0.0000000000
10
-22.2931306665
20
-29.7722698550
30
0.0000000000
10
-20.2781000381
20
-29.7940648799
30
0.0000000000
10
-18.1594943740
20
-29.7940649046
30
0.0000000000
10
-16.1444621230
20
-29.7722699013
30
0.0000000000
10
-14.8595599919
20
-29.7420522647
30
0.0000000000
10
-14.2690478083
20
-29.7214311248
30
0.0000000000
11
-24.1685427449
21
-29.7214311248
31
0.0000000000
11
-22.3964984115
21
-29.7663886673
31
0.0000000000
11
-20.3137051091
21
-29.7900187194
31
0.0000000000
11
-18.1238903110
21
-29.7900187463
31
0.0000000000
11
-16.0410939843
21
-29.7663887000
31
0.0000000000
11
-14.2690478083
21
-29.7214311248
31
0.0000000000
0
SPLINE
5
556
100
AcDbEntity
8
0
100
AcDbSpline
62
0
6
CONTINUOUS
70
0
71
3
72
12
73
8
74
6
42
0.0000001000
43
0.0000001000
44
0.0000000001
12
-9.8948720658
22
0.3455365466
32
0.0000000000
13
-9.8948720658
23
-0.3455365466
33
0.0000000000
40
0.0000000000
40
0.0000000000
40
0.0000000000
40
0.0000000000
40
0.1790358217
40
0.3894136304
40
0.6105868611
40
0.8209643644
40
1.0000000000
40
1.0000000000
40
1.0000000000
40
1.0000000000
10
-14.2690478083
20
30.0963655147
30
0.0000000000
10
-14.8595599919
20
30.1169866546
30
0.0000000000
10
-16.1444621230
20
30.1472042912
30
0.0000000000
10
-18.1594943740
20
30.1689992945
30
0.0000000000
10
-20.2781000381
20
30.1689992698
30
0.0000000000
10
-22.2931306665
20
30.1472042449
30
0.0000000000
10
-23.5780311752
20
30.1169866331
30
0.0000000000
10
-24.1685427449
20
30.0963655147
30
0.0000000000
11
-14.2690478083
21
30.0963655147
31
0.0000000000
11
-16.0410939843
21
30.1413230899
31
0.0000000000
11
-18.1238903110
21
30.1649531362
31
0.0000000000
11
-20.3137051091
21
30.1649531093
31
0.0000000000
11
-22.3964984115
21
30.1413230572
31
0.0000000000
11
-24.1685427449
21
30.0963655147
31
0.0000000000
0
SPLINE
5
557
100
AcDbEntity
8
0
100
AcDbSpline
62
0
6
CONTINUOUS
70
0
71
3
72
8
73
4
74
2
42
0.0000001000
43
0.0000001000
44
0.0000000001
12
-0.2234516713
22
-0.2195853459
32
0.0000000000
13
-0.2205878562
23
-0.2224740421
33
0.0000000000
40
0.0000000000
40
0.0000000000
40
0.0000000000
40
0.0000000000
40
1.0000000000
40
1.0000000000
40
1.0000000000
40
1.0000000000
10
-12.3060719305
20
-1.1125328050
30
0.0000000000
10
-12.3805558210
20
-1.1857279203
30
0.0000000000
10
-12.4541942982
20
-1.2597757938
30
0.0000000000
10
-12.5277235837
20
-1.3339338079
30
0.0000000000
11
-12.3060719305
21
-1.1125328050
31
0.0000000000
11
-12.5277235837
21
-1.3339338079
31
0.0000000000
0
SPLINE
5
558
100
AcDbEntity
8
0
100
AcDbSpline
62
0
6
CONTINUOUS
70
0
71
3
72
9
73
5
74
3
42
0.0000001000
43
0.0000001000
44
0.0000000001
12
-0.2860203608
22
-0.2884660419
32
0.0000000000
13
-0.2897336632
23
-0.2847204779
33
0.0000000000
40
0.0000000000
40
0.0000000000
40
0.0000000000
40
0.0000000000
40
0.1143843472
40
1.0000000000
40
1.0000000000
40
1.0000000000
40
1.0000000000
10
-12.5277235837
20
-1.3339338079
30
0.0000000000
10
-12.5386290011
20
-1.3449324745
30
0.0000000000
10
-12.6339481229
20
-1.4411090027
30
0.0000000000
10
-12.7292672446
20
-1.5372855309
30
0.0000000000
10
-12.8147981337
20
-1.6213365015
30
0.0000000000
11
-12.5277235837
21
-1.3339338079
31
0.0000000000
11
-12.5604350321
21
-1.3669346533
31
0.0000000000
11
-12.8147981337
21
-1.6213365015
31
0.0000000000
0
SPLINE
5
559
100
AcDbEntity
8
0
100
AcDbSpline
62
0
6
CONTINUOUS
70
0
71
3
72
8
73
4
74
2
42
0.0000001000
43
0.0000001000
44
0.0000000001
12
-0.2234885341
22
0.2196215708
32
0.0000000000
13
-0.2206740156
23
0.2224609746
33
0.0000000000
40
0.0000000000
40
0.0000000000
40
0.0000000000
40
0.0000000000
40
1.0000000000
40
1.0000000000
40
1.0000000000
40
1.0000000000
10
-12.3059169322
20
1.4874671950
30
0.0000000000
10
-12.3804131102
20
1.5606743852
30
0.0000000000
10
-12.4540784196
20
1.6347197905
30
0.0000000000
10
-12.5276364248
20
1.7088734487
30
0.0000000000
11
-12.3059169322
21
1.4874671950
31
0.0000000000
11
-12.5276364248
21
1.7088734487
31
0.0000000000
0
SPLINE
5
55A
100
AcDbEntity
8
0
100
AcDbSpline
62
0
6
CONTINUOUS
70
0
71
3
72
9
73
5
74
3
42
0.0000001000
43
0.0000001000
44
0.0000000001
12
-0.2861256715
22
0.2884426405
32
0.0000000000
13
-0.2897749729
23
0.2847610728
33
0.0000000000
40
0.0000000000
40
0.0000000000
40
0.0000000000
40
0.0000000000
40
0.1143757139
40
1.0000000000
40
1.0000000000
40
1.0000000000
40
1.0000000000
10
-12.5276364248
20
1.7088734487
30
0.0000000000
10
-12.5385450341
20
1.7198703930
30
0.0000000000
10
-12.6338996250
20
1.8160387553
30
0.0000000000
10
-12.7292542159
20
1.9122071175
30
0.0000000000
10
-12.8147981337
20
1.9962708914
30
0.0000000000
11
-12.5276364248
21
1.7088734487
31
0.0000000000
11
-12.5603575329
21
1.7418690432
31
0.0000000000
11
-12.8147981337
21
1.9962708914
31
0.0000000000
0
SPLINE
5
55B
100
AcDbEntity
8
0
100
AcDbSpline
62
0
6
CONTINUOUS
70
0
71
3
72
8
73
4
74
2
42
0.0000001000
43
0.0000001000
44
0.0000000001
12
0.2234947020
22
-0.2196276320
32
0.0000000000
13
0.2206800881
23
-0.2224671321
33
0.0000000000
40
0.0000000000
40
0.0000000000
40
0.0000000000
40
0.0000000000
40
1.0000000000
40
1.0000000000
40
1.0000000000
40
1.0000000000
10
-26.1316736211
20
-1.1125328050
30
0.0000000000
10
-26.0571753871
20
-1.1857420157
30
0.0000000000
10
-25.9835080676
20
-1.2597894877
30
0.0000000000
10
-25.9099480382
20
-1.3339451984
30
0.0000000000
11
-26.1316736211
21
-1.1125328050
31
0.0000000000
11
-25.9099480382
21
-1.3339451984
31
0.0000000000
0
SPLINE
5
55C
100
AcDbEntity
8
0
100
AcDbSpline
62
0
6
CONTINUOUS
70
0
71
3
72
9
73
5
74
3
42
0.0000001000
43
0.0000001000
44
0.0000000001
12
0.2861195583
22
-0.2884365242
32
0.0000000000
13
0.2897688050
23
-0.2847550116
33
0.0000000000
40
0.0000000000
40
0.0000000000
40
0.0000000000
40
0.0000000000
40
0.1143568628
40
1.0000000000
40
1.0000000000
40
1.0000000000
40
1.0000000000
10
-25.9099480382
20
-1.3339451984
30
0.0000000000
10
-25.8990414598
20
-1.3449400970
30
0.0000000000
10
-25.8036888986
20
-1.4411064123
30
0.0000000000
10
-25.7083363374
20
-1.5372727276
30
0.0000000000
10
-25.6227924195
20
-1.6213365015
30
0.0000000000
11
-25.9099480382
21
-1.3339451984
31
0.0000000000
11
-25.8772330203
21
-1.3669346533
31
0.0000000000
11
-25.6227924195
21
-1.6213365015
31
0.0000000000
0
SPLINE
5
55D
100
AcDbEntity
8
0
100
AcDbSpline
62
0
6
CONTINUOUS
70
0
71
3
72
8
73
4
74
2
42
0.0000001000
43
0.0000001000
44
0.0000000001
12
0.2234578392
22
0.2195914070
32
0.0000000000
13
0.2205939270
23
0.2224802013
33
0.0000000000
40
0.0000000000
40
0.0000000000
40
0.0000000000
40
0.0000000000
40
1.0000000000
40
1.0000000000
40
1.0000000000
40
1.0000000000
10
-26.1315186227
20
1.4874671950
30
0.0000000000
10
-26.0570326763
20
1.5606643306
30
0.0000000000
10
-25.9833921897
20
1.6347142716
30
0.0000000000
10
-25.9098608807
20
1.7088743387
30
0.0000000000
11
-26.1315186227
21
1.4874671950
31
0.0000000000
11
-25.9098608807
21
1.7088743387
31
0.0000000000
0
SPLINE
5
55E
100
AcDbEntity
8
0
100
AcDbSpline
62
0
6
CONTINUOUS
70
0
71
3
72
9
73
5
74
3
42
0.0000001000
43
0.0000001000
44
0.0000000001
12
0.2860142484
22
0.2884599246
32
0.0000000000
13
0.2897274953
23
0.2847144167
33
0.0000000000
40
0.0000000000
40
0.0000000000
40
0.0000000000
40
0.0000000000
40
0.1143654936
40
1.0000000000
40
1.0000000000
40
1.0000000000
40
1.0000000000
10
-25.9098608807
20
1.7088743387
30
0.0000000000
10
-25.8989574938
20
1.7198709593
30
0.0000000000
10
-25.8036404012
20
1.8160454400
30
0.0000000000
10
-25.7083233086
20
1.9122199208
30
0.0000000000
10
-25.6227924195
20
1.9962708914
30
0.0000000000
11
-25.9098608807
21
1.7088743387
31
0.0000000000
11
-25.8771555211
21
1.7418690432
31
0.0000000000
11
-25.6227924195
21
1.9962708914
31
0.0000000000
0
SPLINE
5
55F
100
AcDbEntity
8
0
100
AcDbSpline
62
0
6
CONTINUOUS
70
0
71
3
72
11
73
7
74
5
42
0.0000001000
43
0.0000001000
44
0.0000000001
12
-0.8533483340
22
-0.0297995805
32
0.0000000000
13
-0.6037761978
23
0.6037761978
33
0.0000000000
40
0.0000000000
40
0.0000000000
40
0.0000000000
40
0.0000000000
40
0.2948392767
40
0.6286361446
40
0.8923579975
40
1.0000000000
40
1.0000000000
40
1.0000000000
40
1.0000000000
10
-8.8044507754
20
8.8646345000
30
0.0000000000
10
-8.8883176439
20
8.8617058045
30
0.0000000000
10
-9.0659701062
20
8.8613421637
30
0.0000000000
10
-9.3258893040
20
8.8512871159
30
0.0000000000
10
-9.5119104322
20
8.8820529478
30
0.0000000000
10
-9.6360356865
20
8.8547076049
30
0.0000000000
10
-9.6576995795
20
8.8763714979
30
0.0000000000
11
-8.8044507754
21
8.8646345000
31
0.0000000000
11
-9.0561599661
21
8.8598865153
31
0.0000000000
11
-9.3411773319
21
8.8607343427
31
0.0000000000
11
-9.5662766507
21
8.8669012936
31
0.0000000000
11
-9.6576995795
21
8.8763714979
31
0.0000000000
0
SPLINE
5
560
100
AcDbEntity
8
0
100
AcDbSpline
62
0
6
CONTINUOUS
70
0
71
3
72
11
73
7
74
5
42
0.0000001000
43
0.0000001000
44
0.0000000001
12
0.6037761978
22
0.6037761978
32
0.0000000000
13
0.8533483340
23
-0.0297995805
33
0.0000000000
40
0.0000000000
40
0.0000000000
40
0.0000000000
40
0.0000000000
40
0.1076420025
40
0.3713638554
40
0.7051607233
40
1.0000000000
40
1.0000000000
40
1.0000000000
40
1.0000000000
10
-9.6576995795
20
29.8938005836
30
0.0000000000
10
-9.6360356865
20
29.9154644766
30
0.0000000000
10
-9.5119104322
20
29.8881191336
30
0.0000000000
10
-9.3258893040
20
29.9188849656
30
0.0000000000
10
-9.0659701062
20
29.9088299178
30
0.0000000000
10
-8.8883176439
20
29.9084662770
30
0.0000000000
10
-8.8044507754
20
29.9055375814
30
0.0000000000
11
-9.6576995795
21
29.8938005836
31
0.0000000000
11
-9.5662766507
21
29.9032707878
31
0.0000000000
11
-9.3411773319
21
29.9094377387
31
0.0000000000
11
-9.0561599661
21
29.9102855661
31
0.0000000000
11
-8.8044507754
21
29.9055375814
31
0.0000000000
0
SPLINE
5
561
100
AcDbEntity
8
0
100
AcDbSpline
62
0
6
CONTINUOUS
70
0
71
3
72
11
73
7
74
5
42
0.0000001000
43
0.0000001000
44
0.0000000001
12
-0.8532739132
22
-0.0148939516
32
0.0000000000
13
-0.7633541548
23
0.3815607883
33
0.0000000000
40
0.0000000000
40
0.0000000000
40
0.0000000000
40
0.0000000000
40
0.2949809271
40
0.6290059736
40
0.8927715519
40
1.0000000000
40
1.0000000000
40
1.0000000000
40
1.0000000000
10
-8.8044507754
20
3.9010619428
30
0.0000000000
10
-8.8883506187
20
3.8995974656
30
0.0000000000
10
-9.0668162465
20
3.8998446579
30
0.0000000000
10
-9.3229527021
20
3.8928337730
30
0.0000000000
10
-9.5181412463
20
3.9131000042
30
0.0000000000
10
-9.6304151524
20
3.8932905966
30
0.0000000000
10
-9.6576995795
20
3.9069286537
30
0.0000000000
11
-8.8044507754
21
3.9010619428
31
0.0000000000
11
-9.0561774584
21
3.8986886102
31
0.0000000000
11
-9.3412354171
21
3.8991128575
31
0.0000000000
11
-9.5663128737
21
3.9021958887
31
0.0000000000
11
-9.6576995795
21
3.9069286537
31
0.0000000000
0
SPLINE
5
562
100
AcDbEntity
8
0
100
AcDbSpline
62
0
6
CONTINUOUS
70
0
71
3
72
11
73
7
74
5
42
0.0000001000
43
0.0000001000
44
0.0000000001
12
0.6037761978
22
0.6037761978
32
0.0000000000
13
0.8533483340
23
-0.0297995805
33
0.0000000000
40
0.0000000000
40
0.0000000000
40
0.0000000000
40
0.0000000000
40
0.1076420025
40
0.3713638554
40
0.7051607233
40
1.0000000000
40
1.0000000000
40
1.0000000000
40
1.0000000000
10
-9.6576995795
20
7.4985628920
30
0.0000000000
10
-9.6360356865
20
7.5202267850
30
0.0000000000
10
-9.5119104322
20
7.4928814421
30
0.0000000000
10
-9.3258893040
20
7.5236472740
30
0.0000000000
10
-9.0659701062
20
7.5135922262
30
0.0000000000
10
-8.8883176439
20
7.5132285854
30
0.0000000000
10
-8.8044507754
20
7.5102998899
30
0.0000000000
11
-9.6576995795
21
7.4985628920
31
0.0000000000
11
-9.5662766507
21
7.5080330963
31
0.0000000000
11
-9.3411773319
21
7.5142000472
31
0.0000000000
11
-9.0561599661
21
7.5150478746
31
0.0000000000
11
-8.8044507754
21
7.5102998899
31
0.0000000000
0
SPLINE
5
563
100
AcDbEntity
8
0
100
AcDbSpline
62
0
6
CONTINUOUS
70
0
71
3
72
11
73
7
74
5
42
0.0000001000
43
0.0000001000
44
0.0000000001
12
-0.8533483340
22
-0.0297995805
32
0.0000000000
13
-0.6037761978
23
0.6037761978
33
0.0000000000
40
0.0000000000
40
0.0000000000
40
0.0000000000
40
0.0000000000
40
0.2948392767
40
0.6286361446
40
0.8923579975
40
1.0000000000
40
1.0000000000
40
1.0000000000
40
1.0000000000
10
-8.8044507754
20
-7.1353655000
30
0.0000000000
10
-8.8883176439
20
-7.1382941955
30
0.0000000000
10
-9.0659701062
20
-7.1386578363
30
0.0000000000
10
-9.3258893040
20
-7.1487128841
30
0.0000000000
10
-9.5119104322
20
-7.1179470522
30
0.0000000000
10
-9.6360356865
20
-7.1452923951
30
0.0000000000
10
-9.6576995795
20
-7.1236285021
30
0.0000000000
11
-8.8044507754
21
-7.1353655000
31
0.0000000000
11
-9.0561599661
21
-7.1401134847
31
0.0000000000
11
-9.3411773319
21
-7.1392656573
31
0.0000000000
11
-9.5662766507
21
-7.1330987064
31
0.0000000000
11
-9.6576995795
21
-7.1236285021
31
0.0000000000
0
SPLINE
5
564
100
AcDbEntity
8
0
100
AcDbSpline
62
0
6
CONTINUOUS
70
0
71
3
72
11
73
7
74
5
42
0.0000001000
43
0.0000001000
44
0.0000000001
12
0.7633541548
22
0.3815607883
32
0.0000000000
13
0.8532739132
23
-0.0148939516
33
0.0000000000
40
0.0000000000
40
0.0000000000
40
0.0000000000
40
0.0000000000
40
0.1072284481
40
0.3709940264
40
0.7050190729
40
1.0000000000
40
1.0000000000
40
1.0000000000
40
1.0000000000
10
-9.6576995795
20
-3.5319942638
30
0.0000000000
10
-9.6304151524
20
-3.5183562067
30
0.0000000000
10
-9.5181412463
20
-3.5381656143
30
0.0000000000
10
-9.3229527021
20
-3.5178993831
30
0.0000000000
10
-9.0668162465
20
-3.5249102680
30
0.0000000000
10
-8.8883506187
20
-3.5246630757
30
0.0000000000
10
-8.8044507754
20
-3.5261275529
30
0.0000000000
11
-9.6576995795
21
-3.5319942638
31
0.0000000000
11
-9.5663128737
21
-3.5272614988
31
0.0000000000
11
-9.3412354171
21
-3.5241784676
31
0.0000000000
11
-9.0561774584
21
-3.5237542203
31
0.0000000000
11
-8.8044507754
21
-3.5261275529
31
0.0000000000
0
SPLINE
5
565
100
AcDbEntity
8
0
100
AcDbSpline
62
0
6
CONTINUOUS
70
0
71
3
72
11
73
7
74
5
42
0.0000001000
43
0.0000001000
44
0.0000000001
12
-0.8533483340
22
-0.0297995805
32
0.0000000000
13
-0.6037761978
23
0.6037761978
33
0.0000000000
40
0.0000000000
40
0.0000000000
40
0.0000000000
40
0.0000000000
40
0.2948392767
40
0.6286361446
40
0.8923579975
40
1.0000000000
40
1.0000000000
40
1.0000000000
40
1.0000000000
10
-8.8044507754
20
-29.5306031915
30
0.0000000000
10
-8.8883176439
20
-29.5335318871
30
0.0000000000
10
-9.0659701062
20
-29.5338955279
30
0.0000000000
10
-9.3258893040
20
-29.5439505757
30
0.0000000000
10
-9.5119104322
20
-29.5131847437
30
0.0000000000
10
-9.6360356865
20
-29.5405300867
30
0.0000000000
10
-9.6576995795
20
-29.5188661937
30
0.0000000000
11
-8.8044507754
21
-29.5306031915
31
0.0000000000
11
-9.0561599661
21
-29.5353511762
31
0.0000000000
11
-9.3411773319
21
-29.5345033488
31
0.0000000000
11
-9.5662766507
21
-29.5283363979
31
0.0000000000
11
-9.6576995795
21
-29.5188661937
31
0.0000000000
0
SPLINE
5
566
100
AcDbEntity
8
0
100
AcDbSpline
62
0
6
CONTINUOUS
70
0
71
3
72
11
73
7
74
5
42
0.0000001000
43
0.0000001000
44
0.0000000001
12
0.6037761978
22
0.6037761978
32
0.0000000000
13
0.8533483340
23
-0.0297995805
33
0.0000000000
40
0.0000000000
40
0.0000000000
40
0.0000000000
40
0.0000000000
40
0.1076420025
40
0.3713638554
40
0.7051607233
40
1.0000000000
40
1.0000000000
40
1.0000000000
40
1.0000000000
10
-9.6576995795
20
-8.5014371080
30
0.0000000000
10
-9.6360356865
20
-8.4797732150
30
0.0000000000
10
-9.5119104322
20
-8.5071185579
30
0.0000000000
10
-9.3258893040
20
-8.4763527260
30
0.0000000000
10
-9.0659701062
20
-8.4864077738
30
0.0000000000
10
-8.8883176439
20
-8.4867714146
30
0.0000000000
10
-8.8044507754
20
-8.4897001101
30
0.0000000000
11
-9.6576995795
21
-8.5014371080
31
0.0000000000
11
-9.5662766507
21
-8.4919669037
31
0.0000000000
11
-9.3411773319
21
-8.4857999528
31
0.0000000000
11
-9.0561599661
21
-8.4849521254
31
0.0000000000
11
-8.8044507754
21
-8.4897001101
31
0.0000000000
0
SPLINE
5
567
100
AcDbEntity
8
0
100
AcDbSpline
62
0
6
CONTINUOUS
70
0
71
3
72
11
73
7
74
5
42
0.0000001000
43
0.0000001000
44
0.0000000001
12
-0.6037761975
22
-0.6037761975
32
0.0000000000
13
-0.8533483335
23
0.0297995804
33
0.0000000000
40
0.0000000000
40
0.0000000000
40
0.0000000000
40
0.0000000000
40
0.1076424542
40
0.3713663741
40
0.7051629044
40
1.0000000000
40
1.0000000000
40
1.0000000000
40
1.0000000000
10
-28.7798909737
20
-7.1236285021
30
0.0000000000
10
-28.8015549576
20
-7.1452924860
30
0.0000000000
10
-28.9256810498
20
-7.1179469308
30
0.0000000000
10
-29.1117027166
20
-7.1487129049
30
0.0000000000
10
-29.3716217720
20
-7.1386578470
30
0.0000000000
10
-29.5492735298
20
-7.1382941739
30
0.0000000000
10
-29.6331397778
20
-7.1353655000
30
0.0000000000
11
-28.7798909737
21
-7.1236285021
31
0.0000000000
11
-28.8713142882
21
-7.1330987254
31
0.0000000000
11
-29.0964153723
21
-7.1392656869
31
0.0000000000
11
-29.3814324497
21
-7.1401134712
31
0.0000000000
11
-29.6331397778
21
-7.1353655000
31
0.0000000000
0
SPLINE
5
568
100
AcDbEntity
8
0
100
AcDbSpline
62
0
6
CONTINUOUS
70
0
71
3
72
11
73
7
74
5
42
0.0000001000
43
0.0000001000
44
0.0000000001
12
0.8532739132
22
0.0148939516
32
0.0000000000
13
0.7633541548
23
-0.3815607883
33
0.0000000000
40
0.0000000000
40
0.0000000000
40
0.0000000000
40
0.0000000000
40
0.2949803823
40
0.6290053441
40
0.8927714391
40
1.0000000000
40
1.0000000000
40
1.0000000000
40
1.0000000000
10
-29.6331397778
20
-3.5261275529
30
0.0000000000
10
-29.5492400894
20
-3.5246630784
30
0.0000000000
10
-29.3707746396
20
-3.5249102656
30
0.0000000000
10
-29.1146382174
20
-3.5178993807
30
0.0000000000
10
-28.9194495257
20
-3.5381656362
30
0.0000000000
10
-28.8071754296
20
-3.5183561924
30
0.0000000000
10
-28.7798909737
20
-3.5319942638
30
0.0000000000
11
-29.6331397778
21
-3.5261275529
31
0.0000000000
11
-29.3814135598
21
-3.5237542220
31
0.0000000000
11
-29.0963556734
21
-3.5241784639
31
0.0000000000
11
-28.8712777759
21
-3.5272614964
31
0.0000000000
11
-28.7798909737
21
-3.5319942638
31
0.0000000000
0
SPLINE
5
569
100
AcDbEntity
8
0
100
AcDbSpline
62
0
6
CONTINUOUS
70
0
71
3
72
11
73
7
74
5
42
0.0000001000
43
0.0000001000
44
0.0000000001
12
-0.6037761975
22
-0.6037761975
32
0.0000000000
13
-0.8533483335
23
0.0297995804
33
0.0000000000
40
0.0000000000
40
0.0000000000
40
0.0000000000
40
0.0000000000
40
0.1076424542
40
0.3713663741
40
0.7051629044
40
1.0000000000
40
1.0000000000
40
1.0000000000
40
1.0000000000
10
-28.7798909737
20
-29.5188661937
30
0.0000000000
10
-28.8015549576
20
-29.5405301776
30
0.0000000000
10
-28.9256810498
20
-29.5131846224
30
0.0000000000
10
-29.1117027166
20
-29.5439505964
30
0.0000000000
10
-29.3716217720
20
-29.5338955385
30
0.0000000000
10
-29.5492735298
20
-29.5335318654
30
0.0000000000
10
-29.6331397778
20
-29.5306031915
30
0.0000000000
11
-28.7798909737
21
-29.5188661937
31
0.0000000000
11
-28.8713142882
21
-29.5283364170
31
0.0000000000
11
-29.0964153723
21
-29.5345033784
31
0.0000000000
11
-29.3814324497
21
-29.5353511627
31
0.0000000000
11
-29.6331397778
21
-29.5306031915
31
0.0000000000
0
SPLINE
5
56A
100
AcDbEntity
8
0
100
AcDbSpline
62
0
6
CONTINUOUS
70
0
71
3
72
11
73
7
74
5
42
0.0000001000
43
0.0000001000
44
0.0000000001
12
0.8533483335
22
0.0297995804
32
0.0000000000
13
0.6037761975
23
-0.6037761975
33
0.0000000000
40
0.0000000000
40
0.0000000000
40
0.0000000000
40
0.0000000000
40
0.2948370956
40
0.6286336259
40
0.8923575458
40
1.0000000000
40
1.0000000000
40
1.0000000000
40
1.0000000000
10
-29.6331397778
20
-8.4897001101
30
0.0000000000
10
-29.5492735298
20
-8.4867714362
30
0.0000000000
10
-29.3716217720
20
-8.4864077631
30
0.0000000000
10
-29.1117027166
20
-8.4763527052
30
0.0000000000
10
-28.9256810498
20
-8.5071186793
30
0.0000000000
10
-28.8015549576
20
-8.4797731241
30
0.0000000000
10
-28.7798909737
20
-8.5014371080
30
0.0000000000
11
-29.6331397778
21
-8.4897001101
31
0.0000000000
11
-29.3814324497
21
-8.4849521389
31
0.0000000000
11
-29.0964153723
21
-8.4857999232
31
0.0000000000
11
-28.8713142882
21
-8.4919668847
31
0.0000000000
11
-28.7798909737
21
-8.5014371080
31
0.0000000000
0
SPLINE
5
56B
100
AcDbEntity
8
0
100
AcDbSpline
62
0
6
CONTINUOUS
70
0
71
3
72
11
73
7
74
5
42
0.0000001000
43
0.0000001000
44
0.0000000001
12
-0.6037761975
22
-0.6037761975
32
0.0000000000
13
-0.8533483335
23
0.0297995804
33
0.0000000000
40
0.0000000000
40
0.0000000000
40
0.0000000000
40
0.0000000000
40
0.1076424542
40
0.3713663741
40
0.7051629044
40
1.0000000000
40
1.0000000000
40
1.0000000000
40
1.0000000000
10
-28.7798909737
20
8.8763714979
30
0.0000000000
10
-28.8015549576
20
8.8547075140
30
0.0000000000
10
-28.9256810498
20
8.8820530692
30
0.0000000000
10
-29.1117027166
20
8.8512870951
30
0.0000000000
10
-29.3716217720
20
8.8613421530
30
0.0000000000
10
-29.5492735298
20
8.8617058261
30
0.0000000000
10
-29.6331397778
20
8.8646345000
30
0.0000000000
11
-28.7798909737
21
8.8763714979
31
0.0000000000
11
-28.8713142882
21
8.8669012746
31
0.0000000000
11
-29.0964153723
21
8.8607343131
31
0.0000000000
11
-29.3814324497
21
8.8598865288
31
0.0000000000
11
-29.6331397778
21
8.8646345000
31
0.0000000000
0
SPLINE
5
56C
100
AcDbEntity
8
0
100
AcDbSpline
62
0
6
CONTINUOUS
70
0
71
3
72
11
73
7
74
5
42
0.0000001000
43
0.0000001000
44
0.0000000001
12
0.8533483335
22
0.0297995804
32
0.0000000000
13
0.6037761975
23
-0.6037761975
33
0.0000000000
40
0.0000000000
40
0.0000000000
40
0.0000000000
40
0.0000000000
40
0.2948370956
40
0.6286336259
40
0.8923575458
40
1.0000000000
40
1.0000000000
40
1.0000000000
40
1.0000000000
10
-29.6331397778
20
29.9055375814
30
0.0000000000
10
-29.5492735298
20
29.9084662553
30
0.0000000000
10
-29.3716217720
20
29.9088299284
30
0.0000000000
10
-29.1117027166
20
29.9188849863
30
0.0000000000
10
-28.9256810498
20
29.8881190123
30
0.0000000000
10
-28.8015549576
20
29.9154645675
30
0.0000000000
10
-28.7798909737
20
29.8938005836
30
0.0000000000
11
-29.6331397778
21
29.9055375814
31
0.0000000000
11
-29.3814324497
21
29.9102855526
31
0.0000000000
11
-29.0964153723
21
29.9094377683
31
0.0000000000
11
-28.8713142882
21
29.9032708069
31
0.0000000000
11
-28.7798909737
21
29.8938005836
31
0.0000000000
0
SPLINE
5
56D
100
AcDbEntity
8
0
100
AcDbSpline
62
0
6
CONTINUOUS
70
0
71
3
72
10
73
6
74
4
42
0.0000001000
43
0.0000001000
44
0.0000000001
12
0.6854239192
22
0.0000000000
32
0.0000000000
13
0.1275610474
23
-0.6811550532
33
0.0000000000
40
0.0000000000
40
0.0000000000
40
0.0000000000
40
0.0000000000
40
0.3775703482
40
0.7550849595
40
1.0000000000
40
1.0000000000
40
1.0000000000
40
1.0000000000
10
32.7162175529
20
31.6874671950
30
0.0000000000
10
32.8024828022
20
31.6874671950
30
0.0000000000
10
32.9783163670
20
31.6406120736
30
0.0000000000
10
33.1469199109
20
31.4720086731
30
0.0000000000
10
33.1971948317
20
31.3340931406
30
0.0000000000
10
33.2076087047
20
31.2784847681
30
0.0000000000
11
32.7162175529
21
31.6874671950
31
0.0000000000
11
32.9661966641
21
31.6204919528
31
0.0000000000
11
33.1491659534
21
31.4375228135
31
0.0000000000
11
33.2076087047
21
31.2784847681
31
0.0000000000
0
SPLINE
5
56E
100
AcDbEntity
8
0
100
AcDbSpline
62
0
6
CONTINUOUS
70
0
71
3
72
8
73
4
74
2
42
0.0000001000
43
0.0000001000
44
0.0000000001
12
0.0169217237
22
-0.0903592265
32
0.0000000000
13
0.0000000000
23
-0.0909255167
33
0.0000000000
40
0.0000000000
40
0.0000000000
40
0.0000000000
40
0.0000000000
40
1.0000000000
40
1.0000000000
40
1.0000000000
40
1.0000000000
10
33.2076087047
20
31.2784847681
30
0.0000000000
10
33.2132492793
20
31.2483650259
30
0.0000000000
10
33.2161414005
20
31.2178518529
30
0.0000000000
10
33.2161414005
20
31.1875433474
30
0.0000000000
11
33.2076087047
21
31.2784847681
31
0.0000000000
11
33.2161414005
21
31.1875433474
31
0.0000000000
0
SPLINE
5
56F
100
AcDbEntity
8
0
100
AcDbSpline
62
0
6
CONTINUOUS
70
0
71
3
72
10
73
6
74
4
42
0.0000001000
43
0.0000001000
44
0.0000000001
12
0.0000000000
22
-0.6854239192
32
0.0000000000
13
-0.6811550532
23
-0.1275610474
33
0.0000000000
40
0.0000000000
40
0.0000000000
40
0.0000000000
40
0.0000000000
40
0.3775703482
40
0.7550849595
40
1.0000000000
40
1.0000000000
40
1.0000000000
40
1.0000000000
10
33.2161414005
20
-30.8126089575
30
0.0000000000
10
33.2161414005
20
-30.8988742068
30
0.0000000000
10
33.1692862791
20
-31.0747077716
30
0.0000000000
10
33.0006828786
20
-31.2433113155
30
0.0000000000
10
32.8627673461
20
-31.2935862363
30
0.0000000000
10
32.8071589736
20
-31.3040001093
30
0.0000000000
11
33.2161414005
21
-30.8126089575
31
0.0000000000
11
33.1491661583
21
-31.0625880687
31
0.0000000000
11
32.9661970190
21
-31.2455573580
31
0.0000000000
11
32.8071589736
21
-31.3040001093
31
0.0000000000
0
SPLINE
5
570
100
AcDbEntity
8
0
100
AcDbSpline
62
0
6
CONTINUOUS
70
0
71
3
72
8
73
4
74
2
42
0.0000001000
43
0.0000001000
44
0.0000000001
12
-0.0903592265
22
-0.0169217237
32
0.0000000000
13
-0.0909255167
23
0.0000000000
33
0.0000000000
40
0.0000000000
40
0.0000000000
40
0.0000000000
40
0.0000000000
40
1.0000000000
40
1.0000000000
40
1.0000000000
40
1.0000000000
10
32.8071589736
20
-31.3040001093
30
0.0000000000
10
32.7770392314
20
-31.3096406839
30
0.0000000000
10
32.7465260585
20
-31.3125328050
30
0.0000000000
10
32.7162175529
20
-31.3125328050
30
0.0000000000
11
32.8071589736
21
-31.3040001093
31
0.0000000000
11
32.7162175529
21
-31.3125328050
31
0.0000000000
0
SPLINE
5
571
100
AcDbEntity
8
0
100
AcDbSpline
62
0
6
CONTINUOUS
70
0
71
3
72
10
73
6
74
4
42
0.0000001000
43
0.0000001000
44
0.0000000001
12
-0.6854239192
22
0.0000000000
32
0.0000000000
13
-0.1275610474
23
0.6811550532
33
0.0000000000
40
0.0000000000
40
0.0000000000
40
0.0000000000
40
0.0000000000
40
0.3775703482
40
0.7550849595
40
1.0000000000
40
1.0000000000
40
1.0000000000
40
1.0000000000
10
-1.2839347520
20
-31.3125328050
30
0.0000000000
10
-1.3702000013
20
-31.3125328050
30
0.0000000000
10
-1.5460335661
20
-31.2656776836
30
0.0000000000
10
-1.7146371100
20
-31.0970742832
30
0.0000000000
10
-1.7649120308
20
-30.9591587507
30
0.0000000000
10
-1.7753259038
20
-30.9035503782
30
0.0000000000
11
-1.2839347520
21
-31.3125328050
31
0.0000000000
11
-1.5339138632
21
-31.2455575629
31
0.0000000000
11
-1.7168831525
21
-31.0625884236
31
0.0000000000
11
-1.7753259038
21
-30.9035503782
31
0.0000000000
0
SPLINE
5
572
100
AcDbEntity
8
0
100
AcDbSpline
62
0
6
CONTINUOUS
70
0
71
3
72
8
73
4
74
2
42
0.0000001000
43
0.0000001000
44
0.0000000001
12
-0.0169217237
22
0.0903592265
32
0.0000000000
13
0.0000000000
23
0.0909255167
33
0.0000000000
40
0.0000000000
40
0.0000000000
40
0.0000000000
40
0.0000000000
40
1.0000000000
40
1.0000000000
40
1.0000000000
40
1.0000000000
10
-1.7753259038
20
-30.9035503782
30
0.0000000000
10
-1.7809664783
20
-30.8734306360
30
0.0000000000
10
-1.7838585995
20
-30.8429174630
30
0.0000000000
10
-1.7838585995
20
-30.8126089575
30
0.0000000000
11
-1.7753259038
21
-30.9035503782
31
0.0000000000
11
-1.7838585995
21
-30.8126089575
31
0.0000000000
0
SPLINE
5
573
100
AcDbEntity
8
0
100
AcDbSpline
62
0
6
CONTINUOUS
70
0
71
3
72
10
73
6
74
4
42
0.0000001000
43
0.0000001000
44
0.0000000001
12
-0.0000000000
22
0.6854239192
32
0.0000000000
13
0.6811550532
23
0.1275610474
33
0.0000000000
40
0.0000000000
40
0.0000000000
40
0.0000000000
40
0.0000000000
40
0.3775703482
40
0.7550849595
40
1.0000000000
40
1.0000000000
40
1.0000000000
40
1.0000000000
10
-1.7838585995
20
31.1875433474
30
0.0000000000
10
-1.7838585995
20
31.2738085967
30
0.0000000000
10
-1.7370034781
20
31.4496421615
30
0.0000000000
10
-1.5684000777
20
31.6182457054
30
0.0000000000
10
-1.4304845452
20
31.6685206262
30
0.0000000000
10
-1.3748761727
20
31.6789344992
30
0.0000000000
11
-1.7838585995
21
31.1875433474
31
0.0000000000
11
-1.7168833574
21
31.4375224586
31
0.0000000000
11
-1.5339142181
21
31.6204917479
31
0.0000000000
11
-1.3748761727
21
31.6789344992
31
0.0000000000
0
SPLINE
5
574
100
AcDbEntity
8
0
100
AcDbSpline
62
0
6
CONTINUOUS
70
0
71
3
72
8
73
4
74
2
42
0.0000001000
43
0.0000001000
44
0.0000000001
12
0.0903592265
22
0.0169217237
32
0.0000000000
13
0.0909255167
23
0.0000000000
33
0.0000000000
40
0.0000000000
40
0.0000000000
40
0.0000000000
40
0.0000000000
40
1.0000000000
40
1.0000000000
40
1.0000000000
40
1.0000000000
10
-1.3748761727
20
31.6789344992
30
0.0000000000
10
-1.3447564305
20
31.6845750738
30
0.0000000000
10
-1.3142432575
20
31.6874671950
30
0.0000000000
10
-1.2839347520
20
31.6874671950
30
0.0000000000
11
-1.3748761727
21
31.6789344992
31
0.0000000000
11
-1.2839347520
21
31.6874671950
31
0.0000000000
0
SPLINE
5
575
100
AcDbEntity
8
0
100
AcDbSpline
62
0
6
CONTINUOUS
70
0
71
3
72
11
73
7
74
5
42
0.0000001000
43
0.0000001000
44
0.0000000001
12
-2.7575058240
22
-2.7671056805
32
0.0000000000
13
-2.7575058240
23
2.7671056805
33
0.0000000000
40
0.0000000000
40
0.0000000000
40
0.0000000000
40
0.0000000000
40
0.2507022751
40
0.5000000847
40
0.7492979157
40
1.0000000000
40
1.0000000000
40
1.0000000000
40
1.0000000000
10
17.4852424658
20
-2.5816338704
30
0.0000000000
10
17.2548048046
20
-2.8128737669
30
0.0000000000
10
16.6973672167
20
-3.1867326377
30
0.0000000000
10
15.7161410273
20
-3.3807842584
30
0.0000000000
10
14.7349151334
20
-3.1867324015
30
0.0000000000
10
14.1774778209
20
-2.8128735909
30
0.0000000000
10
13.9470403351
20
-2.5816338704
30
0.0000000000
11
17.4852424658
21
-2.5816338704
31
0.0000000000
11
16.6713329679
21
-3.1263466189
31
0.0000000000
11
15.7161410629
21
-3.3162215783
31
0.0000000000
11
14.7609491305
21
-3.1263463281
31
0.0000000000
11
13.9470403351
21
-2.5816338704
31
0.0000000000
0
SPLINE
5
576
100
AcDbEntity
8
0
100
AcDbSpline
62
0
6
CONTINUOUS
70
0
71
3
72
9
73
5
74
3
42
0.0000001000
43
0.0000001000
44
0.0000000001
12
-0.4548262663
22
-0.0649840170
32
0.0000000000
13
-0.3248767882
23
0.3248767881
33
0.0000000000
40
0.0000000000
40
0.0000000000
40
0.0000000000
40
0.0000000000
40
0.5029541868
40
1.0000000000
40
1.0000000000
40
1.0000000000
40
1.0000000000
10
15.5039810951
20
0.6723873965
30
0.0000000000
10
15.4277288368
20
0.6614927353
30
0.0000000000
10
15.2688012287
20
0.6756034751
30
0.0000000000
10
15.1335984374
20
0.7599596516
30
0.0000000000
10
15.0797722217
20
0.8137858674
30
0.0000000000
11
15.5039810951
21
0.6723873965
31
0.0000000000
11
15.2738637238
21
0.6934563370
31
0.0000000000
11
15.0797722217
21
0.8137858674
31
0.0000000000
0
SPLINE
5
577
100
AcDbEntity
8
0
100
AcDbSpline
62
0
6
CONTINUOUS
70
0
71
3
72
9
73
5
74
3
42
0.0000001000
43
0.0000001000
44
0.0000000001
12
-0.3248765418
22
-0.3248765418
32
0.0000000000
13
-0.4548259214
23
0.0649839677
33
0.0000000000
40
0.0000000000
40
0.0000000000
40
0.0000000000
40
0.0000000000
40
0.5039407553
40
1.0000000000
40
1.0000000000
40
1.0000000000
40
1.0000000000
10
16.3525105793
20
0.8137858674
30
0.0000000000
10
16.2979377360
20
0.7592130241
30
0.0000000000
10
16.1622595052
20
0.6751962737
30
0.0000000000
10
16.0035085735
20
0.6616420971
30
0.0000000000
10
15.9283017058
20
0.6723873965
30
0.0000000000
11
16.3525105793
21
0.8137858674
31
0.0000000000
11
16.1553306984
21
0.6924285083
31
0.0000000000
11
15.9283017058
21
0.6723873965
31
0.0000000000
0
SPLINE
5
578
100
AcDbEntity
8
0
100
AcDbSpline
62
0
6
CONTINUOUS
70
0
71
3
72
10
73
6
74
4
42
0.0000001000
43
0.0000001000
44
0.0000000001
12
-0.7762702985
22
-0.0002364414
32
0.0000000000
13
-0.0002364414
23
-0.7762702985
33
0.0000000000
40
0.0000000000
40
0.0000000000
40
0.0000000000
40
0.0000000000
40
0.3341242308
40
0.6682605294
40
1.0000000000
40
1.0000000000
40
1.0000000000
40
1.0000000000
10
-1.1808694255
20
31.5844018685
30
0.0000000000
10
-1.2673263310
20
31.5843755349
30
0.0000000000
10
-1.4435603139
20
31.5372375932
30
0.0000000000
10
-1.6341707393
20
31.3458677637
30
0.0000000000
10
-1.6807671275
20
31.1703178536
30
0.0000000000
10
-1.6807932731
20
31.0844780210
30
0.0000000000
11
-1.1808694255
21
31.5844018685
31
0.0000000000
11
-1.4313434328
21
31.5170524331
31
0.0000000000
11
-1.6144011526
21
31.3332919761
31
0.0000000000
11
-1.6807932731
21
31.0844780210
31
0.0000000000
0
SPLINE
5
579
100
AcDbEntity
8
0
100
AcDbSpline
62
0
6
CONTINUOUS
70
0
71
3
72
9
73
5
74
3
42
0.0000001000
43
0.0000001000
44
0.0000000001
12
0.0001047892
22
-0.3440376361
32
0.0000000000
13
0.2230929307
23
-0.2669153028
33
0.0000000000
40
0.0000000000
40
0.0000000000
40
0.0000000000
40
0.0000000000
40
0.7492071637
40
1.0000000000
40
1.0000000000
40
1.0000000000
40
1.0000000000
10
-1.7536779473
20
-30.7824283053
30
0.0000000000
10
-1.7536517777
20
-30.8683467925
30
0.0000000000
10
-1.7226055832
20
-30.9851941773
30
0.0000000000
10
-1.6559863871
20
-31.0807012246
30
0.0000000000
10
-1.6373363508
20
-31.1030147065
30
0.0000000000
11
-1.7536779473
21
-30.7824283053
31
0.0000000000
11
-1.6871641846
21
-31.0314540138
31
0.0000000000
11
-1.6373363508
21
-31.1030147065
31
0.0000000000
0
SPLINE
5
57A
100
AcDbEntity
8
0
100
AcDbSpline
62
0
6
CONTINUOUS
70
0
71
3
72
9
73
5
74
3
42
0.0000001000
43
0.0000001000
44
0.0000000001
12
0.2802835081
22
-0.3353398836
32
0.0000000000
13
0.4322327707
23
-0.0001316523
33
0.0000000000
40
0.0000000000
40
0.0000000000
40
0.0000000000
40
0.0000000000
40
0.4002060150
40
1.0000000000
40
1.0000000000
40
1.0000000000
40
1.0000000000
10
-1.6373363508
20
-31.1030147065
30
0.0000000000
10
-1.5999459688
20
-31.1477497193
30
0.0000000000
10
-1.4870098171
20
-31.2430686836
30
0.0000000000
10
-1.3401709718
20
-31.2823258314
30
0.0000000000
10
-1.2537540998
20
-31.2823521528
30
0.0000000000
11
-1.6373363508
21
-31.1030147065
31
0.0000000000
11
-1.5041204944
21
-31.2150650324
31
0.0000000000
11
-1.2537540998
21
-31.2823521528
31
0.0000000000
0
SPLINE
5
57B
100
AcDbEntity
8
0
100
AcDbSpline
62
0
6
CONTINUOUS
70
0
71
3
72
10
73
6
74
4
42
0.0000001000
43
0.0000001000
44
0.0000000001
12
0.7146743985
22
0.0002176802
32
0.0000000000
13
0.0910332878
23
0.7146706309
33
0.0000000000
40
0.0000000000
40
0.0000000000
40
0.0000000000
40
0.0000000000
40
0.3627533681
40
0.7255262202
40
1.0000000000
40
1.0000000000
40
1.0000000000
40
1.0000000000
10
32.6860369007
20
-31.2823521528
30
0.0000000000
10
32.7724537491
20
-31.2823258314
30
0.0000000000
10
32.9486045411
20
-31.2352321934
30
0.0000000000
10
33.1241486538
20
-31.0591234275
30
0.0000000000
10
33.1736773635
20
-30.9095030870
30
0.0000000000
10
33.1820061137
20
-30.8441169705
30
0.0000000000
11
32.6860369007
21
-31.2823521528
31
0.0000000000
11
32.9364032318
21
-31.2150650691
31
0.0000000000
11
33.1194470215
21
-31.0314539512
31
0.0000000000
11
33.1820061137
21
-30.8441169705
31
0.0000000000
0
SPLINE
5
57C
100
AcDbEntity
8
0
100
AcDbSpline
62
0
6
CONTINUOUS
70
0
71
3
72
8
73
4
74
2
42
0.0000001000
43
0.0000001000
44
0.0000000001
12
0.0078459326
22
0.0615956836
32
0.0000000000
13
0.0000187613
23
0.0615960083
33
0.0000000000
40
0.0000000000
40
0.0000000000
40
0.0000000000
40
0.0000000000
40
1.0000000000
40
1.0000000000
40
1.0000000000
40
1.0000000000
10
33.1820061137
20
-30.8441169705
30
0.0000000000
10
33.1846214246
20
-30.8235850760
30
0.0000000000
10
33.1859544945
20
-30.8029603081
30
0.0000000000
10
33.1859607483
20
-30.7824283053
30
0.0000000000
11
33.1820061137
21
-30.8441169705
31
0.0000000000
11
33.1859607483
21
-30.7824283053
31
0.0000000000
0
SPLINE
5
57D
100
AcDbEntity
8
0
100
AcDbSpline
62
0
6
CONTINUOUS
70
0
71
3
72
9
73
5
74
3
42
0.0000001000
43
0.0000001000
44
0.0000000001
12
-0.0001047212
22
0.3438141759
32
0.0000000000
13
-0.2228274534
23
0.2668468347
33
0.0000000000
40
0.0000000000
40
0.0000000000
40
0.0000000000
40
0.0000000000
40
0.7490080852
40
1.0000000000
40
1.0000000000
40
1.0000000000
40
1.0000000000
10
33.1130760740
20
31.0844780210
30
0.0000000000
10
33.1130499284
20
31.1703178868
30
0.0000000000
10
33.0820564684
20
31.2870843751
30
0.0000000000
10
33.0155249406
20
31.3825609709
30
0.0000000000
10
32.9968823109
20
31.4048864369
30
0.0000000000
11
33.1130760740
21
31.0844780210
31
0.0000000000
11
33.0466839022
21
31.3332920656
31
0.0000000000
11
32.9968823109
21
31.4048864369
31
0.0000000000
0
SPLINE
5
57E
100
AcDbEntity
8
0
100
AcDbSpline
62
0
6
CONTINUOUS
70
0
71
3
72
9
73
5
74
3
42
0.0000001000
43
0.0000001000
44
0.0000000001
12
-0.2802766822
22
0.3356451117
32
0.0000000000
13
-0.4324561226
23
0.0001317203
33
0.0000000000
40
0.0000000000
40
0.0000000000
40
0.0000000000
40
0.0000000000
40
0.4002378664
40
1.0000000000
40
1.0000000000
40
1.0000000000
40
1.0000000000
10
32.9968823109
20
31.4048864369
30
0.0000000000
10
32.9594898638
20
31.4496657313
30
0.0000000000
10
32.8465264611
20
31.5450790164
30
0.0000000000
10
32.6996091621
20
31.5843755349
30
0.0000000000
10
32.6131522265
20
31.5844018685
30
0.0000000000
11
32.9968823109
21
31.4048864369
31
0.0000000000
11
32.8636263147
21
31.5170523861
31
0.0000000000
11
32.6131522265
21
31.5844018685
31
0.0000000000
0
SPLINE
5
57F
100
AcDbEntity
8
0
100
AcDbSpline
62
0
6
CONTINUOUS
70
0
71
3
72
8
73
4
74
2
42
0.0000001000
43
0.0000001000
44
0.0000000001
12
0.0000118135
22
0.7246779255
32
0.0000000000
13
0.2055806177
23
0.7023369736
33
0.0000000000
40
0.0000000000
40
0.0000000000
40
0.0000000000
40
0.0000000000
40
1.0000000000
40
1.0000000000
40
1.0000000000
40
1.0000000000
10
13.2161414005
20
8.1874671950
30
0.0000000000
10
13.2161453383
20
8.4290265035
30
0.0000000000
10
13.2499768899
20
8.6736507323
30
0.0000000000
10
13.3185037624
20
8.9077630569
30
0.0000000000
11
13.2161414005
21
8.1874671950
31
0.0000000000
11
13.3185037624
21
8.9077630569
31
0.0000000000
0
SPLINE
5
580
100
AcDbEntity
8
0
100
AcDbSpline
62
0
6
CONTINUOUS
70
0
71
3
72
14
73
10
74
8
42
0.0000001000
43
0.0000001000
44
0.0000000001
12
1.7985993917
22
6.1446592962
32
0.0000000000
13
1.8193928987
23
-6.1408449169
33
0.0000000000
40
0.0000000000
40
0.0000000000
40
0.0000000000
40
0.0000000000
40
0.0550318746
40
0.2270706402
40
0.4073347443
40
0.5872071318
40
0.7671456492
40
0.9443966399
40
1.0000000000
40
1.0000000000
40
1.0000000000
40
1.0000000000
10
13.3185037624
20
8.9077630569
30
0.0000000000
10
13.3514971945
20
9.0204804302
30
0.0000000000
10
13.5208192487
20
9.4755164859
30
0.0000000000
10
14.0731520455
20
10.1710908207
30
0.0000000000
10
15.1046394283
20
10.7084728272
30
0.0000000000
10
16.2902278651
20
10.7133594292
30
0.0000000000
10
17.3431389828
20
10.1944817364
30
0.0000000000
10
17.9029317225
20
9.4868687974
30
0.0000000000
10
18.0781191469
20
9.0202471493
30
0.0000000000
10
18.1118405997
20
8.9064299456
30
0.0000000000
11
13.3185037624
21
8.9077630569
31
0.0000000000
11
13.4417091252
21
9.2370895687
31
0.0000000000
11
14.1109166886
21
10.0984188068
31
0.0000000000
11
15.1285861507
21
10.6185718888
31
0.0000000000
11
16.2689761359
21
10.6256701333
31
0.0000000000
11
17.2936220610
21
10.1240757855
31
0.0000000000
11
17.9864365450
21
9.2392499258
31
0.0000000000
11
18.1118405997
21
8.9064299456
31
0.0000000000
0
SPLINE
5
581
100
AcDbEntity
8
0
100
AcDbSpline
62
0
6
CONTINUOUS
70
0
71
3
72
8
73
4
74
2
42
0.0000001000
43
0.0000001000
44
0.0000000001
12
0.2077748361
22
-0.7012850532
32
0.0000000000
13
0.0000027087
23
-0.7240420030
33
0.0000000000
40
0.0000000000
40
0.0000000000
40
0.0000000000
40
0.0000000000
40
1.0000000000
40
1.0000000000
40
1.0000000000
40
1.0000000000
10
18.1118405997
20
8.9064299456
30
0.0000000000
10
18.1810988784
20
8.6726682612
30
0.0000000000
10
18.2161404976
20
8.4288145293
30
0.0000000000
10
18.2161414005
20
8.1874671950
30
0.0000000000
11
18.1118405997
21
8.9064299456
31
0.0000000000
11
18.2161414005
21
8.1874671950
31
0.0000000000
0
SPLINE
5
582
100
AcDbEntity
8
0
100
AcDbSpline
62
0
6
CONTINUOUS
70
0
71
3
72
8
73
4
74
2
42
0.0000001000
43
0.0000001000
44
0.0000000001
12
-0.0000118135
22
-0.7246779255
32
0.0000000000
13
-0.2055806177
23
-0.7023369736
33
0.0000000000
40
0.0000000000
40
0.0000000000
40
0.0000000000
40
0.0000000000
40
1.0000000000
40
1.0000000000
40
1.0000000000
40
1.0000000000
10
18.2161414005
20
8.1874671950
30
0.0000000000
10
18.2161374626
20
7.9459078864
30
0.0000000000
10
18.1823059111
20
7.7012836576
30
0.0000000000
10
18.1137790385
20
7.4671713330
30
0.0000000000
11
18.2161414005
21
8.1874671950
31
0.0000000000
11
18.1137790385
21
7.4671713330
31
0.0000000000
0
SPLINE
5
583
100
AcDbEntity
8
0
100
AcDbSpline
62
0
6
CONTINUOUS
70
0
71
3
72
14
73
10
74
8
42
0.0000001000
43
0.0000001000
44
0.0000000001
12
-1.7985993917
22
-6.1446592962
32
0.0000000000
13
-1.8193928987
23
6.1408449169
33
0.0000000000
40
0.0000000000
40
0.0000000000
40
0.0000000000
40
0.0000000000
40
0.0550318746
40
0.2270706402
40
0.4073347443
40
0.5872071318
40
0.7671456492
40
0.9443966399
40
1.0000000000
40
1.0000000000
40
1.0000000000
40
1.0000000000
10
18.1137790385
20
7.4671713330
30
0.0000000000
10
18.0807856064
20
7.3544539597
30
0.0000000000
10
17.9114635523
20
6.8994179040
30
0.0000000000
10
17.3591307554
20
6.2038435692
30
0.0000000000
10
16.3276433726
20
5.6664615627
30
0.0000000000
10
15.1420549358
20
5.6615749607
30
0.0000000000
10
14.0891438181
20
6.1804526535
30
0.0000000000
10
13.5293510784
20
6.8880655925
30
0.0000000000
10
13.3541636540
20
7.3546872407
30
0.0000000000
10
13.3204422012
20
7.4685044443
30
0.0000000000
11
18.1137790385
21
7.4671713330
31
0.0000000000
11
17.9905736757
21
7.1378448212
31
0.0000000000
11
17.3213661124
21
6.2765155831
31
0.0000000000
11
16.3036966503
21
5.7563625011
31
0.0000000000
11
15.1633066650
21
5.7492642566
31
0.0000000000
11
14.1386607399
21
6.2508586044
31
0.0000000000
11
13.4458462560
21
7.1356844641
31
0.0000000000
11
13.3204422012
21
7.4685044443
31
0.0000000000
0
SPLINE
5
584
100
AcDbEntity
8
0
100
AcDbSpline
62
0
6
CONTINUOUS
70
0
71
3
72
8
73
4
74
2
42
0.0000001000
43
0.0000001000
44
0.0000000001
12
-0.2077748361
22
0.7012850532
32
0.0000000000
13
-0.0000027087
23
0.7240420030
33
0.0000000000
40
0.0000000000
40
0.0000000000
40
0.0000000000
40
0.0000000000
40
1.0000000000
40
1.0000000000
40
1.0000000000
40
1.0000000000
10
13.3204422012
20
7.4685044443
30
0.0000000000
10
13.2511839225
20
7.7022661287
30
0.0000000000
10
13.2161423034
20
7.9461198606
30
0.0000000000
10
13.2161414005
20
8.1874671950
30
0.0000000000
11
13.3204422012
21
7.4685044443
31
0.0000000000
11
13.2161414005
21
8.1874671950
31
0.0000000000
0
SPLINE
5
585
100
AcDbEntity
8
0
100
AcDbSpline
62
0
6
CONTINUOUS
70
0
71
3
72
14
73
10
74
8
42
0.0000001000
43
0.0000001000
44
0.0000000001
12
0.0736091420
22
-7.7884004139
32
0.0000000000
13
0.0639530922
23
7.7884856882
33
0.0000000000
40
0.0000000000
40
0.0000000000
40
0.0000000000
40
0.0000000000
40
0.1368636236
40
0.2768645257
40
0.4239044439
40
0.5707093262
40
0.7175572561
40
0.8621271832
40
1.0000000000
40
1.0000000000
40
1.0000000000
40
1.0000000000
10
18.2161414005
20
-7.8821193555
30
0.0000000000
10
18.2194995384
20
-8.2374355898
30
0.0000000000
10
18.0667043456
20
-8.9696244279
30
0.0000000000
10
17.3653191827
20
-9.8610335470
30
0.0000000000
10
16.3330898497
20
-10.4022464244
30
0.0000000000
10
15.1446568407
20
-10.4091105526
30
0.0000000000
10
14.0883167426
20
-9.8892435322
30
0.0000000000
10
13.3754443831
20
-8.9846228964
30
0.0000000000
10
13.2132022695
20
-8.2400595091
30
0.0000000000
10
13.2161414005
20
-7.8821193555
30
0.0000000000
11
18.2161414005
21
-7.8821193555
31
0.0000000000
11
17.9938306368
21
-8.9246768146
31
0.0000000000
11
17.3274824733
21
-9.7878231484
31
0.0000000000
11
16.3091705648
21
-10.3118977972
31
0.0000000000
11
15.1657797453
21
-10.3209016324
31
0.0000000000
11
14.1383186731
21
-9.8183936777
31
0.0000000000
11
13.4446977643
21
-8.9313715258
31
0.0000000000
11
13.2161414005
21
-7.8821193555
31
0.0000000000
0
SPLINE
5
586
100
AcDbEntity
8
0
100
AcDbSpline
62
0
6
CONTINUOUS
70
0
71
3
72
8
73
4
74
2
42
0.0000001000
43
0.0000001000
44
0.0000000001
12
-0.0071430890
22
0.7207776078
32
0.0000000000
13
0.2057584000
23
0.6988584734
33
0.0000000000
40
0.0000000000
40
0.0000000000
40
0.0000000000
40
0.0000000000
40
1.0000000000
40
1.0000000000
40
1.0000000000
40
1.0000000000
10
13.2161414005
20
-7.8821193555
30
0.0000000000
10
13.2137603708
20
-7.6418601529
30
0.0000000000
10
13.2475880988
20
-7.3985623293
30
0.0000000000
10
13.3161742321
20
-7.1656095048
30
0.0000000000
11
13.2161414005
21
-7.8821193555
31
0.0000000000
11
13.3161742321
21
-7.1656095048
31
0.0000000000
0
SPLINE
5
587
100
AcDbEntity
8
0
100
AcDbSpline
62
0
6
CONTINUOUS
70
0
71
3
72
14
73
10
74
8
42
0.0000001000
43
0.0000001000
44
0.0000000001
12
1.8114215676
22
6.1524939516
32
0.0000000000
13
1.8341849440
23
-6.1474510631
33
0.0000000000
40
0.0000000000
40
0.0000000000
40
0.0000000000
40
0.0000000000
40
0.0547426569
40
0.2265334677
40
0.4069245373
40
0.5870284436
40
0.7671859660
40
0.9445493611
40
1.0000000000
40
1.0000000000
40
1.0000000000
40
1.0000000000
10
13.3161742321
20
-7.1656095048
30
0.0000000000
10
13.3492282419
20
-7.0533415497
30
0.0000000000
10
13.5194181269
20
-6.5987025095
30
0.0000000000
10
14.0684687407
20
-5.9020210393
30
0.0000000000
10
15.1006434423
20
-5.3617310988
30
0.0000000000
10
16.2884808619
20
-5.3554076654
30
0.0000000000
10
17.3441848776
20
-5.8752805137
30
0.0000000000
10
17.9028547271
20
-6.5842750805
30
0.0000000000
10
18.0794887761
20
-7.0513679522
30
0.0000000000
10
18.1133910184
20
-7.1649946484
30
0.0000000000
11
13.3161742321
21
-7.1656095048
31
0.0000000000
11
13.4393929480
21
-6.8375119359
31
0.0000000000
11
14.1062942999
21
-5.9751547067
31
0.0000000000
11
15.1244809578
21
-5.4520086190
31
0.0000000000
11
16.2673480944
21
-5.4435269214
31
0.0000000000
11
17.2942178313
21
-5.9460541363
31
0.0000000000
11
17.9875024623
21
-6.8326907910
31
0.0000000000
11
18.1133910184
21
-7.1649946484
31
0.0000000000
0
SPLINE
5
588
100
AcDbEntity
8
0
100
AcDbSpline
62
0
6
CONTINUOUS
70
0
71
3
72
8
73
4
74
2
42
0.0000001000
43
0.0000001000
44
0.0000000001
12
0.2087361308
22
-0.6995996523
32
0.0000000000
13
-0.0060123816
23
-0.7221443622
33
0.0000000000
40
0.0000000000
40
0.0000000000
40
0.0000000000
40
0.0000000000
40
1.0000000000
40
1.0000000000
40
1.0000000000
40
1.0000000000
10
18.1133910184
20
-7.1649946484
30
0.0000000000
10
18.1829697286
20
-7.3981945325
30
0.0000000000
10
18.2181455277
20
-7.6414045681
30
0.0000000000
10
18.2161414005
20
-7.8821193555
30
0.0000000000
11
18.1133910184
21
-7.1649946484
31
0.0000000000
11
18.2161414005
21
-7.8821193555
31
0.0000000000
0
SPLINE
5
589
100
AcDbEntity
8
0
100
AcDbSpline
62
0
6
CONTINUOUS
70
0
71
3
72
10
73
6
74
4
42
0.0000001000
43
0.0000001000
44
0.0000000001
12
0.8440689634
22
0.0000000000
32
0.0000000000
13
-0.0000000000
23
0.8440689634
33
0.0000000000
40
0.0000000000
40
0.0000000000
40
0.0000000000
40
0.0000000000
40
0.3692598388
40
0.7026363497
40
1.0000000000
40
1.0000000000
40
1.0000000000
40
1.0000000000
10
29.5872518518
20
-31.2275967670
30
0.0000000000
10
29.6911454416
20
-31.2275967670
30
0.0000000000
10
29.8904004180
20
-31.1965484383
30
0.0000000000
10
30.1418322465
20
-31.0457427207
30
0.0000000000
10
30.2161414005
20
-30.8654083608
30
0.0000000000
10
30.2161414005
20
-30.7817432181
30
0.0000000000
11
29.5872518518
21
-31.2275967670
31
0.0000000000
11
29.8943372675
21
-31.1742727627
31
0.0000000000
11
30.1273425846
21
-31.0165058114
31
0.0000000000
11
30.2161414005
21
-30.7817432181
31
0.0000000000
0
SPLINE
5
58A
100
AcDbEntity
8
0
100
AcDbSpline
62
0
6
CONTINUOUS
70
0
71
3
72
10
73
6
74
4
42
0.0000001000
43
0.0000001000
44
0.0000000001
12
-0.0000000000
22
-0.8440680619
32
0.0000000000
13
0.8440680619
23
0.0000000000
33
0.0000000000
40
0.0000000000
40
0.0000000000
40
0.0000000000
40
0.0000000000
40
0.2974204782
40
0.6307391829
40
1.0000000000
40
1.0000000000
40
1.0000000000
40
1.0000000000
10
1.2161414005
20
-30.7817432181
30
0.0000000000
10
1.2161414005
20
-30.8654242603
30
0.0000000000
10
1.2904672561
20
-31.0457576390
30
0.0000000000
10
1.5418975875
20
-31.1965497160
30
0.0000000000
10
1.7411371951
20
-31.2275967670
30
0.0000000000
10
1.8450309491
20
-31.2275967670
30
0.0000000000
11
1.2161414005
21
-30.7817432181
31
0.0000000000
11
1.3049727064
21
-31.0165445182
31
0.0000000000
11
1.5379450641
21
-31.1742725846
31
0.0000000000
11
1.8450309491
21
-31.2275967670
31
0.0000000000
0
SPLINE
5
58B
100
AcDbEntity
8
0
100
AcDbSpline
62
0
6
CONTINUOUS
70
0
71
3
72
12
73
8
74
6
42
0.0000001000
43
0.0000001000
44
0.0000000001
12
0.0000000000
22
-1.2360676223
32
0.0000000000
13
0.0000000000
23
1.2360676223
33
0.0000000000
40
0.0000000000
40
0.0000000000
40
0.0000000000
40
0.0000000000
40
0.2020981311
40
0.4024216419
40
0.6015988225
40
0.8012042287
40
1.0000000000
40
1.0000000000
40
1.0000000000
40
1.0000000000
10
27.7661414005
20
-29.4125315985
30
0.0000000000
10
27.7661414005
20
-29.4958005839
30
0.0000000000
10
27.7107452892
20
-29.6662144847
30
0.0000000000
10
27.4953734042
20
-29.8195069005
30
0.0000000000
10
27.2319133356
20
-29.8177926171
30
0.0000000000
10
27.0199305935
20
-29.6629907652
30
0.0000000000
10
26.9661414005
20
-29.4944399373
30
0.0000000000
10
26.9661414005
20
-29.4125315985
30
0.0000000000
11
27.7661414005
21
-29.4125315985
31
0.0000000000
11
27.6881374309
21
-29.6498476244
31
0.0000000000
11
27.4867506875
21
-29.7939162827
31
0.0000000000
11
27.2405594772
21
-29.7923079151
31
0.0000000000
11
27.0416169677
21
-29.6463781773
31
0.0000000000
11
26.9661414005
21
-29.4125315985
31
0.0000000000
0
SPLINE
5
58C
100
AcDbEntity
8
0
100
AcDbSpline
62
0
6
CONTINUOUS
70
0
71
3
72
12
73
8
74
6
42
0.0000001000
43
0.0000001000
44
0.0000000001
12
0.0000000000
22
-1.2360676223
32
0.0000000000
13
0.0000000000
23
1.2360676223
33
0.0000000000
40
0.0000000000
40
0.0000000000
40
0.0000000000
40
0.0000000000
40
0.2020981311
40
0.4024216419
40
0.6015988225
40
0.8012042287
40
1.0000000000
40
1.0000000000
40
1.0000000000
40
1.0000000000
10
4.4661414005
20
-29.4125315985
30
0.0000000000
10
4.4661414005
20
-29.4958005839
30
0.0000000000
10
4.4107452892
20
-29.6662144847
30
0.0000000000
10
4.1953734042
20
-29.8195069005
30
0.0000000000
10
3.9319133356
20
-29.8177926171
30
0.0000000000
10
3.7199305935
20
-29.6629907652
30
0.0000000000
10
3.6661414005
20
-29.4944399373
30
0.0000000000
10
3.6661414005
20
-29.4125315985
30
0.0000000000
11
4.4661414005
21
-29.4125315985
31
0.0000000000
11
4.3881374309
21
-29.6498476244
31
0.0000000000
11
4.1867506875
21
-29.7939162827
31
0.0000000000
11
3.9405594772
21
-29.7923079151
31
0.0000000000
11
3.7416169677
21
-29.6463781773
31
0.0000000000
11
3.6661414005
21
-29.4125315985
31
0.0000000000
0
SPLINE
5
58D
100
AcDbEntity
8
0
100
AcDbSpline
62
0
6
CONTINUOUS
70
0
71
3
72
10
73
6
74
4
42
0.0000001000
43
0.0000001000
44
0.0000000001
12
-0.6652309166
22
-0.0116081121
32
0.0000000000
13
-0.0058064871
23
-0.6653068506
33
0.0000000000
40
0.0000000000
40
0.0000000000
40
0.0000000000
40
0.0000000000
40
0.2842077546
40
0.6215628939
40
1.0000000000
40
1.0000000000
40
1.0000000000
40
1.0000000000
10
-1.1808694255
20
31.5844018685
30
0.0000000000
10
-1.2438906872
20
31.5833021634
30
0.0000000000
10
-1.3813342063
20
31.5223150915
30
0.0000000000
10
-1.5040248599
20
31.3282590050
30
0.0000000000
10
-1.5336903527
20
31.1684036207
30
0.0000000000
10
-1.5344228161
20
31.0844780210
30
0.0000000000
11
-1.1808694255
21
31.5844018685
31
0.0000000000
11
-1.3567900138
21
31.5150625174
31
0.0000000000
11
-1.4860665940
21
31.3315773146
31
0.0000000000
11
-1.5344228161
21
31.0844780210
31
0.0000000000
0
SPLINE
5
58E
100
AcDbEntity
8
0
100
AcDbSpline
62
0
6
CONTINUOUS
70
0
71
3
72
10
73
6
74
4
42
0.0000001000
43
0.0000001000
44
0.0000000001
12
0.0442241741
22
-0.5591609990
32
0.0000000000
13
0.5501202170
23
-0.1410973258
33
0.0000000000
40
0.0000000000
40
0.0000000000
40
0.0000000000
40
0.0000000000
40
0.4167277045
40
0.7866056667
40
1.0000000000
40
1.0000000000
40
1.0000000000
40
1.0000000000
10
-1.6073074904
20
-30.8316334270
30
0.0000000000
10
-1.6011643442
20
-30.9093060535
30
0.0000000000
10
-1.5649858842
20
-31.0553222519
30
0.0000000000
10
-1.4529275764
20
-31.2127554163
30
0.0000000000
10
-1.3503545279
20
-31.2643476010
30
0.0000000000
10
-1.3112236822
20
-31.2743840576
30
0.0000000000
11
-1.6073074904
21
-30.8316334270
31
0.0000000000
11
-1.5482456535
21
-31.0577941570
31
0.0000000000
11
-1.4204277394
21
-31.2212114545
31
0.0000000000
11
-1.3112236822
21
-31.2743840576
31
0.0000000000
0
SPLINE
5
58F
100
AcDbEntity
8
0
100
AcDbSpline
62
0
6
CONTINUOUS
70
0
71
3
72
8
73
4
74
2
42
0.0000001000
43
0.0000001000
44
0.0000000001
12
0.0567271809
22
-0.0145496444
32
0.0000000000
13
0.0578309117
23
-0.0009968626
33
0.0000000000
40
0.0000000000
40
0.0000000000
40
0.0000000000
40
0.0000000000
40
1.0000000000
40
1.0000000000
40
1.0000000000
40
1.0000000000
10
-1.3112236822
20
-31.2743840576
30
0.0000000000
10
-1.2923146219
20
-31.2792339390
30
0.0000000000
10
-1.2730310703
20
-31.2820198653
30
0.0000000000
10
-1.2537540998
20
-31.2823521528
30
0.0000000000
11
-1.3112236822
21
-31.2743840576
31
0.0000000000
11
-1.2537540998
21
-31.2823521528
31
0.0000000000
0
SPLINE
5
590
100
AcDbEntity
8
0
100
AcDbSpline
62
0
6
CONTINUOUS
70
0
71
3
72
10
73
6
74
4
42
0.0000001000
43
0.0000001000
44
0.0000000001
12
0.6186547210
22
0.0106640845
32
0.0000000000
13
0.0487844731
23
0.6168204453
33
0.0000000000
40
0.0000000000
40
0.0000000000
40
0.0000000000
40
0.0000000000
40
0.2869250464
40
0.6222273738
40
1.0000000000
40
1.0000000000
40
1.0000000000
40
1.0000000000
10
32.6860369007
20
-31.2823521528
30
0.0000000000
10
32.7452060789
20
-31.2813322219
30
0.0000000000
10
32.8736551723
20
-31.2289895763
30
0.0000000000
10
32.9972686851
20
-31.0553222519
30
0.0000000000
10
33.0334471451
20
-30.9093060535
30
0.0000000000
10
33.0395902913
20
-30.8316334270
30
0.0000000000
11
32.6860369007
21
-31.2823521528
31
0.0000000000
11
32.8527105403
21
-31.2212114545
31
0.0000000000
11
32.9805284544
21
-31.0577941570
31
0.0000000000
11
33.0395902913
21
-30.8316334270
31
0.0000000000
0
SPLINE
5
591
100
AcDbEntity
8
0
100
AcDbSpline
62
0
6
CONTINUOUS
70
0
71
3
72
10
73
6
74
4
42
0.0000001000
43
0.0000001000
44
0.0000000001
12
-0.0052703390
22
0.6038750403
32
0.0000000000
13
-0.5899538293
23
0.1628149485
33
0.0000000000
40
0.0000000000
40
0.0000000000
40
0.0000000000
40
0.0000000000
40
0.4169352639
40
0.7886093194
40
1.0000000000
40
1.0000000000
40
1.0000000000
40
1.0000000000
10
32.9667056171
20
31.0844780210
30
0.0000000000
10
32.9659731537
20
31.1684036207
30
0.0000000000
10
32.9363076608
20
31.3282590050
30
0.0000000000
10
32.8249457782
20
31.5043967179
30
0.0000000000
10
32.7156590064
20
31.5638663722
30
0.0000000000
10
32.6740887592
20
31.5753388931
30
0.0000000000
11
32.9667056171
21
31.0844780210
31
0.0000000000
11
32.9183493949
21
31.3315773146
31
0.0000000000
11
32.7890728148
21
31.5150625174
31
0.0000000000
11
32.6740887592
21
31.5753388931
31
0.0000000000
0
SPLINE
5
592
100
AcDbEntity
8
0
100
AcDbSpline
62
0
6
CONTINUOUS
70
0
71
3
72
8
73
4
74
2
42
0.0000001000
43
0.0000001000
44
0.0000000001
12
-0.0600156147
22
0.0165630575
32
0.0000000000
13
-0.0614247989
23
0.0010718473
33
0.0000000000
40
0.0000000000
40
0.0000000000
40
0.0000000000
40
0.0000000000
40
1.0000000000
40
1.0000000000
40
1.0000000000
40
1.0000000000
10
32.6740887592
20
31.5753388931
30
0.0000000000
10
32.6540835543
20
31.5808599123
30
0.0000000000
10
32.6336271594
20
31.5840445861
30
0.0000000000
10
32.6131522265
20
31.5844018685
30
0.0000000000
11
32.6740887592
21
31.5753388931
31
0.0000000000
11
32.6131522265
21
31.5844018685
31
0.0000000000
0
SPLINE
5
593
100
AcDbEntity
8
0
100
AcDbSpline
62
0
6
CONTINUOUS
70
0
71
3
72
10
73
6
74
4
42
0.0000001000
43
0.0000001000
44
0.0000000001
12
-0.0191114259
22
-0.1566858832
32
0.0000000000
13
-0.1562340576
23
-0.0225084837
33
0.0000000000
40
0.0000000000
40
0.0000000000
40
0.0000000000
40
0.0000000000
40
0.1438131351
40
0.4621459736
40
1.0000000000
40
1.0000000000
40
1.0000000000
40
1.0000000000
10
33.1859607483
20
-30.7824283053
30
0.0000000000
10
33.1850445902
20
-30.7899394680
30
0.0000000000
10
33.1611005569
20
-30.8058006272
30
0.0000000000
10
33.1130432493
20
-30.8191301044
30
0.0000000000
10
33.0676006636
20
-30.8275980008
30
0.0000000000
10
33.0395902913
20
-30.8316334270
30
0.0000000000
11
33.1859607483
21
-30.7824283053
31
0.0000000000
11
33.1703104842
21
-30.7988715844
31
0.0000000000
11
33.1229989023
21
-30.8157969440
31
0.0000000000
11
33.0395902913
21
-30.8316334270
31
0.0000000000
0
SPLINE
5
594
100
AcDbEntity
8
0
100
AcDbSpline
62
0
6
CONTINUOUS
70
0
71
3
72
10
73
6
74
4
42
0.0000001000
43
0.0000001000
44
0.0000000001
12
0.1491305972
22
0.0104282272
32
0.0000000000
13
0.0355998552
23
0.1451941226
33
0.0000000000
40
0.0000000000
40
0.0000000000
40
0.0000000000
40
0.0000000000
40
0.5241469668
40
0.8624076114
40
1.0000000000
40
1.0000000000
40
1.0000000000
40
1.0000000000
10
32.9667056171
20
-1.6201946183
30
0.0000000000
10
32.9927610671
20
-1.6183726438
30
0.0000000000
10
33.0380921843
20
-1.6153963271
30
0.0000000000
10
33.0807987090
20
-1.6061366174
30
0.0000000000
10
33.1114433177
20
-1.6021309589
30
0.0000000000
10
33.1130760740
20
-1.5954717569
30
0.0000000000
11
32.9667056171
21
-1.6201946183
31
0.0000000000
11
33.0447229721
21
-1.6129044237
31
0.0000000000
11
33.0945846478
21
-1.6044809157
31
0.0000000000
11
33.1130760740
21
-1.5954717569
31
0.0000000000
0
SPLINE
5
595
100
AcDbEntity
8
0
100
AcDbSpline
62
0
6
CONTINUOUS
70
0
71
3
72
10
73
6
74
4
42
0.0000001000
43
0.0000001000
44
0.0000000001
12
-0.1491917705
22
0.0104325049
32
0.0000000000
13
-0.0356144582
23
0.1452536812
33
0.0000000000
40
0.0000000000
40
0.0000000000
40
0.0000000000
40
0.0000000000
40
0.5242929605
40
0.8624901405
40
1.0000000000
40
1.0000000000
40
1.0000000000
40
1.0000000000
10
-1.5343616905
20
-1.6201988927
30
0.0000000000
10
-1.5604350889
20
-1.6183756630
30
0.0000000000
10
-1.6057898366
20
-1.6153997672
30
0.0000000000
10
-1.6485143138
20
-1.6061373391
30
0.0000000000
10
-1.6791608267
20
-1.6021296946
30
0.0000000000
10
-1.6807932731
20
-1.5954717569
30
0.0000000000
11
-1.5343616905
21
-1.6201988927
31
0.0000000000
11
-1.6124329406
21
-1.6129053122
31
0.0000000000
11
-1.6623057108
21
-1.6044799302
31
0.0000000000
11
-1.6807932731
21
-1.5954717569
31
0.0000000000
0
SPLINE
5
596
100
AcDbEntity
8
0
100
AcDbSpline
62
0
6
CONTINUOUS
70
0
71
3
72
10
73
6
74
4
42
0.0000001000
43
0.0000001000
44
0.0000000001
12
0.0191098438
22
-0.1566729067
32
0.0000000000
13
0.1562211186
23
-0.0225066196
33
0.0000000000
40
0.0000000000
40
0.0000000000
40
0.0000000000
40
0.0000000000
40
0.1446116390
40
0.4635488279
40
1.0000000000
40
1.0000000000
40
1.0000000000
40
1.0000000000
10
-1.7536779473
20
-30.7824283053
30
0.0000000000
10
-1.7527567787
20
-30.7899805472
30
0.0000000000
10
-1.7286678366
20
-30.8058275168
30
0.0000000000
10
-1.6806479344
20
-30.8191351533
30
0.0000000000
10
-1.6352424911
20
-30.8276088595
30
0.0000000000
10
-1.6073074904
20
-30.8316334270
30
0.0000000000
11
-1.7536779473
21
-30.7824283053
31
0.0000000000
11
-1.7379049397
21
-30.7989260754
31
0.0000000000
11
-1.6904910000
21
-30.8158360729
31
0.0000000000
11
-1.6073074904
21
-30.8316334270
31
0.0000000000
0
SPLINE
5
597
100
AcDbEntity
8
0
100
AcDbSpline
62
0
6
CONTINUOUS
70
0
71
3
72
12
73
8
74
6
42
0.0000001000
43
0.0000001000
44
0.0000000001
12
0.0000000000
22
-1.2088345616
32
0.0000000000
13
-0.0000000000
23
1.2088345616
33
0.0000000000
40
0.0000000000
40
0.0000000000
40
0.0000000000
40
0.0000000000
40
0.2006881719
40
0.4010083633
40
0.5999265923
40
0.7996124025
40
1.0000000000
40
1.0000000000
40
1.0000000000
40
1.0000000000
10
26.9749547034
20
-29.4125099516
30
0.0000000000
10
26.9749547034
20
-29.4933762177
30
0.0000000000
10
27.0284897943
20
-29.6593818231
30
0.0000000000
10
27.2378443145
20
-29.8098751459
30
0.0000000000
10
27.4953761532
20
-29.8094732920
30
0.0000000000
10
27.7040018655
20
-29.6588620402
30
0.0000000000
10
27.7573280975
20
-29.4932551028
30
0.0000000000
10
27.7573280975
20
-29.4125099516
30
0.0000000000
11
26.9749547034
21
-29.4125099516
31
0.0000000000
11
27.0501794700
21
-29.6431512562
31
0.0000000000
11
27.2464774011
21
-29.7849457125
31
0.0000000000
11
27.4869363538
21
-29.7845804373
31
0.0000000000
11
27.6823284933
21
-29.6428424815
31
0.0000000000
11
27.7573280975
21
-29.4125099516
31
0.0000000000
0
SPLINE
5
598
100
AcDbEntity
8
0
100
AcDbSpline
62
0
6
CONTINUOUS
70
0
71
3
72
12
73
8
74
6
42
0.0000001000
43
0.0000001000
44
0.0000000001
12
0.0000000000
22
-1.2088345616
32
0.0000000000
13
0.0000000000
23
1.2088345616
33
0.0000000000
40
0.0000000000
40
0.0000000000
40
0.0000000000
40
0.0000000000
40
0.2006881719
40
0.4010083633
40
0.5999265923
40
0.7996124025
40
1.0000000000
40
1.0000000000
40
1.0000000000
40
1.0000000000
10
3.6749547034
20
-29.4125099516
30
0.0000000000
10
3.6749547034
20
-29.4933762177
30
0.0000000000
10
3.7284897943
20
-29.6593818231
30
0.0000000000
10
3.9378443145
20
-29.8098751459
30
0.0000000000
10
4.1953761532
20
-29.8094732920
30
0.0000000000
10
4.4040018655
20
-29.6588620402
30
0.0000000000
10
4.4573280975
20
-29.4932551028
30
0.0000000000
10
4.4573280975
20
-29.4125099516
30
0.0000000000
11
3.6749547034
21
-29.4125099516
31
0.0000000000
11
3.7501794700
21
-29.6431512562
31
0.0000000000
11
3.9464774011
21
-29.7849457125
31
0.0000000000
11
4.1869363538
21
-29.7845804373
31
0.0000000000
11
4.3823284933
21
-29.6428424815
31
0.0000000000
11
4.4573280975
21
-29.4125099516
31
0.0000000000
0
SPLINE
5
599
100
AcDbEntity
8
0
100
AcDbSpline
62
0
6
CONTINUOUS
70
0
71
3
72
10
73
6
74
4
42
0.0000001000
43
0.0000001000
44
0.0000000001
12
-0.9327655576
22
0.0000000000
32
0.0000000000
13
0.0000000000
23
-0.9327655576
33
0.0000000000
40
0.0000000000
40
0.0000000000
40
0.0000000000
40
0.0000000000
40
0.3703735281
40
0.7032295276
40
1.0000000000
40
1.0000000000
40
1.0000000000
40
1.0000000000
10
1.9145219784
20
31.5303716106
30
0.0000000000
10
1.7993647549
20
31.5303716106
30
0.0000000000
10
1.5789195756
20
31.4924280001
30
0.0000000000
10
1.3038777947
20
31.3256201865
30
0.0000000000
10
1.2161414005
20
31.1287391690
30
0.0000000000
10
1.2161414005
20
31.0364667440
30
0.0000000000
11
1.9145219784
21
31.5303716106
31
0.0000000000
11
1.5746558713
21
31.4683901270
31
0.0000000000
11
1.3178305382
21
31.2939296017
31
0.0000000000
11
1.2161414005
21
31.0364667440
31
0.0000000000
0
SPLINE
5
59A
100
AcDbEntity
8
0
100
AcDbSpline
62
0
6
CONTINUOUS
70
0
71
3
72
10
73
6
74
4
42
0.0000001000
43
0.0000001000
44
0.0000000001
12
0.0000000000
22
0.9327656773
32
0.0000000000
13
-0.9327656773
23
0.0000000000
33
0.0000000000
40
0.0000000000
40
0.0000000000
40
0.0000000000
40
0.0000000000
40
0.2967679719
40
0.6296147029
40
1.0000000000
40
1.0000000000
40
1.0000000000
40
1.0000000000
10
30.2161414005
20
31.0364667440
30
0.0000000000
10
30.2161414005
20
31.1287384034
30
0.0000000000
10
30.1284074552
20
31.3256158926
30
0.0000000000
10
29.8533681057
20
31.4924266661
30
0.0000000000
10
29.6329217200
20
31.5303716106
30
0.0000000000
10
29.5177608225
20
31.5303716106
30
0.0000000000
11
30.2161414005
21
31.0364667440
31
0.0000000000
11
30.1144538476
21
31.2939277581
31
0.0000000000
11
29.8576373860
21
31.4683860284
31
0.0000000000
11
29.5177608225
21
31.5303716106
31
0.0000000000
0
SPLINE
5
59B
100
AcDbEntity
8
0
100
AcDbSpline
62
0
6
CONTINUOUS
70
0
71
3
72
10
73
6
74
4
42
0.0000001000
43
0.0000001000
44
0.0000000001
12
1.6101954782
22
-1.5248086014
32
0.0000000000
13
1.6101954782
23
1.5248086014
33
0.0000000000
40
0.0000000000
40
0.0000000000
40
0.0000000000
40
0.0000000000
40
0.3335813759
40
0.6664186228
40
1.0000000000
40
1.0000000000
40
1.0000000000
40
1.0000000000
10
14.6997697396
20
-1.8894522982
30
0.0000000000
10
14.8788134806
20
-2.0590015486
30
0.0000000000
10
15.3316373670
20
-2.3101644601
30
0.0000000000
10
16.1006454318
20
-2.3101644610
30
0.0000000000
10
16.5534693196
20
-2.0590015493
30
0.0000000000
10
16.7325130613
20
-1.8894522982
30
0.0000000000
11
14.6997697396
21
-1.8894522982
31
0.0000000000
11
15.3470906720
21
-2.2475138795
31
0.0000000000
11
16.0851921258
21
-2.2475138803
31
0.0000000000
11
16.7325130613
21
-1.8894522982
31
0.0000000000
0
SPLINE
5
59C
100
AcDbEntity
8
CURVE_INCISIONI
100
AcDbSpline
62
0
6
CONTINUOUS
70
0
71
3
72
11
73
7
74
5
42
0.0000001000
43
0.0000001000
44
0.0000000001
12
-2.4955274851
22
0.1388547810
32
0.0195147668
13
-0.5207061369
23
-2.4445456016
33
-0.3435584793
40
0.0000000000
40
0.0000000000
40
0.0000000000
40
0.0000000000
40
0.2500000000
40
0.5000000000
40
0.7500000000
40
1.0000000000
40
1.0000000000
40
1.0000000000
40
1.0000000000
10
12.6123784005
20
-21.0511268050
30
6.8390194246
10
12.4044177767
20
-21.0395555733
30
6.8406456551
10
11.9844195930
20
-21.0908346701
30
6.8334388481
10
11.4201380771
20
-21.3814533738
30
6.7925950529
10
10.9916605269
20
-21.8497266370
30
6.7267835376
10
10.8319917780
20
-22.2415606716
30
6.6717148553
10
10.7885995999
20
-22.4452728050
30
6.6430849820
11
12.6123784005
21
-21.0511268050
31
6.8390194246
11
11.9953722196
21
-21.1264513465
31
6.8284332506
11
11.4427720714
21
-21.4110624670
31
6.7884337662
11
11.0231562647
21
-21.8696396017
31
6.7239849529
11
10.7885995999
21
-22.4452728050
31
6.6430849820
0
SPLINE
5
59D
100
AcDbEntity
8
CURVE_INCISIONI
100
AcDbSpline
62
0
6
CONTINUOUS
70
0
71
3
72
15
73
11
74
9
42
0.0000001000
43
0.0000001000
44
0.0000000001
12
-7.9370066859
22
-0.3114947836
32
-0.0437777369
13
7.9430775378
23
0.0249672101
33
0.0035089126
40
0.0000000000
40
0.0000000000
40
0.0000000000
40
0.0000000000
40
0.1250000000
40
0.2500000000
40
0.3750000000
40
0.5000000000
40
0.6250000000
40
0.7500000000
40
0.8750000000
40
1.0000000000
40
1.0000000000
40
1.0000000000
40
1.0000000000
10
12.6123784005
20
-25.3106109228
30
6.2403879713
10
12.2816697885
20
-25.3235898721
30
6.2385638989
10
11.6151905144
20
-25.2164448133
30
6.2536221549
10
10.7553552321
20
-24.6814674460
30
6.3288083206
10
10.1694505400
20
-23.8555262765
30
6.4448867820
10
9.9486649169
20
-22.8672317463
30
6.5837825202
10
10.1273918739
20
-21.8704724752
30
6.7238679002
10
10.6777869224
20
-21.0204557611
30
6.8433299587
10
11.5141908850
20
-20.4495390354
30
6.9235670719
10
12.1755337682
20
-20.3142605181
30
6.9425792276
10
12.5064953323
20
-20.3132202177
30
6.9427254323
11
12.6123784005
21
-25.3106109228
31
6.2403879713
11
11.6385044526
21
-25.1540681834
31
6.2623886185
11
10.8010103304
21
-24.6329734789
31
6.3356237032
11
10.2303037181
21
-23.8284673830
31
6.4486896615
11
10.0152503469
21
-22.8658209562
31
6.5839807938
11
10.1893365558
21
-21.8949295680
31
6.7204306799
11
10.7254550747
21
-21.0669724258
31
6.8367924678
11
11.5401259454
21
-20.5108721937
31
6.9149472586
11
12.5064953323
21
-20.3132202177
31
6.9427254323
0
SPLINE
5
59E
100
AcDbEntity
8
CURVE_INCISIONI
100
AcDbSpline
62
0
6
CONTINUOUS
70
0
71
3
72
11
73
7
74
5
42
0.0000001000
43
0.0000001000
44
0.0000000001
12
0.5207048047
22
-2.4445406139
32
-0.3435577783
13
2.4955223201
23
0.1388548035
33
0.0195147700
40
0.0000000000
40
0.0000000000
40
0.0000000000
40
0.0000000000
40
0.2500000000
40
0.5000000000
40
0.7500000000
40
1.0000000000
40
1.0000000000
40
1.0000000000
40
1.0000000000
10
10.7886034005
20
-23.1804678050
30
6.5397600631
10
10.8319954675
20
-23.3841795229
30
6.5111302482
10
10.9916638577
20
-23.7760127635
30
6.4560616775
10
11.4201405171
20
-24.2442850715
30
6.3902502965
10
11.9844208828
20
-24.5349031558
30
6.3494065883
10
12.4044182071
20
-24.5861821071
30
6.3421998017
10
12.6123784005
20
-24.5746108735
30
6.3438260325
11
10.7886034005
21
-23.1804678050
31
6.5397600631
11
11.0231595367
21
-23.7560998380
31
6.4588602567
11
11.4427744682
21
-24.2146760342
31
6.3944115753
11
11.9953734863
21
-24.4992865462
31
6.3544121764
11
12.6123784005
21
-24.5746108735
31
6.3438260325
0
SPLINE
5
59F
100
AcDbEntity
8
CURVE_INCISIONI
100
AcDbSpline
62
0
6
CONTINUOUS
70
0
71
3
72
15
73
11
74
9
42
0.0000001000
43
0.0000001000
44
0.0000000001
12
-7.9370063209
22
-0.3114947839
32
-0.0437777369
13
7.9430771731
23
0.0249671947
33
0.0035089104
40
0.0000000000
40
0.0000000000
40
0.0000000000
40
0.0000000000
40
0.1250000000
40
0.2500000000
40
0.3750000000
40
0.5000000000
40
0.6250000000
40
0.7500000000
40
0.8750000000
40
1.0000000000
40
1.0000000000
40
1.0000000000
40
1.0000000000
10
8.3138294005
20
-25.3106108050
30
6.2403879878
10
7.9831208038
20
-25.3235897544
30
6.2385639154
10
7.3166415600
20
-25.2164447016
30
6.2536221706
10
6.4568063165
20
-24.6814673598
30
6.3288083328
10
5.8709016507
20
-23.8555262286
30
6.4448867887
10
5.6501160375
20
-22.8672317438
30
6.5837825206
10
5.8288429865
20
-21.8704725185
30
6.7238678941
10
6.3792380103
20
-21.0204558437
30
6.8433299471
10
7.2156419352
20
-20.4495391452
30
6.9235670564
10
7.8769847883
20
-20.3142606351
30
6.9425792112
10
8.2079463372
20
-20.3132203353
30
6.9427254158
11
8.3138294005
21
-25.3106108050
31
6.2403879878
11
7.3399554970
21
-25.1540680745
31
6.2623886338
11
6.5024614128
21
-24.6329733949
31
6.3356237151
11
5.9317548261
21
-23.8284673363
31
6.4486896681
11
5.7167014646
21
-22.8658209537
31
6.5839807942
11
5.8907876656
21
-21.8949296102
31
6.7204306740
11
6.4269061605
21
-21.0669725064
31
6.8367924565
11
7.2415769943
21
-20.5108723007
31
6.9149472436
11
8.2079463372
21
-20.3132203353
31
6.9427254158
0
SPLINE
5
5A0
100
AcDbEntity
8
CURVE_INCISIONI
100
AcDbSpline
62
0
6
CONTINUOUS
70
0
71
3
72
15
73
11
74
9
42
0.0000001000
43
0.0000001000
44
0.0000000001
12
-5.5816870706
22
0.3105731916
32
0.0436482156
13
5.5879858721
23
-0.1615554214
33
-0.0227051338
40
0.0000000000
40
0.0000000000
40
0.0000000000
40
0.0000000000
40
0.1250000000
40
0.2500000000
40
0.3750000000
40
0.5000000000
40
0.6250000000
40
0.7500000000
40
0.8750000000
40
1.0000000000
40
1.0000000000
40
1.0000000000
40
1.0000000000
10
8.3138294005
20
-21.0511268050
30
6.8390194246
10
8.0812591059
20
-21.0381862554
30
6.8408381002
10
7.6110384727
20
-21.1056272270
30
6.8313598898
10
6.9992395486
20
-21.4710715874
30
6.7800000343
10
6.5757929916
20
-22.0442328777
30
6.6994474682
10
6.4062195158
20
-22.7363818753
30
6.6021722703
10
6.5167798824
20
-23.4403717927
30
6.5032329397
10
6.8903487771
20
-24.0472219656
30
6.4179457099
10
7.4691267704
20
-24.4629905773
30
6.3595132421
10
7.9319790307
20
-24.5698714155
30
6.3444921199
10
8.1648117754
20
-24.5766028914
30
6.3435460727
11
8.3138294005
21
-21.0511268050
31
6.8390194246
11
7.6266271437
21
-21.1496743775
31
6.8251694665
11
7.0306316098
21
-21.5056910757
31
6.7751345825
11
6.6181051718
21
-22.0640641622
31
6.6966603629
11
6.4529084895
21
-22.7383553619
31
6.6018949149
11
6.5606146371
21
-23.4241818353
31
6.5055082898
11
6.9245502935
21
-24.0153750387
31
6.4224215036
11
7.4883768366
21
-24.4204160182
31
6.3654967062
11
8.1648117754
21
-24.5766028914
31
6.3435460727
0
SPLINE
5
5A1
100
AcDbEntity
8
CURVE_INCISIONI
100
AcDbSpline
62
0
6
CONTINUOUS
70
0
71
3
72
24
73
20
74
18
42
0.0000001000
43
0.0000001000
44
0.0000000001
12
0.0127938672
22
-0.8468066151
32
-0.1190109085
13
-0.8307489417
23
-0.0185553828
33
-0.0026077890
40
0.0000000000
40
0.0000000000
40
0.0000000000
40
0.0000000000
40
0.0416666667
40
0.0833333333
40
0.1250000000
40
0.1666666667
40
0.2500000000
40
0.3333333333
40
0.4166666667
40
0.4583333333
40
0.5000000000
40
0.5416666667
40
0.5833333333
40
0.6666666667
40
0.7500000000
40
0.7916666667
40
0.8333333333
40
0.9166666667
40
1.0000000000
40
1.0000000000
40
1.0000000000
40
1.0000000000
10
16.2534237734
20
-13.7444241448
30
7.8659095154
10
16.2536014660
20
-13.7561853478
30
7.8642565861
10
16.2531770199
20
-13.7768158173
30
7.8613571627
10
16.2505523536
20
-13.8095268056
30
7.8567599331
10
16.2460380464
20
-13.8410352583
30
7.8523317088
10
16.2376517874
20
-13.8823046893
30
7.8465316686
10
16.2228775498
20
-13.9318574412
30
7.8395674834
10
16.1986105360
20
-13.9872966350
30
7.8317760129
10
16.1722949112
20
-14.0302405788
30
7.8257406352
10
16.1470357214
20
-14.0619600600
30
7.8212827528
10
16.1260271230
20
-14.0839790361
30
7.8181881875
10
16.1029825906
20
-14.1038049391
30
7.8154018386
10
16.0699431946
20
-14.1269929989
30
7.8121429693
10
16.0256636145
20
-14.1500167619
30
7.8089071904
10
15.9788050035
20
-14.1665758198
30
7.8065799666
10
15.9395645057
20
-14.1767769555
30
7.8051462905
10
15.8995168552
20
-14.1850341760
30
7.8039858138
10
15.8469143596
20
-14.1920132080
30
7.8030049748
10
15.8063230842
20
-14.1943564766
30
7.8026756499
10
15.7832467247
20
-14.1948719039
30
7.8026032113
11
16.2534237734
21
-13.7444241448
31
7.8659095154
11
16.2528456871
21
-13.7771100313
31
7.8613158136
11
16.2502374134
21
-13.8093263830
31
7.8567881006
11
16.2457421485
21
-13.8409425284
31
7.8523447412
11
16.2394622579
21
-13.8718517291
31
7.8480007363
11
16.2217878950
21
-13.9311867564
31
7.8396617420
11
16.1973919134
21
-13.9866455581
31
7.8318675158
11
16.1656295562
21
-14.0379508096
31
7.8246570329
11
16.1466916871
21
-14.0616649542
31
7.8213242272
11
16.1256878007
21
-14.0836135239
31
7.8182395569
11
16.1026934215
21
-14.1033991294
31
7.8154588714
11
16.0780043546
21
-14.1207985632
31
7.8130135405
11
16.0251478083
21
-14.1487238209
31
7.8090889014
11
15.9688487450
21
-14.1688722612
31
7.8062572228
11
15.9394636116
21
-14.1765339661
31
7.8051804404
11
15.9093592390
21
-14.1827470380
31
7.8043072501
11
15.8472870399
21
-14.1912032187
31
7.8031188114
11
15.7832467247
21
-14.1948719039
31
7.8026032113
0
SPLINE
5
5A2
100
AcDbEntity
8
CURVE_INCISIONI
100
AcDbSpline
62
0
6
CONTINUOUS
70
0
71
3
72
27
73
23
74
21
42
0.0000001000
43
0.0000001000
44
0.0000000001
12
1.1699567706
22
0.1996349197
32
0.0280568582
13
0.0159876874
23
-1.0863782752
33
-0.1526805096
40
0.0000000000
40
0.0000000000
40
0.0000000000
40
0.0000000000
40
0.1250000000
40
0.1875000000
40
0.2500000000
40
0.3125000000
40
0.3750000000
40
0.4375000000
40
0.5000000000
40
0.5625000000
40
0.6250000000
40
0.6875000000
40
0.7500000000
40
0.8125000000
40
0.8437500000
40
0.8750000000
40
0.9062500000
40
0.9375000000
40
0.9531250000
40
0.9687500000
40
0.9843750000
40
1.0000000000
40
1.0000000000
40
1.0000000000
40
1.0000000000
10
15.4373401286
20
-13.3988605468
30
7.9144753119
10
15.4860883274
20
-13.3905424251
30
7.9156443476
10
15.5571265761
20
-13.3810539156
30
7.9169778707
10
15.6494662757
20
-13.3733363604
30
7.9180625023
10
15.7170551715
20
-13.3697702391
30
7.9185636880
10
15.7836101011
20
-13.3690164913
30
7.9186696203
10
15.8489089246
20
-13.3724372898
30
7.9181888585
10
15.9122728267
20
-13.3809329607
30
7.9169948698
10
15.9730729851
20
-13.3949376232
30
7.9150266428
10
16.0317046653
20
-13.4152756370
30
7.9121683214
10
16.0868856860
20
-13.4430258006
30
7.9082682902
10
16.1358141145
20
-13.4783218692
30
7.9033077513
10
16.1761326447
20
-13.5208607317
30
7.8973293041
10
16.2027660152
20
-13.5614266957
30
7.8916281296
10
16.2202922355
20
-13.5965785971
30
7.8866878521
10
16.2314467307
20
-13.6241602788
30
7.8828114995
10
16.2405457435
20
-13.6528708628
30
7.8787764900
10
16.2463031687
20
-13.6776296300
30
7.8752968722
10
16.2497225614
20
-13.6979064410
30
7.8724471523
10
16.2516632246
20
-13.7132347743
30
7.8702928955
10
16.2529537426
20
-13.7290379473
30
7.8680719044
10
16.2533428747
20
-13.7389230360
30
7.8666826458
10
16.2534261439
20
-13.7445812562
30
7.8658874348
11
15.4373401286
21
-13.3988605468
31
7.9144753119
11
15.5800133372
21
-13.3795356761
31
7.9171912453
11
15.6491886292
21
-13.3737067013
31
7.9180104543
11
15.7168828438
21
-13.3702389681
31
7.9184978124
11
15.7834007501
21
-13.3697122490
31
7.9185718380
11
15.8485864377
21
-13.3732831018
31
7.9180699873
11
15.9118455361
21
-13.3818511259
31
7.9168658301
11
15.9727115721
21
-13.3959931817
31
7.9148782938
11
16.0311295554
21
-13.4165109953
31
7.9119947031
11
16.0858435873
21
-13.4442834514
31
7.9080915389
11
16.1343791315
21
-13.4795290015
31
7.9031380999
11
16.1747395638
21
-13.5218841141
31
7.8971854770
11
16.2068325306
21
-13.5704395986
31
7.8903614487
11
16.2199605405
21
-13.5967815563
31
7.8866593280
11
16.2311041503
21
-13.6243484292
31
7.8827850567
11
16.2401807264
21
-13.6530375189
31
7.8787530681
11
16.2470591379
21
-13.6827379825
31
7.8745789401
11
16.2496185811
21
-13.6979265618
31
7.8724443245
11
16.2515548670
21
-13.7133139143
31
7.8702817731
11
16.2528359393
21
-13.7288753573
31
7.8680947549
11
16.2534261439
21
-13.7445812562
31
7.8658874348
0
SPLINE
5
5A3
100
AcDbEntity
8
CURVE_INCISIONI
100
AcDbSpline
62
0
6
CONTINUOUS
70
0
71
3
72
31
73
27
74
25
42
0.0000001000
43
0.0000001000
44
0.0000000001
12
1.3364782738
22
-0.2526796811
32
-0.0355118133
13
-2.5242391071
23
0.9154638085
33
0.1286600478
40
0.0000000000
40
0.0000000000
40
0.0000000000
40
0.0000000000
40
0.0357142857
40
0.0714285714
40
0.1071428571
40
0.1428571429
40
0.1785714286
40
0.2142857143
40
0.2500000000
40
0.2857142857
40
0.3214285714
40
0.3571428571
40
0.4285714286
40
0.5000000000
40
0.5714285714
40
0.6428571429
40
0.6785714286
40
0.7142857143
40
0.7500000000
40
0.7857142857
40
0.8214285714
40
0.8571428571
40
0.8928571429
40
0.9285714286
40
0.9642857143
40
1.0000000000
40
1.0000000000
40
1.0000000000
40
1.0000000000
10
16.3478189499
20
-14.4317653966
30
7.7693100021
10
16.3637294055
20
-14.4347734880
30
7.7688872424
10
16.3955426614
20
-14.4371592504
30
7.7685519454
10
16.4421209643
20
-14.4290737944
30
7.7696882821
10
16.4862116390
20
-14.4098993966
30
7.7723830680
10
16.5271462376
20
-14.3816221605
30
7.7763571744
10
16.5671326661
20
-14.3440785645
30
7.7816335827
10
16.6063092327
20
-14.2979477677
30
7.7881168434
10
16.6432502212
20
-14.2472998731
30
7.7952349408
10
16.6773434184
20
-14.1971783001
30
7.8022790685
10
16.7078923782
20
-14.1481108904
30
7.8091750432
10
16.7450752787
20
-14.0807009790
30
7.8186488884
10
16.7835041953
20
-13.9916042796
30
7.8311706129
10
16.8132829048
20
-13.8677595189
30
7.8485758589
10
16.8242439654
20
-13.7346227885
30
7.8672870062
10
16.8180536877
20
-13.6202511519
30
7.8833608914
10
16.8027081311
20
-13.5267039537
30
7.8965080928
10
16.7851267986
20
-13.4560290042
30
7.9064408091
10
16.7598338831
20
-13.3832196282
30
7.9166734996
10
16.7253432780
20
-13.3099603559
30
7.9269694189
10
16.6822069956
20
-13.2392645654
30
7.9369050643
10
16.6317920402
20
-13.1732546259
30
7.9461821563
10
16.5742944555
20
-13.1118716148
30
7.9548089759
10
16.5085684570
20
-13.0553805566
30
7.9627482764
10
16.4334383659
20
-13.0059155213
30
7.9697001338
10
16.3791900189
20
-12.9804875106
30
7.9732738076
10
16.3491395534
20
-12.9695891320
30
7.9748054748
11
16.3478189499
21
-14.4317653966
31
7.7693100021
11
16.3953523979
21
-14.4352152338
31
7.7688251591
11
16.4417063596
21
-14.4272256375
31
7.7699480237
11
16.4856856263
21
-14.4083822569
31
7.7725962881
11
16.5269882093
21
-14.3800777672
31
7.7765742247
11
16.5669976891
21
-14.3426473643
31
7.7818347248
11
16.6059366364
21
-14.2971949181
31
7.7882226495
11
16.6427755893
21
-14.2473875933
31
7.7952226125
11
16.6767527122
21
-14.1973539940
31
7.8022543763
11
16.7074487475
21
-14.1478625531
31
7.8092099447
11
16.7352429063
21
-14.0972311695
31
7.8163257216
11
16.7807815302
21
-13.9887828260
31
7.8315671423
11
16.8101466300
21
-13.8662108573
31
7.8487935091
11
16.8211790664
21
-13.7339379162
31
7.8673832587
11
16.8133511874
21
-13.5966935283
31
7.8866716995
11
16.8016961036
21
-13.5266181952
31
7.8965201453
11
16.7838415348
21
-13.4556732665
31
7.9064908048
11
16.7583009349
21
-13.3831446455
31
7.9166840378
11
16.7239023318
21
-13.3103876029
31
7.9269093733
11
16.6809938835
21
-13.2400455406
31
7.9367953054
11
16.6306116020
21
-13.1740257806
31
7.9460737776
11
16.5729230532
21
-13.1126869403
31
7.9546943894
11
16.5070011082
21
-13.0565515604
31
7.9625837025
11
16.4323979610
21
-13.0078026912
31
7.9694349093
11
16.3491395534
21
-12.9695891320
31
7.9748054748
0
SPLINE
5
5A4
100
AcDbEntity
8
CURVE_INCISIONI
100
AcDbSpline
62
0
6
CONTINUOUS
70
0
71
3
72
10
73
6
74
4
42
0.0000001000
43
0.0000001000
44
0.0000000001
12
-0.2247843635
22
0.8250850645
32
0.1159581437
13
-0.7166068287
23
0.1354822326
33
0.0190407861
40
0.0000000000
40
0.0000000000
40
0.0000000000
40
0.0000000000
40
0.3333333333
40
0.6666666667
40
1.0000000000
40
1.0000000000
40
1.0000000000
40
1.0000000000
10
16.7595679208
20
-15.0196619544
30
7.6866865292
10
16.7345918805
20
-14.9279858361
30
7.6995707674
10
16.6843440922
20
-14.7578133077
30
7.7234869565
10
16.5588599493
20
-14.5299479340
30
7.7555113464
10
16.4272590534
20
-14.4477644399
30
7.7670614832
10
16.3476360724
20
-14.4327108585
30
7.7691771261
11
16.7595679208
21
-15.0196619544
31
7.6866865292
11
16.6759920154
21
-14.7623788775
31
7.7228453075
11
16.5468737491
21
-14.5473796228
31
7.7530614823
11
16.3476360724
21
-14.4327108585
31
7.7691771261
0
SPLINE
5
5A5
100
AcDbEntity
8
CURVE_INCISIONI
100
AcDbSpline
62
0
6
CONTINUOUS
70
0
71
3
72
10
73
6
74
4
42
0.0000001000
43
0.0000001000
44
0.0000000001
12
-0.2104046064
22
0.7746936694
32
0.1088760949
13
-0.2159824343
23
0.7927404546
33
0.1114124052
40
0.0000000000
40
0.0000000000
40
0.0000000000
40
0.0000000000
40
0.3333333333
40
0.6666666667
40
1.0000000000
40
1.0000000000
40
1.0000000000
40
1.0000000000
10
16.9665003857
20
-15.8045291573
30
7.5763806373
10
16.9431220961
20
-15.7184520829
30
7.5884779812
10
16.8982195593
20
-15.5451226769
30
7.6128378406
10
16.8301931051
20
-15.2834547229
30
7.6496128733
10
16.7835512281
20
-15.1076901239
30
7.6743149767
10
16.7595531798
20
-15.0196078512
30
7.6866941329
11
16.9665003857
21
-15.8045291573
31
7.5763806373
11
16.8981074512
21
-15.5448437027
31
7.6128770479
11
16.8298703782
21
-15.2831248988
31
7.6496592270
11
16.7595531798
21
-15.0196078512
31
7.6866941329
0
SPLINE
5
5A6
100
AcDbEntity
8
CURVE_INCISIONI
100
AcDbSpline
62
0
6
CONTINUOUS
70
0
71
3
72
12
73
8
74
6
42
0.0000001000
43
0.0000001000
44
0.0000000001
12
0.3147045700
22
-0.8375749015
32
-0.1177134758
13
0.2604231966
23
-0.9058071630
33
-0.1273028948
40
0.0000000000
40
0.0000000000
40
0.0000000000
40
0.0000000000
40
0.3333333333
40
0.5000000000
40
0.6666666667
40
0.8333333333
40
1.0000000000
40
1.0000000000
40
1.0000000000
40
1.0000000000
10
16.1195797411
20
-14.9251272111
30
7.6999725209
10
16.1545469155
20
-15.0181910891
30
7.6868932458
10
16.2013116159
20
-15.1611604912
30
7.6668002067
10
16.2579294552
20
-15.3563954364
30
7.6393617245
10
16.2991387724
20
-15.5046376227
30
7.6185276439
10
16.3405597693
20
-15.6541404811
30
7.5975163874
10
16.3698317068
20
-15.7542065372
30
7.5834530204
10
16.3842996621
20
-15.8045291573
30
7.5763806373
11
16.1195797411
21
-14.9251272111
31
7.6999725209
11
16.2149881512
21
-15.2103533171
31
7.6598866059
11
16.2577204448
21
-15.3566980993
31
7.6393191880
11
16.2991740523
21
-15.5048477347
31
7.6184981146
11
16.3409742542
21
-15.6542398520
31
7.5975024217
11
16.3842996621
21
-15.8045291573
31
7.5763806373
0
SPLINE
5
5A7
100
AcDbEntity
8
CURVE_INCISIONI
100
AcDbSpline
62
0
6
CONTINUOUS
70
0
71
3
72
20
73
16
74
14
42
0.0000001000
43
0.0000001000
44
0.0000000001
12
0.4735708499
22
0.0000000000
32
0.0000000000
13
0.1691005768
23
-0.4500551076
33
-0.0632511205
40
0.0000000000
40
0.0000000000
40
0.0000000000
40
0.0000000000
40
0.0416666667
40
0.0833333333
40
0.1250000000
40
0.1666666667
40
0.2083333333
40
0.2500000000
40
0.3333333333
40
0.5000000000
40
0.6666666667
40
0.7500000000
40
0.8333333333
40
0.9166666667
40
1.0000000000
40
1.0000000000
40
1.0000000000
40
1.0000000000
10
15.7819420732
20
-14.6697650431
30
7.7358613331
10
15.7885194461
20
-14.6697650431
30
7.7358613331
10
15.8011150017
20
-14.6700475682
30
7.7358216268
10
15.8201352090
20
-14.6714571658
30
7.7356235208
10
15.8387474620
20
-14.6739774593
30
7.7352693166
10
15.8570151797
20
-14.6777513586
30
7.7347389297
10
15.8748413064
20
-14.6827254047
30
7.7340398731
10
15.8980131728
20
-14.6908097452
30
7.7329036931
10
15.9369170206
20
-14.7084538263
30
7.7304239792
10
15.9881148654
20
-14.7423536424
30
7.7256596708
10
16.0331742576
20
-14.7855522057
30
7.7195885087
10
16.0647456564
20
-14.8245608034
30
7.7141062078
10
16.0860475903
20
-14.8559269962
30
7.7096979769
10
16.1047785700
20
-14.8896494098
30
7.7049586007
10
16.1148825259
20
-14.9126256718
30
7.7017294977
10
16.1195797642
20
-14.9251272026
30
7.6999725221
11
15.7819420732
21
-14.6697650431
31
7.7358613331
11
15.8011361473
21
-14.6702118699
31
7.7357985357
11
15.8200672166
21
-14.6716422818
31
7.7355975044
11
15.8386900394
21
-14.6741863936
31
7.7352399528
11
15.8569415812
21
-14.6779513831
31
7.7347108181
11
15.8747667686
21
-14.6829069396
31
7.7340143600
11
15.8921417815
21
-14.6889551593
31
7.7331643382
11
15.9255096968
21
-14.7039922593
31
7.7310510116
11
15.9868871749
21
-14.7442133918
31
7.7253983001
11
16.0406940977
21
-14.7956751674
31
7.7181658192
11
16.0643495539
21
-14.8249124275
31
7.7140567902
11
16.0856190979
21
-14.8563196997
31
7.7096427860
11
16.1041827290
21
-14.8897730730
31
7.7049412210
11
16.1195797642
21
-14.9251272026
31
7.6999725221
0
SPLINE
5
5A8
100
AcDbEntity
8
CURVE_INCISIONI
100
AcDbSpline
62
0
6
CONTINUOUS
70
0
71
3
72
14
73
10
74
8
42
0.0000001000
43
0.0000001000
44
0.0000000001
12
-1.2955039221
22
0.4691613704
32
0.0659363306
13
-1.6446812634
23
-0.2419606194
33
-0.0340053474
40
0.0000000000
40
0.0000000000
40
0.0000000000
40
0.0000000000
40
0.0833333333
40
0.1666666667
40
0.2500000000
40
0.3333333333
40
0.5000000000
40
0.6666666667
40
1.0000000000
40
1.0000000000
40
1.0000000000
40
1.0000000000
10
16.3491395534
20
-12.9695891320
30
7.9748054748
10
16.3131533333
20
-12.9565568717
30
7.9766370396
10
16.2400023865
20
-12.9340576294
30
7.9797991019
10
16.1262792982
20
-12.9076877219
30
7.9835051507
10
16.0097797344
20
-12.8878167013
30
7.9862978405
10
15.8507373614
20
-12.8697485478
30
7.9888371539
10
15.6444061582
20
-12.8619680917
30
7.9899306257
10
15.3015014862
20
-12.8769458839
30
7.9878256342
10
15.0373164187
20
-12.9118689444
30
7.9829175182
10
14.8545740561
20
-12.9387534577
30
7.9791391462
11
16.3491395534
21
-12.9695891320
31
7.9748054748
11
16.2393362752
21
-12.9352874554
31
7.9796262611
11
16.1258165523
21
-12.9087708697
31
7.9833529242
11
16.0093160317
21
-12.8888700189
31
7.9861498064
11
15.8899960722
21
-12.8752525685
31
7.9880636142
11
15.6428093148
21
-12.8653964069
31
7.9894488074
11
15.3864491471
21
-12.8758336265
31
7.9879819518
11
14.8545740561
21
-12.9387534577
31
7.9791391462
0
SPLINE
5
5A9
100
AcDbEntity
8
CURVE_INCISIONI
100
AcDbSpline
62
0
6
CONTINUOUS
70
0
71
3
72
8
73
4
74
2
42
0.0000001000
43
0.0000001000
44
0.0000000001
12
0.1059077005
22
0.0003328961
32
0.0000467855
13
0.1058267558
23
-0.0041532638
33
-0.0005837032
40
0.0000000000
40
0.0000000000
40
0.0000000000
40
0.0000000000
40
1.0000000000
40
1.0000000000
40
1.0000000000
40
1.0000000000
10
12.5064953323
20
-20.3132202177
30
6.9427254323
10
12.5417978992
20
-20.3131092523
30
6.9427410275
10
12.5771028152
20
-20.3137462660
30
6.9426515010
10
12.6123784005
20
-20.3151306873
30
6.9424569333
11
12.5064953323
21
-20.3132202177
31
6.9427254323
11
12.6123784005
21
-20.3151306873
31
6.9424569333
0
SPLINE
5
5AA
100
AcDbEntity
8
CURVE_INCISIONI
100
AcDbSpline
62
0
6
CONTINUOUS
70
0
71
3
72
8
73
4
74
2
42
0.0000001000
43
0.0000001000
44
0.0000000001
12
0.1059076956
22
0.0003328959
32
0.0000467855
13
0.1058267509
23
-0.0041532638
33
-0.0005837032
40
0.0000000000
40
0.0000000000
40
0.0000000000
40
0.0000000000
40
1.0000000000
40
1.0000000000
40
1.0000000000
40
1.0000000000
10
8.2079463372
20
-20.3132203353
30
6.9427254158
10
8.2432489024
20
-20.3131093700
30
6.9427410109
10
8.2785538168
20
-20.3137463838
30
6.9426514845
10
8.3138294005
20
-20.3151308050
30
6.9424569168
11
8.2079463372
21
-20.3132203353
31
6.9427254158
11
8.3138294005
21
-20.3151308050
31
6.9424569168
0
SPLINE
5
5AB
100
AcDbEntity
8
CURVE_INCISIONI
100
AcDbSpline
62
0
6
CONTINUOUS
70
0
71
3
72
8
73
4
74
2
42
0.0000001000
43
0.0000001000
44
0.0000000001
12
0.1490129566
22
-0.0043081446
32
-0.0006054702
13
0.1488449885
23
0.0082819518
33
0.0011639524
40
0.0000000000
40
0.0000000000
40
0.0000000000
40
0.0000000000
40
1.0000000000
40
1.0000000000
40
1.0000000000
40
1.0000000000
10
8.1648117754
20
-24.5766028914
30
6.3435460727
10
8.2144827609
20
-24.5780389396
30
6.3433442493
10
8.2642144043
20
-24.5773754556
30
6.3434374959
10
8.3138294005
20
-24.5746148050
30
6.3438254800
11
8.1648117754
21
-24.5766028914
31
6.3435460727
11
8.3138294005
21
-24.5746148050
31
6.3438254800
0
ENDSEC
0
SECTION
2
OBJECTS
0
DICTIONARY
5
C
100
AcDbDictionary
280
0
281
1
3
ACAD_GROUP
350
D
3
ACAD_MLINESTYLE
350
17
3
ACAD_LAYOUT
350
1A
3
ACAD_PLOTSETTINGS
350
19
3
ACAD_PLOTSTYLENAME
350
E
0
DICTIONARY
5
D
102
{ACAD_REACTORS
330
C
102
}
100
AcDbDictionary
280
0
281
1
0
ACDBDICTIONARYWDFLT
5
E
102
{ACAD_REACTORS
330
C
102
}
100
AcDbDictionary
281
1
3
Normal
350
F
100
AcDbDictionaryWithDefault
340
F
0
DICTIONARY
5
17
102
{ACAD_REACTORS
330
C
102
}
100
AcDbDictionary
280
0
281
1
3
Standard
350
18
0
DICTIONARY
5
19
102
{ACAD_REACTORS
330
C
102
}
100
AcDbDictionary
281
1
0
DICTIONARY
5
1A
102
{ACAD_REACTORS
330
C
102
}
100
AcDbDictionary
281
1
3
Layout1
350
1E
3
Model
350
22
0
ACDBPLACEHOLDER
5
F
102
{ACAD_REACTORS
330
E
102
}
0
MLINESTYLE
5
18
102
{ACAD_REACTORS
330
17
102
}
100
AcDbMlineStyle
2
STANDARD
70
0
3

62
256
51
90.0
52
90.0
71
2
49
0.5
62
256
6
BYLAYER
49
-0.5
62
256
6
BYLAYER
0
LAYOUT
5
1E
102
{ACAD_REACTORS
330
1A
102
}
100
AcDbPlotSettings
1

2

4

6

40
0.0
41
0.0
42
0.0
43
0.0
44
0.0
45
0.0
46
0.0
47
0.0
48
0.0
49
0.0
140
0.0
141
0.0
142
1.0
143
1.0
70
0
72
0
73
0
74
0
7

75
0
147
1.0
148
0.0
149
0.0
100
AcDbLayout
1
Layout1
70
0
71
0
10
0.0
20
0.0
11
0.0
21
0.0
12
0.0
22
0.0
32
0.0
14
0.0
24
0.0
34
0.0
15
0.0
25
0.0
35
0.0
146
0.0
13
0.0
23
0.0
33
0.0
16
0.0
26
0.0
36
0.0
17
0.0
27
0.0
37
0.0
76
0
330
1B
331
0
345
0
346
0
0
LAYOUT
5
22
102
{ACAD_REACTORS
330
1A
102
}
100
AcDbPlotSettings
1

2

4

6

40
0.0
41
0.0
42
0.0
43
0.0
44
0.0
45
0.0
46
0.0
47
0.0
48
0.0
49
0.0
140
0.0
141
0.0
142
1.0
143
1.0
70
0
72
0
73
0
74
0
7

75
0
147
1.0
148
0.0
149
0.0
100
AcDbLayout
1
Model
70
0
71
0
10
0.0
20
0.0
11
0.0
21
0.0
12
0.0
22
0.0
32
0.0
14
0.0
24
0.0
34
0.0
15
0.0
25
0.0
35
0.0
146
0.0
13
0.0
23
0.0
33
0.0
16
0.0
26
0.0
36
0.0
17
0.0
27
0.0
37
0.0
76
0
330
1F
331
0
345
0
346
0
0
ENDSEC
0
EOF
