  0
SECTION
  2
HEADER
  9
$ACADVER
  1
AC1015
  9
$DWGCODEPAGE
  3
ANSI_1252
  9
$EXTMAX
 10
297.0
 20
210.0
 30
0.0
  9
$EXTMIN
 10
0.0
 20
0.0
 30
0.0
  9
$LIMMIN
 10
0.0
 20
0.0
  9
$LIMMAX
 10
297.0
 20
210.0
  9
$VIEWCTR
 10
148.5
 20
105.0
  9
$VIEWSIZE
 40
210.0
  9
$CLAYER
  8
0
  9
$LTSCALE
 40
16.335
  9
$CELTYPE
  6
BYLAYER
  9
$DIMSCALE
 40
1.0
  9
$DIMASZ
 40
3.0
  9
$DIMEXO
 40
0.5
  9
$DIMDLI
 40
11.286
  9
$DIMEXE
 40
1.5
  9
$DIMCEN
 40
2.673
  9
$DIMLFAC
 40
1.0
  9
$DIMBLK
  1
_FILLED
  9
$DIMTXT
 40
3.0
  9
$DIMTOL
 70
1
  9
$DIMLIM
 70
0
  9
$DIMTFAC
 40
1.0
  9
$DIMTP
 40
0.01
  9
$DIMTM
 40
0.01
  9
$DIMGAP
 40
0.625
  9
$DIMDSEP
 70
44
  9
$PDMODE
 70
3
  9
$PDSIZE
 40
3.0
  9
$HANDSEED
  5
57D
  9
$TILEMODE
 70
1
  9
$MEASUREMENT
 70
1
  9
$INSUNITS
 70
4
  0
ENDSEC
  0
SECTION
  2
CLASSES
  0
CLASS
  1
ACDBDICTIONARYWDFLT
  2
AcDbDictionaryWithDefault
  3
AutoCAD 2000
 90
0
280
0
281
0
  0
CLASS
  1
ACDBPLACEHOLDER
  2
AcDbPlaceHolder
  3
AutoCAD 2000
 90
0
280
0
281
0
  0
CLASS
  1
LAYOUT
  2
AcDbLayout
  3
AutoCAD 2000
 90
0
280
0
281
0
  0
ENDSEC
  0
SECTION
  2
TABLES
  0
TABLE
  2
VPORT
  5
8
100
AcDbSymbolTable
 70
2
  0
VPORT
  5
1F4
100
AcDbSymbolTableRecord
100
AcDbViewportTableRecord
  2
*ACTIVE
 70
0
 10
0.0
 20
0.0
 11
1.0
 21
1.0
 12
148.5
 22
105.0
 13
0.0
 23
0.0
 14
1.0
 24
1.0
 15
0.0
 25
0.0
 16
0.0
 26
0.0
 36
1.0
 17
0.0
 27
0.0
 37
0.0
 40
210.0
 41
1.4142857143
 42
50.0
 43
0.0
 44
0.0
 50
0.0
 51
0.0
 71
0
 72
100
 73
1
 74
1
 75
0
 76
0
 77
0
 78
0
  0
ENDTAB
  0
TABLE
  2
LTYPE
  5
5
100
AcDbSymbolTable
 70
6
  0
LTYPE
  5
14
100
AcDbSymbolTableRecord
100
AcDbLinetypeTableRecord
  2
BYBLOCK
 70
0
  3

 72
65
 73
0
 40
0.0
  0
LTYPE
  5
15
100
AcDbSymbolTableRecord
100
AcDbLinetypeTableRecord
  2
BYLAYER
 70
0
  3

 72
65
 73
0
 40
0.0
  0
LTYPE
  5
16
100
AcDbSymbolTableRecord
100
AcDbLinetypeTableRecord
  2
CONTINUOUS
 70
64
  3
Solid line
 72
65
 73
0
 40
0.0
  0
LTYPE
  5
1F5
100
AcDbSymbolTableRecord
100
AcDbLinetypeTableRecord
  2
CENTER
 70
64
  3
____ _ ____ _ ____ _ ____ _ ____ _ ____ _ ____
 72
65
 73
4
 40
0.6
 49
0.375
 74
0
 49
-0.075
 74
0
 49
0.075
 74
0
 49
-0.075
 74
0
  0
LTYPE
  5
1F6
100
AcDbSymbolTableRecord
100
AcDbLinetypeTableRecord
  2
HIDDEN
 70
64
  3
- - - - - - - - - - - - - - - - - - - -
 72
65
 73
2
 40
0.2
 49
0.1
 74
0
 49
-0.1
 74
0
  0
LTYPE
  5
1F7
100
AcDbSymbolTableRecord
100
AcDbLinetypeTableRecord
  2
PHANTOM
 70
64
  3
_____ _ _ _____ _ _ _____ _ _ _____
 72
65
 73
6
 40
0.8
 49
0.45
 74
0
 49
-0.05
 74
0
 49
0.1
 74
0
 49
-0.05
 74
0
 49
0.1
 74
0
 49
-0.05
 74
0
  0
LTYPE
  5
1F8
100
AcDbSymbolTableRecord
100
AcDbLinetypeTableRecord
  2
DOT
 70
64
  3
. . . . . . . . . . . . . . . . . . . .
 72
65
 73
2
 40
0.2
 49
0.1
 74
0
 49
-0.1
 74
0
  0
LTYPE
  5
1F9
100
AcDbSymbolTableRecord
100
AcDbLinetypeTableRecord
  2
DASHED
 70
64
  3
- - - - - - - - - - - - - - - - - - - -
 72
65
 73
2
 40
0.2
 49
0.1
 74
0
 49
-0.1
 74
0
  0
ENDTAB
  0
TABLE
  2
LAYER
  5
2
100
AcDbSymbolTable
 70
36
  0
LAYER
  5
10
100
AcDbSymbolTableRecord
100
AcDbLayerTableRecord
  2
0
 70
0
 62
7
  6
CONTINUOUS
370
-3
390
F
  0
LAYER
  5
1FA
100
AcDbSymbolTableRecord
100
AcDbLayerTableRecord
  2
DEFAULT_1
 70
0
 62
7
  6
CENTER
370
-3
390
F
  0
LAYER
  5
1FB
100
AcDbSymbolTableRecord
100
AcDbLayerTableRecord
  2
DEFAULT_2
 70
0
 62
7
  6
HIDDEN
370
-3
390
F
  0
LAYER
  5
1FC
100
AcDbSymbolTableRecord
100
AcDbLayerTableRecord
  2
DEFAULT_3
 70
0
 62
7
  6
PHANTOM
370
-3
390
F
  0
LAYER
  5
1FD
100
AcDbSymbolTableRecord
100
AcDbLayerTableRecord
  2
1608-FL-RF-VIMAR_80000
 70
0
 62
7
  6
CONTINUOUS
370
-3
390
F
  0
LAYER
  5
1FE
100
AcDbSymbolTableRecord
100
AcDbLayerTableRecord
  2
1615-LED-1-1-VIMAR_110000
 70
0
 62
7
  6
CONTINUOUS
370
-3
390
F
  0
LAYER
  5
1FF
100
AcDbSymbolTableRecord
100
AcDbLayerTableRecord
  2
200A_170000
 70
0
 62
7
  6
CONTINUOUS
370
-3
390
F
  0
LAYER
  5
200
100
AcDbSymbolTableRecord
100
AcDbLayerTableRecord
  2
200A_170000_1
 70
0
 62
7
  6
CONTINUOUS
370
-3
390
F
  0
LAYER
  5
201
100
AcDbSymbolTableRecord
100
AcDbLayerTableRecord
  2
201A_260000
 70
0
 62
7
  6
CONTINUOUS
370
-3
390
F
  0
LAYER
  5
202
100
AcDbSymbolTableRecord
100
AcDbLayerTableRecord
  2
201A_260000_1
 70
0
 62
7
  6
CONTINUOUS
370
-3
390
F
  0
LAYER
  5
203
100
AcDbSymbolTableRecord
100
AcDbLayerTableRecord
  2
201A_260000_2
 70
0
 62
7
  6
CONTINUOUS
370
-3
390
F
  0
LAYER
  5
204
100
AcDbSymbolTableRecord
100
AcDbLayerTableRecord
  2
2125-CC-RF-VIMAR_65000
 70
0
 62
7
  6
CONTINUOUS
370
-3
390
F
  0
LAYER
  5
205
100
AcDbSymbolTableRecord
100
AcDbLayerTableRecord
  2
2125-CC-RF-VIMAR_65000_1
 70
0
 62
7
  6
CONTINUOUS
370
-3
390
F
  0
LAYER
  5
206
100
AcDbSymbolTableRecord
100
AcDbLayerTableRecord
  2
2125-CC-RF-VIMAR_65000_10
 70
0
 62
7
  6
CONTINUOUS
370
-3
390
F
  0
LAYER
  5
207
100
AcDbSymbolTableRecord
100
AcDbLayerTableRecord
  2
2125-CC-RF-VIMAR_65000_11
 70
0
 62
7
  6
CONTINUOUS
370
-3
390
F
  0
LAYER
  5
208
100
AcDbSymbolTableRecord
100
AcDbLayerTableRecord
  2
2125-CC-RF-VIMAR_65000_12
 70
0
 62
7
  6
CONTINUOUS
370
-3
390
F
  0
LAYER
  5
209
100
AcDbSymbolTableRecord
100
AcDbLayerTableRecord
  2
2125-CC-RF-VIMAR_65000_13
 70
0
 62
7
  6
CONTINUOUS
370
-3
390
F
  0
LAYER
  5
20A
100
AcDbSymbolTableRecord
100
AcDbLayerTableRecord
  2
2125-CC-RF-VIMAR_65000_14
 70
0
 62
7
  6
CONTINUOUS
370
-3
390
F
  0
LAYER
  5
20B
100
AcDbSymbolTableRecord
100
AcDbLayerTableRecord
  2
2125-CC-RF-VIMAR_65000_15
 70
0
 62
7
  6
CONTINUOUS
370
-3
390
F
  0
LAYER
  5
20C
100
AcDbSymbolTableRecord
100
AcDbLayerTableRecord
  2
2125-CC-RF-VIMAR_65000_16
 70
0
 62
7
  6
CONTINUOUS
370
-3
390
F
  0
LAYER
  5
20D
100
AcDbSymbolTableRecord
100
AcDbLayerTableRecord
  2
2125-CC-RF-VIMAR_65000_17
 70
0
 62
7
  6
CONTINUOUS
370
-3
390
F
  0
LAYER
  5
20E
100
AcDbSymbolTableRecord
100
AcDbLayerTableRecord
  2
2125-CC-RF-VIMAR_65000_18
 70
0
 62
7
  6
CONTINUOUS
370
-3
390
F
  0
LAYER
  5
20F
100
AcDbSymbolTableRecord
100
AcDbLayerTableRecord
  2
2125-CC-RF-VIMAR_65000_19
 70
0
 62
7
  6
CONTINUOUS
370
-3
390
F
  0
LAYER
  5
210
100
AcDbSymbolTableRecord
100
AcDbLayerTableRecord
  2
2125-CC-RF-VIMAR_65000_2
 70
0
 62
7
  6
CONTINUOUS
370
-3
390
F
  0
LAYER
  5
211
100
AcDbSymbolTableRecord
100
AcDbLayerTableRecord
  2
2125-CC-RF-VIMAR_65000_20
 70
0
 62
7
  6
CONTINUOUS
370
-3
390
F
  0
LAYER
  5
212
100
AcDbSymbolTableRecord
100
AcDbLayerTableRecord
  2
2125-CC-RF-VIMAR_65000_21
 70
0
 62
7
  6
CONTINUOUS
370
-3
390
F
  0
LAYER
  5
213
100
AcDbSymbolTableRecord
100
AcDbLayerTableRecord
  2
2125-CC-RF-VIMAR_65000_22
 70
0
 62
7
  6
CONTINUOUS
370
-3
390
F
  0
LAYER
  5
214
100
AcDbSymbolTableRecord
100
AcDbLayerTableRecord
  2
2125-CC-RF-VIMAR_65000_23
 70
0
 62
7
  6
CONTINUOUS
370
-3
390
F
  0
LAYER
  5
215
100
AcDbSymbolTableRecord
100
AcDbLayerTableRecord
  2
2125-CC-RF-VIMAR_65000_24
 70
0
 62
7
  6
CONTINUOUS
370
-3
390
F
  0
LAYER
  5
216
100
AcDbSymbolTableRecord
100
AcDbLayerTableRecord
  2
2125-CC-RF-VIMAR_65000_25
 70
0
 62
7
  6
CONTINUOUS
370
-3
390
F
  0
LAYER
  5
217
100
AcDbSymbolTableRecord
100
AcDbLayerTableRecord
  2
2125-CC-RF-VIMAR_65000_26
 70
0
 62
7
  6
CONTINUOUS
370
-3
390
F
  0
LAYER
  5
218
100
AcDbSymbolTableRecord
100
AcDbLayerTableRecord
  2
2125-CC-RF-VIMAR_65000_27
 70
0
 62
7
  6
CONTINUOUS
370
-3
390
F
  0
LAYER
  5
219
100
AcDbSymbolTableRecord
100
AcDbLayerTableRecord
  2
2125-CC-RF-VIMAR_65000_28
 70
0
 62
7
  6
CONTINUOUS
370
-3
390
F
  0
LAYER
  5
21A
100
AcDbSymbolTableRecord
100
AcDbLayerTableRecord
  2
2125-CC-RF-VIMAR_65000_29
 70
0
 62
7
  6
CONTINUOUS
370
-3
390
F
  0
LAYER
  5
21B
100
AcDbSymbolTableRecord
100
AcDbLayerTableRecord
  2
2125-CC-RF-VIMAR_65000_3
 70
0
 62
7
  6
CONTINUOUS
370
-3
390
F
  0
LAYER
  5
21C
100
AcDbSymbolTableRecord
100
AcDbLayerTableRecord
  2
2125-CC-RF-VIMAR_65000_30
 70
0
 62
7
  6
CONTINUOUS
370
-3
390
F
  0
LAYER
  5
21D
100
AcDbSymbolTableRecord
100
AcDbLayerTableRecord
  2
2125-CC-RF-VIMAR_65000_31
 70
0
 62
7
  6
CONTINUOUS
370
-3
390
F
  0
LAYER
  5
21E
100
AcDbSymbolTableRecord
100
AcDbLayerTableRecord
  2
2125-CC-RF-VIMAR_65000_32
 70
0
 62
7
  6
CONTINUOUS
370
-3
390
F
  0
LAYER
  5
21F
100
AcDbSymbolTableRecord
100
AcDbLayerTableRecord
  2
2125-CC-RF-VIMAR_65000_33
 70
0
 62
7
  6
CONTINUOUS
370
-3
390
F
  0
LAYER
  5
220
100
AcDbSymbolTableRecord
100
AcDbLayerTableRecord
  2
2125-CC-RF-VIMAR_65000_34
 70
0
 62
7
  6
CONTINUOUS
370
-3
390
F
  0
LAYER
  5
221
100
AcDbSymbolTableRecord
100
AcDbLayerTableRecord
  2
2125-CC-RF-VIMAR_65000_35
 70
0
 62
7
  6
CONTINUOUS
370
-3
390
F
  0
LAYER
  5
222
100
AcDbSymbolTableRecord
100
AcDbLayerTableRecord
  2
2125-CC-RF-VIMAR_65000_36
 70
0
 62
7
  6
CONTINUOUS
370
-3
390
F
  0
LAYER
  5
223
100
AcDbSymbolTableRecord
100
AcDbLayerTableRecord
  2
2125-CC-RF-VIMAR_65000_37
 70
0
 62
7
  6
CONTINUOUS
370
-3
390
F
  0
LAYER
  5
224
100
AcDbSymbolTableRecord
100
AcDbLayerTableRecord
  2
2125-CC-RF-VIMAR_65000_38
 70
0
 62
7
  6
CONTINUOUS
370
-3
390
F
  0
LAYER
  5
225
100
AcDbSymbolTableRecord
100
AcDbLayerTableRecord
  2
2125-CC-RF-VIMAR_65000_39
 70
0
 62
7
  6
CONTINUOUS
370
-3
390
F
  0
LAYER
  5
226
100
AcDbSymbolTableRecord
100
AcDbLayerTableRecord
  2
2125-CC-RF-VIMAR_65000_4
 70
0
 62
7
  6
CONTINUOUS
370
-3
390
F
  0
LAYER
  5
227
100
AcDbSymbolTableRecord
100
AcDbLayerTableRecord
  2
2125-CC-RF-VIMAR_65000_40
 70
0
 62
7
  6
CONTINUOUS
370
-3
390
F
  0
LAYER
  5
228
100
AcDbSymbolTableRecord
100
AcDbLayerTableRecord
  2
2125-CC-RF-VIMAR_65000_41
 70
0
 62
7
  6
CONTINUOUS
370
-3
390
F
  0
LAYER
  5
229
100
AcDbSymbolTableRecord
100
AcDbLayerTableRecord
  2
2125-CC-RF-VIMAR_65000_5
 70
0
 62
7
  6
CONTINUOUS
370
-3
390
F
  0
LAYER
  5
22A
100
AcDbSymbolTableRecord
100
AcDbLayerTableRecord
  2
2125-CC-RF-VIMAR_65000_6
 70
0
 62
7
  6
CONTINUOUS
370
-3
390
F
  0
LAYER
  5
22B
100
AcDbSymbolTableRecord
100
AcDbLayerTableRecord
  2
2125-CC-RF-VIMAR_65000_7
 70
0
 62
7
  6
CONTINUOUS
370
-3
390
F
  0
LAYER
  5
22C
100
AcDbSymbolTableRecord
100
AcDbLayerTableRecord
  2
2125-CC-RF-VIMAR_65000_8
 70
0
 62
7
  6
CONTINUOUS
370
-3
390
F
  0
LAYER
  5
22D
100
AcDbSymbolTableRecord
100
AcDbLayerTableRecord
  2
2125-CC-RF-VIMAR_65000_9
 70
0
 62
7
  6
CONTINUOUS
370
-3
390
F
  0
LAYER
  5
22E
100
AcDbSymbolTableRecord
100
AcDbLayerTableRecord
  2
2125-DL-RF-FINE_VIMAR_110000
 70
0
 62
7
  6
CONTINUOUS
370
-3
390
F
  0
LAYER
  5
22F
100
AcDbSymbolTableRecord
100
AcDbLayerTableRecord
  2
2125-R1-RF-VIMAR_60000
 70
0
 62
7
  6
CONTINUOUS
370
-3
390
F
  0
LAYER
  5
230
100
AcDbSymbolTableRecord
100
AcDbLayerTableRecord
  2
2125-R1-RF-VIMAR_60000_1
 70
0
 62
7
  6
CONTINUOUS
370
-3
390
F
  0
LAYER
  5
231
100
AcDbSymbolTableRecord
100
AcDbLayerTableRecord
  2
2125-R1-RF-VIMAR_60000_10
 70
0
 62
7
  6
CONTINUOUS
370
-3
390
F
  0
LAYER
  5
232
100
AcDbSymbolTableRecord
100
AcDbLayerTableRecord
  2
2125-R1-RF-VIMAR_60000_11
 70
0
 62
7
  6
CONTINUOUS
370
-3
390
F
  0
LAYER
  5
233
100
AcDbSymbolTableRecord
100
AcDbLayerTableRecord
  2
2125-R1-RF-VIMAR_60000_12
 70
0
 62
7
  6
CONTINUOUS
370
-3
390
F
  0
LAYER
  5
234
100
AcDbSymbolTableRecord
100
AcDbLayerTableRecord
  2
2125-R1-RF-VIMAR_60000_13
 70
0
 62
7
  6
CONTINUOUS
370
-3
390
F
  0
LAYER
  5
235
100
AcDbSymbolTableRecord
100
AcDbLayerTableRecord
  2
2125-R1-RF-VIMAR_60000_14
 70
0
 62
7
  6
CONTINUOUS
370
-3
390
F
  0
LAYER
  5
236
100
AcDbSymbolTableRecord
100
AcDbLayerTableRecord
  2
2125-R1-RF-VIMAR_60000_15
 70
0
 62
7
  6
CONTINUOUS
370
-3
390
F
  0
LAYER
  5
237
100
AcDbSymbolTableRecord
100
AcDbLayerTableRecord
  2
2125-R1-RF-VIMAR_60000_16
 70
0
 62
7
  6
CONTINUOUS
370
-3
390
F
  0
LAYER
  5
238
100
AcDbSymbolTableRecord
100
AcDbLayerTableRecord
  2
2125-R1-RF-VIMAR_60000_17
 70
0
 62
7
  6
CONTINUOUS
370
-3
390
F
  0
LAYER
  5
239
100
AcDbSymbolTableRecord
100
AcDbLayerTableRecord
  2
2125-R1-RF-VIMAR_60000_18
 70
0
 62
7
  6
CONTINUOUS
370
-3
390
F
  0
LAYER
  5
23A
100
AcDbSymbolTableRecord
100
AcDbLayerTableRecord
  2
2125-R1-RF-VIMAR_60000_19
 70
0
 62
7
  6
CONTINUOUS
370
-3
390
F
  0
LAYER
  5
23B
100
AcDbSymbolTableRecord
100
AcDbLayerTableRecord
  2
2125-R1-RF-VIMAR_60000_2
 70
0
 62
7
  6
CONTINUOUS
370
-3
390
F
  0
LAYER
  5
23C
100
AcDbSymbolTableRecord
100
AcDbLayerTableRecord
  2
2125-R1-RF-VIMAR_60000_20
 70
0
 62
7
  6
CONTINUOUS
370
-3
390
F
  0
LAYER
  5
23D
100
AcDbSymbolTableRecord
100
AcDbLayerTableRecord
  2
2125-R1-RF-VIMAR_60000_21
 70
0
 62
7
  6
CONTINUOUS
370
-3
390
F
  0
LAYER
  5
23E
100
AcDbSymbolTableRecord
100
AcDbLayerTableRecord
  2
2125-R1-RF-VIMAR_60000_22
 70
0
 62
7
  6
CONTINUOUS
370
-3
390
F
  0
LAYER
  5
23F
100
AcDbSymbolTableRecord
100
AcDbLayerTableRecord
  2
2125-R1-RF-VIMAR_60000_23
 70
0
 62
7
  6
CONTINUOUS
370
-3
390
F
  0
LAYER
  5
240
100
AcDbSymbolTableRecord
100
AcDbLayerTableRecord
  2
2125-R1-RF-VIMAR_60000_24
 70
0
 62
7
  6
CONTINUOUS
370
-3
390
F
  0
LAYER
  5
241
100
AcDbSymbolTableRecord
100
AcDbLayerTableRecord
  2
2125-R1-RF-VIMAR_60000_25
 70
0
 62
7
  6
CONTINUOUS
370
-3
390
F
  0
LAYER
  5
242
100
AcDbSymbolTableRecord
100
AcDbLayerTableRecord
  2
2125-R1-RF-VIMAR_60000_26
 70
0
 62
7
  6
CONTINUOUS
370
-3
390
F
  0
LAYER
  5
243
100
AcDbSymbolTableRecord
100
AcDbLayerTableRecord
  2
2125-R1-RF-VIMAR_60000_27
 70
0
 62
7
  6
CONTINUOUS
370
-3
390
F
  0
LAYER
  5
244
100
AcDbSymbolTableRecord
100
AcDbLayerTableRecord
  2
2125-R1-RF-VIMAR_60000_28
 70
0
 62
7
  6
CONTINUOUS
370
-3
390
F
  0
LAYER
  5
245
100
AcDbSymbolTableRecord
100
AcDbLayerTableRecord
  2
2125-R1-RF-VIMAR_60000_29
 70
0
 62
7
  6
CONTINUOUS
370
-3
390
F
  0
LAYER
  5
246
100
AcDbSymbolTableRecord
100
AcDbLayerTableRecord
  2
2125-R1-RF-VIMAR_60000_3
 70
0
 62
7
  6
CONTINUOUS
370
-3
390
F
  0
LAYER
  5
247
100
AcDbSymbolTableRecord
100
AcDbLayerTableRecord
  2
2125-R1-RF-VIMAR_60000_30
 70
0
 62
7
  6
CONTINUOUS
370
-3
390
F
  0
LAYER
  5
248
100
AcDbSymbolTableRecord
100
AcDbLayerTableRecord
  2
2125-R1-RF-VIMAR_60000_31
 70
0
 62
7
  6
CONTINUOUS
370
-3
390
F
  0
LAYER
  5
249
100
AcDbSymbolTableRecord
100
AcDbLayerTableRecord
  2
2125-R1-RF-VIMAR_60000_4
 70
0
 62
7
  6
CONTINUOUS
370
-3
390
F
  0
LAYER
  5
24A
100
AcDbSymbolTableRecord
100
AcDbLayerTableRecord
  2
2125-R1-RF-VIMAR_60000_5
 70
0
 62
7
  6
CONTINUOUS
370
-3
390
F
  0
LAYER
  5
24B
100
AcDbSymbolTableRecord
100
AcDbLayerTableRecord
  2
2125-R1-RF-VIMAR_60000_6
 70
0
 62
7
  6
CONTINUOUS
370
-3
390
F
  0
LAYER
  5
24C
100
AcDbSymbolTableRecord
100
AcDbLayerTableRecord
  2
2125-R1-RF-VIMAR_60000_7
 70
0
 62
7
  6
CONTINUOUS
370
-3
390
F
  0
LAYER
  5
24D
100
AcDbSymbolTableRecord
100
AcDbLayerTableRecord
  2
2125-R1-RF-VIMAR_60000_8
 70
0
 62
7
  6
CONTINUOUS
370
-3
390
F
  0
LAYER
  5
24E
100
AcDbSymbolTableRecord
100
AcDbLayerTableRecord
  2
2125-R1-RF-VIMAR_60000_9
 70
0
 62
7
  6
CONTINUOUS
370
-3
390
F
  0
LAYER
  5
24F
100
AcDbSymbolTableRecord
100
AcDbLayerTableRecord
  2
3216-CF-RF-VIMAR_100000
 70
0
 62
7
  6
CONTINUOUS
370
-3
390
F
  0
LAYER
  5
250
100
AcDbSymbolTableRecord
100
AcDbLayerTableRecord
  2
3216-CF-RF-VIMAR_100000_1
 70
0
 62
7
  6
CONTINUOUS
370
-3
390
F
  0
LAYER
  5
251
100
AcDbSymbolTableRecord
100
AcDbLayerTableRecord
  2
3216-CF-RF-VIMAR_100000_2
 70
0
 62
7
  6
CONTINUOUS
370
-3
390
F
  0
LAYER
  5
252
100
AcDbSymbolTableRecord
100
AcDbLayerTableRecord
  2
3216-CF-RF-VIMAR_100000_3
 70
0
 62
7
  6
CONTINUOUS
370
-3
390
F
  0
LAYER
  5
253
100
AcDbSymbolTableRecord
100
AcDbLayerTableRecord
  2
3216-CF-RF-VIMAR_100000_4
 70
0
 62
7
  6
CONTINUOUS
370
-3
390
F
  0
LAYER
  5
254
100
AcDbSymbolTableRecord
100
AcDbLayerTableRecord
  2
3216-CF-RF-VIMAR_100000_5
 70
0
 62
7
  6
CONTINUOUS
370
-3
390
F
  0
LAYER
  5
255
100
AcDbSymbolTableRecord
100
AcDbLayerTableRecord
  2
3216-CF-RF-VIMAR_100000_6
 70
0
 62
7
  6
CONTINUOUS
370
-3
390
F
  0
LAYER
  5
256
100
AcDbSymbolTableRecord
100
AcDbLayerTableRecord
  2
3216-CF-RF-VIMAR_100000_7
 70
0
 62
7
  6
CONTINUOUS
370
-3
390
F
  0
LAYER
  5
257
100
AcDbSymbolTableRecord
100
AcDbLayerTableRecord
  2
3216-CF-RF-VIMAR_100000_8
 70
0
 62
7
  6
CONTINUOUS
370
-3
390
F
  0
LAYER
  5
258
100
AcDbSymbolTableRecord
100
AcDbLayerTableRecord
  2
3216-R1-RF-VIMAR_60000
 70
0
 62
7
  6
CONTINUOUS
370
-3
390
F
  0
LAYER
  5
259
100
AcDbSymbolTableRecord
100
AcDbLayerTableRecord
  2
3216-R1-RF-VIMAR_60000_1
 70
0
 62
7
  6
CONTINUOUS
370
-3
390
F
  0
LAYER
  5
25A
100
AcDbSymbolTableRecord
100
AcDbLayerTableRecord
  2
3216-R1-RF-VIMAR_60000_10
 70
0
 62
7
  6
CONTINUOUS
370
-3
390
F
  0
LAYER
  5
25B
100
AcDbSymbolTableRecord
100
AcDbLayerTableRecord
  2
3216-R1-RF-VIMAR_60000_11
 70
0
 62
7
  6
CONTINUOUS
370
-3
390
F
  0
LAYER
  5
25C
100
AcDbSymbolTableRecord
100
AcDbLayerTableRecord
  2
3216-R1-RF-VIMAR_60000_12
 70
0
 62
7
  6
CONTINUOUS
370
-3
390
F
  0
LAYER
  5
25D
100
AcDbSymbolTableRecord
100
AcDbLayerTableRecord
  2
3216-R1-RF-VIMAR_60000_13
 70
0
 62
7
  6
CONTINUOUS
370
-3
390
F
  0
LAYER
  5
25E
100
AcDbSymbolTableRecord
100
AcDbLayerTableRecord
  2
3216-R1-RF-VIMAR_60000_14
 70
0
 62
7
  6
CONTINUOUS
370
-3
390
F
  0
LAYER
  5
25F
100
AcDbSymbolTableRecord
100
AcDbLayerTableRecord
  2
3216-R1-RF-VIMAR_60000_15
 70
0
 62
7
  6
CONTINUOUS
370
-3
390
F
  0
LAYER
  5
260
100
AcDbSymbolTableRecord
100
AcDbLayerTableRecord
  2
3216-R1-RF-VIMAR_60000_2
 70
0
 62
7
  6
CONTINUOUS
370
-3
390
F
  0
LAYER
  5
261
100
AcDbSymbolTableRecord
100
AcDbLayerTableRecord
  2
3216-R1-RF-VIMAR_60000_3
 70
0
 62
7
  6
CONTINUOUS
370
-3
390
F
  0
LAYER
  5
262
100
AcDbSymbolTableRecord
100
AcDbLayerTableRecord
  2
3216-R1-RF-VIMAR_60000_4
 70
0
 62
7
  6
CONTINUOUS
370
-3
390
F
  0
LAYER
  5
263
100
AcDbSymbolTableRecord
100
AcDbLayerTableRecord
  2
3216-R1-RF-VIMAR_60000_5
 70
0
 62
7
  6
CONTINUOUS
370
-3
390
F
  0
LAYER
  5
264
100
AcDbSymbolTableRecord
100
AcDbLayerTableRecord
  2
3216-R1-RF-VIMAR_60000_6
 70
0
 62
7
  6
CONTINUOUS
370
-3
390
F
  0
LAYER
  5
265
100
AcDbSymbolTableRecord
100
AcDbLayerTableRecord
  2
3216-R1-RF-VIMAR_60000_7
 70
0
 62
7
  6
CONTINUOUS
370
-3
390
F
  0
LAYER
  5
266
100
AcDbSymbolTableRecord
100
AcDbLayerTableRecord
  2
3216-R1-RF-VIMAR_60000_8
 70
0
 62
7
  6
CONTINUOUS
370
-3
390
F
  0
LAYER
  5
267
100
AcDbSymbolTableRecord
100
AcDbLayerTableRecord
  2
3216-R1-RF-VIMAR_60000_9
 70
0
 62
7
  6
CONTINUOUS
370
-3
390
F
  0
LAYER
  5
268
100
AcDbSymbolTableRecord
100
AcDbLayerTableRecord
  2
43000547A0
 70
0
 62
7
  6
CONTINUOUS
370
-3
390
F
  0
LAYER
  5
269
100
AcDbSymbolTableRecord
100
AcDbLayerTableRecord
  2
6032-CS-RF_280000
 70
0
 62
7
  6
CONTINUOUS
370
-3
390
F
  0
LAYER
  5
26A
100
AcDbSymbolTableRecord
100
AcDbLayerTableRecord
  2
ASSI
 70
0
 62
7
  6
CONTINUOUS
370
-3
390
F
  0
LAYER
  5
26B
100
AcDbSymbolTableRecord
100
AcDbLayerTableRecord
  2
AX-D100-1-VIMAR_300000
 70
0
 62
7
  6
CONTINUOUS
370
-3
390
F
  0
LAYER
  5
26C
100
AcDbSymbolTableRecord
100
AcDbLayerTableRecord
  2
AX-D100-1-VIMAR_300000_1
 70
0
 62
7
  6
CONTINUOUS
370
-3
390
F
  0
LAYER
  5
26D
100
AcDbSymbolTableRecord
100
AcDbLayerTableRecord
  2
AX-D75-1-VIMAR_200000
 70
0
 62
7
  6
CONTINUOUS
370
-3
390
F
  0
LAYER
  5
26E
100
AcDbSymbolTableRecord
100
AcDbLayerTableRecord
  2
AX-R100-2-VIMAR_230000
 70
0
 62
7
  6
CONTINUOUS
370
-3
390
F
  0
LAYER
  5
26F
100
AcDbSymbolTableRecord
100
AcDbLayerTableRecord
  2
CAPC1608N_80000
 70
0
 62
7
  6
CONTINUOUS
370
-3
390
F
  0
LAYER
  5
270
100
AcDbSymbolTableRecord
100
AcDbLayerTableRecord
  2
CAPC1608N_80000_1
 70
0
 62
7
  6
CONTINUOUS
370
-3
390
F
  0
LAYER
  5
271
100
AcDbSymbolTableRecord
100
AcDbLayerTableRecord
  2
CAPC1608N_80000_2
 70
0
 62
7
  6
CONTINUOUS
370
-3
390
F
  0
LAYER
  5
272
100
AcDbSymbolTableRecord
100
AcDbLayerTableRecord
  2
CAPC1608N_80000_3
 70
0
 62
7
  6
CONTINUOUS
370
-3
390
F
  0
LAYER
  5
273
100
AcDbSymbolTableRecord
100
AcDbLayerTableRecord
  2
CAPC1608N_80000_4
 70
0
 62
7
  6
CONTINUOUS
370
-3
390
F
  0
LAYER
  5
274
100
AcDbSymbolTableRecord
100
AcDbLayerTableRecord
  2
CAPC1608N_80000_5
 70
0
 62
7
  6
CONTINUOUS
370
-3
390
F
  0
LAYER
  5
275
100
AcDbSymbolTableRecord
100
AcDbLayerTableRecord
  2
CAPC1608N_80000_6
 70
0
 62
7
  6
CONTINUOUS
370
-3
390
F
  0
LAYER
  5
276
100
AcDbSymbolTableRecord
100
AcDbLayerTableRecord
  2
CAPC1608N_80000_7
 70
0
 62
7
  6
CONTINUOUS
370
-3
390
F
  0
LAYER
  5
277
100
AcDbSymbolTableRecord
100
AcDbLayerTableRecord
  2
CAPC1608N_80000_8
 70
0
 62
7
  6
CONTINUOUS
370
-3
390
F
  0
LAYER
  5
278
100
AcDbSymbolTableRecord
100
AcDbLayerTableRecord
  2
CN-CSF_CSM_2-VIMAR_1150000
 70
0
 62
7
  6
CONTINUOUS
370
-3
390
F
  0
LAYER
  5
279
100
AcDbSymbolTableRecord
100
AcDbLayerTableRecord
  2
CN-MRT4P5_2-VIMAR_1750000
 70
0
 62
7
  6
CONTINUOUS
370
-3
390
F
  0
LAYER
  5
27A
100
AcDbSymbolTableRecord
100
AcDbLayerTableRecord
  2
CN-MRT4P5_2-VIMAR_1750000_1
 70
0
 62
7
  6
CONTINUOUS
370
-3
390
F
  0
LAYER
  5
27B
100
AcDbSymbolTableRecord
100
AcDbLayerTableRecord
  2
CN-MRT4P5_2-VIMAR_1750000_2
 70
0
 62
7
  6
CONTINUOUS
370
-3
390
F
  0
LAYER
  5
27C
100
AcDbSymbolTableRecord
100
AcDbLayerTableRecord
  2
CN-MRT4P5_3-VIMAR_1750000
 70
0
 62
7
  6
CONTINUOUS
370
-3
390
F
  0
LAYER
  5
27D
100
AcDbSymbolTableRecord
100
AcDbLayerTableRecord
  2
CN1-REF_RHOMBUSHOLE24_SPEA_0
 70
0
 62
7
  6
CONTINUOUS
370
-3
390
F
  0
LAYER
  5
27E
100
AcDbSymbolTableRecord
100
AcDbLayerTableRecord
  2
CN1-REF_RHOMBUSHOLE24_SPEA_0_1
 70
0
 62
7
  6
CONTINUOUS
370
-3
390
F
  0
LAYER
  5
27F
100
AcDbSymbolTableRecord
100
AcDbLayerTableRecord
  2
CN1-REF_RHOMBUSHOLE24_SPEA_0_2
 70
0
 62
7
  6
CONTINUOUS
370
-3
390
F
  0
LAYER
  5
280
100
AcDbSymbolTableRecord
100
AcDbLayerTableRecord
  2
CN1-REF_RHOMBUSHOLE24_SPEA_0_3
 70
0
 62
7
  6
CONTINUOUS
370
-3
390
F
  0
LAYER
  5
281
100
AcDbSymbolTableRecord
100
AcDbLayerTableRecord
  2
CN3-HEADER-PIH-P2_54_850000
 70
0
 62
7
  6
CONTINUOUS
370
-3
390
F
  0
LAYER
  5
282
100
AcDbSymbolTableRecord
100
AcDbLayerTableRecord
  2
CN3-HEADER-PIH-P2_54_850000_1
 70
0
 62
7
  6
CONTINUOUS
370
-3
390
F
  0
LAYER
  5
283
100
AcDbSymbolTableRecord
100
AcDbLayerTableRecord
  2
CN4-FSN-1_2540000
 70
0
 62
7
  6
CONTINUOUS
370
-3
390
F
  0
LAYER
  5
284
100
AcDbSymbolTableRecord
100
AcDbLayerTableRecord
  2
CN4-FSN-1_2540000_1
 70
0
 62
7
  6
CONTINUOUS
370
-3
390
F
  0
LAYER
  5
285
100
AcDbSymbolTableRecord
100
AcDbLayerTableRecord
  2
CN6-FSN-1_2540000
 70
0
 62
7
  6
CONTINUOUS
370
-3
390
F
  0
LAYER
  5
286
100
AcDbSymbolTableRecord
100
AcDbLayerTableRecord
  2
COLOR1
 70
0
 62
7
  6
CONTINUOUS
370
-3
390
F
  0
LAYER
  5
287
100
AcDbSymbolTableRecord
100
AcDbLayerTableRecord
  2
COLOR14
 70
0
 62
7
  6
CONTINUOUS
370
-3
390
F
  0
LAYER
  5
288
100
AcDbSymbolTableRecord
100
AcDbLayerTableRecord
  2
COLOR5
 70
0
 62
7
  6
CONTINUOUS
370
-3
390
F
  0
LAYER
  5
289
100
AcDbSymbolTableRecord
100
AcDbLayerTableRecord
  2
COLOR6
 70
0
 62
7
  6
CONTINUOUS
370
-3
390
F
  0
LAYER
  5
28A
100
AcDbSymbolTableRecord
100
AcDbLayerTableRecord
  2
COORDINATE
 70
0
 62
7
  6
CONTINUOUS
370
-3
390
F
  0
LAYER
  5
28B
100
AcDbSymbolTableRecord
100
AcDbLayerTableRecord
  2
COORD_ORIGINE
 70
0
 62
7
  6
CONTINUOUS
370
-3
390
F
  0
LAYER
  5
28C
100
AcDbSymbolTableRecord
100
AcDbLayerTableRecord
  2
COPY_PUBLISH
 70
0
 62
7
  6
CONTINUOUS
370
-3
390
F
  0
LAYER
  5
28D
100
AcDbSymbolTableRecord
100
AcDbLayerTableRecord
  2
COSMETIC
 70
0
 62
7
  6
CONTINUOUS
370
-3
390
F
  0
LAYER
  5
28E
100
AcDbSymbolTableRecord
100
AcDbLayerTableRecord
  2
COSMETICI
 70
0
 62
7
  6
CONTINUOUS
370
-3
390
F
  0
LAYER
  5
28F
100
AcDbSymbolTableRecord
100
AcDbLayerTableRecord
  2
CP-DO-214AC-D-VIMAR_240000
 70
0
 62
7
  6
CONTINUOUS
370
-3
390
F
  0
LAYER
  5
290
100
AcDbSymbolTableRecord
100
AcDbLayerTableRecord
  2
CP-DO-214AC-D-VIMAR_240000_1
 70
0
 62
7
  6
CONTINUOUS
370
-3
390
F
  0
LAYER
  5
291
100
AcDbSymbolTableRecord
100
AcDbLayerTableRecord
  2
CP-DO-214AC-D-VIMAR_240000_2
 70
0
 62
7
  6
CONTINUOUS
370
-3
390
F
  0
LAYER
  5
292
100
AcDbSymbolTableRecord
100
AcDbLayerTableRecord
  2
CP-DO-214AC-D-VIMAR_240000_3
 70
0
 62
7
  6
CONTINUOUS
370
-3
390
F
  0
LAYER
  5
293
100
AcDbSymbolTableRecord
100
AcDbLayerTableRecord
  2
CP-DO-214AC-VIMAR_240000
 70
0
 62
7
  6
CONTINUOUS
370
-3
390
F
  0
LAYER
  5
294
100
AcDbSymbolTableRecord
100
AcDbLayerTableRecord
  2
CP-L3-RF-VIMAR_180000
 70
0
 62
7
  6
CONTINUOUS
370
-3
390
F
  0
LAYER
  5
295
100
AcDbSymbolTableRecord
100
AcDbLayerTableRecord
  2
CURVE
 70
0
 62
7
  6
CONTINUOUS
370
-3
390
F
  0
LAYER
  5
296
100
AcDbSymbolTableRecord
100
AcDbLayerTableRecord
  2
DRAFT
 70
0
 62
7
  6
CONTINUOUS
370
-3
390
F
  0
LAYER
  5
297
100
AcDbSymbolTableRecord
100
AcDbLayerTableRecord
  2
E2_MARK_10000
 70
0
 62
7
  6
CONTINUOUS
370
-3
390
F
  0
LAYER
  5
298
100
AcDbSymbolTableRecord
100
AcDbLayerTableRecord
  2
E2_MARK_10000_1
 70
0
 62
7
  6
CONTINUOUS
370
-3
390
F
  0
LAYER
  5
299
100
AcDbSymbolTableRecord
100
AcDbLayerTableRecord
  2
E4_MARK_10000
 70
0
 62
7
  6
CONTINUOUS
370
-3
390
F
  0
LAYER
  5
29A
100
AcDbSymbolTableRecord
100
AcDbLayerTableRecord
  2
E4_MARK_10000_1
 70
0
 62
7
  6
CONTINUOUS
370
-3
390
F
  0
LAYER
  5
29B
100
AcDbSymbolTableRecord
100
AcDbLayerTableRecord
  2
HEATSINK-PF720G-1-VIMAR_10000
 70
0
 62
7
  6
CONTINUOUS
370
-3
390
F
  0
LAYER
  5
29C
100
AcDbSymbolTableRecord
100
AcDbLayerTableRecord
  2
HEATSINK-PF720G-1-VIMAR_10000_1
 70
0
 62
7
  6
CONTINUOUS
370
-3
390
F
  0
LAYER
  5
29D
100
AcDbSymbolTableRecord
100
AcDbLayerTableRecord
  2
HETASINK-ALL_25X50X1_5FORO3_5-V
 70
0
 62
7
  6
CONTINUOUS
370
-3
390
F
  0
LAYER
  5
29E
100
AcDbSymbolTableRecord
100
AcDbLayerTableRecord
  2
I3-TO-H12-VIMAR_1080000
 70
0
 62
7
  6
CONTINUOUS
370
-3
390
F
  0
LAYER
  5
29F
100
AcDbSymbolTableRecord
100
AcDbLayerTableRecord
  2
I3-TO-H12-VIMAR_1080000_1
 70
0
 62
7
  6
CONTINUOUS
370
-3
390
F
  0
LAYER
  5
2A0
100
AcDbSymbolTableRecord
100
AcDbLayerTableRecord
  2
I3-TO-H2-7C-VIMAR_2040000
 70
0
 62
7
  6
CONTINUOUS
370
-3
390
F
  0
LAYER
  5
2A1
100
AcDbSymbolTableRecord
100
AcDbLayerTableRecord
  2
I3-TO-H2-VIMAR_1130000
 70
0
 62
7
  6
CONTINUOUS
370
-3
390
F
  0
LAYER
  5
2A2
100
AcDbSymbolTableRecord
100
AcDbLayerTableRecord
  2
I3-TO-H2-VIMAR_1130000_1
 70
0
 62
7
  6
CONTINUOUS
370
-3
390
F
  0
LAYER
  5
2A3
100
AcDbSymbolTableRecord
100
AcDbLayerTableRecord
  2
IMPORT_IGES
 70
0
 62
7
  6
CONTINUOUS
370
-3
390
F
  0
LAYER
  5
2A4
100
AcDbSymbolTableRecord
100
AcDbLayerTableRecord
  2
INDC3216X130N_130000
 70
0
 62
7
  6
CONTINUOUS
370
-3
390
F
  0
LAYER
  5
2A5
100
AcDbSymbolTableRecord
100
AcDbLayerTableRecord
  2
INDC3216X130N_130000_1
 70
0
 62
7
  6
CONTINUOUS
370
-3
390
F
  0
LAYER
  5
2A6
100
AcDbSymbolTableRecord
100
AcDbLayerTableRecord
  2
INTFCLR_1
 70
0
 62
7
  6
CONTINUOUS
370
-3
390
F
  0
LAYER
  5
2A7
100
AcDbSymbolTableRecord
100
AcDbLayerTableRecord
  2
INTFCLR_229
 70
0
 62
7
  6
CONTINUOUS
370
-3
390
F
  0
LAYER
  5
2A8
100
AcDbSymbolTableRecord
100
AcDbLayerTableRecord
  2
INTF_1
 70
0
 62
7
  6
CONTINUOUS
370
-3
390
F
  0
LAYER
  5
2A9
100
AcDbSymbolTableRecord
100
AcDbLayerTableRecord
  2
INTF_2
 70
0
 62
7
  6
CONTINUOUS
370
-3
390
F
  0
LAYER
  5
2AA
100
AcDbSymbolTableRecord
100
AcDbLayerTableRecord
  2
INTF_8
 70
0
 62
7
  6
CONTINUOUS
370
-3
390
F
  0
LAYER
  5
2AB
100
AcDbSymbolTableRecord
100
AcDbLayerTableRecord
  2
INTF_BLANK
 70
0
 62
7
  6
CONTINUOUS
370
-3
390
F
  0
LAYER
  5
2AC
100
AcDbSymbolTableRecord
100
AcDbLayerTableRecord
  2
INTF_YELLOW
 70
0
 62
7
  6
CONTINUOUS
370
-3
390
F
  0
LAYER
  5
2AD
100
AcDbSymbolTableRecord
100
AcDbLayerTableRecord
  2
LOGO_RESIST-RESTYLING_10000
 70
0
 62
7
  6
CONTINUOUS
370
-3
390
F
  0
LAYER
  5
2AE
100
AcDbSymbolTableRecord
100
AcDbLayerTableRecord
  2
LOGO_RESIST-RESTYLING_10000_1
 70
0
 62
7
  6
CONTINUOUS
370
-3
390
F
  0
LAYER
  5
2AF
100
AcDbSymbolTableRecord
100
AcDbLayerTableRecord
  2
MM2-SWITCH-1-VIMAR_150000
 70
0
 62
7
  6
CONTINUOUS
370
-3
390
F
  0
LAYER
  5
2B0
100
AcDbSymbolTableRecord
100
AcDbLayerTableRecord
  2
MM3-DPAK-1-VIMAR_240000
 70
0
 62
7
  6
CONTINUOUS
370
-3
390
F
  0
LAYER
  5
2B1
100
AcDbSymbolTableRecord
100
AcDbLayerTableRecord
  2
MM3-DPAK-1-VIMAR_240000_1
 70
0
 62
7
  6
CONTINUOUS
370
-3
390
F
  0
LAYER
  5
2B2
100
AcDbSymbolTableRecord
100
AcDbLayerTableRecord
  2
MM3-DPAK-1-VIMAR_240000_2
 70
0
 62
7
  6
CONTINUOUS
370
-3
390
F
  0
LAYER
  5
2B3
100
AcDbSymbolTableRecord
100
AcDbLayerTableRecord
  2
MM3-MPAK-RF-VIMAR_120000
 70
0
 62
7
  6
CONTINUOUS
370
-3
390
F
  0
LAYER
  5
2B4
100
AcDbSymbolTableRecord
100
AcDbLayerTableRecord
  2
MM3-MPAK-RF-VIMAR_120000_1
 70
0
 62
7
  6
CONTINUOUS
370
-3
390
F
  0
LAYER
  5
2B5
100
AcDbSymbolTableRecord
100
AcDbLayerTableRecord
  2
MM3-MPAK-RF-VIMAR_120000_2
 70
0
 62
7
  6
CONTINUOUS
370
-3
390
F
  0
LAYER
  5
2B6
100
AcDbSymbolTableRecord
100
AcDbLayerTableRecord
  2
MM3-MPAK-RF-VIMAR_120000_3
 70
0
 62
7
  6
CONTINUOUS
370
-3
390
F
  0
LAYER
  5
2B7
100
AcDbSymbolTableRecord
100
AcDbLayerTableRecord
  2
MM3-MPAK-RF-VIMAR_120000_4
 70
0
 62
7
  6
CONTINUOUS
370
-3
390
F
  0
LAYER
  5
2B8
100
AcDbSymbolTableRecord
100
AcDbLayerTableRecord
  2
MM3-SOT-223-RF-VIMAR_180000
 70
0
 62
7
  6
CONTINUOUS
370
-3
390
F
  0
LAYER
  5
2B9
100
AcDbSymbolTableRecord
100
AcDbLayerTableRecord
  2
MM3-SOT-89-RF-VIMAR_150000
 70
0
 62
7
  6
CONTINUOUS
370
-3
390
F
  0
LAYER
  5
2BA
100
AcDbSymbolTableRecord
100
AcDbLayerTableRecord
  2
MM4-MB-1-VIMAR_290000
 70
0
 62
7
  6
CONTINUOUS
370
-3
390
F
  0
LAYER
  5
2BB
100
AcDbSymbolTableRecord
100
AcDbLayerTableRecord
  2
MM4-SSOP-1-VIMAR_210000
 70
0
 62
7
  6
CONTINUOUS
370
-3
390
F
  0
LAYER
  5
2BC
100
AcDbSymbolTableRecord
100
AcDbLayerTableRecord
  2
MM5-FMT-RF_120000
 70
0
 62
7
  6
CONTINUOUS
370
-3
390
F
  0
LAYER
  5
2BD
100
AcDbSymbolTableRecord
100
AcDbLayerTableRecord
  2
NO-PB_MARK_10000
 70
0
 62
7
  6
CONTINUOUS
370
-3
390
F
  0
LAYER
  5
2BE
100
AcDbSymbolTableRecord
100
AcDbLayerTableRecord
  2
NO-PB_MARK_10000_1
 70
0
 62
7
  6
CONTINUOUS
370
-3
390
F
  0
LAYER
  5
2BF
100
AcDbSymbolTableRecord
100
AcDbLayerTableRecord
  2
NOTE
 70
0
 62
7
  6
CONTINUOUS
370
-3
390
F
  0
LAYER
  5
2C0
100
AcDbSymbolTableRecord
100
AcDbLayerTableRecord
  2
PIANI
 70
0
 62
7
  6
CONTINUOUS
370
-3
390
F
  0
LAYER
  5
2C1
100
AcDbSymbolTableRecord
100
AcDbLayerTableRecord
  2
PIANI_ORIGINE
 70
0
 62
7
  6
CONTINUOUS
370
-3
390
F
  0
LAYER
  5
2C2
100
AcDbSymbolTableRecord
100
AcDbLayerTableRecord
  2
PTC_RGEF250_1280000
 70
0
 62
7
  6
CONTINUOUS
370
-3
390
F
  0
LAYER
  5
2C3
100
AcDbSymbolTableRecord
100
AcDbLayerTableRecord
  2
PTC_RUEF135_1350000
 70
0
 62
7
  6
CONTINUOUS
370
-3
390
F
  0
LAYER
  5
2C4
100
AcDbSymbolTableRecord
100
AcDbLayerTableRecord
  2
PUNTI
 70
0
 62
7
  6
CONTINUOUS
370
-3
390
F
  0
LAYER
  5
2C5
100
AcDbSymbolTableRecord
100
AcDbLayerTableRecord
  2
QFP32-M_0
 70
0
 62
7
  6
CONTINUOUS
370
-3
390
F
  0
LAYER
  5
2C6
100
AcDbSymbolTableRecord
100
AcDbLayerTableRecord
  2
RACCORDO
 70
0
 62
7
  6
CONTINUOUS
370
-3
390
F
  0
LAYER
  5
2C7
100
AcDbSymbolTableRecord
100
AcDbLayerTableRecord
  2
RD-C100-5-VIMAR_1250000
 70
0
 62
7
  6
CONTINUOUS
370
-3
390
F
  0
LAYER
  5
2C8
100
AcDbSymbolTableRecord
100
AcDbLayerTableRecord
  2
RD-C100-5-VIMAR_1250000_1
 70
0
 62
7
  6
CONTINUOUS
370
-3
390
F
  0
LAYER
  5
2C9
100
AcDbSymbolTableRecord
100
AcDbLayerTableRecord
  2
RD-C150-2-VIMAR_1350000
 70
0
 62
7
  6
CONTINUOUS
370
-3
390
F
  0
LAYER
  5
2CA
100
AcDbSymbolTableRecord
100
AcDbLayerTableRecord
  2
RD-C150-2-VIMAR_1350000_1
 70
0
 62
7
  6
CONTINUOUS
370
-3
390
F
  0
LAYER
  5
2CB
100
AcDbSymbolTableRecord
100
AcDbLayerTableRecord
  2
RD-C150-4-VIMAR_1200000
 70
0
 62
7
  6
CONTINUOUS
370
-3
390
F
  0
LAYER
  5
2CC
100
AcDbSymbolTableRecord
100
AcDbLayerTableRecord
  2
RD-C150-8-VIMAR_1650000
 70
0
 62
7
  6
CONTINUOUS
370
-3
390
F
  0
LAYER
  5
2CD
100
AcDbSymbolTableRecord
100
AcDbLayerTableRecord
  2
RD-C50-1-VIMAR_800000
 70
0
 62
7
  6
CONTINUOUS
370
-3
390
F
  0
LAYER
  5
2CE
100
AcDbSymbolTableRecord
100
AcDbLayerTableRecord
  2
RD-C50-10-VIMAR_650000
 70
0
 62
7
  6
CONTINUOUS
370
-3
390
F
  0
LAYER
  5
2CF
100
AcDbSymbolTableRecord
100
AcDbLayerTableRecord
  2
RD-C50-10-VIMAR_650000_1
 70
0
 62
7
  6
CONTINUOUS
370
-3
390
F
  0
LAYER
  5
2D0
100
AcDbSymbolTableRecord
100
AcDbLayerTableRecord
  2
RD-CE15-VIMAR_700000
 70
0
 62
7
  6
CONTINUOUS
370
-3
390
F
  0
LAYER
  5
2D1
100
AcDbSymbolTableRecord
100
AcDbLayerTableRecord
  2
RD-CE20-1-VIMAR_1100000
 70
0
 62
7
  6
CONTINUOUS
370
-3
390
F
  0
LAYER
  5
2D2
100
AcDbSymbolTableRecord
100
AcDbLayerTableRecord
  2
RD-CE20-1-VIMAR_1100000_1
 70
0
 62
7
  6
CONTINUOUS
370
-3
390
F
  0
LAYER
  5
2D3
100
AcDbSymbolTableRecord
100
AcDbLayerTableRecord
  2
RD-CE20-1-VIMAR_1100000_2
 70
0
 62
7
  6
CONTINUOUS
370
-3
390
F
  0
LAYER
  5
2D4
100
AcDbSymbolTableRecord
100
AcDbLayerTableRecord
  2
RD-CE20-1-VIMAR_1100000_3
 70
0
 62
7
  6
CONTINUOUS
370
-3
390
F
  0
LAYER
  5
2D5
100
AcDbSymbolTableRecord
100
AcDbLayerTableRecord
  2
RD-CE20-1-VIMAR_1100000_4
 70
0
 62
7
  6
CONTINUOUS
370
-3
390
F
  0
LAYER
  5
2D6
100
AcDbSymbolTableRecord
100
AcDbLayerTableRecord
  2
RD-CE20-1-VIMAR_700000
 70
0
 62
7
  6
CONTINUOUS
370
-3
390
F
  0
LAYER
  5
2D7
100
AcDbSymbolTableRecord
100
AcDbLayerTableRecord
  2
RD-CE20-1-VIMAR_700000_1
 70
0
 62
7
  6
CONTINUOUS
370
-3
390
F
  0
LAYER
  5
2D8
100
AcDbSymbolTableRecord
100
AcDbLayerTableRecord
  2
RD-CE20-1-VIMAR_700000_2
 70
0
 62
7
  6
CONTINUOUS
370
-3
390
F
  0
LAYER
  5
2D9
100
AcDbSymbolTableRecord
100
AcDbLayerTableRecord
  2
RD-CE20-1-VIMAR_700000_3
 70
0
 62
7
  6
CONTINUOUS
370
-3
390
F
  0
LAYER
  5
2DA
100
AcDbSymbolTableRecord
100
AcDbLayerTableRecord
  2
RD-CE20-1-VIMAR_700000_4
 70
0
 62
7
  6
CONTINUOUS
370
-3
390
F
  0
LAYER
  5
2DB
100
AcDbSymbolTableRecord
100
AcDbLayerTableRecord
  2
RD-CE25-1-VIMAR_1100000
 70
0
 62
7
  6
CONTINUOUS
370
-3
390
F
  0
LAYER
  5
2DC
100
AcDbSymbolTableRecord
100
AcDbLayerTableRecord
  2
RD-CE50-2-VIMAR_1600000
 70
0
 62
7
  6
CONTINUOUS
370
-3
390
F
  0
LAYER
  5
2DD
100
AcDbSymbolTableRecord
100
AcDbLayerTableRecord
  2
RD-CE50-3-VIMAR_2000000
 70
0
 62
7
  6
CONTINUOUS
370
-3
390
F
  0
LAYER
  5
2DE
100
AcDbSymbolTableRecord
100
AcDbLayerTableRecord
  2
RD-CE50-4-VIMAR_2000000
 70
0
 62
7
  6
CONTINUOUS
370
-3
390
F
  0
LAYER
  5
2DF
100
AcDbSymbolTableRecord
100
AcDbLayerTableRecord
  2
RD-CE50-5-VIMAR_2500000
 70
0
 62
7
  6
CONTINUOUS
370
-3
390
F
  0
LAYER
  5
2E0
100
AcDbSymbolTableRecord
100
AcDbLayerTableRecord
  2
RD-CE50-5-VIMAR_2500000_1
 70
0
 62
7
  6
CONTINUOUS
370
-3
390
F
  0
LAYER
  5
2E1
100
AcDbSymbolTableRecord
100
AcDbLayerTableRecord
  2
RD-CE50-5-VIMAR_2500000_2
 70
0
 62
7
  6
CONTINUOUS
370
-3
390
F
  0
LAYER
  5
2E2
100
AcDbSymbolTableRecord
100
AcDbLayerTableRecord
  2
RD-CE75-4-VIMAR_2000000
 70
0
 62
7
  6
CONTINUOUS
370
-3
390
F
  0
LAYER
  5
2E3
100
AcDbSymbolTableRecord
100
AcDbLayerTableRecord
  2
RD-CE75-4-VIMAR_2500000
 70
0
 62
7
  6
CONTINUOUS
370
-3
390
F
  0
LAYER
  5
2E4
100
AcDbSymbolTableRecord
100
AcDbLayerTableRecord
  2
RD-CE75-4-VIMAR_2500000_1
 70
0
 62
7
  6
CONTINUOUS
370
-3
390
F
  0
LAYER
  5
2E5
100
AcDbSymbolTableRecord
100
AcDbLayerTableRecord
  2
RD-D-D3P5-VIMAR_1500000
 70
0
 62
7
  6
CONTINUOUS
370
-3
390
F
  0
LAYER
  5
2E6
100
AcDbSymbolTableRecord
100
AcDbLayerTableRecord
  2
RD-D-D3P5-VIMAR_1500000_1
 70
0
 62
7
  6
CONTINUOUS
370
-3
390
F
  0
LAYER
  5
2E7
100
AcDbSymbolTableRecord
100
AcDbLayerTableRecord
  2
RD-D-D3P5-VIMAR_1500000_2
 70
0
 62
7
  6
CONTINUOUS
370
-3
390
F
  0
LAYER
  5
2E8
100
AcDbSymbolTableRecord
100
AcDbLayerTableRecord
  2
RD-D-D3P5-VIMAR_1500000_3
 70
0
 62
7
  6
CONTINUOUS
370
-3
390
F
  0
LAYER
  5
2E9
100
AcDbSymbolTableRecord
100
AcDbLayerTableRecord
  2
RD-D-D5_5P7_5_VIMAR_1800000
 70
0
 62
7
  6
CONTINUOUS
370
-3
390
F
  0
LAYER
  5
2EA
100
AcDbSymbolTableRecord
100
AcDbLayerTableRecord
  2
RD-D50-1-VIMAR_1100000
 70
0
 62
7
  6
CONTINUOUS
370
-3
390
F
  0
LAYER
  5
2EB
100
AcDbSymbolTableRecord
100
AcDbLayerTableRecord
  2
RD-L2-1-VIMAR_1850000
 70
0
 62
7
  6
CONTINUOUS
370
-3
390
F
  0
LAYER
  5
2EC
100
AcDbSymbolTableRecord
100
AcDbLayerTableRecord
  2
RD-L2-1-VIMAR_2030000
 70
0
 62
7
  6
CONTINUOUS
370
-3
390
F
  0
LAYER
  5
2ED
100
AcDbSymbolTableRecord
100
AcDbLayerTableRecord
  2
RD-L50-4-VIMAR_1000000
 70
0
 62
7
  6
CONTINUOUS
370
-3
390
F
  0
LAYER
  5
2EE
100
AcDbSymbolTableRecord
100
AcDbLayerTableRecord
  2
RD-L50-4-VIMAR_1000000_1
 70
0
 62
7
  6
CONTINUOUS
370
-3
390
F
  0
LAYER
  5
2EF
100
AcDbSymbolTableRecord
100
AcDbLayerTableRecord
  2
RD-L50-4-VIMAR_1000000_2
 70
0
 62
7
  6
CONTINUOUS
370
-3
390
F
  0
LAYER
  5
2F0
100
AcDbSymbolTableRecord
100
AcDbLayerTableRecord
  2
RD-L50-5-VIMAR_1300000
 70
0
 62
7
  6
CONTINUOUS
370
-3
390
F
  0
LAYER
  5
2F1
100
AcDbSymbolTableRecord
100
AcDbLayerTableRecord
  2
RD-PT6V-VIMAR_400000
 70
0
 62
7
  6
CONTINUOUS
370
-3
390
F
  0
LAYER
  5
2F2
100
AcDbSymbolTableRecord
100
AcDbLayerTableRecord
  2
RD-R50-1W-1-VIMAR_1700000
 70
0
 62
7
  6
CONTINUOUS
370
-3
390
F
  0
LAYER
  5
2F3
100
AcDbSymbolTableRecord
100
AcDbLayerTableRecord
  2
RD-R50-1W-1-VIMAR_1700000_1
 70
0
 62
7
  6
CONTINUOUS
370
-3
390
F
  0
LAYER
  5
2F4
100
AcDbSymbolTableRecord
100
AcDbLayerTableRecord
  2
RD-R50-3-VIMAR_1000000
 70
0
 62
7
  6
CONTINUOUS
370
-3
390
F
  0
LAYER
  5
2F5
100
AcDbSymbolTableRecord
100
AcDbLayerTableRecord
  2
RD-R50-3-VIMAR_1000000_1
 70
0
 62
7
  6
CONTINUOUS
370
-3
390
F
  0
LAYER
  5
2F6
100
AcDbSymbolTableRecord
100
AcDbLayerTableRecord
  2
RD-R50-3-VIMAR_1000000_2
 70
0
 62
7
  6
CONTINUOUS
370
-3
390
F
  0
LAYER
  5
2F7
100
AcDbSymbolTableRecord
100
AcDbLayerTableRecord
  2
RD-R75-1W-1-VIMAR_1400000
 70
0
 62
7
  6
CONTINUOUS
370
-3
390
F
  0
LAYER
  5
2F8
100
AcDbSymbolTableRecord
100
AcDbLayerTableRecord
  2
RD-ZNR75-1-VIMAR_1450000
 70
0
 62
7
  6
CONTINUOUS
370
-3
390
F
  0
LAYER
  5
2F9
100
AcDbSymbolTableRecord
100
AcDbLayerTableRecord
  2
RD-ZNR75-1-VIMAR_1450000_1
 70
0
 62
7
  6
CONTINUOUS
370
-3
390
F
  0
LAYER
  5
2FA
100
AcDbSymbolTableRecord
100
AcDbLayerTableRecord
  2
RESC1608N_45000
 70
0
 62
7
  6
CONTINUOUS
370
-3
390
F
  0
LAYER
  5
2FB
100
AcDbSymbolTableRecord
100
AcDbLayerTableRecord
  2
RESC1608N_45000_1
 70
0
 62
7
  6
CONTINUOUS
370
-3
390
F
  0
LAYER
  5
2FC
100
AcDbSymbolTableRecord
100
AcDbLayerTableRecord
  2
RESC1608N_45000_10
 70
0
 62
7
  6
CONTINUOUS
370
-3
390
F
  0
LAYER
  5
2FD
100
AcDbSymbolTableRecord
100
AcDbLayerTableRecord
  2
RESC1608N_45000_11
 70
0
 62
7
  6
CONTINUOUS
370
-3
390
F
  0
LAYER
  5
2FE
100
AcDbSymbolTableRecord
100
AcDbLayerTableRecord
  2
RESC1608N_45000_12
 70
0
 62
7
  6
CONTINUOUS
370
-3
390
F
  0
LAYER
  5
2FF
100
AcDbSymbolTableRecord
100
AcDbLayerTableRecord
  2
RESC1608N_45000_13
 70
0
 62
7
  6
CONTINUOUS
370
-3
390
F
  0
LAYER
  5
300
100
AcDbSymbolTableRecord
100
AcDbLayerTableRecord
  2
RESC1608N_45000_14
 70
0
 62
7
  6
CONTINUOUS
370
-3
390
F
  0
LAYER
  5
301
100
AcDbSymbolTableRecord
100
AcDbLayerTableRecord
  2
RESC1608N_45000_15
 70
0
 62
7
  6
CONTINUOUS
370
-3
390
F
  0
LAYER
  5
302
100
AcDbSymbolTableRecord
100
AcDbLayerTableRecord
  2
RESC1608N_45000_16
 70
0
 62
7
  6
CONTINUOUS
370
-3
390
F
  0
LAYER
  5
303
100
AcDbSymbolTableRecord
100
AcDbLayerTableRecord
  2
RESC1608N_45000_17
 70
0
 62
7
  6
CONTINUOUS
370
-3
390
F
  0
LAYER
  5
304
100
AcDbSymbolTableRecord
100
AcDbLayerTableRecord
  2
RESC1608N_45000_18
 70
0
 62
7
  6
CONTINUOUS
370
-3
390
F
  0
LAYER
  5
305
100
AcDbSymbolTableRecord
100
AcDbLayerTableRecord
  2
RESC1608N_45000_19
 70
0
 62
7
  6
CONTINUOUS
370
-3
390
F
  0
LAYER
  5
306
100
AcDbSymbolTableRecord
100
AcDbLayerTableRecord
  2
RESC1608N_45000_2
 70
0
 62
7
  6
CONTINUOUS
370
-3
390
F
  0
LAYER
  5
307
100
AcDbSymbolTableRecord
100
AcDbLayerTableRecord
  2
RESC1608N_45000_20
 70
0
 62
7
  6
CONTINUOUS
370
-3
390
F
  0
LAYER
  5
308
100
AcDbSymbolTableRecord
100
AcDbLayerTableRecord
  2
RESC1608N_45000_21
 70
0
 62
7
  6
CONTINUOUS
370
-3
390
F
  0
LAYER
  5
309
100
AcDbSymbolTableRecord
100
AcDbLayerTableRecord
  2
RESC1608N_45000_3
 70
0
 62
7
  6
CONTINUOUS
370
-3
390
F
  0
LAYER
  5
30A
100
AcDbSymbolTableRecord
100
AcDbLayerTableRecord
  2
RESC1608N_45000_4
 70
0
 62
7
  6
CONTINUOUS
370
-3
390
F
  0
LAYER
  5
30B
100
AcDbSymbolTableRecord
100
AcDbLayerTableRecord
  2
RESC1608N_45000_5
 70
0
 62
7
  6
CONTINUOUS
370
-3
390
F
  0
LAYER
  5
30C
100
AcDbSymbolTableRecord
100
AcDbLayerTableRecord
  2
RESC1608N_45000_6
 70
0
 62
7
  6
CONTINUOUS
370
-3
390
F
  0
LAYER
  5
30D
100
AcDbSymbolTableRecord
100
AcDbLayerTableRecord
  2
RESC1608N_45000_7
 70
0
 62
7
  6
CONTINUOUS
370
-3
390
F
  0
LAYER
  5
30E
100
AcDbSymbolTableRecord
100
AcDbLayerTableRecord
  2
RESC1608N_45000_8
 70
0
 62
7
  6
CONTINUOUS
370
-3
390
F
  0
LAYER
  5
30F
100
AcDbSymbolTableRecord
100
AcDbLayerTableRecord
  2
RESC1608N_45000_9
 70
0
 62
7
  6
CONTINUOUS
370
-3
390
F
  0
LAYER
  5
310
100
AcDbSymbolTableRecord
100
AcDbLayerTableRecord
  2
RESC5025X70N_70000
 70
0
 62
7
  6
CONTINUOUS
370
-3
390
F
  0
LAYER
  5
311
100
AcDbSymbolTableRecord
100
AcDbLayerTableRecord
  2
RESC5025X70N_70000_1
 70
0
 62
7
  6
CONTINUOUS
370
-3
390
F
  0
LAYER
  5
312
100
AcDbSymbolTableRecord
100
AcDbLayerTableRecord
  2
S-PB-4_5X6_5_H13_PIH_VIMAR_1480
 70
0
 62
7
  6
CONTINUOUS
370
-3
390
F
  0
LAYER
  5
313
100
AcDbSymbolTableRecord
100
AcDbLayerTableRecord
  2
SIMBOLI
 70
0
 62
7
  6
CONTINUOUS
370
-3
390
F
  0
LAYER
  5
314
100
AcDbSymbolTableRecord
100
AcDbLayerTableRecord
  2
SMUSSO
 70
0
 62
7
  6
CONTINUOUS
370
-3
390
F
  0
LAYER
  5
315
100
AcDbSymbolTableRecord
100
AcDbLayerTableRecord
  2
SNAPLINE
 70
0
 62
7
  6
CONTINUOUS
370
-3
390
F
  0
LAYER
  5
316
100
AcDbSymbolTableRecord
100
AcDbLayerTableRecord
  2
SOP4-T1-RF-VIMAR_350000
 70
0
 62
7
  6
CONTINUOUS
370
-3
390
F
  0
LAYER
  5
317
100
AcDbSymbolTableRecord
100
AcDbLayerTableRecord
  2
SOP4-T1-RF-VIMAR_350000_1
 70
0
 62
7
  6
CONTINUOUS
370
-3
390
F
  0
LAYER
  5
318
100
AcDbSymbolTableRecord
100
AcDbLayerTableRecord
  2
SOP4-T1-RF-VIMAR_350000_2
 70
0
 62
7
  6
CONTINUOUS
370
-3
390
F
  0
LAYER
  5
319
100
AcDbSymbolTableRecord
100
AcDbLayerTableRecord
  2
SUPERFICI
 70
0
 62
7
  6
CONTINUOUS
370
-3
390
F
  0
LAYER
  5
31A
100
AcDbSymbolTableRecord
100
AcDbLayerTableRecord
  2
TP10_SMD_0
 70
0
 62
7
  6
CONTINUOUS
370
-3
390
F
  0
LAYER
  5
31B
100
AcDbSymbolTableRecord
100
AcDbLayerTableRecord
  2
TP10_SMD_0_1
 70
0
 62
7
  6
CONTINUOUS
370
-3
390
F
  0
LAYER
  5
31C
100
AcDbSymbolTableRecord
100
AcDbLayerTableRecord
  2
TP10_SMD_0_2
 70
0
 62
7
  6
CONTINUOUS
370
-3
390
F
  0
LAYER
  5
31D
100
AcDbSymbolTableRecord
100
AcDbLayerTableRecord
  2
TP10_SMD_0_3
 70
0
 62
7
  6
CONTINUOUS
370
-3
390
F
  0
LAYER
  5
31E
100
AcDbSymbolTableRecord
100
AcDbLayerTableRecord
  2
TP10_SMD_0_4
 70
0
 62
7
  6
CONTINUOUS
370
-3
390
F
  0
LAYER
  5
31F
100
AcDbSymbolTableRecord
100
AcDbLayerTableRecord
  2
TP10_SMD_0_5
 70
0
 62
7
  6
CONTINUOUS
370
-3
390
F
  0
LAYER
  5
320
100
AcDbSymbolTableRecord
100
AcDbLayerTableRecord
  2
TP10_SMD_0_6
 70
0
 62
7
  6
CONTINUOUS
370
-3
390
F
  0
LAYER
  5
321
100
AcDbSymbolTableRecord
100
AcDbLayerTableRecord
  2
TP10_SMD_0_7
 70
0
 62
7
  6
CONTINUOUS
370
-3
390
F
  0
LAYER
  5
322
100
AcDbSymbolTableRecord
100
AcDbLayerTableRecord
  2
TR-E32-1_2400000
 70
0
 62
7
  6
CONTINUOUS
370
-3
390
F
  0
LAYER
  5
323
100
AcDbSymbolTableRecord
100
AcDbLayerTableRecord
  2
TRASH
 70
0
 62
7
  6
CONTINUOUS
370
-3
390
F
  0
LAYER
  5
324
100
AcDbSymbolTableRecord
100
AcDbLayerTableRecord
  2
UMT-250_60000
 70
0
 62
7
  6
CONTINUOUS
370
-3
390
F
  0
LAYER
  5
325
100
AcDbSymbolTableRecord
100
AcDbLayerTableRecord
  2
UMT-250_60000_1
 70
0
 62
7
  6
CONTINUOUS
370
-3
390
F
  0
LAYER
  5
326
100
AcDbSymbolTableRecord
100
AcDbLayerTableRecord
  2
XSEC_DATUMS
 70
0
 62
7
  6
CONTINUOUS
370
-3
390
F
  0
LAYER
  5
327
100
AcDbSymbolTableRecord
100
AcDbLayerTableRecord
  2
___SHELL
 70
0
 62
7
  6
CONTINUOUS
370
-3
390
F
  0
ENDTAB
  0
TABLE
  2
STYLE
  5
3
100
AcDbSymbolTable
 70
1
  0
STYLE
  5
11
100
AcDbSymbolTableRecord
100
AcDbTextStyleTableRecord
  2
STANDARD
 70
0
 40
0.0
 41
0.8
 50
0.0
 71
0
 42
0.2
  3
txt
  4

  0
STYLE
  5
328
100
AcDbSymbolTableRecord
100
AcDbTextStyleTableRecord
  2
TEXTSTYLE_1
 70
0
 40
0.0
 41
0.8
 50
0.0
 71
0
 42
0.2
  3
gdt
  4

  0
ENDTAB
  0
TABLE
  2
VIEW
  5
6
100
AcDbSymbolTable
 70
0
  0
ENDTAB
  0
TABLE
  2
UCS
  5
7
100
AcDbSymbolTable
 70
0
  0
ENDTAB
  0
TABLE
  2
APPID
  5
9
100
AcDbSymbolTable
 70
1
  0
APPID
  5
329
100
AcDbSymbolTableRecord
100
AcDbRegAppTableRecord
  2
ACAD
 70
0
  0
ENDTAB
  0
TABLE
  2
BLOCK_RECORD
  5
1
100
AcDbSymbolTable
 70
0
  0
BLOCK_RECORD
  5
32A
100
AcDbSymbolTableRecord
100
AcDbBlockTableRecord
  2
*Model_Space
  0
BLOCK_RECORD
  5
32B
100
AcDbSymbolTableRecord
100
AcDbBlockTableRecord
  2
*Paper_Space
  0
ENDTAB
  0
TABLE
  2
DIMSTYLE
  5
A
100
AcDbSymbolTable
 70
1
100
AcDbDimStyleTable
 71
0
  0
DIMSTYLE
105
32C
100
AcDbSymbolTableRecord
100
AcDbDimStyleTableRecord
  2
STANDARD
 70
0
  3

  4

 40
1.0
 41
3.0
 42
0.5
 43
0.38
 44
1.5
 45
0.0
 46
0.0
 47
0.01
 48
0.01
140
3.0
141
0.09
142
0.0
143
25.4
144
1.0
145
0.0
146
1.0
147
0.625
 71
1.0
 72
0.0
 73
0
 74
0
 75
0
 76
0
 77
1
 78
8
170
0
171
2
172
0
173
0
174
0
175
0
176
0
177
0
178
0
270
2
271
2
272
2
273
2
274
2
275
0
280
0
281
0
282
0
283
1
284
8
285
0
286
0
287
3
288
0
340
11
278
44
  0
ENDTAB
  0
ENDSEC
  0
SECTION
  2
BLOCKS
  0
BLOCK
  5
20
100
AcDbEntity
  8
0
100
AcDbBlockBegin
  2
*Model_Space
 70
0
 10
0.0
 20
0.0
 30
0.0
  3
*Model_Space
  1

  0
ENDBLK
  5
21
100
AcDbEntity
  8
0
100
AcDbBlockEnd
  0
BLOCK
  5
1C
100
AcDbEntity
  8
0
100
AcDbBlockBegin
  2
*Paper_Space
 70
0
 10
0.0
 20
0.0
 30
0.0
  3
*Paper_Space
  1

  0
ENDBLK
  5
1D
100
AcDbEntity
  8
0
100
AcDbBlockEnd
  0
ENDSEC
  0
SECTION
  2
ENTITIES
  0
LWPOLYLINE
  5
32D
100
AcDbEntity
  8
RACCORDO
100
AcDbPolyline
 62
7
  6
CONTINUOUS
 90
31
 70
0
 10
-214.417636543
 20
6.9690301022
 10
-214.4076799879
 20
6.8332657663
 10
-214.3915259868
 20
6.6983861765
 10
-214.3691745397
 20
6.5643913329
 10
-214.3405222048
 20
6.4308488489
 10
-214.3056724239
 20
6.2981911111
 10
-214.2649355221
 20
6.1677152792
 10
-214.218270215
 20
6.0395811279
 10
-214.165717787
 20
5.9136288826
 10
-214.1077124163
 20
5.7906763786
 10
-214.0443691066
 20
5.6709282457
 10
-213.9755728543
 20
5.5541798542
 10
-213.9014128275
 20
5.4406351503
 10
-213.8216859706
 20
5.3300265462
 10
-213.7365953392
 20
5.2226216297
 10
-213.6468392673
 20
5.1194271099
 10
-213.5523365993
 20
5.020514221
 10
-213.4531684908
 20
4.9258117287
 10
-213.3502767428
 20
4.8361126397
 10
-213.2439075694
 20
4.7516441334
 10
-213.1338147566
 20
4.6721790303
 10
-213.0202014624
 20
4.5978287983
 10
-212.9028792242
 20
4.5284627571
 10
-212.7820365047
 20
4.4642115871
 10
-212.65844185
 20
4.4055787975
 10
-212.531929791
 20
4.3525879528
 10
-212.4026657968
 20
4.3052154884
 10
-212.2719148209
 20
4.2638942196
 10
-212.1400985146
 20
4.2287684181
 10
-212.0067952265
 20
4.1996938122
 10
-211.8720049568
 20
4.1766704019
  0
LWPOLYLINE
  5
32E
100
AcDbEntity
  8
ASSI
100
AcDbPolyline
 62
7
  6
CONTINUOUS
 90
31
 70
0
 10
-214.417636543
 20
6.9690301022
 10
-214.4076799879
 20
6.8332657663
 10
-214.3915259868
 20
6.6983861765
 10
-214.3691745397
 20
6.5643913329
 10
-214.3405222048
 20
6.4308488489
 10
-214.3056724239
 20
6.2981911111
 10
-214.2649355221
 20
6.1677152792
 10
-214.218270215
 20
6.0395811279
 10
-214.165717787
 20
5.9136288826
 10
-214.1077124163
 20
5.7906763786
 10
-214.0443691066
 20
5.6709282457
 10
-213.9755728543
 20
5.5541798542
 10
-213.9014128275
 20
5.4406351503
 10
-213.8216859706
 20
5.3300265462
 10
-213.7365953392
 20
5.2226216297
 10
-213.6468392673
 20
5.1194271099
 10
-213.5523365993
 20
5.020514221
 10
-213.4531684908
 20
4.9258117287
 10
-213.3502767428
 20
4.8361126397
 10
-213.2439075694
 20
4.7516441334
 10
-213.1338147566
 20
4.6721790303
 10
-213.0202014624
 20
4.5978287983
 10
-212.9028792242
 20
4.5284627571
 10
-212.7820365047
 20
4.4642115871
 10
-212.65844185
 20
4.4055787975
 10
-212.531929791
 20
4.3525879528
 10
-212.4026657968
 20
4.3052154884
 10
-212.2719148209
 20
4.2638942196
 10
-212.1400985146
 20
4.2287684181
 10
-212.0067952265
 20
4.1996938122
 10
-211.8720049568
 20
4.1766704019
  0
LINE
  5
32F
100
AcDbEntity
  8
RACCORDO
100
AcDbLine
 62
7
  6
CONTINUOUS
 10
-214.7111427693
 20
6.3714170419
 11
-214.710672878
 21
6.362464166
  0
LINE
  5
330
100
AcDbEntity
  8
ASSI
100
AcDbLine
 62
7
  6
CONTINUOUS
 10
-214.7111427693
 20
6.3714170419
 11
-214.710672878
 21
6.362464166
  0
LWPOLYLINE
  5
331
100
AcDbEntity
  8
DRAFT
100
AcDbPolyline
 62
7
  6
CONTINUOUS
 90
13
 70
0
 10
-213.0133602735
 20
6.7981328179
 10
-213.2102394954
 20
10.9980674817
 10
-213.3713256525
 20
15.1989082679
 10
-213.4966187448
 20
19.4006551766
 10
-213.5861226314
 20
23.6036102484
 10
-213.6398334533
 20
27.8074714426
 10
-213.6577396332
 20
32.0113326369
 10
-213.6398334533
 20
36.2151938311
 10
-213.5861226314
 20
40.4190550253
 10
-213.4966187448
 20
44.6220100971
 10
-213.3713256525
 20
48.8237570058
 10
-213.2102394954
 20
53.024597792
 10
-213.0133602735
 20
57.2245324558
  0
LINE
  5
332
100
AcDbEntity
  8
RACCORDO
100
AcDbLine
 62
253
  6
CONTINUOUS
 10
-211.9060715342
 20
5.5841162704
 11
-211.8997994985
 21
5.3883674391
  0
LWPOLYLINE
  5
333
100
AcDbEntity
  8
RACCORDO
100
AcDbPolyline
 62
7
  6
CONTINUOUS
 90
7
 70
0
 10
-213.8577396332
 20
32.0113326368
 10
-213.8398250205
 20
27.8057075567
 10
-213.7860903272
 20
23.6000824766
 10
-213.696549271
 20
19.3954056669
 10
-213.5712064244
 20
15.1919932178
 10
-213.4100572149
 20
10.9895290392
 10
-213.2131016425
 20
6.788013131
  0
LWPOLYLINE
  5
334
100
AcDbEntity
  8
ASSI
100
AcDbPolyline
 62
7
  6
CONTINUOUS
 90
7
 70
0
 10
-213.8577396332
 20
32.0113326368
 10
-213.8398250205
 20
27.8057075567
 10
-213.7860903272
 20
23.6000824766
 10
-213.696549271
 20
19.3954056669
 10
-213.5712064244
 20
15.1919932178
 10
-213.4100572149
 20
10.9895290392
 10
-213.2131016425
 20
6.788013131
  0
LINE
  5
335
100
AcDbEntity
  8
RACCORDO
100
AcDbLine
 62
253
  6
CONTINUOUS
 10
-213.2131016425
 20
57.2346521427
 11
-213.2131016425
 21
56.5726650503
  0
LINE
  5
336
100
AcDbEntity
  8
ASSI
100
AcDbLine
 62
253
  6
CONTINUOUS
 10
-213.2131016425
 20
57.2346521427
 11
-213.2131016425
 21
56.5726650503
  0
LINE
  5
337
100
AcDbEntity
  8
RACCORDO
100
AcDbLine
 62
253
  6
CONTINUOUS
 10
-211.9354607893
 20
58.6354404667
 11
-211.9354607893
 21
58.4385490033
  0
LINE
  5
338
100
AcDbEntity
  8
ASSI
100
AcDbLine
 62
253
  6
CONTINUOUS
 10
-211.9354607893
 20
58.6354404667
 11
-211.9354607893
 21
58.4385490033
  0
LWPOLYLINE
  5
339
100
AcDbEntity
  8
0
100
AcDbPolyline
 62
7
  6
CONTINUOUS
 90
7
 70
0
 10
-213.2429548184
 20
56.0606393779
 10
-213.4307913337
 20
51.9573461158
 10
-213.5844788973
 20
47.8531888449
 10
-213.704017509
 20
43.7481675652
 10
-213.7894110089
 20
39.6419942737
 10
-213.8406555571
 20
35.5349569735
 10
-213.8553128476
 20
32.0113225421
  0
LWPOLYLINE
  5
33A
100
AcDbEntity
  8
ASSI
100
AcDbPolyline
 62
7
  6
CONTINUOUS
 90
7
 70
0
 10
-213.2429548184
 20
56.0606393779
 10
-213.4307913337
 20
51.9573461158
 10
-213.5844788973
 20
47.8531888449
 10
-213.704017509
 20
43.7481675652
 10
-213.7894110089
 20
39.6419942737
 10
-213.8406555571
 20
35.5349569735
 10
-213.8553128476
 20
32.0113225421
  0
LWPOLYLINE
  5
33B
100
AcDbEntity
  8
RACCORDO
100
AcDbPolyline
 62
7
  6
CONTINUOUS
 90
13
 70
0
 10
-214.7111427693
 20
56.9705997746
 10
-214.9086844533
 20
52.7567793302
 10
-215.0703288282
 20
48.5414436801
 10
-215.1960642783
 20
44.3248957348
 10
-215.2858817684
 20
40.1074384918
 10
-215.3397748443
 20
35.8893750141
 10
-215.3577396332
 20
31.6710084081
 10
-215.3397748443
 20
27.4526418021
 10
-215.2858817684
 20
23.2345783244
 10
-215.1960642783
 20
19.0171210815
 10
-215.0703288282
 20
14.8005731361
 10
-214.9086844533
 20
10.5852374861
 10
-214.7111427693
 20
6.3714170417
  0
LWPOLYLINE
  5
33C
100
AcDbEntity
  8
ASSI
100
AcDbPolyline
 62
7
  6
CONTINUOUS
 90
13
 70
0
 10
-214.7111427693
 20
56.9705997746
 10
-214.9086844533
 20
52.7567793302
 10
-215.0703288282
 20
48.5414436801
 10
-215.1960642783
 20
44.3248957348
 10
-215.2858817684
 20
40.1074384918
 10
-215.3397748443
 20
35.8893750141
 10
-215.3577396332
 20
31.6710084081
 10
-215.3397748443
 20
27.4526418021
 10
-215.2858817684
 20
23.2345783244
 10
-215.1960642783
 20
19.0171210815
 10
-215.0703288282
 20
14.8005731361
 10
-214.9086844533
 20
10.5852374861
 10
-214.7111427693
 20
6.3714170417
  0
LWPOLYLINE
  5
33D
100
AcDbEntity
  8
RACCORDO
100
AcDbPolyline
 62
7
  6
CONTINUOUS
 90
7
 70
0
 10
-213.2131016425
 20
57.2346521427
 10
-213.4100572149
 20
53.0331362345
 10
-213.5712064244
 20
48.8306720559
 10
-213.696549271
 20
44.6272596068
 10
-213.7860903272
 20
40.4225827971
 10
-213.8398250205
 20
36.216957717
 10
-213.8577396332
 20
32.0113326368
  0
LWPOLYLINE
  5
33E
100
AcDbEntity
  8
ASSI
100
AcDbPolyline
 62
7
  6
CONTINUOUS
 90
7
 70
0
 10
-213.2131016425
 20
57.2346521427
 10
-213.4100572149
 20
53.0331362345
 10
-213.5712064244
 20
48.8306720559
 10
-213.696549271
 20
44.6272596068
 10
-213.7860903272
 20
40.4225827971
 10
-213.8398250205
 20
36.216957717
 10
-213.8577396332
 20
32.0113326368
  0
LWPOLYLINE
  5
33F
100
AcDbEntity
  8
RACCORDO
100
AcDbPolyline
 62
7
  6
CONTINUOUS
 90
25
 70
0
 10
-214.417636543
 20
57.0536351715
 10
-214.5188662184
 20
54.9683049065
 10
-214.611296882
 20
52.8826323048
 10
-214.6949285338
 20
50.7966173664
 10
-214.769762525
 20
48.710219801
 10
-214.8357975043
 20
46.6234798988
 10
-214.8930294182
 20
44.5365185309
 10
-214.9414576229
 20
42.449339271
 10
-214.9810827621
 20
40.3619385454
 10
-215.0119027127
 20
38.2744265042
 10
-215.033917008
 20
36.1868027588
 10
-215.0471261148
 20
34.0990676978
 10
-215.0515293109
 20
32.0113326369
 10
-215.0471261148
 20
29.9235975759
 10
-215.033917008
 20
27.8358625149
 10
-215.0119027127
 20
25.7482387695
 10
-214.9810827621
 20
23.6607267283
 10
-214.9414576229
 20
21.5733260027
 10
-214.8930294182
 20
19.4861467428
 10
-214.8357975043
 20
17.3991853749
 10
-214.769762525
 20
15.3124454727
 10
-214.6949285338
 20
13.2260479073
 10
-214.611296882
 20
11.1400329689
 10
-214.5188662184
 20
9.0543603672
 10
-214.417636543
 20
6.9690301022
  0
LWPOLYLINE
  5
340
100
AcDbEntity
  8
ASSI
100
AcDbPolyline
 62
7
  6
CONTINUOUS
 90
25
 70
0
 10
-214.417636543
 20
57.0536351715
 10
-214.5188662184
 20
54.9683049065
 10
-214.611296882
 20
52.8826323048
 10
-214.6949285338
 20
50.7966173664
 10
-214.769762525
 20
48.710219801
 10
-214.8357975043
 20
46.6234798988
 10
-214.8930294182
 20
44.5365185309
 10
-214.9414576229
 20
42.449339271
 10
-214.9810827621
 20
40.3619385454
 10
-215.0119027127
 20
38.2744265042
 10
-215.033917008
 20
36.1868027588
 10
-215.0471261148
 20
34.0990676978
 10
-215.0515293109
 20
32.0113326369
 10
-215.0471261148
 20
29.9235975759
 10
-215.033917008
 20
27.8358625149
 10
-215.0119027127
 20
25.7482387695
 10
-214.9810827621
 20
23.6607267283
 10
-214.9414576229
 20
21.5733260027
 10
-214.8930294182
 20
19.4861467428
 10
-214.8357975043
 20
17.3991853749
 10
-214.769762525
 20
15.3124454727
 10
-214.6949285338
 20
13.2260479073
 10
-214.611296882
 20
11.1400329689
 10
-214.5188662184
 20
9.0543603672
 10
-214.417636543
 20
6.9690301022
  0
LINE
  5
341
100
AcDbEntity
  8
0
100
AcDbLine
 62
7
  6
CONTINUOUS
 10
-213.2131016425
 20
56.5726650503
 11
-213.2390111378
 21
56.0606393779
  0
LINE
  5
342
100
AcDbEntity
  8
ASSI
100
AcDbLine
 62
7
  6
CONTINUOUS
 10
-213.2131016425
 20
56.5726650503
 11
-213.2390111378
 21
56.0606393779
  0
LINE
  5
343
100
AcDbEntity
  8
0
100
AcDbLine
 62
7
  6
CONTINUOUS
 10
-213.1885558013
 20
56.3592974432
 11
-213.1889734281
 21
56.3511980537
  0
LINE
  5
344
100
AcDbEntity
  8
RACCORDO
100
AcDbLine
 62
7
  6
CONTINUOUS
 10
-214.710672878
 20
56.9795776177
 11
-214.7111427693
 21
56.9705997744
  0
LINE
  5
345
100
AcDbEntity
  8
ASSI
100
AcDbLine
 62
7
  6
CONTINUOUS
 10
-214.710672878
 20
56.9795776177
 11
-214.7111427693
 21
56.9705997744
  0
LWPOLYLINE
  5
346
100
AcDbEntity
  8
RACCORDO
100
AcDbPolyline
 62
7
  6
CONTINUOUS
 90
29
 70
0
 10
-214.710672878
 20
56.9795776177
 10
-214.7002864509
 20
57.1154839639
 10
-214.683699311
 20
57.2508380527
 10
-214.660934802
 20
57.3853574693
 10
-214.6320075309
 20
57.5188530921
 10
-214.5969798202
 20
57.6509500448
 10
-214.5560036053
 20
57.7810996582
 10
-214.5092707035
 20
57.9088341474
 10
-214.4568421061
 20
58.0341107864
 10
-214.3986810415
 20
58.1570184524
 10
-214.3347776596
 20
58.2774861096
 10
-214.2653340046
 20
58.395049283
 10
-214.1906365825
 20
58.5092126752
 10
-214.1109335295
 20
58.6196411553
 10
-214.0263323304
 20
58.7262276351
 10
-213.9369454374
 20
58.8288424496
 10
-213.8429576891
 20
58.9272733461
 10
-213.7445635778
 20
59.0213166921
 10
-213.6418820684
 20
59.110848434
 10
-213.5350094947
 20
59.195752201
 10
-213.4242570906
 20
59.2757498492
 10
-213.3100928316
 20
59.3505094882
 10
-213.1929601473
 20
59.4197879174
 10
-213.0729302286
 20
59.4835889207
 10
-212.949919113
 20
59.5419559892
 10
-212.8239630651
 20
59.5948252212
 10
-212.695510267
 20
59.6419627278
 10
-212.5650952575
 20
59.683164551
 10
-212.4759221705
 20
59.7076267557
  0
LWPOLYLINE
  5
347
100
AcDbEntity
  8
ASSI
100
AcDbPolyline
 62
7
  6
CONTINUOUS
 90
29
 70
0
 10
-214.710672878
 20
56.9795776177
 10
-214.7002864509
 20
57.1154839639
 10
-214.683699311
 20
57.2508380527
 10
-214.660934802
 20
57.3853574693
 10
-214.6320075309
 20
57.5188530921
 10
-214.5969798202
 20
57.6509500448
 10
-214.5560036053
 20
57.7810996582
 10
-214.5092707035
 20
57.9088341474
 10
-214.4568421061
 20
58.0341107864
 10
-214.3986810415
 20
58.1570184524
 10
-214.3347776596
 20
58.2774861096
 10
-214.2653340046
 20
58.395049283
 10
-214.1906365825
 20
58.5092126752
 10
-214.1109335295
 20
58.6196411553
 10
-214.0263323304
 20
58.7262276351
 10
-213.9369454374
 20
58.8288424496
 10
-213.8429576891
 20
58.9272733461
 10
-213.7445635778
 20
59.0213166921
 10
-213.6418820684
 20
59.110848434
 10
-213.5350094947
 20
59.195752201
 10
-213.4242570906
 20
59.2757498492
 10
-213.3100928316
 20
59.3505094882
 10
-213.1929601473
 20
59.4197879174
 10
-213.0729302286
 20
59.4835889207
 10
-212.949919113
 20
59.5419559892
 10
-212.8239630651
 20
59.5948252212
 10
-212.695510267
 20
59.6419627278
 10
-212.5650952575
 20
59.683164551
 10
-212.4759221705
 20
59.7076267557
  0
LWPOLYLINE
  5
348
100
AcDbEntity
  8
RACCORDO
100
AcDbPolyline
 62
7
  6
CONTINUOUS
 90
8
 70
0
 10
-213.2131016425
 20
56.5726650503
 10
-213.2063148844
 20
56.6576268283
 10
-213.1946720937
 20
56.7421203711
 10
-213.1782088098
 20
56.8258705885
 10
-213.1569760426
 20
56.9086063555
 10
-213.1310408101
 20
56.9900564724
 10
-213.1004864586
 20
57.0699507115
 10
-213.0654129959
 20
57.1480246924
  0
LWPOLYLINE
  5
349
100
AcDbEntity
  8
ASSI
100
AcDbPolyline
 62
7
  6
CONTINUOUS
 90
8
 70
0
 10
-213.2131016425
 20
56.5726650503
 10
-213.2063148844
 20
56.6576268283
 10
-213.1946720937
 20
56.7421203711
 10
-213.1782088098
 20
56.8258705885
 10
-213.1569760426
 20
56.9086063555
 10
-213.1310408101
 20
56.9900564724
 10
-213.1004864586
 20
57.0699507115
 10
-213.0654129959
 20
57.1480246924
  0
LWPOLYLINE
  5
34A
100
AcDbEntity
  8
RACCORDO
100
AcDbPolyline
 62
7
  6
CONTINUOUS
 90
25
 70
0
 10
-213.2131016425
 20
57.2346521427
 10
-213.206204403
 20
57.3201989759
 10
-213.1945344275
 20
57.4046715227
 10
-213.178091716
 20
57.4880697832
 10
-213.1567914902
 20
57.5706588086
 10
-213.1307185285
 20
57.6521735477
 10
-213.1001271652
 20
57.7318188468
 10
-213.0649731809
 20
57.8095764105
 10
-213.025300795
 20
57.8854645341
 10
-212.9814970008
 20
57.95874295
 10
-212.9335213661
 20
58.0293861182
 10
-212.881414323
 20
58.0974195787
 10
-212.8256841613
 20
58.1621796838
 10
-212.7662954233
 20
58.2236343989
 10
-212.7032835666
 20
58.2818157587
 10
-212.6372632547
 20
58.33615622
 10
-212.568205045
 20
58.3866181939
 10
-212.4961383801
 20
58.4332392695
 10
-212.4217662501
 20
58.475564671
 10
-212.3450660927
 20
58.5135523586
 10
-212.2660604703
 20
58.5472443721
 10
-212.185520061
 20
58.5763120553
 10
-212.1037017574
 20
58.6006458561
 10
-212.0203486668
 20
58.6203553266
 10
-211.9354607893
 20
58.6354404667
  0
LWPOLYLINE
  5
34B
100
AcDbEntity
  8
ASSI
100
AcDbPolyline
 62
7
  6
CONTINUOUS
 90
25
 70
0
 10
-213.2131016425
 20
57.2346521427
 10
-213.206204403
 20
57.3201989759
 10
-213.1945344275
 20
57.4046715227
 10
-213.178091716
 20
57.4880697832
 10
-213.1567914902
 20
57.5706588086
 10
-213.1307185285
 20
57.6521735477
 10
-213.1001271652
 20
57.7318188468
 10
-213.0649731809
 20
57.8095764105
 10
-213.025300795
 20
57.8854645341
 10
-212.9814970008
 20
57.95874295
 10
-212.9335213661
 20
58.0293861182
 10
-212.881414323
 20
58.0974195787
 10
-212.8256841613
 20
58.1621796838
 10
-212.7662954233
 20
58.2236343989
 10
-212.7032835666
 20
58.2818157587
 10
-212.6372632547
 20
58.33615622
 10
-212.568205045
 20
58.3866181939
 10
-212.4961383801
 20
58.4332392695
 10
-212.4217662501
 20
58.475564671
 10
-212.3450660927
 20
58.5135523586
 10
-212.2660604703
 20
58.5472443721
 10
-212.185520061
 20
58.5763120553
 10
-212.1037017574
 20
58.6006458561
 10
-212.0203486668
 20
58.6203553266
 10
-211.9354607893
 20
58.6354404667
  0
LWPOLYLINE
  5
34C
100
AcDbEntity
  8
DRAFT
100
AcDbPolyline
 62
7
  6
CONTINUOUS
 90
25
 70
0
 10
-213.0133602735
 20
57.2245324558
 10
-213.007382666
 20
57.2986730446
 10
-212.9972686873
 20
57.3718825852
 10
-212.9830183373
 20
57.4441610776
 10
-212.9645581416
 20
57.515738233
 10
-212.9419615748
 20
57.5863843402
 10
-212.9154490599
 20
57.6554102661
 10
-212.8849822735
 20
57.7228001546
 10
-212.8505995391
 20
57.7885698617
 10
-212.8126362508
 20
57.8520778222
 10
-212.7710573674
 20
57.9133019013
 10
-212.72589793
 20
57.9722642337
 10
-212.6775984565
 20
58.0283896582
 10
-212.6261282169
 20
58.0816504112
 10
-212.5715179412
 20
58.1320742563
 10
-212.5143003375
 20
58.1791693229
 10
-212.4544498891
 20
58.2229030336
 10
-212.3919921128
 20
58.2633079657
 10
-212.3275362669
 20
58.2999899803
 10
-212.2610627971
 20
58.3329126429
 10
-212.1925912577
 20
58.362112388
 10
-212.1227895696
 20
58.3873043801
 10
-212.0518803732
 20
58.4083936741
 10
-211.979641028
 20
58.4254752152
 10
-211.9060715342
 20
58.4385490033
  0
LWPOLYLINE
  5
34D
100
AcDbEntity
  8
RACCORDO
100
AcDbPolyline
 62
7
  6
CONTINUOUS
 90
3
 70
0
 10
-213.0654129959
 20
57.1480246924
 10
-213.0259313907
 20
57.2240284222
 10
-213.0114327769
 20
57.2484393003
  0
LWPOLYLINE
  5
34E
100
AcDbEntity
  8
ASSI
100
AcDbPolyline
 62
7
  6
CONTINUOUS
 90
3
 70
0
 10
-213.0654129959
 20
57.1480246924
 10
-213.0259313907
 20
57.2240284222
 10
-213.0114327769
 20
57.2484393003
  0
LWPOLYLINE
  5
34F
100
AcDbEntity
  8
0
100
AcDbPolyline
 62
7
  6
CONTINUOUS
 90
21
 70
0
 10
-214.5696363211
 20
5.5222743085
 10
-214.5402175175
 20
5.4123150116
 10
-214.5065931369
 20
5.3035701567
 10
-214.4687808458
 20
5.1960207054
 10
-214.4269451007
 20
5.0901353384
 10
-214.3810683191
 20
4.9859214337
 10
-214.3311680834
 20
4.8833716133
 10
-214.2774615969
 20
4.7829324246
 10
-214.2199324126
 20
4.6846133179
 10
-214.1585969775
 20
4.588404843
 10
-214.0937218359
 20
4.4947251956
 10
-214.0252916591
 20
4.403585393
 10
-213.9533217758
 20
4.3149744179
 10
-213.8781247167
 20
4.2292774149
 10
-213.7996862708
 20
4.1465068646
 10
-213.718020649
 20
4.0666502864
 10
-213.6334830146
 20
3.9900553823
 10
-213.5460605963
 20
3.916736247
 10
-213.4557661653
 20
3.8466787859
 10
-213.3629931992
 20
3.7801884177
 10
-213.2677309316
 20
3.7172808455
  0
LWPOLYLINE
  5
350
100
AcDbEntity
  8
RACCORDO
100
AcDbPolyline
 62
7
  6
CONTINUOUS
 90
3
 70
0
 10
-214.5969798202
 20
5.6943173194
 10
-214.6320075309
 20
5.8258625752
 10
-214.655584733
 20
5.9318123928
  0
LWPOLYLINE
  5
351
100
AcDbEntity
  8
ASSI
100
AcDbPolyline
 62
7
  6
CONTINUOUS
 90
3
 70
0
 10
-214.5969798202
 20
5.6943173194
 10
-214.6320075309
 20
5.8258625752
 10
-214.655584733
 20
5.9318123928
  0
LWPOLYLINE
  5
352
100
AcDbEntity
  8
ASSI
100
AcDbPolyline
 62
7
  6
CONTINUOUS
 90
20
 70
0
 10
-214.5862073569
 20
5.5930026149
 10
-214.5567961325
 20
5.4722112589
 10
-214.5224204649
 20
5.35291154
 10
-214.4830389911
 20
5.2350842392
 10
-214.438693074
 20
5.1187485754
 10
-214.3896451807
 20
5.0045864164
 10
-214.3359000569
 20
4.8926680754
 10
-214.2774529568
 20
4.7829232391
 10
-214.2145521099
 20
4.6758228359
 10
-214.1471313779
 20
4.5713133827
 10
-214.0752568989
 20
4.4694483626
 10
-213.9993753168
 20
4.3708591521
 10
-213.9195206102
 20
4.275630284
 10
-213.8356588004
 20
4.1836772255
 10
-213.7481345953
 20
4.0953777552
 10
-213.6568671803
 20
4.0106903096
 10
-213.5619373699
 20
3.9296564521
 10
-213.4639323158
 20
3.8527786519
 10
-213.3628982256
 20
3.7801269561
 10
-213.2587888917
 20
3.7116313175
  0
LINE
  5
353
100
AcDbEntity
  8
0
100
AcDbLine
 62
7
  6
CONTINUOUS
 10
-214.5968992505
 20
5.6433285293
 11
-214.5696363211
 21
5.5222743085
  0
LINE
  5
354
100
AcDbEntity
  8
ASSI
100
AcDbLine
 62
7
  6
CONTINUOUS
 10
-214.5969035954
 20
5.6433276536
 11
-214.5862073569
 21
5.5930026149
  0
LINE
  5
355
100
AcDbEntity
  8
RACCORDO
100
AcDbLine
 62
7
  6
CONTINUOUS
 10
-214.6555849811
 20
5.931812012
 11
-214.5969118399
 21
5.6433259914
  0
LINE
  5
356
100
AcDbEntity
  8
ASSI
100
AcDbLine
 62
7
  6
CONTINUOUS
 10
-214.6555849811
 20
5.931812012
 11
-214.5969118399
 21
5.6433259914
  0
LINE
  5
357
100
AcDbEntity
  8
ASSI
100
AcDbLine
 62
253
  6
CONTINUOUS
 10
-212.1562503596
 20
3.5702693323
 11
-212.0977779162
 21
3.2827701887
  0
LWPOLYLINE
  5
358
100
AcDbEntity
  8
RACCORDO
100
AcDbPolyline
 62
7
  6
CONTINUOUS
 90
5
 70
0
 10
-214.655584733
 20
5.9318123928
 10
-214.660934802
 20
5.9587565954
 10
-214.683699311
 20
6.092626824
 10
-214.7002864509
 20
6.2272888905
 10
-214.710672878
 20
6.362464166
  0
LWPOLYLINE
  5
359
100
AcDbEntity
  8
ASSI
100
AcDbPolyline
 62
7
  6
CONTINUOUS
 90
5
 70
0
 10
-214.655584733
 20
5.9318123928
 10
-214.660934802
 20
5.9587565954
 10
-214.683699311
 20
6.092626824
 10
-214.7002864509
 20
6.2272888905
 10
-214.710672878
 20
6.362464166
  0
LINE
  5
35A
100
AcDbEntity
  8
DRAFT
100
AcDbLine
 62
7
  6
CONTINUOUS
 10
-212.9941248806
 20
6.6327499127
 11
-212.8606364147
 21
5.9011011478
  0
LWPOLYLINE
  5
35B
100
AcDbEntity
  8
DRAFT
100
AcDbPolyline
 62
7
  6
CONTINUOUS
 90
4
 70
0
 10
-212.9940711881
 20
6.6325012899
 10
-212.9972686873
 20
6.6507826885
 10
-213.007382666
 20
6.7239922291
 10
-213.0133602735
 20
6.7981328179
  0
LINE
  5
35C
100
AcDbEntity
  8
ASSI
100
AcDbLine
 62
7
  6
CONTINUOUS
 10
-209.5577396332
 20
49.4284071755
 11
-209.5577396332
 21
53.4094527843
  0
LINE
  5
35D
100
AcDbEntity
  8
ASSI
100
AcDbLine
 62
7
  6
CONTINUOUS
 10
-205.5577396332
 20
53.4094527843
 11
-205.5577396332
 21
49.4284071755
  0
LWPOLYLINE
  5
35E
100
AcDbEntity
  8
ASSI
100
AcDbPolyline
 62
7
  6
CONTINUOUS
 90
61
 70
0
 10
-209.5577396332
 20
53.4094527843
 10
-209.5549363414
 20
53.5141001705
 10
-209.5467285684
 20
53.6178956272
 10
-209.5331163144
 20
53.7208391543
 10
-209.5140327647
 20
53.823207736
 10
-209.4895447339
 20
53.9247243882
 10
-209.4598526658
 20
54.0245581585
 10
-209.4249138469
 20
54.1226952345
 10
-209.3847709907
 20
54.2191494286
 10
-209.3397526816
 20
54.313131227
 10
-209.2898189031
 20
54.4046203367
 10
-209.2350096718
 20
54.4936370505
 10
-209.175773622
 20
54.5794527331
 10
-209.1120744193
 20
54.662041111
 10
-209.0439483981
 20
54.7414284576
 10
-208.9719531956
 20
54.8169649574
 10
-208.8960570545
 20
54.8886190036
 10
-208.8162917321
 20
54.956422203
 10
-208.7333101378
 20
55.0198195607
 10
-208.6470858732
 20
55.0787749148
 10
-208.5576453366
 20
55.1333244272
 10
-208.4657206327
 20
55.1830215896
 10
-208.3712913721
 20
55.227826575
 10
-208.2743779441
 20
55.2677792103
 10
-208.175773622
 20
55.3025524683
 10
-208.0754645271
 20
55.3321038376
 10
-207.9734645381
 20
55.3564758294
 10
-207.8706085633
 20
55.3754689499
 10
-207.7668895771
 20
55.3890390504
 10
-207.6623146052
 20
55.3972302794
 10
-207.5577396332
 20
55.3999755887
 10
-207.4531646613
 20
55.3972302794
 10
-207.3485896894
 20
55.3890390504
 10
-207.2448707032
 20
55.3754689499
 10
-207.1420147284
 20
55.3564758294
 10
-207.0400147393
 20
55.3321038376
 10
-206.9397056445
 20
55.3025524683
 10
-206.8411013223
 20
55.2677792103
 10
-206.7441878944
 20
55.227826575
 10
-206.6497586338
 20
55.1830215896
 10
-206.5578339299
 20
55.1333244272
 10
-206.4683933933
 20
55.0787749148
 10
-206.3821691286
 20
55.0198195607
 10
-206.2991875343
 20
54.956422203
 10
-206.219422212
 20
54.8886190036
 10
-206.1435260709
 20
54.8169649574
 10
-206.0715308684
 20
54.7414284576
 10
-206.0034048472
 20
54.662041111
 10
-205.9397056445
 20
54.5794527331
 10
-205.8804695946
 20
54.4936370505
 10
-205.8256603633
 20
54.4046203367
 10
-205.7757265849
 20
54.313131227
 10
-205.7307082758
 20
54.2191494286
 10
-205.6905654196
 20
54.1226952345
 10
-205.6556266006
 20
54.0245581585
 10
-205.6259345326
 20
53.9247243882
 10
-205.6014465018
 20
53.823207736
 10
-205.582362952
 20
53.7208391543
 10
-205.568750698
 20
53.6178956272
 10
-205.5605429251
 20
53.5141001705
 10
-205.5577396332
 20
53.4094527843
  0
LINE
  5
35F
100
AcDbEntity
  8
ASSI
100
AcDbLine
 62
7
  6
CONTINUOUS
 10
-205.5577396332
 20
49.4284071755
 11
-205.5605429251
 21
49.3237597892
  0
LWPOLYLINE
  5
360
100
AcDbEntity
  8
ASSI
100
AcDbPolyline
 62
7
  6
CONTINUOUS
 90
59
 70
0
 10
-209.5549363414
 20
53.3682469296
 10
-209.5467285684
 20
53.4720423863
 10
-209.5331163144
 20
53.5749859135
 10
-209.5140327647
 20
53.6773544951
 10
-209.4895447339
 20
53.7788711473
 10
-209.4598526658
 20
53.8787049177
 10
-209.4249138469
 20
53.9768419936
 10
-209.3847709907
 20
54.0732961878
 10
-209.3397526816
 20
54.1672779861
 10
-209.2898189031
 20
54.2587670958
 10
-209.2350096718
 20
54.3477838096
 10
-209.175773622
 20
54.4335994922
 10
-209.1120744193
 20
54.5161878701
 10
-209.0439483981
 20
54.5955752167
 10
-208.9719531956
 20
54.6711117165
 10
-208.8960570545
 20
54.7427657627
 10
-208.8162917321
 20
54.8105689621
 10
-208.7333101378
 20
54.8739663199
 10
-208.6470858732
 20
54.9329216739
 10
-208.5576453366
 20
54.9874711863
 10
-208.4657206327
 20
55.0371683487
 10
-208.3712913721
 20
55.0819733341
 10
-208.2743779441
 20
55.1219259694
 10
-208.175773622
 20
55.1566992274
 10
-208.0754645271
 20
55.1862505967
 10
-207.9734645381
 20
55.2106225886
 10
-207.8706085633
 20
55.229615709
 10
-207.7668895771
 20
55.2431858095
 10
-207.6623146052
 20
55.2513770385
 10
-207.5577396332
 20
55.2541223478
 10
-207.4531646613
 20
55.2513770385
 10
-207.3485896894
 20
55.2431858095
 10
-207.2448707032
 20
55.229615709
 10
-207.1420147284
 20
55.2106225886
 10
-207.0400147393
 20
55.1862505967
 10
-206.9397056445
 20
55.1566992274
 10
-206.8411013223
 20
55.1219259694
 10
-206.7441878944
 20
55.0819733341
 10
-206.6497586338
 20
55.0371683487
 10
-206.5578339299
 20
54.9874711863
 10
-206.4683933933
 20
54.9329216739
 10
-206.3821691286
 20
54.8739663199
 10
-206.2991875343
 20
54.8105689621
 10
-206.219422212
 20
54.7427657627
 10
-206.1435260709
 20
54.6711117165
 10
-206.0715308684
 20
54.5955752167
 10
-206.0034048472
 20
54.5161878701
 10
-205.9397056445
 20
54.4335994922
 10
-205.8804695946
 20
54.3477838096
 10
-205.8256603633
 20
54.2587670958
 10
-205.7757265849
 20
54.1672779861
 10
-205.7307082758
 20
54.0732961878
 10
-205.6905654196
 20
53.9768419936
 10
-205.6556266006
 20
53.8787049177
 10
-205.6259345326
 20
53.7788711473
 10
-205.6014465018
 20
53.6773544951
 10
-205.582362952
 20
53.5749859135
 10
-205.568750698
 20
53.4720423863
 10
-205.5605429251
 20
53.3682469296
  0
LWPOLYLINE
  5
361
100
AcDbEntity
  8
ASSI
100
AcDbPolyline
 62
7
  6
CONTINUOUS
 90
60
 70
0
 10
-205.5605429251
 20
49.3237597892
 10
-205.568750698
 20
49.2199643325
 10
-205.582362952
 20
49.1170208054
 10
-205.6014465018
 20
49.0146522237
 10
-205.6259345326
 20
48.9131355716
 10
-205.6556266006
 20
48.8133018012
 10
-205.6905654196
 20
48.7151647253
 10
-205.7307082758
 20
48.6187105311
 10
-205.7757265849
 20
48.5247287327
 10
-205.8256603633
 20
48.4332396231
 10
-205.8804695946
 20
48.3442229092
 10
-205.9397056445
 20
48.2584072267
 10
-206.0034048472
 20
48.1758188488
 10
-206.0715308684
 20
48.0964315022
 10
-206.1435260709
 20
48.0208950024
 10
-206.219422212
 20
47.9492409562
 10
-206.2991875343
 20
47.8814377568
 10
-206.3821691286
 20
47.818040399
 10
-206.4683933933
 20
47.759085045
 10
-206.5578339299
 20
47.7045355326
 10
-206.6497586338
 20
47.6548383702
 10
-206.7441878944
 20
47.6100333848
 10
-206.8411013223
 20
47.5700807494
 10
-206.9397056445
 20
47.5353074915
 10
-207.0400147393
 20
47.5057561222
 10
-207.1420147284
 20
47.4813841303
 10
-207.2448707032
 20
47.4623910099
 10
-207.3485896894
 20
47.4488209094
 10
-207.4531646613
 20
47.4406296804
 10
-207.5577396332
 20
47.437884371
 10
-207.6623146052
 20
47.4406296804
 10
-207.7668895771
 20
47.4488209094
 10
-207.8706085633
 20
47.4623910099
 10
-207.9734645381
 20
47.4813841303
 10
-208.0754645271
 20
47.5057561222
 10
-208.175773622
 20
47.5353074915
 10
-208.2743779441
 20
47.5700807494
 10
-208.3712913721
 20
47.6100333848
 10
-208.4657206327
 20
47.6548383702
 10
-208.5576453366
 20
47.7045355326
 10
-208.6470858732
 20
47.759085045
 10
-208.7333101378
 20
47.818040399
 10
-208.8162917321
 20
47.8814377568
 10
-208.8960570545
 20
47.9492409562
 10
-208.9719531956
 20
48.0208950024
 10
-209.0439483981
 20
48.0964315022
 10
-209.1120744193
 20
48.1758188488
 10
-209.175773622
 20
48.2584072267
 10
-209.2350096718
 20
48.3442229092
 10
-209.2898189031
 20
48.4332396231
 10
-209.3397526816
 20
48.5247287327
 10
-209.3847709907
 20
48.6187105311
 10
-209.4249138469
 20
48.7151647253
 10
-209.4598526658
 20
48.8133018012
 10
-209.4895447339
 20
48.9131355716
 10
-209.5140327647
 20
49.0146522237
 10
-209.5331163144
 20
49.1170208054
 10
-209.5467285684
 20
49.2199643325
 10
-209.5549363414
 20
49.3237597892
 10
-209.5577396332
 20
49.4284071755
  0
LWPOLYLINE
  5
362
100
AcDbEntity
  8
RACCORDO
100
AcDbPolyline
 62
7
  6
CONTINUOUS
 90
12
 70
0
 10
-212.881414323
 20
5.925245695
 10
-212.9335213661
 20
5.9932791555
 10
-212.9814970008
 20
6.0639223237
 10
-213.025300795
 20
6.1372007396
 10
-213.0649731809
 20
6.2130888632
 10
-213.1001271652
 20
6.2908464269
 10
-213.1307185285
 20
6.370491726
 10
-213.1567914902
 20
6.4520064651
 10
-213.178091716
 20
6.5345954905
 10
-213.1945344275
 20
6.617993751
 10
-213.206204403
 20
6.7024662978
 10
-213.2131016425
 20
6.788013131
  0
LWPOLYLINE
  5
363
100
AcDbEntity
  8
ASSI
100
AcDbPolyline
 62
7
  6
CONTINUOUS
 90
12
 70
0
 10
-212.881414323
 20
5.925245695
 10
-212.9335213661
 20
5.9932791555
 10
-212.9814970008
 20
6.0639223237
 10
-213.025300795
 20
6.1372007396
 10
-213.0649731809
 20
6.2130888632
 10
-213.1001271652
 20
6.2908464269
 10
-213.1307185285
 20
6.370491726
 10
-213.1567914902
 20
6.4520064651
 10
-213.178091716
 20
6.5345954905
 10
-213.1945344275
 20
6.617993751
 10
-213.206204403
 20
6.7024662978
 10
-213.2131016425
 20
6.788013131
  0
LINE
  5
364
100
AcDbEntity
  8
ASSI
100
AcDbLine
 62
253
  6
CONTINUOUS
 10
-198.9769227458
 20
1.6216398456
 11
-198.972409575
 21
1.3421188502
  0
LINE
  5
365
100
AcDbEntity
  8
0
100
AcDbLine
 62
253
  6
CONTINUOUS
 10
-198.972409575
 20
1.3421188502
 11
-198.9690009761
 21
1.1310089672
  0
LINE
  5
366
100
AcDbEntity
  8
ASSI
100
AcDbLine
 62
253
  6
CONTINUOUS
 10
-198.5361510603
 20
1.5892325264
 11
-198.5316378895
 21
1.3097115311
  0
LINE
  5
367
100
AcDbEntity
  8
0
100
AcDbLine
 62
253
  6
CONTINUOUS
 10
-198.5316378895
 20
1.3097115311
 11
-198.528247201
 21
1.0997109191
  0
LINE
  5
368
100
AcDbEntity
  8
RACCORDO
100
AcDbLine
 62
7
  6
CONTINUOUS
 10
-198.2224561471
 20
3.5609253149
 11
-198.2192469197
 21
3.3621634065
  0
LINE
  5
369
100
AcDbEntity
  8
RACCORDO
100
AcDbLine
 62
253
  6
CONTINUOUS
 10
-198.9535009338
 20
2.2666049872
 11
-198.9761219486
 21
1.6215214437
  0
LINE
  5
36A
100
AcDbEntity
  8
ASSI
100
AcDbLine
 62
253
  6
CONTINUOUS
 10
-198.9535009338
 20
2.2666049872
 11
-198.9761219486
 21
1.6215214437
  0
LINE
  5
36B
100
AcDbEntity
  8
RACCORDO
100
AcDbLine
 62
253
  6
CONTINUOUS
 10
-198.5143396313
 20
2.2343160699
 11
-198.536960646
 21
1.5892325264
  0
LINE
  5
36C
100
AcDbEntity
  8
ASSI
100
AcDbLine
 62
253
  6
CONTINUOUS
 10
-198.5143396313
 20
2.2343160699
 11
-198.536960646
 21
1.5892325264
  0
LINE
  5
36D
100
AcDbEntity
  8
0
100
AcDbLine
 62
253
  6
CONTINUOUS
 10
-198.732435868
 20
0.828626209
 11
-198.9628713719
 21
1.1301820905
  0
LINE
  5
36E
100
AcDbEntity
  8
0
100
AcDbLine
 62
253
  6
CONTINUOUS
 10
-198.2985975882
 20
0.7991834819
 11
-198.528247201
 21
1.0997109191
  0
LINE
  5
36F
100
AcDbEntity
  8
0
100
AcDbLine
 62
253
  6
CONTINUOUS
 10
-189.2077396332
 20
0.1020642226
 11
-189.2077396332
 21
0.1116437853
  0
LINE
  5
370
100
AcDbEntity
  8
RACCORDO
100
AcDbLine
 62
253
  6
CONTINUOUS
 10
-214.417636543
 20
6.9690301022
 11
-214.710672878
 21
6.362464166
  0
LINE
  5
371
100
AcDbEntity
  8
ASSI
100
AcDbLine
 62
253
  6
CONTINUOUS
 10
-214.417636543
 20
6.9690301022
 11
-214.710672878
 21
6.362464166
  0
LINE
  5
372
100
AcDbEntity
  8
RACCORDO
100
AcDbLine
 62
253
  6
CONTINUOUS
 10
-211.8720049568
 20
4.1766704019
 11
-212.1651177102
 21
3.5716040582
  0
LINE
  5
373
100
AcDbEntity
  8
ASSI
100
AcDbLine
 62
253
  6
CONTINUOUS
 10
-211.8720049568
 20
4.1766704019
 11
-212.1651177102
 21
3.5716040582
  0
LINE
  5
374
100
AcDbEntity
  8
0
100
AcDbLine
 62
7
  6
CONTINUOUS
 10
-198.2372309689
 20
60.6607922393
 11
-198.4803982941
 21
60.4236019226
  0
LINE
  5
375
100
AcDbEntity
  8
ASSI
100
AcDbLine
 62
7
  6
CONTINUOUS
 10
-198.2372309689
 20
60.6607922393
 11
-198.4803982941
 21
60.4236019226
  0
LINE
  5
376
100
AcDbEntity
  8
0
100
AcDbLine
 62
7
  6
CONTINUOUS
 10
-212.0276219449
 20
2.9754763067
 11
-211.5505589232
 21
2.7183691751
  0
LINE
  5
377
100
AcDbEntity
  8
0
100
AcDbLine
 62
253
  6
CONTINUOUS
 10
-211.0385185845
 20
2.6555630226
 11
-210.5611195679
 21
2.3982748107
  0
LWPOLYLINE
  5
378
100
AcDbEntity
  8
ASSI
100
AcDbPolyline
 62
7
  6
CONTINUOUS
 90
10
 70
0
 10
-213.152052842
 20
3.6475840635
 10
-213.0426214246
 20
3.5879743493
 10
-212.9305632916
 20
3.5328130197
 10
-212.8165329264
 20
3.4824249364
 10
-212.700543487
 20
3.436852244
 10
-212.5825818155
 20
3.3960527981
 10
-212.4632629217
 20
3.3602250267
 10
-212.3427918089
 20
3.3294350727
 10
-212.2209634737
 20
3.3036167934
 10
-212.0977779162
 20
3.2827701887
  0
LWPOLYLINE
  5
379
100
AcDbEntity
  8
0
100
AcDbPolyline
 62
7
  6
CONTINUOUS
 90
3
 70
0
 10
-212.0276158123
 20
2.9754730017
 10
-212.05471209
 20
2.9902643195
 10
-212.1214283893
 20
3.0283220276
  0
LWPOLYLINE
  5
37A
100
AcDbEntity
  8
0
100
AcDbPolyline
 62
7
  6
CONTINUOUS
 90
9
 70
0
 10
-213.1699901288
 20
3.6579403661
 10
-213.0701965669
 20
3.6024252892
 10
-212.9683412001
 20
3.5507523463
 10
-212.8644330741
 20
3.5029048058
 10
-212.7589251022
 20
3.4590907824
 10
-212.6517981965
 20
3.4193261862
 10
-212.5430714449
 20
3.3835951071
 10
-212.4332550235
 20
3.3520579294
 10
-212.3225189909
 20
3.3247681144
  0
LINE
  5
37B
100
AcDbEntity
  8
0
100
AcDbLine
 62
7
  6
CONTINUOUS
 10
-213.1937443245
 20
3.659148155
 11
-212.1214284983
 21
3.028322089
  0
LINE
  5
37C
100
AcDbEntity
  8
0
100
AcDbLine
 62
253
  6
CONTINUOUS
 10
-211.0406689966
 20
2.6558346506
 11
-212.0966099222
 21
3.2770276059
  0
LINE
  5
37D
100
AcDbEntity
  8
ASSI
100
AcDbLine
 62
7
  6
CONTINUOUS
 10
-213.2587888917
 20
3.7116313175
 11
-213.152052842
 21
3.6475840635
  0
LWPOLYLINE
  5
37E
100
AcDbEntity
  8
0
100
AcDbPolyline
 62
7
  6
CONTINUOUS
 90
21
 70
0
 10
-213.1937435811
 20
3.6591477177
 10
-213.2544285208
 20
3.6958317544
 10
-213.3582485612
 20
3.763345544
 10
-213.4591389279
 20
3.8351291464
 10
-213.5569273441
 20
3.9110615876
 10
-213.6514469005
 20
3.9910146988
 10
-213.7425299352
 20
4.0748502891
 10
-213.8300203621
 20
4.1624264675
 10
-213.9137684267
 20
4.2535948712
 10
-213.9936245938
 20
4.3481981663
 10
-214.0694513772
 20
4.4460755858
 10
-214.1411185002
 20
4.5470607323
 10
-214.2084969864
 20
4.6509794439
 10
-214.2714701013
 20
4.7576544226
 10
-214.32992909
 20
4.8669036867
 10
-214.383767659
 20
4.9785388776
 10
-214.4328916649
 20
5.0923687486
 10
-214.4772156165
 20
5.2081984711
 10
-214.5166576952
 20
5.3258284887
 10
-214.5511548139
 20
5.4450828199
 10
-214.580636954
 20
5.5657309214
  0
LINE
  5
37F
100
AcDbEntity
  8
0
100
AcDbLine
 62
7
  6
CONTINUOUS
 10
-213.2677309316
 20
3.7172808455
 11
-213.1699901288
 21
3.6579403661
  0
LINE
  5
380
100
AcDbEntity
  8
0
100
AcDbLine
 62
7
  6
CONTINUOUS
 10
-176.3577396332
 20
0.1020642912
 11
-176.3577396332
 21
0.6550633602
  0
LINE
  5
381
100
AcDbEntity
  8
ASSI
100
AcDbLine
 62
7
  6
CONTINUOUS
 10
-176.1577396332
 20
0.1020642912
 11
-176.1577396332
 21
0.4951074875
  0
LWPOLYLINE
  5
382
100
AcDbEntity
  8
0
100
AcDbPolyline
 62
253
  6
CONTINUOUS
 90
15
 70
0
 10
-210.5611195679
 20
2.3982748107
 10
-210.4404059801
 20
2.3382160538
 10
-210.3018292351
 20
2.2785226946
 10
-210.1455056665
 20
2.2192449574
 10
-209.9715662304
 20
2.1604326183
 10
-209.7801572684
 20
2.1021352642
 10
-209.5714406813
 20
2.0444022419
 10
-209.3455924556
 20
1.9872822109
 10
-209.1028023072
 20
1.9308231345
 10
-208.8432746243
 20
1.8750725326
 10
-208.5672279753
 20
1.820077342
 10
-208.2748944762
 20
1.7658837915
 10
-207.9665196141
 20
1.7125373893
 10
-207.6423624985
 20
1.6600829717
 10
-207.302696074
 20
1.608564718
  0
LINE
  5
383
100
AcDbEntity
  8
0
100
AcDbLine
 62
253
  6
CONTINUOUS
 10
-212.9101365326
 20
5.9627467928
 11
-212.8677120552
 21
5.9398826528
  0
LINE
  5
384
100
AcDbEntity
  8
DRAFT
100
AcDbLine
 62
7
  6
CONTINUOUS
 10
-169.9275598929
 20
3.5609253149
 11
-169.8840545861
 21
3.3618730344
  0
LINE
  5
385
100
AcDbEntity
  8
DRAFT
100
AcDbLine
 62
7
  6
CONTINUOUS
 10
-169.9275598929
 20
60.4617399588
 11
-169.9275598929
 21
58.3162703857
  0
LINE
  5
386
100
AcDbEntity
  8
DRAFT
100
AcDbLine
 62
7
  6
CONTINUOUS
 10
-169.9275598929
 20
3.5609253149
 11
-169.9275598929
 21
5.706394888
  0
LINE
  5
387
100
AcDbEntity
  8
DRAFT
100
AcDbLine
 62
7
  6
CONTINUOUS
 10
-169.8577396332
 20
60.0033085736
 11
-169.8577396332
 21
58.3162703857
  0
LINE
  5
388
100
AcDbEntity
  8
DRAFT
100
AcDbLine
 62
7
  6
CONTINUOUS
 10
-169.8577396332
 20
3.3618730344
 11
-169.8577396332
 21
5.2479635027
  0
LINE
  5
389
100
AcDbEntity
  8
0
100
AcDbLine
 62
7
  6
CONTINUOUS
 10
-169.6077396332
 20
60.6607922393
 11
-169.6077396332
 21
58.5138956195
  0
LINE
  5
38A
100
AcDbEntity
  8
ASSI
100
AcDbLine
 62
7
  6
CONTINUOUS
 10
-169.6077396332
 20
60.6607922393
 11
-169.6077396332
 21
58.5138956195
  0
LINE
  5
38B
100
AcDbEntity
  8
0
100
AcDbLine
 62
7
  6
CONTINUOUS
 10
-169.6077396332
 20
4.8961860425
 11
-169.6077396332
 21
3.3618730344
  0
LINE
  5
38C
100
AcDbEntity
  8
ASSI
100
AcDbLine
 62
7
  6
CONTINUOUS
 10
-169.6077396332
 20
4.8961860425
 11
-169.6077396332
 21
3.3618730344
  0
LINE
  5
38D
100
AcDbEntity
  8
DRAFT
100
AcDbLine
 62
7
  6
CONTINUOUS
 10
-162.7879193735
 20
60.4617399588
 11
-162.8577396332
 21
60.0033085736
  0
LWPOLYLINE
  5
38E
100
AcDbEntity
  8
RACCORDO
100
AcDbPolyline
 62
7
  6
CONTINUOUS
 90
27
 70
0
 10
-212.4027247396
 20
59.7174294423
 10
-212.5320073826
 20
59.6700466884
 10
-212.6585372862
 20
59.6170438548
 10
-212.7821506684
 20
59.5583955368
 10
-212.9030113112
 20
59.494127139
 10
-213.0203434522
 20
59.4247480375
 10
-213.1339536062
 20
59.3503919908
 10
-213.2440352584
 20
59.2709252404
 10
-213.3503931024
 20
59.1864558867
 10
-213.4532750466
 20
59.0967568451
 10
-213.5524331825
 20
59.0020552002
 10
-213.6469284786
 20
58.9031403059
 10
-213.7366818304
 20
58.7999386781
 10
-213.8217723423
 20
58.6925238009
 10
-213.9014982961
 20
58.5819054808
 10
-213.9756563771
 20
58.4683496365
 10
-214.0444499
 20
58.3515903494
 10
-214.1077870904
 20
58.2318396697
 10
-214.1657803604
 20
58.1088982414
 10
-214.2183172979
 20
57.9829654206
 10
-214.264968892
 20
57.8548513258
 10
-214.3056955346
 20
57.7243943325
 10
-214.3405368338
 20
57.5917560653
 10
-214.3691826029
 20
57.4582315164
 10
-214.3915294463
 20
57.3242523498
 10
-214.4076807597
 20
57.1893869015
 10
-214.417636543
 20
57.0536351715
  0
LWPOLYLINE
  5
38F
100
AcDbEntity
  8
ASSI
100
AcDbPolyline
 62
7
  6
CONTINUOUS
 90
27
 70
0
 10
-212.4027247396
 20
59.7174294423
 10
-212.5320073826
 20
59.6700466884
 10
-212.6585372862
 20
59.6170438548
 10
-212.7821506684
 20
59.5583955368
 10
-212.9030113112
 20
59.494127139
 10
-213.0203434522
 20
59.4247480375
 10
-213.1339536062
 20
59.3503919908
 10
-213.2440352584
 20
59.2709252404
 10
-213.3503931024
 20
59.1864558867
 10
-213.4532750466
 20
59.0967568451
 10
-213.5524331825
 20
59.0020552002
 10
-213.6469284786
 20
58.9031403059
 10
-213.7366818304
 20
58.7999386781
 10
-213.8217723423
 20
58.6925238009
 10
-213.9014982961
 20
58.5819054808
 10
-213.9756563771
 20
58.4683496365
 10
-214.0444499
 20
58.3515903494
 10
-214.1077870904
 20
58.2318396697
 10
-214.1657803604
 20
58.1088982414
 10
-214.2183172979
 20
57.9829654206
 10
-214.264968892
 20
57.8548513258
 10
-214.3056955346
 20
57.7243943325
 10
-214.3405368338
 20
57.5917560653
 10
-214.3691826029
 20
57.4582315164
 10
-214.3915294463
 20
57.3242523498
 10
-214.4076807597
 20
57.1893869015
 10
-214.417636543
 20
57.0536351715
  0
LWPOLYLINE
  5
390
100
AcDbEntity
  8
0
100
AcDbPolyline
 62
7
  6
CONTINUOUS
 90
6
 70
0
 10
-210.5250101006
 20
2.2887462768
 10
-210.7454192479
 20
2.3644836735
 10
-210.9568448325
 20
2.4442966115
 10
-211.1612881963
 20
2.5293914691
 10
-211.3589307074
 20
2.6204148568
 10
-211.5505589232
 20
2.7183691751
  0
LINE
  5
391
100
AcDbEntity
  8
DRAFT
100
AcDbLine
 62
7
  6
CONTINUOUS
 10
-169.8577396332
 20
5.2479635027
 11
-169.9275598929
 21
5.706394888
  0
LINE
  5
392
100
AcDbEntity
  8
0
100
AcDbLine
 62
7
  6
CONTINUOUS
 10
-163.1077396332
 20
60.6607922393
 11
-163.1077396332
 21
58.5138956195
  0
LINE
  5
393
100
AcDbEntity
  8
ASSI
100
AcDbLine
 62
7
  6
CONTINUOUS
 10
-163.1077396332
 20
60.6607922393
 11
-163.1077396332
 21
58.5138956195
  0
LINE
  5
394
100
AcDbEntity
  8
0
100
AcDbLine
 62
7
  6
CONTINUOUS
 10
-163.1077396332
 20
4.8961860425
 11
-163.1077396332
 21
3.3618730344
  0
LINE
  5
395
100
AcDbEntity
  8
ASSI
100
AcDbLine
 62
7
  6
CONTINUOUS
 10
-163.1077396332
 20
4.8961860425
 11
-163.1077396332
 21
3.3618730344
  0
LINE
  5
396
100
AcDbEntity
  8
DRAFT
100
AcDbLine
 62
7
  6
CONTINUOUS
 10
-162.8577396332
 20
60.0033085736
 11
-162.8577396332
 21
58.3162703857
  0
LINE
  5
397
100
AcDbEntity
  8
DRAFT
100
AcDbLine
 62
7
  6
CONTINUOUS
 10
-162.8577396332
 20
3.3618730344
 11
-162.8577396332
 21
5.2479635027
  0
LINE
  5
398
100
AcDbEntity
  8
DRAFT
100
AcDbLine
 62
7
  6
CONTINUOUS
 10
-162.7879193735
 20
60.4617399588
 11
-162.7879193735
 21
58.3162703857
  0
LINE
  5
399
100
AcDbEntity
  8
DRAFT
100
AcDbLine
 62
7
  6
CONTINUOUS
 10
-162.7879193735
 20
3.5609253149
 11
-162.7879193735
 21
5.706394888
  0
LINE
  5
39A
100
AcDbEntity
  8
DRAFT
100
AcDbLine
 62
7
  6
CONTINUOUS
 10
-162.8577396332
 20
5.2479635027
 11
-162.7879193735
 21
5.706394888
  0
LINE
  5
39B
100
AcDbEntity
  8
DRAFT
100
AcDbLine
 62
7
  6
CONTINUOUS
 10
-169.9275598929
 20
60.4617399588
 11
-169.8577396332
 21
60.0033085736
  0
LINE
  5
39C
100
AcDbEntity
  8
DRAFT
100
AcDbLine
 62
7
  6
CONTINUOUS
 10
-162.7879193735
 20
3.5609253149
 11
-162.8314246804
 21
3.3618730344
  0
LWPOLYLINE
  5
39D
100
AcDbEntity
  8
0
100
AcDbPolyline
 62
7
  6
CONTINUOUS
 90
10
 70
0
 10
-0.5048082441
 20
3.3016671224
 10
-0.3929999731
 20
3.3247583885
 10
-0.2822765371
 20
3.3520439869
 10
-0.1724662477
 20
3.3835776457
 10
-0.0637407934
 20
3.4193056369
 10
0.0433847602
 20
3.459066776
 10
0.1488896678
 20
3.5028767252
 10
0.2527946745
 20
3.5507198222
 10
0.3546469503
 20
3.6023878953
 10
0.4544374189
 20
3.6578976493
  0
LWPOLYLINE
  5
39E
100
AcDbEntity
  8
RACCORDO
100
AcDbPolyline
 62
7
  6
CONTINUOUS
 90
26
 70
0
 10
-0.5503615563
 20
3.5716040582
 10
-0.415813332
 20
3.5953362182
 10
-0.2823944589
 20
3.6251343677
 10
-0.150384009
 20
3.6609494099
 10
-0.0199686143
 20
3.7027513779
 10
0.1084838155
 20
3.7504419999
 10
0.2344398466
 20
3.803814062
 10
0.3574510371
 20
3.8626323918
 10
0.4774806738
 20
3.926833637
 10
0.5946135652
 20
3.9964608082
 10
0.7087781363
 20
4.0715175547
 10
0.8195303555
 20
4.1517597884
 10
0.926402802
 20
4.236854047
 10
1.0290843769
 20
4.3265216923
 10
1.1274784527
 20
4.4206466832
 10
1.2214661709
 20
4.5191048321
 10
1.3108530939
 20
4.6216924002
 10
1.3954543287
 20
4.7281972413
 10
1.475157316
 20
4.8384898245
 10
1.5498548653
 20
4.9524627318
 10
1.6192987053
 20
5.069781327
 10
1.683201775
 20
5.1899518844
 10
1.7413626326
 20
5.3125108168
 10
1.7937915121
 20
5.4373872231
 10
1.8405243388
 20
5.564670461
 10
1.8815005705
 20
5.6943172552
  0
LWPOLYLINE
  5
39F
100
AcDbEntity
  8
ASSI
100
AcDbPolyline
 62
7
  6
CONTINUOUS
 90
26
 70
0
 10
-0.5503615563
 20
3.5716040582
 10
-0.415813332
 20
3.5953362182
 10
-0.2823944589
 20
3.6251343677
 10
-0.150384009
 20
3.6609494099
 10
-0.0199686143
 20
3.7027513779
 10
0.1084838155
 20
3.7504419999
 10
0.2344398466
 20
3.803814062
 10
0.3574510371
 20
3.8626323918
 10
0.4774806738
 20
3.926833637
 10
0.5946135652
 20
3.9964608082
 10
0.7087781363
 20
4.0715175547
 10
0.8195303555
 20
4.1517597884
 10
0.926402802
 20
4.236854047
 10
1.0290843769
 20
4.3265216923
 10
1.1274784527
 20
4.4206466832
 10
1.2214661709
 20
4.5191048321
 10
1.3108530939
 20
4.6216924002
 10
1.3954543287
 20
4.7281972413
 10
1.475157316
 20
4.8384898245
 10
1.5498548653
 20
4.9524627318
 10
1.6192987053
 20
5.069781327
 10
1.683201775
 20
5.1899518844
 10
1.7413626326
 20
5.3125108168
 10
1.7937915121
 20
5.4373872231
 10
1.8405243388
 20
5.564670461
 10
1.8815005705
 20
5.6943172552
  0
LWPOLYLINE
  5
3A0
100
AcDbEntity
  8
ASSI
100
AcDbPolyline
 62
7
  6
CONTINUOUS
 90
10
 70
0
 10
-0.6177013503
 20
3.2827701887
 10
-0.494515869
 20
3.3036167776
 10
-0.3726876025
 20
3.3294350379
 10
-0.2522165509
 20
3.3602249695
 10
-0.1328977079
 20
3.3960527161
 10
-0.0149360797
 20
3.436852134
 10
0.101053315
 20
3.4824247925
 10
0.2150836305
 20
3.5328128352
 10
0.3271417126
 20
3.5879741184
 10
0.4365730801
 20
3.6475837801
  0
LINE
  5
3A1
100
AcDbEntity
  8
0
100
AcDbLine
 62
7
  6
CONTINUOUS
 10
-0.6177013502
 20
3.2827701887
 11
-0.5048082441
 21
3.3016671224
  0
LWPOLYLINE
  5
3A2
100
AcDbEntity
  8
0
100
AcDbPolyline
 62
253
  6
CONTINUOUS
 90
8
 70
0
 10
-210.5611195679
 20
2.3982748107
 10
-210.6942176471
 20
2.4190950281
 10
-210.8261293864
 20
2.4460677106
 10
-210.9565787527
 20
2.4791364163
 10
-211.085292773
 20
2.5182319468
 10
-211.2120021054
 20
2.5632724926
 10
-211.3364416033
 20
2.6141638034
 10
-211.4583508695
 20
2.6707993864
  0
LWPOLYLINE
  5
3A3
100
AcDbEntity
  8
RACCORDO
100
AcDbPolyline
 62
7
  6
CONTINUOUS
 90
26
 70
0
 10
-212.1651177102
 20
3.5716040582
 10
-212.2996671572
 20
3.5953315493
 10
-212.4330857703
 20
3.6251306912
 10
-212.5650952575
 20
3.6609494099
 10
-212.695510267
 20
3.7027528486
 10
-212.8239630651
 20
3.7504420643
 10
-212.949919113
 20
3.803814062
 10
-213.0729302286
 20
3.8626326781
 10
-213.1929601473
 20
3.9268328465
 10
-213.3100928316
 20
3.9964608082
 10
-213.4242570906
 20
4.0715187466
 10
-213.5350094947
 20
4.151760274
 10
-213.6418820684
 20
4.236854047
 10
-213.7445635778
 20
4.3265219425
 10
-213.8429576891
 20
4.4206467981
 10
-213.9369454374
 20
4.5191048321
 10
-214.0263323304
 20
4.621692515
 10
-214.1109335295
 20
4.7281974917
 10
-214.1906365825
 20
4.8384898245
 10
-214.2653340046
 20
4.9524632173
 10
-214.3347776596
 20
5.0697825189
 10
-214.3986810415
 20
5.1899518844
 10
-214.4568421061
 20
5.3125100262
 10
-214.5092707035
 20
5.4373875095
 10
-214.5560036053
 20
5.564670461
 10
-214.5969798202
 20
5.6943173194
  0
LWPOLYLINE
  5
3A4
100
AcDbEntity
  8
ASSI
100
AcDbPolyline
 62
7
  6
CONTINUOUS
 90
26
 70
0
 10
-212.1651177102
 20
3.5716040582
 10
-212.2996671572
 20
3.5953315493
 10
-212.4330857703
 20
3.6251306912
 10
-212.5650952575
 20
3.6609494099
 10
-212.695510267
 20
3.7027528486
 10
-212.8239630651
 20
3.7504420643
 10
-212.949919113
 20
3.803814062
 10
-213.0729302286
 20
3.8626326781
 10
-213.1929601473
 20
3.9268328465
 10
-213.3100928316
 20
3.9964608082
 10
-213.4242570906
 20
4.0715187466
 10
-213.5350094947
 20
4.151760274
 10
-213.6418820684
 20
4.236854047
 10
-213.7445635778
 20
4.3265219425
 10
-213.8429576891
 20
4.4206467981
 10
-213.9369454374
 20
4.5191048321
 10
-214.0263323304
 20
4.621692515
 10
-214.1109335295
 20
4.7281974917
 10
-214.1906365825
 20
4.8384898245
 10
-214.2653340046
 20
4.9524632173
 10
-214.3347776596
 20
5.0697825189
 10
-214.3986810415
 20
5.1899518844
 10
-214.4568421061
 20
5.3125100262
 10
-214.5092707035
 20
5.4373875095
 10
-214.5560036053
 20
5.564670461
 10
-214.5969798202
 20
5.6943173194
  0
LWPOLYLINE
  5
3A5
100
AcDbEntity
  8
0
100
AcDbPolyline
 62
7
  6
CONTINUOUS
 90
3
 70
0
 10
-212.3225189909
 20
3.3247681144
 10
-212.2106932885
 20
3.3016722009
 10
-212.0977779162
 20
3.2827701887
  0
LWPOLYLINE
  5
3A6
100
AcDbEntity
  8
RACCORDO
100
AcDbPolyline
 62
7
  6
CONTINUOUS
 90
31
 70
0
 10
-0.8434743097
 20
4.1766704019
 10
-0.7086840399
 20
4.1996938122
 10
-0.5753807519
 20
4.2287684181
 10
-0.4435644455
 20
4.2638942196
 10
-0.3128134697
 20
4.3052154884
 10
-0.1835494755
 20
4.3525879528
 10
-0.0570374165
 20
4.4055787975
 10
0.0665572382
 20
4.4642115871
 10
0.1873999577
 20
4.5284627571
 10
0.3047221959
 20
4.5978287983
 10
0.4183354901
 20
4.6721790303
 10
0.528428303
 20
4.7516441334
 10
0.6347974763
 20
4.8361126397
 10
0.7376892243
 20
4.9258117287
 10
0.8368573328
 20
5.020514221
 10
0.9313600008
 20
5.1194271099
 10
1.0211160728
 20
5.2226216297
 10
1.1062067042
 20
5.3300265462
 10
1.185933561
 20
5.4406351503
 10
1.2600935879
 20
5.5541798542
 10
1.3288898402
 20
5.6709282457
 10
1.3922331499
 20
5.7906763786
 10
1.4502385205
 20
5.9136288826
 10
1.5027909485
 20
6.0395811279
 10
1.5494562557
 20
6.1677152792
 10
1.5901931575
 20
6.2981911111
 10
1.6250429383
 20
6.4308488489
 10
1.6536952732
 20
6.5643913329
 10
1.6760467203
 20
6.6983861765
 10
1.6922007214
 20
6.8332657663
 10
1.7021572765
 20
6.9690301022
  0
LWPOLYLINE
  5
3A7
100
AcDbEntity
  8
ASSI
100
AcDbPolyline
 62
7
  6
CONTINUOUS
 90
31
 70
0
 10
-0.8434743097
 20
4.1766704019
 10
-0.7086840399
 20
4.1996938122
 10
-0.5753807519
 20
4.2287684181
 10
-0.4435644455
 20
4.2638942196
 10
-0.3128134697
 20
4.3052154884
 10
-0.1835494755
 20
4.3525879528
 10
-0.0570374165
 20
4.4055787975
 10
0.0665572382
 20
4.4642115871
 10
0.1873999577
 20
4.5284627571
 10
0.3047221959
 20
4.5978287983
 10
0.4183354901
 20
4.6721790303
 10
0.528428303
 20
4.7516441334
 10
0.6347974763
 20
4.8361126397
 10
0.7376892243
 20
4.9258117287
 10
0.8368573328
 20
5.020514221
 10
0.9313600008
 20
5.1194271099
 10
1.0211160728
 20
5.2226216297
 10
1.1062067042
 20
5.3300265462
 10
1.185933561
 20
5.4406351503
 10
1.2600935879
 20
5.5541798542
 10
1.3288898402
 20
5.6709282457
 10
1.3922331499
 20
5.7906763786
 10
1.4502385205
 20
5.9136288826
 10
1.5027909485
 20
6.0395811279
 10
1.5494562557
 20
6.1677152792
 10
1.5901931575
 20
6.2981911111
 10
1.6250429383
 20
6.4308488489
 10
1.6536952732
 20
6.5643913329
 10
1.6760467203
 20
6.6983861765
 10
1.6922007214
 20
6.8332657663
 10
1.7021572765
 20
6.9690301022
  0
LWPOLYLINE
  5
3A8
100
AcDbEntity
  8
0
100
AcDbPolyline
 62
7
  6
CONTINUOUS
 90
11
 70
0
 10
-0.6188693443
 20
3.2770276059
 10
-0.496356046
 20
3.2967845959
 10
-0.3747947114
 20
3.3216053373
 10
-0.2543953631
 20
3.3514477677
 10
-0.1353665671
 20
3.386259694
 10
-0.0179138706
 20
3.4259832363
 10
0.0977605389
 20
3.4705549673
 10
0.2114563073
 20
3.5198987943
 10
0.3229761268
 20
3.5739301871
 10
0.4321272686
 20
3.632560714
 10
0.4782655947
 20
3.6591489473
  0
LWPOLYLINE
  5
3A9
100
AcDbEntity
  8
0
100
AcDbPolyline
 62
253
  6
CONTINUOUS
 90
9
 70
0
 10
-1.676960682
 20
2.6555630226
 10
-1.5435752132
 20
2.6764236348
 10
-1.4114892654
 20
2.7034409069
 10
-1.2809770525
 20
2.7365435167
 10
-1.1523456734
 20
2.775635462
 10
-1.0258215038
 20
2.8206293351
 10
-0.9015559903
 20
2.8714640343
 10
-0.7797736138
 20
2.9280526579
 10
-0.6878634542
 20
2.9754730017
  0
LINE
  5
3AA
100
AcDbEntity
  8
0
100
AcDbLine
 62
7
  6
CONTINUOUS
 10
-13.7430696914
 20
1.3421188502
 11
-0.6177013502
 21
3.2827701887
  0
LINE
  5
3AB
100
AcDbEntity
  8
ASSI
100
AcDbLine
 62
7
  6
CONTINUOUS
 10
-13.7430696914
 20
1.3421188502
 11
-0.6177013502
 21
3.2827701887
  0
LINE
  5
3AC
100
AcDbEntity
  8
RACCORDO
100
AcDbLine
 62
7
  6
CONTINUOUS
 10
-0.5503615563
 20
3.5716040582
 11
-13.7385565206
 21
1.6216398456
  0
LINE
  5
3AD
100
AcDbEntity
  8
ASSI
100
AcDbLine
 62
7
  6
CONTINUOUS
 10
-0.5503615563
 20
3.5716040582
 11
-13.7385565206
 21
1.6216398456
  0
LINE
  5
3AE
100
AcDbEntity
  8
RACCORDO
100
AcDbLine
 62
7
  6
CONTINUOUS
 10
-13.7619783326
 20
2.2666049872
 11
-0.8434743097
 21
4.1766704019
  0
LINE
  5
3AF
100
AcDbEntity
  8
ASSI
100
AcDbLine
 62
7
  6
CONTINUOUS
 10
-13.7619783326
 20
2.2666049872
 11
-0.8434743097
 21
4.1766704019
  0
LINE
  5
3B0
100
AcDbEntity
  8
RACCORDO
100
AcDbLine
 62
7
  6
CONTINUOUS
 10
-0.7800184771
 20
5.387224807
 11
-14.4782482976
 21
3.3618730344
  0
LINE
  5
3B1
100
AcDbEntity
  8
ASSI
100
AcDbLine
 62
7
  6
CONTINUOUS
 10
-0.7800184771
 20
5.387224807
 11
-14.4782482976
 21
3.3618730344
  0
LINE
  5
3B2
100
AcDbEntity
  8
DRAFT
100
AcDbLine
 62
7
  6
CONTINUOUS
 10
-14.4930231194
 20
3.5609253149
 11
-0.8094077323
 21
5.5841162704
  0
LINE
  5
3B3
100
AcDbEntity
  8
0
100
AcDbLine
 62
253
  6
CONTINUOUS
 10
-14.0309655237
 20
0.8222418787
 11
-2.1543596985
 21
2.3982748107
  0
LINE
  5
3B4
100
AcDbEntity
  8
0
100
AcDbLine
 62
253
  6
CONTINUOUS
 10
-15.6477831771
 20
0.4740341398
 11
-15.8188448213
 21
0.4514808606
  0
LINE
  5
3B5
100
AcDbEntity
  8
0
100
AcDbLine
 62
7
  6
CONTINUOUS
 10
-13.7464782903
 20
1.1310089672
 11
-1.6748102699
 21
2.6558346506
  0
LWPOLYLINE
  5
3B6
100
AcDbEntity
  8
0
100
AcDbPolyline
 62
253
  6
CONTINUOUS
 90
28
 70
0
 10
-15.8188448213
 20
0.4514808606
 10
-15.9996121929
 20
0.4294689357
 10
-16.19012503
 20
0.4080001514
 10
-16.3903435945
 20
0.3870727213
 10
-16.5994732952
 20
0.3667672682
 10
-16.8175507662
 20
0.3470861693
 10
-17.0445393736
 20
0.3280270474
 10
-17.2795346234
 20
0.3096633927
 10
-17.5225716248
 20
0.2919979057
 10
-17.7736152688
 20
0.275027886
 10
-18.0316557349
 20
0.2588187226
 10
-18.2967035868
 20
0.2433743298
 10
-18.5687482609
 20
0.2286907933
 10
-18.8467482452
 20
0.2148217594
 10
-19.1307056541
 20
0.2017705989
 10
-19.4206183733
 20
0.1895339411
 10
-19.7154385476
 20
0.1781553192
 10
-20.0152463349
 20
0.1676359837
 10
-20.3199615774
 20
0.1579746842
 10
-20.6282959467
 20
0.1492112038
 10
-20.9403205526
 20
0.1413498653
 10
-21.2559642853
 20
0.1343863459
 10
-21.5737254869
 20
0.12834746
 10
-21.893622738
 20
0.1232399715
 10
-22.2156374579
 20
0.1190571165
 10
-22.5382122474
 20
0.1158054181
 10
-22.8608279732
 20
0.1134870506
 10
-23.1840037685
 20
0.1120998397
  0
LWPOLYLINE
  5
3B7
100
AcDbEntity
  8
0
100
AcDbPolyline
 62
253
  6
CONTINUOUS
 90
3
 70
0
 10
-6.5219163918
 20
1.4600563322
 10
-6.9206341606
 20
1.4127079601
 10
-7.1618452549
 20
1.3853734579
  0
LWPOLYLINE
  5
3B8
100
AcDbEntity
  8
0
100
AcDbPolyline
 62
253
  6
CONTINUOUS
 90
9
 70
0
 10
-14.0309655237
 20
0.8222418787
 10
-14.0789844428
 20
0.8166370617
 10
-14.1270915421
 20
0.811808094
 10
-14.1752742673
 20
0.8077562357
 10
-14.2235200441
 20
0.8044825441
 10
-14.271816282
 20
0.8019878737
 10
-14.3201503772
 20
0.8002728754
 10
-14.368509716
 20
0.7993379969
 10
-14.4168816783
 20
0.7991834819
  0
LWPOLYLINE
  5
3B9
100
AcDbEntity
  8
0
100
AcDbPolyline
 62
7
  6
CONTINUOUS
 90
14
 70
0
 10
-7.1618452549
 20
1.3853734579
 10
-6.5658187062
 20
1.4546183636
 10
-6.0145871614
 20
1.5242518803
 10
-5.5059673741
 20
1.5940296408
 10
-5.0377525572
 20
1.6637315954
 10
-4.6075962301
 20
1.7331810839
 10
-4.2128973284
 20
1.8022741971
 10
-3.8523971124
 20
1.8706840855
 10
-3.5223268266
 20
1.9385793552
 10
-3.216642738
 20
2.0067833853
 10
-2.9333358173
 20
2.0754352311
 10
-2.6706539601
 20
2.1446622628
 10
-2.423619304
 20
2.2156022201
 10
-2.1904691659
 20
2.2887462768
  0
LINE
  5
3BA
100
AcDbEntity
  8
0
100
AcDbLine
 62
7
  6
CONTINUOUS
 10
-7.1618452549
 20
1.3853734579
 11
-15.7916536231
 21
0.4241522639
  0
LWPOLYLINE
  5
3BB
100
AcDbEntity
  8
0
100
AcDbPolyline
 62
7
  6
CONTINUOUS
 90
22
 70
0
 10
-196.8515795926
 20
0.416206998
 10
-196.5412868
 20
0.3841983058
 10
-196.2255592604
 20
0.3547396178
 10
-195.902281793
 20
0.32735951
 10
-195.5725299405
 20
0.3019527994
 10
-195.2379420611
 20
0.2784686952
 10
-194.897093637
 20
0.2566654624
 10
-194.5509791615
 20
0.2365026117
 10
-194.2006990022
 20
0.217944964
 10
-193.8446592433
 20
0.2008348265
 10
-193.4837015425
 20
0.1851613848
 10
-193.1186037778
 20
0.1709088205
 10
-192.7473761905
 20
0.1579714474
 10
-192.3706506822
 20
0.1463597255
 10
-191.9890970238
 20
0.1360847724
 10
-191.6005784079
 20
0.1270957
 10
-191.2056875547
 20
0.1194277333
 10
-190.8050511447
 20
0.1131166863
 10
-190.3964625772
 20
0.1081657268
 10
-189.9795893297
 20
0.1046310233
 10
-189.556118064
 20
0.1025869574
 10
-176.3577396332
 20
0.1020642226
  0
LINE
  5
3BC
100
AcDbEntity
  8
0
100
AcDbLine
 62
7
  6
CONTINUOUS
 10
-196.8515795926
 20
0.416206998
 11
-205.5536340115
 21
1.3853734579
  0
LWPOLYLINE
  5
3BD
100
AcDbEntity
  8
0
100
AcDbPolyline
 62
253
  6
CONTINUOUS
 90
17
 70
0
 10
-196.923716163
 20
0.4241400753
 10
-197.0542171609
 20
0.4390394559
 10
-197.2443952331
 20
0.4621819998
 10
-197.4242046762
 20
0.4858654933
 10
-197.5935206711
 20
0.5100739265
 10
-197.7520673467
 20
0.5347717276
 10
-197.8995653391
 20
0.5599192304
 10
-198.0359057369
 20
0.58549522
 10
-198.1608625747
 20
0.6114630997
 10
-198.2741970937
 20
0.6377792777
 10
-198.3758210452
 20
0.6644128452
 10
-198.4655569226
 20
0.6913224403
 10
-198.5432419595
 20
0.7184651044
 10
-198.6088636463
 20
0.7458087027
 10
-198.6623536646
 20
0.7733143384
 10
-198.7035714998
 20
0.8009348841
 10
-198.732436199
 20
0.828626253
  0
LWPOLYLINE
  5
3BE
100
AcDbEntity
  8
0
100
AcDbPolyline
 62
7
  6
CONTINUOUS
 90
14
 70
0
 10
-205.5536340115
 20
1.3853734579
 10
-206.1496605603
 20
1.4546183636
 10
-206.700892105
 20
1.5242518803
 10
-207.2095118924
 20
1.5940296408
 10
-207.6777267093
 20
1.6637315954
 10
-208.1078830364
 20
1.7331810839
 10
-208.5025819381
 20
1.8022741971
 10
-208.863082154
 20
1.8706840855
 10
-209.1931524398
 20
1.9385793552
 10
-209.4988365285
 20
2.0067833853
 10
-209.7821434491
 20
2.0754352311
 10
-210.0448253063
 20
2.1446622628
 10
-210.2918599624
 20
2.2156022201
 10
-210.5250101006
 20
2.2887462768
  0
LINE
  5
3BF
100
AcDbEntity
  8
0
100
AcDbLine
 62
253
  6
CONTINUOUS
 10
-206.1935649827
 20
1.4600565901
 11
-206.1496605603
 21
1.4546183636
  0
LWPOLYLINE
  5
3C0
100
AcDbEntity
  8
0
100
AcDbPolyline
 62
253
  6
CONTINUOUS
 90
3
 70
0
 10
-206.0624432777
 20
1.4444856731
 10
-205.7948473014
 20
1.4127082132
 10
-205.5536340424
 20
1.3853734613
  0
LINE
  5
3C1
100
AcDbEntity
  8
0
100
AcDbLine
 62
7
  6
CONTINUOUS
 10
-211.0406689966
 20
2.6558346506
 11
-198.9690009761
 21
1.1310089672
  0
LWPOLYLINE
  5
3C2
100
AcDbEntity
  8
0
100
AcDbPolyline
 62
253
  6
CONTINUOUS
 90
15
 70
0
 10
-196.8966344452
 20
0.4514808606
 10
-197.0676960894
 20
0.4740341398
 10
-197.2283766301
 20
0.4970427912
 10
-197.3786429168
 20
0.5205100346
 10
-197.5185281
 20
0.5444326502
 10
-197.6474562552
 20
0.5687149973
 10
-197.7653850498
 20
0.5933614676
 10
-197.8723568165
 20
0.6183676695
 10
-197.9679226285
 20
0.6436247865
 10
-198.052017918
 20
0.6691349018
 10
-198.1247072528
 20
0.6948959323
 10
-198.1857354095
 20
0.7207928121
 10
-198.2350173138
 20
0.746787186
 10
-198.27263804
 20
0.7729174093
 10
-198.2985975882
 20
0.7991834819
  0
LWPOLYLINE
  5
3C3
100
AcDbEntity
  8
0
100
AcDbPolyline
 62
253
  6
CONTINUOUS
 90
10
 70
0
 10
-210.5611195679
 20
2.3982748107
 10
-198.6845137432
 20
0.8222418787
 10
-198.6364948245
 20
0.8166370618
 10
-198.5883877255
 20
0.8118080941
 10
-198.5402050004
 20
0.8077562358
 10
-198.4919592236
 20
0.8044825442
 10
-198.4436629856
 20
0.8019878738
 10
-198.3953288901
 20
0.8002728755
 10
-198.3469695509
 20
0.7993379969
 10
-198.2985975882
 20
0.7991834819
  0
LINE
  5
3C4
100
AcDbEntity
  8
0
100
AcDbLine
 62
253
  6
CONTINUOUS
 10
-206.9478064608
 20
1.5580260266
 11
-206.5779924448
 21
1.5085094406
  0
LINE
  5
3C5
100
AcDbEntity
  8
0
100
AcDbLine
 62
253
  6
CONTINUOUS
 10
-207.302696074
 20
1.608564718
 11
-206.9478064608
 21
1.5580260266
  0
LINE
  5
3C6
100
AcDbEntity
  8
0
100
AcDbLine
 62
7
  6
CONTINUOUS
 10
-212.0977779162
 20
3.2827701887
 11
-198.972409575
 21
1.3421188502
  0
LINE
  5
3C7
100
AcDbEntity
  8
ASSI
100
AcDbLine
 62
7
  6
CONTINUOUS
 10
-212.0977779162
 20
3.2827701887
 11
-198.972409575
 21
1.3421188502
  0
LINE
  5
3C8
100
AcDbEntity
  8
RACCORDO
100
AcDbLine
 62
7
  6
CONTINUOUS
 10
-211.8720049568
 20
4.1766704019
 11
-198.9535009338
 21
2.2666049872
  0
LINE
  5
3C9
100
AcDbEntity
  8
ASSI
100
AcDbLine
 62
7
  6
CONTINUOUS
 10
-211.8720049568
 20
4.1766704019
 11
-198.9535009338
 21
2.2666049872
  0
LINE
  5
3CA
100
AcDbEntity
  8
RACCORDO
100
AcDbLine
 62
7
  6
CONTINUOUS
 10
-211.9354607893
 20
5.387224807
 11
-198.2372309689
 21
3.3618730344
  0
LINE
  5
3CB
100
AcDbEntity
  8
ASSI
100
AcDbLine
 62
7
  6
CONTINUOUS
 10
-211.9354607893
 20
5.387224807
 11
-198.2372309689
 21
3.3618730344
  0
LINE
  5
3CC
100
AcDbEntity
  8
DRAFT
100
AcDbLine
 62
7
  6
CONTINUOUS
 10
-211.9060715342
 20
5.5841162704
 11
-198.2224561471
 21
3.5609253149
  0
LINE
  5
3CD
100
AcDbEntity
  8
RACCORDO
100
AcDbLine
 62
7
  6
CONTINUOUS
 10
-212.1651177102
 20
3.5716040582
 11
-198.9761219486
 21
1.6215214437
  0
LINE
  5
3CE
100
AcDbEntity
  8
ASSI
100
AcDbLine
 62
7
  6
CONTINUOUS
 10
-212.1651177102
 20
3.5716040582
 11
-198.9761219486
 21
1.6215214437
  0
LWPOLYLINE
  5
3CF
100
AcDbEntity
  8
0
100
AcDbPolyline
 62
253
  6
CONTINUOUS
 90
9
 70
0
 10
-211.0385185845
 20
2.6555630226
 10
-211.1719040532
 20
2.6764236348
 10
-211.303990001
 20
2.7034409069
 10
-211.434502214
 20
2.7365435167
 10
-211.563133593
 20
2.775635462
 10
-211.6896577627
 20
2.8206293351
 10
-211.8139232762
 20
2.8714640343
 10
-211.9357056527
 20
2.928052658
 10
-212.0276158123
 20
2.9754730017
  0
LWPOLYLINE
  5
3D0
100
AcDbEntity
  8
0
100
AcDbPolyline
 62
7
  6
CONTINUOUS
 90
11
 70
0
 10
-212.0966099222
 20
3.2770276059
 10
-212.2192156296
 20
3.2968058977
 10
-212.3408466915
 20
3.3216453071
 10
-212.4612965258
 20
3.3515051893
 10
-212.5803624885
 20
3.3863376854
 10
-212.6978404385
 20
3.4260833504
 10
-212.8135249239
 20
3.4706717242
 10
-212.9272192914
 20
3.5200284593
 10
-213.0387302114
 20
3.5740709704
 10
-213.1478619119
 20
3.632704856
 10
-213.1937435811
 20
3.6591477177
  0
LWPOLYLINE
  5
3D1
100
AcDbEntity
  8
RACCORDO
100
AcDbPolyline
 62
7
  6
CONTINUOUS
 90
14
 70
0
 10
-211.9354607893
 20
5.387224807
 10
-212.0203486668
 20
5.4023099471
 10
-212.1037017574
 20
5.4220194176
 10
-212.185520061
 20
5.4463532184
 10
-212.2660604703
 20
5.4754209016
 10
-212.3450660927
 20
5.5091129151
 10
-212.4217662501
 20
5.5471006027
 10
-212.4961383801
 20
5.5894260042
 10
-212.568205045
 20
5.6360470798
 10
-212.6372632547
 20
5.6865090537
 10
-212.7032835666
 20
5.740849515
 10
-212.7662954233
 20
5.7990308748
 10
-212.8256841613
 20
5.8604855899
 10
-212.881414323
 20
5.925245695
  0
LWPOLYLINE
  5
3D2
100
AcDbEntity
  8
ASSI
100
AcDbPolyline
 62
7
  6
CONTINUOUS
 90
14
 70
0
 10
-211.9354607893
 20
5.387224807
 10
-212.0203486668
 20
5.4023099471
 10
-212.1037017574
 20
5.4220194176
 10
-212.185520061
 20
5.4463532184
 10
-212.2660604703
 20
5.4754209016
 10
-212.3450660927
 20
5.5091129151
 10
-212.4217662501
 20
5.5471006027
 10
-212.4961383801
 20
5.5894260042
 10
-212.568205045
 20
5.6360470798
 10
-212.6372632547
 20
5.6865090537
 10
-212.7032835666
 20
5.740849515
 10
-212.7662954233
 20
5.7990308748
 10
-212.8256841613
 20
5.8604855899
 10
-212.881414323
 20
5.925245695
  0
LWPOLYLINE
  5
3D3
100
AcDbEntity
  8
DRAFT
100
AcDbPolyline
 62
7
  6
CONTINUOUS
 90
23
 70
0
 10
-211.9060715342
 20
5.5841162704
 10
-211.979641028
 20
5.5971900585
 10
-212.0518803732
 20
5.6142715996
 10
-212.1227895696
 20
5.6353608936
 10
-212.1925912577
 20
5.6605528857
 10
-212.2610627971
 20
5.6897526308
 10
-212.3275362669
 20
5.7226752934
 10
-212.3919921128
 20
5.759357308
 10
-212.4544498891
 20
5.7997622401
 10
-212.5143003375
 20
5.8434959508
 10
-212.5715179412
 20
5.8905910174
 10
-212.6261282169
 20
5.9410148625
 10
-212.6775984565
 20
5.9942756155
 10
-212.72589793
 20
6.05040104
 10
-212.7710573674
 20
6.1093633724
 10
-212.8126362508
 20
6.1705874515
 10
-212.8505995391
 20
6.234095412
 10
-212.8849822735
 20
6.2998651191
 10
-212.9154490599
 20
6.3672550076
 10
-212.9419615748
 20
6.4362809335
 10
-212.9645581416
 20
6.5069270407
 10
-212.9830183373
 20
6.5785041961
 10
-212.9940711881
 20
6.6325012899
  0
LWPOLYLINE
  5
3D4
100
AcDbEntity
  8
RACCORDO
100
AcDbPolyline
 62
7
  6
CONTINUOUS
 90
10
 70
0
 10
-14.1785186204
 20
1.5892325264
 10
-14.1297428789
 20
1.5896492603
 10
-14.0808829163
 20
1.5908563792
 10
-14.0319518167
 20
1.5928582358
 10
-13.9828979943
 20
1.5956632185
 10
-13.9337998033
 20
1.5992731163
 10
-13.8848647539
 20
1.6036726723
 10
-13.8361700763
 20
1.6088486581
 10
-13.7876635001
 20
1.6148003215
 10
-13.7393573179
 20
1.6215214437
  0
LWPOLYLINE
  5
3D5
100
AcDbEntity
  8
ASSI
100
AcDbPolyline
 62
7
  6
CONTINUOUS
 90
10
 70
0
 10
-14.1785186204
 20
1.5892325264
 10
-14.1297428789
 20
1.5896492603
 10
-14.0808829163
 20
1.5908563792
 10
-14.0319518167
 20
1.5928582358
 10
-13.9828979943
 20
1.5956632185
 10
-13.9337998033
 20
1.5992731163
 10
-13.8848647539
 20
1.6036726723
 10
-13.8361700763
 20
1.6088486581
 10
-13.7876635001
 20
1.6148003215
 10
-13.7393573179
 20
1.6215214437
  0
LWPOLYLINE
  5
3D6
100
AcDbEntity
  8
0
100
AcDbPolyline
 62
7
  6
CONTINUOUS
 90
10
 70
0
 10
-14.1872320655
 20
1.0997109191
 10
-14.1387719065
 20
1.0999806275
 10
-14.0903244352
 20
1.1010307328
 10
-14.0419022952
 20
1.1028609288
 10
-13.9935181353
 20
1.105470675
 10
-13.9451845707
 20
1.1088592887
 10
-13.8969141806
 20
1.1130259467
 10
-13.8487195508
 20
1.1179695625
 10
-13.8006132706
 20
1.1236887847
 10
-13.7526078946
 20
1.1301820905
  0
LWPOLYLINE
  5
3D7
100
AcDbEntity
  8
0
100
AcDbPolyline
 62
7
  6
CONTINUOUS
 90
22
 70
0
 10
-23.1529646738
 20
0.1026063206
 10
-22.7297898591
 20
0.1046718091
 10
-22.3132205706
 20
0.1082256154
 10
-21.9049391318
 20
0.1131933328
 10
-21.5046118292
 20
0.1195189294
 10
-21.110032643
 20
0.1271993687
 10
-20.7218268744
 20
0.1361988714
 10
-20.3405857224
 20
0.1464822673
 10
-19.964172727
 20
0.1581005118
 10
-19.5932566014
 20
0.1710425105
 10
-19.2284675282
 20
0.1852978168
 10
-18.8678156458
 20
0.2009721823
 10
-18.5120775683
 20
0.218081431
 10
-18.1620932598
 20
0.236636368
 10
-17.8162684535
 20
0.2567947336
 10
-17.4757015495
 20
0.2785917059
 10
-17.1413857506
 20
0.3020677555
 10
-16.8118968083
 20
0.3274645475
 10
-16.4888709399
 20
0.3548328294
 10
-16.1733819052
 20
0.3842777559
 10
-15.8633150399
 20
0.4162705025
 10
-15.7917631034
 20
0.4241400753
  0
LINE
  5
3D8
100
AcDbEntity
  8
0
100
AcDbLine
 62
7
  6
CONTINUOUS
 10
-23.1529646738
 20
0.1026063206
 11
-36.3577396332
 21
0.1020642226
  0
LINE
  5
3D9
100
AcDbEntity
  8
RACCORDO
100
AcDbLine
 62
7
  6
CONTINUOUS
 10
-36.5577396332
 20
0.1020642226
 11
-46.7009155519
 21
0.1020642226
  0
LINE
  5
3DA
100
AcDbEntity
  8
ASSI
100
AcDbLine
 62
7
  6
CONTINUOUS
 10
-36.5577396332
 20
0.1020642226
 11
-46.7009155519
 21
0.1020642226
  0
LINE
  5
3DB
100
AcDbEntity
  8
RACCORDO
100
AcDbLine
 62
7
  6
CONTINUOUS
 10
-48.0145637146
 20
0.1020642226
 11
-50.7009155519
 21
0.1020642226
  0
LINE
  5
3DC
100
AcDbEntity
  8
ASSI
100
AcDbLine
 62
7
  6
CONTINUOUS
 10
-48.0145637146
 20
0.1020642226
 11
-50.7009155519
 21
0.1020642226
  0
LINE
  5
3DD
100
AcDbEntity
  8
RACCORDO
100
AcDbLine
 62
7
  6
CONTINUOUS
 10
-52.0145637146
 20
0.1020642226
 11
-54.7009155519
 21
0.1020642226
  0
LINE
  5
3DE
100
AcDbEntity
  8
ASSI
100
AcDbLine
 62
7
  6
CONTINUOUS
 10
-52.0145637146
 20
0.1020642226
 11
-54.7009155519
 21
0.1020642226
  0
LINE
  5
3DF
100
AcDbEntity
  8
RACCORDO
100
AcDbLine
 62
7
  6
CONTINUOUS
 10
-56.0145637146
 20
0.1020642226
 11
-58.7009155519
 21
0.1020642226
  0
LINE
  5
3E0
100
AcDbEntity
  8
ASSI
100
AcDbLine
 62
7
  6
CONTINUOUS
 10
-56.0145637146
 20
0.1020642226
 11
-58.7009155519
 21
0.1020642226
  0
LINE
  5
3E1
100
AcDbEntity
  8
RACCORDO
100
AcDbLine
 62
7
  6
CONTINUOUS
 10
-60.0145637146
 20
0.1020642226
 11
-62.7009155519
 21
0.1020642226
  0
LINE
  5
3E2
100
AcDbEntity
  8
ASSI
100
AcDbLine
 62
7
  6
CONTINUOUS
 10
-60.0145637146
 20
0.1020642226
 11
-62.7009155519
 21
0.1020642226
  0
LINE
  5
3E3
100
AcDbEntity
  8
RACCORDO
100
AcDbLine
 62
7
  6
CONTINUOUS
 10
-64.0145637146
 20
0.1020642226
 11
-66.7009155519
 21
0.1020642226
  0
LINE
  5
3E4
100
AcDbEntity
  8
ASSI
100
AcDbLine
 62
7
  6
CONTINUOUS
 10
-64.0145637146
 20
0.1020642226
 11
-66.7009155519
 21
0.1020642226
  0
LINE
  5
3E5
100
AcDbEntity
  8
RACCORDO
100
AcDbLine
 62
7
  6
CONTINUOUS
 10
-68.0145637146
 20
0.1020642226
 11
-70.7009155519
 21
0.1020642226
  0
LINE
  5
3E6
100
AcDbEntity
  8
ASSI
100
AcDbLine
 62
7
  6
CONTINUOUS
 10
-68.0145637146
 20
0.1020642226
 11
-70.7009155519
 21
0.1020642226
  0
LINE
  5
3E7
100
AcDbEntity
  8
RACCORDO
100
AcDbLine
 62
7
  6
CONTINUOUS
 10
-72.0145637146
 20
0.1020642226
 11
-74.7009155519
 21
0.1020642226
  0
LINE
  5
3E8
100
AcDbEntity
  8
ASSI
100
AcDbLine
 62
7
  6
CONTINUOUS
 10
-72.0145637146
 20
0.1020642226
 11
-74.7009155519
 21
0.1020642226
  0
LINE
  5
3E9
100
AcDbEntity
  8
RACCORDO
100
AcDbLine
 62
7
  6
CONTINUOUS
 10
-76.0145637146
 20
0.1020642226
 11
-78.7009155519
 21
0.1020642226
  0
LINE
  5
3EA
100
AcDbEntity
  8
ASSI
100
AcDbLine
 62
7
  6
CONTINUOUS
 10
-76.0145637146
 20
0.1020642226
 11
-78.7009155519
 21
0.1020642226
  0
LINE
  5
3EB
100
AcDbEntity
  8
RACCORDO
100
AcDbLine
 62
7
  6
CONTINUOUS
 10
-80.0145637146
 20
0.1020642226
 11
-82.7009155519
 21
0.1020642226
  0
LINE
  5
3EC
100
AcDbEntity
  8
ASSI
100
AcDbLine
 62
7
  6
CONTINUOUS
 10
-80.0145637146
 20
0.1020642226
 11
-82.7009155519
 21
0.1020642226
  0
LINE
  5
3ED
100
AcDbEntity
  8
RACCORDO
100
AcDbLine
 62
7
  6
CONTINUOUS
 10
-84.0145637146
 20
0.1020642226
 11
-86.7009155519
 21
0.1020642226
  0
LINE
  5
3EE
100
AcDbEntity
  8
ASSI
100
AcDbLine
 62
7
  6
CONTINUOUS
 10
-84.0145637146
 20
0.1020642226
 11
-86.7009155519
 21
0.1020642226
  0
LINE
  5
3EF
100
AcDbEntity
  8
RACCORDO
100
AcDbLine
 62
7
  6
CONTINUOUS
 10
-88.0145637146
 20
0.1020642226
 11
-90.7009155519
 21
0.1020642226
  0
LINE
  5
3F0
100
AcDbEntity
  8
ASSI
100
AcDbLine
 62
7
  6
CONTINUOUS
 10
-88.0145637146
 20
0.1020642226
 11
-90.7009155519
 21
0.1020642226
  0
LINE
  5
3F1
100
AcDbEntity
  8
RACCORDO
100
AcDbLine
 62
7
  6
CONTINUOUS
 10
-92.0145637146
 20
0.1020642226
 11
-176.1577396332
 21
0.1020642226
  0
LINE
  5
3F2
100
AcDbEntity
  8
ASSI
100
AcDbLine
 62
7
  6
CONTINUOUS
 10
-92.0145637146
 20
0.1020642226
 11
-176.1577396332
 21
0.1020642226
  0
LINE
  5
3F3
100
AcDbEntity
  8
0
100
AcDbLine
 62
253
  6
CONTINUOUS
 10
-23.1840037685
 20
0.1120998397
 11
-36.3577396332
 21
0.1116437853
  0
LINE
  5
3F4
100
AcDbEntity
  8
DRAFT
100
AcDbLine
 62
253
  6
CONTINUOUS
 10
-36.5577396332
 20
0.1116437853
 11
-46.7030040389
 21
0.1116437853
  0
LINE
  5
3F5
100
AcDbEntity
  8
ASSI
100
AcDbLine
 62
253
  6
CONTINUOUS
 10
-36.5577396332
 20
0.1116437853
 11
-46.7030040389
 21
0.1116437853
  0
LINE
  5
3F6
100
AcDbEntity
  8
DRAFT
100
AcDbLine
 62
253
  6
CONTINUOUS
 10
-48.0124752275
 20
0.1116437853
 11
-50.7030040389
 21
0.1116437853
  0
LINE
  5
3F7
100
AcDbEntity
  8
ASSI
100
AcDbLine
 62
253
  6
CONTINUOUS
 10
-48.0124752275
 20
0.1116437853
 11
-50.7030040389
 21
0.1116437853
  0
LINE
  5
3F8
100
AcDbEntity
  8
DRAFT
100
AcDbLine
 62
253
  6
CONTINUOUS
 10
-52.0124752275
 20
0.1116437853
 11
-54.7030040389
 21
0.1116437853
  0
LINE
  5
3F9
100
AcDbEntity
  8
ASSI
100
AcDbLine
 62
253
  6
CONTINUOUS
 10
-52.0124752275
 20
0.1116437853
 11
-54.7030040389
 21
0.1116437853
  0
LINE
  5
3FA
100
AcDbEntity
  8
DRAFT
100
AcDbLine
 62
253
  6
CONTINUOUS
 10
-56.0124752275
 20
0.1116437853
 11
-58.7030040389
 21
0.1116437853
  0
LINE
  5
3FB
100
AcDbEntity
  8
ASSI
100
AcDbLine
 62
253
  6
CONTINUOUS
 10
-56.0124752275
 20
0.1116437853
 11
-58.7030040389
 21
0.1116437853
  0
LINE
  5
3FC
100
AcDbEntity
  8
DRAFT
100
AcDbLine
 62
253
  6
CONTINUOUS
 10
-60.0124752275
 20
0.1116437853
 11
-62.7030040389
 21
0.1116437853
  0
LINE
  5
3FD
100
AcDbEntity
  8
ASSI
100
AcDbLine
 62
253
  6
CONTINUOUS
 10
-60.0124752275
 20
0.1116437853
 11
-62.7030040389
 21
0.1116437853
  0
LINE
  5
3FE
100
AcDbEntity
  8
DRAFT
100
AcDbLine
 62
253
  6
CONTINUOUS
 10
-64.0124752275
 20
0.1116437853
 11
-66.7030040389
 21
0.1116437853
  0
LINE
  5
3FF
100
AcDbEntity
  8
ASSI
100
AcDbLine
 62
253
  6
CONTINUOUS
 10
-64.0124752275
 20
0.1116437853
 11
-66.7030040389
 21
0.1116437853
  0
LINE
  5
400
100
AcDbEntity
  8
DRAFT
100
AcDbLine
 62
253
  6
CONTINUOUS
 10
-68.0124752275
 20
0.1116437853
 11
-70.7030040389
 21
0.1116437853
  0
LINE
  5
401
100
AcDbEntity
  8
ASSI
100
AcDbLine
 62
253
  6
CONTINUOUS
 10
-68.0124752275
 20
0.1116437853
 11
-70.7030040389
 21
0.1116437853
  0
LINE
  5
402
100
AcDbEntity
  8
DRAFT
100
AcDbLine
 62
253
  6
CONTINUOUS
 10
-72.0124752275
 20
0.1116437853
 11
-74.7030040389
 21
0.1116437853
  0
LINE
  5
403
100
AcDbEntity
  8
ASSI
100
AcDbLine
 62
253
  6
CONTINUOUS
 10
-72.0124752275
 20
0.1116437853
 11
-74.7030040389
 21
0.1116437853
  0
LINE
  5
404
100
AcDbEntity
  8
DRAFT
100
AcDbLine
 62
253
  6
CONTINUOUS
 10
-76.0124752275
 20
0.1116437853
 11
-78.7030040389
 21
0.1116437853
  0
LINE
  5
405
100
AcDbEntity
  8
ASSI
100
AcDbLine
 62
253
  6
CONTINUOUS
 10
-76.0124752275
 20
0.1116437853
 11
-78.7030040389
 21
0.1116437853
  0
LINE
  5
406
100
AcDbEntity
  8
DRAFT
100
AcDbLine
 62
253
  6
CONTINUOUS
 10
-80.0124752275
 20
0.1116437853
 11
-82.7030040389
 21
0.1116437853
  0
LINE
  5
407
100
AcDbEntity
  8
ASSI
100
AcDbLine
 62
253
  6
CONTINUOUS
 10
-80.0124752275
 20
0.1116437853
 11
-82.7030040389
 21
0.1116437853
  0
LINE
  5
408
100
AcDbEntity
  8
DRAFT
100
AcDbLine
 62
253
  6
CONTINUOUS
 10
-84.0124752275
 20
0.1116437853
 11
-86.7030040389
 21
0.1116437853
  0
LINE
  5
409
100
AcDbEntity
  8
ASSI
100
AcDbLine
 62
253
  6
CONTINUOUS
 10
-84.0124752275
 20
0.1116437853
 11
-86.7030040389
 21
0.1116437853
  0
LINE
  5
40A
100
AcDbEntity
  8
DRAFT
100
AcDbLine
 62
253
  6
CONTINUOUS
 10
-88.0124752275
 20
0.1116437853
 11
-90.7030040389
 21
0.1116437853
  0
LINE
  5
40B
100
AcDbEntity
  8
ASSI
100
AcDbLine
 62
253
  6
CONTINUOUS
 10
-88.0124752275
 20
0.1116437853
 11
-90.7030040389
 21
0.1116437853
  0
LINE
  5
40C
100
AcDbEntity
  8
DRAFT
100
AcDbLine
 62
253
  6
CONTINUOUS
 10
-92.0124752275
 20
0.1116437853
 11
-176.1577396332
 21
0.1116437853
  0
LINE
  5
40D
100
AcDbEntity
  8
ASSI
100
AcDbLine
 62
253
  6
CONTINUOUS
 10
-92.0124752275
 20
0.1116437853
 11
-176.1577396332
 21
0.1116437853
  0
LINE
  5
40E
100
AcDbEntity
  8
ASSI
100
AcDbLine
 62
7
  6
CONTINUOUS
 10
-198.5316378895
 20
1.3097115311
 11
-186.3577396332
 21
1.3097115311
  0
LINE
  5
40F
100
AcDbEntity
  8
0
100
AcDbLine
 62
7
  6
CONTINUOUS
 10
-25.9577396332
 20
1.3097115311
 11
-14.1838413769
 21
1.3097115311
  0
LINE
  5
410
100
AcDbEntity
  8
ASSI
100
AcDbLine
 62
7
  6
CONTINUOUS
 10
-14.1838413769
 20
1.3097115311
 11
-26.3577396332
 21
1.3097115311
  0
LINE
  5
411
100
AcDbEntity
  8
0
100
AcDbLine
 62
7
  6
CONTINUOUS
 10
-186.7577396332
 20
1.3097115311
 11
-198.5316378895
 21
1.3097115311
  0
LINE
  5
412
100
AcDbEntity
  8
RACCORDO
100
AcDbLine
 62
7
  6
CONTINUOUS
 10
-198.536960646
 20
1.5892325264
 11
-14.1785186204
 21
1.5892325264
  0
LINE
  5
413
100
AcDbEntity
  8
ASSI
100
AcDbLine
 62
7
  6
CONTINUOUS
 10
-198.536960646
 20
1.5892325264
 11
-14.1785186204
 21
1.5892325264
  0
LWPOLYLINE
  5
414
100
AcDbEntity
  8
0
100
AcDbPolyline
 62
253
  6
CONTINUOUS
 90
29
 70
0
 10
-176.3577396332
 20
0.1116437853
 10
-189.531475498
 20
0.1120998397
 10
-189.8546512933
 20
0.1134870506
 10
-190.1772670191
 20
0.1158054181
 10
-190.4998418085
 20
0.1190571165
 10
-190.8218565285
 20
0.1232399715
 10
-191.1417537795
 20
0.12834746
 10
-191.4595149811
 20
0.1343863459
 10
-191.7751587139
 20
0.1413498653
 10
-192.0871833198
 20
0.1492112038
 10
-192.3955176891
 20
0.1579746842
 10
-192.7002329315
 20
0.1676359837
 10
-193.0000407188
 20
0.1781553192
 10
-193.2948608932
 20
0.1895339411
 10
-193.5847736124
 20
0.2017705989
 10
-193.8687310213
 20
0.2148217594
 10
-194.1467310056
 20
0.2286907933
 10
-194.4187756796
 20
0.2433743298
 10
-194.6838235316
 20
0.2588187226
 10
-194.9418639977
 20
0.275027886
 10
-195.1929076416
 20
0.2919979057
 10
-195.435944643
 20
0.3096633927
 10
-195.6709398929
 20
0.3280270474
 10
-195.8979285002
 20
0.3470861693
 10
-196.1160059713
 20
0.3667672682
 10
-196.325135672
 20
0.3870727213
 10
-196.5253542364
 20
0.4080001514
 10
-196.7158670736
 20
0.4294689357
 10
-196.8966344452
 20
0.4514808606
  0
LWPOLYLINE
  5
415
100
AcDbEntity
  8
0
100
AcDbPolyline
 62
7
  6
CONTINUOUS
 90
10
 70
0
 10
-198.528247201
 20
1.0997109191
 10
-198.576707399
 20
1.0999807277
 10
-198.6251548625
 20
1.101030813
 10
-198.6735769712
 20
1.1028609288
 10
-198.7219611234
 20
1.1054706549
 10
-198.7702947035
 20
1.1088593086
 10
-198.8185650858
 20
1.1130259467
 10
-198.8667596845
 20
1.1179694826
 10
-198.9148659569
 20
1.1236886849
 10
-198.9628713719
 20
1.1301820905
  0
LWPOLYLINE
  5
416
100
AcDbEntity
  8
RACCORDO
100
AcDbPolyline
 62
7
  6
CONTINUOUS
 90
10
 70
0
 10
-198.5361510603
 20
1.5892325264
 10
-198.5853001438
 20
1.5896422836
 10
-198.6344367303
 20
1.5908512782
 10
-198.6835476293
 20
1.5928592252
 10
-198.7326201555
 20
1.5956656568
 10
-198.7816406331
 20
1.5992698408
 10
-198.8305944062
 20
1.6036706997
 10
-198.8794678394
 20
1.6088669576
 10
-198.9282483158
 20
1.6148572219
 10
-198.9769227458
 20
1.6216398456
  0
LWPOLYLINE
  5
417
100
AcDbEntity
  8
ASSI
100
AcDbPolyline
 62
7
  6
CONTINUOUS
 90
10
 70
0
 10
-198.5361510603
 20
1.5892325264
 10
-198.5853001438
 20
1.5896422836
 10
-198.6344367303
 20
1.5908512782
 10
-198.6835476293
 20
1.5928592252
 10
-198.7326201555
 20
1.5956656568
 10
-198.7816406331
 20
1.5992698408
 10
-198.8305944062
 20
1.6036706997
 10
-198.8794678394
 20
1.6088669576
 10
-198.9282483158
 20
1.6148572219
 10
-198.9769227458
 20
1.6216398456
  0
LINE
  5
418
100
AcDbEntity
  8
RACCORDO
100
AcDbLine
 62
7
  6
CONTINUOUS
 10
-198.5143396313
 20
2.2343160699
 11
-14.2011396352
 21
2.2343160699
  0
LINE
  5
419
100
AcDbEntity
  8
ASSI
100
AcDbLine
 62
7
  6
CONTINUOUS
 10
-198.5143396313
 20
2.2343160699
 11
-14.2011396352
 21
2.2343160699
  0
LINE
  5
41A
100
AcDbEntity
  8
0
100
AcDbLine
 62
7
  6
CONTINUOUS
 10
-14.4782482976
 20
3.3618730344
 11
-198.2372309689
 21
3.3618730344
  0
LINE
  5
41B
100
AcDbEntity
  8
ASSI
100
AcDbLine
 62
7
  6
CONTINUOUS
 10
-14.4782482976
 20
3.3618730344
 11
-198.2372309689
 21
3.3618730344
  0
LINE
  5
41C
100
AcDbEntity
  8
DRAFT
100
AcDbLine
 62
7
  6
CONTINUOUS
 10
-198.2224561471
 20
3.5609253149
 11
-169.9275598929
 21
3.5609253149
  0
LINE
  5
41D
100
AcDbEntity
  8
DRAFT
100
AcDbLine
 62
7
  6
CONTINUOUS
 10
-162.7879193735
 20
3.5609253149
 11
-49.9275598929
 21
3.5609253149
  0
LINE
  5
41E
100
AcDbEntity
  8
DRAFT
100
AcDbLine
 62
7
  6
CONTINUOUS
 10
-42.7879193735
 20
3.5609253149
 11
-14.4930231194
 21
3.5609253149
  0
LINE
  5
41F
100
AcDbEntity
  8
0
100
AcDbLine
 62
7
  6
CONTINUOUS
 10
-49.6077396332
 20
4.8961860425
 11
-43.1077396332
 21
4.8961860425
  0
LINE
  5
420
100
AcDbEntity
  8
ASSI
100
AcDbLine
 62
7
  6
CONTINUOUS
 10
-49.6077396332
 20
4.8961860425
 11
-43.1077396332
 21
4.8961860425
  0
LINE
  5
421
100
AcDbEntity
  8
0
100
AcDbLine
 62
7
  6
CONTINUOUS
 10
-163.1077396332
 20
4.8961860425
 11
-169.6077396332
 21
4.8961860425
  0
LINE
  5
422
100
AcDbEntity
  8
ASSI
100
AcDbLine
 62
7
  6
CONTINUOUS
 10
-163.1077396332
 20
4.8961860425
 11
-169.6077396332
 21
4.8961860425
  0
LINE
  5
423
100
AcDbEntity
  8
DRAFT
100
AcDbLine
 62
7
  6
CONTINUOUS
 10
-169.8577396332
 20
5.2479635027
 11
-162.8577396332
 21
5.2479635027
  0
LINE
  5
424
100
AcDbEntity
  8
DRAFT
100
AcDbLine
 62
7
  6
CONTINUOUS
 10
-42.8577396332
 20
5.2479635027
 11
-49.8577396332
 21
5.2479635027
  0
LINE
  5
425
100
AcDbEntity
  8
DRAFT
100
AcDbLine
 62
7
  6
CONTINUOUS
 10
-42.7879193735
 20
5.706394888
 11
-49.9275598929
 21
5.706394888
  0
LINE
  5
426
100
AcDbEntity
  8
DRAFT
100
AcDbLine
 62
7
  6
CONTINUOUS
 10
-162.7879193735
 20
5.706394888
 11
-169.9275598929
 21
5.706394888
  0
LINE
  5
427
100
AcDbEntity
  8
RACCORDO
100
AcDbLine
 62
7
  6
CONTINUOUS
 10
0.4933313294
 20
6.6979644748
 11
0.2883076366
 21
6.6979644748
  0
LINE
  5
428
100
AcDbEntity
  8
ASSI
100
AcDbLine
 62
7
  6
CONTINUOUS
 10
0.4933313294
 20
6.6979644748
 11
0.2883076366
 21
6.6979644748
  0
LINE
  5
429
100
AcDbEntity
  8
RACCORDO
100
AcDbLine
 62
7
  6
CONTINUOUS
 10
-213.0037869031
 20
6.6979644748
 11
-213.2088105959
 21
6.6979644748
  0
LINE
  5
42A
100
AcDbEntity
  8
ASSI
100
AcDbLine
 62
7
  6
CONTINUOUS
 10
-213.0037869031
 20
6.6979644748
 11
-213.2088105959
 21
6.6979644748
  0
LINE
  5
42B
100
AcDbEntity
  8
RACCORDO
100
AcDbLine
 62
7
  6
CONTINUOUS
 10
0.497622376
 20
6.7951999687
 11
0.2978810071
 21
6.7951999687
  0
LINE
  5
42C
100
AcDbEntity
  8
ASSI
100
AcDbLine
 62
7
  6
CONTINUOUS
 10
0.497622376
 20
6.7951999687
 11
0.2978810071
 21
6.7951999687
  0
LINE
  5
42D
100
AcDbEntity
  8
RACCORDO
100
AcDbLine
 62
7
  6
CONTINUOUS
 10
-213.0133602735
 20
6.7951999687
 11
-213.2131016425
 21
6.7951999687
  0
LINE
  5
42E
100
AcDbEntity
  8
ASSI
100
AcDbLine
 62
7
  6
CONTINUOUS
 10
-213.0133602735
 20
6.7951999687
 11
-213.2131016425
 21
6.7951999687
  0
LINE
  5
42F
100
AcDbEntity
  8
0
100
AcDbLine
 62
253
  6
CONTINUOUS
 10
-213.178475426
 20
56.5540036853
 11
-213.0480865683
 21
56.4837322459
  0
LINE
  5
430
100
AcDbEntity
  8
RACCORDO
100
AcDbLine
 62
253
  6
CONTINUOUS
 10
-213.2131016425
 20
56.5726650503
 11
-213.178475426
 21
56.5540036853
  0
LINE
  5
431
100
AcDbEntity
  8
ASSI
100
AcDbLine
 62
253
  6
CONTINUOUS
 10
-213.2131016425
 20
56.5726650503
 11
-213.178475426
 21
56.5540036853
  0
LWPOLYLINE
  5
432
100
AcDbEntity
  8
ASSI
100
AcDbPolyline
 62
7
  6
CONTINUOUS
 90
31
 70
0
 10
-5.1577396332
 20
8.622689685
 10
-5.2628852623
 20
8.6254796932
 10
-5.3671749057
 20
8.6336485728
 10
-5.4706085633
 20
8.6471963238
 10
-5.5734645381
 20
8.6661894443
 10
-5.6754645271
 20
8.6905614361
 10
-5.775773622
 20
8.7201128054
 10
-5.8743779441
 20
8.7548860634
 10
-5.9712913721
 20
8.7948386987
 10
-6.0657206327
 20
8.8396436841
 10
-6.1576453366
 20
8.8893408465
 10
-6.2470858732
 20
8.9438903589
 10
-6.3333101378
 20
9.002845713
 10
-6.4162917321
 20
9.0662430707
 10
-6.4960570545
 20
9.1340462701
 10
-6.5719531956
 20
9.2057003163
 10
-6.6439483981
 20
9.2812368161
 10
-6.7120744193
 20
9.3606241627
 10
-6.775773622
 20
9.4432125406
 10
-6.8350096718
 20
9.5290282232
 10
-6.8898189031
 20
9.618044937
 10
-6.9397526816
 20
9.7095340467
 10
-6.9847709907
 20
9.8035158451
 10
-7.0249138469
 20
9.8999700392
 10
-7.0598526658
 20
9.9981071152
 10
-7.0895447339
 20
10.0979408855
 10
-7.1140327647
 20
10.1994575377
 10
-7.1331163144
 20
10.3018261194
 10
-7.1467510243
 20
10.405053623
 10
-7.1549812531
 20
10.5091330562
 10
-7.1577396332
 20
10.6132124894
  0
LWPOLYLINE
  5
433
100
AcDbEntity
  8
ASSI
100
AcDbPolyline
 62
7
  6
CONTINUOUS
 90
30
 70
0
 10
-5.1577396332
 20
12.4578820529
 10
-5.0525940042
 20
12.4550920448
 10
-4.9483043608
 20
12.4469231652
 10
-4.8448707032
 20
12.4333754141
 10
-4.7420147284
 20
12.4143822937
 10
-4.6400147393
 20
12.3900103018
 10
-4.5397056445
 20
12.3604589325
 10
-4.4411013223
 20
12.3256856746
 10
-4.3441878944
 20
12.2857330392
 10
-4.2497586338
 20
12.2409280538
 10
-4.1578339299
 20
12.1912308914
 10
-4.0683933933
 20
12.136681379
 10
-3.9821691286
 20
12.077726025
 10
-3.8991875343
 20
12.0143286672
 10
-3.819422212
 20
11.9465254678
 10
-3.7435260709
 20
11.8748714216
 10
-3.6715308684
 20
11.7993349218
 10
-3.6034048472
 20
11.7199475752
 10
-3.5397056445
 20
11.6373591973
 10
-3.4804695946
 20
11.5515435148
 10
-3.4256603633
 20
11.4625268009
 10
-3.3757265849
 20
11.3710376912
 10
-3.3307082758
 20
11.2770558929
 10
-3.2905654196
 20
11.1806016987
 10
-3.2556266006
 20
11.0824646228
 10
-3.2259345326
 20
10.9826308524
 10
-3.2014465018
 20
10.8811142003
 10
-3.182362952
 20
10.7787456186
 10
-3.1687282422
 20
10.6755181149
 10
-3.1604980134
 20
10.5714386817
  0
LWPOLYLINE
  5
434
100
AcDbEntity
  8
ASSI
100
AcDbPolyline
 62
7
  6
CONTINUOUS
 90
31
 70
0
 10
-5.1577396332
 20
12.6037352938
 10
-5.0525940042
 20
12.6009452857
 10
-4.9483043608
 20
12.592776406
 10
-4.8448707032
 20
12.579228655
 10
-4.7420147284
 20
12.5602355346
 10
-4.6400147393
 20
12.5358635427
 10
-4.5397056445
 20
12.5063121734
 10
-4.4411013223
 20
12.4715389155
 10
-4.3441878944
 20
12.4315862801
 10
-4.2497586338
 20
12.3867812947
 10
-4.1578339299
 20
12.3370841323
 10
-4.0683933933
 20
12.2825346199
 10
-3.9821691286
 20
12.2235792659
 10
-3.8991875343
 20
12.1601819081
 10
-3.819422212
 20
12.0923787087
 10
-3.7435260709
 20
12.0207246625
 10
-3.6715308684
 20
11.9451881627
 10
-3.6034048472
 20
11.8658008161
 10
-3.5397056445
 20
11.7832124382
 10
-3.4804695946
 20
11.6973967557
 10
-3.4256603633
 20
11.6083800418
 10
-3.3757265849
 20
11.5168909321
 10
-3.3307082758
 20
11.4229091338
 10
-3.2905654196
 20
11.3264549396
 10
-3.2556266006
 20
11.2283178637
 10
-3.2259345326
 20
11.1284840933
 10
-3.2014465018
 20
11.0269674411
 10
-3.182362952
 20
10.9245988595
 10
-3.1687282422
 20
10.8213713558
 10
-3.1604980134
 20
10.7172919226
 10
-3.1577396332
 20
10.6132124894
  0
LINE
  5
435
100
AcDbEntity
  8
RACCORDO
100
AcDbLine
 62
7
  6
CONTINUOUS
 10
1.1270567326
 20
28.4421354667
 11
0.927057513
 21
28.4421354667
  0
LINE
  5
436
100
AcDbEntity
  8
ASSI
100
AcDbLine
 62
7
  6
CONTINUOUS
 10
1.1270567326
 20
28.4421354667
 11
0.927057513
 21
28.4421354667
  0
LINE
  5
437
100
AcDbEntity
  8
RACCORDO
100
AcDbLine
 62
7
  6
CONTINUOUS
 10
0.9324417325
 20
34.316468386
 11
1.1332332038
 21
34.316468386
  0
LINE
  5
438
100
AcDbEntity
  8
ASSI
100
AcDbLine
 62
7
  6
CONTINUOUS
 10
0.9324417325
 20
34.316468386
 11
1.1332332038
 21
34.316468386
  0
LINE
  5
439
100
AcDbEntity
  8
RACCORDO
100
AcDbLine
 62
7
  6
CONTINUOUS
 10
0.9320275618
 20
34.4137038799
 11
1.1332332038
 21
34.4137038799
  0
LINE
  5
43A
100
AcDbEntity
  8
ASSI
100
AcDbLine
 62
7
  6
CONTINUOUS
 10
0.9320275618
 20
34.4137038799
 11
1.1332332038
 21
34.4137038799
  0
LWPOLYLINE
  5
43B
100
AcDbEntity
  8
0
100
AcDbPolyline
 62
253
  6
CONTINUOUS
 90
7
 70
0
 10
-208.6286291807
 20
54.9441783547
 10
-208.2909976111
 20
54.891763936
 10
-207.8725331954
 20
54.8313209381
 10
-207.4338540731
 20
54.7722537979
 10
-206.975400354
 20
54.7146215835
 10
-206.4976436482
 20
54.6584841767
 10
-206.0886396209
 20
54.6135255139
  0
LINE
  5
43C
100
AcDbEntity
  8
RACCORDO
100
AcDbLine
 62
7
  6
CONTINUOUS
 10
-90.7030040389
 20
0.1116437853
 11
-90.8029400387
 21
1.0261990512
  0
LINE
  5
43D
100
AcDbEntity
  8
ASSI
100
AcDbLine
 62
7
  6
CONTINUOUS
 10
-90.7030040389
 20
0.1116437853
 11
-90.8029400387
 21
1.0261990512
  0
LINE
  5
43E
100
AcDbEntity
  8
RACCORDO
100
AcDbLine
 62
7
  6
CONTINUOUS
 10
-86.7030040389
 20
0.1116437853
 11
-86.8029400387
 21
1.0261990512
  0
LINE
  5
43F
100
AcDbEntity
  8
ASSI
100
AcDbLine
 62
7
  6
CONTINUOUS
 10
-86.7030040389
 20
0.1116437853
 11
-86.8029400387
 21
1.0261990512
  0
LINE
  5
440
100
AcDbEntity
  8
RACCORDO
100
AcDbLine
 62
7
  6
CONTINUOUS
 10
-82.7030040389
 20
0.1116437853
 11
-82.8029400387
 21
1.0261990512
  0
LINE
  5
441
100
AcDbEntity
  8
ASSI
100
AcDbLine
 62
7
  6
CONTINUOUS
 10
-82.7030040389
 20
0.1116437853
 11
-82.8029400387
 21
1.0261990512
  0
LINE
  5
442
100
AcDbEntity
  8
RACCORDO
100
AcDbLine
 62
7
  6
CONTINUOUS
 10
-92.0124752275
 20
0.1116437853
 11
-91.9125392278
 21
1.0261990512
  0
LINE
  5
443
100
AcDbEntity
  8
ASSI
100
AcDbLine
 62
7
  6
CONTINUOUS
 10
-92.0124752275
 20
0.1116437853
 11
-91.9125392278
 21
1.0261990512
  0
LINE
  5
444
100
AcDbEntity
  8
RACCORDO
100
AcDbLine
 62
7
  6
CONTINUOUS
 10
-88.0124752275
 20
0.1116437853
 11
-87.9125392278
 21
1.0261990512
  0
LINE
  5
445
100
AcDbEntity
  8
ASSI
100
AcDbLine
 62
7
  6
CONTINUOUS
 10
-88.0124752275
 20
0.1116437853
 11
-87.9125392278
 21
1.0261990512
  0
LINE
  5
446
100
AcDbEntity
  8
RACCORDO
100
AcDbLine
 62
7
  6
CONTINUOUS
 10
-78.7030040389
 20
0.1116437853
 11
-78.8029400387
 21
1.0261990512
  0
LINE
  5
447
100
AcDbEntity
  8
ASSI
100
AcDbLine
 62
7
  6
CONTINUOUS
 10
-78.7030040389
 20
0.1116437853
 11
-78.8029400387
 21
1.0261990512
  0
LINE
  5
448
100
AcDbEntity
  8
RACCORDO
100
AcDbLine
 62
7
  6
CONTINUOUS
 10
-74.7030040389
 20
0.1116437853
 11
-74.8029400387
 21
1.0261990512
  0
LINE
  5
449
100
AcDbEntity
  8
ASSI
100
AcDbLine
 62
7
  6
CONTINUOUS
 10
-74.7030040389
 20
0.1116437853
 11
-74.8029400387
 21
1.0261990512
  0
LINE
  5
44A
100
AcDbEntity
  8
RACCORDO
100
AcDbLine
 62
7
  6
CONTINUOUS
 10
-84.0124752275
 20
0.1116437853
 11
-83.9125392278
 21
1.0261990512
  0
LINE
  5
44B
100
AcDbEntity
  8
ASSI
100
AcDbLine
 62
7
  6
CONTINUOUS
 10
-84.0124752275
 20
0.1116437853
 11
-83.9125392278
 21
1.0261990512
  0
LINE
  5
44C
100
AcDbEntity
  8
RACCORDO
100
AcDbLine
 62
7
  6
CONTINUOUS
 10
-80.0124752275
 20
0.1116437853
 11
-79.9125392278
 21
1.0261990512
  0
LINE
  5
44D
100
AcDbEntity
  8
ASSI
100
AcDbLine
 62
7
  6
CONTINUOUS
 10
-80.0124752275
 20
0.1116437853
 11
-79.9125392278
 21
1.0261990512
  0
LINE
  5
44E
100
AcDbEntity
  8
0
100
AcDbLine
 62
253
  6
CONTINUOUS
 10
0.4629961595
 20
56.5540036853
 11
0.3326073018
 21
56.4837322459
  0
LINE
  5
44F
100
AcDbEntity
  8
RACCORDO
100
AcDbLine
 62
253
  6
CONTINUOUS
 10
0.4629961595
 20
56.5540036853
 11
0.497622376
 21
56.5726650503
  0
LINE
  5
450
100
AcDbEntity
  8
ASSI
100
AcDbLine
 62
253
  6
CONTINUOUS
 10
0.4629961595
 20
56.5540036853
 11
0.497622376
 21
56.5726650503
  0
LINE
  5
451
100
AcDbEntity
  8
RACCORDO
100
AcDbLine
 62
7
  6
CONTINUOUS
 10
-213.2429548184
 20
56.0606393779
 11
-213.0679197803
 21
56.0606393779
  0
LINE
  5
452
100
AcDbEntity
  8
ASSI
100
AcDbLine
 62
7
  6
CONTINUOUS
 10
-213.2429548184
 20
56.0606393779
 11
-213.0679197803
 21
56.0606393779
  0
LINE
  5
453
100
AcDbEntity
  8
RACCORDO
100
AcDbLine
 62
7
  6
CONTINUOUS
 10
0.3524405138
 20
56.0606393779
 11
0.527475552
 21
56.0606393779
  0
LINE
  5
454
100
AcDbEntity
  8
ASSI
100
AcDbLine
 62
7
  6
CONTINUOUS
 10
0.3524405138
 20
56.0606393779
 11
0.527475552
 21
56.0606393779
  0
LINE
  5
455
100
AcDbEntity
  8
DRAFT
100
AcDbLine
 62
7
  6
CONTINUOUS
 10
-169.9275598929
 20
58.3162703857
 11
-162.7879193735
 21
58.3162703857
  0
LINE
  5
456
100
AcDbEntity
  8
DRAFT
100
AcDbLine
 62
7
  6
CONTINUOUS
 10
-49.9275598929
 20
58.3162703857
 11
-42.7879193735
 21
58.3162703857
  0
LINE
  5
457
100
AcDbEntity
  8
0
100
AcDbLine
 62
7
  6
CONTINUOUS
 10
-49.6077396332
 20
58.5138956195
 11
-43.1077396332
 21
58.5138956195
  0
LINE
  5
458
100
AcDbEntity
  8
ASSI
100
AcDbLine
 62
7
  6
CONTINUOUS
 10
-49.6077396332
 20
58.5138956195
 11
-43.1077396332
 21
58.5138956195
  0
LINE
  5
459
100
AcDbEntity
  8
0
100
AcDbLine
 62
7
  6
CONTINUOUS
 10
-163.1077396332
 20
58.5138956195
 11
-169.6077396332
 21
58.5138956195
  0
LINE
  5
45A
100
AcDbEntity
  8
ASSI
100
AcDbLine
 62
7
  6
CONTINUOUS
 10
-163.1077396332
 20
58.5138956195
 11
-169.6077396332
 21
58.5138956195
  0
LINE
  5
45B
100
AcDbEntity
  8
0
100
AcDbLine
 62
7
  6
CONTINUOUS
 10
-49.6077396332
 20
58.6403017616
 11
-43.1077396332
 21
58.6403017616
  0
LINE
  5
45C
100
AcDbEntity
  8
ASSI
100
AcDbLine
 62
7
  6
CONTINUOUS
 10
-49.6077396332
 20
58.6403017616
 11
-43.1077396332
 21
58.6403017616
  0
LINE
  5
45D
100
AcDbEntity
  8
0
100
AcDbLine
 62
7
  6
CONTINUOUS
 10
-163.1077396332
 20
58.6403017616
 11
-169.6077396332
 21
58.6403017616
  0
LINE
  5
45E
100
AcDbEntity
  8
ASSI
100
AcDbLine
 62
7
  6
CONTINUOUS
 10
-163.1077396332
 20
58.6403017616
 11
-169.6077396332
 21
58.6403017616
  0
LINE
  5
45F
100
AcDbEntity
  8
DRAFT
100
AcDbLine
 62
7
  6
CONTINUOUS
 10
-42.8577396332
 20
60.0033085736
 11
-43.1077396332
 21
60.0033085736
  0
LINE
  5
460
100
AcDbEntity
  8
DRAFT
100
AcDbLine
 62
7
  6
CONTINUOUS
 10
-49.6077396332
 20
60.0033085736
 11
-49.8577396332
 21
60.0033085736
  0
LINE
  5
461
100
AcDbEntity
  8
DRAFT
100
AcDbLine
 62
7
  6
CONTINUOUS
 10
-162.8577396332
 20
60.0033085736
 11
-163.1077396332
 21
60.0033085736
  0
LINE
  5
462
100
AcDbEntity
  8
DRAFT
100
AcDbLine
 62
7
  6
CONTINUOUS
 10
-169.6077396332
 20
60.0033085736
 11
-169.8577396332
 21
60.0033085736
  0
LINE
  5
463
100
AcDbEntity
  8
DRAFT
100
AcDbLine
 62
7
  6
CONTINUOUS
 10
-14.4930231194
 20
60.4617399588
 11
-42.7879193735
 21
60.4617399588
  0
LINE
  5
464
100
AcDbEntity
  8
DRAFT
100
AcDbLine
 62
7
  6
CONTINUOUS
 10
-49.9275598929
 20
60.4617399588
 11
-162.7879193735
 21
60.4617399588
  0
LINE
  5
465
100
AcDbEntity
  8
DRAFT
100
AcDbLine
 62
7
  6
CONTINUOUS
 10
-169.9275598929
 20
60.4617399588
 11
-198.2224561471
 21
60.4617399588
  0
LINE
  5
466
100
AcDbEntity
  8
0
100
AcDbLine
 62
7
  6
CONTINUOUS
 10
-14.4782482976
 20
60.6607922393
 11
-198.2372309689
 21
60.6607922393
  0
LINE
  5
467
100
AcDbEntity
  8
ASSI
100
AcDbLine
 62
7
  6
CONTINUOUS
 10
-14.4782482976
 20
60.6607922393
 11
-198.2372309689
 21
60.6607922393
  0
LINE
  5
468
100
AcDbEntity
  8
RACCORDO
100
AcDbLine
 62
7
  6
CONTINUOUS
 10
-198.5143396313
 20
61.7883492038
 11
-14.2011396352
 21
61.7883492038
  0
LINE
  5
469
100
AcDbEntity
  8
ASSI
100
AcDbLine
 62
7
  6
CONTINUOUS
 10
-198.5143396313
 20
61.7883492038
 11
-14.2011396352
 21
61.7883492038
  0
LINE
  5
46A
100
AcDbEntity
  8
RACCORDO
100
AcDbLine
 62
7
  6
CONTINUOUS
 10
-70.7030040389
 20
0.1116437853
 11
-70.8029400387
 21
1.0261990512
  0
LINE
  5
46B
100
AcDbEntity
  8
ASSI
100
AcDbLine
 62
7
  6
CONTINUOUS
 10
-70.7030040389
 20
0.1116437853
 11
-70.8029400387
 21
1.0261990512
  0
LINE
  5
46C
100
AcDbEntity
  8
RACCORDO
100
AcDbLine
 62
7
  6
CONTINUOUS
 10
-66.7030040389
 20
0.1116437853
 11
-66.8029400387
 21
1.0261990512
  0
LINE
  5
46D
100
AcDbEntity
  8
ASSI
100
AcDbLine
 62
7
  6
CONTINUOUS
 10
-66.7030040389
 20
0.1116437853
 11
-66.8029400387
 21
1.0261990512
  0
LINE
  5
46E
100
AcDbEntity
  8
RACCORDO
100
AcDbLine
 62
7
  6
CONTINUOUS
 10
-76.0124752275
 20
0.1116437853
 11
-75.9125392278
 21
1.0261990512
  0
LINE
  5
46F
100
AcDbEntity
  8
ASSI
100
AcDbLine
 62
7
  6
CONTINUOUS
 10
-76.0124752275
 20
0.1116437853
 11
-75.9125392278
 21
1.0261990512
  0
LINE
  5
470
100
AcDbEntity
  8
RACCORDO
100
AcDbLine
 62
7
  6
CONTINUOUS
 10
-72.0124752275
 20
0.1116437853
 11
-71.9125392278
 21
1.0261990512
  0
LINE
  5
471
100
AcDbEntity
  8
ASSI
100
AcDbLine
 62
7
  6
CONTINUOUS
 10
-72.0124752275
 20
0.1116437853
 11
-71.9125392278
 21
1.0261990512
  0
LINE
  5
472
100
AcDbEntity
  8
RACCORDO
100
AcDbLine
 62
7
  6
CONTINUOUS
 10
-62.7030040389
 20
0.1116437853
 11
-62.8029400387
 21
1.0261990512
  0
LINE
  5
473
100
AcDbEntity
  8
ASSI
100
AcDbLine
 62
7
  6
CONTINUOUS
 10
-62.7030040389
 20
0.1116437853
 11
-62.8029400387
 21
1.0261990512
  0
LINE
  5
474
100
AcDbEntity
  8
RACCORDO
100
AcDbLine
 62
7
  6
CONTINUOUS
 10
-58.7030040389
 20
0.1116437853
 11
-58.8029400387
 21
1.0261990512
  0
LINE
  5
475
100
AcDbEntity
  8
ASSI
100
AcDbLine
 62
7
  6
CONTINUOUS
 10
-58.7030040389
 20
0.1116437853
 11
-58.8029400387
 21
1.0261990512
  0
LINE
  5
476
100
AcDbEntity
  8
RACCORDO
100
AcDbLine
 62
7
  6
CONTINUOUS
 10
-68.0124752275
 20
0.1116437853
 11
-67.9125392278
 21
1.0261990512
  0
LINE
  5
477
100
AcDbEntity
  8
ASSI
100
AcDbLine
 62
7
  6
CONTINUOUS
 10
-68.0124752275
 20
0.1116437853
 11
-67.9125392278
 21
1.0261990512
  0
LINE
  5
478
100
AcDbEntity
  8
RACCORDO
100
AcDbLine
 62
7
  6
CONTINUOUS
 10
-64.0124752275
 20
0.1116437853
 11
-63.9125392278
 21
1.0261990512
  0
LINE
  5
479
100
AcDbEntity
  8
ASSI
100
AcDbLine
 62
7
  6
CONTINUOUS
 10
-64.0124752275
 20
0.1116437853
 11
-63.9125392278
 21
1.0261990512
  0
LWPOLYLINE
  5
47A
100
AcDbEntity
  8
RACCORDO
100
AcDbPolyline
 62
7
  6
CONTINUOUS
 90
4
 70
0
 10
-211.8720049568
 20
59.8459948718
 10
-212.0068077579
 20
59.8229694748
 10
-212.1401249272
 20
59.7938908354
 10
-212.1833946478
 20
59.7830694692
  0
LWPOLYLINE
  5
47B
100
AcDbEntity
  8
ASSI
100
AcDbPolyline
 62
7
  6
CONTINUOUS
 90
4
 70
0
 10
-211.8720049568
 20
59.8459948718
 10
-212.0068077579
 20
59.8229694748
 10
-212.1401249272
 20
59.7938908354
 10
-212.1833946478
 20
59.7830694692
  0
LINE
  5
47C
100
AcDbEntity
  8
DRAFT
100
AcDbLine
 62
7
  6
CONTINUOUS
 10
-198.2224561471
 20
60.4617399588
 11
-211.9060715342
 21
58.4385490033
  0
LINE
  5
47D
100
AcDbEntity
  8
RACCORDO
100
AcDbLine
 62
7
  6
CONTINUOUS
 10
-198.2372309689
 20
60.6607922393
 11
-211.9354607893
 21
58.6354404667
  0
LINE
  5
47E
100
AcDbEntity
  8
ASSI
100
AcDbLine
 62
7
  6
CONTINUOUS
 10
-198.2372309689
 20
60.6607922393
 11
-211.9354607893
 21
58.6354404667
  0
LINE
  5
47F
100
AcDbEntity
  8
RACCORDO
100
AcDbLine
 62
7
  6
CONTINUOUS
 10
-198.9535009338
 20
61.7560602865
 11
-211.8720049568
 21
59.8459948718
  0
LINE
  5
480
100
AcDbEntity
  8
ASSI
100
AcDbLine
 62
7
  6
CONTINUOUS
 10
-198.9535009338
 20
61.7560602865
 11
-211.8720049568
 21
59.8459948718
  0
LINE
  5
481
100
AcDbEntity
  8
DRAFT
100
AcDbLine
 62
7
  6
CONTINUOUS
 10
-0.8094077323
 20
58.4385490033
 11
-14.4930231194
 21
60.4617399588
  0
LINE
  5
482
100
AcDbEntity
  8
RACCORDO
100
AcDbLine
 62
7
  6
CONTINUOUS
 10
-14.4782482976
 20
60.6607922393
 11
-0.7800184771
 21
58.6354404667
  0
LINE
  5
483
100
AcDbEntity
  8
ASSI
100
AcDbLine
 62
7
  6
CONTINUOUS
 10
-14.4782482976
 20
60.6607922393
 11
-0.7800184771
 21
58.6354404667
  0
LINE
  5
484
100
AcDbEntity
  8
RACCORDO
100
AcDbLine
 62
7
  6
CONTINUOUS
 10
-0.8434743097
 20
59.8459948718
 11
-13.7619783326
 21
61.7560602865
  0
LINE
  5
485
100
AcDbEntity
  8
ASSI
100
AcDbLine
 62
7
  6
CONTINUOUS
 10
-0.8434743097
 20
59.8459948718
 11
-13.7619783326
 21
61.7560602865
  0
LWPOLYLINE
  5
486
100
AcDbEntity
  8
DRAFT
100
AcDbPolyline
 62
7
  6
CONTINUOUS
 90
25
 70
0
 10
-0.8094077323
 20
58.4385490033
 10
-0.7358382384
 20
58.4254752152
 10
-0.6635988933
 20
58.4083936741
 10
-0.5926896968
 20
58.3873043801
 10
-0.5228880088
 20
58.362112388
 10
-0.4544164694
 20
58.3329126429
 10
-0.3879429996
 20
58.2999899803
 10
-0.3234871537
 20
58.2633079657
 10
-0.2610293773
 20
58.2229030336
 10
-0.201178929
 20
58.1791693229
 10
-0.1439613253
 20
58.1320742563
 10
-0.0893510496
 20
58.0816504112
 10
-0.0378808099
 20
58.0283896582
 10
0.0104186635
 20
57.9722642337
 10
0.0555781009
 20
57.9133019013
 10
0.0971569844
 20
57.8520778222
 10
0.1351202726
 20
57.7885698617
 10
0.169503007
 20
57.7228001546
 10
0.1999697935
 20
57.6554102661
 10
0.2264823083
 20
57.5863843402
 10
0.2490788752
 20
57.515738233
 10
0.2675390708
 20
57.4441610776
 10
0.2817894208
 20
57.3718825852
 10
0.2919033996
 20
57.2986730446
 10
0.2978810071
 20
57.2245324558
  0
LWPOLYLINE
  5
487
100
AcDbEntity
  8
RACCORDO
100
AcDbPolyline
 62
7
  6
CONTINUOUS
 90
25
 70
0
 10
-0.7800184771
 20
58.6354404667
 10
-0.6951305996
 20
58.6203553266
 10
-0.6117775091
 20
58.6006458561
 10
-0.5299592054
 20
58.5763120553
 10
-0.4494187961
 20
58.5472443721
 10
-0.3704131738
 20
58.5135523586
 10
-0.2937130163
 20
58.475564671
 10
-0.2193408864
 20
58.4332392695
 10
-0.1472742214
 20
58.3866181939
 10
-0.0782160118
 20
58.33615622
 10
-0.0121956998
 20
58.2818157587
 10
0.0508161568
 20
58.2236343989
 10
0.1102048948
 20
58.1621796838
 10
0.1659350565
 20
58.0974195787
 10
0.2180420996
 20
58.0293861182
 10
0.2660177344
 20
57.95874295
 10
0.3098215286
 20
57.8854645341
 10
0.3494939144
 20
57.8095764105
 10
0.3846478987
 20
57.7318188468
 10
0.415239262
 20
57.6521735477
 10
0.4413122238
 20
57.5706588086
 10
0.4626124495
 20
57.4880697832
 10
0.479055161
 20
57.4046715227
 10
0.4907251365
 20
57.3201989759
 10
0.497622376
 20
57.2346521427
  0
LWPOLYLINE
  5
488
100
AcDbEntity
  8
ASSI
100
AcDbPolyline
 62
7
  6
CONTINUOUS
 90
25
 70
0
 10
-0.7800184771
 20
58.6354404667
 10
-0.6951305996
 20
58.6203553266
 10
-0.6117775091
 20
58.6006458561
 10
-0.5299592054
 20
58.5763120553
 10
-0.4494187961
 20
58.5472443721
 10
-0.3704131738
 20
58.5135523586
 10
-0.2937130163
 20
58.475564671
 10
-0.2193408864
 20
58.4332392695
 10
-0.1472742214
 20
58.3866181939
 10
-0.0782160118
 20
58.33615622
 10
-0.0121956998
 20
58.2818157587
 10
0.0508161568
 20
58.2236343989
 10
0.1102048948
 20
58.1621796838
 10
0.1659350565
 20
58.0974195787
 10
0.2180420996
 20
58.0293861182
 10
0.2660177344
 20
57.95874295
 10
0.3098215286
 20
57.8854645341
 10
0.3494939144
 20
57.8095764105
 10
0.3846478987
 20
57.7318188468
 10
0.415239262
 20
57.6521735477
 10
0.4413122238
 20
57.5706588086
 10
0.4626124495
 20
57.4880697832
 10
0.479055161
 20
57.4046715227
 10
0.4907251365
 20
57.3201989759
 10
0.497622376
 20
57.2346521427
  0
LINE
  5
489
100
AcDbEntity
  8
RACCORDO
100
AcDbLine
 62
7
  6
CONTINUOUS
 10
-54.7030040389
 20
0.1116437853
 11
-54.8029400387
 21
1.0261990512
  0
LINE
  5
48A
100
AcDbEntity
  8
ASSI
100
AcDbLine
 62
7
  6
CONTINUOUS
 10
-54.7030040389
 20
0.1116437853
 11
-54.8029400387
 21
1.0261990512
  0
LINE
  5
48B
100
AcDbEntity
  8
RACCORDO
100
AcDbLine
 62
7
  6
CONTINUOUS
 10
-50.7030040389
 20
0.1116437853
 11
-50.8029400387
 21
1.0261990512
  0
LINE
  5
48C
100
AcDbEntity
  8
ASSI
100
AcDbLine
 62
7
  6
CONTINUOUS
 10
-50.7030040389
 20
0.1116437853
 11
-50.8029400387
 21
1.0261990512
  0
LINE
  5
48D
100
AcDbEntity
  8
RACCORDO
100
AcDbLine
 62
7
  6
CONTINUOUS
 10
-60.0124752275
 20
0.1116437853
 11
-59.9125392278
 21
1.0261990512
  0
LINE
  5
48E
100
AcDbEntity
  8
ASSI
100
AcDbLine
 62
7
  6
CONTINUOUS
 10
-60.0124752275
 20
0.1116437853
 11
-59.9125392278
 21
1.0261990512
  0
LINE
  5
48F
100
AcDbEntity
  8
RACCORDO
100
AcDbLine
 62
7
  6
CONTINUOUS
 10
-56.0124752275
 20
0.1116437853
 11
-55.9125392278
 21
1.0261990512
  0
LINE
  5
490
100
AcDbEntity
  8
ASSI
100
AcDbLine
 62
7
  6
CONTINUOUS
 10
-56.0124752275
 20
0.1116437853
 11
-55.9125392278
 21
1.0261990512
  0
LINE
  5
491
100
AcDbEntity
  8
RACCORDO
100
AcDbLine
 62
253
  6
CONTINUOUS
 10
-214.417636543
 20
57.0536351715
 11
-214.710672878
 21
56.9795776177
  0
LINE
  5
492
100
AcDbEntity
  8
ASSI
100
AcDbLine
 62
253
  6
CONTINUOUS
 10
-214.417636543
 20
57.0536351715
 11
-214.710672878
 21
56.9795776177
  0
LWPOLYLINE
  5
493
100
AcDbEntity
  8
RACCORDO
100
AcDbPolyline
 62
7
  6
CONTINUOUS
 90
4
 70
0
 10
-0.5320846187
 20
59.7830694692
 10
-0.5753543393
 20
59.7938908354
 10
-0.7086715086
 20
59.8229694748
 10
-0.8434743097
 20
59.8459948718
  0
LWPOLYLINE
  5
494
100
AcDbEntity
  8
ASSI
100
AcDbPolyline
 62
7
  6
CONTINUOUS
 90
4
 70
0
 10
-0.5320846187
 20
59.7830694692
 10
-0.5753543393
 20
59.7938908354
 10
-0.7086715086
 20
59.8229694748
 10
-0.8434743097
 20
59.8459948718
  0
LINE
  5
495
100
AcDbEntity
  8
RACCORDO
100
AcDbLine
 62
253
  6
CONTINUOUS
 10
1.9650352273
 20
56.9872003782
 11
1.7021572765
 21
57.0536351715
  0
LINE
  5
496
100
AcDbEntity
  8
ASSI
100
AcDbLine
 62
253
  6
CONTINUOUS
 10
1.9650352273
 20
56.9872003782
 11
1.7021572765
 21
57.0536351715
  0
LINE
  5
497
100
AcDbEntity
  8
RACCORDO
100
AcDbLine
 62
253
  6
CONTINUOUS
 10
1.9951936116
 20
56.9795776177
 11
1.9650352273
 21
56.9872003782
  0
LINE
  5
498
100
AcDbEntity
  8
ASSI
100
AcDbLine
 62
253
  6
CONTINUOUS
 10
1.9951936116
 20
56.9795776177
 11
1.9650352273
 21
56.9872003782
  0
LINE
  5
499
100
AcDbEntity
  8
DRAFT
100
AcDbLine
 62
7
  6
CONTINUOUS
 10
-49.9275598929
 20
3.5609253149
 11
-49.8840545861
 21
3.3618730344
  0
LINE
  5
49A
100
AcDbEntity
  8
DRAFT
100
AcDbLine
 62
7
  6
CONTINUOUS
 10
-49.8577396332
 20
5.2479635027
 11
-49.9275598929
 21
5.706394888
  0
LINE
  5
49B
100
AcDbEntity
  8
RACCORDO
100
AcDbLine
 62
7
  6
CONTINUOUS
 10
-46.7030040389
 20
0.1116437853
 11
-46.8029400387
 21
1.0261990512
  0
LINE
  5
49C
100
AcDbEntity
  8
ASSI
100
AcDbLine
 62
7
  6
CONTINUOUS
 10
-46.7030040389
 20
0.1116437853
 11
-46.8029400387
 21
1.0261990512
  0
LINE
  5
49D
100
AcDbEntity
  8
DRAFT
100
AcDbLine
 62
7
  6
CONTINUOUS
 10
-49.9275598929
 20
60.4617399588
 11
-49.9275598929
 21
58.3162703857
  0
LINE
  5
49E
100
AcDbEntity
  8
DRAFT
100
AcDbLine
 62
7
  6
CONTINUOUS
 10
-49.9275598929
 20
3.5609253149
 11
-49.9275598929
 21
5.706394888
  0
LINE
  5
49F
100
AcDbEntity
  8
DRAFT
100
AcDbLine
 62
7
  6
CONTINUOUS
 10
-49.8577396332
 20
60.0033085736
 11
-49.8577396332
 21
58.3162703857
  0
LINE
  5
4A0
100
AcDbEntity
  8
DRAFT
100
AcDbLine
 62
7
  6
CONTINUOUS
 10
-49.8577396332
 20
3.3618730344
 11
-49.8577396332
 21
5.2479635027
  0
LINE
  5
4A1
100
AcDbEntity
  8
0
100
AcDbLine
 62
7
  6
CONTINUOUS
 10
-49.6077396332
 20
60.6607922393
 11
-49.6077396332
 21
58.5138956195
  0
LINE
  5
4A2
100
AcDbEntity
  8
ASSI
100
AcDbLine
 62
7
  6
CONTINUOUS
 10
-49.6077396332
 20
60.6607922393
 11
-49.6077396332
 21
58.5138956195
  0
LINE
  5
4A3
100
AcDbEntity
  8
0
100
AcDbLine
 62
7
  6
CONTINUOUS
 10
-49.6077396332
 20
4.8961860425
 11
-49.6077396332
 21
3.3618730344
  0
LINE
  5
4A4
100
AcDbEntity
  8
ASSI
100
AcDbLine
 62
7
  6
CONTINUOUS
 10
-49.6077396332
 20
4.8961860425
 11
-49.6077396332
 21
3.3618730344
  0
LINE
  5
4A5
100
AcDbEntity
  8
RACCORDO
100
AcDbLine
 62
7
  6
CONTINUOUS
 10
-52.0124752275
 20
0.1116437853
 11
-51.9125392278
 21
1.0261990512
  0
LINE
  5
4A6
100
AcDbEntity
  8
ASSI
100
AcDbLine
 62
7
  6
CONTINUOUS
 10
-52.0124752275
 20
0.1116437853
 11
-51.9125392278
 21
1.0261990512
  0
LINE
  5
4A7
100
AcDbEntity
  8
RACCORDO
100
AcDbLine
 62
7
  6
CONTINUOUS
 10
-48.0124752275
 20
0.1116437853
 11
-47.9125392278
 21
1.0261990512
  0
LINE
  5
4A8
100
AcDbEntity
  8
ASSI
100
AcDbLine
 62
7
  6
CONTINUOUS
 10
-48.0124752275
 20
0.1116437853
 11
-47.9125392278
 21
1.0261990512
  0
LINE
  5
4A9
100
AcDbEntity
  8
DRAFT
100
AcDbLine
 62
7
  6
CONTINUOUS
 10
-42.7879193735
 20
60.4617399588
 11
-42.8577396332
 21
60.0033085736
  0
LWPOLYLINE
  5
4AA
100
AcDbEntity
  8
0
100
AcDbPolyline
 62
7
  6
CONTINUOUS
 90
6
 70
0
 10
-2.1904691659
 20
2.2887462768
 10
-1.9700600186
 20
2.3644836735
 10
-1.758634434
 20
2.4442966115
 10
-1.5541910701
 20
2.5293914691
 10
-1.3565485591
 20
2.6204148568
 10
-1.1649203432
 20
2.7183691751
  0
LWPOLYLINE
  5
4AB
100
AcDbEntity
  8
RACCORDO
100
AcDbPolyline
 62
7
  6
CONTINUOUS
 90
3
 70
0
 10
-212.1833946478
 20
59.7830694692
 10
-212.2719564647
 20
59.7587589538
 10
-212.4027247396
 20
59.7174294423
  0
LWPOLYLINE
  5
4AC
100
AcDbEntity
  8
ASSI
100
AcDbPolyline
 62
7
  6
CONTINUOUS
 90
3
 70
0
 10
-212.1833946478
 20
59.7830694692
 10
-212.2719564647
 20
59.7587589538
 10
-212.4027247396
 20
59.7174294423
  0
LWPOLYLINE
  5
4AD
100
AcDbEntity
  8
RACCORDO
100
AcDbPolyline
 62
7
  6
CONTINUOUS
 90
3
 70
0
 10
-0.3127545269
 20
59.7174294423
 10
-0.4435228018
 20
59.7587589538
 10
-0.5320846187
 20
59.7830694692
  0
LWPOLYLINE
  5
4AE
100
AcDbEntity
  8
ASSI
100
AcDbPolyline
 62
7
  6
CONTINUOUS
 90
3
 70
0
 10
-0.3127545269
 20
59.7174294423
 10
-0.4435228018
 20
59.7587589538
 10
-0.5320846187
 20
59.7830694692
  0
LINE
  5
4AF
100
AcDbEntity
  8
DRAFT
100
AcDbLine
 62
7
  6
CONTINUOUS
 10
-49.9275598929
 20
60.4617399588
 11
-49.8577396332
 21
60.0033085736
  0
LINE
  5
4B0
100
AcDbEntity
  8
0
100
AcDbLine
 62
7
  6
CONTINUOUS
 10
-43.1077396332
 20
60.6607922393
 11
-43.1077396332
 21
58.5138956195
  0
LINE
  5
4B1
100
AcDbEntity
  8
ASSI
100
AcDbLine
 62
7
  6
CONTINUOUS
 10
-43.1077396332
 20
60.6607922393
 11
-43.1077396332
 21
58.5138956195
  0
LINE
  5
4B2
100
AcDbEntity
  8
0
100
AcDbLine
 62
7
  6
CONTINUOUS
 10
-43.1077396332
 20
4.8961860425
 11
-43.1077396332
 21
3.3618730344
  0
LINE
  5
4B3
100
AcDbEntity
  8
ASSI
100
AcDbLine
 62
7
  6
CONTINUOUS
 10
-43.1077396332
 20
4.8961860425
 11
-43.1077396332
 21
3.3618730344
  0
LINE
  5
4B4
100
AcDbEntity
  8
DRAFT
100
AcDbLine
 62
7
  6
CONTINUOUS
 10
-42.8577396332
 20
60.0033085736
 11
-42.8577396332
 21
58.3162703857
  0
LINE
  5
4B5
100
AcDbEntity
  8
DRAFT
100
AcDbLine
 62
7
  6
CONTINUOUS
 10
-42.8577396332
 20
3.3618730344
 11
-42.8577396332
 21
5.2479635027
  0
LINE
  5
4B6
100
AcDbEntity
  8
DRAFT
100
AcDbLine
 62
7
  6
CONTINUOUS
 10
-42.7879193735
 20
60.4617399588
 11
-42.7879193735
 21
58.3162703857
  0
LINE
  5
4B7
100
AcDbEntity
  8
DRAFT
100
AcDbLine
 62
7
  6
CONTINUOUS
 10
-42.7879193735
 20
3.5609253149
 11
-42.7879193735
 21
5.706394888
  0
LINE
  5
4B8
100
AcDbEntity
  8
DRAFT
100
AcDbLine
 62
7
  6
CONTINUOUS
 10
-42.8577396332
 20
5.2479635027
 11
-42.7879193735
 21
5.706394888
  0
LINE
  5
4B9
100
AcDbEntity
  8
DRAFT
100
AcDbLine
 62
7
  6
CONTINUOUS
 10
-42.7879193735
 20
3.5609253149
 11
-42.8314246804
 21
3.3618730344
  0
LINE
  5
4BA
100
AcDbEntity
  8
ASSI
100
AcDbLine
 62
7
  6
CONTINUOUS
 10
-36.5577396332
 20
0.1020642912
 11
-36.5577396332
 21
0.4951074875
  0
LINE
  5
4BB
100
AcDbEntity
  8
0
100
AcDbLine
 62
7
  6
CONTINUOUS
 10
-36.3577396332
 20
0.1020642912
 11
-36.3577396332
 21
0.65506336
  0
LWPOLYLINE
  5
4BC
100
AcDbEntity
  8
0
100
AcDbPolyline
 62
7
  6
CONTINUOUS
 90
3
 70
0
 10
-0.6878634542
 20
2.9754730017
 10
-0.6607671765
 20
2.9902643195
 10
-0.5940508771
 20
3.0283220276
  0
LINE
  5
4BD
100
AcDbEntity
  8
0
100
AcDbLine
 62
253
  6
CONTINUOUS
 10
0.1946572662
 20
5.9627467928
 11
0.1522327887
 21
5.9398826528
  0
LINE
  5
4BE
100
AcDbEntity
  8
0
100
AcDbLine
 62
253
  6
CONTINUOUS
 10
-1.676960682
 20
2.6555630226
 11
-2.1543596985
 21
2.3982748107
  0
LINE
  5
4BF
100
AcDbEntity
  8
0
100
AcDbLine
 62
7
  6
CONTINUOUS
 10
-0.6878573215
 20
2.9754763067
 11
-1.1649203432
 21
2.7183691751
  0
LWPOLYLINE
  5
4C0
100
AcDbEntity
  8
0
100
AcDbPolyline
 62
253
  6
CONTINUOUS
 90
17
 70
0
 10
-2.1543596985
 20
2.3982748107
 10
-2.2750739335
 20
2.3382157549
 10
-2.4136512775
 20
2.2785221919
 10
-2.5699753136
 20
2.2192443446
 10
-2.7439148947
 20
2.1604320225
 10
-2.9353236864
 20
2.1021347746
 10
-3.1440400971
 20
2.0444018423
 10
-3.369888295
 20
1.9872818512
 10
-3.6126784572
 20
1.9308227999
 10
-3.8722062044
 20
1.8750722096
 10
-4.1482530281
 20
1.8200770083
 10
-4.4405867814
 20
1.765883435
 10
-4.748961823
 20
1.7125370262
 10
-5.0731189209
 20
1.6600826345
 10
-5.4127852159
 20
1.6085644207
 10
-5.7676747417
 20
1.5580257593
 10
-6.1374888109
 20
1.5085091822
  0
LWPOLYLINE
  5
4C1
100
AcDbEntity
  8
0
100
AcDbPolyline
 62
253
  6
CONTINUOUS
 90
8
 70
0
 10
-1.2571283969
 20
2.6707993864
 10
-1.3790376632
 20
2.6141638034
 10
-1.503477161
 20
2.5632724926
 10
-1.6301864935
 20
2.5182319468
 10
-1.7589005138
 20
2.4791364163
 10
-1.8893498801
 20
2.4460677106
 10
-2.0212616194
 20
2.4190950281
 10
-2.1543596985
 20
2.3982748107
  0
LINE
  5
4C2
100
AcDbEntity
  8
0
100
AcDbLine
 62
253
  6
CONTINUOUS
 10
-23.5077396332
 20
0.1020642226
 11
-23.5077396332
 21
0.1116437853
  0
LWPOLYLINE
  5
4C3
100
AcDbEntity
  8
0
100
AcDbPolyline
 62
7
  6
CONTINUOUS
 90
21
 70
0
 10
0.5521751566
 20
3.7172323795
 10
0.6474345617
 20
3.7801337998
 10
0.7402045948
 20
3.8466172902
 10
0.8304962954
 20
3.9166674706
 10
0.9179171798
 20
3.9899799152
 10
1.0024547498
 20
4.0665687448
 10
1.0841215036
 20
4.1464198385
 10
1.1625624521
 20
4.2291864078
 10
1.237763742
 20
4.3148813256
 10
1.3097392266
 20
4.4034917189
 10
1.3781754769
 20
4.4946321797
 10
1.4430571631
 20
4.588313997
 10
1.504399615
 20
4.6845258818
 10
1.5619353934
 20
4.7828485597
 10
1.6156477549
 20
4.8832911796
 10
1.6655534428
 20
4.9858445925
 10
1.7114352476
 20
5.0900620765
 10
1.753275563
 20
5.1959509767
 10
1.7910919952
 20
5.3035039481
 10
1.824720153
 20
5.4122522331
 10
1.854142282
 20
5.5222132058
  0
LWPOLYLINE
  5
4C4
100
AcDbEntity
  8
ASSI
100
AcDbPolyline
 62
7
  6
CONTINUOUS
 90
20
 70
0
 10
0.543309081
 20
3.7116309752
 10
0.6474183673
 20
3.7801265488
 10
0.7484524136
 20
3.8527781744
 10
0.8464574227
 20
3.9296558926
 10
0.9413871918
 20
4.0106896628
 10
1.0326545873
 20
4.0953770375
 10
1.1201788032
 20
4.1836764586
 10
1.2040406456
 20
4.2756294842
 10
1.2838953988
 20
4.3708583414
 10
1.3597770451
 20
4.4694475706
 10
1.4316516024
 20
4.5713126313
 10
1.4990724085
 20
4.6758221295
 10
1.56197332
 20
4.7829225779
 10
1.6204204805
 20
4.8926674638
 10
1.6741656588
 20
5.0045858549
 10
1.7232136003
 20
5.1187480641
 10
1.7675595596
 20
5.2350837785
 10
1.8069410702
 20
5.3529111276
 10
1.8413167683
 20
5.4722108846
 10
1.8707280176
 20
5.5930022762
  0
LINE
  5
4C5
100
AcDbEntity
  8
0
100
AcDbLine
 62
7
  6
CONTINUOUS
 10
0.4544374189
 20
3.6578976493
 11
0.5521751566
 21
3.7172323795
  0
LWPOLYLINE
  5
4C6
100
AcDbEntity
  8
0
100
AcDbPolyline
 62
7
  6
CONTINUOUS
 90
21
 70
0
 10
0.4782655947
 20
3.6591489473
 10
0.5387202117
 20
3.6956899301
 10
0.642569511
 20
3.763209347
 10
0.7434949928
 20
3.8350067262
 10
0.8413209921
 20
3.9109587426
 10
0.9358768478
 20
3.9909345204
 10
1.0269978171
 20
4.0747995588
 10
1.114524876
 20
4.1624094508
 10
1.1983049266
 20
4.2536129064
 10
1.2781914237
 20
4.348255159
 10
1.3540445602
 20
4.4461728964
 10
1.4257312884
 20
4.5471967227
 10
1.4931257539
 20
4.6511539927
 10
1.5561096506
 20
4.7578649934
 10
1.6145721561
 20
4.8671448485
 10
1.6684102613
 20
4.9788057733
 10
1.7175290938
 20
5.0926544138
 10
1.7618418885
 20
5.208493342
 10
1.8012702725
 20
5.326122777
 10
1.8357373343
 20
5.4453123679
 10
1.8651910185
 20
5.5658811035
  0
LINE
  5
4C7
100
AcDbEntity
  8
ASSI
100
AcDbLine
 62
7
  6
CONTINUOUS
 10
0.4365730801
 20
3.6475837801
 11
0.543309081
 21
3.7116309752
  0
LINE
  5
4C8
100
AcDbEntity
  8
0
100
AcDbLine
 62
253
  6
CONTINUOUS
 10
-1.6748102699
 20
2.6558346506
 11
-0.6188693443
 21
3.2770276059
  0
LINE
  5
4C9
100
AcDbEntity
  8
0
100
AcDbLine
 62
7
  6
CONTINUOUS
 10
-0.5940507681
 20
3.0283220891
 11
0.4782650581
 21
3.6591481551
  0
LINE
  5
4CA
100
AcDbEntity
  8
RACCORDO
100
AcDbLine
 62
253
  6
CONTINUOUS
 10
-0.5503615563
 20
3.5716040582
 11
-0.8434743097
 21
4.1766704019
  0
LINE
  5
4CB
100
AcDbEntity
  8
ASSI
100
AcDbLine
 62
253
  6
CONTINUOUS
 10
-0.5503615563
 20
3.5716040582
 11
-0.8434743097
 21
4.1766704019
  0
LINE
  5
4CC
100
AcDbEntity
  8
RACCORDO
100
AcDbLine
 62
253
  6
CONTINUOUS
 10
-14.1785186204
 20
1.5892325264
 11
-14.2011396352
 21
2.2343160699
  0
LINE
  5
4CD
100
AcDbEntity
  8
ASSI
100
AcDbLine
 62
253
  6
CONTINUOUS
 10
-14.1785186204
 20
1.5892325264
 11
-14.2011396352
 21
2.2343160699
  0
LINE
  5
4CE
100
AcDbEntity
  8
RACCORDO
100
AcDbLine
 62
253
  6
CONTINUOUS
 10
-13.7393573179
 20
1.6215214437
 11
-13.7619783326
 21
2.2666049872
  0
LINE
  5
4CF
100
AcDbEntity
  8
ASSI
100
AcDbLine
 62
253
  6
CONTINUOUS
 10
-13.7393573179
 20
1.6215214437
 11
-13.7619783326
 21
2.2666049872
  0
LINE
  5
4D0
100
AcDbEntity
  8
0
100
AcDbLine
 62
253
  6
CONTINUOUS
 10
-14.1872320655
 20
1.0997109191
 11
-14.4168816783
 21
0.7991834819
  0
LWPOLYLINE
  5
4D1
100
AcDbEntity
  8
0
100
AcDbPolyline
 62
253
  6
CONTINUOUS
 90
14
 70
0
 10
-14.4168816783
 20
0.7991834819
 10
-14.4428412264
 20
0.7729174093
 10
-14.4804619526
 20
0.746787186
 10
-14.5297438569
 20
0.7207928121
 10
-14.5907720136
 20
0.6948959323
 10
-14.6634613485
 20
0.6691349018
 10
-14.747556638
 20
0.6436247865
 10
-14.84312245
 20
0.6183676695
 10
-14.9500942166
 20
0.5933614676
 10
-15.0680230112
 20
0.5687149973
 10
-15.1969511665
 20
0.5444326502
 10
-15.3368363496
 20
0.5205100346
 10
-15.4871026363
 20
0.4970427912
 10
-15.6477831771
 20
0.4740341398
  0
LWPOLYLINE
  5
4D2
100
AcDbEntity
  8
0
100
AcDbPolyline
 62
253
  6
CONTINUOUS
 90
16
 70
0
 10
-13.9830430721
 20
0.8286262474
 10
-14.0119077705
 20
0.800934881
 10
-14.0531256038
 20
0.7733143372
 10
-14.10661562
 20
0.7458087028
 10
-14.1722373059
 20
0.7184651049
 10
-14.2499223432
 20
0.6913224405
 10
-14.3396582213
 20
0.6644128452
 10
-14.4412821729
 20
0.6377792777
 10
-14.5546166918
 20
0.6114630997
 10
-14.6795735295
 20
0.58549522
 10
-14.8159139273
 20
0.5599192304
 10
-14.9634119198
 20
0.5347717276
 10
-15.1219585954
 20
0.5100739265
 10
-15.2912745903
 20
0.4858654933
 10
-15.4710840334
 20
0.4621819998
 10
-15.6612621056
 20
0.4390394559
  0
LINE
  5
4D3
100
AcDbEntity
  8
0
100
AcDbLine
 62
7
  6
CONTINUOUS
 10
-14.2350809724
 20
60.4236019226
 11
-14.4782482976
 21
60.6607922393
  0
LINE
  5
4D4
100
AcDbEntity
  8
ASSI
100
AcDbLine
 62
7
  6
CONTINUOUS
 10
-14.2350809724
 20
60.4236019226
 11
-14.4782482976
 21
60.6607922393
  0
LINE
  5
4D5
100
AcDbEntity
  8
RACCORDO
100
AcDbLine
 62
253
  6
CONTINUOUS
 10
1.9650352273
 20
6.4249027857
 11
1.7021572765
 21
6.9690301022
  0
LINE
  5
4D6
100
AcDbEntity
  8
ASSI
100
AcDbLine
 62
253
  6
CONTINUOUS
 10
1.9650352273
 20
6.4249027857
 11
1.7021572765
 21
6.9690301022
  0
LINE
  5
4D7
100
AcDbEntity
  8
RACCORDO
100
AcDbLine
 62
253
  6
CONTINUOUS
 10
1.9951936116
 20
6.362464166
 11
1.9650352273
 21
6.4249027857
  0
LINE
  5
4D8
100
AcDbEntity
  8
ASSI
100
AcDbLine
 62
253
  6
CONTINUOUS
 10
1.9951936116
 20
6.362464166
 11
1.9650352273
 21
6.4249027857
  0
LINE
  5
4D9
100
AcDbEntity
  8
RACCORDO
100
AcDbLine
 62
7
  6
CONTINUOUS
 10
-14.4962323468
 20
3.3621634065
 11
-14.4930231194
 21
3.5609253149
  0
LINE
  5
4DA
100
AcDbEntity
  8
0
100
AcDbLine
 62
253
  6
CONTINUOUS
 10
-14.1872320655
 20
1.0997109191
 11
-14.1838413769
 21
1.3097115311
  0
LINE
  5
4DB
100
AcDbEntity
  8
ASSI
100
AcDbLine
 62
253
  6
CONTINUOUS
 10
-14.1838413769
 20
1.3097115311
 11
-14.1793282062
 21
1.5892325264
  0
LINE
  5
4DC
100
AcDbEntity
  8
0
100
AcDbLine
 62
253
  6
CONTINUOUS
 10
-13.7464782903
 20
1.1310089672
 11
-13.7430696914
 21
1.3421188502
  0
LINE
  5
4DD
100
AcDbEntity
  8
ASSI
100
AcDbLine
 62
253
  6
CONTINUOUS
 10
-13.7430696914
 20
1.3421188502
 11
-13.7385565206
 21
1.6216398456
  0
LINE
  5
4DE
100
AcDbEntity
  8
0
100
AcDbLine
 62
253
  6
CONTINUOUS
 10
-13.7526078946
 20
1.1301820905
 11
-13.9830434027
 21
0.8286262035
  0
LWPOLYLINE
  5
4DF
100
AcDbEntity
  8
RACCORDO
100
AcDbPolyline
 62
7
  6
CONTINUOUS
 90
14
 70
0
 10
0.1659350565
 20
5.925245695
 10
0.1102048948
 20
5.8604855899
 10
0.0508161568
 20
5.7990308748
 10
-0.0121956998
 20
5.740849515
 10
-0.0782160118
 20
5.6865090537
 10
-0.1472742214
 20
5.6360470798
 10
-0.2193408864
 20
5.5894260042
 10
-0.2937130163
 20
5.5471006027
 10
-0.3704131738
 20
5.5091129151
 10
-0.4494187961
 20
5.4754209016
 10
-0.5299592054
 20
5.4463532184
 10
-0.6117775091
 20
5.4220194176
 10
-0.6951305996
 20
5.4023099471
 10
-0.7800184771
 20
5.387224807
  0
LWPOLYLINE
  5
4E0
100
AcDbEntity
  8
ASSI
100
AcDbPolyline
 62
7
  6
CONTINUOUS
 90
14
 70
0
 10
0.1659350565
 20
5.925245695
 10
0.1102048948
 20
5.8604855899
 10
0.0508161568
 20
5.7990308748
 10
-0.0121956998
 20
5.740849515
 10
-0.0782160118
 20
5.6865090537
 10
-0.1472742214
 20
5.6360470798
 10
-0.2193408864
 20
5.5894260042
 10
-0.2937130163
 20
5.5471006027
 10
-0.3704131738
 20
5.5091129151
 10
-0.4494187961
 20
5.4754209016
 10
-0.5299592054
 20
5.4463532184
 10
-0.6117775091
 20
5.4220194176
 10
-0.6951305996
 20
5.4023099471
 10
-0.7800184771
 20
5.387224807
  0
LWPOLYLINE
  5
4E1
100
AcDbEntity
  8
RACCORDO
100
AcDbPolyline
 62
7
  6
CONTINUOUS
 90
29
 70
0
 10
1.9951936116
 20
56.9795776177
 10
1.9848059616
 20
57.1154864234
 10
1.9682190816
 20
57.2508399895
 10
1.9454555355
 20
57.3853574693
 10
1.9165286497
 20
57.5188523174
 10
1.8815005705
 20
57.6509500109
 10
1.8405243388
 20
57.7810996582
 10
1.7937915121
 20
57.9088339966
 10
1.7413626326
 20
58.0341112028
 10
1.683201775
 20
58.1570184524
 10
1.6192987053
 20
58.2774854817
 10
1.5498548653
 20
58.3950490273
 10
1.475157316
 20
58.5092126752
 10
1.3954543287
 20
58.6196410234
 10
1.3108530939
 20
58.7262275747
 10
1.2214661709
 20
58.8288424496
 10
1.1274784527
 20
58.9272732856
 10
1.0290843769
 20
59.0213165603
 10
0.926402802
 20
59.110848434
 10
0.8195303555
 20
59.1957519452
 10
0.7087781363
 20
59.2757492214
 10
0.5946135652
 20
59.3505094882
 10
0.4774806738
 20
59.4197883338
 10
0.3574510371
 20
59.4835887699
 10
0.2344398466
 20
59.5419559892
 10
0.1084838155
 20
59.5948251873
 10
-0.0199686143
 20
59.6419619531
 10
-0.150384009
 20
59.683164551
 10
-0.2395577882
 20
59.7076281479
  0
LWPOLYLINE
  5
4E2
100
AcDbEntity
  8
ASSI
100
AcDbPolyline
 62
7
  6
CONTINUOUS
 90
29
 70
0
 10
1.9951936116
 20
56.9795776177
 10
1.9848059616
 20
57.1154864234
 10
1.9682190816
 20
57.2508399895
 10
1.9454555355
 20
57.3853574693
 10
1.9165286497
 20
57.5188523174
 10
1.8815005705
 20
57.6509500109
 10
1.8405243388
 20
57.7810996582
 10
1.7937915121
 20
57.9088339966
 10
1.7413626326
 20
58.0341112028
 10
1.683201775
 20
58.1570184524
 10
1.6192987053
 20
58.2774854817
 10
1.5498548653
 20
58.3950490273
 10
1.475157316
 20
58.5092126752
 10
1.3954543287
 20
58.6196410234
 10
1.3108530939
 20
58.7262275747
 10
1.2214661709
 20
58.8288424496
 10
1.1274784527
 20
58.9272732856
 10
1.0290843769
 20
59.0213165603
 10
0.926402802
 20
59.110848434
 10
0.8195303555
 20
59.1957519452
 10
0.7087781363
 20
59.2757492214
 10
0.5946135652
 20
59.3505094882
 10
0.4774806738
 20
59.4197883338
 10
0.3574510371
 20
59.4835887699
 10
0.2344398466
 20
59.5419559892
 10
0.1084838155
 20
59.5948251873
 10
-0.0199686143
 20
59.6419619531
 10
-0.150384009
 20
59.683164551
 10
-0.2395577882
 20
59.7076281479
  0
LWPOLYLINE
  5
4E3
100
AcDbEntity
  8
RACCORDO
100
AcDbPolyline
 62
7
  6
CONTINUOUS
 90
27
 70
0
 10
1.7021572765
 20
57.0536351715
 10
1.6922014932
 20
57.1893869015
 10
1.6760501799
 20
57.3242523498
 10
1.6537033364
 20
57.4582315164
 10
1.6250575673
 20
57.5917560653
 10
1.5902162681
 20
57.7243943325
 10
1.5494896255
 20
57.8548513258
 10
1.5028380314
 20
57.9829654206
 10
1.4503010939
 20
58.1088982414
 10
1.3923078239
 20
58.2318396697
 10
1.3289706335
 20
58.3515903494
 10
1.2601771107
 20
58.4683496365
 10
1.1860190296
 20
58.5819054808
 10
1.1062930759
 20
58.6925238009
 10
1.0212025639
 20
58.7999386781
 10
0.9314492122
 20
58.9031403059
 10
0.8369539161
 20
59.0020552002
 10
0.7377957802
 20
59.0967568451
 10
0.634913836
 20
59.1864558867
 10
0.528555992
 20
59.2709252404
 10
0.4184743397
 20
59.3503919908
 10
0.3048641857
 20
59.4247480375
 10
0.1875320447
 20
59.494127139
 10
0.066671402
 20
59.5583955368
 10
-0.0569419803
 20
59.6170438548
 10
-0.1834718839
 20
59.6700466884
 10
-0.3127545269
 20
59.7174294423
  0
LWPOLYLINE
  5
4E4
100
AcDbEntity
  8
ASSI
100
AcDbPolyline
 62
7
  6
CONTINUOUS
 90
27
 70
0
 10
1.7021572765
 20
57.0536351715
 10
1.6922014932
 20
57.1893869015
 10
1.6760501799
 20
57.3242523498
 10
1.6537033364
 20
57.4582315164
 10
1.6250575673
 20
57.5917560653
 10
1.5902162681
 20
57.7243943325
 10
1.5494896255
 20
57.8548513258
 10
1.5028380314
 20
57.9829654206
 10
1.4503010939
 20
58.1088982414
 10
1.3923078239
 20
58.2318396697
 10
1.3289706335
 20
58.3515903494
 10
1.2601771107
 20
58.4683496365
 10
1.1860190296
 20
58.5819054808
 10
1.1062930759
 20
58.6925238009
 10
1.0212025639
 20
58.7999386781
 10
0.9314492122
 20
58.9031403059
 10
0.8369539161
 20
59.0020552002
 10
0.7377957802
 20
59.0967568451
 10
0.634913836
 20
59.1864558867
 10
0.528555992
 20
59.2709252404
 10
0.4184743397
 20
59.3503919908
 10
0.3048641857
 20
59.4247480375
 10
0.1875320447
 20
59.494127139
 10
0.066671402
 20
59.5583955368
 10
-0.0569419803
 20
59.6170438548
 10
-0.1834718839
 20
59.6700466884
 10
-0.3127545269
 20
59.7174294423
  0
LINE
  5
4E5
100
AcDbEntity
  8
RACCORDO
100
AcDbLine
 62
7
  6
CONTINUOUS
 10
1.9956635028
 20
56.9705997744
 11
1.9951936116
 21
56.9795776177
  0
LINE
  5
4E6
100
AcDbEntity
  8
ASSI
100
AcDbLine
 62
7
  6
CONTINUOUS
 10
1.9956635028
 20
56.9705997744
 11
1.9951936116
 21
56.9795776177
  0
LINE
  5
4E7
100
AcDbEntity
  8
0
100
AcDbLine
 62
7
  6
CONTINUOUS
 10
0.4734941616
 20
56.3511980537
 11
0.4730765348
 21
56.359297443
  0
LINE
  5
4E8
100
AcDbEntity
  8
0
100
AcDbLine
 62
7
  6
CONTINUOUS
 10
0.497622376
 20
56.5726650503
 11
0.5235318713
 21
56.0606393779
  0
LINE
  5
4E9
100
AcDbEntity
  8
ASSI
100
AcDbLine
 62
7
  6
CONTINUOUS
 10
0.497622376
 20
56.5726650503
 11
0.5235318713
 21
56.0606393779
  0
LWPOLYLINE
  5
4EA
100
AcDbEntity
  8
RACCORDO
100
AcDbPolyline
 62
7
  6
CONTINUOUS
 90
25
 70
0
 10
1.7021572765
 20
57.0536351715
 10
1.8033869519
 20
54.9683049065
 10
1.8958176155
 20
52.8826323048
 10
1.9794492673
 20
50.7966173664
 10
2.0542832585
 20
48.710219801
 10
2.1203182379
 20
46.6234798988
 10
2.1775501517
 20
44.5365185309
 10
2.2259783564
 20
42.449339271
 10
2.2656034956
 20
40.3619385454
 10
2.2964234463
 20
38.2744265042
 10
2.3184377416
 20
36.1868027588
 10
2.3316468483
 20
34.0990676978
 10
2.3360500444
 20
32.0113326369
 10
2.3316468483
 20
29.9235975759
 10
2.3184377416
 20
27.8358625149
 10
2.2964234463
 20
25.7482387695
 10
2.2656034956
 20
23.6607267283
 10
2.2259783564
 20
21.5733260027
 10
2.1775501517
 20
19.4861467428
 10
2.1203182379
 20
17.3991853749
 10
2.0542832585
 20
15.3124454727
 10
1.9794492673
 20
13.2260479073
 10
1.8958176155
 20
11.1400329689
 10
1.8033869519
 20
9.0543603672
 10
1.7021572765
 20
6.9690301022
  0
LWPOLYLINE
  5
4EB
100
AcDbEntity
  8
ASSI
100
AcDbPolyline
 62
7
  6
CONTINUOUS
 90
25
 70
0
 10
1.7021572765
 20
57.0536351715
 10
1.8033869519
 20
54.9683049065
 10
1.8958176155
 20
52.8826323048
 10
1.9794492673
 20
50.7966173664
 10
2.0542832585
 20
48.710219801
 10
2.1203182379
 20
46.6234798988
 10
2.1775501517
 20
44.5365185309
 10
2.2259783564
 20
42.449339271
 10
2.2656034956
 20
40.3619385454
 10
2.2964234463
 20
38.2744265042
 10
2.3184377416
 20
36.1868027588
 10
2.3316468483
 20
34.0990676978
 10
2.3360500444
 20
32.0113326369
 10
2.3316468483
 20
29.9235975759
 10
2.3184377416
 20
27.8358625149
 10
2.2964234463
 20
25.7482387695
 10
2.2656034956
 20
23.6607267283
 10
2.2259783564
 20
21.5733260027
 10
2.1775501517
 20
19.4861467428
 10
2.1203182379
 20
17.3991853749
 10
2.0542832585
 20
15.3124454727
 10
1.9794492673
 20
13.2260479073
 10
1.8958176155
 20
11.1400329689
 10
1.8033869519
 20
9.0543603672
 10
1.7021572765
 20
6.9690301022
  0
LWPOLYLINE
  5
4EC
100
AcDbEntity
  8
DRAFT
100
AcDbPolyline
 62
7
  6
CONTINUOUS
 90
13
 70
0
 10
0.2978810071
 20
57.2245324558
 10
0.4947602289
 20
53.024597792
 10
0.655846386
 20
48.8237570058
 10
0.7811394783
 20
44.6220100971
 10
0.8706433649
 20
40.4190550253
 10
0.9243541868
 20
36.2151938311
 10
0.9422603668
 20
32.0113326369
 10
0.9243541868
 20
27.8074714426
 10
0.8706433649
 20
23.6036102484
 10
0.7811394783
 20
19.4006551766
 10
0.655846386
 20
15.1989082679
 10
0.4947602289
 20
10.9980674817
 10
0.2978810071
 20
6.7981328179
  0
LWPOLYLINE
  5
4ED
100
AcDbEntity
  8
RACCORDO
100
AcDbPolyline
 62
7
  6
CONTINUOUS
 90
7
 70
0
 10
0.497622376
 20
57.2346521427
 10
0.6945779484
 20
53.0331362345
 10
0.855727158
 20
48.8306720559
 10
0.9810700046
 20
44.6272596068
 10
1.0706110607
 20
40.4225827971
 10
1.124345754
 20
36.216957717
 10
1.1422603668
 20
32.0113326368
  0
LWPOLYLINE
  5
4EE
100
AcDbEntity
  8
ASSI
100
AcDbPolyline
 62
7
  6
CONTINUOUS
 90
7
 70
0
 10
0.497622376
 20
57.2346521427
 10
0.6945779484
 20
53.0331362345
 10
0.855727158
 20
48.8306720559
 10
0.9810700046
 20
44.6272596068
 10
1.0706110607
 20
40.4225827971
 10
1.124345754
 20
36.216957717
 10
1.1422603668
 20
32.0113326368
  0
LWPOLYLINE
  5
4EF
100
AcDbEntity
  8
RACCORDO
100
AcDbPolyline
 62
7
  6
CONTINUOUS
 90
13
 70
0
 10
1.9956635028
 20
56.9705997744
 10
2.1932051868
 20
52.7567793301
 10
2.3548495617
 20
48.5414436801
 10
2.4805850119
 20
44.3248957348
 10
2.570402502
 20
40.1074384918
 10
2.6242955778
 20
35.8893750141
 10
2.6422603668
 20
31.6710084081
 10
2.6242955778
 20
27.4526418021
 10
2.570402502
 20
23.2345783244
 10
2.4805850119
 20
19.0171210815
 10
2.3548495617
 20
14.8005731362
 10
2.1932051868
 20
10.5852374862
 10
1.9956635028
 20
6.3714170419
  0
LWPOLYLINE
  5
4F0
100
AcDbEntity
  8
ASSI
100
AcDbPolyline
 62
7
  6
CONTINUOUS
 90
13
 70
0
 10
1.9956635028
 20
56.9705997744
 10
2.1932051868
 20
52.7567793301
 10
2.3548495617
 20
48.5414436801
 10
2.4805850119
 20
44.3248957348
 10
2.570402502
 20
40.1074384918
 10
2.6242955778
 20
35.8893750141
 10
2.6422603668
 20
31.6710084081
 10
2.6242955778
 20
27.4526418021
 10
2.570402502
 20
23.2345783244
 10
2.4805850119
 20
19.0171210815
 10
2.3548495617
 20
14.8005731362
 10
2.1932051868
 20
10.5852374862
 10
1.9956635028
 20
6.3714170419
  0
LWPOLYLINE
  5
4F1
100
AcDbEntity
  8
0
100
AcDbPolyline
 62
7
  6
CONTINUOUS
 90
7
 70
0
 10
0.527475552
 20
56.0606393779
 10
0.6943696483
 20
52.4546353241
 10
0.8348899495
 20
48.8479038587
 10
0.9490364557
 20
45.2404449815
 10
1.0368091668
 20
41.6322586927
 10
1.0982080828
 20
38.0233449921
 10
1.1332332038
 20
34.4137038799
  0
LWPOLYLINE
  5
4F2
100
AcDbEntity
  8
ASSI
100
AcDbPolyline
 62
7
  6
CONTINUOUS
 90
7
 70
0
 10
0.527475552
 20
56.0606393779
 10
0.6943696483
 20
52.4546353241
 10
0.8348899495
 20
48.8479038587
 10
0.9490364557
 20
45.2404449815
 10
1.0368091668
 20
41.6322586927
 10
1.0982080828
 20
38.0233449921
 10
1.1332332038
 20
34.4137038799
  0
LINE
  5
4F3
100
AcDbEntity
  8
RACCORDO
100
AcDbLine
 62
253
  6
CONTINUOUS
 10
-0.7800184771
 20
58.4385490033
 11
-0.7800184771
 21
58.6354404667
  0
LINE
  5
4F4
100
AcDbEntity
  8
ASSI
100
AcDbLine
 62
253
  6
CONTINUOUS
 10
-0.7800184771
 20
58.4385490033
 11
-0.7800184771
 21
58.6354404667
  0
LINE
  5
4F5
100
AcDbEntity
  8
RACCORDO
100
AcDbLine
 62
253
  6
CONTINUOUS
 10
0.497622376
 20
56.5726650503
 11
0.497622376
 21
57.2346521427
  0
LINE
  5
4F6
100
AcDbEntity
  8
ASSI
100
AcDbLine
 62
253
  6
CONTINUOUS
 10
0.497622376
 20
56.5726650503
 11
0.497622376
 21
57.2346521427
  0
LINE
  5
4F7
100
AcDbEntity
  8
0
100
AcDbLine
 62
7
  6
CONTINUOUS
 10
1.1332332038
 20
34.316468386
 11
1.1332332038
 21
34.4137038799
  0
LWPOLYLINE
  5
4F8
100
AcDbEntity
  8
RACCORDO
100
AcDbPolyline
 62
7
  6
CONTINUOUS
 90
7
 70
0
 10
1.1422603668
 20
32.0113326368
 10
1.124345754
 20
27.8057075567
 10
1.0706110607
 20
23.6000824766
 10
0.9810700046
 20
19.3954056669
 10
0.855727158
 20
15.1919932178
 10
0.6945779484
 20
10.9895290392
 10
0.497622376
 20
6.788013131
  0
LWPOLYLINE
  5
4F9
100
AcDbEntity
  8
ASSI
100
AcDbPolyline
 62
7
  6
CONTINUOUS
 90
7
 70
0
 10
1.1422603668
 20
32.0113326368
 10
1.124345754
 20
27.8057075567
 10
1.0706110607
 20
23.6000824766
 10
0.9810700046
 20
19.3954056669
 10
0.855727158
 20
15.1919932178
 10
0.6945779484
 20
10.9895290392
 10
0.497622376
 20
6.788013131
  0
LWPOLYLINE
  5
4FA
100
AcDbEntity
  8
ASSI
100
AcDbPolyline
 62
7
  6
CONTINUOUS
 90
31
 70
0
 10
-7.1577396332
 20
10.6132124894
 10
-7.1549812531
 20
10.7172919226
 10
-7.1467510243
 20
10.8213713558
 10
-7.1331163144
 20
10.9245988595
 10
-7.1140327647
 20
11.0269674411
 10
-7.0895447339
 20
11.1284840933
 10
-7.0598526658
 20
11.2283178637
 10
-7.0249138469
 20
11.3264549396
 10
-6.9847709907
 20
11.4229091338
 10
-6.9397526816
 20
11.5168909321
 10
-6.8898189031
 20
11.6083800418
 10
-6.8350096718
 20
11.6973967557
 10
-6.775773622
 20
11.7832124382
 10
-6.7120744193
 20
11.8658008161
 10
-6.6439483981
 20
11.9451881627
 10
-6.5719531956
 20
12.0207246625
 10
-6.4960570545
 20
12.0923787087
 10
-6.4162917321
 20
12.1601819081
 10
-6.3333101378
 20
12.2235792659
 10
-6.2470858732
 20
12.2825346199
 10
-6.1576453366
 20
12.3370841323
 10
-6.0657206327
 20
12.3867812947
 10
-5.9712913721
 20
12.4315862801
 10
-5.8743779441
 20
12.4715389155
 10
-5.775773622
 20
12.5063121734
 10
-5.6754645271
 20
12.5358635427
 10
-5.5734645381
 20
12.5602355346
 10
-5.4706085633
 20
12.579228655
 10
-5.3671749057
 20
12.592776406
 10
-5.2628852623
 20
12.6009452857
 10
-5.1577396332
 20
12.6037352938
  0
LWPOLYLINE
  5
4FB
100
AcDbEntity
  8
ASSI
100
AcDbPolyline
 62
7
  6
CONTINUOUS
 90
31
 70
0
 10
-3.1577396332
 20
10.6132124894
 10
-3.1604980134
 20
10.5091330562
 10
-3.1687282422
 20
10.405053623
 10
-3.182362952
 20
10.3018261194
 10
-3.2014465018
 20
10.1994575377
 10
-3.2259345326
 20
10.0979408855
 10
-3.2556266006
 20
9.9981071152
 10
-3.2905654196
 20
9.8999700392
 10
-3.3307082758
 20
9.8035158451
 10
-3.3757265849
 20
9.7095340467
 10
-3.4256603633
 20
9.618044937
 10
-3.4804695946
 20
9.5290282232
 10
-3.5397056445
 20
9.4432125406
 10
-3.6034048472
 20
9.3606241627
 10
-3.6715308684
 20
9.2812368161
 10
-3.7435260709
 20
9.2057003163
 10
-3.819422212
 20
9.1340462701
 10
-3.8991875343
 20
9.0662430707
 10
-3.9821691286
 20
9.002845713
 10
-4.0683933933
 20
8.9438903589
 10
-4.1578339299
 20
8.8893408465
 10
-4.2497586338
 20
8.8396436841
 10
-4.3441878944
 20
8.7948386987
 10
-4.4411013223
 20
8.7548860634
 10
-4.5397056445
 20
8.7201128054
 10
-4.6400147393
 20
8.6905614361
 10
-4.7420147284
 20
8.6661894443
 10
-4.8448707032
 20
8.6471963238
 10
-4.9483043608
 20
8.6336485728
 10
-5.0525940042
 20
8.6254796932
 10
-5.1577396332
 20
8.622689685
  0
LINE
  5
4FC
100
AcDbEntity
  8
RACCORDO
100
AcDbLine
 62
253
  6
CONTINUOUS
 10
-0.8094077323
 20
5.5841162704
 11
-0.815679768
 21
5.3883674391
  0
LINE
  5
4FD
100
AcDbEntity
  8
RACCORDO
100
AcDbLine
 62
7
  6
CONTINUOUS
 10
1.9951936116
 20
6.362464166
 11
1.9956635028
 21
6.3714170419
  0
LINE
  5
4FE
100
AcDbEntity
  8
ASSI
100
AcDbLine
 62
7
  6
CONTINUOUS
 10
1.9951936116
 20
6.362464166
 11
1.9956635028
 21
6.3714170419
  0
LWPOLYLINE
  5
4FF
100
AcDbEntity
  8
ASSI
100
AcDbPolyline
 62
7
  6
CONTINUOUS
 90
30
 70
0
 10
-7.1549812531
 20
10.5714386817
 10
-7.1467510243
 20
10.6755181149
 10
-7.1331163144
 20
10.7787456186
 10
-7.1140327647
 20
10.8811142003
 10
-7.0895447339
 20
10.9826308524
 10
-7.0598526658
 20
11.0824646228
 10
-7.0249138469
 20
11.1806016987
 10
-6.9847709907
 20
11.2770558929
 10
-6.9397526816
 20
11.3710376912
 10
-6.8898189031
 20
11.4625268009
 10
-6.8350096718
 20
11.5515435148
 10
-6.775773622
 20
11.6373591973
 10
-6.7120744193
 20
11.7199475752
 10
-6.6439483981
 20
11.7993349218
 10
-6.5719531956
 20
11.8748714216
 10
-6.4960570545
 20
11.9465254678
 10
-6.4162917321
 20
12.0143286672
 10
-6.3333101378
 20
12.077726025
 10
-6.2470858732
 20
12.136681379
 10
-6.1576453366
 20
12.1912308914
 10
-6.0657206327
 20
12.2409280538
 10
-5.9712913721
 20
12.2857330392
 10
-5.8743779441
 20
12.3256856746
 10
-5.775773622
 20
12.3604589325
 10
-5.6754645271
 20
12.3900103018
 10
-5.5734645381
 20
12.4143822937
 10
-5.4706085633
 20
12.4333754141
 10
-5.3671749057
 20
12.4469231652
 10
-5.2628852623
 20
12.4550920448
 10
-5.1577396332
 20
12.4578820529
  0
LWPOLYLINE
  5
500
100
AcDbEntity
  8
DRAFT
100
AcDbPolyline
 62
7
  6
CONTINUOUS
 90
4
 70
0
 10
0.2978810071
 20
6.7981328179
 10
0.2919033996
 20
6.7239922291
 10
0.2817894208
 20
6.6507826885
 10
0.2785919216
 20
6.6325012899
  0
LWPOLYLINE
  5
501
100
AcDbEntity
  8
RACCORDO
100
AcDbPolyline
 62
7
  6
CONTINUOUS
 90
12
 70
0
 10
0.497622376
 20
6.788013131
 10
0.4907251365
 20
6.7024662978
 10
0.479055161
 20
6.617993751
 10
0.4626124495
 20
6.5345954905
 10
0.4413122238
 20
6.4520064651
 10
0.415239262
 20
6.370491726
 10
0.3846478987
 20
6.2908464269
 10
0.3494939144
 20
6.2130888632
 10
0.3098215286
 20
6.1372007396
 10
0.2660177344
 20
6.0639223237
 10
0.2180420996
 20
5.9932791555
 10
0.1659350565
 20
5.925245695
  0
LWPOLYLINE
  5
502
100
AcDbEntity
  8
ASSI
100
AcDbPolyline
 62
7
  6
CONTINUOUS
 90
12
 70
0
 10
0.497622376
 20
6.788013131
 10
0.4907251365
 20
6.7024662978
 10
0.479055161
 20
6.617993751
 10
0.4626124495
 20
6.5345954905
 10
0.4413122238
 20
6.4520064651
 10
0.415239262
 20
6.370491726
 10
0.3846478987
 20
6.2908464269
 10
0.3494939144
 20
6.2130888632
 10
0.3098215286
 20
6.1372007396
 10
0.2660177344
 20
6.0639223237
 10
0.2180420996
 20
5.9932791555
 10
0.1659350565
 20
5.925245695
  0
LINE
  5
503
100
AcDbEntity
  8
DRAFT
100
AcDbLine
 62
7
  6
CONTINUOUS
 10
0.2786456141
 20
6.6327499127
 11
0.1451571483
 21
5.9011011478
  0
LWPOLYLINE
  5
504
100
AcDbEntity
  8
RACCORDO
100
AcDbPolyline
 62
7
  6
CONTINUOUS
 90
5
 70
0
 10
1.9401056496
 20
5.9318116921
 10
1.9454555355
 20
5.9587565954
 10
1.9682190816
 20
6.0926305007
 10
1.9848059616
 20
6.2272935597
 10
1.9951936116
 20
6.362464166
  0
LWPOLYLINE
  5
505
100
AcDbEntity
  8
ASSI
100
AcDbPolyline
 62
7
  6
CONTINUOUS
 90
5
 70
0
 10
1.9401056496
 20
5.9318116921
 10
1.9454555355
 20
5.9587565954
 10
1.9682190816
 20
6.0926305007
 10
1.9848059616
 20
6.2272935597
 10
1.9951936116
 20
6.362464166
  0
LINE
  5
506
100
AcDbEntity
  8
ASSI
100
AcDbLine
 62
253
  6
CONTINUOUS
 10
-0.6177013502
 20
3.2827701887
 11
-0.5592289069
 21
3.5702693323
  0
LINE
  5
507
100
AcDbEntity
  8
RACCORDO
100
AcDbLine
 62
7
  6
CONTINUOUS
 10
1.8814325733
 20
5.6433259905
 11
1.9401057145
 21
5.931812011
  0
LINE
  5
508
100
AcDbEntity
  8
ASSI
100
AcDbLine
 62
7
  6
CONTINUOUS
 10
1.8814325733
 20
5.6433259905
 11
1.9401057145
 21
5.931812011
  0
LWPOLYLINE
  5
509
100
AcDbEntity
  8
DRAFT
100
AcDbPolyline
 62
7
  6
CONTINUOUS
 90
23
 70
0
 10
0.2785919216
 20
6.6325012899
 10
0.2675390708
 20
6.5785041961
 10
0.2490788752
 20
6.5069270407
 10
0.2264823083
 20
6.4362809335
 10
0.1999697935
 20
6.3672550076
 10
0.169503007
 20
6.2998651191
 10
0.1351202726
 20
6.234095412
 10
0.0971569844
 20
6.1705874515
 10
0.0555781009
 20
6.1093633724
 10
0.0104186635
 20
6.05040104
 10
-0.0378808099
 20
5.9942756155
 10
-0.0893510496
 20
5.9410148625
 10
-0.1439613253
 20
5.8905910174
 10
-0.201178929
 20
5.8434959508
 10
-0.2610293773
 20
5.7997622401
 10
-0.3234871537
 20
5.759357308
 10
-0.3879429996
 20
5.7226752934
 10
-0.4544164694
 20
5.6897526308
 10
-0.5228880088
 20
5.6605528857
 10
-0.5926896968
 20
5.6353608936
 10
-0.6635988933
 20
5.6142715996
 10
-0.7358382384
 20
5.5971900585
 10
-0.8094077323
 20
5.5841162704
  0
LINE
  5
50A
100
AcDbEntity
  8
ASSI
100
AcDbLine
 62
7
  6
CONTINUOUS
 10
1.8707280176
 20
5.5930022762
 11
1.8814243303
 21
5.6433276524
  0
LINE
  5
50B
100
AcDbEntity
  8
0
100
AcDbLine
 62
7
  6
CONTINUOUS
 10
1.854142282
 20
5.5222132058
 11
1.8621650983
 21
5.557834544
  0
LWPOLYLINE
  5
50C
100
AcDbEntity
  8
RACCORDO
100
AcDbPolyline
 62
7
  6
CONTINUOUS
 90
3
 70
0
 10
1.8815005705
 20
5.6943172552
 10
1.9165286497
 20
5.8258611045
 10
1.9401056496
 20
5.9318116921
  0
LWPOLYLINE
  5
50D
100
AcDbEntity
  8
ASSI
100
AcDbPolyline
 62
7
  6
CONTINUOUS
 90
3
 70
0
 10
1.8815005705
 20
5.6943172552
 10
1.9165286497
 20
5.8258611045
 10
1.9401056496
 20
5.9318116921
  0
LWPOLYLINE
  5
50E
100
AcDbEntity
  8
RACCORDO
100
AcDbPolyline
 62
7
  6
CONTINUOUS
 90
3
 70
0
 10
0.2959535105
 20
57.2484393003
 10
0.3104521242
 20
57.2240284222
 10
0.3499337294
 20
57.1480246924
  0
LWPOLYLINE
  5
50F
100
AcDbEntity
  8
ASSI
100
AcDbPolyline
 62
7
  6
CONTINUOUS
 90
3
 70
0
 10
0.2959535105
 20
57.2484393003
 10
0.3104521242
 20
57.2240284222
 10
0.3499337294
 20
57.1480246924
  0
LWPOLYLINE
  5
510
100
AcDbEntity
  8
RACCORDO
100
AcDbPolyline
 62
7
  6
CONTINUOUS
 90
8
 70
0
 10
0.3499337294
 20
57.1480246924
 10
0.3850071922
 20
57.0699507115
 10
0.4155615437
 20
56.9900564724
 10
0.4414967761
 20
56.9086063555
 10
0.4627295433
 20
56.8258705885
 10
0.4791928273
 20
56.7421203711
 10
0.490835618
 20
56.6576268283
 10
0.497622376
 20
56.5726650503
  0
LWPOLYLINE
  5
511
100
AcDbEntity
  8
ASSI
100
AcDbPolyline
 62
7
  6
CONTINUOUS
 90
8
 70
0
 10
0.3499337294
 20
57.1480246924
 10
0.3850071922
 20
57.0699507115
 10
0.4155615437
 20
56.9900564724
 10
0.4414967761
 20
56.9086063555
 10
0.4627295433
 20
56.8258705885
 10
0.4791928273
 20
56.7421203711
 10
0.490835618
 20
56.6576268283
 10
0.497622376
 20
56.5726650503
  0
ELLIPSE
  5
512
100
AcDbEntity
  8
0
100
AcDbEllipse
 62
7
  6
CONTINUOUS
 10
552.5657973509
 20
-108.712642671
 30
0.0
 11
5176.8314190784
 21
-2273.1279384889
 31
0.0
 40
0.0361421023
 41
-1.7033537665
 42
-1.7033194274
  0
ELLIPSE
  5
513
100
AcDbEntity
  8
0
100
AcDbEllipse
 62
7
  6
CONTINUOUS
 10
-198.0804524572
 20
-23.6438140696
 30
0.0
 11
-0.9467209408
 21
24.7774002915
 31
0.0
 40
0.118993581
 41
-0.0217353498
 42
-0.0196696441
  0
ELLIPSE
  5
514
100
AcDbEntity
  8
0
100
AcDbEllipse
 62
7
  6
CONTINUOUS
 10
552.5657973509
 20
-108.712642671
 30
0.0
 11
5175.4646117902
 21
-3265.059362687
 31
0.0
 40
0.044276484
 41
-1.6913163203
 42
-1.6912907838
  0
ELLIPSE
  5
515
100
AcDbEntity
  8
0
100
AcDbEllipse
 62
7
  6
CONTINUOUS
 10
-186.7577396332
 20
0.4791348592
 30
0.0
 11
10.4
 21
-0.0
 31
0.0
 40
0.0798631415
 41
6.2831853072
 42
7.853981634
  0
ELLIPSE
  5
516
100
AcDbEntity
  8
0
100
AcDbEllipse
 62
7
  6
CONTINUOUS
 10
-198.5315703761
 20
4.2959505564
 30
0.0
 11
2.9999935948
 21
0.0073409193
 31
0.0
 40
0.9954121261
 41
-1.7207123974
 42
-1.5732545784
  0
ELLIPSE
  5
517
100
AcDbEntity
  8
0
100
AcDbEllipse
 62
7
  6
CONTINUOUS
 10
-211.6562282524
 20
56.4781060338
 30
0.0
 11
1.5242182247
 21
0.0
 31
0.0
 40
0.9794477452
 41
2.6751186443
 42
3.0907313864
  0
ELLIPSE
  5
518
100
AcDbEntity
  8
0
100
AcDbEllipse
 62
7
  6
CONTINUOUS
 10
-765.2812766173
 20
-108.712642671
 30
0.0
 11
5176.8314190784
 21
2273.1279384889
 31
0.0
 40
0.0361421023
 41
-1.4382732261
 42
-1.4382388871
  0
ELLIPSE
  5
519
100
AcDbEntity
  8
0
100
AcDbEllipse
 62
7
  6
CONTINUOUS
 10
-765.2812766173
 20
-108.712642671
 30
0.0
 11
5175.4646117902
 21
3265.059362687
 31
0.0
 40
0.044276484
 41
-1.4503018698
 42
-1.4502763333
  0
ELLIPSE
  5
51A
100
AcDbEntity
  8
0
100
AcDbEllipse
 62
7
  6
CONTINUOUS
 10
-14.1839088904
 20
4.2959505564
 30
0.0
 11
2.9999935948
 21
-0.0073409193
 31
0.0
 40
0.9954121261
 41
-1.5683380752
 42
-1.4208802562
  0
ELLIPSE
  5
51B
100
AcDbEntity
  8
0
100
AcDbEllipse
 62
7
  6
CONTINUOUS
 10
-25.9577396332
 20
0.4791348592
 30
0.0
 11
10.4
 21
-0.0
 31
0.0
 40
0.0798631415
 41
1.5707963268
 42
3.1415926536
  0
ELLIPSE
  5
51C
100
AcDbEntity
  8
0
100
AcDbEllipse
 62
7
  6
CONTINUOUS
 10
-14.6350268092
 20
-23.6438140696
 30
0.0
 11
0.9467209408
 21
24.7774002915
 31
0.0
 40
0.118993581
 41
0.0196696441
 42
0.0217353498
  0
ELLIPSE
  5
51D
100
AcDbEntity
  8
0
100
AcDbEllipse
 62
7
  6
CONTINUOUS
 10
-1.059251014
 20
56.4781060338
 30
0.0
 11
1.5242182247
 21
0.0
 31
0.0
 40
0.9794477452
 41
0.0508612672
 42
0.4664739592
  0
ELLIPSE
  5
51E
100
AcDbEntity
  8
0
100
AcDbEllipse
 62
7
  6
CONTINUOUS
 10
-505.430481189
 20
31.3306841794
 30
0.0
 11
506.5485233311
 21
0.0
 31
0.0
 40
0.9794477452
 41
6.2773634427
 42
6.289203154
  0
ELLIPSE
  5
51F
100
AcDbEntity
  8
DRAFT
100
AcDbEllipse
 62
7
  6
CONTINUOUS
 10
-92.012018313
 20
3.1020642226
 30
0.0
 11
0.002545876
 21
2.9999999999
 31
0.0
 40
0.0086855084
 41
-3.1415865125
 42
-3.0616492031
  0
ELLIPSE
  5
520
100
AcDbEntity
  8
DRAFT
100
AcDbEllipse
 62
7
  6
CONTINUOUS
 10
-90.7034609535
 20
3.1020642226
 30
0.0
 11
-0.002545876
 21
2.9999999999
 31
0.0
 40
0.0086855084
 41
-3.2215361041
 42
-3.1415987947
  0
ELLIPSE
  5
521
100
AcDbEntity
  8
DRAFT
100
AcDbEllipse
 62
7
  6
CONTINUOUS
 10
-88.012018313
 20
3.1020642226
 30
0.0
 11
0.002545876
 21
2.9999999999
 31
0.0
 40
0.0086855084
 41
-3.1415865125
 42
-3.0616492031
  0
ELLIPSE
  5
522
100
AcDbEntity
  8
DRAFT
100
AcDbEllipse
 62
7
  6
CONTINUOUS
 10
-86.7034609535
 20
3.1020642226
 30
0.0
 11
-0.002545876
 21
2.9999999999
 31
0.0
 40
0.0086855084
 41
-3.2215361041
 42
-3.1415987947
  0
ELLIPSE
  5
523
100
AcDbEntity
  8
DRAFT
100
AcDbEllipse
 62
7
  6
CONTINUOUS
 10
-84.012018313
 20
3.1020642226
 30
0.0
 11
0.002545876
 21
2.9999999999
 31
0.0
 40
0.0086855084
 41
-3.1415865125
 42
-3.0616492031
  0
ELLIPSE
  5
524
100
AcDbEntity
  8
DRAFT
100
AcDbEllipse
 62
7
  6
CONTINUOUS
 10
-82.7034609535
 20
3.1020642226
 30
0.0
 11
-0.002545876
 21
2.9999999999
 31
0.0
 40
0.0086855084
 41
-3.2215361041
 42
-3.1415987947
  0
ELLIPSE
  5
525
100
AcDbEntity
  8
DRAFT
100
AcDbEllipse
 62
7
  6
CONTINUOUS
 10
-80.012018313
 20
3.1020642226
 30
0.0
 11
0.002545876
 21
2.9999999999
 31
0.0
 40
0.0086855084
 41
-3.1415865125
 42
-3.0616492031
  0
ELLIPSE
  5
526
100
AcDbEntity
  8
DRAFT
100
AcDbEllipse
 62
7
  6
CONTINUOUS
 10
-78.7034609535
 20
3.1020642226
 30
0.0
 11
-0.002545876
 21
2.9999999999
 31
0.0
 40
0.0086855084
 41
-3.2215361041
 42
-3.1415987947
  0
ELLIPSE
  5
527
100
AcDbEntity
  8
DRAFT
100
AcDbEllipse
 62
7
  6
CONTINUOUS
 10
-76.012018313
 20
3.1020642226
 30
0.0
 11
0.002545876
 21
2.9999999999
 31
0.0
 40
0.0086855084
 41
-3.1415865125
 42
-3.0616492031
  0
ELLIPSE
  5
528
100
AcDbEntity
  8
DRAFT
100
AcDbEllipse
 62
7
  6
CONTINUOUS
 10
-74.7034609535
 20
3.1020642226
 30
0.0
 11
-0.002545876
 21
2.9999999999
 31
0.0
 40
0.0086855084
 41
-3.2215361041
 42
-3.1415987947
  0
ELLIPSE
  5
529
100
AcDbEntity
  8
DRAFT
100
AcDbEllipse
 62
7
  6
CONTINUOUS
 10
-72.012018313
 20
3.1020642226
 30
0.0
 11
0.002545876
 21
2.9999999999
 31
0.0
 40
0.0086855084
 41
-3.1415865125
 42
-3.0616492031
  0
ELLIPSE
  5
52A
100
AcDbEntity
  8
DRAFT
100
AcDbEllipse
 62
7
  6
CONTINUOUS
 10
-70.7034609535
 20
3.1020642226
 30
0.0
 11
-0.002545876
 21
2.9999999999
 31
0.0
 40
0.0086855084
 41
-3.2215361041
 42
-3.1415987947
  0
ELLIPSE
  5
52B
100
AcDbEntity
  8
DRAFT
100
AcDbEllipse
 62
7
  6
CONTINUOUS
 10
-68.012018313
 20
3.1020642226
 30
0.0
 11
0.002545876
 21
2.9999999999
 31
0.0
 40
0.0086855084
 41
-3.1415865125
 42
-3.0616492031
  0
ELLIPSE
  5
52C
100
AcDbEntity
  8
DRAFT
100
AcDbEllipse
 62
7
  6
CONTINUOUS
 10
-66.7034609535
 20
3.1020642226
 30
0.0
 11
-0.002545876
 21
2.9999999999
 31
0.0
 40
0.0086855084
 41
-3.2215361041
 42
-3.1415987947
  0
ELLIPSE
  5
52D
100
AcDbEntity
  8
DRAFT
100
AcDbEllipse
 62
7
  6
CONTINUOUS
 10
-64.012018313
 20
3.1020642226
 30
0.0
 11
0.002545876
 21
2.9999999999
 31
0.0
 40
0.0086855084
 41
-3.1415865125
 42
-3.0616492031
  0
ELLIPSE
  5
52E
100
AcDbEntity
  8
DRAFT
100
AcDbEllipse
 62
7
  6
CONTINUOUS
 10
-62.7034609535
 20
3.1020642226
 30
0.0
 11
-0.002545876
 21
2.9999999999
 31
0.0
 40
0.0086855084
 41
-3.2215361041
 42
-3.1415987947
  0
ELLIPSE
  5
52F
100
AcDbEntity
  8
DRAFT
100
AcDbEllipse
 62
7
  6
CONTINUOUS
 10
-60.012018313
 20
3.1020642226
 30
0.0
 11
0.002545876
 21
2.9999999999
 31
0.0
 40
0.0086855084
 41
-3.1415865125
 42
-3.0616492031
  0
ELLIPSE
  5
530
100
AcDbEntity
  8
DRAFT
100
AcDbEllipse
 62
7
  6
CONTINUOUS
 10
-58.7034609535
 20
3.1020642226
 30
0.0
 11
-0.002545876
 21
2.9999999999
 31
0.0
 40
0.0086855084
 41
-3.2215361041
 42
-3.1415987947
  0
ELLIPSE
  5
531
100
AcDbEntity
  8
DRAFT
100
AcDbEllipse
 62
7
  6
CONTINUOUS
 10
-56.012018313
 20
3.1020642226
 30
0.0
 11
0.002545876
 21
2.9999999999
 31
0.0
 40
0.0086855084
 41
-3.1415865125
 42
-3.0616492031
  0
ELLIPSE
  5
532
100
AcDbEntity
  8
DRAFT
100
AcDbEllipse
 62
7
  6
CONTINUOUS
 10
-54.7034609535
 20
3.1020642226
 30
0.0
 11
-0.002545876
 21
2.9999999999
 31
0.0
 40
0.0086855084
 41
-3.2215361041
 42
-3.1415987947
  0
ELLIPSE
  5
533
100
AcDbEntity
  8
DRAFT
100
AcDbEllipse
 62
7
  6
CONTINUOUS
 10
-52.012018313
 20
3.1020642226
 30
0.0
 11
0.002545876
 21
2.9999999999
 31
0.0
 40
0.0086855084
 41
-3.1415865125
 42
-3.0616492031
  0
ELLIPSE
  5
534
100
AcDbEntity
  8
DRAFT
100
AcDbEllipse
 62
7
  6
CONTINUOUS
 10
-50.7034609535
 20
3.1020642226
 30
0.0
 11
-0.002545876
 21
2.9999999999
 31
0.0
 40
0.0086855084
 41
-3.2215361041
 42
-3.1415987947
  0
ELLIPSE
  5
535
100
AcDbEntity
  8
DRAFT
100
AcDbEllipse
 62
7
  6
CONTINUOUS
 10
-48.012018313
 20
3.1020642226
 30
0.0
 11
0.002545876
 21
2.9999999999
 31
0.0
 40
0.0086855084
 41
-3.1415865125
 42
-3.0616492031
  0
ELLIPSE
  5
536
100
AcDbEntity
  8
DRAFT
100
AcDbEllipse
 62
7
  6
CONTINUOUS
 10
-46.7034609535
 20
3.1020642226
 30
0.0
 11
-0.002545876
 21
2.9999999999
 31
0.0
 40
0.0086855084
 41
-3.2215361041
 42
-3.1415987947
  0
ELLIPSE
  5
537
100
AcDbEntity
  8
RACCORDO
100
AcDbEllipse
 62
7
  6
CONTINUOUS
 10
-47.3577396332
 20
1.0258123808
 30
0.0
 11
0.5548207204
 21
0.0
 31
0.0
 40
0.0798631415
 41
0.0087266463
 42
3.1328660073
  0
ELLIPSE
  5
538
100
AcDbEntity
  8
RACCORDO
100
AcDbEllipse
 62
7
  6
CONTINUOUS
 10
-51.3577396332
 20
1.0258123808
 30
0.0
 11
0.5548207204
 21
0.0
 31
0.0
 40
0.0798631415
 41
0.0087266463
 42
3.1328660073
  0
ELLIPSE
  5
539
100
AcDbEntity
  8
RACCORDO
100
AcDbEllipse
 62
7
  6
CONTINUOUS
 10
-55.3577396332
 20
1.0258123808
 30
0.0
 11
0.5548207204
 21
-0.0
 31
0.0
 40
0.0798631415
 41
0.0087266463
 42
3.1328660073
  0
ELLIPSE
  5
53A
100
AcDbEntity
  8
RACCORDO
100
AcDbEllipse
 62
7
  6
CONTINUOUS
 10
-59.3577396332
 20
1.0258123808
 30
0.0
 11
0.5548207204
 21
-0.0
 31
0.0
 40
0.0798631415
 41
0.0087266463
 42
3.1328660073
  0
ELLIPSE
  5
53B
100
AcDbEntity
  8
RACCORDO
100
AcDbEllipse
 62
7
  6
CONTINUOUS
 10
-63.3577396332
 20
1.0258123808
 30
0.0
 11
0.5548207204
 21
0.0
 31
0.0
 40
0.0798631415
 41
0.0087266463
 42
3.1328660073
  0
ELLIPSE
  5
53C
100
AcDbEntity
  8
RACCORDO
100
AcDbEllipse
 62
7
  6
CONTINUOUS
 10
-67.3577396332
 20
1.0258123808
 30
0.0
 11
0.5548207204
 21
0.0
 31
0.0
 40
0.0798631415
 41
0.0087266463
 42
3.1328660073
  0
ELLIPSE
  5
53D
100
AcDbEntity
  8
RACCORDO
100
AcDbEllipse
 62
7
  6
CONTINUOUS
 10
-71.3577396332
 20
1.0258123808
 30
0.0
 11
0.5548207204
 21
0.0
 31
0.0
 40
0.0798631415
 41
0.0087266463
 42
3.1328660073
  0
ELLIPSE
  5
53E
100
AcDbEntity
  8
RACCORDO
100
AcDbEllipse
 62
7
  6
CONTINUOUS
 10
-75.3577396332
 20
1.0258123808
 30
0.0
 11
0.5548207204
 21
-0.0
 31
0.0
 40
0.0798631415
 41
0.0087266463
 42
3.1328660073
  0
ELLIPSE
  5
53F
100
AcDbEntity
  8
RACCORDO
100
AcDbEllipse
 62
7
  6
CONTINUOUS
 10
-79.3577396332
 20
1.0258123808
 30
0.0
 11
0.5548207204
 21
0.0
 31
0.0
 40
0.0798631415
 41
0.0087266463
 42
3.1328660073
  0
ELLIPSE
  5
540
100
AcDbEntity
  8
RACCORDO
100
AcDbEllipse
 62
7
  6
CONTINUOUS
 10
-83.3577396332
 20
1.0258123808
 30
0.0
 11
0.5548207204
 21
0.0
 31
0.0
 40
0.0798631415
 41
0.0087266463
 42
3.1328660073
  0
ELLIPSE
  5
541
100
AcDbEntity
  8
RACCORDO
100
AcDbEllipse
 62
7
  6
CONTINUOUS
 10
-87.3577396332
 20
1.0258123808
 30
0.0
 11
0.5548207204
 21
0.0
 31
0.0
 40
0.0798631415
 41
0.0087266463
 42
3.1328660073
  0
ELLIPSE
  5
542
100
AcDbEntity
  8
RACCORDO
100
AcDbEllipse
 62
7
  6
CONTINUOUS
 10
-91.3577396332
 20
1.0258123808
 30
0.0
 11
0.5548207204
 21
0.0
 31
0.0
 40
0.0798631415
 41
0.0087266463
 42
3.1328660073
  0
ELLIPSE
  5
543
100
AcDbEntity
  8
RACCORDO
100
AcDbEllipse
 62
7
  6
CONTINUOUS
 10
-198.5126497301
 20
58.7911597865
 30
0.0
 11
2.8949882194
 21
-0.7879071332
 31
0.0
 40
0.9988891256
 41
1.8368043753
 42
1.9837224763
  0
ELLIPSE
  5
544
100
AcDbEntity
  8
RACCORDO
100
AcDbEllipse
 62
7
  6
CONTINUOUS
 10
-14.2028295363
 20
58.7911597865
 30
0.0
 11
2.8949882193
 21
0.7879071332
 31
0.0
 40
0.9988891256
 41
1.1578701773
 42
1.3047882783
  0
ELLIPSE
  5
545
100
AcDbEntity
  8
0
100
AcDbEllipse
 62
7
  6
CONTINUOUS
 10
292.7150019226
 20
31.3306841794
 30
0.0
 11
506.5485233311
 21
-0.0
 31
0.0
 40
0.9794477452
 41
3.0907313864
 42
3.09173106
  0
ELLIPSE
  5
546
100
AcDbEntity
  8
0
100
AcDbEllipse
 62
7
  6
CONTINUOUS
 10
-505.430481189
 20
31.3306841794
 30
0.0
 11
506.5485233311
 21
-0.0
 31
0.0
 40
0.9794477452
 41
0.0498615936
 42
0.0508612672
  0
ELLIPSE
  5
547
100
AcDbEntity
  8
RACCORDO
100
AcDbEllipse
 62
7
  6
CONTINUOUS
 10
-211.6562282524
 20
56.4781060338
 30
0.0
 11
1.5242182247
 21
-0.0
 31
0.0
 40
0.9794477452
 41
8.9579769854
 42
9.3739166935
  0
ELLIPSE
  5
548
100
AcDbEntity
  8
RACCORDO
100
AcDbEllipse
 62
7
  6
CONTINUOUS
 10
-1.059251014
 20
56.4781060338
 30
0.0
 11
1.5242182247
 21
0.0
 31
0.0
 40
0.9794477452
 41
6.3340465744
 42
6.7499862825
  0
ELLIPSE
  5
549
100
AcDbEntity
  8
RACCORDO
100
AcDbEllipse
 62
7
  6
CONTINUOUS
 10
-14.2028295363
 20
5.2315054872
 30
0.0
 11
2.8949882194
 21
-0.7879071332
 31
0.0
 40
0.9988891256
 41
-1.3047882783
 42
-1.1578701773
  0
ELLIPSE
  5
54A
100
AcDbEntity
  8
RACCORDO
100
AcDbEllipse
 62
7
  6
CONTINUOUS
 10
-198.5126497301
 20
5.2315054872
 30
0.0
 11
2.8949882194
 21
0.7879071332
 31
0.0
 40
0.9988891256
 41
-1.9837224763
 42
-1.8368043753
  0
ELLIPSE
  5
54B
100
AcDbEntity
  8
ASSI
100
AcDbEllipse
 62
7
  6
CONTINUOUS
 10
-26.3577396332
 20
0.4951074875
 30
0.0
 11
10.2
 21
-0.0
 31
0.0
 40
0.0798631415
 41
1.5707963268
 42
3.1415926536
  0
ELLIPSE
  5
54C
100
AcDbEntity
  8
ASSI
100
AcDbEllipse
 62
7
  6
CONTINUOUS
 10
-198.5126497301
 20
58.7911597865
 30
0.0
 11
2.8949882194
 21
-0.7879071332
 31
0.0
 40
0.9988891256
 41
1.8368043753
 42
1.9837224763
  0
ELLIPSE
  5
54D
100
AcDbEntity
  8
ASSI
100
AcDbEllipse
 62
7
  6
CONTINUOUS
 10
-14.2028295363
 20
58.7911597865
 30
0.0
 11
2.8949882193
 21
0.7879071332
 31
0.0
 40
0.9988891256
 41
1.1578701773
 42
1.3047882783
  0
ELLIPSE
  5
54E
100
AcDbEntity
  8
ASSI
100
AcDbEllipse
 62
7
  6
CONTINUOUS
 10
292.7150019226
 20
31.3306841794
 30
0.0
 11
506.5485233311
 21
-0.0
 31
0.0
 40
0.9794477452
 41
3.0907313864
 42
3.09173106
  0
ELLIPSE
  5
54F
100
AcDbEntity
  8
ASSI
100
AcDbEllipse
 62
7
  6
CONTINUOUS
 10
-505.430481189
 20
31.3306841794
 30
0.0
 11
506.5485233311
 21
-0.0
 31
0.0
 40
0.9794477452
 41
0.0498615936
 42
0.0508612672
  0
ELLIPSE
  5
550
100
AcDbEntity
  8
ASSI
100
AcDbEllipse
 62
7
  6
CONTINUOUS
 10
-198.5315703761
 20
4.2959505564
 30
0.0
 11
2.9999935948
 21
0.0073409194
 31
0.0
 40
0.9954121261
 41
-1.7207123974
 42
-1.5732545784
  0
ELLIPSE
  5
551
100
AcDbEntity
  8
ASSI
100
AcDbEllipse
 62
7
  6
CONTINUOUS
 10
-14.1839088904
 20
4.2959505564
 30
0.0
 11
2.9999935948
 21
-0.0073409193
 31
0.0
 40
0.9954121261
 41
-1.5683380752
 42
-1.4208802562
  0
ELLIPSE
  5
552
100
AcDbEntity
  8
ASSI
100
AcDbEllipse
 62
7
  6
CONTINUOUS
 10
-211.6562282524
 20
56.4781060338
 30
0.0
 11
1.5242182247
 21
-0.0
 31
0.0
 40
0.9794477452
 41
8.9579769854
 42
9.3739166935
  0
ELLIPSE
  5
553
100
AcDbEntity
  8
ASSI
100
AcDbEllipse
 62
7
  6
CONTINUOUS
 10
-1.059251014
 20
56.4781060338
 30
0.0
 11
1.5242182247
 21
0.0
 31
0.0
 40
0.9794477452
 41
6.3340465744
 42
6.7499862825
  0
ELLIPSE
  5
554
100
AcDbEntity
  8
ASSI
100
AcDbEllipse
 62
7
  6
CONTINUOUS
 10
-91.3577396332
 20
1.0258123808
 30
0.0
 11
0.5548207204
 21
0.0
 31
0.0
 40
0.0798631415
 41
0.0087266463
 42
3.1328660073
  0
ELLIPSE
  5
555
100
AcDbEntity
  8
ASSI
100
AcDbEllipse
 62
7
  6
CONTINUOUS
 10
-87.3577396332
 20
1.0258123808
 30
0.0
 11
0.5548207204
 21
0.0
 31
0.0
 40
0.0798631415
 41
0.0087266463
 42
3.1328660073
  0
ELLIPSE
  5
556
100
AcDbEntity
  8
ASSI
100
AcDbEllipse
 62
7
  6
CONTINUOUS
 10
-83.3577396332
 20
1.0258123808
 30
0.0
 11
0.5548207204
 21
0.0
 31
0.0
 40
0.0798631415
 41
0.0087266463
 42
3.1328660073
  0
ELLIPSE
  5
557
100
AcDbEntity
  8
ASSI
100
AcDbEllipse
 62
7
  6
CONTINUOUS
 10
-79.3577396332
 20
1.0258123808
 30
0.0
 11
0.5548207204
 21
0.0
 31
0.0
 40
0.0798631415
 41
0.0087266463
 42
3.1328660073
  0
ELLIPSE
  5
558
100
AcDbEntity
  8
ASSI
100
AcDbEllipse
 62
7
  6
CONTINUOUS
 10
-75.3577396332
 20
1.0258123808
 30
0.0
 11
0.5548207204
 21
-0.0
 31
0.0
 40
0.0798631415
 41
0.0087266463
 42
3.1328660073
  0
ELLIPSE
  5
559
100
AcDbEntity
  8
ASSI
100
AcDbEllipse
 62
7
  6
CONTINUOUS
 10
-71.3577396332
 20
1.0258123808
 30
0.0
 11
0.5548207204
 21
0.0
 31
0.0
 40
0.0798631415
 41
0.0087266463
 42
3.1328660073
  0
ELLIPSE
  5
55A
100
AcDbEntity
  8
ASSI
100
AcDbEllipse
 62
7
  6
CONTINUOUS
 10
-67.3577396332
 20
1.0258123808
 30
0.0
 11
0.5548207204
 21
0.0
 31
0.0
 40
0.0798631415
 41
0.0087266463
 42
3.1328660073
  0
ELLIPSE
  5
55B
100
AcDbEntity
  8
ASSI
100
AcDbEllipse
 62
7
  6
CONTINUOUS
 10
-63.3577396332
 20
1.0258123808
 30
0.0
 11
0.5548207204
 21
0.0
 31
0.0
 40
0.0798631415
 41
0.0087266463
 42
3.1328660073
  0
ELLIPSE
  5
55C
100
AcDbEntity
  8
ASSI
100
AcDbEllipse
 62
7
  6
CONTINUOUS
 10
-59.3577396332
 20
1.0258123808
 30
0.0
 11
0.5548207204
 21
-0.0
 31
0.0
 40
0.0798631415
 41
0.0087266463
 42
3.1328660073
  0
ELLIPSE
  5
55D
100
AcDbEntity
  8
ASSI
100
AcDbEllipse
 62
7
  6
CONTINUOUS
 10
-55.3577396332
 20
1.0258123808
 30
0.0
 11
0.5548207204
 21
-0.0
 31
0.0
 40
0.0798631415
 41
0.0087266463
 42
3.1328660073
  0
ELLIPSE
  5
55E
100
AcDbEntity
  8
ASSI
100
AcDbEllipse
 62
7
  6
CONTINUOUS
 10
-51.3577396332
 20
1.0258123808
 30
0.0
 11
0.5548207204
 21
0.0
 31
0.0
 40
0.0798631415
 41
0.0087266463
 42
3.1328660073
  0
ELLIPSE
  5
55F
100
AcDbEntity
  8
ASSI
100
AcDbEllipse
 62
7
  6
CONTINUOUS
 10
-47.3577396332
 20
1.0258123808
 30
0.0
 11
0.5548207204
 21
0.0
 31
0.0
 40
0.0798631415
 41
0.0087266463
 42
3.1328660073
  0
ELLIPSE
  5
560
100
AcDbEntity
  8
ASSI
100
AcDbEllipse
 62
7
  6
CONTINUOUS
 10
-46.7034609535
 20
3.1020642226
 30
0.0
 11
-0.002545876
 21
2.9999999999
 31
0.0
 40
0.0086855084
 41
-3.2215361041
 42
-3.1415987947
  0
ELLIPSE
  5
561
100
AcDbEntity
  8
ASSI
100
AcDbEllipse
 62
7
  6
CONTINUOUS
 10
-48.012018313
 20
3.1020642226
 30
0.0
 11
0.002545876
 21
2.9999999999
 31
0.0
 40
0.0086855084
 41
-3.1415865125
 42
-3.0616492031
  0
ELLIPSE
  5
562
100
AcDbEntity
  8
ASSI
100
AcDbEllipse
 62
7
  6
CONTINUOUS
 10
-50.7034609535
 20
3.1020642226
 30
0.0
 11
-0.002545876
 21
2.9999999999
 31
0.0
 40
0.0086855084
 41
-3.2215361041
 42
-3.1415987947
  0
ELLIPSE
  5
563
100
AcDbEntity
  8
ASSI
100
AcDbEllipse
 62
7
  6
CONTINUOUS
 10
-52.012018313
 20
3.1020642226
 30
0.0
 11
0.002545876
 21
2.9999999999
 31
0.0
 40
0.0086855084
 41
-3.1415865125
 42
-3.0616492031
  0
ELLIPSE
  5
564
100
AcDbEntity
  8
ASSI
100
AcDbEllipse
 62
7
  6
CONTINUOUS
 10
-54.7034609535
 20
3.1020642226
 30
0.0
 11
-0.002545876
 21
2.9999999999
 31
0.0
 40
0.0086855084
 41
-3.2215361041
 42
-3.1415987947
  0
ELLIPSE
  5
565
100
AcDbEntity
  8
ASSI
100
AcDbEllipse
 62
7
  6
CONTINUOUS
 10
-56.012018313
 20
3.1020642226
 30
0.0
 11
0.002545876
 21
2.9999999999
 31
0.0
 40
0.0086855084
 41
-3.1415865125
 42
-3.0616492031
  0
ELLIPSE
  5
566
100
AcDbEntity
  8
ASSI
100
AcDbEllipse
 62
7
  6
CONTINUOUS
 10
-58.7034609535
 20
3.1020642226
 30
0.0
 11
-0.002545876
 21
2.9999999999
 31
0.0
 40
0.0086855084
 41
-3.2215361041
 42
-3.1415987947
  0
ELLIPSE
  5
567
100
AcDbEntity
  8
ASSI
100
AcDbEllipse
 62
7
  6
CONTINUOUS
 10
-60.012018313
 20
3.1020642226
 30
0.0
 11
0.002545876
 21
2.9999999999
 31
0.0
 40
0.0086855084
 41
-3.1415865125
 42
-3.0616492031
  0
ELLIPSE
  5
568
100
AcDbEntity
  8
ASSI
100
AcDbEllipse
 62
7
  6
CONTINUOUS
 10
-62.7034609535
 20
3.1020642226
 30
0.0
 11
-0.002545876
 21
2.9999999999
 31
0.0
 40
0.0086855084
 41
-3.2215361041
 42
-3.1415987947
  0
ELLIPSE
  5
569
100
AcDbEntity
  8
ASSI
100
AcDbEllipse
 62
7
  6
CONTINUOUS
 10
-64.012018313
 20
3.1020642226
 30
0.0
 11
0.002545876
 21
2.9999999999
 31
0.0
 40
0.0086855084
 41
-3.1415865125
 42
-3.0616492031
  0
ELLIPSE
  5
56A
100
AcDbEntity
  8
ASSI
100
AcDbEllipse
 62
7
  6
CONTINUOUS
 10
-66.7034609535
 20
3.1020642226
 30
0.0
 11
-0.002545876
 21
2.9999999999
 31
0.0
 40
0.0086855084
 41
-3.2215361041
 42
-3.1415987947
  0
ELLIPSE
  5
56B
100
AcDbEntity
  8
ASSI
100
AcDbEllipse
 62
7
  6
CONTINUOUS
 10
-68.012018313
 20
3.1020642226
 30
0.0
 11
0.002545876
 21
2.9999999999
 31
0.0
 40
0.0086855084
 41
-3.1415865125
 42
-3.0616492031
  0
ELLIPSE
  5
56C
100
AcDbEntity
  8
ASSI
100
AcDbEllipse
 62
7
  6
CONTINUOUS
 10
-70.7034609535
 20
3.1020642226
 30
0.0
 11
-0.002545876
 21
2.9999999999
 31
0.0
 40
0.0086855084
 41
-3.2215361041
 42
-3.1415987947
  0
ELLIPSE
  5
56D
100
AcDbEntity
  8
ASSI
100
AcDbEllipse
 62
7
  6
CONTINUOUS
 10
-72.012018313
 20
3.1020642226
 30
0.0
 11
0.002545876
 21
2.9999999999
 31
0.0
 40
0.0086855084
 41
-3.1415865125
 42
-3.0616492031
  0
ELLIPSE
  5
56E
100
AcDbEntity
  8
ASSI
100
AcDbEllipse
 62
7
  6
CONTINUOUS
 10
-74.7034609535
 20
3.1020642226
 30
0.0
 11
-0.002545876
 21
2.9999999999
 31
0.0
 40
0.0086855084
 41
-3.2215361041
 42
-3.1415987947
  0
ELLIPSE
  5
56F
100
AcDbEntity
  8
ASSI
100
AcDbEllipse
 62
7
  6
CONTINUOUS
 10
-76.012018313
 20
3.1020642226
 30
0.0
 11
0.002545876
 21
2.9999999999
 31
0.0
 40
0.0086855084
 41
-3.1415865125
 42
-3.0616492031
  0
ELLIPSE
  5
570
100
AcDbEntity
  8
ASSI
100
AcDbEllipse
 62
7
  6
CONTINUOUS
 10
-78.7034609535
 20
3.1020642226
 30
0.0
 11
-0.002545876
 21
2.9999999999
 31
0.0
 40
0.0086855084
 41
-3.2215361041
 42
-3.1415987947
  0
ELLIPSE
  5
571
100
AcDbEntity
  8
ASSI
100
AcDbEllipse
 62
7
  6
CONTINUOUS
 10
-80.012018313
 20
3.1020642226
 30
0.0
 11
0.002545876
 21
2.9999999999
 31
0.0
 40
0.0086855084
 41
-3.1415865125
 42
-3.0616492031
  0
ELLIPSE
  5
572
100
AcDbEntity
  8
ASSI
100
AcDbEllipse
 62
7
  6
CONTINUOUS
 10
-82.7034609535
 20
3.1020642226
 30
0.0
 11
-0.002545876
 21
2.9999999999
 31
0.0
 40
0.0086855084
 41
-3.2215361041
 42
-3.1415987947
  0
ELLIPSE
  5
573
100
AcDbEntity
  8
ASSI
100
AcDbEllipse
 62
7
  6
CONTINUOUS
 10
-84.012018313
 20
3.1020642226
 30
0.0
 11
0.002545876
 21
2.9999999999
 31
0.0
 40
0.0086855084
 41
-3.1415865125
 42
-3.0616492031
  0
ELLIPSE
  5
574
100
AcDbEntity
  8
ASSI
100
AcDbEllipse
 62
7
  6
CONTINUOUS
 10
-86.7034609535
 20
3.1020642226
 30
0.0
 11
-0.002545876
 21
2.9999999999
 31
0.0
 40
0.0086855084
 41
-3.2215361041
 42
-3.1415987947
  0
ELLIPSE
  5
575
100
AcDbEntity
  8
ASSI
100
AcDbEllipse
 62
7
  6
CONTINUOUS
 10
-88.012018313
 20
3.1020642226
 30
0.0
 11
0.002545876
 21
2.9999999999
 31
0.0
 40
0.0086855084
 41
-3.1415865125
 42
-3.0616492031
  0
ELLIPSE
  5
576
100
AcDbEntity
  8
ASSI
100
AcDbEllipse
 62
7
  6
CONTINUOUS
 10
-90.7034609535
 20
3.1020642226
 30
0.0
 11
-0.002545876
 21
2.9999999999
 31
0.0
 40
0.0086855084
 41
-3.2215361041
 42
-3.1415987947
  0
ELLIPSE
  5
577
100
AcDbEntity
  8
ASSI
100
AcDbEllipse
 62
7
  6
CONTINUOUS
 10
-92.012018313
 20
3.1020642226
 30
0.0
 11
0.002545876
 21
2.9999999999
 31
0.0
 40
0.0086855084
 41
-3.1415865125
 42
-3.0616492031
  0
ELLIPSE
  5
578
100
AcDbEntity
  8
ASSI
100
AcDbEllipse
 62
7
  6
CONTINUOUS
 10
-186.3577396332
 20
0.4951074875
 30
0.0
 11
10.2
 21
-0.0
 31
0.0
 40
0.0798631415
 41
0.0
 42
1.5707963268
  0
ELLIPSE
  5
579
100
AcDbEntity
  8
ASSI
100
AcDbEllipse
 62
7
  6
CONTINUOUS
 10
-14.2028295363
 20
5.2315054872
 30
0.0
 11
2.8949882194
 21
-0.7879071332
 31
0.0
 40
0.9988891256
 41
-1.3047882783
 42
-1.1578701773
  0
ELLIPSE
  5
57A
100
AcDbEntity
  8
ASSI
100
AcDbEllipse
 62
7
  6
CONTINUOUS
 10
-198.5126497301
 20
5.2315054872
 30
0.0
 11
2.8949882194
 21
0.7879071332
 31
0.0
 40
0.9988891256
 41
-1.9837224763
 42
-1.8368043753
  0
ENDSEC
  0
SECTION
  2
OBJECTS
  0
DICTIONARY
  5
C
100
AcDbDictionary
280
0
281
1
  3
ACAD_GROUP
350
D
  3
ACAD_MLINESTYLE
350
17
  3
ACAD_LAYOUT
350
1A
  3
ACAD_PLOTSETTINGS
350
19
  3
ACAD_PLOTSTYLENAME
350
E
  0
DICTIONARY
  5
D
102
{ACAD_REACTORS
330
C
102
}
100
AcDbDictionary
280
0
281
1
  0
ACDBDICTIONARYWDFLT
  5
E
102
{ACAD_REACTORS
330
C
102
}
100
AcDbDictionary
281
1
  3
Normal
350
F
100
AcDbDictionaryWithDefault
340
F
  0
DICTIONARY
  5
17
102
{ACAD_REACTORS
330
C
102
}
100
AcDbDictionary
280
0
281
1
  3
Standard
350
18
  0
DICTIONARY
  5
19
102
{ACAD_REACTORS
330
C
102
}
100
AcDbDictionary
281
1
  0
DICTIONARY
  5
1A
102
{ACAD_REACTORS
330
C
102
}
100
AcDbDictionary
281
1
  3
Model
350
57B
  3
Layout1
350
57C
  0
ACDBPLACEHOLDER
  5
F
102
{ACAD_REACTORS
330
E
102
}
  0
MLINESTYLE
  5
18
102
{ACAD_REACTORS
330
17
102
}
100
AcDbMlineStyle
  2
STANDARD
 70
0
  3

 62
256
 51
90.0
 52
90.0
 71
2
 49
0.5
 62
256
  6
BYLAYER
 49
-0.5
 62
256
  6
BYLAYER
  0
LAYOUT
  5
57B
102
{ACAD_REACTORS
330
1A
102
}
100
AcDbPlotSettings
  1

  2
none_device
  4
ISO_A4_(297.00_x_210.00_MM)
  6

 40
0.0
 41
0.0
 42
0.0
 43
0.0
 44
297.0
 45
210.0
 46
0.0
 47
0.0
 48
0.0
 49
0.0
140
0.0
141
0.0
142
1.0
143
1.0
 70
1024
 72
1
 73
0
 74
0
  7

 75
0
147
1.0
148
0.0
149
0.0
100
AcDbLayout
  1
Model
 70
0
 71
0
 10
0.0
 20
0.0
 11
297.0
 21
210.0
 12
0.0
 22
0.0
 32
0.0
 14
0.0
 24
0.0
 34
0.0
 15
0.0
 25
0.0
 35
0.0
146
0.0
 13
0.0
 23
0.0
 33
0.0
 16
1.0
 26
0.0
 36
0.0
 17
0.0
 27
1.0
 37
0.0
 76
0
330
32A
345
0
346
0
  0
LAYOUT
  5
57C
102
{ACAD_REACTORS
330
1A
102
}
100
AcDbPlotSettings
  1

  2
none_device
  4
ISO_A4_(297.00_x_210.00_MM)
  6

 40
0.0
 41
0.0
 42
0.0
 43
0.0
 44
297.0
 45
210.0
 46
0.0
 47
0.0
 48
0.0
 49
0.0
140
0.0
141
0.0
142
1.0
143
1.0
 70
0
 72
1
 73
0
 74
0
  7

 75
0
147
1.0
148
0.0
149
0.0
100
AcDbLayout
  1
Layout1
 70
0
 71
1
 10
0.0
 20
0.0
 11
297.0
 21
210.0
 12
0.0
 22
0.0
 32
0.0
 14
0.0
 24
0.0
 34
0.0
 15
0.0
 25
0.0
 35
0.0
146
0.0
 13
0.0
 23
0.0
 33
0.0
 16
1.0
 26
0.0
 36
0.0
 17
0.0
 27
1.0
 37
0.0
 76
0
330
32B
345
0
346
0
  0
ENDSEC
  0
EOF
