  0
SECTION
  2
HEADER
  9
$ACADVER
  1
AC1024
  9
$DWGCODEPAGE
  3
ANSI_1252
  9
$EXTMAX
 10
297.0
 20
210.0
 30
0.0
  9
$EXTMIN
 10
0.0
 20
0.0
 30
0.0
  9
$LIMMIN
 10
0.0
 20
0.0
  9
$LIMMAX
 10
297.0
 20
210.0
  9
$VIEWCTR
 10
148.5
 20
105.0
  9
$VIEWSIZE
 40
210.0
  9
$CLAYER
  8
0
  9
$LTSCALE
 40
16.335
  9
$CELTYPE
  6
BYLAYER
  9
$DIMSCALE
 40
1.0
  9
$DIMASZ
 40
3.0
  9
$DIMEXO
 40
0.5
  9
$DIMDLI
 40
11.286
  9
$DIMEXE
 40
1.5
  9
$DIMCEN
 40
2.673
  9
$DIMLFAC
 40
1.0
  9
$DIMBLK
  1
_FILLED
  9
$DIMALT
 70
0
  9
$DIMALTF
 40
0.0393700787
  9
$DIMTXT
 40
3.0
  9
$DIMTOL
 70
1
  9
$DIMLIM
 70
0
  9
$DIMTFAC
 40
1.0
  9
$DIMTP
 40
0.01
  9
$DIMTM
 40
0.01
  9
$DIMGAP
 40
0.625
  9
$DIMDSEP
 70
44
  9
$AUNITS
 70
0
  9
$PDMODE
 70
3
  9
$PDSIZE
 40
3.0
  9
$HANDSEED
  5
483
  9
$TILEMODE
 70
1
  9
$MEASUREMENT
 70
1
  9
$INSUNITS
 70
4
  0
ENDSEC
  0
SECTION
  2
CLASSES
  0
CLASS
  1
ACDBDICTIONARYWDFLT
  2
AcDbDictionaryWithDefault
  3
AutoCAD 2000
 90
0
 91
1
280
0
281
0
  0
CLASS
  1
ACDBPLACEHOLDER
  2
AcDbPlaceHolder
  3
AutoCAD 2000
 90
0
 91
1
280
0
281
0
  0
CLASS
  1
LAYOUT
  2
AcDbLayout
  3
AutoCAD 2000
 90
0
 91
0
280
0
281
0
  0
ENDSEC
  0
SECTION
  2
TABLES
  0
TABLE
  2
VPORT
  5
8
100
AcDbSymbolTable
 70
2
  0
VPORT
  5
1F4
100
AcDbSymbolTableRecord
100
AcDbViewportTableRecord
  2
*ACTIVE
 70
0
 10
0.0
 20
0.0
 11
1.0
 21
1.0
 12
148.5
 22
105.0
 13
0.0
 23
0.0
 14
1.0
 24
1.0
 15
0.0
 25
0.0
 16
0.0
 26
0.0
 36
1.0
 17
0.0
 27
0.0
 37
0.0
 40
210.0
 41
1.4142857143
 42
50.0
 43
0.0
 44
0.0
 50
0.0
 51
0.0
 71
0
 72
100
 73
1
 74
1
 75
0
 76
0
 77
0
 78
0
  0
ENDTAB
  0
TABLE
  2
LTYPE
  5
5
100
AcDbSymbolTable
 70
6
  0
LTYPE
  5
14
100
AcDbSymbolTableRecord
100
AcDbLinetypeTableRecord
  2
BYBLOCK
 70
0
  3

 72
65
 73
0
 40
0.0
  0
LTYPE
  5
15
100
AcDbSymbolTableRecord
100
AcDbLinetypeTableRecord
  2
BYLAYER
 70
0
  3

 72
65
 73
0
 40
0.0
  0
LTYPE
  5
16
100
AcDbSymbolTableRecord
100
AcDbLinetypeTableRecord
  2
CONTINUOUS
 70
64
  3
Solid line
 72
65
 73
0
 40
0.0
  0
LTYPE
  5
1F5
100
AcDbSymbolTableRecord
100
AcDbLinetypeTableRecord
  2
CENTER
 70
64
  3
____ _ ____ _ ____ _ ____ _ ____ _ ____ _ ____
 72
65
 73
4
 40
0.6
 49
0.375
 74
0
 49
-0.075
 74
0
 49
0.075
 74
0
 49
-0.075
 74
0
  0
LTYPE
  5
1F6
100
AcDbSymbolTableRecord
100
AcDbLinetypeTableRecord
  2
HIDDEN
 70
64
  3
- - - - - - - - - - - - - - - - - - - -
 72
65
 73
2
 40
0.2
 49
0.1
 74
0
 49
-0.1
 74
0
  0
LTYPE
  5
1F7
100
AcDbSymbolTableRecord
100
AcDbLinetypeTableRecord
  2
PHANTOM
 70
64
  3
_____ _ _ _____ _ _ _____ _ _ _____
 72
65
 73
6
 40
0.8
 49
0.45
 74
0
 49
-0.05
 74
0
 49
0.1
 74
0
 49
-0.05
 74
0
 49
0.1
 74
0
 49
-0.05
 74
0
  0
LTYPE
  5
1F8
100
AcDbSymbolTableRecord
100
AcDbLinetypeTableRecord
  2
DOT
 70
64
  3
. . . . . . . . . . . . . . . . . . . .
 72
65
 73
2
 40
0.2
 49
0.1
 74
0
 49
-0.1
 74
0
  0
LTYPE
  5
1F9
100
AcDbSymbolTableRecord
100
AcDbLinetypeTableRecord
  2
DASHED
 70
64
  3
- - - - - - - - - - - - - - - - - - - -
 72
65
 73
2
 40
0.2
 49
0.1
 74
0
 49
-0.1
 74
0
  0
ENDTAB
  0
TABLE
  2
LAYER
  5
2
100
AcDbSymbolTable
 70
36
  0
LAYER
  5
10
100
AcDbSymbolTableRecord
100
AcDbLayerTableRecord
  2
0
 70
0
 62
7
  6
CONTINUOUS
370
-3
390
F
  0
LAYER
  5
1FA
100
AcDbSymbolTableRecord
100
AcDbLayerTableRecord
  2
DEFAULT_1
 70
0
 62
7
  6
CENTER
370
-3
390
F
  0
LAYER
  5
1FB
100
AcDbSymbolTableRecord
100
AcDbLayerTableRecord
  2
DEFAULT_2
 70
0
 62
7
  6
HIDDEN
370
-3
390
F
  0
LAYER
  5
1FC
100
AcDbSymbolTableRecord
100
AcDbLayerTableRecord
  2
DEFAULT_3
 70
0
 62
7
  6
PHANTOM
370
-3
390
F
  0
LAYER
  5
1FD
100
AcDbSymbolTableRecord
100
AcDbLayerTableRecord
  2
06___PRT_ALL_SURFS
 70
0
 62
7
  6
CONTINUOUS
370
-3
390
F
  0
LAYER
  5
1FE
100
AcDbSymbolTableRecord
100
AcDbLayerTableRecord
  2
06___PRT_ALL_SURFS_1
 70
0
 62
7
  6
CONTINUOUS
370
-3
390
F
  0
LAYER
  5
1FF
100
AcDbSymbolTableRecord
100
AcDbLayerTableRecord
  2
06___PRT_ALL_SURFS_10
 70
0
 62
7
  6
CONTINUOUS
370
-3
390
F
  0
LAYER
  5
200
100
AcDbSymbolTableRecord
100
AcDbLayerTableRecord
  2
06___PRT_ALL_SURFS_11
 70
0
 62
7
  6
CONTINUOUS
370
-3
390
F
  0
LAYER
  5
201
100
AcDbSymbolTableRecord
100
AcDbLayerTableRecord
  2
06___PRT_ALL_SURFS_2
 70
0
 62
7
  6
CONTINUOUS
370
-3
390
F
  0
LAYER
  5
202
100
AcDbSymbolTableRecord
100
AcDbLayerTableRecord
  2
06___PRT_ALL_SURFS_3
 70
0
 62
7
  6
CONTINUOUS
370
-3
390
F
  0
LAYER
  5
203
100
AcDbSymbolTableRecord
100
AcDbLayerTableRecord
  2
06___PRT_ALL_SURFS_4
 70
0
 62
7
  6
CONTINUOUS
370
-3
390
F
  0
LAYER
  5
204
100
AcDbSymbolTableRecord
100
AcDbLayerTableRecord
  2
06___PRT_ALL_SURFS_6
 70
0
 62
7
  6
CONTINUOUS
370
-3
390
F
  0
LAYER
  5
205
100
AcDbSymbolTableRecord
100
AcDbLayerTableRecord
  2
06___PRT_ALL_SURFS_7
 70
0
 62
7
  6
CONTINUOUS
370
-3
390
F
  0
LAYER
  5
206
100
AcDbSymbolTableRecord
100
AcDbLayerTableRecord
  2
06___PRT_ALL_SURFS_9
 70
0
 62
7
  6
CONTINUOUS
370
-3
390
F
  0
LAYER
  5
207
100
AcDbSymbolTableRecord
100
AcDbLayerTableRecord
  2
1206_C_WAVE_180000
 70
0
 62
7
  6
CONTINUOUS
370
-3
390
F
  0
LAYER
  5
208
100
AcDbSymbolTableRecord
100
AcDbLayerTableRecord
  2
1206_C_WAVE_180000_1
 70
0
 62
7
  6
CONTINUOUS
370
-3
390
F
  0
LAYER
  5
209
100
AcDbSymbolTableRecord
100
AcDbLayerTableRecord
  2
1206_C_WAVE_180000_2
 70
0
 62
7
  6
CONTINUOUS
370
-3
390
F
  0
LAYER
  5
20A
100
AcDbSymbolTableRecord
100
AcDbLayerTableRecord
  2
1210_C_REF_250000
 70
0
 62
7
  6
CONTINUOUS
370
-3
390
F
  0
LAYER
  5
20B
100
AcDbSymbolTableRecord
100
AcDbLayerTableRecord
  2
1210_C_WAVE_250000
 70
0
 62
7
  6
CONTINUOUS
370
-3
390
F
  0
LAYER
  5
20C
100
AcDbSymbolTableRecord
100
AcDbLayerTableRecord
  2
2125-R1-RF-VIMAR_60000
 70
0
 62
7
  6
CONTINUOUS
370
-3
390
F
  0
LAYER
  5
20D
100
AcDbSymbolTableRecord
100
AcDbLayerTableRecord
  2
2125-R1-RF-VIMAR_60000_1
 70
0
 62
7
  6
CONTINUOUS
370
-3
390
F
  0
LAYER
  5
20E
100
AcDbSymbolTableRecord
100
AcDbLayerTableRecord
  2
2125-R1-RF-VIMAR_60000_2
 70
0
 62
7
  6
CONTINUOUS
370
-3
390
F
  0
LAYER
  5
20F
100
AcDbSymbolTableRecord
100
AcDbLayerTableRecord
  2
2125-R1-RF-VIMAR_60000_3
 70
0
 62
7
  6
CONTINUOUS
370
-3
390
F
  0
LAYER
  5
210
100
AcDbSymbolTableRecord
100
AcDbLayerTableRecord
  2
2125-R1-RF-VIMAR_60000_4
 70
0
 62
7
  6
CONTINUOUS
370
-3
390
F
  0
LAYER
  5
211
100
AcDbSymbolTableRecord
100
AcDbLayerTableRecord
  2
2125-R1-RF-VIMAR_60000_5
 70
0
 62
7
  6
CONTINUOUS
370
-3
390
F
  0
LAYER
  5
212
100
AcDbSymbolTableRecord
100
AcDbLayerTableRecord
  2
2220_C_REF_280000
 70
0
 62
7
  6
CONTINUOUS
370
-3
390
F
  0
LAYER
  5
213
100
AcDbSymbolTableRecord
100
AcDbLayerTableRecord
  2
2220_C_REF_280000_1
 70
0
 62
7
  6
CONTINUOUS
370
-3
390
F
  0
LAYER
  5
214
100
AcDbSymbolTableRecord
100
AcDbLayerTableRecord
  2
43000460A0
 70
0
 62
7
  6
CONTINUOUS
370
-3
390
F
  0
LAYER
  5
215
100
AcDbSymbolTableRecord
100
AcDbLayerTableRecord
  2
43000460A0_
 70
0
 62
7
  6
CONTINUOUS
370
-3
390
F
  0
LAYER
  5
216
100
AcDbSymbolTableRecord
100
AcDbLayerTableRecord
  2
43000826A0
 70
0
 62
7
  6
CONTINUOUS
370
-3
390
F
  0
LAYER
  5
217
100
AcDbSymbolTableRecord
100
AcDbLayerTableRecord
  2
43000839A0
 70
0
 62
7
  6
CONTINUOUS
370
-3
390
F
  0
LAYER
  5
218
100
AcDbSymbolTableRecord
100
AcDbLayerTableRecord
  2
43000846A0
 70
0
 62
7
  6
CONTINUOUS
370
-3
390
F
  0
LAYER
  5
219
100
AcDbSymbolTableRecord
100
AcDbLayerTableRecord
  2
43000847A0
 70
0
 62
7
  6
CONTINUOUS
370
-3
390
F
  0
LAYER
  5
21A
100
AcDbSymbolTableRecord
100
AcDbLayerTableRecord
  2
43000850A0
 70
0
 62
7
  6
CONTINUOUS
370
-3
390
F
  0
LAYER
  5
21B
100
AcDbSymbolTableRecord
100
AcDbLayerTableRecord
  2
43000850B0
 70
0
 62
7
  6
CONTINUOUS
370
-3
390
F
  0
LAYER
  5
21C
100
AcDbSymbolTableRecord
100
AcDbLayerTableRecord
  2
43000850C0
 70
0
 62
7
  6
CONTINUOUS
370
-3
390
F
  0
LAYER
  5
21D
100
AcDbSymbolTableRecord
100
AcDbLayerTableRecord
  2
43900850A0
 70
0
 62
7
  6
CONTINUOUS
370
-3
390
F
  0
LAYER
  5
21E
100
AcDbSymbolTableRecord
100
AcDbLayerTableRecord
  2
ASM0001
 70
0
 62
7
  6
CONTINUOUS
370
-3
390
F
  0
LAYER
  5
21F
100
AcDbSymbolTableRecord
100
AcDbLayerTableRecord
  2
ASM0002
 70
0
 62
7
  6
CONTINUOUS
370
-3
390
F
  0
LAYER
  5
220
100
AcDbSymbolTableRecord
100
AcDbLayerTableRecord
  2
ASSI
 70
0
 62
7
  6
CONTINUOUS
370
-3
390
F
  0
LAYER
  5
221
100
AcDbSymbolTableRecord
100
AcDbLayerTableRecord
  2
BOARD_PRODUCER_TESTIMONI_14_F0_
 70
0
 62
7
  6
CONTINUOUS
370
-3
390
F
  0
LAYER
  5
222
100
AcDbSymbolTableRecord
100
AcDbLayerTableRecord
  2
BOARD_PRODUCER_TESTIMONI_14_F_1
 70
0
 62
7
  6
CONTINUOUS
370
-3
390
F
  0
LAYER
  5
223
100
AcDbSymbolTableRecord
100
AcDbLayerTableRecord
  2
BUSSMANN_SS-5H_785000
 70
0
 62
7
  6
CONTINUOUS
370
-3
390
F
  0
LAYER
  5
224
100
AcDbSymbolTableRecord
100
AcDbLayerTableRecord
  2
CAP-E-6_3-11-2_5_1120000
 70
0
 62
7
  6
CONTINUOUS
370
-3
390
F
  0
LAYER
  5
225
100
AcDbSymbolTableRecord
100
AcDbLayerTableRecord
  2
CAP-E-6_3-11-2_5_1120000_1
 70
0
 62
7
  6
CONTINUOUS
370
-3
390
F
  0
LAYER
  5
226
100
AcDbSymbolTableRecord
100
AcDbLayerTableRecord
  2
CN-MSB02001-VIMAR_1000000
 70
0
 62
7
  6
CONTINUOUS
370
-3
390
F
  0
LAYER
  5
227
100
AcDbSymbolTableRecord
100
AcDbLayerTableRecord
  2
CN-MSB02001-VIMAR_1000000_1
 70
0
 62
7
  6
CONTINUOUS
370
-3
390
F
  0
LAYER
  5
228
100
AcDbSymbolTableRecord
100
AcDbLayerTableRecord
  2
CN-MSB02001-VIMAR_1000000_2
 70
0
 62
7
  6
CONTINUOUS
370
-3
390
F
  0
LAYER
  5
229
100
AcDbSymbolTableRecord
100
AcDbLayerTableRecord
  2
CN1-REF_SQUAREHOLE12_SPEA-VIMAR
 70
0
 62
7
  6
CONTINUOUS
370
-3
390
F
  0
LAYER
  5
22A
100
AcDbSymbolTableRecord
100
AcDbLayerTableRecord
  2
CN1-REF_SQUAREHOLE12_SPEA-VIM_1
 70
0
 62
7
  6
CONTINUOUS
370
-3
390
F
  0
LAYER
  5
22B
100
AcDbSymbolTableRecord
100
AcDbLayerTableRecord
  2
CN1-REF_SQUAREHOLE12_SPEA-VIM_2
 70
0
 62
7
  6
CONTINUOUS
370
-3
390
F
  0
LAYER
  5
22C
100
AcDbSymbolTableRecord
100
AcDbLayerTableRecord
  2
CN1-REF_SQUAREHOLE12_SPEA-VIM_3
 70
0
 62
7
  6
CONTINUOUS
370
-3
390
F
  0
LAYER
  5
22D
100
AcDbSymbolTableRecord
100
AcDbLayerTableRecord
  2
CN1-TP10_SMD-VIMAR_10000
 70
0
 62
7
  6
CONTINUOUS
370
-3
390
F
  0
LAYER
  5
22E
100
AcDbSymbolTableRecord
100
AcDbLayerTableRecord
  2
CN1-TP10_SMD-VIMAR_10000_1
 70
0
 62
7
  6
CONTINUOUS
370
-3
390
F
  0
LAYER
  5
22F
100
AcDbSymbolTableRecord
100
AcDbLayerTableRecord
  2
CN1-TP10_SMD-VIMAR_10000_2
 70
0
 62
7
  6
CONTINUOUS
370
-3
390
F
  0
LAYER
  5
230
100
AcDbSymbolTableRecord
100
AcDbLayerTableRecord
  2
CN1-TP10_SMD-VIMAR_10000_3
 70
0
 62
7
  6
CONTINUOUS
370
-3
390
F
  0
LAYER
  5
231
100
AcDbSymbolTableRecord
100
AcDbLayerTableRecord
  2
CN_M_THT_SAURO_MSM_R1_P3_P5_152
 70
0
 62
7
  6
CONTINUOUS
370
-3
390
F
  0
LAYER
  5
232
100
AcDbSymbolTableRecord
100
AcDbLayerTableRecord
  2
CN_SMT_HARWIN_S7121-42R_TET_170
 70
0
 62
7
  6
CONTINUOUS
370
-3
390
F
  0
LAYER
  5
233
100
AcDbSymbolTableRecord
100
AcDbLayerTableRecord
  2
CN_SMT_HARWIN_S7121-42R_TET_1_1
 70
0
 62
7
  6
CONTINUOUS
370
-3
390
F
  0
LAYER
  5
234
100
AcDbSymbolTableRecord
100
AcDbLayerTableRecord
  2
CN_SMT_HARWIN_S7121-42R_TET_1_2
 70
0
 62
7
  6
CONTINUOUS
370
-3
390
F
  0
LAYER
  5
235
100
AcDbSymbolTableRecord
100
AcDbLayerTableRecord
  2
CN_SMT_HARWIN_S7121-42R_TET_1_3
 70
0
 62
7
  6
CONTINUOUS
370
-3
390
F
  0
LAYER
  5
236
100
AcDbSymbolTableRecord
100
AcDbLayerTableRecord
  2
CN_SMT_HARWIN_S7121-42R_TET_1_4
 70
0
 62
7
  6
CONTINUOUS
370
-3
390
F
  0
LAYER
  5
237
100
AcDbSymbolTableRecord
100
AcDbLayerTableRecord
  2
CN_SMT_HARWIN_S7121-42R_TET_1_5
 70
0
 62
7
  6
CONTINUOUS
370
-3
390
F
  0
LAYER
  5
238
100
AcDbSymbolTableRecord
100
AcDbLayerTableRecord
  2
CN_SMT_HARWIN_S7121-42R_TET_1_6
 70
0
 62
7
  6
CONTINUOUS
370
-3
390
F
  0
LAYER
  5
239
100
AcDbSymbolTableRecord
100
AcDbLayerTableRecord
  2
CN_SMT_HARWIN_S7121-42R_TET_1_7
 70
0
 62
7
  6
CONTINUOUS
370
-3
390
F
  0
LAYER
  5
23A
100
AcDbSymbolTableRecord
100
AcDbLayerTableRecord
  2
CN_SMT_HARWIN_S7121-42R_TET_1_8
 70
0
 62
7
  6
CONTINUOUS
370
-3
390
F
  0
LAYER
  5
23B
100
AcDbSymbolTableRecord
100
AcDbLayerTableRecord
  2
CN_SMT_HARWIN_S7121-42R_TET_1_9
 70
0
 62
7
  6
CONTINUOUS
370
-3
390
F
  0
LAYER
  5
23C
100
AcDbSymbolTableRecord
100
AcDbLayerTableRecord
  2
CN_SMT_HARWIN_S7121-42R_TET__10
 70
0
 62
7
  6
CONTINUOUS
370
-3
390
F
  0
LAYER
  5
23D
100
AcDbSymbolTableRecord
100
AcDbLayerTableRecord
  2
CN_SMT_HARWIN_S7121-42R_TET__11
 70
0
 62
7
  6
CONTINUOUS
370
-3
390
F
  0
LAYER
  5
23E
100
AcDbSymbolTableRecord
100
AcDbLayerTableRecord
  2
COLOR1
 70
0
 62
7
  6
CONTINUOUS
370
-3
390
F
  0
LAYER
  5
23F
100
AcDbSymbolTableRecord
100
AcDbLayerTableRecord
  2
COLOR11
 70
0
 62
7
  6
CONTINUOUS
370
-3
390
F
  0
LAYER
  5
240
100
AcDbSymbolTableRecord
100
AcDbLayerTableRecord
  2
COLOR15
 70
0
 62
7
  6
CONTINUOUS
370
-3
390
F
  0
LAYER
  5
241
100
AcDbSymbolTableRecord
100
AcDbLayerTableRecord
  2
COLOR17
 70
0
 62
7
  6
CONTINUOUS
370
-3
390
F
  0
LAYER
  5
242
100
AcDbSymbolTableRecord
100
AcDbLayerTableRecord
  2
COLOR23
 70
0
 62
7
  6
CONTINUOUS
370
-3
390
F
  0
LAYER
  5
243
100
AcDbSymbolTableRecord
100
AcDbLayerTableRecord
  2
COLOR27
 70
0
 62
7
  6
CONTINUOUS
370
-3
390
F
  0
LAYER
  5
244
100
AcDbSymbolTableRecord
100
AcDbLayerTableRecord
  2
COLOR5
 70
0
 62
7
  6
CONTINUOUS
370
-3
390
F
  0
LAYER
  5
245
100
AcDbSymbolTableRecord
100
AcDbLayerTableRecord
  2
COORDINATE
 70
0
 62
7
  6
CONTINUOUS
370
-3
390
F
  0
LAYER
  5
246
100
AcDbSymbolTableRecord
100
AcDbLayerTableRecord
  2
COORD_ORIGINE
 70
0
 62
7
  6
CONTINUOUS
370
-3
390
F
  0
LAYER
  5
247
100
AcDbSymbolTableRecord
100
AcDbLayerTableRecord
  2
COPY_PUBLISH
 70
0
 62
7
  6
CONTINUOUS
370
-3
390
F
  0
LAYER
  5
248
100
AcDbSymbolTableRecord
100
AcDbLayerTableRecord
  2
COSMETIC
 70
0
 62
7
  6
CONTINUOUS
370
-3
390
F
  0
LAYER
  5
249
100
AcDbSymbolTableRecord
100
AcDbLayerTableRecord
  2
COSMETICHE
 70
0
 62
7
  6
CONTINUOUS
370
-3
390
F
  0
LAYER
  5
24A
100
AcDbSymbolTableRecord
100
AcDbLayerTableRecord
  2
COSMETICI
 70
0
 62
7
  6
CONTINUOUS
370
-3
390
F
  0
LAYER
  5
24B
100
AcDbSymbolTableRecord
100
AcDbLayerTableRecord
  2
CURVE
 70
0
 62
7
  6
CONTINUOUS
370
-3
390
F
  0
LAYER
  5
24C
100
AcDbSymbolTableRecord
100
AcDbLayerTableRecord
  2
DO-214AC_230000
 70
0
 62
7
  6
CONTINUOUS
370
-3
390
F
  0
LAYER
  5
24D
100
AcDbSymbolTableRecord
100
AcDbLayerTableRecord
  2
DO-214AC_230000_1
 70
0
 62
7
  6
CONTINUOUS
370
-3
390
F
  0
LAYER
  5
24E
100
AcDbSymbolTableRecord
100
AcDbLayerTableRecord
  2
DO-214AC_230000_2
 70
0
 62
7
  6
CONTINUOUS
370
-3
390
F
  0
LAYER
  5
24F
100
AcDbSymbolTableRecord
100
AcDbLayerTableRecord
  2
DO-214AC_230000_3
 70
0
 62
7
  6
CONTINUOUS
370
-3
390
F
  0
LAYER
  5
250
100
AcDbSymbolTableRecord
100
AcDbLayerTableRecord
  2
DO-214AC_230000_4
 70
0
 62
7
  6
CONTINUOUS
370
-3
390
F
  0
LAYER
  5
251
100
AcDbSymbolTableRecord
100
AcDbLayerTableRecord
  2
DO-214AC_230000_5
 70
0
 62
7
  6
CONTINUOUS
370
-3
390
F
  0
LAYER
  5
252
100
AcDbSymbolTableRecord
100
AcDbLayerTableRecord
  2
DO-214AC_230000_6
 70
0
 62
7
  6
CONTINUOUS
370
-3
390
F
  0
LAYER
  5
253
100
AcDbSymbolTableRecord
100
AcDbLayerTableRecord
  2
DO213AB_MELF_WAVE_250000
 70
0
 62
7
  6
CONTINUOUS
370
-3
390
F
  0
LAYER
  5
254
100
AcDbSymbolTableRecord
100
AcDbLayerTableRecord
  2
DO213AB_MELF_WAVE_250000_1
 70
0
 62
7
  6
CONTINUOUS
370
-3
390
F
  0
LAYER
  5
255
100
AcDbSymbolTableRecord
100
AcDbLayerTableRecord
  2
DO213AB_MELF_WAVE_250000_2
 70
0
 62
7
  6
CONTINUOUS
370
-3
390
F
  0
LAYER
  5
256
100
AcDbSymbolTableRecord
100
AcDbLayerTableRecord
  2
DO213AB_MELF_WAVE_250000_3
 70
0
 62
7
  6
CONTINUOUS
370
-3
390
F
  0
LAYER
  5
257
100
AcDbSymbolTableRecord
100
AcDbLayerTableRecord
  2
DRAFT
 70
0
 62
7
  6
CONTINUOUS
370
-3
390
F
  0
LAYER
  5
258
100
AcDbSymbolTableRecord
100
AcDbLayerTableRecord
  2
E2_MARK_10000
 70
0
 62
7
  6
CONTINUOUS
370
-3
390
F
  0
LAYER
  5
259
100
AcDbSymbolTableRecord
100
AcDbLayerTableRecord
  2
GEOMETRIA_SOLIDA
 70
0
 62
7
  6
CONTINUOUS
370
-3
390
F
  0
LAYER
  5
25A
100
AcDbSymbolTableRecord
100
AcDbLayerTableRecord
  2
GEOMETRIA_SOLIDA_1
 70
0
 62
7
  6
CONTINUOUS
370
-3
390
F
  0
LAYER
  5
25B
100
AcDbSymbolTableRecord
100
AcDbLayerTableRecord
  2
IMPORT_IGES
 70
0
 62
7
  6
CONTINUOUS
370
-3
390
F
  0
LAYER
  5
25C
100
AcDbSymbolTableRecord
100
AcDbLayerTableRecord
  2
INTF_1
 70
0
 62
7
  6
CONTINUOUS
370
-3
390
F
  0
LAYER
  5
25D
100
AcDbSymbolTableRecord
100
AcDbLayerTableRecord
  2
INTF_2
 70
0
 62
7
  6
CONTINUOUS
370
-3
390
F
  0
LAYER
  5
25E
100
AcDbSymbolTableRecord
100
AcDbLayerTableRecord
  2
INTF_3
 70
0
 62
7
  6
CONTINUOUS
370
-3
390
F
  0
LAYER
  5
25F
100
AcDbSymbolTableRecord
100
AcDbLayerTableRecord
  2
INTF_BLANK
 70
0
 62
7
  6
CONTINUOUS
370
-3
390
F
  0
LAYER
  5
260
100
AcDbSymbolTableRecord
100
AcDbLayerTableRecord
  2
INTF_RED
 70
0
 62
7
  6
CONTINUOUS
370
-3
390
F
  0
LAYER
  5
261
100
AcDbSymbolTableRecord
100
AcDbLayerTableRecord
  2
K_THT_TE_RT424F48_1570000
 70
0
 62
7
  6
CONTINUOUS
370
-3
390
F
  0
LAYER
  5
262
100
AcDbSymbolTableRecord
100
AcDbLayerTableRecord
  2
LOGO_RESIST-RESTYLING_10000
 70
0
 62
7
  6
CONTINUOUS
370
-3
390
F
  0
LAYER
  5
263
100
AcDbSymbolTableRecord
100
AcDbLayerTableRecord
  2
L_SRR0604-RF-VIMAR_480000
 70
0
 62
7
  6
CONTINUOUS
370
-3
390
F
  0
LAYER
  5
264
100
AcDbSymbolTableRecord
100
AcDbLayerTableRecord
  2
L_SRR0604-RF-VIMAR_480000_1
 70
0
 62
7
  6
CONTINUOUS
370
-3
390
F
  0
LAYER
  5
265
100
AcDbSymbolTableRecord
100
AcDbLayerTableRecord
  2
L_SRR0604-RF-VIMAR_480000_10
 70
0
 62
7
  6
CONTINUOUS
370
-3
390
F
  0
LAYER
  5
266
100
AcDbSymbolTableRecord
100
AcDbLayerTableRecord
  2
L_SRR0604-RF-VIMAR_480000_11
 70
0
 62
7
  6
CONTINUOUS
370
-3
390
F
  0
LAYER
  5
267
100
AcDbSymbolTableRecord
100
AcDbLayerTableRecord
  2
L_SRR0604-RF-VIMAR_480000_2
 70
0
 62
7
  6
CONTINUOUS
370
-3
390
F
  0
LAYER
  5
268
100
AcDbSymbolTableRecord
100
AcDbLayerTableRecord
  2
L_SRR0604-RF-VIMAR_480000_3
 70
0
 62
7
  6
CONTINUOUS
370
-3
390
F
  0
LAYER
  5
269
100
AcDbSymbolTableRecord
100
AcDbLayerTableRecord
  2
L_SRR0604-RF-VIMAR_480000_4
 70
0
 62
7
  6
CONTINUOUS
370
-3
390
F
  0
LAYER
  5
26A
100
AcDbSymbolTableRecord
100
AcDbLayerTableRecord
  2
L_SRR0604-RF-VIMAR_480000_5
 70
0
 62
7
  6
CONTINUOUS
370
-3
390
F
  0
LAYER
  5
26B
100
AcDbSymbolTableRecord
100
AcDbLayerTableRecord
  2
L_SRR0604-RF-VIMAR_480000_6
 70
0
 62
7
  6
CONTINUOUS
370
-3
390
F
  0
LAYER
  5
26C
100
AcDbSymbolTableRecord
100
AcDbLayerTableRecord
  2
L_SRR0604-RF-VIMAR_480000_7
 70
0
 62
7
  6
CONTINUOUS
370
-3
390
F
  0
LAYER
  5
26D
100
AcDbSymbolTableRecord
100
AcDbLayerTableRecord
  2
L_SRR0604-RF-VIMAR_480000_8
 70
0
 62
7
  6
CONTINUOUS
370
-3
390
F
  0
LAYER
  5
26E
100
AcDbSymbolTableRecord
100
AcDbLayerTableRecord
  2
L_SRR0604-RF-VIMAR_480000_9
 70
0
 62
7
  6
CONTINUOUS
370
-3
390
F
  0
LAYER
  5
26F
100
AcDbSymbolTableRecord
100
AcDbLayerTableRecord
  2
MINIMELF_R_REF_140000
 70
0
 62
7
  6
CONTINUOUS
370
-3
390
F
  0
LAYER
  5
270
100
AcDbSymbolTableRecord
100
AcDbLayerTableRecord
  2
MINIMELF_R_REF_140000_1
 70
0
 62
7
  6
CONTINUOUS
370
-3
390
F
  0
LAYER
  5
271
100
AcDbSymbolTableRecord
100
AcDbLayerTableRecord
  2
MINIMELF_R_WAVE_140000
 70
0
 62
7
  6
CONTINUOUS
370
-3
390
F
  0
LAYER
  5
272
100
AcDbSymbolTableRecord
100
AcDbLayerTableRecord
  2
MINIMELF_R_WAVE_140000_1
 70
0
 62
7
  6
CONTINUOUS
370
-3
390
F
  0
LAYER
  5
273
100
AcDbSymbolTableRecord
100
AcDbLayerTableRecord
  2
MR2P5_SAURO_MSM02001_STH_152000
 70
0
 62
7
  6
CONTINUOUS
370
-3
390
F
  0
LAYER
  5
274
100
AcDbSymbolTableRecord
100
AcDbLayerTableRecord
  2
NO-PB_MARK_10000
 70
0
 62
7
  6
CONTINUOUS
370
-3
390
F
  0
LAYER
  5
275
100
AcDbSymbolTableRecord
100
AcDbLayerTableRecord
  2
NOTE
 70
0
 62
7
  6
CONTINUOUS
370
-3
390
F
  0
LAYER
  5
276
100
AcDbSymbolTableRecord
100
AcDbLayerTableRecord
  2
PIANI
 70
0
 62
7
  6
CONTINUOUS
370
-3
390
F
  0
LAYER
  5
277
100
AcDbSymbolTableRecord
100
AcDbLayerTableRecord
  2
PIANI_ORIGINE
 70
0
 62
7
  6
CONTINUOUS
370
-3
390
F
  0
LAYER
  5
278
100
AcDbSymbolTableRecord
100
AcDbLayerTableRecord
  2
PRJ_00545
 70
0
 62
7
  6
CONTINUOUS
370
-3
390
F
  0
LAYER
  5
279
100
AcDbSymbolTableRecord
100
AcDbLayerTableRecord
  2
PRJ_00546
 70
0
 62
7
  6
CONTINUOUS
370
-3
390
F
  0
LAYER
  5
27A
100
AcDbSymbolTableRecord
100
AcDbLayerTableRecord
  2
PUNTI
 70
0
 62
7
  6
CONTINUOUS
370
-3
390
F
  0
LAYER
  5
27B
100
AcDbSymbolTableRecord
100
AcDbLayerTableRecord
  2
RACCORDO
 70
0
 62
7
  6
CONTINUOUS
370
-3
390
F
  0
LAYER
  5
27C
100
AcDbSymbolTableRecord
100
AcDbLayerTableRecord
  2
RES-ASS-5_0-15_0-0_7-22_0_51000
 70
0
 62
7
  6
CONTINUOUS
370
-3
390
F
  0
LAYER
  5
27D
100
AcDbSymbolTableRecord
100
AcDbLayerTableRecord
  2
RGB____0____0____0__
 70
0
 62
7
  6
CONTINUOUS
370
-3
390
F
  0
LAYER
  5
27E
100
AcDbSymbolTableRecord
100
AcDbLayerTableRecord
  2
SIMBOLI
 70
0
 62
7
  6
CONTINUOUS
370
-3
390
F
  0
LAYER
  5
27F
100
AcDbSymbolTableRecord
100
AcDbLayerTableRecord
  2
SMUSSO
 70
0
 62
7
  6
CONTINUOUS
370
-3
390
F
  0
LAYER
  5
280
100
AcDbSymbolTableRecord
100
AcDbLayerTableRecord
  2
SNAPLINE
 70
0
 62
7
  6
CONTINUOUS
370
-3
390
F
  0
LAYER
  5
281
100
AcDbSymbolTableRecord
100
AcDbLayerTableRecord
  2
SOD80_SOD-213AA_MINIMELF_WAVE_1
 70
0
 62
7
  6
CONTINUOUS
370
-3
390
F
  0
LAYER
  5
282
100
AcDbSymbolTableRecord
100
AcDbLayerTableRecord
  2
SOD80_SOD-213AA_MINIMELF_WAVE_2
 70
0
 62
7
  6
CONTINUOUS
370
-3
390
F
  0
LAYER
  5
283
100
AcDbSymbolTableRecord
100
AcDbLayerTableRecord
  2
SOD80_SOD-213AA_MINIMELF_WAVE_3
 70
0
 62
7
  6
CONTINUOUS
370
-3
390
F
  0
LAYER
  5
284
100
AcDbSymbolTableRecord
100
AcDbLayerTableRecord
  2
SOD80_SOD-213AA_MINIMELF_WAVE_4
 70
0
 62
7
  6
CONTINUOUS
370
-3
390
F
  0
LAYER
  5
285
100
AcDbSymbolTableRecord
100
AcDbLayerTableRecord
  2
SOD80_SOD-213AA_MINIMELF_WAVE_5
 70
0
 62
7
  6
CONTINUOUS
370
-3
390
F
  0
LAYER
  5
286
100
AcDbSymbolTableRecord
100
AcDbLayerTableRecord
  2
SOD80_SOD-213AA_MINIMELF_WAVE_6
 70
0
 62
7
  6
CONTINUOUS
370
-3
390
F
  0
LAYER
  5
287
100
AcDbSymbolTableRecord
100
AcDbLayerTableRecord
  2
SOD80_SOD-213AA_MINIMELF_WAVE_7
 70
0
 62
7
  6
CONTINUOUS
370
-3
390
F
  0
LAYER
  5
288
100
AcDbSymbolTableRecord
100
AcDbLayerTableRecord
  2
SUB_SMA_143000
 70
0
 62
7
  6
CONTINUOUS
370
-3
390
F
  0
LAYER
  5
289
100
AcDbSymbolTableRecord
100
AcDbLayerTableRecord
  2
SUB_SMA_143000_1
 70
0
 62
7
  6
CONTINUOUS
370
-3
390
F
  0
LAYER
  5
28A
100
AcDbSymbolTableRecord
100
AcDbLayerTableRecord
  2
SUB_SMA_143000_2
 70
0
 62
7
  6
CONTINUOUS
370
-3
390
F
  0
LAYER
  5
28B
100
AcDbSymbolTableRecord
100
AcDbLayerTableRecord
  2
SUB_SMA_143000_3
 70
0
 62
7
  6
CONTINUOUS
370
-3
390
F
  0
LAYER
  5
28C
100
AcDbSymbolTableRecord
100
AcDbLayerTableRecord
  2
SUB_SMA_143000_4
 70
0
 62
7
  6
CONTINUOUS
370
-3
390
F
  0
LAYER
  5
28D
100
AcDbSymbolTableRecord
100
AcDbLayerTableRecord
  2
SUB_SMA_143000_5
 70
0
 62
7
  6
CONTINUOUS
370
-3
390
F
  0
LAYER
  5
28E
100
AcDbSymbolTableRecord
100
AcDbLayerTableRecord
  2
SUB_SMA_143000_6
 70
0
 62
7
  6
CONTINUOUS
370
-3
390
F
  0
LAYER
  5
28F
100
AcDbSymbolTableRecord
100
AcDbLayerTableRecord
  2
SUPERFICI
 70
0
 62
7
  6
CONTINUOUS
370
-3
390
F
  0
LAYER
  5
290
100
AcDbSymbolTableRecord
100
AcDbLayerTableRecord
  2
SUPERFICI_1
 70
0
 62
7
  6
CONTINUOUS
370
-3
390
F
  0
LAYER
  5
291
100
AcDbSymbolTableRecord
100
AcDbLayerTableRecord
  2
TP-RND-1_5-F1_0MM_1000
 70
0
 62
7
  6
CONTINUOUS
370
-3
390
F
  0
LAYER
  5
292
100
AcDbSymbolTableRecord
100
AcDbLayerTableRecord
  2
TP-RND-1_5-F1_0MM_1000_1
 70
0
 62
7
  6
CONTINUOUS
370
-3
390
F
  0
LAYER
  5
293
100
AcDbSymbolTableRecord
100
AcDbLayerTableRecord
  2
TP-RND-1_5-F1_0MM_1000_2
 70
0
 62
7
  6
CONTINUOUS
370
-3
390
F
  0
LAYER
  5
294
100
AcDbSymbolTableRecord
100
AcDbLayerTableRecord
  2
TP-RND-1_5-F1_0MM_1000_3
 70
0
 62
7
  6
CONTINUOUS
370
-3
390
F
  0
LAYER
  5
295
100
AcDbSymbolTableRecord
100
AcDbLayerTableRecord
  2
TP-RND-1_5-F1_0MM_1000_4
 70
0
 62
7
  6
CONTINUOUS
370
-3
390
F
  0
LAYER
  5
296
100
AcDbSymbolTableRecord
100
AcDbLayerTableRecord
  2
TP-RND-1_5-F1_0MM_1000_5
 70
0
 62
7
  6
CONTINUOUS
370
-3
390
F
  0
LAYER
  5
297
100
AcDbSymbolTableRecord
100
AcDbLayerTableRecord
  2
TRASH
 70
0
 62
7
  6
CONTINUOUS
370
-3
390
F
  0
LAYER
  5
298
100
AcDbSymbolTableRecord
100
AcDbLayerTableRecord
  2
VG_CN_THT_CONTATTO_SMART_RELE_1
 70
0
 62
7
  6
CONTINUOUS
370
-3
390
F
  0
LAYER
  5
299
100
AcDbSymbolTableRecord
100
AcDbLayerTableRecord
  2
VG_CN_THT_CONTATTO_SMART_RELE_2
 70
0
 62
7
  6
CONTINUOUS
370
-3
390
F
  0
LAYER
  5
29A
100
AcDbSymbolTableRecord
100
AcDbLayerTableRecord
  2
VG_CN_THT_CONTATTO_SMART_RELE_3
 70
0
 62
7
  6
CONTINUOUS
370
-3
390
F
  0
LAYER
  5
29B
100
AcDbSymbolTableRecord
100
AcDbLayerTableRecord
  2
VG_CN_THT_CONTATTO_SMART_RELE__
 70
0
 62
7
  6
CONTINUOUS
370
-3
390
F
  0
LAYER
  5
29C
100
AcDbSymbolTableRecord
100
AcDbLayerTableRecord
  2
VG_FUSE-BOX-8_35-4_0-7_8-5_08-0
 70
0
 62
7
  6
CONTINUOUS
370
-3
390
F
  0
LAYER
  5
29D
100
AcDbSymbolTableRecord
100
AcDbLayerTableRecord
  2
VG_M_2P_VERT_P_5MM_10MM_H_15MM_
 70
0
 62
7
  6
CONTINUOUS
370
-3
390
F
  0
LAYER
  5
29E
100
AcDbSymbolTableRecord
100
AcDbLayerTableRecord
  2
VG_M_3P_VERT_P_5MM_24A_H_15MM_M
 70
0
 62
7
  6
CONTINUOUS
370
-3
390
F
  0
LAYER
  5
29F
100
AcDbSymbolTableRecord
100
AcDbLayerTableRecord
  2
VG_RES-RAD-4_0-15_0-4_0-0_7_150
 70
0
 62
7
  6
CONTINUOUS
370
-3
390
F
  0
LAYER
  5
2A0
100
AcDbSymbolTableRecord
100
AcDbLayerTableRecord
  2
VG_RES-RAD-4_0-15_0-4_0-0_7_1_1
 70
0
 62
7
  6
CONTINUOUS
370
-3
390
F
  0
LAYER
  5
2A1
100
AcDbSymbolTableRecord
100
AcDbLayerTableRecord
  2
VG_RES-RAD-5_0-15_0-5_0-0_7_100
 70
0
 62
7
  6
CONTINUOUS
370
-3
390
F
  0
LAYER
  5
2A2
100
AcDbSymbolTableRecord
100
AcDbLayerTableRecord
  2
VG_RES-RAD-5_0-15_0-5_0-0_7_150
 70
0
 62
7
  6
CONTINUOUS
370
-3
390
F
  0
LAYER
  5
2A3
100
AcDbSymbolTableRecord
100
AcDbLayerTableRecord
  2
VG_RES-RAD-5_0-15_0-5_0-0_7_1_1
 70
0
 62
7
  6
CONTINUOUS
370
-3
390
F
  0
LAYER
  5
2A4
100
AcDbSymbolTableRecord
100
AcDbLayerTableRecord
  2
VG_RES-RAD-5_0-15_0-5_0-0_7_1_2
 70
0
 62
7
  6
CONTINUOUS
370
-3
390
F
  0
LAYER
  5
2A5
100
AcDbSymbolTableRecord
100
AcDbLayerTableRecord
  2
VG_RES-RAD-5_0-15_0-5_0-0_7_1_3
 70
0
 62
7
  6
CONTINUOUS
370
-3
390
F
  0
LAYER
  5
2A6
100
AcDbSymbolTableRecord
100
AcDbLayerTableRecord
  2
VG_VAR_S05_D7_S4_3_H8_5_850000
 70
0
 62
7
  6
CONTINUOUS
370
-3
390
F
  0
LAYER
  5
2A7
100
AcDbSymbolTableRecord
100
AcDbLayerTableRecord
  2
VG_VAR_S05_D7_S4_3_H8_5_85000_1
 70
0
 62
7
  6
CONTINUOUS
370
-3
390
F
  0
LAYER
  5
2A8
100
AcDbSymbolTableRecord
100
AcDbLayerTableRecord
  2
VG_VAR_S05_D7_S4_3_H8_5_85000_2
 70
0
 62
7
  6
CONTINUOUS
370
-3
390
F
  0
LAYER
  5
2A9
100
AcDbSymbolTableRecord
100
AcDbLayerTableRecord
  2
___SHELL
 70
0
 62
7
  6
CONTINUOUS
370
-3
390
F
  0
ENDTAB
  0
TABLE
  2
STYLE
  5
3
100
AcDbSymbolTable
 70
1
  0
STYLE
  5
11
100
AcDbSymbolTableRecord
100
AcDbTextStyleTableRecord
  2
STANDARD
 70
0
 40
0.0
 41
0.8
 50
0.0
 71
0
 42
0.2
  3
txt
  4

  0
STYLE
  5
2AA
100
AcDbSymbolTableRecord
100
AcDbTextStyleTableRecord
  2
TEXTSTYLE_1
 70
0
 40
0.0
 41
0.8
 50
0.0
 71
0
 42
0.2
  3
gdt
  4

  0
ENDTAB
  0
TABLE
  2
VIEW
  5
6
100
AcDbSymbolTable
 70
0
  0
ENDTAB
  0
TABLE
  2
UCS
  5
7
100
AcDbSymbolTable
 70
0
  0
ENDTAB
  0
TABLE
  2
APPID
  5
9
100
AcDbSymbolTable
 70
1
  0
APPID
  5
2AB
100
AcDbSymbolTableRecord
100
AcDbRegAppTableRecord
  2
ACAD
 70
0
  0
ENDTAB
  0
TABLE
  2
BLOCK_RECORD
  5
1
100
AcDbSymbolTable
 70
0
  0
BLOCK_RECORD
  5
2AC
100
AcDbSymbolTableRecord
100
AcDbBlockTableRecord
  2
*Model_Space
  0
BLOCK_RECORD
  5
2AD
100
AcDbSymbolTableRecord
100
AcDbBlockTableRecord
  2
*Paper_Space
  0
BLOCK_RECORD
  5
2AE
100
AcDbSymbolTableRecord
100
AcDbBlockTableRecord
  2
_FILLED
  0
ENDTAB
  0
TABLE
  2
DIMSTYLE
  5
A
100
AcDbSymbolTable
 70
1
100
AcDbDimStyleTable
 71
0
  0
DIMSTYLE
105
2AF
100
AcDbSymbolTableRecord
100
AcDbDimStyleTableRecord
  2
STANDARD
 70
0
  3

  4

 40
1.0
 41
3.0
 42
0.5
 43
0.38
 44
1.5
 45
0.0
 46
0.0
 47
0.01
 48
0.01
140
3.0
141
0.09
142
0.0
143
25.4
144
1.0
145
0.0
146
1.0
147
0.625
 71
1.0
 72
0.0
 73
0
 74
0
 75
0
 76
0
 77
1
 78
8
 79
2
170
0
171
1
172
0
173
0
174
0
175
0
176
0
177
0
178
0
270
2
179
2
271
2
272
2
273
2
274
2
275
0
280
0
281
0
282
0
283
1
284
8
285
0
286
0
287
3
288
0
340
11
278
44
341
2AE
342
2AE
343
2AE
344
2AE
  0
ENDTAB
  0
ENDSEC
  0
SECTION
  2
BLOCKS
  0
BLOCK
  5
20
100
AcDbEntity
  8
0
100
AcDbBlockBegin
  2
*Model_Space
 70
0
 10
0.0
 20
0.0
 30
0.0
  3
*Model_Space
  1

  0
ENDBLK
  5
21
100
AcDbEntity
  8
0
100
AcDbBlockEnd
  0
BLOCK
  5
1C
100
AcDbEntity
  8
0
100
AcDbBlockBegin
  2
*Paper_Space
 70
0
 10
0.0
 20
0.0
 30
0.0
  3
*Paper_Space
  1

  0
ENDBLK
  5
1D
100
AcDbEntity
  8
0
100
AcDbBlockEnd
  0
BLOCK
  5
2B0
100
AcDbEntity
  8
0
100
AcDbBlockBegin
  2
_FILLED
 70
64
 10
0.0
 20
0.0
  3
_FILLED
  1

  0
SOLID
  5
2B1
100
AcDbEntity
  8
0
  6
BYBLOCK
 62
0
100
AcDbTrace
 10
0.0
 20
0.0
 11
-1.0
 21
0.3166666667
 12
-1.0
 22
-0.3166666667
 13
-1.0
 23
-0.3166666667
  0
ENDBLK
  5
2B2
100
AcDbEntity
  8
0
  6
BYBLOCK
 62
0
100
AcDbBlockEnd
  0
ENDSEC
  0
SECTION
  2
ENTITIES
  0
LINE
  5
2B3
100
AcDbEntity
  8
RACCORDO
100
AcDbLine
 62
7
  6
CONTINUOUS
 10
-19.5804575395
 20
2.2503071016
 11
-19.5804575395
 21
-2.1496928984
  0
LWPOLYLINE
  5
2B4
100
AcDbEntity
  8
RACCORDO
100
AcDbPolyline
 62
250
  6
CONTINUOUS
 90
19
 70
0
 10
-18.2681932957
 20
-10.6874591155
 10
-18.2670503952
 20
-10.7074715852
 10
-18.2641976865
 20
-10.7267653041
 10
-18.2596351695
 20
-10.7453402723
 10
-18.2531652573
 20
-10.7633934526
 10
-18.2449855369
 20
-10.7807278822
 10
-18.2356887694
 20
-10.7967526721
 10
-18.2252598729
 20
-10.8113032447
 10
-18.2137139293
 20
-10.8245441778
 10
-18.2016889455
 20
-10.8363783153
 10
-18.1894222398
 20
-10.8466643526
 10
-18.1766764938
 20
-10.8555435945
 10
-18.1633777595
 20
-10.8633427991
 10
-18.149634756
 20
-10.8701961494
 10
-18.1353387641
 20
-10.8759694625
 10
-18.1200896788
 20
-10.8805869486
 10
-18.1037541316
 20
-10.8840233443
 10
-18.0864654908
 20
-10.8863039129
 10
-18.0682237566
 20
-10.8874286545
  0
LWPOLYLINE
  5
2B5
100
AcDbEntity
  8
RACCORDO
100
AcDbPolyline
 62
250
  6
CONTINUOUS
 90
5
 70
0
 10
-18.6712568674
 20
-2.4058489203
 10
-18.6720427886
 20
-2.3905784241
 10
-18.6727811831
 20
-2.3733860558
 10
-18.6734453201
 20
-2.3549128591
 10
-18.6740230251
 20
-2.3357434392
  0
LWPOLYLINE
  5
2B6
100
AcDbEntity
  8
RACCORDO
100
AcDbPolyline
 62
250
  6
CONTINUOUS
 90
19
 70
0
 10
-18.5681476042
 20
-10.6874591155
 10
-18.565697211
 20
-10.7368083891
 10
-18.558486452
 20
-10.785182261
 10
-18.5467297694
 20
-10.8321394855
 10
-18.5305823321
 20
-10.8775093325
 10
-18.5103798449
 20
-10.9206711589
 10
-18.4868512148
 20
-10.9606579335
 10
-18.4606084424
 20
-10.9971665329
 10
-18.4320587933
 20
-11.0302527844
 10
-18.4018490866
 20
-11.0597194727
 10
-18.3709029235
 20
-11.0852909177
 10
-18.33926802
 20
-11.1074849941
 10
-18.3060763027
 20
-11.127135863
 10
-18.271607
 20
-11.1441081476
 10
-18.2360034096
 20
-11.1583597133
 10
-18.1978680038
 20
-11.1702581429
 10
-18.1567827905
 20
-11.1794611262
 10
-18.1134762299
 20
-11.1853225617
 10
-18.0682237566
 20
-11.1873829631
  0
LINE
  5
2B7
100
AcDbEntity
  8
RACCORDO
100
AcDbLine
 62
250
  6
CONTINUOUS
 10
-18.6740230251
 20
-2.3357434392
 11
-18.6749654558
 21
-2.2951711815
  0
LINE
  5
2B8
100
AcDbEntity
  8
RACCORDO
100
AcDbLine
 62
250
  6
CONTINUOUS
 10
-18.6749654558
 20
-2.2951711815
 11
-18.6756555349
 21
-2.252315928
  0
LINE
  5
2B9
100
AcDbEntity
  8
RACCORDO
100
AcDbLine
 62
250
  6
CONTINUOUS
 10
-18.6756555349
 20
-2.252315928
 11
-18.6760928693
 21
-2.2039228864
  0
LINE
  5
2BA
100
AcDbEntity
  8
RACCORDO
100
AcDbLine
 62
250
  6
CONTINUOUS
 10
-18.6760928693
 20
-2.2039228864
 11
-18.676278993
 21
-2.1496928984
  0
LINE
  5
2BB
100
AcDbEntity
  8
RACCORDO
100
AcDbLine
 62
250
  6
CONTINUOUS
 10
-19.2804575395
 20
2.5503071016
 11
-19.2804575395
 21
-2.4496928984
  0
LINE
  5
2BC
100
AcDbEntity
  8
RACCORDO
100
AcDbLine
 62
7
  6
CONTINUOUS
 10
-18.5804575395
 20
-10.7097675278
 11
-18.5804575395
 21
10.810381731
  0
LINE
  5
2BD
100
AcDbEntity
  8
RACCORDO
100
AcDbLine
 62
250
  6
CONTINUOUS
 10
-18.5681476042
 20
10.7880733187
 11
-18.5681476042
 21
-10.6874591155
  0
LINE
  5
2BE
100
AcDbEntity
  8
RACCORDO
100
AcDbLine
 62
250
  6
CONTINUOUS
 10
-18.2681932957
 20
10.7880733187
 11
-18.2681932957
 21
-10.6874591155
  0
LINE
  5
2BF
100
AcDbEntity
  8
RACCORDO
100
AcDbLine
 62
250
  6
CONTINUOUS
 10
-18.0682237566
 20
-10.8874286545
 11
-18.0682237566
 21
-11.1873829631
  0
LINE
  5
2C0
100
AcDbEntity
  8
RACCORDO
100
AcDbLine
 62
250
  6
CONTINUOUS
 10
-18.0682237566
 20
10.9880428577
 11
-18.0682237566
 21
11.2879971663
  0
LINE
  5
2C1
100
AcDbEntity
  8
RACCORDO
100
AcDbLine
 62
250
  6
CONTINUOUS
 10
-18.6762789783
 20
-2.1496928984
 11
-18.6762321874
 21
2.2766797738
  0
LINE
  5
2C2
100
AcDbEntity
  8
RACCORDO
100
AcDbLine
 62
250
  6
CONTINUOUS
 10
-18.6762321874
 20
2.2766797738
 11
-18.6759225355
 21
2.3278809006
  0
LINE
  5
2C3
100
AcDbEntity
  8
RACCORDO
100
AcDbLine
 62
250
  6
CONTINUOUS
 10
-18.6759225355
 20
2.3278809006
 11
-18.6753204054
 21
2.3756770461
  0
LWPOLYLINE
  5
2C4
100
AcDbEntity
  8
RACCORDO
100
AcDbPolyline
 62
250
  6
CONTINUOUS
 90
13
 70
0
 10
-18.6753204054
 20
2.3756770461
 10
-18.674448601
 20
2.4197759746
 10
-18.6739138712
 20
2.4401349022
 10
-18.6733245636
 20
2.459148507
 10
-18.6726840869
 20
2.4765857668
 10
-18.6719890324
 20
2.4924229804
 10
-18.6712400115
 20
2.5067603229
 10
-18.6704301406
 20
2.5194833031
 10
-18.6695663032
 20
2.530271955
 10
-18.6686697615
 20
2.5388816953
 10
-18.6677476029
 20
2.5451608033
 10
-18.66679274
 20
2.549005073
 10
-18.6658051727
 20
2.5503071016
  0
LWPOLYLINE
  5
2C5
100
AcDbEntity
  8
RACCORDO
100
AcDbPolyline
 62
250
  6
CONTINUOUS
 90
7
 70
0
 10
-18.6658052386
 20
-2.4496928984
 10
-18.6667747442
 20
-2.4484409994
 10
-18.6677198895
 20
-2.444698938
 10
-18.6686406745
 20
-2.4385026513
 10
-18.6695448213
 20
-2.4298968113
 10
-18.6704246077
 20
-2.4189635694
 10
-18.6712568674
 20
-2.4058489203
  0
LWPOLYLINE
  5
2C6
100
AcDbEntity
  8
RACCORDO
100
AcDbPolyline
 62
250
  6
CONTINUOUS
 90
19
 70
0
 10
17.9073086776
 20
-10.8874286545
 10
17.9273211473
 20
-10.886285754
 10
17.9466148662
 20
-10.8834330453
 10
17.9651898344
 20
-10.8788705284
 10
17.9832430147
 20
-10.8724006162
 10
18.0005774443
 20
-10.8642208957
 10
18.0166022342
 20
-10.8549241282
 10
18.0311528068
 20
-10.8444952317
 10
18.0443937399
 20
-10.8329492882
 10
18.0562278774
 20
-10.8209243044
 10
18.0665139147
 20
-10.8086575987
 10
18.0753931566
 20
-10.7959118527
 10
18.0831923612
 20
-10.7826131184
 10
18.0900457115
 20
-10.7688701149
 10
18.0958190246
 20
-10.754574123
 10
18.1004365107
 20
-10.7393250377
 10
18.1038729064
 20
-10.7229894904
 10
18.106153475
 20
-10.7057008497
 10
18.1072782166
 20
-10.6874591155
  0
LWPOLYLINE
  5
2C7
100
AcDbEntity
  8
RACCORDO
100
AcDbPolyline
 62
250
  6
CONTINUOUS
 90
19
 70
0
 10
17.9073086776
 20
-11.1873829631
 10
17.9566579512
 20
-11.1849325699
 10
18.0050318231
 20
-11.1777218109
 10
18.0519890476
 20
-11.1659651283
 10
18.0973588946
 20
-11.149817691
 10
18.140520721
 20
-11.1296152038
 10
18.1805074956
 20
-11.1060865736
 10
18.217016095
 20
-11.0798438013
 10
18.2501023465
 20
-11.0512941521
 10
18.2795690348
 20
-11.0210844454
 10
18.3051404798
 20
-10.9901382824
 10
18.3273345562
 20
-10.9585033789
 10
18.3469854251
 20
-10.9253116615
 10
18.3639577097
 20
-10.8908423589
 10
18.3782092754
 20
-10.8552387684
 10
18.390107705
 20
-10.8171033626
 10
18.3993106883
 20
-10.7760181493
 10
18.4051721238
 20
-10.7327115887
 10
18.4072325252
 20
-10.6874591155
  0
LINE
  5
2C8
100
AcDbEntity
  8
RACCORDO
100
AcDbLine
 62
250
  6
CONTINUOUS
 10
-7.6863976472
 20
9.1125720747
 11
-8.5804575395
 21
8.2185121824
  0
LINE
  5
2C9
100
AcDbEntity
  8
RACCORDO
100
AcDbLine
 62
250
  6
CONTINUOUS
 10
-7.5131925664
 20
8.9393669939
 11
-8.4072524588
 21
8.0453071016
  0
LWPOLYLINE
  5
2CA
100
AcDbEntity
  8
RACCORDO
100
AcDbPolyline
 62
250
  6
CONTINUOUS
 90
8
 70
0
 10
3.4597104824
 20
-10.3936259721
 10
3.5453465605
 20
-10.390815012
 10
3.6194430718
 20
-10.3878947468
 10
3.6812370569
 20
-10.3848778276
 10
3.7296587129
 20
-10.3818463387
 10
3.7647176527
 20
-10.3788276414
 10
3.7868892298
 20
-10.3757943745
 10
3.7964431073
 20
-10.3727465378
  0
LINE
  5
2CB
100
AcDbEntity
  8
RACCORDO
100
AcDbLine
 62
250
  6
CONTINUOUS
 10
-3.3615416952
 20
-11.0559556222
 11
-3.1844730403
 21
-11.0507606529
  0
LINE
  5
2CC
100
AcDbEntity
  8
RACCORDO
100
AcDbLine
 62
250
  6
CONTINUOUS
 10
-3.6285962372
 20
-10.7560013312
 11
-3.4318794781
 21
-10.7508063386
  0
LINE
  5
2CD
100
AcDbEntity
  8
RACCORDO
100
AcDbLine
 62
250
  6
CONTINUOUS
 10
3.2562330125
 20
-10.3989137998
 11
3.4597104824
 21
-10.3936259721
  0
LINE
  5
2CE
100
AcDbEntity
  8
RACCORDO
100
AcDbLine
 62
250
  6
CONTINUOUS
 10
-3.1844730403
 20
-11.0507606529
 11
-2.9708226783
 21
-11.0460094134
  0
LINE
  5
2CF
100
AcDbEntity
  8
RACCORDO
100
AcDbLine
 62
250
  6
CONTINUOUS
 10
-3.4318794781
 20
-10.7508063386
 11
-3.1947222588
 21
-10.7460551006
  0
LINE
  5
2D0
100
AcDbEntity
  8
RACCORDO
100
AcDbLine
 62
250
  6
CONTINUOUS
 10
3.0181962208
 20
-10.4036052337
 11
3.2562330125
 21
-10.3989137998
  0
LINE
  5
2D1
100
AcDbEntity
  8
RACCORDO
100
AcDbLine
 62
250
  6
CONTINUOUS
 10
-2.9708226783
 20
-11.0460094134
 11
-2.725529172
 21
-11.041788132
  0
LINE
  5
2D2
100
AcDbEntity
  8
RACCORDO
100
AcDbLine
 62
250
  6
CONTINUOUS
 10
-3.1947222588
 20
-10.7460551006
 11
-2.9216422201
 21
-10.7418338249
  0
LINE
  5
2D3
100
AcDbEntity
  8
RACCORDO
100
AcDbLine
 62
250
  6
CONTINUOUS
 10
2.7449744427
 20
-10.4077608358
 11
3.0181962208
 21
-10.4036052337
  0
LINE
  5
2D4
100
AcDbEntity
  8
RACCORDO
100
AcDbLine
 62
250
  6
CONTINUOUS
 10
-2.725529172
 20
-11.041788132
 11
-2.4494443098
 21
-11.0381322978
  0
LINE
  5
2D5
100
AcDbEntity
  8
RACCORDO
100
AcDbLine
 62
250
  6
CONTINUOUS
 10
-2.9216422201
 20
-10.7418338249
 11
-2.6151808886
 21
-10.7381779952
  0
LINE
  5
2D6
100
AcDbEntity
  8
RACCORDO
100
AcDbLine
 62
250
  6
CONTINUOUS
 10
2.4393630999
 20
-10.4113619705
 11
2.7449744427
 21
-10.4077608358
  0
LINE
  5
2D7
100
AcDbEntity
  8
RACCORDO
100
AcDbLine
 62
250
  6
CONTINUOUS
 10
-2.4494443098
 20
-11.0381322978
 11
-2.1374693726
 21
-11.035030231
  0
LINE
  5
2D8
100
AcDbEntity
  8
RACCORDO
100
AcDbLine
 62
250
  6
CONTINUOUS
 10
-2.6151808886
 20
-10.7381779952
 11
-2.2690156986
 21
-10.7350759202
  0
LINE
  5
2D9
100
AcDbEntity
  8
RACCORDO
100
AcDbLine
 62
250
  6
CONTINUOUS
 10
2.1071559456
 20
-10.4143206432
 11
2.4393630999
 21
-10.4113619705
  0
LINE
  5
2DA
100
AcDbEntity
  8
RACCORDO
100
AcDbLine
 62
250
  6
CONTINUOUS
 10
-2.1374693726
 20
-11.035030231
 11
-1.8032096091
 21
-11.0326663611
  0
LINE
  5
2DB
100
AcDbEntity
  8
RACCORDO
100
AcDbLine
 62
250
  6
CONTINUOUS
 10
-2.2690156986
 20
-10.7350759202
 11
-1.8969584853
 21
-10.7327120493
  0
LINE
  5
2DC
100
AcDbEntity
  8
RACCORDO
100
AcDbLine
 62
250
  6
CONTINUOUS
 10
1.7547971337
 20
-10.4165873871
 11
2.1071559456
 21
-10.4143206432
  0
LINE
  5
2DD
100
AcDbEntity
  8
RACCORDO
100
AcDbLine
 62
250
  6
CONTINUOUS
 10
-1.8032096091
 20
-11.0326663611
 11
-1.4568150568
 21
-11.0310992471
  0
LINE
  5
2DE
100
AcDbEntity
  8
RACCORDO
100
AcDbLine
 62
250
  6
CONTINUOUS
 10
1.3858745282
 20
-10.4181355419
 11
1.7547971337
 21
-10.4165873871
  0
LINE
  5
2DF
100
AcDbEntity
  8
RACCORDO
100
AcDbLine
 62
250
  6
CONTINUOUS
 10
-1.8969584853
 20
-10.7327120493
 11
-1.5122594964
 21
-10.7311449422
  0
LINE
  5
2E0
100
AcDbEntity
  8
RACCORDO
100
AcDbLine
 62
250
  6
CONTINUOUS
 10
-1.4568150568
 20
-11.0310992471
 11
-1.1222441212
 21
-11.0303542075
  0
LINE
  5
2E1
100
AcDbEntity
  8
RACCORDO
100
AcDbLine
 62
250
  6
CONTINUOUS
 10
-1.5122594964
 20
-10.7311449422
 11
-1.1390266802
 21
-10.7303999015
  0
LINE
  5
2E2
100
AcDbEntity
  8
RACCORDO
100
AcDbLine
 62
250
  6
CONTINUOUS
 10
0.7969000219
 20
-10.4190527266
 11
1.3858745282
 21
-10.4181355419
  0
LINE
  5
2E3
100
AcDbEntity
  8
RACCORDO
100
AcDbLine
 62
7
  6
CONTINUOUS
 10
17.9296170899
 20
-11.1996928984
 11
-18.0905321689
 21
-11.1996928984
  0
LINE
  5
2E4
100
AcDbEntity
  8
RACCORDO
100
AcDbLine
 62
250
  6
CONTINUOUS
 10
17.9073086776
 20
-11.1873829631
 11
3.6072782166
 21
-11.1873829631
  0
LINE
  5
2E5
100
AcDbEntity
  8
RACCORDO
100
AcDbLine
 62
250
  6
CONTINUOUS
 10
-3.7681932957
 20
-11.1873829631
 11
-18.0682237566
 21
-11.1873829631
  0
LINE
  5
2E6
100
AcDbEntity
  8
RACCORDO
100
AcDbLine
 62
250
  6
CONTINUOUS
 10
-1.1222441212
 20
-11.0303542075
 11
0.7969000219
 21
-11.0302873787
  0
LINE
  5
2E7
100
AcDbEntity
  8
RACCORDO
100
AcDbLine
 62
250
  6
CONTINUOUS
 10
-18.0682237566
 20
-10.8874286545
 11
-4.0629583572
 21
-10.8874286545
  0
LINE
  5
2E8
100
AcDbEntity
  8
RACCORDO
100
AcDbLine
 62
250
  6
CONTINUOUS
 10
3.9020432782
 20
-10.8874286545
 11
17.9073086776
 21
-10.8874286545
  0
LINE
  5
2E9
100
AcDbEntity
  8
RACCORDO
100
AcDbLine
 62
250
  6
CONTINUOUS
 10
-1.1390266802
 20
-10.7303999015
 11
0.7969000219
 21
-10.7303330702
  0
LINE
  5
2EA
100
AcDbEntity
  8
RACCORDO
100
AcDbLine
 62
250
  6
CONTINUOUS
 10
18.1072782166
 20
-10.6874591155
 11
18.4072325252
 21
-10.6874591155
  0
LINE
  5
2EB
100
AcDbEntity
  8
RACCORDO
100
AcDbLine
 62
250
  6
CONTINUOUS
 10
-18.2681932957
 20
-10.6874591155
 11
-18.5681476042
 21
-10.6874591155
  0
LINE
  5
2EC
100
AcDbEntity
  8
RACCORDO
100
AcDbLine
 62
250
  6
CONTINUOUS
 10
0.7969000219
 20
-10.7303330702
 11
1.1967337774
 21
-10.7307667018
  0
LINE
  5
2ED
100
AcDbEntity
  8
RACCORDO
100
AcDbLine
 62
250
  6
CONTINUOUS
 10
-1.3429701256
 20
-10.4186677621
 11
0.7969000219
 21
-10.4190527266
  0
LINE
  5
2EE
100
AcDbEntity
  8
RACCORDO
100
AcDbLine
 62
250
  6
CONTINUOUS
 10
0.7969000219
 20
-11.0302873787
 11
1.1576334116
 21
-11.0307210005
  0
LINE
  5
2EF
100
AcDbEntity
  8
RACCORDO
100
AcDbLine
 62
250
  6
CONTINUOUS
 10
1.1967337774
 20
-10.7307667018
 11
1.5789891409
 21
-10.7319559042
  0
LINE
  5
2F0
100
AcDbEntity
  8
RACCORDO
100
AcDbLine
 62
250
  6
CONTINUOUS
 10
-1.73056142
 20
-10.4174552816
 11
-1.3429701256
 21
-10.4186677621
  0
LINE
  5
2F1
100
AcDbEntity
  8
RACCORDO
100
AcDbLine
 62
250
  6
CONTINUOUS
 10
1.1576334116
 20
-11.0307210005
 11
1.5005920253
 21
-11.0319102081
  0
LINE
  5
2F2
100
AcDbEntity
  8
RACCORDO
100
AcDbLine
 62
250
  6
CONTINUOUS
 10
1.5789891409
 20
-10.7319559042
 11
1.9404630044
 21
-10.7338913858
  0
LINE
  5
2F3
100
AcDbEntity
  8
RACCORDO
100
AcDbLine
 62
250
  6
CONTINUOUS
 10
-2.1104403467
 20
-10.4154354366
 11
-1.73056142
 21
-10.4174552816
  0
LINE
  5
2F4
100
AcDbEntity
  8
RACCORDO
100
AcDbLine
 62
250
  6
CONTINUOUS
 10
1.5005920253
 20
-11.0319102081
 11
1.8261067061
 21
-11.0338457029
  0
LINE
  5
2F5
100
AcDbEntity
  8
RACCORDO
100
AcDbLine
 62
250
  6
CONTINUOUS
 10
1.9404630044
 20
-10.7338913858
 11
2.2855547803
 21
-10.7365481336
  0
LINE
  5
2F6
100
AcDbEntity
  8
RACCORDO
100
AcDbLine
 62
250
  6
CONTINUOUS
 10
-2.4655627427
 20
-10.4126614434
 11
-2.1104403467
 21
-10.4154354366
  0
LINE
  5
2F7
100
AcDbEntity
  8
RACCORDO
100
AcDbLine
 62
250
  6
CONTINUOUS
 10
1.8261067061
 20
-11.0338457029
 11
2.1368532135
 21
-11.0365024424
  0
LINE
  5
2F8
100
AcDbEntity
  8
RACCORDO
100
AcDbLine
 62
250
  6
CONTINUOUS
 10
2.2855547803
 20
-10.7365481336
 11
2.6062004893
 21
-10.7398672312
  0
LINE
  5
2F9
100
AcDbEntity
  8
RACCORDO
100
AcDbLine
 62
250
  6
CONTINUOUS
 10
-2.7873296702
 20
-10.4092816699
 11
-2.4655627427
 21
-10.4126614434
  0
LINE
  5
2FA
100
AcDbEntity
  8
RACCORDO
100
AcDbLine
 62
250
  6
CONTINUOUS
 10
2.1368532135
 20
-11.0365024424
 11
2.4250408994
 21
-11.0398215352
  0
LINE
  5
2FB
100
AcDbEntity
  8
RACCORDO
100
AcDbLine
 62
250
  6
CONTINUOUS
 10
2.6062004893
 20
-10.7398672312
 11
2.8970205266
 21
-10.7438069964
  0
LINE
  5
2FC
100
AcDbEntity
  8
RACCORDO
100
AcDbLine
 62
250
  6
CONTINUOUS
 10
-3.0730246229
 20
-10.4053447812
 11
-2.7873296702
 21
-10.4092816699
  0
LINE
  5
2FD
100
AcDbEntity
  8
RACCORDO
100
AcDbLine
 62
250
  6
CONTINUOUS
 10
2.4250408994
 20
-11.0398215352
 11
2.6870084761
 21
-11.0437613036
  0
LINE
  5
2FE
100
AcDbEntity
  8
RACCORDO
100
AcDbLine
 62
250
  6
CONTINUOUS
 10
2.8970205266
 20
-10.7438069964
 11
3.15227585
 21
-10.7482735567
  0
LINE
  5
2FF
100
AcDbEntity
  8
RACCORDO
100
AcDbLine
 62
250
  6
CONTINUOUS
 10
-3.3261769177
 20
-10.4008480177
 11
-3.0730246229
 21
-10.4053447812
  0
LINE
  5
300
100
AcDbEntity
  8
RACCORDO
100
AcDbLine
 62
250
  6
CONTINUOUS
 10
2.6870084761
 20
-11.0437613036
 11
2.9171782857
 21
-11.0482278725
  0
LWPOLYLINE
  5
301
100
AcDbEntity
  8
RACCORDO
100
AcDbPolyline
 62
250
  6
CONTINUOUS
 90
10
 70
0
 10
3.15227585
 20
-10.7482735567
 10
3.3741654373
 20
-10.7533411046
 10
3.4710082967
 20
-10.7561068
 10
3.5558877115
 20
-10.7589538786
 10
3.6286249713
 20
-10.7618968339
 10
3.6886287915
 20
-10.7649211723
 10
3.7347502678
 20
-10.7679184284
 10
3.7674285241
 20
-10.7708524468
 10
3.7877471213
 20
-10.7737593829
 10
3.7964431073
 20
-10.7766392367
  0
LWPOLYLINE
  5
302
100
AcDbEntity
  8
RACCORDO
100
AcDbPolyline
 62
250
  6
CONTINUOUS
 90
10
 70
0
 10
2.9171782857
 20
-11.0482278725
 10
3.1159149469
 20
-11.0532954147
 10
3.2034399876
 20
-11.0560610998
 10
3.2799889426
 20
-11.0589081744
 10
3.3448707572
 20
-11.0618511395
 10
3.398776486
 20
-11.0648754942
 10
3.4409652432
 20
-11.06787276
 10
3.4711900667
 20
-11.0708067773
 10
3.4896979186
 20
-11.0737137057
 10
3.4964887988
 20
-11.0765935452
  0
LWPOLYLINE
  5
303
100
AcDbEntity
  8
RACCORDO
100
AcDbPolyline
 62
7
  6
CONTINUOUS
 90
25
 70
0
 10
-3.7681932957
 20
-11.1873829631
 10
-3.7834699907
 20
-11.1867068515
 10
-3.7991551501
 20
-11.1851727006
 10
-3.8151975205
 20
-11.1827111005
 10
-3.8316050691
 20
-11.1792362854
 10
-3.848241149
 20
-11.1746920054
 10
-3.8648342995
 20
-11.1690925081
 10
-3.8813348533
 20
-11.1624056055
 10
-3.8976439808
 20
-11.154620083
 10
-3.913441211
 20
-11.1458719657
 10
-3.9285553641
 20
-11.1362778526
 10
-3.9430591433
 20
-11.125813617
 10
-3.9570094592
 20
-11.114435868
 10
-3.9702579122
 20
-11.102254387
 10
-3.9828404695
 20
-11.0892277542
 10
-3.9950143191
 20
-11.0750084516
 10
-4.0066748858
 20
-11.059536588
 10
-4.0176520541
 20
-11.042843357
 10
-4.0279711632
 20
-11.02463303
 10
-4.037505061
 20
-11.0046785061
 10
-4.0458929319
 20
-10.9831962193
 10
-4.0528055395
 20
-10.9605839947
 10
-4.0580501788
 20
-10.9370590336
 10
-4.0614900326
 20
-10.9126259603
 10
-4.0629583572
 20
-10.8874286545
  0
LWPOLYLINE
  5
304
100
AcDbEntity
  8
RACCORDO
100
AcDbPolyline
 62
250
  6
CONTINUOUS
 90
10
 70
0
 10
-3.9573581864
 20
-10.3727465601
 10
-3.9472043252
 20
-10.3759035935
 10
-3.9241093865
 20
-10.3789839037
 10
-3.8886244894
 20
-10.3819874909
 10
-3.8415618754
 20
-10.3849133798
 10
-3.783423496
 20
-10.3877625457
 10
-3.7139116828
 20
-10.3905379135
 10
-3.6329107884
 20
-10.3932516224
 10
-3.5410122185
 20
-10.3958915332
 10
-3.3261769177
 20
-10.4008480177
  0
LWPOLYLINE
  5
305
100
AcDbEntity
  8
RACCORDO
100
AcDbPolyline
 62
250
  6
CONTINUOUS
 90
10
 70
0
 10
-3.6574038778
 20
-10.0727922515
 10
-3.6473816796
 20
-10.0759492583
 10
-3.6267615705
 20
-10.0790295539
 10
-3.5955435504
 20
-10.0820331384
 10
-3.5535472614
 20
-10.0849590439
 10
-3.5009530615
 20
-10.0878082383
 10
-3.4383020247
 20
-10.0905836248
 10
-3.3654330538
 20
-10.0932973308
 10
-3.282507246
 20
-10.0959372288
 10
-3.0894235083
 20
-10.1008937027
  0
LINE
  5
306
100
AcDbEntity
  8
RACCORDO
100
AcDbLine
 62
250
  6
CONTINUOUS
 10
-8.5804575395
 20
-8.1178979791
 11
-7.6863976472
 21
-9.0119578715
  0
LINE
  5
307
100
AcDbEntity
  8
RACCORDO
100
AcDbLine
 62
250
  6
CONTINUOUS
 10
-8.4072524588
 20
-7.9446928984
 11
-7.5131925664
 21
-8.8387527907
  0
LWPOLYLINE
  5
308
100
AcDbEntity
  8
RACCORDO
100
AcDbPolyline
 62
250
  6
CONTINUOUS
 90
16
 70
0
 10
-8.7536626203
 20
-7.9446928984
 10
-8.7496498508
 20
-7.9586361683
 10
-8.7443702878
 20
-7.9730820146
 10
-8.7377240099
 20
-7.9879175051
 10
-8.7295450314
 20
-8.0031399486
 10
-8.7198192691
 20
-8.0184441971
 10
-8.7087938483
 20
-8.0332702477
 10
-8.6965501875
 20
-8.0474454588
 10
-8.6831460247
 20
-8.0608450797
 10
-8.668969299
 20
-8.073081782
 10
-8.6541451098
 20
-8.0840984689
 10
-8.6388463454
 20
-8.0938144364
 10
-8.6236331671
 20
-8.1019834156
 10
-8.6088106398
 20
-8.1086202523
 10
-8.5943812159
 20
-8.1138915902
 10
-8.5804575395
 20
-8.1178979791
  0
LWPOLYLINE
  5
309
100
AcDbEntity
  8
RACCORDO
100
AcDbPolyline
 62
250
  6
CONTINUOUS
 90
31
 70
0
 10
-9.8209275934
 20
-8.8387527907
 10
-9.8207473022
 20
-8.851491851
 10
-9.8201774554
 20
-8.8641632939
 10
-9.8192180532
 20
-8.8767671196
 10
-9.8178969983
 20
-8.8892368245
 10
-9.8161863878
 20
-8.9016389122
 10
-9.814002513
 20
-8.9141728931
 10
-9.8113796056
 20
-8.9268551628
 10
-9.8082834338
 20
-8.9396693257
 10
-9.8045275936
 20
-8.9527657058
 10
-9.8001337041
 20
-8.9662042421
 10
-9.7950801463
 20
-8.9799249955
 10
-9.7891156592
 20
-8.9938984722
 10
-9.782237513
 20
-9.0081934509
 10
-9.7744484376
 20
-9.0227411529
 10
-9.7655053623
 20
-9.0373057473
 10
-9.7553957242
 20
-9.051925384
 10
-9.7441320862
 20
-9.0665619131
 10
-9.7315090669
 20
-9.0808650542
 10
-9.7174809826
 20
-9.0948697207
 10
-9.7020935169
 20
-9.1085409992
 10
-9.6852783396
 20
-9.1214238693
 10
-9.6669763463
 20
-9.1335171131
 10
-9.6472466414
 20
-9.1448219484
 10
-9.6261982072
 20
-9.1548870083
 10
-9.6037901659
 20
-9.1636794814
 10
-9.5800633954
 20
-9.171232179
 10
-9.5552495123
 20
-9.1771921681
 10
-9.5294257222
 20
-9.1814418046
 10
-9.5025148194
 20
-9.1840987326
 10
-9.4745168041
 20
-9.1851629522
  0
LINE
  5
30A
100
AcDbEntity
  8
RACCORDO
100
AcDbLine
 62
250
  6
CONTINUOUS
 10
-9.8209275934
 20
8.9393659055
 11
-9.8209275934
 21
-8.8387527907
  0
LINE
  5
30B
100
AcDbEntity
  8
RACCORDO
100
AcDbLine
 62
250
  6
CONTINUOUS
 10
-9.6477225126
 20
8.9393669939
 11
-9.6477225126
 21
-8.8387527907
  0
LINE
  5
30C
100
AcDbEntity
  8
RACCORDO
100
AcDbLine
 62
250
  6
CONTINUOUS
 10
-9.4745174318
 20
-9.0119578715
 11
-9.4745174318
 21
-9.1851629522
  0
LINE
  5
30D
100
AcDbEntity
  8
RACCORDO
100
AcDbLine
 62
250
  6
CONTINUOUS
 10
-9.4745174318
 20
9.1125720747
 11
-9.4745174318
 21
9.2857771555
  0
LWPOLYLINE
  5
30E
100
AcDbEntity
  8
RACCORDO
100
AcDbPolyline
 62
250
  6
CONTINUOUS
 90
13
 70
0
 10
-8.5804575395
 20
8.2185121824
 10
-8.6000673645
 20
8.2125658746
 10
-8.6194408252
 20
8.2046035366
 10
-8.6383444064
 20
8.1947211415
 10
-8.6565502564
 20
8.1830378053
 10
-8.6738389334
 20
8.1696943513
 10
-8.690002051
 20
8.1548516131
 10
-8.7048447892
 20
8.1386884955
 10
-8.7181882432
 20
8.1213998185
 10
-8.7298715794
 20
8.1031939685
 10
-8.7397539745
 20
8.0842903873
 10
-8.7477163125
 20
8.0649169266
 10
-8.7536626203
 20
8.0453071016
  0
LWPOLYLINE
  5
30F
100
AcDbEntity
  8
RACCORDO
100
AcDbPolyline
 62
250
  6
CONTINUOUS
 90
13
 70
0
 10
-3.6574038778
 20
-10.0727922515
 10
-3.6965476964
 20
-10.0753692617
 10
-3.7350221396
 20
-10.0830324008
 10
-3.7721691593
 20
-10.0956506471
 10
-3.8073534092
 20
-10.1130082315
 10
-3.8399730881
 20
-10.134808316
 10
-3.8694702405
 20
-10.1606780596
 10
-3.8953403372
 20
-10.1901750241
 10
-3.9171408736
 20
-10.2227947208
 10
-3.9344989342
 20
-10.2579792116
 10
-3.9471176089
 20
-10.2951267019
 10
-3.9547810576
 20
-10.3336018422
 10
-3.9573581864
 20
-10.3727465601
  0
LWPOLYLINE
  5
310
100
AcDbEntity
  8
RACCORDO
100
AcDbPolyline
 62
250
  6
CONTINUOUS
 90
8
 70
0
 10
3.1934539425
 20
-10.0936716743
 10
3.2705019067
 20
-10.0908607178
 10
3.336699904
 20
-10.0879404385
 10
3.3924177617
 20
-10.0849234976
 10
3.4363828437
 20
-10.0818919981
 10
3.4681709378
 20
-10.0788733078
 10
3.4882062562
 20
-10.0758400589
 10
3.4964887988
 20
-10.0727922515
  0
LINE
  5
311
100
AcDbEntity
  8
RACCORDO
100
AcDbLine
 62
250
  6
CONTINUOUS
 10
3.0102997133
 20
-10.098959483
 11
3.1934539425
 21
-10.0936716743
  0
LINE
  5
312
100
AcDbEntity
  8
RACCORDO
100
AcDbLine
 62
250
  6
CONTINUOUS
 10
2.7960549553
 20
-10.1036509227
 11
3.0102997133
 21
-10.098959483
  0
LINE
  5
313
100
AcDbEntity
  8
RACCORDO
100
AcDbLine
 62
250
  6
CONTINUOUS
 10
2.55028639
 20
-10.1078065305
 11
2.7960549553
 21
-10.1036509227
  0
LWPOLYLINE
  5
314
100
AcDbEntity
  8
RACCORDO
100
AcDbPolyline
 62
250
  6
CONTINUOUS
 90
28
 70
0
 10
9.3136023528
 20
-9.1851629522
 10
9.3272161905
 20
-9.1849809995
 10
9.3408799008
 20
-9.1843170212
 10
9.3545934838
 20
-9.1831710171
 10
9.3682778063
 20
-9.1815966675
 10
9.3820120015
 20
-9.1795402922
 10
9.3960334688
 20
-9.1768408505
 10
9.4103906459
 20
-9.1735418595
 10
9.4250350951
 20
-9.1695998021
 10
9.440058903
 20
-9.1647230867
 10
9.4555617185
 20
-9.1589242852
 10
9.4714438926
 20
-9.1521908257
 10
9.4874985644
 20
-9.1441934009
 10
9.5037884855
 20
-9.1349272167
 10
9.5202509044
 20
-9.1243970672
 10
9.5364907057
 20
-9.1122880268
 10
9.5525681793
 20
-9.0985507839
 10
9.5684230355
 20
-9.0832346502
 10
9.5834792898
 20
-9.0661726354
 10
9.5977526999
 20
-9.0472787727
 10
9.6112275082
 20
-9.026639029
 10
9.6232804574
 20
-9.0043443143
 10
9.6338697241
 20
-8.9803231452
 10
9.6430371317
 20
-8.9546470051
 10
9.6502848932
 20
-8.9276212547
 10
9.6554470797
 20
-8.8993476809
 10
9.65868962
 20
-8.8697244967
 10
9.6600125143
 20
-8.8387517022
  0
LWPOLYLINE
  5
315
100
AcDbEntity
  8
RACCORDO
100
AcDbPolyline
 62
250
  6
CONTINUOUS
 90
28
 70
0
 10
0.8136023528
 20
-9.1851629522
 10
0.8272161905
 20
-9.1849809995
 10
0.8408799008
 20
-9.1843170212
 10
0.8545934838
 20
-9.1831710171
 10
0.8682778063
 20
-9.1815966675
 10
0.8820120015
 20
-9.1795402922
 10
0.8960334688
 20
-9.1768408505
 10
0.9103906459
 20
-9.1735418595
 10
0.9250350951
 20
-9.1695998021
 10
0.940058903
 20
-9.1647230867
 10
0.9555617185
 20
-9.1589242852
 10
0.9714438926
 20
-9.1521908257
 10
0.9874985644
 20
-9.1441934009
 10
1.0037884855
 20
-9.1349272167
 10
1.0202509044
 20
-9.1243970672
 10
1.0364907057
 20
-9.1122880268
 10
1.0525681793
 20
-9.0985507839
 10
1.0684230355
 20
-9.0832346502
 10
1.0834792898
 20
-9.0661726354
 10
1.0977526999
 20
-9.0472787727
 10
1.1112275082
 20
-9.026639029
 10
1.1232804574
 20
-9.0043443143
 10
1.1338697241
 20
-8.9803231452
 10
1.1430371317
 20
-8.9546470051
 10
1.1502848932
 20
-8.9276212547
 10
1.1554470797
 20
-8.8993476809
 10
1.15868962
 20
-8.8697244967
 10
1.1600125143
 20
-8.8387517022
  0
LWPOLYLINE
  5
316
100
AcDbEntity
  8
RACCORDO
100
AcDbPolyline
 62
250
  6
CONTINUOUS
 90
28
 70
0
 10
-7.6863976472
 20
-9.1851629522
 10
-7.6727838095
 20
-9.1849809995
 10
-7.6591200992
 20
-9.1843170212
 10
-7.6454065162
 20
-9.1831710171
 10
-7.6317221937
 20
-9.1815966675
 10
-7.6179879985
 20
-9.1795402922
 10
-7.6039665312
 20
-9.1768408505
 10
-7.5896093541
 20
-9.1735418595
 10
-7.5749649049
 20
-9.1695998021
 10
-7.559941097
 20
-9.1647230867
 10
-7.5444382815
 20
-9.1589242852
 10
-7.5285561074
 20
-9.1521908257
 10
-7.5125014356
 20
-9.1441934009
 10
-7.4962115145
 20
-9.1349272167
 10
-7.4797490956
 20
-9.1243970672
 10
-7.4635092943
 20
-9.1122880268
 10
-7.4474318207
 20
-9.0985507839
 10
-7.4315769645
 20
-9.0832346502
 10
-7.4165207102
 20
-9.0661726354
 10
-7.4022473001
 20
-9.0472787727
 10
-7.3887724918
 20
-9.026639029
 10
-7.3767195426
 20
-9.0043443143
 10
-7.3661302759
 20
-8.9803231452
 10
-7.3569628683
 20
-8.9546470051
 10
-7.3497151068
 20
-8.9276212547
 10
-7.3445529203
 20
-8.8993476809
 10
-7.34131038
 20
-8.8697244967
 10
-7.3399874857
 20
-8.8387517022
  0
LINE
  5
317
100
AcDbEntity
  8
RACCORDO
100
AcDbLine
 62
250
  6
CONTINUOUS
 10
2.2751167921
 20
-10.1114076655
 11
2.55028639
 21
-10.1078065305
  0
LINE
  5
318
100
AcDbEntity
  8
RACCORDO
100
AcDbLine
 62
250
  6
CONTINUOUS
 10
1.9758867922
 20
-10.1143663287
 11
2.2751167921
 21
-10.1114076655
  0
LINE
  5
319
100
AcDbEntity
  8
RACCORDO
100
AcDbLine
 62
250
  6
CONTINUOUS
 10
1.6592489569
 20
-10.1166330751
 11
1.9758867922
 21
-10.1143663287
  0
LINE
  5
31A
100
AcDbEntity
  8
RACCORDO
100
AcDbLine
 62
250
  6
CONTINUOUS
 10
1.3269770776
 20
-10.1181812428
 11
1.6592489569
 21
-10.1166330751
  0
LINE
  5
31B
100
AcDbEntity
  8
RACCORDO
100
AcDbLine
 62
250
  6
CONTINUOUS
 10
0.7969000219
 20
-10.1190984181
 11
1.3269770776
 21
-10.1181812428
  0
LINE
  5
31C
100
AcDbEntity
  8
RACCORDO
100
AcDbLine
 62
7
  6
CONTINUOUS
 10
3.602133087
 20
-9.9671479633
 11
-3.763048166
 21
-9.9671479633
  0
LINE
  5
31D
100
AcDbEntity
  8
RACCORDO
100
AcDbLine
 62
250
  6
CONTINUOUS
 10
-9.4745168041
 20
-9.1851629522
 11
-7.6863976472
 21
-9.1851629522
  0
LINE
  5
31E
100
AcDbEntity
  8
RACCORDO
100
AcDbLine
 62
250
  6
CONTINUOUS
 10
-0.9745168041
 20
-9.1851629522
 11
0.8136023528
 21
-9.1851629522
  0
LINE
  5
31F
100
AcDbEntity
  8
RACCORDO
100
AcDbLine
 62
250
  6
CONTINUOUS
 10
7.5254831959
 20
-9.1851629522
 11
9.3136023528
 21
-9.1851629522
  0
LINE
  5
320
100
AcDbEntity
  8
RACCORDO
100
AcDbLine
 62
250
  6
CONTINUOUS
 10
-9.4745174318
 20
-9.0119578715
 11
-7.6863976472
 21
-9.0119578715
  0
LINE
  5
321
100
AcDbEntity
  8
RACCORDO
100
AcDbLine
 62
250
  6
CONTINUOUS
 10
-0.9745174318
 20
-9.0119578715
 11
0.8136023528
 21
-9.0119578715
  0
LINE
  5
322
100
AcDbEntity
  8
RACCORDO
100
AcDbLine
 62
250
  6
CONTINUOUS
 10
7.5254825682
 20
-9.0119578715
 11
9.3136023528
 21
-9.0119578715
  0
LINE
  5
323
100
AcDbEntity
  8
RACCORDO
100
AcDbLine
 62
250
  6
CONTINUOUS
 10
-7.5131925664
 20
-8.8387527907
 11
-7.3399874857
 21
-8.8387527907
  0
LINE
  5
324
100
AcDbEntity
  8
RACCORDO
100
AcDbLine
 62
250
  6
CONTINUOUS
 10
7.3522774874
 20
-8.8387527907
 11
7.1790724066
 21
-8.8387527907
  0
LINE
  5
325
100
AcDbEntity
  8
RACCORDO
100
AcDbLine
 62
250
  6
CONTINUOUS
 10
0.9868074336
 20
-8.8387527907
 11
1.1600125143
 21
-8.8387527907
  0
LINE
  5
326
100
AcDbEntity
  8
RACCORDO
100
AcDbLine
 62
250
  6
CONTINUOUS
 10
-1.1477225126
 20
-8.8387527907
 11
-1.3209275934
 21
-8.8387527907
  0
LINE
  5
327
100
AcDbEntity
  8
RACCORDO
100
AcDbLine
 62
250
  6
CONTINUOUS
 10
9.4868074336
 20
-8.8387527907
 11
9.6600125143
 21
-8.8387527907
  0
LINE
  5
328
100
AcDbEntity
  8
RACCORDO
100
AcDbLine
 62
250
  6
CONTINUOUS
 10
-9.6477225126
 20
-8.8387527907
 11
-9.8209275934
 21
-8.8387527907
  0
LINE
  5
329
100
AcDbEntity
  8
RACCORDO
100
AcDbLine
 62
250
  6
CONTINUOUS
 10
-1.3055358055
 20
-10.1187134593
 11
0.7969000219
 21
-10.1190984181
  0
LINE
  5
32A
100
AcDbEntity
  8
RACCORDO
100
AcDbLine
 62
250
  6
CONTINUOUS
 10
-1.6529275382
 20
-10.1175009754
 11
-1.3055358055
 21
-10.1187134593
  0
LINE
  5
32B
100
AcDbEntity
  8
RACCORDO
100
AcDbLine
 62
250
  6
CONTINUOUS
 10
-1.9951778221
 20
-10.115481122
 11
-1.6529275382
 21
-10.1175009754
  0
LINE
  5
32C
100
AcDbEntity
  8
RACCORDO
100
AcDbLine
 62
250
  6
CONTINUOUS
 10
-2.3147924399
 20
-10.1127071372
 11
-1.9951778221
 21
-10.115481122
  0
LINE
  5
32D
100
AcDbEntity
  8
RACCORDO
100
AcDbLine
 62
250
  6
CONTINUOUS
 10
-2.6043371288
 20
-10.109327366
 11
-2.3147924399
 21
-10.1127071372
  0
LINE
  5
32E
100
AcDbEntity
  8
RACCORDO
100
AcDbLine
 62
250
  6
CONTINUOUS
 10
-2.8615036707
 20
-10.1053904712
 11
-2.6043371288
 21
-10.109327366
  0
LINE
  5
32F
100
AcDbEntity
  8
RACCORDO
100
AcDbLine
 62
250
  6
CONTINUOUS
 10
-3.0894235083
 20
-10.1008937027
 11
-2.8615036707
 21
-10.1053904712
  0
LWPOLYLINE
  5
330
100
AcDbEntity
  8
RACCORDO
100
AcDbPolyline
 62
250
  6
CONTINUOUS
 90
13
 70
0
 10
3.4964887988
 20
-10.0727922515
 10
3.5356331459
 20
-10.0753693314
 10
3.5741079817
 20
-10.0830326478
 10
3.6112552461
 20
-10.0956511301
 10
3.6464395851
 20
-10.1130089561
 10
3.6790592181
 20
-10.1348092437
 10
3.7085562303
 20
-10.1606791283
 10
3.7344261149
 20
-10.1901761404
 10
3.7562264026
 20
-10.2227957734
 10
3.7735842287
 20
-10.2579801125
 10
3.786202711
 20
-10.2951273769
 10
3.7938660275
 20
-10.3336022128
 10
3.7964431073
 20
-10.3727465601
  0
LWPOLYLINE
  5
331
100
AcDbEntity
  8
RACCORDO
100
AcDbPolyline
 62
250
  6
CONTINUOUS
 90
28
 70
0
 10
-7.6863976472
 20
-9.0119578715
 10
-7.6782578565
 20
-9.0132004434
 10
-7.6701241468
 20
-9.0141704607
 10
-7.6620021923
 20
-9.0148618885
 10
-7.6539491094
 20
-9.0152808125
 10
-7.6459202115
 20
-9.015412459
 10
-7.6377711128
 20
-9.0152074538
 10
-7.6294874824
 20
-9.014663519
 10
-7.6211063124
 20
-9.0137472679
 10
-7.6125676725
 20
-9.0123391705
 10
-7.6038443977
 20
-9.0104183137
 10
-7.5950080967
 20
-9.0079468543
 10
-7.5861570346
 20
-9.004764968
 10
-7.5773043365
 20
-9.0008467837
 10
-7.5685099791
 20
-8.9961575309
 10
-7.5599523346
 20
-8.9905214102
 10
-7.5516658189
 20
-8.9839026389
 10
-7.543724216
 20
-8.9762895653
 10
-7.5363703295
 20
-8.9675514995
 10
-7.5296730381
 20
-8.9576550926
 10
-7.5236979517
 20
-8.9466241705
 10
-7.5186755522
 20
-8.9344340089
 10
-7.5146958218
 20
-8.9210830117
 10
-7.5118040259
 20
-8.9066164924
 10
-7.5101437775
 20
-8.8911014257
 10
-7.5097963811
 20
-8.8745918109
 10
-7.5107942938
 20
-8.8571238426
 10
-7.5131946741
 20
-8.838750683
  0
LWPOLYLINE
  5
332
100
AcDbEntity
  8
RACCORDO
100
AcDbPolyline
 62
250
  6
CONTINUOUS
 90
28
 70
0
 10
0.8136023528
 20
-9.0119578715
 10
0.8217421435
 20
-9.0132004434
 10
0.8298758532
 20
-9.0141704607
 10
0.8379978077
 20
-9.0148618885
 10
0.8460508906
 20
-9.0152808125
 10
0.8540797885
 20
-9.015412459
 10
0.8622288872
 20
-9.0152074538
 10
0.8705125176
 20
-9.014663519
 10
0.8788936876
 20
-9.0137472679
 10
0.8874323275
 20
-9.0123391705
 10
0.8961556023
 20
-9.0104183137
 10
0.9049919033
 20
-9.0079468543
 10
0.9138429654
 20
-9.004764968
 10
0.9226956635
 20
-9.0008467837
 10
0.9314900209
 20
-8.9961575309
 10
0.9400476654
 20
-8.9905214102
 10
0.9483341811
 20
-8.9839026389
 10
0.956275784
 20
-8.9762895653
 10
0.9636296705
 20
-8.9675514995
 10
0.9703269619
 20
-8.9576550926
 10
0.9763020483
 20
-8.9466241705
 10
0.9813244478
 20
-8.9344340089
 10
0.9853041782
 20
-8.9210830117
 10
0.9881959741
 20
-8.9066164924
 10
0.9898562225
 20
-8.8911014257
 10
0.9902036189
 20
-8.8745918109
 10
0.9892057062
 20
-8.8571238426
 10
0.9868053259
 20
-8.838750683
  0
LINE
  5
333
100
AcDbEntity
  8
RACCORDO
100
AcDbLine
 62
250
  6
CONTINUOUS
 10
-4.0630024746
 20
-10.2671022719
 11
-3.9573581864
 21
-10.3727465601
  0
LINE
  5
334
100
AcDbEntity
  8
RACCORDO
100
AcDbLine
 62
250
  6
CONTINUOUS
 10
-3.763048166
 20
-9.9671479633
 11
-3.6574038778
 21
-10.0727922515
  0
LINE
  5
335
100
AcDbEntity
  8
RACCORDO
100
AcDbLine
 62
250
  6
CONTINUOUS
 10
-8.7536626203
 20
8.0453071016
 11
-8.7536626203
 21
-7.9446928984
  0
LINE
  5
336
100
AcDbEntity
  8
RACCORDO
100
AcDbLine
 62
250
  6
CONTINUOUS
 10
-8.4072524588
 20
8.0453071016
 11
-8.4072524588
 21
-7.9446928984
  0
LINE
  5
337
100
AcDbEntity
  8
RACCORDO
100
AcDbLine
 62
250
  6
CONTINUOUS
 10
-7.6863976472
 20
-9.0119578715
 11
-7.6863976472
 21
-9.1851629522
  0
LINE
  5
338
100
AcDbEntity
  8
RACCORDO
100
AcDbLine
 62
250
  6
CONTINUOUS
 10
-7.6863976472
 20
9.1125720747
 11
-7.6863976472
 21
9.2857771555
  0
LINE
  5
339
100
AcDbEntity
  8
RACCORDO
100
AcDbLine
 62
250
  6
CONTINUOUS
 10
-7.5131925664
 20
-8.8387527907
 11
-7.5131925664
 21
8.9393669939
  0
LWPOLYLINE
  5
33A
100
AcDbEntity
  8
RACCORDO
100
AcDbPolyline
 62
250
  6
CONTINUOUS
 90
31
 70
0
 10
-7.5131925664
 20
8.9393669939
 10
-7.5120279112
 20
8.946984999
 10
-7.5111023795
 20
8.9545323073
 10
-7.5104167954
 20
8.9620046074
 10
-7.5099669014
 20
8.9693547201
 10
-7.509756268
 20
8.9766211164
 10
-7.5098057762
 20
8.9839266005
 10
-7.510113371
 20
8.9912733374
 10
-7.5106984307
 20
8.9986455872
 10
-7.5116314762
 20
9.0061347695
 10
-7.51292119
 20
9.013758813
 10
-7.5145947788
 20
9.0214742285
 10
-7.5167656141
 20
9.0292731701
 10
-7.5194548922
 20
9.0371654013
 10
-7.5226880115
 20
9.0450968007
 10
-7.5265910648
 20
9.0529563708
 10
-7.5311848604
 20
9.0607238157
 10
-7.5364904526
 20
9.0683539101
 10
-7.5426324788
 20
9.0756924805
 10
-7.5496380656
 20
9.0827053812
 10
-7.5575072516
 20
9.0893380848
 10
-7.5663150369
 20
9.0954046705
 10
-7.5760799146
 20
9.1008482764
 10
-7.5867804396
 20
9.1056241339
 10
-7.5984169678
 20
9.1095723088
 10
-7.6109825926
 20
9.112627315
 10
-7.624445532
 20
9.114756308
 10
-7.6387552973
 20
9.1158620962
 10
-7.6538713781
 20
9.1158868358
 10
-7.6697658857
 20
9.1148037805
 10
-7.6863991212
 20
9.1125706007
  0
LWPOLYLINE
  5
33B
100
AcDbEntity
  8
RACCORDO
100
AcDbPolyline
 62
250
  6
CONTINUOUS
 90
31
 70
0
 10
-9.6477225126
 20
-8.8387527907
 10
-9.6488871678
 20
-8.8463707958
 10
-9.6498126996
 20
-8.8539181041
 10
-9.6504982837
 20
-8.8613904041
 10
-9.6509481776
 20
-8.8687405168
 10
-9.6511588111
 20
-8.8760069132
 10
-9.6511093028
 20
-8.8833123973
 10
-9.650801708
 20
-8.8906591342
 10
-9.6502166483
 20
-8.898031384
 10
-9.6492836028
 20
-8.9055205662
 10
-9.647993889
 20
-8.9131446098
 10
-9.6463203002
 20
-8.9208600252
 10
-9.6441494649
 20
-8.9286589668
 10
-9.6414601868
 20
-8.936551198
 10
-9.6382270675
 20
-8.9444825975
 10
-9.6343240142
 20
-8.9523421676
 10
-9.6297302186
 20
-8.9601096125
 10
-9.6244246265
 20
-8.9677397068
 10
-9.6182826002
 20
-8.9750782772
 10
-9.6112770134
 20
-8.982091178
 10
-9.6034078275
 20
-8.9887238816
 10
-9.5946000422
 20
-8.9947904673
 10
-9.5848351644
 20
-9.0002340732
 10
-9.5741346395
 20
-9.0050099307
 10
-9.5624981112
 20
-9.0089581056
 10
-9.5499324864
 20
-9.0120131118
 10
-9.536469547
 20
-9.0141421047
 10
-9.5221597817
 20
-9.015247893
 10
-9.507043701
 20
-9.0152726326
 10
-9.4911491933
 20
-9.0141895773
 10
-9.4745159579
 20
-9.0119563975
  0
LWPOLYLINE
  5
33C
100
AcDbEntity
  8
RACCORDO
100
AcDbPolyline
 62
7
  6
CONTINUOUS
 90
6
 70
0
 10
-18.5804575395
 20
2.5627627716
 10
-18.5821487925
 20
2.5622147965
 10
-18.6001700702
 20
2.5575796739
 10
-18.6187738492
 20
2.5540189128
 10
-18.6378976406
 20
2.5516087726
 10
-18.6574703199
 20
2.5504229809
  0
LWPOLYLINE
  5
33D
100
AcDbEntity
  8
RACCORDO
100
AcDbPolyline
 62
250
  6
CONTINUOUS
 90
13
 70
0
 10
-0.0804575395
 20
8.2185121824
 10
-0.1000673645
 20
8.2125658746
 10
-0.1194408252
 20
8.2046035366
 10
-0.1383444064
 20
8.1947211415
 10
-0.1565502564
 20
8.1830378053
 10
-0.1738389334
 20
8.1696943513
 10
-0.190002051
 20
8.1548516131
 10
-0.2048447892
 20
8.1386884955
 10
-0.2181882432
 20
8.1213998185
 10
-0.2298715794
 20
8.1031939685
 10
-0.2397539745
 20
8.0842903873
 10
-0.2477163125
 20
8.0649169266
 10
-0.2536626203
 20
8.0453071016
  0
LINE
  5
33E
100
AcDbEntity
  8
RACCORDO
100
AcDbLine
 62
250
  6
CONTINUOUS
 10
8.5927475412
 20
-7.9446928984
 11
8.2463373797
 21
-7.9446928984
  0
LINE
  5
33F
100
AcDbEntity
  8
RACCORDO
100
AcDbLine
 62
250
  6
CONTINUOUS
 10
0.0927475412
 20
-7.9446928984
 11
-0.2536626203
 21
-7.9446928984
  0
LINE
  5
340
100
AcDbEntity
  8
RACCORDO
100
AcDbLine
 62
250
  6
CONTINUOUS
 10
-8.4072524588
 20
-7.9446928984
 11
-8.7536626203
 21
-7.9446928984
  0
LWPOLYLINE
  5
341
100
AcDbEntity
  8
RACCORDO
100
AcDbPolyline
 62
250
  6
CONTINUOUS
 90
28
 70
0
 10
9.3136023528
 20
-9.0119578715
 10
9.3217421435
 20
-9.0132004434
 10
9.3298758532
 20
-9.0141704607
 10
9.3379978077
 20
-9.0148618885
 10
9.3460508906
 20
-9.0152808125
 10
9.3540797885
 20
-9.015412459
 10
9.3622288872
 20
-9.0152074538
 10
9.3705125176
 20
-9.014663519
 10
9.3788936876
 20
-9.0137472679
 10
9.3874323275
 20
-9.0123391705
 10
9.3961556023
 20
-9.0104183137
 10
9.4049919033
 20
-9.0079468543
 10
9.4138429654
 20
-9.004764968
 10
9.4226956635
 20
-9.0008467837
 10
9.4314900209
 20
-8.9961575309
 10
9.4400476654
 20
-8.9905214102
 10
9.4483341811
 20
-8.9839026389
 10
9.456275784
 20
-8.9762895653
 10
9.4636296705
 20
-8.9675514995
 10
9.4703269619
 20
-8.9576550926
 10
9.4763020483
 20
-8.9466241705
 10
9.4813244478
 20
-8.9344340089
 10
9.4853041782
 20
-8.9210830117
 10
9.4881959741
 20
-8.9066164924
 10
9.4898562225
 20
-8.8911014257
 10
9.4902036189
 20
-8.8745918109
 10
9.4892057062
 20
-8.8571238426
 10
9.4868053259
 20
-8.838750683
  0
LWPOLYLINE
  5
342
100
AcDbEntity
  8
RACCORDO
100
AcDbPolyline
 62
250
  6
CONTINUOUS
 90
31
 70
0
 10
-7.3399874857
 20
8.9393669939
 10
-7.3401677769
 20
8.9521060542
 10
-7.3407376236
 20
8.9647774971
 10
-7.3416970259
 20
8.9773813228
 10
-7.3430180808
 20
8.9898510278
 10
-7.3447286912
 20
9.0022531154
 10
-7.3469125661
 20
9.0147870963
 10
-7.3495354735
 20
9.027469366
 10
-7.3526316453
 20
9.040283529
 10
-7.3563874854
 20
9.053379909
 10
-7.3607813749
 20
9.0668184453
 10
-7.3658349328
 20
9.0805391988
 10
-7.3717994198
 20
9.0945126754
 10
-7.378677566
 20
9.1088076542
 10
-7.3864666415
 20
9.1233553561
 10
-7.3954097167
 20
9.1379199505
 10
-7.4055193549
 20
9.1525395872
 10
-7.4167829929
 20
9.1671761163
 10
-7.4294060122
 20
9.1814792574
 10
-7.4434340965
 20
9.1954839239
 10
-7.4588215621
 20
9.2091552024
 10
-7.4756367394
 20
9.2220380725
 10
-7.4939387327
 20
9.2341313163
 10
-7.5136684377
 20
9.2454361517
 10
-7.5347168718
 20
9.2555012115
 10
-7.5571249131
 20
9.2642936846
 10
-7.5808516836
 20
9.2718463822
 10
-7.6056655667
 20
9.2778063714
 10
-7.6314893569
 20
9.2820560078
 10
-7.6584002596
 20
9.2847129358
 10
-7.6863982749
 20
9.2857771555
  0
LINE
  5
343
100
AcDbEntity
  8
RACCORDO
100
AcDbLine
 62
7
  6
CONTINUOUS
 10
-6.0553597374
 20
-1.274745009
 11
-6.0541871112
 21
-5.1234681615
  0
LINE
  5
344
100
AcDbEntity
  8
RACCORDO
100
AcDbLine
 62
250
  6
CONTINUOUS
 10
-7.3399874857
 20
-8.8387517022
 11
-7.3399874857
 21
8.9393669939
  0
LINE
  5
345
100
AcDbEntity
  8
RACCORDO
100
AcDbLine
 62
250
  6
CONTINUOUS
 10
-6.3752667185
 20
-5.1445934602
 11
-6.3752667185
 21
-1.25479255
  0
LINE
  5
346
100
AcDbEntity
  8
RACCORDO
100
AcDbLine
 62
250
  6
CONTINUOUS
 10
-6.0753124099
 20
-5.1445934602
 11
-6.0753124099
 21
-1.2547923365
  0
LINE
  5
347
100
AcDbEntity
  8
0
100
AcDbLine
 62
7
  6
CONTINUOUS
 10
-6.0304575395
 20
-1.1554079099
 11
-6.0304575395
 21
-1.6496928984
  0
LWPOLYLINE
  5
348
100
AcDbEntity
  8
RACCORDO
100
AcDbPolyline
 62
250
  6
CONTINUOUS
 90
19
 70
0
 10
-6.0753123982
 20
-1.2547923482
 10
-6.0741484945
 20
-1.2282931511
 10
-6.0706455017
 20
-1.2019819498
 10
-6.0648254415
 20
-1.1760652034
 10
-6.0567017251
 20
-1.1506742182
 10
-6.0463468663
 20
-1.1260875287
 10
-6.0339556372
 20
-1.1027025453
 10
-6.0197047016
 20
-1.0807183963
 10
-6.003726529
 20
-1.060224454
 10
-5.9862366683
 20
-1.0413921995
 10
-5.9675663384
 20
-1.024434487
 10
-5.9477697315
 20
-1.0092702506
 10
-5.9265871198
 20
-0.9956907407
 10
-5.9040413099
 20
-0.983793253
 10
-5.8803552721
 20
-0.9737751502
 10
-5.8554965045
 20
-0.9657119735
 10
-5.8295575509
 20
-0.9597563448
 10
-5.8027774098
 20
-0.9560848038
 10
-5.77535809
 20
-0.9548380393
  0
LWPOLYLINE
  5
349
100
AcDbEntity
  8
RACCORDO
100
AcDbPolyline
 62
250
  6
CONTINUOUS
 90
19
 70
0
 10
-6.3752667185
 20
-1.25479255
 10
-6.3727893209
 20
-1.2011311767
 10
-6.3657841551
 20
-1.1486601916
 10
-6.3542512211
 20
-1.0973795945
 10
-6.3379287012
 20
-1.0467940679
 10
-6.3170784131
 20
-0.9973989295
 10
-6.2924858098
 20
-0.9506801318
 10
-6.264048394
 20
-0.9068695155
 10
-6.2318686629
 20
-0.86573524
 10
-6.1970395614
 20
-0.8280677366
 10
-6.1598891578
 20
-0.7941220307
 10
-6.1200893837
 20
-0.7636430968
 10
-6.0777489782
 20
-0.7366562894
 10
-6.032726879
 20
-0.712919582
 10
-5.9851641483
 20
-0.6926750011
 10
-5.9355927126
 20
-0.6766739809
 10
-5.8841898806
 20
-0.6651669997
 10
-5.8307783435
 20
-0.6579035792
 10
-5.7753581014
 20
-0.6548837195
  0
LWPOLYLINE
  5
34A
100
AcDbEntity
  8
RACCORDO
100
AcDbPolyline
 62
250
  6
CONTINUOUS
 90
19
 70
0
 10
-5.7753578879
 20
-5.7445020773
 10
-5.8290192612
 20
-5.7420246797
 10
-5.8814902464
 20
-5.7350195139
 10
-5.9327708434
 20
-5.7234865799
 10
-5.98335637
 20
-5.7071640601
 10
-6.0327515084
 20
-5.686313772
 10
-6.0794703061
 20
-5.6617211687
 10
-6.1232809224
 20
-5.6332837529
 10
-6.1644151979
 20
-5.6011040218
 10
-6.2020827014
 20
-5.5662749202
 10
-6.2360284072
 20
-5.5291245167
 10
-6.2665073411
 20
-5.4893247426
 10
-6.2934941485
 20
-5.4469843371
 10
-6.3172308559
 20
-5.4019622378
 10
-6.3374754368
 20
-5.3543995072
 10
-6.353476457
 20
-5.3048280715
 10
-6.3649834382
 20
-5.2534252395
 10
-6.3722468587
 20
-5.2000137024
 10
-6.3752667185
 20
-5.1445934602
  0
LWPOLYLINE
  5
34B
100
AcDbEntity
  8
RACCORDO
100
AcDbPolyline
 62
7
  6
CONTINUOUS
 90
4
 70
0
 10
-18.6197397127
 20
-2.4532529215
 10
-18.6013004925
 20
-2.4567141522
 10
-18.5834359891
 20
-2.4612297039
 10
-18.5804575395
 20
-2.4621790922
  0
LINE
  5
34C
100
AcDbEntity
  8
RACCORDO
100
AcDbLine
 62
250
  6
CONTINUOUS
 10
-2.8855569777
 20
-5.4445477688
 11
-2.9067736384
 21
-5.423331108
  0
LWPOLYLINE
  5
34D
100
AcDbEntity
  8
RACCORDO
100
AcDbPolyline
 62
250
  6
CONTINUOUS
 90
13
 70
0
 10
-3.9573581864
 20
-10.7766392367
 10
-3.9547810552
 20
-10.8157839723
 10
-3.9471176003
 20
-10.8542591272
 10
-3.9344989164
 20
-10.8914066282
 10
-3.9171408446
 20
-10.9265911261
 10
-3.8953402964
 20
-10.9592108257
 10
-3.8694701898
 20
-10.9887077879
 10
-3.8399730308
 20
-11.0145775248
 10
-3.8073533498
 20
-11.0363775996
 10
-3.7721691043
 20
-11.0537351725
 10
-3.7350220961
 20
-11.0663534076
 10
-3.6965476715
 20
-11.0740165384
 10
-3.6574038778
 20
-11.0765935452
  0
LINE
  5
34E
100
AcDbEntity
  8
RACCORDO
100
AcDbLine
 62
250
  6
CONTINUOUS
 10
-5.7753581014
 20
-0.6548837195
 11
-5.7753581014
 21
-0.954838028
  0
LINE
  5
34F
100
AcDbEntity
  8
RACCORDO
100
AcDbLine
 62
250
  6
CONTINUOUS
 10
-5.7753581014
 20
-5.7445020773
 11
-5.7753581014
 21
-5.4445477688
  0
LINE
  5
350
100
AcDbEntity
  8
0
100
AcDbLine
 62
7
  6
CONTINUOUS
 10
-5.5804575395
 20
-5.3496928984
 11
-5.5804575395
 21
-5.423331108
  0
LINE
  5
351
100
AcDbEntity
  8
0
100
AcDbLine
 62
250
  6
CONTINUOUS
 10
-5.2804575395
 20
-5.3496928984
 11
-5.2804575395
 21
-5.423331108
  0
LINE
  5
352
100
AcDbEntity
  8
RACCORDO
100
AcDbLine
 62
250
  6
CONTINUOUS
 10
0.8136023528
 20
9.1125720747
 11
-0.0804575395
 21
8.2185121824
  0
LINE
  5
353
100
AcDbEntity
  8
RACCORDO
100
AcDbLine
 62
250
  6
CONTINUOUS
 10
0.9868074336
 20
8.9393669939
 11
0.0927475412
 21
8.0453071016
  0
LINE
  5
354
100
AcDbEntity
  8
RACCORDO
100
AcDbLine
 62
250
  6
CONTINUOUS
 10
-18.5681476042
 20
-10.6874591155
 11
-18.5804575395
 21
-10.6997690508
  0
LINE
  5
355
100
AcDbEntity
  8
RACCORDO
100
AcDbLine
 62
250
  6
CONTINUOUS
 10
-18.0682237566
 20
-11.1873829631
 11
-18.0805336919
 21
-11.1996928984
  0
LWPOLYLINE
  5
356
100
AcDbEntity
  8
RACCORDO
100
AcDbPolyline
 62
250
  6
CONTINUOUS
 90
13
 70
0
 10
8.4195424605
 20
8.2185121824
 10
8.3999326355
 20
8.2125658746
 10
8.3805591748
 20
8.2046035366
 10
8.3616555936
 20
8.1947211415
 10
8.3434497436
 20
8.1830378053
 10
8.3261610666
 20
8.1696943513
 10
8.309997949
 20
8.1548516131
 10
8.2951552108
 20
8.1386884955
 10
8.2818117568
 20
8.1213998185
 10
8.2701284206
 20
8.1031939685
 10
8.2602460255
 20
8.0842903873
 10
8.2522836875
 20
8.0649169266
 10
8.2463373797
 20
8.0453071016
  0
LINE
  5
357
100
AcDbEntity
  8
RACCORDO
100
AcDbLine
 62
250
  6
CONTINUOUS
 10
14.1144430223
 20
-5.7445020773
 11
11.2246421121
 21
-5.7445020773
  0
LINE
  5
358
100
AcDbEntity
  8
RACCORDO
100
AcDbLine
 62
250
  6
CONTINUOUS
 10
5.6144430223
 20
-5.7445020773
 11
2.7246421121
 21
-5.7445020773
  0
LINE
  5
359
100
AcDbEntity
  8
RACCORDO
100
AcDbLine
 62
250
  6
CONTINUOUS
 10
-2.8855569777
 20
-5.7445020773
 11
-5.7753578879
 21
-5.7445020773
  0
LINE
  5
35A
100
AcDbEntity
  8
RACCORDO
100
AcDbLine
 62
250
  6
CONTINUOUS
 10
14.1144430223
 20
-5.4445477688
 11
11.2246418986
 21
-5.4445477688
  0
LINE
  5
35B
100
AcDbEntity
  8
RACCORDO
100
AcDbLine
 62
250
  6
CONTINUOUS
 10
5.6144430223
 20
-5.4445477688
 11
2.7246418986
 21
-5.4445477688
  0
LINE
  5
35C
100
AcDbEntity
  8
RACCORDO
100
AcDbLine
 62
250
  6
CONTINUOUS
 10
-2.8855569777
 20
-5.4445477688
 11
-5.7753581014
 21
-5.4445477688
  0
LINE
  5
35D
100
AcDbEntity
  8
RACCORDO
100
AcDbLine
 62
7
  6
CONTINUOUS
 10
-5.7541414406
 20
-5.423331108
 11
-2.9067736384
 21
-5.423331108
  0
LINE
  5
35E
100
AcDbEntity
  8
RACCORDO
100
AcDbLine
 62
7
  6
CONTINUOUS
 10
2.7458585594
 20
-5.423331108
 11
5.5932263616
 21
-5.423331108
  0
LINE
  5
35F
100
AcDbEntity
  8
RACCORDO
100
AcDbLine
 62
7
  6
CONTINUOUS
 10
11.2458585594
 20
-5.423331108
 11
14.0932263616
 21
-5.423331108
  0
LINE
  5
360
100
AcDbEntity
  8
0
100
AcDbLine
 62
7
  6
CONTINUOUS
 10
-5.5804575395
 20
-5.3496928984
 11
-3.0804575395
 21
-5.3496928984
  0
LINE
  5
361
100
AcDbEntity
  8
0
100
AcDbLine
 62
7
  6
CONTINUOUS
 10
2.9195424605
 20
-5.3496928984
 11
5.4195424605
 21
-5.3496928984
  0
LINE
  5
362
100
AcDbEntity
  8
0
100
AcDbLine
 62
7
  6
CONTINUOUS
 10
11.4195424605
 20
-5.3496928984
 11
13.9195424605
 21
-5.3496928984
  0
LINE
  5
363
100
AcDbEntity
  8
RACCORDO
100
AcDbLine
 62
7
  6
CONTINUOUS
 10
-5.8021719072
 20
-5.3280242221
 11
-2.8587431718
 21
-5.3280242221
  0
LINE
  5
364
100
AcDbEntity
  8
RACCORDO
100
AcDbLine
 62
7
  6
CONTINUOUS
 10
2.6978280928
 20
-5.3280242221
 11
5.6412568282
 21
-5.3280242221
  0
LINE
  5
365
100
AcDbEntity
  8
RACCORDO
100
AcDbLine
 62
7
  6
CONTINUOUS
 10
11.1978280928
 20
-5.3280242221
 11
14.1412568282
 21
-5.3280242221
  0
LINE
  5
366
100
AcDbEntity
  8
RACCORDO
100
AcDbLine
 62
250
  6
CONTINUOUS
 10
14.7143516394
 20
-5.1445934602
 11
14.4143973309
 21
-5.1445934602
  0
LINE
  5
367
100
AcDbEntity
  8
RACCORDO
100
AcDbLine
 62
250
  6
CONTINUOUS
 10
-6.3752667185
 20
-5.1445934602
 11
-6.0753124099
 21
-5.1445934602
  0
LINE
  5
368
100
AcDbEntity
  8
RACCORDO
100
AcDbLine
 62
250
  6
CONTINUOUS
 10
6.2143516394
 20
-5.1445934602
 11
5.9143973309
 21
-5.1445934602
  0
LINE
  5
369
100
AcDbEntity
  8
RACCORDO
100
AcDbLine
 62
250
  6
CONTINUOUS
 10
2.1247332815
 20
-5.1445934602
 11
2.4246875901
 21
-5.1445934602
  0
LINE
  5
36A
100
AcDbEntity
  8
RACCORDO
100
AcDbLine
 62
250
  6
CONTINUOUS
 10
-2.2856483606
 20
-5.1445934602
 11
-2.5856026691
 21
-5.1445934602
  0
LINE
  5
36B
100
AcDbEntity
  8
RACCORDO
100
AcDbLine
 62
250
  6
CONTINUOUS
 10
10.6247332815
 20
-5.1445934602
 11
10.9246875901
 21
-5.1445934602
  0
LWPOLYLINE
  5
36C
100
AcDbEntity
  8
RACCORDO
100
AcDbPolyline
 62
250
  6
CONTINUOUS
 90
19
 70
0
 10
-5.7753580897
 20
-5.4445477571
 10
-5.8018572868
 20
-5.4433838533
 10
-5.8281684881
 20
-5.4398808606
 10
-5.8540852345
 20
-5.4340608004
 10
-5.8794762197
 20
-5.425937084
 10
-5.9040629092
 20
-5.4155822251
 10
-5.9274478926
 20
-5.403190996
 10
-5.9494320416
 20
-5.3889400605
 10
-5.9699259839
 20
-5.3729618879
 10
-5.9887582384
 20
-5.3554720272
 10
-6.0057159509
 20
-5.3368016972
 10
-6.0208801873
 20
-5.3170050904
 10
-6.0344596972
 20
-5.2958224786
 10
-6.0463571849
 20
-5.2732766688
 10
-6.0563752877
 20
-5.249590631
 10
-6.0644384644
 20
-5.2247318633
 10
-6.0703940931
 20
-5.1987929098
 10
-6.0740656341
 20
-5.1720127686
 10
-6.0753123986
 20
-5.1445934489
  0
LWPOLYLINE
  5
36D
100
AcDbEntity
  8
RACCORDO
100
AcDbPolyline
 62
250
  6
CONTINUOUS
 90
19
 70
0
 10
2.7246419103
 20
-5.4445477571
 10
2.6981427132
 20
-5.4433838533
 10
2.6718315119
 20
-5.4398808606
 10
2.6459147655
 20
-5.4340608004
 10
2.6205237803
 20
-5.425937084
 10
2.5959370908
 20
-5.4155822251
 10
2.5725521074
 20
-5.403190996
 10
2.5505679584
 20
-5.3889400605
 10
2.5300740161
 20
-5.3729618879
 10
2.5112417616
 20
-5.3554720272
 10
2.4942840491
 20
-5.3368016972
 10
2.4791198127
 20
-5.3170050904
 10
2.4655403028
 20
-5.2958224786
 10
2.4536428151
 20
-5.2732766688
 10
2.4436247123
 20
-5.249590631
 10
2.4355615356
 20
-5.2247318633
 10
2.4296059069
 20
-5.1987929098
 10
2.4259343659
 20
-5.1720127686
 10
2.4246876014
 20
-5.1445934489
  0
LWPOLYLINE
  5
36E
100
AcDbEntity
  8
RACCORDO
100
AcDbPolyline
 62
250
  6
CONTINUOUS
 90
19
 70
0
 10
11.2246419103
 20
-5.4445477571
 10
11.1981427132
 20
-5.4433838533
 10
11.1718315119
 20
-5.4398808606
 10
11.1459147655
 20
-5.4340608004
 10
11.1205237803
 20
-5.425937084
 10
11.0959370908
 20
-5.4155822251
 10
11.0725521074
 20
-5.403190996
 10
11.0505679584
 20
-5.3889400605
 10
11.0300740161
 20
-5.3729618879
 10
11.0112417616
 20
-5.3554720272
 10
10.9942840491
 20
-5.3368016972
 10
10.9791198127
 20
-5.3170050904
 10
10.9655403028
 20
-5.2958224786
 10
10.9536428151
 20
-5.2732766688
 10
10.9436247123
 20
-5.249590631
 10
10.9355615356
 20
-5.2247318633
 10
10.9296059069
 20
-5.1987929098
 10
10.9259343659
 20
-5.1720127686
 10
10.9246876014
 20
-5.1445934489
  0
LWPOLYLINE
  5
36F
100
AcDbEntity
  8
RACCORDO
100
AcDbPolyline
 62
250
  6
CONTINUOUS
 90
19
 70
0
 10
2.7246421121
 20
-5.7445020773
 10
2.6709807388
 20
-5.7420246797
 10
2.6185097536
 20
-5.7350195139
 10
2.5672291566
 20
-5.7234865799
 10
2.51664363
 20
-5.7071640601
 10
2.4672484916
 20
-5.686313772
 10
2.4205296939
 20
-5.6617211687
 10
2.3767190776
 20
-5.6332837529
 10
2.3355848021
 20
-5.6011040218
 10
2.2979172986
 20
-5.5662749202
 10
2.2639715928
 20
-5.5291245167
 10
2.2334926589
 20
-5.4893247426
 10
2.2065058515
 20
-5.4469843371
 10
2.1827691441
 20
-5.4019622378
 10
2.1625245632
 20
-5.3543995072
 10
2.146523543
 20
-5.3048280715
 10
2.1350165618
 20
-5.2534252395
 10
2.1277531413
 20
-5.2000137024
 10
2.1247332815
 20
-5.1445934602
  0
LWPOLYLINE
  5
370
100
AcDbEntity
  8
RACCORDO
100
AcDbPolyline
 62
250
  6
CONTINUOUS
 90
19
 70
0
 10
11.2246421121
 20
-5.7445020773
 10
11.1709807388
 20
-5.7420246797
 10
11.1185097536
 20
-5.7350195139
 10
11.0672291566
 20
-5.7234865799
 10
11.01664363
 20
-5.7071640601
 10
10.9672484916
 20
-5.686313772
 10
10.9205296939
 20
-5.6617211687
 10
10.8767190776
 20
-5.6332837529
 10
10.8355848021
 20
-5.6011040218
 10
10.7979172986
 20
-5.5662749202
 10
10.7639715928
 20
-5.5291245167
 10
10.7334926589
 20
-5.4893247426
 10
10.7065058515
 20
-5.4469843371
 10
10.6827691441
 20
-5.4019622378
 10
10.6625245632
 20
-5.3543995072
 10
10.646523543
 20
-5.3048280715
 10
10.6350165618
 20
-5.2534252395
 10
10.6277531413
 20
-5.2000137024
 10
10.6247332815
 20
-5.1445934602
  0
LINE
  5
371
100
AcDbEntity
  8
RACCORDO
100
AcDbLine
 62
250
  6
CONTINUOUS
 10
-0.0804575395
 20
-8.1178979791
 11
0.8136023528
 21
-9.0119578715
  0
LINE
  5
372
100
AcDbEntity
  8
RACCORDO
100
AcDbLine
 62
250
  6
CONTINUOUS
 10
0.0927475412
 20
-7.9446928984
 11
0.9868074336
 21
-8.8387527907
  0
LINE
  5
373
100
AcDbEntity
  8
RACCORDO
100
AcDbLine
 62
250
  6
CONTINUOUS
 10
-18.5681476042
 20
10.7880733187
 11
-18.5804575395
 21
10.800383254
  0
LINE
  5
374
100
AcDbEntity
  8
RACCORDO
100
AcDbLine
 62
250
  6
CONTINUOUS
 10
-2.5856026691
 20
-5.1445934602
 11
-2.6067279678
 21
-5.1234681615
  0
LINE
  5
375
100
AcDbEntity
  8
RACCORDO
100
AcDbLine
 62
250
  6
CONTINUOUS
 10
3.4964887988
 20
-11.0765935452
 11
3.6072782166
 21
-11.1873829631
  0
LINE
  5
376
100
AcDbEntity
  8
RACCORDO
100
AcDbLine
 62
250
  6
CONTINUOUS
 10
-6.0753124099
 20
-1.2547923365
 11
-6.0553597374
 21
-1.274745009
  0
LINE
  5
377
100
AcDbEntity
  8
RACCORDO
100
AcDbLine
 62
250
  6
CONTINUOUS
 10
3.7964431073
 20
-10.7766392367
 11
3.9020873956
 21
-10.8822835249
  0
LINE
  5
378
100
AcDbEntity
  8
RACCORDO
100
AcDbLine
 62
250
  6
CONTINUOUS
 10
-18.0682237566
 20
11.2879971663
 11
-18.0805336919
 21
11.3003071016
  0
LINE
  5
379
100
AcDbEntity
  8
RACCORDO
100
AcDbLine
 62
250
  6
CONTINUOUS
 10
-5.7753581014
 20
-0.954838028
 11
-5.7554968466
 21
-0.9746992827
  0
LWPOLYLINE
  5
37A
100
AcDbEntity
  8
RACCORDO
100
AcDbPolyline
 62
250
  6
CONTINUOUS
 90
16
 70
0
 10
-8.4072524588
 20
8.0453071016
 10
-8.4112652283
 20
8.0592503715
 10
-8.4165447912
 20
8.0736962178
 10
-8.4231910691
 20
8.0885317083
 10
-8.4313700476
 20
8.1037541519
 10
-8.44109581
 20
8.1190584004
 10
-8.4521212307
 20
8.1338844509
 10
-8.4643648915
 20
8.148059662
 10
-8.4777690543
 20
8.1614592829
 10
-8.49194578
 20
8.1736959852
 10
-8.5067699692
 20
8.1847126721
 10
-8.5220687337
 20
8.1944286396
 10
-8.537281912
 20
8.2025976188
 10
-8.5521044392
 20
8.2092344555
 10
-8.5665338632
 20
8.2145057935
 10
-8.5804575395
 20
8.2185121824
  0
LINE
  5
37B
100
AcDbEntity
  8
RACCORDO
100
AcDbLine
 62
7
  6
CONTINUOUS
 10
-4.0630024746
 20
-10.8822835249
 11
-4.0630024746
 21
-10.2671022719
  0
LINE
  5
37C
100
AcDbEntity
  8
RACCORDO
100
AcDbLine
 62
250
  6
CONTINUOUS
 10
-3.9573581864
 20
-10.7766392367
 11
-3.9573581864
 21
-10.3727465601
  0
LINE
  5
37D
100
AcDbEntity
  8
0
100
AcDbLine
 62
250
  6
CONTINUOUS
 10
-3.3804575395
 20
-5.3496928984
 11
-3.3804575395
 21
-5.423331108
  0
LINE
  5
37E
100
AcDbEntity
  8
0
100
AcDbLine
 62
7
  6
CONTINUOUS
 10
-3.0804575395
 20
-5.3496928984
 11
-3.0804575395
 21
-5.423331108
  0
LINE
  5
37F
100
AcDbEntity
  8
RACCORDO
100
AcDbLine
 62
250
  6
CONTINUOUS
 10
-2.8855569777
 20
-0.6548837195
 11
-2.8855569777
 21
-0.954838028
  0
LINE
  5
380
100
AcDbEntity
  8
RACCORDO
100
AcDbLine
 62
250
  6
CONTINUOUS
 10
-2.8855569777
 20
-5.7445020773
 11
-2.8855569777
 21
-5.4445477688
  0
LWPOLYLINE
  5
381
100
AcDbEntity
  8
RACCORDO
100
AcDbPolyline
 62
250
  6
CONTINUOUS
 90
31
 70
0
 10
-1.3209275934
 20
-8.8387527907
 10
-1.3207473022
 20
-8.851491851
 10
-1.3201774554
 20
-8.8641632939
 10
-1.3192180532
 20
-8.8767671196
 10
-1.3178969983
 20
-8.8892368245
 10
-1.3161863878
 20
-8.9016389122
 10
-1.314002513
 20
-8.9141728931
 10
-1.3113796056
 20
-8.9268551628
 10
-1.3082834338
 20
-8.9396693257
 10
-1.3045275936
 20
-8.9527657058
 10
-1.3001337041
 20
-8.9662042421
 10
-1.2950801463
 20
-8.9799249955
 10
-1.2891156592
 20
-8.9938984722
 10
-1.282237513
 20
-9.0081934509
 10
-1.2744484376
 20
-9.0227411529
 10
-1.2655053623
 20
-9.0373057473
 10
-1.2553957242
 20
-9.051925384
 10
-1.2441320862
 20
-9.0665619131
 10
-1.2315090669
 20
-9.0808650542
 10
-1.2174809826
 20
-9.0948697207
 10
-1.2020935169
 20
-9.1085409992
 10
-1.1852783396
 20
-9.1214238693
 10
-1.1669763463
 20
-9.1335171131
 10
-1.1472466414
 20
-9.1448219484
 10
-1.1261982072
 20
-9.1548870083
 10
-1.1037901659
 20
-9.1636794814
 10
-1.0800633954
 20
-9.171232179
 10
-1.0552495123
 20
-9.1771921681
 10
-1.0294257222
 20
-9.1814418046
 10
-1.0025148194
 20
-9.1840987326
 10
-0.9745168041
 20
-9.1851629522
  0
LINE
  5
382
100
AcDbEntity
  8
0
100
AcDbLine
 62
7
  6
CONTINUOUS
 10
-2.6304575395
 20
-1.1554078865
 11
-2.6304575395
 21
-1.6496928984
  0
LINE
  5
383
100
AcDbEntity
  8
RACCORDO
100
AcDbLine
 62
250
  6
CONTINUOUS
 10
-2.5856026691
 20
-1.2547923365
 11
-2.5856026691
 21
-5.1445934602
  0
LINE
  5
384
100
AcDbEntity
  8
RACCORDO
100
AcDbLine
 62
250
  6
CONTINUOUS
 10
-2.2856483606
 20
-1.2547923365
 11
-2.2856483606
 21
-5.1445932468
  0
LINE
  5
385
100
AcDbEntity
  8
RACCORDO
100
AcDbLine
 62
7
  6
CONTINUOUS
 10
-2.6067279678
 20
-5.1234681615
 11
-2.6055553416
 21
-1.274745009
  0
LWPOLYLINE
  5
386
100
AcDbEntity
  8
RACCORDO
100
AcDbPolyline
 62
250
  6
CONTINUOUS
 90
19
 70
0
 10
-2.5856026808
 20
-5.1445934485
 10
-2.5867665846
 20
-5.1710926457
 10
-2.5902695773
 20
-5.197403847
 10
-2.5960896375
 20
-5.2233205933
 10
-2.6042133539
 20
-5.2487115786
 10
-2.6145682128
 20
-5.273298268
 10
-2.6269594419
 20
-5.2966832514
 10
-2.6412103774
 20
-5.3186674005
 10
-2.65718855
 20
-5.3391613427
 10
-2.6746784107
 20
-5.3579935972
 10
-2.6933487407
 20
-5.3749513098
 10
-2.7131453475
 20
-5.3901155462
 10
-2.7343279593
 20
-5.4036950561
 10
-2.7568737691
 20
-5.4155925437
 10
-2.7805598069
 20
-5.4256106466
 10
-2.8054185746
 20
-5.4336738233
 10
-2.8313575281
 20
-5.439629452
 10
-2.8581376693
 20
-5.443300993
 10
-2.885556989
 20
-5.4445477575
  0
LWPOLYLINE
  5
387
100
AcDbEntity
  8
RACCORDO
100
AcDbPolyline
 62
250
  6
CONTINUOUS
 90
19
 70
0
 10
-2.2856483606
 20
-5.1445932468
 10
-2.2881257582
 20
-5.1982546201
 10
-2.295130924
 20
-5.2507256052
 10
-2.306663858
 20
-5.3020062023
 10
-2.3229863778
 20
-5.3525917288
 10
-2.3438366659
 20
-5.4019868673
 10
-2.3684292692
 20
-5.4487056649
 10
-2.396866685
 20
-5.4925162813
 10
-2.4290464161
 20
-5.5336505567
 10
-2.4638755177
 20
-5.5713180602
 10
-2.5010259212
 20
-5.6052637661
 10
-2.5408256953
 20
-5.6357427
 10
-2.5831661008
 20
-5.6627295074
 10
-2.6281882001
 20
-5.6864662148
 10
-2.6757509307
 20
-5.7067107957
 10
-2.7253223664
 20
-5.7227118158
 10
-2.7767251984
 20
-5.7342187971
 10
-2.8301367355
 20
-5.7414822176
 10
-2.8855569777
 20
-5.7445020773
  0
LINE
  5
388
100
AcDbEntity
  8
RACCORDO
100
AcDbLine
 62
7
  6
CONTINUOUS
 10
18.4965552409
 20
-2.4498087777
 11
18.5048886941
 21
-2.4496929014
  0
LINE
  5
389
100
AcDbEntity
  8
RACCORDO
100
AcDbLine
 62
7
  6
CONTINUOUS
 10
19.1195424605
 20
-2.4496928984
 11
18.5048908603
 21
-2.4496928984
  0
LINE
  5
38A
100
AcDbEntity
  8
RACCORDO
100
AcDbLine
 62
7
  6
CONTINUOUS
 10
-18.6658059393
 20
-2.4496928984
 11
-19.2804575395
 21
-2.4496928984
  0
LINE
  5
38B
100
AcDbEntity
  8
RACCORDO
100
AcDbLine
 62
250
  6
CONTINUOUS
 10
-18.5804575395
 20
-2.1496928984
 11
-19.5804575395
 21
-2.1496928984
  0
LINE
  5
38C
100
AcDbEntity
  8
RACCORDO
100
AcDbLine
 62
250
  6
CONTINUOUS
 10
18.4195424605
 20
-2.1496928976
 11
19.4195424605
 21
-2.1496928984
  0
LINE
  5
38D
100
AcDbEntity
  8
0
100
AcDbLine
 62
7
  6
CONTINUOUS
 10
-6.0304575395
 20
-1.6496928984
 11
-2.6304575395
 21
-1.6496928984
  0
LINE
  5
38E
100
AcDbEntity
  8
0
100
AcDbLine
 62
7
  6
CONTINUOUS
 10
2.4695424605
 20
-1.6496928984
 11
5.8695424605
 21
-1.6496928984
  0
LINE
  5
38F
100
AcDbEntity
  8
0
100
AcDbLine
 62
7
  6
CONTINUOUS
 10
10.9695424605
 20
-1.6496928984
 11
14.3695424605
 21
-1.6496928984
  0
LINE
  5
390
100
AcDbEntity
  8
RACCORDO
100
AcDbLine
 62
250
  6
CONTINUOUS
 10
14.7143516394
 20
-1.2547923365
 11
14.4143973309
 21
-1.2547923365
  0
LINE
  5
391
100
AcDbEntity
  8
RACCORDO
100
AcDbLine
 62
250
  6
CONTINUOUS
 10
-6.3752667185
 20
-1.2547923365
 11
-6.0753124099
 21
-1.2547923365
  0
LINE
  5
392
100
AcDbEntity
  8
RACCORDO
100
AcDbLine
 62
250
  6
CONTINUOUS
 10
6.2143516394
 20
-1.2547923365
 11
5.9143973309
 21
-1.2547923365
  0
LINE
  5
393
100
AcDbEntity
  8
RACCORDO
100
AcDbLine
 62
250
  6
CONTINUOUS
 10
2.1247332815
 20
-1.2547923365
 11
2.4246875901
 21
-1.2547923365
  0
LINE
  5
394
100
AcDbEntity
  8
RACCORDO
100
AcDbLine
 62
250
  6
CONTINUOUS
 10
-2.2856483606
 20
-1.2547923365
 11
-2.5856026691
 21
-1.2547923365
  0
LINE
  5
395
100
AcDbEntity
  8
RACCORDO
100
AcDbLine
 62
250
  6
CONTINUOUS
 10
10.6247332815
 20
-1.2547923365
 11
10.9246875901
 21
-1.2547923365
  0
LWPOLYLINE
  5
396
100
AcDbEntity
  8
RACCORDO
100
AcDbPolyline
 62
7
  6
CONTINUOUS
 90
4
 70
0
 10
-18.665803967
 20
-2.4496929009
 10
-18.6580909451
 20
-2.449792162
 10
-18.6386929328
 20
-2.4509212931
 10
-18.6197397127
 20
-2.4532529215
  0
LWPOLYLINE
  5
397
100
AcDbEntity
  8
RACCORDO
100
AcDbPolyline
 62
250
  6
CONTINUOUS
 90
16
 70
0
 10
-0.2536626203
 20
-7.9446928984
 10
-0.2496498508
 20
-7.9586361683
 10
-0.2443702878
 20
-7.9730820146
 10
-0.2377240099
 20
-7.9879175051
 10
-0.2295450314
 20
-8.0031399486
 10
-0.2198192691
 20
-8.0184441971
 10
-0.2087938483
 20
-8.0332702477
 10
-0.1965501875
 20
-8.0474454588
 10
-0.1831460247
 20
-8.0608450797
 10
-0.168969299
 20
-8.073081782
 10
-0.1541451098
 20
-8.0840984689
 10
-0.1388463454
 20
-8.0938144364
 10
-0.1236331671
 20
-8.1019834156
 10
-0.1088106398
 20
-8.1086202523
 10
-0.0943812159
 20
-8.1138915902
 10
-0.0804575395
 20
-8.1178979791
  0
LINE
  5
398
100
AcDbEntity
  8
RACCORDO
100
AcDbLine
 62
250
  6
CONTINUOUS
 10
-1.3209275934
 20
8.9393659055
 11
-1.3209275934
 21
-8.8387527907
  0
LINE
  5
399
100
AcDbEntity
  8
RACCORDO
100
AcDbLine
 62
250
  6
CONTINUOUS
 10
-1.1477225126
 20
8.9393669939
 11
-1.1477225126
 21
-8.8387527907
  0
LINE
  5
39A
100
AcDbEntity
  8
RACCORDO
100
AcDbLine
 62
250
  6
CONTINUOUS
 10
-0.9745174318
 20
-9.0119578715
 11
-0.9745174318
 21
-9.1851629522
  0
LINE
  5
39B
100
AcDbEntity
  8
RACCORDO
100
AcDbLine
 62
250
  6
CONTINUOUS
 10
-0.9745174318
 20
9.1125720747
 11
-0.9745174318
 21
9.2857771555
  0
LINE
  5
39C
100
AcDbEntity
  8
RACCORDO
100
AcDbLine
 62
250
  6
CONTINUOUS
 10
-0.9578151009
 20
-11.0302873787
 11
-0.9578151009
 21
-10.1190984181
  0
LINE
  5
39D
100
AcDbEntity
  8
RACCORDO
100
AcDbLine
 62
250
  6
CONTINUOUS
 10
-0.2536626203
 20
8.0453071016
 11
-0.2536626203
 21
-7.9446928984
  0
LINE
  5
39E
100
AcDbEntity
  8
RACCORDO
100
AcDbLine
 62
250
  6
CONTINUOUS
 10
0.0927475412
 20
8.0453071016
 11
0.0927475412
 21
-7.9446928984
  0
LWPOLYLINE
  5
39F
100
AcDbEntity
  8
RACCORDO
100
AcDbPolyline
 62
250
  6
CONTINUOUS
 90
31
 70
0
 10
0.9868074336
 20
8.9393669939
 10
0.9879720888
 20
8.946984999
 10
0.9888976205
 20
8.9545323073
 10
0.9895832046
 20
8.9620046074
 10
0.9900330986
 20
8.9693547201
 10
0.990243732
 20
8.9766211164
 10
0.9901942238
 20
8.9839266005
 10
0.989886629
 20
8.9912733374
 10
0.9893015693
 20
8.9986455872
 10
0.9883685238
 20
9.0061347695
 10
0.98707881
 20
9.013758813
 10
0.9854052212
 20
9.0214742285
 10
0.9832343859
 20
9.0292731701
 10
0.9805451078
 20
9.0371654013
 10
0.9773119885
 20
9.0450968007
 10
0.9734089352
 20
9.0529563708
 10
0.9688151396
 20
9.0607238157
 10
0.9635095474
 20
9.0683539101
 10
0.9573675212
 20
9.0756924805
 10
0.9503619344
 20
9.0827053812
 10
0.9424927484
 20
9.0893380848
 10
0.9336849631
 20
9.0954046705
 10
0.9239200854
 20
9.1008482764
 10
0.9132195604
 20
9.1056241339
 10
0.9015830322
 20
9.1095723088
 10
0.8890174074
 20
9.112627315
 10
0.875554468
 20
9.114756308
 10
0.8612447027
 20
9.1158620962
 10
0.8461286219
 20
9.1158868358
 10
0.8302341143
 20
9.1148037805
 10
0.8136008788
 20
9.1125706007
  0
LINE
  5
3A0
100
AcDbEntity
  8
RACCORDO
100
AcDbLine
 62
250
  6
CONTINUOUS
 10
-2.8855569777
 20
-0.954838028
 11
-2.9054182324
 21
-0.9746992827
  0
LINE
  5
3A1
100
AcDbEntity
  8
RACCORDO
100
AcDbLine
 62
250
  6
CONTINUOUS
 10
-2.5856026691
 20
-1.2547923365
 11
-2.6055553416
 21
-1.274745009
  0
LINE
  5
3A2
100
AcDbEntity
  8
RACCORDO
100
AcDbLine
 62
250
  6
CONTINUOUS
 10
-6.0753124099
 20
-5.1445934602
 11
-6.0541871112
 21
-5.1234681615
  0
LINE
  5
3A3
100
AcDbEntity
  8
RACCORDO
100
AcDbLine
 62
250
  6
CONTINUOUS
 10
-9.6477225126
 20
-8.8387527907
 11
-8.7536626203
 21
-7.9446928984
  0
LINE
  5
3A4
100
AcDbEntity
  8
RACCORDO
100
AcDbLine
 62
250
  6
CONTINUOUS
 10
-9.4745174318
 20
-9.0119578715
 11
-8.5804575395
 21
-8.1178979791
  0
LINE
  5
3A5
100
AcDbEntity
  8
RACCORDO
100
AcDbLine
 62
250
  6
CONTINUOUS
 10
-5.7753581014
 20
-5.4445477688
 11
-5.7541414406
 21
-5.423331108
  0
LINE
  5
3A6
100
AcDbEntity
  8
RACCORDO
100
AcDbLine
 62
7
  6
CONTINUOUS
 10
14.0945817676
 20
-0.9746992827
 11
11.2445031534
 21
-0.9746992827
  0
LINE
  5
3A7
100
AcDbEntity
  8
RACCORDO
100
AcDbLine
 62
7
  6
CONTINUOUS
 10
5.5945817676
 20
-0.9746992827
 11
2.7445031534
 21
-0.9746992827
  0
LINE
  5
3A8
100
AcDbEntity
  8
RACCORDO
100
AcDbLine
 62
7
  6
CONTINUOUS
 10
-2.9054182324
 20
-0.9746992827
 11
-5.7554968466
 21
-0.9746992827
  0
LINE
  5
3A9
100
AcDbEntity
  8
RACCORDO
100
AcDbLine
 62
250
  6
CONTINUOUS
 10
-5.7753581014
 20
-0.954838028
 11
-2.8855569777
 21
-0.954838028
  0
LINE
  5
3AA
100
AcDbEntity
  8
RACCORDO
100
AcDbLine
 62
250
  6
CONTINUOUS
 10
2.7246418986
 20
-0.954838028
 11
5.6144430223
 21
-0.954838028
  0
LINE
  5
3AB
100
AcDbEntity
  8
RACCORDO
100
AcDbLine
 62
250
  6
CONTINUOUS
 10
11.2246418986
 20
-0.954838028
 11
14.1144430223
 21
-0.954838028
  0
LINE
  5
3AC
100
AcDbEntity
  8
RACCORDO
100
AcDbLine
 62
250
  6
CONTINUOUS
 10
-5.7753581014
 20
-0.6548837195
 11
-2.8855571911
 21
-0.6548837195
  0
LINE
  5
3AD
100
AcDbEntity
  8
RACCORDO
100
AcDbLine
 62
250
  6
CONTINUOUS
 10
2.7246418986
 20
-0.6548837195
 11
5.6144428089
 21
-0.6548837195
  0
LINE
  5
3AE
100
AcDbEntity
  8
RACCORDO
100
AcDbLine
 62
250
  6
CONTINUOUS
 10
11.2246418986
 20
-0.6548837195
 11
14.1144428089
 21
-0.6548837195
  0
LWPOLYLINE
  5
3AF
100
AcDbEntity
  8
RACCORDO
100
AcDbPolyline
 62
250
  6
CONTINUOUS
 90
19
 70
0
 10
-2.8855569894
 20
-0.9548380397
 10
-2.8590577922
 20
-0.9560019434
 10
-2.8327465909
 20
-0.9595049362
 10
-2.8068298446
 20
-0.9653249964
 10
-2.7814388593
 20
-0.9734487128
 10
-2.7568521699
 20
-0.9838035716
 10
-2.7334671865
 20
-0.9961948007
 10
-2.7114830374
 20
-1.0104457363
 10
-2.6909890952
 20
-1.0264239089
 10
-2.6721568407
 20
-1.0439137696
 10
-2.6551991281
 20
-1.0625840995
 10
-2.6400348918
 20
-1.0823807064
 10
-2.6264553818
 20
-1.1035633181
 10
-2.6145578942
 20
-1.126109128
 10
-2.6045397913
 20
-1.1497951658
 10
-2.5964766146
 20
-1.1746539334
 10
-2.5905209859
 20
-1.200592887
 10
-2.5868494449
 20
-1.2273730281
 10
-2.5856026804
 20
-1.2547923479
  0
LWPOLYLINE
  5
3B0
100
AcDbEntity
  8
RACCORDO
100
AcDbPolyline
 62
250
  6
CONTINUOUS
 90
19
 70
0
 10
5.6144430106
 20
-0.9548380397
 10
5.6409422078
 20
-0.9560019434
 10
5.6672534091
 20
-0.9595049362
 10
5.6931701554
 20
-0.9653249964
 10
5.7185611407
 20
-0.9734487128
 10
5.7431478301
 20
-0.9838035716
 10
5.7665328135
 20
-0.9961948007
 10
5.7885169626
 20
-1.0104457363
 10
5.8090109048
 20
-1.0264239089
 10
5.8278431593
 20
-1.0439137696
 10
5.8448008719
 20
-1.0625840995
 10
5.8599651082
 20
-1.0823807064
 10
5.8735446182
 20
-1.1035633181
 10
5.8854421058
 20
-1.126109128
 10
5.8954602087
 20
-1.1497951658
 10
5.9035233854
 20
-1.1746539334
 10
5.9094790141
 20
-1.200592887
 10
5.9131505551
 20
-1.2273730281
 10
5.9143973196
 20
-1.2547923479
  0
LWPOLYLINE
  5
3B1
100
AcDbEntity
  8
RACCORDO
100
AcDbPolyline
 62
250
  6
CONTINUOUS
 90
19
 70
0
 10
14.1144430106
 20
-0.9548380397
 10
14.1409422078
 20
-0.9560019434
 10
14.1672534091
 20
-0.9595049362
 10
14.1931701554
 20
-0.9653249964
 10
14.2185611407
 20
-0.9734487128
 10
14.2431478301
 20
-0.9838035716
 10
14.2665328135
 20
-0.9961948007
 10
14.2885169626
 20
-1.0104457363
 10
14.3090109048
 20
-1.0264239089
 10
14.3278431593
 20
-1.0439137696
 10
14.3448008719
 20
-1.0625840995
 10
14.3599651083
 20
-1.0823807064
 10
14.3735446182
 20
-1.1035633181
 10
14.3854421058
 20
-1.126109128
 10
14.3954602087
 20
-1.1497951658
 10
14.4035233854
 20
-1.1746539334
 10
14.4094790141
 20
-1.200592887
 10
14.4131505551
 20
-1.2273730281
 10
14.4143973196
 20
-1.2547923479
  0
LWPOLYLINE
  5
3B2
100
AcDbEntity
  8
RACCORDO
100
AcDbPolyline
 62
250
  6
CONTINUOUS
 90
19
 70
0
 10
-2.8855571911
 20
-0.6548837195
 10
-2.8318958178
 20
-0.657361117
 10
-2.7794248327
 20
-0.6643662828
 10
-2.7281442356
 20
-0.6758992168
 10
-2.6775587091
 20
-0.6922217367
 10
-2.6281635706
 20
-0.7130720248
 10
-2.581444773
 20
-0.7376646281
 10
-2.5376341566
 20
-0.7661020439
 10
-2.4964998812
 20
-0.798281775
 10
-2.4588323777
 20
-0.8331108765
 10
-2.4248866718
 20
-0.8702612801
 10
-2.3944077379
 20
-0.9100610542
 10
-2.3674209306
 20
-0.9524014597
 10
-2.3436842231
 20
-0.9974235589
 10
-2.3234396422
 20
-1.0449862896
 10
-2.3074386221
 20
-1.0945577253
 10
-2.2959316408
 20
-1.1459605573
 10
-2.2886682203
 20
-1.1993720944
 10
-2.2856483606
 20
-1.2547923365
  0
LWPOLYLINE
  5
3B3
100
AcDbEntity
  8
RACCORDO
100
AcDbPolyline
 62
250
  6
CONTINUOUS
 90
19
 70
0
 10
5.6144428089
 20
-0.6548837195
 10
5.6681041822
 20
-0.657361117
 10
5.7205751673
 20
-0.6643662828
 10
5.7718557644
 20
-0.6758992168
 10
5.8224412909
 20
-0.6922217367
 10
5.8718364294
 20
-0.7130720248
 10
5.918555227
 20
-0.7376646281
 10
5.9623658434
 20
-0.7661020439
 10
6.0035001188
 20
-0.798281775
 10
6.0411676223
 20
-0.8331108765
 10
6.0751133282
 20
-0.8702612801
 10
6.1055922621
 20
-0.9100610542
 10
6.1325790694
 20
-0.9524014597
 10
6.1563157769
 20
-0.9974235589
 10
6.1765603578
 20
-1.0449862896
 10
6.1925613779
 20
-1.0945577253
 10
6.2040683592
 20
-1.1459605573
 10
6.2113317797
 20
-1.1993720944
 10
6.2143516394
 20
-1.2547923365
  0
LWPOLYLINE
  5
3B4
100
AcDbEntity
  8
RACCORDO
100
AcDbPolyline
 62
250
  6
CONTINUOUS
 90
19
 70
0
 10
14.1144428089
 20
-0.6548837195
 10
14.1681041822
 20
-0.657361117
 10
14.2205751673
 20
-0.6643662828
 10
14.2718557644
 20
-0.6758992168
 10
14.3224412909
 20
-0.6922217367
 10
14.3718364294
 20
-0.7130720248
 10
14.418555227
 20
-0.7376646281
 10
14.4623658434
 20
-0.7661020439
 10
14.5035001188
 20
-0.798281775
 10
14.5411676223
 20
-0.8331108765
 10
14.5751133282
 20
-0.8702612801
 10
14.6055922621
 20
-0.9100610542
 10
14.6325790694
 20
-0.9524014597
 10
14.6563157769
 20
-0.9974235589
 10
14.6765603578
 20
-1.0449862896
 10
14.6925613779
 20
-1.0945577253
 10
14.7040683592
 20
-1.1459605573
 10
14.7113317797
 20
-1.1993720944
 10
14.7143516394
 20
-1.2547923365
  0
LINE
  5
3B5
100
AcDbEntity
  8
RACCORDO
100
AcDbLine
 62
250
  6
CONTINUOUS
 10
-8.7536626203
 20
8.0453071016
 11
-9.6477225126
 21
8.9393669939
  0
LINE
  5
3B6
100
AcDbEntity
  8
RACCORDO
100
AcDbLine
 62
250
  6
CONTINUOUS
 10
-8.5804575395
 20
8.2185121824
 11
-9.4745174318
 21
9.1125720747
  0
LINE
  5
3B7
100
AcDbEntity
  8
RACCORDO
100
AcDbLine
 62
250
  6
CONTINUOUS
 10
5.6144430223
 20
-5.4445477688
 11
5.5932263616
 21
-5.423331108
  0
LWPOLYLINE
  5
3B8
100
AcDbEntity
  8
RACCORDO
100
AcDbPolyline
 62
250
  6
CONTINUOUS
 90
31
 70
0
 10
1.1600125143
 20
8.9393669939
 10
1.1598322231
 20
8.9521060542
 10
1.1592623764
 20
8.9647774971
 10
1.1583029741
 20
8.9773813228
 10
1.1569819192
 20
8.9898510278
 10
1.1552713088
 20
9.0022531154
 10
1.1530874339
 20
9.0147870963
 10
1.1504645265
 20
9.027469366
 10
1.1473683547
 20
9.040283529
 10
1.1436125146
 20
9.053379909
 10
1.1392186251
 20
9.0668184453
 10
1.1341650672
 20
9.0805391988
 10
1.1282005802
 20
9.0945126754
 10
1.121322434
 20
9.1088076542
 10
1.1135333585
 20
9.1233553561
 10
1.1045902833
 20
9.1379199505
 10
1.0944806451
 20
9.1525395872
 10
1.0832170071
 20
9.1671761163
 10
1.0705939878
 20
9.1814792574
 10
1.0565659035
 20
9.1954839239
 10
1.0411784379
 20
9.2091552024
 10
1.0243632606
 20
9.2220380725
 10
1.0060612673
 20
9.2341313163
 10
0.9863315623
 20
9.2454361517
 10
0.9652831282
 20
9.2555012115
 10
0.9428750869
 20
9.2642936846
 10
0.9191483164
 20
9.2718463822
 10
0.8943344333
 20
9.2778063714
 10
0.8685106431
 20
9.2820560078
 10
0.8415997404
 20
9.2847129358
 10
0.8136017251
 20
9.2857771555
  0
LINE
  5
3B9
100
AcDbEntity
  8
RACCORDO
100
AcDbLine
 62
250
  6
CONTINUOUS
 10
0.7969000219
 20
-11.0302873787
 11
0.7969000219
 21
-10.1190984181
  0
LINE
  5
3BA
100
AcDbEntity
  8
RACCORDO
100
AcDbLine
 62
250
  6
CONTINUOUS
 10
0.8136023528
 20
-9.0119578715
 11
0.8136023528
 21
-9.1851629522
  0
LINE
  5
3BB
100
AcDbEntity
  8
RACCORDO
100
AcDbLine
 62
250
  6
CONTINUOUS
 10
0.8136023528
 20
9.1125720747
 11
0.8136023528
 21
9.2857771555
  0
LINE
  5
3BC
100
AcDbEntity
  8
RACCORDO
100
AcDbLine
 62
250
  6
CONTINUOUS
 10
0.9868074336
 20
-8.8387527907
 11
0.9868074336
 21
8.9393669939
  0
LINE
  5
3BD
100
AcDbEntity
  8
RACCORDO
100
AcDbLine
 62
250
  6
CONTINUOUS
 10
1.1600125143
 20
-8.8387517022
 11
1.1600125143
 21
8.9393669939
  0
LWPOLYLINE
  5
3BE
100
AcDbEntity
  8
RACCORDO
100
AcDbPolyline
 62
250
  6
CONTINUOUS
 90
31
 70
0
 10
-1.1477225126
 20
-8.8387527907
 10
-1.1488871678
 20
-8.8463707958
 10
-1.1498126996
 20
-8.8539181041
 10
-1.1504982837
 20
-8.8613904041
 10
-1.1509481776
 20
-8.8687405168
 10
-1.1511588111
 20
-8.8760069132
 10
-1.1511093028
 20
-8.8833123973
 10
-1.150801708
 20
-8.8906591342
 10
-1.1502166483
 20
-8.898031384
 10
-1.1492836028
 20
-8.9055205662
 10
-1.147993889
 20
-8.9131446098
 10
-1.1463203002
 20
-8.9208600252
 10
-1.1441494649
 20
-8.9286589668
 10
-1.1414601868
 20
-8.936551198
 10
-1.1382270675
 20
-8.9444825975
 10
-1.1343240142
 20
-8.9523421676
 10
-1.1297302186
 20
-8.9601096125
 10
-1.1244246265
 20
-8.9677397068
 10
-1.1182826002
 20
-8.9750782772
 10
-1.1112770134
 20
-8.982091178
 10
-1.1034078275
 20
-8.9887238816
 10
-1.0946000422
 20
-8.9947904673
 10
-1.0848351644
 20
-9.0002340732
 10
-1.0741346395
 20
-9.0050099307
 10
-1.0624981112
 20
-9.0089581056
 10
-1.0499324864
 20
-9.0120131118
 10
-1.036469547
 20
-9.0141421047
 10
-1.0221597817
 20
-9.015247893
 10
-1.007043701
 20
-9.0152726326
 10
-0.9911491933
 20
-9.0141895773
 10
-0.9745159579
 20
-9.0119563975
  0
LINE
  5
3BF
100
AcDbEntity
  8
RACCORDO
100
AcDbLine
 62
250
  6
CONTINUOUS
 10
9.3136023528
 20
9.1125720747
 11
8.4195424605
 21
8.2185121824
  0
LINE
  5
3C0
100
AcDbEntity
  8
RACCORDO
100
AcDbLine
 62
250
  6
CONTINUOUS
 10
9.4868074336
 20
8.9393669939
 11
8.5927475412
 21
8.0453071016
  0
LINE
  5
3C1
100
AcDbEntity
  8
RACCORDO
100
AcDbLine
 62
250
  6
CONTINUOUS
 10
8.4195424605
 20
-8.1178979791
 11
9.3136023528
 21
-9.0119578715
  0
LINE
  5
3C2
100
AcDbEntity
  8
RACCORDO
100
AcDbLine
 62
250
  6
CONTINUOUS
 10
8.5927475412
 20
-7.9446928984
 11
9.4868074336
 21
-8.8387527907
  0
LINE
  5
3C3
100
AcDbEntity
  8
RACCORDO
100
AcDbLine
 62
250
  6
CONTINUOUS
 10
5.9143973309
 20
-5.1445934602
 11
5.8932720322
 21
-5.1234681615
  0
LINE
  5
3C4
100
AcDbEntity
  8
RACCORDO
100
AcDbLine
 62
250
  6
CONTINUOUS
 10
2.4246875901
 20
-1.2547923365
 11
2.4446402626
 21
-1.274745009
  0
LINE
  5
3C5
100
AcDbEntity
  8
RACCORDO
100
AcDbLine
 62
250
  6
CONTINUOUS
 10
2.7246418986
 20
-0.954838028
 11
2.7445031534
 21
-0.9746992827
  0
LINE
  5
3C6
100
AcDbEntity
  8
RACCORDO
100
AcDbLine
 62
7
  6
CONTINUOUS
 10
2.4446402626
 20
-1.274745009
 11
2.4458128888
 21
-5.1234681615
  0
LINE
  5
3C7
100
AcDbEntity
  8
RACCORDO
100
AcDbLine
 62
250
  6
CONTINUOUS
 10
2.1247332815
 20
-5.1445934602
 11
2.1247332815
 21
-1.25479255
  0
LINE
  5
3C8
100
AcDbEntity
  8
RACCORDO
100
AcDbLine
 62
250
  6
CONTINUOUS
 10
2.4246875901
 20
-5.1445934602
 11
2.4246875901
 21
-1.2547923365
  0
LINE
  5
3C9
100
AcDbEntity
  8
0
100
AcDbLine
 62
7
  6
CONTINUOUS
 10
2.4695424605
 20
-1.1554079099
 11
2.4695424605
 21
-1.6496928984
  0
LINE
  5
3CA
100
AcDbEntity
  8
RACCORDO
100
AcDbLine
 62
250
  6
CONTINUOUS
 10
2.7246418986
 20
-0.6548837195
 11
2.7246418986
 21
-0.954838028
  0
LINE
  5
3CB
100
AcDbEntity
  8
RACCORDO
100
AcDbLine
 62
250
  6
CONTINUOUS
 10
2.7246418986
 20
-5.7445020773
 11
2.7246418986
 21
-5.4445477688
  0
LINE
  5
3CC
100
AcDbEntity
  8
0
100
AcDbLine
 62
7
  6
CONTINUOUS
 10
2.9195424605
 20
-5.3496928984
 11
2.9195424605
 21
-5.423331108
  0
LWPOLYLINE
  5
3CD
100
AcDbEntity
  8
RACCORDO
100
AcDbPolyline
 62
250
  6
CONTINUOUS
 90
19
 70
0
 10
2.4246876018
 20
-1.2547923482
 10
2.4258515055
 20
-1.2282931511
 10
2.4293544983
 20
-1.2019819498
 10
2.4351745585
 20
-1.1760652034
 10
2.4432982749
 20
-1.1506742182
 10
2.4536531337
 20
-1.1260875287
 10
2.4660443628
 20
-1.1027025453
 10
2.4802952984
 20
-1.0807183963
 10
2.496273471
 20
-1.060224454
 10
2.5137633317
 20
-1.0413921995
 10
2.5324336616
 20
-1.024434487
 10
2.5522302685
 20
-1.0092702506
 10
2.5734128802
 20
-0.9956907407
 10
2.5959586901
 20
-0.983793253
 10
2.6196447279
 20
-0.9737751502
 10
2.6445034955
 20
-0.9657119735
 10
2.6704424491
 20
-0.9597563448
 10
2.6972225902
 20
-0.9560848038
 10
2.72464191
 20
-0.9548380393
  0
LWPOLYLINE
  5
3CE
100
AcDbEntity
  8
RACCORDO
100
AcDbPolyline
 62
250
  6
CONTINUOUS
 90
19
 70
0
 10
2.1247332815
 20
-1.25479255
 10
2.1272106791
 20
-1.2011311767
 10
2.1342158449
 20
-1.1486601916
 10
2.1457487789
 20
-1.0973795945
 10
2.1620712988
 20
-1.0467940679
 10
2.1829215869
 20
-0.9973989295
 10
2.2075141902
 20
-0.9506801318
 10
2.235951606
 20
-0.9068695155
 10
2.2681313371
 20
-0.86573524
 10
2.3029604386
 20
-0.8280677366
 10
2.3401108422
 20
-0.7941220307
 10
2.3799106163
 20
-0.7636430968
 10
2.4222510218
 20
-0.7366562894
 10
2.467273121
 20
-0.712919582
 10
2.5148358517
 20
-0.6926750011
 10
2.5644072874
 20
-0.6766739809
 10
2.6158101194
 20
-0.6651669997
 10
2.6692216565
 20
-0.6579035792
 10
2.7246418986
 20
-0.6548837195
  0
LINE
  5
3CF
100
AcDbEntity
  8
RACCORDO
100
AcDbLine
 62
7
  6
CONTINUOUS
 10
-18.6574703199
 20
2.5504229809
 11
-18.6658037731
 21
2.5503071047
  0
LINE
  5
3D0
100
AcDbEntity
  8
RACCORDO
100
AcDbLine
 62
250
  6
CONTINUOUS
 10
18.4195424605
 20
2.2503071016
 11
19.4195424605
 21
2.2503071016
  0
LINE
  5
3D1
100
AcDbEntity
  8
RACCORDO
100
AcDbLine
 62
250
  6
CONTINUOUS
 10
-18.5804575395
 20
2.2503071009
 11
-19.5804575395
 21
2.2503071016
  0
LINE
  5
3D2
100
AcDbEntity
  8
RACCORDO
100
AcDbLine
 62
7
  6
CONTINUOUS
 10
-19.2804575395
 20
2.5503071016
 11
-18.6658059393
 21
2.5503071016
  0
LINE
  5
3D3
100
AcDbEntity
  8
RACCORDO
100
AcDbLine
 62
7
  6
CONTINUOUS
 10
18.5048908603
 20
2.5503071016
 11
19.1195424605
 21
2.5503071016
  0
LWPOLYLINE
  5
3D4
100
AcDbEntity
  8
RACCORDO
100
AcDbPolyline
 62
7
  6
CONTINUOUS
 90
4
 70
0
 10
18.504888888
 20
2.5503071042
 10
18.4971758661
 20
2.5504063652
 10
18.4777778538
 20
2.5515354963
 10
18.4588246336
 20
2.5538671248
  0
LWPOLYLINE
  5
3D5
100
AcDbEntity
  8
RACCORDO
100
AcDbPolyline
 62
250
  6
CONTINUOUS
 90
16
 70
0
 10
0.0927475412
 20
8.0453071016
 10
0.0887347717
 20
8.0592503715
 10
0.0834552088
 20
8.0736962178
 10
0.0768089309
 20
8.0885317083
 10
0.0686299524
 20
8.1037541519
 10
0.05890419
 20
8.1190584004
 10
0.0478787693
 20
8.1338844509
 10
0.0356351085
 20
8.148059662
 10
0.0222309457
 20
8.1614592829
 10
0.00805422
 20
8.1736959852
 10
-0.0067699692
 20
8.1847126721
 10
-0.0220687337
 20
8.1944286396
 10
-0.037281912
 20
8.2025976188
 10
-0.0521044392
 20
8.2092344555
 10
-0.0665338632
 20
8.2145057935
 10
-0.0804575395
 20
8.2185121824
  0
LINE
  5
3D6
100
AcDbEntity
  8
0
100
AcDbLine
 62
250
  6
CONTINUOUS
 10
3.2195424605
 20
-5.3496928984
 11
3.2195424605
 21
-5.423331108
  0
LINE
  5
3D7
100
AcDbEntity
  8
RACCORDO
100
AcDbLine
 62
250
  6
CONTINUOUS
 10
3.7964431073
 20
-10.7766392367
 11
3.7964431073
 21
-10.3727465601
  0
LINE
  5
3D8
100
AcDbEntity
  8
RACCORDO
100
AcDbLine
 62
7
  6
CONTINUOUS
 10
3.9020873956
 20
-10.8822835249
 11
3.9020873956
 21
-10.2671022719
  0
LWPOLYLINE
  5
3D9
100
AcDbEntity
  8
RACCORDO
100
AcDbPolyline
 62
7
  6
CONTINUOUS
 90
25
 70
0
 10
3.9020432782
 20
-10.8874286545
 10
3.9005658101
 20
-10.9127179536
 10
3.8971028971
 20
-10.9372360304
 10
3.8918233466
 20
-10.9608375802
 10
3.8848658451
 20
-10.983517358
 10
3.8764253132
 20
-11.0050569864
 10
3.8668340441
 20
-11.0250572154
 10
3.8564553408
 20
-11.0433024164
 10
3.8454182782
 20
-11.0600198185
 10
3.8337001892
 20
-11.0755035038
 10
3.8214706916
 20
-11.0897261172
 10
3.8088380688
 20
-11.1027456836
 10
3.7955558309
 20
-11.1149012942
 10
3.7815943469
 20
-11.1262344111
 10
3.7671012151
 20
-11.1366421217
 10
3.7520206782
 20
-11.1461714388
 10
3.736289565
 20
-11.1548458438
 10
3.7200726434
 20
-11.1625582446
 10
3.7036646746
 20
-11.1691867598
 10
3.687160145
 20
-11.1747425363
 10
3.6706099061
 20
-11.1792556327
 10
3.6542650563
 20
-11.1827142655
 10
3.6382542945
 20
-11.1851709462
 10
3.6225750595
 20
-11.1867054572
 10
3.6072782166
 20
-11.1873829631
  0
LWPOLYLINE
  5
3DA
100
AcDbEntity
  8
RACCORDO
100
AcDbPolyline
 62
250
  6
CONTINUOUS
 90
13
 70
0
 10
3.7964431073
 20
-10.7766392367
 10
3.7938660275
 20
-10.8157835839
 10
3.786202711
 20
-10.8542584198
 10
3.7735842287
 20
-10.8914056842
 10
3.7562264026
 20
-10.9265900233
 10
3.734426115
 20
-10.9592096563
 10
3.7085562304
 20
-10.9887066684
 10
3.6790592182
 20
-11.014576553
 10
3.6464395852
 20
-11.0363768406
 10
3.6112552462
 20
-11.0537346666
 10
3.5741079818
 20
-11.0663531489
 10
3.5356331459
 20
-11.0740164654
 10
3.4964887988
 20
-11.0765935452
  0
LINE
  5
3DB
100
AcDbEntity
  8
0
100
AcDbLine
 62
250
  6
CONTINUOUS
 10
5.1195424605
 20
-5.3496928984
 11
5.1195424605
 21
-5.423331108
  0
LINE
  5
3DC
100
AcDbEntity
  8
0
100
AcDbLine
 62
7
  6
CONTINUOUS
 10
5.4195424605
 20
-5.3496928984
 11
5.4195424605
 21
-5.423331108
  0
LINE
  5
3DD
100
AcDbEntity
  8
RACCORDO
100
AcDbLine
 62
250
  6
CONTINUOUS
 10
5.6144430223
 20
-0.6548837195
 11
5.6144430223
 21
-0.954838028
  0
LINE
  5
3DE
100
AcDbEntity
  8
RACCORDO
100
AcDbLine
 62
250
  6
CONTINUOUS
 10
5.6144430223
 20
-5.7445020773
 11
5.6144430223
 21
-5.4445477688
  0
LINE
  5
3DF
100
AcDbEntity
  8
0
100
AcDbLine
 62
7
  6
CONTINUOUS
 10
5.8695424605
 20
-1.1554078865
 11
5.8695424605
 21
-1.6496928984
  0
LINE
  5
3E0
100
AcDbEntity
  8
RACCORDO
100
AcDbLine
 62
250
  6
CONTINUOUS
 10
5.9143973309
 20
-1.2547923365
 11
5.9143973309
 21
-5.1445934602
  0
LINE
  5
3E1
100
AcDbEntity
  8
RACCORDO
100
AcDbLine
 62
7
  6
CONTINUOUS
 10
5.8932720322
 20
-5.1234681615
 11
5.8944446584
 21
-1.274745009
  0
LINE
  5
3E2
100
AcDbEntity
  8
RACCORDO
100
AcDbLine
 62
250
  6
CONTINUOUS
 10
5.6144430223
 20
-0.954838028
 11
5.5945817676
 21
-0.9746992827
  0
LINE
  5
3E3
100
AcDbEntity
  8
RACCORDO
100
AcDbLine
 62
250
  6
CONTINUOUS
 10
17.9073086776
 20
11.2879971663
 11
17.9196186129
 21
11.3003071016
  0
LINE
  5
3E4
100
AcDbEntity
  8
RACCORDO
100
AcDbLine
 62
250
  6
CONTINUOUS
 10
-4.0630024746
 20
-10.8822835249
 11
-3.9573581864
 21
-10.7766392367
  0
LINE
  5
3E5
100
AcDbEntity
  8
RACCORDO
100
AcDbLine
 62
250
  6
CONTINUOUS
 10
5.9143973309
 20
-1.2547923365
 11
5.8944446584
 21
-1.274745009
  0
LINE
  5
3E6
100
AcDbEntity
  8
RACCORDO
100
AcDbLine
 62
250
  6
CONTINUOUS
 10
-3.7681932957
 20
-11.1873829631
 11
-3.6574038778
 21
-11.0765935452
  0
LINE
  5
3E7
100
AcDbEntity
  8
RACCORDO
100
AcDbLine
 62
250
  6
CONTINUOUS
 10
2.4246875901
 20
-5.1445934602
 11
2.4458128888
 21
-5.1234681615
  0
LINE
  5
3E8
100
AcDbEntity
  8
RACCORDO
100
AcDbLine
 62
250
  6
CONTINUOUS
 10
18.4072325252
 20
10.7880733187
 11
18.4195424605
 21
10.800383254
  0
LINE
  5
3E9
100
AcDbEntity
  8
RACCORDO
100
AcDbLine
 62
250
  6
CONTINUOUS
 10
-1.1477225126
 20
-8.8387527907
 11
-0.2536626203
 21
-7.9446928984
  0
LINE
  5
3EA
100
AcDbEntity
  8
RACCORDO
100
AcDbLine
 62
250
  6
CONTINUOUS
 10
-0.9745174318
 20
-9.0119578715
 11
-0.0804575395
 21
-8.1178979791
  0
LINE
  5
3EB
100
AcDbEntity
  8
RACCORDO
100
AcDbLine
 62
250
  6
CONTINUOUS
 10
2.7246418986
 20
-5.4445477688
 11
2.7458585594
 21
-5.423331108
  0
LWPOLYLINE
  5
3EC
100
AcDbEntity
  8
RACCORDO
100
AcDbPolyline
 62
250
  6
CONTINUOUS
 90
13
 70
0
 10
-8.5804575395
 20
-8.1178979791
 10
-8.5608477145
 20
-8.1119516713
 10
-8.5414742538
 20
-8.1039893334
 10
-8.5225706726
 20
-8.0941069383
 10
-8.5043648227
 20
-8.082423602
 10
-8.4870761456
 20
-8.0690801481
 10
-8.470913028
 20
-8.0542374099
 10
-8.4560702898
 20
-8.0380742923
 10
-8.4427268359
 20
-8.0207856152
 10
-8.4310434996
 20
-8.0025797653
 10
-8.4211611045
 20
-7.9836761841
 10
-8.4131987666
 20
-7.9643027234
 10
-8.4072524588
 20
-7.9446928984
  0
LWPOLYLINE
  5
3ED
100
AcDbEntity
  8
RACCORDO
100
AcDbPolyline
 62
7
  6
CONTINUOUS
 90
4
 70
0
 10
18.4588246336
 20
2.5538671248
 10
18.4403854134
 20
2.5573283554
 10
18.4225209101
 20
2.5618439072
 10
18.4195424605
 20
2.5627932954
  0
LINE
  5
3EE
100
AcDbEntity
  8
RACCORDO
100
AcDbLine
 62
250
  6
CONTINUOUS
 10
17.9073086776
 20
-11.1873829631
 11
17.9196186129
 21
-11.1996928984
  0
LINE
  5
3EF
100
AcDbEntity
  8
RACCORDO
100
AcDbLine
 62
250
  6
CONTINUOUS
 10
18.4072325252
 20
-10.6874591155
 11
18.4195424605
 21
-10.6997690508
  0
LINE
  5
3F0
100
AcDbEntity
  8
RACCORDO
100
AcDbLine
 62
250
  6
CONTINUOUS
 10
-0.2536626203
 20
8.0453071016
 11
-1.1477225126
 21
8.9393669939
  0
LINE
  5
3F1
100
AcDbEntity
  8
RACCORDO
100
AcDbLine
 62
250
  6
CONTINUOUS
 10
-0.0804575395
 20
8.2185121824
 11
-0.9745174318
 21
9.1125720747
  0
LINE
  5
3F2
100
AcDbEntity
  8
RACCORDO
100
AcDbLine
 62
250
  6
CONTINUOUS
 10
14.1144430223
 20
-5.4445477688
 11
14.0932263616
 21
-5.423331108
  0
LWPOLYLINE
  5
3F3
100
AcDbEntity
  8
RACCORDO
100
AcDbPolyline
 62
250
  6
CONTINUOUS
 90
16
 70
0
 10
8.2463373797
 20
-7.9446928984
 10
8.2503501492
 20
-7.9586361683
 10
8.2556297122
 20
-7.9730820146
 10
8.2622759901
 20
-7.9879175051
 10
8.2704549686
 20
-8.0031399486
 10
8.2801807309
 20
-8.0184441971
 10
8.2912061517
 20
-8.0332702477
 10
8.3034498125
 20
-8.0474454588
 10
8.3168539753
 20
-8.0608450797
 10
8.331030701
 20
-8.073081782
 10
8.3458548902
 20
-8.0840984689
 10
8.3611536546
 20
-8.0938144364
 10
8.3763668329
 20
-8.1019834156
 10
8.3911893602
 20
-8.1086202523
 10
8.4056187841
 20
-8.1138915902
 10
8.4195424605
 20
-8.1178979791
  0
LWPOLYLINE
  5
3F4
100
AcDbEntity
  8
RACCORDO
100
AcDbPolyline
 62
250
  6
CONTINUOUS
 90
31
 70
0
 10
7.1790724066
 20
-8.8387527907
 10
7.1792526978
 20
-8.851491851
 10
7.1798225446
 20
-8.8641632939
 10
7.1807819468
 20
-8.8767671196
 10
7.1821030017
 20
-8.8892368245
 10
7.1838136122
 20
-8.9016389122
 10
7.185997487
 20
-8.9141728931
 10
7.1886203944
 20
-8.9268551628
 10
7.1917165662
 20
-8.9396693257
 10
7.1954724064
 20
-8.9527657058
 10
7.1998662959
 20
-8.9662042421
 10
7.2049198537
 20
-8.9799249955
 10
7.2108843408
 20
-8.9938984722
 10
7.217762487
 20
-9.0081934509
 10
7.2255515624
 20
-9.0227411529
 10
7.2344946377
 20
-9.0373057473
 10
7.2446042758
 20
-9.051925384
 10
7.2558679138
 20
-9.0665619131
 10
7.2684909331
 20
-9.0808650542
 10
7.2825190174
 20
-9.0948697207
 10
7.2979064831
 20
-9.1085409992
 10
7.3147216604
 20
-9.1214238693
 10
7.3330236537
 20
-9.1335171131
 10
7.3527533586
 20
-9.1448219484
 10
7.3738017928
 20
-9.1548870083
 10
7.3962098341
 20
-9.1636794814
 10
7.4199366046
 20
-9.171232179
 10
7.4447504877
 20
-9.1771921681
 10
7.4705742778
 20
-9.1814418046
 10
7.4974851806
 20
-9.1840987326
 10
7.5254831959
 20
-9.1851629522
  0
LINE
  5
3F5
100
AcDbEntity
  8
RACCORDO
100
AcDbLine
 62
250
  6
CONTINUOUS
 10
6.2143516394
 20
-1.2547923365
 11
6.2143516394
 21
-5.1445932468
  0
LINE
  5
3F6
100
AcDbEntity
  8
RACCORDO
100
AcDbLine
 62
250
  6
CONTINUOUS
 10
7.1790724066
 20
8.9393659055
 11
7.1790724066
 21
-8.8387527907
  0
LINE
  5
3F7
100
AcDbEntity
  8
RACCORDO
100
AcDbLine
 62
250
  6
CONTINUOUS
 10
7.3522774874
 20
8.9393669939
 11
7.3522774874
 21
-8.8387527907
  0
LINE
  5
3F8
100
AcDbEntity
  8
RACCORDO
100
AcDbLine
 62
250
  6
CONTINUOUS
 10
7.5254825682
 20
-9.0119578715
 11
7.5254825682
 21
-9.1851629522
  0
LINE
  5
3F9
100
AcDbEntity
  8
RACCORDO
100
AcDbLine
 62
250
  6
CONTINUOUS
 10
7.5254825682
 20
9.1125720747
 11
7.5254825682
 21
9.2857771555
  0
LWPOLYLINE
  5
3FA
100
AcDbEntity
  8
RACCORDO
100
AcDbPolyline
 62
250
  6
CONTINUOUS
 90
19
 70
0
 10
5.9143973192
 20
-5.1445934485
 10
5.9132334154
 20
-5.1710926457
 10
5.9097304227
 20
-5.197403847
 10
5.9039103625
 20
-5.2233205933
 10
5.8957866461
 20
-5.2487115786
 10
5.8854317872
 20
-5.273298268
 10
5.8730405581
 20
-5.2966832514
 10
5.8587896226
 20
-5.3186674005
 10
5.84281145
 20
-5.3391613427
 10
5.8253215893
 20
-5.3579935972
 10
5.8066512593
 20
-5.3749513098
 10
5.7868546525
 20
-5.3901155462
 10
5.7656720407
 20
-5.4036950561
 10
5.7431262309
 20
-5.4155925437
 10
5.7194401931
 20
-5.4256106466
 10
5.6945814254
 20
-5.4336738233
 10
5.6686424719
 20
-5.439629452
 10
5.6418623307
 20
-5.443300993
 10
5.614443011
 20
-5.4445477575
  0
LWPOLYLINE
  5
3FB
100
AcDbEntity
  8
RACCORDO
100
AcDbPolyline
 62
250
  6
CONTINUOUS
 90
19
 70
0
 10
6.2143516394
 20
-5.1445932468
 10
6.2118742418
 20
-5.1982546201
 10
6.204869076
 20
-5.2507256052
 10
6.193336142
 20
-5.3020062023
 10
6.1770136222
 20
-5.3525917288
 10
6.1561633341
 20
-5.4019868673
 10
6.1315707308
 20
-5.4487056649
 10
6.103133315
 20
-5.4925162813
 10
6.0709535839
 20
-5.5336505567
 10
6.0361244823
 20
-5.5713180602
 10
5.9989740788
 20
-5.6052637661
 10
5.9591743047
 20
-5.6357427
 10
5.9168338992
 20
-5.6627295074
 10
5.8718117999
 20
-5.6864662148
 10
5.8242490693
 20
-5.7067107957
 10
5.7746776336
 20
-5.7227118158
 10
5.7232748016
 20
-5.7342187971
 10
5.6698632645
 20
-5.7414822176
 10
5.6144430223
 20
-5.7445020773
  0
LWPOLYLINE
  5
3FC
100
AcDbEntity
  8
RACCORDO
100
AcDbPolyline
 62
250
  6
CONTINUOUS
 90
28
 70
0
 10
-9.4745174318
 20
9.1125720747
 10
-9.4826572226
 20
9.1138146466
 10
-9.4907909322
 20
9.1147846639
 10
-9.4989128867
 20
9.1154760917
 10
-9.5069659696
 20
9.1158950158
 10
-9.5149948676
 20
9.1160266622
 10
-9.5231439662
 20
9.115821657
 10
-9.5314275966
 20
9.1152777223
 10
-9.5398087666
 20
9.1143614711
 10
-9.5483474065
 20
9.1129533738
 10
-9.5570706813
 20
9.1110325169
 10
-9.5659069823
 20
9.1085610575
 10
-9.5747580444
 20
9.1053791712
 10
-9.5836107426
 20
9.1014609869
 10
-9.5924050999
 20
9.0967717341
 10
-9.6009627444
 20
9.0911356134
 10
-9.6092492601
 20
9.0845168422
 10
-9.617190863
 20
9.0769037686
 10
-9.6245447495
 20
9.0681657027
 10
-9.631242041
 20
9.0582692958
 10
-9.6372171273
 20
9.0472383737
 10
-9.6422395268
 20
9.0350482121
 10
-9.6462192572
 20
9.0216972149
 10
-9.6491110532
 20
9.0072306957
 10
-9.6507713016
 20
8.9917156289
 10
-9.6511186979
 20
8.9752060142
 10
-9.6501207852
 20
8.9577380458
 10
-9.6477204049
 20
8.9393648862
  0
LINE
  5
3FD
100
AcDbEntity
  8
RACCORDO
100
AcDbLine
 62
250
  6
CONTINUOUS
 10
14.4143973309
 20
-5.1445934602
 11
14.3932720322
 21
-5.1234681615
  0
LINE
  5
3FE
100
AcDbEntity
  8
RACCORDO
100
AcDbLine
 62
250
  6
CONTINUOUS
 10
10.9246875901
 20
-1.2547923365
 11
10.9446402626
 21
-1.274745009
  0
LINE
  5
3FF
100
AcDbEntity
  8
RACCORDO
100
AcDbLine
 62
250
  6
CONTINUOUS
 10
11.2246418986
 20
-0.954838028
 11
11.2445031534
 21
-0.9746992827
  0
LINE
  5
400
100
AcDbEntity
  8
RACCORDO
100
AcDbLine
 62
250
  6
CONTINUOUS
 10
8.2463373797
 20
8.0453071016
 11
8.2463373797
 21
-7.9446928984
  0
LINE
  5
401
100
AcDbEntity
  8
RACCORDO
100
AcDbLine
 62
250
  6
CONTINUOUS
 10
8.5927475412
 20
8.0453071016
 11
8.5927475412
 21
-7.9446928984
  0
LWPOLYLINE
  5
402
100
AcDbEntity
  8
RACCORDO
100
AcDbPolyline
 62
250
  6
CONTINUOUS
 90
31
 70
0
 10
9.4868074336
 20
8.9393669939
 10
9.4879720888
 20
8.946984999
 10
9.4888976205
 20
8.9545323073
 10
9.4895832046
 20
8.9620046074
 10
9.4900330986
 20
8.9693547201
 10
9.490243732
 20
8.9766211164
 10
9.4901942238
 20
8.9839266005
 10
9.489886629
 20
8.9912733374
 10
9.4893015693
 20
8.9986455872
 10
9.4883685238
 20
9.0061347695
 10
9.48707881
 20
9.013758813
 10
9.4854052212
 20
9.0214742285
 10
9.4832343859
 20
9.0292731701
 10
9.4805451078
 20
9.0371654013
 10
9.4773119885
 20
9.0450968007
 10
9.4734089352
 20
9.0529563708
 10
9.4688151396
 20
9.0607238157
 10
9.4635095474
 20
9.0683539101
 10
9.4573675212
 20
9.0756924805
 10
9.4503619344
 20
9.0827053812
 10
9.4424927484
 20
9.0893380848
 10
9.4336849631
 20
9.0954046705
 10
9.4239200854
 20
9.1008482764
 10
9.4132195604
 20
9.1056241339
 10
9.4015830322
 20
9.1095723088
 10
9.3890174074
 20
9.112627315
 10
9.375554468
 20
9.114756308
 10
9.3612447027
 20
9.1158620962
 10
9.3461286219
 20
9.1158868358
 10
9.3302341143
 20
9.1148037805
 10
9.3136008788
 20
9.1125706007
  0
LWPOLYLINE
  5
403
100
AcDbEntity
  8
RACCORDO
100
AcDbPolyline
 62
250
  6
CONTINUOUS
 90
31
 70
0
 10
7.3522774874
 20
-8.8387527907
 10
7.3511128322
 20
-8.8463707958
 10
7.3501873004
 20
-8.8539181041
 10
7.3495017163
 20
-8.8613904041
 10
7.3490518224
 20
-8.8687405168
 10
7.3488411889
 20
-8.8760069132
 10
7.3488906972
 20
-8.8833123973
 10
7.349198292
 20
-8.8906591342
 10
7.3497833517
 20
-8.898031384
 10
7.3507163972
 20
-8.9055205662
 10
7.352006111
 20
-8.9131446098
 10
7.3536796998
 20
-8.9208600252
 10
7.3558505351
 20
-8.9286589668
 10
7.3585398132
 20
-8.936551198
 10
7.3617729325
 20
-8.9444825975
 10
7.3656759858
 20
-8.9523421676
 10
7.3702697814
 20
-8.9601096125
 10
7.3755753735
 20
-8.9677397068
 10
7.3817173998
 20
-8.9750782772
 10
7.3887229866
 20
-8.982091178
 10
7.3965921725
 20
-8.9887238816
 10
7.4053999578
 20
-8.9947904673
 10
7.4151648356
 20
-9.0002340732
 10
7.4258653605
 20
-9.0050099307
 10
7.4375018888
 20
-9.0089581056
 10
7.4500675136
 20
-9.0120131118
 10
7.463530453
 20
-9.0141421047
 10
7.4778402183
 20
-9.015247893
 10
7.492956299
 20
-9.0152726326
 10
7.5088508067
 20
-9.0141895773
 10
7.5254840421
 20
-9.0119563975
  0
LWPOLYLINE
  5
404
100
AcDbEntity
  8
RACCORDO
100
AcDbPolyline
 62
7
  6
CONTINUOUS
 90
6
 70
0
 10
18.4195424605
 20
-2.4621485684
 10
18.4212337135
 20
-2.4616005933
 10
18.4392549911
 20
-2.4569654707
 10
18.4578587702
 20
-2.4534047096
 10
18.4769825616
 20
-2.4509945694
 10
18.4965552409
 20
-2.4498087777
  0
LWPOLYLINE
  5
405
100
AcDbEntity
  8
RACCORDO
100
AcDbPolyline
 62
250
  6
CONTINUOUS
 90
8
 70
0
 10
-3.9573581864
 20
-10.7766392367
 10
-3.9470473442
 20
-10.773452794
 10
-3.9235795444
 20
-10.7703468648
 10
-3.8875509011
 20
-10.767321449
 10
-3.8398419769
 20
-10.7643785245
 10
-3.7809854459
 20
-10.7615161134
 10
-3.7106261695
 20
-10.7587282826
 10
-3.6285962372
 20
-10.7560013312
  0
LWPOLYLINE
  5
406
100
AcDbEntity
  8
RACCORDO
100
AcDbPolyline
 62
250
  6
CONTINUOUS
 90
13
 70
0
 10
-0.0804575395
 20
-8.1178979791
 10
-0.0608477145
 20
-8.1119516713
 10
-0.0414742538
 20
-8.1039893334
 10
-0.0225706726
 20
-8.0941069383
 10
-0.0043648227
 20
-8.082423602
 10
0.0129238544
 20
-8.0690801481
 10
0.029086972
 20
-8.0542374099
 10
0.0439297102
 20
-8.0380742923
 10
0.0572731641
 20
-8.0207856152
 10
0.0689565004
 20
-8.0025797653
 10
0.0788388955
 20
-7.9836761841
 10
0.0868012334
 20
-7.9643027234
 10
0.0927475412
 20
-7.9446928984
  0
LWPOLYLINE
  5
407
100
AcDbEntity
  8
RACCORDO
100
AcDbPolyline
 62
250
  6
CONTINUOUS
 90
28
 70
0
 10
7.5254825682
 20
9.2857771555
 10
7.5118687305
 20
9.2855952028
 10
7.4982050202
 20
9.2849312244
 10
7.4844914372
 20
9.2837852203
 10
7.4708071147
 20
9.2822108707
 10
7.4570729195
 20
9.2801544954
 10
7.4430514521
 20
9.2774550538
 10
7.428694275
 20
9.2741560627
 10
7.4140498258
 20
9.2702140053
 10
7.399026018
 20
9.2653372899
 10
7.3835232025
 20
9.2595384884
 10
7.3676410284
 20
9.2528050289
 10
7.3515863565
 20
9.2448076041
 10
7.3352964355
 20
9.2355414199
 10
7.3188340166
 20
9.2250112704
 10
7.3025942152
 20
9.21290223
 10
7.2865167416
 20
9.1991649871
 10
7.2706618855
 20
9.1838488534
 10
7.2556056312
 20
9.1667868386
 10
7.2413322211
 20
9.147892976
 10
7.2278574128
 20
9.1272532322
 10
7.2158044636
 20
9.1049585175
 10
7.2052151969
 20
9.0809373484
 10
7.1960477893
 20
9.0552612083
 10
7.1888000278
 20
9.028235458
 10
7.1836378413
 20
8.9999618841
 10
7.1803953009
 20
8.9703387
 10
7.1790724066
 20
8.9393659055
  0
LINE
  5
408
100
AcDbEntity
  8
RACCORDO
100
AcDbLine
 62
250
  6
CONTINUOUS
 10
-8.7536626203
 20
8.0453071016
 11
-8.4072524588
 21
8.0453071016
  0
LINE
  5
409
100
AcDbEntity
  8
RACCORDO
100
AcDbLine
 62
250
  6
CONTINUOUS
 10
-0.2536626203
 20
8.0453071016
 11
0.0927475412
 21
8.0453071016
  0
LINE
  5
40A
100
AcDbEntity
  8
RACCORDO
100
AcDbLine
 62
250
  6
CONTINUOUS
 10
8.2463373797
 20
8.0453071016
 11
8.5927475412
 21
8.0453071016
  0
LINE
  5
40B
100
AcDbEntity
  8
RACCORDO
100
AcDbLine
 62
250
  6
CONTINUOUS
 10
-7.5131925664
 20
8.9393669939
 11
-7.3399874857
 21
8.9393669939
  0
LINE
  5
40C
100
AcDbEntity
  8
RACCORDO
100
AcDbLine
 62
250
  6
CONTINUOUS
 10
7.3522774874
 20
8.9393669939
 11
7.1790724066
 21
8.9393669939
  0
LINE
  5
40D
100
AcDbEntity
  8
RACCORDO
100
AcDbLine
 62
250
  6
CONTINUOUS
 10
0.9868074336
 20
8.9393669939
 11
1.1600125143
 21
8.9393669939
  0
LINE
  5
40E
100
AcDbEntity
  8
RACCORDO
100
AcDbLine
 62
250
  6
CONTINUOUS
 10
-1.1477225126
 20
8.9393669939
 11
-1.3209275934
 21
8.9393669939
  0
LINE
  5
40F
100
AcDbEntity
  8
RACCORDO
100
AcDbLine
 62
250
  6
CONTINUOUS
 10
9.4868074336
 20
8.9393669939
 11
9.6600125143
 21
8.9393669939
  0
LINE
  5
410
100
AcDbEntity
  8
RACCORDO
100
AcDbLine
 62
250
  6
CONTINUOUS
 10
-9.6477225126
 20
8.9393669939
 11
-9.8209275934
 21
8.9393669939
  0
LINE
  5
411
100
AcDbEntity
  8
RACCORDO
100
AcDbLine
 62
250
  6
CONTINUOUS
 10
9.3136023528
 20
9.1125720747
 11
7.5254825682
 21
9.1125720747
  0
LINE
  5
412
100
AcDbEntity
  8
RACCORDO
100
AcDbLine
 62
250
  6
CONTINUOUS
 10
0.8136023528
 20
9.1125720747
 11
-0.9745174318
 21
9.1125720747
  0
LINE
  5
413
100
AcDbEntity
  8
RACCORDO
100
AcDbLine
 62
250
  6
CONTINUOUS
 10
-7.6863976472
 20
9.1125720747
 11
-9.4745174318
 21
9.1125720747
  0
LWPOLYLINE
  5
414
100
AcDbEntity
  8
RACCORDO
100
AcDbPolyline
 62
250
  6
CONTINUOUS
 90
28
 70
0
 10
-0.9745174318
 20
9.1125720747
 10
-0.9826572226
 20
9.1138146466
 10
-0.9907909322
 20
9.1147846639
 10
-0.9989128867
 20
9.1154760917
 10
-1.0069659696
 20
9.1158950158
 10
-1.0149948676
 20
9.1160266622
 10
-1.0231439662
 20
9.115821657
 10
-1.0314275966
 20
9.1152777223
 10
-1.0398087666
 20
9.1143614711
 10
-1.0483474065
 20
9.1129533738
 10
-1.0570706813
 20
9.1110325169
 10
-1.0659069823
 20
9.1085610575
 10
-1.0747580444
 20
9.1053791712
 10
-1.0836107426
 20
9.1014609869
 10
-1.0924050999
 20
9.0967717341
 10
-1.1009627444
 20
9.0911356134
 10
-1.1092492601
 20
9.0845168422
 10
-1.117190863
 20
9.0769037686
 10
-1.1245447495
 20
9.0681657027
 10
-1.131242041
 20
9.0582692958
 10
-1.1372171273
 20
9.0472383737
 10
-1.1422395268
 20
9.0350482121
 10
-1.1462192572
 20
9.0216972149
 10
-1.1491110532
 20
9.0072306957
 10
-1.1507713016
 20
8.9917156289
 10
-1.1511186979
 20
8.9752060142
 10
-1.1501207852
 20
8.9577380458
 10
-1.1477204049
 20
8.9393648862
  0
LWPOLYLINE
  5
415
100
AcDbEntity
  8
RACCORDO
100
AcDbPolyline
 62
250
  6
CONTINUOUS
 90
31
 70
0
 10
9.6600125143
 20
8.9393669939
 10
9.6598322231
 20
8.9521060542
 10
9.6592623764
 20
8.9647774971
 10
9.6583029741
 20
8.9773813228
 10
9.6569819192
 20
8.9898510278
 10
9.6552713088
 20
9.0022531154
 10
9.6530874339
 20
9.0147870963
 10
9.6504645265
 20
9.027469366
 10
9.6473683547
 20
9.040283529
 10
9.6436125146
 20
9.053379909
 10
9.6392186251
 20
9.0668184453
 10
9.6341650672
 20
9.0805391988
 10
9.6282005802
 20
9.0945126754
 10
9.621322434
 20
9.1088076542
 10
9.6135333585
 20
9.1233553561
 10
9.6045902833
 20
9.1379199505
 10
9.5944806451
 20
9.1525395872
 10
9.5832170071
 20
9.1671761163
 10
9.5705939878
 20
9.1814792574
 10
9.5565659035
 20
9.1954839239
 10
9.5411784379
 20
9.2091552024
 10
9.5243632606
 20
9.2220380725
 10
9.5060612673
 20
9.2341313163
 10
9.4863315623
 20
9.2454361517
 10
9.4652831282
 20
9.2555012115
 10
9.4428750869
 20
9.2642936846
 10
9.4191483164
 20
9.2718463822
 10
9.3943344333
 20
9.2778063714
 10
9.3685106431
 20
9.2820560078
 10
9.3415997404
 20
9.2847129358
 10
9.3136017251
 20
9.2857771555
  0
LINE
  5
416
100
AcDbEntity
  8
RACCORDO
100
AcDbLine
 62
250
  6
CONTINUOUS
 10
9.3136023528
 20
-9.0119578715
 11
9.3136023528
 21
-9.1851629522
  0
LINE
  5
417
100
AcDbEntity
  8
RACCORDO
100
AcDbLine
 62
250
  6
CONTINUOUS
 10
9.3136023528
 20
9.1125720747
 11
9.3136023528
 21
9.2857771555
  0
LINE
  5
418
100
AcDbEntity
  8
RACCORDO
100
AcDbLine
 62
250
  6
CONTINUOUS
 10
9.4868074336
 20
-8.8387527907
 11
9.4868074336
 21
8.9393669939
  0
LINE
  5
419
100
AcDbEntity
  8
RACCORDO
100
AcDbLine
 62
250
  6
CONTINUOUS
 10
9.6600125143
 20
-8.8387517022
 11
9.6600125143
 21
8.9393669939
  0
LINE
  5
41A
100
AcDbEntity
  8
RACCORDO
100
AcDbLine
 62
250
  6
CONTINUOUS
 10
10.6247332815
 20
-5.1445934602
 11
10.6247332815
 21
-1.25479255
  0
LINE
  5
41B
100
AcDbEntity
  8
RACCORDO
100
AcDbLine
 62
250
  6
CONTINUOUS
 10
3.4964887988
 20
-10.0727922515
 11
3.602133087
 21
-9.9671479633
  0
LINE
  5
41C
100
AcDbEntity
  8
RACCORDO
100
AcDbLine
 62
250
  6
CONTINUOUS
 10
3.7964431073
 20
-10.3727465601
 11
3.9020873956
 21
-10.2671022719
  0
LWPOLYLINE
  5
41D
100
AcDbEntity
  8
RACCORDO
100
AcDbPolyline
 62
250
  6
CONTINUOUS
 90
8
 70
0
 10
-3.6574038778
 20
-11.0765935452
 10
-3.6471734368
 20
-11.0734071301
 10
-3.6262312512
 20
-11.0703012161
 10
-3.594577321
 20
-11.0672758031
 10
-3.55203513
 20
-11.0643328613
 10
-3.4987811943
 20
-11.0614704206
 10
-3.4353450627
 20
-11.0586825705
 10
-3.3615416952
 20
-11.0559556222
  0
LWPOLYLINE
  5
41E
100
AcDbEntity
  8
RACCORDO
100
AcDbPolyline
 62
250
  6
CONTINUOUS
 90
13
 70
0
 10
8.4195424605
 20
-8.1178979791
 10
8.4391522855
 20
-8.1119516713
 10
8.4585257462
 20
-8.1039893334
 10
8.4774293274
 20
-8.0941069383
 10
8.4956351773
 20
-8.082423602
 10
8.5129238544
 20
-8.0690801481
 10
8.529086972
 20
-8.0542374099
 10
8.5439297102
 20
-8.0380742923
 10
8.5572731641
 20
-8.0207856152
 10
8.5689565004
 20
-8.0025797653
 10
8.5788388955
 20
-7.9836761841
 10
8.5868012334
 20
-7.9643027234
 10
8.5927475412
 20
-7.9446928984
  0
LWPOLYLINE
  5
41F
100
AcDbEntity
  8
RACCORDO
100
AcDbPolyline
 62
250
  6
CONTINUOUS
 90
28
 70
0
 10
-0.9745174318
 20
9.2857771555
 10
-0.9881312695
 20
9.2855952028
 10
-1.0017949798
 20
9.2849312244
 10
-1.0155085628
 20
9.2837852203
 10
-1.0291928853
 20
9.2822108707
 10
-1.0429270805
 20
9.2801544954
 10
-1.0569485479
 20
9.2774550538
 10
-1.071305725
 20
9.2741560627
 10
-1.0859501742
 20
9.2702140053
 10
-1.100973982
 20
9.2653372899
 10
-1.1164767975
 20
9.2595384884
 10
-1.1323589716
 20
9.2528050289
 10
-1.1484136435
 20
9.2448076041
 10
-1.1647035645
 20
9.2355414199
 10
-1.1811659834
 20
9.2250112704
 10
-1.1974057848
 20
9.21290223
 10
-1.2134832584
 20
9.1991649871
 10
-1.2293381145
 20
9.1838488534
 10
-1.2443943688
 20
9.1667868386
 10
-1.2586677789
 20
9.147892976
 10
-1.2721425872
 20
9.1272532322
 10
-1.2841955364
 20
9.1049585175
 10
-1.2947848031
 20
9.0809373484
 10
-1.3039522107
 20
9.0552612083
 10
-1.3111999722
 20
9.028235458
 10
-1.3163621587
 20
8.9999618841
 10
-1.3196046991
 20
8.9703387
 10
-1.3209275934
 20
8.9393659055
  0
LWPOLYLINE
  5
420
100
AcDbEntity
  8
RACCORDO
100
AcDbPolyline
 62
250
  6
CONTINUOUS
 90
28
 70
0
 10
-9.4745174318
 20
9.2857771555
 10
-9.4881312695
 20
9.2855952028
 10
-9.5017949798
 20
9.2849312244
 10
-9.5155085628
 20
9.2837852203
 10
-9.5291928853
 20
9.2822108707
 10
-9.5429270805
 20
9.2801544954
 10
-9.5569485479
 20
9.2774550538
 10
-9.571305725
 20
9.2741560627
 10
-9.5859501742
 20
9.2702140053
 10
-9.600973982
 20
9.2653372899
 10
-9.6164767975
 20
9.2595384884
 10
-9.6323589716
 20
9.2528050289
 10
-9.6484136435
 20
9.2448076041
 10
-9.6647035645
 20
9.2355414199
 10
-9.6811659834
 20
9.2250112704
 10
-9.6974057848
 20
9.21290223
 10
-9.7134832584
 20
9.1991649871
 10
-9.7293381145
 20
9.1838488534
 10
-9.7443943688
 20
9.1667868386
 10
-9.7586677789
 20
9.147892976
 10
-9.7721425872
 20
9.1272532322
 10
-9.7841955364
 20
9.1049585175
 10
-9.7947848031
 20
9.0809373484
 10
-9.8039522107
 20
9.0552612083
 10
-9.8111999722
 20
9.028235458
 10
-9.8163621587
 20
8.9999618841
 10
-9.8196046991
 20
8.9703387
 10
-9.8209275934
 20
8.9393659055
  0
LINE
  5
421
100
AcDbEntity
  8
RACCORDO
100
AcDbLine
 62
250
  6
CONTINUOUS
 10
9.3136017251
 20
9.2857771555
 11
7.5254825682
 21
9.2857771555
  0
LINE
  5
422
100
AcDbEntity
  8
RACCORDO
100
AcDbLine
 62
250
  6
CONTINUOUS
 10
0.8136017251
 20
9.2857771555
 11
-0.9745174318
 21
9.2857771555
  0
LINE
  5
423
100
AcDbEntity
  8
RACCORDO
100
AcDbLine
 62
250
  6
CONTINUOUS
 10
-7.6863982749
 20
9.2857771555
 11
-9.4745174318
 21
9.2857771555
  0
LWPOLYLINE
  5
424
100
AcDbEntity
  8
RACCORDO
100
AcDbPolyline
 62
250
  6
CONTINUOUS
 90
28
 70
0
 10
7.5254825682
 20
9.1125720747
 10
7.5173427774
 20
9.1138146466
 10
7.5092090678
 20
9.1147846639
 10
7.5010871133
 20
9.1154760917
 10
7.4930340304
 20
9.1158950158
 10
7.4850051324
 20
9.1160266622
 10
7.4768560338
 20
9.115821657
 10
7.4685724034
 20
9.1152777223
 10
7.4601912334
 20
9.1143614711
 10
7.4516525935
 20
9.1129533738
 10
7.4429293187
 20
9.1110325169
 10
7.4340930177
 20
9.1085610575
 10
7.4252419556
 20
9.1053791712
 10
7.4163892574
 20
9.1014609869
 10
7.4075949001
 20
9.0967717341
 10
7.3990372556
 20
9.0911356134
 10
7.3907507399
 20
9.0845168422
 10
7.382809137
 20
9.0769037686
 10
7.3754552505
 20
9.0681657027
 10
7.368757959
 20
9.0582692958
 10
7.3627828727
 20
9.0472383737
 10
7.3577604732
 20
9.0350482121
 10
7.3537807428
 20
9.0216972149
 10
7.3508889468
 20
9.0072306957
 10
7.3492286984
 20
8.9917156289
 10
7.3488813021
 20
8.9752060142
 10
7.3498792148
 20
8.9577380458
 10
7.3522795951
 20
8.9393648862
  0
LWPOLYLINE
  5
425
100
AcDbEntity
  8
RACCORDO
100
AcDbPolyline
 62
250
  6
CONTINUOUS
 90
16
 70
0
 10
8.5927475412
 20
8.0453071016
 10
8.5887347717
 20
8.0592503715
 10
8.5834552088
 20
8.0736962178
 10
8.5768089309
 20
8.0885317083
 10
8.5686299524
 20
8.1037541519
 10
8.55890419
 20
8.1190584004
 10
8.5478787693
 20
8.1338844509
 10
8.5356351085
 20
8.148059662
 10
8.5222309457
 20
8.1614592829
 10
8.50805422
 20
8.1736959852
 10
8.4932300308
 20
8.1847126721
 10
8.4779312663
 20
8.1944286396
 10
8.462718088
 20
8.2025976188
 10
8.4478955608
 20
8.2092344555
 10
8.4334661368
 20
8.2145057935
 10
8.4195424605
 20
8.2185121824
  0
LINE
  5
426
100
AcDbEntity
  8
RACCORDO
100
AcDbLine
 62
7
  6
CONTINUOUS
 10
10.9446402626
 20
-1.274745009
 11
10.9458128888
 21
-5.1234681615
  0
LINE
  5
427
100
AcDbEntity
  8
RACCORDO
100
AcDbLine
 62
250
  6
CONTINUOUS
 10
10.9246875901
 20
-5.1445934602
 11
10.9246875901
 21
-1.2547923365
  0
LINE
  5
428
100
AcDbEntity
  8
0
100
AcDbLine
 62
7
  6
CONTINUOUS
 10
10.9695424605
 20
-1.1554079099
 11
10.9695424605
 21
-1.6496928984
  0
LINE
  5
429
100
AcDbEntity
  8
RACCORDO
100
AcDbLine
 62
250
  6
CONTINUOUS
 10
11.2246418986
 20
-0.6548837195
 11
11.2246418986
 21
-0.954838028
  0
LINE
  5
42A
100
AcDbEntity
  8
RACCORDO
100
AcDbLine
 62
250
  6
CONTINUOUS
 10
11.2246418986
 20
-5.7445020773
 11
11.2246418986
 21
-5.4445477688
  0
LINE
  5
42B
100
AcDbEntity
  8
0
100
AcDbLine
 62
7
  6
CONTINUOUS
 10
11.4195424605
 20
-5.3496928984
 11
11.4195424605
 21
-5.423331108
  0
LINE
  5
42C
100
AcDbEntity
  8
0
100
AcDbLine
 62
250
  6
CONTINUOUS
 10
11.7195424605
 20
-5.3496928984
 11
11.7195424605
 21
-5.423331108
  0
LWPOLYLINE
  5
42D
100
AcDbEntity
  8
RACCORDO
100
AcDbPolyline
 62
250
  6
CONTINUOUS
 90
19
 70
0
 10
10.9246876018
 20
-1.2547923482
 10
10.9258515055
 20
-1.2282931511
 10
10.9293544983
 20
-1.2019819498
 10
10.9351745585
 20
-1.1760652034
 10
10.9432982749
 20
-1.1506742182
 10
10.9536531337
 20
-1.1260875287
 10
10.9660443628
 20
-1.1027025453
 10
10.9802952984
 20
-1.0807183963
 10
10.996273471
 20
-1.060224454
 10
11.0137633317
 20
-1.0413921995
 10
11.0324336616
 20
-1.024434487
 10
11.0522302685
 20
-1.0092702506
 10
11.0734128802
 20
-0.9956907407
 10
11.0959586901
 20
-0.983793253
 10
11.1196447279
 20
-0.9737751502
 10
11.1445034955
 20
-0.9657119735
 10
11.1704424491
 20
-0.9597563448
 10
11.1972225902
 20
-0.9560848038
 10
11.22464191
 20
-0.9548380393
  0
LWPOLYLINE
  5
42E
100
AcDbEntity
  8
RACCORDO
100
AcDbPolyline
 62
250
  6
CONTINUOUS
 90
19
 70
0
 10
10.6247332815
 20
-1.25479255
 10
10.6272106791
 20
-1.2011311767
 10
10.6342158449
 20
-1.1486601916
 10
10.6457487789
 20
-1.0973795945
 10
10.6620712988
 20
-1.0467940679
 10
10.6829215869
 20
-0.9973989295
 10
10.7075141902
 20
-0.9506801318
 10
10.735951606
 20
-0.9068695155
 10
10.7681313371
 20
-0.86573524
 10
10.8029604386
 20
-0.8280677366
 10
10.8401108422
 20
-0.7941220307
 10
10.8799106163
 20
-0.7636430968
 10
10.9222510218
 20
-0.7366562894
 10
10.967273121
 20
-0.712919582
 10
11.0148358517
 20
-0.6926750011
 10
11.0644072874
 20
-0.6766739809
 10
11.1158101194
 20
-0.6651669997
 10
11.1692216565
 20
-0.6579035792
 10
11.2246418986
 20
-0.6548837195
  0
LINE
  5
42F
100
AcDbEntity
  8
RACCORDO
100
AcDbLine
 62
250
  6
CONTINUOUS
 10
14.1144430223
 20
-0.954838028
 11
14.0945817676
 21
-0.9746992827
  0
LINE
  5
430
100
AcDbEntity
  8
RACCORDO
100
AcDbLine
 62
250
  6
CONTINUOUS
 10
14.4143973309
 20
-1.2547923365
 11
14.3944446584
 21
-1.274745009
  0
LINE
  5
431
100
AcDbEntity
  8
RACCORDO
100
AcDbLine
 62
250
  6
CONTINUOUS
 10
10.9246875901
 20
-5.1445934602
 11
10.9458128888
 21
-5.1234681615
  0
LINE
  5
432
100
AcDbEntity
  8
RACCORDO
100
AcDbLine
 62
250
  6
CONTINUOUS
 10
7.3522774874
 20
-8.8387527907
 11
8.2463373797
 21
-7.9446928984
  0
LINE
  5
433
100
AcDbEntity
  8
RACCORDO
100
AcDbLine
 62
250
  6
CONTINUOUS
 10
7.5254825682
 20
-9.0119578715
 11
8.4195424605
 21
-8.1178979791
  0
LINE
  5
434
100
AcDbEntity
  8
RACCORDO
100
AcDbLine
 62
250
  6
CONTINUOUS
 10
11.2246418986
 20
-5.4445477688
 11
11.2458585594
 21
-5.423331108
  0
LWPOLYLINE
  5
435
100
AcDbEntity
  8
RACCORDO
100
AcDbPolyline
 62
250
  6
CONTINUOUS
 90
19
 70
0
 10
-18.0682237566
 20
10.9880428577
 10
-18.0882362263
 20
10.9868999573
 10
-18.1075299453
 20
10.9840472486
 10
-18.1261049134
 20
10.9794847316
 10
-18.1441580938
 20
10.9730148194
 10
-18.1614925233
 20
10.964835099
 10
-18.1775173132
 20
10.9555383315
 10
-18.1920678859
 20
10.945109435
 10
-18.2053088189
 20
10.9335634914
 10
-18.2171429564
 20
10.9215385076
 10
-18.2274289938
 20
10.9092718019
 10
-18.2363082356
 20
10.8965260559
 10
-18.2441074403
 20
10.8832273216
 10
-18.2509607905
 20
10.8694843181
 10
-18.2567341037
 20
10.8551883262
 10
-18.2613515897
 20
10.8399392409
 10
-18.2647879854
 20
10.8236036937
 10
-18.2670685541
 20
10.8063150529
 10
-18.2681932957
 20
10.7880733187
  0
LWPOLYLINE
  5
436
100
AcDbEntity
  8
RACCORDO
100
AcDbPolyline
 62
250
  6
CONTINUOUS
 90
19
 70
0
 10
-18.0682237566
 20
11.2879971663
 10
-18.1175730303
 20
11.2855467731
 10
-18.1659469022
 20
11.2783360141
 10
-18.2129041266
 20
11.2665793315
 10
-18.2582739736
 20
11.2504318942
 10
-18.3014358001
 20
11.230229407
 10
-18.3414225746
 20
11.2067007769
 10
-18.377931174
 20
11.1804580045
 10
-18.4110174256
 20
11.1519083554
 10
-18.4404841138
 20
11.1216986486
 10
-18.4660555588
 20
11.0907524856
 10
-18.4882496353
 20
11.0591175821
 10
-18.5079005042
 20
11.0259258648
 10
-18.5248727887
 20
10.9914565621
 10
-18.5391243544
 20
10.9558529717
 10
-18.551022784
 20
10.9177175659
 10
-18.5602257674
 20
10.8766323526
 10
-18.5660872028
 20
10.833325792
 10
-18.5681476042
 20
10.7880733187
  0
LINE
  5
437
100
AcDbEntity
  8
RACCORDO
100
AcDbLine
 62
250
  6
CONTINUOUS
 10
18.1072782166
 20
10.7880733187
 11
18.4072325252
 21
10.7880733187
  0
LINE
  5
438
100
AcDbEntity
  8
RACCORDO
100
AcDbLine
 62
250
  6
CONTINUOUS
 10
-18.2681932957
 20
10.7880733187
 11
-18.5681476042
 21
10.7880733187
  0
LINE
  5
439
100
AcDbEntity
  8
RACCORDO
100
AcDbLine
 62
250
  6
CONTINUOUS
 10
17.9073086776
 20
10.9880428577
 11
-18.0682237566
 21
10.9880428577
  0
LINE
  5
43A
100
AcDbEntity
  8
RACCORDO
100
AcDbLine
 62
250
  6
CONTINUOUS
 10
17.9073086776
 20
11.2879971663
 11
-18.0682237566
 21
11.2879971663
  0
LINE
  5
43B
100
AcDbEntity
  8
RACCORDO
100
AcDbLine
 62
7
  6
CONTINUOUS
 10
-18.0905321689
 20
11.3003071016
 11
17.9296170899
 21
11.3003071016
  0
LINE
  5
43C
100
AcDbEntity
  8
RACCORDO
100
AcDbLine
 62
250
  6
CONTINUOUS
 10
8.2463373797
 20
8.0453071016
 11
7.3522774874
 21
8.9393669939
  0
LINE
  5
43D
100
AcDbEntity
  8
RACCORDO
100
AcDbLine
 62
250
  6
CONTINUOUS
 10
8.4195424605
 20
8.2185121824
 11
7.5254825682
 21
9.1125720747
  0
LINE
  5
43E
100
AcDbEntity
  8
0
100
AcDbLine
 62
250
  6
CONTINUOUS
 10
13.6195424605
 20
-5.3496928984
 11
13.6195424605
 21
-5.423331108
  0
LINE
  5
43F
100
AcDbEntity
  8
0
100
AcDbLine
 62
7
  6
CONTINUOUS
 10
13.9195424605
 20
-5.3496928984
 11
13.9195424605
 21
-5.423331108
  0
LINE
  5
440
100
AcDbEntity
  8
RACCORDO
100
AcDbLine
 62
250
  6
CONTINUOUS
 10
14.1144430223
 20
-0.6548837195
 11
14.1144430223
 21
-0.954838028
  0
LINE
  5
441
100
AcDbEntity
  8
RACCORDO
100
AcDbLine
 62
250
  6
CONTINUOUS
 10
14.1144430223
 20
-5.7445020773
 11
14.1144430223
 21
-5.4445477688
  0
LINE
  5
442
100
AcDbEntity
  8
0
100
AcDbLine
 62
7
  6
CONTINUOUS
 10
14.3695424605
 20
-1.1554078865
 11
14.3695424605
 21
-1.6496928984
  0
LINE
  5
443
100
AcDbEntity
  8
RACCORDO
100
AcDbLine
 62
250
  6
CONTINUOUS
 10
14.4143973309
 20
-1.2547923365
 11
14.4143973309
 21
-5.1445934602
  0
LINE
  5
444
100
AcDbEntity
  8
RACCORDO
100
AcDbLine
 62
250
  6
CONTINUOUS
 10
14.7143516394
 20
-1.2547923365
 11
14.7143516394
 21
-5.1445932468
  0
LINE
  5
445
100
AcDbEntity
  8
RACCORDO
100
AcDbLine
 62
7
  6
CONTINUOUS
 10
14.3932720322
 20
-5.1234681615
 11
14.3944446584
 21
-1.274745009
  0
LWPOLYLINE
  5
446
100
AcDbEntity
  8
RACCORDO
100
AcDbPolyline
 62
250
  6
CONTINUOUS
 90
19
 70
0
 10
14.4143973192
 20
-5.1445934485
 10
14.4132334154
 20
-5.1710926457
 10
14.4097304227
 20
-5.197403847
 10
14.4039103625
 20
-5.2233205933
 10
14.3957866461
 20
-5.2487115786
 10
14.3854317872
 20
-5.273298268
 10
14.3730405581
 20
-5.2966832514
 10
14.3587896226
 20
-5.3186674005
 10
14.34281145
 20
-5.3391613427
 10
14.3253215893
 20
-5.3579935972
 10
14.3066512593
 20
-5.3749513098
 10
14.2868546525
 20
-5.3901155462
 10
14.2656720407
 20
-5.4036950561
 10
14.2431262309
 20
-5.4155925437
 10
14.2194401931
 20
-5.4256106466
 10
14.1945814254
 20
-5.4336738233
 10
14.1686424719
 20
-5.439629452
 10
14.1418623307
 20
-5.443300993
 10
14.114443011
 20
-5.4445477575
  0
LWPOLYLINE
  5
447
100
AcDbEntity
  8
RACCORDO
100
AcDbPolyline
 62
250
  6
CONTINUOUS
 90
19
 70
0
 10
14.7143516394
 20
-5.1445932468
 10
14.7118742418
 20
-5.1982546201
 10
14.704869076
 20
-5.2507256052
 10
14.693336142
 20
-5.3020062023
 10
14.6770136222
 20
-5.3525917288
 10
14.6561633341
 20
-5.4019868673
 10
14.6315707308
 20
-5.4487056649
 10
14.603133315
 20
-5.4925162813
 10
14.5709535839
 20
-5.5336505567
 10
14.5361244823
 20
-5.5713180602
 10
14.4989740788
 20
-5.6052637661
 10
14.4591743047
 20
-5.6357427
 10
14.4168338992
 20
-5.6627295074
 10
14.3718117999
 20
-5.6864662148
 10
14.3242490693
 20
-5.7067107957
 10
14.2746776336
 20
-5.7227118158
 10
14.2232748016
 20
-5.7342187971
 10
14.1698632645
 20
-5.7414822176
 10
14.1144430223
 20
-5.7445020773
  0
LWPOLYLINE
  5
448
100
AcDbEntity
  8
RACCORDO
100
AcDbPolyline
 62
250
  6
CONTINUOUS
 90
7
 70
0
 10
18.5048901596
 20
2.5503071016
 10
18.5058596652
 20
2.5490552026
 10
18.5068048105
 20
2.5453131413
 10
18.5077255955
 20
2.5391168545
 10
18.5086297422
 20
2.5305110145
 10
18.5095095287
 20
2.5195777726
 10
18.5103417884
 20
2.5064631235
  0
LINE
  5
449
100
AcDbEntity
  8
RACCORDO
100
AcDbLine
 62
250
  6
CONTINUOUS
 10
17.9073086776
 20
-10.8874286545
 11
17.9073086863
 21
-11.1873829631
  0
LINE
  5
44A
100
AcDbEntity
  8
RACCORDO
100
AcDbLine
 62
250
  6
CONTINUOUS
 10
17.9073086776
 20
10.9880428577
 11
17.9073086776
 21
11.2879971663
  0
LINE
  5
44B
100
AcDbEntity
  8
RACCORDO
100
AcDbLine
 62
250
  6
CONTINUOUS
 10
18.1072782166
 20
-10.6874591155
 11
18.1072782166
 21
10.7880733187
  0
LWPOLYLINE
  5
44C
100
AcDbEntity
  8
RACCORDO
100
AcDbPolyline
 62
250
  6
CONTINUOUS
 90
19
 70
0
 10
18.1072782166
 20
10.7880733187
 10
18.1061353161
 20
10.8080857884
 10
18.1032826074
 20
10.8273795074
 10
18.0987200905
 20
10.8459544755
 10
18.0922501783
 20
10.8640076559
 10
18.0840704578
 20
10.8813420854
 10
18.0747736903
 20
10.8973668753
 10
18.0643447938
 20
10.911917448
 10
18.0527988503
 20
10.925158381
 10
18.0407738665
 20
10.9369925185
 10
18.0285071608
 20
10.9472785559
 10
18.0157614148
 20
10.9561577977
 10
18.0024626805
 20
10.9639570024
 10
17.9887196769
 20
10.9708103526
 10
17.9744236851
 20
10.9765836658
 10
17.9591745998
 20
10.9812011518
 10
17.9428390525
 20
10.9846375475
 10
17.9255504118
 20
10.9869181162
 10
17.9073086776
 20
10.9880428577
  0
LWPOLYLINE
  5
44D
100
AcDbEntity
  8
RACCORDO
100
AcDbPolyline
 62
250
  6
CONTINUOUS
 90
5
 70
0
 10
18.5103417884
 20
2.5064631235
 10
18.5111277096
 20
2.4911926274
 10
18.5118661041
 20
2.474000259
 10
18.5125302411
 20
2.4555270623
 10
18.5131079461
 20
2.4363576424
  0
LWPOLYLINE
  5
44E
100
AcDbEntity
  8
RACCORDO
100
AcDbPolyline
 62
250
  6
CONTINUOUS
 90
19
 70
0
 10
18.4072325252
 20
10.7880733187
 10
18.404782132
 20
10.8374225924
 10
18.397571373
 20
10.8857964643
 10
18.3858146904
 20
10.9327536887
 10
18.3696672531
 20
10.9781235357
 10
18.3494647659
 20
11.0212853622
 10
18.3259361357
 20
11.0612721367
 10
18.2996933634
 20
11.0977807361
 10
18.2711437142
 20
11.1308669877
 10
18.2409340075
 20
11.1603336759
 10
18.2099878445
 20
11.1859051209
 10
18.178352941
 20
11.2080991974
 10
18.1451612236
 20
11.2277500662
 10
18.1106919209
 20
11.2447223508
 10
18.0750883305
 20
11.2589739165
 10
18.0369529247
 20
11.2708723461
 10
17.9958677114
 20
11.2800753295
 10
17.9525611508
 20
11.2859367649
 10
17.9073086776
 20
11.2879971663
  0
LINE
  5
44F
100
AcDbEntity
  8
RACCORDO
100
AcDbLine
 62
250
  6
CONTINUOUS
 10
18.5131079461
 20
2.4363576424
 11
18.5140503768
 21
2.3957853848
  0
LINE
  5
450
100
AcDbEntity
  8
RACCORDO
100
AcDbLine
 62
250
  6
CONTINUOUS
 10
18.5140503768
 20
2.3957853848
 11
18.5147404558
 21
2.3529301312
  0
LINE
  5
451
100
AcDbEntity
  8
RACCORDO
100
AcDbLine
 62
250
  6
CONTINUOUS
 10
18.5147404558
 20
2.3529301312
 11
18.5151777903
 21
2.3045370896
  0
LINE
  5
452
100
AcDbEntity
  8
RACCORDO
100
AcDbLine
 62
250
  6
CONTINUOUS
 10
18.5151777903
 20
2.3045370896
 11
18.515363914
 21
2.2503071016
  0
LINE
  5
453
100
AcDbEntity
  8
RACCORDO
100
AcDbLine
 62
250
  6
CONTINUOUS
 10
18.4072325252
 20
-10.6874591155
 11
18.4072325252
 21
10.7880733187
  0
LINE
  5
454
100
AcDbEntity
  8
RACCORDO
100
AcDbLine
 62
7
  6
CONTINUOUS
 10
18.4195424605
 20
10.810381731
 11
18.4195424605
 21
-10.7097675278
  0
LINE
  5
455
100
AcDbEntity
  8
RACCORDO
100
AcDbLine
 62
250
  6
CONTINUOUS
 10
19.1195424605
 20
2.5503071016
 11
19.1195424605
 21
-2.4496928984
  0
LINE
  5
456
100
AcDbEntity
  8
RACCORDO
100
AcDbLine
 62
7
  6
CONTINUOUS
 10
19.4195424605
 20
2.2503071016
 11
19.4195424605
 21
-2.1496928984
  0
LINE
  5
457
100
AcDbEntity
  8
RACCORDO
100
AcDbLine
 62
250
  6
CONTINUOUS
 10
18.5153638992
 20
2.2503071016
 11
18.5153171084
 21
-2.1760655706
  0
LINE
  5
458
100
AcDbEntity
  8
RACCORDO
100
AcDbLine
 62
250
  6
CONTINUOUS
 10
18.5153171084
 20
-2.1760655706
 11
18.5150074565
 21
-2.2272666973
  0
LINE
  5
459
100
AcDbEntity
  8
RACCORDO
100
AcDbLine
 62
250
  6
CONTINUOUS
 10
18.5150074565
 20
-2.2272666973
 11
18.5144053263
 21
-2.2750628429
  0
LWPOLYLINE
  5
45A
100
AcDbEntity
  8
RACCORDO
100
AcDbPolyline
 62
250
  6
CONTINUOUS
 90
13
 70
0
 10
18.5144053263
 20
-2.2750628429
 10
18.513533522
 20
-2.3191617713
 10
18.5129987921
 20
-2.339520699
 10
18.5124094846
 20
-2.3585343038
 10
18.5117690078
 20
-2.3759715636
 10
18.5110739534
 20
-2.3918087772
 10
18.5103249325
 20
-2.4061461197
 10
18.5095150615
 20
-2.4188690999
 10
18.5086512242
 20
-2.4296577518
 10
18.5077546825
 20
-2.4382674921
 10
18.5068325239
 20
-2.4445466001
 10
18.5058776609
 20
-2.4483908698
 10
18.5048900937
 20
-2.4496928984
  0
ARC
  5
45B
100
AcDbEntity
  8
RACCORDO
100
AcDbCircle
 62
7
  6
CONTINUOUS
 10
-19.2804575395
 20
2.2503071016
 40
0.3
100
AcDbArc
 50
90.0
 51
180.0
  0
ARC
  5
45C
100
AcDbEntity
  8
RACCORDO
100
AcDbCircle
 62
7
  6
CONTINUOUS
 10
-19.2804575395
 20
-2.1496928984
 40
0.3
100
AcDbArc
 50
180.0
 51
270.0
  0
ARC
  5
45D
100
AcDbEntity
  8
RACCORDO
100
AcDbCircle
 62
7
  6
CONTINUOUS
 10
19.1195424605
 20
2.2503071016
 40
0.3
100
AcDbArc
 50
0.0
 51
90.0
  0
ARC
  5
45E
100
AcDbEntity
  8
RACCORDO
100
AcDbCircle
 62
7
  6
CONTINUOUS
 10
19.1195424605
 20
-2.1496928984
 40
0.3
100
AcDbArc
 50
270.0
 51
360.0
  0
ELLIPSE
  5
45F
100
AcDbEntity
  8
RACCORDO
100
AcDbEllipse
 62
7
  6
CONTINUOUS
 10
-18.0903828988
 20
-10.7096182576
 30
0.0
 11
0.3465878727
 21
0.3465878727
 31
0.0
 40
0.9996954599
 41
8.6395320906
 42
10.2100238309
  0
ELLIPSE
  5
460
100
AcDbEntity
  8
RACCORDO
100
AcDbEllipse
 62
7
  6
CONTINUOUS
 10
-18.0903828988
 20
10.8102324609
 30
0.0
 11
0.3465878727
 21
-0.3465878727
 31
0.0
 40
0.9996954599
 41
8.6395320906
 42
10.2100238309
  0
ELLIPSE
  5
461
100
AcDbEntity
  8
RACCORDO
100
AcDbEllipse
 62
7
  6
CONTINUOUS
 10
17.9294678197
 20
10.8102324609
 30
0.0
 11
-0.3465878727
 21
-0.3465878727
 31
0.0
 40
0.9996954599
 41
8.6395320906
 42
10.2100238309
  0
ELLIPSE
  5
462
100
AcDbEntity
  8
RACCORDO
100
AcDbEllipse
 62
7
  6
CONTINUOUS
 10
17.9294678197
 20
-10.7096182576
 30
0.0
 11
-0.3465878727
 21
0.3465878727
 31
0.0
 40
0.9996954599
 41
8.6395320906
 42
10.2100238309
  0
ELLIPSE
  5
463
100
AcDbEntity
  8
RACCORDO
100
AcDbEllipse
 62
7
  6
CONTINUOUS
 10
11.1980109282
 20
-5.6281613661
 30
0.0
 11
-0.1578367004
 21
0.2553503493
 31
0.0
 40
0.9993189899
 41
-0.5533306656
 42
-0.0858511386
  0
ELLIPSE
  5
464
100
AcDbEntity
  8
RACCORDO
100
AcDbEllipse
 62
7
  6
CONTINUOUS
 10
14.1410739927
 20
-5.6281613661
 30
0.0
 11
0.1578367004
 21
0.2553503493
 31
0.0
 40
0.9993189899
 41
0.0858511324
 42
0.5533306656
  0
ELLIPSE
  5
465
100
AcDbEntity
  8
RACCORDO
100
AcDbEllipse
 62
7
  6
CONTINUOUS
 10
5.6410739927
 20
-5.6281613661
 30
0.0
 11
0.1578367004
 21
0.2553503493
 31
0.0
 40
0.9993189899
 41
0.0858511324
 42
0.5533306656
  0
ELLIPSE
  5
466
100
AcDbEntity
  8
RACCORDO
100
AcDbEllipse
 62
7
  6
CONTINUOUS
 10
2.6980109282
 20
-5.6281613661
 30
0.0
 11
-0.1578367004
 21
0.2553503493
 31
0.0
 40
0.9993189899
 41
-0.5533306656
 42
-0.0858511386
  0
ELLIPSE
  5
467
100
AcDbEntity
  8
RACCORDO
100
AcDbEllipse
 62
7
  6
CONTINUOUS
 10
-5.8019890718
 20
-5.6281613661
 30
0.0
 11
-0.1578367004
 21
0.2553503493
 31
0.0
 40
0.9993189899
 41
-0.5533306656
 42
-0.0858511386
  0
ELLIPSE
  5
468
100
AcDbEntity
  8
RACCORDO
100
AcDbEllipse
 62
7
  6
CONTINUOUS
 10
-2.8589260073
 20
-5.6281613661
 30
0.0
 11
0.1578367004
 21
0.2553503493
 31
0.0
 40
0.9993189899
 41
0.0858511324
 42
0.5533306656
  0
ELLIPSE
  5
469
100
AcDbEntity
  8
RACCORDO
100
AcDbEllipse
 62
7
  6
CONTINUOUS
 10
-5.7553140112
 20
-1.2748364267
 30
0.0
 11
-0.1578367004
 21
0.2553503493
 31
0.0
 40
0.9993189899
 41
-0.5533306656
 42
1.0171610747
  0
ELLIPSE
  5
46A
100
AcDbEntity
  8
RACCORDO
100
AcDbEllipse
 62
7
  6
CONTINUOUS
 10
-2.9056010678
 20
-1.2748364267
 30
0.0
 11
0.1578367004
 21
0.2553503493
 31
0.0
 40
0.9993189899
 41
-1.0171610747
 42
0.5533306656
  0
ELLIPSE
  5
46B
100
AcDbEntity
  8
RACCORDO
100
AcDbEllipse
 62
7
  6
CONTINUOUS
 10
-2.9067736384
 20
-5.1233767995
 30
0.0
 11
0.3000456845
 21
-0.0
 31
0.0
 40
0.9996954599
 41
-1.5707963268
 42
-0.0003045865
  0
ELLIPSE
  5
46C
100
AcDbEntity
  8
RACCORDO
100
AcDbEllipse
 62
7
  6
CONTINUOUS
 10
-5.7541414406
 20
-5.1233767995
 30
0.0
 11
0.3000456845
 21
0.0
 31
0.0
 40
0.9996954599
 41
-3.1412880671
 42
-1.5707963268
  0
ELLIPSE
  5
46D
100
AcDbEntity
  8
RACCORDO
100
AcDbEllipse
 62
7
  6
CONTINUOUS
 10
2.7446859888
 20
-1.2748364267
 30
0.0
 11
-0.1578367004
 21
0.2553503493
 31
0.0
 40
0.9993189899
 41
-0.5533306656
 42
1.0171610747
  0
ELLIPSE
  5
46E
100
AcDbEntity
  8
RACCORDO
100
AcDbEllipse
 62
7
  6
CONTINUOUS
 10
5.5943989322
 20
-1.2748364267
 30
0.0
 11
0.1578367004
 21
0.2553503493
 31
0.0
 40
0.9993189899
 41
-1.0171610747
 42
0.5533306656
  0
ELLIPSE
  5
46F
100
AcDbEntity
  8
RACCORDO
100
AcDbEllipse
 62
7
  6
CONTINUOUS
 10
5.5932263616
 20
-5.1233767995
 30
0.0
 11
0.3000456845
 21
-0.0
 31
0.0
 40
0.9996954599
 41
-1.5707963268
 42
-0.0003045865
  0
ELLIPSE
  5
470
100
AcDbEntity
  8
RACCORDO
100
AcDbEllipse
 62
7
  6
CONTINUOUS
 10
2.7458585594
 20
-5.1233767995
 30
0.0
 11
0.3000456845
 21
0.0
 31
0.0
 40
0.9996954599
 41
-3.1412880671
 42
-1.5707963268
  0
ELLIPSE
  5
471
100
AcDbEntity
  8
RACCORDO
100
AcDbEllipse
 62
7
  6
CONTINUOUS
 10
11.2458585594
 20
-5.1233767995
 30
0.0
 11
0.3000456845
 21
0.0
 31
0.0
 40
0.9996954599
 41
-3.1412880671
 42
-1.5707963268
  0
ELLIPSE
  5
472
100
AcDbEntity
  8
RACCORDO
100
AcDbEllipse
 62
7
  6
CONTINUOUS
 10
14.0932263616
 20
-5.1233767995
 30
0.0
 11
0.3000456845
 21
0.0
 31
0.0
 40
0.9996954599
 41
-1.5707963268
 42
-0.0003045865
  0
ELLIPSE
  5
473
100
AcDbEntity
  8
RACCORDO
100
AcDbEllipse
 62
7
  6
CONTINUOUS
 10
14.0943989322
 20
-1.2748364267
 30
0.0
 11
0.1578367004
 21
0.2553503493
 31
0.0
 40
0.9993189899
 41
-1.0171610747
 42
0.5533306656
  0
ELLIPSE
  5
474
100
AcDbEntity
  8
RACCORDO
100
AcDbEllipse
 62
7
  6
CONTINUOUS
 10
11.2446859888
 20
-1.2748364267
 30
0.0
 11
-0.1578367004
 21
0.2553503493
 31
0.0
 40
0.9993189899
 41
-0.5533306656
 42
1.0171610747
  0
ELLIPSE
  5
475
100
AcDbEntity
  8
RACCORDO
100
AcDbEllipse
 62
7
  6
CONTINUOUS
 10
-18.0803813755
 20
10.8002309376
 30
0.0
 11
0.3536610946
 21
-0.3536610946
 31
0.0
 40
0.9996954599
 41
-2.5672790272
 42
-2.3563467834
  0
ELLIPSE
  5
476
100
AcDbEntity
  8
RACCORDO
100
AcDbEllipse
 62
7
  6
CONTINUOUS
 10
-18.0803813755
 20
10.8002309376
 30
0.0
 11
-0.3536610946
 21
0.3536610946
 31
0.0
 40
0.9996954599
 41
-0.574313721
 42
0.5743136264
  0
ELLIPSE
  5
477
100
AcDbEntity
  8
RACCORDO
100
AcDbEllipse
 62
7
  6
CONTINUOUS
 10
-18.0803813755
 20
10.8002309376
 30
0.0
 11
0.3536610946
 21
-0.3536610946
 31
0.0
 40
0.9996954599
 41
2.3563467834
 42
2.5672789325
  0
ELLIPSE
  5
478
100
AcDbEntity
  8
RACCORDO
100
AcDbEllipse
 62
7
  6
CONTINUOUS
 10
-18.0803813755
 20
-10.6996167344
 30
0.0
 11
0.3536610946
 21
0.3536610946
 31
0.0
 40
0.9996954599
 41
-3.9268385237
 42
-2.3563467834
  0
ELLIPSE
  5
479
100
AcDbEntity
  8
RACCORDO
100
AcDbEllipse
 62
7
  6
CONTINUOUS
 10
17.9194662965
 20
-10.6996167344
 30
0.0
 11
0.3536610946
 21
-0.3536610946
 31
0.0
 40
0.9996954599
 41
-0.7852458701
 42
0.7852458701
  0
ELLIPSE
  5
47A
100
AcDbEntity
  8
RACCORDO
100
AcDbEllipse
 62
7
  6
CONTINUOUS
 10
17.9194662965
 20
10.8002309376
 30
0.0
 11
0.3536610946
 21
0.3536610946
 31
0.0
 40
0.9996954599
 41
-0.7852458701
 42
0.7852458701
  0
ELLIPSE
  5
47B
100
AcDbEntity
  8
RACCORDO
100
AcDbEllipse
 62
7
  6
CONTINUOUS
 10
-3.7629567762
 20
-10.882192135
 30
0.0
 11
0.2121966568
 21
0.2121966568
 31
0.0
 40
0.9996954599
 41
-3.9268385237
 42
-3.9096898177
  0
ELLIPSE
  5
47C
100
AcDbEntity
  8
RACCORDO
100
AcDbEllipse
 62
7
  6
CONTINUOUS
 10
3.6020416971
 20
-10.882192135
 30
0.0
 11
0.2121966568
 21
-0.2121966568
 31
0.0
 40
0.9996954599
 41
0.7680971641
 42
0.7852458701
  0
ELLIPSE
  5
47D
100
AcDbEntity
  8
DRAFT
100
AcDbEllipse
 62
7
  6
CONTINUOUS
 10
-0.0804575395
 20
-11.0862349764
 30
0.0
 11
1.6
 21
0.0
 31
0.0
 40
0.0174550649
 41
0.0
 42
6.2831853072
  0
ELLIPSE
  5
47E
100
AcDbEntity
  8
RACCORDO
100
AcDbEllipse
 62
7
  6
CONTINUOUS
 10
-3.7629567762
 20
-10.2671936617
 30
0.0
 11
0.2121966568
 21
-0.2121966568
 31
0.0
 40
0.9996954599
 41
2.3563467834
 42
3.9268385237
  0
ELLIPSE
  5
47F
100
AcDbEntity
  8
RACCORDO
100
AcDbEllipse
 62
7
  6
CONTINUOUS
 10
3.6020416971
 20
-10.2671936617
 30
0.0
 11
0.2121966568
 21
0.2121966568
 31
0.0
 40
0.9996954599
 41
-0.7852458701
 42
0.7852458701
  0
ELLIPSE
  5
480
100
AcDbEntity
  8
DRAFT
100
AcDbEllipse
 62
7
  6
CONTINUOUS
 10
-0.0804575395
 20
-10.0631508204
 30
0.0
 11
1.6
 21
0.0
 31
0.0
 40
0.0174550649
 41
0.0
 42
6.2831853072
  0
ENDSEC
  0
SECTION
  2
OBJECTS
  0
DICTIONARY
  5
C
100
AcDbDictionary
280
0
281
1
  3
ACAD_GROUP
350
D
  3
ACAD_MLINESTYLE
350
17
  3
ACAD_LAYOUT
350
1A
  3
ACAD_PLOTSETTINGS
350
19
  3
ACAD_PLOTSTYLENAME
350
E
  0
DICTIONARY
  5
D
102
{ACAD_REACTORS
330
C
102
}
100
AcDbDictionary
280
0
281
1
  0
ACDBDICTIONARYWDFLT
  5
E
102
{ACAD_REACTORS
330
C
102
}
100
AcDbDictionary
281
1
  3
Normal
350
F
100
AcDbDictionaryWithDefault
340
F
  0
DICTIONARY
  5
17
102
{ACAD_REACTORS
330
C
102
}
100
AcDbDictionary
280
0
281
1
  3
Standard
350
18
  0
DICTIONARY
  5
19
102
{ACAD_REACTORS
330
C
102
}
100
AcDbDictionary
281
1
  0
DICTIONARY
  5
1A
102
{ACAD_REACTORS
330
C
102
}
100
AcDbDictionary
281
1
  3
Model
350
481
  3
Layout1
350
482
  0
ACDBPLACEHOLDER
  5
F
102
{ACAD_REACTORS
330
E
102
}
  0
MLINESTYLE
  5
18
102
{ACAD_REACTORS
330
17
102
}
100
AcDbMlineStyle
  2
STANDARD
 70
0
  3

 62
256
 51
90.0
 52
90.0
 71
2
 49
0.5
 62
256
  6
BYLAYER
 49
-0.5
 62
256
  6
BYLAYER
  0
LAYOUT
  5
481
102
{ACAD_REACTORS
330
1A
102
}
100
AcDbPlotSettings
  1

  2
none_device
  4
ISO_A4_(297.00_x_210.00_MM)
  6

 40
0.0
 41
0.0
 42
0.0
 43
0.0
 44
297.0
 45
210.0
 46
0.0
 47
0.0
 48
0.0
 49
0.0
140
0.0
141
0.0
142
1.0
143
1.0
 70
1024
 72
1
 73
0
 74
0
  7

 75
0
147
1.0
148
0.0
149
0.0
100
AcDbLayout
  1
Model
 70
0
 71
0
 10
0.0
 20
0.0
 11
297.0
 21
210.0
 12
0.0
 22
0.0
 32
0.0
 14
0.0
 24
0.0
 34
0.0
 15
0.0
 25
0.0
 35
0.0
146
0.0
 13
0.0
 23
0.0
 33
0.0
 16
1.0
 26
0.0
 36
0.0
 17
0.0
 27
1.0
 37
0.0
 76
0
330
2AC
345
0
346
0
  0
LAYOUT
  5
482
102
{ACAD_REACTORS
330
1A
102
}
100
AcDbPlotSettings
  1

  2
none_device
  4
ISO_A4_(297.00_x_210.00_MM)
  6

 40
0.0
 41
0.0
 42
0.0
 43
0.0
 44
297.0
 45
210.0
 46
0.0
 47
0.0
 48
0.0
 49
0.0
140
0.0
141
0.0
142
1.0
143
1.0
 70
0
 72
1
 73
0
 74
0
  7

 75
0
147
1.0
148
0.0
149
0.0
100
AcDbLayout
  1
Layout1
 70
0
 71
1
 10
0.0
 20
0.0
 11
297.0
 21
210.0
 12
0.0
 22
0.0
 32
0.0
 14
0.0
 24
0.0
 34
0.0
 15
0.0
 25
0.0
 35
0.0
146
0.0
 13
0.0
 23
0.0
 33
0.0
 16
1.0
 26
0.0
 36
0.0
 17
0.0
 27
1.0
 37
0.0
 76
0
330
2AD
345
0
346
0
  0
ENDSEC
  0
EOF
