  0
SECTION
  2
HEADER
  9
$ACADVER
  1
AC1024
  9
$DWGCODEPAGE
  3
ANSI_1252
  9
$EXTMAX
 10
297.0
 20
210.0
 30
0.0
  9
$EXTMIN
 10
0.0
 20
0.0
 30
0.0
  9
$LIMMIN
 10
0.0
 20
0.0
  9
$LIMMAX
 10
297.0
 20
210.0
  9
$VIEWCTR
 10
148.5
 20
105.0
  9
$VIEWSIZE
 40
210.0
  9
$CLAYER
  8
0
  9
$LTSCALE
 40
16.335
  9
$CELTYPE
  6
BYLAYER
  9
$DIMSCALE
 40
1.0
  9
$DIMASZ
 40
3.0
  9
$DIMEXO
 40
0.5
  9
$DIMDLI
 40
11.286
  9
$DIMEXE
 40
1.5
  9
$DIMCEN
 40
2.673
  9
$DIMLFAC
 40
1.0
  9
$DIMBLK
  1
_FILLED
  9
$DIMALT
 70
0
  9
$DIMALTF
 40
0.0393700787
  9
$DIMTXT
 40
3.0
  9
$DIMTOL
 70
1
  9
$DIMLIM
 70
0
  9
$DIMTFAC
 40
1.0
  9
$DIMTP
 40
0.01
  9
$DIMTM
 40
0.01
  9
$DIMGAP
 40
0.625
  9
$DIMDSEP
 70
44
  9
$AUNITS
 70
0
  9
$PDMODE
 70
3
  9
$PDSIZE
 40
3.0
  9
$HANDSEED
  5
47A
  9
$TILEMODE
 70
1
  9
$MEASUREMENT
 70
1
  9
$INSUNITS
 70
4
  0
ENDSEC
  0
SECTION
  2
CLASSES
  0
CLASS
  1
ACDBDICTIONARYWDFLT
  2
AcDbDictionaryWithDefault
  3
AutoCAD 2000
 90
0
 91
1
280
0
281
0
  0
CLASS
  1
ACDBPLACEHOLDER
  2
AcDbPlaceHolder
  3
AutoCAD 2000
 90
0
 91
1
280
0
281
0
  0
CLASS
  1
LAYOUT
  2
AcDbLayout
  3
AutoCAD 2000
 90
0
 91
0
280
0
281
0
  0
ENDSEC
  0
SECTION
  2
TABLES
  0
TABLE
  2
VPORT
  5
8
100
AcDbSymbolTable
 70
2
  0
VPORT
  5
1F4
100
AcDbSymbolTableRecord
100
AcDbViewportTableRecord
  2
*ACTIVE
 70
0
 10
0.0
 20
0.0
 11
1.0
 21
1.0
 12
148.5
 22
105.0
 13
0.0
 23
0.0
 14
1.0
 24
1.0
 15
0.0
 25
0.0
 16
0.0
 26
0.0
 36
1.0
 17
0.0
 27
0.0
 37
0.0
 40
210.0
 41
1.4142857143
 42
50.0
 43
0.0
 44
0.0
 50
0.0
 51
0.0
 71
0
 72
100
 73
1
 74
1
 75
0
 76
0
 77
0
 78
0
  0
ENDTAB
  0
TABLE
  2
LTYPE
  5
5
100
AcDbSymbolTable
 70
6
  0
LTYPE
  5
14
100
AcDbSymbolTableRecord
100
AcDbLinetypeTableRecord
  2
BYBLOCK
 70
0
  3

 72
65
 73
0
 40
0.0
  0
LTYPE
  5
15
100
AcDbSymbolTableRecord
100
AcDbLinetypeTableRecord
  2
BYLAYER
 70
0
  3

 72
65
 73
0
 40
0.0
  0
LTYPE
  5
16
100
AcDbSymbolTableRecord
100
AcDbLinetypeTableRecord
  2
CONTINUOUS
 70
64
  3
Solid line
 72
65
 73
0
 40
0.0
  0
LTYPE
  5
1F5
100
AcDbSymbolTableRecord
100
AcDbLinetypeTableRecord
  2
CENTER
 70
64
  3
____ _ ____ _ ____ _ ____ _ ____ _ ____ _ ____
 72
65
 73
4
 40
0.6
 49
0.375
 74
0
 49
-0.075
 74
0
 49
0.075
 74
0
 49
-0.075
 74
0
  0
LTYPE
  5
1F6
100
AcDbSymbolTableRecord
100
AcDbLinetypeTableRecord
  2
HIDDEN
 70
64
  3
- - - - - - - - - - - - - - - - - - - -
 72
65
 73
2
 40
0.2
 49
0.1
 74
0
 49
-0.1
 74
0
  0
LTYPE
  5
1F7
100
AcDbSymbolTableRecord
100
AcDbLinetypeTableRecord
  2
PHANTOM
 70
64
  3
_____ _ _ _____ _ _ _____ _ _ _____
 72
65
 73
6
 40
0.8
 49
0.45
 74
0
 49
-0.05
 74
0
 49
0.1
 74
0
 49
-0.05
 74
0
 49
0.1
 74
0
 49
-0.05
 74
0
  0
LTYPE
  5
1F8
100
AcDbSymbolTableRecord
100
AcDbLinetypeTableRecord
  2
DOT
 70
64
  3
. . . . . . . . . . . . . . . . . . . .
 72
65
 73
2
 40
0.2
 49
0.1
 74
0
 49
-0.1
 74
0
  0
LTYPE
  5
1F9
100
AcDbSymbolTableRecord
100
AcDbLinetypeTableRecord
  2
DASHED
 70
64
  3
- - - - - - - - - - - - - - - - - - - -
 72
65
 73
2
 40
0.2
 49
0.1
 74
0
 49
-0.1
 74
0
  0
ENDTAB
  0
TABLE
  2
LAYER
  5
2
100
AcDbSymbolTable
 70
36
  0
LAYER
  5
10
100
AcDbSymbolTableRecord
100
AcDbLayerTableRecord
  2
0
 70
0
 62
7
  6
CONTINUOUS
370
-3
390
F
  0
LAYER
  5
1FA
100
AcDbSymbolTableRecord
100
AcDbLayerTableRecord
  2
DEFAULT_1
 70
0
 62
7
  6
CENTER
370
-3
390
F
  0
LAYER
  5
1FB
100
AcDbSymbolTableRecord
100
AcDbLayerTableRecord
  2
DEFAULT_2
 70
0
 62
7
  6
HIDDEN
370
-3
390
F
  0
LAYER
  5
1FC
100
AcDbSymbolTableRecord
100
AcDbLayerTableRecord
  2
DEFAULT_3
 70
0
 62
7
  6
PHANTOM
370
-3
390
F
  0
LAYER
  5
1FD
100
AcDbSymbolTableRecord
100
AcDbLayerTableRecord
  2
06___PRT_ALL_SURFS
 70
0
 62
7
  6
CONTINUOUS
370
-3
390
F
  0
LAYER
  5
1FE
100
AcDbSymbolTableRecord
100
AcDbLayerTableRecord
  2
06___PRT_ALL_SURFS_1
 70
0
 62
7
  6
CONTINUOUS
370
-3
390
F
  0
LAYER
  5
1FF
100
AcDbSymbolTableRecord
100
AcDbLayerTableRecord
  2
06___PRT_ALL_SURFS_11
 70
0
 62
7
  6
CONTINUOUS
370
-3
390
F
  0
LAYER
  5
200
100
AcDbSymbolTableRecord
100
AcDbLayerTableRecord
  2
06___PRT_ALL_SURFS_3
 70
0
 62
7
  6
CONTINUOUS
370
-3
390
F
  0
LAYER
  5
201
100
AcDbSymbolTableRecord
100
AcDbLayerTableRecord
  2
06___PRT_ALL_SURFS_5
 70
0
 62
7
  6
CONTINUOUS
370
-3
390
F
  0
LAYER
  5
202
100
AcDbSymbolTableRecord
100
AcDbLayerTableRecord
  2
06___PRT_ALL_SURFS_6
 70
0
 62
7
  6
CONTINUOUS
370
-3
390
F
  0
LAYER
  5
203
100
AcDbSymbolTableRecord
100
AcDbLayerTableRecord
  2
06___PRT_ALL_SURFS_8
 70
0
 62
7
  6
CONTINUOUS
370
-3
390
F
  0
LAYER
  5
204
100
AcDbSymbolTableRecord
100
AcDbLayerTableRecord
  2
06___PRT_ALL_SURFS_9
 70
0
 62
7
  6
CONTINUOUS
370
-3
390
F
  0
LAYER
  5
205
100
AcDbSymbolTableRecord
100
AcDbLayerTableRecord
  2
1210_C_REF_250000
 70
0
 62
7
  6
CONTINUOUS
370
-3
390
F
  0
LAYER
  5
206
100
AcDbSymbolTableRecord
100
AcDbLayerTableRecord
  2
1210_C_REF_250000_1
 70
0
 62
7
  6
CONTINUOUS
370
-3
390
F
  0
LAYER
  5
207
100
AcDbSymbolTableRecord
100
AcDbLayerTableRecord
  2
1210_C_WAVE_250000
 70
0
 62
7
  6
CONTINUOUS
370
-3
390
F
  0
LAYER
  5
208
100
AcDbSymbolTableRecord
100
AcDbLayerTableRecord
  2
1210_C_WAVE_250000_1
 70
0
 62
7
  6
CONTINUOUS
370
-3
390
F
  0
LAYER
  5
209
100
AcDbSymbolTableRecord
100
AcDbLayerTableRecord
  2
43000888C0
 70
0
 62
7
  6
CONTINUOUS
370
-3
390
F
  0
LAYER
  5
20A
100
AcDbSymbolTableRecord
100
AcDbLayerTableRecord
  2
43900888C0
 70
0
 62
7
  6
CONTINUOUS
370
-3
390
F
  0
LAYER
  5
20B
100
AcDbSymbolTableRecord
100
AcDbLayerTableRecord
  2
ASSI
 70
0
 62
7
  6
CONTINUOUS
370
-3
390
F
  0
LAYER
  5
20C
100
AcDbSymbolTableRecord
100
AcDbLayerTableRecord
  2
BUSSMANN_SS-5H_785000
 70
0
 62
7
  6
CONTINUOUS
370
-3
390
F
  0
LAYER
  5
20D
100
AcDbSymbolTableRecord
100
AcDbLayerTableRecord
  2
CAP-E-6_3-11-2_5_1120000
 70
0
 62
7
  6
CONTINUOUS
370
-3
390
F
  0
LAYER
  5
20E
100
AcDbSymbolTableRecord
100
AcDbLayerTableRecord
  2
CAP-E-6_3-11-2_5_1120000_1
 70
0
 62
7
  6
CONTINUOUS
370
-3
390
F
  0
LAYER
  5
20F
100
AcDbSymbolTableRecord
100
AcDbLayerTableRecord
  2
CAP-E-6_3-11-2_5_1120000_2
 70
0
 62
7
  6
CONTINUOUS
370
-3
390
F
  0
LAYER
  5
210
100
AcDbSymbolTableRecord
100
AcDbLayerTableRecord
  2
CAP-E-6_3-11-2_5_1120000_3
 70
0
 62
7
  6
CONTINUOUS
370
-3
390
F
  0
LAYER
  5
211
100
AcDbSymbolTableRecord
100
AcDbLayerTableRecord
  2
COORDINATE
 70
0
 62
7
  6
CONTINUOUS
370
-3
390
F
  0
LAYER
  5
212
100
AcDbSymbolTableRecord
100
AcDbLayerTableRecord
  2
COORD_ORIGINE
 70
0
 62
7
  6
CONTINUOUS
370
-3
390
F
  0
LAYER
  5
213
100
AcDbSymbolTableRecord
100
AcDbLayerTableRecord
  2
COPY_PUBLISH
 70
0
 62
7
  6
CONTINUOUS
370
-3
390
F
  0
LAYER
  5
214
100
AcDbSymbolTableRecord
100
AcDbLayerTableRecord
  2
COSMETICHE
 70
0
 62
7
  6
CONTINUOUS
370
-3
390
F
  0
LAYER
  5
215
100
AcDbSymbolTableRecord
100
AcDbLayerTableRecord
  2
COSMETICI
 70
0
 62
7
  6
CONTINUOUS
370
-3
390
F
  0
LAYER
  5
216
100
AcDbSymbolTableRecord
100
AcDbLayerTableRecord
  2
CURVE
 70
0
 62
7
  6
CONTINUOUS
370
-3
390
F
  0
LAYER
  5
217
100
AcDbSymbolTableRecord
100
AcDbLayerTableRecord
  2
DEMO_00112
 70
0
 62
7
  6
CONTINUOUS
370
-3
390
F
  0
LAYER
  5
218
100
AcDbSymbolTableRecord
100
AcDbLayerTableRecord
  2
DEMO_00112_L1
 70
0
 62
7
  6
CONTINUOUS
370
-3
390
F
  0
LAYER
  5
219
100
AcDbSymbolTableRecord
100
AcDbLayerTableRecord
  2
DEMO_00123
 70
0
 62
7
  6
CONTINUOUS
370
-3
390
F
  0
LAYER
  5
21A
100
AcDbSymbolTableRecord
100
AcDbLayerTableRecord
  2
DO-214AC_230000
 70
0
 62
7
  6
CONTINUOUS
370
-3
390
F
  0
LAYER
  5
21B
100
AcDbSymbolTableRecord
100
AcDbLayerTableRecord
  2
DO-214AC_230000_1
 70
0
 62
7
  6
CONTINUOUS
370
-3
390
F
  0
LAYER
  5
21C
100
AcDbSymbolTableRecord
100
AcDbLayerTableRecord
  2
DO-214AC_230000_2
 70
0
 62
7
  6
CONTINUOUS
370
-3
390
F
  0
LAYER
  5
21D
100
AcDbSymbolTableRecord
100
AcDbLayerTableRecord
  2
DO-214AC_230000_3
 70
0
 62
7
  6
CONTINUOUS
370
-3
390
F
  0
LAYER
  5
21E
100
AcDbSymbolTableRecord
100
AcDbLayerTableRecord
  2
DO-214AC_230000_4
 70
0
 62
7
  6
CONTINUOUS
370
-3
390
F
  0
LAYER
  5
21F
100
AcDbSymbolTableRecord
100
AcDbLayerTableRecord
  2
DO-214BA_290000
 70
0
 62
7
  6
CONTINUOUS
370
-3
390
F
  0
LAYER
  5
220
100
AcDbSymbolTableRecord
100
AcDbLayerTableRecord
  2
DRAFT
 70
0
 62
7
  6
CONTINUOUS
370
-3
390
F
  0
LAYER
  5
221
100
AcDbSymbolTableRecord
100
AcDbLayerTableRecord
  2
E2_MARK_10000
 70
0
 62
7
  6
CONTINUOUS
370
-3
390
F
  0
LAYER
  5
222
100
AcDbSymbolTableRecord
100
AcDbLayerTableRecord
  2
FIDUCIAL_1_2_MM_RUOTATO_45_1000
 70
0
 62
7
  6
CONTINUOUS
370
-3
390
F
  0
LAYER
  5
223
100
AcDbSymbolTableRecord
100
AcDbLayerTableRecord
  2
FIDUCIAL_1_2_MM_RUOTATO_45_10_1
 70
0
 62
7
  6
CONTINUOUS
370
-3
390
F
  0
LAYER
  5
224
100
AcDbSymbolTableRecord
100
AcDbLayerTableRecord
  2
GEOMETRIA_SOLIDA
 70
0
 62
7
  6
CONTINUOUS
370
-3
390
F
  0
LAYER
  5
225
100
AcDbSymbolTableRecord
100
AcDbLayerTableRecord
  2
GEOMETRIA_SOLIDA_1
 70
0
 62
7
  6
CONTINUOUS
370
-3
390
F
  0
LAYER
  5
226
100
AcDbSymbolTableRecord
100
AcDbLayerTableRecord
  2
GEOMETRIA_SOLIDA_2
 70
0
 62
7
  6
CONTINUOUS
370
-3
390
F
  0
LAYER
  5
227
100
AcDbSymbolTableRecord
100
AcDbLayerTableRecord
  2
IMPORT_IGES
 70
0
 62
7
  6
CONTINUOUS
370
-3
390
F
  0
LAYER
  5
228
100
AcDbSymbolTableRecord
100
AcDbLayerTableRecord
  2
INTF_1
 70
0
 62
7
  6
CONTINUOUS
370
-3
390
F
  0
LAYER
  5
229
100
AcDbSymbolTableRecord
100
AcDbLayerTableRecord
  2
INTF_2
 70
0
 62
7
  6
CONTINUOUS
370
-3
390
F
  0
LAYER
  5
22A
100
AcDbSymbolTableRecord
100
AcDbLayerTableRecord
  2
INTF_3
 70
0
 62
7
  6
CONTINUOUS
370
-3
390
F
  0
LAYER
  5
22B
100
AcDbSymbolTableRecord
100
AcDbLayerTableRecord
  2
INTF_BLANK
 70
0
 62
7
  6
CONTINUOUS
370
-3
390
F
  0
LAYER
  5
22C
100
AcDbSymbolTableRecord
100
AcDbLayerTableRecord
  2
K_THT_TE_RT424F48_1570000
 70
0
 62
7
  6
CONTINUOUS
370
-3
390
F
  0
LAYER
  5
22D
100
AcDbSymbolTableRecord
100
AcDbLayerTableRecord
  2
K_THT_TE_RT424F48_1570000_1
 70
0
 62
7
  6
CONTINUOUS
370
-3
390
F
  0
LAYER
  5
22E
100
AcDbSymbolTableRecord
100
AcDbLayerTableRecord
  2
LOGO_RESIST-RESTYLING_10000
 70
0
 62
7
  6
CONTINUOUS
370
-3
390
F
  0
LAYER
  5
22F
100
AcDbSymbolTableRecord
100
AcDbLayerTableRecord
  2
LOGO_RESIST-RESTYLING_10000_1
 70
0
 62
7
  6
CONTINUOUS
370
-3
390
F
  0
LAYER
  5
230
100
AcDbSymbolTableRecord
100
AcDbLayerTableRecord
  2
MINIMELF_R_REF_140000
 70
0
 62
7
  6
CONTINUOUS
370
-3
390
F
  0
LAYER
  5
231
100
AcDbSymbolTableRecord
100
AcDbLayerTableRecord
  2
MINIMELF_R_REF_140000_1
 70
0
 62
7
  6
CONTINUOUS
370
-3
390
F
  0
LAYER
  5
232
100
AcDbSymbolTableRecord
100
AcDbLayerTableRecord
  2
MINIMELF_R_REF_140000_2
 70
0
 62
7
  6
CONTINUOUS
370
-3
390
F
  0
LAYER
  5
233
100
AcDbSymbolTableRecord
100
AcDbLayerTableRecord
  2
MINIMELF_R_REF_140000_3
 70
0
 62
7
  6
CONTINUOUS
370
-3
390
F
  0
LAYER
  5
234
100
AcDbSymbolTableRecord
100
AcDbLayerTableRecord
  2
MINIMELF_R_WAVE_140000
 70
0
 62
7
  6
CONTINUOUS
370
-3
390
F
  0
LAYER
  5
235
100
AcDbSymbolTableRecord
100
AcDbLayerTableRecord
  2
MINIMELF_R_WAVE_140000_1
 70
0
 62
7
  6
CONTINUOUS
370
-3
390
F
  0
LAYER
  5
236
100
AcDbSymbolTableRecord
100
AcDbLayerTableRecord
  2
MINIMELF_R_WAVE_140000_2
 70
0
 62
7
  6
CONTINUOUS
370
-3
390
F
  0
LAYER
  5
237
100
AcDbSymbolTableRecord
100
AcDbLayerTableRecord
  2
MINIMELF_R_WAVE_140000_3
 70
0
 62
7
  6
CONTINUOUS
370
-3
390
F
  0
LAYER
  5
238
100
AcDbSymbolTableRecord
100
AcDbLayerTableRecord
  2
NO-PB_MARK_10000
 70
0
 62
7
  6
CONTINUOUS
370
-3
390
F
  0
LAYER
  5
239
100
AcDbSymbolTableRecord
100
AcDbLayerTableRecord
  2
NOTE
 70
0
 62
7
  6
CONTINUOUS
370
-3
390
F
  0
LAYER
  5
23A
100
AcDbSymbolTableRecord
100
AcDbLayerTableRecord
  2
PIANI
 70
0
 62
7
  6
CONTINUOUS
370
-3
390
F
  0
LAYER
  5
23B
100
AcDbSymbolTableRecord
100
AcDbLayerTableRecord
  2
PIANI_ORIGINE
 70
0
 62
7
  6
CONTINUOUS
370
-3
390
F
  0
LAYER
  5
23C
100
AcDbSymbolTableRecord
100
AcDbLayerTableRecord
  2
PUNTI
 70
0
 62
7
  6
CONTINUOUS
370
-3
390
F
  0
LAYER
  5
23D
100
AcDbSymbolTableRecord
100
AcDbLayerTableRecord
  2
RACCORDO
 70
0
 62
7
  6
CONTINUOUS
370
-3
390
F
  0
LAYER
  5
23E
100
AcDbSymbolTableRecord
100
AcDbLayerTableRecord
  2
RGB____0____0____0__
 70
0
 62
7
  6
CONTINUOUS
370
-3
390
F
  0
LAYER
  5
23F
100
AcDbSymbolTableRecord
100
AcDbLayerTableRecord
  2
SIMBOLI
 70
0
 62
7
  6
CONTINUOUS
370
-3
390
F
  0
LAYER
  5
240
100
AcDbSymbolTableRecord
100
AcDbLayerTableRecord
  2
SMUSSO
 70
0
 62
7
  6
CONTINUOUS
370
-3
390
F
  0
LAYER
  5
241
100
AcDbSymbolTableRecord
100
AcDbLayerTableRecord
  2
SNAPLINE
 70
0
 62
7
  6
CONTINUOUS
370
-3
390
F
  0
LAYER
  5
242
100
AcDbSymbolTableRecord
100
AcDbLayerTableRecord
  2
SUB_SMA_143000
 70
0
 62
7
  6
CONTINUOUS
370
-3
390
F
  0
LAYER
  5
243
100
AcDbSymbolTableRecord
100
AcDbLayerTableRecord
  2
SUB_SMA_143000_1
 70
0
 62
7
  6
CONTINUOUS
370
-3
390
F
  0
LAYER
  5
244
100
AcDbSymbolTableRecord
100
AcDbLayerTableRecord
  2
SUB_SMA_143000_2
 70
0
 62
7
  6
CONTINUOUS
370
-3
390
F
  0
LAYER
  5
245
100
AcDbSymbolTableRecord
100
AcDbLayerTableRecord
  2
SUB_SMA_143000_3
 70
0
 62
7
  6
CONTINUOUS
370
-3
390
F
  0
LAYER
  5
246
100
AcDbSymbolTableRecord
100
AcDbLayerTableRecord
  2
SUB_SMA_143000_4
 70
0
 62
7
  6
CONTINUOUS
370
-3
390
F
  0
LAYER
  5
247
100
AcDbSymbolTableRecord
100
AcDbLayerTableRecord
  2
SUB_SMA_143000_5
 70
0
 62
7
  6
CONTINUOUS
370
-3
390
F
  0
LAYER
  5
248
100
AcDbSymbolTableRecord
100
AcDbLayerTableRecord
  2
SUB_SMA_143000_6
 70
0
 62
7
  6
CONTINUOUS
370
-3
390
F
  0
LAYER
  5
249
100
AcDbSymbolTableRecord
100
AcDbLayerTableRecord
  2
SUB_SMA_143000_7
 70
0
 62
7
  6
CONTINUOUS
370
-3
390
F
  0
LAYER
  5
24A
100
AcDbSymbolTableRecord
100
AcDbLayerTableRecord
  2
SUPERFICI
 70
0
 62
7
  6
CONTINUOUS
370
-3
390
F
  0
LAYER
  5
24B
100
AcDbSymbolTableRecord
100
AcDbLayerTableRecord
  2
TP-RND-1_5-F1_0MM_1000
 70
0
 62
7
  6
CONTINUOUS
370
-3
390
F
  0
LAYER
  5
24C
100
AcDbSymbolTableRecord
100
AcDbLayerTableRecord
  2
TP-RND-1_5-F1_0MM_1000_1
 70
0
 62
7
  6
CONTINUOUS
370
-3
390
F
  0
LAYER
  5
24D
100
AcDbSymbolTableRecord
100
AcDbLayerTableRecord
  2
TP-RND-1_5-F1_0MM_1000_2
 70
0
 62
7
  6
CONTINUOUS
370
-3
390
F
  0
LAYER
  5
24E
100
AcDbSymbolTableRecord
100
AcDbLayerTableRecord
  2
TP-RND-1_5-F1_0MM_1000_3
 70
0
 62
7
  6
CONTINUOUS
370
-3
390
F
  0
LAYER
  5
24F
100
AcDbSymbolTableRecord
100
AcDbLayerTableRecord
  2
TP-RND-1_5-F1_0MM_1000_4
 70
0
 62
7
  6
CONTINUOUS
370
-3
390
F
  0
LAYER
  5
250
100
AcDbSymbolTableRecord
100
AcDbLayerTableRecord
  2
TRASH
 70
0
 62
7
  6
CONTINUOUS
370
-3
390
F
  0
LAYER
  5
251
100
AcDbSymbolTableRecord
100
AcDbLayerTableRecord
  2
VG_CN_THT_CONTATTO_SMART_RELE_1
 70
0
 62
7
  6
CONTINUOUS
370
-3
390
F
  0
LAYER
  5
252
100
AcDbSymbolTableRecord
100
AcDbLayerTableRecord
  2
VG_CN_THT_CONTATTO_SMART_RELE_2
 70
0
 62
7
  6
CONTINUOUS
370
-3
390
F
  0
LAYER
  5
253
100
AcDbSymbolTableRecord
100
AcDbLayerTableRecord
  2
VG_CN_THT_CONTATTO_SMART_RELE_3
 70
0
 62
7
  6
CONTINUOUS
370
-3
390
F
  0
LAYER
  5
254
100
AcDbSymbolTableRecord
100
AcDbLayerTableRecord
  2
VG_CN_THT_CONTATTO_SMART_RELE__
 70
0
 62
7
  6
CONTINUOUS
370
-3
390
F
  0
LAYER
  5
255
100
AcDbSymbolTableRecord
100
AcDbLayerTableRecord
  2
VG_FUSE-BOX-8_35-4_0-7_8-5_08-0
 70
0
 62
7
  6
CONTINUOUS
370
-3
390
F
  0
LAYER
  5
256
100
AcDbSymbolTableRecord
100
AcDbLayerTableRecord
  2
VG_RES-ASS-5_0-9_0-0_7-16_0_510
 70
0
 62
7
  6
CONTINUOUS
370
-3
390
F
  0
LAYER
  5
257
100
AcDbSymbolTableRecord
100
AcDbLayerTableRecord
  2
VG_RES-RAD-4_0-15_0-3_5-0_7_150
 70
0
 62
7
  6
CONTINUOUS
370
-3
390
F
  0
LAYER
  5
258
100
AcDbSymbolTableRecord
100
AcDbLayerTableRecord
  2
VG_RES-RAD-5_0-15_0-5_0-0_7_100
 70
0
 62
7
  6
CONTINUOUS
370
-3
390
F
  0
LAYER
  5
259
100
AcDbSymbolTableRecord
100
AcDbLayerTableRecord
  2
VG_VAR_S05_D7_S4_3_H8_5_850000
 70
0
 62
7
  6
CONTINUOUS
370
-3
390
F
  0
LAYER
  5
25A
100
AcDbSymbolTableRecord
100
AcDbLayerTableRecord
  2
VG_VAR_S05_D7_S4_3_H8_5_85000_1
 70
0
 62
7
  6
CONTINUOUS
370
-3
390
F
  0
LAYER
  5
25B
100
AcDbSymbolTableRecord
100
AcDbLayerTableRecord
  2
___SHELL
 70
0
 62
7
  6
CONTINUOUS
370
-3
390
F
  0
ENDTAB
  0
TABLE
  2
STYLE
  5
3
100
AcDbSymbolTable
 70
1
  0
STYLE
  5
11
100
AcDbSymbolTableRecord
100
AcDbTextStyleTableRecord
  2
STANDARD
 70
0
 40
0.0
 41
0.8
 50
0.0
 71
0
 42
0.2
  3
txt
  4

  0
STYLE
  5
25C
100
AcDbSymbolTableRecord
100
AcDbTextStyleTableRecord
  2
TEXTSTYLE_1
 70
0
 40
0.0
 41
0.8
 50
0.0
 71
0
 42
0.2
  3
gdt
  4

  0
ENDTAB
  0
TABLE
  2
VIEW
  5
6
100
AcDbSymbolTable
 70
0
  0
ENDTAB
  0
TABLE
  2
UCS
  5
7
100
AcDbSymbolTable
 70
0
  0
ENDTAB
  0
TABLE
  2
APPID
  5
9
100
AcDbSymbolTable
 70
1
  0
APPID
  5
25D
100
AcDbSymbolTableRecord
100
AcDbRegAppTableRecord
  2
ACAD
 70
0
  0
ENDTAB
  0
TABLE
  2
BLOCK_RECORD
  5
1
100
AcDbSymbolTable
 70
0
  0
BLOCK_RECORD
  5
25E
100
AcDbSymbolTableRecord
100
AcDbBlockTableRecord
  2
*Model_Space
  0
BLOCK_RECORD
  5
25F
100
AcDbSymbolTableRecord
100
AcDbBlockTableRecord
  2
*Paper_Space
  0
BLOCK_RECORD
  5
260
100
AcDbSymbolTableRecord
100
AcDbBlockTableRecord
  2
_FILLED
  0
ENDTAB
  0
TABLE
  2
DIMSTYLE
  5
A
100
AcDbSymbolTable
 70
1
100
AcDbDimStyleTable
 71
0
  0
DIMSTYLE
105
261
100
AcDbSymbolTableRecord
100
AcDbDimStyleTableRecord
  2
STANDARD
 70
0
  3

  4

 40
1.0
 41
3.0
 42
0.5
 43
0.38
 44
1.5
 45
0.0
 46
0.0
 47
0.01
 48
0.01
140
3.0
141
0.09
142
0.0
143
25.4
144
1.0
145
0.0
146
1.0
147
0.625
 71
1.0
 72
0.0
 73
0
 74
0
 75
0
 76
0
 77
1
 78
8
 79
2
170
0
171
1
172
0
173
0
174
0
175
0
176
0
177
0
178
0
270
2
179
2
271
2
272
2
273
2
274
2
275
0
280
0
281
0
282
0
283
1
284
8
285
0
286
0
287
3
288
0
340
11
278
44
341
260
342
260
343
260
344
260
  0
ENDTAB
  0
ENDSEC
  0
SECTION
  2
BLOCKS
  0
BLOCK
  5
20
100
AcDbEntity
  8
0
100
AcDbBlockBegin
  2
*Model_Space
 70
0
 10
0.0
 20
0.0
 30
0.0
  3
*Model_Space
  1

  0
ENDBLK
  5
21
100
AcDbEntity
  8
0
100
AcDbBlockEnd
  0
BLOCK
  5
1C
100
AcDbEntity
  8
0
100
AcDbBlockBegin
  2
*Paper_Space
 70
0
 10
0.0
 20
0.0
 30
0.0
  3
*Paper_Space
  1

  0
ENDBLK
  5
1D
100
AcDbEntity
  8
0
100
AcDbBlockEnd
  0
BLOCK
  5
262
100
AcDbEntity
  8
0
100
AcDbBlockBegin
  2
_FILLED
 70
64
 10
0.0
 20
0.0
  3
_FILLED
  1

  0
SOLID
  5
263
100
AcDbEntity
  8
0
  6
BYBLOCK
 62
0
100
AcDbTrace
 10
0.0
 20
0.0
 11
-1.0
 21
0.3166666667
 12
-1.0
 22
-0.3166666667
 13
-1.0
 23
-0.3166666667
  0
ENDBLK
  5
264
100
AcDbEntity
  8
0
  6
BYBLOCK
 62
0
100
AcDbBlockEnd
  0
ENDSEC
  0
SECTION
  2
ENTITIES
  0
LWPOLYLINE
  5
265
100
AcDbEntity
  8
RACCORDO
100
AcDbPolyline
 62
250
  6
CONTINUOUS
 90
19
 70
0
 10
-22.9508629361
 20
-11.0051735886
 10
-22.9497604313
 20
-11.0250297843
 10
-22.9469394505
 20
-11.0442182478
 10
-22.9423999935
 20
-11.0627389792
 10
-22.9359407719
 20
-11.0808099074
 10
-22.9277630743
 20
-11.0982131035
 10
-22.9184707662
 20
-11.1142947805
 10
-22.9080547144
 20
-11.1288647987
 10
-22.8965240521
 20
-11.1421132978
 10
-22.8845100456
 20
-11.15395691
 10
-22.8722471815
 20
-11.1642597922
 10
-22.8595009732
 20
-11.1731577874
 10
-22.8461992268
 20
-11.1809750569
 10
-22.8324543471
 20
-11.187845159
 10
-22.8181539294
 20
-11.1936345353
 10
-22.8028885663
 20
-11.1982666718
 10
-22.7865217886
 20
-11.2017160636
 10
-22.7691900656
 20
-11.2040082155
 10
-22.750893397
 20
-11.2051431276
  0
LWPOLYLINE
  5
266
100
AcDbEntity
  8
RACCORDO
100
AcDbPolyline
 62
250
  6
CONTINUOUS
 90
5
 70
0
 10
-23.2666519224
 20
-2.4735504564
 10
-23.2674379165
 20
-2.4582754864
 10
-23.2681763649
 20
-2.441078187
 10
-23.2688405113
 20
-2.4226006867
 10
-23.2694181351
 20
-2.4034305713
  0
LWPOLYLINE
  5
267
100
AcDbEntity
  8
RACCORDO
100
AcDbPolyline
 62
250
  6
CONTINUOUS
 90
19
 70
0
 10
-23.2508172446
 20
-11.0051735886
 10
-23.2484063384
 20
-11.0541239567
 10
-23.2412878345
 20
-11.1022340329
 10
-23.2296374691
 20
-11.1490646435
 10
-23.2135532682
 20
-11.1944893573
 10
-23.1933464393
 20
-11.2378218583
 10
-23.1698017739
 20
-11.2779415224
 10
-23.1435830855
 20
-11.3144942215
 10
-23.1150742801
 20
-11.3475998201
 10
-23.084897369
 20
-11.3770942427
 10
-23.0539616036
 20
-11.4027090757
 10
-23.0223252548
 20
-11.4249490638
 10
-22.9891254785
 20
-11.4446447659
 10
-22.9546506802
 20
-11.4616558013
 10
-22.919035891
 20
-11.475944702
 10
-22.8808607188
 20
-11.4878856981
 10
-22.8396978956
 20
-11.4971313123
 10
-22.7962832067
 20
-11.5030245075
 10
-22.750893397
 20
-11.5050974362
  0
LINE
  5
268
100
AcDbEntity
  8
RACCORDO
100
AcDbLine
 62
250
  6
CONTINUOUS
 10
-23.2694181351
 20
-2.4034305713
 11
-23.2703603823
 21
-2.3628538673
  0
LINE
  5
269
100
AcDbEntity
  8
RACCORDO
100
AcDbLine
 62
250
  6
CONTINUOUS
 10
-23.2703603823
 20
-2.3628538673
 11
-23.2710507675
 21
-2.319944636
  0
LINE
  5
26A
100
AcDbEntity
  8
RACCORDO
100
AcDbLine
 62
250
  6
CONTINUOUS
 10
-23.2710507675
 20
-2.319944636
 11
-23.2714879694
 21
-2.2715508402
  0
LINE
  5
26B
100
AcDbEntity
  8
RACCORDO
100
AcDbLine
 62
250
  6
CONTINUOUS
 10
-23.2714879694
 20
-2.2715508402
 11
-23.2716733087
 21
-2.2174073715
  0
LINE
  5
26C
100
AcDbEntity
  8
RACCORDO
100
AcDbLine
 62
7
  6
CONTINUOUS
 10
-24.2631271799
 20
2.1825926285
 11
-24.2631271799
 21
-2.2174073715
  0
LINE
  5
26D
100
AcDbEntity
  8
RACCORDO
100
AcDbLine
 62
250
  6
CONTINUOUS
 10
-23.9631271799
 20
2.4825926285
 11
-23.9631271799
 21
-2.5174073715
  0
LINE
  5
26E
100
AcDbEntity
  8
RACCORDO
100
AcDbLine
 62
7
  6
CONTINUOUS
 10
-23.2631271799
 20
10.982668781
 11
-23.2631271799
 21
-11.0174835239
  0
LINE
  5
26F
100
AcDbEntity
  8
RACCORDO
100
AcDbLine
 62
250
  6
CONTINUOUS
 10
-23.2508172446
 20
10.9703588456
 11
-23.2508172446
 21
-11.0051735886
  0
LINE
  5
270
100
AcDbEntity
  8
RACCORDO
100
AcDbLine
 62
250
  6
CONTINUOUS
 10
-23.2716732941
 20
-2.2174073715
 11
-23.2716284875
 21
2.2088148284
  0
LINE
  5
271
100
AcDbEntity
  8
RACCORDO
100
AcDbLine
 62
250
  6
CONTINUOUS
 10
-23.2716284875
 20
2.2088148284
 11
-23.2713181027
 21
2.260033664
  0
LINE
  5
272
100
AcDbEntity
  8
RACCORDO
100
AcDbLine
 62
250
  6
CONTINUOUS
 10
-23.2713181027
 20
2.260033664
 11
-23.2707086202
 21
2.3083022238
  0
LWPOLYLINE
  5
273
100
AcDbEntity
  8
RACCORDO
100
AcDbPolyline
 62
250
  6
CONTINUOUS
 90
11
 70
0
 10
-23.2707086202
 20
2.3083022238
 10
-23.2698248314
 20
2.352819072
 10
-23.2692825774
 20
2.3733140213
 10
-23.2686849709
 20
2.3924314895
 10
-23.268033959
 20
2.4099669492
 10
-23.2673275946
 20
2.4258581365
 10
-23.2665711474
 20
2.4401355308
 10
-23.2657586607
 20
2.45269336
 10
-23.2648960913
 20
2.4632631567
 10
-23.2640065786
 20
2.4716294101
 10
-23.2631271799
 20
2.4774849553
  0
LINE
  5
274
100
AcDbEntity
  8
RACCORDO
100
AcDbLine
 62
250
  6
CONTINUOUS
 10
-22.9508629361
 20
10.9703588456
 11
-22.9508629361
 21
-11.0051735886
  0
LINE
  5
275
100
AcDbEntity
  8
RACCORDO
100
AcDbLine
 62
250
  6
CONTINUOUS
 10
-22.750893397
 20
-11.2051431276
 11
-22.750893397
 21
-11.5050974362
  0
LINE
  5
276
100
AcDbEntity
  8
RACCORDO
100
AcDbLine
 62
250
  6
CONTINUOUS
 10
-22.750893397
 20
11.1703283847
 11
-22.750893397
 21
11.4702826932
  0
LWPOLYLINE
  5
277
100
AcDbEntity
  8
RACCORDO
100
AcDbPolyline
 62
250
  6
CONTINUOUS
 90
19
 70
0
 10
-14.2535972338
 20
-8.9064658695
 10
-14.252050222
 20
-8.9411352707
 10
-14.2479319841
 20
-8.9743545034
 10
-14.2412425201
 20
-9.0061235677
 10
-14.2319336102
 20
-9.0365165305
 10
-14.2200534742
 20
-9.0654593248
 10
-14.2057467715
 20
-9.09272975
 10
-14.1887588734
 20
-9.1185119635
 10
-14.1693444086
 20
-9.1426218079
 10
-14.1484119233
 20
-9.1642846105
 10
-14.126057739
 20
-9.1831940058
 10
-14.1021855342
 20
-9.1996563593
 10
-14.0774148912
 20
-9.2138160951
 10
-14.0520996195
 20
-9.2256410197
 10
-14.0258859095
 20
-9.2351633266
 10
-13.9983319143
 20
-9.2426240202
 10
-13.9692903517
 20
-9.2481034352
 10
-13.9389085039
 20
-9.2515212369
 10
-13.9071863708
 20
-9.2528774253
  0
LINE
  5
278
100
AcDbEntity
  8
RACCORDO
100
AcDbLine
 62
250
  6
CONTINUOUS
 10
-14.2535972338
 20
8.8716514232
 11
-14.2535972338
 21
-8.9064658695
  0
LINE
  5
279
100
AcDbEntity
  8
RACCORDO
100
AcDbLine
 62
250
  6
CONTINUOUS
 10
-12.1190672876
 20
9.0448576016
 11
-13.0131271799
 21
8.1507977093
  0
LINE
  5
27A
100
AcDbEntity
  8
RACCORDO
100
AcDbLine
 62
250
  6
CONTINUOUS
 10
-11.9458622069
 20
8.8716525209
 11
-12.8399220992
 21
7.9775926285
  0
LINE
  5
27B
100
AcDbEntity
  8
RACCORDO
100
AcDbLine
 62
250
  6
CONTINUOUS
 10
-13.0131271799
 20
-8.1856124522
 11
-12.1190672876
 21
-9.0796723446
  0
LINE
  5
27C
100
AcDbEntity
  8
RACCORDO
100
AcDbLine
 62
250
  6
CONTINUOUS
 10
-12.8399220992
 20
-8.0124073715
 11
-11.9458622069
 21
-8.9064672638
  0
LWPOLYLINE
  5
27D
100
AcDbEntity
  8
RACCORDO
100
AcDbPolyline
 62
250
  6
CONTINUOUS
 90
16
 70
0
 10
-13.1863322607
 20
-8.0124073715
 10
-13.1823400332
 20
-8.0262875377
 10
-13.1770824585
 20
-8.0406915622
 10
-13.1704550445
 20
-8.0555068714
 10
-13.162284726
 20
-8.0707345359
 10
-13.1525543554
 20
-8.0860635208
 10
-13.1415156691
 20
-8.1009196232
 10
-13.1292490274
 20
-8.1151285102
 10
-13.115811365
 20
-8.1285635467
 10
-13.1016016007
 20
-8.1408261689
 10
-13.0867465706
 20
-8.151859813
 10
-13.0714207493
 20
-8.1615845319
 10
-13.0561984308
 20
-8.169749086
 10
-13.0413905999
 20
-8.1763710619
 10
-13.0269960471
 20
-8.1816239006
 10
-13.0131271799
 20
-8.1856124522
  0
LINE
  5
27E
100
AcDbEntity
  8
RACCORDO
100
AcDbLine
 62
250
  6
CONTINUOUS
 10
-14.080392153
 20
8.8716525209
 11
-14.080392153
 21
-8.9064672638
  0
LINE
  5
27F
100
AcDbEntity
  8
RACCORDO
100
AcDbLine
 62
250
  6
CONTINUOUS
 10
-13.9071870723
 20
-9.0796723446
 11
-13.9071870723
 21
-9.2528774253
  0
LINE
  5
280
100
AcDbEntity
  8
RACCORDO
100
AcDbLine
 62
250
  6
CONTINUOUS
 10
-13.9071870723
 20
9.0448576016
 11
-13.9071870723
 21
9.2180626824
  0
LINE
  5
281
100
AcDbEntity
  8
RACCORDO
100
AcDbLine
 62
250
  6
CONTINUOUS
 10
-13.1863322607
 20
7.9775926285
 11
-13.1863322607
 21
-8.0124073715
  0
LINE
  5
282
100
AcDbEntity
  8
RACCORDO
100
AcDbLine
 62
250
  6
CONTINUOUS
 10
-12.8399220992
 20
7.9775926285
 11
-12.8399220992
 21
-8.0124073715
  0
LWPOLYLINE
  5
283
100
AcDbEntity
  8
RACCORDO
100
AcDbPolyline
 62
250
  6
CONTINUOUS
 90
19
 70
0
 10
-11.945865484
 20
8.8716492438
 10
-11.9432380304
 20
8.8921720644
 10
-11.9424031813
 20
8.911719277
 10
-11.9433121984
 20
8.9302113112
 10
-11.9458853203
 20
8.9475383679
 10
-11.9500869885
 20
8.9636656685
 10
-11.9559520214
 20
8.9786232324
 10
-11.963552948
 20
8.9924468419
 10
-11.9727422005
 20
9.0049419387
 10
-11.9831917939
 20
9.0158242363
 10
-11.9947520754
 20
9.0249465359
 10
-12.0073728931
 20
9.032429425
 10
-12.0208375891
 20
9.0384389141
 10
-12.0348837442
 20
9.0429684023
 10
-12.0496163608
 20
9.0460442085
 10
-12.0654055528
 20
9.0478191684
 10
-12.0823520817
 20
9.0482763793
 10
-12.1002594285
 20
9.0473062834
 10
-12.1190691866
 20
9.0448557026
  0
LWPOLYLINE
  5
284
100
AcDbEntity
  8
RACCORDO
100
AcDbPolyline
 62
250
  6
CONTINUOUS
 90
19
 70
0
 10
-14.0803888759
 20
-8.9064639867
 10
-14.0830163295
 20
-8.9269868074
 10
-14.0838511786
 20
-8.9465340199
 10
-14.0829421615
 20
-8.9650260541
 10
-14.0803690396
 20
-8.9823531108
 10
-14.0761673714
 20
-8.9984804114
 10
-14.0703023385
 20
-9.0134379753
 10
-14.0627014119
 20
-9.0272615848
 10
-14.0535121593
 20
-9.0397566816
 10
-14.043062566
 20
-9.0506389792
 10
-14.0315022844
 20
-9.0597612788
 10
-14.0188814668
 20
-9.0672441679
 10
-14.0054167708
 20
-9.0732536571
 10
-13.9913706157
 20
-9.0777831452
 10
-13.9766379991
 20
-9.0808589515
 10
-13.960848807
 20
-9.0826339114
 10
-13.9439022782
 20
-9.0830911222
 10
-13.9259949314
 20
-9.0821210263
 10
-13.9071851733
 20
-9.0796704456
  0
LWPOLYLINE
  5
285
100
AcDbEntity
  8
RACCORDO
100
AcDbPolyline
 62
250
  6
CONTINUOUS
 90
19
 70
0
 10
22.2246390372
 20
-11.2051431276
 10
22.2444952328
 20
-11.2040406228
 10
22.2636836964
 20
-11.201219642
 10
22.2822044278
 20
-11.1966801851
 10
22.300275356
 20
-11.1902209635
 10
22.3176785521
 20
-11.1820432658
 10
22.3337602291
 20
-11.1727509578
 10
22.3483302473
 20
-11.1623349059
 10
22.3615787464
 20
-11.1508042436
 10
22.3734223586
 20
-11.1387902371
 10
22.3837252408
 20
-11.126527373
 10
22.392623236
 20
-11.1137811647
 10
22.4004405055
 20
-11.1004794184
 10
22.4073106076
 20
-11.0867345387
 10
22.4130999839
 20
-11.072434121
 10
22.4177321203
 20
-11.0571687578
 10
22.4211815122
 20
-11.0408019802
 10
22.4234736641
 20
-11.0234702571
 10
22.4246085762
 20
-11.0051735886
  0
LWPOLYLINE
  5
286
100
AcDbEntity
  8
RACCORDO
100
AcDbPolyline
 62
250
  6
CONTINUOUS
 90
19
 70
0
 10
22.2246390372
 20
-11.5050974362
 10
22.2735894053
 20
-11.5026865299
 10
22.3216994815
 20
-11.495568026
 10
22.3685300921
 20
-11.4839176606
 10
22.4139548059
 20
-11.4678334597
 10
22.4572873069
 20
-11.4476266309
 10
22.497406971
 20
-11.4240819654
 10
22.5339596701
 20
-11.397863277
 10
22.5670652687
 20
-11.3693544716
 10
22.5965596913
 20
-11.3391775605
 10
22.6221745243
 20
-11.3082417951
 10
22.6444145123
 20
-11.2766054463
 10
22.6641102145
 20
-11.24340567
 10
22.6811212499
 20
-11.2089308718
 10
22.6954101506
 20
-11.1733160825
 10
22.7073511466
 20
-11.1351409104
 10
22.7165967609
 20
-11.0939780872
 10
22.722489956
 20
-11.0505633982
 10
22.7245628847
 20
-11.0051735886
  0
LWPOLYLINE
  5
287
100
AcDbEntity
  8
RACCORDO
100
AcDbPolyline
 62
250
  6
CONTINUOUS
 90
19
 70
0
 10
-11.7726571261
 20
8.8716511265
 10
-11.7742041379
 20
8.9063205277
 10
-11.7783223758
 20
8.9395397605
 10
-11.7850118398
 20
8.9713088248
 10
-11.7943207497
 20
9.0017017875
 10
-11.8062008857
 20
9.0306445818
 10
-11.8205075883
 20
9.0579150071
 10
-11.8374954865
 20
9.0836972205
 10
-11.8569099513
 20
9.1078070649
 10
-11.8778424366
 20
9.1294698675
 10
-11.9001966209
 20
9.1483792628
 10
-11.9240688256
 20
9.1648416163
 10
-11.9488394687
 20
9.1790013521
 10
-11.9741547404
 20
9.1908262768
 10
-12.0003684504
 20
9.2003485837
 10
-12.0279224455
 20
9.2078092772
 10
-12.0569640082
 20
9.2132886923
 10
-12.087345856
 20
9.216706494
 10
-12.1190679891
 20
9.2180626824
  0
LINE
  5
288
100
AcDbEntity
  8
RACCORDO
100
AcDbLine
 62
250
  6
CONTINUOUS
 10
-12.1190672876
 20
-9.0796723446
 11
-12.1190672876
 21
-9.2528774253
  0
LINE
  5
289
100
AcDbEntity
  8
RACCORDO
100
AcDbLine
 62
250
  6
CONTINUOUS
 10
-12.1190672876
 20
9.0448576016
 11
-12.1190672876
 21
9.2180626824
  0
LINE
  5
28A
100
AcDbEntity
  8
RACCORDO
100
AcDbLine
 62
250
  6
CONTINUOUS
 10
-11.9458622069
 20
-8.9064672638
 11
-11.9458622069
 21
8.8716525209
  0
LINE
  5
28B
100
AcDbEntity
  8
RACCORDO
100
AcDbLine
 62
250
  6
CONTINUOUS
 10
-11.7726571261
 20
-8.9064661661
 11
-11.7726571261
 21
8.8716511265
  0
LINE
  5
28C
100
AcDbEntity
  8
RACCORDO
100
AcDbLine
 62
250
  6
CONTINUOUS
 10
-10.8079363589
 20
-5.7123079333
 11
-10.8079363589
 21
-1.8225068096
  0
LWPOLYLINE
  5
28D
100
AcDbEntity
  8
RACCORDO
100
AcDbPolyline
 62
250
  6
CONTINUOUS
 90
19
 70
0
 10
-10.8079363589
 20
-1.8225068096
 10
-10.8052451704
 20
-1.7670053104
 10
-10.7977829258
 20
-1.7128812013
 10
-10.7855496251
 20
-1.6601344822
 10
-10.7683103468
 20
-1.6083124525
 10
-10.7463000124
 20
-1.557867813
 10
-10.7202233858
 20
-1.5101586657
 10
-10.6896133485
 20
-1.4651316962
 10
-10.654937019
 20
-1.422840219
 10
-10.6183005165
 20
-1.3848022799
 10
-10.5802217226
 20
-1.3517102298
 10
-10.5401827558
 20
-1.3228717179
 10
-10.49873609
 20
-1.2977277369
 10
-10.4565685361
 20
-1.2761190918
 10
-10.4129932832
 20
-1.2582049778
 10
-10.3665023732
 20
-1.243903973
 10
-10.3165931532
 20
-1.2331889369
 10
-10.2637682761
 20
-1.2260870101
 10
-10.2080277418
 20
-1.2225981925
  0
LWPOLYLINE
  5
28E
100
AcDbEntity
  8
RACCORDO
100
AcDbPolyline
 62
250
  6
CONTINUOUS
 90
13
 70
0
 10
-13.0131271799
 20
8.1507977093
 10
-13.0327370049
 20
8.1448514015
 10
-13.0521104657
 20
8.1368890636
 10
-13.0710140468
 20
8.1270066684
 10
-13.0892198968
 20
8.1153233322
 10
-13.1065085739
 20
8.1019798782
 10
-13.1226716914
 20
8.08713714
 10
-13.1375144296
 20
8.0709740225
 10
-13.1508578836
 20
8.0536853454
 10
-13.1625412198
 20
8.0354794954
 10
-13.172423615
 20
8.0165759143
 10
-13.1803859529
 20
7.9972024535
 10
-13.1863322607
 20
7.9775926285
  0
LWPOLYLINE
  5
28F
100
AcDbEntity
  8
RACCORDO
100
AcDbPolyline
 62
250
  6
CONTINUOUS
 90
8
 70
0
 10
2.9891119508
 20
-10.4121213982
 10
3.0669744984
 20
-10.4093863864
 10
3.1361089722
 20
-10.4065058606
 10
3.195806815
 20
-10.4034962035
 10
3.2436668706
 20
-10.4003883663
 10
3.2788887537
 20
-10.3971926659
 10
3.3022728496
 20
-10.3938987854
 10
3.3138191584
 20
-10.3905067246
  0
LWPOLYLINE
  5
290
100
AcDbEntity
  8
RACCORDO
100
AcDbPolyline
 62
250
  6
CONTINUOUS
 90
8
 70
0
 10
3.2523979663
 20
-10.7120756919
 10
3.3395016224
 20
-10.709340679
 10
3.416646488
 20
-10.7064601747
 10
3.482386058
 20
-10.7034505488
 10
3.5358264807
 20
-10.7003427266
 10
3.5760918895
 20
-10.6971470166
 10
3.6023390538
 20
-10.6938531102
 10
3.6137734669
 20
-10.6904610076
  0
LINE
  5
291
100
AcDbEntity
  8
RACCORDO
100
AcDbLine
 62
250
  6
CONTINUOUS
 10
-3.5432295749
 20
-11.3736362945
 11
-3.3643142081
 21
-11.36840328
  0
LINE
  5
292
100
AcDbEntity
  8
RACCORDO
100
AcDbLine
 62
250
  6
CONTINUOUS
 10
2.8053524473
 20
-10.4172222243
 11
2.9891119508
 21
-10.4121213982
  0
LINE
  5
293
100
AcDbEntity
  8
RACCORDO
100
AcDbLine
 62
250
  6
CONTINUOUS
 10
-3.8101627018
 20
-11.073682002
 11
-3.6114063711
 21
-11.0684489659
  0
LINE
  5
294
100
AcDbEntity
  8
RACCORDO
100
AcDbLine
 62
250
  6
CONTINUOUS
 10
3.0488104546
 20
-10.717176537
 11
3.2523979663
 21
-10.7120756919
  0
LINE
  5
295
100
AcDbEntity
  8
RACCORDO
100
AcDbLine
 62
250
  6
CONTINUOUS
 10
-3.3643142081
 20
-11.36840328
 11
-3.1482353853
 21
-11.3636214395
  0
LINE
  5
296
100
AcDbEntity
  8
RACCORDO
100
AcDbLine
 62
250
  6
CONTINUOUS
 10
2.5844735008
 20
-10.4219086411
 11
2.8053524473
 21
-10.4172222243
  0
LINE
  5
297
100
AcDbEntity
  8
RACCORDO
100
AcDbLine
 62
250
  6
CONTINUOUS
 10
-3.6114063711
 20
-11.0684489659
 11
-3.371553726
 21
-11.0636671275
  0
LINE
  5
298
100
AcDbEntity
  8
RACCORDO
100
AcDbLine
 62
250
  6
CONTINUOUS
 10
2.803574646
 20
-10.7218629515
 11
3.0488104546
 21
-10.717176537
  0
LINE
  5
299
100
AcDbEntity
  8
RACCORDO
100
AcDbLine
 62
250
  6
CONTINUOUS
 10
-3.1482353853
 20
-11.3636214395
 11
-2.8996260645
 21
-11.3593762636
  0
LINE
  5
29A
100
AcDbEntity
  8
RACCORDO
100
AcDbLine
 62
250
  6
CONTINUOUS
 10
2.3293277279
 20
-10.426077506
 11
2.5844735008
 21
-10.4219086411
  0
LINE
  5
29B
100
AcDbEntity
  8
RACCORDO
100
AcDbLine
 62
250
  6
CONTINUOUS
 10
-3.371553726
 20
-11.0636671275
 11
-3.0948520358
 21
-11.0594219567
  0
LINE
  5
29C
100
AcDbEntity
  8
RACCORDO
100
AcDbLine
 62
250
  6
CONTINUOUS
 10
2.5198569186
 20
-10.7260318124
 11
2.803574646
 21
-10.7218629515
  0
LINE
  5
29D
100
AcDbEntity
  8
RACCORDO
100
AcDbLine
 62
250
  6
CONTINUOUS
 10
-2.8996260645
 20
-11.3593762636
 11
-2.6203671266
 21
-11.355711641
  0
LINE
  5
29E
100
AcDbEntity
  8
RACCORDO
100
AcDbLine
 62
250
  6
CONTINUOUS
 10
2.0436473366
 20
-10.4296664782
 11
2.3293277279
 21
-10.426077506
  0
LINE
  5
29F
100
AcDbEntity
  8
RACCORDO
100
AcDbLine
 62
250
  6
CONTINUOUS
 10
-3.0948520358
 20
-11.0594219567
 11
-2.7847985027
 21
-11.0557573371
  0
LINE
  5
2A0
100
AcDbEntity
  8
RACCORDO
100
AcDbLine
 62
250
  6
CONTINUOUS
 10
2.2024714427
 20
-10.7296207833
 11
2.5198569186
 21
-10.7260318124
  0
LINE
  5
2A1
100
AcDbEntity
  8
RACCORDO
100
AcDbLine
 62
250
  6
CONTINUOUS
 10
-2.6203671266
 20
-11.355711641
 11
-2.309660403
 21
-11.3526556049
  0
LINE
  5
2A2
100
AcDbEntity
  8
RACCORDO
100
AcDbLine
 62
250
  6
CONTINUOUS
 10
1.7352067259
 20
-10.4325498201
 11
2.0436473366
 21
-10.4296664782
  0
LINE
  5
2A3
100
AcDbEntity
  8
RACCORDO
100
AcDbLine
 62
250
  6
CONTINUOUS
 10
-2.7847985027
 20
-11.0557573371
 11
-2.4399882648
 21
-11.0527012934
  0
LINE
  5
2A4
100
AcDbEntity
  8
RACCORDO
100
AcDbLine
 62
250
  6
CONTINUOUS
 10
1.8601532204
 20
-10.7325041337
 11
2.2024714427
 21
-10.7296207833
  0
LINE
  5
2A5
100
AcDbEntity
  8
RACCORDO
100
AcDbLine
 62
250
  6
CONTINUOUS
 10
-2.309660403
 20
-11.3526556049
 11
-1.9794981237
 21
-11.3503411075
  0
LINE
  5
2A6
100
AcDbEntity
  8
RACCORDO
100
AcDbLine
 62
250
  6
CONTINUOUS
 10
-2.4399882648
 20
-11.0527012934
 11
-2.0724961027
 21
-11.0503867958
  0
LINE
  5
2A7
100
AcDbEntity
  8
RACCORDO
100
AcDbLine
 62
250
  6
CONTINUOUS
 10
1.2605516484
 20
-10.4354449204
 11
1.7352067259
 21
-10.4325498201
  0
LINE
  5
2A8
100
AcDbEntity
  8
RACCORDO
100
AcDbLine
 62
250
  6
CONTINUOUS
 10
1.3324895117
 20
-10.7353992272
 11
1.8601532204
 21
-10.7325041337
  0
LINE
  5
2A9
100
AcDbEntity
  8
RACCORDO
100
AcDbLine
 62
250
  6
CONTINUOUS
 10
-1.9794981237
 20
-11.3503411075
 11
-1.6384025168
 21
-11.3488101719
  0
LINE
  5
2AA
100
AcDbEntity
  8
RACCORDO
100
AcDbLine
 62
250
  6
CONTINUOUS
 10
-2.0724961027
 20
-11.0503867958
 11
-1.6937267141
 21
-11.0488558675
  0
LINE
  5
2AB
100
AcDbEntity
  8
RACCORDO
100
AcDbLine
 62
250
  6
CONTINUOUS
 10
-1.6384025168
 20
-11.3488101719
 11
-1.3052969123
 21
-11.3480736455
  0
LINE
  5
2AC
100
AcDbEntity
  8
RACCORDO
100
AcDbLine
 62
250
  6
CONTINUOUS
 10
0.7774445996
 20
-10.4367289236
 11
1.2605516484
 21
-10.4354449204
  0
LINE
  5
2AD
100
AcDbEntity
  8
RACCORDO
100
AcDbLine
 62
250
  6
CONTINUOUS
 10
-1.6937267141
 20
-11.0488558675
 11
-1.3221952036
 21
-11.0481193399
  0
LINE
  5
2AE
100
AcDbEntity
  8
RACCORDO
100
AcDbLine
 62
250
  6
CONTINUOUS
 10
0.7944425703
 20
-10.7366832282
 11
1.3324895117
 21
-10.7353992272
  0
LINE
  5
2AF
100
AcDbEntity
  8
RACCORDO
100
AcDbLine
 62
7
  6
CONTINUOUS
 10
-22.7632033324
 20
-11.5174073715
 11
22.2369489725
 21
-11.5174073715
  0
LINE
  5
2B0
100
AcDbEntity
  8
RACCORDO
100
AcDbLine
 62
250
  6
CONTINUOUS
 10
22.2246390372
 20
-11.5050974362
 11
3.4246085762
 21
-11.5050974362
  0
LINE
  5
2B1
100
AcDbEntity
  8
RACCORDO
100
AcDbLine
 62
250
  6
CONTINUOUS
 10
-3.9508629361
 20
-11.5050974362
 11
-22.750893397
 21
-11.5050974362
  0
LINE
  5
2B2
100
AcDbEntity
  8
RACCORDO
100
AcDbLine
 62
250
  6
CONTINUOUS
 10
-1.3052969123
 20
-11.3480736455
 11
0.6142303814
 21
-11.3480018518
  0
LINE
  5
2B3
100
AcDbEntity
  8
RACCORDO
100
AcDbLine
 62
250
  6
CONTINUOUS
 10
-22.750893397
 20
-11.2051431276
 11
-4.2456279977
 21
-11.2051431276
  0
LINE
  5
2B4
100
AcDbEntity
  8
RACCORDO
100
AcDbLine
 62
250
  6
CONTINUOUS
 10
3.7193736378
 20
-11.2051431276
 11
22.2246390372
 21
-11.2051431276
  0
LINE
  5
2B5
100
AcDbEntity
  8
RACCORDO
100
AcDbLine
 62
250
  6
CONTINUOUS
 10
-1.3221952036
 20
-11.0481193399
 11
0.6142303814
 21
-11.0480475433
  0
LINE
  5
2B6
100
AcDbEntity
  8
RACCORDO
100
AcDbLine
 62
250
  6
CONTINUOUS
 10
22.4246085762
 20
-11.0051735886
 11
22.7245628847
 21
-11.0051735886
  0
LINE
  5
2B7
100
AcDbEntity
  8
RACCORDO
100
AcDbLine
 62
250
  6
CONTINUOUS
 10
-22.9508629361
 20
-11.0051735886
 11
-23.2508172446
 21
-11.0051735886
  0
LINE
  5
2B8
100
AcDbEntity
  8
RACCORDO
100
AcDbLine
 62
250
  6
CONTINUOUS
 10
-1.3551486075
 20
-10.7366244061
 11
0.7944425703
 21
-10.7366832282
  0
LINE
  5
2B9
100
AcDbEntity
  8
RACCORDO
100
AcDbLine
 62
250
  6
CONTINUOUS
 10
-1.3349870355
 20
-10.4366701059
 11
0.7774445996
 21
-10.4367289236
  0
LINE
  5
2BA
100
AcDbEntity
  8
RACCORDO
100
AcDbLine
 62
250
  6
CONTINUOUS
 10
0.6142303814
 20
-11.0480475433
 11
1.0099648892
 21
-11.0484681057
  0
LINE
  5
2BB
100
AcDbEntity
  8
RACCORDO
100
AcDbLine
 62
250
  6
CONTINUOUS
 10
0.6142303814
 20
-11.3480018518
 11
0.9713191216
 21
-11.3484224055
  0
LINE
  5
2BC
100
AcDbEntity
  8
RACCORDO
100
AcDbLine
 62
250
  6
CONTINUOUS
 10
-1.7705253645
 20
-10.7357161462
 11
-1.3551486075
 21
-10.7366244061
  0
LINE
  5
2BD
100
AcDbEntity
  8
RACCORDO
100
AcDbLine
 62
250
  6
CONTINUOUS
 10
-1.7075213022
 20
-10.4357618499
 11
-1.3349870355
 21
-10.4366701059
  0
LINE
  5
2BE
100
AcDbEntity
  8
RACCORDO
100
AcDbLine
 62
250
  6
CONTINUOUS
 10
1.0099648892
 20
-11.0484681057
 11
1.3929569194
 21
-11.0496592088
  0
LINE
  5
2BF
100
AcDbEntity
  8
RACCORDO
100
AcDbLine
 62
250
  6
CONTINUOUS
 10
0.9713191216
 20
-11.3484224055
 11
1.314863445
 21
-11.3496135133
  0
LINE
  5
2C0
100
AcDbEntity
  8
RACCORDO
100
AcDbLine
 62
250
  6
CONTINUOUS
 10
-2.1612930029
 20
-10.7339498497
 11
-1.7705253645
 21
-10.7357161462
  0
LINE
  5
2C1
100
AcDbEntity
  8
RACCORDO
100
AcDbLine
 62
250
  6
CONTINUOUS
 10
-2.0592685199
 20
-10.4339955393
 11
-1.7075213022
 21
-10.4357618499
  0
LINE
  5
2C2
100
AcDbEntity
  8
RACCORDO
100
AcDbLine
 62
250
  6
CONTINUOUS
 10
1.3929569194
 20
-11.0496592088
 11
1.7585274349
 21
-11.0516106161
  0
LINE
  5
2C3
100
AcDbEntity
  8
RACCORDO
100
AcDbLine
 62
250
  6
CONTINUOUS
 10
1.314863445
 20
-11.3496135133
 11
1.6440977295
 21
-11.3515649326
  0
LINE
  5
2C4
100
AcDbEntity
  8
RACCORDO
100
AcDbLine
 62
250
  6
CONTINUOUS
 10
-2.5209037598
 20
-10.7314910182
 11
-2.1612930029
 21
-10.7339498497
  0
LINE
  5
2C5
100
AcDbEntity
  8
RACCORDO
100
AcDbLine
 62
250
  6
CONTINUOUS
 10
1.7585274349
 20
-11.0516106161
 11
2.106339629
 21
-11.0542936399
  0
LINE
  5
2C6
100
AcDbEntity
  8
RACCORDO
100
AcDbLine
 62
250
  6
CONTINUOUS
 10
-2.3828066821
 20
-10.431536704
 11
-2.0592685199
 21
-10.4339955393
  0
LINE
  5
2C7
100
AcDbEntity
  8
RACCORDO
100
AcDbLine
 62
250
  6
CONTINUOUS
 10
1.6440977295
 20
-11.3515649326
 11
1.9572994464
 21
-11.3542479486
  0
LINE
  5
2C8
100
AcDbEntity
  8
RACCORDO
100
AcDbLine
 62
250
  6
CONTINUOUS
 10
-2.8483026913
 20
-10.7283853054
 11
-2.5209037598
 21
-10.7314910182
  0
LINE
  5
2C9
100
AcDbEntity
  8
RACCORDO
100
AcDbLine
 62
250
  6
CONTINUOUS
 10
2.106339629
 20
-11.0542936399
 11
2.4292236655
 21
-11.0576494174
  0
LINE
  5
2CA
100
AcDbEntity
  8
RACCORDO
100
AcDbLine
 62
250
  6
CONTINUOUS
 10
-2.6775208963
 20
-10.4284309997
 11
-2.3828066821
 21
-10.431536704
  0
LINE
  5
2CB
100
AcDbEntity
  8
RACCORDO
100
AcDbLine
 62
250
  6
CONTINUOUS
 10
1.9572994464
 20
-11.3542479486
 11
2.2474912139
 21
-11.3576037219
  0
LINE
  5
2CC
100
AcDbEntity
  8
RACCORDO
100
AcDbLine
 62
250
  6
CONTINUOUS
 10
-3.1503655192
 20
-10.7246239229
 11
-2.8483026913
 21
-10.7283853054
  0
LINE
  5
2CD
100
AcDbEntity
  8
RACCORDO
100
AcDbLine
 62
250
  6
CONTINUOUS
 10
2.4292236655
 20
-11.0576494174
 11
2.7217602042
 21
-11.0616359697
  0
LINE
  5
2CE
100
AcDbEntity
  8
RACCORDO
100
AcDbLine
 62
250
  6
CONTINUOUS
 10
-2.9495844403
 20
-10.4246696155
 11
-2.6775208963
 21
-10.4284309997
  0
LINE
  5
2CF
100
AcDbEntity
  8
RACCORDO
100
AcDbLine
 62
250
  6
CONTINUOUS
 10
2.2474912139
 20
-11.3576037219
 11
2.5110072219
 21
-11.3615902775
  0
LINE
  5
2D0
100
AcDbEntity
  8
RACCORDO
100
AcDbLine
 62
250
  6
CONTINUOUS
 10
-3.4213628977
 20
-10.7202527782
 11
-3.1503655192
 21
-10.7246239229
  0
LINE
  5
2D1
100
AcDbEntity
  8
RACCORDO
100
AcDbLine
 62
250
  6
CONTINUOUS
 10
2.7217602042
 20
-11.0616359697
 11
2.9786420193
 21
-11.0661706561
  0
LINE
  5
2D2
100
AcDbEntity
  8
RACCORDO
100
AcDbLine
 62
250
  6
CONTINUOUS
 10
-3.1929241554
 20
-10.4202984664
 11
-2.9495844403
 21
-10.4246696155
  0
LINE
  5
2D3
100
AcDbEntity
  8
RACCORDO
100
AcDbLine
 62
250
  6
CONTINUOUS
 10
2.5110072219
 20
-11.3615902775
 11
2.7424879584
 21
-11.3661249709
  0
LWPOLYLINE
  5
2D4
100
AcDbEntity
  8
RACCORDO
100
AcDbPolyline
 62
250
  6
CONTINUOUS
 90
10
 70
0
 10
2.9786420193
 20
-11.0661706561
 10
3.199091703
 20
-11.0712554203
 10
3.2942186673
 20
-11.0740030578
 10
3.3773882335
 20
-11.076822528
 10
3.4484432734
 20
-11.0797227698
 10
3.507013726
 20
-11.0826948442
 10
3.5523395471
 20
-11.0856525914
 10
3.5847523025
 20
-11.0885672914
 10
3.6050404671
 20
-11.0914676642
 10
3.6137734669
 20
-11.0943537098
  0
LWPOLYLINE
  5
2D5
100
AcDbEntity
  8
RACCORDO
100
AcDbPolyline
 62
250
  6
CONTINUOUS
 90
10
 70
0
 10
2.7424879584
 20
-11.3661249709
 10
2.9401826226
 20
-11.3712097287
 10
3.0260775877
 20
-11.3739573561
 10
3.1010724483
 20
-11.3767768228
 10
3.1646084918
 20
-11.3796770755
 10
3.2172444308
 20
-11.3826491675
 10
3.2585286304
 20
-11.3856069251
 10
3.2883105458
 20
-11.3885216239
 10
3.3067407217
 20
-11.3914219883
 10
3.3138191584
 20
-11.3943080183
  0
LWPOLYLINE
  5
2D6
100
AcDbEntity
  8
RACCORDO
100
AcDbPolyline
 62
7
  6
CONTINUOUS
 90
22
 70
0
 10
-3.9508629361
 20
-11.5050974362
 10
-3.9685061249
 20
-11.5042435701
 10
-3.9866542341
 20
-11.5022405193
 10
-4.0052268886
 20
-11.4989879291
 10
-4.024236743
 20
-11.4943564204
 10
-4.0434652924
 20
-11.488270444
 10
-4.0624842086
 20
-11.4807840113
 10
-4.081193745
 20
-11.4718811095
 10
-4.09947204
 20
-11.4615607458
 10
-4.1169081715
 20
-11.4500469198
 10
-4.1331732599
 20
-11.4376278931
 10
-4.1484884635
 20
-11.4242100624
 10
-4.1632321312
 20
-11.4094200594
 10
-4.1772628488
 20
-11.3932443621
 10
-4.1904248189
 20
-11.3757021828
 10
-4.2028778398
 20
-11.3563119711
 10
-4.2144849791
 20
-11.334742505
 10
-4.2247411309
 20
-11.3112847668
 10
-4.2332143985
 20
-11.2864055536
 10
-4.2396483656
 20
-11.2603752208
 10
-4.2438596808
 20
-11.2332219716
 10
-4.2456279977
 20
-11.2051431276
  0
LWPOLYLINE
  5
2D7
100
AcDbEntity
  8
RACCORDO
100
AcDbPolyline
 62
250
  6
CONTINUOUS
 90
19
 70
0
 10
-12.1190703881
 20
-9.0796692441
 10
-12.099058769
 20
-9.0822518276
 10
-12.0799681716
 20
-9.0831305919
 10
-12.0618724947
 20
-9.0823499278
 10
-12.0448671711
 20
-9.079979675
 10
-12.0289921048
 20
-9.0760543407
 10
-12.0142390755
 20
-9.0705533635
 10
-12.0006112769
 20
-9.0634576663
 10
-11.9882444521
 20
-9.0548667089
 10
-11.9773159582
 20
-9.0449493246
 10
-11.9679366812
 20
-9.0338068523
 10
-11.9600639871
 20
-9.0214901495
 10
-11.9536243915
 20
-9.0081095394
 10
-11.9486513918
 20
-8.9938413795
 10
-11.9451535744
 20
-8.9786459797
 10
-11.9430656856
 20
-8.962286069
 10
-11.9424298355
 20
-8.9447122642
 10
-11.943342361
 20
-8.9260832099
 10
-11.9458645837
 20
-8.9064648869
  0
LWPOLYLINE
  5
2D8
100
AcDbEntity
  8
RACCORDO
100
AcDbPolyline
 62
250
  6
CONTINUOUS
 90
11
 70
0
 10
-4.1400278268
 20
-10.6904610332
 10
-4.1314095605
 20
-10.6933195477
 10
-4.1118005229
 20
-10.6961546
 10
-4.0811402136
 20
-10.6989661901
 10
-4.0396178385
 20
-10.7017546303
 10
-3.9871452339
 20
-10.7045196082
 10
-3.9228848377
 20
-10.7072601875
 10
-3.8458242854
 20
-10.7100009828
 10
-3.7562430974
 20
-10.7127173794
 10
-3.6553400893
 20
-10.7153345975
 10
-3.4213628977
 20
-10.7202527782
  0
LWPOLYLINE
  5
2D9
100
AcDbEntity
  8
RACCORDO
100
AcDbPolyline
 62
250
  6
CONTINUOUS
 90
11
 70
0
 10
-3.8400735182
 20
-10.3905067246
 10
-3.8323440105
 20
-10.3933652193
 10
-3.8146777265
 20
-10.396200261
 10
-3.7870746663
 20
-10.3990118499
 10
-3.7498655501
 20
-10.4018003041
 10
-3.7027196578
 20
-10.4045653053
 10
-3.6446448282
 20
-10.4073058993
 10
-3.5749308575
 20
-10.4100466905
 10
-3.4942879495
 20
-10.4127630744
 10
-3.4038545544
 20
-10.4153802834
 10
-3.1929241554
 20
-10.4202984664
  0
LINE
  5
2DA
100
AcDbEntity
  8
RACCORDO
100
AcDbLine
 62
7
  6
CONTINUOUS
 10
-10.4878769918
 20
-1.8426118682
 11
-10.4867044584
 21
-5.6910303414
  0
LINE
  5
2DB
100
AcDbEntity
  8
RACCORDO
100
AcDbLine
 62
250
  6
CONTINUOUS
 10
-10.5079820503
 20
-5.7123079333
 11
-10.5079820503
 21
-1.8225068096
  0
LINE
  5
2DC
100
AcDbEntity
  8
RACCORDO
100
AcDbLine
 62
250
  6
CONTINUOUS
 10
-10.2080277418
 20
-1.2225981925
 11
-10.2080277418
 21
-1.5225525011
  0
LINE
  5
2DD
100
AcDbEntity
  8
RACCORDO
100
AcDbLine
 62
250
  6
CONTINUOUS
 10
-10.2080277418
 20
-6.3122165504
 11
-10.2080277418
 21
-6.0122622419
  0
LINE
  5
2DE
100
AcDbEntity
  8
0
100
AcDbLine
 62
7
  6
CONTINUOUS
 10
-10.0131271799
 20
-5.9174073715
 11
-10.0131271799
 21
-5.9908932879
  0
LINE
  5
2DF
100
AcDbEntity
  8
0
100
AcDbLine
 62
250
  6
CONTINUOUS
 10
-9.7131271799
 20
-5.9174073715
 11
-9.7131271799
 21
-5.9908932879
  0
LWPOLYLINE
  5
2E0
100
AcDbEntity
  8
RACCORDO
100
AcDbPolyline
 62
250
  6
CONTINUOUS
 90
19
 70
0
 10
-10.5079820382
 20
-1.8225068218
 10
-10.5067379355
 20
-1.7951149538
 10
-10.5030019352
 20
-1.7679706198
 10
-10.49681002
 20
-1.7412993357
 10
-10.4882071511
 20
-1.7152921421
 10
-10.4772753754
 20
-1.6901956233
 10
-10.4641597502
 20
-1.6662985448
 10
-10.4488849422
 20
-1.6436346181
 10
-10.431685149
 20
-1.6225409389
 10
-10.4132019202
 20
-1.6036167524
 10
-10.3940187068
 20
-1.5871014909
 10
-10.3741473967
 20
-1.5726862592
 10
-10.3534147523
 20
-1.5600844277
 10
-10.3322265738
 20
-1.5494248274
 10
-10.3105318191
 20
-1.5405714217
 10
-10.2872860022
 20
-1.5331842324
 10
-10.2621634563
 20
-1.5274593054
 10
-10.235685547
 20
-1.5238213712
 10
-10.2080277334
 20
-1.5225525094
  0
LINE
  5
2E1
100
AcDbEntity
  8
RACCORDO
100
AcDbLine
 62
250
  6
CONTINUOUS
 10
-3.6190672876
 20
9.0448576016
 11
-4.5131271799
 21
8.1507977093
  0
LWPOLYLINE
  5
2E2
100
AcDbEntity
  8
RACCORDO
100
AcDbPolyline
 62
250
  6
CONTINUOUS
 90
13
 70
0
 10
-4.5131271799
 20
8.1507977093
 10
-4.5327370049
 20
8.1448514015
 10
-4.5521104657
 20
8.1368890636
 10
-4.5710140468
 20
8.1270066684
 10
-4.5892198968
 20
8.1153233322
 10
-4.6065085739
 20
8.1019798782
 10
-4.6226716914
 20
8.08713714
 10
-4.6375144296
 20
8.0709740225
 10
-4.6508578836
 20
8.0536853454
 10
-4.6625412198
 20
8.0354794954
 10
-4.672423615
 20
8.0165759143
 10
-4.6803859529
 20
7.9972024535
 10
-4.6863322607
 20
7.9775926285
  0
LWPOLYLINE
  5
2E3
100
AcDbEntity
  8
RACCORDO
100
AcDbPolyline
 62
250
  6
CONTINUOUS
 90
13
 70
0
 10
-3.8400735182
 20
-10.3905067246
 10
-3.8792176328
 20
-10.3930837738
 10
-3.9176922958
 20
-10.4007470122
 10
-3.9548394524
 20
-10.4133653906
 10
-3.9900237521
 20
-10.4307231102
 10
-4.0226434051
 20
-10.4525233082
 10
-4.0521404789
 20
-10.4783931305
 10
-4.0780104568
 20
-10.5078901215
 10
-4.0998108539
 20
-10.5405097824
 10
-4.1171687834
 20
-10.5756941881
 10
-4.1297873505
 20
-10.6128415521
 10
-4.1374507253
 20
-10.6513165224
 10
-4.1400278268
 20
-10.6904610332
  0
LWPOLYLINE
  5
2E4
100
AcDbEntity
  8
RACCORDO
100
AcDbPolyline
 62
250
  6
CONTINUOUS
 90
19
 70
0
 10
13.3809314712
 20
-9.2528774253
 10
13.4147205156
 20
-9.2514153489
 10
13.4471481496
 20
-9.2474997733
 10
13.4782143732
 20
-9.2411306985
 10
13.5079994166
 20
-9.2322540829
 10
13.5364230497
 20
-9.2209239681
 10
13.563244582
 20
-9.2073024795
 10
13.5885706384
 20
-9.1912529002
 10
13.6122945941
 20
-9.172911947
 10
13.6338558844
 20
-9.1528518956
 10
13.6530859851
 20
-9.1311219647
 10
13.6701534204
 20
-9.1076729356
 10
13.685003198
 20
-9.0829294274
 10
13.6976198834
 20
-9.0570947348
 10
13.7080189111
 20
-9.0299655631
 10
13.7161915928
 20
-9.0013566469
 10
13.7221350325
 20
-8.9712062311
 10
13.7258521262
 20
-8.9395760709
 10
13.7273428739
 20
-8.9064661661
  0
LWPOLYLINE
  5
2E5
100
AcDbEntity
  8
RACCORDO
100
AcDbPolyline
 62
250
  6
CONTINUOUS
 90
19
 70
0
 10
4.8809314712
 20
-9.2528774253
 10
4.9147205156
 20
-9.2514153489
 10
4.9471481496
 20
-9.2474997733
 10
4.9782143732
 20
-9.2411306985
 10
5.0079994166
 20
-9.2322540829
 10
5.0364230497
 20
-9.2209239681
 10
5.063244582
 20
-9.2073024795
 10
5.0885706384
 20
-9.1912529002
 10
5.1122945941
 20
-9.172911947
 10
5.1338558844
 20
-9.1528518956
 10
5.1530859851
 20
-9.1311219647
 10
5.1701534204
 20
-9.1076729356
 10
5.185003198
 20
-9.0829294274
 10
5.1976198834
 20
-9.0570947348
 10
5.2080189111
 20
-9.0299655631
 10
5.2161915928
 20
-9.0013566469
 10
5.2221350325
 20
-8.9712062311
 10
5.2258521262
 20
-8.9395760709
 10
5.2273428739
 20
-8.9064661661
  0
LWPOLYLINE
  5
2E6
100
AcDbEntity
  8
RACCORDO
100
AcDbPolyline
 62
250
  6
CONTINUOUS
 90
19
 70
0
 10
-3.6190685288
 20
-9.2528774253
 10
-3.5852794844
 20
-9.2514153489
 10
-3.5528518504
 20
-9.2474997733
 10
-3.5217856268
 20
-9.2411306985
 10
-3.4920005834
 20
-9.2322540829
 10
-3.4635769503
 20
-9.2209239681
 10
-3.436755418
 20
-9.2073024795
 10
-3.4114293616
 20
-9.1912529002
 10
-3.3877054059
 20
-9.172911947
 10
-3.3661441156
 20
-9.1528518956
 10
-3.3469140149
 20
-9.1311219647
 10
-3.3298465796
 20
-9.1076729356
 10
-3.314996802
 20
-9.0829294274
 10
-3.3023801166
 20
-9.0570947348
 10
-3.2919810889
 20
-9.0299655631
 10
-3.2838084072
 20
-9.0013566469
 10
-3.2778649675
 20
-8.9712062311
 10
-3.2741478738
 20
-8.9395760709
 10
-3.2726571261
 20
-8.9064661661
  0
LWPOLYLINE
  5
2E7
100
AcDbEntity
  8
RACCORDO
100
AcDbPolyline
 62
250
  6
CONTINUOUS
 90
19
 70
0
 10
-12.1190685288
 20
-9.2528774253
 10
-12.0852794844
 20
-9.2514153489
 10
-12.0528518504
 20
-9.2474997733
 10
-12.0217856268
 20
-9.2411306985
 10
-11.9920005834
 20
-9.2322540829
 10
-11.9635769503
 20
-9.2209239681
 10
-11.936755418
 20
-9.2073024795
 10
-11.9114293616
 20
-9.1912529002
 10
-11.8877054059
 20
-9.172911947
 10
-11.8661441156
 20
-9.1528518956
 10
-11.8469140149
 20
-9.1311219647
 10
-11.8298465796
 20
-9.1076729356
 10
-11.814996802
 20
-9.0829294274
 10
-11.8023801166
 20
-9.0570947348
 10
-11.7919810889
 20
-9.0299655631
 10
-11.7838084072
 20
-9.0013566469
 10
-11.7778649675
 20
-8.9712062311
 10
-11.7741478738
 20
-8.9395760709
 10
-11.7726571261
 20
-8.9064661661
  0
LINE
  5
2E8
100
AcDbEntity
  8
RACCORDO
100
AcDbLine
 62
7
  6
CONTINUOUS
 10
3.4194634466
 20
-10.2848624364
 11
-3.9457178065
 21
-10.2848624364
  0
LINE
  5
2E9
100
AcDbEntity
  8
RACCORDO
100
AcDbLine
 62
250
  6
CONTINUOUS
 10
-13.9071863708
 20
-9.2528774253
 11
-12.1190685288
 21
-9.2528774253
  0
LINE
  5
2EA
100
AcDbEntity
  8
RACCORDO
100
AcDbLine
 62
250
  6
CONTINUOUS
 10
-5.4071863708
 20
-9.2528774253
 11
-3.6190685288
 21
-9.2528774253
  0
LINE
  5
2EB
100
AcDbEntity
  8
RACCORDO
100
AcDbLine
 62
250
  6
CONTINUOUS
 10
3.0928136292
 20
-9.2528774253
 11
4.8809314712
 21
-9.2528774253
  0
LINE
  5
2EC
100
AcDbEntity
  8
RACCORDO
100
AcDbLine
 62
250
  6
CONTINUOUS
 10
11.5928136292
 20
-9.2528774253
 11
13.3809314712
 21
-9.2528774253
  0
LINE
  5
2ED
100
AcDbEntity
  8
RACCORDO
100
AcDbLine
 62
250
  6
CONTINUOUS
 10
-13.9071870723
 20
-9.0796723446
 11
-12.1190672876
 21
-9.0796723446
  0
LINE
  5
2EE
100
AcDbEntity
  8
RACCORDO
100
AcDbLine
 62
250
  6
CONTINUOUS
 10
-5.4071870723
 20
-9.0796723446
 11
-3.6190672876
 21
-9.0796723446
  0
LINE
  5
2EF
100
AcDbEntity
  8
RACCORDO
100
AcDbLine
 62
250
  6
CONTINUOUS
 10
3.0928129277
 20
-9.0796723446
 11
4.8809327124
 21
-9.0796723446
  0
LINE
  5
2F0
100
AcDbEntity
  8
RACCORDO
100
AcDbLine
 62
250
  6
CONTINUOUS
 10
11.5928129277
 20
-9.0796723446
 11
13.3809327124
 21
-9.0796723446
  0
LINE
  5
2F1
100
AcDbEntity
  8
RACCORDO
100
AcDbLine
 62
250
  6
CONTINUOUS
 10
-11.9458622069
 20
-8.9064672638
 11
-11.7726571261
 21
-8.9064672638
  0
LINE
  5
2F2
100
AcDbEntity
  8
RACCORDO
100
AcDbLine
 62
250
  6
CONTINUOUS
 10
11.419607847
 20
-8.9064672638
 11
11.2464027662
 21
-8.9064672638
  0
LINE
  5
2F3
100
AcDbEntity
  8
RACCORDO
100
AcDbLine
 62
250
  6
CONTINUOUS
 10
-3.4458622069
 20
-8.9064672638
 11
-3.2726571261
 21
-8.9064672638
  0
LINE
  5
2F4
100
AcDbEntity
  8
RACCORDO
100
AcDbLine
 62
250
  6
CONTINUOUS
 10
2.919607847
 20
-8.9064672638
 11
2.7464027662
 21
-8.9064672638
  0
LINE
  5
2F5
100
AcDbEntity
  8
RACCORDO
100
AcDbLine
 62
250
  6
CONTINUOUS
 10
5.0541377931
 20
-8.9064672638
 11
5.2273428739
 21
-8.9064672638
  0
LINE
  5
2F6
100
AcDbEntity
  8
RACCORDO
100
AcDbLine
 62
250
  6
CONTINUOUS
 10
-5.580392153
 20
-8.9064672638
 11
-5.7535972338
 21
-8.9064672638
  0
LINE
  5
2F7
100
AcDbEntity
  8
RACCORDO
100
AcDbLine
 62
250
  6
CONTINUOUS
 10
13.5541377931
 20
-8.9064672638
 11
13.7273428739
 21
-8.9064672638
  0
LINE
  5
2F8
100
AcDbEntity
  8
RACCORDO
100
AcDbLine
 62
250
  6
CONTINUOUS
 10
-14.080392153
 20
-8.9064672638
 11
-14.2535972338
 21
-8.9064672638
  0
LWPOLYLINE
  5
2F9
100
AcDbEntity
  8
RACCORDO
100
AcDbPolyline
 62
250
  6
CONTINUOUS
 90
13
 70
0
 10
3.3138191584
 20
-10.3905067246
 10
3.3529635055
 20
-10.3930838045
 10
3.3914383414
 20
-10.4007471209
 10
3.4285856058
 20
-10.4133656032
 10
3.4637699448
 20
-10.4307234293
 10
3.4963895778
 20
-10.4525237169
 10
3.52588659
 20
-10.4783936015
 10
3.5517564746
 20
-10.5078906136
 10
3.5735567622
 20
-10.5405102466
 10
3.5909145883
 20
-10.5756945857
 10
3.6035330706
 20
-10.6128418501
 10
3.611196387
 20
-10.651316686
 10
3.6137734669
 20
-10.6904610332
  0
LWPOLYLINE
  5
2FA
100
AcDbEntity
  8
RACCORDO
100
AcDbPolyline
 62
250
  6
CONTINUOUS
 90
19
 70
0
 10
-3.6190703881
 20
-9.0796692441
 10
-3.599058769
 20
-9.0822518276
 10
-3.5799681716
 20
-9.0831305919
 10
-3.5618724947
 20
-9.0823499278
 10
-3.5448671711
 20
-9.079979675
 10
-3.5289921048
 20
-9.0760543407
 10
-3.5142390755
 20
-9.0705533635
 10
-3.5006112769
 20
-9.0634576663
 10
-3.4882444521
 20
-9.0548667089
 10
-3.4773159582
 20
-9.0449493246
 10
-3.4679366812
 20
-9.0338068523
 10
-3.4600639871
 20
-9.0214901495
 10
-3.4536243915
 20
-9.0081095394
 10
-3.4486513918
 20
-8.9938413795
 10
-3.4451535744
 20
-8.9786459797
 10
-3.4430656856
 20
-8.962286069
 10
-3.4424298355
 20
-8.9447122642
 10
-3.443342361
 20
-8.9260832099
 10
-3.4458645837
 20
-8.9064648869
  0
LINE
  5
2FB
100
AcDbEntity
  8
RACCORDO
100
AcDbLine
 62
250
  6
CONTINUOUS
 10
-4.245672115
 20
-10.5848167449
 11
-4.1400278268
 21
-10.6904610332
  0
LINE
  5
2FC
100
AcDbEntity
  8
RACCORDO
100
AcDbLine
 62
250
  6
CONTINUOUS
 10
-3.9457178065
 20
-10.2848624364
 11
-3.8400735182
 21
-10.3905067246
  0
LINE
  5
2FD
100
AcDbEntity
  8
RACCORDO
100
AcDbLine
 62
250
  6
CONTINUOUS
 10
-7.3182266181
 20
-6.0122622419
 11
-7.3395955721
 21
-5.9908932879
  0
LINE
  5
2FE
100
AcDbEntity
  8
RACCORDO
100
AcDbLine
 62
250
  6
CONTINUOUS
 10
-7.0182723096
 20
-5.7123079333
 11
-7.0395499015
 21
-5.6910303414
  0
LINE
  5
2FF
100
AcDbEntity
  8
RACCORDO
100
AcDbLine
 62
250
  6
CONTINUOUS
 10
-4.5131271799
 20
-8.1856124522
 11
-3.6190672876
 21
-9.0796723446
  0
LWPOLYLINE
  5
300
100
AcDbEntity
  8
RACCORDO
100
AcDbPolyline
 62
250
  6
CONTINUOUS
 90
16
 70
0
 10
-12.8399220992
 20
7.9775926285
 10
-12.8439143266
 20
7.9914727947
 10
-12.8491719014
 20
8.0058768192
 10
-12.8557993154
 20
8.0206921285
 10
-12.8639696339
 20
8.0359197929
 10
-12.8737000045
 20
8.0512487778
 10
-12.8847386908
 20
8.0661048803
 10
-12.8970053325
 20
8.0803137673
 10
-12.9104429949
 20
8.0937488038
 10
-12.9246527592
 20
8.1060114259
 10
-12.9395077893
 20
8.11704507
 10
-12.9548336106
 20
8.126769789
 10
-12.9700559291
 20
8.134934343
 10
-12.98486376
 20
8.141556319
 10
-12.9992583128
 20
8.1468091577
 10
-13.0131271799
 20
8.1507977093
  0
LINE
  5
301
100
AcDbEntity
  8
0
100
AcDbLine
 62
250
  6
CONTINUOUS
 10
-7.8131271799
 20
-5.9174073715
 11
-7.8131271799
 21
-5.9908932879
  0
LINE
  5
302
100
AcDbEntity
  8
0
100
AcDbLine
 62
7
  6
CONTINUOUS
 10
-7.5131271799
 20
-5.9174073715
 11
-7.5131271799
 21
-5.9908932879
  0
LINE
  5
303
100
AcDbEntity
  8
RACCORDO
100
AcDbLine
 62
250
  6
CONTINUOUS
 10
-7.3182266181
 20
-1.2225981925
 11
-7.3182266181
 21
-1.5225525011
  0
LINE
  5
304
100
AcDbEntity
  8
RACCORDO
100
AcDbLine
 62
250
  6
CONTINUOUS
 10
-7.3182266181
 20
-6.3122165504
 11
-7.3182266181
 21
-6.0122622419
  0
LINE
  5
305
100
AcDbEntity
  8
RACCORDO
100
AcDbLine
 62
250
  6
CONTINUOUS
 10
-3.4458622069
 20
8.8716525209
 11
-4.3399220992
 21
7.9775926285
  0
LINE
  5
306
100
AcDbEntity
  8
RACCORDO
100
AcDbLine
 62
250
  6
CONTINUOUS
 10
-23.2508172446
 20
-11.0051735886
 11
-23.2631271799
 21
-11.0174835239
  0
LINE
  5
307
100
AcDbEntity
  8
RACCORDO
100
AcDbLine
 62
250
  6
CONTINUOUS
 10
-22.750893397
 20
-11.5050974362
 11
-22.7632033324
 21
-11.5174073715
  0
LINE
  5
308
100
AcDbEntity
  8
RACCORDO
100
AcDbLine
 62
250
  6
CONTINUOUS
 10
12.6600779008
 20
-8.0124073715
 11
12.3136677393
 21
-8.0124073715
  0
LINE
  5
309
100
AcDbEntity
  8
RACCORDO
100
AcDbLine
 62
250
  6
CONTINUOUS
 10
4.1600779008
 20
-8.0124073715
 11
3.8136677393
 21
-8.0124073715
  0
LINE
  5
30A
100
AcDbEntity
  8
RACCORDO
100
AcDbLine
 62
250
  6
CONTINUOUS
 10
-4.3399220992
 20
-8.0124073715
 11
-4.6863322607
 21
-8.0124073715
  0
LINE
  5
30B
100
AcDbEntity
  8
RACCORDO
100
AcDbLine
 62
250
  6
CONTINUOUS
 10
-12.8399220992
 20
-8.0124073715
 11
-13.1863322607
 21
-8.0124073715
  0
LWPOLYLINE
  5
30C
100
AcDbEntity
  8
RACCORDO
100
AcDbPolyline
 62
250
  6
CONTINUOUS
 90
19
 70
0
 10
4.8809296119
 20
-9.0796692441
 10
4.900941231
 20
-9.0822518276
 10
4.9200318284
 20
-9.0831305919
 10
4.9381275053
 20
-9.0823499278
 10
4.9551328289
 20
-9.079979675
 10
4.9710078952
 20
-9.0760543407
 10
4.9857609245
 20
-9.0705533635
 10
4.9993887231
 20
-9.0634576663
 10
5.0117555479
 20
-9.0548667089
 10
5.0226840418
 20
-9.0449493246
 10
5.0320633188
 20
-9.0338068523
 10
5.0399360129
 20
-9.0214901495
 10
5.0463756085
 20
-9.0081095394
 10
5.0513486082
 20
-8.9938413795
 10
5.0548464256
 20
-8.9786459797
 10
5.0569343144
 20
-8.962286069
 10
5.0575701645
 20
-8.9447122642
 10
5.056657639
 20
-8.9260832099
 10
5.0541354163
 20
-8.9064648869
  0
LWPOLYLINE
  5
30D
100
AcDbEntity
  8
RACCORDO
100
AcDbPolyline
 62
250
  6
CONTINUOUS
 90
19
 70
0
 10
13.3809296119
 20
-9.0796692441
 10
13.400941231
 20
-9.0822518276
 10
13.4200318284
 20
-9.0831305919
 10
13.4381275053
 20
-9.0823499278
 10
13.4551328289
 20
-9.079979675
 10
13.4710078952
 20
-9.0760543407
 10
13.4857609245
 20
-9.0705533635
 10
13.4993887231
 20
-9.0634576663
 10
13.5117555479
 20
-9.0548667089
 10
13.5226840418
 20
-9.0449493246
 10
13.5320633188
 20
-9.0338068523
 10
13.5399360129
 20
-9.0214901495
 10
13.5463756085
 20
-9.0081095394
 10
13.5513486082
 20
-8.9938413795
 10
13.5548464256
 20
-8.9786459797
 10
13.5569343144
 20
-8.962286069
 10
13.5575701645
 20
-8.9447122642
 10
13.556657639
 20
-8.9260832099
 10
13.5541354163
 20
-8.9064648869
  0
LINE
  5
30E
100
AcDbEntity
  8
RACCORDO
100
AcDbLine
 62
250
  6
CONTINUOUS
 10
-4.3399220992
 20
-8.0124073715
 11
-3.4458622069
 21
-8.9064672638
  0
LINE
  5
30F
100
AcDbEntity
  8
RACCORDO
100
AcDbLine
 62
250
  6
CONTINUOUS
 10
-10.5079820503
 20
-1.8225068096
 11
-10.4878769918
 21
-1.8426118682
  0
LINE
  5
310
100
AcDbEntity
  8
RACCORDO
100
AcDbLine
 62
250
  6
CONTINUOUS
 10
-23.2508172446
 20
10.9703588456
 11
-23.2631271799
 21
10.982668781
  0
LINE
  5
311
100
AcDbEntity
  8
RACCORDO
100
AcDbLine
 62
250
  6
CONTINUOUS
 10
-10.2080277418
 20
-1.5225525011
 11
-10.188014101
 21
-1.5425661419
  0
LINE
  5
312
100
AcDbEntity
  8
RACCORDO
100
AcDbLine
 62
250
  6
CONTINUOUS
 10
-22.750893397
 20
11.4702826932
 11
-22.7632033324
 21
11.4825926285
  0
LWPOLYLINE
  5
313
100
AcDbEntity
  8
RACCORDO
100
AcDbPolyline
 62
250
  6
CONTINUOUS
 90
19
 70
0
 10
-5.7535972338
 20
-8.9064658695
 10
-5.752050222
 20
-8.9411352707
 10
-5.7479319841
 20
-8.9743545034
 10
-5.7412425201
 20
-9.0061235677
 10
-5.7319336102
 20
-9.0365165305
 10
-5.7200534742
 20
-9.0654593248
 10
-5.7057467715
 20
-9.09272975
 10
-5.6887588734
 20
-9.1185119635
 10
-5.6693444086
 20
-9.1426218079
 10
-5.6484119233
 20
-9.1642846105
 10
-5.626057739
 20
-9.1831940058
 10
-5.6021855342
 20
-9.1996563593
 10
-5.5774148912
 20
-9.2138160951
 10
-5.5520996195
 20
-9.2256410197
 10
-5.5258859095
 20
-9.2351633266
 10
-5.4983319143
 20
-9.2426240202
 10
-5.4692903517
 20
-9.2481034352
 10
-5.4389085039
 20
-9.2515212369
 10
-5.4071863708
 20
-9.2528774253
  0
LINE
  5
314
100
AcDbEntity
  8
RACCORDO
100
AcDbLine
 62
250
  6
CONTINUOUS
 10
-7.0182723096
 20
-1.8225068096
 11
-7.0182723096
 21
-5.7123079333
  0
LINE
  5
315
100
AcDbEntity
  8
RACCORDO
100
AcDbLine
 62
250
  6
CONTINUOUS
 10
-6.718318001
 20
-1.8225068096
 11
-6.718318001
 21
-5.7123079333
  0
LINE
  5
316
100
AcDbEntity
  8
RACCORDO
100
AcDbLine
 62
250
  6
CONTINUOUS
 10
-5.7535972338
 20
8.8716514232
 11
-5.7535972338
 21
-8.9064658695
  0
LINE
  5
317
100
AcDbEntity
  8
RACCORDO
100
AcDbLine
 62
250
  6
CONTINUOUS
 10
-5.580392153
 20
8.8716525209
 11
-5.580392153
 21
-8.9064672638
  0
LINE
  5
318
100
AcDbEntity
  8
RACCORDO
100
AcDbLine
 62
250
  6
CONTINUOUS
 10
-5.4071870723
 20
-9.0796723446
 11
-5.4071870723
 21
-9.2528774253
  0
LINE
  5
319
100
AcDbEntity
  8
RACCORDO
100
AcDbLine
 62
250
  6
CONTINUOUS
 10
-5.4071870723
 20
9.0448576016
 11
-5.4071870723
 21
9.2180626824
  0
LINE
  5
31A
100
AcDbEntity
  8
RACCORDO
100
AcDbLine
 62
7
  6
CONTINUOUS
 10
-7.0395499015
 20
-5.6910303414
 11
-7.0383773681
 21
-1.8426118682
  0
LWPOLYLINE
  5
31B
100
AcDbEntity
  8
RACCORDO
100
AcDbPolyline
 62
250
  6
CONTINUOUS
 90
19
 70
0
 10
-7.0182723217
 20
-5.7123079211
 10
-7.0195164244
 20
-5.7396997891
 10
-7.0232524247
 20
-5.7668441232
 10
-7.0294443399
 20
-5.7935154073
 10
-7.0380472088
 20
-5.8195226008
 10
-7.0489789845
 20
-5.8446191197
 10
-7.0620946096
 20
-5.8685161982
 10
-7.0773694177
 20
-5.8911801249
 10
-7.0945692109
 20
-5.912273804
 10
-7.1130524397
 20
-5.9311979905
 10
-7.1322356531
 20
-5.9477132521
 10
-7.1521069632
 20
-5.9621284837
 10
-7.1728396075
 20
-5.9747303153
 10
-7.1940277861
 20
-5.9853899155
 10
-7.2157225407
 20
-5.9942433213
 10
-7.2389683577
 20
-6.0016305106
 10
-7.2640909036
 20
-6.0073554375
 10
-7.2905688128
 20
-6.0109933718
 10
-7.3182266264
 20
-6.0122622335
  0
LWPOLYLINE
  5
31C
100
AcDbEntity
  8
RACCORDO
100
AcDbPolyline
 62
250
  6
CONTINUOUS
 90
19
 70
0
 10
-6.718318001
 20
-5.7123079333
 10
-6.7210091894
 20
-5.7678094325
 10
-6.728471434
 20
-5.8219335417
 10
-6.7407047348
 20
-5.8746802607
 10
-6.7579440131
 20
-5.9265022904
 10
-6.7799543475
 20
-5.97694693
 10
-6.8060309741
 20
-6.0246560773
 10
-6.8366410114
 20
-6.0696830468
 10
-6.8713173409
 20
-6.111974524
 10
-6.9079538434
 20
-6.1500124631
 10
-6.9460326372
 20
-6.1831045131
 10
-6.9860716041
 20
-6.2119430251
 10
-7.0275182698
 20
-6.237087006
 10
-7.0696858238
 20
-6.2586956511
 10
-7.1132610767
 20
-6.2766097651
 10
-7.1597519867
 20
-6.2909107699
 10
-7.2096612067
 20
-6.301625806
 10
-7.2624860838
 20
-6.3087277328
 10
-7.3182266181
 20
-6.3122165504
  0
LWPOLYLINE
  5
31D
100
AcDbEntity
  8
RACCORDO
100
AcDbPolyline
 62
250
  6
CONTINUOUS
 90
13
 70
0
 10
3.9868728201
 20
8.1507977093
 10
3.9672629951
 20
8.1448514015
 10
3.9478895343
 20
8.1368890636
 10
3.9289859532
 20
8.1270066684
 10
3.9107801032
 20
8.1153233322
 10
3.8934914261
 20
8.1019798782
 10
3.8773283086
 20
8.08713714
 10
3.8624855704
 20
8.0709740225
 10
3.8491421164
 20
8.0536853454
 10
3.8374587802
 20
8.0354794954
 10
3.827576385
 20
8.0165759143
 10
3.8196140471
 20
7.9972024535
 10
3.8136677393
 20
7.9775926285
  0
LINE
  5
31E
100
AcDbEntity
  8
RACCORDO
100
AcDbLine
 62
250
  6
CONTINUOUS
 10
18.1817733819
 20
-6.3122165504
 11
15.2919722582
 21
-6.3122165504
  0
LINE
  5
31F
100
AcDbEntity
  8
RACCORDO
100
AcDbLine
 62
250
  6
CONTINUOUS
 10
9.6817733819
 20
-6.3122165504
 11
6.7919722582
 21
-6.3122165504
  0
LINE
  5
320
100
AcDbEntity
  8
RACCORDO
100
AcDbLine
 62
250
  6
CONTINUOUS
 10
1.1817733819
 20
-6.3122165504
 11
-1.7080277418
 21
-6.3122165504
  0
LINE
  5
321
100
AcDbEntity
  8
RACCORDO
100
AcDbLine
 62
250
  6
CONTINUOUS
 10
-7.3182266181
 20
-6.3122165504
 11
-10.2080277418
 21
-6.3122165504
  0
LINE
  5
322
100
AcDbEntity
  8
RACCORDO
100
AcDbLine
 62
250
  6
CONTINUOUS
 10
18.1817733819
 20
-6.0122622419
 11
15.2919722582
 21
-6.0122622419
  0
LINE
  5
323
100
AcDbEntity
  8
RACCORDO
100
AcDbLine
 62
250
  6
CONTINUOUS
 10
9.6817733819
 20
-6.0122622419
 11
6.7919722582
 21
-6.0122622419
  0
LINE
  5
324
100
AcDbEntity
  8
RACCORDO
100
AcDbLine
 62
250
  6
CONTINUOUS
 10
1.1817733819
 20
-6.0122622419
 11
-1.7080277418
 21
-6.0122622419
  0
LINE
  5
325
100
AcDbEntity
  8
RACCORDO
100
AcDbLine
 62
250
  6
CONTINUOUS
 10
-7.3182266181
 20
-6.0122622419
 11
-10.2080277418
 21
-6.0122622419
  0
LINE
  5
326
100
AcDbEntity
  8
RACCORDO
100
AcDbLine
 62
7
  6
CONTINUOUS
 10
-10.1866587878
 20
-5.9908932879
 11
-7.3395955721
 21
-5.9908932879
  0
LINE
  5
327
100
AcDbEntity
  8
RACCORDO
100
AcDbLine
 62
7
  6
CONTINUOUS
 10
-1.6866587878
 20
-5.9908932879
 11
1.1604044279
 21
-5.9908932879
  0
LINE
  5
328
100
AcDbEntity
  8
RACCORDO
100
AcDbLine
 62
7
  6
CONTINUOUS
 10
6.8133412122
 20
-5.9908932879
 11
9.6604044279
 21
-5.9908932879
  0
LINE
  5
329
100
AcDbEntity
  8
RACCORDO
100
AcDbLine
 62
7
  6
CONTINUOUS
 10
15.3133412122
 20
-5.9908932879
 11
18.1604044279
 21
-5.9908932879
  0
LINE
  5
32A
100
AcDbEntity
  8
0
100
AcDbLine
 62
7
  6
CONTINUOUS
 10
-10.0131271799
 20
-5.9174073715
 11
-7.5131271799
 21
-5.9174073715
  0
LINE
  5
32B
100
AcDbEntity
  8
0
100
AcDbLine
 62
7
  6
CONTINUOUS
 10
-1.5131271799
 20
-5.9174073715
 11
0.9868728201
 21
-5.9174073715
  0
LINE
  5
32C
100
AcDbEntity
  8
0
100
AcDbLine
 62
7
  6
CONTINUOUS
 10
6.9868728201
 20
-5.9174073715
 11
9.4868728201
 21
-5.9174073715
  0
LINE
  5
32D
100
AcDbEntity
  8
0
100
AcDbLine
 62
7
  6
CONTINUOUS
 10
15.4868728201
 20
-5.9174073715
 11
17.9868728201
 21
-5.9174073715
  0
LINE
  5
32E
100
AcDbEntity
  8
RACCORDO
100
AcDbLine
 62
250
  6
CONTINUOUS
 10
18.781681999
 20
-5.7123079333
 11
18.4817276904
 21
-5.7123079333
  0
LINE
  5
32F
100
AcDbEntity
  8
RACCORDO
100
AcDbLine
 62
250
  6
CONTINUOUS
 10
-10.8079363589
 20
-5.7123079333
 11
-10.5079820503
 21
-5.7123079333
  0
LINE
  5
330
100
AcDbEntity
  8
RACCORDO
100
AcDbLine
 62
250
  6
CONTINUOUS
 10
10.281681999
 20
-5.7123079333
 11
9.9817276904
 21
-5.7123079333
  0
LINE
  5
331
100
AcDbEntity
  8
RACCORDO
100
AcDbLine
 62
250
  6
CONTINUOUS
 10
-2.3079363589
 20
-5.7123079333
 11
-2.0079820503
 21
-5.7123079333
  0
LINE
  5
332
100
AcDbEntity
  8
RACCORDO
100
AcDbLine
 62
250
  6
CONTINUOUS
 10
1.781681999
 20
-5.7123079333
 11
1.4817276904
 21
-5.7123079333
  0
LINE
  5
333
100
AcDbEntity
  8
RACCORDO
100
AcDbLine
 62
250
  6
CONTINUOUS
 10
6.1920636411
 20
-5.7123079333
 11
6.4920179497
 21
-5.7123079333
  0
LINE
  5
334
100
AcDbEntity
  8
RACCORDO
100
AcDbLine
 62
250
  6
CONTINUOUS
 10
-6.718318001
 20
-5.7123079333
 11
-7.0182723096
 21
-5.7123079333
  0
LINE
  5
335
100
AcDbEntity
  8
RACCORDO
100
AcDbLine
 62
250
  6
CONTINUOUS
 10
14.6920636411
 20
-5.7123079333
 11
14.9920179497
 21
-5.7123079333
  0
LINE
  5
336
100
AcDbEntity
  8
RACCORDO
100
AcDbLine
 62
7
  6
CONTINUOUS
 10
18.2086633808
 20
-5.1456625022
 11
15.2650822593
 21
-5.1456625022
  0
LINE
  5
337
100
AcDbEntity
  8
RACCORDO
100
AcDbLine
 62
7
  6
CONTINUOUS
 10
9.7086633808
 20
-5.1456625022
 11
6.7650822593
 21
-5.1456625022
  0
LINE
  5
338
100
AcDbEntity
  8
RACCORDO
100
AcDbLine
 62
7
  6
CONTINUOUS
 10
1.2086633808
 20
-5.1456625022
 11
-1.7349177407
 21
-5.1456625022
  0
LINE
  5
339
100
AcDbEntity
  8
RACCORDO
100
AcDbLine
 62
7
  6
CONTINUOUS
 10
-7.2913366192
 20
-5.1456625022
 11
-10.2349177407
 21
-5.1456625022
  0
LWPOLYLINE
  5
33A
100
AcDbEntity
  8
RACCORDO
100
AcDbPolyline
 62
250
  6
CONTINUOUS
 90
19
 70
0
 10
-10.2080277296
 20
-6.0122622297
 10
-10.2354195976
 20
-6.011018127
 10
-10.2625639316
 20
-6.0072821267
 10
-10.2892352157
 20
-6.0010902115
 10
-10.3152424093
 20
-5.9924873426
 10
-10.3403389281
 20
-5.9815555669
 10
-10.3642360067
 20
-5.9684399418
 10
-10.3868999333
 20
-5.9531651337
 10
-10.4079936125
 20
-5.9359653405
 10
-10.426917799
 20
-5.9174821117
 10
-10.4434330605
 20
-5.8982988983
 10
-10.4578482922
 20
-5.8784275882
 10
-10.4704501237
 20
-5.8576949439
 10
-10.481109724
 20
-5.8365067653
 10
-10.4899631298
 20
-5.8148120107
 10
-10.4973503191
 20
-5.7915661938
 10
-10.503075246
 20
-5.7664436478
 10
-10.5067131802
 20
-5.7399657386
 10
-10.507982042
 20
-5.712307925
  0
LWPOLYLINE
  5
33B
100
AcDbEntity
  8
RACCORDO
100
AcDbPolyline
 62
250
  6
CONTINUOUS
 90
19
 70
0
 10
-1.7080277296
 20
-6.0122622297
 10
-1.7354195976
 20
-6.011018127
 10
-1.7625639316
 20
-6.0072821267
 10
-1.7892352157
 20
-6.0010902115
 10
-1.8152424093
 20
-5.9924873426
 10
-1.8403389281
 20
-5.9815555669
 10
-1.8642360067
 20
-5.9684399418
 10
-1.8868999333
 20
-5.9531651337
 10
-1.9079936125
 20
-5.9359653405
 10
-1.926917799
 20
-5.9174821117
 10
-1.9434330605
 20
-5.8982988983
 10
-1.9578482922
 20
-5.8784275882
 10
-1.9704501237
 20
-5.8576949439
 10
-1.981109724
 20
-5.8365067653
 10
-1.9899631298
 20
-5.8148120107
 10
-1.9973503191
 20
-5.7915661938
 10
-2.003075246
 20
-5.7664436478
 10
-2.0067131802
 20
-5.7399657386
 10
-2.007982042
 20
-5.712307925
  0
LWPOLYLINE
  5
33C
100
AcDbEntity
  8
RACCORDO
100
AcDbPolyline
 62
250
  6
CONTINUOUS
 90
19
 70
0
 10
6.7919722704
 20
-6.0122622297
 10
6.7645804024
 20
-6.011018127
 10
6.7374360684
 20
-6.0072821267
 10
6.7107647843
 20
-6.0010902115
 10
6.6847575907
 20
-5.9924873426
 10
6.6596610719
 20
-5.9815555669
 10
6.6357639933
 20
-5.9684399418
 10
6.6131000667
 20
-5.9531651337
 10
6.5920063875
 20
-5.9359653405
 10
6.573082201
 20
-5.9174821117
 10
6.5565669395
 20
-5.8982988983
 10
6.5421517078
 20
-5.8784275882
 10
6.5295498763
 20
-5.8576949439
 10
6.518890276
 20
-5.8365067653
 10
6.5100368702
 20
-5.8148120107
 10
6.5026496809
 20
-5.7915661938
 10
6.496924754
 20
-5.7664436478
 10
6.4932868198
 20
-5.7399657386
 10
6.492017958
 20
-5.712307925
  0
LWPOLYLINE
  5
33D
100
AcDbEntity
  8
RACCORDO
100
AcDbPolyline
 62
250
  6
CONTINUOUS
 90
19
 70
0
 10
15.2919722704
 20
-6.0122622297
 10
15.2645804024
 20
-6.011018127
 10
15.2374360684
 20
-6.0072821267
 10
15.2107647843
 20
-6.0010902115
 10
15.1847575907
 20
-5.9924873426
 10
15.1596610719
 20
-5.9815555669
 10
15.1357639933
 20
-5.9684399418
 10
15.1131000667
 20
-5.9531651337
 10
15.0920063875
 20
-5.9359653405
 10
15.073082201
 20
-5.9174821117
 10
15.0565669395
 20
-5.8982988983
 10
15.0421517078
 20
-5.8784275882
 10
15.0295498763
 20
-5.8576949439
 10
15.018890276
 20
-5.8365067653
 10
15.0100368702
 20
-5.8148120107
 10
15.0026496809
 20
-5.7915661938
 10
14.996924754
 20
-5.7664436478
 10
14.9932868198
 20
-5.7399657386
 10
14.992017958
 20
-5.712307925
  0
LWPOLYLINE
  5
33E
100
AcDbEntity
  8
RACCORDO
100
AcDbPolyline
 62
250
  6
CONTINUOUS
 90
19
 70
0
 10
-10.2080277418
 20
-6.3122165504
 10
-10.263529241
 20
-6.309525362
 10
-10.3176533501
 20
-6.3020631174
 10
-10.3704000692
 20
-6.2898298166
 10
-10.4222220989
 20
-6.2725905384
 10
-10.4726667385
 20
-6.2505802039
 10
-10.5203758857
 20
-6.2245035773
 10
-10.5654028552
 20
-6.19389354
 10
-10.6076943324
 20
-6.1592172105
 10
-10.6457322715
 20
-6.122580708
 10
-10.6788243216
 20
-6.0845019142
 10
-10.7076628336
 20
-6.0444629473
 10
-10.7328068145
 20
-6.0030162816
 10
-10.7544154596
 20
-5.9608487276
 10
-10.7723295736
 20
-5.9172734748
 10
-10.7866305784
 20
-5.8707825647
 10
-10.7973456145
 20
-5.8208733447
 10
-10.8044475413
 20
-5.7680484676
 10
-10.8079363589
 20
-5.7123079333
  0
LWPOLYLINE
  5
33F
100
AcDbEntity
  8
RACCORDO
100
AcDbPolyline
 62
250
  6
CONTINUOUS
 90
19
 70
0
 10
-1.7080277418
 20
-6.3122165504
 10
-1.763529241
 20
-6.309525362
 10
-1.8176533501
 20
-6.3020631174
 10
-1.8704000692
 20
-6.2898298166
 10
-1.9222220989
 20
-6.2725905384
 10
-1.9726667385
 20
-6.2505802039
 10
-2.0203758857
 20
-6.2245035773
 10
-2.0654028552
 20
-6.19389354
 10
-2.1076943324
 20
-6.1592172105
 10
-2.1457322715
 20
-6.122580708
 10
-2.1788243216
 20
-6.0845019142
 10
-2.2076628336
 20
-6.0444629473
 10
-2.2328068145
 20
-6.0030162816
 10
-2.2544154596
 20
-5.9608487276
 10
-2.2723295736
 20
-5.9172734748
 10
-2.2866305784
 20
-5.8707825647
 10
-2.2973456145
 20
-5.8208733447
 10
-2.3044475413
 20
-5.7680484676
 10
-2.3079363589
 20
-5.7123079333
  0
LWPOLYLINE
  5
340
100
AcDbEntity
  8
RACCORDO
100
AcDbPolyline
 62
250
  6
CONTINUOUS
 90
19
 70
0
 10
6.7919722582
 20
-6.3122165504
 10
6.736470759
 20
-6.309525362
 10
6.6823466499
 20
-6.3020631174
 10
6.6295999308
 20
-6.2898298166
 10
6.5777779011
 20
-6.2725905384
 10
6.5273332615
 20
-6.2505802039
 10
6.4796241143
 20
-6.2245035773
 10
6.4345971448
 20
-6.19389354
 10
6.3923056676
 20
-6.1592172105
 10
6.3542677285
 20
-6.122580708
 10
6.3211756784
 20
-6.0845019142
 10
6.2923371664
 20
-6.0444629473
 10
6.2671931855
 20
-6.0030162816
 10
6.2455845404
 20
-5.9608487276
 10
6.2276704264
 20
-5.9172734748
 10
6.2133694216
 20
-5.8707825647
 10
6.2026543855
 20
-5.8208733447
 10
6.1955524587
 20
-5.7680484676
 10
6.1920636411
 20
-5.7123079333
  0
LWPOLYLINE
  5
341
100
AcDbEntity
  8
RACCORDO
100
AcDbPolyline
 62
250
  6
CONTINUOUS
 90
19
 70
0
 10
15.2919722582
 20
-6.3122165504
 10
15.236470759
 20
-6.309525362
 10
15.1823466499
 20
-6.3020631174
 10
15.1295999308
 20
-6.2898298166
 10
15.0777779011
 20
-6.2725905384
 10
15.0273332615
 20
-6.2505802039
 10
14.9796241143
 20
-6.2245035773
 10
14.9345971448
 20
-6.19389354
 10
14.8923056676
 20
-6.1592172105
 10
14.8542677285
 20
-6.122580708
 10
14.8211756784
 20
-6.0845019142
 10
14.7923371664
 20
-6.0444629473
 10
14.7671931855
 20
-6.0030162816
 10
14.7455845404
 20
-5.9608487276
 10
14.7276704264
 20
-5.9172734748
 10
14.7133694216
 20
-5.8707825647
 10
14.7026543855
 20
-5.8208733447
 10
14.6955524587
 20
-5.7680484676
 10
14.6920636411
 20
-5.7123079333
  0
LINE
  5
342
100
AcDbEntity
  8
RACCORDO
100
AcDbLine
 62
250
  6
CONTINUOUS
 10
3.3138191584
 20
-11.3943080183
 11
3.4246085762
 21
-11.5050974362
  0
LINE
  5
343
100
AcDbEntity
  8
RACCORDO
100
AcDbLine
 62
250
  6
CONTINUOUS
 10
3.6137734669
 20
-11.0943537098
 11
3.7194177551
 21
-11.199997998
  0
LWPOLYLINE
  5
344
100
AcDbEntity
  8
RACCORDO
100
AcDbPolyline
 62
250
  6
CONTINUOUS
 90
16
 70
0
 10
-4.6863322607
 20
-8.0124073715
 10
-4.6823400332
 20
-8.0262875377
 10
-4.6770824585
 20
-8.0406915622
 10
-4.6704550445
 20
-8.0555068714
 10
-4.662284726
 20
-8.0707345359
 10
-4.6525543554
 20
-8.0860635208
 10
-4.6415156691
 20
-8.1009196232
 10
-4.6292490274
 20
-8.1151285102
 10
-4.615811365
 20
-8.1285635467
 10
-4.6016016007
 20
-8.1408261689
 10
-4.5867465706
 20
-8.151859813
 10
-4.5714207493
 20
-8.1615845319
 10
-4.5561984308
 20
-8.169749086
 10
-4.5413905999
 20
-8.1763710619
 10
-4.5269960471
 20
-8.1816239006
 10
-4.5131271799
 20
-8.1856124522
  0
LWPOLYLINE
  5
345
100
AcDbEntity
  8
RACCORDO
100
AcDbPolyline
 62
250
  6
CONTINUOUS
 90
13
 70
0
 10
-4.1400278268
 20
-11.0943537098
 10
-4.1374506956
 20
-11.1334984454
 10
-4.1297872407
 20
-11.1719736003
 10
-4.1171685568
 20
-11.2091211013
 10
-4.099810485
 20
-11.2443055992
 10
-4.0780099369
 20
-11.2769252988
 10
-4.0521398302
 20
-11.306422261
 10
-4.0226426713
 20
-11.3322919978
 10
-3.9900229902
 20
-11.3540920727
 10
-3.9548387447
 20
-11.3714496456
 10
-3.9176917365
 20
-11.3840678807
 10
-3.8792173119
 20
-11.3917310114
 10
-3.8400735182
 20
-11.3943080183
  0
LINE
  5
346
100
AcDbEntity
  8
RACCORDO
100
AcDbLine
 62
250
  6
CONTINUOUS
 10
-4.6863322607
 20
7.9775926285
 11
-4.6863322607
 21
-8.0124073715
  0
LINE
  5
347
100
AcDbEntity
  8
RACCORDO
100
AcDbLine
 62
250
  6
CONTINUOUS
 10
-4.3399220992
 20
7.9775926285
 11
-4.3399220992
 21
-8.0124073715
  0
LINE
  5
348
100
AcDbEntity
  8
RACCORDO
100
AcDbLine
 62
7
  6
CONTINUOUS
 10
-4.245672115
 20
-11.199997998
 11
-4.245672115
 21
-10.5848167449
  0
LINE
  5
349
100
AcDbEntity
  8
RACCORDO
100
AcDbLine
 62
250
  6
CONTINUOUS
 10
-4.1400278268
 20
-11.0943537098
 11
-4.1400278268
 21
-10.6904610332
  0
LINE
  5
34A
100
AcDbEntity
  8
RACCORDO
100
AcDbLine
 62
250
  6
CONTINUOUS
 10
-3.6190672876
 20
-9.0796723446
 11
-3.6190672876
 21
-9.2528774253
  0
LINE
  5
34B
100
AcDbEntity
  8
RACCORDO
100
AcDbLine
 62
250
  6
CONTINUOUS
 10
-3.6190672876
 20
9.0448576016
 11
-3.6190672876
 21
9.2180626824
  0
LWPOLYLINE
  5
34C
100
AcDbEntity
  8
RACCORDO
100
AcDbPolyline
 62
250
  6
CONTINUOUS
 90
19
 70
0
 10
-3.445865484
 20
8.8716492438
 10
-3.4432380304
 20
8.8921720644
 10
-3.4424031813
 20
8.911719277
 10
-3.4433121984
 20
8.9302113112
 10
-3.4458853203
 20
8.9475383679
 10
-3.4500869885
 20
8.9636656685
 10
-3.4559520214
 20
8.9786232324
 10
-3.463552948
 20
8.9924468419
 10
-3.4727422005
 20
9.0049419387
 10
-3.4831917939
 20
9.0158242363
 10
-3.4947520754
 20
9.0249465359
 10
-3.5073728931
 20
9.032429425
 10
-3.5208375891
 20
9.0384389141
 10
-3.5348837442
 20
9.0429684023
 10
-3.5496163608
 20
9.0460442085
 10
-3.5654055528
 20
9.0478191684
 10
-3.5823520817
 20
9.0482763793
 10
-3.6002594285
 20
9.0473062834
 10
-3.6190691866
 20
9.0448557026
  0
LWPOLYLINE
  5
34D
100
AcDbEntity
  8
RACCORDO
100
AcDbPolyline
 62
250
  6
CONTINUOUS
 90
19
 70
0
 10
-5.5803888759
 20
-8.9064639867
 10
-5.5830163295
 20
-8.9269868074
 10
-5.5838511786
 20
-8.9465340199
 10
-5.5829421615
 20
-8.9650260541
 10
-5.5803690396
 20
-8.9823531108
 10
-5.5761673714
 20
-8.9984804114
 10
-5.5703023385
 20
-9.0134379753
 10
-5.5627014119
 20
-9.0272615848
 10
-5.5535121593
 20
-9.0397566816
 10
-5.543062566
 20
-9.0506389792
 10
-5.5315022844
 20
-9.0597612788
 10
-5.5188814668
 20
-9.0672441679
 10
-5.5054167708
 20
-9.0732536571
 10
-5.4913706157
 20
-9.0777831452
 10
-5.4766379991
 20
-9.0808589515
 10
-5.460848807
 20
-9.0826339114
 10
-5.4439022782
 20
-9.0830911222
 10
-5.4259949314
 20
-9.0821210263
 10
-5.4071851733
 20
-9.0796704456
  0
LINE
  5
34E
100
AcDbEntity
  8
RACCORDO
100
AcDbLine
 62
250
  6
CONTINUOUS
 10
-7.3182266181
 20
-1.5225525011
 11
-7.3382402589
 21
-1.5425661419
  0
LINE
  5
34F
100
AcDbEntity
  8
RACCORDO
100
AcDbLine
 62
250
  6
CONTINUOUS
 10
-7.0182723096
 20
-1.8225068096
 11
-7.0383773681
 21
-1.8426118682
  0
LINE
  5
350
100
AcDbEntity
  8
RACCORDO
100
AcDbLine
 62
250
  6
CONTINUOUS
 10
-14.080392153
 20
-8.9064672638
 11
-13.1863322607
 21
-8.0124073715
  0
LWPOLYLINE
  5
351
100
AcDbEntity
  8
RACCORDO
100
AcDbPolyline
 62
250
  6
CONTINUOUS
 90
13
 70
0
 10
12.4868728201
 20
8.1507977093
 10
12.4672629951
 20
8.1448514015
 10
12.4478895343
 20
8.1368890636
 10
12.4289859532
 20
8.1270066684
 10
12.4107801032
 20
8.1153233322
 10
12.3934914261
 20
8.1019798782
 10
12.3773283086
 20
8.08713714
 10
12.3624855704
 20
8.0709740225
 10
12.3491421164
 20
8.0536853454
 10
12.3374587802
 20
8.0354794954
 10
12.327576385
 20
8.0165759143
 10
12.3196140471
 20
7.9972024535
 10
12.3136677393
 20
7.9775926285
  0
LINE
  5
352
100
AcDbEntity
  8
RACCORDO
100
AcDbLine
 62
250
  6
CONTINUOUS
 10
-13.1863322607
 20
7.9775926285
 11
-14.080392153
 21
8.8716525209
  0
LWPOLYLINE
  5
353
100
AcDbEntity
  8
RACCORDO
100
AcDbPolyline
 62
250
  6
CONTINUOUS
 90
19
 70
0
 10
-3.2726571261
 20
8.8716511265
 10
-3.2742041379
 20
8.9063205277
 10
-3.2783223758
 20
8.9395397605
 10
-3.2850118398
 20
8.9713088248
 10
-3.2943207497
 20
9.0017017875
 10
-3.3062008857
 20
9.0306445818
 10
-3.3205075883
 20
9.0579150071
 10
-3.3374954865
 20
9.0836972205
 10
-3.3569099513
 20
9.1078070649
 10
-3.3778424366
 20
9.1294698675
 10
-3.4001966209
 20
9.1483792628
 10
-3.4240688256
 20
9.1648416163
 10
-3.4488394687
 20
9.1790013521
 10
-3.4741547404
 20
9.1908262768
 10
-3.5003684504
 20
9.2003485837
 10
-3.5279224455
 20
9.2078092772
 10
-3.5569640082
 20
9.2132886923
 10
-3.587345856
 20
9.216706494
 10
-3.6190679891
 20
9.2180626824
  0
LINE
  5
354
100
AcDbEntity
  8
RACCORDO
100
AcDbLine
 62
7
  6
CONTINUOUS
 10
-1.9878769918
 20
-1.8426118682
 11
-1.9867044584
 21
-5.6910303414
  0
LINE
  5
355
100
AcDbEntity
  8
RACCORDO
100
AcDbLine
 62
250
  6
CONTINUOUS
 10
-3.4458622069
 20
-8.9064672638
 11
-3.4458622069
 21
8.8716525209
  0
LINE
  5
356
100
AcDbEntity
  8
RACCORDO
100
AcDbLine
 62
250
  6
CONTINUOUS
 10
-3.2726571261
 20
-8.9064661661
 11
-3.2726571261
 21
8.8716511265
  0
LINE
  5
357
100
AcDbEntity
  8
RACCORDO
100
AcDbLine
 62
250
  6
CONTINUOUS
 10
-2.3079363589
 20
-5.7123079333
 11
-2.3079363589
 21
-1.8225068096
  0
LINE
  5
358
100
AcDbEntity
  8
RACCORDO
100
AcDbLine
 62
250
  6
CONTINUOUS
 10
-2.0079820503
 20
-5.7123079333
 11
-2.0079820503
 21
-1.8225068096
  0
LWPOLYLINE
  5
359
100
AcDbEntity
  8
RACCORDO
100
AcDbPolyline
 62
250
  6
CONTINUOUS
 90
19
 70
0
 10
-2.0079820382
 20
-1.8225068218
 10
-2.0067379355
 20
-1.7951149538
 10
-2.0030019352
 20
-1.7679706198
 10
-1.99681002
 20
-1.7412993357
 10
-1.9882071511
 20
-1.7152921421
 10
-1.9772753754
 20
-1.6901956233
 10
-1.9641597502
 20
-1.6662985448
 10
-1.9488849422
 20
-1.6436346181
 10
-1.931685149
 20
-1.6225409389
 10
-1.9132019202
 20
-1.6036167524
 10
-1.8940187068
 20
-1.5871014909
 10
-1.8741473967
 20
-1.5726862592
 10
-1.8534147523
 20
-1.5600844277
 10
-1.8322265738
 20
-1.5494248274
 10
-1.8105318191
 20
-1.5405714217
 10
-1.7872860022
 20
-1.5331842324
 10
-1.7621634563
 20
-1.5274593054
 10
-1.735685547
 20
-1.5238213712
 10
-1.7080277334
 20
-1.5225525094
  0
LWPOLYLINE
  5
35A
100
AcDbEntity
  8
RACCORDO
100
AcDbPolyline
 62
250
  6
CONTINUOUS
 90
19
 70
0
 10
-2.3079363589
 20
-1.8225068096
 10
-2.3052451704
 20
-1.7670053104
 10
-2.2977829258
 20
-1.7128812013
 10
-2.2855496251
 20
-1.6601344822
 10
-2.2683103468
 20
-1.6083124525
 10
-2.2463000124
 20
-1.557867813
 10
-2.2202233858
 20
-1.5101586657
 10
-2.1896133485
 20
-1.4651316962
 10
-2.154937019
 20
-1.422840219
 10
-2.1183005165
 20
-1.3848022799
 10
-2.0802217226
 20
-1.3517102298
 10
-2.0401827558
 20
-1.3228717179
 10
-1.99873609
 20
-1.2977277369
 10
-1.9565685361
 20
-1.2761190918
 10
-1.9129932832
 20
-1.2582049778
 10
-1.8665023732
 20
-1.243903973
 10
-1.8165931532
 20
-1.2331889369
 10
-1.7637682761
 20
-1.2260870101
 10
-1.7080277418
 20
-1.2225981925
  0
LINE
  5
35B
100
AcDbEntity
  8
RACCORDO
100
AcDbLine
 62
250
  6
CONTINUOUS
 10
-13.9071870723
 20
-9.0796723446
 11
-13.0131271799
 21
-8.1856124522
  0
LINE
  5
35C
100
AcDbEntity
  8
RACCORDO
100
AcDbLine
 62
250
  6
CONTINUOUS
 10
-10.5079820503
 20
-5.7123079333
 11
-10.4867044584
 21
-5.6910303414
  0
LINE
  5
35D
100
AcDbEntity
  8
RACCORDO
100
AcDbLine
 62
250
  6
CONTINUOUS
 10
-10.2080277418
 20
-6.0122622419
 11
-10.1866587878
 21
-5.9908932879
  0
LINE
  5
35E
100
AcDbEntity
  8
RACCORDO
100
AcDbLine
 62
250
  6
CONTINUOUS
 10
4.8809327124
 20
9.0448576016
 11
3.9868728201
 21
8.1507977093
  0
LINE
  5
35F
100
AcDbEntity
  8
RACCORDO
100
AcDbLine
 62
250
  6
CONTINUOUS
 10
5.0541377931
 20
8.8716525209
 11
4.1600779008
 21
7.9775926285
  0
LINE
  5
360
100
AcDbEntity
  8
RACCORDO
100
AcDbLine
 62
7
  6
CONTINUOUS
 10
23.4368728201
 20
-2.5174073715
 11
22.7349458952
 21
-2.5174073715
  0
LINE
  5
361
100
AcDbEntity
  8
RACCORDO
100
AcDbLine
 62
7
  6
CONTINUOUS
 10
-23.2612002551
 20
-2.5174073715
 11
-23.9631271799
 21
-2.5174073715
  0
LINE
  5
362
100
AcDbEntity
  8
RACCORDO
100
AcDbLine
 62
250
  6
CONTINUOUS
 10
-23.2631271799
 20
-2.2174073715
 11
-24.2631271799
 21
-2.2174073715
  0
LINE
  5
363
100
AcDbEntity
  8
RACCORDO
100
AcDbLine
 62
250
  6
CONTINUOUS
 10
22.7368728201
 20
-2.2174073714
 11
23.7368728201
 21
-2.2174073715
  0
LINE
  5
364
100
AcDbEntity
  8
RACCORDO
100
AcDbLine
 62
250
  6
CONTINUOUS
 10
18.781681999
 20
-1.8225068096
 11
18.4817276904
 21
-1.8225068096
  0
LINE
  5
365
100
AcDbEntity
  8
RACCORDO
100
AcDbLine
 62
250
  6
CONTINUOUS
 10
-10.8079363589
 20
-1.8225068096
 11
-10.5079820503
 21
-1.8225068096
  0
LINE
  5
366
100
AcDbEntity
  8
RACCORDO
100
AcDbLine
 62
250
  6
CONTINUOUS
 10
10.281681999
 20
-1.8225068096
 11
9.9817276904
 21
-1.8225068096
  0
LINE
  5
367
100
AcDbEntity
  8
RACCORDO
100
AcDbLine
 62
250
  6
CONTINUOUS
 10
-2.3079363589
 20
-1.8225068096
 11
-2.0079820503
 21
-1.8225068096
  0
LINE
  5
368
100
AcDbEntity
  8
RACCORDO
100
AcDbLine
 62
250
  6
CONTINUOUS
 10
1.781681999
 20
-1.8225068096
 11
1.4817276904
 21
-1.8225068096
  0
LINE
  5
369
100
AcDbEntity
  8
RACCORDO
100
AcDbLine
 62
250
  6
CONTINUOUS
 10
6.1920636411
 20
-1.8225068096
 11
6.4920179497
 21
-1.8225068096
  0
LINE
  5
36A
100
AcDbEntity
  8
RACCORDO
100
AcDbLine
 62
250
  6
CONTINUOUS
 10
-6.718318001
 20
-1.8225068096
 11
-7.0182723096
 21
-1.8225068096
  0
LINE
  5
36B
100
AcDbEntity
  8
RACCORDO
100
AcDbLine
 62
250
  6
CONTINUOUS
 10
14.6920636411
 20
-1.8225068096
 11
14.9920179497
 21
-1.8225068096
  0
LINE
  5
36C
100
AcDbEntity
  8
0
100
AcDbLine
 62
7
  6
CONTINUOUS
 10
-10.4631271799
 20
-1.7174073715
 11
-7.0631271799
 21
-1.7174073715
  0
LINE
  5
36D
100
AcDbEntity
  8
0
100
AcDbLine
 62
7
  6
CONTINUOUS
 10
-1.9631271799
 20
-1.7174073715
 11
1.4368728201
 21
-1.7174073715
  0
LINE
  5
36E
100
AcDbEntity
  8
0
100
AcDbLine
 62
7
  6
CONTINUOUS
 10
6.5368728201
 20
-1.7174073715
 11
9.9368728201
 21
-1.7174073715
  0
LINE
  5
36F
100
AcDbEntity
  8
0
100
AcDbLine
 62
7
  6
CONTINUOUS
 10
15.0368728201
 20
-1.7174073715
 11
18.4368728201
 21
-1.7174073715
  0
LWPOLYLINE
  5
370
100
AcDbEntity
  8
RACCORDO
100
AcDbPolyline
 62
250
  6
CONTINUOUS
 90
19
 70
0
 10
-7.3182266303
 20
-1.5225525133
 10
-7.2908347623
 20
-1.5237966159
 10
-7.2636904282
 20
-1.5275326163
 10
-7.2370191442
 20
-1.5337245314
 10
-7.2110119506
 20
-1.5423274004
 10
-7.1859154318
 20
-1.553259176
 10
-7.1620183532
 20
-1.5663748012
 10
-7.1393544265
 20
-1.5816496092
 10
-7.1182607474
 20
-1.5988494024
 10
-7.0993365609
 20
-1.6173326312
 10
-7.0828212993
 20
-1.6365158446
 10
-7.0684060677
 20
-1.6563871547
 10
-7.0558042362
 20
-1.6771197991
 10
-7.0451446359
 20
-1.6983079776
 10
-7.0362912301
 20
-1.7200027323
 10
-7.0289040408
 20
-1.7432485492
 10
-7.0231791139
 20
-1.7683710951
 10
-7.0195411797
 20
-1.7948490044
 10
-7.0182723179
 20
-1.822506818
  0
LWPOLYLINE
  5
371
100
AcDbEntity
  8
RACCORDO
100
AcDbPolyline
 62
250
  6
CONTINUOUS
 90
19
 70
0
 10
-7.3182266181
 20
-1.2225981925
 10
-7.2627251189
 20
-1.225289381
 10
-7.2086010097
 20
-1.2327516256
 10
-7.1558542907
 20
-1.2449849263
 10
-7.104032261
 20
-1.2622242046
 10
-7.0535876214
 20
-1.284234539
 10
-7.0058784741
 20
-1.3103111656
 10
-6.9608515046
 20
-1.3409212029
 10
-6.9185600275
 20
-1.3755975324
 10
-6.8805220883
 20
-1.412234035
 10
-6.8474300383
 20
-1.4503128288
 10
-6.8185915263
 20
-1.4903517956
 10
-6.7934475454
 20
-1.5317984614
 10
-6.7718389003
 20
-1.5739660153
 10
-6.7539247863
 20
-1.6175412682
 10
-6.7396237815
 20
-1.6640321782
 10
-6.7289087454
 20
-1.7139413982
 10
-6.7218068186
 20
-1.7667662753
 10
-6.718318001
 20
-1.8225068096
  0
LINE
  5
372
100
AcDbEntity
  8
RACCORDO
100
AcDbLine
 62
250
  6
CONTINUOUS
 10
-13.0131271799
 20
8.1507977093
 11
-13.9071870723
 21
9.0448576016
  0
LINE
  5
373
100
AcDbEntity
  8
RACCORDO
100
AcDbLine
 62
250
  6
CONTINUOUS
 10
1.1817733819
 20
-6.0122622419
 11
1.1604044279
 21
-5.9908932879
  0
LINE
  5
374
100
AcDbEntity
  8
RACCORDO
100
AcDbLine
 62
250
  6
CONTINUOUS
 10
1.4817276904
 20
-5.7123079333
 11
1.4604500985
 21
-5.6910303414
  0
LINE
  5
375
100
AcDbEntity
  8
RACCORDO
100
AcDbLine
 62
250
  6
CONTINUOUS
 10
3.9868728201
 20
-8.1856124522
 11
4.8809327124
 21
-9.0796723446
  0
LINE
  5
376
100
AcDbEntity
  8
RACCORDO
100
AcDbLine
 62
250
  6
CONTINUOUS
 10
4.1600779008
 20
-8.0124073715
 11
5.0541377931
 21
-8.9064672638
  0
LINE
  5
377
100
AcDbEntity
  8
RACCORDO
100
AcDbLine
 62
250
  6
CONTINUOUS
 10
-2.0079820503
 20
-1.8225068096
 11
-1.9878769918
 21
-1.8426118682
  0
LINE
  5
378
100
AcDbEntity
  8
RACCORDO
100
AcDbLine
 62
250
  6
CONTINUOUS
 10
-1.7080277418
 20
-1.5225525011
 11
-1.688014101
 21
-1.5425661419
  0
LWPOLYLINE
  5
379
100
AcDbEntity
  8
RACCORDO
100
AcDbPolyline
 62
250
  6
CONTINUOUS
 90
16
 70
0
 10
-4.3399220992
 20
7.9775926285
 10
-4.3439143266
 20
7.9914727947
 10
-4.3491719014
 20
8.0058768192
 10
-4.3557993154
 20
8.0206921285
 10
-4.3639696339
 20
8.0359197929
 10
-4.3737000045
 20
8.0512487778
 10
-4.3847386908
 20
8.0661048803
 10
-4.3970053325
 20
8.0803137673
 10
-4.4104429949
 20
8.0937488038
 10
-4.4246527592
 20
8.1060114259
 10
-4.4395077893
 20
8.11704507
 10
-4.4548336106
 20
8.126769789
 10
-4.4700559291
 20
8.134934343
 10
-4.48486376
 20
8.141556319
 10
-4.4992583128
 20
8.1468091577
 10
-4.5131271799
 20
8.1507977093
  0
LINE
  5
37A
100
AcDbEntity
  8
RACCORDO
100
AcDbLine
 62
250
  6
CONTINUOUS
 10
-1.7080277418
 20
-1.2225981925
 11
-1.7080277418
 21
-1.5225525011
  0
LINE
  5
37B
100
AcDbEntity
  8
RACCORDO
100
AcDbLine
 62
250
  6
CONTINUOUS
 10
-1.7080277418
 20
-6.3122165504
 11
-1.7080277418
 21
-6.0122622419
  0
LINE
  5
37C
100
AcDbEntity
  8
0
100
AcDbLine
 62
7
  6
CONTINUOUS
 10
-1.5131271799
 20
-5.9174073715
 11
-1.5131271799
 21
-5.9908932879
  0
LINE
  5
37D
100
AcDbEntity
  8
0
100
AcDbLine
 62
250
  6
CONTINUOUS
 10
-1.2131271799
 20
-5.9174073715
 11
-1.2131271799
 21
-5.9908932879
  0
LINE
  5
37E
100
AcDbEntity
  8
RACCORDO
100
AcDbLine
 62
250
  6
CONTINUOUS
 10
-1.1404847413
 20
-11.3480018518
 11
-1.1404847413
 21
-10.4368128911
  0
LINE
  5
37F
100
AcDbEntity
  8
RACCORDO
100
AcDbLine
 62
7
  6
CONTINUOUS
 10
18.1617597411
 20
-1.5425661419
 11
15.311985899
 21
-1.5425661419
  0
LINE
  5
380
100
AcDbEntity
  8
RACCORDO
100
AcDbLine
 62
7
  6
CONTINUOUS
 10
9.6617597411
 20
-1.5425661419
 11
6.811985899
 21
-1.5425661419
  0
LINE
  5
381
100
AcDbEntity
  8
RACCORDO
100
AcDbLine
 62
7
  6
CONTINUOUS
 10
1.1617597411
 20
-1.5425661419
 11
-1.688014101
 21
-1.5425661419
  0
LINE
  5
382
100
AcDbEntity
  8
RACCORDO
100
AcDbLine
 62
7
  6
CONTINUOUS
 10
-7.3382402589
 20
-1.5425661419
 11
-10.188014101
 21
-1.5425661419
  0
LINE
  5
383
100
AcDbEntity
  8
RACCORDO
100
AcDbLine
 62
250
  6
CONTINUOUS
 10
-10.2080277418
 20
-1.5225525011
 11
-7.3182266181
 21
-1.5225525011
  0
LINE
  5
384
100
AcDbEntity
  8
RACCORDO
100
AcDbLine
 62
250
  6
CONTINUOUS
 10
-1.7080277418
 20
-1.5225525011
 11
1.1817733819
 21
-1.5225525011
  0
LINE
  5
385
100
AcDbEntity
  8
RACCORDO
100
AcDbLine
 62
250
  6
CONTINUOUS
 10
6.7919722582
 20
-1.5225525011
 11
9.6817733819
 21
-1.5225525011
  0
LINE
  5
386
100
AcDbEntity
  8
RACCORDO
100
AcDbLine
 62
250
  6
CONTINUOUS
 10
15.2919722582
 20
-1.5225525011
 11
18.1817733819
 21
-1.5225525011
  0
LINE
  5
387
100
AcDbEntity
  8
RACCORDO
100
AcDbLine
 62
250
  6
CONTINUOUS
 10
-10.2080277418
 20
-1.2225981925
 11
-7.3182266181
 21
-1.2225981925
  0
LINE
  5
388
100
AcDbEntity
  8
RACCORDO
100
AcDbLine
 62
250
  6
CONTINUOUS
 10
-1.7080277418
 20
-1.2225981925
 11
1.1817733819
 21
-1.2225981925
  0
LINE
  5
389
100
AcDbEntity
  8
RACCORDO
100
AcDbLine
 62
250
  6
CONTINUOUS
 10
6.7919722582
 20
-1.2225981925
 11
9.6817733819
 21
-1.2225981925
  0
LINE
  5
38A
100
AcDbEntity
  8
RACCORDO
100
AcDbLine
 62
250
  6
CONTINUOUS
 10
15.2919722582
 20
-1.2225981925
 11
18.1817733819
 21
-1.2225981925
  0
LWPOLYLINE
  5
38B
100
AcDbEntity
  8
RACCORDO
100
AcDbPolyline
 62
250
  6
CONTINUOUS
 90
19
 70
0
 10
1.1817733697
 20
-1.5225525133
 10
1.2091652377
 20
-1.5237966159
 10
1.2363095718
 20
-1.5275326163
 10
1.2629808558
 20
-1.5337245314
 10
1.2889880494
 20
-1.5423274004
 10
1.3140845682
 20
-1.553259176
 10
1.3379816468
 20
-1.5663748012
 10
1.3606455735
 20
-1.5816496092
 10
1.3817392526
 20
-1.5988494024
 10
1.4006634391
 20
-1.6173326312
 10
1.4171787007
 20
-1.6365158446
 10
1.4315939323
 20
-1.6563871547
 10
1.4441957638
 20
-1.6771197991
 10
1.4548553641
 20
-1.6983079776
 10
1.4637087699
 20
-1.7200027323
 10
1.4710959592
 20
-1.7432485492
 10
1.4768208861
 20
-1.7683710951
 10
1.4804588203
 20
-1.7948490044
 10
1.4817276821
 20
-1.822506818
  0
LWPOLYLINE
  5
38C
100
AcDbEntity
  8
RACCORDO
100
AcDbPolyline
 62
250
  6
CONTINUOUS
 90
19
 70
0
 10
9.6817733697
 20
-1.5225525133
 10
9.7091652377
 20
-1.5237966159
 10
9.7363095718
 20
-1.5275326163
 10
9.7629808558
 20
-1.5337245314
 10
9.7889880494
 20
-1.5423274004
 10
9.8140845682
 20
-1.553259176
 10
9.8379816468
 20
-1.5663748012
 10
9.8606455735
 20
-1.5816496092
 10
9.8817392526
 20
-1.5988494024
 10
9.9006634391
 20
-1.6173326312
 10
9.9171787007
 20
-1.6365158446
 10
9.9315939323
 20
-1.6563871547
 10
9.9441957638
 20
-1.6771197991
 10
9.9548553641
 20
-1.6983079776
 10
9.9637087699
 20
-1.7200027323
 10
9.9710959592
 20
-1.7432485492
 10
9.9768208861
 20
-1.7683710951
 10
9.9804588203
 20
-1.7948490044
 10
9.9817276821
 20
-1.822506818
  0
LWPOLYLINE
  5
38D
100
AcDbEntity
  8
RACCORDO
100
AcDbPolyline
 62
250
  6
CONTINUOUS
 90
19
 70
0
 10
18.1817733697
 20
-1.5225525133
 10
18.2091652377
 20
-1.5237966159
 10
18.2363095718
 20
-1.5275326163
 10
18.2629808558
 20
-1.5337245314
 10
18.2889880494
 20
-1.5423274004
 10
18.3140845682
 20
-1.553259176
 10
18.3379816468
 20
-1.5663748012
 10
18.3606455735
 20
-1.5816496092
 10
18.3817392526
 20
-1.5988494024
 10
18.4006634391
 20
-1.6173326312
 10
18.4171787007
 20
-1.6365158446
 10
18.4315939323
 20
-1.6563871547
 10
18.4441957638
 20
-1.6771197991
 10
18.4548553641
 20
-1.6983079776
 10
18.4637087699
 20
-1.7200027323
 10
18.4710959592
 20
-1.7432485492
 10
18.4768208861
 20
-1.7683710951
 10
18.4804588203
 20
-1.7948490044
 10
18.4817276821
 20
-1.822506818
  0
LWPOLYLINE
  5
38E
100
AcDbEntity
  8
RACCORDO
100
AcDbPolyline
 62
250
  6
CONTINUOUS
 90
19
 70
0
 10
1.1817733819
 20
-1.2225981925
 10
1.2372748811
 20
-1.225289381
 10
1.2913989903
 20
-1.2327516256
 10
1.3441457093
 20
-1.2449849263
 10
1.395967739
 20
-1.2622242046
 10
1.4464123786
 20
-1.284234539
 10
1.4941215259
 20
-1.3103111656
 10
1.5391484954
 20
-1.3409212029
 10
1.5814399725
 20
-1.3755975324
 10
1.6194779117
 20
-1.412234035
 10
1.6525699617
 20
-1.4503128288
 10
1.6814084737
 20
-1.4903517956
 10
1.7065524546
 20
-1.5317984614
 10
1.7281610997
 20
-1.5739660153
 10
1.7460752137
 20
-1.6175412682
 10
1.7603762185
 20
-1.6640321782
 10
1.7710912546
 20
-1.7139413982
 10
1.7781931814
 20
-1.7667662753
 10
1.781681999
 20
-1.8225068096
  0
LWPOLYLINE
  5
38F
100
AcDbEntity
  8
RACCORDO
100
AcDbPolyline
 62
250
  6
CONTINUOUS
 90
19
 70
0
 10
9.6817733819
 20
-1.2225981925
 10
9.7372748811
 20
-1.225289381
 10
9.7913989903
 20
-1.2327516256
 10
9.8441457093
 20
-1.2449849263
 10
9.895967739
 20
-1.2622242046
 10
9.9464123786
 20
-1.284234539
 10
9.9941215259
 20
-1.3103111656
 10
10.0391484954
 20
-1.3409212029
 10
10.0814399725
 20
-1.3755975324
 10
10.1194779117
 20
-1.412234035
 10
10.1525699617
 20
-1.4503128288
 10
10.1814084737
 20
-1.4903517956
 10
10.2065524546
 20
-1.5317984614
 10
10.2281610997
 20
-1.5739660153
 10
10.2460752137
 20
-1.6175412682
 10
10.2603762185
 20
-1.6640321782
 10
10.2710912546
 20
-1.7139413982
 10
10.2781931814
 20
-1.7667662753
 10
10.281681999
 20
-1.8225068096
  0
LWPOLYLINE
  5
390
100
AcDbEntity
  8
RACCORDO
100
AcDbPolyline
 62
250
  6
CONTINUOUS
 90
19
 70
0
 10
18.1817733819
 20
-1.2225981925
 10
18.2372748811
 20
-1.225289381
 10
18.2913989903
 20
-1.2327516256
 10
18.3441457093
 20
-1.2449849263
 10
18.395967739
 20
-1.2622242046
 10
18.4464123786
 20
-1.284234539
 10
18.4941215259
 20
-1.3103111656
 10
18.5391484954
 20
-1.3409212029
 10
18.5814399725
 20
-1.3755975324
 10
18.6194779117
 20
-1.412234035
 10
18.6525699617
 20
-1.4503128288
 10
18.6814084737
 20
-1.4903517956
 10
18.7065524546
 20
-1.5317984614
 10
18.7281610997
 20
-1.5739660153
 10
18.7460752137
 20
-1.6175412682
 10
18.7603762185
 20
-1.6640321782
 10
18.7710912546
 20
-1.7139413982
 10
18.7781931814
 20
-1.7667662753
 10
18.781681999
 20
-1.8225068096
  0
LINE
  5
391
100
AcDbEntity
  8
RACCORDO
100
AcDbLine
 62
250
  6
CONTINUOUS
 10
0.6142303814
 20
-11.3480018518
 11
0.6142303814
 21
-10.4368128911
  0
LINE
  5
392
100
AcDbEntity
  8
0
100
AcDbLine
 62
250
  6
CONTINUOUS
 10
0.6868728201
 20
-5.9174073715
 11
0.6868728201
 21
-5.9908932879
  0
LINE
  5
393
100
AcDbEntity
  8
0
100
AcDbLine
 62
7
  6
CONTINUOUS
 10
0.9868728201
 20
-5.9174073715
 11
0.9868728201
 21
-5.9908932879
  0
LINE
  5
394
100
AcDbEntity
  8
RACCORDO
100
AcDbLine
 62
250
  6
CONTINUOUS
 10
1.1817733819
 20
-1.2225981925
 11
1.1817733819
 21
-1.5225525011
  0
LINE
  5
395
100
AcDbEntity
  8
RACCORDO
100
AcDbLine
 62
250
  6
CONTINUOUS
 10
1.1817733819
 20
-6.3122165504
 11
1.1817733819
 21
-6.0122622419
  0
LINE
  5
396
100
AcDbEntity
  8
RACCORDO
100
AcDbLine
 62
250
  6
CONTINUOUS
 10
1.4817276904
 20
-1.8225068096
 11
1.4817276904
 21
-5.7123079333
  0
LINE
  5
397
100
AcDbEntity
  8
RACCORDO
100
AcDbLine
 62
7
  6
CONTINUOUS
 10
1.4604500985
 20
-5.6910303414
 11
1.4616226319
 21
-1.8426118682
  0
LWPOLYLINE
  5
398
100
AcDbEntity
  8
RACCORDO
100
AcDbPolyline
 62
250
  6
CONTINUOUS
 90
19
 70
0
 10
1.4817276783
 20
-5.7123079211
 10
1.4804835756
 20
-5.7396997891
 10
1.4767475753
 20
-5.7668441232
 10
1.4705556601
 20
-5.7935154073
 10
1.4619527912
 20
-5.8195226008
 10
1.4510210155
 20
-5.8446191197
 10
1.4379053904
 20
-5.8685161982
 10
1.4226305823
 20
-5.8911801249
 10
1.4054307891
 20
-5.912273804
 10
1.3869475603
 20
-5.9311979905
 10
1.3677643469
 20
-5.9477132521
 10
1.3478930368
 20
-5.9621284837
 10
1.3271603925
 20
-5.9747303153
 10
1.3059722139
 20
-5.9853899155
 10
1.2842774593
 20
-5.9942433213
 10
1.2610316423
 20
-6.0016305106
 10
1.2359090964
 20
-6.0073554375
 10
1.2094311872
 20
-6.0109933718
 10
1.1817733736
 20
-6.0122622335
  0
LWPOLYLINE
  5
399
100
AcDbEntity
  8
RACCORDO
100
AcDbPolyline
 62
250
  6
CONTINUOUS
 90
16
 70
0
 10
3.8136677393
 20
-8.0124073715
 10
3.8176599668
 20
-8.0262875377
 10
3.8229175415
 20
-8.0406915622
 10
3.8295449555
 20
-8.0555068714
 10
3.837715274
 20
-8.0707345359
 10
3.8474456446
 20
-8.0860635208
 10
3.8584843309
 20
-8.1009196232
 10
3.8707509726
 20
-8.1151285102
 10
3.884188635
 20
-8.1285635467
 10
3.8983983993
 20
-8.1408261689
 10
3.9132534294
 20
-8.151859813
 10
3.9285792507
 20
-8.1615845319
 10
3.9438015692
 20
-8.169749086
 10
3.9586094001
 20
-8.1763710619
 10
3.9730039529
 20
-8.1816239006
 10
3.9868728201
 20
-8.1856124522
  0
LWPOLYLINE
  5
39A
100
AcDbEntity
  8
RACCORDO
100
AcDbPolyline
 62
250
  6
CONTINUOUS
 90
19
 70
0
 10
2.7464027662
 20
-8.9064658695
 10
2.747949778
 20
-8.9411352707
 10
2.7520680159
 20
-8.9743545034
 10
2.7587574799
 20
-9.0061235677
 10
2.7680663898
 20
-9.0365165305
 10
2.7799465258
 20
-9.0654593248
 10
2.7942532285
 20
-9.09272975
 10
2.8112411266
 20
-9.1185119635
 10
2.8306555914
 20
-9.1426218079
 10
2.8515880767
 20
-9.1642846105
 10
2.873942261
 20
-9.1831940058
 10
2.8978144658
 20
-9.1996563593
 10
2.9225851088
 20
-9.2138160951
 10
2.9479003805
 20
-9.2256410197
 10
2.9741140905
 20
-9.2351633266
 10
3.0016680857
 20
-9.2426240202
 10
3.0307096483
 20
-9.2481034352
 10
3.0610914961
 20
-9.2515212369
 10
3.0928136292
 20
-9.2528774253
  0
LINE
  5
39B
100
AcDbEntity
  8
RACCORDO
100
AcDbLine
 62
250
  6
CONTINUOUS
 10
1.781681999
 20
-1.8225068096
 11
1.781681999
 21
-5.7123079333
  0
LINE
  5
39C
100
AcDbEntity
  8
RACCORDO
100
AcDbLine
 62
250
  6
CONTINUOUS
 10
2.7464027662
 20
8.8716514232
 11
2.7464027662
 21
-8.9064658695
  0
LINE
  5
39D
100
AcDbEntity
  8
RACCORDO
100
AcDbLine
 62
250
  6
CONTINUOUS
 10
2.919607847
 20
8.8716525209
 11
2.919607847
 21
-8.9064672638
  0
LINE
  5
39E
100
AcDbEntity
  8
RACCORDO
100
AcDbLine
 62
250
  6
CONTINUOUS
 10
3.0928129277
 20
-9.0796723446
 11
3.0928129277
 21
-9.2528774253
  0
LINE
  5
39F
100
AcDbEntity
  8
RACCORDO
100
AcDbLine
 62
250
  6
CONTINUOUS
 10
3.0928129277
 20
9.0448576016
 11
3.0928129277
 21
9.2180626824
  0
LWPOLYLINE
  5
3A0
100
AcDbEntity
  8
RACCORDO
100
AcDbPolyline
 62
250
  6
CONTINUOUS
 90
19
 70
0
 10
1.781681999
 20
-5.7123079333
 10
1.7789908106
 20
-5.7678094325
 10
1.771528566
 20
-5.8219335417
 10
1.7592952652
 20
-5.8746802607
 10
1.7420559869
 20
-5.9265022904
 10
1.7200456525
 20
-5.97694693
 10
1.6939690259
 20
-6.0246560773
 10
1.6633589886
 20
-6.0696830468
 10
1.6286826591
 20
-6.111974524
 10
1.5920461566
 20
-6.1500124631
 10
1.5539673628
 20
-6.1831045131
 10
1.5139283959
 20
-6.2119430251
 10
1.4724817302
 20
-6.237087006
 10
1.4303141762
 20
-6.2586956511
 10
1.3867389233
 20
-6.2766097651
 10
1.3402480133
 20
-6.2909107699
 10
1.2903387933
 20
-6.301625806
 10
1.2375139162
 20
-6.3087277328
 10
1.1817733819
 20
-6.3122165504
  0
LINE
  5
3A1
100
AcDbEntity
  8
RACCORDO
100
AcDbLine
 62
250
  6
CONTINUOUS
 10
1.1817733819
 20
-1.5225525011
 11
1.1617597411
 21
-1.5425661419
  0
LINE
  5
3A2
100
AcDbEntity
  8
RACCORDO
100
AcDbLine
 62
250
  6
CONTINUOUS
 10
1.4817276904
 20
-1.8225068096
 11
1.4616226319
 21
-1.8426118682
  0
LINE
  5
3A3
100
AcDbEntity
  8
RACCORDO
100
AcDbLine
 62
250
  6
CONTINUOUS
 10
-5.580392153
 20
-8.9064672638
 11
-4.6863322607
 21
-8.0124073715
  0
LINE
  5
3A4
100
AcDbEntity
  8
RACCORDO
100
AcDbLine
 62
250
  6
CONTINUOUS
 10
-5.4071870723
 20
-9.0796723446
 11
-4.5131271799
 21
-8.1856124522
  0
LINE
  5
3A5
100
AcDbEntity
  8
RACCORDO
100
AcDbLine
 62
250
  6
CONTINUOUS
 10
-2.0079820503
 20
-5.7123079333
 11
-1.9867044584
 21
-5.6910303414
  0
LINE
  5
3A6
100
AcDbEntity
  8
RACCORDO
100
AcDbLine
 62
250
  6
CONTINUOUS
 10
-1.7080277418
 20
-6.0122622419
 11
-1.6866587878
 21
-5.9908932879
  0
LINE
  5
3A7
100
AcDbEntity
  8
RACCORDO
100
AcDbLine
 62
250
  6
CONTINUOUS
 10
13.3809327124
 20
9.0448576016
 11
12.4868728201
 21
8.1507977093
  0
LINE
  5
3A8
100
AcDbEntity
  8
RACCORDO
100
AcDbLine
 62
250
  6
CONTINUOUS
 10
13.5541377931
 20
8.8716525209
 11
12.6600779008
 21
7.9775926285
  0
LINE
  5
3A9
100
AcDbEntity
  8
RACCORDO
100
AcDbLine
 62
250
  6
CONTINUOUS
 10
22.7368728201
 20
2.1825926285
 11
23.7368728201
 21
2.1825926285
  0
LINE
  5
3AA
100
AcDbEntity
  8
RACCORDO
100
AcDbLine
 62
250
  6
CONTINUOUS
 10
-23.2631271799
 20
2.1825926285
 11
-24.2631271799
 21
2.1825926285
  0
LINE
  5
3AB
100
AcDbEntity
  8
RACCORDO
100
AcDbLine
 62
7
  6
CONTINUOUS
 10
-23.9631271799
 20
2.4825926285
 11
-23.2612002551
 21
2.4825926285
  0
LINE
  5
3AC
100
AcDbEntity
  8
RACCORDO
100
AcDbLine
 62
7
  6
CONTINUOUS
 10
22.7349458952
 20
2.4825926285
 11
23.4368728201
 21
2.4825926285
  0
LINE
  5
3AD
100
AcDbEntity
  8
RACCORDO
100
AcDbLine
 62
250
  6
CONTINUOUS
 10
-4.6863322607
 20
7.9775926285
 11
-5.580392153
 21
8.8716525209
  0
LINE
  5
3AE
100
AcDbEntity
  8
RACCORDO
100
AcDbLine
 62
250
  6
CONTINUOUS
 10
-4.5131271799
 20
8.1507977093
 11
-5.4071870723
 21
9.0448576016
  0
LINE
  5
3AF
100
AcDbEntity
  8
RACCORDO
100
AcDbLine
 62
250
  6
CONTINUOUS
 10
9.6817733819
 20
-6.0122622419
 11
9.6604044279
 21
-5.9908932879
  0
LINE
  5
3B0
100
AcDbEntity
  8
RACCORDO
100
AcDbLine
 62
250
  6
CONTINUOUS
 10
9.9817276904
 20
-5.7123079333
 11
9.9604500985
 21
-5.6910303414
  0
LINE
  5
3B1
100
AcDbEntity
  8
RACCORDO
100
AcDbLine
 62
250
  6
CONTINUOUS
 10
12.4868728201
 20
-8.1856124522
 11
13.3809327124
 21
-9.0796723446
  0
LINE
  5
3B2
100
AcDbEntity
  8
RACCORDO
100
AcDbLine
 62
250
  6
CONTINUOUS
 10
12.6600779008
 20
-8.0124073715
 11
13.5541377931
 21
-8.9064672638
  0
LINE
  5
3B3
100
AcDbEntity
  8
RACCORDO
100
AcDbLine
 62
250
  6
CONTINUOUS
 10
6.4920179497
 20
-1.8225068096
 11
6.5121230082
 21
-1.8426118682
  0
LINE
  5
3B4
100
AcDbEntity
  8
RACCORDO
100
AcDbLine
 62
250
  6
CONTINUOUS
 10
3.6137734669
 20
-11.0943537098
 11
3.6137734669
 21
-10.6904610332
  0
LINE
  5
3B5
100
AcDbEntity
  8
RACCORDO
100
AcDbLine
 62
7
  6
CONTINUOUS
 10
3.7194177551
 20
-11.199997998
 11
3.7194177551
 21
-10.5848167449
  0
LINE
  5
3B6
100
AcDbEntity
  8
RACCORDO
100
AcDbLine
 62
250
  6
CONTINUOUS
 10
3.8136677393
 20
7.9775926285
 11
3.8136677393
 21
-8.0124073715
  0
LINE
  5
3B7
100
AcDbEntity
  8
RACCORDO
100
AcDbLine
 62
250
  6
CONTINUOUS
 10
4.1600779008
 20
7.9775926285
 11
4.1600779008
 21
-8.0124073715
  0
LINE
  5
3B8
100
AcDbEntity
  8
RACCORDO
100
AcDbLine
 62
250
  6
CONTINUOUS
 10
4.8809327124
 20
-9.0796723446
 11
4.8809327124
 21
-9.2528774253
  0
LINE
  5
3B9
100
AcDbEntity
  8
RACCORDO
100
AcDbLine
 62
250
  6
CONTINUOUS
 10
4.8809327124
 20
9.0448576016
 11
4.8809327124
 21
9.2180626824
  0
LINE
  5
3BA
100
AcDbEntity
  8
RACCORDO
100
AcDbLine
 62
250
  6
CONTINUOUS
 10
5.0541377931
 20
-8.9064672638
 11
5.0541377931
 21
8.8716525209
  0
LINE
  5
3BB
100
AcDbEntity
  8
RACCORDO
100
AcDbLine
 62
250
  6
CONTINUOUS
 10
5.2273428739
 20
-8.9064661661
 11
5.2273428739
 21
8.8716511265
  0
LWPOLYLINE
  5
3BC
100
AcDbEntity
  8
RACCORDO
100
AcDbPolyline
 62
7
  6
CONTINUOUS
 90
25
 70
0
 10
3.7193736378
 20
-11.2051431276
 10
3.7179568106
 20
-11.2298125181
 10
3.7146360281
 20
-11.2538238674
 10
3.7095510294
 20
-11.2770378554
 10
3.7028116315
 20
-11.2994536893
 10
3.6945867864
 20
-11.3208469709
 10
3.6851880507
 20
-11.3408026097
 10
3.6749476704
 20
-11.3591116556
 10
3.6639868817
 20
-11.3759731984
 10
3.6523138739
 20
-11.3916183808
 10
3.6401064814
 20
-11.406003922
 10
3.627462291
 20
-11.4191964322
 10
3.6141509499
 20
-11.4315192327
 10
3.6001509301
 20
-11.443007392
 10
3.5856038432
 20
-11.4535622759
 10
3.5704501959
 20
-11.4632329695
 10
3.5546225319
 20
-11.4720436681
 10
3.5382904166
 20
-11.4798813688
 10
3.5217591801
 20
-11.4866174924
 10
3.505127754
 20
-11.49226238
 10
3.4884463728
 20
-11.4968473891
 10
3.4719703569
 20
-11.5003602394
 10
3.4558309828
 20
-11.5028544171
 10
3.4400263466
 20
-11.5044113186
 10
3.4246085762
 20
-11.5050974362
  0
LWPOLYLINE
  5
3BD
100
AcDbEntity
  8
RACCORDO
100
AcDbPolyline
 62
250
  6
CONTINUOUS
 90
13
 70
0
 10
3.6137734669
 20
-11.0943537098
 10
3.611196387
 20
-11.133498057
 10
3.6035330706
 20
-11.1719728929
 10
3.5909145883
 20
-11.2091201573
 10
3.5735567622
 20
-11.2443044963
 10
3.5517564746
 20
-11.2769241294
 10
3.5258865899
 20
-11.3064211415
 10
3.4963895778
 20
-11.3322910261
 10
3.4637699448
 20
-11.3540913137
 10
3.4285856058
 20
-11.3714491397
 10
3.3914383414
 20
-11.384067622
 10
3.3529635055
 20
-11.3917309384
 10
3.3138191584
 20
-11.3943080183
  0
LWPOLYLINE
  5
3BE
100
AcDbEntity
  8
RACCORDO
100
AcDbPolyline
 62
250
  6
CONTINUOUS
 90
19
 70
0
 10
5.054134516
 20
8.8716492438
 10
5.0567619696
 20
8.8921720644
 10
5.0575968187
 20
8.911719277
 10
5.0566878016
 20
8.9302113112
 10
5.0541146797
 20
8.9475383679
 10
5.0499130115
 20
8.9636656685
 10
5.0440479786
 20
8.9786232324
 10
5.036447052
 20
8.9924468419
 10
5.0272577995
 20
9.0049419387
 10
5.0168082061
 20
9.0158242363
 10
5.0052479246
 20
9.0249465359
 10
4.9926271069
 20
9.032429425
 10
4.9791624109
 20
9.0384389141
 10
4.9651162558
 20
9.0429684023
 10
4.9503836392
 20
9.0460442085
 10
4.9345944471
 20
9.0478191684
 10
4.9176479183
 20
9.0482763793
 10
4.8997405715
 20
9.0473062834
 10
4.8809308134
 20
9.0448557026
  0
LWPOLYLINE
  5
3BF
100
AcDbEntity
  8
RACCORDO
100
AcDbPolyline
 62
250
  6
CONTINUOUS
 90
19
 70
0
 10
2.9196111241
 20
-8.9064639867
 10
2.9169836705
 20
-8.9269868074
 10
2.9161488214
 20
-8.9465340199
 10
2.9170578385
 20
-8.9650260541
 10
2.9196309604
 20
-8.9823531108
 10
2.9238326286
 20
-8.9984804114
 10
2.9296976615
 20
-9.0134379753
 10
2.9372985881
 20
-9.0272615848
 10
2.9464878407
 20
-9.0397566816
 10
2.956937434
 20
-9.0506389792
 10
2.9684977156
 20
-9.0597612788
 10
2.9811185332
 20
-9.0672441679
 10
2.9945832292
 20
-9.0732536571
 10
3.0086293843
 20
-9.0777831452
 10
3.0233620009
 20
-9.0808589515
 10
3.039151193
 20
-9.0826339114
 10
3.0560977218
 20
-9.0830911222
 10
3.0740050686
 20
-9.0821210263
 10
3.0928148267
 20
-9.0796704456
  0
LINE
  5
3C0
100
AcDbEntity
  8
RACCORDO
100
AcDbLine
 62
250
  6
CONTINUOUS
 10
-4.245672115
 20
-11.199997998
 11
-4.1400278268
 21
-11.0943537098
  0
LINE
  5
3C1
100
AcDbEntity
  8
RACCORDO
100
AcDbLine
 62
250
  6
CONTINUOUS
 10
-3.9508629361
 20
-11.5050974362
 11
-3.8400735182
 21
-11.3943080183
  0
LWPOLYLINE
  5
3C2
100
AcDbEntity
  8
RACCORDO
100
AcDbPolyline
 62
250
  6
CONTINUOUS
 90
13
 70
0
 10
-13.0131271799
 20
-8.1856124522
 10
-12.9935173549
 20
-8.1796661444
 10
-12.9741438942
 20
-8.1717038065
 10
-12.955240313
 20
-8.1618214114
 10
-12.9370344631
 20
-8.1501380751
 10
-12.919745786
 20
-8.1367946212
 10
-12.9035826684
 20
-8.121951883
 10
-12.8887399302
 20
-8.1057887654
 10
-12.8753964763
 20
-8.0885000883
 10
-12.86371314
 20
-8.0702942384
 10
-12.8538307449
 20
-8.0513906572
 10
-12.845868407
 20
-8.0320171965
 10
-12.8399220992
 20
-8.0124073715
  0
LINE
  5
3C3
100
AcDbEntity
  8
RACCORDO
100
AcDbLine
 62
250
  6
CONTINUOUS
 10
6.7919722582
 20
-1.5225525011
 11
6.811985899
 21
-1.5425661419
  0
LWPOLYLINE
  5
3C4
100
AcDbEntity
  8
RACCORDO
100
AcDbPolyline
 62
250
  6
CONTINUOUS
 90
19
 70
0
 10
5.2273428739
 20
8.8716511265
 10
5.2257958621
 20
8.9063205277
 10
5.2216776242
 20
8.9395397605
 10
5.2149881602
 20
8.9713088248
 10
5.2056792503
 20
9.0017017875
 10
5.1937991143
 20
9.0306445818
 10
5.1794924117
 20
9.0579150071
 10
5.1625045135
 20
9.0836972205
 10
5.1430900487
 20
9.1078070649
 10
5.1221575634
 20
9.1294698675
 10
5.0998033791
 20
9.1483792628
 10
5.0759311744
 20
9.1648416163
 10
5.0511605313
 20
9.1790013521
 10
5.0258452596
 20
9.1908262768
 10
4.9996315496
 20
9.2003485837
 10
4.9720775545
 20
9.2078092772
 10
4.9430359918
 20
9.2132886923
 10
4.912654144
 20
9.216706494
 10
4.8809320109
 20
9.2180626824
  0
LINE
  5
3C5
100
AcDbEntity
  8
RACCORDO
100
AcDbLine
 62
7
  6
CONTINUOUS
 10
6.5121230082
 20
-1.8426118682
 11
6.5132955416
 21
-5.6910303414
  0
LINE
  5
3C6
100
AcDbEntity
  8
RACCORDO
100
AcDbLine
 62
250
  6
CONTINUOUS
 10
6.1920636411
 20
-5.7123079333
 11
6.1920636411
 21
-1.8225068096
  0
LINE
  5
3C7
100
AcDbEntity
  8
RACCORDO
100
AcDbLine
 62
250
  6
CONTINUOUS
 10
6.4920179497
 20
-5.7123079333
 11
6.4920179497
 21
-1.8225068096
  0
LINE
  5
3C8
100
AcDbEntity
  8
RACCORDO
100
AcDbLine
 62
250
  6
CONTINUOUS
 10
6.7919722582
 20
-1.2225981925
 11
6.7919722582
 21
-1.5225525011
  0
LINE
  5
3C9
100
AcDbEntity
  8
RACCORDO
100
AcDbLine
 62
250
  6
CONTINUOUS
 10
6.7919722582
 20
-6.3122165504
 11
6.7919722582
 21
-6.0122622419
  0
LINE
  5
3CA
100
AcDbEntity
  8
0
100
AcDbLine
 62
7
  6
CONTINUOUS
 10
6.9868728201
 20
-5.9174073715
 11
6.9868728201
 21
-5.9908932879
  0
LWPOLYLINE
  5
3CB
100
AcDbEntity
  8
RACCORDO
100
AcDbPolyline
 62
250
  6
CONTINUOUS
 90
19
 70
0
 10
6.4920179618
 20
-1.8225068218
 10
6.4932620645
 20
-1.7951149538
 10
6.4969980648
 20
-1.7679706198
 10
6.50318998
 20
-1.7412993357
 10
6.5117928489
 20
-1.7152921421
 10
6.5227246246
 20
-1.6901956233
 10
6.5358402498
 20
-1.6662985448
 10
6.5511150578
 20
-1.6436346181
 10
6.568314851
 20
-1.6225409389
 10
6.5867980798
 20
-1.6036167524
 10
6.6059812932
 20
-1.5871014909
 10
6.6258526033
 20
-1.5726862592
 10
6.6465852477
 20
-1.5600844277
 10
6.6677734262
 20
-1.5494248274
 10
6.6894681809
 20
-1.5405714217
 10
6.7127139978
 20
-1.5331842324
 10
6.7378365437
 20
-1.5274593054
 10
6.764314453
 20
-1.5238213712
 10
6.7919722666
 20
-1.5225525094
  0
LWPOLYLINE
  5
3CC
100
AcDbEntity
  8
RACCORDO
100
AcDbPolyline
 62
250
  6
CONTINUOUS
 90
19
 70
0
 10
6.1920636411
 20
-1.8225068096
 10
6.1947548296
 20
-1.7670053104
 10
6.2022170742
 20
-1.7128812013
 10
6.2144503749
 20
-1.6601344822
 10
6.2316896532
 20
-1.6083124525
 10
6.2536999876
 20
-1.557867813
 10
6.2797766142
 20
-1.5101586657
 10
6.3103866515
 20
-1.4651316962
 10
6.345062981
 20
-1.422840219
 10
6.3816994835
 20
-1.3848022799
 10
6.4197782774
 20
-1.3517102298
 10
6.4598172442
 20
-1.3228717179
 10
6.50126391
 20
-1.2977277369
 10
6.5434314639
 20
-1.2761190918
 10
6.5870067168
 20
-1.2582049778
 10
6.6334976268
 20
-1.243903973
 10
6.6834068468
 20
-1.2331889369
 10
6.7362317239
 20
-1.2260870101
 10
6.7919722582
 20
-1.2225981925
  0
LWPOLYLINE
  5
3CD
100
AcDbEntity
  8
RACCORDO
100
AcDbPolyline
 62
250
  6
CONTINUOUS
 90
13
 70
0
 10
-4.5131271799
 20
-8.1856124522
 10
-4.4935173549
 20
-8.1796661444
 10
-4.4741438942
 20
-8.1717038065
 10
-4.455240313
 20
-8.1618214114
 10
-4.4370344631
 20
-8.1501380751
 10
-4.419745786
 20
-8.1367946212
 10
-4.4035826684
 20
-8.121951883
 10
-4.3887399302
 20
-8.1057887654
 10
-4.3753964763
 20
-8.0885000883
 10
-4.36371314
 20
-8.0702942384
 10
-4.3538307449
 20
-8.0513906572
 10
-4.345868407
 20
-8.0320171965
 10
-4.3399220992
 20
-8.0124073715
  0
LWPOLYLINE
  5
3CE
100
AcDbEntity
  8
RACCORDO
100
AcDbPolyline
 62
250
  6
CONTINUOUS
 90
19
 70
0
 10
-13.9071839718
 20
9.0448545011
 10
-13.9271955909
 20
9.0474370846
 10
-13.9462861883
 20
9.048315849
 10
-13.9643818652
 20
9.0475351849
 10
-13.9813871888
 20
9.045164932
 10
-13.9972622551
 20
9.0412395978
 10
-14.0120152844
 20
9.0357386205
 10
-14.025643083
 20
9.0286429234
 10
-14.0380099078
 20
9.020051966
 10
-14.0489384017
 20
9.0101345817
 10
-14.0583176787
 20
8.9989921093
 10
-14.0661903728
 20
8.9866754065
 10
-14.0726299683
 20
8.9732947964
 10
-14.0776029681
 20
8.9590266366
 10
-14.0811007855
 20
8.9438312368
 10
-14.0831886743
 20
8.927471326
 10
-14.0838245243
 20
8.9098975213
 10
-14.0829119989
 20
8.891268467
 10
-14.0803897762
 20
8.871650144
  0
LWPOLYLINE
  5
3CF
100
AcDbEntity
  8
RACCORDO
100
AcDbPolyline
 62
250
  6
CONTINUOUS
 90
16
 70
0
 10
4.1600779008
 20
7.9775926285
 10
4.1560856734
 20
7.9914727947
 10
4.1508280986
 20
8.0058768192
 10
4.1442006846
 20
8.0206921285
 10
4.1360303661
 20
8.0359197929
 10
4.1262999955
 20
8.0512487778
 10
4.1152613092
 20
8.0661048803
 10
4.1029946675
 20
8.0803137673
 10
4.0895570051
 20
8.0937488038
 10
4.0753472408
 20
8.1060114259
 10
4.0604922107
 20
8.11704507
 10
4.0451663894
 20
8.126769789
 10
4.0299440709
 20
8.134934343
 10
4.01513624
 20
8.141556319
 10
4.0007416872
 20
8.1468091577
 10
3.9868728201
 20
8.1507977093
  0
LINE
  5
3D0
100
AcDbEntity
  8
0
100
AcDbLine
 62
250
  6
CONTINUOUS
 10
7.2868728201
 20
-5.9174073715
 11
7.2868728201
 21
-5.9908932879
  0
LINE
  5
3D1
100
AcDbEntity
  8
RACCORDO
100
AcDbLine
 62
250
  6
CONTINUOUS
 10
22.2246390372
 20
11.4702826932
 11
22.2369489725
 21
11.4825926285
  0
LINE
  5
3D2
100
AcDbEntity
  8
RACCORDO
100
AcDbLine
 62
250
  6
CONTINUOUS
 10
9.6817733819
 20
-1.5225525011
 11
9.6617597411
 21
-1.5425661419
  0
LINE
  5
3D3
100
AcDbEntity
  8
RACCORDO
100
AcDbLine
 62
250
  6
CONTINUOUS
 10
22.7245628847
 20
10.9703588456
 11
22.7368728201
 21
10.982668781
  0
LINE
  5
3D4
100
AcDbEntity
  8
RACCORDO
100
AcDbLine
 62
250
  6
CONTINUOUS
 10
9.9817276904
 20
-1.8225068096
 11
9.9616226319
 21
-1.8426118682
  0
LINE
  5
3D5
100
AcDbEntity
  8
RACCORDO
100
AcDbLine
 62
250
  6
CONTINUOUS
 10
2.919607847
 20
-8.9064672638
 11
3.8136677393
 21
-8.0124073715
  0
LINE
  5
3D6
100
AcDbEntity
  8
RACCORDO
100
AcDbLine
 62
250
  6
CONTINUOUS
 10
3.0928129277
 20
-9.0796723446
 11
3.9868728201
 21
-8.1856124522
  0
LINE
  5
3D7
100
AcDbEntity
  8
RACCORDO
100
AcDbLine
 62
250
  6
CONTINUOUS
 10
6.4920179497
 20
-5.7123079333
 11
6.5132955416
 21
-5.6910303414
  0
LWPOLYLINE
  5
3D8
100
AcDbEntity
  8
RACCORDO
100
AcDbPolyline
 62
250
  6
CONTINUOUS
 90
13
 70
0
 10
3.9868728201
 20
-8.1856124522
 10
4.0064826451
 20
-8.1796661444
 10
4.0258561058
 20
-8.1717038065
 10
4.044759687
 20
-8.1618214114
 10
4.0629655369
 20
-8.1501380751
 10
4.080254214
 20
-8.1367946212
 10
4.0964173316
 20
-8.121951883
 10
4.1112600698
 20
-8.1057887654
 10
4.1246035237
 20
-8.0885000883
 10
4.13628686
 20
-8.0702942384
 10
4.1461692551
 20
-8.0513906572
 10
4.154131593
 20
-8.0320171965
 10
4.1600779008
 20
-8.0124073715
  0
LWPOLYLINE
  5
3D9
100
AcDbEntity
  8
RACCORDO
100
AcDbPolyline
 62
250
  6
CONTINUOUS
 90
19
 70
0
 10
11.5928141689
 20
9.2180626824
 10
11.5590251245
 20
9.2166006059
 10
11.5265974906
 20
9.2126850303
 10
11.4955312669
 20
9.2063159556
 10
11.4657462235
 20
9.1974393399
 10
11.4373225904
 20
9.1861092252
 10
11.4105010581
 20
9.1724877365
 10
11.3851750017
 20
9.1564381572
 10
11.361451046
 20
9.1380972041
 10
11.3398897557
 20
9.1180371526
 10
11.320659655
 20
9.0963072218
 10
11.3035922197
 20
9.0728581927
 10
11.2887424421
 20
9.0481146844
 10
11.2761257568
 20
9.0222799919
 10
11.265726729
 20
8.9951508201
 10
11.2575540473
 20
8.9665419039
 10
11.2516106076
 20
8.9363914882
 10
11.247893514
 20
8.9047613279
 10
11.2464027662
 20
8.8716514232
  0
LWPOLYLINE
  5
3DA
100
AcDbEntity
  8
RACCORDO
100
AcDbPolyline
 62
250
  6
CONTINUOUS
 90
19
 70
0
 10
3.0928141689
 20
9.2180626824
 10
3.0590251245
 20
9.2166006059
 10
3.0265974906
 20
9.2126850303
 10
2.9955312669
 20
9.2063159556
 10
2.9657462235
 20
9.1974393399
 10
2.9373225904
 20
9.1861092252
 10
2.9105010581
 20
9.1724877365
 10
2.8851750017
 20
9.1564381572
 10
2.861451046
 20
9.1380972041
 10
2.8398897557
 20
9.1180371526
 10
2.820659655
 20
9.0963072218
 10
2.8035922197
 20
9.0728581927
 10
2.7887424421
 20
9.0481146844
 10
2.7761257568
 20
9.0222799919
 10
2.765726729
 20
8.9951508201
 10
2.7575540473
 20
8.9665419039
 10
2.7516106076
 20
8.9363914882
 10
2.747893514
 20
8.9047613279
 10
2.7464027662
 20
8.8716514232
  0
LINE
  5
3DB
100
AcDbEntity
  8
RACCORDO
100
AcDbLine
 62
250
  6
CONTINUOUS
 10
-13.1863322607
 20
7.9775926285
 11
-12.8399220992
 21
7.9775926285
  0
LINE
  5
3DC
100
AcDbEntity
  8
RACCORDO
100
AcDbLine
 62
250
  6
CONTINUOUS
 10
-4.6863322607
 20
7.9775926285
 11
-4.3399220992
 21
7.9775926285
  0
LINE
  5
3DD
100
AcDbEntity
  8
RACCORDO
100
AcDbLine
 62
250
  6
CONTINUOUS
 10
3.8136677393
 20
7.9775926285
 11
4.1600779008
 21
7.9775926285
  0
LINE
  5
3DE
100
AcDbEntity
  8
RACCORDO
100
AcDbLine
 62
250
  6
CONTINUOUS
 10
12.3136677393
 20
7.9775926285
 11
12.6600779008
 21
7.9775926285
  0
LINE
  5
3DF
100
AcDbEntity
  8
RACCORDO
100
AcDbLine
 62
250
  6
CONTINUOUS
 10
-11.9458622069
 20
8.8716525209
 11
-11.7726571261
 21
8.8716525209
  0
LINE
  5
3E0
100
AcDbEntity
  8
RACCORDO
100
AcDbLine
 62
250
  6
CONTINUOUS
 10
11.419607847
 20
8.8716525209
 11
11.2464027662
 21
8.8716525209
  0
LINE
  5
3E1
100
AcDbEntity
  8
RACCORDO
100
AcDbLine
 62
250
  6
CONTINUOUS
 10
-3.4458622069
 20
8.8716525209
 11
-3.2726571261
 21
8.8716525209
  0
LINE
  5
3E2
100
AcDbEntity
  8
RACCORDO
100
AcDbLine
 62
250
  6
CONTINUOUS
 10
2.919607847
 20
8.8716525209
 11
2.7464027662
 21
8.8716525209
  0
LINE
  5
3E3
100
AcDbEntity
  8
RACCORDO
100
AcDbLine
 62
250
  6
CONTINUOUS
 10
5.0541377931
 20
8.8716525209
 11
5.2273428739
 21
8.8716525209
  0
LINE
  5
3E4
100
AcDbEntity
  8
RACCORDO
100
AcDbLine
 62
250
  6
CONTINUOUS
 10
-5.580392153
 20
8.8716525209
 11
-5.7535972338
 21
8.8716525209
  0
LINE
  5
3E5
100
AcDbEntity
  8
RACCORDO
100
AcDbLine
 62
250
  6
CONTINUOUS
 10
13.5541377931
 20
8.8716525209
 11
13.7273428739
 21
8.8716525209
  0
LINE
  5
3E6
100
AcDbEntity
  8
RACCORDO
100
AcDbLine
 62
250
  6
CONTINUOUS
 10
-14.080392153
 20
8.8716525209
 11
-14.2535972338
 21
8.8716525209
  0
LINE
  5
3E7
100
AcDbEntity
  8
RACCORDO
100
AcDbLine
 62
250
  6
CONTINUOUS
 10
13.3809327124
 20
9.0448576016
 11
11.5928129277
 21
9.0448576016
  0
LINE
  5
3E8
100
AcDbEntity
  8
RACCORDO
100
AcDbLine
 62
250
  6
CONTINUOUS
 10
4.8809327124
 20
9.0448576016
 11
3.0928129277
 21
9.0448576016
  0
LINE
  5
3E9
100
AcDbEntity
  8
RACCORDO
100
AcDbLine
 62
250
  6
CONTINUOUS
 10
-3.6190672876
 20
9.0448576016
 11
-5.4071870723
 21
9.0448576016
  0
LINE
  5
3EA
100
AcDbEntity
  8
RACCORDO
100
AcDbLine
 62
250
  6
CONTINUOUS
 10
-12.1190672876
 20
9.0448576016
 11
-13.9071870723
 21
9.0448576016
  0
LWPOLYLINE
  5
3EB
100
AcDbEntity
  8
RACCORDO
100
AcDbPolyline
 62
250
  6
CONTINUOUS
 90
19
 70
0
 10
-5.4071839718
 20
9.0448545011
 10
-5.4271955909
 20
9.0474370846
 10
-5.4462861883
 20
9.048315849
 10
-5.4643818652
 20
9.0475351849
 10
-5.4813871888
 20
9.045164932
 10
-5.4972622551
 20
9.0412395978
 10
-5.5120152844
 20
9.0357386205
 10
-5.525643083
 20
9.0286429234
 10
-5.5380099078
 20
9.020051966
 10
-5.5489384017
 20
9.0101345817
 10
-5.5583176787
 20
8.9989921093
 10
-5.5661903728
 20
8.9866754065
 10
-5.5726299683
 20
8.9732947964
 10
-5.5776029681
 20
8.9590266366
 10
-5.5811007855
 20
8.9438312368
 10
-5.5831886743
 20
8.927471326
 10
-5.5838245243
 20
8.9098975213
 10
-5.5829119989
 20
8.891268467
 10
-5.5803897762
 20
8.871650144
  0
LINE
  5
3EC
100
AcDbEntity
  8
RACCORDO
100
AcDbLine
 62
250
  6
CONTINUOUS
 10
22.2246390372
 20
-11.5050974362
 11
22.2369489725
 21
-11.5174073715
  0
LINE
  5
3ED
100
AcDbEntity
  8
RACCORDO
100
AcDbLine
 62
250
  6
CONTINUOUS
 10
22.7245628847
 20
-11.0051735886
 11
22.7368728201
 21
-11.0174835239
  0
LINE
  5
3EE
100
AcDbEntity
  8
RACCORDO
100
AcDbLine
 62
250
  6
CONTINUOUS
 10
3.8136677393
 20
7.9775926285
 11
2.919607847
 21
8.8716525209
  0
LINE
  5
3EF
100
AcDbEntity
  8
RACCORDO
100
AcDbLine
 62
250
  6
CONTINUOUS
 10
3.9868728201
 20
8.1507977093
 11
3.0928129277
 21
9.0448576016
  0
LINE
  5
3F0
100
AcDbEntity
  8
RACCORDO
100
AcDbLine
 62
250
  6
CONTINUOUS
 10
18.1817733819
 20
-6.0122622419
 11
18.1604044279
 21
-5.9908932879
  0
LINE
  5
3F1
100
AcDbEntity
  8
0
100
AcDbLine
 62
250
  6
CONTINUOUS
 10
9.1868728201
 20
-5.9174073715
 11
9.1868728201
 21
-5.9908932879
  0
LINE
  5
3F2
100
AcDbEntity
  8
0
100
AcDbLine
 62
7
  6
CONTINUOUS
 10
9.4868728201
 20
-5.9174073715
 11
9.4868728201
 21
-5.9908932879
  0
LINE
  5
3F3
100
AcDbEntity
  8
RACCORDO
100
AcDbLine
 62
250
  6
CONTINUOUS
 10
9.6817733819
 20
-1.2225981925
 11
9.6817733819
 21
-1.5225525011
  0
LINE
  5
3F4
100
AcDbEntity
  8
RACCORDO
100
AcDbLine
 62
250
  6
CONTINUOUS
 10
9.6817733819
 20
-6.3122165504
 11
9.6817733819
 21
-6.0122622419
  0
LINE
  5
3F5
100
AcDbEntity
  8
RACCORDO
100
AcDbLine
 62
250
  6
CONTINUOUS
 10
9.9817276904
 20
-1.8225068096
 11
9.9817276904
 21
-5.7123079333
  0
LINE
  5
3F6
100
AcDbEntity
  8
RACCORDO
100
AcDbLine
 62
250
  6
CONTINUOUS
 10
10.281681999
 20
-1.8225068096
 11
10.281681999
 21
-5.7123079333
  0
LINE
  5
3F7
100
AcDbEntity
  8
RACCORDO
100
AcDbLine
 62
7
  6
CONTINUOUS
 10
9.9604500985
 20
-5.6910303414
 11
9.9616226319
 21
-1.8426118682
  0
LWPOLYLINE
  5
3F8
100
AcDbEntity
  8
RACCORDO
100
AcDbPolyline
 62
250
  6
CONTINUOUS
 90
19
 70
0
 10
9.9817276783
 20
-5.7123079211
 10
9.9804835756
 20
-5.7396997891
 10
9.9767475753
 20
-5.7668441232
 10
9.9705556601
 20
-5.7935154073
 10
9.9619527912
 20
-5.8195226008
 10
9.9510210155
 20
-5.8446191197
 10
9.9379053904
 20
-5.8685161982
 10
9.9226305823
 20
-5.8911801249
 10
9.9054307891
 20
-5.912273804
 10
9.8869475603
 20
-5.9311979905
 10
9.8677643469
 20
-5.9477132521
 10
9.8478930368
 20
-5.9621284837
 10
9.8271603925
 20
-5.9747303153
 10
9.8059722139
 20
-5.9853899155
 10
9.7842774593
 20
-5.9942433213
 10
9.7610316423
 20
-6.0016305106
 10
9.7359090964
 20
-6.0073554375
 10
9.7094311872
 20
-6.0109933718
 10
9.6817733736
 20
-6.0122622335
  0
LWPOLYLINE
  5
3F9
100
AcDbEntity
  8
RACCORDO
100
AcDbPolyline
 62
250
  6
CONTINUOUS
 90
19
 70
0
 10
10.281681999
 20
-5.7123079333
 10
10.2789908106
 20
-5.7678094325
 10
10.271528566
 20
-5.8219335417
 10
10.2592952652
 20
-5.8746802607
 10
10.2420559869
 20
-5.9265022904
 10
10.2200456525
 20
-5.97694693
 10
10.1939690259
 20
-6.0246560773
 10
10.1633589886
 20
-6.0696830468
 10
10.1286826591
 20
-6.111974524
 10
10.0920461566
 20
-6.1500124631
 10
10.0539673628
 20
-6.1831045131
 10
10.0139283959
 20
-6.2119430251
 10
9.9724817302
 20
-6.237087006
 10
9.9303141762
 20
-6.2586956511
 10
9.8867389233
 20
-6.2766097651
 10
9.8402480133
 20
-6.2909107699
 10
9.7903387933
 20
-6.301625806
 10
9.7375139162
 20
-6.3087277328
 10
9.6817733819
 20
-6.3122165504
  0
LINE
  5
3FA
100
AcDbEntity
  8
RACCORDO
100
AcDbLine
 62
250
  6
CONTINUOUS
 10
6.7919722582
 20
-6.0122622419
 11
6.8133412122
 21
-5.9908932879
  0
LINE
  5
3FB
100
AcDbEntity
  8
RACCORDO
100
AcDbLine
 62
250
  6
CONTINUOUS
 10
3.3138191584
 20
-10.3905067246
 11
3.4194634466
 21
-10.2848624364
  0
LINE
  5
3FC
100
AcDbEntity
  8
RACCORDO
100
AcDbLine
 62
250
  6
CONTINUOUS
 10
3.6137734669
 20
-10.6904610332
 11
3.7194177551
 21
-10.5848167449
  0
LWPOLYLINE
  5
3FD
100
AcDbEntity
  8
RACCORDO
100
AcDbPolyline
 62
250
  6
CONTINUOUS
 90
8
 70
0
 10
-3.8400735182
 20
-11.3943080183
 10
-3.8303630461
 20
-11.3911617077
 10
-3.8097138825
 20
-11.3880790926
 10
-3.7781260277
 20
-11.3850601732
 10
-3.7353984508
 20
-11.3821005414
 10
-3.6817321826
 20
-11.3792046051
 10
-3.617730315
 20
-11.3763855885
 10
-3.5432295749
 20
-11.3736362945
  0
LWPOLYLINE
  5
3FE
100
AcDbEntity
  8
RACCORDO
100
AcDbPolyline
 62
250
  6
CONTINUOUS
 90
8
 70
0
 10
-4.1400278268
 20
-11.0943537098
 10
-4.1299375447
 20
-11.0912073736
 10
-4.1068696422
 20
-11.0881247446
 10
-4.0711972819
 20
-11.0851058226
 10
-4.023476981
 20
-11.0821462067
 10
-3.9640983867
 20
-11.0792502978
 10
-3.8929798231
 20
-11.076431299
 10
-3.8101627018
 20
-11.073682002
  0
LWPOLYLINE
  5
3FF
100
AcDbEntity
  8
RACCORDO
100
AcDbPolyline
 62
250
  6
CONTINUOUS
 90
19
 70
0
 10
-5.4071858311
 20
9.2180626824
 10
-5.4409748755
 20
9.2166006059
 10
-5.4734025094
 20
9.2126850303
 10
-5.5044687331
 20
9.2063159556
 10
-5.5342537765
 20
9.1974393399
 10
-5.5626774096
 20
9.1861092252
 10
-5.5894989419
 20
9.1724877365
 10
-5.6148249983
 20
9.1564381572
 10
-5.638548954
 20
9.1380972041
 10
-5.6601102443
 20
9.1180371526
 10
-5.679340345
 20
9.0963072218
 10
-5.6964077803
 20
9.0728581927
 10
-5.7112575579
 20
9.0481146844
 10
-5.7238742432
 20
9.0222799919
 10
-5.734273271
 20
8.9951508201
 10
-5.7424459527
 20
8.9665419039
 10
-5.7483893924
 20
8.9363914882
 10
-5.752106486
 20
8.9047613279
 10
-5.7535972338
 20
8.8716514232
  0
LWPOLYLINE
  5
400
100
AcDbEntity
  8
RACCORDO
100
AcDbPolyline
 62
250
  6
CONTINUOUS
 90
19
 70
0
 10
-13.9071858311
 20
9.2180626824
 10
-13.9409748755
 20
9.2166006059
 10
-13.9734025094
 20
9.2126850303
 10
-14.0044687331
 20
9.2063159556
 10
-14.0342537765
 20
9.1974393399
 10
-14.0626774096
 20
9.1861092252
 10
-14.0894989419
 20
9.1724877365
 10
-14.1148249983
 20
9.1564381572
 10
-14.138548954
 20
9.1380972041
 10
-14.1601102443
 20
9.1180371526
 10
-14.179340345
 20
9.0963072218
 10
-14.1964077803
 20
9.0728581927
 10
-14.2112575579
 20
9.0481146844
 10
-14.2238742432
 20
9.0222799919
 10
-14.234273271
 20
8.9951508201
 10
-14.2424459527
 20
8.9665419039
 10
-14.2483893924
 20
8.9363914882
 10
-14.252106486
 20
8.9047613279
 10
-14.2535972338
 20
8.8716514232
  0
LINE
  5
401
100
AcDbEntity
  8
RACCORDO
100
AcDbLine
 62
250
  6
CONTINUOUS
 10
13.3809320109
 20
9.2180626824
 11
11.5928141689
 21
9.2180626824
  0
LINE
  5
402
100
AcDbEntity
  8
RACCORDO
100
AcDbLine
 62
250
  6
CONTINUOUS
 10
4.8809320109
 20
9.2180626824
 11
3.0928141689
 21
9.2180626824
  0
LINE
  5
403
100
AcDbEntity
  8
RACCORDO
100
AcDbLine
 62
250
  6
CONTINUOUS
 10
-3.6190679891
 20
9.2180626824
 11
-5.4071858311
 21
9.2180626824
  0
LINE
  5
404
100
AcDbEntity
  8
RACCORDO
100
AcDbLine
 62
250
  6
CONTINUOUS
 10
-12.1190679891
 20
9.2180626824
 11
-13.9071858311
 21
9.2180626824
  0
LWPOLYLINE
  5
405
100
AcDbEntity
  8
RACCORDO
100
AcDbPolyline
 62
250
  6
CONTINUOUS
 90
19
 70
0
 10
3.0928160282
 20
9.0448545011
 10
3.0728044091
 20
9.0474370846
 10
3.0537138117
 20
9.048315849
 10
3.0356181348
 20
9.0475351849
 10
3.0186128112
 20
9.045164932
 10
3.0027377449
 20
9.0412395978
 10
2.9879847156
 20
9.0357386205
 10
2.974356917
 20
9.0286429234
 10
2.9619900922
 20
9.020051966
 10
2.9510615983
 20
9.0101345817
 10
2.9416823213
 20
8.9989921093
 10
2.9338096272
 20
8.9866754065
 10
2.9273700317
 20
8.9732947964
 10
2.9223970319
 20
8.9590266366
 10
2.9188992145
 20
8.9438312368
 10
2.9168113257
 20
8.927471326
 10
2.9161754757
 20
8.9098975213
 10
2.9170880011
 20
8.891268467
 10
2.9196102238
 20
8.871650144
  0
LWPOLYLINE
  5
406
100
AcDbEntity
  8
RACCORDO
100
AcDbPolyline
 62
250
  6
CONTINUOUS
 90
19
 70
0
 10
11.5928160282
 20
9.0448545011
 10
11.5728044091
 20
9.0474370846
 10
11.5537138117
 20
9.048315849
 10
11.5356181348
 20
9.0475351849
 10
11.5186128112
 20
9.045164932
 10
11.5027377449
 20
9.0412395978
 10
11.4879847156
 20
9.0357386205
 10
11.474356917
 20
9.0286429234
 10
11.4619900922
 20
9.020051966
 10
11.4510615983
 20
9.0101345817
 10
11.4416823213
 20
8.9989921093
 10
11.4338096272
 20
8.9866754065
 10
11.4273700317
 20
8.9732947964
 10
11.4223970319
 20
8.9590266366
 10
11.4188992145
 20
8.9438312368
 10
11.4168113257
 20
8.927471326
 10
11.4161754757
 20
8.9098975213
 10
11.4170880011
 20
8.891268467
 10
11.4196102238
 20
8.871650144
  0
LINE
  5
407
100
AcDbEntity
  8
RACCORDO
100
AcDbLine
 62
250
  6
CONTINUOUS
 10
18.4817276904
 20
-5.7123079333
 11
18.4604500985
 21
-5.6910303414
  0
LINE
  5
408
100
AcDbEntity
  8
RACCORDO
100
AcDbLine
 62
250
  6
CONTINUOUS
 10
14.9920179497
 20
-1.8225068096
 11
15.0121230082
 21
-1.8426118682
  0
LINE
  5
409
100
AcDbEntity
  8
RACCORDO
100
AcDbLine
 62
250
  6
CONTINUOUS
 10
15.2919722582
 20
-1.5225525011
 11
15.311985899
 21
-1.5425661419
  0
LWPOLYLINE
  5
40A
100
AcDbEntity
  8
RACCORDO
100
AcDbPolyline
 62
250
  6
CONTINUOUS
 90
16
 70
0
 10
12.3136677393
 20
-8.0124073715
 10
12.3176599668
 20
-8.0262875377
 10
12.3229175415
 20
-8.0406915622
 10
12.3295449555
 20
-8.0555068714
 10
12.337715274
 20
-8.0707345359
 10
12.3474456446
 20
-8.0860635208
 10
12.3584843309
 20
-8.1009196232
 10
12.3707509726
 20
-8.1151285102
 10
12.384188635
 20
-8.1285635467
 10
12.3983983993
 20
-8.1408261689
 10
12.4132534294
 20
-8.151859813
 10
12.4285792507
 20
-8.1615845319
 10
12.4438015692
 20
-8.169749086
 10
12.4586094001
 20
-8.1763710619
 10
12.4730039529
 20
-8.1816239006
 10
12.4868728201
 20
-8.1856124522
  0
LWPOLYLINE
  5
40B
100
AcDbEntity
  8
RACCORDO
100
AcDbPolyline
 62
250
  6
CONTINUOUS
 90
19
 70
0
 10
11.2464027662
 20
-8.9064658695
 10
11.247949778
 20
-8.9411352707
 10
11.2520680159
 20
-8.9743545034
 10
11.2587574799
 20
-9.0061235677
 10
11.2680663898
 20
-9.0365165305
 10
11.2799465258
 20
-9.0654593248
 10
11.2942532285
 20
-9.09272975
 10
11.3112411266
 20
-9.1185119635
 10
11.3306555914
 20
-9.1426218079
 10
11.3515880767
 20
-9.1642846105
 10
11.373942261
 20
-9.1831940058
 10
11.3978144658
 20
-9.1996563593
 10
11.4225851088
 20
-9.2138160951
 10
11.4479003805
 20
-9.2256410197
 10
11.4741140905
 20
-9.2351633266
 10
11.5016680857
 20
-9.2426240202
 10
11.5307096483
 20
-9.2481034352
 10
11.5610914961
 20
-9.2515212369
 10
11.5928136292
 20
-9.2528774253
  0
LINE
  5
40C
100
AcDbEntity
  8
RACCORDO
100
AcDbLine
 62
250
  6
CONTINUOUS
 10
11.2464027662
 20
8.8716514232
 11
11.2464027662
 21
-8.9064658695
  0
LINE
  5
40D
100
AcDbEntity
  8
RACCORDO
100
AcDbLine
 62
250
  6
CONTINUOUS
 10
11.419607847
 20
8.8716525209
 11
11.419607847
 21
-8.9064672638
  0
LINE
  5
40E
100
AcDbEntity
  8
RACCORDO
100
AcDbLine
 62
250
  6
CONTINUOUS
 10
11.5928129277
 20
-9.0796723446
 11
11.5928129277
 21
-9.2528774253
  0
LINE
  5
40F
100
AcDbEntity
  8
RACCORDO
100
AcDbLine
 62
250
  6
CONTINUOUS
 10
11.5928129277
 20
9.0448576016
 11
11.5928129277
 21
9.2180626824
  0
LINE
  5
410
100
AcDbEntity
  8
RACCORDO
100
AcDbLine
 62
250
  6
CONTINUOUS
 10
12.3136677393
 20
7.9775926285
 11
12.3136677393
 21
-8.0124073715
  0
LWPOLYLINE
  5
411
100
AcDbEntity
  8
RACCORDO
100
AcDbPolyline
 62
250
  6
CONTINUOUS
 90
19
 70
0
 10
13.554134516
 20
8.8716492438
 10
13.5567619696
 20
8.8921720644
 10
13.5575968187
 20
8.911719277
 10
13.5566878016
 20
8.9302113112
 10
13.5541146797
 20
8.9475383679
 10
13.5499130115
 20
8.9636656685
 10
13.5440479786
 20
8.9786232324
 10
13.536447052
 20
8.9924468419
 10
13.5272577995
 20
9.0049419387
 10
13.5168082061
 20
9.0158242363
 10
13.5052479246
 20
9.0249465359
 10
13.4926271069
 20
9.032429425
 10
13.4791624109
 20
9.0384389141
 10
13.4651162558
 20
9.0429684023
 10
13.4503836392
 20
9.0460442085
 10
13.4345944471
 20
9.0478191684
 10
13.4176479183
 20
9.0482763793
 10
13.3997405715
 20
9.0473062834
 10
13.3809308134
 20
9.0448557026
  0
LWPOLYLINE
  5
412
100
AcDbEntity
  8
RACCORDO
100
AcDbPolyline
 62
250
  6
CONTINUOUS
 90
13
 70
0
 10
12.4868728201
 20
-8.1856124522
 10
12.5064826451
 20
-8.1796661444
 10
12.5258561058
 20
-8.1717038065
 10
12.544759687
 20
-8.1618214114
 10
12.5629655369
 20
-8.1501380751
 10
12.580254214
 20
-8.1367946212
 10
12.5964173316
 20
-8.121951883
 10
12.6112600698
 20
-8.1057887654
 10
12.6246035237
 20
-8.0885000883
 10
12.63628686
 20
-8.0702942384
 10
12.6461692551
 20
-8.0513906572
 10
12.654131593
 20
-8.0320171965
 10
12.6600779008
 20
-8.0124073715
  0
LWPOLYLINE
  5
413
100
AcDbEntity
  8
RACCORDO
100
AcDbPolyline
 62
250
  6
CONTINUOUS
 90
19
 70
0
 10
-22.750893397
 20
11.1703283847
 10
-22.7707495927
 20
11.1692258799
 10
-22.7899380563
 20
11.166404899
 10
-22.8084587877
 20
11.1618654421
 10
-22.8265297159
 20
11.1554062205
 10
-22.843932912
 20
11.1472285229
 10
-22.860014589
 20
11.1379362148
 10
-22.8745846072
 20
11.1275201629
 10
-22.8878331063
 20
11.1159895007
 10
-22.8996767185
 20
11.1039754942
 10
-22.9099796007
 20
11.0917126301
 10
-22.9188775959
 20
11.0789664217
 10
-22.9266948654
 20
11.0656646754
 10
-22.9335649675
 20
11.0519197957
 10
-22.9393543438
 20
11.037619378
 10
-22.9439864802
 20
11.0223540149
 10
-22.9474358721
 20
11.0059872372
 10
-22.949728024
 20
10.9886555141
 10
-22.9508629361
 20
10.9703588456
  0
LWPOLYLINE
  5
414
100
AcDbEntity
  8
RACCORDO
100
AcDbPolyline
 62
250
  6
CONTINUOUS
 90
19
 70
0
 10
-22.750893397
 20
11.4702826932
 10
-22.7998437652
 20
11.467871787
 10
-22.8479538414
 20
11.4607532831
 10
-22.894784452
 20
11.4491029177
 10
-22.9402091658
 20
11.4330187168
 10
-22.9835416668
 20
11.4128118879
 10
-23.0236613309
 20
11.3892672225
 10
-23.06021403
 20
11.363048534
 10
-23.0933196285
 20
11.3345397287
 10
-23.1228140511
 20
11.3043628176
 10
-23.1484288842
 20
11.2734270522
 10
-23.1706688722
 20
11.2417907034
 10
-23.1903645744
 20
11.2085909271
 10
-23.2073756097
 20
11.1741161288
 10
-23.2216645105
 20
11.1385013396
 10
-23.2336055065
 20
11.1003261674
 10
-23.2428511208
 20
11.0591633442
 10
-23.2487443159
 20
11.0157486553
 10
-23.2508172446
 20
10.9703588456
  0
LINE
  5
415
100
AcDbEntity
  8
RACCORDO
100
AcDbLine
 62
250
  6
CONTINUOUS
 10
22.4246085762
 20
10.9703588456
 11
22.7245628847
 21
10.9703588456
  0
LINE
  5
416
100
AcDbEntity
  8
RACCORDO
100
AcDbLine
 62
250
  6
CONTINUOUS
 10
-22.9508629361
 20
10.9703588456
 11
-23.2508172446
 21
10.9703588456
  0
LINE
  5
417
100
AcDbEntity
  8
RACCORDO
100
AcDbLine
 62
250
  6
CONTINUOUS
 10
22.2246390372
 20
11.1703283847
 11
-22.750893397
 21
11.1703283847
  0
LINE
  5
418
100
AcDbEntity
  8
RACCORDO
100
AcDbLine
 62
250
  6
CONTINUOUS
 10
22.2246390372
 20
11.4702826932
 11
-22.750893397
 21
11.4702826932
  0
LINE
  5
419
100
AcDbEntity
  8
RACCORDO
100
AcDbLine
 62
7
  6
CONTINUOUS
 10
-22.7632033324
 20
11.4825926285
 11
22.2369489725
 21
11.4825926285
  0
LWPOLYLINE
  5
41A
100
AcDbEntity
  8
RACCORDO
100
AcDbPolyline
 62
250
  6
CONTINUOUS
 90
19
 70
0
 10
13.7273428739
 20
8.8716511265
 10
13.7257958621
 20
8.9063205277
 10
13.7216776242
 20
8.9395397605
 10
13.7149881602
 20
8.9713088248
 10
13.7056792503
 20
9.0017017875
 10
13.6937991143
 20
9.0306445818
 10
13.6794924117
 20
9.0579150071
 10
13.6625045135
 20
9.0836972205
 10
13.6430900487
 20
9.1078070649
 10
13.6221575634
 20
9.1294698675
 10
13.5998033791
 20
9.1483792628
 10
13.5759311744
 20
9.1648416163
 10
13.5511605313
 20
9.1790013521
 10
13.5258452596
 20
9.1908262768
 10
13.4996315496
 20
9.2003485837
 10
13.4720775545
 20
9.2078092772
 10
13.4430359918
 20
9.2132886923
 10
13.412654144
 20
9.216706494
 10
13.3809320109
 20
9.2180626824
  0
LINE
  5
41B
100
AcDbEntity
  8
RACCORDO
100
AcDbLine
 62
250
  6
CONTINUOUS
 10
12.6600779008
 20
7.9775926285
 11
12.6600779008
 21
-8.0124073715
  0
LINE
  5
41C
100
AcDbEntity
  8
RACCORDO
100
AcDbLine
 62
250
  6
CONTINUOUS
 10
13.3809327124
 20
-9.0796723446
 11
13.3809327124
 21
-9.2528774253
  0
LINE
  5
41D
100
AcDbEntity
  8
RACCORDO
100
AcDbLine
 62
250
  6
CONTINUOUS
 10
13.3809327124
 20
9.0448576016
 11
13.3809327124
 21
9.2180626824
  0
LINE
  5
41E
100
AcDbEntity
  8
RACCORDO
100
AcDbLine
 62
250
  6
CONTINUOUS
 10
13.5541377931
 20
-8.9064672638
 11
13.5541377931
 21
8.8716525209
  0
LINE
  5
41F
100
AcDbEntity
  8
RACCORDO
100
AcDbLine
 62
250
  6
CONTINUOUS
 10
13.7273428739
 20
-8.9064661661
 11
13.7273428739
 21
8.8716511265
  0
LWPOLYLINE
  5
420
100
AcDbEntity
  8
RACCORDO
100
AcDbPolyline
 62
250
  6
CONTINUOUS
 90
19
 70
0
 10
11.4196111241
 20
-8.9064639867
 10
11.4169836705
 20
-8.9269868074
 10
11.4161488214
 20
-8.9465340199
 10
11.4170578385
 20
-8.9650260541
 10
11.4196309604
 20
-8.9823531108
 10
11.4238326286
 20
-8.9984804114
 10
11.4296976615
 20
-9.0134379753
 10
11.4372985881
 20
-9.0272615848
 10
11.4464878407
 20
-9.0397566816
 10
11.456937434
 20
-9.0506389792
 10
11.4684977156
 20
-9.0597612788
 10
11.4811185332
 20
-9.0672441679
 10
11.4945832292
 20
-9.0732536571
 10
11.5086293843
 20
-9.0777831452
 10
11.5233620009
 20
-9.0808589515
 10
11.539151193
 20
-9.0826339114
 10
11.5560977218
 20
-9.0830911222
 10
11.5740050686
 20
-9.0821210263
 10
11.5928148267
 20
-9.0796704456
  0
LINE
  5
421
100
AcDbEntity
  8
RACCORDO
100
AcDbLine
 62
250
  6
CONTINUOUS
 10
18.1817733819
 20
-1.5225525011
 11
18.1617597411
 21
-1.5425661419
  0
LINE
  5
422
100
AcDbEntity
  8
RACCORDO
100
AcDbLine
 62
7
  6
CONTINUOUS
 10
15.0121230082
 20
-1.8426118682
 11
15.0132955416
 21
-5.6910303414
  0
LINE
  5
423
100
AcDbEntity
  8
RACCORDO
100
AcDbLine
 62
250
  6
CONTINUOUS
 10
14.6920636411
 20
-5.7123079333
 11
14.6920636411
 21
-1.8225068096
  0
LINE
  5
424
100
AcDbEntity
  8
RACCORDO
100
AcDbLine
 62
250
  6
CONTINUOUS
 10
14.9920179497
 20
-5.7123079333
 11
14.9920179497
 21
-1.8225068096
  0
LINE
  5
425
100
AcDbEntity
  8
RACCORDO
100
AcDbLine
 62
250
  6
CONTINUOUS
 10
15.2919722582
 20
-1.2225981925
 11
15.2919722582
 21
-1.5225525011
  0
LINE
  5
426
100
AcDbEntity
  8
RACCORDO
100
AcDbLine
 62
250
  6
CONTINUOUS
 10
15.2919722582
 20
-6.3122165504
 11
15.2919722582
 21
-6.0122622419
  0
LINE
  5
427
100
AcDbEntity
  8
0
100
AcDbLine
 62
7
  6
CONTINUOUS
 10
15.4868728201
 20
-5.9174073715
 11
15.4868728201
 21
-5.9908932879
  0
LINE
  5
428
100
AcDbEntity
  8
0
100
AcDbLine
 62
250
  6
CONTINUOUS
 10
15.7868728201
 20
-5.9174073715
 11
15.7868728201
 21
-5.9908932879
  0
LWPOLYLINE
  5
429
100
AcDbEntity
  8
RACCORDO
100
AcDbPolyline
 62
250
  6
CONTINUOUS
 90
19
 70
0
 10
14.9920179618
 20
-1.8225068218
 10
14.9932620645
 20
-1.7951149538
 10
14.9969980648
 20
-1.7679706198
 10
15.00318998
 20
-1.7412993357
 10
15.0117928489
 20
-1.7152921421
 10
15.0227246246
 20
-1.6901956233
 10
15.0358402498
 20
-1.6662985448
 10
15.0511150578
 20
-1.6436346181
 10
15.068314851
 20
-1.6225409389
 10
15.0867980798
 20
-1.6036167524
 10
15.1059812932
 20
-1.5871014909
 10
15.1258526033
 20
-1.5726862592
 10
15.1465852477
 20
-1.5600844277
 10
15.1677734262
 20
-1.5494248274
 10
15.1894681809
 20
-1.5405714217
 10
15.2127139978
 20
-1.5331842324
 10
15.2378365437
 20
-1.5274593054
 10
15.264314453
 20
-1.5238213712
 10
15.2919722666
 20
-1.5225525094
  0
LWPOLYLINE
  5
42A
100
AcDbEntity
  8
RACCORDO
100
AcDbPolyline
 62
250
  6
CONTINUOUS
 90
19
 70
0
 10
14.6920636411
 20
-1.8225068096
 10
14.6947548296
 20
-1.7670053104
 10
14.7022170742
 20
-1.7128812013
 10
14.7144503749
 20
-1.6601344822
 10
14.7316896532
 20
-1.6083124525
 10
14.7536999876
 20
-1.557867813
 10
14.7797766142
 20
-1.5101586657
 10
14.8103866515
 20
-1.4651316962
 10
14.845062981
 20
-1.422840219
 10
14.8816994835
 20
-1.3848022799
 10
14.9197782774
 20
-1.3517102298
 10
14.9598172442
 20
-1.3228717179
 10
15.00126391
 20
-1.2977277369
 10
15.0434314639
 20
-1.2761190918
 10
15.0870067168
 20
-1.2582049778
 10
15.1334976268
 20
-1.243903973
 10
15.1834068468
 20
-1.2331889369
 10
15.2362317239
 20
-1.2260870101
 10
15.2919722582
 20
-1.2225981925
  0
LINE
  5
42B
100
AcDbEntity
  8
RACCORDO
100
AcDbLine
 62
250
  6
CONTINUOUS
 10
18.4817276904
 20
-1.8225068096
 11
18.4616226319
 21
-1.8426118682
  0
LINE
  5
42C
100
AcDbEntity
  8
RACCORDO
100
AcDbLine
 62
250
  6
CONTINUOUS
 10
11.419607847
 20
-8.9064672638
 11
12.3136677393
 21
-8.0124073715
  0
LINE
  5
42D
100
AcDbEntity
  8
RACCORDO
100
AcDbLine
 62
250
  6
CONTINUOUS
 10
11.5928129277
 20
-9.0796723446
 11
12.4868728201
 21
-8.1856124522
  0
LINE
  5
42E
100
AcDbEntity
  8
RACCORDO
100
AcDbLine
 62
250
  6
CONTINUOUS
 10
14.9920179497
 20
-5.7123079333
 11
15.0132955416
 21
-5.6910303414
  0
LINE
  5
42F
100
AcDbEntity
  8
RACCORDO
100
AcDbLine
 62
250
  6
CONTINUOUS
 10
15.2919722582
 20
-6.0122622419
 11
15.3133412122
 21
-5.9908932879
  0
LINE
  5
430
100
AcDbEntity
  8
RACCORDO
100
AcDbLine
 62
250
  6
CONTINUOUS
 10
12.3136677393
 20
7.9775926285
 11
11.419607847
 21
8.8716525209
  0
LINE
  5
431
100
AcDbEntity
  8
RACCORDO
100
AcDbLine
 62
250
  6
CONTINUOUS
 10
12.4868728201
 20
8.1507977093
 11
11.5928129277
 21
9.0448576016
  0
LWPOLYLINE
  5
432
100
AcDbEntity
  8
RACCORDO
100
AcDbPolyline
 62
250
  6
CONTINUOUS
 90
16
 70
0
 10
12.6600779008
 20
7.9775926285
 10
12.6560856734
 20
7.9914727947
 10
12.6508280986
 20
8.0058768192
 10
12.6442006846
 20
8.0206921285
 10
12.6360303661
 20
8.0359197929
 10
12.6262999955
 20
8.0512487778
 10
12.6152613092
 20
8.0661048803
 10
12.6029946675
 20
8.0803137673
 10
12.5895570051
 20
8.0937488038
 10
12.5753472408
 20
8.1060114259
 10
12.5604922107
 20
8.11704507
 10
12.5451663894
 20
8.126769789
 10
12.5299440709
 20
8.134934343
 10
12.51513624
 20
8.141556319
 10
12.5007416872
 20
8.1468091577
 10
12.4868728201
 20
8.1507977093
  0
LINE
  5
433
100
AcDbEntity
  8
0
100
AcDbLine
 62
250
  6
CONTINUOUS
 10
17.6868728201
 20
-5.9174073715
 11
17.6868728201
 21
-5.9908932879
  0
LINE
  5
434
100
AcDbEntity
  8
0
100
AcDbLine
 62
7
  6
CONTINUOUS
 10
17.9868728201
 20
-5.9174073715
 11
17.9868728201
 21
-5.9908932879
  0
LINE
  5
435
100
AcDbEntity
  8
RACCORDO
100
AcDbLine
 62
250
  6
CONTINUOUS
 10
18.1817733819
 20
-1.2225981925
 11
18.1817733819
 21
-1.5225525011
  0
LINE
  5
436
100
AcDbEntity
  8
RACCORDO
100
AcDbLine
 62
250
  6
CONTINUOUS
 10
18.1817733819
 20
-6.3122165504
 11
18.1817733819
 21
-6.0122622419
  0
LINE
  5
437
100
AcDbEntity
  8
RACCORDO
100
AcDbLine
 62
250
  6
CONTINUOUS
 10
18.4817276904
 20
-1.8225068096
 11
18.4817276904
 21
-5.7123079333
  0
LINE
  5
438
100
AcDbEntity
  8
RACCORDO
100
AcDbLine
 62
250
  6
CONTINUOUS
 10
18.781681999
 20
-1.8225068096
 11
18.781681999
 21
-5.7123079333
  0
LINE
  5
439
100
AcDbEntity
  8
RACCORDO
100
AcDbLine
 62
7
  6
CONTINUOUS
 10
18.4604500985
 20
-5.6910303414
 11
18.4616226319
 21
-1.8426118682
  0
LWPOLYLINE
  5
43A
100
AcDbEntity
  8
RACCORDO
100
AcDbPolyline
 62
250
  6
CONTINUOUS
 90
19
 70
0
 10
18.4817276783
 20
-5.7123079211
 10
18.4804835756
 20
-5.7396997891
 10
18.4767475753
 20
-5.7668441232
 10
18.4705556601
 20
-5.7935154073
 10
18.4619527912
 20
-5.8195226008
 10
18.4510210155
 20
-5.8446191197
 10
18.4379053904
 20
-5.8685161982
 10
18.4226305823
 20
-5.8911801249
 10
18.4054307891
 20
-5.912273804
 10
18.3869475603
 20
-5.9311979905
 10
18.3677643469
 20
-5.9477132521
 10
18.3478930368
 20
-5.9621284837
 10
18.3271603925
 20
-5.9747303153
 10
18.3059722139
 20
-5.9853899155
 10
18.2842774593
 20
-5.9942433213
 10
18.2610316423
 20
-6.0016305106
 10
18.2359090964
 20
-6.0073554375
 10
18.2094311872
 20
-6.0109933718
 10
18.1817733736
 20
-6.0122622335
  0
LWPOLYLINE
  5
43B
100
AcDbEntity
  8
RACCORDO
100
AcDbPolyline
 62
250
  6
CONTINUOUS
 90
19
 70
0
 10
18.781681999
 20
-5.7123079333
 10
18.7789908106
 20
-5.7678094325
 10
18.771528566
 20
-5.8219335417
 10
18.7592952652
 20
-5.8746802607
 10
18.7420559869
 20
-5.9265022904
 10
18.7200456525
 20
-5.97694693
 10
18.6939690259
 20
-6.0246560773
 10
18.6633589886
 20
-6.0696830468
 10
18.6286826591
 20
-6.111974524
 10
18.5920461566
 20
-6.1500124631
 10
18.5539673628
 20
-6.1831045131
 10
18.5139283959
 20
-6.2119430251
 10
18.4724817302
 20
-6.237087006
 10
18.4303141762
 20
-6.2586956511
 10
18.3867389233
 20
-6.2766097651
 10
18.3402480133
 20
-6.2909107699
 10
18.2903387933
 20
-6.301625806
 10
18.2375139162
 20
-6.3087277328
 10
18.1817733819
 20
-6.3122165504
  0
LWPOLYLINE
  5
43C
100
AcDbEntity
  8
RACCORDO
100
AcDbPolyline
 62
250
  6
CONTINUOUS
 90
19
 70
0
 10
22.4246085762
 20
10.9703588456
 10
22.4235060714
 20
10.9902150413
 10
22.4206850906
 20
11.0094035049
 10
22.4161456336
 20
11.0279242362
 10
22.4096864121
 20
11.0459951645
 10
22.4015087144
 20
11.0633983606
 10
22.3922164064
 20
11.0794800376
 10
22.3818003545
 20
11.0940500558
 10
22.3702696922
 20
11.1072985549
 10
22.3582556857
 20
11.1191421671
 10
22.3459928216
 20
11.1294450493
 10
22.3332466133
 20
11.1383430445
 10
22.319944867
 20
11.146160314
 10
22.3061999872
 20
11.1530304161
 10
22.2918995695
 20
11.1588197924
 10
22.2766342064
 20
11.1634519288
 10
22.2602674288
 20
11.1669013207
 10
22.2429357057
 20
11.1691934726
 10
22.2246390372
 20
11.1703283847
  0
LWPOLYLINE
  5
43D
100
AcDbEntity
  8
RACCORDO
100
AcDbPolyline
 62
250
  6
CONTINUOUS
 90
5
 70
0
 10
22.7403975625
 20
2.4387357135
 10
22.7411835566
 20
2.4234607435
 10
22.741922005
 20
2.406263444
 10
22.7425861514
 20
2.3877859437
 10
22.7431637752
 20
2.3686158284
  0
LINE
  5
43E
100
AcDbEntity
  8
RACCORDO
100
AcDbLine
 62
250
  6
CONTINUOUS
 10
22.7431637752
 20
2.3686158284
 11
22.7441060224
 21
2.3280391244
  0
LINE
  5
43F
100
AcDbEntity
  8
RACCORDO
100
AcDbLine
 62
250
  6
CONTINUOUS
 10
22.7441060224
 20
2.3280391244
 11
22.7447964076
 21
2.285129893
  0
LINE
  5
440
100
AcDbEntity
  8
RACCORDO
100
AcDbLine
 62
250
  6
CONTINUOUS
 10
22.7447964076
 20
2.285129893
 11
22.7452336095
 21
2.2367360973
  0
LINE
  5
441
100
AcDbEntity
  8
RACCORDO
100
AcDbLine
 62
250
  6
CONTINUOUS
 10
22.7452336095
 20
2.2367360973
 11
22.7454189488
 21
2.1825926285
  0
LINE
  5
442
100
AcDbEntity
  8
RACCORDO
100
AcDbLine
 62
250
  6
CONTINUOUS
 10
22.2246390372
 20
-11.2051431276
 11
22.2246390459
 21
-11.5050974362
  0
LINE
  5
443
100
AcDbEntity
  8
RACCORDO
100
AcDbLine
 62
250
  6
CONTINUOUS
 10
22.2246390372
 20
11.1703283847
 11
22.2246390372
 21
11.4702826932
  0
LINE
  5
444
100
AcDbEntity
  8
RACCORDO
100
AcDbLine
 62
250
  6
CONTINUOUS
 10
22.4246085762
 20
-11.0051735886
 11
22.4246085762
 21
10.9703588456
  0
LINE
  5
445
100
AcDbEntity
  8
RACCORDO
100
AcDbLine
 62
250
  6
CONTINUOUS
 10
22.7245628847
 20
-11.0051735886
 11
22.7245628847
 21
10.9703588456
  0
LINE
  5
446
100
AcDbEntity
  8
RACCORDO
100
AcDbLine
 62
7
  6
CONTINUOUS
 10
22.7368728201
 20
10.982668781
 11
22.7368728201
 21
-11.0174835239
  0
LINE
  5
447
100
AcDbEntity
  8
RACCORDO
100
AcDbLine
 62
250
  6
CONTINUOUS
 10
22.7454189342
 20
2.1825926285
 11
22.7453741276
 21
-2.2436295714
  0
LINE
  5
448
100
AcDbEntity
  8
RACCORDO
100
AcDbLine
 62
250
  6
CONTINUOUS
 10
22.7453741276
 20
-2.2436295714
 11
22.7450637428
 21
-2.294848407
  0
LINE
  5
449
100
AcDbEntity
  8
RACCORDO
100
AcDbLine
 62
250
  6
CONTINUOUS
 10
22.7450637428
 20
-2.294848407
 11
22.7444542603
 21
-2.3431169667
  0
LWPOLYLINE
  5
44A
100
AcDbEntity
  8
RACCORDO
100
AcDbPolyline
 62
250
  6
CONTINUOUS
 90
11
 70
0
 10
22.7444542603
 20
-2.3431169667
 10
22.7435704715
 20
-2.387633815
 10
22.7430282175
 20
-2.4081287642
 10
22.7424306111
 20
-2.4272462325
 10
22.7417795991
 20
-2.4447816922
 10
22.7410732347
 20
-2.4606728795
 10
22.7403167875
 20
-2.4749502737
 10
22.7395043008
 20
-2.4875081029
 10
22.7386417314
 20
-2.4980778996
 10
22.7377522188
 20
-2.5064441531
 10
22.7368728201
 20
-2.5122996982
  0
LWPOLYLINE
  5
44B
100
AcDbEntity
  8
RACCORDO
100
AcDbPolyline
 62
250
  6
CONTINUOUS
 90
19
 70
0
 10
22.7245628847
 20
10.9703588456
 10
22.7221519785
 20
11.0193092138
 10
22.7150334746
 20
11.06741929
 10
22.7033831092
 20
11.1142499006
 10
22.6872989083
 20
11.1596746143
 10
22.6670920795
 20
11.2030071154
 10
22.643547414
 20
11.2431267795
 10
22.6173287256
 20
11.2796794786
 10
22.5888199202
 20
11.3127850771
 10
22.5586430091
 20
11.3422794997
 10
22.5277072437
 20
11.3678943328
 10
22.4960708949
 20
11.3901343208
 10
22.4628711186
 20
11.409830023
 10
22.4283963204
 20
11.4268410583
 10
22.3927815311
 20
11.4411299591
 10
22.354606359
 20
11.4530709551
 10
22.3134435358
 20
11.4623165694
 10
22.2700288468
 20
11.4682097645
 10
22.2246390372
 20
11.4702826932
  0
LINE
  5
44C
100
AcDbEntity
  8
RACCORDO
100
AcDbLine
 62
250
  6
CONTINUOUS
 10
23.4368728201
 20
2.4825926285
 11
23.4368728201
 21
-2.5174073715
  0
LINE
  5
44D
100
AcDbEntity
  8
RACCORDO
100
AcDbLine
 62
7
  6
CONTINUOUS
 10
23.7368728201
 20
2.1825926285
 11
23.7368728201
 21
-2.2174073715
  0
ARC
  5
44E
100
AcDbEntity
  8
RACCORDO
100
AcDbCircle
 62
7
  6
CONTINUOUS
 10
-23.9631271799
 20
2.1825926285
 40
0.3
100
AcDbArc
 50
90.0
 51
180.0
  0
ARC
  5
44F
100
AcDbEntity
  8
RACCORDO
100
AcDbCircle
 62
7
  6
CONTINUOUS
 10
-23.9631271799
 20
-2.2174073715
 40
0.3
100
AcDbArc
 50
180.0
 51
270.0
  0
ARC
  5
450
100
AcDbEntity
  8
RACCORDO
100
AcDbCircle
 62
7
  6
CONTINUOUS
 10
23.4368728201
 20
2.1825926285
 40
0.3
100
AcDbArc
 50
0.0
 51
90.0
  0
ARC
  5
451
100
AcDbEntity
  8
RACCORDO
100
AcDbCircle
 62
7
  6
CONTINUOUS
 10
23.4368728201
 20
-2.2174073715
 40
0.3
100
AcDbArc
 50
270.0
 51
360.0
  0
ELLIPSE
  5
452
100
AcDbEntity
  8
RACCORDO
100
AcDbEllipse
 62
7
  6
CONTINUOUS
 10
22.236796656
 20
10.9825164645
 30
0.0
 11
-0.3536610946
 21
-0.3536610946
 31
0.0
 40
0.9996954599
 41
8.6395320906
 42
10.2100238309
  0
ELLIPSE
  5
453
100
AcDbEntity
  8
RACCORDO
100
AcDbEllipse
 62
7
  6
CONTINUOUS
 10
-22.7630510159
 20
10.9825164645
 30
0.0
 11
0.3536610946
 21
-0.3536610946
 31
0.0
 40
0.9996954599
 41
2.3563467834
 42
3.9268385237
  0
ELLIPSE
  5
454
100
AcDbEntity
  8
RACCORDO
100
AcDbEllipse
 62
7
  6
CONTINUOUS
 10
-22.7630510159
 20
10.9825164645
 30
0.0
 11
-0.3536610946
 21
0.3536610946
 31
0.0
 40
0.9996954599
 41
-0.7852458701
 42
0.6847600593
  0
ELLIPSE
  5
455
100
AcDbEntity
  8
RACCORDO
100
AcDbEllipse
 62
7
  6
CONTINUOUS
 10
-22.7630510159
 20
-11.0173312074
 30
0.0
 11
0.3536610946
 21
0.3536610946
 31
0.0
 40
0.9996954599
 41
-3.9268385237
 42
-2.3563467834
  0
ELLIPSE
  5
456
100
AcDbEntity
  8
RACCORDO
100
AcDbEllipse
 62
7
  6
CONTINUOUS
 10
22.236796656
 20
-11.0173312074
 30
0.0
 11
0.3536610946
 21
-0.3536610946
 31
0.0
 40
0.9996954599
 41
0.6847600593
 42
0.7852458701
  0
ELLIPSE
  5
457
100
AcDbEntity
  8
RACCORDO
100
AcDbEllipse
 62
7
  6
CONTINUOUS
 10
22.236796656
 20
-11.0173312074
 30
0.0
 11
-0.3536610946
 21
0.3536610946
 31
0.0
 40
0.9996954599
 41
8.6395320906
 42
10.2100238309
  0
ELLIPSE
  5
458
100
AcDbEntity
  8
RACCORDO
100
AcDbEllipse
 62
7
  6
CONTINUOUS
 10
22.236796656
 20
-11.0173312074
 30
0.0
 11
0.3536610946
 21
-0.3536610946
 31
0.0
 40
0.9996954599
 41
-0.7852458701
 42
-0.6847600201
  0
ELLIPSE
  5
459
100
AcDbEntity
  8
RACCORDO
100
AcDbEllipse
 62
7
  6
CONTINUOUS
 10
22.236796656
 20
10.9825164645
 30
0.0
 11
0.3536610946
 21
0.3536610946
 31
0.0
 40
0.9996954599
 41
-0.7852458701
 42
0.7852458701
  0
ELLIPSE
  5
45A
100
AcDbEntity
  8
RACCORDO
100
AcDbEllipse
 62
7
  6
CONTINUOUS
 10
18.2084805454
 20
-5.4457996462
 30
0.0
 11
0.1578367004
 21
0.2553503493
 31
0.0
 40
0.9993189899
 41
-0.4459304869
 42
0.5533306656
  0
ELLIPSE
  5
45B
100
AcDbEntity
  8
RACCORDO
100
AcDbEllipse
 62
7
  6
CONTINUOUS
 10
15.2652650948
 20
-5.4457996462
 30
0.0
 11
-0.1578367004
 21
0.2553503493
 31
0.0
 40
0.9993189899
 41
-0.5533306656
 42
0.4459304688
  0
ELLIPSE
  5
45C
100
AcDbEntity
  8
RACCORDO
100
AcDbEllipse
 62
7
  6
CONTINUOUS
 10
6.7652650948
 20
-5.4457996462
 30
0.0
 11
-0.1578367004
 21
0.2553503493
 31
0.0
 40
0.9993189899
 41
-0.5533306656
 42
0.4459304688
  0
ELLIPSE
  5
45D
100
AcDbEntity
  8
RACCORDO
100
AcDbEllipse
 62
7
  6
CONTINUOUS
 10
9.7084805454
 20
-5.4457996462
 30
0.0
 11
0.1578367004
 21
0.2553503493
 31
0.0
 40
0.9993189899
 41
-0.4459304869
 42
0.5533306656
  0
ELLIPSE
  5
45E
100
AcDbEntity
  8
RACCORDO
100
AcDbEllipse
 62
7
  6
CONTINUOUS
 10
1.2084805454
 20
-5.4457996462
 30
0.0
 11
0.1578367004
 21
0.2553503493
 31
0.0
 40
0.9993189899
 41
-0.4459304869
 42
0.5533306656
  0
ELLIPSE
  5
45F
100
AcDbEntity
  8
RACCORDO
100
AcDbEllipse
 62
7
  6
CONTINUOUS
 10
-1.7347349052
 20
-5.4457996462
 30
0.0
 11
-0.1578367004
 21
0.2553503493
 31
0.0
 40
0.9993189899
 41
-0.5533306656
 42
0.4459304688
  0
ELLIPSE
  5
460
100
AcDbEntity
  8
RACCORDO
100
AcDbEllipse
 62
7
  6
CONTINUOUS
 10
-10.2347349052
 20
-5.4457996462
 30
0.0
 11
-0.1578367004
 21
0.2553503493
 31
0.0
 40
0.9993189899
 41
-0.5533306656
 42
0.4459304688
  0
ELLIPSE
  5
461
100
AcDbEntity
  8
RACCORDO
100
AcDbEllipse
 62
7
  6
CONTINUOUS
 10
-7.2915194546
 20
-5.4457996462
 30
0.0
 11
0.1578367004
 21
0.2553503493
 31
0.0
 40
0.9993189899
 41
-0.4459304869
 42
0.5533306656
  0
ELLIPSE
  5
462
100
AcDbEntity
  8
RACCORDO
100
AcDbEllipse
 62
7
  6
CONTINUOUS
 10
-10.1878312655
 20
-1.8427032859
 30
0.0
 11
-0.1578367004
 21
0.2553503493
 31
0.0
 40
0.9993189899
 41
-0.5533306656
 42
1.0171610747
  0
ELLIPSE
  5
463
100
AcDbEntity
  8
RACCORDO
100
AcDbEllipse
 62
7
  6
CONTINUOUS
 10
-7.3384230943
 20
-1.8427032859
 30
0.0
 11
0.1578367004
 21
0.2553503493
 31
0.0
 40
0.9993189899
 41
-1.0171610747
 42
0.5533306656
  0
ELLIPSE
  5
464
100
AcDbEntity
  8
RACCORDO
100
AcDbEllipse
 62
7
  6
CONTINUOUS
 10
-7.3395955721
 20
-5.6909389793
 30
0.0
 11
0.3000456845
 21
0.0
 31
0.0
 40
0.9996954599
 41
-1.5707963268
 42
-0.0003045865
  0
ELLIPSE
  5
465
100
AcDbEntity
  8
RACCORDO
100
AcDbEllipse
 62
7
  6
CONTINUOUS
 10
-10.1866587878
 20
-5.6909389793
 30
0.0
 11
0.3000456845
 21
-0.0
 31
0.0
 40
0.9996954599
 41
-3.1412880671
 42
-1.5707963268
  0
ELLIPSE
  5
466
100
AcDbEntity
  8
RACCORDO
100
AcDbEllipse
 62
7
  6
CONTINUOUS
 10
-1.6866587878
 20
-5.6909389793
 30
0.0
 11
0.3000456845
 21
0.0
 31
0.0
 40
0.9996954599
 41
-3.1412880671
 42
-1.5707963268
  0
ELLIPSE
  5
467
100
AcDbEntity
  8
RACCORDO
100
AcDbEllipse
 62
7
  6
CONTINUOUS
 10
1.1604044279
 20
-5.6909389793
 30
0.0
 11
0.3000456845
 21
-0.0
 31
0.0
 40
0.9996954599
 41
-1.5707963268
 42
-0.0003045865
  0
ELLIPSE
  5
468
100
AcDbEntity
  8
RACCORDO
100
AcDbEllipse
 62
7
  6
CONTINUOUS
 10
1.1615769057
 20
-1.8427032859
 30
0.0
 11
0.1578367004
 21
0.2553503493
 31
0.0
 40
0.9993189899
 41
-1.0171610747
 42
0.5533306656
  0
ELLIPSE
  5
469
100
AcDbEntity
  8
RACCORDO
100
AcDbEllipse
 62
7
  6
CONTINUOUS
 10
-1.6878312655
 20
-1.8427032859
 30
0.0
 11
-0.1578367004
 21
0.2553503493
 31
0.0
 40
0.9993189899
 41
-0.5533306656
 42
1.0171610747
  0
ELLIPSE
  5
46A
100
AcDbEntity
  8
RACCORDO
100
AcDbEllipse
 62
7
  6
CONTINUOUS
 10
6.8121687345
 20
-1.8427032859
 30
0.0
 11
-0.1578367004
 21
0.2553503493
 31
0.0
 40
0.9993189899
 41
-0.5533306656
 42
1.0171610747
  0
ELLIPSE
  5
46B
100
AcDbEntity
  8
RACCORDO
100
AcDbEllipse
 62
7
  6
CONTINUOUS
 10
9.6615769057
 20
-1.8427032859
 30
0.0
 11
0.1578367004
 21
0.2553503493
 31
0.0
 40
0.9993189899
 41
-1.0171610747
 42
0.5533306656
  0
ELLIPSE
  5
46C
100
AcDbEntity
  8
RACCORDO
100
AcDbEllipse
 62
7
  6
CONTINUOUS
 10
9.6604044279
 20
-5.6909389793
 30
0.0
 11
0.3000456845
 21
0.0
 31
0.0
 40
0.9996954599
 41
-1.5707963268
 42
-0.0003045865
  0
ELLIPSE
  5
46D
100
AcDbEntity
  8
RACCORDO
100
AcDbEllipse
 62
7
  6
CONTINUOUS
 10
6.8133412122
 20
-5.6909389793
 30
0.0
 11
0.3000456845
 21
0.0
 31
0.0
 40
0.9996954599
 41
-3.1412880671
 42
-1.5707963268
  0
ELLIPSE
  5
46E
100
AcDbEntity
  8
RACCORDO
100
AcDbEllipse
 62
7
  6
CONTINUOUS
 10
15.3133412122
 20
-5.6909389793
 30
0.0
 11
0.3000456845
 21
-0.0
 31
0.0
 40
0.9996954599
 41
-3.1412880671
 42
-1.5707963268
  0
ELLIPSE
  5
46F
100
AcDbEntity
  8
RACCORDO
100
AcDbEllipse
 62
7
  6
CONTINUOUS
 10
18.1604044279
 20
-5.6909389793
 30
0.0
 11
0.3000456845
 21
-0.0
 31
0.0
 40
0.9996954599
 41
-1.5707963268
 42
-0.0003045865
  0
ELLIPSE
  5
470
100
AcDbEntity
  8
RACCORDO
100
AcDbEllipse
 62
7
  6
CONTINUOUS
 10
18.1615769057
 20
-1.8427032859
 30
0.0
 11
0.1578367004
 21
0.2553503493
 31
0.0
 40
0.9993189899
 41
-1.0171610747
 42
0.5533306656
  0
ELLIPSE
  5
471
100
AcDbEntity
  8
RACCORDO
100
AcDbEllipse
 62
7
  6
CONTINUOUS
 10
15.3121687345
 20
-1.8427032859
 30
0.0
 11
-0.1578367004
 21
0.2553503493
 31
0.0
 40
0.9993189899
 41
-0.5533306656
 42
1.0171610747
  0
ELLIPSE
  5
472
100
AcDbEntity
  8
DRAFT
100
AcDbEllipse
 62
7
  6
CONTINUOUS
 10
-0.2631271799
 20
-10.3808652935
 30
0.0
 11
1.6
 21
-0.0
 31
0.0
 40
0.0174550649
 41
0.0
 42
6.2831853072
  0
ELLIPSE
  5
473
100
AcDbEntity
  8
RACCORDO
100
AcDbEllipse
 62
7
  6
CONTINUOUS
 10
-3.9456264166
 20
-10.5849081348
 30
0.0
 11
0.2121966568
 21
-0.2121966568
 31
0.0
 40
0.9996954599
 41
2.3563467834
 42
3.9268385237
  0
ELLIPSE
  5
474
100
AcDbEntity
  8
RACCORDO
100
AcDbEllipse
 62
7
  6
CONTINUOUS
 10
3.4193720567
 20
-10.5849081348
 30
0.0
 11
0.2121966568
 21
0.2121966568
 31
0.0
 40
0.9996954599
 41
-0.7852458701
 42
0.7852458701
  0
ELLIPSE
  5
475
100
AcDbEntity
  8
RACCORDO
100
AcDbEllipse
 62
7
  6
CONTINUOUS
 10
-3.9456264166
 20
-11.1999066081
 30
0.0
 11
0.2121966568
 21
0.2121966568
 31
0.0
 40
0.9996954599
 41
-3.9268385237
 42
-3.9096898177
  0
ELLIPSE
  5
476
100
AcDbEntity
  8
RACCORDO
100
AcDbEllipse
 62
7
  6
CONTINUOUS
 10
3.4193720567
 20
-11.1999066081
 30
0.0
 11
-0.2121966568
 21
0.2121966568
 31
0.0
 40
0.9996954599
 41
-2.3734954895
 42
-2.3563467834
  0
ELLIPSE
  5
477
100
AcDbEntity
  8
DRAFT
100
AcDbEllipse
 62
7
  6
CONTINUOUS
 10
-0.2631271799
 20
-11.4039494494
 30
0.0
 11
1.6
 21
0.0
 31
0.0
 40
0.0174550649
 41
0.0
 42
6.2831853072
  0
ENDSEC
  0
SECTION
  2
OBJECTS
  0
DICTIONARY
  5
C
100
AcDbDictionary
280
0
281
1
  3
ACAD_GROUP
350
D
  3
ACAD_MLINESTYLE
350
17
  3
ACAD_LAYOUT
350
1A
  3
ACAD_PLOTSETTINGS
350
19
  3
ACAD_PLOTSTYLENAME
350
E
  0
DICTIONARY
  5
D
102
{ACAD_REACTORS
330
C
102
}
100
AcDbDictionary
280
0
281
1
  0
ACDBDICTIONARYWDFLT
  5
E
102
{ACAD_REACTORS
330
C
102
}
100
AcDbDictionary
281
1
  3
Normal
350
F
100
AcDbDictionaryWithDefault
340
F
  0
DICTIONARY
  5
17
102
{ACAD_REACTORS
330
C
102
}
100
AcDbDictionary
280
0
281
1
  3
Standard
350
18
  0
DICTIONARY
  5
19
102
{ACAD_REACTORS
330
C
102
}
100
AcDbDictionary
281
1
  0
DICTIONARY
  5
1A
102
{ACAD_REACTORS
330
C
102
}
100
AcDbDictionary
281
1
  3
Model
350
478
  3
Layout1
350
479
  0
ACDBPLACEHOLDER
  5
F
102
{ACAD_REACTORS
330
E
102
}
  0
MLINESTYLE
  5
18
102
{ACAD_REACTORS
330
17
102
}
100
AcDbMlineStyle
  2
STANDARD
 70
0
  3

 62
256
 51
90.0
 52
90.0
 71
2
 49
0.5
 62
256
  6
BYLAYER
 49
-0.5
 62
256
  6
BYLAYER
  0
LAYOUT
  5
478
102
{ACAD_REACTORS
330
1A
102
}
100
AcDbPlotSettings
  1

  2
none_device
  4
ISO_A4_(297.00_x_210.00_MM)
  6

 40
0.0
 41
0.0
 42
0.0
 43
0.0
 44
297.0
 45
210.0
 46
0.0
 47
0.0
 48
0.0
 49
0.0
140
0.0
141
0.0
142
1.0
143
1.0
 70
1024
 72
1
 73
0
 74
0
  7

 75
0
147
1.0
148
0.0
149
0.0
100
AcDbLayout
  1
Model
 70
0
 71
0
 10
0.0
 20
0.0
 11
297.0
 21
210.0
 12
0.0
 22
0.0
 32
0.0
 14
0.0
 24
0.0
 34
0.0
 15
0.0
 25
0.0
 35
0.0
146
0.0
 13
0.0
 23
0.0
 33
0.0
 16
1.0
 26
0.0
 36
0.0
 17
0.0
 27
1.0
 37
0.0
 76
0
330
25E
345
0
346
0
  0
LAYOUT
  5
479
102
{ACAD_REACTORS
330
1A
102
}
100
AcDbPlotSettings
  1

  2
none_device
  4
ISO_A4_(297.00_x_210.00_MM)
  6

 40
0.0
 41
0.0
 42
0.0
 43
0.0
 44
297.0
 45
210.0
 46
0.0
 47
0.0
 48
0.0
 49
0.0
140
0.0
141
0.0
142
1.0
143
1.0
 70
0
 72
1
 73
0
 74
0
  7

 75
0
147
1.0
148
0.0
149
0.0
100
AcDbLayout
  1
Layout1
 70
0
 71
1
 10
0.0
 20
0.0
 11
297.0
 21
210.0
 12
0.0
 22
0.0
 32
0.0
 14
0.0
 24
0.0
 34
0.0
 15
0.0
 25
0.0
 35
0.0
146
0.0
 13
0.0
 23
0.0
 33
0.0
 16
1.0
 26
0.0
 36
0.0
 17
0.0
 27
1.0
 37
0.0
 76
0
330
25F
345
0
346
0
  0
ENDSEC
  0
EOF
