  0
SECTION
  2
HEADER
  9
$ACADVER
  1
AC1024
  9
$DWGCODEPAGE
  3
ANSI_1252
  9
$EXTMAX
 10
297.0
 20
210.0
 30
0.0
  9
$EXTMIN
 10
0.0
 20
0.0
 30
0.0
  9
$LIMMIN
 10
0.0
 20
0.0
  9
$LIMMAX
 10
297.0
 20
210.0
  9
$VIEWCTR
 10
148.5
 20
105.0
  9
$VIEWSIZE
 40
210.0
  9
$CLAYER
  8
0
  9
$LTSCALE
 40
16.335
  9
$CELTYPE
  6
BYLAYER
  9
$DIMSCALE
 40
1.0
  9
$DIMASZ
 40
3.0
  9
$DIMEXO
 40
0.5
  9
$DIMDLI
 40
11.286
  9
$DIMEXE
 40
1.5
  9
$DIMCEN
 40
2.673
  9
$DIMLFAC
 40
1.0
  9
$DIMBLK
  1
_FILLED
  9
$DIMALT
 70
0
  9
$DIMALTF
 40
0.0393700787
  9
$DIMTXT
 40
3.0
  9
$DIMTOL
 70
1
  9
$DIMLIM
 70
0
  9
$DIMTFAC
 40
1.0
  9
$DIMTP
 40
0.01
  9
$DIMTM
 40
0.01
  9
$DIMGAP
 40
0.625
  9
$DIMDSEP
 70
44
  9
$AUNITS
 70
0
  9
$PDMODE
 70
3
  9
$PDSIZE
 40
3.0
  9
$HANDSEED
  5
6B8
  9
$TILEMODE
 70
1
  9
$MEASUREMENT
 70
1
  9
$INSUNITS
 70
4
  0
ENDSEC
  0
SECTION
  2
CLASSES
  0
CLASS
  1
ACDBDICTIONARYWDFLT
  2
AcDbDictionaryWithDefault
  3
AutoCAD 2000
 90
0
 91
1
280
0
281
0
  0
CLASS
  1
ACDBPLACEHOLDER
  2
AcDbPlaceHolder
  3
AutoCAD 2000
 90
0
 91
1
280
0
281
0
  0
CLASS
  1
LAYOUT
  2
AcDbLayout
  3
AutoCAD 2000
 90
0
 91
0
280
0
281
0
  0
ENDSEC
  0
SECTION
  2
TABLES
  0
TABLE
  2
VPORT
  5
8
100
AcDbSymbolTable
 70
2
  0
VPORT
  5
1F4
100
AcDbSymbolTableRecord
100
AcDbViewportTableRecord
  2
*ACTIVE
 70
0
 10
0.0
 20
0.0
 11
1.0
 21
1.0
 12
148.5
 22
105.0
 13
0.0
 23
0.0
 14
1.0
 24
1.0
 15
0.0
 25
0.0
 16
0.0
 26
0.0
 36
1.0
 17
0.0
 27
0.0
 37
0.0
 40
210.0
 41
1.4142857143
 42
50.0
 43
0.0
 44
0.0
 50
0.0
 51
0.0
 71
0
 72
100
 73
1
 74
1
 75
0
 76
0
 77
0
 78
0
  0
ENDTAB
  0
TABLE
  2
LTYPE
  5
5
100
AcDbSymbolTable
 70
6
  0
LTYPE
  5
14
100
AcDbSymbolTableRecord
100
AcDbLinetypeTableRecord
  2
BYBLOCK
 70
0
  3

 72
65
 73
0
 40
0.0
  0
LTYPE
  5
15
100
AcDbSymbolTableRecord
100
AcDbLinetypeTableRecord
  2
BYLAYER
 70
0
  3

 72
65
 73
0
 40
0.0
  0
LTYPE
  5
16
100
AcDbSymbolTableRecord
100
AcDbLinetypeTableRecord
  2
CONTINUOUS
 70
64
  3
Solid line
 72
65
 73
0
 40
0.0
  0
LTYPE
  5
1F5
100
AcDbSymbolTableRecord
100
AcDbLinetypeTableRecord
  2
CENTER
 70
64
  3
____ _ ____ _ ____ _ ____ _ ____ _ ____ _ ____
 72
65
 73
4
 40
0.6
 49
0.375
 74
0
 49
-0.075
 74
0
 49
0.075
 74
0
 49
-0.075
 74
0
  0
LTYPE
  5
1F6
100
AcDbSymbolTableRecord
100
AcDbLinetypeTableRecord
  2
HIDDEN
 70
64
  3
- - - - - - - - - - - - - - - - - - - -
 72
65
 73
2
 40
0.2
 49
0.1
 74
0
 49
-0.1
 74
0
  0
LTYPE
  5
1F7
100
AcDbSymbolTableRecord
100
AcDbLinetypeTableRecord
  2
PHANTOM
 70
64
  3
_____ _ _ _____ _ _ _____ _ _ _____
 72
65
 73
6
 40
0.8
 49
0.45
 74
0
 49
-0.05
 74
0
 49
0.1
 74
0
 49
-0.05
 74
0
 49
0.1
 74
0
 49
-0.05
 74
0
  0
LTYPE
  5
1F8
100
AcDbSymbolTableRecord
100
AcDbLinetypeTableRecord
  2
DOT
 70
64
  3
. . . . . . . . . . . . . . . . . . . .
 72
65
 73
2
 40
0.2
 49
0.1
 74
0
 49
-0.1
 74
0
  0
LTYPE
  5
1F9
100
AcDbSymbolTableRecord
100
AcDbLinetypeTableRecord
  2
DASHED
 70
64
  3
- - - - - - - - - - - - - - - - - - - -
 72
65
 73
2
 40
0.2
 49
0.1
 74
0
 49
-0.1
 74
0
  0
ENDTAB
  0
TABLE
  2
LAYER
  5
2
100
AcDbSymbolTable
 70
36
  0
LAYER
  5
10
100
AcDbSymbolTableRecord
100
AcDbLayerTableRecord
  2
0
 70
0
 62
7
  6
CONTINUOUS
370
-3
390
F
  0
LAYER
  5
1FA
100
AcDbSymbolTableRecord
100
AcDbLayerTableRecord
  2
DEFAULT_1
 70
0
 62
7
  6
CENTER
370
-3
390
F
  0
LAYER
  5
1FB
100
AcDbSymbolTableRecord
100
AcDbLayerTableRecord
  2
DEFAULT_2
 70
0
 62
7
  6
HIDDEN
370
-3
390
F
  0
LAYER
  5
1FC
100
AcDbSymbolTableRecord
100
AcDbLayerTableRecord
  2
DEFAULT_3
 70
0
 62
7
  6
PHANTOM
370
-3
390
F
  0
LAYER
  5
1FD
100
AcDbSymbolTableRecord
100
AcDbLayerTableRecord
  2
0603_C_REF_90000
 70
0
 62
7
  6
CONTINUOUS
370
-3
390
F
  0
LAYER
  5
1FE
100
AcDbSymbolTableRecord
100
AcDbLayerTableRecord
  2
0603_C_REF_90000_1
 70
0
 62
7
  6
CONTINUOUS
370
-3
390
F
  0
LAYER
  5
1FF
100
AcDbSymbolTableRecord
100
AcDbLayerTableRecord
  2
0603_C_REF_90000_2
 70
0
 62
7
  6
CONTINUOUS
370
-3
390
F
  0
LAYER
  5
200
100
AcDbSymbolTableRecord
100
AcDbLayerTableRecord
  2
0603_C_REF_90000_3
 70
0
 62
7
  6
CONTINUOUS
370
-3
390
F
  0
LAYER
  5
201
100
AcDbSymbolTableRecord
100
AcDbLayerTableRecord
  2
0603_C_REF_90000_4
 70
0
 62
7
  6
CONTINUOUS
370
-3
390
F
  0
LAYER
  5
202
100
AcDbSymbolTableRecord
100
AcDbLayerTableRecord
  2
0603_C_REF_90000_5
 70
0
 62
7
  6
CONTINUOUS
370
-3
390
F
  0
LAYER
  5
203
100
AcDbSymbolTableRecord
100
AcDbLayerTableRecord
  2
0603_C_REF_90000_6
 70
0
 62
7
  6
CONTINUOUS
370
-3
390
F
  0
LAYER
  5
204
100
AcDbSymbolTableRecord
100
AcDbLayerTableRecord
  2
0603_R_REF_55000
 70
0
 62
7
  6
CONTINUOUS
370
-3
390
F
  0
LAYER
  5
205
100
AcDbSymbolTableRecord
100
AcDbLayerTableRecord
  2
0603_R_REF_55000_1
 70
0
 62
7
  6
CONTINUOUS
370
-3
390
F
  0
LAYER
  5
206
100
AcDbSymbolTableRecord
100
AcDbLayerTableRecord
  2
0603_R_REF_55000_10
 70
0
 62
7
  6
CONTINUOUS
370
-3
390
F
  0
LAYER
  5
207
100
AcDbSymbolTableRecord
100
AcDbLayerTableRecord
  2
0603_R_REF_55000_11
 70
0
 62
7
  6
CONTINUOUS
370
-3
390
F
  0
LAYER
  5
208
100
AcDbSymbolTableRecord
100
AcDbLayerTableRecord
  2
0603_R_REF_55000_12
 70
0
 62
7
  6
CONTINUOUS
370
-3
390
F
  0
LAYER
  5
209
100
AcDbSymbolTableRecord
100
AcDbLayerTableRecord
  2
0603_R_REF_55000_13
 70
0
 62
7
  6
CONTINUOUS
370
-3
390
F
  0
LAYER
  5
20A
100
AcDbSymbolTableRecord
100
AcDbLayerTableRecord
  2
0603_R_REF_55000_2
 70
0
 62
7
  6
CONTINUOUS
370
-3
390
F
  0
LAYER
  5
20B
100
AcDbSymbolTableRecord
100
AcDbLayerTableRecord
  2
0603_R_REF_55000_3
 70
0
 62
7
  6
CONTINUOUS
370
-3
390
F
  0
LAYER
  5
20C
100
AcDbSymbolTableRecord
100
AcDbLayerTableRecord
  2
0603_R_REF_55000_4
 70
0
 62
7
  6
CONTINUOUS
370
-3
390
F
  0
LAYER
  5
20D
100
AcDbSymbolTableRecord
100
AcDbLayerTableRecord
  2
0603_R_REF_55000_5
 70
0
 62
7
  6
CONTINUOUS
370
-3
390
F
  0
LAYER
  5
20E
100
AcDbSymbolTableRecord
100
AcDbLayerTableRecord
  2
0603_R_REF_55000_6
 70
0
 62
7
  6
CONTINUOUS
370
-3
390
F
  0
LAYER
  5
20F
100
AcDbSymbolTableRecord
100
AcDbLayerTableRecord
  2
0603_R_REF_55000_7
 70
0
 62
7
  6
CONTINUOUS
370
-3
390
F
  0
LAYER
  5
210
100
AcDbSymbolTableRecord
100
AcDbLayerTableRecord
  2
0603_R_REF_55000_8
 70
0
 62
7
  6
CONTINUOUS
370
-3
390
F
  0
LAYER
  5
211
100
AcDbSymbolTableRecord
100
AcDbLayerTableRecord
  2
0603_R_REF_55000_9
 70
0
 62
7
  6
CONTINUOUS
370
-3
390
F
  0
LAYER
  5
212
100
AcDbSymbolTableRecord
100
AcDbLayerTableRecord
  2
06___PRT_ALL_SURFS_1
 70
0
 62
7
  6
CONTINUOUS
370
-3
390
F
  0
LAYER
  5
213
100
AcDbSymbolTableRecord
100
AcDbLayerTableRecord
  2
06___PRT_ALL_SURFS_12
 70
0
 62
7
  6
CONTINUOUS
370
-3
390
F
  0
LAYER
  5
214
100
AcDbSymbolTableRecord
100
AcDbLayerTableRecord
  2
06___PRT_ALL_SURFS_15
 70
0
 62
7
  6
CONTINUOUS
370
-3
390
F
  0
LAYER
  5
215
100
AcDbSymbolTableRecord
100
AcDbLayerTableRecord
  2
06___PRT_ALL_SURFS_2
 70
0
 62
7
  6
CONTINUOUS
370
-3
390
F
  0
LAYER
  5
216
100
AcDbSymbolTableRecord
100
AcDbLayerTableRecord
  2
06___PRT_ALL_SURFS_3
 70
0
 62
7
  6
CONTINUOUS
370
-3
390
F
  0
LAYER
  5
217
100
AcDbSymbolTableRecord
100
AcDbLayerTableRecord
  2
06___PRT_ALL_SURFS_4
 70
0
 62
7
  6
CONTINUOUS
370
-3
390
F
  0
LAYER
  5
218
100
AcDbSymbolTableRecord
100
AcDbLayerTableRecord
  2
06___PRT_ALL_SURFS_6
 70
0
 62
7
  6
CONTINUOUS
370
-3
390
F
  0
LAYER
  5
219
100
AcDbSymbolTableRecord
100
AcDbLayerTableRecord
  2
06___PRT_ALL_SURFS_8
 70
0
 62
7
  6
CONTINUOUS
370
-3
390
F
  0
LAYER
  5
21A
100
AcDbSymbolTableRecord
100
AcDbLayerTableRecord
  2
0805_C_REF_145000
 70
0
 62
7
  6
CONTINUOUS
370
-3
390
F
  0
LAYER
  5
21B
100
AcDbSymbolTableRecord
100
AcDbLayerTableRecord
  2
0805_R_REF_60000
 70
0
 62
7
  6
CONTINUOUS
370
-3
390
F
  0
LAYER
  5
21C
100
AcDbSymbolTableRecord
100
AcDbLayerTableRecord
  2
0805_R_REF_60000_1
 70
0
 62
7
  6
CONTINUOUS
370
-3
390
F
  0
LAYER
  5
21D
100
AcDbSymbolTableRecord
100
AcDbLayerTableRecord
  2
1206_C_REF_180000
 70
0
 62
7
  6
CONTINUOUS
370
-3
390
F
  0
LAYER
  5
21E
100
AcDbSymbolTableRecord
100
AcDbLayerTableRecord
  2
1206_C_REF_180000_1
 70
0
 62
7
  6
CONTINUOUS
370
-3
390
F
  0
LAYER
  5
21F
100
AcDbSymbolTableRecord
100
AcDbLayerTableRecord
  2
1206_R_WAVE_65000
 70
0
 62
7
  6
CONTINUOUS
370
-3
390
F
  0
LAYER
  5
220
100
AcDbSymbolTableRecord
100
AcDbLayerTableRecord
  2
1206_R_WAVE_65000_1
 70
0
 62
7
  6
CONTINUOUS
370
-3
390
F
  0
LAYER
  5
221
100
AcDbSymbolTableRecord
100
AcDbLayerTableRecord
  2
1206_R_WAVE_65000_2
 70
0
 62
7
  6
CONTINUOUS
370
-3
390
F
  0
LAYER
  5
222
100
AcDbSymbolTableRecord
100
AcDbLayerTableRecord
  2
1206_R_WAVE_65000_3
 70
0
 62
7
  6
CONTINUOUS
370
-3
390
F
  0
LAYER
  5
223
100
AcDbSymbolTableRecord
100
AcDbLayerTableRecord
  2
43000890B0
 70
0
 62
7
  6
CONTINUOUS
370
-3
390
F
  0
LAYER
  5
224
100
AcDbSymbolTableRecord
100
AcDbLayerTableRecord
  2
43000899B0
 70
0
 62
7
  6
CONTINUOUS
370
-3
390
F
  0
LAYER
  5
225
100
AcDbSymbolTableRecord
100
AcDbLayerTableRecord
  2
ASM0003
 70
0
 62
7
  6
CONTINUOUS
370
-3
390
F
  0
LAYER
  5
226
100
AcDbSymbolTableRecord
100
AcDbLayerTableRecord
  2
ASM0004
 70
0
 62
7
  6
CONTINUOUS
370
-3
390
F
  0
LAYER
  5
227
100
AcDbSymbolTableRecord
100
AcDbLayerTableRecord
  2
ASSI
 70
0
 62
7
  6
CONTINUOUS
370
-3
390
F
  0
LAYER
  5
228
100
AcDbSymbolTableRecord
100
AcDbLayerTableRecord
  2
CAP-E-6_3-11-2_5_1120000
 70
0
 62
7
  6
CONTINUOUS
370
-3
390
F
  0
LAYER
  5
229
100
AcDbSymbolTableRecord
100
AcDbLayerTableRecord
  2
CN-1S-HEADER-PIH-1_254000
 70
0
 62
7
  6
CONTINUOUS
370
-3
390
F
  0
LAYER
  5
22A
100
AcDbSymbolTableRecord
100
AcDbLayerTableRecord
  2
CN-1S-HEADER-PIH-1_254000_1
 70
0
 62
7
  6
CONTINUOUS
370
-3
390
F
  0
LAYER
  5
22B
100
AcDbSymbolTableRecord
100
AcDbLayerTableRecord
  2
CN-1S-HEADER-PIH-1_254000_10
 70
0
 62
7
  6
CONTINUOUS
370
-3
390
F
  0
LAYER
  5
22C
100
AcDbSymbolTableRecord
100
AcDbLayerTableRecord
  2
CN-1S-HEADER-PIH-1_254000_11
 70
0
 62
7
  6
CONTINUOUS
370
-3
390
F
  0
LAYER
  5
22D
100
AcDbSymbolTableRecord
100
AcDbLayerTableRecord
  2
CN-1S-HEADER-PIH-1_254000_2
 70
0
 62
7
  6
CONTINUOUS
370
-3
390
F
  0
LAYER
  5
22E
100
AcDbSymbolTableRecord
100
AcDbLayerTableRecord
  2
CN-1S-HEADER-PIH-1_254000_3
 70
0
 62
7
  6
CONTINUOUS
370
-3
390
F
  0
LAYER
  5
22F
100
AcDbSymbolTableRecord
100
AcDbLayerTableRecord
  2
CN-1S-HEADER-PIH-1_254000_4
 70
0
 62
7
  6
CONTINUOUS
370
-3
390
F
  0
LAYER
  5
230
100
AcDbSymbolTableRecord
100
AcDbLayerTableRecord
  2
CN-1S-HEADER-PIH-1_254000_5
 70
0
 62
7
  6
CONTINUOUS
370
-3
390
F
  0
LAYER
  5
231
100
AcDbSymbolTableRecord
100
AcDbLayerTableRecord
  2
CN-1S-HEADER-PIH-1_254000_6
 70
0
 62
7
  6
CONTINUOUS
370
-3
390
F
  0
LAYER
  5
232
100
AcDbSymbolTableRecord
100
AcDbLayerTableRecord
  2
CN-1S-HEADER-PIH-1_254000_7
 70
0
 62
7
  6
CONTINUOUS
370
-3
390
F
  0
LAYER
  5
233
100
AcDbSymbolTableRecord
100
AcDbLayerTableRecord
  2
CN-1S-HEADER-PIH-1_254000_8
 70
0
 62
7
  6
CONTINUOUS
370
-3
390
F
  0
LAYER
  5
234
100
AcDbSymbolTableRecord
100
AcDbLayerTableRecord
  2
CN-1S-HEADER-PIH-1_254000_9
 70
0
 62
7
  6
CONTINUOUS
370
-3
390
F
  0
LAYER
  5
235
100
AcDbSymbolTableRecord
100
AcDbLayerTableRecord
  2
COLOR15
 70
0
 62
7
  6
CONTINUOUS
370
-3
390
F
  0
LAYER
  5
236
100
AcDbSymbolTableRecord
100
AcDbLayerTableRecord
  2
COLOR16
 70
0
 62
7
  6
CONTINUOUS
370
-3
390
F
  0
LAYER
  5
237
100
AcDbSymbolTableRecord
100
AcDbLayerTableRecord
  2
COLOR22
 70
0
 62
7
  6
CONTINUOUS
370
-3
390
F
  0
LAYER
  5
238
100
AcDbSymbolTableRecord
100
AcDbLayerTableRecord
  2
COLOR29
 70
0
 62
7
  6
CONTINUOUS
370
-3
390
F
  0
LAYER
  5
239
100
AcDbSymbolTableRecord
100
AcDbLayerTableRecord
  2
COLOR31
 70
0
 62
7
  6
CONTINUOUS
370
-3
390
F
  0
LAYER
  5
23A
100
AcDbSymbolTableRecord
100
AcDbLayerTableRecord
  2
COORDINATE
 70
0
 62
7
  6
CONTINUOUS
370
-3
390
F
  0
LAYER
  5
23B
100
AcDbSymbolTableRecord
100
AcDbLayerTableRecord
  2
COPY_PUBLISH
 70
0
 62
7
  6
CONTINUOUS
370
-3
390
F
  0
LAYER
  5
23C
100
AcDbSymbolTableRecord
100
AcDbLayerTableRecord
  2
COSMETIC
 70
0
 62
7
  6
CONTINUOUS
370
-3
390
F
  0
LAYER
  5
23D
100
AcDbSymbolTableRecord
100
AcDbLayerTableRecord
  2
COSMETICI
 70
0
 62
7
  6
CONTINUOUS
370
-3
390
F
  0
LAYER
  5
23E
100
AcDbSymbolTableRecord
100
AcDbLayerTableRecord
  2
CURVE
 70
0
 62
7
  6
CONTINUOUS
370
-3
390
F
  0
LAYER
  5
23F
100
AcDbSymbolTableRecord
100
AcDbLayerTableRecord
  2
DB-SMD-ABS_145000
 70
0
 62
7
  6
CONTINUOUS
370
-3
390
F
  0
LAYER
  5
240
100
AcDbSymbolTableRecord
100
AcDbLayerTableRecord
  2
DRAFT
 70
0
 62
7
  6
CONTINUOUS
370
-3
390
F
  0
LAYER
  5
241
100
AcDbSymbolTableRecord
100
AcDbLayerTableRecord
  2
E2_MARK_10000
 70
0
 62
7
  6
CONTINUOUS
370
-3
390
F
  0
LAYER
  5
242
100
AcDbSymbolTableRecord
100
AcDbLayerTableRecord
  2
FUSE-1A-250V_770000
 70
0
 62
7
  6
CONTINUOUS
370
-3
390
F
  0
LAYER
  5
243
100
AcDbSymbolTableRecord
100
AcDbLayerTableRecord
  2
GEOMETRIA_SOLIDA
 70
0
 62
7
  6
CONTINUOUS
370
-3
390
F
  0
LAYER
  5
244
100
AcDbSymbolTableRecord
100
AcDbLayerTableRecord
  2
GEOMETRIA_SOLIDA_1
 70
0
 62
7
  6
CONTINUOUS
370
-3
390
F
  0
LAYER
  5
245
100
AcDbSymbolTableRecord
100
AcDbLayerTableRecord
  2
IMPORT_IGES
 70
0
 62
7
  6
CONTINUOUS
370
-3
390
F
  0
LAYER
  5
246
100
AcDbSymbolTableRecord
100
AcDbLayerTableRecord
  2
IMPORT_IGES_1
 70
0
 62
7
  6
CONTINUOUS
370
-3
390
F
  0
LAYER
  5
247
100
AcDbSymbolTableRecord
100
AcDbLayerTableRecord
  2
INTF_1
 70
0
 62
7
  6
CONTINUOUS
370
-3
390
F
  0
LAYER
  5
248
100
AcDbSymbolTableRecord
100
AcDbLayerTableRecord
  2
INTF_BLANK
 70
0
 62
7
  6
CONTINUOUS
370
-3
390
F
  0
LAYER
  5
249
100
AcDbSymbolTableRecord
100
AcDbLayerTableRecord
  2
INTF_BLUE
 70
0
 62
7
  6
CONTINUOUS
370
-3
390
F
  0
LAYER
  5
24A
100
AcDbSymbolTableRecord
100
AcDbLayerTableRecord
  2
LAYER_802
 70
0
 62
7
  6
CONTINUOUS
370
-3
390
F
  0
LAYER
  5
24B
100
AcDbSymbolTableRecord
100
AcDbLayerTableRecord
  2
LED_0805_120000
 70
0
 62
7
  6
CONTINUOUS
370
-3
390
F
  0
LAYER
  5
24C
100
AcDbSymbolTableRecord
100
AcDbLayerTableRecord
  2
LOGO_RESIST-RESTYLING_10000
 70
0
 62
7
  6
CONTINUOUS
370
-3
390
F
  0
LAYER
  5
24D
100
AcDbSymbolTableRecord
100
AcDbLayerTableRecord
  2
MM3-SOT-89-RF-VIMAR_150000
 70
0
 62
7
  6
CONTINUOUS
370
-3
390
F
  0
LAYER
  5
24E
100
AcDbSymbolTableRecord
100
AcDbLayerTableRecord
  2
NO-PB_MARK_10000
 70
0
 62
7
  6
CONTINUOUS
370
-3
390
F
  0
LAYER
  5
24F
100
AcDbSymbolTableRecord
100
AcDbLayerTableRecord
  2
NONE
 70
0
 62
7
  6
CONTINUOUS
370
-3
390
F
  0
LAYER
  5
250
100
AcDbSymbolTableRecord
100
AcDbLayerTableRecord
  2
NOTE
 70
0
 62
7
  6
CONTINUOUS
370
-3
390
F
  0
LAYER
  5
251
100
AcDbSymbolTableRecord
100
AcDbLayerTableRecord
  2
PIANI
 70
0
 62
7
  6
CONTINUOUS
370
-3
390
F
  0
LAYER
  5
252
100
AcDbSymbolTableRecord
100
AcDbLayerTableRecord
  2
PIANI_RIFERIMENTO
 70
0
 62
7
  6
CONTINUOUS
370
-3
390
F
  0
LAYER
  5
253
100
AcDbSymbolTableRecord
100
AcDbLayerTableRecord
  2
PUNTI
 70
0
 62
7
  6
CONTINUOUS
370
-3
390
F
  0
LAYER
  5
254
100
AcDbSymbolTableRecord
100
AcDbLayerTableRecord
  2
P_2P_DIP_SWITCH_7_5X7_1_H_3_5MM
 70
0
 62
7
  6
CONTINUOUS
370
-3
390
F
  0
LAYER
  5
255
100
AcDbSymbolTableRecord
100
AcDbLayerTableRecord
  2
RACCORDO
 70
0
 62
7
  6
CONTINUOUS
370
-3
390
F
  0
LAYER
  5
256
100
AcDbSymbolTableRecord
100
AcDbLayerTableRecord
  2
RD-C150-2-VIMAR_1350000
 70
0
 62
7
  6
CONTINUOUS
370
-3
390
F
  0
LAYER
  5
257
100
AcDbSymbolTableRecord
100
AcDbLayerTableRecord
  2
RGB____0____0____0__
 70
0
 62
7
  6
CONTINUOUS
370
-3
390
F
  0
LAYER
  5
258
100
AcDbSymbolTableRecord
100
AcDbLayerTableRecord
  2
S-PB_SKRP_VIMAR_250000
 70
0
 62
7
  6
CONTINUOUS
370
-3
390
F
  0
LAYER
  5
259
100
AcDbSymbolTableRecord
100
AcDbLayerTableRecord
  2
S-PB_SKRP_VIMAR_250000_1
 70
0
 62
7
  6
CONTINUOUS
370
-3
390
F
  0
LAYER
  5
25A
100
AcDbSymbolTableRecord
100
AcDbLayerTableRecord
  2
SIMBOLI
 70
0
 62
7
  6
CONTINUOUS
370
-3
390
F
  0
LAYER
  5
25B
100
AcDbSymbolTableRecord
100
AcDbLayerTableRecord
  2
SMUSSO
 70
0
 62
7
  6
CONTINUOUS
370
-3
390
F
  0
LAYER
  5
25C
100
AcDbSymbolTableRecord
100
AcDbLayerTableRecord
  2
SNAPLINE
 70
0
 62
7
  6
CONTINUOUS
370
-3
390
F
  0
LAYER
  5
25D
100
AcDbSymbolTableRecord
100
AcDbLayerTableRecord
  2
SOD123_REF_140000
 70
0
 62
7
  6
CONTINUOUS
370
-3
390
F
  0
LAYER
  5
25E
100
AcDbSymbolTableRecord
100
AcDbLayerTableRecord
  2
SOD123_REF_140000_1
 70
0
 62
7
  6
CONTINUOUS
370
-3
390
F
  0
LAYER
  5
25F
100
AcDbSymbolTableRecord
100
AcDbLayerTableRecord
  2
SOT323_H1_1_REF_110000
 70
0
 62
7
  6
CONTINUOUS
370
-3
390
F
  0
LAYER
  5
260
100
AcDbSymbolTableRecord
100
AcDbLayerTableRecord
  2
SOT323_H1_1_REF_110000_1
 70
0
 62
7
  6
CONTINUOUS
370
-3
390
F
  0
LAYER
  5
261
100
AcDbSymbolTableRecord
100
AcDbLayerTableRecord
  2
SOT323_H1_1_REF_110000_2
 70
0
 62
7
  6
CONTINUOUS
370
-3
390
F
  0
LAYER
  5
262
100
AcDbSymbolTableRecord
100
AcDbLayerTableRecord
  2
SOT323_H1_1_REF_110000_3
 70
0
 62
7
  6
CONTINUOUS
370
-3
390
F
  0
LAYER
  5
263
100
AcDbSymbolTableRecord
100
AcDbLayerTableRecord
  2
SOT323_H1_1_REF_110000_4
 70
0
 62
7
  6
CONTINUOUS
370
-3
390
F
  0
LAYER
  5
264
100
AcDbSymbolTableRecord
100
AcDbLayerTableRecord
  2
SOT323_H1_1_REF_110000_5
 70
0
 62
7
  6
CONTINUOUS
370
-3
390
F
  0
LAYER
  5
265
100
AcDbSymbolTableRecord
100
AcDbLayerTableRecord
  2
SOT323_H1_1_REF_110000_6
 70
0
 62
7
  6
CONTINUOUS
370
-3
390
F
  0
LAYER
  5
266
100
AcDbSymbolTableRecord
100
AcDbLayerTableRecord
  2
SOT323_H1_1_REF_110000_7
 70
0
 62
7
  6
CONTINUOUS
370
-3
390
F
  0
LAYER
  5
267
100
AcDbSymbolTableRecord
100
AcDbLayerTableRecord
  2
SUB_SMA_143000
 70
0
 62
7
  6
CONTINUOUS
370
-3
390
F
  0
LAYER
  5
268
100
AcDbSymbolTableRecord
100
AcDbLayerTableRecord
  2
SUB_SMA_143000_1
 70
0
 62
7
  6
CONTINUOUS
370
-3
390
F
  0
LAYER
  5
269
100
AcDbSymbolTableRecord
100
AcDbLayerTableRecord
  2
SUB_SMA_143000_2
 70
0
 62
7
  6
CONTINUOUS
370
-3
390
F
  0
LAYER
  5
26A
100
AcDbSymbolTableRecord
100
AcDbLayerTableRecord
  2
SUB_SMA_143000_3
 70
0
 62
7
  6
CONTINUOUS
370
-3
390
F
  0
LAYER
  5
26B
100
AcDbSymbolTableRecord
100
AcDbLayerTableRecord
  2
SUPERFICI
 70
0
 62
7
  6
CONTINUOUS
370
-3
390
F
  0
LAYER
  5
26C
100
AcDbSymbolTableRecord
100
AcDbLayerTableRecord
  2
TP-RND-1_0_3500
 70
0
 62
7
  6
CONTINUOUS
370
-3
390
F
  0
LAYER
  5
26D
100
AcDbSymbolTableRecord
100
AcDbLayerTableRecord
  2
TP-RND-1_0_3500_1
 70
0
 62
7
  6
CONTINUOUS
370
-3
390
F
  0
LAYER
  5
26E
100
AcDbSymbolTableRecord
100
AcDbLayerTableRecord
  2
TP-RND-1_0_3500_2
 70
0
 62
7
  6
CONTINUOUS
370
-3
390
F
  0
LAYER
  5
26F
100
AcDbSymbolTableRecord
100
AcDbLayerTableRecord
  2
TP-RND-1_0_3500_3
 70
0
 62
7
  6
CONTINUOUS
370
-3
390
F
  0
LAYER
  5
270
100
AcDbSymbolTableRecord
100
AcDbLayerTableRecord
  2
TP-RND-1_0_3500_4
 70
0
 62
7
  6
CONTINUOUS
370
-3
390
F
  0
LAYER
  5
271
100
AcDbSymbolTableRecord
100
AcDbLayerTableRecord
  2
TP-RND-1_0_3500_5
 70
0
 62
7
  6
CONTINUOUS
370
-3
390
F
  0
LAYER
  5
272
100
AcDbSymbolTableRecord
100
AcDbLayerTableRecord
  2
TRASH
 70
0
 62
7
  6
CONTINUOUS
370
-3
390
F
  0
LAYER
  5
273
100
AcDbSymbolTableRecord
100
AcDbLayerTableRecord
  2
VG_DIODE-ASS-DO-41_A90_810000
 70
0
 62
7
  6
CONTINUOUS
370
-3
390
F
  0
LAYER
  5
274
100
AcDbSymbolTableRecord
100
AcDbLayerTableRecord
  2
VG_K-THT-HF46F-G_1560000
 70
0
 62
7
  6
CONTINUOUS
370
-3
390
F
  0
LAYER
  5
275
100
AcDbSymbolTableRecord
100
AcDbLayerTableRecord
  2
VG_K-THT-HF46F-G_1560000_1
 70
0
 62
7
  6
CONTINUOUS
370
-3
390
F
  0
LAYER
  5
276
100
AcDbSymbolTableRecord
100
AcDbLayerTableRecord
  2
VG_M_2P_VERT_P_5MM_10MM_H_15MM_
 70
0
 62
7
  6
CONTINUOUS
370
-3
390
F
  0
LAYER
  5
277
100
AcDbSymbolTableRecord
100
AcDbLayerTableRecord
  2
VG_M_3P_VERT_P_5MM_24A_H_15MM_1
 70
0
 62
7
  6
CONTINUOUS
370
-3
390
F
  0
LAYER
  5
278
100
AcDbSymbolTableRecord
100
AcDbLayerTableRecord
  2
VG_M_3P_VERT_P_5MM_24A_H_15MM_M
 70
0
 62
7
  6
CONTINUOUS
370
-3
390
F
  0
LAYER
  5
279
100
AcDbSymbolTableRecord
100
AcDbLayerTableRecord
  2
VG_P_1P_DIP_SWITCH_7_5X5_1_H_3_
 70
0
 62
7
  6
CONTINUOUS
370
-3
390
F
  0
LAYER
  5
27A
100
AcDbSymbolTableRecord
100
AcDbLayerTableRecord
  2
VG_QFN28-4_0-4_0-4_0-4_0-0_6-0_
 70
0
 62
7
  6
CONTINUOUS
370
-3
390
F
  0
LAYER
  5
27B
100
AcDbSymbolTableRecord
100
AcDbLayerTableRecord
  2
VG_RES-RAD-5_0-15_0-5_0-0_7_150
 70
0
 62
7
  6
CONTINUOUS
370
-3
390
F
  0
LAYER
  5
27C
100
AcDbSymbolTableRecord
100
AcDbLayerTableRecord
  2
VG_VAR_S05_D7_S4_3_H8_5_850000
 70
0
 62
7
  6
CONTINUOUS
370
-3
390
F
  0
LAYER
  5
27D
100
AcDbSymbolTableRecord
100
AcDbLayerTableRecord
  2
_1018
 70
0
 62
7
  6
CONTINUOUS
370
-3
390
F
  0
LAYER
  5
27E
100
AcDbSymbolTableRecord
100
AcDbLayerTableRecord
  2
_1039
 70
0
 62
7
  6
CONTINUOUS
370
-3
390
F
  0
LAYER
  5
27F
100
AcDbSymbolTableRecord
100
AcDbLayerTableRecord
  2
_10508
 70
0
 62
7
  6
CONTINUOUS
370
-3
390
F
  0
LAYER
  5
280
100
AcDbSymbolTableRecord
100
AcDbLayerTableRecord
  2
_1051
 70
0
 62
7
  6
CONTINUOUS
370
-3
390
F
  0
LAYER
  5
281
100
AcDbSymbolTableRecord
100
AcDbLayerTableRecord
  2
_10585
 70
0
 62
7
  6
CONTINUOUS
370
-3
390
F
  0
LAYER
  5
282
100
AcDbSymbolTableRecord
100
AcDbLayerTableRecord
  2
_1103
 70
0
 62
7
  6
CONTINUOUS
370
-3
390
F
  0
LAYER
  5
283
100
AcDbSymbolTableRecord
100
AcDbLayerTableRecord
  2
_1174
 70
0
 62
7
  6
CONTINUOUS
370
-3
390
F
  0
LAYER
  5
284
100
AcDbSymbolTableRecord
100
AcDbLayerTableRecord
  2
_1205
 70
0
 62
7
  6
CONTINUOUS
370
-3
390
F
  0
LAYER
  5
285
100
AcDbSymbolTableRecord
100
AcDbLayerTableRecord
  2
_1229
 70
0
 62
7
  6
CONTINUOUS
370
-3
390
F
  0
LAYER
  5
286
100
AcDbSymbolTableRecord
100
AcDbLayerTableRecord
  2
_1279
 70
0
 62
7
  6
CONTINUOUS
370
-3
390
F
  0
LAYER
  5
287
100
AcDbSymbolTableRecord
100
AcDbLayerTableRecord
  2
_1308
 70
0
 62
7
  6
CONTINUOUS
370
-3
390
F
  0
LAYER
  5
288
100
AcDbSymbolTableRecord
100
AcDbLayerTableRecord
  2
_1339
 70
0
 62
7
  6
CONTINUOUS
370
-3
390
F
  0
LAYER
  5
289
100
AcDbSymbolTableRecord
100
AcDbLayerTableRecord
  2
_1387
 70
0
 62
7
  6
CONTINUOUS
370
-3
390
F
  0
LAYER
  5
28A
100
AcDbSymbolTableRecord
100
AcDbLayerTableRecord
  2
_1408
 70
0
 62
7
  6
CONTINUOUS
370
-3
390
F
  0
LAYER
  5
28B
100
AcDbSymbolTableRecord
100
AcDbLayerTableRecord
  2
_1423
 70
0
 62
7
  6
CONTINUOUS
370
-3
390
F
  0
LAYER
  5
28C
100
AcDbSymbolTableRecord
100
AcDbLayerTableRecord
  2
_1449
 70
0
 62
7
  6
CONTINUOUS
370
-3
390
F
  0
LAYER
  5
28D
100
AcDbSymbolTableRecord
100
AcDbLayerTableRecord
  2
_1478
 70
0
 62
7
  6
CONTINUOUS
370
-3
390
F
  0
LAYER
  5
28E
100
AcDbSymbolTableRecord
100
AcDbLayerTableRecord
  2
_1566
 70
0
 62
7
  6
CONTINUOUS
370
-3
390
F
  0
LAYER
  5
28F
100
AcDbSymbolTableRecord
100
AcDbLayerTableRecord
  2
_1598
 70
0
 62
7
  6
CONTINUOUS
370
-3
390
F
  0
LAYER
  5
290
100
AcDbSymbolTableRecord
100
AcDbLayerTableRecord
  2
_1632
 70
0
 62
7
  6
CONTINUOUS
370
-3
390
F
  0
LAYER
  5
291
100
AcDbSymbolTableRecord
100
AcDbLayerTableRecord
  2
_1646
 70
0
 62
7
  6
CONTINUOUS
370
-3
390
F
  0
LAYER
  5
292
100
AcDbSymbolTableRecord
100
AcDbLayerTableRecord
  2
_1731
 70
0
 62
7
  6
CONTINUOUS
370
-3
390
F
  0
LAYER
  5
293
100
AcDbSymbolTableRecord
100
AcDbLayerTableRecord
  2
_1737
 70
0
 62
7
  6
CONTINUOUS
370
-3
390
F
  0
LAYER
  5
294
100
AcDbSymbolTableRecord
100
AcDbLayerTableRecord
  2
_1758
 70
0
 62
7
  6
CONTINUOUS
370
-3
390
F
  0
LAYER
  5
295
100
AcDbSymbolTableRecord
100
AcDbLayerTableRecord
  2
_1768
 70
0
 62
7
  6
CONTINUOUS
370
-3
390
F
  0
LAYER
  5
296
100
AcDbSymbolTableRecord
100
AcDbLayerTableRecord
  2
_1797
 70
0
 62
7
  6
CONTINUOUS
370
-3
390
F
  0
LAYER
  5
297
100
AcDbSymbolTableRecord
100
AcDbLayerTableRecord
  2
_1819
 70
0
 62
7
  6
CONTINUOUS
370
-3
390
F
  0
LAYER
  5
298
100
AcDbSymbolTableRecord
100
AcDbLayerTableRecord
  2
_1854
 70
0
 62
7
  6
CONTINUOUS
370
-3
390
F
  0
LAYER
  5
299
100
AcDbSymbolTableRecord
100
AcDbLayerTableRecord
  2
_1879
 70
0
 62
7
  6
CONTINUOUS
370
-3
390
F
  0
LAYER
  5
29A
100
AcDbSymbolTableRecord
100
AcDbLayerTableRecord
  2
_1909
 70
0
 62
7
  6
CONTINUOUS
370
-3
390
F
  0
LAYER
  5
29B
100
AcDbSymbolTableRecord
100
AcDbLayerTableRecord
  2
_1969
 70
0
 62
7
  6
CONTINUOUS
370
-3
390
F
  0
LAYER
  5
29C
100
AcDbSymbolTableRecord
100
AcDbLayerTableRecord
  2
_2000
 70
0
 62
7
  6
CONTINUOUS
370
-3
390
F
  0
LAYER
  5
29D
100
AcDbSymbolTableRecord
100
AcDbLayerTableRecord
  2
_2029
 70
0
 62
7
  6
CONTINUOUS
370
-3
390
F
  0
LAYER
  5
29E
100
AcDbSymbolTableRecord
100
AcDbLayerTableRecord
  2
_2050
 70
0
 62
7
  6
CONTINUOUS
370
-3
390
F
  0
LAYER
  5
29F
100
AcDbSymbolTableRecord
100
AcDbLayerTableRecord
  2
_2109
 70
0
 62
7
  6
CONTINUOUS
370
-3
390
F
  0
LAYER
  5
2A0
100
AcDbSymbolTableRecord
100
AcDbLayerTableRecord
  2
_2138
 70
0
 62
7
  6
CONTINUOUS
370
-3
390
F
  0
LAYER
  5
2A1
100
AcDbSymbolTableRecord
100
AcDbLayerTableRecord
  2
_2215
 70
0
 62
7
  6
CONTINUOUS
370
-3
390
F
  0
LAYER
  5
2A2
100
AcDbSymbolTableRecord
100
AcDbLayerTableRecord
  2
_2810
 70
0
 62
7
  6
CONTINUOUS
370
-3
390
F
  0
LAYER
  5
2A3
100
AcDbSymbolTableRecord
100
AcDbLayerTableRecord
  2
_2832
 70
0
 62
7
  6
CONTINUOUS
370
-3
390
F
  0
LAYER
  5
2A4
100
AcDbSymbolTableRecord
100
AcDbLayerTableRecord
  2
_2871
 70
0
 62
7
  6
CONTINUOUS
370
-3
390
F
  0
LAYER
  5
2A5
100
AcDbSymbolTableRecord
100
AcDbLayerTableRecord
  2
_2901
 70
0
 62
7
  6
CONTINUOUS
370
-3
390
F
  0
LAYER
  5
2A6
100
AcDbSymbolTableRecord
100
AcDbLayerTableRecord
  2
_2933
 70
0
 62
7
  6
CONTINUOUS
370
-3
390
F
  0
LAYER
  5
2A7
100
AcDbSymbolTableRecord
100
AcDbLayerTableRecord
  2
_2956
 70
0
 62
7
  6
CONTINUOUS
370
-3
390
F
  0
LAYER
  5
2A8
100
AcDbSymbolTableRecord
100
AcDbLayerTableRecord
  2
_2984
 70
0
 62
7
  6
CONTINUOUS
370
-3
390
F
  0
LAYER
  5
2A9
100
AcDbSymbolTableRecord
100
AcDbLayerTableRecord
  2
_3014
 70
0
 62
7
  6
CONTINUOUS
370
-3
390
F
  0
LAYER
  5
2AA
100
AcDbSymbolTableRecord
100
AcDbLayerTableRecord
  2
_3046
 70
0
 62
7
  6
CONTINUOUS
370
-3
390
F
  0
LAYER
  5
2AB
100
AcDbSymbolTableRecord
100
AcDbLayerTableRecord
  2
_3071
 70
0
 62
7
  6
CONTINUOUS
370
-3
390
F
  0
LAYER
  5
2AC
100
AcDbSymbolTableRecord
100
AcDbLayerTableRecord
  2
_3094
 70
0
 62
7
  6
CONTINUOUS
370
-3
390
F
  0
LAYER
  5
2AD
100
AcDbSymbolTableRecord
100
AcDbLayerTableRecord
  2
_3129
 70
0
 62
7
  6
CONTINUOUS
370
-3
390
F
  0
LAYER
  5
2AE
100
AcDbSymbolTableRecord
100
AcDbLayerTableRecord
  2
_3158
 70
0
 62
7
  6
CONTINUOUS
370
-3
390
F
  0
LAYER
  5
2AF
100
AcDbSymbolTableRecord
100
AcDbLayerTableRecord
  2
_3185
 70
0
 62
7
  6
CONTINUOUS
370
-3
390
F
  0
LAYER
  5
2B0
100
AcDbSymbolTableRecord
100
AcDbLayerTableRecord
  2
_3211
 70
0
 62
7
  6
CONTINUOUS
370
-3
390
F
  0
LAYER
  5
2B1
100
AcDbSymbolTableRecord
100
AcDbLayerTableRecord
  2
_3239
 70
0
 62
7
  6
CONTINUOUS
370
-3
390
F
  0
LAYER
  5
2B2
100
AcDbSymbolTableRecord
100
AcDbLayerTableRecord
  2
_3262
 70
0
 62
7
  6
CONTINUOUS
370
-3
390
F
  0
LAYER
  5
2B3
100
AcDbSymbolTableRecord
100
AcDbLayerTableRecord
  2
_3331
 70
0
 62
7
  6
CONTINUOUS
370
-3
390
F
  0
LAYER
  5
2B4
100
AcDbSymbolTableRecord
100
AcDbLayerTableRecord
  2
_3359
 70
0
 62
7
  6
CONTINUOUS
370
-3
390
F
  0
LAYER
  5
2B5
100
AcDbSymbolTableRecord
100
AcDbLayerTableRecord
  2
_3394
 70
0
 62
7
  6
CONTINUOUS
370
-3
390
F
  0
LAYER
  5
2B6
100
AcDbSymbolTableRecord
100
AcDbLayerTableRecord
  2
_3423
 70
0
 62
7
  6
CONTINUOUS
370
-3
390
F
  0
LAYER
  5
2B7
100
AcDbSymbolTableRecord
100
AcDbLayerTableRecord
  2
_3455
 70
0
 62
7
  6
CONTINUOUS
370
-3
390
F
  0
LAYER
  5
2B8
100
AcDbSymbolTableRecord
100
AcDbLayerTableRecord
  2
_3476
 70
0
 62
7
  6
CONTINUOUS
370
-3
390
F
  0
LAYER
  5
2B9
100
AcDbSymbolTableRecord
100
AcDbLayerTableRecord
  2
_3498
 70
0
 62
7
  6
CONTINUOUS
370
-3
390
F
  0
LAYER
  5
2BA
100
AcDbSymbolTableRecord
100
AcDbLayerTableRecord
  2
_3528
 70
0
 62
7
  6
CONTINUOUS
370
-3
390
F
  0
LAYER
  5
2BB
100
AcDbSymbolTableRecord
100
AcDbLayerTableRecord
  2
_3544
 70
0
 62
7
  6
CONTINUOUS
370
-3
390
F
  0
LAYER
  5
2BC
100
AcDbSymbolTableRecord
100
AcDbLayerTableRecord
  2
_3583
 70
0
 62
7
  6
CONTINUOUS
370
-3
390
F
  0
LAYER
  5
2BD
100
AcDbSymbolTableRecord
100
AcDbLayerTableRecord
  2
_3635
 70
0
 62
7
  6
CONTINUOUS
370
-3
390
F
  0
LAYER
  5
2BE
100
AcDbSymbolTableRecord
100
AcDbLayerTableRecord
  2
_3656
 70
0
 62
7
  6
CONTINUOUS
370
-3
390
F
  0
LAYER
  5
2BF
100
AcDbSymbolTableRecord
100
AcDbLayerTableRecord
  2
_3667
 70
0
 62
7
  6
CONTINUOUS
370
-3
390
F
  0
LAYER
  5
2C0
100
AcDbSymbolTableRecord
100
AcDbLayerTableRecord
  2
_3692
 70
0
 62
7
  6
CONTINUOUS
370
-3
390
F
  0
LAYER
  5
2C1
100
AcDbSymbolTableRecord
100
AcDbLayerTableRecord
  2
_3764
 70
0
 62
7
  6
CONTINUOUS
370
-3
390
F
  0
LAYER
  5
2C2
100
AcDbSymbolTableRecord
100
AcDbLayerTableRecord
  2
_3775
 70
0
 62
7
  6
CONTINUOUS
370
-3
390
F
  0
LAYER
  5
2C3
100
AcDbSymbolTableRecord
100
AcDbLayerTableRecord
  2
_3800
 70
0
 62
7
  6
CONTINUOUS
370
-3
390
F
  0
LAYER
  5
2C4
100
AcDbSymbolTableRecord
100
AcDbLayerTableRecord
  2
_3807
 70
0
 62
7
  6
CONTINUOUS
370
-3
390
F
  0
LAYER
  5
2C5
100
AcDbSymbolTableRecord
100
AcDbLayerTableRecord
  2
_3831
 70
0
 62
7
  6
CONTINUOUS
370
-3
390
F
  0
LAYER
  5
2C6
100
AcDbSymbolTableRecord
100
AcDbLayerTableRecord
  2
_3858
 70
0
 62
7
  6
CONTINUOUS
370
-3
390
F
  0
LAYER
  5
2C7
100
AcDbSymbolTableRecord
100
AcDbLayerTableRecord
  2
_6908
 70
0
 62
7
  6
CONTINUOUS
370
-3
390
F
  0
LAYER
  5
2C8
100
AcDbSymbolTableRecord
100
AcDbLayerTableRecord
  2
_7982
 70
0
 62
7
  6
CONTINUOUS
370
-3
390
F
  0
LAYER
  5
2C9
100
AcDbSymbolTableRecord
100
AcDbLayerTableRecord
  2
_8048
 70
0
 62
7
  6
CONTINUOUS
370
-3
390
F
  0
LAYER
  5
2CA
100
AcDbSymbolTableRecord
100
AcDbLayerTableRecord
  2
_8132
 70
0
 62
7
  6
CONTINUOUS
370
-3
390
F
  0
LAYER
  5
2CB
100
AcDbSymbolTableRecord
100
AcDbLayerTableRecord
  2
_817
 70
0
 62
7
  6
CONTINUOUS
370
-3
390
F
  0
LAYER
  5
2CC
100
AcDbSymbolTableRecord
100
AcDbLayerTableRecord
  2
_8191
 70
0
 62
7
  6
CONTINUOUS
370
-3
390
F
  0
LAYER
  5
2CD
100
AcDbSymbolTableRecord
100
AcDbLayerTableRecord
  2
_8232
 70
0
 62
7
  6
CONTINUOUS
370
-3
390
F
  0
LAYER
  5
2CE
100
AcDbSymbolTableRecord
100
AcDbLayerTableRecord
  2
_8352
 70
0
 62
7
  6
CONTINUOUS
370
-3
390
F
  0
LAYER
  5
2CF
100
AcDbSymbolTableRecord
100
AcDbLayerTableRecord
  2
_8414
 70
0
 62
7
  6
CONTINUOUS
370
-3
390
F
  0
LAYER
  5
2D0
100
AcDbSymbolTableRecord
100
AcDbLayerTableRecord
  2
_848
 70
0
 62
7
  6
CONTINUOUS
370
-3
390
F
  0
LAYER
  5
2D1
100
AcDbSymbolTableRecord
100
AcDbLayerTableRecord
  2
_8658
 70
0
 62
7
  6
CONTINUOUS
370
-3
390
F
  0
LAYER
  5
2D2
100
AcDbSymbolTableRecord
100
AcDbLayerTableRecord
  2
_883
 70
0
 62
7
  6
CONTINUOUS
370
-3
390
F
  0
LAYER
  5
2D3
100
AcDbSymbolTableRecord
100
AcDbLayerTableRecord
  2
_947
 70
0
 62
7
  6
CONTINUOUS
370
-3
390
F
  0
LAYER
  5
2D4
100
AcDbSymbolTableRecord
100
AcDbLayerTableRecord
  2
_974
 70
0
 62
7
  6
CONTINUOUS
370
-3
390
F
  0
LAYER
  5
2D5
100
AcDbSymbolTableRecord
100
AcDbLayerTableRecord
  2
_998
 70
0
 62
7
  6
CONTINUOUS
370
-3
390
F
  0
LAYER
  5
2D6
100
AcDbSymbolTableRecord
100
AcDbLayerTableRecord
  2
___SHELL
 70
0
 62
7
  6
CONTINUOUS
370
-3
390
F
  0
ENDTAB
  0
TABLE
  2
STYLE
  5
3
100
AcDbSymbolTable
 70
1
  0
STYLE
  5
11
100
AcDbSymbolTableRecord
100
AcDbTextStyleTableRecord
  2
STANDARD
 70
0
 40
0.0
 41
0.8
 50
0.0
 71
0
 42
0.2
  3
txt
  4

  0
STYLE
  5
2D7
100
AcDbSymbolTableRecord
100
AcDbTextStyleTableRecord
  2
TEXTSTYLE_1
 70
0
 40
0.0
 41
0.8
 50
0.0
 71
0
 42
0.2
  3
gdt
  4

  0
ENDTAB
  0
TABLE
  2
VIEW
  5
6
100
AcDbSymbolTable
 70
0
  0
ENDTAB
  0
TABLE
  2
UCS
  5
7
100
AcDbSymbolTable
 70
0
  0
ENDTAB
  0
TABLE
  2
APPID
  5
9
100
AcDbSymbolTable
 70
1
  0
APPID
  5
2D8
100
AcDbSymbolTableRecord
100
AcDbRegAppTableRecord
  2
ACAD
 70
0
  0
ENDTAB
  0
TABLE
  2
BLOCK_RECORD
  5
1
100
AcDbSymbolTable
 70
0
  0
BLOCK_RECORD
  5
2D9
100
AcDbSymbolTableRecord
100
AcDbBlockTableRecord
  2
*Model_Space
  0
BLOCK_RECORD
  5
2DA
100
AcDbSymbolTableRecord
100
AcDbBlockTableRecord
  2
*Paper_Space
  0
BLOCK_RECORD
  5
2DB
100
AcDbSymbolTableRecord
100
AcDbBlockTableRecord
  2
_FILLED
  0
ENDTAB
  0
TABLE
  2
DIMSTYLE
  5
A
100
AcDbSymbolTable
 70
1
100
AcDbDimStyleTable
 71
0
  0
DIMSTYLE
105
2DC
100
AcDbSymbolTableRecord
100
AcDbDimStyleTableRecord
  2
STANDARD
 70
0
  3

  4

 40
1.0
 41
3.0
 42
0.5
 43
0.38
 44
1.5
 45
0.0
 46
0.0
 47
0.01
 48
0.01
140
3.0
141
0.09
142
0.0
143
25.4
144
1.0
145
0.0
146
1.0
147
0.625
 71
1.0
 72
0.0
 73
0
 74
0
 75
0
 76
0
 77
1
 78
8
 79
2
170
0
171
1
172
0
173
0
174
0
175
0
176
0
177
0
178
0
270
2
179
2
271
2
272
2
273
2
274
2
275
0
280
0
281
0
282
0
283
1
284
8
285
0
286
0
287
3
288
0
340
11
278
44
341
2DB
342
2DB
343
2DB
344
2DB
  0
ENDTAB
  0
ENDSEC
  0
SECTION
  2
BLOCKS
  0
BLOCK
  5
20
100
AcDbEntity
  8
0
100
AcDbBlockBegin
  2
*Model_Space
 70
0
 10
0.0
 20
0.0
 30
0.0
  3
*Model_Space
  1

  0
ENDBLK
  5
21
100
AcDbEntity
  8
0
100
AcDbBlockEnd
  0
BLOCK
  5
1C
100
AcDbEntity
  8
0
100
AcDbBlockBegin
  2
*Paper_Space
 70
0
 10
0.0
 20
0.0
 30
0.0
  3
*Paper_Space
  1

  0
ENDBLK
  5
1D
100
AcDbEntity
  8
0
100
AcDbBlockEnd
  0
BLOCK
  5
2DD
100
AcDbEntity
  8
0
100
AcDbBlockBegin
  2
_FILLED
 70
64
 10
0.0
 20
0.0
  3
_FILLED
  1

  0
SOLID
  5
2DE
100
AcDbEntity
  8
0
  6
BYBLOCK
 62
0
100
AcDbTrace
 10
0.0
 20
0.0
 11
-1.0
 21
0.3166666667
 12
-1.0
 22
-0.3166666667
 13
-1.0
 23
-0.3166666667
  0
ENDBLK
  5
2DF
100
AcDbEntity
  8
0
  6
BYBLOCK
 62
0
100
AcDbBlockEnd
  0
ENDSEC
  0
SECTION
  2
ENTITIES
  0
LWPOLYLINE
  5
2E0
100
AcDbEntity
  8
RACCORDO
100
AcDbPolyline
 62
250
  6
CONTINUOUS
 90
13
 70
0
 10
-27.6882001494
 20
-3.4958935478
 10
-27.6864821092
 20
-3.5219896799
 10
-27.681373265
 20
-3.5476394964
 10
-27.6729609881
 20
-3.5724042928
 10
-27.6613891501
 20
-3.5958605011
 10
-27.6468556643
 20
-3.6176069308
 10
-27.6296091021
 20
-3.6372716315
 10
-27.6099444368
 20
-3.6545182615
 10
-27.5881980029
 20
-3.669051834
 10
-27.564741748
 20
-3.6806237628
 10
-27.5399768619
 20
-3.6890361212
 10
-27.5143269129
 20
-3.6941450242
 10
-27.4882306103
 20
-3.6958630868
  0
LWPOLYLINE
  5
2E1
100
AcDbEntity
  8
RACCORDO
100
AcDbPolyline
 62
7
  6
CONTINUOUS
 90
13
 70
0
 10
-27.7851169051
 20
-3.5928103035
 10
-27.7834091193
 20
-3.6189261105
 10
-27.7783072219
 20
-3.6445899298
 10
-27.7698999364
 20
-3.669363062
 10
-27.7583330351
 20
-3.6928213809
 10
-27.7438052229
 20
-3.7145654252
 10
-27.7265634841
 20
-3.7342264215
 10
-27.7069024878
 20
-3.7514681604
 10
-27.6851584435
 20
-3.7659959726
 10
-27.6617001246
 20
-3.7775628738
 10
-27.6369269924
 20
-3.7859701594
 10
-27.6112631731
 20
-3.7910720568
 10
-27.5851473661
 20
-3.7927798426
  0
LWPOLYLINE
  5
2E2
100
AcDbEntity
  8
RACCORDO
100
AcDbPolyline
 62
250
  6
CONTINUOUS
 90
13
 70
0
 10
-27.6882001494
 20
11.9103338626
 10
-27.6864820961
 20
11.9364300941
 10
-27.6813732185
 20
11.9620799847
 10
-27.6729608969
 20
11.9868448276
 10
-27.6613890129
 20
12.0103010536
 10
-27.6468554878
 20
12.0320474756
 10
-27.6296088981
 20
12.0517121504
 10
-27.6099442233
 20
12.0689587401
 10
-27.5881978013
 20
12.0834922652
 10
-27.5647415753
 20
12.0950641492
 10
-27.5399767324
 20
12.1034764708
 10
-27.5143268418
 20
12.1085853484
 10
-27.4882306103
 20
12.1103034017
  0
LWPOLYLINE
  5
2E3
100
AcDbEntity
  8
RACCORDO
100
AcDbPolyline
 62
250
  6
CONTINUOUS
 90
11
 70
0
 10
-27.4703338171
 20
11.8811841071
 10
-27.472344854
 20
11.929328675
 10
-27.4743159959
 20
11.9706003675
 10
-27.4762502401
 20
12.0054808153
 10
-27.4781325429
 20
12.034482129
 10
-27.4799606635
 20
12.058059956
 10
-27.4817368427
 20
12.0766705063
 10
-27.4834527591
 20
12.0907835679
 10
-27.4851056389
 20
12.1008252843
 10
-27.486698256
 20
12.1071983388
 10
-27.4882306103
 20
12.1103034017
  0
LWPOLYLINE
  5
2E4
100
AcDbEntity
  8
RACCORDO
100
AcDbPolyline
 62
250
  6
CONTINUOUS
 90
12
 70
0
 10
-27.6682592722
 20
11.6449379112
 10
-27.6703072335
 20
11.6964229981
 10
-27.6723182818
 20
11.741504167
 10
-27.6742894261
 20
11.780166146
 10
-27.6762236572
 20
11.812424207
 10
-27.6781059429
 20
11.839616798
 10
-27.6799341831
 20
11.8617730501
 10
-27.6817104779
 20
11.8788638322
 10
-27.6834260951
 20
11.8921401991
 10
-27.685078124
 20
11.9020191689
 10
-27.6866694755
 20
11.9080837234
 10
-27.6882001494
 20
11.9103338626
  0
LINE
  5
2E5
100
AcDbEntity
  8
RACCORDO
100
AcDbLine
 62
250
  6
CONTINUOUS
 10
-27.466225086
 20
11.7624201401
 11
-27.4703338171
 21
11.8811841071
  0
LINE
  5
2E6
100
AcDbEntity
  8
RACCORDO
100
AcDbLine
 62
250
  6
CONTINUOUS
 10
-26.4018421713
 20
-3.2340487409
 11
-26.4059599414
 21
-3.1094696393
  0
LINE
  5
2E7
100
AcDbEntity
  8
RACCORDO
100
AcDbLine
 62
250
  6
CONTINUOUS
 10
-27.6641183578
 20
11.5186239639
 11
-27.6682592722
 21
11.6449379112
  0
LINE
  5
2E8
100
AcDbEntity
  8
RACCORDO
100
AcDbLine
 62
250
  6
CONTINUOUS
 10
-26.6018150068
 20
-3.4150896759
 11
-26.6059321163
 21
-3.2819662356
  0
LINE
  5
2E9
100
AcDbEntity
  8
RACCORDO
100
AcDbLine
 62
250
  6
CONTINUOUS
 10
-27.4620523412
 20
11.610318862
 11
-27.466225086
 21
11.7624201401
  0
LINE
  5
2EA
100
AcDbEntity
  8
RACCORDO
100
AcDbLine
 62
250
  6
CONTINUOUS
 10
-26.4059599414
 20
-3.1094696393
 11
-26.4100983262
 21
-2.9536139435
  0
LINE
  5
2EB
100
AcDbEntity
  8
RACCORDO
100
AcDbLine
 62
250
  6
CONTINUOUS
 10
-27.6599623468
 20
11.3607394332
 11
-27.6641183578
 21
11.5186239639
  0
LINE
  5
2EC
100
AcDbEntity
  8
RACCORDO
100
AcDbLine
 62
250
  6
CONTINUOUS
 10
-26.6059321163
 20
-3.2819662356
 11
-26.6100695274
 21
-3.1147743379
  0
LINE
  5
2ED
100
AcDbEntity
  8
RACCORDO
100
AcDbLine
 62
250
  6
CONTINUOUS
 10
-27.4579460079
 20
11.4227293715
 11
-27.4620523412
 21
11.610318862
  0
LINE
  5
2EE
100
AcDbEntity
  8
RACCORDO
100
AcDbLine
 62
250
  6
CONTINUOUS
 10
-26.4100983262
 20
-2.9536139435
 11
-26.4160681469
 21
-2.6572365427
  0
LINE
  5
2EF
100
AcDbEntity
  8
RACCORDO
100
AcDbLine
 62
250
  6
CONTINUOUS
 10
-27.6539953474
 20
11.0616813036
 11
-27.6599623468
 21
11.3607394332
  0
LINE
  5
2F0
100
AcDbEntity
  8
RACCORDO
100
AcDbLine
 62
250
  6
CONTINUOUS
 10
-26.6100695274
 20
-3.1147743379
 11
-26.6160373271
 21
-2.7973245242
  0
LINE
  5
2F1
100
AcDbEntity
  8
RACCORDO
100
AcDbLine
 62
250
  6
CONTINUOUS
 10
-27.4522328317
 20
11.0809403224
 11
-27.4579460079
 21
11.4227293715
  0
LINE
  5
2F2
100
AcDbEntity
  8
RACCORDO
100
AcDbLine
 62
250
  6
CONTINUOUS
 10
-26.4160681469
 20
-2.6572365427
 11
-26.4211223427
 21
-2.3099750967
  0
LINE
  5
2F3
100
AcDbEntity
  8
RACCORDO
100
AcDbLine
 62
250
  6
CONTINUOUS
 10
-27.6489757773
 20
10.7133359005
 11
-27.6539953474
 21
11.0616813036
  0
LINE
  5
2F4
100
AcDbEntity
  8
RACCORDO
100
AcDbLine
 62
250
  6
CONTINUOUS
 10
-26.6160373271
 20
-2.7973245242
 11
-26.622481042
 21
-2.2975127733
  0
LINE
  5
2F5
100
AcDbEntity
  8
RACCORDO
100
AcDbLine
 62
250
  6
CONTINUOUS
 10
-27.4464021276
 20
10.5719605991
 11
-27.4522328317
 21
11.0809403224
  0
LINE
  5
2F6
100
AcDbEntity
  8
RACCORDO
100
AcDbLine
 62
250
  6
CONTINUOUS
 10
-27.6443083873
 20
10.2377507861
 11
-27.6489757773
 21
10.7133359005
  0
LINE
  5
2F7
100
AcDbEntity
  8
RACCORDO
100
AcDbLine
 62
250
  6
CONTINUOUS
 10
-26.4211223427
 20
-2.3099750967
 11
-26.4258513581
 21
-1.8329003196
  0
LINE
  5
2F8
100
AcDbEntity
  8
RACCORDO
100
AcDbLine
 62
250
  6
CONTINUOUS
 10
-26.622481042
 20
-2.2975127733
 11
-26.6274027067
 21
-1.6656767387
  0
LINE
  5
2F9
100
AcDbEntity
  8
RACCORDO
100
AcDbLine
 62
250
  6
CONTINUOUS
 10
-27.4416549388
 20
9.8344358905
 11
-27.4464021276
 21
10.5719605991
  0
LINE
  5
2FA
100
AcDbEntity
  8
RACCORDO
100
AcDbLine
 62
250
  6
CONTINUOUS
 10
-27.6408563656
 20
9.5763911288
 11
-27.6443083873
 21
10.2377507861
  0
LINE
  5
2FB
100
AcDbEntity
  8
RACCORDO
100
AcDbLine
 62
250
  6
CONTINUOUS
 10
-26.4258513581
 20
-1.8329003196
 11
-26.4293633468
 21
-1.1667149583
  0
LINE
  5
2FC
100
AcDbEntity
  8
RACCORDO
100
AcDbLine
 62
250
  6
CONTINUOUS
 10
-26.6274027067
 20
-1.6656767387
 11
-26.6299346726
 21
-0.8866714284
  0
LINE
  5
2FD
100
AcDbEntity
  8
RACCORDO
100
AcDbLine
 62
7
  6
CONTINUOUS
 10
-27.7851169051
 20
-3.5929016772
 11
-27.7851169051
 21
-0.7927798426
  0
LINE
  5
2FE
100
AcDbEntity
  8
RACCORDO
100
AcDbLine
 62
7
  6
CONTINUOUS
 10
-27.7851169051
 20
9.2072201574
 11
-27.7851169051
 21
12.007341992
  0
LINE
  5
2FF
100
AcDbEntity
  8
RACCORDO
100
AcDbLine
 62
7
  6
CONTINUOUS
 10
-27.6873685415
 20
-0.2036828474
 11
-27.6873685415
 21
8.6181231623
  0
LINE
  5
300
100
AcDbEntity
  8
RACCORDO
100
AcDbLine
 62
250
  6
CONTINUOUS
 10
-26.4293633468
 20
-1.1667149583
 11
-26.4300548706
 21
9.1107603162
  0
LINE
  5
301
100
AcDbEntity
  8
RACCORDO
100
AcDbLine
 62
7
  6
CONTINUOUS
 10
-26.3828652687
 20
-0.2036828474
 11
-26.3828652687
 21
8.6181231623
  0
LINE
  5
302
100
AcDbEntity
  8
DRAFT
100
AcDbLine
 62
7
  6
CONTINUOUS
 10
-26.2851169051
 20
-0.7927798426
 11
-26.2851169051
 21
-0.4554779188
  0
LINE
  5
303
100
AcDbEntity
  8
RACCORDO
100
AcDbLine
 62
7
  6
CONTINUOUS
 10
-26.2851169051
 20
-15.5439981885
 11
-26.2851169051
 21
-0.5427798426
  0
LINE
  5
304
100
AcDbEntity
  8
DRAFT
100
AcDbLine
 62
7
  6
CONTINUOUS
 10
-26.2851169051
 20
8.8699182337
 11
-26.2851169051
 21
9.2072201574
  0
LINE
  5
305
100
AcDbEntity
  8
RACCORDO
100
AcDbLine
 62
7
  6
CONTINUOUS
 10
-26.2851169051
 20
8.9572201574
 11
-26.2851169051
 21
23.9584385034
  0
LINE
  5
306
100
AcDbEntity
  8
RACCORDO
100
AcDbLine
 62
7
  6
CONTINUOUS
 10
-26.0930526729
 20
8.4754492928
 11
-26.0930526729
 21
-0.0610089779
  0
LINE
  5
307
100
AcDbEntity
  8
RACCORDO
100
AcDbLine
 62
250
  6
CONTINUOUS
 10
-25.9864622885
 20
-15.2452167847
 11
-25.9864622885
 21
23.6596596819
  0
LINE
  5
308
100
AcDbEntity
  8
RACCORDO
100
AcDbLine
 62
250
  6
CONTINUOUS
 10
-27.440221729
 20
-0.7884924434
 11
-27.4416549388
 21
9.8344358905
  0
LINE
  5
309
100
AcDbEntity
  8
RACCORDO
100
AcDbLine
 62
250
  6
CONTINUOUS
 10
-26.6299346726
 20
-0.8866714284
 11
-26.6300116843
 21
9.2039541096
  0
LINE
  5
30A
100
AcDbEntity
  8
RACCORDO
100
AcDbLine
 62
250
  6
CONTINUOUS
 10
-27.6404047402
 20
-0.9651582961
 11
-27.6408563656
 21
9.5763911288
  0
LINE
  5
30B
100
AcDbEntity
  8
RACCORDO
100
AcDbLine
 62
250
  6
CONTINUOUS
 10
-26.4300548706
 20
9.1107603162
 11
-26.4285816561
 21
9.7924975083
  0
LINE
  5
30C
100
AcDbEntity
  8
RACCORDO
100
AcDbLine
 62
250
  6
CONTINUOUS
 10
-27.4421648892
 20
-1.5370023029
 11
-27.440221729
 21
-0.7884924434
  0
LINE
  5
30D
100
AcDbEntity
  8
RACCORDO
100
AcDbLine
 62
250
  6
CONTINUOUS
 10
-26.6300116843
 20
9.2039541096
 11
-26.6280309362
 21
9.9593824093
  0
LINE
  5
30E
100
AcDbEntity
  8
RACCORDO
100
AcDbLine
 62
250
  6
CONTINUOUS
 10
-27.6434757604
 20
-1.7068256323
 11
-27.6404047402
 21
-0.9651582961
  0
LINE
  5
30F
100
AcDbEntity
  8
RACCORDO
100
AcDbLine
 62
250
  6
CONTINUOUS
 10
-26.4285816561
 20
9.7924975083
 11
-26.4248731553
 21
10.3654665489
  0
LINE
  5
310
100
AcDbEntity
  8
RACCORDO
100
AcDbLine
 62
250
  6
CONTINUOUS
 10
-27.4464021276
 20
-2.1575202843
 11
-27.4421648892
 21
-1.5370023029
  0
LINE
  5
311
100
AcDbEntity
  8
RACCORDO
100
AcDbLine
 62
250
  6
CONTINUOUS
 10
-26.6280309362
 20
9.9593824093
 11
-26.6237270982
 21
10.5833948976
  0
LINE
  5
312
100
AcDbEntity
  8
RACCORDO
100
AcDbLine
 62
250
  6
CONTINUOUS
 10
-27.6476000319
 20
-2.1799116862
 11
-27.6434757604
 21
-1.7068256323
  0
LINE
  5
313
100
AcDbEntity
  8
RACCORDO
100
AcDbLine
 62
250
  6
CONTINUOUS
 10
-26.4248731553
 20
10.3654665489
 11
-26.4195680697
 21
10.8429195558
  0
LINE
  5
314
100
AcDbEntity
  8
RACCORDO
100
AcDbLine
 62
250
  6
CONTINUOUS
 10
-27.4522328317
 20
-2.6665000075
 11
-27.4464021276
 21
-2.1575202843
  0
LINE
  5
315
100
AcDbEntity
  8
RACCORDO
100
AcDbLine
 62
250
  6
CONTINUOUS
 10
-26.6237270982
 20
10.5833948976
 11
-26.6178376454
 21
11.0923825977
  0
LINE
  5
316
100
AcDbEntity
  8
RACCORDO
100
AcDbLine
 62
250
  6
CONTINUOUS
 10
-27.6522032319
 20
-2.5351348596
 11
-27.6476000319
 21
-2.1799116862
  0
LINE
  5
317
100
AcDbEntity
  8
RACCORDO
100
AcDbLine
 62
250
  6
CONTINUOUS
 10
-26.4195680697
 20
10.8429195558
 11
-26.4141548146
 21
11.1769913086
  0
LINE
  5
318
100
AcDbEntity
  8
RACCORDO
100
AcDbLine
 62
250
  6
CONTINUOUS
 10
-27.4579460079
 20
-3.0082890567
 11
-27.4522328317
 21
-2.6665000075
  0
LINE
  5
319
100
AcDbEntity
  8
RACCORDO
100
AcDbLine
 62
250
  6
CONTINUOUS
 10
-26.6178376454
 20
11.0923825977
 11
-26.6121102942
 21
11.4317043907
  0
LINE
  5
31A
100
AcDbEntity
  8
RACCORDO
100
AcDbLine
 62
250
  6
CONTINUOUS
 10
-27.6579183269
 20
-2.8539230701
 11
-27.6522032319
 21
-2.5351348596
  0
LINE
  5
31B
100
AcDbEntity
  8
RACCORDO
100
AcDbLine
 62
250
  6
CONTINUOUS
 10
-26.4141548146
 20
11.1769913086
 11
-26.4100983262
 21
11.3680542582
  0
LINE
  5
31C
100
AcDbEntity
  8
RACCORDO
100
AcDbLine
 62
250
  6
CONTINUOUS
 10
-27.4620523412
 20
-3.1958785472
 11
-27.4579460079
 21
-3.0082890567
  0
LINE
  5
31D
100
AcDbEntity
  8
RACCORDO
100
AcDbLine
 62
250
  6
CONTINUOUS
 10
-26.6121102942
 20
11.4317043907
 11
-26.608014035
 21
11.6171183786
  0
LINE
  5
31E
100
AcDbEntity
  8
RACCORDO
100
AcDbLine
 62
250
  6
CONTINUOUS
 10
-27.6620254047
 20
-3.0293547882
 11
-27.6579183269
 21
-2.8539230701
  0
LINE
  5
31F
100
AcDbEntity
  8
RACCORDO
100
AcDbLine
 62
250
  6
CONTINUOUS
 10
-26.4100983262
 20
11.3680542582
 11
-26.4059599414
 21
11.5239099552
  0
LINE
  5
320
100
AcDbEntity
  8
RACCORDO
100
AcDbLine
 62
250
  6
CONTINUOUS
 10
-27.466225086
 20
-3.3479798252
 11
-27.4620523412
 21
-3.1958785472
  0
LWPOLYLINE
  5
321
100
AcDbEntity
  8
RACCORDO
100
AcDbPolyline
 62
250
  6
CONTINUOUS
 90
14
 70
0
 10
-26.608014035
 20
11.6171183786
 10
-26.6038638902
 20
11.767105637
 10
-26.6018150068
 20
11.8295299908
 10
-26.5997798161
 20
11.8842385309
 10
-26.5977814868
 20
11.9317247838
 10
-26.5958227577
 20
11.9724413933
 10
-26.5939008901
 20
12.0068573452
 10
-26.5920308361
 20
12.0354727582
 10
-26.5902148135
 20
12.05873731
 10
-26.5884506047
 20
12.0771018683
 10
-26.5867465089
 20
12.0910287223
 10
-26.5851052928
 20
12.1009391613
 10
-26.5835241898
 20
12.1072320175
 10
-26.5820031999
 20
12.1103034017
  0
LWPOLYLINE
  5
322
100
AcDbEntity
  8
RACCORDO
100
AcDbPolyline
 62
250
  6
CONTINUOUS
 90
25
 70
0
 10
-25.9864624019
 20
23.6596597992
 10
-25.9820730864
 20
23.7903862745
 10
-25.9691478293
 20
23.9205349114
 10
-25.9477452344
 20
24.0495493278
 10
-25.9179616797
 20
24.1768729933
 10
-25.8799268829
 20
24.301967784
 10
-25.8337997924
 20
24.4243152333
 10
-25.7797748603
 20
24.5433977451
 10
-25.7180850035
 20
24.6587005135
 10
-25.6489943985
 20
24.7697292852
 10
-25.5727988968
 20
24.8760089387
 10
-25.4898241441
 20
24.9770857567
 10
-25.4004245496
 20
25.0725279992
 10
-25.3049822965
 20
25.161927576
 10
-25.2039054719
 20
25.2449023086
 10
-25.0976258096
 20
25.3210977934
 10
-24.9865970239
 20
25.390188386
 10
-24.8712942381
 20
25.4518782316
 10
-24.7522117063
 20
25.505903152
 10
-24.6298643095
 20
25.5520302035
 10
-24.5047695716
 20
25.5900649695
 10
-24.3774457258
 20
25.6198485489
 10
-24.2484308092
 20
25.6412511884
 10
-24.1182814273
 20
25.6541764413
 10
-23.987553967
 20
25.6585656565
  0
LWPOLYLINE
  5
323
100
AcDbEntity
  8
RACCORDO
100
AcDbPolyline
 62
7
  6
CONTINUOUS
 90
25
 70
0
 10
-26.2851169051
 20
12.4070983228
 10
-26.2855592038
 20
12.39393391
 10
-26.2868381264
 20
12.3809358116
 10
-26.2889536729
 20
12.3681040276
 10
-26.2919218458
 20
12.3553851924
 10
-26.2957266426
 20
12.3428326717
 10
-26.3003200559
 20
12.3306065621
 10
-26.3057122841
 20
12.3187109442
 10
-26.3118931289
 20
12.3071417375
 10
-26.3187839867
 20
12.2960467969
 10
-26.3263940355
 20
12.2854322276
 10
-26.3347140974
 20
12.2752919244
 10
-26.3436380358
 20
12.265755427
 10
-26.3531736481
 20
12.2568305289
 10
-26.3633131368
 20
12.2485094366
 10
-26.3739269738
 20
12.2408983087
 10
-26.3850212683
 20
12.2340063226
 10
-26.396589911
 20
12.2278243009
 10
-26.408485045
 20
12.2224308701
 10
-26.4207107524
 20
12.2178362317
 10
-26.4332629511
 20
12.2140301841
 10
-26.4459815381
 20
12.2110607492
 10
-26.4588131459
 20
12.2089439343
 10
-26.471811142
 20
12.2076637321
 10
-26.4849755265
 20
12.2072201425
  0
LWPOLYLINE
  5
324
100
AcDbEntity
  8
RACCORDO
100
AcDbPolyline
 62
7
  6
CONTINUOUS
 90
25
 70
0
 10
-26.2851169051
 20
-3.5928103035
 10
-26.2855597225
 20
-3.6059763758
 10
-26.2868393271
 20
-3.6189760835
 10
-26.288955719
 20
-3.6318094267
 10
-26.2919250263
 20
-3.644529745
 10
-26.2957311209
 20
-3.6570836987
 10
-26.3003256183
 20
-3.6693112688
 10
-26.3057186353
 20
-3.6812083024
 10
-26.311900055
 20
-3.6927789525
 10
-26.3187911431
 20
-3.7038756588
 10
-26.3264010049
 20
-3.7144923467
 10
-26.3347205351
 20
-3.7246350909
 10
-26.3436436835
 20
-3.7341745545
 10
-26.3531781926
 20
-3.7431030003
 10
-26.36331632
 20
-3.7514281655
 10
-26.3739287879
 20
-3.7590439258
 10
-26.385021677
 20
-3.7659411793
 10
-26.3965889066
 20
-3.7721290278
 10
-26.4084829579
 20
-3.7775286529
 10
-26.4207079895
 20
-3.7821299388
 10
-26.4332598428
 20
-3.7859430011
 10
-26.4459785226
 20
-3.7889193684
 10
-26.4588106973
 20
-3.7910428833
 10
-26.4718096986
 20
-3.7923297031
 10
-26.4849755265
 20
-3.7927798277
  0
LWPOLYLINE
  5
325
100
AcDbEntity
  8
RACCORDO
100
AcDbPolyline
 62
250
  6
CONTINUOUS
 90
13
 70
0
 10
-26.4059599414
 20
11.5239099552
 10
-26.4018421713
 20
11.6484890551
 10
-26.3998067694
 20
11.6992695
 10
-26.3978082744
 20
11.7437362026
 10
-26.3958494218
 20
11.7818800264
 10
-26.3939274762
 20
11.8137101079
 10
-26.3920573699
 20
11.8405425462
 10
-26.3902411755
 20
11.8624043745
 10
-26.3884768204
 20
11.8792685597
 10
-26.3867730199
 20
11.8923701011
 10
-26.385132679
 20
11.9021206653
 10
-26.3835528926
 20
11.9081085858
 10
-26.3820336609
 20
11.9103338626
  0
LINE
  5
326
100
AcDbEntity
  8
RACCORDO
100
AcDbLine
 62
250
  6
CONTINUOUS
 10
-26.5820031999
 20
12.1103034017
 11
-26.4850864442
 21
12.2072201574
  0
LINE
  5
327
100
AcDbEntity
  8
RACCORDO
100
AcDbLine
 62
250
  6
CONTINUOUS
 10
-26.3820336609
 20
11.9103338626
 11
-26.2851169051
 21
12.0072506184
  0
LINE
  5
328
100
AcDbEntity
  8
RACCORDO
100
AcDbLine
 62
7
  6
CONTINUOUS
 10
-26.3742900527
 20
9.1180470098
 11
-26.2851169051
 21
9.2072201574
  0
LINE
  5
329
100
AcDbEntity
  8
RACCORDO
100
AcDbLine
 62
7
  6
CONTINUOUS
 10
-2.3307250998
 20
-26.2459533019
 11
-5.7395087104
 21
-26.2459533019
  0
LINE
  5
32A
100
AcDbEntity
  8
RACCORDO
100
AcDbLine
 62
250
  6
CONTINUOUS
 10
-2.366255228
 20
-26.2104231738
 11
-5.7039785823
 21
-26.2104231738
  0
LINE
  5
32B
100
AcDbEntity
  8
RACCORDO
100
AcDbLine
 62
250
  6
CONTINUOUS
 10
-2.366255228
 20
-25.7107277603
 11
-5.7039785823
 21
-25.7107277603
  0
LWPOLYLINE
  5
32C
100
AcDbEntity
  8
RACCORDO
100
AcDbPolyline
 62
250
  6
CONTINUOUS
 90
25
 70
0
 10
-5.7039785823
 20
-26.2104231738
 10
-5.8347658859
 20
-26.2061042652
 10
-5.9649714802
 20
-26.193245131
 10
-6.0940391123
 20
-26.1719038813
 10
-6.2214132779
 20
-26.1421764258
 10
-6.3465548597
 20
-26.1041918602
 10
-6.468942523
 20
-26.0581088412
 10
-6.5880591752
 20
-26.0041213956
 10
-6.7033895526
 20
-25.9424626725
 10
-6.8144355914
 20
-25.8733986786
 10
-6.9207204638
 20
-25.7972273916
 10
-7.0217934264
 20
-25.7142737288
 10
-7.1172259673
 20
-25.6248896834
 10
-7.20661008
 20
-25.5294571754
 10
-7.2895638214
 20
-25.4283842267
 10
-7.3657351728
 20
-25.3220993811
 10
-7.4347992139
 20
-25.2110533952
 10
-7.4964579784
 20
-25.0957230891
 10
-7.5504454623
 20
-24.9766065307
 10
-7.5965284956
 20
-24.8542190603
 10
-7.634513092
 20
-24.7290776987
 10
-7.6642406467
 20
-24.6017035472
 10
-7.6855820335
 20
-24.4726356355
 10
-7.6984412808
 20
-24.3424295414
 10
-7.7027602363
 20
-24.2116415197
  0
LWPOLYLINE
  5
32D
100
AcDbEntity
  8
RACCORDO
100
AcDbPolyline
 62
250
  6
CONTINUOUS
 90
25
 70
0
 10
-5.7039785823
 20
-25.7107277603
 10
-5.8024779586
 20
-25.7074517765
 10
-5.8998060622
 20
-25.6978916674
 10
-5.9959628932
 20
-25.682047433
 10
-6.0913754743
 20
-25.6597980518
 10
-6.1856167828
 20
-25.6312645453
 10
-6.2774057497
 20
-25.5968099777
 10
-6.366685703
 20
-25.5563581711
 10
-6.4535133148
 20
-25.5099853034
 10
-6.5367775327
 20
-25.458282973
 10
-6.6164310886
 20
-25.4011832763
 10
-6.6925212506
 20
-25.3387541169
 10
-6.7640787709
 20
-25.2717908028
 10
-6.8310462218
 20
-25.2002349816
 10
-6.893481031
 20
-25.1241450058
 10
-6.9505862341
 20
-25.0444912414
 10
-7.0022934412
 20
-24.9612267475
 10
-7.0486710422
 20
-24.874398465
 10
-7.0891272423
 20
-24.785117583
 10
-7.1235857623
 20
-24.6933288892
 10
-7.1521228813
 20
-24.599087596
 10
-7.1743756425
 20
-24.5036705297
 10
-7.1902230604
 20
-24.4075032994
 10
-7.1997861205
 20
-24.310160296
 10
-7.2030648228
 20
-24.2116415197
  0
LWPOLYLINE
  5
32E
100
AcDbEntity
  8
RACCORDO
100
AcDbPolyline
 62
250
  6
CONTINUOUS
 90
12
 70
0
 10
-26.5820031999
 20
-3.6958630868
 10
-26.5835241898
 20
-3.6927917027
 10
-26.5851052928
 20
-3.6864988465
 10
-26.586746509
 20
-3.6765884074
 10
-26.5884506047
 20
-3.6626615535
 10
-26.5902148135
 20
-3.6442969952
 10
-26.5920308361
 20
-3.6210324434
 10
-26.59390089
 20
-3.5924170304
 10
-26.5958227577
 20
-3.5580010785
 10
-26.5977814868
 20
-3.5172844689
 10
-26.5997798161
 20
-3.4697982161
 10
-26.6018150068
 20
-3.4150896759
  0
LINE
  5
32F
100
AcDbEntity
  8
RACCORDO
100
AcDbLine
 62
7
  6
CONTINUOUS
 10
-24.6140051346
 20
6.8851290974
 11
-24.6140051346
 21
1.5293112174
  0
LINE
  5
330
100
AcDbEntity
  8
RACCORDO
100
AcDbLine
 62
250
  6
CONTINUOUS
 10
-24.487376048
 20
-15.2453435719
 11
-24.487376048
 21
1.529124233
  0
LINE
  5
331
100
AcDbEntity
  8
RACCORDO
100
AcDbLine
 62
250
  6
CONTINUOUS
 10
-24.487376048
 20
6.8853160818
 11
-24.487376048
 21
23.6597838868
  0
LINE
  5
332
100
AcDbEntity
  8
RACCORDO
100
AcDbLine
 62
250
  6
CONTINUOUS
 10
-24.1017625594
 20
1.5818455091
 11
-24.1017625594
 21
1.7072201574
  0
LINE
  5
333
100
AcDbEntity
  8
RACCORDO
100
AcDbLine
 62
250
  6
CONTINUOUS
 10
-24.1017625594
 20
6.7072201574
 11
-24.1017625594
 21
6.8325948057
  0
LINE
  5
334
100
AcDbEntity
  8
DRAFT
100
AcDbLine
 62
7
  6
CONTINUOUS
 10
-24.0351169051
 20
6.7072201574
 11
-24.0351169051
 21
1.7072201574
  0
LINE
  5
335
100
AcDbEntity
  8
RACCORDO
100
AcDbLine
 62
250
  6
CONTINUOUS
 10
-23.9876806345
 20
25.6585655408
 11
-23.9876806345
 21
24.1594793003
  0
LINE
  5
336
100
AcDbEntity
  8
RACCORDO
100
AcDbLine
 62
250
  6
CONTINUOUS
 10
-23.9876806345
 20
-17.244125226
 11
-23.9876806345
 21
-15.7450389854
  0
LINE
  5
337
100
AcDbEntity
  8
0
100
AcDbLine
 62
250
  6
CONTINUOUS
 10
-23.2721376112
 20
-17.4729383036
 11
-23.2721376112
 21
-17.4380175341
  0
LWPOLYLINE
  5
338
100
AcDbEntity
  8
RACCORDO
100
AcDbPolyline
 62
250
  6
CONTINUOUS
 90
25
 70
0
 10
-24.487376048
 20
23.6597838868
 10
-24.4862847408
 20
23.6926136036
 10
-24.4830984333
 20
23.7250543243
 10
-24.4778171254
 20
23.7571060489
 10
-24.4704004741
 20
23.7889116485
 10
-24.4608888225
 20
23.820328252
 10
-24.4494031995
 20
23.8509272463
 10
-24.4359184182
 20
23.8806889929
 10
-24.4204596657
 20
23.9096331303
 10
-24.4032235316
 20
23.937389961
 10
-24.3841868408
 20
23.9639444064
 10
-24.3633727685
 20
23.9893115451
 10
-24.3410474299
 20
24.0131669153
 10
-24.3171914984
 20
24.0354908855
 10
-24.2918243005
 20
24.0563030872
 10
-24.2652699308
 20
24.0753379534
 10
-24.2375132029
 20
24.0925724692
 10
-24.2085693033
 20
24.1080296496
 10
-24.1788078858
 20
24.1215129723
 10
-24.1482088418
 20
24.1329972837
 10
-24.11679228
 20
24.1425077375
 10
-24.0849881804
 20
24.1499232722
 10
-24.0529398696
 20
24.155203534
 10
-24.0205040209
 20
24.1583888767
 10
-23.9876806345
 20
24.1594793003
  0
LWPOLYLINE
  5
339
100
AcDbEntity
  8
0
100
AcDbPolyline
 62
7
  6
CONTINUOUS
 90
9
 70
0
 10
-18.9794439553
 20
19.0140751891
 10
-18.9936145247
 20
18.9754810267
 10
-19.0073379975
 20
18.9370266442
 10
-19.0206117322
 20
18.8987062589
 10
-19.0334383702
 20
18.8605256534
 10
-19.0458258353
 20
18.8225021765
 10
-19.0577767686
 20
18.7846416108
 10
-19.0692885291
 20
18.7469381737
 10
-19.0803611165
 20
18.709391865
  0
LWPOLYLINE
  5
33A
100
AcDbEntity
  8
0
100
AcDbPolyline
 62
7
  6
CONTINUOUS
 90
9
 70
0
 10
-18.9794439553
 20
15.933800559
 10
-18.9936145247
 20
15.8952063966
 10
-19.0073379975
 20
15.8567520142
 10
-19.0206117322
 20
15.8184316288
 10
-19.0334383702
 20
15.7802510234
 10
-19.0458258353
 20
15.7422275464
 10
-19.0577767686
 20
15.7043669808
 10
-19.0692885291
 20
15.6666635436
 10
-19.0803611165
 20
15.6291172349
  0
LINE
  5
33B
100
AcDbEntity
  8
0
100
AcDbLine
 62
7
  6
CONTINUOUS
 10
-18.3855587383
 20
20.5770718164
 11
-18.9794439553
 21
19.0140751891
  0
LINE
  5
33C
100
AcDbEntity
  8
0
100
AcDbLine
 62
7
  6
CONTINUOUS
 10
-18.3855587383
 20
17.4967971864
 11
-18.9794439553
 21
15.933800559
  0
LINE
  5
33D
100
AcDbEntity
  8
0
100
AcDbLine
 62
7
  6
CONTINUOUS
 10
-18.9245882713
 20
18.4735413861
 11
-18.0855665111
 21
20.5770718164
  0
LINE
  5
33E
100
AcDbEntity
  8
0
100
AcDbLine
 62
7
  6
CONTINUOUS
 10
-18.9245882713
 20
15.3932667561
 11
-18.0855665111
 21
17.4967971864
  0
LWPOLYLINE
  5
33F
100
AcDbEntity
  8
RACCORDO
100
AcDbPolyline
 62
250
  6
CONTINUOUS
 90
12
 70
0
 10
-27.4882306103
 20
-3.6958630868
 10
-27.486698256
 20
-3.692758024
 10
-27.4851056389
 20
-3.6863849695
 10
-27.483452759
 20
-3.6763432531
 10
-27.4817368427
 20
-3.6622301914
 10
-27.4799606635
 20
-3.6436196412
 10
-27.478132543
 20
-3.6200418141
 10
-27.4762502402
 20
-3.5910405005
 10
-27.4743159959
 20
-3.5561600527
 10
-27.472344854
 20
-3.5148883602
 10
-27.470333817
 20
-3.4667437922
 10
-27.466225086
 20
-3.3479798252
  0
LINE
  5
340
100
AcDbEntity
  8
0
100
AcDbLine
 62
7
  6
CONTINUOUS
 10
-6.6230281875
 20
25.8693088751
 11
-6.5351169051
 21
25.9572201574
  0
LWPOLYLINE
  5
341
100
AcDbEntity
  8
0
100
AcDbPolyline
 62
7
  6
CONTINUOUS
 90
11
 70
0
 10
-19.7084314891
 20
14.361335926
 10
-19.7521149451
 20
14.333266146
 10
-19.7931816606
 20
14.3014788834
 10
-19.831397694
 20
14.2657640387
 10
-19.8667042073
 20
14.2257397828
 10
-19.8993669998
 20
14.1812975743
 10
-19.9291202721
 20
14.1325459546
 10
-19.9551077886
 20
14.0794287194
 10
-19.9770441372
 20
14.0219271338
 10
-19.9952147298
 20
13.9600599327
 10
-20.0096195666
 20
13.8938271161
  0
LINE
  5
342
100
AcDbEntity
  8
RACCORDO
100
AcDbLine
 62
250
  6
CONTINUOUS
 10
-7.7027602363
 20
-24.2116415197
 11
-7.2030648228
 21
-24.2116415197
  0
LINE
  5
343
100
AcDbEntity
  8
RACCORDO
100
AcDbLine
 62
250
  6
CONTINUOUS
 10
-0.3674735739
 20
-24.2116415197
 11
-0.8671689874
 21
-24.2116415197
  0
LWPOLYLINE
  5
344
100
AcDbEntity
  8
RACCORDO
100
AcDbPolyline
 62
250
  6
CONTINUOUS
 90
12
 70
0
 10
-26.3820336609
 20
-3.4958935478
 10
-26.3835528927
 20
-3.4936682784
 10
-26.385132679
 20
-3.4876803617
 10
-26.3867730199
 20
-3.4779297979
 10
-26.3884768204
 20
-3.4648282509
 10
-26.3902411755
 20
-3.4479640567
 10
-26.3920573699
 20
-3.4261022229
 10
-26.3939274762
 20
-3.3992697868
 10
-26.3958494218
 20
-3.3674397111
 10
-26.3978082745
 20
-3.3292958912
 10
-26.3998067694
 20
-3.2848291882
 10
-26.4018421713
 20
-3.2340487409
  0
LINE
  5
345
100
AcDbEntity
  8
DRAFT
100
AcDbLine
 62
7
  6
CONTINUOUS
 10
-22.659402135
 20
1.5815053873
 11
-22.659402135
 21
6.8329349276
  0
LINE
  5
346
100
AcDbEntity
  8
DRAFT
100
AcDbLine
 62
7
  6
CONTINUOUS
 10
-22.6070209807
 20
1.529124233
 11
-22.6070209807
 21
6.8853160818
  0
LINE
  5
347
100
AcDbEntity
  8
RACCORDO
100
AcDbLine
 62
7
  6
CONTINUOUS
 10
-21.8203823013
 20
21.5000816771
 11
-21.8203823013
 21
-13.0856413622
  0
LINE
  5
348
100
AcDbEntity
  8
RACCORDO
100
AcDbLine
 62
7
  6
CONTINUOUS
 10
-21.7851169051
 20
21.4648162809
 11
-21.7851169051
 21
-13.0503759661
  0
LINE
  5
349
100
AcDbEntity
  8
0
100
AcDbLine
 62
7
  6
CONTINUOUS
 10
-19.4930991627
 20
13.5496130456
 11
-19.5225805212
 21
13.3201369987
  0
LWPOLYLINE
  5
34A
100
AcDbEntity
  8
0
100
AcDbPolyline
 62
7
  6
CONTINUOUS
 90
31
 70
0
 10
-19.7546461811
 20
13.8555811082
 10
-19.7457482234
 20
13.9015811645
 10
-19.7344297008
 20
13.9446747782
 10
-19.7206906133
 20
13.9848619492
 10
-19.7044278132
 20
14.0222795343
 10
-19.6857444482
 20
14.0567906767
 10
-19.6649499613
 20
14.0879848064
 10
-19.6423234213
 20
14.1155692037
 10
-19.6175857593
 20
14.1398365883
 10
-19.590209212
 20
14.1612545493
 10
-19.559851085
 20
14.1801851566
 10
-19.5268540727
 20
14.1962663404
 10
-19.4917184945
 20
14.2088794806
 10
-19.4537110924
 20
14.2178100616
 10
-19.4135651243
 20
14.2232725991
 10
-19.3739806838
 20
14.2252920199
 10
-19.3354207214
 20
14.2238552681
 10
-19.2974222867
 20
14.2189753997
 10
-19.2612966216
 20
14.2107165094
 10
-19.2273346631
 20
14.1989614826
 10
-19.1952454742
 20
14.1838274338
 10
-19.1654674863
 20
14.165729802
 10
-19.1378686631
 20
14.1445019674
 10
-19.1125810408
 20
14.1203105497
 10
-19.0904391595
 20
14.0940708469
 10
-19.0716228835
 20
14.0660152365
 10
-19.0559523484
 20
14.0359113411
 10
-19.0437225011
 20
14.0039773265
 10
-19.0350316571
 20
13.9702859148
 10
-19.0297815009
 20
13.9347643839
 10
-19.0279720324
 20
13.897412734
  0
LWPOLYLINE
  5
34B
100
AcDbEntity
  8
0
100
AcDbPolyline
 62
7
  6
CONTINUOUS
 90
3
 70
0
 10
-16.0347138122
 20
18.891375318
 10
-16.0472353855
 20
18.8542350794
 10
-16.0716751678
 20
18.7803062527
  0
LINE
  5
34C
100
AcDbEntity
  8
0
100
AcDbLine
 62
7
  6
CONTINUOUS
 10
-16.0090095592
 20
18.9660020106
 11
-16.0347138122
 21
18.891375318
  0
LINE
  5
34D
100
AcDbEntity
  8
0
100
AcDbLine
 62
7
  6
CONTINUOUS
 10
-17.0087024567
 20
15.3932667561
 11
-16.7869950541
 21
16.0307002198
  0
LINE
  5
34E
100
AcDbEntity
  8
0
100
AcDbLine
 62
7
  6
CONTINUOUS
 10
-15.9722754265
 20
18.4735413861
 11
-15.351375451
 21
20.232857746
  0
LINE
  5
34F
100
AcDbEntity
  8
0
100
AcDbLine
 62
7
  6
CONTINUOUS
 10
-15.9561403403
 20
19.1167516788
 11
-16.0090095592
 21
18.9660020106
  0
LINE
  5
350
100
AcDbEntity
  8
0
100
AcDbLine
 62
7
  6
CONTINUOUS
 10
-15.435835312
 20
20.5770718164
 11
-15.9561403403
 21
19.1167516788
  0
LINE
  5
351
100
AcDbEntity
  8
0
100
AcDbLine
 62
7
  6
CONTINUOUS
 10
-16.7071166215
 20
16.2601762667
 11
-16.4798317856
 21
16.8743036029
  0
LINE
  5
352
100
AcDbEntity
  8
0
100
AcDbLine
 62
7
  6
CONTINUOUS
 10
-16.5051299231
 20
17.4967971864
 11
-17.3047104694
 21
15.3932667561
  0
LINE
  5
353
100
AcDbEntity
  8
0
100
AcDbLine
 62
7
  6
CONTINUOUS
 10
-14.0573854224
 20
20.5770718164
 11
-14.8569659688
 21
18.4735413861
  0
LWPOLYLINE
  5
354
100
AcDbEntity
  8
0
100
AcDbPolyline
 62
7
  6
CONTINUOUS
 90
10
 70
0
 10
-16.4798317856
 20
16.8743036029
 10
-16.4622933861
 20
16.9175892053
 10
-16.4455762517
 20
16.9613661763
 10
-16.4296803826
 20
17.0056345158
 10
-16.4145837728
 20
17.0504495381
 10
-16.4003084282
 20
17.0957559289
 10
-16.3869203661
 20
17.1413877456
 10
-16.3744415922
 20
17.187289674
 10
-16.3628501008
 20
17.2335170284
 10
-16.3521458918
 20
17.2800698087
  0
LWPOLYLINE
  5
355
100
AcDbEntity
  8
0
100
AcDbPolyline
 62
7
  6
CONTINUOUS
 90
10
 70
0
 10
-14.0320872849
 20
19.9545782329
 10
-14.0145488854
 20
19.9978638354
 10
-13.9978317511
 20
20.0416408064
 10
-13.9819358819
 20
20.0859091459
 10
-13.9668392721
 20
20.1307241682
 10
-13.9525639275
 20
20.1760305589
 10
-13.9391758654
 20
20.2216623757
 10
-13.9266970915
 20
20.2675643041
 10
-13.9151056001
 20
20.3137916585
 10
-13.9044013911
 20
20.3603444388
  0
LWPOLYLINE
  5
356
100
AcDbEntity
  8
RACCORDO
100
AcDbPolyline
 62
250
  6
CONTINUOUS
 90
14
 70
0
 10
-27.6882001494
 20
-3.4958935478
 10
-27.6866694754
 20
-3.4936434193
 10
-27.685078124
 20
-3.4875788705
 10
-27.683426095
 20
-3.4776999012
 10
-27.6817104778
 20
-3.4644235263
 10
-27.6799341831
 20
-3.4473327311
 10
-27.678105943
 20
-3.425176471
 10
-27.6762236572
 20
-3.3979838833
 10
-27.6742894261
 20
-3.3657258309
 10
-27.6723182817
 20
-3.3270638577
 10
-27.6703072335
 20
-3.2819826878
 10
-27.6682592722
 20
-3.2304975971
 10
-27.6661984024
 20
-3.1713159577
 10
-27.6620254047
 20
-3.0293547882
  0
LWPOLYLINE
  5
357
100
AcDbEntity
  8
0
100
AcDbPolyline
 62
7
  6
CONTINUOUS
 90
19
 70
0
 10
-15.774571355
 20
12.6731420817
 10
-15.8037755584
 20
12.6371649458
 10
-15.8342175501
 20
12.6055429407
 10
-15.8658973304
 20
12.5782760664
 10
-15.8987919745
 20
12.5554350672
 10
-15.9329244071
 20
12.5369491988
 10
-15.9683634016
 20
12.5226062287
 10
-16.0055593443
 20
12.5123656914
 10
-16.044061849
 20
12.5062680524
 10
-16.0825885298
 20
12.504222475
 10
-16.1211514245
 20
12.5061670986
 10
-16.1597384954
 20
12.5121637838
 10
-16.1970312437
 20
12.5223072769
 10
-16.2325710051
 20
12.5365549309
 10
-16.266816444
 20
12.5549493929
 10
-16.2998250543
 20
12.5777133498
 10
-16.3316160007
 20
12.6049210309
 10
-16.3621701185
 20
12.636498207
 10
-16.3914874079
 20
12.6724448782
  0
LWPOLYLINE
  5
358
100
AcDbEntity
  8
0
100
AcDbPolyline
 62
7
  6
CONTINUOUS
 90
19
 70
0
 10
-16.3820254578
 20
14.0746988979
 10
-16.354107868
 20
14.1080157719
 10
-16.3247267013
 20
14.1370879646
 10
-16.2938819577
 20
14.161915476
 10
-16.2616483658
 20
14.1823718472
 10
-16.227951197
 20
14.1985835371
 10
-16.1925662655
 20
14.2109299226
 10
-16.1547840703
 20
14.2195436774
 10
-16.1153141125
 20
14.2242921278
 10
-16.0760607091
 20
14.2251566303
 10
-16.0371880126
 20
14.2221425067
 10
-15.9985318704
 20
14.2152444352
 10
-15.961504143
 20
14.2044278067
 10
-15.9267006524
 20
14.1897769823
 10
-15.8935255764
 20
14.1712076008
 10
-15.8616033086
 20
14.14843197
 10
-15.8308086466
 20
14.1213541923
 10
-15.8012667928
 20
14.0900701653
 10
-15.772977747
 20
14.054579889
  0
LINE
  5
359
100
AcDbEntity
  8
RACCORDO
100
AcDbLine
 62
7
  6
CONTINUOUS
 10
-24.5051413905
 20
6.8160839015
 11
-24.6140051346
 21
6.7072201574
  0
LINE
  5
35A
100
AcDbEntity
  8
DRAFT
100
AcDbLine
 62
7
  6
CONTINUOUS
 10
-22.659402135
 20
6.8329349276
 11
-22.6070209807
 21
6.8853160818
  0
LWPOLYLINE
  5
35B
100
AcDbEntity
  8
0
100
AcDbPolyline
 62
7
  6
CONTINUOUS
 90
16
 70
0
 10
-17.9009099104
 20
14.1563701394
 10
-17.8698910937
 20
14.1757818713
 10
-17.8377071772
 20
14.1919947844
 10
-17.8043581607
 20
14.2050088787
 10
-17.7694434195
 20
14.2148349455
 10
-17.7333635785
 20
14.2214621935
 10
-17.6973205122
 20
14.2248582485
 10
-17.6611990556
 20
14.2249499657
 10
-17.6251143737
 20
14.2218104899
 10
-17.5906138364
 20
14.2156268816
 10
-17.5582990374
 20
14.2064701926
 10
-17.5275683828
 20
14.1942693711
 10
-17.4981644613
 20
14.178998322
 10
-17.4700014691
 20
14.1606483471
 10
-17.44316521
 20
14.1392281446
 10
-17.4176556839
 20
14.1147377147
  0
LWPOLYLINE
  5
35C
100
AcDbEntity
  8
0
100
AcDbPolyline
 62
7
  6
CONTINUOUS
 90
36
 70
0
 10
-19.0622340203
 20
13.4653523856
 10
-19.0143451021
 20
13.4908056762
 10
-18.9709873173
 20
13.5183118506
 10
-18.932160666
 20
13.5478709089
 10
-18.8980079733
 20
13.5795275098
 10
-18.8683864141
 20
13.6132369945
 10
-18.8428675133
 20
13.6488653868
 10
-18.8213832608
 20
13.6863752782
 10
-18.8040016668
 20
13.7258040772
 10
-18.7904982859
 20
13.7671300329
 10
-18.780599421
 20
13.810675658
 10
-18.7745787693
 20
13.8561184398
 10
-18.7730329774
 20
13.9024690896
 10
-18.7761896008
 20
13.9500523755
 10
-18.7838210841
 20
13.9985435294
 10
-18.7958414075
 20
14.0459789585
 10
-18.8124125535
 20
14.09218421
 10
-18.8333725396
 20
14.1373337368
 10
-18.8581493985
 20
14.1799873046
 10
-18.8865030009
 20
14.2197992189
 10
-18.9186734761
 20
14.2571151742
 10
-18.9548092445
 20
14.2915320194
 10
-18.9950320948
 20
14.3231269516
 10
-19.0392202382
 20
14.3518227736
 10
-19.0871567293
 20
14.3769847434
 10
-19.1392461408
 20
14.3988619562
 10
-19.1950839
 20
14.4172053167
 10
-19.2532393441
 20
14.4306327978
 10
-19.3145730865
 20
14.4386746827
 10
-19.3782245138
 20
14.4418006882
 10
-19.4401811234
 20
14.4400379375
 10
-19.4997050317
 20
14.4331579031
 10
-19.5575341223
 20
14.4213891125
 10
-19.611869544
 20
14.405444271
 10
-19.661897351
 20
14.3854781239
 10
-19.7084314891
 20
14.361335926
  0
LINE
  5
35D
100
AcDbEntity
  8
RACCORDO
100
AcDbLine
 62
250
  6
CONTINUOUS
 10
-26.4850864442
 20
-3.7927798426
 11
-26.5820031999
 21
-3.6958630868
  0
LINE
  5
35E
100
AcDbEntity
  8
RACCORDO
100
AcDbLine
 62
250
  6
CONTINUOUS
 10
-26.2851169051
 20
-3.5928103035
 11
-26.3820336609
 21
-3.4958935478
  0
LINE
  5
35F
100
AcDbEntity
  8
0
100
AcDbLine
 62
7
  6
CONTINUOUS
 10
-20.0351169051
 20
11.3107505877
 11
-20.0351169051
 21
9.2072201574
  0
LINE
  5
360
100
AcDbEntity
  8
0
100
AcDbLine
 62
7
  6
CONTINUOUS
 10
-19.7546461811
 20
9.2072201574
 11
-19.7546461811
 21
11.3107505877
  0
LINE
  5
361
100
AcDbEntity
  8
0
100
AcDbLine
 62
7
  6
CONTINUOUS
 10
-19.4104321107
 20
11.3107505877
 11
-19.4104321107
 21
11.0685258715
  0
LINE
  5
362
100
AcDbEntity
  8
0
100
AcDbLine
 62
7
  6
CONTINUOUS
 10
-18.7220039699
 20
11.0685258715
 11
-18.7220039699
 21
9.2072201574
  0
LINE
  5
363
100
AcDbEntity
  8
0
100
AcDbLine
 62
7
  6
CONTINUOUS
 10
-18.4415332458
 20
9.2072201574
 11
-18.4415332458
 21
11.0685258715
  0
LINE
  5
364
100
AcDbEntity
  8
0
100
AcDbLine
 62
7
  6
CONTINUOUS
 10
-17.8501146288
 20
20.5770718164
 11
-17.8501146288
 21
18.4735413861
  0
LINE
  5
365
100
AcDbEntity
  8
0
100
AcDbLine
 62
7
  6
CONTINUOUS
 10
-17.8501146288
 20
17.4967971864
 11
-17.8501146288
 21
15.3932667561
  0
LINE
  5
366
100
AcDbEntity
  8
0
100
AcDbLine
 62
7
  6
CONTINUOUS
 10
-17.753105105
 20
11.0685258715
 11
-17.753105105
 21
11.3107505877
  0
LWPOLYLINE
  5
367
100
AcDbEntity
  8
0
100
AcDbPolyline
 62
7
  6
CONTINUOUS
 90
16
 70
0
 10
-18.1610625218
 20
13.4107720906
 10
-18.1600383329
 20
13.47955693
 10
-18.1567944515
 20
13.5460536596
 10
-18.1513308777
 20
13.6102622792
 10
-18.143804946
 20
13.6723735116
 10
-18.1340593218
 20
13.7321966342
 10
-18.1216220015
 20
13.7891594789
 10
-18.1062572698
 20
13.8432292555
 10
-18.0882008418
 20
13.8944387543
 10
-18.0676878603
 20
13.9423141785
 10
-18.0445219917
 20
13.986780315
 10
-18.0188995694
 20
14.0279123769
 10
-17.9916447359
 20
14.0654622061
 10
-17.9630322053
 20
14.0993470832
 10
-17.9327872635
 20
14.1296497277
 10
-17.9009099104
 20
14.1563701394
  0
LWPOLYLINE
  5
368
100
AcDbEntity
  8
0
100
AcDbPolyline
 62
7
  6
CONTINUOUS
 90
19
 70
0
 10
-19.0279720324
 20
13.897412734
 10
-19.0294030222
 20
13.8624951005
 10
-19.0333593799
 20
13.8295023723
 10
-19.0398411055
 20
13.7984345492
 10
-19.0487675831
 20
13.7693633677
 10
-19.0602194287
 20
13.7422170914
 10
-19.0744384897
 20
13.7167805113
 10
-19.0914815198
 20
13.6930453353
 10
-19.1112917653
 20
13.6710198555
 10
-19.1339408118
 20
13.65051374
 10
-19.159625196
 20
13.6314025581
 10
-19.1881483812
 20
13.6138107405
 10
-19.2189923427
 20
13.5979212466
 10
-19.2520098883
 20
13.5835014988
 10
-19.2873482101
 20
13.5707840747
 10
-19.3249308606
 20
13.5606496661
 10
-19.3647323571
 20
13.553391837
 10
-19.4067781822
 20
13.5487170234
 10
-19.4510683359
 20
13.5466252252
  0
LWPOLYLINE
  5
369
100
AcDbEntity
  8
0
100
AcDbPolyline
 62
7
  6
CONTINUOUS
 90
34
 70
0
 10
-18.122816514
 20
13.0073962968
 10
-18.1205506375
 20
13.057938156
 10
-18.1145716071
 20
13.1055809009
 10
-18.1048794228
 20
13.1503245316
 10
-18.0914686944
 20
13.191978886
 10
-18.074344812
 20
13.230734126
 10
-18.0535239461
 20
13.2671607383
 10
-18.0285826121
 20
13.3017960918
 10
-17.9999442945
 20
13.3341028175
 10
-17.9688956179
 20
13.3630392946
 10
-17.9356420825
 20
13.3884588993
 10
-17.8999781881
 20
13.4105082554
 10
-17.8625740577
 20
13.4285856131
 10
-17.8234205649
 20
13.4424811535
 10
-17.7825268361
 20
13.4524046956
 10
-17.7405903745
 20
13.4583839473
 10
-17.6967563295
 20
13.4603209079
 10
-17.6518795517
 20
13.458313578
 10
-17.6092220952
 20
13.4526836678
 10
-17.5699227946
 20
13.4435016246
 10
-17.5328428153
 20
13.430697001
 10
-17.4978277072
 20
13.4143801652
 10
-17.4646939464
 20
13.3944964433
 10
-17.4336250568
 20
13.3711005092
 10
-17.4050171608
 20
13.3444667524
 10
-17.3787569587
 20
13.3146232769
 10
-17.35495775
 20
13.2815419788
 10
-17.3343555562
 20
13.2454129355
 10
-17.3171061841
 20
13.2062123722
 10
-17.3030538268
 20
13.1639640637
 10
-17.2924670846
 20
13.1189294129
 10
-17.285435491
 20
13.0711955538
 10
-17.2818695125
 20
13.0206753523
 10
-17.281769149
 20
12.9673688083
  0
LWPOLYLINE
  5
36A
100
AcDbEntity
  8
0
100
AcDbPolyline
 62
7
  6
CONTINUOUS
 90
34
 70
0
 10
-17.281769149
 20
12.9673688083
 10
-17.285322313
 20
12.9140569701
 10
-17.2923452908
 20
12.8638030136
 10
-17.3028380823
 20
12.8166069387
 10
-17.3169609256
 20
12.7724200707
 10
-17.3345535827
 20
12.7312910844
 10
-17.3551353393
 20
12.6933660041
 10
-17.3789570414
 20
12.6585741365
 10
-17.4057678431
 20
12.6269861749
 10
-17.4343344926
 20
12.5989602229
 10
-17.4643426787
 20
12.574589547
 10
-17.4961067126
 20
12.5537808808
 10
-17.5293362758
 20
12.5366125284
 10
-17.5639252225
 20
12.5231048576
 10
-17.5999796986
 20
12.5132375006
 10
-17.637527823
 20
12.5070276595
 10
-17.6773648353
 20
12.5044218951
 10
-17.7186954958
 20
12.5054736466
 10
-17.7591622042
 20
12.5103604331
 10
-17.7983119967
 20
12.5192559117
 10
-17.836597837
 20
12.5319864255
 10
-17.8730210157
 20
12.5482085225
 10
-17.9073860635
 20
12.5678367717
 10
-17.9398884497
 20
12.5909566042
 10
-17.9701158726
 20
12.6174808616
 10
-17.9979880491
 20
12.6473345699
 10
-18.0235852623
 20
12.6805927031
 10
-18.0467360599
 20
12.7173930244
 10
-18.0677946503
 20
12.7579836824
 10
-18.0864068251
 20
12.8021165286
 10
-18.1013385066
 20
12.8491848813
 10
-18.1121783357
 20
12.8989865133
 10
-18.1193376715
 20
12.9517236518
 10
-18.122816514
 20
13.0073962968
  0
LINE
  5
36B
100
AcDbEntity
  8
0
100
AcDbLine
 62
7
  6
CONTINUOUS
 10
-14.560957956
 20
18.4735413861
 11
-14.3392505534
 21
19.1109748499
  0
LINE
  5
36C
100
AcDbEntity
  8
0
100
AcDbLine
 62
7
  6
CONTINUOUS
 10
-17.4088910346
 20
9.2072201574
 11
-17.187183632
 21
9.8446536211
  0
LINE
  5
36D
100
AcDbEntity
  8
0
100
AcDbLine
 62
7
  6
CONTINUOUS
 10
-14.2593721208
 20
19.3404508968
 11
-14.0320872849
 21
19.9545782329
  0
LINE
  5
36E
100
AcDbEntity
  8
0
100
AcDbLine
 62
7
  6
CONTINUOUS
 10
-17.1073051994
 20
10.0741296681
 11
-16.8800203634
 21
10.6882570042
  0
LINE
  5
36F
100
AcDbEntity
  8
0
100
AcDbLine
 62
7
  6
CONTINUOUS
 10
-16.905318501
 20
11.3107505877
 11
-17.7048990473
 21
9.2072201574
  0
LWPOLYLINE
  5
370
100
AcDbEntity
  8
0
100
AcDbPolyline
 62
7
  6
CONTINUOUS
 90
10
 70
0
 10
-16.8800203634
 20
10.6882570042
 10
-16.862481964
 20
10.7315426067
 10
-16.8457648296
 20
10.7753195776
 10
-16.8298689605
 20
10.8195879172
 10
-16.8147723507
 20
10.8644029394
 10
-16.8004970061
 20
10.9097093302
 10
-16.787108944
 20
10.9553411469
 10
-16.7746301701
 20
11.0012430754
 10
-16.7630386787
 20
11.0474704297
 10
-16.7523344697
 20
11.09402321
  0
LINE
  5
371
100
AcDbEntity
  8
RACCORDO
100
AcDbLine
 62
7
  6
CONTINUOUS
 10
-27.6959437575
 20
-0.703606695
 11
-27.7851169051
 21
-0.7927798426
  0
LINE
  5
372
100
AcDbEntity
  8
0
100
AcDbLine
 62
7
  6
CONTINUOUS
 10
-26.2851169051
 20
-0.5427798426
 11
-26.202794231
 21
-0.4604571685
  0
LINE
  5
373
100
AcDbEntity
  8
RACCORDO
100
AcDbLine
 62
7
  6
CONTINUOUS
 10
-26.1031632886
 20
-0.360826226
 11
-26.202794231
 21
-0.4604571685
  0
LWPOLYLINE
  5
374
100
AcDbEntity
  8
0
100
AcDbPolyline
 62
7
  6
CONTINUOUS
 90
11
 70
0
 10
-13.1811128206
 20
14.361335926
 10
-13.2247962767
 20
14.333266146
 10
-13.2658629921
 20
14.3014788834
 10
-13.3040790255
 20
14.2657640387
 10
-13.3393855388
 20
14.2257397828
 10
-13.3720483313
 20
14.1812975743
 10
-13.4018016037
 20
14.1325459546
 10
-13.4277891201
 20
14.0794287194
 10
-13.4497254687
 20
14.0219271338
 10
-13.4678960614
 20
13.9600599327
 10
-13.4823008981
 20
13.8938271161
  0
LWPOLYLINE
  5
375
100
AcDbEntity
  8
0
100
AcDbPolyline
 62
7
  6
CONTINUOUS
 90
16
 70
0
 10
-14.6372505761
 20
14.1563701394
 10
-14.6062317595
 20
14.1757818713
 10
-14.5740478429
 20
14.1919947844
 10
-14.5406988265
 20
14.2050088787
 10
-14.5057840853
 20
14.2148349455
 10
-14.4697042442
 20
14.2214621935
 10
-14.4336611779
 20
14.2248582485
 10
-14.3975397213
 20
14.2249499657
 10
-14.3614550395
 20
14.2218104899
 10
-14.3269545022
 20
14.2156268816
 10
-14.2946397031
 20
14.2064701926
 10
-14.2639090486
 20
14.1942693711
 10
-14.2345051271
 20
14.178998322
 10
-14.2063421349
 20
14.1606483471
 10
-14.1795058758
 20
14.1392281446
 10
-14.1539963497
 20
14.1147377147
  0
LWPOLYLINE
  5
376
100
AcDbEntity
  8
0
100
AcDbPolyline
 62
7
  6
CONTINUOUS
 90
36
 70
0
 10
-12.5349153519
 20
13.4653523856
 10
-12.4870264336
 20
13.4908056762
 10
-12.4436686488
 20
13.5183118506
 10
-12.4048419976
 20
13.5478709089
 10
-12.3706893048
 20
13.5795275098
 10
-12.3410677456
 20
13.6132369945
 10
-12.3155488448
 20
13.6488653868
 10
-12.2940645923
 20
13.6863752782
 10
-12.2766829983
 20
13.7258040772
 10
-12.2631796174
 20
13.7671300329
 10
-12.2532807525
 20
13.810675658
 10
-12.2472601008
 20
13.8561184398
 10
-12.2457143089
 20
13.9024690896
 10
-12.2488709323
 20
13.9500523755
 10
-12.2565024156
 20
13.9985435294
 10
-12.268522739
 20
14.0459789585
 10
-12.285093885
 20
14.09218421
 10
-12.3060538711
 20
14.1373337368
 10
-12.33083073
 20
14.1799873046
 10
-12.3591843325
 20
14.2197992189
 10
-12.3913548077
 20
14.2571151742
 10
-12.4274905761
 20
14.2915320194
 10
-12.4677134263
 20
14.3231269516
 10
-12.5119015697
 20
14.3518227736
 10
-12.5598380609
 20
14.3769847434
 10
-12.6119274723
 20
14.3988619562
 10
-12.6677652315
 20
14.4172053167
 10
-12.7259206756
 20
14.4306327978
 10
-12.787254418
 20
14.4386746827
 10
-12.8509058453
 20
14.4418006882
 10
-12.912862455
 20
14.4400379375
 10
-12.9723863632
 20
14.4331579031
 10
-13.0302154538
 20
14.4213891125
 10
-13.0845508756
 20
14.405444271
 10
-13.1345786825
 20
14.3854781239
 10
-13.1811128206
 20
14.361335926
  0
LINE
  5
377
100
AcDbEntity
  8
RACCORDO
100
AcDbLine
 62
7
  6
CONTINUOUS
 10
16.2161014408
 20
-17.5427798426
 11
15.4648830949
 21
-17.5427798426
  0
LINE
  5
378
100
AcDbEntity
  8
RACCORDO
100
AcDbLine
 62
7
  6
CONTINUOUS
 10
-23.5351169051
 20
-17.5427798426
 11
-24.2863352511
 21
-17.5427798426
  0
LINE
  5
379
100
AcDbEntity
  8
0
100
AcDbLine
 62
7
  6
CONTINUOUS
 10
-23.2721376112
 20
-17.4729383036
 11
-7.7382903644
 21
-17.4729383036
  0
LINE
  5
37A
100
AcDbEntity
  8
0
100
AcDbLine
 62
7
  6
CONTINUOUS
 10
-0.3319434458
 20
-17.4729383036
 11
15.2019038009
 21
-17.4729383036
  0
LWPOLYLINE
  5
37B
100
AcDbEntity
  8
RACCORDO
100
AcDbPolyline
 62
250
  6
CONTINUOUS
 90
25
 70
0
 10
-23.9875565469
 20
-17.2441253394
 10
-24.1182830222
 20
-17.2397360238
 10
-24.2484316591
 20
-17.2268107668
 10
-24.3774460755
 20
-17.2054081719
 10
-24.504769741
 20
-17.1756246172
 10
-24.6298645317
 20
-17.1375898204
 10
-24.752211981
 20
-17.0914627299
 10
-24.8712944928
 20
-17.0374377978
 10
-24.9865972613
 20
-16.975747941
 10
-25.0976260329
 20
-16.9066573359
 10
-25.2039056864
 20
-16.8304618342
 10
-25.3049825044
 20
-16.7474870816
 10
-25.4004247469
 20
-16.6580874871
 10
-25.4898243237
 20
-16.562645234
 10
-25.5727990563
 20
-16.4615684094
 10
-25.6489945411
 20
-16.355288747
 10
-25.7180851337
 20
-16.2442599613
 10
-25.7797749793
 20
-16.1289571755
 10
-25.8337998997
 20
-16.0098746437
 10
-25.8799269512
 20
-15.887527247
 10
-25.9179617172
 20
-15.7624325091
 10
-25.9477452966
 20
-15.6351086633
 10
-25.9691479361
 20
-15.5060937467
 10
-25.982073189
 20
-15.3759443648
 10
-25.9864624042
 20
-15.2452169045
  0
LINE
  5
37C
100
AcDbEntity
  8
RACCORDO
100
AcDbLine
 62
250
  6
CONTINUOUS
 10
-2.366255228
 20
-26.2104231738
 11
-2.3307250998
 21
-26.2459533019
  0
LINE
  5
37D
100
AcDbEntity
  8
RACCORDO
100
AcDbLine
 62
7
  6
CONTINUOUS
 10
-26.3742900527
 20
-0.703606695
 11
-26.2851169051
 21
-0.7927798426
  0
LWPOLYLINE
  5
37E
100
AcDbEntity
  8
0
100
AcDbPolyline
 62
7
  6
CONTINUOUS
 90
37
 70
0
 10
-20.0351169051
 20
12.8739335741
 10
-20.025335753
 20
12.8085432185
 10
-20.011048322
 20
12.7470237962
 10
-19.9922546122
 20
12.6893753072
 10
-19.9689083809
 20
12.6358576114
 10
-19.9410558707
 20
12.5862108489
 10
-19.9088358095
 20
12.5396554396
 10
-19.8719182446
 20
12.4955653827
 10
-19.8306331287
 20
12.454566679
 10
-19.7861090479
 20
12.4177577514
 10
-19.7388146584
 20
12.3853424156
 10
-19.6882813041
 20
12.3571168559
 10
-19.6342316032
 20
12.3335680475
 10
-19.5762734351
 20
12.3146979706
 10
-19.5147989204
 20
12.300504645
 10
-19.4507070401
 20
12.2914691057
 10
-19.3826018765
 20
12.2877506469
 10
-19.3118793472
 20
12.2891899743
 10
-19.2436261862
 20
12.2957902401
 10
-19.1793223859
 20
12.3076374247
 10
-19.1174879538
 20
12.3246455476
 10
-19.0587696464
 20
12.34655982
 10
-19.0033576955
 20
12.373442277
 10
-18.9510618692
 20
12.4052308834
 10
-18.9019582281
 20
12.4414847448
 10
-18.855323043
 20
12.4829813137
 10
-18.8118800431
 20
12.5289431376
 10
-18.773876477
 20
12.5765969643
 10
-18.7422283094
 20
12.6249151006
 10
-18.7160195755
 20
12.6749252397
 10
-18.6947496296
 20
12.7269372085
 10
-18.6783284764
 20
12.7818029933
 10
-18.6668461112
 20
12.8386706078
 10
-18.660071874
 20
12.8952939194
 10
-18.6580557008
 20
12.9517165862
 10
-18.6607476556
 20
13.00789495
 10
-18.6677672703
 20
13.0614519044
  0
LWPOLYLINE
  5
37F
100
AcDbEntity
  8
0
100
AcDbPolyline
 62
7
  6
CONTINUOUS
 90
46
 70
0
 10
-16.7714575709
 20
13.3639606344
 10
-16.7704588747
 20
13.2786613368
 10
-16.767070762
 20
13.1963292607
 10
-16.7612932329
 20
13.1169644062
 10
-16.7531922104
 20
13.0404829291
 10
-16.7427017715
 20
12.9669686735
 10
-16.7296241465
 20
12.896673172
 10
-16.7138946372
 20
12.829543202
 10
-16.6955779418
 20
12.7656319861
 10
-16.6746703854
 20
12.7053507247
 10
-16.6513611647
 20
12.648681506
 10
-16.625461083
 20
12.5956422418
 10
-16.5963988756
 20
12.5466978676
 10
-16.5638917831
 20
12.5019580402
 10
-16.5282225649
 20
12.4613131029
 10
-16.489668235
 20
12.424899021
 10
-16.4483898704
 20
12.392763681
 10
-16.4042263942
 20
12.3648591964
 10
-16.3569715893
 20
12.3411778732
 10
-16.3064633959
 20
12.3216108342
 10
-16.2528638738
 20
12.3062669565
 10
-16.1964529857
 20
12.2954651781
 10
-16.1357652528
 20
12.2892562908
 10
-16.0722661539
 20
12.2875895027
 10
-16.010632088
 20
12.2906313758
 10
-15.9518505591
 20
12.298572455
 10
-15.8949340632
 20
12.3112221955
 10
-15.8415964871
 20
12.328175525
 10
-15.7926995152
 20
12.3492810146
 10
-15.7473814631
 20
12.3746900933
 10
-15.7047711645
 20
12.4044519755
 10
-15.6646619132
 20
12.4384251179
 10
-15.6272604153
 20
12.4767510638
 10
-15.5923156231
 20
12.5199036569
 10
-15.5595275876
 20
12.5682220559
 10
-15.5291962577
 20
12.6213671022
 10
-15.5019704324
 20
12.6787951631
 10
-15.4780623063
 20
12.7405490403
 10
-15.4572596849
 20
12.8065859323
 10
-15.4395747833
 20
12.8762338018
 10
-15.4251731861
 20
12.9494291642
 10
-15.4138893088
 20
13.0262355042
 10
-15.405238613
 20
13.1061712383
 10
-15.399059586
 20
13.1890758386
 10
-15.3955137405
 20
13.275109833
 10
-15.3946010766
 20
13.3642732214
  0
LWPOLYLINE
  5
380
100
AcDbEntity
  8
0
100
AcDbPolyline
 62
7
  6
CONTINUOUS
 90
46
 70
0
 10
-15.3946010766
 20
13.3642732214
 10
-15.3950383608
 20
13.4510940787
 10
-15.3981145144
 20
13.5349178684
 10
-15.4038295375
 20
13.6157445904
 10
-15.4120329293
 20
13.6937504262
 10
-15.4228751906
 20
13.7687591943
 10
-15.4368078232
 20
13.8402423509
 10
-15.4542004756
 20
13.9080926924
 10
-15.4746834992
 20
13.9724174223
 10
-15.4975994497
 20
14.0330096075
 10
-15.522640475
 20
14.0900347644
 10
-15.5501144272
 20
14.1433273765
 10
-15.5802874186
 20
14.1921839619
 10
-15.6131990076
 20
14.2363356865
 10
-15.6488096358
 20
14.2760513842
 10
-15.6872667394
 20
14.3114340757
 10
-15.7284133036
 20
14.34241384
 10
-15.7724063432
 20
14.369060598
 10
-15.8198643391
 20
14.3916871327
 10
-15.8716002526
 20
14.4105983336
 10
-15.9268011224
 20
14.4254893113
 10
-15.9836465452
 20
14.435758181
 10
-16.042816059
 20
14.4410789407
 10
-16.1036301259
 20
14.4417775926
 10
-16.1622297284
 20
14.4382302579
 10
-16.2175087239
 20
14.4305244079
 10
-16.270573255
 20
14.4185725714
 10
-16.3208827324
 20
14.4024884564
 10
-16.3680653517
 20
14.3824692183
 10
-16.4124929173
 20
14.3583177018
 10
-16.4547402529
 20
14.3295561486
 10
-16.4950695455
 20
14.2961722107
 10
-16.5332186081
 20
14.2581782361
 10
-16.5689757026
 20
14.2151335119
 10
-16.6025390207
 20
14.1666583307
 10
-16.6337103707
 20
14.1131323998
 10
-16.6616834391
 20
14.0552541276
 10
-16.6861928134
 20
13.9930247211
 10
-16.707503906
 20
13.9264429733
 10
-16.7256066411
 20
13.8562036712
 10
-16.7403261718
 20
13.7823676016
 10
-16.7518373449
 20
13.7048739776
 10
-16.7606546249
 20
13.6242352263
 10
-16.7669495
 20
13.5406221564
 10
-16.770550482
 20
13.4538639592
 10
-16.7714575709
 20
13.3639606344
  0
LINE
  5
381
100
AcDbEntity
  8
0
100
AcDbLine
 62
7
  6
CONTINUOUS
 10
-17.5696439048
 20
15.3932667561
 11
-17.5696439048
 21
17.4967971864
  0
LINE
  5
382
100
AcDbEntity
  8
0
100
AcDbLine
 62
7
  6
CONTINUOUS
 10
-17.5696439048
 20
18.4735413861
 11
-17.5696439048
 21
20.5770718164
  0
LINE
  5
383
100
AcDbEntity
  8
0
100
AcDbLine
 62
7
  6
CONTINUOUS
 10
-17.5515639051
 20
-1.3015938426
 11
-17.5515639051
 21
-2.3015938426
  0
LINE
  5
384
100
AcDbEntity
  8
0
100
AcDbLine
 62
7
  6
CONTINUOUS
 10
-17.0979431416
 20
20.5770718164
 11
-17.0979431416
 21
18.4735413861
  0
LINE
  5
385
100
AcDbEntity
  8
0
100
AcDbLine
 62
7
  6
CONTINUOUS
 10
-16.8174724176
 20
18.4735413861
 11
-16.8174724176
 21
20.2583550846
  0
LINE
  5
386
100
AcDbEntity
  8
0
100
AcDbLine
 62
7
  6
CONTINUOUS
 10
-16.4457969051
 20
6.1496731574
 11
-16.4457969051
 21
5.8335181574
  0
LINE
  5
387
100
AcDbEntity
  8
0
100
AcDbLine
 62
7
  6
CONTINUOUS
 10
-15.6158919051
 20
6.8215031574
 11
-15.6158919051
 21
6.5120781574
  0
LINE
  5
388
100
AcDbEntity
  8
0
100
AcDbLine
 62
7
  6
CONTINUOUS
 10
-15.6158919051
 20
6.4282951574
 11
-15.6158919051
 21
6.1496731574
  0
LINE
  5
389
100
AcDbEntity
  8
0
100
AcDbLine
 62
7
  6
CONTINUOUS
 10
-15.5368519051
 20
6.2287131574
 11
-15.5368519051
 21
6.4554814938
  0
LINE
  5
38A
100
AcDbEntity
  8
0
100
AcDbLine
 62
7
  6
CONTINUOUS
 10
-15.5368519051
 20
6.5386888343
 11
-15.5368519051
 21
6.7424631574
  0
LINE
  5
38B
100
AcDbEntity
  8
0
100
AcDbLine
 62
7
  6
CONTINUOUS
 10
-15.5348366513
 20
11.3107505877
 11
-15.5348366513
 21
9.2072201574
  0
LINE
  5
38C
100
AcDbEntity
  8
0
100
AcDbLine
 62
7
  6
CONTINUOUS
 10
-15.351375451
 20
20.232857746
 11
-15.351375451
 21
18.4735413861
  0
LINE
  5
38D
100
AcDbEntity
  8
0
100
AcDbLine
 62
7
  6
CONTINUOUS
 10
-15.3294759051
 20
0.4984061574
 11
-15.3294759051
 21
-0.1339048426
  0
LINE
  5
38E
100
AcDbEntity
  8
0
100
AcDbLine
 62
7
  6
CONTINUOUS
 10
-15.2997369051
 20
6.7424631574
 11
-15.2997369051
 21
6.6081361574
  0
LINE
  5
38F
100
AcDbEntity
  8
0
100
AcDbLine
 62
7
  6
CONTINUOUS
 10
-15.2997369051
 20
6.5263981574
 11
-15.2997369051
 21
6.2287131574
  0
LINE
  5
390
100
AcDbEntity
  8
0
100
AcDbLine
 62
7
  6
CONTINUOUS
 10
-15.2543659272
 20
9.4494448736
 11
-15.2543659272
 21
11.3107505877
  0
LINE
  5
391
100
AcDbEntity
  8
0
100
AcDbLine
 62
7
  6
CONTINUOUS
 10
-15.2206979051
 20
6.1496731574
 11
-15.2206979051
 21
6.5465962692
  0
LINE
  5
392
100
AcDbEntity
  8
0
100
AcDbLine
 62
7
  6
CONTINUOUS
 10
-15.2206979051
 20
6.627923596
 11
-15.2206979051
 21
6.8215031574
  0
LWPOLYLINE
  5
393
100
AcDbEntity
  8
0
100
AcDbPolyline
 62
7
  6
CONTINUOUS
 90
16
 70
0
 10
-16.5164841854
 20
13.3647574384
 10
-16.5162339731
 20
13.4237931861
 10
-16.5149256758
 20
13.4812652537
 10
-16.5125592934
 20
13.5371736414
 10
-16.5091779689
 20
13.5914905232
 10
-16.5047385593
 20
13.6442437249
 10
-16.4991116364
 20
13.6955167246
 10
-16.4923553239
 20
13.7454461636
 10
-16.4844114981
 20
13.7938954006
 10
-16.4749763592
 20
13.8405379892
 10
-16.4641121553
 20
13.8855281556
 10
-16.4517566384
 20
13.9287116737
 10
-16.4374192646
 20
13.9692994194
 10
-16.4209365193
 20
14.0070283513
 10
-16.402471917
 20
14.0421615108
 10
-16.3820254578
 20
14.0746988979
  0
LWPOLYLINE
  5
394
100
AcDbEntity
  8
0
100
AcDbPolyline
 62
7
  6
CONTINUOUS
 90
34
 70
0
 10
-14.8591571797
 20
13.0073962968
 10
-14.8568913033
 20
13.057938156
 10
-14.8509122729
 20
13.1055809009
 10
-14.8412200886
 20
13.1503245316
 10
-14.8278093601
 20
13.191978886
 10
-14.8106854778
 20
13.230734126
 10
-14.7898646119
 20
13.2671607383
 10
-14.7649232778
 20
13.3017960918
 10
-14.7362849603
 20
13.3341028175
 10
-14.7052362836
 20
13.3630392946
 10
-14.6719827483
 20
13.3884588993
 10
-14.6363188538
 20
13.4105082554
 10
-14.5989147235
 20
13.4285856131
 10
-14.5597612306
 20
13.4424811535
 10
-14.5188675019
 20
13.4524046956
 10
-14.4769310402
 20
13.4583839473
 10
-14.4330969953
 20
13.4603209079
 10
-14.3882202175
 20
13.458313578
 10
-14.3455627609
 20
13.4526836678
 10
-14.3062634604
 20
13.4435016246
 10
-14.269183481
 20
13.430697001
 10
-14.234168373
 20
13.4143801652
 10
-14.2010346122
 20
13.3944964433
 10
-14.1699657226
 20
13.3711005092
 10
-14.1413578266
 20
13.3444667524
 10
-14.1150976244
 20
13.3146232769
 10
-14.0912984158
 20
13.2815419788
 10
-14.070696222
 20
13.2454129355
 10
-14.0534468499
 20
13.2062123722
 10
-14.0393944926
 20
13.1639640637
 10
-14.0288077504
 20
13.1189294129
 10
-14.0217761568
 20
13.0711955538
 10
-14.0182101782
 20
13.0206753523
 10
-14.0181098148
 20
12.9673688083
  0
LWPOLYLINE
  5
395
100
AcDbEntity
  8
0
100
AcDbPolyline
 62
7
  6
CONTINUOUS
 90
31
 70
0
 10
-13.2273275126
 20
13.8555811082
 10
-13.2184295549
 20
13.9015811645
 10
-13.2071110323
 20
13.9446747782
 10
-13.1933719448
 20
13.9848619492
 10
-13.1771091447
 20
14.0222795343
 10
-13.1584257798
 20
14.0567906767
 10
-13.1376312929
 20
14.0879848064
 10
-13.1150047528
 20
14.1155692037
 10
-13.0902670908
 20
14.1398365883
 10
-13.0628905435
 20
14.1612545493
 10
-13.0325324166
 20
14.1801851566
 10
-12.9995354043
 20
14.1962663404
 10
-12.9643998261
 20
14.2088794806
 10
-12.9263924239
 20
14.2178100616
 10
-12.8862464558
 20
14.2232725991
 10
-12.8466620153
 20
14.2252920199
 10
-12.808102053
 20
14.2238552681
 10
-12.7701036182
 20
14.2189753997
 10
-12.7339779531
 20
14.2107165094
 10
-12.7000159946
 20
14.1989614826
 10
-12.6679268057
 20
14.1838274338
 10
-12.6381488178
 20
14.165729802
 10
-12.6105499946
 20
14.1445019674
 10
-12.5852623723
 20
14.1203105497
 10
-12.563120491
 20
14.0940708469
 10
-12.544304215
 20
14.0660152365
 10
-12.5286336799
 20
14.0359113411
 10
-12.5164038326
 20
14.0039773265
 10
-12.5077129886
 20
13.9702859148
 10
-12.5024628324
 20
13.9347643839
 10
-12.500653364
 20
13.897412734
  0
LINE
  5
396
100
AcDbEntity
  8
0
100
AcDbLine
 62
7
  6
CONTINUOUS
 10
-12.5187802656
 20
11.3107505877
 11
-13.1524289104
 21
10.3304974605
  0
LINE
  5
397
100
AcDbEntity
  8
0
100
AcDbLine
 62
7
  6
CONTINUOUS
 10
-13.0217551962
 20
10.0982327942
 11
-12.1803430241
 21
11.3107505877
  0
LWPOLYLINE
  5
398
100
AcDbEntity
  8
0
100
AcDbPolyline
 62
7
  6
CONTINUOUS
 90
25
 70
0
 10
-6.3762126814
 20
19.5245098946
 10
-6.3391808999
 20
19.5693588258
 10
-6.3067753935
 20
19.6168127618
 10
-6.2789961622
 20
19.6668717026
 10
-6.2557535827
 20
19.7196866354
 10
-6.2371372783
 20
19.775106573
 10
-6.2234161185
 20
19.8326785535
 10
-6.2146304403
 20
19.8933638298
 10
-6.2107399067
 20
19.9562011491
 10
-6.2118923759
 20
20.0178537909
 10
-6.2184134129
 20
20.0779350503
 10
-6.2299774526
 20
20.1368316322
 10
-6.245755659
 20
20.1923669313
 10
-6.2659833415
 20
20.2441515296
 10
-6.2904251906
 20
20.2925748449
 10
-6.3175464415
 20
20.3366285259
 10
-6.3467438185
 20
20.3757395549
 10
-6.3786205973
 20
20.4104809495
 10
-6.4134518398
 20
20.4415634106
 10
-6.4510991951
 20
20.4690567968
 10
-6.4917010141
 20
20.4928912495
 10
-6.535947412
 20
20.5135678943
 10
-6.5840684273
 20
20.5312537728
 10
-6.6358340216
 20
20.5457818433
 10
-6.6912441948
 20
20.5571521058
  0
LINE
  5
399
100
AcDbEntity
  8
0
100
AcDbLine
 62
7
  6
CONTINUOUS
 10
-17.5918589051
 20
6.8757401574
 11
-17.7036369051
 21
6.7639621574
  0
LINE
  5
39A
100
AcDbEntity
  8
RACCORDO
100
AcDbLine
 62
250
  6
CONTINUOUS
 10
-27.7851169051
 20
-3.5928103035
 11
-27.6882001494
 21
-3.4958935478
  0
LINE
  5
39B
100
AcDbEntity
  8
RACCORDO
100
AcDbLine
 62
250
  6
CONTINUOUS
 10
-27.5851473661
 20
-3.7927798426
 11
-27.4882306103
 21
-3.6958630868
  0
LINE
  5
39C
100
AcDbEntity
  8
RACCORDO
100
AcDbLine
 62
7
  6
CONTINUOUS
 10
-23.2372168417
 20
-17.4380175341
 11
-7.9303545966
 21
-17.4380175341
  0
LINE
  5
39D
100
AcDbEntity
  8
RACCORDO
100
AcDbLine
 62
7
  6
CONTINUOUS
 10
-0.1398792136
 20
-17.4380175341
 11
15.1669830314
 21
-17.4380175341
  0
LINE
  5
39E
100
AcDbEntity
  8
RACCORDO
100
AcDbLine
 62
250
  6
CONTINUOUS
 10
15.917320037
 20
-17.244125226
 11
-0.3337715217
 21
-17.244125226
  0
LINE
  5
39F
100
AcDbEntity
  8
RACCORDO
100
AcDbLine
 62
250
  6
CONTINUOUS
 10
-7.7364622885
 20
-17.244125226
 11
-23.9875564296
 21
-17.244125226
  0
LINE
  5
3A0
100
AcDbEntity
  8
RACCORDO
100
AcDbLine
 62
250
  6
CONTINUOUS
 10
-23.9876806345
 20
-15.7450389854
 11
-7.2030648228
 21
-15.7450389854
  0
LINE
  5
3A1
100
AcDbEntity
  8
RACCORDO
100
AcDbLine
 62
250
  6
CONTINUOUS
 10
-0.8671689874
 20
-15.7450389854
 11
15.9174468242
 21
-15.7450389854
  0
LINE
  5
3A2
100
AcDbEntity
  8
RACCORDO
100
AcDbLine
 62
250
  6
CONTINUOUS
 10
-25.9864622885
 20
-15.2453435719
 11
-24.487376048
 21
-15.2453435719
  0
LINE
  5
3A3
100
AcDbEntity
  8
RACCORDO
100
AcDbLine
 62
250
  6
CONTINUOUS
 10
17.9162284783
 20
-15.2453435719
 11
16.4171422377
 21
-15.2453435719
  0
LWPOLYLINE
  5
3A4
100
AcDbEntity
  8
RACCORDO
100
AcDbPolyline
 62
250
  6
CONTINUOUS
 90
25
 70
0
 10
-23.9876806345
 20
-15.7450389854
 10
-24.0205103513
 20
-15.7439476783
 10
-24.052951072
 20
-15.7407613707
 10
-24.0850027966
 20
-15.7354800628
 10
-24.1168083962
 20
-15.7280634116
 10
-24.1482249997
 20
-15.7185517599
 10
-24.178823994
 20
-15.7070661369
 10
-24.2085857406
 20
-15.6935813557
 10
-24.237529878
 20
-15.6781226031
 10
-24.2652867087
 20
-15.660886469
 10
-24.2918411541
 20
-15.6418497783
 10
-24.3172082928
 20
-15.621035706
 10
-24.341063663
 20
-15.5987103673
 10
-24.3633876332
 20
-15.5748544358
 10
-24.3841998349
 20
-15.5494872379
 10
-24.4032347011
 20
-15.5229328682
 10
-24.4204692169
 20
-15.4951761404
 10
-24.4359263973
 20
-15.4662322407
 10
-24.44940972
 20
-15.4364708233
 10
-24.4608940314
 20
-15.4058717793
 10
-24.4704044852
 20
-15.3744552175
 10
-24.4778200199
 20
-15.3426511178
 10
-24.4831002817
 20
-15.310602807
 10
-24.4862856244
 20
-15.2781669584
 10
-24.487376048
 20
-15.2453435719
  0
LINE
  5
3A5
100
AcDbEntity
  8
RACCORDO
100
AcDbLine
 62
250
  6
CONTINUOUS
 10
-0.3674735739
 20
-24.2116415197
 11
-0.3319434458
 21
-24.2471716479
  0
LINE
  5
3A6
100
AcDbEntity
  8
RACCORDO
100
AcDbLine
 62
7
  6
CONTINUOUS
 10
-24.5051413905
 20
1.5983564134
 11
-24.6140051346
 21
1.7072201574
  0
LWPOLYLINE
  5
3A7
100
AcDbEntity
  8
0
100
AcDbPolyline
 62
7
  6
CONTINUOUS
 90
13
 70
0
 10
-18.6677672703
 20
13.0614519044
 10
-18.6790888258
 20
13.1116747972
 10
-18.6947380411
 20
13.1592762806
 10
-18.7144116055
 20
13.2040172046
 10
-18.7381277882
 20
13.2459125946
 10
-18.7658683199
 20
13.2849474253
 10
-18.797275083
 20
13.3208374698
 10
-18.8322196773
 20
13.3536441484
 10
-18.8708305029
 20
13.383306041
 10
-18.9131346418
 20
13.4093546597
 10
-18.9591411213
 20
13.4316338421
 10
-19.0088409142
 20
13.4502997508
 10
-19.0622340203
 20
13.4653523856
  0
LINE
  5
3A8
100
AcDbEntity
  8
0
100
AcDbLine
 62
7
  6
CONTINUOUS
 10
-15.4342759051
 20
1.6962821574
 11
-15.3294759051
 21
0.4984061574
  0
LINE
  5
3A9
100
AcDbEntity
  8
0
100
AcDbLine
 62
7
  6
CONTINUOUS
 10
-15.7025709051
 20
4.7628971574
 11
-15.4522609051
 21
1.9018531574
  0
LINE
  5
3AA
100
AcDbEntity
  8
0
100
AcDbLine
 62
7
  6
CONTINUOUS
 10
-15.7962389051
 20
5.8335181574
 11
-15.7240039051
 21
5.0078861574
  0
LINE
  5
3AB
100
AcDbEntity
  8
0
100
AcDbLine
 62
7
  6
CONTINUOUS
 10
-15.8478568285
 20
6.4235152821
 11
-15.8238979051
 21
6.1496731574
  0
LINE
  5
3AC
100
AcDbEntity
  8
0
100
AcDbLine
 62
7
  6
CONTINUOUS
 10
-15.6370569051
 20
4.9209371574
 11
-15.7168969051
 21
5.8335181574
  0
LINE
  5
3AD
100
AcDbEntity
  8
0
100
AcDbLine
 62
7
  6
CONTINUOUS
 10
-15.3793049051
 20
1.9748111574
 11
-15.6156239051
 21
4.6759481574
  0
LINE
  5
3AE
100
AcDbEntity
  8
0
100
AcDbLine
 62
7
  6
CONTINUOUS
 10
-15.2570509051
 20
0.5774441574
 11
-15.3613199051
 21
1.7692401574
  0
LINE
  5
3AF
100
AcDbEntity
  8
0
100
AcDbLine
 62
7
  6
CONTINUOUS
 10
-15.7445569051
 20
6.1496731574
 11
-15.7640399326
 21
6.3723614715
  0
LINE
  5
3B0
100
AcDbEntity
  8
0
100
AcDbLine
 62
7
  6
CONTINUOUS
 10
-15.2109179051
 20
-0.0153468426
 11
-15.2109179051
 21
0.4588851574
  0
LINE
  5
3B1
100
AcDbEntity
  8
0
100
AcDbLine
 62
7
  6
CONTINUOUS
 10
-15.1346480734
 20
17.4967971864
 11
-15.1346480734
 21
15.3932667561
  0
LINE
  5
3B2
100
AcDbEntity
  8
0
100
AcDbLine
 62
7
  6
CONTINUOUS
 10
-15.070904727
 20
18.4735413861
 11
-15.070904727
 21
20.5770718164
  0
LINE
  5
3B3
100
AcDbEntity
  8
0
100
AcDbLine
 62
7
  6
CONTINUOUS
 10
-14.9738029051
 20
0.4588851574
 11
-14.9738029051
 21
-0.0153468426
  0
LINE
  5
3B4
100
AcDbEntity
  8
0
100
AcDbLine
 62
7
  6
CONTINUOUS
 10
-14.8552439051
 20
-0.1339048426
 11
-14.8552439051
 21
0.4984061574
  0
LINE
  5
3B5
100
AcDbEntity
  8
0
100
AcDbLine
 62
7
  6
CONTINUOUS
 10
-14.8541773493
 20
15.6354914723
 11
-14.8541773493
 21
17.4967971864
  0
LINE
  5
3B6
100
AcDbEntity
  8
0
100
AcDbLine
 62
7
  6
CONTINUOUS
 10
-14.5488689051
 20
4.6479381574
 11
-14.5488689051
 21
4.2527441574
  0
LINE
  5
3B7
100
AcDbEntity
  8
0
100
AcDbLine
 62
7
  6
CONTINUOUS
 10
-14.4698299051
 20
4.3317831574
 11
-14.4698299051
 21
4.5689001574
  0
LINE
  5
3B8
100
AcDbEntity
  8
0
100
AcDbLine
 62
7
  6
CONTINUOUS
 10
-14.3907909051
 20
6.9400611574
 11
-14.3907909051
 21
6.7401581574
  0
LINE
  5
3B9
100
AcDbEntity
  8
0
100
AcDbLine
 62
7
  6
CONTINUOUS
 10
-14.3907909051
 20
6.6610751574
 11
-14.3907909051
 21
6.4658291574
  0
LINE
  5
3BA
100
AcDbEntity
  8
0
100
AcDbLine
 62
7
  6
CONTINUOUS
 10
-14.3117529051
 20
6.5448671574
 11
-14.3117529051
 21
6.6629925943
  0
LINE
  5
3BB
100
AcDbEntity
  8
0
100
AcDbLine
 62
7
  6
CONTINUOUS
 10
-14.3117529051
 20
6.7420405234
 11
-14.3117529051
 21
6.8610221574
  0
LINE
  5
3BC
100
AcDbEntity
  8
0
100
AcDbLine
 62
7
  6
CONTINUOUS
 10
-14.2089750467
 20
9.2072201574
 11
-14.2089750467
 21
9.4494448736
  0
LINE
  5
3BD
100
AcDbEntity
  8
0
100
AcDbLine
 62
7
  6
CONTINUOUS
 10
-13.8087864688
 20
15.3932667561
 11
-13.8087864688
 21
15.6354914723
  0
LINE
  5
3BE
100
AcDbEntity
  8
0
100
AcDbLine
 62
7
  6
CONTINUOUS
 10
-13.4773210677
 20
17.4967971864
 11
-13.4773210677
 21
15.3932667561
  0
LINE
  5
3BF
100
AcDbEntity
  8
0
100
AcDbLine
 62
7
  6
CONTINUOUS
 10
-13.4028079051
 20
6.8610221574
 11
-13.4028079051
 21
6.6545431574
  0
LINE
  5
3C0
100
AcDbEntity
  8
0
100
AcDbLine
 62
7
  6
CONTINUOUS
 10
-13.4028079051
 20
6.5737581574
 11
-13.4028079051
 21
6.5448671574
  0
LINE
  5
3C1
100
AcDbEntity
  8
0
100
AcDbLine
 62
7
  6
CONTINUOUS
 10
-13.3237679051
 20
6.4658291574
 11
-13.3237679051
 21
6.5560647879
  0
LINE
  5
3C2
100
AcDbEntity
  8
0
100
AcDbLine
 62
7
  6
CONTINUOUS
 10
-13.3237679051
 20
6.6372027996
 11
-13.3237679051
 21
6.9400611574
  0
LINE
  5
3C3
100
AcDbEntity
  8
0
100
AcDbLine
 62
7
  6
CONTINUOUS
 10
-13.3022259203
 20
10.0982327942
 11
-13.3022259203
 21
9.2072201574
  0
LINE
  5
3C4
100
AcDbEntity
  8
0
100
AcDbLine
 62
7
  6
CONTINUOUS
 10
-13.2447299051
 20
4.5689001574
 11
-13.2447299051
 21
4.3317831574
  0
LINE
  5
3C5
100
AcDbEntity
  8
0
100
AcDbLine
 62
7
  6
CONTINUOUS
 10
-13.1968503437
 20
15.6354914723
 11
-13.1968503437
 21
16.3621656209
  0
LINE
  5
3C6
100
AcDbEntity
  8
0
100
AcDbLine
 62
7
  6
CONTINUOUS
 10
-13.1968503437
 20
16.6043903372
 11
-13.1968503437
 21
17.2545724701
  0
LINE
  5
3C7
100
AcDbEntity
  8
0
100
AcDbLine
 62
7
  6
CONTINUOUS
 10
-13.1656909051
 20
4.2527441574
 11
-13.1656909051
 21
4.6479381574
  0
LINE
  5
3C8
100
AcDbEntity
  8
0
100
AcDbLine
 62
7
  6
CONTINUOUS
 10
-13.0217551962
 20
9.2072201574
 11
-13.0217551962
 21
10.0982327942
  0
LWPOLYLINE
  5
3C9
100
AcDbEntity
  8
0
100
AcDbPolyline
 62
7
  6
CONTINUOUS
 90
16
 70
0
 10
-14.8974031876
 20
13.4107720906
 10
-14.8963789987
 20
13.47955693
 10
-14.8931351173
 20
13.5460536596
 10
-14.8876715435
 20
13.6102622792
 10
-14.8801456118
 20
13.6723735116
 10
-14.8703999876
 20
13.7321966342
 10
-14.8579626673
 20
13.7891594789
 10
-14.8425979355
 20
13.8432292555
 10
-14.8245415076
 20
13.8944387543
 10
-14.804028526
 20
13.9423141785
 10
-14.7808626574
 20
13.986780315
 10
-14.7552402352
 20
14.0279123769
 10
-14.7279854017
 20
14.0654622061
 10
-14.6993728711
 20
14.0993470832
 10
-14.6691279292
 20
14.1296497277
 10
-14.6372505761
 20
14.1563701394
  0
LWPOLYLINE
  5
3CA
100
AcDbEntity
  8
0
100
AcDbPolyline
 62
7
  6
CONTINUOUS
 90
19
 70
0
 10
-12.500653364
 20
13.897412734
 10
-12.5020843537
 20
13.8624951005
 10
-12.5060407114
 20
13.8295023723
 10
-12.512522437
 20
13.7984345492
 10
-12.5214489147
 20
13.7693633677
 10
-12.5329007603
 20
13.7422170914
 10
-12.5471198212
 20
13.7167805113
 10
-12.5641628514
 20
13.6930453353
 10
-12.5839730969
 20
13.6710198555
 10
-12.6066221434
 20
13.65051374
 10
-12.6323065276
 20
13.6314025581
 10
-12.6608297127
 20
13.6138107405
 10
-12.6916736742
 20
13.5979212466
 10
-12.7246912198
 20
13.5835014988
 10
-12.7600295417
 20
13.5707840747
 10
-12.7976121922
 20
13.5606496661
 10
-12.8374136887
 20
13.553391837
 10
-12.8794595138
 20
13.5487170234
 10
-12.9237496675
 20
13.5466252252
  0
LWPOLYLINE
  5
3CB
100
AcDbEntity
  8
0
100
AcDbPolyline
 62
7
  6
CONTINUOUS
 90
34
 70
0
 10
-14.0181098148
 20
12.9673688083
 10
-14.0216629788
 20
12.9140569701
 10
-14.0286859565
 20
12.8638030136
 10
-14.0391787481
 20
12.8166069387
 10
-14.0533015914
 20
12.7724200707
 10
-14.0708942485
 20
12.7312910844
 10
-14.0914760051
 20
12.6933660041
 10
-14.1152977072
 20
12.6585741365
 10
-14.1421085089
 20
12.6269861749
 10
-14.1706751583
 20
12.5989602229
 10
-14.2006833445
 20
12.574589547
 10
-14.2324473783
 20
12.5537808808
 10
-14.2656769415
 20
12.5366125284
 10
-14.3002658883
 20
12.5231048576
 10
-14.3363203644
 20
12.5132375006
 10
-14.3738684887
 20
12.5070276595
 10
-14.4137055011
 20
12.5044218951
 10
-14.4550361616
 20
12.5054736466
 10
-14.49550287
 20
12.5103604331
 10
-14.5346526625
 20
12.5192559117
 10
-14.5729385028
 20
12.5319864255
 10
-14.6093616815
 20
12.5482085225
 10
-14.6437267293
 20
12.5678367717
 10
-14.6762291155
 20
12.5909566042
 10
-14.7064565384
 20
12.6174808616
 10
-14.7343287149
 20
12.6473345699
 10
-14.759925928
 20
12.6805927031
 10
-14.7830767256
 20
12.7173930244
 10
-14.8041353161
 20
12.7579836824
 10
-14.8227474909
 20
12.8021165286
 10
-14.8376791724
 20
12.8491848813
 10
-14.8485190014
 20
12.8989865133
 10
-14.8556783372
 20
12.9517236518
 10
-14.8591571797
 20
13.0073962968
  0
LINE
  5
3CC
100
AcDbEntity
  8
0
100
AcDbLine
 62
7
  6
CONTINUOUS
 10
-12.3862309051
 20
5.8335181574
 11
-12.4138919051
 21
5.5173641574
  0
LINE
  5
3CD
100
AcDbEntity
  8
0
100
AcDbLine
 62
7
  6
CONTINUOUS
 10
-12.4208069051
 20
5.4383241574
 11
-12.4692269051
 21
4.8848891574
  0
LINE
  5
3CE
100
AcDbEntity
  8
0
100
AcDbLine
 62
7
  6
CONTINUOUS
 10
-12.4906599051
 20
4.6399001574
 11
-12.7211789051
 21
2.0050591574
  0
LINE
  5
3CF
100
AcDbEntity
  8
0
100
AcDbLine
 62
7
  6
CONTINUOUS
 10
-12.7391639051
 20
1.7994881574
 11
-12.7892599051
 21
1.2268821574
  0
LINE
  5
3D0
100
AcDbEntity
  8
0
100
AcDbLine
 62
7
  6
CONTINUOUS
 10
-12.3345509051
 20
5.5173641574
 11
-12.3068909051
 21
5.8335181574
  0
LINE
  5
3D1
100
AcDbEntity
  8
0
100
AcDbLine
 62
7
  6
CONTINUOUS
 10
-12.7109168579
 20
1.2154796974
 11
-12.6662059051
 21
1.7265321574
  0
LINE
  5
3D2
100
AcDbEntity
  8
0
100
AcDbLine
 62
7
  6
CONTINUOUS
 10
-12.6482209051
 20
1.9321011574
 11
-12.4106159051
 21
4.6479381574
  0
LINE
  5
3D3
100
AcDbEntity
  8
0
100
AcDbLine
 62
7
  6
CONTINUOUS
 10
-12.3822779051
 20
4.9718361574
 11
-12.3414659051
 21
5.4383241574
  0
LINE
  5
3D4
100
AcDbEntity
  8
0
100
AcDbLine
 62
7
  6
CONTINUOUS
 10
-12.9657804942
 20
13.5496130456
 11
-12.9952618527
 21
13.3201369987
  0
LWPOLYLINE
  5
3D5
100
AcDbEntity
  8
0
100
AcDbPolyline
 62
7
  6
CONTINUOUS
 90
3
 70
0
 10
-9.9203323909
 20
12.7435747272
 10
-9.9328539642
 20
12.7064344885
 10
-9.9572937465
 20
12.6325056619
  0
LINE
  5
3D6
100
AcDbEntity
  8
0
100
AcDbLine
 62
7
  6
CONTINUOUS
 10
-9.8946281379
 20
12.8182014197
 11
-9.9203323909
 21
12.7435747272
  0
LINE
  5
3D7
100
AcDbEntity
  8
0
100
AcDbLine
 62
7
  6
CONTINUOUS
 10
-9.8578940052
 20
12.3257407953
 11
-9.2369940297
 21
14.0850571552
  0
LINE
  5
3D8
100
AcDbEntity
  8
0
100
AcDbLine
 62
7
  6
CONTINUOUS
 10
-9.841758919
 20
12.9689510879
 11
-9.8946281379
 21
12.8182014197
  0
LINE
  5
3D9
100
AcDbEntity
  8
0
100
AcDbLine
 62
7
  6
CONTINUOUS
 10
-9.3214538907
 20
14.4292712256
 11
-9.841758919
 21
12.9689510879
  0
LWPOLYLINE
  5
3DA
100
AcDbEntity
  8
0
100
AcDbPolyline
 62
7
  6
CONTINUOUS
 90
9
 70
0
 10
-9.8641454241
 20
15.933800559
 10
-9.8783159936
 20
15.8952063966
 10
-9.8920394663
 20
15.8567520142
 10
-9.905313201
 20
15.8184316288
 10
-9.9181398391
 20
15.7802510234
 10
-9.9305273041
 20
15.7422275464
 10
-9.9424782375
 20
15.7043669808
 10
-9.9539899979
 20
15.6666635436
 10
-9.9650625854
 20
15.6291172349
  0
LINE
  5
3DB
100
AcDbEntity
  8
0
100
AcDbLine
 62
7
  6
CONTINUOUS
 10
-9.2702602072
 20
17.4967971864
 11
-9.8641454241
 21
15.933800559
  0
LINE
  5
3DC
100
AcDbEntity
  8
0
100
AcDbLine
 62
7
  6
CONTINUOUS
 10
-9.8092897401
 20
15.3932667561
 11
-8.97026798
 21
17.4967971864
  0
LWPOLYLINE
  5
3DD
100
AcDbEntity
  8
0
100
AcDbPolyline
 62
7
  6
CONTINUOUS
 90
38
 70
0
 10
-4.0387240845
 20
14.0226086153
 10
-3.9855063142
 20
14.0686196787
 10
-3.9302418559
 20
14.1086761104
 10
-3.8729307096
 20
14.1427779106
 10
-3.8136261882
 20
14.1708617211
 10
-3.7522749789
 20
14.1929909001
 10
-3.6887171431
 20
14.2093555214
 10
-3.6217456269
 20
14.220023555
 10
-3.5525674843
 20
14.2249270311
 10
-3.484643938
 20
14.224052114
 10
-3.4185892107
 20
14.2172526248
 10
-3.3537890797
 20
14.2046747425
 10
-3.2918620998
 20
14.1867431691
 10
-3.2330578008
 20
14.1632726186
 10
-3.1771266529
 20
14.1344483771
 10
-3.1249386219
 20
14.1012510044
 10
-3.0767723262
 20
14.0640963718
 10
-3.0323491473
 20
14.022568608
 10
-2.9917031951
 20
13.9764006598
 10
-2.9547557344
 20
13.9257104347
 10
-2.9215855004
 20
13.870380025
 10
-2.8924628087
 20
13.8097886546
 10
-2.8671575291
 20
13.7432799204
 10
-2.8458997916
 20
13.6715102255
 10
-2.8296503026
 20
13.5958280022
 10
-2.8187709693
 20
13.5149940553
 10
-2.8128998844
 20
13.4302475801
 10
-2.8119120321
 20
13.3466545956
 10
-2.8158463819
 20
13.264790884
 10
-2.8246639644
 20
13.1840806631
 10
-2.8381228553
 20
13.107862605
 10
-2.8561467944
 20
13.0373232216
 10
-2.878812042
 20
12.9712760009
 10
-2.906105455
 20
12.9095000792
 10
-2.9382461751
 20
12.8518843551
 10
-2.9750150607
 20
12.79853993
 10
-3.0157415444
 20
12.7495792443
 10
-3.0605997561
 20
12.7047650664
  0
LWPOLYLINE
  5
3DE
100
AcDbEntity
  8
0
100
AcDbPolyline
 62
7
  6
CONTINUOUS
 90
10
 70
0
 10
3.1415654337
 20
16.8640449461
 10
3.1727718899
 20
16.8825027466
 10
3.2031001513
 20
16.9012806324
 10
3.2325502179
 20
16.9203786036
 10
3.2611828359
 20
16.9397766864
 10
3.2889372591
 20
16.9594948545
 10
3.3156312491
 20
16.9795930292
 10
3.34120406
 20
17.0000911843
 10
3.3657164377
 20
17.0209693461
 10
3.3891683823
 20
17.0422275144
  0
LWPOLYLINE
  5
3DF
100
AcDbEntity
  8
0
100
AcDbPolyline
 62
7
  6
CONTINUOUS
 90
10
 70
0
 10
2.866472942
 20
16.7302836165
 10
2.8963790593
 20
16.7417983053
 10
2.9264519272
 20
16.7541793038
 10
2.9566915459
 20
16.767426612
 10
2.9871003444
 20
16.7815794159
 10
3.0176758937
 20
16.7965985295
 10
3.048410906
 20
16.8123663951
 10
3.0793029522
 20
16.8288438268
 10
3.1103544614
 20
16.8460700104
 10
3.1415654337
 20
16.8640449461
  0
LINE
  5
3E0
100
AcDbEntity
  8
RACCORDO
100
AcDbLine
 62
7
  6
CONTINUOUS
 10
-21.3279784248
 20
-13.5780452387
 11
13.2577446145
 21
-13.5780452387
  0
LINE
  5
3E1
100
AcDbEntity
  8
RACCORDO
100
AcDbLine
 62
7
  6
CONTINUOUS
 10
-21.2927130286
 20
-13.5427798426
 11
13.2224792184
 21
-13.5427798426
  0
LINE
  5
3E2
100
AcDbEntity
  8
DRAFT
100
AcDbLine
 62
7
  6
CONTINUOUS
 10
-22.659402135
 20
1.5815053873
 11
-22.6070209807
 21
1.529124233
  0
LINE
  5
3E3
100
AcDbEntity
  8
RACCORDO
100
AcDbLine
 62
7
  6
CONTINUOUS
 10
-27.6959437575
 20
9.1180470098
 11
-27.7851169051
 21
9.2072201574
  0
LINE
  5
3E4
100
AcDbEntity
  8
0
100
AcDbLine
 62
7
  6
CONTINUOUS
 10
-17.7036369051
 20
-0.3495218426
 11
-17.5918589051
 21
-0.4612998426
  0
LWPOLYLINE
  5
3E5
100
AcDbEntity
  8
0
100
AcDbPolyline
 62
7
  6
CONTINUOUS
 90
10
 70
0
 10
-16.7523344697
 20
11.09402321
 10
-16.7379065945
 20
11.0460424111
 10
-16.7229058078
 20
10.9977857683
 10
-16.7073321095
 20
10.9492532814
 10
-16.6911308449
 20
10.9004472999
 10
-16.6743566686
 20
10.8513654744
 10
-16.6571735454
 20
10.8020007572
 10
-16.63963613
 20
10.752350799
 10
-16.6216897677
 20
10.702417949
 10
-16.6033344584
 20
10.6522022074
  0
LWPOLYLINE
  5
3E6
100
AcDbEntity
  8
0
100
AcDbPolyline
 62
7
  6
CONTINUOUS
 90
10
 70
0
 10
-19.0803611165
 20
15.6291172349
 10
-19.0909429256
 20
15.6665126117
 10
-19.1019524343
 20
15.704100213
 10
-19.1133896426
 20
15.7418800387
 10
-19.1252648418
 20
15.7798543558
 10
-19.1375677405
 20
15.8180208973
 10
-19.1502674649
 20
15.8563728627
 10
-19.1633537237
 20
15.8949079851
 10
-19.176836808
 20
15.9336285313
 10
-19.7369176814
 20
17.4967971864
  0
LWPOLYLINE
  5
3E7
100
AcDbEntity
  8
0
100
AcDbPolyline
 62
7
  6
CONTINUOUS
 90
10
 70
0
 10
-19.0803611165
 20
18.709391865
 10
-19.0909429256
 20
18.7467872418
 10
-19.1019524343
 20
18.7843748431
 10
-19.1133896426
 20
18.8221546688
 10
-19.1252648418
 20
18.8601289859
 10
-19.1375677405
 20
18.8982955274
 10
-19.1502674649
 20
18.9366474928
 10
-19.1633537237
 20
18.9751826151
 10
-19.176836808
 20
19.0139031613
 10
-19.7369176814
 20
20.5770718164
  0
LWPOLYLINE
  5
3E8
100
AcDbEntity
  8
0
100
AcDbPolyline
 62
7
  6
CONTINUOUS
 90
8
 70
0
 10
-18.3838160208
 20
12.9244603773
 10
-18.3687064854
 20
12.8554968322
 10
-18.3504207443
 20
12.7899907648
 10
-18.3290398569
 20
12.7281633387
 10
-18.3045267194
 20
12.6707505115
 10
-18.2768689638
 20
12.6179976024
 10
-18.246078958
 20
12.5696592923
 10
-18.2121567021
 20
12.525735581
  0
LWPOLYLINE
  5
3E9
100
AcDbEntity
  8
0
100
AcDbPolyline
 62
7
  6
CONTINUOUS
 90
42
 70
0
 10
-17.0646769642
 20
13.9193244546
 10
-17.0757621288
 20
13.9839569559
 10
-17.0912126421
 20
14.044329924
 10
-17.1110285042
 20
14.1004433589
 10
-17.1354910991
 20
14.152279208
 10
-17.1643190428
 20
14.1998555239
 10
-17.1966681831
 20
14.2432264648
 10
-17.2322872333
 20
14.2823952729
 10
-17.2714274802
 20
14.317358706
 10
-17.3139986315
 20
14.3481611949
 10
-17.3598447129
 20
14.3749595359
 10
-17.4091216987
 20
14.3975969327
 10
-17.4622072194
 20
14.4156474272
 10
-17.51995711
 20
14.4291464251
 10
-17.5815155354
 20
14.4380585206
 10
-17.6446926218
 20
14.441851539
 10
-17.7103165441
 20
14.4403798059
 10
-17.7775591273
 20
14.4337889956
 10
-17.8417459724
 20
14.4219839564
 10
-17.9013127049
 20
14.4048861726
 10
-17.9578236992
 20
14.3825741598
 10
-18.0112976798
 20
14.3551883135
 10
-18.0616559022
 20
14.3230276437
 10
-18.1089771109
 20
14.2857931405
 10
-18.153516263
 20
14.2427281692
 10
-18.1956890394
 20
14.1935510027
 10
-18.2350797592
 20
14.1385433681
 10
-18.2706963367
 20
14.0777938118
 10
-18.3022777661
 20
14.0109913613
 10
-18.3300850533
 20
13.9384469892
 10
-18.3539091298
 20
13.8611821596
 10
-18.3735606184
 20
13.7786798021
 10
-18.3892288964
 20
13.6914569871
 10
-18.4012730282
 20
13.6020863903
 10
-18.4095578482
 20
13.509668304
 10
-18.414218522
 20
13.4151024359
 10
-18.4160196114
 20
13.3236605841
 10
-18.4152010635
 20
13.2369392952
 10
-18.4115229313
 20
13.1533420225
 10
-18.4050299353
 20
13.0733509241
 10
-18.3958304099
 20
12.9971025636
 10
-18.3838160208
 20
12.9244603773
  0
LINE
  5
3EA
100
AcDbEntity
  8
0
100
AcDbLine
 62
7
  6
CONTINUOUS
 10
-12.6614062341
 20
20.5770718164
 11
-12.6614062341
 21
18.4735413861
  0
LINE
  5
3EB
100
AcDbEntity
  8
0
100
AcDbLine
 62
7
  6
CONTINUOUS
 10
-12.6519399051
 20
5.5173641574
 11
-12.6519399051
 21
4.7021751574
  0
LINE
  5
3EC
100
AcDbEntity
  8
0
100
AcDbLine
 62
7
  6
CONTINUOUS
 10
-12.5729009051
 20
4.7812131574
 11
-12.5729009051
 21
5.4383241574
  0
LINE
  5
3ED
100
AcDbEntity
  8
0
100
AcDbLine
 62
7
  6
CONTINUOUS
 10
-12.3809355101
 20
18.4735413861
 11
-12.3809355101
 21
19.4041942432
  0
LINE
  5
3EE
100
AcDbEntity
  8
0
100
AcDbLine
 62
7
  6
CONTINUOUS
 10
-12.3809355101
 20
19.6464189594
 11
-12.3809355101
 21
20.3348471002
  0
LINE
  5
3EF
100
AcDbEntity
  8
0
100
AcDbLine
 62
7
  6
CONTINUOUS
 10
-12.0591499051
 20
5.8335181574
 11
-12.0591499051
 21
5.9329761574
  0
LINE
  5
3F0
100
AcDbEntity
  8
0
100
AcDbLine
 62
7
  6
CONTINUOUS
 10
-12.049470109
 20
16.3621656209
 11
-12.049470109
 21
16.6043903372
  0
LINE
  5
3F1
100
AcDbEntity
  8
0
100
AcDbLine
 62
7
  6
CONTINUOUS
 10
-11.9729780933
 20
17.2545724701
 11
-11.9729780933
 21
17.4967971864
  0
LINE
  5
3F2
100
AcDbEntity
  8
0
100
AcDbLine
 62
7
  6
CONTINUOUS
 10
-11.9219834162
 20
15.3932667561
 11
-11.9219834162
 21
15.6354914723
  0
LINE
  5
3F3
100
AcDbEntity
  8
0
100
AcDbLine
 62
7
  6
CONTINUOUS
 10
-11.7825139051
 20
5.3480461574
 11
-11.7825139051
 21
4.7269771574
  0
LINE
  5
3F4
100
AcDbEntity
  8
0
100
AcDbLine
 62
7
  6
CONTINUOUS
 10
-11.7034749051
 20
4.6479381574
 11
-11.7034749051
 21
5.4270841574
  0
LINE
  5
3F5
100
AcDbEntity
  8
0
100
AcDbLine
 62
250
  6
CONTINUOUS
 10
-11.034812133
 20
25.9397597727
 11
-11.034812133
 21
25.8527298706
  0
LINE
  5
3F6
100
AcDbEntity
  8
0
100
AcDbLine
 62
7
  6
CONTINUOUS
 10
-10.9835617203
 20
14.4292712256
 11
-10.9835617203
 21
12.3257407953
  0
LINE
  5
3F7
100
AcDbEntity
  8
0
100
AcDbLine
 62
7
  6
CONTINUOUS
 10
-10.7030909963
 20
12.3257407953
 11
-10.7030909963
 21
14.1105544937
  0
LINE
  5
3F8
100
AcDbEntity
  8
0
100
AcDbLine
 62
7
  6
CONTINUOUS
 10
-10.5515639051
 20
-2.3015938426
 11
-10.5515639051
 21
-1.3015938426
  0
LWPOLYLINE
  5
3F9
100
AcDbEntity
  8
0
100
AcDbPolyline
 62
7
  6
CONTINUOUS
 90
40
 70
0
 10
-6.4655529668
 20
16.1314945626
 10
-6.4837154076
 20
16.0631374198
 10
-6.505306584
 20
15.9994787887
 10
-6.5303264962
 20
15.9405186693
 10
-6.5589305779
 20
15.8862102611
 10
-6.5909633953
 20
15.8366003646
 10
-6.6259586472
 20
15.7918293815
 10
-6.6636208787
 20
15.7521114447
 10
-6.7042455446
 20
15.7172324212
 10
-6.7482527085
 20
15.6866903138
 10
-6.7958147486
 20
15.6601795416
 10
-6.8467592867
 20
15.6380056854
 10
-6.9009892516
 20
15.6205834902
 10
-6.9592320272
 20
15.6077929492
 10
-7.0207602298
 20
15.5997540692
 10
-7.083294637
 20
15.5972416156
 10
-7.1473220096
 20
15.6006878311
 10
-7.2123555869
 20
15.609660473
 10
-7.2746558648
 20
15.6236375784
 10
-7.3334595389
 20
15.6428343583
 10
-7.3895299137
 20
15.6670356017
 10
-7.4414173977
 20
15.6950737121
 10
-7.4885804293
 20
15.726577549
 10
-7.5315605702
 20
15.7619182529
 10
-7.5705329146
 20
15.8010416485
 10
-7.6053297559
 20
15.8438684993
 10
-7.6361188008
 20
15.8904780417
 10
-7.6635782633
 20
15.9410538103
 10
-7.6879103826
 20
15.9957607184
 10
-7.7089129196
 20
16.0544338525
 10
-7.7266573711
 20
16.1167620071
 10
-7.7412616299
 20
16.1830236756
 10
-7.7526078031
 20
16.2529403644
 10
-7.7604137096
 20
16.3253653877
 10
-7.7647591322
 20
16.4012247012
 10
-7.7655642879
 20
16.4795923492
 10
-7.7623076473
 20
16.5565437786
 10
-7.7546044944
 20
16.6316214932
 10
-7.7428395452
 20
16.7052829893
 10
-7.7276454176
 20
16.7749762032
  0
LWPOLYLINE
  5
3FA
100
AcDbEntity
  8
0
100
AcDbPolyline
 62
7
  6
CONTINUOUS
 90
16
 70
0
 10
-7.7276454176
 20
16.7749762032
 10
-7.7094069642
 20
16.8399770907
 10
-7.6877393326
 20
16.901009696
 10
-7.6621205832
 20
16.9576940882
 10
-7.6322153263
 20
17.0098972695
 10
-7.5983589517
 20
17.0577522378
 10
-7.5610356895
 20
17.1012780556
 10
-7.5203715564
 20
17.1404984584
 10
-7.4762405357
 20
17.1753897108
 10
-7.4287488076
 20
17.2058996696
 10
-7.3779439611
 20
17.2321601943
 10
-7.3237784072
 20
17.2540394253
 10
-7.2662155598
 20
17.2710896413
 10
-7.2052432234
 20
17.2831616019
 10
-7.1408735935
 20
17.2904045474
 10
-7.07310667
 20
17.292818478
  0
LINE
  5
3FB
100
AcDbEntity
  8
0
100
AcDbLine
 62
7
  6
CONTINUOUS
 10
-8.4465765347
 20
12.3257407953
 11
-8.2248691321
 21
12.963174259
  0
LINE
  5
3FC
100
AcDbEntity
  8
0
100
AcDbLine
 62
7
  6
CONTINUOUS
 10
-5.777124826
 20
18.4735413861
 11
-5.5554174234
 21
19.1109748499
  0
LINE
  5
3FD
100
AcDbEntity
  8
0
100
AcDbLine
 62
7
  6
CONTINUOUS
 10
-8.1449906995
 20
13.192650306
 11
-7.9177058636
 21
13.8067776421
  0
LINE
  5
3FE
100
AcDbEntity
  8
0
100
AcDbLine
 62
7
  6
CONTINUOUS
 10
-5.4755389908
 20
19.3404508968
 11
-5.2482541548
 21
19.9545782329
  0
LINE
  5
3FF
100
AcDbEntity
  8
0
100
AcDbLine
 62
7
  6
CONTINUOUS
 10
-7.9430040011
 20
14.4292712256
 11
-8.7425845475
 21
12.3257407953
  0
LINE
  5
400
100
AcDbEntity
  8
0
100
AcDbLine
 62
7
  6
CONTINUOUS
 10
-5.2735522924
 20
20.5770718164
 11
-6.0731328387
 21
18.4735413861
  0
LWPOLYLINE
  5
401
100
AcDbEntity
  8
0
100
AcDbPolyline
 62
7
  6
CONTINUOUS
 90
10
 70
0
 10
-7.9177058636
 20
13.8067776421
 10
-7.9001674641
 20
13.8500632445
 10
-7.8834503297
 20
13.8938402155
 10
-7.8675544606
 20
13.9381085551
 10
-7.8524578508
 20
13.9829235773
 10
-7.8381825062
 20
14.0282299681
 10
-7.8247944441
 20
14.0738617848
 10
-7.8123156702
 20
14.1197637133
 10
-7.8007241788
 20
14.1659910676
 10
-7.7900199698
 20
14.2125438479
  0
LWPOLYLINE
  5
402
100
AcDbEntity
  8
0
100
AcDbPolyline
 62
7
  6
CONTINUOUS
 90
10
 70
0
 10
-5.2482541548
 20
19.9545782329
 10
-5.2307157553
 20
19.9978638354
 10
-5.213998621
 20
20.0416408064
 10
-5.1981027519
 20
20.0859091459
 10
-5.1830061421
 20
20.1307241682
 10
-5.1687307975
 20
20.1760305589
 10
-5.1553427353
 20
20.2216623757
 10
-5.1428639615
 20
20.2675643041
 10
-5.13127247
 20
20.3137916585
 10
-5.1205682611
 20
20.3603444388
  0
LINE
  5
403
100
AcDbEntity
  8
0
100
AcDbLine
 62
7
  6
CONTINUOUS
 10
-0.8782494077
 20
17.0025870996
 11
-1.9525240437
 21
15.6456507231
  0
LINE
  5
404
100
AcDbEntity
  8
0
100
AcDbLine
 62
7
  6
CONTINUOUS
 10
-1.6348031223
 20
15.6354914723
 11
-0.3334430458
 21
17.2545724701
  0
LWPOLYLINE
  5
405
100
AcDbEntity
  8
0
100
AcDbPolyline
 62
7
  6
CONTINUOUS
 90
10
 70
0
 10
-0.6593308191
 20
17.2545724701
 10
-0.6839141593
 20
17.2284641542
 10
-0.7084288023
 20
17.2018732901
 10
-0.7328747483
 20
17.1747998778
 10
-0.7572467517
 20
17.1472305394
 10
-0.7815500581
 20
17.1191786529
 10
-0.8058004033
 20
17.0906843523
 10
-0.8300030326
 20
17.0617610155
 10
-0.8541527007
 20
17.0323952646
 10
-0.8782494077
 20
17.0025870996
  0
LINE
  5
406
100
AcDbEntity
  8
0
100
AcDbLine
 62
7
  6
CONTINUOUS
 10
-12.4692269051
 20
4.8848891574
 11
-12.5729009051
 21
4.7812131574
  0
LINE
  5
407
100
AcDbEntity
  8
0
100
AcDbLine
 62
7
  6
CONTINUOUS
 10
-12.6519399051
 20
4.7021751574
 11
-14.0351169051
 21
3.3189971574
  0
LINE
  5
408
100
AcDbEntity
  8
0
100
AcDbLine
 62
7
  6
CONTINUOUS
 10
-10.4783749051
 20
6.8757401574
 11
-11.8367499051
 21
5.5173641574
  0
LINE
  5
409
100
AcDbEntity
  8
0
100
AcDbLine
 62
7
  6
CONTINUOUS
 10
-11.9157899051
 20
5.4383241574
 11
-12.3822779051
 21
4.9718361574
  0
LINE
  5
40A
100
AcDbEntity
  8
0
100
AcDbLine
 62
7
  6
CONTINUOUS
 10
-15.4522609051
 20
1.9018531574
 11
-17.7036369051
 21
-0.3495218426
  0
LINE
  5
40B
100
AcDbEntity
  8
0
100
AcDbLine
 62
7
  6
CONTINUOUS
 10
-14.1468939051
 20
3.2072201574
 11
-15.3793049051
 21
1.9748111574
  0
LINE
  5
40C
100
AcDbEntity
  8
0
100
AcDbLine
 62
7
  6
CONTINUOUS
 10
-15.3613199051
 20
1.7692401574
 11
-14.0351169051
 21
3.0954431574
  0
LINE
  5
40D
100
AcDbEntity
  8
0
100
AcDbLine
 62
7
  6
CONTINUOUS
 10
-13.9233399051
 20
3.2072201574
 11
-12.4906599051
 21
4.6399001574
  0
LINE
  5
40E
100
AcDbEntity
  8
0
100
AcDbLine
 62
7
  6
CONTINUOUS
 10
-12.4035829051
 20
4.7269771574
 11
-11.7825139051
 21
5.3480461574
  0
LINE
  5
40F
100
AcDbEntity
  8
0
100
AcDbLine
 62
7
  6
CONTINUOUS
 10
-11.7034749051
 20
5.4270841574
 11
-10.3665969051
 21
6.7639621574
  0
LINE
  5
410
100
AcDbEntity
  8
0
100
AcDbLine
 62
7
  6
CONTINUOUS
 10
-17.5918589051
 20
-0.4612998426
 11
-15.4342759051
 21
1.6962821574
  0
LWPOLYLINE
  5
411
100
AcDbEntity
  8
0
100
AcDbPolyline
 62
7
  6
CONTINUOUS
 90
27
 70
0
 10
-3.0605997561
 20
12.7047650664
 10
-3.109415566
 20
12.6643346278
 10
-3.1609960163
 20
12.6291120634
 10
-3.2147861374
 20
12.5993375592
 10
-3.271340899
 20
12.5747709292
 10
-3.3311322524
 20
12.5555157504
 10
-3.3953883209
 20
12.5415028867
 10
-3.4628809813
 20
12.5328014742
 10
-3.5303978145
 20
12.5297224973
 10
-3.5979145772
 20
12.5324366959
 10
-3.6654555128
 20
12.54077333
 10
-3.729880932
 20
12.5545311651
 10
-3.7899673453
 20
12.5736466443
 10
-3.8469382423
 20
12.5981833245
 10
-3.9013244027
 20
12.628130641
 10
-3.953828629
 20
12.6639212876
 10
-4.0037481187
 20
12.7051225705
 10
-4.0495052441
 20
12.7504258441
 10
-4.0907563628
 20
12.7993611519
 10
-4.1278451171
 20
12.8523984503
 10
-4.1602248057
 20
12.9096389625
 10
-4.1877967065
 20
12.9709504753
 10
-4.2106595417
 20
13.0364652019
 10
-4.2285627765
 20
13.1066810053
 10
-4.2414228992
 20
13.1817638398
 10
-4.2493234215
 20
13.2615477511
 10
-4.2522643435
 20
13.3460327392
  0
LINE
  5
412
100
AcDbEntity
  8
RACCORDO
100
AcDbLine
 62
7
  6
CONTINUOUS
 10
-0.3337715217
 20
-17.244125226
 11
-0.3319434458
 21
-17.2459533019
  0
LINE
  5
413
100
AcDbEntity
  8
0
100
AcDbLine
 62
7
  6
CONTINUOUS
 10
-0.1398792136
 20
-17.4380175341
 11
-0.3319434458
 21
-17.2459533019
  0
LINE
  5
414
100
AcDbEntity
  8
0
100
AcDbLine
 62
7
  6
CONTINUOUS
 10
-26.2851169051
 20
8.9572201574
 11
-26.202794231
 21
8.8748974833
  0
LINE
  5
415
100
AcDbEntity
  8
RACCORDO
100
AcDbLine
 62
7
  6
CONTINUOUS
 10
-26.1031632886
 20
8.7752665409
 11
-26.202794231
 21
8.8748974833
  0
LINE
  5
416
100
AcDbEntity
  8
RACCORDO
100
AcDbLine
 62
250
  6
CONTINUOUS
 10
-27.6882001494
 20
11.9103338626
 11
-27.7851169051
 21
12.0072506184
  0
LINE
  5
417
100
AcDbEntity
  8
RACCORDO
100
AcDbLine
 62
250
  6
CONTINUOUS
 10
-27.4882306103
 20
12.1103034017
 11
-27.5851473661
 21
12.2072201574
  0
LINE
  5
418
100
AcDbEntity
  8
0
100
AcDbLine
 62
7
  6
CONTINUOUS
 10
-15.7593326733
 20
9.2072201574
 11
-16.6019400514
 21
11.3107505877
  0
LINE
  5
419
100
AcDbEntity
  8
0
100
AcDbLine
 62
7
  6
CONTINUOUS
 10
-16.6033344584
 20
10.6522022074
 11
-16.3768462318
 21
10.0741296681
  0
LINE
  5
41A
100
AcDbEntity
  8
0
100
AcDbLine
 62
7
  6
CONTINUOUS
 10
-20.0351169051
 20
17.4967971864
 11
-19.2263733075
 21
15.3932667561
  0
LINE
  5
41B
100
AcDbEntity
  8
0
100
AcDbLine
 62
7
  6
CONTINUOUS
 10
-20.0351169051
 20
20.5770718164
 11
-19.2263733075
 21
18.4735413861
  0
LINE
  5
41C
100
AcDbEntity
  8
0
100
AcDbLine
 62
7
  6
CONTINUOUS
 10
-16.2921871699
 20
9.8446536211
 11
-16.0575320915
 21
9.2072201574
  0
LWPOLYLINE
  5
41D
100
AcDbEntity
  8
0
100
AcDbPolyline
 62
7
  6
CONTINUOUS
 90
10
 70
0
 10
-16.3521458918
 20
17.2800698087
 10
-16.3377180166
 20
17.2320890098
 10
-16.3227172299
 20
17.1838323669
 10
-16.3071435316
 20
17.1352998801
 10
-16.290942267
 20
17.0864938986
 10
-16.2741680907
 20
17.0374120731
 10
-16.2569849675
 20
16.9880473559
 10
-16.2394475521
 20
16.9383973977
 10
-16.2215011898
 20
16.8884645477
 10
-16.2031458805
 20
16.838248806
  0
LWPOLYLINE
  5
41E
100
AcDbEntity
  8
0
100
AcDbPolyline
 62
7
  6
CONTINUOUS
 90
8
 70
0
 10
-15.1201566865
 20
12.9244603773
 10
-15.1050471512
 20
12.8554968322
 10
-15.08676141
 20
12.7899907648
 10
-15.0653805227
 20
12.7281633387
 10
-15.0408673852
 20
12.6707505115
 10
-15.0132096296
 20
12.6179976024
 10
-14.9824196238
 20
12.5696592923
 10
-14.9484973679
 20
12.525735581
  0
LWPOLYLINE
  5
41F
100
AcDbEntity
  8
0
100
AcDbPolyline
 62
7
  6
CONTINUOUS
 90
42
 70
0
 10
-13.80101763
 20
13.9193244546
 10
-13.8121027945
 20
13.9839569559
 10
-13.8275533078
 20
14.044329924
 10
-13.8473691699
 20
14.1004433589
 10
-13.8718317649
 20
14.152279208
 10
-13.9006597085
 20
14.1998555239
 10
-13.9330088488
 20
14.2432264648
 10
-13.9686278991
 20
14.2823952729
 10
-14.007768146
 20
14.317358706
 10
-14.0503392972
 20
14.3481611949
 10
-14.0961853786
 20
14.3749595359
 10
-14.1454623644
 20
14.3975969327
 10
-14.1985478852
 20
14.4156474272
 10
-14.2562977757
 20
14.4291464251
 10
-14.3178562012
 20
14.4380585206
 10
-14.3810332876
 20
14.441851539
 10
-14.4466572099
 20
14.4403798059
 10
-14.5138997931
 20
14.4337889956
 10
-14.5780866382
 20
14.4219839564
 10
-14.6376533707
 20
14.4048861726
 10
-14.694164365
 20
14.3825741598
 10
-14.7476383455
 20
14.3551883135
 10
-14.797996568
 20
14.3230276437
 10
-14.8453177767
 20
14.2857931405
 10
-14.8898569287
 20
14.2427281692
 10
-14.9320297052
 20
14.1935510027
 10
-14.971420425
 20
14.1385433681
 10
-15.0070370025
 20
14.0777938118
 10
-15.0386184319
 20
14.0109913613
 10
-15.066425719
 20
13.9384469892
 10
-15.0902497956
 20
13.8611821596
 10
-15.1099012841
 20
13.7786798021
 10
-15.1255695621
 20
13.6914569871
 10
-15.137613694
 20
13.6020863903
 10
-15.1458985139
 20
13.509668304
 10
-15.1505591877
 20
13.4151024359
 10
-15.1523602772
 20
13.3236605841
 10
-15.1515417293
 20
13.2369392952
 10
-15.1478635971
 20
13.1533420225
 10
-15.1413706011
 20
13.0733509241
 10
-15.1321710757
 20
12.9971025636
 10
-15.1201566865
 20
12.9244603773
  0
LWPOLYLINE
  5
420
100
AcDbEntity
  8
0
100
AcDbPolyline
 62
7
  6
CONTINUOUS
 90
37
 70
0
 10
-13.5077982366
 20
12.8739335741
 10
-13.4980170845
 20
12.8085432185
 10
-13.4837296536
 20
12.7470237962
 10
-13.4649359437
 20
12.6893753072
 10
-13.4415897124
 20
12.6358576114
 10
-13.4137372022
 20
12.5862108489
 10
-13.3815171411
 20
12.5396554396
 10
-13.3445995761
 20
12.4955653827
 10
-13.3033144602
 20
12.454566679
 10
-13.2587903795
 20
12.4177577514
 10
-13.2114959899
 20
12.3853424156
 10
-13.1609626356
 20
12.3571168559
 10
-13.1069129348
 20
12.3335680475
 10
-13.0489547666
 20
12.3146979706
 10
-12.9874802519
 20
12.300504645
 10
-12.9233883716
 20
12.2914691057
 10
-12.855283208
 20
12.2877506469
 10
-12.7845606787
 20
12.2891899743
 10
-12.7163075177
 20
12.2957902401
 10
-12.6520037174
 20
12.3076374247
 10
-12.5901692854
 20
12.3246455476
 10
-12.5314509779
 20
12.34655982
 10
-12.476039027
 20
12.373442277
 10
-12.4237432007
 20
12.4052308834
 10
-12.3746395596
 20
12.4414847448
 10
-12.3280043745
 20
12.4829813137
 10
-12.2845613746
 20
12.5289431376
 10
-12.2465578085
 20
12.5765969643
 10
-12.2149096409
 20
12.6249151006
 10
-12.188700907
 20
12.6749252397
 10
-12.1674309611
 20
12.7269372085
 10
-12.151009808
 20
12.7818029933
 10
-12.1395274427
 20
12.8386706078
 10
-12.1327532055
 20
12.8952939194
 10
-12.1307370323
 20
12.9517165862
 10
-12.1334289871
 20
13.00789495
 10
-12.1404486018
 20
13.0614519044
  0
LWPOLYLINE
  5
421
100
AcDbEntity
  8
0
100
AcDbPolyline
 62
7
  6
CONTINUOUS
 90
22
 70
0
 10
-9.8312016552
 20
19.161969527
 10
-9.8268843347
 20
19.0983432502
 10
-9.818344395
 20
19.0372643044
 10
-9.8055818362
 20
18.9787326896
 10
-9.7883766018
 20
18.9226563954
 10
-9.7669487482
 20
18.8691274321
 10
-9.7419584449
 20
18.8184218307
 10
-9.7135278749
 20
18.7705279417
 10
-9.6815348551
 20
18.7254574146
 10
-9.646273006
 20
18.6835212286
 10
-9.608017373
 20
18.6448365648
 10
-9.5664929107
 20
18.6092862421
 10
-9.5211681034
 20
18.5768296963
 10
-9.4719060185
 20
18.5473280388
 10
-9.4188435886
 20
18.5209201581
 10
-9.3618600964
 20
18.4979821558
 10
-9.3006856719
 20
18.4785904513
 10
-9.2355901851
 20
18.4626686253
 10
-9.1672625288
 20
18.4503635206
 10
-9.0959323338
 20
18.4417240851
 10
-9.0213699694
 20
18.436701371
 10
-8.9435754354
 20
18.4352953783
  0
LINE
  5
422
100
AcDbEntity
  8
0
100
AcDbLine
 62
7
  6
CONTINUOUS
 10
-9.2369940297
 20
14.0850571552
 11
-9.2369940297
 21
12.3257407953
  0
LINE
  5
423
100
AcDbEntity
  8
0
100
AcDbLine
 62
7
  6
CONTINUOUS
 10
-8.9565233057
 20
12.3257407953
 11
-8.9565233057
 21
14.4292712256
  0
LINE
  5
424
100
AcDbEntity
  8
0
100
AcDbLine
 62
7
  6
CONTINUOUS
 10
-8.7348160976
 20
17.4967971864
 11
-8.7348160976
 21
15.3932667561
  0
LINE
  5
425
100
AcDbEntity
  8
0
100
AcDbLine
 62
7
  6
CONTINUOUS
 10
-8.4543453736
 20
15.3932667561
 11
-8.4543453736
 21
17.4967971864
  0
LINE
  5
426
100
AcDbEntity
  8
0
100
AcDbLine
 62
7
  6
CONTINUOUS
 10
-7.7786659021
 20
20.5770718164
 11
-7.7786659021
 21
18.4735413861
  0
LINE
  5
427
100
AcDbEntity
  8
RACCORDO
100
AcDbLine
 62
7
  6
CONTINUOUS
 10
-7.7382903644
 20
-24.2471716479
 11
-7.7382903644
 21
-17.2459533019
  0
LINE
  5
428
100
AcDbEntity
  8
RACCORDO
100
AcDbLine
 62
250
  6
CONTINUOUS
 10
-7.7027602363
 20
-24.2116415197
 11
-7.7027602363
 21
-16.8472168339
  0
LINE
  5
429
100
AcDbEntity
  8
RACCORDO
100
AcDbLine
 62
250
  6
CONTINUOUS
 10
-26.2851169051
 20
-15.5439981885
 11
-25.9864622885
 21
-15.2452167847
  0
LINE
  5
42A
100
AcDbEntity
  8
RACCORDO
100
AcDbLine
 62
7
  6
CONTINUOUS
 10
16.4171422377
 20
20.3751680751
 11
16.6009918026
 21
20.4809112418
  0
LWPOLYLINE
  5
42B
100
AcDbEntity
  8
RACCORDO
100
AcDbPolyline
 62
7
  6
CONTINUOUS
 90
21
 70
0
 10
16.6009918026
 20
20.4809112418
 10
16.7066159898
 20
20.5407017958
 10
16.7557618964
 20
20.5680969595
 10
16.8028581864
 20
20.5940147179
 10
16.8479038155
 20
20.6184396391
 10
16.8920760424
 20
20.642033151
 10
16.9354539032
 20
20.6647400249
 10
16.9779583617
 20
20.6864954065
 10
17.0205295689
 20
20.7078165935
 10
17.0634936887
 20
20.7286833812
 10
17.1065245572
 20
20.7488208025
 10
17.1495838331
 20
20.7682426175
 10
17.1928199995
 20
20.7867904843
 10
17.2360845734
 20
20.8042037039
 10
17.2788937638
 20
20.8202829985
 10
17.3213047585
 20
20.8348033299
 10
17.3632603699
 20
20.8474963163
 10
17.4041052437
 20
20.8580908529
 10
17.4436209287
 20
20.8663399817
 10
17.4820258762
 20
20.8720096376
 10
17.5193200862
 20
20.8748634886
  0
LINE
  5
42C
100
AcDbEntity
  8
0
100
AcDbLine
 62
7
  6
CONTINUOUS
 10
-14.0351169051
 20
3.0954431574
 11
-12.7391639051
 21
1.7994881574
  0
LINE
  5
42D
100
AcDbEntity
  8
0
100
AcDbLine
 62
7
  6
CONTINUOUS
 10
-12.6662059051
 20
1.7265321574
 11
-10.4783749051
 21
-0.4612998426
  0
LINE
  5
42E
100
AcDbEntity
  8
0
100
AcDbLine
 62
7
  6
CONTINUOUS
 10
-17.7036369051
 20
6.7639621574
 11
-15.7025709051
 21
4.7628971574
  0
LINE
  5
42F
100
AcDbEntity
  8
0
100
AcDbLine
 62
7
  6
CONTINUOUS
 10
-15.6156239051
 20
4.6759481574
 11
-14.1468939051
 21
3.2072201574
  0
LINE
  5
430
100
AcDbEntity
  8
RACCORDO
100
AcDbLine
 62
7
  6
CONTINUOUS
 10
-0.8671689874
 20
-15.7450389854
 11
-0.7614258207
 21
-15.9288885503
  0
LWPOLYLINE
  5
431
100
AcDbEntity
  8
RACCORDO
100
AcDbPolyline
 62
7
  6
CONTINUOUS
 90
21
 70
0
 10
-0.7614258207
 20
-15.9288885503
 10
-0.7016352667
 20
-16.0345127375
 10
-0.674240103
 20
-16.0836586441
 10
-0.6483223446
 20
-16.1307549341
 10
-0.6238974235
 20
-16.1758005632
 10
-0.6003039116
 20
-16.2199727901
 10
-0.5775970376
 20
-16.2633506509
 10
-0.555841656
 20
-16.3058551094
 10
-0.5345204691
 20
-16.3484263166
 10
-0.5136536814
 20
-16.3913904364
 10
-0.49351626
 20
-16.4344213049
 10
-0.474094445
 20
-16.4774805808
 10
-0.4555465782
 20
-16.5207167472
 10
-0.4381333586
 20
-16.5639813211
 10
-0.4220540641
 20
-16.6067905115
 10
-0.4075337326
 20
-16.6492015062
 10
-0.3948407462
 20
-16.6911571176
 10
-0.3842462097
 20
-16.7320019914
 10
-0.3759970809
 20
-16.7715176764
 10
-0.3703274249
 20
-16.8099226239
 10
-0.3674735739
 20
-16.8472168339
  0
LINE
  5
432
100
AcDbEntity
  8
0
100
AcDbLine
 62
7
  6
CONTINUOUS
 10
-15.3591440954
 20
15.3932667561
 11
-16.2017514735
 21
17.4967971864
  0
LINE
  5
433
100
AcDbEntity
  8
0
100
AcDbLine
 62
7
  6
CONTINUOUS
 10
-16.2031458805
 20
16.838248806
 11
-15.9766576539
 21
16.2601762667
  0
LINE
  5
434
100
AcDbEntity
  8
0
100
AcDbLine
 62
7
  6
CONTINUOUS
 10
-15.891998592
 20
16.0307002198
 11
-15.6573435136
 21
15.3932667561
  0
LINE
  5
435
100
AcDbEntity
  8
0
100
AcDbLine
 62
7
  6
CONTINUOUS
 10
-16.8174724176
 20
20.2583550846
 11
-16.2109145248
 21
18.4735413861
  0
LINE
  5
436
100
AcDbEntity
  8
0
100
AcDbLine
 62
7
  6
CONTINUOUS
 10
-16.1491187131
 20
19.0210130385
 11
-16.6704642217
 21
20.5770718164
  0
LINE
  5
437
100
AcDbEntity
  8
0
100
AcDbLine
 62
7
  6
CONTINUOUS
 10
-16.1151147511
 20
18.9171336608
 11
-16.1491187131
 21
19.0210130385
  0
LINE
  5
438
100
AcDbEntity
  8
0
100
AcDbLine
 62
7
  6
CONTINUOUS
 10
-16.0930930119
 20
18.8484787029
 11
-16.1151147511
 21
18.9171336608
  0
LINE
  5
439
100
AcDbEntity
  8
0
100
AcDbLine
 62
7
  6
CONTINUOUS
 10
-16.0716751678
 20
18.7803062527
 11
-16.0930930119
 21
18.8484787029
  0
LWPOLYLINE
  5
43A
100
AcDbEntity
  8
0
100
AcDbPolyline
 62
7
  6
CONTINUOUS
 90
13
 70
0
 10
-12.1404486018
 20
13.0614519044
 10
-12.1517701573
 20
13.1116747972
 10
-12.1674193726
 20
13.1592762806
 10
-12.1870929371
 20
13.2040172046
 10
-12.2108091197
 20
13.2459125946
 10
-12.2385496515
 20
13.2849474253
 10
-12.2699564145
 20
13.3208374698
 10
-12.3049010088
 20
13.3536441484
 10
-12.3435118344
 20
13.383306041
 10
-12.3858159733
 20
13.4093546597
 10
-12.4318224528
 20
13.4316338421
 10
-12.4815222457
 20
13.4502997508
 10
-12.5349153519
 20
13.4653523856
  0
LWPOLYLINE
  5
43B
100
AcDbEntity
  8
0
100
AcDbPolyline
 62
7
  6
CONTINUOUS
 90
19
 70
0
 10
-8.2248693267
 20
19.9906330298
 10
-8.2306105397
 20
20.0539857434
 10
-8.2410392177
 20
20.1141184952
 10
-8.2561553606
 20
20.1710312853
 10
-8.2761635362
 20
20.2247620809
 10
-8.3008591768
 20
20.2752729148
 10
-8.3296285785
 20
20.3224498848
 10
-8.3621144541
 20
20.3662555076
 10
-8.3986740908
 20
20.4067272665
 10
-8.4397656468
 20
20.4438637096
 10
-8.4854483509
 20
20.4777360611
 10
-8.5356629744
 20
20.5082730968
 10
-8.5906899886
 20
20.5352596923
 10
-8.6509038029
 20
20.5588786558
 10
-8.715930008
 20
20.5789471791
 10
-8.7849258478
 20
20.5947017125
 10
-8.8576104037
 20
20.6058877396
 10
-8.9342645943
 20
20.6127597769
 10
-9.0148884197
 20
20.6153178242
  0
LINE
  5
43C
100
AcDbEntity
  8
0
100
AcDbLine
 62
7
  6
CONTINUOUS
 10
-7.498195178
 20
18.4735413861
 11
-7.498195178
 21
19.3404508968
  0
LINE
  5
43D
100
AcDbEntity
  8
0
100
AcDbLine
 62
7
  6
CONTINUOUS
 10
-7.498195178
 20
19.582675613
 11
-7.498195178
 21
20.3348471002
  0
LINE
  5
43E
100
AcDbEntity
  8
RACCORDO
100
AcDbLine
 62
250
  6
CONTINUOUS
 10
-7.2030648228
 20
-24.2116415197
 11
-7.2030648228
 21
-15.7450389854
  0
LINE
  5
43F
100
AcDbEntity
  8
0
100
AcDbLine
 62
250
  6
CONTINUOUS
 10
-7.0354216773
 20
25.8527298706
 11
-7.0354216773
 21
25.9397597727
  0
LINE
  5
440
100
AcDbEntity
  8
0
100
AcDbLine
 62
7
  6
CONTINUOUS
 10
-6.5470248128
 20
14.4292712256
 11
-6.5470248128
 21
12.3257407953
  0
LINE
  5
441
100
AcDbEntity
  8
0
100
AcDbLine
 62
7
  6
CONTINUOUS
 10
-6.2665540888
 20
12.3257407953
 11
-6.2665540888
 21
13.2563936523
  0
LINE
  5
442
100
AcDbEntity
  8
0
100
AcDbLine
 62
7
  6
CONTINUOUS
 10
-6.2665540888
 20
13.4986183685
 11
-6.2665540888
 21
14.1870465094
  0
LINE
  5
443
100
AcDbEntity
  8
0
100
AcDbLine
 62
7
  6
CONTINUOUS
 10
-5.8281195031
 20
17.4967971864
 11
-5.8281195031
 21
15.3932667561
  0
LINE
  5
444
100
AcDbEntity
  8
RACCORDO
100
AcDbLine
 62
250
  6
CONTINUOUS
 10
-5.7039785823
 20
-26.2104231738
 11
-5.7039785823
 21
-25.7107277603
  0
LINE
  5
445
100
AcDbEntity
  8
0
100
AcDbLine
 62
7
  6
CONTINUOUS
 10
-5.5476487791
 20
15.6354914723
 11
-5.5476487791
 21
16.3621656209
  0
LINE
  5
446
100
AcDbEntity
  8
0
100
AcDbLine
 62
7
  6
CONTINUOUS
 10
-5.5476487791
 20
16.6043903372
 11
-5.5476487791
 21
17.2545724701
  0
LWPOLYLINE
  5
447
100
AcDbEntity
  8
RACCORDO
100
AcDbPolyline
 62
7
  6
CONTINUOUS
 90
16
 70
0
 10
-7.7027602363
 20
-16.8472168339
 10
-7.6997376127
 20
-16.8087332776
 10
-7.6934810902
 20
-16.7675807383
 10
-7.6840125605
 20
-16.7237592162
 10
-7.6713882637
 20
-16.6772660504
 10
-7.6556654739
 20
-16.6281039017
 10
-7.6368747333
 20
-16.5762807524
 10
-7.6151020694
 20
-16.5217664287
 10
-7.5904520289
 20
-16.4645911042
 10
-7.5629678297
 20
-16.4048532824
 10
-7.532841395
 20
-16.3426451766
 10
-7.5001759339
 20
-16.2778745733
 10
-7.4648372845
 20
-16.2103633353
 10
-7.4270253501
 20
-16.140139021
 10
-7.3869010919
 20
-16.067174072
 10
-7.3442169774
 20
-15.9912076752
  0
LINE
  5
448
100
AcDbEntity
  8
0
100
AcDbLine
 62
7
  6
CONTINUOUS
 10
0.3761002061
 20
16.2601762667
 11
0.6033850421
 21
16.8743036029
  0
LINE
  5
449
100
AcDbEntity
  8
0
100
AcDbLine
 62
7
  6
CONTINUOUS
 10
0.5780869045
 20
17.4967971864
 11
-0.2214936418
 21
15.3932667561
  0
LWPOLYLINE
  5
44A
100
AcDbEntity
  8
0
100
AcDbPolyline
 62
7
  6
CONTINUOUS
 90
10
 70
0
 10
0.6033850421
 20
16.8743036029
 10
0.6209234416
 20
16.9175892053
 10
0.6376405759
 20
16.9613661763
 10
0.6535364451
 20
17.0056345158
 10
0.6686330549
 20
17.0504495381
 10
0.6829083995
 20
17.0957559289
 10
0.6962964616
 20
17.1413877456
 10
0.7087752355
 20
17.187289674
 10
0.7203667269
 20
17.2335170284
 10
0.7310709358
 20
17.2800698087
  0
LWPOLYLINE
  5
44B
100
AcDbEntity
  8
0
100
AcDbPolyline
 62
7
  6
CONTINUOUS
 90
13
 70
0
 10
3.4798034742
 20
17.5095458556
 10
3.4525644858
 20
17.4614632191
 10
3.4209180632
 20
17.4139297694
 10
3.3848642066
 20
17.3669455065
 10
3.3443032901
 20
17.3204524309
 10
3.2993349394
 20
17.2745085421
 10
3.250258032
 20
17.2292878392
 10
3.1973070715
 20
17.1845898901
 10
3.1402475542
 20
17.1406151269
 10
3.078674846
 20
17.0981388446
 10
3.0124540689
 20
17.0574194749
 10
2.9417201009
 20
17.018198586
 10
2.866472942
 20
16.980476178
  0
LINE
  5
44C
100
AcDbEntity
  8
0
100
AcDbLine
 62
7
  6
CONTINUOUS
 10
5.1994794192
 20
17.4967971864
 11
4.2178318851
 21
16.132689574
  0
LINE
  5
44D
100
AcDbEntity
  8
0
100
AcDbLine
 62
7
  6
CONTINUOUS
 10
4.4732036726
 20
16.132689574
 11
5.1484847421
 21
17.0713104709
  0
LINE
  5
44E
100
AcDbEntity
  8
0
100
AcDbLine
 62
7
  6
CONTINUOUS
 10
-10.4783749051
 20
-0.4612998426
 11
-10.3665969051
 21
-0.3495218426
  0
LINE
  5
44F
100
AcDbEntity
  8
RACCORDO
100
AcDbLine
 62
250
  6
CONTINUOUS
 10
13.2577446145
 20
21.9924855536
 11
13.2224792184
 21
21.9572201574
  0
LINE
  5
450
100
AcDbEntity
  8
RACCORDO
100
AcDbLine
 62
250
  6
CONTINUOUS
 10
-21.8203823013
 20
-13.0856413622
 11
-21.7851169051
 21
-13.0503759661
  0
LINE
  5
451
100
AcDbEntity
  8
RACCORDO
100
AcDbLine
 62
250
  6
CONTINUOUS
 10
13.750148491
 20
21.5000816771
 11
13.7148830949
 21
21.4648162809
  0
LINE
  5
452
100
AcDbEntity
  8
RACCORDO
100
AcDbLine
 62
250
  6
CONTINUOUS
 10
-21.3279784248
 20
-13.5780452387
 11
-21.2927130286
 21
-13.5427798426
  0
LINE
  5
453
100
AcDbEntity
  8
RACCORDO
100
AcDbLine
 62
250
  6
CONTINUOUS
 10
16.2161014408
 20
25.9572201574
 11
15.9173226194
 21
25.6585655408
  0
LWPOLYLINE
  5
454
100
AcDbEntity
  8
RACCORDO
100
AcDbPolyline
 62
250
  6
CONTINUOUS
 90
13
 70
0
 10
19.4179968001
 20
-3.6958630868
 10
19.4440930805
 20
-3.6941450271
 10
19.4697430113
 20
-3.689036132
 10
19.494507884
 20
-3.6806237851
 10
19.51796413
 20
-3.6690518701
 10
19.5397105603
 20
-3.6545183123
 10
19.5593752286
 20
-3.6372716948
 10
19.5766217994
 20
-3.6176070021
 10
19.5911552974
 20
-3.5958605747
 10
19.6027271497
 20
-3.5724043608
 10
19.6111394404
 20
-3.5476395499
 10
19.6162482949
 20
-3.5219897105
 10
19.6179663391
 20
-3.4958935478
  0
LWPOLYLINE
  5
455
100
AcDbEntity
  8
RACCORDO
100
AcDbPolyline
 62
7
  6
CONTINUOUS
 90
13
 70
0
 10
19.5149135558
 20
-3.7927798426
 10
19.5410293628
 20
-3.7910720568
 10
19.5666931821
 20
-3.7859701594
 10
19.5914663143
 20
-3.7775628738
 10
19.6149246332
 20
-3.7659959726
 10
19.6366686775
 20
-3.7514681604
 10
19.6563296738
 20
-3.7342264215
 10
19.6735714127
 20
-3.7145654252
 10
19.6880992249
 20
-3.6928213809
 10
19.6996661261
 20
-3.669363062
 10
19.7080734117
 20
-3.6445899298
 10
19.7131753091
 20
-3.6189261105
 10
19.7148830949
 20
-3.5928103035
  0
LINE
  5
456
100
AcDbEntity
  8
0
100
AcDbLine
 62
7
  6
CONTINUOUS
 10
-12.7211789051
 20
2.0050591574
 11
-13.9233399051
 21
3.2072201574
  0
LINE
  5
457
100
AcDbEntity
  8
0
100
AcDbLine
 62
7
  6
CONTINUOUS
 10
-14.0351169051
 20
3.3189971574
 11
-15.6370569051
 21
4.9209371574
  0
LINE
  5
458
100
AcDbEntity
  8
0
100
AcDbLine
 62
7
  6
CONTINUOUS
 10
-10.3665969051
 20
-0.3495218426
 11
-12.6482209051
 21
1.9321011574
  0
LINE
  5
459
100
AcDbEntity
  8
0
100
AcDbLine
 62
7
  6
CONTINUOUS
 10
-15.7240039051
 20
5.0078861574
 11
-17.5918589051
 21
6.8757401574
  0
LINE
  5
45A
100
AcDbEntity
  8
0
100
AcDbLine
 62
7
  6
CONTINUOUS
 10
-14.1053920846
 20
11.3107505877
 11
-13.3022259203
 21
10.0982327942
  0
LWPOLYLINE
  5
45B
100
AcDbEntity
  8
0
100
AcDbPolyline
 62
7
  6
CONTINUOUS
 90
16
 70
0
 10
-16.3914874079
 20
12.6724448782
 10
-16.4115432383
 20
12.7030951349
 10
-16.4294445703
 20
12.7365522862
 10
-16.4451914036
 20
12.7728163321
 10
-16.4585419861
 20
12.8122236343
 10
-16.4697380699
 20
12.8544378311
 10
-16.4795049123
 20
12.8984498372
 10
-16.4879573058
 20
12.9440372894
 10
-16.4949804578
 20
12.9914225509
 10
-16.5009552481
 20
13.0402636253
 10
-16.505974043
 20
13.0903887625
 10
-16.5099444762
 20
13.1419697127
 10
-16.512970329
 20
13.19517973
 10
-16.515086195
 20
13.2500765657
 10
-16.5162574804
 20
13.3066024685
 10
-16.5164841854
 20
13.3647574384
  0
LINE
  5
45C
100
AcDbEntity
  8
0
100
AcDbLine
 62
7
  6
CONTINUOUS
 10
-13.3663676686
 20
10.6689348966
 11
-13.7717354725
 21
11.3107505877
  0
LWPOLYLINE
  5
45D
100
AcDbEntity
  8
0
100
AcDbPolyline
 62
7
  6
CONTINUOUS
 90
34
 70
0
 10
-15.772977747
 20
14.054579889
 10
-15.7554622289
 20
14.0265823972
 10
-15.7395744777
 20
13.9965004187
 10
-15.7253144934
 20
13.9643339536
 10
-15.7128232067
 20
13.9299716052
 10
-15.701959687
 20
13.8935247702
 10
-15.6923011418
 20
13.8553276378
 10
-15.6837973666
 20
13.8155307045
 10
-15.676498566
 20
13.7739834738
 10
-15.6701325616
 20
13.7305686459
 10
-15.664642689
 20
13.6853185998
 10
-15.6600856126
 20
13.6382009566
 10
-15.6563591466
 20
13.5890012795
 10
-15.6534492785
 20
13.5369391624
 10
-15.6513700207
 20
13.4827950115
 10
-15.6500612252
 20
13.4286956084
 10
-15.6495263003
 20
13.3748755259
 10
-15.6497618377
 20
13.3211001912
 10
-15.6506974637
 20
13.2687926672
 10
-15.6522829685
 20
13.2184408721
 10
-15.6545685619
 20
13.1695568876
 10
-15.6576344995
 20
13.1221000224
 10
-15.6614600241
 20
13.0760458235
 10
-15.6660658928
 20
13.0314187438
 10
-15.6715946333
 20
12.9882514512
 10
-15.6779985916
 20
12.9465133482
 10
-15.6853254217
 20
12.9062350322
 10
-15.6938606126
 20
12.8675409633
 10
-15.7035677332
 20
12.830315316
 10
-15.7144832147
 20
12.7946739158
 10
-15.7270018394
 20
12.7610886986
 10
-15.7412552014
 20
12.7297169766
 10
-15.7571117066
 20
12.7004014376
 10
-15.774571355
 20
12.6731420817
  0
LWPOLYLINE
  5
45E
100
AcDbEntity
  8
0
100
AcDbPolyline
 62
7
  6
CONTINUOUS
 90
10
 70
0
 10
-13.1524289104
 20
10.3304974605
 10
-13.1729621691
 20
10.3677334259
 10
-13.1943107894
 20
10.4050682186
 10
-13.2164747712
 20
10.4425018387
 10
-13.2394620253
 20
10.4800433248
 10
-13.2632646409
 20
10.5176836382
 10
-13.2878588863
 20
10.5553956637
 10
-13.3132368507
 20
10.5931703626
 10
-13.3394064448
 20
10.6310167736
 10
-13.3663676686
 20
10.6689348966
  0
LINE
  5
45F
100
AcDbEntity
  8
0
100
AcDbLine
 62
7
  6
CONTINUOUS
 10
-13.7554013798
 20
19.9185234361
 11
-13.5289131533
 21
19.3404508968
  0
LINE
  5
460
100
AcDbEntity
  8
0
100
AcDbLine
 62
7
  6
CONTINUOUS
 10
-13.4442540913
 20
19.1109748499
 11
-13.2095990129
 21
18.4735413861
  0
LINE
  5
461
100
AcDbEntity
  8
0
100
AcDbLine
 62
7
  6
CONTINUOUS
 10
-10.7030909963
 20
14.1105544937
 11
-10.0965331035
 21
12.3257407953
  0
LINE
  5
462
100
AcDbEntity
  8
0
100
AcDbLine
 62
7
  6
CONTINUOUS
 10
-10.0347372918
 20
12.8732124476
 11
-10.5560828004
 21
14.4292712256
  0
LINE
  5
463
100
AcDbEntity
  8
0
100
AcDbLine
 62
7
  6
CONTINUOUS
 10
-10.0007333298
 20
12.7693330699
 11
-10.0347372918
 21
12.8732124476
  0
LINE
  5
464
100
AcDbEntity
  8
0
100
AcDbLine
 62
7
  6
CONTINUOUS
 10
-9.9787115906
 20
12.700678112
 11
-10.0007333298
 21
12.7693330699
  0
LINE
  5
465
100
AcDbEntity
  8
0
100
AcDbLine
 62
7
  6
CONTINUOUS
 10
-9.9572937465
 20
12.6325056619
 11
-9.9787115906
 21
12.700678112
  0
LWPOLYLINE
  5
466
100
AcDbEntity
  8
0
100
AcDbPolyline
 62
7
  6
CONTINUOUS
 90
10
 70
0
 10
-13.9044013911
 20
20.3603444388
 10
-13.889973516
 20
20.3123636399
 10
-13.8749727292
 20
20.264106997
 10
-13.859399031
 20
20.2155745102
 10
-13.8431977663
 20
20.1667685286
 10
-13.82642359
 20
20.1176867031
 10
-13.8092404668
 20
20.0683219859
 10
-13.7917030515
 20
20.0186720277
 10
-13.7737566891
 20
19.9687391778
 10
-13.7554013798
 20
19.9185234361
  0
LWPOLYLINE
  5
467
100
AcDbEntity
  8
0
100
AcDbPolyline
 62
7
  6
CONTINUOUS
 90
10
 70
0
 10
-9.9650625854
 20
15.6291172349
 10
-9.9756443945
 20
15.6665126117
 10
-9.9866539031
 20
15.704100213
 10
-9.9980911114
 20
15.7418800387
 10
-10.0099663106
 20
15.7798543558
 10
-10.0222692094
 20
15.8180208973
 10
-10.0349689338
 20
15.8563728627
 10
-10.0480551925
 20
15.8949079851
 10
-10.0615382769
 20
15.9336285313
 10
-10.6216191503
 20
17.4967971864
  0
LWPOLYLINE
  5
468
100
AcDbEntity
  8
0
100
AcDbPolyline
 62
7
  6
CONTINUOUS
 90
40
 70
0
 10
-4.5327350675
 20
13.3494191562
 10
-4.5281299622
 20
13.2506079941
 10
-4.5169064185
 20
13.1553234611
 10
-4.4990644363
 20
13.0635655573
 10
-4.4738627481
 20
12.974465512
 10
-4.4420426213
 20
12.8888920959
 10
-4.4058278591
 20
12.8094516205
 10
-4.3660801471
 20
12.7374360787
 10
-4.3219377995
 20
12.6715534776
 10
-4.2730395625
 20
12.61053415
 10
-4.2189710582
 20
12.5538351806
 10
-4.1601466644
 20
12.5019994848
 10
-4.0974482608
 20
12.4553861416
 10
-4.0309541753
 20
12.4138523968
 10
-3.96058608
 20
12.3775410046
 10
-3.8869908706
 20
12.347239307
 10
-3.81017383
 20
12.3230280547
 10
-3.7301296754
 20
12.3048264971
 10
-3.6474894536
 20
12.2931797237
 10
-3.5610901756
 20
12.2881889306
 10
-3.4720948304
 20
12.2897529218
 10
-3.3846234325
 20
12.2981131994
 10
-3.2990146288
 20
12.3138090527
 10
-3.2149297723
 20
12.3363011923
 10
-3.1354729361
 20
12.3642132524
 10
-3.0614307927
 20
12.3975229967
 10
-2.9920166696
 20
12.4362526614
 10
-2.9279746224
 20
12.4790925893
 10
-2.8701170166
 20
12.5250375792
 10
-2.8176314868
 20
12.5750928322
 10
-2.768824992
 20
12.6309642945
 10
-2.7228421325
 20
12.6930402872
 10
-2.6805383081
 20
12.7609324892
 10
-2.642786677
 20
12.8351818827
 10
-2.609213388
 20
12.9161930751
 10
-2.5801922923
 20
13.003561459
 10
-2.5577181028
 20
13.0966141942
 10
-2.5424557236
 20
13.1951270006
 10
-2.5337402505
 20
13.2993241582
 10
-2.5315716834
 20
13.4092056672
  0
LINE
  5
469
100
AcDbEntity
  8
0
100
AcDbLine
 62
7
  6
CONTINUOUS
 10
-4.4002685444
 20
16.3621656209
 11
-4.4002685444
 21
16.6043903372
  0
LINE
  5
46A
100
AcDbEntity
  8
0
100
AcDbLine
 62
7
  6
CONTINUOUS
 10
-4.3237765287
 20
17.2545724701
 11
-4.3237765287
 21
17.4967971864
  0
LINE
  5
46B
100
AcDbEntity
  8
0
100
AcDbLine
 62
7
  6
CONTINUOUS
 10
-4.2727818516
 20
15.3932667561
 11
-4.2727818516
 21
15.6354914723
  0
LINE
  5
46C
100
AcDbEntity
  8
0
100
AcDbLine
 62
7
  6
CONTINUOUS
 10
-3.8775731041
 20
17.4967971864
 11
-3.8775731041
 21
15.3932667561
  0
LINE
  5
46D
100
AcDbEntity
  8
0
100
AcDbLine
 62
7
  6
CONTINUOUS
 10
-3.5971023801
 20
15.3932667561
 11
-3.5971023801
 21
17.0065711196
  0
LWPOLYLINE
  5
46E
100
AcDbEntity
  8
0
100
AcDbPolyline
 62
7
  6
CONTINUOUS
 90
13
 70
0
 10
-4.2522643435
 20
13.3460327392
 10
-4.2513625452
 20
13.421178888
 10
-4.2473291387
 20
13.49332347
 10
-4.240164124
 20
13.5624664853
 10
-4.2298818706
 20
13.6289079146
 10
-4.216468009
 20
13.6923477773
 10
-4.1998794306
 20
13.7518861307
 10
-4.1799117143
 20
13.8073258111
 10
-4.1567692812
 20
13.8588639823
 10
-4.1310222862
 20
13.9061921934
 10
-4.1028607809
 20
13.9492076275
 10
-4.0720947136
 20
13.9880131014
 10
-4.0387240845
 20
14.0226086153
  0
LINE
  5
46F
100
AcDbEntity
  8
0
100
AcDbLine
 62
7
  6
CONTINUOUS
 10
0.0745143709
 20
15.3932667561
 11
0.2962217735
 21
16.0307002198
  0
LINE
  5
470
100
AcDbEntity
  8
RACCORDO
100
AcDbLine
 62
250
  6
CONTINUOUS
 10
18.2148830949
 20
23.9584385034
 11
17.9162284783
 21
23.6596570995
  0
LINE
  5
471
100
AcDbEntity
  8
RACCORDO
100
AcDbLine
 62
7
  6
CONTINUOUS
 10
-23.4370950071
 20
-17.4447579445
 11
-23.5351169051
 21
-17.5427798426
  0
LINE
  5
472
100
AcDbEntity
  8
RACCORDO
100
AcDbLine
 62
250
  6
CONTINUOUS
 10
-24.2863352511
 20
-17.5427798426
 11
-23.9875564296
 21
-17.244125226
  0
LINE
  5
473
100
AcDbEntity
  8
RACCORDO
100
AcDbLine
 62
7
  6
CONTINUOUS
 10
19.5150049295
 20
-3.7927798426
 11
18.4147612603
 21
-3.7927798426
  0
LINE
  5
474
100
AcDbEntity
  8
RACCORDO
100
AcDbLine
 62
7
  6
CONTINUOUS
 10
-26.4849950705
 20
-3.7927798426
 11
-27.5852387397
 21
-3.7927798426
  0
LINE
  5
475
100
AcDbEntity
  8
RACCORDO
100
AcDbLine
 62
250
  6
CONTINUOUS
 10
-27.4882306103
 20
-3.6958630868
 11
-26.5820031999
 21
-3.6958630868
  0
LINE
  5
476
100
AcDbEntity
  8
RACCORDO
100
AcDbLine
 62
250
  6
CONTINUOUS
 10
18.5117693897
 20
-3.6958630868
 11
19.4179968001
 21
-3.6958630868
  0
LWPOLYLINE
  5
477
100
AcDbEntity
  8
RACCORDO
100
AcDbPolyline
 62
7
  6
CONTINUOUS
 90
25
 70
0
 10
-26.4849755265
 20
-3.7927798277
 10
-26.471811142
 20
-3.7932234172
 10
-26.4588131459
 20
-3.7945036195
 10
-26.4459815381
 20
-3.7966204344
 10
-26.4332629511
 20
-3.7995898693
 10
-26.4207107524
 20
-3.8033959168
 10
-26.408485045
 20
-3.8079905553
 10
-26.396589911
 20
-3.8133839861
 10
-26.3850212683
 20
-3.8195660077
 10
-26.3739269738
 20
-3.8264579938
 10
-26.3633131368
 20
-3.8340691217
 10
-26.3531736481
 20
-3.8423902141
 10
-26.3436380358
 20
-3.8513151121
 10
-26.3347140974
 20
-3.8608516096
 10
-26.3263940355
 20
-3.8709919127
 10
-26.3187839867
 20
-3.881606482
 10
-26.3118931289
 20
-3.8927014226
 10
-26.3057122841
 20
-3.9042706293
 10
-26.3003200559
 20
-3.9161662472
 10
-26.2957266426
 20
-3.9283923568
 10
-26.2919218458
 20
-3.9409448776
 10
-26.2889536729
 20
-3.9536637127
 10
-26.2868381264
 20
-3.9664954967
 10
-26.2855592038
 20
-3.9794935952
 10
-26.2851169051
 20
-3.992658008
  0
LWPOLYLINE
  5
478
100
AcDbEntity
  8
RACCORDO
100
AcDbPolyline
 62
7
  6
CONTINUOUS
 90
25
 70
0
 10
18.4147417162
 20
-3.7927798277
 10
18.4015758884
 20
-3.7923297031
 10
18.3885768871
 20
-3.7910428833
 10
18.3757447124
 20
-3.7889193684
 10
18.3630260326
 20
-3.7859430011
 10
18.3504741793
 20
-3.7821299388
 10
18.3382491477
 20
-3.7775286529
 10
18.3263550964
 20
-3.7721290278
 10
18.3147878667
 20
-3.7659411793
 10
18.3036949777
 20
-3.7590439258
 10
18.2930825097
 20
-3.7514281655
 10
18.2829443824
 20
-3.7431030003
 10
18.2734098733
 20
-3.7341745545
 10
18.2644867249
 20
-3.7246350909
 10
18.2561671947
 20
-3.7144923467
 10
18.2485573329
 20
-3.7038756588
 10
18.2416662447
 20
-3.6927789525
 10
18.235484825
 20
-3.6812083024
 10
18.2300918081
 20
-3.6693112688
 10
18.2254973107
 20
-3.6570836987
 10
18.221691216
 20
-3.644529745
 10
18.2187219087
 20
-3.6318094267
 10
18.2166055168
 20
-3.6189760835
 10
18.2153259122
 20
-3.6059763758
 10
18.2148830949
 20
-3.5928103035
  0
LWPOLYLINE
  5
479
100
AcDbEntity
  8
RACCORDO
100
AcDbPolyline
 62
250
  6
CONTINUOUS
 90
13
 70
0
 10
18.5117693897
 20
-3.6958630868
 10
18.4856731582
 20
-3.6941450336
 10
18.4600232676
 20
-3.6890361559
 10
18.4352584247
 20
-3.6806238344
 10
18.4118021987
 20
-3.6690519504
 10
18.3900557767
 20
-3.6545184253
 10
18.3703911019
 20
-3.6372718355
 10
18.3531445122
 20
-3.6176071608
 10
18.3386109871
 20
-3.5958607388
 10
18.3270391031
 20
-3.5724045128
 10
18.3186267815
 20
-3.5476396698
 10
18.3135179039
 20
-3.5219897792
 10
18.3117998506
 20
-3.4958935478
  0
LWPOLYLINE
  5
47A
100
AcDbEntity
  8
0
100
AcDbPolyline
 62
7
  6
CONTINUOUS
 90
36
 70
0
 10
-18.2121567021
 20
12.525735581
 10
-18.1662757055
 20
12.477314394
 10
-18.1183097484
 20
12.4345001876
 10
-18.0682588306
 20
12.397292962
 10
-18.0163635176
 20
12.3658307841
 10
-17.962383244
 20
12.3399755869
 10
-17.905596314
 20
12.3193131693
 10
-17.8449135104
 20
12.3036598079
 10
-17.7814240503
 20
12.293199226
 10
-17.7176738895
 20
12.2880683929
 10
-17.6534124868
 20
12.2883822292
 10
-17.5888903834
 20
12.2940258143
 10
-17.5274051584
 20
12.3047913556
 10
-17.4700298706
 20
12.3208087698
 10
-17.4156914612
 20
12.3419481402
 10
-17.364468333
 20
12.3676119236
 10
-17.3163847931
 20
12.3975062149
 10
-17.2714165343
 20
12.4319249193
 10
-17.2295690382
 20
12.4711522091
 10
-17.1906551483
 20
12.5151974405
 10
-17.1548620211
 20
12.5640512574
 10
-17.1227566067
 20
12.617969764
 10
-17.0938648805
 20
12.6778288059
 10
-17.0686608672
 20
12.7427525375
 10
-17.049133591
 20
12.8103695267
 10
-17.0359273632
 20
12.8812403801
 10
-17.0283978725
 20
12.9548044911
 10
-17.0266012084
 20
13.0270086077
 10
-17.0307873538
 20
13.0973921759
 10
-17.0407063257
 20
13.1664157497
 10
-17.0556642657
 20
13.2314077387
 10
-17.0754691521
 20
13.2912033405
 10
-17.1003130064
 20
13.3469673576
 10
-17.1300780356
 20
13.3995226066
 10
-17.1653744281
 20
13.4496501447
 10
-17.2055919953
 20
13.4965689147
  0
LWPOLYLINE
  5
47B
100
AcDbEntity
  8
0
100
AcDbPolyline
 62
7
  6
CONTINUOUS
 90
10
 70
0
 10
-17.4176556839
 20
14.1147377147
 10
-17.4026241307
 20
14.096347535
 10
-17.3886611399
 20
14.076330771
 10
-17.3757667117
 20
14.0546874227
 10
-17.3639849055
 20
14.0313005251
 10
-17.3532716619
 20
14.0062870432
 10
-17.3434948023
 20
13.9799978718
 10
-17.3346102674
 20
13.952549976
 10
-17.3266621165
 20
13.9238263907
 10
-17.3196503497
 20
13.8938271161
  0
LINE
  5
47C
100
AcDbEntity
  8
0
100
AcDbLine
 62
7
  6
CONTINUOUS
 10
-12.9113995947
 20
18.4735413861
 11
-13.7540069728
 21
20.5770718164
  0
LINE
  5
47D
100
AcDbEntity
  8
0
100
AcDbLine
 62
7
  6
CONTINUOUS
 10
-10.919818374
 20
17.4967971864
 11
-10.1110747763
 21
15.3932667561
  0
LWPOLYLINE
  5
47E
100
AcDbEntity
  8
0
100
AcDbPolyline
 62
7
  6
CONTINUOUS
 90
10
 70
0
 10
-7.7900199698
 20
14.2125438479
 10
-7.7755920947
 20
14.164563049
 10
-7.7605913079
 20
14.1163064061
 10
-7.7450176097
 20
14.0677739193
 10
-7.728816345
 20
14.0189679378
 10
-7.7120421687
 20
13.9698861123
 10
-7.6948590455
 20
13.9205213951
 10
-7.6773216302
 20
13.8708714369
 10
-7.6593752678
 20
13.8209385869
 10
-7.6410199585
 20
13.7707228452
  0
LWPOLYLINE
  5
47F
100
AcDbEntity
  8
0
100
AcDbPolyline
 62
7
  6
CONTINUOUS
 90
22
 70
0
 10
-2.2507232674
 20
13.0141689361
 10
-2.2464059469
 20
12.9505426594
 10
-2.2378660072
 20
12.8894637136
 10
-2.2251034484
 20
12.8309320987
 10
-2.2078982139
 20
12.7748558045
 10
-2.1864703603
 20
12.7213268413
 10
-2.161480057
 20
12.6706212399
 10
-2.133049487
 20
12.6227273509
 10
-2.1010564673
 20
12.5776568238
 10
-2.0657946182
 20
12.5357206377
 10
-2.0275389852
 20
12.497035974
 10
-1.9860145228
 20
12.4614856513
 10
-1.9406897155
 20
12.4290291055
 10
-1.8914276306
 20
12.3995274479
 10
-1.8383652007
 20
12.3731195672
 10
-1.7813817086
 20
12.3501815649
 10
-1.7202072841
 20
12.3307898605
 10
-1.6551117972
 20
12.3148680344
 10
-1.5867841409
 20
12.3025629298
 10
-1.515453946
 20
12.2939234943
 10
-1.4408915815
 20
12.2889007802
 10
-1.3630970476
 20
12.2874947875
  0
LWPOLYLINE
  5
480
100
AcDbEntity
  8
0
100
AcDbPolyline
 62
7
  6
CONTINUOUS
 90
40
 70
0
 10
-2.5315716834
 20
13.4092056672
 10
-2.5385334723
 20
13.5164691882
 10
-2.5517136438
 20
13.6179107416
 10
-2.5711121979
 20
13.7135303274
 10
-2.5973186233
 20
13.8035046926
 10
-2.6297434313
 20
13.8876570902
 10
-2.6666181554
 20
13.9654572792
 10
-2.7073522188
 20
14.0363093685
 10
-2.7525361983
 20
14.1008092492
 10
-2.8021733578
 20
14.1602143542
 10
-2.8562983252
 20
14.2148864389
 10
-2.9148764726
 20
14.2644637478
 10
-2.9778071802
 20
14.3091184479
 10
-3.0453942141
 20
14.3492873001
 10
-3.1173338081
 20
14.3845335435
 10
-3.1926140436
 20
14.4137190628
 10
-3.2711912849
 20
14.436616485
 10
-3.3531091677
 20
14.4534531832
 10
-3.4374866808
 20
14.4637731605
 10
-3.5261087669
 20
14.4673014501
 10
-3.6171904833
 20
14.4643130188
 10
-3.7044959904
 20
14.4551767707
 10
-3.7859606633
 20
14.4398511023
 10
-3.8636491269
 20
14.4183776171
 10
-3.9375194157
 20
14.3912500289
 10
-4.0074068716
 20
14.3586260327
 10
-4.0734761527
 20
14.3203479335
 10
-4.1361792681
 20
14.276436361
 10
-4.1962000366
 20
14.2264876179
 10
-4.2528546394
 20
14.1709054013
 10
-4.3045436284
 20
14.1109214327
 10
-4.3507796942
 20
14.047282965
 10
-4.3920501462
 20
13.9792427452
 10
-4.4282174644
 20
13.9057907356
 10
-4.4594226777
 20
13.8265899551
 10
-4.4855247573
 20
13.7419773848
 10
-4.5059630967
 20
13.6519539292
 10
-4.5205508271
 20
13.5565198901
 10
-4.5294748174
 20
13.4556749657
 10
-4.5327350675
 20
13.3494191562
  0
LINE
  5
481
100
AcDbEntity
  8
0
100
AcDbLine
 62
7
  6
CONTINUOUS
 10
-2.526214161
 20
17.4967971864
 11
-2.526214161
 21
15.8834930174
  0
LINE
  5
482
100
AcDbEntity
  8
RACCORDO
100
AcDbLine
 62
250
  6
CONTINUOUS
 10
-2.366255228
 20
-26.2104231738
 11
-2.366255228
 21
-25.7107277603
  0
LINE
  5
483
100
AcDbEntity
  8
0
100
AcDbLine
 62
7
  6
CONTINUOUS
 10
-2.245743437
 20
15.3932667561
 11
-2.245743437
 21
17.4967971864
  0
LINE
  5
484
100
AcDbEntity
  8
0
100
AcDbLine
 62
7
  6
CONTINUOUS
 10
-1.9525240437
 20
15.6456507231
 11
-1.9525240437
 21
15.3932667561
  0
LINE
  5
485
100
AcDbEntity
  8
0
100
AcDbLine
 62
7
  6
CONTINUOUS
 10
-1.8250373509
 20
17.4967971864
 11
-1.8250373509
 21
17.2545724701
  0
LINE
  5
486
100
AcDbEntity
  8
RACCORDO
100
AcDbLine
 62
250
  6
CONTINUOUS
 10
-0.8671689874
 20
-15.7450389854
 11
-0.8671689874
 21
-24.2116415197
  0
LINE
  5
487
100
AcDbEntity
  8
RACCORDO
100
AcDbLine
 62
250
  6
CONTINUOUS
 10
-0.3674735739
 20
-16.8472168339
 11
-0.3674735739
 21
-24.2116415197
  0
LINE
  5
488
100
AcDbEntity
  8
0
100
AcDbLine
 62
7
  6
CONTINUOUS
 10
-0.3639202148
 20
14.4292712256
 11
-0.3639202148
 21
14.1870465094
  0
LINE
  5
489
100
AcDbEntity
  8
0
100
AcDbLine
 62
7
  6
CONTINUOUS
 10
-0.3334430458
 20
17.2545724701
 11
-0.3334430458
 21
17.4967971864
  0
LINE
  5
48A
100
AcDbEntity
  8
RACCORDO
100
AcDbLine
 62
7
  6
CONTINUOUS
 10
-0.3319434458
 20
-17.2459533019
 11
-0.3319434458
 21
-24.2471716479
  0
LINE
  5
48B
100
AcDbEntity
  8
0
100
AcDbLine
 62
7
  6
CONTINUOUS
 10
-0.2824483687
 20
15.3932667561
 11
-0.2824483687
 21
15.6354914723
  0
LWPOLYLINE
  5
48C
100
AcDbEntity
  8
0
100
AcDbPolyline
 62
7
  6
CONTINUOUS
 90
16
 70
0
 10
2.6192942028
 20
13.7074502424
 10
2.6375326562
 20
13.7724511299
 10
2.6592002878
 20
13.8334837352
 10
2.6848190372
 20
13.8901681274
 10
2.7147242941
 20
13.9423713087
 10
2.7485806687
 20
13.990226277
 10
2.7859039309
 20
14.0337520949
 10
2.826568064
 20
14.0729724976
 10
2.8706990847
 20
14.10786375
 10
2.9181908128
 20
14.1383737088
 10
2.9689956593
 20
14.1646342335
 10
3.0231612132
 20
14.1865134645
 10
3.0807240606
 20
14.2035636805
 10
3.141696397
 20
14.2156356411
 10
3.2060660269
 20
14.2228785866
 10
3.2738329503
 20
14.2252925172
  0
LINE
  5
48D
100
AcDbEntity
  8
0
100
AcDbLine
 62
7
  6
CONTINUOUS
 10
5.073387328
 20
14.4292712256
 11
4.2738067817
 21
12.3257407953
  0
LWPOLYLINE
  5
48E
100
AcDbEntity
  8
0
100
AcDbPolyline
 62
7
  6
CONTINUOUS
 90
10
 70
0
 10
5.0986854656
 20
13.8067776421
 10
5.116223865
 20
13.8500632445
 10
5.1329409994
 20
13.8938402155
 10
5.1488368685
 20
13.9381085551
 10
5.1639334783
 20
13.9829235773
 10
5.1782088229
 20
14.0282299681
 10
5.191596885
 20
14.0738617848
 10
5.2040756589
 20
14.1197637133
 10
5.2156671504
 20
14.1659910676
 10
5.2263713593
 20
14.2125438479
  0
LINE
  5
48F
100
AcDbEntity
  8
0
100
AcDbLine
 62
7
  6
CONTINUOUS
 10
18.2148830949
 20
21.2072201574
 11
17.9180565542
 21
20.9103936167
  0
LINE
  5
490
100
AcDbEntity
  8
RACCORDO
100
AcDbLine
 62
7
  6
CONTINUOUS
 10
17.9162284783
 20
20.9085655408
 11
17.9180565542
 21
20.9103936167
  0
LWPOLYLINE
  5
491
100
AcDbEntity
  8
RACCORDO
100
AcDbPolyline
 62
250
  6
CONTINUOUS
 90
13
 70
0
 10
-26.5820031999
 20
-3.6958630868
 10
-26.5559069195
 20
-3.6941450271
 10
-26.5302569887
 20
-3.689036132
 10
-26.505492116
 20
-3.6806237851
 10
-26.48203587
 20
-3.6690518701
 10
-26.4602894397
 20
-3.6545183123
 10
-26.4406247714
 20
-3.6372716948
 10
-26.4233782006
 20
-3.6176070021
 10
-26.4088447026
 20
-3.5958605747
 10
-26.3972728503
 20
-3.5724043608
 10
-26.3888605596
 20
-3.5476395499
 10
-26.3837517051
 20
-3.5219897105
 10
-26.3820336609
 20
-3.4958935478
  0
LINE
  5
492
100
AcDbEntity
  8
0
100
AcDbLine
 62
7
  6
CONTINUOUS
 10
18.1325604208
 20
-0.4604571685
 11
18.3114990046
 21
-0.4496341493
  0
LINE
  5
493
100
AcDbEntity
  8
0
100
AcDbLine
 62
7
  6
CONTINUOUS
 10
-17.5515639051
 20
-2.3015938426
 11
-10.5515639051
 21
-2.3015938426
  0
LINE
  5
494
100
AcDbEntity
  8
0
100
AcDbLine
 62
7
  6
CONTINUOUS
 10
-10.5515639051
 20
-1.3015938426
 11
-17.5515639051
 21
-1.3015938426
  0
LINE
  5
495
100
AcDbEntity
  8
RACCORDO
100
AcDbLine
 62
250
  6
CONTINUOUS
 10
-27.6401789396
 20
-0.6963200013
 11
-26.4300548706
 21
-0.6963200013
  0
LINE
  5
496
100
AcDbEntity
  8
RACCORDO
100
AcDbLine
 62
250
  6
CONTINUOUS
 10
18.3598210604
 20
-0.6963200013
 11
19.5699451294
 21
-0.6963200013
  0
LINE
  5
497
100
AcDbEntity
  8
RACCORDO
100
AcDbLine
 62
250
  6
CONTINUOUS
 10
-26.382418907
 20
-0.360826226
 11
-26.1031632886
 21
-0.360826226
  0
LINE
  5
498
100
AcDbEntity
  8
RACCORDO
100
AcDbLine
 62
250
  6
CONTINUOUS
 10
18.0329294783
 20
-0.360826226
 11
18.3121850968
 21
-0.360826226
  0
LINE
  5
499
100
AcDbEntity
  8
0
100
AcDbLine
 62
7
  6
CONTINUOUS
 10
-15.3294759051
 20
-0.1339048426
 11
-14.8552439051
 21
-0.1339048426
  0
LINE
  5
49A
100
AcDbEntity
  8
RACCORDO
100
AcDbLine
 62
250
  6
CONTINUOUS
 10
-26.3828652687
 20
-0.0610089779
 11
-26.0930526729
 21
-0.0610089779
  0
LINE
  5
49B
100
AcDbEntity
  8
RACCORDO
100
AcDbLine
 62
250
  6
CONTINUOUS
 10
18.0228188627
 20
-0.0610089779
 11
18.3126314585
 21
-0.0610089779
  0
LINE
  5
49C
100
AcDbEntity
  8
0
100
AcDbLine
 62
7
  6
CONTINUOUS
 10
-14.9738029051
 20
-0.0153468426
 11
-15.2109179051
 21
-0.0153468426
  0
LINE
  5
49D
100
AcDbEntity
  8
0
100
AcDbLine
 62
7
  6
CONTINUOUS
 10
-26.3817328148
 20
-0.4496341493
 11
-26.202794231
 21
-0.4604571685
  0
LWPOLYLINE
  5
49E
100
AcDbEntity
  8
0
100
AcDbPolyline
 62
7
  6
CONTINUOUS
 90
20
 70
0
 10
-17.2055919953
 20
13.4965689147
 10
-17.2487823786
 20
13.5387585621
 10
-17.2946696265
 20
13.5759380904
 10
-17.3435296904
 20
13.6083884961
 10
-17.3942420656
 20
13.6354324141
 10
-17.4464832268
 20
13.6568033958
 10
-17.5005766992
 20
13.6727678898
 10
-17.5563725535
 20
13.6834478769
 10
-17.614840571
 20
13.688864
 10
-17.6750109704
 20
13.6889956162
 10
-17.7338244788
 20
13.6839027767
 10
-17.7906443133
 20
13.6735053464
 10
-17.8461072567
 20
13.6578834605
 10
-17.8990643846
 20
13.6373375765
 10
-17.9491632649
 20
13.611985889
 10
-17.9967563296
 20
13.5817102033
 10
-18.0417519505
 20
13.5464563933
 10
-18.0841195848
 20
13.5062064168
 10
-18.1238897752
 20
13.4609783159
 10
-18.1610625218
 20
13.4107720906
  0
LWPOLYLINE
  5
49F
100
AcDbEntity
  8
0
100
AcDbPolyline
 62
7
  6
CONTINUOUS
 90
20
 70
0
 10
-13.9419326611
 20
13.4965689147
 10
-13.9851230444
 20
13.5387585621
 10
-14.0310102923
 20
13.5759380904
 10
-14.0798703562
 20
13.6083884961
 10
-14.1305827313
 20
13.6354324141
 10
-14.1828238925
 20
13.6568033958
 10
-14.2369173649
 20
13.6727678898
 10
-14.2927132192
 20
13.6834478769
 10
-14.3511812368
 20
13.688864
 10
-14.4113516362
 20
13.6889956162
 10
-14.4701651446
 20
13.6839027767
 10
-14.5269849791
 20
13.6735053464
 10
-14.5824479225
 20
13.6578834605
 10
-14.6354050504
 20
13.6373375765
 10
-14.6855039307
 20
13.611985889
 10
-14.7330969954
 20
13.5817102033
 10
-14.7780926163
 20
13.5464563933
 10
-14.8204602506
 20
13.5062064168
 10
-14.860230441
 20
13.4609783159
 10
-14.8974031876
 20
13.4107720906
  0
LINE
  5
4A0
100
AcDbEntity
  8
RACCORDO
100
AcDbLine
 62
250
  6
CONTINUOUS
 10
16.2161014408
 20
-17.5427798426
 11
15.917320037
 21
-17.244125226
  0
LINE
  5
4A1
100
AcDbEntity
  8
0
100
AcDbLine
 62
7
  6
CONTINUOUS
 10
-10.3665969051
 20
6.7639621574
 11
-10.4783749051
 21
6.8757401574
  0
LINE
  5
4A2
100
AcDbEntity
  8
RACCORDO
100
AcDbLine
 62
7
  6
CONTINUOUS
 10
15.3668611968
 20
-17.4447579445
 11
15.4648830949
 21
-17.5427798426
  0
LINE
  5
4A3
100
AcDbEntity
  8
RACCORDO
100
AcDbLine
 62
250
  6
CONTINUOUS
 10
-21.8203823013
 20
21.5000816771
 11
-21.7851169051
 21
21.4648162809
  0
LINE
  5
4A4
100
AcDbEntity
  8
RACCORDO
100
AcDbLine
 62
250
  6
CONTINUOUS
 10
13.2577446145
 20
-13.5780452387
 11
13.2224792184
 21
-13.5427798426
  0
LINE
  5
4A5
100
AcDbEntity
  8
RACCORDO
100
AcDbLine
 62
250
  6
CONTINUOUS
 10
-26.2851169051
 20
23.9584385034
 11
-25.9864622885
 21
23.6596596819
  0
LWPOLYLINE
  5
4A6
100
AcDbEntity
  8
0
100
AcDbPolyline
 62
7
  6
CONTINUOUS
 90
36
 70
0
 10
-14.9484973679
 20
12.525735581
 10
-14.9026163713
 20
12.477314394
 10
-14.8546504141
 20
12.4345001876
 10
-14.8045994964
 20
12.397292962
 10
-14.7527041834
 20
12.3658307841
 10
-14.6987239098
 20
12.3399755869
 10
-14.6419369798
 20
12.3193131693
 10
-14.5812541761
 20
12.3036598079
 10
-14.5177647161
 20
12.293199226
 10
-14.4540145553
 20
12.2880683929
 10
-14.3897531526
 20
12.2883822292
 10
-14.3252310492
 20
12.2940258143
 10
-14.2637458242
 20
12.3047913556
 10
-14.2063705364
 20
12.3208087698
 10
-14.152032127
 20
12.3419481402
 10
-14.1008089987
 20
12.3676119236
 10
-14.0527254588
 20
12.3975062149
 10
-14.0077572001
 20
12.4319249193
 10
-13.9659097039
 20
12.4711522091
 10
-13.9269958141
 20
12.5151974405
 10
-13.8912026868
 20
12.5640512574
 10
-13.8590972725
 20
12.617969764
 10
-13.8302055463
 20
12.6778288059
 10
-13.805001533
 20
12.7427525375
 10
-13.7854742567
 20
12.8103695267
 10
-13.772268029
 20
12.8812403801
 10
-13.7647385383
 20
12.9548044911
 10
-13.7629418742
 20
13.0270086077
 10
-13.7671280195
 20
13.0973921759
 10
-13.7770469915
 20
13.1664157497
 10
-13.7920049315
 20
13.2314077387
 10
-13.8118098178
 20
13.2912033405
 10
-13.8366536722
 20
13.3469673576
 10
-13.8664187014
 20
13.3995226066
 10
-13.9017150938
 20
13.4496501447
 10
-13.9419326611
 20
13.4965689147
  0
LWPOLYLINE
  5
4A7
100
AcDbEntity
  8
0
100
AcDbPolyline
 62
7
  6
CONTINUOUS
 90
10
 70
0
 10
-14.1539963497
 20
14.1147377147
 10
-14.1389647964
 20
14.096347535
 10
-14.1250018057
 20
14.076330771
 10
-14.1121073775
 20
14.0546874227
 10
-14.1003255713
 20
14.0313005251
 10
-14.0896123277
 20
14.0062870432
 10
-14.0798354681
 20
13.9799978718
 10
-14.0709509331
 20
13.952549976
 10
-14.0630027823
 20
13.9238263907
 10
-14.0559910154
 20
13.8938271161
  0
LINE
  5
4A8
100
AcDbEntity
  8
0
100
AcDbLine
 62
7
  6
CONTINUOUS
 10
-6.7970181734
 20
12.3257407953
 11
-7.6396255515
 21
14.4292712256
  0
LINE
  5
4A9
100
AcDbEntity
  8
0
100
AcDbLine
 62
7
  6
CONTINUOUS
 10
-7.6410199585
 20
13.7707228452
 11
-7.414531732
 21
13.192650306
  0
LINE
  5
4AA
100
AcDbEntity
  8
0
100
AcDbLine
 62
7
  6
CONTINUOUS
 10
-7.32987267
 20
12.963174259
 11
-7.0952175916
 21
12.3257407953
  0
LWPOLYLINE
  5
4AB
100
AcDbEntity
  8
0
100
AcDbPolyline
 62
7
  6
CONTINUOUS
 90
17
 70
0
 10
-7.9858364215
 20
16.0367105402
 10
-7.9565150861
 20
15.9493145163
 10
-7.9229537078
 20
15.8681778961
 10
-7.8848468403
 20
15.7930402771
 10
-7.8431120264
 20
15.7244491003
 10
-7.7977429822
 20
15.6627189954
 10
-7.7487459917
 20
15.6075353329
 10
-7.6970574495
 20
15.5585016644
 10
-7.643681973
 20
15.5159822033
 10
-7.5876149448
 20
15.4796127362
 10
-7.5267789076
 20
15.4479041755
 10
-7.4605067904
 20
15.4202687852
 10
-7.3894656642
 20
15.3972943013
 10
-7.3135792847
 20
15.3792548436
 10
-7.2328222373
 20
15.3662417855
 10
-7.1472199367
 20
15.3581637538
 10
-7.0567723828
 20
15.3550207483
  0
LWPOLYLINE
  5
4AC
100
AcDbEntity
  8
0
100
AcDbPolyline
 62
7
  6
CONTINUOUS
 90
39
 70
0
 10
-6.2360769199
 20
16.9191232436
 10
-6.262814487
 20
16.9992569762
 10
-6.2939980262
 20
17.0735920105
 10
-6.3296275372
 20
17.1421283465
 10
-6.3699624673
 20
17.2047305646
 10
-6.4147433694
 20
17.2615340845
 10
-6.4631919021
 20
17.3129451642
 10
-6.5149486535
 20
17.3590397215
 10
-6.5703730356
 20
17.3997418387
 10
-6.6297649431
 20
17.4352300206
 10
-6.6929781578
 20
17.4657152851
 10
-6.7601588979
 20
17.4909866143
 10
-6.832045713
 20
17.5105894597
 10
-6.9099270333
 20
17.52465458
 10
-6.9925144286
 20
17.5330512166
 10
-7.0766811575
 20
17.5349325442
 10
-7.1628901047
 20
17.5300318083
 10
-7.2506783855
 20
17.5186157636
 10
-7.3355306048
 20
17.5006378486
 10
-7.416727357
 20
17.4755470702
 10
-7.4949880476
 20
17.4438944216
 10
-7.5679554978
 20
17.4072863208
 10
-7.6347236401
 20
17.3662196444
 10
-7.696198542
 20
17.3201975158
 10
-7.7527412275
 20
17.2693357226
 10
-7.8042306262
 20
17.21426867
 10
-7.8507878084
 20
17.1543619528
 10
-7.8931370094
 20
17.0878281425
 10
-7.9321205673
 20
17.0139536862
 10
-7.966896144
 20
16.9334521369
 10
-7.9956609602
 20
16.846676725
 10
-8.0181625925
 20
16.7525158851
 10
-8.0346534642
 20
16.6520811826
 10
-8.0440880661
 20
16.5490605446
 10
-8.0458922619
 20
16.4422645169
 10
-8.0406401879
 20
16.3328825537
 10
-8.0290087433
 20
16.2281709431
 10
-8.0106122676
 20
16.1301055653
 10
-7.9858364215
 20
16.0367105402
  0
LWPOLYLINE
  5
4AD
100
AcDbEntity
  8
0
100
AcDbPolyline
 62
7
  6
CONTINUOUS
 90
19
 70
0
 10
-0.6443909388
 20
13.842832439
 10
-0.6501321519
 20
13.9061851525
 10
-0.6605608299
 20
13.9663179044
 10
-0.6756769727
 20
14.0232306944
 10
-0.6956851484
 20
14.0769614901
 10
-0.7203807889
 20
14.1274723239
 10
-0.7491501906
 20
14.174649294
 10
-0.7816360662
 20
14.2184549167
 10
-0.8181957029
 20
14.2589266756
 10
-0.859287259
 20
14.2960631187
 10
-0.9049699631
 20
14.3299354702
 10
-0.9551845865
 20
14.3604725059
 10
-1.0102116008
 20
14.3874591014
 10
-1.070425415
 20
14.411078065
 10
-1.1354516201
 20
14.4311465883
 10
-1.2044474599
 20
14.4469011217
 10
-1.2771320158
 20
14.4580871488
 10
-1.3537862065
 20
14.464959186
 10
-1.4344100318
 20
14.4675172334
  0
LINE
  5
4AE
100
AcDbEntity
  8
0
100
AcDbLine
 62
7
  6
CONTINUOUS
 10
0.324507926
 20
14.1870465094
 11
0.324507926
 21
12.3257407953
  0
LINE
  5
4AF
100
AcDbEntity
  8
0
100
AcDbLine
 62
7
  6
CONTINUOUS
 10
0.6049786501
 20
12.3257407953
 11
0.6049786501
 21
14.1870465094
  0
LINE
  5
4B0
100
AcDbEntity
  8
0
100
AcDbLine
 62
7
  6
CONTINUOUS
 10
1.2934067909
 20
14.1870465094
 11
1.2934067909
 21
14.4292712256
  0
LINE
  5
4B1
100
AcDbEntity
  8
0
100
AcDbLine
 62
7
  6
CONTINUOUS
 10
1.6121235227
 20
14.4292712256
 11
1.6121235227
 21
12.3257407953
  0
LINE
  5
4B2
100
AcDbEntity
  8
0
100
AcDbLine
 62
7
  6
CONTINUOUS
 10
1.8925942468
 20
12.3257407953
 11
1.8925942468
 21
14.4292712256
  0
LWPOLYLINE
  5
4B3
100
AcDbEntity
  8
RACCORDO
100
AcDbPolyline
 62
250
  6
CONTINUOUS
 90
25
 70
0
 10
-0.3674735739
 20
-24.2116415197
 10
-0.3717924825
 20
-24.3424288234
 10
-0.3846516167
 20
-24.4726344176
 10
-0.4059928664
 20
-24.6017020498
 10
-0.4357203219
 20
-24.7290762153
 10
-0.4737048875
 20
-24.8542177971
 10
-0.5197879065
 20
-24.9766054605
 10
-0.5737753521
 20
-25.0957221127
 10
-0.6354340752
 20
-25.21105249
 10
-0.7044980691
 20
-25.3220985289
 10
-0.7806693561
 20
-25.4283834012
 10
-0.8636230189
 20
-25.5294563639
 10
-0.9530070643
 20
-25.6248889047
 10
-1.0484395723
 20
-25.7142730175
 10
-1.149512521
 20
-25.7972267589
 10
-1.2557973666
 20
-25.8733981102
 10
-1.3668433525
 20
-25.9424621514
 10
-1.4821736586
 20
-26.0041209158
 10
-1.601290217
 20
-26.0581083997
 10
-1.7236776874
 20
-26.104191433
 10
-1.848819049
 20
-26.1421760295
 10
-1.9761932005
 20
-26.1719035841
 10
-2.1052611122
 20
-26.193244971
 10
-2.2354672063
 20
-26.2061042182
 10
-2.366255228
 20
-26.2104231738
  0
LWPOLYLINE
  5
4B4
100
AcDbEntity
  8
RACCORDO
100
AcDbPolyline
 62
250
  6
CONTINUOUS
 90
25
 70
0
 10
-0.8671689874
 20
-24.2116415197
 10
-0.8704449712
 20
-24.3101408961
 10
-0.8800050803
 20
-24.4074689997
 10
-0.8958493147
 20
-24.5036258306
 10
-0.9180986959
 20
-24.5990384118
 10
-0.9466322024
 20
-24.6932797202
 10
-0.98108677
 20
-24.7850686872
 10
-1.0215385766
 20
-24.8743486405
 10
-1.0679114443
 20
-24.9611762523
 10
-1.1196137747
 20
-25.0444404702
 10
-1.1767134714
 20
-25.124094026
 10
-1.2391426308
 20
-25.200184188
 10
-1.3061059449
 20
-25.2717417083
 10
-1.3776617661
 20
-25.3387091592
 10
-1.4537517419
 20
-25.4011439685
 10
-1.5334055063
 20
-25.4582491716
 10
-1.6166700002
 20
-25.5099563787
 10
-1.7034982827
 20
-25.5563339797
 10
-1.7927791647
 20
-25.5967901798
 10
-1.8845678585
 20
-25.6312486997
 10
-1.9788091517
 20
-25.6597858187
 10
-2.074226218
 20
-25.68203858
 10
-2.1703934483
 20
-25.6978859978
 10
-2.2677364517
 20
-25.7074490579
 10
-2.366255228
 20
-25.7107277603
  0
LWPOLYLINE
  5
4B5
100
AcDbEntity
  8
0
100
AcDbPolyline
 62
7
  6
CONTINUOUS
 90
40
 70
0
 10
3.8813866536
 20
13.0639686018
 10
3.8632242128
 20
12.995611459
 10
3.8416330364
 20
12.9319528279
 10
3.8166131241
 20
12.8729927085
 10
3.7880090425
 20
12.8186843003
 10
3.7559762251
 20
12.7690744038
 10
3.7209809732
 20
12.7243034207
 10
3.6833187417
 20
12.6845854839
 10
3.6426940758
 20
12.6497064604
 10
3.5986869118
 20
12.619164353
 10
3.5511248718
 20
12.5926535808
 10
3.5001803337
 20
12.5704797246
 10
3.4459503688
 20
12.5530575294
 10
3.3877075931
 20
12.5402669884
 10
3.3261793906
 20
12.5322281084
 10
3.2636449833
 20
12.5297156548
 10
3.1996176108
 20
12.5331618703
 10
3.1345840335
 20
12.5421345123
 10
3.0722837556
 20
12.5561116176
 10
3.0134800815
 20
12.5753083975
 10
2.9574097067
 20
12.5995096409
 10
2.9055222227
 20
12.6275477513
 10
2.8583591911
 20
12.6590515882
 10
2.8153790502
 20
12.6943922921
 10
2.7764067058
 20
12.7335156877
 10
2.7416098645
 20
12.7763425385
 10
2.7108208196
 20
12.8229520809
 10
2.6833613571
 20
12.8735278495
 10
2.6590292378
 20
12.9282347576
 10
2.6380267008
 20
12.9869078918
 10
2.6202822493
 20
13.0492360464
 10
2.6056779905
 20
13.1154977148
 10
2.5943318173
 20
13.1854144036
 10
2.5865259108
 20
13.2578394269
 10
2.5821804882
 20
13.3336987404
 10
2.5813753325
 20
13.4120663884
 10
2.5846319731
 20
13.4890178179
 10
2.592335126
 20
13.5640955324
 10
2.6041000752
 20
13.6377570285
 10
2.6192942028
 20
13.7074502424
  0
LINE
  5
4B6
100
AcDbEntity
  8
0
100
AcDbLine
 62
7
  6
CONTINUOUS
 10
4.5698147944
 20
12.3257407953
 11
4.791522197
 21
12.963174259
  0
LINE
  5
4B7
100
AcDbEntity
  8
0
100
AcDbLine
 62
7
  6
CONTINUOUS
 10
4.8714006296
 20
13.192650306
 11
5.0986854656
 21
13.8067776421
  0
LINE
  5
4B8
100
AcDbEntity
  8
RACCORDO
100
AcDbLine
 62
7
  6
CONTINUOUS
 10
-7.3442169774
 20
-15.9912076752
 11
-7.2030648228
 21
-15.7450389854
  0
LINE
  5
4B9
100
AcDbEntity
  8
0
100
AcDbLine
 62
7
  6
CONTINUOUS
 10
-15.2109179051
 20
0.4588851574
 11
-14.9738029051
 21
0.4588851574
  0
LINE
  5
4BA
100
AcDbEntity
  8
0
100
AcDbLine
 62
7
  6
CONTINUOUS
 10
-14.8552439051
 20
0.4984061574
 11
-13.5399949051
 21
0.4984061574
  0
LINE
  5
4BB
100
AcDbEntity
  8
0
100
AcDbLine
 62
7
  6
CONTINUOUS
 10
-13.539994585
 20
0.5774441574
 11
-15.2570509051
 21
0.5774441574
  0
LINE
  5
4BC
100
AcDbEntity
  8
RACCORDO
100
AcDbLine
 62
7
  6
CONTINUOUS
 10
16.4171422377
 20
1.529124233
 11
14.5367871705
 21
1.529124233
  0
LINE
  5
4BD
100
AcDbEntity
  8
RACCORDO
100
AcDbLine
 62
7
  6
CONTINUOUS
 10
-22.6070209807
 20
1.529124233
 11
-24.487376048
 21
1.529124233
  0
LINE
  5
4BE
100
AcDbEntity
  8
RACCORDO
100
AcDbLine
 62
7
  6
CONTINUOUS
 10
-24.005445977
 20
1.5815053873
 11
-22.659402135
 21
1.5815053873
  0
LINE
  5
4BF
100
AcDbEntity
  8
RACCORDO
100
AcDbLine
 62
7
  6
CONTINUOUS
 10
15.9352121668
 20
1.5815053873
 11
14.5891683247
 21
1.5815053873
  0
LINE
  5
4C0
100
AcDbEntity
  8
0
100
AcDbLine
 62
7
  6
CONTINUOUS
 10
16.5437713244
 20
1.7072201574
 11
15.9648830949
 21
1.7072201574
  0
LINE
  5
4C1
100
AcDbEntity
  8
0
100
AcDbLine
 62
7
  6
CONTINUOUS
 10
-24.0351169051
 20
1.7072201574
 11
-24.6140051346
 21
1.7072201574
  0
LINE
  5
4C2
100
AcDbEntity
  8
RACCORDO
100
AcDbLine
 62
250
  6
CONTINUOUS
 10
-24.2863352511
 20
25.9572201574
 11
-23.9875538473
 21
25.6585655408
  0
LINE
  5
4C3
100
AcDbEntity
  8
RACCORDO
100
AcDbLine
 62
250
  6
CONTINUOUS
 10
-21.3279784248
 20
21.9924855536
 11
-21.2927130286
 21
21.9572201574
  0
LINE
  5
4C4
100
AcDbEntity
  8
RACCORDO
100
AcDbLine
 62
250
  6
CONTINUOUS
 10
13.750148491
 20
-13.0856413622
 11
13.7148830949
 21
-13.0503759661
  0
LINE
  5
4C5
100
AcDbEntity
  8
RACCORDO
100
AcDbLine
 62
250
  6
CONTINUOUS
 10
18.2148830949
 20
-15.5439981885
 11
17.9162284783
 21
-15.2452193671
  0
LWPOLYLINE
  5
4C6
100
AcDbEntity
  8
0
100
AcDbPolyline
 62
7
  6
CONTINUOUS
 90
10
 70
0
 10
-11.1953092676
 20
19.0454388891
 10
-11.2188028014
 20
19.0802214132
 10
-11.2426223867
 20
19.1140025017
 10
-11.2667680237
 20
19.1467821547
 10
-11.2912499807
 20
19.178586429
 10
-11.3160579894
 20
19.2093892677
 10
-11.3411612443
 20
19.2391125004
 10
-11.3665494771
 20
19.2677300703
 10
-11.3922329562
 20
19.2952680342
 10
-11.4182116816
 20
19.3217263922
  0
LINE
  5
4C7
100
AcDbEntity
  8
0
100
AcDbLine
 62
7
  6
CONTINUOUS
 10
-11.4431114172
 20
18.9107809604
 11
-11.1674215171
 21
18.4735413861
  0
LINE
  5
4C8
100
AcDbEntity
  8
0
100
AcDbLine
 62
7
  6
CONTINUOUS
 10
-5.3287299959
 20
12.7629803696
 11
-5.0530400958
 21
12.3257407953
  0
LINE
  5
4C9
100
AcDbEntity
  8
0
100
AcDbLine
 62
7
  6
CONTINUOUS
 10
-10.8379481259
 20
18.4735413861
 11
-11.1953092676
 21
19.0454388891
  0
LINE
  5
4CA
100
AcDbEntity
  8
0
100
AcDbLine
 62
7
  6
CONTINUOUS
 10
-4.6604209612
 20
19.1109748499
 11
-4.4257658829
 21
18.4735413861
  0
LWPOLYLINE
  5
4CB
100
AcDbEntity
  8
0
100
AcDbPolyline
 62
7
  6
CONTINUOUS
 90
10
 70
0
 10
-5.1205682611
 20
20.3603444388
 10
-5.1061403859
 20
20.3123636399
 10
-5.0911395992
 20
20.264106997
 10
-5.0755659009
 20
20.2155745102
 10
-5.0593646362
 20
20.1667685286
 10
-5.04259046
 20
20.1176867031
 10
-5.0254073368
 20
20.0683219859
 10
-5.0078699214
 20
20.0186720277
 10
-4.9899235591
 20
19.9687391778
 10
-4.9715682497
 20
19.9185234361
  0
LINE
  5
4CC
100
AcDbEntity
  8
0
100
AcDbLine
 62
7
  6
CONTINUOUS
 10
2.866472942
 20
16.980476178
 11
2.866472942
 21
16.7302836165
  0
LINE
  5
4CD
100
AcDbEntity
  8
0
100
AcDbLine
 62
7
  6
CONTINUOUS
 10
3.3891683823
 20
17.0422275144
 11
3.3891683823
 21
15.3932667561
  0
LINE
  5
4CE
100
AcDbEntity
  8
0
100
AcDbLine
 62
7
  6
CONTINUOUS
 10
3.6441417678
 20
15.3932667561
 11
3.6441417678
 21
17.5095458556
  0
LINE
  5
4CF
100
AcDbEntity
  8
0
100
AcDbLine
 62
7
  6
CONTINUOUS
 10
4.2178318851
 20
16.132689574
 11
4.2178318851
 21
15.8904648578
  0
LWPOLYLINE
  5
4D0
100
AcDbEntity
  8
0
100
AcDbPolyline
 62
7
  6
CONTINUOUS
 90
9
 70
0
 10
8.1319957609
 20
12.8662745982
 10
8.1178251914
 20
12.8276804359
 10
8.1041017187
 20
12.7892260534
 10
8.090827984
 20
12.750905668
 10
8.078001346
 20
12.7127250626
 10
8.0656138809
 20
12.6747015856
 10
8.0536629475
 20
12.63684102
 10
8.0421511871
 20
12.5991375828
 10
8.0310785997
 20
12.5615912741
  0
LINE
  5
4D1
100
AcDbEntity
  8
0
100
AcDbLine
 62
7
  6
CONTINUOUS
 10
8.7258809778
 20
14.4292712256
 11
8.1319957609
 21
12.8662745982
  0
LINE
  5
4D2
100
AcDbEntity
  8
0
100
AcDbLine
 62
7
  6
CONTINUOUS
 10
8.1868514449
 20
12.3257407953
 11
9.025873205
 21
14.4292712256
  0
LINE
  5
4D3
100
AcDbEntity
  8
RACCORDO
100
AcDbLine
 62
250
  6
CONTINUOUS
 10
24.883744772
 20
20.8748634886
 11
24.9192749002
 21
20.9103936167
  0
LINE
  5
4D4
100
AcDbEntity
  8
RACCORDO
100
AcDbLine
 62
250
  6
CONTINUOUS
 10
19.4179968001
 20
12.1103034017
 11
19.5149135558
 21
12.2072201574
  0
LINE
  5
4D5
100
AcDbEntity
  8
0
100
AcDbLine
 62
7
  6
CONTINUOUS
 10
-14.5488689051
 20
4.2527441574
 11
-13.1656909051
 21
4.2527441574
  0
LINE
  5
4D6
100
AcDbEntity
  8
0
100
AcDbLine
 62
7
  6
CONTINUOUS
 10
-13.2447299051
 20
4.3317831574
 11
-14.4698299051
 21
4.3317831574
  0
LINE
  5
4D7
100
AcDbEntity
  8
0
100
AcDbLine
 62
7
  6
CONTINUOUS
 10
-14.4698299051
 20
4.5689001574
 11
-13.2447299051
 21
4.5689001574
  0
LINE
  5
4D8
100
AcDbEntity
  8
0
100
AcDbLine
 62
7
  6
CONTINUOUS
 10
-12.4106159051
 20
4.6479381574
 11
-11.7034749051
 21
4.6479381574
  0
LINE
  5
4D9
100
AcDbEntity
  8
0
100
AcDbLine
 62
7
  6
CONTINUOUS
 10
-13.1656909051
 20
4.6479381574
 11
-14.5488689051
 21
4.6479381574
  0
LINE
  5
4DA
100
AcDbEntity
  8
0
100
AcDbLine
 62
7
  6
CONTINUOUS
 10
-11.7825139051
 20
4.7269771574
 11
-12.4035829051
 21
4.7269771574
  0
LWPOLYLINE
  5
4DB
100
AcDbEntity
  8
0
100
AcDbPolyline
 62
7
  6
CONTINUOUS
 90
10
 70
0
 10
-5.0809278463
 20
12.8976382982
 10
-5.1044213801
 20
12.9324208223
 10
-5.1282409654
 20
12.9662019109
 10
-5.1523866024
 20
12.9989815639
 10
-5.1768685594
 20
13.0307858381
 10
-5.2016765681
 20
13.0615886768
 10
-5.226779823
 20
13.0913119095
 10
-5.2521680558
 20
13.1199294795
 10
-5.2778515349
 20
13.1474674434
 10
-5.3038302603
 20
13.1739258013
  0
LINE
  5
4DC
100
AcDbEntity
  8
0
100
AcDbLine
 62
7
  6
CONTINUOUS
 10
-4.7235667046
 20
12.3257407953
 11
-5.0809278463
 21
12.8976382982
  0
LINE
  5
4DD
100
AcDbEntity
  8
0
100
AcDbLine
 62
7
  6
CONTINUOUS
 10
-4.1275664647
 20
18.4735413861
 11
-4.9701738428
 21
20.5770718164
  0
LINE
  5
4DE
100
AcDbEntity
  8
0
100
AcDbLine
 62
7
  6
CONTINUOUS
 10
-4.9715682497
 20
19.9185234361
 11
-4.7450800232
 21
19.3404508968
  0
LINE
  5
4DF
100
AcDbEntity
  8
0
100
AcDbLine
 62
7
  6
CONTINUOUS
 10
5.1484847421
 20
17.0713104709
 11
5.1484847421
 21
16.132689574
  0
LINE
  5
4E0
100
AcDbEntity
  8
0
100
AcDbLine
 62
7
  6
CONTINUOUS
 10
5.1484847421
 20
15.8904648578
 11
5.1484847421
 21
15.3932667561
  0
LINE
  5
4E1
100
AcDbEntity
  8
0
100
AcDbLine
 62
7
  6
CONTINUOUS
 10
5.4034581276
 20
15.3932667561
 11
5.4034581276
 21
15.8904648578
  0
LINE
  5
4E2
100
AcDbEntity
  8
0
100
AcDbLine
 62
7
  6
CONTINUOUS
 10
5.4034581276
 20
16.132689574
 11
5.4034581276
 21
17.4967971864
  0
LINE
  5
4E3
100
AcDbEntity
  8
0
100
AcDbLine
 62
7
  6
CONTINUOUS
 10
5.6839288517
 20
15.8904648578
 11
5.6839288517
 21
16.132689574
  0
LINE
  5
4E4
100
AcDbEntity
  8
RACCORDO
100
AcDbLine
 62
250
  6
CONTINUOUS
 10
19.6179663391
 20
11.9103338626
 11
19.7148830949
 21
12.0072506184
  0
LINE
  5
4E5
100
AcDbEntity
  8
RACCORDO
100
AcDbLine
 62
250
  6
CONTINUOUS
 10
26.8825264261
 20
18.8760818346
 11
26.9180565542
 21
18.9116119627
  0
LINE
  5
4E6
100
AcDbEntity
  8
0
100
AcDbLine
 62
7
  6
CONTINUOUS
 10
18.2148830949
 20
8.9572201574
 11
18.1325604208
 21
8.8748974833
  0
LINE
  5
4E7
100
AcDbEntity
  8
RACCORDO
100
AcDbLine
 62
7
  6
CONTINUOUS
 10
18.0329294783
 20
8.7752665409
 11
18.1325604208
 21
8.8748974833
  0
LINE
  5
4E8
100
AcDbEntity
  8
0
100
AcDbLine
 62
7
  6
CONTINUOUS
 10
-7.9303545966
 20
-17.4380175341
 11
-7.7382903644
 21
-17.2459533019
  0
LINE
  5
4E9
100
AcDbEntity
  8
RACCORDO
100
AcDbLine
 62
7
  6
CONTINUOUS
 10
-7.7364622885
 20
-17.244125226
 11
-7.7382903644
 21
-17.2459533019
  0
LINE
  5
4EA
100
AcDbEntity
  8
RACCORDO
100
AcDbLine
 62
7
  6
CONTINUOUS
 10
19.6257099473
 20
9.1180470098
 11
19.7148830949
 21
9.2072201574
  0
LINE
  5
4EB
100
AcDbEntity
  8
0
100
AcDbLine
 62
7
  6
CONTINUOUS
 10
-12.5729009051
 20
5.4383241574
 11
-12.4208069051
 21
5.4383241574
  0
LINE
  5
4EC
100
AcDbEntity
  8
0
100
AcDbLine
 62
7
  6
CONTINUOUS
 10
-12.3414659051
 20
5.4383241574
 11
-11.9157899051
 21
5.4383241574
  0
LINE
  5
4ED
100
AcDbEntity
  8
0
100
AcDbLine
 62
7
  6
CONTINUOUS
 10
-11.8367499051
 20
5.5173641574
 11
-12.3345509051
 21
5.5173641574
  0
LINE
  5
4EE
100
AcDbEntity
  8
0
100
AcDbLine
 62
7
  6
CONTINUOUS
 10
-12.4138919051
 20
5.5173641574
 11
-12.6519399051
 21
5.5173641574
  0
LINE
  5
4EF
100
AcDbEntity
  8
0
100
AcDbLine
 62
7
  6
CONTINUOUS
 10
-16.4457969051
 20
5.8335181574
 11
-15.7962389051
 21
5.8335181574
  0
LINE
  5
4F0
100
AcDbEntity
  8
0
100
AcDbLine
 62
7
  6
CONTINUOUS
 10
-15.7168969051
 20
5.8335181574
 11
-12.3862309051
 21
5.8335181574
  0
LINE
  5
4F1
100
AcDbEntity
  8
0
100
AcDbLine
 62
7
  6
CONTINUOUS
 10
-12.3068909051
 20
5.8335181574
 11
-12.0591499051
 21
5.8335181574
  0
LINE
  5
4F2
100
AcDbEntity
  8
0
100
AcDbLine
 62
7
  6
CONTINUOUS
 10
-12.6035257333
 20
6.1496731574
 11
-15.2206979051
 21
6.1496731574
  0
LINE
  5
4F3
100
AcDbEntity
  8
0
100
AcDbLine
 62
7
  6
CONTINUOUS
 10
-15.6158919051
 20
6.1496731574
 11
-15.7445569051
 21
6.1496731574
  0
LINE
  5
4F4
100
AcDbEntity
  8
0
100
AcDbLine
 62
7
  6
CONTINUOUS
 10
-15.8238979051
 20
6.1496731574
 11
-16.4457969051
 21
6.1496731574
  0
LINE
  5
4F5
100
AcDbEntity
  8
0
100
AcDbLine
 62
7
  6
CONTINUOUS
 10
-15.2997369051
 20
6.2287131574
 11
-15.5368519051
 21
6.2287131574
  0
LINE
  5
4F6
100
AcDbEntity
  8
0
100
AcDbLine
 62
7
  6
CONTINUOUS
 10
-14.3907909051
 20
6.4658291574
 11
-13.3237679051
 21
6.4658291574
  0
LINE
  5
4F7
100
AcDbEntity
  8
0
100
AcDbLine
 62
7
  6
CONTINUOUS
 10
-13.4028079051
 20
6.5448671574
 11
-14.3117529051
 21
6.5448671574
  0
LINE
  5
4F8
100
AcDbEntity
  8
0
100
AcDbLine
 62
7
  6
CONTINUOUS
 10
16.5437713244
 20
6.7072201574
 11
15.9648830949
 21
6.7072201574
  0
LINE
  5
4F9
100
AcDbEntity
  8
0
100
AcDbLine
 62
7
  6
CONTINUOUS
 10
-24.0351169051
 20
6.7072201574
 11
-24.6140051346
 21
6.7072201574
  0
LINE
  5
4FA
100
AcDbEntity
  8
0
100
AcDbLine
 62
7
  6
CONTINUOUS
 10
-15.5368519051
 20
6.7424631574
 11
-15.2997369051
 21
6.7424631574
  0
LINE
  5
4FB
100
AcDbEntity
  8
0
100
AcDbLine
 62
7
  6
CONTINUOUS
 10
-15.2206979051
 20
6.8215031574
 11
-15.6158919051
 21
6.8215031574
  0
LINE
  5
4FC
100
AcDbEntity
  8
RACCORDO
100
AcDbLine
 62
7
  6
CONTINUOUS
 10
-24.005445977
 20
6.8329349276
 11
-22.659402135
 21
6.8329349276
  0
LINE
  5
4FD
100
AcDbEntity
  8
RACCORDO
100
AcDbLine
 62
7
  6
CONTINUOUS
 10
15.9352121668
 20
6.8329349276
 11
14.5891683247
 21
6.8329349276
  0
LINE
  5
4FE
100
AcDbEntity
  8
0
100
AcDbLine
 62
7
  6
CONTINUOUS
 10
-14.3117529051
 20
6.8610221574
 11
-13.4028079051
 21
6.8610221574
  0
LINE
  5
4FF
100
AcDbEntity
  8
RACCORDO
100
AcDbLine
 62
7
  6
CONTINUOUS
 10
-24.487376048
 20
6.8853160818
 11
-22.6070209807
 21
6.8853160818
  0
LINE
  5
500
100
AcDbEntity
  8
RACCORDO
100
AcDbLine
 62
7
  6
CONTINUOUS
 10
14.5367871705
 20
6.8853160818
 11
16.4171422377
 21
6.8853160818
  0
LINE
  5
501
100
AcDbEntity
  8
0
100
AcDbLine
 62
7
  6
CONTINUOUS
 10
-13.3237679051
 20
6.9400611574
 11
-14.3907909051
 21
6.9400611574
  0
LWPOLYLINE
  5
502
100
AcDbEntity
  8
0
100
AcDbPolyline
 62
7
  6
CONTINUOUS
 90
10
 70
0
 10
-5.3038302603
 20
13.1739258013
 10
-5.3184734047
 20
13.1872542907
 10
-5.3339371921
 20
13.200230972
 10
-5.3502216225
 20
13.2128558453
 10
-5.3673776431
 20
13.2251039523
 10
-5.3853543066
 20
13.2370002513
 10
-5.4039987715
 20
13.2486196172
 10
-5.4232600904
 20
13.2599870082
 10
-5.4431892105
 20
13.2710774661
 10
-5.463786132
 20
13.2818909909
  0
LWPOLYLINE
  5
503
100
AcDbEntity
  8
0
100
AcDbPolyline
 62
7
  6
CONTINUOUS
 90
10
 70
0
 10
-11.4182116816
 20
19.3217263922
 10
-11.432854826
 20
19.3350548815
 10
-11.4483186134
 20
19.3480315628
 10
-11.4646030438
 20
19.3606564362
 10
-11.4817590644
 20
19.3729045432
 10
-11.4997357279
 20
19.3848008422
 10
-11.5183801928
 20
19.396420208
 10
-11.5376415117
 20
19.4077875991
 10
-11.5575706318
 20
19.418878057
 10
-11.5781675533
 20
19.4296915817
  0
LWPOLYLINE
  5
504
100
AcDbEntity
  8
0
100
AcDbPolyline
 62
7
  6
CONTINUOUS
 90
25
 70
0
 10
-9.394559684
 20
19.866333553
 10
-9.4149064797
 20
19.8871872561
 10
-9.4322820274
 20
19.9098134643
 10
-9.446686327
 20
19.9342121778
 10
-9.4581937172
 20
19.9606312553
 10
-9.4667298593
 20
19.9888228381
 10
-9.4720717376
 20
20.0180433496
 10
-9.4742260588
 20
20.0486171742
 10
-9.4731861161
 20
20.0802199277
 10
-9.4687087731
 20
20.1111348805
 10
-9.4607370818
 20
20.1409551399
 10
-9.4493279902
 20
20.1700875986
 10
-9.4344092065
 20
20.1980362055
 10
-9.4159505947
 20
20.2249506
 10
-9.3939822908
 20
20.2506811426
 10
-9.3685224106
 20
20.2742828635
 10
-9.3394036824
 20
20.2956378928
 10
-9.3067933778
 20
20.3148641004
 10
-9.2712114286
 20
20.331370126
 10
-9.2325578819
 20
20.3449220581
 10
-9.1909326904
 20
20.3557538081
 10
-9.1471556439
 20
20.3639757507
 10
-9.1015000056
 20
20.3696246773
 10
-9.0536925123
 20
20.3726637964
 10
-9.0037331639
 20
20.373093108
  0
LINE
  5
505
100
AcDbEntity
  8
0
100
AcDbLine
 62
7
  6
CONTINUOUS
 10
-3.5971023801
 20
17.0065711196
 11
-2.5439426607
 21
15.3932667561
  0
LINE
  5
506
100
AcDbEntity
  8
0
100
AcDbLine
 62
7
  6
CONTINUOUS
 10
-2.526214161
 20
15.8834930174
 11
-3.5793736859
 21
17.4967971864
  0
LINE
  5
507
100
AcDbEntity
  8
0
100
AcDbLine
 62
7
  6
CONTINUOUS
 10
1.7240727323
 20
15.3932667561
 11
0.8814653542
 21
17.4967971864
  0
LINE
  5
508
100
AcDbEntity
  8
0
100
AcDbLine
 62
7
  6
CONTINUOUS
 10
0.8800709472
 20
16.838248806
 11
1.1065591737
 21
16.2601762667
  0
LINE
  5
509
100
AcDbEntity
  8
0
100
AcDbLine
 62
7
  6
CONTINUOUS
 10
1.1912182357
 20
16.0307002198
 11
1.425873314
 21
15.3932667561
  0
LWPOLYLINE
  5
50A
100
AcDbEntity
  8
0
100
AcDbPolyline
 62
7
  6
CONTINUOUS
 90
17
 70
0
 10
2.3611031989
 20
12.9691845794
 10
2.3904245343
 20
12.8817885556
 10
2.4239859126
 20
12.8006519353
 10
2.4620927801
 20
12.7255143163
 10
2.503827594
 20
12.6569231395
 10
2.5491966382
 20
12.5951930347
 10
2.5981936287
 20
12.5400093721
 10
2.6498821709
 20
12.4909757036
 10
2.7032576474
 20
12.4484562425
 10
2.7593246756
 20
12.4120867755
 10
2.8201607127
 20
12.3803782148
 10
2.88643283
 20
12.3527428245
 10
2.9574739562
 20
12.3297683405
 10
3.0333603357
 20
12.3117288828
 10
3.1141173831
 20
12.2987158247
 10
3.1997196837
 20
12.290637793
 10
3.2901672376
 20
12.2874947875
  0
LWPOLYLINE
  5
50B
100
AcDbEntity
  8
0
100
AcDbPolyline
 62
7
  6
CONTINUOUS
 90
10
 70
0
 10
0.7310709358
 20
17.2800698087
 10
0.745498811
 20
17.2320890098
 10
0.7604995977
 20
17.1838323669
 10
0.776073296
 20
17.1352998801
 10
0.7922745607
 20
17.0864938986
 10
0.8090487369
 20
17.0374120731
 10
0.8262318601
 20
16.9880473559
 10
0.8437692755
 20
16.9383973977
 10
0.8617156379
 20
16.8884645477
 10
0.8800709472
 20
16.838248806
  0
LINE
  5
50C
100
AcDbEntity
  8
0
100
AcDbLine
 62
7
  6
CONTINUOUS
 10
9.2613250874
 20
14.4292712256
 11
9.2613250874
 21
12.3257407953
  0
LINE
  5
50D
100
AcDbEntity
  8
0
100
AcDbLine
 62
7
  6
CONTINUOUS
 10
9.5417958114
 20
12.3257407953
 11
9.5417958114
 21
14.4292712256
  0
LINE
  5
50E
100
AcDbEntity
  8
DRAFT
100
AcDbLine
 62
7
  6
CONTINUOUS
 10
14.5891683247
 20
1.5815053873
 11
14.5367871705
 21
1.529124233
  0
LINE
  5
50F
100
AcDbEntity
  8
RACCORDO
100
AcDbLine
 62
250
  6
CONTINUOUS
 10
18.3126314585
 20
8.4754492928
 11
18.0228188627
 21
8.4754492928
  0
LINE
  5
510
100
AcDbEntity
  8
RACCORDO
100
AcDbLine
 62
250
  6
CONTINUOUS
 10
-26.0930526729
 20
8.4754492928
 11
-26.3828652687
 21
8.4754492928
  0
LINE
  5
511
100
AcDbEntity
  8
RACCORDO
100
AcDbLine
 62
250
  6
CONTINUOUS
 10
18.3121850968
 20
8.7752665409
 11
18.0329294783
 21
8.7752665409
  0
LINE
  5
512
100
AcDbEntity
  8
RACCORDO
100
AcDbLine
 62
250
  6
CONTINUOUS
 10
-26.1031632886
 20
8.7752665409
 11
-26.382418907
 21
8.7752665409
  0
LINE
  5
513
100
AcDbEntity
  8
RACCORDO
100
AcDbLine
 62
250
  6
CONTINUOUS
 10
18.3598210604
 20
9.1107603162
 11
19.5699451294
 21
9.1107603162
  0
LINE
  5
514
100
AcDbEntity
  8
RACCORDO
100
AcDbLine
 62
250
  6
CONTINUOUS
 10
-26.4300548706
 20
9.1107603162
 11
-27.6401789396
 21
9.1107603162
  0
LINE
  5
515
100
AcDbEntity
  8
0
100
AcDbLine
 62
7
  6
CONTINUOUS
 10
-20.0351169051
 20
9.2072201574
 11
-19.7546461811
 21
9.2072201574
  0
LINE
  5
516
100
AcDbEntity
  8
0
100
AcDbLine
 62
7
  6
CONTINUOUS
 10
-18.7220039699
 20
9.2072201574
 11
-18.4415332458
 21
9.2072201574
  0
LINE
  5
517
100
AcDbEntity
  8
0
100
AcDbLine
 62
7
  6
CONTINUOUS
 10
-17.7048990473
 20
9.2072201574
 11
-17.4088910346
 21
9.2072201574
  0
LINE
  5
518
100
AcDbEntity
  8
0
100
AcDbLine
 62
7
  6
CONTINUOUS
 10
-16.0575320915
 20
9.2072201574
 11
-15.7593326733
 21
9.2072201574
  0
LINE
  5
519
100
AcDbEntity
  8
0
100
AcDbLine
 62
7
  6
CONTINUOUS
 10
-15.5348366513
 20
9.2072201574
 11
-14.2089750467
 21
9.2072201574
  0
LINE
  5
51A
100
AcDbEntity
  8
0
100
AcDbLine
 62
7
  6
CONTINUOUS
 10
-13.3022259203
 20
9.2072201574
 11
-13.0217551962
 21
9.2072201574
  0
LINE
  5
51B
100
AcDbEntity
  8
0
100
AcDbLine
 62
7
  6
CONTINUOUS
 10
-14.2089750467
 20
9.4494448736
 11
-15.2543659272
 21
9.4494448736
  0
LINE
  5
51C
100
AcDbEntity
  8
0
100
AcDbLine
 62
7
  6
CONTINUOUS
 10
-17.187183632
 20
9.8446536211
 11
-16.2921871699
 21
9.8446536211
  0
LINE
  5
51D
100
AcDbEntity
  8
0
100
AcDbLine
 62
7
  6
CONTINUOUS
 10
-16.3768462318
 20
10.0741296681
 11
-17.1073051994
 21
10.0741296681
  0
LINE
  5
51E
100
AcDbEntity
  8
0
100
AcDbLine
 62
7
  6
CONTINUOUS
 10
18.1325604208
 20
8.8748974833
 11
18.3114990046
 21
8.8640744642
  0
LWPOLYLINE
  5
51F
100
AcDbEntity
  8
0
100
AcDbPolyline
 62
7
  6
CONTINUOUS
 90
25
 70
0
 10
-1.8140812961
 20
13.7185329622
 10
-1.8344280918
 20
13.7393866652
 10
-1.8518036395
 20
13.7620128735
 10
-1.8662079391
 20
13.786411587
 10
-1.8777153293
 20
13.8128306645
 10
-1.8862514715
 20
13.8410222472
 10
-1.8915933497
 20
13.8702427587
 10
-1.8937476709
 20
13.9008165834
 10
-1.8927077282
 20
13.9324193368
 10
-1.8882303853
 20
13.9633342896
 10
-1.8802586939
 20
13.993154549
 10
-1.8688496024
 20
14.0222870078
 10
-1.8539308186
 20
14.0502356147
 10
-1.8354722069
 20
14.0771500092
 10
-1.813503903
 20
14.1028805518
 10
-1.7880440228
 20
14.1264822727
 10
-1.7589252945
 20
14.147837302
 10
-1.72631499
 20
14.1670635096
 10
-1.6907330407
 20
14.1835695352
 10
-1.652079494
 20
14.1971214672
 10
-1.6104543026
 20
14.2079532173
 10
-1.5666772561
 20
14.2161751599
 10
-1.5210216178
 20
14.2218240865
 10
-1.4732141244
 20
14.2248632056
 10
-1.423254776
 20
14.2252925172
  0
LINE
  5
520
100
AcDbEntity
  8
0
100
AcDbLine
 62
7
  6
CONTINUOUS
 10
5.6865186592
 20
12.963174259
 11
5.9211737375
 21
12.3257407953
  0
LWPOLYLINE
  5
521
100
AcDbEntity
  8
0
100
AcDbPolyline
 62
7
  6
CONTINUOUS
 90
39
 70
0
 10
4.1108627005
 20
13.8515972828
 10
4.0841251333
 20
13.9317310155
 10
4.0529415942
 20
14.0060660497
 10
4.0173120832
 20
14.0746023857
 10
3.9769771531
 20
14.1372046039
 10
3.932196251
 20
14.1940081237
 10
3.8837477183
 20
14.2454192034
 10
3.8319909669
 20
14.2915137607
 10
3.7765665848
 20
14.3322158779
 10
3.7171746773
 20
14.3677040598
 10
3.6539614626
 20
14.3981893243
 10
3.5867807225
 20
14.4234606535
 10
3.5148939074
 20
14.4430634989
 10
3.4370125871
 20
14.4571286193
 10
3.3544251918
 20
14.4655252558
 10
3.2702584629
 20
14.4674065834
 10
3.1840495157
 20
14.4625058475
 10
3.0962612349
 20
14.4510898028
 10
3.0114090156
 20
14.4331118878
 10
2.9302122634
 20
14.4080211094
 10
2.8519515728
 20
14.3763684608
 10
2.7789841226
 20
14.33976036
 10
2.7122159803
 20
14.2986936837
 10
2.6507410784
 20
14.2526715551
 10
2.5941983929
 20
14.2018097618
 10
2.5427089942
 20
14.1467427092
 10
2.496151812
 20
14.086835992
 10
2.453802611
 20
14.0203021818
 10
2.4148190531
 20
13.9464277254
 10
2.3800434763
 20
13.8659261761
 10
2.3512786602
 20
13.7791507642
 10
2.3287770279
 20
13.6849899243
 10
2.3122861562
 20
13.5845552219
 10
2.3028515543
 20
13.4815345838
 10
2.3010473585
 20
13.3747385562
 10
2.3062994325
 20
13.2653565929
 10
2.3179308771
 20
13.1606449823
 10
2.3363273527
 20
13.0625796045
 10
2.3611031989
 20
12.9691845794
  0
LWPOLYLINE
  5
522
100
AcDbEntity
  8
0
100
AcDbPolyline
 62
7
  6
CONTINUOUS
 90
10
 70
0
 10
5.2263713593
 20
14.2125438479
 10
5.2407992345
 20
14.164563049
 10
5.2558000212
 20
14.1163064061
 10
5.2713737195
 20
14.0677739193
 10
5.2875749842
 20
14.0189679378
 10
5.3043491604
 20
13.9698861123
 10
5.3215322836
 20
13.9205213951
 10
5.339069699
 20
13.8708714369
 10
5.3570160613
 20
13.8209385869
 10
5.3753713706
 20
13.7707228452
  0
LINE
  5
523
100
AcDbEntity
  8
RACCORDO
100
AcDbLine
 62
7
  6
CONTINUOUS
 10
16.4349075803
 20
1.5983564134
 11
16.5437713244
 21
1.7072201574
  0
LINE
  5
524
100
AcDbEntity
  8
RACCORDO
100
AcDbLine
 62
250
  6
CONTINUOUS
 10
-7.7027602363
 20
-24.2116415197
 11
-7.7382903644
 21
-24.2471716479
  0
LINE
  5
525
100
AcDbEntity
  8
0
100
AcDbLine
 62
7
  6
CONTINUOUS
 10
3.8303919765
 20
13.7870571325
 11
4.1108627005
 21
13.8515972828
  0
LWPOLYLINE
  5
526
100
AcDbEntity
  8
RACCORDO
100
AcDbPolyline
 62
250
  6
CONTINUOUS
 90
13
 70
0
 10
18.5117693897
 20
12.1103034017
 10
18.4856731092
 20
12.1085853419
 10
18.4600231784
 20
12.1034764469
 10
18.4352583057
 20
12.0950640999
 10
18.4118020598
 20
12.083492185
 10
18.3900556295
 20
12.0689586272
 10
18.3703909612
 20
12.0517120097
 10
18.3531443904
 20
12.0320473169
 10
18.3386108923
 20
12.0103008895
 10
18.3270390401
 20
11.9868446756
 10
18.3186267494
 20
11.9620798648
 10
18.3135178948
 20
11.9364300254
 10
18.3117998506
 20
11.9103338626
  0
LINE
  5
527
100
AcDbEntity
  8
0
100
AcDbLine
 62
7
  6
CONTINUOUS
 10
-26.3817328148
 20
8.8640744642
 11
-26.202794231
 21
8.8748974833
  0
LWPOLYLINE
  5
528
100
AcDbEntity
  8
0
100
AcDbPolyline
 62
7
  6
CONTINUOUS
 90
31
 70
0
 10
-1.3630970476
 20
12.2874947875
 10
-1.2789148586
 20
12.2912287082
 10
-1.1993974683
 20
12.300088649
 10
-1.1245448768
 20
12.31407461
 10
-1.0541471354
 20
12.3336949893
 10
-0.9884141928
 20
12.3584413887
 10
-0.9279758945
 20
12.3867886139
 10
-0.8731621348
 20
12.4184205076
 10
-0.8236430196
 20
12.453653227
 10
-0.7790587113
 20
12.4919100498
 10
-0.7394196513
 20
12.5330602572
 10
-0.7047153984
 20
12.5772345679
 10
-0.6745547913
 20
12.6242484154
 10
-0.6485988896
 20
12.6747099696
 10
-0.6271866339
 20
12.7280110607
 10
-0.6109436842
 20
12.7821426125
 10
-0.6000994687
 20
12.8371387155
 10
-0.5944245592
 20
12.8929652793
 10
-0.5938563319
 20
12.9475109561
 10
-0.598602656
 20
13.0004712757
 10
-0.6084556622
 20
13.0521507083
 10
-0.6227291192
 20
13.1013513163
 10
-0.6411933393
 20
13.147678032
 10
-0.6640780101
 20
13.191525923
 10
-0.6913859625
 20
13.232882255
 10
-0.7230428976
 20
13.2716089472
 10
-0.7591231144
 20
13.3078440804
 10
-0.7998523403
 20
13.3419891619
 10
-0.8453058178
 20
13.3741780275
 10
-0.8954083045
 20
13.4042768415
 10
-0.9501598004
 20
13.4322856037
  0
LWPOLYLINE
  5
529
100
AcDbEntity
  8
0
100
AcDbPolyline
 62
7
  6
CONTINUOUS
 90
19
 70
0
 10
3.2901672376
 20
12.2874947875
 10
3.3655851794
 20
12.2902467096
 10
3.4376071054
 20
12.2975155837
 10
3.5062330157
 20
12.3093014097
 10
3.5714292398
 20
12.3258168466
 10
3.6332294481
 20
12.3468492355
 10
3.691734652
 20
12.3717605996
 10
3.7468016633
 20
12.4003128416
 10
3.7985736702
 20
12.4327440589
 10
3.8475812489
 20
12.4691305662
 10
3.8939711196
 20
12.5092719412
 10
3.9375965622
 20
12.5533686063
 10
3.9785479927
 20
12.6020981434
 10
4.0170935415
 20
12.6556667548
 10
4.0529650783
 20
12.7138682382
 10
4.0854486277
 20
12.7767615691
 10
4.1143061983
 20
12.8443664061
 10
4.1397757816
 20
12.9166630905
 10
4.1618573776
 20
12.9936516225
  0
LINE
  5
52A
100
AcDbEntity
  8
0
100
AcDbLine
 62
7
  6
CONTINUOUS
 10
-19.4104321107
 20
11.0685258715
 11
-18.7220039699
 21
11.0685258715
  0
LINE
  5
52B
100
AcDbEntity
  8
0
100
AcDbLine
 62
7
  6
CONTINUOUS
 10
-18.4415332458
 20
11.0685258715
 11
-17.753105105
 21
11.0685258715
  0
LINE
  5
52C
100
AcDbEntity
  8
0
100
AcDbLine
 62
7
  6
CONTINUOUS
 10
-12.1803430241
 20
11.3107505877
 11
-12.5187802656
 21
11.3107505877
  0
LINE
  5
52D
100
AcDbEntity
  8
0
100
AcDbLine
 62
7
  6
CONTINUOUS
 10
-13.7717354725
 20
11.3107505877
 11
-14.1053920846
 21
11.3107505877
  0
LINE
  5
52E
100
AcDbEntity
  8
0
100
AcDbLine
 62
7
  6
CONTINUOUS
 10
-15.2543659272
 20
11.3107505877
 11
-15.5348366513
 21
11.3107505877
  0
LINE
  5
52F
100
AcDbEntity
  8
0
100
AcDbLine
 62
7
  6
CONTINUOUS
 10
-16.6019400514
 20
11.3107505877
 11
-16.905318501
 21
11.3107505877
  0
LINE
  5
530
100
AcDbEntity
  8
0
100
AcDbLine
 62
7
  6
CONTINUOUS
 10
-17.753105105
 20
11.3107505877
 11
-19.4104321107
 21
11.3107505877
  0
LINE
  5
531
100
AcDbEntity
  8
0
100
AcDbLine
 62
7
  6
CONTINUOUS
 10
-19.7546461811
 20
11.3107505877
 11
-20.0351169051
 21
11.3107505877
  0
LINE
  5
532
100
AcDbEntity
  8
RACCORDO
100
AcDbLine
 62
250
  6
CONTINUOUS
 10
19.4179968001
 20
12.1103034017
 11
18.5117693897
 21
12.1103034017
  0
LINE
  5
533
100
AcDbEntity
  8
RACCORDO
100
AcDbLine
 62
250
  6
CONTINUOUS
 10
-26.5820031999
 20
12.1103034017
 11
-27.4882306103
 21
12.1103034017
  0
LINE
  5
534
100
AcDbEntity
  8
RACCORDO
100
AcDbLine
 62
7
  6
CONTINUOUS
 10
-27.5852387397
 20
12.2072201574
 11
-26.4849950705
 21
12.2072201574
  0
LINE
  5
535
100
AcDbEntity
  8
RACCORDO
100
AcDbLine
 62
7
  6
CONTINUOUS
 10
18.4147612603
 20
12.2072201574
 11
19.5150049295
 21
12.2072201574
  0
LINE
  5
536
100
AcDbEntity
  8
0
100
AcDbLine
 62
7
  6
CONTINUOUS
 10
-10.9835617203
 20
12.3257407953
 11
-10.7030909963
 21
12.3257407953
  0
LINE
  5
537
100
AcDbEntity
  8
0
100
AcDbLine
 62
7
  6
CONTINUOUS
 10
-10.0965331035
 20
12.3257407953
 11
-9.8578940052
 21
12.3257407953
  0
LINE
  5
538
100
AcDbEntity
  8
0
100
AcDbLine
 62
7
  6
CONTINUOUS
 10
-9.2369940297
 20
12.3257407953
 11
-8.9565233057
 21
12.3257407953
  0
LINE
  5
539
100
AcDbEntity
  8
0
100
AcDbLine
 62
7
  6
CONTINUOUS
 10
-8.7425845475
 20
12.3257407953
 11
-8.4465765347
 21
12.3257407953
  0
LINE
  5
53A
100
AcDbEntity
  8
0
100
AcDbLine
 62
7
  6
CONTINUOUS
 10
-7.0952175916
 20
12.3257407953
 11
-6.7970181734
 21
12.3257407953
  0
LINE
  5
53B
100
AcDbEntity
  8
0
100
AcDbLine
 62
7
  6
CONTINUOUS
 10
-6.5470248128
 20
12.3257407953
 11
-6.2665540888
 21
12.3257407953
  0
LINE
  5
53C
100
AcDbEntity
  8
0
100
AcDbLine
 62
7
  6
CONTINUOUS
 10
-5.0530400958
 20
12.3257407953
 11
-4.7235667046
 21
12.3257407953
  0
LINE
  5
53D
100
AcDbEntity
  8
0
100
AcDbLine
 62
7
  6
CONTINUOUS
 10
0.324507926
 20
12.3257407953
 11
0.6049786501
 21
12.3257407953
  0
LINE
  5
53E
100
AcDbEntity
  8
0
100
AcDbLine
 62
7
  6
CONTINUOUS
 10
1.6121235227
 20
12.3257407953
 11
1.8925942468
 21
12.3257407953
  0
LINE
  5
53F
100
AcDbEntity
  8
0
100
AcDbLine
 62
7
  6
CONTINUOUS
 10
4.2738067817
 20
12.3257407953
 11
4.5698147944
 21
12.3257407953
  0
LINE
  5
540
100
AcDbEntity
  8
0
100
AcDbLine
 62
7
  6
CONTINUOUS
 10
5.9211737375
 20
12.3257407953
 11
6.2193731557
 21
12.3257407953
  0
LINE
  5
541
100
AcDbEntity
  8
0
100
AcDbLine
 62
7
  6
CONTINUOUS
 10
7.8850664087
 20
12.3257407953
 11
8.1868514449
 21
12.3257407953
  0
LINE
  5
542
100
AcDbEntity
  8
0
100
AcDbLine
 62
7
  6
CONTINUOUS
 10
9.2613250874
 20
12.3257407953
 11
9.5417958114
 21
12.3257407953
  0
LWPOLYLINE
  5
543
100
AcDbEntity
  8
RACCORDO
100
AcDbPolyline
 62
7
  6
CONTINUOUS
 90
25
 70
0
 10
-26.4849755265
 20
12.2072201425
 10
-26.4718096986
 20
12.2067700179
 10
-26.4588106973
 20
12.2054831981
 10
-26.4459785226
 20
12.2033596832
 10
-26.4332598428
 20
12.200383316
 10
-26.4207079895
 20
12.1965702536
 10
-26.4084829579
 20
12.1919689677
 10
-26.3965889066
 20
12.1865693427
 10
-26.385021677
 20
12.1803814941
 10
-26.3739287879
 20
12.1734842407
 10
-26.36331632
 20
12.1658684804
 10
-26.3531781926
 20
12.1575433151
 10
-26.3436436835
 20
12.1486148694
 10
-26.3347205351
 20
12.1390754057
 10
-26.3264010049
 20
12.1289326616
 10
-26.3187911431
 20
12.1183159736
 10
-26.311900055
 20
12.1072192673
 10
-26.3057186353
 20
12.0956486173
 10
-26.3003256183
 20
12.0837515837
 10
-26.2957311209
 20
12.0715240135
 10
-26.2919250263
 20
12.0589700598
 10
-26.288955719
 20
12.0462497416
 10
-26.2868393271
 20
12.0334163984
 10
-26.2855597225
 20
12.0204166907
 10
-26.2851169051
 20
12.0072506184
  0
LWPOLYLINE
  5
544
100
AcDbEntity
  8
0
100
AcDbPolyline
 62
7
  6
CONTINUOUS
 90
34
 70
0
 10
-19.3355335085
 20
13.3488215532
 10
-19.288359465
 20
13.3467010527
 10
-19.2436881412
 20
13.3408342239
 10
-19.2015195369
 20
13.3312210669
 10
-19.161854611
 20
13.3176734171
 10
-19.1246924048
 20
13.3003794391
 10
-19.0900300415
 20
13.2799036265
 10
-19.0575920351
 20
13.2560952157
 10
-19.0276538717
 20
13.2291049703
 10
-19.0010391334
 20
13.1999496752
 10
-18.9779439592
 20
13.1689368402
 10
-18.9581722101
 20
13.1357589554
 10
-18.9419590509
 20
13.1005102767
 10
-18.9293331939
 20
13.063003349
 10
-18.9202659268
 20
13.0234256275
 10
-18.914906277
 20
12.9824337331
 10
-18.913266693
 20
12.9393045242
 10
-18.9153347263
 20
12.8947611425
 10
-18.9212220581
 20
12.8516296338
 10
-18.930997891
 20
12.8106812311
 10
-18.9445930224
 20
12.7711447014
 10
-18.9619115262
 20
12.7335323913
 10
-18.9832167243
 20
12.6977322521
 10
-19.0082452948
 20
12.6638563325
 10
-19.0361113459
 20
12.6327531249
 10
-19.0667382981
 20
12.6044115269
 10
-19.1002027308
 20
12.578842641
 10
-19.1358484908
 20
12.556928266
 10
-19.1736600518
 20
12.5389186806
 10
-19.2136529401
 20
12.5245636061
 10
-19.2552175813
 20
12.5139940054
 10
-19.2991601318
 20
12.5073098079
 10
-19.3446744353
 20
12.5044110842
 10
-19.3887324484
 20
12.5051290088
  0
LWPOLYLINE
  5
545
100
AcDbEntity
  8
0
100
AcDbPolyline
 62
7
  6
CONTINUOUS
 90
34
 70
0
 10
-12.80821484
 20
13.3488215532
 10
-12.7610407966
 20
13.3467010527
 10
-12.7163694727
 20
13.3408342239
 10
-12.6742008684
 20
13.3312210669
 10
-12.6345359426
 20
13.3176734171
 10
-12.5973737363
 20
13.3003794391
 10
-12.5627113731
 20
13.2799036265
 10
-12.5302733666
 20
13.2560952157
 10
-12.5003352032
 20
13.2291049703
 10
-12.4737204649
 20
13.1999496752
 10
-12.4506252907
 20
13.1689368402
 10
-12.4308535416
 20
13.1357589554
 10
-12.4146403824
 20
13.1005102767
 10
-12.4020145255
 20
13.063003349
 10
-12.3929472584
 20
13.0234256275
 10
-12.3875876085
 20
12.9824337331
 10
-12.3859480246
 20
12.9393045242
 10
-12.3880160578
 20
12.8947611425
 10
-12.3939033897
 20
12.8516296338
 10
-12.4036792225
 20
12.8106812311
 10
-12.4172743539
 20
12.7711447014
 10
-12.4345928577
 20
12.7335323913
 10
-12.4558980558
 20
12.6977322521
 10
-12.4809266264
 20
12.6638563325
 10
-12.5087926775
 20
12.6327531249
 10
-12.5394196296
 20
12.6044115269
 10
-12.5728840623
 20
12.578842641
 10
-12.6085298223
 20
12.556928266
 10
-12.6463413833
 20
12.5389186806
 10
-12.6863342716
 20
12.5245636061
 10
-12.7278989128
 20
12.5139940054
 10
-12.7718414633
 20
12.5073098079
 10
-12.8173557668
 20
12.5044110842
 10
-12.8614137799
 20
12.5051290088
  0
LWPOLYLINE
  5
546
100
AcDbEntity
  8
RACCORDO
100
AcDbPolyline
 62
250
  6
CONTINUOUS
 90
13
 70
0
 10
-26.5820031999
 20
12.1103034017
 10
-26.5559069685
 20
12.1085853484
 10
-26.5302570779
 20
12.1034764708
 10
-26.5054922349
 20
12.0950641492
 10
-26.4820360089
 20
12.0834922652
 10
-26.4602895869
 20
12.0689587401
 10
-26.4406249122
 20
12.0517121504
 10
-26.4233783224
 20
12.0320474756
 10
-26.4088447973
 20
12.0103010536
 10
-26.3972729133
 20
11.9868448276
 10
-26.3888605918
 20
11.9620799847
 10
-26.3837517141
 20
11.9364300941
 10
-26.3820336609
 20
11.9103338626
  0
LWPOLYLINE
  5
547
100
AcDbEntity
  8
0
100
AcDbPolyline
 62
7
  6
CONTINUOUS
 90
16
 70
0
 10
-19.3887324484
 20
12.5051290088
 10
-19.4306459907
 20
12.5094914121
 10
-19.4711032427
 20
12.5174704638
 10
-19.5091407025
 20
12.528813847
 10
-19.5444427192
 20
12.5434910946
 10
-19.5773249436
 20
12.5615326737
 10
-19.6077708264
 20
12.5827776694
 10
-19.6356848145
 20
12.6071720689
 10
-19.661162461
 20
12.634769885
 10
-19.6844738756
 20
12.6655722402
 10
-19.7056812502
 20
12.6997833737
 10
-19.724722393
 20
12.7371990463
 10
-19.7416808379
 20
12.777207663
 10
-19.7565844296
 20
12.8196053586
 10
-19.7694053235
 20
12.8645959982
 10
-19.7801435196
 20
12.9121795819
  0
LWPOLYLINE
  5
548
100
AcDbEntity
  8
0
100
AcDbPolyline
 62
7
  6
CONTINUOUS
 90
16
 70
0
 10
-12.8614137799
 20
12.5051290088
 10
-12.9033273223
 20
12.5094914121
 10
-12.9437845743
 20
12.5174704638
 10
-12.981822034
 20
12.528813847
 10
-13.0171240507
 20
12.5434910946
 10
-13.0500062751
 20
12.5615326737
 10
-13.0804521579
 20
12.5827776694
 10
-13.1083661461
 20
12.6071720689
 10
-13.1338437926
 20
12.634769885
 10
-13.1571552072
 20
12.6655722402
 10
-13.1783625818
 20
12.6997833737
 10
-13.1974037245
 20
12.7371990463
 10
-13.2143621694
 20
12.777207663
 10
-13.2292657611
 20
12.8196053586
 10
-13.2420866551
 20
12.8645959982
 10
-13.2528248512
 20
12.9121795819
  0
LINE
  5
549
100
AcDbEntity
  8
0
100
AcDbLine
 62
7
  6
CONTINUOUS
 10
-20.0096195666
 20
13.8938271161
 11
-19.7546461811
 21
13.8555811082
  0
LINE
  5
54A
100
AcDbEntity
  8
0
100
AcDbLine
 62
7
  6
CONTINUOUS
 10
-13.4823008981
 20
13.8938271161
 11
-13.2273275126
 21
13.8555811082
  0
LWPOLYLINE
  5
54B
100
AcDbEntity
  8
0
100
AcDbPolyline
 62
7
  6
CONTINUOUS
 90
3
 70
0
 10
-1.4693692232
 20
13.2935441519
 10
-1.3829525148
 20
13.27161298
 10
-1.2582433788
 20
13.2395682809
  0
LWPOLYLINE
  5
54C
100
AcDbEntity
  8
0
100
AcDbPolyline
 62
7
  6
CONTINUOUS
 90
16
 70
0
 10
-5.7934589187
 20
13.246632998
 10
-5.7579724943
 20
13.2367620016
 10
-5.7233156857
 20
13.222997818
 10
-5.6894884928
 20
13.205340447
 10
-5.656464098
 20
13.1836195505
 10
-5.624269319
 20
13.1580054667
 10
-5.5929846088
 20
13.1290092106
 10
-5.5628712757
 20
13.0962632506
 10
-5.5336680114
 20
13.0601351183
 10
-5.5046713434
 20
13.0222384229
 10
-5.4758279998
 20
12.9830356742
 10
-5.4471912525
 20
12.9420643624
 10
-5.4182174442
 20
12.899550568
 10
-5.3887253558
 20
12.8555696511
 10
-5.3588962064
 20
12.8100462517
 10
-5.3287299959
 20
12.7629803696
  0
LWPOLYLINE
  5
54D
100
AcDbEntity
  8
0
100
AcDbPolyline
 62
7
  6
CONTINUOUS
 90
5
 70
0
 10
-1.2582433788
 20
13.2395682809
 10
-1.2183276783
 20
13.228357172
 10
-1.1795248984
 20
13.21625066
 10
-1.141727821
 20
13.2034852318
 10
-1.1049364461
 20
13.1900608875
  0
LWPOLYLINE
  5
54E
100
AcDbEntity
  8
0
100
AcDbPolyline
 62
7
  6
CONTINUOUS
 90
10
 70
0
 10
-0.9501598004
 20
13.4322856037
 10
-0.9943108738
 20
13.4500018951
 10
-1.0401444764
 20
13.4669308809
 10
-1.0876606082
 20
13.483072561
 10
-1.1369431741
 20
13.4982879237
 10
-1.1879082692
 20
13.5127159808
 10
-1.2403041786
 20
13.5267737673
 10
-1.2940469974
 20
13.5406002951
 10
-1.3492206305
 20
13.5540565522
 10
-1.4058250778
 20
13.5671425388
  0
LWPOLYLINE
  5
54F
100
AcDbEntity
  8
0
100
AcDbPolyline
 62
7
  6
CONTINUOUS
 90
37
 70
0
 10
-1.1049364461
 20
13.1900608875
 10
-1.0720736344
 20
13.1763276043
 10
-1.0416606813
 20
13.1613724702
 10
-1.0136975867
 20
13.1451954851
 10
-0.9881431265
 20
13.1279556295
 10
-0.9650385249
 20
13.1094939229
 10
-0.9445074541
 20
13.0893334241
 10
-0.9265976494
 20
13.0674166509
 10
-0.9112613755
 20
13.0438010854
 10
-0.8984790988
 20
13.0181822335
 10
-0.8880168977
 20
12.9902471433
 10
-0.8801086938
 20
12.9603087667
 10
-0.8754367188
 20
12.9290014649
 10
-0.8741271019
 20
12.8959156017
 10
-0.876053714
 20
12.8614608133
 10
-0.881520399
 20
12.8275003693
 10
-0.890685108
 20
12.7942285206
 10
-0.9033898899
 20
12.7614510164
 10
-0.9194647356
 20
12.730448373
 10
-0.938855366
 20
12.7015280992
 10
-0.9616160601
 20
12.6743826863
 10
-0.9877396453
 20
12.649370125
 10
-1.0173428042
 20
12.6265503844
 10
-1.0503088542
 20
12.6058634953
 10
-1.0862805754
 20
12.5874875411
 10
-1.1253235206
 20
12.5713407677
 10
-1.1673721371
 20
12.5575049291
 10
-1.2118725467
 20
12.5464033708
 10
-1.2587775671
 20
12.5380359675
 10
-1.3081343806
 20
12.5324028445
 10
-1.359530656
 20
12.5299277228
 10
-1.4138820631
 20
12.5305254027
 10
-1.4702729321
 20
12.5342810839
 10
-1.5255439224
 20
12.5418740865
 10
-1.5794500607
 20
12.5538611881
 10
-1.6322363203
 20
12.569685611
 10
-1.681478281
 20
12.5883563429
  0
LWPOLYLINE
  5
550
100
AcDbEntity
  8
0
100
AcDbPolyline
 62
7
  6
CONTINUOUS
 90
10
 70
0
 10
-1.8698566026
 20
13.4257119708
 10
-1.8315911951
 20
13.4079583891
 10
-1.7917006592
 20
13.3910656671
 10
-1.7501849949
 20
13.3750338048
 10
-1.7069550944
 20
13.359987859
 10
-1.6621000655
 20
13.3458027729
 10
-1.6158872316
 20
13.3321033762
 10
-1.5684057005
 20
13.3187646121
 10
-1.5195663643
 20
13.3059115373
 10
-1.4693692232
 20
13.2935441519
  0
LWPOLYLINE
  5
551
100
AcDbEntity
  8
0
100
AcDbPolyline
 62
7
  6
CONTINUOUS
 90
13
 70
0
 10
-1.681478281
 20
12.5883563429
 10
-1.7265198044
 20
12.6097122211
 10
-1.7680170289
 20
12.6339144083
 10
-1.8055139494
 20
12.6604553807
 10
-1.8386328415
 20
12.6888661745
 10
-1.8677514296
 20
12.7196157535
 10
-1.8935468824
 20
12.7536034855
 10
-1.9161296218
 20
12.7911444272
 10
-1.935389226
 20
12.831923522
 10
-1.9516715969
 20
12.8758949674
 10
-1.9650920353
 20
12.923043496
 10
-1.9755352406
 20
12.9733843754
 10
-1.9830012126
 20
13.0269176054
  0
LINE
  5
552
100
AcDbEntity
  8
0
100
AcDbLine
 62
7
  6
CONTINUOUS
 10
-11.4472056228
 20
25.8693088751
 11
-11.5345075465
 21
25.9566107988
  0
LINE
  5
553
100
AcDbEntity
  8
RACCORDO
100
AcDbLine
 62
250
  6
CONTINUOUS
 10
19.5149135558
 20
-3.7927798426
 11
19.4179968001
 21
-3.6958630868
  0
LINE
  5
554
100
AcDbEntity
  8
RACCORDO
100
AcDbLine
 62
250
  6
CONTINUOUS
 10
19.7148830949
 20
-3.5928103035
 11
19.6179663391
 21
-3.4958935478
  0
LINE
  5
555
100
AcDbEntity
  8
RACCORDO
100
AcDbLine
 62
7
  6
CONTINUOUS
 10
18.0329294783
 20
-0.360826226
 11
18.1325604208
 21
-0.4604571685
  0
LINE
  5
556
100
AcDbEntity
  8
0
100
AcDbLine
 62
7
  6
CONTINUOUS
 10
18.2148830949
 20
-0.5427798426
 11
18.1325604208
 21
-0.4604571685
  0
LINE
  5
557
100
AcDbEntity
  8
0
100
AcDbLine
 62
7
  6
CONTINUOUS
 10
6.2193731557
 20
12.3257407953
 11
5.3767657776
 21
14.4292712256
  0
LINE
  5
558
100
AcDbEntity
  8
0
100
AcDbLine
 62
7
  6
CONTINUOUS
 10
5.3753713706
 20
13.7707228452
 11
5.6018595972
 21
13.192650306
  0
LINE
  5
559
100
AcDbEntity
  8
0
100
AcDbLine
 62
7
  6
CONTINUOUS
 10
7.0763228111
 20
14.4292712256
 11
7.8850664087
 21
12.3257407953
  0
LWPOLYLINE
  5
55A
100
AcDbEntity
  8
0
100
AcDbPolyline
 62
7
  6
CONTINUOUS
 90
10
 70
0
 10
8.0310785997
 20
12.5615912741
 10
8.0204967906
 20
12.598986651
 10
8.0094872819
 20
12.6365742522
 10
7.9980500736
 20
12.674354078
 10
7.9861748744
 20
12.712328395
 10
7.9738719757
 20
12.7504949366
 10
7.9611722512
 20
12.7888469019
 10
7.9480859925
 20
12.8273820243
 10
7.9346029081
 20
12.8661025705
 10
7.3745220348
 20
14.4292712256
  0
LINE
  5
55B
100
AcDbEntity
  8
RACCORDO
100
AcDbLine
 62
7
  6
CONTINUOUS
 10
13.7148830949
 20
-13.0503759661
 11
13.7148830949
 21
21.4648162809
  0
LINE
  5
55C
100
AcDbEntity
  8
RACCORDO
100
AcDbLine
 62
7
  6
CONTINUOUS
 10
13.750148491
 20
-13.0856413622
 11
13.750148491
 21
21.5000816771
  0
LINE
  5
55D
100
AcDbEntity
  8
DRAFT
100
AcDbLine
 62
7
  6
CONTINUOUS
 10
14.5367871705
 20
6.8853160818
 11
14.5367871705
 21
1.529124233
  0
LINE
  5
55E
100
AcDbEntity
  8
DRAFT
100
AcDbLine
 62
7
  6
CONTINUOUS
 10
14.5891683247
 20
6.8329349276
 11
14.5891683247
 21
1.5815053873
  0
LINE
  5
55F
100
AcDbEntity
  8
RACCORDO
100
AcDbLine
 62
7
  6
CONTINUOUS
 10
18.3040562425
 20
-0.703606695
 11
18.2148830949
 21
-0.7927798426
  0
LINE
  5
560
100
AcDbEntity
  8
RACCORDO
100
AcDbLine
 62
250
  6
CONTINUOUS
 10
-5.7039785823
 20
-26.2104231738
 11
-5.7395087104
 21
-26.2459533019
  0
LWPOLYLINE
  5
561
100
AcDbEntity
  8
0
100
AcDbPolyline
 62
7
  6
CONTINUOUS
 90
37
 70
0
 10
-5.463786132
 20
13.2818909909
 10
-5.3948861989
 20
13.2929060829
 10
-5.3300270838
 20
13.3075222076
 10
-5.2692087868
 20
13.3257393649
 10
-5.212240152
 20
13.3476986397
 10
-5.1593123353
 20
13.3732589472
 10
-5.1109988043
 20
13.4019970326
 10
-5.0675597242
 20
13.4338917055
 10
-5.0287349299
 20
13.4689641563
 10
-4.9943173936
 20
13.5068547017
 10
-4.9642420737
 20
13.5474450861
 10
-4.9385740118
 20
13.590853565
 10
-4.9173013043
 20
13.6370752216
 10
-4.9002545746
 20
13.6863706176
 10
-4.8876031994
 20
13.7384791912
 10
-4.879843405
 20
13.7926143404
 10
-4.8770596641
 20
13.8496506195
 10
-4.8791675041
 20
13.9087134742
 10
-4.8864097335
 20
13.9663926391
 10
-4.899374037
 20
14.0223652372
 10
-4.91747273
 20
14.0769541454
 10
-4.9391855663
 20
14.1277177295
 10
-4.9643556699
 20
14.1740219566
 10
-4.9931399169
 20
14.2165008596
 10
-5.0244886897
 20
14.254614903
 10
-5.0578403029
 20
14.2879710748
 10
-5.0937564419
 20
14.3169623871
 10
-5.1328725454
 20
14.3422283407
 10
-5.1754561491
 20
14.3638005653
 10
-5.2212397174
 20
14.3816474312
 10
-5.2700560819
 20
14.3963135501
 10
-5.3221363968
 20
14.4075853694
 10
-5.3772495078
 20
14.4156764417
 10
-5.434534784
 20
14.4217720365
 10
-5.4937053483
 20
14.4262672437
 10
-5.5550480777
 20
14.4287669734
 10
-5.6185629723
 20
14.4292712256
  0
LINE
  5
562
100
AcDbEntity
  8
0
100
AcDbLine
 62
7
  6
CONTINUOUS
 10
-13.2528248512
 20
12.9121795819
 11
-13.5077982366
 21
12.8739335741
  0
LINE
  5
563
100
AcDbEntity
  8
0
100
AcDbLine
 62
7
  6
CONTINUOUS
 10
-14.0559910154
 20
13.8938271161
 11
-13.80101763
 21
13.9193244546
  0
LWPOLYLINE
  5
564
100
AcDbEntity
  8
RACCORDO
100
AcDbPolyline
 62
7
  6
CONTINUOUS
 90
13
 70
0
 10
-27.5851473661
 20
12.2072201574
 10
-27.6112631731
 20
12.2055123716
 10
-27.6369269924
 20
12.2004104742
 10
-27.6617001246
 20
12.1920031887
 10
-27.6851584435
 20
12.1804362874
 10
-27.7069024878
 20
12.1659084752
 10
-27.7265634841
 20
12.1486667364
 10
-27.7438052229
 20
12.1290057401
 10
-27.7583330351
 20
12.1072616958
 10
-27.7698999364
 20
12.0838033768
 10
-27.7783072219
 20
12.0590302447
 10
-27.7834091193
 20
12.0333664254
 10
-27.7851169051
 20
12.0072506184
  0
LINE
  5
565
100
AcDbEntity
  8
0
100
AcDbLine
 62
7
  6
CONTINUOUS
 10
-1.9830012126
 20
13.0269176054
 11
-2.2507232674
 21
13.0141689361
  0
LINE
  5
566
100
AcDbEntity
  8
0
100
AcDbLine
 62
7
  6
CONTINUOUS
 10
-0.9248616629
 20
13.8300837697
 11
-0.6443909388
 21
13.842832439
  0
LWPOLYLINE
  5
567
100
AcDbEntity
  8
0
100
AcDbPolyline
 62
7
  6
CONTINUOUS
 90
31
 70
0
 10
-1.4344100318
 20
14.4675172334
 10
-1.5094023617
 20
14.4647352411
 10
-1.5807278347
 20
14.458000055
 10
-1.648386451
 20
14.447311675
 10
-1.7125684712
 20
14.4324096736
 10
-1.7730836345
 20
14.4135544784
 10
-1.8293611588
 20
14.391527372
 10
-1.8812106278
 20
14.3665690281
 10
-1.9288224577
 20
14.3384387731
 10
-1.9721971155
 20
14.3071958681
 10
-2.0112171711
 20
14.2728916687
 10
-2.0460000546
 20
14.2354748193
 10
-2.0768985226
 20
14.1948505142
 10
-2.1043046931
 20
14.1504298765
 10
-2.127826448
 20
14.102801783
 10
-2.1466401895
 20
14.0536380595
 10
-2.1605471009
 20
14.0026518938
 10
-2.1697459988
 20
13.950130098
 10
-2.1740097352
 20
13.8986049338
 10
-2.1730591585
 20
13.8485383599
 10
-2.1671734202
 20
13.7994684176
 10
-2.1569628272
 20
13.7525414928
 10
-2.1426280091
 20
13.7081760104
 10
-2.1239683362
 20
13.6659535454
 10
-2.1009922263
 20
13.6257652089
 10
-2.0738006564
 20
13.5876273762
 10
-2.0422926495
 20
13.5515236718
 10
-2.006173692
 20
13.5172960807
 10
-1.9653456128
 20
13.4848919309
 10
-1.919906583
 20
13.4543638943
 10
-1.8698566026
 20
13.4257119708
  0
LINE
  5
568
100
AcDbEntity
  8
0
100
AcDbLine
 62
7
  6
CONTINUOUS
 10
-8.2248691321
 20
12.963174259
 11
-7.32987267
 21
12.963174259
  0
LINE
  5
569
100
AcDbEntity
  8
0
100
AcDbLine
 62
7
  6
CONTINUOUS
 10
4.791522197
 20
12.963174259
 11
5.6865186592
 21
12.963174259
  0
LINE
  5
56A
100
AcDbEntity
  8
0
100
AcDbLine
 62
7
  6
CONTINUOUS
 10
5.6018595972
 20
13.192650306
 11
4.8714006296
 21
13.192650306
  0
LINE
  5
56B
100
AcDbEntity
  8
0
100
AcDbLine
 62
7
  6
CONTINUOUS
 10
-7.414531732
 20
13.192650306
 11
-8.1449906995
 21
13.192650306
  0
LINE
  5
56C
100
AcDbEntity
  8
0
100
AcDbLine
 62
7
  6
CONTINUOUS
 10
-5.6741392723
 20
13.4986183685
 11
-6.2665540888
 21
13.4986183685
  0
LINE
  5
56D
100
AcDbEntity
  8
RACCORDO
100
AcDbLine
 62
7
  6
CONTINUOUS
 10
24.9192749002
 20
13.5040466981
 11
17.9180565542
 21
13.5040466981
  0
LINE
  5
56E
100
AcDbEntity
  8
RACCORDO
100
AcDbLine
 62
250
  6
CONTINUOUS
 10
24.883744772
 20
13.5395768262
 11
17.5193200862
 21
13.5395768262
  0
LINE
  5
56F
100
AcDbEntity
  8
RACCORDO
100
AcDbLine
 62
250
  6
CONTINUOUS
 10
24.883744772
 20
14.0392722397
 11
16.4171422377
 21
14.0392722397
  0
LINE
  5
570
100
AcDbEntity
  8
0
100
AcDbLine
 62
7
  6
CONTINUOUS
 10
-6.2665540888
 20
14.1870465094
 11
-5.60720871
 21
14.1870465094
  0
LINE
  5
571
100
AcDbEntity
  8
0
100
AcDbLine
 62
7
  6
CONTINUOUS
 10
-0.3639202148
 20
14.1870465094
 11
0.324507926
 21
14.1870465094
  0
LINE
  5
572
100
AcDbEntity
  8
0
100
AcDbLine
 62
7
  6
CONTINUOUS
 10
0.6049786501
 20
14.1870465094
 11
1.2934067909
 21
14.1870465094
  0
LINE
  5
573
100
AcDbEntity
  8
0
100
AcDbLine
 62
7
  6
CONTINUOUS
 10
9.5417958114
 20
14.4292712256
 11
9.2613250874
 21
14.4292712256
  0
LINE
  5
574
100
AcDbEntity
  8
0
100
AcDbLine
 62
7
  6
CONTINUOUS
 10
9.025873205
 20
14.4292712256
 11
8.7258809778
 21
14.4292712256
  0
LINE
  5
575
100
AcDbEntity
  8
0
100
AcDbLine
 62
7
  6
CONTINUOUS
 10
7.3745220348
 20
14.4292712256
 11
7.0763228111
 21
14.4292712256
  0
LINE
  5
576
100
AcDbEntity
  8
0
100
AcDbLine
 62
7
  6
CONTINUOUS
 10
5.3767657776
 20
14.4292712256
 11
5.073387328
 21
14.4292712256
  0
LINE
  5
577
100
AcDbEntity
  8
0
100
AcDbLine
 62
7
  6
CONTINUOUS
 10
1.8925942468
 20
14.4292712256
 11
1.6121235227
 21
14.4292712256
  0
LINE
  5
578
100
AcDbEntity
  8
0
100
AcDbLine
 62
7
  6
CONTINUOUS
 10
1.2934067909
 20
14.4292712256
 11
-0.3639202148
 21
14.4292712256
  0
LINE
  5
579
100
AcDbEntity
  8
0
100
AcDbLine
 62
7
  6
CONTINUOUS
 10
-5.6185629723
 20
14.4292712256
 11
-6.5470248128
 21
14.4292712256
  0
LINE
  5
57A
100
AcDbEntity
  8
0
100
AcDbLine
 62
7
  6
CONTINUOUS
 10
-7.6396255515
 20
14.4292712256
 11
-7.9430040011
 21
14.4292712256
  0
LINE
  5
57B
100
AcDbEntity
  8
0
100
AcDbLine
 62
7
  6
CONTINUOUS
 10
-8.9565233057
 20
14.4292712256
 11
-9.3214538907
 21
14.4292712256
  0
LINE
  5
57C
100
AcDbEntity
  8
0
100
AcDbLine
 62
7
  6
CONTINUOUS
 10
-10.5560828004
 20
14.4292712256
 11
-10.9835617203
 21
14.4292712256
  0
LWPOLYLINE
  5
57D
100
AcDbEntity
  8
0
100
AcDbPolyline
 62
7
  6
CONTINUOUS
 90
10
 70
0
 10
-6.2665540888
 20
13.2563936523
 10
-5.9287082068
 20
13.2563442587
 10
-5.9108245616
 20
13.2561098924
 10
-5.8931904163
 20
13.2556905536
 10
-5.8757748867
 20
13.2551846533
 10
-5.8586088569
 20
13.2544937804
 10
-5.84178498
 20
13.2533227018
 10
-5.8253341401
 20
13.2515730063
 10
-5.809225453
 20
13.249343105
 10
-5.7934589187
 20
13.246632998
  0
LWPOLYLINE
  5
57E
100
AcDbEntity
  8
0
100
AcDbPolyline
 62
7
  6
CONTINUOUS
 90
37
 70
0
 10
-5.60720871
 20
14.1870465094
 10
-5.5598808209
 20
14.1865564474
 10
-5.5146023335
 20
14.1834761319
 10
-5.4713732477
 20
14.1778055629
 10
-5.4299337026
 20
14.1695628592
 10
-5.3905435592
 20
14.158729902
 10
-5.3539824005
 20
14.1452523349
 10
-5.3203801587
 20
14.128975447
 10
-5.2896069016
 20
14.1100539493
 10
-5.2620524154
 20
14.0888976182
 10
-5.2378865887
 20
14.0655431254
 10
-5.2169395328
 20
14.0399537992
 10
-5.1990913676
 20
14.0124294016
 10
-5.1842033445
 20
13.9829011798
 10
-5.1724142122
 20
13.9514378865
 10
-5.1640203362
 20
13.9185455416
 10
-5.1590472085
 20
13.8837646315
 10
-5.1574693372
 20
13.8475546698
 10
-5.1595066118
 20
13.8118002175
 10
-5.16540577
 20
13.7766199008
 10
-5.174920074
 20
13.7418950934
 10
-5.1875292
 20
13.7091544773
 10
-5.2032798879
 20
13.6786984498
 10
-5.2221253978
 20
13.6502266136
 10
-5.2434051863
 20
13.6243664585
 10
-5.2668844075
 20
13.6013706899
 10
-5.2927979072
 20
13.5809866025
 10
-5.3211896797
 20
13.5630835699
 10
-5.352183808
 20
13.5477331116
 10
-5.385656209
 20
13.5348637081
 10
-5.4212786287
 20
13.5241301743
 10
-5.4591404548
 20
13.5156127635
 10
-5.4991522995
 20
13.5092312224
 10
-5.5407177454
 20
13.5043996068
 10
-5.5836379866
 20
13.5009226019
 10
-5.6281118288
 20
13.4989955225
 10
-5.6741392723
 20
13.4986183685
  0
LWPOLYLINE
  5
57F
100
AcDbEntity
  8
0
100
AcDbPolyline
 62
7
  6
CONTINUOUS
 90
10
 70
0
 10
-19.4510683359
 20
13.5466252252
 10
-19.4556230083
 20
13.5466869604
 10
-19.4602081713
 20
13.5468232286
 10
-19.4648238248
 20
13.54703403
 10
-19.4694721497
 20
13.5473286602
 10
-19.4741509652
 20
13.5476978235
 10
-19.4788537286
 20
13.5481136325
 10
-19.4835782588
 20
13.5485667912
 10
-19.4883267368
 20
13.5490665956
 10
-19.4930991627
 20
13.5496130456
  0
LWPOLYLINE
  5
580
100
AcDbEntity
  8
0
100
AcDbPolyline
 62
7
  6
CONTINUOUS
 90
10
 70
0
 10
-12.9237496675
 20
13.5466252252
 10
-12.9283043398
 20
13.5466869604
 10
-12.9328895028
 20
13.5468232286
 10
-12.9375051563
 20
13.54703403
 10
-12.9421534813
 20
13.5473286602
 10
-12.9468322968
 20
13.5476978235
 10
-12.9515350601
 20
13.5481136325
 10
-12.9562595903
 20
13.5485667912
 10
-12.9610080684
 20
13.5490665956
 10
-12.9657804942
 20
13.5496130456
  0
LWPOLYLINE
  5
581
100
AcDbEntity
  8
0
100
AcDbPolyline
 62
7
  6
CONTINUOUS
 90
19
 70
0
 10
-1.423254776
 20
14.2252925172
 10
-1.3775330131
 20
14.2244758181
 10
-1.3336258729
 20
14.2214784354
 10
-1.2915333555
 20
14.2163003692
 10
-1.2509682891
 20
14.2089311334
 10
-1.2122178455
 20
14.199381214
 10
-1.1761435394
 20
14.1876820695
 10
-1.1432287284
 20
14.1740613703
 10
-1.1129900549
 20
14.158291446
 10
-1.0848389604
 20
14.1397207435
 10
-1.0586755968
 20
14.1183991384
 10
-1.0345998123
 20
14.0942767551
 10
-1.0123225926
 20
14.0665524135
 10
-0.9914138755
 20
14.034695317
 10
-0.9723037232
 20
13.9992362622
 10
-0.9559933086
 20
13.9609664591
 10
-0.9428163557
 20
13.9201496443
 10
-0.9324391405
 20
13.8765220812
 10
-0.9248616629
 20
13.8300837697
  0
LWPOLYLINE
  5
582
100
AcDbEntity
  8
RACCORDO
100
AcDbPolyline
 62
7
  6
CONTINUOUS
 90
25
 70
0
 10
18.4147417162
 20
12.2072201425
 10
18.4015773318
 20
12.2076637321
 10
18.3885793356
 20
12.2089439343
 10
18.3757477279
 20
12.2110607492
 10
18.3630291408
 20
12.2140301841
 10
18.3504769421
 20
12.2178362317
 10
18.3382512347
 20
12.2224308701
 10
18.3263561007
 20
12.2278243009
 10
18.314787458
 20
12.2340063226
 10
18.3036931635
 20
12.2408983087
 10
18.2930793266
 20
12.2485094366
 10
18.2829398378
 20
12.2568305289
 10
18.2734042256
 20
12.265755427
 10
18.2644802871
 20
12.2752919244
 10
18.2561602252
 20
12.2854322276
 10
18.2485501765
 20
12.2960467969
 10
18.2416593186
 20
12.3071417375
 10
18.2354784739
 20
12.3187109442
 10
18.2300862456
 20
12.3306065621
 10
18.2254928324
 20
12.3428326717
 10
18.2216880355
 20
12.3553851924
 10
18.2187198626
 20
12.3681040276
 10
18.2166043161
 20
12.3809358116
 10
18.2153253935
 20
12.39393391
 10
18.2148830949
 20
12.4070983228
  0
LWPOLYLINE
  5
583
100
AcDbEntity
  8
0
100
AcDbPolyline
 62
7
  6
CONTINUOUS
 90
16
 70
0
 10
3.2738329503
 20
14.2252925172
 10
3.3310367253
 20
14.2224230755
 10
3.3851092792
 20
14.2159182125
 10
3.4360506121
 20
14.2057779282
 10
3.4837991002
 20
14.191999833
 10
3.5284163673
 20
14.1745863165
 10
3.5700872849
 20
14.1535445471
 10
3.6086483494
 20
14.1291050456
 10
3.6442630644
 20
14.1010372912
 10
3.6776068119
 20
14.0686568907
 10
3.7089394514
 20
14.031564713
 10
3.7380011233
 20
13.9901598892
 10
3.7646876315
 20
13.9449554192
 10
3.7889642436
 20
13.8961223031
 10
3.810865692
 20
13.8434895408
 10
3.8303919765
 20
13.7870571325
  0
LWPOLYLINE
  5
584
100
AcDbEntity
  8
RACCORDO
100
AcDbPolyline
 62
250
  6
CONTINUOUS
 90
13
 70
0
 10
19.4179968001
 20
12.1103034017
 10
19.4440930315
 20
12.1085853484
 10
19.4697429221
 20
12.1034764708
 10
19.4945077651
 20
12.0950641492
 10
19.5179639911
 20
12.0834922652
 10
19.5397104131
 20
12.0689587401
 10
19.5593750878
 20
12.0517121504
 10
19.5766216776
 20
12.0320474756
 10
19.5911552027
 20
12.0103010536
 10
19.6027270867
 20
11.9868448276
 10
19.6111394082
 20
11.9620799847
 10
19.6162482859
 20
11.9364300941
 10
19.6179663391
 20
11.9103338626
  0
LWPOLYLINE
  5
585
100
AcDbEntity
  8
RACCORDO
100
AcDbPolyline
 62
7
  6
CONTINUOUS
 90
16
 70
0
 10
17.5193200862
 20
13.5395768262
 10
17.4808365299
 20
13.5425994498
 10
17.4396839906
 20
13.5488559724
 10
17.3958624685
 20
13.5583245021
 10
17.3493693027
 20
13.5709487988
 10
17.300207154
 20
13.5866715886
 10
17.2483840047
 20
13.6054623293
 10
17.193869681
 20
13.6272349932
 10
17.1366943565
 20
13.6518850336
 10
17.0769565347
 20
13.6793692329
 10
17.0147484289
 20
13.7094956675
 10
16.9499778256
 20
13.7421611286
 10
16.8824665876
 20
13.7774997781
 10
16.8122422733
 20
13.8153117124
 10
16.7392773243
 20
13.8554359706
 10
16.6633109275
 20
13.8981200852
  0
LWPOLYLINE
  5
586
100
AcDbEntity
  8
0
100
AcDbPolyline
 62
7
  6
CONTINUOUS
 90
16
 70
0
 10
-1.4058250778
 20
13.5671425388
 10
-1.4397129463
 20
13.57526384
 10
-1.4726853193
 20
13.5835360794
 10
-1.5047421968
 20
13.5919592573
 10
-1.5358366213
 20
13.6005245308
 10
-1.5660155504
 20
13.6092407426
 10
-1.5954198565
 20
13.6181344211
 10
-1.6241479724
 20
13.627138822
 10
-1.6521014653
 20
13.6363206896
 10
-1.6791259099
 20
13.6459067854
 10
-1.7054428838
 20
13.6557442783
 10
-1.7308308094
 20
13.6659859994
 10
-1.7544705292
 20
13.6773172029
 10
-1.7760889906
 20
13.6899663069
 10
-1.7959592463
 20
13.7037048933
 10
-1.8140812961
 20
13.7185329622
  0
LINE
  5
587
100
AcDbEntity
  8
0
100
AcDbLine
 62
7
  6
CONTINUOUS
 10
4.1618573776
 20
12.9936516225
 11
3.8813866536
 21
13.0639686018
  0
LINE
  5
588
100
AcDbEntity
  8
0
100
AcDbLine
 62
7
  6
CONTINUOUS
 10
-6.1850822428
 20
16.0611775833
 11
-6.4655529668
 21
16.1314945626
  0
LWPOLYLINE
  5
589
100
AcDbEntity
  8
0
100
AcDbPolyline
 62
7
  6
CONTINUOUS
 90
10
 70
0
 10
-8.5306381883
 20
19.5800861946
 10
-8.5747892617
 20
19.597802486
 10
-8.6206228642
 20
19.6147314717
 10
-8.668138996
 20
19.6308731518
 10
-8.7174215619
 20
19.6460885146
 10
-8.7683866571
 20
19.6605165716
 10
-8.8207825665
 20
19.6745743582
 10
-8.8745253853
 20
19.6884008859
 10
-8.9296990183
 20
19.7018571431
 10
-8.9863034657
 20
19.7149431297
  0
LWPOLYLINE
  5
58A
100
AcDbEntity
  8
0
100
AcDbPolyline
 62
7
  6
CONTINUOUS
 90
37
 70
0
 10
-8.685414834
 20
19.3378614784
 10
-8.6525520223
 20
19.3241281952
 10
-8.6221390691
 20
19.309173061
 10
-8.5941759745
 20
19.2929960759
 10
-8.5686215144
 20
19.2757562203
 10
-8.5455169128
 20
19.2572945137
 10
-8.524985842
 20
19.237134015
 10
-8.5070760373
 20
19.2152172417
 10
-8.4917397634
 20
19.1916016763
 10
-8.4789574867
 20
19.1659828243
 10
-8.4684952855
 20
19.1380477342
 10
-8.4605870816
 20
19.1081093576
 10
-8.4559151066
 20
19.0768020557
 10
-8.4546054898
 20
19.0437161926
 10
-8.4565321019
 20
19.0092614042
 10
-8.4619987869
 20
18.9753009601
 10
-8.4711634959
 20
18.9420291115
 10
-8.4838682778
 20
18.9092516072
 10
-8.4999431234
 20
18.8782489638
 10
-8.5193337538
 20
18.84932869
 10
-8.5420944479
 20
18.8221832771
 10
-8.5682180332
 20
18.7971707158
 10
-8.597821192
 20
18.7743509752
 10
-8.630787242
 20
18.7536640862
 10
-8.6667589633
 20
18.735288132
 10
-8.7058019085
 20
18.7191413585
 10
-8.7478505249
 20
18.70530552
 10
-8.7923509345
 20
18.6942039616
 10
-8.8392559549
 20
18.6858365584
 10
-8.8886127684
 20
18.6802034354
 10
-8.9400090438
 20
18.6777283137
 10
-8.9943604509
 20
18.6783259936
 10
-9.0507513199
 20
18.6820816748
 10
-9.1060223103
 20
18.6896746774
 10
-9.1599284486
 20
18.7016617789
 10
-9.2127147082
 20
18.7174862018
 10
-9.2619566689
 20
18.7361569338
  0
LWPOLYLINE
  5
58B
100
AcDbEntity
  8
0
100
AcDbPolyline
 62
7
  6
CONTINUOUS
 90
10
 70
0
 10
-9.4503349905
 20
19.5735125617
 10
-9.412069583
 20
19.5557589799
 10
-9.3721790471
 20
19.5388662579
 10
-9.3306633827
 20
19.5228343956
 10
-9.2874334823
 20
19.5077884498
 10
-9.2425784534
 20
19.4936033638
 10
-9.1963656194
 20
19.4799039671
 10
-9.1488840883
 20
19.4665652029
 10
-9.1000447522
 20
19.4537121282
 10
-9.0498476111
 20
19.4413447428
  0
LWPOLYLINE
  5
58C
100
AcDbEntity
  8
0
100
AcDbPolyline
 62
7
  6
CONTINUOUS
 90
13
 70
0
 10
-9.2619566689
 20
18.7361569338
 10
-9.3069981923
 20
18.7575128119
 10
-9.3484954168
 20
18.7817149991
 10
-9.3859923373
 20
18.8082559716
 10
-9.4191112294
 20
18.8366667653
 10
-9.4482298175
 20
18.8674163444
 10
-9.4740252702
 20
18.9014040764
 10
-9.4966080097
 20
18.9389450181
 10
-9.5158676138
 20
18.9797241128
 10
-9.5321499847
 20
19.0236955582
 10
-9.5455704232
 20
19.0708440869
 10
-9.5560136284
 20
19.1211849662
 10
-9.5634796005
 20
19.1747181962
  0
LINE
  5
58D
100
AcDbEntity
  8
RACCORDO
100
AcDbLine
 62
7
  6
CONTINUOUS
 10
19.6257099473
 20
-0.703606695
 11
19.7148830949
 21
-0.7927798426
  0
LWPOLYLINE
  5
58E
100
AcDbEntity
  8
RACCORDO
100
AcDbPolyline
 62
250
  6
CONTINUOUS
 90
12
 70
0
 10
19.6179663391
 20
-3.4958935478
 10
19.6164471073
 20
-3.4936682784
 10
19.614867321
 20
-3.4876803617
 10
19.6132269801
 20
-3.4779297979
 10
19.6115231796
 20
-3.4648282509
 10
19.6097588245
 20
-3.4479640567
 10
19.6079426301
 20
-3.4261022229
 10
19.6060725238
 20
-3.3992697868
 10
19.6041505782
 20
-3.3674397111
 10
19.6021917255
 20
-3.3292958912
 10
19.6001932306
 20
-3.2848291882
 10
19.5981578287
 20
-3.2340487409
  0
LINE
  5
58F
100
AcDbEntity
  8
0
100
AcDbLine
 62
250
  6
CONTINUOUS
 10
15.2019038009
 20
-17.4380175341
 11
15.2019038009
 21
-17.4729383036
  0
LINE
  5
590
100
AcDbEntity
  8
RACCORDO
100
AcDbLine
 62
250
  6
CONTINUOUS
 10
15.9174468242
 20
25.6585655408
 11
15.9174468242
 21
24.1594793003
  0
LINE
  5
591
100
AcDbEntity
  8
RACCORDO
100
AcDbLine
 62
250
  6
CONTINUOUS
 10
15.9174468242
 20
-17.244125226
 11
15.9174468242
 21
-15.7450389854
  0
LINE
  5
592
100
AcDbEntity
  8
DRAFT
100
AcDbLine
 62
7
  6
CONTINUOUS
 10
15.9648830949
 20
6.7072201574
 11
15.9648830949
 21
1.7072201574
  0
LINE
  5
593
100
AcDbEntity
  8
RACCORDO
100
AcDbLine
 62
250
  6
CONTINUOUS
 10
16.0315287491
 20
6.8325948057
 11
16.0315287491
 21
6.7072201574
  0
LINE
  5
594
100
AcDbEntity
  8
RACCORDO
100
AcDbLine
 62
250
  6
CONTINUOUS
 10
16.0315287491
 20
1.7072201574
 11
16.0315287491
 21
1.5818455091
  0
LINE
  5
595
100
AcDbEntity
  8
RACCORDO
100
AcDbLine
 62
250
  6
CONTINUOUS
 10
16.4171422377
 20
1.529124233
 11
16.4171422377
 21
-15.2453435719
  0
LINE
  5
596
100
AcDbEntity
  8
RACCORDO
100
AcDbLine
 62
250
  6
CONTINUOUS
 10
16.4171422377
 20
6.8853160818
 11
16.4171422377
 21
14.0392722397
  0
LINE
  5
597
100
AcDbEntity
  8
RACCORDO
100
AcDbLine
 62
250
  6
CONTINUOUS
 10
16.4171422377
 20
20.3751680751
 11
16.4171422377
 21
23.6597838868
  0
LINE
  5
598
100
AcDbEntity
  8
RACCORDO
100
AcDbLine
 62
7
  6
CONTINUOUS
 10
16.5437713244
 20
1.5293112174
 11
16.5437713244
 21
6.8851290974
  0
LWPOLYLINE
  5
599
100
AcDbEntity
  8
RACCORDO
100
AcDbPolyline
 62
250
  6
CONTINUOUS
 90
25
 70
0
 10
16.4171422377
 20
-15.2453435719
 10
16.4160509306
 20
-15.2781732887
 10
16.412864623
 20
-15.3106140095
 10
16.4075833151
 20
-15.3426657341
 10
16.4001666639
 20
-15.3744713337
 10
16.3906550122
 20
-15.4058879372
 10
16.3791693892
 20
-15.4364869315
 10
16.365684608
 20
-15.4662486781
 10
16.3502258554
 20
-15.4951928154
 10
16.3329897213
 20
-15.5229496461
 10
16.3139530306
 20
-15.5495040915
 10
16.2931389583
 20
-15.5748712302
 10
16.2708136196
 20
-15.5987266005
 10
16.2469576881
 20
-15.6210505706
 10
16.2215904902
 20
-15.6418627723
 10
16.1950361205
 20
-15.6608976385
 10
16.1672793927
 20
-15.6781321544
 10
16.138335493
 20
-15.6935893347
 10
16.1085740755
 20
-15.7070726574
 10
16.0779750316
 20
-15.7185569689
 10
16.0465584698
 20
-15.7280674226
 10
16.0147543701
 20
-15.7354829573
 10
15.9827060593
 20
-15.7407632191
 10
15.9502702107
 20
-15.7439485618
 10
15.9174468242
 20
-15.7450389854
  0
LINE
  5
59A
100
AcDbEntity
  8
RACCORDO
100
AcDbLine
 62
250
  6
CONTINUOUS
 10
18.3117998506
 20
-3.4958935478
 11
18.2148830949
 21
-3.5928103035
  0
LINE
  5
59B
100
AcDbEntity
  8
RACCORDO
100
AcDbLine
 62
250
  6
CONTINUOUS
 10
18.5117693897
 20
-3.6958630868
 11
18.4148526339
 21
-3.7927798426
  0
LWPOLYLINE
  5
59C
100
AcDbEntity
  8
0
100
AcDbPolyline
 62
7
  6
CONTINUOUS
 90
10
 70
0
 10
-12.9952618527
 20
13.3201369987
 10
-12.9734700944
 20
13.3255909524
 10
-12.9519139499
 20
13.3305282907
 10
-12.9305934191
 20
13.3349490136
 10
-12.9094864014
 20
13.3389198943
 10
-12.8886149975
 20
13.3423741596
 10
-12.8680455092
 20
13.3451114902
 10
-12.8478000372
 20
13.3470651127
 10
-12.8278564808
 20
13.3483018004
 10
-12.80821484
 20
13.3488215532
  0
LWPOLYLINE
  5
59D
100
AcDbEntity
  8
0
100
AcDbPolyline
 62
7
  6
CONTINUOUS
 90
10
 70
0
 10
-19.5225805212
 20
13.3201369987
 10
-19.5007887629
 20
13.3255909524
 10
-19.4792326183
 20
13.3305282907
 10
-19.4579120875
 20
13.3349490136
 10
-19.4368050699
 20
13.3389198943
 10
-19.415933666
 20
13.3423741596
 10
-19.3953641777
 20
13.3451114902
 10
-19.3751187057
 20
13.3470651127
 10
-19.3551751493
 20
13.3483018004
 10
-19.3355335085
 20
13.3488215532
  0
LINE
  5
59E
100
AcDbEntity
  8
0
100
AcDbLine
 62
7
  6
CONTINUOUS
 10
-6.5165476439
 20
16.8545830932
 11
-6.2360769199
 21
16.9191232436
  0
LINE
  5
59F
100
AcDbEntity
  8
0
100
AcDbLine
 62
7
  6
CONTINUOUS
 10
-19.7801435196
 20
12.9121795819
 11
-20.0351169051
 21
12.8739335741
  0
LINE
  5
5A0
100
AcDbEntity
  8
0
100
AcDbLine
 62
7
  6
CONTINUOUS
 10
-17.3196503497
 20
13.8938271161
 11
-17.0646769642
 21
13.9193244546
  0
LWPOLYLINE
  5
5A1
100
AcDbEntity
  8
0
100
AcDbPolyline
 62
7
  6
CONTINUOUS
 90
19
 70
0
 10
-7.0567723828
 20
15.3550207483
 10
-6.981354441
 20
15.3577726704
 10
-6.909332515
 20
15.3650415445
 10
-6.8407066047
 20
15.3768273705
 10
-6.7755103806
 20
15.3933428074
 10
-6.7137101723
 20
15.4143751963
 10
-6.6552049683
 20
15.4392865604
 10
-6.6001379571
 20
15.4678388024
 10
-6.5483659502
 20
15.5002700197
 10
-6.4993583715
 20
15.536656527
 10
-6.4529685008
 20
15.576797902
 10
-6.4093430582
 20
15.6208945671
 10
-6.3683916276
 20
15.6696241042
 10
-6.3298460788
 20
15.7231927155
 10
-6.2939745421
 20
15.781394199
 10
-6.2614909927
 20
15.8442875299
 10
-6.2326334221
 20
15.9118923668
 10
-6.2071638388
 20
15.9841890513
 10
-6.1850822428
 20
16.0611775833
  0
LINE
  5
5A2
100
AcDbEntity
  8
0
100
AcDbLine
 62
7
  6
CONTINUOUS
 10
-19.2263733075
 20
15.3932667561
 11
-18.9245882713
 21
15.3932667561
  0
LINE
  5
5A3
100
AcDbEntity
  8
0
100
AcDbLine
 62
7
  6
CONTINUOUS
 10
-17.8501146288
 20
15.3932667561
 11
-17.5696439048
 21
15.3932667561
  0
LINE
  5
5A4
100
AcDbEntity
  8
0
100
AcDbLine
 62
7
  6
CONTINUOUS
 10
-17.3047104694
 20
15.3932667561
 11
-17.0087024567
 21
15.3932667561
  0
LINE
  5
5A5
100
AcDbEntity
  8
0
100
AcDbLine
 62
7
  6
CONTINUOUS
 10
-15.6573435136
 20
15.3932667561
 11
-15.3591440954
 21
15.3932667561
  0
LINE
  5
5A6
100
AcDbEntity
  8
0
100
AcDbLine
 62
7
  6
CONTINUOUS
 10
-15.1346480734
 20
15.3932667561
 11
-13.8087864688
 21
15.3932667561
  0
LINE
  5
5A7
100
AcDbEntity
  8
0
100
AcDbLine
 62
7
  6
CONTINUOUS
 10
-13.4773210677
 20
15.3932667561
 11
-11.9219834162
 21
15.3932667561
  0
LINE
  5
5A8
100
AcDbEntity
  8
0
100
AcDbLine
 62
7
  6
CONTINUOUS
 10
-10.1110747763
 20
15.3932667561
 11
-9.8092897401
 21
15.3932667561
  0
LINE
  5
5A9
100
AcDbEntity
  8
0
100
AcDbLine
 62
7
  6
CONTINUOUS
 10
-8.7348160976
 20
15.3932667561
 11
-8.4543453736
 21
15.3932667561
  0
LINE
  5
5AA
100
AcDbEntity
  8
0
100
AcDbLine
 62
7
  6
CONTINUOUS
 10
-5.8281195031
 20
15.3932667561
 11
-4.2727818516
 21
15.3932667561
  0
LINE
  5
5AB
100
AcDbEntity
  8
0
100
AcDbLine
 62
7
  6
CONTINUOUS
 10
-3.8775731041
 20
15.3932667561
 11
-3.5971023801
 21
15.3932667561
  0
LINE
  5
5AC
100
AcDbEntity
  8
0
100
AcDbLine
 62
7
  6
CONTINUOUS
 10
-2.5439426607
 20
15.3932667561
 11
-2.245743437
 21
15.3932667561
  0
LINE
  5
5AD
100
AcDbEntity
  8
0
100
AcDbLine
 62
7
  6
CONTINUOUS
 10
-1.9525240437
 20
15.3932667561
 11
-0.2824483687
 21
15.3932667561
  0
LINE
  5
5AE
100
AcDbEntity
  8
0
100
AcDbLine
 62
7
  6
CONTINUOUS
 10
-0.2214936418
 20
15.3932667561
 11
0.0745143709
 21
15.3932667561
  0
LINE
  5
5AF
100
AcDbEntity
  8
0
100
AcDbLine
 62
7
  6
CONTINUOUS
 10
1.425873314
 20
15.3932667561
 11
1.7240727323
 21
15.3932667561
  0
LINE
  5
5B0
100
AcDbEntity
  8
0
100
AcDbLine
 62
7
  6
CONTINUOUS
 10
3.3891683823
 20
15.3932667561
 11
3.6441417678
 21
15.3932667561
  0
LINE
  5
5B1
100
AcDbEntity
  8
0
100
AcDbLine
 62
7
  6
CONTINUOUS
 10
5.1484847421
 20
15.3932667561
 11
5.4034581276
 21
15.3932667561
  0
LINE
  5
5B2
100
AcDbEntity
  8
RACCORDO
100
AcDbLine
 62
250
  6
CONTINUOUS
 10
26.8825264261
 20
15.5383584803
 11
26.3828310126
 21
15.5383584803
  0
LINE
  5
5B3
100
AcDbEntity
  8
0
100
AcDbLine
 62
7
  6
CONTINUOUS
 10
-0.2824483687
 20
15.6354914723
 11
-1.6348031223
 21
15.6354914723
  0
LINE
  5
5B4
100
AcDbEntity
  8
0
100
AcDbLine
 62
7
  6
CONTINUOUS
 10
-4.2727818516
 20
15.6354914723
 11
-5.5476487791
 21
15.6354914723
  0
LINE
  5
5B5
100
AcDbEntity
  8
0
100
AcDbLine
 62
7
  6
CONTINUOUS
 10
-11.9219834162
 20
15.6354914723
 11
-13.1968503437
 21
15.6354914723
  0
LINE
  5
5B6
100
AcDbEntity
  8
0
100
AcDbLine
 62
7
  6
CONTINUOUS
 10
-13.8087864688
 20
15.6354914723
 11
-14.8541773493
 21
15.6354914723
  0
LINE
  5
5B7
100
AcDbEntity
  8
0
100
AcDbLine
 62
7
  6
CONTINUOUS
 10
4.2178318851
 20
15.8904648578
 11
5.1484847421
 21
15.8904648578
  0
LINE
  5
5B8
100
AcDbEntity
  8
0
100
AcDbLine
 62
7
  6
CONTINUOUS
 10
5.4034581276
 20
15.8904648578
 11
5.6839288517
 21
15.8904648578
  0
LINE
  5
5B9
100
AcDbEntity
  8
0
100
AcDbLine
 62
7
  6
CONTINUOUS
 10
-16.7869950541
 20
16.0307002198
 11
-15.891998592
 21
16.0307002198
  0
LINE
  5
5BA
100
AcDbEntity
  8
0
100
AcDbLine
 62
7
  6
CONTINUOUS
 10
0.2962217735
 20
16.0307002198
 11
1.1912182357
 21
16.0307002198
  0
LINE
  5
5BB
100
AcDbEntity
  8
0
100
AcDbLine
 62
7
  6
CONTINUOUS
 10
5.6839288517
 20
16.132689574
 11
5.4034581276
 21
16.132689574
  0
LINE
  5
5BC
100
AcDbEntity
  8
0
100
AcDbLine
 62
7
  6
CONTINUOUS
 10
5.1484847421
 20
16.132689574
 11
4.4732036726
 21
16.132689574
  0
LINE
  5
5BD
100
AcDbEntity
  8
0
100
AcDbLine
 62
7
  6
CONTINUOUS
 10
1.1065591737
 20
16.2601762667
 11
0.3761002061
 21
16.2601762667
  0
LINE
  5
5BE
100
AcDbEntity
  8
0
100
AcDbLine
 62
7
  6
CONTINUOUS
 10
-15.9766576539
 20
16.2601762667
 11
-16.7071166215
 21
16.2601762667
  0
LINE
  5
5BF
100
AcDbEntity
  8
0
100
AcDbLine
 62
7
  6
CONTINUOUS
 10
-13.1968503437
 20
16.3621656209
 11
-12.049470109
 21
16.3621656209
  0
LINE
  5
5C0
100
AcDbEntity
  8
0
100
AcDbLine
 62
7
  6
CONTINUOUS
 10
-5.5476487791
 20
16.3621656209
 11
-4.4002685444
 21
16.3621656209
  0
LINE
  5
5C1
100
AcDbEntity
  8
0
100
AcDbLine
 62
7
  6
CONTINUOUS
 10
-4.4002685444
 20
16.6043903372
 11
-5.5476487791
 21
16.6043903372
  0
LINE
  5
5C2
100
AcDbEntity
  8
0
100
AcDbLine
 62
7
  6
CONTINUOUS
 10
-12.049470109
 20
16.6043903372
 11
-13.1968503437
 21
16.6043903372
  0
LINE
  5
5C3
100
AcDbEntity
  8
0
100
AcDbLine
 62
7
  6
CONTINUOUS
 10
-13.1968503437
 20
17.2545724701
 11
-11.9729780933
 21
17.2545724701
  0
LINE
  5
5C4
100
AcDbEntity
  8
0
100
AcDbLine
 62
7
  6
CONTINUOUS
 10
-5.5476487791
 20
17.2545724701
 11
-4.3237765287
 21
17.2545724701
  0
LINE
  5
5C5
100
AcDbEntity
  8
0
100
AcDbLine
 62
7
  6
CONTINUOUS
 10
-1.8250373509
 20
17.2545724701
 11
-0.6593308191
 21
17.2545724701
  0
LINE
  5
5C6
100
AcDbEntity
  8
0
100
AcDbLine
 62
7
  6
CONTINUOUS
 10
5.4034581276
 20
17.4967971864
 11
5.1994794192
 21
17.4967971864
  0
LINE
  5
5C7
100
AcDbEntity
  8
0
100
AcDbLine
 62
7
  6
CONTINUOUS
 10
0.8814653542
 20
17.4967971864
 11
0.5780869045
 21
17.4967971864
  0
LINE
  5
5C8
100
AcDbEntity
  8
0
100
AcDbLine
 62
7
  6
CONTINUOUS
 10
-0.3334430458
 20
17.4967971864
 11
-1.8250373509
 21
17.4967971864
  0
LINE
  5
5C9
100
AcDbEntity
  8
0
100
AcDbLine
 62
7
  6
CONTINUOUS
 10
-2.245743437
 20
17.4967971864
 11
-2.526214161
 21
17.4967971864
  0
LINE
  5
5CA
100
AcDbEntity
  8
0
100
AcDbLine
 62
7
  6
CONTINUOUS
 10
-3.5793736859
 20
17.4967971864
 11
-3.8775731041
 21
17.4967971864
  0
LINE
  5
5CB
100
AcDbEntity
  8
0
100
AcDbLine
 62
7
  6
CONTINUOUS
 10
-4.3237765287
 20
17.4967971864
 11
-5.8281195031
 21
17.4967971864
  0
LINE
  5
5CC
100
AcDbEntity
  8
0
100
AcDbLine
 62
7
  6
CONTINUOUS
 10
-8.4543453736
 20
17.4967971864
 11
-8.7348160976
 21
17.4967971864
  0
LINE
  5
5CD
100
AcDbEntity
  8
0
100
AcDbLine
 62
7
  6
CONTINUOUS
 10
-8.97026798
 20
17.4967971864
 11
-9.2702602072
 21
17.4967971864
  0
LINE
  5
5CE
100
AcDbEntity
  8
0
100
AcDbLine
 62
7
  6
CONTINUOUS
 10
-10.6216191503
 20
17.4967971864
 11
-10.919818374
 21
17.4967971864
  0
LINE
  5
5CF
100
AcDbEntity
  8
0
100
AcDbLine
 62
7
  6
CONTINUOUS
 10
-11.9729780933
 20
17.4967971864
 11
-13.4773210677
 21
17.4967971864
  0
LINE
  5
5D0
100
AcDbEntity
  8
0
100
AcDbLine
 62
7
  6
CONTINUOUS
 10
-14.8541773493
 20
17.4967971864
 11
-15.1346480734
 21
17.4967971864
  0
LINE
  5
5D1
100
AcDbEntity
  8
0
100
AcDbLine
 62
7
  6
CONTINUOUS
 10
-16.2017514735
 20
17.4967971864
 11
-16.5051299231
 21
17.4967971864
  0
LINE
  5
5D2
100
AcDbEntity
  8
0
100
AcDbLine
 62
7
  6
CONTINUOUS
 10
-17.5696439048
 20
17.4967971864
 11
-17.8501146288
 21
17.4967971864
  0
LINE
  5
5D3
100
AcDbEntity
  8
0
100
AcDbLine
 62
7
  6
CONTINUOUS
 10
-18.0855665111
 20
17.4967971864
 11
-18.3855587383
 21
17.4967971864
  0
LINE
  5
5D4
100
AcDbEntity
  8
0
100
AcDbLine
 62
7
  6
CONTINUOUS
 10
-19.7369176814
 20
17.4967971864
 11
-20.0351169051
 21
17.4967971864
  0
LINE
  5
5D5
100
AcDbEntity
  8
0
100
AcDbLine
 62
7
  6
CONTINUOUS
 10
3.6441417678
 20
17.5095458556
 11
3.4798034742
 21
17.5095458556
  0
LWPOLYLINE
  5
5D6
100
AcDbEntity
  8
0
100
AcDbPolyline
 62
7
  6
CONTINUOUS
 90
16
 70
0
 10
-7.07310667
 20
17.292818478
 10
-7.0159028951
 20
17.2899490363
 10
-6.9618303412
 20
17.2834441733
 10
-6.9108890083
 20
17.273303889
 10
-6.8631405202
 20
17.2595257938
 10
-6.8185232531
 20
17.2421122773
 10
-6.7768523355
 20
17.2210705079
 10
-6.738291271
 20
17.1966310064
 10
-6.702676556
 20
17.168563252
 10
-6.6693328085
 20
17.1361828515
 10
-6.638000169
 20
17.0990906738
 10
-6.6089384971
 20
17.0576858499
 10
-6.5822519889
 20
17.01248138
 10
-6.5579753768
 20
16.9636482639
 10
-6.5360739284
 20
16.9110155016
 10
-6.5165476439
 20
16.8545830932
  0
LWPOLYLINE
  5
5D7
100
AcDbEntity
  8
0
100
AcDbPolyline
 62
7
  6
CONTINUOUS
 90
16
 70
0
 10
-8.9863034657
 20
19.7149431297
 10
-9.0201913341
 20
19.7230644308
 10
-9.0531637071
 20
19.7313366703
 10
-9.0852205846
 20
19.7397598481
 10
-9.1163150092
 20
19.7483251216
 10
-9.1464939382
 20
19.7570413334
 10
-9.1758982444
 20
19.7659350119
 10
-9.2046263602
 20
19.7749394128
 10
-9.2325798531
 20
19.7841212805
 10
-9.2596042978
 20
19.7937073762
 10
-9.2859212716
 20
19.8035448691
 10
-9.3113091972
 20
19.8137865902
 10
-9.334948917
 20
19.8251177937
 10
-9.3565673785
 20
19.8377668977
 10
-9.3764376341
 20
19.8515054842
 10
-9.394559684
 20
19.866333553
  0
LWPOLYLINE
  5
5D8
100
AcDbEntity
  8
0
100
AcDbPolyline
 62
7
  6
CONTINUOUS
 90
3
 70
0
 10
-9.0498476111
 20
19.4413447428
 10
-8.9634309026
 20
19.4194135708
 10
-8.8387217666
 20
19.3873688717
  0
LWPOLYLINE
  5
5D9
100
AcDbEntity
  8
0
100
AcDbPolyline
 62
7
  6
CONTINUOUS
 90
16
 70
0
 10
-11.90784034
 20
19.3944335889
 10
-11.8723539156
 20
19.3845625925
 10
-11.837697107
 20
19.3707984088
 10
-11.8038699141
 20
19.3531410379
 10
-11.7708455194
 20
19.3314201413
 10
-11.7386507403
 20
19.3058060575
 10
-11.7073660301
 20
19.2768098014
 10
-11.677252697
 20
19.2440638414
 10
-11.6480494327
 20
19.2079357091
 10
-11.6190527647
 20
19.1700390138
 10
-11.5902094211
 20
19.130836265
 10
-11.5615726738
 20
19.0898649532
 10
-11.5325988655
 20
19.0473511588
 10
-11.5031067771
 20
19.003370242
 10
-11.4732776277
 20
18.9578468425
 10
-11.4431114172
 20
18.9107809604
  0
LWPOLYLINE
  5
5DA
100
AcDbEntity
  8
0
100
AcDbPolyline
 62
7
  6
CONTINUOUS
 90
5
 70
0
 10
-8.8387217666
 20
19.3873688717
 10
-8.7988060662
 20
19.3761577628
 10
-8.7600032863
 20
19.3640512508
 10
-8.7222062089
 20
19.3512858227
 10
-8.685414834
 20
19.3378614784
  0
LWPOLYLINE
  5
5DB
100
AcDbEntity
  8
0
100
AcDbPolyline
 62
7
  6
CONTINUOUS
 90
31
 70
0
 10
-6.7259045847
 20
20.3161225956
 10
-6.6945275982
 20
20.3052051284
 10
-6.6645578013
 20
20.2906682631
 10
-6.6359951937
 20
20.2725119996
 10
-6.6082843484
 20
20.2504564031
 10
-6.5819806926
 20
20.2247814084
 10
-6.558750508
 20
20.19632682
 10
-6.5390075717
 20
20.1653465579
 10
-6.5223381066
 20
20.1315867022
 10
-6.5091670633
 20
20.0951252968
 10
-6.4996015389
 20
20.0550608782
 10
-6.4935344363
 20
20.0122949099
 10
-6.4910694153
 20
19.9696098268
 10
-6.492336537
 20
19.9270982886
 10
-6.4972057402
 20
19.8846676355
 10
-6.5053905013
 20
19.8448223232
 10
-6.516951393
 20
19.80828413
 10
-6.5318278426
 20
19.7743312775
 10
-6.5495516079
 20
19.7433028866
 10
-6.5699351776
 20
19.7153513882
 10
-6.5931660632
 20
19.6903243512
 10
-6.6193385567
 20
19.6681036042
 10
-6.6485994136
 20
19.6487647227
 10
-6.6808018784
 20
19.6322321311
 10
-6.715599977
 20
19.6181609303
 10
-6.7531187551
 20
19.6065123587
 10
-6.793233167
 20
19.597325178
 10
-6.8352221005
 20
19.5903707744
 10
-6.8788451849
 20
19.5855729434
 10
-6.9243427911
 20
19.5830078896
 10
-6.9717149188
 20
19.582675613
  0
LINE
  5
5DC
100
AcDbEntity
  8
DRAFT
100
AcDbLine
 62
7
  6
CONTINUOUS
 10
14.5891683247
 20
6.8329349276
 11
14.5367871705
 21
6.8853160818
  0
LINE
  5
5DD
100
AcDbEntity
  8
RACCORDO
100
AcDbLine
 62
7
  6
CONTINUOUS
 10
16.4349075803
 20
6.8160839015
 11
16.5437713244
 21
6.7072201574
  0
LWPOLYLINE
  5
5DE
100
AcDbEntity
  8
RACCORDO
100
AcDbPolyline
 62
250
  6
CONTINUOUS
 90
12
 70
0
 10
19.4179968001
 20
-3.6958630868
 10
19.4164758102
 20
-3.6927917027
 10
19.4148947072
 20
-3.6864988465
 10
19.413253491
 20
-3.6765884074
 10
19.4115493953
 20
-3.6626615535
 10
19.4097851865
 20
-3.6442969952
 10
19.4079691639
 20
-3.6210324434
 10
19.40609911
 20
-3.5924170304
 10
19.4041772423
 20
-3.5580010785
 10
19.4022185132
 20
-3.5172844689
 10
19.4002201839
 20
-3.4697982161
 10
19.3981849932
 20
-3.4150896759
  0
LINE
  5
5DF
100
AcDbEntity
  8
RACCORDO
100
AcDbLine
 62
250
  6
CONTINUOUS
 10
18.3316083611
 20
11.6484890558
 11
18.3357261311
 21
11.5239099542
  0
LINE
  5
5E0
100
AcDbEntity
  8
RACCORDO
100
AcDbLine
 62
250
  6
CONTINUOUS
 10
19.5981578287
 20
-3.2340487409
 11
19.5940400586
 21
-3.1094696393
  0
LINE
  5
5E1
100
AcDbEntity
  8
RACCORDO
100
AcDbLine
 62
250
  6
CONTINUOUS
 10
18.5315811966
 20
11.8295299908
 11
18.535698306
 21
11.6964065504
  0
LINE
  5
5E2
100
AcDbEntity
  8
RACCORDO
100
AcDbLine
 62
250
  6
CONTINUOUS
 10
19.3981849932
 20
-3.4150896759
 11
19.3940678837
 21
-3.2819662356
  0
LINE
  5
5E3
100
AcDbEntity
  8
RACCORDO
100
AcDbLine
 62
250
  6
CONTINUOUS
 10
18.3357261311
 20
11.5239099542
 11
18.339864516
 21
11.3680542584
  0
LINE
  5
5E4
100
AcDbEntity
  8
RACCORDO
100
AcDbLine
 62
250
  6
CONTINUOUS
 10
19.5940400586
 20
-3.1094696393
 11
19.5899016738
 21
-2.9536139435
  0
LINE
  5
5E5
100
AcDbEntity
  8
RACCORDO
100
AcDbLine
 62
250
  6
CONTINUOUS
 10
18.535698306
 20
11.6964065504
 11
18.5398357171
 21
11.5292146528
  0
LINE
  5
5E6
100
AcDbEntity
  8
RACCORDO
100
AcDbLine
 62
250
  6
CONTINUOUS
 10
19.3940678837
 20
-3.2819662356
 11
19.3899304726
 21
-3.1147743379
  0
LINE
  5
5E7
100
AcDbEntity
  8
RACCORDO
100
AcDbLine
 62
250
  6
CONTINUOUS
 10
18.339864516
 20
11.3680542584
 11
18.3458343367
 21
11.0716768576
  0
LINE
  5
5E8
100
AcDbEntity
  8
RACCORDO
100
AcDbLine
 62
250
  6
CONTINUOUS
 10
19.5899016738
 20
-2.9536139435
 11
19.5839318531
 21
-2.6572365427
  0
LINE
  5
5E9
100
AcDbEntity
  8
RACCORDO
100
AcDbLine
 62
250
  6
CONTINUOUS
 10
18.5398357171
 20
11.5292146528
 11
18.5458035169
 21
11.211764839
  0
LINE
  5
5EA
100
AcDbEntity
  8
RACCORDO
100
AcDbLine
 62
250
  6
CONTINUOUS
 10
19.3899304726
 20
-3.1147743379
 11
19.3839626729
 21
-2.7973245242
  0
LINE
  5
5EB
100
AcDbEntity
  8
RACCORDO
100
AcDbLine
 62
250
  6
CONTINUOUS
 10
18.3458343367
 20
11.0716768576
 11
18.3508885325
 21
10.7244154115
  0
LINE
  5
5EC
100
AcDbEntity
  8
RACCORDO
100
AcDbLine
 62
250
  6
CONTINUOUS
 10
19.5839318531
 20
-2.6572365427
 11
19.5788776573
 21
-2.3099750967
  0
LINE
  5
5ED
100
AcDbEntity
  8
RACCORDO
100
AcDbLine
 62
250
  6
CONTINUOUS
 10
18.5458035169
 20
11.211764839
 11
18.5522472318
 21
10.7119530882
  0
LINE
  5
5EE
100
AcDbEntity
  8
RACCORDO
100
AcDbLine
 62
250
  6
CONTINUOUS
 10
19.3839626729
 20
-2.7973245242
 11
19.377518958
 21
-2.2975127733
  0
LINE
  5
5EF
100
AcDbEntity
  8
RACCORDO
100
AcDbLine
 62
250
  6
CONTINUOUS
 10
18.3508885325
 20
10.7244154115
 11
18.3556175478
 21
10.2473406345
  0
LINE
  5
5F0
100
AcDbEntity
  8
RACCORDO
100
AcDbLine
 62
250
  6
CONTINUOUS
 10
19.5788776573
 20
-2.3099750967
 11
19.5741486419
 21
-1.8329003196
  0
LINE
  5
5F1
100
AcDbEntity
  8
RACCORDO
100
AcDbLine
 62
250
  6
CONTINUOUS
 10
18.5522472318
 20
10.7119530882
 11
18.5571688964
 21
10.0801170536
  0
LINE
  5
5F2
100
AcDbEntity
  8
RACCORDO
100
AcDbLine
 62
250
  6
CONTINUOUS
 10
19.377518958
 20
-2.2975127733
 11
19.3725972933
 21
-1.6656767387
  0
LINE
  5
5F3
100
AcDbEntity
  8
RACCORDO
100
AcDbLine
 62
250
  6
CONTINUOUS
 10
18.3556175478
 20
10.2473406345
 11
18.3591295366
 21
9.5811552732
  0
LINE
  5
5F4
100
AcDbEntity
  8
RACCORDO
100
AcDbLine
 62
250
  6
CONTINUOUS
 10
19.5741486419
 20
-1.8329003196
 11
19.5706366532
 21
-1.1667149583
  0
LINE
  5
5F5
100
AcDbEntity
  8
RACCORDO
100
AcDbLine
 62
250
  6
CONTINUOUS
 10
18.5571688964
 20
10.0801170536
 11
18.5597008623
 21
9.3011117432
  0
LINE
  5
5F6
100
AcDbEntity
  8
RACCORDO
100
AcDbLine
 62
250
  6
CONTINUOUS
 10
19.3725972933
 20
-1.6656767387
 11
19.3700653274
 21
-0.8866714284
  0
LINE
  5
5F7
100
AcDbEntity
  8
RACCORDO
100
AcDbLine
 62
250
  6
CONTINUOUS
 10
17.9162284783
 20
23.6596570995
 11
17.9162284783
 21
20.9085655408
  0
LINE
  5
5F8
100
AcDbEntity
  8
RACCORDO
100
AcDbLine
 62
250
  6
CONTINUOUS
 10
17.9162284783
 20
13.505874774
 11
17.9162284783
 21
-15.2452193671
  0
LINE
  5
5F9
100
AcDbEntity
  8
RACCORDO
100
AcDbLine
 62
7
  6
CONTINUOUS
 10
18.0228188627
 20
8.4754492928
 11
18.0228188627
 21
-0.0610089779
  0
LINE
  5
5FA
100
AcDbEntity
  8
DRAFT
100
AcDbLine
 62
7
  6
CONTINUOUS
 10
18.2148830949
 20
-0.4554779188
 11
18.2148830949
 21
-0.7927798426
  0
LINE
  5
5FB
100
AcDbEntity
  8
RACCORDO
100
AcDbLine
 62
7
  6
CONTINUOUS
 10
18.2148830949
 20
-15.5439981885
 11
18.2148830949
 21
-0.5427798426
  0
LINE
  5
5FC
100
AcDbEntity
  8
RACCORDO
100
AcDbLine
 62
7
  6
CONTINUOUS
 10
18.2148830949
 20
9.2072201574
 11
18.2148830949
 21
12.0072506184
  0
LINE
  5
5FD
100
AcDbEntity
  8
DRAFT
100
AcDbLine
 62
7
  6
CONTINUOUS
 10
18.2148830949
 20
8.8699182337
 11
18.2148830949
 21
13.2072201574
  0
LINE
  5
5FE
100
AcDbEntity
  8
RACCORDO
100
AcDbLine
 62
7
  6
CONTINUOUS
 10
18.2148830949
 20
12.4070983228
 11
18.2148830949
 21
13.5040466981
  0
LINE
  5
5FF
100
AcDbEntity
  8
RACCORDO
100
AcDbLine
 62
7
  6
CONTINUOUS
 10
18.2148830949
 20
20.9103936167
 11
18.2148830949
 21
23.9584385034
  0
LINE
  5
600
100
AcDbEntity
  8
RACCORDO
100
AcDbLine
 62
7
  6
CONTINUOUS
 10
18.3126314585
 20
-0.2036828474
 11
18.3126314585
 21
8.6181231623
  0
LINE
  5
601
100
AcDbEntity
  8
RACCORDO
100
AcDbLine
 62
250
  6
CONTINUOUS
 10
18.3591295366
 20
9.5811552732
 11
18.3598210604
 21
-0.6963200013
  0
LINE
  5
602
100
AcDbEntity
  8
RACCORDO
100
AcDbLine
 62
250
  6
CONTINUOUS
 10
19.5706366532
 20
-1.1667149583
 11
19.5699451294
 21
9.1107603162
  0
LINE
  5
603
100
AcDbEntity
  8
RACCORDO
100
AcDbLine
 62
7
  6
CONTINUOUS
 10
19.6171347313
 20
-0.2036828474
 11
19.6171347313
 21
8.6181231623
  0
LINE
  5
604
100
AcDbEntity
  8
RACCORDO
100
AcDbLine
 62
7
  6
CONTINUOUS
 10
19.7148830949
 20
12.007341992
 11
19.7148830949
 21
9.2072201574
  0
LINE
  5
605
100
AcDbEntity
  8
RACCORDO
100
AcDbLine
 62
7
  6
CONTINUOUS
 10
19.7148830949
 20
-0.7927798426
 11
19.7148830949
 21
-3.5929016772
  0
LINE
  5
606
100
AcDbEntity
  8
RACCORDO
100
AcDbLine
 62
250
  6
CONTINUOUS
 10
18.5597008623
 20
9.3011117432
 11
18.5597778741
 21
-0.7895137947
  0
LINE
  5
607
100
AcDbEntity
  8
RACCORDO
100
AcDbLine
 62
250
  6
CONTINUOUS
 10
19.3700653274
 20
-0.8866714284
 11
19.3699883157
 21
9.2039541096
  0
LINE
  5
608
100
AcDbEntity
  8
RACCORDO
100
AcDbLine
 62
250
  6
CONTINUOUS
 10
18.3598210604
 20
-0.6963200013
 11
18.3583478458
 21
-1.3780571935
  0
LINE
  5
609
100
AcDbEntity
  8
RACCORDO
100
AcDbLine
 62
250
  6
CONTINUOUS
 10
19.5699451294
 20
9.1107603162
 11
19.5714183439
 21
9.7924975083
  0
LINE
  5
60A
100
AcDbEntity
  8
RACCORDO
100
AcDbLine
 62
250
  6
CONTINUOUS
 10
18.5597778741
 20
-0.7895137947
 11
18.557797126
 21
-1.5449420944
  0
LINE
  5
60B
100
AcDbEntity
  8
RACCORDO
100
AcDbLine
 62
250
  6
CONTINUOUS
 10
19.3699883157
 20
9.2039541096
 11
19.3719690638
 21
9.9593824093
  0
LINE
  5
60C
100
AcDbEntity
  8
RACCORDO
100
AcDbLine
 62
250
  6
CONTINUOUS
 10
18.3583478458
 20
-1.3780571935
 11
18.354639345
 21
-1.9510262341
  0
LINE
  5
60D
100
AcDbEntity
  8
RACCORDO
100
AcDbLine
 62
250
  6
CONTINUOUS
 10
19.5714183439
 20
9.7924975083
 11
19.5751268447
 21
10.3654665489
  0
LINE
  5
60E
100
AcDbEntity
  8
RACCORDO
100
AcDbLine
 62
250
  6
CONTINUOUS
 10
18.557797126
 20
-1.5449420944
 11
18.553493288
 21
-2.1689545828
  0
LINE
  5
60F
100
AcDbEntity
  8
RACCORDO
100
AcDbLine
 62
250
  6
CONTINUOUS
 10
19.3719690638
 20
9.9593824093
 11
19.3762729018
 21
10.5833948976
  0
LINE
  5
610
100
AcDbEntity
  8
RACCORDO
100
AcDbLine
 62
250
  6
CONTINUOUS
 10
18.354639345
 20
-1.9510262341
 11
18.3493342595
 21
-2.428479241
  0
LINE
  5
611
100
AcDbEntity
  8
RACCORDO
100
AcDbLine
 62
250
  6
CONTINUOUS
 10
19.5751268447
 20
10.3654665489
 11
19.5804319303
 21
10.8429195558
  0
LINE
  5
612
100
AcDbEntity
  8
RACCORDO
100
AcDbLine
 62
250
  6
CONTINUOUS
 10
18.553493288
 20
-2.1689545828
 11
18.5476038351
 21
-2.6779422828
  0
LINE
  5
613
100
AcDbEntity
  8
RACCORDO
100
AcDbLine
 62
250
  6
CONTINUOUS
 10
19.3762729018
 20
10.5833948976
 11
19.3821623546
 21
11.0923825977
  0
LINE
  5
614
100
AcDbEntity
  8
RACCORDO
100
AcDbLine
 62
250
  6
CONTINUOUS
 10
18.3493342595
 20
-2.428479241
 11
18.3439210043
 21
-2.7625509937
  0
LINE
  5
615
100
AcDbEntity
  8
RACCORDO
100
AcDbLine
 62
250
  6
CONTINUOUS
 10
19.5804319303
 20
10.8429195558
 11
19.5858451854
 21
11.1769913086
  0
LINE
  5
616
100
AcDbEntity
  8
RACCORDO
100
AcDbLine
 62
250
  6
CONTINUOUS
 10
18.5476038351
 20
-2.6779422828
 11
18.541876484
 21
-3.0172640759
  0
LINE
  5
617
100
AcDbEntity
  8
RACCORDO
100
AcDbLine
 62
250
  6
CONTINUOUS
 10
19.3821623546
 20
11.0923825977
 11
19.3878897058
 21
11.4317043907
  0
LINE
  5
618
100
AcDbEntity
  8
RACCORDO
100
AcDbLine
 62
250
  6
CONTINUOUS
 10
18.3439210043
 20
-2.7625509937
 11
18.339864516
 21
-2.9536139434
  0
LINE
  5
619
100
AcDbEntity
  8
RACCORDO
100
AcDbLine
 62
250
  6
CONTINUOUS
 10
19.5858451854
 20
11.1769913086
 11
19.5899016738
 21
11.3680542582
  0
LINE
  5
61A
100
AcDbEntity
  8
RACCORDO
100
AcDbLine
 62
250
  6
CONTINUOUS
 10
18.541876484
 20
-3.0172640759
 11
18.5377802248
 21
-3.2026780638
  0
LINE
  5
61B
100
AcDbEntity
  8
RACCORDO
100
AcDbLine
 62
250
  6
CONTINUOUS
 10
19.3878897058
 20
11.4317043907
 11
19.391985965
 21
11.6171183786
  0
LINE
  5
61C
100
AcDbEntity
  8
RACCORDO
100
AcDbLine
 62
250
  6
CONTINUOUS
 10
18.339864516
 20
-2.9536139434
 11
18.3357261312
 21
-3.1094696403
  0
LINE
  5
61D
100
AcDbEntity
  8
RACCORDO
100
AcDbLine
 62
250
  6
CONTINUOUS
 10
19.5899016738
 20
11.3680542582
 11
19.5940400586
 21
11.5239099552
  0
LWPOLYLINE
  5
61E
100
AcDbEntity
  8
RACCORDO
100
AcDbPolyline
 62
250
  6
CONTINUOUS
 90
14
 70
0
 10
18.5377802248
 20
-3.2026780638
 10
18.5336300799
 20
-3.3526653221
 10
18.5315811966
 20
-3.4150896759
 10
18.5295460058
 20
-3.4697982161
 10
18.5275476765
 20
-3.5172844689
 10
18.5255889475
 20
-3.5580010785
 10
18.5236670798
 20
-3.5924170304
 10
18.5217970259
 20
-3.6210324434
 10
18.5199810033
 20
-3.6442969952
 10
18.5182167944
 20
-3.6626615535
 10
18.5165126987
 20
-3.6765884074
 10
18.5148714825
 20
-3.6864988465
 10
18.5132903795
 20
-3.6927917027
 10
18.5117693897
 20
-3.6958630868
  0
LWPOLYLINE
  5
61F
100
AcDbEntity
  8
RACCORDO
100
AcDbPolyline
 62
250
  6
CONTINUOUS
 90
14
 70
0
 10
19.391985965
 20
11.6171183786
 10
19.3961361098
 20
11.767105637
 10
19.3981849932
 20
11.8295299908
 10
19.4002201839
 20
11.8842385309
 10
19.4022185132
 20
11.9317247838
 10
19.4041772423
 20
11.9724413933
 10
19.4060991099
 20
12.0068573452
 10
19.4079691639
 20
12.0354727582
 10
19.4097851865
 20
12.05873731
 10
19.4115493953
 20
12.0771018683
 10
19.4132534911
 20
12.0910287223
 10
19.4148947072
 20
12.1009391613
 10
19.4164758102
 20
12.1072320175
 10
19.4179968001
 20
12.1103034017
  0
LWPOLYLINE
  5
620
100
AcDbEntity
  8
RACCORDO
100
AcDbPolyline
 62
7
  6
CONTINUOUS
 90
25
 70
0
 10
18.2148830949
 20
12.0072506184
 10
18.2153259122
 20
12.0204166907
 10
18.2166055168
 20
12.0334163984
 10
18.2187219087
 20
12.0462497416
 10
18.221691216
 20
12.0589700598
 10
18.2254973107
 20
12.0715240135
 10
18.2300918081
 20
12.0837515837
 10
18.235484825
 20
12.0956486173
 10
18.2416662447
 20
12.1072192673
 10
18.2485573329
 20
12.1183159736
 10
18.2561671947
 20
12.1289326616
 10
18.2644867249
 20
12.1390754057
 10
18.2734098733
 20
12.1486148694
 10
18.2829443824
 20
12.1575433151
 10
18.2930825097
 20
12.1658684804
 10
18.3036949777
 20
12.1734842407
 10
18.3147878667
 20
12.1803814941
 10
18.3263550964
 20
12.1865693427
 10
18.3382491477
 20
12.1919689677
 10
18.3504741793
 20
12.1965702536
 10
18.3630260326
 20
12.200383316
 10
18.3757447124
 20
12.2033596832
 10
18.3885768871
 20
12.2054831981
 10
18.4015758884
 20
12.2067700179
 10
18.4147417162
 20
12.2072201425
  0
LWPOLYLINE
  5
621
100
AcDbEntity
  8
RACCORDO
100
AcDbPolyline
 62
7
  6
CONTINUOUS
 90
25
 70
0
 10
18.2148830949
 20
-3.992658008
 10
18.2153253935
 20
-3.9794935952
 10
18.2166043161
 20
-3.9664954967
 10
18.2187198626
 20
-3.9536637127
 10
18.2216880355
 20
-3.9409448776
 10
18.2254928324
 20
-3.9283923568
 10
18.2300862456
 20
-3.9161662472
 10
18.2354784739
 20
-3.9042706293
 10
18.2416593186
 20
-3.8927014226
 10
18.2485501765
 20
-3.881606482
 10
18.2561602252
 20
-3.8709919127
 10
18.2644802871
 20
-3.8608516096
 10
18.2734042256
 20
-3.8513151121
 10
18.2829398378
 20
-3.8423902141
 10
18.2930793266
 20
-3.8340691217
 10
18.3036931635
 20
-3.8264579938
 10
18.314787458
 20
-3.8195660077
 10
18.3263561007
 20
-3.8133839861
 10
18.3382512347
 20
-3.8079905553
 10
18.3504769421
 20
-3.8033959168
 10
18.3630291408
 20
-3.7995898693
 10
18.3757477279
 20
-3.7966204344
 10
18.3885793356
 20
-3.7945036195
 10
18.4015773318
 20
-3.7932234172
 10
18.4147417162
 20
-3.7927798277
  0
LWPOLYLINE
  5
622
100
AcDbEntity
  8
RACCORDO
100
AcDbPolyline
 62
250
  6
CONTINUOUS
 90
25
 70
0
 10
17.9162285917
 20
-15.2452194844
 10
17.9118392761
 20
-15.3759459597
 10
17.8989140191
 20
-15.5060945965
 10
17.8775114242
 20
-15.635109013
 10
17.8477278695
 20
-15.7624326785
 10
17.8096930727
 20
-15.8875274692
 10
17.7635659822
 20
-16.0098749184
 10
17.7095410501
 20
-16.1289574303
 10
17.6478511933
 20
-16.2442601987
 10
17.5787605882
 20
-16.3552889703
 10
17.5025650865
 20
-16.4615686239
 10
17.4195903339
 20
-16.5626454418
 10
17.3301907394
 20
-16.6580876843
 10
17.2347484863
 20
-16.7474872612
 10
17.1336716617
 20
-16.8304619938
 10
17.0273919993
 20
-16.9066574786
 10
16.9163632136
 20
-16.9757480711
 10
16.8010604278
 20
-17.0374379168
 10
16.681977896
 20
-17.0914628372
 10
16.5596304993
 20
-17.1375898886
 10
16.4345357614
 20
-17.1756246546
 10
16.3072119156
 20
-17.2054082341
 10
16.178196999
 20
-17.2268108735
 10
16.0480476171
 20
-17.2397361265
 10
15.9173201568
 20
-17.2441253417
  0
LWPOLYLINE
  5
623
100
AcDbEntity
  8
RACCORDO
100
AcDbPolyline
 62
250
  6
CONTINUOUS
 90
13
 70
0
 10
18.3357261312
 20
-3.1094696403
 10
18.3316083611
 20
-3.2340487403
 10
18.3295729591
 20
-3.2848291852
 10
18.3275744642
 20
-3.3292958877
 10
18.3256156116
 20
-3.3674397116
 10
18.3236936659
 20
-3.399269793
 10
18.3218235597
 20
-3.4261022313
 10
18.3200073652
 20
-3.4479640597
 10
18.3182430101
 20
-3.4648282448
 10
18.3165392096
 20
-3.4779297863
 10
18.3148988687
 20
-3.4876803505
 10
18.3133190824
 20
-3.493668271
 10
18.3117998506
 20
-3.4958935478
  0
LWPOLYLINE
  5
624
100
AcDbEntity
  8
RACCORDO
100
AcDbPolyline
 62
250
  6
CONTINUOUS
 90
13
 70
0
 10
19.5940400586
 20
11.5239099552
 10
19.5981578287
 20
11.6484890551
 10
19.6001932306
 20
11.6992695
 10
19.6021917256
 20
11.7437362026
 10
19.6041505782
 20
11.7818800264
 10
19.6060725238
 20
11.8137101079
 10
19.6079426301
 20
11.8405425462
 10
19.6097588245
 20
11.8624043745
 10
19.6115231796
 20
11.8792685597
 10
19.6132269801
 20
11.8923701011
 10
19.614867321
 20
11.9021206653
 10
19.6164471074
 20
11.9081085858
 10
19.6179663391
 20
11.9103338626
  0
LINE
  5
625
100
AcDbEntity
  8
0
100
AcDbLine
 62
7
  6
CONTINUOUS
 10
-9.5634796005
 20
19.1747181962
 11
-9.8312016552
 21
19.161969527
  0
LINE
  5
626
100
AcDbEntity
  8
0
100
AcDbLine
 62
7
  6
CONTINUOUS
 10
-8.5053400507
 20
19.9778843605
 11
-8.2248693267
 21
19.9906330298
  0
LWPOLYLINE
  5
627
100
AcDbEntity
  8
0
100
AcDbPolyline
 62
7
  6
CONTINUOUS
 90
31
 70
0
 10
-8.9435754354
 20
18.4352953783
 10
-8.8593932464
 20
18.439029299
 10
-8.7798758562
 20
18.4478892399
 10
-8.7050232646
 20
18.4618752009
 10
-8.6346255232
 20
18.4814955801
 10
-8.5688925806
 20
18.5062419795
 10
-8.5084542823
 20
18.5345892047
 10
-8.4536405227
 20
18.5662210984
 10
-8.4041214074
 20
18.6014538179
 10
-8.3595370992
 20
18.6397106406
 10
-8.3198980392
 20
18.680860848
 10
-8.2851937862
 20
18.7250351587
 10
-8.2550331792
 20
18.7720490062
 10
-8.2290772775
 20
18.8225105605
 10
-8.2076650217
 20
18.8758116515
 10
-8.1914220721
 20
18.9299432033
 10
-8.1805778565
 20
18.9849393064
 10
-8.174902947
 20
19.0407658702
 10
-8.1743347198
 20
19.0953115469
 10
-8.1790810438
 20
19.1482718666
 10
-8.1889340501
 20
19.1999512992
 10
-8.203207507
 20
19.2491519072
 10
-8.2216717272
 20
19.2954786228
 10
-8.244556398
 20
19.3393265139
 10
-8.2718643504
 20
19.3806828458
 10
-8.3035212855
 20
19.4194095381
 10
-8.3396015022
 20
19.4556446712
 10
-8.3803307281
 20
19.4897897527
 10
-8.4257842057
 20
19.5219786183
 10
-8.4758866924
 20
19.5520774323
 10
-8.5306381883
 20
19.5800861946
  0
LWPOLYLINE
  5
628
100
AcDbEntity
  8
0
100
AcDbPolyline
 62
7
  6
CONTINUOUS
 90
16
 70
0
 10
-6.9747029338
 20
19.3404508968
 10
-6.9229985429
 20
19.3408912578
 10
-6.8724613435
 20
19.3429754961
 10
-6.8230913357
 20
19.3467036116
 10
-6.7747038948
 20
19.3520180619
 10
-6.7274836456
 20
19.3589763895
 10
-6.6819844615
 20
19.3677512216
 10
-6.6381184702
 20
19.3784262939
 10
-6.5959735441
 20
19.3909178708
 10
-6.556367174
 20
19.4051473723
 10
-6.5194778175
 20
19.421175781
 10
-6.485127017
 20
19.4389421144
 10
-6.4535968913
 20
19.4581848452
 10
-6.4249814799
 20
19.4788167976
 10
-6.3991867433
 20
19.5009251474
 10
-6.3762126814
 20
19.5245098946
  0
LINE
  5
629
100
AcDbEntity
  8
0
100
AcDbLine
 62
7
  6
CONTINUOUS
 10
-19.2263733075
 20
18.4735413861
 11
-18.9245882713
 21
18.4735413861
  0
LINE
  5
62A
100
AcDbEntity
  8
0
100
AcDbLine
 62
7
  6
CONTINUOUS
 10
-17.8501146288
 20
18.4735413861
 11
-17.5696439048
 21
18.4735413861
  0
LINE
  5
62B
100
AcDbEntity
  8
0
100
AcDbLine
 62
7
  6
CONTINUOUS
 10
-17.0979431416
 20
18.4735413861
 11
-16.8174724176
 21
18.4735413861
  0
LINE
  5
62C
100
AcDbEntity
  8
0
100
AcDbLine
 62
7
  6
CONTINUOUS
 10
-16.2109145248
 20
18.4735413861
 11
-15.9722754265
 21
18.4735413861
  0
LINE
  5
62D
100
AcDbEntity
  8
0
100
AcDbLine
 62
7
  6
CONTINUOUS
 10
-15.351375451
 20
18.4735413861
 11
-15.070904727
 21
18.4735413861
  0
LINE
  5
62E
100
AcDbEntity
  8
0
100
AcDbLine
 62
7
  6
CONTINUOUS
 10
-14.8569659688
 20
18.4735413861
 11
-14.560957956
 21
18.4735413861
  0
LINE
  5
62F
100
AcDbEntity
  8
0
100
AcDbLine
 62
7
  6
CONTINUOUS
 10
-13.2095990129
 20
18.4735413861
 11
-12.9113995947
 21
18.4735413861
  0
LINE
  5
630
100
AcDbEntity
  8
0
100
AcDbLine
 62
7
  6
CONTINUOUS
 10
-12.6614062341
 20
18.4735413861
 11
-12.3809355101
 21
18.4735413861
  0
LINE
  5
631
100
AcDbEntity
  8
0
100
AcDbLine
 62
7
  6
CONTINUOUS
 10
-11.1674215171
 20
18.4735413861
 11
-10.8379481259
 21
18.4735413861
  0
LINE
  5
632
100
AcDbEntity
  8
0
100
AcDbLine
 62
7
  6
CONTINUOUS
 10
-7.7786659021
 20
18.4735413861
 11
-7.498195178
 21
18.4735413861
  0
LINE
  5
633
100
AcDbEntity
  8
0
100
AcDbLine
 62
7
  6
CONTINUOUS
 10
-6.0731328387
 20
18.4735413861
 11
-5.777124826
 21
18.4735413861
  0
LINE
  5
634
100
AcDbEntity
  8
0
100
AcDbLine
 62
7
  6
CONTINUOUS
 10
-4.4257658829
 20
18.4735413861
 11
-4.1275664647
 21
18.4735413861
  0
LINE
  5
635
100
AcDbEntity
  8
RACCORDO
100
AcDbLine
 62
250
  6
CONTINUOUS
 10
26.8825264261
 20
18.8760818346
 11
26.3828310126
 21
18.8760818346
  0
LINE
  5
636
100
AcDbEntity
  8
0
100
AcDbLine
 62
7
  6
CONTINUOUS
 10
-14.3392505534
 20
19.1109748499
 11
-13.4442540913
 21
19.1109748499
  0
LINE
  5
637
100
AcDbEntity
  8
0
100
AcDbLine
 62
7
  6
CONTINUOUS
 10
-5.5554174234
 20
19.1109748499
 11
-4.6604209612
 21
19.1109748499
  0
LINE
  5
638
100
AcDbEntity
  8
0
100
AcDbLine
 62
7
  6
CONTINUOUS
 10
-7.498195178
 20
19.3404508968
 11
-6.9747029338
 21
19.3404508968
  0
LINE
  5
639
100
AcDbEntity
  8
0
100
AcDbLine
 62
7
  6
CONTINUOUS
 10
-4.7450800232
 20
19.3404508968
 11
-5.4755389908
 21
19.3404508968
  0
LINE
  5
63A
100
AcDbEntity
  8
0
100
AcDbLine
 62
7
  6
CONTINUOUS
 10
-13.5289131533
 20
19.3404508968
 11
-14.2593721208
 21
19.3404508968
  0
LINE
  5
63B
100
AcDbEntity
  8
0
100
AcDbLine
 62
7
  6
CONTINUOUS
 10
-6.9717149188
 20
19.582675613
 11
-7.498195178
 21
19.582675613
  0
LINE
  5
63C
100
AcDbEntity
  8
0
100
AcDbLine
 62
7
  6
CONTINUOUS
 10
-11.7885206936
 20
19.6464189594
 11
-12.3809355101
 21
19.6464189594
  0
LINE
  5
63D
100
AcDbEntity
  8
0
100
AcDbLine
 62
7
  6
CONTINUOUS
 10
-12.3809355101
 20
20.3348471002
 11
-11.7215901313
 21
20.3348471002
  0
LINE
  5
63E
100
AcDbEntity
  8
0
100
AcDbLine
 62
7
  6
CONTINUOUS
 10
-7.498195178
 20
20.3348471002
 11
-6.9772923522
 21
20.3348471002
  0
LWPOLYLINE
  5
63F
100
AcDbEntity
  8
0
100
AcDbPolyline
 62
7
  6
CONTINUOUS
 90
10
 70
0
 10
-12.3809355101
 20
19.4041942432
 10
-12.0430896281
 20
19.4041448495
 10
-12.0252059829
 20
19.4039104833
 10
-12.0075718376
 20
19.4034911445
 10
-11.990156308
 20
19.4029852442
 10
-11.9729902782
 20
19.4022943713
 10
-11.9561664013
 20
19.4011232926
 10
-11.9397155614
 20
19.3993735972
 10
-11.9236068743
 20
19.3971436959
 10
-11.90784034
 20
19.3944335889
  0
LWPOLYLINE
  5
640
100
AcDbEntity
  8
0
100
AcDbPolyline
 62
7
  6
CONTINUOUS
 90
37
 70
0
 10
-11.7215901313
 20
20.3348471002
 10
-11.6742622422
 20
20.3343570382
 10
-11.6289837548
 20
20.3312767227
 10
-11.585754669
 20
20.3256061538
 10
-11.5443151239
 20
20.31736345
 10
-11.5049249805
 20
20.3065304928
 10
-11.4683638218
 20
20.2930529257
 10
-11.43476158
 20
20.2767760378
 10
-11.4039883229
 20
20.2578545401
 10
-11.3764338367
 20
20.2366982091
 10
-11.35226801
 20
20.2133437162
 10
-11.3313209541
 20
20.18775439
 10
-11.3134727889
 20
20.1602299924
 10
-11.2985847658
 20
20.1307017706
 10
-11.2867956335
 20
20.0992384773
 10
-11.2784017575
 20
20.0663461325
 10
-11.2734286298
 20
20.0315652224
 10
-11.2718507585
 20
19.9953552607
 10
-11.2738880331
 20
19.9596008083
 10
-11.2797871913
 20
19.9244204916
 10
-11.2893014953
 20
19.8896956842
 10
-11.3019106213
 20
19.8569550681
 10
-11.3176613092
 20
19.8264990406
 10
-11.3365068191
 20
19.7980272044
 10
-11.3577866076
 20
19.7721670493
 10
-11.3812658288
 20
19.7491712808
 10
-11.4071793285
 20
19.7287871934
 10
-11.435571101
 20
19.7108841607
 10
-11.4665652293
 20
19.6955337024
 10
-11.5000376303
 20
19.6826642989
 10
-11.53566005
 20
19.6719307652
 10
-11.5735218761
 20
19.6634133543
 10
-11.6135337208
 20
19.6570318132
 10
-11.6550991667
 20
19.6522001976
 10
-11.6980194079
 20
19.6487231927
 10
-11.7424932502
 20
19.6467961133
 10
-11.7885206936
 20
19.6464189594
  0
LWPOLYLINE
  5
641
100
AcDbEntity
  8
0
100
AcDbPolyline
 62
7
  6
CONTINUOUS
 90
19
 70
0
 10
-9.0037331639
 20
20.373093108
 10
-8.958011401
 20
20.3722764089
 10
-8.9141042608
 20
20.3692790263
 10
-8.8720117433
 20
20.3641009601
 10
-8.831446677
 20
20.3567317242
 10
-8.7926962334
 20
20.3471818048
 10
-8.7566219272
 20
20.3354826603
 10
-8.7237071163
 20
20.3218619611
 10
-8.6934684428
 20
20.3060920368
 10
-8.6653173483
 20
20.2875213343
 10
-8.6391539847
 20
20.2661997292
 10
-8.6150782001
 20
20.2420773459
 10
-8.5928009805
 20
20.2143530043
 10
-8.5718922633
 20
20.1824959078
 10
-8.5527821111
 20
20.1470368531
 10
-8.5364716964
 20
20.1087670499
 10
-8.5232947436
 20
20.0679502351
 10
-8.5129175283
 20
20.024322672
 10
-8.5053400507
 20
19.9778843605
  0
LWPOLYLINE
  5
642
100
AcDbEntity
  8
0
100
AcDbPolyline
 62
7
  6
CONTINUOUS
 90
9
 70
0
 10
-6.6912441948
 20
20.5571521058
 10
-6.7231940946
 20
20.5620595621
 10
-6.7558616406
 20
20.5662353625
 10
-6.789246833
 20
20.5696795069
 10
-6.8233808888
 20
20.5723145058
 10
-6.8582325909
 20
20.5742178487
 10
-6.8937082878
 20
20.5756220044
 10
-6.9297767623
 20
20.5766044623
 10
-6.9664692317
 20
20.577087733
  0
LINE
  5
643
100
AcDbEntity
  8
RACCORDO
100
AcDbLine
 62
7
  6
CONTINUOUS
 10
18.3040562425
 20
9.1180470098
 11
18.2148830949
 21
9.2072201574
  0
LWPOLYLINE
  5
644
100
AcDbEntity
  8
RACCORDO
100
AcDbPolyline
 62
7
  6
CONTINUOUS
 90
13
 70
0
 10
19.7148830949
 20
12.0072506184
 10
19.7131753091
 20
12.0333664254
 10
19.7080734117
 20
12.0590302447
 10
19.6996661261
 20
12.0838033768
 10
19.6880992249
 20
12.1072616958
 10
19.6735714127
 20
12.1290057401
 10
19.6563296738
 20
12.1486667364
 10
19.6366686775
 20
12.1659084752
 10
19.6149246332
 20
12.1804362874
 10
19.5914663143
 20
12.1920031887
 10
19.5666931821
 20
12.2004104742
 10
19.5410293628
 20
12.2055123716
 10
19.5149135558
 20
12.2072201574
  0
LWPOLYLINE
  5
645
100
AcDbEntity
  8
0
100
AcDbPolyline
 62
7
  6
CONTINUOUS
 90
37
 70
0
 10
-11.5781675533
 20
19.4296915817
 10
-11.5092676202
 20
19.4407066738
 10
-11.4444085051
 20
19.4553227984
 10
-11.3835902081
 20
19.4735399557
 10
-11.3266215733
 20
19.4954992306
 10
-11.2736937566
 20
19.521059538
 10
-11.2253802256
 20
19.5497976234
 10
-11.1819411455
 20
19.5816922963
 10
-11.1431163512
 20
19.6167647472
 10
-11.1086988149
 20
19.6546552926
 10
-11.078623495
 20
19.695245677
 10
-11.0529554331
 20
19.7386541559
 10
-11.0316827256
 20
19.7848758124
 10
-11.0146359959
 20
19.8341712084
 10
-11.0019846207
 20
19.886279782
 10
-10.9942248263
 20
19.9404149312
 10
-10.9914410854
 20
19.9974512104
 10
-10.9935489254
 20
20.0565140651
 10
-11.0007911548
 20
20.11419323
 10
-11.0137554583
 20
20.170165828
 10
-11.0318541513
 20
20.2247547362
 10
-11.0535669876
 20
20.2755183204
 10
-11.0787370912
 20
20.3218225474
 10
-11.1075213382
 20
20.3643014504
 10
-11.138870111
 20
20.4024154939
 10
-11.1722217242
 20
20.4357716657
 10
-11.2081378632
 20
20.464762978
 10
-11.2472539667
 20
20.4900289316
 10
-11.2898375704
 20
20.5116011562
 10
-11.3356211387
 20
20.5294480221
 10
-11.3844375032
 20
20.544114141
 10
-11.4365178181
 20
20.5553859603
 10
-11.4916309291
 20
20.5634770326
 10
-11.5489162053
 20
20.5695726274
 10
-11.6080867696
 20
20.5740678346
 10
-11.669429499
 20
20.5765675642
 10
-11.7329443936
 20
20.5770718164
  0
LWPOLYLINE
  5
646
100
AcDbEntity
  8
0
100
AcDbPolyline
 62
7
  6
CONTINUOUS
 90
31
 70
0
 10
-9.0148884197
 20
20.6153178242
 10
-9.0898807495
 20
20.612535832
 10
-9.1612062226
 20
20.6058006458
 10
-9.2288648388
 20
20.5951122659
 10
-9.293046859
 20
20.5802102645
 10
-9.3535620224
 20
20.5613550693
 10
-9.4098395467
 20
20.5393279628
 10
-9.4616890156
 20
20.514369619
 10
-9.5093008456
 20
20.4862393639
 10
-9.5526755033
 20
20.4549964589
 10
-9.591695559
 20
20.4206922595
 10
-9.6264784425
 20
20.3832754101
 10
-9.6573769104
 20
20.3426511051
 10
-9.6847830809
 20
20.2982304673
 10
-9.7083048359
 20
20.2506023738
 10
-9.7271185773
 20
20.2014386503
 10
-9.7410254887
 20
20.1504524846
 10
-9.7502243866
 20
20.0979306888
 10
-9.7544881231
 20
20.0464055247
 10
-9.7535375463
 20
19.9963389507
 10
-9.7476518081
 20
19.9472690085
 10
-9.7374412151
 20
19.9003420836
 10
-9.723106397
 20
19.8559766012
 10
-9.7044467241
 20
19.8137541363
 10
-9.6814706142
 20
19.7735657997
 10
-9.6542790443
 20
19.735427967
 10
-9.6227710374
 20
19.6993242627
 10
-9.5866520799
 20
19.6650966715
 10
-9.5458240006
 20
19.6326925218
 10
-9.5003849708
 20
19.6021644851
 10
-9.4503349905
 20
19.5735125617
  0
LWPOLYLINE
  5
647
100
AcDbEntity
  8
0
100
AcDbPolyline
 62
7
  6
CONTINUOUS
 90
10
 70
0
 10
-6.9772923522
 20
20.3348471002
 10
-6.9460657048
 20
20.3350052493
 10
-6.9156378124
 20
20.3346865134
 10
-6.8860086752
 20
20.3338908924
 10
-6.8571450754
 20
20.3327287564
 10
-6.8290802308
 20
20.3310897354
 10
-6.8019137941
 20
20.3286427198
 10
-6.775678983
 20
20.3252773397
 10
-6.7503425799
 20
20.3211039649
 10
-6.7259045847
 20
20.3161225956
  0
LINE
  5
648
100
AcDbEntity
  8
RACCORDO
100
AcDbLine
 62
250
  6
CONTINUOUS
 10
16.4171422377
 20
20.3751680751
 11
24.883744772
 21
20.3751680751
  0
LINE
  5
649
100
AcDbEntity
  8
0
100
AcDbLine
 62
7
  6
CONTINUOUS
 10
-4.9701738428
 20
20.5770718164
 11
-5.2735522924
 21
20.5770718164
  0
LINE
  5
64A
100
AcDbEntity
  8
0
100
AcDbLine
 62
7
  6
CONTINUOUS
 10
-6.9664692317
 20
20.577087733
 11
-7.7786659021
 21
20.5770718164
  0
LINE
  5
64B
100
AcDbEntity
  8
0
100
AcDbLine
 62
7
  6
CONTINUOUS
 10
-11.7329443936
 20
20.5770718164
 11
-12.6614062341
 21
20.5770718164
  0
LINE
  5
64C
100
AcDbEntity
  8
0
100
AcDbLine
 62
7
  6
CONTINUOUS
 10
-13.7540069728
 20
20.5770718164
 11
-14.0573854224
 21
20.5770718164
  0
LINE
  5
64D
100
AcDbEntity
  8
0
100
AcDbLine
 62
7
  6
CONTINUOUS
 10
-15.070904727
 20
20.5770718164
 11
-15.435835312
 21
20.5770718164
  0
LINE
  5
64E
100
AcDbEntity
  8
0
100
AcDbLine
 62
7
  6
CONTINUOUS
 10
-16.6704642217
 20
20.5770718164
 11
-17.0979431416
 21
20.5770718164
  0
LINE
  5
64F
100
AcDbEntity
  8
0
100
AcDbLine
 62
7
  6
CONTINUOUS
 10
-17.5696439048
 20
20.5770718164
 11
-17.8501146288
 21
20.5770718164
  0
LINE
  5
650
100
AcDbEntity
  8
0
100
AcDbLine
 62
7
  6
CONTINUOUS
 10
-18.0855665111
 20
20.5770718164
 11
-18.3855587383
 21
20.5770718164
  0
LINE
  5
651
100
AcDbEntity
  8
0
100
AcDbLine
 62
7
  6
CONTINUOUS
 10
-19.7369176814
 20
20.5770718164
 11
-20.0351169051
 21
20.5770718164
  0
LINE
  5
652
100
AcDbEntity
  8
RACCORDO
100
AcDbLine
 62
250
  6
CONTINUOUS
 10
17.5193200862
 20
20.8748634886
 11
24.883744772
 21
20.8748634886
  0
LINE
  5
653
100
AcDbEntity
  8
RACCORDO
100
AcDbLine
 62
7
  6
CONTINUOUS
 10
17.9180565542
 20
20.9103936167
 11
24.9192749002
 21
20.9103936167
  0
LINE
  5
654
100
AcDbEntity
  8
RACCORDO
100
AcDbLine
 62
7
  6
CONTINUOUS
 10
13.2224792184
 20
21.9572201574
 11
-21.2927130286
 21
21.9572201574
  0
LINE
  5
655
100
AcDbEntity
  8
RACCORDO
100
AcDbLine
 62
7
  6
CONTINUOUS
 10
13.2577446145
 20
21.9924855536
 11
-21.3279784248
 21
21.9924855536
  0
LWPOLYLINE
  5
656
100
AcDbEntity
  8
RACCORDO
100
AcDbPolyline
 62
250
  6
CONTINUOUS
 90
25
 70
0
 10
24.883744772
 20
20.8748634886
 10
25.0145320757
 20
20.8705445801
 10
25.1447376699
 20
20.8576854458
 10
25.273805302
 20
20.8363441962
 10
25.4011794676
 20
20.8066167407
 10
25.5263210494
 20
20.7686321751
 10
25.6487087128
 20
20.7225491561
 10
25.767825365
 20
20.6685617105
 10
25.8831557423
 20
20.6069029874
 10
25.9942017812
 20
20.5378389935
 10
26.1004866535
 20
20.4616677064
 10
26.2015596162
 20
20.3787140437
 10
26.296992157
 20
20.2893299982
 10
26.3863762698
 20
20.1938974902
 10
26.4693300111
 20
20.0928245415
 10
26.5455013625
 20
19.9865396959
 10
26.6145654037
 20
19.8754937101
 10
26.6762241681
 20
19.760163404
 10
26.730211652
 20
19.6410468456
 10
26.7762946853
 20
19.5186593752
 10
26.8142792818
 20
19.3935180136
 10
26.8440068364
 20
19.2661438621
 10
26.8653482233
 20
19.1370759504
 10
26.8782074705
 20
19.0068698562
 10
26.8825264261
 20
18.8760818346
  0
LWPOLYLINE
  5
657
100
AcDbEntity
  8
RACCORDO
100
AcDbPolyline
 62
250
  6
CONTINUOUS
 90
25
 70
0
 10
24.883744772
 20
20.3751680751
 10
24.9822441484
 20
20.3718920914
 10
25.079572252
 20
20.3623319823
 10
25.1757290829
 20
20.3464877478
 10
25.2711416641
 20
20.3242383667
 10
25.3653829725
 20
20.2957048601
 10
25.4571719395
 20
20.2612502925
 10
25.5464518928
 20
20.2207984859
 10
25.6332795046
 20
20.1744256183
 10
25.7165437225
 20
20.1227232878
 10
25.7961972783
 20
20.0656235912
 10
25.8722874403
 20
20.0031944317
 10
25.9438449606
 20
19.9362311177
 10
26.0108124115
 20
19.8646752965
 10
26.0732472207
 20
19.7885853206
 10
26.1303524239
 20
19.7089315563
 10
26.182059631
 20
19.6256670623
 10
26.228437232
 20
19.5388387798
 10
26.2688934321
 20
19.4495578979
 10
26.303351952
 20
19.357769204
 10
26.331889071
 20
19.2635279108
 10
26.3541418323
 20
19.1681108446
 10
26.3699892501
 20
19.0719436142
 10
26.3795523102
 20
18.9746006109
 10
26.3828310126
 20
18.8760818346
  0
LINE
  5
658
100
AcDbEntity
  8
RACCORDO
100
AcDbLine
 62
7
  6
CONTINUOUS
 10
16.6633109275
 20
13.8981200852
 11
16.4171422377
 21
14.0392722397
  0
LINE
  5
659
100
AcDbEntity
  8
RACCORDO
100
AcDbLine
 62
250
  6
CONTINUOUS
 10
18.2148830949
 20
12.0072506184
 11
18.3117998506
 21
11.9103338626
  0
LINE
  5
65A
100
AcDbEntity
  8
RACCORDO
100
AcDbLine
 62
250
  6
CONTINUOUS
 10
18.4148526339
 20
12.2072201574
 11
18.5117693897
 21
12.1103034017
  0
LINE
  5
65B
100
AcDbEntity
  8
RACCORDO
100
AcDbLine
 62
7
  6
CONTINUOUS
 10
17.9162284783
 20
13.505874774
 11
17.9180565542
 21
13.5040466981
  0
LINE
  5
65C
100
AcDbEntity
  8
0
100
AcDbLine
 62
7
  6
CONTINUOUS
 10
18.2148830949
 20
13.2072201574
 11
17.9180565542
 21
13.5040466981
  0
LWPOLYLINE
  5
65D
100
AcDbEntity
  8
RACCORDO
100
AcDbPolyline
 62
250
  6
CONTINUOUS
 90
12
 70
0
 10
18.3117998506
 20
11.9103338626
 10
18.3133190824
 20
11.9081085932
 10
18.3148988687
 20
11.9021206766
 10
18.3165392096
 20
11.8923701127
 10
18.3182430101
 20
11.8792685658
 10
18.3200073652
 20
11.8624043716
 10
18.3218235597
 20
11.8405425377
 10
18.3236936659
 20
11.8137101017
 10
18.3256156116
 20
11.7818800259
 10
18.3275744642
 20
11.743736206
 10
18.3295729592
 20
11.699269503
 10
18.3316083611
 20
11.6484890558
  0
LWPOLYLINE
  5
65E
100
AcDbEntity
  8
RACCORDO
100
AcDbPolyline
 62
250
  6
CONTINUOUS
 90
12
 70
0
 10
18.5117693897
 20
12.1103034017
 10
18.5132903796
 20
12.1072320175
 10
18.5148714826
 20
12.1009391613
 10
18.5165126987
 20
12.0910287223
 10
18.5182167944
 20
12.0771018683
 10
18.5199810033
 20
12.05873731
 10
18.5217970258
 20
12.0354727582
 10
18.5236670798
 20
12.0068573452
 10
18.5255889475
 20
11.9724413933
 10
18.5275476766
 20
11.9317247838
 10
18.5295460059
 20
11.8842385309
 10
18.5315811966
 20
11.8295299908
  0
LINE
  5
65F
100
AcDbEntity
  8
RACCORDO
100
AcDbLine
 62
250
  6
CONTINUOUS
 10
24.883744772
 20
20.8748634886
 11
24.883744772
 21
20.3751680751
  0
LINE
  5
660
100
AcDbEntity
  8
RACCORDO
100
AcDbLine
 62
250
  6
CONTINUOUS
 10
24.883744772
 20
13.5395768262
 11
24.883744772
 21
14.0392722397
  0
LINE
  5
661
100
AcDbEntity
  8
RACCORDO
100
AcDbLine
 62
250
  6
CONTINUOUS
 10
-25.9864622885
 20
23.6597838868
 11
-24.487376048
 21
23.6597838868
  0
LINE
  5
662
100
AcDbEntity
  8
RACCORDO
100
AcDbLine
 62
250
  6
CONTINUOUS
 10
17.9162284783
 20
23.6597838868
 11
16.4171422377
 21
23.6597838868
  0
LINE
  5
663
100
AcDbEntity
  8
RACCORDO
100
AcDbLine
 62
250
  6
CONTINUOUS
 10
-23.9876806345
 20
24.1594793003
 11
15.9174468242
 21
24.1594793003
  0
LWPOLYLINE
  5
664
100
AcDbEntity
  8
RACCORDO
100
AcDbPolyline
 62
250
  6
CONTINUOUS
 90
25
 70
0
 10
15.9174468242
 20
24.1594793003
 10
15.950276541
 20
24.1583879931
 10
15.9827172618
 20
24.1552016856
 10
16.0147689864
 20
24.1499203777
 10
16.046574586
 20
24.1425037264
 10
16.0779911895
 20
24.1329920748
 10
16.1085901838
 20
24.1215064518
 10
16.1383519304
 20
24.1080216705
 10
16.1672960677
 20
24.092562918
 10
16.1950528984
 20
24.0753267839
 10
16.2216073438
 20
24.0562900931
 10
16.2469744825
 20
24.0354760208
 10
16.2708298528
 20
24.0131506822
 10
16.2931538229
 20
23.9892947507
 10
16.3139660246
 20
23.9639275528
 10
16.3330008908
 20
23.9373731831
 10
16.3502354067
 20
23.9096164552
 10
16.365692587
 20
23.8806725556
 10
16.3791759097
 20
23.8509111381
 10
16.3906602212
 20
23.8203120941
 10
16.4001706749
 20
23.7888955323
 10
16.4075862096
 20
23.7570914327
 10
16.4128664714
 20
23.7250431219
 10
16.4160518141
 20
23.6926072732
 10
16.4171422377
 20
23.6597838868
  0
LINE
  5
665
100
AcDbEntity
  8
RACCORDO
100
AcDbLine
 62
250
  6
CONTINUOUS
 10
26.3828310126
 20
18.8760818346
 11
26.3828310126
 21
15.5383584803
  0
LINE
  5
666
100
AcDbEntity
  8
RACCORDO
100
AcDbLine
 62
250
  6
CONTINUOUS
 10
26.8825264261
 20
18.8760818346
 11
26.8825264261
 21
15.5383584803
  0
LINE
  5
667
100
AcDbEntity
  8
RACCORDO
100
AcDbLine
 62
7
  6
CONTINUOUS
 10
26.9180565542
 20
18.9116119627
 11
26.9180565542
 21
15.5028283521
  0
LWPOLYLINE
  5
668
100
AcDbEntity
  8
RACCORDO
100
AcDbPolyline
 62
250
  6
CONTINUOUS
 90
25
 70
0
 10
26.8825264261
 20
15.5383584803
 10
26.8782075175
 20
15.4075711766
 10
26.8653483833
 20
15.2773655824
 10
26.8440071336
 20
15.1482979502
 10
26.8142796781
 20
15.0209237847
 10
26.7762951125
 20
14.8957822029
 10
26.7302120935
 20
14.7733945395
 10
26.6762246479
 20
14.6542778873
 10
26.6145659248
 20
14.53894751
 10
26.5455019309
 20
14.4279014711
 10
26.4693306439
 20
14.3216165988
 10
26.3863769811
 20
14.2205436361
 10
26.2969929357
 20
14.1251110953
 10
26.2015604277
 20
14.0357269825
 10
26.100487479
 20
13.9527732411
 10
25.9942026334
 20
13.8766018898
 10
25.8831566475
 20
13.8075378486
 10
25.7678263414
 20
13.7458790842
 10
25.648709783
 20
13.6918916003
 10
25.5263223126
 20
13.645808567
 10
25.401180951
 20
13.6078239705
 10
25.2738067995
 20
13.5780964159
 10
25.1447388878
 20
13.556755029
 10
25.0145327937
 20
13.5438957818
 10
24.883744772
 20
13.5395768262
  0
LWPOLYLINE
  5
669
100
AcDbEntity
  8
RACCORDO
100
AcDbPolyline
 62
250
  6
CONTINUOUS
 90
25
 70
0
 10
26.3828310126
 20
15.5383584803
 10
26.3795550288
 20
15.4398591039
 10
26.3699949197
 20
15.3425310003
 10
26.3541506853
 20
15.2463741694
 10
26.3319013041
 20
15.1509615882
 10
26.3033677976
 20
15.0567202798
 10
26.26891323
 20
14.9649313128
 10
26.2284614234
 20
14.8756513595
 10
26.1820885557
 20
14.7888237477
 10
26.1303862253
 20
14.7055595298
 10
26.0732865286
 20
14.625905974
 10
26.0108573692
 20
14.549815812
 10
25.9438940551
 20
14.4782582917
 10
25.8723382339
 20
14.4112908408
 10
25.7962482581
 20
14.3488560315
 10
25.7165944937
 20
14.2917508284
 10
25.6333299998
 20
14.2400436213
 10
25.5465017173
 20
14.1936660203
 10
25.4572208353
 20
14.1532098202
 10
25.3654321415
 20
14.1187513003
 10
25.2711908483
 20
14.0902141813
 10
25.175773782
 20
14.06796142
 10
25.0796065517
 20
14.0521140022
 10
24.9822635483
 20
14.0425509421
 10
24.883744772
 20
14.0392722397
  0
LINE
  5
66A
100
AcDbEntity
  8
RACCORDO
100
AcDbLine
 62
250
  6
CONTINUOUS
 10
-23.9875538473
 20
25.6585655408
 11
15.9173226194
 21
25.6585655408
  0
LINE
  5
66B
100
AcDbEntity
  8
0
100
AcDbLine
 62
7
  6
CONTINUOUS
 10
-7.122723601
 20
25.8524578489
 11
-10.9475102092
 21
25.8524578489
  0
LINE
  5
66C
100
AcDbEntity
  8
0
100
AcDbLine
 62
7
  6
CONTINUOUS
 10
-11.034812133
 20
25.9397597727
 11
-7.0354216773
 21
25.9397597727
  0
LINE
  5
66D
100
AcDbEntity
  8
RACCORDO
100
AcDbLine
 62
7
  6
CONTINUOUS
 10
16.2161014408
 20
25.9572201574
 11
-6.5351169051
 21
25.9572201574
  0
LINE
  5
66E
100
AcDbEntity
  8
RACCORDO
100
AcDbLine
 62
7
  6
CONTINUOUS
 10
-11.5351169051
 20
25.9572201574
 11
-24.2863352511
 21
25.9572201574
  0
LWPOLYLINE
  5
66F
100
AcDbEntity
  8
RACCORDO
100
AcDbPolyline
 62
250
  6
CONTINUOUS
 90
25
 70
0
 10
15.9173227367
 20
25.6585656542
 10
16.048049212
 20
25.6541763387
 10
16.1781978488
 20
25.6412510816
 10
16.3072122653
 20
25.6198484867
 10
16.4345359308
 20
25.590064932
 10
16.5596307215
 20
25.5520301352
 10
16.6819781707
 20
25.5059030447
 10
16.8010606826
 20
25.4518781126
 10
16.916363451
 20
25.3901882558
 10
17.0273922226
 20
25.3210976508
 10
17.1336718762
 20
25.2449021491
 10
17.2347486941
 20
25.1619273964
 10
17.3301909366
 20
25.0725278019
 10
17.4195905135
 20
24.9770855488
 10
17.5025652461
 20
24.8760087242
 10
17.5787607309
 20
24.7697290619
 10
17.6478513234
 20
24.6587002762
 10
17.7095411691
 20
24.5433974904
 10
17.7635660895
 20
24.4243149586
 10
17.8096931409
 20
24.3019675618
 10
17.8477279069
 20
24.1768728239
 10
17.8775114864
 20
24.0495489781
 10
17.8989141258
 20
23.9205340615
 10
17.9118393788
 20
23.7903846796
 10
17.916228594
 20
23.6596572193
  0
LINE
  5
670
100
AcDbEntity
  8
RACCORDO
100
AcDbLine
 62
250
  6
CONTINUOUS
 10
24.883744772
 20
13.5395768262
 11
24.9192749002
 21
13.5040466981
  0
LINE
  5
671
100
AcDbEntity
  8
RACCORDO
100
AcDbLine
 62
250
  6
CONTINUOUS
 10
26.8825264261
 20
15.5383584803
 11
26.9180565542
 21
15.5028283521
  0
ARC
  5
672
100
AcDbEntity
  8
0
100
AcDbCircle
 62
7
  6
CONTINUOUS
 10
-14.2524729051
 20
2.5929311574
 40
4.1495340796
100
AcDbArc
 50
104.6184586192
 51
108.0305267473
  0
ARC
  5
673
100
AcDbEntity
  8
0
100
AcDbCircle
 62
7
  6
CONTINUOUS
 10
-14.2524729051
 20
2.5929311574
 40
4.1495332404
100
AcDbArc
 50
66.1507543086
 51
77.0671170606
  0
ARC
  5
674
100
AcDbEntity
  8
0
100
AcDbCircle
 62
7
  6
CONTINUOUS
 10
-14.2524729051
 20
2.5929311574
 40
4.1495330553
100
AcDbArc
 50
109.1821045055
 51
112.611034837
  0
ARC
  5
675
100
AcDbEntity
  8
0
100
AcDbCircle
 62
7
  6
CONTINUOUS
 10
-14.2524729051
 20
2.5929311574
 40
4.1495329446
100
AcDbArc
 50
91.9102164208
 51
103.4934080096
  0
ARC
  5
676
100
AcDbEntity
  8
0
100
AcDbCircle
 62
7
  6
CONTINUOUS
 10
-14.2524729051
 20
2.5929311574
 40
4.1495328232
100
AcDbArc
 50
78.1844560207
 51
90.8185522312
  0
ARC
  5
677
100
AcDbEntity
  8
0
100
AcDbCircle
 62
7
  6
CONTINUOUS
 10
-14.2524729051
 20
2.5929311574
 40
4.0704948571
100
AcDbArc
 50
109.569598301
 51
111.7987290336
  0
ARC
  5
678
100
AcDbEntity
  8
0
100
AcDbCircle
 62
7
  6
CONTINUOUS
 10
-14.2524729051
 20
2.5929311574
 40
4.0704947456
100
AcDbArc
 50
91.9473219034
 51
103.7605182759
  0
ARC
  5
679
100
AcDbEntity
  8
0
100
AcDbCircle
 62
7
  6
CONTINUOUS
 10
-14.2524729051
 20
2.5929311574
 40
4.0704943835
100
AcDbArc
 50
104.9088329205
 51
108.3930483339
  0
ARC
  5
67A
100
AcDbEntity
  8
0
100
AcDbCircle
 62
7
  6
CONTINUOUS
 10
-14.2524729051
 20
2.5929311574
 40
4.0704939714
100
AcDbArc
 50
66.0805439087
 51
76.8115058751
  0
ARC
  5
67B
100
AcDbEntity
  8
0
100
AcDbCircle
 62
7
  6
CONTINUOUS
 10
-14.2524729051
 20
2.5929311574
 40
4.0704931171
100
AcDbArc
 50
77.9516168429
 51
90.8344477644
  0
CIRCLE
  5
67C
100
AcDbEntity
  8
DRAFT
100
AcDbCircle
 62
7
  6
CONTINUOUS
 10
-4.0351169051
 20
-22.0427798426
 40
1.4738174026
  0
CIRCLE
  5
67D
100
AcDbEntity
  8
DRAFT
100
AcDbCircle
 62
7
  6
CONTINUOUS
 10
22.7148830949
 20
17.2072201574
 40
1.4738174026
  0
ARC
  5
67E
100
AcDbEntity
  8
0
100
AcDbCircle
 62
7
  6
CONTINUOUS
 10
-12.8495359051
 20
0.5379251574
 40
0.6915890268
100
AcDbArc
 50
183.2757980106
 51
78.4375684829
  0
ARC
  5
67F
100
AcDbEntity
  8
0
100
AcDbCircle
 62
7
  6
CONTINUOUS
 10
-12.8495359051
 20
0.5379251574
 40
0.6915887102
100
AcDbArc
 50
84.9999939882
 51
176.7242004738
  0
CIRCLE
  5
680
100
AcDbEntity
  8
0
100
AcDbCircle
 62
7
  6
CONTINUOUS
 10
-12.8495359051
 20
0.5379251574
 40
0.395194
  0
ARC
  5
681
100
AcDbEntity
  8
0
100
AcDbCircle
 62
7
  6
CONTINUOUS
 10
-12.2567459051
 20
6.2287131574
 40
0.3556747846
100
AcDbArc
 50
303.74877499
 51
153.3682349558
  0
ARC
  5
682
100
AcDbEntity
  8
0
100
AcDbCircle
 62
7
  6
CONTINUOUS
 10
-12.2567459051
 20
6.2287131574
 40
0.3556734017
100
AcDbArc
 50
166.1530524961
 51
192.8398305603
  0
CIRCLE
  5
683
100
AcDbEntity
  8
0
100
AcDbCircle
 62
7
  6
CONTINUOUS
 10
-12.8495359051
 20
0.5379251574
 40
0.237116
  0
ELLIPSE
  5
684
100
AcDbEntity
  8
RACCORDO
100
AcDbEllipse
 62
7
  6
CONTINUOUS
 10
16.2136640063
 20
-15.541560754
 30
0.0
 11
-1.4159370892
 21
1.4159370892
 31
0.0
 40
0.998782766
 41
2.3568034778
 42
3.9263818294
  0
ELLIPSE
  5
685
100
AcDbEntity
  8
RACCORDO
100
AcDbEllipse
 62
7
  6
CONTINUOUS
 10
16.2136640063
 20
23.9560010688
 30
0.0
 11
-1.4159370892
 21
-1.4159370892
 31
0.0
 40
0.998782766
 41
2.3568034778
 42
3.9263818294
  0
ELLIPSE
  5
686
100
AcDbEntity
  8
0
100
AcDbEllipse
 62
7
  6
CONTINUOUS
 10
-11.034812133
 20
25.9572201574
 30
0.0
 11
0.5
 21
0.0
 31
0.0
 40
0.0349207695
 41
-3.1066860685
 42
-1.5707963268
  0
ELLIPSE
  5
687
100
AcDbEntity
  8
0
100
AcDbEllipse
 62
7
  6
CONTINUOUS
 10
-7.0354216773
 20
25.9572201574
 30
0.0
 11
0.5
 21
-0.0
 31
0.0
 40
0.0349207695
 41
-1.5707963268
 42
-0.034906585
  0
ELLIPSE
  5
688
100
AcDbEntity
  8
0
100
AcDbEllipse
 62
7
  6
CONTINUOUS
 10
-23.2721376112
 20
-17.4799224575
 30
0.0
 11
0.2
 21
0.0
 31
0.0
 40
0.0349207695
 41
1.9546526114
 42
2.9752429996
  0
ELLIPSE
  5
689
100
AcDbEntity
  8
0
100
AcDbEllipse
 62
7
  6
CONTINUOUS
 10
15.2019038009
 20
-17.4799224575
 30
0.0
 11
0.2
 21
0.0
 31
0.0
 40
0.0349207695
 41
6.3180918922
 42
7.853981634
  0
ELLIPSE
  5
68A
100
AcDbEntity
  8
RACCORDO
100
AcDbEllipse
 62
7
  6
CONTINUOUS
 10
19.6258622637
 20
-0.2036828474
 30
0.0
 11
0.0
 21
0.5
 31
0.0
 40
0.0174550649
 41
-4.7123889804
 42
-3.1590459461
  0
ELLIPSE
  5
68B
100
AcDbEntity
  8
RACCORDO
100
AcDbEllipse
 62
7
  6
CONTINUOUS
 10
18.303903926
 20
-0.2036828474
 30
0.0
 11
0.0
 21
0.5
 31
0.0
 40
0.0174550649
 41
-3.1241393611
 42
-1.5707963268
  0
ELLIPSE
  5
68C
100
AcDbEntity
  8
RACCORDO
100
AcDbEllipse
 62
7
  6
CONTINUOUS
 10
18.303903926
 20
8.6181231623
 30
0.0
 11
0.0
 21
0.5
 31
0.0
 40
0.0174550649
 41
-1.5707963268
 42
-0.0174532925
  0
ELLIPSE
  5
68D
100
AcDbEntity
  8
RACCORDO
100
AcDbEllipse
 62
7
  6
CONTINUOUS
 10
19.6258622637
 20
8.6181231623
 30
0.0
 11
0.0
 21
0.5
 31
0.0
 40
0.0174550649
 41
0.0174532925
 42
1.5707963268
  0
ELLIPSE
  5
68E
100
AcDbEntity
  8
RACCORDO
100
AcDbEllipse
 62
7
  6
CONTINUOUS
 10
-27.696096074
 20
8.6181231623
 30
0.0
 11
0.0
 21
0.5
 31
0.0
 40
0.0174550649
 41
-1.5707963268
 42
-0.0174532925
  0
ELLIPSE
  5
68F
100
AcDbEntity
  8
RACCORDO
100
AcDbEllipse
 62
7
  6
CONTINUOUS
 10
-26.3741377363
 20
8.6181231623
 30
0.0
 11
0.0
 21
0.5
 31
0.0
 40
0.0174550649
 41
0.0174532925
 42
1.5707963268
  0
ELLIPSE
  5
690
100
AcDbEntity
  8
RACCORDO
100
AcDbEllipse
 62
7
  6
CONTINUOUS
 10
-26.3741377363
 20
-0.2036828474
 30
0.0
 11
0.0
 21
0.5
 31
0.0
 40
0.0174550649
 41
-4.7123889804
 42
-3.1590459461
  0
ELLIPSE
  5
691
100
AcDbEntity
  8
RACCORDO
100
AcDbEllipse
 62
7
  6
CONTINUOUS
 10
-27.696096074
 20
-0.2036828474
 30
0.0
 11
0.0
 21
0.5
 31
0.0
 40
0.0174550649
 41
-3.1241393611
 42
-1.5707963268
  0
ELLIPSE
  5
692
100
AcDbEntity
  8
RACCORDO
100
AcDbEllipse
 62
7
  6
CONTINUOUS
 10
16.2136640063
 20
23.9560010688
 30
0.0
 11
1.4159370892
 21
1.4159370892
 31
0.0
 40
0.998782766
 41
-0.7847891758
 42
0.7847891758
  0
ELLIPSE
  5
693
100
AcDbEntity
  8
RACCORDO
100
AcDbEllipse
 62
7
  6
CONTINUOUS
 10
16.2136640063
 20
-15.541560754
 30
0.0
 11
1.4159370892
 21
-1.4159370892
 31
0.0
 40
0.998782766
 41
-0.7847891758
 42
0.7847891758
  0
ELLIPSE
  5
694
100
AcDbEntity
  8
RACCORDO
100
AcDbEllipse
 62
7
  6
CONTINUOUS
 10
-24.2838978165
 20
-15.541560754
 30
0.0
 11
1.4159370892
 21
1.4159370892
 31
0.0
 40
0.998782766
 41
-3.9263818294
 42
-2.3568034778
  0
ELLIPSE
  5
695
100
AcDbEntity
  8
RACCORDO
100
AcDbEllipse
 62
7
  6
CONTINUOUS
 10
-24.2838978165
 20
23.9560010688
 30
0.0
 11
1.4159370892
 21
-1.4159370892
 31
0.0
 40
0.998782766
 41
2.3568034778
 42
3.9263818294
  0
ELLIPSE
  5
696
100
AcDbEntity
  8
RACCORDO
100
AcDbEllipse
 62
7
  6
CONTINUOUS
 10
24.9168374656
 20
18.9091745281
 30
0.0
 11
1.4159370892
 21
1.4159370892
 31
0.0
 40
0.998782766
 41
-0.7847891758
 42
0.7847891758
  0
ELLIPSE
  5
697
100
AcDbEntity
  8
RACCORDO
100
AcDbEllipse
 62
7
  6
CONTINUOUS
 10
24.9168374656
 20
15.5052657867
 30
0.0
 11
1.4159370892
 21
-1.4159370892
 31
0.0
 40
0.998782766
 41
-0.7847891758
 42
0.7847891758
  0
ELLIPSE
  5
698
100
AcDbEntity
  8
RACCORDO
100
AcDbEllipse
 62
7
  6
CONTINUOUS
 10
-5.7370712758
 20
-24.2447342133
 30
0.0
 11
1.4159370892
 21
1.4159370892
 31
0.0
 40
0.998782766
 41
-3.9263818294
 42
-2.3568034778
  0
ELLIPSE
  5
699
100
AcDbEntity
  8
RACCORDO
100
AcDbEllipse
 62
7
  6
CONTINUOUS
 10
-2.3331625344
 20
-24.2447342133
 30
0.0
 11
1.4159370892
 21
-1.4159370892
 31
0.0
 40
0.998782766
 41
-0.7847891758
 42
0.7847891758
  0
ELLIPSE
  5
69A
100
AcDbEntity
  8
RACCORDO
100
AcDbEllipse
 62
7
  6
CONTINUOUS
 10
15.9352121668
 20
1.598965772
 30
0.0
 11
0.5
 21
-0.0
 31
0.0
 40
0.0349207695
 41
-1.5707963268
 42
-0.034906585
  0
ELLIPSE
  5
69B
100
AcDbEntity
  8
RACCORDO
100
AcDbEllipse
 62
7
  6
CONTINUOUS
 10
15.9352121668
 20
6.8154745428
 30
0.0
 11
0.5
 21
0.0
 31
0.0
 40
0.0349207695
 41
0.034906585
 42
1.5707963268
  0
ELLIPSE
  5
69C
100
AcDbEntity
  8
RACCORDO
100
AcDbEllipse
 62
7
  6
CONTINUOUS
 10
-24.005445977
 20
1.598965772
 30
0.0
 11
0.5
 21
0.0
 31
0.0
 40
0.0349207695
 41
-3.1066860685
 42
-1.5707963268
  0
ELLIPSE
  5
69D
100
AcDbEntity
  8
RACCORDO
100
AcDbEllipse
 62
7
  6
CONTINUOUS
 10
-24.005445977
 20
6.8154745428
 30
0.0
 11
0.5
 21
0.0
 31
0.0
 40
0.0349207695
 41
1.5707963268
 42
3.1066860685
  0
ELLIPSE
  5
69E
100
AcDbEntity
  8
RACCORDO
100
AcDbEllipse
 62
7
  6
CONTINUOUS
 10
15.1669830314
 20
-17.445001688
 30
0.0
 11
0.2
 21
-0.0
 31
0.0
 40
0.0349207695
 41
0.034906585
 42
1.5707963268
  0
ELLIPSE
  5
69F
100
AcDbEntity
  8
RACCORDO
100
AcDbEllipse
 62
7
  6
CONTINUOUS
 10
-23.2372168417
 20
-17.445001688
 30
0.0
 11
0.2
 21
0.0
 31
0.0
 40
0.0349207695
 41
1.5707963268
 42
3.1066860685
  0
ELLIPSE
  5
6A0
100
AcDbEntity
  8
0
100
AcDbEllipse
 62
7
  6
CONTINUOUS
 10
-7.122723601
 20
25.8699182337
 30
0.0
 11
0.5
 21
0.0
 31
0.0
 40
0.0349207695
 41
-1.5707963268
 42
-0.034906585
  0
ELLIPSE
  5
6A1
100
AcDbEntity
  8
0
100
AcDbEllipse
 62
7
  6
CONTINUOUS
 10
-10.9475102092
 20
25.8699182337
 30
0.0
 11
0.5
 21
-0.0
 31
0.0
 40
0.0349207695
 41
-3.1066860685
 42
-1.5707963268
  0
ELLIPSE
  5
6A2
100
AcDbEntity
  8
RACCORDO
100
AcDbEllipse
 62
7
  6
CONTINUOUS
 10
-21.2774035992
 20
-13.0350665366
 30
0.0
 11
0.3643800228
 21
0.3643800228
 31
0.0
 40
0.9702875252
 41
2.3712736207
 42
3.9119116865
  0
ELLIPSE
  5
6A3
100
AcDbEntity
  8
RACCORDO
100
AcDbEllipse
 62
7
  6
CONTINUOUS
 10
-0.3319434458
 20
-15.7450389854
 30
0.0
 11
-0.0
 21
1.5
 31
0.0
 40
0.0349207695
 41
-3.8870389802
 42
-3.1764992386
  0
ELLIPSE
  5
6A4
100
AcDbEntity
  8
RACCORDO
100
AcDbEllipse
 62
7
  6
CONTINUOUS
 10
16.4171422377
 20
13.5040466981
 30
0.0
 11
1.5
 21
-0.0
 31
0.0
 40
0.0349207695
 41
0.034906585
 42
0.7454463266
  0
ELLIPSE
  5
6A5
100
AcDbEntity
  8
RACCORDO
100
AcDbEllipse
 62
7
  6
CONTINUOUS
 10
-7.7382903644
 20
-15.7450389854
 30
0.0
 11
0.0
 21
1.5
 31
0.0
 40
0.0349207695
 41
-3.1066860685
 42
-2.3961463269
  0
ELLIPSE
  5
6A6
100
AcDbEntity
  8
RACCORDO
100
AcDbEllipse
 62
7
  6
CONTINUOUS
 10
16.4171422377
 20
20.9103936167
 30
0.0
 11
1.5
 21
0.0
 31
0.0
 40
0.0349207695
 41
-0.7454463266
 42
-0.034906585
  0
ELLIPSE
  5
6A7
100
AcDbEntity
  8
RACCORDO
100
AcDbEllipse
 62
7
  6
CONTINUOUS
 10
-26.1035289038
 20
8.4754492928
 30
0.0
 11
0.0
 21
0.3
 31
0.0
 40
0.0349207695
 41
-1.5707963268
 42
-0.034906585
  0
ELLIPSE
  5
6A8
100
AcDbEntity
  8
RACCORDO
100
AcDbEllipse
 62
7
  6
CONTINUOUS
 10
-26.1035289038
 20
-0.0610089779
 30
0.0
 11
0.0
 21
0.3
 31
0.0
 40
0.0349207695
 41
-3.1066860685
 42
-1.5707963268
  0
ELLIPSE
  5
6A9
100
AcDbEntity
  8
RACCORDO
100
AcDbEllipse
 62
7
  6
CONTINUOUS
 10
18.0332950935
 20
-0.0610089779
 30
0.0
 11
0.0
 21
0.3
 31
0.0
 40
0.0349207695
 41
-4.7123889804
 42
-3.1764992386
  0
ELLIPSE
  5
6AA
100
AcDbEntity
  8
RACCORDO
100
AcDbEllipse
 62
7
  6
CONTINUOUS
 10
18.0332950935
 20
8.4754492928
 30
0.0
 11
0.0
 21
0.3
 31
0.0
 40
0.0349207695
 41
0.034906585
 42
1.5707963268
  0
ELLIPSE
  5
6AB
100
AcDbEntity
  8
RACCORDO
100
AcDbEllipse
 62
7
  6
CONTINUOUS
 10
-21.2774035992
 20
21.4495068515
 30
0.0
 11
0.3643800228
 21
-0.3643800228
 31
0.0
 40
0.9702875252
 41
2.3712736207
 42
3.9119116865
  0
ELLIPSE
  5
6AC
100
AcDbEntity
  8
RACCORDO
100
AcDbEllipse
 62
7
  6
CONTINUOUS
 10
13.2424351851
 20
-13.0703319328
 30
0.0
 11
0.3643800228
 21
-0.3643800228
 31
0.0
 40
0.9702875252
 41
-0.7703190329
 42
0.7703190329
  0
ELLIPSE
  5
6AD
100
AcDbEntity
  8
RACCORDO
100
AcDbEllipse
 62
7
  6
CONTINUOUS
 10
-21.3126689953
 20
-13.0703319328
 30
0.0
 11
0.3643800228
 21
0.3643800228
 31
0.0
 40
0.9702875252
 41
-3.9119116865
 42
-2.3712736207
  0
ELLIPSE
  5
6AE
100
AcDbEntity
  8
RACCORDO
100
AcDbEllipse
 62
7
  6
CONTINUOUS
 10
-21.3126689953
 20
21.4847722476
 30
0.0
 11
0.3643800228
 21
-0.3643800228
 31
0.0
 40
0.9702875252
 41
2.3712736207
 42
3.9119116865
  0
ELLIPSE
  5
6AF
100
AcDbEntity
  8
RACCORDO
100
AcDbEllipse
 62
7
  6
CONTINUOUS
 10
13.2424351851
 20
21.4847722476
 30
0.0
 11
0.3643800228
 21
0.3643800228
 31
0.0
 40
0.9702875252
 41
-0.7703190329
 42
0.7703190329
  0
ELLIPSE
  5
6B0
100
AcDbEntity
  8
RACCORDO
100
AcDbEllipse
 62
7
  6
CONTINUOUS
 10
13.2071697889
 20
21.4495068515
 30
0.0
 11
-0.3643800228
 21
-0.3643800228
 31
0.0
 40
0.9702875252
 41
2.3712736207
 42
3.9119116865
  0
ELLIPSE
  5
6B1
100
AcDbEntity
  8
RACCORDO
100
AcDbEllipse
 62
7
  6
CONTINUOUS
 10
16.4171422377
 20
1.5815053873
 30
0.0
 11
1.5
 21
0.0
 31
0.0
 40
0.0349207695
 41
-1.5707963268
 42
-1.4862763418
  0
ELLIPSE
  5
6B2
100
AcDbEntity
  8
RACCORDO
100
AcDbEllipse
 62
7
  6
CONTINUOUS
 10
-24.487376048
 20
1.5815053873
 30
0.0
 11
1.5
 21
0.0
 31
0.0
 40
0.0349207695
 41
-1.6553163118
 42
-1.5707963268
  0
ELLIPSE
  5
6B3
100
AcDbEntity
  8
RACCORDO
100
AcDbEllipse
 62
7
  6
CONTINUOUS
 10
16.4171422377
 20
6.8329349276
 30
0.0
 11
1.5
 21
0.0
 31
0.0
 40
0.0349207695
 41
1.4862763418
 42
1.5707963268
  0
ELLIPSE
  5
6B4
100
AcDbEntity
  8
RACCORDO
100
AcDbEllipse
 62
7
  6
CONTINUOUS
 10
-24.487376048
 20
6.8329349276
 30
0.0
 11
1.5
 21
0.0
 31
0.0
 40
0.0349207695
 41
1.5707963268
 42
1.6553163118
  0
ELLIPSE
  5
6B5
100
AcDbEntity
  8
RACCORDO
100
AcDbEllipse
 62
7
  6
CONTINUOUS
 10
13.2071697889
 20
-13.0350665366
 30
0.0
 11
-0.3643800228
 21
0.3643800228
 31
0.0
 40
0.9702875252
 41
2.3712736207
 42
3.9119116865
  0
ENDSEC
  0
SECTION
  2
OBJECTS
  0
DICTIONARY
  5
C
100
AcDbDictionary
280
0
281
1
  3
ACAD_GROUP
350
D
  3
ACAD_MLINESTYLE
350
17
  3
ACAD_LAYOUT
350
1A
  3
ACAD_PLOTSETTINGS
350
19
  3
ACAD_PLOTSTYLENAME
350
E
  0
DICTIONARY
  5
D
102
{ACAD_REACTORS
330
C
102
}
100
AcDbDictionary
280
0
281
1
  0
ACDBDICTIONARYWDFLT
  5
E
102
{ACAD_REACTORS
330
C
102
}
100
AcDbDictionary
281
1
  3
Normal
350
F
100
AcDbDictionaryWithDefault
340
F
  0
DICTIONARY
  5
17
102
{ACAD_REACTORS
330
C
102
}
100
AcDbDictionary
280
0
281
1
  3
Standard
350
18
  0
DICTIONARY
  5
19
102
{ACAD_REACTORS
330
C
102
}
100
AcDbDictionary
281
1
  0
DICTIONARY
  5
1A
102
{ACAD_REACTORS
330
C
102
}
100
AcDbDictionary
281
1
  3
Model
350
6B6
  3
Layout1
350
6B7
  0
ACDBPLACEHOLDER
  5
F
102
{ACAD_REACTORS
330
E
102
}
  0
MLINESTYLE
  5
18
102
{ACAD_REACTORS
330
17
102
}
100
AcDbMlineStyle
  2
STANDARD
 70
0
  3

 62
256
 51
90.0
 52
90.0
 71
2
 49
0.5
 62
256
  6
BYLAYER
 49
-0.5
 62
256
  6
BYLAYER
  0
LAYOUT
  5
6B6
102
{ACAD_REACTORS
330
1A
102
}
100
AcDbPlotSettings
  1

  2
none_device
  4
ISO_A4_(297.00_x_210.00_MM)
  6

 40
0.0
 41
0.0
 42
0.0
 43
0.0
 44
297.0
 45
210.0
 46
0.0
 47
0.0
 48
0.0
 49
0.0
140
0.0
141
0.0
142
1.0
143
1.0
 70
1024
 72
1
 73
0
 74
0
  7

 75
0
147
1.0
148
0.0
149
0.0
100
AcDbLayout
  1
Model
 70
0
 71
0
 10
0.0
 20
0.0
 11
297.0
 21
210.0
 12
0.0
 22
0.0
 32
0.0
 14
0.0
 24
0.0
 34
0.0
 15
0.0
 25
0.0
 35
0.0
146
0.0
 13
0.0
 23
0.0
 33
0.0
 16
1.0
 26
0.0
 36
0.0
 17
0.0
 27
1.0
 37
0.0
 76
0
330
2D9
345
0
346
0
  0
LAYOUT
  5
6B7
102
{ACAD_REACTORS
330
1A
102
}
100
AcDbPlotSettings
  1

  2
none_device
  4
ISO_A4_(297.00_x_210.00_MM)
  6

 40
0.0
 41
0.0
 42
0.0
 43
0.0
 44
297.0
 45
210.0
 46
0.0
 47
0.0
 48
0.0
 49
0.0
140
0.0
141
0.0
142
1.0
143
1.0
 70
0
 72
1
 73
0
 74
0
  7

 75
0
147
1.0
148
0.0
149
0.0
100
AcDbLayout
  1
Layout1
 70
0
 71
1
 10
0.0
 20
0.0
 11
297.0
 21
210.0
 12
0.0
 22
0.0
 32
0.0
 14
0.0
 24
0.0
 34
0.0
 15
0.0
 25
0.0
 35
0.0
146
0.0
 13
0.0
 23
0.0
 33
0.0
 16
1.0
 26
0.0
 36
0.0
 17
0.0
 27
1.0
 37
0.0
 76
0
330
2DA
345
0
346
0
  0
ENDSEC
  0
EOF
