  0
SECTION
  2
HEADER
  9
$ACADVER
  1
AC1024
  9
$DWGCODEPAGE
  3
ANSI_1252
  9
$EXTMAX
 10
558.8
 20
431.8
 30
0.0
  9
$EXTMIN
 10
0.0
 20
0.0
 30
0.0
  9
$LIMMIN
 10
0.0
 20
0.0
  9
$LIMMAX
 10
558.8
 20
431.8
  9
$VIEWCTR
 10
279.4
 20
215.9
  9
$VIEWSIZE
 40
431.8
  9
$CLAYER
  8
0
  9
$LTSCALE
 40
30.734
  9
$CELTYPE
  6
BYLAYER
  9
$DIMSCALE
 40
1.0
  9
$DIMASZ
 40
3.0
  9
$DIMEXO
 40
0.5
  9
$DIMDLI
 40
21.2344
  9
$DIMEXE
 40
1.5
  9
$DIMCEN
 40
5.0292
  9
$DIMLFAC
 40
1.0
  9
$DIMBLK
  1
_FILLED
  9
$DIMALT
 70
0
  9
$DIMALTF
 40
0.0393700787
  9
$DIMTXT
 40
3.0
  9
$DIMTOL
 70
1
  9
$DIMLIM
 70
0
  9
$DIMTFAC
 40
1.0
  9
$DIMTP
 40
0.01
  9
$DIMTM
 40
0.01
  9
$DIMGAP
 40
0.625
  9
$DIMDSEP
 70
44
  9
$AUNITS
 70
0
  9
$PDMODE
 70
3
  9
$PDSIZE
 40
3.0
  9
$HANDSEED
  5
534
  9
$TILEMODE
 70
1
  9
$MEASUREMENT
 70
1
  9
$INSUNITS
 70
4
  0
ENDSEC
  0
SECTION
  2
CLASSES
  0
CLASS
  1
ACDBDICTIONARYWDFLT
  2
AcDbDictionaryWithDefault
  3
AutoCAD 2000
 90
0
 91
1
280
0
281
0
  0
CLASS
  1
ACDBPLACEHOLDER
  2
AcDbPlaceHolder
  3
AutoCAD 2000
 90
0
 91
1
280
0
281
0
  0
CLASS
  1
LAYOUT
  2
AcDbLayout
  3
AutoCAD 2000
 90
0
 91
0
280
0
281
0
  0
ENDSEC
  0
SECTION
  2
TABLES
  0
TABLE
  2
VPORT
  5
8
100
AcDbSymbolTable
 70
2
  0
VPORT
  5
1F4
100
AcDbSymbolTableRecord
100
AcDbViewportTableRecord
  2
*ACTIVE
 70
0
 10
0.0
 20
0.0
 11
1.0
 21
1.0
 12
279.4
 22
215.9
 13
0.0
 23
0.0
 14
1.0
 24
1.0
 15
0.0
 25
0.0
 16
0.0
 26
0.0
 36
1.0
 17
0.0
 27
0.0
 37
0.0
 40
431.8
 41
1.2941176471
 42
50.0
 43
0.0
 44
0.0
 50
0.0
 51
0.0
 71
0
 72
100
 73
1
 74
1
 75
0
 76
0
 77
0
 78
0
  0
ENDTAB
  0
TABLE
  2
LTYPE
  5
5
100
AcDbSymbolTable
 70
6
  0
LTYPE
  5
14
100
AcDbSymbolTableRecord
100
AcDbLinetypeTableRecord
  2
BYBLOCK
 70
0
  3

 72
65
 73
0
 40
0.0
  0
LTYPE
  5
15
100
AcDbSymbolTableRecord
100
AcDbLinetypeTableRecord
  2
BYLAYER
 70
0
  3

 72
65
 73
0
 40
0.0
  0
LTYPE
  5
16
100
AcDbSymbolTableRecord
100
AcDbLinetypeTableRecord
  2
CONTINUOUS
 70
64
  3
Solid line
 72
65
 73
0
 40
0.0
  0
LTYPE
  5
1F5
100
AcDbSymbolTableRecord
100
AcDbLinetypeTableRecord
  2
CENTER
 70
64
  3
____ _ ____ _ ____ _ ____ _ ____ _ ____ _ ____
 72
65
 73
4
 40
0.6
 49
0.375
 74
0
 49
-0.075
 74
0
 49
0.075
 74
0
 49
-0.075
 74
0
  0
LTYPE
  5
1F6
100
AcDbSymbolTableRecord
100
AcDbLinetypeTableRecord
  2
HIDDEN
 70
64
  3
- - - - - - - - - - - - - - - - - - - -
 72
65
 73
2
 40
0.2
 49
0.1
 74
0
 49
-0.1
 74
0
  0
LTYPE
  5
1F7
100
AcDbSymbolTableRecord
100
AcDbLinetypeTableRecord
  2
PHANTOM
 70
64
  3
_____ _ _ _____ _ _ _____ _ _ _____
 72
65
 73
6
 40
0.8
 49
0.45
 74
0
 49
-0.05
 74
0
 49
0.1
 74
0
 49
-0.05
 74
0
 49
0.1
 74
0
 49
-0.05
 74
0
  0
LTYPE
  5
1F8
100
AcDbSymbolTableRecord
100
AcDbLinetypeTableRecord
  2
DOT
 70
64
  3
. . . . . . . . . . . . . . . . . . . .
 72
65
 73
2
 40
0.2
 49
0.1
 74
0
 49
-0.1
 74
0
  0
LTYPE
  5
1F9
100
AcDbSymbolTableRecord
100
AcDbLinetypeTableRecord
  2
DASHED
 70
64
  3
- - - - - - - - - - - - - - - - - - - -
 72
65
 73
2
 40
0.2
 49
0.1
 74
0
 49
-0.1
 74
0
  0
ENDTAB
  0
TABLE
  2
LAYER
  5
2
100
AcDbSymbolTable
 70
36
  0
LAYER
  5
10
100
AcDbSymbolTableRecord
100
AcDbLayerTableRecord
  2
0
 70
0
 62
7
  6
CONTINUOUS
370
-3
390
F
  0
LAYER
  5
1FA
100
AcDbSymbolTableRecord
100
AcDbLayerTableRecord
  2
DEFAULT_1
 70
0
 62
7
  6
CENTER
370
-3
390
F
  0
LAYER
  5
1FB
100
AcDbSymbolTableRecord
100
AcDbLayerTableRecord
  2
DEFAULT_2
 70
0
 62
7
  6
HIDDEN
370
-3
390
F
  0
LAYER
  5
1FC
100
AcDbSymbolTableRecord
100
AcDbLayerTableRecord
  2
DEFAULT_3
 70
0
 62
7
  6
PHANTOM
370
-3
390
F
  0
LAYER
  5
1FD
100
AcDbSymbolTableRecord
100
AcDbLayerTableRecord
  2
ASSI
 70
0
 62
7
  6
CONTINUOUS
370
-3
390
F
  0
LAYER
  5
1FE
100
AcDbSymbolTableRecord
100
AcDbLayerTableRecord
  2
COORDINATE
 70
0
 62
7
  6
CONTINUOUS
370
-3
390
F
  0
LAYER
  5
1FF
100
AcDbSymbolTableRecord
100
AcDbLayerTableRecord
  2
COPY_PUBLISH
 70
0
 62
7
  6
CONTINUOUS
370
-3
390
F
  0
LAYER
  5
200
100
AcDbSymbolTableRecord
100
AcDbLayerTableRecord
  2
COSMETICI
 70
0
 62
7
  6
CONTINUOUS
370
-3
390
F
  0
LAYER
  5
201
100
AcDbSymbolTableRecord
100
AcDbLayerTableRecord
  2
CURVE
 70
0
 62
7
  6
CONTINUOUS
370
-3
390
F
  0
LAYER
  5
202
100
AcDbSymbolTableRecord
100
AcDbLayerTableRecord
  2
DRAFT
 70
0
 62
7
  6
CONTINUOUS
370
-3
390
F
  0
LAYER
  5
203
100
AcDbSymbolTableRecord
100
AcDbLayerTableRecord
  2
IMPORT_IGES
 70
0
 62
7
  6
CONTINUOUS
370
-3
390
F
  0
LAYER
  5
204
100
AcDbSymbolTableRecord
100
AcDbLayerTableRecord
  2
INTF_1
 70
0
 62
7
  6
CONTINUOUS
370
-3
390
F
  0
LAYER
  5
205
100
AcDbSymbolTableRecord
100
AcDbLayerTableRecord
  2
INTF_11
 70
0
 62
7
  6
CONTINUOUS
370
-3
390
F
  0
LAYER
  5
206
100
AcDbSymbolTableRecord
100
AcDbLayerTableRecord
  2
INTF_2
 70
0
 62
7
  6
CONTINUOUS
370
-3
390
F
  0
LAYER
  5
207
100
AcDbSymbolTableRecord
100
AcDbLayerTableRecord
  2
NOTE
 70
0
 62
7
  6
CONTINUOUS
370
-3
390
F
  0
LAYER
  5
208
100
AcDbSymbolTableRecord
100
AcDbLayerTableRecord
  2
PIANI
 70
0
 62
7
  6
CONTINUOUS
370
-3
390
F
  0
LAYER
  5
209
100
AcDbSymbolTableRecord
100
AcDbLayerTableRecord
  2
PUNTI
 70
0
 62
7
  6
CONTINUOUS
370
-3
390
F
  0
LAYER
  5
20A
100
AcDbSymbolTableRecord
100
AcDbLayerTableRecord
  2
RACCORDO
 70
0
 62
7
  6
CONTINUOUS
370
-3
390
F
  0
LAYER
  5
20B
100
AcDbSymbolTableRecord
100
AcDbLayerTableRecord
  2
RGB__255__255__255__
 70
0
 62
7
  6
CONTINUOUS
370
-3
390
F
  0
LAYER
  5
20C
100
AcDbSymbolTableRecord
100
AcDbLayerTableRecord
  2
SIMBOLI
 70
0
 62
7
  6
CONTINUOUS
370
-3
390
F
  0
LAYER
  5
20D
100
AcDbSymbolTableRecord
100
AcDbLayerTableRecord
  2
SMUSSO
 70
0
 62
7
  6
CONTINUOUS
370
-3
390
F
  0
LAYER
  5
20E
100
AcDbSymbolTableRecord
100
AcDbLayerTableRecord
  2
SNAPLINE
 70
0
 62
7
  6
CONTINUOUS
370
-3
390
F
  0
LAYER
  5
20F
100
AcDbSymbolTableRecord
100
AcDbLayerTableRecord
  2
SUPERFICI
 70
0
 62
7
  6
CONTINUOUS
370
-3
390
F
  0
LAYER
  5
210
100
AcDbSymbolTableRecord
100
AcDbLayerTableRecord
  2
TRASH
 70
0
 62
7
  6
CONTINUOUS
370
-3
390
F
  0
ENDTAB
  0
TABLE
  2
STYLE
  5
3
100
AcDbSymbolTable
 70
1
  0
STYLE
  5
11
100
AcDbSymbolTableRecord
100
AcDbTextStyleTableRecord
  2
STANDARD
 70
0
 40
0.0
 41
0.8
 50
0.0
 71
0
 42
0.2
  3
txt
  4

  0
STYLE
  5
211
100
AcDbSymbolTableRecord
100
AcDbTextStyleTableRecord
  2
TEXTSTYLE_1
 70
0
 40
0.0
 41
0.8
 50
0.0
 71
0
 42
0.2
  3
gdt
  4

  0
ENDTAB
  0
TABLE
  2
VIEW
  5
6
100
AcDbSymbolTable
 70
0
  0
ENDTAB
  0
TABLE
  2
UCS
  5
7
100
AcDbSymbolTable
 70
0
  0
ENDTAB
  0
TABLE
  2
APPID
  5
9
100
AcDbSymbolTable
 70
1
  0
APPID
  5
212
100
AcDbSymbolTableRecord
100
AcDbRegAppTableRecord
  2
ACAD
 70
0
  0
ENDTAB
  0
TABLE
  2
BLOCK_RECORD
  5
1
100
AcDbSymbolTable
 70
0
  0
BLOCK_RECORD
  5
213
100
AcDbSymbolTableRecord
100
AcDbBlockTableRecord
  2
*Model_Space
  0
BLOCK_RECORD
  5
214
100
AcDbSymbolTableRecord
100
AcDbBlockTableRecord
  2
*Paper_Space
  0
BLOCK_RECORD
  5
215
100
AcDbSymbolTableRecord
100
AcDbBlockTableRecord
  2
_FILLED
  0
ENDTAB
  0
TABLE
  2
DIMSTYLE
  5
A
100
AcDbSymbolTable
 70
1
100
AcDbDimStyleTable
 71
0
  0
DIMSTYLE
105
216
100
AcDbSymbolTableRecord
100
AcDbDimStyleTableRecord
  2
STANDARD
 70
0
  3

  4

 40
1.0
 41
3.0
 42
0.5
 43
0.38
 44
1.5
 45
0.0
 46
0.0
 47
0.01
 48
0.01
140
3.0
141
0.09
142
0.0
143
25.4
144
1.0
145
0.0
146
1.0
147
0.625
 71
1.0
 72
0.0
 73
0
 74
0
 75
0
 76
0
 77
1
 78
8
 79
2
170
0
171
1
172
0
173
0
174
0
175
0
176
0
177
0
178
0
270
2
179
2
271
2
272
2
273
2
274
2
275
0
280
0
281
0
282
0
283
1
284
8
285
0
286
0
287
3
288
0
340
11
278
44
341
215
342
215
343
215
344
215
  0
ENDTAB
  0
ENDSEC
  0
SECTION
  2
BLOCKS
  0
BLOCK
  5
20
100
AcDbEntity
  8
0
100
AcDbBlockBegin
  2
*Model_Space
 70
0
 10
0.0
 20
0.0
 30
0.0
  3
*Model_Space
  1

  0
ENDBLK
  5
21
100
AcDbEntity
  8
0
100
AcDbBlockEnd
  0
BLOCK
  5
1C
100
AcDbEntity
  8
0
100
AcDbBlockBegin
  2
*Paper_Space
 70
0
 10
0.0
 20
0.0
 30
0.0
  3
*Paper_Space
  1

  0
ENDBLK
  5
1D
100
AcDbEntity
  8
0
100
AcDbBlockEnd
  0
BLOCK
  5
217
100
AcDbEntity
  8
0
100
AcDbBlockBegin
  2
_FILLED
 70
64
 10
0.0
 20
0.0
  3
_FILLED
  1

  0
SOLID
  5
218
100
AcDbEntity
  8
0
  6
BYBLOCK
 62
0
100
AcDbTrace
 10
0.0
 20
0.0
 11
-1.0
 21
0.3166666667
 12
-1.0
 22
-0.3166666667
 13
-1.0
 23
-0.3166666667
  0
ENDBLK
  5
219
100
AcDbEntity
  8
0
  6
BYBLOCK
 62
0
100
AcDbBlockEnd
  0
ENDSEC
  0
SECTION
  2
ENTITIES
  0
LWPOLYLINE
  5
21A
100
AcDbEntity
  8
RACCORDO
100
AcDbPolyline
 62
250
  6
CONTINUOUS
 90
10
 70
0
 10
-22.5
 20
-27.5
 10
-22.5126104418
 20
-27.4974328403
 10
-22.5251885111
 20
-27.4897379519
 10
-22.5377019179
 20
-27.476935089
 10
-22.5501185384
 20
-27.4590571191
 10
-22.5624064971
 20
-27.4361499381
 10
-22.5745342488
 20
-27.4082723529
 10
-22.5864706598
 20
-27.37549593
 10
-22.5981850872
 20
-27.3379048121
 10
-22.6096474584
 20
-27.295595502
  0
LWPOLYLINE
  5
21B
100
AcDbEntity
  8
RACCORDO
100
AcDbPolyline
 62
250
  6
CONTINUOUS
 90
10
 70
0
 10
-27.5
 20
-22.5
 10
-27.4974328407
 20
-22.5126104389
 10
-27.4897379533
 20
-22.5251885057
 10
-27.4769350917
 20
-22.5377019105
 10
-27.459057123
 20
-22.5501185301
 10
-27.4361499428
 20
-22.562406489
 10
-27.4082723578
 20
-22.5745342416
 10
-27.3754959344
 20
-22.586470654
 10
-27.3379048149
 20
-22.5981850838
 10
-27.295595502
 20
-22.6096474584
  0
LINE
  5
21C
100
AcDbEntity
  8
RACCORDO
100
AcDbLine
 62
250
  6
CONTINUOUS
 10
-27.295595502
 20
-22.6096474584
 11
-27.3033892102
 21
-22.5146353691
  0
LINE
  5
21D
100
AcDbEntity
  8
RACCORDO
100
AcDbLine
 62
250
  6
CONTINUOUS
 10
-27.3033892102
 20
-22.5146353691
 11
-27.3108387343
 21
-22.4173704233
  0
LWPOLYLINE
  5
21E
100
AcDbEntity
  8
RACCORDO
100
AcDbPolyline
 62
250
  6
CONTINUOUS
 90
3
 70
0
 10
-27.3108387343
 20
-22.4173704233
 10
-27.315585532
 20
-22.3512806345
 10
-27.3178663494
 20
-22.3178663494
  0
LINE
  5
21F
100
AcDbEntity
  8
RACCORDO
100
AcDbLine
 62
250
  6
CONTINUOUS
 10
-22.3178663494
 20
-27.3178663494
 11
-22.3844045956
 21
-27.3132430596
  0
LINE
  5
220
100
AcDbEntity
  8
RACCORDO
100
AcDbLine
 62
250
  6
CONTINUOUS
 10
-22.3844045956
 20
-27.3132430596
 11
-22.4823956375
 21
-27.3059211121
  0
LWPOLYLINE
  5
221
100
AcDbEntity
  8
RACCORDO
100
AcDbPolyline
 62
250
  6
CONTINUOUS
 90
3
 70
0
 10
-22.4823956375
 20
-27.3059211121
 10
-22.578200826
 20
-27.2982205957
 10
-22.6096474584
 20
-27.295595502
  0
LWPOLYLINE
  5
222
100
AcDbEntity
  8
RACCORDO
100
AcDbPolyline
 62
250
  6
CONTINUOUS
 90
34
 70
0
 10
-22.6096474584
 20
-27.295595502
 10
-22.8374991741
 20
-27.2712340387
 10
-23.0606751074
 20
-27.2371190734
 10
-23.2787683467
 20
-27.1938608508
 10
-23.4904520451
 20
-27.1423770241
 10
-23.6964141752
 20
-27.0830671356
 10
-23.8992362476
 20
-27.0153691103
 10
-24.0994559292
 20
-26.9391244505
 10
-24.2958224838
 20
-26.8548799331
 10
-24.4881388465
 20
-26.7627290175
 10
-24.6760512715
 20
-26.6629182204
 10
-24.8592871814
 20
-26.5556961694
 10
-25.0377619672
 20
-26.4411182906
 10
-25.2111877672
 20
-26.3194052679
 10
-25.379262441
 20
-26.1908300641
 10
-25.5418614127
 20
-26.055487416
 10
-25.6986838388
 20
-25.9136348697
 10
-25.8494777996
 20
-25.7655332205
 10
-25.9941672253
 20
-25.6112510316
 10
-26.1325222781
 20
-25.4509841921
 10
-26.264231348
 20
-25.2850696629
 10
-26.3890832842
 20
-25.1137773886
 10
-26.5063625769
 20
-24.9381127429
 10
-26.616370838
 20
-24.7577079229
 10
-26.7201515524
 20
-24.5706152763
 10
-26.8174586676
 20
-24.3764049914
 10
-26.9074695064
 20
-24.1758656318
 10
-26.9899930152
 20
-23.968722146
 10
-27.0645430579
 20
-23.7548315383
 10
-27.1303729672
 20
-23.5348790365
 10
-27.1868938082
 20
-23.30988519
 10
-27.2336020175
 20
-23.0804857225
 10
-27.2699990264
 20
-22.8469087603
 10
-27.295595502
 20
-22.6096474584
  0
LINE
  5
223
100
AcDbEntity
  8
RACCORDO
100
AcDbLine
 62
7
  6
CONTINUOUS
 10
-27.5
 20
-22.5
 11
-27.5
 21
0.0
  0
LINE
  5
224
100
AcDbEntity
  8
RACCORDO
100
AcDbLine
 62
250
  6
CONTINUOUS
 10
-27.3178663494
 20
-22.3178663494
 11
-27.3178663494
 21
0.0
  0
LWPOLYLINE
  5
225
100
AcDbEntity
  8
RACCORDO
100
AcDbPolyline
 62
250
  6
CONTINUOUS
 90
19
 70
0
 10
-20.1877485958
 20
16.3869366928
 10
-20.1627624115
 20
16.4141942941
 10
-20.1355766213
 20
16.4392600022
 10
-20.1064236354
 20
16.461919531
 10
-20.075552682
 20
16.4819791649
 10
-20.0432276758
 20
16.4992674149
 10
-20.0097249622
 20
16.5136364841
 10
-19.9753309549
 20
16.524963532
 10
-19.9403396872
 20
16.5331517238
 10
-19.9050502982
 20
16.538131059
 10
-19.8697644758
 20
16.5398589695
 10
-19.8347838775
 20
16.5383206832
 10
-19.8004075512
 20
16.5335293511
 10
-19.766929379
 20
16.525525934
 10
-19.7346355649
 20
16.5143788528
 10
-19.7038021875
 20
16.5001834037
 10
-19.6746928405
 20
16.483060943
 10
-19.6475563788
 20
16.4631578501
 10
-19.6226247912
 20
16.4406442758
  0
LWPOLYLINE
  5
226
100
AcDbEntity
  8
RACCORDO
100
AcDbPolyline
 62
250
  6
CONTINUOUS
 90
22
 70
0
 10
-17.0522975684
 20
19.9921116162
 10
-17.0206205428
 20
20.0184052854
 10
-16.9877871482
 20
20.0437739315
 10
-16.9538016561
 20
20.0682121745
 10
-16.9183846823
 20
20.0919565927
 10
-16.8818237448
 20
20.1147586634
 10
-16.8449765139
 20
20.1358899097
 10
-16.8079393043
 20
20.1552471329
 10
-16.7706302604
 20
20.1729323983
 10
-16.7336435803
 20
20.1885331648
 10
-16.6969290465
 20
20.2020416929
 10
-16.6605511811
 20
20.2134712368
 10
-16.6252771841
 20
20.2224480484
 10
-16.5911101483
 20
20.2289232469
 10
-16.5580578837
 20
20.232959361
 10
-16.5268932972
 20
20.2343569488
 10
-16.4976589298
 20
20.2330469097
 10
-16.4703158222
 20
20.2291171997
 10
-16.4455114615
 20
20.2226087367
 10
-16.4234594391
 20
20.2135422362
 10
-16.4039404996
 20
20.2019158818
 10
-16.3869501436
 20
20.187737473
  0
LINE
  5
227
100
AcDbEntity
  8
RACCORDO
100
AcDbLine
 62
7
  6
CONTINUOUS
 10
0.0
 20
-27.5
 11
-22.5
 21
-27.5
  0
LINE
  5
228
100
AcDbEntity
  8
RACCORDO
100
AcDbLine
 62
250
  6
CONTINUOUS
 10
0.0
 20
-27.3178663494
 11
-22.3178663494
 21
-27.3178663494
  0
LWPOLYLINE
  5
229
100
AcDbEntity
  8
RACCORDO
100
AcDbPolyline
 62
250
  6
CONTINUOUS
 90
31
 70
0
 10
-22.7674578792
 20
-17.7674578792
 10
-22.752834312
 20
-18.0193754606
 10
-22.7252637281
 20
-18.2717330777
 10
-22.6847161739
 20
-18.5238197634
 10
-22.6311947294
 20
-18.7750092904
 10
-22.5647413201
 20
-19.0244908855
 10
-22.485477668
 20
-19.2712809444
 10
-22.3935611748
 20
-19.5146758868
 10
-22.2891886778
 20
-19.7539716925
 10
-22.1726702548
 20
-19.9882181615
 10
-22.0443186496
 20
-20.2167324452
 10
-21.9044683095
 20
-20.4388917092
 10
-21.753575089
 20
-20.6538909763
 10
-21.5920884917
 20
-20.8611059358
 10
-21.4204512488
 20
-21.0600107668
 10
-21.2391867383
 20
-21.2500068672
 10
-21.0488066044
 20
-21.4305884586
 10
-20.8498667818
 20
-21.6012831827
 10
-20.6430105304
 20
-21.7616033084
 10
-20.4289650013
 20
-21.9110499657
 10
-20.2082258725
 20
-22.0493665001
 10
-19.9810919075
 20
-22.1764336758
 10
-19.7479826484
 20
-22.2919779921
 10
-19.5097257791
 20
-22.3955703022
 10
-19.2672412384
 20
-22.486886154
 10
-19.021135201
 20
-22.5657268208
 10
-18.7721729398
 20
-22.6318745864
 10
-18.5215592591
 20
-22.6851378382
 10
-18.2701792846
 20
-22.7254724601
 10
-18.0185771218
 20
-22.7529002483
 10
-17.7674578792
 20
-22.7674578792
  0
LINE
  5
22A
100
AcDbEntity
  8
0
100
AcDbLine
 62
7
  6
CONTINUOUS
 10
-16.6170093579
 20
18.1170093579
 11
-17.9160474636
 21
15.8670093579
  0
LWPOLYLINE
  5
22B
100
AcDbEntity
  8
RACCORDO
100
AcDbPolyline
 62
250
  6
CONTINUOUS
 90
19
 70
0
 10
-18.7751161765
 20
14.969834504
 10
-18.7502051231
 20
14.9973952393
 10
-18.7230556023
 20
15.0227619027
 10
-18.6939019318
 20
15.0457155634
 10
-18.6629957264
 20
15.0660581168
 10
-18.6306037267
 20
15.0836139935
 10
-18.5970054964
 20
15.098231675
 10
-18.5624910097
 20
15.1097850014
 10
-18.5273581488
 20
15.1181742599
 10
-18.491910133
 20
15.123327046
 10
-18.4564529013
 20
15.1251988877
 10
-18.4212924724
 20
15.1237736299
 10
-18.3867323035
 20
15.1190635734
 10
-18.3530706709
 20
15.1111093691
 10
-18.3205980962
 20
15.0999796668
 10
-18.2895948385
 20
15.0857705231
 10
-18.260328476
 20
15.0686045718
 10
-18.233051596
 20
15.0486299664
 10
-18.2079996156
 20
15.0260191003
  0
LINE
  5
22C
100
AcDbEntity
  8
RACCORDO
100
AcDbLine
 62
250
  6
CONTINUOUS
 10
-18.0665782593
 20
15.1674404565
 11
-18.2079996156
 21
15.0260191002
  0
LINE
  5
22D
100
AcDbEntity
  8
RACCORDO
100
AcDbLine
 62
250
  6
CONTINUOUS
 10
-15.1674404565
 20
18.0665782593
 11
-15.0260191002
 21
18.2079996156
  0
LWPOLYLINE
  5
22E
100
AcDbEntity
  8
RACCORDO
100
AcDbPolyline
 62
250
  6
CONTINUOUS
 90
19
 70
0
 10
-14.969834504
 20
18.7751161765
 10
-14.9973947443
 20
18.7502056091
 10
-15.0227610598
 20
18.7230565825
 10
-15.0457145125
 20
18.6939033866
 10
-15.0660569868
 20
18.6629976095
 10
-15.0836128963
 20
18.6306059713
 10
-15.0982307014
 20
18.5970080228
 10
-15.1097842217
 20
18.5624937225
 10
-15.1181737205
 20
18.5273609454
 10
-15.1233267675
 20
18.4919129175
 10
-15.1251988684
 20
18.4564555758
 10
-15.1237738453
 20
18.4212949442
 10
-15.1190639802
 20
18.3867345039
 10
-15.1111099071
 20
18.3530725398
 10
-15.099980261
 20
18.3205995872
 10
-15.085771095
 20
18.2895959383
 10
-15.0686050408
 20
18.2603291904
 10
-15.0486302453
 20
18.2330519389
 10
-15.0260191003
 20
18.2079996156
  0
LWPOLYLINE
  5
22F
100
AcDbEntity
  8
RACCORDO
100
AcDbPolyline
 62
250
  6
CONTINUOUS
 90
22
 70
0
 10
-16.8163563081
 20
19.7154941109
 10
-16.8042530081
 20
19.7222707389
 10
-16.7909709669
 20
19.7281479993
 10
-16.7765583814
 20
19.7330776952
 10
-16.7610154871
 20
19.737017431
 10
-16.7444542576
 20
19.7398973931
 10
-16.7270909836
 20
19.7416277713
 10
-16.7090035485
 20
19.7421062816
 10
-16.6902272282
 20
19.7413220487
 10
-16.6709105193
 20
19.739326258
 10
-16.6510695605
 20
19.7360322551
 10
-16.630809957
 20
19.7314049505
 10
-16.6104122424
 20
19.7255750395
 10
-16.5898986183
 20
19.718458373
 10
-16.5693552558
 20
19.7100307276
 10
-16.5491458683
 20
19.7005254612
 10
-16.5292923142
 20
19.6898861063
 10
-16.5098510337
 20
19.6780908319
 10
-16.4912155762
 20
19.6654469868
 10
-16.4735226783
 20
19.6520514671
 10
-16.4566632187
 20
19.6377797613
 10
-16.4406442758
 20
19.6226247912
  0
LINE
  5
230
100
AcDbEntity
  8
CURVE
100
AcDbLine
 62
250
  6
CONTINUOUS
 10
-20.1399999978
 20
-14.8015383772
 11
-20.0407692249
 21
-14.8661537642
  0
LINE
  5
231
100
AcDbEntity
  8
CURVE
100
AcDbLine
 62
250
  6
CONTINUOUS
 10
-19.5076922823
 20
-13.5507691006
 11
-19.5861538236
 21
-13.4699998669
  0
LINE
  5
232
100
AcDbEntity
  8
CURVE
100
AcDbLine
 62
250
  6
CONTINUOUS
 10
-20.2207692315
 20
-14.7115383739
 11
-20.1399999978
 21
-14.8015383772
  0
LINE
  5
233
100
AcDbEntity
  8
CURVE
100
AcDbLine
 62
250
  6
CONTINUOUS
 10
-18.8523076429
 20
-14.7899999153
 11
-18.923846107
 21
-14.7069229891
  0
LWPOLYLINE
  5
234
100
AcDbEntity
  8
CURVE
100
AcDbPolyline
 62
250
  6
CONTINUOUS
 90
26
 70
0
 10
-19.4730768964
 20
-14.2984614357
 10
-19.4786729802
 20
-14.2918469667
 10
-19.4843771651
 20
-14.2853198815
 10
-19.4901880114
 20
-14.2788826647
 10
-19.4961040796
 20
-14.2725378011
 10
-19.5021239299
 20
-14.2662877754
 10
-19.5082461227
 20
-14.2601350722
 10
-19.5144692184
 20
-14.2540821762
 10
-19.5207917771
 20
-14.2481315721
 10
-19.5272123594
 20
-14.2422857446
 10
-19.5337295255
 20
-14.2365471784
 10
-19.5403418358
 20
-14.2309183581
 10
-19.5470478505
 20
-14.2254017686
 10
-19.5538461301
 20
-14.2199998944
 10
-19.5607200067
 20
-14.2147262445
 10
-19.5676816484
 20
-14.2095699777
 10
-19.5747283884
 20
-14.2045317846
 10
-19.5818575599
 20
-14.1996123555
 10
-19.589066496
 20
-14.1948123809
 10
-19.5963525299
 20
-14.190132551
 10
-19.6037129946
 20
-14.1855735565
 10
-19.6111452233
 20
-14.1811360876
 10
-19.6186465492
 20
-14.1768208347
 10
-19.6262143054
 20
-14.1726284884
 10
-19.6338458249
 20
-14.168559739
 10
-19.6415384411
 20
-14.1646152769
  0
LINE
  5
235
100
AcDbEntity
  8
CURVE
100
AcDbLine
 62
250
  6
CONTINUOUS
 10
-18.2199999274
 20
-14.1692306617
 11
-18.1553845404
 21
-14.2546152802
  0
LINE
  5
236
100
AcDbEntity
  8
CURVE
100
AcDbLine
 62
250
  6
CONTINUOUS
 10
-19.4638461268
 20
-13.6384614115
 11
-19.5076922823
 21
-13.5507691006
  0
LINE
  5
237
100
AcDbEntity
  8
CURVE
100
AcDbLine
 62
250
  6
CONTINUOUS
 10
-19.4269230486
 20
-14.3930768238
 11
-19.4730768964
 21
-14.2984614357
  0
LINE
  5
238
100
AcDbEntity
  8
CURVE
100
AcDbLine
 62
250
  6
CONTINUOUS
 10
-18.923846107
 20
-14.7069229891
 11
-18.9676922625
 21
-14.6053845239
  0
LINE
  5
239
100
AcDbEntity
  8
CURVE
100
AcDbLine
 62
250
  6
CONTINUOUS
 10
-19.4523076649
 20
-13.7446152615
 11
-19.4638461268
 21
-13.6384614115
  0
LWPOLYLINE
  5
23A
100
AcDbEntity
  8
RACCORDO
100
AcDbPolyline
 62
250
  6
CONTINUOUS
 90
31
 70
0
 10
-21.8585247046
 20
-17.7674578792
 10
-21.8533831935
 20
-17.9736679139
 10
-21.8371859514
 20
-18.1798462602
 10
-21.8099329782
 20
-18.385992918
 10
-21.7716178969
 20
-18.5928644727
 10
-21.7222470845
 20
-18.7997043389
 10
-21.6618396721
 20
-19.0042427609
 10
-21.5902089317
 20
-19.2064724897
 10
-21.5075415913
 20
-19.4064007743
 10
-21.4144169664
 20
-19.6017796055
 10
-21.3106705808
 20
-19.7925312701
 10
-21.1964669106
 20
-19.9787334812
 10
-21.0728786996
 20
-20.158371369
 10
-20.9397874387
 20
-20.3313227831
 10
-20.7973116371
 20
-20.4977098738
 10
-20.6468795664
 20
-20.6558842214
 10
-20.4883834681
 20
-20.8057304541
 10
-20.3219311007
 20
-20.9473639437
 10
-20.1492740113
 20
-21.0794823865
 10
-19.9704645336
 20
-21.201905243
 10
-19.785450334
 20
-21.3148130528
 10
-19.5958259578
 20
-21.4174451306
 10
-19.4013941172
 20
-21.5097590352
 10
-19.2023521001
 20
-21.5917972078
 10
-19.0008863158
 20
-21.6629262874
 10
-18.796914732
 20
-21.7229654643
 10
-18.590519381
 20
-21.7720955481
 10
-18.3841327696
 20
-21.8102256072
 10
-18.1785657333
 20
-21.8373253311
 10
-17.9730074365
 20
-21.8534250302
 10
-17.7674578792
 20
-21.8585247046
  0
LINE
  5
23B
100
AcDbEntity
  8
RACCORDO
100
AcDbLine
 62
250
  6
CONTINUOUS
 10
-22.7674578792
 20
0.0
 11
-22.7674578792
 21
-17.7674578792
  0
LINE
  5
23C
100
AcDbEntity
  8
RACCORDO
100
AcDbLine
 62
250
  6
CONTINUOUS
 10
-22.3178663494
 20
-27.5
 11
-22.3178663494
 21
-27.3178663494
  0
LINE
  5
23D
100
AcDbEntity
  8
RACCORDO
100
AcDbLine
 62
250
  6
CONTINUOUS
 10
-21.8585247046
 20
-0.0
 11
-21.8585247046
 21
-17.7674578792
  0
LWPOLYLINE
  5
23E
100
AcDbEntity
  8
RACCORDO
100
AcDbPolyline
 62
250
  6
CONTINUOUS
 90
13
 70
0
 10
-17.7004783497
 20
14.3195741723
 10
-17.6756630903
 20
14.3515818733
 10
-17.6481279938
 20
14.3808398729
 10
-17.6181635074
 20
14.4070395437
 10
-17.5860857045
 20
14.4299045179
 10
-17.5522329521
 20
14.4491936026
 10
-17.5169623422
 20
14.464703324
 10
-17.4806459213
 20
14.4762700752
 10
-17.4436667694
 20
14.4837718409
 10
-17.4064149603
 20
14.487129485
 10
-17.3692834428
 20
14.4863075861
 10
-17.3326638951
 20
14.4813148106
 10
-17.2969425967
 20
14.4722038211
  0
LWPOLYLINE
  5
23F
100
AcDbEntity
  8
RACCORDO
100
AcDbPolyline
 62
250
  6
CONTINUOUS
 90
13
 70
0
 10
-14.3195741725
 20
17.7004783502
 10
-14.3515823089
 20
17.6756626663
 10
-14.38084059
 20
17.6481271516
 10
-14.4070403999
 20
17.6181622839
 10
-14.4299053904
 20
17.5860841608
 10
-14.4491943894
 20
17.5522311746
 10
-14.4647039477
 20
17.5169604445
 10
-14.4762704908
 20
17.4806440319
 10
-14.483772041
 20
17.4436650194
 10
-14.4871295
 20
17.4064134813
 10
-14.4863074833
 20
17.3692823576
 10
-14.481314692
 20
17.3326633103
 10
-14.4722038211
 20
17.2969425967
  0
LINE
  5
240
100
AcDbEntity
  8
RACCORDO
100
AcDbLine
 62
250
  6
CONTINUOUS
 10
-17.7674578792
 20
-22.7674578792
 11
0.0
 21
-22.7674578792
  0
LINE
  5
241
100
AcDbEntity
  8
RACCORDO
100
AcDbLine
 62
250
  6
CONTINUOUS
 10
-27.5
 20
-22.3178663494
 11
-27.3178663494
 21
-22.3178663494
  0
LINE
  5
242
100
AcDbEntity
  8
RACCORDO
100
AcDbLine
 62
250
  6
CONTINUOUS
 10
-17.7674578792
 20
-21.8585247046
 11
0.0
 21
-21.8585247046
  0
LWPOLYLINE
  5
243
100
AcDbEntity
  8
CURVE
100
AcDbPolyline
 62
250
  6
CONTINUOUS
 90
41
 70
0
 10
-20.0407692249
 20
-14.8661537642
 10
-20.0265951426
 20
-14.8711823454
 10
-20.0122931158
 20
-14.8758607276
 10
-19.9978736287
 20
-14.8801845227
 10
-19.9833471654
 20
-14.8841493429
 10
-19.9687242101
 20
-14.8877508
 10
-19.9540152468
 20
-14.890984506
 10
-19.9392307597
 20
-14.8938460729
 10
-19.9254955936
 20
-14.8961580975
 10
-19.9117117671
 20
-14.8981445664
 10
-19.8978862788
 20
-14.8998021445
 10
-19.8840261272
 20
-14.9011274964
 10
-19.8701383111
 20
-14.9021172869
 10
-19.8562298289
 20
-14.9027681807
 10
-19.8423076792
 20
-14.9030768425
 10
-19.8289696617
 20
-14.903048782
 10
-19.8156341182
 20
-14.9027022402
 10
-19.8023096384
 20
-14.9020356312
 10
-19.7890048118
 20
-14.9010473692
 10
-19.7757282279
 20
-14.8997358683
 10
-19.7624884765
 20
-14.8980995425
 10
-19.749294147
 20
-14.896136806
 10
-19.7361538291
 20
-14.8938460729
 10
-19.7240521575
 20
-14.8914324331
 10
-19.7120123769
 20
-14.8887309108
 10
-19.7000427916
 20
-14.8857357474
 10
-19.6881517057
 20
-14.8824411845
 10
-19.6763474235
 20
-14.8788414632
 10
-19.6646382492
 20
-14.8749308252
 10
-19.6530324869
 20
-14.8707035117
 10
-19.6415384411
 20
-14.8661537642
 10
-19.6306512865
 20
-14.8614930157
 10
-19.6198885294
 20
-14.8565324672
 10
-19.6092646297
 20
-14.8512729392
 10
-19.5987940474
 20
-14.8457152526
 10
-19.5884912424
 20
-14.8398602281
 10
-19.5783706747
 20
-14.8337086863
 10
-19.5684468042
 20
-14.8272614481
 10
-19.5587340909
 20
-14.8205193342
 10
-19.5492469948
 20
-14.8134831652
 10
-19.5399999758
 20
-14.806153762
  0
LWPOLYLINE
  5
244
100
AcDbEntity
  8
CURVE
100
AcDbPolyline
 62
250
  6
CONTINUOUS
 90
37
 70
0
 10
-18.741538408
 20
-14.8638460718
 10
-18.7309211249
 20
-14.8685151463
 10
-18.7201838555
 20
-14.8729191972
 10
-18.7093342699
 20
-14.8770561636
 10
-18.6983800381
 20
-14.8809239843
 10
-18.68732883
 20
-14.8845205983
 10
-18.6761883157
 20
-14.8878439444
 10
-18.6649661651
 20
-14.8908919617
 10
-18.6536700483
 20
-14.893662589
 10
-18.6423076352
 20
-14.8961537653
 10
-18.631360442
 20
-14.8982775065
 10
-18.6203662059
 20
-14.9001403432
 10
-18.6093317572
 20
-14.9017400592
 10
-18.598263926
 20
-14.9030744384
 10
-18.5871695427
 20
-14.9041412647
 10
-18.5760554373
 20
-14.9049383217
 10
-18.5649284402
 20
-14.9054633934
 10
-18.5537953815
 20
-14.9057142637
 10
-18.5426630915
 20
-14.9056887162
 10
-18.5315384003
 20
-14.9053845349
 10
-18.5193599681
 20
-14.904731448
 10
-18.5072032085
 20
-14.9037565035
 10
-18.4950724564
 20
-14.9024753064
 10
-18.4829720467
 20
-14.9009034614
 10
-18.4709063144
 20
-14.8990565733
 10
-18.4588795945
 20
-14.8969502471
 10
-18.4468962218
 20
-14.8946000876
 10
-18.4349605313
 20
-14.8920216997
 10
-18.4230768579
 20
-14.8892306881
 10
-18.4090000359
 20
-14.8856513451
 10
-18.3949984358
 20
-14.8818146182
 10
-18.3810673992
 20
-14.8777424023
 10
-18.3672022676
 20
-14.8734565921
 10
-18.3533983826
 20
-14.8689790822
 10
-18.3396510858
 20
-14.8643317675
 10
-18.3259557188
 20
-14.8595365426
 10
-18.3123076231
 20
-14.8546153023
  0
LINE
  5
245
100
AcDbEntity
  8
CURVE
100
AcDbLine
 62
250
  6
CONTINUOUS
 10
-19.5861538236
 20
-13.4699998669
 11
-19.6807692117
 21
-13.4215383266
  0
LINE
  5
246
100
AcDbEntity
  8
CURVE
100
AcDbLine
 62
250
  6
CONTINUOUS
 10
-15.0284613488
 20
-14.8038460696
 11
-14.9292305759
 21
-14.8684614566
  0
LINE
  5
247
100
AcDbEntity
  8
CURVE
100
AcDbLine
 62
250
  6
CONTINUOUS
 10
-18.741538408
 20
-14.8638460718
 11
-18.8523076429
 21
-14.7899999153
  0
LINE
  5
248
100
AcDbEntity
  8
CURVE
100
AcDbLine
 62
250
  6
CONTINUOUS
 10
-16.1869229297
 20
-14.8661537642
 11
-16.2976921646
 21
-14.7923076077
  0
LWPOLYLINE
  5
249
100
AcDbEntity
  8
CURVE
100
AcDbPolyline
 62
250
  6
CONTINUOUS
 90
27
 70
0
 10
-18.2199999274
 20
-14.1692306617
 10
-18.2264940719
 20
-14.1635238533
 10
-18.2330876913
 20
-14.1579239033
 10
-18.2397787541
 20
-14.1524333953
 10
-18.2465652287
 20
-14.1470549128
 10
-18.2534450838
 20
-14.1417910395
 10
-18.2604162877
 20
-14.1366443591
 10
-18.267476809
 20
-14.131617455
 10
-18.2746246163
 20
-14.126712911
 10
-18.2818576779
 20
-14.1219333106
 10
-18.2891739625
 20
-14.1172812375
 10
-18.2965714385
 20
-14.1127592753
 10
-18.3040480745
 20
-14.1083700075
 10
-18.3116018389
 20
-14.1041160179
 10
-18.3192307002
 20
-14.09999989
 10
-18.3271558969
 20
-14.0959110599
 10
-18.3351550256
 20
-14.0919709829
 10
-18.3432246723
 20
-14.0881797385
 10
-18.3513614228
 20
-14.0845374061
 10
-18.3595618631
 20
-14.0810440652
 10
-18.367822579
 20
-14.0776997954
 10
-18.3761401564
 20
-14.0745046761
 10
-18.3845111813
 20
-14.0714587868
 10
-18.3929322395
 20
-14.068562207
 10
-18.4013999169
 20
-14.0658150161
 10
-18.4099107995
 20
-14.0632172937
 10
-18.4184614731
 20
-14.0607691193
  0
LWPOLYLINE
  5
24A
100
AcDbEntity
  8
CURVE
100
AcDbPolyline
 62
250
  6
CONTINUOUS
 90
27
 70
0
 10
-15.6630767567
 20
-14.1715383541
 10
-15.6695709012
 20
-14.1658315457
 10
-15.6761645206
 20
-14.1602315957
 10
-15.6828555834
 20
-14.1547410877
 10
-15.689642058
 20
-14.1493626052
 10
-15.6965219131
 20
-14.1440987319
 10
-15.703493117
 20
-14.1389520514
 10
-15.7105536383
 20
-14.1339251474
 10
-15.7177014456
 20
-14.1290206034
 10
-15.7249345072
 20
-14.124241003
 10
-15.7322507918
 20
-14.1195889299
 10
-15.7396482678
 20
-14.1150669677
 10
-15.7471249038
 20
-14.1106776999
 10
-15.7546786682
 20
-14.1064237103
 10
-15.7623075295
 20
-14.1023075824
 10
-15.7702327262
 20
-14.0982187523
 10
-15.7782318549
 20
-14.0942786753
 10
-15.7863015016
 20
-14.0904874309
 10
-15.7944382521
 20
-14.0868450985
 10
-15.8026386924
 20
-14.0833517576
 10
-15.8108994083
 20
-14.0800074878
 10
-15.8192169857
 20
-14.0768123685
 10
-15.8275880106
 20
-14.0737664792
 10
-15.8360090688
 20
-14.0708698994
 10
-15.8444767462
 20
-14.0681227085
 10
-15.8529876288
 20
-14.0655249861
 10
-15.8615383024
 20
-14.0630768117
  0
LINE
  5
24B
100
AcDbEntity
  8
CURVE
100
AcDbLine
 62
250
  6
CONTINUOUS
 10
-17.5946152891
 20
-14.7299999131
 11
-17.4515383607
 21
-14.8615383794
  0
LINE
  5
24C
100
AcDbEntity
  8
CURVE
100
AcDbLine
 62
250
  6
CONTINUOUS
 10
-16.9276921877
 20
-13.5853844865
 11
-17.0753845008
 21
-13.4469229429
  0
LINE
  5
24D
100
AcDbEntity
  8
CURVE
100
AcDbLine
 62
250
  6
CONTINUOUS
 10
-15.1092305825
 20
-14.7138460663
 11
-15.0284613488
 21
-14.8038460696
  0
LINE
  5
24E
100
AcDbEntity
  8
CURVE
100
AcDbLine
 62
250
  6
CONTINUOUS
 10
-16.2976921646
 20
-14.7923076077
 11
-16.3669229363
 21
-14.7092306815
  0
LINE
  5
24F
100
AcDbEntity
  8
CURVE
100
AcDbLine
 62
250
  6
CONTINUOUS
 10
-15.6630767567
 20
-14.1715383541
 11
-15.5984613697
 21
-14.2569229726
  0
LINE
  5
250
100
AcDbEntity
  8
CURVE
100
AcDbLine
 62
250
  6
CONTINUOUS
 10
-15.2223075097
 20
-15.599999945
 11
-14.670769028
 21
-16.4423076682
  0
LINE
  5
251
100
AcDbEntity
  8
CURVE
100
AcDbLine
 62
250
  6
CONTINUOUS
 10
-17.5576922108
 20
-15.599999945
 11
-16.9207691105
 21
-17.1
  0
LINE
  5
252
100
AcDbEntity
  8
CURVE
100
AcDbLine
 62
250
  6
CONTINUOUS
 10
-17.5461537488
 20
-11.2130767071
 11
-16.9115383409
 21
-12.7130767622
  0
LINE
  5
253
100
AcDbEntity
  8
CURVE
100
AcDbLine
 62
250
  6
CONTINUOUS
 10
-20.2946153881
 20
-11.2130767071
 11
-19.7107692128
 21
-12.7130767622
  0
LINE
  5
254
100
AcDbEntity
  8
CURVE
100
AcDbLine
 62
250
  6
CONTINUOUS
 10
-20.2876923109
 20
-9.0046150877
 11
-19.7038461356
 21
-10.5046151427
  0
LINE
  5
255
100
AcDbEntity
  8
CURVE
100
AcDbLine
 62
250
  6
CONTINUOUS
 10
-20.2
 20
-15.599999945
 11
-20.2
 21
-17.1
  0
LINE
  5
256
100
AcDbEntity
  8
CURVE
100
AcDbLine
 62
250
  6
CONTINUOUS
 10
-19.1799999626
 20
-17.1
 11
-19.1799999626
 21
-15.599999945
  0
LINE
  5
257
100
AcDbEntity
  8
CURVE
100
AcDbLine
 62
250
  6
CONTINUOUS
 10
-18.6723076363
 20
-11.2130767071
 11
-18.6723076363
 21
-12.7130767622
  0
LINE
  5
258
100
AcDbEntity
  8
CURVE
100
AcDbLine
 62
250
  6
CONTINUOUS
 10
-18.6653845591
 20
-9.0046150877
 11
-18.6653845591
 21
-10.5046151427
  0
LINE
  5
259
100
AcDbEntity
  8
CURVE
100
AcDbLine
 62
250
  6
CONTINUOUS
 10
-18.1969230035
 20
-10.5046151427
 11
-18.1969230035
 21
-9.0046150877
  0
LINE
  5
25A
100
AcDbEntity
  8
CURVE
100
AcDbLine
 62
250
  6
CONTINUOUS
 10
-14.7999999866
 20
11.1
 11
-15.1
 21
10.6499999642
  0
LINE
  5
25B
100
AcDbEntity
  8
CURVE
100
AcDbLine
 62
250
  6
CONTINUOUS
 10
-17.4515383607
 20
-14.8615383794
 11
-17.2646152769
 21
-14.9030768425
  0
LINE
  5
25C
100
AcDbEntity
  8
CURVE
100
AcDbLine
 62
250
  6
CONTINUOUS
 10
-19.6415384411
 20
-14.1646152769
 11
-19.8030769085
 21
-14.1161537367
  0
LWPOLYLINE
  5
25D
100
AcDbEntity
  8
CURVE
100
AcDbPolyline
 62
250
  6
CONTINUOUS
 90
41
 70
0
 10
-14.9292305759
 20
-14.8684614566
 10
-14.9150564935
 20
-14.8734900378
 10
-14.9007544668
 20
-14.87816842
 10
-14.8863349797
 20
-14.8824922151
 10
-14.8718085164
 20
-14.8864570353
 10
-14.8571855611
 20
-14.8900584924
 10
-14.8424765978
 20
-14.8932921984
 10
-14.8276921106
 20
-14.8961537653
 10
-14.8139569445
 20
-14.8984657899
 10
-14.8001731181
 20
-14.9004522588
 10
-14.7863476297
 20
-14.9021098369
 10
-14.7724874782
 20
-14.9034351888
 10
-14.758599662
 20
-14.9044249793
 10
-14.7446911798
 20
-14.9050758731
 10
-14.7307690302
 20
-14.9053845349
 10
-14.7174310127
 20
-14.9053564744
 10
-14.7040954692
 20
-14.9050099326
 10
-14.6907709894
 20
-14.9043433236
 10
-14.6774661627
 20
-14.9033550616
 10
-14.6641895789
 20
-14.9020435607
 10
-14.6509498275
 20
-14.9004072349
 10
-14.637755498
 20
-14.8984444984
 10
-14.6246151801
 20
-14.8961537653
 10
-14.6125135085
 20
-14.8937401255
 10
-14.6004737279
 20
-14.8910386032
 10
-14.5885041425
 20
-14.8880434398
 10
-14.5766130567
 20
-14.8847488769
 10
-14.5648087745
 20
-14.8811491556
 10
-14.5530996001
 20
-14.8772385176
 10
-14.5414938379
 20
-14.8730112041
 10
-14.529999792
 20
-14.8684614566
 10
-14.5191126375
 20
-14.8638007081
 10
-14.5083498804
 20
-14.8588401596
 10
-14.4977259807
 20
-14.8535806316
 10
-14.4872553984
 20
-14.848022945
 10
-14.4769525934
 20
-14.8421679205
 10
-14.4668320257
 20
-14.8360163787
 10
-14.4569081552
 20
-14.8295691405
 10
-14.4471954419
 20
-14.8228270266
 10
-14.4377083458
 20
-14.8157908576
 10
-14.4284613268
 20
-14.8084614544
  0
LWPOLYLINE
  5
25E
100
AcDbEntity
  8
CURVE
100
AcDbPolyline
 62
250
  6
CONTINUOUS
 90
49
 70
0
 10
-19.6807692117
 20
-13.4215383266
 10
-19.6901419561
 20
-13.4181689052
 10
-19.699644581
 20
-13.4151550179
 10
-19.7092611569
 20
-13.412485522
 10
-19.7189757541
 20
-13.4101492752
 10
-19.728772443
 20
-13.4081351348
 10
-19.7386352939
 20
-13.4064319583
 10
-19.7485483772
 20
-13.4050286033
 10
-19.7584957634
 20
-13.4039139272
 10
-19.7684615226
 20
-13.4030767875
 10
-19.7805400809
 20
-13.4024168561
 10
-19.7926191036
 20
-13.4021185355
 10
-19.8046954693
 20
-13.4021525015
 10
-19.8167660565
 20
-13.4024894303
 10
-19.8288277438
 20
-13.4030999976
 10
-19.8408774097
 20
-13.4039548795
 10
-19.8529119329
 20
-13.405024752
 10
-19.8649281918
 20
-13.4062802909
 10
-19.8769230651
 20
-13.4076921723
 10
-19.8904754076
 20
-13.4094536753
 10
-19.9039942295
 20
-13.4114018668
 10
-19.9174774301
 20
-13.4135605873
 10
-19.9309229089
 20
-13.4159536772
 10
-19.9443285653
 20
-13.4186049768
 10
-19.9576922988
 20
-13.4215383266
 10
-19.9674795955
 20
-13.4238892668
 10
-19.977225521
 20
-13.4264285754
 10
-19.9869124659
 20
-13.4291795164
 10
-19.9965228205
 20
-13.4321653536
 10
-20.0060389756
 20
-13.4354093509
 10
-20.0154433214
 20
-13.4389347723
 10
-20.0247182487
 20
-13.4427648817
 10
-20.0338461478
 20
-13.4469229429
 10
-20.0427829424
 20
-13.4514092467
 10
-20.0515562843
 20
-13.4562228573
 10
-20.0601662699
 20
-13.4613421879
 10
-20.0686129955
 20
-13.4667456515
 10
-20.0768965577
 20
-13.4724116612
 10
-20.0850170527
 20
-13.4783186302
 10
-20.0929745771
 20
-13.4844449716
 10
-20.1007692271
 20
-13.4907690984
 10
-20.1097819806
 20
-13.4984785925
 10
-20.118581226
 20
-13.5064149262
 10
-20.1271812363
 20
-13.5145583785
 10
-20.1355962841
 20
-13.5228892281
 10
-20.1438406423
 20
-13.5313877539
 10
-20.1519285836
 20
-13.5400342349
 10
-20.1598743807
 20
-13.5488089499
 10
-20.1676923065
 20
-13.5576921778
  0
LWPOLYLINE
  5
25F
100
AcDbEntity
  8
CURVE
100
AcDbPolyline
 62
250
  6
CONTINUOUS
 90
36
 70
0
 10
-16.1869229297
 20
-14.8661537642
 10
-16.1763139506
 20
-14.8708418866
 10
-16.1655815047
 20
-14.8752586198
 10
-16.154733864
 20
-14.8794025899
 10
-16.1437793003
 20
-14.8832724233
 10
-16.1327260857
 20
-14.8868667461
 10
-16.1215824921
 20
-14.8901841847
 10
-16.1103567915
 20
-14.8932233653
 10
-16.0990572558
 20
-14.8959829143
 10
-16.0876921569
 20
-14.8984614577
 10
-16.0755240245
 20
-14.9007908023
 10
-16.0632999283
 20
-14.9027981228
 10
-16.0510288999
 20
-14.904481747
 10
-16.0387199708
 20
-14.9058400027
 10
-16.0263821728
 20
-14.9068712177
 10
-16.0140245373
 20
-14.9075737199
 10
-16.0016560959
 20
-14.907945837
 10
-15.9892858803
 20
-14.9079858968
 10
-15.976922922
 20
-14.9076922273
 10
-15.9644880582
 20
-14.9070602541
 10
-15.9520742966
 20
-14.9061029428
 10
-15.9396862189
 20
-14.9048351278
 10
-15.9273284068
 20
-14.9032716433
 10
-15.9150054419
 20
-14.9014273237
 10
-15.9027219059
 20
-14.8993170033
 10
-15.8904823803
 20
-14.8969555164
 10
-15.8782914469
 20
-14.8943576974
 10
-15.8661536872
 20
-14.8915383805
 10
-15.8520687302
 20
-14.8879894743
 10
-15.8380588925
 20
-14.8841790561
 10
-15.824120729
 20
-14.8801267366
 10
-15.8102507949
 20
-14.8758521266
 10
-15.7964456451
 20
-14.8713748367
 10
-15.7827018348
 20
-14.8667144777
 10
-15.7690159188
 20
-14.8618906601
 10
-15.7553844524
 20
-14.8569229946
  0
LINE
  5
260
100
AcDbEntity
  8
CURVE
100
AcDbLine
 62
250
  6
CONTINUOUS
 10
-14.4746151746
 20
-13.4723075592
 11
-14.5692305627
 21
-13.423846019
  0
LINE
  5
261
100
AcDbEntity
  8
CURVE
100
AcDbLine
 62
250
  6
CONTINUOUS
 10
-14.3961536333
 20
-13.553076793
 11
-14.4746151746
 21
-13.4723075592
  0
LWPOLYLINE
  5
262
100
AcDbEntity
  8
CURVE
100
AcDbPolyline
 62
250
  6
CONTINUOUS
 90
26
 70
0
 10
-14.3615382474
 20
-14.3007691281
 10
-14.3671343311
 20
-14.2941546591
 10
-14.372838516
 20
-14.2876275739
 10
-14.3786493624
 20
-14.2811903571
 10
-14.3845654306
 20
-14.2748454935
 10
-14.3905852809
 20
-14.2685954678
 10
-14.3967074737
 20
-14.2624427646
 10
-14.4029305693
 20
-14.2563898686
 10
-14.4092531281
 20
-14.2504392645
 10
-14.4156737104
 20
-14.244593437
 10
-14.4221908765
 20
-14.2388548708
 10
-14.4288031868
 20
-14.2332260505
 10
-14.4355092015
 20
-14.227709461
 10
-14.4423074811
 20
-14.2223075868
 10
-14.4491813576
 20
-14.2170339369
 10
-14.4561429993
 20
-14.2118776701
 10
-14.4631897394
 20
-14.206839477
 10
-14.4703189109
 20
-14.2019200479
 10
-14.477527847
 20
-14.1971200732
 10
-14.4848138808
 20
-14.1924402434
 10
-14.4921743456
 20
-14.1878812488
 10
-14.4996065743
 20
-14.1834437799
 10
-14.5071079002
 20
-14.1791285271
 10
-14.5146756563
 20
-14.1749361808
 10
-14.5223071759
 20
-14.1708674314
 10
-14.529999792
 20
-14.1669229693
  0
LINE
  5
263
100
AcDbEntity
  8
CURVE
100
AcDbLine
 62
250
  6
CONTINUOUS
 10
-14.3499997854
 20
-13.6407691039
 11
-14.3961536333
 21
-13.553076793
  0
LINE
  5
264
100
AcDbEntity
  8
CURVE
100
AcDbLine
 62
250
  6
CONTINUOUS
 10
-14.3153843995
 20
-14.3953845162
 11
-14.3615382474
 21
-14.3007691281
  0
LINE
  5
265
100
AcDbEntity
  8
CURVE
100
AcDbLine
 62
250
  6
CONTINUOUS
 10
-15.6630767567
 20
-9.0046150877
 11
-15.0261536564
 21
-10.5046151427
  0
LINE
  5
266
100
AcDbEntity
  8
CURVE
100
AcDbLine
 62
250
  6
CONTINUOUS
 10
-18.0930768458
 20
-9.0046150877
 11
-17.476922977
 21
-10.4792305264
  0
LWPOLYLINE
  5
267
100
AcDbEntity
  8
CURVE
100
AcDbPolyline
 62
250
  6
CONTINUOUS
 90
24
 70
0
 10
-16.8076921833
 20
-13.9015383442
 10
-16.8105007396
 20
-13.8865149214
 10
-16.8135562561
 20
-13.8715351174
 10
-16.8168589995
 20
-13.8566037578
 10
-16.8204092363
 20
-13.8417256682
 10
-16.8242072333
 20
-13.8269056741
 10
-16.8282532571
 20
-13.8121486011
 10
-16.8325475744
 20
-13.7974592747
 10
-16.8370904519
 20
-13.7828425206
 10
-16.8418821561
 20
-13.7683031642
 10
-16.8469229539
 20
-13.7538460311
 10
-16.8518904716
 20
-13.7403293941
 10
-16.8570757488
 20
-13.726893177
 10
-16.8624760102
 20
-13.7135408131
 10
-16.8680884806
 20
-13.7002757362
 10
-16.8739103845
 20
-13.6871013797
 10
-16.8799389467
 20
-13.6740211771
 10
-16.8861713918
 20
-13.661038562
 10
-16.8926049447
 20
-13.6481569679
 10
-16.8992368298
 20
-13.6353798284
 10
-16.906064272
 20
-13.622710577
 10
-16.9130844959
 20
-13.6101526471
 10
-16.9202947262
 20
-13.5977094725
 10
-16.9276921877
 20
-13.5853844865
  0
LWPOLYLINE
  5
268
100
AcDbEntity
  8
CURVE
100
AcDbPolyline
 62
250
  6
CONTINUOUS
 90
23
 70
0
 10
-18.0953845382
 20
-14.4599999032
 10
-18.0965526858
 20
-14.4504419541
 10
-18.097864409
 20
-14.440899624
 10
-18.0993198467
 20
-14.4313755323
 10
-18.1009191383
 20
-14.4218722988
 10
-18.1026624226
 20
-14.4123925431
 10
-18.104549839
 20
-14.402938885
 10
-18.1065815265
 20
-14.393513944
 10
-18.1087576242
 20
-14.3841203399
 10
-18.1110782712
 20
-14.3747606924
 10
-18.1135436067
 20
-14.365437621
 10
-18.1161537697
 20
-14.3561537455
 10
-18.1189874464
 20
-14.346654706
 10
-18.1219726294
 20
-14.3372022137
 10
-18.1251076672
 20
-14.3277986376
 10
-18.1283909081
 20
-14.3184463465
 10
-18.1318207003
 20
-14.3091477095
 10
-18.1353953923
 20
-14.2999050954
 10
-18.1391133324
 20
-14.2907208731
 10
-18.142972869
 20
-14.2815974115
 10
-18.1469723502
 20
-14.2725370795
 10
-18.1511101246
 20
-14.2635422462
 10
-18.1553845404
 20
-14.2546152802
  0
LINE
  5
269
100
AcDbEntity
  8
CURVE
100
AcDbLine
 62
250
  6
CONTINUOUS
 10
-14.3407690159
 20
-13.7469229539
 11
-14.3499997854
 21
-13.6407691039
  0
LINE
  5
26A
100
AcDbEntity
  8
RACCORDO
100
AcDbLine
 62
250
  6
CONTINUOUS
 10
-17.7674578792
 20
-21.8585247046
 11
-17.7674578792
 21
-22.7674578792
  0
LINE
  5
26B
100
AcDbEntity
  8
CURVE
100
AcDbLine
 62
250
  6
CONTINUOUS
 10
-16.7430767963
 20
-9.0046150877
 11
-16.7430767963
 21
-10.5046151427
  0
LINE
  5
26C
100
AcDbEntity
  8
CURVE
100
AcDbLine
 62
250
  6
CONTINUOUS
 10
-16.5607690973
 20
-15.599999945
 11
-16.5607690973
 21
-17.1
  0
LINE
  5
26D
100
AcDbEntity
  8
CURVE
100
AcDbLine
 62
250
  6
CONTINUOUS
 10
-16.5515383277
 20
-11.2130767071
 11
-16.5515383277
 21
-12.7130767622
  0
LINE
  5
26E
100
AcDbEntity
  8
CURVE
100
AcDbLine
 62
250
  6
CONTINUOUS
 10
-15.2892305891
 20
-11.2130767071
 11
-15.2892305891
 21
-12.7130767622
  0
LINE
  5
26F
100
AcDbEntity
  8
RACCORDO
100
AcDbLine
 62
250
  6
CONTINUOUS
 10
-16.8084583046
 20
13.9739340089
 11
-16.7795603504
 21
14.3728887785
  0
LINE
  5
270
100
AcDbEntity
  8
CURVE
100
AcDbLine
 62
250
  6
CONTINUOUS
 10
-18.0953845382
 20
-14.4599999032
 11
-18.1046153078
 21
-14.570769138
  0
LWPOLYLINE
  5
271
100
AcDbEntity
  8
CURVE
100
AcDbPolyline
 62
250
  6
CONTINUOUS
 90
25
 70
0
 10
-18.9746153397
 20
-14.3446152835
 10
-18.9765033098
 20
-14.3558444473
 10
-18.9781998646
 20
-14.3671110823
 10
-18.9797036669
 20
-14.3784109591
 10
-18.9810133794
 20
-14.3897398485
 10
-18.9821276649
 20
-14.4010935213
 10
-18.9830451862
 20
-14.4124677483
 10
-18.9837646061
 20
-14.4238583002
 10
-18.9842845872
 20
-14.4352609477
 10
-18.9846037924
 20
-14.4466714617
 10
-18.9847208845
 20
-14.4580856128
 10
-18.9846345261
 20
-14.4694991718
 10
-18.9843433801
 20
-14.4809079095
 10
-18.9838461092
 20
-14.4923075967
 10
-18.9832119749
 20
-14.5026954203
 10
-18.9824066373
 20
-14.5130695505
 10
-18.9814315376
 20
-14.5234273448
 10
-18.9802881171
 20
-14.5337661609
 10
-18.9789778172
 20
-14.5440833564
 10
-18.9775020792
 20
-14.5543762889
 10
-18.9758623443
 20
-14.5646423161
 10
-18.9740600539
 20
-14.5748787955
 10
-18.9720966493
 20
-14.5850830849
 10
-18.9699735717
 20
-14.5952525418
 10
-18.9676922625
 20
-14.6053845239
  0
LINE
  5
272
100
AcDbEntity
  8
CURVE
100
AcDbLine
 62
250
  6
CONTINUOUS
 10
-19.4730768964
 20
-13.8553844964
 11
-19.4523076649
 21
-13.7446152615
  0
LWPOLYLINE
  5
273
100
AcDbEntity
  8
CURVE
100
AcDbPolyline
 62
250
  6
CONTINUOUS
 90
28
 70
0
 10
-19.4246153562
 20
-14.6307691402
 10
-19.4226163145
 20
-14.6222041253
 10
-19.4207664166
 20
-14.6135996024
 10
-19.4190672238
 20
-14.6049588618
 10
-19.4175202974
 20
-14.5962851941
 10
-19.4161271991
 20
-14.5875818899
 10
-19.41488949
 20
-14.5788522397
 10
-19.4138087317
 20
-14.570099534
 10
-19.4128864855
 20
-14.5613270632
 10
-19.4121243128
 20
-14.552538118
 10
-19.4115237751
 20
-14.5437359889
 10
-19.4110864338
 20
-14.5349239664
 10
-19.4108138502
 20
-14.5261053409
 10
-19.4107075857
 20
-14.5172834031
 10
-19.4107692018
 20
-14.5084614434
 10
-19.4110058403
 20
-14.4994720329
 10
-19.4114167444
 20
-14.4904893507
 10
-19.4120001129
 20
-14.4815167287
 10
-19.4127541445
 20
-14.4725574986
 10
-19.4136770377
 20
-14.4636149925
 10
-19.4147669914
 20
-14.454692542
 10
-19.4160222042
 20
-14.4457934791
 10
-19.4174408748
 20
-14.4369211356
 10
-19.4190212018
 20
-14.4280788434
 10
-19.4207613841
 20
-14.4192699342
 10
-19.4226596201
 20
-14.41049774
 10
-19.4247141087
 20
-14.4017655926
 10
-19.4269230486
 20
-14.3930768238
  0
LINE
  5
274
100
AcDbEntity
  8
CURVE
100
AcDbLine
 62
250
  6
CONTINUOUS
 10
-11.8000000715
 20
10.5000000358
 11
-11.6499998927
 21
10.8000000179
  0
LINE
  5
275
100
AcDbEntity
  8
CURVE
100
AcDbLine
 62
250
  6
CONTINUOUS
 10
-13.1500000536
 20
11.1
 11
-13.4500000358
 21
10.6499999642
  0
LINE
  5
276
100
AcDbEntity
  8
CURVE
100
AcDbLine
 62
250
  6
CONTINUOUS
 10
-15.1
 20
9.0
 11
-14.05
 21
10.5000000358
  0
LINE
  5
277
100
AcDbEntity
  8
CURVE
100
AcDbLine
 62
250
  6
CONTINUOUS
 10
-13.4500000358
 20
9.0
 11
-12.4000000358
 21
10.5000000358
  0
LINE
  5
278
100
AcDbEntity
  8
CURVE
100
AcDbLine
 62
250
  6
CONTINUOUS
 10
-11.6499998927
 20
10.8000000179
 11
-11.3500000358
 21
11.1
  0
LINE
  5
279
100
AcDbEntity
  8
RACCORDO
100
AcDbLine
 62
250
  6
CONTINUOUS
 10
13.9739340089
 20
-16.8084583046
 11
14.3728887785
 21
-16.7795603503
  0
LINE
  5
27A
100
AcDbEntity
  8
RACCORDO
100
AcDbLine
 62
250
  6
CONTINUOUS
 10
-21.8585247046
 20
-17.7674578792
 11
-22.7674578792
 21
-17.7674578792
  0
LINE
  5
27B
100
AcDbEntity
  8
0
100
AcDbLine
 62
7
  6
CONTINUOUS
 10
15.3179712522
 20
-17.3670093579
 11
17.9160474636
 21
-17.3670093579
  0
LINE
  5
27C
100
AcDbEntity
  8
CURVE
100
AcDbLine
 62
250
  6
CONTINUOUS
 10
-16.5607690973
 20
-17.1
 11
-15.7023075273
 21
-17.1
  0
LINE
  5
27D
100
AcDbEntity
  8
CURVE
100
AcDbLine
 62
250
  6
CONTINUOUS
 10
-18.0746153067
 20
-16.6638461378
 11
-17.1053845019
 21
-16.6638461378
  0
LINE
  5
27E
100
AcDbEntity
  8
CURVE
100
AcDbLine
 62
250
  6
CONTINUOUS
 10
12.492362
 20
-16.1
 11
8.307638
 21
-16.1
  0
LINE
  5
27F
100
AcDbEntity
  8
CURVE
100
AcDbLine
 62
250
  6
CONTINUOUS
 10
-19.8215384477
 20
-15.599999945
 11
-18.5499999395
 21
-15.599999945
  0
LINE
  5
280
100
AcDbEntity
  8
CURVE
100
AcDbLine
 62
250
  6
CONTINUOUS
 10
-17.6223075978
 20
-15.599999945
 11
-17.5576922108
 21
-15.599999945
  0
LWPOLYLINE
  5
281
100
AcDbEntity
  8
CURVE
100
AcDbPolyline
 62
250
  6
CONTINUOUS
 90
27
 70
0
 10
-6.9548908933
 20
-14.9035616247
 10
-6.9334873852
 20
-14.9048459574
 10
-6.9120726342
 20
-14.9059673996
 10
-6.8906397298
 20
-14.9068597357
 10
-6.8691817612
 20
-14.9074567501
 10
-6.8476918179
 20
-14.9076922273
 10
-6.8341644269
 20
-14.9076253314
 10
-6.820630551
 20
-14.9073720564
 10
-6.8070990731
 20
-14.9069150723
 10
-6.7935788758
 20
-14.906237049
 10
-6.7800788419
 20
-14.9053206567
 10
-6.7666078542
 20
-14.9041485653
 10
-6.7531747954
 20
-14.9027034448
 10
-6.7397885484
 20
-14.9009679653
 10
-6.7264579957
 20
-14.8989247968
 10
-6.7131920203
 20
-14.8965566093
 10
-6.6999995048
 20
-14.8938460729
 10
-6.6861248709
 20
-14.8905951016
 10
-6.6723361609
 20
-14.8869790396
 10
-6.6586270742
 20
-14.8830356396
 10
-6.6449913102
 20
-14.8788026546
 10
-6.6314225682
 20
-14.8743178373
 10
-6.6179145476
 20
-14.8696189406
 10
-6.6044609478
 20
-14.8647437173
 10
-6.5910554682
 20
-14.8597299202
 10
-6.577691808
 20
-14.8546153023
 10
-6.5274856278
 20
-14.8350441948
  0
LINE
  5
282
100
AcDbEntity
  8
CURVE
100
AcDbLine
 62
250
  6
CONTINUOUS
 10
-6.9976918234
 20
-14.9007691501
 11
-6.9548908933
 21
-14.9035616247
  0
LWPOLYLINE
  5
283
100
AcDbEntity
  8
CURVE
100
AcDbPolyline
 62
250
  6
CONTINUOUS
 90
39
 70
0
 10
-15.8615383024
 20
-14.0630768117
 10
-15.8744890936
 20
-14.0610898975
 10
-15.8874921341
 20
-14.0594259972
 10
-15.9005385457
 20
-14.0580771421
 10
-15.9136194497
 20
-14.0570353641
 10
-15.926725968
 20
-14.0562926946
 10
-15.939849222
 20
-14.0558411653
 10
-15.9529803333
 20
-14.0556728078
 10
-15.9661104236
 20
-14.0557796537
 10
-15.9792306144
 20
-14.0561537345
 10
-15.9940457191
 20
-14.0568880018
 10
-16.0088349527
 20
-14.0579381933
 10
-16.0235964557
 20
-14.0592887042
 10
-16.0383283684
 20
-14.06092393
 10
-16.0530288314
 20
-14.062828266
 10
-16.0676959851
 20
-14.0649861076
 10
-16.0823279699
 20
-14.0673818501
 10
-16.0969229264
 20
-14.0699998889
 10
-16.1078650934
 20
-14.0721084858
 10
-16.1187789154
 20
-14.0743521944
 10
-16.1296580114
 20
-14.0767493863
 10
-16.1404960005
 20
-14.0793184332
 10
-16.1512865016
 20
-14.082077707
 10
-16.1620231338
 20
-14.0850455793
 10
-16.1726995161
 20
-14.088240422
 10
-16.1833092675
 20
-14.0916806067
 10
-16.1938460069
 20
-14.0953845052
 10
-16.2025008679
 20
-14.0986595991
 10
-16.2110896916
 20
-14.102131335
 10
-16.2196007653
 20
-14.1058033375
 10
-16.2280223763
 20
-14.1096792312
 10
-16.236342812
 20
-14.1137626409
 10
-16.2445503597
 20
-14.1180571913
 10
-16.2526333066
 20
-14.1225665071
 10
-16.2605799402
 20
-14.1272942128
 10
-16.2683785478
 20
-14.1322439334
 10
-16.2760174166
 20
-14.1374192933
 10
-16.283484834
 20
-14.1428239173
 10
-16.2907690874
 20
-14.1484614302
  0
LWPOLYLINE
  5
284
100
AcDbEntity
  8
CURVE
100
AcDbPolyline
 62
250
  6
CONTINUOUS
 90
39
 70
0
 10
-18.4184614731
 20
-14.0607691193
 10
-18.4314108091
 20
-14.0587725198
 10
-18.4444131755
 20
-14.0571021611
 10
-18.4574595151
 20
-14.0557497294
 10
-18.4705407705
 20
-14.0547069112
 10
-18.4836478848
 20
-14.0539653926
 10
-18.4967718005
 20
-14.0535168601
 10
-18.5099034607
 20
-14.053353
 10
-18.5230338079
 20
-14.0534654986
 10
-18.5361537851
 20
-14.0538460421
 10
-18.5509679605
 20
-14.0545880861
 10
-18.5657557996
 20
-14.0556457097
 10
-18.5805158084
 20
-14.0570023696
 10
-18.5952464924
 20
-14.0586415225
 10
-18.6099463575
 20
-14.060546625
 10
-18.6246139095
 20
-14.0627011338
 10
-18.6392476541
 20
-14.0650885054
 10
-18.6538460971
 20
-14.0676921965
 10
-18.6647921084
 20
-14.0697859574
 10
-18.6757103135
 20
-14.0720132086
 10
-18.6865936886
 20
-14.0743946061
 10
-18.69743521
 20
-14.0769508061
 10
-18.7082278538
 20
-14.079702465
 10
-18.7189645963
 20
-14.0826702389
 10
-18.7296384136
 20
-14.085874784
 10
-18.740242282
 20
-14.0893367566
 10
-18.7507691776
 20
-14.0930768128
 10
-18.75925499
 20
-14.0963316622
 10
-18.7676729663
 20
-14.0997870772
 10
-18.7760106648
 20
-14.1034466097
 10
-18.7842556439
 20
-14.1073138114
 10
-18.7923954617
 20
-14.1113922342
 10
-18.8004176766
 20
-14.1156854299
 10
-18.8083098467
 20
-14.1201969504
 10
-18.8160595304
 20
-14.1249303474
 10
-18.8236542859
 20
-14.1298891728
 10
-18.8310816714
 20
-14.1350769785
 10
-18.8383292453
 20
-14.1404973162
 10
-18.8453845657
 20
-14.1461537378
  0
LINE
  5
285
100
AcDbEntity
  8
CURVE
100
AcDbLine
 62
250
  6
CONTINUOUS
 10
-17.0753845008
 20
-13.4469229429
 11
-17.2623075846
 21
-13.4053844799
  0
LINE
  5
286
100
AcDbEntity
  8
CURVE
100
AcDbLine
 62
250
  6
CONTINUOUS
 10
-14.529999792
 20
-14.1669229693
 11
-14.6915382595
 21
-14.1184614291
  0
LWPOLYLINE
  5
287
100
AcDbEntity
  8
CURVE
100
AcDbPolyline
 62
250
  6
CONTINUOUS
 90
10
 70
0
 10
-7.2030764464
 20
-14.8292306859
 10
-7.1802816429
 20
-14.8366147984
 10
-7.1575266635
 20
-14.8441225533
 10
-7.1348123886
 20
-14.8517536775
 10
-7.1121396986
 20
-14.8595078977
 10
-7.089509474
 20
-14.8673849409
 10
-7.0669225952
 20
-14.8753845338
 10
-7.0437984215
 20
-14.8837177322
 10
-7.02072132
 20
-14.8921793539
 10
-6.9976918234
 20
-14.9007691501
  0
LWPOLYLINE
  5
288
100
AcDbEntity
  8
CURVE
100
AcDbPolyline
 62
250
  6
CONTINUOUS
 90
49
 70
0
 10
-14.5692305627
 20
-13.423846019
 10
-14.578603307
 20
-13.4204765976
 10
-14.5881059319
 20
-13.4174627103
 10
-14.5977225078
 20
-13.4147932144
 10
-14.607437105
 20
-13.4124569676
 10
-14.6172337939
 20
-13.4104428272
 10
-14.6270966449
 20
-13.4087396507
 10
-14.6370097282
 20
-13.4073362957
 10
-14.6469571143
 20
-13.4062216196
 10
-14.6569228736
 20
-13.4053844799
 10
-14.6690014319
 20
-13.4047245485
 10
-14.6810804546
 20
-13.4044262279
 10
-14.6931568203
 20
-13.4044601939
 10
-14.7052274075
 20
-13.4047971227
 10
-14.7172890948
 20
-13.40540769
 10
-14.7293387607
 20
-13.4062625719
 10
-14.7413732839
 20
-13.4073324443
 10
-14.7533895428
 20
-13.4085879833
 10
-14.765384416
 20
-13.4099998647
 10
-14.7789367586
 20
-13.4117613676
 10
-14.7924555805
 20
-13.4137095592
 10
-14.8059387811
 20
-13.4158682797
 10
-14.8193842599
 20
-13.4182613696
 10
-14.8327899163
 20
-13.4209126692
 10
-14.8461536498
 20
-13.423846019
 10
-14.8559409465
 20
-13.4261969592
 10
-14.865686872
 20
-13.4287362678
 10
-14.8753738168
 20
-13.4314872088
 10
-14.8849841715
 20
-13.434473046
 10
-14.8945003265
 20
-13.4377170433
 10
-14.9039046724
 20
-13.4412424647
 10
-14.9131795996
 20
-13.4450725741
 10
-14.9223074987
 20
-13.4492306353
 10
-14.9312442934
 20
-13.4537169391
 10
-14.9400176353
 20
-13.4585305497
 10
-14.9486276208
 20
-13.4636498803
 10
-14.9570743465
 20
-13.4690533439
 10
-14.9653579087
 20
-13.4747193536
 10
-14.9734784037
 20
-13.4806263226
 10
-14.9814359281
 20
-13.4867526639
 10
-14.9892305781
 20
-13.4930767908
 10
-14.9982433315
 20
-13.5007862849
 10
-15.007042577
 20
-13.5087226186
 10
-15.0156425873
 20
-13.5168660708
 10
-15.0240576351
 20
-13.5251969204
 10
-15.0323019933
 20
-13.5336954463
 10
-15.0403899346
 20
-13.5423419273
 10
-15.0483357317
 20
-13.5511166423
 10
-15.0561536575
 20
-13.5599998702
  0
LINE
  5
289
100
AcDbEntity
  8
CURVE
100
AcDbLine
 62
250
  6
CONTINUOUS
 10
-10.018461165
 20
-12.6923075306
 11
-10.2146150184
 21
-12.6138459893
  0
LWPOLYLINE
  5
28A
100
AcDbEntity
  8
CURVE
100
AcDbPolyline
 62
250
  6
CONTINUOUS
 90
31
 70
0
 10
-8.077691863
 20
-13.5046152527
 10
-8.0865180781
 20
-13.4986573653
 10
-8.0954331159
 20
-13.4928298635
 10
-8.1044373807
 20
-13.4871380356
 10
-8.113531277
 20
-13.4815871699
 10
-8.1227152091
 20
-13.4761825547
 10
-8.1319895813
 20
-13.4709294783
 10
-8.141354798
 20
-13.4658332291
 10
-8.1508112636
 20
-13.4608990954
 10
-8.1603593824
 20
-13.4561323655
 10
-8.1699995587
 20
-13.4515383277
 10
-8.178523659
 20
-13.4476586886
 10
-8.1871161723
 20
-13.4439215615
 10
-8.1957744956
 20
-13.4403327586
 10
-8.2044960253
 20
-13.4368980917
 10
-8.2132781582
 20
-13.433623373
 10
-8.2221182909
 20
-13.4305144145
 10
-8.2310138202
 20
-13.4275770282
 10
-8.2399621427
 20
-13.4248170261
 10
-8.248960655
 20
-13.4222402203
 10
-8.2580067538
 20
-13.4198524229
 10
-8.2670978359
 20
-13.4176594458
 10
-8.2762312978
 20
-13.4156671011
 10
-8.2854045363
 20
-13.4138812009
 10
-8.2946149479
 20
-13.412307557
 10
-8.3030306127
 20
-13.4110641921
 10
-8.3114705175
 20
-13.4100054072
 10
-8.3199302445
 20
-13.4091350077
 10
-8.3284053759
 20
-13.4084567985
 10
-8.3368914938
 20
-13.407974585
 10
-8.3453841806
 20
-13.4076921723
  0
LINE
  5
28B
100
AcDbEntity
  8
CURVE
100
AcDbLine
 62
250
  6
CONTINUOUS
 10
-7.2492302942
 20
-14.7969229924
 11
-7.2030764464
 21
-14.8292306859
  0
LINE
  5
28C
100
AcDbEntity
  8
CURVE
100
AcDbLine
 62
250
  6
CONTINUOUS
 10
-7.2955739104
 20
-14.7639560044
 11
-7.2492302942
 21
-14.7969229924
  0
LWPOLYLINE
  5
28D
100
AcDbEntity
  8
CURVE
100
AcDbPolyline
 62
250
  6
CONTINUOUS
 90
11
 70
0
 10
-10.3576919467
 20
-12.5030767545
 10
-10.3443291723
 20
-12.5127566671
 10
-10.3310284296
 20
-12.5225219625
 10
-10.3177902142
 20
-12.5323723466
 10
-10.3046150217
 20
-12.5423075251
 10
-10.2893948596
 20
-12.5539508929
 10
-10.2742613867
 20
-12.5657073266
 10
-10.2592156346
 20
-12.5775759395
 10
-10.2442586347
 20
-12.5895558454
 10
-10.2293914188
 20
-12.6016461574
 10
-10.2146150184
 20
-12.6138459893
  0
LWPOLYLINE
  5
28E
100
AcDbEntity
  8
CURVE
100
AcDbPolyline
 62
250
  6
CONTINUOUS
 90
30
 70
0
 10
-13.7846151493
 20
-9.1038458605
 10
-13.7922935061
 20
-9.098251324
 10
-13.8000843438
 20
-9.0928080876
 10
-13.8079837329
 20
-9.0875170087
 10
-13.8159877439
 20
-9.0823789448
 10
-13.8240924472
 20
-9.0773947531
 10
-13.8322939133
 20
-9.0725652912
 10
-13.8405882127
 20
-9.0678914163
 10
-13.8489714158
 20
-9.063373986
 10
-13.8574395932
 20
-9.0590138574
 10
-13.8659888153
 20
-9.0548118882
 10
-13.8746151526
 20
-9.0507689355
 10
-13.8838215349
 20
-9.0466654568
 10
-13.8931058349
 20
-9.0427413637
 10
-13.9024640484
 20
-9.0389970843
 10
-13.9118921715
 20
-9.0354330462
 10
-13.9213862001
 20
-9.0320496775
 10
-13.9309421301
 20
-9.0288474058
 10
-13.9405559576
 20
-9.0258266592
 10
-13.9502236785
 20
-9.0229878655
 10
-13.9599412886
 20
-9.0203314525
 10
-13.9697047841
 20
-9.017857848
 10
-13.9795101608
 20
-9.01556748
 10
-13.9893534147
 20
-9.0134607764
 10
-13.9992305418
 20
-9.0115381649
 10
-14.0093334616
 20
-9.009767663
 10
-14.0194646427
 20
-9.0081895681
 10
-14.029621287
 20
-9.0068044165
 10
-14.0398005969
 20
-9.0056127443
 10
-14.0499997744
 20
-9.0046150877
  0
LWPOLYLINE
  5
28F
100
AcDbEntity
  8
CURVE
100
AcDbPolyline
 62
250
  6
CONTINUOUS
 90
3
 70
0
 10
-7.3646149138
 20
-14.7138460663
 10
-7.3416650997
 20
-14.7306368641
 10
-7.2955739104
 20
-14.7639560044
  0
LINE
  5
290
100
AcDbEntity
  8
CURVE
100
AcDbLine
 62
250
  6
CONTINUOUS
 10
-13.7846151493
 20
-9.1038458605
 11
-13.7246151471
 21
-9.1684612475
  0
LWPOLYLINE
  5
291
100
AcDbEntity
  8
CURVE
100
AcDbPolyline
 62
250
  6
CONTINUOUS
 90
18
 70
0
 10
-10.4753842587
 20
-12.341538287
 10
-10.4674780816
 20
-12.3504938744
 10
-10.4596776183
 20
-12.3595429697
 10
-10.4519841924
 20
-12.3686845046
 10
-10.4443991274
 20
-12.3779174108
 10
-10.436923747
 20
-12.3872406199
 10
-10.4295593745
 20
-12.3966530638
 10
-10.4223073337
 20
-12.406153674
 10
-10.4153449869
 20
-12.4155018272
 10
-10.4084915912
 20
-12.4249310716
 10
-10.4017480239
 20
-12.4344396775
 10
-10.3951151624
 20
-12.4440259154
 10
-10.388593884
 20
-12.4536880555
 10
-10.3821850661
 20
-12.4634243684
 10
-10.375889586
 20
-12.4732331243
 10
-10.3697083212
 20
-12.4831125937
 10
-10.363642149
 20
-12.493061047
 10
-10.3576919467
 20
-12.5030767545
  0
LINE
  5
292
100
AcDbEntity
  8
CURVE
100
AcDbLine
 62
250
  6
CONTINUOUS
 10
-14.1099997766
 20
-9.7869228087
 11
-13.6853843764
 21
-10.4976920655
  0
LINE
  5
293
100
AcDbEntity
  8
CURVE
100
AcDbLine
 62
250
  6
CONTINUOUS
 10
-12.3884612519
 20
-13.4076921723
 11
-11.7723073832
 21
-14.8799999186
  0
LINE
  5
294
100
AcDbEntity
  8
CURVE
100
AcDbLine
 62
250
  6
CONTINUOUS
 10
-12.5961535672
 20
-11.2130767071
 11
-12.012307392
 21
-12.7130767622
  0
LWPOLYLINE
  5
295
100
AcDbEntity
  8
CURVE
100
AcDbPolyline
 62
250
  6
CONTINUOUS
 90
23
 70
0
 10
-15.5384613675
 20
-14.4623075956
 10
-15.5396295151
 20
-14.4527496465
 10
-15.5409412382
 20
-14.4432073163
 10
-15.542396676
 20
-14.4336832247
 10
-15.5439959675
 20
-14.4241799912
 10
-15.5457392519
 20
-14.4147002355
 10
-15.5476266683
 20
-14.4052465774
 10
-15.5496583558
 20
-14.3958216364
 10
-15.5518344535
 20
-14.3864280323
 10
-15.5541551005
 20
-14.3770683847
 10
-15.556620436
 20
-14.3677453134
 10
-15.559230599
 20
-14.3584614379
 10
-15.5620642757
 20
-14.3489623984
 10
-15.5650494587
 20
-14.3395099061
 10
-15.5681844965
 20
-14.33010633
 10
-15.5714677373
 20
-14.3207540389
 10
-15.5748975296
 20
-14.3114554019
 10
-15.5784722216
 20
-14.3022127878
 10
-15.5821901617
 20
-14.2930285655
 10
-15.5860496982
 20
-14.2839051039
 10
-15.5900491795
 20
-14.2748447719
 10
-15.5941869539
 20
-14.2658499385
 10
-15.5984613697
 20
-14.2569229726
  0
LWPOLYLINE
  5
296
100
AcDbEntity
  8
CURVE
100
AcDbPolyline
 62
250
  6
CONTINUOUS
 90
23
 70
0
 10
-13.6738459145
 20
-9.3692304857
 10
-13.6745250475
 20
-9.3599349852
 10
-13.6753534546
 20
-9.35064967
 10
-13.6763317595
 20
-9.3413771103
 10
-13.6774605861
 20
-9.3321198766
 10
-13.6787405582
 20
-9.3228805392
 10
-13.6801722994
 20
-9.3136616685
 10
-13.6817564337
 20
-9.3044658347
 10
-13.6834935848
 20
-9.2952956083
 10
-13.6853843764
 20
-9.2861535595
 10
-13.6874799983
 20
-9.2768240899
 10
-13.689735647
 20
-9.2675298175
 10
-13.6921495938
 20
-9.2582736982
 10
-13.69472011
 20
-9.249058688
 10
-13.6974454669
 20
-9.239887743
 10
-13.7003239359
 20
-9.2307638192
 10
-13.7033537882
 20
-9.2216898724
 10
-13.7065332953
 20
-9.2126688588
 10
-13.7098607284
 20
-9.2037037343
 10
-13.7133343587
 20
-9.194797455
 10
-13.7169524578
 20
-9.1859529767
 10
-13.7207132968
 20
-9.1771732556
 10
-13.7246151471
 20
-9.1684612475
  0
LINE
  5
297
100
AcDbEntity
  8
CURVE
100
AcDbLine
 62
250
  6
CONTINUOUS
 10
-14.670769028
 20
-17.1
 11
-14.670769028
 21
-16.4423076682
  0
LINE
  5
298
100
AcDbEntity
  8
CURVE
100
AcDbLine
 62
250
  6
CONTINUOUS
 10
-14.5461536388
 20
-10.5046151427
 11
-14.5461536388
 21
-9.0046150877
  0
LINE
  5
299
100
AcDbEntity
  8
CURVE
100
AcDbLine
 62
250
  6
CONTINUOUS
 10
-14.05
 20
10.5000000358
 11
-14.05
 21
10.8000000179
  0
LWPOLYLINE
  5
29A
100
AcDbEntity
  8
CURVE
100
AcDbPolyline
 62
250
  6
CONTINUOUS
 90
34
 70
0
 10
-16.417692169
 20
-14.3469229759
 10
-16.4200376727
 20
-14.3590490683
 10
-16.4221430443
 20
-14.3712296276
 10
-16.4240048341
 20
-14.3834582192
 10
-16.4256195931
 20
-14.3957284085
 10
-16.4269838717
 20
-14.4080337609
 10
-16.4280942208
 20
-14.4203678418
 10
-16.4289471909
 20
-14.4327242167
 10
-16.4295393328
 20
-14.4450964509
 10
-16.429867197
 20
-14.4574781098
 10
-16.4299273344
 20
-14.4698627589
 10
-16.4297162954
 20
-14.4822439635
 10
-16.4292306309
 20
-14.4946152891
 10
-16.4285309348
 20
-14.5060823757
 10
-16.4275875612
 20
-14.5175295828
 10
-16.4263963512
 20
-14.5289510822
 10
-16.4249531455
 20
-14.5403410461
 10
-16.423253785
 20
-14.5516936464
 10
-16.4212941107
 20
-14.5630030552
 10
-16.4190699633
 20
-14.5742634446
 10
-16.4165771838
 20
-14.5854689865
 10
-16.413811613
 20
-14.5966138531
 10
-16.4107690918
 20
-14.6076922163
 10
-16.4078680782
 20
-14.6173541917
 10
-16.4047504485
 20
-14.626952829
 10
-16.4014160745
 20
-14.6364804937
 10
-16.3978648285
 20
-14.6459295517
 10
-16.3940965823
 20
-14.6552923684
 10
-16.390111208
 20
-14.6645613097
 10
-16.3859085777
 20
-14.6737287411
 10
-16.3814885633
 20
-14.6827870283
 10
-16.376851037
 20
-14.691728537
 10
-16.3719958706
 20
-14.7005456329
 10
-16.3669229363
 20
-14.7092306815
  0
LWPOLYLINE
  5
29B
100
AcDbEntity
  8
CURVE
100
AcDbPolyline
 62
250
  6
CONTINUOUS
 90
24
 70
0
 10
-16.8446152615
 20
-14.5546152913
 10
-16.8381968154
 20
-14.5280419913
 10
-16.8322206375
 20
-14.5013624186
 10
-16.8266844519
 20
-14.4745848802
 10
-16.8215859823
 20
-14.4477176825
 10
-16.8169229528
 20
-14.4207691325
 10
-16.8124739696
 20
-14.3922665363
 10
-16.8085036632
 20
-14.363690907
 10
-16.8050088379
 20
-14.3350504708
 10
-16.801986298
 20
-14.3063534541
 10
-16.7994328477
 20
-14.2776080832
 10
-16.7973452914
 20
-14.2488225845
 10
-16.7957204333
 20
-14.2200051842
 10
-16.7945550777
 20
-14.1911641088
 10
-16.7938460289
 20
-14.1623075846
 10
-16.7935899377
 20
-14.1332605252
 10
-16.7937896543
 20
-14.1042137981
 10
-16.7944421062
 20
-14.0751750502
 10
-16.7955442205
 20
-14.0461519282
 10
-16.7970929245
 20
-14.0171520788
 10
-16.7990851456
 20
-13.988183149
 10
-16.8015178108
 20
-13.9592527854
 10
-16.8043878477
 20
-13.9303686349
 10
-16.8076921833
 20
-13.9015383442
  0
LWPOLYLINE
  5
29C
100
AcDbEntity
  8
CURVE
100
AcDbPolyline
 62
250
  6
CONTINUOUS
 90
39
 70
0
 10
-17.6730768304
 20
-13.7538460311
 10
-17.6796290172
 20
-13.7758505965
 10
-17.6856022688
 20
-13.7980287133
 10
-17.69102252
 20
-13.8203588541
 10
-17.6959157055
 20
-13.8428194918
 10
-17.7003077602
 20
-13.8653890991
 10
-17.7042246189
 20
-13.8880461489
 10
-17.7076922163
 20
-13.9107691138
 10
-17.7114026243
 20
-13.9389603618
 10
-17.7145232674
 20
-13.9672100077
 10
-17.7171130005
 20
-13.9955084385
 10
-17.7192306782
 20
-14.023846041
 10
-17.7212277437
 20
-14.0581180615
 10
-17.7226326248
 20
-14.0924240674
 10
-17.7234561187
 20
-14.1267549094
 10
-17.7237090224
 20
-14.1611014382
 10
-17.7234021331
 20
-14.1954545046
 10
-17.7225462479
 20
-14.2298049591
 10
-17.7211521639
 20
-14.2641436526
 10
-17.7192306782
 20
-14.2984614357
 10
-17.717769053
 20
-14.3197188368
 10
-17.7160489475
 20
-14.340951885
 10
-17.7140104018
 20
-14.3621477788
 10
-17.7115934559
 20
-14.3832937165
 10
-17.7087381499
 20
-14.4043768965
 10
-17.7053845239
 20
-14.4253845173
 10
-17.70089666
 20
-14.4492220951
 10
-17.6957087166
 20
-14.4729296077
 10
-17.6898459586
 20
-14.4964917924
 10
-17.6833336508
 20
-14.5198933866
 10
-17.6761970582
 20
-14.5431191278
 10
-17.6684614456
 20
-14.5661537532
 10
-17.6596477755
 20
-14.5903125346
 10
-17.6502153529
 20
-14.6142327734
 10
-17.6401882732
 20
-14.6379071577
 10
-17.6295906316
 20
-14.6613283756
 10
-17.6184465235
 20
-14.6844891154
 10
-17.6067800442
 20
-14.7073820652
 10
-17.5946152891
 20
-14.7299999131
  0
LINE
  5
29D
100
AcDbEntity
  8
CURVE
100
AcDbLine
 62
250
  6
CONTINUOUS
 10
-19.664615365
 20
-10.5046151427
 11
-19.0761538049
 21
-9.0046150877
  0
LINE
  5
29E
100
AcDbEntity
  8
CURVE
100
AcDbLine
 62
250
  6
CONTINUOUS
 10
-19.6715384422
 20
-12.7130767622
 11
-19.0807691897
 21
-11.2130767071
  0
LINE
  5
29F
100
AcDbEntity
  8
CURVE
100
AcDbLine
 62
250
  6
CONTINUOUS
 10
-10.7500000715
 20
9.6000000268
 11
-10.9
 21
9.3000000134
  0
LINE
  5
2A0
100
AcDbEntity
  8
CURVE
100
AcDbLine
 62
250
  6
CONTINUOUS
 10
-8.3500002146
 20
11.1
 11
-8.6500000715
 21
10.6499999642
  0
LINE
  5
2A1
100
AcDbEntity
  8
CURVE
100
AcDbLine
 62
250
  6
CONTINUOUS
 10
-10.9
 20
9.3000000134
 11
-11.2000001073
 21
9.0
  0
LINE
  5
2A2
100
AcDbEntity
  8
RACCORDO
100
AcDbLine
 62
7
  6
CONTINUOUS
 10
-13.0100505063
 20
5.5355339059
 11
-17.2727922061
 21
1.2727922061
  0
LWPOLYLINE
  5
2A3
100
AcDbEntity
  8
CURVE
100
AcDbPolyline
 62
250
  6
CONTINUOUS
 90
43
 70
0
 10
-5.2784609911
 20
-14.9076922273
 10
-5.2915475531
 20
-14.9090855143
 10
-5.3046735312
 20
-14.910187693
 10
-5.3178297514
 20
-14.9109918218
 10
-5.3310070397
 20
-14.9114909591
 10
-5.3441962221
 20
-14.9116781631
 10
-5.3573881248
 20
-14.9115464922
 10
-5.3705735736
 20
-14.9110890048
 10
-5.3837433946
 20
-14.9102987593
 10
-5.3968884139
 20
-14.909168814
 10
-5.4099994575
 20
-14.9076922273
 10
-5.4214716616
 20
-14.9061049199
 10
-5.432900541
 20
-14.9042399247
 10
-5.4442760145
 20
-14.9020919647
 10
-5.4555880013
 20
-14.8996557627
 10
-5.4668264203
 20
-14.8969260419
 10
-5.4779811905
 20
-14.8938975252
 10
-5.489042231
 20
-14.8905649355
 10
-5.4999994608
 20
-14.8869229957
 10
-5.5110322368
 20
-14.8829000981
 10
-5.5219521739
 20
-14.8785762171
 10
-5.5327643059
 20
-14.8739759946
 10
-5.5434736668
 20
-14.8691240724
 10
-5.5540852907
 20
-14.8640450926
 10
-5.5646042114
 20
-14.8587636968
 10
-5.5750354629
 20
-14.853304527
 10
-5.5853840793
 20
-14.8476922251
 10
-5.5987205646
 20
-14.8401956068
 10
-5.611915139
 20
-14.8324700835
 10
-5.6249570807
 20
-14.8245039703
 10
-5.6378356677
 20
-14.816285582
 10
-5.6505401783
 20
-14.8078032335
 10
-5.6630598905
 20
-14.7990452396
 10
-5.6753840826
 20
-14.7899999153
 10
-5.6856206849
 20
-14.7821377055
 10
-5.695698322
 20
-14.774062333
 10
-5.7056048266
 20
-14.765773467
 10
-5.7153280313
 20
-14.7572707764
 10
-5.7248557689
 20
-14.7485539304
 10
-5.7341758719
 20
-14.739622598
 10
-5.7432761732
 20
-14.7304764485
 10
-5.7521445054
 20
-14.7211151507
 10
-5.7607687011
 20
-14.7115383739
  0
LINE
  5
2A4
100
AcDbEntity
  8
CURVE
100
AcDbLine
 62
250
  6
CONTINUOUS
 10
-1.830768557
 20
-13.4261537114
 11
-1.648460858
 21
-13.4076921723
  0
LWPOLYLINE
  5
2A5
100
AcDbEntity
  8
CURVE
100
AcDbPolyline
 62
250
  6
CONTINUOUS
 90
11
 70
0
 10
-1.701537783
 20
-14.9076922273
 10
-1.6753686364
 20
-14.9055653784
 10
-1.649214501
 20
-14.9032577018
 10
-1.6230762417
 20
-14.9007691501
 10
-1.5986258303
 20
-14.8982759565
 10
-1.5741914365
 20
-14.8956244651
 10
-1.549774411
 20
-14.8928148865
 10
-1.5253761045
 20
-14.8898474317
 10
-1.5009978674
 20
-14.8867223116
 10
-1.4766410506
 20
-14.8834397369
 10
-1.4523070046
 20
-14.8799999186
  0
LWPOLYLINE
  5
2A6
100
AcDbEntity
  8
CURVE
100
AcDbPolyline
 62
250
  6
CONTINUOUS
 90
6
 70
0
 10
-8.8023072742
 20
-14.1369229682
 10
-8.7804553644
 20
-14.136499772
 10
-8.758595738
 20
-14.1363556784
 10
-8.736729856
 20
-14.1364454468
 10
-8.7148591793
 20
-14.1367238366
 10
-8.6929851688
 20
-14.1371456071
  0
LINE
  5
2A7
100
AcDbEntity
  8
CURVE
100
AcDbLine
 62
250
  6
CONTINUOUS
 10
8.307638
 20
-15.080988
 11
12.492362
 21
-15.080988
  0
LINE
  5
2A8
100
AcDbEntity
  8
CURVE
100
AcDbLine
 62
250
  6
CONTINUOUS
 10
2.7315393027
 20
-14.9076922273
 11
2.7707700733
 21
-14.9076922273
  0
LINE
  5
2A9
100
AcDbEntity
  8
CURVE
100
AcDbLine
 62
250
  6
CONTINUOUS
 10
-10.4753842587
 20
-14.4715383651
 11
-9.5061534539
 21
-14.4715383651
  0
LINE
  5
2AA
100
AcDbEntity
  8
CURVE
100
AcDbLine
 62
250
  6
CONTINUOUS
 10
-0.6884608228
 20
-14.4715383651
 11
0.2784622896
 21
-14.4715383651
  0
LINE
  5
2AB
100
AcDbEntity
  8
CURVE
100
AcDbLine
 62
250
  6
CONTINUOUS
 10
-14.6915382595
 20
-14.1184614291
 11
-14.7815382628
 21
-14.1184614291
  0
LINE
  5
2AC
100
AcDbEntity
  8
CURVE
100
AcDbLine
 62
250
  6
CONTINUOUS
 10
-19.8030769085
 20
-14.1161537367
 11
-19.8953846042
 21
-14.1161537367
  0
LINE
  5
2AD
100
AcDbEntity
  8
CURVE
100
AcDbLine
 62
250
  6
CONTINUOUS
 10
9.799503
 20
-13.466964
 11
9.681883
 21
-13.466964
  0
LINE
  5
2AE
100
AcDbEntity
  8
CURVE
100
AcDbLine
 62
250
  6
CONTINUOUS
 10
-12.4923074096
 20
-13.4076921723
 11
-12.3884612519
 21
-13.4076921723
  0
LINE
  5
2AF
100
AcDbEntity
  8
CURVE
100
AcDbLine
 62
250
  6
CONTINUOUS
 10
-11.1492304373
 20
-13.4076921723
 11
-11.0384612024
 21
-13.4076921723
  0
LINE
  5
2B0
100
AcDbEntity
  8
CURVE
100
AcDbLine
 62
250
  6
CONTINUOUS
 10
-10.0230765498
 20
-13.4076921723
 11
-9.9584611628
 21
-13.4076921723
  0
LINE
  5
2B1
100
AcDbEntity
  8
CURVE
100
AcDbLine
 62
250
  6
CONTINUOUS
 10
-8.8415380449
 20
-13.4076921723
 11
-8.3453841806
 21
-13.4076921723
  0
LINE
  5
2B2
100
AcDbEntity
  8
CURVE
100
AcDbLine
 62
250
  6
CONTINUOUS
 10
-4.4684609614
 20
-13.4076921723
 11
-3.1946147609
 21
-13.4076921723
  0
LINE
  5
2B3
100
AcDbEntity
  8
CURVE
100
AcDbLine
 62
250
  6
CONTINUOUS
 10
-0.2384608063
 20
-13.4076921723
 11
-0.1715377269
 21
-13.4076921723
  0
LINE
  5
2B4
100
AcDbEntity
  8
CURVE
100
AcDbLine
 62
250
  6
CONTINUOUS
 10
9.625174
 20
-13.270516
 11
10.971041
 21
-13.270516
  0
LINE
  5
2B5
100
AcDbEntity
  8
CURVE
100
AcDbLine
 62
250
  6
CONTINUOUS
 10
-19.7107692128
 20
-12.7130767622
 11
-19.6715384422
 21
-12.7130767622
  0
LINE
  5
2B6
100
AcDbEntity
  8
CURVE
100
AcDbLine
 62
250
  6
CONTINUOUS
 10
-16.5515383277
 20
-12.7130767622
 11
-15.6930767578
 21
-12.7130767622
  0
LINE
  5
2B7
100
AcDbEntity
  8
CURVE
100
AcDbLine
 62
250
  6
CONTINUOUS
 10
-15.2892305891
 20
-12.7130767622
 11
-14.3199997843
 21
-12.7130767622
  0
LINE
  5
2B8
100
AcDbEntity
  8
CURVE
100
AcDbLine
 62
250
  6
CONTINUOUS
 10
-12.012307392
 20
-12.7130767622
 11
-11.9730766213
 21
-12.7130767622
  0
LINE
  5
2B9
100
AcDbEntity
  8
CURVE
100
AcDbLine
 62
250
  6
CONTINUOUS
 10
-9.0192303591
 20
-12.7130767622
 11
-8.0499995543
 21
-12.7130767622
  0
LINE
  5
2BA
100
AcDbEntity
  8
CURVE
100
AcDbLine
 62
250
  6
CONTINUOUS
 10
-6.536153345
 20
-12.7130767622
 11
-6.4576918036
 21
-12.7130767622
  0
LINE
  5
2BB
100
AcDbEntity
  8
CURVE
100
AcDbLine
 62
250
  6
CONTINUOUS
 10
-4.9161532855
 20
-12.7130767622
 11
-6.0515379426
 21
-12.7130767622
  0
LWPOLYLINE
  5
2BC
100
AcDbEntity
  8
CURVE
100
AcDbPolyline
 62
250
  6
CONTINUOUS
 90
17
 70
0
 10
-8.5836162438
 20
-14.1398217496
 10
-8.561752911
 20
-14.1401537517
 10
-8.5398964711
 20
-14.1403124503
 10
-8.5180483851
 20
-14.1402526047
 10
-8.4962101139
 20
-14.1399289743
 10
-8.4743831185
 20
-14.1392963185
 10
-8.45256886
 20
-14.1383093967
 10
-8.4307687991
 20
-14.1369229682
 10
-8.4145752365
 20
-14.1356067142
 10
-8.3984010214
 20
-14.1340263498
 10
-8.3822568483
 20
-14.1321635253
 10
-8.3661534121
 20
-14.1299998911
 10
-8.3495299332
 20
-14.1274361677
 10
-8.3329525388
 20
-14.1245889303
 10
-8.3164121705
 20
-14.1215168544
 10
-8.2998997699
 20
-14.1182786157
 10
-8.2490729042
 20
-14.1078752794
  0
LWPOLYLINE
  5
2BD
100
AcDbEntity
  8
CURVE
100
AcDbPolyline
 62
250
  6
CONTINUOUS
 90
3
 70
0
 10
-8.6929851688
 20
-14.1371456071
 10
-8.6273577445
 20
-14.1388187971
 10
-8.5836162438
 20
-14.1398217496
  0
LINE
  5
2BE
100
AcDbEntity
  8
CURVE
100
AcDbLine
 62
250
  6
CONTINUOUS
 10
-6.6607687342
 20
-13.4492306353
 11
-6.8546148951
 21
-13.423846019
  0
LINE
  5
2BF
100
AcDbEntity
  8
CURVE
100
AcDbLine
 62
250
  6
CONTINUOUS
 10
-1.4592300818
 20
-13.4330767886
 11
-1.648460858
 21
-13.4076921723
  0
LINE
  5
2C0
100
AcDbEntity
  8
CURVE
100
AcDbLine
 62
250
  6
CONTINUOUS
 10
-1.701537783
 20
-14.9076922273
 11
-1.8446147113
 21
-14.8869229957
  0
LINE
  5
2C1
100
AcDbEntity
  8
CURVE
100
AcDbLine
 62
250
  6
CONTINUOUS
 10
-9.8753842367
 20
-12.7130767622
 11
-10.018461165
 21
-12.6923075306
  0
LWPOLYLINE
  5
2C2
100
AcDbEntity
  8
CURVE
100
AcDbPolyline
 62
250
  6
CONTINUOUS
 90
26
 70
0
 10
-5.1169225237
 20
-13.4261537114
 10
-5.1289903145
 20
-13.4234273035
 10
-5.1411044237
 20
-13.4208911479
 10
-5.1532610635
 20
-13.4185472546
 10
-5.165456446
 20
-13.4163976334
 10
-5.1776867835
 20
-13.4144442941
 10
-5.1899482881
 20
-13.4126892466
 10
-5.2022371719
 20
-13.4111345009
 10
-5.2145496471
 20
-13.4097820666
 10
-5.2268819259
 20
-13.4086339538
 10
-5.2392302205
 20
-13.4076921723
 10
-5.251336972
 20
-13.406971698
 10
-5.2634523664
 20
-13.4064530902
 10
-5.2755733157
 20
-13.4061383404
 10
-5.2876967316
 20
-13.4060294405
 10
-5.2998195263
 20
-13.4061283821
 10
-5.3119386114
 20
-13.4064371568
 10
-5.324050899
 20
-13.4069577563
 10
-5.336153301
 20
-13.4076921723
 10
-5.3484351084
 20
-13.4086592396
 10
-5.3606980459
 20
-13.4098506857
 10
-5.3729366344
 20
-13.4112681401
 10
-5.385145395
 20
-13.4129132326
 10
-5.3973188487
 20
-13.4147875927
 10
-5.4094515165
 20
-13.41689285
 10
-5.4215379195
 20
-13.4192306342
  0
LWPOLYLINE
  5
2C3
100
AcDbEntity
  8
CURVE
100
AcDbPolyline
 62
250
  6
CONTINUOUS
 90
11
 70
0
 10
-11.2750397575
 20
-9.7355359083
 10
-11.2108610665
 20
-9.7559541233
 10
-11.1948989435
 20
-9.7612103197
 10
-11.179023405
 20
-9.7666526546
 10
-11.1632612334
 20
-9.7723438687
 10
-11.1476392111
 20
-9.7783467028
 10
-11.1321841205
 20
-9.7847238974
 10
-11.1169227438
 20
-9.7915381935
 10
-11.1029158807
 20
-9.7982972488
 10
-11.0890514518
 20
-9.8053875848
 10
-11.0752811983
 20
-9.8127082017
  0
LWPOLYLINE
  5
2C4
100
AcDbEntity
  8
CURVE
100
AcDbPolyline
 62
250
  6
CONTINUOUS
 90
13
 70
0
 10
-5.3580873512
 20
-14.1362150262
 10
-5.2939778474
 20
-14.1567653448
 10
-5.2780308001
 20
-14.1620541203
 10
-5.2621647608
 20
-14.1675194707
 10
-5.2464041678
 20
-14.1732194441
 10
-5.2307734594
 20
-14.1792120889
 10
-5.215297074
 20
-14.1855554533
 10
-5.1999994498
 20
-14.1923075857
 10
-5.1859453006
 20
-14.1989828377
 10
-5.1720281165
 20
-14.2059783105
 10
-5.1582091283
 20
-14.213210506
 10
-5.1444495673
 20
-14.2205959263
 10
-5.1169536507
 20
-14.2354924492
  0
LWPOLYLINE
  5
2C5
100
AcDbEntity
  8
CURVE
100
AcDbPolyline
 62
250
  6
CONTINUOUS
 90
19
 70
0
 10
-9.4646149908
 20
-11.3215382496
 10
-9.4739254996
 20
-11.3180524751
 10
-9.4831968807
 20
-11.3144636575
 10
-9.4924283922
 20
-11.3107715732
 10
-9.5016192922
 20
-11.3069759987
 10
-9.5107688387
 20
-11.3030767104
 10
-9.5205145985
 20
-11.2987884721
 10
-9.5302104184
 20
-11.2943823236
 10
-9.5398545787
 20
-11.2898594144
 10
-9.5494453594
 20
-11.2852208937
 10
-9.5589810408
 20
-11.2804679107
 10
-9.568459903
 20
-11.2756016149
 10
-9.5778802263
 20
-11.2706231554
 10
-9.5872402906
 20
-11.2655336816
 10
-9.5965383763
 20
-11.2603343428
 10
-9.6057727635
 20
-11.2550262883
 10
-9.6149417323
 20
-11.2496106674
 10
-9.6240435629
 20
-11.2440886293
 10
-9.6330765355
 20
-11.2384613235
  0
LWPOLYLINE
  5
2C6
100
AcDbEntity
  8
CURVE
100
AcDbPolyline
 62
250
  6
CONTINUOUS
 90
19
 70
0
 10
-1.2907685372
 20
-13.5161537147
 10
-1.3000790459
 20
-13.5126679403
 10
-1.309350427
 20
-13.5090791226
 10
-1.3185819385
 20
-13.5053870383
 10
-1.3277728385
 20
-13.5015914638
 10
-1.336922385
 20
-13.4976921756
 10
-1.3466681448
 20
-13.4934039372
 10
-1.3563639647
 20
-13.4889977888
 10
-1.366008125
 20
-13.4844748795
 10
-1.3755989057
 20
-13.4798363588
 10
-1.3851345872
 20
-13.4750833758
 10
-1.3946134494
 20
-13.47021708
 10
-1.4040337726
 20
-13.4652386205
 10
-1.413393837
 20
-13.4601491467
 10
-1.4226919226
 20
-13.454949808
 10
-1.4319263098
 20
-13.4496417535
 10
-1.4410952786
 20
-13.4442261325
 10
-1.4501971092
 20
-13.4387040945
 10
-1.4592300818
 20
-13.4330767886
  0
LINE
  5
2C7
100
AcDbEntity
  8
CURVE
100
AcDbLine
 62
250
  6
CONTINUOUS
 10
-6.4992302667
 20
-13.5138460223
 11
-6.6607687342
 21
-13.4492306353
  0
LINE
  5
2C8
100
AcDbEntity
  8
CURVE
100
AcDbLine
 62
250
  6
CONTINUOUS
 10
-1.8446147113
 20
-14.8869229957
 11
-2.0407685647
 21
-14.8084614544
  0
LWPOLYLINE
  5
2C9
100
AcDbEntity
  8
CURVE
100
AcDbPolyline
 62
250
  6
CONTINUOUS
 90
9
 70
0
 10
-5.1169536507
 20
-14.2354924492
 10
-5.1031397572
 20
-14.2428365559
 10
-5.089230215
 20
-14.2499998955
 10
-5.0787060076
 20
-14.2552066018
 10
-5.0680965324
 20
-14.2602268821
 10
-5.0573922331
 20
-14.2650231595
 10
-5.0465835534
 20
-14.2695578569
 10
-5.0356609371
 20
-14.2737933975
 10
-5.024614828
 20
-14.2776922042
  0
LWPOLYLINE
  5
2CA
100
AcDbEntity
  8
CURVE
100
AcDbPolyline
 62
250
  6
CONTINUOUS
 90
11
 70
0
 10
-11.0752811983
 20
-9.8127082017
 10
-11.047830183
 20
-9.8276362786
 10
-11.0340529038
 20
-9.8350417387
 10
-11.0201767653
 20
-9.8422734803
 10
-11.0061535089
 20
-9.8492305033
 10
-10.9953116296
 20
-9.8542979544
 10
-10.9843510821
 20
-9.8590966148
 10
-10.9732672774
 20
-9.863577073
 10
-10.9620556265
 20
-9.8676899174
 10
-10.9507115402
 20
-9.8713857368
 10
-10.9392304295
 20
-9.8746151196
  0
LWPOLYLINE
  5
2CB
100
AcDbEntity
  8
CURVE
100
AcDbPolyline
 62
250
  6
CONTINUOUS
 90
16
 70
0
 10
-9.3907688343
 20
-9.1407689388
 10
-9.3976424683
 20
-9.1361924982
 10
-9.4044669031
 20
-9.1315406711
 10
-9.411241049
 20
-9.1268141207
 10
-9.4179638164
 20
-9.1220135106
 10
-9.4246341156
 20
-9.1171395041
 10
-9.4312508569
 20
-9.1121927648
 10
-9.4378129506
 20
-9.1071739559
 10
-9.444319307
 20
-9.102083741
 10
-9.4507688365
 20
-9.0969227834
 10
-9.4562621874
 20
-9.0924340836
 10
-9.4617124835
 20
-9.0878941248
 10
-9.4671193953
 20
-9.0833033457
 10
-9.4724825932
 20
-9.0786621852
 10
-9.477801748
 20
-9.0739710819
 10
-9.48307653
 20
-9.0692304747
  0
LWPOLYLINE
  5
2CC
100
AcDbEntity
  8
CURVE
100
AcDbPolyline
 62
250
  6
CONTINUOUS
 90
11
 70
0
 10
-2.183845493
 20
-14.6976922196
 10
-2.1704827186
 20
-14.7073721322
 10
-2.157181976
 20
-14.7171374276
 10
-2.1439437606
 20
-14.7269878117
 10
-2.130768568
 20
-14.7369229902
 10
-2.115548406
 20
-14.748566358
 10
-2.1004149331
 20
-14.7603227917
 10
-2.0853691809
 20
-14.7721914047
 10
-2.0704121811
 20
-14.7841713105
 10
-2.0555449651
 20
-14.7962616226
 10
-2.0407685647
 20
-14.8084614544
  0
LWPOLYLINE
  5
2CD
100
AcDbEntity
  8
CURVE
100
AcDbPolyline
 62
250
  6
CONTINUOUS
 90
18
 70
0
 10
-11.5576919907
 20
-9.5838458782
 10
-11.5409622187
 20
-9.5965726813
 10
-11.5240094234
 20
-9.6090094306
 10
-11.506827496
 20
-9.6211325486
 10
-11.4894103277
 20
-9.6329184582
 10
-11.4717518096
 20
-9.6443435819
 10
-11.453845833
 20
-9.6553843423
 10
-11.437937135
 20
-9.6647299778
 10
-11.4218347305
 20
-9.6737415891
 10
-11.4055398796
 20
-9.6823988155
 10
-11.3890538424
 20
-9.6906812959
 10
-11.3723778789
 20
-9.6985686694
 10
-11.3555132493
 20
-9.7060405751
 10
-11.3384612134
 20
-9.7130766521
 10
-11.3227705784
 20
-9.7191024063
 10
-11.3069522692
 20
-9.7248123732
 10
-11.2910330681
 20
-9.7302692936
 10
-11.2750397575
 20
-9.7355359083
  0
LWPOLYLINE
  5
2CE
100
AcDbEntity
  8
CURVE
100
AcDbPolyline
 62
250
  6
CONTINUOUS
 90
18
 70
0
 10
-5.6430763891
 20
-13.9846152703
 10
-5.6264523729
 20
-13.9974811834
 10
-5.6095494652
 20
-14.0099903928
 10
-5.5923717316
 20
-14.0221275755
 10
-5.5749232377
 20
-14.0338774086
 10
-5.5572080491
 20
-14.0452245692
 10
-5.5392302315
 20
-14.0561537345
 10
-5.5229957389
 20
-14.0655260069
 10
-5.5065606386
 20
-14.0745419999
 10
-5.4899295562
 20
-14.0831893785
 10
-5.4731071174
 20
-14.0914558073
 10
-5.4560979479
 20
-14.0993289513
 10
-5.4389066734
 20
-14.1067964754
 10
-5.4215379195
 20
-14.1138460443
 10
-5.4058225866
 20
-14.1198119584
 10
-5.3899927554
 20
-14.1254900612
 10
-5.3740728642
 20
-14.130938401
 10
-5.3580873512
 20
-14.1362150262
  0
LWPOLYLINE
  5
2CF
100
AcDbEntity
  8
CURVE
100
AcDbPolyline
 62
250
  6
CONTINUOUS
 90
17
 70
0
 10
-6.3376917992
 20
-13.6246152571
 10
-6.3470180739
 20
-13.616988532
 10
-6.3564293929
 20
-13.60946353
 10
-6.3659243672
 20
-13.6020415115
 10
-6.3755016082
 20
-13.5947237369
 10
-6.3851597269
 20
-13.5875114666
 10
-6.3948973347
 20
-13.580405961
 10
-6.4047130427
 20
-13.5734084804
 10
-6.414605462
 20
-13.5665202853
 10
-6.424573204
 20
-13.559742636
 10
-6.4346148797
 20
-13.553076793
 10
-6.4451944705
 20
-13.5462262103
 10
-6.4558519131
 20
-13.5394998028
 10
-6.4665857106
 20
-13.5328980753
 10
-6.4773943665
 20
-13.5264215327
 10
-6.4882763841
 20
-13.5200706801
 10
-6.4992302667
 20
-13.5138460223
  0
LINE
  5
2D0
100
AcDbEntity
  8
CURVE
100
AcDbLine
 62
250
  6
CONTINUOUS
 10
-9.4646149908
 20
-11.3215382496
 11
-9.4115380658
 21
-11.3746151746
  0
LINE
  5
2D1
100
AcDbEntity
  8
RACCORDO
100
AcDbLine
 62
7
  6
CONTINUOUS
 10
-17.2727922061
 20
-1.2727922061
 11
-13.0100505063
 21
-5.5355339059
  0
LWPOLYLINE
  5
2D2
100
AcDbEntity
  8
CURVE
100
AcDbPolyline
 62
250
  6
CONTINUOUS
 90
22
 70
0
 10
-10.8353842719
 20
-9.1730766323
 10
-10.8434182694
 20
-9.1649290287
 10
-10.8515682787
 20
-9.1568938654
 10
-10.859832834
 20
-9.148973329
 10
-10.8682104697
 20
-9.1411696059
 10
-10.87669972
 20
-9.1334848824
 10
-10.8852991191
 20
-9.1259213449
 10
-10.8940072015
 20
-9.1184811799
 10
-10.9028225013
 20
-9.1111665737
 10
-10.9117435528
 20
-9.1039797127
 10
-10.9207688904
 20
-9.0969227834
 10
-10.9303352458
 20
-9.0896704278
 10
-10.9400114356
 20
-9.0825642928
 10
-10.9497944201
 20
-9.075605562
 10
-10.9596811593
 20
-9.0687954192
 10
-10.9696686136
 20
-9.0621350482
 10
-10.979753743
 20
-9.0556256327
 10
-10.9899335079
 20
-9.0492683565
 10
-11.0002048684
 20
-9.0430644033
 10
-11.0105647846
 20
-9.0370149568
 10
-11.0210102168
 20
-9.0311212009
 10
-11.0315381252
 20
-9.0253843192
  0
LWPOLYLINE
  5
2D3
100
AcDbEntity
  8
CURVE
100
AcDbPolyline
 62
250
  6
CONTINUOUS
 90
25
 70
0
 10
-5.024614828
 20
-14.2776922042
 10
-5.0190447406
 20
-14.2835703907
 10
-5.0135667725
 20
-14.2895400812
 10
-5.0081830583
 20
-14.2955996085
 10
-5.0028957322
 20
-14.3017473053
 10
-4.9977069286
 20
-14.3079815047
 10
-4.9926187821
 20
-14.3143005393
 10
-4.9876334269
 20
-14.3207027422
 10
-4.9827529975
 20
-14.327186446
 10
-4.9779796282
 20
-14.3337499838
 10
-4.9733154535
 20
-14.3403916882
 10
-4.9687626078
 20
-14.3471098922
 10
-4.9643232255
 20
-14.3539029286
 10
-4.959999441
 20
-14.3607691303
 10
-4.9558551578
 20
-14.3676023803
 10
-4.9518254437
 20
-14.3745026421
 10
-4.9479106323
 20
-14.3814675529
 10
-4.9441110571
 20
-14.38849475
 10
-4.9404270519
 20
-14.3955818706
 10
-4.9368589502
 20
-14.4027265518
 10
-4.9334070856
 20
-14.409926431
 10
-4.9300717917
 20
-14.4171791454
 10
-4.9268534021
 20
-14.4244823321
 10
-4.9237522505
 20
-14.4318336285
 10
-4.9207686703
 20
-14.4392306716
  0
LWPOLYLINE
  5
2D4
100
AcDbEntity
  8
CURVE
100
AcDbPolyline
 62
250
  6
CONTINUOUS
 90
23
 70
0
 10
-4.9207686703
 20
-13.5761537169
 10
-4.9287334611
 20
-13.5677235698
 10
-4.9368303704
 20
-13.5594157607
 10
-4.9450576597
 20
-13.5512330789
 10
-4.9534135905
 20
-13.5431783139
 10
-4.9618964243
 20
-13.5352542548
 10
-4.9705044225
 20
-13.5274636911
 10
-4.9792358466
 20
-13.519809412
 10
-4.988088958
 20
-13.5122942068
 10
-4.9970620183
 20
-13.5049208649
 10
-5.0061532888
 20
-13.4976921756
 10
-5.0148755548
 20
-13.490977985
 10
-5.0236996085
 20
-13.4843972186
 10
-5.0326226502
 20
-13.4779509029
 10
-5.0416418802
 20
-13.4716400643
 10
-5.0507544986
 20
-13.4654657293
 10
-5.0599577058
 20
-13.4594289244
 10
-5.0692487018
 20
-13.4535306761
 10
-5.078624687
 20
-13.4477720109
 10
-5.0880828615
 20
-13.4421539554
 10
-5.0976204257
 20
-13.436677536
 10
-5.1072345796
 20
-13.4313437791
 10
-5.1169225237
 20
-13.4261537114
  0
LWPOLYLINE
  5
2D5
100
AcDbEntity
  8
CURVE
100
AcDbPolyline
 62
250
  6
CONTINUOUS
 90
23
 70
0
 10
-10.9392304295
 20
-9.8746151196
 10
-10.933218524
 20
-9.8812120975
 10
-10.9273127319
 20
-9.8879099348
 10
-10.9215154352
 20
-9.8947066505
 10
-10.9158290156
 20
-9.9016002634
 10
-10.9102558547
 20
-9.9085887924
 10
-10.9047983345
 20
-9.9156702566
 10
-10.8994588365
 20
-9.9228426748
 10
-10.8942397426
 20
-9.9301040659
 10
-10.8891434345
 20
-9.9374524488
 10
-10.8841722939
 20
-9.9448858426
 10
-10.8793287027
 20
-9.952402266
 10
-10.8746150426
 20
-9.9599997381
 10
-10.8701097455
 20
-9.9675456915
 10
-10.865732735
 20
-9.9751654143
 10
-10.8614844221
 20
-9.9828562595
 10
-10.8573652174
 20
-9.9906155806
 10
-10.8533755319
 20
-9.9984407306
 10
-10.8495157764
 20
-10.0063290629
 10
-10.8457863618
 20
-10.0142779307
 10
-10.842187699
 20
-10.0222846872
 10
-10.8387201987
 20
-10.0303466857
 10
-10.8353842719
 20
-10.0384612794
  0
LINE
  5
2D6
100
AcDbEntity
  8
CURVE
100
AcDbLine
 62
250
  6
CONTINUOUS
 10
-8.077691863
 20
-13.5046152527
 11
-8.0199995532
 21
-13.5692306397
  0
LWPOLYLINE
  5
2D7
100
AcDbEntity
  8
CURVE
100
AcDbPolyline
 62
250
  6
CONTINUOUS
 90
4
 70
0
 10
-6.3050306302
 20
-13.668020879
 10
-6.3161273912
 20
-13.653700184
 10
-6.3270448173
 20
-13.6392601031
 10
-6.3376917992
 20
-13.6246152571
  0
LWPOLYLINE
  5
2D8
100
AcDbEntity
  8
CURVE
100
AcDbPolyline
 62
250
  6
CONTINUOUS
 90
3
 70
0
 10
-7.464252955
 20
-14.584266196
 10
-7.4499995323
 20
-14.6030768315
 10
-7.4403128248
 20
-14.6161900184
  0
LWPOLYLINE
  5
2D9
100
AcDbEntity
  8
CURVE
100
AcDbPolyline
 62
250
  6
CONTINUOUS
 90
7
 70
0
 10
-7.411832416
 20
-14.6556766861
 10
-7.4021917347
 20
-14.6686928285
 10
-7.3923072225
 20
-14.6815383728
 10
-7.38564967
 20
-14.6898345191
 10
-7.378826466
 20
-14.6980036081
 10
-7.3718205631
 20
-14.7060170028
 10
-7.3646149138
 20
-14.7138460663
  0
LINE
  5
2DA
100
AcDbEntity
  8
CURVE
100
AcDbLine
 62
250
  6
CONTINUOUS
 10
-7.4403128248
 20
-14.6161900184
 11
-7.411832416
 21
-14.6556766861
  0
LINE
  5
2DB
100
AcDbEntity
  8
CURVE
100
AcDbLine
 62
250
  6
CONTINUOUS
 10
-7.5884610759
 20
-11.2130767071
 11
-6.536153345
 21
-12.7130767622
  0
LINE
  5
2DC
100
AcDbEntity
  8
CURVE
100
AcDbLine
 62
250
  6
CONTINUOUS
 10
-8.4053841828
 20
-14.1899998933
 11
-7.9807687826
 21
-14.9007691501
  0
LINE
  5
2DD
100
AcDbEntity
  8
CURVE
100
AcDbLine
 62
250
  6
CONTINUOUS
 10
-11.6176919929
 20
-9.4730766433
 11
-11.5576919907
 21
-9.5838458782
  0
LINE
  5
2DE
100
AcDbEntity
  8
CURVE
100
AcDbLine
 62
250
  6
CONTINUOUS
 10
-9.9584611628
 20
-13.4076921723
 11
-9.3215380625
 21
-14.9076922273
  0
LINE
  5
2DF
100
AcDbEntity
  8
CURVE
100
AcDbLine
 62
250
  6
CONTINUOUS
 10
-10.8353842719
 20
-10.0384612794
 11
-10.8238458099
 21
-10.1469228219
  0
LWPOLYLINE
  5
2E0
100
AcDbEntity
  8
CURVE
100
AcDbPolyline
 62
250
  6
CONTINUOUS
 90
24
 70
0
 10
-10.565384262
 20
-11.965384427
 10
-10.564514072
 20
-11.9825147716
 10
-10.5633590248
 20
-11.9996349172
 10
-10.5619182393
 20
-12.0167391077
 10
-10.5601908345
 20
-12.033821587
 10
-10.5581759291
 20
-12.050876599
 10
-10.5558726422
 20
-12.0678983873
 10
-10.5532800927
 20
-12.084881196
 10
-10.5503973993
 20
-12.1018192689
 10
-10.5472236811
 20
-12.1187068498
 10
-10.5437580569
 20
-12.1355381824
 10
-10.5399996457
 20
-12.1523075108
 10
-10.536067042
 20
-12.168537087
 10
-10.5318602328
 20
-12.1846981358
 10
-10.5273822791
 20
-12.2007861055
 10
-10.5226362418
 20
-12.2167964449
 10
-10.517625182
 20
-12.2327246023
 10
-10.5123521607
 20
-12.2485660264
 10
-10.506820239
 20
-12.2643161656
 10
-10.5010324777
 20
-12.2799704685
 10
-10.4949919381
 20
-12.2955243835
 10
-10.488701681
 20
-12.3109733593
 10
-10.4821647675
 20
-12.3263128443
 10
-10.4753842587
 20
-12.341538287
  0
LINE
  5
2E1
100
AcDbEntity
  8
CURVE
100
AcDbLine
 62
250
  6
CONTINUOUS
 10
-12.4923074096
 20
-14.9076922273
 11
-12.4923074096
 21
-13.4076921723
  0
LINE
  5
2E2
100
AcDbEntity
  8
CURVE
100
AcDbLine
 62
250
  6
CONTINUOUS
 10
-12.4000000358
 20
10.5000000358
 11
-12.4000000358
 21
10.8000000179
  0
LINE
  5
2E3
100
AcDbEntity
  8
CURVE
100
AcDbLine
 62
250
  6
CONTINUOUS
 10
-11.8000000715
 20
9.6000000268
 11
-11.8000000715
 21
10.5000000358
  0
LINE
  5
2E4
100
AcDbEntity
  8
CURVE
100
AcDbLine
 62
250
  6
CONTINUOUS
 10
-11.0384612024
 20
-13.4076921723
 11
-11.0384612024
 21
-14.9076922273
  0
LINE
  5
2E5
100
AcDbEntity
  8
CURVE
100
AcDbLine
 62
250
  6
CONTINUOUS
 10
-10.9738458154
 20
-11.2130767071
 11
-10.9738458154
 21
-12.7130767622
  0
LINE
  5
2E6
100
AcDbEntity
  8
CURVE
100
AcDbLine
 62
250
  6
CONTINUOUS
 10
-10.7500000715
 20
10.5000000358
 11
-10.7500000715
 21
9.6000000268
  0
LINE
  5
2E7
100
AcDbEntity
  8
CURVE
100
AcDbLine
 62
250
  6
CONTINUOUS
 10
-10.1569227085
 20
-10.5046151427
 11
-10.1569227085
 21
-9.0046150877
  0
LWPOLYLINE
  5
2E8
100
AcDbEntity
  8
CURVE
100
AcDbPolyline
 62
250
  6
CONTINUOUS
 90
4
 70
0
 10
-13.6793689884
 20
-9.398978752
 10
-13.6776246524
 20
-9.3890475858
 10
-13.675795897
 20
-9.3791298619
 10
-13.6738459145
 20
-9.3692304857
  0
LINE
  5
2E9
100
AcDbEntity
  8
CURVE
100
AcDbLine
 62
250
  6
CONTINUOUS
 10
-14.3615382474
 20
-13.8576921888
 11
-14.3407690159
 21
-13.7469229539
  0
LWPOLYLINE
  5
2EA
100
AcDbEntity
  8
CURVE
100
AcDbPolyline
 62
250
  6
CONTINUOUS
 90
28
 70
0
 10
-14.3130767071
 20
-14.6330768326
 10
-14.3110776655
 20
-14.6245118177
 10
-14.3092277676
 20
-14.6159072948
 10
-14.3075285747
 20
-14.6072665542
 10
-14.3059816484
 20
-14.5985928865
 10
-14.30458855
 20
-14.5898895823
 10
-14.303350841
 20
-14.5811599321
 10
-14.3022700826
 20
-14.5724072264
 10
-14.3013478365
 20
-14.5636347556
 10
-14.3005856638
 20
-14.5548458104
 10
-14.2999851261
 20
-14.5460436813
 10
-14.2995477847
 20
-14.5372316587
 10
-14.2992752011
 20
-14.5284130333
 10
-14.2991689367
 20
-14.5195910955
 10
-14.2992305528
 20
-14.5107691358
 10
-14.2994671913
 20
-14.5017797253
 10
-14.2998780954
 20
-14.4927970431
 10
-14.3004614639
 20
-14.4838244211
 10
-14.3012154954
 20
-14.474865191
 10
-14.3021383887
 20
-14.4659226849
 10
-14.3032283424
 20
-14.4570002344
 10
-14.3044835552
 20
-14.4481011715
 10
-14.3059022258
 20
-14.439228828
 10
-14.3074825528
 20
-14.4303865358
 10
-14.309222735
 20
-14.4215776266
 10
-14.3111209711
 20
-14.4128054324
 10
-14.3131754597
 20
-14.404073285
 10
-14.3153843995
 20
-14.3953845162
  0
LINE
  5
2EB
100
AcDbEntity
  8
CURVE
100
AcDbLine
 62
250
  6
CONTINUOUS
 10
-17.476922977
 20
-10.4792305264
 11
-16.8538460311
 21
-9.0046150877
  0
LINE
  5
2EC
100
AcDbEntity
  8
CURVE
100
AcDbLine
 62
250
  6
CONTINUOUS
 10
-16.3646152439
 20
-10.5046151427
 11
-15.729999836
 21
-9.0046150877
  0
LINE
  5
2ED
100
AcDbEntity
  8
CURVE
100
AcDbLine
 62
250
  6
CONTINUOUS
 10
-18.2499999285
 20
-12.7130767622
 11
-17.6130768282
 21
-11.2130767071
  0
LINE
  5
2EE
100
AcDbEntity
  8
CURVE
100
AcDbLine
 62
250
  6
CONTINUOUS
 10
-18.259230698
 20
-17.1
 11
-17.6223075978
 21
-15.599999945
  0
LINE
  5
2EF
100
AcDbEntity
  8
CURVE
100
AcDbLine
 62
250
  6
CONTINUOUS
 10
-18.9220252731
 20
-14.2262352385
 11
-18.9746153397
 21
-14.3446152835
  0
LINE
  5
2F0
100
AcDbEntity
  8
CURVE
100
AcDbLine
 62
250
  6
CONTINUOUS
 10
-17.5946152891
 20
-13.5830767941
 11
-17.6730768304
 21
-13.7538460311
  0
LINE
  5
2F1
100
AcDbEntity
  8
CURVE
100
AcDbLine
 62
250
  6
CONTINUOUS
 10
-19.5192307443
 20
-13.9430768073
 11
-19.4730768964
 21
-13.8553844964
  0
LINE
  5
2F2
100
AcDbEntity
  8
CURVE
100
AcDbLine
 62
250
  6
CONTINUOUS
 10
-8.6500000715
 20
9.0
 11
-7.6000000715
 21
10.5000000358
  0
LINE
  5
2F3
100
AcDbEntity
  8
RACCORDO
100
AcDbLine
 62
250
  6
CONTINUOUS
 10
-12.3029437252
 20
4.8284271247
 11
-16.5656854249
 21
0.5656854249
  0
LINE
  5
2F4
100
AcDbEntity
  8
RACCORDO
100
AcDbLine
 62
250
  6
CONTINUOUS
 10
-16.5656854249
 20
-0.5656854249
 11
-17.2727922061
 21
-1.2727922061
  0
LINE
  5
2F5
100
AcDbEntity
  8
CURVE
100
AcDbLine
 62
250
  6
CONTINUOUS
 10
-5.1999997139
 20
10.8000000179
 11
-4.8999998569
 21
11.1
  0
LWPOLYLINE
  5
2F6
100
AcDbEntity
  8
CURVE
100
AcDbPolyline
 62
250
  6
CONTINUOUS
 90
4
 70
0
 10
-8.2490729042
 20
-14.1078752794
 10
-8.2312095886
 20
-14.1042974472
 10
-8.2133181824
 20
-14.1008785287
 10
-8.1953841751
 20
-14.0976921976
  0
LWPOLYLINE
  5
2F7
100
AcDbEntity
  8
CURVE
100
AcDbPolyline
 62
250
  6
CONTINUOUS
 90
33
 70
0
 10
-14.6915382595
 20
-14.1184614291
 10
-14.6817717932
 20
-14.1166114857
 10
-14.6720451891
 20
-14.1145213039
 10
-14.6623638568
 20
-14.1121952521
 10
-14.6527332058
 20
-14.1096376989
 10
-14.6431586454
 20
-14.1068530129
 10
-14.6336455852
 20
-14.1038455626
 10
-14.6241994346
 20
-14.1006197165
 10
-14.6148256031
 20
-14.0971798431
 10
-14.6055295001
 20
-14.093530311
 10
-14.5963165351
 20
-14.0896754887
 10
-14.5871921175
 20
-14.0856197447
 10
-14.5781616569
 20
-14.0813674477
 10
-14.5692305627
 20
-14.076922966
 10
-14.5599085571
 20
-14.0720236108
 10
-14.5507050972
 20
-14.0669190895
 10
-14.541621793
 20
-14.0616138499
 10
-14.5326602544
 20
-14.0561123394
 10
-14.5238220912
 20
-14.0504190058
 10
-14.5151089133
 20
-14.0445382966
 10
-14.5065223305
 20
-14.0384746594
 10
-14.4980639527
 20
-14.0322325419
 10
-14.4897353899
 20
-14.0258163916
 10
-14.4815382518
 20
-14.0192306562
 10
-14.4726318202
 20
-14.0117583351
 10
-14.4638917876
 20
-14.0040897904
 10
-14.4553219798
 20
-13.996230603
 10
-14.4469262225
 20
-13.9881863535
 10
-14.4387083415
 20
-13.9799626227
 10
-14.4306721625
 20
-13.9715649912
 10
-14.4228215113
 20
-13.9629990397
 10
-14.4151602136
 20
-13.9542703489
 10
-14.4076920952
 20
-13.9453844997
  0
LWPOLYLINE
  5
2F8
100
AcDbEntity
  8
CURVE
100
AcDbPolyline
 62
250
  6
CONTINUOUS
 90
33
 70
0
 10
-19.8030769085
 20
-14.1161537367
 10
-19.7933104422
 20
-14.1143037933
 10
-19.7835838381
 20
-14.1122136115
 10
-19.7739025059
 20
-14.1098875597
 10
-19.7642718548
 20
-14.1073300065
 10
-19.7546972945
 20
-14.1045453205
 10
-19.7451842342
 20
-14.1015378702
 10
-19.7357380836
 20
-14.0983120241
 10
-19.7263642521
 20
-14.0948721507
 10
-19.7170681491
 20
-14.0912226186
 10
-19.7078551841
 20
-14.0873677963
 10
-19.6987307666
 20
-14.0833120524
 10
-19.689700306
 20
-14.0790597553
 10
-19.6807692117
 20
-14.0746152736
 10
-19.6714472061
 20
-14.0697159184
 10
-19.6622437462
 20
-14.0646113971
 10
-19.6531604421
 20
-14.0593061575
 10
-19.6441989034
 20
-14.053804647
 10
-19.6353607402
 20
-14.0481113134
 10
-19.6266475623
 20
-14.0422306042
 10
-19.6180609795
 20
-14.036166967
 10
-19.6096026018
 20
-14.0299248495
 10
-19.6012740389
 20
-14.0235086992
 10
-19.5930769008
 20
-14.0169229638
 10
-19.5841704692
 20
-14.0094506427
 10
-19.5754304366
 20
-14.0017820981
 10
-19.5668606288
 20
-13.9939229106
 10
-19.5584648715
 20
-13.9858786611
 10
-19.5502469905
 20
-13.9776549303
 10
-19.5422108116
 20
-13.9692572988
 10
-19.5343601604
 20
-13.9606913473
 10
-19.5266988627
 20
-13.9519626566
 10
-19.5192307443
 20
-13.9430768073
  0
LINE
  5
2F9
100
AcDbEntity
  8
CURVE
100
AcDbLine
 62
250
  6
CONTINUOUS
 10
-17.2646152769
 20
-14.9030768425
 11
-17.0753845008
 21
-14.8730768414
  0
LINE
  5
2FA
100
AcDbEntity
  8
CURVE
100
AcDbLine
 62
250
  6
CONTINUOUS
 10
-6.8546148951
 20
-13.423846019
 11
-7.0553841332
 21
-13.4492306353
  0
LINE
  5
2FB
100
AcDbEntity
  8
CURVE
100
AcDbLine
 62
250
  6
CONTINUOUS
 10
-10.0046150107
 20
-11.2315382463
 11
-9.8223073117
 21
-11.2130767071
  0
LWPOLYLINE
  5
2FC
100
AcDbEntity
  8
CURVE
100
AcDbPolyline
 62
250
  6
CONTINUOUS
 90
11
 70
0
 10
-9.8753842367
 20
-12.7130767622
 10
-9.8492142176
 20
-12.7109606519
 10
-9.8230600416
 20
-12.7086529785
 10
-9.7969226953
 20
-12.706153685
 10
-9.7727995496
 20
-12.7036752625
 10
-9.7486930529
 20
-12.7010335833
 10
-9.7246046579
 20
-12.6982288793
 10
-9.7005358174
 20
-12.6952613824
 10
-9.6764879842
 20
-12.6921313246
 10
-9.652462611
 20
-12.6888389376
 10
-9.6284611507
 20
-12.6853844535
  0
LINE
  5
2FD
100
AcDbEntity
  8
CURVE
100
AcDbLine
 62
250
  6
CONTINUOUS
 10
0.2900007516
 20
-12.3230767479
 11
-0.6746146684
 21
-12.3230767479
  0
LINE
  5
2FE
100
AcDbEntity
  8
CURVE
100
AcDbLine
 62
250
  6
CONTINUOUS
 10
-18.0653845371
 20
-12.2769229
 11
-17.0961537323
 21
-12.2769229
  0
LINE
  5
2FF
100
AcDbEntity
  8
CURVE
100
AcDbLine
 62
250
  6
CONTINUOUS
 10
-4.4292301908
 20
-12.2769229
 11
-3.4623070784
 21
-12.2769229
  0
LINE
  5
300
100
AcDbEntity
  8
CURVE
100
AcDbLine
 62
250
  6
CONTINUOUS
 10
-8.1353841729
 20
-11.9261536564
 11
-9.0192303591
 21
-11.9261536564
  0
LINE
  5
301
100
AcDbEntity
  8
CURVE
100
AcDbLine
 62
250
  6
CONTINUOUS
 10
-14.4053844028
 20
-11.9261536564
 11
-15.2892305891
 21
-11.9261536564
  0
LINE
  5
302
100
AcDbEntity
  8
CURVE
100
AcDbLine
 62
250
  6
CONTINUOUS
 10
-17.6130768282
 20
-11.2130767071
 11
-17.5461537488
 21
-11.2130767071
  0
LINE
  5
303
100
AcDbEntity
  8
CURVE
100
AcDbLine
 62
250
  6
CONTINUOUS
 10
-7.6646149248
 20
-11.2130767071
 11
-7.5884610759
 21
-11.2130767071
  0
LINE
  5
304
100
AcDbEntity
  8
CURVE
100
AcDbLine
 62
250
  6
CONTINUOUS
 10
-3.9792301743
 20
-11.2130767071
 11
-3.9123070949
 21
-11.2130767071
  0
LINE
  5
305
100
AcDbEntity
  8
CURVE
100
AcDbLine
 62
250
  6
CONTINUOUS
 10
-0.0123069518
 20
-11.2130767071
 11
0.0430776656
 21
-11.2130767071
  0
LINE
  5
306
100
AcDbEntity
  8
CURVE
100
AcDbLine
 62
250
  6
CONTINUOUS
 10
-1.0784608371
 20
-11.2130767071
 11
-1.1153839154
 21
-11.2130767071
  0
LINE
  5
307
100
AcDbEntity
  8
CURVE
100
AcDbLine
 62
250
  6
CONTINUOUS
 10
-8.0638457087
 20
-11.2130767071
 11
-9.0192303591
 21
-11.2130767071
  0
LINE
  5
308
100
AcDbEntity
  8
CURVE
100
AcDbLine
 62
250
  6
CONTINUOUS
 10
-14.3338459387
 20
-11.2130767071
 11
-15.2892305891
 21
-11.2130767071
  0
LINE
  5
309
100
AcDbEntity
  8
CURVE
100
AcDbLine
 62
250
  6
CONTINUOUS
 10
-5.0269225204
 20
-11.2107690148
 11
-6.1161533296
 21
-11.2107690148
  0
LINE
  5
30A
100
AcDbEntity
  8
CURVE
100
AcDbLine
 62
250
  6
CONTINUOUS
 10
11.01141
 20
-10.951721
 11
10.18807
 21
-10.951721
  0
LINE
  5
30B
100
AcDbEntity
  8
CURVE
100
AcDbLine
 62
250
  6
CONTINUOUS
 10
10.18807
 20
-10.736085
 11
11.01141
 21
-10.736085
  0
LINE
  5
30C
100
AcDbEntity
  8
CURVE
100
AcDbLine
 62
250
  6
CONTINUOUS
 10
11.817947
 20
-10.643669
 11
11.467887
 21
-10.643669
  0
LINE
  5
30D
100
AcDbEntity
  8
CURVE
100
AcDbLine
 62
250
  6
CONTINUOUS
 10
-19.7038461356
 20
-10.5046151427
 11
-19.664615365
 21
-10.5046151427
  0
LINE
  5
30E
100
AcDbEntity
  8
CURVE
100
AcDbLine
 62
250
  6
CONTINUOUS
 10
11.467887
 20
-10.271205
 11
11.817947
 21
-10.271205
  0
LINE
  5
30F
100
AcDbEntity
  8
CURVE
100
AcDbLine
 62
250
  6
CONTINUOUS
 10
-16.1799998525
 20
-10.0684612805
 11
-15.2130767402
 21
-10.0684612805
  0
LINE
  5
310
100
AcDbEntity
  8
CURVE
100
AcDbLine
 62
250
  6
CONTINUOUS
 10
-8.6499995763
 20
-10.0684612805
 11
-7.683076464
 21
-10.0684612805
  0
LWPOLYLINE
  5
311
100
AcDbEntity
  8
CURVE
100
AcDbPolyline
 62
250
  6
CONTINUOUS
 90
16
 70
0
 10
-14.288272554
 20
-9.7381980218
 10
-14.2664049155
 20
-9.7386599462
 10
-14.2445433665
 20
-9.7389582307
 10
-14.2226895478
 20
-9.7390402615
 10
-14.2008451002
 20
-9.7388534251
 10
-14.1790116646
 20
-9.7383451078
 10
-14.1571908819
 20
-9.737462696
 10
-14.1353843929
 20
-9.736153576
 10
-14.119186483
 20
-9.7348728428
 10
-14.1030097205
 20
-9.7333061486
 10
-14.0868664474
 20
-9.7314323989
 10
-14.070769006
 20
-9.7292304989
 10
-14.0545307189
 20
-9.7266607382
 10
-14.0383409646
 20
-9.7237995733
 10
-14.0221886755
 20
-9.7207134087
 10
-14.0060627843
 20
-9.7174686486
  0
LINE
  5
312
100
AcDbEntity
  8
CURVE
100
AcDbLine
 62
250
  6
CONTINUOUS
 10
-14.3757711849
 20
-9.7357661968
 11
-14.288272554
 21
-9.7381980218
  0
LINE
  5
313
100
AcDbEntity
  8
CURVE
100
AcDbLine
 62
250
  6
CONTINUOUS
 10
-9.6330765355
 20
-11.2384613235
 11
-9.7038601125
 21
-11.2293403781
  0
LINE
  5
314
100
AcDbEntity
  8
CURVE
100
AcDbLine
 62
250
  6
CONTINUOUS
 10
-9.7038601125
 20
-11.2293403781
 11
-9.7669320586
 21
-11.2208363556
  0
LINE
  5
315
100
AcDbEntity
  8
CURVE
100
AcDbLine
 62
250
  6
CONTINUOUS
 10
-9.7669320586
 20
-11.2208363556
 11
-9.8223073117
 21
-11.2130767071
  0
LWPOLYLINE
  5
316
100
AcDbEntity
  8
CURVE
100
AcDbPolyline
 62
250
  6
CONTINUOUS
 90
28
 70
0
 10
-11.0315381252
 20
-9.0253843192
 10
-11.0438116684
 20
-9.0223759575
 10
-11.0561372463
 20
-9.0195615672
 10
-11.0685110123
 20
-9.0169460289
 10
-11.0809291196
 20
-9.0145342232
 10
-11.0933877215
 20
-9.0123310307
 10
-11.1058829712
 20
-9.0103413321
 10
-11.1184110221
 20
-9.0085700078
 10
-11.1309680274
 20
-9.0070219386
 10
-11.1435501404
 20
-9.005702005
 10
-11.1561535144
 20
-9.0046150877
 10
-11.1669109352
 20
-9.0038762854
 10
-11.1776780996
 20
-9.0033139012
 10
-11.1884520972
 20
-9.0029314846
 10
-11.1992300176
 20
-9.0027325854
 10
-11.2100089503
 20
-9.0027207532
 10
-11.2207859848
 20
-9.0028995377
 10
-11.2315582107
 20
-9.0032724884
 10
-11.2423227176
 20
-9.0038431552
 10
-11.2530765949
 20
-9.0046150877
 10
-11.2638595581
 20
-9.005596011
 10
-11.2746229567
 20
-9.0067859911
 10
-11.2853608749
 20
-9.0081876205
 10
-11.2960673972
 20
-9.0098034917
 10
-11.3067366079
 20
-9.011636197
 10
-11.3173625912
 20
-9.0136883288
 10
-11.3279394316
 20
-9.0159624797
 10
-11.3384612134
 20
-9.018461242
  0
LWPOLYLINE
  5
317
100
AcDbEntity
  8
CURVE
100
AcDbPolyline
 62
250
  6
CONTINUOUS
 90
14
 70
0
 10
-9.48307653
 20
-9.0692304747
 10
-9.4984335158
 20
-9.0635664408
 10
-9.513838415
 20
-9.0580312875
 10
-9.5292899835
 20
-9.0526255479
 10
-9.5447869774
 20
-9.0473497557
 10
-9.5603281528
 20
-9.0422044441
 10
-9.5759122658
 20
-9.0371901465
 10
-9.5915380724
 20
-9.0323073964
 10
-9.6079736181
 20
-9.0273271029
 10
-9.6244522432
 20
-9.022492424
 10
-9.6409725133
 20
-9.0178036213
 10
-9.6575329934
 20
-9.0132609566
 10
-9.674132249
 20
-9.0088646915
 10
-9.6907688453
 20
-9.0046150877
  0
LINE
  5
318
100
AcDbEntity
  8
RACCORDO
100
AcDbLine
 62
250
  6
CONTINUOUS
 10
-16.5656854249
 20
-0.5656854249
 11
-12.3029437252
 21
-4.8284271247
  0
LINE
  5
319
100
AcDbEntity
  8
RACCORDO
100
AcDbLine
 62
250
  6
CONTINUOUS
 10
-16.5656854249
 20
0.5656854249
 11
-17.2727922061
 21
1.2727922061
  0
LINE
  5
31A
100
AcDbEntity
  8
CURVE
100
AcDbLine
 62
250
  6
CONTINUOUS
 10
-1.2907685372
 20
-13.5161537147
 11
-1.2376916122
 21
-13.5692306397
  0
LWPOLYLINE
  5
31B
100
AcDbEntity
  8
CURVE
100
AcDbPolyline
 62
250
  6
CONTINUOUS
 90
18
 70
0
 10
-2.301537805
 20
-14.5361537521
 10
-2.2936316279
 20
-14.5451093395
 10
-2.2858311647
 20
-14.5541584348
 10
-2.2781377388
 20
-14.5632999697
 10
-2.2705526738
 20
-14.5725328759
 10
-2.2630772933
 20
-14.581856085
 10
-2.2557129208
 20
-14.5912685289
 10
-2.24846088
 20
-14.6007691391
 10
-2.2414985333
 20
-14.6101172923
 10
-2.2346451376
 20
-14.6195465367
 10
-2.2279015703
 20
-14.6290551427
 10
-2.2212687087
 20
-14.6386413805
 10
-2.2147474303
 20
-14.6483035206
 10
-2.2083386124
 20
-14.6580398335
 10
-2.2020431324
 20
-14.6678485894
 10
-2.1958618675
 20
-14.6777280588
 10
-2.1897956953
 20
-14.6876765121
 10
-2.183845493
 20
-14.6976922196
  0
LINE
  5
31C
100
AcDbEntity
  8
CURVE
100
AcDbLine
 62
250
  6
CONTINUOUS
 10
-5.7030763913
 20
-13.8738460355
 11
-5.6430763891
 21
-13.9846152703
  0
LINE
  5
31D
100
AcDbEntity
  8
CURVE
100
AcDbLine
 62
250
  6
CONTINUOUS
 10
-8.1330764805
 20
-9.0046150877
 11
-7.4961533802
 21
-10.5046151427
  0
LWPOLYLINE
  5
31E
100
AcDbEntity
  8
CURVE
100
AcDbPolyline
 62
250
  6
CONTINUOUS
 90
4
 70
0
 10
-7.5288241204
 20
-14.438594713
 10
-7.5239643192
 20
-14.452585901
 10
-7.5192108461
 20
-14.4666366634
 10
-7.5146149193
 20
-14.4807691347
  0
LWPOLYLINE
  5
31F
100
AcDbEntity
  8
CURVE
100
AcDbPolyline
 62
250
  6
CONTINUOUS
 90
15
 70
0
 10
-7.5146149193
 20
-14.4807691347
 10
-7.510003082
 20
-14.4954874891
 10
-7.5076666296
 20
-14.5028306608
 10
-7.5052487101
 20
-14.5101323282
 10
-7.5027034897
 20
-14.5173693657
 10
-7.499985135
 20
-14.5245186479
 10
-7.4970478122
 20
-14.5315570494
 10
-7.4938456878
 20
-14.5384614445
 10
-7.4902780867
 20
-14.54534119
 10
-7.4864264771
 20
-14.552076974
 10
-7.4823292778
 20
-14.5586879315
 10
-7.4780249073
 20
-14.5651931974
 10
-7.4735517843
 20
-14.5716119067
 10
-7.4689483273
 20
-14.5779631946
 10
-7.464252955
 20
-14.584266196
  0
LWPOLYLINE
  5
320
100
AcDbEntity
  8
CURVE
100
AcDbPolyline
 62
250
  6
CONTINUOUS
 90
8
 70
0
 10
-11.6223073777
 20
-9.4199997183
 10
-11.6214517001
 20
-9.4275688513
 10
-11.6206345264
 20
-9.4351408639
 10
-11.6198720215
 20
-9.4427166853
 10
-11.6191803507
 20
-9.4502972448
 10
-11.6185756789
 20
-9.4578834715
 10
-11.6180741713
 20
-9.4654762946
 10
-11.6176919929
 20
-9.4730766433
  0
LWPOLYLINE
  5
321
100
AcDbEntity
  8
CURVE
100
AcDbPolyline
 62
250
  6
CONTINUOUS
 90
22
 70
0
 10
-7.9669226282
 20
-13.7723075702
 10
-7.9679064906
 20
-13.7627462096
 10
-7.9690281794
 20
-13.7531984423
 10
-7.9702880474
 20
-13.7436663905
 10
-7.9716864475
 20
-13.7341521766
 10
-7.9732237327
 20
-13.7246579227
 10
-7.9749002559
 20
-13.715185751
 10
-7.97671637
 20
-13.7057377838
 10
-7.9786724279
 20
-13.6963161433
 10
-7.9807687826
 20
-13.6869229517
 10
-7.9831804196
 20
-13.6768533594
 10
-7.9857532208
 20
-13.6668219648
 10
-7.9884856149
 20
-13.6568315941
 10
-7.9913760303
 20
-13.6468850734
 10
-7.9944228957
 20
-13.6369852288
 10
-7.9976246397
 20
-13.6271348864
 10
-8.0009796907
 20
-13.6173368723
 10
-8.0044864775
 20
-13.6075940126
 10
-8.0081434286
 20
-13.5979091334
 10
-8.0119489725
 20
-13.5882850608
 10
-8.0159015379
 20
-13.5787246209
 10
-8.0199995532
 20
-13.5692306397
  0
LINE
  5
322
100
AcDbEntity
  8
RACCORDO
100
AcDbLine
 62
250
  6
CONTINUOUS
 10
-9.4745166004
 20
-6.0
 11
-9.4745166004
 21
-7.0
  0
LINE
  5
323
100
AcDbEntity
  8
RACCORDO
100
AcDbLine
 62
250
  6
CONTINUOUS
 10
-9.4745166004
 20
6.0
 11
-9.4745166004
 21
7.0
  0
LINE
  5
324
100
AcDbEntity
  8
CURVE
100
AcDbLine
 62
250
  6
CONTINUOUS
 10
-9.0192303591
 20
-11.2130767071
 11
-9.0192303591
 21
-12.7130767622
  0
LINE
  5
325
100
AcDbEntity
  8
CURVE
100
AcDbLine
 62
250
  6
CONTINUOUS
 10
-8.8415380449
 20
-14.9076922273
 11
-8.8415380449
 21
-13.4076921723
  0
LINE
  5
326
100
AcDbEntity
  8
CURVE
100
AcDbLine
 62
250
  6
CONTINUOUS
 10
-7.6646149248
 20
-12.7130767622
 11
-7.6646149248
 21
-11.2130767071
  0
LINE
  5
327
100
AcDbEntity
  8
CURVE
100
AcDbLine
 62
250
  6
CONTINUOUS
 10
-7.6000000715
 20
10.5000000358
 11
-7.6000000715
 21
10.8000000179
  0
LINE
  5
328
100
AcDbEntity
  8
CURVE
100
AcDbLine
 62
250
  6
CONTINUOUS
 10
-7.56459
 20
18.537206
 11
-7.56459
 21
17.76668
  0
LINE
  5
329
100
AcDbEntity
  8
CURVE
100
AcDbLine
 62
250
  6
CONTINUOUS
 10
-7.56459
 20
14.233296
 11
-7.56459
 21
13.46277
  0
LWPOLYLINE
  5
32A
100
AcDbEntity
  8
CURVE
100
AcDbPolyline
 62
250
  6
CONTINUOUS
 90
15
 70
0
 10
-7.5653841519
 20
-13.9776921932
 10
-7.565415139
 20
-13.9938620536
 10
-7.5655929852
 20
-14.0100331879
 10
-7.5659177282
 20
-14.0262037838
 10
-7.5663894062
 20
-14.0423720293
 10
-7.5670080569
 20
-14.0585361122
 10
-7.5677737183
 20
-14.0746942202
 10
-7.5686864284
 20
-14.0908445412
 10
-7.5697462249
 20
-14.1069852631
 10
-7.5709531458
 20
-14.1231145736
 10
-7.5723072291
 20
-14.1392306606
 10
-7.5738160068
 20
-14.1554091562
 10
-7.575473028
 20
-14.17157172
 10
-7.5772779191
 20
-14.1877176009
 10
-7.5792303063
 20
-14.2038460476
  0
LWPOLYLINE
  5
32B
100
AcDbEntity
  8
CURVE
100
AcDbPolyline
 62
250
  6
CONTINUOUS
 90
21
 70
0
 10
-10.8238458099
 20
-10.1469228219
 10
-10.8251350101
 20
-10.1555640371
 10
-10.8265479207
 20
-10.1641880431
 10
-10.8280845633
 20
-10.1727927303
 10
-10.829744959
 20
-10.1813759897
 10
-10.8315291294
 20
-10.1899357119
 10
-10.8334370958
 20
-10.1984697877
 10
-10.8354688796
 20
-10.2069761077
 10
-10.8376245022
 20
-10.2154525626
 10
-10.8399039849
 20
-10.2238970433
 10
-10.8423073491
 20
-10.2323074404
 10
-10.8449511421
 20
-10.2410580119
 10
-10.8477289212
 20
-10.2497669815
 10
-10.8506393563
 20
-10.2584322742
 10
-10.8536811172
 20
-10.2670518148
 10
-10.856852874
 20
-10.2756235282
 10
-10.8601532966
 20
-10.2841453394
 10
-10.8635810548
 20
-10.2926151731
 10
-10.8671348185
 20
-10.3010309544
 10
-10.8708132578
 20
-10.309390608
 10
-10.8746150426
 20
-10.3176920589
  0
LWPOLYLINE
  5
32C
100
AcDbEntity
  8
CURVE
100
AcDbPolyline
 62
250
  6
CONTINUOUS
 90
4
 70
0
 10
-9.3330765245
 20
-9.4915381825
 10
-9.3315311901
 20
-9.4817034387
 10
-9.3298310844
 20
-9.4718957347
 10
-9.3280229293
 20
-9.4621015618
  0
LWPOLYLINE
  5
32D
100
AcDbEntity
  8
CURVE
100
AcDbPolyline
 62
250
  6
CONTINUOUS
 90
36
 70
0
 10
-9.3229972525
 20
-9.4357832908
 10
-9.3214763805
 20
-9.4275057311
 10
-9.320032466
 20
-9.4192172241
 10
-9.3186946143
 20
-9.4109173091
 10
-9.3174919308
 20
-9.4026055252
 10
-9.3164535207
 20
-9.3942814117
 10
-9.3156084896
 20
-9.3859445078
 10
-9.3149859427
 20
-9.3775943527
 10
-9.3146149853
 20
-9.3692304857
 10
-9.3145149027
 20
-9.3617183085
 10
-9.3146298083
 20
-9.3541996915
 10
-9.314948923
 20
-9.3466795941
 10
-9.3154614679
 20
-9.3391629758
 10
-9.3161566641
 20
-9.3316547961
 10
-9.3170237325
 20
-9.3241600144
 10
-9.3180518941
 20
-9.3166835904
 10
-9.3192303701
 20
-9.3092304835
 10
-9.3209900437
 20
-9.2994966449
 10
-9.3229894372
 20
-9.28981568
 10
-9.325228188
 20
-9.2801918102
 10
-9.3277059332
 20
-9.2706292568
 10
-9.3304223099
 20
-9.2611322412
 10
-9.3333769555
 20
-9.2517049847
 10
-9.336569507
 20
-9.2423517087
 10
-9.3399996017
 20
-9.2330766345
 10
-9.3435553624
 20
-9.2241533192
 10
-9.3473316937
 20
-9.2153148286
 10
-9.3513257136
 20
-9.206568335
 10
-9.3555345403
 20
-9.1979210106
 10
-9.3599552917
 20
-9.1893800274
 10
-9.3645850861
 20
-9.1809525578
 10
-9.3694210414
 20
-9.1726457739
 10
-9.3744602758
 20
-9.1644668478
 10
-9.3796999074
 20
-9.1564229518
 10
-9.3851370542
 20
-9.1485212581
 10
-9.3907688343
 20
-9.1407689388
  0
LINE
  5
32E
100
AcDbEntity
  8
CURVE
100
AcDbLine
 62
250
  6
CONTINUOUS
 10
-6.9999998569
 20
9.4500000045
 11
-6.5499995708
 21
11.1
  0
LWPOLYLINE
  5
32F
100
AcDbEntity
  8
CURVE
100
AcDbPolyline
 62
250
  6
CONTINUOUS
 90
26
 70
0
 10
-11.6176919929
 20
-9.2584612508
 10
-11.6193172552
 20
-9.2633759016
 10
-11.6208034012
 20
-9.2683368838
 10
-11.6221543989
 20
-9.2733401239
 10
-11.6233742164
 20
-9.2783815481
 10
-11.6244668217
 20
-9.2834570829
 10
-11.625436183
 20
-9.2885626546
 10
-11.6262862682
 20
-9.2936941894
 10
-11.6270210455
 20
-9.2988476138
 10
-11.627644483
 20
-9.304018854
 10
-11.6281605486
 20
-9.3092038364
 10
-11.6285732106
 20
-9.3143984874
 10
-11.6288864369
 20
-9.3195987333
 10
-11.6291041956
 20
-9.3248005004
 10
-11.6292304549
 20
-9.329999715
 10
-11.6292637287
 20
-9.3369651595
 10
-11.6291530256
 20
-9.3439197215
 10
-11.6289118929
 20
-9.3508644433
 10
-11.6285538782
 20
-9.3578003669
 10
-11.6280925287
 20
-9.3647285346
 10
-11.627541392
 20
-9.3716499884
 10
-11.6269140156
 20
-9.3785657706
 10
-11.6262239468
 20
-9.3854769232
 10
-11.625484733
 20
-9.3923844884
 10
-11.6247099218
 20
-9.3992895084
 10
-11.6223073777
 20
-9.4199997183
  0
LINE
  5
330
100
AcDbEntity
  8
CURVE
100
AcDbLine
 62
250
  6
CONTINUOUS
 10
-16.9346152648
 20
-14.7369229902
 11
-16.8446152615
 21
-14.5546152913
  0
LINE
  5
331
100
AcDbEntity
  8
CURVE
100
AcDbLine
 62
250
  6
CONTINUOUS
 10
-5.3500001431
 20
10.5000000358
 11
-5.1999997139
 21
10.8000000179
  0
LINE
  5
332
100
AcDbEntity
  8
CURVE
100
AcDbLine
 62
250
  6
CONTINUOUS
 10
-4.3000001431
 20
9.6000000268
 11
-4.4499995708
 21
9.3000000134
  0
LWPOLYLINE
  5
333
100
AcDbEntity
  8
CURVE
100
AcDbPolyline
 62
250
  6
CONTINUOUS
 90
13
 70
0
 10
-16.2817903747
 20
-14.0525605109
 10
-16.2999998569
 20
-14.088461428
 10
-16.3123933227
 20
-14.1132651216
 10
-16.3246439767
 20
-14.1381406541
 10
-16.3367324393
 20
-14.1630951727
 10
-16.3486393309
 20
-14.1881358244
 10
-16.3603452718
 20
-14.2132697564
 10
-16.3718308824
 20
-14.2385041158
 10
-16.3830767831
 20
-14.2638460498
 10
-16.3920140639
 20
-14.2844967774
 10
-16.4007697099
 20
-14.3052251317
 10
-16.409332739
 20
-14.3260331766
 10
-16.417692169
 20
-14.3469229759
  0
LWPOLYLINE
  5
334
100
AcDbEntity
  8
CURVE
100
AcDbPolyline
 62
250
  6
CONTINUOUS
 90
3
 70
0
 10
-16.2261537004
 20
-13.9453844997
 10
-16.2448119973
 20
-13.9810511975
 10
-16.2817903747
 20
-14.0525605109
  0
LINE
  5
335
100
AcDbEntity
  8
CURVE
100
AcDbLine
 62
250
  6
CONTINUOUS
 10
-18.4392307046
 20
-13.4053844799
 11
-18.4680120543
 21
-13.4499945998
  0
LWPOLYLINE
  5
336
100
AcDbEntity
  8
CURVE
100
AcDbPolyline
 62
250
  6
CONTINUOUS
 90
15
 70
0
 10
-18.6136455955
 20
-13.6720315309
 10
-18.6425112285
 20
-13.716598435
 10
-18.6710876917
 20
-13.7613392622
 10
-18.6992883518
 20
-13.8063057629
 10
-18.7270265752
 20
-13.8515496871
 10
-18.7542157287
 20
-13.8971227852
 10
-18.7807691787
 20
-13.9430768073
 10
-18.8005556477
 20
-13.9784418026
 10
-18.8198745542
 20
-14.0140693389
 10
-18.8386792352
 20
-14.0499698414
 10
-18.8569230277
 20
-14.0861537356
 10
-18.8737693391
 20
-14.1209019478
 10
-18.8901666151
 20
-14.1558657748
 10
-18.9062176587
 20
-14.190993958
 10
-18.9220252731
 20
-14.2262352385
  0
LWPOLYLINE
  5
337
100
AcDbEntity
  8
CURVE
100
AcDbPolyline
 62
250
  6
CONTINUOUS
 90
3
 70
0
 10
-18.4680120543
 20
-13.4499945998
 10
-18.5261800124
 20
-13.5388568552
 10
-18.6136455955
 20
-13.6720315309
  0
LINE
  5
338
100
AcDbEntity
  8
CURVE
100
AcDbLine
 62
250
  6
CONTINUOUS
 10
-4.4499995708
 20
9.3000000134
 11
-4.7500004292
 21
9.0
  0
LINE
  5
339
100
AcDbEntity
  8
CURVE
100
AcDbLine
 62
250
  6
CONTINUOUS
 10
-1.9000002861
 20
9.6500000238
 11
-1.5499996185
 21
9.8000000149
  0
LINE
  5
33A
100
AcDbEntity
  8
CURVE
100
AcDbLine
 62
250
  6
CONTINUOUS
 10
-1.1500001431
 20
9.5000000015
 11
-0.7499996662
 21
9.6500000238
  0
LINE
  5
33B
100
AcDbEntity
  8
CURVE
100
AcDbLine
 62
250
  6
CONTINUOUS
 10
-17.2623075846
 20
-13.4053844799
 11
-17.4515383607
 21
-13.4492306353
  0
LWPOLYLINE
  5
33C
100
AcDbEntity
  8
CURVE
100
AcDbPolyline
 62
250
  6
CONTINUOUS
 90
42
 70
0
 10
-11.1930765927
 20
-10.5046151427
 10
-11.2076643439
 20
-10.5055999121
 10
-11.2222710783
 20
-10.5064052429
 10
-11.2368916211
 20
-10.5070025263
 10
-11.2515207974
 20
-10.5073631535
 10
-11.2661534322
 20
-10.5074585159
 10
-11.2807843507
 20
-10.5072600048
 10
-11.2954083779
 20
-10.5067390113
 10
-11.310020339
 20
-10.5058669269
 10
-11.3246150591
 20
-10.5046151427
 10
-11.3360656056
 20
-10.5033463302
 10
-11.3474878257
 20
-10.5018105101
 10
-11.3588672332
 20
-10.4999927748
 10
-11.3701893418
 20
-10.4978782166
 10
-11.3814396652
 20
-10.4954519279
 10
-11.3926037173
 20
-10.4926990013
 10
-11.4036670117
 20
-10.489604529
 10
-11.4146150624
 20
-10.4861536036
 10
-11.4256819541
 20
-10.4822482366
 10
-11.4366208696
 20
-10.4779888001
 10
-11.4474395379
 20
-10.4734096889
 10
-11.4581456878
 20
-10.4685452978
 10
-11.4687470482
 20
-10.4634300218
 10
-11.4792513479
 20
-10.4580982557
 10
-11.4896663158
 20
-10.4525843945
 10
-11.4999996809
 20
-10.4469228329
 10
-11.5133212429
 20
-10.4393820754
 10
-11.5265066975
 20
-10.4316339746
 10
-11.5395448255
 20
-10.4236627364
 10
-11.5524244074
 20
-10.4154525664
 10
-11.5651342241
 20
-10.4069876704
 10
-11.5776630561
 20
-10.398252254
 10
-11.5899996842
 20
-10.3892305231
 10
-11.6002487839
 20
-10.3813862759
 10
-11.6103393856
 20
-10.3733259776
 10
-11.6202577826
 20
-10.3650486107
 10
-11.6299902684
 20
-10.3565531575
 10
-11.6395231367
 20
-10.3478386004
 10
-11.6488426807
 20
-10.3389039218
 10
-11.6579351941
 20
-10.3297481043
 10
-11.6667869702
 20
-10.3203701301
 10
-11.6753843027
 20
-10.3107689817
  0
LWPOLYLINE
  5
33D
100
AcDbEntity
  8
CURVE
100
AcDbPolyline
 62
250
  6
CONTINUOUS
 90
57
 70
0
 10
10.2430726704
 20
-9.4728836679
 10
10.2056019211
 20
-9.4745589816
 10
10.1680536133
 20
-9.4768932356
 10
10.1304820334
 20
-9.4798734485
 10
10.0929414676
 20
-9.4834866384
 10
10.055486202
 20
-9.4877198236
 10
10.0181705228
 20
-9.4925600224
 10
9.9810487164
 20
-9.4979942532
 10
9.9441750688
 20
-9.5040095341
 10
9.9076038664
 20
-9.5105928836
 10
9.8713893953
 20
-9.5177313198
 10
9.8483427971
 20
-9.522609175
 10
9.8254360402
 20
-9.5277540064
 10
9.8026395177
 20
-9.5332092996
 10
9.7799236227
 20
-9.5390185399
 10
9.7572587486
 20
-9.5452252129
 10
9.7346152884
 20
-9.5518728039
 10
9.7119636353
 20
-9.5590047985
 10
9.6892741825
 20
-9.5666646822
 10
9.6665173232
 20
-9.5748959402
 10
9.6436634507
 20
-9.5837420582
 10
9.620682958
 20
-9.5932465216
 10
9.5975462383
 20
-9.6034528159
 10
9.5742236849
 20
-9.6144044264
 10
9.5624465914
 20
-9.6201931148
 10
9.5506401302
 20
-9.6261800682
 10
9.5388291758
 20
-9.6323649531
 10
9.5270386026
 20
-9.6387474359
 10
9.5152932849
 20
-9.645327183
 10
9.5036180971
 20
-9.6521038609
 10
9.4920379136
 20
-9.6590771361
 10
9.4805776088
 20
-9.6662466749
 10
9.4692620572
 20
-9.6736121438
 10
9.458116133
 20
-9.6811732092
 10
9.4471647107
 20
-9.6889295376
 10
9.4364326646
 20
-9.6968807954
 10
9.4259448692
 20
-9.705026649
 10
9.4157261988
 20
-9.7133667649
 10
9.4058015279
 20
-9.7219008095
 10
9.3961957308
 20
-9.7306284493
 10
9.3869336819
 20
-9.7395493506
 10
9.3780402556
 20
-9.7486631799
 10
9.3695403262
 20
-9.7579696036
 10
9.3614587683
 20
-9.7674682883
 10
9.3538204561
 20
-9.7771589002
 10
9.346650264
 20
-9.7870411059
 10
9.3399730665
 20
-9.7971145718
 10
9.333813738
 20
-9.8073789643
 10
9.3281971527
 20
-9.8178339498
 10
9.3231481852
 20
-9.8284791949
 10
9.3186917098
 20
-9.8393143659
 10
9.3148526008
 20
-9.8503391292
 10
9.3116557327
 20
-9.8615531513
 10
9.3091259799
 20
-9.8729560987
 10
9.3072882168
 20
-9.8845476377
 10
9.3061673176
 20
-9.8963274348
 10
9.305788157
 20
-9.9082951565
  0
LWPOLYLINE
  5
33E
100
AcDbEntity
  8
CURVE
100
AcDbPolyline
 62
250
  6
CONTINUOUS
 90
7
 70
0
 10
-14.5069228681
 20
-9.736153576
 10
-14.4850845826
 20
-9.7353581509
 10
-14.4632359779
 20
-9.7349252221
 10
-14.441378695
 20
-9.7348021758
 10
-14.4195143746
 20
-9.7349363986
 10
-14.3976446576
 20
-9.7352752768
 10
-14.3757711849
 20
-9.7357661968
  0
LINE
  5
33F
100
AcDbEntity
  8
CURVE
100
AcDbLine
 62
250
  6
CONTINUOUS
 10
9.090027
 20
-9.908295
 11
11.527934
 21
-9.908295
  0
LINE
  5
340
100
AcDbEntity
  8
CURVE
100
AcDbLine
 62
250
  6
CONTINUOUS
 10
-9.7807688486
 20
-9.7315381913
 11
-10.1315380922
 21
-9.7315381913
  0
LINE
  5
341
100
AcDbEntity
  8
CURVE
100
AcDbLine
 62
250
  6
CONTINUOUS
 10
9.618216
 20
-9.513677
 11
9.71759
 21
-9.513677
  0
LINE
  5
342
100
AcDbEntity
  8
CURVE
100
AcDbLine
 62
250
  6
CONTINUOUS
 10
-18.1969230035
 20
-9.0046150877
 11
-18.0930768458
 21
-9.0046150877
  0
LINE
  5
343
100
AcDbEntity
  8
CURVE
100
AcDbLine
 62
250
  6
CONTINUOUS
 10
-16.8538460311
 20
-9.0046150877
 11
-16.7430767963
 21
-9.0046150877
  0
LINE
  5
344
100
AcDbEntity
  8
CURVE
100
AcDbLine
 62
250
  6
CONTINUOUS
 10
-15.729999836
 20
-9.0046150877
 11
-15.6630767567
 21
-9.0046150877
  0
LINE
  5
345
100
AcDbEntity
  8
CURVE
100
AcDbLine
 62
250
  6
CONTINUOUS
 10
-14.5461536388
 20
-9.0046150877
 11
-14.0499997744
 21
-9.0046150877
  0
LINE
  5
346
100
AcDbEntity
  8
CURVE
100
AcDbLine
 62
250
  6
CONTINUOUS
 10
-10.1569227085
 20
-9.0046150877
 11
-9.6907688453
 21
-9.0046150877
  0
LINE
  5
347
100
AcDbEntity
  8
CURVE
100
AcDbLine
 62
250
  6
CONTINUOUS
 10
-8.1999995598
 20
-9.0046150877
 11
-8.1330764805
 21
-9.0046150877
  0
LINE
  5
348
100
AcDbEntity
  8
CURVE
100
AcDbLine
 62
250
  6
CONTINUOUS
 10
10.816076
 20
-9.638755
 11
10.243073
 21
-9.638197
  0
LINE
  5
349
100
AcDbEntity
  8
CURVE
100
AcDbLine
 62
250
  6
CONTINUOUS
 10
10.243073
 20
-9.420703
 11
10.816076
 21
-9.421261
  0
LWPOLYLINE
  5
34A
100
AcDbEntity
  8
CURVE
100
AcDbPolyline
 62
250
  6
CONTINUOUS
 90
25
 70
0
 10
-9.7807688486
 20
-9.7315381913
 10
-9.7696333334
 20
-9.7317936975
 10
-9.7584917123
 20
-9.7318748032
 10
-9.7473471295
 20
-9.7317806501
 10
-9.7362027292
 20
-9.7315103799
 10
-9.7250616556
 20
-9.7310631343
 10
-9.7139270531
 20
-9.730438055
 10
-9.7028020656
 20
-9.7296342838
 10
-9.6916898376
 20
-9.7286509624
 10
-9.6805935131
 20
-9.7274872325
 10
-9.6695162365
 20
-9.7261422358
 10
-9.6584611518
 20
-9.7246151141
 10
-9.6472040808
 20
-9.7228682384
 10
-9.6359767167
 20
-9.7209325465
 10
-9.6247823736
 20
-9.7188098356
 10
-9.6136243658
 20
-9.7165019027
 10
-9.6025060074
 20
-9.7140105449
 10
-9.5914306127
 20
-9.7113375593
 10
-9.5804014958
 20
-9.7084847429
 10
-9.5694219709
 20
-9.7054538929
 10
-9.5584953522
 20
-9.7022468063
 10
-9.5476249539
 20
-9.6988652802
 10
-9.5368140903
 20
-9.6953111117
 10
-9.5260660754
 20
-9.6915860979
 10
-9.5153842235
 20
-9.6876920358
  0
LWPOLYLINE
  5
34B
100
AcDbEntity
  8
RACCORDO
100
AcDbPolyline
 62
250
  6
CONTINUOUS
 90
19
 70
0
 10
16.8084583046
 20
-13.9739340088
 10
16.8756153854
 20
-13.9943161385
 10
16.9411259116
 20
-14.0150843278
 10
17.0047922492
 20
-14.0360970162
 10
17.0661990104
 20
-14.0571551734
 10
17.1254154348
 20
-14.0782183922
 10
17.1829668393
 20
-14.0993750615
 10
17.2387630136
 20
-14.1205048591
 10
17.292547234
 20
-14.1414775077
 10
17.3445464348
 20
-14.1623191182
 10
17.3946908797
 20
-14.182930371
 10
17.4426472508
 20
-14.2031108194
 10
17.4882170284
 20
-14.2227080432
 10
17.5312227118
 20
-14.241600181
 10
17.5714475112
 20
-14.2596171775
 10
17.6086533699
 20
-14.2765497291
 10
17.6426574896
 20
-14.2922525622
 10
17.6733164933
 20
-14.3066314087
 10
17.7004783497
 20
-14.3195741723
  0
LWPOLYLINE
  5
34C
100
AcDbEntity
  8
RACCORDO
100
AcDbPolyline
 62
250
  6
CONTINUOUS
 90
16
 70
0
 10
17.7004783497
 20
-14.3195741723
 10
17.7881386417
 20
-14.3491342946
 10
17.8720783137
 20
-14.3800178284
 10
17.952277693
 20
-14.4122700682
 10
18.0280072464
 20
-14.4458131785
 10
18.0999555989
 20
-14.4808111572
 10
18.1702378356
 20
-14.5176550875
 10
18.2390846102
 20
-14.5561923479
 10
18.3062405237
 20
-14.5966207237
 10
18.3731005863
 20
-14.6398394206
 10
18.4399339904
 20
-14.6858205413
 10
18.5064462755
 20
-14.7346301918
 10
18.5731850914
 20
-14.7873090744
 10
18.64031824
 20
-14.8442222559
 10
18.7076364408
 20
-14.9050553429
 10
18.7751161765
 20
-14.969834504
  0
LINE
  5
34D
100
AcDbEntity
  8
CURVE
100
AcDbLine
 62
250
  6
CONTINUOUS
 10
-3.9123070949
 20
-11.2130767071
 11
-3.2753839946
 21
-12.7130767622
  0
LINE
  5
34E
100
AcDbEntity
  8
CURVE
100
AcDbLine
 62
250
  6
CONTINUOUS
 10
-6.4576918036
 20
-12.7130767622
 11
-6.4576918036
 21
-11.2130767071
  0
LINE
  5
34F
100
AcDbEntity
  8
CURVE
100
AcDbLine
 62
250
  6
CONTINUOUS
 10
-6.2999995232
 20
9.0
 11
-6.2999995232
 21
10.05
  0
LINE
  5
350
100
AcDbEntity
  8
0
100
AcDbLine
 62
7
  6
CONTINUOUS
 10
-6.2
 20
3.65
 11
-6.2
 21
1.65
  0
LINE
  5
351
100
AcDbEntity
  8
0
100
AcDbLine
 62
7
  6
CONTINUOUS
 10
-6.2
 20
-1.65
 11
-6.2
 21
-3.65
  0
LINE
  5
352
100
AcDbEntity
  8
CURVE
100
AcDbLine
 62
250
  6
CONTINUOUS
 10
-6.0515379426
 20
-12.7130767622
 11
-6.0515379426
 21
-12.6853844535
  0
LINE
  5
353
100
AcDbEntity
  8
CURVE
100
AcDbLine
 62
250
  6
CONTINUOUS
 10
-5.3500001431
 20
9.6000000268
 11
-5.3500001431
 21
10.5000000358
  0
LINE
  5
354
100
AcDbEntity
  8
CURVE
100
AcDbLine
 62
250
  6
CONTINUOUS
 10
-5.0269225204
 20
-11.2453844006
 11
-5.0269225204
 21
-11.2107690148
  0
LWPOLYLINE
  5
355
100
AcDbEntity
  8
CURVE
100
AcDbPolyline
 62
250
  6
CONTINUOUS
 90
18
 70
0
 10
-7.5792303063
 20
-14.2038460476
 10
-7.5797188649
 20
-14.2150256064
 10
-7.579795145
 20
-14.226222065
 10
-7.5794800861
 20
-14.237425745
 10
-7.5787946278
 20
-14.248626968
 10
-7.5777597094
 20
-14.2598160555
 10
-7.5763962706
 20
-14.2709833291
 10
-7.5747252508
 20
-14.2821191105
 10
-7.5727675895
 20
-14.2932137211
 10
-7.5705442263
 20
-14.3042574826
 10
-7.5680761006
 20
-14.3152407165
 10
-7.5653841519
 20
-14.3261537444
 10
-7.5615175826
 20
-14.34046518
 10
-7.5573475955
 20
-14.3546591139
 10
-7.5529254088
 20
-14.3687576805
 10
-7.5483022409
 20
-14.3827830144
 10
-7.5435293098
 20
-14.3967572501
 10
-7.5288241204
 20
-14.438594713
  0
LINE
  5
356
100
AcDbEntity
  8
CURVE
100
AcDbLine
 62
250
  6
CONTINUOUS
 10
-9.3280229293
 20
-9.4621015618
 11
-9.3229972525
 21
-9.4357832908
  0
LWPOLYLINE
  5
357
100
AcDbEntity
  8
CURVE
100
AcDbPolyline
 62
250
  6
CONTINUOUS
 90
6
 70
0
 10
-7.9814188333
 20
-13.8400888482
 10
-7.9756622294
 20
-13.8109247746
 10
-7.9736713767
 20
-13.8012287547
 10
-7.9715778368
 20
-13.7915562206
 10
-7.9693415929
 20
-13.7819136624
 10
-7.9669226282
 20
-13.7723075702
  0
LINE
  5
358
100
AcDbEntity
  8
CURVE
100
AcDbLine
 62
250
  6
CONTINUOUS
 10
-3.0999997139
 20
9.0
 11
-2.5
 21
11.1
  0
LINE
  5
359
100
AcDbEntity
  8
CURVE
100
AcDbLine
 62
250
  6
CONTINUOUS
 10
-11.9730766213
 20
-12.7130767622
 11
-11.3823073689
 21
-11.2130767071
  0
LWPOLYLINE
  5
35A
100
AcDbEntity
  8
CURVE
100
AcDbPolyline
 62
250
  6
CONTINUOUS
 90
25
 70
0
 10
-10.500768875
 20
-11.6538459541
 10
-10.5060570962
 20
-11.6664513196
 10
-10.5111351028
 20
-11.6791484577
 10
-10.5160001384
 20
-11.6919335528
 10
-10.5206494468
 20
-11.7048027891
 10
-10.5250802719
 20
-11.7177523511
 10
-10.5292898573
 20
-11.730778423
 10
-10.533275447
 20
-11.7438771891
 10
-10.5370342845
 20
-11.7570448338
 10
-10.5405636139
 20
-11.7702775414
 10
-10.5438606787
 20
-11.7835714961
 10
-10.5469227229
 20
-11.7969228824
 10
-10.5496224122
 20
-11.8097078661
 10
-10.5521064264
 20
-11.8225373772
 10
-10.5543754237
 20
-11.8354071627
 10
-10.5564300621
 20
-11.8483129695
 10
-10.558271
 20
-11.8612505445
 10
-10.5598988954
 20
-11.8742156345
 10
-10.5613144065
 20
-11.8872039865
 10
-10.5625181916
 20
-11.9002113475
 10
-10.5635109088
 20
-11.9132334642
 10
-10.5642932162
 20
-11.9262660836
 10
-10.5648657721
 20
-11.9393049526
 10
-10.5652292347
 20
-11.9523458181
 10
-10.565384262
 20
-11.965384427
  0
LINE
  5
35B
100
AcDbEntity
  8
CURVE
100
AcDbLine
 62
250
  6
CONTINUOUS
 10
-11.7723073832
 20
-14.8799999186
 11
-11.1492304373
 21
-13.4076921723
  0
LINE
  5
35C
100
AcDbEntity
  8
CURVE
100
AcDbLine
 62
250
  6
CONTINUOUS
 10
-11.5646150679
 20
-9.1546150932
 11
-11.6176919929
 21
-9.2584612508
  0
LINE
  5
35D
100
AcDbEntity
  8
CURVE
100
AcDbLine
 62
250
  6
CONTINUOUS
 10
-14.4076920952
 20
-13.9453844997
 11
-14.3615382474
 21
-13.8576921888
  0
LINE
  5
35E
100
AcDbEntity
  8
CURVE
100
AcDbLine
 62
250
  6
CONTINUOUS
 10
-16.2261537004
 20
-13.9453844997
 11
-15.8846152263
 21
-13.4076921723
  0
LINE
  5
35F
100
AcDbEntity
  8
CURVE
100
AcDbLine
 62
250
  6
CONTINUOUS
 10
2.9999990463
 20
10.8000000179
 11
3.2999999046
 21
11.1
  0
LINE
  5
360
100
AcDbEntity
  8
RACCORDO
100
AcDbLine
 62
250
  6
CONTINUOUS
 10
-12.3029437252
 20
-4.8284271247
 11
-13.0100505063
 21
-5.5355339059
  0
LINE
  5
361
100
AcDbEntity
  8
CURVE
100
AcDbLine
 62
250
  6
CONTINUOUS
 10
1.9499990463
 20
9.0
 11
2.2499999046
 21
9.3000000134
  0
LWPOLYLINE
  5
362
100
AcDbEntity
  8
CURVE
100
AcDbPolyline
 62
250
  6
CONTINUOUS
 90
5
 70
0
 10
-14.0060627843
 20
-9.7174686486
 10
-13.9554397032
 20
-9.7069814054
 10
-13.9370078031
 20
-9.703345455
 10
-13.918533425
 20
-9.6999597184
 10
-13.8999997689
 20
-9.6969228054
  0
LINE
  5
363
100
AcDbEntity
  8
RACCORDO
100
AcDbLine
 62
7
  6
CONTINUOUS
 10
-9.4745166004
 20
-7.0
 11
9.4745166004
 21
-7.0
  0
LINE
  5
364
100
AcDbEntity
  8
RACCORDO
100
AcDbLine
 62
250
  6
CONTINUOUS
 10
-9.4745166004
 20
-6.0
 11
9.4745166004
 21
-6.0
  0
LINE
  5
365
100
AcDbEntity
  8
RACCORDO
100
AcDbLine
 62
250
  6
CONTINUOUS
 10
-12.3029437252
 20
4.8284271247
 11
-13.0100505063
 21
5.5355339059
  0
LWPOLYLINE
  5
366
100
AcDbEntity
  8
RACCORDO
100
AcDbPolyline
 62
250
  6
CONTINUOUS
 90
22
 70
0
 10
-20.1877427652
 20
16.3869437446
 10
-20.2019188248
 20
16.4039369421
 10
-20.2135434148
 20
16.4234580154
 10
-20.2226087367
 20
16.4455114616
 10
-20.2291168057
 20
16.4703162972
 10
-20.2330467125
 20
16.4976591672
 10
-20.2343569489
 20
16.5268932972
 10
-20.2329593609
 20
16.5580578837
 10
-20.2289232466
 20
16.5911101485
 10
-20.222448048
 20
16.6252771843
 10
-20.2134712369
 20
16.6605511811
 10
-20.2020416936
 20
16.6969290462
 10
-20.1885331657
 20
16.7336435799
 10
-20.1729323985
 20
16.7706302602
 10
-20.1552471321
 20
16.8079393043
 10
-20.1358899083
 20
16.8449765141
 10
-20.1147586622
 20
16.881823745
 10
-20.0919565922
 20
16.9183846824
 10
-20.0682121745
 20
16.9538016561
 10
-20.0437739317
 20
16.9877871482
 10
-20.0184052856
 20
17.0206205428
 10
-19.9921116162
 20
17.0522975684
  0
LINE
  5
367
100
AcDbEntity
  8
0
100
AcDbLine
 62
7
  6
CONTINUOUS
 10
-15.3179712522
 20
15.8670093579
 11
-16.6170093579
 21
18.1170093579
  0
LINE
  5
368
100
AcDbEntity
  8
CURVE
100
AcDbLine
 62
250
  6
CONTINUOUS
 10
-11.6499998927
 20
9.3000000134
 11
-11.8000000715
 21
9.6000000268
  0
LINE
  5
369
100
AcDbEntity
  8
CURVE
100
AcDbLine
 62
250
  6
CONTINUOUS
 10
-10.9
 20
10.8000000179
 11
-10.7500000715
 21
10.5000000358
  0
LWPOLYLINE
  5
36A
100
AcDbEntity
  8
RACCORDO
100
AcDbPolyline
 62
250
  6
CONTINUOUS
 90
19
 70
0
 10
-14.3195741723
 20
17.7004783497
 10
-14.3072643005
 20
17.6746427909
 10
-14.2936428959
 20
17.6456277584
 10
-14.2788081812
 20
17.6135662326
 10
-14.2628846853
 20
17.5787216899
 10
-14.2459696222
 20
17.5411299213
 10
-14.228079945
 20
17.5005362081
 10
-14.2092372418
 20
17.4569883125
 10
-14.1895673922
 20
17.410656403
 10
-14.1691916805
 20
17.3614113161
 10
-14.1481699192
 20
17.3093201736
 10
-14.1266137965
 20
17.2545734747
 10
-14.1047187685
 20
17.1972277565
 10
-14.0826077106
 20
17.1374137781
 10
-14.0603911199
 20
17.0753399544
 10
-14.0382610234
 20
17.011199832
 10
-14.0163810135
 20
16.9451970578
 10
-13.9948846033
 20
16.8775425703
 10
-13.9739340088
 20
16.8084583046
  0
LINE
  5
36B
100
AcDbEntity
  8
CURVE
100
AcDbLine
 62
250
  6
CONTINUOUS
 10
-0.1715377269
 20
-13.4076921723
 11
0.463077681
 21
-14.9076922273
  0
LINE
  5
36C
100
AcDbEntity
  8
CURVE
100
AcDbLine
 62
250
  6
CONTINUOUS
 10
-4.9207686703
 20
-14.4392306716
 11
-4.906922516
 21
-14.5499999065
  0
LWPOLYLINE
  5
36D
100
AcDbEntity
  8
CURVE
100
AcDbPolyline
 62
250
  6
CONTINUOUS
 90
7
 70
0
 10
-5.7101411056
 20
-13.8018362738
 10
-5.7067386882
 20
-13.8315257669
 10
-5.70583088
 20
-13.8399775563
 10
-5.7049895488
 20
-13.8484338246
 10
-5.704235892
 20
-13.856896225
 10
-5.703591107
 20
-13.8653664108
 10
-5.7030763913
 20
-13.8738460355
  0
LWPOLYLINE
  5
36E
100
AcDbEntity
  8
CURVE
100
AcDbPolyline
 62
250
  6
CONTINUOUS
 90
24
 70
0
 10
-2.3915378083
 20
-14.1599998922
 10
-2.3906676183
 20
-14.1771302367
 10
-2.3895125711
 20
-14.1942503823
 10
-2.3880717856
 20
-14.2113545728
 10
-2.3863443808
 20
-14.2284370521
 10
-2.3843294755
 20
-14.2454920641
 10
-2.3820261886
 20
-14.2625138525
 10
-2.379433639
 20
-14.2794966612
 10
-2.3765509457
 20
-14.296434734
 10
-2.3733772274
 20
-14.3133223149
 10
-2.3699116033
 20
-14.3301536476
 10
-2.366153192
 20
-14.3469229759
 10
-2.3622205884
 20
-14.3631525522
 10
-2.3580137792
 20
-14.3793136009
 10
-2.3535358254
 20
-14.3954015707
 10
-2.3487897882
 20
-14.41141191
 10
-2.3437787284
 20
-14.4273400675
 10
-2.3385057071
 20
-14.4431814915
 10
-2.3329737853
 20
-14.4589316307
 10
-2.3271860241
 20
-14.4745859336
 10
-2.3211454844
 20
-14.4901398486
 10
-2.3148552274
 20
-14.5055888244
 10
-2.3083183139
 20
-14.5209283094
 10
-2.301537805
 20
-14.5361537521
  0
LINE
  5
36F
100
AcDbEntity
  8
CURVE
100
AcDbLine
 62
250
  6
CONTINUOUS
 10
-4.3000001431
 20
10.5000000358
 11
-4.3000001431
 21
9.6000000268
  0
LINE
  5
370
100
AcDbEntity
  8
CURVE
100
AcDbLine
 62
250
  6
CONTINUOUS
 10
-3.824614784
 20
-14.9076922273
 11
-3.824614784
 21
-13.4076921723
  0
LINE
  5
371
100
AcDbEntity
  8
CURVE
100
AcDbLine
 62
250
  6
CONTINUOUS
 10
-3.73959
 20
16.382488
 11
-3.73959
 21
15.617488
  0
LINE
  5
372
100
AcDbEntity
  8
CURVE
100
AcDbLine
 62
250
  6
CONTINUOUS
 10
-3.22959
 20
18.537206
 11
-3.22959
 21
17.76668
  0
LINE
  5
373
100
AcDbEntity
  8
CURVE
100
AcDbLine
 62
250
  6
CONTINUOUS
 10
-3.22959
 20
14.233296
 11
-3.22959
 21
13.46277
  0
LINE
  5
374
100
AcDbEntity
  8
CURVE
100
AcDbLine
 62
250
  6
CONTINUOUS
 10
-2.7999993618
 20
-13.4076921723
 11
-2.7999993618
 21
-14.9076922273
  0
LWPOLYLINE
  5
375
100
AcDbEntity
  8
CURVE
100
AcDbPolyline
 62
250
  6
CONTINUOUS
 90
40
 70
0
 10
-6.1438456383
 20
-14.3469229759
 10
-6.1411746585
 20
-14.3242397531
 10
-6.138790638
 20
-14.3015160821
 10
-6.1367256216
 20
-14.2787571527
 10
-6.1350116544
 20
-14.2559681549
 10
-6.1336807813
 20
-14.2331542785
 10
-6.1327650473
 20
-14.2103207134
 10
-6.1322964973
 20
-14.1874726496
 10
-6.1323071763
 20
-14.1646152769
 10
-6.1327104764
 20
-14.1454020768
 10
-6.1334951428
 20
-14.1261985981
 10
-6.1346813661
 20
-14.107017472
 10
-6.1362893368
 20
-14.0878713298
 10
-6.1383392454
 20
-14.0687728026
 10
-6.1408512824
 20
-14.0497345217
 10
-6.1438456383
 20
-14.0307691182
 10
-6.1471940147
 20
-14.0125934179
 10
-6.1509765469
 20
-13.9945012546
 10
-6.155161814
 20
-13.976496941
 10
-6.1597183953
 20
-13.9585847902
 10
-6.1646148698
 20
-13.9407691149
 10
-6.1704454889
 20
-13.9210021225
 10
-6.1766360046
 20
-13.9013459863
 10
-6.183162107
 20
-13.8817860291
 10
-6.1899994861
 20
-13.8623075735
 10
-6.1947439517
 20
-13.8493263674
 10
-6.1996714943
 20
-13.8364117643
 10
-6.2048368512
 20
-13.8236004813
 10
-6.2102947595
 20
-13.8109292356
 10
-6.2160999566
 20
-13.7984347443
 10
-6.2223071796
 20
-13.7861537246
 10
-6.2290652766
 20
-13.7739189812
 10
-6.2362428826
 20
-13.7619173303
 10
-6.2437877745
 20
-13.7501234767
 10
-6.2516477293
 20
-13.7385121252
 10
-6.2597705241
 20
-13.7270579806
 10
-6.268103936
 20
-13.7157357477
 10
-6.2765957418
 20
-13.7045201312
 10
-6.2851937188
 20
-13.6933858361
 10
-6.3050306302
 20
-13.668020879
  0
LINE
  5
376
100
AcDbEntity
  8
CURVE
100
AcDbLine
 62
250
  6
CONTINUOUS
 10
-8.8346149677
 20
-10.5046151427
 11
-8.1999995598
 21
-9.0046150877
  0
LINE
  5
377
100
AcDbEntity
  8
CURVE
100
AcDbLine
 62
250
  6
CONTINUOUS
 10
-10.6599996501
 20
-14.9076922273
 11
-10.0230765498
 21
-13.4076921723
  0
LINE
  5
378
100
AcDbEntity
  8
CURVE
100
AcDbLine
 62
250
  6
CONTINUOUS
 10
-10.500768875
 20
-11.6538459541
 11
-10.4684611815
 21
-11.5823074899
  0
LINE
  5
379
100
AcDbEntity
  8
CURVE
100
AcDbLine
 62
250
  6
CONTINUOUS
 10
-9.3330765245
 20
-9.4915381825
 11
-9.3907688343
 21
-9.6092304945
  0
LINE
  5
37A
100
AcDbEntity
  8
CURVE
100
AcDbLine
 62
250
  6
CONTINUOUS
 10
-14.670769028
 20
-16.4423076682
 11
-14.1192305462
 21
-15.599999945
  0
LWPOLYLINE
  5
37B
100
AcDbEntity
  8
CURVE
100
AcDbPolyline
 62
250
  6
CONTINUOUS
 90
27
 70
0
 10
-18.2199999274
 20
-14.7830768381
 10
-18.2136801025
 20
-14.7759069091
 10
-18.2074847304
 20
-14.768621479
 10
-18.2014169998
 20
-14.7612229244
 10
-18.1954800992
 20
-14.7537136218
 10
-18.1896772172
 20
-14.7460959477
 10
-18.1840115424
 20
-14.7383722788
 10
-18.1784862634
 20
-14.7305449916
 10
-18.1731045688
 20
-14.7226164627
 10
-18.1678696473
 20
-14.7145890687
 10
-18.1627846874
 20
-14.7064651862
 10
-18.1578528776
 20
-14.6982471916
 10
-18.1530774067
 20
-14.6899374616
 10
-18.1484614632
 20
-14.6815383728
 10
-18.144186594
 20
-14.6734010865
 10
-18.140061552
 20
-14.6651872364
 10
-18.1360864794
 20
-14.6569002752
 10
-18.132261518
 20
-14.6485436554
 10
-18.12858681
 20
-14.6401208299
 10
-18.1250624973
 20
-14.6316352513
 10
-18.1216887219
 20
-14.6230903722
 10
-18.118465626
 20
-14.6144896453
 10
-18.1153933514
 20
-14.6058365234
 10
-18.1124720403
 20
-14.597134459
 10
-18.1097018347
 20
-14.5883869049
 10
-18.1070828765
 20
-14.5795973136
 10
-18.1046153078
 20
-14.570769138
  0
LINE
  5
37C
100
AcDbEntity
  8
CURVE
100
AcDbLine
 62
250
  6
CONTINUOUS
 10
3.7500001907
 20
9.3000000134
 11
3.4499993324
 21
9.0
  0
LINE
  5
37D
100
AcDbEntity
  8
RACCORDO
100
AcDbLine
 62
250
  6
CONTINUOUS
 10
-22.7674578792
 20
-17.7674578792
 11
-27.3178663494
 21
-22.3178663494
  0
LINE
  5
37E
100
AcDbEntity
  8
RACCORDO
100
AcDbLine
 62
250
  6
CONTINUOUS
 10
17.7674578792
 20
22.7674578792
 11
22.3178663494
 21
27.3178663494
  0
LINE
  5
37F
100
AcDbEntity
  8
CURVE
100
AcDbLine
 62
250
  6
CONTINUOUS
 10
6.8500003815
 20
11.1
 11
6.4000000954
 21
10.6499999642
  0
LINE
  5
380
100
AcDbEntity
  8
CURVE
100
AcDbLine
 62
250
  6
CONTINUOUS
 10
10.5500000067
 20
14.7000000179
 11
10.8500000045
 21
15.0
  0
LWPOLYLINE
  5
381
100
AcDbEntity
  8
CURVE
100
AcDbPolyline
 62
250
  6
CONTINUOUS
 90
27
 70
0
 10
-19.5399999758
 20
-14.806153762
 10
-19.5342389514
 20
-14.8006970086
 10
-19.5285701956
 20
-14.7951381184
 10
-19.5229964121
 20
-14.7894786399
 10
-19.5175203048
 20
-14.783720122
 10
-19.5121445774
 20
-14.7778641133
 10
-19.5068719339
 20
-14.7719121626
 10
-19.501705078
 20
-14.7658658184
 10
-19.4966467135
 20
-14.7597266297
 10
-19.4916995443
 20
-14.753496145
 10
-19.4868662742
 20
-14.747175913
 10
-19.4821496069
 20
-14.7407674825
 10
-19.4775522464
 20
-14.7342724022
 10
-19.4730768964
 20
-14.7276922207
 10
-19.4685082404
 20
-14.7206881527
 10
-19.4640778106
 20
-14.7135954719
 10
-19.4597861293
 20
-14.7064178201
 10
-19.4556337185
 20
-14.6991588393
 10
-19.4516211006
 20
-14.6918221716
 10
-19.4477487976
 20
-14.684411459
 10
-19.4440173317
 20
-14.6769303434
 10
-19.440427225
 20
-14.6693824669
 10
-19.4369789997
 20
-14.6617714715
 10
-19.4336731781
 20
-14.6541009991
 10
-19.4305102822
 20
-14.6463746917
 10
-19.4274908341
 20
-14.6385961914
 10
-19.4246153562
 20
-14.6307691402
  0
LINE
  5
382
100
AcDbEntity
  8
CURVE
100
AcDbLine
 62
250
  6
CONTINUOUS
 10
14.4500000715
 20
14.1000000536
 11
14.7000001192
 21
14.2499999821
  0
LINE
  5
383
100
AcDbEntity
  8
CURVE
100
AcDbLine
 62
250
  6
CONTINUOUS
 10
15.9499998569
 20
14.1000000536
 11
16.1999999046
 21
14.2499999821
  0
LINE
  5
384
100
AcDbEntity
  8
0
100
AcDbLine
 62
7
  6
CONTINUOUS
 10
-6.2
 20
-3.65
 11
-2.2
 21
-3.65
  0
LINE
  5
385
100
AcDbEntity
  8
0
100
AcDbLine
 62
7
  6
CONTINUOUS
 10
2.2
 20
-3.65
 11
6.2
 21
-3.65
  0
LINE
  5
386
100
AcDbEntity
  8
RACCORDO
100
AcDbLine
 62
250
  6
CONTINUOUS
 10
16.3869501436
 20
-20.187737473
 11
14.969834504
 21
-18.7751161765
  0
LINE
  5
387
100
AcDbEntity
  8
CURVE
100
AcDbLine
 62
250
  6
CONTINUOUS
 10
-14.05
 20
10.8000000179
 11
-14.3499999821
 21
11.1
  0
LINE
  5
388
100
AcDbEntity
  8
RACCORDO
100
AcDbLine
 62
7
  6
CONTINUOUS
 10
16.4406455424
 20
-19.6226260577
 11
15.0260191002
 21
-18.2079996156
  0
LINE
  5
389
100
AcDbEntity
  8
RACCORDO
100
AcDbLine
 62
7
  6
CONTINUOUS
 10
-18.2079996156
 20
15.0260191002
 11
-19.6226254538
 21
16.4406449384
  0
LINE
  5
38A
100
AcDbEntity
  8
RACCORDO
100
AcDbLine
 62
250
  6
CONTINUOUS
 10
-18.7751161765
 20
14.969834504
 11
-20.1877427652
 21
16.3869437446
  0
LWPOLYLINE
  5
38B
100
AcDbEntity
  8
RACCORDO
100
AcDbPolyline
 62
250
  6
CONTINUOUS
 90
22
 70
0
 10
-19.6226247912
 20
16.4406442758
 10
-19.6377797591
 20
16.4566632169
 10
-19.6520514633
 20
16.4735226759
 10
-19.6654469825
 20
16.491215574
 10
-19.6780908296
 20
16.5098510328
 10
-19.6898861077
 20
16.5292923147
 10
-19.7005254643
 20
16.549145869
 10
-19.7100307255
 20
16.5693552551
 10
-19.7184583624
 20
16.5898986163
 10
-19.725575027
 20
16.610412241
 10
-19.7314049571
 20
16.6308099593
 10
-19.7360322899
 20
16.6510695659
 10
-19.7393263005
 20
16.670910523
 10
-19.7413220461
 20
16.6902272224
 10
-19.742106209
 20
16.7090035327
 10
-19.7416276659
 20
16.7270909675
 10
-19.73989734
 20
16.7444542573
 10
-19.7370174716
 20
16.761015508
 10
-19.7330777964
 20
16.7765584135
 10
-19.7281481018
 20
16.7909709965
 10
-19.7222708077
 20
16.8042530269
 10
-19.7154941109
 20
16.8163563081
  0
LINE
  5
38C
100
AcDbEntity
  8
CURVE
100
AcDbLine
 62
250
  6
CONTINUOUS
 10
2.1476931274
 20
-13.4076921723
 11
2.7315393027
 21
-14.9076922273
  0
LINE
  5
38D
100
AcDbEntity
  8
0
100
AcDbLine
 62
7
  6
CONTINUOUS
 10
-2.2
 20
-3.65
 11
-2.2
 21
-1.65
  0
LINE
  5
38E
100
AcDbEntity
  8
0
100
AcDbLine
 62
7
  6
CONTINUOUS
 10
-2.2
 20
1.65
 11
-2.2
 21
3.65
  0
LINE
  5
38F
100
AcDbEntity
  8
CURVE
100
AcDbLine
 62
250
  6
CONTINUOUS
 10
-1.0784608371
 20
-12.7130767622
 11
-1.0784608371
 21
-11.2130767071
  0
LINE
  5
390
100
AcDbEntity
  8
CURVE
100
AcDbLine
 62
250
  6
CONTINUOUS
 10
-0.6746146684
 20
-12.3230767479
 11
-0.6746146684
 21
-12.2676921304
  0
LINE
  5
391
100
AcDbEntity
  8
RACCORDO
100
AcDbLine
 62
250
  6
CONTINUOUS
 10
0.0
 20
-21.8585247046
 11
0.0
 21
-27.5
  0
LINE
  5
392
100
AcDbEntity
  8
RACCORDO
100
AcDbLine
 62
250
  6
CONTINUOUS
 10
-0.0
 20
21.8585247046
 11
0.0
 21
27.5
  0
LINE
  5
393
100
AcDbEntity
  8
CURVE
100
AcDbLine
 62
250
  6
CONTINUOUS
 10
0.0430776656
 20
-11.2130767071
 11
0.0430776656
 21
-12.7130767622
  0
LWPOLYLINE
  5
394
100
AcDbEntity
  8
CURVE
100
AcDbPolyline
 62
250
  6
CONTINUOUS
 90
19
 70
0
 10
-4.906922516
 20
-14.5499999065
 10
-4.9087667623
 20
-14.5593350798
 10
-4.9107271227
 20
-14.5686480699
 10
-4.9128034888
 20
-14.5779371977
 10
-4.9149957525
 20
-14.5872007843
 10
-4.9173038055
 20
-14.5964371505
 10
-4.9197275398
 20
-14.6056446175
 10
-4.922266847
 20
-14.6148215062
 10
-4.924921619
 20
-14.6239661376
 10
-4.9276917475
 20
-14.6330768326
 10
-4.930771695
 20
-14.6427503412
 10
-4.9339815654
 20
-14.6523815406
 10
-4.9373202985
 20
-14.6619685996
 10
-4.940786834
 20
-14.6715096868
 10
-4.9443801117
 20
-14.6810029709
 10
-4.9480990715
 20
-14.6904466208
 10
-4.9519426531
 20
-14.6998388049
 10
-4.9559097964
 20
-14.7091776921
 10
-4.959999441
 20
-14.7184614511
  0
LWPOLYLINE
  5
395
100
AcDbEntity
  8
CURVE
100
AcDbPolyline
 62
250
  6
CONTINUOUS
 90
24
 70
0
 10
-5.7030763913
 20
-13.659230643
 10
-5.7047984332
 20
-13.664532693
 10
-5.706364076
 20
-13.6698859637
 10
-5.7077780438
 20
-13.6752856181
 10
-5.7090450604
 20
-13.6807268191
 10
-5.7101698497
 20
-13.6862047296
 10
-5.7111571358
 20
-13.6917145126
 10
-5.7120116423
 20
-13.697251331
 10
-5.7127380934
 20
-13.7028103476
 10
-5.7133412129
 20
-13.7083867254
 10
-5.7138257247
 20
-13.7139756274
 10
-5.7141963528
 20
-13.7195722164
 10
-5.714457821
 20
-13.7251716553
 10
-5.7146148533
 20
-13.7307691072
 10
-5.7146717041
 20
-13.7379107569
 10
-5.7145796579
 20
-13.7450421906
 10
-5.7143525322
 20
-13.7521643281
 10
-5.7140041447
 20
-13.7592780894
 10
-5.7135483129
 20
-13.7663843944
 10
-5.7129988544
 20
-13.7734841631
 10
-5.7123695868
 20
-13.7805783155
 10
-5.7116743278
 20
-13.7876677714
 10
-5.7109268949
 20
-13.7947534509
 10
-5.7101411056
 20
-13.8018362738
  0
LWPOLYLINE
  5
396
100
AcDbEntity
  8
CURVE
100
AcDbPolyline
 62
250
  6
CONTINUOUS
 90
13
 70
0
 10
-6.2153841024
 20
-14.5384614445
 10
-6.2100319637
 20
-14.522164006
 10
-6.2045599398
 20
-14.5059052574
 10
-6.1989683886
 20
-14.4896863669
 10
-6.1932576681
 20
-14.4735085026
 10
-6.1874281365
 20
-14.4573728326
 10
-6.1814801517
 20
-14.4412805252
 10
-6.1754140717
 20
-14.4252327484
 10
-6.1692302546
 20
-14.4092306705
 10
-6.1630525395
 20
-14.3935847549
 10
-6.156762303
 20
-14.3779844619
 10
-6.1503598882
 20
-14.3624303495
 10
-6.1438456383
 20
-14.3469229759
  0
LINE
  5
397
100
AcDbEntity
  8
CURVE
100
AcDbLine
 62
250
  6
CONTINUOUS
 10
-7.4823072258
 20
-13.7792306474
 11
-7.5653841519
 21
-13.9776921932
  0
LINE
  5
398
100
AcDbEntity
  8
CURVE
100
AcDbLine
 62
250
  6
CONTINUOUS
 10
2.8499996185
 20
10.5000000358
 11
2.9999990463
 21
10.8000000179
  0
LINE
  5
399
100
AcDbEntity
  8
CURVE
100
AcDbLine
 62
250
  6
CONTINUOUS
 10
3.8999996185
 20
9.6000000268
 11
3.7500001907
 21
9.3000000134
  0
LINE
  5
39A
100
AcDbEntity
  8
CURVE
100
AcDbLine
 62
250
  6
CONTINUOUS
 10
5.7000007629
 20
10.9000000119
 11
4.4999993324
 21
9.0500000009
  0
LINE
  5
39B
100
AcDbEntity
  8
CURVE
100
AcDbLine
 62
250
  6
CONTINUOUS
 10
-10.4684611815
 20
-11.5823074899
 11
-10.371538101
 21
-11.4392305616
  0
LWPOLYLINE
  5
39C
100
AcDbEntity
  8
CURVE
100
AcDbPolyline
 62
250
  6
CONTINUOUS
 90
34
 70
0
 10
-15.6630767567
 20
-14.7853845305
 10
-15.6555247943
 20
-14.7769838583
 10
-15.6481704612
 20
-14.7683979901
 10
-15.6410177785
 20
-14.7596333181
 10
-15.6340707677
 20
-14.7506962346
 10
-15.62733345
 20
-14.7415931315
 10
-15.6208098467
 20
-14.7323304011
 10
-15.6145039792
 20
-14.7229144356
 10
-15.6084198687
 20
-14.7133516271
 10
-15.6025615365
 20
-14.7036483678
 10
-15.596933004
 20
-14.6938110498
 10
-15.5915382925
 20
-14.6838460652
 10
-15.5866211674
 20
-14.6742419252
 10
-15.5819229055
 20
-14.6645319856
 10
-15.5774466125
 20
-14.6547204602
 10
-15.573195394
 20
-14.6448115629
 10
-15.5691723557
 20
-14.6348095074
 10
-15.5653806034
 20
-14.6247185078
 10
-15.5618232427
 20
-14.6145427777
 10
-15.5585033792
 20
-14.6042865311
 10
-15.5554241188
 20
-14.5939539818
 10
-15.5525885669
 20
-14.5835493436
 10
-15.5499998294
 20
-14.5730768304
 10
-15.5477911321
 20
-14.5631602919
 10
-15.5458065362
 20
-14.5531937703
 10
-15.5440486576
 20
-14.5431837003
 10
-15.5425201123
 20
-14.5331365171
 10
-15.5412235162
 20
-14.5230586554
 10
-15.5401614853
 20
-14.5129565503
 10
-15.5393366356
 20
-14.5028366367
 10
-15.538751583
 20
-14.4927053494
 10
-15.5384089435
 20
-14.4825691235
 10
-15.538311333
 20
-14.4724343939
 10
-15.5384613675
 20
-14.4623075956
  0
LWPOLYLINE
  5
39D
100
AcDbEntity
  8
CURVE
100
AcDbPolyline
 62
250
  6
CONTINUOUS
 90
8
 70
0
 10
-10.8746150426
 20
-10.3176920589
 10
-10.8877884949
 20
-10.3322027845
 10
-10.9010260015
 20
-10.3466553065
 10
-10.9143272599
 20
-10.3610492821
 10
-10.9276919676
 20
-10.3753843687
 10
-10.9422337998
 20
-10.3908388985
 10
-10.9568493042
 20
-10.4062236329
 10
-10.971538123
 20
-10.4215382166
  0
LINE
  5
39E
100
AcDbEntity
  8
CURVE
100
AcDbLine
 62
250
  6
CONTINUOUS
 10
7.9000003815
 20
10.8000000179
 11
8.1999992371
 21
11.1
  0
LINE
  5
39F
100
AcDbEntity
  8
CURVE
100
AcDbLine
 62
250
  6
CONTINUOUS
 10
6.8500003815
 20
9.0
 11
7.1499992371
 21
9.3000000134
  0
LINE
  5
3A0
100
AcDbEntity
  8
CURVE
100
AcDbLine
 62
250
  6
CONTINUOUS
 10
11.3000000089
 20
13.2000000134
 11
11.0000000268
 21
12.9
  0
LINE
  5
3A1
100
AcDbEntity
  8
CURVE
100
AcDbLine
 62
250
  6
CONTINUOUS
 10
8.6499995232
 20
9.3000000134
 11
8.3500006676
 21
9.0
  0
LINE
  5
3A2
100
AcDbEntity
  8
CURVE
100
AcDbLine
 62
250
  6
CONTINUOUS
 10
-17.0753845008
 20
-14.8730768414
 11
-16.9346152648
 21
-14.7369229902
  0
LINE
  5
3A3
100
AcDbEntity
  8
CURVE
100
AcDbLine
 62
250
  6
CONTINUOUS
 10
-17.4515383607
 20
-13.4492306353
 11
-17.5946152891
 21
-13.5830767941
  0
LWPOLYLINE
  5
3A4
100
AcDbEntity
  8
CURVE
100
AcDbPolyline
 62
250
  6
CONTINUOUS
 90
17
 70
0
 10
-11.4861535265
 20
-9.083076629
 10
-11.4914558432
 20
-9.0872227854
 10
-11.4967162889
 20
-9.0914232929
 10
-11.5019341534
 20
-9.09567766
 10
-11.5071087268
 20
-9.0999853955
 10
-11.512239299
 20
-9.1043460079
 10
-11.5173251599
 20
-9.1087590059
 10
-11.5223655994
 20
-9.1132238981
 10
-11.5273599076
 20
-9.1177401931
 10
-11.5323073744
 20
-9.1223073997
 10
-11.5370600123
 20
-9.126784782
 10
-11.5417675424
 20
-9.1313090519
 10
-11.5464295788
 20
-9.1358796775
 10
-11.5510457354
 20
-9.1404961265
 10
-11.5556156265
 20
-9.1451578668
 10
-11.5601388659
 20
-9.1498643664
 10
-11.5646150679
 20
-9.1546150932
  0
LWPOLYLINE
  5
3A5
100
AcDbEntity
  8
CURVE
100
AcDbPolyline
 62
250
  6
CONTINUOUS
 90
23
 70
0
 10
-13.8999997689
 20
-9.6969228054
 10
-13.8969186706
 20
-9.6946289239
 10
-13.8938025812
 20
-9.6923812101
 10
-13.8906521499
 20
-9.6901804309
 10
-13.8874680256
 20
-9.6880273535
 10
-13.8842508574
 20
-9.6859227446
 10
-13.8810012944
 20
-9.6838673713
 10
-13.8777199857
 20
-9.6818620007
 10
-13.8744075802
 20
-9.6799073995
 10
-13.8710647271
 20
-9.6780043349
 10
-13.8676920754
 20
-9.6761535738
 10
-13.8641802644
 20
-9.6742987453
 10
-13.8606386028
 20
-9.6725006875
 10
-13.8570682985
 20
-9.6707596258
 10
-13.8534705592
 20
-9.6690757851
 10
-13.8498465927
 20
-9.6674493906
 10
-13.8461976067
 20
-9.6658806676
 10
-13.8425248092
 20
-9.664369841
 10
-13.8388294078
 20
-9.662917136
 10
-13.8351126105
 20
-9.6615227777
 10
-13.8313756248
 20
-9.6601869914
 10
-13.8276196587
 20
-9.658910002
 10
-13.82384592
 20
-9.6576920347
  0
LWPOLYLINE
  5
3A6
100
AcDbEntity
  8
CURVE
100
AcDbPolyline
 62
250
  6
CONTINUOUS
 90
37
 70
0
 10
-13.82384592
 20
-9.6576920347
 10
-13.8168458138
 20
-9.652600842
 10
-13.809977132
 20
-9.6473259507
 10
-13.8032423598
 20
-9.6418749394
 10
-13.7966439825
 20
-9.6362553865
 10
-13.7901844854
 20
-9.6304748706
 10
-13.7838663535
 20
-9.6245409703
 10
-13.7776920721
 20
-9.618461264
 10
-13.7716634053
 20
-9.6122428933
 10
-13.7657792322
 20
-9.6058912509
 10
-13.7600377108
 20
-9.5994112927
 10
-13.7544369991
 20
-9.5928079743
 10
-13.748975255
 20
-9.5860862516
 10
-13.7436506364
 20
-9.5792510803
 10
-13.7384613015
 20
-9.5723074162
 10
-13.7347116695
 20
-9.5671026094
 10
-13.7310531509
 20
-9.561834603
 10
-13.7275038388
 20
-9.5564968542
 10
-13.724081826
 20
-9.5510828198
 10
-13.7208052054
 20
-9.545585957
 10
-13.7176920699
 20
-9.5399997227
 10
-13.7145344294
 20
-9.5338728227
 10
-13.7115775529
 20
-9.5276434922
 10
-13.7088111822
 20
-9.5213207682
 10
-13.7062250593
 20
-9.5149136878
 10
-13.703808926
 20
-9.5084312881
 10
-13.7015525243
 20
-9.5018826061
 10
-13.6994455959
 20
-9.4952766788
 10
-13.6974778828
 20
-9.4886225433
 10
-13.6956391267
 20
-9.4819292368
 10
-13.6939190697
 20
-9.4752057961
 10
-13.6923074536
 20
-9.4684612585
 10
-13.6901234347
 20
-9.4585733436
 10
-13.6881126511
 20
-9.448664534
 10
-13.6862382948
 20
-9.4387397351
 10
-13.6844635583
 20
-9.4288038522
 10
-13.6793689884
 20
-9.398978752
  0
LINE
  5
3A7
100
AcDbEntity
  8
0
100
AcDbLine
 62
7
  6
CONTINUOUS
 10
6.2
 20
-1.65
 11
2.2
 21
-1.65
  0
LINE
  5
3A8
100
AcDbEntity
  8
0
100
AcDbLine
 62
7
  6
CONTINUOUS
 10
-2.2
 20
-1.65
 11
-6.2
 21
-1.65
  0
LINE
  5
3A9
100
AcDbEntity
  8
RACCORDO
100
AcDbLine
 62
250
  6
CONTINUOUS
 10
21.8585247046
 20
-0.0
 11
27.5
 21
-0.0
  0
LINE
  5
3AA
100
AcDbEntity
  8
RACCORDO
100
AcDbLine
 62
250
  6
CONTINUOUS
 10
-21.8585247046
 20
0.0
 11
-27.5
 21
0.0
  0
LINE
  5
3AB
100
AcDbEntity
  8
RACCORDO
100
AcDbLine
 62
250
  6
CONTINUOUS
 10
19.7154941109
 20
-16.8163563081
 11
19.9921116162
 21
-17.0522975684
  0
LINE
  5
3AC
100
AcDbEntity
  8
RACCORDO
100
AcDbLine
 62
250
  6
CONTINUOUS
 10
-19.7154941109
 20
16.8163563081
 11
-19.9921116162
 21
17.0522975684
  0
LINE
  5
3AD
100
AcDbEntity
  8
RACCORDO
100
AcDbLine
 62
250
  6
CONTINUOUS
 10
16.8154205404
 20
-19.7145583433
 11
15.1674404565
 21
-18.0665782593
  0
LINE
  5
3AE
100
AcDbEntity
  8
RACCORDO
100
AcDbLine
 62
250
  6
CONTINUOUS
 10
-18.0665782593
 20
15.1674404565
 11
-19.7160315498
 21
16.8168937469
  0
LINE
  5
3AF
100
AcDbEntity
  8
CURVE
100
AcDbLine
 62
250
  6
CONTINUOUS
 10
-11.3500000358
 20
9.0
 11
-11.6499998927
 21
9.3000000134
  0
LINE
  5
3B0
100
AcDbEntity
  8
CURVE
100
AcDbLine
 62
250
  6
CONTINUOUS
 10
-12.4000000358
 20
10.8000000179
 11
-12.6999998927
 21
11.1
  0
LINE
  5
3B1
100
AcDbEntity
  8
CURVE
100
AcDbLine
 62
250
  6
CONTINUOUS
 10
-11.2000001073
 20
11.1
 11
-10.9
 21
10.8000000179
  0
LWPOLYLINE
  5
3B2
100
AcDbEntity
  8
RACCORDO
100
AcDbPolyline
 62
250
  6
CONTINUOUS
 90
13
 70
0
 10
14.969834504
 20
-18.7751161765
 10
14.8957633315
 20
-18.6976714755
 10
14.8262489555
 20
-18.6194934266
 10
14.7612513417
 20
-18.54061754
 10
14.7013728449
 20
-18.4620206633
 10
14.6459336776
 20
-18.3827873682
 10
14.5929667405
 20
-18.3001138378
 10
14.5418007498
 20
-18.214105907
 10
14.4930187609
 20
-18.1247129414
 10
14.4465011345
 20
-18.0289138472
 10
14.4021387633
 20
-17.925737128
 10
14.3598620347
 20
-17.8162440691
 10
14.3195741723
 20
-17.7004783497
  0
LINE
  5
3B3
100
AcDbEntity
  8
CURVE
100
AcDbLine
 62
250
  6
CONTINUOUS
 10
7.89987
 20
-9.023675
 11
12.631556
 21
-14.000961
  0
LWPOLYLINE
  5
3B4
100
AcDbEntity
  8
RACCORDO
100
AcDbPolyline
 62
250
  6
CONTINUOUS
 90
19
 70
0
 10
16.4406442792
 20
-19.6226247945
 10
16.463157852
 20
-19.6475563805
 10
16.4830609442
 20
-19.6746928407
 10
16.5001834048
 20
-19.7038021865
 10
16.5143788543
 20
-19.7346355634
 10
16.525525936
 20
-19.7669293777
 10
16.5335293536
 20
-19.80040755
 10
16.5383206862
 20
-19.8347838765
 10
16.5398589728
 20
-19.869764475
 10
16.5381310628
 20
-19.9050502977
 10
16.5331517278
 20
-19.9403396871
 10
16.5249635362
 20
-19.9753309553
 10
16.5136364885
 20
-20.0097249631
 10
16.4992674192
 20
-20.0432276772
 10
16.4819791691
 20
-20.075552684
 10
16.461919535
 20
-20.1064236378
 10
16.439260006
 20
-20.1355766241
 10
16.4141942977
 20
-20.1627624147
 10
16.3869366962
 20
-20.1877485992
  0
LINE
  5
3B5
100
AcDbEntity
  8
RACCORDO
100
AcDbLine
 62
250
  6
CONTINUOUS
 10
-17.0522975684
 20
19.9921116162
 11
-16.8163563081
 21
19.7154941109
  0
LINE
  5
3B6
100
AcDbEntity
  8
RACCORDO
100
AcDbLine
 62
250
  6
CONTINUOUS
 10
17.0522975684
 20
-19.9921116162
 11
16.8163563081
 21
-19.7154941109
  0
LINE
  5
3B7
100
AcDbEntity
  8
CURVE
100
AcDbLine
 62
250
  6
CONTINUOUS
 10
-5.1999997139
 20
9.3000000134
 11
-5.3500001431
 21
9.6000000268
  0
LINE
  5
3B8
100
AcDbEntity
  8
CURVE
100
AcDbLine
 62
250
  6
CONTINUOUS
 10
-3.7000004292
 20
11.1
 11
-3.0999997139
 21
9.0
  0
LINE
  5
3B9
100
AcDbEntity
  8
CURVE
100
AcDbLine
 62
250
  6
CONTINUOUS
 10
0.45
 20
13.45
 11
0.45
 21
18.55
  0
LINE
  5
3BA
100
AcDbEntity
  8
CURVE
100
AcDbLine
 62
250
  6
CONTINUOUS
 10
1.3500003338
 20
10.2000000536
 11
1.3500003338
 21
11.1
  0
LINE
  5
3BB
100
AcDbEntity
  8
CURVE
100
AcDbLine
 62
250
  6
CONTINUOUS
 10
1.725
 20
14.725
 11
1.725
 21
17.275
  0
LINE
  5
3BC
100
AcDbEntity
  8
0
100
AcDbLine
 62
7
  6
CONTINUOUS
 10
2.2
 20
3.65
 11
2.2
 21
1.65
  0
LINE
  5
3BD
100
AcDbEntity
  8
0
100
AcDbLine
 62
7
  6
CONTINUOUS
 10
2.2
 20
-1.65
 11
2.2
 21
-3.65
  0
LINE
  5
3BE
100
AcDbEntity
  8
CURVE
100
AcDbLine
 62
250
  6
CONTINUOUS
 10
2.2499999046
 20
9.3000000134
 11
2.2499999046
 21
9.9000000089
  0
LINE
  5
3BF
100
AcDbEntity
  8
CURVE
100
AcDbLine
 62
250
  6
CONTINUOUS
 10
2.8499996185
 20
9.6000000268
 11
2.8499996185
 21
10.5000000358
  0
LINE
  5
3C0
100
AcDbEntity
  8
CURVE
100
AcDbLine
 62
250
  6
CONTINUOUS
 10
-4.6138455821
 20
-12.7130767622
 11
-3.9792301743
 21
-11.2130767071
  0
LINE
  5
3C1
100
AcDbEntity
  8
CURVE
100
AcDbLine
 62
250
  6
CONTINUOUS
 10
6.4000000954
 20
10.6499999642
 11
6.0999992371
 21
10.05
  0
LINE
  5
3C2
100
AcDbEntity
  8
CURVE
100
AcDbLine
 62
250
  6
CONTINUOUS
 10
7.7500009537
 20
10.5000000358
 11
7.9000003815
 21
10.8000000179
  0
LINE
  5
3C3
100
AcDbEntity
  8
CURVE
100
AcDbLine
 62
250
  6
CONTINUOUS
 10
10.4
 20
14.4000000358
 11
10.5500000067
 21
14.7000000179
  0
LINE
  5
3C4
100
AcDbEntity
  8
CURVE
100
AcDbLine
 62
250
  6
CONTINUOUS
 10
-5.6499994663
 20
-13.5553844854
 11
-5.7030763913
 21
-13.659230643
  0
LINE
  5
3C5
100
AcDbEntity
  8
CURVE
100
AcDbLine
 62
250
  6
CONTINUOUS
 10
-6.0515379426
 20
-12.6853844535
 11
-5.0269225204
 21
-11.2453844006
  0
LINE
  5
3C6
100
AcDbEntity
  8
CURVE
100
AcDbLine
 62
250
  6
CONTINUOUS
 10
-7.3784610682
 20
-13.6430767963
 11
-7.4823072258
 21
-13.7792306474
  0
LINE
  5
3C7
100
AcDbEntity
  8
CURVE
100
AcDbLine
 62
250
  6
CONTINUOUS
 10
-9.353845756
 20
-12.5169229088
 11
-9.406922681
 21
-12.5746152186
  0
LINE
  5
3C8
100
AcDbEntity
  8
CURVE
100
AcDbLine
 62
250
  6
CONTINUOUS
 10
14.6
 20
12.9
 11
14.7499999285
 21
13.0500000067
  0
LINE
  5
3C9
100
AcDbEntity
  8
CURVE
100
AcDbLine
 62
250
  6
CONTINUOUS
 10
16.8499999285
 20
14.4000000358
 11
17.4500001431
 21
15.0
  0
LINE
  5
3CA
100
AcDbEntity
  8
CURVE
100
AcDbLine
 62
250
  6
CONTINUOUS
 10
16.0999997854
 20
12.9
 11
16.2500002146
 21
13.0500000067
  0
LINE
  5
3CB
100
AcDbEntity
  8
CURVE
100
AcDbLine
 62
250
  6
CONTINUOUS
 10
18.1999997854
 20
14.7000000179
 11
18.5000001431
 21
15.0
  0
LINE
  5
3CC
100
AcDbEntity
  8
CURVE
100
AcDbLine
 62
250
  6
CONTINUOUS
 10
14.3499998093
 20
10.8000000179
 11
14.6500006676
 21
11.1
  0
LWPOLYLINE
  5
3CD
100
AcDbEntity
  8
CURVE
100
AcDbPolyline
 62
250
  6
CONTINUOUS
 90
27
 70
0
 10
-14.4284613268
 20
-14.8084614544
 10
-14.4227003024
 20
-14.803004701
 10
-14.4170315465
 20
-14.7974458108
 10
-14.411457763
 20
-14.7917863323
 10
-14.4059816557
 20
-14.7860278144
 10
-14.4006059284
 20
-14.7801718057
 10
-14.3953332849
 20
-14.774219855
 10
-14.390166429
 20
-14.7681735108
 10
-14.3851080645
 20
-14.7620343221
 10
-14.3801608953
 20
-14.7558038374
 10
-14.3753276252
 20
-14.7494836054
 10
-14.3706109579
 20
-14.7430751749
 10
-14.3660135974
 20
-14.7365800945
 10
-14.3615382474
 20
-14.7299999131
 10
-14.3569695913
 20
-14.7229958451
 10
-14.3525391616
 20
-14.7159031643
 10
-14.3482474802
 20
-14.7087255125
 10
-14.3440950695
 20
-14.7014665317
 10
-14.3400824516
 20
-14.694129864
 10
-14.3362101486
 20
-14.6867191514
 10
-14.3324786826
 20
-14.6792380358
 10
-14.328888576
 20
-14.6716901593
 10
-14.3254403507
 20
-14.6640791639
 10
-14.322134529
 20
-14.6564086915
 10
-14.3189716331
 20
-14.6486823841
 10
-14.3159521851
 20
-14.6409038838
 10
-14.3130767071
 20
-14.6330768326
  0
LINE
  5
3CE
100
AcDbEntity
  8
CURVE
100
AcDbLine
 62
250
  6
CONTINUOUS
 10
-18.2199999274
 20
-14.7830768381
 11
-18.3123076231
 21
-14.8546153023
  0
LINE
  5
3CF
100
AcDbEntity
  8
CURVE
100
AcDbLine
 62
250
  6
CONTINUOUS
 10
-15.6630767567
 20
-14.7853845305
 11
-15.7553844524
 21
-14.8569229946
  0
LINE
  5
3D0
100
AcDbEntity
  8
0
100
AcDbLine
 62
7
  6
CONTINUOUS
 10
-6.2
 20
1.65
 11
-2.2
 21
1.65
  0
LINE
  5
3D1
100
AcDbEntity
  8
0
100
AcDbLine
 62
7
  6
CONTINUOUS
 10
2.2
 20
1.65
 11
6.2
 21
1.65
  0
LWPOLYLINE
  5
3D2
100
AcDbEntity
  8
CURVE
100
AcDbPolyline
 62
250
  6
CONTINUOUS
 90
36
 70
0
 10
11.503542891
 20
-9.7551124099
 10
11.4901079138
 20
-9.7419685682
 10
11.4762969087
 20
-9.72922623
 10
11.462124287
 20
-9.7168796974
 10
11.4476044602
 20
-9.7049232722
 10
11.4327518397
 20
-9.6933512565
 10
11.417580837
 20
-9.6821579522
 10
11.4021058634
 20
-9.6713376612
 10
11.3863413305
 20
-9.6608846854
 10
11.3703016496
 20
-9.6507933268
 10
11.3540012322
 20
-9.6410578873
 10
11.3374544897
 20
-9.6316726689
 10
11.3206758336
 20
-9.6226319734
 10
11.3036796753
 20
-9.6139301029
 10
11.2864804262
 20
-9.6055613593
 10
11.2690924979
 20
-9.5975200444
 10
11.2515303016
 20
-9.5898004604
 10
11.2338082489
 20
-9.5823969089
 10
11.2159407511
 20
-9.5753036921
 10
11.1979422198
 20
-9.5685151119
 10
11.1798270664
 20
-9.5620254701
 10
11.1616097022
 20
-9.5558290688
 10
11.1433045388
 20
-9.5499202099
 10
11.1249259875
 20
-9.5442931952
 10
11.1064884599
 20
-9.5389423268
 10
11.0880063672
 20
-9.5338619066
 10
11.0694941211
 20
-9.5290462365
 10
11.0509661329
 20
-9.5244896185
 10
11.032436814
 20
-9.5201863544
 10
11.0054102254
 20
-9.5143410803
 10
10.9784004564
 20
-9.5089615882
 10
10.9513964603
 20
-9.5039860721
 10
10.9243871904
 20
-9.4993527261
 10
10.8973615999
 20
-9.4949997442
 10
10.8703086422
 20
-9.4908653204
 10
10.8160764381
 20
-9.4830049238
  0
LINE
  5
3D3
100
AcDbEntity
  8
RACCORDO
100
AcDbLine
 62
250
  6
CONTINUOUS
 10
-16.3869501436
 20
20.187737473
 11
-14.969834504
 21
18.7751161765
  0
LINE
  5
3D4
100
AcDbEntity
  8
RACCORDO
100
AcDbLine
 62
250
  6
CONTINUOUS
 10
-16.8154207167
 20
19.7145585196
 11
-15.1674404565
 21
18.0665782593
  0
LINE
  5
3D5
100
AcDbEntity
  8
RACCORDO
100
AcDbLine
 62
250
  6
CONTINUOUS
 10
18.0665782593
 20
-15.1674404565
 11
19.7160314645
 21
-16.8168936616
  0
LINE
  5
3D6
100
AcDbEntity
  8
RACCORDO
100
AcDbLine
 62
7
  6
CONTINUOUS
 10
-16.4406455424
 20
19.6226260577
 11
-15.0260191002
 21
18.2079996156
  0
LINE
  5
3D7
100
AcDbEntity
  8
RACCORDO
100
AcDbLine
 62
7
  6
CONTINUOUS
 10
18.2079996156
 20
-15.0260191002
 11
19.6226254538
 21
-16.4406449384
  0
LINE
  5
3D8
100
AcDbEntity
  8
CURVE
100
AcDbLine
 62
250
  6
CONTINUOUS
 10
-7.6000000715
 20
10.8000000179
 11
-7.8999999285
 21
11.1
  0
LINE
  5
3D9
100
AcDbEntity
  8
CURVE
100
AcDbLine
 62
250
  6
CONTINUOUS
 10
-4.8999998569
 20
9.0
 11
-5.1999997139
 21
9.3000000134
  0
LINE
  5
3DA
100
AcDbEntity
  8
RACCORDO
100
AcDbLine
 62
250
  6
CONTINUOUS
 10
18.7751161765
 20
-14.969834504
 11
20.1877427652
 21
-16.3869437446
  0
LWPOLYLINE
  5
3DB
100
AcDbEntity
  8
RACCORDO
100
AcDbPolyline
 62
250
  6
CONTINUOUS
 90
13
 70
0
 10
-14.969834504
 20
18.7751161765
 10
-14.8957633315
 20
18.6976714755
 10
-14.8262489555
 20
18.6194934266
 10
-14.7612513417
 20
18.54061754
 10
-14.7013728449
 20
18.4620206633
 10
-14.6459336776
 20
18.3827873682
 10
-14.5929667405
 20
18.3001138378
 10
-14.5418007498
 20
18.214105907
 10
-14.4930187609
 20
18.1247129414
 10
-14.4465011345
 20
18.0289138472
 10
-14.4021387633
 20
17.925737128
 10
-14.3598620347
 20
17.8162440691
 10
-14.3195741723
 20
17.7004783497
  0
LWPOLYLINE
  5
3DC
100
AcDbEntity
  8
RACCORDO
100
AcDbPolyline
 62
250
  6
CONTINUOUS
 90
19
 70
0
 10
-16.4406442792
 20
19.6226247945
 10
-16.463157852
 20
19.6475563805
 10
-16.4830609442
 20
19.6746928407
 10
-16.5001834048
 20
19.7038021865
 10
-16.5143788543
 20
19.7346355634
 10
-16.525525936
 20
19.7669293777
 10
-16.5335293536
 20
19.80040755
 10
-16.5383206862
 20
19.8347838765
 10
-16.5398589728
 20
19.869764475
 10
-16.5381310628
 20
19.9050502977
 10
-16.5331517278
 20
19.9403396871
 10
-16.5249635362
 20
19.9753309553
 10
-16.5136364885
 20
20.0097249631
 10
-16.4992674192
 20
20.0432276772
 10
-16.4819791691
 20
20.075552684
 10
-16.461919535
 20
20.1064236378
 10
-16.439260006
 20
20.1355766241
 10
-16.4141942977
 20
20.1627624147
 10
-16.3869366962
 20
20.1877485992
  0
LINE
  5
3DD
100
AcDbEntity
  8
CURVE
100
AcDbLine
 62
250
  6
CONTINUOUS
 10
-4.4499995708
 20
10.8000000179
 11
-4.3000001431
 21
10.5000000358
  0
LINE
  5
3DE
100
AcDbEntity
  8
CURVE
100
AcDbLine
 62
250
  6
CONTINUOUS
 10
3.7700008792
 20
-13.4076921723
 11
3.7700008792
 21
-14.9076922273
  0
LINE
  5
3DF
100
AcDbEntity
  8
CURVE
100
AcDbLine
 62
250
  6
CONTINUOUS
 10
3.8999996185
 20
10.5000000358
 11
3.8999996185
 21
9.6000000268
  0
LINE
  5
3E0
100
AcDbEntity
  8
CURVE
100
AcDbLine
 62
250
  6
CONTINUOUS
 10
4.275
 20
17.275
 11
4.275
 21
14.725
  0
LINE
  5
3E1
100
AcDbEntity
  8
CURVE
100
AcDbLine
 62
250
  6
CONTINUOUS
 10
9.960125
 20
16.948035
 11
10.549377
 21
19.01278
  0
LINE
  5
3E2
100
AcDbEntity
  8
CURVE
100
AcDbLine
 62
250
  6
CONTINUOUS
 10
11.175092
 20
19.01278
 11
10.210888
 21
16.013141
  0
LWPOLYLINE
  5
3E3
100
AcDbEntity
  8
CURVE
100
AcDbPolyline
 62
250
  6
CONTINUOUS
 90
25
 70
0
 10
-2.3269224213
 20
-13.8484614192
 10
-2.3322106426
 20
-13.8610667847
 10
-2.3372886491
 20
-13.8737639228
 10
-2.3421536847
 20
-13.8865490179
 10
-2.3468029931
 20
-13.8994182543
 10
-2.3512338182
 20
-13.9123678162
 10
-2.3554434037
 20
-13.9253938881
 10
-2.3594289933
 20
-13.9384926542
 10
-2.3631878309
 20
-13.9516602989
 10
-2.3667171602
 20
-13.9648930065
 10
-2.3700142251
 20
-13.9781869613
 10
-2.3730762692
 20
-13.9915383475
 10
-2.3757759586
 20
-14.0043233312
 10
-2.3782599728
 20
-14.0171528423
 10
-2.38052897
 20
-14.0300226279
 10
-2.3825836085
 20
-14.0429284346
 10
-2.3844245463
 20
-14.0558660096
 10
-2.3860524417
 20
-14.0688310996
 10
-2.3874679529
 20
-14.0818194517
 10
-2.388671738
 20
-14.0948268126
 10
-2.3896644551
 20
-14.1078489293
 10
-2.3904467626
 20
-14.1208815487
 10
-2.3910193185
 20
-14.1339204177
 10
-2.391382781
 20
-14.1469612832
 10
-2.3915378083
 20
-14.1599998922
  0
LINE
  5
3E4
100
AcDbEntity
  8
CURVE
100
AcDbLine
 62
250
  6
CONTINUOUS
 10
-0.8730762142
 20
-14.9076922273
 11
-0.2384608063
 21
-13.4076921723
  0
LINE
  5
3E5
100
AcDbEntity
  8
CURVE
100
AcDbLine
 62
250
  6
CONTINUOUS
 10
-2.3269224213
 20
-13.8484614192
 11
-2.2946147278
 21
-13.776922955
  0
LINE
  5
3E6
100
AcDbEntity
  8
CURVE
100
AcDbLine
 62
250
  6
CONTINUOUS
 10
8.8000009537
 20
9.6000000268
 11
8.6499995232
 21
9.3000000134
  0
LINE
  5
3E7
100
AcDbEntity
  8
CURVE
100
AcDbLine
 62
250
  6
CONTINUOUS
 10
11.45
 20
13.5000000268
 11
11.3000000089
 21
13.2000000134
  0
LINE
  5
3E8
100
AcDbEntity
  8
CURVE
100
AcDbLine
 62
250
  6
CONTINUOUS
 10
11.9500009537
 20
10.5000000358
 11
11.0500003815
 21
9.0
  0
LWPOLYLINE
  5
3E9
100
AcDbEntity
  8
CURVE
100
AcDbPolyline
 62
250
  6
CONTINUOUS
 90
13
 70
0
 10
-6.3261533373
 20
-14.699999912
 10
-6.3158470573
 20
-14.6863796138
 10
-6.3056619386
 20
-14.6726673586
 10
-6.295598994
 20
-14.6588643574
 10
-6.2856592367
 20
-14.6449718209
 10
-6.2758436794
 20
-14.6309909601
 10
-6.2661533351
 20
-14.6169229858
 10
-6.2574262554
 20
-14.6040188645
 10
-6.2488046827
 20
-14.5910442969
 10
-6.240289149
 20
-14.578000277
 10
-6.2318801863
 20
-14.564887799
 10
-6.2235783268
 20
-14.5517078568
 10
-6.2153841024
 20
-14.5384614445
  0
LINE
  5
3EA
100
AcDbEntity
  8
RACCORDO
100
AcDbLine
 62
250
  6
CONTINUOUS
 10
-17.7674578792
 20
-22.7674578792
 11
-22.3178663494
 21
-27.3178663494
  0
LINE
  5
3EB
100
AcDbEntity
  8
RACCORDO
100
AcDbLine
 62
250
  6
CONTINUOUS
 10
22.7674578792
 20
17.7674578792
 11
27.3178663494
 21
22.3178663494
  0
LINE
  5
3EC
100
AcDbEntity
  8
CURVE
100
AcDbLine
 62
250
  6
CONTINUOUS
 10
19.6999995708
 20
14.4000000358
 11
20.3000002861
 21
15.0
  0
LINE
  5
3ED
100
AcDbEntity
  8
CURVE
100
AcDbLine
 62
250
  6
CONTINUOUS
 10
18.9500004292
 20
13.2000000134
 11
18.6500000715
 21
12.9
  0
LINE
  5
3EE
100
AcDbEntity
  8
CURVE
100
AcDbLine
 62
250
  6
CONTINUOUS
 10
15.1000009537
 20
9.3000000134
 11
14.8000000954
 21
9.0
  0
LINE
  5
3EF
100
AcDbEntity
  8
RACCORDO
100
AcDbLine
 62
250
  6
CONTINUOUS
 10
12.3029437252
 20
4.8284271247
 11
13.0100505063
 21
5.5355339059
  0
LINE
  5
3F0
100
AcDbEntity
  8
CURVE
100
AcDbLine
 62
250
  6
CONTINUOUS
 10
-9.3907688343
 20
-9.6092304945
 11
-9.5153842235
 21
-9.6876920358
  0
LWPOLYLINE
  5
3F1
100
AcDbEntity
  8
CURVE
100
AcDbPolyline
 62
250
  6
CONTINUOUS
 90
22
 70
0
 10
-10.971538123
 20
-10.4215382166
 10
-10.9825279683
 20
-10.4272521115
 10
-10.9935839561
 20
-10.4328401871
 10
-11.00470568
 20
-10.4382980242
 10
-11.0158927334
 20
-10.4436212034
 10
-11.0271447097
 20
-10.4488053051
 10
-11.0384612024
 20
-10.4538459101
 10
-11.0490909223
 20
-10.4584212194
 10
-11.0597765294
 20
-10.4628637003
 10
-11.0705179618
 20
-10.467169612
 10
-11.0813151572
 20
-10.4713352141
 10
-11.0921680538
 20
-10.4753567657
 10
-11.1030765894
 20
-10.4792305264
 10
-11.1129194296
 20
-10.4825800446
 10
-11.1228054283
 20
-10.4858043526
 10
-11.1327329277
 20
-10.4889004327
 10
-11.1427002697
 20
-10.4918652673
 10
-11.1527057964
 20
-10.4946958389
 10
-11.16274785
 20
-10.4973891298
 10
-11.1728247725
 20
-10.4999421224
 10
-11.1829349061
 20
-10.5023517993
 10
-11.1930765927
 20
-10.5046151427
  0
LINE
  5
3F2
100
AcDbEntity
  8
CURVE
100
AcDbLine
 62
250
  6
CONTINUOUS
 10
-11.3384612134
 20
-9.018461242
 11
-11.4861535265
 21
-9.083076629
  0
LINE
  5
3F3
100
AcDbEntity
  8
0
100
AcDbLine
 62
7
  6
CONTINUOUS
 10
6.2
 20
3.65
 11
2.2
 21
3.65
  0
LINE
  5
3F4
100
AcDbEntity
  8
0
100
AcDbLine
 62
7
  6
CONTINUOUS
 10
-2.2
 20
3.65
 11
-6.2
 21
3.65
  0
LINE
  5
3F5
100
AcDbEntity
  8
CURVE
100
AcDbLine
 62
250
  6
CONTINUOUS
 10
-4.7500004292
 20
11.1
 11
-4.4499995708
 21
10.8000000179
  0
LINE
  5
3F6
100
AcDbEntity
  8
RACCORDO
100
AcDbLine
 62
250
  6
CONTINUOUS
 10
12.3029437252
 20
-4.8284271247
 11
13.0100505063
 21
-5.5355339059
  0
LWPOLYLINE
  5
3F7
100
AcDbEntity
  8
RACCORDO
100
AcDbPolyline
 62
250
  6
CONTINUOUS
 90
22
 70
0
 10
19.6226247912
 20
-16.4406442758
 10
19.6377797591
 20
-16.4566632169
 10
19.6520514633
 20
-16.4735226759
 10
19.6654469825
 20
-16.491215574
 10
19.6780908296
 20
-16.5098510328
 10
19.6898861077
 20
-16.5292923147
 10
19.7005254643
 20
-16.549145869
 10
19.7100307255
 20
-16.5693552551
 10
19.7184583624
 20
-16.5898986163
 10
19.725575027
 20
-16.610412241
 10
19.7314049571
 20
-16.6308099593
 10
19.7360322899
 20
-16.6510695659
 10
19.7393263005
 20
-16.670910523
 10
19.7413220461
 20
-16.6902272224
 10
19.742106209
 20
-16.7090035327
 10
19.7416276659
 20
-16.7270909675
 10
19.73989734
 20
-16.7444542573
 10
19.7370174716
 20
-16.761015508
 10
19.7330777964
 20
-16.7765584135
 10
19.7281481018
 20
-16.7909709965
 10
19.7222708077
 20
-16.8042530269
 10
19.7154941109
 20
-16.8163563081
  0
LWPOLYLINE
  5
3F8
100
AcDbEntity
  8
RACCORDO
100
AcDbPolyline
 62
250
  6
CONTINUOUS
 90
22
 70
0
 10
20.1877427652
 20
-16.3869437446
 10
20.2019188248
 20
-16.4039369421
 10
20.2135434148
 20
-16.4234580154
 10
20.2226087367
 20
-16.4455114616
 10
20.2291168057
 20
-16.4703162972
 10
20.2330467125
 20
-16.4976591672
 10
20.2343569489
 20
-16.5268932972
 10
20.2329593609
 20
-16.5580578837
 10
20.2289232466
 20
-16.5911101485
 10
20.222448048
 20
-16.6252771843
 10
20.2134712369
 20
-16.6605511811
 10
20.2020416936
 20
-16.6969290462
 10
20.1885331657
 20
-16.7336435799
 10
20.1729323985
 20
-16.7706302602
 10
20.1552471321
 20
-16.8079393043
 10
20.1358899083
 20
-16.8449765141
 10
20.1147586622
 20
-16.881823745
 10
20.0919565922
 20
-16.9183846824
 10
20.0682121745
 20
-16.9538016561
 10
20.0437739317
 20
-16.9877871482
 10
20.0184052856
 20
-17.0206205428
 10
19.9921116162
 20
-17.0522975684
  0
LWPOLYLINE
  5
3F9
100
AcDbEntity
  8
RACCORDO
100
AcDbPolyline
 62
250
  6
CONTINUOUS
 90
19
 70
0
 10
14.3195741723
 20
-17.7004783497
 10
14.3072643005
 20
-17.6746427909
 10
14.2936428959
 20
-17.6456277584
 10
14.2788081812
 20
-17.6135662326
 10
14.2628846853
 20
-17.5787216899
 10
14.2459696222
 20
-17.5411299213
 10
14.228079945
 20
-17.5005362081
 10
14.2092372418
 20
-17.4569883125
 10
14.1895673922
 20
-17.410656403
 10
14.1691916805
 20
-17.3614113161
 10
14.1481699192
 20
-17.3093201736
 10
14.1266137965
 20
-17.2545734747
 10
14.1047187685
 20
-17.1972277565
 10
14.0826077106
 20
-17.1374137781
 10
14.0603911199
 20
-17.0753399544
 10
14.0382610234
 20
-17.011199832
 10
14.0163810135
 20
-16.9451970578
 10
13.9948846033
 20
-16.8775425703
 10
13.9739340088
 20
-16.8084583046
  0
LINE
  5
3FA
100
AcDbEntity
  8
CURVE
100
AcDbLine
 62
250
  6
CONTINUOUS
 10
5.55
 20
18.55
 11
5.55
 21
13.45
  0
LINE
  5
3FB
100
AcDbEntity
  8
CURVE
100
AcDbLine
 62
250
  6
CONTINUOUS
 10
6.0999992371
 20
10.05
 11
6.0999992371
 21
9.3000000134
  0
LINE
  5
3FC
100
AcDbEntity
  8
0
100
AcDbLine
 62
7
  6
CONTINUOUS
 10
6.2
 20
-3.65
 11
6.2
 21
-1.65
  0
LINE
  5
3FD
100
AcDbEntity
  8
0
100
AcDbLine
 62
7
  6
CONTINUOUS
 10
6.2
 20
1.65
 11
6.2
 21
3.65
  0
LINE
  5
3FE
100
AcDbEntity
  8
CURVE
100
AcDbLine
 62
250
  6
CONTINUOUS
 10
7.1499992371
 20
9.3000000134
 11
7.1499992371
 21
9.9000000089
  0
LINE
  5
3FF
100
AcDbEntity
  8
CURVE
100
AcDbLine
 62
250
  6
CONTINUOUS
 10
7.7500009537
 20
9.6000000268
 11
7.7500009537
 21
10.5000000358
  0
LINE
  5
400
100
AcDbEntity
  8
CURVE
100
AcDbLine
 62
250
  6
CONTINUOUS
 10
12.0499999642
 20
12.9
 11
12.6499999285
 21
15.0
  0
LINE
  5
401
100
AcDbEntity
  8
CURVE
100
AcDbLine
 62
250
  6
CONTINUOUS
 10
13.886673
 20
17.347371
 11
14.512816
 21
19.01278
  0
LINE
  5
402
100
AcDbEntity
  8
CURVE
100
AcDbLine
 62
250
  6
CONTINUOUS
 10
14.671646
 20
17.963683
 11
13.927163
 21
16.013141
  0
LINE
  5
403
100
AcDbEntity
  8
CURVE
100
AcDbLine
 62
250
  6
CONTINUOUS
 10
2.7707700733
 20
-14.9076922273
 11
3.3615393258
 21
-13.4076921723
  0
LINE
  5
404
100
AcDbEntity
  8
CURVE
100
AcDbLine
 62
250
  6
CONTINUOUS
 10
14.2000003815
 20
10.5000000358
 11
14.3499998093
 21
10.8000000179
  0
LINE
  5
405
100
AcDbEntity
  8
CURVE
100
AcDbLine
 62
250
  6
CONTINUOUS
 10
-0.6746146684
 20
-12.2676921304
 11
-0.0123069518
 21
-11.2130767071
  0
LWPOLYLINE
  5
406
100
AcDbEntity
  8
CURVE
100
AcDbPolyline
 62
250
  6
CONTINUOUS
 90
3
 70
0
 10
-2.2599922683
 20
-13.7238289241
 10
-2.28590824
 20
-13.7636959495
 10
-2.2946147278
 20
-13.776922955
  0
LWPOLYLINE
  5
407
100
AcDbEntity
  8
CURVE
100
AcDbPolyline
 62
250
  6
CONTINUOUS
 90
14
 70
0
 10
-4.959999441
 20
-14.7184614511
 10
-4.9670063425
 20
-14.726913816
 10
-4.9740964446
 20
-14.7352976691
 10
-4.981268996
 20
-14.743611996
 10
-4.9885232458
 20
-14.7518557829
 10
-4.9958584427
 20
-14.7600280154
 10
-5.0032738357
 20
-14.7681276794
 10
-5.0107686736
 20
-14.7761537609
 10
-5.0182728455
 20
-14.7840332069
 10
-5.0258534217
 20
-14.7918387185
 10
-5.0335095398
 20
-14.799569605
 10
-5.0412403374
 20
-14.8072251759
 10
-5.0490449521
 20
-14.8148047407
 10
-5.0569225215
 20
-14.8223076088
  0
LINE
  5
408
100
AcDbEntity
  8
CURVE
100
AcDbLine
 62
250
  6
CONTINUOUS
 10
17.6499992371
 20
9.0
 11
17.9500000954
 21
9.3000000134
  0
LINE
  5
409
100
AcDbEntity
  8
CURVE
100
AcDbLine
 62
250
  6
CONTINUOUS
 10
-7.2238456779
 20
-13.5138460223
 11
-7.3784610682
 21
-13.6430767963
  0
LINE
  5
40A
100
AcDbEntity
  8
CURVE
100
AcDbLine
 62
250
  6
CONTINUOUS
 10
-6.459999496
 20
-14.8107691468
 11
-6.4058949131
 21
-14.7656171224
  0
LWPOLYLINE
  5
40B
100
AcDbEntity
  8
CURVE
100
AcDbPolyline
 62
250
  6
CONTINUOUS
 90
3
 70
0
 10
-6.4058949131
 20
-14.7656171224
 10
-6.3515379536
 20
-14.7207691435
 10
-6.3261533373
 20
-14.699999912
  0
LWPOLYLINE
  5
40C
100
AcDbEntity
  8
CURVE
100
AcDbPolyline
 62
250
  6
CONTINUOUS
 90
33
 70
0
 10
-8.1169226337
 20
-14.0584614269
 10
-8.1092664821
 20
-14.0523312034
 10
-8.1017425178
 20
-14.0460336375
 10
-8.0943561382
 20
-14.0395717646
 10
-8.0871127403
 20
-14.03294862
 10
-8.0800177213
 20
-14.0261672387
 10
-8.0730764783
 20
-14.0192306562
 10
-8.0660959841
 20
-14.0119298419
 10
-8.0592876804
 20
-14.0044697453
 10
-8.052655034
 20
-13.99685238
 10
-8.0462015118
 20
-13.9890797596
 10
-8.0399305807
 20
-13.9811538978
 10
-8.0338457076
 20
-13.9730768084
 10
-8.0300883591
 20
-13.9678769438
 10
-8.0264252609
 20
-13.9626111283
 10
-8.0228744682
 20
-13.9572733998
 10
-8.0194540363
 20
-13.9518577961
 10
-8.0161820205
 20
-13.9463583552
 10
-8.0130764761
 20
-13.9407691149
 10
-8.0099300917
 20
-13.9346390602
 10
-8.0069864784
 20
-13.9284068661
 10
-8.0042339588
 20
-13.9220816829
 10
-8.0016608551
 20
-13.9156726609
 10
-7.9992554898
 20
-13.9091889505
 10
-7.9970061854
 20
-13.902639702
 10
-7.9949012642
 20
-13.8960340658
 10
-7.9929290486
 20
-13.8893811922
 10
-7.991077861
 20
-13.8826902316
 10
-7.989336024
 20
-13.8759703344
 10
-7.9876918597
 20
-13.8692306507
 10
-7.9854767759
 20
-13.8595300079
 10
-7.983399106
 20
-13.8498139104
 10
-7.9814188333
 20
-13.8400888482
  0
LINE
  5
40D
100
AcDbEntity
  8
CURVE
100
AcDbLine
 62
250
  6
CONTINUOUS
 10
-1.1153839154
 20
-11.2130767071
 11
-1.4592300818
 21
-11.4876921018
  0
LWPOLYLINE
  5
40E
100
AcDbEntity
  8
CURVE
100
AcDbPolyline
 62
250
  6
CONTINUOUS
 90
17
 70
0
 10
-5.571537925
 20
-13.4838460212
 10
-5.5768402417
 20
-13.4879921776
 10
-5.5821006873
 20
-13.4921926851
 10
-5.5873185518
 20
-13.4964470522
 10
-5.5924931252
 20
-13.5007547877
 10
-5.5976236974
 20
-13.5051154001
 10
-5.6027095583
 20
-13.5095283981
 10
-5.6077499979
 20
-13.5139932903
 10
-5.6127443061
 20
-13.5185095853
 10
-5.6176917728
 20
-13.5230767919
 10
-5.6224444107
 20
-13.5275541742
 10
-5.6271519408
 20
-13.5320784441
 10
-5.6318139772
 20
-13.5366490697
 10
-5.6364301339
 20
-13.5412655187
 10
-5.6410000249
 20
-13.545927259
 10
-5.6455232644
 20
-13.5506337586
 10
-5.6499994663
 20
-13.5553844854
  0
LWPOLYLINE
  5
40F
100
AcDbEntity
  8
CURVE
100
AcDbPolyline
 62
250
  6
CONTINUOUS
 90
17
 70
0
 10
-8.1953841751
 20
-14.0976921976
 10
-8.1908633324
 20
-14.0948955166
 10
-8.1863100502
 20
-14.0921511443
 10
-8.1817248839
 20
-14.0894595591
 10
-8.1771083885
 20
-14.0868212395
 10
-8.1724611195
 20
-14.0842366638
 10
-8.1677836321
 20
-14.0817063107
 10
-8.1630764816
 20
-14.0792306584
 10
-8.1580652089
 20
-14.0766717175
 10
-8.1530223633
 20
-14.0741748474
 10
-8.1479489475
 20
-14.0717403659
 10
-8.1428459643
 20
-14.0693685906
 10
-8.1377144165
 20
-14.0670598393
 10
-8.1325553068
 20
-14.0648144295
 10
-8.1273696379
 20
-14.0626326791
 10
-8.1221584127
 20
-14.0605149057
 10
-8.1169226337
 20
-14.0584614269
  0
LWPOLYLINE
  5
410
100
AcDbEntity
  8
CURVE
100
AcDbPolyline
 62
250
  6
CONTINUOUS
 90
6
 70
0
 10
-9.6284611507
 20
-12.6853844535
 10
-9.6187367298
 20
-12.6805956387
 10
-9.6089496
 20
-12.675934502
 10
-9.5991105529
 20
-12.6713829563
 10
-9.58923038
 20
-12.6669229143
 10
-9.5788390963
 20
-12.6623251378
  0
LWPOLYLINE
  5
411
100
AcDbEntity
  8
CURVE
100
AcDbPolyline
 62
250
  6
CONTINUOUS
 90
16
 70
0
 10
-9.5267149584
 20
-12.6397390638
 10
-9.516323068
 20
-12.6351408847
 10
-9.505964317
 20
-12.6304618755
 10
-9.4956482027
 20
-12.6256789612
 10
-9.4853842224
 20
-12.6207690665
 10
-9.4779486854
 20
-12.6171009319
 10
-9.4705527937
 20
-12.6133467343
 10
-9.4632035101
 20
-12.6094999834
 10
-9.4559077976
 20
-12.6055541888
 10
-9.448672619
 20
-12.6015028602
 10
-9.4415049372
 20
-12.5973395074
 10
-9.4344117151
 20
-12.59305764
 10
-9.4273999155
 20
-12.5886507677
 10
-9.4204765014
 20
-12.5841124003
 10
-9.4136484356
 20
-12.5794360474
 10
-9.406922681
 20
-12.5746152186
  0
LWPOLYLINE
  5
412
100
AcDbEntity
  8
CURVE
100
AcDbPolyline
 62
250
  6
CONTINUOUS
 90
4
 70
0
 10
-9.5788390963
 20
-12.6623251378
 10
-9.5579944932
 20
-12.653279372
 10
-9.5475601683
 20
-12.6487852323
 10
-9.5267149584
 20
-12.6397390638
  0
LWPOLYLINE
  5
413
100
AcDbEntity
  8
CURVE
100
AcDbPolyline
 62
250
  6
CONTINUOUS
 90
28
 70
0
 10
-10.0550328437
 20
-11.2497027857
 10
-10.0717914464
 20
-11.2558940867
 10
-10.0885036234
 20
-11.2622038578
 10
-10.1051557219
 20
-11.2686622446
 10
-10.1217340887
 20
-11.2752993928
 10
-10.1382250711
 20
-11.282145448
 10
-10.1546150162
 20
-11.2892305561
 10
-10.1679489931
 20
-11.2952303492
 10
-10.1811949701
 20
-11.3014256055
 10
-10.1943418311
 20
-11.3078313283
 10
-10.20737846
 20
-11.3144625207
 10
-10.2202937408
 20
-11.3213341858
 10
-10.2330765575
 20
-11.3284613268
 10
-10.2439080807
 20
-11.3347780242
 10
-10.2546227737
 20
-11.3412982623
 10
-10.2652090874
 20
-11.3480272511
 10
-10.2756554726
 20
-11.3549702007
 10
-10.2859503803
 20
-11.3621323212
 10
-10.2960822613
 20
-11.3695188227
 10
-10.3060395665
 20
-11.3771349152
 10
-10.3158107469
 20
-11.3849858088
 10
-10.3253842532
 20
-11.3930767137
 10
-10.3335329594
 20
-11.4003054957
 10
-10.341513157
 20
-11.4077195395
 10
-10.349314308
 20
-11.4153189565
 10
-10.3569258744
 20
-11.4231038582
 10
-10.3643373181
 20
-11.4310743561
 10
-10.371538101
 20
-11.4392305616
  0
LWPOLYLINE
  5
414
100
AcDbEntity
  8
CURVE
100
AcDbPolyline
 62
250
  6
CONTINUOUS
 90
3
 70
0
 10
-10.0046150107
 20
-11.2315382463
 10
-10.0214309729
 20
-11.2375550112
 10
-10.0550328437
 20
-11.2497027857
  0
LINE
  5
415
100
AcDbEntity
  8
RACCORDO
100
AcDbLine
 62
250
  6
CONTINUOUS
 10
9.4745166004
 20
6.0
 11
-9.4745166004
 21
6.0
  0
LINE
  5
416
100
AcDbEntity
  8
RACCORDO
100
AcDbLine
 62
7
  6
CONTINUOUS
 10
9.4745166004
 20
7.0
 11
-9.4745166004
 21
7.0
  0
LWPOLYLINE
  5
417
100
AcDbEntity
  8
RACCORDO
100
AcDbPolyline
 62
250
  6
CONTINUOUS
 90
16
 70
0
 10
-17.7004783497
 20
14.3195741723
 10
-17.7881386417
 20
14.3491342946
 10
-17.8720783137
 20
14.3800178284
 10
-17.952277693
 20
14.4122700682
 10
-18.0280072464
 20
14.4458131785
 10
-18.0999555989
 20
14.4808111572
 10
-18.1702378356
 20
14.5176550875
 10
-18.2390846102
 20
14.5561923479
 10
-18.3062405237
 20
14.5966207237
 10
-18.3731005863
 20
14.6398394206
 10
-18.4399339904
 20
14.6858205413
 10
-18.5064462755
 20
14.7346301918
 10
-18.5731850914
 20
14.7873090744
 10
-18.64031824
 20
14.8442222559
 10
-18.7076364408
 20
14.9050553429
 10
-18.7751161765
 20
14.969834504
  0
LINE
  5
418
100
AcDbEntity
  8
CURVE
100
AcDbLine
 62
250
  6
CONTINUOUS
 10
-1.5499996185
 20
9.8000000149
 11
-1.1500001431
 21
9.5000000015
  0
LINE
  5
419
100
AcDbEntity
  8
0
100
AcDbLine
 62
7
  6
CONTINUOUS
 10
17.9160474636
 20
-17.3670093579
 11
16.6170093579
 21
-15.1170093579
  0
LINE
  5
41A
100
AcDbEntity
  8
CURVE
100
AcDbLine
 62
250
  6
CONTINUOUS
 10
2.9999990463
 20
9.3000000134
 11
2.8499996185
 21
9.6000000268
  0
LINE
  5
41B
100
AcDbEntity
  8
CURVE
100
AcDbLine
 62
250
  6
CONTINUOUS
 10
9.331124
 20
-9.908295
 11
9.625174
 21
-13.270516
  0
LINE
  5
41C
100
AcDbEntity
  8
CURVE
100
AcDbLine
 62
250
  6
CONTINUOUS
 10
8.307638
 20
-16.1
 11
8.307638
 21
-15.080988
  0
LINE
  5
41D
100
AcDbEntity
  8
CURVE
100
AcDbLine
 62
250
  6
CONTINUOUS
 10
8.8000009537
 20
10.5000000358
 11
8.8000009537
 21
9.6000000268
  0
LINE
  5
41E
100
AcDbEntity
  8
CURVE
100
AcDbLine
 62
250
  6
CONTINUOUS
 10
9.4000006676
 20
9.0
 11
9.4000006676
 21
11.1
  0
LINE
  5
41F
100
AcDbEntity
  8
RACCORDO
100
AcDbLine
 62
250
  6
CONTINUOUS
 10
9.4745166004
 20
-6.0
 11
9.4745166004
 21
-7.0
  0
LINE
  5
420
100
AcDbEntity
  8
RACCORDO
100
AcDbLine
 62
250
  6
CONTINUOUS
 10
9.4745166004
 20
6.0
 11
9.4745166004
 21
7.0
  0
LINE
  5
421
100
AcDbEntity
  8
CURVE
100
AcDbLine
 62
250
  6
CONTINUOUS
 10
9.618216
 20
-9.908295
 11
9.618216
 21
-9.513677
  0
LINE
  5
422
100
AcDbEntity
  8
CURVE
100
AcDbLine
 62
250
  6
CONTINUOUS
 10
9.681883
 20
-13.466964
 11
9.681883
 21
-13.270516
  0
LINE
  5
423
100
AcDbEntity
  8
CURVE
100
AcDbLine
 62
250
  6
CONTINUOUS
 10
9.71759
 20
-9.513677
 11
9.71759
 21
-9.908295
  0
LINE
  5
424
100
AcDbEntity
  8
CURVE
100
AcDbLine
 62
250
  6
CONTINUOUS
 10
9.799503
 20
-13.270516
 11
9.799503
 21
-13.466964
  0
LINE
  5
425
100
AcDbEntity
  8
CURVE
100
AcDbLine
 62
250
  6
CONTINUOUS
 10
10.18807
 20
-10.951721
 11
10.18807
 21
-10.736085
  0
LINE
  5
426
100
AcDbEntity
  8
CURVE
100
AcDbLine
 62
250
  6
CONTINUOUS
 10
10.243073
 20
-9.638197
 11
10.243073
 21
-9.420703
  0
LINE
  5
427
100
AcDbEntity
  8
CURVE
100
AcDbLine
 62
250
  6
CONTINUOUS
 10
10.4
 20
13.5000000268
 11
10.4
 21
14.4000000358
  0
LINE
  5
428
100
AcDbEntity
  8
CURVE
100
AcDbLine
 62
250
  6
CONTINUOUS
 10
10.4500006676
 20
11.1
 11
10.4500006676
 21
9.0
  0
LINE
  5
429
100
AcDbEntity
  8
CURVE
100
AcDbLine
 62
250
  6
CONTINUOUS
 10
15.511143
 20
16.013141
 11
16.452021
 21
19.01278
  0
LINE
  5
42A
100
AcDbEntity
  8
CURVE
100
AcDbLine
 62
250
  6
CONTINUOUS
 10
15.2500003815
 20
9.6000000268
 11
15.1000009537
 21
9.3000000134
  0
LINE
  5
42B
100
AcDbEntity
  8
CURVE
100
AcDbLine
 62
250
  6
CONTINUOUS
 10
18.0499998569
 20
14.4000000358
 11
18.1999997854
 21
14.7000000179
  0
LINE
  5
42C
100
AcDbEntity
  8
CURVE
100
AcDbLine
 62
250
  6
CONTINUOUS
 10
16.1500009537
 20
9.2500000007
 11
16.2000007629
 21
9.3500000104
  0
LINE
  5
42D
100
AcDbEntity
  8
CURVE
100
AcDbLine
 62
250
  6
CONTINUOUS
 10
16.3500001907
 20
9.2000000037
 11
16.3000003815
 21
9.1000000019
  0
LINE
  5
42E
100
AcDbEntity
  8
CURVE
100
AcDbLine
 62
250
  6
CONTINUOUS
 10
-1.1799993024
 20
-14.7115383739
 11
-1.230768535
 21
-14.7692306837
  0
LINE
  5
42F
100
AcDbEntity
  8
CURVE
100
AcDbLine
 62
250
  6
CONTINUOUS
 10
-5.4215379195
 20
-13.4192306342
 11
-5.571537925
 21
-13.4838460212
  0
LINE
  5
430
100
AcDbEntity
  8
CURVE
100
AcDbLine
 62
250
  6
CONTINUOUS
 10
-7.0553841332
 20
-13.4492306353
 11
-7.2238456779
 21
-13.5138460223
  0
LINE
  5
431
100
AcDbEntity
  8
CURVE
100
AcDbLine
 62
250
  6
CONTINUOUS
 10
14.8000000954
 20
9.0
 11
14.6500006676
 21
9.0
  0
LINE
  5
432
100
AcDbEntity
  8
CURVE
100
AcDbLine
 62
250
  6
CONTINUOUS
 10
8.3500006676
 20
9.0
 11
8.1999992371
 21
9.0
  0
LINE
  5
433
100
AcDbEntity
  8
CURVE
100
AcDbLine
 62
250
  6
CONTINUOUS
 10
3.4499993324
 20
9.0
 11
3.2999999046
 21
9.0
  0
LINE
  5
434
100
AcDbEntity
  8
CURVE
100
AcDbLine
 62
250
  6
CONTINUOUS
 10
1.3500003338
 20
9.0
 11
1.9499990463
 21
9.0
  0
LINE
  5
435
100
AcDbEntity
  8
CURVE
100
AcDbLine
 62
250
  6
CONTINUOUS
 10
-4.7500004292
 20
9.0
 11
-4.8999998569
 21
9.0
  0
LINE
  5
436
100
AcDbEntity
  8
CURVE
100
AcDbLine
 62
250
  6
CONTINUOUS
 10
6.4000000954
 20
9.0
 11
6.8500003815
 21
9.0
  0
LINE
  5
437
100
AcDbEntity
  8
CURVE
100
AcDbLine
 62
250
  6
CONTINUOUS
 10
-7.6000000715
 20
9.0
 11
-8.6500000715
 21
9.0
  0
LINE
  5
438
100
AcDbEntity
  8
CURVE
100
AcDbLine
 62
250
  6
CONTINUOUS
 10
11.0500003815
 20
9.0
 11
11.9500009537
 21
9.0
  0
LINE
  5
439
100
AcDbEntity
  8
CURVE
100
AcDbLine
 62
250
  6
CONTINUOUS
 10
-11.2000001073
 20
9.0
 11
-11.3500000358
 21
9.0
  0
LINE
  5
43A
100
AcDbEntity
  8
CURVE
100
AcDbLine
 62
250
  6
CONTINUOUS
 10
-12.4000000358
 20
9.0
 11
-13.4500000358
 21
9.0
  0
LINE
  5
43B
100
AcDbEntity
  8
CURVE
100
AcDbLine
 62
250
  6
CONTINUOUS
 10
-14.05
 20
9.0
 11
-15.1
 21
9.0
  0
LINE
  5
43C
100
AcDbEntity
  8
CURVE
100
AcDbLine
 62
250
  6
CONTINUOUS
 10
17.0499995232
 20
9.0
 11
17.6499992371
 21
9.0
  0
LINE
  5
43D
100
AcDbEntity
  8
CURVE
100
AcDbLine
 62
250
  6
CONTINUOUS
 10
16.3000003815
 20
9.1000000019
 11
16.2000007629
 21
9.1000000019
  0
LINE
  5
43E
100
AcDbEntity
  8
CURVE
100
AcDbLine
 62
250
  6
CONTINUOUS
 10
16.2000007629
 20
9.3500000104
 11
16.3000003815
 21
9.3500000104
  0
LINE
  5
43F
100
AcDbEntity
  8
CURVE
100
AcDbLine
 62
250
  6
CONTINUOUS
 10
-5.9499998569
 20
9.4500000045
 11
-6.9999998569
 21
9.4500000045
  0
LINE
  5
440
100
AcDbEntity
  8
CURVE
100
AcDbLine
 62
250
  6
CONTINUOUS
 10
-10.1499998569
 20
9.7500000179
 11
-9.2499997854
 21
9.7500000179
  0
LINE
  5
441
100
AcDbEntity
  8
CURVE
100
AcDbLine
 62
250
  6
CONTINUOUS
 10
17.6499992371
 20
10.2000000536
 11
17.0499995232
 21
10.2000000536
  0
LINE
  5
442
100
AcDbEntity
  8
CURVE
100
AcDbLine
 62
250
  6
CONTINUOUS
 10
6.8500003815
 20
10.2000000536
 11
6.2000008583
 21
10.2000000536
  0
LINE
  5
443
100
AcDbEntity
  8
CURVE
100
AcDbLine
 62
250
  6
CONTINUOUS
 10
1.9499990463
 20
10.2000000536
 11
1.3500003338
 21
10.2000000536
  0
LINE
  5
444
100
AcDbEntity
  8
CURVE
100
AcDbLine
 62
250
  6
CONTINUOUS
 10
9.4000006676
 20
10.2000000536
 11
10.4500006676
 21
10.2000000536
  0
LINE
  5
445
100
AcDbEntity
  8
CURVE
100
AcDbLine
 62
250
  6
CONTINUOUS
 10
11.0500003815
 20
10.5000000358
 11
11.9500009537
 21
10.5000000358
  0
LWPOLYLINE
  5
446
100
AcDbEntity
  8
RACCORDO
100
AcDbPolyline
 62
250
  6
CONTINUOUS
 90
19
 70
0
 10
-16.8084583046
 20
13.9739340088
 10
-16.8756153854
 20
13.9943161385
 10
-16.9411259116
 20
14.0150843278
 10
-17.0047922492
 20
14.0360970162
 10
-17.0661990104
 20
14.0571551734
 10
-17.1254154348
 20
14.0782183922
 10
-17.1829668393
 20
14.0993750615
 10
-17.2387630136
 20
14.1205048591
 10
-17.292547234
 20
14.1414775077
 10
-17.3445464348
 20
14.1623191182
 10
-17.3946908797
 20
14.182930371
 10
-17.4426472508
 20
14.2031108194
 10
-17.4882170284
 20
14.2227080432
 10
-17.5312227118
 20
14.241600181
 10
-17.5714475112
 20
14.2596171775
 10
-17.6086533699
 20
14.2765497291
 10
-17.6426574896
 20
14.2922525622
 10
-17.6733164933
 20
14.3066314087
 10
-17.7004783497
 20
14.3195741723
  0
LINE
  5
447
100
AcDbEntity
  8
CURVE
100
AcDbLine
 62
250
  6
CONTINUOUS
 10
2.2499999046
 20
9.9000000089
 11
1.9499990463
 21
10.2000000536
  0
LINE
  5
448
100
AcDbEntity
  8
CURVE
100
AcDbLine
 62
250
  6
CONTINUOUS
 10
3.2999999046
 20
9.0
 11
2.9999990463
 21
9.3000000134
  0
LINE
  5
449
100
AcDbEntity
  8
CURVE
100
AcDbLine
 62
250
  6
CONTINUOUS
 10
3.4499993324
 20
11.1
 11
3.7500001907
 21
10.8000000179
  0
LINE
  5
44A
100
AcDbEntity
  8
CURVE
100
AcDbLine
 62
250
  6
CONTINUOUS
 10
3.7500001907
 20
10.8000000179
 11
3.8999996185
 21
10.5000000358
  0
LINE
  5
44B
100
AcDbEntity
  8
CURVE
100
AcDbLine
 62
250
  6
CONTINUOUS
 10
10.816076
 20
-9.421261
 11
10.816076
 21
-9.638755
  0
LINE
  5
44C
100
AcDbEntity
  8
CURVE
100
AcDbLine
 62
250
  6
CONTINUOUS
 10
11.01141
 20
-10.736085
 11
11.01141
 21
-10.951721
  0
LINE
  5
44D
100
AcDbEntity
  8
CURVE
100
AcDbLine
 62
250
  6
CONTINUOUS
 10
11.407455
 20
19.01296
 11
11.407455
 21
16.013141
  0
LINE
  5
44E
100
AcDbEntity
  8
CURVE
100
AcDbLine
 62
250
  6
CONTINUOUS
 10
11.45
 20
14.4000000358
 11
11.45
 21
13.5000000268
  0
LINE
  5
44F
100
AcDbEntity
  8
CURVE
100
AcDbLine
 62
250
  6
CONTINUOUS
 10
11.467887
 20
-10.643669
 11
11.467887
 21
-10.271205
  0
LINE
  5
450
100
AcDbEntity
  8
CURVE
100
AcDbLine
 62
250
  6
CONTINUOUS
 10
11.817947
 20
-10.271205
 11
11.817947
 21
-10.643669
  0
LINE
  5
451
100
AcDbEntity
  8
CURVE
100
AcDbLine
 62
250
  6
CONTINUOUS
 10
12.033597
 20
16.013141
 11
12.033597
 21
19.01296
  0
LINE
  5
452
100
AcDbEntity
  8
CURVE
100
AcDbLine
 62
250
  6
CONTINUOUS
 10
12.492362
 20
-15.080988
 11
12.492362
 21
-16.1
  0
LINE
  5
453
100
AcDbEntity
  8
CURVE
100
AcDbLine
 62
250
  6
CONTINUOUS
 10
13.104805
 20
17.971848
 11
12.969684
 21
16.013141
  0
LINE
  5
454
100
AcDbEntity
  8
CURVE
100
AcDbLine
 62
250
  6
CONTINUOUS
 10
12.37067
 20
16.013141
 11
12.641519
 21
19.01278
  0
LINE
  5
455
100
AcDbEntity
  8
CURVE
100
AcDbLine
 62
250
  6
CONTINUOUS
 10
11.280593
 20
-12.832372
 11
11.549839
 21
-9.935847
  0
LINE
  5
456
100
AcDbEntity
  8
CURVE
100
AcDbLine
 62
250
  6
CONTINUOUS
 10
16.743116
 20
18.188555
 11
16.431349
 21
17.075351
  0
LINE
  5
457
100
AcDbEntity
  8
CURVE
100
AcDbLine
 62
250
  6
CONTINUOUS
 10
16.303269
 20
16.611975
 11
16.130492
 21
16.013141
  0
LINE
  5
458
100
AcDbEntity
  8
CURVE
100
AcDbLine
 62
250
  6
CONTINUOUS
 10
19.0999998569
 20
13.5000000268
 11
18.9500004292
 21
13.2000000134
  0
LINE
  5
459
100
AcDbEntity
  8
RACCORDO
100
AcDbLine
 62
250
  6
CONTINUOUS
 10
16.5656854249
 20
0.5656854249
 11
17.2727922061
 21
1.2727922061
  0
LINE
  5
45A
100
AcDbEntity
  8
RACCORDO
100
AcDbLine
 62
250
  6
CONTINUOUS
 10
12.3029437252
 20
-4.8284271247
 11
16.5656854249
 21
-0.5656854249
  0
LINE
  5
45B
100
AcDbEntity
  8
RACCORDO
100
AcDbLine
 62
7
  6
CONTINUOUS
 10
13.0100505063
 20
-5.5355339059
 11
17.2727922061
 21
-1.2727922061
  0
LWPOLYLINE
  5
45C
100
AcDbEntity
  8
CURVE
100
AcDbPolyline
 62
250
  6
CONTINUOUS
 90
20
 70
0
 10
-5.0569225215
 20
-14.8223076088
 10
-5.0678839905
 20
-14.8280754904
 10
-5.0789275942
 20
-14.8336881361
 10
-5.0900494447
 20
-14.8391469929
 10
-5.1012456545
 20
-14.8444535081
 10
-5.1125123358
 20
-14.8496091288
 10
-5.1238456009
 20
-14.8546153023
 10
-5.134489925
 20
-14.8591583829
 10
-5.1451869277
 20
-14.8635741181
 10
-5.1559345722
 20
-14.8678643236
 10
-5.1667308216
 20
-14.8720308151
 10
-5.1775736391
 20
-14.8760754082
 10
-5.1884609878
 20
-14.8799999186
 10
-5.2011720558
 20
-14.8844140319
 10
-5.2139372822
 20
-14.8886709751
 10
-5.2267533871
 20
-14.8927734364
 10
-5.2396170904
 20
-14.8967241039
 10
-5.2525251123
 20
-14.9005256661
 10
-5.2654741725
 20
-14.9041808111
 10
-5.2784609911
 20
-14.9076922273
  0
LWPOLYLINE
  5
45D
100
AcDbEntity
  8
CURVE
100
AcDbPolyline
 62
250
  6
CONTINUOUS
 90
6
 70
0
 10
-1.4523070046
 20
-14.8799999186
 10
-1.4425825838
 20
-14.8752111038
 10
-1.432795454
 20
-14.8705499671
 10
-1.4229564068
 20
-14.8659984214
 10
-1.413076234
 20
-14.8615383794
 10
-1.4026849503
 20
-14.856940603
  0
LWPOLYLINE
  5
45E
100
AcDbEntity
  8
CURVE
100
AcDbPolyline
 62
250
  6
CONTINUOUS
 90
16
 70
0
 10
-1.3505608123
 20
-14.8343545289
 10
-1.3401689219
 20
-14.8297563498
 10
-1.3298101709
 20
-14.8250773407
 10
-1.3194940566
 20
-14.8202944263
 10
-1.3092300763
 20
-14.8153845316
 10
-1.3017945393
 20
-14.811716397
 10
-1.2943986476
 20
-14.8079621995
 10
-1.2870493641
 20
-14.8041154485
 10
-1.2797536516
 20
-14.8001696539
 10
-1.272518473
 20
-14.7961183254
 10
-1.2653507912
 20
-14.7919549725
 10
-1.258257569
 20
-14.7876731051
 10
-1.2512457695
 20
-14.7832662329
 10
-1.2443223554
 20
-14.7787278654
 10
-1.2374942896
 20
-14.7740515125
 10
-1.230768535
 20
-14.7692306837
  0
LWPOLYLINE
  5
45F
100
AcDbEntity
  8
CURVE
100
AcDbPolyline
 62
250
  6
CONTINUOUS
 90
4
 70
0
 10
-1.4026849503
 20
-14.856940603
 10
-1.3818403471
 20
-14.8478948371
 10
-1.3714060222
 20
-14.8434006974
 10
-1.3505608123
 20
-14.8343545289
  0
LWPOLYLINE
  5
460
100
AcDbEntity
  8
CURVE
100
AcDbPolyline
 62
250
  6
CONTINUOUS
 90
5
 70
0
 10
-6.5274856278
 20
-14.8350441948
 10
-6.510729461
 20
-14.8286426613
 10
-6.4939153903
 20
-14.8224170431
 10
-6.4770149054
 20
-14.8164362388
 10
-6.459999496
 20
-14.8107691468
  0
LWPOLYLINE
  5
461
100
AcDbEntity
  8
CURVE
100
AcDbPolyline
 62
250
  6
CONTINUOUS
 90
35
 70
0
 10
-1.830768557
 20
-13.4261537114
 10
-1.8497368901
 20
-13.432785329
 10
-1.8686768368
 20
-13.4395185794
 10
-1.8875713999
 20
-13.446385492
 10
-1.9064035824
 20
-13.4534180965
 10
-1.925156387
 20
-13.4606484221
 10
-1.9438128166
 20
-13.4681084985
 10
-1.9623558742
 20
-13.475830355
 10
-1.9807685625
 20
-13.4838460212
 10
-1.9967291982
 20
-13.4911117752
 10
-2.0125665523
 20
-13.4986468915
 10
-2.0282697427
 20
-13.5064722079
 10
-2.0438278872
 20
-13.5146085621
 10
-2.0592301038
 20
-13.5230767919
 10
-2.0701165977
 20
-13.5293353086
 10
-2.0808963768
 20
-13.5357886207
 10
-2.0915476672
 20
-13.54245192
 10
-2.1020486948
 20
-13.5493403979
 10
-2.1123776856
 20
-13.5564692464
 10
-2.1225128655
 20
-13.563853657
 10
-2.1324324605
 20
-13.5715088215
 10
-2.1421146965
 20
-13.5794499316
 10
-2.1515377995
 20
-13.5876921789
 10
-2.1608385445
 20
-13.5963911178
 10
-2.1698611477
 20
-13.6053865952
 10
-2.1786179939
 20
-13.6146479879
 10
-2.187121468
 20
-13.6241446728
 10
-2.195383955
 20
-13.6338460267
 10
-2.2053417991
 20
-13.6461508404
 10
-2.2149877956
 20
-13.6586925235
 10
-2.2243634361
 20
-13.6714389317
 10
-2.233510212
 20
-13.6843579204
 10
-2.242469615
 20
-13.697417345
 10
-2.2512831366
 20
-13.7105850611
 10
-2.2599922683
 20
-13.7238289241
  0
LINE
  5
462
100
AcDbEntity
  8
CURVE
100
AcDbLine
 62
250
  6
CONTINUOUS
 10
-11.3500000358
 20
11.1
 11
-11.2000001073
 21
11.1
  0
LINE
  5
463
100
AcDbEntity
  8
CURVE
100
AcDbLine
 62
250
  6
CONTINUOUS
 10
-4.8999998569
 20
11.1
 11
-4.7500004292
 21
11.1
  0
LINE
  5
464
100
AcDbEntity
  8
CURVE
100
AcDbLine
 62
250
  6
CONTINUOUS
 10
1.3500003338
 20
11.1
 11
2.2499999046
 21
11.1
  0
LINE
  5
465
100
AcDbEntity
  8
CURVE
100
AcDbLine
 62
250
  6
CONTINUOUS
 10
3.2999999046
 20
11.1
 11
3.4499993324
 21
11.1
  0
LINE
  5
466
100
AcDbEntity
  8
CURVE
100
AcDbLine
 62
250
  6
CONTINUOUS
 10
8.1999992371
 20
11.1
 11
8.3500006676
 21
11.1
  0
LINE
  5
467
100
AcDbEntity
  8
CURVE
100
AcDbLine
 62
250
  6
CONTINUOUS
 10
-7.8999999285
 20
11.1
 11
-8.3500002146
 21
11.1
  0
LINE
  5
468
100
AcDbEntity
  8
CURVE
100
AcDbLine
 62
250
  6
CONTINUOUS
 10
-12.6999998927
 20
11.1
 11
-13.1500000536
 21
11.1
  0
LINE
  5
469
100
AcDbEntity
  8
CURVE
100
AcDbLine
 62
250
  6
CONTINUOUS
 10
14.6500006676
 20
11.1
 11
14.8000000954
 21
11.1
  0
LINE
  5
46A
100
AcDbEntity
  8
CURVE
100
AcDbLine
 62
250
  6
CONTINUOUS
 10
-14.3499999821
 20
11.1
 11
-14.7999999866
 21
11.1
  0
LINE
  5
46B
100
AcDbEntity
  8
CURVE
100
AcDbLine
 62
250
  6
CONTINUOUS
 10
17.0499995232
 20
11.1
 11
17.9500000954
 21
11.1
  0
LINE
  5
46C
100
AcDbEntity
  8
CURVE
100
AcDbLine
 62
250
  6
CONTINUOUS
 10
18.6500000715
 20
12.9
 11
18.5000001431
 21
12.9
  0
LINE
  5
46D
100
AcDbEntity
  8
CURVE
100
AcDbLine
 62
250
  6
CONTINUOUS
 10
11.0000000268
 20
12.9
 11
10.8500000045
 21
12.9
  0
LINE
  5
46E
100
AcDbEntity
  8
CURVE
100
AcDbLine
 62
250
  6
CONTINUOUS
 10
13.8500001073
 20
12.9
 11
14.6
 21
12.9
  0
LINE
  5
46F
100
AcDbEntity
  8
CURVE
100
AcDbLine
 62
250
  6
CONTINUOUS
 10
15.3500001431
 20
12.9
 11
16.0999997854
 21
12.9
  0
LINE
  5
470
100
AcDbEntity
  8
CURVE
100
AcDbLine
 62
250
  6
CONTINUOUS
 10
6.0999992371
 20
9.3000000134
 11
6.4000000954
 21
9.0
  0
LINE
  5
471
100
AcDbEntity
  8
RACCORDO
100
AcDbLine
 62
250
  6
CONTINUOUS
 10
16.5656854249
 20
-0.5656854249
 11
17.2727922061
 21
-1.2727922061
  0
LINE
  5
472
100
AcDbEntity
  8
CURVE
100
AcDbLine
 62
250
  6
CONTINUOUS
 10
7.1499992371
 20
9.9000000089
 11
6.8500003815
 21
10.2000000536
  0
LINE
  5
473
100
AcDbEntity
  8
RACCORDO
100
AcDbLine
 62
250
  6
CONTINUOUS
 10
16.5656854249
 20
0.5656854249
 11
12.3029437252
 21
4.8284271247
  0
LINE
  5
474
100
AcDbEntity
  8
CURVE
100
AcDbLine
 62
250
  6
CONTINUOUS
 10
8.1999992371
 20
9.0
 11
7.9000003815
 21
9.3000000134
  0
LINE
  5
475
100
AcDbEntity
  8
RACCORDO
100
AcDbLine
 62
7
  6
CONTINUOUS
 10
17.2727922061
 20
1.2727922061
 11
13.0100505063
 21
5.5355339059
  0
LINE
  5
476
100
AcDbEntity
  8
CURVE
100
AcDbLine
 62
250
  6
CONTINUOUS
 10
7.9000003815
 20
9.3000000134
 11
7.7500009537
 21
9.6000000268
  0
LINE
  5
477
100
AcDbEntity
  8
CURVE
100
AcDbLine
 62
250
  6
CONTINUOUS
 10
8.6499995232
 20
10.8000000179
 11
8.8000009537
 21
10.5000000358
  0
LINE
  5
478
100
AcDbEntity
  8
CURVE
100
AcDbLine
 62
250
  6
CONTINUOUS
 10
14.800289
 20
16.013141
 11
14.671646
 21
17.963683
  0
LINE
  5
479
100
AcDbEntity
  8
CURVE
100
AcDbLine
 62
250
  6
CONTINUOUS
 10
14.2000003815
 20
9.6000000268
 11
14.2000003815
 21
10.5000000358
  0
LINE
  5
47A
100
AcDbEntity
  8
CURVE
100
AcDbLine
 62
250
  6
CONTINUOUS
 10
14.7000001192
 20
14.2499999821
 11
14.7000001192
 21
14.7000000179
  0
LINE
  5
47B
100
AcDbEntity
  8
CURVE
100
AcDbLine
 62
250
  6
CONTINUOUS
 10
14.7499999285
 20
13.0500000067
 11
14.7499999285
 21
13.8000000089
  0
LINE
  5
47C
100
AcDbEntity
  8
CURVE
100
AcDbLine
 62
250
  6
CONTINUOUS
 10
15.2500003815
 20
10.5000000358
 11
15.2500003815
 21
9.6000000268
  0
LINE
  5
47D
100
AcDbEntity
  8
CURVE
100
AcDbLine
 62
250
  6
CONTINUOUS
 10
18.9999980927
 20
9.0
 11
19.4500003815
 21
10.5000000358
  0
LINE
  5
47E
100
AcDbEntity
  8
CURVE
100
AcDbLine
 62
250
  6
CONTINUOUS
 10
8.024378
 20
-14.010278
 11
12.96101
 21
-9.0
  0
LWPOLYLINE
  5
47F
100
AcDbEntity
  8
CURVE
100
AcDbPolyline
 62
250
  6
CONTINUOUS
 90
73
 70
0
 10
19.7717495131
 20
17.4310707271
 10
19.7819662166
 20
17.4329460905
 10
19.7918826023
 20
17.4358207522
 10
19.801523773
 20
17.4395837876
 10
19.8109148312
 20
17.4441242722
 10
19.8200808797
 20
17.4493312812
 10
19.829047021
 20
17.4550938902
 10
19.8378383579
 20
17.4613011744
 10
19.8464799929
 20
17.4678422094
 10
19.8549970288
 20
17.4746060704
 10
19.8634145682
 20
17.4814818329
 10
19.8842678951
 20
17.4988627658
 10
19.9046224296
 20
17.5163385716
 10
19.9244511747
 20
17.5339979279
 10
19.9437271335
 20
17.5519295124
 10
19.9624233092
 20
17.5702220027
 10
19.9805127046
 20
17.5889640766
 10
19.9979683229
 20
17.6082444115
 10
20.0147631672
 20
17.6281516853
 10
20.0321322528
 20
17.6504298633
 10
20.0486857411
 20
17.6734816315
 10
20.0644102998
 20
17.6972458338
 10
20.079292597
 20
17.7216613139
 10
20.0933193006
 20
17.746666916
 10
20.1064770785
 20
17.7722014838
 10
20.1187525985
 20
17.7982038612
 10
20.1301325288
 20
17.8246128922
 10
20.140603537
 20
17.8513674206
 10
20.1501522913
 20
17.8784062904
 10
20.1587623239
 20
17.9056511974
 10
20.1664504469
 20
17.9331031663
 10
20.1732286486
 20
17.9607464768
 10
20.1791089171
 20
17.9885654083
 10
20.1841032404
 20
18.0165442403
 10
20.1882236069
 20
18.0446672523
 10
20.1918789965
 20
18.0769708813
 10
20.1944273264
 20
18.1094013758
 10
20.1958880401
 20
18.1419177181
 10
20.1962805814
 20
18.1744788905
 10
20.195624394
 20
18.2070438753
 10
20.1939389216
 20
18.2395716548
 10
20.1913140482
 20
18.2712131043
 10
20.1876936634
 20
18.3027417546
 10
20.1830423528
 20
18.334119176
 10
20.177324702
 20
18.3653069392
 10
20.1705052964
 20
18.3962666147
 10
20.1634089189
 20
18.4238691525
 10
20.1553868278
 20
18.4512227918
 10
20.1464321784
 20
18.478293988
 10
20.1365381261
 20
18.5050491971
 10
20.1256978263
 20
18.5314548746
 10
20.1128191588
 20
18.5597632648
 10
20.0988382505
 20
18.5875705838
 10
20.0837823566
 20
18.6148297383
 10
20.0676787322
 20
18.6414936347
 10
20.0505546324
 20
18.6675151795
 10
20.0324373126
 20
18.6928472792
 10
20.0133540277
 20
18.7174428403
 10
19.993332033
 20
18.7412547694
 10
19.9735851835
 20
18.762986252
 10
19.9530530173
 20
18.783959646
 10
19.9317632621
 20
18.8041578942
 10
19.9097436455
 20
18.8235639396
 10
19.8870218954
 20
18.8421607253
 10
19.8636257393
 20
18.8599311941
 10
19.8395829051
 20
18.8768582892
 10
19.8216644384
 20
18.88864567
 10
19.8034161223
 20
18.899911305
 10
19.7848369571
 20
18.9105905969
 10
19.7659259427
 20
18.9206189481
 10
19.7466820794
 20
18.9299317612
 10
19.7271043671
 20
18.9384644389
 10
19.7071918061
 20
18.9461523837
  0
LWPOLYLINE
  5
480
100
AcDbEntity
  8
CURVE
100
AcDbPolyline
 62
250
  6
CONTINUOUS
 90
22
 70
0
 10
18.7648292358
 20
18.5017614223
 10
18.786692281
 20
18.505416512
 10
18.8085819123
 20
18.508906067
 10
18.8305019273
 20
18.5122021244
 10
18.8524561237
 20
18.5152767213
 10
18.8744482992
 20
18.5181018951
 10
18.8964822513
 20
18.520649683
 10
18.9203130498
 20
18.5230619228
 10
18.9441895041
 20
18.5251183394
 10
18.9681041796
 20
18.5268188173
 10
18.9920496417
 20
18.5281632407
 10
19.0160184557
 20
18.5291514937
 10
19.0400031872
 20
18.5297834607
 10
19.0639964013
 20
18.5300590259
 10
19.0879906636
 20
18.5299780736
 10
19.1119785394
 20
18.5295404879
 10
19.1359525941
 20
18.5287461532
 10
19.159905393
 20
18.5275949536
 10
19.1838295016
 20
18.5260867735
 10
19.2077174852
 20
18.5242214971
 10
19.2315619092
 20
18.5219990086
 10
19.2553553391
 20
18.5194191923
  0
LINE
  5
481
100
AcDbEntity
  8
CURVE
100
AcDbLine
 62
250
  6
CONTINUOUS
 10
5.55
 20
13.45
 11
0.45
 21
13.45
  0
LINE
  5
482
100
AcDbEntity
  8
CURVE
100
AcDbLine
 62
250
  6
CONTINUOUS
 10
12.2499999523
 20
13.5000000268
 11
13.0499999046
 21
13.5000000268
  0
LINE
  5
483
100
AcDbEntity
  8
CURVE
100
AcDbLine
 62
250
  6
CONTINUOUS
 10
15.9499998569
 20
14.1000000536
 11
15.65
 21
14.1000000536
  0
LINE
  5
484
100
AcDbEntity
  8
CURVE
100
AcDbLine
 62
250
  6
CONTINUOUS
 10
14.4500000715
 20
14.1000000536
 11
14.1499999642
 21
14.1000000536
  0
LINE
  5
485
100
AcDbEntity
  8
CURVE
100
AcDbLine
 62
250
  6
CONTINUOUS
 10
4.275
 20
14.725
 11
1.725
 21
14.725
  0
LINE
  5
486
100
AcDbEntity
  8
CURVE
100
AcDbLine
 62
250
  6
CONTINUOUS
 10
15.9499998569
 20
15.0
 11
15.3500001431
 21
15.0
  0
LINE
  5
487
100
AcDbEntity
  8
CURVE
100
AcDbLine
 62
250
  6
CONTINUOUS
 10
14.4500000715
 20
15.0
 11
13.8500001073
 21
15.0
  0
LINE
  5
488
100
AcDbEntity
  8
CURVE
100
AcDbLine
 62
250
  6
CONTINUOUS
 10
10.8500000045
 20
15.0
 11
11.0000000268
 21
15.0
  0
LINE
  5
489
100
AcDbEntity
  8
CURVE
100
AcDbLine
 62
250
  6
CONTINUOUS
 10
18.5000001431
 20
15.0
 11
18.6500000715
 21
15.0
  0
LINE
  5
48A
100
AcDbEntity
  8
CURVE
100
AcDbLine
 62
250
  6
CONTINUOUS
 10
-3.73959
 20
15.617488
 11
-5.228126
 21
15.617488
  0
LINE
  5
48B
100
AcDbEntity
  8
0
100
AcDbLine
 62
7
  6
CONTINUOUS
 10
-17.9160474636
 20
15.8670093579
 11
-15.3179712522
 21
15.8670093579
  0
LINE
  5
48C
100
AcDbEntity
  8
CURVE
100
AcDbLine
 62
250
  6
CONTINUOUS
 10
8.3500006676
 20
11.1
 11
8.6499995232
 21
10.8000000179
  0
LINE
  5
48D
100
AcDbEntity
  8
CURVE
100
AcDbLine
 62
250
  6
CONTINUOUS
 10
10.5500000067
 20
13.2000000134
 11
10.4
 21
13.5000000268
  0
LINE
  5
48E
100
AcDbEntity
  8
CURVE
100
AcDbLine
 62
250
  6
CONTINUOUS
 10
9.6591
 20
16.013141
 11
8.708156
 21
19.01278
  0
LINE
  5
48F
100
AcDbEntity
  8
CURVE
100
AcDbLine
 62
250
  6
CONTINUOUS
 10
9.38834
 20
19.01278
 11
9.960125
 21
16.948035
  0
LINE
  5
490
100
AcDbEntity
  8
CURVE
100
AcDbLine
 62
250
  6
CONTINUOUS
 10
15.132322
 20
19.01278
 11
15.412822
 21
16.013141
  0
LINE
  5
491
100
AcDbEntity
  8
CURVE
100
AcDbLine
 62
250
  6
CONTINUOUS
 10
16.1500009537
 20
9.2000000037
 11
16.1500009537
 21
9.2500000007
  0
LINE
  5
492
100
AcDbEntity
  8
CURVE
100
AcDbLine
 62
250
  6
CONTINUOUS
 10
16.1999999046
 20
14.2499999821
 11
16.1999999046
 21
14.7000000179
  0
LINE
  5
493
100
AcDbEntity
  8
CURVE
100
AcDbLine
 62
250
  6
CONTINUOUS
 10
16.2500002146
 20
13.0500000067
 11
16.2500002146
 21
13.8000000089
  0
LINE
  5
494
100
AcDbEntity
  8
CURVE
100
AcDbLine
 62
250
  6
CONTINUOUS
 10
16.3500001907
 20
9.2500000007
 11
16.3500001907
 21
9.2000000037
  0
LINE
  5
495
100
AcDbEntity
  8
CURVE
100
AcDbLine
 62
250
  6
CONTINUOUS
 10
17.0499995232
 20
10.2000000536
 11
17.0499995232
 21
11.1
  0
LINE
  5
496
100
AcDbEntity
  8
CURVE
100
AcDbLine
 62
250
  6
CONTINUOUS
 10
17.4500001431
 20
15.0
 11
17.4500001431
 21
12.9
  0
LINE
  5
497
100
AcDbEntity
  8
RACCORDO
100
AcDbLine
 62
250
  6
CONTINUOUS
 10
17.7674578792
 20
21.8585247046
 11
17.7674578792
 21
22.7674578792
  0
LINE
  5
498
100
AcDbEntity
  8
CURVE
100
AcDbLine
 62
250
  6
CONTINUOUS
 10
17.9500000954
 20
9.3000000134
 11
17.9500000954
 21
9.9000000089
  0
LINE
  5
499
100
AcDbEntity
  8
CURVE
100
AcDbLine
 62
250
  6
CONTINUOUS
 10
18.0499998569
 20
13.5000000268
 11
18.0499998569
 21
14.4000000358
  0
LINE
  5
49A
100
AcDbEntity
  8
CURVE
100
AcDbLine
 62
250
  6
CONTINUOUS
 10
18.1619682236
 20
18.977733924
 11
18.1619682236
 21
16.0131405467
  0
LINE
  5
49B
100
AcDbEntity
  8
RACCORDO
100
AcDbLine
 62
250
  6
CONTINUOUS
 10
16.8084583046
 20
-13.9739340089
 11
16.7795603504
 21
-14.3728887785
  0
LINE
  5
49C
100
AcDbEntity
  8
CURVE
100
AcDbLine
 62
250
  6
CONTINUOUS
 10
19.8999986649
 20
9.0
 11
20.3500009537
 21
11.1
  0
LINE
  5
49D
100
AcDbEntity
  8
RACCORDO
100
AcDbLine
 62
250
  6
CONTINUOUS
 10
-13.9739340089
 20
16.8084583046
 11
-14.3728887785
 21
16.7795603503
  0
LINE
  5
49E
100
AcDbEntity
  8
CURVE
100
AcDbLine
 62
250
  6
CONTINUOUS
 10
18.1619682236
 20
16.0131405467
 11
18.7855911743
 21
16.0131405467
  0
LINE
  5
49F
100
AcDbEntity
  8
CURVE
100
AcDbLine
 62
250
  6
CONTINUOUS
 10
19.7444418279
 20
16.0131405467
 11
20.3467179968
 21
16.0131405467
  0
LINE
  5
4A0
100
AcDbEntity
  8
CURVE
100
AcDbLine
 62
250
  6
CONTINUOUS
 10
17.978102
 20
16.013141
 11
17.318174
 21
16.013141
  0
LINE
  5
4A1
100
AcDbEntity
  8
CURVE
100
AcDbLine
 62
250
  6
CONTINUOUS
 10
16.130492
 20
16.013141
 11
15.511143
 21
16.013141
  0
LINE
  5
4A2
100
AcDbEntity
  8
CURVE
100
AcDbLine
 62
250
  6
CONTINUOUS
 10
15.412822
 20
16.013141
 11
14.800289
 21
16.013141
  0
LINE
  5
4A3
100
AcDbEntity
  8
CURVE
100
AcDbLine
 62
250
  6
CONTINUOUS
 10
13.927163
 20
16.013141
 11
13.839346
 21
16.013141
  0
LINE
  5
4A4
100
AcDbEntity
  8
CURVE
100
AcDbLine
 62
250
  6
CONTINUOUS
 10
12.969684
 20
16.013141
 11
12.37067
 21
16.013141
  0
LINE
  5
4A5
100
AcDbEntity
  8
CURVE
100
AcDbLine
 62
250
  6
CONTINUOUS
 10
10.210888
 20
16.013141
 11
9.6591
 21
16.013141
  0
LINE
  5
4A6
100
AcDbEntity
  8
CURVE
100
AcDbLine
 62
250
  6
CONTINUOUS
 10
11.407455
 20
16.013141
 11
12.033597
 21
16.013141
  0
LINE
  5
4A7
100
AcDbEntity
  8
CURVE
100
AcDbLine
 62
250
  6
CONTINUOUS
 10
-3.73959
 20
16.382488
 11
-5.228126
 21
16.382488
  0
LINE
  5
4A8
100
AcDbEntity
  8
CURVE
100
AcDbLine
 62
250
  6
CONTINUOUS
 10
17.15597
 20
16.611975
 11
16.303269
 21
16.611975
  0
LINE
  5
4A9
100
AcDbEntity
  8
CURVE
100
AcDbLine
 62
250
  6
CONTINUOUS
 10
16.431349
 20
17.075351
 11
17.030836
 21
17.075351
  0
LINE
  5
4AA
100
AcDbEntity
  8
CURVE
100
AcDbLine
 62
250
  6
CONTINUOUS
 10
18.7855911743
 20
17.1870335971
 11
19.1213137446
 21
17.1870335971
  0
LINE
  5
4AB
100
AcDbEntity
  8
CURVE
100
AcDbLine
 62
250
  6
CONTINUOUS
 10
1.725
 20
17.275
 11
4.275
 21
17.275
  0
LINE
  5
4AC
100
AcDbEntity
  8
CURVE
100
AcDbLine
 62
250
  6
CONTINUOUS
 10
19.1226633831
 20
17.6783020015
 11
18.7648292358
 21
17.6783020015
  0
LINE
  5
4AD
100
AcDbEntity
  8
RACCORDO
100
AcDbLine
 62
250
  6
CONTINUOUS
 10
21.8585247046
 20
17.7674578792
 11
22.7674578792
 21
17.7674578792
  0
LWPOLYLINE
  5
4AE
100
AcDbEntity
  8
CURVE
100
AcDbPolyline
 62
250
  6
CONTINUOUS
 90
48
 70
0
 10
19.1213137446
 20
17.1870335971
 10
19.1309545147
 20
17.186911193
 10
19.1406124021
 20
17.1865426455
 10
19.1502774846
 20
17.1859259519
 10
19.1599398397
 20
17.1850591093
 10
19.1695895451
 20
17.1839401152
 10
19.1792166784
 20
17.1825669667
 10
19.1888113173
 20
17.1809376611
 10
19.1983635393
 20
17.1790501957
 10
19.2078634222
 20
17.1769025677
 10
19.2173010434
 20
17.1744927743
 10
19.2266664808
 20
17.1718188129
 10
19.2359498118
 20
17.1688786807
 10
19.2451411141
 20
17.1656703749
 10
19.2542304653
 20
17.1621918928
 10
19.2632079432
 20
17.1584412317
 10
19.2720636252
 20
17.1544163888
 10
19.280787589
 20
17.1501153614
 10
19.2895880671
 20
17.1454177007
 10
19.2982375122
 20
17.1404365739
 10
19.3067338413
 20
17.1351810577
 10
19.3150749712
 20
17.1296602289
 10
19.3232588189
 20
17.1238831642
 10
19.3312833013
 20
17.1178589405
 10
19.3391463352
 20
17.1115966343
 10
19.3468458374
 20
17.1051053226
 10
19.354379725
 20
17.098394082
 10
19.3617459148
 20
17.0914719893
 10
19.3689423236
 20
17.0843481213
 10
19.3759668683
 20
17.0770315547
 10
19.3828174659
 20
17.0695313662
 10
19.3894920332
 20
17.0618566327
 10
19.3959884871
 20
17.0540164308
 10
19.4023047445
 20
17.0460198374
 10
19.4084387222
 20
17.0378759291
 10
19.4143883373
 20
17.0295937828
 10
19.4201515064
 20
17.0211824752
 10
19.4257261466
 20
17.012651083
 10
19.4311101747
 20
17.004008683
 10
19.4363015076
 20
16.9952643519
 10
19.4412980622
 20
16.9864271666
 10
19.4460977553
 20
16.9775062037
 10
19.4506985039
 20
16.96851054
 10
19.4550982248
 20
16.9594492522
 10
19.459294835
 20
16.9503314172
 10
19.4632862512
 20
16.9411661117
 10
19.4670703905
 20
16.9319624124
 10
19.4706451696
 20
16.922729396
  0
LINE
  5
4AF
100
AcDbEntity
  8
CURVE
100
AcDbLine
 62
250
  6
CONTINUOUS
 10
14.6500006676
 20
9.0
 11
14.3499998093
 21
9.3000000134
  0
LINE
  5
4B0
100
AcDbEntity
  8
CURVE
100
AcDbLine
 62
250
  6
CONTINUOUS
 10
10.8500000045
 20
12.9
 11
10.5500000067
 21
13.2000000134
  0
LINE
  5
4B1
100
AcDbEntity
  8
CURVE
100
AcDbLine
 62
250
  6
CONTINUOUS
 10
14.8000000954
 20
11.1
 11
15.1000009537
 21
10.8000000179
  0
LINE
  5
4B2
100
AcDbEntity
  8
CURVE
100
AcDbLine
 62
250
  6
CONTINUOUS
 10
11.0000000268
 20
15.0
 11
11.3000000089
 21
14.7000000179
  0
LINE
  5
4B3
100
AcDbEntity
  8
CURVE
100
AcDbLine
 62
250
  6
CONTINUOUS
 10
11.3000000089
 20
14.7000000179
 11
11.45
 21
14.4000000358
  0
LINE
  5
4B4
100
AcDbEntity
  8
CURVE
100
AcDbLine
 62
250
  6
CONTINUOUS
 10
14.3499998093
 20
9.3000000134
 11
14.2000003815
 21
9.6000000268
  0
LINE
  5
4B5
100
AcDbEntity
  8
CURVE
100
AcDbLine
 62
250
  6
CONTINUOUS
 10
15.1000009537
 20
10.8000000179
 11
15.2500003815
 21
10.5000000358
  0
LINE
  5
4B6
100
AcDbEntity
  8
CURVE
100
AcDbLine
 62
250
  6
CONTINUOUS
 10
12.6499999285
 20
15.0
 11
13.2499998927
 21
12.9
  0
LWPOLYLINE
  5
4B7
100
AcDbEntity
  8
CURVE
100
AcDbPolyline
 62
250
  6
CONTINUOUS
 90
58
 70
0
 10
19.6090505951
 20
18.1444446364
 10
19.6091449239
 20
18.1305375519
 10
19.6089891569
 20
18.1165903233
 10
19.6085677774
 20
18.1026178199
 10
19.6078652684
 20
18.088634911
 10
19.6068661131
 20
18.0746564661
 10
19.6055547945
 20
18.0606973546
 10
19.6039157958
 20
18.0467724458
 10
19.6019336001
 20
18.0328966091
 10
19.5995926905
 20
18.019084714
 10
19.5968775502
 20
18.0053516298
 10
19.5937726622
 20
17.9917122259
 10
19.5902625097
 20
17.9781813717
 10
19.5863315758
 20
17.9647739366
 10
19.5819643436
 20
17.95150479
 10
19.5771452963
 20
17.9383888013
 10
19.5718589169
 20
17.9254408398
 10
19.5665990939
 20
17.913746502
 10
19.5609431105
 20
17.9022213652
 10
19.5548995867
 20
17.8908813052
 10
19.5484771425
 20
17.8797421978
 10
19.5416843979
 20
17.8688199186
 10
19.5345299728
 20
17.8581303433
 10
19.5270224873
 20
17.8476893478
 10
19.5191705613
 20
17.8375128076
 10
19.5109828147
 20
17.8276165987
 10
19.5024678677
 20
17.8180165966
 10
19.4936343402
 20
17.8087286771
 10
19.484490852
 20
17.7997687159
 10
19.4750460234
 20
17.7911525888
 10
19.4653084741
 20
17.7828961715
 10
19.4548423572
 20
17.7746746503
 10
19.4440815385
 20
17.7668543249
 10
19.4330408489
 20
17.7594271842
 10
19.4217351194
 20
17.7523852169
 10
19.4101791809
 20
17.7457204117
 10
19.3983878641
 20
17.7394247575
 10
19.3863760002
 20
17.733490243
 10
19.3741584199
 20
17.727908857
 10
19.3617499541
 20
17.7226725883
 10
19.3491654337
 20
17.7177734256
 10
19.3364196898
 20
17.7132033577
 10
19.323527553
 20
17.7089543734
 10
19.3105038544
 20
17.7050184614
 10
19.2973634249
 20
17.7013876105
 10
19.2841210953
 20
17.6980538096
 10
19.2707916965
 20
17.6950090472
 10
19.2573900595
 20
17.6922453123
 10
19.2439310151
 20
17.6897545937
 10
19.2304293943
 20
17.6875288799
 10
19.2169000279
 20
17.6855601599
 10
19.2033577468
 20
17.6838404225
 10
19.189817382
 20
17.6823616563
 10
19.1762937644
 20
17.6811158501
 10
19.1628017247
 20
17.6800949928
 10
19.1493560941
 20
17.6792910731
 10
19.1359717032
 20
17.6786960798
 10
19.1226633831
 20
17.6783020015
  0
LINE
  5
4B8
100
AcDbEntity
  8
CURVE
100
AcDbLine
 62
250
  6
CONTINUOUS
 10
18.7648292358
 20
17.6783020015
 11
18.7648292358
 21
18.5017614223
  0
LINE
  5
4B9
100
AcDbEntity
  8
CURVE
100
AcDbLine
 62
250
  6
CONTINUOUS
 10
18.7855911743
 20
16.0131405467
 11
18.7855911743
 21
17.1870335971
  0
LINE
  5
4BA
100
AcDbEntity
  8
CURVE
100
AcDbLine
 62
250
  6
CONTINUOUS
 10
19.0999998569
 20
14.4000000358
 11
19.0999998569
 21
13.5000000268
  0
LINE
  5
4BB
100
AcDbEntity
  8
CURVE
100
AcDbLine
 62
250
  6
CONTINUOUS
 10
19.7717495131
 20
17.4133454752
 11
19.7717495131
 21
17.4310707271
  0
LINE
  5
4BC
100
AcDbEntity
  8
CURVE
100
AcDbLine
 62
250
  6
CONTINUOUS
 10
20.3000002861
 20
15.0
 11
20.3000002861
 21
12.9
  0
LINE
  5
4BD
100
AcDbEntity
  8
CURVE
100
AcDbLine
 62
250
  6
CONTINUOUS
 10
0.45
 20
18.55
 11
5.55
 21
18.55
  0
LINE
  5
4BE
100
AcDbEntity
  8
CURVE
100
AcDbLine
 62
250
  6
CONTINUOUS
 10
8.708156
 20
19.01278
 11
9.38834
 21
19.01278
  0
LINE
  5
4BF
100
AcDbEntity
  8
CURVE
100
AcDbLine
 62
250
  6
CONTINUOUS
 10
10.549377
 20
19.01278
 11
11.175092
 21
19.01278
  0
LINE
  5
4C0
100
AcDbEntity
  8
CURVE
100
AcDbLine
 62
250
  6
CONTINUOUS
 10
12.641519
 20
19.01278
 11
13.267144
 21
19.01278
  0
LINE
  5
4C1
100
AcDbEntity
  8
CURVE
100
AcDbLine
 62
250
  6
CONTINUOUS
 10
14.512816
 20
19.01278
 11
15.132322
 21
19.01278
  0
LINE
  5
4C2
100
AcDbEntity
  8
CURVE
100
AcDbLine
 62
250
  6
CONTINUOUS
 10
16.452021
 20
19.01278
 11
17.057739
 21
19.01278
  0
LINE
  5
4C3
100
AcDbEntity
  8
CURVE
100
AcDbLine
 62
250
  6
CONTINUOUS
 10
12.033597
 20
19.01296
 11
11.407455
 21
19.01296
  0
LWPOLYLINE
  5
4C4
100
AcDbEntity
  8
CURVE
100
AcDbPolyline
 62
250
  6
CONTINUOUS
 90
49
 70
0
 10
19.2553553391
 20
18.5194191923
 10
19.2668309858
 20
18.517932018
 10
19.2783074149
 20
18.5161346471
 10
19.2897719866
 20
18.5140279518
 10
19.3012120613
 20
18.5116128041
 10
19.3126149992
 20
18.508890076
 10
19.3239681605
 20
18.5058606396
 10
19.3352589056
 20
18.5025253668
 10
19.3464745946
 20
18.4988851297
 10
19.357602588
 20
18.4949408004
 10
19.3686302458
 20
18.4906932509
 10
19.3795449285
 20
18.4861433532
 10
19.3903339963
 20
18.4812919794
 10
19.4009848094
 20
18.4761400015
 10
19.4114847281
 20
18.4706882915
 10
19.4218211128
 20
18.4649377215
 10
19.4319813235
 20
18.4588891635
 10
19.4419527207
 20
18.4525434896
 10
19.4517226646
 20
18.4459015717
 10
19.4612785155
 20
18.4389642819
 10
19.4706076336
 20
18.4317324923
 10
19.4796973792
 20
18.4242070749
 10
19.4885351126
 20
18.4163889018
 10
19.497108194
 20
18.4082788449
 10
19.5054039838
 20
18.3998777762
 10
19.5133689609
 20
18.3912363025
 10
19.5210434922
 20
18.3823213647
 10
19.5284239462
 20
18.3731465192
 10
19.5355066917
 20
18.3637253226
 10
19.5422880973
 20
18.3540713312
 10
19.5487645318
 20
18.3441981017
 10
19.5549323638
 20
18.3341191905
 10
19.5607879621
 20
18.3238481541
 10
19.5663276953
 20
18.313398549
 10
19.5715479321
 20
18.3027839316
 10
19.5764450412
 20
18.2920178584
 10
19.5810153913
 20
18.2811138861
 10
19.5852553511
 20
18.2700855709
 10
19.5891612893
 20
18.2589464694
 10
19.5927295746
 20
18.2477101382
 10
19.5959565756
 20
18.2363901336
 10
19.5988386612
 20
18.2250000122
 10
19.6013721998
 20
18.2135533305
 10
19.6035535604
 20
18.2020636449
 10
19.6053791115
 20
18.190544512
 10
19.6068452218
 20
18.1790094882
 10
19.60794826
 20
18.16747213
 10
19.6086845949
 20
18.1559459939
 10
19.6090505951
 20
18.1444446364
  0
LINE
  5
4C5
100
AcDbEntity
  8
CURVE
100
AcDbLine
 62
250
  6
CONTINUOUS
 10
17.9500000954
 20
9.9000000089
 11
17.6499992371
 21
10.2000000536
  0
LINE
  5
4C6
100
AcDbEntity
  8
CURVE
100
AcDbLine
 62
250
  6
CONTINUOUS
 10
14.7499999285
 20
13.8000000089
 11
14.4500000715
 21
14.1000000536
  0
LINE
  5
4C7
100
AcDbEntity
  8
CURVE
100
AcDbLine
 62
250
  6
CONTINUOUS
 10
14.7000001192
 20
14.7000000179
 11
14.4500000715
 21
15.0
  0
LINE
  5
4C8
100
AcDbEntity
  8
CURVE
100
AcDbLine
 62
250
  6
CONTINUOUS
 10
16.2000007629
 20
9.1000000019
 11
16.1500009537
 21
9.2000000037
  0
LINE
  5
4C9
100
AcDbEntity
  8
CURVE
100
AcDbLine
 62
250
  6
CONTINUOUS
 10
16.3000003815
 20
9.3500000104
 11
16.3500001907
 21
9.2500000007
  0
LINE
  5
4CA
100
AcDbEntity
  8
CURVE
100
AcDbLine
 62
250
  6
CONTINUOUS
 10
13.839346
 20
16.013141
 11
13.104805
 21
17.971848
  0
LINE
  5
4CB
100
AcDbEntity
  8
CURVE
100
AcDbLine
 62
250
  6
CONTINUOUS
 10
13.267144
 20
19.01278
 11
13.886673
 21
17.347371
  0
LINE
  5
4CC
100
AcDbEntity
  8
CURVE
100
AcDbLine
 62
250
  6
CONTINUOUS
 10
17.318174
 20
16.013141
 11
17.15597
 21
16.611975
  0
LINE
  5
4CD
100
AcDbEntity
  8
CURVE
100
AcDbLine
 62
250
  6
CONTINUOUS
 10
17.030836
 20
17.075351
 11
16.743116
 21
18.188555
  0
LINE
  5
4CE
100
AcDbEntity
  8
CURVE
100
AcDbLine
 62
250
  6
CONTINUOUS
 10
18.5499998093
 20
11.1
 11
18.9999980927
 21
9.0
  0
LWPOLYLINE
  5
4CF
100
AcDbEntity
  8
RACCORDO
100
AcDbPolyline
 62
250
  6
CONTINUOUS
 90
31
 70
0
 10
21.8585247046
 20
17.7674578792
 10
21.8533831935
 20
17.9736679139
 10
21.8371859514
 20
18.1798462602
 10
21.8099329782
 20
18.385992918
 10
21.7716178969
 20
18.5928644727
 10
21.7222470845
 20
18.7997043389
 10
21.6618396721
 20
19.0042427609
 10
21.5902089317
 20
19.2064724897
 10
21.5075415913
 20
19.4064007743
 10
21.4144169664
 20
19.6017796055
 10
21.3106705808
 20
19.7925312701
 10
21.1964669106
 20
19.9787334812
 10
21.0728786996
 20
20.158371369
 10
20.9397874387
 20
20.3313227831
 10
20.7973116371
 20
20.4977098738
 10
20.6468795664
 20
20.6558842214
 10
20.4883834681
 20
20.8057304541
 10
20.3219311007
 20
20.9473639437
 10
20.1492740113
 20
21.0794823865
 10
19.9704645336
 20
21.201905243
 10
19.785450334
 20
21.3148130528
 10
19.5958259578
 20
21.4174451306
 10
19.4013941172
 20
21.5097590352
 10
19.2023521001
 20
21.5917972078
 10
19.0008863158
 20
21.6629262874
 10
18.796914732
 20
21.7229654643
 10
18.590519381
 20
21.7720955481
 10
18.3841327696
 20
21.8102256072
 10
18.1785657333
 20
21.8373253311
 10
17.9730074365
 20
21.8534250302
 10
17.7674578792
 20
21.8585247046
  0
LINE
  5
4D0
100
AcDbEntity
  8
RACCORDO
100
AcDbLine
 62
250
  6
CONTINUOUS
 10
21.8585247046
 20
0.0
 11
21.8585247046
 21
17.7674578792
  0
LINE
  5
4D1
100
AcDbEntity
  8
RACCORDO
100
AcDbLine
 62
250
  6
CONTINUOUS
 10
22.3178663494
 20
27.5
 11
22.3178663494
 21
27.3178663494
  0
LINE
  5
4D2
100
AcDbEntity
  8
RACCORDO
100
AcDbLine
 62
250
  6
CONTINUOUS
 10
22.7674578792
 20
0.0
 11
22.7674578792
 21
17.7674578792
  0
LINE
  5
4D3
100
AcDbEntity
  8
0
100
AcDbLine
 62
7
  6
CONTINUOUS
 10
16.6170093579
 20
-15.1170093579
 11
15.3179712522
 21
-17.3670093579
  0
LWPOLYLINE
  5
4D4
100
AcDbEntity
  8
RACCORDO
100
AcDbPolyline
 62
250
  6
CONTINUOUS
 90
13
 70
0
 10
17.7004783497
 20
-14.3195741723
 10
17.6756630903
 20
-14.3515818733
 10
17.6481279938
 20
-14.3808398729
 10
17.6181635074
 20
-14.4070395437
 10
17.5860857045
 20
-14.4299045179
 10
17.5522329521
 20
-14.4491936026
 10
17.5169623422
 20
-14.464703324
 10
17.4806459213
 20
-14.4762700752
 10
17.4436667694
 20
-14.4837718409
 10
17.4064149603
 20
-14.487129485
 10
17.3692834428
 20
-14.4863075861
 10
17.3326638951
 20
-14.4813148106
 10
17.2969425967
 20
-14.4722038211
  0
LINE
  5
4D5
100
AcDbEntity
  8
RACCORDO
100
AcDbLine
 62
250
  6
CONTINUOUS
 10
15.1674404565
 20
-18.0665782593
 11
15.0260191002
 21
-18.2079996156
  0
LINE
  5
4D6
100
AcDbEntity
  8
RACCORDO
100
AcDbLine
 62
250
  6
CONTINUOUS
 10
18.0665782593
 20
-15.1674404565
 11
18.2079996156
 21
-15.0260191002
  0
LWPOLYLINE
  5
4D7
100
AcDbEntity
  8
RACCORDO
100
AcDbPolyline
 62
250
  6
CONTINUOUS
 90
13
 70
0
 10
14.3195741725
 20
-17.7004783502
 10
14.3515823089
 20
-17.6756626663
 10
14.38084059
 20
-17.6481271516
 10
14.4070403999
 20
-17.6181622839
 10
14.4299053904
 20
-17.5860841608
 10
14.4491943894
 20
-17.5522311746
 10
14.4647039477
 20
-17.5169604445
 10
14.4762704908
 20
-17.4806440319
 10
14.483772041
 20
-17.4436650194
 10
14.4871295
 20
-17.4064134813
 10
14.4863074833
 20
-17.3692823576
 10
14.481314692
 20
-17.3326633103
 10
14.4722038211
 20
-17.2969425967
  0
LINE
  5
4D8
100
AcDbEntity
  8
RACCORDO
100
AcDbLine
 62
250
  6
CONTINUOUS
 10
17.7674578792
 20
21.8585247046
 11
-0.0
 21
21.8585247046
  0
LINE
  5
4D9
100
AcDbEntity
  8
RACCORDO
100
AcDbLine
 62
250
  6
CONTINUOUS
 10
27.5
 20
22.3178663494
 11
27.3178663494
 21
22.3178663494
  0
LINE
  5
4DA
100
AcDbEntity
  8
RACCORDO
100
AcDbLine
 62
250
  6
CONTINUOUS
 10
17.7674578792
 20
22.7674578792
 11
0.0
 21
22.7674578792
  0
LINE
  5
4DB
100
AcDbEntity
  8
CURVE
100
AcDbLine
 62
250
  6
CONTINUOUS
 10
16.2500002146
 20
13.8000000089
 11
15.9499998569
 21
14.1000000536
  0
LINE
  5
4DC
100
AcDbEntity
  8
CURVE
100
AcDbLine
 62
250
  6
CONTINUOUS
 10
18.5000001431
 20
12.9
 11
18.1999997854
 21
13.2000000134
  0
LINE
  5
4DD
100
AcDbEntity
  8
CURVE
100
AcDbLine
 62
250
  6
CONTINUOUS
 10
16.1999999046
 20
14.7000000179
 11
15.9499998569
 21
15.0
  0
LINE
  5
4DE
100
AcDbEntity
  8
CURVE
100
AcDbLine
 62
250
  6
CONTINUOUS
 10
18.1999997854
 20
13.2000000134
 11
18.0499998569
 21
13.5000000268
  0
LINE
  5
4DF
100
AcDbEntity
  8
CURVE
100
AcDbLine
 62
250
  6
CONTINUOUS
 10
18.9500004292
 20
14.7000000179
 11
19.0999998569
 21
14.4000000358
  0
LINE
  5
4E0
100
AcDbEntity
  8
CURVE
100
AcDbLine
 62
250
  6
CONTINUOUS
 10
17.057739
 20
19.01278
 11
17.978102
 21
16.013141
  0
LINE
  5
4E1
100
AcDbEntity
  8
CURVE
100
AcDbLine
 62
250
  6
CONTINUOUS
 10
19.4500003815
 20
10.5000000358
 11
19.8999986649
 21
9.0
  0
LINE
  5
4E2
100
AcDbEntity
  8
CURVE
100
AcDbLine
 62
250
  6
CONTINUOUS
 10
19.6271723033
 20
16.4156870919
 11
19.7444418279
 21
16.0131405467
  0
LINE
  5
4E3
100
AcDbEntity
  8
CURVE
100
AcDbLine
 62
250
  6
CONTINUOUS
 10
19.5665134013
 20
16.6284906663
 11
19.5909517205
 21
16.5434199058
  0
LINE
  5
4E4
100
AcDbEntity
  8
CURVE
100
AcDbLine
 62
250
  6
CONTINUOUS
 10
19.5909517205
 20
16.5434199058
 11
19.6271723033
 21
16.4156870919
  0
LWPOLYLINE
  5
4E5
100
AcDbEntity
  8
RACCORDO
100
AcDbPolyline
 62
250
  6
CONTINUOUS
 90
31
 70
0
 10
22.7674578792
 20
17.7674578792
 10
22.752834312
 20
18.0193754606
 10
22.7252637281
 20
18.2717330777
 10
22.6847161739
 20
18.5238197634
 10
22.6311947294
 20
18.7750092904
 10
22.5647413201
 20
19.0244908855
 10
22.485477668
 20
19.2712809444
 10
22.3935611748
 20
19.5146758868
 10
22.2891886778
 20
19.7539716925
 10
22.1726702548
 20
19.9882181615
 10
22.0443186496
 20
20.2167324452
 10
21.9044683095
 20
20.4388917092
 10
21.753575089
 20
20.6538909763
 10
21.5920884917
 20
20.8611059358
 10
21.4204512488
 20
21.0600107668
 10
21.2391867383
 20
21.2500068672
 10
21.0488066044
 20
21.4305884586
 10
20.8498667818
 20
21.6012831827
 10
20.6430105304
 20
21.7616033084
 10
20.4289650013
 20
21.9110499657
 10
20.2082258725
 20
22.0493665001
 10
19.9810919075
 20
22.1764336758
 10
19.7479826484
 20
22.2919779921
 10
19.5097257791
 20
22.3955703022
 10
19.2672412384
 20
22.486886154
 10
19.021135201
 20
22.5657268208
 10
18.7721729398
 20
22.6318745864
 10
18.5215592591
 20
22.6851378382
 10
18.2701792846
 20
22.7254724601
 10
18.0185771218
 20
22.7529002483
 10
17.7674578792
 20
22.7674578792
  0
LWPOLYLINE
  5
4E6
100
AcDbEntity
  8
RACCORDO
100
AcDbPolyline
 62
250
  6
CONTINUOUS
 90
19
 70
0
 10
18.7751161765
 20
-14.969834504
 10
18.7502051231
 20
-14.9973952393
 10
18.7230556023
 20
-15.0227619027
 10
18.6939019318
 20
-15.0457155634
 10
18.6629957264
 20
-15.0660581168
 10
18.6306037267
 20
-15.0836139935
 10
18.5970054964
 20
-15.098231675
 10
18.5624910097
 20
-15.1097850014
 10
18.5273581488
 20
-15.1181742599
 10
18.491910133
 20
-15.123327046
 10
18.4564529013
 20
-15.1251988877
 10
18.4212924724
 20
-15.1237736299
 10
18.3867323035
 20
-15.1190635734
 10
18.3530706709
 20
-15.1111093691
 10
18.3205980962
 20
-15.0999796668
 10
18.2895948385
 20
-15.0857705231
 10
18.260328476
 20
-15.0686045718
 10
18.233051596
 20
-15.0486299664
 10
18.2079996156
 20
-15.0260191003
  0
LWPOLYLINE
  5
4E7
100
AcDbEntity
  8
RACCORDO
100
AcDbPolyline
 62
250
  6
CONTINUOUS
 90
19
 70
0
 10
20.1877485958
 20
-16.3869366928
 10
20.1627624115
 20
-16.4141942941
 10
20.1355766213
 20
-16.4392600022
 10
20.1064236354
 20
-16.461919531
 10
20.075552682
 20
-16.4819791649
 10
20.0432276758
 20
-16.4992674149
 10
20.0097249622
 20
-16.5136364841
 10
19.9753309549
 20
-16.524963532
 10
19.9403396872
 20
-16.5331517238
 10
19.9050502982
 20
-16.538131059
 10
19.8697644758
 20
-16.5398589695
 10
19.8347838775
 20
-16.5383206832
 10
19.8004075512
 20
-16.5335293511
 10
19.766929379
 20
-16.525525934
 10
19.7346355649
 20
-16.5143788528
 10
19.7038021875
 20
-16.5001834037
 10
19.6746928405
 20
-16.483060943
 10
19.6475563788
 20
-16.4631578501
 10
19.6226247912
 20
-16.4406442758
  0
LWPOLYLINE
  5
4E8
100
AcDbEntity
  8
RACCORDO
100
AcDbPolyline
 62
250
  6
CONTINUOUS
 90
19
 70
0
 10
14.969834504
 20
-18.7751161765
 10
14.9973947443
 20
-18.7502056091
 10
15.0227610598
 20
-18.7230565825
 10
15.0457145125
 20
-18.6939033866
 10
15.0660569868
 20
-18.6629976095
 10
15.0836128963
 20
-18.6306059713
 10
15.0982307014
 20
-18.5970080228
 10
15.1097842217
 20
-18.5624937225
 10
15.1181737205
 20
-18.5273609454
 10
15.1233267675
 20
-18.4919129175
 10
15.1251988684
 20
-18.4564555758
 10
15.1237738453
 20
-18.4212949442
 10
15.1190639802
 20
-18.3867345039
 10
15.1111099071
 20
-18.3530725398
 10
15.099980261
 20
-18.3205995872
 10
15.085771095
 20
-18.2895959383
 10
15.0686050408
 20
-18.2603291904
 10
15.0486302453
 20
-18.2330519389
 10
15.0260191003
 20
-18.2079996156
  0
LWPOLYLINE
  5
4E9
100
AcDbEntity
  8
RACCORDO
100
AcDbPolyline
 62
250
  6
CONTINUOUS
 90
22
 70
0
 10
17.0522975684
 20
-19.9921116162
 10
17.0206205428
 20
-20.0184052854
 10
16.9877871482
 20
-20.0437739315
 10
16.9538016561
 20
-20.0682121745
 10
16.9183846823
 20
-20.0919565927
 10
16.8818237448
 20
-20.1147586634
 10
16.8449765139
 20
-20.1358899097
 10
16.8079393043
 20
-20.1552471329
 10
16.7706302604
 20
-20.1729323983
 10
16.7336435803
 20
-20.1885331648
 10
16.6969290465
 20
-20.2020416929
 10
16.6605511811
 20
-20.2134712368
 10
16.6252771841
 20
-20.2224480484
 10
16.5911101483
 20
-20.2289232469
 10
16.5580578837
 20
-20.232959361
 10
16.5268932972
 20
-20.2343569488
 10
16.4976589298
 20
-20.2330469097
 10
16.4703158222
 20
-20.2291171997
 10
16.4455114615
 20
-20.2226087367
 10
16.4234594391
 20
-20.2135422362
 10
16.4039404996
 20
-20.2019158818
 10
16.3869501436
 20
-20.187737473
  0
LWPOLYLINE
  5
4EA
100
AcDbEntity
  8
RACCORDO
100
AcDbPolyline
 62
250
  6
CONTINUOUS
 90
22
 70
0
 10
16.8163563081
 20
-19.7154941109
 10
16.8042530081
 20
-19.7222707389
 10
16.7909709669
 20
-19.7281479993
 10
16.7765583814
 20
-19.7330776952
 10
16.7610154871
 20
-19.737017431
 10
16.7444542576
 20
-19.7398973931
 10
16.7270909836
 20
-19.7416277713
 10
16.7090035485
 20
-19.7421062816
 10
16.6902272282
 20
-19.7413220487
 10
16.6709105193
 20
-19.739326258
 10
16.6510695605
 20
-19.7360322551
 10
16.630809957
 20
-19.7314049505
 10
16.6104122424
 20
-19.7255750395
 10
16.5898986183
 20
-19.718458373
 10
16.5693552558
 20
-19.7100307276
 10
16.5491458683
 20
-19.7005254612
 10
16.5292923142
 20
-19.6898861063
 10
16.5098510337
 20
-19.6780908319
 10
16.4912155762
 20
-19.6654469868
 10
16.4735226783
 20
-19.6520514671
 10
16.4566632187
 20
-19.6377797613
 10
16.4406442758
 20
-19.6226247912
  0
LWPOLYLINE
  5
4EB
100
AcDbEntity
  8
CURVE
100
AcDbPolyline
 62
250
  6
CONTINUOUS
 90
32
 70
0
 10
19.7071918061
 20
18.9461523837
 10
19.6709468505
 20
18.9586266808
 10
19.6343539147
 20
18.9700284304
 10
19.5974437322
 20
18.9804096618
 10
19.5602470367
 20
18.9898224043
 10
19.5227945616
 20
18.9983186869
 10
19.4851170406
 20
19.0059505389
 10
19.4472452072
 20
19.0127699896
 10
19.4092097949
 20
19.0188290681
 10
19.3710415374
 20
19.0241798036
 10
19.3327711681
 20
19.0288742253
 10
19.2944294207
 20
19.0329643625
 10
19.2560470288
 20
19.0365022443
 10
19.1982947026
 20
19.0408757856
 10
19.1405261409
 20
19.0441630959
 10
19.0827475271
 20
19.0464094591
 10
19.0249650446
 20
19.0476601586
 10
18.9671848766
 20
19.0479604783
 10
18.9094132065
 20
19.0473557017
 10
18.8516562176
 20
19.0458911127
 10
18.7939200934
 20
19.0436119947
 10
18.736211017
 20
19.0405636316
 10
18.678535172
 20
19.0367913069
 10
18.6208987415
 20
19.0323403045
 10
18.5633079089
 20
19.0272559079
 10
18.5057688576
 20
19.0215834008
 10
18.448287771
 20
19.0153680669
 10
18.3908708322
 20
19.0086551898
 10
18.3335242248
 20
19.0014900533
 10
18.276254132
 20
18.9939179411
 10
18.2190667371
 20
18.9859841368
 10
18.1619682236
 20
18.977733924
  0
LINE
  5
4EC
100
AcDbEntity
  8
CURVE
100
AcDbLine
 62
250
  6
CONTINUOUS
 10
18.6500000715
 20
15.0
 11
18.9500004292
 21
14.7000000179
  0
LWPOLYLINE
  5
4ED
100
AcDbEntity
  8
CURVE
100
AcDbPolyline
 62
250
  6
CONTINUOUS
 90
8
 70
0
 10
19.4706451696
 20
16.922729396
 10
19.4858644612
 20
16.8812184857
 10
19.5004633869
 20
16.8394938003
 10
19.5145094003
 20
16.7975789661
 10
19.5280699548
 20
16.7554976094
 10
19.5412125041
 20
16.7132733564
 10
19.5540045017
 20
16.6709298333
 10
19.5665134013
 20
16.6284906663
  0
LWPOLYLINE
  5
4EE
100
AcDbEntity
  8
CURVE
100
AcDbPolyline
 62
250
  6
CONTINUOUS
 90
45
 70
0
 10
20.1137662892
 20
16.8947118884
 10
20.1073129035
 20
16.9179011672
 10
20.1006328524
 20
16.941149494
 10
20.0936362481
 20
16.9645051459
 10
20.0862332023
 20
16.9880163998
 10
20.0819879774
 20
17.0009372434
 10
20.0775919544
 20
17.013905872
 10
20.0730423951
 20
17.0269092516
 10
20.0683365616
 20
17.039934348
 10
20.0634717156
 20
17.0529681271
 10
20.0584451192
 20
17.0659975548
 10
20.0532540343
 20
17.0790095971
 10
20.0478957228
 20
17.0919912197
 10
20.0423674467
 20
17.1049293887
 10
20.0366664678
 20
17.1178110698
 10
20.0307900482
 20
17.1306232289
 10
20.0247354497
 20
17.143352832
 10
20.0184999343
 20
17.155986845
 10
20.0120807638
 20
17.1685122337
 10
20.0054752003
 20
17.180915964
 10
19.9986805057
 20
17.1931850018
 10
19.9916939418
 20
17.205306313
 10
19.9845127707
 20
17.2172668635
 10
19.9771342542
 20
17.2290536192
 10
19.9695556544
 20
17.240653546
 10
19.961774233
 20
17.2520536097
 10
19.9537872521
 20
17.2632407763
 10
19.9455919736
 20
17.2742020116
 10
19.9371856593
 20
17.2849242815
 10
19.9285655713
 20
17.2953945519
 10
19.9197289715
 20
17.3055997888
 10
19.9106731218
 20
17.3155269579
 10
19.9013952841
 20
17.3251630252
 10
19.8918927204
 20
17.3344949566
 10
19.8821626926
 20
17.343509718
 10
19.8722024625
 20
17.3521942752
 10
19.8620092923
 20
17.3605355941
 10
19.8515804437
 20
17.3685206407
 10
19.8409131788
 20
17.3761363808
 10
19.8300047594
 20
17.3833697803
 10
19.8188524474
 20
17.3902078052
 10
19.8074535049
 20
17.3966374212
 10
19.7958051937
 20
17.4026455942
 10
19.7839047758
 20
17.4082192903
 10
19.7717495131
 20
17.4133454752
  0
LINE
  5
4EF
100
AcDbEntity
  8
CURVE
100
AcDbLine
 62
250
  6
CONTINUOUS
 10
20.1619095675
 20
16.7166666571
 11
20.1137662892
 21
16.8947118884
  0
LINE
  5
4F0
100
AcDbEntity
  8
CURVE
100
AcDbLine
 62
250
  6
CONTINUOUS
 10
20.3467179968
 20
16.0131405467
 11
20.3181506394
 21
16.1202331018
  0
LINE
  5
4F1
100
AcDbEntity
  8
CURVE
100
AcDbLine
 62
250
  6
CONTINUOUS
 10
20.2192266093
 20
16.499655294
 11
20.1619095675
 21
16.7166666571
  0
LINE
  5
4F2
100
AcDbEntity
  8
CURVE
100
AcDbLine
 62
250
  6
CONTINUOUS
 10
20.3181506394
 20
16.1202331018
 11
20.2192266093
 21
16.499655294
  0
LINE
  5
4F3
100
AcDbEntity
  8
RACCORDO
100
AcDbLine
 62
250
  6
CONTINUOUS
 10
27.313239992
 20
22.3844492061
 11
27.3178663494
 21
22.3178663494
  0
LINE
  5
4F4
100
AcDbEntity
  8
RACCORDO
100
AcDbLine
 62
250
  6
CONTINUOUS
 10
27.3178663494
 20
22.3178663494
 11
27.3178663494
 21
-0.0
  0
LINE
  5
4F5
100
AcDbEntity
  8
RACCORDO
100
AcDbLine
 62
7
  6
CONTINUOUS
 10
27.5
 20
22.5
 11
27.5
 21
-0.0
  0
LINE
  5
4F6
100
AcDbEntity
  8
RACCORDO
100
AcDbLine
 62
250
  6
CONTINUOUS
 10
-0.0
 20
27.3178663494
 11
22.3178663494
 21
27.3178663494
  0
LINE
  5
4F7
100
AcDbEntity
  8
RACCORDO
100
AcDbLine
 62
7
  6
CONTINUOUS
 10
0.0
 20
27.5
 11
22.5
 21
27.5
  0
LINE
  5
4F8
100
AcDbEntity
  8
RACCORDO
100
AcDbLine
 62
250
  6
CONTINUOUS
 10
22.3178663494
 20
27.3178663494
 11
22.3844045956
 21
27.3132430596
  0
LINE
  5
4F9
100
AcDbEntity
  8
RACCORDO
100
AcDbLine
 62
250
  6
CONTINUOUS
 10
27.295595502
 20
22.6096474584
 11
27.3033892102
 21
22.5146353691
  0
LWPOLYLINE
  5
4FA
100
AcDbEntity
  8
RACCORDO
100
AcDbPolyline
 62
250
  6
CONTINUOUS
 90
3
 70
0
 10
27.3033892102
 20
22.5146353691
 10
27.3108387343
 20
22.4173704233
 10
27.313239992
 20
22.3844492061
  0
LINE
  5
4FB
100
AcDbEntity
  8
RACCORDO
100
AcDbLine
 62
250
  6
CONTINUOUS
 10
22.3844045956
 20
27.3132430596
 11
22.4823956375
 21
27.3059211121
  0
LWPOLYLINE
  5
4FC
100
AcDbEntity
  8
RACCORDO
100
AcDbPolyline
 62
250
  6
CONTINUOUS
 90
3
 70
0
 10
22.4823956375
 20
27.3059211121
 10
22.578200826
 20
27.2982205957
 10
22.6096474584
 20
27.295595502
  0
LWPOLYLINE
  5
4FD
100
AcDbEntity
  8
RACCORDO
100
AcDbPolyline
 62
250
  6
CONTINUOUS
 90
34
 70
0
 10
22.6096474584
 20
27.295595502
 10
22.8374991741
 20
27.2712340387
 10
23.0606751074
 20
27.2371190734
 10
23.2787683467
 20
27.1938608508
 10
23.4904520451
 20
27.1423770241
 10
23.6964141752
 20
27.0830671356
 10
23.8992362476
 20
27.0153691103
 10
24.0994559292
 20
26.9391244505
 10
24.2958224838
 20
26.8548799331
 10
24.4881388465
 20
26.7627290175
 10
24.6760512715
 20
26.6629182204
 10
24.8592871814
 20
26.5556961694
 10
25.0377619672
 20
26.4411182906
 10
25.2111877672
 20
26.3194052679
 10
25.379262441
 20
26.1908300641
 10
25.5418614127
 20
26.055487416
 10
25.6986838388
 20
25.9136348697
 10
25.8494777996
 20
25.7655332205
 10
25.9941672253
 20
25.6112510316
 10
26.1325222781
 20
25.4509841921
 10
26.264231348
 20
25.2850696629
 10
26.3890832842
 20
25.1137773886
 10
26.5063625769
 20
24.9381127429
 10
26.616370838
 20
24.7577079229
 10
26.7201515524
 20
24.5706152763
 10
26.8174586676
 20
24.3764049914
 10
26.9074695064
 20
24.1758656318
 10
26.9899930152
 20
23.968722146
 10
27.0645430579
 20
23.7548315383
 10
27.1303729672
 20
23.5348790365
 10
27.1868938082
 20
23.30988519
 10
27.2336020175
 20
23.0804857225
 10
27.2699990264
 20
22.8469087603
 10
27.295595502
 20
22.6096474584
  0
LWPOLYLINE
  5
4FE
100
AcDbEntity
  8
RACCORDO
100
AcDbPolyline
 62
250
  6
CONTINUOUS
 90
10
 70
0
 10
22.5
 20
27.5
 10
22.5126104418
 20
27.4974328403
 10
22.5251885111
 20
27.4897379519
 10
22.5377019179
 20
27.476935089
 10
22.5501185384
 20
27.4590571191
 10
22.5624064971
 20
27.4361499381
 10
22.5745342488
 20
27.4082723529
 10
22.5864706598
 20
27.37549593
 10
22.5981850872
 20
27.3379048121
 10
22.6096474584
 20
27.295595502
  0
LWPOLYLINE
  5
4FF
100
AcDbEntity
  8
RACCORDO
100
AcDbPolyline
 62
250
  6
CONTINUOUS
 90
10
 70
0
 10
27.5
 20
22.5
 10
27.4974328407
 20
22.5126104389
 10
27.4897379533
 20
22.5251885057
 10
27.4769350917
 20
22.5377019105
 10
27.459057123
 20
22.5501185301
 10
27.4361499428
 20
22.562406489
 10
27.4082723578
 20
22.5745342416
 10
27.3754959344
 20
22.586470654
 10
27.3379048149
 20
22.5981850838
 10
27.295595502
 20
22.6096474584
  0
ARC
  5
500
100
AcDbEntity
  8
RACCORDO
100
AcDbCircle
 62
7
  6
CONTINUOUS
 10
-22.5
 20
-22.5
 40
5.0
100
AcDbArc
 50
180.0
 51
270.0
  0
ARC
  5
501
100
AcDbEntity
  8
RACCORDO
100
AcDbCircle
 62
7
  6
CONTINUOUS
 10
-9.4745166004
 20
-2.0
 40
5.0
100
AcDbArc
 50
225.0
 51
270.0
  0
ARC
  5
502
100
AcDbEntity
  8
RACCORDO
100
AcDbCircle
 62
250
  6
CONTINUOUS
 10
-9.4745166004
 20
-2.0
 40
4.0
100
AcDbArc
 50
225.0
 51
270.0
  0
ARC
  5
503
100
AcDbEntity
  8
RACCORDO
100
AcDbCircle
 62
7
  6
CONTINUOUS
 10
-16.0
 20
0.0
 40
1.8
100
AcDbArc
 50
135.0
 51
225.0
  0
ARC
  5
504
100
AcDbEntity
  8
RACCORDO
100
AcDbCircle
 62
250
  6
CONTINUOUS
 10
-16.0
 20
0.0
 40
0.8
100
AcDbArc
 50
135.0
 51
225.0
  0
ARC
  5
505
100
AcDbEntity
  8
RACCORDO
100
AcDbCircle
 62
250
  6
CONTINUOUS
 10
-16.6170093579
 20
16.6170093579
 40
2.65
100
AcDbArc
 50
265.8570661977
 51
4.1429334996
  0
ARC
  5
506
100
AcDbEntity
  8
RACCORDO
100
AcDbCircle
 62
7
  6
CONTINUOUS
 10
-16.6170093579
 20
16.6170093579
 40
2.25
100
AcDbArc
 50
225.0
 51
45.0
  0
ARC
  5
507
100
AcDbEntity
  8
RACCORDO
100
AcDbCircle
 62
250
  6
CONTINUOUS
 10
-16.6170093579
 20
16.6170093579
 40
2.05
100
AcDbArc
 50
225.0
 51
45.0
  0
CIRCLE
  5
508
100
AcDbEntity
  8
RACCORDO
100
AcDbCircle
 62
7
  6
CONTINUOUS
 10
-16.6170093579
 20
16.6170093579
 40
2.0
  0
CIRCLE
  5
509
100
AcDbEntity
  8
0
100
AcDbCircle
 62
250
  6
CONTINUOUS
 10
-16.6170093579
 20
16.6170093579
 40
1.5
  0
ARC
  5
50A
100
AcDbEntity
  8
RACCORDO
100
AcDbCircle
 62
7
  6
CONTINUOUS
 10
-9.4745166004
 20
2.0
 40
5.0
100
AcDbArc
 50
90.0
 51
135.0
  0
ARC
  5
50B
100
AcDbEntity
  8
RACCORDO
100
AcDbCircle
 62
250
  6
CONTINUOUS
 10
-9.4745166004
 20
2.0
 40
4.0
100
AcDbArc
 50
90.0
 51
135.0
  0
CIRCLE
  5
50C
100
AcDbEntity
  8
ASSI
100
AcDbCircle
 62
7
  6
CONTINUOUS
 10
-9.5
 20
0.0
 40
1.95
  0
ARC
  5
50D
100
AcDbEntity
  8
CURVE
100
AcDbCircle
 62
250
  6
CONTINUOUS
 10
-7.81959
 20
15.999988
 40
2.5500000352
100
AcDbArc
 50
84.2608296022
 51
275.7391703978
  0
ARC
  5
50E
100
AcDbEntity
  8
CURVE
100
AcDbCircle
 62
250
  6
CONTINUOUS
 10
-3.48459
 20
15.999988
 40
2.5500000352
100
AcDbArc
 50
84.2608296022
 51
275.7391703978
  0
ARC
  5
50F
100
AcDbEntity
  8
CURVE
100
AcDbCircle
 62
250
  6
CONTINUOUS
 10
-3.48459
 20
15.999988
 40
1.7850001745
100
AcDbArc
 50
81.7867901066
 51
167.626372977
  0
ARC
  5
510
100
AcDbEntity
  8
CURVE
100
AcDbCircle
 62
250
  6
CONTINUOUS
 10
-7.81959
 20
15.999988
 40
1.7850001745
100
AcDbArc
 50
81.7867901066
 51
278.2132098934
  0
ARC
  5
511
100
AcDbEntity
  8
CURVE
100
AcDbCircle
 62
250
  6
CONTINUOUS
 10
-3.48459
 20
15.999988
 40
1.7849997292
100
AcDbArc
 50
192.373627023
 51
278.2132098934
  0
ARC
  5
512
100
AcDbEntity
  8
RACCORDO
100
AcDbCircle
 62
7
  6
CONTINUOUS
 10
9.4745166004
 20
-2.0
 40
5.0
100
AcDbArc
 50
270.0
 51
315.0
  0
ARC
  5
513
100
AcDbEntity
  8
RACCORDO
100
AcDbCircle
 62
250
  6
CONTINUOUS
 10
9.4745166004
 20
-2.0
 40
4.0
100
AcDbArc
 50
270.0
 51
315.0
  0
ARC
  5
514
100
AcDbEntity
  8
RACCORDO
100
AcDbCircle
 62
250
  6
CONTINUOUS
 10
16.6170093579
 20
-16.6170093579
 40
2.65
100
AcDbArc
 50
85.8570661977
 51
184.1429334996
  0
ARC
  5
515
100
AcDbEntity
  8
RACCORDO
100
AcDbCircle
 62
7
  6
CONTINUOUS
 10
16.6170093579
 20
-16.6170093579
 40
2.25
100
AcDbArc
 50
45.0
 51
225.0
  0
ARC
  5
516
100
AcDbEntity
  8
RACCORDO
100
AcDbCircle
 62
250
  6
CONTINUOUS
 10
16.6170093579
 20
-16.6170093579
 40
2.05
100
AcDbArc
 50
45.0
 51
225.0
  0
CIRCLE
  5
517
100
AcDbEntity
  8
RACCORDO
100
AcDbCircle
 62
7
  6
CONTINUOUS
 10
16.6170093579
 20
-16.6170093579
 40
2.0
  0
CIRCLE
  5
518
100
AcDbEntity
  8
0
100
AcDbCircle
 62
250
  6
CONTINUOUS
 10
16.6170093579
 20
-16.6170093579
 40
1.5
  0
CIRCLE
  5
519
100
AcDbEntity
  8
CURVE
100
AcDbCircle
 62
250
  6
CONTINUOUS
 10
11.2647
 20
-13.149372
 40
0.317592
  0
CIRCLE
  5
51A
100
AcDbEntity
  8
CURVE
100
AcDbCircle
 62
250
  6
CONTINUOUS
 10
11.689913
 20
-9.803818
 40
0.192582
  0
CIRCLE
  5
51B
100
AcDbEntity
  8
CURVE
100
AcDbCircle
 62
250
  6
CONTINUOUS
 10
11.2647
 20
-13.149372
 40
0.14051
  0
ARC
  5
51C
100
AcDbEntity
  8
RACCORDO
100
AcDbCircle
 62
7
  6
CONTINUOUS
 10
-0.0
 20
0.0
 40
27.5
100
AcDbArc
 50
90.0
 51
180.0
  0
ARC
  5
51D
100
AcDbEntity
  8
RACCORDO
100
AcDbCircle
 62
7
  6
CONTINUOUS
 10
0.0
 20
-0.0
 40
27.5
100
AcDbArc
 50
270.0
 51
360.0
  0
ARC
  5
51E
100
AcDbEntity
  8
RACCORDO
100
AcDbCircle
 62
250
  6
CONTINUOUS
 10
0.0
 20
-0.0
 40
27.3178663494
100
AcDbArc
 50
270.0
 51
360.0
  0
ARC
  5
51F
100
AcDbEntity
  8
RACCORDO
100
AcDbCircle
 62
250
  6
CONTINUOUS
 10
-0.0
 20
0.0
 40
27.3178663494
100
AcDbArc
 50
90.0
 51
180.0
  0
ARC
  5
520
100
AcDbEntity
  8
RACCORDO
100
AcDbCircle
 62
250
  6
CONTINUOUS
 10
0.0
 20
-0.0
 40
26.2767079223
100
AcDbArc
 50
310.4625632142
 51
319.5374367858
  0
ARC
  5
521
100
AcDbEntity
  8
RACCORDO
100
AcDbCircle
 62
250
  6
CONTINUOUS
 10
-0.0
 20
0.0
 40
26.2767079223
100
AcDbArc
 50
130.4625632142
 51
139.5374367858
  0
ARC
  5
522
100
AcDbEntity
  8
RACCORDO
100
AcDbCircle
 62
250
  6
CONTINUOUS
 10
-0.0
 20
0.0
 40
25.9131346525
100
AcDbArc
 50
130.4623317628
 51
139.537303842
  0
ARC
  5
523
100
AcDbEntity
  8
RACCORDO
100
AcDbCircle
 62
250
  6
CONTINUOUS
 10
0.0
 20
-0.0
 40
25.9131346525
100
AcDbArc
 50
310.4623317192
 51
319.5373038631
  0
ARC
  5
524
100
AcDbEntity
  8
RACCORDO
100
AcDbCircle
 62
250
  6
CONTINUOUS
 10
0.0
 20
0.0
 40
22.7674578792
100
AcDbArc
 50
321.0273619014
 51
360.0
  0
ARC
  5
525
100
AcDbEntity
  8
RACCORDO
100
AcDbCircle
 62
250
  6
CONTINUOUS
 10
0.0
 20
0.0
 40
22.7674578792
100
AcDbArc
 50
270.0
 51
308.9726380986
  0
ARC
  5
526
100
AcDbEntity
  8
RACCORDO
100
AcDbCircle
 62
250
  6
CONTINUOUS
 10
0.0
 20
-0.0
 40
22.7674578792
100
AcDbArc
 50
141.0273619014
 51
180.0
  0
ARC
  5
527
100
AcDbEntity
  8
RACCORDO
100
AcDbCircle
 62
250
  6
CONTINUOUS
 10
0.0
 20
-0.0
 40
22.7674578792
100
AcDbArc
 50
90.0
 51
128.9726380986
  0
ARC
  5
528
100
AcDbEntity
  8
RACCORDO
100
AcDbCircle
 62
250
  6
CONTINUOUS
 10
0.0
 20
-0.0
 40
21.8585247046
100
AcDbArc
 50
140.2611105334
 51
180.0
  0
ARC
  5
529
100
AcDbEntity
  8
RACCORDO
100
AcDbCircle
 62
250
  6
CONTINUOUS
 10
0.0
 20
-0.0
 40
21.8585247046
100
AcDbArc
 50
90.0
 51
129.7388894906
  0
ARC
  5
52A
100
AcDbEntity
  8
RACCORDO
100
AcDbCircle
 62
250
  6
CONTINUOUS
 10
0.0
 20
0.0
 40
21.8585247046
100
AcDbArc
 50
270.0
 51
309.7388894906
  0
ARC
  5
52B
100
AcDbEntity
  8
RACCORDO
100
AcDbCircle
 62
250
  6
CONTINUOUS
 10
0.0
 20
0.0
 40
21.8585247046
100
AcDbArc
 50
320.2611105334
 51
360.0
  0
ARC
  5
52C
100
AcDbEntity
  8
RACCORDO
100
AcDbCircle
 62
7
  6
CONTINUOUS
 10
22.5
 20
22.5
 40
5.0
100
AcDbArc
 50
0.0
 51
90.0
  0
ARC
  5
52D
100
AcDbEntity
  8
RACCORDO
100
AcDbCircle
 62
7
  6
CONTINUOUS
 10
9.4745166004
 20
2.0
 40
5.0
100
AcDbArc
 50
45.0
 51
90.0
  0
ARC
  5
52E
100
AcDbEntity
  8
RACCORDO
100
AcDbCircle
 62
250
  6
CONTINUOUS
 10
9.4745166004
 20
2.0
 40
4.0
100
AcDbArc
 50
45.0
 51
90.0
  0
CIRCLE
  5
52F
100
AcDbEntity
  8
ASSI
100
AcDbCircle
 62
7
  6
CONTINUOUS
 10
9.5
 20
0.0
 40
1.95
  0
ARC
  5
530
100
AcDbEntity
  8
RACCORDO
100
AcDbCircle
 62
7
  6
CONTINUOUS
 10
16.0
 20
0.0
 40
1.8
100
AcDbArc
 50
315.0
 51
45.0
  0
ARC
  5
531
100
AcDbEntity
  8
RACCORDO
100
AcDbCircle
 62
250
  6
CONTINUOUS
 10
16.0
 20
0.0
 40
0.8
100
AcDbArc
 50
315.0
 51
45.0
  0
ENDSEC
  0
SECTION
  2
OBJECTS
  0
DICTIONARY
  5
C
100
AcDbDictionary
280
0
281
1
  3
ACAD_GROUP
350
D
  3
ACAD_MLINESTYLE
350
17
  3
ACAD_LAYOUT
350
1A
  3
ACAD_PLOTSETTINGS
350
19
  3
ACAD_PLOTSTYLENAME
350
E
  0
DICTIONARY
  5
D
102
{ACAD_REACTORS
330
C
102
}
100
AcDbDictionary
280
0
281
1
  0
ACDBDICTIONARYWDFLT
  5
E
102
{ACAD_REACTORS
330
C
102
}
100
AcDbDictionary
281
1
  3
Normal
350
F
100
AcDbDictionaryWithDefault
340
F
  0
DICTIONARY
  5
17
102
{ACAD_REACTORS
330
C
102
}
100
AcDbDictionary
280
0
281
1
  3
Standard
350
18
  0
DICTIONARY
  5
19
102
{ACAD_REACTORS
330
C
102
}
100
AcDbDictionary
281
1
  0
DICTIONARY
  5
1A
102
{ACAD_REACTORS
330
C
102
}
100
AcDbDictionary
281
1
  3
Model
350
532
  3
Layout1
350
533
  0
ACDBPLACEHOLDER
  5
F
102
{ACAD_REACTORS
330
E
102
}
  0
MLINESTYLE
  5
18
102
{ACAD_REACTORS
330
17
102
}
100
AcDbMlineStyle
  2
STANDARD
 70
0
  3

 62
256
 51
90.0
 52
90.0
 71
2
 49
0.5
 62
256
  6
BYLAYER
 49
-0.5
 62
256
  6
BYLAYER
  0
LAYOUT
  5
532
102
{ACAD_REACTORS
330
1A
102
}
100
AcDbPlotSettings
  1

  2
none_device
  4
ANSI_C_(22.00_x_17.00_Inches)
  6

 40
0.0
 41
0.0
 42
0.0
 43
0.0
 44
558.8
 45
431.8
 46
0.0
 47
0.0
 48
0.0
 49
0.0
140
0.0
141
0.0
142
1.0
143
1.0
 70
1024
 72
1
 73
0
 74
0
  7

 75
0
147
1.0
148
0.0
149
0.0
100
AcDbLayout
  1
Model
 70
0
 71
0
 10
0.0
 20
0.0
 11
558.8
 21
431.8
 12
0.0
 22
0.0
 32
0.0
 14
0.0
 24
0.0
 34
0.0
 15
0.0
 25
0.0
 35
0.0
146
0.0
 13
0.0
 23
0.0
 33
0.0
 16
1.0
 26
0.0
 36
0.0
 17
0.0
 27
1.0
 37
0.0
 76
0
330
213
345
0
346
0
  0
LAYOUT
  5
533
102
{ACAD_REACTORS
330
1A
102
}
100
AcDbPlotSettings
  1

  2
none_device
  4
ANSI_C_(22.00_x_17.00_Inches)
  6

 40
0.0
 41
0.0
 42
0.0
 43
0.0
 44
558.8
 45
431.8
 46
0.0
 47
0.0
 48
0.0
 49
0.0
140
0.0
141
0.0
142
1.0
143
1.0
 70
0
 72
1
 73
0
 74
0
  7

 75
0
147
1.0
148
0.0
149
0.0
100
AcDbLayout
  1
Layout1
 70
0
 71
1
 10
0.0
 20
0.0
 11
558.8
 21
431.8
 12
0.0
 22
0.0
 32
0.0
 14
0.0
 24
0.0
 34
0.0
 15
0.0
 25
0.0
 35
0.0
146
0.0
 13
0.0
 23
0.0
 33
0.0
 16
1.0
 26
0.0
 36
0.0
 17
0.0
 27
1.0
 37
0.0
 76
0
330
214
345
0
346
0
  0
ENDSEC
  0
EOF
