  0
SECTION
  2
HEADER
  9
$ACADVER
  1
AC1021
  9
$DWGCODEPAGE
  3
ANSI_1252
  9
$EXTMAX
 10
297.0
 20
210.0
 30
0.0
  9
$EXTMIN
 10
0.0
 20
0.0
 30
0.0
  9
$LIMMIN
 10
0.0
 20
0.0
  9
$LIMMAX
 10
297.0
 20
210.0
  9
$VIEWCTR
 10
148.5
 20
105.0
  9
$VIEWSIZE
 40
210.0
  9
$CLAYER
  8
0
  9
$LTSCALE
 40
16.335
  9
$CELTYPE
  6
BYLAYER
  9
$DIMSCALE
 40
1.0
  9
$DIMASZ
 40
3.0
  9
$DIMEXO
 40
0.5
  9
$DIMDLI
 40
11.286
  9
$DIMEXE
 40
1.5
  9
$DIMCEN
 40
2.673
  9
$DIMLFAC
 40
1.0
  9
$DIMBLK
  1
_FILLED
  9
$DIMALT
 70
0
  9
$DIMALTF
 40
0.0393700787
  9
$DIMTXT
 40
3.0
  9
$DIMTOL
 70
1
  9
$DIMLIM
 70
0
  9
$DIMTFAC
 40
1.0
  9
$DIMTP
 40
0.01
  9
$DIMTM
 40
0.01
  9
$DIMGAP
 40
0.625
  9
$DIMDSEP
 70
44
  9
$AUNITS
 70
0
  9
$PDMODE
 70
3
  9
$PDSIZE
 40
3.0
  9
$HANDSEED
  5
58A
  9
$TILEMODE
 70
1
  9
$MEASUREMENT
 70
1
  9
$INSUNITS
 70
4
  0
ENDSEC
  0
SECTION
  2
CLASSES
  0
CLASS
  1
ACDBDICTIONARYWDFLT
  2
AcDbDictionaryWithDefault
  3
AutoCAD 2000
 90
0
 91
1
280
0
281
0
  0
CLASS
  1
ACDBPLACEHOLDER
  2
AcDbPlaceHolder
  3
AutoCAD 2000
 90
0
 91
1
280
0
281
0
  0
CLASS
  1
LAYOUT
  2
AcDbLayout
  3
AutoCAD 2000
 90
0
 91
0
280
0
281
0
  0
ENDSEC
  0
SECTION
  2
TABLES
  0
TABLE
  2
VPORT
  5
8
100
AcDbSymbolTable
 70
2
  0
VPORT
  5
1F4
100
AcDbSymbolTableRecord
100
AcDbViewportTableRecord
  2
*ACTIVE
 70
0
 10
0.0
 20
0.0
 11
1.0
 21
1.0
 12
148.5
 22
105.0
 13
0.0
 23
0.0
 14
1.0
 24
1.0
 15
0.0
 25
0.0
 16
0.0
 26
0.0
 36
1.0
 17
0.0
 27
0.0
 37
0.0
 40
210.0
 41
1.4142857143
 42
50.0
 43
0.0
 44
0.0
 50
0.0
 51
0.0
 71
0
 72
100
 73
1
 74
1
 75
0
 76
0
 77
0
 78
0
  0
ENDTAB
  0
TABLE
  2
LTYPE
  5
5
100
AcDbSymbolTable
 70
6
  0
LTYPE
  5
14
100
AcDbSymbolTableRecord
100
AcDbLinetypeTableRecord
  2
BYBLOCK
 70
0
  3

 72
65
 73
0
 40
0.0
  0
LTYPE
  5
15
100
AcDbSymbolTableRecord
100
AcDbLinetypeTableRecord
  2
BYLAYER
 70
0
  3

 72
65
 73
0
 40
0.0
  0
LTYPE
  5
16
100
AcDbSymbolTableRecord
100
AcDbLinetypeTableRecord
  2
CONTINUOUS
 70
64
  3
Solid line
 72
65
 73
0
 40
0.0
  0
LTYPE
  5
1F5
100
AcDbSymbolTableRecord
100
AcDbLinetypeTableRecord
  2
CENTER
 70
64
  3
____ _ ____ _ ____ _ ____ _ ____ _ ____ _ ____
 72
65
 73
4
 40
0.6
 49
0.375
 74
0
 49
-0.075
 74
0
 49
0.075
 74
0
 49
-0.075
 74
0
  0
LTYPE
  5
1F6
100
AcDbSymbolTableRecord
100
AcDbLinetypeTableRecord
  2
HIDDEN
 70
64
  3
- - - - - - - - - - - - - - - - - - - -
 72
65
 73
2
 40
0.2
 49
0.1
 74
0
 49
-0.1
 74
0
  0
LTYPE
  5
1F7
100
AcDbSymbolTableRecord
100
AcDbLinetypeTableRecord
  2
PHANTOM
 70
64
  3
_____ _ _ _____ _ _ _____ _ _ _____
 72
65
 73
6
 40
0.8
 49
0.45
 74
0
 49
-0.05
 74
0
 49
0.1
 74
0
 49
-0.05
 74
0
 49
0.1
 74
0
 49
-0.05
 74
0
  0
LTYPE
  5
1F8
100
AcDbSymbolTableRecord
100
AcDbLinetypeTableRecord
  2
DOT
 70
64
  3
. . . . . . . . . . . . . . . . . . . .
 72
65
 73
2
 40
0.2
 49
0.1
 74
0
 49
-0.1
 74
0
  0
LTYPE
  5
1F9
100
AcDbSymbolTableRecord
100
AcDbLinetypeTableRecord
  2
DASHED
 70
64
  3
- - - - - - - - - - - - - - - - - - - -
 72
65
 73
2
 40
0.2
 49
0.1
 74
0
 49
-0.1
 74
0
  0
ENDTAB
  0
TABLE
  2
LAYER
  5
2
100
AcDbSymbolTable
 70
36
  0
LAYER
  5
10
100
AcDbSymbolTableRecord
100
AcDbLayerTableRecord
  2
0
 70
0
 62
7
  6
CONTINUOUS
370
-3
390
F
  0
LAYER
  5
1FA
100
AcDbSymbolTableRecord
100
AcDbLayerTableRecord
  2
DEFAULT_1
 70
0
 62
7
  6
CENTER
370
-3
390
F
  0
LAYER
  5
1FB
100
AcDbSymbolTableRecord
100
AcDbLayerTableRecord
  2
DEFAULT_2
 70
0
 62
7
  6
HIDDEN
370
-3
390
F
  0
LAYER
  5
1FC
100
AcDbSymbolTableRecord
100
AcDbLayerTableRecord
  2
DEFAULT_3
 70
0
 62
7
  6
PHANTOM
370
-3
390
F
  0
LAYER
  5
1FD
100
AcDbSymbolTableRecord
100
AcDbLayerTableRecord
  2
ASSI
 70
0
 62
7
  6
CONTINUOUS
370
-3
390
F
  0
LAYER
  5
1FE
100
AcDbSymbolTableRecord
100
AcDbLayerTableRecord
  2
COLOR5
 70
0
 62
7
  6
CONTINUOUS
370
-3
390
F
  0
LAYER
  5
1FF
100
AcDbSymbolTableRecord
100
AcDbLayerTableRecord
  2
COORDINATE
 70
0
 62
7
  6
CONTINUOUS
370
-3
390
F
  0
LAYER
  5
200
100
AcDbSymbolTableRecord
100
AcDbLayerTableRecord
  2
COORD_ORIGINE
 70
0
 62
7
  6
CONTINUOUS
370
-3
390
F
  0
LAYER
  5
201
100
AcDbSymbolTableRecord
100
AcDbLayerTableRecord
  2
COPY_PUBLISH
 70
0
 62
7
  6
CONTINUOUS
370
-3
390
F
  0
LAYER
  5
202
100
AcDbSymbolTableRecord
100
AcDbLayerTableRecord
  2
COSMETICI
 70
0
 62
7
  6
CONTINUOUS
370
-3
390
F
  0
LAYER
  5
203
100
AcDbSymbolTableRecord
100
AcDbLayerTableRecord
  2
CURVE
 70
0
 62
7
  6
CONTINUOUS
370
-3
390
F
  0
LAYER
  5
204
100
AcDbSymbolTableRecord
100
AcDbLayerTableRecord
  2
DRAFT
 70
0
 62
7
  6
CONTINUOUS
370
-3
390
F
  0
LAYER
  5
205
100
AcDbSymbolTableRecord
100
AcDbLayerTableRecord
  2
IMPORT_IGES
 70
0
 62
7
  6
CONTINUOUS
370
-3
390
F
  0
LAYER
  5
206
100
AcDbSymbolTableRecord
100
AcDbLayerTableRecord
  2
NOTE
 70
0
 62
7
  6
CONTINUOUS
370
-3
390
F
  0
LAYER
  5
207
100
AcDbSymbolTableRecord
100
AcDbLayerTableRecord
  2
PIANI
 70
0
 62
7
  6
CONTINUOUS
370
-3
390
F
  0
LAYER
  5
208
100
AcDbSymbolTableRecord
100
AcDbLayerTableRecord
  2
PIANI_ORIGINE
 70
0
 62
7
  6
CONTINUOUS
370
-3
390
F
  0
LAYER
  5
209
100
AcDbSymbolTableRecord
100
AcDbLayerTableRecord
  2
PUNTI
 70
0
 62
7
  6
CONTINUOUS
370
-3
390
F
  0
LAYER
  5
20A
100
AcDbSymbolTableRecord
100
AcDbLayerTableRecord
  2
RACCORDO
 70
0
 62
7
  6
CONTINUOUS
370
-3
390
F
  0
LAYER
  5
20B
100
AcDbSymbolTableRecord
100
AcDbLayerTableRecord
  2
SIMBOLI
 70
0
 62
7
  6
CONTINUOUS
370
-3
390
F
  0
LAYER
  5
20C
100
AcDbSymbolTableRecord
100
AcDbLayerTableRecord
  2
SMUSSO
 70
0
 62
7
  6
CONTINUOUS
370
-3
390
F
  0
LAYER
  5
20D
100
AcDbSymbolTableRecord
100
AcDbLayerTableRecord
  2
SNAPLINE
 70
0
 62
7
  6
CONTINUOUS
370
-3
390
F
  0
LAYER
  5
20E
100
AcDbSymbolTableRecord
100
AcDbLayerTableRecord
  2
SUPERFICI
 70
0
 62
7
  6
CONTINUOUS
370
-3
390
F
  0
LAYER
  5
20F
100
AcDbSymbolTableRecord
100
AcDbLayerTableRecord
  2
TRASH
 70
0
 62
7
  6
CONTINUOUS
370
-3
390
F
  0
ENDTAB
  0
TABLE
  2
STYLE
  5
3
100
AcDbSymbolTable
 70
1
  0
STYLE
  5
11
100
AcDbSymbolTableRecord
100
AcDbTextStyleTableRecord
  2
STANDARD
 70
0
 40
0.0
 41
0.8
 50
0.0
 71
0
 42
0.2
  3
txt
  4

  0
STYLE
  5
210
100
AcDbSymbolTableRecord
100
AcDbTextStyleTableRecord
  2
TEXTSTYLE_1
 70
0
 40
0.0
 41
0.8
 50
0.0
 71
0
 42
0.2
  3
gdt
  4

  0
ENDTAB
  0
TABLE
  2
VIEW
  5
6
100
AcDbSymbolTable
 70
0
  0
ENDTAB
  0
TABLE
  2
UCS
  5
7
100
AcDbSymbolTable
 70
0
  0
ENDTAB
  0
TABLE
  2
APPID
  5
9
100
AcDbSymbolTable
 70
1
  0
APPID
  5
211
100
AcDbSymbolTableRecord
100
AcDbRegAppTableRecord
  2
ACAD
 70
0
  0
ENDTAB
  0
TABLE
  2
BLOCK_RECORD
  5
1
100
AcDbSymbolTable
 70
0
  0
BLOCK_RECORD
  5
212
100
AcDbSymbolTableRecord
100
AcDbBlockTableRecord
  2
*Model_Space
  0
BLOCK_RECORD
  5
213
100
AcDbSymbolTableRecord
100
AcDbBlockTableRecord
  2
*Paper_Space
  0
ENDTAB
  0
TABLE
  2
DIMSTYLE
  5
A
100
AcDbSymbolTable
 70
1
100
AcDbDimStyleTable
 71
0
  0
DIMSTYLE
105
214
100
AcDbSymbolTableRecord
100
AcDbDimStyleTableRecord
  2
STANDARD
 70
0
  3

  4

 40
1.0
 41
3.0
 42
0.5
 43
0.38
 44
1.5
 45
0.0
 46
0.0
 47
0.01
 48
0.01
140
3.0
141
0.09
142
0.0
143
25.4
144
1.0
145
0.0
146
1.0
147
0.625
 71
1.0
 72
0.0
 73
0
 74
0
 75
0
 76
0
 77
1
 78
8
170
0
171
2
172
0
173
0
174
0
175
0
176
0
177
0
178
0
270
2
271
2
272
2
273
2
274
2
275
0
280
0
281
0
282
0
283
1
284
8
285
0
286
0
287
3
288
0
340
11
278
44
  0
ENDTAB
  0
ENDSEC
  0
SECTION
  2
BLOCKS
  0
BLOCK
  5
20
100
AcDbEntity
  8
0
100
AcDbBlockBegin
  2
*Model_Space
 70
0
 10
0.0
 20
0.0
 30
0.0
  3
*Model_Space
  1

  0
ENDBLK
  5
21
100
AcDbEntity
  8
0
100
AcDbBlockEnd
  0
BLOCK
  5
1C
100
AcDbEntity
  8
0
100
AcDbBlockBegin
  2
*Paper_Space
 70
0
 10
0.0
 20
0.0
 30
0.0
  3
*Paper_Space
  1

  0
ENDBLK
  5
1D
100
AcDbEntity
  8
0
100
AcDbBlockEnd
  0
ENDSEC
  0
SECTION
  2
ENTITIES
  0
LINE
  5
215
100
AcDbEntity
  8
IMPORT_IGES
100
AcDbLine
 62
253
  6
CONTINUOUS
 10
18.7081393026
 20
-51.6172155314
 11
18.801985236
 21
-51.5940644204
  0
LWPOLYLINE
  5
216
100
AcDbEntity
  8
IMPORT_IGES
100
AcDbPolyline
 62
7
  6
CONTINUOUS
 90
22
 70
0
 10
18.8410905235
 20
-51.8447824543
 10
18.9349761908
 20
-51.8276054663
 10
19.0267896007
 20
-51.8048534919
 10
19.1165307533
 20
-51.7765265309
 10
19.2045182461
 20
-51.7424595394
 10
19.2904334815
 20
-51.7028175614
 10
19.3733206669
 20
-51.6580957291
 10
19.4531461013
 20
-51.6082452597
 10
19.5299434856
 20
-51.553314936
 10
19.6028581296
 20
-51.4939462381
 10
19.6718503255
 20
-51.4300958311
 10
19.7369597811
 20
-51.3618070499
 10
19.7974509297
 20
-51.2898513795
 10
19.8532785939
 20
-51.2141912214
 10
19.904487951
 20
-51.134864174
 10
19.9504789663
 20
-51.052754517
 10
19.9912013229
 20
-50.9678308313
 10
20.0267053378
 20
-50.8801245359
 10
20.0565419269
 20
-50.7906141673
 10
20.0805613954
 20
-50.6996259041
 10
20.0989134382
 20
-50.6068335677
 10
20.1115980552
 20
-50.5122371579
  0
LINE
  5
217
100
AcDbEntity
  8
IMPORT_IGES
100
AcDbLine
 62
253
  6
CONTINUOUS
 10
18.7102104838
 20
-51.6167217797
 11
18.6171799469
 21
-51.6335588697
  0
LINE
  5
218
100
AcDbEntity
  8
IMPORT_IGES
100
AcDbLine
 62
253
  6
CONTINUOUS
 10
-18.7112820372
 20
-51.6165437368
 11
-18.617177258
 21
-51.6336370682
  0
LINE
  5
219
100
AcDbEntity
  8
IMPORT_IGES
100
AcDbLine
 62
253
  6
CONTINUOUS
 10
-18.8047937141
 20
-51.5932834512
 11
-18.7102904418
 21
-51.6167046892
  0
LWPOLYLINE
  5
21A
100
AcDbEntity
  8
IMPORT_IGES
100
AcDbPolyline
 62
253
  6
CONTINUOUS
 90
19
 70
0
 10
-18.8923673205
 20
-51.565600457
 10
-18.9806008339
 20
-51.5315659414
 10
-19.0664947154
 20
-51.4920557629
 10
-19.1497025392
 20
-51.4472320967
 10
-19.2298968964
 20
-51.3972785086
 10
-19.3067631514
 20
-51.3423985289
 10
-19.3799938052
 20
-51.2828160284
 10
-19.4492849139
 20
-51.2187896756
 10
-19.5143879308
 20
-51.150563535
 10
-19.5750935705
 20
-51.0783569583
 10
-19.6311708755
 20
-51.0024304749
 10
-19.6823769384
 20
-50.9231005885
 10
-19.7285028047
 20
-50.8406847027
 10
-19.7693616312
 20
-50.7555064651
 10
-19.8047865666
 20
-50.6679023423
 10
-19.834631773
 20
-50.5782271329
 10
-19.8587754327
 20
-50.4868388358
 10
-19.8771187431
 20
-50.3940966371
 10
-19.8895854741
 20
-50.3003683743
  0
LINE
  5
21B
100
AcDbEntity
  8
IMPORT_IGES
100
AcDbLine
 62
253
  6
CONTINUOUS
 10
19.8890244163
 20
-50.3006141366
 11
19.89010458
 21
-50.3004021733
  0
LWPOLYLINE
  5
21C
100
AcDbEntity
  8
IMPORT_IGES
100
AcDbPolyline
 62
253
  6
CONTINUOUS
 90
10
 70
0
 10
17.9395926763
 20
-49.7470233293
 10
15.956997326
 20
-50.0176067413
 10
13.9713456687
 20
-50.2564298624
 10
11.9826377043
 20
-50.4634926927
 10
9.9903625983
 20
-50.6388319905
 10
7.9950311852
 20
-50.7824109974
 10
5.9981759684
 20
-50.8941194383
 10
4.0003077826
 20
-50.973920555
 10
2.0009157931
 20
-51.0218511057
 10
-0.0
 20
-51.0379110905
  0
LWPOLYLINE
  5
21D
100
AcDbEntity
  8
IMPORT_IGES
100
AcDbPolyline
 62
253
  6
CONTINUOUS
 90
10
 70
0
 10
-0.0
 20
-53.0022572464
 10
2.0759261947
 20
-52.9853366673
 10
4.1513016324
 20
-52.9345660796
 10
6.2255741439
 20
-52.8499589343
 10
8.2981920156
 20
-52.7315376656
 10
10.3686036449
 20
-52.5793337614
 10
12.4362576917
 20
-52.3933877817
 10
14.5006038798
 20
-52.1737492333
 10
16.5610931391
 20
-51.9204765302
 10
18.6171772632
 20
-51.6336370731
  0
LWPOLYLINE
  5
21E
100
AcDbEntity
  8
IMPORT_IGES
100
AcDbPolyline
 62
253
  6
CONTINUOUS
 90
10
 70
0
 10
-0.0
 20
-51.0379110905
 10
-2.0009157931
 20
-51.0218511057
 10
-4.0003077825
 20
-50.973920555
 10
-5.9981759684
 20
-50.8941194383
 10
-7.9950311851
 20
-50.7824109974
 10
-9.9903625983
 20
-50.6388319905
 10
-11.9826377043
 20
-50.4634926927
 10
-13.9713456687
 20
-50.2564298624
 10
-15.956997326
 20
-50.0176067413
 10
-17.9395926762
 20
-49.7470233292
  0
LWPOLYLINE
  5
21F
100
AcDbEntity
  8
IMPORT_IGES
100
AcDbPolyline
 62
253
  6
CONTINUOUS
 90
10
 70
0
 10
-18.617177258
 20
-51.6336370682
 10
-16.5610931345
 20
-51.9204765258
 10
-14.5006038758
 20
-52.1737492293
 10
-12.4362576883
 20
-52.3933877783
 10
-10.3686036421
 20
-52.5793337585
 10
-8.2981920134
 20
-52.7315376632
 10
-6.2255741422
 20
-52.8499589325
 10
-4.1513016313
 20
-52.9345660784
 10
-2.0759261942
 20
-52.9853366667
 10
-0.0
 20
-53.0022572464
  0
LINE
  5
220
100
AcDbEntity
  8
IMPORT_IGES
100
AcDbLine
 62
253
  6
CONTINUOUS
 10
-19.8901045676
 20
-50.300402296
 11
-19.8890244163
 21
-50.3006141366
  0
LINE
  5
221
100
AcDbEntity
  8
IMPORT_IGES
100
AcDbLine
 62
7
  6
CONTINUOUS
 10
-9.0000000006
 20
-47.9796765907
 11
9.0000000006
 21
-47.9796765901
  0
LINE
  5
222
100
AcDbEntity
  8
IMPORT_IGES
100
AcDbLine
 62
7
  6
CONTINUOUS
 10
9.1118839641
 20
-46.0897910398
 11
6.8881160359
 21
-46.0897910398
  0
LINE
  5
223
100
AcDbEntity
  8
IMPORT_IGES
100
AcDbLine
 62
7
  6
CONTINUOUS
 10
5.1118839641
 20
-46.0897910398
 11
2.8881160359
 21
-46.0897910398
  0
LINE
  5
224
100
AcDbEntity
  8
IMPORT_IGES
100
AcDbLine
 62
7
  6
CONTINUOUS
 10
1.1118839641
 20
-46.0897910398
 11
-1.1118839641
 21
-46.0897910398
  0
LINE
  5
225
100
AcDbEntity
  8
IMPORT_IGES
100
AcDbLine
 62
7
  6
CONTINUOUS
 10
-2.8881160359
 20
-46.0897910398
 11
-5.1118839641
 21
-46.0897910398
  0
LINE
  5
226
100
AcDbEntity
  8
IMPORT_IGES
100
AcDbLine
 62
7
  6
CONTINUOUS
 10
-6.8881160359
 20
-46.0897910398
 11
-9.1118839641
 21
-46.0897910398
  0
LWPOLYLINE
  5
227
100
AcDbEntity
  8
IMPORT_IGES
100
AcDbPolyline
 62
253
  6
CONTINUOUS
 90
9
 70
0
 10
19.8890243777
 20
-50.3006141327
 10
19.8803108789
 20
-50.3000939456
 10
19.8642637366
 20
-50.2973578327
 10
19.8407641882
 20
-50.2923816002
 10
19.8097624117
 20
-50.285106363
 10
19.7713365784
 20
-50.2755686485
 10
19.7257542924
 20
-50.2639068647
 10
19.673985162
 20
-50.2503322291
 10
19.615944416
 20
-50.2347007447
  0
LWPOLYLINE
  5
228
100
AcDbEntity
  8
IMPORT_IGES
100
AcDbPolyline
 62
253
  6
CONTINUOUS
 90
22
 70
0
 10
-5.5225824148
 20
46.0995858937
 10
-5.6580835729
 20
46.049926901
 10
-5.7896241611
 20
45.9930815997
 10
-5.9172041794
 20
45.9290499897
 10
-6.0412078819
 20
45.8575617002
 10
-6.1612510145
 20
45.778887102
 10
-6.276180815
 20
45.6938373081
 10
-6.3859339758
 20
45.6023697425
 10
-6.4905738045
 20
45.5045269811
 10
-6.5891374612
 20
45.4012478647
 10
-6.6815738215
 20
45.2924885492
 10
-6.7679340099
 20
45.1782928786
 10
-6.8474085592
 20
45.0597312262
 10
-6.9199413596
 20
44.9367663403
 10
-6.985588521
 20
44.8094354725
 10
-7.0437089063
 20
44.6789207503
 10
-7.0942413657
 20
44.5451949988
 10
-7.137247049
 20
44.4082853929
 10
-7.1722682685
 20
44.2694555859
 10
-7.1991524618
 20
44.1291267955
 10
-7.2180521913
 20
43.986877804
 10
-7.2289674571
 20
43.8427086114
  0
LWPOLYLINE
  5
229
100
AcDbEntity
  8
IMPORT_IGES
100
AcDbPolyline
 62
253
  6
CONTINUOUS
 90
40
 70
0
 10
-5.210082192
 20
45.5225409987
 10
-5.2655055098
 20
45.5033728583
 10
-5.3208160486
 20
45.4822272679
 10
-5.3759593513
 20
45.4590872868
 10
-5.4309470932
 20
45.4339053382
 10
-5.4856496318
 20
45.4066969149
 10
-5.5398069569
 20
45.3775623123
 10
-5.5933637257
 20
45.3465133409
 10
-5.6462675221
 20
45.3135609265
 10
-5.6982812457
 20
45.2788436666
 10
-5.7493447918
 20
45.2424042498
 10
-5.7994261802
 20
45.2042662921
 10
-5.8483495794
 20
45.1645712519
 10
-5.8960574206
 20
45.1233828796
 10
-5.9425317701
 20
45.0807317761
 10
-5.9876707909
 20
45.0367284079
 10
-6.0314190214
 20
44.991449529
 10
-6.0737681941
 20
44.944924394
 10
-6.1146923888
 20
44.8971972554
 10
-6.1541436947
 20
44.8483385405
 10
-6.1921060603
 20
44.7983803591
 10
-6.2285950795
 20
44.74730402
 10
-6.2635933312
 20
44.6951234781
 10
-6.2970397011
 20
44.6419157743
 10
-6.3288805042
 20
44.5877539849
 10
-6.3590873903
 20
44.5326710959
 10
-6.3876154319
 20
44.4767292737
 10
-6.4143949725
 20
44.4200500237
 10
-6.4393993854
 20
44.3626774623
 10
-6.4625964321
 20
44.3046682953
 10
-6.4839237989
 20
44.2461689535
 10
-6.5033665677
 20
44.1872174047
 10
-6.520900429
 20
44.1278794933
 10
-6.5364719942
 20
44.068349421
 10
-6.5500808407
 20
44.0086634352
 10
-6.5617192683
 20
43.9488898522
 10
-6.5713564739
 20
43.8892763965
 10
-6.5790029162
 20
43.8299408918
 10
-6.5846894582
 20
43.7708670732
 10
-6.5884365187
 20
43.7121018858
  0
LINE
  5
22A
100
AcDbEntity
  8
IMPORT_IGES
100
AcDbLine
 62
253
  6
CONTINUOUS
 10
-19.2610315079
 20
-50.135522604
 11
-19.4150430232
 21
-50.1791164637
  0
LINE
  5
22B
100
AcDbEntity
  8
IMPORT_IGES
100
AcDbLine
 62
253
  6
CONTINUOUS
 10
-19.4150430232
 20
-50.1791164637
 11
-19.5496437549
 21
-50.2165131727
  0
LWPOLYLINE
  5
22C
100
AcDbEntity
  8
IMPORT_IGES
100
AcDbPolyline
 62
253
  6
CONTINUOUS
 90
10
 70
0
 10
-19.5496437549
 20
-50.2165131727
 10
-19.6613951648
 20
-50.2469217116
 10
-19.7083994429
 20
-50.2594217804
 10
-19.7507029287
 20
-50.2703584634
 10
-19.7881630942
 20
-50.2798047675
 10
-19.8201296606
 20
-50.2876232005
 10
-19.8464312032
 20
-50.2936429527
 10
-19.8668207348
 20
-50.2977947215
 10
-19.8810589046
 20
-50.3001189441
 10
-19.8890243777
 20
-50.3006141327
  0
LINE
  5
22D
100
AcDbEntity
  8
IMPORT_IGES
100
AcDbLine
 62
7
  6
CONTINUOUS
 10
8.9440585504
 20
-45.8801051454
 11
7.0559414496
 21
-45.8801051454
  0
LINE
  5
22E
100
AcDbEntity
  8
IMPORT_IGES
100
AcDbLine
 62
7
  6
CONTINUOUS
 10
4.9440585504
 20
-45.8801051454
 11
3.0559414496
 21
-45.8801051454
  0
LINE
  5
22F
100
AcDbEntity
  8
IMPORT_IGES
100
AcDbLine
 62
7
  6
CONTINUOUS
 10
0.9440585504
 20
-45.8801051454
 11
-0.9440585504
 21
-45.8801051454
  0
LINE
  5
230
100
AcDbEntity
  8
IMPORT_IGES
100
AcDbLine
 62
7
  6
CONTINUOUS
 10
-3.0559414496
 20
-45.8801051454
 11
-4.9440585504
 21
-45.8801051454
  0
LINE
  5
231
100
AcDbEntity
  8
IMPORT_IGES
100
AcDbLine
 62
7
  6
CONTINUOUS
 10
-7.0559414496
 20
-45.8801051454
 11
-8.9440585504
 21
-45.8801051454
  0
LINE
  5
232
100
AcDbEntity
  8
RACCORDO
100
AcDbLine
 62
253
  6
CONTINUOUS
 10
4.9440585504
 20
-45.25
 11
5.0
 21
-45.25
  0
LINE
  5
233
100
AcDbEntity
  8
RACCORDO
100
AcDbLine
 62
7
  6
CONTINUOUS
 10
4.9440585504
 20
-44.95
 11
5.0
 21
-44.95
  0
LINE
  5
234
100
AcDbEntity
  8
0
100
AcDbLine
 62
7
  6
CONTINUOUS
 10
1.0
 20
-44.45
 11
-1.0
 21
-44.45
  0
LINE
  5
235
100
AcDbEntity
  8
IMPORT_IGES
100
AcDbLine
 62
253
  6
CONTINUOUS
 10
19.615944416
 20
-50.2347007447
 11
19.4737741142
 21
-50.195431068
  0
LINE
  5
236
100
AcDbEntity
  8
IMPORT_IGES
100
AcDbLine
 62
253
  6
CONTINUOUS
 10
19.4737741142
 20
-50.195431068
 11
19.2045857364
 21
-50.1195385925
  0
LINE
  5
237
100
AcDbEntity
  8
IMPORT_IGES
100
AcDbLine
 62
253
  6
CONTINUOUS
 10
19.2045857364
 20
-50.1195385925
 11
18.8957383113
 21
-50.0303739223
  0
LINE
  5
238
100
AcDbEntity
  8
IMPORT_IGES
100
AcDbLine
 62
253
  6
CONTINUOUS
 10
18.8957383113
 20
-50.0303739223
 11
18.5509312142
 21
-49.9292818066
  0
LWPOLYLINE
  5
239
100
AcDbEntity
  8
IMPORT_IGES
100
AcDbPolyline
 62
253
  6
CONTINUOUS
 90
3
 70
0
 10
18.5509312142
 20
-49.9292818066
 10
18.0608631138
 20
-49.7837095457
 10
17.9394090442
 20
-49.7469669927
  0
LINE
  5
23A
100
AcDbEntity
  8
0
100
AcDbLine
 62
7
  6
CONTINUOUS
 10
-9.0
 20
-39.5
 11
-8.9440585504
 21
-39.5
  0
LINE
  5
23B
100
AcDbEntity
  8
0
100
AcDbLine
 62
7
  6
CONTINUOUS
 10
-7.0559414496
 20
-39.5
 11
-7.0
 21
-39.5
  0
LINE
  5
23C
100
AcDbEntity
  8
0
100
AcDbLine
 62
7
  6
CONTINUOUS
 10
-5.0
 20
-39.3
 11
-4.9440585504
 21
-39.3
  0
LINE
  5
23D
100
AcDbEntity
  8
0
100
AcDbLine
 62
7
  6
CONTINUOUS
 10
-5.0
 20
-38.8
 11
-4.9440585504
 21
-38.8
  0
LINE
  5
23E
100
AcDbEntity
  8
IMPORT_IGES
100
AcDbLine
 62
253
  6
CONTINUOUS
 10
5.3640061069
 20
45.6253892343
 11
5.2100829286
 21
45.5225432163
  0
LINE
  5
23F
100
AcDbEntity
  8
0
100
AcDbLine
 62
7
  6
CONTINUOUS
 10
-5.0
 20
-37.52
 11
-4.9440585504
 21
-37.52
  0
LINE
  5
240
100
AcDbEntity
  8
0
100
AcDbLine
 62
7
  6
CONTINUOUS
 10
-5.0
 20
-36.92
 11
-4.9440585504
 21
-36.92
  0
LINE
  5
241
100
AcDbEntity
  8
0
100
AcDbLine
 62
7
  6
CONTINUOUS
 10
-5.0
 20
-35.64
 11
-4.9440585504
 21
-35.64
  0
LINE
  5
242
100
AcDbEntity
  8
0
100
AcDbLine
 62
7
  6
CONTINUOUS
 10
-5.0
 20
-35.04
 11
-4.9440585504
 21
-35.04
  0
LINE
  5
243
100
AcDbEntity
  8
IMPORT_IGES
100
AcDbLine
 62
253
  6
CONTINUOUS
 10
6.5884366203
 20
43.7121018575
 11
6.7295101398
 21
43.8198458202
  0
LINE
  5
244
100
AcDbEntity
  8
0
100
AcDbLine
 62
7
  6
CONTINUOUS
 10
-5.0
 20
-33.76
 11
-4.9440585504
 21
-33.76
  0
LINE
  5
245
100
AcDbEntity
  8
IMPORT_IGES
100
AcDbLine
 62
7
  6
CONTINUOUS
 10
-8.9440585504
 20
-33.4919710042
 11
-7.0559414496
 21
-33.4919710042
  0
LINE
  5
246
100
AcDbEntity
  8
IMPORT_IGES
100
AcDbLine
 62
7
  6
CONTINUOUS
 10
-4.9440585504
 20
-33.4919710042
 11
-3.0559414496
 21
-33.4919710042
  0
LINE
  5
247
100
AcDbEntity
  8
IMPORT_IGES
100
AcDbLine
 62
7
  6
CONTINUOUS
 10
-0.9440585504
 20
-33.4919710042
 11
0.9440585504
 21
-33.4919710042
  0
LINE
  5
248
100
AcDbEntity
  8
IMPORT_IGES
100
AcDbLine
 62
7
  6
CONTINUOUS
 10
3.0559414496
 20
-33.4919710042
 11
4.9440585504
 21
-33.4919710042
  0
LINE
  5
249
100
AcDbEntity
  8
IMPORT_IGES
100
AcDbLine
 62
7
  6
CONTINUOUS
 10
7.0559414496
 20
-33.4919710042
 11
8.9440585504
 21
-33.4919710042
  0
LINE
  5
24A
100
AcDbEntity
  8
IMPORT_IGES
100
AcDbLine
 62
7
  6
CONTINUOUS
 10
-9.1118839641
 20
-33.3660571924
 11
-6.8881160359
 21
-33.3660571924
  0
LINE
  5
24B
100
AcDbEntity
  8
IMPORT_IGES
100
AcDbLine
 62
7
  6
CONTINUOUS
 10
-5.1118839641
 20
-33.3660571924
 11
-2.8881160359
 21
-33.3660571924
  0
LINE
  5
24C
100
AcDbEntity
  8
IMPORT_IGES
100
AcDbLine
 62
7
  6
CONTINUOUS
 10
-1.1118839641
 20
-33.3660571924
 11
1.1118839641
 21
-33.3660571924
  0
LINE
  5
24D
100
AcDbEntity
  8
IMPORT_IGES
100
AcDbLine
 62
7
  6
CONTINUOUS
 10
2.8881160359
 20
-33.3660571924
 11
5.1118839641
 21
-33.3660571924
  0
LINE
  5
24E
100
AcDbEntity
  8
IMPORT_IGES
100
AcDbLine
 62
7
  6
CONTINUOUS
 10
6.8881160359
 20
-33.3660571924
 11
9.1118839641
 21
-33.3660571924
  0
LINE
  5
24F
100
AcDbEntity
  8
IMPORT_IGES
100
AcDbLine
 62
7
  6
CONTINUOUS
 10
-8.9440585504
 20
-33.4919710042
 11
-9.1118839641
 21
-33.3660571924
  0
LINE
  5
250
100
AcDbEntity
  8
IMPORT_IGES
100
AcDbLine
 62
7
  6
CONTINUOUS
 10
-7.0559414496
 20
-45.8801051454
 11
-6.8881160359
 21
-46.0897910398
  0
LINE
  5
251
100
AcDbEntity
  8
IMPORT_IGES
100
AcDbLine
 62
7
  6
CONTINUOUS
 10
-3.0559414496
 20
-45.8801051454
 11
-2.8881160359
 21
-46.0897910398
  0
LINE
  5
252
100
AcDbEntity
  8
IMPORT_IGES
100
AcDbLine
 62
7
  6
CONTINUOUS
 10
9.1118839641
 20
-28.5897910398
 11
6.8881160359
 21
-28.5897910398
  0
LINE
  5
253
100
AcDbEntity
  8
IMPORT_IGES
100
AcDbLine
 62
7
  6
CONTINUOUS
 10
5.1118839641
 20
-28.5897910398
 11
2.8881160359
 21
-28.5897910398
  0
LINE
  5
254
100
AcDbEntity
  8
IMPORT_IGES
100
AcDbLine
 62
7
  6
CONTINUOUS
 10
1.1118839641
 20
-28.5897910398
 11
-1.1118839641
 21
-28.5897910398
  0
LINE
  5
255
100
AcDbEntity
  8
IMPORT_IGES
100
AcDbLine
 62
7
  6
CONTINUOUS
 10
-2.8881160359
 20
-28.5897910398
 11
-5.1118839641
 21
-28.5897910398
  0
LINE
  5
256
100
AcDbEntity
  8
IMPORT_IGES
100
AcDbLine
 62
7
  6
CONTINUOUS
 10
-6.8881160359
 20
-28.5897910398
 11
-9.1118839641
 21
-28.5897910398
  0
LINE
  5
257
100
AcDbEntity
  8
IMPORT_IGES
100
AcDbLine
 62
7
  6
CONTINUOUS
 10
8.9440585504
 20
-28.3801051454
 11
7.0559414496
 21
-28.3801051454
  0
LINE
  5
258
100
AcDbEntity
  8
IMPORT_IGES
100
AcDbLine
 62
7
  6
CONTINUOUS
 10
4.9440585504
 20
-28.3801051454
 11
3.0559414496
 21
-28.3801051454
  0
LINE
  5
259
100
AcDbEntity
  8
IMPORT_IGES
100
AcDbLine
 62
7
  6
CONTINUOUS
 10
0.9440585504
 20
-28.3801051454
 11
-0.9440585504
 21
-28.3801051454
  0
LINE
  5
25A
100
AcDbEntity
  8
IMPORT_IGES
100
AcDbLine
 62
7
  6
CONTINUOUS
 10
-3.0559414496
 20
-28.3801051454
 11
-4.9440585504
 21
-28.3801051454
  0
LINE
  5
25B
100
AcDbEntity
  8
IMPORT_IGES
100
AcDbLine
 62
7
  6
CONTINUOUS
 10
-7.0559414496
 20
-28.3801051454
 11
-8.9440585504
 21
-28.3801051454
  0
LINE
  5
25C
100
AcDbEntity
  8
IMPORT_IGES
100
AcDbLine
 62
7
  6
CONTINUOUS
 10
-4.9440585504
 20
-33.4919710042
 11
-5.1118839641
 21
-33.3660571924
  0
LINE
  5
25D
100
AcDbEntity
  8
IMPORT_IGES
100
AcDbLine
 62
7
  6
CONTINUOUS
 10
-0.9440585504
 20
-33.4919710042
 11
-1.1118839641
 21
-33.3660571924
  0
LINE
  5
25E
100
AcDbEntity
  8
IMPORT_IGES
100
AcDbLine
 62
7
  6
CONTINUOUS
 10
0.9440585504
 20
-45.8801051454
 11
1.1118839641
 21
-46.0897910398
  0
LWPOLYLINE
  5
25F
100
AcDbEntity
  8
IMPORT_IGES
100
AcDbPolyline
 62
253
  6
CONTINUOUS
 90
19
 70
0
 10
-19.8768402327
 20
-50.3923501632
 10
-19.8588201424
 20
-50.4840627303
 10
-19.8349172302
 20
-50.5751876936
 10
-19.8050899708
 20
-50.6653342062
 10
-19.7694810662
 20
-50.7537404235
 10
-19.7285419158
 20
-50.8393099697
 10
-19.6829083027
 20
-50.9210787201
 10
-19.6327716601
 20
-50.9991088896
 10
-19.5779409708
 20
-51.0738588749
 10
-19.5187994784
 20
-51.1448600668
 10
-19.4556890394
 20
-51.2118017045
 10
-19.3880854806
 20
-51.2752004251
 10
-19.3162965547
 20
-51.3346122372
 10
-19.2407009248
 20
-51.3896297052
 10
-19.1606743953
 20
-51.4405237135
 10
-19.0760325628
 20
-51.4870609358
 10
-18.9877789017
 20
-51.5283966636
 10
-18.8970937097
 20
-51.5638915223
 10
-18.8021456421
 20
-51.5940194078
  0
LWPOLYLINE
  5
260
100
AcDbEntity
  8
IMPORT_IGES
100
AcDbPolyline
 62
7
  6
CONTINUOUS
 90
22
 70
0
 10
-20.1115980514
 20
-50.5122371768
 10
-20.098913426
 20
-50.6068335739
 10
-20.0805613756
 20
-50.6996258996
 10
-20.0565419003
 20
-50.7906141541
 10
-20.0267053054
 20
-50.8801245167
 10
-19.9912012855
 20
-50.9678308079
 10
-19.950478925
 20
-51.0527544898
 10
-19.9044879072
 20
-51.1348641428
 10
-19.8532785489
 20
-51.2141911863
 10
-19.7974508844
 20
-51.2898513412
 10
-19.7369597366
 20
-51.3618070092
 10
-19.6718502827
 20
-51.4300957885
 10
-19.6028580892
 20
-51.4939461946
 10
-19.5299434483
 20
-51.5533148927
 10
-19.4531460679
 20
-51.6082452175
 10
-19.3733206378
 20
-51.6580956891
 10
-19.2904334571
 20
-51.702817525
 10
-19.2045182267
 20
-51.7424595076
 10
-19.1165307389
 20
-51.7765265051
 10
-19.0267895911
 20
-51.8048534733
 10
-18.934976186
 20
-51.8276054564
 10
-18.8410905236
 20
-51.8447824543
  0
LWPOLYLINE
  5
261
100
AcDbEntity
  8
IMPORT_IGES
100
AcDbPolyline
 62
253
  6
CONTINUOUS
 90
13
 70
0
 10
-22.9008110743
 20
0.0271543705
 10
-22.8039484346
 20
-4.1743065751
 10
-22.6790523972
 20
-8.3750262605
 10
-22.5261286359
 20
-12.5748176406
 10
-22.3451841986
 20
-16.7734928462
 10
-22.1362271408
 20
-20.9708657965
 10
-21.8992664676
 20
-25.1667521992
 10
-21.6343127351
 20
-29.3609660598
 10
-21.341377846
 20
-33.553319788
 10
-21.0204746412
 20
-37.743626799
 10
-20.6716173805
 20
-41.9317005382
 10
-20.2948217439
 20
-46.1173544948
 10
-19.890104568
 20
-50.3004022961
  0
LINE
  5
262
100
AcDbEntity
  8
IMPORT_IGES
100
AcDbLine
 62
7
  6
CONTINUOUS
 10
-23.2048110117
 20
41.0953475755
 11
-23.2012294068
 21
40.7227294458
  0
LINE
  5
263
100
AcDbEntity
  8
IMPORT_IGES
100
AcDbLine
 62
7
  6
CONTINUOUS
 10
-23.2012294068
 20
40.7227294458
 11
-23.198647186
 21
40.3382620588
  0
LINE
  5
264
100
AcDbEntity
  8
IMPORT_IGES
100
AcDbLine
 62
7
  6
CONTINUOUS
 10
-23.198647186
 20
40.3382620588
 11
-23.1970895189
 21
39.9468647841
  0
LINE
  5
265
100
AcDbEntity
  8
IMPORT_IGES
100
AcDbLine
 62
7
  6
CONTINUOUS
 10
-23.3
 20
16.949946187
 11
-23.3
 21
43.15
  0
LINE
  5
266
100
AcDbEntity
  8
IMPORT_IGES
100
AcDbLine
 62
7
  6
CONTINUOUS
 10
-23.2934535197
 20
50.135945637
 11
-23.2934535197
 21
43.4920806689
  0
LINE
  5
267
100
AcDbEntity
  8
IMPORT_IGES
100
AcDbLine
 62
7
  6
CONTINUOUS
 10
-23.2934535196
 20
16.6079193311
 11
-23.2934535196
 21
12.7293170461
  0
LINE
  5
268
100
AcDbEntity
  8
IMPORT_IGES
100
AcDbLine
 62
7
  6
CONTINUOUS
 10
-23.1970895189
 20
39.9468647841
 11
-23.1965656098
 21
20.55
  0
LINE
  5
269
100
AcDbEntity
  8
IMPORT_IGES
100
AcDbLine
 62
253
  6
CONTINUOUS
 10
-23.0289140728
 20
12.7293170453
 11
-23.0289140728
 21
49.9075844504
  0
LINE
  5
26A
100
AcDbEntity
  8
IMPORT_IGES
100
AcDbLine
 62
7
  6
CONTINUOUS
 10
-23.1965651002
 20
20.5499999968
 11
-23.1970895416
 21
20.1531280322
  0
LINE
  5
26B
100
AcDbEntity
  8
IMPORT_IGES
100
AcDbLine
 62
7
  6
CONTINUOUS
 10
-23.1970895416
 20
20.1531280322
 11
-23.1986472452
 21
19.7617266046
  0
LINE
  5
26C
100
AcDbEntity
  8
IMPORT_IGES
100
AcDbLine
 62
7
  6
CONTINUOUS
 10
-23.1986472452
 20
19.7617266046
 11
-23.2012295098
 21
19.3772578953
  0
LINE
  5
26D
100
AcDbEntity
  8
IMPORT_IGES
100
AcDbLine
 62
7
  6
CONTINUOUS
 10
-23.2012295098
 20
19.3772578953
 11
-23.2048111431
 21
19.0046406331
  0
LINE
  5
26E
100
AcDbEntity
  8
IMPORT_IGES
100
AcDbLine
 62
7
  6
CONTINUOUS
 10
-23.2048111431
 20
19.0046406331
 11
-23.2093468551
 21
18.6480479195
  0
LINE
  5
26F
100
AcDbEntity
  8
IMPORT_IGES
100
AcDbLine
 62
7
  6
CONTINUOUS
 10
-23.2093468551
 20
18.6480479195
 11
-23.214802479
 21
18.3101710406
  0
LINE
  5
270
100
AcDbEntity
  8
IMPORT_IGES
100
AcDbLine
 62
7
  6
CONTINUOUS
 10
-23.214802479
 20
18.3101710406
 11
-23.2211202406
 21
17.9949515536
  0
LINE
  5
271
100
AcDbEntity
  8
IMPORT_IGES
100
AcDbLine
 62
7
  6
CONTINUOUS
 10
-23.2211202406
 20
17.9949515536
 11
-23.2282244657
 21
17.7058591757
  0
LINE
  5
272
100
AcDbEntity
  8
IMPORT_IGES
100
AcDbLine
 62
7
  6
CONTINUOUS
 10
-23.2282244657
 20
17.7058591757
 11
-23.2360616131
 21
17.445074924
  0
LWPOLYLINE
  5
273
100
AcDbEntity
  8
IMPORT_IGES
100
AcDbPolyline
 62
253
  6
CONTINUOUS
 90
22
 70
0
 10
-23.0283619155
 20
49.9075844948
 10
-23.0248526051
 20
50.009355862
 10
-23.0145310128
 20
50.1100336932
 10
-22.9975709413
 20
50.209172397
 10
-22.9742379002
 20
50.306114319
 10
-22.9447243371
 20
50.4006998074
 10
-22.9089948177
 20
50.4932208724
 10
-22.8671202891
 20
50.5834004285
 10
-22.819317208
 20
50.6706923394
 10
-22.7656245116
 20
50.7549295633
 10
-22.7062421529
 20
50.8356687098
 10
-22.6413561841
 20
50.9125387461
 10
-22.5709216262
 20
50.9854172369
 10
-22.4949324934
 20
51.0540479206
 10
-22.4138294345
 20
51.1177849877
 10
-22.328290793
 20
51.1759574406
 10
-22.2387636188
 20
51.2281978831
 10
-22.1455762695
 20
51.2742538869
 10
-22.0493446164
 20
51.3137766768
 10
-21.950591414
 20
51.3465396694
 10
-21.8497228909
 20
51.3723964966
 10
-21.7472208166
 20
51.3912048363
  0
LWPOLYLINE
  5
274
100
AcDbEntity
  8
IMPORT_IGES
100
AcDbPolyline
 62
7
  6
CONTINUOUS
 90
4
 70
0
 10
-23.2360616131
 20
17.445074924
 10
-23.2445459137
 20
17.2157047367
 10
-23.2489972718
 20
17.1135914169
 10
-23.2535782174
 20
17.0202031522
  0
LINE
  5
275
100
AcDbEntity
  8
IMPORT_IGES
100
AcDbLine
 62
7
  6
CONTINUOUS
 10
-23.2535782174
 20
17.0202031522
 11
-23.2582877801
 21
16.9354746777
  0
LWPOLYLINE
  5
276
100
AcDbEntity
  8
IMPORT_IGES
100
AcDbPolyline
 62
7
  6
CONTINUOUS
 90
8
 70
0
 10
-23.2582877801
 20
16.9354746777
 10
-23.2630904847
 20
16.8600460213
 10
-23.2679870327
 20
16.7939857775
 10
-23.2729767225
 20
16.7372253519
 10
-23.2780219741
 20
16.6901989897
 10
-23.2831102608
 20
16.6530514395
 10
-23.2882541093
 20
16.6256379527
 10
-23.2934535196
 20
16.6079585293
  0
LINE
  5
277
100
AcDbEntity
  8
IMPORT_IGES
100
AcDbLine
 62
253
  6
CONTINUOUS
 10
23.0289140728
 20
49.9075846118
 11
23.2934535197
 21
50.1359375684
  0
LINE
  5
278
100
AcDbEntity
  8
IMPORT_IGES
100
AcDbLine
 62
7
  6
CONTINUOUS
 10
22.0140365054
 20
51.6191591139
 11
21.7472244493
 21
51.3912042932
  0
LINE
  5
279
100
AcDbEntity
  8
ASSI
100
AcDbLine
 62
7
  6
CONTINUOUS
 10
9.0
 20
-24.8
 11
8.9440585504
 21
-24.8
  0
LINE
  5
27A
100
AcDbEntity
  8
ASSI
100
AcDbLine
 62
7
  6
CONTINUOUS
 10
7.0559414496
 20
-24.8
 11
7.0
 21
-24.8
  0
LINE
  5
27B
100
AcDbEntity
  8
ASSI
100
AcDbLine
 62
7
  6
CONTINUOUS
 10
7.0
 20
-23.2
 11
7.0559414496
 21
-23.2
  0
LINE
  5
27C
100
AcDbEntity
  8
ASSI
100
AcDbLine
 62
7
  6
CONTINUOUS
 10
8.9440585504
 20
-23.2
 11
9.0
 21
-23.2
  0
LINE
  5
27D
100
AcDbEntity
  8
IMPORT_IGES
100
AcDbLine
 62
7
  6
CONTINUOUS
 10
3.0559414496
 20
-33.4919710042
 11
2.8881160359
 21
-33.3660571924
  0
LINE
  5
27E
100
AcDbEntity
  8
IMPORT_IGES
100
AcDbLine
 62
7
  6
CONTINUOUS
 10
18.6171799469
 20
-51.6335588697
 11
18.8410905043
 21
-51.8448589427
  0
LINE
  5
27F
100
AcDbEntity
  8
IMPORT_IGES
100
AcDbLine
 62
7
  6
CONTINUOUS
 10
4.9440585504
 20
-45.8801051454
 11
5.1118839641
 21
-46.0897910398
  0
LINE
  5
280
100
AcDbEntity
  8
IMPORT_IGES
100
AcDbLine
 62
7
  6
CONTINUOUS
 10
-7.0559414496
 20
-28.3801051454
 11
-6.8881160359
 21
-28.5897910398
  0
LWPOLYLINE
  5
281
100
AcDbEntity
  8
IMPORT_IGES
100
AcDbPolyline
 62
253
  6
CONTINUOUS
 90
13
 70
0
 10
-17.9395926762
 20
-49.7470233292
 10
-18.3375319783
 20
-45.6076291378
 10
-18.7080215225
 20
-41.466053178
 10
-19.0510613087
 20
-37.3222954498
 10
-19.3666640167
 20
-33.1761735941
 10
-19.6548169668
 20
-29.0278699701
 10
-19.9154821201
 20
-24.8779316549
 10
-20.1486558273
 20
-20.7263584083
 10
-20.3543417376
 20
-16.5731504705
 10
-20.5325127604
 20
-12.4188556396
 10
-20.6831598653
 20
-8.2636565151
 10
-20.8062920827
 20
-4.1073704975
 10
-20.9019094125
 20
0.0500024131
  0
LINE
  5
282
100
AcDbEntity
  8
IMPORT_IGES
100
AcDbLine
 62
7
  6
CONTINUOUS
 10
-23.2582880512
 20
43.1645298398
 11
-23.253578466
 21
43.079801618
  0
LWPOLYLINE
  5
283
100
AcDbEntity
  8
IMPORT_IGES
100
AcDbPolyline
 62
7
  6
CONTINUOUS
 90
3
 70
0
 10
-23.253578466
 20
43.079801618
 10
-23.2489974914
 20
42.9864133365
 10
-23.2445460979
 20
42.8842996921
  0
LINE
  5
284
100
AcDbEntity
  8
IMPORT_IGES
100
AcDbLine
 62
7
  6
CONTINUOUS
 10
-23.2445460979
 20
42.8842996921
 11
-23.2360617127
 21
42.6549280667
  0
LINE
  5
285
100
AcDbEntity
  8
IMPORT_IGES
100
AcDbLine
 62
7
  6
CONTINUOUS
 10
-23.2360617127
 20
42.6549280667
 11
-23.2282244796
 21
42.3941413115
  0
LINE
  5
286
100
AcDbEntity
  8
IMPORT_IGES
100
AcDbLine
 62
7
  6
CONTINUOUS
 10
-23.2282244796
 20
42.3941413115
 11
-23.2211201816
 21
42.1050457663
  0
LINE
  5
287
100
AcDbEntity
  8
IMPORT_IGES
100
AcDbLine
 62
7
  6
CONTINUOUS
 10
-23.2211201816
 20
42.1050457663
 11
-23.2148023673
 21
41.7898227634
  0
LINE
  5
288
100
AcDbEntity
  8
IMPORT_IGES
100
AcDbLine
 62
7
  6
CONTINUOUS
 10
-23.2148023673
 20
41.7898227634
 11
-23.2093467197
 21
41.4519426019
  0
LINE
  5
289
100
AcDbEntity
  8
IMPORT_IGES
100
AcDbLine
 62
7
  6
CONTINUOUS
 10
-23.2093467197
 20
41.4519426019
 11
-23.2048110117
 21
41.0953475755
  0
LINE
  5
28A
100
AcDbEntity
  8
IMPORT_IGES
100
AcDbLine
 62
253
  6
CONTINUOUS
 10
-21.0295994229
 20
49.4751363267
 11
-21.0295994229
 21
12.7293170334
  0
LINE
  5
28B
100
AcDbEntity
  8
0
100
AcDbLine
 62
7
  6
CONTINUOUS
 10
-9.0
 20
-20.9434535196
 11
-8.9440585504
 21
-20.9434535196
  0
LINE
  5
28C
100
AcDbEntity
  8
0
100
AcDbLine
 62
7
  6
CONTINUOUS
 10
-7.0559414496
 20
-20.9434535196
 11
-7.0
 21
-20.9434535196
  0
LINE
  5
28D
100
AcDbEntity
  8
0
100
AcDbLine
 62
7
  6
CONTINUOUS
 10
-5.0
 20
-20.9434535196
 11
-4.9440585504
 21
-20.9434535196
  0
LINE
  5
28E
100
AcDbEntity
  8
0
100
AcDbLine
 62
7
  6
CONTINUOUS
 10
-3.0559414496
 20
-20.9434535196
 11
-3.0
 21
-20.9434535196
  0
LINE
  5
28F
100
AcDbEntity
  8
0
100
AcDbLine
 62
7
  6
CONTINUOUS
 10
3.0
 20
-20.9434535196
 11
3.0559414496
 21
-20.9434535196
  0
LINE
  5
290
100
AcDbEntity
  8
0
100
AcDbLine
 62
7
  6
CONTINUOUS
 10
4.9440585504
 20
-20.9434535196
 11
5.0
 21
-20.9434535196
  0
LINE
  5
291
100
AcDbEntity
  8
0
100
AcDbLine
 62
7
  6
CONTINUOUS
 10
7.0
 20
-20.9434535196
 11
7.0559414496
 21
-20.9434535196
  0
LINE
  5
292
100
AcDbEntity
  8
0
100
AcDbLine
 62
7
  6
CONTINUOUS
 10
8.9440585504
 20
-20.9434535196
 11
9.0
 21
-20.9434535196
  0
LINE
  5
293
100
AcDbEntity
  8
IMPORT_IGES
100
AcDbLine
 62
7
  6
CONTINUOUS
 10
7.0559414496
 20
-33.4919710042
 11
6.8881160359
 21
-33.3660571924
  0
LINE
  5
294
100
AcDbEntity
  8
IMPORT_IGES
100
AcDbLine
 62
7
  6
CONTINUOUS
 10
20.1121157055
 20
-50.5122716944
 11
19.889587313
 21
-50.3003501793
  0
LINE
  5
295
100
AcDbEntity
  8
IMPORT_IGES
100
AcDbLine
 62
7
  6
CONTINUOUS
 10
8.9440585504
 20
-45.8801051454
 11
9.1118839641
 21
-46.0897910398
  0
LINE
  5
296
100
AcDbEntity
  8
IMPORT_IGES
100
AcDbLine
 62
7
  6
CONTINUOUS
 10
-3.0559414496
 20
-28.3801051454
 11
-2.8881160359
 21
-28.5897910398
  0
LWPOLYLINE
  5
297
100
AcDbEntity
  8
0
100
AcDbPolyline
 62
7
  6
CONTINUOUS
 90
10
 70
0
 10
-14.8967567497
 20
12.1220345468
 10
-14.8968514384
 20
12.1087066868
 10
-14.8969071777
 20
12.0952142235
 10
-14.8968404557
 20
12.0816967191
 10
-14.8964777597
 20
12.0682866677
 10
-14.8958311208
 20
12.0551504092
 10
-14.8950840303
 20
12.0424954734
 10
-14.8942308497
 20
12.030514104
 10
-14.8930944793
 20
12.0193708168
 10
-14.8915920599
 20
12.009248507
  0
LWPOLYLINE
  5
298
100
AcDbEntity
  8
0
100
AcDbPolyline
 62
7
  6
CONTINUOUS
 90
10
 70
0
 10
-14.8
 20
9.0909598214
 10
-14.8002797645
 20
9.0847267046
 10
-14.8009936327
 20
9.0788542376
 10
-14.8021483763
 20
9.0733426319
 10
-14.8037763735
 20
9.068180112
 10
-14.8058573991
 20
9.0633802469
 10
-14.8083185866
 20
9.0589810659
 10
-14.8111386583
 20
9.054995614
 10
-14.8143479647
 20
9.0514128555
 10
-14.8179502476
 20
9.0482343728
  0
LWPOLYLINE
  5
299
100
AcDbEntity
  8
0
100
AcDbPolyline
 62
7
  6
CONTINUOUS
 90
8
 70
0
 10
-12.5154378147
 20
11.4393168027
 10
-12.5103923351
 20
11.4526157712
 10
-12.5056410684
 20
11.4666767607
 10
-12.501262412
 20
11.4813089632
 10
-12.4969994048
 20
11.4961983465
 10
-12.4928480776
 20
11.5111877847
 10
-12.4890865675
 20
11.5262641588
 10
-12.4858348663
 20
11.5413471804
  0
LINE
  5
29A
100
AcDbEntity
  8
0
100
AcDbLine
 62
7
  6
CONTINUOUS
 10
-12.5250060706
 20
11.415295045
 11
-12.5154378147
 21
11.4393168027
  0
LWPOLYLINE
  5
29B
100
AcDbEntity
  8
0
100
AcDbPolyline
 62
7
  6
CONTINUOUS
 90
10
 70
0
 10
-12.5250060706
 20
11.415295045
 10
-12.526967538
 20
11.4113952412
 10
-12.5291603504
 20
11.4076443164
 10
-12.5315874349
 20
11.4040538628
 10
-12.5342596915
 20
11.4006287951
 10
-12.5371709974
 20
11.3973867242
 10
-12.5402968675
 20
11.3943557705
 10
-12.5436283517
 20
11.3915494853
 10
-12.5471733358
 20
11.3889689311
 10
-12.550930643
 20
11.3866205834
  0
LWPOLYLINE
  5
29C
100
AcDbEntity
  8
0
100
AcDbPolyline
 62
253
  6
CONTINUOUS
 90
13
 70
0
 10
-13.2391304348
 20
11.1650035476
 10
-13.2461642218
 20
11.1527348086
 10
-13.2532750715
 20
11.1405358457
 10
-13.2603202568
 20
11.1286515206
 10
-13.2671583591
 20
11.1173203952
 10
-13.2736521126
 20
11.1067699342
 10
-13.2796711582
 20
11.0972119399
 10
-13.2850946642
 20
11.0888382967
 10
-13.2898137234
 20
11.0818171626
 10
-13.2937335583
 20
11.0762895592
 10
-13.2967754592
 20
11.0723664855
 10
-13.298878351
 20
11.0701267152
 10
-13.3000000003
 20
11.0696152425
  0
LWPOLYLINE
  5
29D
100
AcDbEntity
  8
0
100
AcDbPolyline
 62
253
  6
CONTINUOUS
 90
13
 70
0
 10
-14.9637681159
 20
10.9892882483
 10
-14.9570875651
 20
11.0006543393
 10
-14.9502834992
 20
11.011712989
 10
-14.9434744927
 20
11.0222714784
 10
-14.9367792064
 20
11.0321458043
 10
-14.930314319
 20
11.0411638869
 10
-14.9241924944
 20
11.0491685677
 10
-14.9185204175
 20
11.0560203492
 10
-14.9133969359
 20
11.0615998253
 10
-14.9089113365
 20
11.0658097624
 10
-14.9051417901
 20
11.068576794
 10
-14.9021539884
 20
11.069852699
 10
-14.9
 20
11.0696152423
  0
LWPOLYLINE
  5
29E
100
AcDbEntity
  8
0
100
AcDbPolyline
 62
253
  6
CONTINUOUS
 90
10
 70
0
 10
-12.2096714284
 20
10.55
 10
-12.2139563159
 20
10.5433330111
 10
-12.2186432997
 20
10.5368915235
 10
-12.2237303081
 20
10.530678238
 10
-12.2292497611
 20
10.5246549163
 10
-12.2351655924
 20
10.5188649326
 10
-12.2413718532
 20
10.5134307805
 10
-12.2478308005
 20
10.5083917845
 10
-12.2545742982
 20
10.5037065967
 10
-12.2615998524
 20
10.4993739973
  0
LINE
  5
29F
100
AcDbEntity
  8
IMPORT_IGES
100
AcDbLine
 62
253
  6
CONTINUOUS
 10
-6.5884366203
 20
16.3878981425
 11
-6.7295101398
 21
16.2801541808
  0
LINE
  5
2A0
100
AcDbEntity
  8
IMPORT_IGES
100
AcDbLine
 62
253
  6
CONTINUOUS
 10
-5.3640061058
 20
14.4746107654
 11
-5.2100829286
 21
14.5774567837
  0
LWPOLYLINE
  5
2A1
100
AcDbEntity
  8
0
100
AcDbPolyline
 62
253
  6
CONTINUOUS
 90
13
 70
0
 10
-13.847826087
 20
9.5835658538
 10
-13.855329297
 20
9.5787644859
 10
-13.8622961169
 20
9.5734289199
 10
-13.868733329
 20
9.56754695
 10
-13.8746902737
 20
9.5610414019
 10
-13.8801271903
 20
9.5539688264
 10
-13.8849077697
 20
9.5465169963
 10
-13.8889924273
 20
9.5386698087
 10
-13.8924042151
 20
9.5304248257
 10
-13.8950872792
 20
9.5219897573
 10
-13.8970102098
 20
9.5134302722
 10
-13.8981706891
 20
9.5046705826
 10
-13.8985507246
 20
9.4957082041
  0
LWPOLYLINE
  5
2A2
100
AcDbEntity
  8
0
100
AcDbPolyline
 62
7
  6
CONTINUOUS
 90
8
 70
0
 10
-14.889741183
 20
9.0006484875
 10
-14.8780680417
 20
9.0074650227
 10
-14.8666359446
 20
9.0144841523
 10
-14.8555829305
 20
9.0216122873
 10
-14.8449969798
 20
9.0285867545
 10
-14.8350473998
 20
9.0353163153
 10
-14.8259652153
 20
9.0418720845
 10
-14.8179502476
 20
9.0482343728
  0
LINE
  5
2A3
100
AcDbEntity
  8
0
100
AcDbLine
 62
253
  6
CONTINUOUS
 10
-13.1376811594
 20
11.1650035476
 11
-12.4858348663
 21
11.5413471804
  0
LINE
  5
2A4
100
AcDbEntity
  8
0
100
AcDbLine
 62
7
  6
CONTINUOUS
 10
-13.1
 20
11.0696152423
 11
-12.550930643
 21
11.3866205834
  0
LINE
  5
2A5
100
AcDbEntity
  8
0
100
AcDbLine
 62
7
  6
CONTINUOUS
 10
-12.2910855815
 20
10.6128817688
 11
-13.9
 21
9.6839745962
  0
LINE
  5
2A6
100
AcDbEntity
  8
0
100
AcDbLine
 62
253
  6
CONTINUOUS
 10
-12.2615998524
 20
10.4993739973
 11
-13.7041297051
 21
9.6665289985
  0
LINE
  5
2A7
100
AcDbEntity
  8
0
100
AcDbLine
 62
253
  6
CONTINUOUS
 10
-13.7041297051
 20
9.6665289985
 11
-13.847826087
 21
9.5835658538
  0
LINE
  5
2A8
100
AcDbEntity
  8
0
100
AcDbLine
 62
7
  6
CONTINUOUS
 10
-14.9130434783
 20
8.9873686004
 11
-14.889741183
 21
9.0006484875
  0
LINE
  5
2A9
100
AcDbEntity
  8
IMPORT_IGES
100
AcDbLine
 62
7
  6
CONTINUOUS
 10
-8.9440585504
 20
-15.9919710042
 11
-7.0559414496
 21
-15.9919710042
  0
LINE
  5
2AA
100
AcDbEntity
  8
IMPORT_IGES
100
AcDbLine
 62
7
  6
CONTINUOUS
 10
-4.9440585504
 20
-15.9919710042
 11
-3.0559414496
 21
-15.9919710042
  0
LINE
  5
2AB
100
AcDbEntity
  8
IMPORT_IGES
100
AcDbLine
 62
7
  6
CONTINUOUS
 10
-0.9440585504
 20
-15.9919710042
 11
0.9440585504
 21
-15.9919710042
  0
LINE
  5
2AC
100
AcDbEntity
  8
IMPORT_IGES
100
AcDbLine
 62
7
  6
CONTINUOUS
 10
3.0559414496
 20
-15.9919710042
 11
4.9440585504
 21
-15.9919710042
  0
LINE
  5
2AD
100
AcDbEntity
  8
IMPORT_IGES
100
AcDbLine
 62
7
  6
CONTINUOUS
 10
7.0559414496
 20
-15.9919710042
 11
8.9440585504
 21
-15.9919710042
  0
LINE
  5
2AE
100
AcDbEntity
  8
IMPORT_IGES
100
AcDbLine
 62
7
  6
CONTINUOUS
 10
-9.1118839641
 20
-15.8660571924
 11
-6.8881160359
 21
-15.8660571924
  0
LINE
  5
2AF
100
AcDbEntity
  8
IMPORT_IGES
100
AcDbLine
 62
7
  6
CONTINUOUS
 10
-5.1118839641
 20
-15.8660571924
 11
-2.8881160359
 21
-15.8660571924
  0
LINE
  5
2B0
100
AcDbEntity
  8
IMPORT_IGES
100
AcDbLine
 62
7
  6
CONTINUOUS
 10
-1.1118839641
 20
-15.8660571924
 11
1.1118839641
 21
-15.8660571924
  0
LINE
  5
2B1
100
AcDbEntity
  8
IMPORT_IGES
100
AcDbLine
 62
7
  6
CONTINUOUS
 10
2.8881160359
 20
-15.8660571924
 11
5.1118839641
 21
-15.8660571924
  0
LINE
  5
2B2
100
AcDbEntity
  8
IMPORT_IGES
100
AcDbLine
 62
7
  6
CONTINUOUS
 10
6.8881160359
 20
-15.8660571924
 11
9.1118839641
 21
-15.8660571924
  0
LINE
  5
2B3
100
AcDbEntity
  8
IMPORT_IGES
100
AcDbLine
 62
7
  6
CONTINUOUS
 10
-8.9440585504
 20
-15.9919710042
 11
-9.1118839641
 21
-15.8660571924
  0
LINE
  5
2B4
100
AcDbEntity
  8
IMPORT_IGES
100
AcDbLine
 62
7
  6
CONTINUOUS
 10
-4.9440585504
 20
-15.9919710042
 11
-5.1118839641
 21
-15.8660571924
  0
LWPOLYLINE
  5
2B5
100
AcDbEntity
  8
IMPORT_IGES
100
AcDbPolyline
 62
7
  6
CONTINUOUS
 90
13
 70
0
 10
-11.2964302785
 20
-10.7769576035
 10
-11.2660903035
 20
-10.801988172
 10
-11.2346809993
 20
-10.8248410653
 10
-11.2022023658
 20
-10.8455162835
 10
-11.168629666
 20
-10.8641558774
 10
-11.1339876369
 20
-10.8806177961
 10
-11.0983504896
 20
-10.8944758869
 10
-11.0615450932
 20
-10.9053116198
 10
-11.0237445785
 20
-10.9135435247
 10
-10.9855425486
 20
-10.9200010385
 10
-10.9471368713
 20
-10.9249606401
 10
-10.9083296789
 20
-10.9281458506
 10
-10.8691209712
 20
-10.92955667
  0
LWPOLYLINE
  5
2B6
100
AcDbEntity
  8
IMPORT_IGES
100
AcDbPolyline
 62
7
  6
CONTINUOUS
 90
13
 70
0
 10
-12.05958426
 20
-9.2636438131
 10
-12.0441840987
 20
-9.2802723963
 10
-12.0298215938
 20
-9.2974678875
 10
-12.0164967453
 20
-9.3152302867
 10
-12.0039869984
 20
-9.3334964401
 10
-11.9925149079
 20
-9.3523295015
 10
-11.9827481385
 20
-9.371918932
 10
-11.9750623015
 20
-9.3924258943
 10
-11.9690817855
 20
-9.4136892256
 10
-11.9643474204
 20
-9.4354148992
 10
-11.9607061494
 20
-9.4575049059
 10
-11.9583110292
 20
-9.4800572548
 10
-11.9571620598
 20
-9.5030719459
  0
LINE
  5
2B7
100
AcDbEntity
  8
IMPORT_IGES
100
AcDbLine
 62
7
  6
CONTINUOUS
 10
0.9440585504
 20
-28.3801051454
 11
1.1118839641
 21
-28.5897910398
  0
LWPOLYLINE
  5
2B8
100
AcDbEntity
  8
0
100
AcDbPolyline
 62
253
  6
CONTINUOUS
 90
13
 70
0
 10
-14.9130434783
 20
10.9014305987
 10
-14.9134499756
 20
10.9103292336
 10
-14.9145872976
 20
10.9190304452
 10
-14.9164626234
 20
10.9275462104
 10
-14.919118117
 20
10.9359578473
 10
-14.9225246845
 20
10.9442026458
 10
-14.9265878669
 20
10.952068669
 10
-14.9313414034
 20
10.9595296872
 10
-14.9367758775
 20
10.9666068829
 10
-14.9427393328
 20
10.973148027
 10
-14.9491906029
 20
10.9790930819
 10
-14.9561964814
 20
10.9844779357
 10
-14.9637681159
 20
10.9892882483
  0
LWPOLYLINE
  5
2B9
100
AcDbEntity
  8
IMPORT_IGES
100
AcDbPolyline
 62
7
  6
CONTINUOUS
 90
10
 70
0
 10
-12.9973394796
 20
-10.9249995172
 10
-12.9977669425
 20
-10.9058976004
 10
-12.9972990333
 20
-10.886927007
 10
-12.9959357521
 20
-10.8680877369
 10
-12.9936214099
 20
-10.8493607714
 10
-12.9904116956
 20
-10.8307651292
 10
-12.9864736762
 20
-10.8123578666
 10
-12.9818630405
 20
-10.7941580025
 10
-12.9765240996
 20
-10.776146518
 10
-12.9704568535
 20
-10.7583234131
  0
LWPOLYLINE
  5
2BA
100
AcDbEntity
  8
0
100
AcDbPolyline
 62
253
  6
CONTINUOUS
 90
10
 70
0
 10
-12.1913993252
 20
10.6165498566
 10
-12.1913559341
 20
10.6094515737
 10
-12.1918192691
 20
10.6022498916
 10
-12.1927905945
 20
10.5949507279
 10
-12.1942590866
 20
10.587540206
 10
-12.1962382477
 20
10.5800444468
 10
-12.1987650842
 20
10.5725298278
 10
-12.2018519221
 20
10.5650230421
 10
-12.2054872235
 20
10.5575108396
 10
-12.2096714284
 20
10.55
  0
LINE
  5
2BB
100
AcDbEntity
  8
0
100
AcDbLine
 62
7
  6
CONTINUOUS
 10
-14.8
 20
10.8964101615
 11
-14.8
 21
9.0909598214
  0
LINE
  5
2BC
100
AcDbEntity
  8
0
100
AcDbLine
 62
7
  6
CONTINUOUS
 10
-14.0
 20
9.5107695155
 11
-14.0
 21
8.8767588333
  0
LINE
  5
2BD
100
AcDbEntity
  8
0
100
AcDbLine
 62
253
  6
CONTINUOUS
 10
-13.8985507246
 20
9.4957082041
 11
-13.8985507246
 21
8.7430209385
  0
LINE
  5
2BE
100
AcDbEntity
  8
IMPORT_IGES
100
AcDbLine
 62
7
  6
CONTINUOUS
 10
-12.0
 20
-44.9796690909
 11
-12.0
 21
-16.9796690909
  0
LINE
  5
2BF
100
AcDbEntity
  8
IMPORT_IGES
100
AcDbLine
 62
7
  6
CONTINUOUS
 10
-11.7084244266
 20
-10.6948846102
 11
-11.7084244266
 21
-10.9249995172
  0
LWPOLYLINE
  5
2C0
100
AcDbEntity
  8
0
100
AcDbPolyline
 62
253
  6
CONTINUOUS
 90
3
 70
0
 10
-14.9130434783
 20
8.9873686004
 10
-14.912959384
 20
10.8247772138
 10
-14.9130434783
 20
10.9014305987
  0
LWPOLYLINE
  5
2C1
100
AcDbEntity
  8
IMPORT_IGES
100
AcDbPolyline
 62
7
  6
CONTINUOUS
 90
10
 70
0
 10
-11.7110842839
 20
-9.5083916604
 10
-11.7118163451
 20
-9.5350324933
 10
-11.7137371373
 20
-9.5614150406
 10
-11.7168466605
 20
-9.5875393024
 10
-11.7212092259
 20
-9.6134145378
 10
-11.7267605223
 20
-9.6390314876
 10
-11.7333076159
 20
-9.6643623741
 10
-11.7407861956
 20
-9.6893979379
 10
-11.7492605726
 20
-9.7141474384
 10
-11.7587307468
 20
-9.7386108756
  0
LWPOLYLINE
  5
2C2
100
AcDbEntity
  8
IMPORT_IGES
100
AcDbPolyline
 62
7
  6
CONTINUOUS
 90
13
 70
0
 10
-12.7060366795
 20
-9.5562757075
 10
-12.7050444744
 20
-9.5301448326
 10
-12.7029227997
 20
-9.5041717053
 10
-12.6996716553
 20
-9.4783563254
 10
-12.6955350747
 20
-9.4525234429
 10
-12.6902690244
 20
-9.4268483078
 10
-12.683141404
 20
-9.4018566705
 10
-12.6738661021
 20
-9.377662606
 10
-12.6627292303
 20
-9.3541520394
 10
-12.6498570229
 20
-9.3315084957
 10
-12.6352915581
 20
-9.30979315
 10
-12.6189907578
 20
-9.2889448273
 10
-12.600954622
 20
-9.2689635277
  0
LWPOLYLINE
  5
2C3
100
AcDbEntity
  8
IMPORT_IGES
100
AcDbPolyline
 62
7
  6
CONTINUOUS
 90
13
 70
0
 10
-12.9521144554
 20
-9.5310033381
 10
-12.9476880927
 20
-9.4919861124
 10
-12.9415278821
 20
-9.4533659544
 10
-12.9336338236
 20
-9.4151428644
 10
-12.924301493
 20
-9.3770527582
 10
-12.9132353146
 20
-9.3393597198
 10
-12.8995485605
 20
-9.302856001
 10
-12.8828876048
 20
-9.2677581249
 10
-12.8636060735
 20
-9.2338495682
 10
-12.8418781166
 20
-9.2012730138
 10
-12.8177617842
 20
-9.1700760224
 10
-12.7911990263
 20
-9.1402110331
 10
-12.7621898428
 20
-9.111678046
  0
LWPOLYLINE
  5
2C4
100
AcDbEntity
  8
IMPORT_IGES
100
AcDbPolyline
 62
253
  6
CONTINUOUS
 90
22
 70
0
 10
5.5225813892
 20
14.0004138246
 10
5.6580829751
 20
14.050073002
 10
5.7896238827
 20
14.1069184406
 10
5.9172041119
 20
14.1709501404
 10
6.0412078807
 20
14.2424384567
 10
6.1612509712
 20
14.3211130341
 10
6.2761807299
 20
14.406162807
 10
6.3859338856
 20
14.4976303668
 10
6.4905737096
 20
14.595473122
 10
6.5891373619
 20
14.6987522319
 10
6.6815737184
 20
14.8075115407
 10
6.7679339033
 20
14.9217072043
 10
6.8474084497
 20
15.0402688495
 10
6.9199412477
 20
15.1632337279
 10
6.9855884072
 20
15.2905645881
 10
7.0437087911
 20
15.4210793025
 10
7.0942412437
 20
15.5548050021
 10
7.1372469209
 20
15.691714556
 10
7.1722681523
 20
15.8305444431
 10
7.1991523815
 20
15.9708734898
 10
7.218052165
 20
16.1131228697
 10
7.2289675029
 20
16.2572925829
  0
LWPOLYLINE
  5
2C5
100
AcDbEntity
  8
IMPORT_IGES
100
AcDbPolyline
 62
253
  6
CONTINUOUS
 90
40
 70
0
 10
5.210082192
 20
14.5774590014
 10
5.2655055098
 20
14.5966271417
 10
5.3208160486
 20
14.6177727322
 10
5.3759593513
 20
14.6409127132
 10
5.4309470932
 20
14.6660946619
 10
5.4856496318
 20
14.6933030851
 10
5.5398069569
 20
14.7224376877
 10
5.5933637257
 20
14.7534866591
 10
5.6462675221
 20
14.7864390735
 10
5.6982812457
 20
14.8211563334
 10
5.7493447918
 20
14.8575957503
 10
5.7994261802
 20
14.895733708
 10
5.8483495794
 20
14.9354287482
 10
5.8960574206
 20
14.9766171205
 10
5.9425317701
 20
15.019268224
 10
5.9876707909
 20
15.0632715921
 10
6.0314190214
 20
15.108550471
 10
6.0737681942
 20
15.155075606
 10
6.1146923888
 20
15.2028027446
 10
6.1541436947
 20
15.2516614595
 10
6.1921060603
 20
15.3016196409
 10
6.2285950795
 20
15.3526959801
 10
6.2635933312
 20
15.404876522
 10
6.2970397011
 20
15.4580842257
 10
6.3288805042
 20
15.5122460151
 10
6.3590873903
 20
15.5673289041
 10
6.3876154319
 20
15.6232707263
 10
6.4143949725
 20
15.6799499763
 10
6.4393993854
 20
15.7373225377
 10
6.4625964321
 20
15.7953317047
 10
6.4839237989
 20
15.8538310465
 10
6.5033665677
 20
15.9127825953
 10
6.520900429
 20
15.9721205068
 10
6.5364719942
 20
16.031650579
 10
6.5500808407
 20
16.0913365649
 10
6.5617192683
 20
16.1511101478
 10
6.5713564739
 20
16.2107236035
 10
6.5790029162
 20
16.2700591082
 10
6.5846894582
 20
16.3291329268
 10
6.5884365187
 20
16.3878981143
  0
LINE
  5
2C6
100
AcDbEntity
  8
IMPORT_IGES
100
AcDbLine
 62
7
  6
CONTINUOUS
 10
9.0000000006
 20
-13.9796615912
 11
-9.0000000006
 21
-13.9796615917
  0
LINE
  5
2C7
100
AcDbEntity
  8
IMPORT_IGES
100
AcDbLine
 62
7
  6
CONTINUOUS
 10
12.5979995355
 20
-12.6724773168
 11
7.4020000175
 21
-12.6724773168
  0
LINE
  5
2C8
100
AcDbEntity
  8
IMPORT_IGES
100
AcDbLine
 62
7
  6
CONTINUOUS
 10
7.4020000175
 20
-11.6724752903
 11
12.5979995355
 21
-11.6724752903
  0
LWPOLYLINE
  5
2C9
100
AcDbEntity
  8
IMPORT_IGES
100
AcDbPolyline
 62
7
  6
CONTINUOUS
 90
13
 70
0
 10
-9.3008531258
 20
-10.9582560181
 10
-9.3442204846
 20
-10.9570771235
 10
-9.3866251429
 20
-10.9531816676
 10
-9.4280671009
 20
-10.9465696504
 10
-9.4687303986
 20
-10.9374355619
 10
-9.508430996
 20
-10.9255849121
 10
-9.5466167721
 20
-10.9104342311
 10
-9.5830493581
 20
-10.8915151586
 10
-9.6179671229
 20
-10.8692960548
 10
-9.6515330521
 20
-10.8445985303
 10
-9.6838014743
 20
-10.8176964552
 10
-9.7147180609
 20
-10.7883159593
 10
-9.7442828119
 20
-10.7564570427
  0
LWPOLYLINE
  5
2CA
100
AcDbEntity
  8
IMPORT_IGES
100
AcDbPolyline
 62
7
  6
CONTINUOUS
 90
13
 70
0
 10
-10.8677909262
 20
-10.7313637755
 10
-10.889965174
 20
-10.7304555302
 10
-10.911884174
 20
-10.728527828
 10
-10.9335479264
 20
-10.7255806691
 10
-10.9550537666
 20
-10.7217978392
 10
-10.9763043591
 20
-10.7169955525
 10
-10.997007697
 20
-10.7106224517
 10
-11.0170395329
 20
-10.7023484685
 10
-11.0365241142
 20
-10.6925036712
 10
-11.0555421765
 20
-10.6815269066
 10
-11.0741206316
 20
-10.6695644569
 10
-11.0922325678
 20
-10.65647004
 10
-11.1098779849
 20
-10.6422436557
  0
LWPOLYLINE
  5
2CB
100
AcDbEntity
  8
IMPORT_IGES
100
AcDbPolyline
 62
7
  6
CONTINUOUS
 90
112
 70
0
 10
0.0976879965
 20
-12.4480778396
 10
0.007100802
 20
-12.4432728902
 10
-0.0807091039
 20
-12.4375767315
 10
-0.1657417212
 20
-12.4309893633
 10
-0.2478135411
 20
-12.4237331518
 10
-0.3271080724
 20
-12.4155857309
 10
-0.4041758412
 20
-12.4058800021
 10
-0.4790467908
 20
-12.3944682666
 10
-0.5516909779
 20
-12.3814982231
 10
-0.6225690985
 20
-12.3667458701
 10
-0.6917117395
 20
-12.3501943646
 10
-0.759088314
 20
-12.3318605496
 10
-0.8250677567
 20
-12.3115709524
 10
-0.8896173915
 20
-12.2892716439
 10
-0.9527698945
 20
-12.2650165532
 10
-1.0149922281
 20
-12.2387939953
 10
-1.076306871
 20
-12.2105944892
 10
-1.1366913446
 20
-12.1804275159
 10
-1.1965451752
 20
-12.1483098322
 10
-1.2559570598
 20
-12.1142718824
 10
-1.3148383014
 20
-12.0782832223
 10
-1.3733223359
 20
-12.0402692757
 10
-1.4314910035
 20
-12.0002601437
 10
-1.489262464
 20
-11.9582257252
 10
-1.5465246328
 20
-11.914001141
 10
-1.6034918935
 20
-11.8673944811
 10
-1.6599498626
 20
-11.8185976556
 10
-1.7151433043
 20
-11.7680215156
 10
-1.7690426225
 20
-11.7155957004
 10
-1.8216774133
 20
-11.6613905708
 10
-1.8723812289
 20
-11.6060280597
 10
-1.9209339875
 20
-11.5496904282
 10
-1.967555771
 20
-11.4921954153
 10
-2.0122403766
 20
-11.4336181705
 10
-2.0549515009
 20
-11.3739998202
 10
-2.0957254473
 20
-11.3132992379
 10
-2.134664923
 20
-11.2514681941
 10
-2.1718218794
 20
-11.1884480285
 10
-2.2071443652
 20
-11.1242974013
 10
-2.2405792335
 20
-11.0591440636
 10
-2.2721492587
 20
-10.9929605078
 10
-2.3018316664
 20
-10.9257742414
 10
-2.3295049865
 20
-10.8577955382
 10
-2.3551527528
 20
-10.7890307563
 10
-2.3787914315
 20
-10.7194735377
 10
-2.4003489507
 20
-10.6493150821
 10
-2.419811217
 20
-10.5785547608
 10
-2.4371923237
 20
-10.5071932027
 10
-2.4524624784
 20
-10.4354234943
 10
-2.4656179246
 20
-10.3632548432
 10
-2.4766624188
 20
-10.290678042
 10
-2.4855774378
 20
-10.2178585542
 10
-2.4923692541
 20
-10.1447982243
 10
-2.4970315952
 20
-10.071495208
 10
-2.4995271209
 20
-9.998109436
 10
-2.4998397166
 20
-9.9246125692
 10
-2.4979854969
 20
-9.8510329468
 10
-2.4939754644
 20
-9.7776155168
 10
-2.4878007082
 20
-9.7043794462
 10
-2.4794701393
 20
-9.631305568
 10
-2.4690214933
 20
-9.5585813288
 10
-2.456458149
 20
-9.48620746
 10
-2.4417767277
 20
-9.4141832302
 10
-2.4250048285
 20
-9.3426938919
 10
-2.4061459097
 20
-9.2717569705
 10
-2.385196513
 20
-9.2013549407
 10
-2.3621738627
 20
-9.1316204782
 10
-2.3370569005
 20
-9.0625331871
 10
-2.3098666848
 20
-8.9941134634
 10
-2.2806836147
 20
-8.9265551718
 10
-2.2494927591
 20
-8.8598587735
 10
-2.216309049
 20
-8.7940238072
 10
-2.1812576775
 20
-8.7292427535
 10
-2.1443077638
 20
-8.6654675789
 10
-2.1054901886
 20
-8.6027463168
 10
-2.0650227868
 20
-8.5414155487
 10
-2.0229732297
 20
-8.4815822163
 10
-1.9792738461
 20
-8.4231393779
 10
-1.9339394569
 20
-8.3661027897
 10
-1.8870415407
 20
-8.3105285987
 10
-1.8385086189
 20
-8.2563606579
 10
-1.7881410769
 20
-8.2034462831
 10
-1.7357884596
 20
-8.151646319
 10
-1.6816012221
 20
-8.1010999209
 10
-1.6258311148
 20
-8.0520718709
 10
-1.5682211997
 20
-8.0044358349
 10
-1.5090284148
 20
-7.9583181469
 10
-1.4492753244
 20
-7.9143625906
 10
-1.3891120448
 20
-7.8727508308
 10
-1.3283884597
 20
-7.8333012028
 10
-1.2676767846
 20
-7.7961124958
 10
-1.2071106339
 20
-7.7612780512
 10
-1.1465563933
 20
-7.7287045277
 10
-1.0861854354
 20
-7.6982106911
 10
-1.0261236661
 20
-7.6698319359
 10
-0.9662451796
 20
-7.6435328675
 10
-0.9063436303
 20
-7.6190260681
 10
-0.8465346192
 20
-7.5962696769
 10
-0.7867025454
 20
-7.5753055548
 10
-0.7262942608
 20
-7.5559718663
 10
-0.6653201822
 20
-7.5381723993
 10
-0.6037698928
 20
-7.5220033659
 10
-0.5410589937
 20
-7.5075915676
 10
-0.4771810468
 20
-7.4949656359
 10
-0.4121424902
 20
-7.4840969393
 10
-0.3453782388
 20
-7.4750263847
 10
-0.2768892262
 20
-7.4679841003
 10
-0.2066745188
 20
-7.4627399579
 10
-0.1341662313
 20
-7.4586444795
 10
-0.0591750688
 20
-7.4554811725
 10
0.0181096738
 20
-7.4534665296
 10
0.0976879965
 20
-7.4526005506
  0
LWPOLYLINE
  5
2CC
100
AcDbEntity
  8
IMPORT_IGES
100
AcDbPolyline
 62
7
  6
CONTINUOUS
 90
112
 70
0
 10
4.3962369673
 20
-12.4480815649
 10
4.305649075
 20
-12.4432760746
 10
4.2178384863
 20
-12.4375793811
 10
4.1328052011
 20
-12.4309914842
 10
4.0507327257
 20
-12.4237347518
 10
3.9714375539
 20
-12.415586816
 10
3.8943691671
 20
-12.4058805736
 10
3.8194976206
 20
-12.3944683238
 10
3.7468528592
 20
-12.3814977673
 10
3.6759741984
 20
-12.3667449025
 10
3.6068310547
 20
-12.3501928848
 10
3.5394540116
 20
-12.3318585587
 10
3.4734741346
 20
-12.3115684558
 10
3.4089241002
 20
-12.2892686435
 10
3.3457712318
 20
-12.2650130543
 10
3.2835485662
 20
-12.2387900172
 10
3.2222336196
 20
-12.2105900552
 10
3.1618488756
 20
-12.1804226452
 10
3.101994822
 20
-12.1483045469
 10
3.0425827618
 20
-12.1142662047
 10
2.9837013919
 20
-12.0782771742
 10
2.9252172908
 20
-12.0402628813
 10
2.8670486197
 20
-12.0002534214
 10
2.8092772174
 20
-11.9582186992
 10
2.7520151786
 20
-11.9139938551
 10
2.6950481299
 20
-11.8673869833
 10
2.6385904447
 20
-11.8185899896
 10
2.5833973376
 20
-11.7680137317
 10
2.5294984191
 20
-11.7155878679
 10
2.4768640787
 20
-11.6613827399
 10
2.4261606993
 20
-11.6060202309
 10
2.3776083447
 20
-11.5496825905
 10
2.3309869511
 20
-11.4921875692
 10
2.2863027102
 20
-11.4336103012
 10
2.2435919168
 20
-11.3739919028
 10
2.202818276
 20
-11.3132912578
 10
2.1638790951
 20
-11.2514601524
 10
2.1267224232
 20
-11.1884399259
 10
2.0914002112
 20
-11.124289239
 10
2.0579656197
 20
-11.0591358611
 10
2.0263958801
 20
-10.9929522922
 10
1.9967137611
 20
-10.9257660322
 10
1.9690407289
 20
-10.8577873503
 10
1.9433932497
 20
-10.789022604
 10
1.9197548574
 20
-10.7194654358
 10
1.89819762
 20
-10.6493070423
 10
1.878735631
 20
-10.5785467993
 10
1.8613547969
 20
-10.507185331
 10
1.846084906
 20
-10.4354157068
 10
1.8329297125
 20
-10.3632471275
 10
1.8218854622
 20
-10.2906703922
 10
1.8129706806
 20
-10.2178509682
 10
1.8061790958
 20
-10.144790701
 10
1.8015169797
 20
-10.0714877452
 10
1.7990216732
 20
-9.9981020315
 10
1.7987092915
 20
-9.9246052157
 10
1.8005637193
 20
-9.8510256421
 10
1.8045739518
 20
-9.7776082747
 10
1.8107488996
 20
-9.704372285
 10
1.8190796521
 20
-9.6312985015
 10
1.8295284716
 20
-9.5585743736
 10
1.8420919795
 20
-9.4862006331
 10
1.8567735546
 20
-9.4141765482
 10
1.8735455953
 20
-9.3426873735
 10
1.8924046424
 20
-9.2717506376
 10
1.9133541552
 20
-9.2013488119
 10
1.9363769101
 20
-9.1316145655
 10
1.961493965
 20
-9.0625275024
 10
1.988684262
 20
-8.9941080187
 10
2.0178674027
 20
-8.926549971
 10
2.0490583179
 20
-8.8598538205
 10
2.0822420768
 20
-8.7940191059
 10
2.1172934892
 20
-8.7292383008
 10
2.1542434359
 20
-8.6654633701
 10
2.1930610361
 20
-8.6027423487
 10
2.2335284568
 20
-8.5414118148
 10
2.2755780241
 20
-8.4815787123
 10
2.3192774119
 20
-8.4231360973
 10
2.364611809
 20
-8.3660997162
 10
2.4115097401
 20
-8.3105257109
 10
2.4600426805
 20
-8.2563579395
 10
2.5104102443
 20
-8.2034437227
 10
2.562762892
 20
-8.1516439023
 10
2.6169501631
 20
-8.1010976365
 10
2.67272029
 20
-8.0520697214
 10
2.7303302051
 20
-8.0044338288
 10
2.789522976
 20
-7.9583162868
 10
2.8492760372
 20
-7.9143608754
 10
2.9094392682
 20
-7.8727492608
 10
2.9701627896
 20
-7.8332997769
 10
3.0308743974
 20
-7.7961112051
 10
3.0914404814
 20
-7.7612768834
 10
3.1519946519
 20
-7.7287034738
 10
3.2123655359
 20
-7.6982097437
 10
3.2724272263
 20
-7.6698310879
 10
3.3323056301
 20
-7.6435321116
 10
3.3922070957
 20
-7.6190253975
 10
3.4520160237
 20
-7.5962690842
 10
3.5118480135
 20
-7.5753050331
 10
3.5722562115
 20
-7.5559714116
 10
3.6332302011
 20
-7.5381720083
 10
3.6947803988
 20
-7.5220030346
 10
3.7574912008
 20
-7.5075912927
 10
3.8213690451
 20
-7.4949654155
 10
3.8864074937
 20
-7.4840967702
 10
3.9531716289
 20
-7.4750262601
 10
4.0216605172
 20
-7.4679840119
 10
4.091875092
 20
-7.4627398988
 10
4.1643832362
 20
-7.4586444438
 10
4.2393742439
 20
-7.4554811547
 10
4.3166588209
 20
-7.4534665236
 10
4.3962369673
 20
-7.4526005506
  0
LWPOLYLINE
  5
2CD
100
AcDbEntity
  8
IMPORT_IGES
100
AcDbPolyline
 62
7
  6
CONTINUOUS
 90
13
 70
0
 10
-9.3008531258
 20
-10.7613930523
 10
-9.3293984874
 20
-10.7597141119
 10
-9.3571658769
 20
-10.7558458588
 10
-9.3841552943
 20
-10.7497882929
 10
-9.4105683103
 20
-10.741584609
 10
-9.4362033541
 20
-10.7311916124
 10
-9.4604557133
 20
-10.718479719
 10
-9.4830078995
 20
-10.7030408042
 10
-9.5041774011
 20
-10.6852829925
 10
-9.5243119712
 20
-10.6663010741
 10
-9.5435275275
 20
-10.6464599788
 10
-9.5617081523
 20
-10.6253947766
 10
-9.5788538456
 20
-10.6031054675
  0
LWPOLYLINE
  5
2CE
100
AcDbEntity
  8
IMPORT_IGES
100
AcDbPolyline
 62
7
  6
CONTINUOUS
 90
10
 70
0
 10
-10.9901633114
 20
-9.7616844892
 10
-10.9860840724
 20
-9.7623180461
 10
-10.9819517896
 20
-9.7628637857
 10
-10.9777664628
 20
-9.763321708
 10
-10.9735262556
 20
-9.7636873542
 10
-10.9692330045
 20
-9.7639651832
 10
-10.9648922191
 20
-9.7641685715
 10
-10.9605057361
 20
-9.7643019781
 10
-10.9560717188
 20
-9.764360944
 10
-10.9515901673
 20
-9.7643454693
  0
LINE
  5
2CF
100
AcDbEntity
  8
IMPORT_IGES
100
AcDbLine
 62
7
  6
CONTINUOUS
 10
-11.2256007269
 20
-9.4850146293
 11
-11.4650279283
 21
-9.4424494624
  0
LWPOLYLINE
  5
2D0
100
AcDbEntity
  8
IMPORT_IGES
100
AcDbPolyline
 62
7
  6
CONTINUOUS
 90
9
 70
0
 10
-6.0645975173
 20
-9.7757520199
 10
-6.0375226552
 20
-9.7839551956
 10
-6.0102901579
 20
-9.7927210836
 10
-5.9829000253
 20
-9.802049684
 10
-5.9553685195
 20
-9.8120015781
 10
-5.9276793784
 20
-9.8225161846
 10
-5.8997838163
 20
-9.8334117594
 10
-5.8716655712
 20
-9.8446277211
 10
-5.843340905
 20
-9.856224651
  0
LWPOLYLINE
  5
2D1
100
AcDbEntity
  8
IMPORT_IGES
100
AcDbPolyline
 62
7
  6
CONTINUOUS
 90
10
 70
0
 10
-5.7628215291
 20
-10.1634467065
 10
-5.7877532318
 20
-10.1558147788
 10
-5.8128307623
 20
-10.1475575655
 10
-5.8380541205
 20
-10.1386750668
 10
-5.8634024496
 20
-10.1290928214
 10
-5.8888966063
 20
-10.1188852905
 10
-5.9145991616
 20
-10.1082758577
 10
-5.9405309723
 20
-10.0973389842
 10
-5.9666711816
 20
-10.0860002088
 10
-5.9930197895
 20
-10.0742595315
  0
LWPOLYLINE
  5
2D2
100
AcDbEntity
  8
IMPORT_IGES
100
AcDbPolyline
 62
7
  6
CONTINUOUS
 90
10
 70
0
 10
-5.843340905
 20
-9.856224651
 10
-5.7997735298
 20
-9.8745820547
 10
-5.784683201
 20
-9.8807560827
 10
-5.7695388313
 20
-9.8867246332
 10
-5.7543409293
 20
-9.8924930461
 10
-5.7390889864
 20
-9.8980559815
 10
-5.7237814769
 20
-9.90339742
 10
-5.7084178922
 20
-9.9085120221
 10
-5.6929987408
 20
-9.9134051273
 10
-5.6775240228
 20
-9.9180767357
  0
LWPOLYLINE
  5
2D3
100
AcDbEntity
  8
IMPORT_IGES
100
AcDbPolyline
 62
7
  6
CONTINUOUS
 90
10
 70
0
 10
-5.9930197895
 20
-10.0742595315
 10
-6.0206948335
 20
-10.061614476
 10
-6.0487318099
 20
-10.0501361785
 10
-6.0771307187
 20
-10.039824639
 10
-6.1059032553
 20
-10.030652089
 10
-6.1350377244
 20
-10.022646297
 10
-6.1644990397
 20
-10.0158905685
 10
-6.1942755059
 20
-10.010412672
 10
-6.2243788184
 20
-10.0061848391
 10
-6.2548089772
 20
-10.0032070696
  0
LWPOLYLINE
  5
2D4
100
AcDbEntity
  8
IMPORT_IGES
100
AcDbPolyline
 62
7
  6
CONTINUOUS
 90
10
 70
0
 10
-10.584602856
 20
-9.0064277075
 10
-10.5567077077
 20
-9.0215173081
 10
-10.5301087911
 20
-9.0380674626
 10
-10.5048061062
 20
-9.0560781708
 10
-10.4808104328
 20
-9.0756328481
 10
-10.4581109911
 20
-9.0966480793
 10
-10.4366754416
 20
-9.1188736183
 10
-10.4164930046
 20
-9.14222605
 10
-10.3975744599
 20
-9.1667887896
 10
-10.3799198073
 20
-9.1925618372
  0
LWPOLYLINE
  5
2D5
100
AcDbEntity
  8
IMPORT_IGES
100
AcDbPolyline
 62
7
  6
CONTINUOUS
 90
10
 70
0
 10
-9.0256603435
 20
-9.0311447203
 10
-8.9992920229
 20
-9.046562591
 10
-8.9741161338
 20
-9.0632571345
 10
-8.9501326762
 20
-9.081228351
 10
-8.9273721482
 20
-9.1005675352
 10
-8.9058040517
 20
-9.1211833923
 10
-8.8853368924
 20
-9.1428020381
 10
-8.8659401723
 20
-9.1653321777
 10
-8.8476443895
 20
-9.188865106
 10
-8.8304495439
 20
-9.2134008229
  0
LINE
  5
2D6
100
AcDbEntity
  8
IMPORT_IGES
100
AcDbLine
 62
7
  6
CONTINUOUS
 10
-0.9440585504
 20
-15.9919710042
 11
-1.1118839641
 21
-15.8660571924
  0
LWPOLYLINE
  5
2D7
100
AcDbEntity
  8
IMPORT_IGES
100
AcDbPolyline
 62
7
  6
CONTINUOUS
 90
13
 70
0
 10
-11.8746934459
 20
-9.1226490259
 10
-11.8487548155
 20
-9.1490658434
 10
-11.824974866
 20
-9.1766214138
 10
-11.8033535974
 20
-9.2053157372
 10
-11.7837465783
 20
-9.2351613758
 10
-11.76629824
 20
-9.2661457673
 10
-11.7514418763
 20
-9.2982312254
 10
-11.7395633057
 20
-9.3316051635
 10
-11.7302767097
 20
-9.3660801682
 10
-11.7228579257
 20
-9.4010563129
 10
-11.7170655664
 20
-9.4363336221
 10
-11.7131410191
 20
-9.4721120713
 10
-11.7110842839
 20
-9.5083916604
  0
LWPOLYLINE
  5
2D8
100
AcDbEntity
  8
IMPORT_IGES
100
AcDbPolyline
 62
7
  6
CONTINUOUS
 90
13
 70
0
 10
-10.3077974887
 20
-10.0051035307
 10
-10.3260874707
 20
-9.9851779124
 10
-10.3450220248
 20
-9.966134541
 10
-10.3646011511
 20
-9.9479734165
 10
-10.3847043345
 20
-9.9304598478
 10
-10.40545209
 20
-9.913828526
 10
-10.4272059629
 20
-9.8987835243
 10
-10.4502010188
 20
-9.8857224231
 10
-10.4742021921
 20
-9.874247642
 10
-10.4988658314
 20
-9.8638705134
 10
-10.524077386
 20
-9.8544281479
 10
-10.5499514066
 20
-9.8460834348
 10
-10.5764878932
 20
-9.8388363741
  0
LWPOLYLINE
  5
2D9
100
AcDbEntity
  8
IMPORT_IGES
100
AcDbPolyline
 62
7
  6
CONTINUOUS
 90
13
 70
0
 10
-10.6436566235
 20
-9.2209820769
 10
-10.6298887562
 20
-9.2362395098
 10
-10.617092288
 20
-9.2519923599
 10
-10.6052672189
 20
-9.268240627
 10
-10.5942244343
 20
-9.2849333139
 10
-10.5841530487
 20
-9.3021214178
 10
-10.5756204066
 20
-9.3199579311
 10
-10.5689636814
 20
-9.3385841766
 10
-10.5638456995
 20
-9.3578588314
 10
-10.5598222846
 20
-9.3775109187
 10
-10.5567453777
 20
-9.397450113
 10
-10.5547630377
 20
-9.4177667399
 10
-10.5538752646
 20
-9.4384607992
  0
LWPOLYLINE
  5
2DA
100
AcDbEntity
  8
IMPORT_IGES
100
AcDbPolyline
 62
7
  6
CONTINUOUS
 90
13
 70
0
 10
-10.5738275702
 20
-10.0529884122
 10
-10.5569951414
 20
-10.0722477299
 10
-10.5414068395
 20
-10.0920968841
 10
-10.5270626647
 20
-10.1125358749
 10
-10.5137485515
 20
-10.1335111247
 10
-10.5016785654
 20
-10.1550762111
 10
-10.491494902
 20
-10.1773918663
 10
-10.4836043878
 20
-10.2006239143
 10
-10.4776001964
 20
-10.2246065311
 10
-10.4729040441
 20
-10.2490029777
 10
-10.4693231699
 20
-10.2737010078
 10
-10.4670503349
 20
-10.2988128677
 10
-10.4660855391
 20
-10.3243385575
  0
LINE
  5
2DB
100
AcDbEntity
  8
IMPORT_IGES
100
AcDbLine
 62
7
  6
CONTINUOUS
 10
4.9440585504
 20
-28.3801051454
 11
5.1118839641
 21
-28.5897910398
  0
LWPOLYLINE
  5
2DC
100
AcDbEntity
  8
IMPORT_IGES
100
AcDbPolyline
 62
7
  6
CONTINUOUS
 90
10
 70
0
 10
-10.3077974887
 20
-10.0051035307
 10
-10.2867676554
 20
-10.0367772803
 10
-10.26839061
 20
-10.0693385814
 10
-10.2526663524
 20
-10.102787434
 10
-10.2396690427
 20
-10.1372386635
 10
-10.2293245208
 20
-10.1725774444
 10
-10.2214103063
 20
-10.2084593005
 10
-10.2158522392
 20
-10.2447694062
 10
-10.2127244795
 20
-10.281622587
 10
-10.2120270272
 20
-10.319018843
  0
LWPOLYLINE
  5
2DD
100
AcDbEntity
  8
IMPORT_IGES
100
AcDbPolyline
 62
7
  6
CONTINUOUS
 90
13
 70
0
 10
-9.7442828119
 20
-10.7564570427
 10
-9.7830288046
 20
-10.6965351913
 10
-9.8170936839
 20
-10.6349536174
 10
-9.8464774499
 20
-10.5717123211
 10
-9.8709987423
 20
-10.5064227982
 10
-9.8908389214
 20
-10.4394735529
 10
-9.9065420676
 20
-10.3720300971
 10
-9.9174861027
 20
-10.3043335353
 10
-9.9242931049
 20
-10.2361427629
 10
-9.9293733896
 20
-10.1678999793
 10
-9.9335303951
 20
-10.0997525842
 10
-9.9359606831
 20
-10.0315531777
 10
-9.9366642535
 20
-9.9633017599
  0
LWPOLYLINE
  5
2DE
100
AcDbEntity
  8
IMPORT_IGES
100
AcDbPolyline
 62
7
  6
CONTINUOUS
 90
10
 70
0
 10
-8.8304495439
 20
-9.2134008229
 10
-8.8121786517
 20
-9.2438530257
 10
-8.7951568903
 20
-9.2747788237
 10
-8.7793842597
 20
-9.3061782167
 10
-8.7649364659
 20
-9.3381048392
 10
-8.7517378029
 20
-9.3705050566
 10
-8.7395611529
 20
-9.4032179663
 10
-8.7283308098
 20
-9.436189934
 10
-8.7181224796
 20
-9.4694745938
 10
-8.7089361623
 20
-9.5030719459
  0
LWPOLYLINE
  5
2DF
100
AcDbEntity
  8
IMPORT_IGES
100
AcDbPolyline
 62
7
  6
CONTINUOUS
 90
10
 70
0
 10
-10.3799198073
 20
-9.1925618372
 10
-10.365177246
 20
-9.2185985401
 10
-10.3521556183
 20
-9.2451490921
 10
-10.3408549241
 20
-9.2722134933
 10
-10.3313267515
 20
-9.2998513813
 10
-10.3235195125
 20
-9.3280031184
 10
-10.3172784431
 20
-9.3564897915
 10
-10.3125519553
 20
-9.385251763
 10
-10.3093916372
 20
-9.4143486704
 10
-10.3077974887
 20
-9.4437805138
  0
LWPOLYLINE
  5
2E0
100
AcDbEntity
  8
IMPORT_IGES
100
AcDbPolyline
 62
7
  6
CONTINUOUS
 90
10
 70
0
 10
-9.0244952589
 20
-9.3237215698
 10
-8.9925949288
 20
-9.390775665
 10
-8.9663725683
 20
-9.459148491
 10
-8.9458281773
 20
-9.5288400479
 10
-8.9320980653
 20
-9.6002718533
 10
-8.9240459229
 20
-9.6730223895
 10
-8.9182628223
 20
-9.7458271036
 10
-8.913612454
 20
-9.8182644779
 10
-8.9112311275
 20
-9.89075603
 10
-8.9111188427
 20
-9.9633017599
  0
LWPOLYLINE
  5
2E1
100
AcDbEntity
  8
IMPORT_IGES
100
AcDbPolyline
 62
7
  6
CONTINUOUS
 90
10
 70
0
 10
-9.5788538456
 20
-10.6031054675
 10
-9.6104762068
 20
-10.5359539256
 10
-9.6364357588
 20
-10.4675041668
 10
-9.6567325016
 20
-10.3977561911
 10
-9.6702185643
 20
-10.3262916292
 10
-9.678041818
 20
-10.2535288504
 10
-9.6836458748
 20
-10.1807229632
 10
-9.6881786058
 20
-10.1082923371
 10
-9.69049214
 20
-10.0358186027
 10
-9.6905864775
 20
-9.9633017599
  0
LINE
  5
2E2
100
AcDbEntity
  8
IMPORT_IGES
100
AcDbLine
 62
7
  6
CONTINUOUS
 10
-7.7671892941
 20
-10.9249995172
 11
-8.5227144882
 21
-8.9750000357
  0
LWPOLYLINE
  5
2E3
100
AcDbEntity
  8
IMPORT_IGES
100
AcDbPolyline
 62
7
  6
CONTINUOUS
 90
10
 70
0
 10
-11.249544099
 20
-10.3482798755
 10
-11.240545065
 20
-10.3901593864
 10
-11.2299030588
 20
-10.4298471812
 10
-11.2176180802
 20
-10.4673432598
 10
-11.2036726407
 20
-10.5027976237
 10
-11.1880842289
 20
-10.5360602715
 10
-11.1709053108
 20
-10.566681199
 10
-11.1521533751
 20
-10.5945104049
 10
-11.1318109332
 20
-10.6196978904
 10
-11.1098779849
 20
-10.6422436557
  0
LWPOLYLINE
  5
2E4
100
AcDbEntity
  8
IMPORT_IGES
100
AcDbPolyline
 62
7
  6
CONTINUOUS
 90
13
 70
0
 10
-11.4889713004
 20
-10.3802056134
 10
-11.4835002178
 20
-10.4178901346
 10
-11.4763825354
 20
-10.4550032007
 10
-11.4676182534
 20
-10.4915448118
 10
-11.45747651
 20
-10.5277348175
 10
-11.4456881668
 20
-10.5633533682
 10
-11.4314458093
 20
-10.5977409146
 10
-11.4143474198
 20
-10.6306753255
 10
-11.3947950158
 20
-10.662378732
 10
-11.3731872358
 20
-10.6928579787
 10
-11.3496569593
 20
-10.7221153468
 10
-11.3240713069
 20
-10.7501485551
 10
-11.2964302785
 20
-10.7769576035
  0
LWPOLYLINE
  5
2E5
100
AcDbEntity
  8
IMPORT_IGES
100
AcDbPolyline
 62
7
  6
CONTINUOUS
 90
10
 70
0
 10
-9.9366642535
 20
-9.9633017599
 10
-9.9369052492
 20
-9.9006593157
 10
-9.9351436683
 20
-9.8382126087
 10
-9.9313795109
 20
-9.775961639
 10
-9.9256340213
 20
-9.7138791518
 10
-9.9178859553
 20
-9.6519924019
 10
-9.9080715794
 20
-9.5903831537
 10
-9.8961696493
 20
-9.5290786618
 10
-9.8822014095
 20
-9.4680516715
 10
-9.8661668599
 20
-9.4073021829
  0
LWPOLYLINE
  5
2E6
100
AcDbEntity
  8
IMPORT_IGES
100
AcDbPolyline
 62
7
  6
CONTINUOUS
 90
10
 70
0
 10
-8.6650410667
 20
-9.9633017599
 10
-8.6649208919
 20
-10.0258258019
 10
-8.6667984651
 20
-10.0881403314
 10
-8.6706737862
 20
-10.1502453483
 10
-8.6765372671
 20
-10.2121667044
 10
-8.684398496
 20
-10.273878548
 10
-8.6942862373
 20
-10.3353033242
 10
-8.7062100793
 20
-10.3964151813
 10
-8.7201604338
 20
-10.457239971
 10
-8.7361373007
 20
-10.5177776933
  0
LINE
  5
2E7
100
AcDbEntity
  8
IMPORT_IGES
100
AcDbLine
 62
7
  6
CONTINUOUS
 10
-9.1118839641
 20
-46.0897910398
 11
-9.1118839641
 21
-33.3660571924
  0
LINE
  5
2E8
100
AcDbEntity
  8
IMPORT_IGES
100
AcDbLine
 62
7
  6
CONTINUOUS
 10
-9.1118839641
 20
-28.5897910398
 11
-9.1118839641
 21
-15.8660571924
  0
LINE
  5
2E9
100
AcDbEntity
  8
IMPORT_IGES
100
AcDbLine
 62
7
  6
CONTINUOUS
 10
-9.0
 20
-15.95
 11
-9.0
 21
-28.45
  0
LINE
  5
2EA
100
AcDbEntity
  8
IMPORT_IGES
100
AcDbLine
 62
7
  6
CONTINUOUS
 10
-9.0
 20
-33.45
 11
-9.0
 21
-45.95
  0
LINE
  5
2EB
100
AcDbEntity
  8
IMPORT_IGES
100
AcDbLine
 62
7
  6
CONTINUOUS
 10
-8.9440585504
 20
-15.9919710042
 11
-8.9440585504
 21
-28.3801051454
  0
LINE
  5
2EC
100
AcDbEntity
  8
IMPORT_IGES
100
AcDbLine
 62
7
  6
CONTINUOUS
 10
-8.9440585504
 20
-33.4919710042
 11
-8.9440585504
 21
-45.8801051454
  0
LWPOLYLINE
  5
2ED
100
AcDbEntity
  8
IMPORT_IGES
100
AcDbPolyline
 62
7
  6
CONTINUOUS
 90
10
 70
0
 10
-9.6905864775
 20
-9.9633017599
 10
-9.6893791479
 20
-9.8792700029
 10
-9.6857833455
 20
-9.7975793701
 10
-9.6797990703
 20
-9.7182298616
 10
-9.6724353947
 20
-9.6407083449
 10
-9.6626832463
 20
-9.5655279525
 10
-9.6475154082
 20
-9.4942280819
 10
-9.625922808
 20
-9.4273218654
 10
-9.5989145181
 20
-9.3642961706
 10
-9.5664905384
 20
-9.3051509976
  0
LWPOLYLINE
  5
2EE
100
AcDbEntity
  8
IMPORT_IGES
100
AcDbPolyline
 62
7
  6
CONTINUOUS
 90
10
 70
0
 10
-8.9111188427
 20
-9.9633017599
 10
-8.9122886827
 20
-10.0438967063
 10
-8.9154670746
 20
-10.122450412
 10
-8.9206540183
 20
-10.1989628769
 10
-8.9267300273
 20
-10.2739302519
 10
-8.9348145882
 20
-10.3468563862
 10
-8.9482661603
 20
-10.4162528273
 10
-8.96820423
 20
-10.4816234244
 10
-8.993509311
 20
-10.5434643282
 10
-9.0241814032
 20
-10.6017755389
  0
LWPOLYLINE
  5
2EF
100
AcDbEntity
  8
IMPORT_IGES
100
AcDbPolyline
 62
7
  6
CONTINUOUS
 90
13
 70
0
 10
-10.2120270272
 20
-10.319018843
 10
-10.213374631
 20
-10.3606465147
 10
-10.2173120798
 20
-10.4014139783
 10
-10.2238393737
 20
-10.4413212335
 10
-10.232848946
 20
-10.4804980846
 10
-10.2444483633
 20
-10.5188147275
 10
-10.2589603257
 20
-10.5558817499
 10
-10.2768359751
 20
-10.5915303932
 10
-10.2976241696
 20
-10.6259294161
 10
-10.3202941839
 20
-10.6591956826
 10
-10.3445024427
 20
-10.6913681475
 10
-10.3705925213
 20
-10.722407856
 10
-10.3985644196
 20
-10.7523148082
  0
LWPOLYLINE
  5
2F0
100
AcDbEntity
  8
IMPORT_IGES
100
AcDbPolyline
 62
7
  6
CONTINUOUS
 90
10
 70
0
 10
-10.3077974887
 20
-9.4437805138
 10
-10.3087662604
 20
-9.4713694437
 10
-10.3114393425
 20
-9.4984619131
 10
-10.3158167349
 20
-9.5250579219
 10
-10.3219812656
 20
-9.5511690583
 10
-10.3298501066
 20
-9.5767837343
 10
-10.3391747746
 20
-9.6018671849
 10
-10.349872442
 20
-9.6264078221
 10
-10.3620259364
 20
-9.6504172341
 10
-10.3756352578
 20
-9.6738954208
  0
LWPOLYLINE
  5
2F1
100
AcDbEntity
  8
IMPORT_IGES
100
AcDbPolyline
 62
7
  6
CONTINUOUS
 90
13
 70
0
 10
-10.4660855391
 20
-10.3243385575
 10
-10.4674799527
 20
-10.3513804916
 10
-10.4701793475
 20
-10.3780492437
 10
-10.4741837235
 20
-10.4043448137
 10
-10.4792572152
 20
-10.4303995298
 10
-10.485635688
 20
-10.4560810638
 10
-10.4940267388
 20
-10.4809924316
 10
-10.5048605698
 20
-10.5049587198
 10
-10.5177069788
 20
-10.5281548417
 10
-10.5319829561
 20
-10.5507085531
 10
-10.5474941649
 20
-10.5726624392
 10
-10.5644349418
 20
-10.5939739148
 10
-10.582805287
 20
-10.6146429799
  0
LWPOLYLINE
  5
2F2
100
AcDbEntity
  8
IMPORT_IGES
100
AcDbPolyline
 62
253
  6
CONTINUOUS
 90
40
 70
0
 10
-6.7295100345
 20
43.819845771
 10
-6.7257644675
 20
43.8784060526
 10
-6.7200984086
 20
43.9372390586
 10
-6.7124948902
 20
43.996298762
 10
-6.7029283157
 20
44.055592052
 10
-6.6913903158
 20
44.1150130088
 10
-6.6779071536
 20
44.1743463857
 10
-6.6624831787
 20
44.2335370042
 10
-6.645121483
 20
44.2925371208
 10
-6.6258772673
 20
44.3511476061
 10
-6.604782378
 20
44.4092850251
 10
-6.5818461545
 20
44.4669318165
 10
-6.5571087822
 20
44.5239920395
 10
-6.5305960077
 20
44.5804129199
 10
-6.5023323245
 20
44.6361447907
 10
-6.4723641679
 20
44.6910987698
 10
-6.4407034055
 20
44.7452529586
 10
-6.4073954308
 20
44.7985262313
 10
-6.3725516738
 20
44.8507486615
 10
-6.3362437677
 20
44.9018332886
 10
-6.2984835739
 20
44.9517798856
 10
-6.2593024636
 20
45.0005550029
 10
-6.2187534367
 20
45.0480981623
 10
-6.1768621839
 20
45.0943818939
 10
-6.1336128548
 20
45.1394172169
 10
-6.0890102412
 20
45.1831828179
 10
-6.0431153587
 20
45.2256005004
 10
-5.9959943337
 20
45.2665939374
 10
-5.9476452208
 20
45.3061472573
 10
-5.8981409489
 20
45.3441814135
 10
-5.8476728334
 20
45.3805421427
 10
-5.7962866627
 20
45.415198154
 10
-5.7440281096
 20
45.4481185985
 10
-5.691107046
 20
45.4791802234
 10
-5.6375933644
 20
45.508360866
 10
-5.5835216118
 20
45.5356590844
 10
-5.52906167
 20
45.5610112319
 10
-5.4743078176
 20
45.5844036043
 10
-5.4192723921
 20
45.6058600245
 10
-5.3640053494
 20
45.6253869402
  0
LWPOLYLINE
  5
2F3
100
AcDbEntity
  8
IMPORT_IGES
100
AcDbPolyline
 62
253
  6
CONTINUOUS
 90
19
 70
0
 10
-5.5895130591
 20
43.6665434721
 10
-5.5840547017
 20
43.7341985394
 10
-5.5742331612
 20
43.800706721
 10
-5.5600484379
 20
43.866068017
 10
-5.5413933174
 20
43.9305581171
 10
-5.5183750141
 20
43.9939013315
 10
-5.49131517
 20
44.0552705911
 10
-5.4601655237
 20
44.1146394096
 10
-5.4249743368
 20
44.1720342733
 10
-5.3862080356
 20
44.2267075718
 10
-5.3438233099
 20
44.2786263528
 10
-5.2978634699
 20
44.3278235687
 10
-5.2489248735
 20
44.3736504669
 10
-5.1969691179
 20
44.4160675936
 10
-5.1420346058
 20
44.4551144025
 10
-5.0848329027
 20
44.4902605024
 10
-5.0256011973
 20
44.5213290962
 10
-4.964102301
 20
44.548496981
 10
-4.9003362138
 20
44.5717641567
  0
LWPOLYLINE
  5
2F4
100
AcDbEntity
  8
IMPORT_IGES
100
AcDbPolyline
 62
7
  6
CONTINUOUS
 90
13
 70
0
 10
-11.9571620598
 20
-9.5030719459
 10
-11.9601257758
 20
-9.5295381514
 10
-11.9640843153
 20
-9.5556374428
 10
-11.9690376782
 20
-9.58136982
 10
-11.9747835642
 20
-9.606818246
 10
-11.9815242737
 20
-9.6318997579
 10
-11.9898667077
 20
-9.6563654667
 10
-12.0002308197
 20
-9.6800588981
 10
-12.0121966561
 20
-9.7031365265
 10
-12.0251112575
 20
-9.7258188863
 10
-12.0387569707
 20
-9.7481794891
 10
-12.0533514488
 20
-9.7701448232
 10
-12.0688946918
 20
-9.7917148888
  0
LINE
  5
2F5
100
AcDbEntity
  8
IMPORT_IGES
100
AcDbLine
 62
7
  6
CONTINUOUS
 10
-11.016767472
 20
-9.9718467414
 11
-10.9901633114
 21
-9.7616844892
  0
LINE
  5
2F6
100
AcDbEntity
  8
IMPORT_IGES
100
AcDbLine
 62
253
  6
CONTINUOUS
 10
-4.9003362138
 20
15.5282358434
 11
-5.2100829301
 21
14.5774567842
  0
LINE
  5
2F7
100
AcDbEntity
  8
IMPORT_IGES
100
AcDbLine
 62
253
  6
CONTINUOUS
 10
4.9003362138
 20
44.5717641567
 11
5.2100829301
 21
45.5225432158
  0
LINE
  5
2F8
100
AcDbEntity
  8
IMPORT_IGES
100
AcDbLine
 62
253
  6
CONTINUOUS
 10
-5.3640061051
 20
14.4746107651
 11
-5.5220841649
 21
14.0002772444
  0
LINE
  5
2F9
100
AcDbEntity
  8
IMPORT_IGES
100
AcDbLine
 62
253
  6
CONTINUOUS
 10
5.3640061051
 20
45.6253892349
 11
5.5220841649
 21
46.0997227557
  0
LWPOLYLINE
  5
2FA
100
AcDbEntity
  8
IMPORT_IGES
100
AcDbPolyline
 62
7
  6
CONTINUOUS
 90
10
 70
0
 10
-12.9704568535
 20
-10.7583234131
 10
-12.9572268864
 20
-10.7266080322
 10
-12.9428427902
 20
-10.6956524079
 10
-12.9273045651
 20
-10.6654565402
 10
-12.9105155384
 20
-10.6360531629
 10
-12.8925723827
 20
-10.6074095423
 10
-12.8737651158
 20
-10.5794274766
 10
-12.8541904102
 20
-10.5520742319
 10
-12.8337515935
 20
-10.5253825422
 10
-12.8124486655
 20
-10.4993524074
  0
LINE
  5
2FB
100
AcDbEntity
  8
IMPORT_IGES
100
AcDbLine
 62
7
  6
CONTINUOUS
 10
-11.4889713004
 20
-10.3802056134
 11
-11.249544099
 21
-10.3482798755
  0
LWPOLYLINE
  5
2FC
100
AcDbEntity
  8
IMPORT_IGES
100
AcDbPolyline
 62
7
  6
CONTINUOUS
 90
10
 70
0
 10
-5.5844131857
 20
-9.9300498187
 10
-5.5631588006
 20
-9.9290101005
 10
-5.5422551194
 20
-9.9266952236
 10
-5.5217021422
 20
-9.923105188
 10
-5.5014841522
 20
-9.9181144935
 10
-5.4816168661
 20
-9.9118486404
 10
-5.4621474341
 20
-9.9046841295
 10
-5.4430915726
 20
-9.8967464612
 10
-5.4244335652
 20
-9.8879101351
 10
-5.4061734118
 20
-9.8781751513
  0
LWPOLYLINE
  5
2FD
100
AcDbEntity
  8
IMPORT_IGES
100
AcDbPolyline
 62
7
  6
CONTINUOUS
 90
10
 70
0
 10
-10.8478385042
 20
-9.9452455662
 10
-10.8671124146
 20
-9.9460646331
 10
-10.886259512
 20
-9.9474744174
 10
-10.9052797966
 20
-9.949474919
 10
-10.9241721928
 20
-9.9521415549
 10
-10.942937776
 20
-9.9553989081
 10
-10.9615797729
 20
-9.9590207283
 10
-10.9800992589
 20
-9.9629315989
 10
-10.9984951587
 20
-9.9672069366
 10
-11.016767472
 20
-9.9718467414
  0
LWPOLYLINE
  5
2FE
100
AcDbEntity
  8
IMPORT_IGES
100
AcDbPolyline
 62
7
  6
CONTINUOUS
 90
103
 70
0
 10
0.0976879965
 20
-8.1885958135
 10
0.0255608917
 20
-8.1915713004
 10
-0.0441039846
 20
-8.1954332778
 10
-0.1113066326
 20
-8.2001817456
 10
-0.1758604958
 20
-8.2056708326
 10
-0.2379521305
 20
-8.2120464101
 10
-0.2981412065
 20
-8.2197460921
 10
-0.3564870079
 20
-8.2288142573
 10
-0.4129302504
 20
-8.2392065269
 10
-0.4678527509
 20
-8.2512273787
 10
-0.5212532376
 20
-8.2649243584
 10
-0.5731329823
 20
-8.2802499202
 10
-0.6238776168
 20
-8.2973659045
 10
-0.6734695291
 20
-8.3163712567
 10
-0.7219263311
 20
-8.3371670314
 10
-0.7696864912
 20
-8.3596182325
 10
-0.8168131454
 20
-8.3836971763
 10
-0.8632431577
 20
-8.4094315464
 10
-0.909225587
 20
-8.4367693985
 10
-0.9548304565
 20
-8.4656390928
 10
-0.9999877432
 20
-8.4961122689
 10
-1.0447364367
 20
-8.5283519011
 10
-1.0892593105
 20
-8.5624713765
 10
-1.1333735912
 20
-8.598357308
 10
-1.1765699476
 20
-8.6358325081
 10
-1.2188899646
 20
-8.6750172761
 10
-1.2602920574
 20
-8.7157913128
 10
-1.3001421406
 20
-8.7576165328
 10
-1.3382526357
 20
-8.8003601388
 10
-1.3748111211
 20
-8.8441549281
 10
-1.4097462474
 20
-8.8888612079
 10
-1.4430066938
 20
-8.9344250649
 10
-1.474643781
 20
-8.9809004125
 10
-1.5047401217
 20
-9.0283092973
 10
-1.5333360636
 20
-9.0766906442
 10
-1.5603912591
 20
-9.1260055284
 10
-1.5858672777
 20
-9.1761592222
 10
-1.609788881
 20
-9.2271854629
 10
-1.6321313075
 20
-9.2790505133
 10
-1.6527818416
 20
-9.331558434
 10
-1.6717222623
 20
-9.3846969166
 10
-1.6889707907
 20
-9.4384782697
 10
-1.7044693741
 20
-9.4927434789
 10
-1.7182065516
 20
-9.5475016773
 10
-1.730193784
 20
-9.602743732
 10
-1.740407401
 20
-9.65828323
 10
-1.7488453656
 20
-9.7141200998
 10
-1.7555097148
 20
-9.770254413
 10
-1.7603828887
 20
-9.8264999712
 10
-1.7634641815
 20
-9.8828553779
 10
-1.7647542991
 20
-9.9393220296
 10
-1.7642377995
 20
-9.9957179178
 10
-1.7619012958
 20
-10.0520419942
 10
-1.7577581749
 20
-10.1082953072
 10
-1.7518331557
 20
-10.1642989927
 10
-1.744124902
 20
-10.220038055
 10
-1.7346347499
 20
-10.2755274898
 10
-1.7233914266
 20
-10.3306334207
 10
-1.7103943036
 20
-10.3853596923
 10
-1.6956440095
 20
-10.4397024599
 10
-1.6791711565
 20
-10.4935163129
 10
-1.6609714294
 20
-10.5468011931
 10
-1.6410491435
 20
-10.5995571588
 10
-1.6194478571
 20
-10.651638974
 10
-1.5961292507
 20
-10.7030872768
 10
-1.5711316439
 20
-10.7538614292
 10
-1.544613553
 20
-10.8036942817
 10
-1.5166046627
 20
-10.8525312703
 10
-1.4870752884
 20
-10.900426959
 10
-1.4560948936
 20
-10.9472778907
 10
-1.4237083131
 20
-10.9930446857
 10
-1.389870712
 20
-11.0377667236
 10
-1.3545170492
 20
-11.0814586871
 10
-1.3175980625
 20
-11.1241796897
 10
-1.279163014
 20
-11.1658706178
 10
-1.2392946487
 20
-11.2063688128
 10
-1.197831432
 20
-11.2457528052
 10
-1.1549348986
 20
-11.2839440646
 10
-1.1111723972
 20
-11.3205443401
 10
-1.0665817172
 20
-11.3554627315
 10
-1.0211250693
 20
-11.388790139
 10
-0.9752564341
 20
-11.4204010137
 10
-0.9290277574
 20
-11.4502615381
 10
-0.8823870933
 20
-11.4784055295
 10
-0.8356325847
 20
-11.5048088912
 10
-0.7888727482
 20
-11.5294223866
 10
-0.7419990671
 20
-11.5522952522
 10
-0.6949841343
 20
-11.5735511009
 10
-0.6479476379
 20
-11.5931781769
 10
-0.6007698898
 20
-11.611188236
 10
-0.5530644174
 20
-11.6277401584
 10
-0.5048326666
 20
-11.6429086438
 10
-0.4560731915
 20
-11.6566189925
 10
-0.4063951826
 20
-11.6688059852
 10
-0.3557998136
 20
-11.6794845049
 10
-0.3042859108
 20
-11.6886396686
 10
-0.2514591437
 20
-11.696161608
 10
-0.1973298365
 20
-11.701817153
 10
-0.141887665
 20
-11.7058394736
 10
-0.0847073263
 20
-11.7088182121
 10
-0.0256470526
 20
-11.7109499158
 10
0.0351513883
 20
-11.7120380374
 10
0.0976879965
 20
-11.7120825767
  0
LWPOLYLINE
  5
2FF
100
AcDbEntity
  8
IMPORT_IGES
100
AcDbPolyline
 62
7
  6
CONTINUOUS
 90
13
 70
0
 10
-10.8784318687
 20
-8.9369920216
 10
-10.9136415632
 20
-8.9384206162
 10
-10.9485161616
 20
-8.9413311726
 10
-10.9830556637
 20
-8.9457236911
 10
-11.0174206485
 20
-8.9513429415
 10
-11.0514505371
 20
-8.9584441539
 10
-11.0846635925
 20
-8.967793018
 10
-11.1169110596
 20
-8.9797414685
 10
-11.1483416936
 20
-8.9939375708
 10
-11.1789200229
 20
-9.0100912103
 10
-11.208634224
 20
-9.028105682
 10
-11.2374961205
 20
-9.0480776909
 10
-11.2655057124
 20
-9.070007237
  0
LWPOLYLINE
  5
300
100
AcDbEntity
  8
IMPORT_IGES
100
AcDbPolyline
 62
7
  6
CONTINUOUS
 90
10
 70
0
 10
-10.9515901673
 20
-9.7643454693
 10
-10.9186436768
 20
-9.7632501206
 10
-10.8862800925
 20
-9.760132713
 10
-10.8544994144
 20
-9.7549932464
 10
-10.8232872016
 20
-9.747737651
 10
-10.792657895
 20
-9.7384599966
 10
-10.7626548172
 20
-9.7274424934
 10
-10.7332924092
 20
-9.7147792115
 10
-10.7045562299
 20
-9.7003760808
 10
-10.6764462794
 20
-9.6842331014
  0
LWPOLYLINE
  5
301
100
AcDbEntity
  8
IMPORT_IGES
100
AcDbPolyline
 62
7
  6
CONTINUOUS
 90
13
 70
0
 10
-12.3189631849
 20
-8.9670212984
 10
-12.3587234041
 20
-8.9682863603
 10
-12.3982495398
 20
-8.9711034392
 10
-12.4375415922
 20
-8.975472535
 10
-12.476812556
 20
-8.9810565888
 10
-12.5158494364
 20
-8.9881926596
 10
-12.5540132489
 20
-8.9978919239
 10
-12.5911352167
 20
-9.0105010288
 10
-12.6273841166
 20
-9.0256733272
 10
-12.6626272946
 20
-9.0433800545
 10
-12.6968205326
 20
-9.0636116227
 10
-12.7300080486
 20
-9.0863776198
 10
-12.7621898428
 20
-9.111678046
  0
LWPOLYLINE
  5
302
100
AcDbEntity
  8
IMPORT_IGES
100
AcDbPolyline
 62
7
  6
CONTINUOUS
 90
10
 70
0
 10
-6.2548089772
 20
-10.0032070696
 10
-6.2735579481
 20
-10.0037179615
 10
-6.2921041229
 20
-10.0051855156
 10
-6.3104475017
 20
-10.0076097319
 10
-6.328606313
 20
-10.011056996
 10
-6.3465623283
 20
-10.0154609222
 10
-6.3642608617
 20
-10.0206223536
 10
-6.3816836847
 20
-10.0264749046
 10
-6.3988490257
 20
-10.0330849607
 10
-6.415756885
 20
-10.040452522
  0
LWPOLYLINE
  5
303
100
AcDbEntity
  8
IMPORT_IGES
100
AcDbPolyline
 62
7
  6
CONTINUOUS
 90
22
 70
0
 10
4.3962369673
 20
-8.1885958135
 10
4.2620901147
 20
-8.1916158909
 10
4.1332630421
 20
-8.2008328132
 10
4.0097557495
 20
-8.2162465804
 10
3.8919817748
 20
-8.237507746
 10
3.7795275801
 20
-8.2649657566
 10
3.6711525519
 20
-8.2996689514
 10
3.5664322476
 20
-8.3423255935
 10
3.4657911098
 20
-8.3922274198
 10
3.3692618535
 20
-8.4482979811
 10
3.2768283474
 20
-8.510474432
 10
3.1885067228
 20
-8.578819618
 10
3.1043780885
 20
-8.6524456254
 10
3.0240339663
 20
-8.7310347124
 10
2.9478828344
 20
-8.8149046209
 10
2.8772312365
 20
-8.904120663
 10
2.8124764118
 20
-8.9975592674
 10
2.7532211211
 20
-9.0963440054
 10
2.6995801903
 20
-9.2039109037
 10
2.6515918947
 20
-9.3214053045
 10
2.6092179591
 20
-9.4476818656
 10
2.5724583834
 20
-9.582740587
  0
LWPOLYLINE
  5
304
100
AcDbEntity
  8
IMPORT_IGES
100
AcDbPolyline
 62
7
  6
CONTINUOUS
 90
37
 70
0
 10
11.0101541504
 20
-8.7056810081
 10
10.9793385917
 20
-8.7061416005
 10
10.9498424104
 20
-8.7072180891
 10
10.9216656064
 20
-8.708910474
 10
10.8949279024
 20
-8.7111354597
 10
10.8695095759
 20
-8.7139763417
 10
10.8450514584
 20
-8.7176830062
 10
10.8215193812
 20
-8.7223085888
 10
10.7989475131
 20
-8.727799954
 10
10.7770791929
 20
-8.7342475813
 10
10.7559726417
 20
-8.7416686408
 10
10.7355696384
 20
-8.7500459623
 10
10.7154388582
 20
-8.7594185155
 10
10.6955193804
 20
-8.7697376518
 10
10.6758721256
 20
-8.7810520198
 10
10.6562485311
 20
-8.7935465343
 10
10.6363795
 20
-8.8074026057
 10
10.616534129
 20
-8.8224388238
 10
10.5972711459
 20
-8.8382958722
 10
10.5786183125
 20
-8.8550157167
 10
10.5605478669
 20
-8.8725563917
 10
10.5435352512
 20
-8.8904326841
 10
10.5277703883
 20
-8.9084510532
 10
10.5130633552
 20
-8.9268050398
 10
10.4993198248
 20
-8.9455900526
 10
10.4865273388
 20
-8.9647323106
 10
10.4746983554
 20
-8.9843055949
 10
10.4637759221
 20
-9.0046266568
 10
10.453775036
 20
-9.0257147708
 10
10.4446806999
 20
-9.0475506623
 10
10.4363909705
 20
-9.0703932591
 10
10.4289420993
 20
-9.0942123451
 10
10.4222978347
 20
-9.1190381362
 10
10.4162474789
 20
-9.145220208
 10
10.4107207993
 20
-9.1728750856
 10
10.4057880284
 20
-9.2018862438
 10
10.4014491662
 20
-9.2322536826
  0
LINE
  5
305
100
AcDbEntity
  8
IMPORT_IGES
100
AcDbLine
 62
7
  6
CONTINUOUS
 10
-7.5024897233
 20
-10.9249995172
 11
-7.7671892941
 21
-10.9249995172
  0
LINE
  5
306
100
AcDbEntity
  8
IMPORT_IGES
100
AcDbLine
 62
7
  6
CONTINUOUS
 10
-11.7084244266
 20
-10.9249995172
 11
-12.9973394796
 21
-10.9249995172
  0
LINE
  5
307
100
AcDbEntity
  8
IMPORT_IGES
100
AcDbLine
 62
7
  6
CONTINUOUS
 10
-12.6648023725
 20
-10.6948846102
 11
-11.7084244266
 21
-10.6948846102
  0
LINE
  5
308
100
AcDbEntity
  8
IMPORT_IGES
100
AcDbLine
 62
7
  6
CONTINUOUS
 10
2.5724619109
 20
-10.3179382205
 11
4.0041329339
 21
-10.317937386
  0
LINE
  5
309
100
AcDbEntity
  8
IMPORT_IGES
100
AcDbLine
 62
7
  6
CONTINUOUS
 10
9.3350317329
 20
-9.8090217531
 11
8.9505203068
 21
-9.8090217531
  0
LINE
  5
30A
100
AcDbEntity
  8
IMPORT_IGES
100
AcDbLine
 62
7
  6
CONTINUOUS
 10
9.2389043421
 20
-9.7128943622
 11
9.0466476977
 21
-9.7128943622
  0
LINE
  5
30B
100
AcDbEntity
  8
IMPORT_IGES
100
AcDbLine
 62
7
  6
CONTINUOUS
 10
2.5724583834
 20
-9.582740587
 11
4.0041329339
 21
-9.582740587
  0
LINE
  5
30C
100
AcDbEntity
  8
IMPORT_IGES
100
AcDbLine
 62
7
  6
CONTINUOUS
 10
9.0466476977
 20
-9.3283810735
 11
9.2389043421
 21
-9.3283810735
  0
LINE
  5
30D
100
AcDbEntity
  8
IMPORT_IGES
100
AcDbLine
 62
7
  6
CONTINUOUS
 10
10.4014500039
 20
-9.2963365435
 11
9.3350317329
 21
-9.2963365435
  0
LINE
  5
30E
100
AcDbEntity
  8
IMPORT_IGES
100
AcDbLine
 62
7
  6
CONTINUOUS
 10
10.4014491662
 20
-9.2322536826
 11
9.0092429891
 21
-9.2322536826
  0
LINE
  5
30F
100
AcDbEntity
  8
IMPORT_IGES
100
AcDbLine
 62
7
  6
CONTINUOUS
 10
-8.5227144882
 20
-8.9750000357
 11
-8.2433829084
 21
-8.9750000357
  0
LINE
  5
310
100
AcDbEntity
  8
IMPORT_IGES
100
AcDbLine
 62
7
  6
CONTINUOUS
 10
-7.0023532025
 20
-8.9750000357
 11
-6.7389835604
 21
-8.9750000357
  0
LWPOLYLINE
  5
311
100
AcDbEntity
  8
IMPORT_IGES
100
AcDbPolyline
 62
7
  6
CONTINUOUS
 90
10
 70
0
 10
-5.6096860208
 20
-10.1814473092
 10
-5.6269306934
 20
-10.1813447156
 10
-5.6441237398
 20
-10.1807573297
 10
-5.6612651599
 20
-10.1796851515
 10
-5.6783626573
 20
-10.1781142825
 10
-5.6954085285
 20
-10.1760586213
 10
-5.7123796624
 20
-10.1735598635
 10
-5.7292683552
 20
-10.1706319077
 10
-5.7460823108
 20
-10.1672608554
 10
-5.7628215291
 20
-10.1634467065
  0
LWPOLYLINE
  5
312
100
AcDbEntity
  8
IMPORT_IGES
100
AcDbPolyline
 62
7
  6
CONTINUOUS
 90
10
 70
0
 10
-9.3008531258
 20
-8.9670212984
 10
-9.2687247465
 20
-8.9675670656
 10
-9.2369645782
 20
-8.9697938251
 10
-9.2055726209
 20
-8.9737015767
 10
-9.174522688
 20
-8.9793386244
 10
-9.1438409662
 20
-8.9866566644
 10
-9.1136060148
 20
-8.9955107851
 10
-9.0838440205
 20
-9.0058526827
 10
-9.0545287967
 20
-9.0177306611
 10
-9.0256603435
 20
-9.0311447203
  0
LWPOLYLINE
  5
313
100
AcDbEntity
  8
IMPORT_IGES
100
AcDbPolyline
 62
7
  6
CONTINUOUS
 90
10
 70
0
 10
-6.2321964651
 20
-9.7518095791
 10
-6.2131711721
 20
-9.7522172537
 10
-6.1942425464
 20
-9.7532226716
 10
-6.1754105882
 20
-9.7548258329
 10
-6.1566697914
 20
-9.757072863
 10
-6.1380256621
 20
-9.7599176364
 10
-6.1194947181
 20
-9.7632217765
 10
-6.1010824657
 20
-9.7669391576
 10
-6.0827833988
 20
-9.7711159054
 10
-6.0645975173
 20
-9.7757520199
  0
LWPOLYLINE
  5
314
100
AcDbEntity
  8
IMPORT_IGES
100
AcDbPolyline
 62
7
  6
CONTINUOUS
 90
13
 70
0
 10
-12.3189631849
 20
-8.9670212984
 10
-12.2788264149
 20
-8.968106829
 10
-12.2389427908
 20
-8.9709825058
 10
-12.1993123126
 20
-8.975648329
 10
-12.1596968703
 20
-8.9817843661
 10
-12.120334574
 20
-8.9897105495
 10
-12.0819397537
 20
-9.0003866761
 10
-12.0446995211
 20
-9.0141868561
 10
-12.0084267645
 20
-9.0307369792
 10
-11.9732744792
 20
-9.0498745112
 10
-11.9392936635
 20
-9.0715452739
 10
-11.906433319
 20
-9.0958034455
 10
-11.8746934459
 20
-9.1226490259
  0
LWPOLYLINE
  5
315
100
AcDbEntity
  8
IMPORT_IGES
100
AcDbPolyline
 62
7
  6
CONTINUOUS
 90
10
 70
0
 10
-10.8784318687
 20
-8.9369920216
 10
-10.8440649058
 20
-8.9379674652
 10
-10.8101141643
 20
-8.9406923844
 10
-10.776579644
 20
-8.945166779
 10
-10.7434432084
 20
-8.9514767389
 10
-10.7107229941
 20
-8.9595361744
 10
-10.6784734108
 20
-8.9690868159
 10
-10.6467125949
 20
-8.9800425736
 10
-10.61542241
 20
-8.9924895375
 10
-10.584602856
 20
-9.0064277075
  0
LWPOLYLINE
  5
316
100
AcDbEntity
  8
IMPORT_IGES
100
AcDbPolyline
 62
7
  6
CONTINUOUS
 90
13
 70
0
 10
-12.3242838308
 20
-9.1652141929
 10
-12.3001055765
 20
-9.1661179366
 10
-12.276175253
 20
-9.1681282509
 10
-12.2524928602
 20
-9.1712451357
 10
-12.2289379515
 20
-9.1752403315
 10
-12.2056309736
 20
-9.1803420978
 10
-12.1829332668
 20
-9.1872352134
 10
-12.1609904682
 20
-9.1962937892
 10
-12.1396569407
 20
-9.2071437144
 10
-12.1188571133
 20
-9.2193474348
 10
-12.0985657955
 20
-9.2327590991
 10
-12.0788081777
 20
-9.2475245585
 10
-12.05958426
 20
-9.2636438131
  0
LWPOLYLINE
  5
317
100
AcDbEntity
  8
IMPORT_IGES
100
AcDbPolyline
 62
7
  6
CONTINUOUS
 90
13
 70
0
 10
-10.8478385042
 20
-9.9452455662
 10
-10.8224948081
 20
-9.9463958453
 10
-10.7974613063
 20
-9.9487487187
 10
-10.7727379988
 20
-9.9523041863
 10
-10.7481946948
 20
-9.9568258468
 10
-10.7239615851
 20
-9.9625501014
 10
-10.7004292414
 20
-9.9701861547
 10
-10.6777613668
 20
-9.9801400467
 10
-10.6557942581
 20
-9.9920057373
 10
-10.6344273779
 20
-10.0052743108
 10
-10.6136272136
 20
-10.0197761284
 10
-10.5934272777
 20
-10.0356808289
 10
-10.5738275702
 20
-10.0529884122
  0
LWPOLYLINE
  5
318
100
AcDbEntity
  8
IMPORT_IGES
100
AcDbPolyline
 62
7
  6
CONTINUOUS
 90
13
 70
0
 10
-10.8731113392
 20
-9.1338549874
 10
-10.8520480032
 20
-9.1348205953
 10
-10.8312234172
 20
-9.1367606043
 10
-10.8106375811
 20
-9.1396750143
 10
-10.7901893229
 20
-9.1433804746
 10
-10.7699798146
 20
-9.148060336
 10
-10.7503125726
 20
-9.1542646509
 10
-10.7313127361
 20
-9.1623109217
 10
-10.7128551658
 20
-9.1718816461
 10
-10.6948679596
 20
-9.1825743692
 10
-10.6773271501
 20
-9.1942549396
 10
-10.6602567047
 20
-9.2070575089
 10
-10.6436566235
 20
-9.2209820769
  0
LWPOLYLINE
  5
319
100
AcDbEntity
  8
IMPORT_IGES
100
AcDbPolyline
 62
7
  6
CONTINUOUS
 90
13
 70
0
 10
-9.303512983
 20
-9.1652141929
 10
-9.274890481
 20
-9.1669117716
 10
-9.2470464097
 20
-9.1707998284
 10
-9.2199807692
 20
-9.1768783634
 10
-9.1934936257
 20
-9.1851051384
 10
-9.1677849131
 20
-9.1955223916
 10
-9.1434544321
 20
-9.2082568372
 10
-9.1208176261
 20
-9.2237157656
 10
-9.0995590518
 20
-9.2414918864
 10
-9.0793321807
 20
-9.260490043
 10
-9.0600215035
 20
-9.2803451829
 10
-9.0417425296
 20
-9.3014223585
 10
-9.0244952589
 20
-9.3237215698
  0
LINE
  5
31A
100
AcDbEntity
  8
IMPORT_IGES
100
AcDbLine
 62
7
  6
CONTINUOUS
 10
-12.7060366795
 20
-9.5562757075
 11
-12.9521144554
 21
-9.5310033381
  0
LWPOLYLINE
  5
31B
100
AcDbEntity
  8
IMPORT_IGES
100
AcDbPolyline
 62
7
  6
CONTINUOUS
 90
10
 70
0
 10
-5.6775240228
 20
-9.9180767357
 10
-5.6674199785
 20
-9.9205842032
 10
-5.6572504506
 20
-9.922787056
 10
-5.6470154393
 20
-9.9246852942
 10
-5.6367081677
 20
-9.9262651399
 10
-5.6263354127
 20
-9.927540371
 10
-5.615917504
 20
-9.9285523211
 10
-5.6054612182
 20
-9.929314768
 10
-5.5949597788
 20
-9.9298139339
 10
-5.5844131857
 20
-9.9300498187
  0
LINE
  5
31C
100
AcDbEntity
  8
IMPORT_IGES
100
AcDbLine
 62
7
  6
CONTINUOUS
 10
3.0559414496
 20
-15.9919710042
 11
2.8881160359
 21
-15.8660571924
  0
LINE
  5
31D
100
AcDbEntity
  8
IMPORT_IGES
100
AcDbLine
 62
7
  6
CONTINUOUS
 10
7.0559414496
 20
-15.9919710042
 11
6.8881160359
 21
-15.8660571924
  0
LINE
  5
31E
100
AcDbEntity
  8
IMPORT_IGES
100
AcDbLine
 62
7
  6
CONTINUOUS
 10
8.9440585504
 20
-28.3801051454
 11
9.1118839641
 21
-28.5897910398
  0
LWPOLYLINE
  5
31F
100
AcDbEntity
  8
IMPORT_IGES
100
AcDbPolyline
 62
7
  6
CONTINUOUS
 90
10
 70
0
 10
-8.2433829084
 20
-8.9750000357
 10
-7.7241183798
 20
-10.4267968127
 10
-7.7119319954
 20
-10.4620622073
 10
-7.7000357288
 20
-10.4974049105
 10
-7.6884508636
 20
-10.5328335364
 10
-7.6771561162
 20
-10.5683394711
 10
-7.6660876354
 20
-10.6038968728
 10
-7.6552241375
 20
-10.6394971277
 10
-7.6445869061
 20
-10.6751488497
 10
-7.6341759413
 20
-10.7108520388
  0
LWPOLYLINE
  5
320
100
AcDbEntity
  8
IMPORT_IGES
100
AcDbPolyline
 62
7
  6
CONTINUOUS
 90
8
 70
0
 10
-23.2934535197
 20
43.4920414711
 10
-23.2882542028
 20
43.4743626278
 10
-23.283110429
 20
43.4469497617
 10
-23.2780221984
 20
43.4098028728
 10
-23.2729769823
 20
43.3627772843
 10
-23.2679873093
 20
43.306017673
 10
-23.2630907651
 20
43.2399580695
 10
-23.2582880512
 20
43.1645298398
  0
LWPOLYLINE
  5
321
100
AcDbEntity
  8
IMPORT_IGES
100
AcDbPolyline
 62
7
  6
CONTINUOUS
 90
10
 70
0
 10
-8.7089361623
 20
-9.5030719459
 10
-8.6978369407
 20
-9.5541863865
 10
-8.68844562
 20
-9.6053447067
 10
-8.6807622001
 20
-9.6565469065
 10
-8.6749898858
 20
-9.7078440904
 10
-8.6709254724
 20
-9.759185154
 10
-8.6679593453
 20
-9.810416784
 10
-8.6658882995
 20
-9.8614878762
 10
-8.66491554
 20
-9.9124495348
 10
-8.6650410667
 20
-9.9633017599
  0
LWPOLYLINE
  5
322
100
AcDbEntity
  8
IMPORT_IGES
100
AcDbPolyline
 62
253
  6
CONTINUOUS
 90
22
 70
0
 10
-7.2289348186
 20
16.2564387555
 10
-7.2180629576
 20
16.112647383
 10
-7.1991941855
 20
15.9706822577
 10
-7.1723285023
 20
15.8305433797
 10
-7.1373091468
 20
15.691778096
 10
-7.0942928802
 20
15.5548390596
 10
-7.0437499864
 20
15.4210842295
 10
-6.985623496
 20
15.2905722263
 10
-6.9199703784
 20
15.1632444295
 10
-6.8474318261
 20
15.0402829366
 10
-6.7679517308
 20
14.921725002
 10
-6.6815862007
 20
14.8075333713
 10
-6.589144753
 20
14.6987783798
 10
-6.4905762652
 20
14.5955038742
 10
-6.3859318598
 20
14.4976660078
 10
-6.2761744204
 20
14.4062035763
 10
-6.1612601958
 20
14.3211676079
 10
-6.0412329373
 20
14.2425070745
 10
-5.9171867825
 20
14.1710076871
 10
-5.789486444
 20
14.1069313496
 10
-5.6577672092
 20
14.0500161582
 10
-5.5220290781
 20
14.0002621129
  0
LWPOLYLINE
  5
323
100
AcDbEntity
  8
IMPORT_IGES
100
AcDbPolyline
 62
253
  6
CONTINUOUS
 90
40
 70
0
 10
-6.5884365121
 20
16.3878981129
 10
-6.584708594
 20
16.329372401
 10
-6.5790445193
 20
16.2704291596
 10
-6.5714134656
 20
16.2111163738
 10
-6.5617726772
 20
16.1514101264
 10
-6.5501025878
 20
16.0914395103
 10
-6.5364306838
 20
16.031481856
 10
-6.5207536224
 20
15.9715936552
 10
-6.503067986
 20
15.9118283401
 10
-6.4834442783
 20
15.8524513458
 10
-6.4619076533
 20
15.7935319694
 10
-6.4384723651
 20
15.7351073232
 10
-6.4132279803
 20
15.6773845449
 10
-6.3862206302
 20
15.620436092
 10
-6.35747504
 20
15.5642873956
 10
-6.3270705946
 20
15.5090660214
 10
-6.2950665218
 20
15.454845857
 10
-6.2614888209
 20
15.4016426563
 10
-6.2263732524
 20
15.3494931827
 10
-6.189774955
 20
15.2984623616
 10
-6.1517206092
 20
15.2485742097
 10
-6.1121963473
 20
15.199808721
 10
-6.071210986
 20
15.1521864024
 10
-6.0288225245
 20
15.1057866654
 10
-5.9850871162
 20
15.060680704
 10
-5.9400290139
 20
15.0169046247
 10
-5.8936961861
 20
14.9745182777
 10
-5.8461872169
 20
14.9336211393
 10
-5.7975375458
 20
14.8942506158
 10
-5.7477932547
 20
14.8564528741
 10
-5.6970789098
 20
14.8203269472
 10
-5.6454271394
 20
14.7858973191
 10
-5.5928949446
 20
14.7532049454
 10
-5.539655316
 20
14.7223529695
 10
-5.4857430828
 20
14.6933514459
 10
-5.4312220473
 20
14.6662259764
 10
-5.3763227981
 20
14.6410721748
 10
-5.3211616913
 20
14.6179113142
 10
-5.2657312632
 20
14.5967093179
 10
-5.2100821998
 20
14.5774589971
  0
LWPOLYLINE
  5
324
100
AcDbEntity
  8
IMPORT_IGES
100
AcDbPolyline
 62
7
  6
CONTINUOUS
 90
10
 70
0
 10
-3.6592429969
 20
-5.0383040726
 10
-3.6594839586
 20
-4.9756610949
 10
-3.6577223115
 20
-4.9132138863
 10
-3.6539580558
 20
-4.8509624467
 10
-3.6482124075
 20
-4.788879524
 10
-3.6404641506
 20
-4.7269923703
 10
-3.6306496367
 20
-4.6653827425
 10
-3.6187476497
 20
-4.6040778926
 10
-3.6047794058
 20
-4.5430505685
 10
-3.5887449048
 20
-4.4823007703
  0
LINE
  5
325
100
AcDbEntity
  8
IMPORT_IGES
100
AcDbLine
 62
7
  6
CONTINUOUS
 10
-7.0559414496
 20
-45.8801051454
 11
-7.0559414496
 21
-33.4919710042
  0
LINE
  5
326
100
AcDbEntity
  8
IMPORT_IGES
100
AcDbLine
 62
7
  6
CONTINUOUS
 10
-7.0559414496
 20
-28.3801051454
 11
-7.0559414496
 21
-15.9919710042
  0
LINE
  5
327
100
AcDbEntity
  8
IMPORT_IGES
100
AcDbLine
 62
7
  6
CONTINUOUS
 10
-7.0
 20
-45.95
 11
-7.0
 21
-33.45
  0
LINE
  5
328
100
AcDbEntity
  8
IMPORT_IGES
100
AcDbLine
 62
7
  6
CONTINUOUS
 10
-7.0
 20
-28.45
 11
-7.0
 21
-15.95
  0
LINE
  5
329
100
AcDbEntity
  8
IMPORT_IGES
100
AcDbLine
 62
7
  6
CONTINUOUS
 10
-6.8881160359
 20
-15.8660571924
 11
-6.8881160359
 21
-28.5897910398
  0
LINE
  5
32A
100
AcDbEntity
  8
IMPORT_IGES
100
AcDbLine
 62
7
  6
CONTINUOUS
 10
-6.8881160359
 20
-33.3660571924
 11
-6.8881160359
 21
-46.0897910398
  0
LINE
  5
32B
100
AcDbEntity
  8
IMPORT_IGES
100
AcDbLine
 62
7
  6
CONTINUOUS
 10
-6.6019780934
 20
-10.184106332
 11
-6.6019780934
 21
-9.9114262581
  0
LINE
  5
32C
100
AcDbEntity
  8
IMPORT_IGES
100
AcDbLine
 62
7
  6
CONTINUOUS
 10
-5.2412347868
 20
-9.7478189587
 11
-5.2412347868
 21
-10.0298085332
  0
LINE
  5
32D
100
AcDbEntity
  8
IMPORT_IGES
100
AcDbLine
 62
7
  6
CONTINUOUS
 10
-5.1118839641
 20
-46.0897910398
 11
-5.1118839641
 21
-33.3660571924
  0
LINE
  5
32E
100
AcDbEntity
  8
IMPORT_IGES
100
AcDbLine
 62
7
  6
CONTINUOUS
 10
-5.1118839641
 20
-28.5897910398
 11
-5.1118839641
 21
-15.8660571924
  0
LINE
  5
32F
100
AcDbEntity
  8
IMPORT_IGES
100
AcDbLine
 62
7
  6
CONTINUOUS
 10
-5.0
 20
-15.95
 11
-5.0
 21
-28.45
  0
LINE
  5
330
100
AcDbEntity
  8
IMPORT_IGES
100
AcDbLine
 62
7
  6
CONTINUOUS
 10
-5.0
 20
-33.45
 11
-5.0
 21
-45.95
  0
LINE
  5
331
100
AcDbEntity
  8
IMPORT_IGES
100
AcDbLine
 62
7
  6
CONTINUOUS
 10
-4.9440585504
 20
-15.9919710042
 11
-4.9440585504
 21
-28.3801051454
  0
LINE
  5
332
100
AcDbEntity
  8
IMPORT_IGES
100
AcDbLine
 62
7
  6
CONTINUOUS
 10
-4.9440585504
 20
-33.4919710042
 11
-4.9440585504
 21
-45.8801051454
  0
LWPOLYLINE
  5
333
100
AcDbEntity
  8
IMPORT_IGES
100
AcDbPolyline
 62
7
  6
CONTINUOUS
 90
9
 70
0
 10
-7.6341759413
 20
-10.7108520388
 10
-7.6239290564
 20
-10.6747642539
 10
-7.6133001985
 20
-10.6388365911
 10
-7.6022893679
 20
-10.6030690502
 10
-7.5908636015
 20
-10.5674695542
 10
-7.5790558623
 20
-10.5320301801
 10
-7.566965039
 20
-10.4967271598
 10
-7.5546240943
 20
-10.4615525703
 10
-7.5420000656
 20
-10.4265143344
  0
LWPOLYLINE
  5
334
100
AcDbEntity
  8
IMPORT_IGES
100
AcDbPolyline
 62
7
  6
CONTINUOUS
 90
10
 70
0
 10
-8.7361373007
 20
-10.5177776933
 10
-8.7507797473
 20
-10.559641661
 10
-8.7676713638
 20
-10.6001198191
 10
-8.7868121505
 20
-10.6392121675
 10
-8.8082708828
 20
-10.6769483628
 10
-8.8319787851
 20
-10.7132987484
 10
-8.857729531
 20
-10.7481743547
 10
-8.885454345
 20
-10.7815455254
 10
-8.9152220026
 20
-10.8134419168
 10
-8.9470325038
 20
-10.843863529
  0
LWPOLYLINE
  5
335
100
AcDbEntity
  8
IMPORT_IGES
100
AcDbPolyline
 62
7
  6
CONTINUOUS
 90
10
 70
0
 10
-9.8661668599
 20
-9.4073021829
 10
-9.8513992553
 20
-9.3654961016
 10
-9.8343909756
 20
-9.325076322
 10
-9.8151420207
 20
-9.2860428442
 10
-9.7935875088
 20
-9.2483640253
 10
-9.7697923217
 20
-9.212071508
 10
-9.7439511049
 20
-9.1772602209
 10
-9.7161287403
 20
-9.1439618066
 10
-9.6862603461
 20
-9.1121446225
 10
-9.6543459222
 20
-9.0818086684
  0
LINE
  5
336
100
AcDbEntity
  8
IMPORT_IGES
100
AcDbLine
 62
7
  6
CONTINUOUS
 10
-7.0023532026
 20
-8.9750000357
 11
-7.5420000656
 21
-10.4265143344
  0
LWPOLYLINE
  5
337
100
AcDbEntity
  8
IMPORT_IGES
100
AcDbPolyline
 62
7
  6
CONTINUOUS
 90
10
 70
0
 10
-11.7587307468
 20
-9.7386108756
 10
-11.7725009645
 20
-9.7680250527
 10
-11.7873544643
 20
-9.7966708768
 10
-11.8032912462
 20
-9.8245483478
 10
-11.820437345
 20
-9.851612094
 10
-11.8386667259
 20
-9.8779074871
 10
-11.8576012844
 20
-9.9035706423
 10
-11.8771149859
 20
-9.9286469311
 10
-11.8973338651
 20
-9.953090982
 10
-11.9182579219
 20
-9.9769027948
  0
LWPOLYLINE
  5
338
100
AcDbEntity
  8
IMPORT_IGES
100
AcDbPolyline
 62
7
  6
CONTINUOUS
 90
10
 70
0
 10
8.9746322483
 20
-4.4087738812
 10
8.9531482336
 20
-4.4146194785
 10
8.9316925377
 20
-4.420595177
 10
8.9102651605
 20
-4.4267009767
 10
8.8888630868
 20
-4.4329292177
 10
8.8674893319
 20
-4.43928756
 10
8.8461529413
 20
-4.4457989834
 10
8.8248569302
 20
-4.452471148
 10
8.8035982834
 20
-4.4592963939
 10
8.7823770009
 20
-4.4662747209
  0
LWPOLYLINE
  5
339
100
AcDbEntity
  8
IMPORT_IGES
100
AcDbPolyline
 62
7
  6
CONTINUOUS
 90
10
 70
0
 10
9.0387184173
 20
-4.3923983395
 10
9.1129999961
 20
-4.3751480676
 10
9.187423817
 20
-4.3596917969
 10
9.2619898802
 20
-4.3460295274
 10
9.3367262448
 20
-4.334240954
 10
9.4116048517
 20
-4.3242463817
 10
9.4865415226
 20
-4.3158067259
 10
9.5615081981
 20
-4.3088422915
 10
9.6365329377
 20
-4.3034327735
 10
9.7116157413
 20
-4.299578172
  0
LWPOLYLINE
  5
33A
100
AcDbEntity
  8
IMPORT_IGES
100
AcDbPolyline
 62
7
  6
CONTINUOUS
 90
10
 70
0
 10
9.0387184173
 20
-4.3264569759
 10
9.1129178591
 20
-4.3095808848
 10
9.1872790536
 20
-4.2944547419
 10
9.2618020009
 20
-4.2810785471
 10
9.3365133953
 20
-4.2695304847
 10
9.4113865424
 20
-4.2597323706
 10
9.4863413589
 20
-4.2514496513
 10
9.5613511503
 20
-4.2446041426
 10
9.6364426111
 20
-4.2392740287
 10
9.7116157413
 20
-4.2354593098
  0
LINE
  5
33B
100
AcDbEntity
  8
IMPORT_IGES
100
AcDbLine
 62
7
  6
CONTINUOUS
 10
0.8872098406
 20
-5.4852337658
 11
1.1266371002
 21
-5.453308028
  0
LINE
  5
33C
100
AcDbEntity
  8
IMPORT_IGES
100
AcDbLine
 62
7
  6
CONTINUOUS
 10
-0.6278307992
 20
-5.4852337658
 11
-0.3884038306
 21
-5.453308028
  0
LWPOLYLINE
  5
33D
100
AcDbEntity
  8
IMPORT_IGES
100
AcDbPolyline
 62
7
  6
CONTINUOUS
 90
10
 70
0
 10
1.5283423709
 20
-5.0502734303
 10
1.5090685077
 20
-5.0510925013
 10
1.4899214356
 20
-5.0525022843
 10
1.4709011546
 20
-5.0545027795
 10
1.4520087363
 20
-5.0571693872
 10
1.4332431091
 20
-5.0604267071
 10
1.4146010579
 20
-5.0640485378
 10
1.396081511
 20
-5.0679594789
 10
1.37768554
 20
-5.072234931
 10
1.3594131451
 20
-5.0768748939
  0
LWPOLYLINE
  5
33E
100
AcDbEntity
  8
IMPORT_IGES
100
AcDbPolyline
 62
7
  6
CONTINUOUS
 90
10
 70
0
 10
0.0133015101
 20
-5.0502734303
 10
-0.0059723508
 20
-5.0510924986
 10
-0.0251194212
 20
-5.0525022791
 10
-0.0441397012
 20
-5.0545027718
 10
-0.0630321192
 20
-5.0571693762
 10
-0.0817977468
 20
-5.0604266929
 10
-0.1004397984
 20
-5.0640485228
 10
-0.1189593458
 20
-5.0679594665
 10
-0.1373553173
 20
-5.0722349235
 10
-0.155627713
 20
-5.0768748939
  0
LWPOLYLINE
  5
33F
100
AcDbEntity
  8
IMPORT_IGES
100
AcDbPolyline
 62
7
  6
CONTINUOUS
 90
13
 70
0
 10
1.4977490064
 20
-4.0420198858
 10
1.4625393118
 20
-4.0434484803
 10
1.4276647135
 20
-4.0463590368
 10
1.3931252114
 20
-4.0507515552
 10
1.3587602265
 20
-4.0563708057
 10
1.3247303379
 20
-4.0634720181
 10
1.2915172825
 20
-4.0728208821
 10
1.2592698154
 20
-4.0847693327
 10
1.2278391815
 20
-4.098965435
 10
1.1972608521
 20
-4.1151190744
 10
1.1675466511
 20
-4.1331335462
 10
1.1386847546
 20
-4.1531055551
 10
1.1106751626
 20
-4.1750351012
  0
LWPOLYLINE
  5
340
100
AcDbEntity
  8
IMPORT_IGES
100
AcDbPolyline
 62
7
  6
CONTINUOUS
 90
13
 70
0
 10
-0.0172921318
 20
-4.0420198858
 10
-0.0525018119
 20
-4.0434484743
 10
-0.0873763935
 20
-4.0463590274
 10
-0.1219158768
 20
-4.050751545
 10
-0.1562808402
 20
-4.0563707978
 10
-0.1903107052
 20
-4.063472015
 10
-0.2235237362
 20
-4.0728208849
 10
-0.2557711779
 20
-4.0847693436
 10
-0.2872017856
 20
-4.0989654549
 10
-0.3177800896
 20
-4.1151190984
 10
-0.3474942668
 20
-4.1331335672
 10
-0.3763561402
 20
-4.1531055681
 10
-0.40436571
 20
-4.1750351012
  0
LWPOLYLINE
  5
341
100
AcDbEntity
  8
IMPORT_IGES
100
AcDbPolyline
 62
7
  6
CONTINUOUS
 90
10
 70
0
 10
1.4245907078
 20
-4.8693733334
 10
1.4575371983
 20
-4.8682779847
 10
1.4899007826
 20
-4.8651605771
 10
1.5216814607
 20
-4.8600211106
 10
1.5528936734
 20
-4.8527655151
 10
1.58352298
 20
-4.8434878607
 10
1.6135260578
 20
-4.8324703576
 10
1.6428884659
 20
-4.8198070757
 10
1.6716246452
 20
-4.805403945
 10
1.6997345956
 20
-4.7892609656
  0
LWPOLYLINE
  5
342
100
AcDbEntity
  8
IMPORT_IGES
100
AcDbPolyline
 62
7
  6
CONTINUOUS
 90
10
 70
0
 10
-0.0904501794
 20
-4.8693733334
 10
-0.0575037
 20
-4.8682779801
 10
-0.025140127
 20
-4.8651605689
 10
0.0066405398
 20
-4.8600210997
 10
0.037852741
 20
-4.8527655023
 10
0.0684820359
 20
-4.843487847
 10
0.0984851021
 20
-4.8324703446
 10
0.1278474989
 20
-4.8198070654
 10
0.1565836671
 20
-4.805403939
 10
0.1846936066
 20
-4.7892609656
  0
LWPOLYLINE
  5
343
100
AcDbEntity
  8
IMPORT_IGES
100
AcDbPolyline
 62
7
  6
CONTINUOUS
 90
13
 70
0
 10
3.0487040058
 20
-4.0420198858
 10
3.0089437412
 20
-4.0432849616
 10
2.9694175647
 20
-4.0461020571
 10
2.9301254764
 20
-4.0504711723
 10
2.8908544835
 20
-4.0560552505
 10
2.8518175787
 20
-4.0631913484
 10
2.81365374
 20
-4.072890636
 10
2.776531744
 20
-4.0854997646
 10
2.740282814
 20
-4.1006720828
 10
2.705039598
 20
-4.1183788072
 10
2.6708463121
 20
-4.1386103431
 10
2.6376587402
 20
-4.1613762852
 10
2.6054768823
 20
-4.1866766333
  0
LWPOLYLINE
  5
344
100
AcDbEntity
  8
IMPORT_IGES
100
AcDbPolyline
 62
7
  6
CONTINUOUS
 90
10
 70
0
 10
9.7757009789
 20
-4.2980218351
 10
9.8589383576
 20
-4.2978934475
 10
9.9418471745
 20
-4.299882874
 10
10.0244274296
 20
-4.3039901143
 10
10.1066912176
 20
-4.3103164301
 10
10.1886264437
 20
-4.3187605599
 10
10.2701968244
 20
-4.3290187191
 10
10.3513902649
 20
-4.3409896462
 10
10.4322188598
 20
-4.3547746028
 10
10.5126826093
 20
-4.3703735888
  0
LINE
  5
345
100
AcDbEntity
  8
IMPORT_IGES
100
AcDbLine
 62
7
  6
CONTINUOUS
 10
10.704940185
 20
-6.2522784889
 11
9.5834443346
 21
-6.2522784889
  0
LINE
  5
346
100
AcDbEntity
  8
IMPORT_IGES
100
AcDbLine
 62
7
  6
CONTINUOUS
 10
10.640854016
 20
-6.1881923199
 11
9.6475295722
 21
-6.1881923199
  0
LINE
  5
347
100
AcDbEntity
  8
IMPORT_IGES
100
AcDbLine
 62
7
  6
CONTINUOUS
 10
3.6592425313
 20
-6.0000018298
 11
2.3703274783
 21
-6.0000018298
  0
LINE
  5
348
100
AcDbEntity
  8
IMPORT_IGES
100
AcDbLine
 62
7
  6
CONTINUOUS
 10
9.6475295722
 20
-5.9959375381
 11
10.640854016
 21
-5.9959375381
  0
LINE
  5
349
100
AcDbEntity
  8
IMPORT_IGES
100
AcDbLine
 62
7
  6
CONTINUOUS
 10
11.890521273
 20
-5.9318513691
 11
11.3171627745
 21
-5.9318513691
  0
LINE
  5
34A
100
AcDbEntity
  8
IMPORT_IGES
100
AcDbLine
 62
7
  6
CONTINUOUS
 10
9.5834443346
 20
-5.9318513691
 11
10.704940185
 21
-5.9318513691
  0
LINE
  5
34B
100
AcDbEntity
  8
IMPORT_IGES
100
AcDbLine
 62
7
  6
CONTINUOUS
 10
11.826435104
 20
-5.8677652001
 11
11.322866194
 21
-5.8677652001
  0
LINE
  5
34C
100
AcDbEntity
  8
IMPORT_IGES
100
AcDbLine
 62
7
  6
CONTINUOUS
 10
2.7028648183
 20
-5.7698831975
 11
3.6592425313
 21
-5.7698831975
  0
LINE
  5
34D
100
AcDbEntity
  8
IMPORT_IGES
100
AcDbLine
 62
7
  6
CONTINUOUS
 10
11.1855808646
 20
-5.2909971297
 11
11.3089000806
 21
-5.2909971297
  0
LINE
  5
34E
100
AcDbEntity
  8
IMPORT_IGES
100
AcDbLine
 62
7
  6
CONTINUOUS
 10
11.3732311875
 20
-5.2909971297
 11
11.7183737457
 21
-5.2909971297
  0
LINE
  5
34F
100
AcDbEntity
  8
IMPORT_IGES
100
AcDbLine
 62
7
  6
CONTINUOUS
 10
11.3145057112
 20
-5.2269109607
 11
11.1214946955
 21
-5.2269109607
  0
LINE
  5
350
100
AcDbEntity
  8
IMPORT_IGES
100
AcDbLine
 62
7
  6
CONTINUOUS
 10
11.378836818
 20
-5.2269109607
 11
11.7824599147
 21
-5.2269109607
  0
LINE
  5
351
100
AcDbEntity
  8
IMPORT_IGES
100
AcDbLine
 62
7
  6
CONTINUOUS
 10
11.6021363065
 20
-4.9705700099
 11
11.401263997
 21
-4.9705700099
  0
LINE
  5
352
100
AcDbEntity
  8
IMPORT_IGES
100
AcDbLine
 62
7
  6
CONTINUOUS
 10
8.5720643401
 20
-4.9705700099
 11
8.0453939736
 21
-4.9705700099
  0
LINE
  5
353
100
AcDbEntity
  8
IMPORT_IGES
100
AcDbLine
 62
7
  6
CONTINUOUS
 10
8.6363935843
 20
-4.9705700099
 11
11.3369338214
 21
-4.9705700099
  0
LINE
  5
354
100
AcDbEntity
  8
IMPORT_IGES
100
AcDbLine
 62
7
  6
CONTINUOUS
 10
11.1607490107
 20
-4.7142290592
 11
9.0387184173
 21
-4.7142290592
  0
LINE
  5
355
100
AcDbEntity
  8
IMPORT_IGES
100
AcDbLine
 62
7
  6
CONTINUOUS
 10
8.7182912976
 20
-4.7142290592
 11
8.613968268
 21
-4.7142290592
  0
LINE
  5
356
100
AcDbEntity
  8
IMPORT_IGES
100
AcDbLine
 62
7
  6
CONTINUOUS
 10
8.0453939736
 20
-4.7142290592
 11
8.5496371612
 21
-4.7142290592
  0
LINE
  5
357
100
AcDbEntity
  8
IMPORT_IGES
100
AcDbLine
 62
7
  6
CONTINUOUS
 10
8.9746322483
 20
-4.6501428902
 11
8.7823766905
 21
-4.6501428902
  0
LINE
  5
358
100
AcDbEntity
  8
IMPORT_IGES
100
AcDbLine
 62
7
  6
CONTINUOUS
 10
9.7116157413
 20
-4.4578843832
 11
10.5767687783
 21
-4.4578843832
  0
LINE
  5
359
100
AcDbEntity
  8
IMPORT_IGES
100
AcDbLine
 62
7
  6
CONTINUOUS
 10
10.5126826093
 20
-4.3938019395
 11
9.7757009789
 21
-4.3938019395
  0
LINE
  5
35A
100
AcDbEntity
  8
IMPORT_IGES
100
AcDbLine
 62
7
  6
CONTINUOUS
 10
8.7823765352
 20
-4.2335883796
 11
8.9746322483
 21
-4.2335883796
  0
LINE
  5
35B
100
AcDbEntity
  8
IMPORT_IGES
100
AcDbLine
 62
7
  6
CONTINUOUS
 10
8.7182912976
 20
-4.1695022106
 11
9.0387184173
 21
-4.1695022106
  0
LINE
  5
35C
100
AcDbEntity
  8
IMPORT_IGES
100
AcDbLine
 62
7
  6
CONTINUOUS
 10
9.7757009789
 20
-4.1374572635
 11
10.5126826093
 21
-4.1374572635
  0
LINE
  5
35D
100
AcDbEntity
  8
IMPORT_IGES
100
AcDbLine
 62
7
  6
CONTINUOUS
 10
9.7116157413
 20
-4.0733710945
 11
10.5767687783
 21
-4.0733710945
  0
LWPOLYLINE
  5
35E
100
AcDbEntity
  8
IMPORT_IGES
100
AcDbPolyline
 62
7
  6
CONTINUOUS
 90
10
 70
0
 10
-3.0234311707
 20
-4.0420198858
 10
-2.9913023445
 20
-4.0425662326
 10
-2.9595418794
 20
-4.0447936573
 10
-2.9281497755
 20
-4.0487021598
 10
-2.8970998803
 20
-4.0543402134
 10
-2.8664183463
 20
-4.0616593449
 10
-2.8361836309
 20
-4.0705141345
 10
-2.8064218867
 20
-4.0808561091
 10
-2.7771069611
 20
-4.0927337419
 10
-2.7482388541
 20
-4.106147033
  0
LWPOLYLINE
  5
35F
100
AcDbEntity
  8
IMPORT_IGES
100
AcDbPolyline
 62
7
  6
CONTINUOUS
 90
10
 70
0
 10
-1.5083902981
 20
-4.0420198858
 10
-1.4762614719
 20
-4.0425662326
 10
-1.4445010068
 20
-4.0447936573
 10
-1.4131089029
 20
-4.0487021598
 10
-1.3820590077
 20
-4.0543402134
 10
-1.3513774737
 20
-4.0616593449
 10
-1.3211427583
 20
-4.0705141345
 10
-1.2913810141
 20
-4.0808561091
 10
-1.2620660885
 20
-4.0927337419
 10
-1.2331979815
 20
-4.106147033
  0
LWPOLYLINE
  5
360
100
AcDbEntity
  8
IMPORT_IGES
100
AcDbPolyline
 62
7
  6
CONTINUOUS
 90
13
 70
0
 10
3.0487040058
 20
-4.0420198858
 10
3.0888401435
 20
-4.0431068393
 10
3.1287232839
 20
-4.0459834844
 10
3.168353427
 20
-4.0506498211
 10
3.2079687108
 20
-4.0567858053
 10
3.2473309974
 20
-4.0647114811
 10
3.2857258726
 20
-4.0753869806
 10
3.3229661779
 20
-4.0891863824
 10
3.3592390719
 20
-4.1057356079
 10
3.3943916159
 20
-4.1248725541
 10
3.4283728306
 20
-4.1465431865
 10
3.4612336955
 20
-4.1708015396
 10
3.4929742105
 20
-4.1976476133
  0
LWPOLYLINE
  5
361
100
AcDbEntity
  8
IMPORT_IGES
100
AcDbPolyline
 62
7
  6
CONTINUOUS
 90
13
 70
0
 10
-3.0234311707
 20
-6.0332546055
 10
-3.0667981829
 20
-6.0320758407
 10
-3.109202605
 20
-6.028180635
 10
-3.150644437
 20
-6.0215689885
 10
-3.1913077406
 20
-6.01243545
 10
-3.231008454
 20
-6.0005854706
 10
-3.2691943923
 20
-5.9854354038
 10
-3.3056271821
 20
-5.9665168676
 10
-3.3405451967
 20
-5.944298244
 10
-3.3741113711
 20
-5.9196010311
 10
-3.406380017
 20
-5.8926990617
 10
-3.4372968227
 20
-5.8633185032
 10
-3.4668617882
 20
-5.8314593553
  0
LWPOLYLINE
  5
362
100
AcDbEntity
  8
IMPORT_IGES
100
AcDbPolyline
 62
7
  6
CONTINUOUS
 90
13
 70
0
 10
-1.5083902981
 20
-6.0332546055
 10
-1.5517572897
 20
-6.0320758411
 10
-1.5941616954
 20
-6.0281806404
 10
-1.6356035152
 20
-6.0215690032
 10
-1.6762668122
 20
-6.0124354815
 10
-1.7159675234
 20
-6.0005855234
 10
-1.7541534592
 20
-5.9854354733
 10
-1.790586246
 20
-5.9665169486
 10
-1.8255042575
 20
-5.9442983319
 10
-1.8590704254
 20
-5.919601115
 10
-1.8913390603
 20
-5.8926991286
 10
-1.9222558515
 20
-5.8633185421
 10
-1.9518207991
 20
-5.8314593553
  0
LWPOLYLINE
  5
363
100
AcDbEntity
  8
IMPORT_IGES
100
AcDbPolyline
 62
7
  6
CONTINUOUS
 90
10
 70
0
 10
-0.0172921318
 20
-4.0420198858
 10
0.0170748368
 20
-4.0429953311
 10
0.0510255844
 20
-4.0457202514
 10
0.0845601111
 20
-4.0501946466
 10
0.1176965533
 20
-4.0565046064
 10
0.1504167745
 20
-4.0645640411
 10
0.182666365
 20
-4.0741146818
 10
0.2144271883
 20
-4.085070439
 10
0.2457173808
 20
-4.0975174023
 10
0.2765369427
 20
-4.1114555716
  0
LWPOLYLINE
  5
364
100
AcDbEntity
  8
IMPORT_IGES
100
AcDbPolyline
 62
7
  6
CONTINUOUS
 90
10
 70
0
 10
1.4977490064
 20
-4.0420198858
 10
1.5321159692
 20
-4.0429953294
 10
1.5660667108
 20
-4.0457202485
 10
1.599601231
 20
-4.0501946432
 10
1.6327376666
 20
-4.0565046031
 10
1.6654578809
 20
-4.0645640385
 10
1.6977074643
 20
-4.07411468
 10
1.7294682801
 20
-4.0850704378
 10
1.760758465
 20
-4.0975174017
 10
1.791578019
 20
-4.1114555716
  0
LWPOLYLINE
  5
365
100
AcDbEntity
  8
IMPORT_IGES
100
AcDbPolyline
 62
7
  6
CONTINUOUS
 90
13
 70
0
 10
3.0433835927
 20
-4.2402127802
 10
3.0675618274
 20
-4.241116576
 10
3.0914921339
 20
-4.2431269339
 10
3.1151745124
 20
-4.246243854
 10
3.1387294088
 20
-4.2502390784
 10
3.1620363771
 20
-4.2553408649
 10
3.1847340794
 20
-4.2622339875
 10
3.2066768795
 20
-4.2712925532
 10
3.2280104135
 20
-4.2821424549
 10
3.2488102518
 20
-4.2943461453
 10
3.2691015847
 20
-4.3077577751
 10
3.288859222
 20
-4.3225231935
 10
3.3080831636
 20
-4.3386424005
  0
LWPOLYLINE
  5
366
100
AcDbEntity
  8
IMPORT_IGES
100
AcDbPolyline
 62
7
  6
CONTINUOUS
 90
13
 70
0
 10
-0.0066509392
 20
-5.8363916397
 10
-0.0288251912
 20
-5.8354833832
 10
-0.0507441965
 20
-5.8335556721
 10
-0.0724079552
 20
-5.8306085062
 10
-0.0939138029
 20
-5.8268256713
 10
-0.1151644039
 20
-5.8220233817
 10
-0.1358677518
 20
-5.8156502805
 10
-0.1558995995
 20
-5.8073763006
 10
-0.175384194
 20
-5.7975315091
 10
-0.1944022706
 20
-5.7865547508
 10
-0.212980741
 20
-5.7745923073
 10
-0.2310926935
 20
-5.761497897
 10
-0.248738128
 20
-5.7472715199
  0
LWPOLYLINE
  5
367
100
AcDbEntity
  8
IMPORT_IGES
100
AcDbPolyline
 62
7
  6
CONTINUOUS
 90
13
 70
0
 10
1.5083899489
 20
-5.8363916397
 10
1.4862157011
 20
-5.8354833943
 10
1.464296701
 20
-5.8335556922
 10
1.4426329487
 20
-5.8306085333
 10
1.4211271084
 20
-5.8268257034
 10
1.3998765159
 20
-5.8220234167
 10
1.379173178
 20
-5.8156503158
 10
1.3591413421
 20
-5.8073763327
 10
1.3396567608
 20
-5.7975315354
 10
1.3206386986
 20
-5.7865547707
 10
1.3020602434
 20
-5.7745923211
 10
1.2839483073
 20
-5.7614979041
 10
1.2663028901
 20
-5.7472715199
  0
LWPOLYLINE
  5
368
100
AcDbEntity
  8
IMPORT_IGES
100
AcDbPolyline
 62
7
  6
CONTINUOUS
 90
13
 70
0
 10
0.0133015101
 20
-5.0502734303
 10
0.0386452123
 20
-5.0514236858
 10
0.063678717
 20
-5.0537765405
 10
0.0884020243
 20
-5.0573319943
 10
0.1129453247
 20
-5.0618536455
 10
0.1371784277
 20
-5.0675778959
 10
0.1607107613
 20
-5.0752139504
 10
0.1833786218
 20
-5.085167851
 10
0.205345713
 20
-5.0970335557
 10
0.2267125741
 20
-5.1103021427
 10
0.2475127181
 20
-5.1248039715
 10
0.267712632
 20
-5.1407086828
 10
0.2873123158
 20
-5.1580162763
  0
LWPOLYLINE
  5
369
100
AcDbEntity
  8
IMPORT_IGES
100
AcDbPolyline
 62
7
  6
CONTINUOUS
 90
13
 70
0
 10
1.5283423709
 20
-5.0502734303
 10
1.5536860669
 20
-5.0514237095
 10
1.5787195687
 20
-5.0537765829
 10
1.6034428763
 20
-5.0573320505
 10
1.6279861802
 20
-5.0618537109
 10
1.6522192899
 20
-5.0675779656
 10
1.6757516337
 20
-5.0752140189
 10
1.6984195083
 20
-5.0851679109
 10
1.7203866169
 20
-5.0970336015
 10
1.7417534971
 20
-5.110302175
 10
1.7625536614
 20
-5.1248039926
 10
1.7827535973
 20
-5.1407086931
 10
1.8023533048
 20
-5.1580162763
  0
LWPOLYLINE
  5
36A
100
AcDbEntity
  8
IMPORT_IGES
100
AcDbPolyline
 62
7
  6
CONTINUOUS
 90
13
 70
0
 10
-0.0119713877
 20
-4.2388828516
 10
0.0090919544
 20
-4.2398484635
 10
0.0299165464
 20
-4.2417884761
 10
0.0505023882
 20
-4.2447028895
 10
0.0709506517
 20
-4.248408353
 10
0.0911601651
 20
-4.2530882174
 10
0.1108274127
 20
-4.259292534
 10
0.1298272552
 20
-4.2673388052
 10
0.1482848321
 20
-4.2769095286
 10
0.1662720456
 20
-4.2876022494
 10
0.1838128631
 20
-4.299282816
 10
0.2008833173
 20
-4.3120853798
 10
0.2174834081
 20
-4.3260099411
  0
LWPOLYLINE
  5
36B
100
AcDbEntity
  8
IMPORT_IGES
100
AcDbPolyline
 62
7
  6
CONTINUOUS
 90
13
 70
0
 10
1.5030695358
 20
-4.2388828516
 10
1.5241328718
 20
-4.2398484595
 10
1.5449574579
 20
-4.2417884685
 10
1.565543294
 20
-4.2447028785
 10
1.5859915522
 20
-4.2484083388
 10
1.6062010604
 20
-4.2530882002
 10
1.6258683025
 20
-4.2592925151
 10
1.6448681389
 20
-4.2673387859
 10
1.6633257092
 20
-4.2769095102
 10
1.6813129155
 20
-4.2876022334
 10
1.6988537249
 20
-4.2992828038
 10
1.7159241703
 20
-4.312085373
 10
1.7325242516
 20
-4.3260099411
  0
LWPOLYLINE
  5
36C
100
AcDbEntity
  8
IMPORT_IGES
100
AcDbPolyline
 62
7
  6
CONTINUOUS
 90
13
 70
0
 10
-3.0234311707
 20
-5.8363916397
 10
-3.0519765924
 20
-5.8347127174
 10
-3.0797440365
 20
-5.8308444714
 10
-3.1067335029
 20
-5.8247869017
 10
-3.133146558
 20
-5.8165831973
 10
-3.1587816356
 20
-5.8061901692
 10
-3.1830340361
 20
-5.7934782506
 10
-3.2055862758
 20
-5.7780393212
 10
-3.2267558384
 20
-5.7602815013
 10
-3.2468904759
 20
-5.7412995854
 10
-3.2661061055
 20
-5.7214585047
 10
-3.2842868099
 20
-5.7003933279
 10
-3.3014325891
 20
-5.6781040549
  0
LWPOLYLINE
  5
36D
100
AcDbEntity
  8
IMPORT_IGES
100
AcDbPolyline
 62
7
  6
CONTINUOUS
 90
13
 70
0
 10
-1.5083902981
 20
-5.8363916397
 10
-1.5369357094
 20
-5.8347127099
 10
-1.5647031428
 20
-5.8308444574
 10
-1.5916925983
 20
-5.8247868822
 10
-1.618105642
 20
-5.8165831727
 10
-1.6437407077
 20
-5.8061901406
 10
-1.6679930971
 20
-5.7934782202
 10
-1.6905453267
 20
-5.7780392918
 10
-1.7117148799
 20
-5.7602814751
 10
-1.7318495087
 20
-5.7412995636
 10
-1.7510651303
 20
-5.7214584888
 10
-1.7692458274
 20
-5.7003933192
 10
-1.7863916
 20
-5.6781040549
  0
LWPOLYLINE
  5
36E
100
AcDbEntity
  8
IMPORT_IGES
100
AcDbPolyline
 62
7
  6
CONTINUOUS
 90
13
 70
0
 10
-3.0260914937
 20
-4.2402127802
 10
-2.997469705
 20
-4.241911889
 10
-2.9696261176
 20
-4.2458009589
 10
-2.9425607315
 20
-4.2518799898
 10
-2.9160735393
 20
-4.2601065734
 10
-2.8903645484
 20
-4.2705231181
 10
-2.8660337809
 20
-4.2832568489
 10
-2.8433967483
 20
-4.2987151532
 10
-2.8221379391
 20
-4.3164906436
 10
-2.8019108413
 20
-4.3354883829
 10
-2.7825999508
 20
-4.355343392
 10
-2.7643207717
 20
-4.3764206501
 10
-2.7470733039
 20
-4.3987201571
  0
LWPOLYLINE
  5
36F
100
AcDbEntity
  8
IMPORT_IGES
100
AcDbPolyline
 62
7
  6
CONTINUOUS
 90
13
 70
0
 10
-1.5110505046
 20
-4.2402127802
 10
-1.4824287363
 20
-4.241911897
 10
-1.4545851679
 20
-4.2458009718
 10
-1.4275197996
 20
-4.2518800045
 10
-1.401032623
 20
-4.2601065857
 10
-1.3753236465
 20
-4.2705231249
 10
-1.3509928949
 20
-4.2832568505
 10
-1.3283558806
 20
-4.2987151506
 10
-1.3070970913
 20
-4.3164906371
 10
-1.2868700146
 20
-4.3354883746
 10
-1.2675591464
 20
-4.3553433845
 10
-1.2492799908
 20
-4.3764206453
 10
-1.2320325477
 20
-4.3987201571
  0
LINE
  5
370
100
AcDbEntity
  8
IMPORT_IGES
100
AcDbLine
 62
7
  6
CONTINUOUS
 10
2.6616300456
 20
-4.6312780201
 11
2.4155527353
 21
-4.6060019255
  0
LWPOLYLINE
  5
371
100
AcDbEntity
  8
IMPORT_IGES
100
AcDbPolyline
 62
7
  6
CONTINUOUS
 90
10
 70
0
 10
-0.1290237124
 20
-4.8667126417
 10
-0.1249443873
 20
-4.8673460719
 10
-0.1208120302
 20
-4.867891716
 10
-0.1166266411
 20
-4.868349574
 10
-0.1123863851
 20
-4.868715197
 10
-0.108093097
 20
-4.8689930338
 10
-0.1037522819
 20
-4.8691964312
 10
-0.0993657748
 20
-4.8693298381
 10
-0.0949317406
 20
-4.8693888055
 10
-0.0904501794
 20
-4.8693733334
  0
LWPOLYLINE
  5
372
100
AcDbEntity
  8
IMPORT_IGES
100
AcDbPolyline
 62
7
  6
CONTINUOUS
 90
10
 70
0
 10
1.3860171894
 20
-4.8667126417
 10
1.3900965129
 20
-4.867346071
 10
1.3942288684
 20
-4.8678917148
 10
1.3984142559
 20
-4.8683495731
 10
1.4026545102
 20
-4.8687151978
 10
1.4069477965
 20
-4.8689930369
 10
1.4112886099
 20
-4.8691964356
 10
1.4156751154
 20
-4.869329842
 10
1.420109148
 20
-4.869388808
 10
1.4245907078
 20
-4.8693733334
  0
LINE
  5
373
100
AcDbEntity
  8
IMPORT_IGES
100
AcDbLine
 62
7
  6
CONTINUOUS
 10
-0.3644611279
 20
-4.5900427818
 11
-0.6038883002
 21
-4.5474776149
  0
LINE
  5
374
100
AcDbEntity
  8
IMPORT_IGES
100
AcDbLine
 62
7
  6
CONTINUOUS
 10
1.1505797738
 20
-4.5900427818
 11
0.9111525724
 21
-4.5474776149
  0
LWPOLYLINE
  5
375
100
AcDbEntity
  8
IMPORT_IGES
100
AcDbPolyline
 62
7
  6
CONTINUOUS
 90
38
 70
0
 10
11.073675938
 20
-8.7149271786
 10
11.1270181441
 20
-8.7312965863
 10
11.1767713477
 20
-8.7500730537
 10
11.2229355488
 20
-8.7712565808
 10
11.2652630076
 20
-8.7945129667
 10
11.304001464
 20
-8.8201764123
 10
11.3398941369
 20
-8.8492495201
 10
11.3733299233
 20
-8.8824381421
 10
11.4039199262
 20
-8.9190364263
 10
11.4312406746
 20
-8.9579294185
 10
11.4553283273
 20
-8.9989479759
 10
11.4761467255
 20
-9.0422612413
 10
11.4931639215
 20
-9.0872616888
 10
11.5063616856
 20
-9.1342124757
 10
11.5157582476
 20
-9.1828504448
 10
11.5208763487
 20
-9.2317785984
 10
11.52150505
 20
-9.2809983898
 10
11.5178552905
 20
-9.3305083658
 10
11.510082628
 20
-9.3789071694
 10
11.4981013979
 20
-9.4260015867
 10
11.4819972649
 20
-9.4719848316
 10
11.4621827806
 20
-9.5160351885
 10
11.4385959216
 20
-9.5581413021
 10
11.4112987114
 20
-9.5983145278
 10
11.3808897725
 20
-9.6357672158
 10
11.3472917744
 20
-9.6704868922
 10
11.3105820476
 20
-9.7024860309
 10
11.2715912067
 20
-9.7310144043
 10
11.2302900093
 20
-9.755977156
 10
11.1867076979
 20
-9.7774691423
 10
11.1417626137
 20
-9.7950247046
 10
11.095439938
 20
-9.8085675316
 10
11.0477544896
 20
-9.8181739344
 10
10.9996690663
 20
-9.8236071881
 10
10.9510961643
 20
-9.8247865226
 10
10.9021232874
 20
-9.8217927079
 10
10.853975745
 20
-9.8146313287
 10
10.8066738034
 20
-9.8031440145
  0
LWPOLYLINE
  5
376
100
AcDbEntity
  8
IMPORT_IGES
100
AcDbPolyline
 62
7
  6
CONTINUOUS
 90
15
 70
0
 10
10.8066738034
 20
-9.8031440145
 10
10.7601971962
 20
-9.7874891358
 10
10.7157104334
 20
-9.7681473893
 10
10.6733930692
 20
-9.7450804684
 10
10.6330655492
 20
-9.7183266797
 10
10.5953537207
 20
-9.6884816395
 10
10.5601863554
 20
-9.6555257318
 10
10.5276346815
 20
-9.6194785726
 10
10.4985382309
 20
-9.580994627
 10
10.4730564135
 20
-9.5404361544
 10
10.4510298195
 20
-9.4974408954
 10
10.4328197512
 20
-9.4515765361
 10
10.4185466429
 20
-9.4026989721
 10
10.4080900605
 20
-9.3509523079
 10
10.4014500039
 20
-9.2963365435
  0
LWPOLYLINE
  5
377
100
AcDbEntity
  8
IMPORT_IGES
100
AcDbPolyline
 62
7
  6
CONTINUOUS
 90
10
 70
0
 10
0.2765369427
 20
-4.1114555716
 10
0.3044321008
 20
-4.1265451538
 10
0.3310310246
 20
-4.1430952938
 10
0.3563337142
 20
-4.1611059917
 10
0.3803293907
 20
-4.1806606622
 10
0.4030288329
 20
-4.2016758905
 10
0.4244643775
 20
-4.223901433
 10
0.4446468034
 20
-4.247253875
 10
0.4635653316
 20
-4.2718166311
 10
0.4812199622
 20
-4.2975897014
  0
LWPOLYLINE
  5
378
100
AcDbEntity
  8
IMPORT_IGES
100
AcDbPolyline
 62
7
  6
CONTINUOUS
 90
10
 70
0
 10
-2.7482388541
 20
-4.106147033
 10
-2.7218694978
 20
-4.1215639376
 10
-2.6966928661
 20
-4.1382578071
 10
-2.672708959
 20
-4.1562286416
 10
-2.6499483113
 20
-4.1755678031
 10
-2.6283803883
 20
-4.1961839295
 10
-2.6079135848
 20
-4.2178029346
 10
-2.5885173661
 20
-4.2403334563
 10
-2.5702222669
 20
-4.2638668566
 10
-2.5530282874
 20
-4.2884031355
  0
LWPOLYLINE
  5
379
100
AcDbEntity
  8
IMPORT_IGES
100
AcDbPolyline
 62
7
  6
CONTINUOUS
 90
10
 70
0
 10
-1.2331979815
 20
-4.106147033
 10
-1.2068285985
 20
-4.1215639412
 10
-1.1816519465
 20
-4.1382578169
 10
-1.1576680254
 20
-4.1562286602
 10
-1.1349073742
 20
-4.1755678379
 10
-1.1133394539
 20
-4.1961839831
 10
-1.0928726478
 20
-4.2178029955
 10
-1.0734764171
 20
-4.2403335083
 10
-1.0551813006
 20
-4.2638668883
 10
-1.0379872983
 20
-4.2884031355
  0
LWPOLYLINE
  5
37A
100
AcDbEntity
  8
IMPORT_IGES
100
AcDbPolyline
 62
7
  6
CONTINUOUS
 90
13
 70
0
 10
-0.4352904216
 20
-5.8819854677
 10
-0.4049504526
 20
-5.9070161099
 10
-0.3735411482
 20
-5.9298690538
 10
-0.3410625085
 20
-5.9505442995
 10
-0.3074897944
 20
-5.9691838908
 10
-0.2728477449
 20
-5.9856457839
 10
-0.2372105774
 20
-5.9995038466
 10
-0.2004051609
 20
-6.0103395529
 10
-0.1626046263
 20
-6.0185714288
 10
-0.1244025836
 20
-6.0250289203
 10
-0.0859969026
 20
-6.0299885094
 10
-0.0471897134
 20
-6.033173714
 10
-0.0079810161
 20
-6.0345845342
  0
LWPOLYLINE
  5
37B
100
AcDbEntity
  8
IMPORT_IGES
100
AcDbPolyline
 62
7
  6
CONTINUOUS
 90
13
 70
0
 10
1.0797505965
 20
-5.8819854677
 10
1.1100905715
 20
-5.9070160362
 10
1.1414998757
 20
-5.9298689295
 10
1.1739785093
 20
-5.9505441476
 10
1.207551209
 20
-5.9691837416
 10
1.2421932381
 20
-5.9856456603
 10
1.2778303855
 20
-5.9995037511
 10
1.3146357819
 20
-6.010339484
 10
1.3524362965
 20
-6.0185713889
 10
1.3906383264
 20
-6.0250289027
 10
1.4290440037
 20
-6.0299885043
 10
1.4678511962
 20
-6.0331737148
 10
1.5070599038
 20
-6.0345845342
  0
LWPOLYLINE
  5
37C
100
AcDbEntity
  8
0
100
AcDbPolyline
 62
7
  6
CONTINUOUS
 90
8
 70
0
 10
-13.9721102018
 20
8.819673091
 10
-13.9631157136
 20
8.808654114
 10
-13.9533141831
 20
8.7975089117
 10
-13.9428316554
 20
8.7864007815
 10
-13.932068569
 20
8.7752642071
 10
-13.9211629826
 20
8.7641743147
 10
-13.9099871892
 20
8.753378538
 10
-13.8985507246
 20
8.7430209385
  0
LINE
  5
37D
100
AcDbEntity
  8
0
100
AcDbLine
 62
7
  6
CONTINUOUS
 10
-13.988129474
 20
8.8399702643
 11
-13.9721102018
 21
8.819673091
  0
LWPOLYLINE
  5
37E
100
AcDbEntity
  8
0
100
AcDbPolyline
 62
7
  6
CONTINUOUS
 90
10
 70
0
 10
-13.988129474
 20
8.8399702643
 10
-13.9905260695
 20
8.8436188467
 10
-13.9926780594
 20
8.8473933404
 10
-13.9945739411
 20
8.851290484
 10
-13.9962040085
 20
8.8553172599
 10
-13.9975560713
 20
8.8594595602
 10
-13.9986180192
 20
8.86368212
 10
-13.9993825914
 20
8.8679704126
 10
-13.9998449248
 20
8.872330736
 10
-14.0
 20
8.8767588333
  0
LWPOLYLINE
  5
37F
100
AcDbEntity
  8
IMPORT_IGES
100
AcDbPolyline
 62
7
  6
CONTINUOUS
 90
13
 70
0
 10
-3.4668617882
 20
-5.8314593553
 10
-3.5056071474
 20
-5.7715367391
 10
-3.539671543
 20
-5.7099546797
 10
-3.5690549751
 20
-5.6467131771
 10
-3.5935760989
 20
-5.5814238717
 10
-3.6134162591
 20
-5.5144751232
 10
-3.6291194905
 20
-5.4470320098
 10
-3.6400637467
 20
-5.3793354003
 10
-3.646871074
 20
-5.311144426
 10
-3.6519516454
 20
-5.2429015588
 10
-3.6561088519
 20
-5.1747542896
 10
-3.6585393024
 20
-5.1065551275
 10
-3.6592429969
 20
-5.0383040726
  0
LWPOLYLINE
  5
380
100
AcDbEntity
  8
IMPORT_IGES
100
AcDbPolyline
 62
7
  6
CONTINUOUS
 90
13
 70
0
 10
-1.9518207991
 20
-5.8314593553
 10
-1.9905661231
 20
-5.7715366752
 10
-2.0246304967
 20
-5.7099545776
 10
-2.0540139201
 20
-5.6467130626
 10
-2.0785350505
 20
-5.5814237855
 10
-2.0983752307
 20
-5.514475091
 10
-2.1140784884
 20
-5.447032013
 10
-2.1250227811
 20
-5.3793353957
 10
-2.1318301514
 20
-5.311144395
 10
-2.1369107552
 20
-5.2429015121
 10
-2.141067978
 20
-5.1747542477
 10
-2.1434984344
 20
-5.1065551012
 10
-2.1442021243
 20
-5.0383040726
  0
LWPOLYLINE
  5
381
100
AcDbEntity
  8
IMPORT_IGES
100
AcDbPolyline
 62
7
  6
CONTINUOUS
 90
10
 70
0
 10
-2.5530282874
 20
-4.2884031355
 10
-2.5347575347
 20
-4.3188546515
 10
-2.5177358014
 20
-4.3497798017
 10
-2.5019630874
 20
-4.3811785862
 10
-2.4875150139
 20
-4.4131046005
 10
-2.4743159597
 20
-4.445504249
 10
-2.4621390616
 20
-4.4782167453
 10
-2.4509086984
 20
-4.5111884936
 10
-2.4407004912
 20
-4.5444730896
 10
-2.4315144401
 20
-4.5780705333
  0
LWPOLYLINE
  5
382
100
AcDbEntity
  8
0
100
AcDbPolyline
 62
253
  6
CONTINUOUS
 90
13
 70
0
 10
-13.847826087
 20
9.5835658538
 10
-13.8549342339
 20
9.5957916628
 10
-13.8619434214
 20
9.6080493219
 10
-13.8687129567
 20
9.6200927945
 10
-13.8751069481
 20
9.6316803279
 10
-13.8809970386
 20
9.6425793139
 10
-13.8862649814
 20
9.6525709572
 10
-13.8908050159
 20
9.6614546722
 10
-13.8945259663
 20
9.6690520637
 10
-13.8973530935
 20
9.6752105413
 10
-13.8992296241
 20
9.6798064409
 10
-13.900117876
 20
9.6827474834
 10
-13.8999999997
 20
9.6839745964
  0
LWPOLYLINE
  5
383
100
AcDbEntity
  8
0
100
AcDbPolyline
 62
253
  6
CONTINUOUS
 90
13
 70
0
 10
-13.1376811594
 20
11.1650035476
 10
-13.1311781113
 20
11.1535349754
 10
-13.1250030727
 20
11.1421131566
 10
-13.1192636559
 20
11.1309371394
 10
-13.114059882
 20
11.1202016883
 10
-13.1094824371
 20
11.1100938904
 10
-13.1056110924
 20
11.1007898943
 10
-13.102513314
 20
11.0924518409
 10
-13.1002430868
 20
11.0852250376
 10
-13.098839974
 20
11.079235426
 10
-13.0983284276
 20
11.0745873873
 10
-13.0987173622
 20
11.0713619226
 10
-13.1
 20
11.0696152423
  0
LWPOLYLINE
  5
384
100
AcDbEntity
  8
0
100
AcDbPolyline
 62
253
  6
CONTINUOUS
 90
16
 70
0
 10
-12.2615998524
 20
10.4993739973
 10
-12.267098115
 20
10.5092552426
 10
-12.2728449454
 20
10.5190187989
 10
-12.278766474
 20
10.528539161
 10
-12.2847865801
 20
10.537693941
 10
-12.2908278834
 20
10.5463654626
 10
-12.296812739
 20
10.5544422696
 10
-12.3026642174
 20
10.5618205337
 10
-12.3083070904
 20
10.5684053889
 10
-12.3136688121
 20
10.5741121703
 10
-12.3186804571
 20
10.5788675081
 10
-12.3232775891
 20
10.5826102519
 10
-12.3274010906
 20
10.5852922653
 10
-12.3309979469
 20
10.5868790652
 10
-12.3340219222
 20
10.5873502526
 10
-12.3364341402
 20
10.5866997663
  0
LWPOLYLINE
  5
385
100
AcDbEntity
  8
IMPORT_IGES
100
AcDbPolyline
 62
7
  6
CONTINUOUS
 90
10
 70
0
 10
-2.7470733039
 20
-4.3987201571
 10
-2.7151731292
 20
-4.4657747355
 10
-2.6889509124
 20
-4.534148025
 10
-2.6684066534
 20
-4.6038400255
 10
-2.6546766806
 20
-4.6752722513
 10
-2.6466246657
 20
-4.7480231883
 10
-2.640841624
 20
-4.8208282932
 10
-2.6361912272
 20
-4.8932660517
 10
-2.6338098037
 20
-4.9657579781
 10
-2.6336973533
 20
-5.0383040726
  0
LWPOLYLINE
  5
386
100
AcDbEntity
  8
IMPORT_IGES
100
AcDbPolyline
 62
7
  6
CONTINUOUS
 90
10
 70
0
 10
-3.3014325891
 20
-5.6781040549
 10
-3.3330552843
 20
-5.6109531438
 10
-3.3590150052
 20
-5.5425039248
 10
-3.3793117519
 20
-5.472756398
 10
-3.3927975449
 20
-5.401292145
 10
-3.4006203636
 20
-5.3285295841
 10
-3.4062241467
 20
-5.2557239709
 10
-3.4107568737
 20
-5.1832937238
 10
-3.4130705652
 20
-5.1108204244
 10
-3.413165221
 20
-5.0383040726
  0
LWPOLYLINE
  5
387
100
AcDbEntity
  8
IMPORT_IGES
100
AcDbPolyline
 62
7
  6
CONTINUOUS
 90
10
 70
0
 10
-1.7863916
 20
-5.6781040549
 10
-1.8180142952
 20
-5.6109531438
 10
-1.8439740162
 20
-5.5425039248
 10
-1.8642707629
 20
-5.472756398
 10
-1.8777565559
 20
-5.401292145
 10
-1.8855793746
 20
-5.3285295841
 10
-1.8911831577
 20
-5.2557239709
 10
-1.8957158847
 20
-5.1832937238
 10
-1.8980295761
 20
-5.1108204244
 10
-1.898124232
 20
-5.0383040726
  0
LWPOLYLINE
  5
388
100
AcDbEntity
  8
IMPORT_IGES
100
AcDbPolyline
 62
7
  6
CONTINUOUS
 90
10
 70
0
 10
-2.1442021243
 20
-5.0383040726
 10
-2.1444430859
 20
-4.9756610949
 10
-2.1426814389
 20
-4.9132138863
 10
-2.1389171832
 20
-4.8509624467
 10
-2.1331715349
 20
-4.788879524
 10
-2.125423278
 20
-4.7269923703
 10
-2.1156087641
 20
-4.6653827425
 10
-2.1037067771
 20
-4.6040778926
 10
-2.0897385332
 20
-4.5430505685
 10
-2.0737040322
 20
-4.4823007703
  0
LWPOLYLINE
  5
389
100
AcDbEntity
  8
IMPORT_IGES
100
AcDbPolyline
 62
7
  6
CONTINUOUS
 90
10
 70
0
 10
-2.3876193445
 20
-5.0383040726
 10
-2.3874992657
 20
-5.1008274375
 10
-2.3893768667
 20
-5.1631413606
 10
-2.3932521476
 20
-5.225245842
 10
-2.3991154525
 20
-5.2871667399
 10
-2.4069764373
 20
-5.3488781961
 10
-2.4168640689
 20
-5.4103026357
 10
-2.4287880029
 20
-5.4714142005
 10
-2.4427385838
 20
-5.5322387489
 10
-2.4587158114
 20
-5.5927762806
  0
LWPOLYLINE
  5
38A
100
AcDbEntity
  8
IMPORT_IGES
100
AcDbPolyline
 62
7
  6
CONTINUOUS
 90
10
 70
0
 10
-0.8725785301
 20
-5.0383040726
 10
-0.8724584193
 20
-5.1008274346
 10
-0.8743359924
 20
-5.1631413557
 10
-0.8782112494
 20
-5.225245836
 10
-0.8840745339
 20
-5.2871667339
 10
-0.8919355023
 20
-5.3488781908
 10
-0.9018231242
 20
-5.4103026315
 10
-0.9137470562
 20
-5.4714141975
 10
-0.9276976416
 20
-5.5322387472
 10
-0.9436748805
 20
-5.5927762806
  0
LINE
  5
38B
100
AcDbEntity
  8
IMPORT_IGES
100
AcDbLine
 62
7
  6
CONTINUOUS
 10
-3.0559414496
 20
-45.8801051454
 11
-3.0559414496
 21
-33.4919710042
  0
LINE
  5
38C
100
AcDbEntity
  8
IMPORT_IGES
100
AcDbLine
 62
7
  6
CONTINUOUS
 10
-3.0559414496
 20
-28.3801051454
 11
-3.0559414496
 21
-15.9919710042
  0
LINE
  5
38D
100
AcDbEntity
  8
IMPORT_IGES
100
AcDbLine
 62
7
  6
CONTINUOUS
 10
-3.0
 20
-45.95
 11
-3.0
 21
-33.45
  0
LINE
  5
38E
100
AcDbEntity
  8
IMPORT_IGES
100
AcDbLine
 62
7
  6
CONTINUOUS
 10
-3.0
 20
-28.45
 11
-3.0
 21
-15.95
  0
LINE
  5
38F
100
AcDbEntity
  8
IMPORT_IGES
100
AcDbLine
 62
7
  6
CONTINUOUS
 10
-2.8881160359
 20
-15.8660571924
 11
-2.8881160359
 21
-28.5897910398
  0
LINE
  5
390
100
AcDbEntity
  8
IMPORT_IGES
100
AcDbLine
 62
7
  6
CONTINUOUS
 10
-2.8881160359
 20
-33.3660571924
 11
-2.8881160359
 21
-46.0897910398
  0
LINE
  5
391
100
AcDbEntity
  8
IMPORT_IGES
100
AcDbLine
 62
7
  6
CONTINUOUS
 10
-1.1118839641
 20
-46.0897910398
 11
-1.1118839641
 21
-33.3660571924
  0
LINE
  5
392
100
AcDbEntity
  8
IMPORT_IGES
100
AcDbLine
 62
7
  6
CONTINUOUS
 10
-1.1118839641
 20
-28.5897910398
 11
-1.1118839641
 21
-15.8660571924
  0
LINE
  5
393
100
AcDbEntity
  8
IMPORT_IGES
100
AcDbLine
 62
7
  6
CONTINUOUS
 10
-1.0
 20
-15.95
 11
-1.0
 21
-28.45
  0
LINE
  5
394
100
AcDbEntity
  8
IMPORT_IGES
100
AcDbLine
 62
7
  6
CONTINUOUS
 10
-1.0
 20
-33.45
 11
-1.0
 21
-45.95
  0
LINE
  5
395
100
AcDbEntity
  8
IMPORT_IGES
100
AcDbLine
 62
7
  6
CONTINUOUS
 10
-0.9440585504
 20
-15.9919710042
 11
-0.9440585504
 21
-28.3801051454
  0
LINE
  5
396
100
AcDbEntity
  8
IMPORT_IGES
100
AcDbLine
 62
7
  6
CONTINUOUS
 10
-0.9440585504
 20
-44.45
 11
-0.9440585504
 21
-45.8801051454
  0
LINE
  5
397
100
AcDbEntity
  8
IMPORT_IGES
100
AcDbLine
 62
253
  6
CONTINUOUS
 10
-0.0
 20
-53.0022572464
 11
-0.0
 21
-51.0378755587
  0
LINE
  5
398
100
AcDbEntity
  8
IMPORT_IGES
100
AcDbLine
 62
7
  6
CONTINUOUS
 10
0.0976879965
 20
-12.4480778396
 11
0.0976879965
 21
-11.7120825767
  0
LINE
  5
399
100
AcDbEntity
  8
IMPORT_IGES
100
AcDbLine
 62
7
  6
CONTINUOUS
 10
0.0976879965
 20
-8.1885958135
 11
0.0976879965
 21
-7.4526005506
  0
LWPOLYLINE
  5
39A
100
AcDbEntity
  8
IMPORT_IGES
100
AcDbPolyline
 62
7
  6
CONTINUOUS
 90
10
 70
0
 10
-3.413165221
 20
-5.0383040726
 10
-3.4119578658
 20
-4.9542724936
 10
-3.4083620733
 20
-4.8725819852
 10
-3.4023778434
 20
-4.7932325474
 10
-3.3950143043
 20
-4.7157110354
 10
-3.3852623279
 20
-4.640530594
 10
-3.3700945293
 20
-4.5692306574
 10
-3.3485017804
 20
-4.5023243702
 10
-3.3214932094
 20
-4.4392985879
 10
-3.2890688162
 20
-4.3801533103
  0
LWPOLYLINE
  5
39B
100
AcDbEntity
  8
IMPORT_IGES
100
AcDbPolyline
 62
7
  6
CONTINUOUS
 90
10
 70
0
 10
-2.6336973533
 20
-5.0383040726
 10
-2.6348673268
 20
-5.1188982051
 10
-2.6380458001
 20
-5.1974511946
 10
-2.6432327733
 20
-5.2739630411
 10
-2.6493087351
 20
-5.3489298923
 10
-2.6573931968
 20
-5.4218556005
 10
-2.6708446921
 20
-5.4912517224
 10
-2.6907827324
 20
-5.55662211
 10
-2.7160878063
 20
-5.6184629113
 10
-2.7467599139
 20
-5.6767741263
  0
LWPOLYLINE
  5
39C
100
AcDbEntity
  8
IMPORT_IGES
100
AcDbPolyline
 62
7
  6
CONTINUOUS
 90
10
 70
0
 10
-1.898124232
 20
-5.0383040726
 10
-1.8969168949
 20
-4.9542723672
 10
-1.8933211217
 20
-4.8725817605
 10
-1.8873369124
 20
-4.7932322524
 10
-1.8799733985
 20
-4.7157106935
 10
-1.8702214484
 20
-4.6405302332
 10
-1.8550536673
 20
-4.5692303199
 10
-1.8334609237
 20
-4.5023241031
 10
-1.8064523492
 20
-4.4392984332
 10
-1.7740279436
 20
-4.3801533103
  0
LWPOLYLINE
  5
39D
100
AcDbEntity
  8
IMPORT_IGES
100
AcDbPolyline
 62
7
  6
CONTINUOUS
 90
10
 70
0
 10
-1.1186563643
 20
-5.0383040726
 10
-1.1198264543
 20
-5.118898582
 10
-1.1230050167
 20
-5.1974518616
 10
-1.1281920515
 20
-5.2739639113
 10
-1.134268041
 20
-5.3489308887
 10
-1.142352503
 20
-5.4218566364
 10
-1.1558039904
 20
-5.4912526812
 10
-1.1757420208
 20
-5.5566228657
 10
-1.2010470765
 20
-5.6184633473
 10
-1.2317191577
 20
-5.6767741263
  0
LINE
  5
39E
100
AcDbEntity
  8
IMPORT_IGES
100
AcDbLine
 62
7
  6
CONTINUOUS
 10
-0.155627713
 20
-5.0768748939
 11
-0.1290237124
 21
-4.8667126417
  0
LWPOLYLINE
  5
39F
100
AcDbEntity
  8
IMPORT_IGES
100
AcDbPolyline
 62
7
  6
CONTINUOUS
 90
10
 70
0
 10
-2.4587158114
 20
-5.5927762806
 10
-2.4733578532
 20
-5.6346402757
 10
-2.4902491222
 20
-5.6751184885
 10
-2.5093896184
 20
-5.7142109192
 10
-2.5308480499
 20
-5.7519472699
 10
-2.5545557086
 20
-5.7882978385
 10
-2.5803064701
 20
-5.8231735181
 10
-2.6080316263
 20
-5.8565446065
 10
-2.6377998854
 20
-5.8884408059
 10
-2.6696112473
 20
-5.9188621163
  0
LWPOLYLINE
  5
3A0
100
AcDbEntity
  8
IMPORT_IGES
100
AcDbPolyline
 62
7
  6
CONTINUOUS
 90
10
 70
0
 10
-3.5887449048
 20
-4.4823007703
 10
-3.5739775046
 20
-4.4404954045
 10
-3.5569694857
 20
-4.4000762003
 10
-3.5377208484
 20
-4.3610431577
 10
-3.5161668544
 20
-4.3233645473
 10
-3.4923722418
 20
-4.2870720985
 10
-3.4665312253
 20
-4.2522609987
 10
-3.4387085432
 20
-4.2189629771
 10
-3.4088394571
 20
-4.1871463046
 10
-3.3769239672
 20
-4.156810981
  0
LWPOLYLINE
  5
3A1
100
AcDbEntity
  8
IMPORT_IGES
100
AcDbPolyline
 62
7
  6
CONTINUOUS
 90
10
 70
0
 10
-2.0737040322
 20
-4.4823007703
 10
-2.0589366319
 20
-4.4404954045
 10
-2.0419286131
 20
-4.4000762003
 10
-2.0226799758
 20
-4.3610431577
 10
-2.0011259817
 20
-4.3233645473
 10
-1.9773313692
 20
-4.2870720985
 10
-1.9514903527
 20
-4.2522609987
 10
-1.9236676705
 20
-4.2189629771
 10
-1.8937985845
 20
-4.1871463046
 10
-1.8618830945
 20
-4.156810981
  0
LINE
  5
3A2
100
AcDbEntity
  8
IMPORT_IGES
100
AcDbLine
 62
253
  6
CONTINUOUS
 10
-18.4720839879
 20
-51.2454228709
 11
-17.9395920833
 21
-49.7470216647
  0
LINE
  5
3A3
100
AcDbEntity
  8
IMPORT_IGES
100
AcDbLine
 62
7
  6
CONTINUOUS
 10
-6.7389835604
 20
-8.9750000357
 11
-7.5024897233
 21
-10.9249995172
  0
LWPOLYLINE
  5
3A4
100
AcDbEntity
  8
IMPORT_IGES
100
AcDbPolyline
 62
7
  6
CONTINUOUS
 90
13
 70
0
 10
-3.2890688162
 20
-4.3801533103
 10
-3.2740524324
 20
-4.3596225534
 10
-3.2576378971
 20
-4.3404241707
 10
-3.2398252104
 20
-4.3225581622
 10
-3.220536509
 20
-4.3057754436
 10
-3.1998496562
 20
-4.2903250992
 10
-3.1779982417
 20
-4.2769543818
 10
-3.1549419677
 20
-4.2659747449
 10
-3.1307211321
 20
-4.257074735
 10
-3.1056902185
 20
-4.2500672444
 10
-3.0799673882
 20
-4.2448899037
 10
-3.0534344799
 20
-4.2416050823
 10
-3.0260914937
 20
-4.2402127802
  0
LWPOLYLINE
  5
3A5
100
AcDbEntity
  8
IMPORT_IGES
100
AcDbPolyline
 62
7
  6
CONTINUOUS
 90
13
 70
0
 10
-9.5664905384
 20
-9.3051509976
 10
-9.5514727967
 20
-9.2846209377
 10
-9.5350573781
 20
-9.2654229578
 10
-9.5172442825
 20
-9.2475570578
 10
-9.497955838
 20
-9.2307739271
 10
-9.4772697166
 20
-9.2153228764
 10
-9.4554189341
 20
-9.2019518374
 10
-9.4323629924
 20
-9.1909726212
 10
-9.4081423895
 20
-9.1820734166
 10
-9.3831116361
 20
-9.1750667217
 10
-9.3573889023
 20
-9.1698900358
 10
-9.3308560179
 20
-9.1666058595
 10
-9.303512983
 20
-9.1652141929
  0
LWPOLYLINE
  5
3A6
100
AcDbEntity
  8
IMPORT_IGES
100
AcDbPolyline
 62
7
  6
CONTINUOUS
 90
10
 70
0
 10
-10.3756352578
 20
-9.6738954208
 10
-10.3933914822
 20
-9.6980891184
 10
-10.4123740341
 20
-9.7207597056
 10
-10.4325829137
 20
-9.7419071824
 10
-10.4541329794
 20
-9.7614563768
 10
-10.4769093727
 20
-9.7794824608
 10
-10.5005675182
 20
-9.7962109509
 10
-10.5249925576
 20
-9.8117170192
 10
-10.5502993492
 20
-9.8259254936
 10
-10.5764878932
 20
-9.8388363741
  0
LWPOLYLINE
  5
3A7
100
AcDbEntity
  8
IMPORT_IGES
100
AcDbPolyline
 62
7
  6
CONTINUOUS
 90
13
 70
0
 10
-9.0241814032
 20
-10.6017755389
 10
-9.0414254796
 20
-10.6236691406
 10
-9.0596199705
 20
-10.6444934745
 10
-9.0787648759
 20
-10.6642485405
 10
-9.0987265439
 20
-10.6833151297
 10
-9.1196386263
 20
-10.7013124511
 10
-9.1419020797
 20
-10.717098131
 10
-9.1657916809
 20
-10.7303539685
 10
-9.191032653
 20
-10.7413981644
 10
-9.217201621
 20
-10.7500429479
 10
-9.24415746
 20
-10.7562257286
 10
-9.2720412949
 20
-10.7600090967
 10
-9.3008531258
 20
-10.7613930523
  0
LWPOLYLINE
  5
3A8
100
AcDbEntity
  8
IMPORT_IGES
100
AcDbPolyline
 62
7
  6
CONTINUOUS
 90
10
 70
0
 10
-11.1062026368
 20
-9.2213136278
 10
-11.1286867403
 20
-9.2466050712
 10
-11.1487663297
 20
-9.2730123011
 10
-11.166441405
 20
-9.3005353175
 10
-11.1815784971
 20
-9.3293256128
 10
-11.1943110751
 20
-9.3592316947
 10
-11.2050395464
 20
-9.389799085
 10
-11.21389738
 20
-9.4208762912
 10
-11.2207511068
 20
-9.452614806
 10
-11.2256007269
 20
-9.4850146293
  0
LWPOLYLINE
  5
3A9
100
AcDbEntity
  8
IMPORT_IGES
100
AcDbPolyline
 62
7
  6
CONTINUOUS
 90
10
 70
0
 10
-12.8124486655
 20
-10.4993524074
 10
-12.7801726302
 20
-10.4631192739
 10
-12.7471672008
 20
-10.4278072416
 10
-12.7134323771
 20
-10.3934163106
 10
-12.6788603094
 20
-10.3600375304
 10
-12.6435588474
 20
-10.3275798514
 10
-12.6078515409
 20
-10.2957701251
 10
-12.5718462397
 20
-10.2645173019
 10
-12.5354350939
 20
-10.2339124312
 10
-12.4986181036
 20
-10.2039555132
  0
LWPOLYLINE
  5
3AA
100
AcDbEntity
  8
IMPORT_IGES
100
AcDbPolyline
 62
7
  6
CONTINUOUS
 90
10
 70
0
 10
-12.5640602782
 20
-10.5655321896
 10
-12.5765763127
 20
-10.5789283774
 10
-12.5887521041
 20
-10.5925822366
 10
-12.6005876526
 20
-10.6064937672
 10
-12.6120701237
 20
-10.6206810966
 10
-12.6232123518
 20
-10.6351260974
 10
-12.6340528404
 20
-10.6497743873
 10
-12.6446044239
 20
-10.6646078391
 10
-12.6548542679
 20
-10.67964458
 10
-12.6648023725
 20
-10.6948846102
  0
LWPOLYLINE
  5
3AB
100
AcDbEntity
  8
IMPORT_IGES
100
AcDbPolyline
 62
7
  6
CONTINUOUS
 90
10
 70
0
 10
-11.9182579219
 20
-9.9769027948
 10
-11.9551439731
 20
-10.0157730595
 10
-11.9931228324
 20
-10.0543865357
 10
-12.0321944999
 20
-10.0927432233
 10
-12.0724494534
 20
-10.1307622551
 10
-12.113797215
 20
-10.1685244983
 10
-12.1559663518
 20
-10.2062725548
 10
-12.1988663859
 20
-10.2440872919
 10
-12.2425877951
 20
-10.2818878422
 10
-12.2871305793
 20
-10.3196742058
  0
LWPOLYLINE
  5
3AC
100
AcDbEntity
  8
IMPORT_IGES
100
AcDbPolyline
 62
7
  6
CONTINUOUS
 90
13
 70
0
 10
-11.2655057124
 20
-9.070007237
 10
-11.2908638418
 20
-9.0961366962
 10
-11.3149179745
 20
-9.1230439688
 10
-11.3376681105
 20
-9.1507290548
 10
-11.3594307908
 20
-9.1790481268
 10
-11.3798894745
 20
-9.2081450123
 10
-11.3980945385
 20
-9.2384511931
 10
-11.4134728395
 20
-9.2702622366
 10
-11.426597521
 20
-9.3032825754
 10
-11.4382383898
 20
-9.3370569895
 10
-11.4486520485
 20
-9.3714337386
 10
-11.4575818947
 20
-9.4065645629
 10
-11.4650279283
 20
-9.4424494624
  0
LWPOLYLINE
  5
3AD
100
AcDbEntity
  8
IMPORT_IGES
100
AcDbPolyline
 62
7
  6
CONTINUOUS
 90
13
 70
0
 10
-12.600954622
 20
-9.2689635277
 10
-12.5811076587
 20
-9.252013655
 10
-12.560670877
 20
-9.2364489618
 10
-12.539644277
 20
-9.222269448
 10
-12.5180631298
 20
-9.2092969095
 10
-12.4958921642
 20
-9.1977095503
 10
-12.4730255667
 20
-9.1880419831
 10
-12.4493066681
 20
-9.1807023097
 10
-12.4248921375
 20
-9.1752824282
 10
-12.400146169
 20
-9.1710926452
 10
-12.3751901608
 20
-9.1679030626
 10
-12.3499027147
 20
-9.1659435785
 10
-12.3242838308
 20
-9.1652141929
  0
LWPOLYLINE
  5
3AE
100
AcDbEntity
  8
IMPORT_IGES
100
AcDbPolyline
 62
7
  6
CONTINUOUS
 90
10
 70
0
 10
-12.2871305793
 20
-10.3196742058
 10
-12.3185963645
 20
-10.3460218823
 10
-12.3499002621
 20
-10.3726001279
 10
-12.3810422724
 20
-10.3994089427
 10
-12.4120384847
 20
-10.4264324596
 10
-12.4428728096
 20
-10.4536865457
 10
-12.4734969783
 20
-10.4812188016
 10
-12.5038949012
 20
-10.5090450944
 10
-12.5340826678
 20
-10.537149557
 10
-12.5640602782
 20
-10.5655321896
  0
LWPOLYLINE
  5
3AF
100
AcDbEntity
  8
IMPORT_IGES
100
AcDbPolyline
 62
7
  6
CONTINUOUS
 90
13
 70
0
 10
-11.1062026368
 20
-9.2213136278
 10
-11.0893029429
 20
-9.2074773461
 10
-11.0719391685
 20
-9.1947283237
 10
-11.0541113135
 20
-9.1830665605
 10
-11.0358461735
 20
-9.1723532355
 10
-11.0171169529
 20
-9.1627271697
 10
-10.9978432652
 20
-9.1546048259
 10
-10.9779055449
 20
-9.1482889829
 10
-10.9574233574
 20
-9.1434768619
 10
-10.9366750121
 20
-9.1396765892
 10
-10.9157532789
 20
-9.136724207
 10
-10.8945653879
 20
-9.134783673
 10
-10.8731113392
 20
-9.1338549874
  0
LWPOLYLINE
  5
3B0
100
AcDbEntity
  8
IMPORT_IGES
100
AcDbPolyline
 62
7
  6
CONTINUOUS
 90
10
 70
0
 10
-12.4986181036
 20
-10.2039555132
 10
-12.4471024932
 20
-10.1624943994
 10
-12.396495151
 20
-10.1199708798
 10
-12.3467960769
 20
-10.0763849543
 10
-12.2979601068
 20
-10.0317678818
 10
-12.2500324049
 20
-9.9860884035
 10
-12.2031484632
 20
-9.9392527428
 10
-12.1573534458
 20
-9.8912296406
 10
-12.1126021887
 20
-9.8420503559
 10
-12.0688946918
 20
-9.7917148888
  0
LWPOLYLINE
  5
3B1
100
AcDbEntity
  8
0
100
AcDbPolyline
 62
253
  6
CONTINUOUS
 90
13
 70
0
 10
14.152173913
 20
9.5835658538
 10
14.144670703
 20
9.5787644859
 10
14.1377038831
 20
9.5734289199
 10
14.131266671
 20
9.56754695
 10
14.1253097263
 20
9.5610414019
 10
14.1198728097
 20
9.5539688264
 10
14.1150922303
 20
9.5465169963
 10
14.1110075727
 20
9.5386698087
 10
14.1075957849
 20
9.5304248257
 10
14.1049127208
 20
9.5219897573
 10
14.1029897902
 20
9.5134302722
 10
14.1018293109
 20
9.5046705826
 10
14.1014492754
 20
9.4957082041
  0
LWPOLYLINE
  5
3B2
100
AcDbEntity
  8
0
100
AcDbPolyline
 62
7
  6
CONTINUOUS
 90
8
 70
0
 10
13.110258817
 20
9.0006484875
 10
13.1219319583
 20
9.0074650227
 10
13.1333640554
 20
9.0144841523
 10
13.1444170695
 20
9.0216122873
 10
13.1550030202
 20
9.0285867545
 10
13.1649526002
 20
9.0353163153
 10
13.1740347847
 20
9.0418720845
 10
13.1820497524
 20
9.0482343728
  0
LINE
  5
3B3
100
AcDbEntity
  8
0
100
AcDbLine
 62
253
  6
CONTINUOUS
 10
15.5089829196
 20
10.3669198989
 11
15.4737422449
 21
10.346564181
  0
LINE
  5
3B4
100
AcDbEntity
  8
0
100
AcDbLine
 62
253
  6
CONTINUOUS
 10
14.8623188406
 20
11.1650035476
 11
15.5141651337
 21
11.5413471804
  0
LINE
  5
3B5
100
AcDbEntity
  8
0
100
AcDbLine
 62
7
  6
CONTINUOUS
 10
14.9
 20
11.0696152423
 11
15.449069357
 21
11.3866205834
  0
LINE
  5
3B6
100
AcDbEntity
  8
0
100
AcDbLine
 62
7
  6
CONTINUOUS
 10
15.7089144185
 20
10.6128817688
 11
14.1
 21
9.6839745962
  0
LINE
  5
3B7
100
AcDbEntity
  8
0
100
AcDbLine
 62
253
  6
CONTINUOUS
 10
15.4737422449
 20
10.346564181
 11
15.3096161047
 21
10.2518154147
  0
LINE
  5
3B8
100
AcDbEntity
  8
0
100
AcDbLine
 62
253
  6
CONTINUOUS
 10
15.7384001476
 20
10.4993739973
 11
15.5089829196
 21
10.3669198989
  0
LINE
  5
3B9
100
AcDbEntity
  8
0
100
AcDbLine
 62
253
  6
CONTINUOUS
 10
15.3096161047
 20
10.2518154147
 11
14.152173913
 21
9.5835658538
  0
LINE
  5
3BA
100
AcDbEntity
  8
0
100
AcDbLine
 62
7
  6
CONTINUOUS
 10
13.0869565217
 20
8.9873686004
 11
13.110258817
 21
9.0006484875
  0
LWPOLYLINE
  5
3BB
100
AcDbEntity
  8
IMPORT_IGES
100
AcDbPolyline
 62
253
  6
CONTINUOUS
 90
6
 70
0
 10
22.9008106014
 20
0.0271309264
 10
22.8945283156
 20
0.0262539168
 10
22.8817277701
 20
0.0255180857
 10
22.8624508318
 20
0.0249226187
 10
22.8367604969
 20
0.0244631491
 10
22.8047408558
 20
0.0241411338
  0
LINE
  5
3BC
100
AcDbEntity
  8
IMPORT_IGES
100
AcDbLine
 62
253
  6
CONTINUOUS
 10
-20.9015505045
 20
0.0500106822
 11
-21.4660452093
 21
0.0394624038
  0
LINE
  5
3BD
100
AcDbEntity
  8
IMPORT_IGES
100
AcDbLine
 62
253
  6
CONTINUOUS
 10
-21.4660452093
 20
0.0394624038
 11
-21.8864419155
 21
0.0326306822
  0
LINE
  5
3BE
100
AcDbEntity
  8
IMPORT_IGES
100
AcDbLine
 62
253
  6
CONTINUOUS
 10
-21.8864419155
 20
0.0326306822
 11
-22.2555362066
 21
0.0276140514
  0
LINE
  5
3BF
100
AcDbEntity
  8
IMPORT_IGES
100
AcDbLine
 62
253
  6
CONTINUOUS
 10
-22.2555362066
 20
0.0276140514
 11
-22.5540751928
 21
0.0246764089
  0
LINE
  5
3C0
100
AcDbEntity
  8
IMPORT_IGES
100
AcDbLine
 62
253
  6
CONTINUOUS
 10
-22.5540751928
 20
0.0246764089
 11
-22.7221535874
 21
0.0239313766
  0
LINE
  5
3C1
100
AcDbEntity
  8
IMPORT_IGES
100
AcDbLine
 62
253
  6
CONTINUOUS
 10
22.8047408558
 20
0.0241411338
 11
22.7221534192
 21
0.0239290001
  0
LINE
  5
3C2
100
AcDbEntity
  8
IMPORT_IGES
100
AcDbLine
 62
7
  6
CONTINUOUS
 10
-20.9019094125
 20
0.0500024131
 11
20.9019094247
 21
0.0500024131
  0
LWPOLYLINE
  5
3C3
100
AcDbEntity
  8
IMPORT_IGES
100
AcDbPolyline
 62
253
  6
CONTINUOUS
 90
7
 70
0
 10
-22.7221535874
 20
0.0239313766
 10
-22.8047409524
 20
0.0241431387
 10
-22.8367605693
 20
0.0244649432
 10
-22.8624508843
 20
0.0249241873
 10
-22.8817278067
 20
0.025519415
 10
-22.8945283401
 20
0.0262549921
 10
-22.9008106177
 20
0.0271317332
  0
LINE
  5
3C4
100
AcDbEntity
  8
IMPORT_IGES
100
AcDbLine
 62
253
  6
CONTINUOUS
 10
22.7221534192
 20
0.0239290001
 11
22.5540749379
 21
0.0246736053
  0
LINE
  5
3C5
100
AcDbEntity
  8
IMPORT_IGES
100
AcDbLine
 62
253
  6
CONTINUOUS
 10
22.5540749379
 20
0.0246736053
 11
22.2555360348
 21
0.0276109376
  0
LINE
  5
3C6
100
AcDbEntity
  8
IMPORT_IGES
100
AcDbLine
 62
253
  6
CONTINUOUS
 10
22.2555360348
 20
0.0276109376
 11
21.8864416904
 21
0.0326275711
  0
LINE
  5
3C7
100
AcDbEntity
  8
IMPORT_IGES
100
AcDbLine
 62
253
  6
CONTINUOUS
 10
21.8864416904
 20
0.0326275711
 11
21.3554633589
 21
0.0414104155
  0
LINE
  5
3C8
100
AcDbEntity
  8
IMPORT_IGES
100
AcDbLine
 62
253
  6
CONTINUOUS
 10
21.3554633589
 20
0.0414104155
 11
20.901550464
 21
0.050008678
  0
LWPOLYLINE
  5
3C9
100
AcDbEntity
  8
IMPORT_IGES
100
AcDbPolyline
 62
7
  6
CONTINUOUS
 90
10
 70
0
 10
10.5126826093
 20
-4.3048763692
 10
10.4310344242
 20
-4.2888819991
 10
10.34930381
 20
-4.2749868918
 10
10.2674907666
 20
-4.2631910474
 10
10.1855649427
 20
-4.2535896287
 10
10.1035566895
 20
-4.2460874728
 10
10.0215570612
 20
-4.2403990914
 10
9.939596409
 20
-4.2364293218
 10
9.8576443816
 20
-4.2342733268
 10
9.7757009789
 20
-4.2339311063
  0
LWPOLYLINE
  5
3CA
100
AcDbEntity
  8
IMPORT_IGES
100
AcDbPolyline
 62
7
  6
CONTINUOUS
 90
10
 70
0
 10
10.5767687783
 20
-4.3189347803
 10
10.646449487
 20
-4.335758378
 10
10.7155737393
 20
-4.3540397686
 10
10.7841415353
 20
-4.3737789521
 10
10.8521428773
 20
-4.3950483462
 10
10.919587763
 20
-4.4177755331
 10
10.9865061847
 20
-4.4417432599
 10
11.0529081398
 20
-4.4668791088
 10
11.1187836309
 20
-4.4932554975
 10
11.184132658
 20
-4.520872426
  0
LWPOLYLINE
  5
3CB
100
AcDbEntity
  8
IMPORT_IGES
100
AcDbPolyline
 62
7
  6
CONTINUOUS
 90
10
 70
0
 10
10.5767687783
 20
-4.3847205162
 10
10.643980042
 20
-4.4012453735
 10
10.710635568
 20
-4.4191456771
 10
10.7767353564
 20
-4.4384214267
 10
10.8422699569
 20
-4.4591405863
 10
10.9072488197
 20
-4.4812351921
 10
10.9717002955
 20
-4.5045013526
 10
11.0356338346
 20
-4.5288711041
 10
11.0990399867
 20
-4.5544124103
 10
11.1619187519
 20
-4.5811252713
  0
LWPOLYLINE
  5
3CC
100
AcDbEntity
  8
IMPORT_IGES
100
AcDbPolyline
 62
7
  6
CONTINUOUS
 90
10
 70
0
 10
1.791578019
 20
-4.1114555716
 10
1.8194731673
 20
-4.1265451723
 10
1.8460720839
 20
-4.1430953267
 10
1.8713747688
 20
-4.161106035
 10
1.8953704422
 20
-4.1806607123
 10
1.918069884
 20
-4.2016759434
 10
1.9395054334
 20
-4.2239014825
 10
1.9596878704
 20
-4.2472539142
 10
1.9786064152
 20
-4.2718166538
 10
1.9962610677
 20
-4.2975897014
  0
LINE
  5
3CD
100
AcDbEntity
  8
IMPORT_IGES
100
AcDbLine
 62
7
  6
CONTINUOUS
 10
7.1161547676
 20
-10.0744784891
 11
7.0255240425
 21
-9.9838459015
  0
LWPOLYLINE
  5
3CE
100
AcDbEntity
  8
IMPORT_IGES
100
AcDbPolyline
 62
7
  6
CONTINUOUS
 90
13
 70
0
 10
3.4929742105
 20
-4.1976476133
 10
3.5189126181
 20
-4.2240645092
 10
3.5426923864
 20
-4.2516201347
 10
3.5643135153
 20
-4.2803144897
 10
3.5839204454
 20
-4.3101601318
 10
3.6013687362
 20
-4.3411445036
 10
3.6162250661
 20
-4.373229932
 10
3.6281036162
 20
-4.4066038264
 10
3.6373902054
 20
-4.4410787774
 10
3.644808969
 20
-4.4760548851
 10
3.6506012853
 20
-4.5113321827
 10
3.6545257761
 20
-4.547110637
 10
3.6565824412
 20
-4.5833902478
  0
LWPOLYLINE
  5
3CF
100
AcDbEntity
  8
IMPORT_IGES
100
AcDbPolyline
 62
7
  6
CONTINUOUS
 90
13
 70
0
 10
3.3080831636
 20
-4.3386424005
 10
3.3234830538
 20
-4.3552709858
 10
3.3378453435
 20
-4.372466473
 10
3.3511700329
 20
-4.3902288622
 10
3.3636796872
 20
-4.4084949981
 10
3.3751517411
 20
-4.427328036
 10
3.3849184987
 20
-4.4469174412
 10
3.3926043577
 20
-4.4674243682
 10
3.3985849204
 20
-4.4886876626
 10
3.4033192981
 20
-4.5104133261
 10
3.4069605279
 20
-4.5325033594
 10
3.4093555727
 20
-4.5550557617
 10
3.4105044324
 20
-4.5780705333
  0
LWPOLYLINE
  5
3D0
100
AcDbEntity
  8
IMPORT_IGES
100
AcDbPolyline
 62
7
  6
CONTINUOUS
 90
13
 70
0
 10
0.5533423391
 20
-5.1101313948
 10
0.5350523512
 20
-5.0902057829
 10
0.5161177917
 20
-5.0711624167
 10
0.4965386607
 20
-5.0530012963
 10
0.4764354732
 20
-5.0354877306
 10
0.4556877143
 20
-5.0188564107
 10
0.4339338388
 20
-5.0038114094
 10
0.4109387816
 20
-4.9907503067
 10
0.3869376079
 20
-4.9792755227
 10
0.3622739684
 20
-4.9688983905
 10
0.3370624133
 20
-4.9594560212
 10
0.3111883923
 20
-4.9511113038
 10
0.2846519055
 20
-4.9438642382
  0
LWPOLYLINE
  5
3D1
100
AcDbEntity
  8
IMPORT_IGES
100
AcDbPolyline
 62
7
  6
CONTINUOUS
 90
13
 70
0
 10
2.0683833864
 20
-5.1101313948
 10
2.0500934044
 20
-5.0902057766
 10
2.0311588502
 20
-5.0711624052
 10
2.0115797239
 20
-5.0530012807
 10
1.9914765406
 20
-5.035487712
 10
1.9707287851
 20
-5.0188563902
 10
1.9489749122
 20
-5.0038113885
 10
1.9259798562
 20
-4.9907502873
 10
1.9019786829
 20
-4.9792755062
 10
1.8773150437
 20
-4.9688983775
 10
1.852103489
 20
-4.959456012
 10
1.8262294684
 20
-4.9511112989
 10
1.7996929819
 20
-4.9438642382
  0
LWPOLYLINE
  5
3D2
100
AcDbEntity
  8
IMPORT_IGES
100
AcDbPolyline
 62
7
  6
CONTINUOUS
 90
13
 70
0
 10
0.2174834081
 20
-4.3260099411
 10
0.2312512004
 20
-4.3412673892
 10
0.2440476056
 20
-4.3570202509
 10
0.2558726238
 20
-4.373268526
 10
0.2669153704
 20
-4.3899612173
 10
0.2769867299
 20
-4.4071493221
 10
0.2855193557
 20
-4.4249858325
 10
0.2921760771
 20
-4.4436120697
 10
0.2972940648
 20
-4.4628867125
 10
0.3013174849
 20
-4.4825387903
 10
0.3043943926
 20
-4.5024779797
 10
0.3063767326
 20
-4.522794604
 10
0.307264505
 20
-4.5434886634
  0
LWPOLYLINE
  5
3D3
100
AcDbEntity
  8
IMPORT_IGES
100
AcDbPolyline
 62
7
  6
CONTINUOUS
 90
13
 70
0
 10
1.7325242516
 20
-4.3260099411
 10
1.7462921189
 20
-4.341267374
 10
1.7590885871
 20
-4.357020224
 10
1.7709136561
 20
-4.3732684912
 10
1.7819564408
 20
-4.389961178
 10
1.7920278263
 20
-4.407149282
 10
1.8005604685
 20
-4.4249857952
 10
1.8072171937
 20
-4.4436120408
 10
1.8123351755
 20
-4.4628866956
 10
1.8163585904
 20
-4.4825387829
 10
1.8194354973
 20
-4.5024779772
 10
1.8214178373
 20
-4.5227946041
 10
1.8223056104
 20
-4.5434886634
  0
LWPOLYLINE
  5
3D4
100
AcDbEntity
  8
IMPORT_IGES
100
AcDbPolyline
 62
7
  6
CONTINUOUS
 90
13
 70
0
 10
0.2873123158
 20
-5.1580162763
 10
0.3041447454
 20
-5.177275575
 10
0.3197330566
 20
-5.1971247125
 10
0.3340772492
 20
-5.2175636886
 10
0.3473913912
 20
-5.2385389254
 10
0.3594614147
 20
-5.2601040009
 10
0.3696451166
 20
-5.2824196496
 10
0.3775356709
 20
-5.3056516948
 10
0.3835399036
 20
-5.3296343132
 10
0.3882360891
 20
-5.3540307687
 10
0.3918169858
 20
-5.3787288159
 10
0.3940898354
 20
-5.4038407002
 10
0.3950546379
 20
-5.4293664217
  0
LWPOLYLINE
  5
3D5
100
AcDbEntity
  8
IMPORT_IGES
100
AcDbPolyline
 62
7
  6
CONTINUOUS
 90
13
 70
0
 10
1.8023533048
 20
-5.1580162763
 10
1.8191857337
 20
-5.177275594
 10
1.8347740355
 20
-5.1971247483
 10
1.8491182104
 20
-5.217563739
 10
1.8624323235
 20
-5.2385389889
 10
1.8745023097
 20
-5.2601040753
 10
1.8846859731
 20
-5.2824197305
 10
1.8925764873
 20
-5.3056517784
 10
1.8985806787
 20
-5.3296343952
 10
1.9032768309
 20
-5.3540308419
 10
1.9068577051
 20
-5.378728872
 10
1.9091305401
 20
-5.4038407319
 10
1.9100953359
 20
-5.4293664217
  0
LWPOLYLINE
  5
3D6
100
AcDbEntity
  8
IMPORT_IGES
100
AcDbPolyline
 62
7
  6
CONTINUOUS
 90
10
 70
0
 10
0.5533423391
 20
-5.1101313948
 10
0.5743722426
 20
-5.1418051135
 10
0.5927493544
 20
-5.1743663913
 10
0.6084736745
 20
-5.2078152283
 10
0.6214710458
 20
-5.2422664499
 10
0.6318156254
 20
-5.2776052306
 10
0.6397298843
 20
-5.3134870943
 10
0.6452879795
 20
-5.3497972156
 10
0.6484157541
 20
-5.3866504199
 10
0.6491132081
 20
-5.4240467071
  0
LWPOLYLINE
  5
3D7
100
AcDbEntity
  8
IMPORT_IGES
100
AcDbPolyline
 62
7
  6
CONTINUOUS
 90
10
 70
0
 10
2.0683833864
 20
-5.1101313948
 10
2.0894132196
 20
-5.1418051445
 10
2.107790265
 20
-5.1743664456
 10
2.1235145226
 20
-5.2078152982
 10
2.1365118323
 20
-5.2422665277
 10
2.1468563542
 20
-5.2776053086
 10
2.1547705687
 20
-5.3134871647
 10
2.1603286358
 20
-5.3497972704
 10
2.1634563956
 20
-5.3866504512
 10
2.1641538478
 20
-5.4240467071
  0
LWPOLYLINE
  5
3D8
100
AcDbEntity
  8
IMPORT_IGES
100
AcDbPolyline
 62
7
  6
CONTINUOUS
 90
10
 70
0
 10
-1.0379872983
 20
-4.2884031355
 10
-1.0197165214
 20
-4.318854684
 10
-1.0026947804
 20
-4.3497798628
 10
-0.9869220754
 20
-4.3811786719
 10
-0.9724740392
 20
-4.4131047123
 10
-0.9592750391
 20
-4.4455043831
 10
-0.9470981759
 20
-4.478216881
 10
-0.9358678167
 20
-4.5111886047
 10
-0.9256595945
 20
-4.5444731555
 10
-0.9164735093
 20
-4.5780705333
  0
LWPOLYLINE
  5
3D9
100
AcDbEntity
  8
IMPORT_IGES
100
AcDbPolyline
 62
7
  6
CONTINUOUS
 90
10
 70
0
 10
0.4812199622
 20
-4.2975897014
 10
0.4959625314
 20
-4.323626421
 10
0.5089841612
 20
-4.3501769874
 10
0.5202848514
 20
-4.3772414006
 10
0.5298130069
 20
-4.4048793006
 10
0.5376202229
 20
-4.4330310474
 10
0.5438612855
 20
-4.4615177206
 10
0.5485877901
 20
-4.49027968
 10
0.5517481413
 20
-4.5193765658
 10
0.5533423391
 20
-4.548808378
  0
LWPOLYLINE
  5
3DA
100
AcDbEntity
  8
IMPORT_IGES
100
AcDbPolyline
 62
7
  6
CONTINUOUS
 90
10
 70
0
 10
1.9962610677
 20
-4.2975897014
 10
2.011003629
 20
-4.3236264043
 10
2.0240252568
 20
-4.3501769563
 10
2.0353259509
 20
-4.3772413574
 10
2.0448541235
 20
-4.4048792454
 10
2.0526613626
 20
-4.4330309826
 10
2.058902432
 20
-4.4615176557
 10
2.0636289197
 20
-4.4902796271
 10
2.0667892379
 20
-4.5193765345
 10
2.0683833864
 20
-4.548808378
  0
LWPOLYLINE
  5
3DB
100
AcDbEntity
  8
IMPORT_IGES
100
AcDbPolyline
 62
7
  6
CONTINUOUS
 90
10
 70
0
 10
-1.2320325477
 20
-4.3987201571
 10
-1.2001323272
 20
-4.4657747171
 10
-1.1739100739
 20
-4.5341479949
 10
-1.1533657879
 20
-4.6038399907
 10
-1.1396358032
 20
-4.6752722217
 10
-1.1315837857
 20
-4.7480231706
 10
-1.1258007333
 20
-4.8208282854
 10
-1.1211503119
 20
-4.8932660486
 10
-1.1187688555
 20
-4.9657579777
 10
-1.1186563643
 20
-5.0383040726
  0
LINE
  5
3DC
100
AcDbEntity
  8
IMPORT_IGES
100
AcDbLine
 62
253
  6
CONTINUOUS
 10
-21.7447743185
 20
51.3849793431
 11
-21.7472193377
 21
51.3911697015
  0
LWPOLYLINE
  5
3DD
100
AcDbEntity
  8
IMPORT_IGES
100
AcDbPolyline
 62
253
  6
CONTINUOUS
 90
4
 70
0
 10
18.6022310341
 20
-51.5977044355
 10
18.609319437
 20
-51.615837725
 10
18.614308963
 20
-51.6278600347
 10
18.6171770525
 20
-51.6336356468
  0
LINE
  5
3DE
100
AcDbEntity
  8
IMPORT_IGES
100
AcDbLine
 62
253
  6
CONTINUOUS
 10
18.5818238896
 20
-51.544167953
 11
18.6022310341
 21
-51.5977044355
  0
LINE
  5
3DF
100
AcDbEntity
  8
IMPORT_IGES
100
AcDbLine
 62
253
  6
CONTINUOUS
 10
-21.7330293153
 20
51.3536228871
 11
-21.7447743185
 21
51.3849793431
  0
LWPOLYLINE
  5
3E0
100
AcDbEntity
  8
IMPORT_IGES
100
AcDbPolyline
 62
253
  6
CONTINUOUS
 90
3
 70
0
 10
-21.0295994229
 20
49.4751363267
 10
-21.1149913
 20
49.7041321224
 10
-21.7330293153
 20
51.3536228871
  0
LINE
  5
3E1
100
AcDbEntity
  8
IMPORT_IGES
100
AcDbLine
 62
253
  6
CONTINUOUS
 10
18.5540789451
 20
-51.469339645
 11
18.5818238896
 21
-51.544167953
  0
LINE
  5
3E2
100
AcDbEntity
  8
IMPORT_IGES
100
AcDbLine
 62
253
  6
CONTINUOUS
 10
18.4986639699
 20
-51.3183232334
 11
18.5540789451
 21
-51.469339645
  0
LINE
  5
3E3
100
AcDbEntity
  8
IMPORT_IGES
100
AcDbLine
 62
253
  6
CONTINUOUS
 10
18.3980266868
 20
-51.040227722
 11
18.4986639699
 21
-51.3183232334
  0
LINE
  5
3E4
100
AcDbEntity
  8
IMPORT_IGES
100
AcDbLine
 62
253
  6
CONTINUOUS
 10
17.9395920838
 20
-49.7470216646
 11
18.3980266868
 21
-51.040227722
  0
LWPOLYLINE
  5
3E5
100
AcDbEntity
  8
IMPORT_IGES
100
AcDbPolyline
 62
7
  6
CONTINUOUS
 90
22
 70
0
 10
2.5724618133
 20
-10.3179378032
 10
2.6105739072
 20
-10.446607574
 10
2.6532723812
 20
-10.5685179085
 10
2.7005572354
 20
-10.6836688069
 10
2.7519823665
 20
-10.7917527586
 10
2.8079938779
 20
-10.8930772742
 10
2.8699300791
 20
-10.9885648849
 10
2.9385880046
 20
-11.0784411454
 10
3.0131706199
 20
-11.1624805011
 10
3.0926251312
 20
-11.2409288196
 10
3.1768938792
 20
-11.3138163677
 10
3.2660345231
 20
-11.3811128786
 10
3.3591672468
 20
-11.4429734188
 10
3.4560922624
 20
-11.4998742131
 10
3.5570093577
 20
-11.5513390368
 10
3.6616380809
 20
-11.5960942824
 10
3.7687944566
 20
-11.6340523977
 10
3.8796624601
 20
-11.665300935
 10
3.9975135656
 20
-11.688828944
 10
4.1234382643
 20
-11.7042994414
 10
4.2563460648
 20
-11.7120494105
 10
4.3962369673
 20
-11.7120788514
  0
LWPOLYLINE
  5
3E6
100
AcDbEntity
  8
IMPORT_IGES
100
AcDbPolyline
 62
7
  6
CONTINUOUS
 90
10
 70
0
 10
-2.4315144401
 20
-4.5780705333
 10
-2.4204155074
 20
-4.6291853145
 10
-2.4110243742
 20
-4.6803439886
 10
-2.4033410407
 20
-4.7315465556
 10
-2.3975686731
 20
-4.7828441131
 10
-2.393504105
 20
-4.8341855636
 10
-2.390537838
 20
-4.885417614
 10
-2.3884667058
 20
-4.9364891669
 10
-2.3874938747
 20
-4.9874513197
 10
-2.3876193445
 20
-5.0383040726
  0
LWPOLYLINE
  5
3E7
100
AcDbEntity
  8
IMPORT_IGES
100
AcDbPolyline
 62
7
  6
CONTINUOUS
 90
10
 70
0
 10
-0.9164735093
 20
-4.5780705333
 10
-0.9053745845
 20
-4.6291852824
 10
-0.8959834532
 20
-4.6803439319
 10
-0.8883001153
 20
-4.7315464816
 10
-0.882527727
 20
-4.7828440284
 10
-0.8784631322
 20
-4.8341854754
 10
-0.8754968619
 20
-4.8854175324
 10
-0.8734257601
 20
-4.9364891026
 10
-0.8724529828
 20
-4.9874512826
 10
-0.8725785301
 20
-5.0383040726
  0
LWPOLYLINE
  5
3E8
100
AcDbEntity
  8
IMPORT_IGES
100
AcDbPolyline
 62
7
  6
CONTINUOUS
 90
10
 70
0
 10
-0.3884038306
 20
-5.453308028
 10
-0.3794048638
 20
-5.4951875387
 10
-0.3687629141
 20
-5.5348753252
 10
-0.3564779816
 20
-5.5723713875
 10
-0.3425325705
 20
-5.6078257268
 10
-0.3269441765
 20
-5.6410883419
 10
-0.3097652866
 20
-5.6717092291
 10
-0.2910133964
 20
-5.6995383872
 10
-0.2706710102
 20
-5.7247258175
 10
-0.248738128
 20
-5.7472715199
  0
LWPOLYLINE
  5
3E9
100
AcDbEntity
  8
IMPORT_IGES
100
AcDbPolyline
 62
7
  6
CONTINUOUS
 90
10
 70
0
 10
1.1266371002
 20
-5.453308028
 10
1.1356360329
 20
-5.4951875461
 10
1.1462779631
 20
-5.5348753359
 10
1.1585628906
 20
-5.5723713974
 10
1.1725083159
 20
-5.6078257287
 10
1.1880967387
 20
-5.6410883316
 10
1.2052756577
 20
-5.6717092117
 10
1.2240275723
 20
-5.6995383707
 10
1.2443699832
 20
-5.7247258067
 10
1.2663028901
 20
-5.7472715199
  0
LWPOLYLINE
  5
3EA
100
AcDbEntity
  8
IMPORT_IGES
100
AcDbPolyline
 62
7
  6
CONTINUOUS
 90
13
 70
0
 10
-0.6278307992
 20
-5.4852337658
 10
-0.6223598042
 20
-5.5229182807
 10
-0.6152421979
 20
-5.5600313369
 10
-0.6064779802
 20
-5.5965729343
 10
-0.596336284
 20
-5.6327629215
 10
-0.5845479765
 20
-5.6683814499
 10
-0.570305659
 20
-5.7027689741
 10
-0.5532073217
 20
-5.7357033669
 10
-0.5336549744
 20
-5.7674067555
 10
-0.5120472476
 20
-5.7978859762
 10
-0.4885170184
 20
-5.8271433079
 10
-0.4629314097
 20
-5.8551764717
 10
-0.4352904216
 20
-5.8819854677
  0
LWPOLYLINE
  5
3EB
100
AcDbEntity
  8
IMPORT_IGES
100
AcDbPolyline
 62
7
  6
CONTINUOUS
 90
13
 70
0
 10
0.8872098406
 20
-5.4852337658
 10
0.8926808505
 20
-5.5229183131
 10
0.8997984792
 20
-5.5600313924
 10
0.9085627268
 20
-5.5965730039
 10
0.9187044619
 20
-5.6327629943
 10
0.9304928159
 20
-5.6683815168
 10
0.9447351823
 20
-5.7027690311
 10
0.9618335751
 20
-5.7357034089
 10
0.9813859804
 20
-5.7674067784
 10
1.0029937499
 20
-5.7978859846
 10
1.0265240011
 20
-5.827143309
 10
1.0521096167
 20
-5.85517647
 10
1.0797505965
 20
-5.8819854677
  0
LWPOLYLINE
  5
3EC
100
AcDbEntity
  8
IMPORT_IGES
100
AcDbPolyline
 62
7
  6
CONTINUOUS
 90
10
 70
0
 10
2.3703274783
 20
-6.0000018298
 10
2.3699000714
 20
-5.9808999999
 10
2.3703679901
 20
-5.9619294681
 10
2.3717312343
 20
-5.9430902347
 10
2.3740454581
 20
-5.9243632762
 10
2.3772550075
 20
-5.9057676161
 10
2.3811929197
 20
-5.887360324
 10
2.3858035408
 20
-5.8691604232
 10
2.3911425247
 20
-5.8511488904
 10
2.3972098716
 20
-5.8333257258
  0
LINE
  5
3ED
100
AcDbEntity
  8
IMPORT_IGES
100
AcDbLine
 62
7
  6
CONTINUOUS
 10
0.9440585504
 20
-45.8801051454
 11
0.9440585504
 21
-44.45
  0
LINE
  5
3EE
100
AcDbEntity
  8
IMPORT_IGES
100
AcDbLine
 62
7
  6
CONTINUOUS
 10
0.9440585504
 20
-28.3801051454
 11
0.9440585504
 21
-15.9919710042
  0
LINE
  5
3EF
100
AcDbEntity
  8
IMPORT_IGES
100
AcDbLine
 62
7
  6
CONTINUOUS
 10
1.0
 20
-45.95
 11
1.0
 21
-33.45
  0
LINE
  5
3F0
100
AcDbEntity
  8
IMPORT_IGES
100
AcDbLine
 62
7
  6
CONTINUOUS
 10
1.0
 20
-28.45
 11
1.0
 21
-15.95
  0
LINE
  5
3F1
100
AcDbEntity
  8
IMPORT_IGES
100
AcDbLine
 62
7
  6
CONTINUOUS
 10
1.1118839641
 20
-15.8660571924
 11
1.1118839641
 21
-28.5897910398
  0
LINE
  5
3F2
100
AcDbEntity
  8
IMPORT_IGES
100
AcDbLine
 62
7
  6
CONTINUOUS
 10
1.1118839641
 20
-33.3660571924
 11
1.1118839641
 21
-46.0897910398
  0
LINE
  5
3F3
100
AcDbEntity
  8
IMPORT_IGES
100
AcDbLine
 62
7
  6
CONTINUOUS
 10
1.5
 20
19.2271243445
 11
1.5
 21
19.2598997395
  0
LINE
  5
3F4
100
AcDbEntity
  8
IMPORT_IGES
100
AcDbLine
 62
7
  6
CONTINUOUS
 10
1.5
 20
21.8400869307
 11
1.5
 21
21.8728756555
  0
LINE
  5
3F5
100
AcDbEntity
  8
IMPORT_IGES
100
AcDbLine
 62
7
  6
CONTINUOUS
 10
1.5
 20
28.7271243445
 11
1.5
 21
28.7596986003
  0
LINE
  5
3F6
100
AcDbEntity
  8
IMPORT_IGES
100
AcDbLine
 62
7
  6
CONTINUOUS
 10
1.5
 20
31.3403013997
 11
1.5
 21
31.3728756555
  0
LINE
  5
3F7
100
AcDbEntity
  8
IMPORT_IGES
100
AcDbLine
 62
7
  6
CONTINUOUS
 10
1.5
 20
38.2271243445
 11
1.5
 21
38.259907768
  0
LINE
  5
3F8
100
AcDbEntity
  8
IMPORT_IGES
100
AcDbLine
 62
7
  6
CONTINUOUS
 10
1.5
 20
40.8400931964
 11
1.5
 21
40.8728756555
  0
LINE
  5
3F9
100
AcDbEntity
  8
IMPORT_IGES
100
AcDbLine
 62
7
  6
CONTINUOUS
 10
2.8881160359
 20
-46.0897910398
 11
2.8881160359
 21
-33.3660571924
  0
LINE
  5
3FA
100
AcDbEntity
  8
IMPORT_IGES
100
AcDbLine
 62
7
  6
CONTINUOUS
 10
2.8881160359
 20
-28.5897910398
 11
2.8881160359
 21
-15.8660571924
  0
LINE
  5
3FB
100
AcDbEntity
  8
IMPORT_IGES
100
AcDbLine
 62
7
  6
CONTINUOUS
 10
3.0
 20
-15.95
 11
3.0
 21
-28.45
  0
LINE
  5
3FC
100
AcDbEntity
  8
IMPORT_IGES
100
AcDbLine
 62
7
  6
CONTINUOUS
 10
3.0
 20
-33.45
 11
3.0
 21
-45.95
  0
LINE
  5
3FD
100
AcDbEntity
  8
IMPORT_IGES
100
AcDbLine
 62
7
  6
CONTINUOUS
 10
3.0559414496
 20
-15.9919710042
 11
3.0559414496
 21
-28.3801051454
  0
LINE
  5
3FE
100
AcDbEntity
  8
IMPORT_IGES
100
AcDbLine
 62
7
  6
CONTINUOUS
 10
3.0559414496
 20
-33.4919710042
 11
3.0559414496
 21
-45.8801051454
  0
LINE
  5
3FF
100
AcDbEntity
  8
IMPORT_IGES
100
AcDbLine
 62
7
  6
CONTINUOUS
 10
3.6592425313
 20
-5.7698831975
 11
3.6592425313
 21
-6.0000018298
  0
LINE
  5
400
100
AcDbEntity
  8
IMPORT_IGES
100
AcDbLine
 62
7
  6
CONTINUOUS
 10
4.0041329339
 20
-10.3179375251
 11
4.0041329339
 21
-9.5827403088
  0
LWPOLYLINE
  5
401
100
AcDbEntity
  8
IMPORT_IGES
100
AcDbPolyline
 62
7
  6
CONTINUOUS
 90
10
 70
0
 10
3.6565824412
 20
-4.5833902478
 10
3.655850877
 20
-4.6100311884
 10
3.653930454
 20
-4.636413818
 10
3.6508211722
 20
-4.6625381368
 10
3.646458707
 20
-4.6884134061
 10
3.6409073829
 20
-4.7140303645
 10
3.6343601738
 20
-4.7393612278
 10
3.6268814045
 20
-4.7643967347
 10
3.6184067503
 20
-4.7891461464
 10
3.6089362111
 20
-4.813609463
  0
LWPOLYLINE
  5
402
100
AcDbEntity
  8
IMPORT_IGES
100
AcDbPolyline
 62
7
  6
CONTINUOUS
 90
13
 70
0
 10
0.6491132081
 20
-5.4240467071
 10
0.6477655634
 20
-5.4656743929
 10
0.6438280738
 20
-5.5064418675
 10
0.6373007393
 20
-5.5463491309
 10
0.6282911261
 20
-5.585525987
 10
0.6166916679
 20
-5.6238426318
 10
0.6021796661
 20
-5.6609096539
 10
0.5843039791
 20
-5.6965582941
 10
0.5635157483
 20
-5.7309573115
 10
0.5408457004
 20
-5.7642235715
 10
0.5166374105
 20
-5.7963960292
 10
0.4905473034
 20
-5.8274357295
 10
0.4625753791
 20
-5.8573426723
  0
LWPOLYLINE
  5
403
100
AcDbEntity
  8
IMPORT_IGES
100
AcDbPolyline
 62
7
  6
CONTINUOUS
 90
13
 70
0
 10
2.1641538478
 20
-5.4240467071
 10
2.1628062441
 20
-5.4656743789
 10
2.1588687952
 20
-5.5064418424
 10
2.1523415013
 20
-5.5463490977
 10
2.143331929
 20
-5.5855259488
 10
2.1317325117
 20
-5.6238425916
 10
2.1172205493
 20
-5.6609096141
 10
2.0993448999
 20
-5.6965582574
 10
2.0785567054
 20
-5.7309572802
 10
2.0558866912
 20
-5.7642235468
 10
2.0316784323
 20
-5.7963960116
 10
2.0055883537
 20
-5.8274357202
 10
1.9776164554
 20
-5.8573426723
  0
LWPOLYLINE
  5
404
100
AcDbEntity
  8
IMPORT_IGES
100
AcDbPolyline
 62
7
  6
CONTINUOUS
 90
10
 70
0
 10
0.5533423391
 20
-4.548808378
 10
0.5523735507
 20
-4.5763973198
 10
0.5497004526
 20
-4.6034897962
 10
0.545323045
 20
-4.630085807
 10
0.5391584888
 20
-4.6561969379
 10
0.5312896231
 20
-4.6818116033
 10
0.5219649642
 20
-4.7068950463
 10
0.5112673509
 20
-4.7314356815
 10
0.4991139443
 20
-4.7554450944
 10
0.4855047446
 20
-4.778923285
  0
LWPOLYLINE
  5
405
100
AcDbEntity
  8
IMPORT_IGES
100
AcDbPolyline
 62
7
  6
CONTINUOUS
 90
10
 70
0
 10
2.0683833864
 20
-4.548808378
 10
2.0674146146
 20
-4.5763973079
 10
2.0647415326
 20
-4.6034897772
 10
2.0603641401
 20
-4.630085786
 10
2.0541996095
 20
-4.6561969225
 10
2.0463307685
 20
-4.6818115984
 10
2.0370061004
 20
-4.7068950491
 10
2.0263084331
 20
-4.7314356863
 10
2.0141549387
 20
-4.7554450983
 10
2.0005456172
 20
-4.778923285
  0
LWPOLYLINE
  5
406
100
AcDbEntity
  8
IMPORT_IGES
100
AcDbPolyline
 62
7
  6
CONTINUOUS
 90
13
 70
0
 10
2.6616300456
 20
-4.6312780201
 10
2.6626222435
 20
-4.605147386
 10
2.664743846
 20
-4.5791743945
 10
2.6679948533
 20
-4.5533590458
 10
2.6721312053
 20
-4.5275260557
 10
2.6773969621
 20
-4.5018507083
 10
2.6845243034
 20
-4.4768588561
 10
2.693799285
 20
-4.4526645614
 10
2.7049358512
 20
-4.4291537618
 10
2.7178080148
 20
-4.4065101234
 10
2.7323737801
 20
-4.3847948679
 10
2.7486751429
 20
-4.3639467736
 10
2.766712103
 20
-4.3439658403
  0
LWPOLYLINE
  5
407
100
AcDbEntity
  8
IMPORT_IGES
100
AcDbPolyline
 62
7
  6
CONTINUOUS
 90
13
 70
0
 10
0.3950546379
 20
-5.4293664217
 10
0.3936602318
 20
-5.4564084168
 10
0.3909608307
 20
-5.4830772163
 10
0.3869564349
 20
-5.5093728202
 10
0.381882907
 20
-5.5354275555
 10
0.3755043843
 20
-5.5611090952
 10
0.367113278
 20
-5.5860204589
 10
0.3562793827
 20
-5.6099867321
 10
0.3434329039
 20
-5.6331828293
 10
0.3291568688
 20
-5.6557365128
 10
0.3136456199
 20
-5.6776903702
 10
0.2967048148
 20
-5.699001814
 10
0.2783344535
 20
-5.7196708441
  0
LWPOLYLINE
  5
408
100
AcDbEntity
  8
IMPORT_IGES
100
AcDbPolyline
 62
7
  6
CONTINUOUS
 90
13
 70
0
 10
1.9100953359
 20
-5.4293664217
 10
1.9087009223
 20
-5.4564083558
 10
1.9060015275
 20
-5.4830771079
 10
1.9019971515
 20
-5.5093726779
 10
1.8969236599
 20
-5.535427394
 10
1.8905451871
 20
-5.561108928
 10
1.8821541363
 20
-5.5860202957
 10
1.8713203052
 20
-5.6099865839
 10
1.8584738962
 20
-5.6331827059
 10
1.844197919
 20
-5.6557364173
 10
1.8286867102
 20
-5.6776903034
 10
1.8117459332
 20
-5.699001779
 10
1.793375588
 20
-5.7196708441
  0
LWPOLYLINE
  5
409
100
AcDbEntity
  8
IMPORT_IGES
100
AcDbPolyline
 62
253
  6
CONTINUOUS
 90
19
 70
0
 10
5.5895130591
 20
16.4334565279
 10
5.5840547017
 20
16.3658014606
 10
5.5742331612
 20
16.299293279
 10
5.5600484379
 20
16.233931983
 10
5.5413933174
 20
16.169441883
 10
5.5183750141
 20
16.1060986685
 10
5.49131517
 20
16.0447294089
 10
5.4601655237
 20
15.9853605904
 10
5.4249743368
 20
15.9279657268
 10
5.3862080356
 20
15.8732924282
 10
5.3438233099
 20
15.8213736472
 10
5.2978634699
 20
15.7721764313
 10
5.2489248735
 20
15.7263495331
 10
5.1969691179
 20
15.6839324064
 10
5.1420346058
 20
15.6448855975
 10
5.0848329027
 20
15.6097394976
 10
5.0256011973
 20
15.5786709038
 10
4.964102301
 20
15.5515030191
 10
4.9003362138
 20
15.5282358434
  0
LWPOLYLINE
  5
40A
100
AcDbEntity
  8
IMPORT_IGES
100
AcDbPolyline
 62
7
  6
CONTINUOUS
 90
13
 70
0
 10
3.4105044324
 20
-4.5780705333
 10
3.4075409085
 20
-4.6045368248
 10
3.403582524
 20
-4.6306361805
 10
3.3986292789
 20
-4.6563686004
 10
3.3928834747
 20
-4.681817044
 10
3.38614281
 20
-4.7068985517
 10
3.3778003796
 20
-4.731364245
 10
3.3674362107
 20
-4.7550576484
 10
3.3554702761
 20
-4.7781352373
 10
3.3425555898
 20
-4.8008175598
 10
3.3289098228
 20
-4.8231781317
 10
3.314315304
 20
-4.8451434372
 10
3.2987720333
 20
-4.8667134762
  0
LWPOLYLINE
  5
40B
100
AcDbEntity
  8
IMPORT_IGES
100
AcDbPolyline
 62
7
  6
CONTINUOUS
 90
13
 70
0
 10
2.4155527353
 20
-4.6060019255
 10
2.4199790984
 20
-4.5669847505
 10
2.4261392897
 20
-4.5283646295
 10
2.4340333093
 20
-4.4901415624
 10
2.4433655736
 20
-4.4520514617
 10
2.4544316661
 20
-4.4143584148
 10
2.4681183376
 20
-4.3778546843
 10
2.484779214
 20
-4.3427567957
 10
2.5040606693
 20
-4.3088482234
 10
2.5257885766
 20
-4.2762716525
 10
2.5499048933
 20
-4.2450746447
 10
2.5764676619
 20
-4.2152096383
 10
2.6054768823
 20
-4.1866766333
  0
LINE
  5
40C
100
AcDbEntity
  8
IMPORT_IGES
100
AcDbLine
 62
7
  6
CONTINUOUS
 10
1.3594131451
 20
-5.0768748939
 11
1.3860171894
 21
-4.8667126417
  0
LWPOLYLINE
  5
40D
100
AcDbEntity
  8
IMPORT_IGES
100
AcDbPolyline
 62
7
  6
CONTINUOUS
 90
10
 70
0
 10
-0.9436748805
 20
-5.5927762806
 10
-0.9583169035
 20
-5.6346402962
 10
-0.975208161
 20
-5.6751185241
 10
-0.994348653
 20
-5.7142109645
 10
-1.015807089
 20
-5.7519473192
 10
-1.0395147594
 20
-5.7882978863
 10
-1.065265536
 20
-5.8231735601
 10
-1.0929907094
 20
-5.8565446388
 10
-1.1227589889
 20
-5.8884408242
 10
-1.1545703746
 20
-5.9188621163
  0
LINE
  5
40E
100
AcDbEntity
  8
IMPORT_IGES
100
AcDbLine
 62
253
  6
CONTINUOUS
 10
21.6261652991
 20
51.0697994932
 11
21.029581916
 21
49.4751388445
  0
LINE
  5
40F
100
AcDbEntity
  8
IMPORT_IGES
100
AcDbLine
 62
253
  6
CONTINUOUS
 10
21.7472193576
 20
51.3911696985
 11
21.6261652991
 21
51.0697994932
  0
LWPOLYLINE
  5
410
100
AcDbEntity
  8
IMPORT_IGES
100
AcDbPolyline
 62
7
  6
CONTINUOUS
 90
13
 70
0
 10
-1.7740279436
 20
-4.3801533103
 10
-1.759011521
 20
-4.3596225716
 10
-1.7425969575
 20
-4.3404241987
 10
-1.7247842532
 20
-4.3225581915
 10
-1.7054955488
 20
-4.3057754611
 10
-1.6848087035
 20
-4.2903250964
 10
-1.6629572948
 20
-4.2769543642
 10
-1.6399010211
 20
-4.265974724
 10
-1.615680184
 20
-4.2570747163
 10
-1.5906492656
 20
-4.2500672293
 10
-1.5649264266
 20
-4.2448898923
 10
-1.5383935063
 20
-4.2416050759
 10
-1.5110505046
 20
-4.2402127802
  0
LWPOLYLINE
  5
411
100
AcDbEntity
  8
IMPORT_IGES
100
AcDbPolyline
 62
7
  6
CONTINUOUS
 90
10
 70
0
 10
0.4855047446
 20
-4.778923285
 10
0.4677484895
 20
-4.8031170022
 10
0.4487659052
 20
-4.8257876004
 10
0.4285569916
 20
-4.8469350796
 10
0.4070068855
 20
-4.8664842626
 10
0.3842304502
 20
-4.8845103265
 10
0.3605722755
 20
-4.901238803
 10
0.3361472248
 20
-4.916744869
 10
0.3108404348
 20
-4.9309533474
 10
0.2846519055
 20
-4.9438642382
  0
LWPOLYLINE
  5
412
100
AcDbEntity
  8
IMPORT_IGES
100
AcDbPolyline
 62
7
  6
CONTINUOUS
 90
13
 70
0
 10
-2.7467599139
 20
-5.6767741263
 10
-2.7640039177
 20
-5.698667786
 10
-2.7821983442
 20
-5.7194921606
 10
-2.8013431934
 20
-5.7392472502
 10
-2.8213048127
 20
-5.7583138451
 10
-2.8422168547
 20
-5.776311155
 10
-2.8644802768
 20
-5.7920968085
 10
-2.8883698624
 20
-5.8053525917
 10
-2.9136108281
 20
-5.8163967185
 10
-2.939779781
 20
-5.8250414597
 10
-2.9667355903
 20
-5.8312242387
 10
-2.9946193869
 20
-5.835007632
 10
-3.0234311707
 20
-5.8363916397
  0
LWPOLYLINE
  5
413
100
AcDbEntity
  8
IMPORT_IGES
100
AcDbPolyline
 62
7
  6
CONTINUOUS
 90
13
 70
0
 10
-1.2317191577
 20
-5.6767741263
 10
-1.2489631317
 20
-5.6986678237
 10
-1.2671575331
 20
-5.719492226
 10
-1.2863023619
 20
-5.7392473333
 10
-1.3062639656
 20
-5.7583139357
 10
-1.3271759967
 20
-5.776311243
 10
-1.3494394132
 20
-5.7920968845
 10
-1.3733290019
 20
-5.8053526394
 10
-1.398569976
 20
-5.8163967286
 10
-1.4247389329
 20
-5.825041444
 10
-1.4516947385
 20
-5.8312242163
 10
-1.4795785269
 20
-5.8350076149
 10
-1.5083902981
 20
-5.8363916397
  0
LWPOLYLINE
  5
414
100
AcDbEntity
  8
IMPORT_IGES
100
AcDbPolyline
 62
7
  6
CONTINUOUS
 90
10
 70
0
 10
-0.2450627508
 20
-4.3263414919
 10
-0.2675469117
 20
-4.3516330073
 10
-0.2876265388
 20
-4.3780403033
 10
-0.3053016321
 20
-4.40556338
 10
-0.3204387045
 20
-4.4343537356
 10
-0.333171243
 20
-4.4642598718
 10
-0.3438997085
 20
-4.494827294
 10
-0.352757588
 20
-4.525904504
 10
-0.3596113945
 20
-4.5576429999
 10
-0.3644611279
 20
-4.5900427818
  0
LWPOLYLINE
  5
415
100
AcDbEntity
  8
IMPORT_IGES
100
AcDbPolyline
 62
7
  6
CONTINUOUS
 90
10
 70
0
 10
1.2699782383
 20
-4.3263414919
 10
1.2474940866
 20
-4.3516330043
 10
1.2274144614
 20
-4.3780402967
 10
1.2097393627
 20
-4.4055633692
 10
1.194602274
 20
-4.4343537183
 10
1.1818697118
 20
-4.4642598474
 10
1.1711412257
 20
-4.4948272672
 10
1.1622833323
 20
-4.5259044813
 10
1.155429515
 20
-4.5576429862
 10
1.1505797738
 20
-4.5900427818
  0
LWPOLYLINE
  5
416
100
AcDbEntity
  8
IMPORT_IGES
100
AcDbPolyline
 62
7
  6
CONTINUOUS
 90
13
 70
0
 10
-6.6019780934
 20
-9.9114262581
 10
-6.5773352802
 20
-9.885475267
 10
-6.5513898471
 20
-9.8617846252
 10
-6.5241417939
 20
-9.8403543326
 10
-6.4955257278
 20
-9.8210623838
 10
-6.4656070416
 20
-9.8040307842
 10
-6.4345819142
 20
-9.78962555
 10
-6.402270989
 20
-9.7782379557
 10
-6.3688536225
 20
-9.7694767269
 10
-6.3350640621
 20
-9.7625340555
 10
-6.301147057
 20
-9.7571406725
 10
-6.266857858
 20
-9.753565847
 10
-6.2321964651
 20
-9.7518095791
  0
LWPOLYLINE
  5
417
100
AcDbEntity
  8
IMPORT_IGES
100
AcDbPolyline
 62
7
  6
CONTINUOUS
 90
13
 70
0
 10
-0.40436571
 20
-4.1750351012
 10
-0.4297238921
 20
-4.2011646074
 10
-0.4537780687
 20
-4.2280719236
 10
-0.47652824
 20
-4.2557570496
 10
-0.4982909451
 20
-4.2840761579
 10
-0.5187496448
 20
-4.3131730761
 10
-0.5369547214
 20
-4.3434792874
 10
-0.5523330268
 20
-4.3752903626
 10
-0.5654577092
 20
-4.408310731
 10
-0.5770985951
 20
-4.4420851633
 10
-0.5875122933
 20
-4.4764619165
 10
-0.596442195
 20
-4.5115927337
 10
-0.6038883002
 20
-4.5474776149
  0
LWPOLYLINE
  5
418
100
AcDbEntity
  8
IMPORT_IGES
100
AcDbPolyline
 62
7
  6
CONTINUOUS
 90
13
 70
0
 10
1.1106751626
 20
-4.1750351012
 10
1.085316969
 20
-4.201164627
 10
1.0612627867
 20
-4.2280719599
 10
1.0385126158
 20
-4.2557571001
 10
1.016749919
 20
-4.2840762197
 10
0.9962912335
 20
-4.3131731466
 10
0.9780861709
 20
-4.3434793635
 10
0.9627078804
 20
-4.3752904429
 10
0.9495832127
 20
-4.4083108124
 10
0.9379423317
 20
-4.4420852377
 10
0.9275286252
 20
-4.4764619742
 10
0.9185987055
 20
-4.5115927666
 10
0.9111525724
 20
-4.5474776149
  0
LWPOLYLINE
  5
419
100
AcDbEntity
  8
IMPORT_IGES
100
AcDbPolyline
 62
7
  6
CONTINUOUS
 90
10
 70
0
 10
-5.2412347868
 20
-10.0298085332
 10
-5.2584236875
 20
-10.0456315061
 10
-5.2761402882
 20
-10.060713804
 10
-5.2943845888
 20
-10.0750554269
 10
-5.3131854109
 20
-10.0886569482
 10
-5.3325139329
 20
-10.1015177944
 10
-5.3522836907
 20
-10.1136362458
 10
-5.372465863
 20
-10.125011729
 10
-5.393089271
 20
-10.1356448173
 10
-5.4141539149
 20
-10.1455355108
  0
LWPOLYLINE
  5
41A
100
AcDbEntity
  8
IMPORT_IGES
100
AcDbPolyline
 62
7
  6
CONTINUOUS
 90
13
 70
0
 10
-10.582805287
 20
-10.6146429799
 10
-10.6028673236
 20
-10.6325089207
 10
-10.6235683673
 20
-10.6491139639
 10
-10.6449084181
 20
-10.6644581096
 10
-10.666823624
 20
-10.6787830732
 10
-10.6893778371
 20
-10.6918471393
 10
-10.7127626135
 20
-10.7029251613
 10
-10.7371568159
 20
-10.7115855092
 10
-10.7623815817
 20
-10.7182598132
 10
-10.7880918787
 20
-10.7235178174
 10
-10.8141726965
 20
-10.7275494365
 10
-10.8407390457
 20
-10.7301647559
 10
-10.8677909262
 20
-10.7313637755
  0
LWPOLYLINE
  5
41B
100
AcDbEntity
  8
IMPORT_IGES
100
AcDbPolyline
 62
7
  6
CONTINUOUS
 90
13
 70
0
 10
-10.3985644196
 20
-10.7523148082
 10
-10.431905966
 20
-10.7815531169
 10
-10.4664460696
 20
-10.8081604355
 10
-10.5021847305
 20
-10.8321367638
 10
-10.5391511419
 20
-10.8535866331
 10
-10.5773161106
 20
-10.8724055123
 10
-10.6165920569
 20
-10.8882798075
 10
-10.657182459
 20
-10.9007903751
 10
-10.6988838388
 20
-10.9103563587
 10
-10.7409981814
 20
-10.9179215963
 10
-10.7832928152
 20
-10.9238007003
 10
-10.8260004118
 20
-10.9276790582
 10
-10.8691209712
 20
-10.92955667
  0
LWPOLYLINE
  5
41C
100
AcDbEntity
  8
IMPORT_IGES
100
AcDbPolyline
 62
7
  6
CONTINUOUS
 90
13
 70
0
 10
-0.2450627508
 20
-4.3263414919
 10
-0.2281630487
 20
-4.3125052299
 10
-0.2107992672
 20
-4.2997562221
 10
-0.1929714063
 20
-4.2880944686
 10
-0.174706262
 20
-4.2773811476
 10
-0.1559770382
 20
-4.2677550808
 10
-0.1367033474
 20
-4.2596327333
 10
-0.1167656244
 20
-4.2533168838
 10
-0.0962834344
 20
-4.2485047536
 10
-0.075535085
 20
-4.2447044723
 10
-0.0546133454
 20
-4.2417520832
 10
-0.0334254463
 20
-4.2398115429
 10
-0.0119713877
 20
-4.2388828516
  0
LWPOLYLINE
  5
41D
100
AcDbEntity
  8
IMPORT_IGES
100
AcDbPolyline
 62
7
  6
CONTINUOUS
 90
13
 70
0
 10
1.2699782383
 20
-4.3263414919
 10
1.2868779321
 20
-4.3125052103
 10
1.3042417066
 20
-4.2997561879
 10
1.3220695616
 20
-4.2880944247
 10
1.3403347015
 20
-4.2773810997
 10
1.3590639221
 20
-4.2677550339
 10
1.3783376098
 20
-4.2596326901
 10
1.3982753302
 20
-4.2533168471
 10
1.4187575177
 20
-4.2485047261
 10
1.4395058629
 20
-4.2447044534
 10
1.4604275961
 20
-4.2417520711
 10
1.4816154871
 20
-4.2398115372
 10
1.5030695358
 20
-4.2388828516
  0
LWPOLYLINE
  5
41E
100
AcDbEntity
  8
IMPORT_IGES
100
AcDbPolyline
 62
7
  6
CONTINUOUS
 90
10
 70
0
 10
-2.6696112473
 20
-5.9188621163
 10
-2.7043875571
 20
-5.9449032089
 10
-2.7404972054
 20
-5.9674055952
 10
-2.7779401921
 20
-5.9863692753
 10
-2.8169819635
 20
-6.0015195795
 10
-2.8573570734
 20
-6.0131311775
 10
-2.8982691829
 20
-6.0220280782
 10
-2.9394528458
 20
-6.0284849512
 10
-2.9811735084
 20
-6.032227127
 10
-3.0234311707
 20
-6.0332546055
  0
LWPOLYLINE
  5
41F
100
AcDbEntity
  8
IMPORT_IGES
100
AcDbPolyline
 62
7
  6
CONTINUOUS
 90
10
 70
0
 10
-8.9470325038
 20
-10.843863529
 10
-8.9818093301
 20
-10.8699048473
 10
-9.0179194521
 20
-10.8924071842
 10
-9.0553628698
 20
-10.9113705397
 10
-9.0944051188
 20
-10.9265199524
 10
-9.1347806636
 20
-10.9381303837
 10
-9.1756928973
 20
-10.9470267175
 10
-9.2168762845
 20
-10.9534839151
 10
-9.2585963606
 20
-10.9572270154
 10
-9.3008531258
 20
-10.9582560181
  0
LWPOLYLINE
  5
420
100
AcDbEntity
  8
IMPORT_IGES
100
AcDbPolyline
 62
7
  6
CONTINUOUS
 90
10
 70
0
 10
-1.1545703746
 20
-5.9188621163
 10
-1.1893466894
 20
-5.9449031784
 10
-1.2254563395
 20
-5.9674055457
 10
-1.2628993248
 20
-5.986369218
 10
-1.3019410891
 20
-6.0015195307
 10
-1.3423161886
 20
-6.0131311485
 10
-1.3832282923
 20
-6.0220280655
 10
-1.4244119567
 20
-6.0284849463
 10
-1.4661326253
 20
-6.0322271263
 10
-1.5083902981
 20
-6.0332546055
  0
LWPOLYLINE
  5
421
100
AcDbEntity
  8
IMPORT_IGES
100
AcDbPolyline
 62
7
  6
CONTINUOUS
 90
10
 70
0
 10
-3.3769239672
 20
-4.156810981
 10
-3.3421247856
 20
-4.1311287102
 10
-3.3060247848
 20
-4.1088537816
 10
-3.2686239646
 20
-4.0899861954
 10
-3.229680498
 20
-4.0747598396
 10
-3.1894362121
 20
-4.062940826
 10
-3.1486165883
 20
-4.0538274903
 10
-3.1074634537
 20
-4.0471859443
 10
-3.0657349812
 20
-4.0432500761
 10
-3.0234311707
 20
-4.0420198858
  0
LWPOLYLINE
  5
422
100
AcDbEntity
  8
IMPORT_IGES
100
AcDbPolyline
 62
7
  6
CONTINUOUS
 90
10
 70
0
 10
-1.8618830945
 20
-4.156810981
 10
-1.8270839098
 20
-4.131128741
 10
-1.7909839087
 20
-4.1088538311
 10
-1.7535830911
 20
-4.0899862515
 10
-1.7146396328
 20
-4.0747598843
 10
-1.6743953581
 20
-4.0629408473
 10
-1.63357574
 20
-4.0538274937
 10
-1.5924226028
 20
-4.047185941
 10
-1.5506941221
 20
-4.0432500717
 10
-1.5083902981
 20
-4.0420198858
  0
LWPOLYLINE
  5
423
100
AcDbEntity
  8
IMPORT_IGES
100
AcDbPolyline
 62
7
  6
CONTINUOUS
 90
10
 70
0
 10
-9.6543459222
 20
-9.0818086684
 10
-9.6195466764
 20
-9.0561285276
 10
-9.5834467672
 20
-9.0338549675
 10
-9.5460461945
 20
-9.014987988
 10
-9.5071033178
 20
-8.9997610337
 10
-9.4668597777
 20
-8.98794066
 10
-9.4260404962
 20
-8.9788265331
 10
-9.3848871141
 20
-8.9721852081
 10
-9.3431579906
 20
-8.9682501299
 10
-9.3008531258
 20
-8.9670212984
  0
LWPOLYLINE
  5
424
100
AcDbEntity
  8
IMPORT_IGES
100
AcDbPolyline
 62
7
  6
CONTINUOUS
 90
13
 70
0
 10
-10.6764462794
 20
-9.6842331014
 10
-10.6563441763
 20
-9.6694806373
 10
-10.637985821
 20
-9.6535128571
 10
-10.6213712136
 20
-9.6363297608
 10
-10.6063888116
 20
-9.6178627946
 10
-10.5931501575
 20
-9.5981805123
 10
-10.5819898787
 20
-9.5774885751
 10
-10.5732220389
 20
-9.5556364526
 10
-10.5665325744
 20
-9.5327746753
 10
-10.5613139212
 20
-9.509560496
 10
-10.5573635578
 20
-9.4862129991
 10
-10.5548840056
 20
-9.4625131001
 10
-10.5538752646
 20
-9.4384607992
  0
LWPOLYLINE
  5
425
100
AcDbEntity
  8
IMPORT_IGES
100
AcDbPolyline
 62
7
  6
CONTINUOUS
 90
13
 70
0
 10
0.1846936066
 20
-4.7892609656
 10
0.2047956893
 20
-4.7745084783
 10
0.2231540205
 20
-4.7585406776
 10
0.2397686002
 20
-4.7413575635
 10
0.2547509672
 20
-4.7228905814
 10
0.2679895826
 20
-4.7032082858
 10
0.2791498305
 20
-4.682516341
 10
0.2879176483
 20
-4.6606642164
 10
0.2946070984
 20
-4.6378024425
 10
0.2998257521
 20
-4.6145882747
 10
0.3037761329
 20
-4.5912407982
 10
0.3062557172
 20
-4.5675409278
 10
0.307264505
 20
-4.5434886634
  0
LWPOLYLINE
  5
426
100
AcDbEntity
  8
0
100
AcDbPolyline
 62
253
  6
CONTINUOUS
 90
13
 70
0
 10
-13.2391304348
 20
11.1650035476
 10
-13.2312195996
 20
11.1609060003
 10
-13.2231148261
 20
11.1575401634
 10
-13.2148021522
 20
11.1549062818
 10
-13.2061903909
 20
11.1530002777
 10
-13.197348083
 20
11.1518282815
 10
-13.1885050481
 20
11.1514143015
 10
-13.1796665745
 20
11.1518005997
 10
-13.1708195758
 20
11.1529684668
 10
-13.1621725736
 20
11.1548624148
 10
-13.1537983848
 20
11.1574768205
 10
-13.1456322979
 20
11.1608515889
 10
-13.1376811594
 20
11.1650035476
  0
LINE
  5
427
100
AcDbEntity
  8
0
100
AcDbLine
 62
7
  6
CONTINUOUS
 10
-14.9
 20
11.0696152423
 11
-15.449069357
 21
11.3866205834
  0
LINE
  5
428
100
AcDbEntity
  8
0
100
AcDbLine
 62
7
  6
CONTINUOUS
 10
-14.8635658598
 20
11.9723404124
 11
-13.3
 21
11.0696152423
  0
LINE
  5
429
100
AcDbEntity
  8
0
100
AcDbLine
 62
253
  6
CONTINUOUS
 10
-14.8967567497
 20
12.1220345468
 11
-13.2680114048
 21
11.1818108811
  0
LINE
  5
42A
100
AcDbEntity
  8
0
100
AcDbLine
 62
253
  6
CONTINUOUS
 10
-14.9637681159
 20
10.9892882483
 11
-15.6156144091
 21
11.3656318811
  0
LINE
  5
42B
100
AcDbEntity
  8
0
100
AcDbLine
 62
253
  6
CONTINUOUS
 10
-13.2680114048
 20
11.1818108811
 11
-13.2391304348
 21
11.1650035476
  0
LWPOLYLINE
  5
42C
100
AcDbEntity
  8
0
100
AcDbPolyline
 62
253
  6
CONTINUOUS
 90
13
 70
0
 10
-12.2096711744
 20
10.5500000003
 10
-12.2191177136
 20
10.5560075838
 10
-12.2287717891
 20
10.5619379062
 10
-12.2385091671
 20
10.5677146458
 10
-12.2482045422
 20
10.5732634565
 10
-12.25773315
 20
10.5785129246
 10
-12.2669723725
 20
10.583395488
 10
-12.2758033163
 20
10.5878483057
 10
-12.2841123423
 20
10.5918140664
 10
-12.2917925282
 20
10.5952417261
 10
-12.2987450445
 20
10.5980871654
 10
-12.3048804261
 20
10.6003137566
 10
-12.3101197239
 20
10.6018928359
  0
LWPOLYLINE
  5
42D
100
AcDbEntity
  8
0
100
AcDbPolyline
 62
7
  6
CONTINUOUS
 90
10
 70
0
 10
-14.8635658598
 20
11.9723404124
 10
-14.8688240151
 20
11.9756992539
 10
-14.8735527866
 20
11.9792537154
 10
-14.8777486053
 20
11.9830095556
 10
-14.8814054801
 20
11.9870007024
 10
-14.8845217724
 20
11.9912028561
 10
-14.8871009812
 20
11.9955338974
 10
-14.8891424479
 20
11.9999688771
 10
-14.8906405545
 20
12.0045395972
 10
-14.8915920599
 20
12.009248507
  0
LINE
  5
42E
100
AcDbEntity
  8
IMPORT_IGES
100
AcDbLine
 62
7
  6
CONTINUOUS
 10
7.0255240425
 20
-4.216154021
 11
8.6480099708
 21
-5.8386408806
  0
LINE
  5
42F
100
AcDbEntity
  8
IMPORT_IGES
100
AcDbLine
 62
7
  6
CONTINUOUS
 10
11.0507728532
 20
-8.2414046943
 11
9.9999997765
 21
-7.1906306863
  0
LINE
  5
430
100
AcDbEntity
  8
IMPORT_IGES
100
AcDbLine
 62
7
  6
CONTINUOUS
 10
9.9093699828
 20
-7.1000018239
 11
8.7185082957
 21
-5.9091382742
  0
LINE
  5
431
100
AcDbEntity
  8
IMPORT_IGES
100
AcDbLine
 62
7
  6
CONTINUOUS
 10
12.8838447854
 20
-10.0744784891
 11
11.1099276692
 21
-8.300558579
  0
LINE
  5
432
100
AcDbEntity
  8
IMPORT_IGES
100
AcDbLine
 62
7
  6
CONTINUOUS
 10
10.0906295702
 20
-7.1000018239
 11
11.0653545708
 21
-8.0747240305
  0
LINE
  5
433
100
AcDbEntity
  8
IMPORT_IGES
100
AcDbLine
 62
7
  6
CONTINUOUS
 10
8.7011298165
 20
-5.7105020702
 11
9.9999997765
 21
-7.0093692362
  0
LINE
  5
434
100
AcDbEntity
  8
IMPORT_IGES
100
AcDbLine
 62
7
  6
CONTINUOUS
 10
11.124510318
 20
-8.1338816404
 11
12.9744764417
 21
-9.9838459015
  0
LINE
  5
435
100
AcDbEntity
  8
IMPORT_IGES
100
AcDbLine
 62
7
  6
CONTINUOUS
 10
8.6306314915
 20
-5.6400009513
 11
7.1161547676
 21
-4.1255251586
  0
LINE
  5
436
100
AcDbEntity
  8
IMPORT_IGES
100
AcDbLine
 62
7
  6
CONTINUOUS
 10
8.9505203068
 20
-9.2963361263
 11
8.8655464351
 21
-8.3250858903
  0
LINE
  5
437
100
AcDbEntity
  8
IMPORT_IGES
100
AcDbLine
 62
7
  6
CONTINUOUS
 10
8.6480099708
 20
-5.8386408806
 11
8.8509637862
 21
-8.1584052265
  0
LINE
  5
438
100
AcDbEntity
  8
IMPORT_IGES
100
AcDbLine
 62
7
  6
CONTINUOUS
 10
8.5496371612
 20
-4.7142290592
 11
8.5302116349
 21
-4.4921951413
  0
LINE
  5
439
100
AcDbEntity
  8
IMPORT_IGES
100
AcDbLine
 62
7
  6
CONTINUOUS
 10
8.6306314915
 20
-5.6400009513
 11
8.5720643401
 21
-4.9705700099
  0
LINE
  5
43A
100
AcDbEntity
  8
IMPORT_IGES
100
AcDbLine
 62
7
  6
CONTINUOUS
 10
8.5981711745
 20
-4.5336725235
 11
8.613968268
 21
-4.7142290592
  0
LINE
  5
43B
100
AcDbEntity
  8
IMPORT_IGES
100
AcDbLine
 62
7
  6
CONTINUOUS
 10
8.6363935843
 20
-4.9705700099
 11
8.7011298165
 21
-5.7105020702
  0
LINE
  5
43C
100
AcDbEntity
  8
IMPORT_IGES
100
AcDbLine
 62
7
  6
CONTINUOUS
 10
8.9247003198
 20
-8.2659320056
 11
9.0092429891
 21
-9.2322536826
  0
LINE
  5
43D
100
AcDbEntity
  8
IMPORT_IGES
100
AcDbLine
 62
7
  6
CONTINUOUS
 10
8.9101176709
 20
-8.0992513418
 11
8.7185082957
 21
-5.9091382742
  0
LINE
  5
43E
100
AcDbEntity
  8
IMPORT_IGES
100
AcDbLine
 62
7
  6
CONTINUOUS
 10
4.3962369673
 20
-12.4480815649
 11
4.3962369673
 21
-11.7120788514
  0
LINE
  5
43F
100
AcDbEntity
  8
IMPORT_IGES
100
AcDbLine
 62
7
  6
CONTINUOUS
 10
4.3962369673
 20
-8.1885958135
 11
4.3962369673
 21
-7.4526005506
  0
LINE
  5
440
100
AcDbEntity
  8
IMPORT_IGES
100
AcDbLine
 62
7
  6
CONTINUOUS
 10
4.9440585504
 20
-45.8801051454
 11
4.9440585504
 21
-33.4919710042
  0
LINE
  5
441
100
AcDbEntity
  8
IMPORT_IGES
100
AcDbLine
 62
7
  6
CONTINUOUS
 10
4.9440585504
 20
-28.3801051454
 11
4.9440585504
 21
-15.9919710042
  0
LINE
  5
442
100
AcDbEntity
  8
IMPORT_IGES
100
AcDbLine
 62
7
  6
CONTINUOUS
 10
5.0
 20
-45.95
 11
5.0
 21
-33.45
  0
LINE
  5
443
100
AcDbEntity
  8
IMPORT_IGES
100
AcDbLine
 62
7
  6
CONTINUOUS
 10
5.0
 20
-28.45
 11
5.0
 21
-15.95
  0
LINE
  5
444
100
AcDbEntity
  8
IMPORT_IGES
100
AcDbLine
 62
7
  6
CONTINUOUS
 10
5.1118839641
 20
-15.8660571924
 11
5.1118839641
 21
-28.5897910398
  0
LINE
  5
445
100
AcDbEntity
  8
IMPORT_IGES
100
AcDbLine
 62
7
  6
CONTINUOUS
 10
5.1118839641
 20
-33.3660571924
 11
5.1118839641
 21
-46.0897910398
  0
LINE
  5
446
100
AcDbEntity
  8
IMPORT_IGES
100
AcDbLine
 62
7
  6
CONTINUOUS
 10
6.8881160359
 20
-46.0897910398
 11
6.8881160359
 21
-33.3660571924
  0
LINE
  5
447
100
AcDbEntity
  8
IMPORT_IGES
100
AcDbLine
 62
7
  6
CONTINUOUS
 10
6.8881160359
 20
-28.5897910398
 11
6.8881160359
 21
-15.8660571924
  0
LINE
  5
448
100
AcDbEntity
  8
IMPORT_IGES
100
AcDbLine
 62
7
  6
CONTINUOUS
 10
7.0
 20
-15.95
 11
7.0
 21
-28.45
  0
LINE
  5
449
100
AcDbEntity
  8
IMPORT_IGES
100
AcDbLine
 62
7
  6
CONTINUOUS
 10
7.0
 20
-33.45
 11
7.0
 21
-45.95
  0
LINE
  5
44A
100
AcDbEntity
  8
IMPORT_IGES
100
AcDbLine
 62
7
  6
CONTINUOUS
 10
7.0559414496
 20
-15.9919710042
 11
7.0559414496
 21
-28.3801051454
  0
LINE
  5
44B
100
AcDbEntity
  8
IMPORT_IGES
100
AcDbLine
 62
7
  6
CONTINUOUS
 10
7.0559414496
 20
-33.4919710042
 11
7.0559414496
 21
-45.8801051454
  0
LINE
  5
44C
100
AcDbEntity
  8
IMPORT_IGES
100
AcDbLine
 62
7
  6
CONTINUOUS
 10
7.4020000175
 20
-11.6724752903
 11
7.4020000175
 21
-12.6724773168
  0
LINE
  5
44D
100
AcDbEntity
  8
IMPORT_IGES
100
AcDbLine
 62
7
  6
CONTINUOUS
 10
8.0453939736
 20
-4.9705700099
 11
8.0453939736
 21
-4.7142290592
  0
LWPOLYLINE
  5
44E
100
AcDbEntity
  8
IMPORT_IGES
100
AcDbPolyline
 62
253
  6
CONTINUOUS
 90
40
 70
0
 10
6.7295100345
 20
16.2801542291
 10
6.7257644675
 20
16.2215939475
 10
6.7200984086
 20
16.1627609414
 10
6.7124948902
 20
16.103701238
 10
6.7029283157
 20
16.044407948
 10
6.6913903158
 20
15.9849869913
 10
6.6779071536
 20
15.9256536143
 10
6.6624831787
 20
15.8664629959
 10
6.645121483
 20
15.8074628792
 10
6.6258772673
 20
15.7488523939
 10
6.604782378
 20
15.6907149749
 10
6.5818461545
 20
15.6330681836
 10
6.5571087822
 20
15.5760079605
 10
6.5305960077
 20
15.5195870801
 10
6.5023323245
 20
15.4638552094
 10
6.4723641679
 20
15.4089012303
 10
6.4407034055
 20
15.3547470414
 10
6.4073954308
 20
15.3014737687
 10
6.3725516738
 20
15.2492513385
 10
6.3362437677
 20
15.1981667114
 10
6.2984835739
 20
15.1482201145
 10
6.2593024636
 20
15.0994449971
 10
6.2187534367
 20
15.0519018377
 10
6.1768621839
 20
15.0056181062
 10
6.1336128548
 20
14.9605827832
 10
6.0890102412
 20
14.9168171822
 10
6.0431153587
 20
14.8743994997
 10
5.9959943337
 20
14.8334060626
 10
5.9476452208
 20
14.7938527427
 10
5.8981409489
 20
14.7558185866
 10
5.8476728334
 20
14.7194578573
 10
5.7962866627
 20
14.6848018461
 10
5.7440281096
 20
14.6518814015
 10
5.691107046
 20
14.6208197766
 10
5.6375933644
 20
14.5916391341
 10
5.5835216118
 20
14.5643409157
 10
5.52906167
 20
14.5389887681
 10
5.4743078176
 20
14.5155963957
 10
5.4192723921
 20
14.4941399756
 10
5.3640053494
 20
14.4746130598
  0
LWPOLYLINE
  5
44F
100
AcDbEntity
  8
IMPORT_IGES
100
AcDbPolyline
 62
7
  6
CONTINUOUS
 90
10
 70
0
 10
2.3972098716
 20
-5.8333257258
 10
2.4104394581
 20
-5.801610342
 10
2.4248232316
 20
-5.7706546923
 10
2.4403611919
 20
-5.7404587766
 10
2.457149962
 20
-5.7110552977
 10
2.475092919
 20
-5.6824115529
 10
2.4939001942
 20
-5.6544294336
 10
2.5134751645
 20
-5.6270762369
 10
2.533914453
 20
-5.6003846657
 10
2.5552180596
 20
-5.5743547201
  0
LWPOLYLINE
  5
450
100
AcDbEntity
  8
IMPORT_IGES
100
AcDbPolyline
 62
7
  6
CONTINUOUS
 90
10
 70
0
 10
3.6089362111
 20
-4.813609463
 10
3.5951664647
 20
-4.8430234946
 10
3.5803134019
 20
-4.8716692703
 10
3.5643770226
 20
-4.8995467899
 10
3.5472314034
 20
-4.9266107628
 10
3.5290024677
 20
-4.9529064796
 10
3.5100679861
 20
-4.9785698127
 10
3.490553882
 20
-5.0036460529
 10
3.4703342319
 20
-5.0280899094
 10
3.449409036
 20
-5.0519013822
  0
LWPOLYLINE
  5
451
100
AcDbEntity
  8
IMPORT_IGES
100
AcDbPolyline
 62
253
  6
CONTINUOUS
 90
8
 70
0
 10
-18.6171770473
 20
-51.6336356421
 10
-18.614119107
 20
-51.6272520186
 10
-18.6084782531
 20
-51.6135982106
 10
-18.6002427844
 20
-51.5925742567
 10
-18.5893735463
 20
-51.5641722726
 10
-18.5759296876
 20
-51.528482011
 10
-18.5600713676
 20
-51.4857106548
 10
-18.4720839879
 20
-51.2454228709
  0
LWPOLYLINE
  5
452
100
AcDbEntity
  8
0
100
AcDbPolyline
 62
253
  6
CONTINUOUS
 90
13
 70
0
 10
14.7608695652
 20
11.1650035476
 10
14.7538357782
 20
11.1527348086
 10
14.7467249285
 20
11.1405358457
 10
14.7396797432
 20
11.1286515206
 10
14.7328416409
 20
11.1173203952
 10
14.7263478874
 20
11.1067699342
 10
14.7203288418
 20
11.0972119399
 10
14.7149053358
 20
11.0888382967
 10
14.7101862766
 20
11.0818171626
 10
14.7062664417
 20
11.0762895592
 10
14.7032245408
 20
11.0723664855
 10
14.701121649
 20
11.0701267152
 10
14.6999999997
 20
11.0696152425
  0
LWPOLYLINE
  5
453
100
AcDbEntity
  8
0
100
AcDbPolyline
 62
253
  6
CONTINUOUS
 90
13
 70
0
 10
13.0362318841
 20
10.9892882483
 10
13.0429124349
 20
11.0006543393
 10
13.0497165008
 20
11.011712989
 10
13.0565255073
 20
11.0222714784
 10
13.0632207936
 20
11.0321458043
 10
13.069685681
 20
11.0411638869
 10
13.0758075056
 20
11.0491685677
 10
13.0814795825
 20
11.0560203492
 10
13.0866030641
 20
11.0615998253
 10
13.0910886635
 20
11.0658097624
 10
13.0948582099
 20
11.068576794
 10
13.0978460116
 20
11.069852699
 10
13.1
 20
11.0696152423
  0
LWPOLYLINE
  5
454
100
AcDbEntity
  8
0
100
AcDbPolyline
 62
253
  6
CONTINUOUS
 90
10
 70
0
 10
15.7903285716
 20
10.55
 10
15.7860436841
 20
10.5433330111
 10
15.7813567003
 20
10.5368915235
 10
15.7762696919
 20
10.530678238
 10
15.7707502389
 20
10.5246549163
 10
15.7648344076
 20
10.5188649326
 10
15.7586281468
 20
10.5134307805
 10
15.7521691995
 20
10.5083917845
 10
15.7454257018
 20
10.5037065967
 10
15.7384001476
 20
10.4993739973
  0
LWPOLYLINE
  5
455
100
AcDbEntity
  8
IMPORT_IGES
100
AcDbPolyline
 62
7
  6
CONTINUOUS
 90
10
 70
0
 10
2.0005456172
 20
-4.778923285
 10
1.9827893929
 20
-4.8031169825
 10
1.9638068409
 20
-4.8257875697
 10
1.9435979613
 20
-4.8469350466
 10
1.9220478956
 20
-4.8664842409
 10
1.8992715024
 20
-4.8845103249
 10
1.8756133568
 20
-4.901238815
 10
1.8511883174
 20
-4.9167448833
 10
1.8258815258
 20
-4.9309533578
 10
1.7996929819
 20
-4.9438642382
  0
LWPOLYLINE
  5
456
100
AcDbEntity
  8
IMPORT_IGES
100
AcDbPolyline
 62
7
  6
CONTINUOUS
 90
10
 70
0
 10
2.5552180596
 20
-5.5743547201
 10
2.5874933472
 20
-5.5381219056
 10
2.6204981183
 20
-5.5028099915
 10
2.6542323729
 20
-5.468418978
 10
2.6888038135
 20
-5.435039753
 10
2.7241047376
 20
-5.4025814286
 10
2.7598120378
 20
-5.3707713401
 10
2.7958180115
 20
-5.3395185994
 10
2.8322303613
 20
-5.3089140947
 10
2.8690490872
 20
-5.2789578259
  0
LWPOLYLINE
  5
457
100
AcDbEntity
  8
IMPORT_IGES
100
AcDbPolyline
 62
7
  6
CONTINUOUS
 90
10
 70
0
 10
2.8036064468
 20
-5.640530777
 10
2.7910905191
 20
-5.6539274693
 10
2.7789148936
 20
-5.6675817608
 10
2.7670795703
 20
-5.6814936514
 10
2.7555974811
 20
-5.6956813405
 10
2.7444556942
 20
-5.7101266287
 10
2.733615414
 20
-5.7247749183
 10
2.7230637087
 20
-5.73960801
 10
2.7128135101
 20
-5.7546441031
 10
2.7028648183
 20
-5.7698831975
  0
LWPOLYLINE
  5
458
100
AcDbEntity
  8
IMPORT_IGES
100
AcDbPolyline
 62
7
  6
CONTINUOUS
 90
10
 70
0
 10
3.449409036
 20
-5.0519013822
 10
3.4125289106
 20
-5.0907657155
 10
3.3745544871
 20
-5.1293748691
 10
3.3354857657
 20
-5.1677288429
 10
3.2952322661
 20
-5.2057467996
 10
3.2538844684
 20
-5.2435095765
 10
3.2117138134
 20
-5.2812596857
 10
3.1688107815
 20
-5.3190779644
 10
3.1250848922
 20
-5.3568835753
 10
3.0805361457
 20
-5.3946765184
  0
LINE
  5
459
100
AcDbEntity
  8
IMPORT_IGES
100
AcDbLine
 62
7
  6
CONTINUOUS
 10
7.0255240425
 20
-4.216154021
 11
7.1161547676
 21
-4.1255251586
  0
LWPOLYLINE
  5
45A
100
AcDbEntity
  8
IMPORT_IGES
100
AcDbPolyline
 62
7
  6
CONTINUOUS
 90
13
 70
0
 10
0.2783344535
 20
-5.7196708441
 10
0.2582724408
 20
-5.7375367922
 10
0.2375714202
 20
-5.754141841
 10
0.2162313916
 20
-5.7694859903
 10
0.194316207
 20
-5.7838109554
 10
0.1717620145
 20
-5.7968750211
 10
0.1483772579
 20
-5.8079530418
 10
0.1239830743
 20
-5.8166133869
 10
0.0987583267
 20
-5.823287687
 10
0.0730480482
 20
-5.8285456878
 10
0.04696725
 20
-5.8325773044
 10
0.0204009208
 20
-5.8351926217
 10
-0.0066509392
 20
-5.8363916397
  0
LWPOLYLINE
  5
45B
100
AcDbEntity
  8
IMPORT_IGES
100
AcDbPolyline
 62
7
  6
CONTINUOUS
 90
13
 70
0
 10
1.793375588
 20
-5.7196708441
 10
1.7733135515
 20
-5.7375367849
 10
1.7526125078
 20
-5.7541418281
 10
1.7312724569
 20
-5.7694859738
 10
1.709357251
 20
-5.7838109374
 10
1.6868030379
 20
-5.7968750034
 10
1.6634182615
 20
-5.8079530255
 10
1.6390240591
 20
-5.8166133734
 10
1.6137992934
 20
-5.8232876774
 10
1.5880889963
 20
-5.8285456815
 10
1.5620081785
 20
-5.8325773007
 10
1.5354418294
 20
-5.8351926201
 10
1.5083899489
 20
-5.8363916397
  0
LWPOLYLINE
  5
45C
100
AcDbEntity
  8
IMPORT_IGES
100
AcDbPolyline
 62
7
  6
CONTINUOUS
 90
13
 70
0
 10
0.4625753791
 20
-5.8573426723
 10
0.4292338463
 20
-5.8865809781
 10
0.3946937562
 20
-5.913188294
 10
0.3589551085
 20
-5.9371646201
 10
0.3219887101
 20
-5.9586144874
 10
0.2838237543
 20
-5.9774333648
 10
0.2445478208
 20
-5.9933076591
 10
0.2039574313
 20
-6.0058182268
 10
0.1622560642
 20
-6.0153842114
 10
0.1201417344
 20
-6.0229494507
 10
0.0778471136
 20
-6.0288285572
 10
0.0351395301
 20
-6.0327069184
 10
-0.0079810161
 20
-6.0345845342
  0
LWPOLYLINE
  5
45D
100
AcDbEntity
  8
IMPORT_IGES
100
AcDbPolyline
 62
7
  6
CONTINUOUS
 90
13
 70
0
 10
1.9776164554
 20
-5.8573426723
 10
1.9442749091
 20
-5.8865809811
 10
1.9097348054
 20
-5.9131882996
 10
1.8739961445
 20
-5.937164628
 10
1.8370297331
 20
-5.9586144973
 10
1.7988647644
 20
-5.9774333764
 10
1.7595888182
 20
-5.9933076717
 10
1.718998416
 20
-6.0058182392
 10
1.6772970362
 20
-6.0153842229
 10
1.6351826937
 20
-6.0229494605
 10
1.5928880599
 20
-6.0288285645
 10
1.5501804632
 20
-6.0327069224
 10
1.5070599038
 20
-6.0345845342
  0
LWPOLYLINE
  5
45E
100
AcDbEntity
  8
IMPORT_IGES
100
AcDbPolyline
 62
7
  6
CONTINUOUS
 90
13
 70
0
 10
2.766712103
 20
-4.3439658403
 10
2.7865588583
 20
-4.3270161115
 10
2.8069954621
 20
-4.3114514122
 10
2.8280219144
 20
-4.2972717426
 10
2.8496029346
 20
-4.2842988582
 10
2.8717738033
 20
-4.2727110035
 10
2.8946403621
 20
-4.2630429111
 10
2.9183592729
 20
-4.255702679
 10
2.9427738738
 20
-4.2502822092
 10
2.9675200206
 20
-4.2460919406
 10
2.992476332
 20
-4.2429020194
 10
3.0177641894
 20
-4.2409422992
 10
3.0433835927
 20
-4.2402127802
  0
LWPOLYLINE
  5
45F
100
AcDbEntity
  8
IMPORT_IGES
100
AcDbPolyline
 62
7
  6
CONTINUOUS
 90
10
 70
0
 10
3.0805361457
 20
-5.3946765184
 10
3.0490706019
 20
-5.4210241336
 10
3.0177668923
 20
-5.4476022363
 10
2.9866250169
 20
-5.4744108266
 10
2.9556288956
 20
-5.5014340463
 10
2.9247946085
 20
-5.5286877536
 10
2.894170396
 20
-5.5562195229
 10
2.8637723383
 20
-5.5840452123
 10
2.8335843552
 20
-5.6121489636
 10
2.8036064468
 20
-5.640530777
  0
LWPOLYLINE
  5
460
100
AcDbEntity
  8
IMPORT_IGES
100
AcDbPolyline
 62
7
  6
CONTINUOUS
 90
10
 70
0
 10
2.8690490872
 20
-5.2789578259
 10
2.9205652418
 20
-5.2374958914
 10
2.9711729085
 20
-5.1949715759
 10
3.0208720872
 20
-5.1513848794
 10
3.0697078476
 20
-5.1067669581
 10
3.1176351201
 20
-5.0610866558
 10
3.1645186957
 20
-5.0142505034
 10
3.210313505
 20
-4.9662273444
 10
3.2550646176
 20
-4.9170483354
 10
3.2987720333
 20
-4.8667134762
  0
LWPOLYLINE
  5
461
100
AcDbEntity
  8
IMPORT_IGES
100
AcDbPolyline
 62
7
  6
CONTINUOUS
 90
13
 70
0
 10
1.6997345956
 20
-4.7892609656
 10
1.7198366987
 20
-4.7745085015
 10
1.738195054
 20
-4.7585407213
 10
1.7548096614
 20
-4.741357625
 10
1.7697920634
 20
-4.7228906588
 10
1.7830307175
 20
-4.7032083765
 10
1.7941909964
 20
-4.6825164393
 10
1.8029588361
 20
-4.6606643168
 10
1.8096483006
 20
-4.6378025395
 10
1.8148669539
 20
-4.6145883602
 10
1.8188173173
 20
-4.5912408633
 10
1.8212968695
 20
-4.5675409643
 10
1.8223056104
 20
-4.5434886634
  0
LWPOLYLINE
  5
462
100
AcDbEntity
  8
IMPORT_IGES
100
AcDbPolyline
 62
7
  6
CONTINUOUS
 90
10
 70
0
 10
-5.4061734118
 20
-9.8781751513
 10
-5.3857470856
 20
-9.866308029
 10
-5.3658491407
 20
-9.8537570567
 10
-5.346479577
 20
-9.8405222345
 10
-5.3276429655
 20
-9.8265640622
 10
-5.3093347352
 20
-9.81192204
 10
-5.2915411734
 20
-9.7967146685
 10
-5.2742577093
 20
-9.7809814479
 10
-5.2574889138
 20
-9.764682878
 10
-5.2412347868
 20
-9.7478189587
  0
LWPOLYLINE
  5
463
100
AcDbEntity
  8
IMPORT_IGES
100
AcDbPolyline
 62
7
  6
CONTINUOUS
 90
10
 70
0
 10
-6.415756885
 20
-10.040452522
 10
-6.4380252792
 20
-10.0529452941
 10
-6.4598530485
 20
-10.0663939004
 10
-6.481240193
 20
-10.080798341
 10
-6.5021249291
 20
-10.0962768074
 10
-6.5225690404
 20
-10.1127111081
 10
-6.5427578775
 20
-10.1297466684
 10
-6.5627532237
 20
-10.1472652967
 10
-6.5824932957
 20
-10.1653851846
 10
-6.6019780934
 20
-10.184106332
  0
LWPOLYLINE
  5
464
100
AcDbEntity
  8
IMPORT_IGES
100
AcDbPolyline
 62
7
  6
CONTINUOUS
 90
10
 70
0
 10
8.5302116349
 20
-4.4921951413
 10
8.550927955
 20
-4.4836462309
 10
8.571692286
 20
-4.4752453589
 10
8.5925046277
 20
-4.4669925253
 10
8.6133685213
 20
-4.4588950592
 10
8.6342804257
 20
-4.4509456315
 10
8.6552297179
 20
-4.443122255
 10
8.6762128567
 20
-4.4354176007
 10
8.6972333833
 20
-4.4278389975
 10
8.7182912976
 20
-4.4203864455
  0
LWPOLYLINE
  5
465
100
AcDbEntity
  8
IMPORT_IGES
100
AcDbPolyline
 62
7
  6
CONTINUOUS
 90
5
 70
0
 10
8.6512894943
 20
-4.5129740765
 10
8.6379662541
 20
-4.5180590465
 10
8.6246727504
 20
-4.5232053287
 10
8.6114077238
 20
-4.528409821
 10
8.5981711745
 20
-4.5336725235
  0
LWPOLYLINE
  5
466
100
AcDbEntity
  8
IMPORT_IGES
100
AcDbPolyline
 62
7
  6
CONTINUOUS
 90
10
 70
0
 10
-5.4141539149
 20
-10.1455355108
 10
-5.4352505739
 20
-10.1534217652
 10
-5.4565374477
 20
-10.1602805711
 10
-5.4780145364
 20
-10.1661119284
 10
-5.4997257495
 20
-10.1708445906
 10
-5.5216271774
 20
-10.1745498042
 10
-5.5435870914
 20
-10.1774413089
 10
-5.5655615818
 20
-10.1795903513
 10
-5.5875945583
 20
-10.1809256847
 10
-5.6096860208
 20
-10.1814473092
  0
LINE
  5
467
100
AcDbEntity
  8
IMPORT_IGES
100
AcDbLine
 62
7
  6
CONTINUOUS
 10
8.6780176285
 20
-4.5029694603
 11
8.6512894943
 21
-4.5129740765
  0
LWPOLYLINE
  5
468
100
AcDbEntity
  8
IMPORT_IGES
100
AcDbPolyline
 62
7
  6
CONTINUOUS
 90
3
 70
0
 10
8.7182912976
 20
-4.4883200049
 10
8.7048420418
 20
-4.4931542533
 10
8.6780176285
 20
-4.5029694603
  0
LWPOLYLINE
  5
469
100
AcDbEntity
  8
IMPORT_IGES
100
AcDbPolyline
 62
7
  6
CONTINUOUS
 90
10
 70
0
 10
8.7823765352
 20
-4.3988087296
 10
8.803548128
 20
-4.3920446184
 10
8.8247659683
 20
-4.3854012299
 10
8.846030056
 20
-4.3788785641
 10
8.8673386702
 20
-4.3724683227
 10
8.8886935318
 20
-4.3661788041
 10
8.9100998041
 20
-4.3600349032
 10
8.9315592082
 20
-4.3540449182
 10
8.9530700229
 20
-4.3482005509
 10
8.9746322483
 20
-4.3425018012
  0
LINE
  5
46A
100
AcDbEntity
  8
IMPORT_IGES
100
AcDbLine
 62
7
  6
CONTINUOUS
 10
12.8838447854
 20
-4.1255251586
 11
12.9744764417
 21
-4.216154021
  0
LWPOLYLINE
  5
46B
100
AcDbEntity
  8
IMPORT_IGES
100
AcDbPolyline
 62
253
  6
CONTINUOUS
 90
22
 70
0
 10
7.2289348789
 20
43.8435596689
 10
7.2180629264
 20
43.987351731
 10
7.1991940865
 20
44.1293173717
 10
7.1723283592
 20
44.269456591
 10
7.137308991
 20
44.4082219837
 10
7.0942927353
 20
44.545160955
 10
7.0437498529
 20
44.6789157202
 10
6.9856233667
 20
44.8094277169
 10
6.9199702537
 20
44.9367555075
 10
6.8474317064
 20
45.0597169944
 10
6.7679516165
 20
45.1782749236
 10
6.6815860923
 20
45.2924665491
 10
6.5891446507
 20
45.4012215357
 10
6.4905761695
 20
45.504496037
 10
6.3859317708
 20
45.6023338995
 10
6.2761743385
 20
45.6937963276
 10
6.1612601485
 20
45.7788322812
 10
6.0412329248
 20
45.8574928004
 10
5.9171867232
 20
45.9289922094
 10
5.7894862289
 20
45.9930686162
 10
5.6577667566
 20
46.0499839128
 10
5.5220283063
 20
46.0997380992
  0
LWPOLYLINE
  5
46C
100
AcDbEntity
  8
IMPORT_IGES
100
AcDbPolyline
 62
253
  6
CONTINUOUS
 90
40
 70
0
 10
6.588436512
 20
43.7121018878
 10
6.584708594
 20
43.7706275994
 10
6.5790445193
 20
43.8295708406
 10
6.5714134656
 20
43.8888836263
 10
6.5617726772
 20
43.9485898736
 10
6.5501025878
 20
44.0085604897
 10
6.5364306838
 20
44.0685181441
 10
6.5207536224
 20
44.1284063448
 10
6.503067986
 20
44.1881716599
 10
6.4834442783
 20
44.2475486543
 10
6.4619076533
 20
44.3064680306
 10
6.4384723651
 20
44.3648926768
 10
6.4132279803
 20
44.4226154551
 10
6.3862206302
 20
44.479563908
 10
6.35747504
 20
44.5357126044
 10
6.3270705946
 20
44.5909339787
 10
6.2950665218
 20
44.645154143
 10
6.2614888209
 20
44.6983573437
 10
6.2263732524
 20
44.7505068173
 10
6.189774955
 20
44.8015376384
 10
6.1517206092
 20
44.8514257903
 10
6.1121963473
 20
44.900191279
 10
6.071210986
 20
44.9478135976
 10
6.0288225245
 20
44.9942133347
 10
5.9850871162
 20
45.0393192961
 10
5.9400290139
 20
45.0830953753
 10
5.8936961861
 20
45.1254817223
 10
5.8461872169
 20
45.1663788607
 10
5.7975375458
 20
45.2057493842
 10
5.7477932547
 20
45.2435471259
 10
5.6970789098
 20
45.2796730528
 10
5.6454271394
 20
45.3141026809
 10
5.5928949446
 20
45.3467950546
 10
5.539655316
 20
45.3776470305
 10
5.4857430828
 20
45.4066485542
 10
5.4312220473
 20
45.4337740236
 10
5.3763227981
 20
45.4589278252
 10
5.3211616914
 20
45.4820886858
 10
5.2657312634
 20
45.503290682
 10
5.2100822003
 20
45.5225410028
  0
LINE
  5
46D
100
AcDbEntity
  8
IMPORT_IGES
100
AcDbLine
 62
7
  6
CONTINUOUS
 10
8.7182912976
 20
-4.4883200049
 11
8.7182912976
 21
-4.7142290592
  0
LINE
  5
46E
100
AcDbEntity
  8
IMPORT_IGES
100
AcDbLine
 62
7
  6
CONTINUOUS
 10
8.7182912976
 20
-4.4203864455
 11
8.7182912976
 21
-4.1695022106
  0
LINE
  5
46F
100
AcDbEntity
  8
IMPORT_IGES
100
AcDbLine
 62
7
  6
CONTINUOUS
 10
8.7823765352
 20
-4.3988087296
 11
8.7823765352
 21
-4.2335883796
  0
LINE
  5
470
100
AcDbEntity
  8
IMPORT_IGES
100
AcDbLine
 62
7
  6
CONTINUOUS
 10
8.7823765352
 20
-4.6501428902
 11
8.7823774666
 21
-4.4662746212
  0
LINE
  5
471
100
AcDbEntity
  8
IMPORT_IGES
100
AcDbLine
 62
7
  6
CONTINUOUS
 10
8.9440585504
 20
-45.8801051454
 11
8.9440585504
 21
-33.4919710042
  0
LINE
  5
472
100
AcDbEntity
  8
IMPORT_IGES
100
AcDbLine
 62
7
  6
CONTINUOUS
 10
8.9440585504
 20
-28.3801051454
 11
8.9440585504
 21
-15.9919710042
  0
LINE
  5
473
100
AcDbEntity
  8
IMPORT_IGES
100
AcDbLine
 62
7
  6
CONTINUOUS
 10
8.9505203068
 20
-9.8090217531
 11
8.9505203068
 21
-9.2963361263
  0
LINE
  5
474
100
AcDbEntity
  8
IMPORT_IGES
100
AcDbLine
 62
7
  6
CONTINUOUS
 10
8.9746322483
 20
-4.2335883796
 11
8.9746322483
 21
-4.3425018012
  0
LINE
  5
475
100
AcDbEntity
  8
IMPORT_IGES
100
AcDbLine
 62
7
  6
CONTINUOUS
 10
8.9746322483
 20
-4.4087738812
 11
8.9746322483
 21
-4.6501428902
  0
LINE
  5
476
100
AcDbEntity
  8
IMPORT_IGES
100
AcDbLine
 62
7
  6
CONTINUOUS
 10
9.0
 20
-45.95
 11
9.0
 21
-33.45
  0
LINE
  5
477
100
AcDbEntity
  8
IMPORT_IGES
100
AcDbLine
 62
7
  6
CONTINUOUS
 10
9.0
 20
-28.45
 11
9.0
 21
-15.95
  0
LINE
  5
478
100
AcDbEntity
  8
IMPORT_IGES
100
AcDbLine
 62
7
  6
CONTINUOUS
 10
9.0387184173
 20
-4.1695022106
 11
9.0387184173
 21
-4.3264569759
  0
LINE
  5
479
100
AcDbEntity
  8
IMPORT_IGES
100
AcDbLine
 62
7
  6
CONTINUOUS
 10
9.0387184173
 20
-4.7142290592
 11
9.0387184173
 21
-4.3923983395
  0
LINE
  5
47A
100
AcDbEntity
  8
IMPORT_IGES
100
AcDbLine
 62
7
  6
CONTINUOUS
 10
9.0466476977
 20
-9.7128943622
 11
9.0466476977
 21
-9.3283810735
  0
LINE
  5
47B
100
AcDbEntity
  8
IMPORT_IGES
100
AcDbLine
 62
7
  6
CONTINUOUS
 10
9.1118839641
 20
-15.8660571924
 11
9.1118839641
 21
-28.5897910398
  0
LINE
  5
47C
100
AcDbEntity
  8
IMPORT_IGES
100
AcDbLine
 62
7
  6
CONTINUOUS
 10
9.1118839641
 20
-33.3660571924
 11
9.1118839641
 21
-46.0897910398
  0
LINE
  5
47D
100
AcDbEntity
  8
IMPORT_IGES
100
AcDbLine
 62
7
  6
CONTINUOUS
 10
9.2389043421
 20
-9.3283810735
 11
9.2389043421
 21
-9.7128943622
  0
LINE
  5
47E
100
AcDbEntity
  8
IMPORT_IGES
100
AcDbLine
 62
7
  6
CONTINUOUS
 10
9.3350317329
 20
-9.2963365435
 11
9.3350317329
 21
-9.8090217531
  0
LINE
  5
47F
100
AcDbEntity
  8
IMPORT_IGES
100
AcDbLine
 62
7
  6
CONTINUOUS
 10
9.5834443346
 20
-6.2522784889
 11
9.5834443346
 21
-5.9318513691
  0
LINE
  5
480
100
AcDbEntity
  8
IMPORT_IGES
100
AcDbLine
 62
7
  6
CONTINUOUS
 10
9.6475295722
 20
-6.1881923199
 11
9.6475295722
 21
-5.9959375381
  0
LINE
  5
481
100
AcDbEntity
  8
IMPORT_IGES
100
AcDbLine
 62
7
  6
CONTINUOUS
 10
9.7116157413
 20
-4.299578172
 11
9.7116157413
 21
-4.4578843832
  0
LINE
  5
482
100
AcDbEntity
  8
IMPORT_IGES
100
AcDbLine
 62
7
  6
CONTINUOUS
 10
9.7116157413
 20
-4.2354593098
 11
9.7116157413
 21
-4.0733710945
  0
LINE
  5
483
100
AcDbEntity
  8
IMPORT_IGES
100
AcDbLine
 62
7
  6
CONTINUOUS
 10
9.7757009789
 20
-4.3938019395
 11
9.7757009789
 21
-4.2980218351
  0
LINE
  5
484
100
AcDbEntity
  8
IMPORT_IGES
100
AcDbLine
 62
7
  6
CONTINUOUS
 10
9.7757009789
 20
-4.2339311063
 11
9.7757009789
 21
-4.1374572635
  0
LINE
  5
485
100
AcDbEntity
  8
IMPORT_IGES
100
AcDbLine
 62
7
  6
CONTINUOUS
 10
10.5126826093
 20
-4.1374572635
 11
10.5126826093
 21
-4.3048763692
  0
LINE
  5
486
100
AcDbEntity
  8
IMPORT_IGES
100
AcDbLine
 62
7
  6
CONTINUOUS
 10
10.5126826093
 20
-4.3938019395
 11
10.5126826093
 21
-4.3703735888
  0
LINE
  5
487
100
AcDbEntity
  8
IMPORT_IGES
100
AcDbLine
 62
7
  6
CONTINUOUS
 10
10.5767687783
 20
-4.0733710945
 11
10.5767687783
 21
-4.3189347803
  0
LINE
  5
488
100
AcDbEntity
  8
IMPORT_IGES
100
AcDbLine
 62
7
  6
CONTINUOUS
 10
10.5767687783
 20
-4.4578843832
 11
10.5767687783
 21
-4.3847205162
  0
LINE
  5
489
100
AcDbEntity
  8
IMPORT_IGES
100
AcDbLine
 62
7
  6
CONTINUOUS
 10
10.640854016
 20
-5.9959375381
 11
10.640854016
 21
-6.1881923199
  0
LINE
  5
48A
100
AcDbEntity
  8
IMPORT_IGES
100
AcDbLine
 62
7
  6
CONTINUOUS
 10
10.704940185
 20
-5.9318513691
 11
10.704940185
 21
-6.2522784889
  0
LINE
  5
48B
100
AcDbEntity
  8
IMPORT_IGES
100
AcDbLine
 62
7
  6
CONTINUOUS
 10
11.1214946955
 20
-5.2269109607
 11
11.1214946955
 21
-5.8878743172
  0
LINE
  5
48C
100
AcDbEntity
  8
IMPORT_IGES
100
AcDbLine
 62
7
  6
CONTINUOUS
 10
11.1855808646
 20
-5.8237881481
 11
11.1855808646
 21
-5.2909971297
  0
LINE
  5
48D
100
AcDbEntity
  8
IMPORT_IGES
100
AcDbLine
 62
7
  6
CONTINUOUS
 10
11.6021363065
 20
-4.8899294853
 11
11.6021363065
 21
-4.9705700099
  0
LINE
  5
48E
100
AcDbEntity
  8
IMPORT_IGES
100
AcDbLine
 62
7
  6
CONTINUOUS
 10
11.826435104
 20
-5.3641953587
 11
11.826435104
 21
-5.8677652001
  0
LINE
  5
48F
100
AcDbEntity
  8
IMPORT_IGES
100
AcDbLine
 62
7
  6
CONTINUOUS
 10
11.890521273
 20
-5.9318513691
 11
11.890521273
 21
-5.3001091897
  0
LINE
  5
490
100
AcDbEntity
  8
IMPORT_IGES
100
AcDbLine
 62
7
  6
CONTINUOUS
 10
12.0
 20
-16.9796690909
 11
12.0
 21
-44.9796690909
  0
LWPOLYLINE
  5
491
100
AcDbEntity
  8
IMPORT_IGES
100
AcDbPolyline
 62
7
  6
CONTINUOUS
 90
58
 70
0
 10
10.7690254226
 20
-9.2642957389
 10
10.7699501579
 20
-9.2536021712
 10
10.7711501156
 20
-9.2431795424
 10
10.7726252957
 20
-9.2330278525
 10
10.7743052626
 20
-9.2231694812
 10
10.776260452
 20
-9.2135820487
 10
10.7787021708
 20
-9.2041984163
 10
10.7816710648
 20
-9.1950054083
 10
10.7851264881
 20
-9.1860162004
 10
10.7891578114
 20
-9.1772031815
 10
10.7937886554
 20
-9.1685601878
 10
10.7989953993
 20
-9.1600933832
 10
10.8047965507
 20
-9.1517936473
 10
10.8112094266
 20
-9.1436147546
 10
10.8182167101
 20
-9.1356029306
 10
10.8257849579
 20
-9.1278877314
 10
10.8339669942
 20
-9.1204433732
 10
10.8427099948
 20
-9.1132956398
 10
10.8518220448
 20
-9.1066514383
 10
10.8612990163
 20
-9.1005497881
 10
10.8711450372
 20
-9.0949516697
 10
10.8811805761
 20
-9.0899469327
 10
10.8913878604
 20
-9.0855581219
 10
10.9017846627
 20
-9.0817626925
 10
10.91224477
 20
-9.078582859
 10
10.9227441696
 20
-9.0760241695
 10
10.9333068742
 20
-9.074081076
 10
10.9438787084
 20
-9.072759149
 10
10.9544467858
 20
-9.0720603133
 10
10.9650239928
 20
-9.071982644
 10
10.9755948135
 20
-9.0725259374
 10
10.9861666823
 20
-9.0736910769
 10
10.9967321647
 20
-9.075477179
 10
11.0072534414
 20
-9.0778813891
 10
11.0177549265
 20
-9.0809057011
 10
11.0282122059
 20
-9.084548121
 10
11.0385142172
 20
-9.0887998124
 10
11.0487013605
 20
-9.0936982611
 10
11.0587332357
 20
-9.0992059811
 10
11.0683775798
 20
-9.1052016789
 10
11.0776052907
 20
-9.111699616
 10
11.0864454706
 20
-9.1186855308
 10
11.0947531628
 20
-9.1259953451
 10
11.1025021586
 20
-9.133615405
 10
11.1097186667
 20
-9.1415593644
 10
11.1163363571
 20
-9.1497041068
 10
11.1223327939
 20
-9.1579999204
 10
11.127730413
 20
-9.1664965171
 10
11.1325301921
 20
-9.1752199154
 10
11.1367037996
 20
-9.1841826859
 10
11.1402795671
 20
-9.1933722581
 10
11.1433434669
 20
-9.2027769396
 10
11.1458356703
 20
-9.212370729
 10
11.1478160059
 20
-9.2221796278
 10
11.149549932
 20
-9.232269947
 10
11.1511259346
 20
-9.2426637905
 10
11.1524555278
 20
-9.2533390545
 10
11.1535387114
 20
-9.2642957389
  0
LWPOLYLINE
  5
492
100
AcDbEntity
  8
IMPORT_IGES
100
AcDbPolyline
 62
7
  6
CONTINUOUS
 90
58
 70
0
 10
11.1535387114
 20
-9.2642957389
 10
11.1526139761
 20
-9.2749892452
 10
11.1514140341
 20
-9.2854117842
 10
11.1499388852
 20
-9.2955633561
 10
11.1482589637
 20
-9.3054215686
 10
11.1463038354
 20
-9.3150088138
 10
11.1438621977
 20
-9.3243922681
 10
11.1408934139
 20
-9.3335851105
 10
11.1374381207
 20
-9.3425741619
 10
11.1334069259
 20
-9.3513870612
 10
11.128776211
 20
-9.3600299758
 10
11.1235695944
 20
-9.3684967382
 10
11.1177685394
 20
-9.3767964846
 10
11.1113557231
 20
-9.3849754518
 10
11.1043484684
 20
-9.392987403
 10
11.0967802077
 20
-9.400702764
 10
11.0885981009
 20
-9.4081473307
 10
11.079854988
 20
-9.4152953073
 10
11.0707428226
 20
-9.4219397324
 10
11.0612657237
 20
-9.4280415763
 10
11.0514195722
 20
-9.4336398687
 10
11.0413839635
 20
-9.438644738
 10
11.0311766837
 20
-9.4430336216
 10
11.0207799468
 20
-9.4468290821
 10
11.0103199896
 20
-9.4500089352
 10
10.9998208592
 20
-9.452567629
 10
10.9892585085
 20
-9.4545107154
 10
10.9786870334
 20
-9.4558326667
 10
10.96811932
 20
-9.4565315749
 10
10.957542482
 20
-9.456609348
 10
10.9469719565
 20
-9.4560661829
 10
10.936400268
 20
-9.4549011962
 10
10.925834892
 20
-9.4531152713
 10
10.9153136913
 20
-9.450711256
 10
10.904812253
 20
-9.4476871493
 10
10.89435499
 20
-9.4440449521
 10
10.8840530039
 20
-9.4397935152
 10
10.8738659013
 20
-9.4348953523
 10
10.8638340756
 20
-9.4293879498
 10
10.8541898091
 20
-9.4233926173
 10
10.8449622333
 20
-9.4168951207
 10
10.8361222168
 20
-9.4099096942
 10
10.8278146474
 20
-9.4026003509
 10
10.8200657329
 20
-9.3949807593
 10
10.8128492656
 20
-9.3870372509
 10
10.8062315109
 20
-9.3788928331
 10
10.8002348652
 20
-9.3705971854
 10
10.794836932
 20
-9.3621006283
 10
10.790036787
 20
-9.3533771313
 10
10.7858627472
 20
-9.3444141093
 10
10.7822864956
 20
-9.3352241473
 10
10.7792221571
 20
-9.3258189696
 10
10.776729593
 20
-9.3162245615
 10
10.774748942
 20
-9.3064149378
 10
10.7730147454
 20
-9.2963238668
 10
10.7714385168
 20
-9.2859292714
 10
10.7701087425
 20
-9.2752532288
 10
10.7690254226
 20
-9.2642957389
  0
LINE
  5
493
100
AcDbEntity
  8
IMPORT_IGES
100
AcDbLine
 62
7
  6
CONTINUOUS
 10
11.0101541504
 20
-8.7056810081
 11
11.0507728532
 21
-8.2414046943
  0
LINE
  5
494
100
AcDbEntity
  8
IMPORT_IGES
100
AcDbLine
 62
7
  6
CONTINUOUS
 10
11.2522616982
 20
-5.9383706271
 11
11.0653545708
 21
-8.0747240305
  0
LINE
  5
495
100
AcDbEntity
  8
IMPORT_IGES
100
AcDbLine
 62
7
  6
CONTINUOUS
 10
11.2696411088
 20
-5.7397269726
 11
11.3089000806
 21
-5.2909971297
  0
LINE
  5
496
100
AcDbEntity
  8
IMPORT_IGES
100
AcDbLine
 62
7
  6
CONTINUOUS
 10
11.3145057112
 20
-5.2269109607
 11
11.3369338214
 21
-4.9705700099
  0
LINE
  5
497
100
AcDbEntity
  8
IMPORT_IGES
100
AcDbLine
 62
7
  6
CONTINUOUS
 10
11.1099276692
 20
-8.300558579
 11
11.073675938
 21
-8.7149271786
  0
LINE
  5
498
100
AcDbEntity
  8
IMPORT_IGES
100
AcDbLine
 62
7
  6
CONTINUOUS
 10
11.3732311875
 20
-5.2909971297
 11
11.3401403651
 21
-5.669229579
  0
LINE
  5
499
100
AcDbEntity
  8
IMPORT_IGES
100
AcDbLine
 62
7
  6
CONTINUOUS
 10
11.124510318
 20
-8.1338816404
 11
11.3171627745
 21
-5.9318513691
  0
LINE
  5
49A
100
AcDbEntity
  8
IMPORT_IGES
100
AcDbLine
 62
7
  6
CONTINUOUS
 10
11.401263997
 20
-4.9705700099
 11
11.378836818
 21
-5.2269109607
  0
LWPOLYLINE
  5
49B
100
AcDbEntity
  8
IMPORT_IGES
100
AcDbPolyline
 62
7
  6
CONTINUOUS
 90
10
 70
0
 10
10.640854016
 20
-9.2642957389
 10
10.6422433142
 20
-9.249228564
 10
10.6439107133
 20
-9.2345009844
 10
10.6458562131
 20
-9.2201130001
 10
10.6480143602
 20
-9.2060467724
 10
10.6504506081
 20
-9.1923201401
 10
10.6533613173
 20
-9.1789866192
 10
10.6568119414
 20
-9.1660640485
 10
10.6607370268
 20
-9.1535345893
 10
10.6651365735
 20
-9.1413982415
  0
LWPOLYLINE
  5
49C
100
AcDbEntity
  8
IMPORT_IGES
100
AcDbPolyline
 62
7
  6
CONTINUOUS
 90
10
 70
0
 10
11.2817101181
 20
-9.2642957389
 10
11.2803205939
 20
-9.279362798
 10
11.2786529921
 20
-9.2940902815
 10
11.2767073126
 20
-9.3084781895
 10
11.2745490031
 20
-9.3225443609
 10
11.272112616
 20
-9.3362709567
 10
11.2692018078
 20
-9.34960446
 10
11.2657511309
 20
-9.3625270319
 10
11.261826033
 20
-9.3750565113
 10
11.2574265141
 20
-9.3871928981
  0
LWPOLYLINE
  5
49D
100
AcDbEntity
  8
IMPORT_IGES
100
AcDbPolyline
 62
7
  6
CONTINUOUS
 90
10
 70
0
 10
11.1619187519
 20
-4.5811252713
 10
11.1586779325
 20
-4.5959235262
 10
11.1562498282
 20
-4.6107403081
 10
11.1546344389
 20
-4.6255756169
 10
11.1538784355
 20
-4.6404571371
 10
11.1539351472
 20
-4.6553571843
 10
11.1546645618
 20
-4.6701927054
 10
11.1560200085
 20
-4.6849360161
 10
11.1580481582
 20
-4.6996148007
 10
11.1607490107
 20
-4.7142290592
  0
LWPOLYLINE
  5
49E
100
AcDbEntity
  8
0
100
AcDbPolyline
 62
7
  6
CONTINUOUS
 90
8
 70
0
 10
15.4845621853
 20
11.4393168027
 10
15.4896076649
 20
11.4526157712
 10
15.4943589316
 20
11.4666767607
 10
15.498737588
 20
11.4813089632
 10
15.5030005952
 20
11.4961983465
 10
15.5071519224
 20
11.5111877847
 10
15.5109134325
 20
11.5262641588
 10
15.5141651337
 20
11.5413471804
  0
LINE
  5
49F
100
AcDbEntity
  8
0
100
AcDbLine
 62
7
  6
CONTINUOUS
 10
15.4749939294
 20
11.415295045
 11
15.4845621853
 21
11.4393168027
  0
LWPOLYLINE
  5
4A0
100
AcDbEntity
  8
0
100
AcDbPolyline
 62
7
  6
CONTINUOUS
 90
10
 70
0
 10
15.4749939294
 20
11.415295045
 10
15.473032462
 20
11.4113952412
 10
15.4708396496
 20
11.4076443164
 10
15.4684125651
 20
11.4040538628
 10
15.4657403085
 20
11.4006287951
 10
15.4628290026
 20
11.3973867242
 10
15.4597031325
 20
11.3943557705
 10
15.4563716483
 20
11.3915494853
 10
15.4528266642
 20
11.3889689311
 10
15.449069357
 20
11.3866205834
  0
LWPOLYLINE
  5
4A1
100
AcDbEntity
  8
IMPORT_IGES
100
AcDbPolyline
 62
7
  6
CONTINUOUS
 90
10
 70
0
 10
11.184132658
 20
-4.520872426
 10
11.1927084991
 20
-4.507271253
 10
11.2014286934
 20
-4.4942330192
 10
11.2102932407
 20
-4.4817577249
 10
11.2192507866
 20
-4.4697950159
 10
11.2283526855
 20
-4.4583952463
 10
11.237753001
 20
-4.4477094778
 10
11.2475030874
 20
-4.4377880641
 10
11.2575515904
 20
-4.4285806515
 10
11.26789851
 20
-4.42008724
  0
LINE
  5
4A2
100
AcDbEntity
  8
IMPORT_IGES
100
AcDbLine
 62
7
  6
CONTINUOUS
 10
-8.9440585504
 20
-28.3801051454
 11
-9.1118839641
 21
-28.5897910398
  0
LINE
  5
4A3
100
AcDbEntity
  8
IMPORT_IGES
100
AcDbLine
 62
7
  6
CONTINUOUS
 10
11.3401403651
 20
-5.669229579
 11
11.7183737457
 21
-5.2909971297
  0
LINE
  5
4A4
100
AcDbEntity
  8
IMPORT_IGES
100
AcDbLine
 62
7
  6
CONTINUOUS
 10
8.9101176709
 20
-8.0992513418
 11
9.9093699828
 21
-7.1000018239
  0
LINE
  5
4A5
100
AcDbEntity
  8
IMPORT_IGES
100
AcDbLine
 62
7
  6
CONTINUOUS
 10
7.0255240425
 20
-9.9838459015
 11
8.8509637862
 21
-8.1584052265
  0
LINE
  5
4A6
100
AcDbEntity
  8
IMPORT_IGES
100
AcDbLine
 62
7
  6
CONTINUOUS
 10
9.9999997765
 20
-7.0093692362
 11
11.1214946955
 21
-5.8878743172
  0
LINE
  5
4A7
100
AcDbEntity
  8
IMPORT_IGES
100
AcDbLine
 62
7
  6
CONTINUOUS
 10
11.7824599147
 20
-5.2269109607
 11
12.8838447854
 21
-4.1255251586
  0
LINE
  5
4A8
100
AcDbEntity
  8
IMPORT_IGES
100
AcDbLine
 62
7
  6
CONTINUOUS
 10
11.1855808646
 20
-5.8237881481
 11
11.2696411088
 21
-5.7397269726
  0
LINE
  5
4A9
100
AcDbEntity
  8
IMPORT_IGES
100
AcDbLine
 62
7
  6
CONTINUOUS
 10
-7.0559414496
 20
-15.9919710042
 11
-6.8881160359
 21
-15.8660571924
  0
LINE
  5
4AA
100
AcDbEntity
  8
IMPORT_IGES
100
AcDbLine
 62
7
  6
CONTINUOUS
 10
-3.0559414496
 20
-15.9919710042
 11
-2.8881160359
 21
-15.8660571924
  0
LWPOLYLINE
  5
4AB
100
AcDbEntity
  8
IMPORT_IGES
100
AcDbPolyline
 62
7
  6
CONTINUOUS
 90
64
 70
0
 10
11.26789851
 20
-4.42008724
 10
11.2794929029
 20
-4.4117522324
 10
11.2914413521
 20
-4.4040327336
 10
11.3037438576
 20
-4.3969287438
 10
11.316425659
 20
-4.3904242569
 10
11.3294615167
 20
-4.3845352789
 10
11.3427757122
 20
-4.3793098276
 10
11.3563732978
 20
-4.3747436279
 10
11.3702492212
 20
-4.370840955
 10
11.3843126068
 20
-4.3676626521
 10
11.3985669914
 20
-4.365224543
 10
11.4130088382
 20
-4.3635108039
 10
11.4275366616
 20
-4.3625348063
 10
11.4421608875
 20
-4.3623044764
 10
11.4568710901
 20
-4.3628118881
 10
11.4715345066
 20
-4.3640466348
 10
11.4861501504
 20
-4.3660126311
 10
11.5007190081
 20
-4.3687059625
 10
11.5151112763
 20
-4.3721044783
 10
11.5293509667
 20
-4.3762262919
 10
11.5434140677
 20
-4.38105329
 10
11.5570987406
 20
-4.386508982
 10
11.5703686606
 20
-4.392589268
 10
11.5832601526
 20
-4.3992982479
 10
11.5956803529
 20
-4.4065717317
 10
11.6076071736
 20
-4.4143934383
 10
11.6190627027
 20
-4.4227796488
 10
11.6300203398
 20
-4.4317150164
 10
11.6404712961
 20
-4.4411984089
 10
11.6504243605
 20
-4.4512309584
 10
11.6598792996
 20
-4.4618007143
 10
11.6688553951
 20
-4.4729252319
 10
11.6773333653
 20
-4.4845869558
 10
11.6852551323
 20
-4.4967212698
 10
11.6926282368
 20
-4.5093409746
 10
11.6994451381
 20
-4.5224332693
 10
11.7056251359
 20
-4.5358951354
 10
11.7111708184
 20
-4.5497695224
 10
11.7160795974
 20
-4.5640134807
 10
11.7202630083
 20
-4.5783951431
 10
11.7236962737
 20
-4.5928907082
 10
11.726404171
 20
-4.6075239774
 10
11.7283725672
 20
-4.6221344871
 10
11.7295888209
 20
-4.6367184436
 10
11.7300655735
 20
-4.6512796407
 10
11.7298266161
 20
-4.6656689961
 10
11.7288656458
 20
-4.6798496046
 10
11.7271889656
 20
-4.6938583715
 10
11.7248392748
 20
-4.7076569302
 10
11.7218354794
 20
-4.7212376246
 10
11.7181586735
 20
-4.7346081108
 10
11.7137948394
 20
-4.7477529906
 10
11.7087714609
 20
-4.7606686877
 10
11.7030610541
 20
-4.7733587785
 10
11.6965671499
 20
-4.7858185931
 10
11.6892631599
 20
-4.7980343615
 10
11.6811756724
 20
-4.8100198538
 10
11.6722879828
 20
-4.8218117104
 10
11.6625940737
 20
-4.8333717855
 10
11.6520999625
 20
-4.8447382249
 10
11.6408069954
 20
-4.8560621067
 10
11.6287156215
 20
-4.8673937905
 10
11.6158253919
 20
-4.8786829166
 10
11.6021363065
 20
-4.8899294853
  0
LWPOLYLINE
  5
4AC
100
AcDbEntity
  8
0
100
AcDbPolyline
 62
7
  6
CONTINUOUS
 90
8
 70
0
 10
12.4875479642
 20
11.3910101646
 10
12.4735079799
 20
11.3887301939
 10
12.4589551724
 20
11.3858144168
 10
12.4440939851
 20
11.3822903433
 10
12.4290678974
 20
11.3785375241
 10
12.4140109994
 20
11.3746379598
 10
12.3990737214
 20
11.3703573361
 10
12.3843855909
 20
11.3656318811
  0
LINE
  5
4AD
100
AcDbEntity
  8
0
100
AcDbLine
 62
7
  6
CONTINUOUS
 10
12.5131355446
 20
11.3947346908
 11
12.4875479642
 21
11.3910101646
  0
LWPOLYLINE
  5
4AE
100
AcDbEntity
  8
0
100
AcDbPolyline
 62
7
  6
CONTINUOUS
 90
10
 70
0
 10
12.5131355446
 20
11.3947346908
 10
12.5174936075
 20
11.3949859121
 10
12.5218384098
 20
11.3949623432
 10
12.5261613761
 20
11.3946556532
 10
12.5304637
 20
11.394053945
 10
12.5347270687
 20
11.3931537156
 10
12.5389148867
 20
11.3919621095
 10
12.543010943
 20
11.3904801022
 10
12.5470182606
 20
11.388700333
 10
12.550930643
 20
11.3866205834
  0
LINE
  5
4AF
100
AcDbEntity
  8
0
100
AcDbLine
 62
253
  6
CONTINUOUS
 10
15.8086006748
 20
10.6165498566
 11
15.7089144185
 21
10.6128817688
  0
LINE
  5
4B0
100
AcDbEntity
  8
0
100
AcDbLine
 62
253
  6
CONTINUOUS
 10
-12.1913993252
 20
10.6165498566
 11
-12.2910855815
 21
10.6128817688
  0
LWPOLYLINE
  5
4B1
100
AcDbEntity
  8
0
100
AcDbPolyline
 62
253
  6
CONTINUOUS
 90
13
 70
0
 10
13.0869565217
 20
10.9014305987
 10
13.1010987485
 20
10.9014735303
 10
13.1152190258
 20
10.9014148316
 10
13.1290339203
 20
10.9012556782
 10
13.1422661244
 20
10.9009992619
 10
13.1546500037
 20
10.9006507277
 10
13.1659369347
 20
10.9002170708
 10
13.1759003284
 20
10.8997069949
 10
13.1843401502
 20
10.8991307377
 10
13.191086934
 20
10.8984998675
 10
13.1960052205
 20
10.8978270488
 10
13.1989962642
 20
10.8971257875
 10
13.2
 20
10.8964101612
  0
LWPOLYLINE
  5
4B2
100
AcDbEntity
  8
0
100
AcDbPolyline
 62
253
  6
CONTINUOUS
 90
13
 70
0
 10
-14.9130434783
 20
10.9014305987
 10
-14.8989012515
 20
10.9014735303
 10
-14.8847809742
 20
10.9014148316
 10
-14.8709660797
 20
10.9012556782
 10
-14.8577338756
 20
10.9009992619
 10
-14.8453499963
 20
10.9006507277
 10
-14.8340630653
 20
10.9002170708
 10
-14.8240996716
 20
10.8997069949
 10
-14.8156598498
 20
10.8991307377
 10
-14.808913066
 20
10.8984998675
 10
-14.8039947795
 20
10.8978270488
 10
-14.8010037358
 20
10.8971257875
 10
-14.8
 20
10.8964101612
  0
LWPOLYLINE
  5
4B3
100
AcDbEntity
  8
0
100
AcDbPolyline
 62
253
  6
CONTINUOUS
 90
13
 70
0
 10
-13.8985507246
 20
9.4957082041
 10
-13.9117343235
 20
9.4958106854
 10
-13.9247134281
 20
9.4961738544
 10
-13.9372618514
 20
9.4967913823
 10
-13.9491609117
 20
9.4976525074
 10
-13.9602032439
 20
9.4987422228
 10
-13.9701964132
 20
9.5000415381
 10
-13.9789662685
 20
9.50152781
 10
-13.9863599773
 20
9.5031751372
 10
-13.9922486895
 20
9.5049548116
 10
-13.9965297824
 20
9.5068358188
 10
-13.9991286493
 20
9.5087853784
 10
-14.0
 20
9.5107695155
  0
LWPOLYLINE
  5
4B4
100
AcDbEntity
  8
0
100
AcDbPolyline
 62
253
  6
CONTINUOUS
 90
13
 70
0
 10
14.1014492754
 20
9.4957082041
 10
14.0882656765
 20
9.4958106854
 10
14.0752865719
 20
9.4961738544
 10
14.0627381486
 20
9.4967913823
 10
14.0508390883
 20
9.4976525074
 10
14.0397967561
 20
9.4987422228
 10
14.0298035868
 20
9.5000415381
 10
14.0210337315
 20
9.50152781
 10
14.0136400227
 20
9.5031751372
 10
14.0077513105
 20
9.5049548116
 10
14.0034702176
 20
9.5068358188
 10
14.0008713507
 20
9.5087853784
 10
14.0
 20
9.5107695155
  0
LWPOLYLINE
  5
4B5
100
AcDbEntity
  8
IMPORT_IGES
100
AcDbPolyline
 62
253
  6
CONTINUOUS
 90
40
 70
0
 10
-5.3640053435
 20
14.4746130646
 10
-5.4193330286
 20
14.4941625047
 10
-5.4744002016
 20
14.5156341298
 10
-5.5291579541
 20
14.539031734
 10
-5.5836059456
 20
14.5643818229
 10
-5.6376399787
 20
14.5916636087
 10
-5.6910600893
 20
14.62079321
 10
-5.7438143664
 20
14.6517514163
 10
-5.7958577142
 20
14.6845222528
 10
-5.8470135609
 20
14.7189983858
 10
-5.8972102956
 20
14.7551264538
 10
-5.9464335635
 20
14.7928926883
 10
-5.9946019931
 20
14.8322323005
 10
-6.0416718151
 20
14.8731061474
 10
-6.0876019079
 20
14.9154771368
 10
-6.1323193922
 20
14.9592763868
 10
-6.1758064286
 20
15.0044865158
 10
-6.2179973163
 20
15.0510417556
 10
-6.258758891
 20
15.0987886172
 10
-6.2980269828
 20
15.1476344954
 10
-6.335804603
 20
15.1975679151
 10
-6.3720681078
 20
15.2485495824
 10
-6.4067737354
 20
15.3005120318
 10
-6.4399020493
 20
15.3534230637
 10
-6.4714593365
 20
15.4073009302
 10
-6.5014263934
 20
15.4621352168
 10
-6.5297445923
 20
15.5178459212
 10
-6.5563584955
 20
15.5743486326
 10
-6.5812523017
 20
15.6316409021
 10
-6.6043698082
 20
15.6896310318
 10
-6.6256146729
 20
15.7480929288
 10
-6.6449692551
 20
15.8069740148
 10
-6.6624163073
 20
15.8662219427
 10
-6.6778943787
 20
15.9256012061
 10
-6.6914011748
 20
15.9850385171
 10
-6.7029447157
 20
16.0445002432
 10
-6.7125100166
 20
16.1038055915
 10
-6.7201095622
 20
16.1628601144
 10
-6.7257696346
 20
16.2216584274
 10
-6.7295100404
 20
16.2801542182
  0
LINE
  5
4B6
100
AcDbEntity
  8
IMPORT_IGES
100
AcDbLine
 62
253
  6
CONTINUOUS
 10
-5.5220841649
 20
46.0997227557
 11
-5.3640061051
 21
45.6253892349
  0
LINE
  5
4B7
100
AcDbEntity
  8
IMPORT_IGES
100
AcDbLine
 62
253
  6
CONTINUOUS
 10
5.5220841649
 20
14.0002772444
 11
5.3640061051
 21
14.4746107651
  0
LINE
  5
4B8
100
AcDbEntity
  8
IMPORT_IGES
100
AcDbLine
 62
253
  6
CONTINUOUS
 10
-5.2100829301
 20
45.5225432158
 11
-4.9003362138
 21
44.5717641567
  0
LINE
  5
4B9
100
AcDbEntity
  8
IMPORT_IGES
100
AcDbLine
 62
253
  6
CONTINUOUS
 10
5.2100829301
 20
14.5774567842
 11
4.9003362138
 21
15.5282358434
  0
LWPOLYLINE
  5
4BA
100
AcDbEntity
  8
0
100
AcDbPolyline
 62
253
  6
CONTINUOUS
 90
13
 70
0
 10
13.0869565217
 20
10.9014305987
 10
13.0865500244
 20
10.9103292336
 10
13.0854127024
 20
10.9190304452
 10
13.0835373766
 20
10.9275462104
 10
13.080881883
 20
10.9359578473
 10
13.0774753155
 20
10.9442026458
 10
13.0734121331
 20
10.952068669
 10
13.0686585966
 20
10.9595296872
 10
13.0632241225
 20
10.9666068829
 10
13.0572606672
 20
10.973148027
 10
13.0508093971
 20
10.9790930819
 10
13.0438035186
 20
10.9844779357
 10
13.0362318841
 20
10.9892882483
  0
LWPOLYLINE
  5
4BB
100
AcDbEntity
  8
0
100
AcDbPolyline
 62
253
  6
CONTINUOUS
 90
10
 70
0
 10
15.8086006748
 20
10.6165498566
 10
15.8086440659
 20
10.6094515737
 10
15.8081807309
 20
10.6022498916
 10
15.8072094055
 20
10.5949507279
 10
15.8057409134
 20
10.587540206
 10
15.8037617523
 20
10.5800444468
 10
15.8012349158
 20
10.5725298278
 10
15.7981480779
 20
10.5650230421
 10
15.7945127765
 20
10.5575108396
 10
15.7903285716
 20
10.55
  0
LWPOLYLINE
  5
4BC
100
AcDbEntity
  8
0
100
AcDbPolyline
 62
7
  6
CONTINUOUS
 90
8
 70
0
 10
13.1030928223
 20
12.0952142235
 10
13.1031595443
 20
12.0816967191
 10
13.1035222403
 20
12.0682866677
 10
13.1041688792
 20
12.0551504092
 10
13.1049159697
 20
12.0424954734
 10
13.1057691503
 20
12.030514104
 10
13.1069055207
 20
12.0193708168
 10
13.1084079401
 20
12.009248507
  0
LINE
  5
4BD
100
AcDbEntity
  8
IMPORT_IGES
100
AcDbLine
 62
7
  6
CONTINUOUS
 10
12.5979995355
 20
-12.6724773168
 11
12.5979995355
 21
-11.6724752903
  0
LINE
  5
4BE
100
AcDbEntity
  8
0
100
AcDbLine
 62
7
  6
CONTINUOUS
 10
13.2
 20
10.8964101615
 11
13.2
 21
9.0909598214
  0
LINE
  5
4BF
100
AcDbEntity
  8
0
100
AcDbLine
 62
7
  6
CONTINUOUS
 10
14.0
 20
9.5107695155
 11
14.0
 21
8.8767588333
  0
LINE
  5
4C0
100
AcDbEntity
  8
0
100
AcDbLine
 62
253
  6
CONTINUOUS
 10
14.1014492754
 20
9.4957082041
 11
14.1014492754
 21
8.7430209385
  0
LINE
  5
4C1
100
AcDbEntity
  8
0
100
AcDbLine
 62
253
  6
CONTINUOUS
 10
13.0869565217
 20
8.9873686004
 11
13.0869361757
 21
10.3112529896
  0
LWPOLYLINE
  5
4C2
100
AcDbEntity
  8
0
100
AcDbPolyline
 62
253
  6
CONTINUOUS
 90
3
 70
0
 10
13.0869361757
 20
10.3112529896
 10
13.087040616
 20
10.8247772138
 10
13.0869565217
 20
10.9014305987
  0
LINE
  5
4C3
100
AcDbEntity
  8
0
100
AcDbLine
 62
7
  6
CONTINUOUS
 10
13.1032432503
 20
12.1220345468
 11
13.1030928223
 21
12.0952142235
  0
LWPOLYLINE
  5
4C4
100
AcDbEntity
  8
0
100
AcDbPolyline
 62
7
  6
CONTINUOUS
 90
10
 70
0
 10
13.2
 20
9.0909598214
 10
13.1997202355
 20
9.0847267046
 10
13.1990063673
 20
9.0788542376
 10
13.1978516237
 20
9.0733426319
 10
13.1962236265
 20
9.068180112
 10
13.1941426009
 20
9.0633802469
 10
13.1916814134
 20
9.0589810659
 10
13.1888613417
 20
9.054995614
 10
13.1856520353
 20
9.0514128555
 10
13.1820497524
 20
9.0482343728
  0
LWPOLYLINE
  5
4C5
100
AcDbEntity
  8
IMPORT_IGES
100
AcDbPolyline
 62
7
  6
CONTINUOUS
 90
31
 70
0
 10
10.6651365735
 20
-9.1413982415
 10
10.6767099095
 20
-9.1162773289
 10
10.6902903669
 20
-9.0925798986
 10
10.7058779457
 20
-9.0703059506
 10
10.7235224164
 20
-9.0493785397
 10
10.7431740085
 20
-9.0298746111
 10
10.7646834106
 20
-9.0120250003
 10
10.7885085596
 20
-8.99564982
 10
10.8141915187
 20
-8.9809289575
 10
10.8402091653
 20
-8.9686329096
 10
10.8659695513
 20
-8.9590418676
 10
10.8920646249
 20
-8.9518756402
 10
10.918747108
 20
-8.9470641513
 10
10.9462571801
 20
-8.9444822974
 10
10.9743546618
 20
-8.9442551818
 10
11.0025717367
 20
-8.9466880385
 10
11.0311117956
 20
-8.9519424047
 10
11.0597714478
 20
-8.959856743
 10
11.0874727049
 20
-8.9702516756
 10
11.1141151952
 20
-8.9831802
 10
11.1397992903
 20
-8.9985893186
 10
11.1637481164
 20
-9.0161406608
 10
11.1858650654
 20
-9.0357961737
 10
11.2062467453
 20
-9.0575939102
 10
11.2244061067
 20
-9.0813096581
 10
11.2403292948
 20
-9.1068367627
 10
11.2540301643
 20
-9.1342818788
 10
11.2650632299
 20
-9.1637407591
 10
11.2732799965
 20
-9.1952453214
 10
11.2788289592
 20
-9.228763648
 10
11.2817101181
 20
-9.2642957389
  0
LWPOLYLINE
  5
4C6
100
AcDbEntity
  8
IMPORT_IGES
100
AcDbPolyline
 62
7
  6
CONTINUOUS
 90
31
 70
0
 10
11.2574265141
 20
-9.3871928981
 10
11.2458524473
 20
-9.4123158519
 10
11.2322708768
 20
-9.4360151287
 10
11.2166818027
 20
-9.4582907286
 10
11.1990354266
 20
-9.4792196809
 10
11.1793815469
 20
-9.4987249563
 10
11.1578695587
 20
-9.5165754662
 10
11.1340415011
 20
-9.5329510173
 10
11.108355335
 20
-9.5476718029
 10
11.0823343379
 20
-9.559967315
 10
11.0565704117
 20
-9.5695573994
 10
11.0304716545
 20
-9.5767222102
 10
11.0037856377
 20
-9.5815317019
 10
10.9762720847
 20
-9.5841108427
 10
10.948171272
 20
-9.5843346644
 10
10.9199516014
 20
-9.5818982168
 10
10.8914096839
 20
-9.5766398312
 10
10.8627489084
 20
-9.5687211763
 10
10.8350478431
 20
-9.5583223078
 10
10.8084073164
 20
-9.5453904291
 10
10.7827264999
 20
-9.5299783369
 10
10.7587814774
 20
-9.512424476
 10
10.7366687549
 20
-9.4927666323
 10
10.7162918264
 20
-9.47096702
 10
10.6981372573
 20
-9.4472507271
 10
10.6822190327
 20
-9.421724528
 10
10.6685231676
 20
-9.3942816484
 10
10.6574942723
 20
-9.3648268532
 10
10.6492805503
 20
-9.3333283973
 10
10.6437337982
 20
-9.2998180259
 10
10.640854016
 20
-9.2642957389
  0
LINE
  5
4C7
100
AcDbEntity
  8
IMPORT_IGES
100
AcDbLine
 62
7
  6
CONTINUOUS
 10
-4.9440585504
 20
-28.3801051454
 11
-5.1118839641
 21
-28.5897910398
  0
LINE
  5
4C8
100
AcDbEntity
  8
IMPORT_IGES
100
AcDbLine
 62
7
  6
CONTINUOUS
 10
11.2522616982
 20
-5.9383706271
 11
10.0906295702
 21
-7.1000018239
  0
LINE
  5
4C9
100
AcDbEntity
  8
IMPORT_IGES
100
AcDbLine
 62
7
  6
CONTINUOUS
 10
12.9744764417
 20
-4.216154021
 11
11.890521273
 21
-5.3001091897
  0
LINE
  5
4CA
100
AcDbEntity
  8
IMPORT_IGES
100
AcDbLine
 62
7
  6
CONTINUOUS
 10
9.9999997765
 20
-7.1906306863
 11
8.9247003198
 21
-8.2659320056
  0
LINE
  5
4CB
100
AcDbEntity
  8
IMPORT_IGES
100
AcDbLine
 62
7
  6
CONTINUOUS
 10
8.8655464351
 20
-8.3250858903
 11
7.1161547676
 21
-10.0744784891
  0
LINE
  5
4CC
100
AcDbEntity
  8
IMPORT_IGES
100
AcDbLine
 62
7
  6
CONTINUOUS
 10
11.826435104
 20
-5.3641953587
 11
11.322866194
 21
-5.8677652001
  0
LINE
  5
4CD
100
AcDbEntity
  8
IMPORT_IGES
100
AcDbLine
 62
7
  6
CONTINUOUS
 10
0.9440585504
 20
-15.9919710042
 11
1.1118839641
 21
-15.8660571924
  0
LINE
  5
4CE
100
AcDbEntity
  8
IMPORT_IGES
100
AcDbLine
 62
7
  6
CONTINUOUS
 10
4.9440585504
 20
-15.9919710042
 11
5.1118839641
 21
-15.8660571924
  0
LWPOLYLINE
  5
4CF
100
AcDbEntity
  8
0
100
AcDbPolyline
 62
7
  6
CONTINUOUS
 90
8
 70
0
 10
-15.5124520358
 20
11.3910101646
 10
-15.5264920201
 20
11.3887301939
 10
-15.5410448276
 20
11.3858144168
 10
-15.5559060149
 20
11.3822903433
 10
-15.5709321026
 20
11.3785375241
 10
-15.5859890006
 20
11.3746379598
 10
-15.6009262786
 20
11.3703573361
 10
-15.6156144091
 20
11.3656318811
  0
LINE
  5
4D0
100
AcDbEntity
  8
0
100
AcDbLine
 62
7
  6
CONTINUOUS
 10
-15.4868644554
 20
11.3947346908
 11
-15.5124520358
 21
11.3910101646
  0
LWPOLYLINE
  5
4D1
100
AcDbEntity
  8
0
100
AcDbPolyline
 62
7
  6
CONTINUOUS
 90
10
 70
0
 10
-15.4868644554
 20
11.3947346908
 10
-15.4825063925
 20
11.3949859121
 10
-15.4781615902
 20
11.3949623432
 10
-15.4738386239
 20
11.3946556532
 10
-15.4695363
 20
11.394053945
 10
-15.4652729313
 20
11.3931537156
 10
-15.4610851133
 20
11.3919621095
 10
-15.456989057
 20
11.3904801022
 10
-15.4529817394
 20
11.388700333
 10
-15.449069357
 20
11.3866205834
  0
LINE
  5
4D2
100
AcDbEntity
  8
IMPORT_IGES
100
AcDbLine
 62
253
  6
CONTINUOUS
 10
-23.2934535196
 20
12.7293170453
 11
-21.0295994229
 21
12.7293170453
  0
LINE
  5
4D3
100
AcDbEntity
  8
IMPORT_IGES
100
AcDbLine
 62
253
  6
CONTINUOUS
 10
21.0295994229
 20
12.7293170453
 11
23.2934535196
 21
12.7293170453
  0
LWPOLYLINE
  5
4D4
100
AcDbEntity
  8
IMPORT_IGES
100
AcDbPolyline
 62
253
  6
CONTINUOUS
 90
19
 70
0
 10
-4.9003362138
 20
15.5282358434
 10
-4.9640991127
 20
15.5515015804
 10
-5.0255953622
 20
15.57866796
 10
-5.0848249623
 20
15.6097349822
 10
-5.1420251299
 20
15.6448793609
 10
-5.1969586481
 20
15.6839243821
 10
-5.248913866
 20
15.7263399043
 10
-5.2978524091
 20
15.7721654001
 10
-5.343812652
 20
15.8213613967
 10
-5.386198067
 20
15.8732793346
 10
-5.4249653643
 20
15.9279521931
 10
-5.4601578338
 20
15.9853469929
 10
-5.4913088177
 20
16.0447162359
 10
-5.5183700653
 20
16.1060864408
 10
-5.5413898274
 20
16.1694310891
 10
-5.5600461984
 20
16.2339231273
 10
-5.5742318764
 20
16.2992868709
 10
-5.5840541633
 20
16.3657980044
 10
-5.5895130591
 20
16.4334565279
  0
LINE
  5
4D5
100
AcDbEntity
  8
IMPORT_IGES
100
AcDbLine
 62
253
  6
CONTINUOUS
 10
5.2100829268
 20
14.5774567831
 11
5.3640061058
 21
14.4746107654
  0
LINE
  5
4D6
100
AcDbEntity
  8
IMPORT_IGES
100
AcDbLine
 62
7
  6
CONTINUOUS
 10
-0.9440585504
 20
-28.3801051454
 11
-1.1118839641
 21
-28.5897910398
  0
LINE
  5
4D7
100
AcDbEntity
  8
IMPORT_IGES
100
AcDbLine
 62
7
  6
CONTINUOUS
 10
12.9744764417
 20
-9.9838459015
 11
12.8838447854
 21
-10.0744784891
  0
LINE
  5
4D8
100
AcDbEntity
  8
IMPORT_IGES
100
AcDbLine
 62
7
  6
CONTINUOUS
 10
8.9440585504
 20
-15.9919710042
 11
9.1118839641
 21
-15.8660571924
  0
LINE
  5
4D9
100
AcDbEntity
  8
IMPORT_IGES
100
AcDbLine
 62
253
  6
CONTINUOUS
 10
-7.2289642075
 20
16.2572064971
 11
-6.7295101392
 21
16.2801541673
  0
LINE
  5
4DA
100
AcDbEntity
  8
IMPORT_IGES
100
AcDbLine
 62
253
  6
CONTINUOUS
 10
-6.5884366208
 20
16.3878981535
 11
-5.5895130591
 21
16.433456528
  0
LINE
  5
4DB
100
AcDbEntity
  8
IMPORT_IGES
100
AcDbLine
 62
253
  6
CONTINUOUS
 10
5.5895130591
 20
16.433456528
 11
6.5884366208
 21
16.3878981535
  0
LINE
  5
4DC
100
AcDbEntity
  8
IMPORT_IGES
100
AcDbLine
 62
253
  6
CONTINUOUS
 10
6.7295101392
 20
16.2801541673
 11
7.2289642075
 21
16.2572064971
  0
LWPOLYLINE
  5
4DD
100
AcDbEntity
  8
0
100
AcDbPolyline
 62
253
  6
CONTINUOUS
 90
13
 70
0
 10
14.7608695652
 20
11.1650035476
 10
14.7687804004
 20
11.1609060003
 10
14.7768851739
 20
11.1575401634
 10
14.7851978478
 20
11.1549062818
 10
14.7938096091
 20
11.1530002777
 10
14.802651917
 20
11.1518282815
 10
14.8114949519
 20
11.1514143015
 10
14.8203334255
 20
11.1518005997
 10
14.8291804242
 20
11.1529684668
 10
14.8378274264
 20
11.1548624148
 10
14.8462016152
 20
11.1574768205
 10
14.8543677021
 20
11.1608515889
 10
14.8623188406
 20
11.1650035476
  0
LINE
  5
4DE
100
AcDbEntity
  8
0
100
AcDbLine
 62
7
  6
CONTINUOUS
 10
13.1
 20
11.0696152423
 11
12.550930643
 21
11.3866205834
  0
LINE
  5
4DF
100
AcDbEntity
  8
0
100
AcDbLine
 62
7
  6
CONTINUOUS
 10
13.1364341402
 20
11.9723404124
 11
14.7
 21
11.0696152423
  0
LINE
  5
4E0
100
AcDbEntity
  8
0
100
AcDbLine
 62
253
  6
CONTINUOUS
 10
14.5976625073
 20
11.2592311865
 11
14.7319885952
 21
11.1818108811
  0
LINE
  5
4E1
100
AcDbEntity
  8
0
100
AcDbLine
 62
253
  6
CONTINUOUS
 10
13.1032432503
 20
12.1220345468
 11
14.5976625073
 21
11.2592311865
  0
LINE
  5
4E2
100
AcDbEntity
  8
0
100
AcDbLine
 62
253
  6
CONTINUOUS
 10
13.0362318841
 20
10.9892882483
 11
12.3843855909
 21
11.3656318811
  0
LINE
  5
4E3
100
AcDbEntity
  8
0
100
AcDbLine
 62
253
  6
CONTINUOUS
 10
14.7319885952
 20
11.1818108811
 11
14.7608695652
 21
11.1650035476
  0
LWPOLYLINE
  5
4E4
100
AcDbEntity
  8
0
100
AcDbPolyline
 62
253
  6
CONTINUOUS
 90
13
 70
0
 10
15.7903288256
 20
10.5500000003
 10
15.7808822864
 20
10.5560075838
 10
15.7712282109
 20
10.5619379062
 10
15.7614908329
 20
10.5677146458
 10
15.7517954578
 20
10.5732634565
 10
15.74226685
 20
10.5785129246
 10
15.7330276275
 20
10.583395488
 10
15.7241966837
 20
10.5878483057
 10
15.7158876577
 20
10.5918140664
 10
15.7082074718
 20
10.5952417261
 10
15.7012549555
 20
10.5980871654
 10
15.6951195739
 20
10.6003137566
 10
15.6898802761
 20
10.6018928359
  0
LWPOLYLINE
  5
4E5
100
AcDbEntity
  8
0
100
AcDbPolyline
 62
7
  6
CONTINUOUS
 90
10
 70
0
 10
13.1364341402
 20
11.9723404124
 10
13.1311759849
 20
11.9756992539
 10
13.1264472134
 20
11.9792537154
 10
13.1222513947
 20
11.9830095556
 10
13.1185945199
 20
11.9870007024
 10
13.1154782276
 20
11.9912028561
 10
13.1128990188
 20
11.9955338974
 10
13.1108575521
 20
11.9999688771
 10
13.1093594455
 20
12.0045395972
 10
13.1084079401
 20
12.009248507
  0
LINE
  5
4E6
100
AcDbEntity
  8
IMPORT_IGES
100
AcDbLine
 62
253
  6
CONTINUOUS
 10
6.7295101398
 20
16.2801541808
 11
6.5884366209
 21
16.3878981549
  0
LWPOLYLINE
  5
4E7
100
AcDbEntity
  8
0
100
AcDbPolyline
 62
7
  6
CONTINUOUS
 90
8
 70
0
 10
14.0278897982
 20
8.819673091
 10
14.0368842864
 20
8.808654114
 10
14.0466858169
 20
8.7975089117
 10
14.0571683446
 20
8.7864007815
 10
14.067931431
 20
8.7752642071
 10
14.0788370174
 20
8.7641743147
 10
14.0900128108
 20
8.753378538
 10
14.1014492754
 20
8.7430209385
  0
LINE
  5
4E8
100
AcDbEntity
  8
0
100
AcDbLine
 62
7
  6
CONTINUOUS
 10
14.011870526
 20
8.8399702643
 11
14.0278897982
 21
8.819673091
  0
LWPOLYLINE
  5
4E9
100
AcDbEntity
  8
0
100
AcDbPolyline
 62
7
  6
CONTINUOUS
 90
10
 70
0
 10
14.011870526
 20
8.8399702643
 10
14.0094739305
 20
8.8436188467
 10
14.0073219406
 20
8.8473933404
 10
14.0054260589
 20
8.851290484
 10
14.0037959915
 20
8.8553172599
 10
14.0024439287
 20
8.8594595602
 10
14.0013819808
 20
8.86368212
 10
14.0006174086
 20
8.8679704126
 10
14.0001550752
 20
8.872330736
 10
14.0
 20
8.8767588333
  0
LWPOLYLINE
  5
4EA
100
AcDbEntity
  8
0
100
AcDbPolyline
 62
253
  6
CONTINUOUS
 90
13
 70
0
 10
14.152173913
 20
9.5835658538
 10
14.1450657661
 20
9.5957916628
 10
14.1380565786
 20
9.6080493219
 10
14.1312870433
 20
9.6200927945
 10
14.1248930519
 20
9.6316803279
 10
14.1190029614
 20
9.6425793139
 10
14.1137350186
 20
9.6525709572
 10
14.1091949841
 20
9.6614546722
 10
14.1054740337
 20
9.6690520637
 10
14.1026469065
 20
9.6752105413
 10
14.1007703759
 20
9.6798064409
 10
14.099882124
 20
9.6827474834
 10
14.1000000003
 20
9.6839745964
  0
LWPOLYLINE
  5
4EB
100
AcDbEntity
  8
0
100
AcDbPolyline
 62
253
  6
CONTINUOUS
 90
13
 70
0
 10
14.8623188406
 20
11.1650035476
 10
14.8688218887
 20
11.1535349754
 10
14.8749969273
 20
11.1421131566
 10
14.8807363441
 20
11.1309371394
 10
14.885940118
 20
11.1202016883
 10
14.8905175629
 20
11.1100938904
 10
14.8943889076
 20
11.1007898943
 10
14.897486686
 20
11.0924518409
 10
14.8997569132
 20
11.0852250376
 10
14.901160026
 20
11.079235426
 10
14.9016715724
 20
11.0745873873
 10
14.9012826378
 20
11.0713619226
 10
14.9
 20
11.0696152423
  0
LWPOLYLINE
  5
4EC
100
AcDbEntity
  8
0
100
AcDbPolyline
 62
253
  6
CONTINUOUS
 90
16
 70
0
 10
15.7384001476
 20
10.4993739973
 10
15.732901885
 20
10.5092552426
 10
15.7271550546
 20
10.5190187989
 10
15.721233526
 20
10.528539161
 10
15.7152134199
 20
10.537693941
 10
15.7091721166
 20
10.5463654626
 10
15.703187261
 20
10.5544422696
 10
15.6973357826
 20
10.5618205337
 10
15.6916929096
 20
10.5684053889
 10
15.6863311879
 20
10.5741121703
 10
15.6813195429
 20
10.5788675081
 10
15.6767224109
 20
10.5826102519
 10
15.6725989094
 20
10.5852922653
 10
15.6690020531
 20
10.5868790652
 10
15.6659780778
 20
10.5873502526
 10
15.6635658598
 20
10.5866997663
  0
LINE
  5
4ED
100
AcDbEntity
  8
IMPORT_IGES
100
AcDbLine
 62
7
  6
CONTINUOUS
 10
23.2320625058
 20
17.5715532023
 11
23.2245765601
 21
17.8469751585
  0
LINE
  5
4EE
100
AcDbEntity
  8
IMPORT_IGES
100
AcDbLine
 62
7
  6
CONTINUOUS
 10
23.2245765601
 20
17.8469751585
 11
23.2178539098
 21
18.1497442926
  0
LINE
  5
4EF
100
AcDbEntity
  8
IMPORT_IGES
100
AcDbLine
 62
7
  6
CONTINUOUS
 10
23.2178539098
 20
18.1497442926
 11
23.2119671789
 21
18.4762958748
  0
LINE
  5
4F0
100
AcDbEntity
  8
IMPORT_IGES
100
AcDbLine
 62
7
  6
CONTINUOUS
 10
23.2119671789
 20
18.4762958748
 11
23.2069607381
 21
18.8241652803
  0
LINE
  5
4F1
100
AcDbEntity
  8
IMPORT_IGES
100
AcDbLine
 62
7
  6
CONTINUOUS
 10
23.2069607381
 20
18.8241652803
 11
23.2028957629
 21
19.1894859277
  0
LINE
  5
4F2
100
AcDbEntity
  8
IMPORT_IGES
100
AcDbLine
 62
7
  6
CONTINUOUS
 10
23.2028957629
 20
19.1894859277
 11
23.1998138501
 21
19.5680286861
  0
LINE
  5
4F3
100
AcDbEntity
  8
IMPORT_IGES
100
AcDbLine
 62
7
  6
CONTINUOUS
 10
23.1998138501
 20
19.5680286861
 11
23.1977381095
 21
19.956935938
  0
LINE
  5
4F4
100
AcDbEntity
  8
IMPORT_IGES
100
AcDbLine
 62
7
  6
CONTINUOUS
 10
23.1977381095
 20
19.956935938
 11
23.1966985158
 21
20.3508232355
  0
LINE
  5
4F5
100
AcDbEntity
  8
IMPORT_IGES
100
AcDbLine
 62
253
  6
CONTINUOUS
 10
21.0295994229
 20
12.7293170334
 11
21.0295994229
 21
49.4751370061
  0
LINE
  5
4F6
100
AcDbEntity
  8
IMPORT_IGES
100
AcDbLine
 62
253
  6
CONTINUOUS
 10
23.0289140728
 20
49.9075846118
 11
23.0289140728
 21
12.7293170453
  0
LINE
  5
4F7
100
AcDbEntity
  8
IMPORT_IGES
100
AcDbLine
 62
7
  6
CONTINUOUS
 10
23.1966985158
 20
20.3508232355
 11
23.1965656098
 21
39.55
  0
LINE
  5
4F8
100
AcDbEntity
  8
IMPORT_IGES
100
AcDbLine
 62
7
  6
CONTINUOUS
 10
23.2934535196
 20
12.7293170461
 11
23.2934535196
 21
16.6079193311
  0
LINE
  5
4F9
100
AcDbEntity
  8
IMPORT_IGES
100
AcDbLine
 62
7
  6
CONTINUOUS
 10
23.2934535197
 20
43.4920806689
 11
23.2934535197
 21
50.1359375691
  0
LINE
  5
4FA
100
AcDbEntity
  8
IMPORT_IGES
100
AcDbLine
 62
7
  6
CONTINUOUS
 10
23.3
 20
16.95
 11
23.3
 21
43.15
  0
LINE
  5
4FB
100
AcDbEntity
  8
IMPORT_IGES
100
AcDbLine
 62
7
  6
CONTINUOUS
 10
23.1965651002
 20
39.5500000033
 11
23.1970895416
 21
39.9468719678
  0
LINE
  5
4FC
100
AcDbEntity
  8
IMPORT_IGES
100
AcDbLine
 62
7
  6
CONTINUOUS
 10
23.1970895416
 20
39.9468719678
 11
23.1986472452
 21
40.3382733955
  0
LINE
  5
4FD
100
AcDbEntity
  8
IMPORT_IGES
100
AcDbLine
 62
7
  6
CONTINUOUS
 10
23.1986472452
 20
40.3382733955
 11
23.2012295098
 21
40.7227421047
  0
LINE
  5
4FE
100
AcDbEntity
  8
IMPORT_IGES
100
AcDbLine
 62
7
  6
CONTINUOUS
 10
23.2012295098
 20
40.7227421047
 11
23.2048111431
 21
41.0953593669
  0
LINE
  5
4FF
100
AcDbEntity
  8
IMPORT_IGES
100
AcDbLine
 62
7
  6
CONTINUOUS
 10
23.2048111431
 20
41.0953593669
 11
23.2093468551
 21
41.4519520805
  0
LINE
  5
500
100
AcDbEntity
  8
IMPORT_IGES
100
AcDbLine
 62
7
  6
CONTINUOUS
 10
23.2093468551
 20
41.4519520805
 11
23.214802479
 21
41.7898289594
  0
LINE
  5
501
100
AcDbEntity
  8
IMPORT_IGES
100
AcDbLine
 62
7
  6
CONTINUOUS
 10
23.214802479
 20
41.7898289594
 11
23.2211202406
 21
42.1050484464
  0
LWPOLYLINE
  5
502
100
AcDbEntity
  8
IMPORT_IGES
100
AcDbPolyline
 62
253
  6
CONTINUOUS
 90
13
 70
0
 10
20.9019094247
 20
0.0500024131
 10
20.806292065
 20
-4.1073709502
 10
20.6831598247
 20
-8.2636572811
 10
20.5325127038
 20
-12.4188565795
 10
20.3543416733
 20
-16.5731513983
 10
20.1486557622
 20
-20.7263591846
 10
19.9154820571
 20
-24.87793228
 10
19.6548169073
 20
-29.0278704904
 10
19.3666639635
 20
-33.1761740099
 10
19.0510612647
 20
-37.3222957612
 10
18.7080214903
 20
-41.4660533854
 10
18.3375319608
 20
-45.6076292414
 10
17.9395926763
 20
-49.7470233293
  0
LINE
  5
503
100
AcDbEntity
  8
IMPORT_IGES
100
AcDbLine
 62
7
  6
CONTINUOUS
 10
23.2211202406
 20
42.1050484464
 11
23.2282244657
 21
42.3941408243
  0
LINE
  5
504
100
AcDbEntity
  8
IMPORT_IGES
100
AcDbLine
 62
7
  6
CONTINUOUS
 10
23.2282244657
 20
42.3941408243
 11
23.2360616131
 21
42.6549250761
  0
LWPOLYLINE
  5
505
100
AcDbEntity
  8
IMPORT_IGES
100
AcDbPolyline
 62
7
  6
CONTINUOUS
 90
4
 70
0
 10
23.2360616131
 20
42.6549250761
 10
23.2445459137
 20
42.8842952634
 10
23.2489972718
 20
42.9864085831
 10
23.2535782174
 20
43.0797968478
  0
LINE
  5
506
100
AcDbEntity
  8
IMPORT_IGES
100
AcDbLine
 62
7
  6
CONTINUOUS
 10
23.2535782174
 20
43.0797968478
 11
23.2582877801
 21
43.1645253224
  0
LWPOLYLINE
  5
507
100
AcDbEntity
  8
IMPORT_IGES
100
AcDbPolyline
 62
7
  6
CONTINUOUS
 90
8
 70
0
 10
23.2582877801
 20
43.1645253224
 10
23.2630904847
 20
43.2399539787
 10
23.2679870327
 20
43.3060142225
 10
23.2729767225
 20
43.3627746481
 10
23.2780219741
 20
43.4098010103
 10
23.2831102608
 20
43.4469485606
 10
23.2882541094
 20
43.4743620476
 10
23.2934535197
 20
43.4920414711
  0
LINE
  5
508
100
AcDbEntity
  8
IMPORT_IGES
100
AcDbLine
 62
7
  6
CONTINUOUS
 10
3.0559414496
 20
-28.3801051454
 11
2.8881160359
 21
-28.5897910398
  0
LINE
  5
509
100
AcDbEntity
  8
IMPORT_IGES
100
AcDbLine
 62
7
  6
CONTINUOUS
 10
-8.9440585504
 20
-45.8801051454
 11
-9.1118839641
 21
-46.0897910398
  0
LINE
  5
50A
100
AcDbEntity
  8
IMPORT_IGES
100
AcDbLine
 62
7
  6
CONTINUOUS
 10
7.0559414496
 20
-28.3801051454
 11
6.8881160359
 21
-28.5897910398
  0
LINE
  5
50B
100
AcDbEntity
  8
IMPORT_IGES
100
AcDbLine
 62
7
  6
CONTINUOUS
 10
-19.8895854741
 20
-50.3003683743
 11
-20.1121156991
 21
-50.5122717557
  0
LINE
  5
50C
100
AcDbEntity
  8
IMPORT_IGES
100
AcDbLine
 62
7
  6
CONTINUOUS
 10
-7.0559414496
 20
-33.4919710042
 11
-6.8881160359
 21
-33.3660571924
  0
LINE
  5
50D
100
AcDbEntity
  8
IMPORT_IGES
100
AcDbLine
 62
253
  6
CONTINUOUS
 10
-23.3
 20
20.65
 11
-23.1965656098
 21
20.65
  0
LINE
  5
50E
100
AcDbEntity
  8
IMPORT_IGES
100
AcDbLine
 62
253
  6
CONTINUOUS
 10
23.1965656098
 20
20.65
 11
23.3
 21
20.65
  0
LINE
  5
50F
100
AcDbEntity
  8
IMPORT_IGES
100
AcDbLine
 62
253
  6
CONTINUOUS
 10
-23.2934535197
 20
50.1359456364
 11
-23.0289140728
 21
49.9075844504
  0
LINE
  5
510
100
AcDbEntity
  8
IMPORT_IGES
100
AcDbLine
 62
7
  6
CONTINUOUS
 10
23.2582880512
 20
16.9354701602
 11
23.253578466
 21
17.020198382
  0
LWPOLYLINE
  5
511
100
AcDbEntity
  8
IMPORT_IGES
100
AcDbPolyline
 62
7
  6
CONTINUOUS
 90
3
 70
0
 10
23.253578466
 20
17.020198382
 10
23.2489974914
 20
17.1135866635
 10
23.2445460979
 20
17.2157003079
  0
LWPOLYLINE
  5
512
100
AcDbEntity
  8
IMPORT_IGES
100
AcDbPolyline
 62
7
  6
CONTINUOUS
 90
22
 70
0
 10
23.2934535197
 20
50.1359375691
 10
23.2898018512
 20
50.2388166474
 10
23.2794255876
 20
50.3401666619
 10
23.2623247288
 20
50.4399876126
 10
23.2383435886
 20
50.5386995098
 10
23.2076378533
 20
50.6358823433
 10
23.1706745814
 20
50.730276082
 10
23.127383561
 20
50.8218430019
 10
23.0778350041
 20
50.9106208272
 10
23.0227066049
 20
50.9954626989
 10
22.9619350785
 20
51.0763215887
 10
22.8955837098
 20
51.1532445249
 10
22.8245200483
 20
51.2252257342
 10
22.7486882863
 20
51.2922095192
 10
22.6681442315
 20
51.3542515773
 10
22.5839228559
 20
51.4105132266
 10
22.4959766693
 20
51.4609305192
 10
22.404353162
 20
51.5055674031
 10
22.3102297777
 20
51.5437770398
 10
22.2139989976
 20
51.5753438167
 10
22.1152683405
 20
51.6004833464
 10
22.0140378064
 20
51.6191956291
  0
LWPOLYLINE
  5
513
100
AcDbEntity
  8
IMPORT_IGES
100
AcDbPolyline
 62
7
  6
CONTINUOUS
 90
3
 70
0
 10
23.2445460979
 20
17.2157003079
 10
23.2360617127
 20
17.4450719333
 10
23.2320625058
 20
17.5715532023
  0
LWPOLYLINE
  5
514
100
AcDbEntity
  8
IMPORT_IGES
100
AcDbPolyline
 62
253
  6
CONTINUOUS
 90
13
 70
0
 10
19.8901045804
 20
-50.3004021733
 10
20.2948217493
 20
-46.1173544384
 10
20.6716173797
 20
-41.9317005484
 10
21.0204746351
 20
-37.7436268759
 10
21.3413778355
 20
-33.5533199315
 10
21.6343127211
 20
-29.3609662701
 10
21.899266451
 20
-25.1667524763
 10
22.1362271219
 20
-20.9708661529
 10
22.3451841783
 20
-16.7734932821
 10
22.5261286168
 20
-12.5748181183
 10
22.6790523815
 20
-8.3750267297
 10
22.8039484233
 20
-4.1743069981
 10
22.9008110674
 20
0.0271540314
  0
LWPOLYLINE
  5
515
100
AcDbEntity
  8
IMPORT_IGES
100
AcDbPolyline
 62
253
  6
CONTINUOUS
 90
13
 70
0
 10
19.889587313
 20
-50.3003501793
 10
19.8771069012
 20
-50.3941683073
 10
19.8587408546
 20
-50.4869886638
 10
19.8345674404
 20
-50.5784428274
 10
19.8046877109
 20
-50.6681707554
 10
19.7692254081
 20
-50.7558149068
 10
19.7283276208
 20
-50.8410221213
 10
19.6821625564
 20
-50.923456727
 10
19.6309189537
 20
-51.0027949207
 10
19.5748074904
 20
-51.078719713
 10
19.5140725598
 20
-51.150915452
 10
19.4489465108
 20
-51.2191225855
 10
19.3796401243
 20
-51.283122687
  0
LINE
  5
516
100
AcDbEntity
  8
IMPORT_IGES
100
AcDbLine
 62
7
  6
CONTINUOUS
 10
-4.9440585504
 20
-45.8801051454
 11
-5.1118839641
 21
-46.0897910398
  0
LINE
  5
517
100
AcDbEntity
  8
IMPORT_IGES
100
AcDbLine
 62
7
  6
CONTINUOUS
 10
-18.8410905043
 20
-51.8448589427
 11
-18.6171659835
 21
-51.6335609397
  0
LINE
  5
518
100
AcDbEntity
  8
IMPORT_IGES
100
AcDbLine
 62
7
  6
CONTINUOUS
 10
-3.0559414496
 20
-33.4919710042
 11
-2.8881160359
 21
-33.3660571924
  0
LINE
  5
519
100
AcDbEntity
  8
IMPORT_IGES
100
AcDbLine
 62
7
  6
CONTINUOUS
 10
0.9440585504
 20
-33.4919710042
 11
1.1118839641
 21
-33.3660571924
  0
LINE
  5
51A
100
AcDbEntity
  8
IMPORT_IGES
100
AcDbLine
 62
7
  6
CONTINUOUS
 10
-21.7472208166
 20
51.3912048363
 11
-22.01403332
 21
51.6191595894
  0
LWPOLYLINE
  5
51B
100
AcDbEntity
  8
IMPORT_IGES
100
AcDbPolyline
 62
7
  6
CONTINUOUS
 90
8
 70
0
 10
23.2934535196
 20
16.6079585293
 10
23.2882542028
 20
16.6256373725
 10
23.283110429
 20
16.6530502384
 10
23.2780221984
 20
16.6901971272
 10
23.2729769823
 20
16.7372227157
 10
23.2679873093
 20
16.793982327
 10
23.2630907651
 20
16.8600419305
 10
23.2582880512
 20
16.9354701602
  0
LINE
  5
51C
100
AcDbEntity
  8
IMPORT_IGES
100
AcDbLine
 62
7
  6
CONTINUOUS
 10
-0.9440585504
 20
-45.8801051454
 11
-1.1118839641
 21
-46.0897910398
  0
LINE
  5
51D
100
AcDbEntity
  8
IMPORT_IGES
100
AcDbLine
 62
7
  6
CONTINUOUS
 10
3.0559414496
 20
-45.8801051454
 11
2.8881160359
 21
-46.0897910398
  0
LINE
  5
51E
100
AcDbEntity
  8
IMPORT_IGES
100
AcDbLine
 62
7
  6
CONTINUOUS
 10
4.9440585504
 20
-33.4919710042
 11
5.1118839641
 21
-33.3660571924
  0
LINE
  5
51F
100
AcDbEntity
  8
IMPORT_IGES
100
AcDbLine
 62
253
  6
CONTINUOUS
 10
-6.7295101398
 20
43.8198458192
 11
-6.5884366209
 21
43.7121018451
  0
LINE
  5
520
100
AcDbEntity
  8
IMPORT_IGES
100
AcDbLine
 62
7
  6
CONTINUOUS
 10
7.0559414496
 20
-45.8801051454
 11
6.8881160359
 21
-46.0897910398
  0
LINE
  5
521
100
AcDbEntity
  8
IMPORT_IGES
100
AcDbLine
 62
7
  6
CONTINUOUS
 10
8.9440585504
 20
-33.4919710042
 11
9.1118839641
 21
-33.3660571924
  0
LINE
  5
522
100
AcDbEntity
  8
IMPORT_IGES
100
AcDbLine
 62
253
  6
CONTINUOUS
 10
-5.2100829268
 20
45.5225432169
 11
-5.3640061058
 21
45.6253892347
  0
LINE
  5
523
100
AcDbEntity
  8
IMPORT_IGES
100
AcDbLine
 62
253
  6
CONTINUOUS
 10
-17.9394090574
 20
-49.7469670505
 11
-18.1680240693
 21
-49.8156890538
  0
LINE
  5
524
100
AcDbEntity
  8
IMPORT_IGES
100
AcDbLine
 62
253
  6
CONTINUOUS
 10
-18.1680240693
 20
-49.8156890538
 11
-18.713702419
 21
-49.9770833465
  0
LINE
  5
525
100
AcDbEntity
  8
IMPORT_IGES
100
AcDbLine
 62
253
  6
CONTINUOUS
 10
-18.713702419
 20
-49.9770833465
 11
-19.0044759819
 21
-50.0618794291
  0
LINE
  5
526
100
AcDbEntity
  8
IMPORT_IGES
100
AcDbLine
 62
253
  6
CONTINUOUS
 10
-19.0044759819
 20
-50.0618794291
 11
-19.2610315079
 21
-50.135522604
  0
LINE
  5
527
100
AcDbEntity
  8
IMPORT_IGES
100
AcDbLine
 62
253
  6
CONTINUOUS
 10
23.3
 20
39.45
 11
23.1965656098
 21
39.45
  0
LINE
  5
528
100
AcDbEntity
  8
IMPORT_IGES
100
AcDbLine
 62
253
  6
CONTINUOUS
 10
-23.1965656098
 20
39.45
 11
-23.3
 21
39.45
  0
LINE
  5
529
100
AcDbEntity
  8
IMPORT_IGES
100
AcDbLine
 62
253
  6
CONTINUOUS
 10
23.0224315848
 20
49.9060779057
 11
23.0289140728
 21
49.9075846118
  0
LINE
  5
52A
100
AcDbEntity
  8
IMPORT_IGES
100
AcDbLine
 62
253
  6
CONTINUOUS
 10
21.5019920162
 20
49.5774155477
 11
21.7268034267
 21
49.6260748201
  0
LINE
  5
52B
100
AcDbEntity
  8
IMPORT_IGES
100
AcDbLine
 62
253
  6
CONTINUOUS
 10
21.7268034267
 20
49.6260748201
 11
22.3117378684
 21
49.7525950945
  0
LINE
  5
52C
100
AcDbEntity
  8
IMPORT_IGES
100
AcDbLine
 62
253
  6
CONTINUOUS
 10
21.0295994229
 20
49.4751860941
 11
21.5019920162
 21
49.5774155477
  0
LINE
  5
52D
100
AcDbEntity
  8
IMPORT_IGES
100
AcDbLine
 62
253
  6
CONTINUOUS
 10
22.3117378684
 20
49.7525950945
 11
23.0224315848
 21
49.9060779057
  0
LINE
  5
52E
100
AcDbEntity
  8
IMPORT_IGES
100
AcDbLine
 62
253
  6
CONTINUOUS
 10
7.2289642075
 20
43.8427935029
 11
6.7295101392
 21
43.8198458327
  0
LINE
  5
52F
100
AcDbEntity
  8
IMPORT_IGES
100
AcDbLine
 62
253
  6
CONTINUOUS
 10
6.5884366208
 20
43.7121018465
 11
5.5895130591
 21
43.666543472
  0
LINE
  5
530
100
AcDbEntity
  8
IMPORT_IGES
100
AcDbLine
 62
253
  6
CONTINUOUS
 10
-5.5895130591
 20
43.666543472
 11
-6.5884366208
 21
43.7121018465
  0
LINE
  5
531
100
AcDbEntity
  8
IMPORT_IGES
100
AcDbLine
 62
253
  6
CONTINUOUS
 10
-6.7295101392
 20
43.8198458327
 11
-7.2289642075
 21
43.8427935029
  0
LINE
  5
532
100
AcDbEntity
  8
IMPORT_IGES
100
AcDbLine
 62
253
  6
CONTINUOUS
 10
-23.0289140728
 20
49.9075844504
 11
-21.0295994229
 21
49.4751363267
  0
LWPOLYLINE
  5
533
100
AcDbEntity
  8
IMPORT_IGES
100
AcDbPolyline
 62
253
  6
CONTINUOUS
 90
40
 70
0
 10
5.3640053428
 20
45.6253869345
 10
5.4193330318
 20
45.6058374924
 10
5.4744002081
 20
45.5843658654
 10
5.5291579633
 20
45.5609682598
 10
5.5836059569
 20
45.5356181701
 10
5.6376399916
 20
45.508336384
 10
5.6910601036
 20
45.4792067826
 10
5.7438143816
 20
45.4482485764
 10
5.7958577301
 20
45.4154777401
 10
5.8470135772
 20
45.3810016075
 10
5.8972103124
 20
45.3448735399
 10
5.9464335805
 20
45.3071073059
 10
5.99460201
 20
45.2677676944
 10
6.0416718316
 20
45.2268938482
 10
6.0876019239
 20
45.1845228598
 10
6.132319407
 20
45.1407236113
 10
6.1758064415
 20
45.0955134845
 10
6.2179973269
 20
45.0489582477
 10
6.2587588988
 20
45.0012113897
 10
6.2980269875
 20
44.9523655158
 10
6.3358046044
 20
44.9024321009
 10
6.3720681063
 20
44.8514504383
 10
6.4067737315
 20
44.7994879931
 10
6.4399020433
 20
44.746576965
 10
6.4714593289
 20
44.6926991015
 10
6.501426385
 20
44.6378648169
 10
6.5297445834
 20
44.5821541136
 10
6.5563584868
 20
44.5256514021
 10
6.5812522936
 20
44.4683591313
 10
6.6043698011
 20
44.4103689991
 10
6.6256146669
 20
44.3519070989
 10
6.6449692502
 20
44.2930260089
 10
6.6624163035
 20
44.2337780761
 10
6.6778943758
 20
44.1743988082
 10
6.6914011725
 20
44.1149614927
 10
6.7029447136
 20
44.0554997624
 10
6.7125100146
 20
43.9961944109
 10
6.7201095603
 20
43.9371398861
 10
6.7257696329
 20
43.8783415721
 10
6.7295100389
 20
43.8198457814
  0
LWPOLYLINE
  5
534
100
AcDbEntity
  8
IMPORT_IGES
100
AcDbPolyline
 62
253
  6
CONTINUOUS
 90
19
 70
0
 10
4.9003362138
 20
44.5717641567
 10
4.9640991127
 20
44.5484984196
 10
5.0255953622
 20
44.52133204
 10
5.0848249623
 20
44.4902650178
 10
5.1420251299
 20
44.4551206391
 10
5.1969586481
 20
44.4160756179
 10
5.248913866
 20
44.3736600957
 10
5.2978524091
 20
44.3278346
 10
5.343812652
 20
44.2786386033
 10
5.386198067
 20
44.2267206654
 10
5.4249653643
 20
44.1720478069
 10
5.4601578338
 20
44.1146530072
 10
5.4913088177
 20
44.0552837641
 10
5.5183700653
 20
43.9939135592
 10
5.5413898274
 20
43.9305689109
 10
5.5600461984
 20
43.8660768728
 10
5.5742318764
 20
43.8007131291
 10
5.5840541633
 20
43.7342019956
 10
5.5895130591
 20
43.6665434721
  0
LWPOLYLINE
  5
535
100
AcDbEntity
  8
IMPORT_IGES
100
AcDbPolyline
 62
253
  6
CONTINUOUS
 90
13
 70
0
 10
19.3744708948
 20
-51.2870555496
 10
19.4426295069
 20
-51.2246716874
 10
19.5065542799
 20
-51.1585042154
 10
19.5667376871
 20
-51.0880068268
 10
19.622751622
 20
-51.0135115406
 10
19.6742045177
 20
-50.9354098025
 10
19.7213338604
 20
-50.8530543707
 10
19.7638962196
 20
-50.7662727284
 10
19.8010947476
 20
-50.6761118657
 10
19.8323446131
 20
-50.583780543
 10
19.8574217279
 20
-50.4901109905
 10
19.8763168486
 20
-50.395513952
 10
19.8890244163
 20
-50.3006141366
  0
LINE
  5
536
100
AcDbEntity
  8
IMPORT_IGES
100
AcDbLine
 62
253
  6
CONTINUOUS
 10
19.3023688773
 20
-51.3452989605
 11
19.3796401243
 21
-51.283122687
  0
LINE
  5
537
100
AcDbEntity
  8
IMPORT_IGES
100
AcDbLine
 62
253
  6
CONTINUOUS
 10
19.2267798856
 20
-51.3989993385
 11
19.306403067
 21
-51.3426730514
  0
LINE
  5
538
100
AcDbEntity
  8
IMPORT_IGES
100
AcDbLine
 62
253
  6
CONTINUOUS
 10
19.1472673683
 20
-51.4483722018
 11
19.2295402774
 21
-51.3975164786
  0
LINE
  5
539
100
AcDbEntity
  8
IMPORT_IGES
100
AcDbLine
 62
253
  6
CONTINUOUS
 10
19.0637599058
 20
-51.493231512
 11
19.1493604043
 21
-51.4474304891
  0
LINE
  5
53A
100
AcDbEntity
  8
IMPORT_IGES
100
AcDbLine
 62
253
  6
CONTINUOUS
 10
18.9771849521
 20
-51.5328972025
 11
19.0661782799
 21
-51.4922135373
  0
LINE
  5
53B
100
AcDbEntity
  8
IMPORT_IGES
100
AcDbLine
 62
253
  6
CONTINUOUS
 10
18.8886167349
 20
-51.566867754
 11
18.9803221471
 21
-51.5316836251
  0
LINE
  5
53C
100
AcDbEntity
  8
IMPORT_IGES
100
AcDbLine
 62
253
  6
CONTINUOUS
 10
18.7988061206
 20
-51.5949659309
 11
18.8921404137
 21
-51.5656798512
  0
LWPOLYLINE
  5
53D
100
AcDbEntity
  8
IMPORT_IGES
100
AcDbPolyline
 62
7
  6
CONTINUOUS
 90
22
 70
0
 10
-22.0140268896
 20
51.6191974911
 10
-22.1152594526
 20
51.6004851989
 10
-22.2139916686
 20
51.5753457813
 10
-22.3102235377
 20
51.5437792382
 10
-22.4043473738
 20
51.5055700018
 10
-22.4959708629
 20
51.4609336398
 10
-22.5839170628
 20
51.4105168561
 10
-22.6681386511
 20
51.35425566
 10
-22.7486829503
 20
51.2922140421
 10
-22.8245149849
 20
51.2252306784
 10
-22.8955789478
 20
51.1532498714
 10
-22.9619306461
 20
51.0763273186
 10
-23.0227025265
 20
50.9954687881
 10
-23.0778313041
 20
50.9106272513
 10
-23.1273802638
 20
50.8218497369
 10
-23.1706717063
 20
50.7302830992
 10
-23.2076354198
 20
50.6358896137
 10
-23.238341616
 20
50.5387070049
 10
-23.2623232306
 20
50.4399953001
 10
-23.2794245753
 20
50.3401745084
 10
-23.2898013383
 20
50.2388246207
 10
-23.2934535197
 20
50.135945637
  0
LWPOLYLINE
  5
53E
100
AcDbEntity
  8
IMPORT_IGES
100
AcDbPolyline
 62
253
  6
CONTINUOUS
 90
22
 70
0
 10
21.7472244493
 20
51.3912042932
 10
21.8474363486
 20
51.3728968715
 10
21.9455690398
 20
51.3480051574
 10
22.0412067511
 20
51.3167669218
 10
22.1337374325
 20
51.2795415642
 10
22.2230311078
 20
51.236543619
 10
22.3093714478
 20
51.1876963205
 10
22.3924948086
 20
51.1331110435
 10
22.4718926957
 20
51.0730823087
 10
22.547405786
 20
51.0076737503
 10
22.6186250344
 20
50.9371484774
 10
22.6852109861
 20
50.8617452808
 10
22.7470364203
 20
50.7814381927
 10
22.8038476208
 20
50.6962591583
 10
22.8550707254
 20
50.6067386607
 10
22.9001415997
 20
50.5136460207
 10
22.9387627918
 20
50.4174774232
 10
22.9707334533
 20
50.3185944323
 10
22.995799347
 20
50.2176567295
 10
23.013813398
 20
50.1152141793
 10
23.0246908394
 20
50.0116898221
 10
23.0283619253
 20
49.9075805972
  0
ARC
  5
53F
100
AcDbEntity
  8
IMPORT_IGES
100
AcDbCircle
 62
7
  6
CONTINUOUS
 10
-9.0
 20
-44.9796690909
 40
3.0
100
AcDbArc
 50
180.0
 51
270.0
  0
ARC
  5
540
100
AcDbEntity
  8
IMPORT_IGES
100
AcDbCircle
 62
7
  6
CONTINUOUS
 10
-9.0
 20
-16.9796690909
 40
3.0
100
AcDbArc
 50
90.0
 51
180.0
  0
ARC
  5
541
100
AcDbEntity
  8
IMPORT_IGES
100
AcDbCircle
 62
7
  6
CONTINUOUS
 10
-606.7820538305
 20
12.7293170453
 40
630.0755073501
100
AcDbArc
 50
354.2394428665
 51
360.0
  0
ARC
  5
542
100
AcDbEntity
  8
IMPORT_IGES
100
AcDbCircle
 62
253
  6
CONTINUOUS
 10
-606.7820538305
 20
12.7293170453
 40
629.8109679034
100
AcDbArc
 50
358.8443680473
 51
360.0
  0
ARC
  5
543
100
AcDbEntity
  8
IMPORT_IGES
100
AcDbCircle
 62
253
  6
CONTINUOUS
 10
-606.7820538305
 20
12.7293170453
 40
627.8116532534
100
AcDbArc
 50
358.8427729776
 51
359.9999999989
  0
CIRCLE
  5
544
100
AcDbEntity
  8
IMPORT_IGES
100
AcDbCircle
 62
253
  6
CONTINUOUS
 10
-14.0
 20
10.55
 40
3.9
  0
CIRCLE
  5
545
100
AcDbEntity
  8
IMPORT_IGES
100
AcDbCircle
 62
7
  6
CONTINUOUS
 10
-14.0
 20
10.55
 40
2.9
  0
CIRCLE
  5
546
100
AcDbEntity
  8
0
100
AcDbCircle
 62
7
  6
CONTINUOUS
 10
-14.0
 20
10.55
 40
2.6226074497
  0
CIRCLE
  5
547
100
AcDbEntity
  8
0
100
AcDbCircle
 62
253
  6
CONTINUOUS
 10
-14.0
 20
10.55
 40
2.6214658591
  0
CIRCLE
  5
548
100
AcDbEntity
  8
0
100
AcDbCircle
 62
253
  6
CONTINUOUS
 10
-14.0
 20
10.55
 40
2.5325156041
  0
CIRCLE
  5
549
100
AcDbEntity
  8
0
100
AcDbCircle
 62
253
  6
CONTINUOUS
 10
-14.0
 20
10.55
 40
2.3336716959
  0
ARC
  5
54A
100
AcDbEntity
  8
0
100
AcDbCircle
 62
253
  6
CONTINUOUS
 10
-14.0
 20
10.55
 40
1.8098246557
100
AcDbArc
 50
2.1073233327
 51
33.2133851259
  0
ARC
  5
54B
100
AcDbEntity
  8
0
100
AcDbCircle
 62
253
  6
CONTINUOUS
 10
-14.0
 20
10.55
 40
1.8098246557
100
AcDbArc
 50
239.702312008
 51
273.2133851259
  0
ARC
  5
54C
100
AcDbEntity
  8
0
100
AcDbCircle
 62
253
  6
CONTINUOUS
 10
-14.0
 20
10.55
 40
1.8098246557
100
AcDbArc
 50
119.702312008
 51
153.2133851259
  0
ARC
  5
54D
100
AcDbEntity
  8
0
100
AcDbCircle
 62
253
  6
CONTINUOUS
 10
-14.0
 20
10.55
 40
1.7100709361
100
AcDbArc
 50
241.4246792562
 51
270.3977241472
  0
ARC
  5
54E
100
AcDbEntity
  8
0
100
AcDbCircle
 62
253
  6
CONTINUOUS
 10
-14.0
 20
10.55
 40
1.7100709361
100
AcDbArc
 50
121.4246792562
 51
150.3977241472
  0
ARC
  5
54F
100
AcDbEntity
  8
0
100
AcDbCircle
 62
253
  6
CONTINUOUS
 10
-14.0
 20
10.55
 40
1.7100709361
100
AcDbArc
 50
2.1073233326
 51
30.3977241472
  0
CIRCLE
  5
550
100
AcDbEntity
  8
0
100
AcDbCircle
 62
7
  6
CONTINUOUS
 10
-14.0
 20
10.55
 40
0.8
  0
ARC
  5
551
100
AcDbEntity
  8
0
100
AcDbCircle
 62
7
  6
CONTINUOUS
 10
-13.2
 20
11.242820323
 40
0.2
100
AcDbArc
 50
240.0
 51
300.0
  0
ARC
  5
552
100
AcDbEntity
  8
0
100
AcDbCircle
 62
7
  6
CONTINUOUS
 10
-15.0
 20
10.8964101615
 40
0.2
100
AcDbArc
 50
0.0
 51
60.0
  0
ARC
  5
553
100
AcDbEntity
  8
0
100
AcDbCircle
 62
7
  6
CONTINUOUS
 10
-13.8
 20
9.5107695155
 40
0.2
100
AcDbArc
 50
120.0
 51
180.0
  0
ARC
  5
554
100
AcDbEntity
  8
IMPORT_IGES
100
AcDbCircle
 62
7
  6
CONTINUOUS
 10
-23.1
 20
16.95
 40
0.2
100
AcDbArc
 50
180.0186322017
 51
214.3521780235
  0
ARC
  5
555
100
AcDbEntity
  8
IMPORT_IGES
100
AcDbCircle
 62
253
  6
CONTINUOUS
 10
-292.97
 20
30.05
 40
300.5156556053
100
AcDbArc
 50
357.3693828457
 51
2.6307797574
  0
ARC
  5
556
100
AcDbEntity
  8
IMPORT_IGES
100
AcDbCircle
 62
7
  6
CONTINUOUS
 10
-292.97
 20
30.05
 40
300.0156746438
100
AcDbArc
 50
357.3693664237
 51
2.6306335765
  0
ARC
  5
557
100
AcDbEntity
  8
IMPORT_IGES
100
AcDbCircle
 62
253
  6
CONTINUOUS
 10
-292.97
 20
30.05
 40
299.8698217187
100
AcDbArc
 50
357.3886941011
 51
2.6113059013
  0
ARC
  5
558
100
AcDbEntity
  8
IMPORT_IGES
100
AcDbCircle
 62
253
  6
CONTINUOUS
 10
-292.97
 20
30.05
 40
298.8698597956
100
AcDbArc
 50
357.3886941008
 51
2.6113058992
  0
ARC
  5
559
100
AcDbEntity
  8
IMPORT_IGES
100
AcDbCircle
 62
7
  6
CONTINUOUS
 10
-23.1
 20
43.15
 40
0.2
100
AcDbArc
 50
145.6478182919
 51
179.9813821246
  0
ARC
  5
55A
100
AcDbEntity
  8
IMPORT_IGES
100
AcDbCircle
 62
7
  6
CONTINUOUS
 10
0.0
 20
-96.75
 40
149.9934535196
100
AcDbArc
 50
81.5604041747
 51
98.439591596
  0
ARC
  5
55B
100
AcDbEntity
  8
IMPORT_IGES
100
AcDbCircle
 62
253
  6
CONTINUOUS
 10
0.0
 20
-96.75
 40
149.7289140729
100
AcDbArc
 50
81.6485937821
 51
98.3514062102
  0
ARC
  5
55C
100
AcDbEntity
  8
IMPORT_IGES
100
AcDbCircle
 62
253
  6
CONTINUOUS
 10
0.0
 20
-96.75
 40
147.7295994229
100
AcDbArc
 50
81.8160325134
 51
98.1839675241
  0
ARC
  5
55D
100
AcDbEntity
  8
IMPORT_IGES
100
AcDbCircle
 62
7
  6
CONTINUOUS
 10
9.0
 20
-44.9796690909
 40
3.0
100
AcDbArc
 50
270.0
 51
360.0
  0
ARC
  5
55E
100
AcDbEntity
  8
IMPORT_IGES
100
AcDbCircle
 62
7
  6
CONTINUOUS
 10
9.0
 20
-16.9796690909
 40
3.0
100
AcDbArc
 50
0.0
 51
90.0
  0
ARC
  5
55F
100
AcDbEntity
  8
ASSI
100
AcDbCircle
 62
7
  6
CONTINUOUS
 10
5.0
 20
-24.0
 40
0.8
100
AcDbArc
 50
90.0
 51
94.0196182478
  0
CIRCLE
  5
560
100
AcDbEntity
  8
IMPORT_IGES
100
AcDbCircle
 62
253
  6
CONTINUOUS
 10
14.0
 20
10.55
 40
3.9
  0
CIRCLE
  5
561
100
AcDbEntity
  8
IMPORT_IGES
100
AcDbCircle
 62
7
  6
CONTINUOUS
 10
14.0
 20
10.55
 40
2.9
  0
CIRCLE
  5
562
100
AcDbEntity
  8
0
100
AcDbCircle
 62
7
  6
CONTINUOUS
 10
14.0
 20
10.55
 40
2.6226074497
  0
CIRCLE
  5
563
100
AcDbEntity
  8
0
100
AcDbCircle
 62
253
  6
CONTINUOUS
 10
14.0
 20
10.55
 40
2.6214658591
  0
CIRCLE
  5
564
100
AcDbEntity
  8
0
100
AcDbCircle
 62
253
  6
CONTINUOUS
 10
14.0
 20
10.55
 40
2.5325156041
  0
CIRCLE
  5
565
100
AcDbEntity
  8
0
100
AcDbCircle
 62
253
  6
CONTINUOUS
 10
14.0
 20
10.55
 40
2.3336716959
  0
CIRCLE
  5
566
100
AcDbEntity
  8
IMPORT_IGES
100
AcDbCircle
 62
7
  6
CONTINUOUS
 10
0.0
 20
20.55
 40
2.0
  0
CIRCLE
  5
567
100
AcDbEntity
  8
IMPORT_IGES
100
AcDbCircle
 62
7
  6
CONTINUOUS
 10
0.0
 20
20.55
 40
1.9799997309
  0
ARC
  5
568
100
AcDbEntity
  8
0
100
AcDbCircle
 62
253
  6
CONTINUOUS
 10
14.0
 20
10.55
 40
1.8098246557
100
AcDbArc
 50
2.1073233327
 51
33.2133851259
  0
ARC
  5
569
100
AcDbEntity
  8
0
100
AcDbCircle
 62
253
  6
CONTINUOUS
 10
14.0
 20
10.55
 40
1.8098246557
100
AcDbArc
 50
239.702312008
 51
273.2133851259
  0
ARC
  5
56A
100
AcDbEntity
  8
0
100
AcDbCircle
 62
253
  6
CONTINUOUS
 10
14.0
 20
10.55
 40
1.8098246557
100
AcDbArc
 50
119.702312008
 51
153.2133851259
  0
ARC
  5
56B
100
AcDbEntity
  8
0
100
AcDbCircle
 62
253
  6
CONTINUOUS
 10
14.0
 20
10.55
 40
1.7100709361
100
AcDbArc
 50
241.4246792562
 51
270.3977241472
  0
ARC
  5
56C
100
AcDbEntity
  8
0
100
AcDbCircle
 62
253
  6
CONTINUOUS
 10
14.0
 20
10.55
 40
1.7100709361
100
AcDbArc
 50
121.4246792562
 51
150.3977241472
  0
ARC
  5
56D
100
AcDbEntity
  8
0
100
AcDbCircle
 62
253
  6
CONTINUOUS
 10
14.0
 20
10.55
 40
1.7100709361
100
AcDbArc
 50
2.1073233326
 51
30.3977241472
  0
CIRCLE
  5
56E
100
AcDbEntity
  8
0
100
AcDbCircle
 62
7
  6
CONTINUOUS
 10
14.0
 20
10.55
 40
0.8
  0
ARC
  5
56F
100
AcDbEntity
  8
0
100
AcDbCircle
 62
7
  6
CONTINUOUS
 10
14.8
 20
11.242820323
 40
0.2
100
AcDbArc
 50
240.0
 51
300.0
  0
ARC
  5
570
100
AcDbEntity
  8
0
100
AcDbCircle
 62
7
  6
CONTINUOUS
 10
13.0
 20
10.8964101615
 40
0.2
100
AcDbArc
 50
0.0
 51
60.0
  0
ARC
  5
571
100
AcDbEntity
  8
0
100
AcDbCircle
 62
7
  6
CONTINUOUS
 10
14.2
 20
9.5107695155
 40
0.2
100
AcDbArc
 50
120.0
 51
180.0
  0
ARC
  5
572
100
AcDbEntity
  8
IMPORT_IGES
100
AcDbCircle
 62
7
  6
CONTINUOUS
 10
23.1
 20
16.95
 40
0.2
100
AcDbArc
 50
325.6478182921
 51
359.9813821246
  0
ARC
  5
573
100
AcDbEntity
  8
IMPORT_IGES
100
AcDbCircle
 62
253
  6
CONTINUOUS
 10
0.0
 20
29.53
 40
17.4656556053
100
AcDbArc
 50
71.5688409127
 51
108.4330414487
  0
ARC
  5
574
100
AcDbEntity
  8
IMPORT_IGES
100
AcDbCircle
 62
253
  6
CONTINUOUS
 10
0.0
 20
30.57
 40
17.4656556053
100
AcDbArc
 50
251.5688382907
 51
288.4330379643
  0
ARC
  5
575
100
AcDbEntity
  8
IMPORT_IGES
100
AcDbCircle
 62
7
  6
CONTINUOUS
 10
0.0
 20
30.57
 40
16.9656746438
100
AcDbArc
 50
251.568651153
 51
288.431348847
  0
ARC
  5
576
100
AcDbEntity
  8
IMPORT_IGES
100
AcDbCircle
 62
7
  6
CONTINUOUS
 10
0.0
 20
29.53
 40
16.9656746438
100
AcDbArc
 50
71.5686511491
 51
108.431348847
  0
ARC
  5
577
100
AcDbEntity
  8
IMPORT_IGES
100
AcDbCircle
 62
253
  6
CONTINUOUS
 10
0.0
 20
30.57
 40
16.8198217187
100
AcDbArc
 50
251.9553221583
 51
288.0446778353
  0
ARC
  5
578
100
AcDbEntity
  8
IMPORT_IGES
100
AcDbCircle
 62
253
  6
CONTINUOUS
 10
0.0
 20
29.53
 40
16.8198217187
100
AcDbArc
 50
71.9553221583
 51
108.0446778353
  0
ARC
  5
579
100
AcDbEntity
  8
IMPORT_IGES
100
AcDbCircle
 62
253
  6
CONTINUOUS
 10
0.0
 20
29.53
 40
15.8198597956
100
AcDbArc
 50
71.9553221529
 51
108.0446778471
  0
ARC
  5
57A
100
AcDbEntity
  8
IMPORT_IGES
100
AcDbCircle
 62
253
  6
CONTINUOUS
 10
0.0
 20
30.57
 40
15.8198597956
100
AcDbArc
 50
251.9553221529
 51
288.0446778471
  0
CIRCLE
  5
57B
100
AcDbEntity
  8
IMPORT_IGES
100
AcDbCircle
 62
7
  6
CONTINUOUS
 10
0.0
 20
30.05
 40
2.0
  0
CIRCLE
  5
57C
100
AcDbEntity
  8
IMPORT_IGES
100
AcDbCircle
 62
7
  6
CONTINUOUS
 10
0.0
 20
39.55
 40
2.0
  0
CIRCLE
  5
57D
100
AcDbEntity
  8
IMPORT_IGES
100
AcDbCircle
 62
7
  6
CONTINUOUS
 10
-0.0
 20
39.55
 40
1.9799997309
  0
CIRCLE
  5
57E
100
AcDbEntity
  8
IMPORT_IGES
100
AcDbCircle
 62
7
  6
CONTINUOUS
 10
0.0
 20
30.05
 40
1.979999634
  0
ARC
  5
57F
100
AcDbEntity
  8
IMPORT_IGES
100
AcDbCircle
 62
253
  6
CONTINUOUS
 10
292.97
 20
30.05
 40
300.5156556053
100
AcDbArc
 50
177.3693826178
 51
182.630780058
  0
ARC
  5
580
100
AcDbEntity
  8
IMPORT_IGES
100
AcDbCircle
 62
7
  6
CONTINUOUS
 10
292.97
 20
30.05
 40
300.0156746438
100
AcDbArc
 50
177.3693664237
 51
182.6306335763
  0
ARC
  5
581
100
AcDbEntity
  8
IMPORT_IGES
100
AcDbCircle
 62
253
  6
CONTINUOUS
 10
292.97
 20
30.05
 40
299.8698217187
100
AcDbArc
 50
177.3886941011
 51
182.6113059013
  0
ARC
  5
582
100
AcDbEntity
  8
IMPORT_IGES
100
AcDbCircle
 62
253
  6
CONTINUOUS
 10
292.97
 20
30.05
 40
298.8698597956
100
AcDbArc
 50
177.3886941008
 51
182.6113058992
  0
ARC
  5
583
100
AcDbEntity
  8
IMPORT_IGES
100
AcDbCircle
 62
7
  6
CONTINUOUS
 10
0.0
 20
74.3573096315
 40
127.6007631511
100
AcDbArc
 50
261.5088545265
 51
278.4911454735
  0
ARC
  5
584
100
AcDbEntity
  8
IMPORT_IGES
100
AcDbCircle
 62
7
  6
CONTINUOUS
 10
23.1
 20
43.15
 40
0.2
100
AcDbArc
 50
0.0186322017
 51
34.3521780238
  0
ARC
  5
585
100
AcDbEntity
  8
IMPORT_IGES
100
AcDbCircle
 62
7
  6
CONTINUOUS
 10
606.7820538305
 20
12.7293170453
 40
630.0755073501
100
AcDbArc
 50
179.9999999999
 51
185.7605571353
  0
ARC
  5
586
100
AcDbEntity
  8
IMPORT_IGES
100
AcDbCircle
 62
253
  6
CONTINUOUS
 10
606.7820538305
 20
12.7293170453
 40
629.8109679034
100
AcDbArc
 50
180.0
 51
181.1556319219
  0
ARC
  5
587
100
AcDbEntity
  8
IMPORT_IGES
100
AcDbCircle
 62
253
  6
CONTINUOUS
 10
606.7820538305
 20
12.7293170453
 40
627.8116532534
100
AcDbArc
 50
180.0000000011
 51
181.1572270223
  0
ENDSEC
  0
SECTION
  2
OBJECTS
  0
DICTIONARY
  5
C
100
AcDbDictionary
280
0
281
1
  3
ACAD_GROUP
350
D
  3
ACAD_MLINESTYLE
350
17
  3
ACAD_LAYOUT
350
1A
  3
ACAD_PLOTSETTINGS
350
19
  3
ACAD_PLOTSTYLENAME
350
E
  0
DICTIONARY
  5
D
102
{ACAD_REACTORS
330
C
102
}
100
AcDbDictionary
280
0
281
1
  0
ACDBDICTIONARYWDFLT
  5
E
102
{ACAD_REACTORS
330
C
102
}
100
AcDbDictionary
281
1
  3
Normal
350
F
100
AcDbDictionaryWithDefault
340
F
  0
DICTIONARY
  5
17
102
{ACAD_REACTORS
330
C
102
}
100
AcDbDictionary
280
0
281
1
  3
Standard
350
18
  0
DICTIONARY
  5
19
102
{ACAD_REACTORS
330
C
102
}
100
AcDbDictionary
281
1
  0
DICTIONARY
  5
1A
102
{ACAD_REACTORS
330
C
102
}
100
AcDbDictionary
281
1
  3
Model
350
588
  3
Layout1
350
589
  0
ACDBPLACEHOLDER
  5
F
102
{ACAD_REACTORS
330
E
102
}
  0
MLINESTYLE
  5
18
102
{ACAD_REACTORS
330
17
102
}
100
AcDbMlineStyle
  2
STANDARD
 70
0
  3

 62
256
 51
90.0
 52
90.0
 71
2
 49
0.5
 62
256
  6
BYLAYER
 49
-0.5
 62
256
  6
BYLAYER
  0
LAYOUT
  5
588
102
{ACAD_REACTORS
330
1A
102
}
100
AcDbPlotSettings
  1

  2
none_device
  4
ISO_A4_(297.00_x_210.00_MM)
  6

 40
0.0
 41
0.0
 42
0.0
 43
0.0
 44
297.0
 45
210.0
 46
0.0
 47
0.0
 48
0.0
 49
0.0
140
0.0
141
0.0
142
1.0
143
1.0
 70
1024
 72
1
 73
0
 74
0
  7

 75
0
147
1.0
148
0.0
149
0.0
100
AcDbLayout
  1
Model
 70
0
 71
0
 10
0.0
 20
0.0
 11
297.0
 21
210.0
 12
0.0
 22
0.0
 32
0.0
 14
0.0
 24
0.0
 34
0.0
 15
0.0
 25
0.0
 35
0.0
146
0.0
 13
0.0
 23
0.0
 33
0.0
 16
1.0
 26
0.0
 36
0.0
 17
0.0
 27
1.0
 37
0.0
 76
0
330
212
345
0
346
0
  0
LAYOUT
  5
589
102
{ACAD_REACTORS
330
1A
102
}
100
AcDbPlotSettings
  1

  2
none_device
  4
ISO_A4_(297.00_x_210.00_MM)
  6

 40
0.0
 41
0.0
 42
0.0
 43
0.0
 44
297.0
 45
210.0
 46
0.0
 47
0.0
 48
0.0
 49
0.0
140
0.0
141
0.0
142
1.0
143
1.0
 70
0
 72
1
 73
0
 74
0
  7

 75
0
147
1.0
148
0.0
149
0.0
100
AcDbLayout
  1
Layout1
 70
0
 71
1
 10
0.0
 20
0.0
 11
297.0
 21
210.0
 12
0.0
 22
0.0
 32
0.0
 14
0.0
 24
0.0
 34
0.0
 15
0.0
 25
0.0
 35
0.0
146
0.0
 13
0.0
 23
0.0
 33
0.0
 16
1.0
 26
0.0
 36
0.0
 17
0.0
 27
1.0
 37
0.0
 76
0
330
213
345
0
346
0
  0
ENDSEC
  0
EOF
