  0
SECTION
  2
HEADER
  9
$ACADVER
  1
AC1027
  9
$DWGCODEPAGE
  3
ANSI_1252
  9
$EXTMAX
 10
297.0
 20
210.0
 30
0.0
  9
$EXTMIN
 10
0.0
 20
0.0
 30
0.0
  9
$LIMMIN
 10
0.0
 20
0.0
  9
$LIMMAX
 10
297.0
 20
210.0
  9
$VIEWCTR
 10
148.5
 20
105.0
  9
$VIEWSIZE
 40
210.0
  9
$CLAYER
  8
0
  9
$LTSCALE
 40
16.335
  9
$CELTYPE
  6
BYLAYER
  9
$DIMSCALE
 40
1.0
  9
$DIMASZ
 40
3.0
  9
$DIMEXO
 40
0.5
  9
$DIMDLI
 40
11.286
  9
$DIMEXE
 40
1.5
  9
$DIMCEN
 40
2.673
  9
$DIMLFAC
 40
1.0
  9
$DIMBLK
  1
_FILLED
  9
$DIMALT
 70
0
  9
$DIMALTF
 40
0.0393700787
  9
$DIMTXT
 40
3.0
  9
$DIMTOL
 70
1
  9
$DIMLIM
 70
0
  9
$DIMTFAC
 40
1.0
  9
$DIMTP
 40
0.01
  9
$DIMTM
 40
0.01
  9
$DIMGAP
 40
0.625
  9
$DIMDSEP
 70
44
  9
$AUNITS
 70
0
  9
$PDMODE
 70
3
  9
$PDSIZE
 40
3.0
  9
$HANDSEED
  5
633
  9
$TILEMODE
 70
1
  9
$MEASUREMENT
 70
1
  9
$INSUNITS
 70
4
  0
ENDSEC
  0
SECTION
  2
CLASSES
  0
CLASS
  1
ACDBDICTIONARYWDFLT
  2
AcDbDictionaryWithDefault
  3
AutoCAD 2000
 90
0
 91
1
280
0
281
0
  0
CLASS
  1
ACDBPLACEHOLDER
  2
AcDbPlaceHolder
  3
AutoCAD 2000
 90
0
 91
1
280
0
281
0
  0
CLASS
  1
LAYOUT
  2
AcDbLayout
  3
AutoCAD 2000
 90
0
 91
0
280
0
281
0
  0
ENDSEC
  0
SECTION
  2
TABLES
  0
TABLE
  2
VPORT
  5
8
100
AcDbSymbolTable
 70
2
  0
VPORT
  5
1F4
100
AcDbSymbolTableRecord
100
AcDbViewportTableRecord
  2
*ACTIVE
 70
0
 10
0.0
 20
0.0
 11
1.0
 21
1.0
 12
148.5
 22
105.0
 13
0.0
 23
0.0
 14
1.0
 24
1.0
 15
0.0
 25
0.0
 16
0.0
 26
0.0
 36
1.0
 17
0.0
 27
0.0
 37
0.0
 40
210.0
 41
1.4142857143
 42
50.0
 43
0.0
 44
0.0
 50
0.0
 51
0.0
 71
0
 72
100
 73
1
 74
1
 75
0
 76
0
 77
0
 78
0
  0
ENDTAB
  0
TABLE
  2
LTYPE
  5
5
100
AcDbSymbolTable
 70
6
  0
LTYPE
  5
14
100
AcDbSymbolTableRecord
100
AcDbLinetypeTableRecord
  2
BYBLOCK
 70
0
  3

 72
65
 73
0
 40
0.0
  0
LTYPE
  5
15
100
AcDbSymbolTableRecord
100
AcDbLinetypeTableRecord
  2
BYLAYER
 70
0
  3

 72
65
 73
0
 40
0.0
  0
LTYPE
  5
16
100
AcDbSymbolTableRecord
100
AcDbLinetypeTableRecord
  2
CONTINUOUS
 70
64
  3
Solid line
 72
65
 73
0
 40
0.0
  0
LTYPE
  5
1F5
100
AcDbSymbolTableRecord
100
AcDbLinetypeTableRecord
  2
CENTER
 70
64
  3
____ _ ____ _ ____ _ ____ _ ____ _ ____ _ ____
 72
65
 73
4
 40
0.6
 49
0.375
 74
0
 49
-0.075
 74
0
 49
0.075
 74
0
 49
-0.075
 74
0
  0
LTYPE
  5
1F6
100
AcDbSymbolTableRecord
100
AcDbLinetypeTableRecord
  2
HIDDEN
 70
64
  3
- - - - - - - - - - - - - - - - - - - -
 72
65
 73
2
 40
0.2
 49
0.1
 74
0
 49
-0.1
 74
0
  0
LTYPE
  5
1F7
100
AcDbSymbolTableRecord
100
AcDbLinetypeTableRecord
  2
PHANTOM
 70
64
  3
_____ _ _ _____ _ _ _____ _ _ _____
 72
65
 73
6
 40
0.8
 49
0.45
 74
0
 49
-0.05
 74
0
 49
0.1
 74
0
 49
-0.05
 74
0
 49
0.1
 74
0
 49
-0.05
 74
0
  0
LTYPE
  5
1F8
100
AcDbSymbolTableRecord
100
AcDbLinetypeTableRecord
  2
DOT
 70
64
  3
. . . . . . . . . . . . . . . . . . . .
 72
65
 73
2
 40
0.2
 49
0.1
 74
0
 49
-0.1
 74
0
  0
LTYPE
  5
1F9
100
AcDbSymbolTableRecord
100
AcDbLinetypeTableRecord
  2
DASHED
 70
64
  3
- - - - - - - - - - - - - - - - - - - -
 72
65
 73
2
 40
0.2
 49
0.1
 74
0
 49
-0.1
 74
0
  0
ENDTAB
  0
TABLE
  2
LAYER
  5
2
100
AcDbSymbolTable
 70
36
  0
LAYER
  5
10
100
AcDbSymbolTableRecord
100
AcDbLayerTableRecord
  2
0
 70
0
 62
7
  6
CONTINUOUS
370
-3
390
F
  0
LAYER
  5
1FA
100
AcDbSymbolTableRecord
100
AcDbLayerTableRecord
  2
DEFAULT_1
 70
0
 62
7
  6
CENTER
370
-3
390
F
  0
LAYER
  5
1FB
100
AcDbSymbolTableRecord
100
AcDbLayerTableRecord
  2
DEFAULT_2
 70
0
 62
7
  6
HIDDEN
370
-3
390
F
  0
LAYER
  5
1FC
100
AcDbSymbolTableRecord
100
AcDbLayerTableRecord
  2
DEFAULT_3
 70
0
 62
7
  6
PHANTOM
370
-3
390
F
  0
LAYER
  5
1FD
100
AcDbSymbolTableRecord
100
AcDbLayerTableRecord
  2
ASSI
 70
0
 62
7
  6
CONTINUOUS
370
-3
390
F
  0
LAYER
  5
1FE
100
AcDbSymbolTableRecord
100
AcDbLayerTableRecord
  2
COLOR5
 70
0
 62
7
  6
CONTINUOUS
370
-3
390
F
  0
LAYER
  5
1FF
100
AcDbSymbolTableRecord
100
AcDbLayerTableRecord
  2
COORDINATE
 70
0
 62
7
  6
CONTINUOUS
370
-3
390
F
  0
LAYER
  5
200
100
AcDbSymbolTableRecord
100
AcDbLayerTableRecord
  2
COORD_ORIGINE
 70
0
 62
7
  6
CONTINUOUS
370
-3
390
F
  0
LAYER
  5
201
100
AcDbSymbolTableRecord
100
AcDbLayerTableRecord
  2
COPY_PUBLISH
 70
0
 62
7
  6
CONTINUOUS
370
-3
390
F
  0
LAYER
  5
202
100
AcDbSymbolTableRecord
100
AcDbLayerTableRecord
  2
COSMETICI
 70
0
 62
7
  6
CONTINUOUS
370
-3
390
F
  0
LAYER
  5
203
100
AcDbSymbolTableRecord
100
AcDbLayerTableRecord
  2
CURVE
 70
0
 62
7
  6
CONTINUOUS
370
-3
390
F
  0
LAYER
  5
204
100
AcDbSymbolTableRecord
100
AcDbLayerTableRecord
  2
DRAFT
 70
0
 62
7
  6
CONTINUOUS
370
-3
390
F
  0
LAYER
  5
205
100
AcDbSymbolTableRecord
100
AcDbLayerTableRecord
  2
IMPORT_IGES
 70
0
 62
7
  6
CONTINUOUS
370
-3
390
F
  0
LAYER
  5
206
100
AcDbSymbolTableRecord
100
AcDbLayerTableRecord
  2
NOTE
 70
0
 62
7
  6
CONTINUOUS
370
-3
390
F
  0
LAYER
  5
207
100
AcDbSymbolTableRecord
100
AcDbLayerTableRecord
  2
PIANI
 70
0
 62
7
  6
CONTINUOUS
370
-3
390
F
  0
LAYER
  5
208
100
AcDbSymbolTableRecord
100
AcDbLayerTableRecord
  2
PIANI_ORIGINE
 70
0
 62
7
  6
CONTINUOUS
370
-3
390
F
  0
LAYER
  5
209
100
AcDbSymbolTableRecord
100
AcDbLayerTableRecord
  2
PUNTI
 70
0
 62
7
  6
CONTINUOUS
370
-3
390
F
  0
LAYER
  5
20A
100
AcDbSymbolTableRecord
100
AcDbLayerTableRecord
  2
RACCORDO
 70
0
 62
7
  6
CONTINUOUS
370
-3
390
F
  0
LAYER
  5
20B
100
AcDbSymbolTableRecord
100
AcDbLayerTableRecord
  2
SIMBOLI
 70
0
 62
7
  6
CONTINUOUS
370
-3
390
F
  0
LAYER
  5
20C
100
AcDbSymbolTableRecord
100
AcDbLayerTableRecord
  2
SMUSSO
 70
0
 62
7
  6
CONTINUOUS
370
-3
390
F
  0
LAYER
  5
20D
100
AcDbSymbolTableRecord
100
AcDbLayerTableRecord
  2
SNAPLINE
 70
0
 62
7
  6
CONTINUOUS
370
-3
390
F
  0
LAYER
  5
20E
100
AcDbSymbolTableRecord
100
AcDbLayerTableRecord
  2
SUPERFICI
 70
0
 62
7
  6
CONTINUOUS
370
-3
390
F
  0
LAYER
  5
20F
100
AcDbSymbolTableRecord
100
AcDbLayerTableRecord
  2
TRASH
 70
0
 62
7
  6
CONTINUOUS
370
-3
390
F
  0
ENDTAB
  0
TABLE
  2
STYLE
  5
3
100
AcDbSymbolTable
 70
1
  0
STYLE
  5
11
100
AcDbSymbolTableRecord
100
AcDbTextStyleTableRecord
  2
STANDARD
 70
0
 40
0.0
 41
0.8
 50
0.0
 71
0
 42
0.2
  3
txt
  4

  0
STYLE
  5
210
100
AcDbSymbolTableRecord
100
AcDbTextStyleTableRecord
  2
TEXTSTYLE_1
 70
0
 40
0.0
 41
0.8
 50
0.0
 71
0
 42
0.2
  3
gdt
  4

  0
ENDTAB
  0
TABLE
  2
VIEW
  5
6
100
AcDbSymbolTable
 70
0
  0
ENDTAB
  0
TABLE
  2
UCS
  5
7
100
AcDbSymbolTable
 70
0
  0
ENDTAB
  0
TABLE
  2
APPID
  5
9
100
AcDbSymbolTable
 70
1
  0
APPID
  5
211
100
AcDbSymbolTableRecord
100
AcDbRegAppTableRecord
  2
ACAD
 70
0
  0
ENDTAB
  0
TABLE
  2
BLOCK_RECORD
  5
1
100
AcDbSymbolTable
 70
0
  0
BLOCK_RECORD
  5
212
100
AcDbSymbolTableRecord
100
AcDbBlockTableRecord
  2
*Model_Space
  0
BLOCK_RECORD
  5
213
100
AcDbSymbolTableRecord
100
AcDbBlockTableRecord
  2
*Paper_Space
  0
BLOCK_RECORD
  5
214
100
AcDbSymbolTableRecord
100
AcDbBlockTableRecord
  2
_FILLED
  0
ENDTAB
  0
TABLE
  2
DIMSTYLE
  5
A
100
AcDbSymbolTable
 70
1
100
AcDbDimStyleTable
 71
0
  0
DIMSTYLE
105
215
100
AcDbSymbolTableRecord
100
AcDbDimStyleTableRecord
  2
STANDARD
 70
0
  3

  4

 40
1.0
 41
3.0
 42
0.5
 43
0.38
 44
1.5
 45
0.0
 46
0.0
 47
0.01
 48
0.01
140
3.0
141
0.09
142
0.0
143
25.4
144
1.0
145
0.0
146
1.0
147
0.625
 71
1.0
 72
0.0
 73
0
 74
0
 75
0
 76
0
 77
1
 78
8
 79
2
170
0
171
1
172
0
173
0
174
0
175
0
176
0
177
0
178
0
270
2
179
2
271
2
272
2
273
2
274
2
275
0
280
0
281
0
282
0
283
1
284
8
285
0
286
0
287
3
288
0
340
11
278
44
341
214
342
214
343
214
344
214
  0
ENDTAB
  0
ENDSEC
  0
SECTION
  2
BLOCKS
  0
BLOCK
  5
20
100
AcDbEntity
  8
0
100
AcDbBlockBegin
  2
*Model_Space
 70
0
 10
0.0
 20
0.0
 30
0.0
  3
*Model_Space
  1

  0
ENDBLK
  5
21
100
AcDbEntity
  8
0
100
AcDbBlockEnd
  0
BLOCK
  5
1C
100
AcDbEntity
  8
0
100
AcDbBlockBegin
  2
*Paper_Space
 70
0
 10
0.0
 20
0.0
 30
0.0
  3
*Paper_Space
  1

  0
ENDBLK
  5
1D
100
AcDbEntity
  8
0
100
AcDbBlockEnd
  0
BLOCK
  5
216
100
AcDbEntity
  8
0
100
AcDbBlockBegin
  2
_FILLED
 70
64
 10
0.0
 20
0.0
  3
_FILLED
  1

  0
SOLID
  5
217
100
AcDbEntity
  8
0
  6
BYBLOCK
 62
0
100
AcDbTrace
 10
0.0
 20
0.0
 11
-1.0
 21
0.3166666667
 12
-1.0
 22
-0.3166666667
 13
-1.0
 23
-0.3166666667
  0
ENDBLK
  5
218
100
AcDbEntity
  8
0
  6
BYBLOCK
 62
0
100
AcDbBlockEnd
  0
ENDSEC
  0
SECTION
  2
ENTITIES
  0
LINE
  5
219
100
AcDbEntity
  8
ASSI
100
AcDbLine
 62
7
  6
CONTINUOUS
 10
103.0742400151
 20
189.4067656619
 11
103.1867400688
 21
189.5982550008
  0
LINE
  5
21A
100
AcDbEntity
  8
ASSI
100
AcDbLine
 62
7
  6
CONTINUOUS
 10
104.3679899079
 20
187.811020903
 11
104.2554900151
 21
187.6195315195
  0
LINE
  5
21B
100
AcDbEntity
  8
ASSI
100
AcDbLine
 62
7
  6
CONTINUOUS
 10
103.0179900688
 20
189.8535741193
 11
102.8492399883
 21
189.5982550008
  0
LINE
  5
21C
100
AcDbEntity
  8
ASSI
100
AcDbLine
 62
7
  6
CONTINUOUS
 10
104.4242400151
 20
187.3642123786
 11
104.5929900151
 21
187.6195315195
  0
LINE
  5
21D
100
AcDbEntity
  8
ASSI
100
AcDbLine
 62
7
  6
CONTINUOUS
 10
101.8929900151
 20
190.1088932378
 11
101.5554900151
 21
189.6620847804
  0
LINE
  5
21E
100
AcDbEntity
  8
ASSI
100
AcDbLine
 62
7
  6
CONTINUOUS
 10
101.5554900151
 20
189.1514463646
 11
101.8929900151
 21
189.5982550008
  0
LINE
  5
21F
100
AcDbEntity
  8
ASSI
100
AcDbLine
 62
7
  6
CONTINUOUS
 10
114.0679902297
 20
194.5088932378
 11
113.7304899079
 21
194.0620847804
  0
LINE
  5
220
100
AcDbEntity
  8
ASSI
100
AcDbLine
 62
7
  6
CONTINUOUS
 10
113.7304899079
 20
193.5514463646
 11
114.0679902297
 21
193.9982550008
  0
LINE
  5
221
100
AcDbEntity
  8
ASSI
100
AcDbLine
 62
7
  6
CONTINUOUS
 10
103.0742400151
 20
188.3854890091
 11
103.1867400688
 21
188.5131485683
  0
LINE
  5
222
100
AcDbEntity
  8
ASSI
100
AcDbLine
 62
7
  6
CONTINUOUS
 10
111.6492401224
 20
194.2535741193
 11
111.4804901224
 21
194.0620847804
  0
LINE
  5
223
100
AcDbEntity
  8
ASSI
100
AcDbLine
 62
7
  6
CONTINUOUS
 10
110.8929898006
 20
189.9174038989
 11
110.6679900151
 21
189.6620847804
  0
LINE
  5
224
100
AcDbEntity
  8
ASSI
100
AcDbLine
 62
7
  6
CONTINUOUS
 10
112.8867399079
 20
191.7642123786
 11
113.0554899079
 21
191.9557017398
  0
LINE
  5
225
100
AcDbEntity
  8
ASSI
100
AcDbLine
 62
7
  6
CONTINUOUS
 10
112.1304902297
 20
189.0237868053
 11
110.5554898006
 21
187.4280421806
  0
LINE
  5
226
100
AcDbEntity
  8
ASSI
100
AcDbLine
 62
7
  6
CONTINUOUS
 10
111.0054900151
 20
187.4280421806
 11
112.4117404443
 21
188.8322974664
  0
LINE
  5
227
100
AcDbEntity
  8
ASSI
100
AcDbLine
 62
7
  6
CONTINUOUS
 10
113.4242404443
 20
188.4493187887
 11
113.649239586
 21
188.6408081276
  0
LINE
  5
228
100
AcDbEntity
  8
ASSI
100
AcDbLine
 62
7
  6
CONTINUOUS
 10
103.1867400688
 20
189.5982550008
 11
103.3554900688
 21
189.72591456
  0
LINE
  5
229
100
AcDbEntity
  8
ASSI
100
AcDbLine
 62
7
  6
CONTINUOUS
 10
103.2992399615
 20
188.9599570257
 11
102.9617399615
 21
188.7046379072
  0
LINE
  5
22A
100
AcDbEntity
  8
ASSI
100
AcDbLine
 62
7
  6
CONTINUOUS
 10
103.1867400688
 20
188.5131485683
 11
103.3554900688
 21
188.6408081276
  0
LINE
  5
22B
100
AcDbEntity
  8
ASSI
100
AcDbLine
 62
7
  6
CONTINUOUS
 10
111.8179901224
 20
193.9982550008
 11
111.9867401224
 21
194.12591456
  0
LINE
  5
22C
100
AcDbEntity
  8
ASSI
100
AcDbLine
 62
7
  6
CONTINUOUS
 10
104.2554900151
 20
187.6195315195
 11
104.0867400151
 21
187.4918719602
  0
LINE
  5
22D
100
AcDbEntity
  8
ASSI
100
AcDbLine
 62
7
  6
CONTINUOUS
 10
112.7179899079
 20
192.0195315195
 11
112.5492399079
 21
191.8918719602
  0
LINE
  5
22E
100
AcDbEntity
  8
ASSI
100
AcDbLine
 62
7
  6
CONTINUOUS
 10
111.0054900151
 20
189.5982550008
 11
111.1742400151
 21
189.72591456
  0
LINE
  5
22F
100
AcDbEntity
  8
ASSI
100
AcDbLine
 62
7
  6
CONTINUOUS
 10
116.0679900151
 20
189.5982550008
 11
116.2367400151
 21
189.72591456
  0
LINE
  5
230
100
AcDbEntity
  8
ASSI
100
AcDbLine
 62
7
  6
CONTINUOUS
 10
114.6054904443
 20
187.6195315195
 11
114.4367404443
 21
187.4918719602
  0
LINE
  5
231
100
AcDbEntity
  8
ASSI
100
AcDbLine
 62
7
  6
CONTINUOUS
 10
116.9679904443
 20
187.6195315195
 11
116.7992404443
 21
187.4918719602
  0
LINE
  5
232
100
AcDbEntity
  8
ASSI
100
AcDbLine
 62
7
  6
CONTINUOUS
 10
103.2992399615
 20
190.0450634581
 11
103.0179900688
 21
189.8535741193
  0
LINE
  5
233
100
AcDbEntity
  8
ASSI
100
AcDbLine
 62
7
  6
CONTINUOUS
 10
111.9304900151
 20
194.4450634581
 11
111.6492401224
 21
194.2535741193
  0
LINE
  5
234
100
AcDbEntity
  8
ASSI
100
AcDbLine
 62
7
  6
CONTINUOUS
 10
104.1429899615
 20
187.172723023
 11
104.4242400151
 21
187.3642123786
  0
LINE
  5
235
100
AcDbEntity
  8
ASSI
100
AcDbLine
 62
7
  6
CONTINUOUS
 10
112.6054900151
 20
191.572723023
 11
112.8867399079
 21
191.7642123786
  0
LINE
  5
236
100
AcDbEntity
  8
ASSI
100
AcDbLine
 62
7
  6
CONTINUOUS
 10
113.5929904443
 20
188.9599570257
 11
113.311739586
 21
188.7684676868
  0
LINE
  5
237
100
AcDbEntity
  8
ASSI
100
AcDbLine
 62
7
  6
CONTINUOUS
 10
116.180489586
 20
190.0450634581
 11
115.8992400151
 21
189.8535741193
  0
LINE
  5
238
100
AcDbEntity
  8
ASSI
100
AcDbLine
 62
7
  6
CONTINUOUS
 10
114.492989586
 20
187.172723023
 11
114.7742404443
 21
187.3642123786
  0
LINE
  5
239
100
AcDbEntity
  8
ASSI
100
AcDbLine
 62
7
  6
CONTINUOUS
 10
116.855489586
 20
187.172723023
 11
117.1367404443
 21
187.3642123786
  0
LINE
  5
23A
100
AcDbEntity
  8
ASSI
100
AcDbLine
 62
7
  6
CONTINUOUS
 10
111.1179902297
 20
190.0450634581
 11
110.8929898006
 21
189.9174038989
  0
LINE
  5
23B
100
AcDbEntity
  8
ASSI
100
AcDbLine
 62
7
  6
CONTINUOUS
 10
103.3554900688
 20
189.72591456
 11
103.5242400688
 21
189.7897443396
  0
LINE
  5
23C
100
AcDbEntity
  8
ASSI
100
AcDbLine
 62
7
  6
CONTINUOUS
 10
103.3554900688
 20
188.6408081276
 11
103.5242400688
 21
188.7046379072
  0
LINE
  5
23D
100
AcDbEntity
  8
ASSI
100
AcDbLine
 62
7
  6
CONTINUOUS
 10
104.0867400151
 20
187.4918719602
 11
103.9179900151
 21
187.4280421806
  0
LINE
  5
23E
100
AcDbEntity
  8
ASSI
100
AcDbLine
 62
7
  6
CONTINUOUS
 10
102.8492399883
 20
189.5982550008
 11
102.7367400151
 21
189.2791059238
  0
LINE
  5
23F
100
AcDbEntity
  8
ASSI
100
AcDbLine
 62
7
  6
CONTINUOUS
 10
104.5929900151
 20
187.6195315195
 11
104.7054899079
 21
187.9386804623
  0
LINE
  5
240
100
AcDbEntity
  8
ASSI
100
AcDbLine
 62
7
  6
CONTINUOUS
 10
111.4804901224
 20
194.0620847804
 11
111.3679899079
 21
193.8067656619
  0
LINE
  5
241
100
AcDbEntity
  8
ASSI
100
AcDbLine
 62
7
  6
CONTINUOUS
 10
113.0554899079
 20
191.9557017398
 11
113.1679901224
 21
192.211020903
  0
LINE
  5
242
100
AcDbEntity
  8
ASSI
100
AcDbLine
 62
7
  6
CONTINUOUS
 10
110.4621910879
 20
179.1609873673
 11
110.6795602422
 21
179.5482686423
  0
LINE
  5
243
100
AcDbEntity
  8
ASSI
100
AcDbLine
 62
7
  6
CONTINUOUS
 10
111.5929900151
 20
193.6152761442
 11
111.8179901224
 21
193.9982550008
  0
LINE
  5
244
100
AcDbEntity
  8
ASSI
100
AcDbLine
 62
7
  6
CONTINUOUS
 10
110.8929898006
 20
189.4067656619
 11
111.0054900151
 21
189.5982550008
  0
LINE
  5
245
100
AcDbEntity
  8
ASSI
100
AcDbLine
 62
7
  6
CONTINUOUS
 10
112.9429900151
 20
192.4025102419
 11
112.7179899079
 21
192.0195315195
  0
LINE
  5
246
100
AcDbEntity
  8
ASSI
100
AcDbLine
 62
7
  6
CONTINUOUS
 10
112.4117404443
 20
188.8322974664
 11
112.5242400151
 21
189.0237868053
  0
LINE
  5
247
100
AcDbEntity
  8
ASSI
100
AcDbLine
 62
7
  6
CONTINUOUS
 10
114.7179900151
 20
187.811020903
 11
114.6054904443
 21
187.6195315195
  0
LINE
  5
248
100
AcDbEntity
  8
ASSI
100
AcDbLine
 62
7
  6
CONTINUOUS
 10
115.842989586
 20
189.2152761442
 11
116.0679900151
 21
189.5982550008
  0
LINE
  5
249
100
AcDbEntity
  8
ASSI
100
AcDbLine
 62
7
  6
CONTINUOUS
 10
117.192989586
 20
188.0025102419
 11
116.9679904443
 21
187.6195315195
  0
LINE
  5
24A
100
AcDbEntity
  8
ASSI
100
AcDbLine
 62
7
  6
CONTINUOUS
 10
114.7742404443
 20
187.3642123786
 11
114.9429904443
 21
187.6195315195
  0
LINE
  5
24B
100
AcDbEntity
  8
ASSI
100
AcDbLine
 62
7
  6
CONTINUOUS
 10
113.2656130151
 20
177.4493402378
 11
113.5120310151
 21
177.7986762378
  0
LINE
  5
24C
100
AcDbEntity
  8
ASSI
100
AcDbLine
 62
7
  6
CONTINUOUS
 10
115.8992400151
 20
189.8535741193
 11
115.7304900151
 21
189.6620847804
  0
LINE
  5
24D
100
AcDbEntity
  8
ASSI
100
AcDbLine
 62
7
  6
CONTINUOUS
 10
117.1367404443
 20
187.3642123786
 11
117.3054904443
 21
187.5557017398
  0
LINE
  5
24E
100
AcDbEntity
  8
ASSI
100
AcDbLine
 62
7
  6
CONTINUOUS
 10
113.1351070085
 20
182.6882762321
 11
111.8101550151
 21
181.5717312378
  0
LINE
  5
24F
100
AcDbEntity
  8
ASSI
100
AcDbLine
 62
7
  6
CONTINUOUS
 10
111.8101550151
 20
180.9918092378
 11
113.0736313782
 21
182.0565485437
  0
LINE
  5
250
100
AcDbEntity
  8
ASSI
100
AcDbLine
 62
7
  6
CONTINUOUS
 10
120.736739586
 20
188.5131485683
 11
120.905489586
 21
188.6408081276
  0
LINE
  5
251
100
AcDbEntity
  8
ASSI
100
AcDbLine
 62
7
  6
CONTINUOUS
 10
120.905489586
 20
188.7684676868
 11
120.6804904443
 21
188.6408081276
  0
LINE
  5
252
100
AcDbEntity
  8
ASSI
100
AcDbLine
 62
7
  6
CONTINUOUS
 10
121.580489586
 20
188.6408081276
 11
121.3554904443
 21
188.5131485683
  0
LINE
  5
253
100
AcDbEntity
  8
ASSI
100
AcDbLine
 62
7
  6
CONTINUOUS
 10
121.3554904443
 20
188.3854890091
 11
121.6367400151
 21
188.5131485683
  0
LINE
  5
254
100
AcDbEntity
  8
0
100
AcDbLine
 62
250
  6
CONTINUOUS
 10
183.2468893403
 20
-19.9576566189
 11
183.3465755965
 21
-19.9539885308
  0
LINE
  5
255
100
AcDbEntity
  8
ASSI
100
AcDbLine
 62
7
  6
CONTINUOUS
 10
103.0179900688
 20
189.2152761442
 11
103.0742400151
 21
189.4067656619
  0
LINE
  5
256
100
AcDbEntity
  8
ASSI
100
AcDbLine
 62
7
  6
CONTINUOUS
 10
103.0179900688
 20
188.1939995808
 11
103.0742400151
 21
188.3854890091
  0
LINE
  5
257
100
AcDbEntity
  8
ASSI
100
AcDbLine
 62
7
  6
CONTINUOUS
 10
104.4242400151
 20
188.0025102419
 11
104.3679899079
 21
187.811020903
  0
LINE
  5
258
100
AcDbEntity
  8
ASSI
100
AcDbLine
 62
7
  6
CONTINUOUS
 10
105.7742400151
 20
188.1301698012
 11
106.2804900151
 21
189.8535741193
  0
LINE
  5
259
100
AcDbEntity
  8
ASSI
100
AcDbLine
 62
7
  6
CONTINUOUS
 10
105.4929901224
 20
187.1088932378
 11
105.7179899079
 21
187.8748506827
  0
LINE
  5
25A
100
AcDbEntity
  8
ASSI
100
AcDbLine
 62
7
  6
CONTINUOUS
 10
111.3679899079
 20
193.8067656619
 11
111.3117401224
 21
193.6152761442
  0
LINE
  5
25B
100
AcDbEntity
  8
ASSI
100
AcDbLine
 62
7
  6
CONTINUOUS
 10
113.1679901224
 20
192.211020903
 11
113.2242399079
 21
192.4025102419
  0
LINE
  5
25C
100
AcDbEntity
  8
ASSI
100
AcDbLine
 62
7
  6
CONTINUOUS
 10
106.0554899079
 20
190.1088932378
 11
105.1554901224
 21
187.1088932378
  0
LINE
  5
25D
100
AcDbEntity
  8
ASSI
100
AcDbLine
 62
7
  6
CONTINUOUS
 10
109.9054900151
 20
191.5088932378
 11
110.8054899615
 21
194.5088932378
  0
LINE
  5
25E
100
AcDbEntity
  8
ASSI
100
AcDbLine
 62
7
  6
CONTINUOUS
 10
110.4679899615
 20
194.5088932378
 11
109.6804899883
 21
191.8918719602
  0
LINE
  5
25F
100
AcDbEntity
  8
ASSI
100
AcDbLine
 62
7
  6
CONTINUOUS
 10
114.9429904443
 20
187.6195315195
 11
115.0554900151
 21
187.9386804623
  0
LINE
  5
260
100
AcDbEntity
  8
ASSI
100
AcDbLine
 62
7
  6
CONTINUOUS
 10
112.2429898006
 20
189.2791059238
 11
112.1304902297
 21
189.0237868053
  0
LINE
  5
261
100
AcDbEntity
  8
ASSI
100
AcDbLine
 62
7
  6
CONTINUOUS
 10
115.7304900151
 20
189.6620847804
 11
115.6179904443
 21
189.4067656619
  0
LINE
  5
262
100
AcDbEntity
  8
ASSI
100
AcDbLine
 62
7
  6
CONTINUOUS
 10
117.3054904443
 20
187.5557017398
 11
117.4179900151
 21
187.811020903
  0
LINE
  5
263
100
AcDbEntity
  8
0
100
AcDbLine
 62
250
  6
CONTINUOUS
 10
185.9522467649
 20
-21.463141309
 11
184.2946204499
 21
-20.5061103099
  0
LINE
  5
264
100
AcDbEntity
  8
0
100
AcDbLine
 62
7
  6
CONTINUOUS
 10
185.919055875
 20
-21.3134471746
 11
184.3554900151
 21
-20.4107220045
  0
LINE
  5
265
100
AcDbEntity
  8
0
100
AcDbLine
 62
7
  6
CONTINUOUS
 10
185.9554900151
 20
-20.4107220045
 11
186.5045593722
 21
-20.7277273456
  0
LINE
  5
266
100
AcDbEntity
  8
0
100
AcDbLine
 62
250
  6
CONTINUOUS
 10
186.0192581311
 20
-20.3303950105
 11
186.6711044242
 21
-20.7067386434
  0
LINE
  5
267
100
AcDbEntity
  8
ASSI
100
AcDbLine
 62
7
  6
CONTINUOUS
 10
90.5554900151
 20
177.9127408151
 11
90.5554900151
 21
195.1088932378
  0
LINE
  5
268
100
AcDbEntity
  8
0
100
AcDbLine
 62
250
  6
CONTINUOUS
 10
90.9540407398
 20
75.1631850337
 11
90.9540407398
 21
75.9158722993
  0
LINE
  5
269
100
AcDbEntity
  8
0
100
AcDbLine
 62
7
  6
CONTINUOUS
 10
91.0554900151
 20
75.1481237223
 11
91.0554900151
 21
75.7821344045
  0
LINE
  5
26A
100
AcDbEntity
  8
0
100
AcDbLine
 62
7
  6
CONTINUOUS
 10
91.8554900151
 20
73.7624830762
 11
91.8554900151
 21
75.5679334164
  0
LINE
  5
26B
100
AcDbEntity
  8
0
100
AcDbLine
 62
250
  6
CONTINUOUS
 10
91.9685334934
 20
75.6715246374
 11
91.9685334934
 21
73.7574626391
  0
LINE
  5
26C
100
AcDbEntity
  8
ASSI
100
AcDbLine
 62
7
  6
CONTINUOUS
 10
96.0554900151
 20
205.1088932378
 11
96.0554900151
 21
211.9088932378
  0
LINE
  5
26D
100
AcDbEntity
  8
ASSI
100
AcDbLine
 62
7
  6
CONTINUOUS
 10
96.1554900151
 20
195.1088932378
 11
96.1554900151
 21
205.1088932378
  0
LINE
  5
26E
100
AcDbEntity
  8
ASSI
100
AcDbLine
 62
7
  6
CONTINUOUS
 10
98.0554900151
 20
177.1088932378
 11
98.0554900151
 21
195.1088932378
  0
LINE
  5
26F
100
AcDbEntity
  8
ASSI
100
AcDbLine
 62
7
  6
CONTINUOUS
 10
102.7367400151
 20
189.2791059238
 11
102.6804899883
 21
188.8322974664
  0
LINE
  5
270
100
AcDbEntity
  8
ASSI
100
AcDbLine
 62
7
  6
CONTINUOUS
 10
102.9617399615
 20
188.8322974664
 11
103.0179900688
 21
189.2152761442
  0
LINE
  5
271
100
AcDbEntity
  8
ASSI
100
AcDbLine
 62
7
  6
CONTINUOUS
 10
111.5367399079
 20
193.2322974664
 11
111.5929900151
 21
193.6152761442
  0
LINE
  5
272
100
AcDbEntity
  8
ASSI
100
AcDbLine
 62
7
  6
CONTINUOUS
 10
112.9992401224
 20
192.7854890091
 11
112.9429900151
 21
192.4025102419
  0
LINE
  5
273
100
AcDbEntity
  8
ASSI
100
AcDbLine
 62
7
  6
CONTINUOUS
 10
111.3117401224
 20
193.6152761442
 11
111.2554900151
 21
193.2961272461
  0
LINE
  5
274
100
AcDbEntity
  8
ASSI
100
AcDbLine
 62
7
  6
CONTINUOUS
 10
113.2242399079
 20
192.4025102419
 11
113.2804900151
 21
192.7216592294
  0
LINE
  5
275
100
AcDbEntity
  8
ASSI
100
AcDbLine
 62
7
  6
CONTINUOUS
 10
115.5617400151
 20
189.2152761442
 11
115.505489586
 21
188.8961272461
  0
LINE
  5
276
100
AcDbEntity
  8
ASSI
100
AcDbLine
 62
7
  6
CONTINUOUS
 10
110.6679900151
 20
189.6620847804
 11
110.6117402297
 21
189.4067656619
  0
LINE
  5
277
100
AcDbEntity
  8
ASSI
100
AcDbLine
 62
7
  6
CONTINUOUS
 10
112.5242400151
 20
189.0237868053
 11
112.5804904443
 21
189.2791059238
  0
LINE
  5
278
100
AcDbEntity
  8
ASSI
100
AcDbLine
 62
7
  6
CONTINUOUS
 10
114.7742404443
 20
188.0025102419
 11
114.7179900151
 21
187.811020903
  0
LINE
  5
279
100
AcDbEntity
  8
ASSI
100
AcDbLine
 62
7
  6
CONTINUOUS
 10
115.6179904443
 20
189.4067656619
 11
115.5617400151
 21
189.2152761442
  0
LINE
  5
27A
100
AcDbEntity
  8
ASSI
100
AcDbLine
 62
7
  6
CONTINUOUS
 10
117.4179900151
 20
187.811020903
 11
117.4742404443
 21
188.0025102419
  0
LINE
  5
27B
100
AcDbEntity
  8
ASSI
100
AcDbLine
 62
7
  6
CONTINUOUS
 10
119.3304904443
 20
187.1088932378
 11
120.230489586
 21
190.1088932378
  0
LINE
  5
27C
100
AcDbEntity
  8
ASSI
100
AcDbLine
 62
7
  6
CONTINUOUS
 10
119.892989586
 20
190.1088932378
 11
119.1054900151
 21
187.4918719602
  0
LINE
  5
27D
100
AcDbEntity
  8
ASSI
100
AcDbLine
 62
7
  6
CONTINUOUS
 10
120.7154962865
 20
156.6014225384
 11
132.1535662265
 21
176.4127408151
  0
LINE
  5
27E
100
AcDbEntity
  8
RACCORDO
100
AcDbLine
 62
7
  6
CONTINUOUS
 10
104.5777431918
 20
140.8754247398
 11
103.1325194123
 21
139.1341570461
  0
LINE
  5
27F
100
AcDbEntity
  8
RACCORDO
100
AcDbLine
 62
7
  6
CONTINUOUS
 10
103.1325194123
 20
139.1341570461
 11
102.4217977928
 21
138.2792198322
  0
LINE
  5
280
100
AcDbEntity
  8
RACCORDO
100
AcDbLine
 62
7
  6
CONTINUOUS
 10
102.4217977928
 20
138.2792198322
 11
102.2717407073
 21
138.0989696511
  0
LINE
  5
281
100
AcDbEntity
  8
RACCORDO
100
AcDbLine
 62
7
  6
CONTINUOUS
 10
102.2717407073
 20
138.0989696511
 11
102.1267569625
 21
137.9249342318
  0
LINE
  5
282
100
AcDbEntity
  8
RACCORDO
100
AcDbLine
 62
7
  6
CONTINUOUS
 10
102.1267569625
 20
137.9249342318
 11
101.8961783255
 21
137.648442996
  0
LINE
  5
283
100
AcDbEntity
  8
RACCORDO
100
AcDbLine
 62
7
  6
CONTINUOUS
 10
101.8961783255
 20
137.648442996
 11
101.4754575498
 21
137.1451845524
  0
LINE
  5
284
100
AcDbEntity
  8
RACCORDO
100
AcDbLine
 62
7
  6
CONTINUOUS
 10
101.4754575498
 20
137.1451845524
 11
101.1410239629
 21
136.7467737928
  0
LINE
  5
285
100
AcDbEntity
  8
RACCORDO
100
AcDbLine
 62
7
  6
CONTINUOUS
 10
101.1410239629
 20
136.7467737928
 11
100.876946968
 21
136.4336828422
  0
LINE
  5
286
100
AcDbEntity
  8
RACCORDO
100
AcDbLine
 62
7
  6
CONTINUOUS
 10
100.876946968
 20
136.4336828422
 11
100.6422941331
 21
136.1570570909
  0
LINE
  5
287
100
AcDbEntity
  8
RACCORDO
100
AcDbLine
 62
7
  6
CONTINUOUS
 10
100.6422941331
 20
136.1570570909
 11
100.435309104
 21
135.9147790661
  0
LINE
  5
288
100
AcDbEntity
  8
RACCORDO
100
AcDbLine
 62
7
  6
CONTINUOUS
 10
100.435309104
 20
135.9147790661
 11
100.2755642576
 21
135.7293429711
  0
LINE
  5
289
100
AcDbEntity
  8
RACCORDO
100
AcDbLine
 62
7
  6
CONTINUOUS
 10
100.2755642576
 20
135.7293429711
 11
100.1537281969
 21
135.5891543008
  0
LINE
  5
28A
100
AcDbEntity
  8
RACCORDO
100
AcDbLine
 62
7
  6
CONTINUOUS
 10
100.1537281969
 20
135.5891543008
 11
100.0625347242
 21
135.4851617369
  0
LWPOLYLINE
  5
28B
100
AcDbEntity
  8
RACCORDO
100
AcDbPolyline
 62
7
  6
CONTINUOUS
 90
10
 70
0
 10
124.1194028952
 20
159.5087049148
 10
124.1192582021
 20
159.5085421664
 10
124.1185711728
 20
159.5077782869
 10
124.1173112576
 20
159.5063967827
 10
124.1155580585
 20
159.5044995458
 10
124.11331151
 20
159.502097866
 10
124.110552785
 20
159.4991821586
 10
124.1073395015
 20
159.4958221544
 10
124.1036738472
 20
159.4920271423
 10
124.0995398951
 20
159.4877871793
  0
LINE
  5
28C
100
AcDbEntity
  8
RACCORDO
100
AcDbLine
 62
7
  6
CONTINUOUS
 10
100.0625347242
 20
135.4851617369
 11
99.9805392807
 21
135.3925549151
  0
LINE
  5
28D
100
AcDbEntity
  8
RACCORDO
100
AcDbLine
 62
7
  6
CONTINUOUS
 10
99.9805392807
 20
135.3925549151
 11
99.9214513367
 21
135.3264970615
  0
LINE
  5
28E
100
AcDbEntity
  8
RACCORDO
100
AcDbLine
 62
7
  6
CONTINUOUS
 10
99.9214513367
 20
135.3264970615
 11
99.8680563774
 21
135.2674297349
  0
LINE
  5
28F
100
AcDbEntity
  8
RACCORDO
100
AcDbLine
 62
7
  6
CONTINUOUS
 10
99.8680563774
 20
135.2674297349
 11
99.8317095465
 21
135.2276470925
  0
LINE
  5
290
100
AcDbEntity
  8
RACCORDO
100
AcDbLine
 62
7
  6
CONTINUOUS
 10
99.8317095465
 20
135.2276470925
 11
99.7985217951
 21
135.191696565
  0
LINE
  5
291
100
AcDbEntity
  8
RACCORDO
100
AcDbLine
 62
7
  6
CONTINUOUS
 10
99.7985217951
 20
135.191696565
 11
99.7684958762
 21
135.1595517041
  0
LINE
  5
292
100
AcDbEntity
  8
RACCORDO
100
AcDbLine
 62
7
  6
CONTINUOUS
 10
99.7684958762
 20
135.1595517041
 11
99.7502440028
 21
135.1402279688
  0
LINE
  5
293
100
AcDbEntity
  8
RACCORDO
100
AcDbLine
 62
7
  6
CONTINUOUS
 10
99.7502440028
 20
135.1402279688
 11
99.7334180594
 21
135.1225888364
  0
LINE
  5
294
100
AcDbEntity
  8
RACCORDO
100
AcDbLine
 62
7
  6
CONTINUOUS
 10
99.7334180594
 20
135.1225888364
 11
99.7180559629
 21
135.1066586448
  0
LINE
  5
295
100
AcDbEntity
  8
RACCORDO
100
AcDbLine
 62
7
  6
CONTINUOUS
 10
99.7180559629
 20
135.1066586448
 11
99.7041818145
 21
135.0924438575
  0
LINE
  5
296
100
AcDbEntity
  8
RACCORDO
100
AcDbLine
 62
7
  6
CONTINUOUS
 10
124.0995398951
 20
159.4877871793
 11
124.0899604304
 21
159.4780901566
  0
LINE
  5
297
100
AcDbEntity
  8
RACCORDO
100
AcDbLine
 62
7
  6
CONTINUOUS
 10
99.7041818145
 20
135.0924438575
 11
99.6918473165
 21
135.079975051
  0
LINE
  5
298
100
AcDbEntity
  8
RACCORDO
100
AcDbLine
 62
7
  6
CONTINUOUS
 10
124.0899604304
 20
159.4780901566
 11
124.0786116062
 21
159.4667799292
  0
LWPOLYLINE
  5
299
100
AcDbEntity
  8
RACCORDO
100
AcDbPolyline
 62
7
  6
CONTINUOUS
 90
11
 70
0
 10
99.6918473165
 20
135.079975051
 10
99.6811314675
 20
135.0693040033
 10
99.6763869038
 20
135.0646385492
 10
99.6720940283
 20
135.0604551403
 10
99.6682451425
 20
135.0567402089
 10
99.6648453496
 20
135.053492273
 10
99.661957492
 20
135.0507635106
 10
99.6595711379
 20
135.0485348783
 10
99.6576967511
 20
135.0468063857
 10
99.6564313717
 20
135.0456551525
 10
99.6559820413
 20
135.0452510223
  0
LINE
  5
29A
100
AcDbEntity
  8
RACCORDO
100
AcDbLine
 62
7
  6
CONTINUOUS
 10
124.0786116062
 20
159.4667799292
 11
124.0655200384
 21
159.4539139665
  0
LINE
  5
29B
100
AcDbEntity
  8
RACCORDO
100
AcDbLine
 62
7
  6
CONTINUOUS
 10
124.0655200384
 20
159.4539139665
 11
124.050679376
 21
159.4395115004
  0
LINE
  5
29C
100
AcDbEntity
  8
RACCORDO
100
AcDbLine
 62
7
  6
CONTINUOUS
 10
124.050679376
 20
159.4395115004
 11
124.0340619665
 21
159.4235676627
  0
LINE
  5
29D
100
AcDbEntity
  8
RACCORDO
100
AcDbLine
 62
7
  6
CONTINUOUS
 10
124.0340619665
 20
159.4235676627
 11
124.0156419543
 21
159.4060769174
  0
LINE
  5
29E
100
AcDbEntity
  8
RACCORDO
100
AcDbLine
 62
7
  6
CONTINUOUS
 10
124.0156419543
 20
159.4060769174
 11
123.9953748007
 21
159.3870141348
  0
LINE
  5
29F
100
AcDbEntity
  8
RACCORDO
100
AcDbLine
 62
7
  6
CONTINUOUS
 10
123.9953748007
 20
159.3870141348
 11
123.9613939126
 21
159.3553965545
  0
LINE
  5
2A0
100
AcDbEntity
  8
RACCORDO
100
AcDbLine
 62
7
  6
CONTINUOUS
 10
123.9613939126
 20
159.3553965545
 11
123.9229400703
 21
159.3200285427
  0
LINE
  5
2A1
100
AcDbEntity
  8
RACCORDO
100
AcDbLine
 62
7
  6
CONTINUOUS
 10
123.9229400703
 20
159.3200285427
 11
123.8797877318
 21
159.2807458668
  0
LINE
  5
2A2
100
AcDbEntity
  8
RACCORDO
100
AcDbLine
 62
7
  6
CONTINUOUS
 10
123.8797877318
 20
159.2807458668
 11
123.8144985098
 21
159.2219449187
  0
LINE
  5
2A3
100
AcDbEntity
  8
RACCORDO
100
AcDbLine
 62
7
  6
CONTINUOUS
 10
123.8144985098
 20
159.2219449187
 11
123.7397182561
 21
159.1553147155
  0
LINE
  5
2A4
100
AcDbEntity
  8
RACCORDO
100
AcDbLine
 62
7
  6
CONTINUOUS
 10
123.7397182561
 20
159.1553147155
 11
123.6320297656
 21
159.060364168
  0
LINE
  5
2A5
100
AcDbEntity
  8
RACCORDO
100
AcDbLine
 62
7
  6
CONTINUOUS
 10
123.6320297656
 20
159.060364168
 11
123.5078476529
 21
158.9519584018
  0
LINE
  5
2A6
100
AcDbEntity
  8
RACCORDO
100
AcDbLine
 62
7
  6
CONTINUOUS
 10
123.5078476529
 20
158.9519584018
 11
123.3361539744
 21
158.8034622722
  0
LINE
  5
2A7
100
AcDbEntity
  8
RACCORDO
100
AcDbLine
 62
7
  6
CONTINUOUS
 10
123.3361539744
 20
158.8034622722
 11
123.1387240891
 21
158.6341415354
  0
LINE
  5
2A8
100
AcDbEntity
  8
RACCORDO
100
AcDbLine
 62
7
  6
CONTINUOUS
 10
123.1387240891
 20
158.6341415354
 11
122.8745324295
 21
158.4092577059
  0
LINE
  5
2A9
100
AcDbEntity
  8
RACCORDO
100
AcDbLine
 62
7
  6
CONTINUOUS
 10
122.8745324295
 20
158.4092577059
 11
122.5728100399
 21
158.1540955545
  0
LINE
  5
2AA
100
AcDbEntity
  8
RACCORDO
100
AcDbLine
 62
7
  6
CONTINUOUS
 10
122.5728100399
 20
158.1540955545
 11
122.2327805714
 21
157.8680240989
  0
LINE
  5
2AB
100
AcDbEntity
  8
RACCORDO
100
AcDbLine
 62
7
  6
CONTINUOUS
 10
122.2327805714
 20
157.8680240989
 11
121.7949266107
 21
157.5012431623
  0
LINE
  5
2AC
100
AcDbEntity
  8
RACCORDO
100
AcDbLine
 62
7
  6
CONTINUOUS
 10
121.7949266107
 20
157.5012431623
 11
121.2353710289
 21
157.0342277405
  0
LINE
  5
2AD
100
AcDbEntity
  8
RACCORDO
100
AcDbLine
 62
7
  6
CONTINUOUS
 10
121.2353710289
 20
157.0342277405
 11
120.5253983415
 21
156.4433370237
  0
LINE
  5
2AE
100
AcDbEntity
  8
RACCORDO
100
AcDbLine
 62
7
  6
CONTINUOUS
 10
120.5253983415
 20
156.4433370237
 11
119.2782121598
 21
155.4075017458
  0
LINE
  5
2AF
100
AcDbEntity
  8
RACCORDO
100
AcDbLine
 62
7
  6
CONTINUOUS
 10
119.2782121598
 20
155.4075017458
 11
118.2889585131
 21
154.5866400612
  0
LINE
  5
2B0
100
AcDbEntity
  8
ASSI
100
AcDbLine
 62
250
  6
CONTINUOUS
 10
106.0554900151
 20
152.4088932378
 11
105.2554900151
 21
171.7517503806
  0
LINE
  5
2B1
100
AcDbEntity
  8
ASSI
100
AcDbLine
 62
7
  6
CONTINUOUS
 10
100.9554900151
 20
195.1088932378
 11
100.9554900151
 21
205.1088932378
  0
LINE
  5
2B2
100
AcDbEntity
  8
ASSI
100
AcDbLine
 62
7
  6
CONTINUOUS
 10
101.0554900151
 20
205.1088932378
 11
101.0554900151
 21
211.9088932378
  0
LINE
  5
2B3
100
AcDbEntity
  8
ASSI
100
AcDbLine
 62
7
  6
CONTINUOUS
 10
101.5554900151
 20
189.6620847804
 11
101.5554900151
 21
189.1514463646
  0
LINE
  5
2B4
100
AcDbEntity
  8
ASSI
100
AcDbLine
 62
7
  6
CONTINUOUS
 10
101.8929900151
 20
189.5982550008
 11
101.8929900151
 21
187.1088932378
  0
LINE
  5
2B5
100
AcDbEntity
  8
ASSI
100
AcDbLine
 62
7
  6
CONTINUOUS
 10
102.2304900151
 20
187.1088932378
 11
102.2304900151
 21
190.1088932378
  0
LINE
  5
2B6
100
AcDbEntity
  8
ASSI
100
AcDbLine
 62
7
  6
CONTINUOUS
 10
102.6804899883
 20
188.8322974664
 11
102.6804899883
 21
188.3854890091
  0
LINE
  5
2B7
100
AcDbEntity
  8
ASSI
100
AcDbLine
 62
7
  6
CONTINUOUS
 10
102.9617399615
 20
188.7046379072
 11
102.9617399615
 21
188.8322974664
  0
LINE
  5
2B8
100
AcDbEntity
  8
ASSI
100
AcDbLine
 62
7
  6
CONTINUOUS
 10
103.0179900688
 20
188.0025102419
 11
103.0179900688
 21
188.1939995808
  0
LINE
  5
2B9
100
AcDbEntity
  8
ASSI
100
AcDbLine
 62
7
  6
CONTINUOUS
 10
104.4242400151
 20
188.1939995808
 11
104.4242400151
 21
188.0025102419
  0
LINE
  5
2BA
100
AcDbEntity
  8
ASSI
100
AcDbLine
 62
7
  6
CONTINUOUS
 10
104.7054899079
 20
187.9386804623
 11
104.7054899079
 21
188.2578294498
  0
LINE
  5
2BB
100
AcDbEntity
  8
ASSI
100
AcDbLine
 62
7
  6
CONTINUOUS
 10
105.0554900151
 20
177.1088932378
 11
105.0554900151
 21
171.7517503806
  0
LINE
  5
2BC
100
AcDbEntity
  8
ASSI
100
AcDbLine
 62
7
  6
CONTINUOUS
 10
105.0554900151
 20
141.4422981583
 11
105.0554900151
 21
170.9136716483
  0
LINE
  5
2BD
100
AcDbEntity
  8
ASSI
100
AcDbLine
 62
250
  6
CONTINUOUS
 10
106.0554900151
 20
142.612938578
 11
106.0554900151
 21
144.9088932378
  0
LINE
  5
2BE
100
AcDbEntity
  8
ASSI
100
AcDbLine
 62
250
  6
CONTINUOUS
 10
106.0554900151
 20
147.4088932378
 11
106.0554900151
 21
149.9088932378
  0
LINE
  5
2BF
100
AcDbEntity
  8
ASSI
100
AcDbLine
 62
7
  6
CONTINUOUS
 10
109.0554900151
 20
195.1088932378
 11
109.0554900151
 21
212.4088932378
  0
LINE
  5
2C0
100
AcDbEntity
  8
ASSI
100
AcDbLine
 62
7
  6
CONTINUOUS
 10
110.5554898006
 20
187.4280421806
 11
110.5554898006
 21
187.1088932378
  0
LINE
  5
2C1
100
AcDbEntity
  8
ASSI
100
AcDbLine
 62
7
  6
CONTINUOUS
 10
110.8886030151
 20
179.4208482378
 11
110.8886030151
 21
178.9486272378
  0
LINE
  5
2C2
100
AcDbEntity
  8
ASSI
100
AcDbLine
 62
7
  6
CONTINUOUS
 10
110.9040240151
 20
183.2505562378
 11
110.9040240151
 21
182.7757392378
  0
LINE
  5
2C3
100
AcDbEntity
  8
ASSI
100
AcDbLine
 62
7
  6
CONTINUOUS
 10
115.7867404443
 20
188.8322974664
 11
115.842989586
 21
189.2152761442
  0
LINE
  5
2C4
100
AcDbEntity
  8
ASSI
100
AcDbLine
 62
7
  6
CONTINUOUS
 10
117.2492400151
 20
188.3854890091
 11
117.192989586
 21
188.0025102419
  0
LINE
  5
2C5
100
AcDbEntity
  8
ASSI
100
AcDbLine
 62
7
  6
CONTINUOUS
 10
117.4742404443
 20
188.0025102419
 11
117.530489586
 21
188.3216592294
  0
LINE
  5
2C6
100
AcDbEntity
  8
ASSI
100
AcDbLine
 62
7
  6
CONTINUOUS
 10
118.9643639913
 20
155.14703958
 11
124.9454335248
 21
176.7120791633
  0
LINE
  5
2C7
100
AcDbEntity
  8
ASSI
100
AcDbLine
 62
7
  6
CONTINUOUS
 10
111.2554900151
 20
193.2961272461
 11
111.2554900151
 21
192.7216592294
  0
LINE
  5
2C8
100
AcDbEntity
  8
ASSI
100
AcDbLine
 62
7
  6
CONTINUOUS
 10
111.3070920151
 20
182.7757392378
 11
111.3070920151
 21
181.5717312378
  0
LINE
  5
2C9
100
AcDbEntity
  8
ASSI
100
AcDbLine
 62
7
  6
CONTINUOUS
 10
111.3070920151
 20
180.9865282378
 11
111.3070920151
 21
179.4208482378
  0
LINE
  5
2CA
100
AcDbEntity
  8
ASSI
100
AcDbLine
 62
7
  6
CONTINUOUS
 10
111.5367399079
 20
192.7854890091
 11
111.5367399079
 21
193.2322974664
  0
LINE
  5
2CB
100
AcDbEntity
  8
ASSI
100
AcDbLine
 62
7
  6
CONTINUOUS
 10
111.8101550151
 20
179.4208482378
 11
111.8101550151
 21
180.9918092378
  0
LINE
  5
2CC
100
AcDbEntity
  8
ASSI
100
AcDbLine
 62
7
  6
CONTINUOUS
 10
111.8101550151
 20
181.5717312378
 11
111.8101550151
 21
182.7757392378
  0
LINE
  5
2CD
100
AcDbEntity
  8
ASSI
100
AcDbLine
 62
7
  6
CONTINUOUS
 10
112.2130600151
 20
182.7757392378
 11
112.2130600151
 21
183.2505562378
  0
LINE
  5
2CE
100
AcDbEntity
  8
ASSI
100
AcDbLine
 62
7
  6
CONTINUOUS
 10
112.2284810151
 20
178.9486272378
 11
112.2284810151
 21
179.4208482378
  0
LINE
  5
2CF
100
AcDbEntity
  8
ASSI
100
AcDbLine
 62
7
  6
CONTINUOUS
 10
112.2429898006
 20
189.4067656619
 11
112.2429898006
 21
189.2791059238
  0
LINE
  5
2D0
100
AcDbEntity
  8
ASSI
100
AcDbLine
 62
7
  6
CONTINUOUS
 10
112.5804904443
 20
187.1088932378
 11
112.5804904443
 21
187.4280421806
  0
LINE
  5
2D1
100
AcDbEntity
  8
ASSI
100
AcDbLine
 62
7
  6
CONTINUOUS
 10
112.5804904443
 20
189.2791059238
 11
112.5804904443
 21
189.4067656619
  0
LINE
  5
2D2
100
AcDbEntity
  8
ASSI
100
AcDbLine
 62
7
  6
CONTINUOUS
 10
112.9992401224
 20
193.2322974664
 11
112.9992401224
 21
192.7854890091
  0
LINE
  5
2D3
100
AcDbEntity
  8
ASSI
100
AcDbLine
 62
7
  6
CONTINUOUS
 10
113.0304900151
 20
190.1088932378
 11
113.0304900151
 21
188.4493187887
  0
LINE
  5
2D4
100
AcDbEntity
  8
ASSI
100
AcDbLine
 62
7
  6
CONTINUOUS
 10
113.2804900151
 20
192.7216592294
 11
113.2804900151
 21
193.2961272461
  0
LINE
  5
2D5
100
AcDbEntity
  8
ASSI
100
AcDbLine
 62
7
  6
CONTINUOUS
 10
113.311739586
 20
188.7684676868
 11
113.311739586
 21
189.7897443396
  0
LINE
  5
2D6
100
AcDbEntity
  8
ASSI
100
AcDbLine
 62
7
  6
CONTINUOUS
 10
113.7304899079
 20
194.0620847804
 11
113.7304899079
 21
193.5514463646
  0
LINE
  5
2D7
100
AcDbEntity
  8
ASSI
100
AcDbLine
 62
7
  6
CONTINUOUS
 10
114.0554900151
 20
195.1088932378
 11
114.0554900151
 21
212.4088932378
  0
LINE
  5
2D8
100
AcDbEntity
  8
ASSI
100
AcDbLine
 62
7
  6
CONTINUOUS
 10
114.0679902297
 20
193.9982550008
 11
114.0679902297
 21
191.5088932378
  0
LINE
  5
2D9
100
AcDbEntity
  8
ASSI
100
AcDbLine
 62
7
  6
CONTINUOUS
 10
114.4054902297
 20
191.5088932378
 11
114.4054902297
 21
194.5088932378
  0
LINE
  5
2DA
100
AcDbEntity
  8
ASSI
100
AcDbLine
 62
7
  6
CONTINUOUS
 10
114.7742404443
 20
188.1301698012
 11
114.7742404443
 21
188.0025102419
  0
LINE
  5
2DB
100
AcDbEntity
  8
ASSI
100
AcDbLine
 62
7
  6
CONTINUOUS
 10
114.9429904443
 20
189.7897443396
 11
114.9429904443
 21
190.1088932378
  0
LINE
  5
2DC
100
AcDbEntity
  8
ASSI
100
AcDbLine
 62
7
  6
CONTINUOUS
 10
115.0554900151
 20
187.9386804623
 11
115.0554900151
 21
188.1939995808
  0
LINE
  5
2DD
100
AcDbEntity
  8
ASSI
100
AcDbLine
 62
7
  6
CONTINUOUS
 10
115.505489586
 20
188.8961272461
 11
115.505489586
 21
188.3216592294
  0
LINE
  5
2DE
100
AcDbEntity
  8
ASSI
100
AcDbLine
 62
7
  6
CONTINUOUS
 10
115.7867404443
 20
188.3854890091
 11
115.7867404443
 21
188.8322974664
  0
LINE
  5
2DF
100
AcDbEntity
  8
ASSI
100
AcDbLine
 62
7
  6
CONTINUOUS
 10
117.2492400151
 20
188.8322974664
 11
117.2492400151
 21
188.3854890091
  0
LINE
  5
2E0
100
AcDbEntity
  8
ASSI
100
AcDbLine
 62
7
  6
CONTINUOUS
 10
117.530489586
 20
188.3216592294
 11
117.530489586
 21
188.8961272461
  0
LINE
  5
2E1
100
AcDbEntity
  8
ASSI
100
AcDbLine
 62
7
  6
CONTINUOUS
 10
118.0554900151
 20
154.3898786156
 11
118.0554900151
 21
177.5209689398
  0
LINE
  5
2E2
100
AcDbEntity
  8
ASSI
100
AcDbLine
 62
250
  6
CONTINUOUS
 10
118.0554900151
 20
176.5874646663
 11
117.1042653055
 21
153.5882100798
  0
LINE
  5
2E3
100
AcDbEntity
  8
0
100
AcDbLine
 62
250
  6
CONTINUOUS
 10
183.3170898675
 20
168.1595192405
 11
184.9033161021
 21
169.075327384
  0
LINE
  5
2E4
100
AcDbEntity
  8
0
100
AcDbLine
 62
7
  6
CONTINUOUS
 10
183.365610751
 20
168.0570014204
 11
184.9554900151
 21
168.9749186415
  0
LINE
  5
2E5
100
AcDbEntity
  8
0
100
AcDbLine
 62
7
  6
CONTINUOUS
 10
184.1554900151
 20
167.5892779955
 11
183.6064206581
 21
167.2722726544
  0
LINE
  5
2E6
100
AcDbEntity
  8
0
100
AcDbLine
 62
250
  6
CONTINUOUS
 10
184.1931711746
 20
167.4938896901
 11
183.5413248814
 21
167.1175460573
  0
LINE
  5
2E7
100
AcDbEntity
  8
0
100
AcDbLine
 62
250
  6
CONTINUOUS
 10
91.9522467649
 20
72.536858691
 11
90.2946204499
 21
73.4938896901
  0
LINE
  5
2E8
100
AcDbEntity
  8
0
100
AcDbLine
 62
7
  6
CONTINUOUS
 10
91.919055875
 20
72.6865528254
 11
90.3554900151
 21
73.5892779955
  0
LINE
  5
2E9
100
AcDbEntity
  8
ASSI
100
AcDbLine
 62
7
  6
CONTINUOUS
 10
102.6804899883
 20
188.3854890091
 11
102.7367400151
 21
187.9386804623
  0
LINE
  5
2EA
100
AcDbEntity
  8
ASSI
100
AcDbLine
 62
7
  6
CONTINUOUS
 10
122.0554900151
 20
205.1088932378
 11
122.0554900151
 21
211.9088932378
  0
LINE
  5
2EB
100
AcDbEntity
  8
ASSI
100
AcDbLine
 62
7
  6
CONTINUOUS
 10
122.1554900151
 20
195.1088932378
 11
122.1554900151
 21
205.1088932378
  0
LINE
  5
2EC
100
AcDbEntity
  8
ASSI
100
AcDbLine
 62
7
  6
CONTINUOUS
 10
125.0554900151
 20
177.5209689398
 11
125.0554900151
 21
195.1088932378
  0
LINE
  5
2ED
100
AcDbEntity
  8
ASSI
100
AcDbLine
 62
7
  6
CONTINUOUS
 10
126.9554900151
 20
195.1088932378
 11
126.9554900151
 21
205.1088932378
  0
LINE
  5
2EE
100
AcDbEntity
  8
ASSI
100
AcDbLine
 62
7
  6
CONTINUOUS
 10
127.0554900151
 20
205.1088932378
 11
127.0554900151
 21
211.9088932378
  0
LINE
  5
2EF
100
AcDbEntity
  8
ASSI
100
AcDbLine
 62
7
  6
CONTINUOUS
 10
132.5554900151
 20
177.9127408151
 11
132.5554900151
 21
195.1088932378
  0
LINE
  5
2F0
100
AcDbEntity
  8
RACCORDO
100
AcDbLine
 62
250
  6
CONTINUOUS
 10
193.7953387304
 20
201.9098714986
 11
193.5134081266
 21
201.496936716
  0
LINE
  5
2F1
100
AcDbEntity
  8
0
100
AcDbLine
 62
7
  6
CONTINUOUS
 10
91.9554900151
 20
73.5892779955
 11
92.5045593722
 21
73.2722726544
  0
LINE
  5
2F2
100
AcDbEntity
  8
0
100
AcDbLine
 62
250
  6
CONTINUOUS
 10
92.0192581311
 20
73.6696049895
 11
92.6711044242
 21
73.2932613566
  0
LINE
  5
2F3
100
AcDbEntity
  8
ASSI
100
AcDbLine
 62
7
  6
CONTINUOUS
 10
104.9892467449
 20
152.1088932378
 11
98.0554900151
 21
177.1088932378
  0
LINE
  5
2F4
100
AcDbEntity
  8
ASSI
100
AcDbLine
 62
7
  6
CONTINUOUS
 10
111.2554900151
 20
192.7216592294
 11
111.3117401224
 21
192.4025102419
  0
LINE
  5
2F5
100
AcDbEntity
  8
ASSI
100
AcDbLine
 62
7
  6
CONTINUOUS
 10
113.2804900151
 20
193.2961272461
 11
113.2242399079
 21
193.6152761442
  0
LINE
  5
2F6
100
AcDbEntity
  8
ASSI
100
AcDbLine
 62
7
  6
CONTINUOUS
 10
111.5929900151
 20
192.4025102419
 11
111.5367399079
 21
192.7854890091
  0
LINE
  5
2F7
100
AcDbEntity
  8
ASSI
100
AcDbLine
 62
7
  6
CONTINUOUS
 10
112.9429900151
 20
193.6152761442
 11
112.9992401224
 21
193.2322974664
  0
LINE
  5
2F8
100
AcDbEntity
  8
ASSI
100
AcDbLine
 62
7
  6
CONTINUOUS
 10
115.842989586
 20
188.0025102419
 11
115.7867404443
 21
188.3854890091
  0
LINE
  5
2F9
100
AcDbEntity
  8
ASSI
100
AcDbLine
 62
7
  6
CONTINUOUS
 10
117.192989586
 20
189.2152761442
 11
117.2492400151
 21
188.8322974664
  0
LINE
  5
2FA
100
AcDbEntity
  8
ASSI
100
AcDbLine
 62
7
  6
CONTINUOUS
 10
102.7367400151
 20
187.9386804623
 11
102.8492399883
 21
187.6195315195
  0
LINE
  5
2FB
100
AcDbEntity
  8
ASSI
100
AcDbLine
 62
7
  6
CONTINUOUS
 10
104.7054899079
 20
188.2578294498
 11
104.5929900151
 21
188.5769783479
  0
LINE
  5
2FC
100
AcDbEntity
  8
ASSI
100
AcDbLine
 62
7
  6
CONTINUOUS
 10
109.6804899883
 20
191.8918719602
 11
108.8929900151
 21
194.5088932378
  0
LINE
  5
2FD
100
AcDbEntity
  8
ASSI
100
AcDbLine
 62
7
  6
CONTINUOUS
 10
107.4054902297
 20
187.1088932378
 11
106.5054901224
 21
190.1088932378
  0
LINE
  5
2FE
100
AcDbEntity
  8
ASSI
100
AcDbLine
 62
7
  6
CONTINUOUS
 10
108.5554900151
 20
194.5088932378
 11
109.455490042
 21
191.5088932378
  0
LINE
  5
2FF
100
AcDbEntity
  8
ASSI
100
AcDbLine
 62
7
  6
CONTINUOUS
 10
103.0742400151
 20
187.811020903
 11
103.0179900688
 21
188.0025102419
  0
LINE
  5
300
100
AcDbEntity
  8
ASSI
100
AcDbLine
 62
7
  6
CONTINUOUS
 10
104.3679899079
 20
188.3854890091
 11
104.4242400151
 21
188.1939995808
  0
LINE
  5
301
100
AcDbEntity
  8
ASSI
100
AcDbLine
 62
7
  6
CONTINUOUS
 10
104.5929900151
 20
189.4067656619
 11
104.5367399079
 21
189.5982550008
  0
LINE
  5
302
100
AcDbEntity
  8
ASSI
100
AcDbLine
 62
7
  6
CONTINUOUS
 10
106.8429901224
 20
187.8748506827
 11
107.0679902297
 21
187.1088932378
  0
LINE
  5
303
100
AcDbEntity
  8
ASSI
100
AcDbLine
 62
7
  6
CONTINUOUS
 10
106.2804900151
 20
189.8535741193
 11
106.7867400151
 21
188.1301698012
  0
LINE
  5
304
100
AcDbEntity
  8
ASSI
100
AcDbLine
 62
7
  6
CONTINUOUS
 10
111.3117401224
 20
192.4025102419
 11
111.3679899079
 21
192.211020903
  0
LINE
  5
305
100
AcDbEntity
  8
ASSI
100
AcDbLine
 62
7
  6
CONTINUOUS
 10
112.5804904443
 20
189.4067656619
 11
112.5242400151
 21
189.6620847804
  0
LINE
  5
306
100
AcDbEntity
  8
ASSI
100
AcDbLine
 62
7
  6
CONTINUOUS
 10
115.505489586
 20
188.3216592294
 11
115.5617400151
 21
188.0025102419
  0
LINE
  5
307
100
AcDbEntity
  8
ASSI
100
AcDbLine
 62
7
  6
CONTINUOUS
 10
117.530489586
 20
188.8961272461
 11
117.4742404443
 21
189.2152761442
  0
LINE
  5
308
100
AcDbEntity
  8
0
100
AcDbLine
 62
250
  6
CONTINUOUS
 10
89.3170898675
 20
74.1595192405
 11
90.9033161021
 21
75.075327384
  0
LINE
  5
309
100
AcDbEntity
  8
0
100
AcDbLine
 62
7
  6
CONTINUOUS
 10
89.365610751
 20
74.0570014204
 11
90.9554900151
 21
74.9749186415
  0
LINE
  5
30A
100
AcDbEntity
  8
0
100
AcDbLine
 62
7
  6
CONTINUOUS
 10
90.1554900151
 20
73.5892779955
 11
89.6064206581
 21
73.2722726544
  0
LINE
  5
30B
100
AcDbEntity
  8
0
100
AcDbLine
 62
250
  6
CONTINUOUS
 10
90.1931711746
 20
73.4938896901
 11
89.5413248814
 21
73.1175460573
  0
LINE
  5
30C
100
AcDbEntity
  8
RACCORDO
100
AcDbLine
 62
250
  6
CONTINUOUS
 10
223.511628556
 20
60.0087559695
 11
221.5685934924
 21
59.5361076904
  0
LINE
  5
30D
100
AcDbEntity
  8
RACCORDO
100
AcDbLine
 62
250
  6
CONTINUOUS
 10
220.2440677133
 20
59.3086867248
 11
221.2175326294
 21
59.5368565531
  0
LINE
  5
30E
100
AcDbEntity
  8
RACCORDO
100
AcDbLine
 62
250
  6
CONTINUOUS
 10
149.866912317
 20
59.3086867248
 11
148.8934474009
 21
59.5368565531
  0
LINE
  5
30F
100
AcDbEntity
  8
RACCORDO
100
AcDbLine
 62
250
  6
CONTINUOUS
 10
146.5993514743
 20
60.0087559695
 11
148.5423865379
 21
59.5361076905
  0
LINE
  5
310
100
AcDbEntity
  8
RACCORDO
100
AcDbLine
 62
250
  6
CONTINUOUS
 10
211.3094142889
 20
42.6697468961
 11
209.3903724238
 21
43.2319390112
  0
LINE
  5
311
100
AcDbEntity
  8
RACCORDO
100
AcDbLine
 62
250
  6
CONTINUOUS
 10
208.1295889683
 20
43.6972495672
 11
209.0867192295
 21
43.4081179768
  0
LINE
  5
312
100
AcDbEntity
  8
RACCORDO
100
AcDbLine
 62
250
  6
CONTINUOUS
 10
147.1811845491
 20
78.8858272654
 11
146.4522241161
 21
79.5701605911
  0
LINE
  5
313
100
AcDbEntity
  8
RACCORDO
100
AcDbLine
 62
250
  6
CONTINUOUS
 10
144.7014284732
 20
81.125885437
 11
146.1478220592
 21
79.7450424885
  0
LINE
  5
314
100
AcDbEntity
  8
RACCORDO
100
AcDbLine
 62
250
  6
CONTINUOUS
 10
192.0724822144
 20
33.7548316958
 11
190.6916392659
 21
35.2012252818
  0
LINE
  5
315
100
AcDbEntity
  8
RACCORDO
100
AcDbLine
 62
250
  6
CONTINUOUS
 10
189.8324240428
 20
36.2345877717
 11
190.5167573685
 21
35.5056273387
  0
LINE
  5
316
100
AcDbEntity
  8
ASSI
100
AcDbLine
 62
7
  6
CONTINUOUS
 10
105.0554900151
 20
151.994156528
 11
90.9574138038
 21
176.4127408151
  0
LINE
  5
317
100
AcDbEntity
  8
ASSI
100
AcDbLine
 62
7
  6
CONTINUOUS
 10
115.0554900151
 20
188.1939995808
 11
114.9429904443
 21
188.5131485683
  0
LINE
  5
318
100
AcDbEntity
  8
ASSI
100
AcDbLine
 62
7
  6
CONTINUOUS
 10
119.1054900151
 20
187.4918719602
 11
118.3179904443
 21
190.1088932378
  0
LINE
  5
319
100
AcDbEntity
  8
ASSI
100
AcDbLine
 62
7
  6
CONTINUOUS
 10
117.9804904443
 20
190.1088932378
 11
118.880489586
 21
187.1088932378
  0
LINE
  5
31A
100
AcDbEntity
  8
ASSI
100
AcDbLine
 62
7
  6
CONTINUOUS
 10
114.7179900151
 20
188.3216592294
 11
114.7742404443
 21
188.1301698012
  0
LINE
  5
31B
100
AcDbEntity
  8
ASSI
100
AcDbLine
 62
7
  6
CONTINUOUS
 10
113.2242399079
 20
193.6152761442
 11
113.1679901224
 21
193.8067656619
  0
LINE
  5
31C
100
AcDbEntity
  8
ASSI
100
AcDbLine
 62
7
  6
CONTINUOUS
 10
115.5617400151
 20
188.0025102419
 11
115.6179904443
 21
187.811020903
  0
LINE
  5
31D
100
AcDbEntity
  8
ASSI
100
AcDbLine
 62
7
  6
CONTINUOUS
 10
117.4742404443
 20
189.2152761442
 11
117.4179900151
 21
189.4067656619
  0
LINE
  5
31E
100
AcDbEntity
  8
RACCORDO
100
AcDbLine
 62
7
  6
CONTINUOUS
 10
160.0554900151
 20
202.5612190244
 11
160.0554900151
 21
186.9847220943
  0
LINE
  5
31F
100
AcDbEntity
  8
RACCORDO
100
AcDbLine
 62
250
  6
CONTINUOUS
 10
160.5554900151
 20
202.5612190244
 11
160.5554900151
 21
186.9847220943
  0
LINE
  5
320
100
AcDbEntity
  8
RACCORDO
100
AcDbLine
 62
7
  6
CONTINUOUS
 10
164.0554900151
 20
182.5972399012
 11
164.0554900151
 21
176.9696473719
  0
LINE
  5
321
100
AcDbEntity
  8
RACCORDO
100
AcDbLine
 62
250
  6
CONTINUOUS
 10
164.5554900151
 20
192.5993991865
 11
164.5554900151
 21
195.6243243566
  0
LINE
  5
322
100
AcDbEntity
  8
0
100
AcDbLine
 62
250
  6
CONTINUOUS
 10
277.2468893403
 20
74.0423433811
 11
277.3465755965
 21
74.0460114692
  0
LINE
  5
323
100
AcDbEntity
  8
ASSI
100
AcDbLine
 62
7
  6
CONTINUOUS
 10
103.1867400688
 20
187.6195315195
 11
103.0742400151
 21
187.811020903
  0
LINE
  5
324
100
AcDbEntity
  8
ASSI
100
AcDbLine
 62
7
  6
CONTINUOUS
 10
104.1992400688
 20
189.5982550008
 11
104.3117401224
 21
189.4067656619
  0
LINE
  5
325
100
AcDbEntity
  8
ASSI
100
AcDbLine
 62
7
  6
CONTINUOUS
 10
112.4314200151
 20
179.5482682378
 11
112.6487890151
 21
179.1609872378
  0
LINE
  5
326
100
AcDbEntity
  8
ASSI
100
AcDbLine
 62
7
  6
CONTINUOUS
 10
113.0304900151
 20
187.8748506827
 11
113.142989586
 21
187.6195315195
  0
LINE
  5
327
100
AcDbEntity
  8
ASSI
100
AcDbLine
 62
7
  6
CONTINUOUS
 10
111.3679899079
 20
192.211020903
 11
111.4804901224
 21
191.9557017398
  0
LINE
  5
328
100
AcDbEntity
  8
ASSI
100
AcDbLine
 62
7
  6
CONTINUOUS
 10
113.480489586
 20
187.6195315195
 11
113.3679900151
 21
187.8748506827
  0
LINE
  5
329
100
AcDbEntity
  8
ASSI
100
AcDbLine
 62
7
  6
CONTINUOUS
 10
115.6179904443
 20
187.811020903
 11
115.7304900151
 21
187.5557017398
  0
LINE
  5
32A
100
AcDbEntity
  8
ASSI
100
AcDbLine
 62
7
  6
CONTINUOUS
 10
113.1679901224
 20
193.8067656619
 11
113.0554899079
 21
194.0620847804
  0
LINE
  5
32B
100
AcDbEntity
  8
ASSI
100
AcDbLine
 62
7
  6
CONTINUOUS
 10
117.4179900151
 20
189.4067656619
 11
117.3054904443
 21
189.6620847804
  0
LINE
  5
32C
100
AcDbEntity
  8
RACCORDO
100
AcDbLine
 62
250
  6
CONTINUOUS
 10
154.6438463446
 20
97.1829921909
 11
154.3547147542
 21
98.1401224521
  0
LINE
  5
32D
100
AcDbEntity
  8
RACCORDO
100
AcDbLine
 62
250
  6
CONTINUOUS
 10
153.6163436736
 20
100.3628175115
 11
154.1785357887
 21
98.4437756464
  0
LINE
  5
32E
100
AcDbEntity
  8
RACCORDO
100
AcDbLine
 62
250
  6
CONTINUOUS
 10
170.9553527469
 20
35.6527546969
 11
170.4827044678
 21
37.5957897605
  0
LINE
  5
32F
100
AcDbEntity
  8
RACCORDO
100
AcDbLine
 62
250
  6
CONTINUOUS
 10
170.2552835022
 20
38.9203155396
 11
170.4834533305
 21
37.9468506235
  0
LINE
  5
330
100
AcDbEntity
  8
RACCORDO
100
AcDbLine
 62
7
  6
CONTINUOUS
 10
165.0554900151
 20
192.5993991865
 11
165.0554900151
 21
195.6243243566
  0
LINE
  5
331
100
AcDbEntity
  8
0
100
AcDbLine
 62
7
  6
CONTINUOUS
 10
169.0554900151
 20
182.9390361211
 11
169.0554900151
 21
177.8650243387
  0
LINE
  5
332
100
AcDbEntity
  8
RACCORDO
100
AcDbLine
 62
250
  6
CONTINUOUS
 10
170.2552835022
 20
109.2974709359
 11
170.4834533305
 21
110.270935852
  0
LINE
  5
333
100
AcDbEntity
  8
RACCORDO
100
AcDbLine
 62
250
  6
CONTINUOUS
 10
170.9553527469
 20
112.5650317786
 11
170.4827044678
 21
110.621996715
  0
LINE
  5
334
100
AcDbEntity
  8
RACCORDO
100
AcDbLine
 62
250
  6
CONTINUOUS
 10
153.6163436735
 20
47.854968964
 11
154.1785357886
 21
49.7740108291
  0
LINE
  5
335
100
AcDbEntity
  8
RACCORDO
100
AcDbLine
 62
250
  6
CONTINUOUS
 10
154.6438463446
 20
51.0347942846
 11
154.3547147542
 21
50.0776640234
  0
LINE
  5
336
100
AcDbEntity
  8
RACCORDO
100
AcDbLine
 62
250
  6
CONTINUOUS
 10
189.8324240428
 20
111.9831987038
 11
190.5167573685
 21
112.7121591368
  0
LINE
  5
337
100
AcDbEntity
  8
RACCORDO
100
AcDbLine
 62
250
  6
CONTINUOUS
 10
192.0724822144
 20
114.4629547797
 11
190.6916392659
 21
113.0165611937
  0
LINE
  5
338
100
AcDbEntity
  8
RACCORDO
100
AcDbLine
 62
250
  6
CONTINUOUS
 10
144.7014284731
 20
67.0919010385
 11
146.1478220592
 21
68.472743987
  0
LINE
  5
339
100
AcDbEntity
  8
RACCORDO
100
AcDbLine
 62
250
  6
CONTINUOUS
 10
147.1811845491
 20
69.3319592101
 11
146.4522241161
 21
68.6476258844
  0
LINE
  5
33A
100
AcDbEntity
  8
RACCORDO
100
AcDbLine
 62
250
  6
CONTINUOUS
 10
227.3327439546
 20
76.7252402836
 11
225.3368668263
 21
76.6017245217
  0
LINE
  5
33B
100
AcDbEntity
  8
RACCORDO
100
AcDbLine
 62
250
  6
CONTINUOUS
 10
142.7782360757
 20
71.492546192
 11
144.774113204
 21
71.6160619538
  0
LINE
  5
33C
100
AcDbEntity
  8
RACCORDO
100
AcDbLine
 62
250
  6
CONTINUOUS
 10
146.1044250732
 20
71.8363500024
 11
145.1062747714
 21
71.7781143747
  0
LINE
  5
33D
100
AcDbEntity
  8
RACCORDO
100
AcDbLine
 62
250
  6
CONTINUOUS
 10
224.0065549571
 20
76.3814364731
 11
225.0047052589
 21
76.4396721008
  0
LINE
  5
33E
100
AcDbEntity
  8
0
100
AcDbLine
 62
250
  6
CONTINUOUS
 10
89.2468893403
 20
74.0423433811
 11
89.3465755965
 21
74.0460114692
  0
LINE
  5
33F
100
AcDbEntity
  8
RACCORDO
100
AcDbLine
 62
250
  6
CONTINUOUS
 10
146.1044250732
 20
76.3814364732
 11
145.1062747714
 21
76.4396721009
  0
LINE
  5
340
100
AcDbEntity
  8
RACCORDO
100
AcDbLine
 62
250
  6
CONTINUOUS
 10
224.006554957
 20
71.8363500023
 11
225.0047052589
 21
71.7781143747
  0
LINE
  5
341
100
AcDbEntity
  8
RACCORDO
100
AcDbLine
 62
250
  6
CONTINUOUS
 10
227.3327439545
 20
71.4925461919
 11
225.3368668263
 21
71.6160619537
  0
LINE
  5
342
100
AcDbEntity
  8
RACCORDO
100
AcDbLine
 62
250
  6
CONTINUOUS
 10
142.7782360757
 20
76.7252402836
 11
144.774113204
 21
76.6017245218
  0
LINE
  5
343
100
AcDbEntity
  8
RACCORDO
100
AcDbLine
 62
250
  6
CONTINUOUS
 10
222.9768394518
 20
55.2360892748
 11
221.186601275
 21
56.1270600514
  0
LINE
  5
344
100
AcDbEntity
  8
RACCORDO
100
AcDbLine
 62
250
  6
CONTINUOUS
 10
147.1341405784
 20
92.9816972007
 11
148.9243787553
 21
92.0907264241
  0
LINE
  5
345
100
AcDbEntity
  8
RACCORDO
100
AcDbLine
 62
250
  6
CONTINUOUS
 10
150.1866066533
 20
91.6163455357
 11
149.2930653213
 21
92.0649871536
  0
LINE
  5
346
100
AcDbEntity
  8
RACCORDO
100
AcDbLine
 62
250
  6
CONTINUOUS
 10
219.924373377
 20
56.6014409398
 11
220.817914709
 21
56.1527993219
  0
LINE
  5
347
100
AcDbEntity
  8
RACCORDO
100
AcDbLine
 62
250
  6
CONTINUOUS
 10
152.4591498887
 20
95.5525058818
 11
151.6238441843
 21
96.1020145657
  0
LINE
  5
348
100
AcDbEntity
  8
RACCORDO
100
AcDbLine
 62
250
  6
CONTINUOUS
 10
217.6518301416
 20
52.6652805937
 11
218.4871358459
 21
52.1157719098
  0
LINE
  5
349
100
AcDbEntity
  8
RACCORDO
100
AcDbLine
 62
250
  6
CONTINUOUS
 10
220.360492406
 20
50.7044432612
 11
218.693769991
 21
51.8093496129
  0
LINE
  5
34A
100
AcDbEntity
  8
RACCORDO
100
AcDbLine
 62
250
  6
CONTINUOUS
 10
149.7504876243
 20
97.5133432143
 11
151.4172100393
 21
96.4084368626
  0
LINE
  5
34B
100
AcDbEntity
  8
RACCORDO
100
AcDbLine
 62
250
  6
CONTINUOUS
 10
104.57954873
 20
140.8739268161
 11
104.5777431918
 21
140.8754247398
  0
LINE
  5
34C
100
AcDbEntity
  8
RACCORDO
100
AcDbLine
 62
250
  6
CONTINUOUS
 10
118.2904564368
 20
154.5848345229
 11
118.2889585131
 21
154.5866400612
  0
LINE
  5
34D
100
AcDbEntity
  8
RACCORDO
100
AcDbLine
 62
250
  6
CONTINUOUS
 10
208.4599399916
 20
38.8038908469
 11
207.35503364
 21
40.4706132619
  0
LINE
  5
34E
100
AcDbEntity
  8
RACCORDO
100
AcDbLine
 62
250
  6
CONTINUOUS
 10
161.6510400386
 20
109.4138956287
 11
162.7559463903
 21
107.7471732137
  0
LINE
  5
34F
100
AcDbEntity
  8
ASSI
100
AcDbLine
 62
7
  6
CONTINUOUS
 10
102.8492399883
 20
187.6195315195
 11
103.0179900688
 21
187.3642123786
  0
LINE
  5
350
100
AcDbEntity
  8
ASSI
100
AcDbLine
 62
7
  6
CONTINUOUS
 10
104.5367399079
 20
189.5982550008
 11
104.3679899079
 21
189.8535741193
  0
LINE
  5
351
100
AcDbEntity
  8
RACCORDO
100
AcDbLine
 62
250
  6
CONTINUOUS
 10
163.6118773711
 20
106.7052333642
 11
163.0623686872
 21
107.5405390686
  0
LINE
  5
352
100
AcDbEntity
  8
RACCORDO
100
AcDbLine
 62
250
  6
CONTINUOUS
 10
206.4991026591
 20
41.5125531113
 11
207.048611343
 21
40.6772474069
  0
LINE
  5
353
100
AcDbEntity
  8
ASSI
100
AcDbLine
 62
7
  6
CONTINUOUS
 10
112.1304902297
 20
189.5982550008
 11
112.2429898006
 21
189.4067656619
  0
LINE
  5
354
100
AcDbEntity
  8
ASSI
100
AcDbLine
 62
7
  6
CONTINUOUS
 10
111.8179901224
 20
192.0195315195
 11
111.5929900151
 21
192.4025102419
  0
LINE
  5
355
100
AcDbEntity
  8
ASSI
100
AcDbLine
 62
7
  6
CONTINUOUS
 10
114.6054904443
 20
188.5131485683
 11
114.7179900151
 21
188.3216592294
  0
LINE
  5
356
100
AcDbEntity
  8
ASSI
100
AcDbLine
 62
7
  6
CONTINUOUS
 10
116.0679900151
 20
187.6195315195
 11
115.842989586
 21
188.0025102419
  0
LINE
  5
357
100
AcDbEntity
  8
ASSI
100
AcDbLine
 62
7
  6
CONTINUOUS
 10
112.7179899079
 20
193.9982550008
 11
112.9429900151
 21
193.6152761442
  0
LINE
  5
358
100
AcDbEntity
  8
ASSI
100
AcDbLine
 62
7
  6
CONTINUOUS
 10
120.6804904443
 20
188.6408081276
 11
120.736739586
 21
188.5131485683
  0
LINE
  5
359
100
AcDbEntity
  8
ASSI
100
AcDbLine
 62
7
  6
CONTINUOUS
 10
121.6367400151
 20
188.5131485683
 11
121.580489586
 21
188.6408081276
  0
LINE
  5
35A
100
AcDbEntity
  8
RACCORDO
100
AcDbLine
 62
250
  6
CONTINUOUS
 10
174.1627166897
 20
201.1427371113
 11
174.2054334478
 21
200.6445651745
  0
LINE
  5
35B
100
AcDbEntity
  8
RACCORDO
100
AcDbLine
 62
250
  6
CONTINUOUS
 10
182.4391429693
 20
116.3861471772
 11
182.5626587312
 21
114.3902700489
  0
LINE
  5
35C
100
AcDbEntity
  8
RACCORDO
100
AcDbLine
 62
250
  6
CONTINUOUS
 10
187.6718370609
 20
31.8316392983
 11
187.5483212991
 21
33.8275164266
  0
LINE
  5
35D
100
AcDbEntity
  8
RACCORDO
100
AcDbLine
 62
250
  6
CONTINUOUS
 10
187.3280332505
 20
35.1578282958
 11
187.3862688782
 21
34.159677994
  0
LINE
  5
35E
100
AcDbEntity
  8
RACCORDO
100
AcDbLine
 62
250
  6
CONTINUOUS
 10
182.7829467798
 20
113.0599581797
 11
182.7247111521
 21
114.0581084815
  0
LINE
  5
35F
100
AcDbEntity
  8
0
100
AcDbLine
 62
7
  6
CONTINUOUS
 10
182.5554900151
 20
179.0616670984
 11
182.5554900151
 21
184.0804804774
  0
LINE
  5
360
100
AcDbEntity
  8
0
100
AcDbLine
 62
250
  6
CONTINUOUS
 10
184.9540407398
 20
-18.8368149663
 11
184.9540407398
 21
-18.0841277007
  0
LINE
  5
361
100
AcDbEntity
  8
0
100
AcDbLine
 62
250
  6
CONTINUOUS
 10
184.9540407398
 20
169.1631850337
 11
184.9540407398
 21
169.9158722993
  0
LINE
  5
362
100
AcDbEntity
  8
0
100
AcDbLine
 62
7
  6
CONTINUOUS
 10
185.0554900151
 20
-18.8518762777
 11
185.0554900151
 21
-18.2178655955
  0
LINE
  5
363
100
AcDbEntity
  8
0
100
AcDbLine
 62
7
  6
CONTINUOUS
 10
185.0554900151
 20
169.1481237223
 11
185.0554900151
 21
169.7821344045
  0
LINE
  5
364
100
AcDbEntity
  8
0
100
AcDbLine
 62
7
  6
CONTINUOUS
 10
185.8554900151
 20
-20.2375169238
 11
185.8554900151
 21
-18.4320665836
  0
LINE
  5
365
100
AcDbEntity
  8
0
100
AcDbLine
 62
7
  6
CONTINUOUS
 10
185.8554900151
 20
167.7624830762
 11
185.8554900151
 21
169.5679334164
  0
LINE
  5
366
100
AcDbEntity
  8
0
100
AcDbLine
 62
250
  6
CONTINUOUS
 10
185.9685334934
 20
169.6715246374
 11
185.9685334934
 21
167.7574626391
  0
LINE
  5
367
100
AcDbEntity
  8
0
100
AcDbLine
 62
250
  6
CONTINUOUS
 10
185.9685334934
 20
-18.3284753626
 11
185.9685334934
 21
-20.2425373609
  0
LINE
  5
368
100
AcDbEntity
  8
RACCORDO
100
AcDbLine
 62
250
  6
CONTINUOUS
 10
182.7829467797
 20
35.1578282959
 11
182.724711152
 21
34.159677994
  0
LINE
  5
369
100
AcDbEntity
  8
RACCORDO
100
AcDbLine
 62
250
  6
CONTINUOUS
 10
187.3280332505
 20
113.0599581797
 11
187.3862688783
 21
114.0581084815
  0
LINE
  5
36A
100
AcDbEntity
  8
RACCORDO
100
AcDbLine
 62
250
  6
CONTINUOUS
 10
187.671837061
 20
116.3861471771
 11
187.5483212992
 21
114.3902700489
  0
LINE
  5
36B
100
AcDbEntity
  8
RACCORDO
100
AcDbLine
 62
250
  6
CONTINUOUS
 10
182.4391429693
 20
31.8316392984
 11
182.5626587311
 21
33.8275164266
  0
LINE
  5
36C
100
AcDbEntity
  8
RACCORDO
100
AcDbLine
 62
250
  6
CONTINUOUS
 10
208.1295889683
 20
104.5205369083
 11
209.0867192295
 21
104.8096684987
  0
LINE
  5
36D
100
AcDbEntity
  8
RACCORDO
100
AcDbLine
 62
250
  6
CONTINUOUS
 10
211.3094142889
 20
105.5480395793
 11
209.3903724238
 21
104.9858474642
  0
LINE
  5
36E
100
AcDbEntity
  8
ASSI
100
AcDbLine
 62
7
  6
CONTINUOUS
 10
113.142989586
 20
187.6195315195
 11
113.311739586
 21
187.3642123786
  0
LINE
  5
36F
100
AcDbEntity
  8
ASSI
100
AcDbLine
 62
7
  6
CONTINUOUS
 10
114.9429904443
 20
188.5131485683
 11
114.7742404443
 21
188.7684676868
  0
LINE
  5
370
100
AcDbEntity
  8
ASSI
100
AcDbLine
 62
7
  6
CONTINUOUS
 10
116.9679904443
 20
189.5982550008
 11
117.192989586
 21
189.2152761442
  0
LINE
  5
371
100
AcDbEntity
  8
RACCORDO
100
AcDbLine
 62
250
  6
CONTINUOUS
 10
202.562942313
 20
39.2400098759
 11
203.011583931
 21
38.3464685439
  0
LINE
  5
372
100
AcDbEntity
  8
RACCORDO
100
AcDbLine
 62
250
  6
CONTINUOUS
 10
167.5480377173
 20
108.9777765996
 11
167.0993960993
 21
109.8713179317
  0
LINE
  5
373
100
AcDbEntity
  8
RACCORDO
100
AcDbLine
 62
250
  6
CONTINUOUS
 10
166.1826860523
 20
112.0302426745
 11
167.0736568289
 21
110.2400044976
  0
LINE
  5
374
100
AcDbEntity
  8
RACCORDO
100
AcDbLine
 62
250
  6
CONTINUOUS
 10
203.928293978
 20
36.1875438011
 11
203.0373232014
 21
37.9777819779
  0
LINE
  5
375
100
AcDbEntity
  8
RACCORDO
100
AcDbLine
 62
250
  6
CONTINUOUS
 10
164.3631823228
 20
207.0076456863
 11
164.2862592459
 21
207.5016930931
  0
LINE
  5
376
100
AcDbEntity
  8
RACCORDO
100
AcDbLine
 62
250
  6
CONTINUOUS
 10
170.20402558
 20
187.6416374314
 11
170.1391720236
 21
188.1374136069
  0
LINE
  5
377
100
AcDbEntity
  8
RACCORDO
100
AcDbLine
 62
250
  6
CONTINUOUS
 10
168.9228369539
 20
200.5841378717
 11
168.98610226
 21
200.0881565202
  0
LINE
  5
378
100
AcDbEntity
  8
0
100
AcDbLine
 62
7
  6
CONTINUOUS
 10
187.5554900151
 20
184.0804804774
 11
187.5554900151
 21
179.0616670984
  0
LINE
  5
379
100
AcDbEntity
  8
RACCORDO
100
AcDbLine
 62
250
  6
CONTINUOUS
 10
195.9482633405
 20
201.1427371113
 11
195.9055465824
 21
200.6445651745
  0
LINE
  5
37A
100
AcDbEntity
  8
RACCORDO
100
AcDbLine
 62
250
  6
CONTINUOUS
 10
201.1881430764
 20
200.5841378717
 11
201.1248777702
 21
200.0881565202
  0
LINE
  5
37B
100
AcDbEntity
  8
RACCORDO
100
AcDbLine
 62
250
  6
CONTINUOUS
 10
199.9069544503
 20
187.6416374314
 11
199.9718080068
 21
188.1374136069
  0
LINE
  5
37C
100
AcDbEntity
  8
RACCORDO
100
AcDbLine
 62
250
  6
CONTINUOUS
 10
205.7477977074
 20
207.0076456863
 11
205.8247207844
 21
207.5016930931
  0
LINE
  5
37D
100
AcDbEntity
  8
RACCORDO
100
AcDbLine
 62
250
  6
CONTINUOUS
 10
203.9282939781
 20
112.0302426745
 11
203.0373232015
 21
110.2400044976
  0
LINE
  5
37E
100
AcDbEntity
  8
RACCORDO
100
AcDbLine
 62
250
  6
CONTINUOUS
 10
166.1826860522
 20
36.1875438011
 11
167.0736568288
 21
37.9777819779
  0
LINE
  5
37F
100
AcDbEntity
  8
RACCORDO
100
AcDbLine
 62
250
  6
CONTINUOUS
 10
167.5480377172
 20
39.2400098759
 11
167.0993960993
 21
38.3464685439
  0
LINE
  5
380
100
AcDbEntity
  8
RACCORDO
100
AcDbLine
 62
250
  6
CONTINUOUS
 10
202.5629423131
 20
108.9777765996
 11
203.011583931
 21
109.8713179316
  0
LINE
  5
381
100
AcDbEntity
  8
RACCORDO
100
AcDbLine
 62
250
  6
CONTINUOUS
 10
163.6118773711
 20
41.5125531113
 11
163.0623686872
 21
40.677247407
  0
LINE
  5
382
100
AcDbEntity
  8
RACCORDO
100
AcDbLine
 62
250
  6
CONTINUOUS
 10
206.4991026592
 20
106.7052333642
 11
207.0486113431
 21
107.5405390685
  0
LINE
  5
383
100
AcDbEntity
  8
RACCORDO
100
AcDbLine
 62
250
  6
CONTINUOUS
 10
208.4599399917
 20
109.4138956286
 11
207.35503364
 21
107.7471732136
  0
LINE
  5
384
100
AcDbEntity
  8
RACCORDO
100
AcDbLine
 62
250
  6
CONTINUOUS
 10
161.6510400386
 20
38.8038908469
 11
162.7559463902
 21
40.4706132619
  0
LINE
  5
385
100
AcDbEntity
  8
RACCORDO
100
AcDbLine
 62
250
  6
CONTINUOUS
 10
146.5993514743
 20
88.209030506
 11
148.5423865379
 21
88.6816787851
  0
LINE
  5
386
100
AcDbEntity
  8
RACCORDO
100
AcDbLine
 62
250
  6
CONTINUOUS
 10
149.866912317
 20
88.9090997507
 11
148.8934474009
 21
88.6809299224
  0
LINE
  5
387
100
AcDbEntity
  8
RACCORDO
100
AcDbLine
 62
250
  6
CONTINUOUS
 10
220.2440677133
 20
88.9090997507
 11
221.2175326294
 21
88.6809299224
  0
LINE
  5
388
100
AcDbEntity
  8
RACCORDO
100
AcDbLine
 62
250
  6
CONTINUOUS
 10
223.511628556
 20
88.209030506
 11
221.5685934924
 21
88.6816787851
  0
LINE
  5
389
100
AcDbEntity
  8
RACCORDO
100
AcDbLine
 62
250
  6
CONTINUOUS
 10
158.8015657414
 20
105.5480395794
 11
160.7206076065
 21
104.9858474643
  0
LINE
  5
38A
100
AcDbEntity
  8
RACCORDO
100
AcDbLine
 62
250
  6
CONTINUOUS
 10
161.981391062
 20
104.5205369083
 11
161.0242608008
 21
104.8096684987
  0
LINE
  5
38B
100
AcDbEntity
  8
RACCORDO
100
AcDbLine
 62
250
  6
CONTINUOUS
 10
222.9297954812
 20
69.3319592101
 11
223.6587559141
 21
68.6476258844
  0
LINE
  5
38C
100
AcDbEntity
  8
RACCORDO
100
AcDbLine
 62
250
  6
CONTINUOUS
 10
225.4095515571
 20
67.0919010385
 11
223.9631579711
 21
68.472743987
  0
LINE
  5
38D
100
AcDbEntity
  8
RACCORDO
100
AcDbLine
 62
250
  6
CONTINUOUS
 10
178.0384978159
 20
114.4629547798
 11
179.4193407644
 21
113.0165611937
  0
LINE
  5
38E
100
AcDbEntity
  8
RACCORDO
100
AcDbLine
 62
250
  6
CONTINUOUS
 10
180.2785559875
 20
111.9831987038
 11
179.5942226618
 21
112.7121591368
  0
LINE
  5
38F
100
AcDbEntity
  8
ASSI
100
AcDbLine
 62
7
  6
CONTINUOUS
 10
104.2554900151
 20
188.5131485683
 11
104.3679899079
 21
188.3854890091
  0
LINE
  5
390
100
AcDbEntity
  8
ASSI
100
AcDbLine
 62
7
  6
CONTINUOUS
 10
104.5929900151
 20
188.5769783479
 11
104.4242400151
 21
188.7684676868
  0
LINE
  5
391
100
AcDbEntity
  8
ASSI
100
AcDbLine
 62
7
  6
CONTINUOUS
 10
112.5242400151
 20
189.6620847804
 11
112.2992402297
 21
189.9174038989
  0
LINE
  5
392
100
AcDbEntity
  8
ASSI
100
AcDbLine
 62
7
  6
CONTINUOUS
 10
111.4804901224
 20
191.9557017398
 11
111.6492401224
 21
191.7642123786
  0
LINE
  5
393
100
AcDbEntity
  8
ASSI
100
AcDbLine
 62
7
  6
CONTINUOUS
 10
115.7304900151
 20
187.5557017398
 11
115.8992400151
 21
187.3642123786
  0
LINE
  5
394
100
AcDbEntity
  8
0
100
AcDbLine
 62
7
  6
CONTINUOUS
 10
201.0554900151
 20
177.8650243387
 11
201.0554900151
 21
182.9390361211
  0
LINE
  5
395
100
AcDbEntity
  8
RACCORDO
100
AcDbLine
 62
7
  6
CONTINUOUS
 10
205.0554900151
 20
195.6243243566
 11
205.0554900151
 21
192.5993991865
  0
LINE
  5
396
100
AcDbEntity
  8
RACCORDO
100
AcDbLine
 62
250
  6
CONTINUOUS
 10
205.5554900151
 20
195.6243243566
 11
205.5554900151
 21
192.5993991865
  0
LINE
  5
397
100
AcDbEntity
  8
RACCORDO
100
AcDbLine
 62
7
  6
CONTINUOUS
 10
206.0554900151
 20
176.9696473719
 11
206.0554900151
 21
182.5972399009
  0
LINE
  5
398
100
AcDbEntity
  8
RACCORDO
100
AcDbLine
 62
250
  6
CONTINUOUS
 10
220.360492406
 20
97.5133432143
 11
218.693769991
 21
96.4084368626
  0
LINE
  5
399
100
AcDbEntity
  8
RACCORDO
100
AcDbLine
 62
250
  6
CONTINUOUS
 10
149.7504876242
 20
50.7044432613
 11
151.4172100392
 21
51.8093496129
  0
LINE
  5
39A
100
AcDbEntity
  8
RACCORDO
100
AcDbLine
 62
250
  6
CONTINUOUS
 10
152.4591498887
 20
52.6652805938
 11
151.6238441843
 21
52.1157719099
  0
LINE
  5
39B
100
AcDbEntity
  8
RACCORDO
100
AcDbLine
 62
250
  6
CONTINUOUS
 10
217.6518301416
 20
95.5525058818
 11
218.4871358459
 21
96.1020145657
  0
LINE
  5
39C
100
AcDbEntity
  8
RACCORDO
100
AcDbLine
 62
250
  6
CONTINUOUS
 10
150.1866066533
 20
56.6014409399
 11
149.2930653212
 21
56.1527993219
  0
LINE
  5
39D
100
AcDbEntity
  8
RACCORDO
100
AcDbLine
 62
250
  6
CONTINUOUS
 10
219.924373377
 20
91.6163455356
 11
220.817914709
 21
92.0649871536
  0
LINE
  5
39E
100
AcDbEntity
  8
RACCORDO
100
AcDbLine
 62
250
  6
CONTINUOUS
 10
222.9768394518
 20
92.9816972006
 11
221.186601275
 21
92.090726424
  0
LINE
  5
39F
100
AcDbEntity
  8
RACCORDO
100
AcDbLine
 62
250
  6
CONTINUOUS
 10
147.1341405784
 20
55.2360892749
 11
148.9243787552
 21
56.1270600515
  0
LINE
  5
3A0
100
AcDbEntity
  8
ASSI
100
AcDbLine
 62
7
  6
CONTINUOUS
 10
110.0373490151
 20
182.0565482378
 11
111.3070920151
 21
180.9865282378
  0
LINE
  5
3A1
100
AcDbEntity
  8
ASSI
100
AcDbLine
 62
7
  6
CONTINUOUS
 10
111.3070920151
 20
181.5717312378
 11
109.9787420151
 21
182.6911402378
  0
LINE
  5
3A2
100
AcDbEntity
  8
ASSI
100
AcDbLine
 62
7
  6
CONTINUOUS
 10
113.0554899079
 20
194.0620847804
 11
112.8867399079
 21
194.2535741193
  0
LINE
  5
3A3
100
AcDbEntity
  8
ASSI
100
AcDbLine
 62
7
  6
CONTINUOUS
 10
117.3054904443
 20
189.6620847804
 11
117.1367404443
 21
189.8535741193
  0
LINE
  5
3A4
100
AcDbEntity
  8
RACCORDO
100
AcDbLine
 62
250
  6
CONTINUOUS
 10
215.4671336856
 20
51.0347942846
 11
215.7562652761
 21
50.0776640234
  0
LINE
  5
3A5
100
AcDbEntity
  8
RACCORDO
100
AcDbLine
 62
250
  6
CONTINUOUS
 10
216.4946363567
 20
47.854968964
 11
215.9324442416
 21
49.7740108291
  0
LINE
  5
3A6
100
AcDbEntity
  8
RACCORDO
100
AcDbLine
 62
250
  6
CONTINUOUS
 10
199.1556272834
 20
112.5650317786
 11
199.6282755625
 21
110.621996715
  0
LINE
  5
3A7
100
AcDbEntity
  8
RACCORDO
100
AcDbLine
 62
250
  6
CONTINUOUS
 10
199.8556965281
 20
109.2974709359
 11
199.6275266998
 21
110.270935852
  0
LINE
  5
3A8
100
AcDbEntity
  8
RACCORDO
100
AcDbLine
 62
250
  6
CONTINUOUS
 10
209.5554900151
 20
186.9847220937
 11
209.5554900151
 21
202.5612190244
  0
LINE
  5
3A9
100
AcDbEntity
  8
RACCORDO
100
AcDbLine
 62
7
  6
CONTINUOUS
 10
210.0554900151
 20
186.9847220937
 11
210.0554900151
 21
202.5612190244
  0
LINE
  5
3AA
100
AcDbEntity
  8
RACCORDO
100
AcDbLine
 62
250
  6
CONTINUOUS
 10
199.855696528
 20
38.9203155396
 11
199.6275266998
 21
37.9468506235
  0
LINE
  5
3AB
100
AcDbEntity
  8
RACCORDO
100
AcDbLine
 62
250
  6
CONTINUOUS
 10
199.1556272834
 20
35.6527546969
 11
199.6282755624
 21
37.5957897605
  0
LINE
  5
3AC
100
AcDbEntity
  8
RACCORDO
100
AcDbLine
 62
250
  6
CONTINUOUS
 10
216.4946363568
 20
100.3628175115
 11
215.9324442417
 21
98.4437756464
  0
LINE
  5
3AD
100
AcDbEntity
  8
RACCORDO
100
AcDbLine
 62
250
  6
CONTINUOUS
 10
215.4671336857
 20
97.1829921909
 11
215.7562652761
 21
98.1401224521
  0
LINE
  5
3AE
100
AcDbEntity
  8
0
100
AcDbLine
 62
250
  6
CONTINUOUS
 10
279.9522467649
 20
72.536858691
 11
278.2946204499
 21
73.4938896901
  0
LINE
  5
3AF
100
AcDbEntity
  8
0
100
AcDbLine
 62
7
  6
CONTINUOUS
 10
279.919055875
 20
72.6865528254
 11
278.3554900151
 21
73.5892779955
  0
LINE
  5
3B0
100
AcDbEntity
  8
0
100
AcDbLine
 62
7
  6
CONTINUOUS
 10
279.9554900151
 20
73.5892779955
 11
280.5045593722
 21
73.2722726544
  0
LINE
  5
3B1
100
AcDbEntity
  8
0
100
AcDbLine
 62
250
  6
CONTINUOUS
 10
280.0192581311
 20
73.6696049895
 11
280.6711044242
 21
73.2932613566
  0
LINE
  5
3B2
100
AcDbEntity
  8
ASSI
100
AcDbLine
 62
7
  6
CONTINUOUS
 10
103.0179900688
 20
187.3642123786
 11
103.2992399615
 21
187.172723023
  0
LINE
  5
3B3
100
AcDbEntity
  8
ASSI
100
AcDbLine
 62
7
  6
CONTINUOUS
 10
103.3554900688
 20
187.4918719602
 11
103.1867400688
 21
187.6195315195
  0
LINE
  5
3B4
100
AcDbEntity
  8
ASSI
100
AcDbLine
 62
7
  6
CONTINUOUS
 10
104.0867400151
 20
188.6408081276
 11
104.2554900151
 21
188.5131485683
  0
LINE
  5
3B5
100
AcDbEntity
  8
ASSI
100
AcDbLine
 62
7
  6
CONTINUOUS
 10
104.0304900688
 20
189.72591456
 11
104.1992400688
 21
189.5982550008
  0
LINE
  5
3B6
100
AcDbEntity
  8
ASSI
100
AcDbLine
 62
7
  6
CONTINUOUS
 10
113.649239586
 20
187.4918719602
 11
113.480489586
 21
187.6195315195
  0
LINE
  5
3B7
100
AcDbEntity
  8
RACCORDO
100
AcDbLine
 62
250
  6
CONTINUOUS
 10
180.2785559875
 20
36.2345877717
 11
179.5942226618
 21
35.5056273388
  0
LINE
  5
3B8
100
AcDbEntity
  8
RACCORDO
100
AcDbLine
 62
250
  6
CONTINUOUS
 10
178.0384978159
 20
33.7548316958
 11
179.4193407644
 21
35.2012252818
  0
LINE
  5
3B9
100
AcDbEntity
  8
RACCORDO
100
AcDbLine
 62
250
  6
CONTINUOUS
 10
225.4095515571
 20
81.125885437
 11
223.9631579711
 21
79.7450424885
  0
LINE
  5
3BA
100
AcDbEntity
  8
RACCORDO
100
AcDbLine
 62
250
  6
CONTINUOUS
 10
222.9297954812
 20
78.8858272654
 11
223.6587559142
 21
79.5701605911
  0
LINE
  5
3BB
100
AcDbEntity
  8
RACCORDO
100
AcDbLine
 62
250
  6
CONTINUOUS
 10
161.981391062
 20
43.6972495673
 11
161.0242608008
 21
43.4081179768
  0
LINE
  5
3BC
100
AcDbEntity
  8
RACCORDO
100
AcDbLine
 62
250
  6
CONTINUOUS
 10
158.8015657414
 20
42.6697468962
 11
160.7206076065
 21
43.2319390113
  0
LINE
  5
3BD
100
AcDbEntity
  8
ASSI
100
AcDbLine
 62
7
  6
CONTINUOUS
 10
104.4242400151
 20
188.7684676868
 11
104.1429899615
 21
188.9599570257
  0
LINE
  5
3BE
100
AcDbEntity
  8
ASSI
100
AcDbLine
 62
7
  6
CONTINUOUS
 10
104.3679899079
 20
189.8535741193
 11
104.0867400151
 21
190.0450634581
  0
LINE
  5
3BF
100
AcDbEntity
  8
ASSI
100
AcDbLine
 62
7
  6
CONTINUOUS
 10
113.311739586
 20
187.3642123786
 11
113.5929904443
 21
187.172723023
  0
LINE
  5
3C0
100
AcDbEntity
  8
ASSI
100
AcDbLine
 62
7
  6
CONTINUOUS
 10
115.8992400151
 20
187.3642123786
 11
116.180489586
 21
187.172723023
  0
LINE
  5
3C1
100
AcDbEntity
  8
ASSI
100
AcDbLine
 62
7
  6
CONTINUOUS
 10
114.7742404443
 20
188.7684676868
 11
114.492989586
 21
188.9599570257
  0
LINE
  5
3C2
100
AcDbEntity
  8
ASSI
100
AcDbLine
 62
7
  6
CONTINUOUS
 10
111.6492401224
 20
191.7642123786
 11
111.9304900151
 21
191.572723023
  0
LINE
  5
3C3
100
AcDbEntity
  8
ASSI
100
AcDbLine
 62
7
  6
CONTINUOUS
 10
117.1367404443
 20
189.8535741193
 11
116.855489586
 21
190.0450634581
  0
LINE
  5
3C4
100
AcDbEntity
  8
ASSI
100
AcDbLine
 62
7
  6
CONTINUOUS
 10
112.8867399079
 20
194.2535741193
 11
112.6054900151
 21
194.4450634581
  0
LINE
  5
3C5
100
AcDbEntity
  8
ASSI
100
AcDbLine
 62
7
  6
CONTINUOUS
 10
111.9617402297
 20
189.72591456
 11
112.1304902297
 21
189.5982550008
  0
LINE
  5
3C6
100
AcDbEntity
  8
ASSI
100
AcDbLine
 62
7
  6
CONTINUOUS
 10
114.4367404443
 20
188.6408081276
 11
114.6054904443
 21
188.5131485683
  0
LINE
  5
3C7
100
AcDbEntity
  8
ASSI
100
AcDbLine
 62
7
  6
CONTINUOUS
 10
116.2367400151
 20
187.4918719602
 11
116.0679900151
 21
187.6195315195
  0
LINE
  5
3C8
100
AcDbEntity
  8
ASSI
100
AcDbLine
 62
7
  6
CONTINUOUS
 10
111.9867401224
 20
191.8918719602
 11
111.8179901224
 21
192.0195315195
  0
LINE
  5
3C9
100
AcDbEntity
  8
ASSI
100
AcDbLine
 62
7
  6
CONTINUOUS
 10
116.7992404443
 20
189.72591456
 11
116.9679904443
 21
189.5982550008
  0
LINE
  5
3CA
100
AcDbEntity
  8
ASSI
100
AcDbLine
 62
7
  6
CONTINUOUS
 10
112.5492399079
 20
194.12591456
 11
112.7179899079
 21
193.9982550008
  0
LINE
  5
3CB
100
AcDbEntity
  8
ASSI
100
AcDbLine
 62
7
  6
CONTINUOUS
 10
105.8780534555
 20
142.4088932378
 11
105.0554900151
 21
142.4088932378
  0
LINE
  5
3CC
100
AcDbEntity
  8
ASSI
100
AcDbLine
 62
7
  6
CONTINUOUS
 10
105.0554900151
 20
144.9088932378
 11
108.1059260803
 21
144.9088932378
  0
LINE
  5
3CD
100
AcDbEntity
  8
ASSI
100
AcDbLine
 62
7
  6
CONTINUOUS
 10
112.2992402297
 20
189.9174038989
 11
112.0742398006
 21
190.0450634581
  0
LINE
  5
3CE
100
AcDbEntity
  8
ASSI
100
AcDbLine
 62
7
  6
CONTINUOUS
 10
120.905489586
 20
188.6408081276
 11
121.3554904443
 21
188.3854890091
  0
LINE
  5
3CF
100
AcDbEntity
  8
ASSI
100
AcDbLine
 62
7
  6
CONTINUOUS
 10
121.3554904443
 20
188.5131485683
 11
120.905489586
 21
188.7684676868
  0
LINE
  5
3D0
100
AcDbEntity
  8
RACCORDO
100
AcDbLine
 62
250
  6
CONTINUOUS
 10
176.3156412999
 20
201.9098714986
 11
176.5975719036
 21
201.496936716
  0
LINE
  5
3D1
100
AcDbEntity
  8
0
100
AcDbLine
 62
250
  6
CONTINUOUS
 10
277.3170898675
 20
74.1595192405
 11
278.9033161021
 21
75.075327384
  0
LINE
  5
3D2
100
AcDbEntity
  8
0
100
AcDbLine
 62
7
  6
CONTINUOUS
 10
277.365610751
 20
74.0570014204
 11
278.9554900151
 21
74.9749186415
  0
LINE
  5
3D3
100
AcDbEntity
  8
0
100
AcDbLine
 62
7
  6
CONTINUOUS
 10
278.1554900151
 20
73.5892779955
 11
277.6064206581
 21
73.2722726544
  0
LINE
  5
3D4
100
AcDbEntity
  8
0
100
AcDbLine
 62
250
  6
CONTINUOUS
 10
278.1931711746
 20
73.4938896901
 11
277.5413248814
 21
73.1175460573
  0
LINE
  5
3D5
100
AcDbEntity
  8
ASSI
100
AcDbLine
 62
7
  6
CONTINUOUS
 10
105.0554900151
 20
147.4088932378
 11
110.4840415623
 21
147.4088932378
  0
LINE
  5
3D6
100
AcDbEntity
  8
ASSI
100
AcDbLine
 62
7
  6
CONTINUOUS
 10
105.0554900151
 20
149.9088932378
 11
113.0263281794
 21
149.9088932378
  0
LINE
  5
3D7
100
AcDbEntity
  8
ASSI
100
AcDbLine
 62
7
  6
CONTINUOUS
 10
105.0554900151
 20
152.1088932378
 11
104.9892467449
 21
152.1088932378
  0
LINE
  5
3D8
100
AcDbEntity
  8
ASSI
100
AcDbLine
 62
7
  6
CONTINUOUS
 10
105.0554900151
 20
152.4088932378
 11
115.7490520844
 21
152.4088932378
  0
LINE
  5
3D9
100
AcDbEntity
  8
ASSI
100
AcDbLine
 62
7
  6
CONTINUOUS
 10
103.5242400688
 20
187.4280421806
 11
103.3554900688
 21
187.4918719602
  0
LINE
  5
3DA
100
AcDbEntity
  8
ASSI
100
AcDbLine
 62
7
  6
CONTINUOUS
 10
103.9179900151
 20
188.7046379072
 11
104.0867400151
 21
188.6408081276
  0
LINE
  5
3DB
100
AcDbEntity
  8
ASSI
100
AcDbLine
 62
7
  6
CONTINUOUS
 10
103.8617400688
 20
189.7897443396
 11
104.0304900688
 21
189.72591456
  0
LINE
  5
3DC
100
AcDbEntity
  8
0
100
AcDbLine
 62
250
  6
CONTINUOUS
 10
185.9522467649
 20
166.536858691
 11
184.2946204499
 21
167.4938896901
  0
LINE
  5
3DD
100
AcDbEntity
  8
0
100
AcDbLine
 62
7
  6
CONTINUOUS
 10
185.919055875
 20
166.6865528254
 11
184.3554900151
 21
167.5892779955
  0
LINE
  5
3DE
100
AcDbEntity
  8
0
100
AcDbLine
 62
7
  6
CONTINUOUS
 10
185.9554900151
 20
167.5892779955
 11
186.5045593722
 21
167.2722726544
  0
LINE
  5
3DF
100
AcDbEntity
  8
0
100
AcDbLine
 62
250
  6
CONTINUOUS
 10
183.2468893403
 20
168.0423433811
 11
183.3465755965
 21
168.0460114692
  0
LINE
  5
3E0
100
AcDbEntity
  8
ASSI
100
AcDbLine
 62
7
  6
CONTINUOUS
 10
103.2992399615
 20
187.172723023
 11
103.5804900151
 21
187.1088932378
  0
LINE
  5
3E1
100
AcDbEntity
  8
ASSI
100
AcDbLine
 62
7
  6
CONTINUOUS
 10
104.1429899615
 20
188.9599570257
 11
103.8617400688
 21
189.0237868053
  0
LINE
  5
3E2
100
AcDbEntity
  8
ASSI
100
AcDbLine
 62
7
  6
CONTINUOUS
 10
113.8742400151
 20
187.4280421806
 11
113.649239586
 21
187.4918719602
  0
LINE
  5
3E3
100
AcDbEntity
  8
ASSI
100
AcDbLine
 62
7
  6
CONTINUOUS
 10
114.2117400151
 20
188.7046379072
 11
114.4367404443
 21
188.6408081276
  0
LINE
  5
3E4
100
AcDbEntity
  8
0
100
AcDbLine
 62
250
  6
CONTINUOUS
 10
186.0192581311
 20
167.6696049895
 11
186.6711044242
 21
167.2932613566
  0
LINE
  5
3E5
100
AcDbEntity
  8
ASSI
100
AcDbLine
 62
7
  6
CONTINUOUS
 10
105.2554900151
 20
171.7517503806
 11
105.0554900151
 21
171.7517503806
  0
LINE
  5
3E6
100
AcDbEntity
  8
ASSI
100
AcDbLine
 62
250
  6
CONTINUOUS
 10
118.0554900151
 20
176.7120791633
 11
124.9454335248
 21
176.7120791633
  0
LINE
  5
3E7
100
AcDbEntity
  8
ASSI
100
AcDbLine
 62
7
  6
CONTINUOUS
 10
90.6651908831
 20
177.1088932378
 11
118.0554900151
 21
177.1088932378
  0
LINE
  5
3E8
100
AcDbEntity
  8
ASSI
100
AcDbLine
 62
7
  6
CONTINUOUS
 10
125.085956976
 20
177.1088932378
 11
132.4457891471
 21
177.1088932378
  0
LINE
  5
3E9
100
AcDbEntity
  8
ASSI
100
AcDbLine
 62
250
  6
CONTINUOUS
 10
118.0554900151
 20
177.5209689398
 11
125.0554900151
 21
177.5209689398
  0
LINE
  5
3EA
100
AcDbEntity
  8
ASSI
100
AcDbLine
 62
7
  6
CONTINUOUS
 10
110.8886030151
 20
178.9486272378
 11
112.2284810151
 21
178.9486272378
  0
LINE
  5
3EB
100
AcDbEntity
  8
ASSI
100
AcDbLine
 62
7
  6
CONTINUOUS
 10
112.2284810151
 20
179.4208482378
 11
111.8101550151
 21
179.4208482378
  0
LINE
  5
3EC
100
AcDbEntity
  8
ASSI
100
AcDbLine
 62
7
  6
CONTINUOUS
 10
111.3070920151
 20
179.4208482378
 11
110.8886030151
 21
179.4208482378
  0
LINE
  5
3ED
100
AcDbEntity
  8
ASSI
100
AcDbLine
 62
7
  6
CONTINUOUS
 10
116.180489586
 20
187.172723023
 11
116.517989586
 21
187.1088932378
  0
LINE
  5
3EE
100
AcDbEntity
  8
ASSI
100
AcDbLine
 62
7
  6
CONTINUOUS
 10
112.0742398006
 20
190.0450634581
 11
111.7367398006
 21
190.1088932378
  0
LINE
  5
3EF
100
AcDbEntity
  8
ASSI
100
AcDbLine
 62
7
  6
CONTINUOUS
 10
116.855489586
 20
190.0450634581
 11
116.517989586
 21
190.1088932378
  0
LINE
  5
3F0
100
AcDbEntity
  8
ASSI
100
AcDbLine
 62
7
  6
CONTINUOUS
 10
111.9304900151
 20
191.572723023
 11
112.2679900151
 21
191.5088932378
  0
LINE
  5
3F1
100
AcDbEntity
  8
ASSI
100
AcDbLine
 62
7
  6
CONTINUOUS
 10
112.6054900151
 20
194.4450634581
 11
112.2679900151
 21
194.5088932378
  0
LINE
  5
3F2
100
AcDbEntity
  8
ASSI
100
AcDbLine
 62
7
  6
CONTINUOUS
 10
113.5929904443
 20
187.172723023
 11
113.8742400151
 21
187.1088932378
  0
LINE
  5
3F3
100
AcDbEntity
  8
ASSI
100
AcDbLine
 62
7
  6
CONTINUOUS
 10
104.0867400151
 20
190.0450634581
 11
103.8054899615
 21
190.1088932378
  0
LINE
  5
3F4
100
AcDbEntity
  8
ASSI
100
AcDbLine
 62
7
  6
CONTINUOUS
 10
116.517989586
 20
187.4280421806
 11
116.2367400151
 21
187.4918719602
  0
LINE
  5
3F5
100
AcDbEntity
  8
ASSI
100
AcDbLine
 62
7
  6
CONTINUOUS
 10
114.492989586
 20
188.9599570257
 11
114.2117400151
 21
189.0237868053
  0
LINE
  5
3F6
100
AcDbEntity
  8
ASSI
100
AcDbLine
 62
7
  6
CONTINUOUS
 10
111.6804900151
 20
189.7897443396
 11
111.9617402297
 21
189.72591456
  0
LINE
  5
3F7
100
AcDbEntity
  8
ASSI
100
AcDbLine
 62
7
  6
CONTINUOUS
 10
116.517989586
 20
189.7897443396
 11
116.7992404443
 21
189.72591456
  0
LINE
  5
3F8
100
AcDbEntity
  8
ASSI
100
AcDbLine
 62
7
  6
CONTINUOUS
 10
112.2679900151
 20
191.8280421806
 11
111.9867401224
 21
191.8918719602
  0
LINE
  5
3F9
100
AcDbEntity
  8
ASSI
100
AcDbLine
 62
7
  6
CONTINUOUS
 10
112.2679900151
 20
194.1897443396
 11
112.5492399079
 21
194.12591456
  0
LINE
  5
3FA
100
AcDbEntity
  8
0
100
AcDbLine
 62
250
  6
CONTINUOUS
 10
278.9540407398
 20
75.1631850337
 11
278.9540407398
 21
75.9158722993
  0
LINE
  5
3FB
100
AcDbEntity
  8
0
100
AcDbLine
 62
7
  6
CONTINUOUS
 10
279.0554900151
 20
75.1481237223
 11
279.0554900151
 21
75.7821344045
  0
LINE
  5
3FC
100
AcDbEntity
  8
0
100
AcDbLine
 62
7
  6
CONTINUOUS
 10
279.8554900151
 20
73.7624830762
 11
279.8554900151
 21
75.5679334164
  0
LINE
  5
3FD
100
AcDbEntity
  8
0
100
AcDbLine
 62
250
  6
CONTINUOUS
 10
279.9685334934
 20
75.6715246374
 11
279.9685334934
 21
73.7574626391
  0
LINE
  5
3FE
100
AcDbEntity
  8
0
100
AcDbLine
 62
250
  6
CONTINUOUS
 10
183.3170898675
 20
-19.8404807595
 11
184.9033161021
 21
-18.924672616
  0
LINE
  5
3FF
100
AcDbEntity
  8
0
100
AcDbLine
 62
7
  6
CONTINUOUS
 10
183.365610751
 20
-19.9429985796
 11
184.9554900151
 21
-19.0250813585
  0
LINE
  5
400
100
AcDbEntity
  8
0
100
AcDbLine
 62
7
  6
CONTINUOUS
 10
184.1554900151
 20
-20.4107220045
 11
183.6064206581
 21
-20.7277273456
  0
LINE
  5
401
100
AcDbEntity
  8
0
100
AcDbLine
 62
250
  6
CONTINUOUS
 10
184.1931711746
 20
-20.5061103099
 11
183.5413248814
 21
-20.8824539427
  0
LINE
  5
402
100
AcDbEntity
  8
ASSI
100
AcDbLine
 62
7
  6
CONTINUOUS
 10
110.9040240151
 20
182.7757392378
 11
111.3070920151
 21
182.7757392378
  0
LINE
  5
403
100
AcDbEntity
  8
ASSI
100
AcDbLine
 62
7
  6
CONTINUOUS
 10
111.8101550151
 20
182.7757392378
 11
112.2130600151
 21
182.7757392378
  0
LINE
  5
404
100
AcDbEntity
  8
ASSI
100
AcDbLine
 62
7
  6
CONTINUOUS
 10
112.2130600151
 20
183.2505562378
 11
110.9040240151
 21
183.2505562378
  0
LINE
  5
405
100
AcDbEntity
  8
RACCORDO
100
AcDbLine
 62
250
  6
CONTINUOUS
 10
160.5554900151
 20
186.9847220943
 11
160.0554900151
 21
186.9847220943
  0
LINE
  5
406
100
AcDbEntity
  8
RACCORDO
100
AcDbLine
 62
250
  6
CONTINUOUS
 10
209.5554900151
 20
186.9847220937
 11
210.0554900151
 21
186.9847220937
  0
LINE
  5
407
100
AcDbEntity
  8
ASSI
100
AcDbLine
 62
7
  6
CONTINUOUS
 10
101.8929900151
 20
187.1088932378
 11
102.2304900151
 21
187.1088932378
  0
LINE
  5
408
100
AcDbEntity
  8
ASSI
100
AcDbLine
 62
7
  6
CONTINUOUS
 10
103.5804900151
 20
187.1088932378
 11
103.8617400688
 21
187.1088932378
  0
LINE
  5
409
100
AcDbEntity
  8
ASSI
100
AcDbLine
 62
7
  6
CONTINUOUS
 10
105.1554901224
 20
187.1088932378
 11
105.4929901224
 21
187.1088932378
  0
LINE
  5
40A
100
AcDbEntity
  8
ASSI
100
AcDbLine
 62
7
  6
CONTINUOUS
 10
107.0679902297
 20
187.1088932378
 11
107.4054902297
 21
187.1088932378
  0
LINE
  5
40B
100
AcDbEntity
  8
ASSI
100
AcDbLine
 62
7
  6
CONTINUOUS
 10
110.5554898006
 20
187.1088932378
 11
112.5804904443
 21
187.1088932378
  0
LINE
  5
40C
100
AcDbEntity
  8
ASSI
100
AcDbLine
 62
7
  6
CONTINUOUS
 10
113.8742400151
 20
187.1088932378
 11
114.2117400151
 21
187.1088932378
  0
LINE
  5
40D
100
AcDbEntity
  8
ASSI
100
AcDbLine
 62
7
  6
CONTINUOUS
 10
118.880489586
 20
187.1088932378
 11
119.3304904443
 21
187.1088932378
  0
LINE
  5
40E
100
AcDbEntity
  8
ASSI
100
AcDbLine
 62
7
  6
CONTINUOUS
 10
114.2117400151
 20
187.4280421806
 11
113.8742400151
 21
187.4280421806
  0
LINE
  5
40F
100
AcDbEntity
  8
ASSI
100
AcDbLine
 62
7
  6
CONTINUOUS
 10
112.5804904443
 20
187.4280421806
 11
111.0054900151
 21
187.4280421806
  0
LINE
  5
410
100
AcDbEntity
  8
ASSI
100
AcDbLine
 62
7
  6
CONTINUOUS
 10
103.9179900151
 20
187.4280421806
 11
103.5242400688
 21
187.4280421806
  0
LINE
  5
411
100
AcDbEntity
  8
ASSI
100
AcDbLine
 62
7
  6
CONTINUOUS
 10
113.3679900151
 20
187.8748506827
 11
113.0304900151
 21
187.8748506827
  0
LINE
  5
412
100
AcDbEntity
  8
ASSI
100
AcDbLine
 62
7
  6
CONTINUOUS
 10
105.7179899079
 20
187.8748506827
 11
106.8429901224
 21
187.8748506827
  0
LINE
  5
413
100
AcDbEntity
  8
ASSI
100
AcDbLine
 62
7
  6
CONTINUOUS
 10
106.7867400151
 20
188.1301698012
 11
105.7742400151
 21
188.1301698012
  0
LINE
  5
414
100
AcDbEntity
  8
ASSI
100
AcDbLine
 62
7
  6
CONTINUOUS
 10
113.0304900151
 20
188.4493187887
 11
113.4242404443
 21
188.4493187887
  0
LINE
  5
415
100
AcDbEntity
  8
ASSI
100
AcDbLine
 62
7
  6
CONTINUOUS
 10
103.5242400688
 20
188.7046379072
 11
103.9179900151
 21
188.7046379072
  0
LINE
  5
416
100
AcDbEntity
  8
ASSI
100
AcDbLine
 62
7
  6
CONTINUOUS
 10
113.8742400151
 20
188.7046379072
 11
114.2117400151
 21
188.7046379072
  0
LINE
  5
417
100
AcDbEntity
  8
ASSI
100
AcDbLine
 62
7
  6
CONTINUOUS
 10
114.2117400151
 20
189.0237868053
 11
113.8742400151
 21
189.0237868053
  0
LINE
  5
418
100
AcDbEntity
  8
ASSI
100
AcDbLine
 62
7
  6
CONTINUOUS
 10
103.8617400688
 20
189.0237868053
 11
103.5804900151
 21
189.0237868053
  0
LINE
  5
419
100
AcDbEntity
  8
ASSI
100
AcDbLine
 62
7
  6
CONTINUOUS
 10
104.3117401224
 20
189.4067656619
 11
104.5929900151
 21
189.4067656619
  0
LINE
  5
41A
100
AcDbEntity
  8
ASSI
100
AcDbLine
 62
7
  6
CONTINUOUS
 10
110.6117402297
 20
189.4067656619
 11
110.8929898006
 21
189.4067656619
  0
LINE
  5
41B
100
AcDbEntity
  8
ASSI
100
AcDbLine
 62
7
  6
CONTINUOUS
 10
103.5242400688
 20
189.7897443396
 11
103.8617400688
 21
189.7897443396
  0
LINE
  5
41C
100
AcDbEntity
  8
ASSI
100
AcDbLine
 62
7
  6
CONTINUOUS
 10
111.4554902297
 20
189.7897443396
 11
111.6804900151
 21
189.7897443396
  0
LINE
  5
41D
100
AcDbEntity
  8
ASSI
100
AcDbLine
 62
7
  6
CONTINUOUS
 10
113.311739586
 20
189.7897443396
 11
114.9429904443
 21
189.7897443396
  0
LINE
  5
41E
100
AcDbEntity
  8
ASSI
100
AcDbLine
 62
7
  6
CONTINUOUS
 10
120.230489586
 20
190.1088932378
 11
119.892989586
 21
190.1088932378
  0
LINE
  5
41F
100
AcDbEntity
  8
ASSI
100
AcDbLine
 62
7
  6
CONTINUOUS
 10
118.3179904443
 20
190.1088932378
 11
117.9804904443
 21
190.1088932378
  0
LINE
  5
420
100
AcDbEntity
  8
ASSI
100
AcDbLine
 62
7
  6
CONTINUOUS
 10
114.9429904443
 20
190.1088932378
 11
113.0304900151
 21
190.1088932378
  0
LINE
  5
421
100
AcDbEntity
  8
ASSI
100
AcDbLine
 62
7
  6
CONTINUOUS
 10
111.7367398006
 20
190.1088932378
 11
111.5117400151
 21
190.1088932378
  0
LINE
  5
422
100
AcDbEntity
  8
ASSI
100
AcDbLine
 62
7
  6
CONTINUOUS
 10
106.5054901224
 20
190.1088932378
 11
106.0554899079
 21
190.1088932378
  0
LINE
  5
423
100
AcDbEntity
  8
ASSI
100
AcDbLine
 62
7
  6
CONTINUOUS
 10
103.8054899615
 20
190.1088932378
 11
103.5804900151
 21
190.1088932378
  0
LINE
  5
424
100
AcDbEntity
  8
ASSI
100
AcDbLine
 62
7
  6
CONTINUOUS
 10
102.2304900151
 20
190.1088932378
 11
101.8929900151
 21
190.1088932378
  0
LINE
  5
425
100
AcDbEntity
  8
ASSI
100
AcDbLine
 62
7
  6
CONTINUOUS
 10
116.7992404443
 20
187.4918719602
 11
116.517989586
 21
187.4280421806
  0
LINE
  5
426
100
AcDbEntity
  8
ASSI
100
AcDbLine
 62
7
  6
CONTINUOUS
 10
114.2117400151
 20
187.1088932378
 11
114.492989586
 21
187.172723023
  0
LINE
  5
427
100
AcDbEntity
  8
ASSI
100
AcDbLine
 62
7
  6
CONTINUOUS
 10
116.517989586
 20
187.1088932378
 11
116.855489586
 21
187.172723023
  0
LINE
  5
428
100
AcDbEntity
  8
ASSI
100
AcDbLine
 62
7
  6
CONTINUOUS
 10
111.5117400151
 20
190.1088932378
 11
111.1179902297
 21
190.0450634581
  0
LINE
  5
429
100
AcDbEntity
  8
ASSI
100
AcDbLine
 62
7
  6
CONTINUOUS
 10
109.455490042
 20
191.5088932378
 11
109.9054900151
 21
191.5088932378
  0
LINE
  5
42A
100
AcDbEntity
  8
ASSI
100
AcDbLine
 62
7
  6
CONTINUOUS
 10
114.0679902297
 20
191.5088932378
 11
114.4054902297
 21
191.5088932378
  0
LINE
  5
42B
100
AcDbEntity
  8
RACCORDO
100
AcDbLine
 62
250
  6
CONTINUOUS
 10
205.5554900151
 20
192.5993991865
 11
205.0554900151
 21
192.5993991865
  0
LINE
  5
42C
100
AcDbEntity
  8
RACCORDO
100
AcDbLine
 62
250
  6
CONTINUOUS
 10
164.5554900151
 20
192.5993991865
 11
165.0554900151
 21
192.5993991865
  0
LINE
  5
42D
100
AcDbEntity
  8
ASSI
100
AcDbLine
 62
7
  6
CONTINUOUS
 10
114.4054902297
 20
194.5088932378
 11
114.0679902297
 21
194.5088932378
  0
LINE
  5
42E
100
AcDbEntity
  8
ASSI
100
AcDbLine
 62
7
  6
CONTINUOUS
 10
110.8054899615
 20
194.5088932378
 11
110.4679899615
 21
194.5088932378
  0
LINE
  5
42F
100
AcDbEntity
  8
ASSI
100
AcDbLine
 62
7
  6
CONTINUOUS
 10
108.8929900151
 20
194.5088932378
 11
108.5554900151
 21
194.5088932378
  0
LINE
  5
430
100
AcDbEntity
  8
ASSI
100
AcDbLine
 62
7
  6
CONTINUOUS
 10
90.5554900151
 20
195.1088932378
 11
132.5554900151
 21
195.1088932378
  0
LINE
  5
431
100
AcDbEntity
  8
RACCORDO
100
AcDbLine
 62
250
  6
CONTINUOUS
 10
205.5554900151
 20
195.6243243566
 11
205.0554900151
 21
195.6243243566
  0
LINE
  5
432
100
AcDbEntity
  8
RACCORDO
100
AcDbLine
 62
250
  6
CONTINUOUS
 10
164.5554900151
 20
195.6243243566
 11
165.0554900151
 21
195.6243243566
  0
LINE
  5
433
100
AcDbEntity
  8
ASSI
100
AcDbLine
 62
7
  6
CONTINUOUS
 10
114.4367404443
 20
187.4918719602
 11
114.2117400151
 21
187.4280421806
  0
LINE
  5
434
100
AcDbEntity
  8
ASSI
100
AcDbLine
 62
7
  6
CONTINUOUS
 10
113.649239586
 20
188.6408081276
 11
113.8742400151
 21
188.7046379072
  0
LINE
  5
435
100
AcDbEntity
  8
ASSI
100
AcDbLine
 62
7
  6
CONTINUOUS
 10
113.8742400151
 20
189.0237868053
 11
113.5929904443
 21
188.9599570257
  0
LINE
  5
436
100
AcDbEntity
  8
ASSI
100
AcDbLine
 62
7
  6
CONTINUOUS
 10
116.2367400151
 20
189.72591456
 11
116.517989586
 21
189.7897443396
  0
LINE
  5
437
100
AcDbEntity
  8
ASSI
100
AcDbLine
 62
7
  6
CONTINUOUS
 10
103.8617400688
 20
187.1088932378
 11
104.1429899615
 21
187.172723023
  0
LINE
  5
438
100
AcDbEntity
  8
ASSI
100
AcDbLine
 62
7
  6
CONTINUOUS
 10
111.1742400151
 20
189.72591456
 11
111.4554902297
 21
189.7897443396
  0
LINE
  5
439
100
AcDbEntity
  8
ASSI
100
AcDbLine
 62
7
  6
CONTINUOUS
 10
103.5804900151
 20
189.0237868053
 11
103.2992399615
 21
188.9599570257
  0
LINE
  5
43A
100
AcDbEntity
  8
ASSI
100
AcDbLine
 62
7
  6
CONTINUOUS
 10
112.5492399079
 20
191.8918719602
 11
112.2679900151
 21
191.8280421806
  0
LINE
  5
43B
100
AcDbEntity
  8
ASSI
100
AcDbLine
 62
7
  6
CONTINUOUS
 10
103.5804900151
 20
190.1088932378
 11
103.2992399615
 21
190.0450634581
  0
LINE
  5
43C
100
AcDbEntity
  8
ASSI
100
AcDbLine
 62
7
  6
CONTINUOUS
 10
111.9867401224
 20
194.12591456
 11
112.2679900151
 21
194.1897443396
  0
LINE
  5
43D
100
AcDbEntity
  8
ASSI
100
AcDbLine
 62
7
  6
CONTINUOUS
 10
116.517989586
 20
190.1088932378
 11
116.180489586
 21
190.0450634581
  0
LINE
  5
43E
100
AcDbEntity
  8
ASSI
100
AcDbLine
 62
7
  6
CONTINUOUS
 10
112.2679900151
 20
191.5088932378
 11
112.6054900151
 21
191.572723023
  0
LINE
  5
43F
100
AcDbEntity
  8
ASSI
100
AcDbLine
 62
7
  6
CONTINUOUS
 10
112.2679900151
 20
194.5088932378
 11
111.9304900151
 21
194.4450634581
  0
LINE
  5
440
100
AcDbEntity
  8
RACCORDO
100
AcDbLine
 62
250
  6
CONTINUOUS
 10
160.5554900151
 20
202.5612190244
 11
160.0554900151
 21
202.5612190244
  0
LINE
  5
441
100
AcDbEntity
  8
RACCORDO
100
AcDbLine
 62
250
  6
CONTINUOUS
 10
209.5554900151
 20
202.5612190244
 11
210.0554900151
 21
202.5612190244
  0
LINE
  5
442
100
AcDbEntity
  8
ASSI
100
AcDbLine
 62
7
  6
CONTINUOUS
 10
96.0554900151
 20
205.1088932378
 11
101.0554900151
 21
205.1088932378
  0
LINE
  5
443
100
AcDbEntity
  8
ASSI
100
AcDbLine
 62
7
  6
CONTINUOUS
 10
122.0554900151
 20
205.1088932378
 11
127.0554900151
 21
205.1088932378
  0
LINE
  5
444
100
AcDbEntity
  8
ASSI
100
AcDbLine
 62
250
  6
CONTINUOUS
 10
96.0554900151
 20
211.9088932378
 11
101.0554900151
 21
211.9088932378
  0
LINE
  5
445
100
AcDbEntity
  8
ASSI
100
AcDbLine
 62
250
  6
CONTINUOUS
 10
122.0554900151
 20
211.9088932378
 11
127.0554900151
 21
211.9088932378
  0
LINE
  5
446
100
AcDbEntity
  8
ASSI
100
AcDbLine
 62
250
  6
CONTINUOUS
 10
109.0554900151
 20
212.4088932378
 11
114.0554900151
 21
212.4088932378
  0
LINE
  5
447
100
AcDbEntity
  8
ASSI
100
AcDbLine
 62
7
  6
CONTINUOUS
 10
98.2554900151
 20
214.1088932378
 11
98.8554900151
 21
214.1088932378
  0
LINE
  5
448
100
AcDbEntity
  8
ASSI
100
AcDbLine
 62
7
  6
CONTINUOUS
 10
124.2554900151
 20
214.1088932378
 11
124.8554900151
 21
214.1088932378
  0
LINE
  5
449
100
AcDbEntity
  8
ASSI
100
AcDbLine
 62
7
  6
CONTINUOUS
 10
111.2554900151
 20
214.6088932378
 11
111.8554900151
 21
214.6088932378
  0
ARC
  5
44A
100
AcDbEntity
  8
RACCORDO
100
AcDbCircle
 62
250
  6
CONTINUOUS
 10
127.153863892
 20
93.5962379724
 40
63.9518590745
100
AcDbArc
 50
303.827975595
 51
304.1590938786
  0
ARC
  5
44B
100
AcDbEntity
  8
RACCORDO
100
AcDbCircle
 62
250
  6
CONTINUOUS
 10
125.167538506
 20
62.0346157681
 40
63.9518590732
100
AcDbArc
 50
333.827975595
 51
334.1590938787
  0
ARC
  5
44C
100
AcDbEntity
  8
RACCORDO
100
AcDbCircle
 62
250
  6
CONTINUOUS
 10
127.1538724145
 20
54.6215611511
 40
63.9518438233
100
AcDbArc
 50
55.8409060769
 51
56.1720244396
  0
ARC
  5
44D
100
AcDbEntity
  8
RACCORDO
100
AcDbCircle
 62
250
  6
CONTINUOUS
 10
125.1675522106
 20
86.1831773996
 40
63.951843822
100
AcDbArc
 50
25.8409060769
 51
26.1720244396
  0
CIRCLE
  5
44E
100
AcDbEntity
  8
RACCORDO
100
AcDbCircle
 62
250
  6
CONTINUOUS
 10
91.0554900151
 20
74.1088932378
 40
3.9499107093
  0
CIRCLE
  5
44F
100
AcDbEntity
  8
RACCORDO
100
AcDbCircle
 62
250
  6
CONTINUOUS
 10
91.0554900151
 20
74.1088932378
 40
3.4499868617
  0
CIRCLE
  5
450
100
AcDbEntity
  8
DRAFT
100
AcDbCircle
 62
7
  6
CONTINUOUS
 10
91.0554900151
 20
74.1088932378
 40
2.9
  0
CIRCLE
  5
451
100
AcDbEntity
  8
0
100
AcDbCircle
 62
7
  6
CONTINUOUS
 10
91.0554900151
 20
74.1088932378
 40
2.7226074497
  0
CIRCLE
  5
452
100
AcDbEntity
  8
0
100
AcDbCircle
 62
250
  6
CONTINUOUS
 10
91.0554900151
 20
74.1088932378
 40
2.7214658591
  0
CIRCLE
  5
453
100
AcDbEntity
  8
0
100
AcDbCircle
 62
250
  6
CONTINUOUS
 10
91.0554900151
 20
74.1088932378
 40
2.6357943273
  0
CIRCLE
  5
454
100
AcDbEntity
  8
0
100
AcDbCircle
 62
250
  6
CONTINUOUS
 10
91.0554900151
 20
74.1088932378
 40
2.4415748396
  0
ARC
  5
455
100
AcDbEntity
  8
0
100
AcDbCircle
 62
250
  6
CONTINUOUS
 10
91.0554900151
 20
74.1088932378
 40
1.8098246557
100
AcDbArc
 50
299.702312008
 51
333.2133851259
  0
ARC
  5
456
100
AcDbEntity
  8
0
100
AcDbCircle
 62
250
  6
CONTINUOUS
 10
91.0554900151
 20
74.1088932378
 40
1.8098246557
100
AcDbArc
 50
59.702312008
 51
93.2133851259
  0
ARC
  5
457
100
AcDbEntity
  8
0
100
AcDbCircle
 62
250
  6
CONTINUOUS
 10
91.0554900151
 20
74.1088932378
 40
1.8098246557
100
AcDbArc
 50
182.1073233326
 51
213.2133851259
  0
ARC
  5
458
100
AcDbEntity
  8
0
100
AcDbCircle
 62
250
  6
CONTINUOUS
 10
91.0554900151
 20
74.1088932378
 40
1.7100709361
100
AcDbArc
 50
301.4246792562
 51
330.3977241472
  0
ARC
  5
459
100
AcDbEntity
  8
0
100
AcDbCircle
 62
250
  6
CONTINUOUS
 10
91.0554900151
 20
74.1088932378
 40
1.7100709361
100
AcDbArc
 50
61.4246792562
 51
90.3977241472
  0
ARC
  5
45A
100
AcDbEntity
  8
0
100
AcDbCircle
 62
250
  6
CONTINUOUS
 10
91.0554900151
 20
74.1088932378
 40
1.7100709361
100
AcDbArc
 50
182.1073233246
 51
210.3977241472
  0
CIRCLE
  5
45B
100
AcDbEntity
  8
0
100
AcDbCircle
 62
7
  6
CONTINUOUS
 10
91.0554900151
 20
74.1088932378
 40
0.8
  0
ARC
  5
45C
100
AcDbEntity
  8
0
100
AcDbCircle
 62
7
  6
CONTINUOUS
 10
90.8554900151
 20
75.1481237223
 40
0.2
100
AcDbArc
 50
300.0
 51
360.0
  0
ARC
  5
45D
100
AcDbEntity
  8
0
100
AcDbCircle
 62
7
  6
CONTINUOUS
 10
92.0554900151
 20
73.7624830762
 40
0.2
100
AcDbArc
 50
180.0
 51
240.0
  0
ARC
  5
45E
100
AcDbEntity
  8
0
100
AcDbCircle
 62
7
  6
CONTINUOUS
 10
90.2554900151
 20
73.4160729147
 40
0.2
100
AcDbArc
 50
60.0
 51
120.0
  0
ARC
  5
45F
100
AcDbEntity
  8
0
100
AcDbCircle
 62
250
  6
CONTINUOUS
 10
92.0699964222
 20
73.7574705219
 40
0.1014629291
100
AcDbArc
 50
180.0044514034
 51
239.9955485966
  0
ARC
  5
460
100
AcDbEntity
  8
0
100
AcDbCircle
 62
250
  6
CONTINUOUS
 10
90.8525778111
 20
75.1631929164
 40
0.101462929
100
AcDbArc
 50
300.0044513587
 51
359.9955486413
  0
ARC
  5
461
100
AcDbEntity
  8
0
100
AcDbCircle
 62
250
  6
CONTINUOUS
 10
90.2438958122
 20
73.4060163162
 40
0.1014628933
100
AcDbArc
 50
60.0044397218
 51
119.9955602782
  0
ARC
  5
462
100
AcDbEntity
  8
RACCORDO
100
AcDbCircle
 62
250
  6
CONTINUOUS
 10
165.5681452835
 20
16.2072671167
 40
63.9518590709
100
AcDbArc
 50
33.827975595
 51
34.1590938787
  0
ARC
  5
463
100
AcDbEntity
  8
RACCORDO
100
AcDbCircle
 62
250
  6
CONTINUOUS
 10
139.2281413659
 20
33.7082864623
 40
63.9518590698
100
AcDbArc
 50
3.827975595
 51
4.1590938787
  0
ARC
  5
464
100
AcDbEntity
  8
RACCORDO
100
AcDbCircle
 62
250
  6
CONTINUOUS
 10
172.9812058573
 20
14.220955425
 40
63.9518438311
100
AcDbArc
 50
115.8409060769
 51
116.1720244395
  0
ARC
  5
465
100
AcDbEntity
  8
RACCORDO
100
AcDbCircle
 62
250
  6
CONTINUOUS
 10
144.6548842957
 20
28.2815597936
 40
63.9518438281
100
AcDbArc
 50
85.8409060769
 51
86.1720244396
  0
ARC
  5
466
100
AcDbEntity
  8
RACCORDO
100
AcDbCircle
 62
250
  6
CONTINUOUS
 10
183.3287420723
 20
31.0603450947
 40
37.5925881041
100
AcDbArc
 50
29.8546880581
 51
30.389751635
  0
ARC
  5
467
100
AcDbEntity
  8
RACCORDO
100
AcDbCircle
 62
250
  6
CONTINUOUS
 10
165.026622238
 20
35.9643852201
 40
37.5925855178
100
AcDbArc
 50
119.6102483438
 51
120.1453119575
  0
ARC
  5
468
100
AcDbEntity
  8
RACCORDO
100
AcDbCircle
 62
250
  6
CONTINUOUS
 10
172.7615853728
 20
28.227416489
 40
10.9826972631
100
AcDbArc
 50
46.8086088295
 51
103.1913911707
  0
ARC
  5
469
100
AcDbEntity
  8
RACCORDO
100
AcDbCircle
 62
250
  6
CONTINUOUS
 10
172.7615853728
 20
28.227416489
 40
9.982849568
100
AcDbArc
 50
46.8086088295
 51
103.1913911706
  0
ARC
  5
46A
100
AcDbEntity
  8
RACCORDO
100
AcDbCircle
 62
250
  6
CONTINUOUS
 10
172.7615853728
 20
28.227416489
 40
9.6415619032
100
AcDbArc
 50
46.3281881642
 51
103.671811836
  0
ARC
  5
46B
100
AcDbEntity
  8
RACCORDO
100
AcDbCircle
 62
250
  6
CONTINUOUS
 10
172.7615853728
 20
28.227416489
 40
7.6418665129
100
AcDbArc
 50
46.3281881642
 51
103.671811836
  0
CIRCLE
  5
46C
100
AcDbEntity
  8
RACCORDO
100
AcDbCircle
 62
250
  6
CONTINUOUS
 10
185.0554900151
 20
-19.8911067622
 40
3.9499107093
  0
CIRCLE
  5
46D
100
AcDbEntity
  8
RACCORDO
100
AcDbCircle
 62
250
  6
CONTINUOUS
 10
185.0554900151
 20
-19.8911067622
 40
3.4499868617
  0
CIRCLE
  5
46E
100
AcDbEntity
  8
DRAFT
100
AcDbCircle
 62
7
  6
CONTINUOUS
 10
185.0554900151
 20
-19.8911067622
 40
2.9
  0
CIRCLE
  5
46F
100
AcDbEntity
  8
0
100
AcDbCircle
 62
7
  6
CONTINUOUS
 10
185.0554900151
 20
-19.8911067622
 40
2.7226074497
  0
CIRCLE
  5
470
100
AcDbEntity
  8
0
100
AcDbCircle
 62
250
  6
CONTINUOUS
 10
185.0554900151
 20
-19.8911067622
 40
2.7214658591
  0
CIRCLE
  5
471
100
AcDbEntity
  8
0
100
AcDbCircle
 62
250
  6
CONTINUOUS
 10
185.0554900151
 20
-19.8911067622
 40
2.6357943273
  0
CIRCLE
  5
472
100
AcDbEntity
  8
0
100
AcDbCircle
 62
250
  6
CONTINUOUS
 10
185.0554900151
 20
-19.8911067622
 40
2.4415748396
  0
ARC
  5
473
100
AcDbEntity
  8
0
100
AcDbCircle
 62
250
  6
CONTINUOUS
 10
185.0554900151
 20
-19.8911067622
 40
1.8098246557
100
AcDbArc
 50
299.702312008
 51
333.2133851259
  0
ARC
  5
474
100
AcDbEntity
  8
0
100
AcDbCircle
 62
250
  6
CONTINUOUS
 10
185.0554900151
 20
-19.8911067622
 40
1.8098246557
100
AcDbArc
 50
59.702312008
 51
93.2133851259
  0
ARC
  5
475
100
AcDbEntity
  8
0
100
AcDbCircle
 62
250
  6
CONTINUOUS
 10
185.0554900151
 20
-19.8911067622
 40
1.8098246557
100
AcDbArc
 50
182.1073233326
 51
213.2133851259
  0
ARC
  5
476
100
AcDbEntity
  8
0
100
AcDbCircle
 62
250
  6
CONTINUOUS
 10
185.0554900151
 20
-19.8911067622
 40
1.7100709361
100
AcDbArc
 50
301.4246792562
 51
330.3977241472
  0
ARC
  5
477
100
AcDbEntity
  8
0
100
AcDbCircle
 62
250
  6
CONTINUOUS
 10
185.0554900151
 20
-19.8911067622
 40
1.7100709361
100
AcDbArc
 50
61.4246792562
 51
90.3977241472
  0
ARC
  5
478
100
AcDbEntity
  8
0
100
AcDbCircle
 62
250
  6
CONTINUOUS
 10
185.0554900151
 20
-19.8911067622
 40
1.7100709361
100
AcDbArc
 50
182.1073233246
 51
210.3977241472
  0
CIRCLE
  5
479
100
AcDbEntity
  8
0
100
AcDbCircle
 62
7
  6
CONTINUOUS
 10
185.0554900151
 20
-19.8911067622
 40
0.8
  0
ARC
  5
47A
100
AcDbEntity
  8
0
100
AcDbCircle
 62
7
  6
CONTINUOUS
 10
184.8554900151
 20
-18.8518762777
 40
0.2
100
AcDbArc
 50
300.0
 51
360.0
  0
ARC
  5
47B
100
AcDbEntity
  8
0
100
AcDbCircle
 62
7
  6
CONTINUOUS
 10
184.2554900151
 20
-20.5839270853
 40
0.2
100
AcDbArc
 50
60.0
 51
120.0
  0
ARC
  5
47C
100
AcDbEntity
  8
0
100
AcDbCircle
 62
250
  6
CONTINUOUS
 10
184.8525778111
 20
-18.8368070836
 40
0.101462929
100
AcDbArc
 50
300.0044513587
 51
359.9955486413
  0
ARC
  5
47D
100
AcDbEntity
  8
0
100
AcDbCircle
 62
250
  6
CONTINUOUS
 10
184.2438958122
 20
-20.5939836838
 40
0.1014628933
100
AcDbArc
 50
60.0044397218
 51
119.9955602782
  0
ARC
  5
47E
100
AcDbEntity
  8
RACCORDO
100
AcDbCircle
 62
250
  6
CONTINUOUS
 10
162.0358083574
 20
37.6911309212
 40
37.5925881059
100
AcDbArc
 50
359.8546880582
 51
0.389751635
  0
ARC
  5
47F
100
AcDbEntity
  8
RACCORDO
100
AcDbCircle
 62
250
  6
CONTINUOUS
 10
146.910979756
 20
54.0800267505
 40
37.5925881039
100
AcDbArc
 50
329.8546880581
 51
330.389751635
  0
ARC
  5
480
100
AcDbEntity
  8
RACCORDO
100
AcDbCircle
 62
250
  6
CONTINUOUS
 10
148.6377277023
 20
51.0892141677
 40
37.5925855182
100
AcDbArc
 50
89.6102483438
 51
90.1453119575
  0
ARC
  5
481
100
AcDbEntity
  8
RACCORDO
100
AcDbCircle
 62
250
  6
CONTINUOUS
 10
151.4679179088
 20
40.5213211314
 40
10.9826972631
100
AcDbArc
 50
16.8086088295
 51
73.1913911705
  0
ARC
  5
482
100
AcDbEntity
  8
RACCORDO
100
AcDbCircle
 62
250
  6
CONTINUOUS
 10
139.1740132664
 20
61.8149885954
 40
10.9826972631
100
AcDbArc
 50
346.8086088295
 51
43.1913911706
  0
ARC
  5
483
100
AcDbEntity
  8
RACCORDO
100
AcDbCircle
 62
250
  6
CONTINUOUS
 10
139.1740132664
 20
61.8149885954
 40
9.982849568
100
AcDbArc
 50
346.8086088295
 51
43.1913911706
  0
ARC
  5
484
100
AcDbEntity
  8
RACCORDO
100
AcDbCircle
 62
250
  6
CONTINUOUS
 10
151.4679179088
 20
40.5213211314
 40
9.982849568
100
AcDbArc
 50
16.8086088295
 51
73.1913911706
  0
ARC
  5
485
100
AcDbEntity
  8
RACCORDO
100
AcDbCircle
 62
250
  6
CONTINUOUS
 10
139.1740132664
 20
61.8149885954
 40
9.6415619032
100
AcDbArc
 50
346.3281881642
 51
43.671811836
  0
ARC
  5
486
100
AcDbEntity
  8
RACCORDO
100
AcDbCircle
 62
250
  6
CONTINUOUS
 10
151.4679179088
 20
40.5213211314
 40
9.6415619032
100
AcDbArc
 50
16.3281881642
 51
73.671811836
  0
ARC
  5
487
100
AcDbEntity
  8
RACCORDO
100
AcDbCircle
 62
250
  6
CONTINUOUS
 10
139.1740132664
 20
61.8149885954
 40
7.6418665129
100
AcDbArc
 50
346.3281881642
 51
43.6718118337
  0
ARC
  5
488
100
AcDbEntity
  8
RACCORDO
100
AcDbCircle
 62
250
  6
CONTINUOUS
 10
151.4679179088
 20
40.5213211314
 40
7.6418665129
100
AcDbArc
 50
16.3281881642
 51
73.6718118384
  0
ARC
  5
489
100
AcDbEntity
  8
RACCORDO
100
AcDbCircle
 62
250
  6
CONTINUOUS
 10
153.3999161304
 20
58.3544804865
 40
6.9988789828
100
AcDbArc
 50
166.3280240534
 51
206.4589049702
  0
ARC
  5
48A
100
AcDbEntity
  8
RACCORDO
100
AcDbCircle
 62
250
  6
CONTINUOUS
 10
155.583981361
 20
54.5715683936
 40
6.9988789078
100
AcDbArc
 50
213.5410948053
 51
253.6719761686
  0
ARC
  5
48B
100
AcDbEntity
  8
RACCORDO
100
AcDbCircle
 62
250
  6
CONTINUOUS
 10
153.7610676945
 20
58.3960423319
 40
4.9995184177
100
AcDbArc
 50
166.8097718367
 51
206.6597833097
  0
ARC
  5
48C
100
AcDbEntity
  8
RACCORDO
100
AcDbCircle
 62
250
  6
CONTINUOUS
 10
155.8005507571
 20
54.8635539007
 40
4.9995183432
100
AcDbArc
 50
213.3402163788
 51
253.1902284715
  0
ARC
  5
48D
100
AcDbEntity
  8
RACCORDO
100
AcDbCircle
 62
250
  6
CONTINUOUS
 10
153.3992469215
 20
58.3544054998
 40
4.9985510749
100
AcDbArc
 50
166.3253101293
 51
206.4616188913
  0
ARC
  5
48E
100
AcDbEntity
  8
RACCORDO
100
AcDbCircle
 62
250
  6
CONTINUOUS
 10
155.5835818298
 20
54.5710263531
 40
4.9985510211
100
AcDbArc
 50
213.5383808803
 51
253.6746900933
  0
ARC
  5
48F
100
AcDbEntity
  8
RACCORDO
100
AcDbCircle
 62
250
  6
CONTINUOUS
 10
153.7607346651
 20
58.3960030051
 40
3.9993554544
100
AcDbArc
 50
166.8084253653
 51
206.6611297837
  0
ARC
  5
490
100
AcDbEntity
  8
RACCORDO
100
AcDbCircle
 62
250
  6
CONTINUOUS
 10
155.8003501938
 20
54.863285165
 40
3.9993553949
100
AcDbArc
 50
213.3388699067
 51
253.1915749443
  0
ARC
  5
491
100
AcDbEntity
  8
RACCORDO
100
AcDbCircle
 62
250
  6
CONTINUOUS
 10
142.0069418713
 20
75.8356411819
 40
37.5925881057
100
AcDbArc
 50
299.8546880582
 51
300.389751635
  0
ARC
  5
492
100
AcDbEntity
  8
RACCORDO
100
AcDbCircle
 62
250
  6
CONTINUOUS
 10
142.0069431683
 20
72.3821475327
 40
37.5925855181
100
AcDbArc
 50
59.6102483438
 51
60.1453119575
  0
ARC
  5
493
100
AcDbEntity
  8
RACCORDO
100
AcDbCircle
 62
250
  6
CONTINUOUS
 10
146.9109819981
 20
94.1377610152
 40
37.5925855171
100
AcDbArc
 50
29.6102483438
 51
30.1453119575
  0
ARC
  5
494
100
AcDbEntity
  8
RACCORDO
100
AcDbCircle
 62
250
  6
CONTINUOUS
 10
139.1740132664
 20
86.4027978801
 40
10.9826972631
100
AcDbArc
 50
316.8086088295
 51
13.1913911707
  0
ARC
  5
495
100
AcDbEntity
  8
RACCORDO
100
AcDbCircle
 62
250
  6
CONTINUOUS
 10
139.1740132664
 20
86.4027978801
 40
9.982849568
100
AcDbArc
 50
316.8086088295
 51
13.1913911706
  0
ARC
  5
496
100
AcDbEntity
  8
RACCORDO
100
AcDbCircle
 62
250
  6
CONTINUOUS
 10
139.1740132664
 20
86.4027978801
 40
9.6415619032
100
AcDbArc
 50
316.3281881642
 51
13.671811836
  0
ARC
  5
497
100
AcDbEntity
  8
RACCORDO
100
AcDbCircle
 62
250
  6
CONTINUOUS
 10
139.1740132664
 20
86.4027978801
 40
7.6418665129
100
AcDbArc
 50
316.3281881642
 51
13.6718118351
  0
ARC
  5
498
100
AcDbEntity
  8
RACCORDO
100
AcDbCircle
 62
250
  6
CONTINUOUS
 10
155.5839814084
 20
93.6462180177
 40
6.9988789828
100
AcDbArc
 50
106.3280240534
 51
146.4589049702
  0
ARC
  5
499
100
AcDbEntity
  8
RACCORDO
100
AcDbCircle
 62
250
  6
CONTINUOUS
 10
149.7637524839
 20
76.2929585158
 40
6.9988789828
100
AcDbArc
 50
136.3280240534
 51
176.4589049702
  0
ARC
  5
49A
100
AcDbEntity
  8
RACCORDO
100
AcDbCircle
 62
250
  6
CONTINUOUS
 10
153.3999160512
 20
89.8633059979
 40
6.9988789079
100
AcDbArc
 50
153.5410948055
 51
193.6719761714
  0
ARC
  5
49B
100
AcDbEntity
  8
RACCORDO
100
AcDbCircle
 62
250
  6
CONTINUOUS
 10
149.763752411
 20
71.9248279278
 40
6.998878908
100
AcDbArc
 50
183.5410948057
 51
223.6719761726
  0
ARC
  5
49C
100
AcDbEntity
  8
RACCORDO
100
AcDbCircle
 62
250
  6
CONTINUOUS
 10
155.8005508045
 20
93.3542325112
 40
4.9995184177
100
AcDbArc
 50
106.8097718367
 51
146.6597833097
  0
ARC
  5
49D
100
AcDbEntity
  8
RACCORDO
100
AcDbCircle
 62
250
  6
CONTINUOUS
 10
150.0972998358
 20
76.1483763477
 40
4.9995184177
100
AcDbArc
 50
136.8097718367
 51
176.6597833097
  0
ARC
  5
49E
100
AcDbEntity
  8
RACCORDO
100
AcDbCircle
 62
250
  6
CONTINUOUS
 10
153.7610676158
 20
89.8217441528
 40
4.9995183432
100
AcDbArc
 50
153.3402163788
 51
193.1902284715
  0
ARC
  5
49F
100
AcDbEntity
  8
RACCORDO
100
AcDbCircle
 62
250
  6
CONTINUOUS
 10
150.097299763
 20
72.0694100964
 40
4.9995183432
100
AcDbArc
 50
183.3402163788
 51
223.1902284715
  0
ARC
  5
4A0
100
AcDbEntity
  8
RACCORDO
100
AcDbCircle
 62
250
  6
CONTINUOUS
 10
155.5835818636
 20
93.6467600762
 40
4.9985510749
100
AcDbArc
 50
106.3253101293
 51
146.4616188913
  0
ARC
  5
4A1
100
AcDbEntity
  8
RACCORDO
100
AcDbCircle
 62
250
  6
CONTINUOUS
 10
149.7631354387
 20
76.2932281798
 40
4.9985510749
100
AcDbArc
 50
136.3253101293
 51
176.4616188913
  0
ARC
  5
4A2
100
AcDbEntity
  8
RACCORDO
100
AcDbCircle
 62
250
  6
CONTINUOUS
 10
153.3992468646
 20
89.863380982
 40
4.9985510211
100
AcDbArc
 50
153.5383808803
 51
193.6746900933
  0
ARC
  5
4A3
100
AcDbEntity
  8
RACCORDO
100
AcDbCircle
 62
250
  6
CONTINUOUS
 10
149.7631353863
 20
71.9245582726
 40
4.9985510211
100
AcDbArc
 50
183.5383808803
 51
223.6746900933
  0
ARC
  5
4A4
100
AcDbEntity
  8
RACCORDO
100
AcDbCircle
 62
250
  6
CONTINUOUS
 10
150.0969917604
 20
76.1485088044
 40
3.9993554544
100
AcDbArc
 50
136.8084253653
 51
176.6611297837
  0
ARC
  5
4A5
100
AcDbEntity
  8
RACCORDO
100
AcDbCircle
 62
250
  6
CONTINUOUS
 10
155.8003502317
 20
93.3545012598
 40
3.9993554544
100
AcDbArc
 50
106.8084253653
 51
146.6611297837
  0
ARC
  5
4A6
100
AcDbEntity
  8
RACCORDO
100
AcDbCircle
 62
250
  6
CONTINUOUS
 10
150.0969917022
 20
72.0692776461
 40
3.9993553949
100
AcDbArc
 50
183.3388699067
 51
223.1915749441
  0
ARC
  5
4A7
100
AcDbEntity
  8
RACCORDO
100
AcDbCircle
 62
250
  6
CONTINUOUS
 10
153.7607346022
 20
89.8217834779
 40
3.9993553948
100
AcDbArc
 50
153.3388699067
 51
193.1915749438
  0
ARC
  5
4A8
100
AcDbEntity
  8
RACCORDO
100
AcDbCircle
 62
250
  6
CONTINUOUS
 10
165.5181652352
 20
44.637384631
 40
6.9988789828
100
AcDbArc
 50
196.3280240534
 51
236.4589049702
  0
ARC
  5
4A9
100
AcDbEntity
  8
RACCORDO
100
AcDbCircle
 62
250
  6
CONTINUOUS
 10
182.8714247371
 20
38.8171557065
 40
6.9988789828
100
AcDbArc
 50
226.3280240534
 51
266.4589049702
  0
ARC
  5
4AA
100
AcDbEntity
  8
RACCORDO
100
AcDbCircle
 62
250
  6
CONTINUOUS
 10
169.3010772549
 20
42.4533192737
 40
6.9988789079
100
AcDbArc
 50
243.5410948055
 51
283.6719761706
  0
ARC
  5
4AB
100
AcDbEntity
  8
RACCORDO
100
AcDbCircle
 62
250
  6
CONTINUOUS
 10
165.8101507417
 20
44.8539540271
 40
4.9995184177
100
AcDbArc
 50
196.8097718367
 51
236.6597833097
  0
ARC
  5
4AC
100
AcDbEntity
  8
RACCORDO
100
AcDbCircle
 62
250
  6
CONTINUOUS
 10
183.0160069052
 20
39.1507030584
 40
4.9995184177
100
AcDbArc
 50
226.8097718367
 51
266.6597833097
  0
ARC
  5
4AD
100
AcDbEntity
  8
RACCORDO
100
AcDbCircle
 62
250
  6
CONTINUOUS
 10
169.3426391001
 20
42.8144708384
 40
4.9995183432
100
AcDbArc
 50
243.3402163788
 51
283.1902284715
  0
ARC
  5
4AE
100
AcDbEntity
  8
RACCORDO
100
AcDbCircle
 62
250
  6
CONTINUOUS
 10
165.5176231767
 20
44.6369850862
 40
4.9985510749
100
AcDbArc
 50
196.3253101293
 51
236.4616188913
  0
ARC
  5
4AF
100
AcDbEntity
  8
RACCORDO
100
AcDbCircle
 62
250
  6
CONTINUOUS
 10
182.8711550731
 20
38.8165386613
 40
4.9985510749
100
AcDbArc
 50
226.3253101293
 51
266.4616188913
  0
ARC
  5
4B0
100
AcDbEntity
  8
RACCORDO
100
AcDbCircle
 62
250
  6
CONTINUOUS
 10
169.3010022709
 20
42.4526500872
 40
4.9985510211
100
AcDbArc
 50
243.5383808803
 51
283.6746900933
  0
ARC
  5
4B1
100
AcDbEntity
  8
RACCORDO
100
AcDbCircle
 62
250
  6
CONTINUOUS
 10
183.0158744485
 20
39.1503949831
 40
3.9993554544
100
AcDbArc
 50
226.8084253653
 51
266.6611297837
  0
ARC
  5
4B2
100
AcDbEntity
  8
RACCORDO
100
AcDbCircle
 62
250
  6
CONTINUOUS
 10
165.8098819931
 20
44.8537534544
 40
3.9993554544
100
AcDbArc
 50
196.8084253653
 51
236.6611297837
  0
ARC
  5
4B3
100
AcDbEntity
  8
RACCORDO
100
AcDbCircle
 62
250
  6
CONTINUOUS
 10
169.342599775
 20
42.8141378248
 40
3.9993553948
100
AcDbArc
 50
243.3388699067
 51
283.1915749439
  0
ARC
  5
4B4
100
AcDbEntity
  8
RACCORDO
100
AcDbCircle
 62
7
  6
CONTINUOUS
 10
185.0554900151
 20
74.1088932378
 40
135.0
100
AcDbArc
 50
81.1501169016
 51
98.8498830984
  0
ARC
  5
4B5
100
AcDbEntity
  8
RACCORDO
100
AcDbCircle
 62
250
  6
CONTINUOUS
 10
185.0554900151
 20
74.1088932378
 40
134.5
100
AcDbArc
 50
81.1501169016
 51
98.8498830984
  0
ARC
  5
4B6
100
AcDbEntity
  8
RACCORDO
100
AcDbCircle
 62
250
  6
CONTINUOUS
 10
185.0554900151
 20
74.1088932378
 40
127.5
100
AcDbArc
 50
82.7308446975
 51
85.0990457951
  0
ARC
  5
4B7
100
AcDbEntity
  8
RACCORDO
100
AcDbCircle
 62
250
  6
CONTINUOUS
 10
185.0554900151
 20
74.1088932378
 40
127.5
100
AcDbArc
 50
94.9009542049
 51
97.2691553025
  0
ARC
  5
4B8
100
AcDbEntity
  8
RACCORDO
100
AcDbCircle
 62
7
  6
CONTINUOUS
 10
185.0554900151
 20
74.1088932378
 40
127.0
100
AcDbArc
 50
82.7308446975
 51
85.0990457951
  0
ARC
  5
4B9
100
AcDbEntity
  8
RACCORDO
100
AcDbCircle
 62
7
  6
CONTINUOUS
 10
185.0554900151
 20
74.1088932378
 40
127.0
100
AcDbArc
 50
94.9009542049
 51
97.2691553025
  0
ARC
  5
4BA
100
AcDbEntity
  8
RACCORDO
100
AcDbCircle
 62
7
  6
CONTINUOUS
 10
185.0554900151
 20
74.1088932378
 40
115.0
100
AcDbArc
 50
82.5473321708
 51
97.4526678292
  0
ARC
  5
4BB
100
AcDbEntity
  8
RACCORDO
100
AcDbCircle
 62
250
  6
CONTINUOUS
 10
185.0554900151
 20
74.1088932378
 40
114.5
100
AcDbArc
 50
82.5473321708
 51
97.4526678292
  0
ARC
  5
4BC
100
AcDbEntity
  8
0
100
AcDbCircle
 62
7
  6
CONTINUOUS
 10
185.0554900151
 20
74.1088932378
 40
110.0
100
AcDbArc
 50
81.636398211
 51
88.6977110648
  0
ARC
  5
4BD
100
AcDbEntity
  8
0
100
AcDbCircle
 62
7
  6
CONTINUOUS
 10
185.0554900151
 20
74.1088932378
 40
110.0
100
AcDbArc
 50
91.3022889352
 51
98.363601789
  0
ARC
  5
4BE
100
AcDbEntity
  8
0
100
AcDbCircle
 62
7
  6
CONTINUOUS
 10
185.0554900151
 20
74.1088932378
 40
105.0
100
AcDbArc
 50
101.5369590328
 51
125.355306608
  0
ARC
  5
4BF
100
AcDbEntity
  8
0
100
AcDbCircle
 62
7
  6
CONTINUOUS
 10
185.0554900151
 20
74.1088932378
 40
105.0
100
AcDbArc
 50
91.3643141507
 51
98.7649315323
  0
ARC
  5
4C0
100
AcDbEntity
  8
0
100
AcDbCircle
 62
7
  6
CONTINUOUS
 10
185.0554900151
 20
74.1088932378
 40
105.0
100
AcDbArc
 50
81.2350684677
 51
88.6356858493
  0
ARC
  5
4C1
100
AcDbEntity
  8
0
100
AcDbCircle
 62
7
  6
CONTINUOUS
 10
185.0554900151
 20
74.1088932378
 40
105.0
100
AcDbArc
 50
144.644693392
 51
78.4630409672
  0
ARC
  5
4C2
100
AcDbEntity
  8
0
100
AcDbCircle
 62
250
  6
CONTINUOUS
 10
185.0554900151
 20
74.1088932378
 40
104.9825449351
100
AcDbArc
 50
101.5389035997
 51
125.3634123017
  0
ARC
  5
4C3
100
AcDbEntity
  8
0
100
AcDbCircle
 62
250
  6
CONTINUOUS
 10
185.0554900151
 20
74.1088932378
 40
104.9825449351
100
AcDbArc
 50
91.3645410331
 51
98.7664003238
  0
ARC
  5
4C4
100
AcDbEntity
  8
0
100
AcDbCircle
 62
250
  6
CONTINUOUS
 10
185.0554900151
 20
74.1088932378
 40
104.9825449351
100
AcDbArc
 50
81.2335996762
 51
88.6354589669
  0
ARC
  5
4C5
100
AcDbEntity
  8
0
100
AcDbCircle
 62
250
  6
CONTINUOUS
 10
185.0554900151
 20
74.1088932378
 40
104.9825449351
100
AcDbArc
 50
225.0
 51
78.4610964003
  0
ARC
  5
4C6
100
AcDbEntity
  8
RACCORDO
100
AcDbCircle
 62
250
  6
CONTINUOUS
 10
185.0554900151
 20
74.1088932378
 40
104.9825449351
100
AcDbArc
 50
144.6365876983
 51
225.0
  0
ARC
  5
4C7
100
AcDbEntity
  8
0
100
AcDbCircle
 62
7
  6
CONTINUOUS
 10
185.0554900151
 20
74.1088932378
 40
104.9825449351
100
AcDbArc
 50
78.4610964003
 51
81.2335996762
  0
ARC
  5
4C8
100
AcDbEntity
  8
0
100
AcDbCircle
 62
7
  6
CONTINUOUS
 10
185.0554900151
 20
74.1088932378
 40
104.9825449351
100
AcDbArc
 50
88.6354589669
 51
91.3645410331
  0
ARC
  5
4C9
100
AcDbEntity
  8
0
100
AcDbCircle
 62
7
  6
CONTINUOUS
 10
185.0554900151
 20
74.1088932378
 40
104.9825449351
100
AcDbArc
 50
98.7664003238
 51
101.5389035997
  0
ARC
  5
4CA
100
AcDbEntity
  8
RACCORDO
100
AcDbCircle
 62
7
  6
CONTINUOUS
 10
185.0554900151
 20
74.1088932378
 40
104.5678605624
100
AcDbArc
 50
129.6800252054
 51
140.3199747946
  0
ARC
  5
4CB
100
AcDbEntity
  8
RACCORDO
100
AcDbCircle
 62
250
  6
CONTINUOUS
 10
185.0554900151
 20
74.1088932378
 40
104.5655145565
100
AcDbArc
 50
129.6800252054
 51
140.3199747946
  0
CIRCLE
  5
4CC
100
AcDbEntity
  8
RACCORDO
100
AcDbCircle
 62
250
  6
CONTINUOUS
 10
185.0554900151
 20
74.1088932378
 40
101.2017105464
  0
CIRCLE
  5
4CD
100
AcDbEntity
  8
RACCORDO
100
AcDbCircle
 62
250
  6
CONTINUOUS
 10
185.0554900151
 20
74.1088932378
 40
99.2524262813
  0
CIRCLE
  5
4CE
100
AcDbEntity
  8
RACCORDO
100
AcDbCircle
 62
250
  6
CONTINUOUS
 10
185.0554900151
 20
74.1088932378
 40
56.9653945262
  0
CIRCLE
  5
4CF
100
AcDbEntity
  8
RACCORDO
100
AcDbCircle
 62
250
  6
CONTINUOUS
 10
185.0554900151
 20
74.1088932378
 40
54.9656991359
  0
CIRCLE
  5
4D0
100
AcDbEntity
  8
RACCORDO
100
AcDbCircle
 62
250
  6
CONTINUOUS
 10
185.0554900151
 20
74.1088932378
 40
54.9033878771
  0
CIRCLE
  5
4D1
100
AcDbEntity
  8
RACCORDO
100
AcDbCircle
 62
250
  6
CONTINUOUS
 10
185.0554900151
 20
74.1088932378
 40
52.9036924868
  0
ARC
  5
4D2
100
AcDbEntity
  8
RACCORDO
100
AcDbCircle
 62
250
  6
CONTINUOUS
 10
185.0554900151
 20
74.1088932378
 40
42.3581334871
100
AcDbArc
 50
86.4587408582
 51
93.5412591417
  0
ARC
  5
4D3
100
AcDbEntity
  8
RACCORDO
100
AcDbCircle
 62
250
  6
CONTINUOUS
 10
185.0554900151
 20
74.1088932378
 40
42.3581334871
100
AcDbArc
 50
116.4587408582
 51
123.5412591417
  0
ARC
  5
4D4
100
AcDbEntity
  8
RACCORDO
100
AcDbCircle
 62
250
  6
CONTINUOUS
 10
185.0554900151
 20
74.1088932378
 40
42.3581334871
100
AcDbArc
 50
146.4587408582
 51
153.5412591417
  0
ARC
  5
4D5
100
AcDbEntity
  8
RACCORDO
100
AcDbCircle
 62
250
  6
CONTINUOUS
 10
185.0554900151
 20
74.1088932378
 40
42.3581334871
100
AcDbArc
 50
176.4587408582
 51
183.5412591417
  0
ARC
  5
4D6
100
AcDbEntity
  8
RACCORDO
100
AcDbCircle
 62
250
  6
CONTINUOUS
 10
185.0554900151
 20
74.1088932378
 40
42.3581334871
100
AcDbArc
 50
206.4587408582
 51
213.5412591417
  0
ARC
  5
4D7
100
AcDbEntity
  8
RACCORDO
100
AcDbCircle
 62
250
  6
CONTINUOUS
 10
185.0554900151
 20
74.1088932378
 40
42.3581334871
100
AcDbArc
 50
236.4587408582
 51
243.5412591417
  0
ARC
  5
4D8
100
AcDbEntity
  8
RACCORDO
100
AcDbCircle
 62
250
  6
CONTINUOUS
 10
185.0554900151
 20
74.1088932378
 40
42.3581334871
100
AcDbArc
 50
266.4587408582
 51
273.5412591417
  0
ARC
  5
4D9
100
AcDbEntity
  8
RACCORDO
100
AcDbCircle
 62
250
  6
CONTINUOUS
 10
185.0554900151
 20
74.1088932378
 40
42.3581334871
100
AcDbArc
 50
296.4587408582
 51
303.5412591417
  0
ARC
  5
4DA
100
AcDbEntity
  8
RACCORDO
100
AcDbCircle
 62
250
  6
CONTINUOUS
 10
185.0554900151
 20
74.1088932378
 40
42.3581334871
100
AcDbArc
 50
326.4587408582
 51
333.5412591417
  0
ARC
  5
4DB
100
AcDbEntity
  8
RACCORDO
100
AcDbCircle
 62
250
  6
CONTINUOUS
 10
185.0554900151
 20
74.1088932378
 40
42.3581334871
100
AcDbArc
 50
356.4587408582
 51
3.5412591417
  0
ARC
  5
4DC
100
AcDbEntity
  8
RACCORDO
100
AcDbCircle
 62
250
  6
CONTINUOUS
 10
185.0554900151
 20
74.1088932378
 40
42.3581334871
100
AcDbArc
 50
26.4587408582
 51
33.5412591417
  0
ARC
  5
4DD
100
AcDbEntity
  8
RACCORDO
100
AcDbCircle
 62
250
  6
CONTINUOUS
 10
185.0554900151
 20
74.1088932378
 40
42.3581334871
100
AcDbArc
 50
56.4587408582
 51
63.5412591417
  0
ARC
  5
4DE
100
AcDbEntity
  8
RACCORDO
100
AcDbCircle
 62
250
  6
CONTINUOUS
 10
185.0554900151
 20
74.1088932378
 40
40.3584380968
100
AcDbArc
 50
296.4587408582
 51
303.5412591417
  0
ARC
  5
4DF
100
AcDbEntity
  8
RACCORDO
100
AcDbCircle
 62
250
  6
CONTINUOUS
 10
185.0554900151
 20
74.1088932378
 40
40.3584380968
100
AcDbArc
 50
266.4587408582
 51
273.5412591417
  0
ARC
  5
4E0
100
AcDbEntity
  8
RACCORDO
100
AcDbCircle
 62
250
  6
CONTINUOUS
 10
185.0554900151
 20
74.1088932378
 40
40.3584380968
100
AcDbArc
 50
236.4587408582
 51
243.5412591417
  0
ARC
  5
4E1
100
AcDbEntity
  8
RACCORDO
100
AcDbCircle
 62
250
  6
CONTINUOUS
 10
185.0554900151
 20
74.1088932378
 40
40.3584380968
100
AcDbArc
 50
206.4587408582
 51
213.5412591417
  0
ARC
  5
4E2
100
AcDbEntity
  8
RACCORDO
100
AcDbCircle
 62
250
  6
CONTINUOUS
 10
185.0554900151
 20
74.1088932378
 40
40.3584380968
100
AcDbArc
 50
176.4587408582
 51
183.5412591417
  0
ARC
  5
4E3
100
AcDbEntity
  8
RACCORDO
100
AcDbCircle
 62
250
  6
CONTINUOUS
 10
185.0554900151
 20
74.1088932378
 40
40.3584380968
100
AcDbArc
 50
146.4587408582
 51
153.5412591417
  0
ARC
  5
4E4
100
AcDbEntity
  8
RACCORDO
100
AcDbCircle
 62
250
  6
CONTINUOUS
 10
185.0554900151
 20
74.1088932378
 40
40.3584380968
100
AcDbArc
 50
116.4587408582
 51
123.5412591417
  0
ARC
  5
4E5
100
AcDbEntity
  8
RACCORDO
100
AcDbCircle
 62
250
  6
CONTINUOUS
 10
185.0554900151
 20
74.1088932378
 40
40.3584380968
100
AcDbArc
 50
86.4587408582
 51
93.5412591417
  0
ARC
  5
4E6
100
AcDbEntity
  8
RACCORDO
100
AcDbCircle
 62
250
  6
CONTINUOUS
 10
185.0554900151
 20
74.1088932378
 40
40.3584380968
100
AcDbArc
 50
56.4587408582
 51
63.5412591417
  0
ARC
  5
4E7
100
AcDbEntity
  8
RACCORDO
100
AcDbCircle
 62
250
  6
CONTINUOUS
 10
185.0554900151
 20
74.1088932378
 40
40.3584380968
100
AcDbArc
 50
26.4587408582
 51
33.5412591417
  0
ARC
  5
4E8
100
AcDbEntity
  8
RACCORDO
100
AcDbCircle
 62
250
  6
CONTINUOUS
 10
185.0554900151
 20
74.1088932378
 40
40.3584380968
100
AcDbArc
 50
356.4587408582
 51
3.5412591417
  0
ARC
  5
4E9
100
AcDbEntity
  8
RACCORDO
100
AcDbCircle
 62
250
  6
CONTINUOUS
 10
185.0554900151
 20
74.1088932378
 40
40.3584380968
100
AcDbArc
 50
326.4587408582
 51
333.5412591417
  0
ARC
  5
4EA
100
AcDbEntity
  8
RACCORDO
100
AcDbCircle
 62
250
  6
CONTINUOUS
 10
185.0554900151
 20
74.1088932378
 40
40.017150432
100
AcDbArc
 50
296.6609463184
 51
303.3390536815
  0
ARC
  5
4EB
100
AcDbEntity
  8
RACCORDO
100
AcDbCircle
 62
250
  6
CONTINUOUS
 10
185.0554900151
 20
74.1088932378
 40
40.017150432
100
AcDbArc
 50
266.6609463184
 51
273.3390536815
  0
ARC
  5
4EC
100
AcDbEntity
  8
RACCORDO
100
AcDbCircle
 62
250
  6
CONTINUOUS
 10
185.0554900151
 20
74.1088932378
 40
40.017150432
100
AcDbArc
 50
236.6609463184
 51
243.3390536815
  0
ARC
  5
4ED
100
AcDbEntity
  8
RACCORDO
100
AcDbCircle
 62
250
  6
CONTINUOUS
 10
185.0554900151
 20
74.1088932378
 40
40.017150432
100
AcDbArc
 50
206.6609463184
 51
213.3390536815
  0
ARC
  5
4EE
100
AcDbEntity
  8
RACCORDO
100
AcDbCircle
 62
250
  6
CONTINUOUS
 10
185.0554900151
 20
74.1088932378
 40
40.017150432
100
AcDbArc
 50
176.6609463184
 51
183.3390536815
  0
ARC
  5
4EF
100
AcDbEntity
  8
RACCORDO
100
AcDbCircle
 62
250
  6
CONTINUOUS
 10
185.0554900151
 20
74.1088932378
 40
40.017150432
100
AcDbArc
 50
146.6609463184
 51
153.3390536815
  0
ARC
  5
4F0
100
AcDbEntity
  8
RACCORDO
100
AcDbCircle
 62
250
  6
CONTINUOUS
 10
185.0554900151
 20
74.1088932378
 40
40.017150432
100
AcDbArc
 50
116.6609463184
 51
123.3390536815
  0
ARC
  5
4F1
100
AcDbEntity
  8
RACCORDO
100
AcDbCircle
 62
250
  6
CONTINUOUS
 10
185.0554900151
 20
74.1088932378
 40
40.017150432
100
AcDbArc
 50
86.6609463184
 51
93.3390536815
  0
ARC
  5
4F2
100
AcDbEntity
  8
RACCORDO
100
AcDbCircle
 62
250
  6
CONTINUOUS
 10
185.0554900151
 20
74.1088932378
 40
40.017150432
100
AcDbArc
 50
56.6609463184
 51
63.3390536815
  0
ARC
  5
4F3
100
AcDbEntity
  8
RACCORDO
100
AcDbCircle
 62
250
  6
CONTINUOUS
 10
185.0554900151
 20
74.1088932378
 40
40.017150432
100
AcDbArc
 50
26.6609463184
 51
33.3390536815
  0
ARC
  5
4F4
100
AcDbEntity
  8
RACCORDO
100
AcDbCircle
 62
250
  6
CONTINUOUS
 10
185.0554900151
 20
74.1088932378
 40
40.017150432
100
AcDbArc
 50
356.6609463184
 51
3.3390536815
  0
ARC
  5
4F5
100
AcDbEntity
  8
RACCORDO
100
AcDbCircle
 62
250
  6
CONTINUOUS
 10
185.0554900151
 20
74.1088932378
 40
40.017150432
100
AcDbArc
 50
326.6609463184
 51
333.3390536815
  0
ARC
  5
4F6
100
AcDbEntity
  8
RACCORDO
100
AcDbCircle
 62
250
  6
CONTINUOUS
 10
185.0554900151
 20
74.1088932378
 40
39.0173027369
100
AcDbArc
 50
296.6609463184
 51
303.3390536815
  0
ARC
  5
4F7
100
AcDbEntity
  8
RACCORDO
100
AcDbCircle
 62
250
  6
CONTINUOUS
 10
185.0554900151
 20
74.1088932378
 40
39.0173027369
100
AcDbArc
 50
266.6609463184
 51
273.3390536815
  0
ARC
  5
4F8
100
AcDbEntity
  8
RACCORDO
100
AcDbCircle
 62
250
  6
CONTINUOUS
 10
185.0554900151
 20
74.1088932378
 40
39.0173027369
100
AcDbArc
 50
236.6609463184
 51
243.3390536815
  0
ARC
  5
4F9
100
AcDbEntity
  8
RACCORDO
100
AcDbCircle
 62
250
  6
CONTINUOUS
 10
185.0554900151
 20
74.1088932378
 40
39.0173027369
100
AcDbArc
 50
206.6609463184
 51
213.3390536815
  0
ARC
  5
4FA
100
AcDbEntity
  8
RACCORDO
100
AcDbCircle
 62
250
  6
CONTINUOUS
 10
185.0554900151
 20
74.1088932378
 40
39.0173027369
100
AcDbArc
 50
176.6609463184
 51
183.3390536815
  0
ARC
  5
4FB
100
AcDbEntity
  8
RACCORDO
100
AcDbCircle
 62
250
  6
CONTINUOUS
 10
185.0554900151
 20
74.1088932378
 40
39.0173027369
100
AcDbArc
 50
146.6609463184
 51
153.3390536815
  0
ARC
  5
4FC
100
AcDbEntity
  8
RACCORDO
100
AcDbCircle
 62
250
  6
CONTINUOUS
 10
185.0554900151
 20
74.1088932378
 40
39.0173027369
100
AcDbArc
 50
116.6609463184
 51
123.3390536815
  0
ARC
  5
4FD
100
AcDbEntity
  8
RACCORDO
100
AcDbCircle
 62
250
  6
CONTINUOUS
 10
185.0554900151
 20
74.1088932378
 40
39.0173027369
100
AcDbArc
 50
86.6609463184
 51
93.3390536815
  0
ARC
  5
4FE
100
AcDbEntity
  8
RACCORDO
100
AcDbCircle
 62
250
  6
CONTINUOUS
 10
185.0554900151
 20
74.1088932378
 40
39.0173027369
100
AcDbArc
 50
56.6609463184
 51
63.3390536815
  0
ARC
  5
4FF
100
AcDbEntity
  8
RACCORDO
100
AcDbCircle
 62
250
  6
CONTINUOUS
 10
185.0554900151
 20
74.1088932378
 40
39.0173027369
100
AcDbArc
 50
26.6609463184
 51
33.3390536815
  0
ARC
  5
500
100
AcDbEntity
  8
RACCORDO
100
AcDbCircle
 62
250
  6
CONTINUOUS
 10
185.0554900151
 20
74.1088932378
 40
39.0173027369
100
AcDbArc
 50
356.6609463184
 51
3.3390536815
  0
ARC
  5
501
100
AcDbEntity
  8
RACCORDO
100
AcDbCircle
 62
250
  6
CONTINUOUS
 10
185.0554900151
 20
74.1088932378
 40
39.0173027369
100
AcDbArc
 50
326.6609463184
 51
333.3390536815
  0
ARC
  5
502
100
AcDbEntity
  8
RACCORDO
100
AcDbCircle
 62
250
  6
CONTINUOUS
 10
139.2281565771
 20
114.5094989567
 40
63.951843822
100
AcDbArc
 50
355.8409060769
 51
356.1720244396
  0
ARC
  5
503
100
AcDbEntity
  8
RACCORDO
100
AcDbCircle
 62
7
  6
CONTINUOUS
 10
100.0727049784
 20
134.4028178552
 40
0.8010835041
100
AcDbArc
 50
114.3160827667
 51
115.179611162
  0
ARC
  5
504
100
AcDbEntity
  8
RACCORDO
100
AcDbCircle
 62
7
  6
CONTINUOUS
 10
100.0722374621
 20
134.4036252623
 40
0.8001539137
100
AcDbArc
 50
115.1739131195
 51
144.6443062683
  0
ARC
  5
505
100
AcDbEntity
  8
RACCORDO
100
AcDbCircle
 62
250
  6
CONTINUOUS
 10
100.1244556565
 20
134.404864252
 40
0.7999236815
100
AcDbArc
 50
123.4009071582
 51
144.648108881
  0
ARC
  5
506
100
AcDbEntity
  8
RACCORDO
100
AcDbCircle
 62
250
  6
CONTINUOUS
 10
100.0947718908
 20
134.406000539
 40
0.7997019809
100
AcDbArc
 50
117.4296325117
 51
144.653238546
  0
ARC
  5
507
100
AcDbEntity
  8
ASSI
100
AcDbCircle
 62
7
  6
CONTINUOUS
 10
129.5554900151
 20
177.9127408151
 40
3.0
100
AcDbArc
 50
330.0
 51
360.0
  0
ARC
  5
508
100
AcDbEntity
  8
ASSI
100
AcDbCircle
 62
7
  6
CONTINUOUS
 10
93.5554900151
 20
177.9127408151
 40
3.0
100
AcDbArc
 50
180.0
 51
210.0
  0
ARC
  5
509
100
AcDbEntity
  8
ASSI
100
AcDbCircle
 62
7
  6
CONTINUOUS
 10
111.5554900151
 20
181.1088932378
 40
2.9735749324
100
AcDbArc
 50
292.0885431658
 51
273.4298241508
  0
ARC
  5
50A
100
AcDbEntity
  8
ASSI
100
AcDbCircle
 62
7
  6
CONTINUOUS
 10
111.4655520151
 20
175.5033212378
 40
2.6508884458
100
AcDbArc
 50
47.2312789315
 51
84.2011723825
  0
ARC
  5
50B
100
AcDbEntity
  8
ASSI
100
AcDbCircle
 62
7
  6
CONTINUOUS
 10
111.6741750151
 20
175.9327062378
 40
2.6190759282
100
AcDbArc
 50
45.4348969444
 51
67.5658553844
  0
CIRCLE
  5
50C
100
AcDbEntity
  8
ASSI
100
AcDbCircle
 62
7
  6
CONTINUOUS
 10
111.5554900151
 20
181.1088932378
 40
2.497595
  0
ARC
  5
50D
100
AcDbEntity
  8
ASSI
100
AcDbCircle
 62
7
  6
CONTINUOUS
 10
111.5554900151
 20
181.1088932378
 40
2.2337503191
100
AcDbArc
 50
299.3041411838
 51
44.9957558872
  0
ARC
  5
50E
100
AcDbEntity
  8
ASSI
100
AcDbCircle
 62
7
  6
CONTINUOUS
 10
111.5554900151
 20
181.1088932378
 40
2.2337501706
100
AcDbArc
 50
134.9002628452
 51
240.6958588162
  0
ARC
  5
50F
100
AcDbEntity
  8
ASSI
100
AcDbCircle
 62
7
  6
CONTINUOUS
 10
124.2554900151
 20
211.9088932378
 40
2.2
100
AcDbArc
 50
90.0
 51
180.0
  0
ARC
  5
510
100
AcDbEntity
  8
ASSI
100
AcDbCircle
 62
7
  6
CONTINUOUS
 10
124.8554900151
 20
211.9088932378
 40
2.2
100
AcDbArc
 50
0.0
 51
90.0
  0
ARC
  5
511
100
AcDbEntity
  8
ASSI
100
AcDbCircle
 62
7
  6
CONTINUOUS
 10
111.2554900151
 20
212.4088932378
 40
2.2
100
AcDbArc
 50
90.0
 51
180.0
  0
ARC
  5
512
100
AcDbEntity
  8
ASSI
100
AcDbCircle
 62
7
  6
CONTINUOUS
 10
111.8554900151
 20
212.4088932378
 40
2.2
100
AcDbArc
 50
0.0
 51
90.0
  0
ARC
  5
513
100
AcDbEntity
  8
ASSI
100
AcDbCircle
 62
7
  6
CONTINUOUS
 10
98.2554900151
 20
211.9088932378
 40
2.2
100
AcDbArc
 50
90.0
 51
180.0
  0
ARC
  5
514
100
AcDbEntity
  8
ASSI
100
AcDbCircle
 62
7
  6
CONTINUOUS
 10
98.8554900151
 20
211.9088932378
 40
2.2
100
AcDbArc
 50
0.0
 51
90.0
  0
ARC
  5
515
100
AcDbEntity
  8
ASSI
100
AcDbCircle
 62
7
  6
CONTINUOUS
 10
111.5554900151
 20
181.1088932378
 40
1.7896378839
100
AcDbArc
 50
299.3041347443
 51
31.9732647944
  0
ARC
  5
516
100
AcDbEntity
  8
ASSI
100
AcDbCircle
 62
7
  6
CONTINUOUS
 10
111.5554900151
 20
181.1088932378
 40
1.78963742
100
AcDbArc
 50
148.02673736
 51
240.6958652557
  0
ARC
  5
517
100
AcDbEntity
  8
RACCORDO
100
AcDbCircle
 62
7
  6
CONTINUOUS
 10
124.7615654431
 20
159.0916782534
 40
0.8010835541
100
AcDbArc
 50
154.8203888544
 51
155.6837502488
  0
ARC
  5
518
100
AcDbEntity
  8
RACCORDO
100
AcDbCircle
 62
7
  6
CONTINUOUS
 10
124.7607579906
 20
159.0921457908
 40
0.8001539137
100
AcDbArc
 50
125.355693731
 51
154.8260868808
  0
ARC
  5
519
100
AcDbEntity
  8
RACCORDO
100
AcDbCircle
 62
250
  6
CONTINUOUS
 10
124.7595190006
 20
159.0399275967
 40
0.7999236809
100
AcDbArc
 50
125.3518911139
 51
146.5991359586
  0
ARC
  5
51A
100
AcDbEntity
  8
RACCORDO
100
AcDbCircle
 62
250
  6
CONTINUOUS
 10
124.7583827134
 20
159.0696113627
 40
0.7997019801
100
AcDbArc
 50
125.3467614491
 51
152.5701770428
  0
ARC
  5
51B
100
AcDbEntity
  8
RACCORDO
100
AcDbCircle
 62
250
  6
CONTINUOUS
 10
172.9812125528
 20
133.9968447619
 40
63.9518590899
100
AcDbArc
 50
243.827975595
 51
244.1590938786
  0
ARC
  5
51C
100
AcDbEntity
  8
RACCORDO
100
AcDbCircle
 62
250
  6
CONTINUOUS
 10
144.6548832395
 20
119.936241891
 40
63.9518590737
100
AcDbArc
 50
273.827975595
 51
274.1590938787
  0
ARC
  5
51D
100
AcDbEntity
  8
RACCORDO
100
AcDbCircle
 62
250
  6
CONTINUOUS
 10
165.5681579202
 20
132.010510844
 40
63.9518438333
100
AcDbArc
 50
325.8409060769
 51
326.1720244395
  0
ARC
  5
51E
100
AcDbEntity
  8
RACCORDO
100
AcDbCircle
 62
250
  6
CONTINUOUS
 10
165.0266235302
 20
112.253403501
 40
37.5925881086
100
AcDbArc
 50
239.8546880582
 51
240.389751635
  0
ARC
  5
51F
100
AcDbEntity
  8
RACCORDO
100
AcDbCircle
 62
250
  6
CONTINUOUS
 10
148.6377276986
 20
97.1285748947
 40
37.5925881051
100
AcDbArc
 50
269.8546880582
 51
270.389751635
  0
ARC
  5
520
100
AcDbEntity
  8
RACCORDO
100
AcDbCircle
 62
250
  6
CONTINUOUS
 10
183.3287443081
 20
117.1574400858
 40
37.5925855204
100
AcDbArc
 50
329.6102483438
 51
330.1453119575
  0
ARC
  5
521
100
AcDbEntity
  8
RACCORDO
100
AcDbCircle
 62
250
  6
CONTINUOUS
 10
162.0358109444
 20
110.5266555506
 40
37.592585519
100
AcDbArc
 50
359.6102483438
 51
0.1453119575
  0
ARC
  5
522
100
AcDbEntity
  8
RACCORDO
100
AcDbCircle
 62
250
  6
CONTINUOUS
 10
151.4679179088
 20
107.6964653441
 40
10.9826972631
100
AcDbArc
 50
286.8086088295
 51
343.1913911706
  0
ARC
  5
523
100
AcDbEntity
  8
RACCORDO
100
AcDbCircle
 62
250
  6
CONTINUOUS
 10
172.7615853728
 20
119.9903699865
 40
10.9826972631
100
AcDbArc
 50
256.8086088295
 51
313.1913911706
  0
ARC
  5
524
100
AcDbEntity
  8
RACCORDO
100
AcDbCircle
 62
250
  6
CONTINUOUS
 10
172.7615853728
 20
119.9903699865
 40
9.982849568
100
AcDbArc
 50
256.8086088295
 51
313.1913911706
  0
ARC
  5
525
100
AcDbEntity
  8
RACCORDO
100
AcDbCircle
 62
250
  6
CONTINUOUS
 10
151.4679179088
 20
107.6964653441
 40
9.982849568
100
AcDbArc
 50
286.8086088295
 51
343.1913911706
  0
ARC
  5
526
100
AcDbEntity
  8
RACCORDO
100
AcDbCircle
 62
250
  6
CONTINUOUS
 10
172.7615853728
 20
119.9903699865
 40
9.6415619032
100
AcDbArc
 50
256.3281881642
 51
313.671811836
  0
ARC
  5
527
100
AcDbEntity
  8
RACCORDO
100
AcDbCircle
 62
250
  6
CONTINUOUS
 10
151.4679179088
 20
107.6964653441
 40
9.6415619032
100
AcDbArc
 50
286.3281881642
 51
343.671811836
  0
ARC
  5
528
100
AcDbEntity
  8
RACCORDO
100
AcDbCircle
 62
250
  6
CONTINUOUS
 10
172.7615853728
 20
119.9903699865
 40
7.6418665129
100
AcDbArc
 50
256.3281881642
 51
313.671811836
  0
ARC
  5
529
100
AcDbEntity
  8
RACCORDO
100
AcDbCircle
 62
250
  6
CONTINUOUS
 10
151.4679179088
 20
107.6964653441
 40
7.6418665129
100
AcDbArc
 50
286.3281881642
 51
343.6718118382
  0
ARC
  5
52A
100
AcDbEntity
  8
RACCORDO
100
AcDbCircle
 62
250
  6
CONTINUOUS
 10
169.3010772638
 20
105.7644671225
 40
6.9988789828
100
AcDbArc
 50
76.3280240534
 51
116.4589049702
  0
ARC
  5
52B
100
AcDbEntity
  8
RACCORDO
100
AcDbCircle
 62
250
  6
CONTINUOUS
 10
182.8714247052
 20
109.4006308421
 40
6.9988789079
100
AcDbArc
 50
93.5410948055
 51
133.6719761706
  0
ARC
  5
52C
100
AcDbEntity
  8
RACCORDO
100
AcDbCircle
 62
250
  6
CONTINUOUS
 10
165.5181651709
 20
103.5804018919
 40
6.9988789078
100
AcDbArc
 50
123.5410948053
 51
163.6719761688
  0
ARC
  5
52D
100
AcDbEntity
  8
RACCORDO
100
AcDbCircle
 62
250
  6
CONTINUOUS
 10
169.3426391093
 20
105.4033155584
 40
4.9995184177
100
AcDbArc
 50
76.8097718367
 51
116.6597833097
  0
ARC
  5
52E
100
AcDbEntity
  8
RACCORDO
100
AcDbCircle
 62
250
  6
CONTINUOUS
 10
183.0160068738
 20
109.0670834899
 40
4.9995183432
100
AcDbArc
 50
93.3402163788
 51
133.1902284715
  0
ARC
  5
52F
100
AcDbEntity
  8
RACCORDO
100
AcDbCircle
 62
250
  6
CONTINUOUS
 10
165.810150678
 20
103.3638324958
 40
4.9995183432
100
AcDbArc
 50
123.3402163788
 51
163.1902284715
  0
ARC
  5
530
100
AcDbEntity
  8
RACCORDO
100
AcDbCircle
 62
250
  6
CONTINUOUS
 10
169.3010022771
 20
105.7651363314
 40
4.9985510749
100
AcDbArc
 50
76.3253101293
 51
116.4616188913
  0
ARC
  5
531
100
AcDbEntity
  8
RACCORDO
100
AcDbCircle
 62
250
  6
CONTINUOUS
 10
182.87115505
 20
109.4012478666
 40
4.9985510211
100
AcDbArc
 50
93.5383808803
 51
133.6746900933
  0
ARC
  5
532
100
AcDbEntity
  8
RACCORDO
100
AcDbCircle
 62
250
  6
CONTINUOUS
 10
165.5176231305
 20
103.5808014231
 40
4.9985510211
100
AcDbArc
 50
123.5383808803
 51
163.6746900933
  0
ARC
  5
533
100
AcDbEntity
  8
RACCORDO
100
AcDbCircle
 62
250
  6
CONTINUOUS
 10
169.3425997825
 20
105.4036485878
 40
3.9993554544
100
AcDbArc
 50
76.8084253653
 51
116.6611297837
  0
ARC
  5
534
100
AcDbEntity
  8
RACCORDO
100
AcDbCircle
 62
250
  6
CONTINUOUS
 10
165.8098819424
 20
103.3640330591
 40
3.9993553949
100
AcDbArc
 50
123.3388699067
 51
163.191574944
  0
ARC
  5
535
100
AcDbEntity
  8
RACCORDO
100
AcDbCircle
 62
250
  6
CONTINUOUS
 10
183.0158744235
 20
109.0673915507
 40
3.9993553949
100
AcDbArc
 50
93.3388699067
 51
133.191574944
  0
ARC
  5
536
100
AcDbEntity
  8
RACCORDO
100
AcDbCircle
 62
7
  6
CONTINUOUS
 10
173.7782658665
 20
205.6262845421
 40
5.0
100
AcDbArc
 50
274.9009542049
 51
304.3232488385
  0
ARC
  5
537
100
AcDbEntity
  8
RACCORDO
100
AcDbCircle
 62
7
  6
CONTINUOUS
 10
165.0554900151
 20
202.5612190244
 40
5.0
100
AcDbArc
 50
98.8498830984
 51
180.0
  0
ARC
  5
538
100
AcDbEntity
  8
RACCORDO
100
AcDbCircle
 62
7
  6
CONTINUOUS
 10
165.0554900151
 20
186.9847220943
 40
5.0
100
AcDbArc
 50
180.0
 51
258.4630409665
  0
ARC
  5
539
100
AcDbEntity
  8
RACCORDO
100
AcDbCircle
 62
250
  6
CONTINUOUS
 10
169.5554900151
 20
195.6243243566
 40
5.0
100
AcDbArc
 50
97.2691553025
 51
180.0
  0
ARC
  5
53A
100
AcDbEntity
  8
RACCORDO
100
AcDbCircle
 62
250
  6
CONTINUOUS
 10
169.5554900151
 20
192.5993991865
 40
5.0
100
AcDbArc
 50
180.0
 51
277.4526678292
  0
ARC
  5
53B
100
AcDbEntity
  8
RACCORDO
100
AcDbCircle
 62
7
  6
CONTINUOUS
 10
169.5554900151
 20
192.5993991865
 40
4.5
100
AcDbArc
 50
180.0
 51
277.4526678292
  0
ARC
  5
53C
100
AcDbEntity
  8
RACCORDO
100
AcDbCircle
 62
7
  6
CONTINUOUS
 10
169.5554900151
 20
195.6243243566
 40
4.5
100
AcDbArc
 50
97.2691553025
 51
180.0
  0
ARC
  5
53D
100
AcDbEntity
  8
RACCORDO
100
AcDbCircle
 62
250
  6
CONTINUOUS
 10
173.7782658665
 20
205.6262845421
 40
4.5
100
AcDbArc
 50
274.9009542049
 51
304.3232488385
  0
ARC
  5
53E
100
AcDbEntity
  8
RACCORDO
100
AcDbCircle
 62
250
  6
CONTINUOUS
 10
165.0554900151
 20
202.5612190244
 40
4.5
100
AcDbArc
 50
98.8498830984
 51
180.0
  0
ARC
  5
53F
100
AcDbEntity
  8
RACCORDO
100
AcDbCircle
 62
250
  6
CONTINUOUS
 10
165.0554900151
 20
186.9847220943
 40
4.4999999994
100
AcDbArc
 50
180.0
 51
257.1604115913
  0
CIRCLE
  5
540
100
AcDbEntity
  8
RACCORDO
100
AcDbCircle
 62
250
  6
CONTINUOUS
 10
185.0554900151
 20
168.1088932378
 40
3.9499107093
  0
CIRCLE
  5
541
100
AcDbEntity
  8
RACCORDO
100
AcDbCircle
 62
250
  6
CONTINUOUS
 10
185.0554900151
 20
168.1088932378
 40
3.4499868617
  0
CIRCLE
  5
542
100
AcDbEntity
  8
DRAFT
100
AcDbCircle
 62
7
  6
CONTINUOUS
 10
185.0554900151
 20
168.1088932378
 40
2.9
  0
CIRCLE
  5
543
100
AcDbEntity
  8
0
100
AcDbCircle
 62
7
  6
CONTINUOUS
 10
185.0554900151
 20
168.1088932378
 40
2.7226074497
  0
CIRCLE
  5
544
100
AcDbEntity
  8
0
100
AcDbCircle
 62
250
  6
CONTINUOUS
 10
185.0554900151
 20
168.1088932378
 40
2.7214658591
  0
CIRCLE
  5
545
100
AcDbEntity
  8
0
100
AcDbCircle
 62
250
  6
CONTINUOUS
 10
185.0554900151
 20
168.1088932378
 40
2.6357943273
  0
CIRCLE
  5
546
100
AcDbEntity
  8
0
100
AcDbCircle
 62
250
  6
CONTINUOUS
 10
185.0554900151
 20
168.1088932378
 40
2.4415748396
  0
ARC
  5
547
100
AcDbEntity
  8
0
100
AcDbCircle
 62
250
  6
CONTINUOUS
 10
185.0554900151
 20
168.1088932378
 40
1.8098246557
100
AcDbArc
 50
299.702312008
 51
333.2133851259
  0
ARC
  5
548
100
AcDbEntity
  8
0
100
AcDbCircle
 62
250
  6
CONTINUOUS
 10
185.0554900151
 20
168.1088932378
 40
1.8098246557
100
AcDbArc
 50
59.702312008
 51
93.2133851259
  0
ARC
  5
549
100
AcDbEntity
  8
0
100
AcDbCircle
 62
250
  6
CONTINUOUS
 10
185.0554900151
 20
168.1088932378
 40
1.8098246557
100
AcDbArc
 50
182.1073233326
 51
213.2133851259
  0
ARC
  5
54A
100
AcDbEntity
  8
0
100
AcDbCircle
 62
250
  6
CONTINUOUS
 10
185.0554900151
 20
168.1088932378
 40
1.7100709361
100
AcDbArc
 50
301.4246792562
 51
330.3977241472
  0
ARC
  5
54B
100
AcDbEntity
  8
0
100
AcDbCircle
 62
250
  6
CONTINUOUS
 10
185.0554900151
 20
168.1088932378
 40
1.7100709361
100
AcDbArc
 50
61.4246792562
 51
90.3977241472
  0
ARC
  5
54C
100
AcDbEntity
  8
0
100
AcDbCircle
 62
250
  6
CONTINUOUS
 10
185.0554900151
 20
168.1088932378
 40
1.7100709361
100
AcDbArc
 50
182.1073233246
 51
210.3977241472
  0
CIRCLE
  5
54D
100
AcDbEntity
  8
0
100
AcDbCircle
 62
7
  6
CONTINUOUS
 10
185.0554900151
 20
168.1088932378
 40
0.8
  0
ARC
  5
54E
100
AcDbEntity
  8
0
100
AcDbCircle
 62
7
  6
CONTINUOUS
 10
184.8554900151
 20
169.1481237223
 40
0.2
100
AcDbArc
 50
300.0
 51
360.0
  0
ARC
  5
54F
100
AcDbEntity
  8
0
100
AcDbCircle
 62
7
  6
CONTINUOUS
 10
184.2554900151
 20
167.4160729147
 40
0.2
100
AcDbArc
 50
60.0
 51
120.0
  0
ARC
  5
550
100
AcDbEntity
  8
0
100
AcDbCircle
 62
250
  6
CONTINUOUS
 10
184.8525778111
 20
169.1631929164
 40
0.101462929
100
AcDbArc
 50
300.0044513587
 51
359.9955486413
  0
ARC
  5
551
100
AcDbEntity
  8
0
100
AcDbCircle
 62
250
  6
CONTINUOUS
 10
184.2438958122
 20
167.4060163162
 40
0.1014628933
100
AcDbArc
 50
60.0044397218
 51
119.9955602782
  0
ARC
  5
552
100
AcDbEntity
  8
RACCORDO
100
AcDbCircle
 62
250
  6
CONTINUOUS
 10
185.0554900151
 20
189.1088932378
 40
15.5
100
AcDbArc
 50
55.6767511615
 51
124.3232488385
  0
ARC
  5
553
100
AcDbEntity
  8
RACCORDO
100
AcDbCircle
 62
7
  6
CONTINUOUS
 10
185.0554900151
 20
189.1088932378
 40
15.0
100
AcDbArc
 50
55.6767511615
 51
124.3232488385
  0
ARC
  5
554
100
AcDbEntity
  8
RACCORDO
100
AcDbCircle
 62
250
  6
CONTINUOUS
 10
225.4560967906
 20
28.2815445884
 40
63.9518590698
100
AcDbArc
 50
93.827975595
 51
94.1590938787
  0
ARC
  5
555
100
AcDbEntity
  8
RACCORDO
100
AcDbCircle
 62
250
  6
CONTINUOUS
 10
197.1297674862
 20
14.2209417314
 40
63.9518590701
100
AcDbArc
 50
63.827975595
 51
64.1590938787
  0
ARC
  5
556
100
AcDbEntity
  8
RACCORDO
100
AcDbCircle
 62
250
  6
CONTINUOUS
 10
204.542822105
 20
16.2072756349
 40
63.9518438272
100
AcDbArc
 50
145.8409060769
 51
146.1720244396
  0
ARC
  5
557
100
AcDbEntity
  8
RACCORDO
100
AcDbCircle
 62
250
  6
CONTINUOUS
 10
230.8828234573
 20
33.7082875185
 40
63.9518438261
100
AcDbArc
 50
175.8409060769
 51
176.1720244396
  0
ARC
  5
558
100
AcDbEntity
  8
RACCORDO
100
AcDbCircle
 62
250
  6
CONTINUOUS
 10
205.0843565012
 20
35.9643829766
 40
37.5925881062
100
AcDbArc
 50
59.8546880581
 51
60.389751635
  0
ARC
  5
559
100
AcDbEntity
  8
RACCORDO
100
AcDbCircle
 62
250
  6
CONTINUOUS
 10
186.7822357201
 20
31.060346391
 40
37.5925855179
100
AcDbArc
 50
149.6102483438
 51
150.1453119575
  0
ARC
  5
55A
100
AcDbEntity
  8
RACCORDO
100
AcDbCircle
 62
250
  6
CONTINUOUS
 10
197.3493946575
 20
28.227416489
 40
10.9826972631
100
AcDbArc
 50
76.8086088295
 51
133.1913911706
  0
ARC
  5
55B
100
AcDbEntity
  8
RACCORDO
100
AcDbCircle
 62
250
  6
CONTINUOUS
 10
197.3493946575
 20
28.227416489
 40
9.982849568
100
AcDbArc
 50
76.8086088295
 51
133.1913911706
  0
ARC
  5
55C
100
AcDbEntity
  8
RACCORDO
100
AcDbCircle
 62
250
  6
CONTINUOUS
 10
197.3493946575
 20
28.227416489
 40
9.6415619032
100
AcDbArc
 50
76.3281881642
 51
133.671811836
  0
ARC
  5
55D
100
AcDbEntity
  8
RACCORDO
100
AcDbCircle
 62
250
  6
CONTINUOUS
 10
197.3493946575
 20
28.227416489
 40
7.6418665129
100
AcDbArc
 50
76.3281881642
 51
133.671811836
  0
ARC
  5
55E
100
AcDbEntity
  8
0
100
AcDbCircle
 62
7
  6
CONTINUOUS
 10
186.0554900151
 20
-20.2375169238
 40
0.2
100
AcDbArc
 50
180.0
 51
240.0
  0
ARC
  5
55F
100
AcDbEntity
  8
0
100
AcDbCircle
 62
250
  6
CONTINUOUS
 10
186.0699964222
 20
-20.2425294781
 40
0.1014629291
100
AcDbArc
 50
180.0044514034
 51
239.9955485967
  0
ARC
  5
560
100
AcDbEntity
  8
RACCORDO
100
AcDbCircle
 62
250
  6
CONTINUOUS
 10
208.0751690859
 20
37.6911309249
 40
37.592585519
100
AcDbArc
 50
179.6102483438
 51
180.1453119575
  0
ARC
  5
561
100
AcDbEntity
  8
RACCORDO
100
AcDbCircle
 62
250
  6
CONTINUOUS
 10
200.8099027664
 20
42.453319353
 40
6.9988789828
100
AcDbArc
 50
256.3280240534
 51
296.4589049702
  0
ARC
  5
562
100
AcDbEntity
  8
RACCORDO
100
AcDbCircle
 62
250
  6
CONTINUOUS
 10
187.2395553251
 20
38.8171556334
 40
6.9988789079
100
AcDbArc
 50
273.5410948055
 51
313.6719761706
  0
ARC
  5
563
100
AcDbEntity
  8
RACCORDO
100
AcDbCircle
 62
250
  6
CONTINUOUS
 10
204.5928148592
 20
44.6373845838
 40
6.998878908
100
AcDbArc
 50
303.5410948057
 51
343.6719761726
  0
ARC
  5
564
100
AcDbEntity
  8
RACCORDO
100
AcDbCircle
 62
250
  6
CONTINUOUS
 10
200.768340921
 20
42.8144709171
 40
4.9995184177
100
AcDbArc
 50
256.8097718367
 51
296.6597833097
  0
ARC
  5
565
100
AcDbEntity
  8
RACCORDO
100
AcDbCircle
 62
250
  6
CONTINUOUS
 10
187.0949731565
 20
39.1507029856
 40
4.9995183432
100
AcDbArc
 50
273.3402163788
 51
313.1902284715
  0
ARC
  5
566
100
AcDbEntity
  8
RACCORDO
100
AcDbCircle
 62
250
  6
CONTINUOUS
 10
204.3008293522
 20
44.8539539797
 40
4.9995183432
100
AcDbArc
 50
303.3402163788
 51
343.1902284715
  0
ARC
  5
567
100
AcDbEntity
  8
RACCORDO
100
AcDbCircle
 62
250
  6
CONTINUOUS
 10
200.8099777531
 20
42.4526501442
 40
4.9985510749
100
AcDbArc
 50
256.3253101293
 51
296.4616188913
  0
ARC
  5
568
100
AcDbEntity
  8
RACCORDO
100
AcDbCircle
 62
250
  6
CONTINUOUS
 10
187.2398249803
 20
38.8165386089
 40
4.9985510211
100
AcDbArc
 50
273.5383808803
 51
313.6746900933
  0
ARC
  5
569
100
AcDbEntity
  8
RACCORDO
100
AcDbCircle
 62
250
  6
CONTINUOUS
 10
204.5933568998
 20
44.6369850524
 40
4.9985510211
100
AcDbArc
 50
303.5383808803
 51
343.6746900933
  0
ARC
  5
56A
100
AcDbEntity
  8
RACCORDO
100
AcDbCircle
 62
250
  6
CONTINUOUS
 10
200.7683802478
 20
42.8141378877
 40
3.9993554544
100
AcDbArc
 50
256.8084253653
 51
296.6611297837
  0
ARC
  5
56B
100
AcDbEntity
  8
RACCORDO
100
AcDbCircle
 62
250
  6
CONTINUOUS
 10
204.3010980879
 20
44.8537534164
 40
3.9993553948
100
AcDbArc
 50
303.3388699067
 51
343.1915749437
  0
ARC
  5
56C
100
AcDbEntity
  8
RACCORDO
100
AcDbCircle
 62
250
  6
CONTINUOUS
 10
187.0951056068
 20
39.1503949249
 40
3.9993553949
100
AcDbArc
 50
273.3388699067
 51
313.1915749441
  0
ARC
  5
56D
100
AcDbEntity
  8
RACCORDO
100
AcDbCircle
 62
250
  6
CONTINUOUS
 10
221.4732523317
 20
51.0892115823
 40
37.5925881036
100
AcDbArc
 50
89.8546880581
 51
90.389751635
  0
ARC
  5
56E
100
AcDbEntity
  8
RACCORDO
100
AcDbCircle
 62
250
  6
CONTINUOUS
 10
223.1999980332
 20
54.0800254609
 40
37.5925855183
100
AcDbArc
 50
209.6102483438
 51
210.1453119575
  0
ARC
  5
56F
100
AcDbEntity
  8
RACCORDO
100
AcDbCircle
 62
250
  6
CONTINUOUS
 10
230.9369667639
 20
61.8149885954
 40
10.9826972631
100
AcDbArc
 50
136.8086088295
 51
193.1913911707
  0
ARC
  5
570
100
AcDbEntity
  8
RACCORDO
100
AcDbCircle
 62
250
  6
CONTINUOUS
 10
218.6430621215
 20
40.5213211314
 40
10.9826972631
100
AcDbArc
 50
106.8086088295
 51
163.1913911708
  0
ARC
  5
571
100
AcDbEntity
  8
RACCORDO
100
AcDbCircle
 62
250
  6
CONTINUOUS
 10
218.6430621215
 20
40.5213211314
 40
9.982849568
100
AcDbArc
 50
106.8086088295
 51
163.1913911706
  0
ARC
  5
572
100
AcDbEntity
  8
RACCORDO
100
AcDbCircle
 62
250
  6
CONTINUOUS
 10
230.9369667639
 20
61.8149885954
 40
9.982849568
100
AcDbArc
 50
136.8086088295
 51
193.1913911706
  0
ARC
  5
573
100
AcDbEntity
  8
RACCORDO
100
AcDbCircle
 62
250
  6
CONTINUOUS
 10
218.6430621215
 20
40.5213211314
 40
9.6415619032
100
AcDbArc
 50
106.3281881642
 51
163.671811836
  0
ARC
  5
574
100
AcDbEntity
  8
RACCORDO
100
AcDbCircle
 62
250
  6
CONTINUOUS
 10
230.9369667639
 20
61.8149885954
 40
9.6415619032
100
AcDbArc
 50
136.3281881642
 51
193.671811836
  0
ARC
  5
575
100
AcDbEntity
  8
RACCORDO
100
AcDbCircle
 62
250
  6
CONTINUOUS
 10
218.6430621215
 20
40.5213211314
 40
7.6418665129
100
AcDbArc
 50
106.3281881642
 51
163.6718118337
  0
ARC
  5
576
100
AcDbEntity
  8
RACCORDO
100
AcDbCircle
 62
250
  6
CONTINUOUS
 10
230.9369667639
 20
61.8149885954
 40
7.6418665129
100
AcDbArc
 50
136.3281881642
 51
193.6718118351
  0
ARC
  5
577
100
AcDbEntity
  8
RACCORDO
100
AcDbCircle
 62
250
  6
CONTINUOUS
 10
214.5269986218
 20
54.5715684578
 40
6.9988789828
100
AcDbArc
 50
286.3280240534
 51
326.4589049702
  0
ARC
  5
578
100
AcDbEntity
  8
RACCORDO
100
AcDbCircle
 62
250
  6
CONTINUOUS
 10
216.7110639791
 20
58.3544804776
 40
6.9988789079
100
AcDbArc
 50
333.5410948055
 51
13.6719761714
  0
ARC
  5
579
100
AcDbEntity
  8
RACCORDO
100
AcDbCircle
 62
250
  6
CONTINUOUS
 10
214.3104292258
 20
54.8635539643
 40
4.9995184177
100
AcDbArc
 50
286.8097718367
 51
326.6597833097
  0
ARC
  5
57A
100
AcDbEntity
  8
RACCORDO
100
AcDbCircle
 62
250
  6
CONTINUOUS
 10
216.3499124145
 20
58.3960423227
 40
4.9995183432
100
AcDbArc
 50
333.3402163788
 51
13.1902284715
  0
ARC
  5
57B
100
AcDbEntity
  8
RACCORDO
100
AcDbCircle
 62
250
  6
CONTINUOUS
 10
214.5273981667
 20
54.5710263993
 40
4.9985510749
100
AcDbArc
 50
286.3253101293
 51
326.4616188913
  0
ARC
  5
57C
100
AcDbEntity
  8
RACCORDO
100
AcDbCircle
 62
250
  6
CONTINUOUS
 10
216.7117331657
 20
58.3544054936
 40
4.9985510211
100
AcDbArc
 50
333.5383808803
 51
13.6746900933
  0
ARC
  5
57D
100
AcDbEntity
  8
RACCORDO
100
AcDbCircle
 62
250
  6
CONTINUOUS
 10
214.3106297985
 20
54.8632852157
 40
3.9993554544
100
AcDbArc
 50
286.8084253653
 51
326.6611297837
  0
ARC
  5
57E
100
AcDbEntity
  8
RACCORDO
100
AcDbCircle
 62
250
  6
CONTINUOUS
 10
216.3502454281
 20
58.3960029976
 40
3.9993553948
100
AcDbArc
 50
333.3388699067
 51
13.1915749439
  0
ARC
  5
57F
100
AcDbEntity
  8
RACCORDO
100
AcDbCircle
 62
250
  6
CONTINUOUS
 10
228.1040381588
 20
72.382145294
 40
37.5925881052
100
AcDbArc
 50
119.8546880582
 51
120.389751635
  0
ARC
  5
580
100
AcDbEntity
  8
RACCORDO
100
AcDbCircle
 62
250
  6
CONTINUOUS
 10
223.2000002737
 20
94.1377597254
 40
37.5925881031
100
AcDbArc
 50
149.8546880581
 51
150.389751635
  0
ARC
  5
581
100
AcDbEntity
  8
RACCORDO
100
AcDbCircle
 62
250
  6
CONTINUOUS
 10
228.1040368612
 20
75.8356389415
 40
37.5925855166
100
AcDbArc
 50
239.6102483438
 51
240.1453119575
  0
ARC
  5
582
100
AcDbEntity
  8
RACCORDO
100
AcDbCircle
 62
250
  6
CONTINUOUS
 10
230.9369667639
 20
86.4027978801
 40
10.9826972631
100
AcDbArc
 50
166.8086088295
 51
223.1913911706
  0
ARC
  5
583
100
AcDbEntity
  8
RACCORDO
100
AcDbCircle
 62
250
  6
CONTINUOUS
 10
230.9369667639
 20
86.4027978801
 40
9.982849568
100
AcDbArc
 50
166.8086088295
 51
223.1913911706
  0
ARC
  5
584
100
AcDbEntity
  8
RACCORDO
100
AcDbCircle
 62
250
  6
CONTINUOUS
 10
230.9369667639
 20
86.4027978801
 40
9.6415619032
100
AcDbArc
 50
166.3281881642
 51
223.671811836
  0
ARC
  5
585
100
AcDbEntity
  8
RACCORDO
100
AcDbCircle
 62
250
  6
CONTINUOUS
 10
230.9369667639
 20
86.4027978801
 40
7.6418665129
100
AcDbArc
 50
166.3281881642
 51
223.6718118359
  0
ARC
  5
586
100
AcDbEntity
  8
RACCORDO
100
AcDbCircle
 62
250
  6
CONTINUOUS
 10
220.3472275464
 20
71.9248279597
 40
6.9988789828
100
AcDbArc
 50
316.3280240534
 51
356.4589049702
  0
ARC
  5
587
100
AcDbEntity
  8
RACCORDO
100
AcDbCircle
 62
250
  6
CONTINUOUS
 10
216.7110638999
 20
89.8633059891
 40
6.9988789828
100
AcDbArc
 50
346.3280240534
 51
26.4589049702
  0
ARC
  5
588
100
AcDbEntity
  8
RACCORDO
100
AcDbCircle
 62
250
  6
CONTINUOUS
 10
220.3472276195
 20
76.2929585477
 40
6.9988789079
100
AcDbArc
 50
3.5410948055
 51
43.6719761707
  0
ARC
  5
589
100
AcDbEntity
  8
RACCORDO
100
AcDbCircle
 62
250
  6
CONTINUOUS
 10
214.5269986692
 20
93.6462180819
 40
6.9988789079
100
AcDbArc
 50
33.5410948055
 51
73.6719761707
  0
ARC
  5
58A
100
AcDbEntity
  8
RACCORDO
100
AcDbCircle
 62
250
  6
CONTINUOUS
 10
216.3499123358
 20
89.8217441436
 40
4.9995184177
100
AcDbArc
 50
346.8097718367
 51
26.6597833097
  0
ARC
  5
58B
100
AcDbEntity
  8
RACCORDO
100
AcDbCircle
 62
250
  6
CONTINUOUS
 10
220.0136801945
 20
72.0694101278
 40
4.9995184177
100
AcDbArc
 50
316.8097718367
 51
356.6597833097
  0
ARC
  5
58C
100
AcDbEntity
  8
RACCORDO
100
AcDbCircle
 62
250
  6
CONTINUOUS
 10
220.0136802673
 20
76.1483763791
 40
4.9995183432
100
AcDbArc
 50
3.3402163788
 51
43.1902284715
  0
ARC
  5
58D
100
AcDbEntity
  8
RACCORDO
100
AcDbCircle
 62
250
  6
CONTINUOUS
 10
214.3104292732
 20
93.3542325749
 40
4.9995183432
100
AcDbArc
 50
33.3402163788
 51
73.1902284715
  0
ARC
  5
58E
100
AcDbEntity
  8
RACCORDO
100
AcDbCircle
 62
250
  6
CONTINUOUS
 10
216.7117331087
 20
89.8633809758
 40
4.9985510749
100
AcDbArc
 50
346.3253101293
 51
26.4616188913
  0
ARC
  5
58F
100
AcDbEntity
  8
RACCORDO
100
AcDbCircle
 62
250
  6
CONTINUOUS
 10
220.3478445916
 20
71.9245582957
 40
4.9985510749
100
AcDbArc
 50
316.3253101293
 51
356.4616188913
  0
ARC
  5
590
100
AcDbEntity
  8
RACCORDO
100
AcDbCircle
 62
250
  6
CONTINUOUS
 10
220.347844644
 20
76.2932282029
 40
4.9985510211
100
AcDbArc
 50
3.5383808803
 51
43.6746900933
  0
ARC
  5
591
100
AcDbEntity
  8
RACCORDO
100
AcDbCircle
 62
250
  6
CONTINUOUS
 10
214.5273982005
 20
93.6467601224
 40
4.9985510211
100
AcDbArc
 50
33.5383808803
 51
73.6746900933
  0
ARC
  5
592
100
AcDbEntity
  8
RACCORDO
100
AcDbCircle
 62
250
  6
CONTINUOUS
 10
216.3502453652
 20
89.8217834704
 40
3.9993554544
100
AcDbArc
 50
346.8084253653
 51
26.6611297837
  0
ARC
  5
593
100
AcDbEntity
  8
RACCORDO
100
AcDbCircle
 62
250
  6
CONTINUOUS
 10
220.0139882698
 20
72.0692776711
 40
3.9993554544
100
AcDbArc
 50
316.8084253653
 51
356.6611297837
  0
ARC
  5
594
100
AcDbEntity
  8
RACCORDO
100
AcDbCircle
 62
250
  6
CONTINUOUS
 10
214.3106298364
 20
93.3545013105
 40
3.9993553949
100
AcDbArc
 50
33.3388699067
 51
73.191574944
  0
ARC
  5
595
100
AcDbEntity
  8
RACCORDO
100
AcDbCircle
 62
250
  6
CONTINUOUS
 10
220.0139883281
 20
76.1485088294
 40
3.9993553949
100
AcDbArc
 50
3.3388699067
 51
43.191574944
  0
ARC
  5
596
100
AcDbEntity
  8
RACCORDO
100
AcDbCircle
 62
250
  6
CONTINUOUS
 10
244.943441528
 20
86.1831707056
 40
63.9518590773
100
AcDbArc
 50
153.827975595
 51
154.1590938786
  0
ARC
  5
597
100
AcDbEntity
  8
RACCORDO
100
AcDbCircle
 62
250
  6
CONTINUOUS
 10
242.9571161387
 20
54.6215485024
 40
63.9518590754
100
AcDbArc
 50
123.827975595
 51
124.1590938786
  0
ARC
  5
598
100
AcDbEntity
  8
RACCORDO
100
AcDbCircle
 62
250
  6
CONTINUOUS
 10
242.9571076191
 20
93.5962253293
 40
63.9518438292
100
AcDbArc
 50
235.8409060769
 51
236.1720244396
  0
ARC
  5
599
100
AcDbEntity
  8
RACCORDO
100
AcDbCircle
 62
250
  6
CONTINUOUS
 10
244.9434278181
 20
62.0346090751
 40
63.9518438202
100
AcDbArc
 50
205.8409060769
 51
206.1720244396
  0
CIRCLE
  5
59A
100
AcDbEntity
  8
RACCORDO
100
AcDbCircle
 62
250
  6
CONTINUOUS
 10
279.0554900151
 20
74.1088932378
 40
3.9499107093
  0
CIRCLE
  5
59B
100
AcDbEntity
  8
RACCORDO
100
AcDbCircle
 62
250
  6
CONTINUOUS
 10
279.0554900151
 20
74.1088932378
 40
3.4499868617
  0
CIRCLE
  5
59C
100
AcDbEntity
  8
DRAFT
100
AcDbCircle
 62
7
  6
CONTINUOUS
 10
279.0554900151
 20
74.1088932378
 40
2.9
  0
CIRCLE
  5
59D
100
AcDbEntity
  8
0
100
AcDbCircle
 62
7
  6
CONTINUOUS
 10
279.0554900151
 20
74.1088932378
 40
2.7226074497
  0
CIRCLE
  5
59E
100
AcDbEntity
  8
0
100
AcDbCircle
 62
250
  6
CONTINUOUS
 10
279.0554900151
 20
74.1088932378
 40
2.7214658591
  0
CIRCLE
  5
59F
100
AcDbEntity
  8
0
100
AcDbCircle
 62
250
  6
CONTINUOUS
 10
279.0554900151
 20
74.1088932378
 40
2.6357943273
  0
CIRCLE
  5
5A0
100
AcDbEntity
  8
0
100
AcDbCircle
 62
250
  6
CONTINUOUS
 10
279.0554900151
 20
74.1088932378
 40
2.4415748396
  0
ARC
  5
5A1
100
AcDbEntity
  8
0
100
AcDbCircle
 62
250
  6
CONTINUOUS
 10
279.0554900151
 20
74.1088932378
 40
1.8098246557
100
AcDbArc
 50
299.702312008
 51
333.2133851259
  0
ARC
  5
5A2
100
AcDbEntity
  8
0
100
AcDbCircle
 62
250
  6
CONTINUOUS
 10
279.0554900151
 20
74.1088932378
 40
1.8098246557
100
AcDbArc
 50
59.702312008
 51
93.2133851259
  0
ARC
  5
5A3
100
AcDbEntity
  8
0
100
AcDbCircle
 62
250
  6
CONTINUOUS
 10
279.0554900151
 20
74.1088932378
 40
1.8098246557
100
AcDbArc
 50
182.1073233326
 51
213.2133851259
  0
ARC
  5
5A4
100
AcDbEntity
  8
0
100
AcDbCircle
 62
250
  6
CONTINUOUS
 10
279.0554900151
 20
74.1088932378
 40
1.7100709361
100
AcDbArc
 50
301.4246792562
 51
330.3977241472
  0
ARC
  5
5A5
100
AcDbEntity
  8
0
100
AcDbCircle
 62
250
  6
CONTINUOUS
 10
279.0554900151
 20
74.1088932378
 40
1.7100709361
100
AcDbArc
 50
61.4246792562
 51
90.3977241472
  0
ARC
  5
5A6
100
AcDbEntity
  8
0
100
AcDbCircle
 62
250
  6
CONTINUOUS
 10
279.0554900151
 20
74.1088932378
 40
1.7100709361
100
AcDbArc
 50
182.1073233246
 51
210.3977241472
  0
CIRCLE
  5
5A7
100
AcDbEntity
  8
0
100
AcDbCircle
 62
7
  6
CONTINUOUS
 10
279.0554900151
 20
74.1088932378
 40
0.8
  0
ARC
  5
5A8
100
AcDbEntity
  8
0
100
AcDbCircle
 62
7
  6
CONTINUOUS
 10
278.8554900151
 20
75.1481237223
 40
0.2
100
AcDbArc
 50
300.0
 51
360.0
  0
ARC
  5
5A9
100
AcDbEntity
  8
0
100
AcDbCircle
 62
7
  6
CONTINUOUS
 10
280.0554900151
 20
73.7624830762
 40
0.2
100
AcDbArc
 50
180.0
 51
240.0
  0
ARC
  5
5AA
100
AcDbEntity
  8
0
100
AcDbCircle
 62
7
  6
CONTINUOUS
 10
278.2554900151
 20
73.4160729147
 40
0.2
100
AcDbArc
 50
60.0
 51
120.0
  0
ARC
  5
5AB
100
AcDbEntity
  8
0
100
AcDbCircle
 62
250
  6
CONTINUOUS
 10
280.0699964222
 20
73.7574705219
 40
0.1014629291
100
AcDbArc
 50
180.0044514034
 51
239.9955485966
  0
ARC
  5
5AC
100
AcDbEntity
  8
0
100
AcDbCircle
 62
250
  6
CONTINUOUS
 10
278.8525778111
 20
75.1631929164
 40
0.101462929
100
AcDbArc
 50
300.0044513586
 51
359.9955486414
  0
ARC
  5
5AD
100
AcDbEntity
  8
0
100
AcDbCircle
 62
250
  6
CONTINUOUS
 10
278.2438958122
 20
73.4060163162
 40
0.1014628933
100
AcDbArc
 50
60.0044397218
 51
119.9955602783
  0
ARC
  5
5AE
100
AcDbEntity
  8
RACCORDO
100
AcDbCircle
 62
250
  6
CONTINUOUS
 10
204.5428347519
 20
132.0105193623
 40
63.9518590771
100
AcDbArc
 50
213.827975595
 51
214.1590938786
  0
ARC
  5
5AF
100
AcDbEntity
  8
RACCORDO
100
AcDbCircle
 62
250
  6
CONTINUOUS
 10
197.1297741738
 20
133.9968310488
 40
63.9518438293
100
AcDbArc
 50
295.8409060769
 51
296.1720244396
  0
ARC
  5
5B0
100
AcDbEntity
  8
RACCORDO
100
AcDbCircle
 62
250
  6
CONTINUOUS
 10
208.0751716729
 20
110.5266555543
 40
37.5925881059
100
AcDbArc
 50
179.8546880582
 51
180.389751635
  0
ARC
  5
5B1
100
AcDbEntity
  8
RACCORDO
100
AcDbCircle
 62
250
  6
CONTINUOUS
 10
186.7822379586
 20
117.1574413812
 40
37.5925881048
100
AcDbArc
 50
209.8546880582
 51
210.389751635
  0
ARC
  5
5B2
100
AcDbEntity
  8
RACCORDO
100
AcDbCircle
 62
250
  6
CONTINUOUS
 10
205.0843577915
 20
112.2534012567
 40
37.5925855192
100
AcDbArc
 50
299.6102483438
 51
300.1453119575
  0
ARC
  5
5B3
100
AcDbEntity
  8
RACCORDO
100
AcDbCircle
 62
250
  6
CONTINUOUS
 10
197.3493946575
 20
119.9903699865
 40
10.9826972631
100
AcDbArc
 50
226.8086088295
 51
283.1913911706
  0
ARC
  5
5B4
100
AcDbEntity
  8
RACCORDO
100
AcDbCircle
 62
250
  6
CONTINUOUS
 10
197.3493946575
 20
119.9903699865
 40
9.982849568
100
AcDbArc
 50
226.8086088295
 51
283.1913911706
  0
ARC
  5
5B5
100
AcDbEntity
  8
RACCORDO
100
AcDbCircle
 62
250
  6
CONTINUOUS
 10
197.3493946575
 20
119.9903699865
 40
9.6415619032
100
AcDbArc
 50
226.3281881642
 51
283.671811836
  0
ARC
  5
5B6
100
AcDbEntity
  8
RACCORDO
100
AcDbCircle
 62
250
  6
CONTINUOUS
 10
197.3493946575
 20
119.9903699865
 40
7.6418665129
100
AcDbArc
 50
226.3281881642
 51
283.6718118357
  0
ARC
  5
5B7
100
AcDbEntity
  8
RACCORDO
100
AcDbCircle
 62
250
  6
CONTINUOUS
 10
187.2395552932
 20
109.400630769
 40
6.9988789828
100
AcDbArc
 50
46.3280240534
 51
86.4589049702
  0
ARC
  5
5B8
100
AcDbEntity
  8
RACCORDO
100
AcDbCircle
 62
250
  6
CONTINUOUS
 10
204.5928147951
 20
103.5804018445
 40
6.9988789828
100
AcDbArc
 50
16.3280240534
 51
56.4589049702
  0
ARC
  5
5B9
100
AcDbEntity
  8
RACCORDO
100
AcDbCircle
 62
250
  6
CONTINUOUS
 10
200.8099027753
 20
105.7644672018
 40
6.9988789079
100
AcDbArc
 50
63.5410948055
 51
103.6719761709
  0
ARC
  5
5BA
100
AcDbEntity
  8
RACCORDO
100
AcDbCircle
 62
250
  6
CONTINUOUS
 10
204.3008292886
 20
103.3638324484
 40
4.9995184177
100
AcDbArc
 50
16.8097718367
 51
56.6597833097
  0
ARC
  5
5BB
100
AcDbEntity
  8
RACCORDO
100
AcDbCircle
 62
250
  6
CONTINUOUS
 10
187.0949731251
 20
109.0670834171
 40
4.9995184177
100
AcDbArc
 50
46.8097718367
 51
86.6597833097
  0
ARC
  5
5BC
100
AcDbEntity
  8
RACCORDO
100
AcDbCircle
 62
250
  6
CONTINUOUS
 10
200.7683409302
 20
105.4033156371
 40
4.9995183432
100
AcDbArc
 50
63.3402163788
 51
103.1902284715
  0
ARC
  5
5BD
100
AcDbEntity
  8
RACCORDO
100
AcDbCircle
 62
250
  6
CONTINUOUS
 10
204.5933568536
 20
103.5808013893
 40
4.9985510749
100
AcDbArc
 50
16.3253101293
 51
56.4616188913
  0
ARC
  5
5BE
100
AcDbEntity
  8
RACCORDO
100
AcDbCircle
 62
250
  6
CONTINUOUS
 10
187.2398249572
 20
109.4012478142
 40
4.9985510749
100
AcDbArc
 50
46.3253101293
 51
86.4616188913
  0
ARC
  5
5BF
100
AcDbEntity
  8
RACCORDO
100
AcDbCircle
 62
250
  6
CONTINUOUS
 10
200.8099777593
 20
105.7651363883
 40
4.9985510211
100
AcDbArc
 50
63.5383808803
 51
103.6746900933
  0
ARC
  5
5C0
100
AcDbEntity
  8
RACCORDO
100
AcDbCircle
 62
250
  6
CONTINUOUS
 10
187.0951055818
 20
109.0673914925
 40
3.9993554544
100
AcDbArc
 50
46.8084253653
 51
86.6611297837
  0
ARC
  5
5C1
100
AcDbEntity
  8
RACCORDO
100
AcDbCircle
 62
250
  6
CONTINUOUS
 10
204.3010980372
 20
103.3640330212
 40
3.9993554544
100
AcDbArc
 50
16.8084253653
 51
56.6611297837
  0
ARC
  5
5C2
100
AcDbEntity
  8
RACCORDO
100
AcDbCircle
 62
250
  6
CONTINUOUS
 10
200.7683802553
 20
105.4036486507
 40
3.9993553949
100
AcDbArc
 50
63.3388699067
 51
103.191574944
  0
ARC
  5
5C3
100
AcDbEntity
  8
RACCORDO
100
AcDbCircle
 62
7
  6
CONTINUOUS
 10
196.3327141638
 20
205.6262845421
 40
5.0
100
AcDbArc
 50
235.6767511615
 51
265.0990457951
  0
ARC
  5
5C4
100
AcDbEntity
  8
RACCORDO
100
AcDbCircle
 62
7
  6
CONTINUOUS
 10
205.0554900151
 20
202.5612190244
 40
5.0
100
AcDbArc
 50
0.0
 51
81.1501169016
  0
ARC
  5
5C5
100
AcDbEntity
  8
RACCORDO
100
AcDbCircle
 62
7
  6
CONTINUOUS
 10
205.0554900151
 20
186.9847220937
 40
5.0
100
AcDbArc
 50
281.5369590338
 51
360.0
  0
ARC
  5
5C6
100
AcDbEntity
  8
RACCORDO
100
AcDbCircle
 62
250
  6
CONTINUOUS
 10
200.5554900151
 20
192.5993991865
 40
5.0
100
AcDbArc
 50
262.5473321708
 51
360.0
  0
ARC
  5
5C7
100
AcDbEntity
  8
RACCORDO
100
AcDbCircle
 62
250
  6
CONTINUOUS
 10
200.5554900151
 20
195.6243243566
 40
5.0
100
AcDbArc
 50
0.0
 51
82.7308446975
  0
ARC
  5
5C8
100
AcDbEntity
  8
RACCORDO
100
AcDbCircle
 62
7
  6
CONTINUOUS
 10
200.5554900151
 20
195.6243243566
 40
4.5
100
AcDbArc
 50
0.0
 51
82.7308446975
  0
ARC
  5
5C9
100
AcDbEntity
  8
RACCORDO
100
AcDbCircle
 62
7
  6
CONTINUOUS
 10
200.5554900151
 20
192.5993991865
 40
4.5
100
AcDbArc
 50
262.5473321708
 51
360.0
  0
ARC
  5
5CA
100
AcDbEntity
  8
RACCORDO
100
AcDbCircle
 62
250
  6
CONTINUOUS
 10
196.3327141638
 20
205.6262845421
 40
4.5
100
AcDbArc
 50
235.6767511615
 51
265.0990457951
  0
ARC
  5
5CB
100
AcDbEntity
  8
RACCORDO
100
AcDbCircle
 62
250
  6
CONTINUOUS
 10
205.0554900151
 20
202.5612190244
 40
4.5
100
AcDbArc
 50
0.0
 51
81.1501169016
  0
ARC
  5
5CC
100
AcDbEntity
  8
RACCORDO
100
AcDbCircle
 62
250
  6
CONTINUOUS
 10
205.0554900151
 20
186.9847220937
 40
4.4999999992
100
AcDbArc
 50
282.8395884093
 51
360.0
  0
ARC
  5
5CD
100
AcDbEntity
  8
0
100
AcDbCircle
 62
7
  6
CONTINUOUS
 10
186.0554900151
 20
167.7624830762
 40
0.2
100
AcDbArc
 50
180.0
 51
240.0
  0
ARC
  5
5CE
100
AcDbEntity
  8
0
100
AcDbCircle
 62
250
  6
CONTINUOUS
 10
186.0699964222
 20
167.7574705219
 40
0.1014629291
100
AcDbArc
 50
180.0044514034
 51
239.9955485966
  0
ARC
  5
5CF
100
AcDbEntity
  8
RACCORDO
100
AcDbCircle
 62
250
  6
CONTINUOUS
 10
230.8828386646
 20
114.5095000132
 40
63.95185907
100
AcDbArc
 50
183.827975595
 51
184.1590938787
  0
ARC
  5
5D0
100
AcDbEntity
  8
RACCORDO
100
AcDbCircle
 62
250
  6
CONTINUOUS
 10
225.4560957345
 20
119.9362266819
 40
63.9518438281
100
AcDbArc
 50
265.8409060769
 51
266.1720244396
  0
ARC
  5
5D1
100
AcDbEntity
  8
RACCORDO
100
AcDbCircle
 62
250
  6
CONTINUOUS
 10
221.473252328
 20
97.1285723085
 40
37.592585519
100
AcDbArc
 50
269.6102483438
 51
270.1453119575
  0
ARC
  5
5D2
100
AcDbEntity
  8
RACCORDO
100
AcDbCircle
 62
250
  6
CONTINUOUS
 10
218.6430621215
 20
107.6964653441
 40
10.9826972631
100
AcDbArc
 50
196.8086088295
 51
253.1913911706
  0
ARC
  5
5D3
100
AcDbEntity
  8
RACCORDO
100
AcDbCircle
 62
250
  6
CONTINUOUS
 10
218.6430621215
 20
107.6964653441
 40
9.982849568
100
AcDbArc
 50
196.8086088295
 51
253.1913911706
  0
ARC
  5
5D4
100
AcDbEntity
  8
RACCORDO
100
AcDbCircle
 62
250
  6
CONTINUOUS
 10
218.6430621215
 20
107.6964653441
 40
9.6415619032
100
AcDbArc
 50
196.3281881642
 51
253.671811836
  0
ARC
  5
5D5
100
AcDbEntity
  8
RACCORDO
100
AcDbCircle
 62
250
  6
CONTINUOUS
 10
218.6430621215
 20
107.6964653441
 40
7.6418665129
100
AcDbArc
 50
196.3281881642
 51
253.6718118359
  0
SPLINE
  5
5D6
100
AcDbEntity
  8
0
100
AcDbSpline
 62
7
  6
CONTINUOUS
 70
0
 71
3
 72
10
 73
6
 74
0
 42
0.0000001
 43
0.0000001
 44
0.0000000001
 40
0.0
 40
0.0
 40
0.0
 40
0.0
 40
0.5078401266
 40
0.7526492582
 40
1.0
 40
1.0
 40
1.0
 40
1.0
 10
279.919055875
 20
72.6865528254
 30
0.0
 10
279.9260599234
 20
72.6825090362
 30
0.0
 10
279.9357752584
 20
72.6748304946
 30
0.0
 10
279.9442359383
 20
72.6611706629
 30
0.0
 10
279.9464952455
 20
72.6535399445
 30
0.0
 10
279.947082075
 20
72.6496447307
 30
0.0
  0
LINE
  5
5D7
100
AcDbEntity
  8
0
100
AcDbLine
 62
7
  6
CONTINUOUS
 10
277.3465755967
 20
74.0460114689
 11
277.365610751
 21
74.0570014204
  0
SPLINE
  5
5D8
100
AcDbEntity
  8
0
100
AcDbSpline
 62
7
  6
CONTINUOUS
 70
0
 71
3
 72
10
 73
6
 74
0
 42
0.0000001
 43
0.0000001
 44
0.0000000001
 40
0.0
 40
0.0
 40
0.0
 40
0.0
 40
0.5078401266
 40
0.7526492582
 40
1.0
 40
1.0
 40
1.0
 40
1.0
 10
279.8554900151
 20
75.5679334164
 30
0.0
 10
279.8554900151
 20
75.5760209948
 30
0.0
 10
279.8572821597
 20
75.5882739925
 30
0.0
 10
279.864881581
 20
75.6024310722
 30
0.0
 10
279.8703603234
 20
75.6082030488
 30
0.0
 10
279.8734402627
 20
75.6106588649
 30
0.0
  0
SPLINE
  5
5D9
100
AcDbEntity
  8
0
100
AcDbSpline
 62
7
  6
CONTINUOUS
 70
0
 71
3
 72
10
 73
6
 74
0
 42
0.0000001
 43
0.0000001
 44
0.0000000001
 40
0.0
 40
0.0
 40
0.0
 40
0.0
 40
0.5335981172
 40
0.7846982988
 40
1.0
 40
1.0
 40
1.0
 40
1.0
 10
279.9522467649
 20
72.536858691
 30
0.0
 10
279.9527543594
 20
72.5569522384
 30
0.0
 10
279.9525105453
 20
72.5865432178
 30
0.0
 10
279.9501639032
 20
72.6241422186
 30
0.0
 10
279.948290266
 20
72.6416250901
 30
0.0
 10
279.947082075
 20
72.6496447307
 30
0.0
  0
SPLINE
  5
5DA
100
AcDbEntity
  8
0
100
AcDbSpline
 62
250
  6
CONTINUOUS
 70
0
 71
3
 72
18
 73
14
 74
0
 42
0.0000001
 43
0.0000001
 44
0.0000000001
 40
0.0
 40
0.0
 40
0.0
 40
0.0
 40
0.1868172755
 40
0.3708025824
 40
0.5430246493
 40
0.6959966619
 40
0.8229619093
 40
0.8748063312
 40
0.9181524795
 40
0.9525110123
 40
0.9775177108
 40
0.9931206704
 40
1.0
 40
1.0
 40
1.0
 40
1.0
 10
278.2946204499
 20
73.4938896901
 30
0.0
 10
278.2981134877
 20
73.5000339517
 30
0.0
 10
278.3051137225
 20
73.5121913477
 30
0.0
 10
278.315552303
 20
73.5298859627
 30
0.0
 10
278.325531205
 20
73.5463646344
 30
0.0
 10
278.3345912819
 20
73.5608733139
 30
0.0
 10
278.3414294791
 20
73.5714056328
 30
0.0
 10
278.3461591437
 20
73.5783458343
 30
0.0
 10
278.34901353
 20
73.5823482579
 30
0.0
 10
278.3513252781
 20
73.5854246742
 30
0.0
 10
278.3532216119
 20
73.587656984
 30
0.0
 10
278.3543529521
 20
73.5888257824
 30
0.0
 10
278.3552646221
 20
73.5894081262
 30
0.0
 10
278.3554900157
 20
73.5892779952
 30
0.0
  0
SPLINE
  5
5DB
100
AcDbEntity
  8
0
100
AcDbSpline
 62
7
  6
CONTINUOUS
 70
0
 71
3
 72
9
 73
5
 74
0
 42
0.0000001
 43
0.0000001
 44
0.0000000001
 40
0.0
 40
0.0
 40
0.0
 40
0.0
 40
0.509327518
 40
1.0
 40
1.0
 40
1.0
 40
1.0
 10
277.5804960858
 20
73.2435981928
 30
0.0
 10
277.583284575
 20
73.2496269728
 30
0.0
 10
277.5905250605
 20
73.2607538212
 30
0.0
 10
277.6008788421
 20
73.2690730855
 30
0.0
 10
277.6064206581
 20
73.2722726544
 30
0.0
  0
SPLINE
  5
5DC
100
AcDbEntity
  8
0
100
AcDbSpline
 62
250
  6
CONTINUOUS
 70
0
 71
3
 72
14
 73
10
 74
0
 42
0.0000001
 43
0.0000001
 44
0.0000000001
 40
0.0
 40
0.0
 40
0.0
 40
0.0
 40
0.3707314794
 40
0.6875496806
 40
0.8105153134
 40
0.9040622233
 40
0.9389574472
 40
0.9660056712
 40
1.0
 40
1.0
 40
1.0
 40
1.0
 10
278.1931711746
 20
73.4938896901
 30
0.0
 10
278.1866924032
 20
73.5050548851
 30
0.0
 10
278.1752773528
 20
73.5261119929
 30
0.0
 10
278.1633266958
 20
73.5517173748
 30
0.0
 10
278.1569414055
 20
73.5691780303
 30
0.0
 10
278.1545651414
 20
73.5776000844
 30
0.0
 10
278.153823979
 20
73.5830210065
 30
0.0
 10
278.1537563299
 20
73.5862620498
 30
0.0
 10
278.1544649248
 20
73.5886861593
 30
0.0
 10
278.1554900151
 20
73.5892779955
 30
0.0
  0
SPLINE
  5
5DD
100
AcDbEntity
  8
0
100
AcDbSpline
 62
7
  6
CONTINUOUS
 70
0
 71
3
 72
10
 73
6
 74
0
 42
0.0000001
 43
0.0000001
 44
0.0000000001
 40
0.0
 40
0.0
 40
0.0
 40
0.0
 40
0.2220116991
 40
0.4744029238
 40
1.0
 40
1.0
 40
1.0
 40
1.0
 10
280.5423544705
 20
73.264158547
 30
0.0
 10
280.5520964534
 20
73.2650413759
 30
0.0
 10
280.5727961675
 20
73.2681544824
 30
0.0
 10
280.6159454241
 20
73.2770888693
 30
0.0
 10
280.6490367695
 20
73.2862392485
 30
0.0
 10
280.6711044242
 20
73.2932613566
 30
0.0
  0
SPLINE
  5
5DE
100
AcDbEntity
  8
0
100
AcDbSpline
 62
7
  6
CONTINUOUS
 70
0
 71
3
 72
10
 73
6
 74
0
 42
0.0000001
 43
0.0000001
 44
0.0000000001
 40
0.0
 40
0.0
 40
0.0
 40
0.0
 40
0.5335981172
 40
0.7846982988
 40
1.0
 40
1.0
 40
1.0
 40
1.0
 10
279.9685334934
 20
75.6715246374
 30
0.0
 10
279.9508781736
 20
75.6619174534
 30
0.0
 10
279.9253735408
 20
75.6469108146
 30
0.0
 10
279.893985172
 20
75.6260790625
 30
0.0
 10
279.8797813797
 20
75.6157150093
 30
0.0
 10
279.8734402627
 20
75.6106588649
 30
0.0
  0
SPLINE
  5
5DF
100
AcDbEntity
  8
0
100
AcDbSpline
 62
250
  6
CONTINUOUS
 70
0
 71
3
 72
9
 73
5
 74
0
 42
0.0000001
 43
0.0000001
 44
0.0000000001
 40
0.0
 40
0.0
 40
0.0
 40
0.0
 40
0.5009888638
 40
1.0
 40
1.0
 40
1.0
 40
1.0
 10
277.2468893403
 20
74.0423433811
 30
0.0
 10
277.2464633496
 20
74.0539819355
 30
0.0
 10
277.2495641367
 20
74.0774670582
 30
0.0
 10
277.2591559914
 20
74.0989682317
 30
0.0
 10
277.2651612296
 20
74.1088932378
 30
0.0
  0
SPLINE
  5
5E0
100
AcDbEntity
  8
0
100
AcDbSpline
 62
250
  6
CONTINUOUS
 70
0
 71
3
 72
18
 73
14
 74
0
 42
0.0000001
 43
0.0000001
 44
0.0000000001
 40
0.0
 40
0.0
 40
0.0
 40
0.0
 40
0.186817292
 40
0.3708026352
 40
0.5430247167
 40
0.6959967215
 40
0.8229619566
 40
0.8748063687
 40
0.9181525051
 40
0.9525110308
 40
0.9775177237
 40
0.9931206769
 40
1.0
 40
1.0
 40
1.0
 40
1.0
 10
279.9685334934
 20
73.7574626391
 30
0.0
 10
279.9614658873
 20
73.7574155675
 30
0.0
 10
279.9474371543
 20
73.7573992504
 30
0.0
 10
279.9268938754
 20
73.7575920185
 30
0.0
 10
279.9076334746
 20
73.7579946655
 30
0.0
 10
279.8905385514
 20
73.7585865833
 30
0.0
 10
279.8779981983
 20
73.7592424771
 30
0.0
 10
279.8696229766
 20
73.7598683867
 30
0.0
 10
279.864729584
 20
73.7603391462
 30
0.0
 10
279.8609094564
 20
73.7608029707
 30
0.0
 10
279.858028053
 20
73.7613290886
 30
0.0
 10
279.8564501747
 20
73.7617244584
 30
0.0
 10
279.8554900151
 20
73.762222815
 30
0.0
 10
279.8554900151
 20
73.7624830769
 30
0.0
  0
SPLINE
  5
5E1
100
AcDbEntity
  8
0
100
AcDbSpline
 62
7
  6
CONTINUOUS
 70
0
 71
3
 72
9
 73
5
 74
0
 42
0.0000001
 43
0.0000001
 44
0.0000000001
 40
0.0
 40
0.0
 40
0.0
 40
0.0
 40
0.509327518
 40
1.0
 40
1.0
 40
1.0
 40
1.0
 10
280.5423544705
 20
73.264158547
 30
0.0
 10
280.5357391493
 20
73.2635590595
 30
0.0
 10
280.5224827731
 20
73.2642660797
 30
0.0
 10
280.5101011881
 20
73.2690730855
 30
0.0
 10
280.5045593722
 20
73.2722726544
 30
0.0
  0
SPLINE
  5
5E2
100
AcDbEntity
  8
0
100
AcDbSpline
 62
250
  6
CONTINUOUS
 70
0
 71
3
 72
14
 73
10
 74
0
 42
0.0000001
 43
0.0000001
 44
0.0000000001
 40
0.0
 40
0.0
 40
0.0
 40
0.0
 40
0.3707314794
 40
0.6875496805
 40
0.8105153133
 40
0.9040622233
 40
0.9389574471
 40
0.9660056712
 40
1.0
 40
1.0
 40
1.0
 40
1.0
 10
280.0192581311
 20
73.6696049895
 30
0.0
 10
280.0128281743
 20
73.6584116114
 30
0.0
 10
280.0002997093
 20
73.6379973339
 30
0.0
 10
279.9841001265
 20
73.6148450704
 30
0.0
 10
279.9721714004
 20
73.600584919
 30
0.0
 10
279.9660658197
 20
73.5943159869
 30
0.0
 10
279.9617417446
 20
73.5909636603
 30
0.0
 10
279.9589687433
 20
73.5892845529
 30
0.0
 10
279.9565151055
 20
73.5886861593
 30
0.0
 10
279.9554900151
 20
73.5892779955
 30
0.0
  0
SPLINE
  5
5E3
100
AcDbEntity
  8
0
100
AcDbSpline
 62
7
  6
CONTINUOUS
 70
0
 71
3
 72
10
 73
6
 74
0
 42
0.0000001
 43
0.0000001
 44
0.0000000001
 40
0.0
 40
0.0
 40
0.0
 40
0.0
 40
0.2220116991
 40
0.4744029238
 40
1.0
 40
1.0
 40
1.0
 40
1.0
 10
279.0436194891
 20
75.8189229735
 30
0.0
 10
279.0379839454
 20
75.8269183637
 30
0.0
 10
279.0249380591
 20
75.8432882887
 30
0.0
 10
278.9956260247
 20
75.8761894477
 30
0.0
 10
278.9711558911
 20
75.9002722038
 30
0.0
 10
278.9540407398
 20
75.9158722993
 30
0.0
  0
SPLINE
  5
5E4
100
AcDbEntity
  8
0
100
AcDbSpline
 62
250
  6
CONTINUOUS
 70
0
 71
3
 72
9
 73
5
 74
0
 42
0.0000001
 43
0.0000001
 44
0.0000000001
 40
0.0
 40
0.0
 40
0.0
 40
0.0
 40
0.2522825568
 40
1.0
 40
1.0
 40
1.0
 40
1.0
 10
277.2651612296
 20
74.1088932378
 30
0.0
 10
277.2683364919
 20
74.1141429574
 30
0.0
 10
277.2822901872
 20
74.1341019219
 30
0.0
 10
277.3013426058
 20
74.1504266054
 30
0.0
 10
277.3170898675
 20
74.1595192405
 30
0.0
  0
SPLINE
  5
5E5
100
AcDbEntity
  8
0
100
AcDbSpline
 62
250
  6
CONTINUOUS
 70
0
 71
3
 72
15
 73
11
 74
0
 42
0.0000001
 43
0.0000001
 44
0.0000000001
 40
0.0
 40
0.0
 40
0.0
 40
0.0
 40
0.3553058693
 40
0.5209439357
 40
0.6690563175
 40
0.7937244262
 40
0.8903697491
 40
0.927572225
 40
0.9575204844
 40
1.0
 40
1.0
 40
1.0
 40
1.0
 10
277.3170898675
 20
74.1595192405
 30
0.0
 10
277.3237614208
 20
74.1471767488
 30
0.0
 10
277.3343451755
 20
74.1294915585
 30
0.0
 10
277.3495157013
 20
74.1078521718
 30
0.0
 10
277.3602505562
 20
74.094252627
 30
0.0
 10
277.3701283879
 20
74.0834985561
 30
0.0
 10
277.3777958027
 20
74.0767080417
 30
0.0
 10
277.3833223736
 20
74.0732629053
 30
0.0
 10
277.3872372478
 20
74.0715385764
 30
0.0
 10
277.3904714688
 20
74.0713547625
 30
0.0
 10
277.3919241553
 20
74.0721934715
 30
0.0
  0
SPLINE
  5
5E6
100
AcDbEntity
  8
0
100
AcDbSpline
 62
250
  6
CONTINUOUS
 70
0
 71
3
 72
18
 73
14
 74
0
 42
0.0000001
 43
0.0000001
 44
0.0000000001
 40
0.0
 40
0.0
 40
0.0
 40
0.0
 40
0.1868172755
 40
0.3708025823
 40
0.5430246492
 40
0.6959966618
 40
0.8229619093
 40
0.8748063312
 40
0.9181524795
 40
0.9525110123
 40
0.9775177108
 40
0.9931206704
 40
1.0
 40
1.0
 40
1.0
 40
1.0
 10
278.9033161021
 20
75.075327384
 30
0.0
 10
278.9068906698
 20
75.0692301938
 30
0.0
 10
278.9139191661
 20
75.0570891146
 30
0.0
 10
278.924023862
 20
75.0392017312
 30
0.0
 10
278.9333053594
 20
75.0223204127
 30
0.0
 10
278.9413402059
 20
75.0072198162
 30
0.0
 10
278.9470423631
 20
74.9960316043
 30
0.0
 10
278.9506879215
 20
74.9884654939
 30
0.0
 10
278.952726929
 20
74.983992311
 30
0.0
 10
278.9542353095
 20
74.9804520703
 30
0.0
 10
278.9552203796
 20
74.9776936421
 30
0.0
 10
278.9556669186
 20
74.9761294736
 30
0.0
 10
278.9557154082
 20
74.9750487723
 30
0.0
 10
278.9554900146
 20
74.9749186412
 30
0.0
  0
SPLINE
  5
5E7
100
AcDbEntity
  8
0
100
AcDbSpline
 62
7
  6
CONTINUOUS
 70
0
 71
3
 72
9
 73
5
 74
0
 42
0.0000001
 43
0.0000001
 44
0.0000000001
 40
0.0
 40
0.0
 40
0.0
 40
0.0
 40
0.509327518
 40
1.0
 40
1.0
 40
1.0
 40
1.0
 10
279.0436194891
 20
75.8189229735
 30
0.0
 10
279.0474463211
 20
75.813493681
 30
0.0
 10
279.0534622118
 20
75.8016598124
 30
0.0
 10
279.0554900151
 20
75.7885335423
 30
0.0
 10
279.0554900151
 20
75.7821344045
 30
0.0
  0
SPLINE
  5
5E8
100
AcDbEntity
  8
0
100
AcDbSpline
 62
250
  6
CONTINUOUS
 70
0
 71
3
 72
14
 73
10
 74
0
 42
0.0000001
 43
0.0000001
 44
0.0000000001
 40
0.0
 40
0.0
 40
0.0
 40
0.0
 40
0.3707314794
 40
0.6875496805
 40
0.8105153133
 40
0.9040622233
 40
0.9389574471
 40
0.9660056712
 40
1.0
 40
1.0
 40
1.0
 40
1.0
 10
278.9540407398
 20
75.1631850337
 30
0.0
 10
278.966949468
 20
75.1632132167
 30
0.0
 10
278.9908929834
 20
75.1625703865
 30
0.0
 10
279.0190432231
 20
75.1601172681
 30
0.0
 10
279.0373572395
 20
75.156916764
 30
0.0
 10
279.0458390843
 20
75.154763642
 30
0.0
 10
279.0509043218
 20
75.1526950464
 30
0.0
 10
279.0537449722
 20
75.1511331106
 30
0.0
 10
279.0554900151
 20
75.1493073946
 30
0.0
 10
279.0554900151
 20
75.1481237223
 30
0.0
  0
SPLINE
  5
5E9
100
AcDbEntity
  8
0
100
AcDbSpline
 62
7
  6
CONTINUOUS
 70
0
 71
3
 72
10
 73
6
 74
0
 42
0.0000001
 43
0.0000001
 44
0.0000000001
 40
0.0
 40
0.0
 40
0.0
 40
0.0
 40
0.2220116991
 40
0.4744029238
 40
1.0
 40
1.0
 40
1.0
 40
1.0
 10
277.5804960858
 20
73.2435981928
 30
0.0
 10
277.5763896466
 20
73.2347199737
 30
0.0
 10
277.5687358188
 20
73.2152369422
 30
0.0
 10
277.5548985966
 20
73.1734013963
 30
0.0
 10
277.5462773848
 20
73.140168261
 30
0.0
 10
277.5413248814
 20
73.1175460573
 30
0.0
  0
SPLINE
  5
5EA
100
AcDbEntity
  8
0
100
AcDbSpline
 62
7
  6
CONTINUOUS
 70
0
 71
3
 72
10
 73
6
 74
0
 42
0.0000001
 43
0.0000001
 44
0.0000000001
 40
0.0
 40
0.0
 40
0.0
 40
0.0
 40
0.5078401266
 40
0.7526492582
 40
1.0
 40
1.0
 40
1.0
 40
1.0
 10
185.919055875
 20
-21.3134471746
 30
0.0
 10
185.9260599234
 20
-21.3174909638
 30
0.0
 10
185.9357752584
 20
-21.3251695054
 30
0.0
 10
185.9442359383
 20
-21.3388293371
 30
0.0
 10
185.9464952455
 20
-21.3464600555
 30
0.0
 10
185.947082075
 20
-21.3503552693
 30
0.0
  0
LINE
  5
5EB
100
AcDbEntity
  8
0
100
AcDbLine
 62
7
  6
CONTINUOUS
 10
183.3465755967
 20
-19.9539885311
 11
183.365610751
 21
-19.9429985796
  0
SPLINE
  5
5EC
100
AcDbEntity
  8
0
100
AcDbSpline
 62
7
  6
CONTINUOUS
 70
0
 71
3
 72
10
 73
6
 74
0
 42
0.0000001
 43
0.0000001
 44
0.0000000001
 40
0.0
 40
0.0
 40
0.0
 40
0.0
 40
0.5078401266
 40
0.7526492582
 40
1.0
 40
1.0
 40
1.0
 40
1.0
 10
185.8554900151
 20
-18.4320665836
 30
0.0
 10
185.8554900151
 20
-18.4239790052
 30
0.0
 10
185.8572821597
 20
-18.4117260075
 30
0.0
 10
185.864881581
 20
-18.3975689278
 30
0.0
 10
185.8703603234
 20
-18.3917969512
 30
0.0
 10
185.8734402627
 20
-18.3893411351
 30
0.0
  0
SPLINE
  5
5ED
100
AcDbEntity
  8
0
100
AcDbSpline
 62
7
  6
CONTINUOUS
 70
0
 71
3
 72
10
 73
6
 74
0
 42
0.0000001
 43
0.0000001
 44
0.0000000001
 40
0.0
 40
0.0
 40
0.0
 40
0.0
 40
0.5335981172
 40
0.7846982988
 40
1.0
 40
1.0
 40
1.0
 40
1.0
 10
185.9522467649
 20
-21.463141309
 30
0.0
 10
185.9527543594
 20
-21.4430477616
 30
0.0
 10
185.9525105453
 20
-21.4134567822
 30
0.0
 10
185.9501639032
 20
-21.3758577814
 30
0.0
 10
185.948290266
 20
-21.3583749099
 30
0.0
 10
185.947082075
 20
-21.3503552693
 30
0.0
  0
SPLINE
  5
5EE
100
AcDbEntity
  8
0
100
AcDbSpline
 62
250
  6
CONTINUOUS
 70
0
 71
3
 72
18
 73
14
 74
0
 42
0.0000001
 43
0.0000001
 44
0.0000000001
 40
0.0
 40
0.0
 40
0.0
 40
0.0
 40
0.1868172755
 40
0.3708025824
 40
0.5430246493
 40
0.6959966619
 40
0.8229619093
 40
0.8748063312
 40
0.9181524795
 40
0.9525110123
 40
0.9775177108
 40
0.9931206704
 40
1.0
 40
1.0
 40
1.0
 40
1.0
 10
184.2946204499
 20
-20.5061103099
 30
0.0
 10
184.2981134877
 20
-20.4999660483
 30
0.0
 10
184.3051137225
 20
-20.4878086523
 30
0.0
 10
184.315552303
 20
-20.4701140373
 30
0.0
 10
184.325531205
 20
-20.4536353656
 30
0.0
 10
184.3345912819
 20
-20.4391266861
 30
0.0
 10
184.3414294791
 20
-20.4285943672
 30
0.0
 10
184.3461591437
 20
-20.4216541657
 30
0.0
 10
184.34901353
 20
-20.4176517421
 30
0.0
 10
184.3513252781
 20
-20.4145753258
 30
0.0
 10
184.3532216119
 20
-20.412343016
 30
0.0
 10
184.3543529521
 20
-20.4111742176
 30
0.0
 10
184.3552646221
 20
-20.4105918738
 30
0.0
 10
184.3554900157
 20
-20.4107220048
 30
0.0
  0
SPLINE
  5
5EF
100
AcDbEntity
  8
0
100
AcDbSpline
 62
7
  6
CONTINUOUS
 70
0
 71
3
 72
9
 73
5
 74
0
 42
0.0000001
 43
0.0000001
 44
0.0000000001
 40
0.0
 40
0.0
 40
0.0
 40
0.0
 40
0.509327518
 40
1.0
 40
1.0
 40
1.0
 40
1.0
 10
183.5804960858
 20
-20.7564018072
 30
0.0
 10
183.583284575
 20
-20.7503730272
 30
0.0
 10
183.5905250605
 20
-20.7392461788
 30
0.0
 10
183.6008788421
 20
-20.7309269145
 30
0.0
 10
183.6064206581
 20
-20.7277273456
 30
0.0
  0
SPLINE
  5
5F0
100
AcDbEntity
  8
0
100
AcDbSpline
 62
250
  6
CONTINUOUS
 70
0
 71
3
 72
14
 73
10
 74
0
 42
0.0000001
 43
0.0000001
 44
0.0000000001
 40
0.0
 40
0.0
 40
0.0
 40
0.0
 40
0.3707314794
 40
0.6875496806
 40
0.8105153134
 40
0.9040622233
 40
0.9389574472
 40
0.9660056712
 40
1.0
 40
1.0
 40
1.0
 40
1.0
 10
184.1931711746
 20
-20.5061103099
 30
0.0
 10
184.1866924032
 20
-20.4949451149
 30
0.0
 10
184.1752773528
 20
-20.4738880071
 30
0.0
 10
184.1633266958
 20
-20.4482826252
 30
0.0
 10
184.1569414055
 20
-20.4308219697
 30
0.0
 10
184.1545651414
 20
-20.4223999156
 30
0.0
 10
184.153823979
 20
-20.4169789935
 30
0.0
 10
184.1537563299
 20
-20.4137379502
 30
0.0
 10
184.1544649248
 20
-20.4113138407
 30
0.0
 10
184.1554900151
 20
-20.4107220045
 30
0.0
  0
SPLINE
  5
5F1
100
AcDbEntity
  8
0
100
AcDbSpline
 62
7
  6
CONTINUOUS
 70
0
 71
3
 72
10
 73
6
 74
0
 42
0.0000001
 43
0.0000001
 44
0.0000000001
 40
0.0
 40
0.0
 40
0.0
 40
0.0
 40
0.2220116991
 40
0.4744029238
 40
1.0
 40
1.0
 40
1.0
 40
1.0
 10
186.5423544705
 20
-20.735841453
 30
0.0
 10
186.5520964534
 20
-20.7349586241
 30
0.0
 10
186.5727961675
 20
-20.7318455176
 30
0.0
 10
186.6159454241
 20
-20.7229111307
 30
0.0
 10
186.6490367695
 20
-20.7137607515
 30
0.0
 10
186.6711044242
 20
-20.7067386434
 30
0.0
  0
SPLINE
  5
5F2
100
AcDbEntity
  8
0
100
AcDbSpline
 62
7
  6
CONTINUOUS
 70
0
 71
3
 72
10
 73
6
 74
0
 42
0.0000001
 43
0.0000001
 44
0.0000000001
 40
0.0
 40
0.0
 40
0.0
 40
0.0
 40
0.5335981172
 40
0.7846982988
 40
1.0
 40
1.0
 40
1.0
 40
1.0
 10
185.9685334934
 20
-18.3284753626
 30
0.0
 10
185.9508781736
 20
-18.3380825466
 30
0.0
 10
185.9253735408
 20
-18.3530891854
 30
0.0
 10
185.893985172
 20
-18.3739209375
 30
0.0
 10
185.8797813797
 20
-18.3842849907
 30
0.0
 10
185.8734402627
 20
-18.3893411351
 30
0.0
  0
SPLINE
  5
5F3
100
AcDbEntity
  8
0
100
AcDbSpline
 62
250
  6
CONTINUOUS
 70
0
 71
3
 72
9
 73
5
 74
0
 42
0.0000001
 43
0.0000001
 44
0.0000000001
 40
0.0
 40
0.0
 40
0.0
 40
0.0
 40
0.5009888638
 40
1.0
 40
1.0
 40
1.0
 40
1.0
 10
183.2468893403
 20
-19.9576566189
 30
0.0
 10
183.2464633496
 20
-19.9460180645
 30
0.0
 10
183.2495641367
 20
-19.9225329418
 30
0.0
 10
183.2591559914
 20
-19.9010317683
 30
0.0
 10
183.2651612296
 20
-19.8911067622
 30
0.0
  0
SPLINE
  5
5F4
100
AcDbEntity
  8
0
100
AcDbSpline
 62
250
  6
CONTINUOUS
 70
0
 71
3
 72
18
 73
14
 74
0
 42
0.0000001
 43
0.0000001
 44
0.0000000001
 40
0.0
 40
0.0
 40
0.0
 40
0.0
 40
0.186817292
 40
0.3708026352
 40
0.5430247167
 40
0.6959967215
 40
0.8229619566
 40
0.8748063687
 40
0.9181525051
 40
0.9525110308
 40
0.9775177237
 40
0.9931206769
 40
1.0
 40
1.0
 40
1.0
 40
1.0
 10
185.9685334934
 20
-20.2425373609
 30
0.0
 10
185.9614658873
 20
-20.2425844325
 30
0.0
 10
185.9474371543
 20
-20.2426007496
 30
0.0
 10
185.9268938754
 20
-20.2424079815
 30
0.0
 10
185.9076334746
 20
-20.2420053345
 30
0.0
 10
185.8905385514
 20
-20.2414134167
 30
0.0
 10
185.8779981983
 20
-20.2407575229
 30
0.0
 10
185.8696229766
 20
-20.2401316133
 30
0.0
 10
185.864729584
 20
-20.2396608538
 30
0.0
 10
185.8609094564
 20
-20.2391970293
 30
0.0
 10
185.858028053
 20
-20.2386709114
 30
0.0
 10
185.8564501747
 20
-20.2382755416
 30
0.0
 10
185.8554900151
 20
-20.237777185
 30
0.0
 10
185.8554900151
 20
-20.2375169231
 30
0.0
  0
SPLINE
  5
5F5
100
AcDbEntity
  8
0
100
AcDbSpline
 62
7
  6
CONTINUOUS
 70
0
 71
3
 72
9
 73
5
 74
0
 42
0.0000001
 43
0.0000001
 44
0.0000000001
 40
0.0
 40
0.0
 40
0.0
 40
0.0
 40
0.509327518
 40
1.0
 40
1.0
 40
1.0
 40
1.0
 10
186.5423544705
 20
-20.735841453
 30
0.0
 10
186.5357391493
 20
-20.7364409405
 30
0.0
 10
186.5224827731
 20
-20.7357339203
 30
0.0
 10
186.5101011881
 20
-20.7309269145
 30
0.0
 10
186.5045593722
 20
-20.7277273456
 30
0.0
  0
SPLINE
  5
5F6
100
AcDbEntity
  8
0
100
AcDbSpline
 62
250
  6
CONTINUOUS
 70
0
 71
3
 72
14
 73
10
 74
0
 42
0.0000001
 43
0.0000001
 44
0.0000000001
 40
0.0
 40
0.0
 40
0.0
 40
0.0
 40
0.3707314794
 40
0.6875496805
 40
0.8105153133
 40
0.9040622233
 40
0.9389574471
 40
0.9660056712
 40
1.0
 40
1.0
 40
1.0
 40
1.0
 10
186.0192581311
 20
-20.3303950105
 30
0.0
 10
186.0128281743
 20
-20.3415883886
 30
0.0
 10
186.0002997093
 20
-20.3620026661
 30
0.0
 10
185.9841001265
 20
-20.3851549296
 30
0.0
 10
185.9721714004
 20
-20.399415081
 30
0.0
 10
185.9660658197
 20
-20.4056840131
 30
0.0
 10
185.9617417446
 20
-20.4090363397
 30
0.0
 10
185.9589687433
 20
-20.4107154471
 30
0.0
 10
185.9565151055
 20
-20.4113138407
 30
0.0
 10
185.9554900151
 20
-20.4107220045
 30
0.0
  0
SPLINE
  5
5F7
100
AcDbEntity
  8
0
100
AcDbSpline
 62
7
  6
CONTINUOUS
 70
0
 71
3
 72
10
 73
6
 74
0
 42
0.0000001
 43
0.0000001
 44
0.0000000001
 40
0.0
 40
0.0
 40
0.0
 40
0.0
 40
0.2220116991
 40
0.4744029238
 40
1.0
 40
1.0
 40
1.0
 40
1.0
 10
185.0436194891
 20
-18.1810770265
 30
0.0
 10
185.0379839454
 20
-18.1730816363
 30
0.0
 10
185.0249380591
 20
-18.1567117113
 30
0.0
 10
184.9956260247
 20
-18.1238105523
 30
0.0
 10
184.9711558911
 20
-18.0997277962
 30
0.0
 10
184.9540407398
 20
-18.0841277007
 30
0.0
  0
SPLINE
  5
5F8
100
AcDbEntity
  8
0
100
AcDbSpline
 62
250
  6
CONTINUOUS
 70
0
 71
3
 72
9
 73
5
 74
0
 42
0.0000001
 43
0.0000001
 44
0.0000000001
 40
0.0
 40
0.0
 40
0.0
 40
0.0
 40
0.2522825568
 40
1.0
 40
1.0
 40
1.0
 40
1.0
 10
183.2651612296
 20
-19.8911067622
 30
0.0
 10
183.2683364919
 20
-19.8858570426
 30
0.0
 10
183.2822901872
 20
-19.8658980781
 30
0.0
 10
183.3013426058
 20
-19.8495733946
 30
0.0
 10
183.3170898675
 20
-19.8404807595
 30
0.0
  0
SPLINE
  5
5F9
100
AcDbEntity
  8
0
100
AcDbSpline
 62
250
  6
CONTINUOUS
 70
0
 71
3
 72
15
 73
11
 74
0
 42
0.0000001
 43
0.0000001
 44
0.0000000001
 40
0.0
 40
0.0
 40
0.0
 40
0.0
 40
0.3553058693
 40
0.5209439357
 40
0.6690563175
 40
0.7937244262
 40
0.8903697491
 40
0.927572225
 40
0.9575204844
 40
1.0
 40
1.0
 40
1.0
 40
1.0
 10
183.3170898675
 20
-19.8404807595
 30
0.0
 10
183.3237614208
 20
-19.8528232512
 30
0.0
 10
183.3343451755
 20
-19.8705084415
 30
0.0
 10
183.3495157013
 20
-19.8921478282
 30
0.0
 10
183.3602505562
 20
-19.905747373
 30
0.0
 10
183.3701283879
 20
-19.9165014439
 30
0.0
 10
183.3777958027
 20
-19.9232919583
 30
0.0
 10
183.3833223736
 20
-19.9267370947
 30
0.0
 10
183.3872372478
 20
-19.9284614236
 30
0.0
 10
183.3904714688
 20
-19.9286452375
 30
0.0
 10
183.3919241553
 20
-19.9278065285
 30
0.0
  0
SPLINE
  5
5FA
100
AcDbEntity
  8
0
100
AcDbSpline
 62
250
  6
CONTINUOUS
 70
0
 71
3
 72
18
 73
14
 74
0
 42
0.0000001
 43
0.0000001
 44
0.0000000001
 40
0.0
 40
0.0
 40
0.0
 40
0.0
 40
0.1868172755
 40
0.3708025823
 40
0.5430246492
 40
0.6959966618
 40
0.8229619093
 40
0.8748063312
 40
0.9181524795
 40
0.9525110123
 40
0.9775177108
 40
0.9931206704
 40
1.0
 40
1.0
 40
1.0
 40
1.0
 10
184.9033161021
 20
-18.924672616
 30
0.0
 10
184.9068906698
 20
-18.9307698062
 30
0.0
 10
184.9139191661
 20
-18.9429108854
 30
0.0
 10
184.924023862
 20
-18.9607982688
 30
0.0
 10
184.9333053594
 20
-18.9776795873
 30
0.0
 10
184.9413402059
 20
-18.9927801838
 30
0.0
 10
184.9470423631
 20
-19.0039683957
 30
0.0
 10
184.9506879215
 20
-19.0115345061
 30
0.0
 10
184.952726929
 20
-19.016007689
 30
0.0
 10
184.9542353095
 20
-19.0195479297
 30
0.0
 10
184.9552203796
 20
-19.0223063579
 30
0.0
 10
184.9556669186
 20
-19.0238705264
 30
0.0
 10
184.9557154082
 20
-19.0249512277
 30
0.0
 10
184.9554900146
 20
-19.0250813588
 30
0.0
  0
SPLINE
  5
5FB
100
AcDbEntity
  8
0
100
AcDbSpline
 62
7
  6
CONTINUOUS
 70
0
 71
3
 72
9
 73
5
 74
0
 42
0.0000001
 43
0.0000001
 44
0.0000000001
 40
0.0
 40
0.0
 40
0.0
 40
0.0
 40
0.509327518
 40
1.0
 40
1.0
 40
1.0
 40
1.0
 10
185.0436194891
 20
-18.1810770265
 30
0.0
 10
185.0474463211
 20
-18.186506319
 30
0.0
 10
185.0534622118
 20
-18.1983401876
 30
0.0
 10
185.0554900151
 20
-18.2114664577
 30
0.0
 10
185.0554900151
 20
-18.2178655955
 30
0.0
  0
SPLINE
  5
5FC
100
AcDbEntity
  8
0
100
AcDbSpline
 62
250
  6
CONTINUOUS
 70
0
 71
3
 72
14
 73
10
 74
0
 42
0.0000001
 43
0.0000001
 44
0.0000000001
 40
0.0
 40
0.0
 40
0.0
 40
0.0
 40
0.3707314794
 40
0.6875496805
 40
0.8105153133
 40
0.9040622233
 40
0.9389574471
 40
0.9660056712
 40
1.0
 40
1.0
 40
1.0
 40
1.0
 10
184.9540407398
 20
-18.8368149663
 30
0.0
 10
184.966949468
 20
-18.8367867833
 30
0.0
 10
184.9908929834
 20
-18.8374296135
 30
0.0
 10
185.0190432231
 20
-18.8398827319
 30
0.0
 10
185.0373572395
 20
-18.843083236
 30
0.0
 10
185.0458390843
 20
-18.845236358
 30
0.0
 10
185.0509043218
 20
-18.8473049536
 30
0.0
 10
185.0537449722
 20
-18.8488668894
 30
0.0
 10
185.0554900151
 20
-18.8506926054
 30
0.0
 10
185.0554900151
 20
-18.8518762777
 30
0.0
  0
SPLINE
  5
5FD
100
AcDbEntity
  8
0
100
AcDbSpline
 62
7
  6
CONTINUOUS
 70
0
 71
3
 72
10
 73
6
 74
0
 42
0.0000001
 43
0.0000001
 44
0.0000000001
 40
0.0
 40
0.0
 40
0.0
 40
0.0
 40
0.2220116991
 40
0.4744029238
 40
1.0
 40
1.0
 40
1.0
 40
1.0
 10
183.5804960858
 20
-20.7564018072
 30
0.0
 10
183.5763896466
 20
-20.7652800263
 30
0.0
 10
183.5687358188
 20
-20.7847630578
 30
0.0
 10
183.5548985966
 20
-20.8265986037
 30
0.0
 10
183.5462773848
 20
-20.859831739
 30
0.0
 10
183.5413248814
 20
-20.8824539427
 30
0.0
  0
SPLINE
  5
5FE
100
AcDbEntity
  8
0
100
AcDbSpline
 62
7
  6
CONTINUOUS
 70
0
 71
3
 72
10
 73
6
 74
0
 42
0.0000001
 43
0.0000001
 44
0.0000000001
 40
0.0
 40
0.0
 40
0.0
 40
0.0
 40
0.5078401266
 40
0.7526492582
 40
1.0
 40
1.0
 40
1.0
 40
1.0
 10
91.919055875
 20
72.6865528254
 30
0.0
 10
91.9260599234
 20
72.6825090362
 30
0.0
 10
91.9357752584
 20
72.6748304946
 30
0.0
 10
91.9442359383
 20
72.6611706629
 30
0.0
 10
91.9464952455
 20
72.6535399445
 30
0.0
 10
91.947082075
 20
72.6496447307
 30
0.0
  0
LINE
  5
5FF
100
AcDbEntity
  8
0
100
AcDbLine
 62
7
  6
CONTINUOUS
 10
89.3465755967
 20
74.0460114689
 11
89.365610751
 21
74.0570014204
  0
SPLINE
  5
600
100
AcDbEntity
  8
0
100
AcDbSpline
 62
7
  6
CONTINUOUS
 70
0
 71
3
 72
10
 73
6
 74
0
 42
0.0000001
 43
0.0000001
 44
0.0000000001
 40
0.0
 40
0.0
 40
0.0
 40
0.0
 40
0.5078401266
 40
0.7526492582
 40
1.0
 40
1.0
 40
1.0
 40
1.0
 10
91.8554900151
 20
75.5679334164
 30
0.0
 10
91.8554900151
 20
75.5760209948
 30
0.0
 10
91.8572821597
 20
75.5882739925
 30
0.0
 10
91.864881581
 20
75.6024310722
 30
0.0
 10
91.8703603234
 20
75.6082030488
 30
0.0
 10
91.8734402627
 20
75.6106588649
 30
0.0
  0
SPLINE
  5
601
100
AcDbEntity
  8
0
100
AcDbSpline
 62
7
  6
CONTINUOUS
 70
0
 71
3
 72
10
 73
6
 74
0
 42
0.0000001
 43
0.0000001
 44
0.0000000001
 40
0.0
 40
0.0
 40
0.0
 40
0.0
 40
0.5335981172
 40
0.7846982988
 40
1.0
 40
1.0
 40
1.0
 40
1.0
 10
91.9522467649
 20
72.536858691
 30
0.0
 10
91.9527543594
 20
72.5569522384
 30
0.0
 10
91.9525105453
 20
72.5865432178
 30
0.0
 10
91.9501639032
 20
72.6241422186
 30
0.0
 10
91.948290266
 20
72.6416250901
 30
0.0
 10
91.947082075
 20
72.6496447307
 30
0.0
  0
SPLINE
  5
602
100
AcDbEntity
  8
0
100
AcDbSpline
 62
250
  6
CONTINUOUS
 70
0
 71
3
 72
18
 73
14
 74
0
 42
0.0000001
 43
0.0000001
 44
0.0000000001
 40
0.0
 40
0.0
 40
0.0
 40
0.0
 40
0.1868172755
 40
0.3708025824
 40
0.5430246493
 40
0.6959966619
 40
0.8229619093
 40
0.8748063312
 40
0.9181524795
 40
0.9525110123
 40
0.9775177108
 40
0.9931206704
 40
1.0
 40
1.0
 40
1.0
 40
1.0
 10
90.2946204499
 20
73.4938896901
 30
0.0
 10
90.2981134877
 20
73.5000339517
 30
0.0
 10
90.3051137225
 20
73.5121913477
 30
0.0
 10
90.315552303
 20
73.5298859627
 30
0.0
 10
90.325531205
 20
73.5463646344
 30
0.0
 10
90.3345912819
 20
73.5608733139
 30
0.0
 10
90.3414294791
 20
73.5714056328
 30
0.0
 10
90.3461591437
 20
73.5783458343
 30
0.0
 10
90.34901353
 20
73.5823482579
 30
0.0
 10
90.3513252781
 20
73.5854246742
 30
0.0
 10
90.3532216119
 20
73.587656984
 30
0.0
 10
90.3543529521
 20
73.5888257824
 30
0.0
 10
90.3552646221
 20
73.5894081262
 30
0.0
 10
90.3554900157
 20
73.5892779952
 30
0.0
  0
SPLINE
  5
603
100
AcDbEntity
  8
0
100
AcDbSpline
 62
7
  6
CONTINUOUS
 70
0
 71
3
 72
9
 73
5
 74
0
 42
0.0000001
 43
0.0000001
 44
0.0000000001
 40
0.0
 40
0.0
 40
0.0
 40
0.0
 40
0.509327518
 40
1.0
 40
1.0
 40
1.0
 40
1.0
 10
89.5804960858
 20
73.2435981928
 30
0.0
 10
89.583284575
 20
73.2496269728
 30
0.0
 10
89.5905250605
 20
73.2607538212
 30
0.0
 10
89.6008788421
 20
73.2690730855
 30
0.0
 10
89.6064206581
 20
73.2722726544
 30
0.0
  0
SPLINE
  5
604
100
AcDbEntity
  8
0
100
AcDbSpline
 62
250
  6
CONTINUOUS
 70
0
 71
3
 72
14
 73
10
 74
0
 42
0.0000001
 43
0.0000001
 44
0.0000000001
 40
0.0
 40
0.0
 40
0.0
 40
0.0
 40
0.3707314794
 40
0.6875496806
 40
0.8105153134
 40
0.9040622233
 40
0.9389574472
 40
0.9660056712
 40
1.0
 40
1.0
 40
1.0
 40
1.0
 10
90.1931711746
 20
73.4938896901
 30
0.0
 10
90.1866924032
 20
73.5050548851
 30
0.0
 10
90.1752773528
 20
73.5261119929
 30
0.0
 10
90.1633266958
 20
73.5517173748
 30
0.0
 10
90.1569414055
 20
73.5691780303
 30
0.0
 10
90.1545651414
 20
73.5776000844
 30
0.0
 10
90.153823979
 20
73.5830210065
 30
0.0
 10
90.1537563299
 20
73.5862620498
 30
0.0
 10
90.1544649248
 20
73.5886861593
 30
0.0
 10
90.1554900151
 20
73.5892779955
 30
0.0
  0
SPLINE
  5
605
100
AcDbEntity
  8
0
100
AcDbSpline
 62
7
  6
CONTINUOUS
 70
0
 71
3
 72
10
 73
6
 74
0
 42
0.0000001
 43
0.0000001
 44
0.0000000001
 40
0.0
 40
0.0
 40
0.0
 40
0.0
 40
0.2220116991
 40
0.4744029238
 40
1.0
 40
1.0
 40
1.0
 40
1.0
 10
92.5423544705
 20
73.264158547
 30
0.0
 10
92.5520964534
 20
73.2650413759
 30
0.0
 10
92.5727961675
 20
73.2681544824
 30
0.0
 10
92.6159454241
 20
73.2770888693
 30
0.0
 10
92.6490367695
 20
73.2862392485
 30
0.0
 10
92.6711044242
 20
73.2932613566
 30
0.0
  0
SPLINE
  5
606
100
AcDbEntity
  8
0
100
AcDbSpline
 62
7
  6
CONTINUOUS
 70
0
 71
3
 72
10
 73
6
 74
0
 42
0.0000001
 43
0.0000001
 44
0.0000000001
 40
0.0
 40
0.0
 40
0.0
 40
0.0
 40
0.5335981172
 40
0.7846982988
 40
1.0
 40
1.0
 40
1.0
 40
1.0
 10
91.9685334934
 20
75.6715246374
 30
0.0
 10
91.9508781736
 20
75.6619174534
 30
0.0
 10
91.9253735408
 20
75.6469108146
 30
0.0
 10
91.893985172
 20
75.6260790625
 30
0.0
 10
91.8797813797
 20
75.6157150093
 30
0.0
 10
91.8734402627
 20
75.6106588649
 30
0.0
  0
SPLINE
  5
607
100
AcDbEntity
  8
0
100
AcDbSpline
 62
250
  6
CONTINUOUS
 70
0
 71
3
 72
9
 73
5
 74
0
 42
0.0000001
 43
0.0000001
 44
0.0000000001
 40
0.0
 40
0.0
 40
0.0
 40
0.0
 40
0.5009888638
 40
1.0
 40
1.0
 40
1.0
 40
1.0
 10
89.2468893403
 20
74.0423433811
 30
0.0
 10
89.2464633496
 20
74.0539819355
 30
0.0
 10
89.2495641367
 20
74.0774670582
 30
0.0
 10
89.2591559914
 20
74.0989682317
 30
0.0
 10
89.2651612296
 20
74.1088932378
 30
0.0
  0
SPLINE
  5
608
100
AcDbEntity
  8
0
100
AcDbSpline
 62
250
  6
CONTINUOUS
 70
0
 71
3
 72
18
 73
14
 74
0
 42
0.0000001
 43
0.0000001
 44
0.0000000001
 40
0.0
 40
0.0
 40
0.0
 40
0.0
 40
0.186817292
 40
0.3708026352
 40
0.5430247167
 40
0.6959967215
 40
0.8229619566
 40
0.8748063687
 40
0.9181525051
 40
0.9525110308
 40
0.9775177237
 40
0.9931206769
 40
1.0
 40
1.0
 40
1.0
 40
1.0
 10
91.9685334934
 20
73.7574626391
 30
0.0
 10
91.9614658873
 20
73.7574155675
 30
0.0
 10
91.9474371543
 20
73.7573992504
 30
0.0
 10
91.9268938754
 20
73.7575920185
 30
0.0
 10
91.9076334746
 20
73.7579946655
 30
0.0
 10
91.8905385514
 20
73.7585865833
 30
0.0
 10
91.8779981983
 20
73.7592424771
 30
0.0
 10
91.8696229766
 20
73.7598683867
 30
0.0
 10
91.864729584
 20
73.7603391462
 30
0.0
 10
91.8609094564
 20
73.7608029707
 30
0.0
 10
91.858028053
 20
73.7613290886
 30
0.0
 10
91.8564501747
 20
73.7617244584
 30
0.0
 10
91.8554900151
 20
73.762222815
 30
0.0
 10
91.8554900151
 20
73.7624830769
 30
0.0
  0
SPLINE
  5
609
100
AcDbEntity
  8
0
100
AcDbSpline
 62
7
  6
CONTINUOUS
 70
0
 71
3
 72
9
 73
5
 74
0
 42
0.0000001
 43
0.0000001
 44
0.0000000001
 40
0.0
 40
0.0
 40
0.0
 40
0.0
 40
0.509327518
 40
1.0
 40
1.0
 40
1.0
 40
1.0
 10
92.5423544705
 20
73.264158547
 30
0.0
 10
92.5357391493
 20
73.2635590595
 30
0.0
 10
92.5224827731
 20
73.2642660797
 30
0.0
 10
92.5101011881
 20
73.2690730855
 30
0.0
 10
92.5045593722
 20
73.2722726544
 30
0.0
  0
SPLINE
  5
60A
100
AcDbEntity
  8
0
100
AcDbSpline
 62
250
  6
CONTINUOUS
 70
0
 71
3
 72
14
 73
10
 74
0
 42
0.0000001
 43
0.0000001
 44
0.0000000001
 40
0.0
 40
0.0
 40
0.0
 40
0.0
 40
0.3707314794
 40
0.6875496805
 40
0.8105153133
 40
0.9040622233
 40
0.9389574471
 40
0.9660056712
 40
1.0
 40
1.0
 40
1.0
 40
1.0
 10
92.0192581311
 20
73.6696049895
 30
0.0
 10
92.0128281743
 20
73.6584116114
 30
0.0
 10
92.0002997093
 20
73.6379973339
 30
0.0
 10
91.9841001265
 20
73.6148450704
 30
0.0
 10
91.9721714004
 20
73.600584919
 30
0.0
 10
91.9660658197
 20
73.5943159869
 30
0.0
 10
91.9617417446
 20
73.5909636603
 30
0.0
 10
91.9589687433
 20
73.5892845529
 30
0.0
 10
91.9565151055
 20
73.5886861593
 30
0.0
 10
91.9554900151
 20
73.5892779955
 30
0.0
  0
SPLINE
  5
60B
100
AcDbEntity
  8
0
100
AcDbSpline
 62
7
  6
CONTINUOUS
 70
0
 71
3
 72
10
 73
6
 74
0
 42
0.0000001
 43
0.0000001
 44
0.0000000001
 40
0.0
 40
0.0
 40
0.0
 40
0.0
 40
0.2220116991
 40
0.4744029238
 40
1.0
 40
1.0
 40
1.0
 40
1.0
 10
91.0436194891
 20
75.8189229735
 30
0.0
 10
91.0379839454
 20
75.8269183637
 30
0.0
 10
91.0249380591
 20
75.8432882887
 30
0.0
 10
90.9956260247
 20
75.8761894477
 30
0.0
 10
90.9711558911
 20
75.9002722038
 30
0.0
 10
90.9540407398
 20
75.9158722993
 30
0.0
  0
SPLINE
  5
60C
100
AcDbEntity
  8
0
100
AcDbSpline
 62
250
  6
CONTINUOUS
 70
0
 71
3
 72
9
 73
5
 74
0
 42
0.0000001
 43
0.0000001
 44
0.0000000001
 40
0.0
 40
0.0
 40
0.0
 40
0.0
 40
0.2522825568
 40
1.0
 40
1.0
 40
1.0
 40
1.0
 10
89.2651612296
 20
74.1088932378
 30
0.0
 10
89.2683364919
 20
74.1141429574
 30
0.0
 10
89.2822901872
 20
74.1341019219
 30
0.0
 10
89.3013426058
 20
74.1504266054
 30
0.0
 10
89.3170898675
 20
74.1595192405
 30
0.0
  0
SPLINE
  5
60D
100
AcDbEntity
  8
0
100
AcDbSpline
 62
250
  6
CONTINUOUS
 70
0
 71
3
 72
15
 73
11
 74
0
 42
0.0000001
 43
0.0000001
 44
0.0000000001
 40
0.0
 40
0.0
 40
0.0
 40
0.0
 40
0.3553058693
 40
0.5209439357
 40
0.6690563175
 40
0.7937244262
 40
0.8903697491
 40
0.927572225
 40
0.9575204844
 40
1.0
 40
1.0
 40
1.0
 40
1.0
 10
89.3170898675
 20
74.1595192405
 30
0.0
 10
89.3237614208
 20
74.1471767488
 30
0.0
 10
89.3343451755
 20
74.1294915585
 30
0.0
 10
89.3495157013
 20
74.1078521718
 30
0.0
 10
89.3602505562
 20
74.094252627
 30
0.0
 10
89.3701283879
 20
74.0834985561
 30
0.0
 10
89.3777958027
 20
74.0767080417
 30
0.0
 10
89.3833223736
 20
74.0732629053
 30
0.0
 10
89.3872372478
 20
74.0715385764
 30
0.0
 10
89.3904714688
 20
74.0713547625
 30
0.0
 10
89.3919241553
 20
74.0721934715
 30
0.0
  0
SPLINE
  5
60E
100
AcDbEntity
  8
0
100
AcDbSpline
 62
250
  6
CONTINUOUS
 70
0
 71
3
 72
18
 73
14
 74
0
 42
0.0000001
 43
0.0000001
 44
0.0000000001
 40
0.0
 40
0.0
 40
0.0
 40
0.0
 40
0.1868172755
 40
0.3708025823
 40
0.5430246492
 40
0.6959966618
 40
0.8229619093
 40
0.8748063312
 40
0.9181524795
 40
0.9525110123
 40
0.9775177108
 40
0.9931206704
 40
1.0
 40
1.0
 40
1.0
 40
1.0
 10
90.9033161021
 20
75.075327384
 30
0.0
 10
90.9068906698
 20
75.0692301938
 30
0.0
 10
90.9139191661
 20
75.0570891146
 30
0.0
 10
90.924023862
 20
75.0392017312
 30
0.0
 10
90.9333053594
 20
75.0223204127
 30
0.0
 10
90.9413402059
 20
75.0072198162
 30
0.0
 10
90.9470423631
 20
74.9960316043
 30
0.0
 10
90.9506879215
 20
74.9884654939
 30
0.0
 10
90.952726929
 20
74.983992311
 30
0.0
 10
90.9542353095
 20
74.9804520703
 30
0.0
 10
90.9552203796
 20
74.9776936421
 30
0.0
 10
90.9556669186
 20
74.9761294736
 30
0.0
 10
90.9557154082
 20
74.9750487723
 30
0.0
 10
90.9554900146
 20
74.9749186412
 30
0.0
  0
SPLINE
  5
60F
100
AcDbEntity
  8
0
100
AcDbSpline
 62
7
  6
CONTINUOUS
 70
0
 71
3
 72
9
 73
5
 74
0
 42
0.0000001
 43
0.0000001
 44
0.0000000001
 40
0.0
 40
0.0
 40
0.0
 40
0.0
 40
0.509327518
 40
1.0
 40
1.0
 40
1.0
 40
1.0
 10
91.0436194891
 20
75.8189229735
 30
0.0
 10
91.0474463211
 20
75.813493681
 30
0.0
 10
91.0534622118
 20
75.8016598124
 30
0.0
 10
91.0554900151
 20
75.7885335423
 30
0.0
 10
91.0554900151
 20
75.7821344045
 30
0.0
  0
SPLINE
  5
610
100
AcDbEntity
  8
0
100
AcDbSpline
 62
250
  6
CONTINUOUS
 70
0
 71
3
 72
14
 73
10
 74
0
 42
0.0000001
 43
0.0000001
 44
0.0000000001
 40
0.0
 40
0.0
 40
0.0
 40
0.0
 40
0.3707314794
 40
0.6875496805
 40
0.8105153133
 40
0.9040622233
 40
0.9389574471
 40
0.9660056712
 40
1.0
 40
1.0
 40
1.0
 40
1.0
 10
90.9540407398
 20
75.1631850337
 30
0.0
 10
90.966949468
 20
75.1632132167
 30
0.0
 10
90.9908929834
 20
75.1625703865
 30
0.0
 10
91.0190432231
 20
75.1601172681
 30
0.0
 10
91.0373572395
 20
75.156916764
 30
0.0
 10
91.0458390843
 20
75.154763642
 30
0.0
 10
91.0509043218
 20
75.1526950464
 30
0.0
 10
91.0537449722
 20
75.1511331106
 30
0.0
 10
91.0554900151
 20
75.1493073946
 30
0.0
 10
91.0554900151
 20
75.1481237223
 30
0.0
  0
SPLINE
  5
611
100
AcDbEntity
  8
0
100
AcDbSpline
 62
7
  6
CONTINUOUS
 70
0
 71
3
 72
10
 73
6
 74
0
 42
0.0000001
 43
0.0000001
 44
0.0000000001
 40
0.0
 40
0.0
 40
0.0
 40
0.0
 40
0.2220116991
 40
0.4744029238
 40
1.0
 40
1.0
 40
1.0
 40
1.0
 10
89.5804960858
 20
73.2435981928
 30
0.0
 10
89.5763896466
 20
73.2347199737
 30
0.0
 10
89.5687358188
 20
73.2152369422
 30
0.0
 10
89.5548985966
 20
73.1734013963
 30
0.0
 10
89.5462773848
 20
73.140168261
 30
0.0
 10
89.5413248814
 20
73.1175460573
 30
0.0
  0
SPLINE
  5
612
100
AcDbEntity
  8
0
100
AcDbSpline
 62
7
  6
CONTINUOUS
 70
0
 71
3
 72
10
 73
6
 74
0
 42
0.0000001
 43
0.0000001
 44
0.0000000001
 40
0.0
 40
0.0
 40
0.0
 40
0.0
 40
0.5078401266
 40
0.7526492582
 40
1.0
 40
1.0
 40
1.0
 40
1.0
 10
185.919055875
 20
166.6865528254
 30
0.0
 10
185.9260599234
 20
166.6825090362
 30
0.0
 10
185.9357752584
 20
166.6748304946
 30
0.0
 10
185.9442359383
 20
166.6611706629
 30
0.0
 10
185.9464952455
 20
166.6535399445
 30
0.0
 10
185.947082075
 20
166.6496447307
 30
0.0
  0
LINE
  5
613
100
AcDbEntity
  8
0
100
AcDbLine
 62
7
  6
CONTINUOUS
 10
183.3465755967
 20
168.0460114689
 11
183.365610751
 21
168.0570014204
  0
SPLINE
  5
614
100
AcDbEntity
  8
0
100
AcDbSpline
 62
7
  6
CONTINUOUS
 70
0
 71
3
 72
10
 73
6
 74
0
 42
0.0000001
 43
0.0000001
 44
0.0000000001
 40
0.0
 40
0.0
 40
0.0
 40
0.0
 40
0.5078401266
 40
0.7526492582
 40
1.0
 40
1.0
 40
1.0
 40
1.0
 10
185.8554900151
 20
169.5679334164
 30
0.0
 10
185.8554900151
 20
169.5760209948
 30
0.0
 10
185.8572821597
 20
169.5882739925
 30
0.0
 10
185.864881581
 20
169.6024310722
 30
0.0
 10
185.8703603234
 20
169.6082030488
 30
0.0
 10
185.8734402627
 20
169.6106588649
 30
0.0
  0
SPLINE
  5
615
100
AcDbEntity
  8
0
100
AcDbSpline
 62
7
  6
CONTINUOUS
 70
0
 71
3
 72
10
 73
6
 74
0
 42
0.0000001
 43
0.0000001
 44
0.0000000001
 40
0.0
 40
0.0
 40
0.0
 40
0.0
 40
0.5335981172
 40
0.7846982988
 40
1.0
 40
1.0
 40
1.0
 40
1.0
 10
185.9522467649
 20
166.536858691
 30
0.0
 10
185.9527543594
 20
166.5569522384
 30
0.0
 10
185.9525105453
 20
166.5865432178
 30
0.0
 10
185.9501639032
 20
166.6241422186
 30
0.0
 10
185.948290266
 20
166.6416250901
 30
0.0
 10
185.947082075
 20
166.6496447307
 30
0.0
  0
SPLINE
  5
616
100
AcDbEntity
  8
0
100
AcDbSpline
 62
250
  6
CONTINUOUS
 70
0
 71
3
 72
18
 73
14
 74
0
 42
0.0000001
 43
0.0000001
 44
0.0000000001
 40
0.0
 40
0.0
 40
0.0
 40
0.0
 40
0.1868172755
 40
0.3708025824
 40
0.5430246493
 40
0.6959966619
 40
0.8229619093
 40
0.8748063312
 40
0.9181524795
 40
0.9525110123
 40
0.9775177108
 40
0.9931206704
 40
1.0
 40
1.0
 40
1.0
 40
1.0
 10
184.2946204499
 20
167.4938896901
 30
0.0
 10
184.2981134877
 20
167.5000339517
 30
0.0
 10
184.3051137225
 20
167.5121913477
 30
0.0
 10
184.315552303
 20
167.5298859627
 30
0.0
 10
184.325531205
 20
167.5463646344
 30
0.0
 10
184.3345912819
 20
167.5608733139
 30
0.0
 10
184.3414294791
 20
167.5714056328
 30
0.0
 10
184.3461591437
 20
167.5783458343
 30
0.0
 10
184.34901353
 20
167.5823482579
 30
0.0
 10
184.3513252781
 20
167.5854246742
 30
0.0
 10
184.3532216119
 20
167.587656984
 30
0.0
 10
184.3543529521
 20
167.5888257824
 30
0.0
 10
184.3552646221
 20
167.5894081262
 30
0.0
 10
184.3554900157
 20
167.5892779952
 30
0.0
  0
SPLINE
  5
617
100
AcDbEntity
  8
0
100
AcDbSpline
 62
7
  6
CONTINUOUS
 70
0
 71
3
 72
9
 73
5
 74
0
 42
0.0000001
 43
0.0000001
 44
0.0000000001
 40
0.0
 40
0.0
 40
0.0
 40
0.0
 40
0.509327518
 40
1.0
 40
1.0
 40
1.0
 40
1.0
 10
183.5804960858
 20
167.2435981928
 30
0.0
 10
183.583284575
 20
167.2496269728
 30
0.0
 10
183.5905250605
 20
167.2607538212
 30
0.0
 10
183.6008788421
 20
167.2690730855
 30
0.0
 10
183.6064206581
 20
167.2722726544
 30
0.0
  0
SPLINE
  5
618
100
AcDbEntity
  8
0
100
AcDbSpline
 62
250
  6
CONTINUOUS
 70
0
 71
3
 72
14
 73
10
 74
0
 42
0.0000001
 43
0.0000001
 44
0.0000000001
 40
0.0
 40
0.0
 40
0.0
 40
0.0
 40
0.3707314794
 40
0.6875496806
 40
0.8105153134
 40
0.9040622233
 40
0.9389574472
 40
0.9660056712
 40
1.0
 40
1.0
 40
1.0
 40
1.0
 10
184.1931711746
 20
167.4938896901
 30
0.0
 10
184.1866924032
 20
167.5050548851
 30
0.0
 10
184.1752773528
 20
167.5261119929
 30
0.0
 10
184.1633266958
 20
167.5517173748
 30
0.0
 10
184.1569414055
 20
167.5691780303
 30
0.0
 10
184.1545651414
 20
167.5776000844
 30
0.0
 10
184.153823979
 20
167.5830210065
 30
0.0
 10
184.1537563299
 20
167.5862620498
 30
0.0
 10
184.1544649248
 20
167.5886861593
 30
0.0
 10
184.1554900151
 20
167.5892779955
 30
0.0
  0
SPLINE
  5
619
100
AcDbEntity
  8
0
100
AcDbSpline
 62
7
  6
CONTINUOUS
 70
0
 71
3
 72
10
 73
6
 74
0
 42
0.0000001
 43
0.0000001
 44
0.0000000001
 40
0.0
 40
0.0
 40
0.0
 40
0.0
 40
0.2220116991
 40
0.4744029238
 40
1.0
 40
1.0
 40
1.0
 40
1.0
 10
186.5423544705
 20
167.264158547
 30
0.0
 10
186.5520964534
 20
167.2650413759
 30
0.0
 10
186.5727961675
 20
167.2681544824
 30
0.0
 10
186.6159454241
 20
167.2770888693
 30
0.0
 10
186.6490367695
 20
167.2862392485
 30
0.0
 10
186.6711044242
 20
167.2932613566
 30
0.0
  0
SPLINE
  5
61A
100
AcDbEntity
  8
0
100
AcDbSpline
 62
7
  6
CONTINUOUS
 70
0
 71
3
 72
10
 73
6
 74
0
 42
0.0000001
 43
0.0000001
 44
0.0000000001
 40
0.0
 40
0.0
 40
0.0
 40
0.0
 40
0.5335981172
 40
0.7846982988
 40
1.0
 40
1.0
 40
1.0
 40
1.0
 10
185.9685334934
 20
169.6715246374
 30
0.0
 10
185.9508781736
 20
169.6619174534
 30
0.0
 10
185.9253735408
 20
169.6469108146
 30
0.0
 10
185.893985172
 20
169.6260790625
 30
0.0
 10
185.8797813797
 20
169.6157150093
 30
0.0
 10
185.8734402627
 20
169.6106588649
 30
0.0
  0
SPLINE
  5
61B
100
AcDbEntity
  8
0
100
AcDbSpline
 62
250
  6
CONTINUOUS
 70
0
 71
3
 72
9
 73
5
 74
0
 42
0.0000001
 43
0.0000001
 44
0.0000000001
 40
0.0
 40
0.0
 40
0.0
 40
0.0
 40
0.5009888638
 40
1.0
 40
1.0
 40
1.0
 40
1.0
 10
183.2468893403
 20
168.0423433811
 30
0.0
 10
183.2464633496
 20
168.0539819355
 30
0.0
 10
183.2495641367
 20
168.0774670582
 30
0.0
 10
183.2591559914
 20
168.0989682317
 30
0.0
 10
183.2651612296
 20
168.1088932378
 30
0.0
  0
SPLINE
  5
61C
100
AcDbEntity
  8
0
100
AcDbSpline
 62
250
  6
CONTINUOUS
 70
0
 71
3
 72
18
 73
14
 74
0
 42
0.0000001
 43
0.0000001
 44
0.0000000001
 40
0.0
 40
0.0
 40
0.0
 40
0.0
 40
0.186817292
 40
0.3708026352
 40
0.5430247167
 40
0.6959967215
 40
0.8229619566
 40
0.8748063687
 40
0.9181525051
 40
0.9525110308
 40
0.9775177237
 40
0.9931206769
 40
1.0
 40
1.0
 40
1.0
 40
1.0
 10
185.9685334934
 20
167.7574626391
 30
0.0
 10
185.9614658873
 20
167.7574155675
 30
0.0
 10
185.9474371543
 20
167.7573992504
 30
0.0
 10
185.9268938754
 20
167.7575920185
 30
0.0
 10
185.9076334746
 20
167.7579946655
 30
0.0
 10
185.8905385514
 20
167.7585865833
 30
0.0
 10
185.8779981983
 20
167.7592424771
 30
0.0
 10
185.8696229766
 20
167.7598683867
 30
0.0
 10
185.864729584
 20
167.7603391462
 30
0.0
 10
185.8609094564
 20
167.7608029707
 30
0.0
 10
185.858028053
 20
167.7613290886
 30
0.0
 10
185.8564501747
 20
167.7617244584
 30
0.0
 10
185.8554900151
 20
167.762222815
 30
0.0
 10
185.8554900151
 20
167.7624830769
 30
0.0
  0
SPLINE
  5
61D
100
AcDbEntity
  8
0
100
AcDbSpline
 62
7
  6
CONTINUOUS
 70
0
 71
3
 72
9
 73
5
 74
0
 42
0.0000001
 43
0.0000001
 44
0.0000000001
 40
0.0
 40
0.0
 40
0.0
 40
0.0
 40
0.509327518
 40
1.0
 40
1.0
 40
1.0
 40
1.0
 10
186.5423544705
 20
167.264158547
 30
0.0
 10
186.5357391493
 20
167.2635590595
 30
0.0
 10
186.5224827731
 20
167.2642660797
 30
0.0
 10
186.5101011881
 20
167.2690730855
 30
0.0
 10
186.5045593722
 20
167.2722726544
 30
0.0
  0
SPLINE
  5
61E
100
AcDbEntity
  8
0
100
AcDbSpline
 62
250
  6
CONTINUOUS
 70
0
 71
3
 72
14
 73
10
 74
0
 42
0.0000001
 43
0.0000001
 44
0.0000000001
 40
0.0
 40
0.0
 40
0.0
 40
0.0
 40
0.3707314794
 40
0.6875496805
 40
0.8105153133
 40
0.9040622233
 40
0.9389574471
 40
0.9660056712
 40
1.0
 40
1.0
 40
1.0
 40
1.0
 10
186.0192581311
 20
167.6696049895
 30
0.0
 10
186.0128281743
 20
167.6584116114
 30
0.0
 10
186.0002997093
 20
167.6379973339
 30
0.0
 10
185.9841001265
 20
167.6148450704
 30
0.0
 10
185.9721714004
 20
167.600584919
 30
0.0
 10
185.9660658197
 20
167.5943159869
 30
0.0
 10
185.9617417446
 20
167.5909636603
 30
0.0
 10
185.9589687433
 20
167.5892845529
 30
0.0
 10
185.9565151055
 20
167.5886861593
 30
0.0
 10
185.9554900151
 20
167.5892779955
 30
0.0
  0
SPLINE
  5
61F
100
AcDbEntity
  8
0
100
AcDbSpline
 62
7
  6
CONTINUOUS
 70
0
 71
3
 72
10
 73
6
 74
0
 42
0.0000001
 43
0.0000001
 44
0.0000000001
 40
0.0
 40
0.0
 40
0.0
 40
0.0
 40
0.2220116991
 40
0.4744029238
 40
1.0
 40
1.0
 40
1.0
 40
1.0
 10
185.0436194891
 20
169.8189229735
 30
0.0
 10
185.0379839454
 20
169.8269183637
 30
0.0
 10
185.0249380591
 20
169.8432882887
 30
0.0
 10
184.9956260247
 20
169.8761894477
 30
0.0
 10
184.9711558911
 20
169.9002722038
 30
0.0
 10
184.9540407398
 20
169.9158722993
 30
0.0
  0
SPLINE
  5
620
100
AcDbEntity
  8
0
100
AcDbSpline
 62
250
  6
CONTINUOUS
 70
0
 71
3
 72
9
 73
5
 74
0
 42
0.0000001
 43
0.0000001
 44
0.0000000001
 40
0.0
 40
0.0
 40
0.0
 40
0.0
 40
0.2522825568
 40
1.0
 40
1.0
 40
1.0
 40
1.0
 10
183.2651612296
 20
168.1088932378
 30
0.0
 10
183.2683364919
 20
168.1141429574
 30
0.0
 10
183.2822901872
 20
168.1341019219
 30
0.0
 10
183.3013426058
 20
168.1504266054
 30
0.0
 10
183.3170898675
 20
168.1595192405
 30
0.0
  0
SPLINE
  5
621
100
AcDbEntity
  8
0
100
AcDbSpline
 62
250
  6
CONTINUOUS
 70
0
 71
3
 72
15
 73
11
 74
0
 42
0.0000001
 43
0.0000001
 44
0.0000000001
 40
0.0
 40
0.0
 40
0.0
 40
0.0
 40
0.3553058693
 40
0.5209439357
 40
0.6690563175
 40
0.7937244262
 40
0.8903697491
 40
0.927572225
 40
0.9575204844
 40
1.0
 40
1.0
 40
1.0
 40
1.0
 10
183.3170898675
 20
168.1595192405
 30
0.0
 10
183.3237614208
 20
168.1471767488
 30
0.0
 10
183.3343451755
 20
168.1294915585
 30
0.0
 10
183.3495157013
 20
168.1078521718
 30
0.0
 10
183.3602505562
 20
168.094252627
 30
0.0
 10
183.3701283879
 20
168.0834985561
 30
0.0
 10
183.3777958027
 20
168.0767080417
 30
0.0
 10
183.3833223736
 20
168.0732629053
 30
0.0
 10
183.3872372478
 20
168.0715385764
 30
0.0
 10
183.3904714688
 20
168.0713547625
 30
0.0
 10
183.3919241553
 20
168.0721934715
 30
0.0
  0
SPLINE
  5
622
100
AcDbEntity
  8
0
100
AcDbSpline
 62
250
  6
CONTINUOUS
 70
0
 71
3
 72
18
 73
14
 74
0
 42
0.0000001
 43
0.0000001
 44
0.0000000001
 40
0.0
 40
0.0
 40
0.0
 40
0.0
 40
0.1868172755
 40
0.3708025823
 40
0.5430246492
 40
0.6959966618
 40
0.8229619093
 40
0.8748063312
 40
0.9181524795
 40
0.9525110123
 40
0.9775177108
 40
0.9931206704
 40
1.0
 40
1.0
 40
1.0
 40
1.0
 10
184.9033161021
 20
169.075327384
 30
0.0
 10
184.9068906698
 20
169.0692301938
 30
0.0
 10
184.9139191661
 20
169.0570891146
 30
0.0
 10
184.924023862
 20
169.0392017312
 30
0.0
 10
184.9333053594
 20
169.0223204127
 30
0.0
 10
184.9413402059
 20
169.0072198162
 30
0.0
 10
184.9470423631
 20
168.9960316043
 30
0.0
 10
184.9506879215
 20
168.9884654939
 30
0.0
 10
184.952726929
 20
168.983992311
 30
0.0
 10
184.9542353095
 20
168.9804520703
 30
0.0
 10
184.9552203796
 20
168.9776936421
 30
0.0
 10
184.9556669186
 20
168.9761294736
 30
0.0
 10
184.9557154082
 20
168.9750487723
 30
0.0
 10
184.9554900146
 20
168.9749186412
 30
0.0
  0
SPLINE
  5
623
100
AcDbEntity
  8
0
100
AcDbSpline
 62
7
  6
CONTINUOUS
 70
0
 71
3
 72
9
 73
5
 74
0
 42
0.0000001
 43
0.0000001
 44
0.0000000001
 40
0.0
 40
0.0
 40
0.0
 40
0.0
 40
0.509327518
 40
1.0
 40
1.0
 40
1.0
 40
1.0
 10
185.0436194891
 20
169.8189229735
 30
0.0
 10
185.0474463211
 20
169.813493681
 30
0.0
 10
185.0534622118
 20
169.8016598124
 30
0.0
 10
185.0554900151
 20
169.7885335423
 30
0.0
 10
185.0554900151
 20
169.7821344045
 30
0.0
  0
SPLINE
  5
624
100
AcDbEntity
  8
0
100
AcDbSpline
 62
250
  6
CONTINUOUS
 70
0
 71
3
 72
14
 73
10
 74
0
 42
0.0000001
 43
0.0000001
 44
0.0000000001
 40
0.0
 40
0.0
 40
0.0
 40
0.0
 40
0.3707314794
 40
0.6875496805
 40
0.8105153133
 40
0.9040622233
 40
0.9389574471
 40
0.9660056712
 40
1.0
 40
1.0
 40
1.0
 40
1.0
 10
184.9540407398
 20
169.1631850337
 30
0.0
 10
184.966949468
 20
169.1632132167
 30
0.0
 10
184.9908929834
 20
169.1625703865
 30
0.0
 10
185.0190432231
 20
169.1601172681
 30
0.0
 10
185.0373572395
 20
169.156916764
 30
0.0
 10
185.0458390843
 20
169.154763642
 30
0.0
 10
185.0509043218
 20
169.1526950464
 30
0.0
 10
185.0537449722
 20
169.1511331106
 30
0.0
 10
185.0554900151
 20
169.1493073946
 30
0.0
 10
185.0554900151
 20
169.1481237223
 30
0.0
  0
SPLINE
  5
625
100
AcDbEntity
  8
0
100
AcDbSpline
 62
7
  6
CONTINUOUS
 70
0
 71
3
 72
10
 73
6
 74
0
 42
0.0000001
 43
0.0000001
 44
0.0000000001
 40
0.0
 40
0.0
 40
0.0
 40
0.0
 40
0.2220116991
 40
0.4744029238
 40
1.0
 40
1.0
 40
1.0
 40
1.0
 10
183.5804960858
 20
167.2435981928
 30
0.0
 10
183.5763896466
 20
167.2347199737
 30
0.0
 10
183.5687358188
 20
167.2152369422
 30
0.0
 10
183.5548985966
 20
167.1734013963
 30
0.0
 10
183.5462773848
 20
167.140168261
 30
0.0
 10
183.5413248814
 20
167.1175460573
 30
0.0
  0
LINE
  5
626
100
AcDbEntity
  8
RACCORDO
100
AcDbLine
 62
250
  6
CONTINUOUS
 10
124.2977483933
 20
159.7447317226
 11
124.2957363126
 21
159.721900842
  0
LINE
  5
627
100
AcDbEntity
  8
RACCORDO
100
AcDbLine
 62
250
  6
CONTINUOUS
 10
99.4424824109
 20
134.8686469403
 11
99.4196515303
 21
134.8666348596
  0
SPLINE
  5
628
100
AcDbEntity
  8
RACCORDO
100
AcDbSpline
 62
250
  6
CONTINUOUS
 70
0
 71
3
 72
9
 73
5
 74
0
 42
0.0000001
 43
0.0000001
 44
0.0000000001
 40
0.0
 40
0.0
 40
0.0
 40
0.0
 40
0.2296739409
 40
1.0
 40
1.0
 40
1.0
 40
1.0
 10
124.2957363126
 20
159.721900842
 30
0.0
 10
124.2955434595
 20
159.7196435723
 30
0.0
 10
124.2950355231
 20
159.7097868914
 30
0.0
 10
124.2957303689
 20
159.6998946121
 30
0.0
 10
124.2966859271
 20
159.6923564752
 30
0.0
  0
SPLINE
  5
629
100
AcDbEntity
  8
RACCORDO
100
AcDbSpline
 62
250
  6
CONTINUOUS
 70
0
 71
3
 72
14
 73
10
 74
0
 42
0.0000001
 43
0.0000001
 44
0.0000000001
 40
0.0
 40
0.0
 40
0.0
 40
0.0
 40
0.0324785186
 40
0.0896768643
 40
0.1735321307
 40
0.2845331994
 40
0.4227661198
 40
0.5881826727
 40
1.0
 40
1.0
 40
1.0
 40
1.0
 10
124.2966859271
 20
159.6923564752
 30
0.0
 10
124.2971400521
 20
159.6887678065
 30
0.0
 10
124.2930187227
 20
159.6789114888
 30
0.0
 10
124.2826347864
 20
159.6630253456
 30
0.0
 10
124.2649121832
 20
159.6409856279
 30
0.0
 10
124.2402213083
 20
159.6133873663
 30
0.0
 10
124.2082784378
 20
159.5799878409
 30
0.0
 10
124.1519020058
 20
159.523685128
 30
0.0
 10
124.1052450577
 20
159.4794320114
 30
0.0
 10
124.0717249247
 20
159.4481255147
 30
0.0
  0
SPLINE
  5
62A
100
AcDbEntity
  8
RACCORDO
100
AcDbSpline
 62
250
  6
CONTINUOUS
 70
0
 71
3
 72
14
 73
10
 74
0
 42
0.0000001
 43
0.0000001
 44
0.0000000001
 40
0.0
 40
0.0
 40
0.0
 40
0.0
 40
0.0607019258
 40
0.1454745626
 40
0.252069244
 40
0.3776751206
 40
0.5190227379
 40
0.6724829594
 40
1.0
 40
1.0
 40
1.0
 40
1.0
 10
124.0717249247
 20
159.4481255147
 30
0.0
 10
123.9600022905
 20
159.3437809318
 30
0.0
 10
123.6863014182
 20
159.1001442086
 30
0.0
 10
123.2057519534
 20
158.6853626174
 30
0.0
 10
122.5966752878
 20
158.1693427259
 30
0.0
 10
121.875898132
 20
157.5647969687
 30
0.0
 10
121.0627286662
 20
156.8867470286
 30
0.0
 10
119.8574973919
 20
155.8848850687
 30
0.0
 10
118.9252549981
 20
155.1114807505
 30
0.0
 10
118.2904564368
 20
154.5848345229
 30
0.0
  0
SPLINE
  5
62B
100
AcDbEntity
  8
RACCORDO
100
AcDbSpline
 62
250
  6
CONTINUOUS
 70
0
 71
3
 72
14
 73
10
 74
0
 42
0.0000001
 43
0.0000001
 44
0.0000000001
 40
0.0
 40
0.0
 40
0.0
 40
0.0
 40
0.326975011
 40
0.4802410104
 40
0.6214820077
 40
0.7470924129
 40
0.8538217255
 40
0.9388721455
 40
1.0
 40
1.0
 40
1.0
 40
1.0
 10
104.57954873
 20
140.8739268161
 30
0.0
 10
104.0543522971
 20
140.2408757935
 30
0.0
 10
103.282980352
 20
139.3110847279
 30
0.0
 10
102.2835835763
 20
138.1088028124
 30
0.0
 10
101.6067722606
 20
137.2970872556
 30
0.0
 10
101.0028726392
 20
136.5770114129
 30
0.0
 10
100.4867998539
 20
135.9677563722
 30
0.0
 10
100.0712017356
 20
135.4860466591
 30
0.0
 10
99.8267704601
 20
135.2112262593
 30
0.0
 10
99.7219263498
 20
135.0987342004
 30
0.0
  0
SPLINE
  5
62C
100
AcDbEntity
  8
RACCORDO
100
AcDbSpline
 62
250
  6
CONTINUOUS
 70
0
 71
3
 72
14
 73
10
 74
0
 42
0.0000001
 43
0.0000001
 44
0.0000000001
 40
0.0
 40
0.0
 40
0.0
 40
0.0
 40
0.4120964155
 40
0.577602845
 40
0.7158832899
 40
0.8268819956
 40
0.9106758484
 40
0.9677426883
 40
1.0
 40
1.0
 40
1.0
 40
1.0
 10
99.7219263498
 20
135.0987342004
 30
0.0
 10
99.6898557138
 20
135.0643241428
 30
0.0
 10
99.6445279852
 20
135.0164253857
 30
0.0
 10
99.5868745833
 20
134.9585324047
 30
0.0
 10
99.5526880439
 20
134.9257270595
 30
0.0
 10
99.5244571346
 20
134.9003692795
 30
0.0
 10
99.5019303482
 20
134.8821587393
 30
0.0
 10
99.4857286384
 20
134.871500602
 30
0.0
 10
99.4756796087
 20
134.8672351285
 30
0.0
 10
99.4720267777
 20
134.8676973258
 30
0.0
  0
SPLINE
  5
62D
100
AcDbEntity
  8
RACCORDO
100
AcDbSpline
 62
250
  6
CONTINUOUS
 70
0
 71
3
 72
9
 73
5
 74
0
 42
0.0000001
 43
0.0000001
 44
0.0000000001
 40
0.0
 40
0.0
 40
0.0
 40
0.0
 40
0.2713612267
 40
1.0
 40
1.0
 40
1.0
 40
1.0
 10
99.4720267777
 20
134.8676973258
 30
0.0
 10
99.4693716384
 20
134.8680338997
 30
0.0
 10
99.4595664551
 20
134.8690726326
 30
0.0
 10
99.4496427583
 20
134.8692586947
 30
0.0
 10
99.4424824109
 20
134.8686469403
 30
0.0
  0
ELLIPSE
  5
62E
100
AcDbEntity
  8
ASSI
100
AcDbEllipse
 62
7
  6
CONTINUOUS
 10
128.5076877469
 20
177.5209689398
 30
0.0
 11
3.4100516399
 21
2.273063759
 31
0.0
 40
0.5741412044
 41
2.4196238538
 42
2.5548383479
  0
ELLIPSE
  5
62F
100
AcDbEntity
  8
ASSI
100
AcDbEllipse
 62
7
  6
CONTINUOUS
 10
105.298007515
 20
170.7355065862
 30
0.0
 11
-0.0449942605
 21
1.0161890143
 31
0.0
 40
0.2345105639
 41
-0.0103831571
 42
1.3841851752
  0
ELLIPSE
  5
630
100
AcDbEntity
  8
ASSI
100
AcDbEllipse
 62
7
  6
CONTINUOUS
 10
128.2697757294
 20
177.5209689398
 30
0.0
 11
3.2142857143
 21
-0.0
 31
0.0
 40
0.9333333333
 41
-3.1415926536
 42
-3.0037984446
  0
ENDSEC
  0
SECTION
  2
OBJECTS
  0
DICTIONARY
  5
C
100
AcDbDictionary
280
0
281
1
  3
ACAD_GROUP
350
D
  3
ACAD_MLINESTYLE
350
17
  3
ACAD_LAYOUT
350
1A
  3
ACAD_PLOTSETTINGS
350
19
  3
ACAD_PLOTSTYLENAME
350
E
  0
DICTIONARY
  5
D
102
{ACAD_REACTORS
330
C
102
}
100
AcDbDictionary
280
0
281
1
  0
ACDBDICTIONARYWDFLT
  5
E
102
{ACAD_REACTORS
330
C
102
}
100
AcDbDictionary
281
1
  3
Normal
350
F
100
AcDbDictionaryWithDefault
340
F
  0
DICTIONARY
  5
17
102
{ACAD_REACTORS
330
C
102
}
100
AcDbDictionary
280
0
281
1
  3
Standard
350
18
  0
DICTIONARY
  5
19
102
{ACAD_REACTORS
330
C
102
}
100
AcDbDictionary
281
1
  0
DICTIONARY
  5
1A
102
{ACAD_REACTORS
330
C
102
}
100
AcDbDictionary
281
1
  3
Model
350
631
  3
Layout1
350
632
  0
ACDBPLACEHOLDER
  5
F
102
{ACAD_REACTORS
330
E
102
}
  0
MLINESTYLE
  5
18
102
{ACAD_REACTORS
330
17
102
}
100
AcDbMlineStyle
  2
STANDARD
 70
0
  3

 62
256
 51
90.0
 52
90.0
 71
2
 49
0.5
 62
256
  6
BYLAYER
 49
-0.5
 62
256
  6
BYLAYER
  0
LAYOUT
  5
631
102
{ACAD_REACTORS
330
1A
102
}
100
AcDbPlotSettings
  1

  2
none_device
  4
ISO_A4_(297.00_x_210.00_MM)
  6

 40
0.0
 41
0.0
 42
0.0
 43
0.0
 44
297.0
 45
210.0
 46
0.0
 47
0.0
 48
0.0
 49
0.0
140
0.0
141
0.0
142
1.0
143
1.0
 70
1024
 72
1
 73
0
 74
0
  7

 75
0
147
1.0
148
0.0
149
0.0
100
AcDbLayout
  1
Model
 70
0
 71
0
 10
0.0
 20
0.0
 11
297.0
 21
210.0
 12
0.0
 22
0.0
 32
0.0
 14
0.0
 24
0.0
 34
0.0
 15
0.0
 25
0.0
 35
0.0
146
0.0
 13
0.0
 23
0.0
 33
0.0
 16
1.0
 26
0.0
 36
0.0
 17
0.0
 27
1.0
 37
0.0
 76
0
330
212
345
0
346
0
  0
LAYOUT
  5
632
102
{ACAD_REACTORS
330
1A
102
}
100
AcDbPlotSettings
  1

  2
none_device
  4
ISO_A4_(297.00_x_210.00_MM)
  6

 40
0.0
 41
0.0
 42
0.0
 43
0.0
 44
297.0
 45
210.0
 46
0.0
 47
0.0
 48
0.0
 49
0.0
140
0.0
141
0.0
142
1.0
143
1.0
 70
0
 72
1
 73
0
 74
0
  7

 75
0
147
1.0
148
0.0
149
0.0
100
AcDbLayout
  1
Layout1
 70
0
 71
1
 10
0.0
 20
0.0
 11
297.0
 21
210.0
 12
0.0
 22
0.0
 32
0.0
 14
0.0
 24
0.0
 34
0.0
 15
0.0
 25
0.0
 35
0.0
146
0.0
 13
0.0
 23
0.0
 33
0.0
 16
1.0
 26
0.0
 36
0.0
 17
0.0
 27
1.0
 37
0.0
 76
0
330
213
345
0
346
0
  0
ENDSEC
  0
EOF
