  0
SECTION
  2
HEADER
  9
$ACADVER
  1
AC1027
  9
$DWGCODEPAGE
  3
ANSI_1252
  9
$EXTMAX
 10
297.0
 20
210.0
 30
0.0
  9
$EXTMIN
 10
0.0
 20
0.0
 30
0.0
  9
$LIMMIN
 10
0.0
 20
0.0
  9
$LIMMAX
 10
297.0
 20
210.0
  9
$VIEWCTR
 10
148.5
 20
105.0
  9
$VIEWSIZE
 40
210.0
  9
$CLAYER
  8
0
  9
$LTSCALE
 40
16.335
  9
$CELTYPE
  6
BYLAYER
  9
$DIMSCALE
 40
1.0
  9
$DIMASZ
 40
3.0
  9
$DIMEXO
 40
0.5
  9
$DIMDLI
 40
11.286
  9
$DIMEXE
 40
1.5
  9
$DIMCEN
 40
2.673
  9
$DIMLFAC
 40
1.0
  9
$DIMBLK
  1
_FILLED
  9
$DIMALT
 70
0
  9
$DIMALTF
 40
0.0393700787
  9
$DIMTXT
 40
3.0
  9
$DIMTOL
 70
1
  9
$DIMLIM
 70
0
  9
$DIMTFAC
 40
1.0
  9
$DIMTP
 40
0.01
  9
$DIMTM
 40
0.01
  9
$DIMGAP
 40
0.625
  9
$DIMDSEP
 70
44
  9
$AUNITS
 70
0
  9
$PDMODE
 70
3
  9
$PDSIZE
 40
3.0
  9
$HANDSEED
  5
41C
  9
$TILEMODE
 70
1
  9
$MEASUREMENT
 70
1
  9
$INSUNITS
 70
4
  0
ENDSEC
  0
SECTION
  2
CLASSES
  0
CLASS
  1
ACDBDICTIONARYWDFLT
  2
AcDbDictionaryWithDefault
  3
AutoCAD 2000
 90
0
 91
1
280
0
281
0
  0
CLASS
  1
ACDBPLACEHOLDER
  2
AcDbPlaceHolder
  3
AutoCAD 2000
 90
0
 91
1
280
0
281
0
  0
CLASS
  1
LAYOUT
  2
AcDbLayout
  3
AutoCAD 2000
 90
0
 91
0
280
0
281
0
  0
ENDSEC
  0
SECTION
  2
TABLES
  0
TABLE
  2
VPORT
  5
8
100
AcDbSymbolTable
 70
2
  0
VPORT
  5
1F4
100
AcDbSymbolTableRecord
100
AcDbViewportTableRecord
  2
*ACTIVE
 70
0
 10
0.0
 20
0.0
 11
1.0
 21
1.0
 12
148.5
 22
105.0
 13
0.0
 23
0.0
 14
1.0
 24
1.0
 15
0.0
 25
0.0
 16
0.0
 26
0.0
 36
1.0
 17
0.0
 27
0.0
 37
0.0
 40
210.0
 41
1.4142857143
 42
50.0
 43
0.0
 44
0.0
 50
0.0
 51
0.0
 71
0
 72
100
 73
1
 74
1
 75
0
 76
0
 77
0
 78
0
  0
ENDTAB
  0
TABLE
  2
LTYPE
  5
5
100
AcDbSymbolTable
 70
6
  0
LTYPE
  5
14
100
AcDbSymbolTableRecord
100
AcDbLinetypeTableRecord
  2
BYBLOCK
 70
0
  3

 72
65
 73
0
 40
0.0
  0
LTYPE
  5
15
100
AcDbSymbolTableRecord
100
AcDbLinetypeTableRecord
  2
BYLAYER
 70
0
  3

 72
65
 73
0
 40
0.0
  0
LTYPE
  5
16
100
AcDbSymbolTableRecord
100
AcDbLinetypeTableRecord
  2
CONTINUOUS
 70
64
  3
Solid line
 72
65
 73
0
 40
0.0
  0
LTYPE
  5
1F5
100
AcDbSymbolTableRecord
100
AcDbLinetypeTableRecord
  2
CENTER
 70
64
  3
____ _ ____ _ ____ _ ____ _ ____ _ ____ _ ____
 72
65
 73
4
 40
0.6
 49
0.375
 74
0
 49
-0.075
 74
0
 49
0.075
 74
0
 49
-0.075
 74
0
  0
LTYPE
  5
1F6
100
AcDbSymbolTableRecord
100
AcDbLinetypeTableRecord
  2
HIDDEN
 70
64
  3
- - - - - - - - - - - - - - - - - - - -
 72
65
 73
2
 40
0.2
 49
0.1
 74
0
 49
-0.1
 74
0
  0
LTYPE
  5
1F7
100
AcDbSymbolTableRecord
100
AcDbLinetypeTableRecord
  2
PHANTOM
 70
64
  3
_____ _ _ _____ _ _ _____ _ _ _____
 72
65
 73
6
 40
0.8
 49
0.45
 74
0
 49
-0.05
 74
0
 49
0.1
 74
0
 49
-0.05
 74
0
 49
0.1
 74
0
 49
-0.05
 74
0
  0
LTYPE
  5
1F8
100
AcDbSymbolTableRecord
100
AcDbLinetypeTableRecord
  2
DOT
 70
64
  3
. . . . . . . . . . . . . . . . . . . .
 72
65
 73
2
 40
0.2
 49
0.1
 74
0
 49
-0.1
 74
0
  0
LTYPE
  5
1F9
100
AcDbSymbolTableRecord
100
AcDbLinetypeTableRecord
  2
DASHED
 70
64
  3
- - - - - - - - - - - - - - - - - - - -
 72
65
 73
2
 40
0.2
 49
0.1
 74
0
 49
-0.1
 74
0
  0
ENDTAB
  0
TABLE
  2
LAYER
  5
2
100
AcDbSymbolTable
 70
36
  0
LAYER
  5
10
100
AcDbSymbolTableRecord
100
AcDbLayerTableRecord
  2
0
 70
0
 62
7
  6
CONTINUOUS
370
-3
390
F
  0
LAYER
  5
1FA
100
AcDbSymbolTableRecord
100
AcDbLayerTableRecord
  2
DEFAULT_1
 70
0
 62
7
  6
CENTER
370
-3
390
F
  0
LAYER
  5
1FB
100
AcDbSymbolTableRecord
100
AcDbLayerTableRecord
  2
DEFAULT_2
 70
0
 62
7
  6
HIDDEN
370
-3
390
F
  0
LAYER
  5
1FC
100
AcDbSymbolTableRecord
100
AcDbLayerTableRecord
  2
DEFAULT_3
 70
0
 62
7
  6
PHANTOM
370
-3
390
F
  0
LAYER
  5
1FD
100
AcDbSymbolTableRecord
100
AcDbLayerTableRecord
  2
ASSI
 70
0
 62
7
  6
CONTINUOUS
370
-3
390
F
  0
LAYER
  5
1FE
100
AcDbSymbolTableRecord
100
AcDbLayerTableRecord
  2
COLOR5
 70
0
 62
7
  6
CONTINUOUS
370
-3
390
F
  0
LAYER
  5
1FF
100
AcDbSymbolTableRecord
100
AcDbLayerTableRecord
  2
COORDINATE
 70
0
 62
7
  6
CONTINUOUS
370
-3
390
F
  0
LAYER
  5
200
100
AcDbSymbolTableRecord
100
AcDbLayerTableRecord
  2
COORD_ORIGINE
 70
0
 62
7
  6
CONTINUOUS
370
-3
390
F
  0
LAYER
  5
201
100
AcDbSymbolTableRecord
100
AcDbLayerTableRecord
  2
COPY_PUBLISH
 70
0
 62
7
  6
CONTINUOUS
370
-3
390
F
  0
LAYER
  5
202
100
AcDbSymbolTableRecord
100
AcDbLayerTableRecord
  2
COSMETICI
 70
0
 62
7
  6
CONTINUOUS
370
-3
390
F
  0
LAYER
  5
203
100
AcDbSymbolTableRecord
100
AcDbLayerTableRecord
  2
CURVE
 70
0
 62
7
  6
CONTINUOUS
370
-3
390
F
  0
LAYER
  5
204
100
AcDbSymbolTableRecord
100
AcDbLayerTableRecord
  2
DRAFT
 70
0
 62
7
  6
CONTINUOUS
370
-3
390
F
  0
LAYER
  5
205
100
AcDbSymbolTableRecord
100
AcDbLayerTableRecord
  2
IMPORT_IGES
 70
0
 62
7
  6
CONTINUOUS
370
-3
390
F
  0
LAYER
  5
206
100
AcDbSymbolTableRecord
100
AcDbLayerTableRecord
  2
NOTE
 70
0
 62
7
  6
CONTINUOUS
370
-3
390
F
  0
LAYER
  5
207
100
AcDbSymbolTableRecord
100
AcDbLayerTableRecord
  2
PIANI
 70
0
 62
7
  6
CONTINUOUS
370
-3
390
F
  0
LAYER
  5
208
100
AcDbSymbolTableRecord
100
AcDbLayerTableRecord
  2
PIANI_ORIGINE
 70
0
 62
7
  6
CONTINUOUS
370
-3
390
F
  0
LAYER
  5
209
100
AcDbSymbolTableRecord
100
AcDbLayerTableRecord
  2
PUNTI
 70
0
 62
7
  6
CONTINUOUS
370
-3
390
F
  0
LAYER
  5
20A
100
AcDbSymbolTableRecord
100
AcDbLayerTableRecord
  2
RACCORDO
 70
0
 62
7
  6
CONTINUOUS
370
-3
390
F
  0
LAYER
  5
20B
100
AcDbSymbolTableRecord
100
AcDbLayerTableRecord
  2
SIMBOLI
 70
0
 62
7
  6
CONTINUOUS
370
-3
390
F
  0
LAYER
  5
20C
100
AcDbSymbolTableRecord
100
AcDbLayerTableRecord
  2
SMUSSO
 70
0
 62
7
  6
CONTINUOUS
370
-3
390
F
  0
LAYER
  5
20D
100
AcDbSymbolTableRecord
100
AcDbLayerTableRecord
  2
SNAPLINE
 70
0
 62
7
  6
CONTINUOUS
370
-3
390
F
  0
LAYER
  5
20E
100
AcDbSymbolTableRecord
100
AcDbLayerTableRecord
  2
SUPERFICI
 70
0
 62
7
  6
CONTINUOUS
370
-3
390
F
  0
LAYER
  5
20F
100
AcDbSymbolTableRecord
100
AcDbLayerTableRecord
  2
TRASH
 70
0
 62
7
  6
CONTINUOUS
370
-3
390
F
  0
ENDTAB
  0
TABLE
  2
STYLE
  5
3
100
AcDbSymbolTable
 70
1
  0
STYLE
  5
11
100
AcDbSymbolTableRecord
100
AcDbTextStyleTableRecord
  2
STANDARD
 70
0
 40
0.0
 41
0.8
 50
0.0
 71
0
 42
0.2
  3
txt
  4

  0
STYLE
  5
210
100
AcDbSymbolTableRecord
100
AcDbTextStyleTableRecord
  2
TEXTSTYLE_1
 70
0
 40
0.0
 41
0.8
 50
0.0
 71
0
 42
0.2
  3
gdt
  4

  0
ENDTAB
  0
TABLE
  2
VIEW
  5
6
100
AcDbSymbolTable
 70
0
  0
ENDTAB
  0
TABLE
  2
UCS
  5
7
100
AcDbSymbolTable
 70
0
  0
ENDTAB
  0
TABLE
  2
APPID
  5
9
100
AcDbSymbolTable
 70
1
  0
APPID
  5
211
100
AcDbSymbolTableRecord
100
AcDbRegAppTableRecord
  2
ACAD
 70
0
  0
ENDTAB
  0
TABLE
  2
BLOCK_RECORD
  5
1
100
AcDbSymbolTable
 70
0
  0
BLOCK_RECORD
  5
212
100
AcDbSymbolTableRecord
100
AcDbBlockTableRecord
  2
*Model_Space
  0
BLOCK_RECORD
  5
213
100
AcDbSymbolTableRecord
100
AcDbBlockTableRecord
  2
*Paper_Space
  0
BLOCK_RECORD
  5
214
100
AcDbSymbolTableRecord
100
AcDbBlockTableRecord
  2
_FILLED
  0
ENDTAB
  0
TABLE
  2
DIMSTYLE
  5
A
100
AcDbSymbolTable
 70
1
100
AcDbDimStyleTable
 71
0
  0
DIMSTYLE
105
215
100
AcDbSymbolTableRecord
100
AcDbDimStyleTableRecord
  2
STANDARD
 70
0
  3

  4

 40
1.0
 41
3.0
 42
0.5
 43
0.38
 44
1.5
 45
0.0
 46
0.0
 47
0.01
 48
0.01
140
3.0
141
0.09
142
0.0
143
25.4
144
1.0
145
0.0
146
1.0
147
0.625
 71
1.0
 72
0.0
 73
0
 74
0
 75
0
 76
0
 77
1
 78
8
 79
2
170
0
171
1
172
0
173
0
174
0
175
0
176
0
177
0
178
0
270
2
179
2
271
2
272
2
273
2
274
2
275
0
280
0
281
0
282
0
283
1
284
8
285
0
286
0
287
3
288
0
340
11
278
44
341
214
342
214
343
214
344
214
  0
ENDTAB
  0
ENDSEC
  0
SECTION
  2
BLOCKS
  0
BLOCK
  5
20
100
AcDbEntity
  8
0
100
AcDbBlockBegin
  2
*Model_Space
 70
0
 10
0.0
 20
0.0
 30
0.0
  3
*Model_Space
  1

  0
ENDBLK
  5
21
100
AcDbEntity
  8
0
100
AcDbBlockEnd
  0
BLOCK
  5
1C
100
AcDbEntity
  8
0
100
AcDbBlockBegin
  2
*Paper_Space
 70
0
 10
0.0
 20
0.0
 30
0.0
  3
*Paper_Space
  1

  0
ENDBLK
  5
1D
100
AcDbEntity
  8
0
100
AcDbBlockEnd
  0
BLOCK
  5
216
100
AcDbEntity
  8
0
100
AcDbBlockBegin
  2
_FILLED
 70
64
 10
0.0
 20
0.0
  3
_FILLED
  1

  0
SOLID
  5
217
100
AcDbEntity
  8
0
  6
BYBLOCK
 62
0
100
AcDbTrace
 10
0.0
 20
0.0
 11
-1.0
 21
0.3166666667
 12
-1.0
 22
-0.3166666667
 13
-1.0
 23
-0.3166666667
  0
ENDBLK
  5
218
100
AcDbEntity
  8
0
  6
BYBLOCK
 62
0
100
AcDbBlockEnd
  0
ENDSEC
  0
SECTION
  2
ENTITIES
  0
LINE
  5
219
100
AcDbEntity
  8
0
100
AcDbLine
 62
7
  6
CONTINUOUS
 10
43.9998086237
 20
-139.75
 11
-141.0001913763
 21
-139.75
  0
LINE
  5
21A
100
AcDbEntity
  8
CURVE
100
AcDbLine
 62
7
  6
CONTINUOUS
 10
1.4998086237
 20
-130.75
 11
3.9998086237
 21
-130.75
  0
LINE
  5
21B
100
AcDbEntity
  8
0
100
AcDbLine
 62
7
  6
CONTINUOUS
 10
25.4360432598
 20
-121.75
 11
-128.1702167181
 21
-121.75
  0
LINE
  5
21C
100
AcDbEntity
  8
0
100
AcDbLine
 62
250
  6
CONTINUOUS
 10
-135.8461540183
 20
-90.0752424849
 11
-118.9211859285
 21
-96.2026771162
  0
LINE
  5
21D
100
AcDbEntity
  8
0
100
AcDbLine
 62
250
  6
CONTINUOUS
 10
-101.0001913763
 20
-139.75
 11
-101.0001913763
 21
-121.75
  0
LINE
  5
21E
100
AcDbEntity
  8
0
100
AcDbLine
 62
7
  6
CONTINUOUS
 10
-149.4626754212
 20
-127.6862826843
 11
-56.9626754212
 21
127.8137173157
  0
LINE
  5
21F
100
AcDbEntity
  8
0
100
AcDbLine
 62
7
  6
CONTINUOUS
 10
-132.5377073314
 20
-133.8137173157
 11
-40.0377073314
 21
121.6862826843
  0
LINE
  5
220
100
AcDbEntity
  8
0
100
AcDbLine
 62
7
  6
CONTINUOUS
 10
-55.5632987861
 20
-19.0778610283
 11
36.933935936
 21
-136.3243558517
  0
LINE
  5
221
100
AcDbEntity
  8
ASSI
100
AcDbLine
 62
7
  6
CONTINUOUS
 10
-48.5001913763
 20
66.9975022731
 11
-48.5001913763
 21
67.5
  0
LINE
  5
222
100
AcDbEntity
  8
RACCORDO
100
AcDbLine
 62
250
  6
CONTINUOUS
 10
-32.9446358207
 20
52.6968631535
 11
-32.7563985269
 21
53.5037155419
  0
LINE
  5
223
100
AcDbEntity
  8
RACCORDO
100
AcDbLine
 62
250
  6
CONTINUOUS
 10
-64.9707796116
 20
-83.5907962801
 11
-64.7040546082
 21
-82.4500816751
  0
LINE
  5
224
100
AcDbEntity
  8
RACCORDO
100
AcDbLine
 62
250
  6
CONTINUOUS
 10
-32.029603141
 20
56.5907962801
 11
-32.2988458964
 21
55.4506732844
  0
LINE
  5
225
100
AcDbEntity
  8
RACCORDO
100
AcDbLine
 62
250
  6
CONTINUOUS
 10
-64.0557469319
 20
-79.6968631535
 11
-64.2465749526
 21
-80.5031067875
  0
LINE
  5
226
100
AcDbEntity
  8
RACCORDO
100
AcDbLine
 62
250
  6
CONTINUOUS
 10
-29.9466796706
 20
65.3464125428
 11
-29.7529439595
 21
66.1519561917
  0
LINE
  5
227
100
AcDbEntity
  8
RACCORDO
100
AcDbLine
 62
250
  6
CONTINUOUS
 10
-29.0102248211
 20
69.2352494274
 11
-29.2847110549
 21
68.0963733064
  0
LINE
  5
228
100
AcDbEntity
  8
ASSI
100
AcDbLine
 62
7
  6
CONTINUOUS
 10
123.201936289
 20
78.48125
 11
123.3934256279
 21
78.5374999464
  0
LINE
  5
229
100
AcDbEntity
  8
ASSI
100
AcDbLine
 62
7
  6
CONTINUOUS
 10
123.776404395
 20
77.1875001073
 11
123.5849149667
 21
77.13125
  0
LINE
  5
22A
100
AcDbEntity
  8
RACCORDO
100
AcDbLine
 62
250
  6
CONTINUOUS
 10
-29.0102248211
 20
-96.2352494274
 11
-29.2847110549
 21
-95.0963733064
  0
LINE
  5
22B
100
AcDbEntity
  8
RACCORDO
100
AcDbLine
 62
250
  6
CONTINUOUS
 10
-29.9466796706
 20
-92.3464125428
 11
-29.7529439595
 21
-93.1519561917
  0
LINE
  5
22C
100
AcDbEntity
  8
RACCORDO
100
AcDbLine
 62
250
  6
CONTINUOUS
 10
-64.0557469319
 20
52.6968631535
 11
-64.2465749526
 21
53.5031067875
  0
LINE
  5
22D
100
AcDbEntity
  8
RACCORDO
100
AcDbLine
 62
250
  6
CONTINUOUS
 10
-32.029603141
 20
-83.5907962801
 11
-32.2988458964
 21
-82.4506732844
  0
LINE
  5
22E
100
AcDbEntity
  8
RACCORDO
100
AcDbLine
 62
250
  6
CONTINUOUS
 10
-32.9446358208
 20
-79.6968631535
 11
-32.7563985269
 21
-80.5037155419
  0
LINE
  5
22F
100
AcDbEntity
  8
ASSI
100
AcDbLine
 62
7
  6
CONTINUOUS
 10
123.3295958482
 20
78.81875
 11
123.0104469054
 21
78.7062500268
  0
LINE
  5
230
100
AcDbEntity
  8
ASSI
100
AcDbLine
 62
7
  6
CONTINUOUS
 10
123.6487448358
 20
76.8500001073
 11
123.9678937339
 21
76.9625
  0
LINE
  5
231
100
AcDbEntity
  8
ASSI
100
AcDbLine
 62
7
  6
CONTINUOUS
 10
127.2827873461
 20
71.8750000268
 11
129.8998086237
 21
72.6625
  0
LINE
  5
232
100
AcDbEntity
  8
ASSI
100
AcDbLine
 62
7
  6
CONTINUOUS
 10
122.4998086237
 20
74.1499997854
 11
125.4998086237
 21
75.0499998927
  0
LINE
  5
233
100
AcDbEntity
  8
ASSI
100
AcDbLine
 62
7
  6
CONTINUOUS
 10
129.8998086237
 20
73.0
 11
126.8998086237
 21
72.0999999732
  0
LINE
  5
234
100
AcDbEntity
  8
ASSI
100
AcDbLine
 62
7
  6
CONTINUOUS
 10
124.7976810478
 20
76.9625
 11
124.9891703867
 21
77.0187501073
  0
LINE
  5
235
100
AcDbEntity
  8
ASSI
100
AcDbLine
 62
7
  6
CONTINUOUS
 10
123.2657660686
 20
74.7124998927
 11
122.4998086237
 21
74.4874997854
  0
LINE
  5
236
100
AcDbEntity
  8
ASSI
100
AcDbLine
 62
7
  6
CONTINUOUS
 10
125.2444895052
 20
75.275
 11
123.5210851871
 21
74.76875
  0
LINE
  5
237
100
AcDbEntity
  8
ASSI
100
AcDbLine
 62
7
  6
CONTINUOUS
 10
127.7934256279
 20
70.2437498927
 11
127.601936289
 21
70.1875001073
  0
LINE
  5
238
100
AcDbEntity
  8
ASSI
100
AcDbLine
 62
7
  6
CONTINUOUS
 10
123.7125746154
 20
66.8375
 11
123.5210851871
 21
66.7812495708
  0
LINE
  5
239
100
AcDbEntity
  8
ASSI
100
AcDbLine
 62
7
  6
CONTINUOUS
 10
129.0061915301
 20
68.3312501073
 11
129.1976810478
 21
68.3874998927
  0
LINE
  5
23A
100
AcDbEntity
  8
ASSI
100
AcDbLine
 62
7
  6
CONTINUOUS
 10
123.3934256279
 20
65.99375
 11
123.201936289
 21
65.9374995708
  0
LINE
  5
23B
100
AcDbEntity
  8
ASSI
100
AcDbLine
 62
7
  6
CONTINUOUS
 10
124.6061915301
 20
64.0812495708
 11
124.7976810478
 21
64.1375
  0
LINE
  5
23C
100
AcDbEntity
  8
0
100
AcDbLine
 62
7
  6
CONTINUOUS
 10
-41.4315534107
 20
-7.9291493249
 11
51.0656813114
 21
-125.1756441483
  0
LINE
  5
23D
100
AcDbEntity
  8
ASSI
100
AcDbLine
 62
7
  6
CONTINUOUS
 10
87.3850719139
 20
76.5
 11
111.803656201
 21
90.5980762114
  0
LINE
  5
23E
100
AcDbEntity
  8
ASSI
100
AcDbLine
 62
7
  6
CONTINUOUS
 10
123.2657660686
 20
68.525
 11
123.0104469054
 21
68.4125004292
  0
LINE
  5
23F
100
AcDbEntity
  8
ASSI
100
AcDbLine
 62
7
  6
CONTINUOUS
 10
127.601936289
 20
70.1875001073
 11
127.3466171258
 21
70.0749998927
  0
LINE
  5
240
100
AcDbEntity
  8
ASSI
100
AcDbLine
 62
7
  6
CONTINUOUS
 10
123.0104469054
 20
68.0750004292
 11
123.2657660686
 21
68.1875
  0
LINE
  5
241
100
AcDbEntity
  8
ASSI
100
AcDbLine
 62
7
  6
CONTINUOUS
 10
123.5849149667
 20
66.5
 11
123.9040639543
 21
66.6124995708
  0
LINE
  5
242
100
AcDbEntity
  8
ASSI
100
AcDbLine
 62
7
  6
CONTINUOUS
 10
122.8827873461
 20
62.45
 11
125.4998086237
 21
63.2374995708
  0
LINE
  5
243
100
AcDbEntity
  8
ASSI
100
AcDbLine
 62
7
  6
CONTINUOUS
 10
125.4998086237
 20
63.5749995708
 11
122.4998086237
 21
62.6750004292
  0
LINE
  5
244
100
AcDbEntity
  8
RACCORDO
100
AcDbLine
 62
250
  6
CONTINUOUS
 10
18.5005420104
 20
-29.2565001321
 11
17.6937149019
 21
-29.0681818182
  0
LINE
  5
245
100
AcDbEntity
  8
RACCORDO
100
AcDbLine
 62
250
  6
CONTINUOUS
 10
-115.5036704431
 20
2.2447779525
 11
-114.6970545298
 21
2.0555555555
  0
LINE
  5
246
100
AcDbEntity
  8
RACCORDO
100
AcDbLine
 62
250
  6
CONTINUOUS
 10
20.450113143
 20
-29.7028946849
 11
21.5906049038
 21
-29.9705882353
  0
LINE
  5
247
100
AcDbEntity
  8
RACCORDO
100
AcDbLine
 62
250
  6
CONTINUOUS
 10
-117.4506349445
 20
2.7023029961
 11
-118.5909876564
 21
2.9705882353
  0
LINE
  5
248
100
AcDbEntity
  8
RACCORDO
100
AcDbLine
 62
250
  6
CONTINUOUS
 10
33.0958699458
 20
-32.7167907354
 11
34.2350580511
 21
-32.9899665552
  0
LINE
  5
249
100
AcDbEntity
  8
RACCORDO
100
AcDbLine
 62
250
  6
CONTINUOUS
 10
-130.0963707164
 20
5.7162896363
 11
-131.2354408037
 21
5.9899665552
  0
LINE
  5
24A
100
AcDbEntity
  8
RACCORDO
100
AcDbLine
 62
250
  6
CONTINUOUS
 10
-128.1519488723
 20
5.2480765614
 11
-127.3466039191
 21
5.0535117057
  0
LINE
  5
24B
100
AcDbEntity
  8
RACCORDO
100
AcDbLine
 62
250
  6
CONTINUOUS
 10
31.1514453484
 20
-32.2485896315
 11
30.3462211665
 21
-32.0535117056
  0
LINE
  5
24C
100
AcDbEntity
  8
ASSI
100
AcDbLine
 62
7
  6
CONTINUOUS
 10
123.0104469054
 20
78.3687499464
 11
123.201936289
 21
78.48125
  0
LINE
  5
24D
100
AcDbEntity
  8
ASSI
100
AcDbLine
 62
7
  6
CONTINUOUS
 10
124.9891703867
 20
77.3562499464
 11
124.7976810478
 21
77.2437498927
  0
LINE
  5
24E
100
AcDbEntity
  8
ASSI
100
AcDbLine
 62
7
  6
CONTINUOUS
 10
114.9391836237
 20
69.12407
 11
114.5519026237
 21
68.906701
  0
LINE
  5
24F
100
AcDbEntity
  8
ASSI
100
AcDbLine
 62
7
  6
CONTINUOUS
 10
123.201936289
 20
65.9374995708
 11
122.9466171258
 21
65.825
  0
LINE
  5
250
100
AcDbEntity
  8
ASSI
100
AcDbLine
 62
7
  6
CONTINUOUS
 10
129.1976810478
 20
68.3874998927
 11
129.4530001663
 21
68.5000001073
  0
LINE
  5
251
100
AcDbEntity
  8
ASSI
100
AcDbLine
 62
7
  6
CONTINUOUS
 10
124.7976810478
 20
64.1375
 11
125.0530001663
 21
64.2499995708
  0
LINE
  5
252
100
AcDbEntity
  8
ASSI
100
AcDbLine
 62
7
  6
CONTINUOUS
 10
124.0317235135
 20
60.8749995708
 11
123.9040639543
 21
60.8187504292
  0
LINE
  5
253
100
AcDbEntity
  8
ASSI
100
AcDbLine
 62
7
  6
CONTINUOUS
 10
123.9040639543
 20
59.91875
 11
124.0317235135
 21
59.9750004292
  0
LINE
  5
254
100
AcDbEntity
  8
RACCORDO
100
AcDbLine
 62
250
  6
CONTINUOUS
 10
31.1514453484
 20
5.2485896315
 11
30.3462211665
 21
5.0535117057
  0
LINE
  5
255
100
AcDbEntity
  8
RACCORDO
100
AcDbLine
 62
250
  6
CONTINUOUS
 10
-128.1519488723
 20
-32.2480765614
 11
-127.3466039191
 21
-32.0535117057
  0
LINE
  5
256
100
AcDbEntity
  8
RACCORDO
100
AcDbLine
 62
250
  6
CONTINUOUS
 10
-130.0963707164
 20
-32.7162896363
 11
-131.2354408037
 21
-32.9899665552
  0
LINE
  5
257
100
AcDbEntity
  8
RACCORDO
100
AcDbLine
 62
250
  6
CONTINUOUS
 10
33.0958696015
 20
5.7167921652
 11
34.2350577019
 21
5.9899680054
  0
LINE
  5
258
100
AcDbEntity
  8
RACCORDO
100
AcDbLine
 62
250
  6
CONTINUOUS
 10
18.5001399425
 20
2.2581674645
 11
17.6937034696
 21
2.0681818182
  0
LINE
  5
259
100
AcDbEntity
  8
RACCORDO
100
AcDbLine
 62
250
  6
CONTINUOUS
 10
-117.4506349445
 20
-29.7023029961
 11
-118.5909876564
 21
-29.9705882353
  0
LINE
  5
25A
100
AcDbEntity
  8
RACCORDO
100
AcDbLine
 62
250
  6
CONTINUOUS
 10
20.450113143
 20
2.7028946849
 11
21.5906049038
 21
2.9705882353
  0
LINE
  5
25B
100
AcDbEntity
  8
RACCORDO
100
AcDbLine
 62
250
  6
CONTINUOUS
 10
-115.5036704431
 20
-29.2447779525
 11
-114.6970545298
 21
-29.0555555556
  0
LINE
  5
25C
100
AcDbEntity
  8
0
100
AcDbLine
 62
250
  6
CONTINUOUS
 10
3.9998086237
 20
-139.75
 11
3.9998086237
 21
-121.75
  0
LINE
  5
25D
100
AcDbEntity
  8
0
100
AcDbLine
 62
250
  6
CONTINUOUS
 10
-24.0918782611
 20
-29.9083591767
 11
-38.2236236365
 21
-41.0570708801
  0
LINE
  5
25E
100
AcDbEntity
  8
ASSI
100
AcDbLine
 62
7
  6
CONTINUOUS
 10
123.0104469054
 20
78.7062500268
 11
122.7551277645
 21
78.5374999464
  0
LINE
  5
25F
100
AcDbEntity
  8
ASSI
100
AcDbLine
 62
7
  6
CONTINUOUS
 10
124.9891703867
 20
77.0187501073
 11
125.2444895052
 21
77.1875001073
  0
LINE
  5
260
100
AcDbEntity
  8
ASSI
100
AcDbLine
 62
7
  6
CONTINUOUS
 10
123.0104469054
 20
68.4125004292
 11
122.7551277645
 21
68.2437504292
  0
LINE
  5
261
100
AcDbEntity
  8
ASSI
100
AcDbLine
 62
7
  6
CONTINUOUS
 10
123.9040639543
 20
66.6124995708
 11
124.1593830728
 21
66.7812495708
  0
LINE
  5
262
100
AcDbEntity
  8
ASSI
100
AcDbLine
 62
7
  6
CONTINUOUS
 10
124.9891703867
 20
69.4249997854
 11
124.7976810478
 21
69.3125002146
  0
LINE
  5
263
100
AcDbEntity
  8
ASSI
100
AcDbLine
 62
7
  6
CONTINUOUS
 10
127.4104469054
 20
69.7374998927
 11
127.7934256279
 21
69.9625
  0
LINE
  5
264
100
AcDbEntity
  8
ASSI
100
AcDbLine
 62
7
  6
CONTINUOUS
 10
123.9040639543
 20
66.9499995708
 11
123.7125746154
 21
66.8375
  0
LINE
  5
265
100
AcDbEntity
  8
ASSI
100
AcDbLine
 62
7
  6
CONTINUOUS
 10
123.0104469054
 20
65.4875
 11
123.3934256279
 21
65.7125004292
  0
LINE
  5
266
100
AcDbEntity
  8
ASSI
100
AcDbLine
 62
7
  6
CONTINUOUS
 10
129.3891703867
 20
68.8375001073
 11
129.0061915301
 21
68.6125
  0
LINE
  5
267
100
AcDbEntity
  8
ASSI
100
AcDbLine
 62
7
  6
CONTINUOUS
 10
124.9891703867
 20
64.5874995708
 11
124.6061915301
 21
64.3625004292
  0
LINE
  5
268
100
AcDbEntity
  8
ASSI
100
AcDbLine
 62
7
  6
CONTINUOUS
 10
123.9040639543
 20
77.3
 11
123.776404395
 21
77.1875001073
  0
LINE
  5
269
100
AcDbEntity
  8
ASSI
100
AcDbLine
 62
7
  6
CONTINUOUS
 10
123.9678937339
 20
76.9625
 11
124.1593830728
 21
77.13125
  0
LINE
  5
26A
100
AcDbEntity
  8
ASSI
100
AcDbLine
 62
7
  6
CONTINUOUS
 10
125.0530001663
 20
69.03125
 11
125.3083192848
 21
69.2562497854
  0
LINE
  5
26B
100
AcDbEntity
  8
ASSI
100
AcDbLine
 62
7
  6
CONTINUOUS
 10
127.3466171258
 20
70.0749998927
 11
127.1551277645
 21
69.9062498927
  0
LINE
  5
26C
100
AcDbEntity
  8
ASSI
100
AcDbLine
 62
7
  6
CONTINUOUS
 10
122.9466171258
 20
65.825
 11
122.7551277645
 21
65.65625
  0
LINE
  5
26D
100
AcDbEntity
  8
ASSI
100
AcDbLine
 62
7
  6
CONTINUOUS
 10
129.4530001663
 20
68.5000001073
 11
129.6444895052
 21
68.6687501073
  0
LINE
  5
26E
100
AcDbEntity
  8
ASSI
100
AcDbLine
 62
7
  6
CONTINUOUS
 10
125.0530001663
 20
64.2499995708
 11
125.2444895052
 21
64.4187495708
  0
LINE
  5
26F
100
AcDbEntity
  8
ASSI
100
AcDbLine
 62
7
  6
CONTINUOUS
 10
124.7976810478
 20
68.9749995708
 11
125.0530001663
 21
69.03125
  0
LINE
  5
270
100
AcDbEntity
  8
ASSI
100
AcDbLine
 62
7
  6
CONTINUOUS
 10
124.287042632
 20
64.0250004292
 11
124.6061915301
 21
64.0812495708
  0
LINE
  5
271
100
AcDbEntity
  8
ASSI
100
AcDbLine
 62
7
  6
CONTINUOUS
 10
122.8827873461
 20
78.1999999464
 11
123.0104469054
 21
78.3687499464
  0
LINE
  5
272
100
AcDbEntity
  8
ASSI
100
AcDbLine
 62
7
  6
CONTINUOUS
 10
124.0317235135
 20
77.46875
 11
123.9040639543
 21
77.3
  0
LINE
  5
273
100
AcDbEntity
  8
ASSI
100
AcDbLine
 62
7
  6
CONTINUOUS
 10
125.1168299459
 20
77.5249999464
 11
124.9891703867
 21
77.3562499464
  0
LINE
  5
274
100
AcDbEntity
  8
ASSI
100
AcDbLine
 62
7
  6
CONTINUOUS
 10
117.4474636237
 20
71.518141
 11
116.3774436237
 21
70.248398
  0
LINE
  5
275
100
AcDbEntity
  8
ASSI
100
AcDbLine
 62
7
  6
CONTINUOUS
 10
116.9626466237
 20
70.248398
 11
118.0820556237
 21
71.576748
  0
LINE
  5
276
100
AcDbEntity
  8
ASSI
100
AcDbLine
 62
7
  6
CONTINUOUS
 10
87.4998086237
 20
76.5662432703
 11
112.4998086237
 21
83.5
  0
LINE
  5
277
100
AcDbEntity
  8
ASSI
100
AcDbLine
 62
7
  6
CONTINUOUS
 10
123.7125746154
 20
66.0500004292
 11
123.3934256279
 21
65.99375
  0
LINE
  5
278
100
AcDbEntity
  8
ASSI
100
AcDbLine
 62
7
  6
CONTINUOUS
 10
128.687042632
 20
68.275
 11
129.0061915301
 21
68.3312501073
  0
LINE
  5
279
100
AcDbEntity
  8
ASSI
100
AcDbLine
 62
7
  6
CONTINUOUS
 10
128.1125746154
 20
70.3
 11
127.7934256279
 21
70.2437498927
  0
LINE
  5
27A
100
AcDbEntity
  8
ASSI
100
AcDbLine
 62
7
  6
CONTINUOUS
 10
124.6061915301
 20
64.3625004292
 11
124.2232128524
 21
64.30625
  0
LINE
  5
27B
100
AcDbEntity
  8
ASSI
100
AcDbLine
 62
7
  6
CONTINUOUS
 10
123.3934256279
 20
65.7125004292
 11
123.776404395
 21
65.7687495708
  0
LINE
  5
27C
100
AcDbEntity
  8
ASSI
100
AcDbLine
 62
7
  6
CONTINUOUS
 10
129.0061915301
 20
68.6125
 11
128.6232128524
 21
68.5562498927
  0
LINE
  5
27D
100
AcDbEntity
  8
ASSI
100
AcDbLine
 62
7
  6
CONTINUOUS
 10
127.7934256279
 20
69.9625
 11
128.176404395
 21
70.0187501073
  0
LINE
  5
27E
100
AcDbEntity
  8
ASSI
100
AcDbLine
 62
7
  6
CONTINUOUS
 10
113.303656201
 20
49.0
 11
130.4998086237
 21
49.0
  0
LINE
  5
27F
100
AcDbEntity
  8
ASSI
100
AcDbLine
 62
7
  6
CONTINUOUS
 10
140.4998086237
 20
54.5
 11
147.2998086237
 21
54.5
  0
LINE
  5
280
100
AcDbEntity
  8
ASSI
100
AcDbLine
 62
7
  6
CONTINUOUS
 10
130.4998086237
 20
54.6
 11
140.4998086237
 21
54.6
  0
LINE
  5
281
100
AcDbEntity
  8
ASSI
100
AcDbLine
 62
7
  6
CONTINUOUS
 10
112.9118843258
 20
56.5
 11
130.4998086237
 21
56.5
  0
LINE
  5
282
100
AcDbEntity
  8
ASSI
100
AcDbLine
 62
7
  6
CONTINUOUS
 10
122.7551277645
 20
78.5374999464
 11
122.5636384089
 21
78.2562500536
  0
LINE
  5
283
100
AcDbEntity
  8
ASSI
100
AcDbLine
 62
7
  6
CONTINUOUS
 10
124.1593830728
 20
77.13125
 11
124.3508724116
 21
77.4125000536
  0
LINE
  5
284
100
AcDbEntity
  8
ASSI
100
AcDbLine
 62
7
  6
CONTINUOUS
 10
125.2444895052
 20
77.1875001073
 11
125.4359788441
 21
77.46875
  0
LINE
  5
285
100
AcDbEntity
  8
ASSI
100
AcDbLine
 62
7
  6
CONTINUOUS
 10
122.7551277645
 20
68.2437504292
 11
122.5636384089
 21
67.9624995708
  0
LINE
  5
286
100
AcDbEntity
  8
ASSI
100
AcDbLine
 62
7
  6
CONTINUOUS
 10
122.7551277645
 20
65.65625
 11
122.5636384089
 21
65.3750004292
  0
LINE
  5
287
100
AcDbEntity
  8
ASSI
100
AcDbLine
 62
7
  6
CONTINUOUS
 10
124.1593830728
 20
66.7812495708
 11
124.3508724116
 21
67.0625004292
  0
LINE
  5
288
100
AcDbEntity
  8
ASSI
100
AcDbLine
 62
7
  6
CONTINUOUS
 10
127.1551277645
 20
69.9062498927
 11
126.9636384089
 21
69.625
  0
LINE
  5
289
100
AcDbEntity
  8
ASSI
100
AcDbLine
 62
7
  6
CONTINUOUS
 10
125.2444895052
 20
64.4187495708
 11
125.4359788441
 21
64.7000004292
  0
LINE
  5
28A
100
AcDbEntity
  8
ASSI
100
AcDbLine
 62
7
  6
CONTINUOUS
 10
129.6444895052
 20
68.6687501073
 11
129.8359788441
 21
68.95
  0
LINE
  5
28B
100
AcDbEntity
  8
ASSI
100
AcDbLine
 62
7
  6
CONTINUOUS
 10
122.8827873461
 20
67.9062504292
 11
123.0104469054
 21
68.0750004292
  0
LINE
  5
28C
100
AcDbEntity
  8
ASSI
100
AcDbLine
 62
7
  6
CONTINUOUS
 10
125.1168299459
 20
69.5937497854
 11
124.9891703867
 21
69.4249997854
  0
LINE
  5
28D
100
AcDbEntity
  8
ASSI
100
AcDbLine
 62
7
  6
CONTINUOUS
 10
124.0317235135
 20
67.1187495708
 11
123.9040639543
 21
66.9499995708
  0
LINE
  5
28E
100
AcDbEntity
  8
ASSI
100
AcDbLine
 62
7
  6
CONTINUOUS
 10
122.8827873461
 20
65.31875
 11
123.0104469054
 21
65.4875
  0
LINE
  5
28F
100
AcDbEntity
  8
ASSI
100
AcDbLine
 62
7
  6
CONTINUOUS
 10
127.2827873461
 20
69.5687498927
 11
127.4104469054
 21
69.7374998927
  0
LINE
  5
290
100
AcDbEntity
  8
ASSI
100
AcDbLine
 62
7
  6
CONTINUOUS
 10
125.1168299459
 20
64.7562495708
 11
124.9891703867
 21
64.5874995708
  0
LINE
  5
291
100
AcDbEntity
  8
ASSI
100
AcDbLine
 62
7
  6
CONTINUOUS
 10
129.5168299459
 20
69.0062501073
 11
129.3891703867
 21
68.8375001073
  0
LINE
  5
292
100
AcDbEntity
  8
ASSI
100
AcDbLine
 62
7
  6
CONTINUOUS
 10
123.776404395
 20
78.8750000268
 11
123.3295958482
 21
78.81875
  0
LINE
  5
293
100
AcDbEntity
  8
ASSI
100
AcDbLine
 62
7
  6
CONTINUOUS
 10
130.4998086237
 20
59.4
 11
140.4998086237
 21
59.4
  0
LINE
  5
294
100
AcDbEntity
  8
ASSI
100
AcDbLine
 62
7
  6
CONTINUOUS
 10
140.4998086237
 20
59.5
 11
147.2998086237
 21
59.5
  0
LINE
  5
295
100
AcDbEntity
  8
ASSI
100
AcDbLine
 62
7
  6
CONTINUOUS
 10
71.4998086237
 20
63.5
 11
112.9118843258
 21
63.5
  0
LINE
  5
296
100
AcDbEntity
  8
ASSI
100
AcDbLine
 62
7
  6
CONTINUOUS
 10
123.7125746154
 20
64.0250004292
 11
124.287042632
 21
64.0250004292
  0
LINE
  5
297
100
AcDbEntity
  8
ASSI
100
AcDbLine
 62
7
  6
CONTINUOUS
 10
124.2232128524
 20
64.30625
 11
123.776404395
 21
64.30625
  0
LINE
  5
298
100
AcDbEntity
  8
ASSI
100
AcDbLine
 62
250
  6
CONTINUOUS
 10
85.2998086237
 20
64.5
 11
82.7998086237
 21
64.5
  0
LINE
  5
299
100
AcDbEntity
  8
ASSI
100
AcDbLine
 62
250
  6
CONTINUOUS
 10
80.2998086237
 20
64.5
 11
77.7998086237
 21
64.5
  0
LINE
  5
29A
100
AcDbEntity
  8
ASSI
100
AcDbLine
 62
250
  6
CONTINUOUS
 10
75.2998086237
 20
64.5
 11
71.4998086237
 21
64.5
  0
LINE
  5
29B
100
AcDbEntity
  8
ASSI
100
AcDbLine
 62
7
  6
CONTINUOUS
 10
123.776404395
 20
65.7687495708
 11
124.2232128524
 21
65.7687495708
  0
LINE
  5
29C
100
AcDbEntity
  8
ASSI
100
AcDbLine
 62
7
  6
CONTINUOUS
 10
-35.8696140799
 20
66.0
 11
-32.9920657404
 21
66.0
  0
LINE
  5
29D
100
AcDbEntity
  8
ASSI
100
AcDbLine
 62
7
  6
CONTINUOUS
 10
71.4998086237
 20
66.0
 11
12.1571487673
 21
66.0
  0
LINE
  5
29E
100
AcDbEntity
  8
ASSI
100
AcDbLine
 62
7
  6
CONTINUOUS
 10
124.287042632
 20
66.0500004292
 11
123.7125746154
 21
66.0500004292
  0
LINE
  5
29F
100
AcDbEntity
  8
ASSI
100
AcDbLine
 62
7
  6
CONTINUOUS
 10
123.3295958482
 20
66.5
 11
123.5849149667
 21
66.5
  0
LINE
  5
2A0
100
AcDbEntity
  8
ASSI
100
AcDbLine
 62
7
  6
CONTINUOUS
 10
125.1806597256
 20
66.6124995708
 11
125.4998086237
 21
66.6124995708
  0
LINE
  5
2A1
100
AcDbEntity
  8
ASSI
100
AcDbLine
 62
7
  6
CONTINUOUS
 10
123.5210851871
 20
66.7812495708
 11
123.3934256279
 21
66.7812495708
  0
LINE
  5
2A2
100
AcDbEntity
  8
ASSI
100
AcDbLine
 62
7
  6
CONTINUOUS
 10
126.8998086237
 20
67.1499997854
 11
129.8998086237
 21
67.1499997854
  0
LINE
  5
2A3
100
AcDbEntity
  8
ASSI
100
AcDbLine
 62
7
  6
CONTINUOUS
 10
129.3891703867
 20
67.4874997854
 11
126.8998086237
 21
67.4874997854
  0
LINE
  5
2A4
100
AcDbEntity
  8
ASSI
100
AcDbLine
 62
7
  6
CONTINUOUS
 10
130.4998086237
 20
67.5
 11
147.7998086237
 21
67.5
  0
LINE
  5
2A5
100
AcDbEntity
  8
ASSI
100
AcDbLine
 62
7
  6
CONTINUOUS
 10
129.4530001663
 20
67.8250001073
 11
128.9423617505
 21
67.8250001073
  0
LINE
  5
2A6
100
AcDbEntity
  8
ASSI
100
AcDbLine
 62
7
  6
CONTINUOUS
 10
124.1593830728
 20
68.2437504292
 11
125.1806597256
 21
68.2437504292
  0
LINE
  5
2A7
100
AcDbEntity
  8
ASSI
100
AcDbLine
 62
7
  6
CONTINUOUS
 10
128.1125746154
 20
68.275
 11
128.687042632
 21
68.275
  0
LINE
  5
2A8
100
AcDbEntity
  8
ASSI
100
AcDbLine
 62
7
  6
CONTINUOUS
 10
125.4998086237
 20
68.525
 11
123.8402341746
 21
68.525
  0
LINE
  5
2A9
100
AcDbEntity
  8
ASSI
100
AcDbLine
 62
7
  6
CONTINUOUS
 10
128.6232128524
 20
68.5562498927
 11
128.176404395
 21
68.5562498927
  0
LINE
  5
2AA
100
AcDbEntity
  8
ASSI
100
AcDbLine
 62
7
  6
CONTINUOUS
 10
122.4998086237
 20
68.9749995708
 11
122.8189575665
 21
68.9749995708
  0
LINE
  5
2AB
100
AcDbEntity
  8
ASSI
100
AcDbLine
 62
7
  6
CONTINUOUS
 10
124.6700213098
 20
68.9749995708
 11
124.7976810478
 21
68.9749995708
  0
LINE
  5
2AC
100
AcDbEntity
  8
ASSI
100
AcDbLine
 62
7
  6
CONTINUOUS
 10
124.7976810478
 20
69.3125002146
 11
124.6700213098
 21
69.3125002146
  0
LINE
  5
2AD
100
AcDbEntity
  8
ASSI
100
AcDbLine
 62
7
  6
CONTINUOUS
 10
114.3395426237
 20
69.327009
 11
114.8117636237
 21
69.327009
  0
LINE
  5
2AE
100
AcDbEntity
  8
ASSI
100
AcDbLine
 62
7
  6
CONTINUOUS
 10
118.1666546237
 20
69.34243
 11
118.6414716237
 21
69.34243
  0
LINE
  5
2AF
100
AcDbEntity
  8
ASSI
100
AcDbLine
 62
7
  6
CONTINUOUS
 10
114.8117636237
 20
69.745335
 11
116.3827246237
 21
69.745335
  0
LINE
  5
2B0
100
AcDbEntity
  8
ASSI
100
AcDbLine
 62
7
  6
CONTINUOUS
 10
116.9626466237
 20
69.745335
 11
118.1666546237
 21
69.745335
  0
LINE
  5
2B1
100
AcDbEntity
  8
ASSI
100
AcDbLine
 62
7
  6
CONTINUOUS
 10
128.176404395
 20
70.0187501073
 11
128.6232128524
 21
70.0187501073
  0
LINE
  5
2B2
100
AcDbEntity
  8
ASSI
100
AcDbLine
 62
250
  6
CONTINUOUS
 10
111.9783800523
 20
63.5
 11
87.7998086237
 21
64.5
  0
LINE
  5
2B3
100
AcDbEntity
  8
0
100
AcDbLine
 62
250
  6
CONTINUOUS
 10
-70.5791968241
 20
90.2026771162
 11
-53.6542287344
 21
84.0752424849
  0
LINE
  5
2B4
100
AcDbEntity
  8
ASSI
100
AcDbLine
 62
7
  6
CONTINUOUS
 10
71.4998086237
 20
63.5
 11
71.4998086237
 21
76.5
  0
LINE
  5
2B5
100
AcDbEntity
  8
ASSI
100
AcDbLine
 62
7
  6
CONTINUOUS
 10
75.2998086237
 20
76.5
 11
75.2998086237
 21
63.5
  0
LINE
  5
2B6
100
AcDbEntity
  8
ASSI
100
AcDbLine
 62
7
  6
CONTINUOUS
 10
77.7998086237
 20
63.5
 11
77.7998086237
 21
76.5
  0
LINE
  5
2B7
100
AcDbEntity
  8
ASSI
100
AcDbLine
 62
7
  6
CONTINUOUS
 10
80.2998086237
 20
76.5
 11
80.2998086237
 21
63.5
  0
LINE
  5
2B8
100
AcDbEntity
  8
ASSI
100
AcDbLine
 62
7
  6
CONTINUOUS
 10
82.7998086237
 20
63.5
 11
82.7998086237
 21
76.5
  0
LINE
  5
2B9
100
AcDbEntity
  8
ASSI
100
AcDbLine
 62
7
  6
CONTINUOUS
 10
125.3083192848
 20
69.2562497854
 11
125.4359788441
 21
69.4812502146
  0
LINE
  5
2BA
100
AcDbEntity
  8
ASSI
100
AcDbLine
 62
7
  6
CONTINUOUS
 10
124.0317235135
 20
60.6500004292
 11
123.776404395
 21
60.1999995708
  0
LINE
  5
2BB
100
AcDbEntity
  8
ASSI
100
AcDbLine
 62
7
  6
CONTINUOUS
 10
123.9040639543
 20
60.1999995708
 11
124.1593830728
 21
60.6500004292
  0
LINE
  5
2BC
100
AcDbEntity
  8
ASSI
100
AcDbLine
 62
250
  6
CONTINUOUS
 10
87.7998086237
 20
75.5
 11
107.1426657666
 21
76.3
  0
LINE
  5
2BD
100
AcDbEntity
  8
ASSI
100
AcDbLine
 62
7
  6
CONTINUOUS
 10
118.1666546237
 20
70.248398
 11
116.9626466237
 21
70.248398
  0
LINE
  5
2BE
100
AcDbEntity
  8
ASSI
100
AcDbLine
 62
7
  6
CONTINUOUS
 10
116.3774436237
 20
70.248398
 11
114.8117636237
 21
70.248398
  0
LINE
  5
2BF
100
AcDbEntity
  8
ASSI
100
AcDbLine
 62
7
  6
CONTINUOUS
 10
128.687042632
 20
70.3
 11
128.1125746154
 21
70.3
  0
LINE
  5
2C0
100
AcDbEntity
  8
ASSI
100
AcDbLine
 62
7
  6
CONTINUOUS
 10
118.6414716237
 20
70.651466
 11
118.1666546237
 21
70.651466
  0
LINE
  5
2C1
100
AcDbEntity
  8
ASSI
100
AcDbLine
 62
7
  6
CONTINUOUS
 10
114.8117636237
 20
70.666887
 11
114.3395426237
 21
70.666887
  0
LINE
  5
2C2
100
AcDbEntity
  8
ASSI
100
AcDbLine
 62
7
  6
CONTINUOUS
 10
122.8189575665
 20
71.0000002146
 11
122.4998086237
 21
71.0000002146
  0
LINE
  5
2C3
100
AcDbEntity
  8
ASSI
100
AcDbLine
 62
7
  6
CONTINUOUS
 10
130.4998086237
 20
72.5
 11
147.7998086237
 21
72.5
  0
LINE
  5
2C4
100
AcDbEntity
  8
ASSI
100
AcDbLine
 62
7
  6
CONTINUOUS
 10
71.4998086237
 20
74.0
 11
-0.0887554831
 21
74.0
  0
LINE
  5
2C5
100
AcDbEntity
  8
ASSI
100
AcDbLine
 62
250
  6
CONTINUOUS
 10
71.4998086237
 20
75.5
 11
75.2998086237
 21
75.5
  0
LINE
  5
2C6
100
AcDbEntity
  8
ASSI
100
AcDbLine
 62
250
  6
CONTINUOUS
 10
77.7998086237
 20
75.5
 11
80.2998086237
 21
75.5
  0
LINE
  5
2C7
100
AcDbEntity
  8
ASSI
100
AcDbLine
 62
250
  6
CONTINUOUS
 10
82.7998086237
 20
75.5
 11
85.2998086237
 21
75.5
  0
LINE
  5
2C8
100
AcDbEntity
  8
ASSI
100
AcDbLine
 62
7
  6
CONTINUOUS
 10
112.4998086237
 20
76.5
 11
107.1426657666
 21
76.5
  0
LINE
  5
2C9
100
AcDbEntity
  8
ASSI
100
AcDbLine
 62
7
  6
CONTINUOUS
 10
71.4998086237
 20
76.5
 11
106.3045870342
 21
76.5
  0
LINE
  5
2CA
100
AcDbEntity
  8
ASSI
100
AcDbLine
 62
7
  6
CONTINUOUS
 10
123.3295958482
 20
76.8500001073
 11
123.6487448358
 21
76.8500001073
  0
LINE
  5
2CB
100
AcDbEntity
  8
ASSI
100
AcDbLine
 62
7
  6
CONTINUOUS
 10
123.5849149667
 20
77.13125
 11
123.3934256279
 21
77.13125
  0
LINE
  5
2CC
100
AcDbEntity
  8
ASSI
100
AcDbLine
 62
7
  6
CONTINUOUS
 10
123.3934256279
 20
78.5374999464
 11
123.5849149667
 21
78.5374999464
  0
LINE
  5
2CD
100
AcDbEntity
  8
ASSI
100
AcDbLine
 62
7
  6
CONTINUOUS
 10
124.0955532931
 20
78.5937500536
 11
124.2232128524
 21
78.5937500536
  0
LINE
  5
2CE
100
AcDbEntity
  8
ASSI
100
AcDbLine
 62
7
  6
CONTINUOUS
 10
124.2232128524
 20
78.8750000268
 11
123.776404395
 21
78.8750000268
  0
LINE
  5
2CF
100
AcDbEntity
  8
ASSI
100
AcDbLine
 62
7
  6
CONTINUOUS
 10
122.4998086237
 20
79.325
 11
125.4998086237
 21
79.325
  0
LINE
  5
2D0
100
AcDbEntity
  8
ASSI
100
AcDbLine
 62
7
  6
CONTINUOUS
 10
124.9891703867
 20
79.6625
 11
122.4998086237
 21
79.6625
  0
LINE
  5
2D1
100
AcDbEntity
  8
ASSI
100
AcDbLine
 62
7
  6
CONTINUOUS
 10
125.0530001663
 20
80.0
 11
124.5423617505
 21
80.0
  0
LINE
  5
2D2
100
AcDbEntity
  8
ASSI
100
AcDbLine
 62
7
  6
CONTINUOUS
 10
140.4998086237
 20
80.5
 11
147.2998086237
 21
80.5
  0
LINE
  5
2D3
100
AcDbEntity
  8
ASSI
100
AcDbLine
 62
7
  6
CONTINUOUS
 10
130.4998086237
 20
80.6
 11
140.4998086237
 21
80.6
  0
LINE
  5
2D4
100
AcDbEntity
  8
ASSI
100
AcDbLine
 62
7
  6
CONTINUOUS
 10
112.4998086237
 20
83.5
 11
130.4998086237
 21
83.5
  0
LINE
  5
2D5
100
AcDbEntity
  8
ASSI
100
AcDbLine
 62
7
  6
CONTINUOUS
 10
123.776404395
 20
64.30625
 11
123.3934256279
 21
64.3625004292
  0
LINE
  5
2D6
100
AcDbEntity
  8
ASSI
100
AcDbLine
 62
7
  6
CONTINUOUS
 10
124.2232128524
 20
65.7687495708
 11
124.6061915301
 21
65.7125004292
  0
LINE
  5
2D7
100
AcDbEntity
  8
ASSI
100
AcDbLine
 62
7
  6
CONTINUOUS
 10
85.2998086237
 20
76.5
 11
85.2998086237
 21
63.5
  0
LINE
  5
2D8
100
AcDbEntity
  8
ASSI
100
AcDbLine
 62
7
  6
CONTINUOUS
 10
87.4998086237
 20
63.5
 11
87.4998086237
 21
63.4337567297
  0
LINE
  5
2D9
100
AcDbEntity
  8
ASSI
100
AcDbLine
 62
7
  6
CONTINUOUS
 10
87.4998086237
 20
76.5
 11
87.4998086237
 21
76.5662432703
  0
LINE
  5
2DA
100
AcDbEntity
  8
ASSI
100
AcDbLine
 62
7
  6
CONTINUOUS
 10
87.7998086237
 20
63.5
 11
87.7998086237
 21
76.5
  0
LINE
  5
2DB
100
AcDbEntity
  8
ASSI
100
AcDbLine
 62
7
  6
CONTINUOUS
 10
122.8189575665
 20
78.0312499464
 11
122.8827873461
 21
78.1999999464
  0
LINE
  5
2DC
100
AcDbEntity
  8
ASSI
100
AcDbLine
 62
7
  6
CONTINUOUS
 10
124.0955532931
 20
77.6375
 11
124.0317235135
 21
77.46875
  0
LINE
  5
2DD
100
AcDbEntity
  8
ASSI
100
AcDbLine
 62
7
  6
CONTINUOUS
 10
125.1806597256
 20
77.6937499464
 11
125.1168299459
 21
77.5249999464
  0
LINE
  5
2DE
100
AcDbEntity
  8
0
100
AcDbLine
 62
250
  6
CONTINUOUS
 10
26.290766415
 20
-93.7717655363
 11
12.1590210396
 21
-104.9204772397
  0
LINE
  5
2DF
100
AcDbEntity
  8
ASSI
100
AcDbLine
 62
7
  6
CONTINUOUS
 10
130.4998086237
 20
85.4
 11
140.4998086237
 21
85.4
  0
LINE
  5
2E0
100
AcDbEntity
  8
ASSI
100
AcDbLine
 62
7
  6
CONTINUOUS
 10
140.4998086237
 20
85.5
 11
147.2998086237
 21
85.5
  0
LINE
  5
2E1
100
AcDbEntity
  8
ASSI
100
AcDbLine
 62
7
  6
CONTINUOUS
 10
113.303656201
 20
91.0
 11
130.4998086237
 21
91.0
  0
LINE
  5
2E2
100
AcDbEntity
  8
ASSI
100
AcDbLine
 62
7
  6
CONTINUOUS
 10
124.6700213098
 20
78.81875
 11
124.2232128524
 21
78.8750000268
  0
LINE
  5
2E3
100
AcDbEntity
  8
ASSI
100
AcDbLine
 62
7
  6
CONTINUOUS
 10
128.176404395
 20
68.5562498927
 11
127.7934256279
 21
68.6125
  0
LINE
  5
2E4
100
AcDbEntity
  8
ASSI
100
AcDbLine
 62
7
  6
CONTINUOUS
 10
128.6232128524
 20
70.0187501073
 11
129.0061915301
 21
69.9625
  0
LINE
  5
2E5
100
AcDbEntity
  8
ASSI
100
AcDbLine
 62
7
  6
CONTINUOUS
 10
124.2232128524
 20
78.5937500536
 11
124.6061915301
 21
78.5374999464
  0
LINE
  5
2E6
100
AcDbEntity
  8
ASSI
100
AcDbLine
 62
7
  6
CONTINUOUS
 10
123.3934256279
 20
64.0812495708
 11
123.7125746154
 21
64.0250004292
  0
LINE
  5
2E7
100
AcDbEntity
  8
ASSI
100
AcDbLine
 62
7
  6
CONTINUOUS
 10
124.6061915301
 20
65.99375
 11
124.287042632
 21
66.0500004292
  0
LINE
  5
2E8
100
AcDbEntity
  8
ASSI
100
AcDbLine
 62
7
  6
CONTINUOUS
 10
127.7934256279
 20
68.3312501073
 11
128.1125746154
 21
68.275
  0
LINE
  5
2E9
100
AcDbEntity
  8
ASSI
100
AcDbLine
 62
7
  6
CONTINUOUS
 10
129.0061915301
 20
70.2437498927
 11
128.687042632
 21
70.3
  0
LINE
  5
2EA
100
AcDbEntity
  8
ASSI
100
AcDbLine
 62
7
  6
CONTINUOUS
 10
124.4147021913
 20
69.03125
 11
124.6700213098
 21
68.9749995708
  0
LINE
  5
2EB
100
AcDbEntity
  8
ASSI
100
AcDbLine
 62
7
  6
CONTINUOUS
 10
125.0530001663
 20
70.8875
 11
124.7976810478
 21
70.9437497854
  0
LINE
  5
2EC
100
AcDbEntity
  8
ASSI
100
AcDbLine
 62
7
  6
CONTINUOUS
 10
87.4998086237
 20
63.4337567297
 11
112.1029945492
 21
56.6100564904
  0
LINE
  5
2ED
100
AcDbEntity
  8
ASSI
100
AcDbLine
 62
7
  6
CONTINUOUS
 10
123.201936289
 20
64.1375
 11
123.3934256279
 21
64.0812495708
  0
LINE
  5
2EE
100
AcDbEntity
  8
ASSI
100
AcDbLine
 62
7
  6
CONTINUOUS
 10
122.4998086237
 20
62.2249995708
 11
125.4998086237
 21
61.3250004292
  0
LINE
  5
2EF
100
AcDbEntity
  8
ASSI
100
AcDbLine
 62
7
  6
CONTINUOUS
 10
125.4998086237
 20
61.6625004292
 11
122.8827873461
 21
62.45
  0
LINE
  5
2F0
100
AcDbEntity
  8
ASSI
100
AcDbLine
 62
7
  6
CONTINUOUS
 10
107.1426657666
 20
76.3
 11
107.1426657666
 21
76.5
  0
LINE
  5
2F1
100
AcDbEntity
  8
ASSI
100
AcDbLine
 62
7
  6
CONTINUOUS
 10
122.5636384089
 20
65.3750004292
 11
122.4998086237
 21
65.0375004292
  0
LINE
  5
2F2
100
AcDbEntity
  8
ASSI
100
AcDbLine
 62
7
  6
CONTINUOUS
 10
125.4359788441
 20
69.4812502146
 11
125.4998086237
 21
69.8187502146
  0
LINE
  5
2F3
100
AcDbEntity
  8
ASSI
100
AcDbLine
 62
7
  6
CONTINUOUS
 10
122.5636384089
 20
78.2562500536
 11
122.4998086237
 21
77.975
  0
LINE
  5
2F4
100
AcDbEntity
  8
ASSI
100
AcDbLine
 62
7
  6
CONTINUOUS
 10
124.3508724116
 20
77.4125000536
 11
124.4147021913
 21
77.6937499464
  0
LINE
  5
2F5
100
AcDbEntity
  8
ASSI
100
AcDbLine
 62
7
  6
CONTINUOUS
 10
122.5636384089
 20
67.9624995708
 11
122.4998086237
 21
67.68125
  0
LINE
  5
2F6
100
AcDbEntity
  8
ASSI
100
AcDbLine
 62
7
  6
CONTINUOUS
 10
125.4359788441
 20
77.46875
 11
125.4998086237
 21
77.7500000536
  0
LINE
  5
2F7
100
AcDbEntity
  8
ASSI
100
AcDbLine
 62
7
  6
CONTINUOUS
 10
122.8189575665
 20
65.0375004292
 11
122.8827873461
 21
65.31875
  0
LINE
  5
2F8
100
AcDbEntity
  8
ASSI
100
AcDbLine
 62
7
  6
CONTINUOUS
 10
124.3508724116
 20
67.0625004292
 11
124.4147021913
 21
67.34375
  0
LINE
  5
2F9
100
AcDbEntity
  8
ASSI
100
AcDbLine
 62
7
  6
CONTINUOUS
 10
125.1806597256
 20
69.875
 11
125.1168299459
 21
69.5937497854
  0
LINE
  5
2FA
100
AcDbEntity
  8
ASSI
100
AcDbLine
 62
7
  6
CONTINUOUS
 10
125.1806597256
 20
65.0375004292
 11
125.1168299459
 21
64.7562495708
  0
LINE
  5
2FB
100
AcDbEntity
  8
ASSI
100
AcDbLine
 62
7
  6
CONTINUOUS
 10
127.2189575665
 20
69.2875
 11
127.2827873461
 21
69.5687498927
  0
LINE
  5
2FC
100
AcDbEntity
  8
ASSI
100
AcDbLine
 62
7
  6
CONTINUOUS
 10
129.5806597256
 20
69.2875
 11
129.5168299459
 21
69.0062501073
  0
LINE
  5
2FD
100
AcDbEntity
  8
ASSI
100
AcDbLine
 62
7
  6
CONTINUOUS
 10
122.8189575665
 20
67.68125
 11
122.8827873461
 21
67.9062504292
  0
LINE
  5
2FE
100
AcDbEntity
  8
ASSI
100
AcDbLine
 62
7
  6
CONTINUOUS
 10
124.0955532931
 20
67.34375
 11
124.0317235135
 21
67.1187495708
  0
LINE
  5
2FF
100
AcDbEntity
  8
ASSI
100
AcDbLine
 62
7
  6
CONTINUOUS
 10
124.7976810478
 20
65.9374995708
 11
124.6061915301
 21
65.99375
  0
LINE
  5
300
100
AcDbEntity
  8
ASSI
100
AcDbLine
 62
7
  6
CONTINUOUS
 10
123.3934256279
 20
66.7812495708
 11
123.201936289
 21
66.8375
  0
LINE
  5
301
100
AcDbEntity
  8
ASSI
100
AcDbLine
 62
7
  6
CONTINUOUS
 10
127.601936289
 20
68.3874998927
 11
127.7934256279
 21
68.3312501073
  0
LINE
  5
302
100
AcDbEntity
  8
ASSI
100
AcDbLine
 62
7
  6
CONTINUOUS
 10
129.1976810478
 20
70.1875001073
 11
129.0061915301
 21
70.2437498927
  0
LINE
  5
303
100
AcDbEntity
  8
ASSI
100
AcDbLine
 62
7
  6
CONTINUOUS
 10
122.4998086237
 20
76.0624998927
 11
123.2657660686
 21
75.8375001073
  0
LINE
  5
304
100
AcDbEntity
  8
ASSI
100
AcDbLine
 62
7
  6
CONTINUOUS
 10
123.5210851871
 20
75.78125
 11
125.2444895052
 21
75.275
  0
LINE
  5
305
100
AcDbEntity
  8
ASSI
100
AcDbLine
 62
7
  6
CONTINUOUS
 10
123.3934256279
 20
77.13125
 11
123.201936289
 21
77.1875001073
  0
LINE
  5
306
100
AcDbEntity
  8
ASSI
100
AcDbLine
 62
7
  6
CONTINUOUS
 10
123.5849149667
 20
78.5374999464
 11
123.776404395
 21
78.48125
  0
LINE
  5
307
100
AcDbEntity
  8
ASSI
100
AcDbLine
 62
7
  6
CONTINUOUS
 10
124.6061915301
 20
78.5374999464
 11
124.7976810478
 21
78.48125
  0
LINE
  5
308
100
AcDbEntity
  8
ASSI
100
AcDbLine
 62
7
  6
CONTINUOUS
 10
126.8998086237
 20
71.65
 11
129.8998086237
 21
70.7500000536
  0
LINE
  5
309
100
AcDbEntity
  8
ASSI
100
AcDbLine
 62
7
  6
CONTINUOUS
 10
125.4998086237
 20
75.5000001073
 11
122.4998086237
 21
76.3999998927
  0
LINE
  5
30A
100
AcDbEntity
  8
ASSI
100
AcDbLine
 62
7
  6
CONTINUOUS
 10
129.8998086237
 20
71.0875000536
 11
127.2827873461
 21
71.8750000268
  0
LINE
  5
30B
100
AcDbEntity
  8
ASSI
100
AcDbLine
 62
7
  6
CONTINUOUS
 10
123.0104469054
 20
66.6124995708
 11
123.3295958482
 21
66.5
  0
LINE
  5
30C
100
AcDbEntity
  8
ASSI
100
AcDbLine
 62
7
  6
CONTINUOUS
 10
122.9466171258
 20
64.2499995708
 11
123.201936289
 21
64.1375
  0
LINE
  5
30D
100
AcDbEntity
  8
ASSI
100
AcDbLine
 62
7
  6
CONTINUOUS
 10
125.0530001663
 20
65.825
 11
124.7976810478
 21
65.9374995708
  0
LINE
  5
30E
100
AcDbEntity
  8
ASSI
100
AcDbLine
 62
7
  6
CONTINUOUS
 10
87.3850719139
 20
63.5
 11
111.803656201
 21
49.4019237886
  0
LINE
  5
30F
100
AcDbEntity
  8
ASSI
100
AcDbLine
 62
250
  6
CONTINUOUS
 10
112.1029945492
 20
63.5
 11
112.1029945492
 21
56.6100564904
  0
LINE
  5
310
100
AcDbEntity
  8
ASSI
100
AcDbLine
 62
7
  6
CONTINUOUS
 10
112.4998086237
 20
56.4695330392
 11
112.4998086237
 21
49.109700868
  0
LINE
  5
311
100
AcDbEntity
  8
ASSI
100
AcDbLine
 62
7
  6
CONTINUOUS
 10
112.4998086237
 20
63.5
 11
112.4998086237
 21
90.890299132
  0
LINE
  5
312
100
AcDbEntity
  8
ASSI
100
AcDbLine
 62
250
  6
CONTINUOUS
 10
112.9118843258
 20
63.5
 11
112.9118843258
 21
56.5
  0
LINE
  5
313
100
AcDbEntity
  8
ASSI
100
AcDbLine
 62
7
  6
CONTINUOUS
 10
114.3395426237
 20
70.666887
 11
114.3395426237
 21
69.327009
  0
LINE
  5
314
100
AcDbEntity
  8
ASSI
100
AcDbLine
 62
7
  6
CONTINUOUS
 10
114.8117636237
 20
69.327009
 11
114.8117636237
 21
69.745335
  0
LINE
  5
315
100
AcDbEntity
  8
ASSI
100
AcDbLine
 62
7
  6
CONTINUOUS
 10
114.8117636237
 20
70.248398
 11
114.8117636237
 21
70.666887
  0
LINE
  5
316
100
AcDbEntity
  8
ASSI
100
AcDbLine
 62
7
  6
CONTINUOUS
 10
118.1666546237
 20
70.651466
 11
118.1666546237
 21
70.248398
  0
LINE
  5
317
100
AcDbEntity
  8
ASSI
100
AcDbLine
 62
7
  6
CONTINUOUS
 10
118.1666546237
 20
69.745335
 11
118.1666546237
 21
69.34243
  0
LINE
  5
318
100
AcDbEntity
  8
ASSI
100
AcDbLine
 62
7
  6
CONTINUOUS
 10
118.6414716237
 20
69.34243
 11
118.6414716237
 21
70.651466
  0
LINE
  5
319
100
AcDbEntity
  8
ASSI
100
AcDbLine
 62
7
  6
CONTINUOUS
 10
122.4998086237
 20
79.6625
 11
122.4998086237
 21
79.325
  0
LINE
  5
31A
100
AcDbEntity
  8
ASSI
100
AcDbLine
 62
7
  6
CONTINUOUS
 10
122.4998086237
 20
77.975
 11
122.4998086237
 21
77.6937499464
  0
LINE
  5
31B
100
AcDbEntity
  8
ASSI
100
AcDbLine
 62
7
  6
CONTINUOUS
 10
122.4998086237
 20
76.3999998927
 11
122.4998086237
 21
76.0624998927
  0
LINE
  5
31C
100
AcDbEntity
  8
ASSI
100
AcDbLine
 62
7
  6
CONTINUOUS
 10
122.4998086237
 20
74.4874997854
 11
122.4998086237
 21
74.1499997854
  0
LINE
  5
31D
100
AcDbEntity
  8
ASSI
100
AcDbLine
 62
7
  6
CONTINUOUS
 10
122.4998086237
 20
71.0000002146
 11
122.4998086237
 21
68.9749995708
  0
LINE
  5
31E
100
AcDbEntity
  8
ASSI
100
AcDbLine
 62
7
  6
CONTINUOUS
 10
122.4998086237
 20
67.68125
 11
122.4998086237
 21
67.34375
  0
LINE
  5
31F
100
AcDbEntity
  8
ASSI
100
AcDbLine
 62
7
  6
CONTINUOUS
 10
122.4998086237
 20
62.6750004292
 11
122.4998086237
 21
62.2249995708
  0
LINE
  5
320
100
AcDbEntity
  8
ASSI
100
AcDbLine
 62
7
  6
CONTINUOUS
 10
122.8189575665
 20
67.34375
 11
122.8189575665
 21
67.68125
  0
LINE
  5
321
100
AcDbEntity
  8
ASSI
100
AcDbLine
 62
7
  6
CONTINUOUS
 10
122.8189575665
 20
68.9749995708
 11
122.8189575665
 21
70.55
  0
LINE
  5
322
100
AcDbEntity
  8
ASSI
100
AcDbLine
 62
7
  6
CONTINUOUS
 10
122.8189575665
 20
77.6375
 11
122.8189575665
 21
78.0312499464
  0
LINE
  5
323
100
AcDbEntity
  8
ASSI
100
AcDbLine
 62
7
  6
CONTINUOUS
 10
123.2657660686
 20
75.8375001073
 11
123.2657660686
 21
74.7124998927
  0
LINE
  5
324
100
AcDbEntity
  8
ASSI
100
AcDbLine
 62
7
  6
CONTINUOUS
 10
123.2657660686
 20
68.1875
 11
123.2657660686
 21
68.525
  0
LINE
  5
325
100
AcDbEntity
  8
ASSI
100
AcDbLine
 62
7
  6
CONTINUOUS
 10
123.5210851871
 20
74.76875
 11
123.5210851871
 21
75.78125
  0
LINE
  5
326
100
AcDbEntity
  8
ASSI
100
AcDbLine
 62
7
  6
CONTINUOUS
 10
123.8402341746
 20
68.525
 11
123.8402341746
 21
68.1312495708
  0
LINE
  5
327
100
AcDbEntity
  8
ASSI
100
AcDbLine
 62
7
  6
CONTINUOUS
 10
124.0955532931
 20
78.0312499464
 11
124.0955532931
 21
77.6375
  0
LINE
  5
328
100
AcDbEntity
  8
ASSI
100
AcDbLine
 62
7
  6
CONTINUOUS
 10
124.0955532931
 20
67.68125
 11
124.0955532931
 21
67.34375
  0
LINE
  5
329
100
AcDbEntity
  8
ASSI
100
AcDbLine
 62
7
  6
CONTINUOUS
 10
124.4147021913
 20
67.34375
 11
124.4147021913
 21
67.68125
  0
LINE
  5
32A
100
AcDbEntity
  8
ASSI
100
AcDbLine
 62
7
  6
CONTINUOUS
 10
124.4147021913
 20
77.6937499464
 11
124.4147021913
 21
77.975
  0
LINE
  5
32B
100
AcDbEntity
  8
ASSI
100
AcDbLine
 62
7
  6
CONTINUOUS
 10
124.7976810478
 20
77.2437498927
 11
124.7976810478
 21
76.9625
  0
LINE
  5
32C
100
AcDbEntity
  8
ASSI
100
AcDbLine
 62
7
  6
CONTINUOUS
 10
124.7976810478
 20
70.9437497854
 11
124.7976810478
 21
70.6625002146
  0
LINE
  5
32D
100
AcDbEntity
  8
ASSI
100
AcDbLine
 62
7
  6
CONTINUOUS
 10
125.4359788441
 20
64.7000004292
 11
125.4998086237
 21
65.0375004292
  0
LINE
  5
32E
100
AcDbEntity
  8
ASSI
100
AcDbLine
 62
7
  6
CONTINUOUS
 10
126.9636384089
 20
69.625
 11
126.8998086237
 21
69.2875
  0
LINE
  5
32F
100
AcDbEntity
  8
ASSI
100
AcDbLine
 62
7
  6
CONTINUOUS
 10
129.8359788441
 20
68.95
 11
129.8998086237
 21
69.2875
  0
LINE
  5
330
100
AcDbEntity
  8
ASSI
100
AcDbLine
 62
7
  6
CONTINUOUS
 10
123.0104469054
 20
76.9625
 11
123.3295958482
 21
76.8500001073
  0
LINE
  5
331
100
AcDbEntity
  8
ASSI
100
AcDbLine
 62
7
  6
CONTINUOUS
 10
124.9891703867
 20
78.7062500268
 11
124.6700213098
 21
78.81875
  0
LINE
  5
332
100
AcDbEntity
  8
ASSI
100
AcDbLine
 62
7
  6
CONTINUOUS
 10
124.6700213098
 20
69.3125002146
 11
124.4147021913
 21
69.4249997854
  0
LINE
  5
333
100
AcDbEntity
  8
ASSI
100
AcDbLine
 62
7
  6
CONTINUOUS
 10
127.3466171258
 20
68.5000001073
 11
127.601936289
 21
68.3874998927
  0
LINE
  5
334
100
AcDbEntity
  8
ASSI
100
AcDbLine
 62
7
  6
CONTINUOUS
 10
129.4530001663
 20
70.0749998927
 11
129.1976810478
 21
70.1875001073
  0
LINE
  5
335
100
AcDbEntity
  8
ASSI
100
AcDbLine
 62
7
  6
CONTINUOUS
 10
114.5519027533
 20
71.0932989273
 11
114.9391840283
 21
70.8759297729
  0
LINE
  5
336
100
AcDbEntity
  8
ASSI
100
AcDbLine
 62
7
  6
CONTINUOUS
 10
123.3934256279
 20
64.3625004292
 11
123.0104469054
 21
64.5874995708
  0
LINE
  5
337
100
AcDbEntity
  8
ASSI
100
AcDbLine
 62
7
  6
CONTINUOUS
 10
124.6061915301
 20
65.7125004292
 11
124.9891703867
 21
65.4875
  0
LINE
  5
338
100
AcDbEntity
  8
ASSI
100
AcDbLine
 62
7
  6
CONTINUOUS
 10
123.201936289
 20
66.8375
 11
123.0104469054
 21
66.9499995708
  0
LINE
  5
339
100
AcDbEntity
  8
ASSI
100
AcDbLine
 62
7
  6
CONTINUOUS
 10
124.2232128524
 20
69.1437495708
 11
124.4147021913
 21
69.03125
  0
LINE
  5
33A
100
AcDbEntity
  8
ASSI
100
AcDbLine
 62
7
  6
CONTINUOUS
 10
127.7934256279
 20
68.6125
 11
127.4104469054
 21
68.8375001073
  0
LINE
  5
33B
100
AcDbEntity
  8
ASSI
100
AcDbLine
 62
7
  6
CONTINUOUS
 10
124.7976810478
 20
70.6625002146
 11
124.9891703867
 21
70.55
  0
LINE
  5
33C
100
AcDbEntity
  8
ASSI
100
AcDbLine
 62
7
  6
CONTINUOUS
 10
122.7551277645
 20
66.7812495708
 11
123.0104469054
 21
66.6124995708
  0
LINE
  5
33D
100
AcDbEntity
  8
ASSI
100
AcDbLine
 62
7
  6
CONTINUOUS
 10
112.8402556237
 20
68.289877
 11
113.1895916237
 21
68.043459
  0
LINE
  5
33E
100
AcDbEntity
  8
ASSI
100
AcDbLine
 62
7
  6
CONTINUOUS
 10
125.1806597256
 20
78.0312499464
 11
125.1806597256
 21
77.6937499464
  0
LINE
  5
33F
100
AcDbEntity
  8
ASSI
100
AcDbLine
 62
7
  6
CONTINUOUS
 10
125.1806597256
 20
70.0999997854
 11
125.1806597256
 21
69.875
  0
LINE
  5
340
100
AcDbEntity
  8
ASSI
100
AcDbLine
 62
7
  6
CONTINUOUS
 10
125.1806597256
 20
68.2437504292
 11
125.1806597256
 21
66.6124995708
  0
LINE
  5
341
100
AcDbEntity
  8
ASSI
100
AcDbLine
 62
7
  6
CONTINUOUS
 10
125.4998086237
 20
61.3250004292
 11
125.4998086237
 21
61.6625004292
  0
LINE
  5
342
100
AcDbEntity
  8
ASSI
100
AcDbLine
 62
7
  6
CONTINUOUS
 10
125.4998086237
 20
63.2374995708
 11
125.4998086237
 21
63.5749995708
  0
LINE
  5
343
100
AcDbEntity
  8
ASSI
100
AcDbLine
 62
7
  6
CONTINUOUS
 10
125.4998086237
 20
66.6124995708
 11
125.4998086237
 21
68.525
  0
LINE
  5
344
100
AcDbEntity
  8
ASSI
100
AcDbLine
 62
7
  6
CONTINUOUS
 10
125.4998086237
 20
69.8187502146
 11
125.4998086237
 21
70.04375
  0
LINE
  5
345
100
AcDbEntity
  8
ASSI
100
AcDbLine
 62
7
  6
CONTINUOUS
 10
125.4998086237
 20
75.0499998927
 11
125.4998086237
 21
75.5000001073
  0
LINE
  5
346
100
AcDbEntity
  8
ASSI
100
AcDbLine
 62
7
  6
CONTINUOUS
 10
125.4998086237
 20
77.7500000536
 11
125.4998086237
 21
77.975
  0
LINE
  5
347
100
AcDbEntity
  8
ASSI
100
AcDbLine
 62
7
  6
CONTINUOUS
 10
125.4998086237
 20
79.325
 11
125.4998086237
 21
79.6625
  0
LINE
  5
348
100
AcDbEntity
  8
ASSI
100
AcDbLine
 62
7
  6
CONTINUOUS
 10
126.8998086237
 20
72.0999999732
 11
126.8998086237
 21
71.65
  0
LINE
  5
349
100
AcDbEntity
  8
ASSI
100
AcDbLine
 62
7
  6
CONTINUOUS
 10
126.8998086237
 20
67.4874997854
 11
126.8998086237
 21
67.1499997854
  0
LINE
  5
34A
100
AcDbEntity
  8
ASSI
100
AcDbLine
 62
7
  6
CONTINUOUS
 10
129.8998086237
 20
67.1499997854
 11
129.8998086237
 21
67.4874997854
  0
LINE
  5
34B
100
AcDbEntity
  8
ASSI
100
AcDbLine
 62
7
  6
CONTINUOUS
 10
129.8998086237
 20
70.7500000536
 11
129.8998086237
 21
71.0875000536
  0
LINE
  5
34C
100
AcDbEntity
  8
ASSI
100
AcDbLine
 62
7
  6
CONTINUOUS
 10
129.8998086237
 20
72.6625
 11
129.8998086237
 21
73.0
  0
LINE
  5
34D
100
AcDbEntity
  8
ASSI
100
AcDbLine
 62
7
  6
CONTINUOUS
 10
130.4998086237
 20
49.0
 11
130.4998086237
 21
91.0
  0
LINE
  5
34E
100
AcDbEntity
  8
ASSI
100
AcDbLine
 62
7
  6
CONTINUOUS
 10
129.0061915301
 20
69.9625
 11
129.3891703867
 21
69.7374998927
  0
LINE
  5
34F
100
AcDbEntity
  8
ASSI
100
AcDbLine
 62
7
  6
CONTINUOUS
 10
123.201936289
 20
77.1875001073
 11
123.0104469054
 21
77.3
  0
LINE
  5
350
100
AcDbEntity
  8
ASSI
100
AcDbLine
 62
7
  6
CONTINUOUS
 10
124.7976810478
 20
78.48125
 11
124.9891703867
 21
78.3687499464
  0
LINE
  5
351
100
AcDbEntity
  8
ASSI
100
AcDbLine
 62
7
  6
CONTINUOUS
 10
122.7551277645
 20
77.13125
 11
123.0104469054
 21
76.9625
  0
LINE
  5
352
100
AcDbEntity
  8
ASSI
100
AcDbLine
 62
7
  6
CONTINUOUS
 10
125.2444895052
 20
78.5374999464
 11
124.9891703867
 21
78.7062500268
  0
LINE
  5
353
100
AcDbEntity
  8
ASSI
100
AcDbLine
 62
7
  6
CONTINUOUS
 10
128.9423617505
 20
67.8250001073
 11
129.3891703867
 21
67.4874997854
  0
LINE
  5
354
100
AcDbEntity
  8
ASSI
100
AcDbLine
 62
7
  6
CONTINUOUS
 10
129.8998086237
 20
67.4874997854
 11
129.4530001663
 21
67.8250001073
  0
LINE
  5
355
100
AcDbEntity
  8
ASSI
100
AcDbLine
 62
7
  6
CONTINUOUS
 10
122.7551277645
 20
64.4187495708
 11
122.9466171258
 21
64.2499995708
  0
LINE
  5
356
100
AcDbEntity
  8
ASSI
100
AcDbLine
 62
7
  6
CONTINUOUS
 10
125.2444895052
 20
65.65625
 11
125.0530001663
 21
65.825
  0
LINE
  5
357
100
AcDbEntity
  8
ASSI
100
AcDbLine
 62
7
  6
CONTINUOUS
 10
127.1551277645
 20
68.6687501073
 11
127.3466171258
 21
68.5000001073
  0
LINE
  5
358
100
AcDbEntity
  8
ASSI
100
AcDbLine
 62
7
  6
CONTINUOUS
 10
125.3083192848
 20
70.6625002146
 11
125.0530001663
 21
70.8875
  0
LINE
  5
359
100
AcDbEntity
  8
ASSI
100
AcDbLine
 62
7
  6
CONTINUOUS
 10
129.6444895052
 20
69.9062498927
 11
129.4530001663
 21
70.0749998927
  0
LINE
  5
35A
100
AcDbEntity
  8
ASSI
100
AcDbLine
 62
7
  6
CONTINUOUS
 10
124.4147021913
 20
69.4249997854
 11
122.8189575665
 21
71.0000002146
  0
LINE
  5
35B
100
AcDbEntity
  8
ASSI
100
AcDbLine
 62
7
  6
CONTINUOUS
 10
122.8189575665
 20
70.55
 11
124.2232128524
 21
69.1437495708
  0
LINE
  5
35C
100
AcDbEntity
  8
ASSI
100
AcDbLine
 62
7
  6
CONTINUOUS
 10
123.8402341746
 20
68.1312495708
 11
124.0317235135
 21
67.9062504292
  0
LINE
  5
35D
100
AcDbEntity
  8
ASSI
100
AcDbLine
 62
7
  6
CONTINUOUS
 10
116.3827246237
 20
69.745335
 11
117.4474639297
 21
68.4818586369
  0
LINE
  5
35E
100
AcDbEntity
  8
ASSI
100
AcDbLine
 62
7
  6
CONTINUOUS
 10
118.0791916181
 20
68.4203830067
 11
116.9626466237
 21
69.745335
  0
LINE
  5
35F
100
AcDbEntity
  8
ASSI
100
AcDbLine
 62
7
  6
CONTINUOUS
 10
123.9040639543
 20
60.8187504292
 11
124.0317235135
 21
60.6500004292
  0
LINE
  5
360
100
AcDbEntity
  8
ASSI
100
AcDbLine
 62
7
  6
CONTINUOUS
 10
123.0104469054
 20
64.5874995708
 11
122.8827873461
 21
64.7562495708
  0
LINE
  5
361
100
AcDbEntity
  8
ASSI
100
AcDbLine
 62
7
  6
CONTINUOUS
 10
123.0104469054
 20
66.9499995708
 11
122.8827873461
 21
67.1187495708
  0
LINE
  5
362
100
AcDbEntity
  8
ASSI
100
AcDbLine
 62
7
  6
CONTINUOUS
 10
122.5636384089
 20
64.7000004292
 11
122.7551277645
 21
64.4187495708
  0
LINE
  5
363
100
AcDbEntity
  8
ASSI
100
AcDbLine
 62
7
  6
CONTINUOUS
 10
124.0317235135
 20
59.9750004292
 11
123.9040639543
 21
60.1999995708
  0
LINE
  5
364
100
AcDbEntity
  8
ASSI
100
AcDbLine
 62
7
  6
CONTINUOUS
 10
124.1593830728
 20
60.6500004292
 11
124.0317235135
 21
60.8749995708
  0
LINE
  5
365
100
AcDbEntity
  8
ASSI
100
AcDbLine
 62
7
  6
CONTINUOUS
 10
123.776404395
 20
60.1999995708
 11
123.9040639543
 21
59.91875
  0
LINE
  5
366
100
AcDbEntity
  8
ASSI
100
AcDbLine
 62
7
  6
CONTINUOUS
 10
122.8827873461
 20
67.1187495708
 11
122.8189575665
 21
67.34375
  0
LINE
  5
367
100
AcDbEntity
  8
ASSI
100
AcDbLine
 62
7
  6
CONTINUOUS
 10
124.0317235135
 20
67.9062504292
 11
124.0955532931
 21
67.68125
  0
LINE
  5
368
100
AcDbEntity
  8
ASSI
100
AcDbLine
 62
7
  6
CONTINUOUS
 10
122.8827873461
 20
64.7562495708
 11
122.8189575665
 21
65.0375004292
  0
LINE
  5
369
100
AcDbEntity
  8
ASSI
100
AcDbLine
 62
7
  6
CONTINUOUS
 10
122.4998086237
 20
67.34375
 11
122.5636384089
 21
67.0625004292
  0
LINE
  5
36A
100
AcDbEntity
  8
ASSI
100
AcDbLine
 62
7
  6
CONTINUOUS
 10
124.4147021913
 20
67.68125
 11
124.3508724116
 21
67.9624995708
  0
LINE
  5
36B
100
AcDbEntity
  8
ASSI
100
AcDbLine
 62
7
  6
CONTINUOUS
 10
125.1168299459
 20
65.31875
 11
125.1806597256
 21
65.0375004292
  0
LINE
  5
36C
100
AcDbEntity
  8
ASSI
100
AcDbLine
 62
7
  6
CONTINUOUS
 10
122.4998086237
 20
77.6937499464
 11
122.5636384089
 21
77.4125000536
  0
LINE
  5
36D
100
AcDbEntity
  8
ASSI
100
AcDbLine
 62
7
  6
CONTINUOUS
 10
125.1168299459
 20
70.38125
 11
125.1806597256
 21
70.0999997854
  0
LINE
  5
36E
100
AcDbEntity
  8
ASSI
100
AcDbLine
 62
7
  6
CONTINUOUS
 10
122.4998086237
 20
65.0375004292
 11
122.5636384089
 21
64.7000004292
  0
LINE
  5
36F
100
AcDbEntity
  8
ASSI
100
AcDbLine
 62
7
  6
CONTINUOUS
 10
125.4998086237
 20
65.0375004292
 11
125.4359788441
 21
65.3750004292
  0
LINE
  5
370
100
AcDbEntity
  8
ASSI
100
AcDbLine
 62
7
  6
CONTINUOUS
 10
126.8998086237
 20
69.2875
 11
126.9636384089
 21
68.95
  0
LINE
  5
371
100
AcDbEntity
  8
ASSI
100
AcDbLine
 62
7
  6
CONTINUOUS
 10
125.4998086237
 20
70.04375
 11
125.4359788441
 21
70.4374997854
  0
LINE
  5
372
100
AcDbEntity
  8
ASSI
100
AcDbLine
 62
7
  6
CONTINUOUS
 10
140.4998086237
 20
85.5
 11
140.4998086237
 21
80.5
  0
LINE
  5
373
100
AcDbEntity
  8
ASSI
100
AcDbLine
 62
7
  6
CONTINUOUS
 10
140.4998086237
 20
59.5
 11
140.4998086237
 21
54.5
  0
LINE
  5
374
100
AcDbEntity
  8
ASSI
100
AcDbLine
 62
250
  6
CONTINUOUS
 10
147.2998086237
 20
85.5
 11
147.2998086237
 21
80.5
  0
LINE
  5
375
100
AcDbEntity
  8
ASSI
100
AcDbLine
 62
250
  6
CONTINUOUS
 10
147.2998086237
 20
59.5
 11
147.2998086237
 21
54.5
  0
LINE
  5
376
100
AcDbEntity
  8
ASSI
100
AcDbLine
 62
250
  6
CONTINUOUS
 10
147.7998086237
 20
72.5
 11
147.7998086237
 21
67.5
  0
LINE
  5
377
100
AcDbEntity
  8
ASSI
100
AcDbLine
 62
7
  6
CONTINUOUS
 10
149.4998086237
 20
83.3
 11
149.4998086237
 21
82.7
  0
LINE
  5
378
100
AcDbEntity
  8
ASSI
100
AcDbLine
 62
7
  6
CONTINUOUS
 10
149.4998086237
 20
57.3
 11
149.4998086237
 21
56.7
  0
LINE
  5
379
100
AcDbEntity
  8
ASSI
100
AcDbLine
 62
7
  6
CONTINUOUS
 10
149.9998086237
 20
70.3
 11
149.9998086237
 21
69.7
  0
LINE
  5
37A
100
AcDbEntity
  8
ASSI
100
AcDbLine
 62
7
  6
CONTINUOUS
 10
124.5423617505
 20
80.0
 11
124.9891703867
 21
79.6625
  0
LINE
  5
37B
100
AcDbEntity
  8
ASSI
100
AcDbLine
 62
7
  6
CONTINUOUS
 10
125.4998086237
 20
79.6625
 11
125.0530001663
 21
80.0
  0
LINE
  5
37C
100
AcDbEntity
  8
ASSI
100
AcDbLine
 62
7
  6
CONTINUOUS
 10
123.776404395
 20
78.48125
 11
123.9040639543
 21
78.3687499464
  0
LINE
  5
37D
100
AcDbEntity
  8
ASSI
100
AcDbLine
 62
7
  6
CONTINUOUS
 10
124.9891703867
 20
65.4875
 11
125.1168299459
 21
65.31875
  0
LINE
  5
37E
100
AcDbEntity
  8
ASSI
100
AcDbLine
 62
7
  6
CONTINUOUS
 10
124.9891703867
 20
70.55
 11
125.1168299459
 21
70.38125
  0
LINE
  5
37F
100
AcDbEntity
  8
ASSI
100
AcDbLine
 62
7
  6
CONTINUOUS
 10
127.4104469054
 20
68.8375001073
 11
127.2827873461
 21
69.0062501073
  0
LINE
  5
380
100
AcDbEntity
  8
ASSI
100
AcDbLine
 62
7
  6
CONTINUOUS
 10
123.0104469054
 20
77.3
 11
122.8827873461
 21
77.46875
  0
LINE
  5
381
100
AcDbEntity
  8
ASSI
100
AcDbLine
 62
7
  6
CONTINUOUS
 10
129.3891703867
 20
69.7374998927
 11
129.5168299459
 21
69.5687498927
  0
LINE
  5
382
100
AcDbEntity
  8
ASSI
100
AcDbLine
 62
7
  6
CONTINUOUS
 10
123.9040639543
 20
78.3687499464
 11
124.0317235135
 21
78.1999999464
  0
LINE
  5
383
100
AcDbEntity
  8
ASSI
100
AcDbLine
 62
7
  6
CONTINUOUS
 10
124.3508724116
 20
78.2562500536
 11
124.0955532931
 21
78.5937500536
  0
LINE
  5
384
100
AcDbEntity
  8
ASSI
100
AcDbLine
 62
7
  6
CONTINUOUS
 10
124.9891703867
 20
78.3687499464
 11
125.1168299459
 21
78.1999999464
  0
LINE
  5
385
100
AcDbEntity
  8
ASSI
100
AcDbLine
 62
7
  6
CONTINUOUS
 10
122.5636384089
 20
67.0625004292
 11
122.7551277645
 21
66.7812495708
  0
LINE
  5
386
100
AcDbEntity
  8
ASSI
100
AcDbLine
 62
7
  6
CONTINUOUS
 10
125.4359788441
 20
65.3750004292
 11
125.2444895052
 21
65.65625
  0
LINE
  5
387
100
AcDbEntity
  8
ASSI
100
AcDbLine
 62
7
  6
CONTINUOUS
 10
124.3508724116
 20
67.9624995708
 11
124.1593830728
 21
68.2437504292
  0
LINE
  5
388
100
AcDbEntity
  8
ASSI
100
AcDbLine
 62
7
  6
CONTINUOUS
 10
126.9636384089
 20
68.95
 11
127.1551277645
 21
68.6687501073
  0
LINE
  5
389
100
AcDbEntity
  8
ASSI
100
AcDbLine
 62
7
  6
CONTINUOUS
 10
122.5636384089
 20
77.4125000536
 11
122.7551277645
 21
77.13125
  0
LINE
  5
38A
100
AcDbEntity
  8
ASSI
100
AcDbLine
 62
7
  6
CONTINUOUS
 10
129.8359788441
 20
69.625
 11
129.6444895052
 21
69.9062498927
  0
LINE
  5
38B
100
AcDbEntity
  8
ASSI
100
AcDbLine
 62
7
  6
CONTINUOUS
 10
125.4359788441
 20
78.2562500536
 11
125.2444895052
 21
78.5374999464
  0
LINE
  5
38C
100
AcDbEntity
  8
ASSI
100
AcDbLine
 62
7
  6
CONTINUOUS
 10
125.4359788441
 20
70.4374997854
 11
125.3083192848
 21
70.6625002146
  0
LINE
  5
38D
100
AcDbEntity
  8
ASSI
100
AcDbLine
 62
7
  6
CONTINUOUS
 10
122.8827873461
 20
77.46875
 11
122.8189575665
 21
77.6375
  0
LINE
  5
38E
100
AcDbEntity
  8
ASSI
100
AcDbLine
 62
7
  6
CONTINUOUS
 10
124.0317235135
 20
78.1999999464
 11
124.0955532931
 21
78.0312499464
  0
LINE
  5
38F
100
AcDbEntity
  8
ASSI
100
AcDbLine
 62
7
  6
CONTINUOUS
 10
125.1168299459
 20
78.1999999464
 11
125.1806597256
 21
78.0312499464
  0
LINE
  5
390
100
AcDbEntity
  8
ASSI
100
AcDbLine
 62
7
  6
CONTINUOUS
 10
124.4147021913
 20
77.975
 11
124.3508724116
 21
78.2562500536
  0
LINE
  5
391
100
AcDbEntity
  8
ASSI
100
AcDbLine
 62
7
  6
CONTINUOUS
 10
127.2827873461
 20
69.0062501073
 11
127.2189575665
 21
69.2875
  0
LINE
  5
392
100
AcDbEntity
  8
ASSI
100
AcDbLine
 62
7
  6
CONTINUOUS
 10
125.4998086237
 20
77.975
 11
125.4359788441
 21
78.2562500536
  0
LINE
  5
393
100
AcDbEntity
  8
ASSI
100
AcDbLine
 62
7
  6
CONTINUOUS
 10
129.5168299459
 20
69.5687498927
 11
129.5806597256
 21
69.2875
  0
LINE
  5
394
100
AcDbEntity
  8
ASSI
100
AcDbLine
 62
7
  6
CONTINUOUS
 10
129.8998086237
 20
69.2875
 11
129.8359788441
 21
69.625
  0
ARC
  5
395
100
AcDbEntity
  8
0
100
AcDbCircle
 62
7
  6
CONTINUOUS
 10
-141.0001913763
 20
-130.75
 40
9.0
100
AcDbArc
 50
160.097959611
 51
340.097959611
  0
ARC
  5
396
100
AcDbEntity
  8
RACCORDO
100
AcDbCircle
 62
7
  6
CONTINUOUS
 10
-122.9716624239
 20
-31.0
 40
8.5
100
AcDbArc
 50
193.5393849209
 51
320.4560991427
  0
ARC
  5
397
100
AcDbEntity
  8
RACCORDO
100
AcDbCircle
 62
7
  6
CONTINUOUS
 10
-122.9716624239
 20
-31.0
 40
8.5
100
AcDbArc
 50
359.7454747342
 51
13.223971048
  0
ARC
  5
398
100
AcDbEntity
  8
RACCORDO
100
AcDbCircle
 62
7
  6
CONTINUOUS
 10
-122.9716624239
 20
-31.0
 40
4.5
100
AcDbArc
 50
193.5393849209
 51
13.223971048
  0
ARC
  5
399
100
AcDbEntity
  8
RACCORDO
100
AcDbCircle
 62
7
  6
CONTINUOUS
 10
-31.0001913763
 20
-87.9714710476
 40
8.5
100
AcDbArc
 50
283.5393849209
 51
103.223971048
  0
ARC
  5
39A
100
AcDbEntity
  8
RACCORDO
100
AcDbCircle
 62
7
  6
CONTINUOUS
 10
-66.0001913763
 20
-87.9714710476
 40
8.5
100
AcDbArc
 50
76.776028952
 51
256.4606150791
  0
ARC
  5
39B
100
AcDbEntity
  8
RACCORDO
100
AcDbCircle
 62
7
  6
CONTINUOUS
 10
-66.0001913763
 20
-87.9714710476
 40
4.5
100
AcDbArc
 50
76.776028952
 51
256.4606150791
  0
ARC
  5
39C
100
AcDbEntity
  8
RACCORDO
100
AcDbCircle
 62
7
  6
CONTINUOUS
 10
-31.0001913763
 20
-87.9714710476
 40
4.5
100
AcDbArc
 50
283.5393849209
 51
103.223971048
  0
ARC
  5
39D
100
AcDbEntity
  8
RACCORDO
100
AcDbCircle
 62
250
  6
CONTINUOUS
 10
-48.5002148724
 20
-15.2987605544
 40
82.078587877
100
AcDbArc
 50
256.4592784669
 51
283.5392276063
  0
ARC
  5
39E
100
AcDbEntity
  8
RACCORDO
100
AcDbCircle
 62
250
  6
CONTINUOUS
 10
-48.5002160355
 20
-15.2987568547
 40
80.0785917539
100
AcDbArc
 50
256.4592123596
 51
283.5392198325
  0
ARC
  5
39F
100
AcDbEntity
  8
RACCORDO
100
AcDbCircle
 62
250
  6
CONTINUOUS
 10
-48.5001914522
 20
-13.500007596
 40
70.8285104791
100
AcDbArc
 50
256.7749796659
 51
283.2229282805
  0
ARC
  5
3A0
100
AcDbEntity
  8
RACCORDO
100
AcDbCircle
 62
250
  6
CONTINUOUS
 10
-48.500191459
 20
-13.5000074778
 40
68.828510882
100
AcDbArc
 50
256.7749178911
 51
283.2228668744
  0
ARC
  5
3A1
100
AcDbEntity
  8
RACCORDO
100
AcDbCircle
 62
7
  6
CONTINUOUS
 10
-50.2990231434
 20
-13.5
 40
83.25
100
AcDbArc
 50
166.4606150791
 51
193.5393849209
  0
ARC
  5
3A2
100
AcDbEntity
  8
RACCORDO
100
AcDbCircle
 62
250
  6
CONTINUOUS
 10
-48.5002170612
 20
-11.701256262
 40
82.0786047385
100
AcDbArc
 50
76.4607736564
 51
97.2458284121
  0
ARC
  5
3A3
100
AcDbEntity
  8
RACCORDO
100
AcDbCircle
 62
250
  6
CONTINUOUS
 10
-50.2989851942
 20
-13.5
 40
82.0785509348
100
AcDbArc
 50
166.4602019543
 51
193.5397980457
  0
ARC
  5
3A4
100
AcDbEntity
  8
RACCORDO
100
AcDbCircle
 62
250
  6
CONTINUOUS
 10
-48.5002190491
 20
-11.7012896969
 40
80.0786377174
100
AcDbArc
 50
76.4607858688
 51
97.981246236
  0
ARC
  5
3A5
100
AcDbEntity
  8
RACCORDO
100
AcDbCircle
 62
250
  6
CONTINUOUS
 10
-50.2989831605
 20
-13.5
 40
80.0785529644
100
AcDbArc
 50
166.4601814252
 51
193.5398185748
  0
ARC
  5
3A6
100
AcDbEntity
  8
RACCORDO
100
AcDbCircle
 62
7
  6
CONTINUOUS
 10
-50.2990231434
 20
-13.5
 40
79.25
100
AcDbArc
 50
166.4606150791
 51
193.5393849209
  0
ARC
  5
3A7
100
AcDbEntity
  8
RACCORDO
100
AcDbCircle
 62
250
  6
CONTINUOUS
 10
-48.5002039067
 20
-13.5
 40
70.82852545
100
AcDbArc
 50
346.7757872857
 51
13.2242127143
  0
ARC
  5
3A8
100
AcDbEntity
  8
RACCORDO
100
AcDbCircle
 62
250
  6
CONTINUOUS
 10
-48.500191459
 20
-13.4999925152
 40
68.8285108752
100
AcDbArc
 50
76.7771331242
 51
103.2250821102
  0
ARC
  5
3A9
100
AcDbEntity
  8
RACCORDO
100
AcDbCircle
 62
7
  6
CONTINUOUS
 10
-48.5001913763
 20
-15.2988317671
 40
83.25
100
AcDbArc
 50
256.4606150791
 51
283.5393849209
  0
ARC
  5
3AA
100
AcDbEntity
  8
RACCORDO
100
AcDbCircle
 62
7
  6
CONTINUOUS
 10
-48.5001913763
 20
-15.2988317671
 40
79.25
100
AcDbArc
 50
256.4606150791
 51
283.5393849209
  0
ARC
  5
3AB
100
AcDbEntity
  8
RACCORDO
100
AcDbCircle
 62
250
  6
CONTINUOUS
 10
-48.500190725
 20
-13.500024266
 40
68.8285178074
100
AcDbArc
 50
346.7662729375
 51
13.2337685647
  0
ARC
  5
3AC
100
AcDbEntity
  8
RACCORDO
100
AcDbCircle
 62
7
  6
CONTINUOUS
 10
-48.5001913763
 20
-13.5000243042
 40
68.0000055643
100
AcDbArc
 50
346.7651223598
 51
13.2349197145
  0
ARC
  5
3AD
100
AcDbEntity
  8
ASSI
100
AcDbCircle
 62
7
  6
CONTINUOUS
 10
-48.4982558728
 20
-13.5032688905
 40
9.0004425461
100
AcDbArc
 50
38.2659001746
 51
128.2671372896
  0
ARC
  5
3AE
100
AcDbEntity
  8
ASSI
100
AcDbCircle
 62
7
  6
CONTINUOUS
 10
-48.497462541
 20
-13.5026435719
 40
9.0004425461
100
AcDbArc
 50
128.2735678134
 51
218.2748025611
  0
ARC
  5
3AF
100
AcDbEntity
  8
RACCORDO
100
AcDbCircle
 62
7
  6
CONTINUOUS
 10
-48.5001913763
 20
-13.5
 40
100.0
100
AcDbArc
 50
104.1979984861
 51
215.9975694511
  0
ARC
  5
3B0
100
AcDbEntity
  8
RACCORDO
100
AcDbCircle
 62
7
  6
CONTINUOUS
 10
-48.5001913763
 20
-13.5
 40
100.0
100
AcDbArc
 50
227.7247796355
 51
303.1066593432
  0
ARC
  5
3B1
100
AcDbEntity
  8
RACCORDO
100
AcDbCircle
 62
7
  6
CONTINUOUS
 10
-48.5001913763
 20
-13.5
 40
100.0
100
AcDbArc
 50
313.4341836191
 51
92.4709962798
  0
ARC
  5
3B2
100
AcDbEntity
  8
RACCORDO
100
AcDbCircle
 62
250
  6
CONTINUOUS
 10
-48.5001913763
 20
-13.5
 40
99.0
100
AcDbArc
 50
104.5910819662
 51
215.6051770953
  0
ARC
  5
3B3
100
AcDbEntity
  8
RACCORDO
100
AcDbCircle
 62
250
  6
CONTINUOUS
 10
-48.5001913763
 20
-13.5
 40
99.0
100
AcDbArc
 50
227.4865579638
 51
303.0542808051
  0
ARC
  5
3B4
100
AcDbEntity
  8
RACCORDO
100
AcDbCircle
 62
250
  6
CONTINUOUS
 10
-48.5001913763
 20
-13.5
 40
99.0
100
AcDbArc
 50
313.4864838872
 51
92.7095596292
  0
ARC
  5
3B5
100
AcDbEntity
  8
RACCORDO
100
AcDbCircle
 62
250
  6
CONTINUOUS
 10
-48.5001913763
 20
-13.5
 40
97.6539392014
100
AcDbArc
 50
105.1346653575
 51
215.0602879659
  0
ARC
  5
3B6
100
AcDbEntity
  8
RACCORDO
100
AcDbCircle
 62
250
  6
CONTINUOUS
 10
-48.5001913763
 20
-13.5
 40
97.6539392014
100
AcDbArc
 50
313.5583990533
 51
93.038585633
  0
ARC
  5
3B7
100
AcDbEntity
  8
RACCORDO
100
AcDbCircle
 62
250
  6
CONTINUOUS
 10
-48.5001913763
 20
-13.5
 40
97.6539392014
100
AcDbArc
 50
227.157277604
 51
302.9821012992
  0
ARC
  5
3B8
100
AcDbEntity
  8
RACCORDO
100
AcDbCircle
 62
7
  6
CONTINUOUS
 10
-48.5001913763
 20
-13.5
 40
96.7
100
AcDbArc
 50
105.5324678885
 51
214.6633312673
  0
ARC
  5
3B9
100
AcDbEntity
  8
RACCORDO
100
AcDbCircle
 62
7
  6
CONTINUOUS
 10
-48.5001913763
 20
-13.5
 40
96.7
100
AcDbArc
 50
313.6106984281
 51
93.2772996625
  0
ARC
  5
3BA
100
AcDbEntity
  8
RACCORDO
100
AcDbCircle
 62
7
  6
CONTINUOUS
 10
-48.5001913763
 20
-13.5
 40
96.7
100
AcDbArc
 50
226.9175254046
 51
302.9298866307
  0
ARC
  5
3BB
100
AcDbEntity
  8
RACCORDO
100
AcDbCircle
 62
250
  6
CONTINUOUS
 10
-48.5001913763
 20
-13.5
 40
87.7429772965
100
AcDbArc
 50
109.8116999344
 51
210.3834546613
  0
ARC
  5
3BC
100
AcDbEntity
  8
RACCORDO
100
AcDbCircle
 62
250
  6
CONTINUOUS
 10
-48.5001913763
 20
-13.5
 40
87.7429772965
100
AcDbArc
 50
314.1578738872
 51
95.807254903
  0
ARC
  5
3BD
100
AcDbEntity
  8
RACCORDO
100
AcDbCircle
 62
250
  6
CONTINUOUS
 10
-48.5001913763
 20
-13.5
 40
87.7429772965
100
AcDbArc
 50
224.3893324056
 51
302.3829064735
  0
ARC
  5
3BE
100
AcDbEntity
  8
RACCORDO
100
AcDbCircle
 62
7
  6
CONTINUOUS
 10
-48.5001913763
 20
-13.5
 40
87.0
100
AcDbArc
 50
110.2195089426
 51
209.9776761846
  0
ARC
  5
3BF
100
AcDbEntity
  8
RACCORDO
100
AcDbCircle
 62
7
  6
CONTINUOUS
 10
-48.5001913763
 20
-13.5
 40
87.0
100
AcDbArc
 50
314.2083060231
 51
96.0434410851
  0
ARC
  5
3C0
100
AcDbEntity
  8
RACCORDO
100
AcDbCircle
 62
7
  6
CONTINUOUS
 10
-48.5001913763
 20
-13.5
 40
87.0
100
AcDbArc
 50
224.1527500021
 51
302.3324851237
  0
ARC
  5
3C1
100
AcDbEntity
  8
ASSI
100
AcDbCircle
 62
7
  6
CONTINUOUS
 10
-48.5001913763
 20
-13.5
 40
81.0
100
AcDbArc
 50
346.7585040518
 51
13.2414959482
  0
ARC
  5
3C2
100
AcDbEntity
  8
ASSI
100
AcDbCircle
 62
7
  6
CONTINUOUS
 10
-48.5001913763
 20
-13.5
 40
81.0
100
AcDbArc
 50
76.7585085581
 51
98.1272970904
  0
ARC
  5
3C3
100
AcDbEntity
  8
ASSI
100
AcDbCircle
 62
7
  6
CONTINUOUS
 10
-48.5001913763
 20
-13.5
 40
81.0
100
AcDbArc
 50
166.7585040518
 51
193.2414959482
  0
ARC
  5
3C4
100
AcDbEntity
  8
ASSI
100
AcDbCircle
 62
7
  6
CONTINUOUS
 10
-48.5001913763
 20
-13.5
 40
81.0
100
AcDbArc
 50
256.7585085581
 51
283.2414914419
  0
ARC
  5
3C5
100
AcDbEntity
  8
ASSI
100
AcDbCircle
 62
7
  6
CONTINUOUS
 10
-48.5001913763
 20
-13.5
 40
80.5
100
AcDbArc
 50
345.2718135332
 51
14.7281926404
  0
ARC
  5
3C6
100
AcDbEntity
  8
ASSI
100
AcDbCircle
 62
7
  6
CONTINUOUS
 10
-48.5001913763
 20
-13.5
 40
80.5
100
AcDbArc
 50
75.2665243124
 51
98.3168431287
  0
ARC
  5
3C7
100
AcDbEntity
  8
ASSI
100
AcDbCircle
 62
7
  6
CONTINUOUS
 10
-48.5001913763
 20
-13.5
 40
80.5
100
AcDbArc
 50
165.2718209273
 51
194.7281916703
  0
ARC
  5
3C8
100
AcDbEntity
  8
ASSI
100
AcDbCircle
 62
7
  6
CONTINUOUS
 10
-48.5001913763
 20
-13.5
 40
80.5
100
AcDbArc
 50
255.266542209
 51
284.7334976529
  0
ARC
  5
3C9
100
AcDbEntity
  8
ASSI
100
AcDbCircle
 62
7
  6
CONTINUOUS
 10
-48.5001913763
 20
-13.5
 40
72.5
100
AcDbArc
 50
345.1956950065
 51
14.8045450247
  0
ARC
  5
3CA
100
AcDbEntity
  8
ASSI
100
AcDbCircle
 62
7
  6
CONTINUOUS
 10
-48.5001913763
 20
-13.5
 40
72.5
100
AcDbArc
 50
75.1916816027
 51
101.7674852436
  0
ARC
  5
3CB
100
AcDbEntity
  8
ASSI
100
AcDbCircle
 62
7
  6
CONTINUOUS
 10
-48.5001913763
 20
-13.5
 40
72.5
100
AcDbArc
 50
165.195662694
 51
194.8045954854
  0
ARC
  5
3CC
100
AcDbEntity
  8
ASSI
100
AcDbCircle
 62
7
  6
CONTINUOUS
 10
-48.5001913763
 20
-13.5
 40
72.5
100
AcDbArc
 50
255.1917028712
 51
284.8079761838
  0
ARC
  5
3CD
100
AcDbEntity
  8
RACCORDO
100
AcDbCircle
 62
7
  6
CONTINUOUS
 10
-48.5001913763
 20
-13.5
 40
72.0
100
AcDbArc
 50
346.776028952
 51
13.223971048
  0
ARC
  5
3CE
100
AcDbEntity
  8
RACCORDO
100
AcDbCircle
 62
7
  6
CONTINUOUS
 10
-48.5001913763
 20
-13.5
 40
72.0
100
AcDbArc
 50
76.776028952
 51
102.0116693614
  0
ARC
  5
3CF
100
AcDbEntity
  8
RACCORDO
100
AcDbCircle
 62
7
  6
CONTINUOUS
 10
-48.5001913763
 20
-13.5
 40
72.0
100
AcDbArc
 50
256.776028952
 51
283.223971048
  0
ARC
  5
3D0
100
AcDbEntity
  8
RACCORDO
100
AcDbCircle
 62
7
  6
CONTINUOUS
 10
-48.5001913763
 20
-13.5
 40
72.0
100
AcDbArc
 50
166.776028952
 51
193.223971048
  0
ARC
  5
3D1
100
AcDbEntity
  8
ASSI
100
AcDbCircle
 62
7
  6
CONTINUOUS
 10
-48.5001913763
 20
-13.5
 40
72.0
100
AcDbArc
 50
270.0975511817
 51
283.2239739463
  0
ARC
  5
3D2
100
AcDbEntity
  8
ASSI
100
AcDbCircle
 62
7
  6
CONTINUOUS
 10
-48.5001913763
 20
-13.5
 40
72.0
100
AcDbArc
 50
346.8791633693
 51
13.2239675641
  0
ARC
  5
3D3
100
AcDbEntity
  8
ASSI
100
AcDbCircle
 62
7
  6
CONTINUOUS
 10
-48.5001913763
 20
-13.5
 40
72.0
100
AcDbArc
 50
76.7760260537
 51
90.0
  0
ARC
  5
3D4
100
AcDbEntity
  8
ASSI
100
AcDbCircle
 62
7
  6
CONTINUOUS
 10
-48.5001913763
 20
-13.5
 40
72.0
100
AcDbArc
 50
90.0977624658
 51
102.0132419633
  0
ARC
  5
3D5
100
AcDbEntity
  8
ASSI
100
AcDbCircle
 62
7
  6
CONTINUOUS
 10
-48.5001913763
 20
-13.5
 40
72.0
100
AcDbArc
 50
166.8791782053
 51
193.2239675641
  0
ARC
  5
3D6
100
AcDbEntity
  8
ASSI
100
AcDbCircle
 62
7
  6
CONTINUOUS
 10
-48.5001913763
 20
-13.5
 40
72.0
100
AcDbArc
 50
256.7760260537
 51
270.0
  0
ARC
  5
3D7
100
AcDbEntity
  8
RACCORDO
100
AcDbCircle
 62
250
  6
CONTINUOUS
 10
-48.5001784972
 20
-13.5
 40
70.8285257976
100
AcDbArc
 50
166.7762790281
 51
193.2237209719
  0
ARC
  5
3D8
100
AcDbEntity
  8
RACCORDO
100
AcDbCircle
 62
250
  6
CONTINUOUS
 10
-48.5001861725
 20
-13.4999611002
 40
70.8284787976
100
AcDbArc
 50
76.7770700848
 51
102.6054199839
  0
ARC
  5
3D9
100
AcDbEntity
  8
RACCORDO
100
AcDbCircle
 62
250
  6
CONTINUOUS
 10
-48.5001771792
 20
-13.5
 40
68.8285270969
100
AcDbArc
 50
166.7762939915
 51
193.2237060085
  0
ARC
  5
3DA
100
AcDbEntity
  8
ASSI
100
AcDbCircle
 62
7
  6
CONTINUOUS
 10
-48.5001913763
 20
-13.5
 40
68.5
100
AcDbArc
 50
15.4975347867
 51
74.5024915859
  0
ARC
  5
3DB
100
AcDbEntity
  8
ASSI
100
AcDbCircle
 62
7
  6
CONTINUOUS
 10
-48.5001913763
 20
-13.5
 40
68.5
100
AcDbArc
 50
285.4975084141
 51
300.7204037535
  0
ARC
  5
3DC
100
AcDbEntity
  8
ASSI
100
AcDbCircle
 62
7
  6
CONTINUOUS
 10
-48.5001913763
 20
-13.5
 40
68.5
100
AcDbArc
 50
315.8204293142
 51
344.5024915859
  0
ARC
  5
3DD
100
AcDbEntity
  8
ASSI
100
AcDbCircle
 62
7
  6
CONTINUOUS
 10
-48.5001913763
 20
-13.5
 40
68.5
100
AcDbArc
 50
216.3422474559
 51
254.5024915859
  0
ARC
  5
3DE
100
AcDbEntity
  8
ASSI
100
AcDbCircle
 62
7
  6
CONTINUOUS
 10
-48.5001913763
 20
-13.5
 40
68.5
100
AcDbArc
 50
125.0271606479
 51
164.5024915859
  0
ARC
  5
3DF
100
AcDbEntity
  8
RACCORDO
100
AcDbCircle
 62
7
  6
CONTINUOUS
 10
-48.5001913763
 20
-13.5
 40
68.0
100
AcDbArc
 50
76.776028952
 51
103.223971048
  0
ARC
  5
3E0
100
AcDbEntity
  8
RACCORDO
100
AcDbCircle
 62
7
  6
CONTINUOUS
 10
-48.5001913763
 20
-13.5
 40
68.0
100
AcDbArc
 50
256.776028952
 51
283.223971048
  0
ARC
  5
3E1
100
AcDbEntity
  8
RACCORDO
100
AcDbCircle
 62
7
  6
CONTINUOUS
 10
-48.5001913763
 20
-13.5
 40
68.0
100
AcDbArc
 50
166.776028952
 51
193.223971048
  0
ARC
  5
3E2
100
AcDbEntity
  8
ASSI
100
AcDbCircle
 62
7
  6
CONTINUOUS
 10
-48.5001913763
 20
-13.5
 40
15.0
100
AcDbArc
 50
345.1415584683
 51
271.3977716276
  0
ARC
  5
3E3
100
AcDbEntity
  8
RACCORDO
100
AcDbCircle
 62
7
  6
CONTINUOUS
 10
-48.5001913763
 20
-11.7011682329
 40
83.25
100
AcDbArc
 50
76.4606150791
 51
96.8321148562
  0
ARC
  5
3E4
100
AcDbEntity
  8
RACCORDO
100
AcDbCircle
 62
7
  6
CONTINUOUS
 10
-48.5001913763
 20
-11.7011682329
 40
79.25
100
AcDbArc
 50
76.4606150791
 51
98.2993120854
  0
ARC
  5
3E5
100
AcDbEntity
  8
RACCORDO
100
AcDbCircle
 62
7
  6
CONTINUOUS
 10
-46.7013596092
 20
-13.5
 40
83.25
100
AcDbArc
 50
346.4606150791
 51
13.5393859475
  0
ARC
  5
3E6
100
AcDbEntity
  8
RACCORDO
100
AcDbCircle
 62
250
  6
CONTINUOUS
 10
-46.7014904342
 20
-13.5
 40
82.0786438106
100
AcDbArc
 50
346.45985777
 51
13.5401432566
  0
ARC
  5
3E7
100
AcDbEntity
  8
RACCORDO
100
AcDbCircle
 62
250
  6
CONTINUOUS
 10
-46.7014970051
 20
-13.5
 40
80.0786503774
100
AcDbArc
 50
346.4598206166
 51
13.5401793834
  0
ARC
  5
3E8
100
AcDbEntity
  8
RACCORDO
100
AcDbCircle
 62
7
  6
CONTINUOUS
 10
-46.7013596092
 20
-13.5
 40
79.25
100
AcDbArc
 50
346.4606150791
 51
13.5393849209
  0
ARC
  5
3E9
100
AcDbEntity
  8
RACCORDO
100
AcDbCircle
 62
7
  6
CONTINUOUS
 10
-48.5001913763
 20
124.75
 40
15.0
100
AcDbArc
 50
286.9700542552
 51
213.2205466521
  0
ARC
  5
3EA
100
AcDbEntity
  8
RACCORDO
100
AcDbCircle
 62
250
  6
CONTINUOUS
 10
-48.5001913763
 20
124.75
 40
12.0
100
AcDbArc
 50
298.6920066614
 51
201.5008871093
  0
ARC
  5
3EB
100
AcDbEntity
  8
0
100
AcDbCircle
 62
7
  6
CONTINUOUS
 10
-48.5001913763
 20
124.75
 40
9.0
100
AcDbArc
 50
340.0971817503
 51
160.0971817503
  0
ARC
  5
3EC
100
AcDbEntity
  8
RACCORDO
100
AcDbCircle
 62
7
  6
CONTINUOUS
 10
-66.0001913763
 20
60.9714710476
 40
8.5
100
AcDbArc
 50
276.2324580366
 51
283.223971048
  0
ARC
  5
3ED
100
AcDbEntity
  8
RACCORDO
100
AcDbCircle
 62
7
  6
CONTINUOUS
 10
-31.0001913763
 20
60.9714710476
 40
8.5
100
AcDbArc
 50
256.776028952
 51
76.4606150791
  0
ARC
  5
3EE
100
AcDbEntity
  8
RACCORDO
100
AcDbCircle
 62
7
  6
CONTINUOUS
 10
-122.9716624239
 20
4.0
 40
8.5
100
AcDbArc
 50
346.776028952
 51
166.4606150791
  0
ARC
  5
3EF
100
AcDbEntity
  8
RACCORDO
100
AcDbCircle
 62
250
  6
CONTINUOUS
 10
-65.9542886713
 20
60.7706382793
 40
7.4654738718
100
AcDbArc
 50
279.2138630361
 51
283.2233843198
  0
ARC
  5
3F0
100
AcDbEntity
  8
RACCORDO
100
AcDbCircle
 62
7
  6
CONTINUOUS
 10
-31.0001913763
 20
60.9714710476
 40
4.5
100
AcDbArc
 50
256.776028952
 51
76.4606150791
  0
ARC
  5
3F1
100
AcDbEntity
  8
RACCORDO
100
AcDbCircle
 62
7
  6
CONTINUOUS
 10
-122.9716624239
 20
4.0
 40
4.5
100
AcDbArc
 50
346.776028952
 51
166.4606150791
  0
ARC
  5
3F2
100
AcDbEntity
  8
0
100
AcDbCircle
 62
7
  6
CONTINUOUS
 10
43.9998086237
 20
-130.75
 40
9.0
100
AcDbArc
 50
218.2703527444
 51
38.2703527444
  0
ARC
  5
3F3
100
AcDbEntity
  8
RACCORDO
100
AcDbCircle
 62
7
  6
CONTINUOUS
 10
25.9712796713
 20
-31.0
 40
8.5
100
AcDbArc
 50
166.863441213
 51
346.4606150791
  0
ARC
  5
3F4
100
AcDbEntity
  8
RACCORDO
100
AcDbCircle
 62
7
  6
CONTINUOUS
 10
25.9712796713
 20
-31.0
 40
4.5
100
AcDbArc
 50
166.776028952
 51
346.4606150791
  0
ARC
  5
3F5
100
AcDbEntity
  8
RACCORDO
100
AcDbCircle
 62
7
  6
CONTINUOUS
 10
25.9712739504
 20
4.0
 40
8.5000055619
100
AcDbArc
 50
13.5393859475
 51
193.1365500373
  0
ARC
  5
3F6
100
AcDbEntity
  8
RACCORDO
100
AcDbCircle
 62
7
  6
CONTINUOUS
 10
25.9712796713
 20
4.0
 40
4.5
100
AcDbArc
 50
13.5393849209
 51
193.223971048
  0
ARC
  5
3F7
100
AcDbEntity
  8
ASSI
100
AcDbCircle
 62
7
  6
CONTINUOUS
 10
113.303656201
 20
88.0
 40
3.0
100
AcDbArc
 50
90.0
 51
120.0
  0
ARC
  5
3F8
100
AcDbEntity
  8
ASSI
100
AcDbCircle
 62
7
  6
CONTINUOUS
 10
113.303656201
 20
52.0
 40
3.0
100
AcDbArc
 50
240.0
 51
270.0
  0
ARC
  5
3F9
100
AcDbEntity
  8
ASSI
100
AcDbCircle
 62
7
  6
CONTINUOUS
 10
116.4998086237
 20
70.0
 40
2.9735749324
100
AcDbArc
 50
202.0885431658
 51
183.4298241508
  0
ARC
  5
3FA
100
AcDbEntity
  8
ASSI
100
AcDbCircle
 62
7
  6
CONTINUOUS
 10
110.8942366237
 20
70.089938
 40
2.6508884458
100
AcDbArc
 50
317.2312789315
 51
354.2011723825
  0
ARC
  5
3FB
100
AcDbEntity
  8
ASSI
100
AcDbCircle
 62
7
  6
CONTINUOUS
 10
111.3236216237
 20
69.881315
 40
2.6190759282
100
AcDbArc
 50
315.4348969444
 51
337.5658553844
  0
CIRCLE
  5
3FC
100
AcDbEntity
  8
ASSI
100
AcDbCircle
 62
7
  6
CONTINUOUS
 10
116.4998086237
 20
70.0
 40
2.497595
  0
ARC
  5
3FD
100
AcDbEntity
  8
ASSI
100
AcDbCircle
 62
7
  6
CONTINUOUS
 10
116.4998086237
 20
70.0
 40
2.2337503191
100
AcDbArc
 50
209.3041411838
 51
314.9957558872
  0
ARC
  5
3FE
100
AcDbEntity
  8
ASSI
100
AcDbCircle
 62
7
  6
CONTINUOUS
 10
116.4998086237
 20
70.0
 40
2.2337501706
100
AcDbArc
 50
44.9002628452
 51
150.6958588162
  0
ARC
  5
3FF
100
AcDbEntity
  8
ASSI
100
AcDbCircle
 62
7
  6
CONTINUOUS
 10
147.2998086237
 20
82.7
 40
2.2
100
AcDbArc
 50
270.0
 51
360.0
  0
ARC
  5
400
100
AcDbEntity
  8
ASSI
100
AcDbCircle
 62
7
  6
CONTINUOUS
 10
147.2998086237
 20
83.3
 40
2.2
100
AcDbArc
 50
0.0
 51
90.0
  0
ARC
  5
401
100
AcDbEntity
  8
ASSI
100
AcDbCircle
 62
7
  6
CONTINUOUS
 10
147.7998086237
 20
69.7
 40
2.2
100
AcDbArc
 50
270.0
 51
360.0
  0
ARC
  5
402
100
AcDbEntity
  8
ASSI
100
AcDbCircle
 62
7
  6
CONTINUOUS
 10
147.7998086237
 20
70.3
 40
2.2
100
AcDbArc
 50
0.0
 51
90.0
  0
ARC
  5
403
100
AcDbEntity
  8
ASSI
100
AcDbCircle
 62
7
  6
CONTINUOUS
 10
147.2998086237
 20
56.7
 40
2.2
100
AcDbArc
 50
270.0
 51
360.0
  0
ARC
  5
404
100
AcDbEntity
  8
ASSI
100
AcDbCircle
 62
7
  6
CONTINUOUS
 10
147.2998086237
 20
57.3
 40
2.2
100
AcDbArc
 50
0.0
 51
90.0
  0
ARC
  5
405
100
AcDbEntity
  8
ASSI
100
AcDbCircle
 62
7
  6
CONTINUOUS
 10
116.4998086237
 20
70.0
 40
1.7896378839
100
AcDbArc
 50
209.3041347443
 51
301.9732647944
  0
ARC
  5
406
100
AcDbEntity
  8
ASSI
100
AcDbCircle
 62
7
  6
CONTINUOUS
 10
116.4998086237
 20
70.0
 40
1.78963742
100
AcDbArc
 50
58.02673736
 51
150.6958652557
  0
SPLINE
  5
407
100
AcDbEntity
  8
RACCORDO
100
AcDbSpline
 62
250
  6
CONTINUOUS
 70
0
 71
3
 72
27
 73
23
 74
0
 42
0.0000001
 43
0.0000001
 44
0.0000000001
 40
0.0
 40
0.0
 40
0.0
 40
0.0
 40
0.06294059
 40
0.0944288259
 40
0.1258943294
 40
0.1886566146
 40
0.2512679541
 40
0.2825484987
 40
0.3137865378
 40
0.3760677686
 40
0.4382133815
 40
0.5002692146
 40
0.5622953463
 40
0.6243587488
 40
0.6865248015
 40
0.7177010419
 40
0.7489220004
 40
0.8114336071
 40
0.8741337527
 40
0.9055829149
 40
0.9370632393
 40
1.0
 40
1.0
 40
1.0
 40
1.0
 10
-67.7177993217
 20
-95.0958722554
 30
0.0
 10
-68.1963893321
 20
-94.9806095284
 30
0.0
 10
-68.8998022645
 20
-94.735464195
 30
0.0
 10
-69.7724001979
 20
-94.2768000039
 30
0.0
 10
-70.5947145703
 20
-93.7350712974
 30
0.0
 10
-71.5146676103
 20
-92.9109089855
 30
0.0
 10
-72.2543832887
 20
-91.9236407907
 30
0.0
 10
-72.7206640405
 20
-91.061623712
 30
0.0
 10
-73.0996016504
 20
-90.1606339239
 30
0.0
 10
-73.4048174626
 20
-88.9733272999
 30
0.0
 10
-73.4879096977
 20
-87.5081288284
 30
0.0
 10
-73.2869573951
 20
-86.0562288905
 30
0.0
 10
-72.8100395868
 20
-84.6709482744
 30
0.0
 10
-72.0748379293
 20
-83.4029473744
 30
0.0
 10
-71.2679836792
 20
-82.4827777914
 30
0.0
 10
-70.5248929265
 20
-81.8506718217
 30
0.0
 10
-69.7215914993
 20
-81.2922901496
 30
0.0
 10
-68.6181243903
 20
-80.74470994
 30
0.0
 10
-67.4270467769
 20
-80.4231545231
 30
0.0
 10
-66.4495843133
 20
-80.3095370222
 30
0.0
 10
-65.4641475769
 20
-80.2927060574
 30
0.0
 10
-64.7257650391
 20
-80.3904956469
 30
0.0
 10
-64.2465749526
 20
-80.5031067875
 30
0.0
  0
SPLINE
  5
408
100
AcDbEntity
  8
RACCORDO
100
AcDbSpline
 62
250
  6
CONTINUOUS
 70
0
 71
3
 72
27
 73
23
 74
0
 42
0.0000001
 43
0.0000001
 44
0.0000000001
 40
0.0
 40
0.0
 40
0.0
 40
0.0
 40
0.0629328496
 40
0.0944092034
 40
0.1258533419
 40
0.1885410263
 40
0.2510393185
 40
0.2822540519
 40
0.3134247226
 40
0.3755823082
 40
0.4376412256
 40
0.4996671967
 40
0.561727278
 40
0.6238808069
 40
0.6861724607
 40
0.7174162507
 40
0.7487026235
 40
0.8113250289
 40
0.8740964911
 40
0.9055655193
 40
0.9370565554
 40
1.0
 40
1.0
 40
1.0
 40
1.0
 10
-32.7563985269
 20
-80.5037155419
 30
0.0
 10
-32.2772311938
 20
-80.391129109
 30
0.0
 10
-31.5389043059
 20
-80.2933706798
 30
0.0
 10
-30.5535637853
 20
-80.3102074985
 30
0.0
 10
-29.5762617282
 20
-80.4237918555
 30
0.0
 10
-28.3853979612
 20
-80.7452149319
 30
0.0
 10
-27.2820880324
 20
-81.2925482008
 30
0.0
 10
-26.4788497508
 20
-81.8506844751
 30
0.0
 10
-25.7357521269
 20
-82.4825447899
 30
0.0
 10
-24.9287806174
 20
-83.4024223452
 30
0.0
 10
-24.1933020962
 20
-84.6701512179
 30
0.0
 10
-23.7160180042
 20
-86.0553114932
 30
0.0
 10
-23.5146893614
 20
-87.5072653428
 30
0.0
 10
-23.5974729057
 20
-88.9726712776
 30
0.0
 10
-23.9025322144
 20
-90.1602255374
 30
0.0
 10
-24.2814159427
 20
-91.0614316986
 30
0.0
 10
-24.7476884044
 20
-91.9236620483
 30
0.0
 10
-25.4874616009
 20
-92.9111576962
 30
0.0
 10
-26.4075377529
 20
-93.7354786242
 30
0.0
 10
-27.2299572369
 20
-94.277279317
 30
0.0
 10
-28.1026284492
 20
-94.7359713277
 30
0.0
 10
-28.8060936483
 20
-94.9811170706
 30
0.0
 10
-29.2847110549
 20
-95.0963733064
 30
0.0
  0
SPLINE
  5
409
100
AcDbEntity
  8
RACCORDO
100
AcDbSpline
 62
250
  6
CONTINUOUS
 70
0
 71
3
 72
27
 73
23
 74
0
 42
0.0000001
 43
0.0000001
 44
0.0000000001
 40
0.0
 40
0.0
 40
0.0
 40
0.0
 40
0.0629430358
 40
0.0944326002
 40
0.1259000894
 40
0.1886643161
 40
0.2512745862
 40
0.2825533897
 40
0.3137890087
 40
0.3760642821
 40
0.4382043267
 40
0.5002570242
 40
0.5622833957
 40
0.6243504649
 40
0.6865226989
 40
0.7177022982
 40
0.7489262061
 40
0.8114410776
 40
0.8741404009
 40
0.9055880261
 40
0.9370659331
 40
1.0
 40
1.0
 40
1.0
 40
1.0
 10
-29.7529439595
 20
-93.1519561917
 30
0.0
 10
-29.4019601581
 20
-93.0674348669
 30
0.0
 10
-28.8860957045
 20
-92.8876603412
 30
0.0
 10
-28.2461669396
 20
-92.5512704259
 30
0.0
 10
-27.6431199575
 20
-92.1539644338
 30
0.0
 10
-26.968506325
 20
-91.5495223464
 30
0.0
 10
-26.4260986657
 20
-90.8254873341
 30
0.0
 10
-26.0842153479
 20
-90.1933406254
 30
0.0
 10
-25.8063871963
 20
-89.5326484178
 30
0.0
 10
-25.5826109031
 20
-88.6620244063
 30
0.0
 10
-25.5216778333
 20
-87.5876258062
 30
0.0
 10
-25.6690113704
 20
-86.5229387913
 30
0.0
 10
-26.0187188085
 20
-85.5070437353
 30
0.0
 10
-26.5578801704
 20
-84.5771071792
 30
0.0
 10
-27.1496412322
 20
-83.9022631812
 30
0.0
 10
-27.6946569045
 20
-83.4386977304
 30
0.0
 10
-28.2838231254
 20
-83.0292260709
 30
0.0
 10
-29.0931033551
 20
-82.6277258395
 30
0.0
 10
-29.9665899244
 20
-82.3919926263
 30
0.0
 10
-30.6833776006
 20
-82.3087230482
 30
0.0
 10
-31.4059972653
 20
-82.2964019789
 30
0.0
 10
-31.9474494632
 20
-82.3681088263
 30
0.0
 10
-32.2988458964
 20
-82.4506732844
 30
0.0
  0
SPLINE
  5
40A
100
AcDbEntity
  8
RACCORDO
100
AcDbSpline
 62
250
  6
CONTINUOUS
 70
0
 71
3
 72
27
 73
23
 74
0
 42
0.0000001
 43
0.0000001
 44
0.0000000001
 40
0.0
 40
0.0
 40
0.0
 40
0.0
 40
0.0629364303
 40
0.0944177873
 40
0.1258701714
 40
0.1885814324
 40
0.2511100516
 40
0.2823406962
 40
0.3135265063
 40
0.3757088313
 40
0.4377818795
 40
0.4998092704
 40
0.5618579675
 40
0.6239898698
 40
0.6862541615
 40
0.7174836691
 40
0.7487562164
 40
0.8113544064
 40
0.8741085615
 40
0.9055721719
 40
0.9370589948
 40
1.0
 40
1.0
 40
1.0
 40
1.0
 10
-64.7040546083
 20
-82.4500816751
 30
0.0
 10
-65.0554593872
 20
-82.3675015722
 30
0.0
 10
-65.5969405942
 20
-82.2957738807
 30
0.0
 10
-66.3196178267
 20
-82.3080861523
 30
0.0
 10
-67.0365165398
 20
-82.3913748679
 30
0.0
 10
-67.9101604557
 20
-82.6271960811
 30
0.0
 10
-68.7195630229
 20
-83.0288698389
 30
0.0
 10
-69.3087875609
 20
-83.4385208364
 30
0.0
 10
-69.8538145269
 20
-83.9022724632
 30
0.0
 10
-70.4455073101
 20
-84.5773451092
 30
0.0
 10
-70.9844751533
 20
-85.5075031906
 30
0.0
 10
-71.3339122949
 20
-86.5235037694
 30
0.0
 10
-71.4809591706
 20
-87.5881585391
 30
0.0
 10
-71.4197878672
 20
-88.6624016687
 30
0.0
 10
-71.1958900871
 20
-89.5328358658
 30
0.0
 10
-70.9180199528
 20
-90.1933603474
 30
0.0
 10
-70.5761311554
 20
-90.8253396081
 30
0.0
 10
-70.033771098
 20
-91.5491952439
 30
0.0
 10
-69.3592578076
 20
-92.1535131026
 30
0.0
 10
-68.7562942618
 20
-92.5507641597
 30
0.0
 10
-68.116417717
 20
-92.8871381095
 30
0.0
 10
-67.6005867723
 20
-93.0669152972
 30
0.0
 10
-67.2496184335
 20
-93.1514431732
 30
0.0
  0
SPLINE
  5
40B
100
AcDbEntity
  8
RACCORDO
100
AcDbSpline
 62
250
  6
CONTINUOUS
 70
0
 71
3
 72
27
 73
23
 74
0
 42
0.0000001
 43
0.0000001
 44
0.0000000001
 40
0.0
 40
0.0
 40
0.0
 40
0.0
 40
0.0629420401
 40
0.0944319964
 40
0.1258998128
 40
0.1886681748
 40
0.251286891
 40
0.282571343
 40
0.3138132513
 40
0.3761015477
 40
0.4382525731
 40
0.500311346
 40
0.5623374199
 40
0.62439761
 40
0.6865575751
 40
0.7177299052
 40
0.7489465783
 40
0.811449278
 40
0.8741413855
 40
0.905587351
 40
0.9370652578
 40
1.0
 40
1.0
 40
1.0
 40
1.0
 10
-130.0963707164
 20
-32.7162896363
 30
0.0
 10
-129.9811136174
 20
-33.1948902039
 30
0.0
 10
-129.7359697931
 20
-33.8983268873
 30
0.0
 10
-129.2772905055
 20
-34.7709602562
 30
0.0
 10
-128.7355152999
 20
-35.5933334458
 30
0.0
 10
-127.9112488856
 20
-36.5133550588
 30
0.0
 10
-126.923831831
 20
-37.2530948753
 30
0.0
 10
-126.0616759005
 20
-37.719359366
 30
0.0
 10
-125.160545394
 20
-38.0982511797
 30
0.0
 10
-123.9730796305
 20
-38.403351872
 30
0.0
 10
-122.5077525123
 20
-38.4862301596
 30
0.0
 10
-121.0558276314
 20
-38.2850258829
 30
0.0
 10
-119.670638776
 20
-37.8078722457
 30
0.0
 10
-118.4028287898
 20
-37.072505526
 30
0.0
 10
-117.4828557226
 20
-36.2655980948
 30
0.0
 10
-116.8509095727
 20
-35.5225252122
 30
0.0
 10
-116.2926821833
 20
-34.71928617
 30
0.0
 10
-115.7452481626
 20
-33.6159439768
 30
0.0
 10
-115.4237611145
 20
-32.4250216816
 30
0.0
 10
-115.3101528932
 20
-31.4476709659
 30
0.0
 10
-115.2933080294
 20
-30.4622993623
 30
0.0
 10
-115.3910749565
 20
-29.72395304
 30
0.0
 10
-115.5036704431
 20
-29.2447779525
 30
0.0
  0
SPLINE
  5
40C
100
AcDbEntity
  8
RACCORDO
100
AcDbSpline
 62
250
  6
CONTINUOUS
 70
0
 71
3
 72
27
 73
23
 74
0
 42
0.0000001
 43
0.0000001
 44
0.0000000001
 40
0.0
 40
0.0
 40
0.0
 40
0.0
 40
0.0629340523
 40
0.0944118169
 40
0.1258577717
 40
0.1885498322
 40
0.2510527565
 40
0.2822696523
 40
0.3134422657
 40
0.3756028399
 40
0.4376633267
 40
0.4996893242
 40
0.5617479618
 40
0.6238988096
 40
0.6861868971
 40
0.7174287
 40
0.7487130387
 40
0.8113315164
 40
0.8740996529
 40
0.9055673883
 40
0.9370574376
 40
1.0
 40
1.0
 40
1.0
 40
1.0
 10
-115.5036704431
 20
2.2447779525
 30
0.0
 10
-115.3910760226
 20
2.7239477441
 30
0.0
 10
-115.2933096875
 20
3.4622873743
 30
0.0
 10
-115.3101516674
 20
4.4476524008
 30
0.0
 10
-115.4237573725
 20
5.4250018383
 30
0.0
 10
-115.7452414289
 20
6.6159262479
 30
0.0
 10
-116.2926741925
 20
7.7192726558
 30
0.0
 10
-116.850903417
 20
8.5225174049
 30
0.0
 10
-117.4828544854
 20
9.2655975886
 30
0.0
 10
-118.4028350436
 20
10.0725109483
 30
0.0
 10
-119.6706522455
 20
10.8078783879
 30
0.0
 10
-121.0558427284
 20
11.2850291906
 30
0.0
 10
-122.5077648993
 20
11.4862303471
 30
0.0
 10
-123.9730877437
 20
11.4033503399
 30
0.0
 10
-125.160549461
 20
11.0982497047
 30
0.0
 10
-126.0616767434
 20
10.7193589083
 30
0.0
 10
-126.9238295299
 20
10.2530961584
 30
0.0
 10
-127.9112432321
 20
9.5133596033
 30
0.0
 10
-128.7355080967
 20
8.593342421
 30
0.0
 10
-129.2772835495
 20
7.7709714285
 30
0.0
 10
-129.7359668313
 20
6.8983354364
 30
0.0
 10
-129.9811125508
 20
6.1948941453
 30
0.0
 10
-130.0963707164
 20
5.7162896363
 30
0.0
  0
SPLINE
  5
40D
100
AcDbEntity
  8
RACCORDO
100
AcDbSpline
 62
250
  6
CONTINUOUS
 70
0
 71
3
 72
27
 73
23
 74
0
 42
0.0000001
 43
0.0000001
 44
0.0000000001
 40
0.0
 40
0.0
 40
0.0
 40
0.0
 40
0.0629421672
 40
0.0944307231
 40
0.1258968552
 40
0.1886575771
 40
0.2512637134
 40
0.2825403857
 40
0.3137739338
 40
0.3760455384
 40
0.4381829036
 40
0.5002342588
 40
0.5622608403
 40
0.6243297224
 40
0.6865052084
 40
0.7176868678
 40
0.7489130327
 40
0.8114326227
 40
0.8741362875
 40
0.905585676
 40
0.9370649063
 40
1.0
 40
1.0
 40
1.0
 40
1.0
 10
-128.1519488723
 20
5.2480765614
 30
0.0
 10
-128.0674259113
 20
5.5990510133
 30
0.0
 10
-127.8876509904
 20
6.1148978884
 30
0.0
 10
-127.5512669833
 20
6.7548002737
 30
0.0
 10
-127.153979778
 20
7.3578102388
 30
0.0
 10
-126.5495802153
 20
8.032378615
 30
0.0
 10
-125.8256077281
 20
8.5747582211
 30
0.0
 10
-125.1935202337
 20
8.9166343668
 30
0.0
 10
-124.5328878242
 20
9.1944685188
 30
0.0
 10
-123.6623332283
 20
9.418277435
 30
0.0
 10
-122.5879955505
 20
9.4792848659
 30
0.0
 10
-121.5233294064
 20
9.3320481546
 30
0.0
 10
-120.507408052
 20
8.9824402848
 30
0.0
 10
-119.5774022214
 20
8.4433595445
 30
0.0
 10
-118.9024799953
 20
7.8516382915
 30
0.0
 10
-118.4388469674
 20
7.3066324862
 30
0.0
 10
-118.0293073815
 20
6.7174590712
 30
0.0
 10
-117.627735982
 20
5.9081499949
 30
0.0
 10
-117.3919604534
 20
5.0346181681
 30
0.0
 10
-117.3086765775
 20
4.3177964545
 30
0.0
 10
-117.2963527701
 20
3.5951604727
 30
0.0
 10
-117.3680651096
 20
3.0537003896
 30
0.0
 10
-117.4506349445
 20
2.7023029961
 30
0.0
  0
SPLINE
  5
40E
100
AcDbEntity
  8
RACCORDO
100
AcDbSpline
 62
250
  6
CONTINUOUS
 70
0
 71
3
 72
27
 73
23
 74
0
 42
0.0000001
 43
0.0000001
 44
0.0000000001
 40
0.0
 40
0.0
 40
0.0
 40
0.0
 40
0.0629345594
 40
0.0944136586
 40
0.125863023
 40
0.1885666307
 40
0.2510866333
 40
0.2823130713
 40
0.3134949924
 40
0.375671098
 40
0.4377406312
 40
0.4997675795
 40
0.5618188328
 40
0.6239558503
 40
0.6862270426
 40
0.7174603901
 40
0.748736862
 40
0.811342574
 40
0.874103015
 40
0.9055690188
 40
0.9370575992
 40
1.0
 40
1.0
 40
1.0
 40
1.0
 10
-117.4506349445
 20
-29.7023029961
 30
0.0
 10
-117.3680656889
 20
-30.0536973779
 30
0.0
 10
-117.2963536294
 20
-30.5951535259
 30
0.0
 10
-117.3086756195
 20
-31.3177855739
 30
0.0
 10
-117.3919581338
 20
-32.0346062276
 30
0.0
 10
-117.6277321
 20
-32.908140422
 30
0.0
 10
-118.029303949
 20
-33.7174534344
 30
0.0
 10
-118.4388461875
 20
-34.3066316463
 30
0.0
 10
-118.9024835706
 20
-34.8516424764
 30
0.0
 10
-119.5774135979
 20
-35.4433684957
 30
0.0
 10
-120.5074297865
 20
-35.9824503672
 30
0.0
 10
-121.5233577332
 20
-36.3320556108
 30
0.0
 10
-122.5880243597
 20
-36.4792857193
 30
0.0
 10
-123.662356605
 20
-36.4182730298
 30
0.0
 10
-124.5329050486
 20
-36.1944627958
 30
0.0
 10
-125.1935323906
 20
-35.9166286415
 30
0.0
 10
-125.8256149027
 20
-35.5747532704
 30
0.0
 10
-126.5495824385
 20
-35.0323759586
 30
0.0
 10
-127.1539788661
 20
-34.3578112989
 30
0.0
 10
-127.5512651329
 20
-33.7548033633
 30
0.0
 10
-127.8876498722
 20
-33.1149005229
 30
0.0
 10
-128.0674255211
 20
-32.5990522975
 30
0.0
 10
-128.1519488723
 20
-32.2480765614
 30
0.0
  0
SPLINE
  5
40F
100
AcDbEntity
  8
RACCORDO
100
AcDbSpline
 62
250
  6
CONTINUOUS
 70
0
 71
3
 72
27
 73
23
 74
0
 42
0.0000001
 43
0.0000001
 44
0.0000000001
 40
0.0
 40
0.0
 40
0.0
 40
0.0
 40
0.0629428958
 40
0.0944338312
 40
0.1259029295
 40
0.1886745975
 40
0.2512972283
 40
0.2825837144
 40
0.3138276165
 40
0.3761194851
 40
0.4382731969
 40
0.5003334189
 40
0.5623594834
 40
0.6244181165
 40
0.6865751181
 40
0.717745523
 40
0.7489600408
 40
0.8114580594
 40
0.8741456771
 40
0.9055898379
 40
0.9370663955
 40
1.0
 40
1.0
 40
1.0
 40
1.0
 10
-29.2847110549
 20
68.0963733064
 30
0.0
 10
-28.8060977891
 20
67.9811181911
 30
0.0
 10
-28.1026374535
 20
67.7359744481
 30
0.0
 10
-27.2299691203
 20
67.277286705
 30
0.0
 10
-26.4075476311
 20
66.7354865141
 30
0.0
 10
-25.487467162
 20
65.9111644373
 30
0.0
 10
-24.7476906241
 20
64.9236658196
 30
0.0
 10
-24.2814162518
 20
64.0614324739
 30
0.0
 10
-23.9025312578
 20
63.1602230852
 30
0.0
 10
-23.5974716081
 20
61.9726647031
 30
0.0
 10
-23.5146894958
 20
60.5072543777
 30
0.0
 10
-23.7160210316
 20
59.0552975653
 30
0.0
 10
-24.193307836
 20
57.6701385808
 30
0.0
 10
-24.9287857193
 20
56.4024164697
 30
0.0
 10
-25.7357515663
 20
55.4825460508
 30
0.0
 10
-26.4788422064
 20
54.8506904239
 30
0.0
 10
-27.2820746653
 20
54.2925561494
 30
0.0
 10
-28.385379268
 20
53.7452221758
 30
0.0
 10
-29.5762396505
 20
53.4237960752
 30
0.0
 10
-30.5535426313
 20
53.3102088869
 30
0.0
 10
-31.538890811
 20
53.2933688146
 30
0.0
 10
-32.2772253992
 20
53.3911279399
 30
0.0
 10
-32.7563985269
 20
53.5037155419
 30
0.0
  0
SPLINE
  5
410
100
AcDbEntity
  8
RACCORDO
100
AcDbSpline
 62
250
  6
CONTINUOUS
 70
0
 71
3
 72
27
 73
23
 74
0
 42
0.0000001
 43
0.0000001
 44
0.0000000001
 40
0.0
 40
0.0
 40
0.0
 40
0.0
 40
0.0629333073
 40
0.0944110643
 40
0.1258586739
 40
0.1885580636
 40
0.2510733741
 40
0.2822974731
 40
0.3134772866
 40
0.3756501511
 40
0.4377178789
 40
0.4997445641
 40
0.5617971495
 40
0.623936877
 40
0.6862117355
 40
0.7174471258
 40
0.7487257139
 40
0.8113356457
 40
0.8740996368
 40
0.9055670088
 40
0.937056636
 40
1.0
 40
1.0
 40
1.0
 40
1.0
 10
-32.2988458964
 20
55.4506732844
 30
0.0
 10
-31.9474537433
 20
55.3681096585
 30
0.0
 10
-31.4060069327
 20
55.2964031637
 30
0.0
 10
-30.6833925449
 20
55.3087217367
 30
0.0
 10
-29.9666052238
 20
55.3919895658
 30
0.0
 10
-29.093115292
 20
55.6277210745
 30
0.0
 10
-28.2838305762
 20
56.0292215444
 30
0.0
 10
-27.6946599317
 20
56.4386953512
 30
0.0
 10
-27.1496394847
 20
56.9022643878
 30
0.0
 10
-26.5578732674
 20
57.5771156243
 30
0.0
 10
-26.018710274
 20
58.5070620297
 30
0.0
 10
-25.6690049477
 20
59.5229631461
 30
0.0
 10
-25.52167716
 20
60.5876503219
 30
0.0
 10
-25.5826145801
 20
61.6620436584
 30
0.0
 10
-25.806391637
 20
62.5326616637
 30
0.0
 10
-26.0842192114
 20
63.1933487585
 30
0.0
 10
-26.4261013384
 20
63.8254909866
 30
0.0
 10
-26.9685065067
 20
64.5495220532
 30
0.0
 10
-27.6431167346
 20
65.1539619228
 30
0.0
 10
-28.2461620213
 20
65.551267451
 30
0.0
 10
-28.8860918243
 20
65.8876587664
 30
0.0
 10
-29.4019583494
 20
66.067434335
 30
0.0
 10
-29.7529439595
 20
66.1519561917
 30
0.0
  0
SPLINE
  5
411
100
AcDbEntity
  8
RACCORDO
100
AcDbSpline
 62
250
  6
CONTINUOUS
 70
0
 71
3
 72
27
 73
23
 74
0
 42
0.0000001
 43
0.0000001
 44
0.0000000001
 40
0.0
 40
0.0
 40
0.0
 40
0.0
 40
0.0629417308
 40
0.0944310913
 40
0.1258980583
 40
0.1886641579
 40
0.2512799931
 40
0.2825628684
 40
0.3138032093
 40
0.3760886849
 40
0.4382375867
 40
0.5002953028
 40
0.5623215978
 40
0.6243833133
 40
0.6865458897
 40
0.7177197764
 40
0.7489380962
 40
0.811444036
 40
0.874138856
 40
0.9055858124
 40
0.937064453
 40
1.0
 40
1.0
 40
1.0
 40
1.0
 10
33.0958696015
 20
5.7167921652
 30
0.0
 10
32.9806642947
 20
6.1951650241
 30
0.0
 10
32.7356723951
 20
6.8982697113
 30
0.0
 10
32.2773246816
 20
7.7705376001
 30
0.0
 10
31.7359676273
 20
8.5925959906
 30
0.0
 10
30.9123661084
 20
9.5123586375
 30
0.0
 10
29.9257378091
 20
10.2520811431
 30
0.0
 10
29.0642412976
 20
10.7184951644
 30
0.0
 10
28.1637709219
 20
11.0976484029
 30
0.0
 10
26.9771007136
 20
11.4032893532
 30
0.0
 10
25.5125753743
 20
11.487137435
 30
0.0
 10
24.0612061012
 20
11.2871732817
 30
0.0
 10
22.6762532402
 20
10.8114559852
 30
0.0
 10
21.408312568
 20
10.0776334165
 30
0.0
 10
20.4879093896
 20
9.2720303602
 30
0.0
 10
19.855421567
 20
8.5299616149
 30
0.0
 10
19.2965225812
 20
7.7276890896
 30
0.0
 10
18.7480136732
 20
6.6254674793
 30
0.0
 10
18.4251514351
 20
5.435468619
 30
0.0
 10
18.310281877
 20
4.4586968891
 30
0.0
 10
18.2920746808
 20
3.473793599
 30
0.0
 10
18.3887117937
 20
2.7356456798
 30
0.0
 10
18.5005272902
 20
2.256518788
 30
0.0
  0
SPLINE
  5
412
100
AcDbEntity
  8
RACCORDO
100
AcDbSpline
 62
250
  6
CONTINUOUS
 70
0
 71
3
 72
27
 73
23
 74
0
 42
0.0000001
 43
0.0000001
 44
0.0000000001
 40
0.0
 40
0.0
 40
0.0
 40
0.0
 40
0.0629348176
 40
0.0944133066
 40
0.1258602558
 40
0.1885550617
 40
0.2510612739
 40
0.2822798072
 40
0.3134539681
 40
0.3756171391
 40
0.4376791412
 40
0.4997053578
 40
0.5617629315
 40
0.6239116499
 40
0.6861969107
 40
0.7174371347
 40
0.74871989
 40
0.8113355009
 40
0.8741013778
 40
0.9055682631
 40
0.9370577209
 40
1.0
 40
1.0
 40
1.0
 40
1.0
 10
18.5005387034
 20
-29.256518788
 30
0.0
 10
18.3887243289
 20
-29.7356397391
 30
0.0
 10
18.2920877874
 20
-30.4737800579
 30
0.0
 10
18.3102917402
 20
-31.4586757576
 30
0.0
 10
18.4251584586
 20
-32.4354457914
 30
0.0
 10
18.7480173751
 20
-33.6254466826
 30
0.0
 10
19.2965248013
 20
-34.727672334
 30
0.0
 10
19.8554253645
 20
-35.5299502135
 30
0.0
 10
20.4879174788
 20
-36.2720255794
 30
0.0
 10
21.4083272691
 20
-37.0776338874
 30
0.0
 10
22.6762740269
 20
-37.8114567013
 30
0.0
 10
24.0612273728
 20
-38.2871709487
 30
0.0
 10
25.5125928065
 20
-38.487132003
 30
0.0
 10
26.9771127385
 20
-38.4032824436
 30
0.0
 10
28.1637779561
 20
-38.0976419596
 30
0.0
 10
29.064244378
 20
-37.7184902051
 30
0.0
 10
29.9257372019
 20
-37.2520783867
 30
0.0
 10
30.9123616652
 20
-36.5123597526
 30
0.0
 10
31.7359612694
 20
-35.5926021558
 30
0.0
 10
32.2773182959
 20
-34.7705465234
 30
0.0
 10
32.7356698937
 20
-33.8982764508
 30
0.0
 10
32.9806636066
 20
-33.1951674067
 30
0.0
 10
33.0958699458
 20
-32.7167907354
 30
0.0
  0
SPLINE
  5
413
100
AcDbEntity
  8
RACCORDO
100
AcDbSpline
 62
250
  6
CONTINUOUS
 70
0
 71
3
 72
27
 73
23
 74
0
 42
0.0000001
 43
0.0000001
 44
0.0000000001
 40
0.0
 40
0.0
 40
0.0
 40
0.0
 40
0.0629415722
 40
0.0944294075
 40
0.1258945459
 40
0.1886526018
 40
0.2512554381
 40
0.282530343
 40
0.3137621328
 40
0.3760305193
 40
0.4381654499
 40
0.5002155547
 40
0.5622423139
 40
0.6243128419
 40
0.6864912397
 40
0.7176747031
 40
0.7489027961
 40
0.8114262623
 40
0.8741332718
 40
0.9055839439
 40
0.937064128
 40
1.0
 40
1.0
 40
1.0
 40
1.0
 10
31.1514453484
 20
-32.2485896315
 30
0.0
 10
31.0669196778
 20
-32.5995656253
 30
0.0
 10
30.8871437358
 20
-33.1154125054
 30
0.0
 10
30.5507648611
 20
-33.7553150175
 30
0.0
 10
30.1534933433
 20
-34.3583182932
 30
0.0
 10
29.5491286931
 20
-35.0328813003
 30
0.0
 10
28.8252040948
 20
-35.5752717757
 30
0.0
 10
28.1931596776
 20
-35.9171680458
 30
0.0
 10
27.5325697823
 20
-36.1950313741
 30
0.0
 10
26.6620596546
 20
-36.418893938
 30
0.0
 10
25.587750353
 20
-36.4799840337
 30
0.0
 10
24.5230760489
 20
-36.3328324428
 30
0.0
 10
23.5071096947
 20
-35.9832923318
 30
0.0
 10
22.5770325703
 20
-35.4442449611
 30
0.0
 10
21.9020467859
 20
-34.8525175989
 30
0.0
 10
21.4383674788
 20
-34.3074863594
 30
0.0
 10
21.0287871592
 20
-33.7182743449
 30
0.0
 10
20.6271846381
 20
-32.9089049681
 30
0.0
 10
20.3914036276
 20
-32.0353087315
 30
0.0
 10
20.3081273095
 20
-31.3184426947
 30
0.0
 10
20.2958158205
 20
-30.5957780575
 30
0.0
 10
20.367538005
 20
-30.0543011146
 30
0.0
 10
20.450113143
 20
-29.7028946849
 30
0.0
  0
SPLINE
  5
414
100
AcDbEntity
  8
RACCORDO
100
AcDbSpline
 62
250
  6
CONTINUOUS
 70
0
 71
3
 72
27
 73
23
 74
0
 42
0.0000001
 43
0.0000001
 44
0.0000000001
 40
0.0
 40
0.0
 40
0.0
 40
0.0
 40
0.0629353372
 40
0.0944153993
 40
0.1258660632
 40
0.1885730168
 40
0.2510968806
 40
0.2823252212
 40
0.3135089187
 40
0.3756879217
 40
0.4377590841
 40
0.4997862009
 40
0.5618362035
 40
0.6239708536
 40
0.6862388808
 40
0.7174704524
 40
0.7487451201
 40
0.8113475022
 40
0.8741053208
 40
0.9055703514
 40
0.9370582208
 40
1.0
 40
1.0
 40
1.0
 40
1.0
 10
20.450113143
 20
2.7028946849
 30
0.0
 10
20.367538584
 20
3.0542980996
 30
0.0
 10
20.2958166716
 20
3.5957711567
 30
0.0
 10
20.3081263591
 20
4.3184320019
 30
0.0
 10
20.3914013851
 20
5.035297123
 30
0.0
 10
20.627180886
 20
5.9088957234
 30
0.0
 10
21.0287837972
 20
6.7182688096
 30
0.0
 10
21.4383665407
 20
7.3074853023
 30
0.0
 10
21.9020499188
 20
7.8525212963
 30
0.0
 10
22.5770431401
 20
8.4442533164
 30
0.0
 10
23.5071303024
 20
8.9833019067
 30
0.0
 10
24.5231030316
 20
9.3328395485
 30
0.0
 10
25.5877781042
 20
9.479984884
 30
0.0
 10
26.6620826891
 20
9.4188896372
 30
0.0
 10
27.5325872438
 20
9.1950255969
 30
0.0
 10
28.1931720427
 20
8.9171622198
 30
0.0
 10
28.8252110328
 20
8.5752669269
 30
0.0
 10
29.5491306441
 20
8.032878935
 30
0.0
 10
30.1534923272
 20
7.3583195135
 30
0.0
 10
30.5507631324
 20
6.7553179101
 30
0.0
 10
30.8871427136
 20
6.1154149046
 30
0.0
 10
31.0669193289
 20
5.5995667624
 30
0.0
 10
31.1514453484
 20
5.2485896315
 30
0.0
  0
SPLINE
  5
415
100
AcDbEntity
  8
RACCORDO
100
AcDbSpline
 62
250
  6
CONTINUOUS
 70
0
 71
3
 72
26
 73
22
 74
0
 42
0.0000001
 43
0.0000001
 44
0.0000000001
 40
0.0
 40
0.0
 40
0.0
 40
0.0
 40
0.0003204938
 40
0.0012721033
 40
0.0028550919
 40
0.0050682107
 40
0.0113791122
 40
0.0201910481
 40
0.0314751194
 40
0.0451956844
 40
0.0613162386
 40
0.0797880946
 40
0.1235529912
 40
0.1759767897
 40
0.2364351617
 40
0.3042102721
 40
0.3785024073
 40
0.4584258827
 40
0.6313322549
 40
0.8147381031
 40
1.0
 40
1.0
 40
1.0
 40
1.0
 10
-67.9901579315
 20
-96.2352494274
 30
0.0
 10
-67.9902796048
 20
-96.2352201277
 30
0.0
 10
-67.989921623
 20
-96.2344934421
 30
0.0
 10
-67.9899735186
 20
-96.2336261679
 30
0.0
 10
-67.989437231
 20
-96.2316846878
 30
0.0
 10
-67.9886816775
 20
-96.227907594
 30
0.0
 10
-67.9871165056
 20
-96.2212479023
 30
0.0
 10
-67.9848349922
 20
-96.2112268903
 30
0.0
 10
-67.9818300013
 20
-96.1983544062
 30
0.0
 10
-67.9781736634
 20
-96.1827219069
 30
0.0
 10
-67.9738526052
 20
-96.1643557504
 30
0.0
 10
-67.9668248457
 20
-96.1345762879
 30
0.0
 10
-67.956499664
 20
-96.0910082154
 30
0.0
 10
-67.9423488792
 20
-96.0314977206
 30
0.0
 10
-67.9259897936
 20
-95.9628748129
 30
0.0
 10
-67.9076164844
 20
-95.8859533799
 30
0.0
 10
-67.8874465957
 20
-95.8016461998
 30
0.0
 10
-67.8576860702
 20
-95.6774217132
 30
0.0
 10
-67.8179300252
 20
-95.5117777862
 30
0.0
 10
-67.7684812507
 20
-95.3061578938
 30
0.0
 10
-67.734760307
 20
-95.1661998264
 30
0.0
 10
-67.7177993217
 20
-95.0958722554
 30
0.0
  0
SPLINE
  5
416
100
AcDbEntity
  8
RACCORDO
100
AcDbSpline
 62
250
  6
CONTINUOUS
 70
0
 71
3
 72
26
 73
22
 74
0
 42
0.0000001
 43
0.0000001
 44
0.0000000001
 40
0.0
 40
0.0
 40
0.0
 40
0.0
 40
0.0002936131
 40
0.0011606082
 40
0.0026024909
 40
0.0046185377
 40
0.0103691467
 40
0.0184040572
 40
0.0287117009
 40
0.0412688742
 40
0.0560494547
 40
0.0730273076
 40
0.1134482423
 40
0.162212427
 40
0.2189580805
 40
0.2832414807
 40
0.3545810345
 40
0.4324256178
 40
0.6052177339
 40
0.796351119
 40
1.0
 40
1.0
 40
1.0
 40
1.0
 10
-67.053703082
 20
-92.3464125428
 30
0.0
 10
-67.0537819181
 20
-92.3463935586
 30
0.0
 10
-67.0538097968
 20
-92.3469077372
 30
0.0
 10
-67.0540887896
 20
-92.3473945869
 30
0.0
 10
-67.0543666518
 20
-92.3486595403
 30
0.0
 10
-67.0550501775
 20
-92.3510468996
 30
0.0
 10
-67.0561252462
 20
-92.3553230924
 30
0.0
 10
-67.0577745984
 20
-92.3617470199
 30
0.0
 10
-67.0598512918
 20
-92.3700330762
 30
0.0
 10
-67.0623690274
 20
-92.3801173295
 30
0.0
 10
-67.0653156814
 20
-92.391997415
 30
0.0
 10
-67.0700974069
 20
-92.4113493617
 30
0.0
 10
-67.0770973278
 20
-92.4398217428
 30
0.0
 10
-67.0866829662
 20
-92.4789680806
 30
0.0
 10
-67.0978044639
 20
-92.5245234786
 30
0.0
 10
-67.1103775963
 20
-92.5761423727
 30
0.0
 10
-67.1243055332
 20
-92.6334287202
 30
0.0
 10
-67.145282981
 20
-92.7198419129
 30
0.0
 10
-67.1740109404
 20
-92.8384190024
 30
0.0
 10
-67.2108499089
 20
-92.9907805966
 30
0.0
 10
-67.2364317267
 20
-93.0967674137
 30
0.0
 10
-67.2496184335
 20
-93.1514431732
 30
0.0
  0
ELLIPSE
  5
417
100
AcDbEntity
  8
ASSI
100
AcDbEllipse
 62
7
  6
CONTINUOUS
 10
112.9118843258
 20
53.2857142857
 30
0.0
 11
0.0
 21
3.2142857143
 31
0.0
 40
0.9333333333
 41
0.0
 42
0.1377942089
  0
ELLIPSE
  5
418
100
AcDbEntity
  8
ASSI
100
AcDbEllipse
 62
7
  6
CONTINUOUS
 10
112.9118843258
 20
53.0478022682
 30
0.0
 11
-2.273063759
 21
3.4100516399
 31
0.0
 40
0.5741412044
 41
-0.7219687998
 42
-0.5867543057
  0
ELLIPSE
  5
419
100
AcDbEntity
  8
ASSI
100
AcDbEllipse
 62
7
  6
CONTINUOUS
 10
106.1264219722
 20
76.2574825001
 30
0.0
 11
1.0161890143
 21
0.0449942605
 31
0.0
 40
0.2345105639
 41
-0.0103831571
 42
1.3841851752
  0
ENDSEC
  0
SECTION
  2
OBJECTS
  0
DICTIONARY
  5
C
100
AcDbDictionary
280
0
281
1
  3
ACAD_GROUP
350
D
  3
ACAD_MLINESTYLE
350
17
  3
ACAD_LAYOUT
350
1A
  3
ACAD_PLOTSETTINGS
350
19
  3
ACAD_PLOTSTYLENAME
350
E
  0
DICTIONARY
  5
D
102
{ACAD_REACTORS
330
C
102
}
100
AcDbDictionary
280
0
281
1
  0
ACDBDICTIONARYWDFLT
  5
E
102
{ACAD_REACTORS
330
C
102
}
100
AcDbDictionary
281
1
  3
Normal
350
F
100
AcDbDictionaryWithDefault
340
F
  0
DICTIONARY
  5
17
102
{ACAD_REACTORS
330
C
102
}
100
AcDbDictionary
280
0
281
1
  3
Standard
350
18
  0
DICTIONARY
  5
19
102
{ACAD_REACTORS
330
C
102
}
100
AcDbDictionary
281
1
  0
DICTIONARY
  5
1A
102
{ACAD_REACTORS
330
C
102
}
100
AcDbDictionary
281
1
  3
Model
350
41A
  3
Layout1
350
41B
  0
ACDBPLACEHOLDER
  5
F
102
{ACAD_REACTORS
330
E
102
}
  0
MLINESTYLE
  5
18
102
{ACAD_REACTORS
330
17
102
}
100
AcDbMlineStyle
  2
STANDARD
 70
0
  3

 62
256
 51
90.0
 52
90.0
 71
2
 49
0.5
 62
256
  6
BYLAYER
 49
-0.5
 62
256
  6
BYLAYER
  0
LAYOUT
  5
41A
102
{ACAD_REACTORS
330
1A
102
}
100
AcDbPlotSettings
  1

  2
none_device
  4
ISO_A4_(297.00_x_210.00_MM)
  6

 40
0.0
 41
0.0
 42
0.0
 43
0.0
 44
297.0
 45
210.0
 46
0.0
 47
0.0
 48
0.0
 49
0.0
140
0.0
141
0.0
142
1.0
143
1.0
 70
1024
 72
1
 73
0
 74
0
  7

 75
0
147
1.0
148
0.0
149
0.0
100
AcDbLayout
  1
Model
 70
0
 71
0
 10
0.0
 20
0.0
 11
297.0
 21
210.0
 12
0.0
 22
0.0
 32
0.0
 14
0.0
 24
0.0
 34
0.0
 15
0.0
 25
0.0
 35
0.0
146
0.0
 13
0.0
 23
0.0
 33
0.0
 16
1.0
 26
0.0
 36
0.0
 17
0.0
 27
1.0
 37
0.0
 76
0
330
212
345
0
346
0
  0
LAYOUT
  5
41B
102
{ACAD_REACTORS
330
1A
102
}
100
AcDbPlotSettings
  1

  2
none_device
  4
ISO_A4_(297.00_x_210.00_MM)
  6

 40
0.0
 41
0.0
 42
0.0
 43
0.0
 44
297.0
 45
210.0
 46
0.0
 47
0.0
 48
0.0
 49
0.0
140
0.0
141
0.0
142
1.0
143
1.0
 70
0
 72
1
 73
0
 74
0
  7

 75
0
147
1.0
148
0.0
149
0.0
100
AcDbLayout
  1
Layout1
 70
0
 71
1
 10
0.0
 20
0.0
 11
297.0
 21
210.0
 12
0.0
 22
0.0
 32
0.0
 14
0.0
 24
0.0
 34
0.0
 15
0.0
 25
0.0
 35
0.0
146
0.0
 13
0.0
 23
0.0
 33
0.0
 16
1.0
 26
0.0
 36
0.0
 17
0.0
 27
1.0
 37
0.0
 76
0
330
213
345
0
346
0
  0
ENDSEC
  0
EOF
