  0
SECTION
  2
HEADER
  9
$ACADVER
  1
AC1027
  9
$DWGCODEPAGE
  3
ANSI_1252
  9
$EXTMAX
 10
297.0
 20
210.0
 30
0.0
  9
$EXTMIN
 10
0.0
 20
0.0
 30
0.0
  9
$LIMMIN
 10
0.0
 20
0.0
  9
$LIMMAX
 10
297.0
 20
210.0
  9
$VIEWCTR
 10
148.5
 20
105.0
  9
$VIEWSIZE
 40
210.0
  9
$CLAYER
  8
0
  9
$LTSCALE
 40
16.335
  9
$CELTYPE
  6
BYLAYER
  9
$DIMSCALE
 40
1.0
  9
$DIMASZ
 40
3.0
  9
$DIMEXO
 40
0.5
  9
$DIMDLI
 40
11.286
  9
$DIMEXE
 40
1.5
  9
$DIMCEN
 40
2.673
  9
$DIMLFAC
 40
1.0
  9
$DIMBLK
  1
_FILLED
  9
$DIMALT
 70
0
  9
$DIMALTF
 40
0.0393700787
  9
$DIMTXT
 40
3.0
  9
$DIMTOL
 70
1
  9
$DIMLIM
 70
0
  9
$DIMTFAC
 40
1.0
  9
$DIMTP
 40
0.01
  9
$DIMTM
 40
0.01
  9
$DIMGAP
 40
0.625
  9
$DIMDSEP
 70
44
  9
$AUNITS
 70
0
  9
$PDMODE
 70
3
  9
$PDSIZE
 40
3.0
  9
$HANDSEED
  5
473
  9
$TILEMODE
 70
1
  9
$MEASUREMENT
 70
1
  9
$INSUNITS
 70
4
  0
ENDSEC
  0
SECTION
  2
CLASSES
  0
CLASS
  1
ACDBDICTIONARYWDFLT
  2
AcDbDictionaryWithDefault
  3
AutoCAD 2000
 90
0
 91
1
280
0
281
0
  0
CLASS
  1
ACDBPLACEHOLDER
  2
AcDbPlaceHolder
  3
AutoCAD 2000
 90
0
 91
1
280
0
281
0
  0
CLASS
  1
LAYOUT
  2
AcDbLayout
  3
AutoCAD 2000
 90
0
 91
0
280
0
281
0
  0
ENDSEC
  0
SECTION
  2
TABLES
  0
TABLE
  2
VPORT
  5
8
100
AcDbSymbolTable
 70
2
  0
VPORT
  5
1F4
100
AcDbSymbolTableRecord
100
AcDbViewportTableRecord
  2
*ACTIVE
 70
0
 10
0.0
 20
0.0
 11
1.0
 21
1.0
 12
148.5
 22
105.0
 13
0.0
 23
0.0
 14
1.0
 24
1.0
 15
0.0
 25
0.0
 16
0.0
 26
0.0
 36
1.0
 17
0.0
 27
0.0
 37
0.0
 40
210.0
 41
1.4142857143
 42
50.0
 43
0.0
 44
0.0
 50
0.0
 51
0.0
 71
0
 72
100
 73
1
 74
1
 75
0
 76
0
 77
0
 78
0
  0
ENDTAB
  0
TABLE
  2
LTYPE
  5
5
100
AcDbSymbolTable
 70
6
  0
LTYPE
  5
14
100
AcDbSymbolTableRecord
100
AcDbLinetypeTableRecord
  2
BYBLOCK
 70
0
  3

 72
65
 73
0
 40
0.0
  0
LTYPE
  5
15
100
AcDbSymbolTableRecord
100
AcDbLinetypeTableRecord
  2
BYLAYER
 70
0
  3

 72
65
 73
0
 40
0.0
  0
LTYPE
  5
16
100
AcDbSymbolTableRecord
100
AcDbLinetypeTableRecord
  2
CONTINUOUS
 70
64
  3
Solid line
 72
65
 73
0
 40
0.0
  0
LTYPE
  5
1F5
100
AcDbSymbolTableRecord
100
AcDbLinetypeTableRecord
  2
CENTER
 70
64
  3
____ _ ____ _ ____ _ ____ _ ____ _ ____ _ ____
 72
65
 73
4
 40
0.6
 49
0.375
 74
0
 49
-0.075
 74
0
 49
0.075
 74
0
 49
-0.075
 74
0
  0
LTYPE
  5
1F6
100
AcDbSymbolTableRecord
100
AcDbLinetypeTableRecord
  2
HIDDEN
 70
64
  3
- - - - - - - - - - - - - - - - - - - -
 72
65
 73
2
 40
0.2
 49
0.1
 74
0
 49
-0.1
 74
0
  0
LTYPE
  5
1F7
100
AcDbSymbolTableRecord
100
AcDbLinetypeTableRecord
  2
PHANTOM
 70
64
  3
_____ _ _ _____ _ _ _____ _ _ _____
 72
65
 73
6
 40
0.8
 49
0.45
 74
0
 49
-0.05
 74
0
 49
0.1
 74
0
 49
-0.05
 74
0
 49
0.1
 74
0
 49
-0.05
 74
0
  0
LTYPE
  5
1F8
100
AcDbSymbolTableRecord
100
AcDbLinetypeTableRecord
  2
DOT
 70
64
  3
. . . . . . . . . . . . . . . . . . . .
 72
65
 73
2
 40
0.2
 49
0.1
 74
0
 49
-0.1
 74
0
  0
LTYPE
  5
1F9
100
AcDbSymbolTableRecord
100
AcDbLinetypeTableRecord
  2
DASHED
 70
64
  3
- - - - - - - - - - - - - - - - - - - -
 72
65
 73
2
 40
0.2
 49
0.1
 74
0
 49
-0.1
 74
0
  0
ENDTAB
  0
TABLE
  2
LAYER
  5
2
100
AcDbSymbolTable
 70
36
  0
LAYER
  5
10
100
AcDbSymbolTableRecord
100
AcDbLayerTableRecord
  2
0
 70
0
 62
7
  6
CONTINUOUS
370
-3
390
F
  0
LAYER
  5
1FA
100
AcDbSymbolTableRecord
100
AcDbLayerTableRecord
  2
DEFAULT_1
 70
0
 62
7
  6
CENTER
370
-3
390
F
  0
LAYER
  5
1FB
100
AcDbSymbolTableRecord
100
AcDbLayerTableRecord
  2
DEFAULT_2
 70
0
 62
7
  6
HIDDEN
370
-3
390
F
  0
LAYER
  5
1FC
100
AcDbSymbolTableRecord
100
AcDbLayerTableRecord
  2
DEFAULT_3
 70
0
 62
7
  6
PHANTOM
370
-3
390
F
  0
LAYER
  5
1FD
100
AcDbSymbolTableRecord
100
AcDbLayerTableRecord
  2
ASSI
 70
0
 62
7
  6
CONTINUOUS
370
-3
390
F
  0
LAYER
  5
1FE
100
AcDbSymbolTableRecord
100
AcDbLayerTableRecord
  2
COLOR5
 70
0
 62
7
  6
CONTINUOUS
370
-3
390
F
  0
LAYER
  5
1FF
100
AcDbSymbolTableRecord
100
AcDbLayerTableRecord
  2
COORDINATE
 70
0
 62
7
  6
CONTINUOUS
370
-3
390
F
  0
LAYER
  5
200
100
AcDbSymbolTableRecord
100
AcDbLayerTableRecord
  2
COORD_ORIGINE
 70
0
 62
7
  6
CONTINUOUS
370
-3
390
F
  0
LAYER
  5
201
100
AcDbSymbolTableRecord
100
AcDbLayerTableRecord
  2
COPY_PUBLISH
 70
0
 62
7
  6
CONTINUOUS
370
-3
390
F
  0
LAYER
  5
202
100
AcDbSymbolTableRecord
100
AcDbLayerTableRecord
  2
COSMETICI
 70
0
 62
7
  6
CONTINUOUS
370
-3
390
F
  0
LAYER
  5
203
100
AcDbSymbolTableRecord
100
AcDbLayerTableRecord
  2
CURVE
 70
0
 62
7
  6
CONTINUOUS
370
-3
390
F
  0
LAYER
  5
204
100
AcDbSymbolTableRecord
100
AcDbLayerTableRecord
  2
DRAFT
 70
0
 62
7
  6
CONTINUOUS
370
-3
390
F
  0
LAYER
  5
205
100
AcDbSymbolTableRecord
100
AcDbLayerTableRecord
  2
IMPORT_IGES
 70
0
 62
7
  6
CONTINUOUS
370
-3
390
F
  0
LAYER
  5
206
100
AcDbSymbolTableRecord
100
AcDbLayerTableRecord
  2
NOTE
 70
0
 62
7
  6
CONTINUOUS
370
-3
390
F
  0
LAYER
  5
207
100
AcDbSymbolTableRecord
100
AcDbLayerTableRecord
  2
PIANI
 70
0
 62
7
  6
CONTINUOUS
370
-3
390
F
  0
LAYER
  5
208
100
AcDbSymbolTableRecord
100
AcDbLayerTableRecord
  2
PIANI_ORIGINE
 70
0
 62
7
  6
CONTINUOUS
370
-3
390
F
  0
LAYER
  5
209
100
AcDbSymbolTableRecord
100
AcDbLayerTableRecord
  2
PUNTI
 70
0
 62
7
  6
CONTINUOUS
370
-3
390
F
  0
LAYER
  5
20A
100
AcDbSymbolTableRecord
100
AcDbLayerTableRecord
  2
RACCORDO
 70
0
 62
7
  6
CONTINUOUS
370
-3
390
F
  0
LAYER
  5
20B
100
AcDbSymbolTableRecord
100
AcDbLayerTableRecord
  2
SIMBOLI
 70
0
 62
7
  6
CONTINUOUS
370
-3
390
F
  0
LAYER
  5
20C
100
AcDbSymbolTableRecord
100
AcDbLayerTableRecord
  2
SMUSSO
 70
0
 62
7
  6
CONTINUOUS
370
-3
390
F
  0
LAYER
  5
20D
100
AcDbSymbolTableRecord
100
AcDbLayerTableRecord
  2
SNAPLINE
 70
0
 62
7
  6
CONTINUOUS
370
-3
390
F
  0
LAYER
  5
20E
100
AcDbSymbolTableRecord
100
AcDbLayerTableRecord
  2
SUPERFICI
 70
0
 62
7
  6
CONTINUOUS
370
-3
390
F
  0
LAYER
  5
20F
100
AcDbSymbolTableRecord
100
AcDbLayerTableRecord
  2
TRASH
 70
0
 62
7
  6
CONTINUOUS
370
-3
390
F
  0
ENDTAB
  0
TABLE
  2
STYLE
  5
3
100
AcDbSymbolTable
 70
1
  0
STYLE
  5
11
100
AcDbSymbolTableRecord
100
AcDbTextStyleTableRecord
  2
STANDARD
 70
0
 40
0.0
 41
0.8
 50
0.0
 71
0
 42
0.2
  3
txt
  4

  0
STYLE
  5
210
100
AcDbSymbolTableRecord
100
AcDbTextStyleTableRecord
  2
TEXTSTYLE_1
 70
0
 40
0.0
 41
0.8
 50
0.0
 71
0
 42
0.2
  3
gdt
  4

  0
ENDTAB
  0
TABLE
  2
VIEW
  5
6
100
AcDbSymbolTable
 70
0
  0
ENDTAB
  0
TABLE
  2
UCS
  5
7
100
AcDbSymbolTable
 70
0
  0
ENDTAB
  0
TABLE
  2
APPID
  5
9
100
AcDbSymbolTable
 70
1
  0
APPID
  5
211
100
AcDbSymbolTableRecord
100
AcDbRegAppTableRecord
  2
ACAD
 70
0
  0
ENDTAB
  0
TABLE
  2
BLOCK_RECORD
  5
1
100
AcDbSymbolTable
 70
0
  0
BLOCK_RECORD
  5
212
100
AcDbSymbolTableRecord
100
AcDbBlockTableRecord
  2
*Model_Space
  0
BLOCK_RECORD
  5
213
100
AcDbSymbolTableRecord
100
AcDbBlockTableRecord
  2
*Paper_Space
  0
BLOCK_RECORD
  5
214
100
AcDbSymbolTableRecord
100
AcDbBlockTableRecord
  2
_FILLED
  0
ENDTAB
  0
TABLE
  2
DIMSTYLE
  5
A
100
AcDbSymbolTable
 70
1
100
AcDbDimStyleTable
 71
0
  0
DIMSTYLE
105
215
100
AcDbSymbolTableRecord
100
AcDbDimStyleTableRecord
  2
STANDARD
 70
0
  3

  4

 40
1.0
 41
3.0
 42
0.5
 43
0.38
 44
1.5
 45
0.0
 46
0.0
 47
0.01
 48
0.01
140
3.0
141
0.09
142
0.0
143
25.4
144
1.0
145
0.0
146
1.0
147
0.625
 71
1.0
 72
0.0
 73
0
 74
0
 75
0
 76
0
 77
1
 78
8
 79
2
170
0
171
1
172
0
173
0
174
0
175
0
176
0
177
0
178
0
270
2
179
2
271
2
272
2
273
2
274
2
275
0
280
0
281
0
282
0
283
1
284
8
285
0
286
0
287
3
288
0
340
11
278
44
341
214
342
214
343
214
344
214
  0
ENDTAB
  0
ENDSEC
  0
SECTION
  2
BLOCKS
  0
BLOCK
  5
20
100
AcDbEntity
  8
0
100
AcDbBlockBegin
  2
*Model_Space
 70
0
 10
0.0
 20
0.0
 30
0.0
  3
*Model_Space
  1

  0
ENDBLK
  5
21
100
AcDbEntity
  8
0
100
AcDbBlockEnd
  0
BLOCK
  5
1C
100
AcDbEntity
  8
0
100
AcDbBlockBegin
  2
*Paper_Space
 70
0
 10
0.0
 20
0.0
 30
0.0
  3
*Paper_Space
  1

  0
ENDBLK
  5
1D
100
AcDbEntity
  8
0
100
AcDbBlockEnd
  0
BLOCK
  5
216
100
AcDbEntity
  8
0
100
AcDbBlockBegin
  2
_FILLED
 70
64
 10
0.0
 20
0.0
  3
_FILLED
  1

  0
SOLID
  5
217
100
AcDbEntity
  8
0
  6
BYBLOCK
 62
0
100
AcDbTrace
 10
0.0
 20
0.0
 11
-1.0
 21
0.3166666667
 12
-1.0
 22
-0.3166666667
 13
-1.0
 23
-0.3166666667
  0
ENDBLK
  5
218
100
AcDbEntity
  8
0
  6
BYBLOCK
 62
0
100
AcDbBlockEnd
  0
ENDSEC
  0
SECTION
  2
ENTITIES
  0
LINE
  5
219
100
AcDbEntity
  8
0
100
AcDbLine
 62
7
  6
CONTINUOUS
 10
101.75
 20
-182.5
 11
-158.25
 21
-182.5
  0
LINE
  5
21A
100
AcDbEntity
  8
0
100
AcDbLine
 62
250
  6
CONTINUOUS
 10
-153.3050196978
 20
-131.5665519433
 11
-134.6239830008
 21
-138.7093012686
  0
LINE
  5
21B
100
AcDbEntity
  8
0
100
AcDbLine
 62
7
  6
CONTINUOUS
 10
80.6987482229
 20
-162.5
 11
-143.7204266334
 21
-162.5
  0
LINE
  5
21C
100
AcDbEntity
  8
0
100
AcDbLine
 62
250
  6
CONTINUOUS
 10
-118.25
 20
-182.5
 11
-118.25
 21
-162.5
  0
LINE
  5
21D
100
AcDbEntity
  8
0
100
AcDbLine
 62
7
  6
CONTINUOUS
 10
-167.5905183485
 20
-168.9286253373
 11
-37.5905183485
 21
171.0713746627
  0
LINE
  5
21E
100
AcDbEntity
  8
0
100
AcDbLine
 62
7
  6
CONTINUOUS
 10
-148.9094816515
 20
-176.0713746627
 11
-18.9094816515
 21
163.9286253373
  0
LINE
  5
21F
100
AcDbEntity
  8
ASSI
100
AcDbLine
 62
7
  6
CONTINUOUS
 10
143.5797872245
 20
119.31875
 11
143.2606382817
 21
119.2062500268
  0
LINE
  5
220
100
AcDbEntity
  8
ASSI
100
AcDbLine
 62
7
  6
CONTINUOUS
 10
147.5329787225
 20
112.3750000268
 11
150.15
 21
113.1625
  0
LINE
  5
221
100
AcDbEntity
  8
ASSI
100
AcDbLine
 62
7
  6
CONTINUOUS
 10
142.75
 20
114.6499997854
 11
145.75
 21
115.5499998927
  0
LINE
  5
222
100
AcDbEntity
  8
ASSI
100
AcDbLine
 62
7
  6
CONTINUOUS
 10
150.15
 20
113.5
 11
147.15
 21
112.5999999732
  0
LINE
  5
223
100
AcDbEntity
  8
ASSI
100
AcDbLine
 62
7
  6
CONTINUOUS
 10
143.4521276653
 20
118.98125
 11
143.6436170042
 21
119.0374999464
  0
LINE
  5
224
100
AcDbEntity
  8
ASSI
100
AcDbLine
 62
7
  6
CONTINUOUS
 10
144.0265957713
 20
117.6875001073
 11
143.835106343
 21
117.63125
  0
LINE
  5
225
100
AcDbEntity
  8
ASSI
100
AcDbLine
 62
7
  6
CONTINUOUS
 10
145.0478724241
 20
117.4625
 11
145.239361763
 21
117.5187501073
  0
LINE
  5
226
100
AcDbEntity
  8
ASSI
100
AcDbLine
 62
7
  6
CONTINUOUS
 10
143.5159574449
 20
115.2124998927
 11
142.75
 21
114.9874997854
  0
LINE
  5
227
100
AcDbEntity
  8
ASSI
100
AcDbLine
 62
7
  6
CONTINUOUS
 10
145.4946808815
 20
115.775
 11
143.7712765634
 21
115.26875
  0
LINE
  5
228
100
AcDbEntity
  8
ASSI
100
AcDbLine
 62
7
  6
CONTINUOUS
 10
148.0436170042
 20
110.7437498927
 11
147.8521276653
 21
110.6875001073
  0
LINE
  5
229
100
AcDbEntity
  8
ASSI
100
AcDbLine
 62
7
  6
CONTINUOUS
 10
143.8989362121
 20
117.3500001073
 11
144.2180851102
 21
117.4625
  0
LINE
  5
22A
100
AcDbEntity
  8
ASSI
100
AcDbLine
 62
7
  6
CONTINUOUS
 10
143.835106343
 20
107.0
 11
144.1542553306
 21
107.1124995708
  0
LINE
  5
22B
100
AcDbEntity
  8
ASSI
100
AcDbLine
 62
7
  6
CONTINUOUS
 10
143.1329787225
 20
102.95
 11
145.75
 21
103.7374995708
  0
LINE
  5
22C
100
AcDbEntity
  8
ASSI
100
AcDbLine
 62
7
  6
CONTINUOUS
 10
145.75
 20
104.0749995708
 11
142.75
 21
103.1750004292
  0
LINE
  5
22D
100
AcDbEntity
  8
ASSI
100
AcDbLine
 62
7
  6
CONTINUOUS
 10
143.9627659917
 20
107.3375
 11
143.7712765634
 21
107.2812495708
  0
LINE
  5
22E
100
AcDbEntity
  8
ASSI
100
AcDbLine
 62
7
  6
CONTINUOUS
 10
149.2563829064
 20
108.8312501073
 11
149.4478724241
 21
108.8874998927
  0
LINE
  5
22F
100
AcDbEntity
  8
ASSI
100
AcDbLine
 62
7
  6
CONTINUOUS
 10
143.6436170042
 20
106.49375
 11
143.4521276653
 21
106.4374995708
  0
LINE
  5
230
100
AcDbEntity
  8
ASSI
100
AcDbLine
 62
7
  6
CONTINUOUS
 10
144.8563829064
 20
104.5812495708
 11
145.0478724241
 21
104.6375
  0
LINE
  5
231
100
AcDbEntity
  8
ASSI
100
AcDbLine
 62
7
  6
CONTINUOUS
 10
107.6352632903
 20
117.0
 11
132.0538475773
 21
131.0980762114
  0
LINE
  5
232
100
AcDbEntity
  8
ASSI
100
AcDbLine
 62
7
  6
CONTINUOUS
 10
143.5159574449
 20
109.025
 11
143.2606382817
 21
108.9125004292
  0
LINE
  5
233
100
AcDbEntity
  8
ASSI
100
AcDbLine
 62
7
  6
CONTINUOUS
 10
147.8521276653
 20
110.6875001073
 11
147.5968085021
 21
110.5749998927
  0
LINE
  5
234
100
AcDbEntity
  8
ASSI
100
AcDbLine
 62
7
  6
CONTINUOUS
 10
143.2606382817
 20
108.5750004292
 11
143.5159574449
 21
108.6875
  0
LINE
  5
235
100
AcDbEntity
  8
ASSI
100
AcDbLine
 62
7
  6
CONTINUOUS
 10
143.4521276653
 20
106.4374995708
 11
143.1968085021
 21
106.325
  0
LINE
  5
236
100
AcDbEntity
  8
ASSI
100
AcDbLine
 62
7
  6
CONTINUOUS
 10
149.4478724241
 20
108.8874998927
 11
149.7031915426
 21
109.0000001073
  0
LINE
  5
237
100
AcDbEntity
  8
ASSI
100
AcDbLine
 62
7
  6
CONTINUOUS
 10
145.0478724241
 20
104.6375
 11
145.3031915426
 21
104.7499995708
  0
LINE
  5
238
100
AcDbEntity
  8
ASSI
100
AcDbLine
 62
7
  6
CONTINUOUS
 10
144.2819148898
 20
101.3749995708
 11
144.1542553306
 21
101.3187504292
  0
LINE
  5
239
100
AcDbEntity
  8
ASSI
100
AcDbLine
 62
7
  6
CONTINUOUS
 10
144.1542553306
 20
100.41875
 11
144.2819148898
 21
100.4750004292
  0
LINE
  5
23A
100
AcDbEntity
  8
0
100
AcDbLine
 62
7
  6
CONTINUOUS
 10
-36.0014683551
 20
-19.3178111985
 11
93.9985316449
 21
-178.8178111985
  0
LINE
  5
23B
100
AcDbEntity
  8
RACCORDO
100
AcDbLine
 62
250
  6
CONTINUOUS
 10
-10.9030612245
 20
70.2110792811
 11
-11.1562373569
 21
68.9966252786
  0
LINE
  5
23C
100
AcDbEntity
  8
RACCORDO
100
AcDbLine
 62
250
  6
CONTINUOUS
 10
-11.5330930087
 20
67.1888962074
 11
-11.7193877551
 21
66.2952637855
  0
LINE
  5
23D
100
AcDbEntity
  8
RACCORDO
100
AcDbLine
 62
250
  6
CONTINUOUS
 10
-45.5969387755
 20
-96.2110792811
 11
-45.3437626431
 21
-94.9966252786
  0
LINE
  5
23E
100
AcDbEntity
  8
RACCORDO
100
AcDbLine
 62
250
  6
CONTINUOUS
 10
-44.9669069913
 20
-93.1888962074
 11
-44.7806122449
 21
-92.2952637855
  0
LINE
  5
23F
100
AcDbEntity
  8
RACCORDO
100
AcDbLine
 62
250
  6
CONTINUOUS
 10
-50.9030612245
 20
-121.6638800023
 11
-51.1228320873
 21
-122.718093136
  0
LINE
  5
240
100
AcDbEntity
  8
RACCORDO
100
AcDbLine
 62
250
  6
CONTINUOUS
 10
-51.4975192362
 20
-124.515420172
 11
-51.7193877551
 21
-125.5796954979
  0
LINE
  5
241
100
AcDbEntity
  8
RACCORDO
100
AcDbLine
 62
250
  6
CONTINUOUS
 10
-5.5969387755
 20
95.6638800023
 11
-5.3771679127
 21
96.718093136
  0
LINE
  5
242
100
AcDbEntity
  8
RACCORDO
100
AcDbLine
 62
250
  6
CONTINUOUS
 10
-5.0024807638
 20
98.515420172
 11
-4.7806122449
 21
99.5796954979
  0
LINE
  5
243
100
AcDbEntity
  8
RACCORDO
100
AcDbLine
 62
250
  6
CONTINUOUS
 10
-82.2649670614
 20
-91.1497494133
 11
-81.7704602687
 21
-90.4342887912
  0
LINE
  5
244
100
AcDbEntity
  8
RACCORDO
100
AcDbLine
 62
250
  6
CONTINUOUS
 10
25.7649670614
 20
65.1497494133
 11
25.2704602687
 21
64.4342887912
  0
LINE
  5
245
100
AcDbEntity
  8
RACCORDO
100
AcDbLine
 62
250
  6
CONTINUOUS
 10
12.6876592465
 20
46.2292837658
 11
13.1028782148
 21
46.8300294497
  0
LINE
  5
246
100
AcDbEntity
  8
RACCORDO
100
AcDbLine
 62
250
  6
CONTINUOUS
 10
-69.1876592465
 20
-72.2292837658
 11
-69.6028782148
 21
-72.8300294497
  0
LINE
  5
247
100
AcDbEntity
  8
ASSI
100
AcDbLine
 62
7
  6
CONTINUOUS
 10
143.2606382817
 20
119.2062500268
 11
143.0053191409
 21
119.0374999464
  0
LINE
  5
248
100
AcDbEntity
  8
ASSI
100
AcDbLine
 62
7
  6
CONTINUOUS
 10
145.239361763
 20
117.5187501073
 11
145.4946808815
 21
117.6875001073
  0
LINE
  5
249
100
AcDbEntity
  8
ASSI
100
AcDbLine
 62
7
  6
CONTINUOUS
 10
143.2606382817
 20
118.8687499464
 11
143.4521276653
 21
118.98125
  0
LINE
  5
24A
100
AcDbEntity
  8
ASSI
100
AcDbLine
 62
7
  6
CONTINUOUS
 10
145.239361763
 20
117.8562499464
 11
145.0478724241
 21
117.7437498927
  0
LINE
  5
24B
100
AcDbEntity
  8
ASSI
100
AcDbLine
 62
7
  6
CONTINUOUS
 10
145.239361763
 20
109.9249997854
 11
145.0478724241
 21
109.8125002146
  0
LINE
  5
24C
100
AcDbEntity
  8
ASSI
100
AcDbLine
 62
7
  6
CONTINUOUS
 10
147.6606382817
 20
110.2374998927
 11
148.0436170042
 21
110.4625
  0
LINE
  5
24D
100
AcDbEntity
  8
ASSI
100
AcDbLine
 62
7
  6
CONTINUOUS
 10
144.1542553306
 20
107.4499995708
 11
143.9627659917
 21
107.3375
  0
LINE
  5
24E
100
AcDbEntity
  8
ASSI
100
AcDbLine
 62
7
  6
CONTINUOUS
 10
143.2606382817
 20
105.9875
 11
143.6436170042
 21
106.2125004292
  0
LINE
  5
24F
100
AcDbEntity
  8
ASSI
100
AcDbLine
 62
7
  6
CONTINUOUS
 10
149.639361763
 20
109.3375001073
 11
149.2563829064
 21
109.1125
  0
LINE
  5
250
100
AcDbEntity
  8
ASSI
100
AcDbLine
 62
7
  6
CONTINUOUS
 10
145.239361763
 20
105.0874995708
 11
144.8563829064
 21
104.8625004292
  0
LINE
  5
251
100
AcDbEntity
  8
ASSI
100
AcDbLine
 62
7
  6
CONTINUOUS
 10
135.189375
 20
109.62407
 11
134.802094
 21
109.406701
  0
LINE
  5
252
100
AcDbEntity
  8
RACCORDO
100
AcDbLine
 62
250
  6
CONTINUOUS
 10
-140.8296954979
 20
10.4693877551
 11
-139.765420172
 21
10.2475192362
  0
LINE
  5
253
100
AcDbEntity
  8
RACCORDO
100
AcDbLine
 62
250
  6
CONTINUOUS
 10
-111.4610792811
 20
4.3469387755
 11
-110.2466252786
 21
4.0937626431
  0
LINE
  5
254
100
AcDbEntity
  8
RACCORDO
100
AcDbLine
 62
250
  6
CONTINUOUS
 10
84.3296954979
 20
-36.4693877551
 11
83.265420172
 21
-36.2475192362
  0
LINE
  5
255
100
AcDbEntity
  8
RACCORDO
100
AcDbLine
 62
250
  6
CONTINUOUS
 10
54.9610792811
 20
-30.3469387755
 11
53.7466252786
 21
-30.0937626431
  0
LINE
  5
256
100
AcDbEntity
  8
RACCORDO
100
AcDbLine
 62
250
  6
CONTINUOUS
 10
51.0452637855
 20
-29.5306122449
 11
51.9388962074
 21
-29.7169069913
  0
LINE
  5
257
100
AcDbEntity
  8
RACCORDO
100
AcDbLine
 62
250
  6
CONTINUOUS
 10
80.4138800023
 20
-35.6530612245
 11
81.468093136
 21
-35.8728320873
  0
LINE
  5
258
100
AcDbEntity
  8
RACCORDO
100
AcDbLine
 62
250
  6
CONTINUOUS
 10
-107.5452637855
 20
3.5306122449
 11
-108.4388962074
 21
3.7169069913
  0
LINE
  5
259
100
AcDbEntity
  8
RACCORDO
100
AcDbLine
 62
250
  6
CONTINUOUS
 10
-136.9138800023
 20
9.6530612245
 11
-137.968093136
 21
9.8728320873
  0
LINE
  5
25A
100
AcDbEntity
  8
RACCORDO
100
AcDbLine
 62
250
  6
CONTINUOUS
 10
-106.3997494133
 20
41.0149670614
 11
-105.6842887912
 21
40.5204602687
  0
LINE
  5
25B
100
AcDbEntity
  8
RACCORDO
100
AcDbLine
 62
250
  6
CONTINUOUS
 10
49.8997494133
 20
-67.0149670614
 11
49.1842887912
 21
-66.5204602687
  0
LINE
  5
25C
100
AcDbEntity
  8
RACCORDO
100
AcDbLine
 62
250
  6
CONTINUOUS
 10
30.9792837658
 20
-53.9376592465
 11
31.5800294497
 21
-54.3528782148
  0
LINE
  5
25D
100
AcDbEntity
  8
0
100
AcDbLine
 62
7
  6
CONTINUOUS
 10
-20.4985316449
 20
-6.6821888015
 11
109.5014683551
 21
-166.1821888015
  0
LINE
  5
25E
100
AcDbEntity
  8
RACCORDO
100
AcDbLine
 62
250
  6
CONTINUOUS
 10
-82.2649670614
 20
65.1497494133
 11
-81.7704602687
 21
64.4342887912
  0
LINE
  5
25F
100
AcDbEntity
  8
RACCORDO
100
AcDbLine
 62
250
  6
CONTINUOUS
 10
-45.5969387755
 20
70.2110792811
 11
-45.3437626431
 21
68.9966252786
  0
LINE
  5
260
100
AcDbEntity
  8
RACCORDO
100
AcDbLine
 62
250
  6
CONTINUOUS
 10
-44.9669069913
 20
67.1888962074
 11
-44.7806122449
 21
66.2952637855
  0
LINE
  5
261
100
AcDbEntity
  8
RACCORDO
100
AcDbLine
 62
250
  6
CONTINUOUS
 10
-10.9030612245
 20
-96.2110792811
 11
-11.1562373569
 21
-94.9966252786
  0
LINE
  5
262
100
AcDbEntity
  8
RACCORDO
100
AcDbLine
 62
250
  6
CONTINUOUS
 10
-11.5330930087
 20
-93.1888962074
 11
-11.7193877551
 21
-92.2952637855
  0
LINE
  5
263
100
AcDbEntity
  8
RACCORDO
100
AcDbLine
 62
250
  6
CONTINUOUS
 10
-5.5969387755
 20
-121.6638800023
 11
-5.3771679127
 21
-122.718093136
  0
LINE
  5
264
100
AcDbEntity
  8
RACCORDO
100
AcDbLine
 62
250
  6
CONTINUOUS
 10
-5.0024807638
 20
-124.515420172
 11
-4.7806122449
 21
-125.5796954979
  0
LINE
  5
265
100
AcDbEntity
  8
RACCORDO
100
AcDbLine
 62
250
  6
CONTINUOUS
 10
-106.3997494133
 20
-67.0149670614
 11
-105.6842887912
 21
-66.5204602687
  0
LINE
  5
266
100
AcDbEntity
  8
RACCORDO
100
AcDbLine
 62
250
  6
CONTINUOUS
 10
49.8997494133
 20
41.0149670614
 11
49.1842887912
 21
40.5204602687
  0
LINE
  5
267
100
AcDbEntity
  8
RACCORDO
100
AcDbLine
 62
250
  6
CONTINUOUS
 10
30.9792837658
 20
27.9376592465
 11
31.5800294497
 21
28.3528782148
  0
LINE
  5
268
100
AcDbEntity
  8
RACCORDO
100
AcDbLine
 62
250
  6
CONTINUOUS
 10
-87.4792837658
 20
-53.9376592465
 11
-88.0800294497
 21
-54.3528782148
  0
LINE
  5
269
100
AcDbEntity
  8
ASSI
100
AcDbLine
 62
7
  6
CONTINUOUS
 10
143.2606382817
 20
108.9125004292
 11
143.0053191409
 21
108.7437504292
  0
LINE
  5
26A
100
AcDbEntity
  8
ASSI
100
AcDbLine
 62
7
  6
CONTINUOUS
 10
144.1542553306
 20
107.1124995708
 11
144.4095744491
 21
107.2812495708
  0
LINE
  5
26B
100
AcDbEntity
  8
RACCORDO
100
AcDbLine
 62
250
  6
CONTINUOUS
 10
-140.8296954979
 20
-36.4693877551
 11
-139.765420172
 21
-36.2475192362
  0
LINE
  5
26C
100
AcDbEntity
  8
RACCORDO
100
AcDbLine
 62
250
  6
CONTINUOUS
 10
84.3296954979
 20
10.4693877551
 11
83.265420172
 21
10.2475192362
  0
LINE
  5
26D
100
AcDbEntity
  8
RACCORDO
100
AcDbLine
 62
250
  6
CONTINUOUS
 10
54.9610792811
 20
4.3469387755
 11
53.7466252786
 21
4.0937626431
  0
LINE
  5
26E
100
AcDbEntity
  8
RACCORDO
100
AcDbLine
 62
250
  6
CONTINUOUS
 10
51.0452637855
 20
3.5306122449
 11
51.9388962074
 21
3.7169069913
  0
LINE
  5
26F
100
AcDbEntity
  8
RACCORDO
100
AcDbLine
 62
250
  6
CONTINUOUS
 10
80.4138800023
 20
9.6530612245
 11
81.468093136
 21
9.8728320873
  0
LINE
  5
270
100
AcDbEntity
  8
RACCORDO
100
AcDbLine
 62
250
  6
CONTINUOUS
 10
-136.9138800023
 20
-35.6530612245
 11
-137.968093136
 21
-35.8728320873
  0
LINE
  5
271
100
AcDbEntity
  8
ASSI
100
AcDbLine
 62
7
  6
CONTINUOUS
 10
144.1542553306
 20
117.8
 11
144.0265957713
 21
117.6875001073
  0
LINE
  5
272
100
AcDbEntity
  8
ASSI
100
AcDbLine
 62
7
  6
CONTINUOUS
 10
144.2180851102
 20
117.4625
 11
144.4095744491
 21
117.63125
  0
LINE
  5
273
100
AcDbEntity
  8
ASSI
100
AcDbLine
 62
7
  6
CONTINUOUS
 10
145.3031915426
 20
109.53125
 11
145.5585106611
 21
109.7562497854
  0
LINE
  5
274
100
AcDbEntity
  8
ASSI
100
AcDbLine
 62
7
  6
CONTINUOUS
 10
147.5968085021
 20
110.5749998927
 11
147.4053191409
 21
110.4062498927
  0
LINE
  5
275
100
AcDbEntity
  8
ASSI
100
AcDbLine
 62
7
  6
CONTINUOUS
 10
143.1968085021
 20
106.325
 11
143.0053191409
 21
106.15625
  0
LINE
  5
276
100
AcDbEntity
  8
ASSI
100
AcDbLine
 62
7
  6
CONTINUOUS
 10
149.7031915426
 20
109.0000001073
 11
149.8946808815
 21
109.1687501073
  0
LINE
  5
277
100
AcDbEntity
  8
ASSI
100
AcDbLine
 62
7
  6
CONTINUOUS
 10
145.3031915426
 20
104.7499995708
 11
145.4946808815
 21
104.9187495708
  0
LINE
  5
278
100
AcDbEntity
  8
ASSI
100
AcDbLine
 62
7
  6
CONTINUOUS
 10
137.697655
 20
112.018141
 11
136.627635
 21
110.748398
  0
LINE
  5
279
100
AcDbEntity
  8
ASSI
100
AcDbLine
 62
7
  6
CONTINUOUS
 10
137.212838
 20
110.748398
 11
138.332247
 21
112.076748
  0
LINE
  5
27A
100
AcDbEntity
  8
0
100
AcDbLine
 62
250
  6
CONTINUOUS
 10
-1.5450980494
 20
-29.9365938668
 11
-17.0480347596
 21
-42.5722162638
  0
LINE
  5
27B
100
AcDbEntity
  8
ASSI
100
AcDbLine
 62
7
  6
CONTINUOUS
 10
143.0053191409
 20
119.0374999464
 11
142.8138297852
 21
118.7562500536
  0
LINE
  5
27C
100
AcDbEntity
  8
ASSI
100
AcDbLine
 62
7
  6
CONTINUOUS
 10
143.1329787225
 20
118.6999999464
 11
143.2606382817
 21
118.8687499464
  0
LINE
  5
27D
100
AcDbEntity
  8
ASSI
100
AcDbLine
 62
7
  6
CONTINUOUS
 10
144.2819148898
 20
117.96875
 11
144.1542553306
 21
117.8
  0
LINE
  5
27E
100
AcDbEntity
  8
ASSI
100
AcDbLine
 62
7
  6
CONTINUOUS
 10
145.3670213223
 20
118.0249999464
 11
145.239361763
 21
117.8562499464
  0
LINE
  5
27F
100
AcDbEntity
  8
ASSI
100
AcDbLine
 62
7
  6
CONTINUOUS
 10
143.1329787225
 20
108.4062504292
 11
143.2606382817
 21
108.5750004292
  0
LINE
  5
280
100
AcDbEntity
  8
ASSI
100
AcDbLine
 62
7
  6
CONTINUOUS
 10
145.3670213223
 20
110.0937497854
 11
145.239361763
 21
109.9249997854
  0
LINE
  5
281
100
AcDbEntity
  8
ASSI
100
AcDbLine
 62
7
  6
CONTINUOUS
 10
144.2819148898
 20
107.6187495708
 11
144.1542553306
 21
107.4499995708
  0
LINE
  5
282
100
AcDbEntity
  8
ASSI
100
AcDbLine
 62
7
  6
CONTINUOUS
 10
143.1329787225
 20
105.81875
 11
143.2606382817
 21
105.9875
  0
LINE
  5
283
100
AcDbEntity
  8
ASSI
100
AcDbLine
 62
7
  6
CONTINUOUS
 10
147.5329787225
 20
110.0687498927
 11
147.6606382817
 21
110.2374998927
  0
LINE
  5
284
100
AcDbEntity
  8
0
100
AcDbLine
 62
250
  6
CONTINUOUS
 10
61.75
 20
-182.5
 11
61.75
 21
-162.5
  0
LINE
  5
285
100
AcDbEntity
  8
ASSI
100
AcDbLine
 62
7
  6
CONTINUOUS
 10
144.4095744491
 20
117.63125
 11
144.6010637879
 21
117.9125000536
  0
LINE
  5
286
100
AcDbEntity
  8
ASSI
100
AcDbLine
 62
7
  6
CONTINUOUS
 10
145.4946808815
 20
117.6875001073
 11
145.6861702204
 21
117.96875
  0
LINE
  5
287
100
AcDbEntity
  8
ASSI
100
AcDbLine
 62
7
  6
CONTINUOUS
 10
143.0053191409
 20
108.7437504292
 11
142.8138297852
 21
108.4624995708
  0
LINE
  5
288
100
AcDbEntity
  8
ASSI
100
AcDbLine
 62
7
  6
CONTINUOUS
 10
143.0053191409
 20
106.15625
 11
142.8138297852
 21
105.8750004292
  0
LINE
  5
289
100
AcDbEntity
  8
ASSI
100
AcDbLine
 62
7
  6
CONTINUOUS
 10
144.4095744491
 20
107.2812495708
 11
144.6010637879
 21
107.5625004292
  0
LINE
  5
28A
100
AcDbEntity
  8
ASSI
100
AcDbLine
 62
7
  6
CONTINUOUS
 10
147.4053191409
 20
110.4062498927
 11
147.2138297852
 21
110.125
  0
LINE
  5
28B
100
AcDbEntity
  8
ASSI
100
AcDbLine
 62
7
  6
CONTINUOUS
 10
145.4946808815
 20
104.9187495708
 11
145.6861702204
 21
105.2000004292
  0
LINE
  5
28C
100
AcDbEntity
  8
ASSI
100
AcDbLine
 62
7
  6
CONTINUOUS
 10
149.8946808815
 20
109.1687501073
 11
150.0861702204
 21
109.45
  0
LINE
  5
28D
100
AcDbEntity
  8
ASSI
100
AcDbLine
 62
7
  6
CONTINUOUS
 10
145.3670213223
 20
105.2562495708
 11
145.239361763
 21
105.0874995708
  0
LINE
  5
28E
100
AcDbEntity
  8
ASSI
100
AcDbLine
 62
7
  6
CONTINUOUS
 10
149.7670213223
 20
109.5062501073
 11
149.639361763
 21
109.3375001073
  0
LINE
  5
28F
100
AcDbEntity
  8
ASSI
100
AcDbLine
 62
7
  6
CONTINUOUS
 10
145.5585106611
 20
109.7562497854
 11
145.6861702204
 21
109.9812502146
  0
LINE
  5
290
100
AcDbEntity
  8
ASSI
100
AcDbLine
 62
7
  6
CONTINUOUS
 10
144.2819148898
 20
101.1500004292
 11
144.0265957713
 21
100.6999995708
  0
LINE
  5
291
100
AcDbEntity
  8
ASSI
100
AcDbLine
 62
7
  6
CONTINUOUS
 10
144.1542553306
 20
100.6999995708
 11
144.4095744491
 21
101.1500004292
  0
LINE
  5
292
100
AcDbEntity
  8
ASSI
100
AcDbLine
 62
7
  6
CONTINUOUS
 10
107.75
 20
117.0662432703
 11
132.75
 21
124.0
  0
LINE
  5
293
100
AcDbEntity
  8
ASSI
100
AcDbLine
 62
7
  6
CONTINUOUS
 10
145.0478724241
 20
109.4749995708
 11
145.3031915426
 21
109.53125
  0
LINE
  5
294
100
AcDbEntity
  8
ASSI
100
AcDbLine
 62
7
  6
CONTINUOUS
 10
144.5372340083
 20
104.5250004292
 11
144.8563829064
 21
104.5812495708
  0
LINE
  5
295
100
AcDbEntity
  8
ASSI
100
AcDbLine
 62
7
  6
CONTINUOUS
 10
143.9627659917
 20
106.5500004292
 11
143.6436170042
 21
106.49375
  0
LINE
  5
296
100
AcDbEntity
  8
ASSI
100
AcDbLine
 62
7
  6
CONTINUOUS
 10
148.9372340083
 20
108.775
 11
149.2563829064
 21
108.8312501073
  0
LINE
  5
297
100
AcDbEntity
  8
ASSI
100
AcDbLine
 62
7
  6
CONTINUOUS
 10
148.3627659917
 20
110.8
 11
148.0436170042
 21
110.7437498927
  0
LINE
  5
298
100
AcDbEntity
  8
ASSI
100
AcDbLine
 62
7
  6
CONTINUOUS
 10
144.8563829064
 20
104.8625004292
 11
144.4734042287
 21
104.80625
  0
LINE
  5
299
100
AcDbEntity
  8
ASSI
100
AcDbLine
 62
7
  6
CONTINUOUS
 10
143.6436170042
 20
106.2125004292
 11
144.0265957713
 21
106.2687495708
  0
LINE
  5
29A
100
AcDbEntity
  8
ASSI
100
AcDbLine
 62
7
  6
CONTINUOUS
 10
91.75
 20
104.0
 11
91.75
 21
117.0
  0
LINE
  5
29B
100
AcDbEntity
  8
ASSI
100
AcDbLine
 62
7
  6
CONTINUOUS
 10
95.55
 20
117.0
 11
95.55
 21
104.0
  0
LINE
  5
29C
100
AcDbEntity
  8
ASSI
100
AcDbLine
 62
7
  6
CONTINUOUS
 10
98.05
 20
104.0
 11
98.05
 21
117.0
  0
LINE
  5
29D
100
AcDbEntity
  8
ASSI
100
AcDbLine
 62
7
  6
CONTINUOUS
 10
100.55
 20
117.0
 11
100.55
 21
104.0
  0
LINE
  5
29E
100
AcDbEntity
  8
ASSI
100
AcDbLine
 62
7
  6
CONTINUOUS
 10
143.0691489428
 20
118.5312499464
 11
143.1329787225
 21
118.6999999464
  0
LINE
  5
29F
100
AcDbEntity
  8
ASSI
100
AcDbLine
 62
7
  6
CONTINUOUS
 10
144.3457446694
 20
118.1375
 11
144.2819148898
 21
117.96875
  0
LINE
  5
2A0
100
AcDbEntity
  8
ASSI
100
AcDbLine
 62
7
  6
CONTINUOUS
 10
145.4308511019
 20
118.1937499464
 11
145.3670213223
 21
118.0249999464
  0
LINE
  5
2A1
100
AcDbEntity
  8
ASSI
100
AcDbLine
 62
7
  6
CONTINUOUS
 10
149.2563829064
 20
109.1125
 11
148.8734042287
 21
109.0562498927
  0
LINE
  5
2A2
100
AcDbEntity
  8
ASSI
100
AcDbLine
 62
7
  6
CONTINUOUS
 10
148.0436170042
 20
110.4625
 11
148.4265957713
 21
110.5187501073
  0
LINE
  5
2A3
100
AcDbEntity
  8
ASSI
100
AcDbLine
 62
7
  6
CONTINUOUS
 10
144.0265957713
 20
119.3750000268
 11
143.5797872245
 21
119.31875
  0
LINE
  5
2A4
100
AcDbEntity
  8
ASSI
100
AcDbLine
 62
7
  6
CONTINUOUS
 10
133.5538475773
 20
89.5
 11
150.75
 21
89.5
  0
LINE
  5
2A5
100
AcDbEntity
  8
ASSI
100
AcDbLine
 62
7
  6
CONTINUOUS
 10
160.75
 20
95.0
 11
167.55
 21
95.0
  0
LINE
  5
2A6
100
AcDbEntity
  8
ASSI
100
AcDbLine
 62
7
  6
CONTINUOUS
 10
150.75
 20
95.1
 11
160.75
 21
95.1
  0
LINE
  5
2A7
100
AcDbEntity
  8
ASSI
100
AcDbLine
 62
7
  6
CONTINUOUS
 10
133.1620757021
 20
97.0
 11
150.75
 21
97.0
  0
LINE
  5
2A8
100
AcDbEntity
  8
ASSI
100
AcDbLine
 62
7
  6
CONTINUOUS
 10
150.75
 20
99.9
 11
160.75
 21
99.9
  0
LINE
  5
2A9
100
AcDbEntity
  8
ASSI
100
AcDbLine
 62
7
  6
CONTINUOUS
 10
160.75
 20
100.0
 11
167.55
 21
100.0
  0
LINE
  5
2AA
100
AcDbEntity
  8
ASSI
100
AcDbLine
 62
7
  6
CONTINUOUS
 10
103.05
 20
104.0
 11
103.05
 21
117.0
  0
LINE
  5
2AB
100
AcDbEntity
  8
ASSI
100
AcDbLine
 62
7
  6
CONTINUOUS
 10
105.55
 20
117.0
 11
105.55
 21
104.0
  0
LINE
  5
2AC
100
AcDbEntity
  8
ASSI
100
AcDbLine
 62
7
  6
CONTINUOUS
 10
107.75
 20
104.0
 11
107.75
 21
103.9337567297
  0
LINE
  5
2AD
100
AcDbEntity
  8
ASSI
100
AcDbLine
 62
7
  6
CONTINUOUS
 10
107.75
 20
117.0
 11
107.75
 21
117.0662432703
  0
LINE
  5
2AE
100
AcDbEntity
  8
ASSI
100
AcDbLine
 62
7
  6
CONTINUOUS
 10
108.05
 20
104.0
 11
108.05
 21
117.0
  0
LINE
  5
2AF
100
AcDbEntity
  8
ASSI
100
AcDbLine
 62
7
  6
CONTINUOUS
 10
142.8138297852
 20
118.7562500536
 11
142.75
 21
118.475
  0
LINE
  5
2B0
100
AcDbEntity
  8
ASSI
100
AcDbLine
 62
7
  6
CONTINUOUS
 10
144.6010637879
 20
117.9125000536
 11
144.6648935676
 21
118.1937499464
  0
LINE
  5
2B1
100
AcDbEntity
  8
ASSI
100
AcDbLine
 62
7
  6
CONTINUOUS
 10
142.8138297852
 20
108.4624995708
 11
142.75
 21
108.18125
  0
LINE
  5
2B2
100
AcDbEntity
  8
ASSI
100
AcDbLine
 62
7
  6
CONTINUOUS
 10
145.6861702204
 20
117.96875
 11
145.75
 21
118.2500000536
  0
LINE
  5
2B3
100
AcDbEntity
  8
ASSI
100
AcDbLine
 62
7
  6
CONTINUOUS
 10
143.0691489428
 20
105.5375004292
 11
143.1329787225
 21
105.81875
  0
LINE
  5
2B4
100
AcDbEntity
  8
ASSI
100
AcDbLine
 62
7
  6
CONTINUOUS
 10
144.6010637879
 20
107.5625004292
 11
144.6648935676
 21
107.84375
  0
LINE
  5
2B5
100
AcDbEntity
  8
ASSI
100
AcDbLine
 62
7
  6
CONTINUOUS
 10
145.4308511019
 20
110.375
 11
145.3670213223
 21
110.0937497854
  0
LINE
  5
2B6
100
AcDbEntity
  8
ASSI
100
AcDbLine
 62
7
  6
CONTINUOUS
 10
145.4308511019
 20
105.5375004292
 11
145.3670213223
 21
105.2562495708
  0
LINE
  5
2B7
100
AcDbEntity
  8
ASSI
100
AcDbLine
 62
7
  6
CONTINUOUS
 10
143.0691489428
 20
108.18125
 11
143.1329787225
 21
108.4062504292
  0
LINE
  5
2B8
100
AcDbEntity
  8
ASSI
100
AcDbLine
 62
7
  6
CONTINUOUS
 10
144.3457446694
 20
107.84375
 11
144.2819148898
 21
107.6187495708
  0
LINE
  5
2B9
100
AcDbEntity
  8
ASSI
100
AcDbLine
 62
250
  6
CONTINUOUS
 10
108.05
 20
116.0
 11
127.3928571429
 21
116.8
  0
LINE
  5
2BA
100
AcDbEntity
  8
ASSI
100
AcDbLine
 62
7
  6
CONTINUOUS
 10
91.75
 20
104.0
 11
133.1620757021
 21
104.0
  0
LINE
  5
2BB
100
AcDbEntity
  8
ASSI
100
AcDbLine
 62
7
  6
CONTINUOUS
 10
143.9627659917
 20
104.5250004292
 11
144.5372340083
 21
104.5250004292
  0
LINE
  5
2BC
100
AcDbEntity
  8
ASSI
100
AcDbLine
 62
7
  6
CONTINUOUS
 10
144.4734042287
 20
104.80625
 11
144.0265957713
 21
104.80625
  0
LINE
  5
2BD
100
AcDbEntity
  8
ASSI
100
AcDbLine
 62
250
  6
CONTINUOUS
 10
105.55
 20
105.0
 11
103.05
 21
105.0
  0
LINE
  5
2BE
100
AcDbEntity
  8
ASSI
100
AcDbLine
 62
250
  6
CONTINUOUS
 10
100.55
 20
105.0
 11
98.05
 21
105.0
  0
LINE
  5
2BF
100
AcDbEntity
  8
ASSI
100
AcDbLine
 62
250
  6
CONTINUOUS
 10
95.55
 20
105.0
 11
91.75
 21
105.0
  0
LINE
  5
2C0
100
AcDbEntity
  8
ASSI
100
AcDbLine
 62
7
  6
CONTINUOUS
 10
144.0265957713
 20
106.2687495708
 11
144.4734042287
 21
106.2687495708
  0
LINE
  5
2C1
100
AcDbEntity
  8
ASSI
100
AcDbLine
 62
7
  6
CONTINUOUS
 10
91.75
 20
106.5
 11
48.4544912092
 21
106.5
  0
LINE
  5
2C2
100
AcDbEntity
  8
ASSI
100
AcDbLine
 62
7
  6
CONTINUOUS
 10
144.5372340083
 20
106.5500004292
 11
143.9627659917
 21
106.5500004292
  0
LINE
  5
2C3
100
AcDbEntity
  8
ASSI
100
AcDbLine
 62
7
  6
CONTINUOUS
 10
143.5797872245
 20
107.0
 11
143.835106343
 21
107.0
  0
LINE
  5
2C4
100
AcDbEntity
  8
ASSI
100
AcDbLine
 62
7
  6
CONTINUOUS
 10
145.4308511019
 20
107.1124995708
 11
145.75
 21
107.1124995708
  0
LINE
  5
2C5
100
AcDbEntity
  8
ASSI
100
AcDbLine
 62
7
  6
CONTINUOUS
 10
143.7712765634
 20
107.2812495708
 11
143.6436170042
 21
107.2812495708
  0
LINE
  5
2C6
100
AcDbEntity
  8
ASSI
100
AcDbLine
 62
7
  6
CONTINUOUS
 10
147.15
 20
107.6499997854
 11
150.15
 21
107.6499997854
  0
LINE
  5
2C7
100
AcDbEntity
  8
ASSI
100
AcDbLine
 62
7
  6
CONTINUOUS
 10
149.639361763
 20
107.9874997854
 11
147.15
 21
107.9874997854
  0
LINE
  5
2C8
100
AcDbEntity
  8
ASSI
100
AcDbLine
 62
7
  6
CONTINUOUS
 10
150.75
 20
108.0
 11
168.05
 21
108.0
  0
LINE
  5
2C9
100
AcDbEntity
  8
ASSI
100
AcDbLine
 62
7
  6
CONTINUOUS
 10
149.7031915426
 20
108.3250001073
 11
149.1925531268
 21
108.3250001073
  0
LINE
  5
2CA
100
AcDbEntity
  8
ASSI
100
AcDbLine
 62
7
  6
CONTINUOUS
 10
144.4095744491
 20
108.7437504292
 11
145.4308511019
 21
108.7437504292
  0
LINE
  5
2CB
100
AcDbEntity
  8
ASSI
100
AcDbLine
 62
7
  6
CONTINUOUS
 10
148.3627659917
 20
108.775
 11
148.9372340083
 21
108.775
  0
LINE
  5
2CC
100
AcDbEntity
  8
ASSI
100
AcDbLine
 62
7
  6
CONTINUOUS
 10
145.75
 20
109.025
 11
144.0904255509
 21
109.025
  0
LINE
  5
2CD
100
AcDbEntity
  8
ASSI
100
AcDbLine
 62
7
  6
CONTINUOUS
 10
148.8734042287
 20
109.0562498927
 11
148.4265957713
 21
109.0562498927
  0
LINE
  5
2CE
100
AcDbEntity
  8
ASSI
100
AcDbLine
 62
7
  6
CONTINUOUS
 10
142.75
 20
109.4749995708
 11
143.0691489428
 21
109.4749995708
  0
LINE
  5
2CF
100
AcDbEntity
  8
ASSI
100
AcDbLine
 62
7
  6
CONTINUOUS
 10
144.9202126861
 20
109.4749995708
 11
145.0478724241
 21
109.4749995708
  0
LINE
  5
2D0
100
AcDbEntity
  8
ASSI
100
AcDbLine
 62
7
  6
CONTINUOUS
 10
145.0478724241
 20
109.8125002146
 11
144.9202126861
 21
109.8125002146
  0
LINE
  5
2D1
100
AcDbEntity
  8
ASSI
100
AcDbLine
 62
7
  6
CONTINUOUS
 10
134.589734
 20
109.827009
 11
135.061955
 21
109.827009
  0
LINE
  5
2D2
100
AcDbEntity
  8
ASSI
100
AcDbLine
 62
7
  6
CONTINUOUS
 10
138.416846
 20
109.84243
 11
138.891663
 21
109.84243
  0
LINE
  5
2D3
100
AcDbEntity
  8
ASSI
100
AcDbLine
 62
7
  6
CONTINUOUS
 10
135.061955
 20
110.245335
 11
136.632916
 21
110.245335
  0
LINE
  5
2D4
100
AcDbEntity
  8
ASSI
100
AcDbLine
 62
7
  6
CONTINUOUS
 10
137.212838
 20
110.245335
 11
138.416846
 21
110.245335
  0
LINE
  5
2D5
100
AcDbEntity
  8
ASSI
100
AcDbLine
 62
7
  6
CONTINUOUS
 10
148.4265957713
 20
110.5187501073
 11
148.8734042287
 21
110.5187501073
  0
LINE
  5
2D6
100
AcDbEntity
  8
ASSI
100
AcDbLine
 62
7
  6
CONTINUOUS
 10
138.416846
 20
110.748398
 11
137.212838
 21
110.748398
  0
LINE
  5
2D7
100
AcDbEntity
  8
ASSI
100
AcDbLine
 62
7
  6
CONTINUOUS
 10
136.627635
 20
110.748398
 11
135.061955
 21
110.748398
  0
LINE
  5
2D8
100
AcDbEntity
  8
ASSI
100
AcDbLine
 62
7
  6
CONTINUOUS
 10
148.9372340083
 20
110.8
 11
148.3627659917
 21
110.8
  0
LINE
  5
2D9
100
AcDbEntity
  8
ASSI
100
AcDbLine
 62
7
  6
CONTINUOUS
 10
138.891663
 20
111.151466
 11
138.416846
 21
111.151466
  0
LINE
  5
2DA
100
AcDbEntity
  8
ASSI
100
AcDbLine
 62
7
  6
CONTINUOUS
 10
135.061955
 20
111.166887
 11
134.589734
 21
111.166887
  0
LINE
  5
2DB
100
AcDbEntity
  8
ASSI
100
AcDbLine
 62
7
  6
CONTINUOUS
 10
143.0691489428
 20
111.5000002146
 11
142.75
 21
111.5000002146
  0
LINE
  5
2DC
100
AcDbEntity
  8
ASSI
100
AcDbLine
 62
7
  6
CONTINUOUS
 10
150.75
 20
113.0
 11
168.05
 21
113.0
  0
LINE
  5
2DD
100
AcDbEntity
  8
ASSI
100
AcDbLine
 62
7
  6
CONTINUOUS
 10
91.75
 20
114.5
 11
34.2539376737
 21
114.5
  0
LINE
  5
2DE
100
AcDbEntity
  8
ASSI
100
AcDbLine
 62
250
  6
CONTINUOUS
 10
91.75
 20
116.0
 11
95.55
 21
116.0
  0
LINE
  5
2DF
100
AcDbEntity
  8
ASSI
100
AcDbLine
 62
250
  6
CONTINUOUS
 10
98.05
 20
116.0
 11
100.55
 21
116.0
  0
LINE
  5
2E0
100
AcDbEntity
  8
ASSI
100
AcDbLine
 62
250
  6
CONTINUOUS
 10
103.05
 20
116.0
 11
105.55
 21
116.0
  0
LINE
  5
2E1
100
AcDbEntity
  8
ASSI
100
AcDbLine
 62
7
  6
CONTINUOUS
 10
132.75
 20
117.0
 11
127.3928571429
 21
117.0
  0
LINE
  5
2E2
100
AcDbEntity
  8
ASSI
100
AcDbLine
 62
7
  6
CONTINUOUS
 10
91.75
 20
117.0
 11
126.5547784105
 21
117.0
  0
LINE
  5
2E3
100
AcDbEntity
  8
ASSI
100
AcDbLine
 62
7
  6
CONTINUOUS
 10
143.5797872245
 20
117.3500001073
 11
143.8989362121
 21
117.3500001073
  0
LINE
  5
2E4
100
AcDbEntity
  8
ASSI
100
AcDbLine
 62
7
  6
CONTINUOUS
 10
143.835106343
 20
117.63125
 11
143.6436170042
 21
117.63125
  0
LINE
  5
2E5
100
AcDbEntity
  8
ASSI
100
AcDbLine
 62
250
  6
CONTINUOUS
 10
132.2285714286
 20
104.0
 11
108.05
 21
105.0
  0
LINE
  5
2E6
100
AcDbEntity
  8
0
100
AcDbLine
 62
250
  6
CONTINUOUS
 10
-51.8760169992
 20
133.7093012686
 11
-33.1949803022
 21
126.5665519433
  0
LINE
  5
2E7
100
AcDbEntity
  8
ASSI
100
AcDbLine
 62
7
  6
CONTINUOUS
 10
127.3928571429
 20
116.8
 11
127.3928571429
 21
117.0
  0
LINE
  5
2E8
100
AcDbEntity
  8
ASSI
100
AcDbLine
 62
250
  6
CONTINUOUS
 10
132.3531859255
 20
104.0
 11
132.3531859255
 21
97.1100564904
  0
LINE
  5
2E9
100
AcDbEntity
  8
ASSI
100
AcDbLine
 62
7
  6
CONTINUOUS
 10
132.75
 20
96.9695330392
 11
132.75
 21
89.609700868
  0
LINE
  5
2EA
100
AcDbEntity
  8
ASSI
100
AcDbLine
 62
7
  6
CONTINUOUS
 10
132.75
 20
104.0
 11
132.75
 21
131.390299132
  0
LINE
  5
2EB
100
AcDbEntity
  8
ASSI
100
AcDbLine
 62
250
  6
CONTINUOUS
 10
133.1620757021
 20
104.0
 11
133.1620757021
 21
97.0
  0
LINE
  5
2EC
100
AcDbEntity
  8
ASSI
100
AcDbLine
 62
7
  6
CONTINUOUS
 10
134.589734
 20
111.166887
 11
134.589734
 21
109.827009
  0
LINE
  5
2ED
100
AcDbEntity
  8
ASSI
100
AcDbLine
 62
7
  6
CONTINUOUS
 10
135.061955
 20
109.827009
 11
135.061955
 21
110.245335
  0
LINE
  5
2EE
100
AcDbEntity
  8
ASSI
100
AcDbLine
 62
7
  6
CONTINUOUS
 10
135.061955
 20
110.748398
 11
135.061955
 21
111.166887
  0
LINE
  5
2EF
100
AcDbEntity
  8
ASSI
100
AcDbLine
 62
7
  6
CONTINUOUS
 10
142.8138297852
 20
105.8750004292
 11
142.75
 21
105.5375004292
  0
LINE
  5
2F0
100
AcDbEntity
  8
ASSI
100
AcDbLine
 62
7
  6
CONTINUOUS
 10
145.6861702204
 20
109.9812502146
 11
145.75
 21
110.3187502146
  0
LINE
  5
2F1
100
AcDbEntity
  8
ASSI
100
AcDbLine
 62
7
  6
CONTINUOUS
 10
145.6861702204
 20
105.2000004292
 11
145.75
 21
105.5375004292
  0
LINE
  5
2F2
100
AcDbEntity
  8
ASSI
100
AcDbLine
 62
7
  6
CONTINUOUS
 10
147.2138297852
 20
110.125
 11
147.15
 21
109.7875
  0
LINE
  5
2F3
100
AcDbEntity
  8
ASSI
100
AcDbLine
 62
7
  6
CONTINUOUS
 10
150.0861702204
 20
109.45
 11
150.15
 21
109.7875
  0
LINE
  5
2F4
100
AcDbEntity
  8
ASSI
100
AcDbLine
 62
7
  6
CONTINUOUS
 10
147.4691489428
 20
109.7875
 11
147.5329787225
 21
110.0687498927
  0
LINE
  5
2F5
100
AcDbEntity
  8
ASSI
100
AcDbLine
 62
7
  6
CONTINUOUS
 10
149.8308511019
 20
109.7875
 11
149.7670213223
 21
109.5062501073
  0
LINE
  5
2F6
100
AcDbEntity
  8
ASSI
100
AcDbLine
 62
7
  6
CONTINUOUS
 10
143.6436170042
 20
119.0374999464
 11
143.835106343
 21
119.0374999464
  0
LINE
  5
2F7
100
AcDbEntity
  8
ASSI
100
AcDbLine
 62
7
  6
CONTINUOUS
 10
144.3457446694
 20
119.0937500536
 11
144.4734042287
 21
119.0937500536
  0
LINE
  5
2F8
100
AcDbEntity
  8
ASSI
100
AcDbLine
 62
7
  6
CONTINUOUS
 10
144.4734042287
 20
119.3750000268
 11
144.0265957713
 21
119.3750000268
  0
LINE
  5
2F9
100
AcDbEntity
  8
ASSI
100
AcDbLine
 62
7
  6
CONTINUOUS
 10
142.75
 20
119.825
 11
145.75
 21
119.825
  0
LINE
  5
2FA
100
AcDbEntity
  8
ASSI
100
AcDbLine
 62
7
  6
CONTINUOUS
 10
145.239361763
 20
120.1625
 11
142.75
 21
120.1625
  0
LINE
  5
2FB
100
AcDbEntity
  8
ASSI
100
AcDbLine
 62
7
  6
CONTINUOUS
 10
145.3031915426
 20
120.5
 11
144.7925531268
 21
120.5
  0
LINE
  5
2FC
100
AcDbEntity
  8
ASSI
100
AcDbLine
 62
7
  6
CONTINUOUS
 10
160.75
 20
121.0
 11
167.55
 21
121.0
  0
LINE
  5
2FD
100
AcDbEntity
  8
ASSI
100
AcDbLine
 62
7
  6
CONTINUOUS
 10
150.75
 20
121.1
 11
160.75
 21
121.1
  0
LINE
  5
2FE
100
AcDbEntity
  8
ASSI
100
AcDbLine
 62
7
  6
CONTINUOUS
 10
132.75
 20
124.0
 11
150.75
 21
124.0
  0
LINE
  5
2FF
100
AcDbEntity
  8
ASSI
100
AcDbLine
 62
7
  6
CONTINUOUS
 10
150.75
 20
125.9
 11
160.75
 21
125.9
  0
LINE
  5
300
100
AcDbEntity
  8
ASSI
100
AcDbLine
 62
7
  6
CONTINUOUS
 10
160.75
 20
126.0
 11
167.55
 21
126.0
  0
LINE
  5
301
100
AcDbEntity
  8
ASSI
100
AcDbLine
 62
7
  6
CONTINUOUS
 10
133.5538475773
 20
131.5
 11
150.75
 21
131.5
  0
LINE
  5
302
100
AcDbEntity
  8
ASSI
100
AcDbLine
 62
7
  6
CONTINUOUS
 10
144.0265957713
 20
104.80625
 11
143.6436170042
 21
104.8625004292
  0
LINE
  5
303
100
AcDbEntity
  8
ASSI
100
AcDbLine
 62
7
  6
CONTINUOUS
 10
144.4734042287
 20
106.2687495708
 11
144.8563829064
 21
106.2125004292
  0
LINE
  5
304
100
AcDbEntity
  8
ASSI
100
AcDbLine
 62
7
  6
CONTINUOUS
 10
148.4265957713
 20
109.0562498927
 11
148.0436170042
 21
109.1125
  0
LINE
  5
305
100
AcDbEntity
  8
ASSI
100
AcDbLine
 62
7
  6
CONTINUOUS
 10
148.8734042287
 20
110.5187501073
 11
149.2563829064
 21
110.4625
  0
LINE
  5
306
100
AcDbEntity
  8
ASSI
100
AcDbLine
 62
7
  6
CONTINUOUS
 10
143.6436170042
 20
104.5812495708
 11
143.9627659917
 21
104.5250004292
  0
LINE
  5
307
100
AcDbEntity
  8
ASSI
100
AcDbLine
 62
7
  6
CONTINUOUS
 10
144.8563829064
 20
106.49375
 11
144.5372340083
 21
106.5500004292
  0
LINE
  5
308
100
AcDbEntity
  8
ASSI
100
AcDbLine
 62
7
  6
CONTINUOUS
 10
148.0436170042
 20
108.8312501073
 11
148.3627659917
 21
108.775
  0
LINE
  5
309
100
AcDbEntity
  8
ASSI
100
AcDbLine
 62
7
  6
CONTINUOUS
 10
149.2563829064
 20
110.7437498927
 11
148.9372340083
 21
110.8
  0
LINE
  5
30A
100
AcDbEntity
  8
ASSI
100
AcDbLine
 62
7
  6
CONTINUOUS
 10
107.75
 20
103.9337567297
 11
132.3531859255
 21
97.1100564904
  0
LINE
  5
30B
100
AcDbEntity
  8
ASSI
100
AcDbLine
 62
7
  6
CONTINUOUS
 10
138.416846
 20
111.151466
 11
138.416846
 21
110.748398
  0
LINE
  5
30C
100
AcDbEntity
  8
ASSI
100
AcDbLine
 62
7
  6
CONTINUOUS
 10
138.416846
 20
110.245335
 11
138.416846
 21
109.84243
  0
LINE
  5
30D
100
AcDbEntity
  8
ASSI
100
AcDbLine
 62
7
  6
CONTINUOUS
 10
138.891663
 20
109.84243
 11
138.891663
 21
111.151466
  0
LINE
  5
30E
100
AcDbEntity
  8
ASSI
100
AcDbLine
 62
7
  6
CONTINUOUS
 10
142.75
 20
120.1625
 11
142.75
 21
119.825
  0
LINE
  5
30F
100
AcDbEntity
  8
ASSI
100
AcDbLine
 62
7
  6
CONTINUOUS
 10
142.75
 20
118.475
 11
142.75
 21
118.1937499464
  0
LINE
  5
310
100
AcDbEntity
  8
ASSI
100
AcDbLine
 62
7
  6
CONTINUOUS
 10
142.75
 20
116.8999998927
 11
142.75
 21
116.5624998927
  0
LINE
  5
311
100
AcDbEntity
  8
ASSI
100
AcDbLine
 62
7
  6
CONTINUOUS
 10
142.75
 20
114.9874997854
 11
142.75
 21
114.6499997854
  0
LINE
  5
312
100
AcDbEntity
  8
ASSI
100
AcDbLine
 62
7
  6
CONTINUOUS
 10
142.75
 20
111.5000002146
 11
142.75
 21
109.4749995708
  0
LINE
  5
313
100
AcDbEntity
  8
ASSI
100
AcDbLine
 62
7
  6
CONTINUOUS
 10
142.75
 20
108.18125
 11
142.75
 21
107.84375
  0
LINE
  5
314
100
AcDbEntity
  8
ASSI
100
AcDbLine
 62
7
  6
CONTINUOUS
 10
142.75
 20
103.1750004292
 11
142.75
 21
102.7249995708
  0
LINE
  5
315
100
AcDbEntity
  8
ASSI
100
AcDbLine
 62
7
  6
CONTINUOUS
 10
143.0691489428
 20
107.84375
 11
143.0691489428
 21
108.18125
  0
LINE
  5
316
100
AcDbEntity
  8
ASSI
100
AcDbLine
 62
7
  6
CONTINUOUS
 10
143.0691489428
 20
109.4749995708
 11
143.0691489428
 21
111.05
  0
LINE
  5
317
100
AcDbEntity
  8
ASSI
100
AcDbLine
 62
7
  6
CONTINUOUS
 10
143.0691489428
 20
118.1375
 11
143.0691489428
 21
118.5312499464
  0
LINE
  5
318
100
AcDbEntity
  8
ASSI
100
AcDbLine
 62
7
  6
CONTINUOUS
 10
143.5159574449
 20
116.3375001073
 11
143.5159574449
 21
115.2124998927
  0
LINE
  5
319
100
AcDbEntity
  8
ASSI
100
AcDbLine
 62
7
  6
CONTINUOUS
 10
143.5159574449
 20
108.6875
 11
143.5159574449
 21
109.025
  0
LINE
  5
31A
100
AcDbEntity
  8
ASSI
100
AcDbLine
 62
7
  6
CONTINUOUS
 10
143.7712765634
 20
115.26875
 11
143.7712765634
 21
116.28125
  0
LINE
  5
31B
100
AcDbEntity
  8
ASSI
100
AcDbLine
 62
7
  6
CONTINUOUS
 10
144.0904255509
 20
109.025
 11
144.0904255509
 21
108.6312495708
  0
LINE
  5
31C
100
AcDbEntity
  8
ASSI
100
AcDbLine
 62
7
  6
CONTINUOUS
 10
144.3457446694
 20
118.5312499464
 11
144.3457446694
 21
118.1375
  0
LINE
  5
31D
100
AcDbEntity
  8
ASSI
100
AcDbLine
 62
7
  6
CONTINUOUS
 10
144.3457446694
 20
108.18125
 11
144.3457446694
 21
107.84375
  0
LINE
  5
31E
100
AcDbEntity
  8
ASSI
100
AcDbLine
 62
7
  6
CONTINUOUS
 10
144.6648935676
 20
107.84375
 11
144.6648935676
 21
108.18125
  0
LINE
  5
31F
100
AcDbEntity
  8
ASSI
100
AcDbLine
 62
7
  6
CONTINUOUS
 10
144.6648935676
 20
118.1937499464
 11
144.6648935676
 21
118.475
  0
LINE
  5
320
100
AcDbEntity
  8
ASSI
100
AcDbLine
 62
7
  6
CONTINUOUS
 10
145.0478724241
 20
117.7437498927
 11
145.0478724241
 21
117.4625
  0
LINE
  5
321
100
AcDbEntity
  8
ASSI
100
AcDbLine
 62
7
  6
CONTINUOUS
 10
145.0478724241
 20
111.4437497854
 11
145.0478724241
 21
111.1625002146
  0
LINE
  5
322
100
AcDbEntity
  8
ASSI
100
AcDbLine
 62
7
  6
CONTINUOUS
 10
145.4308511019
 20
118.5312499464
 11
145.4308511019
 21
118.1937499464
  0
LINE
  5
323
100
AcDbEntity
  8
ASSI
100
AcDbLine
 62
7
  6
CONTINUOUS
 10
145.4308511019
 20
110.5999997854
 11
145.4308511019
 21
110.375
  0
LINE
  5
324
100
AcDbEntity
  8
ASSI
100
AcDbLine
 62
7
  6
CONTINUOUS
 10
145.4308511019
 20
108.7437504292
 11
145.4308511019
 21
107.1124995708
  0
LINE
  5
325
100
AcDbEntity
  8
ASSI
100
AcDbLine
 62
7
  6
CONTINUOUS
 10
145.75
 20
101.8250004292
 11
145.75
 21
102.1625004292
  0
LINE
  5
326
100
AcDbEntity
  8
ASSI
100
AcDbLine
 62
7
  6
CONTINUOUS
 10
145.75
 20
103.7374995708
 11
145.75
 21
104.0749995708
  0
LINE
  5
327
100
AcDbEntity
  8
ASSI
100
AcDbLine
 62
7
  6
CONTINUOUS
 10
145.75
 20
107.1124995708
 11
145.75
 21
109.025
  0
LINE
  5
328
100
AcDbEntity
  8
ASSI
100
AcDbLine
 62
7
  6
CONTINUOUS
 10
145.75
 20
110.3187502146
 11
145.75
 21
110.54375
  0
LINE
  5
329
100
AcDbEntity
  8
ASSI
100
AcDbLine
 62
7
  6
CONTINUOUS
 10
145.75
 20
115.5499998927
 11
145.75
 21
116.0000001073
  0
LINE
  5
32A
100
AcDbEntity
  8
ASSI
100
AcDbLine
 62
7
  6
CONTINUOUS
 10
145.75
 20
118.2500000536
 11
145.75
 21
118.475
  0
LINE
  5
32B
100
AcDbEntity
  8
ASSI
100
AcDbLine
 62
7
  6
CONTINUOUS
 10
145.75
 20
119.825
 11
145.75
 21
120.1625
  0
LINE
  5
32C
100
AcDbEntity
  8
ASSI
100
AcDbLine
 62
7
  6
CONTINUOUS
 10
147.15
 20
112.5999999732
 11
147.15
 21
112.15
  0
LINE
  5
32D
100
AcDbEntity
  8
ASSI
100
AcDbLine
 62
7
  6
CONTINUOUS
 10
147.15
 20
107.9874997854
 11
147.15
 21
107.6499997854
  0
LINE
  5
32E
100
AcDbEntity
  8
ASSI
100
AcDbLine
 62
7
  6
CONTINUOUS
 10
150.15
 20
107.6499997854
 11
150.15
 21
107.9874997854
  0
LINE
  5
32F
100
AcDbEntity
  8
ASSI
100
AcDbLine
 62
7
  6
CONTINUOUS
 10
150.15
 20
111.2500000536
 11
150.15
 21
111.5875000536
  0
LINE
  5
330
100
AcDbEntity
  8
ASSI
100
AcDbLine
 62
7
  6
CONTINUOUS
 10
150.15
 20
113.1625
 11
150.15
 21
113.5
  0
LINE
  5
331
100
AcDbEntity
  8
ASSI
100
AcDbLine
 62
7
  6
CONTINUOUS
 10
150.75
 20
89.5
 11
150.75
 21
131.5
  0
LINE
  5
332
100
AcDbEntity
  8
ASSI
100
AcDbLine
 62
7
  6
CONTINUOUS
 10
144.9202126861
 20
119.31875
 11
144.4734042287
 21
119.3750000268
  0
LINE
  5
333
100
AcDbEntity
  8
ASSI
100
AcDbLine
 62
7
  6
CONTINUOUS
 10
144.4734042287
 20
119.0937500536
 11
144.8563829064
 21
119.0374999464
  0
LINE
  5
334
100
AcDbEntity
  8
ASSI
100
AcDbLine
 62
7
  6
CONTINUOUS
 10
144.6648935676
 20
109.53125
 11
144.9202126861
 21
109.4749995708
  0
LINE
  5
335
100
AcDbEntity
  8
ASSI
100
AcDbLine
 62
7
  6
CONTINUOUS
 10
145.3031915426
 20
111.3875
 11
145.0478724241
 21
111.4437497854
  0
LINE
  5
336
100
AcDbEntity
  8
ASSI
100
AcDbLine
 62
7
  6
CONTINUOUS
 10
143.4521276653
 20
104.6375
 11
143.6436170042
 21
104.5812495708
  0
LINE
  5
337
100
AcDbEntity
  8
ASSI
100
AcDbLine
 62
7
  6
CONTINUOUS
 10
145.0478724241
 20
106.4374995708
 11
144.8563829064
 21
106.49375
  0
LINE
  5
338
100
AcDbEntity
  8
ASSI
100
AcDbLine
 62
7
  6
CONTINUOUS
 10
143.6436170042
 20
107.2812495708
 11
143.4521276653
 21
107.3375
  0
LINE
  5
339
100
AcDbEntity
  8
ASSI
100
AcDbLine
 62
7
  6
CONTINUOUS
 10
147.8521276653
 20
108.8874998927
 11
148.0436170042
 21
108.8312501073
  0
LINE
  5
33A
100
AcDbEntity
  8
ASSI
100
AcDbLine
 62
7
  6
CONTINUOUS
 10
149.4478724241
 20
110.6875001073
 11
149.2563829064
 21
110.7437498927
  0
LINE
  5
33B
100
AcDbEntity
  8
ASSI
100
AcDbLine
 62
7
  6
CONTINUOUS
 10
142.75
 20
102.7249995708
 11
145.75
 21
101.8250004292
  0
LINE
  5
33C
100
AcDbEntity
  8
ASSI
100
AcDbLine
 62
7
  6
CONTINUOUS
 10
147.15
 20
112.15
 11
150.15
 21
111.2500000536
  0
LINE
  5
33D
100
AcDbEntity
  8
ASSI
100
AcDbLine
 62
7
  6
CONTINUOUS
 10
145.75
 20
102.1625004292
 11
143.1329787225
 21
102.95
  0
LINE
  5
33E
100
AcDbEntity
  8
ASSI
100
AcDbLine
 62
7
  6
CONTINUOUS
 10
150.15
 20
111.5875000536
 11
147.5329787225
 21
112.3750000268
  0
LINE
  5
33F
100
AcDbEntity
  8
ASSI
100
AcDbLine
 62
7
  6
CONTINUOUS
 10
143.2606382817
 20
107.1124995708
 11
143.5797872245
 21
107.0
  0
LINE
  5
340
100
AcDbEntity
  8
ASSI
100
AcDbLine
 62
7
  6
CONTINUOUS
 10
107.6352632903
 20
104.0
 11
132.0538475773
 21
89.9019237886
  0
LINE
  5
341
100
AcDbEntity
  8
ASSI
100
AcDbLine
 62
7
  6
CONTINUOUS
 10
160.75
 20
126.0
 11
160.75
 21
121.0
  0
LINE
  5
342
100
AcDbEntity
  8
ASSI
100
AcDbLine
 62
7
  6
CONTINUOUS
 10
160.75
 20
100.0
 11
160.75
 21
95.0
  0
LINE
  5
343
100
AcDbEntity
  8
ASSI
100
AcDbLine
 62
250
  6
CONTINUOUS
 10
167.55
 20
126.0
 11
167.55
 21
121.0
  0
LINE
  5
344
100
AcDbEntity
  8
ASSI
100
AcDbLine
 62
250
  6
CONTINUOUS
 10
167.55
 20
100.0
 11
167.55
 21
95.0
  0
LINE
  5
345
100
AcDbEntity
  8
ASSI
100
AcDbLine
 62
250
  6
CONTINUOUS
 10
168.05
 20
113.0
 11
168.05
 21
108.0
  0
LINE
  5
346
100
AcDbEntity
  8
0
100
AcDbLine
 62
250
  6
CONTINUOUS
 10
84.2302235611
 20
-135.1763153811
 11
68.7272868509
 21
-147.8119377781
  0
LINE
  5
347
100
AcDbEntity
  8
ASSI
100
AcDbLine
 62
7
  6
CONTINUOUS
 10
142.75
 20
116.5624998927
 11
143.5159574449
 21
116.3375001073
  0
LINE
  5
348
100
AcDbEntity
  8
ASSI
100
AcDbLine
 62
7
  6
CONTINUOUS
 10
143.7712765634
 20
116.28125
 11
145.4946808815
 21
115.775
  0
LINE
  5
349
100
AcDbEntity
  8
ASSI
100
AcDbLine
 62
7
  6
CONTINUOUS
 10
143.6436170042
 20
117.63125
 11
143.4521276653
 21
117.6875001073
  0
LINE
  5
34A
100
AcDbEntity
  8
ASSI
100
AcDbLine
 62
7
  6
CONTINUOUS
 10
143.835106343
 20
119.0374999464
 11
144.0265957713
 21
118.98125
  0
LINE
  5
34B
100
AcDbEntity
  8
ASSI
100
AcDbLine
 62
7
  6
CONTINUOUS
 10
144.8563829064
 20
119.0374999464
 11
145.0478724241
 21
118.98125
  0
LINE
  5
34C
100
AcDbEntity
  8
ASSI
100
AcDbLine
 62
7
  6
CONTINUOUS
 10
145.75
 20
116.0000001073
 11
142.75
 21
116.8999998927
  0
LINE
  5
34D
100
AcDbEntity
  8
ASSI
100
AcDbLine
 62
7
  6
CONTINUOUS
 10
143.2606382817
 20
117.4625
 11
143.5797872245
 21
117.3500001073
  0
LINE
  5
34E
100
AcDbEntity
  8
ASSI
100
AcDbLine
 62
7
  6
CONTINUOUS
 10
145.239361763
 20
119.2062500268
 11
144.9202126861
 21
119.31875
  0
LINE
  5
34F
100
AcDbEntity
  8
ASSI
100
AcDbLine
 62
7
  6
CONTINUOUS
 10
143.1968085021
 20
104.7499995708
 11
143.4521276653
 21
104.6375
  0
LINE
  5
350
100
AcDbEntity
  8
ASSI
100
AcDbLine
 62
7
  6
CONTINUOUS
 10
145.3031915426
 20
106.325
 11
145.0478724241
 21
106.4374995708
  0
LINE
  5
351
100
AcDbEntity
  8
ASSI
100
AcDbLine
 62
7
  6
CONTINUOUS
 10
144.9202126861
 20
109.8125002146
 11
144.6648935676
 21
109.9249997854
  0
LINE
  5
352
100
AcDbEntity
  8
ASSI
100
AcDbLine
 62
7
  6
CONTINUOUS
 10
147.5968085021
 20
109.0000001073
 11
147.8521276653
 21
108.8874998927
  0
LINE
  5
353
100
AcDbEntity
  8
ASSI
100
AcDbLine
 62
7
  6
CONTINUOUS
 10
149.7031915426
 20
110.5749998927
 11
149.4478724241
 21
110.6875001073
  0
LINE
  5
354
100
AcDbEntity
  8
ASSI
100
AcDbLine
 62
7
  6
CONTINUOUS
 10
134.8020941296
 20
111.5932989273
 11
135.1893754046
 21
111.3759297729
  0
LINE
  5
355
100
AcDbEntity
  8
ASSI
100
AcDbLine
 62
7
  6
CONTINUOUS
 10
143.6436170042
 20
104.8625004292
 11
143.2606382817
 21
105.0874995708
  0
LINE
  5
356
100
AcDbEntity
  8
ASSI
100
AcDbLine
 62
7
  6
CONTINUOUS
 10
144.8563829064
 20
106.2125004292
 11
145.239361763
 21
105.9875
  0
LINE
  5
357
100
AcDbEntity
  8
ASSI
100
AcDbLine
 62
7
  6
CONTINUOUS
 10
143.4521276653
 20
107.3375
 11
143.2606382817
 21
107.4499995708
  0
LINE
  5
358
100
AcDbEntity
  8
ASSI
100
AcDbLine
 62
7
  6
CONTINUOUS
 10
144.4734042287
 20
109.6437495708
 11
144.6648935676
 21
109.53125
  0
LINE
  5
359
100
AcDbEntity
  8
ASSI
100
AcDbLine
 62
7
  6
CONTINUOUS
 10
143.0053191409
 20
107.2812495708
 11
143.2606382817
 21
107.1124995708
  0
LINE
  5
35A
100
AcDbEntity
  8
ASSI
100
AcDbLine
 62
7
  6
CONTINUOUS
 10
133.090447
 20
108.789877
 11
133.439783
 21
108.543459
  0
LINE
  5
35B
100
AcDbEntity
  8
ASSI
100
AcDbLine
 62
7
  6
CONTINUOUS
 10
143.1329787225
 20
107.6187495708
 11
143.0691489428
 21
107.84375
  0
LINE
  5
35C
100
AcDbEntity
  8
ASSI
100
AcDbLine
 62
7
  6
CONTINUOUS
 10
144.2819148898
 20
108.4062504292
 11
144.3457446694
 21
108.18125
  0
LINE
  5
35D
100
AcDbEntity
  8
ASSI
100
AcDbLine
 62
7
  6
CONTINUOUS
 10
143.1329787225
 20
105.2562495708
 11
143.0691489428
 21
105.5375004292
  0
LINE
  5
35E
100
AcDbEntity
  8
ASSI
100
AcDbLine
 62
7
  6
CONTINUOUS
 10
142.75
 20
107.84375
 11
142.8138297852
 21
107.5625004292
  0
LINE
  5
35F
100
AcDbEntity
  8
ASSI
100
AcDbLine
 62
7
  6
CONTINUOUS
 10
144.6648935676
 20
108.18125
 11
144.6010637879
 21
108.4624995708
  0
LINE
  5
360
100
AcDbEntity
  8
ASSI
100
AcDbLine
 62
7
  6
CONTINUOUS
 10
145.3670213223
 20
105.81875
 11
145.4308511019
 21
105.5375004292
  0
LINE
  5
361
100
AcDbEntity
  8
ASSI
100
AcDbLine
 62
7
  6
CONTINUOUS
 10
142.75
 20
118.1937499464
 11
142.8138297852
 21
117.9125000536
  0
LINE
  5
362
100
AcDbEntity
  8
ASSI
100
AcDbLine
 62
7
  6
CONTINUOUS
 10
145.3670213223
 20
110.88125
 11
145.4308511019
 21
110.5999997854
  0
LINE
  5
363
100
AcDbEntity
  8
ASSI
100
AcDbLine
 62
7
  6
CONTINUOUS
 10
144.6648935676
 20
118.475
 11
144.6010637879
 21
118.7562500536
  0
LINE
  5
364
100
AcDbEntity
  8
ASSI
100
AcDbLine
 62
7
  6
CONTINUOUS
 10
147.5329787225
 20
109.5062501073
 11
147.4691489428
 21
109.7875
  0
LINE
  5
365
100
AcDbEntity
  8
ASSI
100
AcDbLine
 62
7
  6
CONTINUOUS
 10
145.75
 20
118.475
 11
145.6861702204
 21
118.7562500536
  0
LINE
  5
366
100
AcDbEntity
  8
ASSI
100
AcDbLine
 62
7
  6
CONTINUOUS
 10
142.75
 20
105.5375004292
 11
142.8138297852
 21
105.2000004292
  0
LINE
  5
367
100
AcDbEntity
  8
ASSI
100
AcDbLine
 62
7
  6
CONTINUOUS
 10
145.75
 20
105.5375004292
 11
145.6861702204
 21
105.8750004292
  0
LINE
  5
368
100
AcDbEntity
  8
ASSI
100
AcDbLine
 62
7
  6
CONTINUOUS
 10
147.15
 20
109.7875
 11
147.2138297852
 21
109.45
  0
LINE
  5
369
100
AcDbEntity
  8
ASSI
100
AcDbLine
 62
7
  6
CONTINUOUS
 10
150.15
 20
109.7875
 11
150.0861702204
 21
110.125
  0
LINE
  5
36A
100
AcDbEntity
  8
ASSI
100
AcDbLine
 62
7
  6
CONTINUOUS
 10
145.75
 20
110.54375
 11
145.6861702204
 21
110.9374997854
  0
LINE
  5
36B
100
AcDbEntity
  8
ASSI
100
AcDbLine
 62
7
  6
CONTINUOUS
 10
169.75
 20
123.8
 11
169.75
 21
123.2
  0
LINE
  5
36C
100
AcDbEntity
  8
ASSI
100
AcDbLine
 62
7
  6
CONTINUOUS
 10
169.75
 20
97.8
 11
169.75
 21
97.2
  0
LINE
  5
36D
100
AcDbEntity
  8
ASSI
100
AcDbLine
 62
7
  6
CONTINUOUS
 10
170.25
 20
110.8
 11
170.25
 21
110.2
  0
LINE
  5
36E
100
AcDbEntity
  8
ASSI
100
AcDbLine
 62
7
  6
CONTINUOUS
 10
148.0436170042
 20
109.1125
 11
147.6606382817
 21
109.3375001073
  0
LINE
  5
36F
100
AcDbEntity
  8
ASSI
100
AcDbLine
 62
7
  6
CONTINUOUS
 10
145.0478724241
 20
111.1625002146
 11
145.239361763
 21
111.05
  0
LINE
  5
370
100
AcDbEntity
  8
ASSI
100
AcDbLine
 62
7
  6
CONTINUOUS
 10
149.2563829064
 20
110.4625
 11
149.639361763
 21
110.2374998927
  0
LINE
  5
371
100
AcDbEntity
  8
ASSI
100
AcDbLine
 62
7
  6
CONTINUOUS
 10
143.4521276653
 20
117.6875001073
 11
143.2606382817
 21
117.8
  0
LINE
  5
372
100
AcDbEntity
  8
ASSI
100
AcDbLine
 62
7
  6
CONTINUOUS
 10
145.0478724241
 20
118.98125
 11
145.239361763
 21
118.8687499464
  0
LINE
  5
373
100
AcDbEntity
  8
ASSI
100
AcDbLine
 62
7
  6
CONTINUOUS
 10
143.0053191409
 20
117.63125
 11
143.2606382817
 21
117.4625
  0
LINE
  5
374
100
AcDbEntity
  8
ASSI
100
AcDbLine
 62
7
  6
CONTINUOUS
 10
145.4946808815
 20
119.0374999464
 11
145.239361763
 21
119.2062500268
  0
LINE
  5
375
100
AcDbEntity
  8
ASSI
100
AcDbLine
 62
7
  6
CONTINUOUS
 10
149.1925531268
 20
108.3250001073
 11
149.639361763
 21
107.9874997854
  0
LINE
  5
376
100
AcDbEntity
  8
ASSI
100
AcDbLine
 62
7
  6
CONTINUOUS
 10
150.15
 20
107.9874997854
 11
149.7031915426
 21
108.3250001073
  0
LINE
  5
377
100
AcDbEntity
  8
ASSI
100
AcDbLine
 62
7
  6
CONTINUOUS
 10
144.7925531268
 20
120.5
 11
145.239361763
 21
120.1625
  0
LINE
  5
378
100
AcDbEntity
  8
ASSI
100
AcDbLine
 62
7
  6
CONTINUOUS
 10
145.75
 20
120.1625
 11
145.3031915426
 21
120.5
  0
LINE
  5
379
100
AcDbEntity
  8
ASSI
100
AcDbLine
 62
7
  6
CONTINUOUS
 10
143.0053191409
 20
104.9187495708
 11
143.1968085021
 21
104.7499995708
  0
LINE
  5
37A
100
AcDbEntity
  8
ASSI
100
AcDbLine
 62
7
  6
CONTINUOUS
 10
145.4946808815
 20
106.15625
 11
145.3031915426
 21
106.325
  0
LINE
  5
37B
100
AcDbEntity
  8
ASSI
100
AcDbLine
 62
7
  6
CONTINUOUS
 10
147.4053191409
 20
109.1687501073
 11
147.5968085021
 21
109.0000001073
  0
LINE
  5
37C
100
AcDbEntity
  8
ASSI
100
AcDbLine
 62
7
  6
CONTINUOUS
 10
145.5585106611
 20
111.1625002146
 11
145.3031915426
 21
111.3875
  0
LINE
  5
37D
100
AcDbEntity
  8
ASSI
100
AcDbLine
 62
7
  6
CONTINUOUS
 10
149.8946808815
 20
110.4062498927
 11
149.7031915426
 21
110.5749998927
  0
LINE
  5
37E
100
AcDbEntity
  8
ASSI
100
AcDbLine
 62
7
  6
CONTINUOUS
 10
144.0265957713
 20
118.98125
 11
144.1542553306
 21
118.8687499464
  0
LINE
  5
37F
100
AcDbEntity
  8
ASSI
100
AcDbLine
 62
7
  6
CONTINUOUS
 10
144.6648935676
 20
109.9249997854
 11
143.0691489428
 21
111.5000002146
  0
LINE
  5
380
100
AcDbEntity
  8
ASSI
100
AcDbLine
 62
7
  6
CONTINUOUS
 10
143.0691489428
 20
111.05
 11
144.4734042287
 21
109.6437495708
  0
LINE
  5
381
100
AcDbEntity
  8
ASSI
100
AcDbLine
 62
7
  6
CONTINUOUS
 10
144.0904255509
 20
108.6312495708
 11
144.2819148898
 21
108.4062504292
  0
LINE
  5
382
100
AcDbEntity
  8
ASSI
100
AcDbLine
 62
7
  6
CONTINUOUS
 10
136.632916
 20
110.245335
 11
137.697655306
 21
108.9818586369
  0
LINE
  5
383
100
AcDbEntity
  8
ASSI
100
AcDbLine
 62
7
  6
CONTINUOUS
 10
138.3293829944
 20
108.9203830067
 11
137.212838
 21
110.245335
  0
LINE
  5
384
100
AcDbEntity
  8
ASSI
100
AcDbLine
 62
7
  6
CONTINUOUS
 10
144.1542553306
 20
101.3187504292
 11
144.2819148898
 21
101.1500004292
  0
LINE
  5
385
100
AcDbEntity
  8
ASSI
100
AcDbLine
 62
7
  6
CONTINUOUS
 10
143.2606382817
 20
105.0874995708
 11
143.1329787225
 21
105.2562495708
  0
LINE
  5
386
100
AcDbEntity
  8
ASSI
100
AcDbLine
 62
7
  6
CONTINUOUS
 10
143.2606382817
 20
107.4499995708
 11
143.1329787225
 21
107.6187495708
  0
LINE
  5
387
100
AcDbEntity
  8
ASSI
100
AcDbLine
 62
7
  6
CONTINUOUS
 10
145.239361763
 20
105.9875
 11
145.3670213223
 21
105.81875
  0
LINE
  5
388
100
AcDbEntity
  8
ASSI
100
AcDbLine
 62
7
  6
CONTINUOUS
 10
145.239361763
 20
111.05
 11
145.3670213223
 21
110.88125
  0
LINE
  5
389
100
AcDbEntity
  8
ASSI
100
AcDbLine
 62
7
  6
CONTINUOUS
 10
147.6606382817
 20
109.3375001073
 11
147.5329787225
 21
109.5062501073
  0
LINE
  5
38A
100
AcDbEntity
  8
ASSI
100
AcDbLine
 62
7
  6
CONTINUOUS
 10
142.8138297852
 20
105.2000004292
 11
143.0053191409
 21
104.9187495708
  0
LINE
  5
38B
100
AcDbEntity
  8
ASSI
100
AcDbLine
 62
7
  6
CONTINUOUS
 10
142.8138297852
 20
107.5625004292
 11
143.0053191409
 21
107.2812495708
  0
LINE
  5
38C
100
AcDbEntity
  8
ASSI
100
AcDbLine
 62
7
  6
CONTINUOUS
 10
145.6861702204
 20
105.8750004292
 11
145.4946808815
 21
106.15625
  0
LINE
  5
38D
100
AcDbEntity
  8
ASSI
100
AcDbLine
 62
7
  6
CONTINUOUS
 10
144.6010637879
 20
108.4624995708
 11
144.4095744491
 21
108.7437504292
  0
LINE
  5
38E
100
AcDbEntity
  8
ASSI
100
AcDbLine
 62
7
  6
CONTINUOUS
 10
147.2138297852
 20
109.45
 11
147.4053191409
 21
109.1687501073
  0
LINE
  5
38F
100
AcDbEntity
  8
ASSI
100
AcDbLine
 62
7
  6
CONTINUOUS
 10
142.8138297852
 20
117.9125000536
 11
143.0053191409
 21
117.63125
  0
LINE
  5
390
100
AcDbEntity
  8
ASSI
100
AcDbLine
 62
7
  6
CONTINUOUS
 10
144.2819148898
 20
100.4750004292
 11
144.1542553306
 21
100.6999995708
  0
LINE
  5
391
100
AcDbEntity
  8
ASSI
100
AcDbLine
 62
7
  6
CONTINUOUS
 10
144.4095744491
 20
101.1500004292
 11
144.2819148898
 21
101.3749995708
  0
LINE
  5
392
100
AcDbEntity
  8
ASSI
100
AcDbLine
 62
7
  6
CONTINUOUS
 10
145.6861702204
 20
110.9374997854
 11
145.5585106611
 21
111.1625002146
  0
LINE
  5
393
100
AcDbEntity
  8
ASSI
100
AcDbLine
 62
7
  6
CONTINUOUS
 10
144.0265957713
 20
100.6999995708
 11
144.1542553306
 21
100.41875
  0
LINE
  5
394
100
AcDbEntity
  8
ASSI
100
AcDbLine
 62
7
  6
CONTINUOUS
 10
143.1329787225
 20
117.96875
 11
143.0691489428
 21
118.1375
  0
LINE
  5
395
100
AcDbEntity
  8
ASSI
100
AcDbLine
 62
7
  6
CONTINUOUS
 10
144.2819148898
 20
118.6999999464
 11
144.3457446694
 21
118.5312499464
  0
LINE
  5
396
100
AcDbEntity
  8
ASSI
100
AcDbLine
 62
7
  6
CONTINUOUS
 10
145.3670213223
 20
118.6999999464
 11
145.4308511019
 21
118.5312499464
  0
LINE
  5
397
100
AcDbEntity
  8
ASSI
100
AcDbLine
 62
7
  6
CONTINUOUS
 10
149.7670213223
 20
110.0687498927
 11
149.8308511019
 21
109.7875
  0
LINE
  5
398
100
AcDbEntity
  8
ASSI
100
AcDbLine
 62
7
  6
CONTINUOUS
 10
143.2606382817
 20
117.8
 11
143.1329787225
 21
117.96875
  0
LINE
  5
399
100
AcDbEntity
  8
ASSI
100
AcDbLine
 62
7
  6
CONTINUOUS
 10
149.639361763
 20
110.2374998927
 11
149.7670213223
 21
110.0687498927
  0
LINE
  5
39A
100
AcDbEntity
  8
ASSI
100
AcDbLine
 62
7
  6
CONTINUOUS
 10
144.1542553306
 20
118.8687499464
 11
144.2819148898
 21
118.6999999464
  0
LINE
  5
39B
100
AcDbEntity
  8
ASSI
100
AcDbLine
 62
7
  6
CONTINUOUS
 10
144.6010637879
 20
118.7562500536
 11
144.3457446694
 21
119.0937500536
  0
LINE
  5
39C
100
AcDbEntity
  8
ASSI
100
AcDbLine
 62
7
  6
CONTINUOUS
 10
145.239361763
 20
118.8687499464
 11
145.3670213223
 21
118.6999999464
  0
LINE
  5
39D
100
AcDbEntity
  8
ASSI
100
AcDbLine
 62
7
  6
CONTINUOUS
 10
150.0861702204
 20
110.125
 11
149.8946808815
 21
110.4062498927
  0
LINE
  5
39E
100
AcDbEntity
  8
ASSI
100
AcDbLine
 62
7
  6
CONTINUOUS
 10
145.6861702204
 20
118.7562500536
 11
145.4946808815
 21
119.0374999464
  0
ARC
  5
39F
100
AcDbEntity
  8
0
100
AcDbCircle
 62
7
  6
CONTINUOUS
 10
-158.25
 20
-172.5
 40
10.0
100
AcDbArc
 50
159.0754982551
 51
339.0754982551
  0
ARC
  5
3A0
100
AcDbEntity
  8
RACCORDO
100
AcDbCircle
 62
7
  6
CONTINUOUS
 10
-124.1874796417
 20
-33.0
 40
17.0
100
AcDbArc
 50
191.7757439859
 51
277.166736944
  0
ARC
  5
3A1
100
AcDbEntity
  8
RACCORDO
100
AcDbCircle
 62
250
  6
CONTINUOUS
 10
-124.1921730393
 20
-33.0013095628
 40
13.1605022377
100
AcDbArc
 50
191.7743326984
 51
286.560268841
  0
ARC
  5
3A2
100
AcDbEntity
  8
DRAFT
100
AcDbCircle
 62
7
  6
CONTINUOUS
 10
-124.1874843323
 20
-32.9999983042
 40
12.9999957542
100
AcDbArc
 50
191.7757555214
 51
287.081854237
  0
ARC
  5
3A3
100
AcDbEntity
  8
RACCORDO
100
AcDbCircle
 62
7
  6
CONTINUOUS
 10
-96.9395165896
 20
-60.476313154
 40
11.5
100
AcDbArc
 50
209.9305929664
 51
214.6511666165
  0
ARC
  5
3A4
100
AcDbEntity
  8
RACCORDO
100
AcDbCircle
 62
7
  6
CONTINUOUS
 10
-96.9395165896
 20
-60.476313154
 40
11.5
100
AcDbArc
 50
34.6511666165
 51
108.2216441347
  0
ARC
  5
3A5
100
AcDbEntity
  8
RACCORDO
100
AcDbCircle
 62
250
  6
CONTINUOUS
 10
-96.8808074457
 20
-60.4371695435
 40
10.700827531
100
AcDbArc
 50
206.0564667818
 51
214.6448479908
  0
ARC
  5
3A6
100
AcDbEntity
  8
RACCORDO
100
AcDbCircle
 62
250
  6
CONTINUOUS
 10
-96.9434414494
 20
-60.4785641736
 40
7.6700827501
100
AcDbArc
 50
34.648329234
 51
140.1838712684
  0
ARC
  5
3A7
100
AcDbEntity
  8
RACCORDO
100
AcDbCircle
 62
7
  6
CONTINUOUS
 10
-48.25
 20
-108.9374796417
 40
17.0
100
AcDbArc
 50
78.2242560141
 51
258.2242560141
  0
ARC
  5
3A8
100
AcDbEntity
  8
RACCORDO
100
AcDbCircle
 62
7
  6
CONTINUOUS
 10
-8.25
 20
-108.9374796417
 40
17.0
100
AcDbArc
 50
281.7757439859
 51
101.7757439859
  0
ARC
  5
3A9
100
AcDbEntity
  8
RACCORDO
100
AcDbCircle
 62
250
  6
CONTINUOUS
 10
-8.248187056
 20
-108.942497349
 40
13.1599845045
100
AcDbArc
 50
281.7724753411
 51
101.7790126459
  0
ARC
  5
3AA
100
AcDbEntity
  8
RACCORDO
100
AcDbCircle
 62
250
  6
CONTINUOUS
 10
-48.2518134737
 20
-108.9424969729
 40
13.1599843449
100
AcDbArc
 50
78.2209847624
 51
258.2275272504
  0
ARC
  5
3AB
100
AcDbEntity
  8
DRAFT
100
AcDbCircle
 62
7
  6
CONTINUOUS
 10
-48.249994049
 20
-108.9374808823
 40
13.0
100
AcDbArc
 50
78.2242828064
 51
258.2242292218
  0
ARC
  5
3AC
100
AcDbEntity
  8
DRAFT
100
AcDbCircle
 62
7
  6
CONTINUOUS
 10
-8.2499949241
 20
-108.9374785835
 40
13.0
100
AcDbArc
 50
281.7757211334
 51
101.7757668383
  0
ARC
  5
3AD
100
AcDbEntity
  8
RACCORDO
100
AcDbCircle
 62
7
  6
CONTINUOUS
 10
-75.726313154
 20
-81.6895165896
 40
11.5
100
AcDbArc
 50
235.3488333835
 51
55.3488333835
  0
ARC
  5
3AE
100
AcDbEntity
  8
RACCORDO
100
AcDbCircle
 62
7
  6
CONTINUOUS
 10
-28.25
 20
-13.0
 40
142.0
100
AcDbArc
 50
100.7034276348
 51
217.4476561668
  0
ARC
  5
3AF
100
AcDbEntity
  8
RACCORDO
100
AcDbCircle
 62
7
  6
CONTINUOUS
 10
-28.25
 20
-13.0
 40
142.0
100
AcDbArc
 50
226.5216637155
 51
305.1432789684
  0
ARC
  5
3B0
100
AcDbEntity
  8
RACCORDO
100
AcDbCircle
 62
7
  6
CONTINUOUS
 10
-28.25
 20
-13.0
 40
142.0
100
AcDbArc
 50
313.2200351092
 51
91.6293953825
  0
ARC
  5
3B1
100
AcDbEntity
  8
RACCORDO
100
AcDbCircle
 62
250
  6
CONTINUOUS
 10
-28.25
 20
-13.0
 40
141.0
100
AcDbArc
 50
100.9534500306
 51
217.1974021398
  0
ARC
  5
3B2
100
AcDbEntity
  8
RACCORDO
100
AcDbCircle
 62
250
  6
CONTINUOUS
 10
-28.25
 20
-13.0
 40
141.0
100
AcDbArc
 50
226.3531922255
 51
305.1146416114
  0
ARC
  5
3B3
100
AcDbEntity
  8
RACCORDO
100
AcDbCircle
 62
250
  6
CONTINUOUS
 10
-28.25
 20
-13.0
 40
141.0
100
AcDbArc
 50
313.248779111
 51
91.7978332226
  0
ARC
  5
3B4
100
AcDbEntity
  8
RACCORDO
100
AcDbCircle
 62
250
  6
CONTINUOUS
 10
-28.25
 20
-13.0
 40
137.4206294583
100
AcDbArc
 50
101.8864567847
 51
216.2643903599
  0
ARC
  5
3B5
100
AcDbEntity
  8
RACCORDO
100
AcDbCircle
 62
250
  6
CONTINUOUS
 10
-28.25
 20
-13.0
 40
137.4206294583
100
AcDbArc
 50
225.7262190201
 51
305.0085173715
  0
ARC
  5
3B6
100
AcDbEntity
  8
RACCORDO
100
AcDbCircle
 62
250
  6
CONTINUOUS
 10
-28.25
 20
-13.0
 40
137.4206294583
100
AcDbArc
 50
313.3548754007
 51
92.4248651409
  0
ARC
  5
3B7
100
AcDbEntity
  8
RACCORDO
100
AcDbCircle
 62
7
  6
CONTINUOUS
 10
-28.25
 20
-13.0
 40
136.5
100
AcDbArc
 50
102.13669138
 51
216.0142633694
  0
ARC
  5
3B8
100
AcDbEntity
  8
RACCORDO
100
AcDbCircle
 62
7
  6
CONTINUOUS
 10
-28.25
 20
-13.0
 40
136.5
100
AcDbArc
 50
225.5595874536
 51
304.9802645368
  0
ARC
  5
3B9
100
AcDbEntity
  8
RACCORDO
100
AcDbCircle
 62
7
  6
CONTINUOUS
 10
-28.25
 20
-13.0
 40
136.5
100
AcDbArc
 50
313.3830135163
 51
92.5914862424
  0
ARC
  5
3BA
100
AcDbEntity
  8
RACCORDO
100
AcDbCircle
 62
250
  6
CONTINUOUS
 10
-28.25
 20
-13.0
 40
118.9128442573
100
AcDbArc
 50
107.8460863209
 51
210.3037782076
  0
ARC
  5
3BB
100
AcDbEntity
  8
RACCORDO
100
AcDbCircle
 62
250
  6
CONTINUOUS
 10
-28.25
 20
-13.0
 40
118.9128442573
100
AcDbArc
 50
221.815757575
 51
304.3575048082
  0
ARC
  5
3BC
100
AcDbEntity
  8
RACCORDO
100
AcDbCircle
 62
250
  6
CONTINUOUS
 10
-28.25
 20
-13.0
 40
118.9128442573
100
AcDbArc
 50
314.0056853118
 51
96.3350134784
  0
ARC
  5
3BD
100
AcDbEntity
  8
RACCORDO
100
AcDbCircle
 62
7
  6
CONTINUOUS
 10
-28.25
 20
-13.0
 40
118.0
100
AcDbArc
 50
108.2034145131
 51
209.9478987065
  0
ARC
  5
3BE
100
AcDbEntity
  8
RACCORDO
100
AcDbCircle
 62
7
  6
CONTINUOUS
 10
-28.25
 20
-13.0
 40
118.0
100
AcDbArc
 50
221.5875323233
 51
304.320225431
  0
ARC
  5
3BF
100
AcDbEntity
  8
RACCORDO
100
AcDbCircle
 62
7
  6
CONTINUOUS
 10
-28.25
 20
-13.0
 40
118.0
100
AcDbArc
 50
314.0431870958
 51
96.5632907713
  0
ARC
  5
3C0
100
AcDbEntity
  8
RACCORDO
100
AcDbCircle
 62
7
  6
CONTINUOUS
 10
-28.25
 20
-13.0
 40
115.0
100
AcDbArc
 50
258.2242560141
 51
281.7757439859
  0
ARC
  5
3C1
100
AcDbEntity
  8
RACCORDO
100
AcDbCircle
 62
7
  6
CONTINUOUS
 10
-28.25
 20
-13.0
 40
115.0
100
AcDbArc
 50
348.2242560141
 51
11.7757439859
  0
ARC
  5
3C2
100
AcDbEntity
  8
RACCORDO
100
AcDbCircle
 62
7
  6
CONTINUOUS
 10
-28.25
 20
-13.0
 40
115.0
100
AcDbArc
 50
168.2242560141
 51
191.7757439859
  0
ARC
  5
3C3
100
AcDbEntity
  8
RACCORDO
100
AcDbCircle
 62
7
  6
CONTINUOUS
 10
-28.25
 20
-13.0
 40
115.0
100
AcDbArc
 50
78.2242560141
 51
97.343608677
  0
ARC
  5
3C4
100
AcDbEntity
  8
RACCORDO
100
AcDbCircle
 62
250
  6
CONTINUOUS
 10
-28.25
 20
-13.0
 40
113.9128442573
100
AcDbArc
 50
78.2242560141
 51
97.6384807384
  0
ARC
  5
3C5
100
AcDbEntity
  8
RACCORDO
100
AcDbCircle
 62
250
  6
CONTINUOUS
 10
-28.25
 20
-13.0
 40
113.9128442573
100
AcDbArc
 50
168.2242560141
 51
191.7757439859
  0
ARC
  5
3C6
100
AcDbEntity
  8
RACCORDO
100
AcDbCircle
 62
250
  6
CONTINUOUS
 10
-28.25
 20
-13.0
 40
113.9128442573
100
AcDbArc
 50
348.2242560141
 51
11.7757439859
  0
ARC
  5
3C7
100
AcDbEntity
  8
RACCORDO
100
AcDbCircle
 62
250
  6
CONTINUOUS
 10
-28.25
 20
-13.0
 40
113.9128442573
100
AcDbArc
 50
258.2242560141
 51
281.7757439859
  0
ARC
  5
3C8
100
AcDbEntity
  8
RACCORDO
100
AcDbCircle
 62
250
  6
CONTINUOUS
 10
-28.25
 20
-13.0
 40
112.0768772276
100
AcDbArc
 50
78.2242560141
 51
98.1504534232
  0
ARC
  5
3C9
100
AcDbEntity
  8
RACCORDO
100
AcDbCircle
 62
250
  6
CONTINUOUS
 10
-28.25
 20
-13.0
 40
112.0768772276
100
AcDbArc
 50
168.2242560141
 51
191.7757439859
  0
ARC
  5
3CA
100
AcDbEntity
  8
RACCORDO
100
AcDbCircle
 62
250
  6
CONTINUOUS
 10
-28.25
 20
-13.0
 40
112.0768772276
100
AcDbArc
 50
348.2242560141
 51
11.7757439859
  0
ARC
  5
3CB
100
AcDbEntity
  8
RACCORDO
100
AcDbCircle
 62
250
  6
CONTINUOUS
 10
-28.25
 20
-13.0
 40
112.0768772276
100
AcDbArc
 50
258.2242560141
 51
281.7757439859
  0
ARC
  5
3CC
100
AcDbEntity
  8
RACCORDO
100
AcDbCircle
 62
250
  6
CONTINUOUS
 10
-28.25
 20
-13.0
 40
111.1654034356
100
AcDbArc
 50
258.2242560141
 51
281.7757439859
  0
ARC
  5
3CD
100
AcDbEntity
  8
RACCORDO
100
AcDbCircle
 62
250
  6
CONTINUOUS
 10
-28.25
 20
-13.0
 40
111.1654034356
100
AcDbArc
 50
348.2242560141
 51
11.7757439859
  0
ARC
  5
3CE
100
AcDbEntity
  8
RACCORDO
100
AcDbCircle
 62
250
  6
CONTINUOUS
 10
-28.25
 20
-13.0
 40
111.1654034356
100
AcDbArc
 50
78.2242560141
 51
98.4119686544
  0
ARC
  5
3CF
100
AcDbEntity
  8
RACCORDO
100
AcDbCircle
 62
250
  6
CONTINUOUS
 10
-28.25
 20
-13.0
 40
111.1654034356
100
AcDbArc
 50
168.2242560141
 51
191.7757439859
  0
ARC
  5
3D0
100
AcDbEntity
  8
DRAFT
100
AcDbCircle
 62
7
  6
CONTINUOUS
 10
-28.25
 20
-13.0
 40
111.0
100
AcDbArc
 50
168.2242560141
 51
191.7757439859
  0
ARC
  5
3D1
100
AcDbEntity
  8
DRAFT
100
AcDbCircle
 62
7
  6
CONTINUOUS
 10
-28.25
 20
-13.0
 40
111.0
100
AcDbArc
 50
348.2242560141
 51
11.7757439859
  0
ARC
  5
3D2
100
AcDbEntity
  8
DRAFT
100
AcDbCircle
 62
7
  6
CONTINUOUS
 10
-28.25
 20
-13.0
 40
111.0
100
AcDbArc
 50
258.2242560141
 51
281.7757439859
  0
ARC
  5
3D3
100
AcDbEntity
  8
DRAFT
100
AcDbCircle
 62
7
  6
CONTINUOUS
 10
-28.25
 20
-13.0
 40
111.0
100
AcDbArc
 50
78.2242560141
 51
98.4600230964
  0
ARC
  5
3D4
100
AcDbEntity
  8
ASSI
100
AcDbCircle
 62
7
  6
CONTINUOUS
 10
-28.25
 20
-13.0
 40
104.0
100
AcDbArc
 50
341.6757784666
 51
18.3243442304
  0
ARC
  5
3D5
100
AcDbEntity
  8
ASSI
100
AcDbCircle
 62
7
  6
CONTINUOUS
 10
-28.25
 20
-13.0
 40
104.0
100
AcDbArc
 50
71.6757784666
 51
100.6553583073
  0
ARC
  5
3D6
100
AcDbEntity
  8
ASSI
100
AcDbCircle
 62
7
  6
CONTINUOUS
 10
-28.25
 20
-13.0
 40
104.0
100
AcDbArc
 50
161.6757784666
 51
198.3243442304
  0
ARC
  5
3D7
100
AcDbEntity
  8
ASSI
100
AcDbCircle
 62
7
  6
CONTINUOUS
 10
-28.25
 20
-13.0
 40
104.0
100
AcDbArc
 50
251.6757784666
 51
288.3243442304
  0
ARC
  5
3D8
100
AcDbEntity
  8
ASSI
100
AcDbCircle
 62
7
  6
CONTINUOUS
 10
-28.25
 20
-13.0
 40
103.5
100
AcDbArc
 50
341.5194543654
 51
18.480469893
  0
ARC
  5
3D9
100
AcDbEntity
  8
ASSI
100
AcDbCircle
 62
7
  6
CONTINUOUS
 10
-28.25
 20
-13.0
 40
103.5
100
AcDbArc
 50
71.5194543654
 51
100.8263840572
  0
ARC
  5
3DA
100
AcDbEntity
  8
ASSI
100
AcDbCircle
 62
7
  6
CONTINUOUS
 10
-28.25
 20
-13.0
 40
103.5
100
AcDbArc
 50
161.5194543654
 51
198.480469893
  0
ARC
  5
3DB
100
AcDbEntity
  8
ASSI
100
AcDbCircle
 62
7
  6
CONTINUOUS
 10
-28.25
 20
-13.0
 40
103.5
100
AcDbArc
 50
251.5194543654
 51
288.480469893
  0
ARC
  5
3DC
100
AcDbEntity
  8
ASSI
100
AcDbCircle
 62
7
  6
CONTINUOUS
 10
-28.25
 20
-13.0
 40
95.5
100
AcDbArc
 50
340.6635899657
 51
19.3364247398
  0
ARC
  5
3DD
100
AcDbEntity
  8
ASSI
100
AcDbCircle
 62
7
  6
CONTINUOUS
 10
-28.25
 20
-13.0
 40
95.5
100
AcDbArc
 50
70.6635899657
 51
103.847180014
  0
ARC
  5
3DE
100
AcDbEntity
  8
ASSI
100
AcDbCircle
 62
7
  6
CONTINUOUS
 10
-28.25
 20
-13.0
 40
95.5
100
AcDbArc
 50
160.6635899657
 51
197.8390293692
  0
ARC
  5
3DF
100
AcDbEntity
  8
ASSI
100
AcDbCircle
 62
7
  6
CONTINUOUS
 10
-28.25
 20
-13.0
 40
95.5
100
AcDbArc
 50
250.6635899657
 51
289.3364247398
  0
ARC
  5
3E0
100
AcDbEntity
  8
RACCORDO
100
AcDbCircle
 62
7
  6
CONTINUOUS
 10
-28.25
 20
-13.0
 40
95.0
100
AcDbArc
 50
315.2241548715
 51
325.3488333835
  0
ARC
  5
3E1
100
AcDbEntity
  8
RACCORDO
100
AcDbCircle
 62
7
  6
CONTINUOUS
 10
-28.25
 20
-13.0
 40
95.0
100
AcDbArc
 50
214.6511666165
 51
235.3488333835
  0
ARC
  5
3E2
100
AcDbEntity
  8
RACCORDO
100
AcDbCircle
 62
7
  6
CONTINUOUS
 10
-28.25
 20
-13.0
 40
95.0
100
AcDbArc
 50
124.6511666165
 51
145.3488333835
  0
ARC
  5
3E3
100
AcDbEntity
  8
RACCORDO
100
AcDbCircle
 62
7
  6
CONTINUOUS
 10
-28.25
 20
-13.0
 40
95.0
100
AcDbArc
 50
34.6511666165
 51
55.3488333835
  0
ARC
  5
3E4
100
AcDbEntity
  8
ASSI
100
AcDbCircle
 62
7
  6
CONTINUOUS
 10
-28.25
 20
-13.0
 40
95.0
100
AcDbArc
 50
340.7087412144
 51
19.2912816682
  0
ARC
  5
3E5
100
AcDbEntity
  8
ASSI
100
AcDbCircle
 62
7
  6
CONTINUOUS
 10
-28.25
 20
-13.0
 40
95.0
100
AcDbArc
 50
70.7087412144
 51
104.0563543379
  0
ARC
  5
3E6
100
AcDbEntity
  8
ASSI
100
AcDbCircle
 62
7
  6
CONTINUOUS
 10
-28.25
 20
-13.0
 40
95.0
100
AcDbArc
 50
160.7087412144
 51
197.4606875307
  0
ARC
  5
3E7
100
AcDbEntity
  8
ASSI
100
AcDbCircle
 62
7
  6
CONTINUOUS
 10
-28.25
 20
-13.0
 40
95.0
100
AcDbArc
 50
250.7087412144
 51
289.2912816682
  0
ARC
  5
3E8
100
AcDbEntity
  8
RACCORDO
100
AcDbCircle
 62
250
  6
CONTINUOUS
 10
-28.25
 20
-13.0
 40
94.1302754058
100
AcDbArc
 50
124.6511666165
 51
145.3488333835
  0
ARC
  5
3E9
100
AcDbEntity
  8
RACCORDO
100
AcDbCircle
 62
250
  6
CONTINUOUS
 10
-28.25
 20
-13.0
 40
94.1302754058
100
AcDbArc
 50
34.6511666165
 51
55.3488333835
  0
ARC
  5
3EA
100
AcDbEntity
  8
RACCORDO
100
AcDbCircle
 62
250
  6
CONTINUOUS
 10
-28.25
 20
-13.0
 40
94.1302754058
100
AcDbArc
 50
315.2801693018
 51
325.3488333835
  0
ARC
  5
3EB
100
AcDbEntity
  8
RACCORDO
100
AcDbCircle
 62
250
  6
CONTINUOUS
 10
-28.25
 20
-13.0
 40
94.1302754058
100
AcDbArc
 50
214.6511666165
 51
235.3488333835
  0
ARC
  5
3EC
100
AcDbEntity
  8
RACCORDO
100
AcDbCircle
 62
250
  6
CONTINUOUS
 10
-28.25
 20
-13.0
 40
91.1745024262
100
AcDbArc
 50
315.4785226225
 51
325.3488333835
  0
ARC
  5
3ED
100
AcDbEntity
  8
ASSI
100
AcDbCircle
 62
7
  6
CONTINUOUS
 10
-28.25
 20
-13.0
 40
87.0
100
AcDbArc
 50
300.1905799654
 51
302.5813060771
  0
ARC
  5
3EE
100
AcDbEntity
  8
ASSI
100
AcDbCircle
 62
7
  6
CONTINUOUS
 10
-28.25
 20
-13.0
 40
87.0
100
AcDbArc
 50
315.7819834918
 51
332.7177888765
  0
ARC
  5
3EF
100
AcDbEntity
  8
ASSI
100
AcDbCircle
 62
7
  6
CONTINUOUS
 10
-28.25
 20
-13.0
 40
87.0
100
AcDbArc
 50
343.9282642175
 51
16.0718390932
  0
ARC
  5
3F0
100
AcDbEntity
  8
ASSI
100
AcDbCircle
 62
7
  6
CONTINUOUS
 10
-28.25
 20
-13.0
 40
87.0
100
AcDbArc
 50
27.2821912514
 51
62.7175489052
  0
ARC
  5
3F1
100
AcDbEntity
  8
ASSI
100
AcDbCircle
 62
7
  6
CONTINUOUS
 10
-28.25
 20
-13.0
 40
87.0
100
AcDbArc
 50
73.9275563748
 51
106.0725407847
  0
ARC
  5
3F2
100
AcDbEntity
  8
ASSI
100
AcDbCircle
 62
7
  6
CONTINUOUS
 10
-28.25
 20
-13.0
 40
87.0
100
AcDbArc
 50
127.9379948674
 51
152.7177854383
  0
ARC
  5
3F3
100
AcDbEntity
  8
ASSI
100
AcDbCircle
 62
7
  6
CONTINUOUS
 10
-28.25
 20
-13.0
 40
87.0
100
AcDbArc
 50
163.9282642175
 51
190.2124675709
  0
ARC
  5
3F4
100
AcDbEntity
  8
ASSI
100
AcDbCircle
 62
7
  6
CONTINUOUS
 10
-28.25
 20
-13.0
 40
87.0
100
AcDbArc
 50
210.3172164481
 51
242.7175432379
  0
ARC
  5
3F5
100
AcDbEntity
  8
ASSI
100
AcDbCircle
 62
7
  6
CONTINUOUS
 10
-28.25
 20
-13.0
 40
87.0
100
AcDbArc
 50
253.9275563748
 51
286.0725407847
  0
ARC
  5
3F6
100
AcDbEntity
  8
ASSI
100
AcDbCircle
 62
7
  6
CONTINUOUS
 10
-28.25
 20
-13.0
 40
86.5
100
AcDbArc
 50
300.0149533735
 51
302.5430188439
  0
ARC
  5
3F7
100
AcDbEntity
  8
ASSI
100
AcDbCircle
 62
7
  6
CONTINUOUS
 10
-28.25
 20
-13.0
 40
86.5
100
AcDbArc
 50
315.8203450407
 51
332.8391451635
  0
ARC
  5
3F8
100
AcDbEntity
  8
ASSI
100
AcDbCircle
 62
7
  6
CONTINUOUS
 10
-28.25
 20
-13.0
 40
86.5
100
AcDbArc
 50
344.4548668552
 51
15.5447667101
  0
ARC
  5
3F9
100
AcDbEntity
  8
ASSI
100
AcDbCircle
 62
7
  6
CONTINUOUS
 10
-28.25
 20
-13.0
 40
86.5
100
AcDbArc
 50
27.1609446526
 51
62.8391903257
  0
ARC
  5
3FA
100
AcDbEntity
  8
ASSI
100
AcDbCircle
 62
7
  6
CONTINUOUS
 10
-28.25
 20
-13.0
 40
86.5
100
AcDbArc
 50
74.4554323421
 51
105.5442128378
  0
ARC
  5
3FB
100
AcDbEntity
  8
ASSI
100
AcDbCircle
 62
7
  6
CONTINUOUS
 10
-28.25
 20
-13.0
 40
86.5
100
AcDbArc
 50
128.4893418409
 51
152.8391630626
  0
ARC
  5
3FC
100
AcDbEntity
  8
ASSI
100
AcDbCircle
 62
7
  6
CONTINUOUS
 10
-28.25
 20
-13.0
 40
86.5
100
AcDbArc
 50
164.4548668552
 51
189.6635811759
  0
ARC
  5
3FD
100
AcDbEntity
  8
ASSI
100
AcDbCircle
 62
7
  6
CONTINUOUS
 10
-28.25
 20
-13.0
 40
86.5
100
AcDbArc
 50
210.0520447
 51
242.8392125237
  0
ARC
  5
3FE
100
AcDbEntity
  8
ASSI
100
AcDbCircle
 62
7
  6
CONTINUOUS
 10
-28.25
 20
-13.0
 40
86.5
100
AcDbArc
 50
254.4554323421
 51
285.5442128378
  0
ARC
  5
3FF
100
AcDbEntity
  8
DRAFT
100
AcDbCircle
 62
7
  6
CONTINUOUS
 10
-28.25
 20
-13.0
 40
85.0
100
AcDbArc
 50
168.2242560141
 51
187.9065018462
  0
ARC
  5
400
100
AcDbEntity
  8
DRAFT
100
AcDbCircle
 62
7
  6
CONTINUOUS
 10
-28.25
 20
-13.0
 40
85.0
100
AcDbArc
 50
348.2242560141
 51
11.7757439859
  0
ARC
  5
401
100
AcDbEntity
  8
DRAFT
100
AcDbCircle
 62
7
  6
CONTINUOUS
 10
-28.25
 20
-13.0
 40
85.0
100
AcDbArc
 50
258.2242560141
 51
281.7757439859
  0
ARC
  5
402
100
AcDbEntity
  8
DRAFT
100
AcDbCircle
 62
7
  6
CONTINUOUS
 10
-28.25
 20
-13.0
 40
85.0
100
AcDbArc
 50
78.2242560141
 51
101.7757439859
  0
ARC
  5
403
100
AcDbEntity
  8
RACCORDO
100
AcDbCircle
 62
250
  6
CONTINUOUS
 10
-28.25
 20
-13.0
 40
84.8452222287
100
AcDbArc
 50
258.2242560141
 51
281.7757439859
  0
ARC
  5
404
100
AcDbEntity
  8
RACCORDO
100
AcDbCircle
 62
250
  6
CONTINUOUS
 10
-28.25
 20
-13.0
 40
84.8452222287
100
AcDbArc
 50
348.2242560141
 51
11.7757439859
  0
ARC
  5
405
100
AcDbEntity
  8
RACCORDO
100
AcDbCircle
 62
250
  6
CONTINUOUS
 10
-28.25
 20
-13.0
 40
84.8452222287
100
AcDbArc
 50
78.2242560141
 51
101.7757439859
  0
ARC
  5
406
100
AcDbEntity
  8
RACCORDO
100
AcDbCircle
 62
250
  6
CONTINUOUS
 10
-28.25
 20
-13.0
 40
84.8452222287
100
AcDbArc
 50
168.2242560141
 51
187.7150375632
  0
ARC
  5
407
100
AcDbEntity
  8
RACCORDO
100
AcDbCircle
 62
250
  6
CONTINUOUS
 10
-28.25
 20
-13.0
 40
83.7594369512
100
AcDbArc
 50
78.2242560141
 51
101.7757439859
  0
ARC
  5
408
100
AcDbEntity
  8
RACCORDO
100
AcDbCircle
 62
250
  6
CONTINUOUS
 10
-28.25
 20
-13.0
 40
83.7594369512
100
AcDbArc
 50
168.2242560141
 51
186.3218667873
  0
ARC
  5
409
100
AcDbEntity
  8
RACCORDO
100
AcDbCircle
 62
250
  6
CONTINUOUS
 10
-28.25
 20
-13.0
 40
83.7594369512
100
AcDbArc
 50
348.2242560141
 51
11.7757439859
  0
ARC
  5
40A
100
AcDbEntity
  8
RACCORDO
100
AcDbCircle
 62
250
  6
CONTINUOUS
 10
-28.25
 20
-13.0
 40
83.7594369512
100
AcDbArc
 50
258.2242560141
 51
281.7757439859
  0
ARC
  5
40B
100
AcDbEntity
  8
RACCORDO
100
AcDbCircle
 62
250
  6
CONTINUOUS
 10
-28.25
 20
-13.0
 40
81.9128442573
100
AcDbArc
 50
78.2242560141
 51
101.7757439859
  0
ARC
  5
40C
100
AcDbEntity
  8
RACCORDO
100
AcDbCircle
 62
250
  6
CONTINUOUS
 10
-28.25
 20
-13.0
 40
81.9128442573
100
AcDbArc
 50
168.2242560141
 51
183.6970835172
  0
ARC
  5
40D
100
AcDbEntity
  8
RACCORDO
100
AcDbCircle
 62
250
  6
CONTINUOUS
 10
-28.25
 20
-13.0
 40
81.9128442573
100
AcDbArc
 50
348.2242560141
 51
11.7757439859
  0
ARC
  5
40E
100
AcDbEntity
  8
RACCORDO
100
AcDbCircle
 62
250
  6
CONTINUOUS
 10
-28.25
 20
-13.0
 40
81.9128442573
100
AcDbArc
 50
258.2242560141
 51
281.7757439859
  0
ARC
  5
40F
100
AcDbEntity
  8
RACCORDO
100
AcDbCircle
 62
7
  6
CONTINUOUS
 10
-28.25
 20
-13.0
 40
81.0
100
AcDbArc
 50
348.2242560141
 51
11.7757439859
  0
ARC
  5
410
100
AcDbEntity
  8
RACCORDO
100
AcDbCircle
 62
7
  6
CONTINUOUS
 10
-28.25
 20
-13.0
 40
81.0
100
AcDbArc
 50
258.2242560141
 51
281.7757439859
  0
ARC
  5
411
100
AcDbEntity
  8
RACCORDO
100
AcDbCircle
 62
7
  6
CONTINUOUS
 10
-28.25
 20
-13.0
 40
81.0
100
AcDbArc
 50
78.2242560141
 51
101.7757439859
  0
ARC
  5
412
100
AcDbEntity
  8
RACCORDO
100
AcDbCircle
 62
7
  6
CONTINUOUS
 10
-28.25
 20
-13.0
 40
81.0
100
AcDbArc
 50
168.2242560141
 51
182.2474749143
  0
ARC
  5
413
100
AcDbEntity
  8
ASSI
100
AcDbCircle
 62
7
  6
CONTINUOUS
 10
-28.25
 20
-13.0
 40
78.5
100
AcDbArc
 50
300.6962190512
 51
301.8627444059
  0
ARC
  5
414
100
AcDbEntity
  8
ASSI
100
AcDbCircle
 62
7
  6
CONTINUOUS
 10
-28.25
 20
-13.0
 40
78.5
100
AcDbArc
 50
316.5004187394
 51
332.6810383949
  0
ARC
  5
415
100
AcDbEntity
  8
ASSI
100
AcDbCircle
 62
7
  6
CONTINUOUS
 10
-28.25
 20
-13.0
 40
78.5
100
AcDbArc
 50
27.318974599
 51
62.6810234026
  0
ARC
  5
416
100
AcDbEntity
  8
ASSI
100
AcDbCircle
 62
7
  6
CONTINUOUS
 10
-28.25
 20
-13.0
 40
78.5
100
AcDbArc
 50
140.6230248959
 51
152.6810411494
  0
ARC
  5
417
100
AcDbEntity
  8
ASSI
100
AcDbCircle
 62
7
  6
CONTINUOUS
 10
-28.25
 20
-13.0
 40
78.5
100
AcDbArc
 50
207.3189744826
 51
242.6810259687
  0
ARC
  5
418
100
AcDbEntity
  8
ASSI
100
AcDbCircle
 62
7
  6
CONTINUOUS
 10
-28.25
 20
-13.0
 40
78.0
100
AcDbArc
 50
301.0308225691
 51
301.8155384819
  0
ARC
  5
419
100
AcDbEntity
  8
ASSI
100
AcDbCircle
 62
7
  6
CONTINUOUS
 10
-28.25
 20
-13.0
 40
78.0
100
AcDbArc
 50
316.54754338
 51
332.5219555682
  0
ARC
  5
41A
100
AcDbEntity
  8
ASSI
100
AcDbCircle
 62
7
  6
CONTINUOUS
 10
-28.25
 20
-13.0
 40
78.0
100
AcDbArc
 50
27.4779788551
 51
62.5220341764
  0
ARC
  5
41B
100
AcDbEntity
  8
ASSI
100
AcDbCircle
 62
7
  6
CONTINUOUS
 10
-28.25
 20
-13.0
 40
78.0
100
AcDbArc
 50
141.7565861638
 51
152.5219466663
  0
ARC
  5
41C
100
AcDbEntity
  8
ASSI
100
AcDbCircle
 62
7
  6
CONTINUOUS
 10
-28.25
 20
-13.0
 40
78.0
100
AcDbArc
 50
207.4779799572
 51
242.5220140196
  0
ARC
  5
41D
100
AcDbEntity
  8
RACCORDO
100
AcDbCircle
 62
250
  6
CONTINUOUS
 10
-28.25
 20
-13.0
 40
72.7302754058
100
AcDbArc
 50
34.6511666165
 51
55.3488333835
  0
ARC
  5
41E
100
AcDbEntity
  8
RACCORDO
100
AcDbCircle
 62
250
  6
CONTINUOUS
 10
-28.25
 20
-13.0
 40
72.7302754058
100
AcDbArc
 50
317.0848081443
 51
325.3488333835
  0
ARC
  5
41F
100
AcDbEntity
  8
RACCORDO
100
AcDbCircle
 62
250
  6
CONTINUOUS
 10
-28.25
 20
-13.0
 40
72.7302754058
100
AcDbArc
 50
214.6511666165
 51
235.3488333835
  0
ARC
  5
420
100
AcDbEntity
  8
RACCORDO
100
AcDbCircle
 62
7
  6
CONTINUOUS
 10
-28.25
 20
-13.0
 40
72.0
100
AcDbArc
 50
317.1654560648
 51
325.3488333835
  0
ARC
  5
421
100
AcDbEntity
  8
RACCORDO
100
AcDbCircle
 62
7
  6
CONTINUOUS
 10
-28.25
 20
-13.0
 40
72.0
100
AcDbArc
 50
214.6511666165
 51
235.3488333835
  0
ARC
  5
422
100
AcDbEntity
  8
RACCORDO
100
AcDbCircle
 62
7
  6
CONTINUOUS
 10
-28.25
 20
-13.0
 40
72.0
100
AcDbArc
 50
34.6511666165
 51
55.3488333835
  0
ARC
  5
423
100
AcDbEntity
  8
0
100
AcDbCircle
 62
7
  6
CONTINUOUS
 10
-28.25
 20
-13.0
 40
72.0
100
AcDbArc
 50
199.9231424196
 51
214.6511666165
  0
ARC
  5
424
100
AcDbEntity
  8
0
100
AcDbCircle
 62
7
  6
CONTINUOUS
 10
-28.25
 20
-13.0
 40
72.0
100
AcDbArc
 50
55.3488333835
 51
118.2296138341
  0
ARC
  5
425
100
AcDbEntity
  8
0
100
AcDbCircle
 62
7
  6
CONTINUOUS
 10
-28.25
 20
-13.0
 40
72.0
100
AcDbArc
 50
325.3488333835
 51
34.6511666165
  0
ARC
  5
426
100
AcDbEntity
  8
0
100
AcDbCircle
 62
7
  6
CONTINUOUS
 10
-28.25
 20
-13.0
 40
72.0
100
AcDbArc
 50
235.3488333835
 51
301.1980800334
  0
ARC
  5
427
100
AcDbEntity
  8
0
100
AcDbCircle
 62
7
  6
CONTINUOUS
 10
-28.25
 20
-13.0
 40
16.0
100
AcDbArc
 50
347.8655325805
 51
270.4970172111
  0
ARC
  5
428
100
AcDbEntity
  8
0
100
AcDbCircle
 62
7
  6
CONTINUOUS
 10
-28.25
 20
-13.0
 40
10.0
100
AcDbArc
 50
39.1816529163
 51
219.1816529163
  0
ARC
  5
429
100
AcDbEntity
  8
RACCORDO
100
AcDbCircle
 62
7
  6
CONTINUOUS
 10
-48.25
 20
82.9374796417
 40
17.0
100
AcDbArc
 50
243.9477088347
 51
281.7757439859
  0
ARC
  5
42A
100
AcDbEntity
  8
RACCORDO
100
AcDbCircle
 62
7
  6
CONTINUOUS
 10
-8.25
 20
82.9374796417
 40
17.0
100
AcDbArc
 50
258.2242560141
 51
78.2242560141
  0
ARC
  5
42B
100
AcDbEntity
  8
RACCORDO
100
AcDbCircle
 62
7
  6
CONTINUOUS
 10
-124.1874796417
 20
7.0
 40
17.0
100
AcDbArc
 50
348.2242560141
 51
168.2242560141
  0
ARC
  5
42C
100
AcDbEntity
  8
RACCORDO
100
AcDbCircle
 62
250
  6
CONTINUOUS
 10
-48.2251451759
 20
82.8263261176
 40
15.9733126793
100
AcDbArc
 50
243.3900418299
 51
281.7698350347
  0
ARC
  5
42D
100
AcDbEntity
  8
RACCORDO
100
AcDbCircle
 62
7
  6
CONTINUOUS
 10
-28.25
 20
167.5
 40
15.0
100
AcDbArc
 50
290.8924904509
 51
207.2579180992
  0
ARC
  5
42E
100
AcDbEntity
  8
RACCORDO
100
AcDbCircle
 62
250
  6
CONTINUOUS
 10
-48.2275613704
 20
82.8363770173
 40
14.137044418
100
AcDbArc
 50
242.6724199993
 51
281.7703406909
  0
ARC
  5
42F
100
AcDbEntity
  8
RACCORDO
100
AcDbCircle
 62
250
  6
CONTINUOUS
 10
-48.2514266606
 20
82.9439665376
 40
13.1614192986
100
AcDbArc
 50
242.4617860718
 51
281.7760608138
  0
ARC
  5
430
100
AcDbEntity
  8
RACCORDO
100
AcDbCircle
 62
250
  6
CONTINUOUS
 10
-8.2481866491
 20
82.9424966662
 40
13.1599843683
100
AcDbArc
 50
258.2209850133
 51
78.2275269994
  0
ARC
  5
431
100
AcDbEntity
  8
RACCORDO
100
AcDbCircle
 62
250
  6
CONTINUOUS
 10
-124.1924967041
 20
7.0018134303
 40
13.1599843247
100
AcDbArc
 50
348.2209847085
 51
168.2275273042
  0
ARC
  5
432
100
AcDbEntity
  8
DRAFT
100
AcDbCircle
 62
7
  6
CONTINUOUS
 10
-124.1874808823
 20
6.999994049
 40
13.0
100
AcDbArc
 50
348.2242828064
 51
168.2242292218
  0
ARC
  5
433
100
AcDbEntity
  8
DRAFT
100
AcDbCircle
 62
7
  6
CONTINUOUS
 10
-8.250005951
 20
82.9374808823
 40
13.0
100
AcDbArc
 50
258.2242828064
 51
78.2242292218
  0
ARC
  5
434
100
AcDbEntity
  8
DRAFT
100
AcDbCircle
 62
7
  6
CONTINUOUS
 10
-48.2500028861
 20
82.9374772485
 40
12.9999982462
100
AcDbArc
 50
242.3630829184
 51
281.7757585911
  0
ARC
  5
435
100
AcDbEntity
  8
RACCORDO
100
AcDbCircle
 62
250
  6
CONTINUOUS
 10
-28.25
 20
167.5
 40
12.0
100
AcDbArc
 50
305.5191833177
 51
192.6229157477
  0
ARC
  5
436
100
AcDbEntity
  8
RACCORDO
100
AcDbCircle
 62
7
  6
CONTINUOUS
 10
-75.726313154
 20
55.6895165896
 40
11.5
100
AcDbArc
 50
98.1404113045
 51
124.6511666165
  0
ARC
  5
437
100
AcDbEntity
  8
RACCORDO
100
AcDbCircle
 62
7
  6
CONTINUOUS
 10
-96.9395165896
 20
34.476313154
 40
11.5
100
AcDbArc
 50
145.3488333835
 51
284.4175558997
  0
ARC
  5
438
100
AcDbEntity
  8
RACCORDO
100
AcDbCircle
 62
250
  6
CONTINUOUS
 10
-75.694747955
 20
55.6436888603
 40
10.6859219193
100
AcDbArc
 50
100.8855113484
 51
124.6506828749
  0
ARC
  5
439
100
AcDbEntity
  8
0
100
AcDbCircle
 62
7
  6
CONTINUOUS
 10
-28.25
 20
167.5
 40
10.0
100
AcDbArc
 50
339.0754982551
 51
159.0754982551
  0
ARC
  5
43A
100
AcDbEntity
  8
RACCORDO
100
AcDbCircle
 62
250
  6
CONTINUOUS
 10
-96.9434341815
 20
34.4784504366
 40
7.6699675697
100
AcDbArc
 50
145.3453279247
 51
309.2936685539
  0
ARC
  5
43B
100
AcDbEntity
  8
RACCORDO
100
AcDbCircle
 62
7
  6
CONTINUOUS
 10
67.6874796417
 20
-33.0
 40
17.0
100
AcDbArc
 50
168.2242560141
 51
348.2242560141
  0
ARC
  5
43C
100
AcDbEntity
  8
RACCORDO
100
AcDbCircle
 62
250
  6
CONTINUOUS
 10
67.6924966839
 20
-33.0018134159
 40
13.1599843431
100
AcDbArc
 50
168.220984752
 51
348.2275272607
  0
ARC
  5
43D
100
AcDbEntity
  8
DRAFT
100
AcDbCircle
 62
7
  6
CONTINUOUS
 10
67.6874808823
 20
-32.999994049
 40
13.0
100
AcDbArc
 50
168.2242828064
 51
348.2242292218
  0
ARC
  5
43E
100
AcDbEntity
  8
RACCORDO
100
AcDbCircle
 62
7
  6
CONTINUOUS
 10
19.226313154
 20
-81.6895165896
 40
11.5
100
AcDbArc
 50
146.4022858748
 51
291.9603714729
  0
ARC
  5
43F
100
AcDbEntity
  8
RACCORDO
100
AcDbCircle
 62
7
  6
CONTINUOUS
 10
40.4395165896
 20
-60.476313154
 40
11.5
100
AcDbArc
 50
325.3488333835
 51
145.3488333835
  0
ARC
  5
440
100
AcDbEntity
  8
0
100
AcDbCircle
 62
7
  6
CONTINUOUS
 10
101.75
 20
-172.5
 40
10.0
100
AcDbArc
 50
219.1816529163
 51
39.1816529163
  0
ARC
  5
441
100
AcDbEntity
  8
RACCORDO
100
AcDbCircle
 62
250
  6
CONTINUOUS
 10
19.2283568198
 20
-81.693472061
 40
7.6698907502
100
AcDbArc
 50
155.5276771304
 51
282.8387106592
  0
ARC
  5
442
100
AcDbEntity
  8
DRAFT
100
AcDbCircle
 62
7
  6
CONTINUOUS
 10
19.2263152714
 20
-81.6895141225
 40
7.5000019655
100
AcDbArc
 50
156.1802798573
 51
282.185523676
  0
ARC
  5
443
100
AcDbEntity
  8
RACCORDO
100
AcDbCircle
 62
7
  6
CONTINUOUS
 10
67.6874796417
 20
7.0
 40
17.0
100
AcDbArc
 50
11.7757439859
 51
191.7757439859
  0
ARC
  5
444
100
AcDbEntity
  8
RACCORDO
100
AcDbCircle
 62
250
  6
CONTINUOUS
 10
67.6924970624
 20
7.0018129321
 40
13.1599844684
100
AcDbArc
 50
11.7724751373
 51
191.7790128498
  0
ARC
  5
445
100
AcDbEntity
  8
DRAFT
100
AcDbCircle
 62
7
  6
CONTINUOUS
 10
67.6874785835
 20
7.0000050759
 40
13.0
100
AcDbArc
 50
11.7757211334
 51
191.7757668383
  0
ARC
  5
446
100
AcDbEntity
  8
RACCORDO
100
AcDbCircle
 62
7
  6
CONTINUOUS
 10
40.4395165896
 20
34.476313154
 40
11.5
100
AcDbArc
 50
214.6511666165
 51
34.6511666165
  0
ARC
  5
447
100
AcDbEntity
  8
RACCORDO
100
AcDbCircle
 62
7
  6
CONTINUOUS
 10
19.226313154
 20
55.6895165896
 40
11.5
100
AcDbArc
 50
55.3488333835
 51
235.3488333835
  0
ARC
  5
448
100
AcDbEntity
  8
ASSI
100
AcDbCircle
 62
7
  6
CONTINUOUS
 10
133.5538475773
 20
128.5
 40
3.0
100
AcDbArc
 50
90.0
 51
120.0
  0
ARC
  5
449
100
AcDbEntity
  8
ASSI
100
AcDbCircle
 62
7
  6
CONTINUOUS
 10
133.5538475773
 20
92.5
 40
3.0
100
AcDbArc
 50
240.0
 51
270.0
  0
ARC
  5
44A
100
AcDbEntity
  8
ASSI
100
AcDbCircle
 62
7
  6
CONTINUOUS
 10
136.75
 20
110.5
 40
2.9735749324
100
AcDbArc
 50
202.0885431658
 51
183.4298241508
  0
ARC
  5
44B
100
AcDbEntity
  8
ASSI
100
AcDbCircle
 62
7
  6
CONTINUOUS
 10
131.144428
 20
110.589938
 40
2.6508884458
100
AcDbArc
 50
317.2312789315
 51
354.2011723825
  0
ARC
  5
44C
100
AcDbEntity
  8
ASSI
100
AcDbCircle
 62
7
  6
CONTINUOUS
 10
131.573813
 20
110.381315
 40
2.6190759282
100
AcDbArc
 50
315.4348969444
 51
337.5658553844
  0
CIRCLE
  5
44D
100
AcDbEntity
  8
ASSI
100
AcDbCircle
 62
7
  6
CONTINUOUS
 10
136.75
 20
110.5
 40
2.497595
  0
ARC
  5
44E
100
AcDbEntity
  8
ASSI
100
AcDbCircle
 62
7
  6
CONTINUOUS
 10
136.75
 20
110.5
 40
2.2337503191
100
AcDbArc
 50
209.3041411838
 51
314.9957558872
  0
ARC
  5
44F
100
AcDbEntity
  8
ASSI
100
AcDbCircle
 62
7
  6
CONTINUOUS
 10
136.75
 20
110.5
 40
2.2337501706
100
AcDbArc
 50
44.9002628452
 51
150.6958588162
  0
ARC
  5
450
100
AcDbEntity
  8
ASSI
100
AcDbCircle
 62
7
  6
CONTINUOUS
 10
167.55
 20
123.2
 40
2.2
100
AcDbArc
 50
270.0
 51
360.0
  0
ARC
  5
451
100
AcDbEntity
  8
ASSI
100
AcDbCircle
 62
7
  6
CONTINUOUS
 10
167.55
 20
123.8
 40
2.2
100
AcDbArc
 50
0.0
 51
90.0
  0
ARC
  5
452
100
AcDbEntity
  8
ASSI
100
AcDbCircle
 62
7
  6
CONTINUOUS
 10
168.05
 20
110.2
 40
2.2
100
AcDbArc
 50
270.0
 51
360.0
  0
ARC
  5
453
100
AcDbEntity
  8
ASSI
100
AcDbCircle
 62
7
  6
CONTINUOUS
 10
168.05
 20
110.8
 40
2.2
100
AcDbArc
 50
0.0
 51
90.0
  0
ARC
  5
454
100
AcDbEntity
  8
ASSI
100
AcDbCircle
 62
7
  6
CONTINUOUS
 10
167.55
 20
97.2
 40
2.2
100
AcDbArc
 50
270.0
 51
360.0
  0
ARC
  5
455
100
AcDbEntity
  8
ASSI
100
AcDbCircle
 62
7
  6
CONTINUOUS
 10
167.55
 20
97.8
 40
2.2
100
AcDbArc
 50
0.0
 51
90.0
  0
ARC
  5
456
100
AcDbEntity
  8
ASSI
100
AcDbCircle
 62
7
  6
CONTINUOUS
 10
136.75
 20
110.5
 40
1.7896378839
100
AcDbArc
 50
209.3041347443
 51
301.9732647944
  0
ARC
  5
457
100
AcDbEntity
  8
ASSI
100
AcDbCircle
 62
7
  6
CONTINUOUS
 10
136.75
 20
110.5
 40
1.78963742
100
AcDbArc
 50
58.02673736
 51
150.6958652557
  0
SPLINE
  5
458
100
AcDbEntity
  8
RACCORDO
100
AcDbSpline
 62
250
  6
CONTINUOUS
 70
0
 71
3
 72
27
 73
23
 74
0
 42
0.0000001
 43
0.0000001
 44
0.0000000001
 40
0.0
 40
0.0
 40
0.0
 40
0.0
 40
0.0624935201
 40
0.0937492274
 40
0.124996209
 40
0.1874215063
 40
0.2498253708
 40
0.2810457726
 40
0.3122648515
 40
0.3746580631
 40
0.4370618084
 40
0.4994852684
 40
0.5619355616
 40
0.6244173111
 40
0.6869324894
 40
0.7182259155
 40
0.7495272629
 40
0.8121047296
 40
0.8747063845
 40
0.9060378047
 40
0.9373720887
 40
1.0
 40
1.0
 40
1.0
 40
1.0
 10
-93.7424874808
 20
24.2118668505
 30
0.0
 10
-94.2689856808
 20
24.0507158213
 30
0.0
 10
-95.0793479779
 20
23.869741406
 30
0.0
 10
-96.1754973309
 20
23.7555836027
 30
0.0
 10
-97.2768014288
 20
23.7261743531
 30
0.0
 10
-98.6522553398
 20
23.8489343636
 30
0.0
 10
-99.9922591657
 20
24.1816920541
 30
0.0
 10
-101.0229845726
 20
24.5684771403
 30
0.0
 10
-102.0208100886
 20
25.0333350339
 30
0.0
 10
-103.1966023813
 20
25.7567786578
 30
0.0
 10
-104.4568820579
 20
26.8309459461
 30
0.0
 10
-105.5376689509
 20
28.0864556737
 30
0.0
 10
-106.4129208958
 20
29.4938139814
 30
0.0
 10
-107.0615549075
 20
31.019641301
 30
0.0
 10
-107.400071811
 20
32.3605668865
 30
0.0
 10
-107.544472099
 20
33.454323215
 30
0.0
 10
-107.6040150924
 20
34.5565320296
 30
0.0
 10
-107.5180372382
 20
35.9384277791
 30
0.0
 10
-107.2195653695
 20
37.2906988458
 30
0.0
 10
-106.8579720736
 20
38.3345414138
 30
0.0
 10
-106.4167622199
 20
39.347315598
 30
0.0
 10
-105.9980220901
 20
40.0665365406
 30
0.0
 10
-105.6842887912
 20
40.5204602687
 30
0.0
  0
SPLINE
  5
459
100
AcDbEntity
  8
RACCORDO
100
AcDbSpline
 62
250
  6
CONTINUOUS
 70
0
 71
3
 72
31
 73
27
 74
0
 42
0.0000001
 43
0.0000001
 44
0.0000000001
 40
0.0
 40
0.0
 40
0.0
 40
0.0
 40
0.0313290689
 40
0.0626557626
 40
0.0939793308
 40
0.1252975037
 40
0.1878366414
 40
0.2503395727
 40
0.2816133097
 40
0.3128763541
 40
0.3441288399
 40
0.3753712531
 40
0.4377546021
 40
0.5001119666
 40
0.5624581097
 40
0.6248099768
 40
0.6560309238
 40
0.6872597816
 40
0.71849842
 40
0.7497483392
 40
0.8122101512
 40
0.8747213801
 40
0.9060311248
 40
0.9373493479
 40
0.9686729372
 40
1.0
 40
1.0
 40
1.0
 40
1.0
 10
49.1842887912
 20
40.5204602687
 30
0.0
 10
49.3835979891
 20
40.2320907358
 30
0.0
 10
49.7540652026
 20
39.6353259293
 30
0.0
 10
50.2188487912
 20
38.6902934714
 30
0.0
 10
50.5885206322
 20
37.7040854198
 30
0.0
 10
50.9494781841
 20
36.3487856201
 30
0.0
 10
51.1478444205
 20
34.5983930381
 30
0.0
 10
50.9997822106
 20
32.8435642584
 30
0.0
 10
50.6784677998
 20
31.479943209
 30
0.0
 10
50.338364148
 20
30.4853281996
 30
0.0
 10
49.9025376213
 20
29.529160219
 30
0.0
 10
49.2005290138
 20
28.3189031308
 30
0.0
 10
48.1055965431
 20
26.9441574191
 30
0.0
 10
46.497330145
 20
25.5836723411
 30
0.0
 10
44.6556352992
 20
24.5618749919
 30
0.0
 10
42.9829317794
 20
24.024997252
 30
0.0
 10
41.6033872152
 20
23.7970040914
 30
0.0
 10
40.5556447645
 20
23.7277854468
 30
0.0
 10
39.5058391092
 20
23.7614792883
 30
0.0
 10
38.1176965455
 20
23.942993676
 30
0.0
 10
36.4248366412
 20
24.4244479797
 30
0.0
 10
34.8582115693
 20
25.2280691267
 30
0.0
 10
33.7182246036
 20
26.044310385
 30
0.0
 10
32.9263783869
 20
26.7384622535
 30
0.0
 10
32.2066264868
 20
27.5071129424
 30
0.0
 10
31.7793306553
 20
28.0645304439
 30
0.0
 10
31.5800294497
 20
28.3528782148
 30
0.0
  0
SPLINE
  5
45A
100
AcDbEntity
  8
RACCORDO
100
AcDbSpline
 62
250
  6
CONTINUOUS
 70
0
 71
3
 72
31
 73
27
 74
0
 42
0.0000001
 43
0.0000001
 44
0.0000000001
 40
0.0
 40
0.0
 40
0.0
 40
0.0
 40
0.0313270966
 40
0.0626506907
 40
0.0939689076
 40
0.1252786456
 40
0.1877898586
 40
0.2502516407
 40
0.2815015434
 40
0.3127401804
 40
0.3439690464
 40
0.3751900018
 40
0.4375418717
 40
0.4998880107
 40
0.5622453843
 40
0.6246287249
 40
0.6558711333
 40
0.6871236105
 40
0.7183866548
 40
0.7496604062
 40
0.8121633467
 40
0.8747024904
 40
0.9060206646
 40
0.9373442343
 40
0.96867093
 40
1.0
 40
1.0
 40
1.0
 40
1.0
 10
13.1028782148
 20
46.8300294497
 30
0.0
 10
12.8145300948
 20
47.0293308145
 30
0.0
 10
12.2571123278
 20
47.4566270226
 30
0.0
 10
11.4884614076
 20
48.1763791994
 30
0.0
 10
10.7943097156
 20
48.9682254553
 30
0.0
 10
9.9780687432
 20
50.1082122246
 30
0.0
 10
9.1744479501
 20
51.6748368087
 30
0.0
 10
8.6929938058
 20
53.3676960167
 30
0.0
 10
8.5114793823
 20
54.7558380346
 30
0.0
 10
8.4777854278
 20
55.8056435774
 30
0.0
 10
8.5470039631
 20
56.8533862069
 30
0.0
 10
8.7749970385
 20
58.2329310071
 30
0.0
 10
9.3118746932
 20
59.9056346411
 30
0.0
 10
10.3336719807
 20
61.747329621
 30
0.0
 10
11.6941569466
 20
63.3555960649
 30
0.0
 10
13.0689025418
 20
64.4505286048
 30
0.0
 10
14.2791593754
 20
65.1525371641
 30
0.0
 10
15.2353271648
 20
65.5883637443
 30
0.0
 10
16.229942202
 20
65.9284675159
 30
0.0
 10
17.593563483
 20
66.249782092
 30
0.0
 10
19.3483925929
 20
66.3978444301
 30
0.0
 10
21.0987853588
 20
66.1994781973
 30
0.0
 10
22.4540852801
 20
65.8385206934
 30
0.0
 10
23.4402933444
 20
65.4688487528
 30
0.0
 10
24.3853259437
 20
65.0040653144
 30
0.0
 10
24.982090665
 20
64.6335979081
 30
0.0
 10
25.2704602687
 20
64.4342887912
 30
0.0
  0
SPLINE
  5
45B
100
AcDbEntity
  8
RACCORDO
100
AcDbSpline
 62
250
  6
CONTINUOUS
 70
0
 71
3
 72
23
 73
19
 74
0
 42
0.0000001
 43
0.0000001
 44
0.0000000001
 40
0.0
 40
0.0
 40
0.0
 40
0.0
 40
0.0625713437
 40
0.1251062247
 40
0.187605347
 40
0.250072701
 40
0.312515102
 40
0.3749413086
 40
0.4373608465
 40
0.4997831724
 40
0.5622171959
 40
0.6246707995
 40
0.6871501823
 40
0.7496595185
 40
0.8122006817
 40
0.8747732175
 40
0.9373745228
 40
1.0
 40
1.0
 40
1.0
 40
1.0
 10
11.6497166404
 20
-77.7821878149
 30
0.0
 10
11.4643166587
 20
-78.1455733096
 30
0.0
 10
11.1458141631
 20
-78.9001399203
 30
0.0
 10
10.8366545346
 20
-80.087762733
 30
0.0
 10
10.701772086
 20
-81.3070973724
 30
0.0
 10
10.7437616669
 20
-82.5324715169
 30
0.0
 10
10.9614179222
 20
-83.7386175897
 30
0.0
 10
11.3500634893
 20
-84.9006555523
 30
0.0
 10
11.9015719857
 20
-85.994681696
 30
0.0
 10
12.6045754609
 20
-86.9981599078
 30
0.0
 10
13.4446420229
 20
-87.8903609581
 30
0.0
 10
14.4045449568
 20
-88.6527572423
 30
0.0
 10
15.4645705296
 20
-89.2693838379
 30
0.0
 10
16.6028621711
 20
-89.7272072868
 30
0.0
 10
17.7958150085
 20
-90.0164315513
 30
0.0
 10
19.0186792846
 20
-90.1306371754
 30
0.0
 10
20.2455302944
 20
-90.067291032
 30
0.0
 10
21.0495723094
 20
-89.9071725395
 30
0.0
 10
21.4431917507
 20
-89.7986645195
 30
0.0
  0
SPLINE
  5
45C
100
AcDbEntity
  8
RACCORDO
100
AcDbSpline
 62
250
  6
CONTINUOUS
 70
0
 71
3
 72
27
 73
23
 74
0
 42
0.0000001
 43
0.0000001
 44
0.0000000001
 40
0.0
 40
0.0
 40
0.0
 40
0.0
 40
0.0626167977
 40
0.0939413566
 40
0.1252596068
 40
0.1878267959
 40
0.2503619767
 40
0.2816406549
 40
0.3129108615
 40
0.3753795272
 40
0.4378191249
 40
0.5002360054
 40
0.5626388175
 40
0.6250378256
 40
0.6874439536
 40
0.7186767297
 40
0.7499153929
 40
0.8123679292
 40
0.8748564807
 40
0.9061393953
 40
0.9374324554
 40
1.0
 40
1.0
 40
1.0
 40
1.0
 10
22.9504672114
 20
-91.6478626961
 30
0.0
 10
22.4299582186
 20
-91.843272006
 30
0.0
 10
21.6242617848
 20
-92.0758184398
 30
0.0
 10
20.526157183
 20
-92.2572829816
 30
0.0
 10
19.4174690026
 20
-92.3526729692
 30
0.0
 10
18.0232924145
 20
-92.3091450576
 30
0.0
 10
16.6531827688
 20
-92.0493845127
 30
0.0
 10
15.5926151597
 20
-91.71637578
 30
0.0
 10
14.5617042226
 20
-91.3021738667
 30
0.0
 10
13.3386031544
 20
-90.6358632585
 30
0.0
 10
12.013834606
 20
-89.6193054378
 30
0.0
 10
10.8627193968
 20
-88.4101999627
 30
0.0
 10
9.9128917095
 20
-87.0377559831
 30
0.0
 10
9.1869391771
 20
-85.5351399314
 30
0.0
 10
8.7828934571
 20
-84.2035465735
 30
0.0
 10
8.5863429932
 20
-83.1113302272
 30
0.0
 10
8.4750467917
 20
-82.0067302923
 30
0.0
 10
8.4975979296
 20
-80.6142188463
 30
0.0
 10
8.7360436411
 20
-79.2416984761
 30
0.0
 10
9.0526355706
 20
-78.1762523586
 30
0.0
 10
9.4512732747
 20
-77.1382010415
 30
0.0
 10
9.8409639968
 20
-76.396484778
 30
0.0
 10
10.1369194563
 20
-75.9263372683
 30
0.0
  0
SPLINE
  5
45D
100
AcDbEntity
  8
RACCORDO
100
AcDbSpline
 62
250
  6
CONTINUOUS
 70
0
 71
3
 72
31
 73
27
 74
0
 42
0.0000001
 43
0.0000001
 44
0.0000000001
 40
0.0
 40
0.0
 40
0.0
 40
0.0
 40
0.0313272994
 40
0.0626509522
 40
0.0939691511
 40
0.1252788585
 40
0.1877901057
 40
0.2502518842
 40
0.2815017828
 40
0.3127404112
 40
0.3439692651
 40
0.3751902113
 40
0.4375420647
 40
0.4998881828
 40
0.5622455383
 40
0.6246288577
 40
0.6558712581
 40
0.6871237296
 40
0.7183867607
 40
0.7496604919
 40
0.8121634046
 40
0.8747025356
 40
0.9060206998
 40
0.9373442576
 40
0.9686709425
 40
1.0
 40
1.0
 40
1.0
 40
1.0
 10
31.5800294497
 20
-54.3528782148
 30
0.0
 10
31.7793321855
 20
-54.0645282835
 30
0.0
 10
32.2066301379
 20
-53.5071081397
 30
0.0
 10
32.9263849423
 20
-52.7384559177
 30
0.0
 10
33.7182317833
 20
-52.0443047369
 30
0.0
 10
34.8582190404
 20
-51.2280647298
 30
0.0
 10
36.4248441437
 20
-50.4244448915
 30
0.0
 10
38.1177040759
 20
-49.9429922146
 30
0.0
 10
39.5058460195
 20
-49.7614786953
 30
0.0
 10
40.555651314
 20
-49.7277854947
 30
0.0
 10
41.6033935564
 20
-49.7970047962
 30
0.0
 10
42.9829377742
 20
-50.0249988025
 30
0.0
 10
44.6556405387
 20
-50.5618773894
 30
0.0
 10
46.4973344546
 20
-51.5836752865
 30
0.0
 10
48.1055996759
 20
-52.9441606553
 30
0.0
 10
49.2005312198
 20
-54.3189063506
 30
0.0
 10
49.9025390653
 20
-55.5291631453
 30
0.0
 10
50.3383651446
 20
-56.4853308301
 30
0.0
 10
50.6784684337
 20
-57.4799455678
 30
0.0
 10
50.9997824957
 20
-58.8435662644
 30
0.0
 10
51.1478443842
 20
-60.5983947211
 30
0.0
 10
50.9494779026
 20
-62.3487868813
 30
0.0
 10
50.5885203267
 20
-63.7040863808
 30
0.0
 10
50.21884842
 20
-64.6902940669
 30
0.0
 10
49.7540651048
 20
-65.6353262859
 30
0.0
 10
49.3835978344
 20
-66.2320907844
 30
0.0
 10
49.1842887912
 20
-66.5204602687
 30
0.0
  0
SPLINE
  5
45E
100
AcDbEntity
  8
RACCORDO
100
AcDbSpline
 62
250
  6
CONTINUOUS
 70
0
 71
3
 72
15
 73
11
 74
0
 42
0.0000001
 43
0.0000001
 44
0.0000000001
 40
0.0
 40
0.0
 40
0.0
 40
0.0
 40
0.124774614
 40
0.2495883347
 40
0.3744648541
 40
0.499421276
 40
0.6244645148
 40
0.7495892844
 40
0.8747777524
 40
1.0
 40
1.0
 40
1.0
 40
1.0
 10
-100.9101355479
 20
-50.5332905149
 30
0.0
 10
-100.3535907643
 20
-50.3067973942
 30
0.0
 10
-99.1997433341
 20
-49.946946229
 30
0.0
 10
-97.4044476268
 20
-49.70563251
 30
0.0
 10
-95.5927168906
 20
-49.7690337842
 30
0.0
 10
-93.8164296511
 20
-50.1362612814
 30
0.0
 10
-92.126093706
 20
-50.7975138801
 30
0.0
 10
-90.5702606562
 20
-51.7347807978
 30
0.0
 10
-89.194390591
 20
-52.9211273459
 30
0.0
 10
-88.4228988797
 20
-53.8568167986
 30
0.0
 10
-88.0800294497
 20
-54.3528782148
 30
0.0
  0
SPLINE
  5
45F
100
AcDbEntity
  8
RACCORDO
100
AcDbSpline
 62
250
  6
CONTINUOUS
 70
0
 71
3
 72
31
 73
27
 74
0
 42
0.0000001
 43
0.0000001
 44
0.0000000001
 40
0.0
 40
0.0
 40
0.0
 40
0.0
 40
0.0313270882
 40
0.0626506799
 40
0.0939688951
 40
0.1252786284
 40
0.1877898743
 40
0.2502517036
 40
0.2815016069
 40
0.3127402376
 40
0.3439690965
 40
0.3751900499
 40
0.437541918
 40
0.4998880492
 40
0.5622454191
 40
0.6246287526
 40
0.6558711597
 40
0.6871236383
 40
0.7183866795
 40
0.749660421
 40
0.8121633635
 40
0.8747024994
 40
0.9060206694
 40
0.937344238
 40
0.9686709328
 40
1.0
 40
1.0
 40
1.0
 40
1.0
 10
-69.6028782148
 20
-72.8300294497
 30
0.0
 10
-69.3145301697
 20
-73.0293307575
 30
0.0
 10
-68.7571125014
 20
-73.4566268951
 30
0.0
 10
-67.9884616535
 20
-74.1763789424
 30
0.0
 10
-67.2943099998
 20
-74.9682251002
 30
0.0
 10
-66.4780687981
 20
-76.1082120681
 30
0.0
 10
-65.6744476252
 20
-77.674837429
 30
0.0
 10
-65.192993455
 20
-79.3676975908
 30
0.0
 10
-65.0114792055
 20
-80.7558400987
 30
0.0
 10
-64.9777854483
 20
-81.8056455048
 30
0.0
 10
-65.0470041627
 20
-82.8533879484
 30
0.0
 10
-65.2749974517
 20
-84.2329325894
 30
0.0
 10
-65.8118753211
 20
-85.9056360132
 30
0.0
 10
-66.8336727484
 20
-87.7473307391
 30
0.0
 10
-68.1941577701
 20
-89.3555968628
 30
0.0
 10
-69.568903369
 20
-90.4505291724
 30
0.0
 10
-70.7791601985
 20
-91.1525375805
 30
0.0
 10
-71.7353279953
 20
-91.5883640619
 30
0.0
 10
-72.729942935
 20
-91.9284677118
 30
0.0
 10
-74.0935641122
 20
-92.2497821875
 30
0.0
 10
-75.8483930549
 20
-92.3978444228
 30
0.0
 10
-77.598785698
 20
-92.199478131
 30
0.0
 10
-78.954085466
 20
-91.8385206289
 30
0.0
 10
-79.94029346
 20
-91.4688487011
 30
0.0
 10
-80.8853260052
 20
-91.0040652759
 30
0.0
 10
-81.4820906916
 20
-90.6335978917
 30
0.0
 10
-81.7704602687
 20
-90.4342887912
 30
0.0
  0
SPLINE
  5
460
100
AcDbEntity
  8
RACCORDO
100
AcDbSpline
 62
250
  6
CONTINUOUS
 70
0
 71
3
 72
31
 73
27
 74
0
 42
0.0000001
 43
0.0000001
 44
0.0000000001
 40
0.0
 40
0.0
 40
0.0
 40
0.0
 40
0.031327019
 40
0.0626503727
 40
0.0939679484
 40
0.1252768262
 40
0.1877855675
 40
0.2502439873
 40
0.2814920963
 40
0.3127290052
 40
0.3439563177
 40
0.3751759625
 40
0.4375264755
 40
0.499873094
 40
0.5622323596
 40
0.6246184463
 40
0.6558623746
 40
0.6871163668
 40
0.7183808502
 40
0.7496559222
 40
0.8121609882
 40
0.8747014919
 40
0.9060200901
 40
0.9373439205
 40
0.9686707729
 40
1.0
 40
1.0
 40
1.0
 40
1.0
 10
-11.1562373569
 20
68.9966252786
 30
0.0
 10
-10.7021742955
 20
68.9019689446
 30
0.0
 10
-9.784123931
 20
68.7573232314
 30
0.0
 10
-8.3930493124
 20
68.6769030452
 30
0.0
 10
-7.0008224352
 20
68.7336996263
 30
0.0
 10
-5.163515329
 20
68.9909419001
 30
0.0
 10
-2.9287564627
 20
69.6494259881
 30
0.0
 10
-0.8668071108
 20
70.7318218923
 30
0.0
 10
0.6294601967
 20
71.8238384107
 30
0.0
 10
1.6666235749
 20
72.7489339176
 30
0.0
 10
2.6079045072
 20
73.7708650766
 30
0.0
 10
3.722570499
 20
75.2475659895
 30
0.0
 10
4.836575059
 20
77.2878248774
 30
0.0
 10
5.6703784771
 20
79.9471463316
 30
0.0
 10
5.9714871822
 20
82.7183551881
 30
0.0
 10
5.7673877836
 20
85.0350734965
 30
0.0
 10
5.3365730847
 20
86.8357146122
 30
0.0
 10
4.8822913767
 20
88.1499589557
 30
0.0
 10
4.3011633064
 20
89.4137493261
 30
0.0
 10
3.3654439519
 20
91.0141677074
 30
0.0
 10
1.9067974148
 20
92.8315996131
 30
0.0
 10
0.1200693871
 20
94.3287745098
 30
0.0
 10
-1.46215486
 20
95.2988576877
 30
0.0
 10
-2.716070592
 20
95.9071486776
 30
0.0
 10
-4.0236096046
 20
96.3892109197
 30
0.0
 10
-4.9230736721
 20
96.6234261715
 30
0.0
 10
-5.3771679127
 20
96.718093136
 30
0.0
  0
SPLINE
  5
461
100
AcDbEntity
  8
RACCORDO
100
AcDbSpline
 62
250
  6
CONTINUOUS
 70
0
 71
3
 72
31
 73
27
 74
0
 42
0.0000001
 43
0.0000001
 44
0.0000000001
 40
0.0
 40
0.0
 40
0.0
 40
0.0
 40
0.0313270334
 40
0.0626503356
 40
0.0939675399
 40
0.1252757454
 40
0.1877820643
 40
0.2502370689
 40
0.2814833866
 40
0.312718632
 40
0.3439445211
 40
0.3751631202
 40
0.437512694
 40
0.4998597645
 40
0.5622208031
 40
0.6246095837
 40
0.6558550078
 40
0.6871104846
 40
0.7183763633
 40
0.7496526799
 40
0.81215967
 40
0.8747012338
 40
0.906020093
 40
0.9373440013
 40
0.9686708422
 40
1.0
 40
1.0
 40
1.0
 40
1.0
 10
-11.5330930087
 20
67.1888962074
 30
0.0
 10
-11.0199939645
 20
67.081933408
 30
0.0
 10
-9.9825808818
 20
66.9184856718
 30
0.0
 10
-8.4106472928
 20
66.8276617047
 30
0.0
 10
-6.8374272331
 20
66.8918849016
 30
0.0
 10
-4.7613149898
 20
67.1826956648
 30
0.0
 10
-2.2361432746
 20
67.926885258
 30
0.0
 10
0.0937166995
 20
69.1500584058
 30
0.0
 10
1.7844189364
 20
70.3840039181
 30
0.0
 10
2.9563315168
 20
71.4293623663
 30
0.0
 10
4.0199977265
 20
72.5840626782
 30
0.0
 10
5.2795554383
 20
74.2527137099
 30
0.0
 10
6.5385029234
 20
76.5581432599
 30
0.0
 10
7.4809009319
 20
79.5631853416
 30
0.0
 10
7.8213714807
 20
82.6947560432
 30
0.0
 10
7.5908859812
 20
85.3128019991
 30
0.0
 10
7.1041402602
 20
87.3476735425
 30
0.0
 10
6.5908452395
 20
88.8328865804
 30
0.0
 10
5.9341910485
 20
90.2610809311
 30
0.0
 10
4.8768330817
 20
92.069680976
 30
0.0
 10
3.2285405809
 20
94.123503914
 30
0.0
 10
1.20949507
 20
95.8154070972
 30
0.0
 10
-0.5784544541
 20
96.9116460878
 30
0.0
 10
-1.9954015905
 20
97.5990339772
 30
0.0
 10
-3.4729401318
 20
98.1437780544
 30
0.0
 10
-4.489348197
 20
98.4084440185
 30
0.0
 10
-5.0024807638
 20
98.515420172
 30
0.0
  0
SPLINE
  5
462
100
AcDbEntity
  8
RACCORDO
100
AcDbSpline
 62
250
  6
CONTINUOUS
 70
0
 71
3
 72
15
 73
11
 74
0
 42
0.0000001
 43
0.0000001
 44
0.0000000001
 40
0.0
 40
0.0
 40
0.0
 40
0.0
 40
0.1247652567
 40
0.2495892269
 40
0.3744871708
 40
0.499465043
 40
0.6245196776
 40
0.7496397798
 40
0.8748075751
 40
1.0
 40
1.0
 40
1.0
 40
1.0
 10
-121.6508474121
 20
-48.7793181066
 30
0.0
 10
-122.6478724156
 20
-48.9343297205
 30
0.0
 10
-124.6770224948
 20
-49.0555617076
 30
0.0
 10
-127.697234212
 20
-48.6608650163
 30
0.0
 10
-130.5917189617
 20
-47.7034593597
 30
0.0
 10
-133.2549691565
 20
-46.2162040874
 30
0.0
 10
-135.5909153854
 20
-44.2516617616
 30
0.0
 10
-137.5144534008
 20
-41.8794862276
 30
0.0
 10
-138.954962496
 20
-39.1864228341
 30
0.0
 10
-139.5587897489
 20
-37.2386673915
 30
0.0
 10
-139.765420172
 20
-36.2475192362
 30
0.0
  0
SPLINE
  5
463
100
AcDbEntity
  8
RACCORDO
100
AcDbSpline
 62
250
  6
CONTINUOUS
 70
0
 71
3
 72
31
 73
27
 74
0
 42
0.0000001
 43
0.0000001
 44
0.0000000001
 40
0.0
 40
0.0
 40
0.0
 40
0.0
 40
0.0313291633
 40
0.0626560106
 40
0.0939799237
 40
0.1252987834
 40
0.1878403574
 40
0.2503473478
 40
0.2816236669
 40
0.3128895498
 40
0.3441450267
 40
0.3753904517
 40
0.4377792383
 40
0.5001402887
 40
0.562487347
 40
0.6248369368
 40
0.6560555255
 40
0.6872814204
 40
0.7185166712
 40
0.7497629895
 40
0.8122180191
 40
0.8747243445
 40
0.9060325513
 40
0.9373497938
 40
0.9686731165
 40
1.0
 40
1.0
 40
1.0
 40
1.0
 10
-139.765420172
 20
10.2475192362
 30
0.0
 10
-139.6584445088
 20
10.7606519995
 30
0.0
 10
-139.3937775334
 20
11.7770600362
 30
0.0
 10
-138.8490340505
 20
13.2545990482
 30
0.0
 10
-138.1616456953
 20
14.6715462149
 30
0.0
 10
-137.0654065874
 20
16.4594959472
 30
0.0
 10
-135.3735030931
 20
18.4785414755
 30
0.0
 10
-133.3196798297
 20
20.1268339031
 30
0.0
 10
-131.5110796019
 20
21.1841917932
 30
0.0
 10
-130.0828850813
 20
21.8408458945
 30
0.0
 10
-128.5976718979
 20
22.354140765
 30
0.0
 10
-126.5628001809
 20
22.8408862527
 30
0.0
 10
-123.9447538866
 20
23.0713715514
 30
0.0
 10
-120.8131831395
 20
22.7309004277
 30
0.0
 10
-117.8081409504
 20
21.7885019544
 30
0.0
 10
-115.5027116575
 20
20.5295541798
 30
0.0
 10
-113.8340607244
 20
19.2699960279
 30
0.0
 10
-112.6793605147
 20
18.2063296861
 30
0.0
 10
-111.6340021635
 20
17.0344167474
 30
0.0
 10
-110.4000566655
 20
15.3437138583
 30
0.0
 10
-109.1768837911
 20
13.0138531222
 30
0.0
 10
-108.4326946358
 20
10.4886806832
 30
0.0
 10
-108.1418844923
 20
8.412567584
 30
0.0
 10
-108.0776615459
 20
6.8393464908
 30
0.0
 10
-108.1684864905
 20
5.2674144862
 30
0.0
 10
-108.3319338732
 20
4.2300035704
 30
0.0
 10
-108.4388962074
 20
3.7169069913
 30
0.0
  0
SPLINE
  5
464
100
AcDbEntity
  8
RACCORDO
100
AcDbSpline
 62
250
  6
CONTINUOUS
 70
0
 71
3
 72
31
 73
27
 74
0
 42
0.0000001
 43
0.0000001
 44
0.0000000001
 40
0.0
 40
0.0
 40
0.0
 40
0.0
 40
0.0313268038
 40
0.0626501553
 40
0.0939677801
 40
0.1252766526
 40
0.1877854153
 40
0.2502438256
 40
0.2814919324
 40
0.3127288464
 40
0.3439561715
 40
0.3751758299
 40
0.437526359
 40
0.4998730018
 40
0.5622322851
 40
0.6246183995
 40
0.6558623444
 40
0.6871163627
 40
0.7183808591
 40
0.7496559427
 40
0.8121610223
 40
0.8747015611
 40
0.9060201877
 40
0.9373440476
 40
0.9686708814
 40
1.0
 40
1.0
 40
1.0
 40
1.0
 10
-110.2466252786
 20
4.0937626431
 30
0.0
 10
-110.1519695688
 20
4.5478225795
 30
0.0
 10
-110.0073246562
 20
5.465869763
 30
0.0
 10
-109.926902749
 20
6.8569417633
 30
0.0
 10
-109.9836988179
 20
8.2491693305
 30
0.0
 10
-110.2409406105
 20
10.086477431
 30
0.0
 10
-110.8994227426
 20
12.3212370624
 30
0.0
 10
-111.9818186611
 20
14.3831865024
 30
0.0
 10
-113.0738335134
 20
15.8794549328
 30
0.0
 10
-113.9989295001
 20
16.9166181832
 30
0.0
 10
-115.0208597898
 20
17.8579007168
 30
0.0
 10
-116.4975611876
 20
18.9725671807
 30
0.0
 10
-118.5378201325
 20
20.0865731617
 30
0.0
 10
-121.1971421771
 20
20.9203777959
 30
0.0
 10
-123.9683519858
 20
21.2214872818
 30
0.0
 10
-126.2850712879
 20
21.0173882848
 30
0.0
 10
-128.085713425
 20
20.5865733792
 30
0.0
 10
-129.3999586196
 20
20.1322915961
 30
0.0
 10
-130.6637496355
 20
19.5511631214
 30
0.0
 10
-132.2641684965
 20
18.6154434659
 30
0.0
 10
-134.0816009479
 20
17.1567961775
 30
0.0
 10
-135.5787764325
 20
15.3700670981
 30
0.0
 10
-136.5488597018
 20
13.7878412892
 30
0.0
 10
-137.1571506092
 20
12.5339248637
 30
0.0
 10
-137.63921173
 20
11.2263869862
 30
0.0
 10
-137.8734265418
 20
10.3269247642
 30
0.0
 10
-137.968093136
 20
9.8728320873
 30
0.0
  0
SPLINE
  5
465
100
AcDbEntity
  8
RACCORDO
100
AcDbSpline
 62
250
  6
CONTINUOUS
 70
0
 71
3
 72
15
 73
11
 74
0
 42
0.0000001
 43
0.0000001
 44
0.0000000001
 40
0.0
 40
0.0
 40
0.0
 40
0.0
 40
0.1252078286
 40
0.2503879115
 40
0.3755142446
 40
0.500567894
 40
0.6255382028
 40
0.7504247608
 40
0.8752382184
 40
1.0
 40
1.0
 40
1.0
 40
1.0
 10
-137.968093136
 20
-35.8728320873
 30
0.0
 10
-137.7760521277
 20
-36.7940065896
 30
0.0
 10
-137.205793846
 20
-38.602854966
 30
0.0
 10
-135.8303201625
 20
-41.087659143
 30
0.0
 10
-133.9892848536
 20
-43.2501121386
 30
0.0
 10
-131.7572121861
 20
-45.0030593361
 30
0.0
 10
-129.2237047812
 20
-46.2781290656
 30
0.0
 10
-126.489403448
 20
-47.0257548451
 30
0.0
 10
-123.6639577416
 20
-47.2180134257
 30
0.0
 10
-121.7899197284
 20
-46.9707019813
 30
0.0
 10
-120.8770911248
 20
-46.7564855072
 30
0.0
  0
SPLINE
  5
466
100
AcDbEntity
  8
RACCORDO
100
AcDbSpline
 62
250
  6
CONTINUOUS
 70
0
 71
3
 72
31
 73
27
 74
0
 42
0.0000001
 43
0.0000001
 44
0.0000000001
 40
0.0
 40
0.0
 40
0.0
 40
0.0
 40
0.0313291711
 40
0.0626560157
 40
0.0939798659
 40
0.1252984795
 40
0.1878389826
 40
0.2503440698
 40
0.281619149
 40
0.3128836447
 40
0.3441376588
 40
0.3753816031
 40
0.4377677252
 40
0.5001270236
 40
0.5624736498
 40
0.6248241475
 40
0.6560438032
 40
0.6872711145
 40
0.7185080297
 40
0.749756146
 40
0.8122145398
 40
0.8747233352
 40
0.9060322466
 40
0.9373498665
 40
0.9686731919
 40
1.0
 40
1.0
 40
1.0
 40
1.0
 10
81.468093136
 20
9.8728320873
 30
0.0
 10
81.3734264129
 20
10.3269255252
 30
0.0
 10
81.1392113517
 20
11.2263886497
 30
0.0
 10
80.6571496869
 20
12.5339271511
 30
0.0
 10
80.0488587843
 20
13.7878433646
 30
0.0
 10
79.0787754343
 20
15.3700680981
 30
0.0
 10
77.581600287
 20
17.156796479
 30
0.0
 10
75.7641684572
 20
18.6154439045
 30
0.0
 10
74.1637492034
 20
19.5511627742
 30
0.0
 10
72.8999590082
 20
20.1322927616
 30
0.0
 10
71.5857131698
 20
20.5865724833
 30
0.0
 10
69.785071673
 20
21.0173892568
 30
0.0
 10
67.4683520159
 20
21.2214926637
 30
0.0
 10
64.6971428839
 20
20.9203807122
 30
0.0
 10
62.0378194367
 20
20.0865717935
 30
0.0
 10
59.9975786906
 20
18.9725455375
 30
0.0
 10
58.5208430465
 20
17.8579221499
 30
0.0
 10
57.4989536519
 20
16.9165962521
 30
0.0
 10
56.5738179607
 20
15.8794699081
 30
0.0
 10
55.4818316782
 20
14.3831782794
 30
0.0
 10
54.3994183844
 20
12.321241646
 30
0.0
 10
53.7409412696
 20
10.086477417
 30
0.0
 10
53.4836982358
 20
8.2491688944
 30
0.0
 10
53.4269032715
 20
6.8569410807
 30
0.0
 10
53.5073249525
 20
5.4658695478
 30
0.0
 10
53.6519696417
 20
4.5478226538
 30
0.0
 10
53.7466252786
 20
4.0937626431
 30
0.0
  0
SPLINE
  5
467
100
AcDbEntity
  8
RACCORDO
100
AcDbSpline
 62
250
  6
CONTINUOUS
 70
0
 71
3
 72
31
 73
27
 74
0
 42
0.0000001
 43
0.0000001
 44
0.0000000001
 40
0.0
 40
0.0
 40
0.0
 40
0.0
 40
0.0313268028
 40
0.0626501244
 40
0.0939677427
 40
0.1252766527
 40
0.1877854471
 40
0.2502438478
 40
0.2814919507
 40
0.3127288651
 40
0.3439561898
 40
0.3751758453
 40
0.4375263705
 40
0.499873009
 40
0.5622322881
 40
0.6246183982
 40
0.6558623415
 40
0.6871163575
 40
0.7183808507
 40
0.7496559306
 40
0.8121610179
 40
0.8747015221
 40
0.9060201355
 40
0.9373439849
 40
0.9686708295
 40
1.0
 40
1.0
 40
1.0
 40
1.0
 10
53.7466252786
 20
-30.0937626431
 30
0.0
 10
53.6519695752
 20
-30.5478225661
 30
0.0
 10
53.5073247249
 20
-31.4658692955
 30
0.0
 10
53.4269027464
 20
-32.8569407326
 30
0.0
 10
53.4836986991
 20
-34.2491683198
 30
0.0
 10
53.7409405202
 20
-36.0864773628
 30
0.0
 10
54.3994230882
 20
-38.3212378006
 30
0.0
 10
55.481819185
 20
-40.3831874565
 30
0.0
 10
56.5738341157
 20
-41.8794555858
 30
0.0
 10
57.4989300274
 20
-42.9166188268
 30
0.0
 10
58.5208604304
 20
-43.8579011783
 30
0.0
 10
59.9975617487
 20
-44.9725675624
 30
0.0
 10
62.0378206192
 20
-46.0865733495
 30
0.0
 10
64.6971425067
 20
-46.9203778446
 30
0.0
 10
67.4683521291
 20
-47.2214872672
 30
0.0
 10
69.7850712785
 20
-47.0173882829
 30
0.0
 10
71.5857132991
 20
-46.5865734123
 30
0.0
 10
72.8999584003
 20
-46.1322916826
 30
0.0
 10
74.163749307
 20
-45.5511632959
 30
0.0
 10
75.7641682023
 20
-44.6154436807
 30
0.0
 10
77.581600356
 20
-43.1567967244
 30
0.0
 10
79.0787754844
 20
-41.3700681674
 30
0.0
 10
80.0488586575
 20
-39.7878433115
 30
0.0
 10
80.6571496379
 20
-38.5339271361
 30
0.0
 10
81.1392113398
 20
-37.2263886453
 30
0.0
 10
81.373426365
 20
-36.3269255122
 30
0.0
 10
81.468093136
 20
-35.8728320873
 30
0.0
  0
SPLINE
  5
468
100
AcDbEntity
  8
RACCORDO
100
AcDbSpline
 62
250
  6
CONTINUOUS
 70
0
 71
3
 72
31
 73
27
 74
0
 42
0.0000001
 43
0.0000001
 44
0.0000000001
 40
0.0
 40
0.0
 40
0.0
 40
0.0
 40
0.0313291639
 40
0.0626560052
 40
0.0939799157
 40
0.1252987841
 40
0.1878403703
 40
0.2503473676
 40
0.2816236875
 40
0.3128895732
 40
0.3441450524
 40
0.3753904788
 40
0.4377792706
 40
0.5001403186
 40
0.5624873968
 40
0.6248369794
 40
0.6560555813
 40
0.6872814734
 40
0.7185167252
 40
0.7497630458
 40
0.8122180751
 40
0.8747244197
 40
0.9060326305
 40
0.9373498667
 40
0.968673158
 40
1.0
 40
1.0
 40
1.0
 40
1.0
 10
83.265420172
 20
-36.2475192362
 30
0.0
 10
83.1584445053
 20
-36.760652009
 30
0.0
 10
82.8937775588
 20
-37.7770599601
 30
0.0
 10
82.3490341291
 20
-39.2545988459
 30
0.0
 10
81.6616458086
 20
-40.6715460287
 30
0.0
 10
80.5654065517
 20
-42.4594960308
 30
0.0
 10
78.8735027155
 20
-44.4785418954
 30
0.0
 10
76.8196790887
 20
-46.1268344105
 30
0.0
 10
75.0110786572
 20
-47.1841922966
 30
0.0
 10
73.5828840027
 20
-47.8408463461
 30
0.0
 10
72.0976706707
 20
-48.3541411256
 30
0.0
 10
70.0627987641
 20
-48.8408864546
 30
0.0
 10
67.4447523787
 20
-49.0713715779
 30
0.0
 10
64.313181297
 20
-48.7309000429
 30
0.0
 10
61.3081390259
 20
-47.7885012028
 30
0.0
 10
59.002709563
 20
-46.5295528313
 30
0.0
 10
57.3340587887
 20
-45.2699943812
 30
0.0
 10
56.1793585751
 20
-44.2063277628
 30
0.0
 10
55.1340004447
 20
-43.0344146152
 30
0.0
 10
53.9000552236
 20
-41.3437114621
 30
0.0
 10
52.6768826117
 20
-39.0138501994
 30
0.0
 10
51.9326937525
 20
-36.4886772412
 30
0.0
 10
51.6418842321
 20
-34.4125637743
 30
0.0
 10
51.577661505
 20
-32.8393432379
 30
0.0
 10
51.6684868049
 20
-31.2674125861
 30
0.0
 10
51.8319339965
 20
-30.2300028863
 30
0.0
 10
51.9388962074
 20
-29.7169069913
 30
0.0
  0
SPLINE
  5
469
100
AcDbEntity
  8
RACCORDO
100
AcDbSpline
 62
250
  6
CONTINUOUS
 70
0
 71
3
 72
31
 73
27
 74
0
 42
0.0000001
 43
0.0000001
 44
0.0000000001
 40
0.0
 40
0.0
 40
0.0
 40
0.0
 40
0.0313268413
 40
0.0626501325
 40
0.0939673686
 40
0.1252755784
 40
0.1877819225
 40
0.2502369521
 40
0.2814832727
 40
0.3127185245
 40
0.3439444167
 40
0.3751630185
 40
0.437512602
 40
0.4998596808
 40
0.5622207288
 40
0.6246095207
 40
0.6558549472
 40
0.6871104265
 40
0.7183763122
 40
0.7496526322
 40
0.8121596295
 40
0.8747012157
 40
0.9060200841
 40
0.9373439946
 40
0.9686708362
 40
1.0
 40
1.0
 40
1.0
 40
1.0
 10
51.9388962074
 20
3.7169069913
 30
0.0
 10
51.8319339164
 20
4.2300028578
 30
0.0
 10
51.6684868622
 20
5.2674125722
 30
0.0
 10
51.5776614786
 20
6.8393431954
 30
0.0
 10
51.6418842211
 20
8.4125637157
 30
0.0
 10
51.9326937264
 20
10.488677154
 30
0.0
 10
52.6768825648
 20
13.0138500978
 30
0.0
 10
53.9000551582
 20
15.3437113651
 30
0.0
 10
55.1340003702
 20
17.0344145313
 30
0.0
 10
56.1793584928
 20
18.2063276883
 30
0.0
 10
57.3340587023
 20
19.2699943136
 30
0.0
 10
59.0027094779
 20
20.5295527845
 30
0.0
 10
61.308138956
 20
21.7885011794
 30
0.0
 10
64.3131812473
 20
22.7309000333
 30
0.0
 10
67.4447523414
 20
23.0713715772
 30
0.0
 10
70.0627987311
 20
22.8408864562
 30
0.0
 10
72.0976706428
 20
22.3541411293
 30
0.0
 10
73.5828839784
 20
21.8408463506
 30
0.0
 10
75.0110786366
 20
21.1841923007
 30
0.0
 10
76.8196790711
 20
20.1268344133
 30
0.0
 10
78.8735027028
 20
18.4785419005
 30
0.0
 10
80.5654065266
 20
16.4594960324
 30
0.0
 10
81.6616458081
 20
14.6715460415
 30
0.0
 10
82.3490340688
 20
13.2545988307
 30
0.0
 10
82.8937776524
 20
11.7770599861
 30
0.0
 10
83.1584444006
 20
10.7606519859
 30
0.0
 10
83.265420172
 20
10.2475192362
 30
0.0
  0
SPLINE
  5
46A
100
AcDbEntity
  8
RACCORDO
100
AcDbSpline
 62
250
  6
CONTINUOUS
 70
0
 71
3
 72
31
 73
27
 74
0
 42
0.0000001
 43
0.0000001
 44
0.0000000001
 40
0.0
 40
0.0
 40
0.0
 40
0.0
 40
0.0313291462
 40
0.0626559812
 40
0.0939798842
 40
0.1252987406
 40
0.1878403019
 40
0.25034728
 40
0.281623592
 40
0.3128894681
 40
0.3441449446
 40
0.3753903666
 40
0.4377791532
 40
0.5001401818
 40
0.5624872452
 40
0.6248368116
 40
0.6560554029
 40
0.687281292
 40
0.7185165507
 40
0.7497628645
 40
0.8122178824
 40
0.8747241982
 40
0.9060324029
 40
0.9373495994
 40
0.9686728737
 40
1.0
 40
1.0
 40
1.0
 40
1.0
 10
-5.0024807638
 20
-124.515420172
 30
0.0
 10
-4.4893482892
 20
-124.408444525
 30
0.0
 10
-3.4729407093
 20
-124.143777768
 30
0.0
 10
-1.995402289
 20
-123.5990345907
 30
0.0
 10
-0.5784554266
 20
-122.9116466051
 30
0.0
 10
1.2094940755
 20
-121.815407952
 30
0.0
 10
3.2285394518
 20
-120.1235050413
 30
0.0
 10
4.8768320297
 20
-118.0696825924
 30
0.0
 10
5.934190021
 20
-116.2610829308
 30
0.0
 10
6.5908443587
 20
-114.8328887863
 30
0.0
 10
7.1041395899
 20
-113.3476759119
 30
0.0
 10
7.5908856873
 20
-111.3128043926
 30
0.0
 10
7.8213714523
 20
-108.694758561
 30
0.0
 10
7.4809015028
 20
-105.5631879926
 30
0.0
 10
6.5385040754
 20
-102.5581461551
 30
0.0
 10
5.2795572623
 20
-100.2527166822
 30
0.0
 10
4.0200001303
 20
-98.5840655245
 30
0.0
 10
2.956334055
 20
-97.4293649628
 30
0.0
 10
1.7844216234
 20
-96.3840061098
 30
0.0
 10
0.0937193446
 20
-95.1500600087
 30
0.0
 10
-2.236140515
 20
-93.9268863701
 30
0.0
 10
-4.761312255
 20
-93.182696369
 30
0.0
 10
-6.837424257
 20
-92.8918851545
 30
0.0
 10
-8.4106436754
 20
-92.8276619495
 30
0.0
 10
-9.9825783162
 20
-92.9184848995
 30
0.0
 10
-11.0199923568
 20
-93.0819335027
 30
0.0
 10
-11.5330930087
 20
-93.1888962074
 30
0.0
  0
SPLINE
  5
46B
100
AcDbEntity
  8
RACCORDO
100
AcDbSpline
 62
250
  6
CONTINUOUS
 70
0
 71
3
 72
31
 73
27
 74
0
 42
0.0000001
 43
0.0000001
 44
0.0000000001
 40
0.0
 40
0.0
 40
0.0
 40
0.0
 40
0.0313268927
 40
0.062650181
 40
0.0939674145
 40
0.1252756308
 40
0.1877819686
 40
0.2502370124
 40
0.2814833272
 40
0.3127185754
 40
0.3439444667
 40
0.3751630678
 40
0.4375126467
 40
0.4998597224
 40
0.5622207653
 40
0.6246095537
 40
0.6558549758
 40
0.6871104525
 40
0.7183763417
 40
0.7496526629
 40
0.812159655
 40
0.8747012266
 40
0.9060200872
 40
0.9373439965
 40
0.9686708396
 40
1.0
 40
1.0
 40
1.0
 40
1.0
 10
-44.9669069913
 20
-93.1888962074
 30
0.0
 10
-45.4800037135
 20
-93.0819338086
 30
0.0
 10
-46.5174142212
 20
-92.9184865342
 30
0.0
 10
-48.0893456421
 20
-92.8276615399
 30
0.0
 10
-49.6625661657
 20
-92.8918844104
 30
0.0
 10
-51.73867952
 20
-93.1826942735
 30
0.0
 10
-54.2638525721
 20
-93.9268835508
 30
0.0
 10
-56.5937136941
 20
-95.1500565279
 30
0.0
 10
-58.2844166877
 20
-96.3840021118
 30
0.0
 10
-59.4563295158
 20
-97.4293603384
 30
0.0
 10
-60.5199959493
 20
-98.5840606027
 30
0.0
 10
-61.7795540673
 20
-100.2527115189
 30
0.0
 10
-63.038502034
 20
-102.5581410555
 30
0.0
 10
-63.9809004729
 20
-105.5631832553
 30
0.0
 10
-64.321371529
 20
-108.694754196
 30
0.0
 10
-64.0908862153
 20
-111.3128003433
 30
0.0
 10
-63.6041407031
 20
-113.3476720319
 30
0.0
 10
-63.0908458004
 20
-114.83288526
 30
0.0
 10
-62.43419161
 20
-116.2610798896
 30
0.0
 10
-61.3768335915
 20
-118.069680234
 30
0.0
 10
-59.728541064
 20
-120.1235034605
 30
0.0
 10
-57.7094954534
 20
-121.815406826
 30
0.0
 10
-55.9215458084
 20
-122.9116459445
 30
0.0
 10
-54.5045986141
 20
-123.5990338911
 30
0.0
 10
-53.0270599889
 20
-124.1437780238
 30
0.0
 10
-52.0106518457
 20
-124.4084440073
 30
0.0
 10
-51.4975192362
 20
-124.515420172
 30
0.0
  0
SPLINE
  5
46C
100
AcDbEntity
  8
RACCORDO
100
AcDbSpline
 62
250
  6
CONTINUOUS
 70
0
 71
3
 72
31
 73
27
 74
0
 42
0.0000001
 43
0.0000001
 44
0.0000000001
 40
0.0
 40
0.0
 40
0.0
 40
0.0
 40
0.0313292003
 40
0.0626560628
 40
0.0939799063
 40
0.1252985078
 40
0.187839004
 40
0.2503440631
 40
0.281619134
 40
0.3128836194
 40
0.3441376209
 40
0.3753815499
 40
0.4377676377
 40
0.500126907
 40
0.5624735027
 40
0.6248239829
 40
0.6560436456
 40
0.6872709605
 40
0.718507861
 40
0.7497559626
 40
0.8122143494
 40
0.8747230919
 40
0.9060319704
 40
0.9373495428
 40
0.9686728764
 40
1.0
 40
1.0
 40
1.0
 40
1.0
 10
-5.3771679127
 20
-122.718093136
 30
0.0
 10
-4.9230740627
 20
-122.6234262659
 30
0.0
 10
-4.0236102469
 20
-122.3892110804
 30
0.0
 10
-2.7160712636
 20
-121.9071489635
 30
0.0
 10
-1.4621551413
 20
-121.2988579127
 30
0.0
 10
0.1200691851
 20
-120.3287746302
 30
0.0
 10
1.9067969539
 20
-118.8315998378
 30
0.0
 10
3.3654438708
 20
-117.0141684395
 30
0.0
 10
4.3011623988
 20
-115.4137497845
 30
0.0
 10
4.88229224
 20
-114.1499600401
 30
0.0
 10
5.3365720658
 20
-112.8357148265
 30
0.0
 10
5.7673884717
 20
-111.0350741976
 30
0.0
 10
5.9714930386
 20
-108.7183558719
 30
0.0
 10
5.6703819997
 20
-105.9471479872
 30
0.0
 10
4.8365740832
 20
-103.2878254331
 30
0.0
 10
3.7225488461
 20
-101.2475848991
 30
0.0
 10
2.6079267276
 20
-99.7708484335
 30
0.0
 10
1.6666013824
 20
-98.7489585707
 30
0.0
 10
0.6294755577
 20
-97.8238229108
 30
0.0
 10
-0.8668145662
 20
-96.7318354429
 30
0.0
 10
-2.9287501991
 20
-95.6494226805
 30
0.0
 10
-5.1635121857
 20
-94.9909430954
 30
0.0
 10
-7.00081871
 20
-94.7336996282
 30
0.0
 10
-8.3930453315
 20
-94.6769036074
 30
0.0
 10
-9.7841211625
 20
-94.7573227043
 30
0.0
 10
-10.7021727532
 20
-94.9019687824
 30
0.0
 10
-11.1562373569
 20
-94.9966252786
 30
0.0
  0
SPLINE
  5
46D
100
AcDbEntity
  8
RACCORDO
100
AcDbSpline
 62
250
  6
CONTINUOUS
 70
0
 71
3
 72
31
 73
27
 74
0
 42
0.0000001
 43
0.0000001
 44
0.0000000001
 40
0.0
 40
0.0
 40
0.0
 40
0.0
 40
0.031326839
 40
0.0626501708
 40
0.0939677909
 40
0.1252766993
 40
0.1877854435
 40
0.2502438358
 40
0.2814919406
 40
0.3127288519
 40
0.3439561762
 40
0.3751758365
 40
0.4375263637
 40
0.4998730059
 40
0.5622322882
 40
0.6246184022
 40
0.6558623453
 40
0.6871163649
 40
0.7183808567
 40
0.7496559308
 40
0.812161014
 40
0.8747015297
 40
0.9060201523
 40
0.9373440093
 40
0.9686708507
 40
1.0
 40
1.0
 40
1.0
 40
1.0
 10
-45.3437626431
 20
-94.9966252786
 30
0.0
 10
-45.7978230954
 20
-94.9019694837
 30
0.0
 10
-46.7158705029
 20
-94.7573244673
 30
0.0
 10
-48.1069426815
 20
-94.6769028405
 30
0.0
 10
-49.4991704157
 20
-94.7336988709
 30
0.0
 10
-51.3364786998
 20
-94.9909408104
 30
0.0
 10
-53.5712382513
 20
-95.649423228
 30
0.0
 10
-55.6331869876
 20
-96.7318191774
 30
0.0
 10
-57.1294552945
 20
-97.8238336428
 30
0.0
 10
-58.1666182946
 20
-98.7489297865
 30
0.0
 10
-59.1079009682
 20
-99.7708599123
 30
0.0
 10
-60.2225672248
 20
-101.2475614689
 30
0.0
 10
-61.3365732641
 20
-103.287820342
 30
0.0
 10
-62.170377933
 20
-105.9471423482
 30
0.0
 10
-62.471487294
 20
-108.7183521337
 30
0.0
 10
-62.2673883827
 20
-111.0350714071
 30
0.0
 10
-61.8365733273
 20
-112.8357134967
 30
0.0
 10
-61.3822916485
 20
-114.1499586453
 30
0.0
 10
-60.8011632667
 20
-115.4137495023
 30
0.0
 10
-59.8654436251
 20
-117.0141681884
 30
0.0
 10
-58.4067966667
 20
-118.8316003626
 30
0.0
 10
-56.6200679139
 20
-120.3287756525
 30
0.0
 10
-55.0378427085
 20
-121.2988590626
 30
0.0
 10
-53.7839263049
 20
-121.9071500512
 30
0.0
 10
-52.4763879885
 20
-122.3892114918
 30
0.0
 10
-51.5769252179
 20
-122.6234264849
 30
0.0
 10
-51.1228320873
 20
-122.718093136
 30
0.0
  0
ELLIPSE
  5
46E
100
AcDbEntity
  8
ASSI
100
AcDbEllipse
 62
7
  6
CONTINUOUS
 10
133.1620757021
 20
93.7857142857
 30
0.0
 11
-0.0
 21
3.2142857143
 31
0.0
 40
0.9333333333
 41
0.0
 42
0.1377942089
  0
ELLIPSE
  5
46F
100
AcDbEntity
  8
ASSI
100
AcDbEllipse
 62
7
  6
CONTINUOUS
 10
133.1620757021
 20
93.5478022682
 30
0.0
 11
-2.273063759
 21
3.4100516399
 31
0.0
 40
0.5741412044
 41
-0.7219687998
 42
-0.5867543057
  0
ELLIPSE
  5
470
100
AcDbEntity
  8
ASSI
100
AcDbEllipse
 62
7
  6
CONTINUOUS
 10
126.3766133485
 20
116.7574825001
 30
0.0
 11
1.0161890143
 21
0.0449942605
 31
0.0
 40
0.2345105639
 41
-0.0103831571
 42
1.3841851752
  0
ENDSEC
  0
SECTION
  2
OBJECTS
  0
DICTIONARY
  5
C
100
AcDbDictionary
280
0
281
1
  3
ACAD_GROUP
350
D
  3
ACAD_MLINESTYLE
350
17
  3
ACAD_LAYOUT
350
1A
  3
ACAD_PLOTSETTINGS
350
19
  3
ACAD_PLOTSTYLENAME
350
E
  0
DICTIONARY
  5
D
102
{ACAD_REACTORS
330
C
102
}
100
AcDbDictionary
280
0
281
1
  0
ACDBDICTIONARYWDFLT
  5
E
102
{ACAD_REACTORS
330
C
102
}
100
AcDbDictionary
281
1
  3
Normal
350
F
100
AcDbDictionaryWithDefault
340
F
  0
DICTIONARY
  5
17
102
{ACAD_REACTORS
330
C
102
}
100
AcDbDictionary
280
0
281
1
  3
Standard
350
18
  0
DICTIONARY
  5
19
102
{ACAD_REACTORS
330
C
102
}
100
AcDbDictionary
281
1
  0
DICTIONARY
  5
1A
102
{ACAD_REACTORS
330
C
102
}
100
AcDbDictionary
281
1
  3
Model
350
471
  3
Layout1
350
472
  0
ACDBPLACEHOLDER
  5
F
102
{ACAD_REACTORS
330
E
102
}
  0
MLINESTYLE
  5
18
102
{ACAD_REACTORS
330
17
102
}
100
AcDbMlineStyle
  2
STANDARD
 70
0
  3

 62
256
 51
90.0
 52
90.0
 71
2
 49
0.5
 62
256
  6
BYLAYER
 49
-0.5
 62
256
  6
BYLAYER
  0
LAYOUT
  5
471
102
{ACAD_REACTORS
330
1A
102
}
100
AcDbPlotSettings
  1

  2
none_device
  4
ISO_A4_(297.00_x_210.00_MM)
  6

 40
0.0
 41
0.0
 42
0.0
 43
0.0
 44
297.0
 45
210.0
 46
0.0
 47
0.0
 48
0.0
 49
0.0
140
0.0
141
0.0
142
1.0
143
1.0
 70
1024
 72
1
 73
0
 74
0
  7

 75
0
147
1.0
148
0.0
149
0.0
100
AcDbLayout
  1
Model
 70
0
 71
0
 10
0.0
 20
0.0
 11
297.0
 21
210.0
 12
0.0
 22
0.0
 32
0.0
 14
0.0
 24
0.0
 34
0.0
 15
0.0
 25
0.0
 35
0.0
146
0.0
 13
0.0
 23
0.0
 33
0.0
 16
1.0
 26
0.0
 36
0.0
 17
0.0
 27
1.0
 37
0.0
 76
0
330
212
345
0
346
0
  0
LAYOUT
  5
472
102
{ACAD_REACTORS
330
1A
102
}
100
AcDbPlotSettings
  1

  2
none_device
  4
ISO_A4_(297.00_x_210.00_MM)
  6

 40
0.0
 41
0.0
 42
0.0
 43
0.0
 44
297.0
 45
210.0
 46
0.0
 47
0.0
 48
0.0
 49
0.0
140
0.0
141
0.0
142
1.0
143
1.0
 70
0
 72
1
 73
0
 74
0
  7

 75
0
147
1.0
148
0.0
149
0.0
100
AcDbLayout
  1
Layout1
 70
0
 71
1
 10
0.0
 20
0.0
 11
297.0
 21
210.0
 12
0.0
 22
0.0
 32
0.0
 14
0.0
 24
0.0
 34
0.0
 15
0.0
 25
0.0
 35
0.0
146
0.0
 13
0.0
 23
0.0
 33
0.0
 16
1.0
 26
0.0
 36
0.0
 17
0.0
 27
1.0
 37
0.0
 76
0
330
213
345
0
346
0
  0
ENDSEC
  0
EOF
