  0
SECTION
  2
HEADER
  9
$ACADVER
  1
AC1024
  9
$DWGCODEPAGE
  3
ANSI_1252
  9
$EXTMAX
 10
420.0
 20
297.0
 30
0.0
  9
$EXTMIN
 10
0.0
 20
-0.0
 30
0.0
  9
$LIMMIN
 10
0.0
 20
-0.0
  9
$LIMMAX
 10
420.0
 20
297.0
  9
$VIEWCTR
 10
210.0
 20
148.5
  9
$VIEWSIZE
 40
297.0
  9
$CLAYER
  8
0
  9
$LTSCALE
 40
23.1
  9
$CELTYPE
  6
BYLAYER
  9
$DIMSCALE
 40
1.0
  9
$DIMASZ
 40
3.0
  9
$DIMEXO
 40
0.5
  9
$DIMDLI
 40
15.96
  9
$DIMEXE
 40
1.5
  9
$DIMCEN
 40
3.78
  9
$DIMLFAC
 40
1.0
  9
$DIMBLK
  1
_FILLED
  9
$DIMALT
 70
0
  9
$DIMALTF
 40
0.0393700787
  9
$DIMTXT
 40
3.0
  9
$DIMTOL
 70
1
  9
$DIMLIM
 70
0
  9
$DIMTFAC
 40
1.0
  9
$DIMTP
 40
0.01
  9
$DIMTM
 40
0.01
  9
$DIMGAP
 40
0.625
  9
$DIMDSEP
 70
44
  9
$AUNITS
 70
0
  9
$PDMODE
 70
3
  9
$PDSIZE
 40
3.0
  9
$HANDSEED
  5
410
  9
$TILEMODE
 70
1
  9
$MEASUREMENT
 70
1
  9
$INSUNITS
 70
4
  0
ENDSEC
  0
SECTION
  2
CLASSES
  0
CLASS
  1
ACDBDICTIONARYWDFLT
  2
AcDbDictionaryWithDefault
  3
AutoCAD 2000
 90
0
 91
1
280
0
281
0
  0
CLASS
  1
ACDBPLACEHOLDER
  2
AcDbPlaceHolder
  3
AutoCAD 2000
 90
0
 91
1
280
0
281
0
  0
CLASS
  1
LAYOUT
  2
AcDbLayout
  3
AutoCAD 2000
 90
0
 91
0
280
0
281
0
  0
ENDSEC
  0
SECTION
  2
TABLES
  0
TABLE
  2
VPORT
  5
8
100
AcDbSymbolTable
 70
2
  0
VPORT
  5
1F4
100
AcDbSymbolTableRecord
100
AcDbViewportTableRecord
  2
*ACTIVE
 70
0
 10
0.0
 20
0.0
 11
1.0
 21
1.0
 12
210.0
 22
148.5
 13
0.0
 23
0.0
 14
1.0
 24
1.0
 15
0.0
 25
0.0
 16
0.0
 26
0.0
 36
1.0
 17
0.0
 27
0.0
 37
0.0
 40
297.0
 41
1.4141414141
 42
50.0
 43
0.0
 44
0.0
 50
0.0
 51
0.0
 71
0
 72
100
 73
1
 74
1
 75
0
 76
0
 77
0
 78
0
  0
ENDTAB
  0
TABLE
  2
LTYPE
  5
5
100
AcDbSymbolTable
 70
6
  0
LTYPE
  5
14
100
AcDbSymbolTableRecord
100
AcDbLinetypeTableRecord
  2
BYBLOCK
 70
0
  3

 72
65
 73
0
 40
0.0
  0
LTYPE
  5
15
100
AcDbSymbolTableRecord
100
AcDbLinetypeTableRecord
  2
BYLAYER
 70
0
  3

 72
65
 73
0
 40
0.0
  0
LTYPE
  5
16
100
AcDbSymbolTableRecord
100
AcDbLinetypeTableRecord
  2
CONTINUOUS
 70
64
  3
Solid line
 72
65
 73
0
 40
0.0
  0
LTYPE
  5
1F5
100
AcDbSymbolTableRecord
100
AcDbLinetypeTableRecord
  2
CENTER
 70
64
  3
____ _ ____ _ ____ _ ____ _ ____ _ ____ _ ____
 72
65
 73
4
 40
0.6
 49
0.375
 74
0
 49
-0.075
 74
0
 49
0.075
 74
0
 49
-0.075
 74
0
  0
LTYPE
  5
1F6
100
AcDbSymbolTableRecord
100
AcDbLinetypeTableRecord
  2
HIDDEN
 70
64
  3
- - - - - - - - - - - - - - - - - - - -
 72
65
 73
2
 40
0.2
 49
0.1
 74
0
 49
-0.1
 74
0
  0
LTYPE
  5
1F7
100
AcDbSymbolTableRecord
100
AcDbLinetypeTableRecord
  2
PHANTOM
 70
64
  3
_____ _ _ _____ _ _ _____ _ _ _____
 72
65
 73
6
 40
0.8
 49
0.45
 74
0
 49
-0.05
 74
0
 49
0.1
 74
0
 49
-0.05
 74
0
 49
0.1
 74
0
 49
-0.05
 74
0
  0
LTYPE
  5
1F8
100
AcDbSymbolTableRecord
100
AcDbLinetypeTableRecord
  2
DOT
 70
64
  3
. . . . . . . . . . . . . . . . . . . .
 72
65
 73
2
 40
0.2
 49
0.1
 74
0
 49
-0.1
 74
0
  0
LTYPE
  5
1F9
100
AcDbSymbolTableRecord
100
AcDbLinetypeTableRecord
  2
DASHED
 70
64
  3
- - - - - - - - - - - - - - - - - - - -
 72
65
 73
2
 40
0.2
 49
0.1
 74
0
 49
-0.1
 74
0
  0
ENDTAB
  0
TABLE
  2
LAYER
  5
2
100
AcDbSymbolTable
 70
36
  0
LAYER
  5
10
100
AcDbSymbolTableRecord
100
AcDbLayerTableRecord
  2
0
 70
0
 62
7
  6
CONTINUOUS
370
-3
390
F
  0
LAYER
  5
1FA
100
AcDbSymbolTableRecord
100
AcDbLayerTableRecord
  2
DEFAULT_1
 70
0
 62
7
  6
CENTER
370
-3
390
F
  0
LAYER
  5
1FB
100
AcDbSymbolTableRecord
100
AcDbLayerTableRecord
  2
DEFAULT_2
 70
0
 62
7
  6
HIDDEN
370
-3
390
F
  0
LAYER
  5
1FC
100
AcDbSymbolTableRecord
100
AcDbLayerTableRecord
  2
DEFAULT_3
 70
0
 62
7
  6
PHANTOM
370
-3
390
F
  0
LAYER
  5
1FD
100
AcDbSymbolTableRecord
100
AcDbLayerTableRecord
  2
10
 70
0
 62
7
  6
CONTINUOUS
370
-3
390
F
  0
LAYER
  5
1FE
100
AcDbSymbolTableRecord
100
AcDbLayerTableRecord
  2
10_1
 70
0
 62
7
  6
CONTINUOUS
370
-3
390
F
  0
LAYER
  5
1FF
100
AcDbSymbolTableRecord
100
AcDbLayerTableRecord
  2
10_2
 70
0
 62
7
  6
CONTINUOUS
370
-3
390
F
  0
LAYER
  5
200
100
AcDbSymbolTableRecord
100
AcDbLayerTableRecord
  2
10_3
 70
0
 62
7
  6
CONTINUOUS
370
-3
390
F
  0
LAYER
  5
201
100
AcDbSymbolTableRecord
100
AcDbLayerTableRecord
  2
10_4
 70
0
 62
7
  6
CONTINUOUS
370
-3
390
F
  0
LAYER
  5
202
100
AcDbSymbolTableRecord
100
AcDbLayerTableRecord
  2
10_5
 70
0
 62
7
  6
CONTINUOUS
370
-3
390
F
  0
LAYER
  5
203
100
AcDbSymbolTableRecord
100
AcDbLayerTableRecord
  2
11
 70
0
 62
7
  6
CONTINUOUS
370
-3
390
F
  0
LAYER
  5
204
100
AcDbSymbolTableRecord
100
AcDbLayerTableRecord
  2
11_1
 70
0
 62
7
  6
CONTINUOUS
370
-3
390
F
  0
LAYER
  5
205
100
AcDbSymbolTableRecord
100
AcDbLayerTableRecord
  2
11_2
 70
0
 62
7
  6
CONTINUOUS
370
-3
390
F
  0
LAYER
  5
206
100
AcDbSymbolTableRecord
100
AcDbLayerTableRecord
  2
11_3
 70
0
 62
7
  6
CONTINUOUS
370
-3
390
F
  0
LAYER
  5
207
100
AcDbSymbolTableRecord
100
AcDbLayerTableRecord
  2
11_4
 70
0
 62
7
  6
CONTINUOUS
370
-3
390
F
  0
LAYER
  5
208
100
AcDbSymbolTableRecord
100
AcDbLayerTableRecord
  2
11_5
 70
0
 62
7
  6
CONTINUOUS
370
-3
390
F
  0
LAYER
  5
209
100
AcDbSymbolTableRecord
100
AcDbLayerTableRecord
  2
2
 70
0
 62
7
  6
CONTINUOUS
370
-3
390
F
  0
LAYER
  5
20A
100
AcDbSymbolTableRecord
100
AcDbLayerTableRecord
  2
3
 70
0
 62
7
  6
CONTINUOUS
370
-3
390
F
  0
LAYER
  5
20B
100
AcDbSymbolTableRecord
100
AcDbLayerTableRecord
  2
4
 70
0
 62
7
  6
CONTINUOUS
370
-3
390
F
  0
LAYER
  5
20C
100
AcDbSymbolTableRecord
100
AcDbLayerTableRecord
  2
4_1
 70
0
 62
7
  6
CONTINUOUS
370
-3
390
F
  0
LAYER
  5
20D
100
AcDbSymbolTableRecord
100
AcDbLayerTableRecord
  2
4_2
 70
0
 62
7
  6
CONTINUOUS
370
-3
390
F
  0
LAYER
  5
20E
100
AcDbSymbolTableRecord
100
AcDbLayerTableRecord
  2
5
 70
0
 62
7
  6
CONTINUOUS
370
-3
390
F
  0
LAYER
  5
20F
100
AcDbSymbolTableRecord
100
AcDbLayerTableRecord
  2
6
 70
0
 62
7
  6
CONTINUOUS
370
-3
390
F
  0
LAYER
  5
210
100
AcDbSymbolTableRecord
100
AcDbLayerTableRecord
  2
7
 70
0
 62
7
  6
CONTINUOUS
370
-3
390
F
  0
LAYER
  5
211
100
AcDbSymbolTableRecord
100
AcDbLayerTableRecord
  2
9
 70
0
 62
7
  6
CONTINUOUS
370
-3
390
F
  0
LAYER
  5
212
100
AcDbSymbolTableRecord
100
AcDbLayerTableRecord
  2
ASSI
 70
0
 62
7
  6
CONTINUOUS
370
-3
390
F
  0
LAYER
  5
213
100
AcDbSymbolTableRecord
100
AcDbLayerTableRecord
  2
COLOR1
 70
0
 62
7
  6
CONTINUOUS
370
-3
390
F
  0
LAYER
  5
214
100
AcDbSymbolTableRecord
100
AcDbLayerTableRecord
  2
COLOR10
 70
0
 62
7
  6
CONTINUOUS
370
-3
390
F
  0
LAYER
  5
215
100
AcDbSymbolTableRecord
100
AcDbLayerTableRecord
  2
COLOR17
 70
0
 62
7
  6
CONTINUOUS
370
-3
390
F
  0
LAYER
  5
216
100
AcDbSymbolTableRecord
100
AcDbLayerTableRecord
  2
COLOR5
 70
0
 62
7
  6
CONTINUOUS
370
-3
390
F
  0
LAYER
  5
217
100
AcDbSymbolTableRecord
100
AcDbLayerTableRecord
  2
COORDINATE
 70
0
 62
7
  6
CONTINUOUS
370
-3
390
F
  0
LAYER
  5
218
100
AcDbSymbolTableRecord
100
AcDbLayerTableRecord
  2
COPY_PUBLISH
 70
0
 62
7
  6
CONTINUOUS
370
-3
390
F
  0
LAYER
  5
219
100
AcDbSymbolTableRecord
100
AcDbLayerTableRecord
  2
COSMETICI
 70
0
 62
7
  6
CONTINUOUS
370
-3
390
F
  0
LAYER
  5
21A
100
AcDbSymbolTableRecord
100
AcDbLayerTableRecord
  2
CURVE
 70
0
 62
7
  6
CONTINUOUS
370
-3
390
F
  0
LAYER
  5
21B
100
AcDbSymbolTableRecord
100
AcDbLayerTableRecord
  2
DRAFT
 70
0
 62
7
  6
CONTINUOUS
370
-3
390
F
  0
LAYER
  5
21C
100
AcDbSymbolTableRecord
100
AcDbLayerTableRecord
  2
IMPORT_IGES
 70
0
 62
7
  6
CONTINUOUS
370
-3
390
F
  0
LAYER
  5
21D
100
AcDbSymbolTableRecord
100
AcDbLayerTableRecord
  2
INTF_10
 70
0
 62
7
  6
CONTINUOUS
370
-3
390
F
  0
LAYER
  5
21E
100
AcDbSymbolTableRecord
100
AcDbLayerTableRecord
  2
INTF_11
 70
0
 62
7
  6
CONTINUOUS
370
-3
390
F
  0
LAYER
  5
21F
100
AcDbSymbolTableRecord
100
AcDbLayerTableRecord
  2
INTF_2
 70
0
 62
7
  6
CONTINUOUS
370
-3
390
F
  0
LAYER
  5
220
100
AcDbSymbolTableRecord
100
AcDbLayerTableRecord
  2
INTF_3
 70
0
 62
7
  6
CONTINUOUS
370
-3
390
F
  0
LAYER
  5
221
100
AcDbSymbolTableRecord
100
AcDbLayerTableRecord
  2
INTF_4
 70
0
 62
7
  6
CONTINUOUS
370
-3
390
F
  0
LAYER
  5
222
100
AcDbSymbolTableRecord
100
AcDbLayerTableRecord
  2
INTF_5
 70
0
 62
7
  6
CONTINUOUS
370
-3
390
F
  0
LAYER
  5
223
100
AcDbSymbolTableRecord
100
AcDbLayerTableRecord
  2
INTF_6
 70
0
 62
7
  6
CONTINUOUS
370
-3
390
F
  0
LAYER
  5
224
100
AcDbSymbolTableRecord
100
AcDbLayerTableRecord
  2
INTF_7
 70
0
 62
7
  6
CONTINUOUS
370
-3
390
F
  0
LAYER
  5
225
100
AcDbSymbolTableRecord
100
AcDbLayerTableRecord
  2
INTF_9
 70
0
 62
7
  6
CONTINUOUS
370
-3
390
F
  0
LAYER
  5
226
100
AcDbSymbolTableRecord
100
AcDbLayerTableRecord
  2
INTF_YELLOW
 70
0
 62
7
  6
CONTINUOUS
370
-3
390
F
  0
LAYER
  5
227
100
AcDbSymbolTableRecord
100
AcDbLayerTableRecord
  2
NOTE
 70
0
 62
7
  6
CONTINUOUS
370
-3
390
F
  0
LAYER
  5
228
100
AcDbSymbolTableRecord
100
AcDbLayerTableRecord
  2
PIANI
 70
0
 62
7
  6
CONTINUOUS
370
-3
390
F
  0
LAYER
  5
229
100
AcDbSymbolTableRecord
100
AcDbLayerTableRecord
  2
PUNTI
 70
0
 62
7
  6
CONTINUOUS
370
-3
390
F
  0
LAYER
  5
22A
100
AcDbSymbolTableRecord
100
AcDbLayerTableRecord
  2
RACCORDO
 70
0
 62
7
  6
CONTINUOUS
370
-3
390
F
  0
LAYER
  5
22B
100
AcDbSymbolTableRecord
100
AcDbLayerTableRecord
  2
SIMBOLI
 70
0
 62
7
  6
CONTINUOUS
370
-3
390
F
  0
LAYER
  5
22C
100
AcDbSymbolTableRecord
100
AcDbLayerTableRecord
  2
SMUSSO
 70
0
 62
7
  6
CONTINUOUS
370
-3
390
F
  0
LAYER
  5
22D
100
AcDbSymbolTableRecord
100
AcDbLayerTableRecord
  2
SNAPLINE
 70
0
 62
7
  6
CONTINUOUS
370
-3
390
F
  0
LAYER
  5
22E
100
AcDbSymbolTableRecord
100
AcDbLayerTableRecord
  2
SUPERFICI
 70
0
 62
7
  6
CONTINUOUS
370
-3
390
F
  0
LAYER
  5
22F
100
AcDbSymbolTableRecord
100
AcDbLayerTableRecord
  2
TRASH
 70
0
 62
7
  6
CONTINUOUS
370
-3
390
F
  0
LAYER
  5
230
100
AcDbSymbolTableRecord
100
AcDbLayerTableRecord
  2
VIMAR-IS-03K_1
 70
0
 62
7
  6
CONTINUOUS
370
-3
390
F
  0
LAYER
  5
231
100
AcDbSymbolTableRecord
100
AcDbLayerTableRecord
  2
VIMAR-IS-03K_1_10
 70
0
 62
7
  6
CONTINUOUS
370
-3
390
F
  0
LAYER
  5
232
100
AcDbSymbolTableRecord
100
AcDbLayerTableRecord
  2
VIMAR-IS-03K_1_11
 70
0
 62
7
  6
CONTINUOUS
370
-3
390
F
  0
LAYER
  5
233
100
AcDbSymbolTableRecord
100
AcDbLayerTableRecord
  2
VIMAR-IS-03K_1_43
 70
0
 62
7
  6
CONTINUOUS
370
-3
390
F
  0
LAYER
  5
234
100
AcDbSymbolTableRecord
100
AcDbLayerTableRecord
  2
VIMAR-IS-03K_1_44
 70
0
 62
7
  6
CONTINUOUS
370
-3
390
F
  0
LAYER
  5
235
100
AcDbSymbolTableRecord
100
AcDbLayerTableRecord
  2
VIMAR-IS-03K_1_45
 70
0
 62
7
  6
CONTINUOUS
370
-3
390
F
  0
LAYER
  5
236
100
AcDbSymbolTableRecord
100
AcDbLayerTableRecord
  2
VIMAR-IS-03K_1_46
 70
0
 62
7
  6
CONTINUOUS
370
-3
390
F
  0
LAYER
  5
237
100
AcDbSymbolTableRecord
100
AcDbLayerTableRecord
  2
VIMAR-IS-03K_1_47
 70
0
 62
7
  6
CONTINUOUS
370
-3
390
F
  0
LAYER
  5
238
100
AcDbSymbolTableRecord
100
AcDbLayerTableRecord
  2
VIMAR-IS-03K_1_48
 70
0
 62
7
  6
CONTINUOUS
370
-3
390
F
  0
LAYER
  5
239
100
AcDbSymbolTableRecord
100
AcDbLayerTableRecord
  2
VIMAR-IS-03K_1_6
 70
0
 62
7
  6
CONTINUOUS
370
-3
390
F
  0
LAYER
  5
23A
100
AcDbSymbolTableRecord
100
AcDbLayerTableRecord
  2
VIMAR-IS-03K_1_7
 70
0
 62
7
  6
CONTINUOUS
370
-3
390
F
  0
LAYER
  5
23B
100
AcDbSymbolTableRecord
100
AcDbLayerTableRecord
  2
VIMAR-IS-03K_1_8
 70
0
 62
7
  6
CONTINUOUS
370
-3
390
F
  0
LAYER
  5
23C
100
AcDbSymbolTableRecord
100
AcDbLayerTableRecord
  2
VIMAR-IS-03K_1_9
 70
0
 62
7
  6
CONTINUOUS
370
-3
390
F
  0
LAYER
  5
23D
100
AcDbSymbolTableRecord
100
AcDbLayerTableRecord
  2
___SHELL
 70
0
 62
7
  6
CONTINUOUS
370
-3
390
F
  0
ENDTAB
  0
TABLE
  2
STYLE
  5
3
100
AcDbSymbolTable
 70
1
  0
STYLE
  5
11
100
AcDbSymbolTableRecord
100
AcDbTextStyleTableRecord
  2
STANDARD
 70
0
 40
0.0
 41
0.8
 50
0.0
 71
0
 42
0.2
  3
txt
  4

  0
STYLE
  5
23E
100
AcDbSymbolTableRecord
100
AcDbTextStyleTableRecord
  2
TEXTSTYLE_1
 70
0
 40
0.0
 41
0.8
 50
0.0
 71
0
 42
0.2
  3
gdt
  4

  0
ENDTAB
  0
TABLE
  2
VIEW
  5
6
100
AcDbSymbolTable
 70
0
  0
ENDTAB
  0
TABLE
  2
UCS
  5
7
100
AcDbSymbolTable
 70
0
  0
ENDTAB
  0
TABLE
  2
APPID
  5
9
100
AcDbSymbolTable
 70
1
  0
APPID
  5
23F
100
AcDbSymbolTableRecord
100
AcDbRegAppTableRecord
  2
ACAD
 70
0
  0
ENDTAB
  0
TABLE
  2
BLOCK_RECORD
  5
1
100
AcDbSymbolTable
 70
0
  0
BLOCK_RECORD
  5
240
100
AcDbSymbolTableRecord
100
AcDbBlockTableRecord
  2
*Model_Space
  0
BLOCK_RECORD
  5
241
100
AcDbSymbolTableRecord
100
AcDbBlockTableRecord
  2
*Paper_Space
  0
BLOCK_RECORD
  5
242
100
AcDbSymbolTableRecord
100
AcDbBlockTableRecord
  2
_FILLED
  0
ENDTAB
  0
TABLE
  2
DIMSTYLE
  5
A
100
AcDbSymbolTable
 70
1
100
AcDbDimStyleTable
 71
0
  0
DIMSTYLE
105
243
100
AcDbSymbolTableRecord
100
AcDbDimStyleTableRecord
  2
STANDARD
 70
0
  3

  4

 40
1.0
 41
3.0
 42
0.5
 43
0.38
 44
1.5
 45
0.0
 46
0.0
 47
0.01
 48
0.01
140
3.0
141
0.09
142
0.0
143
25.4
144
1.0
145
0.0
146
1.0
147
0.625
 71
1
 72
0
 73
0
 74
0
 75
0
 76
0
 77
1
 78
8
 79
2
170
0
171
1
172
0
173
0
174
0
175
0
176
0
177
0
178
0
270
2
179
2
271
2
272
2
273
2
274
2
275
0
280
0
281
0
282
0
283
1
284
8
285
0
286
0
287
3
288
0
340
11
278
44
341
242
342
242
343
242
344
242
  0
ENDTAB
  0
ENDSEC
  0
SECTION
  2
BLOCKS
  0
BLOCK
  5
20
100
AcDbEntity
  8
0
100
AcDbBlockBegin
  2
*Model_Space
 70
0
 10
0.0
 20
0.0
 30
0.0
  3
*Model_Space
  1

  0
ENDBLK
  5
21
100
AcDbEntity
  8
0
100
AcDbBlockEnd
  0
BLOCK
  5
1C
100
AcDbEntity
  8
0
100
AcDbBlockBegin
  2
*Paper_Space
 70
0
 10
0.0
 20
0.0
 30
0.0
  3
*Paper_Space
  1

  0
ENDBLK
  5
1D
100
AcDbEntity
  8
0
100
AcDbBlockEnd
  0
BLOCK
  5
244
100
AcDbEntity
  8
0
100
AcDbBlockBegin
  2
_FILLED
 70
64
 10
0.0
 20
0.0
  3
_FILLED
  1

  0
SOLID
  5
245
100
AcDbEntity
  8
0
  6
BYBLOCK
 62
0
100
AcDbTrace
 10
0.0
 20
0.0
 11
-1.0
 21
0.3166666667
 12
-1.0
 22
-0.3166666667
 13
-1.0
 23
-0.3166666667
  0
ENDBLK
  5
246
100
AcDbEntity
  8
0
  6
BYBLOCK
 62
0
100
AcDbBlockEnd
  0
ENDSEC
  0
SECTION
  2
ENTITIES
  0
LINE
  5
247
100
AcDbEntity
  8
IMPORT_IGES
100
AcDbLine
 62
7
  6
CONTINUOUS
 10
67.9933861831
 20
137.1244457475
 11
67.9933861831
 21
139.0144750864
  0
LINE
  5
248
100
AcDbEntity
  8
IMPORT_IGES
100
AcDbLine
 62
7
  6
CONTINUOUS
 10
67.9933861831
 20
140.1144750864
 11
67.9933861831
 21
142.0045044146
  0
LINE
  5
249
100
AcDbEntity
  8
IMPORT_IGES
100
AcDbLine
 62
7
  6
CONTINUOUS
 10
67.9933861831
 20
178.1244457179
 11
67.9933861831
 21
180.0144750567
  0
LINE
  5
24A
100
AcDbEntity
  8
IMPORT_IGES
100
AcDbLine
 62
7
  6
CONTINUOUS
 10
67.9933861831
 20
181.1144750567
 11
67.9933861831
 21
183.0045043849
  0
LINE
  5
24B
100
AcDbEntity
  8
IMPORT_IGES
100
AcDbLine
 62
250
  6
CONTINUOUS
 10
69.045372287
 20
133.1896965762
 11
69.0453727584
 21
131.0639079378
  0
LINE
  5
24C
100
AcDbEntity
  8
IMPORT_IGES
100
AcDbLine
 62
250
  6
CONTINUOUS
 10
69.0454293188
 20
189.0650422192
 11
69.0454291274
 21
186.9392534132
  0
LINE
  5
24D
100
AcDbEntity
  8
IMPORT_IGES
100
AcDbLine
 62
7
  6
CONTINUOUS
 10
69.0822387902
 20
137.1244457582
 11
69.0822387902
 21
139.0144750864
  0
LINE
  5
24E
100
AcDbEntity
  8
IMPORT_IGES
100
AcDbLine
 62
7
  6
CONTINUOUS
 10
69.0822387902
 20
140.1144750864
 11
69.0822387902
 21
142.0045044252
  0
LINE
  5
24F
100
AcDbEntity
  8
IMPORT_IGES
100
AcDbLine
 62
7
  6
CONTINUOUS
 10
69.0822387902
 20
178.1244457286
 11
69.0822387902
 21
180.0144750567
  0
LINE
  5
250
100
AcDbEntity
  8
IMPORT_IGES
100
AcDbLine
 62
7
  6
CONTINUOUS
 10
69.0822387902
 20
181.1144750567
 11
69.0822387902
 21
183.0045043956
  0
LINE
  5
251
100
AcDbEntity
  8
IMPORT_IGES
100
AcDbLine
 62
7
  6
CONTINUOUS
 10
75.333498801
 20
148.6432404572
 11
75.333498801
 21
154.8450324572
  0
LINE
  5
252
100
AcDbEntity
  8
IMPORT_IGES
100
AcDbLine
 62
7
  6
CONTINUOUS
 10
76.843682301
 20
154.8450324572
 11
76.843682301
 21
148.6432404572
  0
LINE
  5
253
100
AcDbEntity
  8
IMPORT_IGES
100
AcDbLine
 62
7
  6
CONTINUOUS
 10
78.1808749466
 20
166.7206090872
 11
78.1808749466
 21
168.5068522872
  0
LINE
  5
254
100
AcDbEntity
  8
IMPORT_IGES
100
AcDbLine
 62
7
  6
CONTINUOUS
 10
79.0962114782
 20
152.5155307694
 11
79.0962114782
 21
152.9121943683
  0
LINE
  5
255
100
AcDbEntity
  8
IMPORT_IGES
100
AcDbLine
 62
7
  6
CONTINUOUS
 10
79.0988749466
 20
168.5068528027
 11
79.0988749466
 21
166.7206090872
  0
LINE
  5
256
100
AcDbEntity
  8
IMPORT_IGES
100
AcDbLine
 62
7
  6
CONTINUOUS
 10
79.4182764388
 20
151.0076883054
 11
79.4182764388
 21
152.5155307694
  0
LWPOLYLINE
  5
257
100
AcDbEntity
  8
IMPORT_IGES
100
AcDbPolyline
 62
7
  6
CONTINUOUS
 90
10
 70
0
 10
85.2467721933
 20
152.0711507381
 10
85.2428283726
 20
152.1273361743
 10
85.2382733956
 20
152.1826943936
 10
85.2331072621
 20
152.2372253957
 10
85.227341729
 20
152.2909468941
 10
85.2209650396
 20
152.3438411754
 10
85.2139419229
 20
152.3958550998
 10
85.206260622
 20
152.446970954
 10
85.1979328939
 20
152.4972064513
 10
85.1889587386
 20
152.5465615917
  0
LINE
  5
258
100
AcDbEntity
  8
IMPORT_IGES
100
AcDbLine
 62
7
  6
CONTINUOUS
 10
79.6323150199
 20
151.0747910828
 11
79.6323150197
 21
152.8023661154
  0
LINE
  5
259
100
AcDbEntity
  8
IMPORT_IGES
100
AcDbLine
 62
7
  6
CONTINUOUS
 10
82.905711801
 20
150.9732308208
 11
82.905711801
 21
152.1068634572
  0
LINE
  5
25A
100
AcDbEntity
  8
IMPORT_IGES
100
AcDbLine
 62
7
  6
CONTINUOUS
 10
83.3249770083
 20
149.5522289364
 11
83.3249770083
 21
150.0397592031
  0
LINE
  5
25B
100
AcDbEntity
  8
IMPORT_IGES
100
AcDbLine
 62
7
  6
CONTINUOUS
 10
83.333823801
 20
152.1068634572
 11
83.333823801
 21
150.7957509572
  0
LINE
  5
25C
100
AcDbEntity
  8
IMPORT_IGES
100
AcDbLine
 62
7
  6
CONTINUOUS
 10
83.517449301
 20
149.7395619572
 11
83.517449301
 21
150.0218484572
  0
LINE
  5
25D
100
AcDbEntity
  8
IMPORT_IGES
100
AcDbLine
 62
7
  6
CONTINUOUS
 10
84.071318301
 20
150.1852284572
 11
84.071318301
 21
150.2785554572
  0
LINE
  5
25E
100
AcDbEntity
  8
IMPORT_IGES
100
AcDbLine
 62
7
  6
CONTINUOUS
 10
84.0713368302
 20
149.970209076
 11
84.0713368302
 21
149.827754398
  0
LINE
  5
25F
100
AcDbEntity
  8
IMPORT_IGES
100
AcDbLine
 62
7
  6
CONTINUOUS
 10
84.395096301
 20
153.2120529572
 11
84.395096301
 21
150.1550634572
  0
LINE
  5
260
100
AcDbEntity
  8
IMPORT_IGES
100
AcDbLine
 62
7
  6
CONTINUOUS
 10
84.4039615298
 20
153.4276596573
 11
84.4039615298
 21
153.6855256731
  0
LINE
  5
261
100
AcDbEntity
  8
IMPORT_IGES
100
AcDbLine
 62
7
  6
CONTINUOUS
 10
84.6180175306
 20
153.6855256731
 11
84.6180175306
 21
153.4586442548
  0
LINE
  5
262
100
AcDbEntity
  8
IMPORT_IGES
100
AcDbLine
 62
7
  6
CONTINUOUS
 10
84.6180175306
 20
150.1634656901
 11
84.6180175306
 21
152.6508683205
  0
LINE
  5
263
100
AcDbEntity
  8
IMPORT_IGES
100
AcDbLine
 62
7
  6
CONTINUOUS
 10
84.8052991115
 20
152.0711507381
 11
84.8052991115
 21
151.0187272427
  0
LINE
  5
264
100
AcDbEntity
  8
IMPORT_IGES
100
AcDbLine
 62
7
  6
CONTINUOUS
 10
85.1889587386
 20
153.016636599
 11
85.1889587386
 21
152.5465615917
  0
LINE
  5
265
100
AcDbEntity
  8
IMPORT_IGES
100
AcDbLine
 62
7
  6
CONTINUOUS
 10
85.3315375334
 20
152.0711507381
 11
85.3315375334
 21
151.0187272427
  0
LWPOLYLINE
  5
266
100
AcDbEntity
  8
IMPORT_IGES
100
AcDbPolyline
 62
7
  6
CONTINUOUS
 90
37
 70
0
 10
85.00508493
 20
151.0187359527
 10
84.9983817023
 20
150.9701075793
 10
84.9913196608
 20
150.9232364837
 10
84.9838988054
 20
150.8781226656
 10
84.9760992588
 20
150.8348186905
 10
84.9679408983
 20
150.793271993
 10
84.9594833559
 20
150.7533248775
 10
84.9507571051
 20
150.7149504295
 10
84.9417316724
 20
150.6781755635
 10
84.9323752695
 20
150.6429233273
 10
84.9226555948
 20
150.6091980101
 10
84.9126049499
 20
150.5769953227
 10
84.9022884514
 20
150.546225445
 10
84.8916989448
 20
150.5168992082
 10
84.8808435845
 20
150.4890057811
 10
84.8698089499
 20
150.4624228503
 10
84.8586152671
 20
150.4371381124
 10
84.8472423101
 20
150.4131638708
 10
84.83571598
 20
150.3904147216
 10
84.8240285846
 20
150.3688835793
 10
84.8121878162
 20
150.3485775294
 10
84.8002426519
 20
150.3294324242
 10
84.7881799909
 20
150.3114449526
 10
84.7760129341
 20
150.2946184257
 10
84.7638297618
 20
150.2788986293
 10
84.751646795
 20
150.264313343
 10
84.7394477128
 20
150.2508347871
 10
84.7272718326
 20
150.238325409
 10
84.7151374565
 20
150.2267926201
 10
84.7030262823
 20
150.2162290089
 10
84.6909227209
 20
150.206474789
 10
84.6788368542
 20
150.1975197138
 10
84.6667586003
 20
150.1893740298
 10
84.6546421245
 20
150.1819086901
 10
84.6424721485
 20
150.1750806791
 10
84.6302639505
 20
150.1689330125
 10
84.6180175306
 20
150.1634656901
  0
LWPOLYLINE
  5
267
100
AcDbEntity
  8
IMPORT_IGES
100
AcDbPolyline
 62
7
  6
CONTINUOUS
 90
10
 70
0
 10
84.9435969605
 20
152.6508683205
 10
84.9568537454
 20
152.5919667511
 10
84.9691001137
 20
152.5316594482
 10
84.9803360655
 20
152.4699464119
 10
84.990522238
 20
152.4067904961
 10
84.9996979939
 20
152.3422288468
 10
85.0079814217
 20
152.2763729026
 10
85.015411884
 20
152.2092598094
 10
85.0219500182
 20
152.1408524213
 10
85.0275958241
 20
152.0711507381
  0
LWPOLYLINE
  5
268
100
AcDbEntity
  8
IMPORT_IGES
100
AcDbPolyline
 62
7
  6
CONTINUOUS
 90
16
 70
0
 10
85.0474861087
 20
153.016636599
 10
85.0248308213
 20
153.0640689039
 10
85.0010291573
 20
153.1090588551
 10
84.9760811167
 20
153.1516064527
 10
84.9499216864
 20
153.1917729174
 10
84.9226158795
 20
153.2294970285
 10
84.8943587359
 20
153.2645951237
 10
84.8650368588
 20
153.2970643901
 10
84.834763645
 20
153.3269076405
 10
84.8040743247
 20
153.3539496519
 10
84.7729344598
 20
153.3780720538
 10
84.7413784884
 20
153.3993932166
 10
84.7100449553
 20
153.4180930292
 10
84.6791467088
 20
153.4342314546
 10
84.6484709006
 20
153.4477485298
 10
84.6180175306
 20
153.4586442548
  0
LINE
  5
269
100
AcDbEntity
  8
IMPORT_IGES
100
AcDbLine
 62
7
  6
CONTINUOUS
 10
78.3659919648
 20
148.5194559279
 11
78.5036684783
 21
148.3743863579
  0
LINE
  5
26A
100
AcDbEntity
  8
IMPORT_IGES
100
AcDbLine
 62
7
  6
CONTINUOUS
 10
79.6405054995
 20
149.8496842194
 11
79.6961819769
 21
149.782489439
  0
LINE
  5
26B
100
AcDbEntity
  8
IMPORT_IGES
100
AcDbLine
 62
7
  6
CONTINUOUS
 10
78.4835473797
 20
155.3188262644
 11
78.3433672122
 21
155.1761745184
  0
LINE
  5
26C
100
AcDbEntity
  8
IMPORT_IGES
100
AcDbLine
 62
7
  6
CONTINUOUS
 10
81.9423677728
 20
151.6395037077
 11
83.3542445076
 21
150.2520498556
  0
LINE
  5
26D
100
AcDbEntity
  8
IMPORT_IGES
100
AcDbLine
 62
7
  6
CONTINUOUS
 10
78.3433672122
 20
155.1761745184
 11
80.467297706
 21
153.0890162212
  0
LINE
  5
26E
100
AcDbEntity
  8
IMPORT_IGES
100
AcDbLine
 62
7
  6
CONTINUOUS
 10
83.5959255
 20
150.0145295386
 11
83.8757378219
 21
149.7395619572
  0
LINE
  5
26F
100
AcDbEntity
  8
IMPORT_IGES
100
AcDbLine
 62
7
  6
CONTINUOUS
 10
84.0663715222
 20
149.5522289364
 11
85.6981534587
 21
147.9487000803
  0
LINE
  5
270
100
AcDbEntity
  8
IMPORT_IGES
100
AcDbLine
 62
7
  6
CONTINUOUS
 10
80.668311464
 20
152.8914795074
 11
81.7996242259
 21
151.7797620691
  0
LINE
  5
271
100
AcDbEntity
  8
IMPORT_IGES
100
AcDbLine
 62
7
  6
CONTINUOUS
 10
83.612615301
 20
150.2785554572
 11
83.0863157829
 21
150.7957509572
  0
LINE
  5
272
100
AcDbEntity
  8
IMPORT_IGES
100
AcDbLine
 62
7
  6
CONTINUOUS
 10
82.905711801
 20
150.9732308208
 11
82.087482801
 21
151.7773059572
  0
LINE
  5
273
100
AcDbEntity
  8
IMPORT_IGES
100
AcDbLine
 62
7
  6
CONTINUOUS
 10
80.7296732038
 20
153.1115882385
 11
78.4835473797
 21
155.3188262644
  0
LINE
  5
274
100
AcDbEntity
  8
IMPORT_IGES
100
AcDbLine
 62
7
  6
CONTINUOUS
 10
85.9834987983
 20
147.9487000803
 11
84.0713368302
 21
149.827754398
  0
LINE
  5
275
100
AcDbEntity
  8
IMPORT_IGES
100
AcDbLine
 62
7
  6
CONTINUOUS
 10
81.944739316
 20
151.9175643696
 11
80.930706801
 21
152.9140329572
  0
LINE
  5
276
100
AcDbEntity
  8
IMPORT_IGES
100
AcDbLine
 62
7
  6
CONTINUOUS
 10
85.6643031797
 20
155.4493472072
 11
83.4485610399
 21
153.3454662072
  0
LINE
  5
277
100
AcDbEntity
  8
IMPORT_IGES
100
AcDbLine
 62
7
  6
CONTINUOUS
 10
83.1997584685
 20
153.1092219199
 11
81.944739316
 21
151.9175643696
  0
LINE
  5
278
100
AcDbEntity
  8
IMPORT_IGES
100
AcDbLine
 62
7
  6
CONTINUOUS
 10
79.6961819769
 20
149.782489439
 11
78.3659919648
 21
148.5194559279
  0
LINE
  5
279
100
AcDbEntity
  8
IMPORT_IGES
100
AcDbLine
 62
7
  6
CONTINUOUS
 10
81.7996242259
 20
151.7797620691
 11
80.4734238028
 21
150.5205189991
  0
LINE
  5
27A
100
AcDbEntity
  8
IMPORT_IGES
100
AcDbLine
 62
7
  6
CONTINUOUS
 10
83.7679656234
 20
153.372950215
 11
85.9547624596
 21
155.4493472072
  0
LINE
  5
27B
100
AcDbEntity
  8
IMPORT_IGES
100
AcDbLine
 62
7
  6
CONTINUOUS
 10
82.087482801
 20
151.7773059572
 11
83.519160801
 21
153.1367034572
  0
LINE
  5
27C
100
AcDbEntity
  8
IMPORT_IGES
100
AcDbLine
 62
7
  6
CONTINUOUS
 10
78.5036684783
 20
148.3743863579
 11
80.531760027
 21
150.3000868716
  0
LINE
  5
27D
100
AcDbEntity
  8
IMPORT_IGES
100
AcDbLine
 62
7
  6
CONTINUOUS
 10
80.737931301
 20
150.4958769572
 11
81.9423677728
 21
151.6395037077
  0
LWPOLYLINE
  5
27E
100
AcDbEntity
  8
IMPORT_IGES
100
AcDbPolyline
 62
7
  6
CONTINUOUS
 90
19
 70
0
 10
84.8406495007
 20
150.0533508833
 10
84.8720531735
 20
150.0817667473
 10
84.9025106205
 20
150.1135945257
 10
84.9320218418
 20
150.1488342187
 10
84.9607007378
 20
150.1875667601
 10
84.9884334079
 20
150.2297112159
 10
85.0148781514
 20
150.2750247843
 10
85.0399648193
 20
150.3236611424
 10
85.0637635604
 20
150.3754666131
 10
85.08614312
 20
150.4297373632
 10
85.1070750507
 20
150.4863423685
 10
85.1265877998
 20
150.5454126533
 10
85.1446354544
 20
150.6066374572
 10
85.161166237
 20
150.6699081935
 10
85.176231925
 20
150.7353334489
 10
85.1899419382
 20
150.8029282235
 10
85.2023327498
 20
150.8726975173
 10
85.2133678865
 20
150.9446363304
 10
85.2230473483
 20
151.0187446626
  0
LINE
  5
27F
100
AcDbEntity
  8
IMPORT_IGES
100
AcDbLine
 62
7
  6
CONTINUOUS
 10
149.9934965325
 20
137.1244457327
 11
149.9934965325
 21
139.0144750716
  0
LINE
  5
280
100
AcDbEntity
  8
IMPORT_IGES
100
AcDbLine
 62
7
  6
CONTINUOUS
 10
149.9934965325
 20
140.1144750716
 11
149.9934965325
 21
142.0045043997
  0
LINE
  5
281
100
AcDbEntity
  8
IMPORT_IGES
100
AcDbLine
 62
7
  6
CONTINUOUS
 10
149.9934965214
 20
178.1244457179
 11
149.9934965214
 21
180.0144750567
  0
LINE
  5
282
100
AcDbEntity
  8
IMPORT_IGES
100
AcDbLine
 62
7
  6
CONTINUOUS
 10
149.9934965214
 20
181.1144750567
 11
149.9934965214
 21
183.0045043849
  0
LINE
  5
283
100
AcDbEntity
  8
IMPORT_IGES
100
AcDbLine
 62
7
  6
CONTINUOUS
 10
151.0823491396
 20
137.1244457434
 11
151.0823491396
 21
139.0144750716
  0
LINE
  5
284
100
AcDbEntity
  8
IMPORT_IGES
100
AcDbLine
 62
7
  6
CONTINUOUS
 10
151.0823491396
 20
140.1144750716
 11
151.0823491396
 21
142.0045044104
  0
LINE
  5
285
100
AcDbEntity
  8
IMPORT_IGES
100
AcDbLine
 62
7
  6
CONTINUOUS
 10
151.0823491285
 20
178.1244457286
 11
151.0823491285
 21
180.0144750567
  0
LINE
  5
286
100
AcDbEntity
  8
IMPORT_IGES
100
AcDbLine
 62
7
  6
CONTINUOUS
 10
151.0823491285
 20
181.1144750567
 11
151.0823491285
 21
183.0045043956
  0
LWPOLYLINE
  5
287
100
AcDbEntity
  8
IMPORT_IGES
100
AcDbPolyline
 62
250
  6
CONTINUOUS
 90
25
 70
0
 10
245.9588028833
 20
133.9772991733
 10
245.861347218
 20
133.9619198414
 10
245.7644408539
 20
133.9415233372
 10
245.6682703973
 20
133.9161062743
 10
245.572823844
 20
133.8855996702
 10
245.4785209692
 20
133.8500637005
 10
245.3861683473
 20
133.8097898987
 10
245.2961073832
 20
133.7649757865
 10
245.2083399101
 20
133.7156619076
 10
245.1231191118
 20
133.6620107047
 10
245.0405976967
 20
133.6041324692
 10
244.9609733269
 20
133.5421684834
 10
244.8845464073
 20
133.4763606557
 10
244.8114748752
 20
133.4068540382
 10
244.741922967
 20
133.3337997682
 10
244.6761653404
 20
133.2574868055
 10
244.6143628632
 20
133.1781093685
 10
244.5566288503
 20
133.0958035866
 10
244.5031357222
 20
133.0107937343
 10
244.4539140886
 20
132.9230702
 10
244.4091973999
 20
132.8329608829
 10
244.3693613038
 20
132.7412505465
 10
244.3345047333
 20
132.6483563775
 10
244.3045486192
 20
132.5542711638
 10
244.2795019287
 20
132.4591819685
  0
LWPOLYLINE
  5
288
100
AcDbEntity
  8
IMPORT_IGES
100
AcDbPolyline
 62
7
  6
CONTINUOUS
 90
22
 70
0
 10
246.4634890487
 20
133.3476675206
 10
246.3637609461
 20
133.3321264137
 10
246.2654425339
 20
133.3117288542
 10
246.1685338121
 20
133.2864748421
 10
246.0728004258
 20
133.2562696192
 10
245.97847673
 20
133.2212079438
 10
245.8862657891
 20
133.1815740899
 10
245.7961827161
 20
133.1373401089
 10
245.7082123979
 20
133.0885339494
 10
245.6230125608
 20
133.035523732
 10
245.5406038188
 20
132.9782785419
 10
245.4609655577
 20
132.9168292938
 10
245.3846936617
 20
132.8516368527
 10
245.3118129542
 20
132.7826736021
 10
245.2422986117
 20
132.7099671584
 10
245.1766720478
 20
132.6340612353
 10
245.1149618148
 20
132.5549320567
 10
245.0571393604
 20
132.4726033987
 10
245.0036404414
 20
132.3876903027
 10
244.9545008798
 20
132.3001724619
 10
244.9096848536
 20
132.210070183
 10
244.869520653
 20
132.1180594281
  0
LINE
  5
289
100
AcDbEntity
  8
IMPORT_IGES
100
AcDbLine
 62
7
  6
CONTINUOUS
 10
243.8050032152
 20
131.0642703314
 11
69.0453727584
 21
131.0643220929
  0
LINE
  5
28A
100
AcDbEntity
  8
IMPORT_IGES
100
AcDbLine
 62
250
  6
CONTINUOUS
 10
243.3078614627
 20
131.6915576283
 11
69.0453726921
 21
131.6915580342
  0
LINE
  5
28B
100
AcDbEntity
  8
IMPORT_IGES
100
AcDbLine
 62
250
  6
CONTINUOUS
 10
69.045372287
 20
133.1896965762
 11
242.936910463
 21
133.1896951409
  0
LINE
  5
28C
100
AcDbEntity
  8
IMPORT_IGES
100
AcDbLine
 62
7
  6
CONTINUOUS
 10
67.9933861831
 20
139.0144750864
 11
69.0822387902
 21
139.0144750864
  0
LINE
  5
28D
100
AcDbEntity
  8
IMPORT_IGES
100
AcDbLine
 62
7
  6
CONTINUOUS
 10
149.9934965325
 20
139.0144750716
 11
151.0823491396
 21
139.0144750716
  0
LINE
  5
28E
100
AcDbEntity
  8
IMPORT_IGES
100
AcDbLine
 62
7
  6
CONTINUOUS
 10
234.9936068596
 20
139.0144750864
 11
236.0824594667
 21
139.0144750864
  0
LWPOLYLINE
  5
28F
100
AcDbEntity
  8
IMPORT_IGES
100
AcDbPolyline
 62
250
  6
CONTINUOUS
 90
106
 70
0
 10
69.045372287
 20
133.1896965762
 10
68.4326904298
 20
133.1999042628
 10
67.8280286439
 20
133.2278433999
 10
67.2313869294
 20
133.2735139874
 10
66.6424911513
 20
133.337265672
 10
66.0616154446
 20
133.4187488071
 10
65.4895822139
 20
133.5169144531
 10
64.9264830616
 20
133.6316441117
 10
64.3722263852
 20
133.7630562812
 10
63.8273597828
 20
133.9104575175
 10
63.2919073851
 20
134.0737090088
 10
62.7658450613
 20
134.252949567
 10
62.2496480164
 20
134.4479021829
 10
61.7433063027
 20
134.6584211165
 10
61.2468298679
 20
134.8846521079
 10
60.7607237608
 20
135.1267553682
 10
60.2849477507
 20
135.385141983
 10
59.8195420683
 20
135.6594008667
 10
59.3651324552
 20
135.948458974
 10
58.9217276412
 20
136.2525564379
 10
58.4893188965
 20
136.5714531252
 10
58.0685057728
 20
136.9033555911
 10
57.660648451
 20
137.2465389097
 10
57.2643867501
 20
137.6027280067
 10
56.8762396797
 20
137.9753042139
 10
56.4955495212
 20
138.3641063066
 10
56.122973993
 20
138.7692955095
 10
55.7570052601
 20
139.1947368286
 10
55.3965966199
 20
139.6412605712
 10
55.0427947749
 20
140.1080364301
 10
54.6972319976
 20
140.5964384892
 10
54.359736399
 20
141.1065664224
 10
54.0304798681
 20
141.6383205559
 10
53.7116103449
 20
142.1927759522
 10
53.4035315008
 20
142.7694072662
 10
53.1058396644
 20
143.3687398431
 10
52.8194717614
 20
143.9934247811
 10
52.54492609
 20
144.6416101794
 10
52.2817043519
 20
145.3151479388
 10
52.0292485782
 20
146.02224486
 10
51.7869712666
 20
146.7620803189
 10
51.5554599194
 20
147.5354749396
 10
51.3359190744
 20
148.353097395
 10
51.1274896134
 20
149.2152941448
 10
50.9310306547
 20
150.1217187292
 10
50.7503240908
 20
151.0820004425
 10
50.5843740803
 20
152.1010707347
 10
50.4341764648
 20
153.1739981557
 10
50.3065006611
 20
154.2956176488
 10
50.2026551729
 20
155.4739854969
 10
50.1213314967
 20
156.7010454172
 10
50.0653735389
 20
157.9474635045
 10
50.0356742055
 20
159.2144494583
 10
50.0313405906
 20
160.5007935791
 10
50.0525378833
 20
161.7735328635
 10
50.0998880698
 20
163.032482714
 10
50.1727691639
 20
164.2778277281
 10
50.2694803969
 20
165.4771586942
 10
50.3917035456
 20
166.622457818
 10
50.5377568331
 20
167.7217428938
 10
50.7008941603
 20
168.766658093
 10
50.8804642254
 20
169.7515707665
 10
51.0771183301
 20
170.6821135633
 10
51.2860642798
 20
171.5668286023
 10
51.5063250246
 20
172.4052072582
 10
51.7388776144
 20
173.1977581562
 10
51.9818610036
 20
173.9545492912
 10
52.2343088513
 20
174.6757167614
 10
52.4971874984
 20
175.3611244686
 10
52.7715349219
 20
176.0204321133
 10
53.0577512244
 20
176.6558590075
 10
53.3554363035
 20
177.2651858393
 10
53.6644278283
 20
177.8514143728
 10
53.9854973259
 20
178.4152159909
 10
54.3178732694
 20
178.9559193108
 10
54.6590787477
 20
179.4745119485
 10
55.0089036352
 20
179.9707729575
 10
55.3675580576
 20
180.4449232844
 10
55.7331954815
 20
180.898613384
 10
56.1048711765
 20
181.331156782
 10
56.4835298729
 20
181.7432399529
 10
56.8701592282
 20
182.1385727744
 10
57.2641715089
 20
182.5174475801
 10
57.6661544485
 20
182.8795720365
 10
58.0788589052
 20
183.2277790215
 10
58.5034640841
 20
183.563653202
 10
58.9387907801
 20
183.885609911
 10
59.384052237
 20
184.1917280253
 10
59.8390061577
 20
184.4815293234
 10
60.3038948393
 20
184.7554920269
 10
60.7786584166
 20
185.0131296766
 10
61.2634001866
 20
185.2541142141
 10
61.7580168524
 20
185.4787736979
 10
62.2621386581
 20
185.6876058447
 10
62.7755264124
 20
185.8807108519
 10
63.2984193066
 20
186.057988522
 10
63.8311651594
 20
186.219635979
 10
64.3740939031
 20
186.3659791626
 10
64.9268756053
 20
186.4966921331
 10
65.488868288
 20
186.6109941954
 10
66.060137288
 20
186.7090459586
 10
66.6406172686
 20
186.7906868137
 10
67.2294702416
 20
186.8546542389
 10
67.8264168778
 20
186.9005273935
 10
68.4317365064
 20
186.9287271183
 10
69.0454291274
 20
186.9392534132
  0
LINE
  5
290
100
AcDbEntity
  8
IMPORT_IGES
100
AcDbLine
 62
7
  6
CONTINUOUS
 10
84.395096301
 20
150.1550634572
 11
84.071318301
 21
150.1852284572
  0
LINE
  5
291
100
AcDbEntity
  8
IMPORT_IGES
100
AcDbLine
 62
7
  6
CONTINUOUS
 10
83.517449301
 20
150.0218484572
 11
83.5959255
 21
150.0145295386
  0
LINE
  5
292
100
AcDbEntity
  8
IMPORT_IGES
100
AcDbLine
 62
7
  6
CONTINUOUS
 10
84.0713368302
 20
149.970209076
 11
84.4013589753
 21
149.9394330204
  0
LINE
  5
293
100
AcDbEntity
  8
IMPORT_IGES
100
AcDbLine
 62
7
  6
CONTINUOUS
 10
80.531760027
 20
150.3000868716
 11
83.3249770083
 21
150.0397592031
  0
LINE
  5
294
100
AcDbEntity
  8
IMPORT_IGES
100
AcDbLine
 62
7
  6
CONTINUOUS
 10
80.4734238028
 20
150.5205189991
 11
80.3186849854
 21
150.5349422592
  0
LINE
  5
295
100
AcDbEntity
  8
IMPORT_IGES
100
AcDbLine
 62
7
  6
CONTINUOUS
 10
83.3542445076
 20
150.2520498556
 11
80.737931301
 21
150.4958769572
  0
LINE
  5
296
100
AcDbEntity
  8
IMPORT_IGES
100
AcDbLine
 62
7
  6
CONTINUOUS
 10
196.1791037314
 20
140.0509116279
 11
196.1791037314
 21
180.4509116279
  0
LWPOLYLINE
  5
297
100
AcDbEntity
  8
IMPORT_IGES
100
AcDbPolyline
 62
250
  6
CONTINUOUS
 90
23
 70
0
 10
244.2061567996
 20
187.6376578623
 10
244.1787945812
 20
187.6254762679
 10
244.1473509449
 20
187.6112625595
 10
244.1119736419
 20
187.5950454408
 10
244.0729355261
 20
187.5768986716
 10
244.0305462641
 20
187.5569025904
 10
243.9848852342
 20
187.5350300152
 10
243.9358928844
 20
187.5111892193
 10
243.8836784847
 20
187.4853464538
 10
243.8285303394
 20
187.4575439971
 10
243.7706451927
 20
187.4277808998
 10
243.7100564537
 20
187.3959852433
 10
243.6470262183
 20
187.3622504577
 10
243.5821050331
 20
187.3268485055
 10
243.5157513088
 20
187.2899252421
 10
243.4478315193
 20
187.2514490204
 10
243.3780742965
 20
187.2113811227
 10
243.3064278138
 20
187.1695903605
 10
243.2333911992
 20
187.1261741791
 10
243.1595944157
 20
187.0813858934
 10
243.0854490846
 20
187.0353281663
 10
243.0111212587
 20
186.9879417702
 10
242.9369006823
 20
186.9392521281
  0
LINE
  5
298
100
AcDbEntity
  8
IMPORT_IGES
100
AcDbLine
 62
250
  6
CONTINUOUS
 10
244.2795007068
 20
187.6697673569
 11
244.2734993317
 21
187.6670965073
  0
LINE
  5
299
100
AcDbEntity
  8
IMPORT_IGES
100
AcDbLine
 62
250
  6
CONTINUOUS
 10
244.2734993317
 20
187.6670965073
 11
244.2061567996
 21
187.6376578623
  0
LINE
  5
29A
100
AcDbEntity
  8
IMPORT_IGES
100
AcDbLine
 62
7
  6
CONTINUOUS
 10
225.4844666229
 20
152.2672622393
 11
225.8969142803
 21
152.3773055229
  0
LWPOLYLINE
  5
29B
100
AcDbEntity
  8
IMPORT_IGES
100
AcDbPolyline
 62
7
  6
CONTINUOUS
 90
19
 70
0
 10
225.8969142803
 20
152.3773055229
 10
225.9660532379
 20
152.3955223309
 10
226.0332248547
 20
152.4143965504
 10
226.0984291309
 20
152.4339281813
 10
226.1617890614
 20
152.4538854389
 10
226.2231816511
 20
152.474500108
 10
226.2822379151
 20
152.4964675426
 10
226.3389916271
 20
152.5199028228
 10
226.3934090134
 20
152.5446908685
 10
226.445019767
 20
152.5711817928
 10
226.4938714021
 20
152.5994827067
 10
226.5399164045
 20
152.6294864991
 10
226.5825419257
 20
152.6612219496
 10
226.6216510543
 20
152.6949831992
 10
226.6573407017
 20
152.730476107
 10
226.6892887537
 20
152.7668470299
 10
226.7173878391
 20
152.8038114204
 10
226.7417453292
 20
152.841653826
 10
226.7623612239
 20
152.8803742468
  0
LINE
  5
29C
100
AcDbEntity
  8
IMPORT_IGES
100
AcDbLine
 62
7
  6
CONTINUOUS
 10
224.6791037314
 20
152.0562270539
 11
225.4844666229
 21
152.2672622393
  0
LWPOLYLINE
  5
29D
100
AcDbEntity
  8
IMPORT_IGES
100
AcDbPolyline
 62
7
  6
CONTINUOUS
 90
79
 70
0
 10
329.2194277931
 20
143.800866553
 10
329.2998650195
 20
143.8023449736
 10
329.3774868169
 20
143.8054462907
 10
329.4522931723
 20
143.8101158221
 10
329.5242037376
 20
143.8162898084
 10
329.5932988344
 20
143.8239194062
 10
329.6598194593
 20
143.8329913751
 10
329.723770899
 20
143.8434813526
 10
329.7851478509
 20
143.8553463682
 10
329.8441754342
 20
143.868569503
 10
329.9008637185
 20
143.8831217424
 10
329.9552026202
 20
143.8989732617
 10
330.0073870309
 20
143.9161166366
 10
330.0574474761
 20
143.9345319173
 10
330.1053534188
 20
143.9541907965
 10
330.1512081594
 20
143.9750805295
 10
330.1950236167
 20
143.9971813927
 10
330.2367878614
 20
144.0204685641
 10
330.2765684216
 20
144.0449245137
 10
330.3143759908
 20
144.0705355912
 10
330.3501998654
 20
144.09727264
 10
330.3840754779
 20
144.1250928667
 10
330.4160014243
 20
144.1539766608
 10
330.445979097
 20
144.1838950483
 10
330.4740481221
 20
144.214784124
 10
330.5001874174
 20
144.2465919408
 10
330.5244180511
 20
144.2793116558
 10
330.5468428742
 20
144.312945877
 10
330.5674603451
 20
144.3474494092
 10
330.5862719934
 20
144.382816072
 10
330.6033852798
 20
144.4191186319
 10
330.6188222403
 20
144.4563665573
 10
330.6325608315
 20
144.4945188706
 10
330.6446423977
 20
144.5335829099
 10
330.655072438
 20
144.5735737309
 10
330.6638454467
 20
144.6144483264
 10
330.6709862594
 20
144.6561239752
 10
330.6764874938
 20
144.698545338
 10
330.6803565227
 20
144.7417273312
 10
330.6826403149
 20
144.7856905008
 10
330.6833480221
 20
144.8303982537
 10
330.6824704846
 20
144.8758530133
 10
330.6800272054
 20
144.9221424658
 10
330.6760346474
 20
144.9692463557
 10
330.6704763425
 20
145.0171632057
 10
330.6633224007
 20
145.0660222455
 10
330.6545919572
 20
145.1158176547
 10
330.6442658751
 20
145.1665479251
 10
330.6322568593
 20
145.2183635671
 10
330.6185811574
 20
145.2712770247
 10
330.6032225235
 20
145.3252827321
 10
330.5860449253
 20
145.3805176234
 10
330.5670592273
 20
145.4370042329
 10
330.5462545692
 20
145.4947374906
 10
330.5234623343
 20
145.5538228821
 10
330.4986596864
 20
145.6143357517
 10
330.4718694676
 20
145.6762256962
 10
330.4429915784
 20
145.7394092398
 10
330.411989399
 20
145.803934489
 10
330.3788995525
 20
145.8697668588
 10
330.343731801
 20
145.9366852474
 10
330.3064923622
 20
146.0046398806
 10
330.2671750163
 20
146.0736713577
 10
330.2257708672
 20
146.1436812193
 10
330.1822977009
 20
146.2146243387
 10
330.1367377272
 20
146.2865281823
 10
330.0890286849
 20
146.3593998497
 10
330.0392408839
 20
146.433148557
 10
329.9873040098
 20
146.507845903
 10
329.9329448672
 20
146.5837511317
 10
329.8762139172
 20
146.6608415353
 10
329.817060698
 20
146.739136484
 10
329.7550606334
 20
146.8189760929
 10
329.690233333
 20
146.9003904638
 10
329.6225591905
 20
146.9833630928
 10
329.5515548105
 20
147.0681808332
 10
329.4770590637
 20
147.1549503963
 10
329.399233085
 20
147.2435896032
 10
329.3180768769
 20
147.3341080666
  0
LINE
  5
29E
100
AcDbEntity
  8
IMPORT_IGES
100
AcDbLine
 62
7
  6
CONTINUOUS
 10
221.8791037314
 20
139.7509116279
 11
196.4791037314
 21
139.7509116279
  0
LINE
  5
29F
100
AcDbEntity
  8
IMPORT_IGES
100
AcDbLine
 62
7
  6
CONTINUOUS
 10
67.9933861831
 20
140.1144750864
 11
69.0822387902
 21
140.1144750864
  0
LINE
  5
2A0
100
AcDbEntity
  8
IMPORT_IGES
100
AcDbLine
 62
7
  6
CONTINUOUS
 10
149.9934965325
 20
140.1144750716
 11
151.0823491396
 21
140.1144750716
  0
LINE
  5
2A1
100
AcDbEntity
  8
IMPORT_IGES
100
AcDbLine
 62
7
  6
CONTINUOUS
 10
234.9936068596
 20
140.1144750864
 11
236.0824594667
 21
140.1144750864
  0
LINE
  5
2A2
100
AcDbEntity
  8
IMPORT_IGES
100
AcDbLine
 62
7
  6
CONTINUOUS
 10
85.9834987983
 20
147.9487000803
 11
85.6981534587
 21
147.9487000803
  0
LINE
  5
2A3
100
AcDbEntity
  8
IMPORT_IGES
100
AcDbLine
 62
7
  6
CONTINUOUS
 10
76.843682301
 20
148.6432404572
 11
75.333498801
 21
148.6432404572
  0
LINE
  5
2A4
100
AcDbEntity
  8
IMPORT_IGES
100
AcDbLine
 62
7
  6
CONTINUOUS
 10
84.0663715222
 20
149.5522289364
 11
83.3249770083
 21
149.5522289364
  0
LINE
  5
2A5
100
AcDbEntity
  8
IMPORT_IGES
100
AcDbLine
 62
7
  6
CONTINUOUS
 10
83.8757378219
 20
149.7395619572
 11
83.517449301
 21
149.7395619572
  0
LINE
  5
2A6
100
AcDbEntity
  8
IMPORT_IGES
100
AcDbLine
 62
7
  6
CONTINUOUS
 10
84.071318301
 20
150.2785554572
 11
83.612615301
 21
150.2785554572
  0
LINE
  5
2A7
100
AcDbEntity
  8
IMPORT_IGES
100
AcDbLine
 62
7
  6
CONTINUOUS
 10
350.6469048214
 20
143.7956812762
 11
329.2197006319
 21
143.8007340389
  0
LINE
  5
2A8
100
AcDbEntity
  8
IMPORT_IGES
100
AcDbLine
 62
7
  6
CONTINUOUS
 10
367.6480244492
 20
148.5416723634
 11
360.6379225828
 21
148.54332542
  0
LINE
  5
2A9
100
AcDbEntity
  8
IMPORT_IGES
100
AcDbLine
 62
7
  6
CONTINUOUS
 10
360.3379461722
 20
148.6433961637
 11
350.6480485029
 21
148.6456811446
  0
LWPOLYLINE
  5
2AA
100
AcDbEntity
  8
IMPORT_IGES
100
AcDbPolyline
 62
250
  6
CONTINUOUS
 90
4
 70
0
 10
244.273432479
 20
132.4619194636
 10
244.2046695389
 20
132.4920361412
 10
244.1766320704
 20
132.504482756
 10
244.1445263969
 20
132.5189832597
  0
LINE
  5
2AB
100
AcDbEntity
  8
IMPORT_IGES
100
AcDbLine
 62
250
  6
CONTINUOUS
 10
244.2795019287
 20
132.4591819685
 11
244.273432479
 21
132.4619194636
  0
LWPOLYLINE
  5
2AC
100
AcDbEntity
  8
IMPORT_IGES
100
AcDbPolyline
 62
250
  6
CONTINUOUS
 90
20
 70
0
 10
244.1445263969
 20
132.5189832597
 10
244.0689184817
 20
132.5539255929
 10
244.0260032381
 20
132.574163428
 10
243.9800300819
 20
132.5962816783
 10
243.9307218991
 20
132.6203232911
 10
243.8782209309
 20
132.6463432864
 10
243.8229271744
 20
132.6743181412
 10
243.7648236944
 20
132.7042013492
 10
243.7041605493
 20
132.7360531845
 10
243.6413344575
 20
132.7697978969
 10
243.576521966
 20
132.8051613513
 10
243.5103614793
 20
132.8419362486
 10
243.4429632668
 20
132.8802000822
 10
243.3736670396
 20
132.920097917
 10
243.3025412559
 20
132.9616188335
 10
243.2302816073
 20
133.0046189451
 10
243.1571629076
 20
133.0490451081
 10
243.0835739539
 20
133.0947973121
 10
243.0100082942
 20
133.1417279286
 10
242.9369104631
 20
133.1896951409
  0
LWPOLYLINE
  5
2AD
100
AcDbEntity
  8
IMPORT_IGES
100
AcDbPolyline
 62
250
  6
CONTINUOUS
 90
3
 70
0
 10
246.7900241814
 20
185.3472918625
 10
246.8007388034
 20
185.3522649352
 10
246.8069966705
 20
185.355311282
  0
LINE
  5
2AE
100
AcDbEntity
  8
IMPORT_IGES
100
AcDbLine
 62
250
  6
CONTINUOUS
 10
246.562636245
 20
185.2434565784
 11
246.7900241814
 21
185.3472918625
  0
LINE
  5
2AF
100
AcDbEntity
  8
IMPORT_IGES
100
AcDbLine
 62
250
  6
CONTINUOUS
 10
245.9595176673
 20
184.9749624638
 11
246.562636245
 21
185.2434565784
  0
LINE
  5
2B0
100
AcDbEntity
  8
IMPORT_IGES
100
AcDbLine
 62
250
  6
CONTINUOUS
 10
245.6481986737
 20
184.8395558606
 11
245.9595176673
 21
184.9749624638
  0
LINE
  5
2B1
100
AcDbEntity
  8
IMPORT_IGES
100
AcDbLine
 62
250
  6
CONTINUOUS
 10
245.4023368689
 20
184.7340450616
 11
245.6481986737
 21
184.8395558606
  0
LINE
  5
2B2
100
AcDbEntity
  8
IMPORT_IGES
100
AcDbLine
 62
7
  6
CONTINUOUS
 10
229.1785552324
 20
169.5140426321
 11
224.6791032324
 21
168.0876286321
  0
LINE
  5
2B3
100
AcDbEntity
  8
IMPORT_IGES
100
AcDbLine
 62
7
  6
CONTINUOUS
 10
225.5773542324
 20
156.8423406321
 11
224.6791032324
 21
156.5990356321
  0
LINE
  5
2B4
100
AcDbEntity
  8
IMPORT_IGES
100
AcDbLine
 62
7
  6
CONTINUOUS
 10
227.9422202324
 20
157.4616216321
 11
226.2724172324
 21
157.0300416321
  0
LINE
  5
2B5
100
AcDbEntity
  8
IMPORT_IGES
100
AcDbLine
 62
7
  6
CONTINUOUS
 10
224.6791032324
 20
159.4570586321
 11
229.1785552324
 21
159.8778076321
  0
LINE
  5
2B6
100
AcDbEntity
  8
IMPORT_IGES
100
AcDbLine
 62
7
  6
CONTINUOUS
 10
227.6049132324
 20
160.5688216321
 11
224.6791032324
 21
160.3758576321
  0
LINE
  5
2B7
100
AcDbEntity
  8
IMPORT_IGES
100
AcDbLine
 62
7
  6
CONTINUOUS
 10
83.0863157829
 20
150.7957509572
 11
83.333823801
 21
150.7957509572
  0
LINE
  5
2B8
100
AcDbEntity
  8
IMPORT_IGES
100
AcDbLine
 62
7
  6
CONTINUOUS
 10
84.8052991115
 20
151.0187272427
 11
85.00508493
 21
151.0187359527
  0
LINE
  5
2B9
100
AcDbEntity
  8
IMPORT_IGES
100
AcDbLine
 62
7
  6
CONTINUOUS
 10
85.0275958241
 20
152.0711507381
 11
84.8052991115
 21
152.0711507381
  0
LINE
  5
2BA
100
AcDbEntity
  8
IMPORT_IGES
100
AcDbLine
 62
7
  6
CONTINUOUS
 10
85.2467721933
 20
152.0711507381
 11
85.3315375334
 21
152.0711507381
  0
LINE
  5
2BB
100
AcDbEntity
  8
IMPORT_IGES
100
AcDbLine
 62
7
  6
CONTINUOUS
 10
82.905711801
 20
152.1068634572
 11
83.333823801
 21
152.1068634572
  0
LINE
  5
2BC
100
AcDbEntity
  8
IMPORT_IGES
100
AcDbLine
 62
7
  6
CONTINUOUS
 10
79.4182764388
 20
152.5155307694
 11
79.0962114782
 21
152.5155307694
  0
LINE
  5
2BD
100
AcDbEntity
  8
IMPORT_IGES
100
AcDbLine
 62
7
  6
CONTINUOUS
 10
84.6180175306
 20
152.6508683205
 11
84.9435969605
 21
152.6508683205
  0
LINE
  5
2BE
100
AcDbEntity
  8
IMPORT_IGES
100
AcDbLine
 62
7
  6
CONTINUOUS
 10
226.819687707
 20
152.8803742468
 11
226.7623612239
 21
152.8803742468
  0
LINE
  5
2BF
100
AcDbEntity
  8
IMPORT_IGES
100
AcDbLine
 62
7
  6
CONTINUOUS
 10
79.0962114782
 20
152.9121943683
 11
79.4190973526
 21
152.9121943683
  0
LINE
  5
2C0
100
AcDbEntity
  8
IMPORT_IGES
100
AcDbLine
 62
7
  6
CONTINUOUS
 10
85.0474861087
 20
153.016636599
 11
85.1889587386
 21
153.016636599
  0
LINE
  5
2C1
100
AcDbEntity
  8
IMPORT_IGES
100
AcDbLine
 62
7
  6
CONTINUOUS
 10
84.4039615298
 20
153.6855256731
 11
84.6180175306
 21
153.6855256731
  0
LINE
  5
2C2
100
AcDbEntity
  8
IMPORT_IGES
100
AcDbLine
 62
7
  6
CONTINUOUS
 10
226.4399404341
 20
154.397913467
 11
224.6791037314
 21
154.397913467
  0
LINE
  5
2C3
100
AcDbEntity
  8
IMPORT_IGES
100
AcDbLine
 62
7
  6
CONTINUOUS
 10
227.1768418385
 20
154.429056324
 11
228.4120289543
 21
154.429056324
  0
LINE
  5
2C4
100
AcDbEntity
  8
IMPORT_IGES
100
AcDbLine
 62
7
  6
CONTINUOUS
 10
75.333498801
 20
154.8450324572
 11
76.843682301
 21
154.8450324572
  0
LINE
  5
2C5
100
AcDbEntity
  8
IMPORT_IGES
100
AcDbLine
 62
7
  6
CONTINUOUS
 10
249.7955700204
 20
155.0644750784
 11
264.431002097
 21
155.0644750784
  0
LINE
  5
2C6
100
AcDbEntity
  8
IMPORT_IGES
100
AcDbLine
 62
7
  6
CONTINUOUS
 10
224.6791037314
 20
155.3333463669
 11
229.125986542
 21
155.3333463669
  0
LINE
  5
2C7
100
AcDbEntity
  8
IMPORT_IGES
100
AcDbLine
 62
7
  6
CONTINUOUS
 10
85.6643031797
 20
155.4493472072
 11
85.9547624596
 21
155.4493472072
  0
LINE
  5
2C8
100
AcDbEntity
  8
IMPORT_IGES
100
AcDbLine
 62
7
  6
CONTINUOUS
 10
85.3315375334
 20
151.0187272427
 11
85.2230473483
 21
151.0187446626
  0
LINE
  5
2C9
100
AcDbEntity
  8
IMPORT_IGES
100
AcDbLine
 62
250
  6
CONTINUOUS
 10
350.6485554958
 20
150.7956810816
 11
330.5437977262
 21
150.8004219973
  0
LINE
  5
2CA
100
AcDbEntity
  8
IMPORT_IGES
100
AcDbLine
 62
7
  6
CONTINUOUS
 10
350.6489445833
 20
152.4456810324
 11
360.3388422526
 21
152.4433960515
  0
LINE
  5
2CB
100
AcDbEntity
  8
IMPORT_IGES
100
AcDbLine
 62
7
  6
CONTINUOUS
 10
367.6489676917
 20
152.5416722522
 11
360.6388658253
 21
152.5433253088
  0
LINE
  5
2CC
100
AcDbEntity
  8
IMPORT_IGES
100
AcDbLine
 62
7
  6
CONTINUOUS
 10
293.6443293261
 20
153.059123347
 11
309.6443288812
 21
153.0553503769
  0
LINE
  5
2CD
100
AcDbEntity
  8
IMPORT_IGES
100
AcDbLine
 62
7
  6
CONTINUOUS
 10
309.644635435
 20
154.3553503408
 11
307.6446354907
 21
154.355821962
  0
LINE
  5
2CE
100
AcDbEntity
  8
IMPORT_IGES
100
AcDbLine
 62
7
  6
CONTINUOUS
 10
305.6446355463
 20
154.3562935833
 11
303.6446356019
 21
154.3567652046
  0
LINE
  5
2CF
100
AcDbEntity
  8
IMPORT_IGES
100
AcDbLine
 62
7
  6
CONTINUOUS
 10
301.6446356575
 20
154.3572368258
 11
299.6446357131
 21
154.3577084471
  0
LINE
  5
2D0
100
AcDbEntity
  8
IMPORT_IGES
100
AcDbLine
 62
7
  6
CONTINUOUS
 10
297.6446357687
 20
154.3581800683
 11
295.6446358243
 21
154.3586516896
  0
LINE
  5
2D1
100
AcDbEntity
  8
IMPORT_IGES
100
AcDbLine
 62
7
  6
CONTINUOUS
 10
264.431002097
 20
156.4160122567
 11
293.6451192917
 21
156.4091232539
  0
LINE
  5
2D2
100
AcDbEntity
  8
IMPORT_IGES
100
AcDbLine
 62
7
  6
CONTINUOUS
 10
295.6451192361
 20
156.4086516326
 11
297.6451191805
 21
156.4081800113
  0
LINE
  5
2D3
100
AcDbEntity
  8
IMPORT_IGES
100
AcDbLine
 62
7
  6
CONTINUOUS
 10
299.6451191249
 20
156.4077083901
 11
301.6451190693
 21
156.4072367688
  0
LINE
  5
2D4
100
AcDbEntity
  8
IMPORT_IGES
100
AcDbLine
 62
7
  6
CONTINUOUS
 10
303.6451190137
 20
156.4067651476
 11
305.6451189581
 21
156.4062935263
  0
LINE
  5
2D5
100
AcDbEntity
  8
IMPORT_IGES
100
AcDbLine
 62
7
  6
CONTINUOUS
 10
307.6451189024
 20
156.405821905
 11
309.6451188468
 21
156.4053502838
  0
LINE
  5
2D6
100
AcDbEntity
  8
IMPORT_IGES
100
AcDbLine
 62
7
  6
CONTINUOUS
 10
307.645154274
 20
156.5558219009
 11
305.6451543296
 21
156.5562935221
  0
LINE
  5
2D7
100
AcDbEntity
  8
IMPORT_IGES
100
AcDbLine
 62
7
  6
CONTINUOUS
 10
303.6451543853
 20
156.5567651434
 11
301.6451544409
 21
156.5572367646
  0
LINE
  5
2D8
100
AcDbEntity
  8
IMPORT_IGES
100
AcDbLine
 62
7
  6
CONTINUOUS
 10
299.6451544965
 20
156.5577083859
 11
297.6451545521
 21
156.5581800072
  0
LINE
  5
2D9
100
AcDbEntity
  8
IMPORT_IGES
100
AcDbLine
 62
7
  6
CONTINUOUS
 10
295.6451546077
 20
156.5586516284
 11
293.6451546633
 21
156.5591232497
  0
LINE
  5
2DA
100
AcDbEntity
  8
IMPORT_IGES
100
AcDbLine
 62
7
  6
CONTINUOUS
 10
368.1502646363
 20
158.041554194
 11
350.6502651229
 21
158.04568088
  0
LINE
  5
2DB
100
AcDbEntity
  8
IMPORT_IGES
100
AcDbLine
 62
7
  6
CONTINUOUS
 10
295.6455790668
 20
158.3586515784
 11
297.6455790112
 21
158.3581799571
  0
LINE
  5
2DC
100
AcDbEntity
  8
IMPORT_IGES
100
AcDbLine
 62
7
  6
CONTINUOUS
 10
299.6455789556
 20
158.3577083359
 11
301.6455789
 21
158.3572367146
  0
LINE
  5
2DD
100
AcDbEntity
  8
IMPORT_IGES
100
AcDbLine
 62
7
  6
CONTINUOUS
 10
303.6455788444
 20
158.3567650933
 11
305.6455787888
 21
158.3562934721
  0
LINE
  5
2DE
100
AcDbEntity
  8
IMPORT_IGES
100
AcDbLine
 62
7
  6
CONTINUOUS
 10
307.6455787332
 20
158.3558218508
 11
309.6455786776
 21
158.3553502296
  0
LINE
  5
2DF
100
AcDbEntity
  8
ASSI
100
AcDbLine
 62
7
  6
CONTINUOUS
 10
338.0739390441
 20
158.9967445378
 11
338.8120310236
 21
158.9965704879
  0
LINE
  5
2E0
100
AcDbEntity
  8
ASSI
100
AcDbLine
 62
7
  6
CONTINUOUS
 10
344.0558165618
 20
159.0194379482
 11
344.7979685411
 21
159.0192629408
  0
LINE
  5
2E1
100
AcDbEntity
  8
ASSI
100
AcDbLine
 62
7
  6
CONTINUOUS
 10
338.8121852093
 20
159.6504244697
 11
341.267638141
 21
159.6498454478
  0
LINE
  5
2E2
100
AcDbEntity
  8
ASSI
100
AcDbLine
 62
7
  6
CONTINUOUS
 10
342.1740711158
 20
159.6496317013
 11
344.0559650635
 21
159.6491879306
  0
LINE
  5
2E3
100
AcDbEntity
  8
ASSI
100
AcDbLine
 62
7
  6
CONTINUOUS
 10
344.0561504817
 20
160.4354889088
 11
342.174256534
 21
160.4359326794
  0
LINE
  5
2E4
100
AcDbEntity
  8
ASSI
100
AcDbLine
 62
7
  6
CONTINUOUS
 10
341.2595695594
 20
160.4361483723
 11
338.8123706275
 21
160.4367254478
  0
LINE
  5
2E5
100
AcDbEntity
  8
ASSI
100
AcDbLine
 62
7
  6
CONTINUOUS
 10
344.7984510229
 20
161.0653188839
 11
344.0562990435
 21
161.0654938913
  0
LINE
  5
2E6
100
AcDbEntity
  8
ASSI
100
AcDbLine
 62
7
  6
CONTINUOUS
 10
338.8125248733
 20
161.0908344297
 11
338.0744328938
 21
161.0910084796
  0
LWPOLYLINE
  5
2E7
100
AcDbEntity
  8
IMPORT_IGES
100
AcDbPolyline
 62
7
  6
CONTINUOUS
 90
25
 70
0
 10
227.8760546499
 20
153.1627263512
 10
227.8238498397
 20
153.1629748759
 10
227.773484955
 20
153.1657451427
 10
227.7249599958
 20
153.1710371517
 10
227.678287719
 20
153.1787754337
 10
227.6334553677
 20
153.1890354579
 10
227.5904246713
 20
153.2020436317
 10
227.5491692767
 20
153.2178867228
 10
227.509715537
 20
153.2364779635
 10
227.4721042406
 20
153.2577834573
 10
227.4362077529
 20
153.2818148351
 10
227.4021537085
 20
153.3085604661
 10
227.3703657999
 20
153.3379515618
 10
227.3409142488
 20
153.3699776338
 10
227.3137288335
 20
153.4046491706
 10
227.2890225803
 20
153.4419288488
 10
227.2668969163
 20
153.4818310479
 10
227.2472504144
 20
153.5243413885
 10
227.2299918199
 20
153.5693794089
 10
227.2150744911
 20
153.616926507
 10
227.2025450698
 20
153.6670012849
 10
227.1924522268
 20
153.7195790866
 10
227.1848121857
 20
153.7746516935
 10
227.1796087229
 20
153.8322273242
 10
227.1768418385
 20
153.8923059787
  0
LINE
  5
2E8
100
AcDbEntity
  8
IMPORT_IGES
100
AcDbLine
 62
250
  6
CONTINUOUS
 10
245.7179177743
 20
135.2592711208
 11
245.4023365981
 21
135.3949057159
  0
LINE
  5
2E9
100
AcDbEntity
  8
IMPORT_IGES
100
AcDbLine
 62
250
  6
CONTINUOUS
 10
246.093351057
 20
135.0950833432
 11
245.7179177743
 21
135.2592711208
  0
LINE
  5
2EA
100
AcDbEntity
  8
IMPORT_IGES
100
AcDbLine
 62
250
  6
CONTINUOUS
 10
246.5162817861
 20
134.9064382665
 11
246.093351057
 21
135.0950833432
  0
LINE
  5
2EB
100
AcDbEntity
  8
IMPORT_IGES
100
AcDbLine
 62
250
  6
CONTINUOUS
 10
246.6448402202
 20
134.84812325
 11
246.5162817861
 21
134.9064382665
  0
LWPOLYLINE
  5
2EC
100
AcDbEntity
  8
IMPORT_IGES
100
AcDbPolyline
 62
250
  6
CONTINUOUS
 90
3
 70
0
 10
246.8069966695
 20
134.7736388606
 10
246.8010102763
 20
134.7765066915
 10
246.6448402202
 20
134.84812325
  0
LINE
  5
2ED
100
AcDbEntity
  8
IMPORT_IGES
100
AcDbLine
 62
250
  6
CONTINUOUS
 10
243.8050044519
 20
189.0650421872
 11
243.3078580121
 21
188.4375340516
  0
LINE
  5
2EE
100
AcDbEntity
  8
IMPORT_IGES
100
AcDbLine
 62
250
  6
CONTINUOUS
 10
244.6878726912
 20
188.186154552
 11
244.2795009632
 21
187.6697662888
  0
LWPOLYLINE
  5
2EF
100
AcDbEntity
  8
IMPORT_IGES
100
AcDbPolyline
 62
250
  6
CONTINUOUS
 90
3
 70
0
 10
244.7773771276
 20
188.2977230985
 10
244.756019559
 20
188.2714289215
 10
244.6878726912
 20
188.186154552
  0
LWPOLYLINE
  5
2F0
100
AcDbEntity
  8
IMPORT_IGES
100
AcDbPolyline
 62
250
  6
CONTINUOUS
 90
4
 70
0
 10
246.4634690159
 20
186.7811289868
 10
246.4419633298
 20
186.7547813928
 10
246.411831202
 20
186.7175197497
 10
245.9588026545
 20
186.1516494427
  0
LINE
  5
2F1
100
AcDbEntity
  8
IMPORT_IGES
100
AcDbLine
 62
7
  6
CONTINUOUS
 10
227.6171602324
 20
162.9190786321
 11
224.6791032324
 21
161.8172686321
  0
LINE
  5
2F2
100
AcDbEntity
  8
IMPORT_IGES
100
AcDbLine
 62
7
  6
CONTINUOUS
 10
226.6804452324
 20
161.7462776321
 11
229.1785552324
 21
162.6755706321
  0
LWPOLYLINE
  5
2F3
100
AcDbEntity
  8
IMPORT_IGES
100
AcDbPolyline
 62
7
  6
CONTINUOUS
 90
5
 70
0
 10
226.0434847794
 20
153.3703341507
 10
225.9061587584
 20
153.326009227
 10
225.765237368
 20
153.2814544622
 10
225.6207206082
 20
153.2366698561
 10
225.4725719441
 20
153.1917848799
  0
LINE
  5
2F4
100
AcDbEntity
  8
IMPORT_IGES
100
AcDbLine
 62
7
  6
CONTINUOUS
 10
224.6791032324
 20
155.6091446321
 11
229.1785552324
 21
156.9896876321
  0
LINE
  5
2F5
100
AcDbEntity
  8
IMPORT_IGES
100
AcDbLine
 62
7
  6
CONTINUOUS
 10
225.4725719441
 20
153.1917848799
 11
225.0069190835
 21
153.0544561927
  0
LINE
  5
2F6
100
AcDbEntity
  8
IMPORT_IGES
100
AcDbLine
 62
7
  6
CONTINUOUS
 10
225.0069190835
 20
153.0544561927
 11
224.6791037314
 21
152.9596398332
  0
LINE
  5
2F7
100
AcDbEntity
  8
IMPORT_IGES
100
AcDbLine
 62
7
  6
CONTINUOUS
 10
226.0814432324
 20
167.6360906321
 11
229.1785552324
 21
168.4937676321
  0
LWPOLYLINE
  5
2F8
100
AcDbEntity
  8
IMPORT_IGES
100
AcDbPolyline
 62
7
  6
CONTINUOUS
 90
25
 70
0
 10
79.5161176078
 20
153.0071819364
 10
79.5115255159
 20
153.0066778505
 10
79.5067965702
 20
153.0058195469
 10
79.5019307708
 20
153.0046070255
 10
79.4969126411
 20
153.003058329
 10
79.4917576576
 20
153.0011554146
 10
79.4865122498
 20
152.9988441546
 10
79.4811521334
 20
152.9961076123
 10
79.4757015928
 20
152.9929627244
 10
79.4702799103
 20
152.9894061731
 10
79.4648653276
 20
152.9854014712
 10
79.4594796031
 20
152.980985106
 10
79.4543072942
 20
152.9762632222
 10
79.4493568064
 20
152.9712052742
 10
79.4446197342
 20
152.9658418078
 10
79.4402554188
 20
152.9603706042
 10
79.4363016446
 20
152.9548002895
 10
79.4327206272
 20
152.9491222377
 10
79.429558354
 20
152.943508352
 10
79.426843968
 20
152.937990821
 10
79.4245483262
 20
152.9325374562
 10
79.4226299879
 20
152.9272235947
 10
79.4210751394
 20
152.9220743491
 10
79.4198975943
 20
152.917064607
 10
79.4190973526
 20
152.9121943683
  0
LINE
  5
2F9
100
AcDbEntity
  8
IMPORT_IGES
100
AcDbLine
 62
7
  6
CONTINUOUS
 10
79.6323150197
 20
152.8023661154
 11
80.668311464
 21
152.8914795074
  0
LINE
  5
2FA
100
AcDbEntity
  8
IMPORT_IGES
100
AcDbLine
 62
7
  6
CONTINUOUS
 10
83.519160801
 20
153.1367034572
 11
84.395096301
 21
153.2120529572
  0
LINE
  5
2FB
100
AcDbEntity
  8
IMPORT_IGES
100
AcDbLine
 62
7
  6
CONTINUOUS
 10
80.930706801
 20
152.9140329572
 11
83.1997584685
 21
153.1092219199
  0
LINE
  5
2FC
100
AcDbEntity
  8
IMPORT_IGES
100
AcDbLine
 62
7
  6
CONTINUOUS
 10
83.4485610399
 20
153.3454662072
 11
80.7296732038
 21
153.1115882385
  0
LINE
  5
2FD
100
AcDbEntity
  8
IMPORT_IGES
100
AcDbLine
 62
7
  6
CONTINUOUS
 10
84.4039615298
 20
153.4276596573
 11
83.7679656234
 21
153.372950215
  0
LINE
  5
2FE
100
AcDbEntity
  8
IMPORT_IGES
100
AcDbLine
 62
7
  6
CONTINUOUS
 10
80.467297706
 20
153.0890162212
 11
79.5161176078
 21
153.0071819364
  0
LINE
  5
2FF
100
AcDbEntity
  8
IMPORT_IGES
100
AcDbLine
 62
7
  6
CONTINUOUS
 10
229.1788252324
 20
164.5258876321
 11
224.6791032324
 21
164.5258876321
  0
LINE
  5
300
100
AcDbEntity
  8
IMPORT_IGES
100
AcDbLine
 62
7
  6
CONTINUOUS
 10
264.431002097
 20
165.0644750612
 11
249.7955699764
 21
165.0644750612
  0
LINE
  5
301
100
AcDbEntity
  8
IMPORT_IGES
100
AcDbLine
 62
7
  6
CONTINUOUS
 10
224.6791032324
 20
165.4650996321
 11
229.1788252324
 21
165.4650996321
  0
LINE
  5
302
100
AcDbEntity
  8
IMPORT_IGES
100
AcDbLine
 62
7
  6
CONTINUOUS
 10
81.6845365466
 20
166.1086090872
 11
80.7599053466
 21
166.1086090872
  0
LINE
  5
303
100
AcDbEntity
  8
IMPORT_IGES
100
AcDbLine
 62
7
  6
CONTINUOUS
 10
76.5198450562
 20
166.1086090872
 11
75.5952133466
 21
166.1086090872
  0
LINE
  5
304
100
AcDbEntity
  8
IMPORT_IGES
100
AcDbLine
 62
7
  6
CONTINUOUS
 10
79.0988749466
 20
166.7206090872
 11
78.1808749466
 21
166.7206090872
  0
LINE
  5
305
100
AcDbEntity
  8
IMPORT_IGES
100
AcDbLine
 62
7
  6
CONTINUOUS
 10
81.6845365466
 20
171.3106090872
 11
80.7599053466
 21
171.3106090872
  0
LINE
  5
306
100
AcDbEntity
  8
IMPORT_IGES
100
AcDbLine
 62
7
  6
CONTINUOUS
 10
76.5198445466
 20
171.3106090872
 11
75.5952133466
 21
171.3106090872
  0
LINE
  5
307
100
AcDbEntity
  8
IMPORT_IGES
100
AcDbLine
 62
7
  6
CONTINUOUS
 10
305.6463805449
 20
161.7562933775
 11
303.6463806005
 21
161.7567649988
  0
LINE
  5
308
100
AcDbEntity
  8
IMPORT_IGES
100
AcDbLine
 62
7
  6
CONTINUOUS
 10
301.6463806561
 20
161.7572366201
 11
299.6463807117
 21
161.7577082413
  0
LINE
  5
309
100
AcDbEntity
  8
IMPORT_IGES
100
AcDbLine
 62
7
  6
CONTINUOUS
 10
295.646380823
 20
161.7586514838
 11
297.6463807673
 21
161.7581798626
  0
LINE
  5
30A
100
AcDbEntity
  8
IMPORT_IGES
100
AcDbLine
 62
7
  6
CONTINUOUS
 10
307.6463804893
 20
161.7558217563
 11
309.6463804337
 21
161.755350135
  0
LINE
  5
30B
100
AcDbEntity
  8
IMPORT_IGES
100
AcDbLine
 62
7
  6
CONTINUOUS
 10
368.1512078788
 20
162.0415540828
 11
350.6512083654
 21
162.0456807688
  0
LINE
  5
30C
100
AcDbEntity
  8
IMPORT_IGES
100
AcDbLine
 62
7
  6
CONTINUOUS
 10
293.6468053377
 20
163.5591230551
 11
295.6468052821
 21
163.5586514338
  0
LINE
  5
30D
100
AcDbEntity
  8
IMPORT_IGES
100
AcDbLine
 62
7
  6
CONTINUOUS
 10
297.6468052265
 20
163.5581798125
 11
299.6468051709
 21
163.5577081913
  0
LINE
  5
30E
100
AcDbEntity
  8
IMPORT_IGES
100
AcDbLine
 62
7
  6
CONTINUOUS
 10
301.6468051153
 20
163.55723657
 11
303.6468050597
 21
163.5567649488
  0
LINE
  5
30F
100
AcDbEntity
  8
IMPORT_IGES
100
AcDbLine
 62
7
  6
CONTINUOUS
 10
305.6468050041
 20
163.5562933275
 11
307.6468049484
 21
163.5558217062
  0
LINE
  5
310
100
AcDbEntity
  8
IMPORT_IGES
100
AcDbLine
 62
7
  6
CONTINUOUS
 10
293.6468407093
 20
163.7091230509
 11
264.431002097
 21
163.7160124531
  0
LINE
  5
311
100
AcDbEntity
  8
IMPORT_IGES
100
AcDbLine
 62
7
  6
CONTINUOUS
 10
295.6468406537
 20
163.7086514296
 11
297.6468405981
 21
163.7081798084
  0
LINE
  5
312
100
AcDbEntity
  8
IMPORT_IGES
100
AcDbLine
 62
7
  6
CONTINUOUS
 10
299.6468405425
 20
163.7077081871
 11
301.6468404869
 21
163.7072365659
  0
LINE
  5
313
100
AcDbEntity
  8
IMPORT_IGES
100
AcDbLine
 62
7
  6
CONTINUOUS
 10
303.6468404313
 20
163.7067649446
 11
305.6468403756
 21
163.7062933233
  0
LINE
  5
314
100
AcDbEntity
  8
IMPORT_IGES
100
AcDbLine
 62
7
  6
CONTINUOUS
 10
307.64684032
 20
163.7058217021
 11
309.6468402644
 21
163.7053500808
  0
LINE
  5
315
100
AcDbEntity
  8
IMPORT_IGES
100
AcDbLine
 62
7
  6
CONTINUOUS
 10
309.6473236762
 20
165.7553500238
 11
307.6473237318
 21
165.7558216451
  0
LINE
  5
316
100
AcDbEntity
  8
IMPORT_IGES
100
AcDbLine
 62
7
  6
CONTINUOUS
 10
295.6473240655
 20
165.7586513726
 11
297.6473240099
 21
165.7581797514
  0
LINE
  5
317
100
AcDbEntity
  8
IMPORT_IGES
100
AcDbLine
 62
7
  6
CONTINUOUS
 10
299.6473239543
 20
165.7577081301
 11
301.6473238987
 21
165.7572365089
  0
LINE
  5
318
100
AcDbEntity
  8
IMPORT_IGES
100
AcDbLine
 62
7
  6
CONTINUOUS
 10
303.647323843
 20
165.7567648876
 11
305.6473237874
 21
165.7562932663
  0
LINE
  5
319
100
AcDbEntity
  8
IMPORT_IGES
100
AcDbLine
 62
7
  6
CONTINUOUS
 10
309.64763023
 20
167.0553499877
 11
293.6476306749
 21
167.0591229577
  0
LINE
  5
31A
100
AcDbEntity
  8
IMPORT_IGES
100
AcDbLine
 62
7
  6
CONTINUOUS
 10
360.6424029847
 20
167.5433248918
 11
367.6525048512
 21
167.5416718352
  0
LINE
  5
31B
100
AcDbEntity
  8
IMPORT_IGES
100
AcDbLine
 62
7
  6
CONTINUOUS
 10
350.6525289049
 20
167.6456806164
 11
360.3424265741
 21
167.6433956354
  0
LINE
  5
31C
100
AcDbEntity
  8
IMPORT_IGES
100
AcDbLine
 62
250
  6
CONTINUOUS
 10
330.5481602229
 20
169.300421483
 11
350.6529179924
 21
169.2956805672
  0
LINE
  5
31D
100
AcDbEntity
  8
IMPORT_IGES
100
AcDbLine
 62
7
  6
CONTINUOUS
 10
360.3433226545
 20
171.4433955233
 11
350.6534249853
 21
171.4456805042
  0
LINE
  5
31E
100
AcDbEntity
  8
IMPORT_IGES
100
AcDbLine
 62
7
  6
CONTINUOUS
 10
360.6433462273
 20
171.5433247806
 11
367.6534480937
 21
171.541671724
  0
LINE
  5
31F
100
AcDbEntity
  8
IMPORT_IGES
100
AcDbLine
 62
7
  6
CONTINUOUS
 10
224.6791032324
 20
163.1217596321
 11
227.6171602324
 21
162.9190786321
  0
LINE
  5
320
100
AcDbEntity
  8
IMPORT_IGES
100
AcDbLine
 62
7
  6
CONTINUOUS
 10
229.1785552324
 20
163.6140056321
 11
224.6791032324
 21
164.0202806321
  0
LINE
  5
321
100
AcDbEntity
  8
IMPORT_IGES
100
AcDbLine
 62
7
  6
CONTINUOUS
 10
226.2724172324
 20
157.9292706321
 11
227.9422202324
 21
157.4616216321
  0
LINE
  5
322
100
AcDbEntity
  8
IMPORT_IGES
100
AcDbLine
 62
7
  6
CONTINUOUS
 10
229.1785552324
 20
166.7522136321
 11
226.0814432324
 21
167.6360906321
  0
LINE
  5
323
100
AcDbEntity
  8
IMPORT_IGES
100
AcDbLine
 62
7
  6
CONTINUOUS
 10
224.6791032324
 20
158.3805546321
 11
225.5773542324
 21
158.1213916321
  0
LINE
  5
324
100
AcDbEntity
  8
IMPORT_IGES
100
AcDbLine
 62
7
  6
CONTINUOUS
 10
229.1785552324
 20
157.8982626321
 11
224.6791032324
 21
159.3095776321
  0
LINE
  5
325
100
AcDbEntity
  8
IMPORT_IGES
100
AcDbLine
 62
7
  6
CONTINUOUS
 10
224.6791032324
 20
167.2599476321
 11
229.1785552324
 21
165.8136436321
  0
LINE
  5
326
100
AcDbEntity
  8
IMPORT_IGES
100
AcDbLine
 62
7
  6
CONTINUOUS
 10
229.1785552324
 20
160.8070666321
 11
226.6804452324
 21
161.7462776321
  0
LINE
  5
327
100
AcDbEntity
  8
IMPORT_IGES
100
AcDbLine
 62
7
  6
CONTINUOUS
 10
224.6791032324
 20
161.6855446321
 11
227.6049132324
 21
160.5688216321
  0
LWPOLYLINE
  5
328
100
AcDbEntity
  8
IMPORT_IGES
100
AcDbPolyline
 62
250
  6
CONTINUOUS
 90
3
 70
0
 10
246.4634571403
 20
133.3478196164
 10
246.4418982739
 20
133.3741829833
 10
246.4117261034
 20
133.4114707883
  0
LINE
  5
329
100
AcDbEntity
  8
IMPORT_IGES
100
AcDbLine
 62
250
  6
CONTINUOUS
 10
244.7773768959
 20
131.8312259745
 11
244.7560108022
 21
131.8575522855
  0
LINE
  5
32A
100
AcDbEntity
  8
IMPORT_IGES
100
AcDbLine
 62
250
  6
CONTINUOUS
 10
244.7560108022
 20
131.8575522855
 11
244.687833775
 21
131.9428755343
  0
LINE
  5
32B
100
AcDbEntity
  8
IMPORT_IGES
100
AcDbLine
 62
250
  6
CONTINUOUS
 10
244.687833775
 20
131.9428755343
 11
244.2795003107
 21
132.4591823537
  0
LWPOLYLINE
  5
32C
100
AcDbEntity
  8
IMPORT_IGES
100
AcDbPolyline
 62
250
  6
CONTINUOUS
 90
3
 70
0
 10
243.3078614627
 20
131.6914164816
 10
243.7837696959
 20
131.090901374
 10
243.8050032152
 20
131.0639079356
  0
LWPOLYLINE
  5
32D
100
AcDbEntity
  8
IMPORT_IGES
100
AcDbPolyline
 62
7
  6
CONTINUOUS
 90
88
 70
0
 10
226.819687707
 20
152.8803742468
 10
226.8254919963
 20
152.8699084248
 10
226.8316519148
 20
152.8591496008
 10
226.8381674626
 20
152.8480977746
 10
226.8450019916
 20
152.8367587842
 10
226.8521921498
 20
152.8251267918
 10
226.8598478815
 20
152.8131842834
 10
226.8679641511
 20
152.8009229196
 10
226.8765459941
 20
152.7883510399
 10
226.8857184613
 20
152.7754761486
 10
226.895495753
 20
152.7623004154
 10
226.9058636688
 20
152.7488216706
 10
226.9169046584
 20
152.7350409104
 10
226.9286188611
 20
152.720961826
 10
226.9410061376
 20
152.7065807261
 10
226.9541485194
 20
152.6918875336
 10
226.9680282791
 20
152.6768787274
 10
226.9826631441
 20
152.6615578286
 10
226.9981883282
 20
152.6459253226
 10
227.0145816439
 20
152.6299684864
 10
227.0318652786
 20
152.6137000431
 10
227.0502410083
 20
152.5971586471
 10
227.0696879349
 20
152.5803344501
 10
227.0902269563
 20
152.5632373005
 10
227.1121225421
 20
152.5459353987
 10
227.135377446
 20
152.5283967641
 10
227.1599889141
 20
152.5106533772
 10
227.1862131544
 20
152.4928693806
 10
227.2142401096
 20
152.4749278214
 10
227.243879837
 20
152.4569456524
 10
227.2748187162
 20
152.4394378749
 10
227.3071638604
 20
152.4224196389
 10
227.3408081564
 20
152.4058757943
 10
227.3751166443
 20
152.3902758929
 10
227.4098998199
 20
152.3757503728
 10
227.4453471873
 20
152.3621687959
 10
227.4813922995
 20
152.3496093985
 10
227.5179868912
 20
152.3380903249
 10
227.5551792276
 20
152.3275934308
 10
227.5930476564
 20
152.3181425198
 10
227.6315876039
 20
152.3097227827
 10
227.6708036438
 20
152.3023490286
 10
227.710787845
 20
152.296089488
 10
227.7515951062
 20
152.2909398948
 10
227.7931705286
 20
152.2869045153
 10
227.8354414853
 20
152.2840643786
 10
227.8786609906
 20
152.2824384586
 10
227.9225760301
 20
152.2820077815
 10
227.9663549334
 20
152.2827964557
 10
228.0100002591
 20
152.2848470467
 10
228.0535094485
 20
152.288116989
 10
228.0960431552
 20
152.2925026938
 10
228.1372984785
 20
152.2979985099
 10
228.177578319
 20
152.3046100885
 10
228.2169520319
 20
152.3122507943
 10
228.2553811577
 20
152.3209072987
 10
228.2929041559
 20
152.3305929303
 10
228.3297057594
 20
152.3412610395
 10
228.3658329853
 20
152.3529067399
 10
228.4012388165
 20
152.3655349179
 10
228.4359669348
 20
152.3791135839
 10
228.4700121736
 20
152.3936352261
 10
228.5033796996
 20
152.4091073563
 10
228.5361286942
 20
152.4255205205
 10
228.5682818494
 20
152.4428777594
 10
228.5998164734
 20
152.4611760323
 10
228.6307236723
 20
152.4803967626
 10
228.6610120609
 20
152.5005419069
 10
228.6906730245
 20
152.5216095085
 10
228.7196718244
 20
152.5435751214
 10
228.7480116436
 20
152.566439151
 10
228.7756892991
 20
152.5902011918
 10
228.8026605042
 20
152.6148355808
 10
228.8289502999
 20
152.6403745551
 10
228.8545336451
 20
152.6667858776
 10
228.8792911303
 20
152.693947174
 10
228.9033623321
 20
152.7221009215
 10
228.9266076738
 20
152.751004643
 10
228.9484890168
 20
152.7798085327
 10
228.9688988313
 20
152.8084390219
 10
228.987944647
 20
152.8369696793
 10
229.0054109141
 20
152.8647714048
 10
229.0211514342
 20
152.8916160249
 10
229.0353124057
 20
152.917731713
 10
229.0481168743
 20
152.94317389
 10
229.0596391887
 20
152.9679610294
 10
229.0698050002
 20
152.9920746577
 10
229.0786143088
 20
153.0155147749
  0
LINE
  5
32E
100
AcDbEntity
  8
IMPORT_IGES
100
AcDbLine
 62
7
  6
CONTINUOUS
 10
222.1791037314
 20
180.4509116279
 11
222.1791037314
 21
140.0509116279
  0
LINE
  5
32F
100
AcDbEntity
  8
IMPORT_IGES
100
AcDbLine
 62
7
  6
CONTINUOUS
 10
224.6791037314
 20
152.0562270539
 11
224.6791037314
 21
152.9596398332
  0
LINE
  5
330
100
AcDbEntity
  8
IMPORT_IGES
100
AcDbLine
 62
7
  6
CONTINUOUS
 10
224.6791037314
 20
154.397913467
 11
224.6791037314
 21
155.3333463669
  0
LINE
  5
331
100
AcDbEntity
  8
IMPORT_IGES
100
AcDbLine
 62
7
  6
CONTINUOUS
 10
224.6791032324
 20
155.6091446321
 11
224.6791032324
 21
156.5990356321
  0
LINE
  5
332
100
AcDbEntity
  8
IMPORT_IGES
100
AcDbLine
 62
7
  6
CONTINUOUS
 10
224.6791032324
 20
158.3805546321
 11
224.6791032324
 21
159.3095776321
  0
LINE
  5
333
100
AcDbEntity
  8
IMPORT_IGES
100
AcDbLine
 62
7
  6
CONTINUOUS
 10
224.6791032324
 20
159.4570586321
 11
224.6791032324
 21
160.3758576321
  0
LINE
  5
334
100
AcDbEntity
  8
IMPORT_IGES
100
AcDbLine
 62
7
  6
CONTINUOUS
 10
224.6791032324
 20
161.6855446321
 11
224.6791032324
 21
161.8172686321
  0
LINE
  5
335
100
AcDbEntity
  8
IMPORT_IGES
100
AcDbLine
 62
7
  6
CONTINUOUS
 10
224.6791032324
 20
163.1217596321
 11
224.6791032324
 21
164.0202806321
  0
LINE
  5
336
100
AcDbEntity
  8
IMPORT_IGES
100
AcDbLine
 62
7
  6
CONTINUOUS
 10
224.6791032324
 20
164.5258876321
 11
224.6791032324
 21
165.4650996321
  0
LINE
  5
337
100
AcDbEntity
  8
IMPORT_IGES
100
AcDbLine
 62
7
  6
CONTINUOUS
 10
224.6791032324
 20
167.2599476321
 11
224.6791032324
 21
168.0876286321
  0
LINE
  5
338
100
AcDbEntity
  8
IMPORT_IGES
100
AcDbLine
 62
7
  6
CONTINUOUS
 10
225.5773542324
 20
156.8423406321
 11
225.5773542324
 21
158.1213916321
  0
LINE
  5
339
100
AcDbEntity
  8
IMPORT_IGES
100
AcDbLine
 62
7
  6
CONTINUOUS
 10
226.2724172324
 20
157.0300416321
 11
226.2724172324
 21
157.9292706321
  0
LINE
  5
33A
100
AcDbEntity
  8
IMPORT_IGES
100
AcDbLine
 62
7
  6
CONTINUOUS
 10
226.4399404341
 20
153.8943304332
 11
226.4399404341
 21
154.397913467
  0
LINE
  5
33B
100
AcDbEntity
  8
IMPORT_IGES
100
AcDbLine
 62
7
  6
CONTINUOUS
 10
227.1768418385
 20
153.8923059787
 11
227.1768418385
 21
154.429056324
  0
LINE
  5
33C
100
AcDbEntity
  8
IMPORT_IGES
100
AcDbLine
 62
7
  6
CONTINUOUS
 10
229.1785552324
 20
169.5140426321
 11
229.1785552324
 21
168.4937676321
  0
LINE
  5
33D
100
AcDbEntity
  8
IMPORT_IGES
100
AcDbLine
 62
7
  6
CONTINUOUS
 10
229.1785552324
 20
166.7522136321
 11
229.1785552324
 21
165.8136436321
  0
LINE
  5
33E
100
AcDbEntity
  8
IMPORT_IGES
100
AcDbLine
 62
7
  6
CONTINUOUS
 10
229.1785552324
 20
163.6140056321
 11
229.1785552324
 21
162.6755706321
  0
LINE
  5
33F
100
AcDbEntity
  8
IMPORT_IGES
100
AcDbLine
 62
7
  6
CONTINUOUS
 10
229.1785552324
 20
160.8070666321
 11
229.1785552324
 21
159.8778076321
  0
LINE
  5
340
100
AcDbEntity
  8
IMPORT_IGES
100
AcDbLine
 62
7
  6
CONTINUOUS
 10
229.1785552324
 20
157.8982626321
 11
229.1785552324
 21
156.9896876321
  0
LINE
  5
341
100
AcDbEntity
  8
IMPORT_IGES
100
AcDbLine
 62
7
  6
CONTINUOUS
 10
229.1788252324
 20
165.4650996321
 11
229.1788252324
 21
164.5258876321
  0
LWPOLYLINE
  5
342
100
AcDbEntity
  8
IMPORT_IGES
100
AcDbPolyline
 62
7
  6
CONTINUOUS
 90
19
 70
0
 10
226.4399404341
 20
153.8943304332
 10
226.4383317469
 20
153.8548687335
 10
226.4342725042
 20
153.8165049812
 10
226.427762706
 20
153.7792391762
 10
226.4187733106
 20
153.7430344397
 10
226.4073333598
 20
153.7079276506
 10
226.3935299789
 20
153.674029445
 10
226.3773836287
 20
153.6413548204
 10
226.3588738484
 20
153.6098887794
 10
226.3380263809
 20
153.5796969656
 10
226.3148634688
 20
153.5507502435
 10
226.2893628695
 20
153.5230777487
 10
226.2614835975
 20
153.4968325319
 10
226.2312375126
 20
153.4720399071
 10
226.1986127549
 20
153.4486745602
 10
226.1635327592
 20
153.4268136003
 10
226.1259720039
 20
153.4064827302
 10
226.0859560106
 20
153.387656247
 10
226.0434847794
 20
153.3703341507
  0
LWPOLYLINE
  5
343
100
AcDbEntity
  8
IMPORT_IGES
100
AcDbPolyline
 62
7
  6
CONTINUOUS
 90
22
 70
0
 10
228.4385155661
 20
153.6932683696
 10
228.4318523009
 20
153.6497305586
 10
228.4226496592
 20
153.6073901286
 10
228.4109076409
 20
153.5662470794
 10
228.3965261305
 20
153.5260986841
 10
228.3796052436
 20
153.4871476697
 10
228.3604453268
 20
153.4500022172
 10
228.3390706328
 20
153.4147167411
 10
228.3154569089
 20
153.381236827
 10
228.2898317441
 20
153.350007412
 10
228.2621051528
 20
153.3211230893
 10
228.2323671206
 20
153.2944892657
 10
228.2011151937
 20
153.2702670985
 10
228.1682990231
 20
153.2485010211
 10
228.1339689578
 20
153.2291466001
 10
228.0987735906
 20
153.212231693
 10
228.0627318072
 20
153.1977397117
 10
228.0258247218
 20
153.1856872442
 10
227.9886442698
 20
153.1761519122
 10
227.9513877631
 20
153.1691595897
 10
227.9138578898
 20
153.1646844027
 10
227.8760546499
 20
153.1627263512
  0
LWPOLYLINE
  5
344
100
AcDbEntity
  8
IMPORT_IGES
100
AcDbPolyline
 62
7
  6
CONTINUOUS
 90
19
 70
0
 10
229.0786143088
 20
153.0155147749
 10
229.1090536728
 20
153.1065131817
 10
229.1360210255
 20
153.2025244991
 10
229.159516367
 20
153.3035487271
 10
229.1794914064
 20
153.4098225153
 10
229.1959944345
 20
153.5211092141
 10
229.2091703237
 20
153.6366988748
 10
229.219004491
 20
153.7564829284
 10
229.2255115194
 20
153.8805699439
 10
229.2288800302
 20
154.0085756788
 10
229.2290845446
 20
154.140391775
 10
229.2261505415
 20
154.2761265908
 10
229.2203430789
 20
154.4157209583
 10
229.2117393698
 20
154.5591874901
 10
229.2002622012
 20
154.7065135737
 10
229.1859449922
 20
154.8576022037
 10
229.1687988825
 20
155.012421045
 10
229.1488127324
 20
155.1710024328
 10
229.125986542
 20
155.3333463669
  0
LINE
  5
345
100
AcDbEntity
  8
IMPORT_IGES
100
AcDbLine
 62
250
  6
CONTINUOUS
 10
246.807001537
 20
185.3553132741
 11
247.262331659
 21
185.9234670644
  0
LINE
  5
346
100
AcDbEntity
  8
IMPORT_IGES
100
AcDbLine
 62
250
  6
CONTINUOUS
 10
247.262331659
 20
185.9234670644
 11
247.3143271469
 21
185.9874478721
  0
LINE
  5
347
100
AcDbEntity
  8
IMPORT_IGES
100
AcDbLine
 62
7
  6
CONTINUOUS
 10
67.9933861831
 20
180.0144750567
 11
69.0822387902
 21
180.0144750567
  0
LINE
  5
348
100
AcDbEntity
  8
IMPORT_IGES
100
AcDbLine
 62
7
  6
CONTINUOUS
 10
149.9934965214
 20
180.0144750567
 11
151.0823491285
 21
180.0144750567
  0
LINE
  5
349
100
AcDbEntity
  8
IMPORT_IGES
100
AcDbLine
 62
7
  6
CONTINUOUS
 10
234.9936068596
 20
180.0144750567
 11
236.0824594667
 21
180.0144750567
  0
LINE
  5
34A
100
AcDbEntity
  8
IMPORT_IGES
100
AcDbLine
 62
7
  6
CONTINUOUS
 10
196.4791037314
 20
180.7509116279
 11
221.8791037314
 21
180.7509116279
  0
LINE
  5
34B
100
AcDbEntity
  8
IMPORT_IGES
100
AcDbLine
 62
7
  6
CONTINUOUS
 10
67.9933861831
 20
181.1144750567
 11
69.0822387902
 21
181.1144750567
  0
LINE
  5
34C
100
AcDbEntity
  8
IMPORT_IGES
100
AcDbLine
 62
7
  6
CONTINUOUS
 10
149.9934965214
 20
181.1144750567
 11
151.0823491285
 21
181.1144750567
  0
LINE
  5
34D
100
AcDbEntity
  8
IMPORT_IGES
100
AcDbLine
 62
7
  6
CONTINUOUS
 10
234.9936068596
 20
181.1144750567
 11
236.0824594667
 21
181.1144750567
  0
LINE
  5
34E
100
AcDbEntity
  8
IMPORT_IGES
100
AcDbLine
 62
7
  6
CONTINUOUS
 10
350.6545686669
 20
176.2956803726
 11
329.2273644773
 21
176.3007331353
  0
LWPOLYLINE
  5
34F
100
AcDbEntity
  8
IMPORT_IGES
100
AcDbPolyline
 62
7
  6
CONTINUOUS
 90
79
 70
0
 10
329.2270915761
 20
176.3006007498
 10
329.3078197317
 20
176.2990756841
 10
329.3856912129
 20
176.295918341
 10
329.4607060333
 20
176.2911854623
 10
329.5327789606
 20
176.284943182
 10
329.6019952545
 20
176.2772421037
 10
329.6686106611
 20
176.2680959296
 10
329.7326311938
 20
176.2575302962
 10
329.7940508558
 20
176.2455894747
 10
329.8531073721
 20
176.232289672
 10
329.9098116997
 20
176.2176607405
 10
329.9641528959
 20
176.2017330471
 10
330.0163358338
 20
176.1845115856
 10
330.0663910482
 20
176.1660168717
 10
330.1142880157
 20
176.1462766813
 10
330.1601400201
 20
176.1252979397
 10
330.2039606693
 20
176.1030994391
 10
330.2457363653
 20
176.0797048381
 10
330.2855395819
 20
176.0551233603
 10
330.3233892282
 20
176.0293606955
 10
330.359266404
 20
176.0024492415
 10
330.3931868687
 20
175.9744406551
 10
330.4251493049
 20
175.9453501349
 10
330.4551550412
 20
175.9152096047
 10
330.4832238092
 20
175.8841070986
 10
330.5093254191
 20
175.8521042617
 10
330.5334900758
 20
175.8192030893
 10
330.5558281043
 20
175.7854063166
 10
330.5763356124
 20
175.7507673116
 10
330.5950165057
 20
175.7152890902
 10
330.6119928026
 20
175.6788862045
 10
330.6272893501
 20
175.6415487183
 10
330.6408813091
 20
175.6033199111
 10
330.6528161658
 20
175.5641817356
 10
330.6631012421
 20
175.5241183276
 10
330.6717292227
 20
175.4831735356
 10
330.6787256388
 20
175.4414202527
 10
330.6840846528
 20
175.3989120835
 10
330.6878121115
 20
175.3556345049
 10
330.6899510727
 20
175.3115592093
 10
330.6905113503
 20
175.2667194285
 10
330.6894831379
 20
175.2211139384
 10
330.6868800605
 20
175.1746537042
 10
330.6827173158
 20
175.1273528668
 10
330.6769797107
 20
175.079216861
 10
330.6696352803
 20
175.0301310526
 10
330.6606992971
 20
174.9800957236
 10
330.6501564902
 20
174.9291174924
 10
330.6379290766
 20
174.8770788827
 10
330.6240275328
 20
174.823965449
 10
330.6084413813
 20
174.7697876546
 10
330.5910614059
 20
174.7144556895
 10
330.5718927913
 20
174.6579512173
 10
330.5509303503
 20
174.6002822644
 10
330.5280493075
 20
174.5413927122
 10
330.5032423166
 20
174.4812505649
 10
330.4765167209
 20
174.4198749091
 10
330.4477697795
 20
174.3572856405
 10
330.4169879163
 20
174.293460708
 10
330.3841847055
 20
174.2284141121
 10
330.3492981329
 20
174.162224705
 10
330.3123240598
 20
174.0948998242
 10
330.2732666253
 20
174.0264336388
 10
330.2320762332
 20
173.9568913779
 10
330.1887578879
 20
173.8862922647
 10
330.143306587
 20
173.8146257737
 10
330.0956577252
 20
173.7419160642
 10
330.0458745165
 20
173.6682469575
 10
329.99389375
 20
173.593548211
 10
329.9394611811
 20
173.51760718
 10
329.8826213385
 20
173.4404447453
 10
329.8233296938
 20
173.3620412471
 10
329.7611984137
 20
173.2821086124
 10
329.6962437122
 20
173.2006199864
 10
329.6284493723
 20
173.1175897325
 10
329.5573789115
 20
173.032777766
 10
329.4828868332
 20
172.9460946888
 10
329.405118629
 20
172.857609116
 10
329.3240742971
 20
172.7673131042
  0
LINE
  5
350
100
AcDbEntity
  8
IMPORT_IGES
100
AcDbLine
 62
250
  6
CONTINUOUS
 10
247.314327147
 20
134.1415022677
 11
247.2623316598
 21
134.2054830779
  0
LINE
  5
351
100
AcDbEntity
  8
IMPORT_IGES
100
AcDbLine
 62
250
  6
CONTINUOUS
 10
247.2623316598
 20
134.2054830779
 11
246.8070015438
 21
134.7736368813
  0
LINE
  5
352
100
AcDbEntity
  8
IMPORT_IGES
100
AcDbLine
 62
250
  6
CONTINUOUS
 10
246.4117261034
 20
133.4114707883
 11
246.1314205732
 21
133.7613461118
  0
LINE
  5
353
100
AcDbEntity
  8
IMPORT_IGES
100
AcDbLine
 62
250
  6
CONTINUOUS
 10
246.1314205732
 20
133.7613461118
 11
245.9587911175
 21
133.977299102
  0
LWPOLYLINE
  5
354
100
AcDbEntity
  8
IMPORT_IGES
100
AcDbPolyline
 62
250
  6
CONTINUOUS
 90
18
 70
0
 10
245.4023365981
 20
135.3949057159
 10
245.4397799281
 20
135.3174645133
 10
245.4762377091
 20
135.2397196926
 10
245.5116216738
 20
135.1621112286
 10
245.5457835464
 20
135.0852218218
 10
245.5787286267
 20
135.0093391356
 10
245.6106004835
 20
134.9344419654
 10
245.6414142239
 20
134.8610622102
 10
245.6710452479
 20
134.7894353269
 10
245.6994243199
 20
134.7191050096
 10
245.72661479
 20
134.6502169514
 10
245.7524908317
 20
134.5834024908
 10
245.7767310662
 20
134.5189664607
 10
245.799244196
 20
134.4573727643
 10
245.8201736148
 20
134.3988081162
 10
245.8395724038
 20
134.3431890363
 10
245.8574790558
 20
134.2908392154
 10
245.873913925
 20
134.2420254025
  0
LWPOLYLINE
  5
355
100
AcDbEntity
  8
IMPORT_IGES
100
AcDbPolyline
 62
7
  6
CONTINUOUS
 90
10
 70
0
 10
228.4120289543
 20
154.429056324
 10
228.4257960084
 20
154.3467865629
 10
228.4369245459
 20
154.2645824965
 10
228.4454145666
 20
154.1824441249
 10
228.4513560807
 20
154.1002871929
 10
228.454659078
 20
154.0181959557
 10
228.4550535283
 20
153.9364231782
 10
228.4524494213
 20
153.8550531156
 10
228.4469367673
 20
153.7740015127
 10
228.4385155661
 20
153.6932683696
  0
LINE
  5
356
100
AcDbEntity
  8
IMPORT_IGES
100
AcDbLine
 62
7
  6
CONTINUOUS
 10
234.9936068596
 20
137.1244457475
 11
234.9936068596
 21
139.0144750864
  0
LINE
  5
357
100
AcDbEntity
  8
IMPORT_IGES
100
AcDbLine
 62
7
  6
CONTINUOUS
 10
234.9936068596
 20
140.1144750864
 11
234.9936068596
 21
142.0045044146
  0
LINE
  5
358
100
AcDbEntity
  8
IMPORT_IGES
100
AcDbLine
 62
7
  6
CONTINUOUS
 10
234.9936068596
 20
178.1244457179
 11
234.9936068596
 21
180.0144750567
  0
LINE
  5
359
100
AcDbEntity
  8
IMPORT_IGES
100
AcDbLine
 62
7
  6
CONTINUOUS
 10
234.9936068596
 20
181.1144750567
 11
234.9936068596
 21
183.0045043849
  0
LINE
  5
35A
100
AcDbEntity
  8
IMPORT_IGES
100
AcDbLine
 62
7
  6
CONTINUOUS
 10
236.0824594667
 20
137.1244457582
 11
236.0824594667
 21
139.0144750864
  0
LINE
  5
35B
100
AcDbEntity
  8
IMPORT_IGES
100
AcDbLine
 62
7
  6
CONTINUOUS
 10
236.0824594667
 20
140.1144750864
 11
236.0824594667
 21
142.0045044252
  0
LINE
  5
35C
100
AcDbEntity
  8
IMPORT_IGES
100
AcDbLine
 62
7
  6
CONTINUOUS
 10
236.0824594667
 20
178.1244457286
 11
236.0824594667
 21
180.0144750567
  0
LINE
  5
35D
100
AcDbEntity
  8
IMPORT_IGES
100
AcDbLine
 62
7
  6
CONTINUOUS
 10
236.0824594667
 20
181.1144750567
 11
236.0824594667
 21
183.0045043956
  0
LINE
  5
35E
100
AcDbEntity
  8
IMPORT_IGES
100
AcDbLine
 62
250
  6
CONTINUOUS
 10
243.0575718432
 20
187.4464625594
 11
242.9369094394
 21
186.9392546982
  0
LINE
  5
35F
100
AcDbEntity
  8
IMPORT_IGES
100
AcDbLine
 62
250
  6
CONTINUOUS
 10
243.113736651
 20
187.6761657525
 11
243.0575718432
 21
187.4464625594
  0
LINE
  5
360
100
AcDbEntity
  8
IMPORT_IGES
100
AcDbLine
 62
250
  6
CONTINUOUS
 10
243.1821956839
 20
187.9499918263
 11
243.113736651
 21
187.6761657525
  0
LWPOLYLINE
  5
361
100
AcDbEntity
  8
IMPORT_IGES
100
AcDbPolyline
 62
250
  6
CONTINUOUS
 90
4
 70
0
 10
243.3078580121
 20
188.4373921087
 10
243.3060719633
 20
188.4309784286
 10
243.3031176081
 20
188.4199651287
 10
243.1821956839
 20
187.9499918263
  0
LWPOLYLINE
  5
362
100
AcDbEntity
  8
IMPORT_IGES
100
AcDbPolyline
 62
250
  6
CONTINUOUS
 90
5
 70
0
 10
245.9588028532
 20
186.1516509341
 10
245.9569075993
 20
186.1449623288
 10
245.9536223964
 20
186.1336951488
 10
245.9489217234
 20
186.1178524356
 10
245.9427589315
 20
186.0975405535
  0
LWPOLYLINE
  5
363
100
AcDbEntity
  8
IMPORT_IGES
100
AcDbPolyline
 62
250
  6
CONTINUOUS
 90
3
 70
0
 10
245.9427589315
 20
186.0975405535
 10
245.9260288477
 20
186.0437175758
 10
245.9153883358
 20
186.0102152657
  0
LWPOLYLINE
  5
364
100
AcDbEntity
  8
IMPORT_IGES
100
AcDbPolyline
 62
250
  6
CONTINUOUS
 90
20
 70
0
 10
245.9153883358
 20
186.0102152657
 10
245.8895812719
 20
185.9310171151
 10
245.8745724893
 20
185.8860003865
 10
245.8580913094
 20
185.8376866254
 10
245.8401176067
 20
185.7858282289
 10
245.8205913516
 20
185.7305871702
 10
245.7994983989
 20
185.6723360387
 10
245.7768714831
 20
185.6110177312
 10
245.7526116891
 20
185.5468246439
 10
245.7267722454
 20
185.4801933317
 10
245.6996420653
 20
185.411413688
 10
245.6713525288
 20
185.3410861885
 10
245.6418358202
 20
185.2693732065
 10
245.6111081877
 20
185.1958819749
 10
245.5792801424
 20
185.1208903317
 10
245.5463458776
 20
185.0448924805
 10
245.512139243
 20
184.9678161343
 10
245.4766448965
 20
184.8899367352
 10
245.4400153089
 20
184.8118630696
 10
245.4023368689
 20
184.7340450616
  0
LWPOLYLINE
  5
365
100
AcDbEntity
  8
IMPORT_IGES
100
AcDbPolyline
 62
250
  6
CONTINUOUS
 90
109
 70
0
 10
69.0454293191
 20
188.4373917
 10
68.394356067
 20
188.4275877952
 10
67.7526248449
 20
188.3985533497
 10
67.1208419848
 20
188.3508559866
 10
66.4999120952
 20
188.2851127783
 10
65.8899882444
 20
188.2018843069
 10
65.2904882156
 20
188.1015688938
 10
64.7016896396
 20
187.9846334608
 10
64.124135918
 20
187.8516056165
 10
63.5576544798
 20
187.7028516815
 10
63.0038550592
 20
187.5392408367
 10
62.462142237
 20
187.3610420227
 10
61.929239989
 20
187.1673707756
 10
61.4052015899
 20
186.9582096536
 10
60.8910807771
 20
186.7339275452
 10
60.385280367
 20
186.4936665168
 10
59.8882532106
 20
186.2373282815
 10
59.4007617952
 20
185.9649767999
 10
58.9217192833
 20
185.6758721576
 10
58.4512825743
 20
185.3703115686
 10
57.9900264166
 20
185.0488981998
 10
57.5374592744
 20
184.711459826
 10
57.0947681885
 20
184.359033008
 10
56.6615781428
 20
183.9914613556
 10
56.2353663155
 20
183.6064270284
 10
55.817448548
 20
183.2047228647
 10
55.407882459
 20
182.7859833671
 10
55.0028740613
 20
182.3454231932
 10
54.6018892351
 20
181.8809207946
 10
54.2076959508
 20
181.3940728333
 10
53.8218335322
 20
180.885328963
 10
53.44546074
 20
180.3547581131
 10
53.0796579426
 20
179.8023414035
 10
52.7258174315
 20
179.2285632875
 10
52.3857111164
 20
178.6348810445
 10
52.059127041
 20
178.0204231627
 10
51.7447307738
 20
177.3821512368
 10
51.443866107
 20
176.7222300209
 10
51.1561115328
 20
176.0393433305
 10
50.8784680438
 20
175.3249027512
 10
50.6119887657
 20
174.5792675871
 10
50.3577247324
 20
173.8030041648
 10
50.1141354244
 20
172.9871047176
 10
49.8829993613
 20
172.1318449904
 10
49.665784384
 20
171.2370285258
 10
49.4618108251
 20
170.2926689916
 10
49.2731187304
 20
169.2993222957
 10
49.1017148811
 20
168.2570289233
 10
48.9482970992
 20
167.1548960628
 10
48.8141356519
 20
165.9788025016
 10
48.7038836761
 20
164.7435766213
 10
48.6214077934
 20
163.4819951228
 10
48.5662684225
 20
162.1948775737
 10
48.537769667
 20
160.882486286
 10
48.534826619
 20
159.5767826503
 10
48.5565473968
 20
158.2792631706
 10
48.6045950011
 20
156.9897095667
 10
48.6787253251
 20
155.7374536723
 10
48.7783349498
 20
154.5256559778
 10
48.9028819646
 20
153.352185238
 10
49.0484859696
 20
152.2381414954
 10
49.2105718643
 20
151.1951155011
 10
49.3876220319
 20
150.2118292045
 10
49.5796541867
 20
149.2748888891
 10
49.7851044573
 20
148.3840759487
 10
50.0020204575
 20
147.5402169672
 10
50.2317694452
 20
146.7319439691
 10
50.4734676075
 20
145.9580601357
 10
50.7253375135
 20
145.2198310669
 10
50.9886811556
 20
144.5100137295
 10
51.2623468661
 20
143.8294018062
 10
51.545384891
 20
143.1779220731
 10
51.8405723001
 20
142.5476332957
 10
52.1482577014
 20
141.9372531866
 10
52.4671370511
 20
141.3487198125
 10
52.7983976767
 20
140.7792434443
 10
53.1419961837
 20
140.2282756852
 10
53.4965321956
 20
139.6969602573
 10
53.8613670663
 20
139.1851305123
 10
54.2359129563
 20
138.6926123666
 10
54.6190785174
 20
138.2198767883
 10
55.0094745096
 20
137.7676078351
 10
55.40457026
 20
137.3375088542
 10
55.8050849804
 20
136.927604581
 10
56.2148039044
 20
136.5333536867
 10
56.633625681
 20
136.1545397968
 10
57.0604191405
 20
135.7918896046
 10
57.497981926
 20
135.4429756304
 10
57.9468945116
 20
135.1076339258
 10
58.405917787
 20
134.7871057314
 10
58.8754270226
 20
134.481443737
 10
59.3549097984
 20
134.1913484623
 10
59.8442485351
 20
133.9172496524
 10
60.3443802096
 20
133.6586775257
 10
60.8546798146
 20
133.4157524653
 10
61.3746673501
 20
133.1885031678
 10
61.9054967732
 20
132.976340476
 10
62.4466052047
 20
132.779505661
 10
62.9974706578
 20
132.5982113074
 10
63.5593982204
 20
132.4321547418
 10
64.1323914396
 20
132.2815883211
 10
64.7153162631
 20
132.1470846949
 10
65.3079296508
 20
132.0290347101
 10
65.9097580865
 20
131.9278993705
 10
66.5204136316
 20
131.8441181528
 10
67.1397909636
 20
131.7781085474
 10
67.7675068488
 20
131.7303479907
 10
68.4028940882
 20
131.7013364741
 10
69.0453727059
 20
131.6915584396
  0
LWPOLYLINE
  5
366
100
AcDbEntity
  8
IMPORT_IGES
100
AcDbPolyline
 62
7
  6
CONTINUOUS
 90
200
 70
0
 10
69.0454293187
 20
189.0646798173
 10
68.7139762876
 20
189.0620060912
 10
68.3837767094
 20
189.0544219771
 10
68.054830584
 20
189.0419274749
 10
67.7270226325
 20
189.024496781
 10
67.4004681339
 20
189.0021556991
 10
67.0755129253
 20
188.9749816405
 10
66.7521534115
 20
188.9429557578
 10
66.4303931877
 20
188.9060968985
 10
66.1105888763
 20
188.8645390159
 10
65.7927593242
 20
188.8182757648
 10
65.4768856845
 20
188.7673134905
 10
65.1632680382
 20
188.7118051817
 10
64.8519242027
 20
188.6517473101
 10
64.5428363606
 20
188.587143404
 10
64.2362511415
 20
188.5181570383
 10
63.9321541416
 20
188.4447790382
 10
63.6305597646
 20
188.3670185785
 10
63.3317578515
 20
188.2850667581
 10
63.0356439615
 20
188.1988756828
 10
62.7423225354
 20
188.1084932468
 10
62.4523967366
 20
188.0142542324
 10
62.1659378702
 20
187.9161597545
 10
61.8828746312
 20
187.8142086982
 10
61.6035962676
 20
187.7087325003
 10
61.328256826
 20
187.5997968508
 10
61.0567022599
 20
187.4873360597
 10
60.7888596771
 20
187.3714844943
 10
60.5248160261
 20
187.2523056701
 10
60.2644843584
 20
187.1297360717
 10
60.0075309364
 20
187.00371952
 10
59.7540802656
 20
186.8743484314
 10
59.5040078405
 20
186.7415303895
 10
59.2566064072
 20
186.6049319663
 10
59.0118776917
 20
186.464562158
 10
58.769819968
 20
186.3204119683
 10
58.5297208047
 20
186.1721209804
 10
58.2914454479
 20
186.0196524828
 10
58.0551286514
 20
185.863043187
 10
57.8204622456
 20
185.702042811
 10
57.587374217
 20
185.5366355975
 10
57.355936579
 20
185.3668373039
 10
57.1260572021
 20
185.1924449202
 10
56.8976348397
 20
185.0133857773
 10
56.6707707384
 20
184.8297325444
 10
56.4456765083
 20
184.641500219
 10
56.2223227605
 20
184.4486591982
 10
56.0007388841
 20
184.2512390849
 10
55.7812246561
 20
184.049343685
 10
55.5637966943
 20
183.8429842191
 10
55.3484383811
 20
183.6321494665
 10
55.1353996412
 20
183.4169095709
 10
54.9246779158
 20
183.197257156
 10
54.7162757638
 20
182.9731995981
 10
54.5104507865
 20
182.7448291693
 10
54.3071883087
 20
182.5121185778
 10
54.1065030056
 20
182.2750951155
 10
53.9086965037
 20
182.0339329304
 10
53.7138088521
 20
181.7886633002
 10
53.5218000016
 20
181.5392549471
 10
53.3328514316
 20
181.285788186
 10
53.1471211396
 20
181.0285156133
 10
52.964451128
 20
180.7671846325
 10
52.7845488836
 20
180.5011177689
 10
52.607414974
 20
180.2304155945
 10
52.4330488315
 20
179.9549775373
 10
52.2611562399
 20
179.6738244063
 10
52.0917795924
 20
179.3870829745
 10
51.9248764958
 20
179.0946264689
 10
51.7600255546
 20
178.7950953789
 10
51.5971528605
 20
178.4884671008
 10
51.4363323218
 20
178.1747642384
 10
51.2773642679
 20
177.852695092
 10
51.1200532172
 20
177.5219532712
 10
50.9645946513
 20
177.1828451665
 10
50.8113753439
 20
176.8349982495
 10
50.6603449908
 20
176.4783049142
 10
50.5115538963
 20
176.1128727666
 10
50.3655397465
 20
175.7386520957
 10
50.2223817853
 20
175.3558794148
 10
50.0820007688
 20
174.9643182105
 10
49.944696652
 20
174.5632092323
 10
49.8104632694
 20
174.1526482704
 10
49.6793067865
 20
173.7325395346
 10
49.5515456546
 20
173.3018364029
 10
49.4271729653
 20
172.8606302462
 10
49.3061956271
 20
172.4088296937
 10
49.1889528163
 20
171.9451140117
 10
49.0753827902
 20
171.4693274035
 10
48.9655472915
 20
170.9816256659
 10
48.859970725
 20
170.4811554558
 10
48.758542768
 20
169.9674344981
 10
48.6613737432
 20
169.440945068
 10
48.5693190228
 20
168.9022806473
 10
48.4824989663
 20
168.3522626305
 10
48.4007932144
 20
167.7900696231
 10
48.3246960605
 20
167.2138309236
 10
48.2542587941
 20
166.6254251452
 10
48.1894301258
 20
166.0229736748
 10
48.1305504814
 20
165.3989699715
 10
48.0772705009
 20
164.75091455
 10
48.0299395444
 20
164.0813068955
 10
47.9899461183
 20
163.3901389228
 10
47.9574496684
 20
162.6725015779
 10
47.9322907489
 20
161.9333039147
 10
47.9153795282
 20
161.1872650093
 10
47.9070339493
 20
160.4341505425
 10
47.9069360693
 20
159.6741948334
 10
47.9150422277
 20
158.9228199158
 10
47.9316360819
 20
158.1808213429
 10
47.9564339746
 20
157.4474035614
 10
47.9885412725
 20
156.7356019456
 10
48.0280667343
 20
156.0502706449
 10
48.0749016014
 20
155.3865555099
 10
48.1278249649
 20
154.7429294667
 10
48.1865232724
 20
154.1213786032
 10
48.2513100762
 20
153.5199168314
 10
48.3219051245
 20
152.9310588138
 10
48.3984233124
 20
152.3525741906
 10
48.4807497448
 20
151.7866933214
 10
48.5682594846
 20
151.2326219481
 10
48.6611012896
 20
150.6895474436
 10
48.759126402
 20
150.1582824349
 10
48.8612636114
 20
149.6404705447
 10
48.9673562242
 20
149.1368507826
 10
49.077560934
 20
148.646684139
 10
49.1912766109
 20
148.1693972084
 10
49.308422618
 20
147.7052765235
 10
49.4290795923
 20
147.2540355515
 10
49.5528883155
 20
146.8142412891
 10
49.6797680863
 20
146.3860079195
 10
49.8097996059
 20
145.9692212595
 10
49.9428657601
 20
145.5621057561
 10
50.0789424846
 20
145.16455916
 10
50.2180538436
 20
144.7766837206
 10
50.3601549151
 20
144.3970106333
 10
50.5053899319
 20
144.0250941717
 10
50.6536146613
 20
143.6613800622
 10
50.8043514831
 20
143.3057366799
 10
50.9575789516
 20
142.9581878508
 10
51.1133185127
 20
142.6187097489
 10
51.2711568836
 20
142.2870992704
 10
51.4309473076
 20
141.9635846387
 10
51.5928365415
 20
141.6479376304
 10
51.7568515729
 20
141.3392704721
 10
51.9229266005
 20
141.0376315256
 10
52.0911274255
 20
140.7429724291
 10
52.2616784401
 20
140.4542603241
 10
52.4345747959
 20
140.1714573255
 10
52.6098213412
 20
139.8946013185
 10
52.7876570135
 20
139.6227730999
 10
52.9680681588
 20
139.3558977247
 10
53.1510684311
 20
139.094050138
 10
53.3369377296
 20
138.8365359715
 10
53.5258082189
 20
138.5831376469
 10
53.7175477344
 20
138.3340727425
 10
53.9120396815
 20
138.0892996243
 10
54.1093083165
 20
137.8487961843
 10
54.3093293831
 20
137.6125845306
 10
54.5119135181
 20
137.3806893532
 10
54.7170423333
 20
137.1531268581
 10
54.924734217
 20
136.9298808394
 10
55.1348549708
 20
136.7109273694
 10
55.3474145199
 20
136.4962562832
 10
55.5624029391
 20
136.2858777457
 10
55.7796562553
 20
136.0797983239
 10
55.9992512601
 20
135.8779542947
 10
56.2211111618
 20
135.6804093812
 10
56.4448416122
 20
135.4873613194
 10
56.6704242424
 20
135.2988386983
 10
56.8978774213
 20
135.1148129289
 10
57.1268619076
 20
134.9353959805
 10
57.3572783948
 20
134.7606603048
 10
57.5892261893
 20
134.59053345
 10
57.8226639695
 20
134.4249100299
 10
58.0575049653
 20
134.2638232649
 10
58.2938359468
 20
134.1072399345
 10
58.5318759013
 20
133.954954992
 10
58.7714480089
 20
133.8070350673
 10
59.0127290896
 20
133.6634135305
 10
59.2564685909
 20
133.5236854448
 10
59.5026445615
 20
133.387853524
 10
59.7512789526
 20
133.2559150545
 10
60.0031870657
 20
133.1274569588
 10
60.2584360447
 20
133.002402358
 10
60.5169587457
 20
132.8808281311
 10
60.7793690376
 20
132.7625518378
 10
61.0457404342
 20
132.6474981048
 10
61.3159994217
 20
132.5357423054
 10
61.5905393276
 20
132.42732812
 10
61.8695929775
 20
132.3221578516
 10
62.1529275458
 20
132.2203291972
 10
62.440237883
 20
132.1221789278
 10
62.7316463426
 20
132.0276928958
 10
63.0270305711
 20
131.9368852488
 10
63.325718358
 20
131.8501352006
 10
63.6277436169
 20
131.7674602553
 10
63.9330724344
 20
131.6888429088
 10
64.2409308596
 20
131.6146098632
 10
64.551323805
 20
131.5447772384
  0
LWPOLYLINE
  5
367
100
AcDbEntity
  8
IMPORT_IGES
100
AcDbPolyline
 62
7
  6
CONTINUOUS
 90
15
 70
0
 10
64.551323805
 20
131.5447772384
 10
64.8642463583
 20
131.4793289145
 10
65.1789098312
 20
131.4185432342
 10
65.4952161782
 20
131.3624646505
 10
65.8132634448
 20
131.3110487104
 10
66.1325570792
 20
131.2644403978
 10
66.4530751583
 20
131.2226589332
 10
66.7748396053
 20
131.1856850961
 10
67.0974216381
 20
131.1536062084
 10
67.4208210262
 20
131.126443206
 10
67.7450380001
 20
131.1041751531
 10
68.0696444694
 20
131.0868265639
 10
68.3944977371
 20
131.0744056099
 10
68.7197405001
 20
131.0669041195
 10
69.0453727584
 20
131.0643220929
  0
LINE
  5
368
100
AcDbEntity
  8
IMPORT_IGES
100
AcDbLine
 62
250
  6
CONTINUOUS
 10
242.9369094394
 20
186.9392534132
 11
69.0454291274
 21
186.9392534132
  0
LINE
  5
369
100
AcDbEntity
  8
IMPORT_IGES
100
AcDbLine
 62
250
  6
CONTINUOUS
 10
69.0454294451
 20
188.4373921087
 11
243.3078580121
 21
188.4373921087
  0
LINE
  5
36A
100
AcDbEntity
  8
IMPORT_IGES
100
AcDbLine
 62
7
  6
CONTINUOUS
 10
243.8050044609
 20
189.0643319542
 11
69.0454293187
 21
189.0646798173
  0
LWPOLYLINE
  5
36B
100
AcDbEntity
  8
IMPORT_IGES
100
AcDbPolyline
 62
250
  6
CONTINUOUS
 90
22
 70
0
 10
243.3078580121
 20
188.4373925179
 10
243.37038793
 20
188.4352778864
 10
243.4331526647
 20
188.4291845691
 10
243.4957235736
 20
188.4191272912
 10
243.5576016559
 20
188.4051542307
 10
243.6185159887
 20
188.3872828124
 10
243.6784090578
 20
188.365454385
 10
243.7368888094
 20
188.3398019037
 10
243.7935825755
 20
188.310494712
 10
243.8484342713
 20
188.2775418823
 10
243.9011133508
 20
188.2411398186
 10
243.9512819957
 20
188.2015053018
 10
243.9988869987
 20
188.158680415
 10
244.0436392378
 20
188.112943576
 10
244.0852711568
 20
188.0645708438
 10
244.1237609568
 20
188.0136147616
 10
244.1588574392
 20
187.960398841
 10
244.1903406203
 20
187.9052737549
 10
244.2182544156
 20
187.8483088039
 10
244.2425191551
 20
187.7897633778
 10
244.262972437
 20
187.730111728
 10
244.2795007068
 20
187.6697673569
  0
LINE
  5
36C
100
AcDbEntity
  8
IMPORT_IGES
100
AcDbLine
 62
7
  6
CONTINUOUS
 10
246.4634886901
 20
186.7812827689
 11
246.3637606839
 21
186.7968238515
  0
LWPOLYLINE
  5
36D
100
AcDbEntity
  8
IMPORT_IGES
100
AcDbPolyline
 62
250
  6
CONTINUOUS
 90
22
 70
0
 10
245.9588026336
 20
186.1516492858
 10
246.0157020144
 20
186.1422837173
 10
246.0726026094
 20
186.1294806954
 10
246.1291813238
 20
186.1132492185
 10
246.1852659761
 20
186.0935485746
 10
246.2404107627
 20
186.0704229634
 10
246.2939103977
 20
186.0441061925
 10
246.3452147687
 20
186.01496425
 10
246.3943507259
 20
185.9831017699
 10
246.4414844885
 20
185.9484564859
 10
246.486327559
 20
185.9112914238
 10
246.5287378538
 20
185.8717675802
 10
246.5690396225
 20
185.8295655075
 10
246.6070326062
 20
185.7848227282
 10
246.6424357044
 20
185.7377838384
 10
246.6753412938
 20
185.6882189618
 10
246.7056339606
 20
185.636057171
 10
246.7328481612
 20
185.5818443258
 10
246.756653603
 20
185.5262954375
 10
246.7769497192
 20
185.4698731632
 10
246.7937490637
 20
185.4127637389
 10
246.806999428
 20
185.3553128574
  0
LWPOLYLINE
  5
36E
100
AcDbEntity
  8
IMPORT_IGES
100
AcDbPolyline
 62
7
  6
CONTINUOUS
 90
24
 70
0
 10
246.3637606839
 20
186.7968238515
 10
246.2653060503
 20
186.8173316721
 10
246.168362863
 20
186.8426648808
 10
246.0726121573
 20
186.8729043305
 10
245.9782869774
 20
186.9079650138
 10
245.886086456
 20
186.9475919086
 10
245.7960272048
 20
186.9918228365
 10
245.708092612
 20
187.0406199759
 10
245.6229319751
 20
187.0936148407
 10
245.5405651035
 20
187.150837314
 10
245.4609721879
 20
187.2122575127
 10
245.3847430978
 20
187.2774173004
 10
245.3119018689
 20
187.3463433919
 10
245.2424244656
 20
187.4190090725
 10
245.1768286506
 20
187.4948760617
 10
245.1151420547
 20
187.5739672043
 10
245.0573370471
 20
187.6562596555
 10
245.0038484978
 20
187.7411466004
 10
244.9547066829
 20
187.8286472018
 10
244.9098813263
 20
187.9187422969
 10
244.8697164702
 20
188.0107675824
 10
244.8343267953
 20
188.1045016238
 10
244.803597621
 20
188.2001658557
 10
244.7775289471
 20
188.297760278
  0
LWPOLYLINE
  5
36F
100
AcDbEntity
  8
IMPORT_IGES
100
AcDbPolyline
 62
250
  6
CONTINUOUS
 90
25
 70
0
 10
245.4023368689
 20
184.7340450616
 10
245.2689531313
 20
184.7689226049
 10
245.1372886324
 20
184.808989151
 10
245.0073433723
 20
184.8542446998
 10
244.8790724784
 20
184.904643814
 10
244.7525208233
 20
184.960231931
 10
244.627823024
 20
185.0211453628
 10
244.5047723642
 20
185.0875032517
 10
244.3835755602
 20
185.1591864554
 10
244.2649873785
 20
185.2359738586
 10
244.1489666947
 20
185.3178795158
 10
244.0355546332
 20
185.4048893724
 10
243.9256293328
 20
185.4967401495
 10
243.81930376
 20
185.5934564191
 10
243.7164649483
 20
185.6950136093
 10
243.6176521379
 20
185.8010747259
 10
243.5227593001
 20
185.9117539046
 10
243.4318924637
 20
186.0269370098
 10
243.3459089554
 20
186.1459446407
 10
243.2649968845
 20
186.2685389691
 10
243.1889681417
 20
186.3949578232
 10
243.1181157259
 20
186.5252352864
 10
243.0525373034
 20
186.6593827196
 10
242.9921352079
 20
186.7973887619
 10
242.9369094394
 20
186.9392534132
  0
LINE
  5
370
100
AcDbEntity
  8
IMPORT_IGES
100
AcDbLine
 62
250
  6
CONTINUOUS
 10
245.956662813
 20
133.983840351
 11
245.9588028833
 21
133.9772991733
  0
LINE
  5
371
100
AcDbEntity
  8
IMPORT_IGES
100
AcDbLine
 62
250
  6
CONTINUOUS
 10
245.873913925
 20
134.2420254025
 11
245.9024754048
 21
134.1549733343
  0
LINE
  5
372
100
AcDbEntity
  8
IMPORT_IGES
100
AcDbLine
 62
250
  6
CONTINUOUS
 10
245.9024754048
 20
134.1549733343
 11
245.9253068629
 21
134.0838964387
  0
LINE
  5
373
100
AcDbEntity
  8
IMPORT_IGES
100
AcDbLine
 62
250
  6
CONTINUOUS
 10
245.9253068629
 20
134.0838964387
 11
245.956662813
 21
133.983840351
  0
LWPOLYLINE
  5
374
100
AcDbEntity
  8
IMPORT_IGES
100
AcDbPolyline
 62
250
  6
CONTINUOUS
 90
3
 70
0
 10
243.3030143201
 20
131.7093283604
 10
243.3060113936
 20
131.6981134005
 10
243.3078614627
 20
131.6915576283
  0
LINE
  5
375
100
AcDbEntity
  8
IMPORT_IGES
100
AcDbLine
 62
250
  6
CONTINUOUS
 10
243.2795559817
 20
131.7989160375
 11
243.3030143201
 21
131.7093283604
  0
LINE
  5
376
100
AcDbEntity
  8
IMPORT_IGES
100
AcDbLine
 62
250
  6
CONTINUOUS
 10
243.2131595747
 20
132.0566440414
 11
243.2795559817
 21
131.7989160375
  0
LINE
  5
377
100
AcDbEntity
  8
IMPORT_IGES
100
AcDbLine
 62
250
  6
CONTINUOUS
 10
243.1671086611
 20
132.238693932
 11
243.2131595747
 21
132.0566440414
  0
LINE
  5
378
100
AcDbEntity
  8
IMPORT_IGES
100
AcDbLine
 62
250
  6
CONTINUOUS
 10
243.0787085425
 20
132.5960813734
 11
243.1671086611
 21
132.238693932
  0
LINE
  5
379
100
AcDbEntity
  8
IMPORT_IGES
100
AcDbLine
 62
250
  6
CONTINUOUS
 10
242.9988435228
 20
132.9272960361
 11
243.0787085425
 21
132.5960813734
  0
LINE
  5
37A
100
AcDbEntity
  8
IMPORT_IGES
100
AcDbLine
 62
250
  6
CONTINUOUS
 10
242.936910463
 20
133.1896965762
 11
242.9988435228
 21
132.9272960361
  0
LWPOLYLINE
  5
37B
100
AcDbEntity
  8
IMPORT_IGES
100
AcDbPolyline
 62
7
  6
CONTINUOUS
 90
10
 70
0
 10
249.8005048969
 20
165.3123311513
 10
249.6868778642
 20
167.6269262144
 10
249.5325320572
 20
169.9377221582
 10
249.337467476
 20
172.2447189825
 10
249.1015974017
 20
174.5486378187
 10
248.8250085531
 20
176.8487575355
 10
248.5079610865
 20
179.1429147388
 10
248.1505417204
 20
181.4303882972
 10
247.7526637362
 20
183.711899342
 10
247.3143271339
 20
185.9874478734
  0
LINE
  5
37C
100
AcDbEntity
  8
IMPORT_IGES
100
AcDbLine
 62
7
  6
CONTINUOUS
 10
249.7966879421
 20
164.8694712578
 11
249.8230807709
 21
162.6511733774
  0
LWPOLYLINE
  5
37D
100
AcDbEntity
  8
IMPORT_IGES
100
AcDbPolyline
 62
7
  6
CONTINUOUS
 90
6
 70
0
 10
249.7956190601
 20
154.9693753843
 10
249.7960135482
 20
154.9196980344
 10
249.7966972224
 20
154.8795120799
 10
249.7976772616
 20
154.8489008503
 10
249.7989464869
 20
154.827921722
 10
249.8005048983
 20
154.816619611
  0
LINE
  5
37E
100
AcDbEntity
  8
IMPORT_IGES
100
AcDbLine
 62
7
  6
CONTINUOUS
 10
249.8230807709
 20
162.6511733774
 11
249.8316094143
 21
161.6189865294
  0
LINE
  5
37F
100
AcDbEntity
  8
IMPORT_IGES
100
AcDbLine
 62
7
  6
CONTINUOUS
 10
249.795636888
 20
165.0329761514
 11
249.7966879421
 21
164.8694712578
  0
LINE
  5
380
100
AcDbEntity
  8
IMPORT_IGES
100
AcDbLine
 62
7
  6
CONTINUOUS
 10
249.8316094143
 20
161.6189865294
 11
249.8356264935
 21
160.7391353031
  0
LINE
  5
381
100
AcDbEntity
  8
IMPORT_IGES
100
AcDbLine
 62
7
  6
CONTINUOUS
 10
249.8356264935
 20
160.7391353031
 11
249.8364648724
 21
159.8422562393
  0
LINE
  5
382
100
AcDbEntity
  8
IMPORT_IGES
100
AcDbLine
 62
7
  6
CONTINUOUS
 10
249.7956396068
 20
155.0967206666
 11
249.7956190601
 21
154.9693753843
  0
LINE
  5
383
100
AcDbEntity
  8
IMPORT_IGES
100
AcDbLine
 62
7
  6
CONTINUOUS
 10
249.8364648724
 20
159.8422562393
 11
249.8340077544
 21
158.9515945668
  0
LINE
  5
384
100
AcDbEntity
  8
IMPORT_IGES
100
AcDbLine
 62
7
  6
CONTINUOUS
 10
249.8340077544
 20
158.9515945668
 11
249.8286278864
 21
158.0917455381
  0
LINE
  5
385
100
AcDbEntity
  8
IMPORT_IGES
100
AcDbLine
 62
7
  6
CONTINUOUS
 10
249.7975665529
 20
155.3554101547
 11
249.7956396068
 21
155.0967206666
  0
LINE
  5
386
100
AcDbEntity
  8
IMPORT_IGES
100
AcDbLine
 62
7
  6
CONTINUOUS
 10
249.8286278864
 20
158.0917455381
 11
249.8190590982
 21
157.1022558518
  0
LINE
  5
387
100
AcDbEntity
  8
IMPORT_IGES
100
AcDbLine
 62
7
  6
CONTINUOUS
 10
249.8190590982
 20
157.1022558518
 11
249.7975665529
 21
155.3554101547
  0
LWPOLYLINE
  5
388
100
AcDbEntity
  8
IMPORT_IGES
100
AcDbPolyline
 62
7
  6
CONTINUOUS
 90
7
 70
0
 10
249.8005048969
 20
165.3123305286
 10
249.7989498354
 20
165.3010747186
 10
249.7976826094
 20
165.2801846377
 10
249.7967032188
 20
165.2496906552
 10
249.7960184591
 20
165.2096317248
 10
249.7956215349
 20
165.1600789273
 10
249.795636888
 20
165.0329761514
  0
LWPOLYLINE
  5
389
100
AcDbEntity
  8
IMPORT_IGES
100
AcDbPolyline
 62
7
  6
CONTINUOUS
 90
10
 70
0
 10
247.314327134
 20
134.1415022665
 10
247.7526637374
 20
136.4170508
 10
248.1505417225
 20
138.6985618471
 10
248.5079610892
 20
140.9860354077
 10
248.8250085563
 20
143.280192637
 10
249.101597405
 20
145.5803123798
 10
249.3374674792
 20
147.8842311711
 10
249.5325320601
 20
150.1912278559
 10
249.6868778665
 20
152.5020235892
 10
249.8005048983
 20
154.816618371
  0
LWPOLYLINE
  5
38A
100
AcDbEntity
  8
IMPORT_IGES
100
AcDbPolyline
 62
250
  6
CONTINUOUS
 90
22
 70
0
 10
246.8069994348
 20
134.773637298
 10
246.7941045542
 20
134.7175465262
 10
246.7777878516
 20
134.6616557168
 10
246.7580758171
 20
134.6062894864
 10
246.7349349215
 20
134.5516274624
 10
246.7084362514
 20
134.4981123431
 10
246.6788575226
 20
134.446427608
 10
246.6465973489
 20
134.3970936533
 10
246.6117557542
 20
134.350078015
 10
246.5742559352
 20
134.3052211159
 10
246.5343758568
 20
134.2627968771
 10
246.4922845509
 20
134.2229370922
 10
246.4476405824
 20
134.1853397912
 10
246.4005932784
 20
134.150196804
 10
246.3514021112
 20
134.1177762097
 10
246.2998289901
 20
134.0880046305
 10
246.2458097509
 20
134.061004332
 10
246.1899243512
 20
134.0372065968
 10
246.1329121594
 20
134.0168964001
 10
246.0752401872
 20
134.0001463864
 10
246.0170885304
 20
133.9869366532
 10
245.9588026615
 20
133.9773008389
  0
LWPOLYLINE
  5
38B
100
AcDbEntity
  8
IMPORT_IGES
100
AcDbPolyline
 62
7
  6
CONTINUOUS
 90
22
 70
0
 10
247.314327134
 20
134.1415022665
 10
247.3007648631
 20
134.0835205463
 10
247.2839871212
 20
134.026872007
 10
247.2639939083
 20
133.9715566486
 10
247.2407212035
 20
133.9174372311
 10
247.2142330276
 20
133.8646509944
 10
247.184721444
 20
133.8136096585
 10
247.1521057154
 20
133.7642453467
 10
247.116466579
 20
133.7166259357
 10
247.0782383097
 20
133.671366775
 10
247.0374241472
 20
133.6285422205
 10
246.9940208518
 20
133.5880779164
 10
246.9484529794
 20
133.5503661444
 10
246.9006467915
 20
133.5154092599
 10
246.8506760266
 20
133.4832049075
 10
246.7991864569
 20
133.4541383029
 10
246.7462509926
 20
133.4282909732
 10
246.6917967235
 20
133.4055813913
 10
246.6362506905
 20
133.3861501916
 10
246.5797552405
 20
133.3700442523
 10
246.5221680265
 20
133.3572166953
 10
246.4634890487
 20
133.3476675206
  0
LWPOLYLINE
  5
38C
100
AcDbEntity
  8
IMPORT_IGES
100
AcDbPolyline
 62
7
  6
CONTINUOUS
 90
4
 70
0
 10
244.7775284974
 20
131.8311881192
 10
244.8035113506
 20
131.9287265139
 10
244.8341750837
 20
132.0243495143
 10
244.8694729477
 20
132.1179331762
  0
LWPOLYLINE
  5
38D
100
AcDbEntity
  8
IMPORT_IGES
100
AcDbPolyline
 62
250
  6
CONTINUOUS
 90
22
 70
0
 10
244.2795002708
 20
132.4591823632
 10
244.2629722849
 20
132.39883914
 10
244.2425193577
 20
132.3391884245
 10
244.218255018
 20
132.2806437223
 10
244.1903416304
 20
132.2236792741
 10
244.1588588463
 20
132.1685545075
 10
244.1237627578
 20
132.1153388
 10
244.0852733132
 20
132.0643828159
 10
244.0436416813
 20
132.0160100522
 10
243.9988896826
 20
131.9702731024
 10
243.9512848732
 20
131.927448044
 10
243.9011163612
 20
131.8878132992
 10
243.8484373707
 20
131.8514109852
 10
243.7935857171
 20
131.818457886
 10
243.7368919447
 20
131.7891504116
 10
243.6784121676
 20
131.7634976554
 10
243.6185190449
 20
131.741668955
 10
243.5576046464
 20
131.7237972782
 10
243.495726554
 20
131.7098239896
 10
243.433155711
 20
131.6997665013
 10
243.3703910915
 20
131.6936729719
 10
243.3078613309
 20
131.691558113
  0
LWPOLYLINE
  5
38E
100
AcDbEntity
  8
IMPORT_IGES
100
AcDbPolyline
 62
7
  6
CONTINUOUS
 90
22
 70
0
 10
244.777267295
 20
131.8312522697
 10
244.760328055
 20
131.7694376085
 10
244.7397122495
 20
131.7093165543
 10
244.7154198786
 20
131.6508891071
 10
244.6873178057
 20
131.5939388982
 10
244.6555391674
 20
131.5386822964
 10
244.6204833732
 20
131.4857684079
 10
244.5821172192
 20
131.4352237416
 10
244.5404739093
 20
131.3870217887
 10
244.4960524655
 20
131.3417321284
 10
244.4488211354
 20
131.2993884336
 10
244.3988116714
 20
131.2599570315
 10
244.3466183522
 20
131.2239064831
 10
244.2922158849
 20
131.1912755291
 10
244.2356295625
 20
131.1620254288
 10
244.1775295424
 20
131.1365085215
 10
244.1178976871
 20
131.1147770118
 10
244.0567521341
 20
131.096778695
 10
243.9948174534
 20
131.0827092961
 10
243.9323351684
 20
131.0726340567
 10
243.8690637556
 20
131.0664877351
 10
243.8050032152
 20
131.0642703314
  0
LWPOLYLINE
  5
38F
100
AcDbEntity
  8
IMPORT_IGES
100
AcDbPolyline
 62
250
  6
CONTINUOUS
 90
25
 70
0
 10
242.936910463
 20
133.1896951409
 10
242.9921594545
 20
133.3316140078
 10
243.0525859522
 20
133.469667741
 10
243.1181899559
 20
133.6038563403
 10
243.1890698517
 20
133.7341681836
 10
243.2651272536
 20
133.8606148931
 10
243.3460670041
 20
133.9832313357
 10
243.4320772141
 20
134.1022554798
 10
243.5229697728
 20
134.2174493571
 10
243.6178851905
 20
134.3281339291
 10
243.7167170719
 20
134.4341945925
 10
243.8195718123
 20
134.5357459506
 10
243.9259091087
 20
134.6324527755
 10
244.0358421276
 20
134.7242906342
 10
244.1492577024
 20
134.8112839596
 10
244.2652760303
 20
134.8931708222
 10
244.3838553341
 20
134.9699368637
 10
244.5050373911
 20
135.0415964424
 10
244.6280677291
 20
135.1079307038
 10
244.7527399731
 20
135.1688208143
 10
244.8792604981
 20
135.2243856075
 10
245.0074939578
 20
135.2747627296
 10
245.1373952366
 20
135.3199980628
 10
245.26900945
 20
135.3600457249
 10
245.4023365981
 20
135.3949057159
  0
LWPOLYLINE
  5
390
100
AcDbEntity
  8
IMPORT_IGES
100
AcDbPolyline
 62
7
  6
CONTINUOUS
 90
22
 70
0
 10
244.7775289471
 20
188.297760278
 10
244.7603528793
 20
188.3597231654
 10
244.7395541639
 20
188.4199508066
 10
244.7151328009
 20
188.4784432016
 10
244.6869657297
 20
188.5354104918
 10
244.6551760108
 20
188.5906425359
 10
244.6201328264
 20
188.6435089096
 10
244.5817949449
 20
188.6939808281
 10
244.5402035978
 20
188.7420870763
 10
244.495851661
 20
188.7872835843
 10
244.4487117626
 20
188.8295401237
 10
244.3988112746
 20
188.868886923
 10
244.3467251891
 20
188.9048705977
 10
244.2924304959
 20
188.9374574802
 10
244.2359502052
 20
188.9666812382
 10
244.1779283404
 20
188.9921894903
 10
244.1183465272
 20
189.0139453931
 10
244.0572231398
 20
189.0319857899
 10
243.9952573249
 20
189.0460688296
 10
243.9326821311
 20
189.056113895
 10
243.8692645098
 20
189.0622016032
 10
243.8050044609
 20
189.0643319542
  0
LWPOLYLINE
  5
391
100
AcDbEntity
  8
IMPORT_IGES
100
AcDbPolyline
 62
250
  6
CONTINUOUS
 90
25
 70
0
 10
244.279502005
 20
187.6697675936
 10
244.3046753094
 20
187.5742409533
 10
244.334787956
 20
187.4797706947
 10
244.3698248394
 20
187.3865435629
 10
244.4098594145
 20
187.2945513743
 10
244.4547866385
 20
187.2042109235
 10
244.5042238167
 20
187.1163067633
 10
244.5579315239
 20
187.0311648617
 10
244.6158738572
 20
186.9487735842
 10
244.6778722264
 20
186.8693558896
 10
244.7438096055
 20
186.7930436533
 10
244.8135192798
 20
186.7200293421
 10
244.8867167826
 20
186.6506029221
 10
244.963229753
 20
186.5849136182
 10
245.0428991874
 20
186.5230982091
 10
245.1254259582
 20
186.4653894286
 10
245.2106136372
 20
186.4119210056
 10
245.2983032733
 20
186.3628006673
 10
245.3882323224
 20
186.3181884087
 10
245.4803951959
 20
186.2781185236
 10
245.5744500991
 20
186.2427801053
 10
245.6695862197
 20
186.2124572831
 10
245.7653819186
 20
186.1872021952
 10
245.8618496872
 20
186.1669373834
 10
245.9588028532
 20
186.1516509341
  0
LWPOLYLINE
  5
392
100
AcDbEntity
  8
IMPORT_IGES
100
AcDbPolyline
 62
7
  6
CONTINUOUS
 90
22
 70
0
 10
247.3143271339
 20
185.9874478734
 10
247.3002853273
 20
186.0466098615
 10
247.2831293695
 20
186.1041099497
 10
247.2628592607
 20
186.1599481378
 10
247.2394011664
 20
186.2142037159
 10
247.212828921
 20
186.266797394
 10
247.1833640278
 20
186.3174913017
 10
247.1509427547
 20
186.3663534211
 10
247.1156288339
 20
186.4133157701
 10
247.0778349654
 20
186.4579365318
 10
247.0375993695
 20
186.5001634404
 10
246.994883826
 20
186.5400487618
 10
246.9499863749
 20
186.5773074766
 10
246.9028509589
 20
186.6119744682
 10
246.8535336353
 20
186.6440148534
 10
246.8025006159
 20
186.6730389626
 10
246.7498234644
 20
186.6989885184
 10
246.6954306172
 20
186.7219217983
 10
246.6395735953
 20
186.7416239656
 10
246.582336239
 20
186.7580234081
 10
246.5236347081
 20
186.771191738
 10
246.4634690026
 20
186.7811289553
  0
LWPOLYLINE
  5
393
100
AcDbEntity
  8
IMPORT_IGES
100
AcDbPolyline
 62
250
  6
CONTINUOUS
 90
46
 70
0
 10
246.8069966705
 20
185.355311282
 10
247.0205942644
 20
184.2471899806
 10
247.2246297991
 20
183.1368462676
 10
247.4190871365
 20
182.024352014
 10
247.6039550414
 20
180.9097489869
 10
247.779211917
 20
179.7931398302
 10
247.9448284474
 20
178.6746884335
 10
248.1007909267
 20
177.5544675282
 10
248.2470854589
 20
176.4325509224
 10
248.3836872269
 20
175.3091050533
 10
248.5105904479
 20
174.1841515166
 10
248.6277771971
 20
173.0578169064
 10
248.7352133669
 20
171.9304263046
 10
248.8328953478
 20
170.8020366082
 10
248.920816649
 20
169.6727411539
 10
248.9989532917
 20
168.5429209303
 10
249.0673068382
 20
167.4126816873
 10
249.1258823293
 20
166.2820691068
 10
249.1746745371
 20
165.1513747926
 10
249.2136896087
 20
164.0207828719
 10
249.2429405251
 20
162.890260619
 10
249.2624350805
 20
161.7597744072
 10
249.2721778467
 20
160.629512728
 10
249.2721778071
 20
159.4994377511
 10
249.262434959
 20
158.369176228
 10
249.2429403236
 20
157.2386904445
 10
249.2136893396
 20
156.1081687831
 10
249.1746742068
 20
154.977577285
 10
249.1258819357
 20
153.8468831478
 10
249.0673063824
 20
152.716270591
 10
248.9989527769
 20
151.5860311401
 10
248.9208160728
 20
150.456210413
 10
248.832894704
 20
149.3269142423
 10
248.7352126538
 20
148.1985237556
 10
248.6277764114
 20
147.0711322956
 10
248.5105895861
 20
145.9447967738
 10
248.3836862996
 20
144.819842422
 10
248.2470844807
 20
143.6963958614
 10
248.1007899129
 20
142.574478683
 10
247.9448274281
 20
141.4542574238
 10
247.7792109257
 20
140.3358059016
 10
247.6039541163
 20
139.219196865
 10
247.4190863357
 20
138.1045943141
 10
247.2246291925
 20
136.9921009395
 10
247.0205939224
 20
135.8817584925
 10
246.8069966695
 20
134.7736388606
  0
LWPOLYLINE
  5
394
100
AcDbEntity
  8
IMPORT_IGES
100
AcDbPolyline
 62
250
  6
CONTINUOUS
 90
22
 70
0
 10
245.4023368689
 20
184.7340450616
 10
245.8319766422
 20
182.4081746291
 10
246.2188470241
 20
180.0764037731
 10
246.5629480148
 20
177.7387324938
 10
246.8643660713
 20
175.3943764459
 10
247.1230147364
 20
173.0441199746
 10
247.3386346391
 20
170.6903161155
 10
247.5111826162
 20
168.332961302
 10
247.6407018308
 20
165.9720591006
 10
247.7270624009
 20
163.6099732467
 10
247.7702210324
 20
161.2467025503
 10
247.7702210194
 20
158.8822482013
 10
247.7270623619
 20
156.5189775053
 10
247.6407017659
 20
154.1568916524
 10
247.5111825254
 20
151.7959894524
 10
247.3386345225
 20
149.4386346408
 10
247.123014594
 20
147.084830784
 10
246.864365903
 20
144.7345743156
 10
246.5629478208
 20
142.390218271
 10
246.2188468044
 20
140.0525469955
 10
245.8319763969
 20
137.7207761438
 10
245.4023365981
 20
135.3949057159
  0
LINE
  5
395
100
AcDbEntity
  8
IMPORT_IGES
100
AcDbLine
 62
7
  6
CONTINUOUS
 10
264.431002097
 20
155.0644750698
 11
264.431002097
 21
165.0644750698
  0
LINE
  5
396
100
AcDbEntity
  8
IMPORT_IGES
100
AcDbLine
 62
7
  6
CONTINUOUS
 10
316.7063779793
 20
166.0137523051
 11
317.147465653
 21
166.3556993311
  0
LINE
  5
397
100
AcDbEntity
  8
IMPORT_IGES
100
AcDbLine
 62
7
  6
CONTINUOUS
 10
316.2633137153
 20
165.6758466405
 11
316.7063779793
 21
166.0137523051
  0
LINE
  5
398
100
AcDbEntity
  8
IMPORT_IGES
100
AcDbLine
 62
7
  6
CONTINUOUS
 10
315.8182817908
 20
165.3419890925
 11
316.2633137153
 21
165.6758466405
  0
LWPOLYLINE
  5
399
100
AcDbEntity
  8
IMPORT_IGES
100
AcDbPolyline
 62
7
  6
CONTINUOUS
 90
3
 70
0
 10
315.1471092823
 20
164.848841965
 10
315.3713179254
 20
165.0122066823
 10
315.8182817908
 20
165.3419890925
  0
LINE
  5
39A
100
AcDbEntity
  8
ASSI
100
AcDbLine
 62
7
  6
CONTINUOUS
 10
339.0111182192
 20
158.6793245322
 11
338.4057081186
 21
158.3397142849
  0
LINE
  5
39B
100
AcDbEntity
  8
ASSI
100
AcDbLine
 62
7
  6
CONTINUOUS
 10
338.4065140467
 20
161.757422192
 11
339.0117648481
 21
161.4175259328
  0
LINE
  5
39C
100
AcDbEntity
  8
IMPORT_IGES
100
AcDbLine
 62
7
  6
CONTINUOUS
 10
315.5926208564
 20
154.931295083
 11
315.1448492077
 21
155.2592671711
  0
LINE
  5
39D
100
AcDbEntity
  8
IMPORT_IGES
100
AcDbLine
 62
7
  6
CONTINUOUS
 10
316.0384598411
 20
154.5992598994
 11
315.5926208564
 21
154.931295083
  0
LINE
  5
39E
100
AcDbEntity
  8
IMPORT_IGES
100
AcDbLine
 62
7
  6
CONTINUOUS
 10
316.4823572636
 20
154.2631683297
 11
316.0384598411
 21
154.5992598994
  0
LWPOLYLINE
  5
39F
100
AcDbEntity
  8
IMPORT_IGES
100
AcDbPolyline
 62
7
  6
CONTINUOUS
 90
3
 70
0
 10
317.1444984574
 20
153.7514738943
 10
316.9242775317
 20
153.9230472115
 10
316.4823572636
 20
154.2631683297
  0
LINE
  5
3A0
100
AcDbEntity
  8
ASSI
100
AcDbLine
 62
7
  6
CONTINUOUS
 10
335.7301328454
 20
157.3762341872
 11
336.2760630059
 21
156.9909474403
  0
LINE
  5
3A1
100
AcDbEntity
  8
IMPORT_IGES
100
AcDbLine
 62
7
  6
CONTINUOUS
 10
293.6443293261
 20
153.059123347
 11
293.6476306749
 21
167.0591229577
  0
LINE
  5
3A2
100
AcDbEntity
  8
IMPORT_IGES
100
AcDbLine
 62
7
  6
CONTINUOUS
 10
295.6446358243
 20
154.3586516896
 11
295.6455790668
 21
158.3586515784
  0
LINE
  5
3A3
100
AcDbEntity
  8
IMPORT_IGES
100
AcDbLine
 62
7
  6
CONTINUOUS
 10
295.646380823
 20
161.7586514838
 11
295.6473240655
 21
165.7586513726
  0
LINE
  5
3A4
100
AcDbEntity
  8
IMPORT_IGES
100
AcDbLine
 62
7
  6
CONTINUOUS
 10
297.6455790112
 20
158.3581799571
 11
297.6446357687
 21
154.3581800683
  0
LINE
  5
3A5
100
AcDbEntity
  8
IMPORT_IGES
100
AcDbLine
 62
7
  6
CONTINUOUS
 10
297.6463807673
 20
161.7581798626
 11
297.6473240099
 21
165.7581797514
  0
LINE
  5
3A6
100
AcDbEntity
  8
IMPORT_IGES
100
AcDbLine
 62
7
  6
CONTINUOUS
 10
299.6446357131
 20
154.3577084471
 11
299.6455789556
 21
158.3577083359
  0
LINE
  5
3A7
100
AcDbEntity
  8
IMPORT_IGES
100
AcDbLine
 62
7
  6
CONTINUOUS
 10
299.6463807117
 20
161.7577082413
 11
299.6473239543
 21
165.7577081301
  0
LINE
  5
3A8
100
AcDbEntity
  8
IMPORT_IGES
100
AcDbLine
 62
7
  6
CONTINUOUS
 10
301.6473238987
 20
165.7572365089
 11
301.6463806561
 21
161.7572366201
  0
LINE
  5
3A9
100
AcDbEntity
  8
IMPORT_IGES
100
AcDbLine
 62
7
  6
CONTINUOUS
 10
301.6455789
 20
158.3572367146
 11
301.6446356575
 21
154.3572368258
  0
LINE
  5
3AA
100
AcDbEntity
  8
IMPORT_IGES
100
AcDbLine
 62
7
  6
CONTINUOUS
 10
303.6446356019
 20
154.3567652046
 11
303.6455788444
 21
158.3567650933
  0
LINE
  5
3AB
100
AcDbEntity
  8
IMPORT_IGES
100
AcDbLine
 62
7
  6
CONTINUOUS
 10
303.6463806005
 20
161.7567649988
 11
303.647323843
 21
165.7567648876
  0
LINE
  5
3AC
100
AcDbEntity
  8
IMPORT_IGES
100
AcDbLine
 62
7
  6
CONTINUOUS
 10
305.6473237874
 20
165.7562932663
 11
305.6463805449
 21
161.7562933775
  0
LINE
  5
3AD
100
AcDbEntity
  8
IMPORT_IGES
100
AcDbLine
 62
7
  6
CONTINUOUS
 10
305.6455787888
 20
158.3562934721
 11
305.6446355463
 21
154.3562935833
  0
LINE
  5
3AE
100
AcDbEntity
  8
IMPORT_IGES
100
AcDbLine
 62
7
  6
CONTINUOUS
 10
307.6446354907
 20
154.355821962
 11
307.6455787332
 21
158.3558218508
  0
LINE
  5
3AF
100
AcDbEntity
  8
IMPORT_IGES
100
AcDbLine
 62
7
  6
CONTINUOUS
 10
307.6463804893
 20
161.7558217563
 11
307.6473237318
 21
165.7558216451
  0
LINE
  5
3B0
100
AcDbEntity
  8
IMPORT_IGES
100
AcDbLine
 62
7
  6
CONTINUOUS
 10
309.6443288812
 20
153.0553503769
 11
309.64763023
 21
167.0553499877
  0
LINE
  5
3B1
100
AcDbEntity
  8
IMPORT_IGES
100
AcDbLine
 62
7
  6
CONTINUOUS
 10
315.1471100638
 20
164.8488371971
 11
315.1448475177
 21
155.259264483
  0
LINE
  5
3B2
100
AcDbEntity
  8
IMPORT_IGES
100
AcDbLine
 62
7
  6
CONTINUOUS
 10
317.147465653
 20
166.3556993311
 11
317.1444984574
 21
153.7514738943
  0
LINE
  5
3B3
100
AcDbEntity
  8
ASSI
100
AcDbLine
 62
7
  6
CONTINUOUS
 10
342.9325055119
 20
162.4203929314
 11
341.2595695594
 21
160.4361483723
  0
LINE
  5
3B4
100
AcDbEntity
  8
ASSI
100
AcDbLine
 62
7
  6
CONTINUOUS
 10
342.174256534
 20
160.4359326794
 11
343.9244100857
 21
162.5117640323
  0
LINE
  5
3B5
100
AcDbEntity
  8
ASSI
100
AcDbLine
 62
7
  6
CONTINUOUS
 10
341.267638141
 20
159.6498454478
 11
342.9313871092
 21
157.674608228
  0
LINE
  5
3B6
100
AcDbEntity
  8
ASSI
100
AcDbLine
 62
7
  6
CONTINUOUS
 10
343.9187704744
 20
157.5782875157
 11
342.1740711158
 21
159.6496317013
  0
LWPOLYLINE
  5
3B7
100
AcDbEntity
  8
IMPORT_IGES
100
AcDbPolyline
 62
7
  6
CONTINUOUS
 90
19
 70
0
 10
329.3240743033
 20
172.7673393519
 10
329.464746515
 20
172.5744331771
 10
329.5960431962
 20
172.3813283467
 10
329.717964347
 20
172.1880248606
 10
329.8302059168
 20
171.9944553133
 10
329.9330719561
 20
171.8006871103
 10
330.0274746172
 20
171.6069224687
 10
330.1134878953
 20
171.4132745259
 10
330.1910377953
 20
171.2196301445
 10
330.2608144836
 20
171.0258521285
 10
330.3230227098
 20
170.8316171205
 10
330.3774577245
 20
170.637248478
 10
330.4241954456
 20
170.4435790767
 10
330.463074891
 20
170.2507936162
 10
330.4942570429
 20
170.058707397
 10
330.5183007656
 20
169.8675991963
 10
330.5353923473
 20
169.67756194
 10
330.5453454997
 20
169.4885027022
 10
330.5481602229
 20
169.300421483
  0
LINE
  5
3B8
100
AcDbEntity
  8
IMPORT_IGES
100
AcDbLine
 62
7
  6
CONTINUOUS
 10
328.5489265173
 20
172.5502750371
 11
328.543031543
 21
147.5515116856
  0
LINE
  5
3B9
100
AcDbEntity
  8
IMPORT_IGES
100
AcDbLine
 62
7
  6
CONTINUOUS
 10
330.5437977262
 20
150.8004219973
 11
330.5481602229
 21
169.300421483
  0
LINE
  5
3BA
100
AcDbEntity
  8
ASSI
100
AcDbLine
 62
7
  6
CONTINUOUS
 10
338.0744328938
 20
161.0910084796
 11
338.0739390441
 21
158.9967445378
  0
LINE
  5
3BB
100
AcDbEntity
  8
ASSI
100
AcDbLine
 62
7
  6
CONTINUOUS
 10
338.8120310236
 20
158.9965704879
 11
338.8121852093
 21
159.6504244697
  0
LINE
  5
3BC
100
AcDbEntity
  8
ASSI
100
AcDbLine
 62
7
  6
CONTINUOUS
 10
338.8123706275
 20
160.4367254478
 11
338.8125248733
 21
161.0908344297
  0
LWPOLYLINE
  5
3BD
100
AcDbEntity
  8
IMPORT_IGES
100
AcDbPolyline
 62
7
  6
CONTINUOUS
 90
19
 70
0
 10
330.5437977262
 20
150.8004219973
 10
330.540879617
 20
150.6120871333
 10
330.5308137302
 20
150.4228129182
 10
330.5136000659
 20
150.2325993519
 10
330.4894216182
 20
150.0413550441
 10
330.458095393
 20
149.8491713851
 10
330.4190724079
 20
149.6563225461
 10
330.3721916712
 20
149.4626233145
 10
330.3176141746
 20
149.2682589028
 10
330.255273912
 20
149.0740591211
 10
330.1853770332
 20
148.8803484654
 10
330.1077173883
 20
148.6868024395
 10
330.0216105214
 20
148.4932773651
 10
329.9271294608
 20
148.2996585982
 10
329.8242011781
 20
148.1060607827
 10
329.7119221319
 20
147.9126841718
 10
329.5899911417
 20
147.7195955163
 10
329.4587093879
 20
147.5267280653
 10
329.3180768707
 20
147.3340818189
  0
LINE
  5
3BE
100
AcDbEntity
  8
ASSI
100
AcDbLine
 62
7
  6
CONTINUOUS
 10
344.0562990435
 20
161.0654938913
 11
344.0561504817
 21
160.4354889088
  0
LINE
  5
3BF
100
AcDbEntity
  8
ASSI
100
AcDbLine
 62
7
  6
CONTINUOUS
 10
344.0559650635
 20
159.6491879306
 11
344.0558165618
 21
159.0194379482
  0
LINE
  5
3C0
100
AcDbEntity
  8
ASSI
100
AcDbLine
 62
7
  6
CONTINUOUS
 10
344.7979685411
 20
159.0192629408
 11
344.7984510229
 21
161.0653188839
  0
LINE
  5
3C1
100
AcDbEntity
  8
IMPORT_IGES
100
AcDbLine
 62
7
  6
CONTINUOUS
 10
350.6469048214
 20
143.7956812762
 11
350.6545686669
 21
176.2956803726
  0
LINE
  5
3C2
100
AcDbEntity
  8
IMPORT_IGES
100
AcDbLine
 62
7
  6
CONTINUOUS
 10
360.3388422526
 20
152.4433960515
 11
360.3379461722
 21
148.6433961637
  0
LINE
  5
3C3
100
AcDbEntity
  8
IMPORT_IGES
100
AcDbLine
 62
7
  6
CONTINUOUS
 10
360.3424265741
 20
167.6433956354
 11
360.3433226545
 21
171.4433955233
  0
LINE
  5
3C4
100
AcDbEntity
  8
IMPORT_IGES
100
AcDbLine
 62
250
  6
CONTINUOUS
 10
360.6379225828
 20
148.5433254201
 11
360.6388658253
 21
152.5433253088
  0
LINE
  5
3C5
100
AcDbEntity
  8
IMPORT_IGES
100
AcDbLine
 62
250
  6
CONTINUOUS
 10
360.6424029847
 20
167.5433248918
 11
360.6433462273
 21
171.5433247806
  0
LINE
  5
3C6
100
AcDbEntity
  8
IMPORT_IGES
100
AcDbLine
 62
250
  6
CONTINUOUS
 10
367.6480244492
 20
148.5416723634
 11
367.6489676917
 21
152.5416722522
  0
LINE
  5
3C7
100
AcDbEntity
  8
IMPORT_IGES
100
AcDbLine
 62
250
  6
CONTINUOUS
 10
367.6525048512
 20
167.5416718352
 11
367.6534480937
 21
171.541671724
  0
LINE
  5
3C8
100
AcDbEntity
  8
IMPORT_IGES
100
AcDbLine
 62
250
  6
CONTINUOUS
 10
368.1502646363
 20
158.041554194
 11
368.1512078788
 21
162.0415540828
  0
CIRCLE
  5
3C9
100
AcDbEntity
  8
IMPORT_IGES
100
AcDbCircle
 62
250
  6
CONTINUOUS
 10
68.5378124867
 20
139.5644750864
 40
3.3999788367
  0
CIRCLE
  5
3CA
100
AcDbEntity
  8
IMPORT_IGES
100
AcDbCircle
 62
250
  6
CONTINUOUS
 10
150.537922836
 20
139.5644750716
 40
3.3999788367
  0
CIRCLE
  5
3CB
100
AcDbEntity
  8
IMPORT_IGES
100
AcDbCircle
 62
7
  6
CONTINUOUS
 10
68.5378124867
 20
139.5644750864
 40
2.9
  0
CIRCLE
  5
3CC
100
AcDbEntity
  8
IMPORT_IGES
100
AcDbCircle
 62
7
  6
CONTINUOUS
 10
150.537922836
 20
139.5644750716
 40
2.9
  0
CIRCLE
  5
3CD
100
AcDbEntity
  8
IMPORT_IGES
100
AcDbCircle
 62
7
  6
CONTINUOUS
 10
68.5378124867
 20
139.5644750864
 40
2.4999993374
  0
CIRCLE
  5
3CE
100
AcDbEntity
  8
IMPORT_IGES
100
AcDbCircle
 62
7
  6
CONTINUOUS
 10
150.537922836
 20
139.5644750716
 40
2.4999993374
  0
ARC
  5
3CF
100
AcDbEntity
  8
IMPORT_IGES
100
AcDbCircle
 62
250
  6
CONTINUOUS
 10
68.5378124867
 20
139.5644750864
 40
2.2222222222
100
AcDbArc
 50
284.1813512976
 51
75.8186487024
  0
ARC
  5
3D0
100
AcDbEntity
  8
IMPORT_IGES
100
AcDbCircle
 62
250
  6
CONTINUOUS
 10
150.537922836
 20
139.5644750716
 40
2.2222222222
100
AcDbArc
 50
284.1813512976
 51
75.8186487024
  0
ARC
  5
3D1
100
AcDbEntity
  8
IMPORT_IGES
100
AcDbCircle
 62
250
  6
CONTINUOUS
 10
68.5378124867
 20
139.5644750864
 40
2.222209717
100
AcDbArc
 50
104.1819873104
 51
255.8180126897
  0
ARC
  5
3D2
100
AcDbEntity
  8
IMPORT_IGES
100
AcDbCircle
 62
250
  6
CONTINUOUS
 10
150.537922836
 20
139.5644750716
 40
2.222209717
100
AcDbArc
 50
104.1819873104
 51
255.8180126897
  0
ARC
  5
3D3
100
AcDbEntity
  8
IMPORT_IGES
100
AcDbCircle
 62
7
  6
CONTINUOUS
 10
79.7062907246
 20
150.4535336812
 40
0.6256461971
100
AcDbArc
 50
89.9952981582
 51
96.7904741397
  0
ARC
  5
3D4
100
AcDbEntity
  8
IMPORT_IGES
100
AcDbCircle
 62
7
  6
CONTINUOUS
 10
79.706342301
 20
150.4626444572
 40
0.6164857967
100
AcDbArc
 50
117.8572889373
 51
263.8694806326
  0
ARC
  5
3D5
100
AcDbEntity
  8
IMPORT_IGES
100
AcDbCircle
 62
7
  6
CONTINUOUS
 10
79.7063242937
 20
150.4625612673
 40
0.6162265935
100
AcDbArc
 50
6.7410796249
 51
89.9983485375
  0
ARC
  5
3D6
100
AcDbEntity
  8
IMPORT_IGES
100
AcDbCircle
 62
7
  6
CONTINUOUS
 10
196.4791037315
 20
140.0509116279
 40
0.3
100
AcDbArc
 50
180.0000000016
 51
269.9999999985
  0
ARC
  5
3D7
100
AcDbEntity
  8
IMPORT_IGES
100
AcDbCircle
 62
7
  6
CONTINUOUS
 10
84.6644841207
 20
149.8287522857
 40
0.2854448654
100
AcDbArc
 50
157.1864725211
 51
51.8909041544
  0
ARC
  5
3D8
100
AcDbEntity
  8
IMPORT_IGES
100
AcDbCircle
 62
7
  6
CONTINUOUS
 10
78.6398749466
 20
166.4146090872
 40
3.0600000422
100
AcDbArc
 50
354.2608296022
 51
185.739170325
  0
ARC
  5
3D9
100
AcDbEntity
  8
IMPORT_IGES
100
AcDbCircle
 62
7
  6
CONTINUOUS
 10
78.6398749466
 20
171.6166090872
 40
3.0600000422
100
AcDbArc
 50
354.2608296023
 51
185.7391703977
  0
ARC
  5
3DA
100
AcDbEntity
  8
IMPORT_IGES
100
AcDbCircle
 62
7
  6
CONTINUOUS
 10
78.6398749466
 20
166.4146090872
 40
2.1420002094
100
AcDbArc
 50
351.7867901067
 51
77.6263759503
  0
ARC
  5
3DB
100
AcDbEntity
  8
IMPORT_IGES
100
AcDbCircle
 62
7
  6
CONTINUOUS
 10
78.6398749466
 20
171.6166090872
 40
2.1420002094
100
AcDbArc
 50
351.7867901067
 51
188.2132098933
  0
ARC
  5
3DC
100
AcDbEntity
  8
IMPORT_IGES
100
AcDbCircle
 62
7
  6
CONTINUOUS
 10
78.6398749466
 20
166.4146090872
 40
2.1419996751
100
AcDbArc
 50
102.3736270231
 51
188.2132118487
  0
CIRCLE
  5
3DD
100
AcDbEntity
  8
IMPORT_IGES
100
AcDbCircle
 62
250
  6
CONTINUOUS
 10
68.5378124867
 20
180.5644750567
 40
3.3999788367
  0
CIRCLE
  5
3DE
100
AcDbEntity
  8
IMPORT_IGES
100
AcDbCircle
 62
7
  6
CONTINUOUS
 10
68.5378124867
 20
180.5644750567
 40
2.9
  0
CIRCLE
  5
3DF
100
AcDbEntity
  8
IMPORT_IGES
100
AcDbCircle
 62
7
  6
CONTINUOUS
 10
68.5378124867
 20
180.5644750567
 40
2.4999993374
  0
ARC
  5
3E0
100
AcDbEntity
  8
IMPORT_IGES
100
AcDbCircle
 62
250
  6
CONTINUOUS
 10
68.5378124867
 20
180.5644750567
 40
2.2222222222
100
AcDbArc
 50
284.1813512976
 51
75.8186487024
  0
ARC
  5
3E1
100
AcDbEntity
  8
IMPORT_IGES
100
AcDbCircle
 62
250
  6
CONTINUOUS
 10
68.5378124867
 20
180.5644750567
 40
2.222209717
100
AcDbArc
 50
104.1819873104
 51
255.8180126897
  0
CIRCLE
  5
3E2
100
AcDbEntity
  8
IMPORT_IGES
100
AcDbCircle
 62
250
  6
CONTINUOUS
 10
150.5379228249
 20
180.5644750567
 40
3.3999788367
  0
CIRCLE
  5
3E3
100
AcDbEntity
  8
IMPORT_IGES
100
AcDbCircle
 62
7
  6
CONTINUOUS
 10
150.5379228249
 20
180.5644750567
 40
2.9
  0
CIRCLE
  5
3E4
100
AcDbEntity
  8
IMPORT_IGES
100
AcDbCircle
 62
7
  6
CONTINUOUS
 10
150.5379228249
 20
180.5644750567
 40
2.4999993374
  0
ARC
  5
3E5
100
AcDbEntity
  8
IMPORT_IGES
100
AcDbCircle
 62
250
  6
CONTINUOUS
 10
150.5379228249
 20
180.5644750567
 40
2.2222222222
100
AcDbArc
 50
284.1813512976
 51
75.8186487024
  0
ARC
  5
3E6
100
AcDbEntity
  8
IMPORT_IGES
100
AcDbCircle
 62
250
  6
CONTINUOUS
 10
150.5379228249
 20
180.5644750567
 40
2.222209717
100
AcDbArc
 50
104.1819873104
 51
255.8180126897
  0
ARC
  5
3E7
100
AcDbEntity
  8
IMPORT_IGES
100
AcDbCircle
 62
7
  6
CONTINUOUS
 10
196.4791037314
 20
180.4509116279
 40
0.3
100
AcDbArc
 50
89.9999999989
 51
180.0000000011
  0
CIRCLE
  5
3E8
100
AcDbEntity
  8
IMPORT_IGES
100
AcDbCircle
 62
250
  6
CONTINUOUS
 10
235.5380331632
 20
139.5644750864
 40
3.3999788367
  0
CIRCLE
  5
3E9
100
AcDbEntity
  8
IMPORT_IGES
100
AcDbCircle
 62
7
  6
CONTINUOUS
 10
235.5380331632
 20
139.5644750864
 40
2.9
  0
CIRCLE
  5
3EA
100
AcDbEntity
  8
IMPORT_IGES
100
AcDbCircle
 62
7
  6
CONTINUOUS
 10
235.5380331632
 20
139.5644750864
 40
2.4999993374
  0
ARC
  5
3EB
100
AcDbEntity
  8
IMPORT_IGES
100
AcDbCircle
 62
250
  6
CONTINUOUS
 10
235.5380331632
 20
139.5644750864
 40
2.2222222222
100
AcDbArc
 50
284.1813512976
 51
75.8186487024
  0
ARC
  5
3EC
100
AcDbEntity
  8
IMPORT_IGES
100
AcDbCircle
 62
250
  6
CONTINUOUS
 10
235.5380331632
 20
139.5644750864
 40
2.222209717
100
AcDbArc
 50
104.1819873104
 51
255.8180126897
  0
ARC
  5
3ED
100
AcDbEntity
  8
IMPORT_IGES
100
AcDbCircle
 62
7
  6
CONTINUOUS
 10
221.8791037314
 20
140.0509116279
 40
0.3
100
AcDbArc
 50
270.0000000015
 51
359.9999999985
  0
ARC
  5
3EE
100
AcDbEntity
  8
IMPORT_IGES
100
AcDbCircle
 62
7
  6
CONTINUOUS
 10
296.9320781158
 20
103.0131687175
 40
55.3295547003
100
AcDbArc
 50
70.7816598794
 51
76.7163882137
  0
ARC
  5
3EF
100
AcDbEntity
  8
IMPORT_IGES
100
AcDbCircle
 62
7
  6
CONTINUOUS
 10
296.9320781158
 20
103.0131687175
 40
54.6158711599
100
AcDbArc
 50
54.6348884605
 51
68.279340606
  0
ARC
  5
3F0
100
AcDbEntity
  8
IMPORT_IGES
100
AcDbCircle
 62
7
  6
CONTINUOUS
 10
296.9320781158
 20
103.0131687175
 40
52.0
100
AcDbArc
 50
51.7312627255
 51
75.8495986588
  0
ARC
  5
3F1
100
AcDbEntity
  8
IMPORT_IGES
100
AcDbCircle
 62
7
  6
CONTINUOUS
 10
323.6940853221
 20
132.1907267222
 40
12.8578650811
100
AcDbArc
 50
64.549908554
 51
64.9495315945
  0
CIRCLE
  5
3F2
100
AcDbEntity
  8
ASSI
100
AcDbCircle
 62
7
  6
CONTINUOUS
 10
340.6507370258
 20
160.0480542181
 40
6.0
  0
ARC
  5
3F3
100
AcDbEntity
  8
ASSI
100
AcDbCircle
 62
7
  6
CONTINUOUS
 10
341.4507369999
 20
160.0478502822
 40
4.6477727604
100
AcDbArc
 50
202.0750291144
 51
183.4163222041
  0
ARC
  5
3F4
100
AcDbEntity
  8
ASSI
100
AcDbCircle
 62
7
  6
CONTINUOUS
 10
333.3601824801
 20
159.8642501158
 40
4.0936814123
100
AcDbArc
 50
315.4213871025
 51
337.5523505137
  0
CIRCLE
  5
3F5
100
AcDbEntity
  8
ASSI
100
AcDbCircle
 62
7
  6
CONTINUOUS
 10
341.4507369999
 20
160.0478502822
 40
3.903804
  0
ARC
  5
3F6
100
AcDbEntity
  8
ASSI
100
AcDbCircle
 62
7
  6
CONTINUOUS
 10
341.4507369999
 20
160.0478502822
 40
3.4914079543
100
AcDbArc
 50
44.8867527724
 51
150.6823449342
  0
ARC
  5
3F7
100
AcDbEntity
  8
ASSI
100
AcDbCircle
 62
7
  6
CONTINUOUS
 10
341.4507369999
 20
160.0478502822
 40
3.49140795
100
AcDbArc
 50
209.2906331578
 51
314.9822541232
  0
ARC
  5
3F8
100
AcDbEntity
  8
ASSI
100
AcDbCircle
 62
7
  6
CONTINUOUS
 10
341.4507369999
 20
160.0478502822
 40
2.7972490994
100
AcDbArc
 50
209.2906318346
 51
301.9597679524
  0
ARC
  5
3F9
100
AcDbEntity
  8
ASSI
100
AcDbCircle
 62
7
  6
CONTINUOUS
 10
341.4507369999
 20
160.0478502822
 40
2.7972480307
100
AcDbArc
 50
58.0132133103
 51
150.6823462575
  0
ARC
  5
3FA
100
AcDbEntity
  8
IMPORT_IGES
100
AcDbCircle
 62
7
  6
CONTINUOUS
 10
368.1507362576
 20
160.0415541384
 40
2.0
100
AcDbArc
 50
269.986489046
 51
89.986489046
  0
ARC
  5
3FB
100
AcDbEntity
  8
IMPORT_IGES
100
AcDbCircle
 62
7
  6
CONTINUOUS
 10
367.6484960705
 20
150.5416723078
 40
2.0
100
AcDbArc
 50
269.9864890461
 51
89.986489046
  0
ARC
  5
3FC
100
AcDbEntity
  8
IMPORT_IGES
100
AcDbCircle
 62
7
  6
CONTINUOUS
 10
360.6380404881
 20
149.0433254061
 40
0.5
100
AcDbArc
 50
233.1165914012
 51
269.9864890479
  0
ARC
  5
3FD
100
AcDbEntity
  8
IMPORT_IGES
100
AcDbCircle
 62
7
  6
CONTINUOUS
 10
360.63874792
 20
152.0433253227
 40
0.5
100
AcDbArc
 50
89.986489046
 51
126.8563866919
  0
ARC
  5
3FE
100
AcDbEntity
  8
IMPORT_IGES
100
AcDbCircle
 62
7
  6
CONTINUOUS
 10
296.9589818345
 20
217.1035214493
 40
55.3295547004
100
AcDbArc
 50
283.2565898783
 51
289.1913177843
  0
ARC
  5
3FF
100
AcDbEntity
  8
IMPORT_IGES
100
AcDbCircle
 62
7
  6
CONTINUOUS
 10
296.9589818345
 20
217.1035214493
 40
54.61587116
100
AcDbArc
 50
291.6936374861
 51
305.3380896316
  0
ARC
  5
400
100
AcDbEntity
  8
IMPORT_IGES
100
AcDbCircle
 62
7
  6
CONTINUOUS
 10
296.9589818345
 20
217.1035214493
 40
52.0
100
AcDbArc
 50
284.1233794332
 51
308.2417153808
  0
ARC
  5
401
100
AcDbEntity
  8
IMPORT_IGES
100
AcDbCircle
 62
7
  6
CONTINUOUS
 10
323.7072253082
 20
187.9133451583
 40
12.8578650811
100
AcDbArc
 50
295.0234465695
 51
295.4230695729
  0
ARC
  5
402
100
AcDbEntity
  8
ASSI
100
AcDbCircle
 62
7
  6
CONTINUOUS
 10
332.6891203928
 20
160.1904923685
 40
4.143405103
100
AcDbArc
 50
317.2177580608
 51
354.1876416628
  0
CIRCLE
  5
403
100
AcDbEntity
  8
IMPORT_IGES
100
AcDbCircle
 62
250
  6
CONTINUOUS
 10
235.5380331632
 20
180.5644750567
 40
3.3999788367
  0
CIRCLE
  5
404
100
AcDbEntity
  8
IMPORT_IGES
100
AcDbCircle
 62
7
  6
CONTINUOUS
 10
235.5380331632
 20
180.5644750567
 40
2.9
  0
CIRCLE
  5
405
100
AcDbEntity
  8
IMPORT_IGES
100
AcDbCircle
 62
7
  6
CONTINUOUS
 10
235.5380331632
 20
180.5644750567
 40
2.4999993374
  0
ARC
  5
406
100
AcDbEntity
  8
IMPORT_IGES
100
AcDbCircle
 62
250
  6
CONTINUOUS
 10
235.5380331632
 20
180.5644750567
 40
2.2222222222
100
AcDbArc
 50
284.1813512976
 51
75.8186487024
  0
ARC
  5
407
100
AcDbEntity
  8
IMPORT_IGES
100
AcDbCircle
 62
250
  6
CONTINUOUS
 10
235.5380331632
 20
180.5644750567
 40
2.222209717
100
AcDbArc
 50
104.1819873104
 51
255.8180126897
  0
ARC
  5
408
100
AcDbEntity
  8
IMPORT_IGES
100
AcDbCircle
 62
7
  6
CONTINUOUS
 10
367.6529764724
 20
169.5416717796
 40
2.0
100
AcDbArc
 50
269.986489046
 51
89.9864890459
  0
ARC
  5
409
100
AcDbEntity
  8
IMPORT_IGES
100
AcDbCircle
 62
7
  6
CONTINUOUS
 10
360.643228322
 20
171.0433247945
 40
0.5
100
AcDbArc
 50
89.9864890462
 51
126.8563866909
  0
ARC
  5
40A
100
AcDbEntity
  8
IMPORT_IGES
100
AcDbCircle
 62
7
  6
CONTINUOUS
 10
360.6425208901
 20
168.0433248779
 40
0.5
100
AcDbArc
 50
233.1165914004
 51
269.986489046
  0
ARC
  5
40B
100
AcDbEntity
  8
IMPORT_IGES
100
AcDbCircle
 62
7
  6
CONTINUOUS
 10
221.8791037315
 20
180.4509116279
 40
0.3
100
AcDbArc
 50
0.0
 51
90.0000000011
  0
ELLIPSE
  5
40C
100
AcDbEntity
  8
IMPORT_IGES
100
AcDbEllipse
 62
7
  6
CONTINUOUS
 10
314.6488645941
 20
103.0089909108
 30
0.0
 11
49.6632444947
 21
-0.0117111216
 31
0.0
 40
0.9342043206
 41
1.2711700664
 42
1.28746459
  0
ELLIPSE
  5
40D
100
AcDbEntity
  8
IMPORT_IGES
100
AcDbEllipse
 62
7
  6
CONTINUOUS
 10
314.6757683125
 20
217.0993436426
 30
0.0
 11
49.6632444948
 21
-0.011711122
 31
0.0
 40
0.9342043206
 41
-1.2874645899
 42
-1.2711700664
  0
ENDSEC
  0
SECTION
  2
OBJECTS
  0
DICTIONARY
  5
C
100
AcDbDictionary
280
0
281
1
  3
ACAD_GROUP
350
D
  3
ACAD_MLINESTYLE
350
17
  3
ACAD_LAYOUT
350
1A
  3
ACAD_PLOTSETTINGS
350
19
  3
ACAD_PLOTSTYLENAME
350
E
  0
DICTIONARY
  5
D
102
{ACAD_REACTORS
330
C
102
}
100
AcDbDictionary
280
0
281
1
  0
ACDBDICTIONARYWDFLT
  5
E
102
{ACAD_REACTORS
330
C
102
}
100
AcDbDictionary
281
1
  3
Normal
350
F
100
AcDbDictionaryWithDefault
340
F
  0
DICTIONARY
  5
17
102
{ACAD_REACTORS
330
C
102
}
100
AcDbDictionary
280
0
281
1
  3
Standard
350
18
  0
DICTIONARY
  5
19
102
{ACAD_REACTORS
330
C
102
}
100
AcDbDictionary
281
1
  0
DICTIONARY
  5
1A
102
{ACAD_REACTORS
330
C
102
}
100
AcDbDictionary
281
1
  3
Model
350
40E
  3
Layout1
350
40F
  0
ACDBPLACEHOLDER
  5
F
102
{ACAD_REACTORS
330
E
102
}
  0
MLINESTYLE
  5
18
102
{ACAD_REACTORS
330
17
102
}
100
AcDbMlineStyle
  2
STANDARD
 70
0
  3

 62
256
 51
90.0
 52
90.0
 71
2
 49
0.5
 62
256
  6
BYLAYER
 49
-0.5
 62
256
  6
BYLAYER
  0
LAYOUT
  5
40E
102
{ACAD_REACTORS
330
1A
102
}
100
AcDbPlotSettings
  1

  2
none_device
  4
ISO_A3_(420.00_x_297.00_MM)
  6

 40
0.0
 41
0.0
 42
0.0
 43
0.0
 44
420.0
 45
297.0
 46
0.0
 47
0.0
 48
0.0
 49
0.0
140
0.0
141
0.0
142
1.0
143
1.0
 70
1024
 72
1
 73
0
 74
0
  7

 75
0
147
1.0
148
0.0
149
0.0
100
AcDbLayout
  1
Model
 70
0
 71
0
 10
0.0
 20
0.0
 11
420.0
 21
297.0
 12
0.0
 22
0.0
 32
0.0
 14
0.0
 24
0.0
 34
0.0
 15
0.0
 25
0.0
 35
0.0
146
0.0
 13
0.0
 23
0.0
 33
0.0
 16
1.0
 26
0.0
 36
0.0
 17
0.0
 27
1.0
 37
0.0
 76
0
330
240
345
0
346
0
  0
LAYOUT
  5
40F
102
{ACAD_REACTORS
330
1A
102
}
100
AcDbPlotSettings
  1

  2
none_device
  4
ISO_A3_(420.00_x_297.00_MM)
  6

 40
0.0
 41
0.0
 42
0.0
 43
0.0
 44
420.0
 45
297.0
 46
0.0
 47
0.0
 48
0.0
 49
0.0
140
0.0
141
0.0
142
1.0
143
1.0
 70
0
 72
1
 73
0
 74
0
  7

 75
0
147
1.0
148
0.0
149
0.0
100
AcDbLayout
  1
Layout1
 70
0
 71
1
 10
0.0
 20
0.0
 11
420.0
 21
297.0
 12
0.0
 22
0.0
 32
0.0
 14
0.0
 24
0.0
 34
0.0
 15
0.0
 25
0.0
 35
0.0
146
0.0
 13
0.0
 23
0.0
 33
0.0
 16
1.0
 26
0.0
 36
0.0
 17
0.0
 27
1.0
 37
0.0
 76
0
330
241
345
0
346
0
  0
ENDSEC
  0
EOF
