  0
SECTION
  2
HEADER
  9
$ACADVER
  1
AC1015
  9
$DWGCODEPAGE
  3
ANSI_1252
  9
$EXTMAX
 10
297.0
 20
210.0
 30
0.0
  9
$EXTMIN
 10
0.0
 20
0.0
 30
0.0
  9
$LIMMIN
 10
0.0
 20
0.0
  9
$LIMMAX
 10
297.0
 20
210.0
  9
$VIEWCTR
 10
148.5
 20
105.0
  9
$VIEWSIZE
 40
210.0
  9
$CLAYER
  8
0
  9
$LTSCALE
 40
16.335
  9
$CELTYPE
  6
BYLAYER
  9
$DIMSCALE
 40
1.0
  9
$DIMASZ
 40
3.0
  9
$DIMEXO
 40
0.5
  9
$DIMDLI
 40
11.286
  9
$DIMEXE
 40
1.5
  9
$DIMCEN
 40
2.673
  9
$DIMLFAC
 40
1.0
  9
$DIMBLK
  1
_FILLED
  9
$DIMTXT
 40
3.0
  9
$DIMTOL
 70
1
  9
$DIMLIM
 70
0
  9
$DIMTFAC
 40
1.0
  9
$DIMTP
 40
0.01
  9
$DIMTM
 40
0.01
  9
$DIMGAP
 40
0.625
  9
$DIMDSEP
 70
44
  9
$PDMODE
 70
3
  9
$PDSIZE
 40
3.0
  9
$HANDSEED
  5
681
  9
$TILEMODE
 70
1
  9
$MEASUREMENT
 70
1
  9
$INSUNITS
 70
4
  0
ENDSEC
  0
SECTION
  2
CLASSES
  0
CLASS
  1
ACDBDICTIONARYWDFLT
  2
AcDbDictionaryWithDefault
  3
AutoCAD 2000
 90
0
280
0
281
0
  0
CLASS
  1
ACDBPLACEHOLDER
  2
AcDbPlaceHolder
  3
AutoCAD 2000
 90
0
280
0
281
0
  0
CLASS
  1
LAYOUT
  2
AcDbLayout
  3
AutoCAD 2000
 90
0
280
0
281
0
  0
ENDSEC
  0
SECTION
  2
TABLES
  0
TABLE
  2
VPORT
  5
8
100
AcDbSymbolTable
 70
2
  0
VPORT
  5
1F4
100
AcDbSymbolTableRecord
100
AcDbViewportTableRecord
  2
*ACTIVE
 70
0
 10
0.0
 20
0.0
 11
1.0
 21
1.0
 12
148.5
 22
105.0
 13
0.0
 23
0.0
 14
1.0
 24
1.0
 15
0.0
 25
0.0
 16
0.0
 26
0.0
 36
1.0
 17
0.0
 27
0.0
 37
0.0
 40
210.0
 41
1.4142857143
 42
50.0
 43
0.0
 44
0.0
 50
0.0
 51
0.0
 71
0
 72
100
 73
1
 74
1
 75
0
 76
0
 77
0
 78
0
  0
ENDTAB
  0
TABLE
  2
LTYPE
  5
5
100
AcDbSymbolTable
 70
6
  0
LTYPE
  5
14
100
AcDbSymbolTableRecord
100
AcDbLinetypeTableRecord
  2
BYBLOCK
 70
0
  3

 72
65
 73
0
 40
0.0
  0
LTYPE
  5
15
100
AcDbSymbolTableRecord
100
AcDbLinetypeTableRecord
  2
BYLAYER
 70
0
  3

 72
65
 73
0
 40
0.0
  0
LTYPE
  5
16
100
AcDbSymbolTableRecord
100
AcDbLinetypeTableRecord
  2
CONTINUOUS
 70
64
  3
Solid line
 72
65
 73
0
 40
0.0
  0
LTYPE
  5
1F5
100
AcDbSymbolTableRecord
100
AcDbLinetypeTableRecord
  2
CENTER
 70
64
  3
____ _ ____ _ ____ _ ____ _ ____ _ ____ _ ____
 72
65
 73
4
 40
0.6
 49
0.375
 74
0
 49
-0.075
 74
0
 49
0.075
 74
0
 49
-0.075
 74
0
  0
LTYPE
  5
1F6
100
AcDbSymbolTableRecord
100
AcDbLinetypeTableRecord
  2
HIDDEN
 70
64
  3
- - - - - - - - - - - - - - - - - - - -
 72
65
 73
2
 40
0.2
 49
0.1
 74
0
 49
-0.1
 74
0
  0
LTYPE
  5
1F7
100
AcDbSymbolTableRecord
100
AcDbLinetypeTableRecord
  2
PHANTOM
 70
64
  3
_____ _ _ _____ _ _ _____ _ _ _____
 72
65
 73
6
 40
0.8
 49
0.45
 74
0
 49
-0.05
 74
0
 49
0.1
 74
0
 49
-0.05
 74
0
 49
0.1
 74
0
 49
-0.05
 74
0
  0
LTYPE
  5
1F8
100
AcDbSymbolTableRecord
100
AcDbLinetypeTableRecord
  2
DOT
 70
64
  3
. . . . . . . . . . . . . . . . . . . .
 72
65
 73
2
 40
0.2
 49
0.1
 74
0
 49
-0.1
 74
0
  0
LTYPE
  5
1F9
100
AcDbSymbolTableRecord
100
AcDbLinetypeTableRecord
  2
DASHED
 70
64
  3
- - - - - - - - - - - - - - - - - - - -
 72
65
 73
2
 40
0.2
 49
0.1
 74
0
 49
-0.1
 74
0
  0
ENDTAB
  0
TABLE
  2
LAYER
  5
2
100
AcDbSymbolTable
 70
36
  0
LAYER
  5
10
100
AcDbSymbolTableRecord
100
AcDbLayerTableRecord
  2
0
 70
0
 62
7
  6
CONTINUOUS
370
-3
390
F
  0
LAYER
  5
1FA
100
AcDbSymbolTableRecord
100
AcDbLayerTableRecord
  2
DEFAULT_1
 70
0
 62
7
  6
CENTER
370
-3
390
F
  0
LAYER
  5
1FB
100
AcDbSymbolTableRecord
100
AcDbLayerTableRecord
  2
DEFAULT_2
 70
0
 62
7
  6
HIDDEN
370
-3
390
F
  0
LAYER
  5
1FC
100
AcDbSymbolTableRecord
100
AcDbLayerTableRecord
  2
DEFAULT_3
 70
0
 62
7
  6
PHANTOM
370
-3
390
F
  0
LAYER
  5
1FD
100
AcDbSymbolTableRecord
100
AcDbLayerTableRecord
  2
ASSI
 70
0
 62
7
  6
CONTINUOUS
370
-3
390
F
  0
LAYER
  5
1FE
100
AcDbSymbolTableRecord
100
AcDbLayerTableRecord
  2
COORDINATE
 70
0
 62
7
  6
CONTINUOUS
370
-3
390
F
  0
LAYER
  5
1FF
100
AcDbSymbolTableRecord
100
AcDbLayerTableRecord
  2
COORD_ORIGINE
 70
0
 62
7
  6
CONTINUOUS
370
-3
390
F
  0
LAYER
  5
200
100
AcDbSymbolTableRecord
100
AcDbLayerTableRecord
  2
CURVE
 70
0
 62
7
  6
CONTINUOUS
370
-3
390
F
  0
LAYER
  5
201
100
AcDbSymbolTableRecord
100
AcDbLayerTableRecord
  2
DRAFT
 70
0
 62
7
  6
CONTINUOUS
370
-3
390
F
  0
LAYER
  5
202
100
AcDbSymbolTableRecord
100
AcDbLayerTableRecord
  2
IGES-IMPORTATI
 70
0
 62
7
  6
CONTINUOUS
370
-3
390
F
  0
LAYER
  5
203
100
AcDbSymbolTableRecord
100
AcDbLayerTableRecord
  2
INTF_1
 70
0
 62
7
  6
CONTINUOUS
370
-3
390
F
  0
LAYER
  5
204
100
AcDbSymbolTableRecord
100
AcDbLayerTableRecord
  2
INTF_CYAN
 70
0
 62
7
  6
CONTINUOUS
370
-3
390
F
  0
LAYER
  5
205
100
AcDbSymbolTableRecord
100
AcDbLayerTableRecord
  2
NOTE
 70
0
 62
7
  6
CONTINUOUS
370
-3
390
F
  0
LAYER
  5
206
100
AcDbSymbolTableRecord
100
AcDbLayerTableRecord
  2
PIANI
 70
0
 62
7
  6
CONTINUOUS
370
-3
390
F
  0
LAYER
  5
207
100
AcDbSymbolTableRecord
100
AcDbLayerTableRecord
  2
PIANI_ORIGINE
 70
0
 62
7
  6
CONTINUOUS
370
-3
390
F
  0
LAYER
  5
208
100
AcDbSymbolTableRecord
100
AcDbLayerTableRecord
  2
PIANI_RIFERIMENTO
 70
0
 62
7
  6
CONTINUOUS
370
-3
390
F
  0
LAYER
  5
209
100
AcDbSymbolTableRecord
100
AcDbLayerTableRecord
  2
PUNTI
 70
0
 62
7
  6
CONTINUOUS
370
-3
390
F
  0
LAYER
  5
20A
100
AcDbSymbolTableRecord
100
AcDbLayerTableRecord
  2
RACCORDO
 70
0
 62
7
  6
CONTINUOUS
370
-3
390
F
  0
LAYER
  5
20B
100
AcDbSymbolTableRecord
100
AcDbLayerTableRecord
  2
RGB____0____0____0__
 70
0
 62
7
  6
CONTINUOUS
370
-3
390
F
  0
LAYER
  5
20C
100
AcDbSymbolTableRecord
100
AcDbLayerTableRecord
  2
SMUSSO
 70
0
 62
7
  6
CONTINUOUS
370
-3
390
F
  0
LAYER
  5
20D
100
AcDbSymbolTableRecord
100
AcDbLayerTableRecord
  2
SNAPLINE
 70
0
 62
7
  6
CONTINUOUS
370
-3
390
F
  0
LAYER
  5
20E
100
AcDbSymbolTableRecord
100
AcDbLayerTableRecord
  2
SUPERFICI
 70
0
 62
7
  6
CONTINUOUS
370
-3
390
F
  0
LAYER
  5
20F
100
AcDbSymbolTableRecord
100
AcDbLayerTableRecord
  2
TRASH
 70
0
 62
7
  6
CONTINUOUS
370
-3
390
F
  0
ENDTAB
  0
TABLE
  2
STYLE
  5
3
100
AcDbSymbolTable
 70
1
  0
STYLE
  5
11
100
AcDbSymbolTableRecord
100
AcDbTextStyleTableRecord
  2
STANDARD
 70
0
 40
0.0
 41
0.8
 50
0.0
 71
0
 42
0.2
  3
txt
  4

  0
STYLE
  5
210
100
AcDbSymbolTableRecord
100
AcDbTextStyleTableRecord
  2
TEXTSTYLE_1
 70
0
 40
0.0
 41
0.8
 50
0.0
 71
0
 42
0.2
  3
gdt
  4

  0
ENDTAB
  0
TABLE
  2
VIEW
  5
6
100
AcDbSymbolTable
 70
0
  0
ENDTAB
  0
TABLE
  2
UCS
  5
7
100
AcDbSymbolTable
 70
0
  0
ENDTAB
  0
TABLE
  2
APPID
  5
9
100
AcDbSymbolTable
 70
1
  0
APPID
  5
211
100
AcDbSymbolTableRecord
100
AcDbRegAppTableRecord
  2
ACAD
 70
0
  0
ENDTAB
  0
TABLE
  2
BLOCK_RECORD
  5
1
100
AcDbSymbolTable
 70
0
  0
BLOCK_RECORD
  5
212
100
AcDbSymbolTableRecord
100
AcDbBlockTableRecord
  2
*Model_Space
  0
BLOCK_RECORD
  5
213
100
AcDbSymbolTableRecord
100
AcDbBlockTableRecord
  2
*Paper_Space
  0
ENDTAB
  0
TABLE
  2
DIMSTYLE
  5
A
100
AcDbSymbolTable
 70
1
100
AcDbDimStyleTable
 71
0
  0
DIMSTYLE
105
214
100
AcDbSymbolTableRecord
100
AcDbDimStyleTableRecord
  2
STANDARD
 70
0
  3

  4

 40
1.0
 41
3.0
 42
0.5
 43
0.38
 44
1.5
 45
0.0
 46
0.0
 47
0.01
 48
0.01
140
3.0
141
0.09
142
0.0
143
25.4
144
1.0
145
0.0
146
1.0
147
0.625
 71
1.0
 72
0.0
 73
0
 74
0
 75
0
 76
0
 77
1
 78
8
170
0
171
2
172
0
173
0
174
0
175
0
176
0
177
0
178
0
270
2
271
2
272
2
273
2
274
2
275
0
280
0
281
0
282
0
283
1
284
8
285
0
286
0
287
3
288
0
340
11
278
44
  0
ENDTAB
  0
ENDSEC
  0
SECTION
  2
BLOCKS
  0
BLOCK
  5
20
100
AcDbEntity
  8
0
100
AcDbBlockBegin
  2
*Model_Space
 70
0
 10
0.0
 20
0.0
 30
0.0
  3
*Model_Space
  1

  0
ENDBLK
  5
21
100
AcDbEntity
  8
0
100
AcDbBlockEnd
  0
BLOCK
  5
1C
100
AcDbEntity
  8
0
100
AcDbBlockBegin
  2
*Paper_Space
 70
0
 10
0.0
 20
0.0
 30
0.0
  3
*Paper_Space
  1

  0
ENDBLK
  5
1D
100
AcDbEntity
  8
0
100
AcDbBlockEnd
  0
ENDSEC
  0
SECTION
  2
ENTITIES
  0
LINE
  5
215
100
AcDbEntity
  8
RACCORDO
100
AcDbLine
 62
253
  6
CONTINUOUS
 10
-8.8615555624
 20
24.4846411252
 11
-8.8571837284
 21
24.4890129592
  0
LINE
  5
216
100
AcDbEntity
  8
RACCORDO
100
AcDbLine
 62
253
  6
CONTINUOUS
 10
-11.007035634
 20
22.3802860914
 11
-10.9895805691
 21
22.3890129592
  0
LINE
  5
217
100
AcDbEntity
  8
RACCORDO
100
AcDbLine
 62
7
  6
CONTINUOUS
 10
-10.75719219
 20
-24.5109870408
 11
-8.8571837284
 21
-24.5109870408
  0
LINE
  5
218
100
AcDbEntity
  8
RACCORDO
100
AcDbLine
 62
7
  6
CONTINUOUS
 10
8.14280781
 20
-24.5109870408
 11
10.0428162716
 21
-24.5109870408
  0
LINE
  5
219
100
AcDbEntity
  8
RACCORDO
100
AcDbLine
 62
253
  6
CONTINUOUS
 10
-10.752820356
 20
-24.5066152068
 11
-8.8615555624
 21
-24.5066152068
  0
LINE
  5
21A
100
AcDbEntity
  8
RACCORDO
100
AcDbLine
 62
253
  6
CONTINUOUS
 10
8.147179644
 20
-24.5066152068
 11
10.0384444376
 21
-24.5066152068
  0
LINE
  5
21B
100
AcDbEntity
  8
RACCORDO
100
AcDbLine
 62
253
  6
CONTINUOUS
 10
7.8971838748
 20
-24.2566194376
 11
10.2884402068
 21
-24.2566194376
  0
LINE
  5
21C
100
AcDbEntity
  8
RACCORDO
100
AcDbLine
 62
253
  6
CONTINUOUS
 10
-8.6115597932
 20
-24.2566194376
 11
-11.0028161252
 21
-24.2566194376
  0
LINE
  5
21D
100
AcDbEntity
  8
RACCORDO
100
AcDbLine
 62
253
  6
CONTINUOUS
 10
7.8971838748
 20
-23.8553246081
 11
10.2884402068
 21
-23.8553246081
  0
LINE
  5
21E
100
AcDbEntity
  8
RACCORDO
100
AcDbLine
 62
253
  6
CONTINUOUS
 10
-8.6115597932
 20
-23.8553246081
 11
-11.0028161252
 21
-23.8553246081
  0
LINE
  5
21F
100
AcDbEntity
  8
DRAFT
100
AcDbLine
 62
7
  6
CONTINUOUS
 10
-4.7571879592
 20
-23.8109870408
 11
4.0428120408
 21
-23.8109870408
  0
LINE
  5
220
100
AcDbEntity
  8
DRAFT
100
AcDbLine
 62
7
  6
CONTINUOUS
 10
3.1428120408
 20
-23.805169211
 11
-3.8571879592
 21
-23.805169211
  0
LINE
  5
221
100
AcDbEntity
  8
ASSI
100
AcDbLine
 62
253
  6
CONTINUOUS
 10
3.9991613939
 20
-23.7673363939
 11
3.1428120408
 21
-23.7673363939
  0
LINE
  5
222
100
AcDbEntity
  8
ASSI
100
AcDbLine
 62
253
  6
CONTINUOUS
 10
-3.8571879592
 20
-23.7673363939
 11
-4.7135373123
 21
-23.7673363939
  0
LINE
  5
223
100
AcDbEntity
  8
RACCORDO
100
AcDbLine
 62
253
  6
CONTINUOUS
 10
10.0384444376
 20
-23.6388182572
 11
8.147179644
 21
-23.6388182572
  0
LINE
  5
224
100
AcDbEntity
  8
RACCORDO
100
AcDbLine
 62
253
  6
CONTINUOUS
 10
-8.8615555624
 20
-23.6388182572
 11
-10.752820356
 21
-23.6388182572
  0
LINE
  5
225
100
AcDbEntity
  8
RACCORDO
100
AcDbLine
 62
7
  6
CONTINUOUS
 10
-10.7579109571
 20
-23.1336367716
 11
-8.8564649613
 21
-23.1336367716
  0
LINE
  5
226
100
AcDbEntity
  8
RACCORDO
100
AcDbLine
 62
7
  6
CONTINUOUS
 10
8.1420890429
 20
-23.1336367716
 11
10.0435350387
 21
-23.1336367716
  0
LWPOLYLINE
  5
227
100
AcDbEntity
  8
RACCORDO
100
AcDbPolyline
 62
7
  6
CONTINUOUS
 90
34
 70
0
 10
-10.75719219
 20
-24.5109870408
 10
-10.7690874752
 20
-24.5107038906
 10
-10.7809558148
 20
-24.5098550751
 10
-10.7927703253
 20
-24.508442515
 10
-10.8045042467
 20
-24.5064694085
 10
-10.816130998
 20
-24.5039402225
 10
-10.8276242382
 20
-24.5008606825
 10
-10.838957933
 20
-24.4972377622
 10
-10.8501064085
 20
-24.4930796666
 10
-10.8610444055
 20
-24.488395813
 10
-10.8717471468
 20
-24.4831968096
 10
-10.8821903875
 20
-24.4774944325
 10
-10.8923504651
 20
-24.4713015989
 10
-10.9022043643
 20
-24.4646323363
 10
-10.911729763
 20
-24.4575017515
 10
-10.9209050782
 20
-24.4499259997
 10
-10.9297095253
 20
-24.4419222413
 10
-10.9381231597
 20
-24.4335086069
 10
-10.9461269181
 20
-24.4247041599
 10
-10.9537026699
 20
-24.4155288447
 10
-10.9608332547
 20
-24.4060034459
 10
-10.9675025173
 20
-24.3961495467
 10
-10.9736953508
 20
-24.3859894691
 10
-10.979397728
 20
-24.3755462284
 10
-10.9845967314
 20
-24.3648434871
 10
-10.989280585
 20
-24.3539054901
 10
-10.9934386805
 20
-24.3427570146
 10
-10.9970616009
 20
-24.3314233198
 10
-11.0001411409
 20
-24.3199300796
 10
-11.0026703269
 20
-24.3083033283
 10
-11.0046434333
 20
-24.296569407
 10
-11.0060559934
 20
-24.2847548964
 10
-11.0069048089
 20
-24.2728865568
 10
-11.0071879592
 20
-24.2609912716
  0
LWPOLYLINE
  5
228
100
AcDbEntity
  8
RACCORDO
100
AcDbPolyline
 62
7
  6
CONTINUOUS
 90
34
 70
0
 10
8.14280781
 20
-24.5109870408
 10
8.1309125248
 20
-24.5107038906
 10
8.1190441852
 20
-24.5098550751
 10
8.1072296747
 20
-24.508442515
 10
8.0954957533
 20
-24.5064694085
 10
8.083869002
 20
-24.5039402225
 10
8.0723757618
 20
-24.5008606825
 10
8.061042067
 20
-24.4972377622
 10
8.0498935915
 20
-24.4930796666
 10
8.0389555945
 20
-24.488395813
 10
8.0282528532
 20
-24.4831968096
 10
8.0178096125
 20
-24.4774944325
 10
8.0076495349
 20
-24.4713015989
 10
7.9977956357
 20
-24.4646323363
 10
7.988270237
 20
-24.4575017515
 10
7.9790949218
 20
-24.4499259997
 10
7.9702904747
 20
-24.4419222413
 10
7.9618768403
 20
-24.4335086069
 10
7.9538730819
 20
-24.4247041599
 10
7.9462973301
 20
-24.4155288447
 10
7.9391667453
 20
-24.4060034459
 10
7.9324974827
 20
-24.3961495467
 10
7.9263046492
 20
-24.3859894691
 10
7.920602272
 20
-24.3755462284
 10
7.9154032686
 20
-24.3648434871
 10
7.910719415
 20
-24.3539054901
 10
7.9065613195
 20
-24.3427570146
 10
7.9029383991
 20
-24.3314233198
 10
7.8998588591
 20
-24.3199300796
 10
7.8973296731
 20
-24.3083033283
 10
7.8953565667
 20
-24.296569407
 10
7.8939440066
 20
-24.2847548964
 10
7.8930951911
 20
-24.2728865568
 10
7.8928120408
 20
-24.2609912716
  0
LWPOLYLINE
  5
229
100
AcDbEntity
  8
RACCORDO
100
AcDbPolyline
 62
253
  6
CONTINUOUS
 90
31
 70
0
 10
-10.752820356
 20
-24.5066152068
 10
-10.7658726959
 20
-24.5062737996
 10
-10.7788975903
 20
-24.505250537
 10
-10.7918593649
 20
-24.5035469328
 10
-10.8047250837
 20
-24.5011658026
 10
-10.8174565488
 20
-24.4981126892
 10
-10.8300107334
 20
-24.4943972495
 10
-10.8423505373
 20
-24.4900306984
 10
-10.8544448935
 20
-24.4850242685
 10
-10.8662609717
 20
-24.4793915199
 10
-10.8777665721
 20
-24.4731477183
 10
-10.8889298905
 20
-24.4663100364
 10
-10.8997199697
 20
-24.4588974064
 10
-10.9101070956
 20
-24.4509302642
 10
-10.9200629328
 20
-24.4424303672
 10
-10.9295602672
 20
-24.4334209454
 10
-10.9385730863
 20
-24.4239266522
 10
-10.9470766278
 20
-24.4139735488
 10
-10.955047536
 20
-24.4035889596
 10
-10.9624639429
 20
-24.3928013692
 10
-10.9693055187
 20
-24.3816403433
 10
-10.9755534978
 20
-24.3701364875
 10
-10.9811907461
 20
-24.3583213418
 10
-10.9862018016
 20
-24.3462273046
 10
-10.9905729167
 20
-24.3338875485
 10
-10.9942921062
 20
-24.3213359011
 10
-10.9973491673
 20
-24.3086067871
 10
-10.99973571
 20
-24.2957351475
 10
-11.0014451932
 20
-24.2827562901
 10
-11.0024729362
 20
-24.2697057917
 10
-11.0028161252
 20
-24.2566194376
  0
LWPOLYLINE
  5
22A
100
AcDbEntity
  8
RACCORDO
100
AcDbPolyline
 62
253
  6
CONTINUOUS
 90
31
 70
0
 10
8.147179644
 20
-24.5066152068
 10
8.134096158
 20
-24.5062721682
 10
8.1210485314
 20
-24.5052448784
 10
8.1080725253
 20
-24.5035361528
 10
8.0952037045
 20
-24.5011506748
 10
8.0824773399
 20
-24.4980949826
 10
8.0699283122
 20
-24.4943774512
 10
8.057591016
 20
-24.4900082698
 10
8.0454992653
 20
-24.4849994133
 10
8.0336862015
 20
-24.4793646101
 10
8.0221842019
 20
-24.4731193042
 10
8.0110247914
 20
-24.4662806128
 10
8.0002385558
 20
-24.4588672794
 10
7.9898550582
 20
-24.4508996227
 10
7.9799027577
 20
-24.4423994804
 10
7.9704089318
 20
-24.4333901498
 10
7.9613996013
 20
-24.4238963239
 10
7.952899459
 20
-24.4139440234
 10
7.9449318022
 20
-24.4035605258
 10
7.9375184689
 20
-24.3927742902
 10
7.9306797774
 20
-24.3816148797
 10
7.9244344715
 20
-24.3701128801
 10
7.9187996684
 20
-24.3582998163
 10
7.9137908119
 20
-24.3462080657
 10
7.9094216304
 20
-24.3338707694
 10
7.905704099
 20
-24.3213217417
 10
7.9026484068
 20
-24.3085953772
 10
7.9002629288
 20
-24.2957265563
 10
7.8985542033
 20
-24.2827505502
 10
7.8975269134
 20
-24.2697029236
 10
7.8971838748
 20
-24.2566194376
  0
LWPOLYLINE
  5
22B
100
AcDbEntity
  8
RACCORDO
100
AcDbPolyline
 62
7
  6
CONTINUOUS
 90
11
 70
0
 10
-11.2132250332
 20
-22.3582008425
 10
-11.195375418
 20
-22.3666893985
 10
-11.1755574519
 20
-22.3751291044
 10
-11.15534766
 20
-22.3827238466
 10
-11.1347988559
 20
-22.3894481173
 10
-11.1139314803
 20
-22.3952897309
 10
-11.0927998706
 20
-22.4002280069
 10
-11.0715118462
 20
-22.4042380659
 10
-11.0501314052
 20
-22.4073143448
 10
-11.0286763564
 20
-22.4094607806
 10
-11.0071870983
 20
-22.4106782395
  0
LINE
  5
22C
100
AcDbEntity
  8
RACCORDO
100
AcDbLine
 62
253
  6
CONTINUOUS
 10
-10.9895805691
 20
-22.4109870408
 11
-11.007035634
 21
-22.402260173
  0
LINE
  5
22D
100
AcDbEntity
  8
RACCORDO
100
AcDbLine
 62
253
  6
CONTINUOUS
 10
-8.8615555624
 20
-24.5066152068
 11
-8.8571837284
 21
-24.5109870408
  0
LINE
  5
22E
100
AcDbEntity
  8
RACCORDO
100
AcDbLine
 62
253
  6
CONTINUOUS
 10
-8.6115597932
 20
24.234645356
 11
-8.6071879592
 21
24.23901719
  0
LWPOLYLINE
  5
22F
100
AcDbEntity
  8
RACCORDO
100
AcDbPolyline
 62
7
  6
CONTINUOUS
 90
11
 70
0
 10
10.2928111799
 20
-22.4106782395
 10
10.3143004381
 20
-22.4094607806
 10
10.3357554869
 20
-22.4073143448
 10
10.3571359278
 20
-22.4042380659
 10
10.3784239523
 20
-22.4002280069
 10
10.3995555619
 20
-22.3952897309
 10
10.4204229375
 20
-22.3894481173
 10
10.4409717416
 20
-22.3827238466
 10
10.4611815336
 20
-22.3751291044
 10
10.4809994996
 20
-22.3666893985
 10
10.4988491149
 20
-22.3582008425
  0
LINE
  5
230
100
AcDbEntity
  8
RACCORDO
100
AcDbLine
 62
7
  6
CONTINUOUS
 10
10.2928120408
 20
-22.4106770088
 11
10.2889003479
 21
-22.4107994841
  0
LINE
  5
231
100
AcDbEntity
  8
RACCORDO
100
AcDbLine
 62
7
  6
CONTINUOUS
 10
10.2889003479
 20
-22.4107994841
 11
10.2849879163
 21
-22.410891345
  0
LINE
  5
232
100
AcDbEntity
  8
RACCORDO
100
AcDbLine
 62
7
  6
CONTINUOUS
 10
10.2849879163
 20
-22.410891345
 11
10.281074836
 21
-22.4109525898
  0
LINE
  5
233
100
AcDbEntity
  8
RACCORDO
100
AcDbLine
 62
7
  6
CONTINUOUS
 10
10.281074836
 20
-22.4109525898
 11
10.2771614664
 21
-22.4109832124
  0
LINE
  5
234
100
AcDbEntity
  8
DRAFT
100
AcDbLine
 62
7
  6
CONTINUOUS
 10
7.8928120408
 20
-22.4109870408
 11
4.0428120408
 21
-22.4109870408
  0
LINE
  5
235
100
AcDbEntity
  8
RACCORDO
100
AcDbLine
 62
7
  6
CONTINUOUS
 10
7.8928120408
 20
-22.4109870408
 11
10.2771614664
 21
-22.4109832124
  0
LINE
  5
236
100
AcDbEntity
  8
DRAFT
100
AcDbLine
 62
7
  6
CONTINUOUS
 10
-4.7571879592
 20
-22.4109870408
 11
-8.6071879592
 21
-22.4109870408
  0
LINE
  5
237
100
AcDbEntity
  8
RACCORDO
100
AcDbLine
 62
7
  6
CONTINUOUS
 10
-11.007035634
 20
-22.402260173
 11
-7.615914827
 21
-22.402260173
  0
LINE
  5
238
100
AcDbEntity
  8
DRAFT
100
AcDbLine
 62
7
  6
CONTINUOUS
 10
-3.8571879592
 20
-22.402260173
 11
-3.3571879592
 21
-22.402260173
  0
LINE
  5
239
100
AcDbEntity
  8
DRAFT
100
AcDbLine
 62
7
  6
CONTINUOUS
 10
2.6428120408
 20
-22.402260173
 11
3.1428120408
 21
-22.402260173
  0
LINE
  5
23A
100
AcDbEntity
  8
RACCORDO
100
AcDbLine
 62
7
  6
CONTINUOUS
 10
6.9015389086
 20
-22.402260173
 11
10.2926597157
 21
-22.402260173
  0
LINE
  5
23B
100
AcDbEntity
  8
RACCORDO
100
AcDbLine
 62
253
  6
CONTINUOUS
 10
-7.6979930774
 20
-22.3201819226
 11
-3.3571879592
 21
-22.3201819226
  0
LINE
  5
23C
100
AcDbEntity
  8
RACCORDO
100
AcDbLine
 62
253
  6
CONTINUOUS
 10
2.6428120408
 20
-22.3201819226
 11
6.983617159
 21
-22.3201819226
  0
LINE
  5
23D
100
AcDbEntity
  8
RACCORDO
100
AcDbLine
 62
253
  6
CONTINUOUS
 10
-7.9412886783
 20
-21.7202047688
 11
-3.3571879592
 21
-21.7202047688
  0
LINE
  5
23E
100
AcDbEntity
  8
RACCORDO
100
AcDbLine
 62
253
  6
CONTINUOUS
 10
2.6428120408
 20
-21.7202047688
 11
7.22691276
 21
-21.7202047688
  0
LINE
  5
23F
100
AcDbEntity
  8
0
100
AcDbLine
 62
7
  6
CONTINUOUS
 10
2.6428120408
 20
-21.7109870408
 11
-3.3571879592
 21
-21.7109870408
  0
LINE
  5
240
100
AcDbEntity
  8
RACCORDO
100
AcDbLine
 62
7
  6
CONTINUOUS
 10
-8.6071879592
 20
-22.4109870408
 11
-10.9915373848
 21
-22.4109832124
  0
LINE
  5
241
100
AcDbEntity
  8
RACCORDO
100
AcDbLine
 62
7
  6
CONTINUOUS
 10
-10.9915373848
 20
-22.4109832124
 11
-10.9954507543
 21
-22.4109525898
  0
LINE
  5
242
100
AcDbEntity
  8
RACCORDO
100
AcDbLine
 62
7
  6
CONTINUOUS
 10
-10.9954507543
 20
-22.4109525898
 11
-10.9993638347
 21
-22.410891345
  0
LINE
  5
243
100
AcDbEntity
  8
RACCORDO
100
AcDbLine
 62
7
  6
CONTINUOUS
 10
-10.9993638347
 20
-22.410891345
 11
-11.0032762663
 21
-22.4107994841
  0
LINE
  5
244
100
AcDbEntity
  8
RACCORDO
100
AcDbLine
 62
7
  6
CONTINUOUS
 10
-11.0032762663
 20
-22.4107994841
 11
-11.0071879592
 21
-22.4106770088
  0
LINE
  5
245
100
AcDbEntity
  8
RACCORDO
100
AcDbLine
 62
253
  6
CONTINUOUS
 10
-8.6115597932
 20
-24.2566194376
 11
-8.6071879592
 21
-24.2609912716
  0
LINE
  5
246
100
AcDbEntity
  8
SMUSSO
100
AcDbLine
 62
7
  6
CONTINUOUS
 10
-10.1071879592
 20
20.137984013
 11
-9.3570740261
 21
20.8890129592
  0
LINE
  5
247
100
AcDbEntity
  8
RACCORDO
100
AcDbLine
 62
7
  6
CONTINUOUS
 10
-8.6071879592
 20
21.3890129592
 11
-7.615914827
 21
22.3802860914
  0
LINE
  5
248
100
AcDbEntity
  8
0
100
AcDbLine
 62
7
  6
CONTINUOUS
 10
2.6428120408
 20
-21.0109870408
 11
-3.3571879592
 21
-21.0109870408
  0
LINE
  5
249
100
AcDbEntity
  8
SMUSSO
100
AcDbLine
 62
7
  6
CONTINUOUS
 10
8.6426981077
 20
-20.9109870408
 11
7.8928120408
 21
-20.9109870408
  0
LINE
  5
24A
100
AcDbEntity
  8
RACCORDO
100
AcDbLine
 62
7
  6
CONTINUOUS
 10
6.685793924
 20
-20.9109870408
 11
7.8928120408
 21
-20.9109870408
  0
LINE
  5
24B
100
AcDbEntity
  8
RACCORDO
100
AcDbLine
 62
7
  6
CONTINUOUS
 10
-7.4001698424
 20
-20.9109870408
 11
-8.6071879592
 21
-20.9109870408
  0
LINE
  5
24C
100
AcDbEntity
  8
SMUSSO
100
AcDbLine
 62
7
  6
CONTINUOUS
 10
-8.6071879592
 20
-20.9109870408
 11
-9.3570740261
 21
-20.9109870408
  0
LINE
  5
24D
100
AcDbEntity
  8
RACCORDO
100
AcDbLine
 62
253
  6
CONTINUOUS
 10
6.1998301576
 20
-20.6956490819
 11
-6.914206076
 21
-20.6956490819
  0
LINE
  5
24E
100
AcDbEntity
  8
SMUSSO
100
AcDbLine
 62
7
  6
CONTINUOUS
 10
-9.2055527303
 20
-20.4560534924
 11
-7.707690499
 21
-20.4560534924
  0
LINE
  5
24F
100
AcDbEntity
  8
SMUSSO
100
AcDbLine
 62
7
  6
CONTINUOUS
 10
6.9933145806
 20
-20.4560534924
 11
8.4911768119
 21
-20.4560534924
  0
LINE
  5
250
100
AcDbEntity
  8
RACCORDO
100
AcDbLine
 62
253
  6
CONTINUOUS
 10
5.9992602208
 20
-20.395660505
 11
-6.7136361392
 21
-20.395660505
  0
LINE
  5
251
100
AcDbEntity
  8
RACCORDO
100
AcDbLine
 62
253
  6
CONTINUOUS
 10
-6.6094031101
 20
-20.2393087563
 11
5.8950271917
 21
-20.2393087563
  0
LINE
  5
252
100
AcDbEntity
  8
RACCORDO
100
AcDbLine
 62
253
  6
CONTINUOUS
 10
-6.6065218625
 20
-19.7591313892
 11
5.8921459441
 21
-19.7591313892
  0
LINE
  5
253
100
AcDbEntity
  8
RACCORDO
100
AcDbLine
 62
7
  6
CONTINUOUS
 10
-7.615914827
 20
-22.402260173
 11
-8.6071879592
 21
-21.4109870408
  0
LINE
  5
254
100
AcDbEntity
  8
SMUSSO
100
AcDbLine
 62
7
  6
CONTINUOUS
 10
-9.3570740261
 20
-20.9109870408
 11
-10.1071879592
 21
-20.1599580946
  0
LINE
  5
255
100
AcDbEntity
  8
ASSI
100
AcDbLine
 62
7
  6
CONTINUOUS
 10
-3.9510436769
 20
23.6124602433
 11
-3.9775903827
 21
23.5820905125
  0
LINE
  5
256
100
AcDbEntity
  8
ASSI
100
AcDbLine
 62
7
  6
CONTINUOUS
 10
-3.9775903827
 20
23.5820905125
 11
-4.00799651
 21
23.5478427796
  0
LINE
  5
257
100
AcDbEntity
  8
ASSI
100
AcDbLine
 62
7
  6
CONTINUOUS
 10
-4.00799651
 20
23.5478427796
 11
-4.0422663091
 21
23.5097290143
  0
LINE
  5
258
100
AcDbEntity
  8
ASSI
100
AcDbLine
 62
7
  6
CONTINUOUS
 10
-4.0422663091
 20
23.5097290143
 11
-4.1007597817
 21
23.4454147901
  0
LINE
  5
259
100
AcDbEntity
  8
ASSI
100
AcDbLine
 62
7
  6
CONTINUOUS
 10
-4.1007597817
 20
23.4454147901
 11
-4.2851579469
 21
23.2453707739
  0
LINE
  5
25A
100
AcDbEntity
  8
0
100
AcDbLine
 62
7
  6
CONTINUOUS
 10
-3.3571879592
 20
17.9890129592
 11
-6.1571889592
 21
17.0157089592
  0
LINE
  5
25B
100
AcDbEntity
  8
RACCORDO
100
AcDbLine
 62
253
  6
CONTINUOUS
 10
-7.6001664577
 20
-18.9090943254
 11
-7.4001698424
 21
-18.9090943254
  0
LINE
  5
25C
100
AcDbEntity
  8
RACCORDO
100
AcDbLine
 62
253
  6
CONTINUOUS
 10
6.8857905394
 20
-18.9090943254
 11
6.685793924
 21
-18.9090943254
  0
LINE
  5
25D
100
AcDbEntity
  8
RACCORDO
100
AcDbLine
 62
253
  6
CONTINUOUS
 10
5.9998335423
 20
-18.9090943254
 11
6.1998301576
 21
-18.9090943254
  0
LINE
  5
25E
100
AcDbEntity
  8
RACCORDO
100
AcDbLine
 62
253
  6
CONTINUOUS
 10
-6.7142094606
 20
-18.9090943254
 11
-6.914206076
 21
-18.9090943254
  0
LINE
  5
25F
100
AcDbEntity
  8
ASSI
100
AcDbLine
 62
7
  6
CONTINUOUS
 10
-4.2851579469
 20
-23.2673448555
 11
-4.0804869445
 21
-23.4896007731
  0
LINE
  5
260
100
AcDbEntity
  8
ASSI
100
AcDbLine
 62
7
  6
CONTINUOUS
 10
-4.0804869445
 20
-23.4896007731
 11
-4.0424682732
 21
-23.5314797632
  0
LINE
  5
261
100
AcDbEntity
  8
ASSI
100
AcDbLine
 62
7
  6
CONTINUOUS
 10
-4.0424682732
 20
-23.5314797632
 11
-4.008242624
 21
-23.5695420233
  0
LINE
  5
262
100
AcDbEntity
  8
ASSI
100
AcDbLine
 62
7
  6
CONTINUOUS
 10
-4.008242624
 20
-23.5695420233
 11
-3.9778724291
 21
-23.6037446345
  0
LWPOLYLINE
  5
263
100
AcDbEntity
  8
ASSI
100
AcDbPolyline
 62
7
  6
CONTINUOUS
 90
18
 70
0
 10
-3.9778724291
 20
-23.6037446345
 10
-3.9513385285
 20
-23.6340941518
 10
-3.9394401582
 20
-23.6479140154
 10
-3.9284321367
 20
-23.6608530441
 10
-3.9183010529
 20
-23.6729134524
 10
-3.908995191
 20
-23.6841758133
 10
-3.900510146
 20
-23.6946425799
 10
-3.8928336429
 20
-23.7043112991
 10
-3.8859191678
 20
-23.7132551842
 10
-3.8797519612
 20
-23.7214934104
 10
-3.8743450214
 20
-23.7290068024
 10
-3.8696993824
 20
-23.735811048
 10
-3.8658051254
 20
-23.7418982834
 10
-3.8626520453
 20
-23.7472763723
 10
-3.8602317084
 20
-23.7519845936
 10
-3.85852759
 20
-23.7560360404
 10
-3.8575195038
 20
-23.7594176196
 10
-3.8571879592
 20
-23.7621293311
  0
LINE
  5
264
100
AcDbEntity
  8
0
100
AcDbLine
 62
7
  6
CONTINUOUS
 10
-3.3571879592
 20
17.3841879592
 11
-3.9506329592
 21
17.1824049592
  0
LINE
  5
265
100
AcDbEntity
  8
0
100
AcDbLine
 62
7
  6
CONTINUOUS
 10
-4.4159469592
 20
17.0310929592
 11
-5.6219799592
 21
16.6435159592
  0
LINE
  5
266
100
AcDbEntity
  8
0
100
AcDbLine
 62
7
  6
CONTINUOUS
 10
4.7428090016
 20
-16.3609850408
 11
3.9919920408
 21
-16.3609850408
  0
LINE
  5
267
100
AcDbEntity
  8
0
100
AcDbLine
 62
7
  6
CONTINUOUS
 10
0.3975520408
 20
-16.3609850408
 11
-0.3532649199
 21
-16.3609850408
  0
LINE
  5
268
100
AcDbEntity
  8
0
100
AcDbLine
 62
7
  6
CONTINUOUS
 10
-6.1573209592
 20
-16.2129180408
 11
-4.2292829592
 21
-16.8319350408
  0
LINE
  5
269
100
AcDbEntity
  8
0
100
AcDbLine
 62
7
  6
CONTINUOUS
 10
-6.1573209592
 20
-15.6528900408
 11
-3.3571949592
 21
-16.5519210408
  0
LINE
  5
26A
100
AcDbEntity
  8
0
100
AcDbLine
 62
7
  6
CONTINUOUS
 10
-3.9383199592
 20
14.4443609592
 11
-6.1571889592
 21
13.3701129592
  0
LINE
  5
26B
100
AcDbEntity
  8
0
100
AcDbLine
 62
7
  6
CONTINUOUS
 10
-3.3571879592
 20
-15.2795520408
 11
-6.1573209592
 21
-15.2795450408
  0
LINE
  5
26C
100
AcDbEntity
  8
0
100
AcDbLine
 62
7
  6
CONTINUOUS
 10
-3.3571949592
 20
-14.7195310408
 11
-6.1573209592
 21
-14.7195240408
  0
LINE
  5
26D
100
AcDbEntity
  8
0
100
AcDbLine
 62
7
  6
CONTINUOUS
 10
-3.3571949592
 20
-14.1595240408
 11
-6.1573209592
 21
-14.1595240408
  0
LINE
  5
26E
100
AcDbEntity
  8
ASSI
100
AcDbLine
 62
7
  6
CONTINUOUS
 10
3.8912403807
 20
23.5967725776
 11
3.8627670923
 21
23.5644763091
  0
LINE
  5
26F
100
AcDbEntity
  8
ASSI
100
AcDbLine
 62
7
  6
CONTINUOUS
 10
3.8627670923
 20
23.5644763091
 11
3.8304588531
 21
23.5283518177
  0
LINE
  5
270
100
AcDbEntity
  8
ASSI
100
AcDbLine
 62
7
  6
CONTINUOUS
 10
3.8304588531
 20
23.5283518177
 11
3.7943433619
 21
23.4883777037
  0
LINE
  5
271
100
AcDbEntity
  8
ASSI
100
AcDbLine
 62
7
  6
CONTINUOUS
 10
3.7943433619
 20
23.4883777037
 11
3.7333022907
 21
23.4214976515
  0
LINE
  5
272
100
AcDbEntity
  8
ASSI
100
AcDbLine
 62
7
  6
CONTINUOUS
 10
3.7333022907
 20
23.4214976515
 11
3.5707820285
 21
23.2453707739
  0
LINE
  5
273
100
AcDbEntity
  8
ASSI
100
AcDbLine
 62
7
  6
CONTINUOUS
 10
4.0428120408
 20
23.7890129592
 11
3.9991613939
 21
23.7453623123
  0
LINE
  5
274
100
AcDbEntity
  8
0
100
AcDbLine
 62
7
  6
CONTINUOUS
 10
3.8378100408
 20
17.3299459592
 11
3.4960910408
 21
17.1381499592
  0
LINE
  5
275
100
AcDbEntity
  8
0
100
AcDbLine
 62
7
  6
CONTINUOUS
 10
-3.3571879592
 20
14.1535399592
 11
-5.7005989592
 21
13.0405149592
  0
LINE
  5
276
100
AcDbEntity
  8
0
100
AcDbLine
 62
7
  6
CONTINUOUS
 10
-3.3571879592
 20
12.1718429592
 11
-6.1571889592
 21
11.1984339592
  0
LINE
  5
277
100
AcDbEntity
  8
0
100
AcDbLine
 62
7
  6
CONTINUOUS
 10
-3.3571949592
 20
-13.5995030408
 11
-5.2036899592
 21
-13.5995030408
  0
LINE
  5
278
100
AcDbEntity
  8
0
100
AcDbLine
 62
7
  6
CONTINUOUS
 10
2.5697720408
 20
-12.3758750408
 11
1.8197720408
 21
-12.3758750408
  0
LINE
  5
279
100
AcDbEntity
  8
0
100
AcDbLine
 62
7
  6
CONTINUOUS
 10
-6.1573209592
 20
-12.2671370408
 11
-4.3337789592
 21
-12.7900300408
  0
LINE
  5
27A
100
AcDbEntity
  8
0
100
AcDbLine
 62
7
  6
CONTINUOUS
 10
-5.2036899592
 20
-11.9805640408
 11
-3.3572019592
 21
-12.5100300408
  0
LINE
  5
27B
100
AcDbEntity
  8
ASSI
100
AcDbLine
 62
7
  6
CONTINUOUS
 10
4.0428120408
 20
-23.8109870408
 11
3.9991613939
 21
-23.7673363939
  0
LINE
  5
27C
100
AcDbEntity
  8
ASSI
100
AcDbLine
 62
7
  6
CONTINUOUS
 10
3.5707820285
 20
-23.2673448555
 11
3.7747513789
 21
-23.4888308576
  0
LINE
  5
27D
100
AcDbEntity
  8
ASSI
100
AcDbLine
 62
7
  6
CONTINUOUS
 10
3.7747513789
 20
-23.4888308576
 11
3.8126797565
 21
-23.5306037611
  0
LINE
  5
27E
100
AcDbEntity
  8
ASSI
100
AcDbLine
 62
7
  6
CONTINUOUS
 10
3.8126797565
 20
-23.5306037611
 11
3.8468570334
 21
-23.5686020222
  0
LWPOLYLINE
  5
27F
100
AcDbEntity
  8
ASSI
100
AcDbPolyline
 62
7
  6
CONTINUOUS
 90
20
 70
0
 10
3.8468570334
 20
-23.5686020222
 10
3.8772155945
 20
-23.602778466
 10
3.8909601421
 20
-23.6184263187
 10
3.903765132
 20
-23.6331285065
 10
3.9156800058
 20
-23.6469570353
 10
3.9267105626
 20
-23.6599101526
 10
3.9368691333
 20
-23.6719896109
 10
3.9462044891
 20
-23.6832726745
 10
3.954720465
 20
-23.6937599345
 10
3.9624312141
 20
-23.7034507997
 10
3.9693846357
 20
-23.7124207608
 10
3.975595812
 20
-23.720689119
 10
3.9810524172
 20
-23.728236573
 10
3.9857547237
 20
-23.7350807097
 10
3.9897126942
 20
-23.7412144499
 10
3.9929362359
 20
-23.7466448728
 10
3.9954337551
 20
-23.7514108033
 10
3.9972213438
 20
-23.7555251831
 10
3.9983186722
 20
-23.7589750705
 10
3.9987447736
 20
-23.7617604655
  0
LINE
  5
280
100
AcDbEntity
  8
RACCORDO
100
AcDbLine
 62
253
  6
CONTINUOUS
 10
-11.0028161252
 20
-23.8553246081
 11
-11.0071879592
 21
-23.421472189
  0
LINE
  5
281
100
AcDbEntity
  8
RACCORDO
100
AcDbLine
 62
253
  6
CONTINUOUS
 10
-10.752820356
 20
-23.6388182572
 11
-10.7579109571
 21
-23.1336367716
  0
LINE
  5
282
100
AcDbEntity
  8
RACCORDO
100
AcDbLine
 62
7
  6
CONTINUOUS
 10
-11.5071879592
 20
-21.9021649814
 11
-11.5071879592
 21
21.8801908998
  0
LINE
  5
283
100
AcDbEntity
  8
RACCORDO
100
AcDbLine
 62
7
  6
CONTINUOUS
 10
-11.0071879592
 20
-22.4106770088
 11
-11.0071879592
 21
-24.2609912716
  0
LINE
  5
284
100
AcDbEntity
  8
RACCORDO
100
AcDbLine
 62
7
  6
CONTINUOUS
 10
-11.0071879592
 20
22.3887029272
 11
-11.0071879592
 21
24.23901719
  0
LINE
  5
285
100
AcDbEntity
  8
RACCORDO
100
AcDbLine
 62
253
  6
CONTINUOUS
 10
-11.0028161252
 20
24.234645356
 11
-11.0028161252
 21
23.8333505265
  0
LINE
  5
286
100
AcDbEntity
  8
RACCORDO
100
AcDbLine
 62
253
  6
CONTINUOUS
 10
-11.0028161252
 20
-23.8553246081
 11
-11.0028161252
 21
-24.2566194376
  0
LINE
  5
287
100
AcDbEntity
  8
RACCORDO
100
AcDbLine
 62
253
  6
CONTINUOUS
 10
-11.0071879592
 20
23.3994981074
 11
-11.0028161252
 21
23.8333505265
  0
LINE
  5
288
100
AcDbEntity
  8
RACCORDO
100
AcDbLine
 62
253
  6
CONTINUOUS
 10
-10.7579109571
 20
23.11166269
 11
-10.7520931272
 21
23.6890129592
  0
LWPOLYLINE
  5
289
100
AcDbEntity
  8
RACCORDO
100
AcDbPolyline
 62
7
  6
CONTINUOUS
 90
34
 70
0
 10
-11.0071879592
 20
24.23901719
 10
-11.0069048089
 20
24.2509124752
 10
-11.0060559934
 20
24.2627808148
 10
-11.0046434333
 20
24.2745953253
 10
-11.0026703269
 20
24.2863292467
 10
-11.0001411409
 20
24.297955998
 10
-10.9970616009
 20
24.3094492382
 10
-10.9934386805
 20
24.320782933
 10
-10.989280585
 20
24.3319314085
 10
-10.9845967314
 20
24.3428694055
 10
-10.979397728
 20
24.3535721468
 10
-10.9736953508
 20
24.3640153875
 10
-10.9675025173
 20
24.3741754651
 10
-10.9608332547
 20
24.3840293643
 10
-10.9537026699
 20
24.393554763
 10
-10.9461269181
 20
24.4027300782
 10
-10.9381231597
 20
24.4115345253
 10
-10.9297095253
 20
24.4199481597
 10
-10.9209050782
 20
24.4279519181
 10
-10.911729763
 20
24.4355276699
 10
-10.9022043643
 20
24.4426582547
 10
-10.8923504651
 20
24.4493275173
 10
-10.8821903875
 20
24.4555203508
 10
-10.8717471468
 20
24.461222728
 10
-10.8610444055
 20
24.4664217314
 10
-10.8501064085
 20
24.471105585
 10
-10.838957933
 20
24.4752636805
 10
-10.8276242382
 20
24.4788866009
 10
-10.816130998
 20
24.4819661409
 10
-10.8045042467
 20
24.4844953269
 10
-10.7927703253
 20
24.4864684333
 10
-10.7809558148
 20
24.4878809934
 10
-10.7690874752
 20
24.4887298089
 10
-10.75719219
 20
24.4890129592
  0
LWPOLYLINE
  5
28A
100
AcDbEntity
  8
RACCORDO
100
AcDbPolyline
 62
253
  6
CONTINUOUS
 90
31
 70
0
 10
-11.0028161252
 20
24.234645356
 10
-11.002474718
 20
24.2476976959
 10
-11.0014514554
 20
24.2607225903
 10
-10.9997478511
 20
24.2736843649
 10
-10.997366721
 20
24.2865500837
 10
-10.9943136076
 20
24.2992815488
 10
-10.9905981679
 20
24.3118357334
 10
-10.9862316168
 20
24.3241755373
 10
-10.9812251869
 20
24.3362698935
 10
-10.9755924383
 20
24.3480859717
 10
-10.9693486366
 20
24.3595915721
 10
-10.9625109548
 20
24.3707548905
 10
-10.9550983248
 20
24.3815449697
 10
-10.9471311825
 20
24.3919320956
 10
-10.9386312856
 20
24.4018879328
 10
-10.9296218638
 20
24.4113852672
 10
-10.9201275706
 20
24.4203980863
 10
-10.9101744672
 20
24.4289016278
 10
-10.8997898779
 20
24.436872536
 10
-10.8890022876
 20
24.4442889429
 10
-10.8778412616
 20
24.4511305187
 10
-10.8663374058
 20
24.4573784978
 10
-10.8545222602
 20
24.4630157461
 10
-10.842428223
 20
24.4680268016
 10
-10.8300884669
 20
24.4723979167
 10
-10.8175368194
 20
24.4761171062
 10
-10.8048077055
 20
24.4791741673
 10
-10.7919360658
 20
24.48156071
 10
-10.7789572084
 20
24.4832701932
 10
-10.7659067101
 20
24.4842979362
 10
-10.752820356
 20
24.4846411252
  0
LINE
  5
28B
100
AcDbEntity
  8
0
100
AcDbLine
 62
7
  6
CONTINUOUS
 10
3.2491950545
 20
12.6965131308
 11
3.1215354238
 21
12.6515127875
  0
LINE
  5
28C
100
AcDbEntity
  8
0
100
AcDbLine
 62
7
  6
CONTINUOUS
 10
3.7598333273
 20
12.7190127875
 11
3.6321737323
 21
12.6740129592
  0
LINE
  5
28D
100
AcDbEntity
  8
0
100
AcDbLine
 62
7
  6
CONTINUOUS
 10
-3.3571879592
 20
11.5668079592
 11
-3.9506329592
 21
11.3651299592
  0
LINE
  5
28E
100
AcDbEntity
  8
0
100
AcDbLine
 62
7
  6
CONTINUOUS
 10
-4.4159469592
 20
11.2139229592
 11
-5.6221379592
 21
10.8262949592
  0
LINE
  5
28F
100
AcDbEntity
  8
0
100
AcDbLine
 62
7
  6
CONTINUOUS
 10
-3.3571949592
 20
-11.9805570408
 11
-5.2036899592
 21
-11.9805640408
  0
LINE
  5
290
100
AcDbEntity
  8
0
100
AcDbLine
 62
7
  6
CONTINUOUS
 10
4.7428091586
 20
-11.9758750408
 11
3.9919889924
 21
-11.9758750408
  0
LINE
  5
291
100
AcDbEntity
  8
0
100
AcDbLine
 62
7
  6
CONTINUOUS
 10
0.3975520408
 20
-11.9758750408
 11
-0.3532650769
 21
-11.9758750408
  0
LINE
  5
292
100
AcDbEntity
  8
0
100
AcDbLine
 62
7
  6
CONTINUOUS
 10
-3.3571949592
 20
-11.4205360408
 11
-6.1573209592
 21
-11.4205360408
  0
LINE
  5
293
100
AcDbEntity
  8
0
100
AcDbLine
 62
7
  6
CONTINUOUS
 10
-6.1573279592
 20
-10.1481740408
 11
-3.3571949592
 21
-11.0471910408
  0
LINE
  5
294
100
AcDbEntity
  8
0
100
AcDbLine
 62
7
  6
CONTINUOUS
 10
-3.9078639592
 20
-10.3103710408
 11
-3.3572019592
 21
-10.4871700408
  0
LINE
  5
295
100
AcDbEntity
  8
0
100
AcDbLine
 62
7
  6
CONTINUOUS
 10
-5.2852329592
 20
-9.8681530408
 11
-4.4398849592
 21
-10.1395500408
  0
LWPOLYLINE
  5
296
100
AcDbEntity
  8
RACCORDO
100
AcDbPolyline
 62
253
  6
CONTINUOUS
 90
31
 70
0
 10
-8.6115597932
 20
-23.8553246081
 10
-8.6119391477
 20
-23.8440141004
 10
-8.6130001954
 20
-23.8327344813
 10
-8.6147400388
 20
-23.8215165549
 10
-8.617153924
 20
-23.8103909661
 10
-8.62023526
 20
-23.7993880892
 10
-8.6239756418
 20
-23.7885379465
 10
-8.6283648681
 20
-23.7778701503
 10
-8.6333909503
 20
-23.7674138569
 10
-8.6390401467
 20
-23.7571976576
 10
-8.6452970185
 20
-23.7472494661
 10
-8.652144484
 20
-23.7375964354
 10
-8.6595638481
 20
-23.7282649193
 10
-8.6675348517
 20
-23.7192803983
 10
-8.6760357233
 20
-23.7106674129
 10
-8.6850432436
 20
-23.7024494876
 10
-8.6945328073
 20
-23.6946490694
 10
-8.704478503
 20
-23.6872874558
 10
-8.7148531825
 20
-23.6803847419
 10
-8.725628535
 20
-23.6739597683
 10
-8.7367751145
 20
-23.6680300967
 10
-8.7482624288
 20
-23.6626119455
 10
-8.7600590708
 20
-23.6577201183
 10
-8.7721328516
 20
-23.6533679537
 10
-8.7844508403
 20
-23.6495673187
 10
-8.7969798725
 20
-23.6463284816
 10
-8.8096852704
 20
-23.6436604415
 10
-8.8225309217
 20
-23.6415706822
 10
-8.8354812364
 20
-23.6400647636
 10
-8.8485013004
 20
-23.6391465177
 10
-8.8615555624
 20
-23.6388182572
  0
LINE
  5
297
100
AcDbEntity
  8
RACCORDO
100
AcDbLine
 62
253
  6
CONTINUOUS
 10
-10.752820356
 20
-23.6388182572
 11
-10.752820356
 21
-24.5066152068
  0
LINE
  5
298
100
AcDbEntity
  8
RACCORDO
100
AcDbLine
 62
253
  6
CONTINUOUS
 10
-10.752820356
 20
23.6890129592
 11
-10.752820356
 21
24.4846411252
  0
LINE
  5
299
100
AcDbEntity
  8
SMUSSO
100
AcDbLine
 62
7
  6
CONTINUOUS
 10
-10.1071879592
 20
-20.1599580946
 11
-10.1071879592
 21
20.137984013
  0
LWPOLYLINE
  5
29A
100
AcDbEntity
  8
RACCORDO
100
AcDbPolyline
 62
253
  6
CONTINUOUS
 90
31
 70
0
 10
-11.0028161252
 20
-23.8553246081
 10
-11.0024375696
 20
-23.8440266358
 10
-11.001378442
 20
-23.8327563318
 10
-10.9996410655
 20
-23.821544462
 10
-10.9972293641
 20
-23.8104206529
 10
-10.9941494938
 20
-23.7994164008
 10
-10.9904104428
 20
-23.788564861
 10
-10.9860228984
 20
-23.777896738
 10
-10.9809984994
 20
-23.7674400647
 10
-10.9753508188
 20
-23.7572231458
 10
-10.9690951262
 20
-23.7472737407
 10
-10.9622485516
 20
-23.7376192162
 10
-10.9548299434
 20
-23.7282861928
 10
-10.9468596393
 20
-23.7193002426
 10
-10.9383593445
 20
-23.7106858234
 10
-10.929352254
 20
-23.702466445
 10
-10.9198629504
 20
-23.6946645484
 10
-10.9099173633
 20
-23.6873014601
 10
-10.8995426804
 20
-23.6803973112
 10
-10.888767248
 20
-23.6739709647
 10
-10.87762049
 20
-23.6680399677
 10
-10.8661328529
 20
-23.6626205204
 10
-10.8543356962
 20
-23.6577274184
 10
-10.8422612598
 20
-23.6533740353
 10
-10.8299425802
 20
-23.6495722779
 10
-10.8174133448
 20
-23.6463325315
 10
-10.804707742
 20
-23.643663625
 10
-10.7918604212
 20
-23.6415728326
 10
-10.7789064539
 20
-23.6400658627
 10
-10.7658812401
 20
-23.6391468343
 10
-10.752820356
 20
-23.6388182572
  0
LWPOLYLINE
  5
29B
100
AcDbEntity
  8
RACCORDO
100
AcDbPolyline
 62
7
  6
CONTINUOUS
 90
34
 70
0
 10
-8.6115597932
 20
23.8333505265
 10
-8.6118575195
 20
23.8271089474
 10
-8.6126287709
 20
23.8208358363
 10
-8.6138791337
 20
23.8145494203
 10
-8.615613181
 20
23.8082753882
 10
-8.6178346237
 20
23.8020258499
 10
-8.6205466437
 20
23.7957993659
 10
-8.6237511405
 20
23.7896164285
 10
-8.6274490651
 20
23.7834967983
 10
-8.6316413161
 20
23.7774386418
 10
-8.6363268003
 20
23.771463465
 10
-8.6415034422
 20
23.7655920574
 10
-8.647169813
 20
23.7598222355
 10
-8.6533215968
 20
23.7541762545
 10
-8.6599533792
 20
23.7486757614
 10
-8.667061182
 20
23.7433184257
 10
-8.6746371776
 20
23.7381269733
 10
-8.6826722596
 20
23.7331236646
 10
-8.6911594852
 20
23.7283062506
 10
-8.7000871947
 20
23.7236975571
 10
-8.7094421734
 20
23.7193201483
 10
-8.719213848
 20
23.7151721004
 10
-8.7293863592
 20
23.7112758414
 10
-8.7399419463
 20
23.7076537986
 10
-8.7508655471
 20
23.7043045624
 10
-8.7621366046
 20
23.7012495293
 10
-8.7737325291
 20
23.698510323
 10
-8.7856332268
 20
23.6960860416
 10
-8.7978000546
 20
23.6939992409
 10
-8.8102181095
 20
23.6922657819
 10
-8.8229021036
 20
23.6908796609
 10
-8.8358368142
 20
23.6898565789
 10
-8.8489753157
 20
23.6892273891
 10
-8.8622827911
 20
23.6890129592
  0
LINE
  5
29C
100
AcDbEntity
  8
DRAFT
100
AcDbLine
 62
7
  6
CONTINUOUS
 10
-7.6571879592
 20
20.8890129592
 11
-7.707690499
 21
20.4340794108
  0
LINE
  5
29D
100
AcDbEntity
  8
DRAFT
100
AcDbLine
 62
7
  6
CONTINUOUS
 10
4.0428120408
 20
22.3890129592
 11
3.9987447736
 21
22.3229111261
  0
LINE
  5
29E
100
AcDbEntity
  8
0
100
AcDbLine
 62
7
  6
CONTINUOUS
 10
1.7106830408
 20
16.1460949592
 11
0.7229690408
 21
14.9740219592
  0
LINE
  5
29F
100
AcDbEntity
  8
RACCORDO
100
AcDbLine
 62
7
  6
CONTINUOUS
 10
7.3969032722
 20
21.8849217278
 11
7.22691276
 21
21.6982306871
  0
LINE
  5
2A0
100
AcDbEntity
  8
RACCORDO
100
AcDbLine
 62
253
  6
CONTINUOUS
 10
10.0384444376
 20
24.4846411252
 11
10.0428162716
 21
24.4890129592
  0
LINE
  5
2A1
100
AcDbEntity
  8
RACCORDO
100
AcDbLine
 62
253
  6
CONTINUOUS
 10
10.2884402068
 20
24.234645356
 11
10.2928120408
 21
24.23901719
  0
LINE
  5
2A2
100
AcDbEntity
  8
0
100
AcDbLine
 62
7
  6
CONTINUOUS
 10
3.2491950545
 20
12.5840127875
 11
3.1725992475
 21
12.5390129592
  0
LINE
  5
2A3
100
AcDbEntity
  8
0
100
AcDbLine
 62
7
  6
CONTINUOUS
 10
3.4279184375
 20
11.9765127875
 11
3.3257907901
 21
11.9315129592
  0
LINE
  5
2A4
100
AcDbEntity
  8
0
100
AcDbLine
 62
7
  6
CONTINUOUS
 10
3.96408864
 20
11.9540131308
 11
3.8364290629
 21
11.9090127875
  0
LINE
  5
2A5
100
AcDbEntity
  8
RACCORDO
100
AcDbLine
 62
253
  6
CONTINUOUS
 10
10.0384444376
 20
-24.5066152068
 11
10.0428162716
 21
-24.5109870408
  0
LINE
  5
2A6
100
AcDbEntity
  8
RACCORDO
100
AcDbLine
 62
253
  6
CONTINUOUS
 10
10.2884402068
 20
-24.2566194376
 11
10.2928120408
 21
-24.2609912716
  0
LWPOLYLINE
  5
2A7
100
AcDbEntity
  8
RACCORDO
100
AcDbPolyline
 62
7
  6
CONTINUOUS
 90
3
 70
0
 10
7.22691276
 20
-21.7202047688
 10
7.3596735756
 20
-21.865901081
 10
7.3969032722
 20
-21.9068958094
  0
LINE
  5
2A8
100
AcDbEntity
  8
DRAFT
100
AcDbLine
 62
7
  6
CONTINUOUS
 10
4.0428120408
 20
-22.4109870408
 11
3.9987447736
 21
-22.3448852077
  0
LINE
  5
2A9
100
AcDbEntity
  8
DRAFT
100
AcDbLine
 62
7
  6
CONTINUOUS
 10
-7.707690499
 20
-20.4560534924
 11
-7.6571879592
 21
-20.9109870408
  0
LINE
  5
2AA
100
AcDbEntity
  8
RACCORDO
100
AcDbLine
 62
253
  6
CONTINUOUS
 10
-7.6001664577
 20
-18.9090943254
 11
-7.7092633246
 21
-12.1997362057
  0
LINE
  5
2AB
100
AcDbEntity
  8
RACCORDO
100
AcDbLine
 62
253
  6
CONTINUOUS
 10
-8.8622827911
 20
23.6890129592
 11
-8.8564649613
 21
23.11166269
  0
LINE
  5
2AC
100
AcDbEntity
  8
RACCORDO
100
AcDbLine
 62
253
  6
CONTINUOUS
 10
-8.6115597932
 20
23.8333505265
 11
-8.6071879592
 21
23.3994981074
  0
LINE
  5
2AD
100
AcDbEntity
  8
RACCORDO
100
AcDbLine
 62
253
  6
CONTINUOUS
 10
-8.8615555624
 20
-23.6388182572
 11
-8.8615555624
 21
-24.5066152068
  0
LINE
  5
2AE
100
AcDbEntity
  8
RACCORDO
100
AcDbLine
 62
253
  6
CONTINUOUS
 10
-8.8615555624
 20
23.6890129592
 11
-8.8615555624
 21
24.4846411252
  0
LINE
  5
2AF
100
AcDbEntity
  8
RACCORDO
100
AcDbLine
 62
253
  6
CONTINUOUS
 10
-8.6115597932
 20
-24.2566194376
 11
-8.6115597932
 21
-23.8553246081
  0
LINE
  5
2B0
100
AcDbEntity
  8
RACCORDO
100
AcDbLine
 62
253
  6
CONTINUOUS
 10
-8.6115597932
 20
23.8333505265
 11
-8.6115597932
 21
24.234645356
  0
LINE
  5
2B1
100
AcDbEntity
  8
DRAFT
100
AcDbLine
 62
7
  6
CONTINUOUS
 10
-8.6071879592
 20
-21.4109870408
 11
-8.6071879592
 21
-20.9109870408
  0
LINE
  5
2B2
100
AcDbEntity
  8
RACCORDO
100
AcDbLine
 62
7
  6
CONTINUOUS
 10
-8.6071879592
 20
-22.4109870408
 11
-8.6071879592
 21
-24.2609912716
  0
LINE
  5
2B3
100
AcDbEntity
  8
DRAFT
100
AcDbLine
 62
7
  6
CONTINUOUS
 10
-8.6071879592
 20
20.8890129592
 11
-8.6071879592
 21
21.3890129592
  0
LINE
  5
2B4
100
AcDbEntity
  8
RACCORDO
100
AcDbLine
 62
7
  6
CONTINUOUS
 10
-8.6071879592
 20
22.3890129592
 11
-8.6071879592
 21
24.23901719
  0
LINE
  5
2B5
100
AcDbEntity
  8
RACCORDO
100
AcDbLine
 62
253
  6
CONTINUOUS
 10
-8.4412125259
 20
21.5549883924
 11
-8.4412125259
 21
20.8890129592
  0
LINE
  5
2B6
100
AcDbEntity
  8
RACCORDO
100
AcDbLine
 62
253
  6
CONTINUOUS
 10
-8.4412125259
 20
-20.9109870408
 11
-8.4412125259
 21
-21.5769624741
  0
LINE
  5
2B7
100
AcDbEntity
  8
RACCORDO
100
AcDbLine
 62
253
  6
CONTINUOUS
 10
-7.9412886783
 20
21.6982306871
 11
-7.9412886783
 21
20.8890129592
  0
LINE
  5
2B8
100
AcDbEntity
  8
RACCORDO
100
AcDbLine
 62
253
  6
CONTINUOUS
 10
-7.9412886783
 20
-20.9109870408
 11
-7.9412886783
 21
-21.7202047688
  0
LINE
  5
2B9
100
AcDbEntity
  8
RACCORDO
100
AcDbLine
 62
253
  6
CONTINUOUS
 10
-7.6001664577
 20
-20.9109870408
 11
-7.6001664577
 21
-18.9090943254
  0
LINE
  5
2BA
100
AcDbEntity
  8
RACCORDO
100
AcDbLine
 62
253
  6
CONTINUOUS
 10
-7.6001664577
 20
18.8871202438
 11
-7.6001664577
 21
20.8890129592
  0
LINE
  5
2BB
100
AcDbEntity
  8
RACCORDO
100
AcDbLine
 62
253
  6
CONTINUOUS
 10
-7.4001698424
 20
-20.9109870408
 11
-7.4001698424
 21
-18.9090943254
  0
LINE
  5
2BC
100
AcDbEntity
  8
RACCORDO
100
AcDbLine
 62
253
  6
CONTINUOUS
 10
-7.4001698424
 20
18.8871202438
 11
-7.4001698424
 21
20.8890129592
  0
LINE
  5
2BD
100
AcDbEntity
  8
RACCORDO
100
AcDbLine
 62
253
  6
CONTINUOUS
 10
-8.8564649613
 20
-23.1336367716
 11
-8.8615555624
 21
-23.6388182572
  0
LINE
  5
2BE
100
AcDbEntity
  8
RACCORDO
100
AcDbLine
 62
253
  6
CONTINUOUS
 10
-8.6071879592
 20
-23.421472189
 11
-8.6115597932
 21
-23.8553246081
  0
LINE
  5
2BF
100
AcDbEntity
  8
RACCORDO
100
AcDbLine
 62
253
  6
CONTINUOUS
 10
-7.7092633246
 20
12.1777621241
 11
-7.6001664577
 21
18.8871202438
  0
LWPOLYLINE
  5
2C0
100
AcDbEntity
  8
RACCORDO
100
AcDbPolyline
 62
7
  6
CONTINUOUS
 90
70
 70
0
 10
-7.7092633246
 20
-12.1997362057
 10
-7.7086504022
 20
-12.1718281826
 10
-7.7068233938
 20
-12.1440839682
 10
-7.7037822993
 20
-12.1165035631
 10
-7.6995042148
 20
-12.0889937433
 10
-7.6940120443
 20
-12.0616477341
 10
-7.6873744996
 20
-12.0347452114
 10
-7.6795756263
 20
-12.0083113053
 10
-7.6706313789
 20
-11.9823208894
 10
-7.660658333
 20
-11.9569782565
 10
-7.649680835
 20
-11.9323438147
 10
-7.6376745385
 20
-11.9083571608
 10
-7.6246829791
 20
-11.8850413714
 10
-7.6106833663
 20
-11.8623533977
 10
-7.5956984905
 20
-11.840336293
 10
-7.5798402593
 20
-11.8191422873
 10
-7.5630830988
 20
-11.7987668505
 10
-7.5454525829
 20
-11.7792145176
 10
-7.52713734
 20
-11.7606511166
 10
-7.5081412174
 20
-11.7431056267
 10
-7.4884603679
 20
-11.7265490737
 10
-7.4682718786
 20
-11.7110603561
 10
-7.4476341198
 20
-11.6966758417
 10
-7.4264887211
 20
-11.6833591672
 10
-7.4048376582
 20
-11.6710801334
 10
-7.3826293901
 20
-11.6598043929
 10
-7.3599154578
 20
-11.6495662966
 10
-7.3368524599
 20
-11.6404386918
 10
-7.3134236395
 20
-11.6324317555
 10
-7.2896457535
 20
-11.6255353135
 10
-7.2657256709
 20
-11.6197916861
 10
-7.2416789327
 20
-11.6152188681
 10
-7.217489998
 20
-11.6117988663
 10
-7.1933191127
 20
-11.6095200187
 10
-7.1692320721
 20
-11.6083783663
 10
-7.1451630809
 20
-11.6083778687
 10
-7.121074999
 20
-11.6095187411
 10
-7.0969013867
 20
-11.6117972486
 10
-7.0727086838
 20
-11.6152171256
 10
-7.048659069
 20
-11.6197897917
 10
-7.0247376566
 20
-11.6255332923
 10
-7.0009593324
 20
-11.6324295804
 10
-6.9775309328
 20
-11.6404359367
 10
-6.9544697177
 20
-11.6495621925
 10
-6.9317584273
 20
-11.6597985137
 10
-6.9095521189
 20
-11.6710726836
 10
-6.8879019409
 20
-11.6833503196
 10
-6.866756745
 20
-11.6966658008
 10
-6.8461181439
 20
-11.7110500527
 10
-6.8259269883
 20
-11.7265402136
 10
-6.8062424276
 20
-11.7430991406
 10
-6.7872435212
 20
-11.760646337
 10
-6.7689271962
 20
-11.7792103469
 10
-6.7512965255
 20
-11.7987626211
 10
-6.7345397884
 20
-11.8191370239
 10
-6.7186827856
 20
-11.8403284902
 10
-6.7036997163
 20
-11.8623420802
 10
-6.6897014566
 20
-11.885026847
 10
-6.676710519
 20
-11.9083396975
 10
-6.664704391
 20
-11.9323237204
 10
-6.6537264112
 20
-11.9569572418
 10
-6.6437518299
 20
-11.9823018632
 10
-6.6348053968
 20
-12.0082959782
 10
-6.6270047003
 20
-12.0347331016
 10
-6.6203661058
 20
-12.0616373585
 10
-6.6148732477
 20
-12.0889846202
 10
-6.6105946183
 20
-12.1164960227
 10
-6.6075530482
 20
-12.1440786111
 10
-6.6057257067
 20
-12.1718253391
 10
-6.6051125938
 20
-12.1997362057
  0
LWPOLYLINE
  5
2C1
100
AcDbEntity
  8
RACCORDO
100
AcDbPolyline
 62
253
  6
CONTINUOUS
 90
67
 70
0
 10
-6.914206076
 20
18.8871202438
 10
-6.914492575
 20
18.8746692459
 10
-6.9153335148
 20
18.8623053142
 10
-6.9167288955
 20
18.8500284489
 10
-6.9186853464
 20
18.8378093442
 10
-6.9211962381
 20
18.8256773059
 10
-6.9242416828
 20
18.8137202502
 10
-6.9278257905
 20
18.8019403452
 10
-6.9319444511
 20
18.7903354229
 10
-6.9365654462
 20
18.7789868963
 10
-6.9416923753
 20
18.7678973466
 10
-6.9473216389
 20
18.7570641926
 10
-6.9534102197
 20
18.7465611039
 10
-6.9599611263
 20
18.7363910375
 10
-6.9669713501
 20
18.7265510364
 10
-6.9743888478
 20
18.7171058983
 10
-6.9822160433
 20
18.708058894
 10
-6.9904505127
 20
18.6994067527
 10
-6.9990329412
 20
18.69120446
 10
-7.007965061
 20
18.6834555105
 10
-7.0172451399
 20
18.6761564097
 10
-7.0268086668
 20
18.6693516589
 10
-7.0366568326
 20
18.6630447182
 10
-7.0467884465
 20
18.6572321275
 10
-7.0571354249
 20
18.651948009
 10
-7.0676986331
 20
18.6471956949
 10
-7.0784772059
 20
18.6429718529
 10
-7.0894004644
 20
18.6393006077
 10
-7.1004688454
 20
18.6361852398
 10
-7.111681912
 20
18.6336224688
 10
-7.1229676753
 20
18.6316265777
 10
-7.1343263783
 20
18.6302007484
 10
-7.145757778
 20
18.6293417991
 10
-7.1571891563
 20
18.6290544673
 10
-7.168620502
 20
18.6293419141
 10
-7.1800518264
 20
18.6302009784
 10
-7.1914104453
 20
18.6316269149
 10
-7.2026961242
 20
18.6336229026
 10
-7.2139090976
 20
18.6361857625
 10
-7.2249773848
 20
18.6393012119
 10
-7.2359005516
 20
18.6429725315
 10
-7.2466790321
 20
18.6471964406
 10
-7.257242148
 20
18.651948815
 10
-7.2675890347
 20
18.6572329875
 10
-7.2777205568
 20
18.6630456251
 10
-7.2875686296
 20
18.6693526047
 10
-7.2971320608
 20
18.6761573849
 10
-7.3064120428
 20
18.683456507
 10
-7.315344068
 20
18.6912054715
 10
-7.3239264053
 20
18.6994077733
 10
-7.3321607859
 20
18.7080599175
 10
-7.3399878959
 20
18.7171069203
 10
-7.3474053119
 20
18.7265520534
 10
-7.3544154573
 20
18.7363920451
 10
-7.3609662886
 20
18.7465620957
 10
-7.367054797
 20
18.7570651615
 10
-7.3726839912
 20
18.7678982863
 10
-7.3778108536
 20
18.7789878017
 10
-7.3824317832
 20
18.7903362897
 10
-7.386550381
 20
18.8019411683
 10
-7.3901344332
 20
18.8137210233
 10
-7.393179832
 20
18.8256780347
 10
-7.3956906852
 20
18.8378100224
 10
-7.3976471019
 20
18.8500290326
 10
-7.3990424518
 20
18.8623057472
 10
-7.3998833653
 20
18.8746694843
 10
-7.4001698424
 20
18.8871202438
  0
LWPOLYLINE
  5
2C2
100
AcDbEntity
  8
RACCORDO
100
AcDbPolyline
 62
7
  6
CONTINUOUS
 90
34
 70
0
 10
-8.6071879592
 20
-24.2609912716
 10
-8.6074711094
 20
-24.2728865568
 10
-8.6083199249
 20
-24.2847548964
 10
-8.609732485
 20
-24.296569407
 10
-8.6117055915
 20
-24.3083033283
 10
-8.6142347775
 20
-24.3199300796
 10
-8.6173143175
 20
-24.3314233198
 10
-8.6209372378
 20
-24.3427570146
 10
-8.6250953334
 20
-24.3539054901
 10
-8.629779187
 20
-24.3648434871
 10
-8.6349781904
 20
-24.3755462284
 10
-8.6406805675
 20
-24.3859894691
 10
-8.6468734011
 20
-24.3961495467
 10
-8.6535426637
 20
-24.4060034459
 10
-8.6606732485
 20
-24.4155288447
 10
-8.6682490003
 20
-24.4247041599
 10
-8.6762527587
 20
-24.4335086069
 10
-8.6846663931
 20
-24.4419222413
 10
-8.6934708401
 20
-24.4499259997
 10
-8.7026461553
 20
-24.4575017515
 10
-8.7121715541
 20
-24.4646323363
 10
-8.7220254533
 20
-24.4713015989
 10
-8.7321855309
 20
-24.4774944325
 10
-8.7426287716
 20
-24.4831968096
 10
-8.7533315129
 20
-24.488395813
 10
-8.7642695099
 20
-24.4930796666
 10
-8.7754179854
 20
-24.4972377622
 10
-8.7867516802
 20
-24.5008606825
 10
-8.7982449204
 20
-24.5039402225
 10
-8.8098716717
 20
-24.5064694085
 10
-8.821605593
 20
-24.508442515
 10
-8.8334201036
 20
-24.5098550751
 10
-8.8452884432
 20
-24.5107038906
 10
-8.8571837284
 20
-24.5109870408
  0
LWPOLYLINE
  5
2C3
100
AcDbEntity
  8
RACCORDO
100
AcDbPolyline
 62
253
  6
CONTINUOUS
 90
31
 70
0
 10
-8.6115597932
 20
-24.2566194376
 10
-8.6119029822
 20
-24.2697057917
 10
-8.6129307252
 20
-24.2827562901
 10
-8.6146402083
 20
-24.2957351475
 10
-8.617026751
 20
-24.3086067871
 10
-8.6200838122
 20
-24.3213359011
 10
-8.6238030017
 20
-24.3338875485
 10
-8.6281741168
 20
-24.3462273046
 10
-8.6331851722
 20
-24.3583213418
 10
-8.6388224205
 20
-24.3701364875
 10
-8.6450703997
 20
-24.3816403433
 10
-8.6519119755
 20
-24.3928013692
 10
-8.6593283823
 20
-24.4035889596
 10
-8.6672992905
 20
-24.4139735488
 10
-8.675802832
 20
-24.4239266522
 10
-8.6848156512
 20
-24.4334209454
 10
-8.6943129856
 20
-24.4424303672
 10
-8.7042688228
 20
-24.4509302642
 10
-8.7146559486
 20
-24.4588974064
 10
-8.7254460278
 20
-24.4663100364
 10
-8.7366093462
 20
-24.4731477183
 10
-8.7481149467
 20
-24.4793915199
 10
-8.7599310249
 20
-24.4850242685
 10
-8.772025381
 20
-24.4900306984
 10
-8.784365185
 20
-24.4943972495
 10
-8.7969193695
 20
-24.4981126892
 10
-8.8096508347
 20
-24.5011658026
 10
-8.8225165535
 20
-24.5035469328
 10
-8.8354783281
 20
-24.505250537
 10
-8.8485032224
 20
-24.5062737996
 10
-8.8615555624
 20
-24.5066152068
  0
LINE
  5
2C4
100
AcDbEntity
  8
RACCORDO
100
AcDbLine
 62
7
  6
CONTINUOUS
 10
6.1108828595
 20
20.5637686228
 11
6.1353499944
 21
20.5943381626
  0
LWPOLYLINE
  5
2C5
100
AcDbEntity
  8
RACCORDO
100
AcDbPolyline
 62
7
  6
CONTINUOUS
 90
3
 70
0
 10
6.1353499944
 20
20.5943381626
 10
6.1611818281
 20
20.6262656592
 10
6.1998301576
 20
20.6736750003
  0
LINE
  5
2C6
100
AcDbEntity
  8
0
100
AcDbLine
 62
7
  6
CONTINUOUS
 10
2.2270380408
 20
16.1460949592
 11
1.2829030408
 21
15.0257339592
  0
LINE
  5
2C7
100
AcDbEntity
  8
0
100
AcDbLine
 62
7
  6
CONTINUOUS
 10
3.1215354238
 20
12.6515127875
 11
3.0449396882
 21
12.5840127875
  0
LINE
  5
2C8
100
AcDbEntity
  8
0
100
AcDbLine
 62
7
  6
CONTINUOUS
 10
3.7598333273
 20
12.6065129592
 11
3.6577056441
 21
12.5390129592
  0
LINE
  5
2C9
100
AcDbEntity
  8
0
100
AcDbLine
 62
7
  6
CONTINUOUS
 10
3.9385567281
 20
12.0890131308
 11
3.8364290629
 21
12.0215131308
  0
LINE
  5
2CA
100
AcDbEntity
  8
0
100
AcDbLine
 62
7
  6
CONTINUOUS
 10
3.3768546138
 20
12.0890131308
 11
3.3002588782
 21
12.0440127875
  0
LINE
  5
2CB
100
AcDbEntity
  8
0
100
AcDbLine
 62
7
  6
CONTINUOUS
 10
3.2236630712
 20
10.5140129592
 11
3.1470673356
 21
10.4690131308
  0
LINE
  5
2CC
100
AcDbEntity
  8
0
100
AcDbLine
 62
7
  6
CONTINUOUS
 10
3.7087695036
 20
9.6590128734
 11
3.5811099086
 21
9.614013045
  0
LINE
  5
2CD
100
AcDbEntity
  8
0
100
AcDbLine
 62
7
  6
CONTINUOUS
 10
3.7343014155
 20
9.546513045
 11
3.6577056441
 21
9.5240128734
  0
LINE
  5
2CE
100
AcDbEntity
  8
0
100
AcDbLine
 62
7
  6
CONTINUOUS
 10
3.3002588782
 20
8.6465128734
 11
3.2236630712
 21
8.6240129592
  0
LINE
  5
2CF
100
AcDbEntity
  8
0
100
AcDbLine
 62
7
  6
CONTINUOUS
 10
0.96677079
 20
-7.7749648387
 11
0.8667705386
 21
-7.8019369066
  0
LINE
  5
2D0
100
AcDbEntity
  8
0
100
AcDbLine
 62
7
  6
CONTINUOUS
 10
1.3667698633
 20
-7.4669370887
 11
0.303749026
 21
-7.7536630448
  0
LINE
  5
2D1
100
AcDbEntity
  8
0
100
AcDbLine
 62
7
  6
CONTINUOUS
 10
-3.3572019592
 20
-8.3157490408
 11
-6.1573279592
 21
-8.3157490408
  0
LINE
  5
2D2
100
AcDbEntity
  8
0
100
AcDbLine
 62
7
  6
CONTINUOUS
 10
-4.9579129592
 20
-7.7634420408
 11
-5.6393069592
 21
-7.7634490408
  0
LINE
  5
2D3
100
AcDbEntity
  8
0
100
AcDbLine
 62
7
  6
CONTINUOUS
 10
1.7678120408
 20
-7.1109870408
 11
1.4801108732
 21
-7.1109870408
  0
LINE
  5
2D4
100
AcDbEntity
  8
0
100
AcDbLine
 62
7
  6
CONTINUOUS
 10
0.2074020408
 20
-7.1109870408
 11
0.0678120408
 21
-7.1109870408
  0
LINE
  5
2D5
100
AcDbEntity
  8
0
100
AcDbLine
 62
7
  6
CONTINUOUS
 10
0.9828120408
 20
-7.0940530408
 11
0.8828119051
 21
-7.0940530408
  0
LINE
  5
2D6
100
AcDbEntity
  8
0
100
AcDbLine
 62
7
  6
CONTINUOUS
 10
7.8428120408
 20
-6.9693020408
 11
6.4428120408
 21
-6.9693020408
  0
LINE
  5
2D7
100
AcDbEntity
  8
0
100
AcDbLine
 62
7
  6
CONTINUOUS
 10
-3.3572019592
 20
-7.7557210408
 11
-4.4398919592
 21
-7.7556580408
  0
LINE
  5
2D8
100
AcDbEntity
  8
0
100
AcDbLine
 62
7
  6
CONTINUOUS
 10
0.303749026
 20
-8.0433110368
 11
1.3667698633
 21
-8.3300369929
  0
LINE
  5
2D9
100
AcDbEntity
  8
0
100
AcDbLine
 62
7
  6
CONTINUOUS
 10
0.8667705386
 20
-7.9950371751
 11
0.96677079
 21
-8.0220092429
  0
LINE
  5
2DA
100
AcDbEntity
  8
RACCORDO
100
AcDbLine
 62
7
  6
CONTINUOUS
 10
6.1998301576
 20
-20.6956490819
 11
6.1482220776
 21
-20.6322877652
  0
LWPOLYLINE
  5
2DB
100
AcDbEntity
  8
RACCORDO
100
AcDbPolyline
 62
7
  6
CONTINUOUS
 90
23
 70
0
 10
6.1482220776
 20
-20.6322877652
 10
6.1229058424
 20
-20.6008103949
 10
6.1109150583
 20
-20.5857832056
 10
6.0994070102
 20
-20.5711877655
 10
6.0885415043
 20
-20.5572664959
 10
6.0783754074
 20
-20.5440957626
 10
6.0688785463
 20
-20.5315991998
 10
6.0600571096
 20
-20.5197901318
 10
6.0519239758
 20
-20.5086960082
 10
6.0444603687
 20
-20.4982893794
 10
6.037624768
 20
-20.4885012201
 10
6.0314153762
 20
-20.4793363082
 10
6.0258190711
 20
-20.4707898658
 10
6.0207902159
 20
-20.4627785337
 10
6.0163164654
 20
-20.4552857879
 10
6.0124030734
 20
-20.4483281523
 10
6.0090394787
 20
-20.4418718397
 10
6.0062169015
 20
-20.4359194297
 10
6.0039262747
 20
-20.4304683427
 10
6.002155778
 20
-20.4254770529
 10
6.0008928047
 20
-20.4209317185
 10
6.0001237095
 20
-20.4168461814
 10
5.9998335423
 20
-20.4132204415
  0
LINE
  5
2DC
100
AcDbEntity
  8
RACCORDO
100
AcDbLine
 62
253
  6
CONTINUOUS
 10
-6.6051125938
 20
12.1777621241
 11
-6.7142094606
 21
18.8871269986
  0
LINE
  5
2DD
100
AcDbEntity
  8
RACCORDO
100
AcDbLine
 62
253
  6
CONTINUOUS
 10
-6.914206076
 20
20.6736750003
 11
-6.914206076
 21
18.8871202438
  0
LINE
  5
2DE
100
AcDbEntity
  8
RACCORDO
100
AcDbLine
 62
253
  6
CONTINUOUS
 10
-6.914206076
 20
-18.9090943254
 11
-6.914206076
 21
-20.6956490819
  0
LINE
  5
2DF
100
AcDbEntity
  8
RACCORDO
100
AcDbLine
 62
253
  6
CONTINUOUS
 10
-6.7142094606
 20
20.3912463599
 11
-6.7142094606
 21
18.8871269986
  0
LINE
  5
2E0
100
AcDbEntity
  8
RACCORDO
100
AcDbLine
 62
253
  6
CONTINUOUS
 10
-6.7142094606
 20
-18.9091010822
 11
-6.7142094606
 21
-20.4132204415
  0
LINE
  5
2E1
100
AcDbEntity
  8
0
100
AcDbLine
 62
7
  6
CONTINUOUS
 10
-6.1573279592
 20
-7.0064408866
 11
-6.1573279592
 21
-8.3157490408
  0
LINE
  5
2E2
100
AcDbEntity
  8
0
100
AcDbLine
 62
7
  6
CONTINUOUS
 10
-6.1573279592
 20
-9.5881250408
 11
-6.1573279592
 21
-10.1481740408
  0
LINE
  5
2E3
100
AcDbEntity
  8
0
100
AcDbLine
 62
7
  6
CONTINUOUS
 10
-6.1573209592
 20
-11.4205360408
 11
-6.1573209592
 21
-12.2671370408
  0
LINE
  5
2E4
100
AcDbEntity
  8
0
100
AcDbLine
 62
7
  6
CONTINUOUS
 10
-6.1573209592
 20
-13.3129230408
 11
-6.1573209592
 21
-14.1595240408
  0
LINE
  5
2E5
100
AcDbEntity
  8
0
100
AcDbLine
 62
7
  6
CONTINUOUS
 10
-6.1573209592
 20
-14.7195240408
 11
-6.1573209592
 21
-15.2795450408
  0
LINE
  5
2E6
100
AcDbEntity
  8
0
100
AcDbLine
 62
7
  6
CONTINUOUS
 10
-6.1573209592
 20
-15.6528900408
 11
-6.1573209592
 21
-16.2129180408
  0
LINE
  5
2E7
100
AcDbEntity
  8
0
100
AcDbLine
 62
7
  6
CONTINUOUS
 10
-6.1573209592
 20
-17.4509590408
 11
-6.1573209592
 21
-18.0109870408
  0
LINE
  5
2E8
100
AcDbEntity
  8
0
100
AcDbLine
 62
7
  6
CONTINUOUS
 10
-6.1571889592
 20
17.0157089592
 11
-6.1571889592
 21
16.3021419592
  0
LINE
  5
2E9
100
AcDbEntity
  8
0
100
AcDbLine
 62
7
  6
CONTINUOUS
 10
-6.1571889592
 20
15.0067219592
 11
-6.1571889592
 21
14.4443609592
  0
LINE
  5
2EA
100
AcDbEntity
  8
0
100
AcDbLine
 62
7
  6
CONTINUOUS
 10
-6.1571889592
 20
13.3701129592
 11
-6.1571889592
 21
12.4781539592
  0
LINE
  5
2EB
100
AcDbEntity
  8
0
100
AcDbLine
 62
7
  6
CONTINUOUS
 10
-6.1571889592
 20
11.1984339592
 11
-6.1571889592
 21
10.4848669592
  0
LINE
  5
2EC
100
AcDbEntity
  8
0
100
AcDbLine
 62
7
  6
CONTINUOUS
 10
-6.1571889592
 20
8.1346919592
 11
-6.1571889592
 21
7.5335549592
  0
LINE
  5
2ED
100
AcDbEntity
  8
0
100
AcDbLine
 62
7
  6
CONTINUOUS
 10
-6.1571889592
 20
6.0052208332
 11
-6.1571889592
 21
5.1483969592
  0
LINE
  5
2EE
100
AcDbEntity
  8
0
100
AcDbLine
 62
7
  6
CONTINUOUS
 10
-5.6918739592
 20
6.1002268559
 11
-5.6918739592
 21
5.7495329592
  0
LINE
  5
2EF
100
AcDbEntity
  8
0
100
AcDbLine
 62
7
  6
CONTINUOUS
 10
-5.6393069592
 20
-7.0820990408
 11
-5.6393069592
 21
-7.7634490408
  0
LINE
  5
2F0
100
AcDbEntity
  8
RACCORDO
100
AcDbLine
 62
253
  6
CONTINUOUS
 10
-6.7142094606
 20
-18.9091010822
 11
-6.6051125938
 21
-12.1997362057
  0
LWPOLYLINE
  5
2F1
100
AcDbEntity
  8
RACCORDO
100
AcDbPolyline
 62
7
  6
CONTINUOUS
 90
70
 70
0
 10
-6.6051125938
 20
12.1777621241
 10
-6.6057256848
 20
12.1498515168
 10
-6.6075529985
 20
12.1221049987
 10
-6.6105945349
 20
12.0945225706
 10
-6.6148731429
 20
12.0670112195
 10
-6.6203659736
 20
12.0396639597
 10
-6.6270044799
 20
12.0127598335
 10
-6.6348049709
 20
11.9863231314
 10
-6.6437511375
 20
11.9603295666
 10
-6.6537255048
 20
11.9349853184
 10
-6.6647033543
 20
11.9103518615
 10
-6.6767094046
 20
11.8863677261
 10
-6.6897003362
 20
11.863054676
 10
-6.7036986988
 20
11.8403696016
 10
-6.7186819426
 20
11.8183556169
 10
-6.734539099
 20
11.7971638209
 10
-6.7512959523
 20
11.7767892042
 10
-6.7689267182
 20
11.7572367811
 10
-6.7872430749
 20
11.7386726869
 10
-6.8062419007
 20
11.7211255034
 10
-6.8259263173
 20
11.7045666541
 10
-6.8461173683
 20
11.6890765376
 10
-6.866755925
 20
11.6746922621
 10
-6.8879011161
 20
11.6613767241
 10
-6.9095513701
 20
11.6490990045
 10
-6.9317578747
 20
11.6378247088
 10
-6.9544694423
 20
11.627588235
 10
-6.9775309389
 20
11.6184618529
 10
-7.0009596068
 20
11.6104554136
 10
-7.0247382037
 20
11.6035590688
 10
-7.0486598692
 20
11.5978155383
 10
-7.072709715
 20
11.5932428728
 10
-7.0969026294
 20
11.5898230234
 10
-7.1210764168
 20
11.5875445599
 10
-7.1451646116
 20
11.5864037447
 10
-7.1692336793
 20
11.5864043159
 10
-7.1933208215
 20
11.5875460571
 10
-7.2174918542
 20
11.5898250043
 10
-7.2416809612
 20
11.593245121
 10
-7.2657278955
 20
11.5978180822
 10
-7.2896482089
 20
11.603561886
 10
-7.3134263495
 20
11.6104585326
 10
-7.336855415
 20
11.6184656995
 10
-7.3599186703
 20
11.6275935834
 10
-7.3826328505
 20
11.637831985
 10
-7.4048412577
 20
11.6491079867
 10
-7.4264923057
 20
11.6613872233
 10
-7.4476375808
 20
11.6747040566
 10
-7.4682751442
 20
11.6890886602
 10
-7.4884633226
 20
11.7045773385
 10
-7.5081437893
 20
11.7211337824
 10
-7.5271396252
 20
11.7386792447
 10
-7.5454547447
 20
11.7572427345
 10
-7.5630852335
 20
11.7767952376
 10
-7.5798424298
 20
11.7971709723
 10
-7.5957007913
 20
11.8183654703
 10
-7.6106858603
 20
11.840383195
 10
-7.6246856024
 20
11.8630717633
 10
-7.637677203
 20
11.8863881596
 10
-7.6496834767
 20
11.9103753949
 10
-7.6606608325
 20
11.9350101268
 10
-7.6706335471
 20
11.9603525888
 10
-7.6795773439
 20
11.9863425423
 10
-7.6873758023
 20
12.0127759371
 10
-7.6940130146
 20
12.0396780248
 10
-7.6995048885
 20
12.06702355
 10
-7.7037827263
 20
12.0945327039
 10
-7.7068236286
 20
12.1221122168
 10
-7.7086504947
 20
12.1498553571
 10
-7.7092633246
 20
12.1777621241
  0
LWPOLYLINE
  5
2F2
100
AcDbEntity
  8
RACCORDO
100
AcDbPolyline
 62
253
  6
CONTINUOUS
 90
67
 70
0
 10
-7.4001698424
 20
-18.9090943254
 10
-7.3998833653
 20
-18.8966435657
 10
-7.3990424518
 20
-18.8842798286
 10
-7.3976471018
 20
-18.8720031139
 10
-7.3956906851
 20
-18.8597841037
 10
-7.3931798319
 20
-18.847652116
 10
-7.3901344331
 20
-18.8356951046
 10
-7.3865503809
 20
-18.8239152496
 10
-7.3824317831
 20
-18.812310371
 10
-7.3778108535
 20
-18.800961883
 10
-7.372683991
 20
-18.7898723676
 10
-7.3670547968
 20
-18.7790392428
 10
-7.3609662884
 20
-18.768536177
 10
-7.3544154571
 20
-18.7583661264
 10
-7.3474053117
 20
-18.7485261348
 10
-7.3399878957
 20
-18.7390810017
 10
-7.3321607856
 20
-18.7300339989
 10
-7.3239264051
 20
-18.7213818547
 10
-7.3153440678
 20
-18.713179553
 10
-7.3064120425
 20
-18.7054305884
 10
-7.2971320606
 20
-18.6981314664
 10
-7.2875686294
 20
-18.6913266862
 10
-7.2777205566
 20
-18.6850197066
 10
-7.2675890345
 20
-18.679207069
 10
-7.2572421477
 20
-18.6739228965
 10
-7.2466790318
 20
-18.6691705221
 10
-7.2359005513
 20
-18.664946613
 10
-7.2249773845
 20
-18.6612752934
 10
-7.2139090974
 20
-18.658159844
 10
-7.2026961239
 20
-18.6555969842
 10
-7.191410445
 20
-18.6536009965
 10
-7.1800518261
 20
-18.65217506
 10
-7.1686205018
 20
-18.6513159957
 10
-7.1571891561
 20
-18.651028549
 10
-7.1457577777
 20
-18.6513158807
 10
-7.134326378
 20
-18.6521748301
 10
-7.122967675
 20
-18.6536006594
 10
-7.1116819117
 20
-18.6555965505
 10
-7.1004688451
 20
-18.6581593215
 10
-7.0894004642
 20
-18.6612746894
 10
-7.0784772057
 20
-18.6649459346
 10
-7.0676986329
 20
-18.6691697766
 10
-7.0571354247
 20
-18.6739220907
 10
-7.0467884462
 20
-18.6792062093
 10
-7.0366568324
 20
-18.6850188
 10
-7.0268086666
 20
-18.6913257407
 10
-7.0172451397
 20
-18.6981304915
 10
-7.0079650608
 20
-18.7054295924
 10
-6.999032941
 20
-18.7131785418
 10
-6.9904505125
 20
-18.7213808345
 10
-6.9822160431
 20
-18.7300329758
 10
-6.9743888477
 20
-18.7390799801
 10
-6.9669713499
 20
-18.7485251182
 10
-6.9599611262
 20
-18.7583651194
 10
-6.9534102196
 20
-18.7685351857
 10
-6.9473216388
 20
-18.7790382745
 10
-6.9416923752
 20
-18.7898714285
 10
-6.9365654461
 20
-18.8009609782
 10
-6.931944451
 20
-18.8123095048
 10
-6.9278257904
 20
-18.8239144271
 10
-6.9242416827
 20
-18.8356943322
 10
-6.9211962381
 20
-18.8476513878
 10
-6.9186853463
 20
-18.8597834262
 10
-6.9167288954
 20
-18.8720025308
 10
-6.9153335147
 20
-18.8842793961
 10
-6.9144925749
 20
-18.8966433276
 10
-6.914206076
 20
-18.9090943254
  0
LWPOLYLINE
  5
2F3
100
AcDbEntity
  8
RACCORDO
100
AcDbPolyline
 62
253
  6
CONTINUOUS
 90
67
 70
0
 10
-6.714209455
 20
18.8871266511
 10
-6.7147404664
 20
18.8656548296
 10
-6.7162947995
 20
18.8442468502
 10
-6.7188678176
 20
18.822948919
 10
-6.7224527836
 20
18.8018022676
 10
-6.727040286
 20
18.7808570591
 10
-6.7326175345
 20
18.7601721571
 10
-6.7391700831
 20
18.7397916508
 10
-6.7466811471
 20
18.7197590042
 10
-6.7551297404
 20
18.700130621
 10
-6.7644938194
 20
18.6809486955
 10
-6.774749956
 20
18.6622523306
 10
-6.7858709544
 20
18.6440911886
 10
-6.7978286185
 20
18.6265033426
 10
-6.810593497
 20
18.6095240272
 10
-6.824133264
 20
18.5931962455
 10
-6.8384143871
 20
18.5775535125
 10
-6.8534024613
 20
18.5626262521
 10
-6.8690613747
 20
18.5484502818
 10
-6.8853531016
 20
18.5350541317
 10
-6.9022394114
 20
18.5224628957
 10
-6.9196821699
 20
18.5107047709
 10
-6.9376400825
 20
18.4998028783
 10
-6.9560719033
 20
18.4897770232
 10
-6.9749385314
 20
18.4806482421
 10
-6.9941965291
 20
18.4724341059
 10
-7.013802293
 20
18.4651492069
 10
-7.0337158866
 20
18.4588081875
 10
-7.0538921392
 20
18.4534231912
 10
-7.0742861356
 20
18.4490033867
 10
-7.0948580273
 20
18.4455572714
 10
-7.1155619067
 20
18.4430915692
 10
-7.1363518895
 20
18.4416101935
 10
-7.1571880529
 20
18.4411159429
 10
-7.1780242267
 20
18.4416102078
 10
-7.1988142335
 20
18.4430915999
 10
-7.2195181391
 20
18.4455573206
 10
-7.2400900558
 20
18.4490034562
 10
-7.2604840791
 20
18.4534232835
 10
-7.2806603592
 20
18.4588083051
 10
-7.3005739809
 20
18.4651493527
 10
-7.3201797732
 20
18.4724342828
 10
-7.3394377973
 20
18.4806484527
 10
-7.358304451
 20
18.4897772707
 10
-7.3767362952
 20
18.4998031651
 10
-7.3946942238
 20
18.5107050965
 10
-7.4121369884
 20
18.5224632569
 10
-7.4290232976
 20
18.5350545263
 10
-7.4453150215
 20
18.5484507102
 10
-7.46097393
 20
18.5626267156
 10
-7.4759619968
 20
18.5775540111
 10
-7.4902431107
 20
18.5931967805
 10
-7.5037828681
 20
18.6095246014
 10
-7.5165477348
 20
18.6265039573
 10
-7.528505381
 20
18.6440918395
 10
-7.5396263537
 20
18.6622530101
 10
-7.5498824603
 20
18.6809493981
 10
-7.5592465081
 20
18.7001313448
 10
-7.5676950727
 20
18.7197597544
 10
-7.575206106
 20
18.7397924256
 10
-7.5817586154
 20
18.7601729364
 10
-7.5873358762
 20
18.7808580577
 10
-7.5919233665
 20
18.8018034685
 10
-7.5955081926
 20
18.8229495638
 10
-7.5980810277
 20
18.8442459189
 10
-7.5996352917
 20
18.865651545
 10
-7.6001664577
 20
18.8871202438
  0
LWPOLYLINE
  5
2F4
100
AcDbEntity
  8
RACCORDO
100
AcDbPolyline
 62
253
  6
CONTINUOUS
 90
67
 70
0
 10
-7.6001664577
 20
-18.9090943254
 10
-7.5996352917
 20
-18.8876256269
 10
-7.5980810278
 20
-18.8662200009
 10
-7.5955081927
 20
-18.8449236457
 10
-7.5919233665
 20
-18.8237775501
 10
-7.5873358761
 20
-18.8028321389
 10
-7.5817586152
 20
-18.7821470172
 10
-7.5752061058
 20
-18.7617665065
 10
-7.5676950725
 20
-18.7417338354
 10
-7.5592465079
 20
-18.7221054259
 10
-7.5498824601
 20
-18.7029234793
 10
-7.5396263534
 20
-18.6842270913
 10
-7.5285053806
 20
-18.6660659207
 10
-7.5165477345
 20
-18.6484780384
 10
-7.5037828678
 20
-18.6314986826
 10
-7.4902431103
 20
-18.6151708617
 10
-7.4759619964
 20
-18.5995280924
 10
-7.4609739296
 20
-18.5846007968
 10
-7.4453150211
 20
-18.5704247915
 10
-7.4290232972
 20
-18.5570286076
 10
-7.4121369879
 20
-18.5444373382
 10
-7.3946942234
 20
-18.5326791779
 10
-7.3767362947
 20
-18.5217772464
 10
-7.3583044505
 20
-18.5117513521
 10
-7.3394377968
 20
-18.5026225341
 10
-7.3201797727
 20
-18.4944083643
 10
-7.3005739804
 20
-18.4871234341
 10
-7.2806603587
 20
-18.4807823866
 10
-7.2604840786
 20
-18.475397365
 10
-7.2400900553
 20
-18.4709775377
 10
-7.2195181385
 20
-18.4675314021
 10
-7.198814233
 20
-18.4650656815
 10
-7.1780242262
 20
-18.4635842894
 10
-7.1571880524
 20
-18.4630900245
 10
-7.136351889
 20
-18.4635842752
 10
-7.1155619062
 20
-18.4650656509
 10
-7.0948580268
 20
-18.4675313531
 10
-7.0742861351
 20
-18.4709774685
 10
-7.0538921387
 20
-18.475397273
 10
-7.0337158861
 20
-18.4807822693
 10
-7.0138022925
 20
-18.4871232887
 10
-6.9941965286
 20
-18.4944081877
 10
-6.974938531
 20
-18.5026223239
 10
-6.9560719029
 20
-18.5117511051
 10
-6.9376400821
 20
-18.5217769602
 10
-6.9196821694
 20
-18.5326788528
 10
-6.902239411
 20
-18.5444369776
 10
-6.8853531012
 20
-18.5570282137
 10
-6.8690613743
 20
-18.5704243638
 10
-6.853402461
 20
-18.5846003341
 10
-6.8384143867
 20
-18.5995275945
 10
-6.8241332637
 20
-18.6151703275
 10
-6.8105934967
 20
-18.6314981092
 10
-6.7978286182
 20
-18.6484774246
 10
-6.7858709541
 20
-18.6660652706
 10
-6.7747499558
 20
-18.6842264127
 10
-6.7644938192
 20
-18.7029227775
 10
-6.7551297402
 20
-18.722104703
 10
-6.7466811469
 20
-18.7417330863
 10
-6.7391700829
 20
-18.7617657331
 10
-6.7326175344
 20
-18.7821462394
 10
-6.7270402859
 20
-18.802831141
 10
-6.7224527836
 20
-18.823776349
 10
-6.7188678176
 20
-18.8449230003
 10
-6.7162947995
 20
-18.8662209318
 10
-6.7147404664
 20
-18.887628912
 10
-6.714209455
 20
-18.9091007346
  0
LINE
  5
2F5
100
AcDbEntity
  8
0
100
AcDbLine
 62
7
  6
CONTINUOUS
 10
-6.1571889592
 20
6.0052208332
 11
-6.1549915004
 21
6.0636112205
  0
LINE
  5
2F6
100
AcDbEntity
  8
0
100
AcDbLine
 62
7
  6
CONTINUOUS
 10
-6.1549915004
 20
6.0636112205
 11
-6.1512509825
 21
6.1504136621
  0
LWPOLYLINE
  5
2F7
100
AcDbEntity
  8
0
100
AcDbPolyline
 62
7
  6
CONTINUOUS
 90
3
 70
0
 10
-6.1512509825
 20
6.1504136621
 10
-6.1482854159
 20
6.208105574
 10
-6.1466246934
 20
6.2369701127
  0
LWPOLYLINE
  5
2F8
100
AcDbEntity
  8
0
100
AcDbPolyline
 62
7
  6
CONTINUOUS
 90
49
 70
0
 10
-6.1466246934
 20
6.2369701127
 10
-6.1428160967
 20
6.295040183
 10
-6.1406682225
 20
6.3242457139
 10
-6.1380367721
 20
6.3535685588
 10
-6.1349877528
 20
6.3830849875
 10
-6.1314551575
 20
6.4127187293
 10
-6.1269451153
 20
6.4422536231
 10
-6.121228656
 20
6.471673834
 10
-6.1145347499
 20
6.500995197
 10
-6.1070564374
 20
6.5300490568
 10
-6.0987219988
 20
6.5588352616
 10
-6.0896031539
 20
6.5873539642
 10
-6.0801081019
 20
6.6154369665
 10
-6.0704051645
 20
6.6430363138
 10
-6.0603260201
 20
6.6701999628
 10
-6.0497739027
 20
6.6969035824
 10
-6.0388439511
 20
6.7231309194
 10
-6.0274410266
 20
6.748898229
 10
-6.0151829474
 20
6.7742299428
 10
-6.0020060246
 20
6.7991897382
 10
-5.9879739471
 20
6.8237139394
 10
-5.9728955991
 20
6.8476359485
 10
-5.956651257
 20
6.8709889105
 10
-5.9393606444
 20
6.8937396826
 10
-5.9211918161
 20
6.9156222363
 10
-5.9021615811
 20
6.9365907842
 10
-5.8822531303
 20
6.9566911168
 10
-5.8615840919
 20
6.9757945735
 10
-5.8401307665
 20
6.9938763297
 10
-5.8179168534
 20
7.010961213
 10
-5.7951310783
 20
7.0269950409
 10
-5.7718416949
 20
7.0419189036
 10
-5.7479804495
 20
7.0557917136
 10
-5.7235313064
 20
7.0687360215
 10
-5.698524102
 20
7.0807762339
 10
-5.6729289999
 20
7.0918879461
 10
-5.6466404547
 20
7.1021204918
 10
-5.6195838188
 20
7.1114993507
 10
-5.5918337397
 20
7.1199990445
 10
-5.5635086145
 20
7.1275924698
 10
-5.5345231525
 20
7.1342548476
 10
-5.5049626443
 20
7.140010958
 10
-5.4752013597
 20
7.1449080367
 10
-5.4452474317
 20
7.1489233721
 10
-5.4150927272
 20
7.1520796764
 10
-5.3850871162
 20
7.1544923204
 10
-5.3553472221
 20
7.1561997612
 10
-5.3257564216
 20
7.1571635421
 10
-5.2963147145
 20
7.157383663
  0
LWPOLYLINE
  5
2F9
100
AcDbEntity
  8
ASSI
100
AcDbPolyline
 62
7
  6
CONTINUOUS
 90
17
 70
0
 10
-3.8571879592
 20
23.7401552495
 10
-3.8575202491
 20
23.7374368704
 10
-3.8585291659
 20
23.7340550392
 10
-3.8602320657
 20
23.730009756
 10
-3.8626464156
 20
23.7253137817
 10
-3.8657868397
 20
23.7199543553
 10
-3.8696621242
 20
23.7138931939
 10
-3.8742811012
 20
23.7071250599
 10
-3.8796531926
 20
23.699655191
 10
-3.8857822575
 20
23.6914610167
 10
-3.8926569544
 20
23.6825631243
 10
-3.9002927028
 20
23.6729409265
 10
-3.9087426917
 20
23.662510091
 10
-3.9180260692
 20
23.6512678591
 10
-3.9281458535
 20
23.6392169895
 10
-3.9391477811
 20
23.6262814257
 10
-3.9510436769
 20
23.6124602433
  0
LINE
  5
2FA
100
AcDbEntity
  8
0
100
AcDbLine
 62
7
  6
CONTINUOUS
 10
-5.6836032991
 20
6.1682727051
 11
-5.6918739592
 21
6.1002268559
  0
LWPOLYLINE
  5
2FB
100
AcDbEntity
  8
0
100
AcDbPolyline
 62
7
  6
CONTINUOUS
 90
12
 70
0
 10
-0.1638724714
 20
11.1706178757
 10
-0.1678509498
 20
11.1639418285
 10
-0.171593645
 20
11.1571472332
 10
-0.1751005572
 20
11.1502340899
 10
-0.1783475098
 20
11.1431766368
 10
-0.1813586794
 20
11.1360006354
 10
-0.1842065951
 20
11.1287833705
 10
-0.1868870619
 20
11.121539096
 10
-0.1894042749
 20
11.114253558
 10
-0.1918433492
 20
11.1069612801
 10
-0.1942112536
 20
11.0996874826
 10
-0.1987768551
 20
11.0850785306
  0
LINE
  5
2FC
100
AcDbEntity
  8
RACCORDO
100
AcDbLine
 62
7
  6
CONTINUOUS
 10
5.9992602208
 20
20.3736864234
 11
5.8950271917
 21
20.2173346747
  0
LINE
  5
2FD
100
AcDbEntity
  8
0
100
AcDbLine
 62
7
  6
CONTINUOUS
 10
3.1725992475
 20
12.5390129592
 11
3.0960035119
 21
12.4490127875
  0
LINE
  5
2FE
100
AcDbEntity
  8
0
100
AcDbLine
 62
7
  6
CONTINUOUS
 10
3.6321737323
 20
12.6740129592
 11
3.5555779967
 21
12.5840127875
  0
LINE
  5
2FF
100
AcDbEntity
  8
0
100
AcDbLine
 62
7
  6
CONTINUOUS
 10
3.504514173
 20
12.0440127875
 11
3.4279184375
 21
11.9765127875
  0
LINE
  5
300
100
AcDbEntity
  8
0
100
AcDbLine
 62
7
  6
CONTINUOUS
 10
4.0406843845
 20
12.0215131308
 11
3.96408864
 21
11.9540131308
  0
LINE
  5
301
100
AcDbEntity
  8
0
100
AcDbLine
 62
7
  6
CONTINUOUS
 10
3.1215354238
 20
10.6265127875
 11
3.0194077764
 21
10.5365131308
  0
LINE
  5
302
100
AcDbEntity
  8
0
100
AcDbLine
 62
7
  6
CONTINUOUS
 10
3.5811099086
 20
9.614013045
 11
3.4789822612
 21
9.546513045
  0
LINE
  5
303
100
AcDbEntity
  8
0
100
AcDbLine
 62
7
  6
CONTINUOUS
 10
3.6577056441
 20
9.5240128734
 11
3.5811099086
 21
9.479013045
  0
LINE
  5
304
100
AcDbEntity
  8
0
100
AcDbLine
 62
7
  6
CONTINUOUS
 10
3.3002588782
 20
8.534013045
 11
3.1470673356
 21
8.4440128734
  0
LINE
  5
305
100
AcDbEntity
  8
0
100
AcDbLine
 62
7
  6
CONTINUOUS
 10
3.9385567281
 20
9.0290129592
 11
3.8364290629
 21
8.9840128734
  0
LINE
  5
306
100
AcDbEntity
  8
0
100
AcDbLine
 62
7
  6
CONTINUOUS
 10
3.2236630712
 20
8.6240129592
 11
3.1215354238
 21
8.5790128734
  0
LINE
  5
307
100
AcDbEntity
  8
0
100
AcDbLine
 62
7
  6
CONTINUOUS
 10
3.9385567281
 20
8.8940129592
 11
3.8364290629
 21
8.8490128734
  0
LINE
  5
308
100
AcDbEntity
  8
0
100
AcDbLine
 62
7
  6
CONTINUOUS
 10
3.2236630712
 20
7.6340130021
 11
3.1215354238
 21
7.5890129163
  0
LINE
  5
309
100
AcDbEntity
  8
0
100
AcDbLine
 62
7
  6
CONTINUOUS
 10
3.96408864
 20
7.9490129592
 11
3.8619609747
 21
7.9040130021
  0
LINE
  5
30A
100
AcDbEntity
  8
0
100
AcDbLine
 62
7
  6
CONTINUOUS
 10
3.8619609747
 20
7.9040130021
 11
3.7853652392
 21
7.8815129592
  0
LINE
  5
30B
100
AcDbEntity
  8
0
100
AcDbLine
 62
7
  6
CONTINUOUS
 10
3.3002588782
 20
7.6565129163
 11
3.2236630712
 21
7.6340130021
  0
LINE
  5
30C
100
AcDbEntity
  8
0
100
AcDbLine
 62
7
  6
CONTINUOUS
 10
3.8619609747
 20
6.9140129163
 11
3.7853652392
 21
6.8915130021
  0
LINE
  5
30D
100
AcDbEntity
  8
0
100
AcDbLine
 62
7
  6
CONTINUOUS
 10
0.96677079
 20
-5.9999648387
 11
0.8667705386
 21
-6.0269369066
  0
LINE
  5
30E
100
AcDbEntity
  8
0
100
AcDbLine
 62
7
  6
CONTINUOUS
 10
1.3667698633
 20
-5.6919370887
 11
0.303749026
 21
-5.9786630448
  0
LINE
  5
30F
100
AcDbEntity
  8
0
100
AcDbLine
 62
7
  6
CONTINUOUS
 10
1.7678120408
 20
-6.9109870408
 11
1.4801100408
 21
-6.9109870408
  0
LINE
  5
310
100
AcDbEntity
  8
0
100
AcDbLine
 62
7
  6
CONTINUOUS
 10
0.2074012628
 20
-6.9109870408
 11
0.0678120408
 21
-6.9109870408
  0
LINE
  5
311
100
AcDbEntity
  8
0
100
AcDbLine
 62
7
  6
CONTINUOUS
 10
0.7078124699
 20
-6.9024740408
 11
0.6078120408
 21
-6.9024740408
  0
LINE
  5
312
100
AcDbEntity
  8
0
100
AcDbLine
 62
7
  6
CONTINUOUS
 10
7.8428120408
 20
-6.7860230408
 11
6.6689180408
 21
-6.7860230408
  0
LINE
  5
313
100
AcDbEntity
  8
0
100
AcDbLine
 62
7
  6
CONTINUOUS
 10
7.8428120408
 20
-5.8110930408
 11
6.6669930408
 21
-5.8110930408
  0
LINE
  5
314
100
AcDbEntity
  8
0
100
AcDbLine
 62
7
  6
CONTINUOUS
 10
7.8428120408
 20
-5.6277400408
 11
6.4428120408
 21
-5.6277400408
  0
LINE
  5
315
100
AcDbEntity
  8
0
100
AcDbLine
 62
7
  6
CONTINUOUS
 10
5.8416090408
 20
-5.2688720408
 11
4.4416090408
 21
-5.2688720408
  0
LINE
  5
316
100
AcDbEntity
  8
0
100
AcDbLine
 62
7
  6
CONTINUOUS
 10
0.303749026
 20
-6.2683110368
 11
1.3667698633
 21
-6.5550369929
  0
LINE
  5
317
100
AcDbEntity
  8
0
100
AcDbLine
 62
7
  6
CONTINUOUS
 10
0.8667705386
 20
-6.2200371751
 11
0.96677079
 21
-6.2470092429
  0
LINE
  5
318
100
AcDbEntity
  8
0
100
AcDbLine
 62
7
  6
CONTINUOUS
 10
-1.7986089592
 20
-7.1524080408
 11
0.5013910408
 21
-9.4524080408
  0
LINE
  5
319
100
AcDbEntity
  8
0
100
AcDbLine
 62
7
  6
CONTINUOUS
 10
-1.6571879592
 20
-7.0109870408
 11
0.6428120408
 21
-9.3109870408
  0
LINE
  5
31A
100
AcDbEntity
  8
RACCORDO
100
AcDbLine
 62
7
  6
CONTINUOUS
 10
5.9992602208
 20
-20.395660505
 11
5.8950271917
 21
-20.2393087563
  0
LINE
  5
31B
100
AcDbEntity
  8
0
100
AcDbLine
 62
7
  6
CONTINUOUS
 10
-4.4497779622
 20
6.2945575373
 11
-4.4459801405
 21
6.2365655316
  0
LINE
  5
31C
100
AcDbEntity
  8
0
100
AcDbLine
 62
7
  6
CONTINUOUS
 10
-4.4459801405
 20
6.2365655316
 11
-4.4427896588
 21
6.1789862649
  0
LINE
  5
31D
100
AcDbEntity
  8
0
100
AcDbLine
 62
7
  6
CONTINUOUS
 10
-4.4427896588
 20
6.1789862649
 11
-4.4400682835
 21
6.1214685159
  0
LWPOLYLINE
  5
31E
100
AcDbEntity
  8
0
100
AcDbPolyline
 62
7
  6
CONTINUOUS
 90
3
 70
0
 10
-4.4400682835
 20
6.1214685159
 10
-4.4365075484
 20
6.0344682315
 10
-4.4354409592
 20
6.0052340375
  0
LINE
  5
31F
100
AcDbEntity
  8
0
100
AcDbLine
 62
7
  6
CONTINUOUS
 10
-4.9579129592
 20
-7.0832664259
 11
-4.9579129592
 21
-7.7634420408
  0
LINE
  5
320
100
AcDbEntity
  8
0
100
AcDbLine
 62
7
  6
CONTINUOUS
 10
-4.9007549592
 20
6.1002227994
 11
-4.9007549592
 21
5.7495329592
  0
LINE
  5
321
100
AcDbEntity
  8
DRAFT
100
AcDbLine
 62
7
  6
CONTINUOUS
 10
-4.7571879592
 20
23.7890129592
 11
-4.7571879592
 21
22.3890129592
  0
LINE
  5
322
100
AcDbEntity
  8
DRAFT
100
AcDbLine
 62
7
  6
CONTINUOUS
 10
-4.7571879592
 20
-22.4109870408
 11
-4.7571879592
 21
-23.8109870408
  0
LINE
  5
323
100
AcDbEntity
  8
ASSI
100
AcDbLine
 62
253
  6
CONTINUOUS
 10
-4.7131206919
 20
-22.3448852077
 11
-4.7131206919
 21
-23.7617604655
  0
LINE
  5
324
100
AcDbEntity
  8
ASSI
100
AcDbLine
 62
253
  6
CONTINUOUS
 10
-4.7131206919
 20
22.3229111261
 11
-4.7131206919
 21
23.7397863839
  0
LINE
  5
325
100
AcDbEntity
  8
0
100
AcDbLine
 62
7
  6
CONTINUOUS
 10
-4.4398849592
 20
-9.5967420408
 11
-4.4398849592
 21
-10.1395500408
  0
LINE
  5
326
100
AcDbEntity
  8
0
100
AcDbLine
 62
7
  6
CONTINUOUS
 10
-4.4398849592
 20
-7.2668830408
 11
-4.4398919592
 21
-7.7556580408
  0
LINE
  5
327
100
AcDbEntity
  8
0
100
AcDbLine
 62
7
  6
CONTINUOUS
 10
-4.4354409592
 20
6.0052340375
 11
-4.4354409592
 21
5.7495329592
  0
LINE
  5
328
100
AcDbEntity
  8
0
100
AcDbLine
 62
7
  6
CONTINUOUS
 10
-4.4159469592
 20
17.0310929592
 11
-4.4159469592
 21
16.2283829592
  0
LINE
  5
329
100
AcDbEntity
  8
0
100
AcDbLine
 62
7
  6
CONTINUOUS
 10
-4.4159469592
 20
11.2139229592
 11
-4.4159469592
 21
10.4111079592
  0
LINE
  5
32A
100
AcDbEntity
  8
0
100
AcDbLine
 62
7
  6
CONTINUOUS
 10
-3.9506329592
 20
17.1824049592
 11
-3.9506329592
 21
16.0732779592
  0
LINE
  5
32B
100
AcDbEntity
  8
0
100
AcDbLine
 62
7
  6
CONTINUOUS
 10
-3.9506329592
 20
11.3651299592
 11
-3.9506329592
 21
10.2560039592
  0
LINE
  5
32C
100
AcDbEntity
  8
0
100
AcDbLine
 62
7
  6
CONTINUOUS
 10
-3.9078639592
 20
-9.4259140408
 11
-3.9078639592
 21
-10.3103710408
  0
LINE
  5
32D
100
AcDbEntity
  8
RACCORDO
100
AcDbLine
 62
7
  6
CONTINUOUS
 10
-3.8571879592
 20
-22.344906936
 11
-3.8571879592
 21
-23.7621293311
  0
LINE
  5
32E
100
AcDbEntity
  8
ASSI
100
AcDbLine
 62
7
  6
CONTINUOUS
 10
-3.8571879592
 20
-22.344906936
 11
-3.8571879592
 21
-23.805169211
  0
LINE
  5
32F
100
AcDbEntity
  8
ASSI
100
AcDbLine
 62
7
  6
CONTINUOUS
 10
-3.8571879592
 20
22.3229328544
 11
-3.8571879592
 21
23.7831951294
  0
LINE
  5
330
100
AcDbEntity
  8
0
100
AcDbLine
 62
7
  6
CONTINUOUS
 10
-3.8225029592
 20
9.1706909592
 11
-3.8225029592
 21
8.1346919592
  0
LWPOLYLINE
  5
331
100
AcDbEntity
  8
RACCORDO
100
AcDbPolyline
 62
7
  6
CONTINUOUS
 90
21
 70
0
 10
-6.7142094606
 20
-20.4132204415
 10
-6.7144970449
 20
-20.4168258922
 10
-6.7152596256
 20
-20.4208919923
 10
-6.7165131386
 20
-20.4254187416
 10
-6.7182718266
 20
-20.430389903
 10
-6.7205495564
 20
-20.4358217137
 10
-6.7233611007
 20
-20.4417628853
 10
-6.7267199669
 20
-20.4482208665
 10
-6.7306351657
 20
-20.4551882085
 10
-6.7351126639
 20
-20.4626912768
 10
-6.740145053
 20
-20.4707121409
 10
-6.7457460279
 20
-20.4792687313
 10
-6.751959366
 20
-20.4884412048
 10
-6.7587962746
 20
-20.4982324568
 10
-6.7662591435
 20
-20.5086395919
 10
-6.7743915235
 20
-20.5197340809
 10
-6.7832125214
 20
-20.5315434477
 10
-6.7927088612
 20
-20.5440401684
 10
-6.8028760057
 20
-20.557213143
 10
-6.8137451576
 20
-20.5711397967
 10
-6.8252587778
 20
-20.5857427043
  0
LWPOLYLINE
  5
332
100
AcDbEntity
  8
0
100
AcDbPolyline
 62
7
  6
CONTINUOUS
 90
10
 70
0
 10
-0.4098484181
 20
11.1338405881
 10
-0.4018102157
 20
11.1594368525
 10
-0.3977134968
 20
11.1721712256
 10
-0.3935034669
 20
11.1848663557
 10
-0.389181295
 20
11.1975254842
 10
-0.3847458122
 20
11.2101453699
 10
-0.3801355062
 20
11.2227206693
 10
-0.375329873
 20
11.2352496013
 10
-0.3703494166
 20
11.2477339472
 10
-0.365194137
 20
11.2601737069
  0
LWPOLYLINE
  5
333
100
AcDbEntity
  8
0
100
AcDbPolyline
 62
7
  6
CONTINUOUS
 90
6
 70
0
 10
-0.5174616523
 20
10.7598742303
 10
-0.5144373799
 20
10.7684350617
 10
-0.511530084
 20
10.7770228968
 10
-0.5087397646
 20
10.7856377355
 10
-0.5060946488
 20
10.7942826115
 10
-0.5010706653
 20
10.8116442732
  0
LWPOLYLINE
  5
334
100
AcDbEntity
  8
0
100
AcDbPolyline
 62
7
  6
CONTINUOUS
 90
37
 70
0
 10
-0.365194137
 20
11.2601737069
 10
-0.3609054067
 20
11.2698875489
 10
-0.3562975977
 20
11.2795184541
 10
-0.35137071
 20
11.2890664224
 10
-0.3461065631
 20
11.2985807431
 10
-0.3405233374
 20
11.3080121272
 10
-0.3346755747
 20
11.3172127079
 10
-0.3285528524
 20
11.3261694324
 10
-0.322165593
 20
11.3348953541
 10
-0.3155996051
 20
11.3432817653
 10
-0.3088626459
 20
11.351300287
 10
-0.3019469582
 20
11.3589792989
 10
-0.294915079
 20
11.3662952319
 10
-0.2877971722
 20
11.3732225172
 10
-0.2805630739
 20
11.3797867242
 10
-0.2731848292
 20
11.3860409906
 10
-0.265666834
 20
11.3919922358
 10
-0.2580046923
 20
11.3976335408
 10
-0.2501572611
 20
11.4029972862
 10
-0.2421263767
 20
11.4080874241
 10
-0.2339102027
 20
11.4129000027
 10
-0.2254620868
 20
11.4174555468
 10
-0.2167872761
 20
11.42176393
 10
-0.2078805236
 20
11.4258152791
 10
-0.1986794357
 20
11.4296004988
 10
-0.1891457235
 20
11.4331355697
 10
-0.1793176759
 20
11.4364045114
 10
-0.1692477657
 20
11.4393502878
 10
-0.1589049661
 20
11.4419581475
 10
-0.1483203039
 20
11.4442428422
 10
-0.1376393323
 20
11.4461915895
 10
-0.1268586455
 20
11.4477871792
 10
-0.1159816493
 20
11.4490468218
 10
-0.1051641151
 20
11.4500093668
 10
-0.0944579669
 20
11.4506877641
 10
-0.0838112807
 20
11.4510690639
 10
-0.0732240566
 20
11.4511532661
  0
LINE
  5
335
100
AcDbEntity
  8
0
100
AcDbLine
 62
7
  6
CONTINUOUS
 10
3.0449396882
 20
12.5840127875
 11
2.9683439527
 21
12.4715129592
  0
LINE
  5
336
100
AcDbEntity
  8
0
100
AcDbLine
 62
7
  6
CONTINUOUS
 10
3.1470673356
 20
10.4690131308
 11
3.0960035119
 21
10.4015131308
  0
LINE
  5
337
100
AcDbEntity
  8
0
100
AcDbLine
 62
7
  6
CONTINUOUS
 10
3.4534503493
 20
12.1790127875
 11
3.3768546138
 21
12.0890131308
  0
LINE
  5
338
100
AcDbEntity
  8
0
100
AcDbLine
 62
7
  6
CONTINUOUS
 10
3.1215354238
 20
8.5790128734
 11
3.0449396882
 21
8.5115128734
  0
LINE
  5
339
100
AcDbEntity
  8
0
100
AcDbLine
 62
7
  6
CONTINUOUS
 10
3.1215354238
 20
7.5890129163
 11
3.0449396882
 21
7.5215129163
  0
LINE
  5
33A
100
AcDbEntity
  8
0
100
AcDbLine
 62
7
  6
CONTINUOUS
 10
4.0406843845
 20
8.9615129592
 11
3.9385567281
 21
8.8940129592
  0
LINE
  5
33B
100
AcDbEntity
  8
0
100
AcDbLine
 62
7
  6
CONTINUOUS
 10
3.9385567281
 20
8.0840129592
 11
3.7853652392
 21
7.994013045
  0
LINE
  5
33C
100
AcDbEntity
  8
0
100
AcDbLine
 62
7
  6
CONTINUOUS
 10
3.3002588782
 20
7.5440129592
 11
3.1470673356
 21
7.4540129163
  0
LINE
  5
33D
100
AcDbEntity
  8
0
100
AcDbLine
 62
7
  6
CONTINUOUS
 10
3.9385567281
 20
7.0940130021
 11
3.7853652392
 21
7.0040129592
  0
LINE
  5
33E
100
AcDbEntity
  8
0
100
AcDbLine
 62
7
  6
CONTINUOUS
 10
3.96408864
 20
6.9590130021
 11
3.8619609747
 21
6.9140129163
  0
LINE
  5
33F
100
AcDbEntity
  8
0
100
AcDbLine
 62
7
  6
CONTINUOUS
 10
4.1428120408
 20
6.6890129377
 11
2.9428120408
 21
6.3290129592
  0
LINE
  5
340
100
AcDbEntity
  8
0
100
AcDbLine
 62
7
  6
CONTINUOUS
 10
3.7343014155
 20
6.4415129806
 11
3.0449396882
 21
6.2390129485
  0
LINE
  5
341
100
AcDbEntity
  8
0
100
AcDbLine
 62
7
  6
CONTINUOUS
 10
4.1428120408
 20
6.5540129377
 11
3.8364290629
 21
6.4640129592
  0
LWPOLYLINE
  5
342
100
AcDbEntity
  8
0
100
AcDbPolyline
 62
7
  6
CONTINUOUS
 90
43
 70
0
 10
4.8461889275
 20
-4.4191778103
 10
4.8362222876
 20
-4.419226249
 10
4.8262669642
 20
-4.4194948987
 10
4.8163229573
 20
-4.4199837594
 10
4.8063770864
 20
-4.4206468148
 10
4.796442532
 20
-4.4215300812
 10
4.7865588355
 20
-4.4227716074
 10
4.7767192786
 20
-4.4243745
 10
4.7669305796
 20
-4.4263356524
 10
4.7572524344
 20
-4.4287837944
 10
4.747685496
 20
-4.4317589931
 10
4.7382291114
 20
-4.4352211812
 10
4.7289410183
 20
-4.4391788865
 10
4.7198035569
 20
-4.4436493165
 10
4.710834387
 20
-4.4486152634
 10
4.7021442259
 20
-4.4540336314
 10
4.6937317757
 20
-4.4599117026
 10
4.6855983342
 20
-4.4662421946
 10
4.6778585122
 20
-4.4729601651
 10
4.6705392677
 20
-4.4800633698
 10
4.6636136426
 20
-4.4875540527
 10
4.6571153731
 20
-4.4953740033
 10
4.651061694
 20
-4.5035279739
 10
4.6454353705
 20
-4.512011212
 10
4.6402184347
 20
-4.5207512506
 10
4.635405942
 20
-4.5297608498
 10
4.6310028369
 20
-4.5390272492
 10
4.6270059848
 20
-4.5484397005
 10
4.6234334034
 20
-4.5579949436
 10
4.620267075
 20
-4.5676962384
 10
4.617449812
 20
-4.577442617
 10
4.6149944447
 20
-4.5872129804
 10
4.6128881428
 20
-4.5970284274
 10
4.611035228
 20
-4.6068512874
 10
4.6094294864
 20
-4.616668083
 10
4.6080771319
 20
-4.6264922914
 10
4.6069011274
 20
-4.6363266736
 10
4.6058740656
 20
-4.6461699242
 10
4.6050233538
 20
-4.6560233485
 10
4.6043541769
 20
-4.6658936227
 10
4.6038682633
 20
-4.6757829724
 10
4.6035638846
 20
-4.6856891721
 10
4.6034410408
 20
-4.6956122217
  0
LINE
  5
343
100
AcDbEntity
  8
0
100
AcDbLine
 62
7
  6
CONTINUOUS
 10
5.8416090408
 20
-5.0797370408
 11
5.2507680408
 21
-5.0797370408
  0
LINE
  5
344
100
AcDbEntity
  8
0
100
AcDbLine
 62
7
  6
CONTINUOUS
 10
5.0889370408
 20
-5.0797370408
 11
4.6034410408
 21
-5.0797370408
  0
LINE
  5
345
100
AcDbEntity
  8
0
100
AcDbLine
 62
7
  6
CONTINUOUS
 10
7.8428120408
 20
-4.0288640408
 11
6.4428120408
 21
-4.0288640408
  0
LINE
  5
346
100
AcDbEntity
  8
0
100
AcDbLine
 62
7
  6
CONTINUOUS
 10
7.6810170408
 20
-3.8396690408
 11
6.6046070408
 21
-3.8396690408
  0
LWPOLYLINE
  5
347
100
AcDbEntity
  8
0
100
AcDbPolyline
 62
7
  6
CONTINUOUS
 90
34
 70
0
 10
4.8461889275
 20
-4.2243247323
 10
4.8674727782
 20
-4.2244069949
 10
4.8883028823
 20
-4.2253805411
 10
4.9086792399
 20
-4.2272453708
 10
4.9286245427
 20
-4.2300418
 10
4.9481160989
 20
-4.2337295124
 10
4.9670858332
 20
-4.2381875602
 10
4.98549359
 20
-4.2433858039
 10
5.0033795248
 20
-4.2493543825
 10
5.020796029
 20
-4.256062765
 10
5.0377951264
 20
-4.2635001041
 10
5.0543247931
 20
-4.2716772465
 10
5.0702813492
 20
-4.2805962029
 10
5.0856684252
 20
-4.2902743751
 10
5.1004823906
 20
-4.3006943604
 10
5.1146086726
 20
-4.3118059625
 10
5.1279977789
 20
-4.3235866271
 10
5.1406992019
 20
-4.3360589076
 10
5.1527468461
 20
-4.3492402684
 10
5.1641527082
 20
-4.3631234274
 10
5.1749047916
 20
-4.3777156657
 10
5.1850010106
 20
-4.393056292
 10
5.1944479875
 20
-4.4091654519
 10
5.2032391001
 20
-4.4260229984
 10
5.2113523967
 20
-4.443607802
 10
5.218798951
 20
-4.4618657057
 10
5.2255676894
 20
-4.480850865
 10
5.2316034388
 20
-4.500704618
 10
5.2369450963
 20
-4.5214472444
 10
5.2415537648
 20
-4.5430584624
 10
5.2452575799
 20
-4.5656187677
 10
5.2479992536
 20
-4.5891549911
 10
5.2498360739
 20
-4.6136402992
 10
5.2507680408
 20
-4.6390746906
  0
LINE
  5
348
100
AcDbEntity
  8
0
100
AcDbLine
 62
7
  6
CONTINUOUS
 10
6.4428120408
 20
-5.8968590408
 11
7.6321380408
 21
-6.2965960408
  0
LWPOLYLINE
  5
349
100
AcDbEntity
  8
0
100
AcDbPolyline
 62
7
  6
CONTINUOUS
 90
47
 70
0
 10
-4.9118401354
 20
6.1906259929
 10
-4.9133485259
 20
6.2019370462
 10
-4.9149299163
 20
6.2132818411
 10
-4.9165841384
 20
6.2246440533
 10
-4.9183544718
 20
6.2359861575
 10
-4.9202470418
 20
6.2473276408
 10
-4.922255723
 20
6.2586490161
 10
-4.9244054191
 20
6.2698542968
 10
-4.9266720375
 20
6.2809341428
 10
-4.9290796706
 20
6.2918978943
 10
-4.9317255002
 20
6.3026775853
 10
-4.9345648145
 20
6.3132797831
 10
-4.9376423252
 20
6.3236979206
 10
-4.9411893487
 20
6.333844331
 10
-4.9452594521
 20
6.3436988278
 10
-4.9497990683
 20
6.3532815979
 10
-4.9548788125
 20
6.3625655351
 10
-4.9605691173
 20
6.3715185996
 10
-4.9667995501
 20
6.3801728316
 10
-4.9734294285
 20
6.3885972447
 10
-4.980435359
 20
6.3967971897
 10
-4.9878407351
 20
6.4047673161
 10
-4.9955750547
 20
6.4125605852
 10
-5.0036368945
 20
6.4202043297
 10
-5.0120276777
 20
6.4276712173
 10
-5.0206811725
 20
6.4349322113
 10
-5.0295705339
 20
6.4420088441
 10
-5.0387226068
 20
6.4488795836
 10
-5.0481516948
 20
6.4554507965
 10
-5.0578276451
 20
6.4616929006
 10
-5.0677806104
 20
6.4676354785
 10
-5.0781153525
 20
6.4732736447
 10
-5.088837881
 20
6.478605357
 10
-5.0999421863
 20
6.4836326578
 10
-5.1115150012
 20
6.4883567879
 10
-5.1235596992
 20
6.4927918157
 10
-5.1360729069
 20
6.4969236731
 10
-5.1491312361
 20
6.500711396
 10
-5.1627129286
 20
6.5041595989
 10
-5.1768397426
 20
6.5072636676
 10
-5.1916535646
 20
6.5099687953
 10
-5.2071621612
 20
6.5122656542
 10
-5.2233577657
 20
6.5141635722
 10
-5.2403589647
 20
6.515635726
 10
-5.2582052869
 20
6.5166731747
 10
-5.2768572035
 20
6.5172848594
 10
-5.2963147145
 20
6.51747078
  0
LINE
  5
34A
100
AcDbEntity
  8
0
100
AcDbLine
 62
7
  6
CONTINUOUS
 10
-4.9089980641
 20
6.1680446914
 11
-4.9118401354
 21
6.1906259929
  0
LINE
  5
34B
100
AcDbEntity
  8
0
100
AcDbLine
 62
7
  6
CONTINUOUS
 10
-4.9007549592
 20
6.1002227994
 11
-4.9089980641
 21
6.1680446914
  0
LINE
  5
34C
100
AcDbEntity
  8
0
100
AcDbLine
 62
7
  6
CONTINUOUS
 10
-3.3571949592
 20
-16.5519210408
 11
-3.3571879592
 21
-17.1119630408
  0
LINE
  5
34D
100
AcDbEntity
  8
0
100
AcDbLine
 62
7
  6
CONTINUOUS
 10
-3.3571949592
 20
-14.7195310408
 11
-3.3571879592
 21
-15.2795520408
  0
LINE
  5
34E
100
AcDbEntity
  8
0
100
AcDbLine
 62
7
  6
CONTINUOUS
 10
-3.3572019592
 20
-12.5100300408
 11
-3.3571949592
 21
-13.0700370408
  0
LINE
  5
34F
100
AcDbEntity
  8
0
100
AcDbLine
 62
7
  6
CONTINUOUS
 10
-3.3572019592
 20
-10.4871700408
 11
-3.3571949592
 21
-11.0471910408
  0
LINE
  5
350
100
AcDbEntity
  8
0
100
AcDbLine
 62
7
  6
CONTINUOUS
 10
-3.3572089592
 20
-6.0748950408
 11
-3.3572019592
 21
-6.7056720408
  0
LINE
  5
351
100
AcDbEntity
  8
0
100
AcDbLine
 62
7
  6
CONTINUOUS
 10
-3.3572019592
 20
-7.7557210408
 11
-3.3572019592
 21
-8.3157490408
  0
LINE
  5
352
100
AcDbEntity
  8
0
100
AcDbLine
 62
7
  6
CONTINUOUS
 10
-3.3571949592
 20
-11.4205360408
 11
-3.3571949592
 21
-11.9805570408
  0
LINE
  5
353
100
AcDbEntity
  8
0
100
AcDbLine
 62
7
  6
CONTINUOUS
 10
-3.3571949592
 20
-13.5995030408
 11
-3.3571949592
 21
-14.1595240408
  0
LINE
  5
354
100
AcDbEntity
  8
0
100
AcDbLine
 62
7
  6
CONTINUOUS
 10
-3.3571879592
 20
17.9890129592
 11
-3.3571879592
 21
17.3841879592
  0
LINE
  5
355
100
AcDbEntity
  8
0
100
AcDbLine
 62
7
  6
CONTINUOUS
 10
-3.3571879592
 20
15.8638029592
 11
-3.3571879592
 21
15.2898509592
  0
LINE
  5
356
100
AcDbEntity
  8
0
100
AcDbLine
 62
7
  6
CONTINUOUS
 10
-3.3571879592
 20
15.0067219592
 11
-3.3571879592
 21
14.1535399592
  0
LINE
  5
357
100
AcDbEntity
  8
0
100
AcDbLine
 62
7
  6
CONTINUOUS
 10
-3.3571879592
 20
13.0405149592
 11
-3.3571879592
 21
12.4781539592
  0
LINE
  5
358
100
AcDbEntity
  8
0
100
AcDbLine
 62
7
  6
CONTINUOUS
 10
-3.3571879592
 20
12.1718429592
 11
-3.3571879592
 21
11.5668079592
  0
LINE
  5
359
100
AcDbEntity
  8
0
100
AcDbLine
 62
7
  6
CONTINUOUS
 10
-3.3571879592
 20
10.0466329592
 11
-3.3571879592
 21
9.4726819592
  0
LINE
  5
35A
100
AcDbEntity
  8
0
100
AcDbLine
 62
7
  6
CONTINUOUS
 10
-3.3571879592
 20
9.1706909592
 11
-3.3571879592
 21
7.5335549592
  0
LINE
  5
35B
100
AcDbEntity
  8
0
100
AcDbLine
 62
7
  6
CONTINUOUS
 10
-3.3571879592
 20
5.7495329592
 11
-3.3571879592
 21
5.1483969592
  0
LINE
  5
35C
100
AcDbEntity
  8
RACCORDO
100
AcDbLine
 62
7
  6
CONTINUOUS
 10
-3.3571879592
 20
-21.0109870408
 11
-3.3571879592
 21
-22.402260173
  0
LINE
  5
35D
100
AcDbEntity
  8
RACCORDO
100
AcDbLine
 62
7
  6
CONTINUOUS
 10
-3.3571879592
 20
20.9890129592
 11
-3.3571879592
 21
22.3802860914
  0
LINE
  5
35E
100
AcDbEntity
  8
0
100
AcDbLine
 62
7
  6
CONTINUOUS
 10
-3.3571949592
 20
-8.6890940408
 11
-3.3572019592
 21
-9.2491220408
  0
LWPOLYLINE
  5
35F
100
AcDbEntity
  8
0
100
AcDbPolyline
 62
7
  6
CONTINUOUS
 90
52
 70
0
 10
-2.5424927741
 20
9.1892473383
 10
-2.5410352127
 20
9.2895785322
 10
-2.5368551295
 20
9.3892722573
 10
-2.5299525246
 20
9.4883285168
 10
-2.5202765111
 20
9.5869207197
 10
-2.5078779759
 20
9.6848754624
 10
-2.4929095795
 20
9.7816725353
 10
-2.4753662363
 20
9.8772329168
 10
-2.455253032
 20
9.9716356482
 10
-2.4327378841
 20
10.064597623
 10
-2.4077888753
 20
10.1561715159
 10
-2.3804379229
 20
10.2463046777
 10
-2.3509486955
 20
10.3345560241
 10
-2.3192962291
 20
10.4209047059
 10
-2.2855054877
 20
10.5053716081
 10
-2.2499150312
 20
10.5875782567
 10
-2.2125587561
 20
10.6674163709
 10
-2.1734027658
 20
10.7449942749
 10
-2.1326839306
 20
10.8202584068
 10
-2.0903810489
 20
10.8932364644
 10
-2.0465153223
 20
10.9639007912
 10
-2.0013872259
 20
11.0321147946
 10
-1.9549939696
 20
11.0978591213
 10
-1.9073383435
 20
11.1611531661
 10
-1.8587291934
 20
11.2219184597
 10
-1.8092328425
 20
11.2800802133
 10
-1.7587829675
 20
11.3357132551
 10
-1.7074894443
 20
11.3889635397
 10
-1.6553224279
 20
11.4398733802
 10
-1.6023117632
 20
11.4884004962
 10
-1.5486568605
 20
11.5345639502
 10
-1.4943403856
 20
11.5783691612
 10
-1.4393796726
 20
11.6198107391
 10
-1.384026135
 20
11.6588915311
 10
-1.328297397
 20
11.6955902278
 10
-1.2721758343
 20
11.7299281636
 10
-1.2158599873
 20
11.7619721504
 10
-1.1594127071
 20
11.7916950514
 10
-1.1027711426
 20
11.8191240235
 10
-1.0459452807
 20
11.8444073174
 10
-0.9888978423
 20
11.8675729879
 10
-0.9316661065
 20
11.888592995
 10
-0.8743718966
 20
11.9075314448
 10
-0.817054007
 20
11.9243834271
 10
-0.7596736433
 20
11.9391538628
 10
-0.7022362457
 20
11.9519216045
 10
-0.6447153709
 20
11.9626984673
 10
-0.5871374622
 20
11.9714726428
 10
-0.5295872897
 20
11.9782875476
 10
-0.47209311
 20
11.983157655
 10
-0.4146266665
 20
11.986068495
 10
-0.3571879592
 20
11.9870200685
  0
LINE
  5
360
100
AcDbEntity
  8
0
100
AcDbLine
 62
7
  6
CONTINUOUS
 10
-0.2326994116
 20
10.9651835124
 11
-0.24433383
 21
10.9196620097
  0
LINE
  5
361
100
AcDbEntity
  8
0
100
AcDbLine
 62
7
  6
CONTINUOUS
 10
-0.2273216164
 20
10.9857981166
 11
-0.2326994116
 21
10.9651835124
  0
LWPOLYLINE
  5
362
100
AcDbEntity
  8
0
100
AcDbPolyline
 62
7
  6
CONTINUOUS
 90
58
 70
0
 10
-0.24433383
 20
10.9196620097
 10
-0.2533972769
 20
10.8852665022
 10
-0.2580051396
 20
10.8681643142
 10
-0.2626961435
 20
10.8510791229
 10
-0.2674668926
 20
10.8340050739
 10
-0.2723207831
 20
10.8169480217
 10
-0.2772971471
 20
10.7998834864
 10
-0.2823884455
 20
10.782805427
 10
-0.2876022175
 20
10.7657198844
 10
-0.2930004121
 20
10.7486205023
 10
-0.2985659516
 20
10.7314876573
 10
-0.3043159138
 20
10.7143409727
 10
-0.310363481
 20
10.6972329614
 10
-0.3166705363
 20
10.680097081
 10
-0.3232751966
 20
10.6629998741
 10
-0.3304049954
 20
10.6461934816
 10
-0.3381301492
 20
10.6296077746
 10
-0.3463804414
 20
10.6133128833
 10
-0.3551727567
 20
10.5977713392
 10
-0.3645498594
 20
10.5831083766
 10
-0.3744689851
 20
10.5691987644
 10
-0.3848187252
 20
10.5561293368
 10
-0.395561391
 20
10.5439603294
 10
-0.4067346711
 20
10.5326315094
 10
-0.4183402238
 20
10.5220490079
 10
-0.4303623996
 20
10.5122171973
 10
-0.4428168478
 20
10.5031317072
 10
-0.4557521749
 20
10.4946855544
 10
-0.469202953
 20
10.4868237347
 10
-0.4831346098
 20
10.4796012534
 10
-0.4974920355
 20
10.473076142
 10
-0.5122756447
 20
10.4672384651
 10
-0.5274850228
 20
10.4620981591
 10
-0.5430638161
 20
10.4577430624
 10
-0.5590628642
 20
10.4541917163
 10
-0.5754313277
 20
10.4514255802
 10
-0.5919603337
 20
10.44947687
 10
-0.6086432187
 20
10.4483552326
 10
-0.6254866464
 20
10.4480510214
 10
-0.6423017356
 20
10.4485675114
 10
-0.6590856251
 20
10.4498950984
 10
-0.6758411761
 20
10.4520433864
 10
-0.6923880907
 20
10.4550444631
 10
-0.7087111684
 20
10.4589241581
 10
-0.7248256097
 20
10.463656641
 10
-0.7405967186
 20
10.4691965102
 10
-0.756003472
 20
10.4755664086
 10
-0.771066893
 20
10.482743692
 10
-0.7857153557
 20
10.4906150273
 10
-0.7999508832
 20
10.4991595458
 10
-0.8137714524
 20
10.5083981147
 10
-0.8270993688
 20
10.5182800049
 10
-0.8399313689
 20
10.5288108856
 10
-0.8522707162
 20
10.5399850859
 10
-0.864049507
 20
10.5517348667
 10
-0.8752451069
 20
10.5640376476
 10
-0.8858801503
 20
10.5769160073
 10
-0.8959546373
 20
10.5903699446
  0
LINE
  5
363
100
AcDbEntity
  8
0
100
AcDbLine
 62
7
  6
CONTINUOUS
 10
-0.4633212393
 20
10.9465964482
 11
-0.4557834557
 21
10.9745820033
  0
LINE
  5
364
100
AcDbEntity
  8
0
100
AcDbLine
 62
7
  6
CONTINUOUS
 10
-0.2221870255
 20
11.0048421299
 11
-0.2273216164
 21
10.9857981166
  0
LINE
  5
365
100
AcDbEntity
  8
0
100
AcDbLine
 62
7
  6
CONTINUOUS
 10
-0.4557834557
 20
10.9745820033
 11
-0.4482455617
 21
11.0020785179
  0
LINE
  5
366
100
AcDbEntity
  8
0
100
AcDbLine
 62
7
  6
CONTINUOUS
 10
-0.4736330881
 20
10.9092314092
 11
-0.4633212393
 21
10.9465964482
  0
LINE
  5
367
100
AcDbEntity
  8
0
100
AcDbLine
 62
7
  6
CONTINUOUS
 10
-0.2172553451
 20
11.0226148298
 11
-0.2221870255
 21
11.0048421299
  0
LINE
  5
368
100
AcDbEntity
  8
0
100
AcDbLine
 62
7
  6
CONTINUOUS
 10
-0.4482455617
 20
11.0020785179
 11
-0.4406979213
 21
11.0291080023
  0
LINE
  5
369
100
AcDbEntity
  8
0
100
AcDbLine
 62
7
  6
CONTINUOUS
 10
-0.5010706653
 20
10.8116442732
 11
-0.4736330881
 21
10.9092314092
  0
LINE
  5
36A
100
AcDbEntity
  8
0
100
AcDbLine
 62
7
  6
CONTINUOUS
 10
-0.4406979213
 20
11.0291080023
 11
-0.4331081007
 21
11.055745139
  0
LINE
  5
36B
100
AcDbEntity
  8
0
100
AcDbLine
 62
7
  6
CONTINUOUS
 10
-0.2124991586
 20
11.0392817621
 11
-0.2172553451
 21
11.0226148298
  0
LINE
  5
36C
100
AcDbEntity
  8
0
100
AcDbLine
 62
7
  6
CONTINUOUS
 10
-0.4331081007
 20
11.055745139
 11
-0.4254490998
 21
11.082048601
  0
LINE
  5
36D
100
AcDbEntity
  8
0
100
AcDbLine
 62
7
  6
CONTINUOUS
 10
-0.207871366
 20
11.0550949617
 11
-0.2124991586
 21
11.0392817621
  0
LINE
  5
36E
100
AcDbEntity
  8
0
100
AcDbLine
 62
7
  6
CONTINUOUS
 10
-0.4254490998
 20
11.082048601
 11
-0.4177020381
 21
11.1080587468
  0
LINE
  5
36F
100
AcDbEntity
  8
0
100
AcDbLine
 62
7
  6
CONTINUOUS
 10
-0.2033124024
 20
11.0703053537
 11
-0.207871366
 21
11.0550949617
  0
LINE
  5
370
100
AcDbEntity
  8
0
100
AcDbLine
 62
7
  6
CONTINUOUS
 10
-0.4177020381
 20
11.1080587468
 11
-0.4098484181
 21
11.1338405881
  0
LINE
  5
371
100
AcDbEntity
  8
0
100
AcDbLine
 62
7
  6
CONTINUOUS
 10
-0.1987768551
 20
11.0850785306
 11
-0.2033124024
 21
11.0703053537
  0
LINE
  5
372
100
AcDbEntity
  8
SMUSSO
100
AcDbLine
 62
7
  6
CONTINUOUS
 10
-9.9551374676
 20
-19.7034356678
 11
-10.1071879592
 21
-20.1599580946
  0
LINE
  5
373
100
AcDbEntity
  8
SMUSSO
100
AcDbLine
 62
7
  6
CONTINUOUS
 10
-9.2055527303
 20
-20.4560534924
 11
-9.3570740261
 21
-20.9109870408
  0
LINE
  5
374
100
AcDbEntity
  8
0
100
AcDbLine
 62
7
  6
CONTINUOUS
 10
3.5555779967
 20
12.5840127875
 11
3.5300460849
 21
12.5390129592
  0
LINE
  5
375
100
AcDbEntity
  8
0
100
AcDbLine
 62
7
  6
CONTINUOUS
 10
3.6577056441
 20
12.5390129592
 11
3.6066418204
 21
12.4490127875
  0
LINE
  5
376
100
AcDbEntity
  8
0
100
AcDbLine
 62
7
  6
CONTINUOUS
 10
3.5300460849
 20
12.0890131308
 11
3.504514173
 21
12.0440127875
  0
LINE
  5
377
100
AcDbEntity
  8
0
100
AcDbLine
 62
7
  6
CONTINUOUS
 10
3.0194077764
 20
10.5365131308
 11
2.9683439527
 21
10.4465129592
  0
LINE
  5
378
100
AcDbEntity
  8
0
100
AcDbLine
 62
7
  6
CONTINUOUS
 10
3.9896205518
 20
12.1790127875
 11
3.9385567281
 21
12.0890131308
  0
LINE
  5
379
100
AcDbEntity
  8
0
100
AcDbLine
 62
7
  6
CONTINUOUS
 10
4.1172801267
 20
12.1340129592
 11
4.0406843845
 21
12.0215131308
  0
LINE
  5
37A
100
AcDbEntity
  8
0
100
AcDbLine
 62
7
  6
CONTINUOUS
 10
3.4789822612
 20
9.546513045
 11
3.4023865256
 21
9.4340129592
  0
LINE
  5
37B
100
AcDbEntity
  8
0
100
AcDbLine
 62
7
  6
CONTINUOUS
 10
3.0449396882
 20
8.5115128734
 11
2.9683439527
 21
8.399013045
  0
LINE
  5
37C
100
AcDbEntity
  8
0
100
AcDbLine
 62
7
  6
CONTINUOUS
 10
3.5811099086
 20
9.479013045
 11
3.5300460849
 21
9.411513045
  0
LINE
  5
37D
100
AcDbEntity
  8
0
100
AcDbLine
 62
7
  6
CONTINUOUS
 10
3.1470673356
 20
8.4440128734
 11
3.0960035119
 21
8.3765128734
  0
LINE
  5
37E
100
AcDbEntity
  8
0
100
AcDbLine
 62
7
  6
CONTINUOUS
 10
3.9896205518
 20
9.0965129592
 11
3.9385567281
 21
9.0290129592
  0
LINE
  5
37F
100
AcDbEntity
  8
0
100
AcDbLine
 62
7
  6
CONTINUOUS
 10
3.1470673356
 20
7.4540129163
 11
3.0960035119
 21
7.3865129163
  0
LINE
  5
380
100
AcDbEntity
  8
0
100
AcDbLine
 62
7
  6
CONTINUOUS
 10
4.0406843845
 20
8.0165129592
 11
3.96408864
 21
7.9490129592
  0
LINE
  5
381
100
AcDbEntity
  8
0
100
AcDbLine
 62
7
  6
CONTINUOUS
 10
4.0406843845
 20
7.0265130021
 11
3.96408864
 21
6.9590130021
  0
LINE
  5
382
100
AcDbEntity
  8
0
100
AcDbLine
 62
7
  6
CONTINUOUS
 10
7.1155820408
 20
6.3233569592
 11
6.4428120408
 21
5.9216429592
  0
LWPOLYLINE
  5
383
100
AcDbEntity
  8
0
100
AcDbPolyline
 62
7
  6
CONTINUOUS
 90
46
 70
0
 10
7.1428120408
 20
-2.8732144362
 10
7.1658640246
 20
-2.8729507701
 10
7.1889356841
 20
-2.8731961157
 10
7.2120270195
 20
-2.8739504731
 10
7.2351720483
 20
-2.8751754482
 10
7.2583367528
 20
-2.8769094351
 10
7.2814190807
 20
-2.8792676157
 10
7.3044280213
 20
-2.8822673618
 10
7.3273545853
 20
-2.8858913016
 10
7.3500697519
 20
-2.8902025015
 10
7.3725339234
 20
-2.8952507146
 10
7.3947866976
 20
-2.9009861876
 10
7.4168178466
 20
-2.9073227272
 10
7.4386415322
 20
-2.9142517628
 10
7.4602435927
 20
-2.9217818648
 10
7.4815713151
 20
-2.9298525513
 10
7.5026714993
 20
-2.9383845283
 10
7.5234973453
 20
-2.9474570895
 10
7.5438557406
 20
-2.9572476339
 10
7.563725973
 20
-2.9677871127
 10
7.5831287547
 20
-2.9790445741
 10
7.60193311
 20
-2.9911045624
 10
7.6200567897
 20
-3.0040357427
 10
7.6375820431
 20
-3.0177694492
 10
7.6546246418
 20
-3.0321842304
 10
7.6712550949
 20
-3.0472621407
 10
7.6874028933
 20
-3.0630211249
 10
7.7029722818
 20
-3.0793935674
 10
7.7180196194
 20
-3.0963433428
 10
7.732488547
 20
-3.1139065756
 10
7.7461142329
 20
-3.132124025
 10
7.7588336757
 20
-3.1510384482
 10
7.7707098768
 20
-3.1706070869
 10
7.7816670086
 20
-3.1907424264
 10
7.7916707663
 20
-3.2114603224
 10
7.8007554547
 20
-3.2327449183
 10
7.8089481598
 20
-3.2544611312
 10
7.8162588316
 20
-3.2766350708
 10
7.8226775201
 20
-3.2992406265
 10
7.8282014611
 20
-3.3220643861
 10
7.8328200236
 20
-3.3450995368
 10
7.8365438386
 20
-3.368352891
 10
7.8394020349
 20
-3.3916314743
 10
7.8414043222
 20
-3.4148709623
 10
7.8425409908
 20
-3.4381356794
 10
7.8428120408
 20
-3.4614256255
  0
LINE
  5
384
100
AcDbEntity
  8
0
100
AcDbLine
 62
7
  6
CONTINUOUS
 10
2.0199043507
 20
-2.9102180408
 11
1.8215139831
 21
-2.9102180408
  0
LINE
  5
385
100
AcDbEntity
  8
0
100
AcDbLine
 62
7
  6
CONTINUOUS
 10
4.6093000408
 20
-2.8082320408
 11
4.4416090408
 21
-2.8082320408
  0
LINE
  5
386
100
AcDbEntity
  8
0
100
AcDbLine
 62
7
  6
CONTINUOUS
 10
7.8428120408
 20
-2.6112580408
 11
6.4428120408
 21
-2.6112580408
  0
LINE
  5
387
100
AcDbEntity
  8
0
100
AcDbLine
 62
7
  6
CONTINUOUS
 10
3.0802670408
 20
-2.4997560408
 11
1.7724870703
 21
-2.4997560408
  0
LINE
  5
388
100
AcDbEntity
  8
0
100
AcDbLine
 62
7
  6
CONTINUOUS
 10
7.6751290408
 20
-2.4220740408
 11
7.2071790408
 21
-2.4220740408
  0
LINE
  5
389
100
AcDbEntity
  8
0
100
AcDbLine
 62
7
  6
CONTINUOUS
 10
7.0394960408
 20
-2.4220740408
 11
6.6104950408
 21
-2.4220740408
  0
LINE
  5
38A
100
AcDbEntity
  8
0
100
AcDbLine
 62
7
  6
CONTINUOUS
 10
5.8416090408
 20
-2.3344540408
 11
4.6093000408
 21
-2.3344540408
  0
LINE
  5
38B
100
AcDbEntity
  8
0
100
AcDbLine
 62
7
  6
CONTINUOUS
 10
3.0802670408
 20
-2.2945240408
 11
1.4019300408
 21
-2.2945240408
  0
LINE
  5
38C
100
AcDbEntity
  8
0
100
AcDbLine
 62
7
  6
CONTINUOUS
 10
5.8416090408
 20
-2.1453190408
 11
4.6093000408
 21
-2.1453190408
  0
LINE
  5
38D
100
AcDbEntity
  8
0
100
AcDbLine
 62
7
  6
CONTINUOUS
 10
2.6800650408
 20
-1.8361740408
 11
2.4919370408
 21
-1.8361740408
  0
LINE
  5
38E
100
AcDbEntity
  8
0
100
AcDbLine
 62
7
  6
CONTINUOUS
 10
4.6093000408
 20
-1.6715410408
 11
4.4416090408
 21
-1.6715410408
  0
LINE
  5
38F
100
AcDbEntity
  8
0
100
AcDbLine
 62
7
  6
CONTINUOUS
 10
7.2071790408
 20
-1.6557710408
 11
7.0394960408
 21
-1.6557710408
  0
LINE
  5
390
100
AcDbEntity
  8
0
100
AcDbLine
 62
7
  6
CONTINUOUS
 10
6.6104950408
 20
-1.5914260408
 11
6.4428120408
 21
-1.5914260408
  0
LINE
  5
391
100
AcDbEntity
  8
0
100
AcDbLine
 62
7
  6
CONTINUOUS
 10
7.8428120408
 20
-1.5777600408
 11
7.6751290408
 21
-1.5777600408
  0
LWPOLYLINE
  5
392
100
AcDbEntity
  8
0
100
AcDbPolyline
 62
7
  6
CONTINUOUS
 90
46
 70
0
 10
7.1428120408
 20
-3.0678233719
 10
7.1262953054
 20
-3.0675699628
 10
7.1098136611
 20
-3.0676593782
 10
7.0933671076
 20
-3.068091618
 10
7.0769605212
 20
-3.0688715256
 10
7.0605890258
 20
-3.0699942577
 10
7.0442379931
 20
-3.0714452844
 10
7.0279071364
 20
-3.0732224124
 10
7.0115967425
 20
-3.075327835
 10
6.9952930433
 20
-3.0777536021
 10
6.9789968652
 20
-3.0804912934
 10
6.9627073818
 20
-3.0835493292
 10
6.9464083461
 20
-3.0869450198
 10
6.9300604482
 20
-3.0906455698
 10
6.9137029979
 20
-3.0946837746
 10
6.8974376784
 20
-3.0991753309
 10
6.8812495632
 20
-3.1041170598
 10
6.8651535786
 20
-3.1095121402
 10
6.849296187
 20
-3.1154858053
 10
6.8336884333
 20
-3.12207573
 10
6.8183192725
 20
-3.1292442392
 10
6.8033020315
 20
-3.1370035416
 10
6.7886602908
 20
-3.1453494829
 10
6.7743704698
 20
-3.1542862169
 10
6.7604751533
 20
-3.1638384153
 10
6.7469419818
 20
-3.1740279464
 10
6.7338033148
 20
-3.1848329413
 10
6.7211988155
 20
-3.1962124653
 10
6.7091396355
 20
-3.2081928776
 10
6.6976146232
 20
-3.2207478185
 10
6.686729987
 20
-3.2337572746
 10
6.6765052068
 20
-3.2472174758
 10
6.6669208026
 20
-3.2611321918
 10
6.6580245432
 20
-3.2753927192
 10
6.6498349417
 20
-3.2899825191
 10
6.642333485
 20
-3.30491813
 10
6.635512402
 20
-3.320140465
 10
6.6293695653
 20
-3.3356645648
 10
6.6239071023
 20
-3.3514753883
 10
6.6191236249
 20
-3.3674687255
 10
6.6150213235
 20
-3.3836394107
 10
6.6115980076
 20
-3.3999926093
 10
6.6088457174
 20
-3.4164396079
 10
6.6067617995
 20
-3.4329508353
 10
6.6053489073
 20
-3.4495558627
 10
6.6046070408
 20
-3.4662546898
  0
LINE
  5
393
100
AcDbEntity
  8
0
100
AcDbLine
 62
7
  6
CONTINUOUS
 10
6.6669930408
 20
-5.8110930408
 11
7.8428120408
 21
-6.2049230408
  0
LINE
  5
394
100
AcDbEntity
  8
0
100
AcDbLine
 62
7
  6
CONTINUOUS
 10
5.4340450408
 20
-3.7675060408
 11
5.8416090408
 21
-3.9137520408
  0
LINE
  5
395
100
AcDbEntity
  8
0
100
AcDbLine
 62
7
  6
CONTINUOUS
 10
7.4353230408
 20
-5.1188150408
 11
7.8428120408
 21
-5.2650760408
  0
LINE
  5
396
100
AcDbEntity
  8
0
100
AcDbLine
 62
7
  6
CONTINUOUS
 10
6.6458800408
 20
-4.8340480408
 11
7.2676400408
 21
-5.0603010408
  0
LINE
  5
397
100
AcDbEntity
  8
0
100
AcDbLine
 62
7
  6
CONTINUOUS
 10
6.4428120408
 20
-4.9336050408
 11
7.8428120408
 21
-5.4600460408
  0
LINE
  5
398
100
AcDbEntity
  8
0
100
AcDbLine
 62
7
  6
CONTINUOUS
 10
4.4416090408
 20
-3.5822400408
 11
5.8416090408
 21
-4.1087460408
  0
LINE
  5
399
100
AcDbEntity
  8
0
100
AcDbLine
 62
7
  6
CONTINUOUS
 10
0.6428120408
 20
-4.7109870408
 11
2.9428120408
 21
-7.0109870408
  0
LINE
  5
39A
100
AcDbEntity
  8
0
100
AcDbLine
 62
7
  6
CONTINUOUS
 10
0.7842330408
 20
-4.5695660408
 11
3.0842330408
 21
-6.8695660408
  0
LINE
  5
39B
100
AcDbEntity
  8
0
100
AcDbLine
 62
7
  6
CONTINUOUS
 10
0.4178120408
 20
-6.6154530408
 11
0.6078120408
 21
-6.9024740408
  0
LINE
  5
39C
100
AcDbEntity
  8
0
100
AcDbLine
 62
7
  6
CONTINUOUS
 10
0.9828120408
 20
-7.0940530408
 11
1.1828120408
 21
-7.4007310408
  0
LINE
  5
39D
100
AcDbEntity
  8
SMUSSO
100
AcDbLine
 62
7
  6
CONTINUOUS
 10
-10.1071879592
 20
20.137984013
 11
-9.9551374676
 21
19.6814615861
  0
LINE
  5
39E
100
AcDbEntity
  8
SMUSSO
100
AcDbLine
 62
7
  6
CONTINUOUS
 10
-9.3570740261
 20
20.8890129592
 11
-9.2055527303
 21
20.4340794108
  0
LWPOLYLINE
  5
39F
100
AcDbEntity
  8
0
100
AcDbPolyline
 62
7
  6
CONTINUOUS
 90
22
 70
0
 10
-0.8092998279
 20
10.92312428
 10
-0.809229559
 20
10.909657503
 10
-0.8089405279
 20
10.8965434104
 10
-0.8084327345
 20
10.8837820031
 10
-0.8077109655
 20
10.8713752536
 10
-0.8067704341
 20
10.8593211904
 10
-0.8055967809
 20
10.847613898
 10
-0.8041803162
 20
10.836248569
 10
-0.8025307297
 20
10.8252300119
 10
-0.8006627305
 20
10.8145667347
 10
-0.7985825159
 20
10.8042639155
 10
-0.7962838886
 20
10.7943163772
 10
-0.7937629671
 20
10.7847170949
 10
-0.7910221694
 20
10.7754530444
 10
-0.7880590773
 20
10.7665372509
 10
-0.7848625551
 20
10.7580017641
 10
-0.7814179045
 20
10.749841473
 10
-0.7777398237
 20
10.7420614894
 10
-0.7738612712
 20
10.7347091975
 10
-0.7697932332
 20
10.7278003922
 10
-0.7655247235
 20
10.7213192793
 10
-0.761055742
 20
10.7152658593
  0
LINE
  5
3A0
100
AcDbEntity
  8
0
100
AcDbLine
 62
7
  6
CONTINUOUS
 10
-0.1321879592
 20
-5.9872080408
 11
-0.1321879592
 21
-8.0347660408
  0
LWPOLYLINE
  5
3A1
100
AcDbEntity
  8
0
100
AcDbPolyline
 62
7
  6
CONTINUOUS
 90
46
 70
0
 10
-0.9829107855
 20
10.9078655292
 10
-0.9828105419
 20
10.9231639799
 10
-0.9824528658
 20
10.9384411317
 10
-0.9818377573
 20
10.9536969845
 10
-0.9809754922
 20
10.9689332894
 10
-0.9798557947
 20
10.9841482955
 10
-0.978447837
 20
10.9993367502
 10
-0.9767527436
 20
11.0145018891
 10
-0.9747693901
 20
11.0296404768
 10
-0.9724635748
 20
11.044737554
 10
-0.9698383628
 20
11.0597937346
 10
-0.966890689
 20
11.0748084049
 10
-0.9635771571
 20
11.0897647652
 10
-0.9598925654
 20
11.1046704689
 10
-0.9558421156
 20
11.1195178628
 10
-0.9513980154
 20
11.1342671875
 10
-0.9465517375
 20
11.1489444559
 10
-0.9413118094
 20
11.1635236555
 10
-0.9356760215
 20
11.1778869879
 10
-0.9296321363
 20
11.1920654816
 10
-0.9231923914
 20
11.2060281091
 10
-0.9163912905
 20
11.2195639886
 10
-0.9092461211
 20
11.2326182988
 10
-0.9017395957
 20
11.2452458627
 10
-0.8938543547
 20
11.2574002657
 10
-0.8856117319
 20
11.2690719124
 10
-0.8769903936
 20
11.2802703998
 10
-0.8679089787
 20
11.2909781017
 10
-0.8583650351
 20
11.3011924139
 10
-0.848361015
 20
11.310915942
 10
-0.8378229142
 20
11.3201388756
 10
-0.8267139818
 20
11.3288495296
 10
-0.8150709688
 20
11.3370595903
 10
-0.802930124
 20
11.3447943042
 10
-0.7902690438
 20
11.3520503564
 10
-0.7771101317
 20
11.3588310628
 10
-0.7635568475
 20
11.3651716163
 10
-0.7495813691
 20
11.3710838482
 10
-0.7352115186
 20
11.376555928
 10
-0.7206342216
 20
11.3815875552
 10
-0.7058496364
 20
11.3861637845
 10
-0.6908576049
 20
11.3902995619
 10
-0.6758445777
 20
11.3940394243
 10
-0.6608727052
 20
11.3973982177
 10
-0.6458798371
 20
11.4003610965
 10
-0.6308659734
 20
11.402928061
  0
LWPOLYLINE
  5
3A2
100
AcDbEntity
  8
ASSI
100
AcDbPolyline
 62
7
  6
CONTINUOUS
 90
17
 70
0
 10
-4.7131206919
 20
-23.7617604655
 10
-4.7126952438
 20
-23.7589777752
 10
-4.7115996979
 20
-23.755531561
 10
-4.7098150082
 20
-23.7514218232
 10
-4.7073215968
 20
-23.7466618383
 10
-4.7041032939
 20
-23.7412383296
 10
-4.7001511749
 20
-23.735111467
 10
-4.6954547935
 20
-23.7282739274
 10
-4.6900041043
 20
-23.7207330338
 10
-4.6837988543
 20
-23.7124709244
 10
-4.6768514678
 20
-23.7035072633
 10
-4.6691464654
 20
-23.6938223865
 10
-4.6606351729
 20
-23.6833394397
 10
-4.6513024257
 20
-23.6720581247
 10
-4.6411446673
 20
-23.6599787398
 10
-4.6301144486
 20
-23.6470253253
 10
-4.6182000307
 20
-23.6331965877
  0
LINE
  5
3A3
100
AcDbEntity
  8
0
100
AcDbLine
 62
7
  6
CONTINUOUS
 10
3.0960035119
 20
12.4490127875
 11
3.0704716001
 21
12.3590131308
  0
LINE
  5
3A4
100
AcDbEntity
  8
0
100
AcDbLine
 62
7
  6
CONTINUOUS
 10
3.0449396882
 20
7.5215129163
 11
2.9683439527
 21
7.4090129592
  0
LINE
  5
3A5
100
AcDbEntity
  8
0
100
AcDbLine
 62
7
  6
CONTINUOUS
 10
4.1172801267
 20
9.074013045
 11
4.0406843845
 21
8.9615129592
  0
LINE
  5
3A6
100
AcDbEntity
  8
0
100
AcDbLine
 62
7
  6
CONTINUOUS
 10
4.1172801267
 20
8.129013045
 11
4.0406843845
 21
8.0165129592
  0
LINE
  5
3A7
100
AcDbEntity
  8
0
100
AcDbLine
 62
7
  6
CONTINUOUS
 10
4.1172801267
 20
7.1390129592
 11
4.0406843845
 21
7.0265130021
  0
LINE
  5
3A8
100
AcDbEntity
  8
0
100
AcDbLine
 62
7
  6
CONTINUOUS
 10
3.9896205518
 20
8.1515129592
 11
3.9385567281
 21
8.0840129592
  0
LINE
  5
3A9
100
AcDbEntity
  8
0
100
AcDbLine
 62
7
  6
CONTINUOUS
 10
3.9896205518
 20
7.1615130021
 11
3.9385567281
 21
7.0940130021
  0
LINE
  5
3AA
100
AcDbEntity
  8
0
100
AcDbLine
 62
7
  6
CONTINUOUS
 10
7.2793020408
 20
6.2297219592
 11
6.4428120408
 21
5.7013109592
  0
LINE
  5
3AB
100
AcDbEntity
  8
0
100
AcDbLine
 62
7
  6
CONTINUOUS
 10
7.8428120408
 20
4.5645539592
 11
6.4428120408
 21
4.0575089592
  0
LINE
  5
3AC
100
AcDbEntity
  8
0
100
AcDbLine
 62
7
  6
CONTINUOUS
 10
7.8428120408
 20
4.3578089592
 11
7.4353230408
 21
4.2193719592
  0
LINE
  5
3AD
100
AcDbEntity
  8
0
100
AcDbLine
 62
7
  6
CONTINUOUS
 10
7.2676400408
 20
4.1511099592
 11
6.6458800408
 21
3.9425199592
  0
LWPOLYLINE
  5
3AE
100
AcDbEntity
  8
0
100
AcDbPolyline
 62
7
  6
CONTINUOUS
 90
85
 70
0
 10
2.2559205531
 20
-0.2593129784
 10
2.2890563138
 20
-0.2591521175
 10
2.3212691711
 20
-0.2586709153
 10
2.3525591252
 20
-0.2578693717
 10
2.3829248473
 20
-0.2567473738
 10
2.412367666
 20
-0.2553050346
 10
2.4408915679
 20
-0.2535426924
 10
2.4685012051
 20
-0.2514596952
 10
2.4951919254
 20
-0.249056695
 10
2.5209537582
 20
-0.2463359862
 10
2.5457812346
 20
-0.2432978616
 10
2.5696798235
 20
-0.2399420283
 10
2.5926559615
 20
-0.2362699026
 10
2.6146725586
 20
-0.2322940915
 10
2.6357667048
 20
-0.228001988
 10
2.6560561063
 20
-0.2233571872
 10
2.6755555143
 20
-0.2183733747
 10
2.6942501777
 20
-0.2130368649
 10
2.71221355
 20
-0.2072701964
 10
2.729453202
 20
-0.2011049214
 10
2.7459615628
 20
-0.1945094877
 10
2.7617893731
 20
-0.1873117766
 10
2.7769121804
 20
-0.1794531109
 10
2.7913544372
 20
-0.1709921679
 10
2.8052402414
 20
-0.1619328604
 10
2.8186018198
 20
-0.1522295655
 10
2.8314069456
 20
-0.1419279062
 10
2.8436830362
 20
-0.1311686644
 10
2.8554939219
 20
-0.1199960634
 10
2.8667757724
 20
-0.1083658799
 10
2.8773645141
 20
-0.0962862255
 10
2.8872815387
 20
-0.0836620134
 10
2.8965054546
 20
-0.0705883305
 10
2.9048080134
 20
-0.0573585485
 10
2.9120842822
 20
-0.0440903249
 10
2.9184391939
 20
-0.0306660023
 10
2.9239592993
 20
-0.0170259802
 10
2.928663325
 20
-0.0031919617
 10
2.9325325444
 20
0.0108577564
 10
2.9355973278
 20
0.0252478838
 10
2.937871427
 20
0.0401514575
 10
2.9393410904
 20
0.0553954406
 10
2.9399954334
 20
0.0705854325
 10
2.9398370988
 20
0.0856240378
 10
2.9388634439
 20
0.1006086519
 10
2.9370556567
 20
0.1154370606
 10
2.9344157404
 20
0.1301006312
 10
2.9309416918
 20
0.1446079964
 10
2.9266086898
 20
0.1588828404
 10
2.9214063092
 20
0.172915594
 10
2.9153449751
 20
0.1867158263
 10
2.9084311422
 20
0.2002359299
 10
2.9006354159
 20
0.2134897873
 10
2.8919871907
 20
0.226463516
 10
2.882581104
 20
0.2390678602
 10
2.87241042
 20
0.2512810005
 10
2.8614818745
 20
0.2631247563
 10
2.8499103127
 20
0.2745753302
 10
2.8377104234
 20
0.2856791369
 10
2.8248675177
 20
0.2963897618
 10
2.8114523746
 20
0.3065441633
 10
2.7975353051
 20
0.3161204232
 10
2.7830459982
 20
0.3251404598
 10
2.7678442992
 20
0.3335069871
 10
2.7518976166
 20
0.3411253086
 10
2.7352385419
 20
0.3480901209
 10
2.7178246945
 20
0.3545882271
 10
2.699664988
 20
0.360652196
 10
2.6807505088
 20
0.3662494588
 10
2.6610121351
 20
0.3714691132
 10
2.6404670515
 20
0.3763264457
 10
2.6190980735
 20
0.3808061697
 10
2.5967845262
 20
0.3849515237
 10
2.5734883963
 20
0.3887765784
 10
2.549247697
 20
0.3922672631
 10
2.5240557929
 20
0.3954246036
 10
2.4979053132
 20
0.3982492515
 10
2.4708036287
 20
0.4007405552
 10
2.442766216
 20
0.4028975865
 10
2.4137982459
 20
0.4047196335
 10
2.3838945477
 20
0.4062074081
 10
2.3530550857
 20
0.407362117
 10
2.3212798483
 20
0.4081841626
 10
2.2885688471
 20
0.4086731424
 10
2.2549220822
 20
0.4088290566
  0
LINE
  5
3AF
100
AcDbEntity
  8
0
100
AcDbLine
 62
7
  6
CONTINUOUS
 10
5.8416090408
 20
-1.4745570408
 11
5.6348980408
 21
-1.4745570408
  0
LINE
  5
3B0
100
AcDbEntity
  8
0
100
AcDbLine
 62
7
  6
CONTINUOUS
 10
5.8416090408
 20
-1.2718250408
 11
5.6348980408
 21
-1.2718250408
  0
LINE
  5
3B1
100
AcDbEntity
  8
0
100
AcDbLine
 62
7
  6
CONTINUOUS
 10
3.0802670408
 20
-1.1110230408
 11
2.6800650408
 21
-1.1110230408
  0
LINE
  5
3B2
100
AcDbEntity
  8
0
100
AcDbLine
 62
7
  6
CONTINUOUS
 10
2.4919370408
 20
-1.1110230408
 11
1.7382810408
 21
-1.1110230408
  0
LINE
  5
3B3
100
AcDbEntity
  8
0
100
AcDbLine
 62
7
  6
CONTINUOUS
 10
3.0802670408
 20
-0.9057920408
 11
2.6800650408
 21
-0.9057920408
  0
LINE
  5
3B4
100
AcDbEntity
  8
0
100
AcDbLine
 62
7
  6
CONTINUOUS
 10
2.4919370408
 20
-0.9057920408
 11
1.4087710408
 21
-0.9057920408
  0
LINE
  5
3B5
100
AcDbEntity
  8
0
100
AcDbLine
 62
7
  6
CONTINUOUS
 10
7.8428120408
 20
-0.7587750408
 11
6.4428120408
 21
-0.7587750408
  0
LINE
  5
3B6
100
AcDbEntity
  8
0
100
AcDbLine
 62
7
  6
CONTINUOUS
 10
2.6800650408
 20
-0.6800370408
 11
2.4919370408
 21
-0.6800370408
  0
LINE
  5
3B7
100
AcDbEntity
  8
0
100
AcDbLine
 62
7
  6
CONTINUOUS
 10
7.8428120408
 20
-0.5696470408
 11
6.4428120408
 21
-0.5696470408
  0
LINE
  5
3B8
100
AcDbEntity
  8
0
100
AcDbLine
 62
7
  6
CONTINUOUS
 10
5.8416090408
 20
-0.3924720408
 11
4.4416090408
 21
-0.3924720408
  0
LINE
  5
3B9
100
AcDbEntity
  8
0
100
AcDbLine
 62
7
  6
CONTINUOUS
 10
7.8428120408
 20
-0.2460110408
 11
6.4428120408
 21
-0.2460110408
  0
LINE
  5
3BA
100
AcDbEntity
  8
0
100
AcDbLine
 62
7
  6
CONTINUOUS
 10
5.8416090408
 20
-0.2033370408
 11
5.2507680408
 21
-0.2033370408
  0
LINE
  5
3BB
100
AcDbEntity
  8
0
100
AcDbLine
 62
7
  6
CONTINUOUS
 10
5.0889370408
 20
-0.2033370408
 11
4.6034410408
 21
-0.2033370408
  0
LINE
  5
3BC
100
AcDbEntity
  8
0
100
AcDbLine
 62
7
  6
CONTINUOUS
 10
7.8428120408
 20
-0.0626470408
 11
6.7058440408
 21
-0.0626470408
  0
LWPOLYLINE
  5
3BD
100
AcDbEntity
  8
0
100
AcDbPolyline
 62
7
  6
CONTINUOUS
 90
91
 70
0
 10
2.2559205531
 20
-0.4702452333
 10
2.2087794133
 20
-0.4698423734
 10
2.1631909763
 20
-0.4686504325
 10
2.1191552421
 20
-0.4666694104
 10
2.0766843236
 20
-0.4638980161
 10
2.035766108
 20
-0.4603375407
 10
1.9963642566
 20
-0.4559918573
 10
1.9584522573
 20
-0.450855625
 10
1.9220566223
 20
-0.4449341846
 10
1.8872205491
 20
-0.4382474323
 10
1.8539606412
 20
-0.4307682
 10
1.8222602951
 20
-0.4225236556
 10
1.7921128973
 20
-0.4136151995
 10
1.7635829878
 20
-0.4040244248
 10
1.7366060265
 20
-0.3937697383
 10
1.7109817802
 20
-0.3830077596
 10
1.6866888154
 20
-0.3717581298
 10
1.6637485655
 20
-0.3600012078
 10
1.6420250968
 20
-0.3478346904
 10
1.6215323636
 20
-0.335277469
 10
1.6022564116
 20
-0.3223106521
 10
1.5840194443
 20
-0.3089752616
 10
1.5668265933
 20
-0.2953019264
 10
1.550672727
 20
-0.2812600177
 10
1.5353646548
 20
-0.2667986705
 10
1.5208380062
 20
-0.2519128155
 10
1.5071571516
 20
-0.236607522
 10
1.4943220121
 20
-0.2208471331
 10
1.4823325822
 20
-0.2046310328
 10
1.4711888672
 20
-0.187959837
 10
1.4608908042
 20
-0.1707997368
 10
1.4514460604
 20
-0.1531473231
 10
1.4428469684
 20
-0.135006005
 10
1.4350704635
 20
-0.1163522005
 10
1.4281067437
 20
-0.097150451
 10
1.4219656109
 20
-0.0774362152
 10
1.4166534056
 20
-0.0572922867
 10
1.4121816322
 20
-0.0366559467
 10
1.4085387864
 20
-0.0155899141
 10
1.4056966956
 20
0.0056348598
 10
1.4036707263
 20
0.0269832263
 10
1.4024455121
 20
0.0484903341
 10
1.4019467809
 20
0.0699906784
 10
1.4021297716
 20
0.0914786751
 10
1.4030392454
 20
0.1129599082
 10
1.4047352144
 20
0.1342856247
 10
1.4072112985
 20
0.1554458549
 10
1.4104738778
 20
0.1764505685
 10
1.4146021056
 20
0.1971809208
 10
1.419614596
 20
0.2176484762
 10
1.425492735
 20
0.2378416704
 10
1.4322598334
 20
0.257606966
 10
1.4399473403
 20
0.2769317868
 10
1.4485238066
 20
0.2958287089
 10
1.457918197
 20
0.3141819242
 10
1.4680824962
 20
0.3319194155
 10
1.4790647194
 20
0.3491132001
 10
1.490937876
 20
0.3658635208
 10
1.5036787866
 20
0.3821977649
 10
1.5173106306
 20
0.3980885452
 10
1.5319759561
 20
0.4135539424
 10
1.5477854368
 20
0.4286728051
 10
1.5646283991
 20
0.4433662847
 10
1.5823153702
 20
0.4574159164
 10
1.600934983
 20
0.4707763045
 10
1.6203986046
 20
0.4834928448
 10
1.6402508639
 20
0.4954832593
 10
1.6604041376
 20
0.506693888
 10
1.6809460489
 20
0.517178391
 10
1.7016840971
 20
0.5270154709
 10
1.722563267
 20
0.5361927846
 10
1.7436385737
 20
0.5447226754
 10
1.7648825617
 20
0.5527208753
 10
1.786212387
 20
0.5601919426
 10
1.8077108935
 20
0.5671313193
 10
1.8295991581
 20
0.5736410625
 10
1.8518570579
 20
0.5797749693
 10
1.8745047157
 20
0.5854792427
 10
1.8978235768
 20
0.5906945494
 10
1.9218254786
 20
0.5953756968
 10
1.9464985836
 20
0.5995678774
 10
1.9720888247
 20
0.6033473351
 10
1.9985750217
 20
0.6067281168
 10
2.0259783549
 20
0.6096961757
 10
2.0546082974
 20
0.6122856146
 10
2.0844638586
 20
0.6145143942
 10
2.1155460292
 20
0.616364554
 10
2.1481672546
 20
0.6178163151
 10
2.1824316831
 20
0.6188630848
 10
2.2182351663
 20
0.6195114559
 10
2.2555777043
 20
0.6197614284
  0
LWPOLYLINE
  5
3BE
100
AcDbEntity
  8
0
100
AcDbPolyline
 62
7
  6
CONTINUOUS
 90
73
 70
0
 10
-0.3571879592
 20
-0.8241656694
 10
-0.3924005532
 20
-0.8233973229
 10
-0.4274302341
 20
-0.8211199528
 10
-0.4622770018
 20
-0.8173335591
 10
-0.4970108403
 20
-0.8120250503
 10
-0.5315617656
 20
-0.8052075177
 10
-0.565719826
 20
-0.796920235
 10
-0.5994764557
 20
-0.7871554066
 10
-0.6328402207
 20
-0.7759208278
 10
-0.6656268669
 20
-0.7632791586
 10
-0.697823047
 20
-0.7492307286
 10
-0.7294421084
 20
-0.733775208
 10
-0.7603398402
 20
-0.7169742678
 10
-0.7905103958
 20
-0.6988322031
 10
-0.8199596217
 20
-0.6793447185
 10
-0.8485608471
 20
-0.6585605993
 10
-0.8763526598
 20
-0.6364362426
 10
-0.903296472
 20
-0.6130152511
 10
-0.9291498489
 20
-0.5884772178
 10
-0.9538937101
 20
-0.5628053823
 10
-0.977547136
 20
-0.5360165049
 10
-0.9999249341
 20
-0.5083404606
 10
-1.0209811903
 20
-0.4798236278
 10
-1.0407618186
 20
-0.4504196281
 10
-1.0592193679
 20
-0.4202192014
 10
-1.0763612374
 20
-0.3892281626
 10
-1.0921800278
 20
-0.3574406969
 10
-1.1066060912
 20
-0.3249300993
 10
-1.1196601724
 20
-0.2916207977
 10
-1.1313215266
 20
-0.2575883644
 10
-1.1414582705
 20
-0.2231328113
 10
-1.1500414935
 20
-0.1882454206
 10
-1.1571001063
 20
-0.1529349104
 10
-1.1625889581
 20
-0.1175274462
 10
-1.1664879156
 20
-0.0820998279
 10
-1.1688171122
 20
-0.0465752561
 10
-1.1695917973
 20
-0.0110494976
 10
-1.1688221103
 20
0.0244786391
 10
-1.1664979117
 20
0.0600079621
 10
-1.1626040324
 20
0.0954391298
 10
-1.1571211342
 20
0.1308454676
 10
-1.1500685554
 20
0.1661536498
 10
-1.1414891404
 20
0.2010443574
 10
-1.1313529682
 20
0.2355131196
 10
-1.1196899599
 20
0.269564407
 10
-1.1066327239
 20
0.3028923134
 10
-1.0922006961
 20
0.3354213819
 10
-1.0763744406
 20
0.3672270692
 10
-1.0592282582
 20
0.3982298391
 10
-1.0407716625
 20
0.4284315481
 10
-1.0209951399
 20
0.4578303396
 10
-0.9999444509
 20
0.4863411079
 10
-0.9775751381
 20
0.5140103006
 10
-0.953931659
 20
0.5407914702
 10
-0.9291931468
 20
0.5664601678
 10
-0.9033378785
 20
0.59100276
 10
-0.8763875771
 20
0.6144328804
 10
-0.8485865445
 20
0.6365669806
 10
-0.8199719003
 20
0.6573613594
 10
-0.7905065249
 20
0.6768597184
 10
-0.7603233623
 20
0.6950096135
 10
-0.7294193551
 20
0.7118133349
 10
-0.6977975607
 20
0.7272685928
 10
-0.6656000945
 20
0.741316074
 10
-0.6328134607
 20
0.7539566197
 10
-0.5994511551
 20
0.7651893889
 10
-0.5656957806
 20
0.7749525451
 10
-0.5315373284
 20
0.7832386006
 10
-0.4969858074
 20
0.7900550433
 10
-0.462253847
 20
0.7953625006
 10
-0.4274123237
 20
0.7991478482
 10
-0.3923903611
 20
0.8014242106
 10
-0.3571879592
 20
0.8021915877
  0
LINE
  5
3BF
100
AcDbEntity
  8
0
100
AcDbLine
 62
7
  6
CONTINUOUS
 10
4.6446670408
 20
-3.4828400408
 11
5.2663550408
 21
-3.7090300408
  0
LINE
  5
3C0
100
AcDbEntity
  8
0
100
AcDbLine
 62
7
  6
CONTINUOUS
 10
1.4087710408
 20
-1.0733970408
 11
2.4919370408
 21
-1.8361740408
  0
LWPOLYLINE
  5
3C1
100
AcDbEntity
  8
0
100
AcDbPolyline
 62
7
  6
CONTINUOUS
 90
25
 70
0
 10
1.7724870703
 20
-2.4997560408
 10
1.7861029453
 20
-2.5145651239
 10
1.7993624639
 20
-2.5296846443
 10
1.8122656261
 20
-2.5451146016
 10
1.8247951418
 20
-2.5608883367
 10
1.836968301
 20
-2.5769725084
 10
1.8488369746
 20
-2.593267094
 10
1.8604021648
 20
-2.6097585917
 10
1.8716628694
 20
-2.6264605029
 10
1.8826679526
 20
-2.6433133099
 10
1.8934174057
 20
-2.6603147777
 10
1.9039112375
 20
-2.6774671411
 10
1.9141983387
 20
-2.6947175862
 10
1.9242943203
 20
-2.7120484155
 10
1.9341835714
 20
-2.7294773265
 10
1.9438681493
 20
-2.7470045977
 10
1.9533639891
 20
-2.7646203657
 10
1.9626551557
 20
-2.7823344937
 10
1.9716959019
 20
-2.8001768509
 10
1.9804963749
 20
-2.8181487083
 10
1.9890464273
 20
-2.8362487945
 10
1.9972698701
 20
-2.8545031654
 10
2.0051413067
 20
-2.8729205062
 10
2.0126861336
 20
-2.8914921314
 10
2.0199043507
 20
-2.9102180408
  0
LINE
  5
3C2
100
AcDbEntity
  8
0
100
AcDbLine
 62
7
  6
CONTINUOUS
 10
0.0678120408
 20
-5.9872080408
 11
0.0678120408
 21
-6.9109870408
  0
LINE
  5
3C3
100
AcDbEntity
  8
0
100
AcDbLine
 62
7
  6
CONTINUOUS
 10
0.0678120408
 20
-7.1109870408
 11
0.0678120408
 21
-8.0347660408
  0
LINE
  5
3C4
100
AcDbEntity
  8
0
100
AcDbLine
 62
7
  6
CONTINUOUS
 10
0.2293660408
 20
16.9454789592
 11
0.2293660408
 21
15.7904469592
  0
LINE
  5
3C5
100
AcDbEntity
  8
0
100
AcDbLine
 62
7
  6
CONTINUOUS
 10
0.6483230408
 20
16.9454789592
 11
0.6483230408
 21
16.5899739592
  0
LINE
  5
3C6
100
AcDbEntity
  8
0
100
AcDbLine
 62
7
  6
CONTINUOUS
 10
0.6483230408
 20
16.1460949592
 11
0.6483230408
 21
15.7904469592
  0
LINE
  5
3C7
100
AcDbEntity
  8
0
100
AcDbLine
 62
7
  6
CONTINUOUS
 10
1.0928120408
 20
-6.0965140408
 11
1.0928120408
 21
-6.1504600408
  0
LINE
  5
3C8
100
AcDbEntity
  8
0
100
AcDbLine
 62
7
  6
CONTINUOUS
 10
1.0928120408
 20
-7.8715140408
 11
1.0928120408
 21
-7.9254600408
  0
LINE
  5
3C9
100
AcDbEntity
  8
0
100
AcDbLine
 62
7
  6
CONTINUOUS
 10
1.2928120408
 20
-5.9884870408
 11
1.2928120408
 21
-6.2584870408
  0
LINE
  5
3CA
100
AcDbEntity
  8
0
100
AcDbLine
 62
7
  6
CONTINUOUS
 10
1.2928120408
 20
-7.7634870408
 11
1.2928120408
 21
-8.0334870408
  0
LINE
  5
3CB
100
AcDbEntity
  8
0
100
AcDbLine
 62
7
  6
CONTINUOUS
 10
1.4019300408
 20
2.9001099592
 11
1.4019300408
 21
2.767849885
  0
LINE
  5
3CC
100
AcDbEntity
  8
0
100
AcDbLine
 62
7
  6
CONTINUOUS
 10
1.4019300408
 20
-2.2945240408
 11
1.4019300408
 21
-2.4267844569
  0
LINE
  5
3CD
100
AcDbEntity
  8
0
100
AcDbLine
 62
7
  6
CONTINUOUS
 10
1.4087710408
 20
1.6915249592
 11
1.4087710408
 21
1.5239199592
  0
LINE
  5
3CE
100
AcDbEntity
  8
0
100
AcDbLine
 62
7
  6
CONTINUOUS
 10
1.4087710408
 20
-0.9057920408
 11
1.4087710408
 21
-1.0733970408
  0
LWPOLYLINE
  5
3CF
100
AcDbEntity
  8
0
100
AcDbPolyline
 62
7
  6
CONTINUOUS
 90
46
 70
0
 10
0.3215826597
 20
10.9468601842
 10
0.3214988967
 20
10.9305263206
 10
0.3211544057
 20
10.9142114818
 10
0.3205491866
 20
10.8979156676
 10
0.3196999452
 20
10.8816370039
 10
0.3185899757
 20
10.8653773649
 10
0.3171691615
 20
10.8491423743
 10
0.315438936
 20
10.8329284122
 10
0.3133978656
 20
10.8167390985
 10
0.3109915328
 20
10.8005909158
 10
0.3082235466
 20
10.7844868664
 10
0.305090298
 20
10.7684239484
 10
0.301526542
 20
10.7524096379
 10
0.297533964
 20
10.7364157558
 10
0.2931108785
 20
10.7204704816
 10
0.2881869847
 20
10.7046658303
 10
0.2827591051
 20
10.6889892608
 10
0.276830417
 20
10.6734533148
 10
0.2703401513
 20
10.658187632
 10
0.2632719442
 20
10.6431992785
 10
0.2556421595
 20
10.6284811894
 10
0.2474391196
 20
10.6141418081
 10
0.2386651423
 20
10.6002029827
 10
0.2293179099
 20
10.5866428665
 10
0.2193787911
 20
10.5735043615
 10
0.2088127809
 20
10.5607777757
 10
0.1976548843
 20
10.5484728023
 10
0.1859914854
 20
10.5366614212
 10
0.1738105256
 20
10.5253501441
 10
0.1611240636
 20
10.5145324607
 10
0.1480546596
 20
10.5042608177
 10
0.134608187
 20
10.4945513189
 10
0.1207787724
 20
10.4853878618
 10
0.1066713566
 20
10.4767745843
 10
0.092304646
 20
10.4687301145
 10
0.077659934
 20
10.4612358255
 10
0.0627860415
 20
10.4542399727
 10
0.0476736499
 20
10.4477402701
 10
0.0323320777
 20
10.4417390046
 10
0.0168381008
 20
10.4361912915
 10
0.0011993193
 20
10.4310985045
 10
-0.0145918669
 20
10.4264592705
 10
-0.0304814828
 20
10.4222245838
 10
-0.0464515369
 20
10.4183781094
 10
-0.0625200207
 20
10.4149361828
 10
-0.0786869342
 20
10.4118988041
  0
LWPOLYLINE
  5
3D0
100
AcDbEntity
  8
ASSI
100
AcDbPolyline
 62
7
  6
CONTINUOUS
 90
18
 70
0
 10
3.9987447736
 20
23.7397863839
 10
3.9983178523
 20
23.7369944546
 10
3.9972197413
 20
23.7335443765
 10
3.995433478
 20
23.7294361494
 10
3.9929420549
 20
23.7246824337
 10
3.9897311981
 20
23.7192705692
 10
3.9857920679
 20
23.7131625748
 10
3.9811161133
 20
23.7063540084
 10
3.9756938048
 20
23.6988493123
 10
3.9695198621
 20
23.6906238326
 10
3.9626047339
 20
23.6816979518
 10
3.9549328021
 20
23.6720512874
 10
3.9464500662
 20
23.6615980372
 10
3.9371359739
 20
23.6503339333
 10
3.9269879188
 20
23.6382632435
 10
3.9159627964
 20
23.6253129696
 10
3.9040497526
 20
23.6114825656
 10
3.8912403807
 20
23.5967725776
  0
LINE
  5
3D1
100
AcDbEntity
  8
0
100
AcDbLine
 62
7
  6
CONTINUOUS
 10
2.9683439527
 20
10.4465129592
 11
2.9428120408
 21
10.3115129592
  0
LINE
  5
3D2
100
AcDbEntity
  8
0
100
AcDbLine
 62
7
  6
CONTINUOUS
 10
2.9683439527
 20
8.399013045
 11
2.9428120408
 21
8.264013045
  0
LINE
  5
3D3
100
AcDbEntity
  8
0
100
AcDbLine
 62
7
  6
CONTINUOUS
 10
2.9683439527
 20
7.4090129592
 11
2.9428120408
 21
7.2740129592
  0
LINE
  5
3D4
100
AcDbEntity
  8
0
100
AcDbLine
 62
7
  6
CONTINUOUS
 10
2.9683439527
 20
12.4715129592
 11
2.9428120408
 21
12.3590131308
  0
LINE
  5
3D5
100
AcDbEntity
  8
0
100
AcDbLine
 62
7
  6
CONTINUOUS
 10
3.0960035119
 20
10.4015131308
 11
3.0704716001
 21
10.2890127875
  0
LINE
  5
3D6
100
AcDbEntity
  8
0
100
AcDbLine
 62
7
  6
CONTINUOUS
 10
3.0960035119
 20
8.3765128734
 11
3.0704716001
 21
8.264013045
  0
LINE
  5
3D7
100
AcDbEntity
  8
0
100
AcDbLine
 62
7
  6
CONTINUOUS
 10
3.4023865256
 20
9.4340129592
 11
3.3768546138
 21
9.3215128734
  0
LINE
  5
3D8
100
AcDbEntity
  8
0
100
AcDbLine
 62
7
  6
CONTINUOUS
 10
4.1428120408
 20
12.2465127875
 11
4.1172801267
 21
12.1340129592
  0
LINE
  5
3D9
100
AcDbEntity
  8
0
100
AcDbLine
 62
7
  6
CONTINUOUS
 10
3.0960035119
 20
7.3865129163
 11
3.0704716001
 21
7.2740129592
  0
LINE
  5
3DA
100
AcDbEntity
  8
0
100
AcDbLine
 62
7
  6
CONTINUOUS
 10
3.4789822612
 20
12.2690129592
 11
3.4534503493
 21
12.1790127875
  0
LINE
  5
3DB
100
AcDbEntity
  8
0
100
AcDbLine
 62
7
  6
CONTINUOUS
 10
3.6066418204
 20
12.4490127875
 11
3.5811099086
 21
12.3590131308
  0
LINE
  5
3DC
100
AcDbEntity
  8
0
100
AcDbLine
 62
7
  6
CONTINUOUS
 10
4.0151524637
 20
12.2690129592
 11
3.9896205518
 21
12.1790127875
  0
LINE
  5
3DD
100
AcDbEntity
  8
0
100
AcDbLine
 62
7
  6
CONTINUOUS
 10
3.5300460849
 20
9.411513045
 11
3.504514173
 21
9.3215128734
  0
LINE
  5
3DE
100
AcDbEntity
  8
0
100
AcDbLine
 62
7
  6
CONTINUOUS
 10
4.0151524637
 20
9.1865128734
 11
3.9896205518
 21
9.0965129592
  0
LINE
  5
3DF
100
AcDbEntity
  8
SMUSSO
100
AcDbLine
 62
7
  6
CONTINUOUS
 10
8.4911768119
 20
20.4340794108
 11
8.6426981077
 21
20.8890129592
  0
LINE
  5
3E0
100
AcDbEntity
  8
0
100
AcDbLine
 62
7
  6
CONTINUOUS
 10
5.8416090408
 20
3.0880169592
 11
4.7045180408
 21
2.3723759592
  0
LINE
  5
3E1
100
AcDbEntity
  8
0
100
AcDbLine
 62
7
  6
CONTINUOUS
 10
5.5788040408
 20
3.1171999592
 11
4.4416090408
 21
2.4133859592
  0
LWPOLYLINE
  5
3E2
100
AcDbEntity
  8
0
100
AcDbPolyline
 62
7
  6
CONTINUOUS
 90
91
 70
0
 10
2.2549220822
 20
0.4088290566
 10
2.2216133235
 20
0.4086580857
 10
2.1892318172
 20
0.4081638803
 10
2.1577775634
 20
0.4073464404
 10
2.1272505746
 20
0.4062058598
 10
2.0976508382
 20
0.4047420448
 10
2.0689783162
 20
0.4029547136
 10
2.0412282673
 20
0.4008430741
 10
2.0144054328
 20
0.3984079184
 10
1.9885239987
 20
0.3956513415
 10
1.9635903993
 20
0.3925736592
 10
1.9395982002
 20
0.3891745557
 10
1.9165422846
 20
0.3854551778
 10
1.8944616807
 20
0.3814289148
 10
1.8733173603
 20
0.3770823774
 10
1.8529871221
 20
0.372376544
 10
1.8334560902
 20
0.3673264632
 10
1.8147391405
 20
0.3619170864
 10
1.7967586997
 20
0.3560642464
 10
1.7795057417
 20
0.3498019276
 10
1.7629892926
 20
0.3430961456
 10
1.7471588568
 20
0.3357607796
 10
1.7320391934
 20
0.3277237393
 10
1.7176055433
 20
0.319057115
 10
1.7037331343
 20
0.3097910563
 10
1.6903713083
 20
0.2998789488
 10
1.6775707234
 20
0.2893674068
 10
1.6653585812
 20
0.2784264231
 10
1.6537008885
 20
0.2671099383
 10
1.6426316385
 20
0.2553640116
 10
1.6322800123
 20
0.2431968134
 10
1.6226498774
 20
0.2305860305
 10
1.6137373663
 20
0.2175539759
 10
1.6056600582
 20
0.204175759
 10
1.5984444145
 20
0.1904539323
 10
1.5920639737
 20
0.1763859433
 10
1.5865569314
 20
0.162039244
 10
1.5819402384
 20
0.1474056225
 10
1.5781969439
 20
0.1324932907
 10
1.5753143909
 20
0.1173943357
 10
1.5733077022
 20
0.1020922701
 10
1.572161755
 20
0.0866035813
 10
1.5718185237
 20
0.0710698186
 10
1.5722677011
 20
0.0553919801
 10
1.5735195945
 20
0.0396690678
 10
1.5755470995
 20
0.0243396363
 10
1.5783418395
 20
0.0095565086
 10
1.5819121912
 20
-0.0048331383
 10
1.5862561801
 20
-0.0188492185
 10
1.5913584035
 20
-0.0324788297
 10
1.5972342643
 20
-0.0457348743
 10
1.6039279965
 20
-0.0586759736
 10
1.6115054861
 20
-0.0713823364
 10
1.6199008471
 20
-0.0837737538
 10
1.6289606556
 20
-0.0956682212
 10
1.6386346404
 20
-0.1069788352
 10
1.6489730726
 20
-0.117792499
 10
1.6599733416
 20
-0.1281879178
 10
1.6715994705
 20
-0.1382046451
 10
1.6838874361
 20
-0.1478031274
 10
1.6969425584
 20
-0.1569434087
 10
1.7108768805
 20
-0.1656294275
 10
1.7255783592
 20
-0.1738572453
 10
1.7408161842
 20
-0.1815750905
 10
1.7566445614
 20
-0.1887650671
 10
1.7730092848
 20
-0.195445071
 10
1.7895169262
 20
-0.2016170194
 10
1.806077563
 20
-0.2072446077
 10
1.8227811178
 20
-0.2123641405
 10
1.8395039295
 20
-0.2170864484
 10
1.8561992855
 20
-0.2214149773
 10
1.8729138985
 20
-0.2253462812
 10
1.8896642448
 20
-0.2289808528
 10
1.9064010966
 20
-0.2323251158
 10
1.9231736818
 20
-0.2353726464
 10
1.9401461607
 20
-0.2382046659
 10
1.9573075245
 20
-0.2408338094
 10
1.9746687821
 20
-0.2432474418
 10
1.9924271198
 20
-0.2454888794
 10
2.0105812282
 20
-0.2475683063
 10
2.0291324166
 20
-0.2494755384
 10
2.0482817995
 20
-0.2512233404
 10
2.0680250663
 20
-0.2528190682
 10
2.0883665276
 20
-0.2542553658
 10
2.1095202289
 20
-0.2555229303
 10
2.1314837048
 20
-0.2566280438
 10
2.1542594209
 20
-0.2575644243
 10
2.1780688195
 20
-0.2583039229
 10
2.2029857148
 20
-0.2588371566
 10
2.2289362927
 20
-0.2591735084
 10
2.2559205531
 20
-0.2593129784
  0
LWPOLYLINE
  5
3E3
100
AcDbEntity
  8
0
100
AcDbPolyline
 62
7
  6
CONTINUOUS
 90
43
 70
0
 10
4.8461889275
 20
0.457221716
 10
4.8362176249
 20
0.4571734695
 10
4.8262563172
 20
0.4569044875
 10
4.8163050042
 20
0.4564147701
 10
4.8063495102
 20
0.4557503506
 10
4.7964040109
 20
0.4548651957
 10
4.7865110339
 20
0.4536212055
 10
4.7766655501
 20
0.4520153871
 10
4.7668725885
 20
0.4500507335
 10
4.7571897645
 20
0.4475981233
 10
4.747615959
 20
0.4446167547
 10
4.7381522911
 20
0.4411474295
 10
4.7288597325
 20
0.4371834319
 10
4.7197216148
 20
0.4327075345
 10
4.7107546064
 20
0.4277369646
 10
4.7020696849
 20
0.4223166893
 10
4.6936664407
 20
0.4164400345
 10
4.6855452835
 20
0.4101136742
 10
4.6778184194
 20
0.4034025975
 10
4.6705132614
 20
0.3963105276
 10
4.6636023965
 20
0.3888337413
 10
4.6571157923
 20
0.3810260582
 10
4.6510686248
 20
0.3728805987
 10
4.645445718
 20
0.3644042423
 10
4.6402315117
 20
0.3556714475
 10
4.6354218082
 20
0.3466700629
 10
4.6310208051
 20
0.3374122398
 10
4.6270255356
 20
0.3280088908
 10
4.6234541224
 20
0.3184639485
 10
4.6202884428
 20
0.3087734803
 10
4.6174711615
 20
0.2990366005
 10
4.6150149912
 20
0.2892747555
 10
4.6129072191
 20
0.2794664988
 10
4.6110523716
 20
0.269646605
 10
4.609444081
 20
0.2598270033
 10
4.608088715
 20
0.2499957646
 10
4.6069099031
 20
0.2401518757
 10
4.6058803692
 20
0.2302962415
 10
4.6050273893
 20
0.2204279571
 10
4.6043564208
 20
0.2105432946
 10
4.6038692828
 20
0.2006410114
 10
4.6035641561
 20
0.1907223501
 10
4.6034410408
 20
0.1807873107
  0
LINE
  5
3E4
100
AcDbEntity
  8
0
100
AcDbLine
 62
7
  6
CONTINUOUS
 10
7.5800100408
 20
0.6822349592
 11
6.4428120408
 21
0.6822349592
  0
LINE
  5
3E5
100
AcDbEntity
  8
0
100
AcDbLine
 62
7
  6
CONTINUOUS
 10
2.6800650408
 20
0.7611429592
 11
2.4919370408
 21
0.7611429592
  0
LINE
  5
3E6
100
AcDbEntity
  8
0
100
AcDbLine
 62
7
  6
CONTINUOUS
 10
7.8428120408
 20
0.8655089592
 11
6.4428120408
 21
0.8655089592
  0
LINE
  5
3E7
100
AcDbEntity
  8
0
100
AcDbLine
 62
7
  6
CONTINUOUS
 10
5.8416090408
 20
0.9080409592
 11
4.4416090408
 21
0.9080409592
  0
LINE
  5
3E8
100
AcDbEntity
  8
0
100
AcDbLine
 62
7
  6
CONTINUOUS
 10
5.6739190408
 20
1.0971759592
 11
5.2059990408
 21
1.0971759592
  0
LINE
  5
3E9
100
AcDbEntity
  8
0
100
AcDbLine
 62
7
  6
CONTINUOUS
 10
5.0383090408
 20
1.0971759592
 11
4.6093000408
 21
1.0971759592
  0
LINE
  5
3EA
100
AcDbEntity
  8
0
100
AcDbLine
 62
7
  6
CONTINUOUS
 10
3.0802670408
 20
1.4862939592
 11
2.6800650408
 21
1.4862939592
  0
LINE
  5
3EB
100
AcDbEntity
  8
0
100
AcDbLine
 62
7
  6
CONTINUOUS
 10
2.4919370408
 20
1.4862939592
 11
1.7382810408
 21
1.4862939592
  0
LINE
  5
3EC
100
AcDbEntity
  8
0
100
AcDbLine
 62
7
  6
CONTINUOUS
 10
3.0802670408
 20
1.6915249592
 11
2.6800650408
 21
1.6915249592
  0
LINE
  5
3ED
100
AcDbEntity
  8
0
100
AcDbLine
 62
7
  6
CONTINUOUS
 10
2.4919370408
 20
1.6915249592
 11
1.4087710408
 21
1.6915249592
  0
LINE
  5
3EE
100
AcDbEntity
  8
0
100
AcDbLine
 62
7
  6
CONTINUOUS
 10
7.8428120408
 20
1.7331799592
 11
6.4428120408
 21
1.7331799592
  0
LINE
  5
3EF
100
AcDbEntity
  8
0
100
AcDbLine
 62
7
  6
CONTINUOUS
 10
5.2059990408
 20
1.8635559592
 11
5.0383090408
 21
1.8635559592
  0
LINE
  5
3F0
100
AcDbEntity
  8
0
100
AcDbLine
 62
7
  6
CONTINUOUS
 10
2.6800650408
 20
1.9172799592
 11
2.4919370408
 21
1.9172799592
  0
LINE
  5
3F1
100
AcDbEntity
  8
0
100
AcDbLine
 62
7
  6
CONTINUOUS
 10
7.8428120408
 20
1.9223639592
 11
6.4428120408
 21
1.9223639592
  0
LINE
  5
3F2
100
AcDbEntity
  8
0
100
AcDbLine
 62
7
  6
CONTINUOUS
 10
4.6093000408
 20
1.9278909592
 11
4.4416090408
 21
1.9278909592
  0
LINE
  5
3F3
100
AcDbEntity
  8
0
100
AcDbLine
 62
7
  6
CONTINUOUS
 10
5.8416090408
 20
1.9414869592
 11
5.6739190408
 21
1.9414869592
  0
LWPOLYLINE
  5
3F4
100
AcDbEntity
  8
0
100
AcDbPolyline
 62
7
  6
CONTINUOUS
 90
34
 70
0
 10
4.8461889275
 20
0.652074794
 10
4.8674732328
 20
0.6519925102
 10
4.8883037475
 20
0.6510189156
 10
4.9086804715
 20
0.6491540103
 10
4.9286260945
 20
0.6463574737
 10
4.9481179269
 20
0.6426696263
 10
4.9670878994
 20
0.63821143
 10
4.9854958575
 20
0.6330130255
 10
5.0033819559
 20
0.6270442722
 10
5.0207985891
 20
0.6203357092
 10
5.0377977833
 20
0.6128981831
 10
5.0543275124
 20
0.6047208474
 10
5.0702840932
 20
0.5958017015
 10
5.0856711494
 20
0.5861233433
 10
5.1004850573
 20
0.5757031748
 10
5.1146112622
 20
0.5645914015
 10
5.1280002742
 20
0.5528105806
 10
5.1407015832
 20
0.5403381548
 10
5.1527491037
 20
0.5271566578
 10
5.164154837
 20
0.5132733608
 10
5.1749067817
 20
0.4986809925
 10
5.185002849
 20
0.483340273
 10
5.194449657
 20
0.4672310601
 10
5.2032405877
 20
0.450373496
 10
5.2113536977
 20
0.4327887276
 10
5.218800059
 20
0.4145309144
 10
5.2255685998
 20
0.3955458968
 10
5.2316041614
 20
0.3756923433
 10
5.2369456395
 20
0.354949968
 10
5.2415541385
 20
0.3333390566
 10
5.2452578127
 20
0.3107791352
 10
5.2479993802
 20
0.2872433789
 10
5.2498361229
 20
0.2627586124
 10
5.2507680408
 20
0.2373248357
  0
LWPOLYLINE
  5
3F5
100
AcDbEntity
  8
0
100
AcDbPolyline
 62
7
  6
CONTINUOUS
 90
88
 70
0
 10
2.2555777043
 20
0.6197614284
 10
2.3020958503
 20
0.6193759362
 10
2.3471369903
 20
0.6182136025
 10
2.3907011241
 20
0.6162744275
 10
2.4327843839
 20
0.6135579121
 10
2.4733906376
 20
0.6100645553
 10
2.5125314892
 20
0.6057958538
 10
2.5502322276
 20
0.6007448316
 10
2.586467564
 20
0.5949184647
 10
2.621173236
 20
0.5883391768
 10
2.6543338389
 20
0.5809811065
 10
2.6859647774
 20
0.5728701152
 10
2.7160480032
 20
0.5641062107
 10
2.7445111246
 20
0.5546725837
 10
2.7714265333
 20
0.5445860433
 10
2.7969933559
 20
0.5339970248
 10
2.8212258503
 20
0.5229271539
 10
2.8441097586
 20
0.5113548048
 10
2.8658014337
 20
0.4993655345
 10
2.8862897964
 20
0.4869800704
 10
2.905585926
 20
0.474177685
 10
2.9238794131
 20
0.4609817534
 10
2.9411773519
 20
0.4474133385
 10
2.9574726483
 20
0.4334513772
 10
2.9729336096
 20
0.4190560562
 10
2.9876442978
 20
0.4041819726
 10
3.0015206509
 20
0.3888745292
 10
3.0144787909
 20
0.3732301212
 10
3.0264957313
 20
0.3572326299
 10
3.0375944585
 20
0.340898174
 10
3.0477600537
 20
0.3243715055
 10
3.0569377396
 20
0.3077122915
 10
3.0651822935
 20
0.2908608649
 10
3.0726431283
 20
0.273782976
 10
3.0793375017
 20
0.2564935192
 10
3.085248156
 20
0.2389776001
 10
3.0904727312
 20
0.2211562867
 10
3.0950312918
 20
0.2029968728
 10
3.0989037733
 20
0.1845320646
 10
3.1021276216
 20
0.1657810485
 10
3.1047026509
 20
0.1466883402
 10
3.106629047
 20
0.127309424
 10
3.1079448135
 20
0.1078299405
 10
3.1086562402
 20
0.0882128948
 10
3.1087570373
 20
0.0684952817
 10
3.1082663387
 20
0.0489737261
 10
3.1071917318
 20
0.0296939689
 10
3.1055256292
 20
0.0106102692
 10
3.103264403
 20
-0.0081179699
 10
3.1004830201
 20
-0.0262385249
 10
3.0971065135
 20
-0.0440036194
 10
3.0929063545
 20
-0.0620105212
 10
3.0878385431
 20
-0.080573415
 10
3.0819470793
 20
-0.099378116
 10
3.0751354342
 20
-0.1180793383
 10
3.0673438511
 20
-0.1366864289
 10
3.0586320867
 20
-0.1551900407
 10
3.0490828822
 20
-0.1732168469
 10
3.0387173548
 20
-0.1906528569
 10
3.0275143872
 20
-0.2076120614
 10
3.0154933695
 20
-0.2240631052
 10
3.0026772206
 20
-0.2399821728
 10
2.9890430215
 20
-0.2553930799
 10
2.9745414052
 20
-0.2703359186
 10
2.9592239054
 20
-0.2848122101
 10
2.9430389883
 20
-0.2988204334
 10
2.9257826856
 20
-0.312396117
 10
2.9074373913
 20
-0.3255608218
 10
2.8880207114
 20
-0.3382929869
 10
2.8673814952
 20
-0.350563458
 10
2.8455051189
 20
-0.3623850727
 10
2.8224062063
 20
-0.3737449935
 10
2.7979774779
 20
-0.3845755533
 10
2.7722398958
 20
-0.3948734618
 10
2.7451724981
 20
-0.4046420095
 10
2.7166051191
 20
-0.4138234013
 10
2.6864850261
 20
-0.4224316386
 10
2.6548649519
 20
-0.4304527201
 10
2.6217329298
 20
-0.4377868463
 10
2.5870765131
 20
-0.4444247018
 10
2.5509081485
 20
-0.4503756021
 10
2.513253209
 20
-0.4555676946
 10
2.4741288816
 20
-0.4599917078
 10
2.4335179793
 20
-0.4636569132
 10
2.3913943141
 20
-0.4665192723
 10
2.3477491567
 20
-0.4685641056
 10
2.3025912364
 20
-0.4698060926
 10
2.2559205531
 20
-0.4702452333
  0
LWPOLYLINE
  5
3F6
100
AcDbEntity
  8
0
100
AcDbPolyline
 62
7
  6
CONTINUOUS
 90
73
 70
0
 10
-0.3571879592
 20
0.8021915877
 10
-0.3219747468
 20
0.8014232152
 10
-0.2869444523
 20
0.799145765
 10
-0.2520970758
 20
0.7953592371
 10
-0.2173626287
 20
0.7900505395
 10
-0.1828110995
 20
0.783232764
 10
-0.1486524538
 20
0.7749451861
 10
-0.1148952545
 20
0.7651800073
 10
-0.0815309388
 20
0.7539450259
 10
-0.0487437832
 20
0.7413029129
 10
-0.0165471453
 20
0.7272540015
 10
0.0150723325
 20
0.7117979581
 10
0.045970446
 20
0.6949964534
 10
0.076141356
 20
0.6768537786
 10
0.1055909017
 20
0.657365642
 10
0.1341923965
 20
0.6365808403
 10
0.1619844229
 20
0.614455773
 10
0.1889283984
 20
0.5910340402
 10
0.2147818889
 20
0.5664952389
 10
0.2395258145
 20
0.5408226083
 10
0.2631792551
 20
0.5140329089
 10
0.2855570162
 20
0.4863560199
 10
0.3066132162
 20
0.4578382463
 10
0.3263937368
 20
0.428433283
 10
0.3448510282
 20
0.3982320937
 10
0.3619924701
 20
0.3672404063
 10
0.3778106829
 20
0.3354524929
 10
0.3922359776
 20
0.3029421342
 10
0.4052889969
 20
0.2696338857
 10
0.4169490982
 20
0.2356031919
 10
0.4270846639
 20
0.2011501668
 10
0.4356667736
 20
0.1662661632
 10
0.4427243479
 20
0.1309598285
 10
0.4482125309
 20
0.0955572185
 10
0.4521113282
 20
0.0601360682
 10
0.4544407342
 20
0.0246186429
 10
0.4552158769
 20
-0.0109022062
 10
0.4544469567
 20
-0.0464293612
 10
0.4521237733
 20
-0.0819599396
 10
0.4482308527
 20
-0.1173924437
 10
0.4427487587
 20
-0.1527994971
 10
0.4356969276
 20
-0.1881084759
 10
0.4271181945
 20
-0.2230000102
 10
0.4169826375
 20
-0.257469616
 10
0.4053201785
 20
-0.2915217772
 10
0.3922634182
 20
-0.3248505755
 10
0.3778317798
 20
-0.3573805677
 10
0.3620058402
 20
-0.389187197
 10
0.34485993
 20
-0.4201908741
 10
0.3264035799
 20
-0.4503934261
 10
0.3066272593
 20
-0.4797930261
 10
0.285576707
 20
-0.5083046044
 10
0.2632074579
 20
-0.5359746264
 10
0.2395639771
 20
-0.5627566269
 10
0.214825399
 20
-0.5884261402
 10
0.1889699976
 20
-0.6129695334
 10
0.1620194989
 20
-0.6364004397
 10
0.1342182151
 20
-0.6585352923
 10
0.1056032598
 20
-0.6793303896
 10
0.0761375195
 20
-0.6988294337
 10
0.0459539658
 20
-0.7169799639
 10
0.015049553
 20
-0.7337842628
 10
-0.0165726731
 20
-0.7492400481
 10
-0.0487706036
 20
-0.7632880115
 10
-0.0815577415
 20
-0.7759289979
 10
-0.1149205838
 20
-0.7871621627
 10
-0.148676513
 20
-0.7969256633
 10
-0.1828355354
 20
-0.8052120105
 10
-0.2173876447
 20
-0.8120286937
 10
-0.2521202053
 20
-0.8173363386
 10
-0.2869623386
 20
-0.8211218204
 10
-0.3219849233
 20
-0.8233982639
 10
-0.3571879592
 20
-0.8241656694
  0
LINE
  5
3F7
100
AcDbEntity
  8
0
100
AcDbLine
 62
7
  6
CONTINUOUS
 10
1.7382810408
 20
-1.1110230408
 11
2.4919370408
 21
-1.6343630408
  0
LWPOLYLINE
  5
3F8
100
AcDbEntity
  8
0
100
AcDbPolyline
 62
7
  6
CONTINUOUS
 90
31
 70
0
 10
1.8215139831
 20
-2.9102180408
 10
1.8076014783
 20
-2.8817015363
 10
1.7937792825
 20
-2.854600672
 10
1.7800473957
 20
-2.8289154495
 10
1.7663940272
 20
-2.8047400524
 10
1.7528309677
 20
-2.7819802995
 10
1.7393935888
 20
-2.7603536446
 10
1.7261042203
 20
-2.7398585366
 10
1.7129405326
 20
-2.7204965282
 10
1.6998709078
 20
-2.7019897291
 10
1.686907851
 20
-2.684323598
 10
1.6740388572
 20
-2.6675126772
 10
1.6611947943
 20
-2.6513227015
 10
1.6483844334
 20
-2.6357498103
 10
1.6355990033
 20
-2.6207978647
 10
1.622743058
 20
-2.606244182
 10
1.6098382587
 20
-2.5920678347
 10
1.5968629442
 20
-2.5782897506
 10
1.5836566847
 20
-2.5647500291
 10
1.5701925948
 20
-2.5513850119
 10
1.55649756
 20
-2.5382583576
 10
1.5424918065
 20
-2.5254011401
 10
1.528154319
 20
-2.5127823115
 10
1.5135061128
 20
-2.5004329201
 10
1.49853046
 20
-2.4884771844
 10
1.4832157351
 20
-2.4768999747
 10
1.4675735637
 20
-2.465716421
 10
1.4516220937
 20
-2.4550961314
 10
1.4353673746
 20
-2.445095642
 10
1.418803357
 20
-2.4356584171
 10
1.4019300408
 20
-2.4267844569
  0
LINE
  5
3F9
100
AcDbEntity
  8
SMUSSO
100
AcDbLine
 62
7
  6
CONTINUOUS
 10
8.6426981077
 20
-20.9109870408
 11
8.4911768119
 21
-20.4560534924
  0
LINE
  5
3FA
100
AcDbEntity
  8
0
100
AcDbLine
 62
7
  6
CONTINUOUS
 10
-0.112444912
 20
10.621678666
 11
-0.0786869342
 21
10.4118988041
  0
LINE
  5
3FB
100
AcDbEntity
  8
0
100
AcDbLine
 62
7
  6
CONTINUOUS
 10
-0.6308659734
 20
11.402928061
 11
-0.6019310179
 21
11.1955593803
  0
LINE
  5
3FC
100
AcDbEntity
  8
0
100
AcDbLine
 62
7
  6
CONTINUOUS
 10
1.8197720408
 20
-12.3758750408
 11
1.8197720408
 21
-13.8363791528
  0
LINE
  5
3FD
100
AcDbEntity
  8
0
100
AcDbLine
 62
7
  6
CONTINUOUS
 10
2.4919370408
 20
1.9172799592
 11
2.4919370408
 21
1.6915249592
  0
LINE
  5
3FE
100
AcDbEntity
  8
0
100
AcDbLine
 62
7
  6
CONTINUOUS
 10
2.4919370408
 20
1.4862939592
 11
2.4919370408
 21
0.9629539592
  0
LINE
  5
3FF
100
AcDbEntity
  8
0
100
AcDbLine
 62
7
  6
CONTINUOUS
 10
2.4919370408
 20
-0.6800370408
 11
2.4919370408
 21
-0.9057920408
  0
LINE
  5
400
100
AcDbEntity
  8
0
100
AcDbLine
 62
7
  6
CONTINUOUS
 10
2.4919370408
 20
-1.1110230408
 11
2.4919370408
 21
-1.6343630408
  0
LINE
  5
401
100
AcDbEntity
  8
0
100
AcDbLine
 62
7
  6
CONTINUOUS
 10
2.5697720408
 20
-12.3758750408
 11
2.5697720408
 21
-13.8363760408
  0
LINE
  5
402
100
AcDbEntity
  8
RACCORDO
100
AcDbLine
 62
7
  6
CONTINUOUS
 10
2.6428120408
 20
-21.0109870408
 11
2.6428120408
 21
-22.402260173
  0
LINE
  5
403
100
AcDbEntity
  8
RACCORDO
100
AcDbLine
 62
7
  6
CONTINUOUS
 10
2.6428120408
 20
20.9890129592
 11
2.6428120408
 21
22.3802860914
  0
LINE
  5
404
100
AcDbEntity
  8
0
100
AcDbLine
 62
7
  6
CONTINUOUS
 10
2.6800650408
 20
1.9172799592
 11
2.6800650408
 21
1.6915249592
  0
LINE
  5
405
100
AcDbEntity
  8
0
100
AcDbLine
 62
7
  6
CONTINUOUS
 10
2.6800650408
 20
1.4862939592
 11
2.6800650408
 21
0.7611429592
  0
LINE
  5
406
100
AcDbEntity
  8
0
100
AcDbLine
 62
7
  6
CONTINUOUS
 10
2.6800650408
 20
-0.6800370408
 11
2.6800650408
 21
-0.9057920408
  0
LINE
  5
407
100
AcDbEntity
  8
0
100
AcDbLine
 62
7
  6
CONTINUOUS
 10
2.6800650408
 20
-1.1110230408
 11
2.6800650408
 21
-1.8361740408
  0
LINE
  5
408
100
AcDbEntity
  8
0
100
AcDbLine
 62
7
  6
CONTINUOUS
 10
2.9428120408
 20
12.3590131308
 11
2.9428120408
 21
12.2690129592
  0
LINE
  5
409
100
AcDbEntity
  8
0
100
AcDbLine
 62
7
  6
CONTINUOUS
 10
2.9428120408
 20
11.5040127875
 11
2.9428120408
 21
11.3690127875
  0
LINE
  5
40A
100
AcDbEntity
  8
0
100
AcDbLine
 62
7
  6
CONTINUOUS
 10
2.9428120408
 20
10.3115129592
 11
2.9428120408
 21
10.2215127875
  0
LINE
  5
40B
100
AcDbEntity
  8
0
100
AcDbLine
 62
7
  6
CONTINUOUS
 10
2.9428120408
 20
9.614013045
 11
2.9428120408
 21
8.8490128734
  0
LINE
  5
40C
100
AcDbEntity
  8
0
100
AcDbLine
 62
7
  6
CONTINUOUS
 10
2.9428120408
 20
6.3290129592
 11
2.9428120408
 21
6.1490129699
  0
LINE
  5
40D
100
AcDbEntity
  8
0
100
AcDbLine
 62
7
  6
CONTINUOUS
 10
3.0704716001
 20
12.3590131308
 11
3.0704716001
 21
12.2690129592
  0
LINE
  5
40E
100
AcDbEntity
  8
0
100
AcDbLine
 62
7
  6
CONTINUOUS
 10
3.0704716001
 20
10.2890127875
 11
3.0704716001
 21
10.1990131308
  0
LINE
  5
40F
100
AcDbEntity
  8
0
100
AcDbLine
 62
7
  6
CONTINUOUS
 10
3.0704716001
 20
9.614013045
 11
3.0704716001
 21
8.9615129592
  0
LINE
  5
410
100
AcDbEntity
  8
0
100
AcDbLine
 62
7
  6
CONTINUOUS
 10
3.0802670408
 20
2.9001099592
 11
3.0802670408
 21
2.6948789592
  0
LINE
  5
411
100
AcDbEntity
  8
0
100
AcDbLine
 62
7
  6
CONTINUOUS
 10
3.0802670408
 20
1.6915249592
 11
3.0802670408
 21
1.4862939592
  0
LINE
  5
412
100
AcDbEntity
  8
0
100
AcDbLine
 62
7
  6
CONTINUOUS
 10
3.0802670408
 20
-0.9057920408
 11
3.0802670408
 21
-1.1110230408
  0
LINE
  5
413
100
AcDbEntity
  8
0
100
AcDbLine
 62
7
  6
CONTINUOUS
 10
3.0802670408
 20
-2.2945240408
 11
3.0802670408
 21
-2.4997560408
  0
LINE
  5
414
100
AcDbEntity
  8
ASSI
100
AcDbLine
 62
7
  6
CONTINUOUS
 10
3.1428120408
 20
-22.344906936
 11
3.1428120408
 21
-23.805169211
  0
LINE
  5
415
100
AcDbEntity
  8
RACCORDO
100
AcDbLine
 62
7
  6
CONTINUOUS
 10
3.1428120408
 20
22.3229328544
 11
3.1428120408
 21
23.7401552495
  0
LINE
  5
416
100
AcDbEntity
  8
ASSI
100
AcDbLine
 62
7
  6
CONTINUOUS
 10
3.1428120408
 20
22.3229328544
 11
3.1428120408
 21
23.7831951294
  0
LINE
  5
417
100
AcDbEntity
  8
0
100
AcDbLine
 62
7
  6
CONTINUOUS
 10
3.2236630712
 20
9.9740129592
 11
3.2236630712
 21
9.8615128734
  0
LINE
  5
418
100
AcDbEntity
  8
0
100
AcDbLine
 62
7
  6
CONTINUOUS
 10
3.3768546138
 20
9.3215128734
 11
3.3768546138
 21
9.1865128734
  0
LWPOLYLINE
  5
419
100
AcDbEntity
  8
0
100
AcDbPolyline
 62
7
  6
CONTINUOUS
 90
52
 70
0
 10
1.8281168557
 20
9.1892473383
 10
1.8266720317
 20
9.0889067701
 10
1.8225043152
 20
8.9892040688
 10
1.8156137062
 20
8.8901392451
 10
1.8059492898
 20
8.7915390297
 10
1.7935619808
 20
8.6935767121
 10
1.7786045244
 20
8.5967721472
 10
1.7610718599
 20
8.5012043783
 10
1.7409690479
 20
8.4067943931
 10
1.7184640152
 20
8.3138249709
 10
1.6935248835
 20
8.2222434577
 10
1.666183531
 20
8.1321025403
 10
1.6367035192
 20
8.0438430152
 10
1.6050598749
 20
7.9574856912
 10
1.5712775713
 20
7.8730097969
 10
1.5356950891
 20
7.7907937645
 10
1.4983463288
 20
7.7109459364
 10
1.45919739
 20
7.6333580095
 10
1.4184850525
 20
7.5580834495
 10
1.3761881368
 20
7.4850945928
 10
1.3323278224
 20
7.4144191375
 10
1.2872044282
 20
7.346193592
 10
1.2408151304
 20
7.2804372841
 10
1.1931627528
 20
7.2171309176
 10
1.1445560856
 20
7.1563530653
 10
1.0950614359
 20
7.0981785512
 10
1.0446124966
 20
7.0425325793
 10
0.9933191377
 20
6.989269291
 10
0.9411515619
 20
6.9383464264
 10
0.8881395665
 20
6.8898062674
 10
0.834482413
 20
6.8436297663
 10
0.7801626955
 20
6.7998114593
 10
0.72519782
 20
6.7583568286
 10
0.6698392662
 20
6.7192632445
 10
0.6141046137
 20
6.6825520369
 10
0.557976283
 20
6.6482018909
 10
0.5016530151
 20
6.6161462093
 10
0.4451976904
 20
6.5864121862
 10
0.3885474287
 20
6.558972639
 10
0.3317123296
 20
6.5336794039
 10
0.2746551303
 20
6.5105044414
 10
0.2174130937
 20
6.4894757992
 10
0.160108109
 20
6.4705294437
 10
0.1027789312
 20
6.4536702934
 10
0.0453868054
 20
6.4388934356
 10
-0.0120626439
 20
6.4261200893
 10
-0.0695958353
 20
6.4153384553
 10
-0.1271863501
 20
6.4065603364
 10
-0.1847493079
 20
6.3997423535
 10
-0.2422564153
 20
6.3948700477
 10
-0.2997359657
 20
6.3919578796
 10
-0.3571879592
 20
6.3910058499
  0
LINE
  5
41A
100
AcDbEntity
  8
0
100
AcDbLine
 62
7
  6
CONTINUOUS
 10
4.1428120408
 20
8.264013045
 11
4.1172801267
 21
8.129013045
  0
LINE
  5
41B
100
AcDbEntity
  8
0
100
AcDbLine
 62
7
  6
CONTINUOUS
 10
4.1428120408
 20
7.2740129592
 11
4.1172801267
 21
7.1390129592
  0
LINE
  5
41C
100
AcDbEntity
  8
0
100
AcDbLine
 62
7
  6
CONTINUOUS
 10
4.1428120408
 20
9.1865128734
 11
4.1172801267
 21
9.074013045
  0
LINE
  5
41D
100
AcDbEntity
  8
0
100
AcDbLine
 62
7
  6
CONTINUOUS
 10
4.0151524637
 20
8.264013045
 11
3.9896205518
 21
8.1515129592
  0
LINE
  5
41E
100
AcDbEntity
  8
0
100
AcDbLine
 62
7
  6
CONTINUOUS
 10
4.0151524637
 20
7.2740129592
 11
3.9896205518
 21
7.1615130021
  0
LINE
  5
41F
100
AcDbEntity
  8
SMUSSO
100
AcDbLine
 62
7
  6
CONTINUOUS
 10
9.2407615493
 20
19.6814615861
 11
9.3928120408
 21
20.137984013
  0
LINE
  5
420
100
AcDbEntity
  8
0
100
AcDbLine
 62
7
  6
CONTINUOUS
 10
7.8428120408
 20
0.6529779592
 11
6.7058440408
 21
-0.0626470408
  0
LINE
  5
421
100
AcDbEntity
  8
0
100
AcDbLine
 62
7
  6
CONTINUOUS
 10
7.5800100408
 20
0.6822349592
 11
6.4428120408
 21
-0.0217280408
  0
LINE
  5
422
100
AcDbEntity
  8
0
100
AcDbLine
 62
7
  6
CONTINUOUS
 10
6.6104950408
 20
2.1251579592
 11
6.4428120408
 21
2.1251579592
  0
LINE
  5
423
100
AcDbEntity
  8
0
100
AcDbLine
 62
7
  6
CONTINUOUS
 10
5.8416090408
 20
2.1890989592
 11
4.4416090408
 21
2.1890989592
  0
LINE
  5
424
100
AcDbEntity
  8
0
100
AcDbLine
 62
7
  6
CONTINUOUS
 10
2.0199044769
 20
2.2844159592
 11
1.8215141438
 21
2.2844159592
  0
LINE
  5
425
100
AcDbEntity
  8
0
100
AcDbLine
 62
7
  6
CONTINUOUS
 10
5.8416090408
 20
2.3723759592
 11
4.7045180408
 21
2.3723759592
  0
LINE
  5
426
100
AcDbEntity
  8
0
100
AcDbLine
 62
7
  6
CONTINUOUS
 10
7.8428120408
 20
2.5989949592
 11
6.6104950408
 21
2.5989949592
  0
LINE
  5
427
100
AcDbEntity
  8
0
100
AcDbLine
 62
7
  6
CONTINUOUS
 10
3.0802670408
 20
2.6948789592
 11
1.7724864426
 21
2.6948789592
  0
LINE
  5
428
100
AcDbEntity
  8
0
100
AcDbLine
 62
7
  6
CONTINUOUS
 10
7.8428120408
 20
2.7881109592
 11
6.6104950408
 21
2.7881109592
  0
LINE
  5
429
100
AcDbEntity
  8
0
100
AcDbLine
 62
7
  6
CONTINUOUS
 10
3.0802670408
 20
2.9001099592
 11
1.4019300408
 21
2.9001099592
  0
LINE
  5
42A
100
AcDbEntity
  8
0
100
AcDbLine
 62
7
  6
CONTINUOUS
 10
5.5788040408
 20
3.1171999592
 11
4.4416090408
 21
3.1171999592
  0
LINE
  5
42B
100
AcDbEntity
  8
0
100
AcDbLine
 62
7
  6
CONTINUOUS
 10
6.6104950408
 20
3.2619479592
 11
6.4428120408
 21
3.2619479592
  0
LINE
  5
42C
100
AcDbEntity
  8
0
100
AcDbLine
 62
7
  6
CONTINUOUS
 10
5.8416090408
 20
3.3004769592
 11
4.4416090408
 21
3.3004769592
  0
LINE
  5
42D
100
AcDbEntity
  8
0
100
AcDbLine
 62
7
  6
CONTINUOUS
 10
5.8416090408
 20
3.6065639592
 11
4.4416090408
 21
3.6065639592
  0
LINE
  5
42E
100
AcDbEntity
  8
0
100
AcDbLine
 62
7
  6
CONTINUOUS
 10
5.6797780408
 20
3.7956999592
 11
4.6034410408
 21
3.7956999592
  0
LINE
  5
42F
100
AcDbEntity
  8
0
100
AcDbLine
 62
7
  6
CONTINUOUS
 10
1.7382810408
 20
1.4862939592
 11
2.4919370408
 21
0.9629539592
  0
LINE
  5
430
100
AcDbEntity
  8
0
100
AcDbLine
 62
7
  6
CONTINUOUS
 10
1.4087710408
 20
1.5239199592
 11
2.4919370408
 21
0.7611429592
  0
LWPOLYLINE
  5
431
100
AcDbEntity
  8
0
100
AcDbPolyline
 62
7
  6
CONTINUOUS
 90
25
 70
0
 10
1.7724864426
 20
2.6948789592
 10
1.7861023427
 20
2.680069887
 10
1.7993618867
 20
2.6649503738
 10
1.8122650748
 20
2.6495204195
 10
1.8247946164
 20
2.633746683
 10
1.8369678021
 20
2.6176625052
 10
1.8488365031
 20
2.6013679085
 10
1.8604017218
 20
2.5848763946
 10
1.871662456
 20
2.5681744618
 10
1.8826675703
 20
2.5513216275
 10
1.893417056
 20
2.5343201262
 10
1.9039109218
 20
2.5171677234
 10
1.9141980583
 20
2.499917233
 10
1.9242940766
 20
2.4825863519
 10
1.9341833656
 20
2.4651573831
 10
1.9438679818
 20
2.4476300504
 10
1.9533638607
 20
2.4300142174
 10
1.9626550669
 20
2.4123000204
 10
1.9716958512
 20
2.3944575925
 10
1.9804963608
 20
2.3764856625
 10
1.9890464486
 20
2.3583855015
 10
1.9972699232
 20
2.340131056
 10
2.0051413875
 20
2.3217136417
 10
2.0126862388
 20
2.3031419427
 10
2.0199044769
 20
2.2844159592
  0
LWPOLYLINE
  5
432
100
AcDbEntity
  8
0
100
AcDbPolyline
 62
7
  6
CONTINUOUS
 90
31
 70
0
 10
1.8215141438
 20
2.2844159592
 10
1.8076015918
 20
2.312932577
 10
1.7937793535
 20
2.3400335343
 10
1.780047429
 20
2.365718832
 10
1.766394028
 20
2.3898942883
 10
1.7528309407
 20
2.4126540869
 10
1.739393538
 20
2.4342807771
 10
1.7261041495
 20
2.4547759118
 10
1.7129404455
 20
2.4741379395
 10
1.6998708076
 20
2.4926447518
 10
1.6869077405
 20
2.5103108911
 10
1.6740387394
 20
2.527121816
 10
1.6611946711
 20
2.5433117927
 10
1.6483843068
 20
2.5588846824
 10
1.6355988753
 20
2.5738366244
 10
1.6227429299
 20
2.5883903022
 10
1.6098381319
 20
2.6025666435
 10
1.59686282
 20
2.6163447209
 10
1.5836565641
 20
2.6298844346
 10
1.5701924787
 20
2.6432494431
 10
1.5564974493
 20
2.6563760882
 10
1.5424917026
 20
2.6692332953
 10
1.5281542237
 20
2.6818521125
 10
1.5135060274
 20
2.6942014919
 10
1.4985303853
 20
2.7061572155
 10
1.4832156721
 20
2.7177344135
 10
1.4675735131
 20
2.7289179559
 10
1.4516220557
 20
2.7395382349
 10
1.4353673491
 20
2.7495387146
 10
1.4188033442
 20
2.7589759312
 10
1.4019300408
 20
2.767849885
  0
LINE
  5
433
100
AcDbEntity
  8
SMUSSO
100
AcDbLine
 62
7
  6
CONTINUOUS
 10
9.3928120408
 20
-20.1599580946
 11
9.2407615493
 21
-19.7034356678
  0
LWPOLYLINE
  5
434
100
AcDbEntity
  8
0
100
AcDbPolyline
 62
7
  6
CONTINUOUS
 90
10
 70
0
 10
-0.9576490357
 20
10.7250051039
 10
-0.9627595359
 20
10.7431979476
 10
-0.9673110016
 20
10.7619387716
 10
-0.9713034328
 20
10.7812275747
 10
-0.9747593299
 20
10.8010866645
 10
-0.9776561924
 20
10.8214937303
 10
-0.9799265194
 20
10.8423818438
 10
-0.9815478104
 20
10.8637286945
 10
-0.9825425657
 20
10.8855565901
 10
-0.9829107855
 20
10.9078655292
  0
LWPOLYLINE
  5
435
100
AcDbEntity
  8
0
100
AcDbPolyline
 62
7
  6
CONTINUOUS
 90
43
 70
0
 10
5.0889370408
 20
-4.6956195833
 10
5.0888138179
 20
-4.685681058
 10
5.088508604
 20
-4.6757597463
 10
5.0880213991
 20
-4.6658556482
 10
5.087350395
 20
-4.6559702943
 10
5.0864974
 20
-4.646102154
 10
5.0854678391
 20
-4.6362466358
 10
5.0842889854
 20
-4.6264025587
 10
5.0829335659
 20
-4.6165711037
 10
5.081325187
 20
-4.6067512219
 10
5.0794702211
 20
-4.5969309748
 10
5.0773622959
 20
-4.5871223009
 10
5.0749059005
 20
-4.5773599675
 10
5.0720883216
 20
-4.5676225169
 10
5.0689222726
 20
-4.5579314068
 10
5.0653503828
 20
-4.5483857771
 10
5.0613545335
 20
-4.538981695
 10
5.0569528435
 20
-4.5297230935
 10
5.052142298
 20
-4.520720912
 10
5.0469270864
 20
-4.5119872861
 10
5.0413030193
 20
-4.5035100804
 10
5.0352545137
 20
-4.4953638279
 10
5.0287663369
 20
-4.4875553907
 10
5.0218537215
 20
-4.480077907
 10
5.0145467828
 20
-4.4729853243
 10
5.0068180672
 20
-4.4662739324
 10
4.9986950282
 20
-4.4599474419
 10
4.9902901415
 20
-4.4540709316
 10
4.9816038313
 20
-4.4486511287
 10
4.9726356734
 20
-4.4436813063
 10
4.9634968709
 20
-4.4392063623
 10
4.9542041525
 20
-4.4352435847
 10
4.9447407897
 20
-4.4317756857
 10
4.9351678
 20
-4.4287956993
 10
4.9254864005
 20
-4.4263444014
 10
4.9156953742
 20
-4.4243810163
 10
4.9058520874
 20
-4.4227762506
 10
4.8959616141
 20
-4.4215330167
 10
4.8860188803
 20
-4.4206484023
 10
4.8760660303
 20
-4.4199843774
 10
4.8661171122
 20
-4.4194949321
 10
4.8561580779
 20
-4.4192260764
 10
4.8461889275
 20
-4.4191778103
  0
LWPOLYLINE
  5
436
100
AcDbEntity
  8
0
100
AcDbPolyline
 62
7
  6
CONTINUOUS
 90
43
 70
0
 10
5.0889370408
 20
0.1807799281
 10
5.0888140877
 20
0.19070651
 10
5.0885096196
 20
0.2006153988
 10
5.0880236366
 20
0.2105065944
 10
5.0873544211
 20
0.2203775812
 10
5.0865036906
 20
0.2302308748
 10
5.0854765977
 20
0.2400740221
 10
5.0843005472
 20
0.2499086052
 10
5.0829481342
 20
0.2597330419
 10
5.0813422972
 20
0.2695501326
 10
5.0794892553
 20
0.2793733641
 10
5.0773827894
 20
0.2891892497
 10
5.0749271807
 20
0.2989601296
 10
5.0721095989
 20
0.3087071146
 10
5.0689428743
 20
0.318409094
 10
5.0653697791
 20
0.3279650749
 10
5.0613723005
 20
0.3373783188
 10
5.0569684513
 20
0.3466455643
 10
5.0521550419
 20
0.3556560346
 10
5.0469370057
 20
0.3643969899
 10
5.0413094092
 20
0.37288117
 10
5.0352542632
 20
0.3810360182
 10
5.0287542694
 20
0.3888568004
 10
5.0218267259
 20
0.3963482507
 10
5.0145055378
 20
0.403452015
 10
5.0067637055
 20
0.4101703201
 10
4.9986282286
 20
0.4165009393
 10
4.9902140102
 20
0.4223788375
 10
4.981522365
 20
0.4277966757
 10
4.9725519783
 20
0.4327617929
 10
4.963413809
 20
0.4372311724
 10
4.9541255843
 20
0.4411875416
 10
4.9446695771
 20
0.444648173
 10
4.9351035647
 20
0.4476218673
 10
4.9254270013
 20
0.4500685873
 10
4.9156404328
 20
0.4520283701
 10
4.9058032734
 20
0.4536301284
 10
4.895922284
 20
0.4548708429
 10
4.8859907038
 20
0.4557535329
 10
4.8760476648
 20
0.4564161682
 10
4.8661062111
 20
0.4569047388
 10
4.8561532987
 20
0.4571732547
 10
4.8461889275
 20
0.457221716
  0
LINE
  5
437
100
AcDbEntity
  8
0
100
AcDbLine
 62
7
  6
CONTINUOUS
 10
3.4789822612
 20
12.3590131308
 11
3.4789822612
 21
12.2690129592
  0
LINE
  5
438
100
AcDbEntity
  8
0
100
AcDbLine
 62
7
  6
CONTINUOUS
 10
3.504514173
 20
9.3215128734
 11
3.504514173
 21
9.1865128734
  0
LINE
  5
439
100
AcDbEntity
  8
0
100
AcDbLine
 62
7
  6
CONTINUOUS
 10
3.5811099086
 20
12.3590131308
 11
3.5811099086
 21
12.2690129592
  0
LINE
  5
43A
100
AcDbEntity
  8
0
100
AcDbLine
 62
7
  6
CONTINUOUS
 10
3.6066418204
 20
9.006513045
 11
3.6066418204
 21
8.8490128734
  0
LINE
  5
43B
100
AcDbEntity
  8
0
100
AcDbLine
 62
7
  6
CONTINUOUS
 10
3.6085210408
 20
16.9590859592
 11
3.6085210408
 21
16.5899739592
  0
LINE
  5
43C
100
AcDbEntity
  8
0
100
AcDbLine
 62
7
  6
CONTINUOUS
 10
3.6085210408
 20
16.1460949592
 11
3.6085210408
 21
15.7768399592
  0
LINE
  5
43D
100
AcDbEntity
  8
0
100
AcDbLine
 62
7
  6
CONTINUOUS
 10
3.6321737323
 20
11.7290129592
 11
3.6321737323
 21
11.5040127875
  0
LINE
  5
43E
100
AcDbEntity
  8
0
100
AcDbLine
 62
7
  6
CONTINUOUS
 10
3.6321737323
 20
11.3690127875
 11
3.6321737323
 21
10.9865129592
  0
LINE
  5
43F
100
AcDbEntity
  8
0
100
AcDbLine
 62
7
  6
CONTINUOUS
 10
3.7343014155
 20
6.4415129806
 11
3.7343014155
 21
6.0365129645
  0
LINE
  5
440
100
AcDbEntity
  8
0
100
AcDbLine
 62
7
  6
CONTINUOUS
 10
3.7853652392
 20
11.7290129592
 11
3.7853652392
 21
11.5040127875
  0
LINE
  5
441
100
AcDbEntity
  8
0
100
AcDbLine
 62
7
  6
CONTINUOUS
 10
3.7853652392
 20
11.3690127875
 11
3.7853652392
 21
10.8290127875
  0
LINE
  5
442
100
AcDbEntity
  8
0
100
AcDbLine
 62
7
  6
CONTINUOUS
 10
3.8364290629
 20
8.9840128734
 11
3.8364290629
 21
8.8490128734
  0
LINE
  5
443
100
AcDbEntity
  8
0
100
AcDbLine
 62
7
  6
CONTINUOUS
 10
3.8364290629
 20
6.4640129592
 11
3.8364290629
 21
6.0140129538
  0
LINE
  5
444
100
AcDbEntity
  8
ASSI
100
AcDbLine
 62
253
  6
CONTINUOUS
 10
3.9987447736
 20
-22.3448852077
 11
3.9987447736
 21
-23.7617604655
  0
LINE
  5
445
100
AcDbEntity
  8
ASSI
100
AcDbLine
 62
253
  6
CONTINUOUS
 10
3.9987447736
 20
22.3229111261
 11
3.9987447736
 21
23.7397863839
  0
LINE
  5
446
100
AcDbEntity
  8
0
100
AcDbLine
 62
7
  6
CONTINUOUS
 10
4.0151524637
 20
12.3590131308
 11
4.0151524637
 21
12.2690129592
  0
LINE
  5
447
100
AcDbEntity
  8
0
100
AcDbLine
 62
7
  6
CONTINUOUS
 10
4.0151524637
 20
10.6490129592
 11
4.0151524637
 21
10.019013045
  0
LINE
  5
448
100
AcDbEntity
  8
0
100
AcDbLine
 62
7
  6
CONTINUOUS
 10
4.0151524637
 20
9.3215128734
 11
4.0151524637
 21
9.1865128734
  0
LINE
  5
449
100
AcDbEntity
  8
0
100
AcDbLine
 62
7
  6
CONTINUOUS
 10
4.0251860408
 20
16.9590859592
 11
4.0251860408
 21
15.7768399592
  0
LINE
  5
44A
100
AcDbEntity
  8
DRAFT
100
AcDbLine
 62
7
  6
CONTINUOUS
 10
4.0428120408
 20
-23.8109870408
 11
4.0428120408
 21
-22.4109870408
  0
LINE
  5
44B
100
AcDbEntity
  8
DRAFT
100
AcDbLine
 62
7
  6
CONTINUOUS
 10
4.0428120408
 20
22.3890129592
 11
4.0428120408
 21
23.7890129592
  0
LINE
  5
44C
100
AcDbEntity
  8
0
100
AcDbLine
 62
7
  6
CONTINUOUS
 10
4.1428120408
 20
12.3815127875
 11
4.1428120408
 21
12.2465127875
  0
LINE
  5
44D
100
AcDbEntity
  8
0
100
AcDbLine
 62
7
  6
CONTINUOUS
 10
4.1428120408
 20
11.5040127875
 11
4.1428120408
 21
11.3690127875
  0
LINE
  5
44E
100
AcDbEntity
  8
0
100
AcDbLine
 62
7
  6
CONTINUOUS
 10
4.1428120408
 20
10.6490129592
 11
4.1428120408
 21
9.8390129592
  0
LINE
  5
44F
100
AcDbEntity
  8
0
100
AcDbLine
 62
7
  6
CONTINUOUS
 10
4.1428120408
 20
9.3215128734
 11
4.1428120408
 21
9.1865128734
  0
LINE
  5
450
100
AcDbEntity
  8
0
100
AcDbLine
 62
7
  6
CONTINUOUS
 10
4.1428120408
 20
6.6890129377
 11
4.1428120408
 21
6.5540129377
  0
LINE
  5
451
100
AcDbEntity
  8
0
100
AcDbLine
 62
7
  6
CONTINUOUS
 10
4.1428120408
 20
5.9240129592
 11
4.1428120408
 21
5.7890129592
  0
LINE
  5
452
100
AcDbEntity
  8
0
100
AcDbLine
 62
7
  6
CONTINUOUS
 10
4.4416090408
 20
4.1739704544
 11
4.4416090408
 21
3.6065639592
  0
LINE
  5
453
100
AcDbEntity
  8
0
100
AcDbLine
 62
7
  6
CONTINUOUS
 10
4.4416090408
 20
3.3004769592
 11
4.4416090408
 21
3.1171999592
  0
LINE
  5
454
100
AcDbEntity
  8
0
100
AcDbLine
 62
7
  6
CONTINUOUS
 10
4.4416090408
 20
2.4133859592
 11
4.4416090408
 21
2.1890989592
  0
LINE
  5
455
100
AcDbEntity
  8
0
100
AcDbLine
 62
7
  6
CONTINUOUS
 10
4.4416090408
 20
1.9278909592
 11
4.4416090408
 21
0.9080409592
  0
LINE
  5
456
100
AcDbEntity
  8
0
100
AcDbLine
 62
7
  6
CONTINUOUS
 10
4.4416090408
 20
0.2372430029
 11
4.4416090408
 21
-0.3924720408
  0
LINE
  5
457
100
AcDbEntity
  8
0
100
AcDbLine
 62
7
  6
CONTINUOUS
 10
4.4416090408
 20
-1.6715410408
 11
4.4416090408
 21
-2.8082320408
  0
LINE
  5
458
100
AcDbEntity
  8
0
100
AcDbLine
 62
7
  6
CONTINUOUS
 10
4.4416090408
 20
-3.3677900408
 11
4.4416090408
 21
-3.5822400408
  0
LINE
  5
459
100
AcDbEntity
  8
0
100
AcDbLine
 62
7
  6
CONTINUOUS
 10
4.4416090408
 20
-4.6391565233
 11
4.4416090408
 21
-5.2688720408
  0
LINE
  5
45A
100
AcDbEntity
  8
0
100
AcDbLine
 62
7
  6
CONTINUOUS
 10
4.6034410408
 20
4.1486565973
 11
4.6034410408
 21
3.7956999592
  0
LINE
  5
45B
100
AcDbEntity
  8
0
100
AcDbLine
 62
7
  6
CONTINUOUS
 10
4.6034410408
 20
0.1807924047
 11
4.6034410408
 21
-0.2033370408
  0
LINE
  5
45C
100
AcDbEntity
  8
0
100
AcDbLine
 62
7
  6
CONTINUOUS
 10
4.6034410408
 20
-4.6956071216
 11
4.6034410408
 21
-5.0797370408
  0
LINE
  5
45D
100
AcDbEntity
  8
0
100
AcDbLine
 62
7
  6
CONTINUOUS
 10
4.6093000408
 20
1.9278909592
 11
4.6093000408
 21
1.0971759592
  0
LINE
  5
45E
100
AcDbEntity
  8
0
100
AcDbLine
 62
7
  6
CONTINUOUS
 10
4.6093000408
 20
-1.6715410408
 11
4.6093000408
 21
-2.1453190408
  0
LINE
  5
45F
100
AcDbEntity
  8
0
100
AcDbLine
 62
7
  6
CONTINUOUS
 10
4.6093000408
 20
-2.3344540408
 11
4.6093000408
 21
-2.8082320408
  0
LINE
  5
460
100
AcDbEntity
  8
0
100
AcDbLine
 62
7
  6
CONTINUOUS
 10
5.0383090408
 20
1.8635559592
 11
5.0383090408
 21
1.0971759592
  0
LINE
  5
461
100
AcDbEntity
  8
0
100
AcDbLine
 62
7
  6
CONTINUOUS
 10
5.0889370408
 20
0.1807924047
 11
5.0889370408
 21
-0.2033370408
  0
LINE
  5
462
100
AcDbEntity
  8
0
100
AcDbLine
 62
7
  6
CONTINUOUS
 10
5.0889370408
 20
-4.6956071216
 11
5.0889370408
 21
-5.0797370408
  0
LINE
  5
463
100
AcDbEntity
  8
0
100
AcDbLine
 62
7
  6
CONTINUOUS
 10
5.2059990408
 20
1.8635559592
 11
5.2059990408
 21
1.0971759592
  0
LINE
  5
464
100
AcDbEntity
  8
0
100
AcDbLine
 62
7
  6
CONTINUOUS
 10
5.2507680408
 20
0.2373248357
 11
5.2507680408
 21
-0.2033370408
  0
LINE
  5
465
100
AcDbEntity
  8
0
100
AcDbLine
 62
7
  6
CONTINUOUS
 10
5.2507680408
 20
-4.6390746906
 11
5.2507680408
 21
-5.0797370408
  0
LINE
  5
466
100
AcDbEntity
  8
0
100
AcDbLine
 62
7
  6
CONTINUOUS
 10
5.2663550408
 20
-3.2742730408
 11
5.2663550408
 21
-3.7090300408
  0
LWPOLYLINE
  5
467
100
AcDbEntity
  8
0
100
AcDbPolyline
 62
7
  6
CONTINUOUS
 90
46
 70
0
 10
4.4416090408
 20
4.1739647232
 10
4.4420670778
 20
4.1971528994
 10
4.443432001
 20
4.2203843372
 10
4.4457038102
 20
4.2436590364
 10
4.4489015952
 20
4.2670803699
 10
4.4530062664
 20
4.2905449646
 10
4.4579605544
 20
4.3137427023
 10
4.4637763592
 20
4.336665603
 10
4.4704417807
 20
4.3593216472
 10
4.4778638497
 20
4.3814246581
 10
4.4860372222
 20
4.4029118131
 10
4.4949672421
 20
4.4238459359
 10
4.5045769714
 20
4.4441293196
 10
4.5148374008
 20
4.4637154116
 10
4.5257775396
 20
4.4826507657
 10
4.5374074775
 20
4.5009773342
 10
4.5497016293
 20
4.5186906702
 10
4.5626855803
 20
4.5357952217
 10
4.5764461761
 20
4.5523462831
 10
4.5910011998
 20
4.5683638469
 10
4.6063328683
 20
4.5838279215
 10
4.6224746779
 20
4.598733826
 10
4.6394519587
 20
4.6131121898
 10
4.6572393807
 20
4.6269323844
 10
4.6757944508
 20
4.6400978414
 10
4.6952188828
 20
4.6526055068
 10
4.7154109629
 20
4.6644584355
 10
4.7360230574
 20
4.6755692223
 10
4.7570120226
 20
4.6858691527
 10
4.7784210022
 20
4.6954269422
 10
4.8000317938
 20
4.7043613308
 10
4.8217781859
 20
4.7127176008
 10
4.8437263899
 20
4.7204504704
 10
4.8658568376
 20
4.7275428337
 10
4.888169227
 20
4.7340113663
 10
4.9106638602
 20
4.7398393931
 10
4.9333220749
 20
4.7449597821
 10
4.9561680551
 20
4.7493362731
 10
4.9791776169
 20
4.7530051267
 10
5.0022595468
 20
4.7560079925
 10
5.025401183
 20
4.7582847455
 10
5.0486151872
 20
4.7598955109
 10
5.0718483316
 20
4.7610623132
 10
5.0950828735
 20
4.7618591608
 10
5.1183365554
 20
4.7622120454
 10
5.1416093775
 20
4.7621209671
  0
LWPOLYLINE
  5
468
100
AcDbEntity
  8
0
100
AcDbPolyline
 62
7
  6
CONTINUOUS
 90
34
 70
0
 10
4.4416090408
 20
0.2372430029
 10
4.4425368441
 20
0.2626692244
 10
4.4443689286
 20
0.2871469544
 10
4.4471052944
 20
0.3106761931
 10
4.4508029738
 20
0.3332295793
 10
4.4554049344
 20
0.3548344741
 10
4.4607400796
 20
0.3755729611
 10
4.466769899
 20
0.3954259252
 10
4.4735329029
 20
0.4144124816
 10
4.480973526
 20
0.4326720584
 10
4.4890805419
 20
0.4502581089
 10
4.497865177
 20
0.4671171799
 10
4.5073055442
 20
0.4832283402
 10
4.5173945087
 20
0.4985711533
 10
4.5281392052
 20
0.5131660557
 10
4.5395391512
 20
0.5270534255
 10
4.5515830947
 20
0.5402413665
 10
4.5642822876
 20
0.552721775
 10
4.5776700034
 20
0.5645107179
 10
4.5917960147
 20
0.5756306579
 10
4.6066105489
 20
0.5860591323
 10
4.6219975615
 20
0.59574482
 10
4.6379523103
 20
0.6046695572
 10
4.6544795374
 20
0.6128515077
 10
4.6714774246
 20
0.6202938421
 10
4.6888937467
 20
0.6270078083
 10
4.7067807289
 20
0.6329821585
 10
4.7251932277
 20
0.6381863191
 10
4.7441726716
 20
0.6426508901
 10
4.763677632
 20
0.6463452717
 10
4.7836386807
 20
0.6491470902
 10
4.8040326748
 20
0.6510155545
 10
4.824882757
 20
0.6519914558
 10
4.8461889275
 20
0.652074794
  0
LWPOLYLINE
  5
469
100
AcDbEntity
  8
0
100
AcDbPolyline
 62
7
  6
CONTINUOUS
 90
34
 70
0
 10
4.4416090408
 20
-4.6391565233
 10
4.4425368929
 20
-4.6137296876
 10
4.4443690549
 20
-4.5892514162
 10
4.4471055267
 20
-4.5657217106
 10
4.4508033469
 20
-4.5431679406
 10
4.4554054769
 20
-4.521562739
 10
4.4607408013
 20
-4.5008240009
 10
4.4667708082
 20
-4.4809708374
 10
4.4735340096
 20
-4.4619841394
 10
4.4809748255
 20
-4.4437244722
 10
4.4890820278
 20
-4.4261383866
 10
4.4978668445
 20
-4.4092793332
 10
4.5073073805
 20
-4.3931682258
 10
4.517396497
 20
-4.3778255052
 10
4.5281413326
 20
-4.363230732
 10
4.5395414083
 20
-4.3493434992
 10
4.5515854765
 20
-4.3361556935
 10
4.5642847847
 20
-4.3236754292
 10
4.577672596
 20
-4.3118866419
 10
4.5917986854
 20
-4.3007668729
 10
4.6066132778
 20
-4.2903385816
 10
4.6220003108
 20
-4.28065308
 10
4.6379550351
 20
-4.2717285328
 10
4.6544822
 20
-4.2635467759
 10
4.6714799904
 20
-4.2561046289
 10
4.6888961839
 20
-4.2493908435
 10
4.7067830029
 20
-4.2434166684
 10
4.7251953005
 20
-4.2382126689
 10
4.7441745059
 20
-4.2337482468
 10
4.7636791899
 20
-4.2300540007
 10
4.7836399176
 20
-4.2272522902
 10
4.8040335439
 20
-4.2253839017
 10
4.8248832139
 20
-4.2244080491
 10
4.8461889275
 20
-4.2243247323
  0
LWPOLYLINE
  5
46A
100
AcDbEntity
  8
RACCORDO
100
AcDbPolyline
 62
7
  6
CONTINUOUS
 90
21
 70
0
 10
5.9998335423
 20
20.3912463599
 10
6.0001211266
 20
20.3948518106
 10
6.0008837073
 20
20.3989179106
 10
6.0021372202
 20
20.40344466
 10
6.0038959082
 20
20.4084158214
 10
6.006173638
 20
20.4138476321
 10
6.0089851823
 20
20.4197888037
 10
6.0123440485
 20
20.4262467849
 10
6.0162592474
 20
20.4332141269
 10
6.0207367455
 20
20.4407171952
 10
6.0257691347
 20
20.4487380593
 10
6.0313701096
 20
20.4572946497
 10
6.0375834476
 20
20.4664671232
 10
6.0444203563
 20
20.4762583752
 10
6.0518832251
 20
20.4866655103
 10
6.0600156052
 20
20.4977599994
 10
6.0688366031
 20
20.5095693661
 10
6.0783329429
 20
20.5220660869
 10
6.0885000874
 20
20.5352390615
 10
6.0993692393
 20
20.5491657152
 10
6.1108828595
 20
20.5637686228
  0
LINE
  5
46B
100
AcDbEntity
  8
0
100
AcDbLine
 62
7
  6
CONTINUOUS
 10
0.4178120408
 20
-6.6154530408
 11
0.2746967131
 21
-6.7860102397
  0
LINE
  5
46C
100
AcDbEntity
  8
0
100
AcDbLine
 62
7
  6
CONTINUOUS
 10
0.5013910408
 20
-4.5695660408
 11
-1.7986089592
 21
-6.8695660408
  0
LINE
  5
46D
100
AcDbEntity
  8
0
100
AcDbLine
 62
7
  6
CONTINUOUS
 10
0.6428120408
 20
-4.7109870408
 11
-1.6571879592
 21
-7.0109870408
  0
LINE
  5
46E
100
AcDbEntity
  8
0
100
AcDbLine
 62
7
  6
CONTINUOUS
 10
-3.3572089592
 20
-6.0748950408
 11
-4.5072342922
 21
-6.6710092502
  0
LINE
  5
46F
100
AcDbEntity
  8
0
100
AcDbLine
 62
7
  6
CONTINUOUS
 10
-3.3572019592
 20
-6.7056720408
 11
-4.4398849592
 21
-7.2668830408
  0
LINE
  5
470
100
AcDbEntity
  8
0
100
AcDbLine
 62
7
  6
CONTINUOUS
 10
5.8416090408
 20
-2.8608500408
 11
4.4416090408
 21
-3.3677900408
  0
LINE
  5
471
100
AcDbEntity
  8
0
100
AcDbLine
 62
7
  6
CONTINUOUS
 10
5.8416090408
 20
-3.0674510408
 11
5.4340450408
 21
-3.2059580408
  0
LINE
  5
472
100
AcDbEntity
  8
0
100
AcDbLine
 62
7
  6
CONTINUOUS
 10
5.2663550408
 20
-3.2742730408
 11
4.6446670408
 21
-3.4828400408
  0
LWPOLYLINE
  5
473
100
AcDbEntity
  8
0
100
AcDbPolyline
 62
7
  6
CONTINUOUS
 90
46
 70
0
 10
5.1416093775
 20
4.5675328853
 10
5.1244287317
 20
4.567288593
 10
5.1072873832
 20
4.5668119084
 10
5.0901853322
 20
4.5661028315
 10
5.0731323756
 20
4.565175005
 10
5.0561187164
 20
4.5640147862
 10
5.0391149639
 20
4.5625812474
 10
5.0221143496
 20
4.5608913834
 10
5.0051236419
 20
4.5589281994
 10
4.9881337553
 20
4.5565997824
 10
4.971130601
 20
4.5539073414
 10
4.9541282677
 20
4.5508496673
 10
4.9371599355
 20
4.5473312204
 10
4.9201974389
 20
4.5433446463
 10
4.9032689433
 20
4.5388972991
 10
4.8864921265
 20
4.5339157015
 10
4.8698597756
 20
4.5283945721
 10
4.8533791033
 20
4.5223391919
 10
4.8371894253
 20
4.515691927
 10
4.821274098
 20
4.5084296953
 10
4.805649765
 20
4.5005755784
 10
4.7905056726
 20
4.4921411879
 10
4.7758888505
 20
4.4831139502
 10
4.7617522691
 20
4.4735064384
 10
4.7481440853
 20
4.4633679843
 10
4.7350719275
 20
4.4527016483
 10
4.7225281674
 20
4.4415043694
 10
4.7105380764
 20
4.4298162974
 10
4.6990935466
 20
4.4176582726
 10
4.6882026859
 20
4.4050094541
 10
4.6779150897
 20
4.3918474695
 10
4.66821155
 20
4.3781533465
 10
4.6591112747
 20
4.3639460568
 10
4.6507214831
 20
4.3492601442
 10
4.6430843923
 20
4.3340672621
 10
4.6361577851
 20
4.3183957564
 10
4.6299222293
 20
4.3023652096
 10
4.6243900135
 20
4.2859533585
 10
4.619548849
 20
4.2691824657
 10
4.6153424377
 20
4.252238903
 10
4.611747575
 20
4.2351355453
 10
4.6087874656
 20
4.2178595175
 10
4.6064754258
 20
4.2005585661
 10
4.6048158945
 20
4.1832819399
 10
4.6038044328
 20
4.1659803902
 10
4.6034410408
 20
4.1486539168
  0
LWPOLYLINE
  5
474
100
AcDbEntity
  8
0
100
AcDbPolyline
 62
7
  6
CONTINUOUS
 90
46
 70
0
 10
5.1416093775
 20
4.7621209671
 10
5.1648936565
 20
4.7622118015
 10
5.1881556321
 20
4.7618586088
 10
5.2113953044
 20
4.761061389
 10
5.2346288125
 20
4.7598942351
 10
5.2578400173
 20
4.7582830541
 10
5.2809805016
 20
4.7560055668
 10
5.3040635949
 20
4.7530019958
 10
5.3270759677
 20
4.7493321184
 10
5.3499292146
 20
4.7449529864
 10
5.372600067
 20
4.7398283019
 10
5.3951117935
 20
4.7339943625
 10
5.417445794
 20
4.7275171141
 10
5.4396032631
 20
4.7204130771
 10
5.4615830062
 20
4.7126657306
 10
5.4833628403
 20
4.7042914575
 10
5.5050094627
 20
4.6953353311
 10
5.5264561761
 20
4.6857522774
 10
5.5474807056
 20
4.6754234581
 10
5.5681270138
 20
4.6642781429
 10
5.5883511382
 20
4.6523870611
 10
5.6077989161
 20
4.6398435635
 10
5.6263657124
 20
4.6266459117
 10
5.6441561624
 20
4.6127958432
 10
5.6611300092
 20
4.5983919219
 10
5.6772607523
 20
4.5834665754
 10
5.6925748924
 20
4.5679873753
 10
5.707111674
 20
4.5519556025
 10
5.7208554024
 20
4.5353894039
 10
5.7338217723
 20
4.5182706317
 10
5.7460971126
 20
4.5005461237
 10
5.7577072837
 20
4.4822100885
 10
5.7686264253
 20
4.4632683165
 10
5.7788632848
 20
4.4436850187
 10
5.7884453154
 20
4.4234159507
 10
5.797345064
 20
4.4025053555
 10
5.8054889192
 20
4.3810501758
 10
5.8128822012
 20
4.3589902455
 10
5.8195195897
 20
4.3363857295
 10
5.8253115125
 20
4.313514068
 10
5.8302473748
 20
4.2903659903
 10
5.8343377715
 20
4.2669507666
 10
5.8375249152
 20
4.2435736495
 10
5.8397895434
 20
4.2203363902
 10
5.8411509186
 20
4.1971372379
 10
5.8416090408
 20
4.1739761926
  0
LINE
  5
475
100
AcDbEntity
  8
0
100
AcDbLine
 62
7
  6
CONTINUOUS
 10
7.8428120408
 20
4.7380119592
 11
6.4428120408
 21
4.7380119592
  0
LINE
  5
476
100
AcDbEntity
  8
0
100
AcDbLine
 62
7
  6
CONTINUOUS
 10
7.6751290408
 20
4.9272069592
 11
6.4428120408
 21
4.9272069592
  0
LINE
  5
477
100
AcDbEntity
  8
0
100
AcDbLine
 62
7
  6
CONTINUOUS
 10
5.8416090408
 20
5.0260189592
 11
5.6348980408
 21
5.0260189592
  0
LINE
  5
478
100
AcDbEntity
  8
0
100
AcDbLine
 62
7
  6
CONTINUOUS
 10
-3.3571879592
 20
5.1483969592
 11
-6.1571889592
 21
5.1483969592
  0
LINE
  5
479
100
AcDbEntity
  8
0
100
AcDbLine
 62
7
  6
CONTINUOUS
 10
5.8416090408
 20
5.2288619592
 11
5.6348980408
 21
5.2288619592
  0
LINE
  5
47A
100
AcDbEntity
  8
0
100
AcDbLine
 62
7
  6
CONTINUOUS
 10
3.0704716001
 20
7.2740129592
 11
3.0960035119
 21
7.1615130021
  0
LINE
  5
47B
100
AcDbEntity
  8
0
100
AcDbLine
 62
7
  6
CONTINUOUS
 10
3.0704716001
 20
8.264013045
 11
3.0960035119
 21
8.1515129592
  0
LINE
  5
47C
100
AcDbEntity
  8
0
100
AcDbLine
 62
7
  6
CONTINUOUS
 10
3.0704716001
 20
10.1990131308
 11
3.0960035119
 21
10.086513045
  0
LINE
  5
47D
100
AcDbEntity
  8
0
100
AcDbLine
 62
7
  6
CONTINUOUS
 10
2.9428120408
 20
7.2740129592
 11
2.9683439527
 21
7.1390129592
  0
LINE
  5
47E
100
AcDbEntity
  8
0
100
AcDbLine
 62
7
  6
CONTINUOUS
 10
2.9428120408
 20
8.264013045
 11
2.9683439527
 21
8.129013045
  0
LINE
  5
47F
100
AcDbEntity
  8
0
100
AcDbLine
 62
7
  6
CONTINUOUS
 10
2.9428120408
 20
10.2215127875
 11
2.9683439527
 21
10.0640128734
  0
LWPOLYLINE
  5
480
100
AcDbEntity
  8
0
100
AcDbPolyline
 62
7
  6
CONTINUOUS
 90
46
 70
0
 10
5.6797780408
 20
4.1486483495
 10
5.6794133498
 20
4.1660145348
 10
5.6783972225
 20
4.1833572344
 10
5.676729659
 20
4.2006764484
 10
5.6744057962
 20
4.2180239667
 10
5.6714304972
 20
4.2353479994
 10
5.6678183511
 20
4.2524931766
 10
5.6635921043
 20
4.2694708247
 10
5.6587290104
 20
4.2862696175
 10
5.6531754197
 20
4.3027002064
 10
5.6469190405
 20
4.3187382289
 10
5.6399721644
 20
4.334408048
 10
5.6323180175
 20
4.3495934035
 10
5.6239165368
 20
4.3642642804
 10
5.6148077852
 20
4.3784506944
 10
5.605095177
 20
4.3921264309
 10
5.5947972086
 20
4.4052754825
 10
5.5838953835
 20
4.4179138573
 10
5.5724376267
 20
4.4300633641
 10
5.5604288235
 20
4.441746833
 10
5.5478640885
 20
4.4529414344
 10
5.5347766905
 20
4.4636004868
 10
5.5211598975
 20
4.4737245209
 10
5.5070204415
 20
4.4833130067
 10
5.4924117864
 20
4.4923176714
 10
5.4772898379
 20
4.5007246558
 10
5.4616986903
 20
4.5085478197
 10
5.4458240908
 20
4.5157804693
 10
5.4296845884
 20
4.522400175
 10
5.4132616341
 20
4.5284293667
 10
5.3966853277
 20
4.5339286395
 10
5.3799627887
 20
4.5388937853
 10
5.3630868976
 20
4.5433290125
 10
5.3461663962
 20
4.5473075403
 10
5.3292266205
 20
4.5508227987
 10
5.3122422344
 20
4.5538813579
 10
5.2952459717
 20
4.5565761481
 10
5.278249322
 20
4.5589081656
 10
5.2612407956
 20
4.560876414
 10
5.2442186572
 20
4.5625708344
 10
5.2271892592
 20
4.5640078499
 10
5.2101462493
 20
4.5651710372
 10
5.1930688354
 20
4.5661010674
 10
5.1759500868
 20
4.5668114972
 10
5.1587969342
 20
4.5672887699
 10
5.1416093775
 20
4.5675328853
  0
LINE
  5
481
100
AcDbEntity
  8
RACCORDO
100
AcDbLine
 62
253
  6
CONTINUOUS
 10
5.9998335423
 20
-18.9090943254
 11
5.8907366754
 21
-12.1997362057
  0
LINE
  5
482
100
AcDbEntity
  8
0
100
AcDbLine
 62
7
  6
CONTINUOUS
 10
5.4340450408
 20
-3.2059580408
 11
5.4340450408
 21
-3.7675060408
  0
LINE
  5
483
100
AcDbEntity
  8
0
100
AcDbLine
 62
7
  6
CONTINUOUS
 10
5.6348980408
 20
5.2288619592
 11
5.6348980408
 21
5.0260189592
  0
LINE
  5
484
100
AcDbEntity
  8
0
100
AcDbLine
 62
7
  6
CONTINUOUS
 10
5.6348980408
 20
-1.2718250408
 11
5.6348980408
 21
-1.4745570408
  0
LINE
  5
485
100
AcDbEntity
  8
0
100
AcDbLine
 62
7
  6
CONTINUOUS
 10
5.6739190408
 20
1.9414869592
 11
5.6739190408
 21
1.0971759592
  0
LINE
  5
486
100
AcDbEntity
  8
0
100
AcDbLine
 62
7
  6
CONTINUOUS
 10
5.6797780408
 20
4.1486565973
 11
5.6797780408
 21
3.7956999592
  0
LINE
  5
487
100
AcDbEntity
  8
0
100
AcDbLine
 62
7
  6
CONTINUOUS
 10
5.8416090408
 20
5.2288619592
 11
5.8416090408
 21
5.0260189592
  0
LINE
  5
488
100
AcDbEntity
  8
0
100
AcDbLine
 62
7
  6
CONTINUOUS
 10
5.8416090408
 20
4.1739704544
 11
5.8416090408
 21
3.6065639592
  0
LINE
  5
489
100
AcDbEntity
  8
0
100
AcDbLine
 62
7
  6
CONTINUOUS
 10
5.8416090408
 20
3.3004769592
 11
5.8416090408
 21
3.0880169592
  0
LINE
  5
48A
100
AcDbEntity
  8
0
100
AcDbLine
 62
7
  6
CONTINUOUS
 10
5.8416090408
 20
2.3723759592
 11
5.8416090408
 21
2.1890989592
  0
LINE
  5
48B
100
AcDbEntity
  8
0
100
AcDbLine
 62
7
  6
CONTINUOUS
 10
5.8416090408
 20
1.9414869592
 11
5.8416090408
 21
0.9080409592
  0
LINE
  5
48C
100
AcDbEntity
  8
0
100
AcDbLine
 62
7
  6
CONTINUOUS
 10
5.8416090408
 20
-0.2033370408
 11
5.8416090408
 21
-0.3924720408
  0
LINE
  5
48D
100
AcDbEntity
  8
0
100
AcDbLine
 62
7
  6
CONTINUOUS
 10
5.8416090408
 20
-1.2718250408
 11
5.8416090408
 21
-1.4745570408
  0
LINE
  5
48E
100
AcDbEntity
  8
0
100
AcDbLine
 62
7
  6
CONTINUOUS
 10
5.8416090408
 20
-2.1453190408
 11
5.8416090408
 21
-2.3344540408
  0
LINE
  5
48F
100
AcDbEntity
  8
0
100
AcDbLine
 62
7
  6
CONTINUOUS
 10
5.8416090408
 20
-2.8608500408
 11
5.8416090408
 21
-3.0674510408
  0
LINE
  5
490
100
AcDbEntity
  8
0
100
AcDbLine
 62
7
  6
CONTINUOUS
 10
5.8416090408
 20
-3.9137520408
 11
5.8416090408
 21
-4.1087460408
  0
LINE
  5
491
100
AcDbEntity
  8
0
100
AcDbLine
 62
7
  6
CONTINUOUS
 10
5.8416090408
 20
-5.0797370408
 11
5.8416090408
 21
-5.2688720408
  0
LINE
  5
492
100
AcDbEntity
  8
RACCORDO
100
AcDbLine
 62
253
  6
CONTINUOUS
 10
5.9998335423
 20
-20.4132204415
 11
5.9998335423
 21
-18.9090943254
  0
LINE
  5
493
100
AcDbEntity
  8
RACCORDO
100
AcDbLine
 62
253
  6
CONTINUOUS
 10
5.9998335423
 20
18.8871202438
 11
5.9998335423
 21
20.3912463599
  0
LINE
  5
494
100
AcDbEntity
  8
RACCORDO
100
AcDbLine
 62
253
  6
CONTINUOUS
 10
6.1998301576
 20
-20.6956490819
 11
6.1998301576
 21
-18.9090943254
  0
LINE
  5
495
100
AcDbEntity
  8
RACCORDO
100
AcDbLine
 62
253
  6
CONTINUOUS
 10
6.1998301576
 20
18.8871202438
 11
6.1998301576
 21
20.6736750003
  0
LINE
  5
496
100
AcDbEntity
  8
0
100
AcDbLine
 62
7
  6
CONTINUOUS
 10
6.4428120408
 20
6.9473279592
 11
6.4428120408
 21
6.7249589592
  0
LINE
  5
497
100
AcDbEntity
  8
0
100
AcDbLine
 62
7
  6
CONTINUOUS
 10
6.4428120408
 20
5.9216429592
 11
6.4428120408
 21
5.7013109592
  0
LINE
  5
498
100
AcDbEntity
  8
0
100
AcDbLine
 62
7
  6
CONTINUOUS
 10
6.4428120408
 20
4.9272069592
 11
6.4428120408
 21
4.7380119592
  0
LINE
  5
499
100
AcDbEntity
  8
0
100
AcDbLine
 62
7
  6
CONTINUOUS
 10
6.4428120408
 20
4.0575089592
 11
6.4428120408
 21
3.8430529592
  0
LINE
  5
49A
100
AcDbEntity
  8
0
100
AcDbLine
 62
7
  6
CONTINUOUS
 10
6.4428120408
 20
3.2619479592
 11
6.4428120408
 21
2.1251579592
  0
LINE
  5
49B
100
AcDbEntity
  8
0
100
AcDbLine
 62
7
  6
CONTINUOUS
 10
6.4428120408
 20
1.9223639592
 11
6.4428120408
 21
1.7331799592
  0
LINE
  5
49C
100
AcDbEntity
  8
0
100
AcDbLine
 62
7
  6
CONTINUOUS
 10
6.4428120408
 20
0.8655089592
 11
6.4428120408
 21
0.6822349592
  0
LINE
  5
49D
100
AcDbEntity
  8
0
100
AcDbLine
 62
7
  6
CONTINUOUS
 10
6.4428120408
 20
-0.0217280408
 11
6.4428120408
 21
-0.2460110408
  0
LINE
  5
49E
100
AcDbEntity
  8
0
100
AcDbLine
 62
7
  6
CONTINUOUS
 10
6.4428120408
 20
-0.5696470408
 11
6.4428120408
 21
-0.7587750408
  0
LINE
  5
49F
100
AcDbEntity
  8
0
100
AcDbLine
 62
7
  6
CONTINUOUS
 10
6.4428120408
 20
-1.5914260408
 11
6.4428120408
 21
-2.6112580408
  0
LINE
  5
4A0
100
AcDbEntity
  8
0
100
AcDbLine
 62
7
  6
CONTINUOUS
 10
6.4428120408
 20
-3.4554731424
 11
6.4428120408
 21
-4.0288640408
  0
LINE
  5
4A1
100
AcDbEntity
  8
0
100
AcDbLine
 62
7
  6
CONTINUOUS
 10
6.4428120408
 20
-4.7190820408
 11
6.4428120408
 21
-4.9336050408
  0
LINE
  5
4A2
100
AcDbEntity
  8
0
100
AcDbLine
 62
7
  6
CONTINUOUS
 10
6.4428120408
 20
-5.6277400408
 11
6.4428120408
 21
-5.8968590408
  0
LINE
  5
4A3
100
AcDbEntity
  8
0
100
AcDbLine
 62
7
  6
CONTINUOUS
 10
6.4428120408
 20
-6.6982600408
 11
6.4428120408
 21
-6.9693020408
  0
LINE
  5
4A4
100
AcDbEntity
  8
0
100
AcDbLine
 62
7
  6
CONTINUOUS
 10
6.6046070408
 20
-3.4662546898
 11
6.6046070408
 21
-3.8396690408
  0
LINE
  5
4A5
100
AcDbEntity
  8
0
100
AcDbLine
 62
7
  6
CONTINUOUS
 10
6.6104950408
 20
3.2619479592
 11
6.6104950408
 21
2.7881109592
  0
LINE
  5
4A6
100
AcDbEntity
  8
0
100
AcDbLine
 62
7
  6
CONTINUOUS
 10
6.6104950408
 20
2.5989949592
 11
6.6104950408
 21
2.1251579592
  0
LINE
  5
4A7
100
AcDbEntity
  8
0
100
AcDbLine
 62
7
  6
CONTINUOUS
 10
6.6104950408
 20
-1.5914260408
 11
6.6104950408
 21
-2.4220740408
  0
LINE
  5
4A8
100
AcDbEntity
  8
RACCORDO
100
AcDbLine
 62
253
  6
CONTINUOUS
 10
6.685793924
 20
20.8890129592
 11
6.685793924
 21
18.8871202438
  0
LINE
  5
4A9
100
AcDbEntity
  8
RACCORDO
100
AcDbLine
 62
253
  6
CONTINUOUS
 10
6.685793924
 20
-18.9090943254
 11
6.685793924
 21
-20.9109870408
  0
LINE
  5
4AA
100
AcDbEntity
  8
RACCORDO
100
AcDbLine
 62
253
  6
CONTINUOUS
 10
6.8857905394
 20
20.8890129592
 11
6.8857905394
 21
18.8871269986
  0
LINE
  5
4AB
100
AcDbEntity
  8
RACCORDO
100
AcDbLine
 62
253
  6
CONTINUOUS
 10
6.8857905394
 20
-18.9091010822
 11
6.8857905394
 21
-20.9109870408
  0
LINE
  5
4AC
100
AcDbEntity
  8
0
100
AcDbLine
 62
7
  6
CONTINUOUS
 10
7.0394960408
 20
-1.6557710408
 11
7.0394960408
 21
-2.4220740408
  0
LINE
  5
4AD
100
AcDbEntity
  8
RACCORDO
100
AcDbLine
 62
253
  6
CONTINUOUS
 10
5.8907366754
 20
12.1777621241
 11
5.9998335423
 21
18.8871202438
  0
LWPOLYLINE
  5
4AE
100
AcDbEntity
  8
0
100
AcDbPolyline
 62
7
  6
CONTINUOUS
 90
46
 70
0
 10
6.4428120408
 20
-3.4554731424
 10
6.4432906543
 20
-3.4322948064
 10
6.444630814
 20
-3.4091442224
 10
6.4468325199
 20
-3.3860213904
 10
6.449886005
 20
-3.3628603477
 10
6.4538010362
 20
-3.3397270571
 10
6.4586069148
 20
-3.3168194071
 10
6.4643155185
 20
-3.2941295835
 10
6.4709149696
 20
-3.271665401
 10
6.4783989354
 20
-3.2496481917
 10
6.486758628
 20
-3.2281062138
 10
6.4960028353
 20
-3.2070112099
 10
6.506151588
 20
-3.1864997394
 10
6.5172418072
 20
-3.1665940401
 10
6.5292365719
 20
-3.147271875
 10
6.5420451501
 20
-3.1286030922
 10
6.5557232576
 20
-3.1106273778
 10
6.5702151786
 20
-3.0933050465
 10
6.5852630345
 20
-3.0765868887
 10
6.600807467
 20
-3.0604312152
 10
6.6169078344
 20
-3.044879716
 10
6.6334843321
 20
-3.0300082507
 10
6.6504736543
 20
-3.0158037138
 10
6.667939107
 20
-3.0022792114
 10
6.685990803
 20
-2.9895499204
 10
6.7047088645
 20
-2.9776866955
 10
6.7240131694
 20
-2.9666186828
 10
6.743773464
 20
-2.9562484953
 10
6.7640066283
 20
-2.9466004647
 10
6.7846957823
 20
-2.93765026
 10
6.8056600324
 20
-2.9292274998
 10
6.8268546493
 20
-2.9212534246
 10
6.8483243623
 20
-2.9138067942
 10
6.8700224649
 20
-2.9069535065
 10
6.8919378717
 20
-2.9006868453
 10
6.9140816681
 20
-2.8950135271
 10
6.9364404037
 20
-2.8900195986
 10
6.9590531171
 20
-2.8857543865
 10
6.9818807697
 20
-2.8821685644
 10
7.0047927957
 20
-2.8792001995
 10
7.0277813627
 20
-2.8768663628
 10
7.0508543031
 20
-2.8751499834
 10
7.073904548
 20
-2.8739379156
 10
7.0968964077
 20
-2.8731924441
 10
7.119865572
 20
-2.8729512843
 10
7.1428120408
 20
-2.8732144362
  0
LWPOLYLINE
  5
4AF
100
AcDbEntity
  8
RACCORDO
100
AcDbPolyline
 62
7
  6
CONTINUOUS
 90
70
 70
0
 10
5.8907366754
 20
-12.1997362057
 10
5.8913495522
 20
-12.1718287989
 10
5.8931764909
 20
-12.1440851105
 10
5.8962174916
 20
-12.1165051411
 10
5.9004954644
 20
-12.0889956244
 10
5.9059874992
 20
-12.0616498279
 10
5.9126248653
 20
-12.0347475549
 10
5.9204234714
 20
-12.0083140596
 10
5.9293674088
 20
-11.9823240914
 10
5.9393402217
 20
-11.9569816981
 10
5.9503176096
 20
-11.932347152
 10
5.9623238729
 20
-11.9083601858
 10
5.9753154568
 20
-11.8850440387
 10
5.9893151776
 20
-11.862355672
 10
6.004300219
 20
-11.8403381288
 10
6.0201585762
 20
-11.8191437715
 10
6.0369158015
 20
-11.7987681221
 10
6.0545463426
 20
-11.7792156636
 10
6.0728615382
 20
-11.7606522014
 10
6.0918574873
 20
-11.7431067454
 10
6.111538091
 20
-11.7265502908
 10
6.1317263902
 20
-11.7110616208
 10
6.152364049
 20
-11.6966770579
 10
6.1735094035
 20
-11.6833602842
 10
6.1951605028
 20
-11.671081122
 10
6.2173689234
 20
-11.6598052133
 10
6.2400830889
 20
-11.6495669196
 10
6.2631463192
 20
-11.6404391419
 10
6.2865753515
 20
-11.6324320755
 10
6.3103534487
 20
-11.6255355278
 10
6.3342737186
 20
-11.6197918172
 10
6.3583206103
 20
-11.6152189417
 10
6.3825096748
 20
-11.6117989049
 10
6.4066806725
 20
-11.6095200338
 10
6.4307677936
 20
-11.6083783645
 10
6.4548368479
 20
-11.6083778613
 10
6.4789250256
 20
-11.6095187428
 10
6.5030987902
 20
-11.6117972724
 10
6.5272916781
 20
-11.6152171862
 10
6.5513414893
 20
-11.6197899116
 10
6.5752631106
 20
-11.6255334981
 10
6.5990416552
 20
-11.6324298945
 10
6.6224702628
 20
-11.6404363774
 10
6.6455316864
 20
-11.6495627922
 10
6.668243173
 20
-11.6597992907
 10
6.6904496031
 20
-11.6710736093
 10
6.7120997947
 20
-11.6833513513
 10
6.7332449299
 20
-11.69666691
 10
6.7538834351
 20
-11.7110512062
 10
6.7740744415
 20
-11.7265413471
 10
6.7937588179
 20
-11.7431002208
 10
6.8127575981
 20
-11.7606474194
 10
6.8310738962
 20
-11.779211511
 10
6.8487045981
 20
-11.7987639222
 10
6.8654613954
 20
-11.8191385327
 10
6.8813185048
 20
-11.8403303217
 10
6.8963017097
 20
-11.8623443051
 10
6.9103000514
 20
-11.8850294185
 10
6.9232909933
 20
-11.9083425726
 10
6.9352970719
 20
-11.9323268523
 10
6.9462749385
 20
-11.9569604554
 10
6.9562493062
 20
-11.9823048727
 10
6.9651954619
 20
-12.0082986084
 10
6.9729959174
 20
-12.034735381
 10
6.9796343454
 20
-12.0616394272
 10
6.9851270733
 20
-12.0889865068
 10
6.9894055939
 20
-12.1164976243
 10
6.9924470718
 20
-12.1440797816
 10
6.9942743426
 20
-12.1718259756
 10
6.9948874062
 20
-12.1997362057
  0
LWPOLYLINE
  5
4B0
100
AcDbEntity
  8
RACCORDO
100
AcDbPolyline
 62
7
  6
CONTINUOUS
 90
70
 70
0
 10
6.9948874062
 20
12.1777621241
 10
6.9942742649
 20
12.1498508673
 10
6.992446879
 20
12.1221038045
 10
6.9894052485
 20
12.0945209364
 10
6.9851265295
 20
12.0670092947
 10
6.979633566
 20
12.0396618488
 10
6.9729948898
 20
12.0127575076
 10
6.9651941527
 20
11.9863204472
 10
6.956247703
 20
11.9603264951
 10
6.9462731176
 20
11.9349820385
 10
6.9352951527
 20
11.910348665
 10
6.9232890521
 20
11.886364792
 10
6.9102981249
 20
11.8630520518
 10
6.8962998459
 20
11.8403673311
 10
6.8813167403
 20
11.8183537477
 10
6.8654596926
 20
11.7971622807
 10
6.8487029004
 20
11.7767878757
 10
6.8310721662
 20
11.7572355922
 10
6.8127557817
 20
11.7386715813
 10
6.793756827
 20
11.7211243999
 10
6.7740722221
 20
11.7045654963
 10
6.7538810188
 20
11.6890753594
 10
6.7332423641
 20
11.6746911292
 10
6.7120971111
 20
11.6613756703
 10
6.6904468709
 20
11.649098059
 10
6.6682404903
 20
11.637823915
 10
6.6455291226
 20
11.627587622
 10
6.6224678384
 20
11.6184614022
 10
6.5990393826
 20
11.6104550922
 10
6.5752610102
 20
11.603558858
 10
6.5513395576
 20
11.5978154152
 10
6.5272899121
 20
11.5932428104
 10
6.5030971862
 20
11.5898229986
 10
6.478923554
 20
11.5875445579
 10
6.4548354568
 20
11.5864037521
 10
6.4307664534
 20
11.5864043178
 10
6.4066793932
 20
11.587546042
 10
6.382508475
 20
11.5898249654
 10
6.3583195001
 20
11.5932450467
 10
6.3342727223
 20
11.5978179495
 10
6.3103525999
 20
11.6035616688
 10
6.2865746745
 20
11.6104582079
 10
6.2631458252
 20
11.6184652423
 10
6.2400828068
 20
11.6275929502
 10
6.2173688644
 20
11.6378311507
 10
6.1951606128
 20
11.6491069812
 10
6.1735096021
 20
11.661386087
 10
6.1523642821
 20
11.6747028193
 10
6.1317266169
 20
11.6890873735
 10
6.1115382447
 20
11.7045761008
 10
6.0918575272
 20
11.7211326454
 10
6.0728615143
 20
11.7386781428
 10
6.0545463465
 20
11.7572415707
 10
6.0369158832
 20
11.7767939462
 10
6.020158753
 20
11.7971694646
 10
6.00430052
 20
11.8183636048
 10
5.98931562
 20
11.8403808828
 10
5.9753159883
 20
11.8630690506
 10
5.9623244129
 20
11.8863850822
 10
5.9503181059
 20
11.9103719991
 10
5.9393406382
 20
11.9350066247
 10
5.9293676861
 20
11.9603493315
 10
5.9204235735
 20
11.9863397422
 10
5.9126248428
 20
12.0127735563
 10
5.9059874488
 20
12.0396758995
 10
5.9004954368
 20
12.0670216426
 10
5.8962174856
 20
12.0945311051
 10
5.8931764881
 20
12.1221110602
 10
5.8913495513
 20
12.1498547334
 10
5.8907366754
 20
12.1777621241
  0
LWPOLYLINE
  5
4B1
100
AcDbEntity
  8
RACCORDO
100
AcDbPolyline
 62
253
  6
CONTINUOUS
 90
67
 70
0
 10
6.685793924
 20
18.8871202438
 10
6.685507425
 20
18.8746692459
 10
6.6846664852
 20
18.8623053142
 10
6.6832711045
 20
18.8500284489
 10
6.6813146536
 20
18.8378093442
 10
6.6788037619
 20
18.8256773059
 10
6.6757583172
 20
18.8137202502
 10
6.6721742095
 20
18.8019403452
 10
6.6680555489
 20
18.7903354229
 10
6.6634345538
 20
18.7789868963
 10
6.6583076247
 20
18.7678973466
 10
6.6526783611
 20
18.7570641926
 10
6.6465897803
 20
18.7465611039
 10
6.6400388737
 20
18.7363910375
 10
6.6330286499
 20
18.7265510364
 10
6.6256111522
 20
18.7171058983
 10
6.6177839567
 20
18.708058894
 10
6.6095494873
 20
18.6994067527
 10
6.6009670588
 20
18.69120446
 10
6.592034939
 20
18.6834555105
 10
6.5827548601
 20
18.6761564097
 10
6.5731913332
 20
18.6693516589
 10
6.5633431674
 20
18.6630447182
 10
6.5532115535
 20
18.6572321275
 10
6.5428645751
 20
18.651948009
 10
6.5323013669
 20
18.6471956949
 10
6.5215227941
 20
18.6429718529
 10
6.5105995356
 20
18.6393006077
 10
6.4995311546
 20
18.6361852398
 10
6.488318088
 20
18.6336224688
 10
6.4770323247
 20
18.6316265777
 10
6.4656736217
 20
18.6302007484
 10
6.454242222
 20
18.6293417991
 10
6.4428108437
 20
18.6290544673
 10
6.431379498
 20
18.6293419141
 10
6.4199481736
 20
18.6302009784
 10
6.4085895547
 20
18.6316269149
 10
6.3973038758
 20
18.6336229026
 10
6.3860909024
 20
18.6361857625
 10
6.3750226152
 20
18.6393012119
 10
6.3640994484
 20
18.6429725315
 10
6.3533209679
 20
18.6471964406
 10
6.342757852
 20
18.651948815
 10
6.3324109653
 20
18.6572329875
 10
6.3222794432
 20
18.6630456251
 10
6.3124313704
 20
18.6693526047
 10
6.3028679392
 20
18.6761573849
 10
6.2935879572
 20
18.683456507
 10
6.284655932
 20
18.6912054715
 10
6.2760735947
 20
18.6994077733
 10
6.2678392141
 20
18.7080599175
 10
6.2600121041
 20
18.7171069203
 10
6.2525946881
 20
18.7265520534
 10
6.2455845427
 20
18.7363920451
 10
6.2390337114
 20
18.7465620957
 10
6.232945203
 20
18.7570651615
 10
6.2273160088
 20
18.7678982863
 10
6.2221891464
 20
18.7789878017
 10
6.2175682168
 20
18.7903362897
 10
6.213449619
 20
18.8019411683
 10
6.2098655668
 20
18.8137210233
 10
6.206820168
 20
18.8256780347
 10
6.2043093148
 20
18.8378100224
 10
6.2023528981
 20
18.8500290326
 10
6.2009575482
 20
18.8623057472
 10
6.2001166347
 20
18.8746694843
 10
6.1998301576
 20
18.8871202438
  0
LWPOLYLINE
  5
4B2
100
AcDbEntity
  8
RACCORDO
100
AcDbPolyline
 62
253
  6
CONTINUOUS
 90
67
 70
0
 10
6.1998301576
 20
-18.9090943254
 10
6.2001166347
 20
-18.8966435657
 10
6.2009575482
 20
-18.8842798286
 10
6.2023528982
 20
-18.8720031139
 10
6.2043093149
 20
-18.8597841037
 10
6.2068201681
 20
-18.847652116
 10
6.2098655669
 20
-18.8356951046
 10
6.2134496191
 20
-18.8239152496
 10
6.2175682169
 20
-18.812310371
 10
6.2221891465
 20
-18.800961883
 10
6.227316009
 20
-18.7898723676
 10
6.2329452032
 20
-18.7790392428
 10
6.2390337116
 20
-18.768536177
 10
6.2455845429
 20
-18.7583661264
 10
6.2525946883
 20
-18.7485261348
 10
6.2600121043
 20
-18.7390810017
 10
6.2678392144
 20
-18.7300339989
 10
6.2760735949
 20
-18.7213818547
 10
6.2846559322
 20
-18.713179553
 10
6.2935879575
 20
-18.7054305884
 10
6.3028679394
 20
-18.6981314664
 10
6.3124313706
 20
-18.6913266862
 10
6.3222794434
 20
-18.6850197066
 10
6.3324109655
 20
-18.679207069
 10
6.3427578523
 20
-18.6739228965
 10
6.3533209682
 20
-18.6691705221
 10
6.3640994487
 20
-18.664946613
 10
6.3750226155
 20
-18.6612752934
 10
6.3860909026
 20
-18.658159844
 10
6.3973038761
 20
-18.6555969842
 10
6.408589555
 20
-18.6536009965
 10
6.4199481739
 20
-18.65217506
 10
6.4313794982
 20
-18.6513159957
 10
6.4428108439
 20
-18.651028549
 10
6.4542422223
 20
-18.6513158807
 10
6.465673622
 20
-18.6521748301
 10
6.477032325
 20
-18.6536006594
 10
6.4883180883
 20
-18.6555965505
 10
6.4995311549
 20
-18.6581593215
 10
6.5105995358
 20
-18.6612746894
 10
6.5215227943
 20
-18.6649459346
 10
6.5323013671
 20
-18.6691697766
 10
6.5428645753
 20
-18.6739220907
 10
6.5532115538
 20
-18.6792062093
 10
6.5633431676
 20
-18.6850188
 10
6.5731913334
 20
-18.6913257407
 10
6.5827548603
 20
-18.6981304915
 10
6.5920349392
 20
-18.7054295924
 10
6.600967059
 20
-18.7131785418
 10
6.6095494875
 20
-18.7213808345
 10
6.6177839569
 20
-18.7300329758
 10
6.6256111523
 20
-18.7390799801
 10
6.6330286501
 20
-18.7485251182
 10
6.6400388738
 20
-18.7583651194
 10
6.6465897804
 20
-18.7685351857
 10
6.6526783612
 20
-18.7790382745
 10
6.6583076248
 20
-18.7898714285
 10
6.6634345539
 20
-18.8009609782
 10
6.668055549
 20
-18.8123095048
 10
6.6721742096
 20
-18.8239144271
 10
6.6757583173
 20
-18.8356943322
 10
6.6788037619
 20
-18.8476513878
 10
6.6813146537
 20
-18.8597834262
 10
6.6832711046
 20
-18.8720025308
 10
6.6846664853
 20
-18.8842793961
 10
6.6855074251
 20
-18.8966433276
 10
6.685793924
 20
-18.9090943254
  0
LWPOLYLINE
  5
4B3
100
AcDbEntity
  8
RACCORDO
100
AcDbPolyline
 62
253
  6
CONTINUOUS
 90
67
 70
0
 10
6.885790545
 20
18.8871266511
 10
6.8852595336
 20
18.8656548296
 10
6.8837052005
 20
18.8442468502
 10
6.8811321824
 20
18.822948919
 10
6.8775472164
 20
18.8018022676
 10
6.872959714
 20
18.7808570591
 10
6.8673824655
 20
18.7601721571
 10
6.8608299169
 20
18.7397916508
 10
6.8533188529
 20
18.7197590042
 10
6.8448702596
 20
18.700130621
 10
6.8355061806
 20
18.6809486955
 10
6.825250044
 20
18.6622523306
 10
6.8141290456
 20
18.6440911886
 10
6.8021713815
 20
18.6265033426
 10
6.789406503
 20
18.6095240272
 10
6.775866736
 20
18.5931962455
 10
6.7615856129
 20
18.5775535125
 10
6.7465975387
 20
18.5626262521
 10
6.7309386253
 20
18.5484502818
 10
6.7146468984
 20
18.5350541317
 10
6.6977605886
 20
18.5224628957
 10
6.6803178301
 20
18.5107047709
 10
6.6623599175
 20
18.4998028783
 10
6.6439280967
 20
18.4897770232
 10
6.6250614686
 20
18.4806482421
 10
6.6058034709
 20
18.4724341059
 10
6.586197707
 20
18.4651492069
 10
6.5662841134
 20
18.4588081875
 10
6.5461078608
 20
18.4534231912
 10
6.5257138644
 20
18.4490033867
 10
6.5051419727
 20
18.4455572714
 10
6.4844380933
 20
18.4430915692
 10
6.4636481105
 20
18.4416101935
 10
6.4428119471
 20
18.4411159429
 10
6.4219757733
 20
18.4416102078
 10
6.4011857665
 20
18.4430915999
 10
6.3804818609
 20
18.4455573206
 10
6.3599099442
 20
18.4490034562
 10
6.3395159209
 20
18.4534232835
 10
6.3193396408
 20
18.4588083051
 10
6.2994260191
 20
18.4651493527
 10
6.2798202268
 20
18.4724342828
 10
6.2605622027
 20
18.4806484527
 10
6.241695549
 20
18.4897772707
 10
6.2232637048
 20
18.4998031651
 10
6.2053057762
 20
18.5107050965
 10
6.1878630116
 20
18.5224632569
 10
6.1709767024
 20
18.5350545263
 10
6.1546849785
 20
18.5484507102
 10
6.13902607
 20
18.5626267156
 10
6.1240380032
 20
18.5775540111
 10
6.1097568893
 20
18.5931967805
 10
6.0962171319
 20
18.6095246014
 10
6.0834522652
 20
18.6265039573
 10
6.071494619
 20
18.6440918395
 10
6.0603736463
 20
18.6622530101
 10
6.0501175397
 20
18.6809493981
 10
6.0407534919
 20
18.7001313448
 10
6.0323049273
 20
18.7197597544
 10
6.024793894
 20
18.7397924256
 10
6.0182413846
 20
18.7601729364
 10
6.0126641238
 20
18.7808580577
 10
6.0080766335
 20
18.8018034685
 10
6.0044918074
 20
18.8229495638
 10
6.0019189723
 20
18.8442459189
 10
6.0003647083
 20
18.865651545
 10
5.9998335423
 20
18.8871202438
  0
LWPOLYLINE
  5
4B4
100
AcDbEntity
  8
RACCORDO
100
AcDbPolyline
 62
253
  6
CONTINUOUS
 90
67
 70
0
 10
5.9998335423
 20
-18.9090943254
 10
6.0003647083
 20
-18.8876256269
 10
6.0019189722
 20
-18.8662200009
 10
6.0044918073
 20
-18.8449236457
 10
6.0080766335
 20
-18.8237775501
 10
6.0126641239
 20
-18.8028321389
 10
6.0182413848
 20
-18.7821470172
 10
6.0247938942
 20
-18.7617665065
 10
6.0323049275
 20
-18.7417338354
 10
6.0407534921
 20
-18.7221054259
 10
6.0501175399
 20
-18.7029234793
 10
6.0603736466
 20
-18.6842270913
 10
6.0714946194
 20
-18.6660659207
 10
6.0834522655
 20
-18.6484780384
 10
6.0962171322
 20
-18.6314986826
 10
6.1097568897
 20
-18.6151708617
 10
6.1240380036
 20
-18.5995280924
 10
6.1390260704
 20
-18.5846007968
 10
6.1546849789
 20
-18.5704247915
 10
6.1709767028
 20
-18.5570286076
 10
6.1878630121
 20
-18.5444373382
 10
6.2053057766
 20
-18.5326791779
 10
6.2232637053
 20
-18.5217772464
 10
6.2416955495
 20
-18.5117513521
 10
6.2605622032
 20
-18.5026225341
 10
6.2798202273
 20
-18.4944083643
 10
6.2994260196
 20
-18.4871234341
 10
6.3193396413
 20
-18.4807823866
 10
6.3395159214
 20
-18.475397365
 10
6.3599099447
 20
-18.4709775377
 10
6.3804818615
 20
-18.4675314021
 10
6.401185767
 20
-18.4650656815
 10
6.4219757738
 20
-18.4635842894
 10
6.4428119476
 20
-18.4630900245
 10
6.463648111
 20
-18.4635842752
 10
6.4844380938
 20
-18.4650656509
 10
6.5051419732
 20
-18.4675313531
 10
6.5257138649
 20
-18.4709774685
 10
6.5461078613
 20
-18.475397273
 10
6.5662841139
 20
-18.4807822693
 10
6.5861977075
 20
-18.4871232887
 10
6.6058034714
 20
-18.4944081877
 10
6.625061469
 20
-18.5026223239
 10
6.6439280971
 20
-18.5117511051
 10
6.6623599179
 20
-18.5217769602
 10
6.6803178306
 20
-18.5326788528
 10
6.697760589
 20
-18.5444369776
 10
6.7146468988
 20
-18.5570282137
 10
6.7309386257
 20
-18.5704243638
 10
6.746597539
 20
-18.5846003341
 10
6.7615856133
 20
-18.5995275945
 10
6.7758667363
 20
-18.6151703275
 10
6.7894065033
 20
-18.6314981092
 10
6.8021713818
 20
-18.6484774246
 10
6.8141290459
 20
-18.6660652706
 10
6.8252500442
 20
-18.6842264127
 10
6.8355061808
 20
-18.7029227775
 10
6.8448702598
 20
-18.722104703
 10
6.8533188531
 20
-18.7417330863
 10
6.8608299171
 20
-18.7617657331
 10
6.8673824656
 20
-18.7821462394
 10
6.8729597141
 20
-18.802831141
 10
6.8775472164
 20
-18.823776349
 10
6.8811321824
 20
-18.8449230003
 10
6.8837052005
 20
-18.8662209318
 10
6.8852595336
 20
-18.887628912
 10
6.885790545
 20
-18.9091007346
  0
LWPOLYLINE
  5
4B5
100
AcDbEntity
  8
ASSI
100
AcDbPolyline
 62
7
  6
CONTINUOUS
 90
17
 70
0
 10
3.1428120408
 20
-23.7621293311
 10
3.1431429904
 20
-23.7594203626
 10
3.1441492993
 20
-23.756042535
 10
3.1458504734
 20
-23.7519958483
 10
3.1482666086
 20
-23.7472937394
 10
3.1514143082
 20
-23.7419227714
 10
3.1553025317
 20
-23.7358426337
 10
3.1599420366
 20
-23.729045221
 10
3.1653428364
 20
-23.7215386384
 10
3.171503892
 20
-23.7133068914
 10
3.1784121226
 20
-23.7043695108
 10
3.1860826901
 20
-23.6947069657
 10
3.1945628789
 20
-23.6842446688
 10
3.2038659893
 20
-23.67298417
 10
3.2139961521
 20
-23.6609239194
 10
3.2250037309
 20
-23.6479846804
 10
3.2369015335
 20
-23.6341647012
  0
LINE
  5
4B6
100
AcDbEntity
  8
RACCORDO
100
AcDbLine
 62
7
  6
CONTINUOUS
 10
-6.7136361392
 20
-20.395660505
 11
-6.6094031101
 21
-20.2393087563
  0
LINE
  5
4B7
100
AcDbEntity
  8
0
100
AcDbLine
 62
7
  6
CONTINUOUS
 10
2.9428120408
 20
-7.0109870408
 11
0.6428120408
 21
-9.3109870408
  0
LINE
  5
4B8
100
AcDbEntity
  8
0
100
AcDbLine
 62
7
  6
CONTINUOUS
 10
7.8428120408
 20
-4.2121380408
 11
6.4428120408
 21
-4.7190820408
  0
LINE
  5
4B9
100
AcDbEntity
  8
0
100
AcDbLine
 62
7
  6
CONTINUOUS
 10
7.8428120408
 20
-4.4188490408
 11
7.4353230408
 21
-4.5572750408
  0
LINE
  5
4BA
100
AcDbEntity
  8
0
100
AcDbLine
 62
7
  6
CONTINUOUS
 10
7.2676400408
 20
-4.6254690408
 11
6.6458800408
 21
-4.8340480408
  0
LINE
  5
4BB
100
AcDbEntity
  8
0
100
AcDbLine
 62
7
  6
CONTINUOUS
 10
-3.3571949592
 20
-8.6890940408
 11
-6.1573279592
 21
-9.5881250408
  0
LINE
  5
4BC
100
AcDbEntity
  8
0
100
AcDbLine
 62
7
  6
CONTINUOUS
 10
3.7853652392
 20
6.8915130021
 11
3.6577056441
 21
6.8690129592
  0
LINE
  5
4BD
100
AcDbEntity
  8
0
100
AcDbLine
 62
7
  6
CONTINUOUS
 10
3.4279184375
 20
7.6790129592
 11
3.3002588782
 21
7.6565129163
  0
LINE
  5
4BE
100
AcDbEntity
  8
0
100
AcDbLine
 62
7
  6
CONTINUOUS
 10
3.7853652392
 20
7.8815129592
 11
3.6577056441
 21
7.8590129163
  0
LINE
  5
4BF
100
AcDbEntity
  8
0
100
AcDbLine
 62
7
  6
CONTINUOUS
 10
3.7853652392
 20
7.0040129592
 11
3.6321737323
 21
6.9815129163
  0
LINE
  5
4C0
100
AcDbEntity
  8
0
100
AcDbLine
 62
7
  6
CONTINUOUS
 10
3.4534503493
 20
7.5665130021
 11
3.3002588782
 21
7.5440129592
  0
LINE
  5
4C1
100
AcDbEntity
  8
0
100
AcDbLine
 62
7
  6
CONTINUOUS
 10
3.7853652392
 20
7.994013045
 11
3.6321737323
 21
7.9715128734
  0
LWPOLYLINE
  5
4C2
100
AcDbEntity
  8
0
100
AcDbPolyline
 62
7
  6
CONTINUOUS
 90
97
 70
0
 10
-0.3571879592
 20
6.5748165359
 10
-0.3029288702
 20
6.5757806297
 10
-0.2485375158
 20
6.5787363216
 10
-0.1940138961
 20
6.5836836111
 10
-0.1393215127
 20
6.590596454
 10
-0.0844968639
 20
6.5995008927
 10
-0.0296494451
 20
6.6104750558
 10
0.0252005637
 20
6.6235070831
 10
0.0800733425
 20
6.6386088308
 10
0.1349199364
 20
6.6558940017
 10
0.1897696856
 20
6.6753759946
 10
0.24459325
 20
6.6970414041
 10
0.299253654
 20
6.7209637261
 10
0.3537180769
 20
6.7471095122
 10
0.4080193395
 20
6.7755122015
 10
0.4621189285
 20
6.8063456197
 10
0.5160777805
 20
6.8396423001
 10
0.5698349589
 20
6.8753696962
 10
0.62316914
 20
6.9136040135
 10
0.6761001955
 20
6.9543685823
 10
0.7286082536
 20
6.9976400551
 10
0.780412375
 20
7.0434246183
 10
0.8314698657
 20
7.0916812585
 10
0.8818234196
 20
7.1424509683
 10
0.9313201788
 20
7.1958629411
 10
0.979986228
 20
7.251934644
 10
1.0277954825
 20
7.3106485834
 10
1.0745168298
 20
7.3720815101
 10
1.1201956375
 20
7.4363000957
 10
1.164786538
 20
7.5032376359
 10
1.2079223165
 20
7.5727708162
 10
1.2495788428
 20
7.6448813987
 10
1.289780247
 20
7.7195875849
 10
1.3282317046
 20
7.7968207196
 10
1.364955214
 20
7.8766469111
 10
1.3999287767
 20
7.9590000095
 10
1.4327915724
 20
8.043612973
 10
1.4635401658
 20
8.1305673415
 10
1.4921779922
 20
8.219781532
 10
1.5183545369
 20
8.3107438232
 10
1.5420318887
 20
8.403420479
 10
1.5632479588
 20
8.4978451973
 10
1.5817659662
 20
8.5936074153
 10
1.5975677069
 20
8.6908059522
 10
1.6106713849
 20
8.7893419542
 10
1.6208948313
 20
8.8885083595
 10
1.6281959801
 20
8.9882796277
 10
1.6326168973
 20
9.088681278
 10
1.6341016121
 20
9.1890828533
 10
1.6326128475
 20
9.2894841294
 10
1.6281878804
 20
9.3898853222
 10
1.6208825708
 20
9.4896566493
 10
1.610654855
 20
9.5888239593
 10
1.5975467966
 20
9.6873614098
 10
1.5817404472
 20
9.7845616967
 10
1.5632176044
 20
9.8803259699
 10
1.5419964705
 20
9.9747531035
 10
1.5183137038
 20
10.0674323931
 10
1.4921312943
 20
10.1583977718
 10
1.463487252
 20
10.247615339
 10
1.4327322656
 20
10.334572651
 10
1.3998628791
 20
10.4191880714
 10
1.3648825484
 20
10.5015432806
 10
1.3281523306
 20
10.5813708171
 10
1.2896942916
 20
10.6586044018
 10
1.2494863655
 20
10.7333103612
 10
1.2078234118
 20
10.8054201451
 10
1.1646812089
 20
10.8749521238
 10
1.1200839785
 20
10.941887972
 10
1.0743992452
 20
11.0061040969
 10
1.0276724763
 20
11.0675336797
 10
0.9798582045
 20
11.126243583
 10
0.9311875521
 20
11.1823107357
 10
0.8816864996
 20
11.2357177724
 10
0.8313290664
 20
11.2864820963
 10
0.7802684334
 20
11.3347327867
 10
0.7284616304
 20
11.3805109734
 10
0.6759516276
 20
11.423775558
 10
0.6230205157
 20
11.4645322745
 10
0.5696887034
 20
11.5027573533
 10
0.515935782
 20
11.5384745912
 10
0.4619826158
 20
11.5717610709
 10
0.4078901772
 20
11.6025843689
 10
0.3535974939
 20
11.6309769303
 10
0.2991425135
 20
11.6571131393
 10
0.2444923129
 20
11.6810265581
 10
0.1896798154
 20
11.7026836402
 10
0.1348417377
 20
11.722158104
 10
0.0800078805
 20
11.7394365312
 10
0.0251484432
 20
11.7545323515
 10
-0.0296892591
 20
11.7675595537
 10
-0.0845256194
 20
11.7785302306
 10
-0.1393402447
 20
11.7874322965
 10
-0.1940246407
 20
11.7943434713
 10
-0.2485426428
 20
11.7992896625
 10
-0.3029304156
 20
11.802244966
 10
-0.3571879592
 20
11.8032093824
  0
LWPOLYLINE
  5
4C3
100
AcDbEntity
  8
0
100
AcDbPolyline
 62
7
  6
CONTINUOUS
 90
48
 70
0
 10
-5.2963147145
 20
6.51747078
 10
-5.315763002
 20
6.5172835211
 10
-5.3343966301
 20
6.516673149
 10
-5.3522155988
 20
6.5156396637
 10
-5.3691773259
 20
6.5141739164
 10
-5.3853243936
 20
6.5122850559
 10
-5.4007845482
 20
6.5100005285
 10
-5.4155513104
 20
6.5073117752
 10
-5.4296311596
 20
6.5042273547
 10
-5.4431712794
 20
6.5008003905
 10
-5.4561932396
 20
6.4970363708
 10
-5.4686754705
 20
6.4929298071
 10
-5.4807004471
 20
6.4885173581
 10
-5.4922653137
 20
6.4838140735
 10
-5.5033729259
 20
6.4788049034
 10
-5.5141143259
 20
6.4734813568
 10
-5.5244852754
 20
6.4678414064
 10
-5.5344900127
 20
6.4618870792
 10
-5.544232294
 20
6.4556159659
 10
-5.5537431511
 20
6.4489970774
 10
-5.5629915523
 20
6.4420614025
 10
-5.5719881591
 20
6.4348994986
 10
-5.5807615557
 20
6.4275329422
 10
-5.5892831579
 20
6.4199401567
 10
-5.5974778745
 20
6.4121469701
 10
-5.6053559615
 20
6.4041707219
 10
-5.6129071628
 20
6.3959940725
 10
-5.6200256191
 20
6.3875908312
 10
-5.6267267638
 20
6.3789604044
 10
-5.6329951636
 20
6.3701033853
 10
-5.6386786585
 20
6.3609953629
 10
-5.6436880973
 20
6.3516153827
 10
-5.6481126312
 20
6.3419843988
 10
-5.6520675543
 20
6.3321408636
 10
-5.655510458
 20
6.3220778205
 10
-5.6584837509
 20
6.3118022258
 10
-5.6612299524
 20
6.3013734011
 10
-5.6637984111
 20
6.2908002415
 10
-5.6661397783
 20
6.2800738516
 10
-5.6683485274
 20
6.2692268675
 10
-5.6704474256
 20
6.2582495389
 10
-5.6724137056
 20
6.2471516157
 10
-5.674273539
 20
6.2359949839
 10
-5.6760225459
 20
6.2247881746
 10
-5.6776651061
 20
6.2135226566
 10
-5.6792405305
 20
6.2022347214
 10
-5.6807487875
 20
6.1909316608
 10
-5.6836032991
 20
6.1682727051
  0
LINE
  5
4C4
100
AcDbEntity
  8
0
100
AcDbLine
 62
7
  6
CONTINUOUS
 10
7.8428120408
 20
5.6370009592
 11
7.6751290408
 21
5.6370009592
  0
LINE
  5
4C5
100
AcDbEntity
  8
0
100
AcDbLine
 62
7
  6
CONTINUOUS
 10
-3.3571879592
 20
5.7495329592
 11
-4.4354409592
 21
5.7495329592
  0
LINE
  5
4C6
100
AcDbEntity
  8
0
100
AcDbLine
 62
7
  6
CONTINUOUS
 10
-4.9007549592
 20
5.7495329592
 11
-5.6918739592
 21
5.7495329592
  0
LINE
  5
4C7
100
AcDbEntity
  8
0
100
AcDbLine
 62
7
  6
CONTINUOUS
 10
7.8428120408
 20
6.2297219592
 11
7.2793020408
 21
6.2297219592
  0
LINE
  5
4C8
100
AcDbEntity
  8
0
100
AcDbLine
 62
7
  6
CONTINUOUS
 10
7.8428120408
 20
6.4188039592
 11
7.2793020408
 21
6.4188039592
  0
LINE
  5
4C9
100
AcDbEntity
  8
0
100
AcDbLine
 62
7
  6
CONTINUOUS
 10
3.6577056441
 20
6.8690129592
 11
3.4279184375
 21
6.8690129592
  0
LINE
  5
4CA
100
AcDbEntity
  8
0
100
AcDbLine
 62
7
  6
CONTINUOUS
 10
3.6321737323
 20
6.9815129163
 11
3.4534503493
 21
6.9815129163
  0
LWPOLYLINE
  5
4CB
100
AcDbEntity
  8
0
100
AcDbPolyline
 62
7
  6
CONTINUOUS
 90
48
 70
0
 10
-5.2963147145
 20
7.157383663
 10
-5.2668427675
 20
7.1571629124
 10
-5.2372234777
 20
7.1561972204
 10
-5.2074568451
 20
7.1544865869
 10
-5.1774249227
 20
7.1520691457
 10
-5.1472456574
 20
7.1489067628
 10
-5.1172728902
 20
7.1448850361
 10
-5.0875002
 20
7.1399811901
 10
-5.0579340078
 20
7.1342179997
 10
-5.0289474177
 20
7.1275493886
 10
-5.0006272421
 20
7.1199513146
 10
-4.9728866686
 20
7.1114478188
 10
-4.9458383642
 20
7.1020649502
 10
-4.919556479
 20
7.0918289856
 10
-4.8939668629
 20
7.0807136467
 10
-4.8689597322
 20
7.0686661499
 10
-4.8445019279
 20
7.0557092703
 10
-4.8206266091
 20
7.0418202308
 10
-4.7973234697
 20
7.0268779188
 10
-4.7745232792
 20
7.0108207265
 10
-4.752295268
 20
6.9937102588
 10
-4.7308368214
 20
6.9756102216
 10
-4.7101746101
 20
6.956496452
 10
-4.6902819633
 20
6.9363931099
 10
-4.6712762545
 20
6.9154363852
 10
-4.6531435271
 20
6.8935842468
 10
-4.6358977376
 20
6.8708787229
 10
-4.6196981283
 20
6.8475820934
 10
-4.6046638103
 20
6.8237313529
 10
-4.5906756724
 20
6.7992895046
 10
-4.5775356239
 20
6.7744078419
 10
-4.565306207
 20
6.7491519418
 10
-4.5539248794
 20
6.7234562258
 10
-4.5430059233
 20
6.6972752541
 10
-4.5324517724
 20
6.6705859725
 10
-4.5223599931
 20
6.6434114332
 10
-4.5126375668
 20
6.6157753557
 10
-4.5031139141
 20
6.5876231653
 10
-4.4939596144
 20
6.5590094348
 10
-4.4855933883
 20
6.5301216054
 10
-4.4780894032
 20
6.5009599336
 10
-4.4713734916
 20
6.4715241619
 10
-4.4656418714
 20
6.4420009609
 10
-4.4611263037
 20
6.4123752969
 10
-4.4575950273
 20
6.3826622034
 10
-4.4545489766
 20
6.3530934535
 10
-4.4519208566
 20
6.3237533231
 10
-4.4497779622
 20
6.2945575373
  0
LWPOLYLINE
  5
4CC
100
AcDbEntity
  8
0
100
AcDbPolyline
 62
7
  6
CONTINUOUS
 90
52
 70
0
 10
-0.3571879592
 20
6.3910058499
 10
-0.414646772
 20
6.3919582496
 10
-0.4721322735
 20
6.3948710205
 10
-0.5296444638
 20
6.3997441621
 10
-0.5872116697
 20
6.40656331
 10
-0.6448055644
 20
6.4153428268
 10
-0.7023411673
 20
6.4261258026
 10
-0.7597918407
 20
6.4389003603
 10
-0.8171842223
 20
6.4536783733
 10
-0.8745132446
 20
6.470538557
 10
-0.9318179133
 20
6.4894858844
 10
-0.9890592228
 20
6.5105153767
 10
-1.0461150886
 20
6.5336908206
 10
-1.1029480249
 20
6.5589840587
 10
-1.1595955175
 20
6.5864232402
 10
-1.2160479404
 20
6.6161566106
 10
-1.2723681027
 20
6.6482112194
 10
-1.3284931952
 20
6.6825600055
 10
-1.3842251644
 20
6.7192700476
 10
-1.4395818456
 20
6.7583627699
 10
-1.4945454035
 20
6.7998167331
 10
-1.5488642792
 20
6.8436347206
 10
-1.6025212404
 20
6.8898114573
 10
-1.6555335193
 20
6.9383521999
 10
-1.7077012531
 20
6.9892755281
 10
-1.7589944136
 20
7.042538986
 10
-1.8094430289
 20
7.0981850076
 10
-1.8589373213
 20
7.1563595055
 10
-1.907543549
 20
7.2171371648
 10
-1.9551954538
 20
7.2804432724
 10
-2.0015844824
 20
7.3461996422
 10
-2.0467079972
 20
7.4144258542
 10
-2.0905686359
 20
7.4851022966
 10
-2.1328657589
 20
7.5580919953
 10
-2.1735780595
 20
7.6333670859
 10
-2.2127268443
 20
7.7109553981
 10
-2.2500753938
 20
7.7908034991
 10
-2.2856575722
 20
7.8730195268
 10
-2.3194395152
 20
7.9574953039
 10
-2.3510829099
 20
8.0438529266
 10
-2.3805629073
 20
8.1321135255
 10
-2.4079043563
 20
8.2222559327
 10
-2.432843491
 20
8.3138388027
 10
-2.4553483659
 20
8.4068094163
 10
-2.4754509265
 20
8.50122046
 10
-2.4929832433
 20
8.5967887029
 10
-2.5079402059
 20
8.693593237
 10
-2.5203269247
 20
8.7915549394
 10
-2.5299908008
 20
8.8901532638
 10
-2.5368809679
 20
8.9892146903
 10
-2.5410482923
 20
9.0889127188
 10
-2.5424927741
 20
9.1892473383
  0
LINE
  5
4CD
100
AcDbEntity
  8
0
100
AcDbLine
 62
7
  6
CONTINUOUS
 10
3.0449396882
 20
6.2390129485
 11
3.7343014155
 21
6.0365129645
  0
LINE
  5
4CE
100
AcDbEntity
  8
0
100
AcDbLine
 62
7
  6
CONTINUOUS
 10
3.8364290629
 20
6.0140129538
 11
4.1428120408
 21
5.9240129592
  0
LINE
  5
4CF
100
AcDbEntity
  8
0
100
AcDbLine
 62
7
  6
CONTINUOUS
 10
2.9428120408
 20
6.1490129699
 11
4.1428120408
 21
5.7890129592
  0
LINE
  5
4D0
100
AcDbEntity
  8
0
100
AcDbLine
 62
7
  6
CONTINUOUS
 10
7.4353230408
 20
3.6577749592
 11
7.8428120408
 21
3.5115029592
  0
LINE
  5
4D1
100
AcDbEntity
  8
0
100
AcDbLine
 62
7
  6
CONTINUOUS
 10
6.6458800408
 20
3.9425199592
 11
7.2676400408
 21
3.7162779592
  0
LINE
  5
4D2
100
AcDbEntity
  8
0
100
AcDbLine
 62
7
  6
CONTINUOUS
 10
6.4428120408
 20
3.8430529592
 11
7.8428120408
 21
3.3165449592
  0
LWPOLYLINE
  5
4D3
100
AcDbEntity
  8
0
100
AcDbPolyline
 62
7
  6
CONTINUOUS
 90
43
 70
0
 10
-0.761055742
 20
10.7152658593
 10
-0.7563311088
 20
10.7093234021
 10
-0.7513859361
 20
10.7035772883
 10
-0.7462202239
 20
10.6980275181
 10
-0.740827647
 20
10.6926407166
 10
-0.7352145307
 20
10.6874502589
 10
-0.7293998507
 20
10.6825562706
 10
-0.7233863629
 20
10.677966762
 10
-0.7171713113
 20
10.6736737231
 10
-0.7107654037
 20
10.6697532484
 10
-0.7041575678
 20
10.6662131267
 10
-0.6973588758
 20
10.6630455697
 10
-0.6904132518
 20
10.6603033064
 10
-0.683302444
 20
10.6579984572
 10
-0.6760447043
 20
10.656118902
 10
-0.6687387123
 20
10.6546810095
 10
-0.6613836937
 20
10.6536970413
 10
-0.6539804228
 20
10.6531547359
 10
-0.6466299019
 20
10.6530336774
 10
-0.6393546224
 20
10.653320131
 10
-0.6321320929
 20
10.6540278315
 10
-0.6249958424
 20
10.655177567
 10
-0.6179434218
 20
10.6567736604
 10
-0.6109772802
 20
10.6588117887
 10
-0.6041382934
 20
10.6612997706
 10
-0.5974138023
 20
10.6642642979
 10
-0.590816466
 20
10.6676786786
 10
-0.5844251382
 20
10.6714706563
 10
-0.5782487719
 20
10.6756456173
 10
-0.572278414
 20
10.6801981748
 10
-0.5665660587
 20
10.6850399128
 10
-0.561129641
 20
10.6901616528
 10
-0.5559512259
 20
10.6955725727
 10
-0.5510290026
 20
10.7012117916
 10
-0.5463688417
 20
10.707076843
 10
-0.5419648727
 20
10.7131701929
 10
-0.5377976724
 20
10.7194383591
 10
-0.5338706228
 20
10.7258908213
 10
-0.5301803421
 20
10.7325180994
 10
-0.5266972615
 20
10.7392382717
 10
-0.5234115249
 20
10.7460240306
 10
-0.5203329885
 20
10.7529026836
 10
-0.5174616523
 20
10.7598742303
  0
LINE
  5
4D4
100
AcDbEntity
  8
0
100
AcDbLine
 62
7
  6
CONTINUOUS
 10
3.0960035119
 20
7.1615130021
 11
3.1470673356
 21
7.0940130021
  0
LWPOLYLINE
  5
4D5
100
AcDbEntity
  8
0
100
AcDbPolyline
 62
7
  6
CONTINUOUS
 90
13
 70
0
 10
-0.8959546373
 20
10.5903699446
 10
-0.9019703595
 20
10.598890255
 10
-0.9078415083
 20
10.6079243299
 10
-0.9135680836
 20
10.6174721688
 10
-0.919162646
 20
10.6275506965
 10
-0.9246126349
 20
10.6381429869
 10
-0.9298803684
 20
10.6491982622
 10
-0.9349508783
 20
10.6607050001
 10
-0.9398391328
 20
10.6726747216
 10
-0.9445523536
 20
10.6850912146
 10
-0.949092948
 20
10.6979490746
 10
-0.9534585087
 20
10.7112537046
 10
-0.9576490357
 20
10.7250051039
  0
LINE
  5
4D6
100
AcDbEntity
  8
0
100
AcDbLine
 62
7
  6
CONTINUOUS
 10
2.9683439527
 20
7.1390129592
 11
3.0449396882
 21
7.0265130021
  0
LINE
  5
4D7
100
AcDbEntity
  8
0
100
AcDbLine
 62
7
  6
CONTINUOUS
 10
2.9683439527
 20
8.129013045
 11
3.0449396882
 21
8.0165129592
  0
LINE
  5
4D8
100
AcDbEntity
  8
RACCORDO
100
AcDbLine
 62
7
  6
CONTINUOUS
 10
-6.7136361392
 20
20.3736864234
 11
-6.6094031101
 21
20.2173346747
  0
LINE
  5
4D9
100
AcDbEntity
  8
0
100
AcDbLine
 62
7
  6
CONTINUOUS
 10
3.504514173
 20
9.1865128734
 11
3.5300460849
 21
9.0965129592
  0
LINE
  5
4DA
100
AcDbEntity
  8
0
100
AcDbLine
 62
7
  6
CONTINUOUS
 10
3.0704716001
 20
12.2690129592
 11
3.0960035119
 21
12.1790127875
  0
LINE
  5
4DB
100
AcDbEntity
  8
0
100
AcDbLine
 62
7
  6
CONTINUOUS
 10
3.9896205518
 20
9.411513045
 11
4.0151524637
 21
9.3215128734
  0
LINE
  5
4DC
100
AcDbEntity
  8
0
100
AcDbLine
 62
7
  6
CONTINUOUS
 10
3.4534503493
 20
12.4490127875
 11
3.4789822612
 21
12.3590131308
  0
LINE
  5
4DD
100
AcDbEntity
  8
0
100
AcDbLine
 62
7
  6
CONTINUOUS
 10
3.5811099086
 20
12.2690129592
 11
3.6066418204
 21
12.1790127875
  0
LINE
  5
4DE
100
AcDbEntity
  8
0
100
AcDbLine
 62
7
  6
CONTINUOUS
 10
3.3768546138
 20
9.1865128734
 11
3.4023865256
 21
9.074013045
  0
LINE
  5
4DF
100
AcDbEntity
  8
0
100
AcDbLine
 62
7
  6
CONTINUOUS
 10
3.9896205518
 20
7.3865129163
 11
4.0151524637
 21
7.2740129592
  0
LINE
  5
4E0
100
AcDbEntity
  8
0
100
AcDbLine
 62
7
  6
CONTINUOUS
 10
2.9428120408
 20
12.2690129592
 11
2.9683439527
 21
12.1565131308
  0
LINE
  5
4E1
100
AcDbEntity
  8
0
100
AcDbLine
 62
7
  6
CONTINUOUS
 10
3.9896205518
 20
8.3765128734
 11
4.0151524637
 21
8.264013045
  0
LINE
  5
4E2
100
AcDbEntity
  8
0
100
AcDbLine
 62
7
  6
CONTINUOUS
 10
4.1172801267
 20
9.4340129592
 11
4.1428120408
 21
9.3215128734
  0
LINE
  5
4E3
100
AcDbEntity
  8
0
100
AcDbLine
 62
7
  6
CONTINUOUS
 10
4.1172801267
 20
12.4940131308
 11
4.1428120408
 21
12.3815127875
  0
LINE
  5
4E4
100
AcDbEntity
  8
0
100
AcDbLine
 62
7
  6
CONTINUOUS
 10
4.1172801267
 20
7.4090129592
 11
4.1428120408
 21
7.2740129592
  0
LINE
  5
4E5
100
AcDbEntity
  8
0
100
AcDbLine
 62
7
  6
CONTINUOUS
 10
4.1172801267
 20
8.399013045
 11
4.1428120408
 21
8.264013045
  0
LWPOLYLINE
  5
4E6
100
AcDbEntity
  8
0
100
AcDbPolyline
 62
7
  6
CONTINUOUS
 90
46
 70
0
 10
7.6810170408
 20
-3.4662546898
 10
7.6802751837
 20
-3.4495524134
 10
7.6788616394
 20
-3.4329429328
 10
7.6767764081
 20
-3.4164262479
 10
7.6740220284
 20
-3.3999721133
 10
7.6705959616
 20
-3.3836107746
 10
7.6664905917
 20
-3.3674329687
 10
7.6617038886
 20
-3.3514344605
 10
7.6562378826
 20
-3.3356194854
 10
7.6500910483
 20
-3.3200914861
 10
7.6432652113
 20
-3.304864915
 10
7.6357585461
 20
-3.28992532
 10
7.6275640511
 20
-3.2753327871
 10
7.6186630566
 20
-3.2610709261
 10
7.6090742324
 20
-3.2471561275
 10
7.5988465859
 20
-3.2336976483
 10
7.5879609549
 20
-3.220692241
 10
7.5764365016
 20
-3.2081431536
 10
7.5643797207
 20
-3.1961693865
 10
7.5517801663
 20
-3.1847975536
 10
7.5386482842
 20
-3.1740010417
 10
7.5251219061
 20
-3.1638190105
 10
7.5112331773
 20
-3.1542727959
 10
7.4969499525
 20
-3.1453410626
 10
7.482313628
 20
-3.1369989638
 10
7.4672996882
 20
-3.1292419352
 10
7.4519326485
 20
-3.1220745415
 10
7.4363274514
 20
-3.1154856292
 10
7.4204735358
 20
-3.1095132103
 10
7.4043814627
 20
-3.1041192731
 10
7.3881978569
 20
-3.0991786285
 10
7.3719380545
 20
-3.0946881876
 10
7.3555867194
 20
-3.0906510394
 10
7.3392444682
 20
-3.0869512621
 10
7.3229508495
 20
-3.0835560241
 10
7.3066663147
 20
-3.0804981571
 10
7.290372835
 20
-3.0777602346
 10
7.2740685132
 20
-3.0753336445
 10
7.2577552465
 20
-3.073226999
 10
7.2414206975
 20
-3.0714487075
 10
7.2250655601
 20
-3.0699966784
 10
7.2086891404
 20
-3.0688730034
 10
7.1922770205
 20
-3.0680923668
 10
7.1758243942
 20
-3.0676596634
 10
7.1593360677
 20
-3.0675699984
 10
7.1428120408
 20
-3.0678233719
  0
LWPOLYLINE
  5
4E7
100
AcDbEntity
  8
RACCORDO
100
AcDbPolyline
 62
253
  6
CONTINUOUS
 90
31
 70
0
 10
7.8971838748
 20
23.8333505265
 10
7.8975632065
 20
23.822040376
 10
7.8986241885
 20
23.8107611111
 10
7.9003639234
 20
23.7995435332
 10
7.9027776603
 20
23.7884182751
 10
7.9058588079
 20
23.7774157176
 10
7.9095989521
 20
23.7665659064
 10
7.9139878795
 20
23.7558984699
 10
7.9190136048
 20
23.7454425388
 10
7.9246624038
 20
23.7352266661
 10
7.9309188508
 20
23.725278749
 10
7.9377658607
 20
23.7156259533
 10
7.9451847358
 20
23.7062946389
 10
7.9531552167
 20
23.6973102874
 10
7.9616555378
 20
23.6886974333
 10
7.9706624863
 20
23.6804795966
 10
7.9801514662
 20
23.6726792184
 10
7.9900965651
 20
23.6653175998
 10
8.000470625
 20
23.6584148441
 10
8.0112453165
 20
23.651989801
 10
8.0223912162
 20
23.6460600161
 10
8.033877887
 20
23.6406416824
 10
8.0456739612
 20
23.6357495962
 10
8.0577472261
 20
23.6313971168
 10
8.0700647123
 20
23.6275961298
 10
8.0825927831
 20
23.6243570151
 10
8.0952972272
 20
23.6216886178
 10
8.1081433513
 20
23.619598225
 10
8.1210960754
 20
23.6180915449
 10
8.1341200282
 20
23.617172692
 10
8.147179644
 20
23.6168441755
  0
LINE
  5
4E8
100
AcDbEntity
  8
RACCORDO
100
AcDbLine
 62
253
  6
CONTINUOUS
 10
6.9948874062
 20
12.1777621241
 11
6.8857905394
 21
18.8871269986
  0
LINE
  5
4E9
100
AcDbEntity
  8
RACCORDO
100
AcDbLine
 62
253
  6
CONTINUOUS
 10
7.8971838748
 20
-23.8553246081
 11
7.8928120408
 21
-23.421472189
  0
LINE
  5
4EA
100
AcDbEntity
  8
RACCORDO
100
AcDbLine
 62
253
  6
CONTINUOUS
 10
8.147179644
 20
-23.6388182572
 11
8.1420890429
 21
-23.1336367716
  0
LINE
  5
4EB
100
AcDbEntity
  8
0
100
AcDbLine
 62
7
  6
CONTINUOUS
 10
7.2071790408
 20
-1.6557710408
 11
7.2071790408
 21
-2.4220740408
  0
LINE
  5
4EC
100
AcDbEntity
  8
RACCORDO
100
AcDbLine
 62
253
  6
CONTINUOUS
 10
7.22691276
 20
-21.7202047688
 11
7.22691276
 21
-20.9109870408
  0
LINE
  5
4ED
100
AcDbEntity
  8
RACCORDO
100
AcDbLine
 62
253
  6
CONTINUOUS
 10
7.22691276
 20
20.8890129592
 11
7.22691276
 21
21.6982306871
  0
LINE
  5
4EE
100
AcDbEntity
  8
0
100
AcDbLine
 62
7
  6
CONTINUOUS
 10
7.2676400408
 20
4.1511099592
 11
7.2676400408
 21
3.7162779592
  0
LINE
  5
4EF
100
AcDbEntity
  8
0
100
AcDbLine
 62
7
  6
CONTINUOUS
 10
7.2676400408
 20
-4.6254690408
 11
7.2676400408
 21
-5.0603010408
  0
LINE
  5
4F0
100
AcDbEntity
  8
0
100
AcDbLine
 62
7
  6
CONTINUOUS
 10
7.4353230408
 20
4.2193719592
 11
7.4353230408
 21
3.6577749592
  0
LINE
  5
4F1
100
AcDbEntity
  8
0
100
AcDbLine
 62
7
  6
CONTINUOUS
 10
7.4353230408
 20
-4.5572750408
 11
7.4353230408
 21
-5.1188150408
  0
LINE
  5
4F2
100
AcDbEntity
  8
0
100
AcDbLine
 62
7
  6
CONTINUOUS
 10
7.6751290408
 20
5.6370009592
 11
7.6751290408
 21
4.9272069592
  0
LINE
  5
4F3
100
AcDbEntity
  8
0
100
AcDbLine
 62
7
  6
CONTINUOUS
 10
7.6751290408
 20
-1.5777600408
 11
7.6751290408
 21
-2.4220740408
  0
LINE
  5
4F4
100
AcDbEntity
  8
0
100
AcDbLine
 62
7
  6
CONTINUOUS
 10
7.6810170408
 20
-3.4662546898
 11
7.6810170408
 21
-3.8396690408
  0
LINE
  5
4F5
100
AcDbEntity
  8
RACCORDO
100
AcDbLine
 62
253
  6
CONTINUOUS
 10
7.7268366076
 20
-21.5769624741
 11
7.7268366076
 21
-20.9109870408
  0
LINE
  5
4F6
100
AcDbEntity
  8
RACCORDO
100
AcDbLine
 62
253
  6
CONTINUOUS
 10
7.7268366076
 20
20.8890129592
 11
7.7268366076
 21
21.5549883924
  0
LINE
  5
4F7
100
AcDbEntity
  8
0
100
AcDbLine
 62
7
  6
CONTINUOUS
 10
7.8428120408
 20
6.4188039592
 11
7.8428120408
 21
6.2297219592
  0
LINE
  5
4F8
100
AcDbEntity
  8
0
100
AcDbLine
 62
7
  6
CONTINUOUS
 10
7.8428120408
 20
5.6370009592
 11
7.8428120408
 21
4.7380119592
  0
LINE
  5
4F9
100
AcDbEntity
  8
0
100
AcDbLine
 62
7
  6
CONTINUOUS
 10
7.8428120408
 20
4.5645539592
 11
7.8428120408
 21
4.3578089592
  0
LINE
  5
4FA
100
AcDbEntity
  8
0
100
AcDbLine
 62
7
  6
CONTINUOUS
 10
7.8428120408
 20
3.5115029592
 11
7.8428120408
 21
3.3165449592
  0
LINE
  5
4FB
100
AcDbEntity
  8
0
100
AcDbLine
 62
7
  6
CONTINUOUS
 10
7.8428120408
 20
2.7881109592
 11
7.8428120408
 21
2.5989949592
  0
LINE
  5
4FC
100
AcDbEntity
  8
0
100
AcDbLine
 62
7
  6
CONTINUOUS
 10
7.8428120408
 20
1.9223639592
 11
7.8428120408
 21
1.7331799592
  0
LINE
  5
4FD
100
AcDbEntity
  8
0
100
AcDbLine
 62
7
  6
CONTINUOUS
 10
7.8428120408
 20
0.8655089592
 11
7.8428120408
 21
0.6529779592
  0
LINE
  5
4FE
100
AcDbEntity
  8
0
100
AcDbLine
 62
7
  6
CONTINUOUS
 10
7.8428120408
 20
-0.0626470408
 11
7.8428120408
 21
-0.2460110408
  0
LINE
  5
4FF
100
AcDbEntity
  8
0
100
AcDbLine
 62
7
  6
CONTINUOUS
 10
7.8428120408
 20
-0.5696470408
 11
7.8428120408
 21
-0.7587750408
  0
LINE
  5
500
100
AcDbEntity
  8
0
100
AcDbLine
 62
7
  6
CONTINUOUS
 10
7.8428120408
 20
-1.5777600408
 11
7.8428120408
 21
-2.6112580408
  0
LINE
  5
501
100
AcDbEntity
  8
0
100
AcDbLine
 62
7
  6
CONTINUOUS
 10
7.8428120408
 20
-3.4614256255
 11
7.8428120408
 21
-4.0288640408
  0
LINE
  5
502
100
AcDbEntity
  8
0
100
AcDbLine
 62
7
  6
CONTINUOUS
 10
7.8428120408
 20
-4.2121380408
 11
7.8428120408
 21
-4.4188490408
  0
LINE
  5
503
100
AcDbEntity
  8
0
100
AcDbLine
 62
7
  6
CONTINUOUS
 10
7.8428120408
 20
-5.2650760408
 11
7.8428120408
 21
-5.4600460408
  0
LINE
  5
504
100
AcDbEntity
  8
0
100
AcDbLine
 62
7
  6
CONTINUOUS
 10
7.8428120408
 20
-5.6277400408
 11
7.8428120408
 21
-5.8110930408
  0
LINE
  5
505
100
AcDbEntity
  8
0
100
AcDbLine
 62
7
  6
CONTINUOUS
 10
7.8428120408
 20
-6.2049230408
 11
7.8428120408
 21
-6.3921180408
  0
LINE
  5
506
100
AcDbEntity
  8
0
100
AcDbLine
 62
7
  6
CONTINUOUS
 10
7.8428120408
 20
-6.7860230408
 11
7.8428120408
 21
-6.9693020408
  0
LINE
  5
507
100
AcDbEntity
  8
DRAFT
100
AcDbLine
 62
7
  6
CONTINUOUS
 10
7.8928120408
 20
21.3890129592
 11
7.8928120408
 21
20.8890129592
  0
LINE
  5
508
100
AcDbEntity
  8
DRAFT
100
AcDbLine
 62
7
  6
CONTINUOUS
 10
7.8928120408
 20
-20.9109870408
 11
7.8928120408
 21
-21.4109870408
  0
LINE
  5
509
100
AcDbEntity
  8
RACCORDO
100
AcDbLine
 62
7
  6
CONTINUOUS
 10
7.8928120408
 20
-22.4109870408
 11
7.8928120408
 21
-24.2609912716
  0
LINE
  5
50A
100
AcDbEntity
  8
RACCORDO
100
AcDbLine
 62
7
  6
CONTINUOUS
 10
7.8928120408
 20
22.3890129592
 11
7.8928120408
 21
24.23901719
  0
LINE
  5
50B
100
AcDbEntity
  8
RACCORDO
100
AcDbLine
 62
253
  6
CONTINUOUS
 10
7.8971838748
 20
24.234645356
 11
7.8971838748
 21
23.8333505265
  0
LINE
  5
50C
100
AcDbEntity
  8
RACCORDO
100
AcDbLine
 62
253
  6
CONTINUOUS
 10
7.8971838748
 20
-23.8553246081
 11
7.8971838748
 21
-24.2566194376
  0
LINE
  5
50D
100
AcDbEntity
  8
RACCORDO
100
AcDbLine
 62
253
  6
CONTINUOUS
 10
8.147179644
 20
-23.6388182572
 11
8.147179644
 21
-24.5066152068
  0
LINE
  5
50E
100
AcDbEntity
  8
RACCORDO
100
AcDbLine
 62
253
  6
CONTINUOUS
 10
8.147179644
 20
23.6168441755
 11
8.147179644
 21
24.4846411252
  0
LINE
  5
50F
100
AcDbEntity
  8
RACCORDO
100
AcDbLine
 62
253
  6
CONTINUOUS
 10
7.8928120408
 20
23.3994981074
 11
7.8971838748
 21
23.8333505265
  0
LINE
  5
510
100
AcDbEntity
  8
RACCORDO
100
AcDbLine
 62
253
  6
CONTINUOUS
 10
8.1420890429
 20
23.11166269
 11
8.147179644
 21
23.6168441755
  0
LINE
  5
511
100
AcDbEntity
  8
RACCORDO
100
AcDbLine
 62
253
  6
CONTINUOUS
 10
6.8857905394
 20
-18.9091010822
 11
6.9948874062
 21
-12.1997362057
  0
LWPOLYLINE
  5
512
100
AcDbEntity
  8
RACCORDO
100
AcDbPolyline
 62
7
  6
CONTINUOUS
 90
34
 70
0
 10
7.8928120408
 20
24.23901719
 10
7.8930951911
 20
24.2509124752
 10
7.8939440066
 20
24.2627808148
 10
7.8953565667
 20
24.2745953253
 10
7.8973296731
 20
24.2863292467
 10
7.8998588591
 20
24.297955998
 10
7.9029383991
 20
24.3094492382
 10
7.9065613195
 20
24.320782933
 10
7.910719415
 20
24.3319314085
 10
7.9154032686
 20
24.3428694055
 10
7.920602272
 20
24.3535721468
 10
7.9263046492
 20
24.3640153875
 10
7.9324974827
 20
24.3741754651
 10
7.9391667453
 20
24.3840293643
 10
7.9462973301
 20
24.393554763
 10
7.9538730819
 20
24.4027300782
 10
7.9618768403
 20
24.4115345253
 10
7.9702904747
 20
24.4199481597
 10
7.9790949218
 20
24.4279519181
 10
7.988270237
 20
24.4355276699
 10
7.9977956357
 20
24.4426582547
 10
8.0076495349
 20
24.4493275173
 10
8.0178096125
 20
24.4555203508
 10
8.0282528532
 20
24.461222728
 10
8.0389555945
 20
24.4664217314
 10
8.0498935915
 20
24.471105585
 10
8.061042067
 20
24.4752636805
 10
8.0723757618
 20
24.4788866009
 10
8.083869002
 20
24.4819661409
 10
8.0954957533
 20
24.4844953269
 10
8.1072296747
 20
24.4864684333
 10
8.1190441852
 20
24.4878809934
 10
8.1309125248
 20
24.4887298089
 10
8.14280781
 20
24.4890129592
  0
LWPOLYLINE
  5
513
100
AcDbEntity
  8
RACCORDO
100
AcDbPolyline
 62
253
  6
CONTINUOUS
 90
31
 70
0
 10
7.8971838748
 20
24.234645356
 10
7.8975270638
 20
24.2477317101
 10
7.8985548068
 20
24.2607822084
 10
7.90026429
 20
24.2737610658
 10
7.9026508327
 20
24.2866327055
 10
7.9057078938
 20
24.2993618194
 10
7.9094270833
 20
24.3119134669
 10
7.9137981984
 20
24.324253223
 10
7.9188092539
 20
24.3363472602
 10
7.9244465022
 20
24.3481624058
 10
7.9306944813
 20
24.3596662616
 10
7.9375360571
 20
24.3708272876
 10
7.944952464
 20
24.3816148779
 10
7.9529233722
 20
24.3919994672
 10
7.9614269137
 20
24.4019525706
 10
7.9704397328
 20
24.4114468638
 10
7.9799370672
 20
24.4204562856
 10
7.9898929044
 20
24.4289561825
 10
8.0002800303
 20
24.4369233248
 10
8.0110701095
 20
24.4443359548
 10
8.0222334279
 20
24.4511736366
 10
8.0337390283
 20
24.4574174383
 10
8.0455551065
 20
24.4630501869
 10
8.0576494627
 20
24.4680566168
 10
8.0699892666
 20
24.4724231679
 10
8.0825434512
 20
24.4761386076
 10
8.0952749163
 20
24.479191721
 10
8.1081406351
 20
24.4815728511
 10
8.1211024097
 20
24.4832764554
 10
8.1341273041
 20
24.484299718
 10
8.147179644
 20
24.4846411252
  0
LWPOLYLINE
  5
514
100
AcDbEntity
  8
RACCORDO
100
AcDbPolyline
 62
253
  6
CONTINUOUS
 90
31
 70
0
 10
7.8971838748
 20
-23.8553246081
 10
7.8975624304
 20
-23.8440266358
 10
7.898621558
 20
-23.8327563318
 10
7.9003589345
 20
-23.821544462
 10
7.9027706359
 20
-23.8104206529
 10
7.9058505062
 20
-23.7994164008
 10
7.9095895572
 20
-23.788564861
 10
7.9139771016
 20
-23.777896738
 10
7.9190015006
 20
-23.7674400647
 10
7.9246491812
 20
-23.7572231458
 10
7.9309048738
 20
-23.7472737407
 10
7.9377514484
 20
-23.7376192162
 10
7.9451700566
 20
-23.7282861928
 10
7.9531403607
 20
-23.7193002426
 10
7.9616406555
 20
-23.7106858234
 10
7.970647746
 20
-23.702466445
 10
7.9801370496
 20
-23.6946645484
 10
7.9900826367
 20
-23.6873014601
 10
8.0004573196
 20
-23.6803973112
 10
8.011232752
 20
-23.6739709647
 10
8.02237951
 20
-23.6680399677
 10
8.0338671471
 20
-23.6626205204
 10
8.0456643038
 20
-23.6577274184
 10
8.0577387402
 20
-23.6533740353
 10
8.0700574198
 20
-23.6495722779
 10
8.0825866552
 20
-23.6463325315
 10
8.095292258
 20
-23.643663625
 10
8.1081395788
 20
-23.6415728326
 10
8.1210935461
 20
-23.6400658627
 10
8.1341187599
 20
-23.6391468343
 10
8.147179644
 20
-23.6388182572
  0
LINE
  5
515
100
AcDbEntity
  8
DRAFT
100
AcDbLine
 62
7
  6
CONTINUOUS
 10
-4.7571879592
 20
-22.4109870408
 11
-4.7131206919
 21
-22.3448852077
  0
LINE
  5
516
100
AcDbEntity
  8
RACCORDO
100
AcDbLine
 62
7
  6
CONTINUOUS
 10
-6.8252587778
 20
-20.5857427043
 11
-6.8497259127
 21
-20.6163122441
  0
LWPOLYLINE
  5
517
100
AcDbEntity
  8
RACCORDO
100
AcDbPolyline
 62
7
  6
CONTINUOUS
 90
3
 70
0
 10
-6.8497259127
 20
-20.6163122441
 10
-6.8755577464
 20
-20.6482397408
 10
-6.914206076
 20
-20.6956490819
  0
LINE
  5
518
100
AcDbEntity
  8
RACCORDO
100
AcDbLine
 62
7
  6
CONTINUOUS
 10
-8.1112791906
 20
-21.9068958094
 11
-7.9794685349
 21
-21.7619939931
  0
LINE
  5
519
100
AcDbEntity
  8
RACCORDO
100
AcDbLine
 62
7
  6
CONTINUOUS
 10
-7.9794685349
 20
-21.7619939931
 11
-7.9412886783
 21
-21.7202047688
  0
LINE
  5
51A
100
AcDbEntity
  8
0
100
AcDbLine
 62
7
  6
CONTINUOUS
 10
3.0842330408
 20
-7.1524080408
 11
0.7842330408
 21
-9.4524080408
  0
LINE
  5
51B
100
AcDbEntity
  8
0
100
AcDbLine
 62
7
  6
CONTINUOUS
 10
7.6321380408
 20
-6.2965960408
 11
6.4428120408
 21
-6.6982600408
  0
LINE
  5
51C
100
AcDbEntity
  8
0
100
AcDbLine
 62
7
  6
CONTINUOUS
 10
7.8428120408
 20
-6.3921180408
 11
6.6689180408
 21
-6.7860230408
  0
LINE
  5
51D
100
AcDbEntity
  8
0
100
AcDbLine
 62
7
  6
CONTINUOUS
 10
-4.4398849592
 20
-9.5967420408
 11
-5.2852329592
 21
-9.8681530408
  0
LINE
  5
51E
100
AcDbEntity
  8
0
100
AcDbLine
 62
7
  6
CONTINUOUS
 10
-3.3572019592
 20
-9.2491220408
 11
-3.9078639592
 21
-9.4259140408
  0
LINE
  5
51F
100
AcDbEntity
  8
0
100
AcDbLine
 62
7
  6
CONTINUOUS
 10
3.4279184375
 20
8.669013045
 11
3.3002588782
 21
8.6465128734
  0
LINE
  5
520
100
AcDbEntity
  8
0
100
AcDbLine
 62
7
  6
CONTINUOUS
 10
3.4534503493
 20
8.5565129592
 11
3.3002588782
 21
8.534013045
  0
LINE
  5
521
100
AcDbEntity
  8
0
100
AcDbLine
 62
7
  6
CONTINUOUS
 10
-3.3571879592
 20
7.5335549592
 11
-6.1571889592
 21
7.5335549592
  0
LINE
  5
522
100
AcDbEntity
  8
0
100
AcDbLine
 62
7
  6
CONTINUOUS
 10
3.6321737323
 20
7.5665130021
 11
3.4534503493
 21
7.5665130021
  0
LINE
  5
523
100
AcDbEntity
  8
0
100
AcDbLine
 62
7
  6
CONTINUOUS
 10
3.6577056441
 20
7.6790129592
 11
3.4279184375
 21
7.6790129592
  0
LINE
  5
524
100
AcDbEntity
  8
0
100
AcDbLine
 62
7
  6
CONTINUOUS
 10
3.6577056441
 20
7.8590129163
 11
3.4279184375
 21
7.8590129163
  0
LINE
  5
525
100
AcDbEntity
  8
0
100
AcDbLine
 62
7
  6
CONTINUOUS
 10
3.6321737323
 20
7.9715128734
 11
3.4534503493
 21
7.9715128734
  0
LINE
  5
526
100
AcDbEntity
  8
0
100
AcDbLine
 62
7
  6
CONTINUOUS
 10
-3.8225029592
 20
8.1346919592
 11
-6.1571889592
 21
8.1346919592
  0
LINE
  5
527
100
AcDbEntity
  8
0
100
AcDbLine
 62
7
  6
CONTINUOUS
 10
3.6321737323
 20
8.5565129592
 11
3.4534503493
 21
8.5565129592
  0
LINE
  5
528
100
AcDbEntity
  8
0
100
AcDbLine
 62
7
  6
CONTINUOUS
 10
0.8477930408
 20
8.6375809592
 11
0.4903840408
 21
8.6375809592
  0
LINE
  5
529
100
AcDbEntity
  8
0
100
AcDbLine
 62
7
  6
CONTINUOUS
 10
-1.2047599592
 20
8.6375809592
 11
-1.5621689592
 21
8.6375809592
  0
LINE
  5
52A
100
AcDbEntity
  8
0
100
AcDbLine
 62
7
  6
CONTINUOUS
 10
3.6577056441
 20
8.669013045
 11
3.4279184375
 21
8.669013045
  0
LINE
  5
52B
100
AcDbEntity
  8
0
100
AcDbLine
 62
7
  6
CONTINUOUS
 10
3.6066418204
 20
8.8490128734
 11
2.9428120408
 21
8.8490128734
  0
LINE
  5
52C
100
AcDbEntity
  8
0
100
AcDbLine
 62
7
  6
CONTINUOUS
 10
3.4789822612
 20
8.9615129592
 11
3.0704716001
 21
8.9615129592
  0
LINE
  5
52D
100
AcDbEntity
  8
0
100
AcDbLine
 62
7
  6
CONTINUOUS
 10
-3.3571879592
 20
9.1706909592
 11
-3.8225029592
 21
9.1706909592
  0
LINE
  5
52E
100
AcDbEntity
  8
0
100
AcDbLine
 62
7
  6
CONTINUOUS
 10
3.3002588782
 20
7.0040129592
 11
3.4534503493
 21
6.9815129163
  0
LINE
  5
52F
100
AcDbEntity
  8
0
100
AcDbLine
 62
7
  6
CONTINUOUS
 10
3.6321737323
 20
7.5665130021
 11
3.7853652392
 21
7.5440129592
  0
LINE
  5
530
100
AcDbEntity
  8
0
100
AcDbLine
 62
7
  6
CONTINUOUS
 10
3.3002588782
 20
7.994013045
 11
3.4534503493
 21
7.9715128734
  0
LINE
  5
531
100
AcDbEntity
  8
0
100
AcDbLine
 62
7
  6
CONTINUOUS
 10
3.6321737323
 20
8.5565129592
 11
3.7853652392
 21
8.534013045
  0
LINE
  5
532
100
AcDbEntity
  8
0
100
AcDbLine
 62
7
  6
CONTINUOUS
 10
3.3002588782
 20
6.8915130021
 11
3.4279184375
 21
6.8690129592
  0
LINE
  5
533
100
AcDbEntity
  8
0
100
AcDbLine
 62
7
  6
CONTINUOUS
 10
3.6577056441
 20
7.6790129592
 11
3.7853652392
 21
7.6565129163
  0
LINE
  5
534
100
AcDbEntity
  8
0
100
AcDbLine
 62
7
  6
CONTINUOUS
 10
3.3002588782
 20
7.8815129592
 11
3.4279184375
 21
7.8590129163
  0
LINE
  5
535
100
AcDbEntity
  8
0
100
AcDbLine
 62
7
  6
CONTINUOUS
 10
3.2236630712
 20
6.9140129163
 11
3.3002588782
 21
6.8915130021
  0
LINE
  5
536
100
AcDbEntity
  8
0
100
AcDbLine
 62
7
  6
CONTINUOUS
 10
3.7853652392
 20
7.6565129163
 11
3.8619609747
 21
7.6340130021
  0
LINE
  5
537
100
AcDbEntity
  8
0
100
AcDbLine
 62
7
  6
CONTINUOUS
 10
3.2236630712
 20
7.9040130021
 11
3.3002588782
 21
7.8815129592
  0
LINE
  5
538
100
AcDbEntity
  8
0
100
AcDbLine
 62
7
  6
CONTINUOUS
 10
-5.6221379592
 20
10.8262949592
 11
-4.4159469592
 21
10.4111079592
  0
LINE
  5
539
100
AcDbEntity
  8
0
100
AcDbLine
 62
7
  6
CONTINUOUS
 10
-3.9506329592
 20
10.2560039592
 11
-3.3571879592
 21
10.0466329592
  0
LINE
  5
53A
100
AcDbEntity
  8
0
100
AcDbLine
 62
7
  6
CONTINUOUS
 10
-6.1571889592
 20
10.4848669592
 11
-3.3571879592
 21
9.4726819592
  0
LINE
  5
53B
100
AcDbEntity
  8
0
100
AcDbLine
 62
7
  6
CONTINUOUS
 10
3.1215354238
 20
6.9590130021
 11
3.2236630712
 21
6.9140129163
  0
LINE
  5
53C
100
AcDbEntity
  8
0
100
AcDbLine
 62
7
  6
CONTINUOUS
 10
3.1215354238
 20
7.9490129592
 11
3.2236630712
 21
7.9040130021
  0
LINE
  5
53D
100
AcDbEntity
  8
0
100
AcDbLine
 62
7
  6
CONTINUOUS
 10
3.8619609747
 20
7.6340130021
 11
3.96408864
 21
7.5890129163
  0
LINE
  5
53E
100
AcDbEntity
  8
0
100
AcDbLine
 62
7
  6
CONTINUOUS
 10
3.1470673356
 20
7.0940130021
 11
3.3002588782
 21
7.0040129592
  0
LINE
  5
53F
100
AcDbEntity
  8
0
100
AcDbLine
 62
7
  6
CONTINUOUS
 10
3.7853652392
 20
7.5440129592
 11
3.9385567281
 21
7.4540129163
  0
LINE
  5
540
100
AcDbEntity
  8
0
100
AcDbLine
 62
7
  6
CONTINUOUS
 10
3.1470673356
 20
8.0840129592
 11
3.3002588782
 21
7.994013045
  0
LINE
  5
541
100
AcDbEntity
  8
0
100
AcDbLine
 62
7
  6
CONTINUOUS
 10
3.0449396882
 20
7.0265130021
 11
3.1215354238
 21
6.9590130021
  0
LINE
  5
542
100
AcDbEntity
  8
0
100
AcDbLine
 62
7
  6
CONTINUOUS
 10
3.0449396882
 20
8.0165129592
 11
3.1215354238
 21
7.9490129592
  0
LINE
  5
543
100
AcDbEntity
  8
0
100
AcDbLine
 62
7
  6
CONTINUOUS
 10
3.96408864
 20
7.5890129163
 11
4.0406843845
 21
7.5215129163
  0
LWPOLYLINE
  5
544
100
AcDbEntity
  8
RACCORDO
100
AcDbPolyline
 62
7
  6
CONTINUOUS
 90
3
 70
0
 10
-7.9412886783
 20
21.6982306871
 10
-8.074049494
 20
21.8439269994
 10
-8.1112791906
 20
21.8849217278
  0
LWPOLYLINE
  5
545
100
AcDbEntity
  8
0
100
AcDbPolyline
 62
7
  6
CONTINUOUS
 90
34
 70
0
 10
0.0885378239
 20
11.1633275526
 10
0.0799753968
 20
11.1730321104
 10
0.0711715613
 20
11.1820441401
 10
0.0621263173
 20
11.1903636427
 10
0.0528019714
 20
11.1980164979
 10
0.0432362171
 20
11.2049768273
 10
0.0335421349
 20
11.2111669949
 10
0.0236916405
 20
11.2165506143
 10
0.0137128182
 20
11.2211640729
 10
0.0038030016
 20
11.2250388954
 10
-0.006033638
 20
11.2281377669
 10
-0.0158012719
 20
11.2304980029
 10
-0.0253150805
 20
11.2322630729
 10
-0.0345174377
 20
11.2334334284
 10
-0.0434659697
 20
11.2340086181
 10
-0.0521487349
 20
11.2341307573
 10
-0.0605629878
 20
11.2338366975
 10
-0.0687114739
 20
11.2330895872
 10
-0.0765904881
 20
11.231920987
 10
-0.0841974484
 20
11.2303318123
 10
-0.0915349368
 20
11.2283211475
 10
-0.0986069951
 20
11.2259178065
 10
-0.1054076781
 20
11.2231231269
 10
-0.111942931
 20
11.2199357707
 10
-0.1182346309
 20
11.2163805384
 10
-0.1242894442
 20
11.2124417325
 10
-0.1301007047
 20
11.2081350499
 10
-0.1356702909
 20
11.2035323824
 10
-0.1410041602
 20
11.1986290487
 10
-0.1460963553
 20
11.1934297295
 10
-0.1509308833
 20
11.1880203593
 10
-0.1555024131
 20
11.1824295828
 10
-0.1598162758
 20
11.176628755
 10
-0.1638724714
 20
11.1706178757
  0
LINE
  5
546
100
AcDbEntity
  8
0
100
AcDbLine
 62
7
  6
CONTINUOUS
 10
3.5300460849
 20
9.0965129592
 11
3.6066418204
 21
9.006513045
  0
LINE
  5
547
100
AcDbEntity
  8
RACCORDO
100
AcDbLine
 62
7
  6
CONTINUOUS
 10
-6.914206076
 20
20.6736750003
 11
-6.862597996
 21
20.6103136837
  0
LWPOLYLINE
  5
548
100
AcDbEntity
  8
RACCORDO
100
AcDbPolyline
 62
7
  6
CONTINUOUS
 90
23
 70
0
 10
-6.862597996
 20
20.6103136837
 10
-6.8372817609
 20
20.5788363134
 10
-6.8252909768
 20
20.5638091241
 10
-6.8137829286
 20
20.5492136839
 10
-6.8029174227
 20
20.5352924143
 10
-6.7927513258
 20
20.522121681
 10
-6.7832544647
 20
20.5096251182
 10
-6.7744330281
 20
20.4978160502
 10
-6.7662998942
 20
20.4867219267
 10
-6.7588362871
 20
20.4763152978
 10
-6.7520006864
 20
20.4665271385
 10
-6.7457912946
 20
20.4573622266
 10
-6.7401949895
 20
20.4488157842
 10
-6.7351661343
 20
20.4408044521
 10
-6.7306923837
 20
20.4333117063
 10
-6.7267789917
 20
20.4263540707
 10
-6.723415397
 20
20.4198977581
 10
-6.7205928198
 20
20.4139453481
 10
-6.7183021931
 20
20.4084942611
 10
-6.7165316963
 20
20.4035029713
 10
-6.7152687231
 20
20.3989576369
 10
-6.7144996279
 20
20.3948720998
 10
-6.7142094606
 20
20.3912463599
  0
LINE
  5
549
100
AcDbEntity
  8
0
100
AcDbLine
 62
7
  6
CONTINUOUS
 10
3.0960035119
 20
8.1515129592
 11
3.1470673356
 21
8.0840129592
  0
LINE
  5
54A
100
AcDbEntity
  8
0
100
AcDbLine
 62
7
  6
CONTINUOUS
 10
3.9385567281
 20
7.4540129163
 11
3.9896205518
 21
7.3865129163
  0
LINE
  5
54B
100
AcDbEntity
  8
0
100
AcDbLine
 62
7
  6
CONTINUOUS
 10
3.9385567281
 20
8.4440128734
 11
3.9896205518
 21
8.3765128734
  0
LINE
  5
54C
100
AcDbEntity
  8
0
100
AcDbLine
 62
7
  6
CONTINUOUS
 10
3.0960035119
 20
10.086513045
 11
3.1470673356
 21
10.019013045
  0
LINE
  5
54D
100
AcDbEntity
  8
0
100
AcDbLine
 62
7
  6
CONTINUOUS
 10
3.9385567281
 20
9.479013045
 11
3.9896205518
 21
9.411513045
  0
LINE
  5
54E
100
AcDbEntity
  8
0
100
AcDbLine
 62
7
  6
CONTINUOUS
 10
4.0406843845
 20
7.5215129163
 11
4.1172801267
 21
7.4090129592
  0
LINE
  5
54F
100
AcDbEntity
  8
0
100
AcDbLine
 62
7
  6
CONTINUOUS
 10
3.4023865256
 20
9.074013045
 11
3.4789822612
 21
8.9615129592
  0
LINE
  5
550
100
AcDbEntity
  8
0
100
AcDbLine
 62
7
  6
CONTINUOUS
 10
4.0406843845
 20
8.5115128734
 11
4.1172801267
 21
8.399013045
  0
LINE
  5
551
100
AcDbEntity
  8
0
100
AcDbLine
 62
7
  6
CONTINUOUS
 10
4.0406843845
 20
9.546513045
 11
4.1172801267
 21
9.4340129592
  0
LINE
  5
552
100
AcDbEntity
  8
DRAFT
100
AcDbLine
 62
7
  6
CONTINUOUS
 10
-4.7571879592
 20
22.3890129592
 11
-4.7131206919
 21
22.3229111261
  0
LINE
  5
553
100
AcDbEntity
  8
0
100
AcDbLine
 62
7
  6
CONTINUOUS
 10
2.9683439527
 20
10.0640128734
 11
3.0194077764
 21
9.9740129592
  0
LINE
  5
554
100
AcDbEntity
  8
0
100
AcDbLine
 62
7
  6
CONTINUOUS
 10
3.9896205518
 20
12.4490127875
 11
4.0151524637
 21
12.3590131308
  0
LWPOLYLINE
  5
555
100
AcDbEntity
  8
RACCORDO
100
AcDbPolyline
 62
253
  6
CONTINUOUS
 90
31
 70
0
 10
10.2884402068
 20
-23.8553246081
 10
10.2880616512
 20
-23.8440266358
 10
10.2870025236
 20
-23.8327563318
 10
10.2852651471
 20
-23.821544462
 10
10.2828534457
 20
-23.8104206529
 10
10.2797735754
 20
-23.7994164008
 10
10.2760345244
 20
-23.788564861
 10
10.27164698
 20
-23.777896738
 10
10.266622581
 20
-23.7674400647
 10
10.2609749004
 20
-23.7572231458
 10
10.2547192079
 20
-23.7472737407
 10
10.2478726333
 20
-23.7376192162
 10
10.240454025
 20
-23.7282861928
 10
10.232483721
 20
-23.7193002426
 10
10.2239834261
 20
-23.7106858234
 10
10.2149763357
 20
-23.702466445
 10
10.205487032
 20
-23.6946645484
 10
10.1955414449
 20
-23.6873014601
 10
10.185166762
 20
-23.6803973112
 10
10.1743913296
 20
-23.6739709647
 10
10.1632445716
 20
-23.6680399677
 10
10.1517569346
 20
-23.6626205204
 10
10.1399597779
 20
-23.6577274184
 10
10.1278853414
 20
-23.6533740353
 10
10.1155666618
 20
-23.6495722779
 10
10.1030374264
 20
-23.6463325315
 10
10.0903318236
 20
-23.643663625
 10
10.0774845028
 20
-23.6415728326
 10
10.0645305355
 20
-23.6400658627
 10
10.0515053218
 20
-23.6391468343
 10
10.0384444376
 20
-23.6388182572
  0
LINE
  5
556
100
AcDbEntity
  8
RACCORDO
100
AcDbLine
 62
253
  6
CONTINUOUS
 10
10.0384444376
 20
23.6168441755
 11
10.0435350387
 21
23.11166269
  0
LINE
  5
557
100
AcDbEntity
  8
RACCORDO
100
AcDbLine
 62
253
  6
CONTINUOUS
 10
10.2884402068
 20
23.8333505265
 11
10.2928120408
 21
23.3994981074
  0
LINE
  5
558
100
AcDbEntity
  8
SMUSSO
100
AcDbLine
 62
7
  6
CONTINUOUS
 10
9.3928120408
 20
-20.1599580946
 11
9.3928120408
 21
20.137984013
  0
LINE
  5
559
100
AcDbEntity
  8
RACCORDO
100
AcDbLine
 62
253
  6
CONTINUOUS
 10
10.0384444376
 20
-23.6388182572
 11
10.0384444376
 21
-24.5066152068
  0
LINE
  5
55A
100
AcDbEntity
  8
RACCORDO
100
AcDbLine
 62
253
  6
CONTINUOUS
 10
10.0384444376
 20
23.6168441755
 11
10.0384444376
 21
24.4846411252
  0
LINE
  5
55B
100
AcDbEntity
  8
RACCORDO
100
AcDbLine
 62
253
  6
CONTINUOUS
 10
10.2884402068
 20
-24.2566194376
 11
10.2884402068
 21
-23.8553246081
  0
LINE
  5
55C
100
AcDbEntity
  8
RACCORDO
100
AcDbLine
 62
253
  6
CONTINUOUS
 10
10.2884402068
 20
23.8333505265
 11
10.2884402068
 21
24.234645356
  0
LINE
  5
55D
100
AcDbEntity
  8
RACCORDO
100
AcDbLine
 62
7
  6
CONTINUOUS
 10
10.2928120408
 20
-22.4106770088
 11
10.2928120408
 21
-24.2609912716
  0
LINE
  5
55E
100
AcDbEntity
  8
RACCORDO
100
AcDbLine
 62
7
  6
CONTINUOUS
 10
10.2928120408
 20
22.3887029272
 11
10.2928120408
 21
24.23901719
  0
LINE
  5
55F
100
AcDbEntity
  8
RACCORDO
100
AcDbLine
 62
253
  6
CONTINUOUS
 10
10.0435350387
 20
-23.1336367716
 11
10.0384444376
 21
-23.6388182572
  0
LINE
  5
560
100
AcDbEntity
  8
RACCORDO
100
AcDbLine
 62
253
  6
CONTINUOUS
 10
10.2928120408
 20
-23.421472189
 11
10.2884402068
 21
-23.8553246081
  0
LWPOLYLINE
  5
561
100
AcDbEntity
  8
RACCORDO
100
AcDbPolyline
 62
253
  6
CONTINUOUS
 90
31
 70
0
 10
10.2884402068
 20
23.8333505265
 10
10.2880616512
 20
23.8220525542
 10
10.2870025236
 20
23.8107822502
 10
10.2852651471
 20
23.7995703804
 10
10.2828534457
 20
23.7884465713
 10
10.2797735754
 20
23.7774423192
 10
10.2760345244
 20
23.7665907794
 10
10.27164698
 20
23.7559226564
 10
10.266622581
 20
23.7454659831
 10
10.2609749004
 20
23.7352490642
 10
10.2547192079
 20
23.7252996591
 10
10.2478726333
 20
23.7156451346
 10
10.240454025
 20
23.7063121111
 10
10.232483721
 20
23.6973261609
 10
10.2239834261
 20
23.6887117418
 10
10.2149763357
 20
23.6804923634
 10
10.205487032
 20
23.6726904667
 10
10.1955414449
 20
23.6653273785
 10
10.185166762
 20
23.6584232296
 10
10.1743913296
 20
23.6519968831
 10
10.1632445716
 20
23.6460658861
 10
10.1517569346
 20
23.6406464387
 10
10.1399597779
 20
23.6357533367
 10
10.1278853414
 20
23.6313999537
 10
10.1155666618
 20
23.6275981963
 10
10.1030374264
 20
23.6243584498
 10
10.0903318236
 20
23.6216895434
 10
10.0774845028
 20
23.619598751
 10
10.0645305355
 20
23.6180917811
 10
10.0515053218
 20
23.6171727527
 10
10.0384444376
 20
23.6168441755
  0
LINE
  5
562
100
AcDbEntity
  8
DRAFT
100
AcDbLine
 62
7
  6
CONTINUOUS
 10
6.9933145806
 20
-20.4560534924
 11
6.9428120408
 21
-20.9109870408
  0
LINE
  5
563
100
AcDbEntity
  8
RACCORDO
100
AcDbLine
 62
253
  6
CONTINUOUS
 10
-11.0028161252
 20
-24.2566194376
 11
-11.0071879592
 21
-24.2609912716
  0
LINE
  5
564
100
AcDbEntity
  8
RACCORDO
100
AcDbLine
 62
253
  6
CONTINUOUS
 10
-10.752820356
 20
-24.5066152068
 11
-10.75719219
 21
-24.5109870408
  0
LINE
  5
565
100
AcDbEntity
  8
0
100
AcDbLine
 62
7
  6
CONTINUOUS
 10
3.2236630712
 20
10.6490129592
 11
3.1215354238
 21
10.6265127875
  0
LWPOLYLINE
  5
566
100
AcDbEntity
  8
0
100
AcDbPolyline
 62
7
  6
CONTINUOUS
 90
58
 70
0
 10
-0.112444912
 20
10.621678666
 10
-0.1002771625
 20
10.623518808
 10
-0.0881941101
 20
10.6257387574
 10
-0.0761957549
 20
10.6283385141
 10
-0.0642607908
 20
10.6312988669
 10
-0.0524105239
 20
10.6346390267
 10
-0.040708872
 20
10.6384166266
 10
-0.0291503567
 20
10.6426362821
 10
-0.0177404565
 20
10.6472933771
 10
-0.0065595255
 20
10.6524316975
 10
0.0043820039
 20
10.6580597948
 10
0.0150945642
 20
10.6641691167
 10
0.0255290977
 20
10.670777793
 10
0.0357069108
 20
10.6779024872
 10
0.0456066972
 20
10.6855265349
 10
0.0551154802
 20
10.6936180739
 10
0.0642342319
 20
10.7021928981
 10
0.0729619802
 20
10.7112352126
 10
0.081182832
 20
10.7206657731
 10
0.0888662152
 20
10.7304952452
 10
0.0960427019
 20
10.7407129622
 10
0.1026881155
 20
10.7512076812
 10
0.1087768943
 20
10.7619582128
 10
0.1143346
 20
10.7729857455
 10
0.1194137418
 20
10.7842426033
 10
0.1240171167
 20
10.7957448624
 10
0.1281419276
 20
10.8074764458
 10
0.1318322924
 20
10.8193414483
 10
0.135084147
 20
10.8313391572
 10
0.1379015556
 20
10.8434702847
 10
0.1403408274
 20
10.8556410629
 10
0.1423996355
 20
10.8678399429
 10
0.1440803069
 20
10.8800784735
 10
0.1454461321
 20
10.8922975339
 10
0.1464973605
 20
10.9044741435
 10
0.1472337426
 20
10.916631283
 10
0.1477178207
 20
10.9287787732
 10
0.147964383
 20
10.9409201602
 10
0.1479586411
 20
10.953051898
 10
0.1477187724
 20
10.9651731691
 10
0.1472641514
 20
10.9772956414
 10
0.1465754035
 20
10.989407647
 10
0.1456125819
 20
11.0014733651
 10
0.1443821839
 20
11.0134988252
 10
0.1428777121
 20
11.0254779978
 10
0.141039728
 20
11.0373569739
 10
0.1388657898
 20
11.0491471209
 10
0.1363583393
 20
11.0608370716
 10
0.1334652633
 20
11.0723388148
 10
0.1301870599
 20
11.0836541006
 10
0.1265232311
 20
11.0947811794
 10
0.1224201694
 20
11.1056267914
 10
0.1178575193
 20
11.116207095
 10
0.1128556365
 20
11.1265059325
 10
0.1074219796
 20
11.1363815699
 10
0.101559035
 20
11.145786763
 10
0.0952643165
 20
11.154768757
 10
0.0885378239
 20
11.1633275526
  0
LINE
  5
567
100
AcDbEntity
  8
0
100
AcDbLine
 62
7
  6
CONTINUOUS
 10
0.8477930408
 20
9.5157869592
 11
0.4903840408
 21
9.5157869592
  0
LINE
  5
568
100
AcDbEntity
  8
0
100
AcDbLine
 62
7
  6
CONTINUOUS
 10
-1.2047599592
 20
9.5157869592
 11
-1.5621689592
 21
9.5157869592
  0
LINE
  5
569
100
AcDbEntity
  8
0
100
AcDbLine
 62
7
  6
CONTINUOUS
 10
3.7853652392
 20
9.546513045
 11
3.7343014155
 21
9.546513045
  0
LINE
  5
56A
100
AcDbEntity
  8
0
100
AcDbLine
 62
7
  6
CONTINUOUS
 10
3.0704716001
 20
9.614013045
 11
2.9428120408
 21
9.614013045
  0
LINE
  5
56B
100
AcDbEntity
  8
0
100
AcDbLine
 62
7
  6
CONTINUOUS
 10
3.810897151
 20
9.6590128734
 11
3.7087695036
 21
9.6590128734
  0
LINE
  5
56C
100
AcDbEntity
  8
0
100
AcDbLine
 62
7
  6
CONTINUOUS
 10
4.1428120408
 20
9.8390129592
 11
4.0151524637
 21
9.8390129592
  0
LINE
  5
56D
100
AcDbEntity
  8
0
100
AcDbLine
 62
7
  6
CONTINUOUS
 10
0.8477930408
 20
10.3939939592
 11
0.4903840408
 21
10.3939939592
  0
LINE
  5
56E
100
AcDbEntity
  8
0
100
AcDbLine
 62
7
  6
CONTINUOUS
 10
-1.2047599592
 20
10.3939939592
 11
-1.5621689592
 21
10.3939939592
  0
LINE
  5
56F
100
AcDbEntity
  8
0
100
AcDbLine
 62
7
  6
CONTINUOUS
 10
3.2747269664
 20
10.5140129592
 11
3.2236630712
 21
10.5140129592
  0
LINE
  5
570
100
AcDbEntity
  8
0
100
AcDbLine
 62
7
  6
CONTINUOUS
 10
4.1428120408
 20
10.6490129592
 11
4.0151524637
 21
10.6490129592
  0
LINE
  5
571
100
AcDbEntity
  8
0
100
AcDbLine
 62
7
  6
CONTINUOUS
 10
3.2747269664
 20
10.6490129592
 11
3.2236630712
 21
10.6490129592
  0
LINE
  5
572
100
AcDbEntity
  8
0
100
AcDbLine
 62
7
  6
CONTINUOUS
 10
3.7853652392
 20
10.8290127875
 11
3.6321737323
 21
10.8290127875
  0
LINE
  5
573
100
AcDbEntity
  8
0
100
AcDbLine
 62
7
  6
CONTINUOUS
 10
3.6577056441
 20
8.669013045
 11
3.7853652392
 21
8.6465128734
  0
LINE
  5
574
100
AcDbEntity
  8
0
100
AcDbLine
 62
7
  6
CONTINUOUS
 10
3.1215354238
 20
9.884013045
 11
3.2236630712
 21
9.8615128734
  0
LINE
  5
575
100
AcDbEntity
  8
0
100
AcDbLine
 62
7
  6
CONTINUOUS
 10
3.7853652392
 20
8.6465128734
 11
3.8619609747
 21
8.6240129592
  0
LINE
  5
576
100
AcDbEntity
  8
0
100
AcDbLine
 62
7
  6
CONTINUOUS
 10
3.7853652392
 20
9.546513045
 11
3.8619609747
 21
9.5240128734
  0
LINE
  5
577
100
AcDbEntity
  8
0
100
AcDbLine
 62
7
  6
CONTINUOUS
 10
3.810897151
 20
9.6590128734
 11
3.9385567281
 21
9.614013045
  0
LINE
  5
578
100
AcDbEntity
  8
0
100
AcDbLine
 62
7
  6
CONTINUOUS
 10
3.8619609747
 20
8.6240129592
 11
3.96408864
 21
8.5790128734
  0
LINE
  5
579
100
AcDbEntity
  8
0
100
AcDbLine
 62
7
  6
CONTINUOUS
 10
3.7853652392
 20
8.534013045
 11
3.9385567281
 21
8.4440128734
  0
LINE
  5
57A
100
AcDbEntity
  8
0
100
AcDbLine
 62
7
  6
CONTINUOUS
 10
3.8619609747
 20
9.5240128734
 11
3.9385567281
 21
9.479013045
  0
LINE
  5
57B
100
AcDbEntity
  8
0
100
AcDbLine
 62
7
  6
CONTINUOUS
 10
3.1470673356
 20
10.019013045
 11
3.2236630712
 21
9.9740129592
  0
LINE
  5
57C
100
AcDbEntity
  8
0
100
AcDbLine
 62
7
  6
CONTINUOUS
 10
6.4428120408
 20
6.7249589592
 11
7.1155820408
 21
6.3233569592
  0
LINE
  5
57D
100
AcDbEntity
  8
0
100
AcDbLine
 62
7
  6
CONTINUOUS
 10
6.4428120408
 20
6.9473279592
 11
7.2793020408
 21
6.4188039592
  0
LINE
  5
57E
100
AcDbEntity
  8
0
100
AcDbLine
 62
7
  6
CONTINUOUS
 10
3.9385567281
 20
9.614013045
 11
4.0406843845
 21
9.546513045
  0
LWPOLYLINE
  5
57F
100
AcDbEntity
  8
0
100
AcDbPolyline
 62
7
  6
CONTINUOUS
 90
25
 70
0
 10
0.1259500633
 20
11.3892893048
 10
0.1391643622
 20
11.3801226419
 10
0.1520525389
 20
11.3702553569
 10
0.1646145932
 20
11.3596874488
 10
0.1768735031
 20
11.348431172
 10
0.1888062906
 20
11.3364742699
 10
0.2003440224
 20
11.3237799754
 10
0.2114769809
 20
11.3103517301
 10
0.2222148837
 20
11.2961860898
 10
0.2325179503
 20
11.2812359581
 10
0.242374364
 20
11.2655249146
 10
0.2517959414
 20
11.2490293766
 10
0.2607783519
 20
11.2316315035
 10
0.26936143
 20
11.2133065023
 10
0.2775053412
 20
11.1940791617
 10
0.2850862505
 20
11.1739060139
 10
0.2921181651
 20
11.1527993852
 10
0.2985870778
 20
11.1307469442
 10
0.3043271319
 20
11.1076682349
 10
0.3093403399
 20
11.0835595133
 10
0.3136246893
 20
11.0584245171
 10
0.3170082854
 20
11.032194013
 10
0.3194338301
 20
11.0048449204
 10
0.3209586215
 20
10.9764003122
 10
0.3215826597
 20
10.9468601842
  0
LINE
  5
580
100
AcDbEntity
  8
0
100
AcDbLine
 62
7
  6
CONTINUOUS
 10
2.9428120408
 20
11.3690127875
 11
3.6321737323
 21
10.8290127875
  0
LINE
  5
581
100
AcDbEntity
  8
0
100
AcDbLine
 62
7
  6
CONTINUOUS
 10
3.96408864
 20
8.5790128734
 11
4.0406843845
 21
8.5115128734
  0
LINE
  5
582
100
AcDbEntity
  8
0
100
AcDbLine
 62
7
  6
CONTINUOUS
 10
3.0194077764
 20
9.9740129592
 11
3.1215354238
 21
9.884013045
  0
LINE
  5
583
100
AcDbEntity
  8
0
100
AcDbLine
 62
7
  6
CONTINUOUS
 10
3.3768546138
 20
10.4690131308
 11
4.0151524637
 21
9.8390129592
  0
LINE
  5
584
100
AcDbEntity
  8
RACCORDO
100
AcDbLine
 62
253
  6
CONTINUOUS
 10
-11.0028161252
 20
24.234645356
 11
-11.0071879592
 21
24.23901719
  0
LINE
  5
585
100
AcDbEntity
  8
RACCORDO
100
AcDbLine
 62
253
  6
CONTINUOUS
 10
-10.752820356
 20
24.4846411252
 11
-10.75719219
 21
24.4890129592
  0
LINE
  5
586
100
AcDbEntity
  8
0
100
AcDbLine
 62
7
  6
CONTINUOUS
 10
3.4534503493
 20
10.5815129592
 11
4.0151524637
 21
10.019013045
  0
LINE
  5
587
100
AcDbEntity
  8
0
100
AcDbLine
 62
7
  6
CONTINUOUS
 10
3.0960035119
 20
12.1790127875
 11
3.1725992475
 21
12.0890131308
  0
LINE
  5
588
100
AcDbEntity
  8
0
100
AcDbLine
 62
7
  6
CONTINUOUS
 10
3.5555779967
 20
12.0440127875
 11
3.6321737323
 21
11.9540131308
  0
LINE
  5
589
100
AcDbEntity
  8
0
100
AcDbLine
 62
7
  6
CONTINUOUS
 10
3.3768546138
 20
12.5390129592
 11
3.4534503493
 21
12.4490127875
  0
LINE
  5
58A
100
AcDbEntity
  8
0
100
AcDbLine
 62
7
  6
CONTINUOUS
 10
2.9683439527
 20
12.1565131308
 11
3.0449396882
 21
12.0440127875
  0
LINE
  5
58B
100
AcDbEntity
  8
0
100
AcDbLine
 62
7
  6
CONTINUOUS
 10
4.0406843845
 20
12.6065129592
 11
4.1172801267
 21
12.4940131308
  0
LINE
  5
58C
100
AcDbEntity
  8
0
100
AcDbLine
 62
7
  6
CONTINUOUS
 10
3.5300460849
 20
12.0890131308
 11
3.5555779967
 21
12.0440127875
  0
LINE
  5
58D
100
AcDbEntity
  8
0
100
AcDbLine
 62
7
  6
CONTINUOUS
 10
3.6066418204
 20
12.1790127875
 11
3.6577056441
 21
12.0890131308
  0
LINE
  5
58E
100
AcDbEntity
  8
0
100
AcDbLine
 62
7
  6
CONTINUOUS
 10
3.504514173
 20
12.5840127875
 11
3.5300460849
 21
12.5390129592
  0
LINE
  5
58F
100
AcDbEntity
  8
0
100
AcDbLine
 62
7
  6
CONTINUOUS
 10
3.9385567281
 20
12.5390129592
 11
3.9896205518
 21
12.4490127875
  0
LINE
  5
590
100
AcDbEntity
  8
DRAFT
100
AcDbLine
 62
7
  6
CONTINUOUS
 10
6.9428120408
 20
20.8890129592
 11
6.9933145806
 21
20.4340794108
  0
LINE
  5
591
100
AcDbEntity
  8
RACCORDO
100
AcDbLine
 62
7
  6
CONTINUOUS
 10
10.7928120408
 20
-21.9021649814
 11
10.7928120408
 21
21.8801908998
  0
LWPOLYLINE
  5
592
100
AcDbEntity
  8
RACCORDO
100
AcDbPolyline
 62
7
  6
CONTINUOUS
 90
34
 70
0
 10
10.2928120408
 20
-24.2609912716
 10
10.2925288906
 20
-24.2728865568
 10
10.2916800751
 20
-24.2847548964
 10
10.290267515
 20
-24.296569407
 10
10.2882944085
 20
-24.3083033283
 10
10.2857652225
 20
-24.3199300796
 10
10.2826856825
 20
-24.3314233198
 10
10.2790627622
 20
-24.3427570146
 10
10.2749046666
 20
-24.3539054901
 10
10.270220813
 20
-24.3648434871
 10
10.2650218096
 20
-24.3755462284
 10
10.2593194325
 20
-24.3859894691
 10
10.2531265989
 20
-24.3961495467
 10
10.2464573363
 20
-24.4060034459
 10
10.2393267515
 20
-24.4155288447
 10
10.2317509997
 20
-24.4247041599
 10
10.2237472413
 20
-24.4335086069
 10
10.2153336069
 20
-24.4419222413
 10
10.2065291599
 20
-24.4499259997
 10
10.1973538447
 20
-24.4575017515
 10
10.1878284459
 20
-24.4646323363
 10
10.1779745467
 20
-24.4713015989
 10
10.1678144691
 20
-24.4774944325
 10
10.1573712284
 20
-24.4831968096
 10
10.1466684871
 20
-24.488395813
 10
10.1357304901
 20
-24.4930796666
 10
10.1245820146
 20
-24.4972377622
 10
10.1132483198
 20
-24.5008606825
 10
10.1017550796
 20
-24.5039402225
 10
10.0901283283
 20
-24.5064694085
 10
10.078394407
 20
-24.508442515
 10
10.0665798964
 20
-24.5098550751
 10
10.0547115568
 20
-24.5107038906
 10
10.0428162716
 20
-24.5109870408
  0
LWPOLYLINE
  5
593
100
AcDbEntity
  8
RACCORDO
100
AcDbPolyline
 62
253
  6
CONTINUOUS
 90
31
 70
0
 10
10.2884402068
 20
-24.2566194376
 10
10.2880971682
 20
-24.2697029236
 10
10.2870698784
 20
-24.2827505502
 10
10.2853611528
 20
-24.2957265563
 10
10.2829756748
 20
-24.3085953772
 10
10.2799199826
 20
-24.3213217417
 10
10.2762024512
 20
-24.3338707694
 10
10.2718332698
 20
-24.3462080657
 10
10.2668244133
 20
-24.3582998163
 10
10.2611896101
 20
-24.3701128801
 10
10.2549443042
 20
-24.3816148797
 10
10.2481056128
 20
-24.3927742902
 10
10.2406922794
 20
-24.4035605258
 10
10.2327246227
 20
-24.4139440234
 10
10.2242244804
 20
-24.4238963239
 10
10.2152151498
 20
-24.4333901498
 10
10.2057213239
 20
-24.4423994804
 10
10.1957690234
 20
-24.4508996227
 10
10.1853855258
 20
-24.4588672794
 10
10.1745992902
 20
-24.4662806128
 10
10.1634398797
 20
-24.4731193042
 10
10.1519378801
 20
-24.4793646101
 10
10.1401248163
 20
-24.4849994133
 10
10.1280330657
 20
-24.4900082698
 10
10.1156957694
 20
-24.4943774512
 10
10.1031467417
 20
-24.4980949826
 10
10.0904203772
 20
-24.5011506748
 10
10.0775515563
 20
-24.5035361528
 10
10.0645755502
 20
-24.5052448784
 10
10.0515279236
 20
-24.5062721682
 10
10.0384444376
 20
-24.5066152068
  0
LINE
  5
594
100
AcDbEntity
  8
ASSI
100
AcDbLine
 62
7
  6
CONTINUOUS
 10
-4.6182000307
 20
-23.6331965877
 11
-4.5916501466
 21
-23.6028449459
  0
LINE
  5
595
100
AcDbEntity
  8
ASSI
100
AcDbLine
 62
7
  6
CONTINUOUS
 10
-4.5916501466
 20
-23.6028449459
 11
-4.5612887364
 21
-23.5686643095
  0
LINE
  5
596
100
AcDbEntity
  8
ASSI
100
AcDbLine
 62
7
  6
CONTINUOUS
 10
-4.5612887364
 20
-23.5686643095
 11
-4.527110109
 21
-23.5306640489
  0
LWPOLYLINE
  5
597
100
AcDbEntity
  8
ASSI
100
AcDbPolyline
 62
7
  6
CONTINUOUS
 90
3
 70
0
 10
-4.527110109
 20
-23.5306640489
 10
-4.4688158891
 20
-23.4665791472
 10
-4.4475833601
 20
-23.4433680226
  0
LINE
  5
598
100
AcDbEntity
  8
0
100
AcDbLine
 62
7
  6
CONTINUOUS
 10
-4.3337789592
 20
-12.7900300408
 11
-6.1573209592
 21
-13.3129230408
  0
LINE
  5
599
100
AcDbEntity
  8
0
100
AcDbLine
 62
7
  6
CONTINUOUS
 10
-3.3571949592
 20
-13.0700370408
 11
-5.2036899592
 21
-13.5995030408
  0
LWPOLYLINE
  5
59A
100
AcDbEntity
  8
0
100
AcDbPolyline
 62
7
  6
CONTINUOUS
 90
37
 70
0
 10
-0.6019310179
 20
11.1955593803
 10
-0.6125867847
 20
11.193877219
 10
-0.6231835644
 20
11.1917755032
 10
-0.6337213571
 20
11.1892542329
 10
-0.6442488357
 20
11.1863217497
 10
-0.6547173273
 20
11.1829697117
 10
-0.6649808131
 20
11.1791730926
 10
-0.6750364531
 20
11.1749108179
 10
-0.6848870874
 20
11.1702039617
 10
-0.6943952172
 20
11.1650907216
 10
-0.7035352372
 20
11.1595578359
 10
-0.7123327527
 20
11.1536185657
 10
-0.7207270805
 20
11.147350893
 10
-0.7287001079
 20
11.1407711158
 10
-0.7362699476
 20
11.1338629355
 10
-0.743430255
 20
11.12665544
 10
-0.7501735941
 20
11.1191524209
 10
-0.7565074008
 20
11.1113500859
 10
-0.7624476379
 20
11.1032661477
 10
-0.7679890313
 20
11.0948971602
 10
-0.7731368551
 20
11.0862465687
 10
-0.7779228946
 20
11.0773424226
 10
-0.7823540455
 20
11.0681827847
 10
-0.786423412
 20
11.0587695914
 10
-0.7901420919
 20
11.0491367028
 10
-0.7935113139
 20
11.0392744295
 10
-0.7965298492
 20
11.0291924601
 10
-0.799205109
 20
11.0189537218
 10
-0.8015282031
 20
11.0085486266
 10
-0.8035080217
 20
10.9979867619
 10
-0.8051786459
 20
10.9873598176
 10
-0.8065320895
 20
10.976672082
 10
-0.8075763388
 20
10.9659192666
 10
-0.8083694333
 20
10.9551801961
 10
-0.8089307196
 20
10.9444811457
 10
-0.8092408511
 20
10.9337958403
 10
-0.8092998279
 20
10.92312428
  0
LWPOLYLINE
  5
59B
100
AcDbEntity
  8
0
100
AcDbPolyline
 62
7
  6
CONTINUOUS
 90
97
 70
0
 10
-0.3571879592
 20
11.8032093824
 10
-0.4114393308
 20
11.802245583
 10
-0.4658231192
 20
11.7992907112
 10
-0.5203393243
 20
11.7943447661
 10
-0.5750244109
 20
11.7874337979
 10
-0.6298419143
 20
11.7785317531
 10
-0.68468244
 20
11.7675604747
 10
-0.7395257816
 20
11.7545318443
 10
-0.7943921455
 20
11.7394339732
 10
-0.849232756
 20
11.7221530477
 10
-0.9040770063
 20
11.7026756482
 10
-0.9588955033
 20
11.6810151828
 10
-1.0135512916
 20
11.6570980773
 10
-1.0680115184
 20
11.6309577879
 10
-1.1223090365
 20
11.6025608426
 10
-1.1764054494
 20
11.5717332731
 10
-1.2303616962
 20
11.5384425575
 10
-1.2841168376
 20
11.5027211961
 10
-1.3374496597
 20
11.4644927512
 10
-1.3903800729
 20
11.4237338598
 10
-1.4428881668
 20
11.3804678579
 10
-1.4946929953
 20
11.3346883549
 10
-1.5457519441
 20
11.2864362549
 10
-1.5961076277
 20
11.2356706224
 10
-1.6456069439
 20
11.1822623051
 10
-1.6942759054
 20
11.1261938733
 10
-1.7420884996
 20
11.0674827188
 10
-1.7888135864
 20
11.0060519188
 10
-1.8344965946
 20
10.9418346847
 10
-1.8790920955
 20
10.8748977612
 10
-1.9222326634
 20
10.8053645248
 10
-1.96389418
 20
10.7332531054
 10
-2.0041007638
 20
10.658545328
 10
-2.0425573437
 20
10.5813101126
 10
-2.0792858832
 20
10.5014813172
 10
-2.1142644189
 20
10.4191250364
 10
-2.1471319898
 20
10.3345085483
 10
-2.1778851602
 20
10.2475501864
 10
-2.2065273657
 20
10.1583315732
 10
-2.232707952
 20
10.0673649285
 10
-2.2563889537
 20
9.974683987
 10
-2.2776083363
 20
9.8802549813
 10
-2.2961293418
 20
9.7844888884
 10
-2.3119337325
 20
9.6872869243
 10
-2.3250397461
 20
9.5887478489
 10
-2.3352653373
 20
9.4895789678
 10
-2.3425684177
 20
9.3898058165
 10
-2.3469910757
 20
9.2894028532
 10
-2.3484775312
 20
9.1890007823
 10
-2.3469905073
 20
9.088600002
 10
-2.342567281
 20
8.9882001223
 10
-2.335263903
 20
8.8884306786
 10
-2.325038332
 20
8.7892658447
 10
-2.3119326095
 20
8.6907314681
 10
-2.2961289103
 20
8.5935346087
 10
-2.2776090657
 20
8.4977742106
 10
-2.2563912444
 20
8.4033513644
 10
-2.232712128
 20
8.3106763607
 10
-2.2065337604
 20
8.219715336
 10
-2.1778940977
 20
8.130502192
 10
-2.1471436888
 20
8.0435488741
 10
-2.1142790782
 20
7.9589369791
 10
-2.0793037214
 20
7.8765849535
 10
-2.0425785345
 20
7.7967600217
 10
-2.0041256184
 20
7.7195285179
 10
-1.963922872
 20
7.6448241495
 10
-1.9222649091
 20
7.5727152023
 10
-1.879127496
 20
7.5031832794
 10
-1.8345348663
 20
7.4362468142
 10
-1.788854334
 20
7.3720293378
 10
-1.7421313059
 20
7.3105976291
 10
-1.6943203753
 20
7.251884942
 10
-1.6456526361
 20
7.1958145186
 10
-1.5961541407
 20
7.1424038257
 10
-1.5457988368
 20
7.0916354232
 10
-1.4947396606
 20
7.0433801908
 10
-1.4429335625
 20
6.9975969416
 10
-1.3904235923
 20
6.9543268833
 10
-1.3374918352
 20
6.913564487
 10
-1.2841586616
 20
6.8753335345
 10
-1.2304037011
 20
6.839610261
 10
-1.1764479282
 20
6.8063178161
 10
-1.1223523128
 20
6.7754886697
 10
-1.0680558849
 20
6.7470903651
 10
-1.0135967087
 20
6.7209486604
 10
-0.9589418934
 20
6.697030026
 10
-0.9041243298
 20
6.6753680008
 10
-0.8492807544
 20
6.6558889445
 10
-0.7944409147
 20
6.6386062726
 10
-0.7395750633
 20
6.6235065762
 10
-0.684730695
 20
6.6104759775
 10
-0.6298874435
 20
6.5995024161
 10
-0.575065675
 20
6.5905979564
 10
-0.5203739831
 20
6.5836849069
 10
-0.4658485653
 20
6.5787373711
 10
-0.411453224
 20
6.5757812472
 10
-0.3571879592
 20
6.5748165359
  0
LINE
  5
59C
100
AcDbEntity
  8
0
100
AcDbLine
 62
7
  6
CONTINUOUS
 10
4.1428120408
 20
11.3690127875
 11
3.7853652392
 21
11.3690127875
  0
LINE
  5
59D
100
AcDbEntity
  8
0
100
AcDbLine
 62
7
  6
CONTINUOUS
 10
3.6321737323
 20
11.3690127875
 11
3.1470673356
 21
11.3690127875
  0
LINE
  5
59E
100
AcDbEntity
  8
0
100
AcDbLine
 62
7
  6
CONTINUOUS
 10
4.1428120408
 20
11.5040127875
 11
3.7853652392
 21
11.5040127875
  0
LINE
  5
59F
100
AcDbEntity
  8
0
100
AcDbLine
 62
7
  6
CONTINUOUS
 10
3.6321737323
 20
11.5040127875
 11
2.9428120408
 21
11.5040127875
  0
LINE
  5
5A0
100
AcDbEntity
  8
0
100
AcDbLine
 62
7
  6
CONTINUOUS
 10
3.7853652392
 20
11.7290129592
 11
3.6321737323
 21
11.7290129592
  0
LINE
  5
5A1
100
AcDbEntity
  8
0
100
AcDbLine
 62
7
  6
CONTINUOUS
 10
3.8364290629
 20
11.9090127875
 11
3.7598333273
 21
11.9090127875
  0
LINE
  5
5A2
100
AcDbEntity
  8
0
100
AcDbLine
 62
7
  6
CONTINUOUS
 10
3.3257907901
 20
11.9315129592
 11
3.2491950545
 21
11.9315129592
  0
LINE
  5
5A3
100
AcDbEntity
  8
0
100
AcDbLine
 62
7
  6
CONTINUOUS
 10
3.8364290629
 20
12.0215131308
 11
3.7598333273
 21
12.0215131308
  0
LINE
  5
5A4
100
AcDbEntity
  8
0
100
AcDbLine
 62
7
  6
CONTINUOUS
 10
3.3002588782
 20
12.0440127875
 11
3.2491950545
 21
12.0440127875
  0
LINE
  5
5A5
100
AcDbEntity
  8
0
100
AcDbLine
 62
7
  6
CONTINUOUS
 10
-3.3571879592
 20
12.4781539592
 11
-6.1571889592
 21
12.4781539592
  0
LINE
  5
5A6
100
AcDbEntity
  8
0
100
AcDbLine
 62
7
  6
CONTINUOUS
 10
3.3002588782
 20
12.5840127875
 11
3.2491950545
 21
12.5840127875
  0
LINE
  5
5A7
100
AcDbEntity
  8
0
100
AcDbLine
 62
7
  6
CONTINUOUS
 10
3.8364290629
 20
12.6065129592
 11
3.7598333273
 21
12.6065129592
  0
LINE
  5
5A8
100
AcDbEntity
  8
0
100
AcDbLine
 62
7
  6
CONTINUOUS
 10
3.3257907901
 20
12.6965131308
 11
3.2491950545
 21
12.6965131308
  0
LINE
  5
5A9
100
AcDbEntity
  8
0
100
AcDbLine
 62
7
  6
CONTINUOUS
 10
3.8364290629
 20
12.7190127875
 11
3.7598333273
 21
12.7190127875
  0
LWPOLYLINE
  5
5AA
100
AcDbEntity
  8
0
100
AcDbPolyline
 62
7
  6
CONTINUOUS
 90
22
 70
0
 10
-0.0732240566
 20
11.4511532661
 10
-0.0631180058
 20
11.4509898167
 10
-0.0530383804
 20
11.4505306809
 10
-0.0429851806
 20
11.4497758586
 10
-0.0329495171
 20
11.4487207088
 10
-0.022940279
 20
11.4473698725
 10
-0.0129841343
 20
11.4457372731
 10
-0.0030824221
 20
11.4438240369
 10
0.0067661967
 20
11.4416290375
 10
0.0165390716
 20
11.4391628185
 10
0.026236118
 20
11.436426541
 10
0.0358574205
 20
11.4334190438
 10
0.0453805815
 20
11.4301473876
 10
0.0548053763
 20
11.4266115654
 10
0.0641320296
 20
11.422811584
 10
0.0733388181
 20
11.418754525
 10
0.0824210517
 20
11.4144330599
 10
0.0913834204
 20
11.409854517
 10
0.1002182712
 20
11.4050479635
 10
0.1089230531
 20
11.4000230883
 10
0.1175003171
 20
11.3947702021
 10
0.1259500633
 20
11.3892893048
  0
LWPOLYLINE
  5
5AB
100
AcDbEntity
  8
0
100
AcDbPolyline
 62
7
  6
CONTINUOUS
 90
52
 70
0
 10
-0.3571879592
 20
11.9870200685
 10
-0.2997424383
 20
11.9860681255
 10
-0.2422700478
 20
11.9831566832
 10
-0.1847707879
 20
11.9782857406
 10
-0.127216368
 20
11.9714696715
 10
-0.0696350785
 20
11.9626940988
 10
-0.0121117909
 20
11.9519158948
 10
0.0453268325
 20
11.939146942
 10
0.102707454
 20
11.924375351
 10
0.1600251903
 20
11.9075223353
 10
0.217319086
 20
11.8885829133
 10
0.2745500964
 20
11.8675620558
 10
0.3315962034
 20
11.8443959031
 10
0.3884199061
 20
11.8191126045
 10
0.4450587054
 20
11.7916839959
 10
0.5015030868
 20
11.7619617456
 10
0.5578158297
 20
11.7299188301
 10
0.6139341546
 20
11.6955822529
 10
0.669660209
 20
11.6588847211
 10
0.7250118725
 20
11.6198047913
 10
0.7799712654
 20
11.5783638821
 10
0.8342868962
 20
11.5345589919
 10
0.8879416045
 20
11.4883953041
 10
0.9409525506
 20
11.4398676063
 10
0.9931197243
 20
11.3889573029
 10
1.0444130504
 20
11.3357068469
 10
1.094862604
 20
11.2800737523
 10
1.1443585993
 20
11.2219120127
 10
1.1929673104
 20
11.161146911
 10
1.2406224633
 20
11.0978531248
 10
1.2870154494
 20
11.0321087372
 10
1.3321436643
 20
10.9638940705
 10
1.3760097125
 20
10.8932287611
 10
1.4183127995
 20
10.8202498648
 10
1.4590315977
 20
10.7449852026
 10
1.4981874347
 20
10.6674069121
 10
1.5355434989
 20
10.5875685258
 10
1.5711336501
 20
10.5053618866
 10
1.6049240285
 20
10.4208951082
 10
1.6365762434
 20
10.3345461336
 10
1.6660654558
 20
10.2462937181
 10
1.6934165047
 20
10.1561590704
 10
1.7183655168
 20
10.0645838229
 10
1.740880508
 20
9.971620656
 10
1.7609934624
 20
9.8772168636
 10
1.7785364591
 20
9.7816560066
 10
1.7935043624
 20
9.6848589665
 10
1.805902308
 20
9.5869048421
 10
1.8155777816
 20
9.4883145292
 10
1.822479945
 20
9.3892616604
 10
1.8266596364
 20
9.2895725978
 10
1.8281168557
 20
9.1892473383
  0
LINE
  5
5AC
100
AcDbEntity
  8
0
100
AcDbLine
 62
7
  6
CONTINUOUS
 10
3.2747269664
 20
10.6490129592
 11
3.3768546138
 21
10.6265127875
  0
LINE
  5
5AD
100
AcDbEntity
  8
0
100
AcDbLine
 62
7
  6
CONTINUOUS
 10
3.1215354238
 20
11.9765127875
 11
3.2491950545
 21
11.9315129592
  0
LINE
  5
5AE
100
AcDbEntity
  8
0
100
AcDbLine
 62
7
  6
CONTINUOUS
 10
3.6321737323
 20
11.9540131308
 11
3.7598333273
 21
11.9090127875
  0
LINE
  5
5AF
100
AcDbEntity
  8
0
100
AcDbLine
 62
7
  6
CONTINUOUS
 10
3.2747269664
 20
10.5140129592
 11
3.3768546138
 21
10.4690131308
  0
LINE
  5
5B0
100
AcDbEntity
  8
0
100
AcDbLine
 62
7
  6
CONTINUOUS
 10
3.3768546138
 20
10.6265127875
 11
3.4534503493
 21
10.5815129592
  0
LINE
  5
5B1
100
AcDbEntity
  8
0
100
AcDbLine
 62
7
  6
CONTINUOUS
 10
3.1725992475
 20
12.0890131308
 11
3.2491950545
 21
12.0440127875
  0
LINE
  5
5B2
100
AcDbEntity
  8
0
100
AcDbLine
 62
7
  6
CONTINUOUS
 10
3.3002588782
 20
12.5840127875
 11
3.3768546138
 21
12.5390129592
  0
LINE
  5
5B3
100
AcDbEntity
  8
0
100
AcDbLine
 62
7
  6
CONTINUOUS
 10
3.6577056441
 20
12.0890131308
 11
3.7598333273
 21
12.0215131308
  0
LINE
  5
5B4
100
AcDbEntity
  8
0
100
AcDbLine
 62
7
  6
CONTINUOUS
 10
3.1470673356
 20
11.3690127875
 11
3.6321737323
 21
10.9865129592
  0
LINE
  5
5B5
100
AcDbEntity
  8
0
100
AcDbLine
 62
7
  6
CONTINUOUS
 10
3.0449396882
 20
12.0440127875
 11
3.1215354238
 21
11.9765127875
  0
LINE
  5
5B6
100
AcDbEntity
  8
0
100
AcDbLine
 62
7
  6
CONTINUOUS
 10
3.4279184375
 20
12.6515127875
 11
3.504514173
 21
12.5840127875
  0
LINE
  5
5B7
100
AcDbEntity
  8
0
100
AcDbLine
 62
7
  6
CONTINUOUS
 10
3.96408864
 20
12.6740129592
 11
4.0406843845
 21
12.6065129592
  0
LINE
  5
5B8
100
AcDbEntity
  8
ASSI
100
AcDbLine
 62
7
  6
CONTINUOUS
 10
-4.4476226551
 20
23.4214369847
 11
-4.5086691628
 21
23.4883224806
  0
LINE
  5
5B9
100
AcDbEntity
  8
ASSI
100
AcDbLine
 62
7
  6
CONTINUOUS
 10
-4.5086691628
 20
23.4883224806
 11
-4.5447853624
 21
23.5282968778
  0
LINE
  5
5BA
100
AcDbEntity
  8
ASSI
100
AcDbLine
 62
7
  6
CONTINUOUS
 10
-4.5447853624
 20
23.5282968778
 11
-4.5770910495
 21
23.5644178796
  0
LWPOLYLINE
  5
5BB
100
AcDbEntity
  8
ASSI
100
AcDbPolyline
 62
7
  6
CONTINUOUS
 90
19
 70
0
 10
-4.5770910495
 20
23.5644178796
 10
-4.6055628982
 20
23.5967115085
 10
-4.6183723102
 20
23.6114209584
 10
-4.6302857465
 20
23.6252511484
 10
-4.6413111492
 20
23.6382011194
 10
-4.6514599072
 20
23.6502718305
 10
-4.6607763089
 20
23.661537453
 10
-4.6692631948
 20
23.6719945014
 10
-4.6769402332
 20
23.6816464612
 10
-4.6838607738
 20
23.690577961
 10
-4.6900400847
 20
23.6988090854
 10
-4.6954677776
 20
23.7063197498
 10
-4.7001491347
 20
23.7131343287
 10
-4.7040936013
 20
23.7192485904
 10
-4.7073092465
 20
23.7246667665
 10
-4.7098044455
 20
23.729425927
 10
-4.7115933912
 20
23.7335384283
 10
-4.7126931604
 20
23.736991914
 10
-4.7131206919
 20
23.7397863839
  0
LINE
  5
5BC
100
AcDbEntity
  8
0
100
AcDbLine
 62
7
  6
CONTINUOUS
 10
0.7254957102
 20
17.7590503516
 11
1.7106830408
 21
16.5899739592
  0
LINE
  5
5BD
100
AcDbEntity
  8
0
100
AcDbLine
 62
7
  6
CONTINUOUS
 10
1.282902462
 20
17.704806646
 11
2.2223780408
 21
16.5899739592
  0
LINE
  5
5BE
100
AcDbEntity
  8
ASSI
100
AcDbLine
 62
7
  6
CONTINUOUS
 10
-4.4475833601
 20
-23.4433680226
 11
-4.2851579469
 21
-23.2673448555
  0
LINE
  5
5BF
100
AcDbEntity
  8
ASSI
100
AcDbLine
 62
7
  6
CONTINUOUS
 10
-4.7571879592
 20
-23.8109870408
 11
-4.7135373123
 21
-23.7673363939
  0
LINE
  5
5C0
100
AcDbEntity
  8
0
100
AcDbLine
 62
7
  6
CONTINUOUS
 10
-3.3571879592
 20
13.0405149592
 11
-5.7005989592
 21
13.0405149592
  0
LINE
  5
5C1
100
AcDbEntity
  8
0
100
AcDbLine
 62
7
  6
CONTINUOUS
 10
-3.9383199592
 20
14.4443609592
 11
-6.1571889592
 21
14.4443609592
  0
LINE
  5
5C2
100
AcDbEntity
  8
0
100
AcDbLine
 62
7
  6
CONTINUOUS
 10
-5.6219799592
 20
16.6435159592
 11
-4.4159469592
 21
16.2283829592
  0
LINE
  5
5C3
100
AcDbEntity
  8
0
100
AcDbLine
 62
7
  6
CONTINUOUS
 10
3.8364290629
 20
12.7190127875
 11
3.96408864
 21
12.6740129592
  0
LINE
  5
5C4
100
AcDbEntity
  8
0
100
AcDbLine
 62
7
  6
CONTINUOUS
 10
-3.9506329592
 20
16.0732779592
 11
-3.3571879592
 21
15.8638029592
  0
LINE
  5
5C5
100
AcDbEntity
  8
0
100
AcDbLine
 62
7
  6
CONTINUOUS
 10
-6.1571889592
 20
16.3021419592
 11
-3.3571879592
 21
15.2898509592
  0
LINE
  5
5C6
100
AcDbEntity
  8
0
100
AcDbLine
 62
7
  6
CONTINUOUS
 10
3.3257907901
 20
12.6965131308
 11
3.4279184375
 21
12.6515127875
  0
LINE
  5
5C7
100
AcDbEntity
  8
0
100
AcDbLine
 62
7
  6
CONTINUOUS
 10
3.8364290629
 20
12.6065129592
 11
3.9385567281
 21
12.5390129592
  0
LINE
  5
5C8
100
AcDbEntity
  8
ASSI
100
AcDbLine
 62
7
  6
CONTINUOUS
 10
-4.7571879592
 20
23.7890129592
 11
-4.7135373123
 21
23.7453623123
  0
LINE
  5
5C9
100
AcDbEntity
  8
ASSI
100
AcDbLine
 62
7
  6
CONTINUOUS
 10
-4.2851579469
 20
23.2453707739
 11
-4.4476226551
 21
23.4214369847
  0
LINE
  5
5CA
100
AcDbEntity
  8
0
100
AcDbLine
 62
7
  6
CONTINUOUS
 10
-4.2292829592
 20
-16.8319350408
 11
-6.1573209592
 21
-17.4509590408
  0
LINE
  5
5CB
100
AcDbEntity
  8
0
100
AcDbLine
 62
7
  6
CONTINUOUS
 10
-3.3571879592
 20
-17.1119630408
 11
-6.1573209592
 21
-18.0109870408
  0
LINE
  5
5CC
100
AcDbEntity
  8
0
100
AcDbLine
 62
7
  6
CONTINUOUS
 10
-3.3571879592
 20
15.0067219592
 11
-6.1571889592
 21
15.0067219592
  0
LINE
  5
5CD
100
AcDbEntity
  8
0
100
AcDbLine
 62
7
  6
CONTINUOUS
 10
4.0251860408
 20
15.7768399592
 11
3.6085210408
 21
15.7768399592
  0
LINE
  5
5CE
100
AcDbEntity
  8
0
100
AcDbLine
 62
7
  6
CONTINUOUS
 10
0.6483230408
 20
15.7904469592
 11
0.2293660408
 21
15.7904469592
  0
LINE
  5
5CF
100
AcDbEntity
  8
0
100
AcDbLine
 62
7
  6
CONTINUOUS
 10
3.6085210408
 20
16.1460949592
 11
2.2270380408
 21
16.1460949592
  0
LINE
  5
5D0
100
AcDbEntity
  8
0
100
AcDbLine
 62
7
  6
CONTINUOUS
 10
1.7106830408
 20
16.1460949592
 11
0.6483230408
 21
16.1460949592
  0
LINE
  5
5D1
100
AcDbEntity
  8
0
100
AcDbLine
 62
7
  6
CONTINUOUS
 10
3.4960906923
 20
15.5923911548
 11
3.8378095379
 21
15.4005952414
  0
LINE
  5
5D2
100
AcDbEntity
  8
0
100
AcDbLine
 62
7
  6
CONTINUOUS
 10
3.6085210408
 20
16.5899739592
 11
2.2223780408
 21
16.5899739592
  0
LINE
  5
5D3
100
AcDbEntity
  8
0
100
AcDbLine
 62
7
  6
CONTINUOUS
 10
1.7106830408
 20
16.5899739592
 11
0.6483230408
 21
16.5899739592
  0
LINE
  5
5D4
100
AcDbEntity
  8
0
100
AcDbLine
 62
7
  6
CONTINUOUS
 10
0.6483230408
 20
16.9454789592
 11
0.2293660408
 21
16.9454789592
  0
LINE
  5
5D5
100
AcDbEntity
  8
0
100
AcDbLine
 62
7
  6
CONTINUOUS
 10
4.0251860408
 20
16.9590859592
 11
3.6085210408
 21
16.9590859592
  0
LINE
  5
5D6
100
AcDbEntity
  8
0
100
AcDbLine
 62
7
  6
CONTINUOUS
 10
5.0398490408
 20
18.0916299592
 11
5.3480870408
 21
17.8742019592
  0
LINE
  5
5D7
100
AcDbEntity
  8
ASSI
100
AcDbLine
 62
7
  6
CONTINUOUS
 10
3.2369015335
 20
-23.6341647012
 11
3.2634355412
 21
-23.6038137955
  0
LINE
  5
5D8
100
AcDbEntity
  8
ASSI
100
AcDbLine
 62
7
  6
CONTINUOUS
 10
3.2634355412
 20
-23.6038137955
 11
3.2938082502
 21
-23.5696073195
  0
LINE
  5
5D9
100
AcDbEntity
  8
ASSI
100
AcDbLine
 62
7
  6
CONTINUOUS
 10
3.2938082502
 20
-23.5696073195
 11
3.3280348986
 21
-23.5315434098
  0
LINE
  5
5DA
100
AcDbEntity
  8
ASSI
100
AcDbLine
 62
7
  6
CONTINUOUS
 10
3.3280348986
 20
-23.5315434098
 11
3.3864824468
 21
-23.4672804731
  0
LINE
  5
5DB
100
AcDbEntity
  8
ASSI
100
AcDbLine
 62
7
  6
CONTINUOUS
 10
3.3864824468
 20
-23.4672804731
 11
3.5707820285
 21
-23.2673448555
  0
LINE
  5
5DC
100
AcDbEntity
  8
RACCORDO
100
AcDbLine
 62
253
  6
CONTINUOUS
 10
-7.6001664577
 20
18.8871202438
 11
-7.4001698424
 21
18.8871202438
  0
LINE
  5
5DD
100
AcDbEntity
  8
RACCORDO
100
AcDbLine
 62
253
  6
CONTINUOUS
 10
6.8857905394
 20
18.8871202438
 11
6.685793924
 21
18.8871202438
  0
LINE
  5
5DE
100
AcDbEntity
  8
RACCORDO
100
AcDbLine
 62
253
  6
CONTINUOUS
 10
5.9998335423
 20
18.8871202438
 11
6.1998301576
 21
18.8871202438
  0
LINE
  5
5DF
100
AcDbEntity
  8
RACCORDO
100
AcDbLine
 62
253
  6
CONTINUOUS
 10
-6.7142094606
 20
18.8871202438
 11
-6.914206076
 21
18.8871202438
  0
LINE
  5
5E0
100
AcDbEntity
  8
RACCORDO
100
AcDbLine
 62
253
  6
CONTINUOUS
 10
5.8921459441
 20
19.7371573075
 11
-6.6065218625
 21
19.7371573075
  0
LINE
  5
5E1
100
AcDbEntity
  8
ASSI
100
AcDbLine
 62
7
  6
CONTINUOUS
 10
3.5707820285
 20
23.2453707739
 11
3.3660020408
 21
23.4677462887
  0
LINE
  5
5E2
100
AcDbEntity
  8
ASSI
100
AcDbLine
 62
7
  6
CONTINUOUS
 10
3.3660020408
 20
23.4677462887
 11
3.327942719
 21
23.5096710432
  0
LINE
  5
5E3
100
AcDbEntity
  8
ASSI
100
AcDbLine
 62
7
  6
CONTINUOUS
 10
3.327942719
 20
23.5096710432
 11
3.2936736227
 21
23.5477835427
  0
LINE
  5
5E4
100
AcDbEntity
  8
ASSI
100
AcDbLine
 62
7
  6
CONTINUOUS
 10
3.2936736227
 20
23.5477835427
 11
3.2632697419
 21
23.5820278004
  0
LWPOLYLINE
  5
5E5
100
AcDbEntity
  8
ASSI
100
AcDbPolyline
 62
7
  6
CONTINUOUS
 90
18
 70
0
 10
3.2632697419
 20
23.5820278004
 10
3.2367230865
 20
23.6123963188
 10
3.2248266774
 20
23.6262173952
 10
3.2138243711
 20
23.6391527397
 10
3.203703788
 20
23.6512037027
 10
3.1944179685
 20
23.6624475568
 10
3.185963657
 20
23.6728823483
 10
3.1783226133
 20
23.6825100309
 10
3.171442308
 20
23.6914137381
 10
3.1653076825
 20
23.6996137538
 10
3.159930019
 20
23.7070897941
 10
3.1553054548
 20
23.7138641406
 10
3.1514246613
 20
23.7199317748
 10
3.1482793094
 20
23.7252977152
 10
3.1458610897
 20
23.7299992991
 10
3.1441554607
 20
23.7340489724
 10
3.1431448878
 20
23.7374342892
 10
3.1428120408
 20
23.7401552495
  0
LINE
  5
5E6
100
AcDbEntity
  8
SMUSSO
100
AcDbLine
 62
7
  6
CONTINUOUS
 10
9.3928120408
 20
-20.1599580946
 11
8.6426981077
 21
-20.9109870408
  0
LINE
  5
5E7
100
AcDbEntity
  8
RACCORDO
100
AcDbLine
 62
7
  6
CONTINUOUS
 10
6.9015389086
 20
-22.402260173
 11
7.8928120408
 21
-21.4109870408
  0
LINE
  5
5E8
100
AcDbEntity
  8
RACCORDO
100
AcDbLine
 62
253
  6
CONTINUOUS
 10
5.8950271917
 20
20.2173346747
 11
-6.6094031101
 21
20.2173346747
  0
LINE
  5
5E9
100
AcDbEntity
  8
RACCORDO
100
AcDbLine
 62
253
  6
CONTINUOUS
 10
-6.7136361392
 20
20.3736864234
 11
5.9992602208
 21
20.3736864234
  0
LINE
  5
5EA
100
AcDbEntity
  8
SMUSSO
100
AcDbLine
 62
7
  6
CONTINUOUS
 10
-9.2055527303
 20
20.4340794108
 11
-7.707690499
 21
20.4340794108
  0
LINE
  5
5EB
100
AcDbEntity
  8
SMUSSO
100
AcDbLine
 62
7
  6
CONTINUOUS
 10
6.9933145806
 20
20.4340794108
 11
8.4911768119
 21
20.4340794108
  0
LINE
  5
5EC
100
AcDbEntity
  8
RACCORDO
100
AcDbLine
 62
253
  6
CONTINUOUS
 10
-6.914206076
 20
20.6736750003
 11
6.1998301576
 21
20.6736750003
  0
LINE
  5
5ED
100
AcDbEntity
  8
SMUSSO
100
AcDbLine
 62
7
  6
CONTINUOUS
 10
8.6426981077
 20
20.8890129592
 11
7.8928120408
 21
20.8890129592
  0
LINE
  5
5EE
100
AcDbEntity
  8
RACCORDO
100
AcDbLine
 62
7
  6
CONTINUOUS
 10
6.685793924
 20
20.8890129592
 11
7.8928120408
 21
20.8890129592
  0
LINE
  5
5EF
100
AcDbEntity
  8
RACCORDO
100
AcDbLine
 62
7
  6
CONTINUOUS
 10
-7.4001698424
 20
20.8890129592
 11
-8.6071879592
 21
20.8890129592
  0
LINE
  5
5F0
100
AcDbEntity
  8
SMUSSO
100
AcDbLine
 62
7
  6
CONTINUOUS
 10
-8.6071879592
 20
20.8890129592
 11
-9.3570740261
 21
20.8890129592
  0
LINE
  5
5F1
100
AcDbEntity
  8
0
100
AcDbLine
 62
7
  6
CONTINUOUS
 10
2.6428120408
 20
20.9890129592
 11
-3.3571879592
 21
20.9890129592
  0
LINE
  5
5F2
100
AcDbEntity
  8
0
100
AcDbLine
 62
7
  6
CONTINUOUS
 10
-3.3571879592
 20
21.6890129592
 11
2.6428120408
 21
21.6890129592
  0
LINE
  5
5F3
100
AcDbEntity
  8
RACCORDO
100
AcDbLine
 62
253
  6
CONTINUOUS
 10
7.22691276
 20
21.6982306871
 11
2.6428120408
 21
21.6982306871
  0
LINE
  5
5F4
100
AcDbEntity
  8
RACCORDO
100
AcDbLine
 62
253
  6
CONTINUOUS
 10
-3.3571879592
 20
21.6982306871
 11
-7.9412886783
 21
21.6982306871
  0
LINE
  5
5F5
100
AcDbEntity
  8
RACCORDO
100
AcDbLine
 62
7
  6
CONTINUOUS
 10
7.8928120408
 20
21.3890129592
 11
6.9015389086
 21
22.3802860914
  0
LINE
  5
5F6
100
AcDbEntity
  8
SMUSSO
100
AcDbLine
 62
7
  6
CONTINUOUS
 10
8.6426981077
 20
20.8890129592
 11
9.3928120408
 21
20.137984013
  0
LINE
  5
5F7
100
AcDbEntity
  8
RACCORDO
100
AcDbLine
 62
253
  6
CONTINUOUS
 10
7.8971838748
 20
-24.2566194376
 11
7.8928120408
 21
-24.2609912716
  0
LINE
  5
5F8
100
AcDbEntity
  8
RACCORDO
100
AcDbLine
 62
253
  6
CONTINUOUS
 10
8.147179644
 20
-24.5066152068
 11
8.14280781
 21
-24.5109870408
  0
LWPOLYLINE
  5
5F9
100
AcDbEntity
  8
RACCORDO
100
AcDbPolyline
 62
7
  6
CONTINUOUS
 90
11
 70
0
 10
-11.0071870983
 20
22.3887041578
 10
-11.0286763564
 20
22.387486699
 10
-11.0501314052
 20
22.3853402631
 10
-11.0715118462
 20
22.3822639843
 10
-11.0927998706
 20
22.3782539253
 10
-11.1139314803
 20
22.3733156493
 10
-11.1347988559
 20
22.3674740357
 10
-11.15534766
 20
22.360749765
 10
-11.1755574519
 20
22.3531550228
 10
-11.195375418
 20
22.3447153169
 10
-11.2132250332
 20
22.3362267609
  0
LINE
  5
5FA
100
AcDbEntity
  8
RACCORDO
100
AcDbLine
 62
7
  6
CONTINUOUS
 10
-11.0071879592
 20
22.3887029272
 11
-11.0032762663
 21
22.3888254025
  0
LINE
  5
5FB
100
AcDbEntity
  8
RACCORDO
100
AcDbLine
 62
7
  6
CONTINUOUS
 10
-11.0032762663
 20
22.3888254025
 11
-10.9993638347
 21
22.3889172634
  0
LINE
  5
5FC
100
AcDbEntity
  8
RACCORDO
100
AcDbLine
 62
7
  6
CONTINUOUS
 10
-10.9993638347
 20
22.3889172634
 11
-10.9954507543
 21
22.3889785082
  0
LINE
  5
5FD
100
AcDbEntity
  8
RACCORDO
100
AcDbLine
 62
7
  6
CONTINUOUS
 10
-10.9954507543
 20
22.3889785082
 11
-10.9915373848
 21
22.3890091308
  0
LINE
  5
5FE
100
AcDbEntity
  8
RACCORDO
100
AcDbLine
 62
253
  6
CONTINUOUS
 10
6.983617159
 20
22.298207841
 11
2.6428120408
 21
22.298207841
  0
LINE
  5
5FF
100
AcDbEntity
  8
RACCORDO
100
AcDbLine
 62
253
  6
CONTINUOUS
 10
-3.3571879592
 20
22.298207841
 11
-7.6979930774
 21
22.298207841
  0
LINE
  5
600
100
AcDbEntity
  8
RACCORDO
100
AcDbLine
 62
7
  6
CONTINUOUS
 10
10.2926597157
 20
22.3802860914
 11
6.9015389086
 21
22.3802860914
  0
LINE
  5
601
100
AcDbEntity
  8
DRAFT
100
AcDbLine
 62
7
  6
CONTINUOUS
 10
3.1428120408
 20
22.3802860914
 11
2.6428120408
 21
22.3802860914
  0
LINE
  5
602
100
AcDbEntity
  8
DRAFT
100
AcDbLine
 62
7
  6
CONTINUOUS
 10
-3.3571879592
 20
22.3802860914
 11
-3.8571879592
 21
22.3802860914
  0
LINE
  5
603
100
AcDbEntity
  8
RACCORDO
100
AcDbLine
 62
7
  6
CONTINUOUS
 10
-7.615914827
 20
22.3802860914
 11
-11.007035634
 21
22.3802860914
  0
LINE
  5
604
100
AcDbEntity
  8
RACCORDO
100
AcDbLine
 62
7
  6
CONTINUOUS
 10
-10.9915373848
 20
22.3890091308
 11
-8.6071879592
 21
22.3890129592
  0
LINE
  5
605
100
AcDbEntity
  8
DRAFT
100
AcDbLine
 62
7
  6
CONTINUOUS
 10
7.8928120408
 20
22.3890129592
 11
4.0428120408
 21
22.3890129592
  0
LINE
  5
606
100
AcDbEntity
  8
DRAFT
100
AcDbLine
 62
7
  6
CONTINUOUS
 10
-4.7571879592
 20
22.3890129592
 11
-8.6071879592
 21
22.3890129592
  0
LINE
  5
607
100
AcDbEntity
  8
RACCORDO
100
AcDbLine
 62
7
  6
CONTINUOUS
 10
-10.7579109571
 20
23.11166269
 11
-8.8564649613
 21
23.11166269
  0
LINE
  5
608
100
AcDbEntity
  8
RACCORDO
100
AcDbLine
 62
7
  6
CONTINUOUS
 10
8.1420890429
 20
23.11166269
 11
10.0435350387
 21
23.11166269
  0
LINE
  5
609
100
AcDbEntity
  8
RACCORDO
100
AcDbLine
 62
7
  6
CONTINUOUS
 10
7.8928120408
 20
22.3890129592
 11
10.2771614664
 21
22.3890091308
  0
LINE
  5
60A
100
AcDbEntity
  8
RACCORDO
100
AcDbLine
 62
7
  6
CONTINUOUS
 10
10.2771614664
 20
22.3890091308
 11
10.281074836
 21
22.3889785082
  0
LINE
  5
60B
100
AcDbEntity
  8
RACCORDO
100
AcDbLine
 62
7
  6
CONTINUOUS
 10
10.281074836
 20
22.3889785082
 11
10.2849879163
 21
22.3889172634
  0
LWPOLYLINE
  5
60C
100
AcDbEntity
  8
RACCORDO
100
AcDbPolyline
 62
7
  6
CONTINUOUS
 90
34
 70
0
 10
-10.752820356
 20
23.6890129592
 10
-10.7658448311
 20
23.6892665366
 10
-10.7787744033
 20
23.6898919354
 10
-10.7915750017
 20
23.6908891555
 10
-10.8042250588
 20
23.6922708209
 10
-10.8166812091
 20
23.6940243076
 10
-10.8288797226
 20
23.6961117441
 10
-10.8407803449
 20
23.6985342128
 10
-10.8523707439
 20
23.7012906313
 10
-10.8636327289
 20
23.7043398806
 10
-10.8745439015
 20
23.7076824396
 10
-10.8850840062
 20
23.7113178295
 10
-10.8952398995
 20
23.7152034954
 10
-10.9049940411
 20
23.7193394836
 10
-10.9143307561
 20
23.7237257479
 10
-10.9232410905
 20
23.7283195952
 10
-10.9317119335
 20
23.7331208206
 10
-10.9397316657
 20
23.738129629
 10
-10.9472945692
 20
23.7433039425
 10
-10.9543914615
 20
23.7486434251
 10
-10.9610143706
 20
23.7541484128
 10
-10.9671601145
 20
23.7597778348
 10
-10.9728229955
 20
23.7655312854
 10
-10.9779983527
 20
23.7714091704
 10
-10.9826851307
 20
23.7773716368
 10
-10.9868807557
 20
23.7834182212
 10
-10.9905836059
 20
23.7895493871
 10
-10.9937945831
 20
23.7957266721
 10
-10.99651395
 20
23.801949531
 10
-10.9987428965
 20
23.8082185091
 10
-11.0004842592
 20
23.8144967803
 10
-11.001740998
 20
23.8207720693
 10
-11.0025167027
 20
23.8270566513
 10
-11.0028161252
 20
23.8333505265
  0
LINE
  5
60D
100
AcDbEntity
  8
RACCORDO
100
AcDbLine
 62
7
  6
CONTINUOUS
 10
10.2849879163
 20
22.3889172634
 11
10.2889003479
 21
22.3888254025
  0
LINE
  5
60E
100
AcDbEntity
  8
RACCORDO
100
AcDbLine
 62
7
  6
CONTINUOUS
 10
10.2889003479
 20
22.3888254025
 11
10.2928120408
 21
22.3887029272
  0
LINE
  5
60F
100
AcDbEntity
  8
RACCORDO
100
AcDbLine
 62
253
  6
CONTINUOUS
 10
7.8971838748
 20
24.234645356
 11
7.8928120408
 21
24.23901719
  0
LINE
  5
610
100
AcDbEntity
  8
RACCORDO
100
AcDbLine
 62
253
  6
CONTINUOUS
 10
8.147179644
 20
24.4846411252
 11
8.14280781
 21
24.4890129592
  0
LINE
  5
611
100
AcDbEntity
  8
RACCORDO
100
AcDbLine
 62
253
  6
CONTINUOUS
 10
10.2926597157
 20
-22.402260173
 11
10.2752046507
 21
-22.4109870408
  0
LINE
  5
612
100
AcDbEntity
  8
RACCORDO
100
AcDbLine
 62
253
  6
CONTINUOUS
 10
8.147179644
 20
23.6168441755
 11
10.0384444376
 21
23.6168441755
  0
LINE
  5
613
100
AcDbEntity
  8
RACCORDO
100
AcDbLine
 62
7
  6
CONTINUOUS
 10
-8.8615555624
 20
23.6890129592
 11
-10.752820356
 21
23.6890129592
  0
LINE
  5
614
100
AcDbEntity
  8
ASSI
100
AcDbLine
 62
253
  6
CONTINUOUS
 10
3.9991613939
 20
23.7453623123
 11
3.1428120408
 21
23.7453623123
  0
LINE
  5
615
100
AcDbEntity
  8
ASSI
100
AcDbLine
 62
253
  6
CONTINUOUS
 10
-3.8571879592
 20
23.7453623123
 11
-4.7135373123
 21
23.7453623123
  0
LINE
  5
616
100
AcDbEntity
  8
DRAFT
100
AcDbLine
 62
7
  6
CONTINUOUS
 10
3.1428120408
 20
23.7831951294
 11
-3.8571879592
 21
23.7831951294
  0
LINE
  5
617
100
AcDbEntity
  8
DRAFT
100
AcDbLine
 62
7
  6
CONTINUOUS
 10
4.0428120408
 20
23.7890129592
 11
-4.7571879592
 21
23.7890129592
  0
LINE
  5
618
100
AcDbEntity
  8
RACCORDO
100
AcDbLine
 62
253
  6
CONTINUOUS
 10
7.8971838748
 20
23.8333505265
 11
10.2884402068
 21
23.8333505265
  0
LINE
  5
619
100
AcDbEntity
  8
RACCORDO
100
AcDbLine
 62
253
  6
CONTINUOUS
 10
7.8971838748
 20
24.234645356
 11
10.2884402068
 21
24.234645356
  0
LINE
  5
61A
100
AcDbEntity
  8
RACCORDO
100
AcDbLine
 62
253
  6
CONTINUOUS
 10
-8.6115597932
 20
24.234645356
 11
-11.0028161252
 21
24.234645356
  0
LINE
  5
61B
100
AcDbEntity
  8
RACCORDO
100
AcDbLine
 62
253
  6
CONTINUOUS
 10
10.0384444376
 20
24.4846411252
 11
8.147179644
 21
24.4846411252
  0
LINE
  5
61C
100
AcDbEntity
  8
RACCORDO
100
AcDbLine
 62
253
  6
CONTINUOUS
 10
-8.8615555624
 20
24.4846411252
 11
-10.752820356
 21
24.4846411252
  0
LINE
  5
61D
100
AcDbEntity
  8
RACCORDO
100
AcDbLine
 62
7
  6
CONTINUOUS
 10
10.0428162716
 20
24.4890129592
 11
8.14280781
 21
24.4890129592
  0
LINE
  5
61E
100
AcDbEntity
  8
RACCORDO
100
AcDbLine
 62
7
  6
CONTINUOUS
 10
-8.8571837284
 20
24.4890129592
 11
-10.75719219
 21
24.4890129592
  0
LWPOLYLINE
  5
61F
100
AcDbEntity
  8
RACCORDO
100
AcDbPolyline
 62
7
  6
CONTINUOUS
 90
34
 70
0
 10
-8.8571837284
 20
24.4890129592
 10
-8.8452884432
 20
24.4887298089
 10
-8.8334201036
 20
24.4878809934
 10
-8.821605593
 20
24.4864684333
 10
-8.8098716717
 20
24.4844953269
 10
-8.7982449204
 20
24.4819661409
 10
-8.7867516802
 20
24.4788866009
 10
-8.7754179854
 20
24.4752636805
 10
-8.7642695099
 20
24.471105585
 10
-8.7533315129
 20
24.4664217314
 10
-8.7426287716
 20
24.461222728
 10
-8.7321855309
 20
24.4555203508
 10
-8.7220254533
 20
24.4493275173
 10
-8.7121715541
 20
24.4426582547
 10
-8.7026461553
 20
24.4355276699
 10
-8.6934708401
 20
24.4279519181
 10
-8.6846663931
 20
24.4199481597
 10
-8.6762527587
 20
24.4115345253
 10
-8.6682490003
 20
24.4027300782
 10
-8.6606732485
 20
24.393554763
 10
-8.6535426637
 20
24.3840293643
 10
-8.6468734011
 20
24.3741754651
 10
-8.6406805675
 20
24.3640153875
 10
-8.6349781904
 20
24.3535721468
 10
-8.629779187
 20
24.3428694055
 10
-8.6250953334
 20
24.3319314085
 10
-8.6209372378
 20
24.320782933
 10
-8.6173143175
 20
24.3094492382
 10
-8.6142347775
 20
24.297955998
 10
-8.6117055915
 20
24.2863292467
 10
-8.609732485
 20
24.2745953253
 10
-8.6083199249
 20
24.2627808148
 10
-8.6074711094
 20
24.2509124752
 10
-8.6071879592
 20
24.23901719
  0
LWPOLYLINE
  5
620
100
AcDbEntity
  8
RACCORDO
100
AcDbPolyline
 62
7
  6
CONTINUOUS
 90
34
 70
0
 10
10.0428162716
 20
24.4890129592
 10
10.0547115568
 20
24.4887298089
 10
10.0665798964
 20
24.4878809934
 10
10.078394407
 20
24.4864684333
 10
10.0901283283
 20
24.4844953269
 10
10.1017550796
 20
24.4819661409
 10
10.1132483198
 20
24.4788866009
 10
10.1245820146
 20
24.4752636805
 10
10.1357304901
 20
24.471105585
 10
10.1466684871
 20
24.4664217314
 10
10.1573712284
 20
24.461222728
 10
10.1678144691
 20
24.4555203508
 10
10.1779745467
 20
24.4493275173
 10
10.1878284459
 20
24.4426582547
 10
10.1973538447
 20
24.4355276699
 10
10.2065291599
 20
24.4279519181
 10
10.2153336069
 20
24.4199481597
 10
10.2237472413
 20
24.4115345253
 10
10.2317509997
 20
24.4027300782
 10
10.2393267515
 20
24.393554763
 10
10.2464573363
 20
24.3840293643
 10
10.2531265989
 20
24.3741754651
 10
10.2593194325
 20
24.3640153875
 10
10.2650218096
 20
24.3535721468
 10
10.270220813
 20
24.3428694055
 10
10.2749046666
 20
24.3319314085
 10
10.2790627622
 20
24.320782933
 10
10.2826856825
 20
24.3094492382
 10
10.2857652225
 20
24.297955998
 10
10.2882944085
 20
24.2863292467
 10
10.290267515
 20
24.2745953253
 10
10.2916800751
 20
24.2627808148
 10
10.2925288906
 20
24.2509124752
 10
10.2928120408
 20
24.23901719
  0
LWPOLYLINE
  5
621
100
AcDbEntity
  8
RACCORDO
100
AcDbPolyline
 62
253
  6
CONTINUOUS
 90
31
 70
0
 10
-8.8615555624
 20
24.4846411252
 10
-8.8484720764
 20
24.4842980866
 10
-8.8354244498
 20
24.4832707967
 10
-8.8224484437
 20
24.4815620712
 10
-8.8095796228
 20
24.4791765932
 10
-8.7968532583
 20
24.476120901
 10
-8.7843042306
 20
24.4724033696
 10
-8.7719669343
 20
24.4680341881
 10
-8.7598751837
 20
24.4630253316
 10
-8.7480621199
 20
24.4573905285
 10
-8.7365601203
 20
24.4511452226
 10
-8.7254007098
 20
24.4443065311
 10
-8.7146144742
 20
24.4368931978
 10
-8.7042309766
 20
24.428925541
 10
-8.6942786761
 20
24.4204253987
 10
-8.6847848502
 20
24.4114160682
 10
-8.6757755196
 20
24.4019222423
 10
-8.6672753773
 20
24.3919699418
 10
-8.6593077206
 20
24.3815864442
 10
-8.6518943872
 20
24.3708002086
 10
-8.6450556958
 20
24.3596407981
 10
-8.6388103899
 20
24.3481387985
 10
-8.6331755867
 20
24.3363257347
 10
-8.6281667302
 20
24.324233984
 10
-8.6237975488
 20
24.3118966878
 10
-8.6200800174
 20
24.2993476601
 10
-8.6170243252
 20
24.2866212955
 10
-8.6146388472
 20
24.2737524747
 10
-8.6129301216
 20
24.2607764686
 10
-8.6119028318
 20
24.247728842
 10
-8.6115597932
 20
24.234645356
  0
LWPOLYLINE
  5
622
100
AcDbEntity
  8
RACCORDO
100
AcDbPolyline
 62
253
  6
CONTINUOUS
 90
31
 70
0
 10
10.0384444376
 20
24.4846411252
 10
10.0514967776
 20
24.484299718
 10
10.0645216719
 20
24.4832764554
 10
10.0774834465
 20
24.4815728511
 10
10.0903491653
 20
24.479191721
 10
10.1030806305
 20
24.4761386076
 10
10.115634815
 20
24.4724231679
 10
10.127974619
 20
24.4680566168
 10
10.1400689751
 20
24.4630501869
 10
10.1518850533
 20
24.4574174383
 10
10.1633906538
 20
24.4511736366
 10
10.1745539722
 20
24.4443359548
 10
10.1853440514
 20
24.4369233248
 10
10.1957311772
 20
24.4289561825
 10
10.2056870144
 20
24.4204562856
 10
10.2151843488
 20
24.4114468638
 10
10.224197168
 20
24.4019525706
 10
10.2327007095
 20
24.3919994672
 10
10.2406716177
 20
24.3816148779
 10
10.2480880245
 20
24.3708272876
 10
10.2549296003
 20
24.3596662616
 10
10.2611775795
 20
24.3481624058
 10
10.2668148278
 20
24.3363472602
 10
10.2718258832
 20
24.324253223
 10
10.2761969983
 20
24.3119134669
 10
10.2799161878
 20
24.2993618194
 10
10.282973249
 20
24.2866327055
 10
10.2853597917
 20
24.2737610658
 10
10.2870692748
 20
24.2607822084
 10
10.2880970178
 20
24.2477317101
 10
10.2884402068
 20
24.234645356
  0
LWPOLYLINE
  5
623
100
AcDbEntity
  8
RACCORDO
100
AcDbPolyline
 62
7
  6
CONTINUOUS
 90
11
 70
0
 10
10.4988491149
 20
22.3362267609
 10
10.4809994996
 20
22.3447153169
 10
10.4611815336
 20
22.3531550228
 10
10.4409717416
 20
22.360749765
 10
10.4204229375
 20
22.3674740357
 10
10.3995555619
 20
22.3733156493
 10
10.3784239523
 20
22.3782539253
 10
10.3571359278
 20
22.3822639843
 10
10.3357554869
 20
22.3853402631
 10
10.3143004381
 20
22.387486699
 10
10.2928111799
 20
22.3887041578
  0
LINE
  5
624
100
AcDbEntity
  8
RACCORDO
100
AcDbLine
 62
253
  6
CONTINUOUS
 10
10.2752046507
 20
22.3890129592
 11
10.2926597157
 21
22.3802860914
  0
ARC
  5
625
100
AcDbEntity
  8
0
100
AcDbCircle
 62
7
  6
CONTINUOUS
 10
-5.2986089592
 20
-7.0043690408
 40
0.8587214994
100
AcDbArc
 50
22.8428415932
 51
180.1382382241
  0
ARC
  5
626
100
AcDbEntity
  8
0
100
AcDbCircle
 62
7
  6
CONTINUOUS
 10
0.5428120408
 20
-7.0109870408
 40
0.3500005572
100
AcDbArc
 50
139.9998334025
 51
163.3984775954
  0
ARC
  5
627
100
AcDbEntity
  8
0
100
AcDbCircle
 62
7
  6
CONTINUOUS
 10
0.5428120408
 20
-7.0109870408
 40
0.3499998116
100
AcDbArc
 50
196.6015587956
 51
346.2709000016
  0
ARC
  5
628
100
AcDbEntity
  8
0
100
AcDbCircle
 62
7
  6
CONTINUOUS
 10
-5.2986089592
 20
-7.0820990408
 40
0.340698
100
AcDbArc
 50
359.8036784165
 51
180.0
  0
ARC
  5
629
100
AcDbEntity
  8
0
100
AcDbCircle
 62
7
  6
CONTINUOUS
 10
0.6428120408
 20
-9.3109870408
 40
0.1999994962
100
AcDbArc
 50
225.0
 51
315.0
  0
ARC
  5
62A
100
AcDbEntity
  8
0
100
AcDbCircle
 62
7
  6
CONTINUOUS
 10
-1.6571879592
 20
-7.0109870408
 40
0.1999994962
100
AcDbArc
 50
135.0
 51
225.0
  0
ARC
  5
62B
100
AcDbEntity
  8
0
100
AcDbCircle
 62
7
  6
CONTINUOUS
 10
0.6428120408
 20
-4.7109870408
 40
0.1999994962
100
AcDbArc
 50
45.0
 51
135.0
  0
ARC
  5
62C
100
AcDbEntity
  8
0
100
AcDbCircle
 62
7
  6
CONTINUOUS
 10
0.3428120408
 20
-7.8984870408
 40
0.1499996965
100
AcDbArc
 50
105.0950220451
 51
254.9049779549
  0
ARC
  5
62D
100
AcDbEntity
  8
0
100
AcDbCircle
 62
7
  6
CONTINUOUS
 10
0.3428120408
 20
-6.1234870408
 40
0.1499996965
100
AcDbArc
 50
105.0950220451
 51
254.9049779549
  0
ARC
  5
62E
100
AcDbEntity
  8
0
100
AcDbCircle
 62
7
  6
CONTINUOUS
 10
-0.0321879592
 20
-8.0347660408
 40
0.1
100
AcDbArc
 50
180.0
 51
360.0
  0
ARC
  5
62F
100
AcDbEntity
  8
0
100
AcDbCircle
 62
7
  6
CONTINUOUS
 10
-0.0321879592
 20
-5.9872080408
 40
0.1
100
AcDbArc
 50
0.0
 51
180.0
  0
ARC
  5
630
100
AcDbEntity
  8
0
100
AcDbCircle
 62
7
  6
CONTINUOUS
 10
-0.3571879592
 20
8.6375809592
 40
1.204981
100
AcDbArc
 50
180.0
 51
360.0
  0
ARC
  5
631
100
AcDbEntity
  8
0
100
AcDbCircle
 62
7
  6
CONTINUOUS
 10
-0.3571879592
 20
9.5157869592
 40
1.204981
100
AcDbArc
 50
180.0
 51
360.0
  0
ARC
  5
632
100
AcDbEntity
  8
0
100
AcDbCircle
 62
7
  6
CONTINUOUS
 10
-0.3571879592
 20
10.3939939592
 40
1.204981
100
AcDbArc
 50
180.0
 51
360.0
  0
ARC
  5
633
100
AcDbEntity
  8
0
100
AcDbCircle
 62
7
  6
CONTINUOUS
 10
-0.3571879592
 20
8.6375809592
 40
0.847572
100
AcDbArc
 50
180.0
 51
360.0
  0
ARC
  5
634
100
AcDbEntity
  8
0
100
AcDbCircle
 62
7
  6
CONTINUOUS
 10
-0.3571879592
 20
9.5157869592
 40
0.847572
100
AcDbArc
 50
180.0
 51
360.0
  0
ARC
  5
635
100
AcDbEntity
  8
0
100
AcDbCircle
 62
7
  6
CONTINUOUS
 10
-0.3571879592
 20
10.3939939592
 40
0.847572
100
AcDbArc
 50
180.0
 51
360.0
  0
ARC
  5
636
100
AcDbEntity
  8
0
100
AcDbCircle
 62
7
  6
CONTINUOUS
 10
2.1947720408
 20
-12.0758750408
 40
2.5499986575
100
AcDbArc
 50
177.752529198
 51
2.247470802
  0
ARC
  5
637
100
AcDbEntity
  8
0
100
AcDbCircle
 62
7
  6
CONTINUOUS
 10
2.1947720408
 20
-16.4609850408
 40
2.5499985007
100
AcDbArc
 50
177.7525290597
 51
2.2474709403
  0
ARC
  5
638
100
AcDbEntity
  8
0
100
AcDbCircle
 62
7
  6
CONTINUOUS
 10
2.1947720408
 20
-12.0758750408
 40
1.7999999246
100
AcDbArc
 50
176.8152613297
 51
257.9753003079
  0
ARC
  5
639
100
AcDbEntity
  8
0
100
AcDbCircle
 62
7
  6
CONTINUOUS
 10
2.1947720408
 20
-16.4609850408
 40
1.7999999246
100
AcDbArc
 50
176.8152613297
 51
3.1847386703
  0
ARC
  5
63A
100
AcDbEntity
  8
0
100
AcDbCircle
 62
7
  6
CONTINUOUS
 10
2.1947720408
 20
-12.0758750408
 40
1.7999968808
100
AcDbArc
 50
282.0247203293
 51
3.1847440612
  0
ARC
  5
63B
100
AcDbEntity
  8
0
100
AcDbCircle
 62
7
  6
CONTINUOUS
 10
1.0928120408
 20
-7.0109870408
 40
0.4000004819
100
AcDbArc
 50
283.0028622225
 51
345.5225056375
  0
ARC
  5
63C
100
AcDbEntity
  8
0
100
AcDbCircle
 62
7
  6
CONTINUOUS
 10
1.0928120408
 20
-7.0109870408
 40
0.399999676
100
AcDbArc
 50
14.4775241687
 51
164.2593895919
  0
ARC
  5
63D
100
AcDbEntity
  8
0
100
AcDbCircle
 62
7
  6
CONTINUOUS
 10
2.9428120408
 20
-7.0109870408
 40
0.1999994962
100
AcDbArc
 50
315.0
 51
45.0
  0
ARC
  5
63E
100
AcDbEntity
  8
0
100
AcDbCircle
 62
7
  6
CONTINUOUS
 10
0.8928120408
 20
-7.8984870408
 40
0.1000004413
100
AcDbArc
 50
105.0946213071
 51
254.9053786929
  0
ARC
  5
63F
100
AcDbEntity
  8
0
100
AcDbCircle
 62
7
  6
CONTINUOUS
 10
0.8928120408
 20
-6.1234870408
 40
0.1000004413
100
AcDbArc
 50
105.0946213071
 51
254.9053786929
  0
ARC
  5
640
100
AcDbEntity
  8
0
100
AcDbCircle
 62
7
  6
CONTINUOUS
 10
1.3928120408
 20
-8.2334870408
 40
0.1000004413
100
AcDbArc
 50
254.9049779549
 51
90.0
  0
ARC
  5
641
100
AcDbEntity
  8
0
100
AcDbCircle
 62
7
  6
CONTINUOUS
 10
1.3928120408
 20
-6.4584870408
 40
0.1000004413
100
AcDbArc
 50
254.9049779549
 51
90.0
  0
ARC
  5
642
100
AcDbEntity
  8
0
100
AcDbCircle
 62
7
  6
CONTINUOUS
 10
0.9928120408
 20
-7.8715140408
 40
0.1
100
AcDbArc
 50
0.0
 51
105.0946213071
  0
ARC
  5
643
100
AcDbEntity
  8
0
100
AcDbCircle
 62
7
  6
CONTINUOUS
 10
1.3928120408
 20
-7.7634870408
 40
0.1
100
AcDbArc
 50
90.0
 51
180.0
  0
ARC
  5
644
100
AcDbEntity
  8
0
100
AcDbCircle
 62
7
  6
CONTINUOUS
 10
1.3928120408
 20
-8.0334870408
 40
0.1
100
AcDbArc
 50
180.0
 51
270.0
  0
ARC
  5
645
100
AcDbEntity
  8
0
100
AcDbCircle
 62
7
  6
CONTINUOUS
 10
0.9928120408
 20
-6.0965140408
 40
0.1
100
AcDbArc
 50
0.0
 51
105.0946213071
  0
ARC
  5
646
100
AcDbEntity
  8
0
100
AcDbCircle
 62
7
  6
CONTINUOUS
 10
1.3928120408
 20
-5.9884870408
 40
0.1
100
AcDbArc
 50
90.0
 51
180.0
  0
ARC
  5
647
100
AcDbEntity
  8
0
100
AcDbCircle
 62
7
  6
CONTINUOUS
 10
1.3928120408
 20
-6.2584870408
 40
0.1
100
AcDbArc
 50
180.0
 51
270.0
  0
ARC
  5
648
100
AcDbEntity
  8
0
100
AcDbCircle
 62
7
  6
CONTINUOUS
 10
1.7678120408
 20
-7.0109870408
 40
0.1
100
AcDbArc
 50
270.0
 51
90.0
  0
ARC
  5
649
100
AcDbEntity
  8
0
100
AcDbCircle
 62
7
  6
CONTINUOUS
 10
1.3928120408
 20
-7.5634870408
 40
0.1
100
AcDbArc
 50
270.0
 51
105.0950220451
  0
ARC
  5
64A
100
AcDbEntity
  8
0
100
AcDbCircle
 62
7
  6
CONTINUOUS
 10
1.3928120408
 20
-5.7884870408
 40
0.1
100
AcDbArc
 50
270.0
 51
105.0950220451
  0
ARC
  5
64B
100
AcDbEntity
  8
0
100
AcDbCircle
 62
7
  6
CONTINUOUS
 10
0.9928120408
 20
-7.9254600408
 40
0.0999994758
100
AcDbArc
 50
254.9053786929
 51
360.0
  0
ARC
  5
64C
100
AcDbEntity
  8
0
100
AcDbCircle
 62
7
  6
CONTINUOUS
 10
0.9928120408
 20
-6.1504600408
 40
0.0999994758
100
AcDbArc
 50
254.9053786929
 51
360.0
  0
ARC
  5
64D
100
AcDbEntity
  8
0
100
AcDbCircle
 62
7
  6
CONTINUOUS
 10
2.1190690408
 20
16.3652699592
 40
2.6237428086
100
AcDbArc
 50
22.0885477081
 51
3.4297752138
  0
ARC
  5
64E
100
AcDbEntity
  8
0
100
AcDbCircle
 62
7
  6
CONTINUOUS
 10
7.0651620408
 20
16.2859129592
 40
2.3390187052
100
AcDbArc
 50
137.2312712626
 51
174.2012267591
  0
ARC
  5
64F
100
AcDbEntity
  8
0
100
AcDbCircle
 62
7
  6
CONTINUOUS
 10
6.6862930408
 20
16.4699919592
 40
2.3109495123
100
AcDbArc
 50
135.4348886633
 51
157.5658480485
  0
CIRCLE
  5
650
100
AcDbEntity
  8
0
100
AcDbCircle
 62
7
  6
CONTINUOUS
 10
2.1190690408
 20
16.3652699592
 40
2.203761
  0
ARC
  5
651
100
AcDbEntity
  8
0
100
AcDbCircle
 62
7
  6
CONTINUOUS
 10
2.1190690408
 20
16.3652699592
 40
1.9709567246
100
AcDbArc
 50
29.3041457634
 51
134.9957437184
  0
ARC
  5
652
100
AcDbEntity
  8
0
100
AcDbCircle
 62
7
  6
CONTINUOUS
 10
2.1190690408
 20
16.3652699592
 40
1.9709556584
100
AcDbArc
 50
224.9002640354
 51
330.6958795867
  0
ARC
  5
653
100
AcDbEntity
  8
0
100
AcDbCircle
 62
7
  6
CONTINUOUS
 10
2.1190690408
 20
16.3652699592
 40
1.5790924871
100
AcDbArc
 50
29.3041544012
 51
121.9732652177
  0
ARC
  5
654
100
AcDbEntity
  8
0
100
AcDbCircle
 62
7
  6
CONTINUOUS
 10
2.1190690408
 20
16.3652699592
 40
1.579091598
100
AcDbArc
 50
238.0267394012
 51
330.6958772397
  0
ELLIPSE
  5
655
100
AcDbEntity
  8
RACCORDO
100
AcDbEllipse
 62
7
  6
CONTINUOUS
 10
-6.6094284948
 20
19.7173537131
 30
0.0
 11
0.0
 21
0.5
 31
0.0
 40
0.0058178298
 41
-1.5311787752
 42
-0.0087266463
  0
ELLIPSE
  5
656
100
AcDbEntity
  8
RACCORDO
100
AcDbEllipse
 62
7
  6
CONTINUOUS
 10
-9.5050156516
 20
-0.0109870408
 30
0.0
 11
0.0
 21
498.6
 31
0.0
 40
0.0058178298
 41
-1.5463479443
 42
-1.5311787752
  0
ELLIPSE
  5
657
100
AcDbEntity
  8
RACCORDO
100
AcDbEllipse
 62
7
  6
CONTINUOUS
 10
-4.8093602667
 20
-0.0109870408
 30
0.0
 11
-0.0
 21
498.6
 31
0.0
 40
0.0058178298
 41
1.5297798803
 42
1.5463479443
  0
ELLIPSE
  5
658
100
AcDbEntity
  8
RACCORDO
100
AcDbEllipse
 62
7
  6
CONTINUOUS
 10
4.0949843484
 20
-0.0109870408
 30
0.0
 11
-0.0
 21
498.6
 31
0.0
 40
0.0058178298
 41
-1.5463479443
 42
-1.5297798803
  0
ELLIPSE
  5
659
100
AcDbEntity
  8
RACCORDO
100
AcDbEllipse
 62
7
  6
CONTINUOUS
 10
5.8950525765
 20
19.7173537131
 30
0.0
 11
-0.0
 21
0.5
 31
0.0
 40
0.0058178298
 41
0.0087266463
 42
1.5311787752
  0
ELLIPSE
  5
65A
100
AcDbEntity
  8
RACCORDO
100
AcDbEllipse
 62
7
  6
CONTINUOUS
 10
8.7906397333
 20
-0.0109870408
 30
0.0
 11
-0.0
 21
498.6
 31
0.0
 40
0.0058178298
 41
1.5311787752
 42
1.5463479443
  0
ELLIPSE
  5
65B
100
AcDbEntity
  8
RACCORDO
100
AcDbEllipse
 62
7
  6
CONTINUOUS
 10
5.8950525765
 20
-19.7393277948
 30
0.0
 11
-0.0
 21
0.5
 31
0.0
 40
0.0058178298
 41
-4.6727714287
 42
-3.1503192998
  0
ELLIPSE
  5
65C
100
AcDbEntity
  8
RACCORDO
100
AcDbEllipse
 62
7
  6
CONTINUOUS
 10
8.7906397333
 20
-0.0109870408
 30
0.0
 11
-0.0
 21
498.6
 31
0.0
 40
0.0058178298
 41
-4.6879405979
 42
-4.6727714287
  0
ELLIPSE
  5
65D
100
AcDbEntity
  8
RACCORDO
100
AcDbEllipse
 62
7
  6
CONTINUOUS
 10
4.0949843484
 20
-0.0109870408
 30
0.0
 11
0.0
 21
498.6
 31
0.0
 40
0.0058178298
 41
-1.6118127732
 42
-1.5952447093
  0
ELLIPSE
  5
65E
100
AcDbEntity
  8
RACCORDO
100
AcDbEllipse
 62
7
  6
CONTINUOUS
 10
-4.8093602667
 20
-0.0109870408
 30
0.0
 11
0.0
 21
498.6
 31
0.0
 40
0.0058178298
 41
-4.6879405979
 42
-4.6713725339
  0
ELLIPSE
  5
65F
100
AcDbEntity
  8
RACCORDO
100
AcDbEllipse
 62
7
  6
CONTINUOUS
 10
-6.6094284948
 20
-19.7393277948
 30
0.0
 11
-0.0
 21
0.5
 31
0.0
 40
0.0058178298
 41
-3.1328660073
 42
-1.6104138784
  0
ELLIPSE
  5
660
100
AcDbEntity
  8
RACCORDO
100
AcDbEllipse
 62
7
  6
CONTINUOUS
 10
-9.5050156516
 20
-0.0109870408
 30
0.0
 11
-0.0
 21
498.6
 31
0.0
 40
0.0058178298
 41
-1.6104138784
 42
-1.5952447093
  0
ELLIPSE
  5
661
100
AcDbEntity
  8
ASSI
100
AcDbEllipse
 62
7
  6
CONTINUOUS
 10
3.9991783172
 20
-23.2673448555
 30
0.0
 11
0.0
 21
0.5
 31
0.0
 40
0.0058178298
 41
-3.2911896616
 42
-3.1474104178
  0
ELLIPSE
  5
662
100
AcDbEntity
  8
ASSI
100
AcDbEllipse
 62
7
  6
CONTINUOUS
 10
-4.7135542356
 20
-23.2673448555
 30
0.0
 11
-0.0
 21
0.5
 31
0.0
 40
0.0058178298
 41
-3.1357748894
 42
-2.9919956456
  0
ELLIPSE
  5
663
100
AcDbEntity
  8
ASSI
100
AcDbEllipse
 62
7
  6
CONTINUOUS
 10
-4.7135542356
 20
23.2453707739
 30
0.0
 11
0.0
 21
0.5
 31
0.0
 40
0.0058178298
 41
-0.149597008
 42
-0.0058177642
  0
ELLIPSE
  5
664
100
AcDbEntity
  8
ASSI
100
AcDbEllipse
 62
7
  6
CONTINUOUS
 10
3.9991783172
 20
23.2453707739
 30
0.0
 11
-0.0
 21
0.5
 31
0.0
 40
0.0058178298
 41
0.0058177642
 42
0.149597008
  0
ELLIPSE
  5
665
100
AcDbEntity
  8
RACCORDO
100
AcDbEllipse
 62
7
  6
CONTINUOUS
 10
-11.0071117952
 20
21.8802670522
 30
0.0
 11
0.4473055582
 21
0.2236357461
 31
0.0
 40
0.9998096356
 41
1.1071030277
 42
2.6780516535
  0
ELLIPSE
  5
666
100
AcDbEntity
  8
RACCORDO
100
AcDbEllipse
 62
7
  6
CONTINUOUS
 10
10.2927358768
 20
-21.9022411338
 30
0.0
 11
-0.4473055582
 21
-0.2236357461
 31
0.0
 40
0.9998096356
 41
1.1071030277
 42
2.6780516535
  0
ELLIPSE
  5
667
100
AcDbEntity
  8
DRAFT
100
AcDbEllipse
 62
7
  6
CONTINUOUS
 10
-4.2851579469
 20
22.3229328544
 30
0.0
 11
0.4279699877
 21
-0.0
 31
0.0
 40
0.0087268678
 41
-3.1357748894
 42
-0.0
  0
ELLIPSE
  5
668
100
AcDbEntity
  8
DRAFT
100
AcDbEllipse
 62
7
  6
CONTINUOUS
 10
3.5707820285
 20
22.3229328544
 30
0.0
 11
0.4279699877
 21
-0.0
 31
0.0
 40
0.0087268678
 41
-3.1415926536
 42
-0.0058177642
  0
ELLIPSE
  5
669
100
AcDbEntity
  8
DRAFT
100
AcDbEllipse
 62
7
  6
CONTINUOUS
 10
-4.2851579469
 20
-22.344906936
 30
0.0
 11
0.4279699877
 21
0.0
 31
0.0
 40
0.0087268678
 41
-0.0
 42
3.1357748894
  0
ELLIPSE
  5
66A
100
AcDbEntity
  8
DRAFT
100
AcDbEllipse
 62
7
  6
CONTINUOUS
 10
3.5707820285
 20
-22.344906936
 30
0.0
 11
0.4279699877
 21
0.0
 31
0.0
 40
0.0087268678
 41
0.0058177642
 42
3.1415926536
  0
ELLIPSE
  5
66B
100
AcDbEntity
  8
SMUSSO
100
AcDbEllipse
 62
7
  6
CONTINUOUS
 10
-18.6514422415
 20
-0.0109870408
 30
0.0
 11
0.0
 21
498.6
 31
0.0
 40
0.0174550649
 41
-1.6103020867
 42
-1.5312905668
  0
ELLIPSE
  5
66C
100
AcDbEntity
  8
SMUSSO
100
AcDbEllipse
 62
7
  6
CONTINUOUS
 10
17.9370663232
 20
-0.0109870408
 30
0.0
 11
-0.0
 21
498.6
 31
0.0
 40
0.0174550649
 41
1.5312905668
 42
1.6103020867
  0
ELLIPSE
  5
66D
100
AcDbEntity
  8
RACCORDO
100
AcDbEllipse
 62
7
  6
CONTINUOUS
 10
-11.0071117952
 20
-21.9022411338
 30
0.0
 11
-0.4473055582
 21
0.2236357461
 31
0.0
 40
0.9998096356
 41
6.7467263073
 42
8.3176749331
  0
ELLIPSE
  5
66E
100
AcDbEntity
  8
RACCORDO
100
AcDbEllipse
 62
7
  6
CONTINUOUS
 10
10.2927358768
 20
21.8802670522
 30
0.0
 11
0.4473055582
 21
-0.2236357461
 31
0.0
 40
0.9998096356
 41
6.7467263073
 42
8.3176749331
  0
ELLIPSE
  5
66F
100
AcDbEntity
  8
RACCORDO
100
AcDbEllipse
 62
7
  6
CONTINUOUS
 10
-6.7136209083
 20
20.6736750003
 30
0.0
 11
0.0
 21
0.3
 31
0.0
 40
0.0058178298
 41
-3.4855463279
 42
-3.1503192998
  0
ELLIPSE
  5
670
100
AcDbEntity
  8
RACCORDO
100
AcDbEllipse
 62
7
  6
CONTINUOUS
 10
5.99924499
 20
20.6736750003
 30
0.0
 11
-0.0
 21
0.3
 31
0.0
 40
0.0058178298
 41
-3.1328660073
 42
-2.7976389793
  0
ELLIPSE
  5
671
100
AcDbEntity
  8
RACCORDO
100
AcDbEllipse
 62
7
  6
CONTINUOUS
 10
5.99924499
 20
-20.6956490819
 30
0.0
 11
0.0
 21
0.3
 31
0.0
 40
0.0058178298
 41
-0.3439536743
 42
-0.0087266463
  0
ELLIPSE
  5
672
100
AcDbEntity
  8
RACCORDO
100
AcDbEllipse
 62
7
  6
CONTINUOUS
 10
-6.7136209083
 20
-20.6956490819
 30
0.0
 11
-0.0
 21
0.3
 31
0.0
 40
0.0058178298
 41
0.0087266463
 42
0.3439536743
  0
ELLIPSE
  5
673
100
AcDbEntity
  8
RACCORDO
100
AcDbEllipse
 62
7
  6
CONTINUOUS
 10
8.1428162717
 20
23.4003378246
 30
0.0
 11
0.0029088041
 21
0.2886641433
 31
0.0
 40
0.8660144118
 41
-4.7007536982
 42
-3.1328662411
  0
ELLIPSE
  5
674
100
AcDbEntity
  8
RACCORDO
100
AcDbEllipse
 62
7
  6
CONTINUOUS
 10
10.04280781
 20
23.4003378246
 30
0.0
 11
-0.0029088041
 21
0.2886641433
 31
0.0
 40
0.8660144118
 41
-3.150319066
 42
-1.582431609
  0
ELLIPSE
  5
675
100
AcDbEntity
  8
RACCORDO
100
AcDbEllipse
 62
7
  6
CONTINUOUS
 10
-10.7571837283
 20
23.4003378246
 30
0.0
 11
0.0029088041
 21
0.2886641433
 31
0.0
 40
0.8660144118
 41
-4.7007536982
 42
-3.1328662412
  0
ELLIPSE
  5
676
100
AcDbEntity
  8
RACCORDO
100
AcDbEllipse
 62
7
  6
CONTINUOUS
 10
-8.85719219
 20
23.4003378246
 30
0.0
 11
-0.0029088041
 21
0.2886641433
 31
0.0
 40
0.8660144118
 41
-3.150319066
 42
-1.582431609
  0
ELLIPSE
  5
677
100
AcDbEntity
  8
RACCORDO
100
AcDbEllipse
 62
7
  6
CONTINUOUS
 10
10.04280781
 20
-23.4223119062
 30
0.0
 11
0.0029088041
 21
0.2886641433
 31
0.0
 40
0.8660144118
 41
-1.5591610446
 42
0.0087264124
  0
ELLIPSE
  5
678
100
AcDbEntity
  8
RACCORDO
100
AcDbEllipse
 62
7
  6
CONTINUOUS
 10
8.1428162717
 20
-23.4223119062
 30
0.0
 11
-0.0029088041
 21
0.2886641433
 31
0.0
 40
0.8660144118
 41
-0.0087264124
 42
1.5591610446
  0
ELLIPSE
  5
679
100
AcDbEntity
  8
SMUSSO
100
AcDbEllipse
 62
7
  6
CONTINUOUS
 10
63.6838419488
 20
-0.0109870408
 30
0.0
 11
498.9041039262
 21
498.2958958479
 31
0.0
 40
0.0348994837
 41
1.6452299575
 42
1.646740644
  0
ELLIPSE
  5
67A
100
AcDbEntity
  8
SMUSSO
100
AcDbEllipse
 62
7
  6
CONTINUOUS
 10
-64.3982178672
 20
-0.0109870408
 30
0.0
 11
498.9041039262
 21
-498.2958958479
 31
0.0
 40
0.0348994837
 41
1.4948520096
 42
1.4963626961
  0
ELLIPSE
  5
67B
100
AcDbEntity
  8
SMUSSO
100
AcDbEllipse
 62
7
  6
CONTINUOUS
 10
-64.3982178672
 20
-0.0109870408
 30
0.0
 11
498.9041039262
 21
498.2958958479
 31
0.0
 40
0.0348994837
 41
-1.4963626961
 42
-1.4948520096
  0
ELLIPSE
  5
67C
100
AcDbEntity
  8
SMUSSO
100
AcDbEllipse
 62
7
  6
CONTINUOUS
 10
63.6838419488
 20
-0.0109870408
 30
0.0
 11
498.9041039262
 21
-498.2958958479
 31
0.0
 40
0.0348994837
 41
-1.646740644
 42
-1.6452299575
  0
ELLIPSE
  5
67D
100
AcDbEntity
  8
RACCORDO
100
AcDbEllipse
 62
7
  6
CONTINUOUS
 10
-8.85719219
 20
-23.4223119062
 30
0.0
 11
0.0029088041
 21
0.2886641433
 31
0.0
 40
0.8660144118
 41
-1.5591610446
 42
0.0087264124
  0
ELLIPSE
  5
67E
100
AcDbEntity
  8
RACCORDO
100
AcDbEllipse
 62
7
  6
CONTINUOUS
 10
-10.7571837283
 20
-23.4223119062
 30
0.0
 11
-0.0029088041
 21
0.2886641433
 31
0.0
 40
0.8660144118
 41
-0.0087264124
 42
1.5591610446
  0
ENDSEC
  0
SECTION
  2
OBJECTS
  0
DICTIONARY
  5
C
100
AcDbDictionary
280
0
281
1
  3
ACAD_GROUP
350
D
  3
ACAD_MLINESTYLE
350
17
  3
ACAD_LAYOUT
350
1A
  3
ACAD_PLOTSETTINGS
350
19
  3
ACAD_PLOTSTYLENAME
350
E
  0
DICTIONARY
  5
D
102
{ACAD_REACTORS
330
C
102
}
100
AcDbDictionary
280
0
281
1
  0
ACDBDICTIONARYWDFLT
  5
E
102
{ACAD_REACTORS
330
C
102
}
100
AcDbDictionary
281
1
  3
Normal
350
F
100
AcDbDictionaryWithDefault
340
F
  0
DICTIONARY
  5
17
102
{ACAD_REACTORS
330
C
102
}
100
AcDbDictionary
280
0
281
1
  3
Standard
350
18
  0
DICTIONARY
  5
19
102
{ACAD_REACTORS
330
C
102
}
100
AcDbDictionary
281
1
  0
DICTIONARY
  5
1A
102
{ACAD_REACTORS
330
C
102
}
100
AcDbDictionary
281
1
  3
Model
350
67F
  3
Layout1
350
680
  0
ACDBPLACEHOLDER
  5
F
102
{ACAD_REACTORS
330
E
102
}
  0
MLINESTYLE
  5
18
102
{ACAD_REACTORS
330
17
102
}
100
AcDbMlineStyle
  2
STANDARD
 70
0
  3

 62
256
 51
90.0
 52
90.0
 71
2
 49
0.5
 62
256
  6
BYLAYER
 49
-0.5
 62
256
  6
BYLAYER
  0
LAYOUT
  5
67F
102
{ACAD_REACTORS
330
1A
102
}
100
AcDbPlotSettings
  1

  2
none_device
  4
ISO_A4_(297.00_x_210.00_MM)
  6

 40
0.0
 41
0.0
 42
0.0
 43
0.0
 44
297.0
 45
210.0
 46
0.0
 47
0.0
 48
0.0
 49
0.0
140
0.0
141
0.0
142
1.0
143
1.0
 70
1024
 72
1
 73
0
 74
0
  7

 75
0
147
1.0
148
0.0
149
0.0
100
AcDbLayout
  1
Model
 70
0
 71
0
 10
0.0
 20
0.0
 11
297.0
 21
210.0
 12
0.0
 22
0.0
 32
0.0
 14
0.0
 24
0.0
 34
0.0
 15
0.0
 25
0.0
 35
0.0
146
0.0
 13
0.0
 23
0.0
 33
0.0
 16
1.0
 26
0.0
 36
0.0
 17
0.0
 27
1.0
 37
0.0
 76
0
330
212
345
0
346
0
  0
LAYOUT
  5
680
102
{ACAD_REACTORS
330
1A
102
}
100
AcDbPlotSettings
  1

  2
none_device
  4
ISO_A4_(297.00_x_210.00_MM)
  6

 40
0.0
 41
0.0
 42
0.0
 43
0.0
 44
297.0
 45
210.0
 46
0.0
 47
0.0
 48
0.0
 49
0.0
140
0.0
141
0.0
142
1.0
143
1.0
 70
0
 72
1
 73
0
 74
0
  7

 75
0
147
1.0
148
0.0
149
0.0
100
AcDbLayout
  1
Layout1
 70
0
 71
1
 10
0.0
 20
0.0
 11
297.0
 21
210.0
 12
0.0
 22
0.0
 32
0.0
 14
0.0
 24
0.0
 34
0.0
 15
0.0
 25
0.0
 35
0.0
146
0.0
 13
0.0
 23
0.0
 33
0.0
 16
1.0
 26
0.0
 36
0.0
 17
0.0
 27
1.0
 37
0.0
 76
0
330
213
345
0
346
0
  0
ENDSEC
  0
EOF
