  0
SECTION
  2
HEADER
  9
$ACADVER
  1
AC1015
  9
$DWGCODEPAGE
  3
ANSI_1252
  9
$EXTMAX
 10
297.0
 20
210.0
 30
0.0
  9
$EXTMIN
 10
0.0
 20
0.0
 30
0.0
  9
$LIMMIN
 10
0.0
 20
0.0
  9
$LIMMAX
 10
297.0
 20
210.0
  9
$VIEWCTR
 10
148.5
 20
105.0
  9
$VIEWSIZE
 40
210.0
  9
$CLAYER
  8
0
  9
$LTSCALE
 40
16.335
  9
$CELTYPE
  6
BYLAYER
  9
$DIMSCALE
 40
1.0
  9
$DIMASZ
 40
3.0
  9
$DIMEXO
 40
1.85625
  9
$DIMDLI
 40
11.286
  9
$DIMEXE
 40
5.346
  9
$DIMCEN
 40
2.673
  9
$DIMLFAC
 40
1.0
  9
$DIMBLK
  1
_FILLED
  9
$DIMTXT
 40
3.0
  9
$DIMTOL
 70
1
  9
$DIMLIM
 70
0
  9
$DIMTFAC
 40
1.0
  9
$DIMTP
 40
0.01
  9
$DIMTM
 40
0.01
  9
$PDMODE
 70
3
  9
$PDSIZE
 40
3.0
  9
$HANDSEED
  5
998
  9
$TILEMODE
 70
1
  9
$MEASUREMENT
 70
1
  9
$INSUNITS
 70
4
  0
ENDSEC
  0
SECTION
  2
CLASSES
  0
CLASS
  1
ACDBDICTIONARYWDFLT
  2
AcDbDictionaryWithDefault
  3
AutoCAD 2000
 90
0
280
0
281
0
  0
CLASS
  1
ACDBPLACEHOLDER
  2
AcDbPlaceHolder
  3
AutoCAD 2000
 90
0
280
0
281
0
  0
CLASS
  1
LAYOUT
  2
AcDbLayout
  3
AutoCAD 2000
 90
0
280
0
281
0
  0
ENDSEC
  0
SECTION
  2
TABLES
  0
TABLE
  2
VPORT
  5
8
100
AcDbSymbolTable
 70
2
  0
VPORT
  5
1F4
100
AcDbSymbolTableRecord
100
AcDbViewportTableRecord
  2
*ACTIVE
 70
0
 10
0.0
 20
0.0
 11
1.0
 21
1.0
 12
148.5
 22
105.0
 13
0.0
 23
0.0
 14
1.0
 24
1.0
 15
0.0
 25
0.0
 16
0.0
 26
0.0
 36
1.0
 17
0.0
 27
0.0
 37
0.0
 40
210.0
 41
1.4142857143
 42
50.0
 43
0.0
 44
0.0
 50
0.0
 51
0.0
 71
0
 72
100
 73
1
 74
1
 75
0
 76
0
 77
0
 78
0
  0
ENDTAB
  0
TABLE
  2
LTYPE
  5
5
100
AcDbSymbolTable
 70
6
  0
LTYPE
  5
14
100
AcDbSymbolTableRecord
100
AcDbLinetypeTableRecord
  2
BYBLOCK
 70
0
  3

 72
65
 73
0
 40
0.0
  0
LTYPE
  5
15
100
AcDbSymbolTableRecord
100
AcDbLinetypeTableRecord
  2
BYLAYER
 70
0
  3

 72
65
 73
0
 40
0.0
  0
LTYPE
  5
16
100
AcDbSymbolTableRecord
100
AcDbLinetypeTableRecord
  2
CONTINUOUS
 70
64
  3
Solid line
 72
65
 73
0
 40
0.0
  0
LTYPE
  5
1F5
100
AcDbSymbolTableRecord
100
AcDbLinetypeTableRecord
  2
CENTER
 70
64
  3
____ _ ____ _ ____ _ ____ _ ____ _ ____ _ ____
 72
65
 73
4
 40
0.6
 49
0.375
 74
0
 49
-0.075
 74
0
 49
0.075
 74
0
 49
-0.075
 74
0
  0
LTYPE
  5
1F6
100
AcDbSymbolTableRecord
100
AcDbLinetypeTableRecord
  2
HIDDEN
 70
64
  3
- - - - - - - - - - - - - - - - - - - -
 72
65
 73
2
 40
0.2
 49
0.1
 74
0
 49
-0.1
 74
0
  0
LTYPE
  5
1F7
100
AcDbSymbolTableRecord
100
AcDbLinetypeTableRecord
  2
PHANTOM
 70
64
  3
_____ _ _ _____ _ _ _____ _ _ _____
 72
65
 73
6
 40
0.8
 49
0.45
 74
0
 49
-0.05
 74
0
 49
0.1
 74
0
 49
-0.05
 74
0
 49
0.1
 74
0
 49
-0.05
 74
0
  0
LTYPE
  5
1F8
100
AcDbSymbolTableRecord
100
AcDbLinetypeTableRecord
  2
DOT
 70
64
  3
. . . . . . . . . . . . . . . . . . . .
 72
65
 73
2
 40
0.2
 49
0.1
 74
0
 49
-0.1
 74
0
  0
LTYPE
  5
1F9
100
AcDbSymbolTableRecord
100
AcDbLinetypeTableRecord
  2
DASHED
 70
64
  3
- - - - - - - - - - - - - - - - - - - -
 72
65
 73
2
 40
0.2
 49
0.1
 74
0
 49
-0.1
 74
0
  0
ENDTAB
  0
TABLE
  2
LAYER
  5
2
100
AcDbSymbolTable
 70
36
  0
LAYER
  5
10
100
AcDbSymbolTableRecord
100
AcDbLayerTableRecord
  2
0
 70
0
 62
7
  6
CONTINUOUS
370
-3
390
F
  0
LAYER
  5
1FA
100
AcDbSymbolTableRecord
100
AcDbLayerTableRecord
  2
DEFAULT_1
 70
0
 62
7
  6
CENTER
370
-3
390
F
  0
LAYER
  5
1FB
100
AcDbSymbolTableRecord
100
AcDbLayerTableRecord
  2
DEFAULT_2
 70
0
 62
7
  6
HIDDEN
370
-3
390
F
  0
LAYER
  5
1FC
100
AcDbSymbolTableRecord
100
AcDbLayerTableRecord
  2
DEFAULT_3
 70
0
 62
7
  6
PHANTOM
370
-3
390
F
  0
LAYER
  5
1FD
100
AcDbSymbolTableRecord
100
AcDbLayerTableRecord
  2
ASSI
 70
0
 62
7
  6
CONTINUOUS
370
-3
390
F
  0
LAYER
  5
1FE
100
AcDbSymbolTableRecord
100
AcDbLayerTableRecord
  2
COLOR15
 70
0
 62
7
  6
CONTINUOUS
370
-3
390
F
  0
LAYER
  5
1FF
100
AcDbSymbolTableRecord
100
AcDbLayerTableRecord
  2
COLORE_MATERIALE
 70
0
 62
7
  6
CONTINUOUS
370
-3
390
F
  0
LAYER
  5
200
100
AcDbSymbolTableRecord
100
AcDbLayerTableRecord
  2
COORDINATE
 70
0
 62
7
  6
CONTINUOUS
370
-3
390
F
  0
LAYER
  5
201
100
AcDbSymbolTableRecord
100
AcDbLayerTableRecord
  2
COORD_ORIGINE
 70
0
 62
7
  6
CONTINUOUS
370
-3
390
F
  0
LAYER
  5
202
100
AcDbSymbolTableRecord
100
AcDbLayerTableRecord
  2
COPY_PUBLISH
 70
0
 62
7
  6
CONTINUOUS
370
-3
390
F
  0
LAYER
  5
203
100
AcDbSymbolTableRecord
100
AcDbLayerTableRecord
  2
CORPO
 70
0
 62
7
  6
CONTINUOUS
370
-3
390
F
  0
LAYER
  5
204
100
AcDbSymbolTableRecord
100
AcDbLayerTableRecord
  2
COSMETIC
 70
0
 62
7
  6
CONTINUOUS
370
-3
390
F
  0
LAYER
  5
205
100
AcDbSymbolTableRecord
100
AcDbLayerTableRecord
  2
CURVE
 70
0
 62
7
  6
CONTINUOUS
370
-3
390
F
  0
LAYER
  5
206
100
AcDbSymbolTableRecord
100
AcDbLayerTableRecord
  2
DRAFT
 70
0
 62
7
  6
CONTINUOUS
370
-3
390
F
  0
LAYER
  5
207
100
AcDbSymbolTableRecord
100
AcDbLayerTableRecord
  2
FUSIBILE
 70
0
 62
7
  6
CONTINUOUS
370
-3
390
F
  0
LAYER
  5
208
100
AcDbSymbolTableRecord
100
AcDbLayerTableRecord
  2
IMPORT
 70
0
 62
7
  6
CONTINUOUS
370
-3
390
F
  0
LAYER
  5
209
100
AcDbSymbolTableRecord
100
AcDbLayerTableRecord
  2
IMPORT_IGES
 70
0
 62
7
  6
CONTINUOUS
370
-3
390
F
  0
LAYER
  5
20A
100
AcDbSymbolTableRecord
100
AcDbLayerTableRecord
  2
INTF_1
 70
0
 62
7
  6
CONTINUOUS
370
-3
390
F
  0
LAYER
  5
20B
100
AcDbSymbolTableRecord
100
AcDbLayerTableRecord
  2
INTF_CYAN
 70
0
 62
7
  6
CONTINUOUS
370
-3
390
F
  0
LAYER
  5
20C
100
AcDbSymbolTableRecord
100
AcDbLayerTableRecord
  2
INTF_GREEN
 70
0
 62
7
  6
CONTINUOUS
370
-3
390
F
  0
LAYER
  5
20D
100
AcDbSymbolTableRecord
100
AcDbLayerTableRecord
  2
INTF_YELLOW
 70
0
 62
7
  6
CONTINUOUS
370
-3
390
F
  0
LAYER
  5
20E
100
AcDbSymbolTableRecord
100
AcDbLayerTableRecord
  2
MAGNETOTERMICO
 70
0
 62
7
  6
CONTINUOUS
370
-3
390
F
  0
LAYER
  5
20F
100
AcDbSymbolTableRecord
100
AcDbLayerTableRecord
  2
MOLLA
 70
0
 62
7
  6
CONTINUOUS
370
-3
390
F
  0
LAYER
  5
210
100
AcDbSymbolTableRecord
100
AcDbLayerTableRecord
  2
NOTE
 70
0
 62
7
  6
CONTINUOUS
370
-3
390
F
  0
LAYER
  5
211
100
AcDbSymbolTableRecord
100
AcDbLayerTableRecord
  2
PIANI
 70
0
 62
7
  6
CONTINUOUS
370
-3
390
F
  0
LAYER
  5
212
100
AcDbSymbolTableRecord
100
AcDbLayerTableRecord
  2
PIANI_ORIGINE
 70
0
 62
7
  6
CONTINUOUS
370
-3
390
F
  0
LAYER
  5
213
100
AcDbSymbolTableRecord
100
AcDbLayerTableRecord
  2
PIANI_RIFERIMENTO
 70
0
 62
7
  6
CONTINUOUS
370
-3
390
F
  0
LAYER
  5
214
100
AcDbSymbolTableRecord
100
AcDbLayerTableRecord
  2
PORTATASTO
 70
0
 62
7
  6
CONTINUOUS
370
-3
390
F
  0
LAYER
  5
215
100
AcDbSymbolTableRecord
100
AcDbLayerTableRecord
  2
PUNTI
 70
0
 62
7
  6
CONTINUOUS
370
-3
390
F
  0
LAYER
  5
216
100
AcDbSymbolTableRecord
100
AcDbLayerTableRecord
  2
RACCORDO
 70
0
 62
7
  6
CONTINUOUS
370
-3
390
F
  0
LAYER
  5
217
100
AcDbSymbolTableRecord
100
AcDbLayerTableRecord
  2
RGB____0____0____0__
 70
0
 62
7
  6
CONTINUOUS
370
-3
390
F
  0
LAYER
  5
218
100
AcDbSymbolTableRecord
100
AcDbLayerTableRecord
  2
SKEL
 70
0
 62
7
  6
CONTINUOUS
370
-3
390
F
  0
LAYER
  5
219
100
AcDbSymbolTableRecord
100
AcDbLayerTableRecord
  2
SMUSSO
 70
0
 62
7
  6
CONTINUOUS
370
-3
390
F
  0
LAYER
  5
21A
100
AcDbSymbolTableRecord
100
AcDbLayerTableRecord
  2
SNAPLINE
 70
0
 62
7
  6
CONTINUOUS
370
-3
390
F
  0
LAYER
  5
21B
100
AcDbSymbolTableRecord
100
AcDbLayerTableRecord
  2
SUPERFICI
 70
0
 62
7
  6
CONTINUOUS
370
-3
390
F
  0
LAYER
  5
21C
100
AcDbSymbolTableRecord
100
AcDbLayerTableRecord
  2
TASTO
 70
0
 62
7
  6
CONTINUOUS
370
-3
390
F
  0
LAYER
  5
21D
100
AcDbSymbolTableRecord
100
AcDbLayerTableRecord
  2
TRASH
 70
0
 62
7
  6
CONTINUOUS
370
-3
390
F
  0
LAYER
  5
21E
100
AcDbSymbolTableRecord
100
AcDbLayerTableRecord
  2
XSEC_DATUMS
 70
0
 62
7
  6
CONTINUOUS
370
-3
390
F
  0
LAYER
  5
21F
100
AcDbSymbolTableRecord
100
AcDbLayerTableRecord
  2
___SHELL
 70
0
 62
7
  6
CONTINUOUS
370
-3
390
F
  0
ENDTAB
  0
TABLE
  2
STYLE
  5
3
100
AcDbSymbolTable
 70
1
  0
STYLE
  5
11
100
AcDbSymbolTableRecord
100
AcDbTextStyleTableRecord
  2
STANDARD
 70
0
 40
0.0
 41
0.8
 50
0.0
 71
0
 42
0.2
  3
txt
  4

  0
STYLE
  5
220
100
AcDbSymbolTableRecord
100
AcDbTextStyleTableRecord
  2
TEXTSTYLE_1
 70
0
 40
0.0
 41
0.8
 50
0.0
 71
0
 42
0.2
  3
gdt
  4

  0
ENDTAB
  0
TABLE
  2
VIEW
  5
6
100
AcDbSymbolTable
 70
0
  0
ENDTAB
  0
TABLE
  2
UCS
  5
7
100
AcDbSymbolTable
 70
0
  0
ENDTAB
  0
TABLE
  2
APPID
  5
9
100
AcDbSymbolTable
 70
1
  0
APPID
  5
221
100
AcDbSymbolTableRecord
100
AcDbRegAppTableRecord
  2
ACAD
 70
0
  0
ENDTAB
  0
TABLE
  2
BLOCK_RECORD
  5
1
100
AcDbSymbolTable
 70
0
  0
BLOCK_RECORD
  5
222
100
AcDbSymbolTableRecord
100
AcDbBlockTableRecord
  2
*Model_Space
  0
BLOCK_RECORD
  5
223
100
AcDbSymbolTableRecord
100
AcDbBlockTableRecord
  2
*Paper_Space
  0
ENDTAB
  0
TABLE
  2
DIMSTYLE
  5
A
100
AcDbSymbolTable
 70
1
100
AcDbDimStyleTable
 71
0
  0
DIMSTYLE
105
224
100
AcDbSymbolTableRecord
100
AcDbDimStyleTableRecord
  2
STANDARD
 70
0
  3

  4

 40
1.0
 41
3.0
 42
0.0625
 43
0.38
 44
0.18
 45
0.0
 46
0.0
 47
0.01
 48
0.01
140
3.0
141
0.09
142
0.0
143
25.4
144
1.0
145
0.0
146
1.0
147
0.09
 71
1.0
 72
0.0
 73
0
 74
0
 75
0
 76
0
 77
1
 78
8
170
0
171
2
172
0
173
0
174
0
175
0
176
0
177
0
178
0
270
2
271
2
272
2
273
2
274
2
275
0
280
0
281
0
282
0
283
1
284
8
285
0
286
0
287
3
288
0
340
11
  0
ENDTAB
  0
ENDSEC
  0
SECTION
  2
BLOCKS
  0
BLOCK
  5
20
100
AcDbEntity
  8
0
100
AcDbBlockBegin
  2
*Model_Space
 70
0
 10
0.0
 20
0.0
 30
0.0
  3
*Model_Space
  1

  0
ENDBLK
  5
21
100
AcDbEntity
  8
0
100
AcDbBlockEnd
  0
BLOCK
  5
1C
100
AcDbEntity
  8
0
100
AcDbBlockBegin
  2
*Paper_Space
 70
0
 10
0.0
 20
0.0
 30
0.0
  3
*Paper_Space
  1

  0
ENDBLK
  5
1D
100
AcDbEntity
  8
0
100
AcDbBlockEnd
  0
ENDSEC
  0
SECTION
  2
ENTITIES
  0
LINE
  5
225
100
AcDbEntity
  8
PORTATASTO
100
AcDbLine
 62
7
  6
CONTINUOUS
 10
-20.85
 20
20.1990396502
 11
-20.1498936624
 21
20.9
  0
LINE
  5
226
100
AcDbEntity
  8
PORTATASTO
100
AcDbLine
 62
7
  6
CONTINUOUS
 10
-20.8273084156
 20
20.1309095371
 11
-20.127202078
 21
20.8318698869
  0
LINE
  5
227
100
AcDbEntity
  8
PORTATASTO
100
AcDbLine
 62
7
  6
CONTINUOUS
 10
-18.5558178298
 20
22.3441821702
 11
-19.5
 21
21.4
  0
LINE
  5
228
100
AcDbEntity
  8
ASSI
100
AcDbLine
 62
7
  6
CONTINUOUS
 10
-20.05
 20
20.85
 11
-21.8143027805
 21
19.0856972195
  0
LINE
  5
229
100
AcDbEntity
  8
PORTATASTO
100
AcDbLine
 62
7
  6
CONTINUOUS
 10
-21.4
 20
19.5
 11
-22.3325462644
 21
18.5674537356
  0
LINE
  5
22A
100
AcDbEntity
  8
ASSI
100
AcDbLine
 62
7
  6
CONTINUOUS
 10
-21.4487448495
 20
19.3006754942
 11
-20.0058962398
 21
20.7435241039
  0
LINE
  5
22B
100
AcDbEntity
  8
ASSI
100
AcDbLine
 62
7
  6
CONTINUOUS
 10
-21.3554762419
 20
19.0755051566
 11
-21.25
 21
19.1809813985
  0
LINE
  5
22C
100
AcDbEntity
  8
ASSI
100
AcDbLine
 62
7
  6
CONTINUOUS
 10
-21.25
 20
19.1093943488
 11
-21.4320368586
 21
18.9273574902
  0
LINE
  5
22D
100
AcDbEntity
  8
PORTATASTO
100
AcDbLine
 62
7
  6
CONTINUOUS
 10
-22.3325462644
 20
-18.5674537356
 11
-21.4
 21
-19.5
  0
LINE
  5
22E
100
AcDbEntity
  8
ASSI
100
AcDbLine
 62
7
  6
CONTINUOUS
 10
-21.8143027805
 20
-19.0856972195
 11
-20.05
 21
-20.85
  0
LINE
  5
22F
100
AcDbEntity
  8
PORTATASTO
100
AcDbLine
 62
7
  6
CONTINUOUS
 10
-18.5558178298
 20
-22.3441821702
 11
-19.5
 21
-21.4
  0
LINE
  5
230
100
AcDbEntity
  8
ASSI
100
AcDbLine
 62
7
  6
CONTINUOUS
 10
-20.0058962398
 20
-20.7435241039
 11
-21.4487448495
 21
-19.3006754942
  0
LINE
  5
231
100
AcDbEntity
  8
PORTATASTO
100
AcDbLine
 62
7
  6
CONTINUOUS
 10
-20.85
 20
-20.1990396502
 11
-20.1498936624
 21
-20.9
  0
LINE
  5
232
100
AcDbEntity
  8
PORTATASTO
100
AcDbLine
 62
7
  6
CONTINUOUS
 10
-20.8273084156
 20
-20.1309095371
 11
-20.127202078
 21
-20.8318698869
  0
LINE
  5
233
100
AcDbEntity
  8
ASSI
100
AcDbLine
 62
7
  6
CONTINUOUS
 10
-18.7564758961
 20
20.7435241039
 11
-18.65
 21
20.85
  0
LINE
  5
234
100
AcDbEntity
  8
ASSI
100
AcDbLine
 62
7
  6
CONTINUOUS
 10
-18.6551466838
 20
19.6948533162
 11
-18.7564758961
 21
19.5935241039
  0
LINE
  5
235
100
AcDbEntity
  8
CURVE
100
AcDbLine
 62
7
  6
CONTINUOUS
 10
-22.3155441752
 20
15.7705593202
 11
-22.3040263841
 21
15.7820771114
  0
LINE
  5
236
100
AcDbEntity
  8
CURVE
100
AcDbLine
 62
7
  6
CONTINUOUS
 10
-22.3377433996
 20
15.3283386678
 11
-22.3046494771
 21
15.3614325903
  0
LINE
  5
237
100
AcDbEntity
  8
CURVE
100
AcDbLine
 62
7
  6
CONTINUOUS
 10
-22.3546306717
 20
14.8914299677
 11
-22.3280399313
 21
14.9180207081
  0
LINE
  5
238
100
AcDbEntity
  8
CURVE
100
AcDbLine
 62
7
  6
CONTINUOUS
 10
-22.3231612895
 20
14.9228993499
 11
-22.3147516799
 21
14.9313089595
  0
LINE
  5
239
100
AcDbEntity
  8
PORTATASTO
100
AcDbLine
 62
7
  6
CONTINUOUS
 10
-19.3165695018
 20
20.9917082642
 11
-19.5
 21
20.9
  0
LINE
  5
23A
100
AcDbEntity
  8
PORTATASTO
100
AcDbLine
 62
7
  6
CONTINUOUS
 10
-19.3165695018
 20
-20.9917082642
 11
-19.5
 21
-20.9
  0
LINE
  5
23B
100
AcDbEntity
  8
ASSI
100
AcDbLine
 62
253
  6
CONTINUOUS
 10
-21.2816186673
 20
-18.8650522354
 11
-21.2722036256
 21
-18.874467277
  0
LINE
  5
23C
100
AcDbEntity
  8
ASSI
100
AcDbLine
 62
7
  6
CONTINUOUS
 10
-18.7564758961
 20
-20.7435241039
 11
-18.65
 21
-20.85
  0
LINE
  5
23D
100
AcDbEntity
  8
ASSI
100
AcDbLine
 62
253
  6
CONTINUOUS
 10
-20.5746195819
 20
-18.15805315
 11
-20.5652045402
 21
-18.1674681916
  0
LINE
  5
23E
100
AcDbEntity
  8
ASSI
100
AcDbLine
 62
7
  6
CONTINUOUS
 10
-18.6551466838
 20
-19.6948533162
 11
-18.7564758961
 21
-19.5935241039
  0
LINE
  5
23F
100
AcDbEntity
  8
PORTATASTO
100
AcDbLine
 62
7
  6
CONTINUOUS
 10
-22.3849101299
 20
-18.1473460386
 11
-22.35
 21
-18.5
  0
LINE
  5
240
100
AcDbEntity
  8
PORTATASTO
100
AcDbLine
 62
7
  6
CONTINUOUS
 10
-22.35
 20
18.5
 11
-22.3849101299
 21
18.1473460386
  0
LINE
  5
241
100
AcDbEntity
  8
ASSI
100
AcDbLine
 62
7
  6
CONTINUOUS
 10
-20.15
 20
15.2870634407
 11
-20.25
 21
15.0870482079
  0
LINE
  5
242
100
AcDbEntity
  8
CURVE
100
AcDbLine
 62
7
  6
CONTINUOUS
 10
-22.3546306717
 20
14.4714085396
 11
-22.3389090322
 21
14.4871301791
  0
LINE
  5
243
100
AcDbEntity
  8
CURVE
100
AcDbLine
 62
7
  6
CONTINUOUS
 10
-22.3231612895
 20
14.5028779219
 11
-22.3147516799
 21
14.5112875314
  0
LINE
  5
244
100
AcDbEntity
  8
ASSI
100
AcDbLine
 62
7
  6
CONTINUOUS
 10
-20.1540044543
 20
16.3959955457
 11
-20.2630903017
 21
16.2869096983
  0
LINE
  5
245
100
AcDbEntity
  8
CURVE
100
AcDbLine
 62
7
  6
CONTINUOUS
 10
-22.3453530025
 20
14.0606647809
 11
-22.3147516799
 21
14.0912661034
  0
LINE
  5
246
100
AcDbEntity
  8
CURVE
100
AcDbLine
 62
7
  6
CONTINUOUS
 10
-22.3260136473
 20
13.659982708
 11
-22.3040263841
 21
13.6819699713
  0
LINE
  5
247
100
AcDbEntity
  8
CURVE
100
AcDbLine
 62
7
  6
CONTINUOUS
 10
-22.3066742922
 20
13.2593006351
 11
-22.3040263841
 21
13.2619485432
  0
LINE
  5
248
100
AcDbEntity
  8
CURVE
100
AcDbLine
 62
7
  6
CONTINUOUS
 10
-22.3546306717
 20
12.7913228275
 11
-22.3040263841
 21
12.8419271152
  0
LINE
  5
249
100
AcDbEntity
  8
CURVE
100
AcDbLine
 62
7
  6
CONTINUOUS
 10
-22.3546306717
 20
12.3713013995
 11
-22.3040263841
 21
12.4219056872
  0
LINE
  5
24A
100
AcDbEntity
  8
CURVE
100
AcDbLine
 62
7
  6
CONTINUOUS
 10
-22.327143592
 20
11.9787670512
 11
-22.3050051413
 21
12.000905502
  0
LINE
  5
24B
100
AcDbEntity
  8
ASSI
100
AcDbLine
 62
7
  6
CONTINUOUS
 10
-20.2630903017
 20
13.9869096983
 11
-20.25
 21
14.0
  0
LINE
  5
24C
100
AcDbEntity
  8
PORTATASTO
100
AcDbLine
 62
7
  6
CONTINUOUS
 10
-19.3165695018
 20
21.4537354271
 11
-19.5
 21
21.4
  0
LINE
  5
24D
100
AcDbEntity
  8
PORTATASTO
100
AcDbLine
 62
7
  6
CONTINUOUS
 10
-21.5750034269
 20
-24.5
 11
-19.7999965731
 21
-24.5
  0
LINE
  5
24E
100
AcDbEntity
  8
PORTATASTO
100
AcDbLine
 62
7
  6
CONTINUOUS
 10
21.5750034269
 20
-24.5
 11
19.7999965731
 21
-24.5
  0
LINE
  5
24F
100
AcDbEntity
  8
PORTATASTO
100
AcDbLine
 62
7
  6
CONTINUOUS
 10
0.9249965731
 20
-24.5
 11
2.7000034269
 21
-24.5
  0
LINE
  5
250
100
AcDbEntity
  8
PORTATASTO
100
AcDbLine
 62
7
  6
CONTINUOUS
 10
-0.9249965731
 20
-24.5
 11
-2.7000034269
 21
-24.5
  0
LINE
  5
251
100
AcDbEntity
  8
PORTATASTO
100
AcDbLine
 62
7
  6
CONTINUOUS
 10
-19.3165695018
 20
-21.4537354271
 11
-19.5
 21
-21.4
  0
LINE
  5
252
100
AcDbEntity
  8
CURVE
100
AcDbLine
 62
253
  6
CONTINUOUS
 10
-18.9455
 20
-15.3714285553
 11
-19.2467856963
 21
-15.1
  0
LINE
  5
253
100
AcDbEntity
  8
CURVE
100
AcDbLine
 62
253
  6
CONTINUOUS
 10
-22.3372057369
 20
-11.750162
 11
-22.3041660519
 21
-11.880779
  0
LINE
  5
254
100
AcDbEntity
  8
CURVE
100
AcDbLine
 62
253
  6
CONTINUOUS
 10
-22.3041660519
 20
-12.459827
 11
-22.354764267
 21
-12.198005
  0
LINE
  5
255
100
AcDbEntity
  8
CURVE
100
AcDbLine
 62
253
  6
CONTINUOUS
 10
-22.3408611626
 20
-8.233126
 11
-22.3220835233
 21
-8.5345
  0
LINE
  5
256
100
AcDbEntity
  8
CURVE
100
AcDbLine
 62
253
  6
CONTINUOUS
 10
-22.3199359478
 20
-14.790021
 11
-22.354764267
 21
-14.22041
  0
LINE
  5
257
100
AcDbEntity
  8
CURVE
100
AcDbLine
 62
253
  6
CONTINUOUS
 10
-22.3142672575
 20
-8.658312
 11
-22.3041660519
 21
-8.825329
  0
LINE
  5
258
100
AcDbEntity
  8
CURVE
100
AcDbLine
 62
253
  6
CONTINUOUS
 10
-22.3041660519
 20
-9.424033
 11
-22.354764267
 21
-8.514517
  0
LINE
  5
259
100
AcDbEntity
  8
CURVE
100
AcDbLine
 62
253
  6
CONTINUOUS
 10
-22.354764267
 20
-13.615552
 11
-22.3041660519
 21
-14.547617
  0
LINE
  5
25A
100
AcDbEntity
  8
CURVE
100
AcDbLine
 62
253
  6
CONTINUOUS
 10
-22.3231612895
 20
8.151456
 11
-22.3449607192
 21
8.581471
  0
LINE
  5
25B
100
AcDbEntity
  8
CURVE
100
AcDbLine
 62
253
  6
CONTINUOUS
 10
-22.3040263841
 20
7.773964
 11
-22.3147516799
 21
7.990812
  0
LINE
  5
25C
100
AcDbEntity
  8
CURVE
100
AcDbLine
 62
253
  6
CONTINUOUS
 10
-22.3546306717
 20
8.227849
 11
-22.3040263841
 21
7.179514
  0
LINE
  5
25D
100
AcDbEntity
  8
CURVE
100
AcDbLine
 62
253
  6
CONTINUOUS
 10
-22.3266719869
 20
-10.994355
 11
-22.354764267
 21
-10.389084
  0
LINE
  5
25E
100
AcDbEntity
  8
CURVE
100
AcDbLine
 62
253
  6
CONTINUOUS
 10
-22.3370680061
 20
-10.235548
 11
-22.3041660519
 21
-10.955216
  0
LINE
  5
25F
100
AcDbEntity
  8
CURVE
100
AcDbLine
 62
253
  6
CONTINUOUS
 10
-22.2673819125
 20
-14.01011
 11
-22.2446972397
 21
-14.580443
  0
LINE
  5
260
100
AcDbEntity
  8
CURVE
100
AcDbLine
 62
253
  6
CONTINUOUS
 10
-22.2673819125
 20
-5.860387
 11
-22.2446972397
 21
-6.430721
  0
LINE
  5
261
100
AcDbEntity
  8
CURVE
100
AcDbLine
 62
253
  6
CONTINUOUS
 10
-22.2673819125
 20
-14.754264
 11
-22.2446972397
 21
-15.377131
  0
LINE
  5
262
100
AcDbEntity
  8
CURVE
100
AcDbLine
 62
253
  6
CONTINUOUS
 10
-22.2534750738
 20
-3.656396
 11
-22.2673819125
 21
-3.180657
  0
LINE
  5
263
100
AcDbEntity
  8
CURVE
100
AcDbLine
 62
253
  6
CONTINUOUS
 10
-22.2047823682
 20
4.17619133
 11
-22.2080235292
 21
4.361905624
  0
LINE
  5
264
100
AcDbEntity
  8
CURVE
100
AcDbLine
 62
253
  6
CONTINUOUS
 10
-22.1853354008
 20
4.6404770553
 11
-22.1885765622
 21
4.82619133
  0
LINE
  5
265
100
AcDbEntity
  8
CURVE
100
AcDbLine
 62
253
  6
CONTINUOUS
 10
-22.2615599116
 20
10.2999992371
 11
-22.2710340745
 21
10.8428564042
  0
LINE
  5
266
100
AcDbEntity
  8
CURVE
100
AcDbLine
 62
253
  6
CONTINUOUS
 10
-22.2615599116
 20
12.8785705686
 11
-22.2710340745
 21
13.4214279056
  0
LINE
  5
267
100
AcDbEntity
  8
CURVE
100
AcDbLine
 62
253
  6
CONTINUOUS
 10
-22.1885765622
 20
10.8309532642
 11
-22.1853354008
 21
10.6452390671
  0
LINE
  5
268
100
AcDbEntity
  8
CURVE
100
AcDbLine
 62
253
  6
CONTINUOUS
 10
-22.2615599116
 20
15.4571419001
 11
-22.2710340745
 21
15.9999992371
  0
LINE
  5
269
100
AcDbEntity
  8
CURVE
100
AcDbLine
 62
253
  6
CONTINUOUS
 10
-22.1983000462
 20
16.0000003815
 11
-22.1950588845
 21
15.8142868042
  0
LINE
  5
26A
100
AcDbEntity
  8
ASSI
100
AcDbLine
 62
7
  6
CONTINUOUS
 10
-22.4
 20
17.6716990487
 11
-22.4
 21
-17.6716990487
  0
LINE
  5
26B
100
AcDbEntity
  8
PORTATASTO
100
AcDbLine
 62
7
  6
CONTINUOUS
 10
-22.3849101299
 20
18.1473460386
 11
-22.3849101299
 21
17.9151571592
  0
LINE
  5
26C
100
AcDbEntity
  8
PORTATASTO
100
AcDbLine
 62
7
  6
CONTINUOUS
 10
-22.3849101299
 20
-17.91515716
 11
-22.3849101299
 21
-18.1473460386
  0
LINE
  5
26D
100
AcDbEntity
  8
CURVE
100
AcDbLine
 62
253
  6
CONTINUOUS
 10
-22.3547673033
 20
-12.785664
 11
-22.3547673033
 21
-13.390935
  0
LINE
  5
26E
100
AcDbEntity
  8
CURVE
100
AcDbLine
 62
253
  6
CONTINUOUS
 10
-22.354764267
 20
-16.00026
 11
-22.354764267
 21
-15.342748
  0
LINE
  5
26F
100
AcDbEntity
  8
CURVE
100
AcDbLine
 62
253
  6
CONTINUOUS
 10
-22.354764267
 20
-14.22041
 11
-22.354764267
 21
-13.615552
  0
LINE
  5
270
100
AcDbEntity
  8
CURVE
100
AcDbLine
 62
253
  6
CONTINUOUS
 10
-22.354764267
 20
-12.198005
 11
-22.354764267
 21
-11.593234
  0
LINE
  5
271
100
AcDbEntity
  8
CURVE
100
AcDbLine
 62
253
  6
CONTINUOUS
 10
-22.354764267
 20
-10.389084
 11
-22.354764267
 21
-9.790227
  0
LINE
  5
272
100
AcDbEntity
  8
CURVE
100
AcDbLine
 62
253
  6
CONTINUOUS
 10
-22.354764267
 20
-8.514517
 11
-22.354764267
 21
-7.92899
  0
LINE
  5
273
100
AcDbEntity
  8
CURVE
100
AcDbLine
 62
253
  6
CONTINUOUS
 10
-22.3546306717
 20
14.991935
 11
-22.3546306717
 21
14.252884
  0
LINE
  5
274
100
AcDbEntity
  8
CURVE
100
AcDbLine
 62
253
  6
CONTINUOUS
 10
-22.3546306717
 20
8.9669
 11
-22.3546306717
 21
8.227849
  0
LINE
  5
275
100
AcDbEntity
  8
CURVE
100
AcDbLine
 62
253
  6
CONTINUOUS
 10
-22.3546306717
 20
3.58822
 11
-22.3546306717
 21
2.70079
  0
LINE
  5
276
100
AcDbEntity
  8
CURVE
100
AcDbLine
 62
253
  6
CONTINUOUS
 10
-22.3546306717
 20
5.171133
 11
-22.3546306717
 21
5.793739
  0
LINE
  5
277
100
AcDbEntity
  8
CURVE
100
AcDbLine
 62
253
  6
CONTINUOUS
 10
-22.3546306717
 20
10.292325
 11
-22.3546306717
 21
11.216139
  0
LINE
  5
278
100
AcDbEntity
  8
CURVE
100
AcDbLine
 62
253
  6
CONTINUOUS
 10
-22.3546306717
 20
12.328754
 11
-22.3546306717
 21
12.911198
  0
LINE
  5
279
100
AcDbEntity
  8
PORTATASTO
100
AcDbLine
 62
7
  6
CONTINUOUS
 10
-22.35
 20
21.850016923
 11
-22.35
 21
18.5
  0
LINE
  5
27A
100
AcDbEntity
  8
PORTATASTO
100
AcDbLine
 62
7
  6
CONTINUOUS
 10
-22.35
 20
-21.850016923
 11
-22.35
 21
-18.5
  0
LINE
  5
27B
100
AcDbEntity
  8
CURVE
100
AcDbLine
 62
253
  6
CONTINUOUS
 10
-22.3462210622
 20
3.323396
 11
-22.3462210622
 21
3.686612
  0
LINE
  5
27C
100
AcDbEntity
  8
PORTATASTO
100
AcDbLine
 62
7
  6
CONTINUOUS
 10
-22.3412731322
 20
21.8441990932
 11
-22.3412731322
 21
18.5587268678
  0
LINE
  5
27D
100
AcDbEntity
  8
PORTATASTO
100
AcDbLine
 62
7
  6
CONTINUOUS
 10
-22.3412731322
 20
-18.5587268678
 11
-22.3412731322
 21
-21.8441990932
  0
LINE
  5
27E
100
AcDbEntity
  8
PORTATASTO
100
AcDbLine
 62
7
  6
CONTINUOUS
 10
-22.3325462644
 20
18.5674537356
 11
-22.3325462644
 21
18.1865176248
  0
LINE
  5
27F
100
AcDbEntity
  8
PORTATASTO
100
AcDbLine
 62
7
  6
CONTINUOUS
 10
-22.3325462644
 20
-18.1865176261
 11
-22.3325462644
 21
-18.5674537356
  0
LINE
  5
280
100
AcDbEntity
  8
CURVE
100
AcDbLine
 62
253
  6
CONTINUOUS
 10
-22.3322541597
 20
-5.9328946758
 11
-22.3322541597
 21
-6.2788012718
  0
LINE
  5
281
100
AcDbEntity
  8
CURVE
100
AcDbLine
 62
253
  6
CONTINUOUS
 10
-22.3319232095
 20
3.323396
 11
-22.3319232095
 21
3.686612
  0
LINE
  5
282
100
AcDbEntity
  8
CURVE
100
AcDbLine
 62
253
  6
CONTINUOUS
 10
-22.3239673939
 20
-6.2587313832
 11
-22.3239673939
 21
-5.9341993273
  0
LINE
  5
283
100
AcDbEntity
  8
CURVE
100
AcDbLine
 62
253
  6
CONTINUOUS
 10
-22.3235135999
 20
3.58822
 11
-22.3235135999
 21
3.323396
  0
LINE
  5
284
100
AcDbEntity
  8
CURVE
100
AcDbLine
 62
253
  6
CONTINUOUS
 10
-22.3231612895
 20
15.007869
 11
-22.3231612895
 21
14.176491
  0
LINE
  5
285
100
AcDbEntity
  8
CURVE
100
AcDbLine
 62
253
  6
CONTINUOUS
 10
-22.3231612895
 20
8.982943
 11
-22.3231612895
 21
8.151456
  0
LINE
  5
286
100
AcDbEntity
  8
CURVE
100
AcDbLine
 62
253
  6
CONTINUOUS
 10
-22.3220835233
 20
-8.5345
 11
-22.3220835233
 21
-7.954996
  0
LINE
  5
287
100
AcDbEntity
  8
CURVE
100
AcDbLine
 62
253
  6
CONTINUOUS
 10
-22.3147516799
 20
7.990812
 11
-22.3147516799
 21
9.139549
  0
LINE
  5
288
100
AcDbEntity
  8
CURVE
100
AcDbLine
 62
253
  6
CONTINUOUS
 10
-22.3147516799
 20
14.015846
 11
-22.3147516799
 21
15.164584
  0
LINE
  5
289
100
AcDbEntity
  8
CURVE
100
AcDbLine
 62
253
  6
CONTINUOUS
 10
-22.3142672575
 20
-7.834033
 11
-22.3142672575
 21
-8.658312
  0
LINE
  5
28A
100
AcDbEntity
  8
CURVE
100
AcDbLine
 62
253
  6
CONTINUOUS
 10
-22.3124359936
 20
5.793739
 11
-22.3124359936
 21
6.866738
  0
LINE
  5
28B
100
AcDbEntity
  8
CURVE
100
AcDbLine
 62
253
  6
CONTINUOUS
 10
-22.3041660519
 20
-7.039304
 11
-22.3041660519
 21
-7.677235
  0
LINE
  5
28C
100
AcDbEntity
  8
CURVE
100
AcDbLine
 62
253
  6
CONTINUOUS
 10
-22.3041660519
 20
-8.825329
 11
-22.3041660519
 21
-9.424033
  0
LINE
  5
28D
100
AcDbEntity
  8
CURVE
100
AcDbLine
 62
253
  6
CONTINUOUS
 10
-22.3041660519
 20
-9.519077
 11
-22.3041660519
 21
-10.111193
  0
LINE
  5
28E
100
AcDbEntity
  8
CURVE
100
AcDbLine
 62
253
  6
CONTINUOUS
 10
-22.3041660519
 20
-10.955216
 11
-22.3041660519
 21
-11.040105
  0
LINE
  5
28F
100
AcDbEntity
  8
CURVE
100
AcDbLine
 62
253
  6
CONTINUOUS
 10
-22.3041660519
 20
-11.880779
 11
-22.3041660519
 21
-12.459827
  0
LINE
  5
290
100
AcDbEntity
  8
CURVE
100
AcDbLine
 62
253
  6
CONTINUOUS
 10
-22.3041660519
 20
-14.547617
 11
-22.3041660519
 21
-15.081013
  0
LINE
  5
291
100
AcDbEntity
  8
CURVE
100
AcDbLine
 62
253
  6
CONTINUOUS
 10
-22.3041660519
 20
-13.390935
 11
-22.3041660519
 21
-12.785664
  0
LINE
  5
292
100
AcDbEntity
  8
CURVE
100
AcDbLine
 62
253
  6
CONTINUOUS
 10
-22.3041660457
 20
-6.8615673444
 11
-22.3041660457
 21
-6.2587313832
  0
LINE
  5
293
100
AcDbEntity
  8
CURVE
100
AcDbLine
 62
253
  6
CONTINUOUS
 10
-22.3041660457
 20
-5.3318417383
 11
-22.3041660457
 21
-4.7496410148
  0
LINE
  5
294
100
AcDbEntity
  8
CURVE
100
AcDbLine
 62
253
  6
CONTINUOUS
 10
-22.3040263841
 20
12.911198
 11
-22.3040263841
 21
12.027546
  0
LINE
  5
295
100
AcDbEntity
  8
CURVE
100
AcDbLine
 62
253
  6
CONTINUOUS
 10
-22.3040263841
 20
10.87477
 11
-22.3040263841
 21
10.292325
  0
LINE
  5
296
100
AcDbEntity
  8
CURVE
100
AcDbLine
 62
253
  6
CONTINUOUS
 10
-22.3040263841
 20
6.866738
 11
-22.3040263841
 21
5.171133
  0
LINE
  5
297
100
AcDbEntity
  8
CURVE
100
AcDbLine
 62
253
  6
CONTINUOUS
 10
-22.3040263841
 20
2.70079
 11
-22.3040263841
 21
3.323396
  0
LINE
  5
298
100
AcDbEntity
  8
CURVE
100
AcDbLine
 62
253
  6
CONTINUOUS
 10
-22.3040263841
 20
7.179514
 11
-22.3040263841
 21
7.773964
  0
LINE
  5
299
100
AcDbEntity
  8
CURVE
100
AcDbLine
 62
253
  6
CONTINUOUS
 10
-22.3040263841
 20
9.348431
 11
-22.3040263841
 21
9.975074
  0
LINE
  5
29A
100
AcDbEntity
  8
CURVE
100
AcDbLine
 62
253
  6
CONTINUOUS
 10
-22.3040263841
 20
13.20444
 11
-22.3040263841
 21
13.798889
  0
LINE
  5
29B
100
AcDbEntity
  8
CURVE
100
AcDbLine
 62
253
  6
CONTINUOUS
 10
-22.3040263841
 20
15.373574
 11
-22.3040263841
 21
16.0
  0
LINE
  5
29C
100
AcDbEntity
  8
CURVE
100
AcDbLine
 62
253
  6
CONTINUOUS
 10
-22.2673819125
 20
-11.006258
 11
-22.2673819125
 21
-11.953245
  0
LINE
  5
29D
100
AcDbEntity
  8
CURVE
100
AcDbLine
 62
253
  6
CONTINUOUS
 10
-22.2673819125
 20
-12.839757
 11
-22.2673819125
 21
-13.269593
  0
LINE
  5
29E
100
AcDbEntity
  8
CURVE
100
AcDbLine
 62
253
  6
CONTINUOUS
 10
-22.2673819125
 20
-7.555145
 11
-22.2673819125
 21
-6.499553
  0
LINE
  5
29F
100
AcDbEntity
  8
CURVE
100
AcDbLine
 62
253
  6
CONTINUOUS
 10
-22.2560395761
 20
-11.953245
 11
-22.2560395761
 21
-11.072654
  0
LINE
  5
2A0
100
AcDbEntity
  8
CURVE
100
AcDbLine
 62
253
  6
CONTINUOUS
 10
-22.2529307464
 20
-6.223716
 11
-22.2529307464
 21
-5.497059
  0
LINE
  5
2A1
100
AcDbEntity
  8
CURVE
100
AcDbLine
 62
253
  6
CONTINUOUS
 10
-22.2528009028
 20
-14.376702
 11
-22.2528009028
 21
-13.643517
  0
LINE
  5
2A2
100
AcDbEntity
  8
CURVE
100
AcDbLine
 62
253
  6
CONTINUOUS
 10
-22.244980125
 20
14.9142850161
 11
-22.244980125
 21
13.9642850161
  0
LINE
  5
2A3
100
AcDbEntity
  8
CURVE
100
AcDbLine
 62
253
  6
CONTINUOUS
 10
-22.244980125
 20
12.3357134581
 11
-22.244980125
 21
11.3857135713
  0
LINE
  5
2A4
100
AcDbEntity
  8
CURVE
100
AcDbLine
 62
253
  6
CONTINUOUS
 10
-22.2446972397
 20
-13.269593
 11
-22.2446972397
 21
-12.839757
  0
LINE
  5
2A5
100
AcDbEntity
  8
CURVE
100
AcDbLine
 62
253
  6
CONTINUOUS
 10
-22.2446972397
 20
-11.953245
 11
-22.2446972397
 21
-10.993568
  0
LINE
  5
2A6
100
AcDbEntity
  8
CURVE
100
AcDbLine
 62
253
  6
CONTINUOUS
 10
-22.2446972397
 20
-5.041082
 11
-22.2446972397
 21
-4.294148
  0
LINE
  5
2A7
100
AcDbEntity
  8
CURVE
100
AcDbLine
 62
253
  6
CONTINUOUS
 10
-22.2080235292
 20
4.361905624
 11
-22.2080235292
 21
4.7333341926
  0
LINE
  5
2A8
100
AcDbEntity
  8
CURVE
100
AcDbLine
 62
253
  6
CONTINUOUS
 10
-22.2080235292
 20
8.2309532642
 11
-22.2080235292
 21
8.7880961657
  0
LINE
  5
2A9
100
AcDbEntity
  8
CURVE
100
AcDbLine
 62
253
  6
CONTINUOUS
 10
-22.2080235292
 20
10.1809532642
 11
-22.2080235292
 21
10.6452390671
  0
LINE
  5
2AA
100
AcDbEntity
  8
CURVE
100
AcDbLine
 62
253
  6
CONTINUOUS
 10
-22.2080235292
 20
14.4214293957
 11
-22.2080235292
 21
14.9785719872
  0
LINE
  5
2AB
100
AcDbEntity
  8
CURVE
100
AcDbLine
 62
253
  6
CONTINUOUS
 10
-22.2080235292
 20
15.3500003815
 11
-22.2080235292
 21
15.8142868042
  0
LINE
  5
2AC
100
AcDbEntity
  8
CURVE
100
AcDbLine
 62
253
  6
CONTINUOUS
 10
-22.1983000462
 20
14.7928584099
 11
-22.1983000462
 21
14.4214293957
  0
LINE
  5
2AD
100
AcDbEntity
  8
CURVE
100
AcDbLine
 62
253
  6
CONTINUOUS
 10
-22.1983000462
 20
8.6023816586
 11
-22.1983000462
 21
8.2309532642
  0
LINE
  5
2AE
100
AcDbEntity
  8
CURVE
100
AcDbLine
 62
253
  6
CONTINUOUS
 10
-22.1950588845
 20
15.8142868042
 11
-22.1950588845
 21
15.3500003815
  0
LINE
  5
2AF
100
AcDbEntity
  8
CURVE
100
AcDbLine
 62
253
  6
CONTINUOUS
 10
-22.1918177235
 20
6.1571437478
 11
-22.1918177235
 21
6.6523818135
  0
LINE
  5
2B0
100
AcDbEntity
  8
CURVE
100
AcDbLine
 62
253
  6
CONTINUOUS
 10
-22.1853354008
 20
10.6452390671
 11
-22.1853354008
 21
10.1809532642
  0
LINE
  5
2B1
100
AcDbEntity
  8
CURVE
100
AcDbLine
 62
253
  6
CONTINUOUS
 10
-22.1853354008
 20
4.269048477
 11
-22.1853354008
 21
4.6404770553
  0
LINE
  5
2B2
100
AcDbEntity
  8
CURVE
100
AcDbLine
 62
253
  6
CONTINUOUS
 10
-22.1853354008
 20
5.1976198792
 11
-22.1853354008
 21
5.6619056821
  0
LINE
  5
2B3
100
AcDbEntity
  8
CURVE
100
AcDbLine
 62
253
  6
CONTINUOUS
 10
-22.1853354008
 20
8.2309532642
 11
-22.1853354008
 21
8.7880961657
  0
LINE
  5
2B4
100
AcDbEntity
  8
CURVE
100
AcDbLine
 62
253
  6
CONTINUOUS
 10
-22.1853354008
 20
14.4214293957
 11
-22.1853354008
 21
14.9785719872
  0
LINE
  5
2B5
100
AcDbEntity
  8
ASSI
100
AcDbLine
 62
7
  6
CONTINUOUS
 10
-22.0177340781
 20
16.3706876291
 11
-22.0177340781
 21
17.5133593194
  0
LINE
  5
2B6
100
AcDbEntity
  8
ASSI
100
AcDbLine
 62
253
  6
CONTINUOUS
 10
-21.8673158868
 20
16.2954842613
 11
-21.8673158868
 21
-17.4510540646
  0
LINE
  5
2B7
100
AcDbEntity
  8
RACCORDO
100
AcDbLine
 62
7
  6
CONTINUOUS
 10
-21.8911908353
 20
17.1837542405
 11
-21.8913102225
 21
16.4000035048
  0
LINE
  5
2B8
100
AcDbEntity
  8
CURVE
100
AcDbLine
 62
253
  6
CONTINUOUS
 10
-22.1918177235
 20
4.82619133
 11
-22.2015412072
 21
4.17619133
  0
LINE
  5
2B9
100
AcDbEntity
  8
CURVE
100
AcDbLine
 62
253
  6
CONTINUOUS
 10
-22.2080235292
 20
15.8142868042
 11
-22.2047823682
 21
16.0000003815
  0
LINE
  5
2BA
100
AcDbEntity
  8
CURVE
100
AcDbLine
 62
253
  6
CONTINUOUS
 10
-22.2080235292
 20
10.6452390671
 11
-22.2047823682
 21
10.8309532642
  0
LINE
  5
2BB
100
AcDbEntity
  8
CURVE
100
AcDbLine
 62
253
  6
CONTINUOUS
 10
-22.2080235292
 20
4.7333341926
 11
-22.206402948
 21
4.82619133
  0
LINE
  5
2BC
100
AcDbEntity
  8
CURVE
100
AcDbLine
 62
253
  6
CONTINUOUS
 10
-22.1869559815
 20
4.17619133
 11
-22.1853354008
 21
4.269048477
  0
LINE
  5
2BD
100
AcDbEntity
  8
CURVE
100
AcDbLine
 62
253
  6
CONTINUOUS
 10
-22.2446972397
 20
-8.724819
 11
-22.2673819125
 21
-9.756944
  0
LINE
  5
2BE
100
AcDbEntity
  8
CURVE
100
AcDbLine
 62
253
  6
CONTINUOUS
 10
-22.1950588845
 20
15.6285719872
 11
-22.1853354008
 21
16.0000003815
  0
LINE
  5
2BF
100
AcDbEntity
  8
CURVE
100
AcDbLine
 62
253
  6
CONTINUOUS
 10
-22.2673819125
 20
-4.132134
 11
-22.2534750738
 21
-3.656396
  0
LINE
  5
2C0
100
AcDbEntity
  8
CURVE
100
AcDbLine
 62
253
  6
CONTINUOUS
 10
-22.2080235292
 20
13.3071435928
 11
-22.1950588845
 21
13.6785719872
  0
LINE
  5
2C1
100
AcDbEntity
  8
CURVE
100
AcDbLine
 62
253
  6
CONTINUOUS
 10
-22.2080235292
 20
12.19285779
 11
-22.1950588845
 21
12.5642868042
  0
LINE
  5
2C2
100
AcDbEntity
  8
CURVE
100
AcDbLine
 62
253
  6
CONTINUOUS
 10
-22.3546306717
 20
11.216139
 11
-22.3145291608
 21
12.328754
  0
LINE
  5
2C3
100
AcDbEntity
  8
CURVE
100
AcDbLine
 62
253
  6
CONTINUOUS
 10
-22.3040263841
 20
12.027546
 11
-22.3463787381
 21
10.87477
  0
LINE
  5
2C4
100
AcDbEntity
  8
CURVE
100
AcDbLine
 62
253
  6
CONTINUOUS
 10
-22.2446972397
 20
-5.290054
 11
-22.2673819125
 21
-5.860387
  0
LINE
  5
2C5
100
AcDbEntity
  8
CURVE
100
AcDbLine
 62
253
  6
CONTINUOUS
 10
-22.3040263841
 20
16.0
 11
-22.3546306717
 21
14.991935
  0
LINE
  5
2C6
100
AcDbEntity
  8
CURVE
100
AcDbLine
 62
253
  6
CONTINUOUS
 10
-22.3040263841
 20
9.975074
 11
-22.3546306717
 21
8.9669
  0
LINE
  5
2C7
100
AcDbEntity
  8
CURVE
100
AcDbLine
 62
253
  6
CONTINUOUS
 10
-22.3147516799
 20
15.164584
 11
-22.3040263841
 21
15.373574
  0
LINE
  5
2C8
100
AcDbEntity
  8
CURVE
100
AcDbLine
 62
253
  6
CONTINUOUS
 10
-22.3147516799
 20
9.139549
 11
-22.3040263841
 21
9.348431
  0
LINE
  5
2C9
100
AcDbEntity
  8
CURVE
100
AcDbLine
 62
253
  6
CONTINUOUS
 10
-22.3449578574
 20
14.606449
 11
-22.3231612895
 21
15.007869
  0
LINE
  5
2CA
100
AcDbEntity
  8
CURVE
100
AcDbLine
 62
253
  6
CONTINUOUS
 10
-22.3449607192
 20
8.581471
 11
-22.3231612895
 21
8.982943
  0
LINE
  5
2CB
100
AcDbEntity
  8
CURVE
100
AcDbLine
 62
253
  6
CONTINUOUS
 10
-22.354764267
 20
-7.92899
 11
-22.3041660519
 21
-7.039304
  0
LINE
  5
2CC
100
AcDbEntity
  8
CURVE
100
AcDbLine
 62
253
  6
CONTINUOUS
 10
-22.2080235292
 20
7.1476200342
 11
-22.1853354008
 21
7.5190484285
  0
LINE
  5
2CD
100
AcDbEntity
  8
CURVE
100
AcDbLine
 62
253
  6
CONTINUOUS
 10
-22.2080235292
 20
6.4047627807
 11
-22.1853354008
 21
6.77619133
  0
LINE
  5
2CE
100
AcDbEntity
  8
CURVE
100
AcDbLine
 62
7
  6
CONTINUOUS
 10
-22.342848284
 20
11.5430409312
 11
-22.3210250597
 21
11.5648641555
  0
LINE
  5
2CF
100
AcDbEntity
  8
CURVE
100
AcDbLine
 62
7
  6
CONTINUOUS
 10
-22.3546306717
 20
11.1112371154
 11
-22.3370449781
 21
11.1288228091
  0
LINE
  5
2D0
100
AcDbEntity
  8
CURVE
100
AcDbLine
 62
7
  6
CONTINUOUS
 10
-22.3546306717
 20
10.6912156874
 11
-22.3040263841
 21
10.7418199751
  0
LINE
  5
2D1
100
AcDbEntity
  8
CURVE
100
AcDbLine
 62
7
  6
CONTINUOUS
 10
-22.3334999311
 20
10.292325
 11
-22.3040263841
 21
10.3217985471
  0
LINE
  5
2D2
100
AcDbEntity
  8
CURVE
100
AcDbLine
 62
7
  6
CONTINUOUS
 10
-22.3078998738
 20
9.8979036293
 11
-22.3040263841
 21
9.901777119
  0
LINE
  5
2D3
100
AcDbEntity
  8
CURVE
100
AcDbLine
 62
7
  6
CONTINUOUS
 10
-22.3300965712
 20
9.4556855038
 11
-22.3040263841
 21
9.481755691
  0
LINE
  5
2D4
100
AcDbEntity
  8
CURVE
100
AcDbLine
 62
7
  6
CONTINUOUS
 10
-22.3522932687
 20
9.0134673784
 11
-22.3147516799
 21
9.0510089671
  0
LINE
  5
2D5
100
AcDbEntity
  8
CURVE
100
AcDbLine
 62
7
  6
CONTINUOUS
 10
-22.3546306717
 20
8.5911085473
 11
-22.3438521522
 21
8.6018870668
  0
LINE
  5
2D6
100
AcDbEntity
  8
CURVE
100
AcDbLine
 62
7
  6
CONTINUOUS
 10
-22.3231612895
 20
8.6225779295
 11
-22.3147516799
 21
8.6309875391
  0
LINE
  5
2D7
100
AcDbEntity
  8
PORTATASTO
100
AcDbLine
 62
7
  6
CONTINUOUS
 10
-21.825
 20
-23.8
 11
-19.55
 21
-23.8
  0
LINE
  5
2D8
100
AcDbEntity
  8
PORTATASTO
100
AcDbLine
 62
7
  6
CONTINUOUS
 10
21.825
 20
-23.8
 11
19.55
 21
-23.8
  0
LINE
  5
2D9
100
AcDbEntity
  8
PORTATASTO
100
AcDbLine
 62
7
  6
CONTINUOUS
 10
-15.65
 20
-23.8
 11
-6.85
 21
-23.8
  0
LINE
  5
2DA
100
AcDbEntity
  8
PORTATASTO
100
AcDbLine
 62
7
  6
CONTINUOUS
 10
0.675
 20
-23.8
 11
2.95
 21
-23.8
  0
LINE
  5
2DB
100
AcDbEntity
  8
PORTATASTO
100
AcDbLine
 62
7
  6
CONTINUOUS
 10
-0.675
 20
-23.8
 11
-2.95
 21
-23.8
  0
LINE
  5
2DC
100
AcDbEntity
  8
PORTATASTO
100
AcDbLine
 62
7
  6
CONTINUOUS
 10
6.85
 20
-23.8
 11
15.65
 21
-23.8
  0
LINE
  5
2DD
100
AcDbEntity
  8
PORTATASTO
100
AcDbLine
 62
7
  6
CONTINUOUS
 10
-15.6159383532
 20
-23.7659383532
 11
-14.7828648461
 21
-23.7659383532
  0
LINE
  5
2DE
100
AcDbEntity
  8
PORTATASTO
100
AcDbLine
 62
7
  6
CONTINUOUS
 10
-7.7171351539
 20
-23.7659383532
 11
-6.8840616468
 21
-23.7659383532
  0
LINE
  5
2DF
100
AcDbEntity
  8
PORTATASTO
100
AcDbLine
 62
7
  6
CONTINUOUS
 10
6.8840616468
 20
-23.7659383532
 11
7.7171351539
 21
-23.7659383532
  0
LINE
  5
2E0
100
AcDbEntity
  8
PORTATASTO
100
AcDbLine
 62
7
  6
CONTINUOUS
 10
14.7828648461
 20
-23.7659383532
 11
15.6159383532
 21
-23.7659383532
  0
LINE
  5
2E1
100
AcDbEntity
  8
PORTATASTO
100
AcDbLine
 62
7
  6
CONTINUOUS
 10
-21.8197639644
 20
-23.2226497308
 11
-19.5552360356
 21
-23.2226497308
  0
LINE
  5
2E2
100
AcDbEntity
  8
PORTATASTO
100
AcDbLine
 62
7
  6
CONTINUOUS
 10
21.8197639644
 20
-23.2226497308
 11
19.5552360356
 21
-23.2226497308
  0
LINE
  5
2E3
100
AcDbEntity
  8
PORTATASTO
100
AcDbLine
 62
7
  6
CONTINUOUS
 10
0.6802360356
 20
-23.2226497308
 11
2.9447639644
 21
-23.2226497308
  0
LINE
  5
2E4
100
AcDbEntity
  8
PORTATASTO
100
AcDbLine
 62
7
  6
CONTINUOUS
 10
-0.6802360356
 20
-23.2226497308
 11
-2.9447639644
 21
-23.2226497308
  0
LINE
  5
2E5
100
AcDbEntity
  8
ASSI
100
AcDbLine
 62
7
  6
CONTINUOUS
 10
-2.75
 20
-22.4
 11
2.75
 21
-22.4
  0
LINE
  5
2E6
100
AcDbEntity
  8
PORTATASTO
100
AcDbLine
 62
7
  6
CONTINUOUS
 10
-18.4905416262
 20
-22.35
 11
-15.6552360356
 21
-22.35
  0
LINE
  5
2E7
100
AcDbEntity
  8
PORTATASTO
100
AcDbLine
 62
7
  6
CONTINUOUS
 10
-6.8447639644
 20
-22.35
 11
-2.75
 21
-22.35
  0
LINE
  5
2E8
100
AcDbEntity
  8
PORTATASTO
100
AcDbLine
 62
7
  6
CONTINUOUS
 10
2.75
 20
-22.35
 11
6.8447639644
 21
-22.35
  0
LINE
  5
2E9
100
AcDbEntity
  8
PORTATASTO
100
AcDbLine
 62
7
  6
CONTINUOUS
 10
15.6552360356
 20
-22.35
 11
18.4905416262
 21
-22.35
  0
LINE
  5
2EA
100
AcDbEntity
  8
PORTATASTO
100
AcDbLine
 62
7
  6
CONTINUOUS
 10
-21.8412794783
 20
-22.3441821702
 11
-18.5558178298
 21
-22.3441821702
  0
LINE
  5
2EB
100
AcDbEntity
  8
PORTATASTO
100
AcDbLine
 62
7
  6
CONTINUOUS
 10
18.5558178298
 20
-22.3441821702
 11
21.8412794783
 21
-22.3441821702
  0
LINE
  5
2EC
100
AcDbEntity
  8
PORTATASTO
100
AcDbLine
 62
7
  6
CONTINUOUS
 10
3.9507059952
 20
-22.3383643404
 11
2.75
 21
-22.3383643404
  0
LINE
  5
2ED
100
AcDbEntity
  8
PORTATASTO
100
AcDbLine
 62
7
  6
CONTINUOUS
 10
-2.75
 20
-22.3383643404
 11
-3.9507059952
 21
-22.3383643404
  0
LINE
  5
2EE
100
AcDbEntity
  8
ASSI
100
AcDbLine
 62
7
  6
CONTINUOUS
 10
-2.6435241039
 20
-22.2935241039
 11
2.6435241039
 21
-22.2935241039
  0
LINE
  5
2EF
100
AcDbEntity
  8
PORTATASTO
100
AcDbLine
 62
7
  6
CONTINUOUS
 10
-18.4905416262
 20
-22.2859700255
 11
-14.2551136829
 21
-22.2859700255
  0
LINE
  5
2F0
100
AcDbEntity
  8
PORTATASTO
100
AcDbLine
 62
7
  6
CONTINUOUS
 10
-8.2448863171
 20
-22.2859700255
 11
-4.0094583738
 21
-22.2859700255
  0
LINE
  5
2F1
100
AcDbEntity
  8
PORTATASTO
100
AcDbLine
 62
7
  6
CONTINUOUS
 10
4.0094583738
 20
-22.2859700255
 11
8.2448863171
 21
-22.2859700255
  0
LINE
  5
2F2
100
AcDbEntity
  8
PORTATASTO
100
AcDbLine
 62
7
  6
CONTINUOUS
 10
14.2551136829
 20
-22.2859700255
 11
18.4905416262
 21
-22.2859700255
  0
LINE
  5
2F3
100
AcDbEntity
  8
CURVE
100
AcDbLine
 62
253
  6
CONTINUOUS
 10
-17.4390713927
 20
-16.1857142776
 11
-17.7403572147
 21
-15.9142856658
  0
LINE
  5
2F4
100
AcDbEntity
  8
CURVE
100
AcDbLine
 62
253
  6
CONTINUOUS
 10
-16.3845713927
 20
-17.0
 11
-16.6858572147
 21
-16.7285714164
  0
LINE
  5
2F5
100
AcDbEntity
  8
CURVE
100
AcDbLine
 62
253
  6
CONTINUOUS
 10
-16.2339286073
 20
-15.1
 11
-15.9326427853
 21
-15.3714285553
  0
LINE
  5
2F6
100
AcDbEntity
  8
CURVE
100
AcDbLine
 62
253
  6
CONTINUOUS
 10
-17.4892857382
 20
-15.3714285553
 11
-17.7403572147
 21
-15.1
  0
LINE
  5
2F7
100
AcDbEntity
  8
CURVE
100
AcDbLine
 62
253
  6
CONTINUOUS
 10
-16.6858572147
 20
-16.7285714164
 11
-16.8365
 21
-16.4571428329
  0
LINE
  5
2F8
100
AcDbEntity
  8
CURVE
100
AcDbLine
 62
253
  6
CONTINUOUS
 10
-22.244980125
 20
11.3857135713
 11
-22.2710340745
 21
11.7928563476
  0
LINE
  5
2F9
100
AcDbEntity
  8
CURVE
100
AcDbLine
 62
253
  6
CONTINUOUS
 10
-22.244980125
 20
13.9642850161
 11
-22.2710340745
 21
14.3714276791
  0
LINE
  5
2FA
100
AcDbEntity
  8
CURVE
100
AcDbLine
 62
253
  6
CONTINUOUS
 10
-22.1853354008
 20
6.0333342314
 11
-22.2080235292
 21
6.4047627807
  0
LINE
  5
2FB
100
AcDbEntity
  8
CURVE
100
AcDbLine
 62
253
  6
CONTINUOUS
 10
-22.1853354008
 20
7.5190484285
 11
-22.2080235292
 21
7.8904771328
  0
LINE
  5
2FC
100
AcDbEntity
  8
CURVE
100
AcDbLine
 62
253
  6
CONTINUOUS
 10
-22.3231612895
 20
14.176491
 11
-22.3449578574
 21
14.606449
  0
LINE
  5
2FD
100
AcDbEntity
  8
CURVE
100
AcDbLine
 62
253
  6
CONTINUOUS
 10
-22.3040263841
 20
13.798889
 11
-22.3147516799
 21
14.015846
  0
LINE
  5
2FE
100
AcDbEntity
  8
PORTATASTO
100
AcDbLine
 62
7
  6
CONTINUOUS
 10
-22.35
 20
18.5
 11
-22.3341651021
 21
18.1800547675
  0
LINE
  5
2FF
100
AcDbEntity
  8
CURVE
100
AcDbLine
 62
253
  6
CONTINUOUS
 10
-22.3546306717
 20
14.252884
 11
-22.3040263841
 21
13.20444
  0
LINE
  5
300
100
AcDbEntity
  8
CURVE
100
AcDbLine
 62
253
  6
CONTINUOUS
 10
-22.1950588845
 20
12.5642868042
 11
-22.2080235292
 21
12.9357151985
  0
LINE
  5
301
100
AcDbEntity
  8
CURVE
100
AcDbLine
 62
253
  6
CONTINUOUS
 10
-22.1950588845
 20
13.6785719872
 11
-22.2080235292
 21
14.0500010014
  0
LINE
  5
302
100
AcDbEntity
  8
PORTATASTO
100
AcDbLine
 62
7
  6
CONTINUOUS
 10
-21.825
 20
23.8
 11
-21.8197639644
 21
23.2226497308
  0
LINE
  5
303
100
AcDbEntity
  8
PORTATASTO
100
AcDbLine
 62
7
  6
CONTINUOUS
 10
-19.5552360356
 20
-23.2226497308
 11
-19.55
 21
-23.8
  0
LINE
  5
304
100
AcDbEntity
  8
RACCORDO
100
AcDbLine
 62
253
  6
CONTINUOUS
 10
-21.7747780715
 20
16.4
 11
-21.7748797418
 21
17.0674431307
  0
LINE
  5
305
100
AcDbEntity
  8
RACCORDO
100
AcDbLine
 62
253
  6
CONTINUOUS
 10
-20.7749290471
 20
16.4
 11
-20.7750320467
 21
17.0761696662
  0
LINE
  5
306
100
AcDbEntity
  8
PORTATASTO
100
AcDbLine
 62
7
  6
CONTINUOUS
 10
-21.825
 20
24.2500034269
 11
-21.825
 21
23.8
  0
LINE
  5
307
100
AcDbEntity
  8
PORTATASTO
100
AcDbLine
 62
7
  6
CONTINUOUS
 10
-21.825
 20
-23.8
 11
-21.825
 21
-24.2500034269
  0
LINE
  5
308
100
AcDbEntity
  8
PORTATASTO
100
AcDbLine
 62
7
  6
CONTINUOUS
 10
-21.8197639644
 20
23.2226497308
 11
-21.8197639644
 21
22.35
  0
LINE
  5
309
100
AcDbEntity
  8
PORTATASTO
100
AcDbLine
 62
7
  6
CONTINUOUS
 10
-21.8197639644
 20
-22.35
 11
-21.8197639644
 21
-23.2226497308
  0
LINE
  5
30A
100
AcDbEntity
  8
ASSI
100
AcDbLine
 62
7
  6
CONTINUOUS
 10
-21.25
 20
18.6488587057
 11
-21.25
 21
19.1809813985
  0
LINE
  5
30B
100
AcDbEntity
  8
ASSI
100
AcDbLine
 62
253
  6
CONTINUOUS
 10
-20.8674681916
 20
16.2869096983
 11
-20.8674681916
 21
-17.4510540646
  0
LINE
  5
30C
100
AcDbEntity
  8
PORTATASTO
100
AcDbLine
 62
7
  6
CONTINUOUS
 10
-20.85
 20
20.1990396502
 11
-20.85
 21
20.05
  0
LINE
  5
30D
100
AcDbEntity
  8
PORTATASTO
100
AcDbLine
 62
7
  6
CONTINUOUS
 10
-20.85
 20
-20.05
 11
-20.85
 21
-20.1990396502
  0
LINE
  5
30E
100
AcDbEntity
  8
PORTATASTO
100
AcDbLine
 62
7
  6
CONTINUOUS
 10
-20.8273084156
 20
-20.1309095371
 11
-20.8273084156
 21
-20.0726915844
  0
LINE
  5
30F
100
AcDbEntity
  8
PORTATASTO
100
AcDbLine
 62
7
  6
CONTINUOUS
 10
-20.8273084156
 20
20.0726915844
 11
-20.8273084156
 21
20.1309095371
  0
LINE
  5
310
100
AcDbEntity
  8
ASSI
100
AcDbLine
 62
253
  6
CONTINUOUS
 10
-20.5652045402
 20
-18.1674681916
 11
-20.5652045402
 21
-19.1673158868
  0
LINE
  5
311
100
AcDbEntity
  8
ASSI
100
AcDbLine
 62
7
  6
CONTINUOUS
 10
-20.2630903017
 20
16.2869096983
 11
-20.2630903017
 21
13.9869096983
  0
LINE
  5
312
100
AcDbEntity
  8
ASSI
100
AcDbLine
 62
7
  6
CONTINUOUS
 10
-20.25
 20
15.0870482079
 11
-20.25
 21
14.0
  0
LINE
  5
313
100
AcDbEntity
  8
ASSI
100
AcDbLine
 62
7
  6
CONTINUOUS
 10
-20.25
 20
16.3706876291
 11
-20.25
 21
16.4
  0
LINE
  5
314
100
AcDbEntity
  8
DRAFT
100
AcDbLine
 62
7
  6
CONTINUOUS
 10
-20.15
 20
14.1
 11
-20.15
 21
16.4
  0
LINE
  5
315
100
AcDbEntity
  8
RACCORDO
100
AcDbLine
 62
253
  6
CONTINUOUS
 10
-19.8911908759
 20
19.1831450453
 11
-19.8911908758
 21
19.1832211978
  0
LINE
  5
316
100
AcDbEntity
  8
RACCORDO
100
AcDbLine
 62
253
  6
CONTINUOUS
 10
-19.7753366795
 20
19.067290849
 11
-19.7753366795
 21
18.0761696894
  0
LINE
  5
317
100
AcDbEntity
  8
ASSI
100
AcDbLine
 62
7
  6
CONTINUOUS
 10
-19.7273502692
 20
-8.1108439182
 11
-19.7273502692
 21
-1.5891560818
  0
LINE
  5
318
100
AcDbEntity
  8
PORTATASTO
100
AcDbLine
 62
7
  6
CONTINUOUS
 10
-21.8197639644
 20
-23.2226497308
 11
-21.825
 21
-23.8
  0
LINE
  5
319
100
AcDbEntity
  8
PORTATASTO
100
AcDbLine
 62
7
  6
CONTINUOUS
 10
-19.55
 20
23.8
 11
-19.5552360356
 21
23.2226497308
  0
LINE
  5
31A
100
AcDbEntity
  8
CURVE
100
AcDbLine
 62
253
  6
CONTINUOUS
 10
-22.2446972397
 20
-15.377131
 11
-22.2673819125
 21
-16.0
  0
LINE
  5
31B
100
AcDbEntity
  8
CURVE
100
AcDbLine
 62
253
  6
CONTINUOUS
 10
-22.2446972397
 20
-13.439776
 11
-22.2673819125
 21
-14.01011
  0
LINE
  5
31C
100
AcDbEntity
  8
CURVE
100
AcDbLine
 62
253
  6
CONTINUOUS
 10
-22.3041660519
 20
-11.040105
 11
-22.3372057369
 21
-11.750162
  0
LINE
  5
31D
100
AcDbEntity
  8
CURVE
100
AcDbLine
 62
253
  6
CONTINUOUS
 10
-22.354764267
 20
-11.593234
 11
-22.3266719869
 21
-10.994355
  0
LINE
  5
31E
100
AcDbEntity
  8
PORTATASTO
100
AcDbLine
 62
7
  6
CONTINUOUS
 10
-22.3341651021
 20
-18.1800547684
 11
-22.35
 21
-18.5
  0
LINE
  5
31F
100
AcDbEntity
  8
CURVE
100
AcDbLine
 62
253
  6
CONTINUOUS
 10
-22.3041660519
 20
-15.081013
 11
-22.354764267
 21
-16.00026
  0
LINE
  5
320
100
AcDbEntity
  8
CURVE
100
AcDbLine
 62
253
  6
CONTINUOUS
 10
-22.354764267
 20
-15.342748
 11
-22.3199359478
 21
-14.790021
  0
LINE
  5
321
100
AcDbEntity
  8
CURVE
100
AcDbLine
 62
253
  6
CONTINUOUS
 10
-22.3041660519
 20
-7.677235
 11
-22.3142672575
 21
-7.834033
  0
LINE
  5
322
100
AcDbEntity
  8
CURVE
100
AcDbLine
 62
253
  6
CONTINUOUS
 10
-22.3220835233
 20
-7.954996
 11
-22.3408611626
 21
-8.233126
  0
LINE
  5
323
100
AcDbEntity
  8
CURVE
100
AcDbLine
 62
253
  6
CONTINUOUS
 10
-22.354764267
 20
-9.790227
 11
-22.3041660519
 21
-9.519077
  0
LINE
  5
324
100
AcDbEntity
  8
PORTATASTO
100
AcDbLine
 62
7
  6
CONTINUOUS
 10
-6.8844505243
 20
22.3059037278
 11
-6.8447639644
 21
22.35
  0
LINE
  5
325
100
AcDbEntity
  8
PORTATASTO
100
AcDbLine
 62
7
  6
CONTINUOUS
 10
-6.85
 20
23.8
 11
-6.8840616468
 21
23.7659383532
  0
LINE
  5
326
100
AcDbEntity
  8
CURVE
100
AcDbLine
 62
7
  6
CONTINUOUS
 10
-22.3520168835
 20
8.1737009075
 11
-22.325626819
 21
8.200090972
  0
LINE
  5
327
100
AcDbEntity
  8
CURVE
100
AcDbLine
 62
7
  6
CONTINUOUS
 10
-22.3231612895
 20
8.2025565015
 11
-22.3147516799
 21
8.2109661111
  0
LINE
  5
328
100
AcDbEntity
  8
CURVE
100
AcDbLine
 62
7
  6
CONTINUOUS
 10
-22.3326756102
 20
7.7730207528
 11
-22.3053321384
 21
7.8003642246
  0
LINE
  5
329
100
AcDbEntity
  8
CURVE
100
AcDbLine
 62
7
  6
CONTINUOUS
 10
-22.3133343368
 20
7.3723405981
 11
-22.3040263841
 21
7.3816485509
  0
LINE
  5
32A
100
AcDbEntity
  8
CURVE
100
AcDbLine
 62
7
  6
CONTINUOUS
 10
-22.3124359936
 20
6.5331960853
 11
-22.3040263841
 21
6.5416056948
  0
LINE
  5
32B
100
AcDbEntity
  8
CURVE
100
AcDbLine
 62
7
  6
CONTINUOUS
 10
-22.3124359936
 20
6.1131746572
 11
-22.3040263841
 21
6.1215842668
  0
LINE
  5
32C
100
AcDbEntity
  8
CURVE
100
AcDbLine
 62
7
  6
CONTINUOUS
 10
-22.3546306717
 20
5.6509585511
 11
-22.3040263841
 21
5.7015628388
  0
LINE
  5
32D
100
AcDbEntity
  8
PORTATASTO
100
AcDbLine
 62
7
  6
CONTINUOUS
 10
3.1834304982
 20
21.4537354271
 11
3.0174550649
 21
21.4051134101
  0
LINE
  5
32E
100
AcDbEntity
  8
PORTATASTO
100
AcDbLine
 62
7
  6
CONTINUOUS
 10
-14.25
 20
-21.7
 11
-8.25
 21
-21.7
  0
LINE
  5
32F
100
AcDbEntity
  8
PORTATASTO
100
AcDbLine
 62
7
  6
CONTINUOUS
 10
8.25
 20
-21.7
 11
14.25
 21
-21.7
  0
LINE
  5
330
100
AcDbEntity
  8
PORTATASTO
100
AcDbLine
 62
253
  6
CONTINUOUS
 10
-18.8166456542
 20
-21.2859869487
 11
-14.2463869628
 21
-21.2859869487
  0
LINE
  5
331
100
AcDbEntity
  8
PORTATASTO
100
AcDbLine
 62
253
  6
CONTINUOUS
 10
-8.2536130372
 20
-21.2859869487
 11
-3.6833543458
 21
-21.2859869487
  0
LINE
  5
332
100
AcDbEntity
  8
PORTATASTO
100
AcDbLine
 62
253
  6
CONTINUOUS
 10
3.6833543458
 20
-21.2859869487
 11
8.2536130372
 21
-21.2859869487
  0
LINE
  5
333
100
AcDbEntity
  8
PORTATASTO
100
AcDbLine
 62
253
  6
CONTINUOUS
 10
14.2463869628
 20
-21.2859869487
 11
18.8166456542
 21
-21.2859869487
  0
LINE
  5
334
100
AcDbEntity
  8
PORTATASTO
100
AcDbLine
 62
7
  6
CONTINUOUS
 10
-18.8166456542
 20
-20.9959955457
 11
-18.55
 21
-20.9959955457
  0
LINE
  5
335
100
AcDbEntity
  8
PORTATASTO
100
AcDbLine
 62
7
  6
CONTINUOUS
 10
18.8166456542
 20
-20.9959955457
 11
18.55
 21
-20.9959955457
  0
LINE
  5
336
100
AcDbEntity
  8
PORTATASTO
100
AcDbLine
 62
7
  6
CONTINUOUS
 10
3.6833543458
 20
-20.9959955457
 11
3.95
 21
-20.9959955457
  0
LINE
  5
337
100
AcDbEntity
  8
PORTATASTO
100
AcDbLine
 62
7
  6
CONTINUOUS
 10
-3.6833543458
 20
-20.9959955457
 11
-3.95
 21
-20.9959955457
  0
LINE
  5
338
100
AcDbEntity
  8
PORTATASTO
100
AcDbLine
 62
7
  6
CONTINUOUS
 10
-3.0174550649
 20
-20.9087268678
 11
-2.75
 21
-20.9087268678
  0
LINE
  5
339
100
AcDbEntity
  8
PORTATASTO
100
AcDbLine
 62
7
  6
CONTINUOUS
 10
2.75
 20
-20.9087268678
 11
3.0174550649
 21
-20.9087268678
  0
LINE
  5
33A
100
AcDbEntity
  8
PORTATASTO
100
AcDbLine
 62
7
  6
CONTINUOUS
 10
-20.1498936624
 20
-20.9
 11
-18.55
 21
-20.9
  0
LINE
  5
33B
100
AcDbEntity
  8
PORTATASTO
100
AcDbLine
 62
7
  6
CONTINUOUS
 10
-3.95
 20
-20.9
 11
-2.75
 21
-20.9
  0
LINE
  5
33C
100
AcDbEntity
  8
PORTATASTO
100
AcDbLine
 62
7
  6
CONTINUOUS
 10
2.75
 20
-20.9
 11
3.95
 21
-20.9
  0
LINE
  5
33D
100
AcDbEntity
  8
PORTATASTO
100
AcDbLine
 62
7
  6
CONTINUOUS
 10
18.55
 20
-20.9
 11
20.1498936624
 21
-20.9
  0
LINE
  5
33E
100
AcDbEntity
  8
ASSI
100
AcDbLine
 62
7
  6
CONTINUOUS
 10
-20.05
 20
-20.85
 11
-18.65
 21
-20.85
  0
LINE
  5
33F
100
AcDbEntity
  8
ASSI
100
AcDbLine
 62
7
  6
CONTINUOUS
 10
20.05
 20
-20.85
 11
18.65
 21
-20.85
  0
LINE
  5
340
100
AcDbEntity
  8
ASSI
100
AcDbLine
 62
7
  6
CONTINUOUS
 10
-3.85
 20
-20.85
 11
-2.75
 21
-20.85
  0
LINE
  5
341
100
AcDbEntity
  8
ASSI
100
AcDbLine
 62
7
  6
CONTINUOUS
 10
3.85
 20
-20.85
 11
2.75
 21
-20.85
  0
LINE
  5
342
100
AcDbEntity
  8
PORTATASTO
100
AcDbLine
 62
7
  6
CONTINUOUS
 10
-20.127202078
 20
-20.8318698869
 11
-20.0681301131
 21
-20.8318698869
  0
LINE
  5
343
100
AcDbEntity
  8
PORTATASTO
100
AcDbLine
 62
7
  6
CONTINUOUS
 10
-18.65
 20
-20.8318698869
 11
-18.55
 21
-20.8318698869
  0
LINE
  5
344
100
AcDbEntity
  8
PORTATASTO
100
AcDbLine
 62
7
  6
CONTINUOUS
 10
-3.95
 20
-20.8318698869
 11
-3.85
 21
-20.8318698869
  0
LINE
  5
345
100
AcDbEntity
  8
PORTATASTO
100
AcDbLine
 62
7
  6
CONTINUOUS
 10
3.85
 20
-20.8318698869
 11
3.95
 21
-20.8318698869
  0
LINE
  5
346
100
AcDbEntity
  8
PORTATASTO
100
AcDbLine
 62
7
  6
CONTINUOUS
 10
18.55
 20
-20.8318698869
 11
18.65
 21
-20.8318698869
  0
LINE
  5
347
100
AcDbEntity
  8
PORTATASTO
100
AcDbLine
 62
7
  6
CONTINUOUS
 10
20.0681301131
 20
-20.8318698869
 11
20.127202078
 21
-20.8318698869
  0
LINE
  5
348
100
AcDbEntity
  8
PORTATASTO
100
AcDbLine
 62
7
  6
CONTINUOUS
 10
-14.242145819
 20
-20.8
 11
-8.257854181
 21
-20.8
  0
LINE
  5
349
100
AcDbEntity
  8
PORTATASTO
100
AcDbLine
 62
7
  6
CONTINUOUS
 10
8.257854181
 20
-20.8
 11
14.242145819
 21
-20.8
  0
LINE
  5
34A
100
AcDbEntity
  8
ASSI
100
AcDbLine
 62
7
  6
CONTINUOUS
 10
-20.0058962398
 20
-20.7435241039
 11
-18.7564758961
 21
-20.7435241039
  0
LINE
  5
34B
100
AcDbEntity
  8
ASSI
100
AcDbLine
 62
7
  6
CONTINUOUS
 10
20.0058962398
 20
-20.7435241039
 11
18.7564758961
 21
-20.7435241039
  0
LINE
  5
34C
100
AcDbEntity
  8
ASSI
100
AcDbLine
 62
7
  6
CONTINUOUS
 10
-3.7435241039
 20
-20.7435241039
 11
-2.6435241039
 21
-20.7435241039
  0
LINE
  5
34D
100
AcDbEntity
  8
ASSI
100
AcDbLine
 62
7
  6
CONTINUOUS
 10
3.7435241039
 20
-20.7435241039
 11
2.6435241039
 21
-20.7435241039
  0
LINE
  5
34E
100
AcDbEntity
  8
PORTATASTO
100
AcDbLine
 62
7
  6
CONTINUOUS
 10
-17.75
 20
-20.0
 11
-4.75
 21
-20.0
  0
LINE
  5
34F
100
AcDbEntity
  8
PORTATASTO
100
AcDbLine
 62
7
  6
CONTINUOUS
 10
4.75
 20
-20.0
 11
17.75
 21
-20.0
  0
LINE
  5
350
100
AcDbEntity
  8
ASSI
100
AcDbLine
 62
7
  6
CONTINUOUS
 10
-17.0
 20
-19.9
 11
-14.6128839322
 21
-19.9
  0
LINE
  5
351
100
AcDbEntity
  8
ASSI
100
AcDbLine
 62
7
  6
CONTINUOUS
 10
-5.8871160678
 20
-19.9
 11
-5.5
 21
-19.9
  0
LINE
  5
352
100
AcDbEntity
  8
ASSI
100
AcDbLine
 62
7
  6
CONTINUOUS
 10
5.5
 20
-19.9
 11
17.0
 21
-19.9
  0
LINE
  5
353
100
AcDbEntity
  8
ASSI
100
AcDbLine
 62
7
  6
CONTINUOUS
 10
-5.9178915853
 20
-19.9
 11
-14.5220985655
 21
-19.9
  0
LINE
  5
354
100
AcDbEntity
  8
PORTATASTO
100
AcDbLine
 62
7
  6
CONTINUOUS
 10
-18.55
 20
-19.7
 11
-17.75
 21
-19.7
  0
LINE
  5
355
100
AcDbEntity
  8
PORTATASTO
100
AcDbLine
 62
7
  6
CONTINUOUS
 10
-4.75
 20
-19.7
 11
-3.95
 21
-19.7
  0
LINE
  5
356
100
AcDbEntity
  8
PORTATASTO
100
AcDbLine
 62
7
  6
CONTINUOUS
 10
3.95
 20
-19.7
 11
4.75
 21
-19.7
  0
LINE
  5
357
100
AcDbEntity
  8
PORTATASTO
100
AcDbLine
 62
7
  6
CONTINUOUS
 10
17.75
 20
-19.7
 11
18.55
 21
-19.7
  0
LINE
  5
358
100
AcDbEntity
  8
ASSI
100
AcDbLine
 62
7
  6
CONTINUOUS
 10
3.8448533162
 20
-19.6948533162
 11
3.95
 21
-19.6948533162
  0
LINE
  5
359
100
AcDbEntity
  8
ASSI
100
AcDbLine
 62
7
  6
CONTINUOUS
 10
-3.8448533162
 20
-19.6948533162
 11
-3.95
 21
-19.6948533162
  0
LINE
  5
35A
100
AcDbEntity
  8
ASSI
100
AcDbLine
 62
7
  6
CONTINUOUS
 10
4.75
 20
-19.6948533162
 11
5.5
 21
-19.6948533162
  0
LINE
  5
35B
100
AcDbEntity
  8
ASSI
100
AcDbLine
 62
7
  6
CONTINUOUS
 10
-4.75
 20
-19.6948533162
 11
-5.5
 21
-19.6948533162
  0
LINE
  5
35C
100
AcDbEntity
  8
ASSI
100
AcDbLine
 62
7
  6
CONTINUOUS
 10
17.0
 20
-19.6948533162
 11
17.75
 21
-19.6948533162
  0
LINE
  5
35D
100
AcDbEntity
  8
ASSI
100
AcDbLine
 62
7
  6
CONTINUOUS
 10
-17.0
 20
-19.6948533162
 11
-17.75
 21
-19.6948533162
  0
LINE
  5
35E
100
AcDbEntity
  8
ASSI
100
AcDbLine
 62
7
  6
CONTINUOUS
 10
18.55
 20
-19.6948533162
 11
18.6551466838
 21
-19.6948533162
  0
LINE
  5
35F
100
AcDbEntity
  8
ASSI
100
AcDbLine
 62
7
  6
CONTINUOUS
 10
-18.55
 20
-19.6948533162
 11
-18.6551466838
 21
-19.6948533162
  0
LINE
  5
360
100
AcDbEntity
  8
ASSI
100
AcDbLine
 62
7
  6
CONTINUOUS
 10
-15.5660838571
 20
-19.2510722822
 11
-15.4527966705
 21
-19.2540556208
  0
LINE
  5
361
100
AcDbEntity
  8
ASSI
100
AcDbLine
 62
7
  6
CONTINUOUS
 10
-15.4527966705
 20
-19.2540556208
 11
-15.3724758647
 21
-19.2565775741
  0
LINE
  5
362
100
AcDbEntity
  8
ASSI
100
AcDbLine
 62
7
  6
CONTINUOUS
 10
-6.0435117458
 20
-19.4621527749
 11
-6.0189763739
 21
-19.4629231475
  0
LINE
  5
363
100
AcDbEntity
  8
ASSI
100
AcDbLine
 62
7
  6
CONTINUOUS
 10
-6.0189763739
 20
-19.4629231475
 11
-6.0058578815
 21
-19.4634097139
  0
LINE
  5
364
100
AcDbEntity
  8
ASSI
100
AcDbLine
 62
7
  6
CONTINUOUS
 10
-15.3724758647
 20
-19.2565775741
 11
-15.3174726117
 21
-19.2585946765
  0
LINE
  5
365
100
AcDbEntity
  8
ASSI
100
AcDbLine
 62
7
  6
CONTINUOUS
 10
-10.3439511535
 20
-19.2575877218
 11
-10.2930320218
 21
-19.2595948718
  0
LINE
  5
366
100
AcDbEntity
  8
ASSI
100
AcDbLine
 62
7
  6
CONTINUOUS
 10
-15.3174726117
 20
-19.2585946765
 11
-15.2815761997
 21
-19.2600910011
  0
LWPOLYLINE
  5
367
100
AcDbEntity
  8
ASSI
100
AcDbPolyline
 62
7
  6
CONTINUOUS
 90
4
 70
0
 10
-6.0058578815
 20
-19.4634097139
 10
-5.9954959683
 20
-19.4638595561
 10
-5.991394922
 20
-19.4640638436
 10
-5.9880082194
 20
-19.4642498497
  0
LINE
  5
368
100
AcDbEntity
  8
ASSI
100
AcDbLine
 62
7
  6
CONTINUOUS
 10
-10.2930320218
 20
-19.2595948718
 11
-10.2601767659
 21
-19.2610728505
  0
LINE
  5
369
100
AcDbEntity
  8
ASSI
100
AcDbLine
 62
7
  6
CONTINUOUS
 10
-15.2815761997
 20
-19.2600910011
 11
-15.2502340022
 21
-19.2615573163
  0
LINE
  5
36A
100
AcDbEntity
  8
ASSI
100
AcDbLine
 62
7
  6
CONTINUOUS
 10
-15.2502340022
 20
-19.2615573163
 11
-15.2318417923
 21
-19.2625111355
  0
LINE
  5
36B
100
AcDbEntity
  8
ASSI
100
AcDbLine
 62
7
  6
CONTINUOUS
 10
-10.2601767659
 20
-19.2610728505
 11
-10.2318417923
 21
-19.2625111355
  0
LINE
  5
36C
100
AcDbEntity
  8
ASSI
100
AcDbLine
 62
7
  6
CONTINUOUS
 10
-15.2318417923
 20
-19.2625111355
 11
-15.2154340926
 21
-19.2634399957
  0
LINE
  5
36D
100
AcDbEntity
  8
ASSI
100
AcDbLine
 62
7
  6
CONTINUOUS
 10
-10.2318417923
 20
-19.2625111355
 11
-10.2154340926
 21
-19.2634399957
  0
LINE
  5
36E
100
AcDbEntity
  8
ASSI
100
AcDbLine
 62
7
  6
CONTINUOUS
 10
-15.2154340926
 20
-19.2634399957
 11
-15.2009948079
 21
-19.2643372629
  0
LINE
  5
36F
100
AcDbEntity
  8
ASSI
100
AcDbLine
 62
7
  6
CONTINUOUS
 10
-10.2154340926
 20
-19.2634399957
 11
-10.2009948079
 21
-19.2643372629
  0
LINE
  5
370
100
AcDbEntity
  8
ASSI
100
AcDbLine
 62
7
  6
CONTINUOUS
 10
-5.9880082194
 20
-19.4642498497
 11
-5.9833659873
 21
-19.4645475124
  0
LINE
  5
371
100
AcDbEntity
  8
ASSI
100
AcDbLine
 62
7
  6
CONTINUOUS
 10
-15.2009948079
 20
-19.2643372629
 11
-15.1885324413
 21
-19.265192835
  0
LINE
  5
372
100
AcDbEntity
  8
ASSI
100
AcDbLine
 62
7
  6
CONTINUOUS
 10
-10.2009948079
 20
-19.2643372629
 11
-10.1885324413
 21
-19.265192835
  0
LWPOLYLINE
  5
373
100
AcDbEntity
  8
ASSI
100
AcDbPolyline
 62
7
  6
CONTINUOUS
 90
8
 70
0
 10
-15.1885324413
 20
-19.265192835
 10
-15.1781183144
 20
-19.2659886992
 10
-15.1736775109
 20
-19.2663590657
 10
-15.1698215412
 20
-19.2667009213
 10
-15.1665127244
 20
-19.2670136805
 10
-15.1637774148
 20
-19.2672904777
 10
-15.161781352
 20
-19.2675074294
 10
-15.1612756907
 20
-19.267565251
  0
LWPOLYLINE
  5
374
100
AcDbEntity
  8
ASSI
100
AcDbPolyline
 62
7
  6
CONTINUOUS
 90
8
 70
0
 10
-10.1885324413
 20
-19.265192835
 10
-10.1781183144
 20
-19.2659886992
 10
-10.1736775109
 20
-19.2663590657
 10
-10.1698215412
 20
-19.2667009213
 10
-10.1665127244
 20
-19.2670136805
 10
-10.1637774148
 20
-19.2672904777
 10
-10.161781352
 20
-19.2675074294
 10
-10.1612756907
 20
-19.267565251
  0
LINE
  5
375
100
AcDbEntity
  8
PORTATASTO
100
AcDbLine
 62
7
  6
CONTINUOUS
 10
3.1834304982
 20
-21.4537354271
 11
3.0174550649
 21
-21.4051134101
  0
LINE
  5
376
100
AcDbEntity
  8
CURVE
100
AcDbLine
 62
253
  6
CONTINUOUS
 10
-13.0202142618
 20
-16.2761904627
 11
-12.6185
 21
-16.5476190463
  0
LINE
  5
377
100
AcDbEntity
  8
PORTATASTO
100
AcDbLine
 62
7
  6
CONTINUOUS
 10
-6.85
 20
-23.8
 11
-6.8840616468
 21
-23.7659383532
  0
LINE
  5
378
100
AcDbEntity
  8
PORTATASTO
100
AcDbLine
 62
7
  6
CONTINUOUS
 10
-6.8447639644
 20
-22.35
 11
-6.8844505243
 21
-22.3059037278
  0
LINE
  5
379
100
AcDbEntity
  8
CURVE
100
AcDbLine
 62
253
  6
CONTINUOUS
 10
-15.9326427853
 20
-15.3714285553
 11
-15.782
 21
-15.6428571105
  0
LINE
  5
37A
100
AcDbEntity
  8
PORTATASTO
100
AcDbLine
 62
7
  6
CONTINUOUS
 10
-19.5552360356
 20
23.2226497308
 11
-19.5552360356
 21
22.35
  0
LINE
  5
37B
100
AcDbEntity
  8
PORTATASTO
100
AcDbLine
 62
7
  6
CONTINUOUS
 10
-19.5552360356
 20
-22.35
 11
-19.5552360356
 21
-23.2226497308
  0
LINE
  5
37C
100
AcDbEntity
  8
PORTATASTO
100
AcDbLine
 62
7
  6
CONTINUOUS
 10
-19.55
 20
-24.2500034269
 11
-19.55
 21
-23.8
  0
LINE
  5
37D
100
AcDbEntity
  8
PORTATASTO
100
AcDbLine
 62
7
  6
CONTINUOUS
 10
-19.55
 20
23.8
 11
-19.55
 21
24.2500034269
  0
LINE
  5
37E
100
AcDbEntity
  8
PORTATASTO
100
AcDbLine
 62
7
  6
CONTINUOUS
 10
-19.5
 20
-21.4
 11
-19.5
 21
-20.9
  0
LINE
  5
37F
100
AcDbEntity
  8
PORTATASTO
100
AcDbLine
 62
7
  6
CONTINUOUS
 10
-19.5
 20
20.9
 11
-19.5
 21
21.4
  0
LINE
  5
380
100
AcDbEntity
  8
PORTATASTO
100
AcDbLine
 62
253
  6
CONTINUOUS
 10
-19.3165695018
 20
-21.4537354271
 11
-19.3165695018
 21
-20.9917082642
  0
LINE
  5
381
100
AcDbEntity
  8
PORTATASTO
100
AcDbLine
 62
253
  6
CONTINUOUS
 10
-19.3165695018
 20
20.9917082642
 11
-19.3165695018
 21
21.4537354271
  0
LINE
  5
382
100
AcDbEntity
  8
ASSI
100
AcDbLine
 62
7
  6
CONTINUOUS
 10
-19.15
 20
-7.5
 11
-19.15
 21
-2.2
  0
LINE
  5
383
100
AcDbEntity
  8
CURVE
100
AcDbLine
 62
253
  6
CONTINUOUS
 10
-18.9455
 20
-15.6428571105
 11
-18.9455
 21
-15.3714285553
  0
LINE
  5
384
100
AcDbEntity
  8
PORTATASTO
100
AcDbLine
 62
253
  6
CONTINUOUS
 10
-18.8552646223
 20
-7.75
 11
-18.8552646223
 21
-1.95
  0
LINE
  5
385
100
AcDbEntity
  8
PORTATASTO
100
AcDbLine
 62
253
  6
CONTINUOUS
 10
-18.8166456542
 20
-21.2859869487
 11
-18.8166456542
 21
-20.9959955457
  0
LINE
  5
386
100
AcDbEntity
  8
PORTATASTO
100
AcDbLine
 62
253
  6
CONTINUOUS
 10
-18.8166456542
 20
20.9959955457
 11
-18.8166456542
 21
21.2859869487
  0
LINE
  5
387
100
AcDbEntity
  8
PORTATASTO
100
AcDbLine
 62
7
  6
CONTINUOUS
 10
-18.8
 20
-7.75
 11
-18.8
 21
-1.95
  0
LINE
  5
388
100
AcDbEntity
  8
ASSI
100
AcDbLine
 62
7
  6
CONTINUOUS
 10
-18.7564758961
 20
-19.5935241039
 11
-18.7564758961
 21
-20.7435241039
  0
LINE
  5
389
100
AcDbEntity
  8
ASSI
100
AcDbLine
 62
7
  6
CONTINUOUS
 10
-18.7564758961
 20
19.5935241039
 11
-18.7564758961
 21
20.7435241039
  0
LINE
  5
38A
100
AcDbEntity
  8
ASSI
100
AcDbLine
 62
7
  6
CONTINUOUS
 10
-18.65
 20
20.85
 11
-18.65
 21
19.6948533162
  0
LINE
  5
38B
100
AcDbEntity
  8
ASSI
100
AcDbLine
 62
7
  6
CONTINUOUS
 10
-18.65
 20
-19.6948533162
 11
-18.65
 21
-20.85
  0
LINE
  5
38C
100
AcDbEntity
  8
PORTATASTO
100
AcDbLine
 62
7
  6
CONTINUOUS
 10
-18.55
 20
20.9959955457
 11
-18.55
 21
19.7
  0
LINE
  5
38D
100
AcDbEntity
  8
PORTATASTO
100
AcDbLine
 62
7
  6
CONTINUOUS
 10
-18.55
 20
-19.7
 11
-18.55
 21
-20.9959955457
  0
LINE
  5
38E
100
AcDbEntity
  8
CURVE
100
AcDbLine
 62
253
  6
CONTINUOUS
 10
-18.0
 20
10.7
 11
-18.0
 21
12.2
  0
LINE
  5
38F
100
AcDbEntity
  8
PORTATASTO
100
AcDbLine
 62
7
  6
CONTINUOUS
 10
-17.75
 20
20.0
 11
-17.75
 21
19.7
  0
LINE
  5
390
100
AcDbEntity
  8
PORTATASTO
100
AcDbLine
 62
7
  6
CONTINUOUS
 10
-17.75
 20
-19.7
 11
-17.75
 21
-20.0
  0
LINE
  5
391
100
AcDbEntity
  8
CURVE
100
AcDbLine
 62
253
  6
CONTINUOUS
 10
-17.4892857382
 20
-15.7785714447
 11
-17.4892857382
 21
-15.3714285553
  0
LINE
  5
392
100
AcDbEntity
  8
CURVE
100
AcDbLine
 62
253
  6
CONTINUOUS
 10
-17.4390713927
 20
-16.8642857082
 11
-17.4390713927
 21
-16.1857142776
  0
LINE
  5
393
100
AcDbEntity
  8
CURVE
100
AcDbLine
 62
253
  6
CONTINUOUS
 10
-22.3041660519
 20
-10.111193
 11
-22.3370680061
 21
-10.235548
  0
LINE
  5
394
100
AcDbEntity
  8
CURVE
100
AcDbLine
 62
7
  6
CONTINUOUS
 10
-22.3546306717
 20
5.2309371231
 11
-22.3040263841
 21
5.2815414108
  0
LINE
  5
395
100
AcDbEntity
  8
CURVE
100
AcDbLine
 62
7
  6
CONTINUOUS
 10
-22.351984289
 20
4.3935406498
 11
-22.3263980322
 21
4.4191269066
  0
LINE
  5
396
100
AcDbEntity
  8
CURVE
100
AcDbLine
 62
7
  6
CONTINUOUS
 10
-22.3541979978
 20
3.971305513
 11
-22.344948759
 21
3.9805547518
  0
LINE
  5
397
100
AcDbEntity
  8
CURVE
100
AcDbLine
 62
7
  6
CONTINUOUS
 10
-22.3333452483
 20
3.9921582624
 11
-22.324014538
 21
4.0014889727
  0
LINE
  5
398
100
AcDbEntity
  8
CURVE
100
AcDbLine
 62
7
  6
CONTINUOUS
 10
-22.3546306694
 20
3.5508514133
 11
-22.3462210613
 21
3.5592610214
  0
LINE
  5
399
100
AcDbEntity
  8
CURVE
100
AcDbLine
 62
7
  6
CONTINUOUS
 10
-22.3319232095
 20
3.5735588732
 11
-22.3235135999
 21
3.5819684828
  0
LINE
  5
39A
100
AcDbEntity
  8
CURVE
100
AcDbLine
 62
7
  6
CONTINUOUS
 10
-22.3546306705
 20
3.1308299842
 11
-22.3040263841
 21
3.1814342706
  0
LINE
  5
39B
100
AcDbEntity
  8
ASSI
100
AcDbLine
 62
253
  6
CONTINUOUS
 10
-5.887024678
 20
19.5254493507
 11
-5.9449005618
 21
19.4675734669
  0
LINE
  5
39C
100
AcDbEntity
  8
CURVE
100
AcDbLine
 62
7
  6
CONTINUOUS
 10
-22.3546306717
 20
2.710808555
 11
-22.3040263841
 21
2.7614128426
  0
LINE
  5
39D
100
AcDbEntity
  8
PORTATASTO
100
AcDbLine
 62
7
  6
CONTINUOUS
 10
-4.0094583738
 20
22.2859700255
 11
-3.9507059952
 21
22.3383643404
  0
LWPOLYLINE
  5
39E
100
AcDbEntity
  8
ASSI
100
AcDbPolyline
 62
7
  6
CONTINUOUS
 90
8
 70
0
 10
-9.8395330125
 20
-19.2676617674
 10
-9.8392056298
 20
-19.2676222473
 10
-9.8377247284
 20
-19.2674525479
 10
-9.8354709231
 20
-19.2672125586
 10
-9.8326310927
 20
-19.2669307171
 10
-9.82923298
 20
-19.2666149659
 10
-9.8252346336
 20
-19.2662660585
 10
-9.8207178571
 20
-19.2658948997
  0
LINE
  5
39F
100
AcDbEntity
  8
ASSI
100
AcDbLine
 62
7
  6
CONTINUOUS
 10
-9.8207178571
 20
-19.2658948997
 11
-9.8101279011
 21
-19.2650962639
  0
LINE
  5
3A0
100
AcDbEntity
  8
ASSI
100
AcDbLine
 62
7
  6
CONTINUOUS
 10
-14.8207178571
 20
-19.2658948997
 11
-14.8101279011
 21
-19.2650962639
  0
LINE
  5
3A1
100
AcDbEntity
  8
ASSI
100
AcDbLine
 62
7
  6
CONTINUOUS
 10
-19.8207178571
 20
-19.2658948997
 11
-19.8101279011
 21
-19.2650962639
  0
LINE
  5
3A2
100
AcDbEntity
  8
ASSI
100
AcDbLine
 62
7
  6
CONTINUOUS
 10
-9.8101279011
 20
-19.2650962639
 11
-9.7975290409
 21
-19.2642413871
  0
LINE
  5
3A3
100
AcDbEntity
  8
ASSI
100
AcDbLine
 62
7
  6
CONTINUOUS
 10
-14.8101279011
 20
-19.2650962639
 11
-14.7975290409
 21
-19.2642413871
  0
LINE
  5
3A4
100
AcDbEntity
  8
ASSI
100
AcDbLine
 62
7
  6
CONTINUOUS
 10
-19.8101279011
 20
-19.2650962639
 11
-19.7975290409
 21
-19.2642413871
  0
LINE
  5
3A5
100
AcDbEntity
  8
ASSI
100
AcDbLine
 62
7
  6
CONTINUOUS
 10
-14.5173362276
 20
-19.4646016185
 11
-14.5121073671
 21
-19.4642569156
  0
LINE
  5
3A6
100
AcDbEntity
  8
ASSI
100
AcDbLine
 62
7
  6
CONTINUOUS
 10
-9.7975290409
 20
-19.2642413871
 11
-9.7829421389
 21
-19.2633443284
  0
LINE
  5
3A7
100
AcDbEntity
  8
ASSI
100
AcDbLine
 62
7
  6
CONTINUOUS
 10
-14.7975290409
 20
-19.2642413871
 11
-14.7829421389
 21
-19.2633443284
  0
LINE
  5
3A8
100
AcDbEntity
  8
ASSI
100
AcDbLine
 62
7
  6
CONTINUOUS
 10
-19.7975290409
 20
-19.2642413871
 11
-19.7829421389
 21
-19.2633443284
  0
LINE
  5
3A9
100
AcDbEntity
  8
ASSI
100
AcDbLine
 62
7
  6
CONTINUOUS
 10
-14.5121073671
 20
-19.4642569156
 11
-14.5092471569
 21
-19.4640973386
  0
LINE
  5
3AA
100
AcDbEntity
  8
ASSI
100
AcDbLine
 62
7
  6
CONTINUOUS
 10
-9.7829421389
 20
-19.2633443284
 11
-9.7664003149
 21
-19.2624165415
  0
LINE
  5
3AB
100
AcDbEntity
  8
ASSI
100
AcDbLine
 62
7
  6
CONTINUOUS
 10
-14.7829421389
 20
-19.2633443284
 11
-14.7664003149
 21
-19.2624165415
  0
LINE
  5
3AC
100
AcDbEntity
  8
ASSI
100
AcDbLine
 62
7
  6
CONTINUOUS
 10
-19.7829421389
 20
-19.2633443284
 11
-19.7664003149
 21
-19.2624165415
  0
LINE
  5
3AD
100
AcDbEntity
  8
ASSI
100
AcDbLine
 62
7
  6
CONTINUOUS
 10
-9.7664003149
 20
-19.2624165415
 11
-9.7378976099
 21
-19.2609811216
  0
LINE
  5
3AE
100
AcDbEntity
  8
ASSI
100
AcDbLine
 62
7
  6
CONTINUOUS
 10
-14.7664003149
 20
-19.2624165415
 11
-14.7378976099
 21
-19.2609811216
  0
LINE
  5
3AF
100
AcDbEntity
  8
ASSI
100
AcDbLine
 62
7
  6
CONTINUOUS
 10
-19.7664003149
 20
-19.2624165415
 11
-19.7378976099
 21
-19.2609811216
  0
LINE
  5
3B0
100
AcDbEntity
  8
ASSI
100
AcDbLine
 62
7
  6
CONTINUOUS
 10
-14.5092471569
 20
-19.4640973386
 11
-14.5012178362
 21
-19.4637075848
  0
LINE
  5
3B1
100
AcDbEntity
  8
ASSI
100
AcDbLine
 62
7
  6
CONTINUOUS
 10
-9.7378976099
 20
-19.2609811216
 11
-9.7048802215
 21
-19.2595058186
  0
LINE
  5
3B2
100
AcDbEntity
  8
ASSI
100
AcDbLine
 62
7
  6
CONTINUOUS
 10
-14.7378976099
 20
-19.2609811216
 11
-14.7048802215
 21
-19.2595058186
  0
LINE
  5
3B3
100
AcDbEntity
  8
ASSI
100
AcDbLine
 62
7
  6
CONTINUOUS
 10
-19.7378976099
 20
-19.2609811216
 11
-19.7048802215
 21
-19.2595058186
  0
LINE
  5
3B4
100
AcDbEntity
  8
ASSI
100
AcDbLine
 62
7
  6
CONTINUOUS
 10
-14.5012178362
 20
-19.4637075848
 11
-14.4907960931
 21
-19.4632782105
  0
LINE
  5
3B5
100
AcDbEntity
  8
ASSI
100
AcDbLine
 62
7
  6
CONTINUOUS
 10
-9.7048802215
 20
-19.2595058186
 11
-9.6535305083
 21
-19.2574954423
  0
LINE
  5
3B6
100
AcDbEntity
  8
ASSI
100
AcDbLine
 62
7
  6
CONTINUOUS
 10
-14.7048802215
 20
-19.2595058186
 11
-14.6535305083
 21
-19.2574954423
  0
LINE
  5
3B7
100
AcDbEntity
  8
ASSI
100
AcDbLine
 62
7
  6
CONTINUOUS
 10
-19.7048802215
 20
-19.2595058186
 11
-19.6535305083
 21
-19.2574954423
  0
LINE
  5
3B8
100
AcDbEntity
  8
ASSI
100
AcDbLine
 62
7
  6
CONTINUOUS
 10
-14.4907960931
 20
-19.4632782105
 11
-14.4710540483
 21
-19.4625915551
  0
LINE
  5
3B9
100
AcDbEntity
  8
ASSI
100
AcDbLine
 62
7
  6
CONTINUOUS
 10
-9.6535305083
 20
-19.2574954423
 11
-9.593281039
 21
-19.2554511208
  0
LINE
  5
3BA
100
AcDbEntity
  8
ASSI
100
AcDbLine
 62
7
  6
CONTINUOUS
 10
-14.6535305083
 20
-19.2574954423
 11
-14.593281039
 21
-19.2554511208
  0
LINE
  5
3BB
100
AcDbEntity
  8
ASSI
100
AcDbLine
 62
7
  6
CONTINUOUS
 10
-19.6535305083
 20
-19.2574954423
 11
-19.593281039
 21
-19.2554511208
  0
LINE
  5
3BC
100
AcDbEntity
  8
ASSI
100
AcDbLine
 62
7
  6
CONTINUOUS
 10
-14.4710540483
 20
-19.4625915551
 11
-14.44691987
 21
-19.4618916173
  0
LINE
  5
3BD
100
AcDbEntity
  8
ASSI
100
AcDbLine
 62
7
  6
CONTINUOUS
 10
-9.593281039
 20
-19.2554511208
 11
-9.5044079375
 21
-19.2528624325
  0
LINE
  5
3BE
100
AcDbEntity
  8
ASSI
100
AcDbLine
 62
7
  6
CONTINUOUS
 10
-14.593281039
 20
-19.2554511208
 11
-14.5044079375
 21
-19.2528624325
  0
LINE
  5
3BF
100
AcDbEntity
  8
ASSI
100
AcDbLine
 62
7
  6
CONTINUOUS
 10
-19.593281039
 20
-19.2554511208
 11
-19.5044079375
 21
-19.2528624325
  0
LINE
  5
3C0
100
AcDbEntity
  8
ASSI
100
AcDbLine
 62
7
  6
CONTINUOUS
 10
-14.44691987
 20
-19.4618916173
 11
-14.4184960513
 21
-19.461212534
  0
LINE
  5
3C1
100
AcDbEntity
  8
ASSI
100
AcDbLine
 62
7
  6
CONTINUOUS
 10
-9.5044079375
 20
-19.2528624325
 11
-9.3761854506
 21
-19.2497427722
  0
LINE
  5
3C2
100
AcDbEntity
  8
ASSI
100
AcDbLine
 62
7
  6
CONTINUOUS
 10
-14.5044079375
 20
-19.2528624325
 11
-14.3761854506
 21
-19.2497427722
  0
LINE
  5
3C3
100
AcDbEntity
  8
ASSI
100
AcDbLine
 62
7
  6
CONTINUOUS
 10
-19.5044079375
 20
-19.2528624325
 11
-19.3761854506
 21
-19.2497427722
  0
LINE
  5
3C4
100
AcDbEntity
  8
ASSI
100
AcDbLine
 62
7
  6
CONTINUOUS
 10
-9.3761854506
 20
-19.2497427722
 11
-9.1943171472
 21
-19.2461713427
  0
LINE
  5
3C5
100
AcDbEntity
  8
ASSI
100
AcDbLine
 62
7
  6
CONTINUOUS
 10
-14.3761854506
 20
-19.2497427722
 11
-14.1943171472
 21
-19.2461713427
  0
LINE
  5
3C6
100
AcDbEntity
  8
ASSI
100
AcDbLine
 62
7
  6
CONTINUOUS
 10
-19.3761854506
 20
-19.2497427722
 11
-19.1943171472
 21
-19.2461713427
  0
LINE
  5
3C7
100
AcDbEntity
  8
ASSI
100
AcDbLine
 62
7
  6
CONTINUOUS
 10
-14.4184960513
 20
-19.461212534
 11
-14.3615520073
 21
-19.4601309554
  0
LINE
  5
3C8
100
AcDbEntity
  8
ASSI
100
AcDbLine
 62
7
  6
CONTINUOUS
 10
-9.1943171472
 20
-19.2461713427
 11
-8.9761580896
 21
-19.2427917817
  0
LINE
  5
3C9
100
AcDbEntity
  8
ASSI
100
AcDbLine
 62
7
  6
CONTINUOUS
 10
-14.1943171472
 20
-19.2461713427
 11
-13.9761580896
 21
-19.2427917817
  0
LINE
  5
3CA
100
AcDbEntity
  8
ASSI
100
AcDbLine
 62
7
  6
CONTINUOUS
 10
-19.1943171472
 20
-19.2461713427
 11
-18.9761580896
 21
-19.2427917817
  0
LINE
  5
3CB
100
AcDbEntity
  8
ASSI
100
AcDbLine
 62
7
  6
CONTINUOUS
 10
-14.3615520073
 20
-19.4601309554
 11
-14.2935704697
 21
-19.4591723833
  0
LINE
  5
3CC
100
AcDbEntity
  8
ASSI
100
AcDbLine
 62
7
  6
CONTINUOUS
 10
-8.9761580896
 20
-19.2427917817
 11
-8.7243723424
 21
-19.2397795483
  0
LINE
  5
3CD
100
AcDbEntity
  8
ASSI
100
AcDbLine
 62
7
  6
CONTINUOUS
 10
-13.9761580896
 20
-19.2427917817
 11
-13.7243723424
 21
-19.2397795483
  0
LINE
  5
3CE
100
AcDbEntity
  8
ASSI
100
AcDbLine
 62
7
  6
CONTINUOUS
 10
-18.9761580896
 20
-19.2427917817
 11
-18.7243723424
 21
-19.2397795483
  0
LINE
  5
3CF
100
AcDbEntity
  8
ASSI
100
AcDbLine
 62
7
  6
CONTINUOUS
 10
-8.7243723424
 20
-19.2397795483
 11
-8.4445512369
 21
-19.2372932309
  0
LINE
  5
3D0
100
AcDbEntity
  8
ASSI
100
AcDbLine
 62
7
  6
CONTINUOUS
 10
-13.7243723424
 20
-19.2397795483
 11
-13.4445512369
 21
-19.2372932309
  0
LINE
  5
3D1
100
AcDbEntity
  8
ASSI
100
AcDbLine
 62
7
  6
CONTINUOUS
 10
-18.7243723424
 20
-19.2397795483
 11
-18.4445512369
 21
-19.2372932309
  0
LINE
  5
3D2
100
AcDbEntity
  8
ASSI
100
AcDbLine
 62
7
  6
CONTINUOUS
 10
-14.2935704697
 20
-19.4591723833
 11
-14.181992306
 21
-19.4581037831
  0
LINE
  5
3D3
100
AcDbEntity
  8
ASSI
100
AcDbLine
 62
7
  6
CONTINUOUS
 10
-8.4445512369
 20
-19.2372932309
 11
-8.1445415542
 21
-19.2354448094
  0
LINE
  5
3D4
100
AcDbEntity
  8
ASSI
100
AcDbLine
 62
7
  6
CONTINUOUS
 10
-13.4445512369
 20
-19.2372932309
 11
-13.1445415542
 21
-19.2354448094
  0
LINE
  5
3D5
100
AcDbEntity
  8
ASSI
100
AcDbLine
 62
7
  6
CONTINUOUS
 10
-18.4445512369
 20
-19.2372932309
 11
-18.1445415542
 21
-19.2354448094
  0
LINE
  5
3D6
100
AcDbEntity
  8
ASSI
100
AcDbLine
 62
7
  6
CONTINUOUS
 10
-14.181992306
 20
-19.4581037831
 11
-14.0367083994
 21
-19.4574238364
  0
LINE
  5
3D7
100
AcDbEntity
  8
ASSI
100
AcDbLine
 62
7
  6
CONTINUOUS
 10
-8.1445415542
 20
-19.2354448094
 11
-7.789566599
 21
-19.2342084105
  0
LINE
  5
3D8
100
AcDbEntity
  8
ASSI
100
AcDbLine
 62
7
  6
CONTINUOUS
 10
-13.1445415542
 20
-19.2354448094
 11
-12.789566599
 21
-19.2342084105
  0
LINE
  5
3D9
100
AcDbEntity
  8
ASSI
100
AcDbLine
 62
7
  6
CONTINUOUS
 10
-18.1445415542
 20
-19.2354448094
 11
-17.789566599
 21
-19.2342084105
  0
LINE
  5
3DA
100
AcDbEntity
  8
ASSI
100
AcDbLine
 62
253
  6
CONTINUOUS
 10
-6.1871617663
 20
-19.6
 11
-7.25
 21
-19.6
  0
LINE
  5
3DB
100
AcDbEntity
  8
ASSI
100
AcDbLine
 62
253
  6
CONTINUOUS
 10
-13.25
 20
-19.6
 11
-14.3128382337
 21
-19.6
  0
LINE
  5
3DC
100
AcDbEntity
  8
ASSI
100
AcDbLine
 62
7
  6
CONTINUOUS
 10
-20.7417457641
 20
-19.5935241039
 11
-18.7564758961
 21
-19.5935241039
  0
LINE
  5
3DD
100
AcDbEntity
  8
ASSI
100
AcDbLine
 62
7
  6
CONTINUOUS
 10
-3.7435241039
 20
-19.5935241039
 11
3.7435241039
 21
-19.5935241039
  0
LINE
  5
3DE
100
AcDbEntity
  8
ASSI
100
AcDbLine
 62
7
  6
CONTINUOUS
 10
18.7564758961
 20
-19.5935241039
 11
20.7417457641
 21
-19.5935241039
  0
LINE
  5
3DF
100
AcDbEntity
  8
ASSI
100
AcDbLine
 62
7
  6
CONTINUOUS
 10
-5.5
 20
-19.5254493507
 11
-5.887024678
 21
-19.5254493507
  0
LINE
  5
3E0
100
AcDbEntity
  8
ASSI
100
AcDbLine
 62
7
  6
CONTINUOUS
 10
-14.612975322
 20
-19.5254493507
 11
-17.0
 21
-19.5254493507
  0
LINE
  5
3E1
100
AcDbEntity
  8
ASSI
100
AcDbLine
 62
7
  6
CONTINUOUS
 10
18.5
 20
-19.5226472899
 11
9.0000000082
 21
-19.5226472899
  0
LINE
  5
3E2
100
AcDbEntity
  8
ASSI
100
AcDbLine
 62
7
  6
CONTINUOUS
 10
-7.55
 20
-19.50658205
 11
-12.95
 21
-19.50658205
  0
LINE
  5
3E3
100
AcDbEntity
  8
ASSI
100
AcDbLine
 62
253
  6
CONTINUOUS
 10
-7.55
 20
-19.4887023245
 11
-12.95
 21
-19.4887023245
  0
LINE
  5
3E4
100
AcDbEntity
  8
ASSI
100
AcDbLine
 62
7
  6
CONTINUOUS
 10
9.0
 20
-19.4672432928
 11
18.4999999919
 21
-19.4672432928
  0
LINE
  5
3E5
100
AcDbEntity
  8
ASSI
100
AcDbLine
 62
7
  6
CONTINUOUS
 10
-14.0367083994
 20
-19.4574238364
 11
-6.5448091789
 21
-19.4573288991
  0
LINE
  5
3E6
100
AcDbEntity
  8
ASSI
100
AcDbLine
 62
7
  6
CONTINUOUS
 10
18.5
 20
-19.4177567198
 11
9.0000000081
 21
-19.4177567198
  0
LINE
  5
3E7
100
AcDbEntity
  8
ASSI
100
AcDbLine
 62
7
  6
CONTINUOUS
 10
9.0
 20
-19.3626725953
 11
18.4999999919
 21
-19.3626725953
  0
LINE
  5
3E8
100
AcDbEntity
  8
ASSI
100
AcDbLine
 62
7
  6
CONTINUOUS
 10
18.5
 20
-19.3128661497
 11
9.0000000081
 21
-19.3128661497
  0
LINE
  5
3E9
100
AcDbEntity
  8
ASSI
100
AcDbLine
 62
7
  6
CONTINUOUS
 10
9.0
 20
-19.2581018978
 11
18.499999992
 21
-19.2581018978
  0
LINE
  5
3EA
100
AcDbEntity
  8
ASSI
100
AcDbLine
 62
253
  6
CONTINUOUS
 10
-20.5652045402
 20
-19.1673158868
 11
20.5652045402
 21
-19.1673158868
  0
LINE
  5
3EB
100
AcDbEntity
  8
ASSI
100
AcDbLine
 62
253
  6
CONTINUOUS
 10
-20.5652045402
 20
-18.1674681916
 11
20.5652045402
 21
-18.1674681916
  0
LINE
  5
3EC
100
AcDbEntity
  8
PORTATASTO
100
AcDbLine
 62
7
  6
CONTINUOUS
 10
-22.3849101299
 20
-18.1473460386
 11
-22.3423580915
 21
-18.1473460386
  0
LINE
  5
3ED
100
AcDbEntity
  8
PORTATASTO
100
AcDbLine
 62
7
  6
CONTINUOUS
 10
22.3849101299
 20
-18.1473460386
 11
22.3423580915
 21
-18.1473460386
  0
LINE
  5
3EE
100
AcDbEntity
  8
ASSI
100
AcDbLine
 62
253
  6
CONTINUOUS
 10
20.8674681916
 20
-17.4510540646
 11
21.8673158868
 21
-17.4510540646
  0
LINE
  5
3EF
100
AcDbEntity
  8
ASSI
100
AcDbLine
 62
253
  6
CONTINUOUS
 10
-20.8674681916
 20
-17.4510540646
 11
-21.8673158868
 21
-17.4510540642
  0
LINE
  5
3F0
100
AcDbEntity
  8
ASSI
100
AcDbLine
 62
7
  6
CONTINUOUS
 10
-17.789566599
 20
-19.2342084105
 11
-17.4368146554
 21
-19.2339178515
  0
LINE
  5
3F1
100
AcDbEntity
  8
ASSI
100
AcDbLine
 62
7
  6
CONTINUOUS
 10
-12.789566599
 20
-19.2342084105
 11
-12.4368146554
 21
-19.2339178515
  0
LINE
  5
3F2
100
AcDbEntity
  8
ASSI
100
AcDbLine
 62
7
  6
CONTINUOUS
 10
-7.789566599
 20
-19.2342084105
 11
-7.4368146554
 21
-19.2339178515
  0
LINE
  5
3F3
100
AcDbEntity
  8
ASSI
100
AcDbLine
 62
7
  6
CONTINUOUS
 10
-17.4368146554
 20
-19.2339178515
 11
-17.099140787
 21
-19.2344933647
  0
LINE
  5
3F4
100
AcDbEntity
  8
ASSI
100
AcDbLine
 62
7
  6
CONTINUOUS
 10
-12.4368146554
 20
-19.2339178515
 11
-12.099140787
 21
-19.2344933647
  0
LINE
  5
3F5
100
AcDbEntity
  8
ASSI
100
AcDbLine
 62
7
  6
CONTINUOUS
 10
-7.4368146554
 20
-19.2339178515
 11
-7.099140787
 21
-19.2344933647
  0
LINE
  5
3F6
100
AcDbEntity
  8
ASSI
100
AcDbLine
 62
7
  6
CONTINUOUS
 10
-6.5448091784
 20
-19.4573269577
 11
-6.383287877
 21
-19.4577195022
  0
LINE
  5
3F7
100
AcDbEntity
  8
ASSI
100
AcDbLine
 62
7
  6
CONTINUOUS
 10
-17.099140787
 20
-19.2344933647
 11
-16.7820382194
 21
-19.235824584
  0
LINE
  5
3F8
100
AcDbEntity
  8
ASSI
100
AcDbLine
 62
7
  6
CONTINUOUS
 10
-12.099140787
 20
-19.2344933647
 11
-11.7820382194
 21
-19.235824584
  0
LINE
  5
3F9
100
AcDbEntity
  8
ASSI
100
AcDbLine
 62
7
  6
CONTINUOUS
 10
-7.099140787
 20
-19.2344933647
 11
-6.7820382194
 21
-19.235824584
  0
LINE
  5
3FA
100
AcDbEntity
  8
ASSI
100
AcDbLine
 62
7
  6
CONTINUOUS
 10
-16.7820382194
 20
-19.235824584
 11
-16.4538568397
 21
-19.2381025549
  0
LINE
  5
3FB
100
AcDbEntity
  8
ASSI
100
AcDbLine
 62
7
  6
CONTINUOUS
 10
-11.7820382194
 20
-19.235824584
 11
-11.4538568397
 21
-19.2381025549
  0
LINE
  5
3FC
100
AcDbEntity
  8
ASSI
100
AcDbLine
 62
7
  6
CONTINUOUS
 10
-6.7820382194
 20
-19.235824584
 11
-6.4538568397
 21
-19.2381025549
  0
LINE
  5
3FD
100
AcDbEntity
  8
ASSI
100
AcDbLine
 62
7
  6
CONTINUOUS
 10
-6.383287877
 20
-19.4577195022
 11
-6.2659057598
 21
-19.4585353305
  0
LINE
  5
3FE
100
AcDbEntity
  8
ASSI
100
AcDbLine
 62
7
  6
CONTINUOUS
 10
-16.4538568397
 20
-19.2381025549
 11
-16.1587257329
 21
-19.2410776008
  0
LINE
  5
3FF
100
AcDbEntity
  8
ASSI
100
AcDbLine
 62
7
  6
CONTINUOUS
 10
-11.4538568397
 20
-19.2381025549
 11
-11.1587257329
 21
-19.2410776008
  0
LINE
  5
400
100
AcDbEntity
  8
ASSI
100
AcDbLine
 62
7
  6
CONTINUOUS
 10
-6.4538568397
 20
-19.2381025549
 11
-6.1587257329
 21
-19.2410776008
  0
LINE
  5
401
100
AcDbEntity
  8
ASSI
100
AcDbLine
 62
7
  6
CONTINUOUS
 10
-6.2659057598
 20
-19.4585353305
 11
-6.1652272344
 21
-19.4597143883
  0
LINE
  5
402
100
AcDbEntity
  8
ASSI
100
AcDbLine
 62
7
  6
CONTINUOUS
 10
-16.1587257329
 20
-19.2410776008
 11
-15.898444489
 21
-19.244630895
  0
LINE
  5
403
100
AcDbEntity
  8
ASSI
100
AcDbLine
 62
7
  6
CONTINUOUS
 10
-11.1587257329
 20
-19.2410776008
 11
-10.898444489
 21
-19.244630895
  0
LINE
  5
404
100
AcDbEntity
  8
ASSI
100
AcDbLine
 62
7
  6
CONTINUOUS
 10
-6.1587257329
 20
-19.2410776008
 11
-5.898444489
 21
-19.244630895
  0
LINE
  5
405
100
AcDbEntity
  8
ASSI
100
AcDbLine
 62
7
  6
CONTINUOUS
 10
-6.1652272344
 20
-19.4597143883
 11
-6.109220656
 21
-19.4606517801
  0
LINE
  5
406
100
AcDbEntity
  8
ASSI
100
AcDbLine
 62
7
  6
CONTINUOUS
 10
-15.898444489
 20
-19.244630895
 11
-15.697276855
 21
-19.2481995046
  0
LINE
  5
407
100
AcDbEntity
  8
ASSI
100
AcDbLine
 62
7
  6
CONTINUOUS
 10
-10.898444489
 20
-19.244630895
 11
-10.697276855
 21
-19.2481995046
  0
LINE
  5
408
100
AcDbEntity
  8
ASSI
100
AcDbLine
 62
7
  6
CONTINUOUS
 10
-5.898444489
 20
-19.244630895
 11
-5.697276855
 21
-19.2481995046
  0
LINE
  5
409
100
AcDbEntity
  8
ASSI
100
AcDbLine
 62
7
  6
CONTINUOUS
 10
-15.697276855
 20
-19.2481995046
 11
-15.5660838571
 21
-19.2510722822
  0
LINE
  5
40A
100
AcDbEntity
  8
ASSI
100
AcDbLine
 62
7
  6
CONTINUOUS
 10
-6.109220656
 20
-19.4606517801
 11
-6.0628889401
 21
-19.4616418837
  0
LINE
  5
40B
100
AcDbEntity
  8
ASSI
100
AcDbLine
 62
7
  6
CONTINUOUS
 10
-10.697276855
 20
-19.2481995046
 11
-10.5459405748
 21
-19.2515637873
  0
LINE
  5
40C
100
AcDbEntity
  8
ASSI
100
AcDbLine
 62
7
  6
CONTINUOUS
 10
-5.697276855
 20
-19.2481995046
 11
-5.5459405748
 21
-19.2515637873
  0
LINE
  5
40D
100
AcDbEntity
  8
ASSI
100
AcDbLine
 62
7
  6
CONTINUOUS
 10
-6.0628889401
 20
-19.4616418837
 11
-6.0435117458
 21
-19.4621527749
  0
LINE
  5
40E
100
AcDbEntity
  8
ASSI
100
AcDbLine
 62
7
  6
CONTINUOUS
 10
-10.5459405748
 20
-19.2515637873
 11
-10.4357041011
 21
-19.2545584419
  0
LINE
  5
40F
100
AcDbEntity
  8
ASSI
100
AcDbLine
 62
7
  6
CONTINUOUS
 10
-5.5459405748
 20
-19.2515637873
 11
-5.4357041011
 21
-19.2545584419
  0
LINE
  5
410
100
AcDbEntity
  8
ASSI
100
AcDbLine
 62
7
  6
CONTINUOUS
 10
-10.4357041011
 20
-19.2545584419
 11
-10.3724758647
 21
-19.2565775741
  0
LINE
  5
411
100
AcDbEntity
  8
ASSI
100
AcDbLine
 62
7
  6
CONTINUOUS
 10
-5.4357041011
 20
-19.2545584419
 11
-5.3724758647
 21
-19.2565775741
  0
LINE
  5
412
100
AcDbEntity
  8
ASSI
100
AcDbLine
 62
7
  6
CONTINUOUS
 10
-10.3724758647
 20
-19.2565775741
 11
-10.3439511535
 21
-19.2575877218
  0
LINE
  5
413
100
AcDbEntity
  8
ASSI
100
AcDbLine
 62
7
  6
CONTINUOUS
 10
-5.3724758647
 20
-19.2565775741
 11
-5.3174726117
 21
-19.2585946765
  0
LINE
  5
414
100
AcDbEntity
  8
ASSI
100
AcDbLine
 62
7
  6
CONTINUOUS
 10
-5.3174726117
 20
-19.2585946765
 11
-5.2815761997
 21
-19.2600910011
  0
LINE
  5
415
100
AcDbEntity
  8
ASSI
100
AcDbLine
 62
7
  6
CONTINUOUS
 10
-5.2815761997
 20
-19.2600910011
 11
-5.2502340022
 21
-19.2615573163
  0
LINE
  5
416
100
AcDbEntity
  8
ASSI
100
AcDbLine
 62
7
  6
CONTINUOUS
 10
-5.2502340022
 20
-19.2615573163
 11
-5.2318417923
 21
-19.2625111355
  0
LINE
  5
417
100
AcDbEntity
  8
ASSI
100
AcDbLine
 62
7
  6
CONTINUOUS
 10
-5.2318417923
 20
-19.2625111355
 11
-5.2154340926
 21
-19.2634399957
  0
LINE
  5
418
100
AcDbEntity
  8
ASSI
100
AcDbLine
 62
7
  6
CONTINUOUS
 10
-5.2154340926
 20
-19.2634399957
 11
-5.2009948079
 21
-19.2643372629
  0
LINE
  5
419
100
AcDbEntity
  8
ASSI
100
AcDbLine
 62
7
  6
CONTINUOUS
 10
-5.2009948079
 20
-19.2643372629
 11
-5.1885324413
 21
-19.265192835
  0
LWPOLYLINE
  5
41A
100
AcDbEntity
  8
ASSI
100
AcDbPolyline
 62
7
  6
CONTINUOUS
 90
8
 70
0
 10
-5.1885324413
 20
-19.265192835
 10
-5.1781183144
 20
-19.2659886992
 10
-5.1736775109
 20
-19.2663590657
 10
-5.1698215412
 20
-19.2667009213
 10
-5.1665127244
 20
-19.2670136805
 10
-5.1637774148
 20
-19.2672904777
 10
-5.161781352
 20
-19.2675074294
 10
-5.1612756907
 20
-19.267565251
  0
LINE
  5
41B
100
AcDbEntity
  8
CURVE
100
AcDbLine
 62
253
  6
CONTINUOUS
 10
-17.605002741
 20
-10.2658348
 11
-17.8650991951
 21
-10.1163361895
  0
LINE
  5
41C
100
AcDbEntity
  8
PORTATASTO
100
AcDbLine
 62
7
  6
CONTINUOUS
 10
-4.0094583738
 20
-22.2859700255
 11
-3.9507059952
 21
-22.3383643404
  0
LINE
  5
41D
100
AcDbEntity
  8
CURVE
100
AcDbLine
 62
253
  6
CONTINUOUS
 10
-9.2039285235
 20
-16.1857142776
 11
-9.5052140942
 21
-15.9142856658
  0
LINE
  5
41E
100
AcDbEntity
  8
CURVE
100
AcDbLine
 62
253
  6
CONTINUOUS
 10
-8.1494285235
 20
-17.0
 11
-8.4507140942
 21
-16.7285714164
  0
LINE
  5
41F
100
AcDbEntity
  8
ASSI
100
AcDbLine
 62
253
  6
CONTINUOUS
 10
-5.9449005618
 20
-19.4675734669
 11
-5.887024678
 21
-19.5254493507
  0
LINE
  5
420
100
AcDbEntity
  8
CURVE
100
AcDbLine
 62
253
  6
CONTINUOUS
 10
-15.1794283559
 20
-15.1
 11
-14.5768572147
 21
-17.0
  0
LINE
  5
421
100
AcDbEntity
  8
PORTATASTO
100
AcDbLine
 62
7
  6
CONTINUOUS
 10
-15.6468619794
 20
23.4539868749
 11
-15.65
 21
23.8
  0
LINE
  5
422
100
AcDbEntity
  8
CURVE
100
AcDbLine
 62
253
  6
CONTINUOUS
 10
-17.1121400909
 20
-9.6073502692
 11
-17.1121400909
 21
-9.1073502692
  0
LINE
  5
423
100
AcDbEntity
  8
ASSI
100
AcDbLine
 62
7
  6
CONTINUOUS
 10
-17.0
 20
19.9
 11
-17.0
 21
19.5254493507
  0
LINE
  5
424
100
AcDbEntity
  8
ASSI
100
AcDbLine
 62
7
  6
CONTINUOUS
 10
-17.0
 20
-19.5254493507
 11
-17.0
 21
-19.9
  0
LINE
  5
425
100
AcDbEntity
  8
CURVE
100
AcDbLine
 62
253
  6
CONTINUOUS
 10
-16.8365
 20
-16.4571428329
 11
-16.8365
 21
-15.6428571105
  0
LINE
  5
426
100
AcDbEntity
  8
PORTATASTO
100
AcDbLine
 62
7
  6
CONTINUOUS
 10
-16.6209460779
 20
14.0
 11
-16.6209460779
 21
14.1
  0
LINE
  5
427
100
AcDbEntity
  8
PORTATASTO
100
AcDbLine
 62
7
  6
CONTINUOUS
 10
-16.6
 20
14.0
 11
-16.6
 21
14.1
  0
LINE
  5
428
100
AcDbEntity
  8
ASSI
100
AcDbLine
 62
7
  6
CONTINUOUS
 10
-15.85
 20
-2.2
 11
-15.85
 21
-7.5
  0
LINE
  5
429
100
AcDbEntity
  8
CURVE
100
AcDbLine
 62
253
  6
CONTINUOUS
 10
-15.782
 20
-15.6428571105
 11
-15.782
 21
-16.4571428329
  0
LINE
  5
42A
100
AcDbEntity
  8
PORTATASTO
100
AcDbLine
 62
7
  6
CONTINUOUS
 10
-15.6552360356
 20
-22.35
 11
-15.6552360356
 21
-22.85711136
  0
LINE
  5
42B
100
AcDbEntity
  8
PORTATASTO
100
AcDbLine
 62
7
  6
CONTINUOUS
 10
-15.6552360356
 20
22.35
 11
-15.6552360356
 21
22.85711136
  0
LINE
  5
42C
100
AcDbEntity
  8
PORTATASTO
100
AcDbLine
 62
7
  6
CONTINUOUS
 10
-15.6159657686
 20
23.4906890903
 11
-15.6159657686
 21
22.8093109097
  0
LINE
  5
42D
100
AcDbEntity
  8
PORTATASTO
100
AcDbLine
 62
7
  6
CONTINUOUS
 10
-15.6159657686
 20
-23.4906890903
 11
-15.6159657686
 21
-22.8093109097
  0
LINE
  5
42E
100
AcDbEntity
  8
ASSI
100
AcDbLine
 62
7
  6
CONTINUOUS
 10
-15.4
 20
19.1832211978
 11
-15.4
 21
19.25
  0
LINE
  5
42F
100
AcDbEntity
  8
ASSI
100
AcDbLine
 62
7
  6
CONTINUOUS
 10
-15.2726497308
 20
-1.5891560818
 11
-15.2726497308
 21
-8.1108439182
  0
LINE
  5
430
100
AcDbEntity
  8
PORTATASTO
100
AcDbLine
 62
7
  6
CONTINUOUS
 10
-15.65
 20
-23.8
 11
-15.6468619794
 21
-23.4539868749
  0
LINE
  5
431
100
AcDbEntity
  8
PORTATASTO
100
AcDbLine
 62
7
  6
CONTINUOUS
 10
3.1834304982
 20
20.9917082642
 11
3.0174550649
 21
20.9087268678
  0
LWPOLYLINE
  5
432
100
AcDbEntity
  8
ASSI
100
AcDbPolyline
 62
7
  6
CONTINUOUS
 90
8
 70
0
 10
-14.8395330125
 20
-19.2676617674
 10
-14.8392056298
 20
-19.2676222473
 10
-14.8377247284
 20
-19.2674525479
 10
-14.8354709231
 20
-19.2672125586
 10
-14.8326310927
 20
-19.2669307171
 10
-14.82923298
 20
-19.2666149659
 10
-14.8252346336
 20
-19.2662660585
 10
-14.8207178571
 20
-19.2658948997
  0
LWPOLYLINE
  5
433
100
AcDbEntity
  8
ASSI
100
AcDbPolyline
 62
7
  6
CONTINUOUS
 90
8
 70
0
 10
-19.8395330125
 20
-19.2676617674
 10
-19.8392056298
 20
-19.2676222473
 10
-19.8377247284
 20
-19.2674525479
 10
-19.8354709231
 20
-19.2672125586
 10
-19.8326310927
 20
-19.2669307171
 10
-19.82923298
 20
-19.2666149659
 10
-19.8252346336
 20
-19.2662660585
 10
-19.8207178571
 20
-19.2658948997
  0
LINE
  5
434
100
AcDbEntity
  8
CURVE
100
AcDbLine
 62
253
  6
CONTINUOUS
 10
-18.3429286073
 20
-17.0
 11
-17.589714178
 21
-17.0
  0
LINE
  5
435
100
AcDbEntity
  8
CURVE
100
AcDbLine
 62
253
  6
CONTINUOUS
 10
-10.1077852354
 20
-17.0
 11
-9.5052140942
 21
-17.0
  0
LINE
  5
436
100
AcDbEntity
  8
CURVE
100
AcDbLine
 62
253
  6
CONTINUOUS
 10
-5.0361426177
 20
-17.0
 11
-4.5842147646
 21
-17.0
  0
LINE
  5
437
100
AcDbEntity
  8
CURVE
100
AcDbLine
 62
253
  6
CONTINUOUS
 10
-0.3662147646
 20
-17.0
 11
0.5376429529
 21
-17.0
  0
LINE
  5
438
100
AcDbEntity
  8
CURVE
100
AcDbLine
 62
253
  6
CONTINUOUS
 10
-3.0777859058
 20
-17.0
 11
-3.2284281883
 21
-17.0
  0
LINE
  5
439
100
AcDbEntity
  8
CURVE
100
AcDbLine
 62
253
  6
CONTINUOUS
 10
-7.9987852354
 20
-17.0
 11
-8.1494285235
 21
-17.0
  0
LINE
  5
43A
100
AcDbEntity
  8
CURVE
100
AcDbLine
 62
253
  6
CONTINUOUS
 10
-16.2339286073
 20
-17.0
 11
-16.3845713927
 21
-17.0
  0
LINE
  5
43B
100
AcDbEntity
  8
CURVE
100
AcDbLine
 62
253
  6
CONTINUOUS
 10
-18.9455
 20
-17.0
 11
-20.0
 21
-17.0
  0
LINE
  5
43C
100
AcDbEntity
  8
ASSI
100
AcDbLine
 62
7
  6
CONTINUOUS
 10
18.5523811542
 20
-16.5654914144
 11
8.4467051675
 21
-16.5654914144
  0
LINE
  5
43D
100
AcDbEntity
  8
ASSI
100
AcDbLine
 62
7
  6
CONTINUOUS
 10
20.8674681916
 20
-16.5261825974
 11
19.9476188458
 21
-16.5261825974
  0
LINE
  5
43E
100
AcDbEntity
  8
ASSI
100
AcDbLine
 62
7
  6
CONTINUOUS
 10
20.2787223403
 20
-16.5
 11
20.0
 21
-16.5
  0
LINE
  5
43F
100
AcDbEntity
  8
ASSI
100
AcDbLine
 62
7
  6
CONTINUOUS
 10
18.5
 20
-16.5
 11
8.4990863217
 21
-16.5
  0
LINE
  5
440
100
AcDbEntity
  8
ASSI
100
AcDbLine
 62
253
  6
CONTINUOUS
 10
22.2344815161
 20
-16.1418665361
 11
20.6010362387
 21
-16.1418665361
  0
LINE
  5
441
100
AcDbEntity
  8
CURVE
100
AcDbLine
 62
253
  6
CONTINUOUS
 10
-22.2673819125
 20
-16.0
 11
-22.2446972397
 21
-16.0
  0
LINE
  5
442
100
AcDbEntity
  8
CURVE
100
AcDbLine
 62
253
  6
CONTINUOUS
 10
3.0
 20
-16.0
 11
3.2
 21
-16.0
  0
LINE
  5
443
100
AcDbEntity
  8
CURVE
100
AcDbLine
 62
253
  6
CONTINUOUS
 10
-2.0232859058
 20
-15.9142856658
 11
-0.9687859058
 21
-15.9142856658
  0
LINE
  5
444
100
AcDbEntity
  8
CURVE
100
AcDbLine
 62
253
  6
CONTINUOUS
 10
-4.5842147646
 20
-15.9142856658
 11
-5.237
 21
-15.9142856658
  0
LINE
  5
445
100
AcDbEntity
  8
CURVE
100
AcDbLine
 62
253
  6
CONTINUOUS
 10
-9.5052140942
 20
-15.9142856658
 11
-10.1077852354
 21
-15.9142856658
  0
LINE
  5
446
100
AcDbEntity
  8
CURVE
100
AcDbLine
 62
253
  6
CONTINUOUS
 10
-17.7403572147
 20
-15.9142856658
 11
-18.041642911
 21
-15.9142856658
  0
LINE
  5
447
100
AcDbEntity
  8
CURVE
100
AcDbLine
 62
253
  6
CONTINUOUS
 10
-0.3662147646
 20
-15.6428571105
 11
0.5376429529
 21
-15.6428571105
  0
LINE
  5
448
100
AcDbEntity
  8
PORTATASTO
100
AcDbLine
 62
7
  6
CONTINUOUS
 10
3.1834304982
 20
-20.9917082642
 11
3.0174550649
 21
-20.9087268678
  0
LINE
  5
449
100
AcDbEntity
  8
CURVE
100
AcDbLine
 62
253
  6
CONTINUOUS
 10
-17.5451527928
 20
-9.3573502692
 11
-17.1121400909
 21
-9.6073502692
  0
LINE
  5
44A
100
AcDbEntity
  8
CURVE
100
AcDbLine
 62
253
  6
CONTINUOUS
 10
-7.9987852354
 20
-15.1
 11
-7.6974996648
 21
-15.3714285553
  0
LINE
  5
44B
100
AcDbEntity
  8
CURVE
100
AcDbLine
 62
253
  6
CONTINUOUS
 10
-5.3374281883
 20
-16.7285714164
 11
-5.0361426177
 21
-17.0
  0
LINE
  5
44C
100
AcDbEntity
  8
ASSI
100
AcDbLine
 62
253
  6
CONTINUOUS
 10
-15.4891560818
 20
-8.3273502692
 11
-16.0684989269
 21
-7.7480074241
  0
LINE
  5
44D
100
AcDbEntity
  8
ASSI
100
AcDbLine
 62
253
  6
CONTINUOUS
 10
-15.2726497308
 20
-8.1108439182
 11
-15.8519925759
 21
-7.5315010731
  0
LINE
  5
44E
100
AcDbEntity
  8
CURVE
100
AcDbLine
 62
253
  6
CONTINUOUS
 10
-8.4507140942
 20
-16.7285714164
 11
-8.6013573823
 21
-16.4571428329
  0
LINE
  5
44F
100
AcDbEntity
  8
PORTATASTO
100
AcDbLine
 62
7
  6
CONTINUOUS
 10
-14.7831620976
 20
23.8
 11
-14.7828648461
 21
23.7659383532
  0
LINE
  5
450
100
AcDbEntity
  8
PORTATASTO
100
AcDbLine
 62
7
  6
CONTINUOUS
 10
-14.7701234302
 20
22.3059166979
 11
-14.7828036127
 21
23.7589217043
  0
LINE
  5
451
100
AcDbEntity
  8
PORTATASTO
100
AcDbLine
 62
7
  6
CONTINUOUS
 10
-14.242145819
 20
20.8
 11
-14.2552669943
 21
22.3035377648
  0
LINE
  5
452
100
AcDbEntity
  8
ASSI
100
AcDbLine
 62
7
  6
CONTINUOUS
 10
-14.7273502692
 20
-8.1108439182
 11
-14.7273502692
 21
-1.5891560818
  0
LINE
  5
453
100
AcDbEntity
  8
ASSI
100
AcDbLine
 62
7
  6
CONTINUOUS
 10
-14.65
 20
-20.0
 11
-14.65
 21
-19.9
  0
LINE
  5
454
100
AcDbEntity
  8
ASSI
100
AcDbLine
 62
7
  6
CONTINUOUS
 10
-14.65
 20
19.9
 11
-14.65
 21
20.0
  0
LINE
  5
455
100
AcDbEntity
  8
ASSI
100
AcDbLine
 62
7
  6
CONTINUOUS
 10
-14.3128382337
 20
19.6
 11
-14.3128382337
 21
19.4594147275
  0
LINE
  5
456
100
AcDbEntity
  8
ASSI
100
AcDbLine
 62
7
  6
CONTINUOUS
 10
-14.3128382337
 20
-19.4594137343
 11
-14.3128382337
 21
-19.6
  0
LINE
  5
457
100
AcDbEntity
  8
ASSI
100
AcDbLine
 62
7
  6
CONTINUOUS
 10
-14.15
 20
-7.5
 11
-14.15
 21
-2.2
  0
LINE
  5
458
100
AcDbEntity
  8
PORTATASTO
100
AcDbLine
 62
7
  6
CONTINUOUS
 10
-14.1
 20
-7.6494659168
 11
-14.1
 21
-2.0505340832
  0
LINE
  5
459
100
AcDbEntity
  8
ASSI
100
AcDbLine
 62
253
  6
CONTINUOUS
 10
-13.9551908211
 20
-19.4572832076
 11
-13.9551908211
 21
-19.4573288991
  0
LINE
  5
45A
100
AcDbEntity
  8
ASSI
100
AcDbLine
 62
253
  6
CONTINUOUS
 10
-13.9551908211
 20
19.4572832076
 11
-13.9551908211
 21
19.4573288991
  0
LINE
  5
45B
100
AcDbEntity
  8
ASSI
100
AcDbLine
 62
253
  6
CONTINUOUS
 10
-13.65
 20
-20.0
 11
-13.65
 21
-19.9
  0
LINE
  5
45C
100
AcDbEntity
  8
ASSI
100
AcDbLine
 62
253
  6
CONTINUOUS
 10
-13.65
 20
19.9
 11
-13.65
 21
20.0
  0
LINE
  5
45D
100
AcDbEntity
  8
PORTATASTO
100
AcDbLine
 62
7
  6
CONTINUOUS
 10
-13.5564221286
 20
-7.75
 11
-13.5564221286
 21
-1.95
  0
LINE
  5
45E
100
AcDbEntity
  8
CURVE
100
AcDbLine
 62
253
  6
CONTINUOUS
 10
-13.5
 20
12.2
 11
-13.5
 21
10.7
  0
LINE
  5
45F
100
AcDbEntity
  8
PORTATASTO
100
AcDbLine
 62
7
  6
CONTINUOUS
 10
-13.4950136038
 20
-7.75
 11
-13.4950136038
 21
-1.95
  0
LINE
  5
460
100
AcDbEntity
  8
ASSI
100
AcDbLine
 62
7
  6
CONTINUOUS
 10
-13.3
 20
19.1832211978
 11
-13.3
 21
19.25
  0
LINE
  5
461
100
AcDbEntity
  8
ASSI
100
AcDbLine
 62
7
  6
CONTINUOUS
 10
-13.25
 20
19.6
 11
-13.25
 21
19.4573288991
  0
LINE
  5
462
100
AcDbEntity
  8
0
100
AcDbLine
 62
7
  6
CONTINUOUS
 10
-13.25
 20
14.1
 11
-13.25
 21
14.0
  0
LINE
  5
463
100
AcDbEntity
  8
ASSI
100
AcDbLine
 62
7
  6
CONTINUOUS
 10
-13.25
 20
-19.4573288991
 11
-13.25
 21
-19.6
  0
LINE
  5
464
100
AcDbEntity
  8
PORTATASTO
100
AcDbLine
 62
7
  6
CONTINUOUS
 10
-14.7831620976
 20
-23.8
 11
-14.7828648461
 21
-23.7659383532
  0
LINE
  5
465
100
AcDbEntity
  8
PORTATASTO
100
AcDbLine
 62
7
  6
CONTINUOUS
 10
-14.7828036127
 20
-23.7589217043
 11
-14.7701234302
 21
-22.3059166979
  0
LINE
  5
466
100
AcDbEntity
  8
PORTATASTO
100
AcDbLine
 62
7
  6
CONTINUOUS
 10
-14.242145819
 20
-20.8
 11
-14.2552669943
 21
-22.3035377648
  0
LINE
  5
467
100
AcDbEntity
  8
PORTATASTO
100
AcDbLine
 62
7
  6
CONTINUOUS
 10
-20.85
 20
-20.1990396502
 11
-20.8273084156
 21
-20.1309095371
  0
LINE
  5
468
100
AcDbEntity
  8
CURVE
100
AcDbLine
 62
253
  6
CONTINUOUS
 10
-9.6
 20
10.5
 11
-9.3285713315
 21
10.7714285836
  0
LINE
  5
469
100
AcDbEntity
  8
ASSI
100
AcDbLine
 62
7
  6
CONTINUOUS
 10
2.75
 20
22.4
 11
2.6435241039
 21
22.2935241039
  0
LINE
  5
46A
100
AcDbEntity
  8
PORTATASTO
100
AcDbLine
 62
7
  6
CONTINUOUS
 10
3.0174550649
 20
21.4051134101
 11
3.9507059952
 21
22.3383643404
  0
LINE
  5
46B
100
AcDbEntity
  8
ASSI
100
AcDbLine
 62
253
  6
CONTINUOUS
 10
22.2516319481
 20
-15.1420188409
 11
20.6164713297
 21
-15.1420188409
  0
LINE
  5
46C
100
AcDbEntity
  8
CURVE
100
AcDbLine
 62
253
  6
CONTINUOUS
 10
-16.3845713927
 20
-15.1
 11
-16.2339286073
 21
-15.1
  0
LINE
  5
46D
100
AcDbEntity
  8
CURVE
100
AcDbLine
 62
253
  6
CONTINUOUS
 10
-10.1077852354
 20
-15.1
 11
-9.2039285235
 21
-15.1
  0
LINE
  5
46E
100
AcDbEntity
  8
CURVE
100
AcDbLine
 62
253
  6
CONTINUOUS
 10
-8.1494285235
 20
-15.1
 11
-7.9987852354
 21
-15.1
  0
LINE
  5
46F
100
AcDbEntity
  8
CURVE
100
AcDbLine
 62
253
  6
CONTINUOUS
 10
-3.2284281883
 20
-15.1
 11
-3.0777859058
 21
-15.1
  0
LINE
  5
470
100
AcDbEntity
  8
CURVE
100
AcDbLine
 62
253
  6
CONTINUOUS
 10
-17.7403572147
 20
-15.1
 11
-18.3429286073
 21
-15.1
  0
LINE
  5
471
100
AcDbEntity
  8
CURVE
100
AcDbLine
 62
253
  6
CONTINUOUS
 10
-19.2467856963
 20
-15.1
 11
-19.6987142722
 21
-15.1
  0
LINE
  5
472
100
AcDbEntity
  8
ASSI
100
AcDbLine
 62
253
  6
CONTINUOUS
 10
20.6164713297
 20
-14.8579811591
 11
22.2516319481
 21
-14.8579811591
  0
LINE
  5
473
100
AcDbEntity
  8
CURVE
100
AcDbLine
 62
253
  6
CONTINUOUS
 10
-22.2446972397
 20
-14.754264
 11
-22.2673819125
 21
-14.754264
  0
LINE
  5
474
100
AcDbEntity
  8
ASSI
100
AcDbLine
 62
253
  6
CONTINUOUS
 10
20.6010362387
 20
-13.8581334639
 11
22.2344815161
 21
-13.8581334639
  0
LINE
  5
475
100
AcDbEntity
  8
ASSI
100
AcDbLine
 62
7
  6
CONTINUOUS
 10
20.2787223403
 20
-13.5
 11
20.0
 21
-13.5
  0
LINE
  5
476
100
AcDbEntity
  8
ASSI
100
AcDbLine
 62
7
  6
CONTINUOUS
 10
8.4990863217
 20
-13.5
 11
18.5
 21
-13.5
  0
LINE
  5
477
100
AcDbEntity
  8
ASSI
100
AcDbLine
 62
7
  6
CONTINUOUS
 10
20.8674681916
 20
-13.4738174026
 11
19.9476188458
 21
-13.4738174026
  0
LINE
  5
478
100
AcDbEntity
  8
ASSI
100
AcDbLine
 62
7
  6
CONTINUOUS
 10
8.4467051675
 20
-13.4345085856
 11
18.5523811542
 21
-13.4345085856
  0
LINE
  5
479
100
AcDbEntity
  8
CURVE
100
AcDbLine
 62
253
  6
CONTINUOUS
 10
-22.3547673033
 20
-13.390935
 11
-22.3041660519
 21
-13.390935
  0
LINE
  5
47A
100
AcDbEntity
  8
CURVE
100
AcDbLine
 62
253
  6
CONTINUOUS
 10
-22.2673819125
 20
-13.269593
 11
-22.2446972397
 21
-13.269593
  0
LINE
  5
47B
100
AcDbEntity
  8
CURVE
100
AcDbLine
 62
253
  6
CONTINUOUS
 10
-4.2829281883
 20
-16.1857142776
 11
-4.5842147646
 21
-15.9142856658
  0
LINE
  5
47C
100
AcDbEntity
  8
CURVE
100
AcDbLine
 62
253
  6
CONTINUOUS
 10
-3.2284281883
 20
-17.0
 11
-3.5297147646
 21
-16.7285714164
  0
LINE
  5
47D
100
AcDbEntity
  8
CURVE
100
AcDbLine
 62
253
  6
CONTINUOUS
 10
-3.0777859058
 20
-15.1
 11
-2.7764993296
 21
-15.3714285553
  0
LINE
  5
47E
100
AcDbEntity
  8
ASSI
100
AcDbLine
 62
253
  6
CONTINUOUS
 10
-19.7273502692
 20
-1.5891560818
 11
-19.1480074241
 21
-2.1684989269
  0
LINE
  5
47F
100
AcDbEntity
  8
ASSI
100
AcDbLine
 62
253
  6
CONTINUOUS
 10
-19.5108439182
 20
-1.3726497308
 11
-18.9315010731
 21
-1.9519925759
  0
LINE
  5
480
100
AcDbEntity
  8
ASSI
100
AcDbLine
 62
7
  6
CONTINUOUS
 10
2.75
 20
-22.4
 11
2.6435241039
 21
-22.2935241039
  0
LINE
  5
481
100
AcDbEntity
  8
CURVE
100
AcDbLine
 62
253
  6
CONTINUOUS
 10
-7.9749999046
 20
-10.8642857082
 11
-7.8392856129
 21
-11.0
  0
LINE
  5
482
100
AcDbEntity
  8
ASSI
100
AcDbLine
 62
253
  6
CONTINUOUS
 10
-10.4891560818
 20
-8.3273502692
 11
-11.0684989269
 21
-7.7480074241
  0
LINE
  5
483
100
AcDbEntity
  8
PORTATASTO
100
AcDbLine
 62
7
  6
CONTINUOUS
 10
3.9507059952
 20
-22.3383643404
 11
3.0174550649
 21
-21.4051134101
  0
LINE
  5
484
100
AcDbEntity
  8
ASSI
100
AcDbLine
 62
253
  6
CONTINUOUS
 10
-10.2726497308
 20
-8.1108439182
 11
-10.8519925759
 21
-7.5315010731
  0
LINE
  5
485
100
AcDbEntity
  8
CURVE
100
AcDbLine
 62
253
  6
CONTINUOUS
 10
-7.6974996648
 20
-15.3714285553
 11
-7.5468573823
 21
-15.6428571105
  0
LINE
  5
486
100
AcDbEntity
  8
PORTATASTO
100
AcDbLine
 62
7
  6
CONTINUOUS
 10
-20.8273084156
 20
20.1309095371
 11
-20.85
 21
20.1990396502
  0
LINE
  5
487
100
AcDbEntity
  8
ASSI
100
AcDbLine
 62
253
  6
CONTINUOUS
 10
-12.95
 20
19.9
 11
-12.95
 21
19.4887023245
  0
LINE
  5
488
100
AcDbEntity
  8
ASSI
100
AcDbLine
 62
253
  6
CONTINUOUS
 10
-12.95
 20
-19.4887023245
 11
-12.95
 21
-19.9
  0
LINE
  5
489
100
AcDbEntity
  8
CURVE
100
AcDbLine
 62
253
  6
CONTINUOUS
 10
-12.8392858505
 20
-9.1
 11
-12.8392858505
 21
-11.0
  0
LINE
  5
48A
100
AcDbEntity
  8
DRAFT
100
AcDbLine
 62
7
  6
CONTINUOUS
 10
-11.5
 20
19.0980014286
 11
-11.5
 21
19.0764760537
  0
LINE
  5
48B
100
AcDbEntity
  8
CURVE
100
AcDbLine
 62
253
  6
CONTINUOUS
 10
-11.5
 20
10.5
 11
-11.5
 21
12.4
  0
LINE
  5
48C
100
AcDbEntity
  8
RACCORDO
100
AcDbLine
 62
7
  6
CONTINUOUS
 10
-11.25
 20
14.1
 11
-11.25
 21
14.0
  0
LINE
  5
48D
100
AcDbEntity
  8
ASSI
100
AcDbLine
 62
7
  6
CONTINUOUS
 10
-10.85
 20
-2.2
 11
-10.85
 21
-7.5
  0
LINE
  5
48E
100
AcDbEntity
  8
PORTATASTO
100
AcDbLine
 62
7
  6
CONTINUOUS
 10
-20.1498936624
 20
-20.9
 11
-20.127202078
 21
-20.8318698869
  0
LINE
  5
48F
100
AcDbEntity
  8
ASSI
100
AcDbLine
 62
253
  6
CONTINUOUS
 10
-21.2722036256
 20
-18.874467277
 11
-21.4487448495
 21
-19.3006754942
  0
LINE
  5
490
100
AcDbEntity
  8
ASSI
100
AcDbLine
 62
253
  6
CONTINUOUS
 10
-20.5652045402
 20
-19.1673158868
 11
-20.7417457641
 21
-19.5935241039
  0
LINE
  5
491
100
AcDbEntity
  8
CURVE
100
AcDbLine
 62
253
  6
CONTINUOUS
 10
-7.021428442
 20
12.4
 11
-7.292857337
 21
11.9928571105
  0
LINE
  5
492
100
AcDbEntity
  8
CURVE
100
AcDbLine
 62
253
  6
CONTINUOUS
 10
-7.292857337
 20
10.5
 11
-6.342857337
 21
11.8571428895
  0
LINE
  5
493
100
AcDbEntity
  8
ASSI
100
AcDbLine
 62
7
  6
CONTINUOUS
 10
2.75
 20
20.85
 11
2.6435241039
 21
20.7435241039
  0
LINE
  5
494
100
AcDbEntity
  8
ASSI
100
AcDbLine
 62
7
  6
CONTINUOUS
 10
3.7435241039
 20
20.7435241039
 11
3.85
 21
20.85
  0
LINE
  5
495
100
AcDbEntity
  8
CURVE
100
AcDbLine
 62
253
  6
CONTINUOUS
 10
-4.307142663
 20
12.1285714447
 11
-4.035714221
 21
12.4
  0
LINE
  5
496
100
AcDbEntity
  8
ASSI
100
AcDbLine
 62
7
  6
CONTINUOUS
 10
3.8448533162
 20
19.6948533162
 11
3.7435241039
 21
19.5935241039
  0
LINE
  5
497
100
AcDbEntity
  8
CURVE
100
AcDbLine
 62
253
  6
CONTINUOUS
 10
-5.257142663
 20
10.5
 11
-4.985714221
 21
10.7714285836
  0
LINE
  5
498
100
AcDbEntity
  8
CURVE
100
AcDbLine
 62
253
  6
CONTINUOUS
 10
-22.3041660519
 20
-12.785664
 11
-22.3547673033
 21
-12.785664
  0
LINE
  5
499
100
AcDbEntity
  8
CURVE
100
AcDbLine
 62
253
  6
CONTINUOUS
 10
-22.2673819125
 20
-11.953245
 11
-22.2446972397
 21
-11.953245
  0
LINE
  5
49A
100
AcDbEntity
  8
CURVE
100
AcDbLine
 62
253
  6
CONTINUOUS
 10
-12.8392858505
 20
-11.0
 11
-12.1607144058
 21
-11.0
  0
LINE
  5
49B
100
AcDbEntity
  8
CURVE
100
AcDbLine
 62
253
  6
CONTINUOUS
 10
-7.8392856129
 20
-11.0
 11
-7.2964284599
 21
-11.0
  0
LINE
  5
49C
100
AcDbEntity
  8
CURVE
100
AcDbLine
 62
253
  6
CONTINUOUS
 10
-7.0249999046
 20
-10.4571428329
 11
-7.9749999046
 21
-9.6428571105
  0
LINE
  5
49D
100
AcDbEntity
  8
ASSI
100
AcDbLine
 62
7
  6
CONTINUOUS
 10
2.75
 20
-20.85
 11
2.6435241039
 21
-20.7435241039
  0
LINE
  5
49E
100
AcDbEntity
  8
ASSI
100
AcDbLine
 62
7
  6
CONTINUOUS
 10
3.7435241039
 20
-20.7435241039
 11
3.85
 21
-20.85
  0
LINE
  5
49F
100
AcDbEntity
  8
ASSI
100
AcDbLine
 62
253
  6
CONTINUOUS
 10
-14.7273502692
 20
-1.5891560818
 11
-14.1480074241
 21
-2.1684989269
  0
LINE
  5
4A0
100
AcDbEntity
  8
CURVE
100
AcDbLine
 62
253
  6
CONTINUOUS
 10
-7.1607141823
 20
-9.1
 11
-7.0249999046
 21
-9.2357143342
  0
LINE
  5
4A1
100
AcDbEntity
  8
ASSI
100
AcDbLine
 62
253
  6
CONTINUOUS
 10
-14.5108439182
 20
-1.3726497308
 11
-13.9315010731
 21
-1.9519925759
  0
LINE
  5
4A2
100
AcDbEntity
  8
ASSI
100
AcDbLine
 62
7
  6
CONTINUOUS
 10
3.8448533162
 20
-19.6948533162
 11
3.7435241039
 21
-19.5935241039
  0
LINE
  5
4A3
100
AcDbEntity
  8
CURVE
100
AcDbLine
 62
253
  6
CONTINUOUS
 10
-3.5297147646
 20
-16.7285714164
 11
-3.6803570471
 21
-16.4571428329
  0
LINE
  5
4A4
100
AcDbEntity
  8
ASSI
100
AcDbLine
 62
253
  6
CONTINUOUS
 10
-21.4487448495
 20
19.3006754942
 11
-21.3554762419
 21
19.0755051566
  0
LINE
  5
4A5
100
AcDbEntity
  8
ASSI
100
AcDbLine
 62
253
  6
CONTINUOUS
 10
-20.7417457641
 20
19.5935241039
 11
-20.6484771565
 21
19.3683537664
  0
LINE
  5
4A6
100
AcDbEntity
  8
PORTATASTO
100
AcDbLine
 62
7
  6
CONTINUOUS
 10
-20.127202078
 20
20.8318698869
 11
-20.1498936624
 21
20.9
  0
LINE
  5
4A7
100
AcDbEntity
  8
ASSI
100
AcDbLine
 62
7
  6
CONTINUOUS
 10
-10.75
 20
13.9869096983
 11
-10.75
 21
13.0
  0
LINE
  5
4A8
100
AcDbEntity
  8
ASSI
100
AcDbLine
 62
7
  6
CONTINUOUS
 10
-10.2726497308
 20
-1.5891560818
 11
-10.2726497308
 21
-8.1108439182
  0
LINE
  5
4A9
100
AcDbEntity
  8
CURVE
100
AcDbLine
 62
253
  6
CONTINUOUS
 10
-10.1428571105
 20
11.5857143342
 11
-10.1428571105
 21
12.4
  0
LINE
  5
4AA
100
AcDbEntity
  8
CURVE
100
AcDbLine
 62
253
  6
CONTINUOUS
 10
-10.1077852354
 20
-15.9142856658
 11
-10.1077852354
 21
-15.1
  0
LINE
  5
4AB
100
AcDbEntity
  8
ASSI
100
AcDbLine
 62
7
  6
CONTINUOUS
 10
-9.7273502692
 20
-8.1108439182
 11
-9.7273502692
 21
-1.5891560818
  0
LINE
  5
4AC
100
AcDbEntity
  8
CURVE
100
AcDbLine
 62
253
  6
CONTINUOUS
 10
-9.3285713315
 20
10.7714285836
 11
-9.3285713315
 21
11.3142857224
  0
LINE
  5
4AD
100
AcDbEntity
  8
CURVE
100
AcDbLine
 62
253
  6
CONTINUOUS
 10
-9.2039285235
 20
-16.7285714164
 11
-9.2039285235
 21
-16.1857142776
  0
LINE
  5
4AE
100
AcDbEntity
  8
ASSI
100
AcDbLine
 62
7
  6
CONTINUOUS
 10
-9.15
 20
-7.5
 11
-9.15
 21
-2.2
  0
LINE
  5
4AF
100
AcDbEntity
  8
ASSI
100
AcDbLine
 62
253
  6
CONTINUOUS
 10
-8.85
 20
20.0
 11
-8.85
 21
19.9
  0
LINE
  5
4B0
100
AcDbEntity
  8
ASSI
100
AcDbLine
 62
253
  6
CONTINUOUS
 10
-8.85
 20
-19.9
 11
-8.85
 21
-20.0
  0
LINE
  5
4B1
100
AcDbEntity
  8
CURVE
100
AcDbLine
 62
253
  6
CONTINUOUS
 10
-8.785714221
 20
10.5
 11
-8.785714221
 21
12.4
  0
LINE
  5
4B2
100
AcDbEntity
  8
CURVE
100
AcDbLine
 62
253
  6
CONTINUOUS
 10
-8.6013573823
 20
-16.4571428329
 11
-8.6013573823
 21
-15.6428571105
  0
LINE
  5
4B3
100
AcDbEntity
  8
CURVE
100
AcDbLine
 62
253
  6
CONTINUOUS
 10
-14.5768572147
 20
-17.0
 11
-13.9742855706
 21
-15.1
  0
LINE
  5
4B4
100
AcDbEntity
  8
ASSI
100
AcDbLine
 62
7
  6
CONTINUOUS
 10
-20.0058962398
 20
-20.7435241039
 11
-20.05
 21
-20.85
  0
LINE
  5
4B5
100
AcDbEntity
  8
CURVE
100
AcDbLine
 62
253
  6
CONTINUOUS
 10
-4.442857337
 20
11.8571428895
 11
-4.307142663
 21
12.1285714447
  0
LINE
  5
4B6
100
AcDbEntity
  8
CURVE
100
AcDbLine
 62
253
  6
CONTINUOUS
 10
-18.2
 20
-11.0
 11
-17.1121400909
 21
-9.1073502692
  0
LINE
  5
4B7
100
AcDbEntity
  8
CURVE
100
AcDbLine
 62
253
  6
CONTINUOUS
 10
-3.628571558
 20
10.7714285836
 11
-3.9
 21
10.5
  0
LINE
  5
4B8
100
AcDbEntity
  8
ASSI
100
AcDbLine
 62
253
  6
CONTINUOUS
 10
-15.4891560818
 20
-1.3726497308
 11
-16.0684989269
 21
-1.9519925759
  0
LINE
  5
4B9
100
AcDbEntity
  8
ASSI
100
AcDbLine
 62
253
  6
CONTINUOUS
 10
-15.2726497308
 20
-1.5891560818
 11
-15.8519925759
 21
-2.1684989269
  0
LINE
  5
4BA
100
AcDbEntity
  8
ASSI
100
AcDbLine
 62
253
  6
CONTINUOUS
 10
21.8143027805
 20
19.0856972195
 11
21.2816186673
 21
18.8650522354
  0
LINE
  5
4BB
100
AcDbEntity
  8
ASSI
100
AcDbLine
 62
7
  6
CONTINUOUS
 10
18.5523811542
 20
-10.5654914144
 11
8.4467051675
 21
-10.5654914144
  0
LINE
  5
4BC
100
AcDbEntity
  8
ASSI
100
AcDbLine
 62
7
  6
CONTINUOUS
 10
20.8674681916
 20
-10.5261825974
 11
19.9476188458
 21
-10.5261825974
  0
LINE
  5
4BD
100
AcDbEntity
  8
ASSI
100
AcDbLine
 62
7
  6
CONTINUOUS
 10
20.2787223403
 20
-10.5
 11
20.0
 21
-10.5
  0
LINE
  5
4BE
100
AcDbEntity
  8
ASSI
100
AcDbLine
 62
7
  6
CONTINUOUS
 10
18.5
 20
-10.5
 11
8.4990863217
 21
-10.5
  0
LINE
  5
4BF
100
AcDbEntity
  8
CURVE
100
AcDbLine
 62
253
  6
CONTINUOUS
 10
-22.2673819125
 20
-10.145272
 11
-22.2446972397
 21
-10.145272
  0
LINE
  5
4C0
100
AcDbEntity
  8
ASSI
100
AcDbLine
 62
253
  6
CONTINUOUS
 10
22.2344815161
 20
-10.1418665361
 11
20.6010362387
 21
-10.1418665361
  0
LINE
  5
4C1
100
AcDbEntity
  8
CURVE
100
AcDbLine
 62
253
  6
CONTINUOUS
 10
-22.2673819125
 20
-9.756944
 11
-22.2446972397
 21
-9.756944
  0
LINE
  5
4C2
100
AcDbEntity
  8
ASSI
100
AcDbLine
 62
253
  6
CONTINUOUS
 10
22.2516319481
 20
-9.1420188409
 11
20.6164713297
 21
-9.1420188409
  0
LINE
  5
4C3
100
AcDbEntity
  8
CURVE
100
AcDbLine
 62
253
  6
CONTINUOUS
 10
-7.7035713211
 20
-9.1
 11
-7.1607141823
 21
-9.1
  0
LINE
  5
4C4
100
AcDbEntity
  8
ASSI
100
AcDbLine
 62
253
  6
CONTINUOUS
 10
20.6164713297
 20
-8.8579811591
 11
22.2516319481
 21
-8.8579811591
  0
LINE
  5
4C5
100
AcDbEntity
  8
CURVE
100
AcDbLine
 62
253
  6
CONTINUOUS
 10
-22.2673819125
 20
-8.724819
 11
-22.2446972397
 21
-8.724819
  0
LINE
  5
4C6
100
AcDbEntity
  8
ASSI
100
AcDbLine
 62
253
  6
CONTINUOUS
 10
21.2816186673
 20
-18.8650522354
 11
21.8143027805
 21
-19.0856972195
  0
LINE
  5
4C7
100
AcDbEntity
  8
ASSI
100
AcDbLine
 62
253
  6
CONTINUOUS
 10
-5.4891560818
 20
-8.3273502692
 11
-6.0684989269
 21
-7.7480074241
  0
LINE
  5
4C8
100
AcDbEntity
  8
ASSI
100
AcDbLine
 62
253
  6
CONTINUOUS
 10
-5.2726497308
 20
-8.1108439182
 11
-5.8519925759
 21
-7.5315010731
  0
LINE
  5
4C9
100
AcDbEntity
  8
CURVE
100
AcDbLine
 62
253
  6
CONTINUOUS
 10
-2.7764993296
 20
-15.3714285553
 11
-2.6258570471
 21
-15.6428571105
  0
LINE
  5
4CA
100
AcDbEntity
  8
ASSI
100
AcDbLine
 62
7
  6
CONTINUOUS
 10
-20.0058962398
 20
20.7435241039
 11
-20.05
 21
20.85
  0
LINE
  5
4CB
100
AcDbEntity
  8
PORTATASTO
100
AcDbLine
 62
7
  6
CONTINUOUS
 10
-6.85
 20
-23.8
 11
-6.8531380206
 21
-23.4539868749
  0
LINE
  5
4CC
100
AcDbEntity
  8
PORTATASTO
100
AcDbLine
 62
7
  6
CONTINUOUS
 10
-8.257854181
 20
-20.8
 11
-8.2447330057
 21
-22.3035377648
  0
LINE
  5
4CD
100
AcDbEntity
  8
PORTATASTO
100
AcDbLine
 62
7
  6
CONTINUOUS
 10
-7.7168379024
 20
-23.8
 11
-7.7171351539
 21
-23.7659383532
  0
LINE
  5
4CE
100
AcDbEntity
  8
PORTATASTO
100
AcDbLine
 62
7
  6
CONTINUOUS
 10
-7.7171963873
 20
-23.7589217043
 11
-7.7298765698
 21
-22.3059166979
  0
LINE
  5
4CF
100
AcDbEntity
  8
CURVE
100
AcDbLine
 62
253
  6
CONTINUOUS
 10
-7.9749999046
 20
-9.6428571105
 11
-7.9749999046
 21
-9.3714285553
  0
LINE
  5
4D0
100
AcDbEntity
  8
ASSI
100
AcDbLine
 62
7
  6
CONTINUOUS
 10
-7.85
 20
20.0
 11
-7.85
 21
19.9
  0
LINE
  5
4D1
100
AcDbEntity
  8
ASSI
100
AcDbLine
 62
7
  6
CONTINUOUS
 10
-7.85
 20
-19.9
 11
-7.85
 21
-20.0
  0
LINE
  5
4D2
100
AcDbEntity
  8
CURVE
100
AcDbLine
 62
253
  6
CONTINUOUS
 10
-7.835714221
 20
12.4
 11
-7.835714221
 21
10.5
  0
LINE
  5
4D3
100
AcDbEntity
  8
ASSI
100
AcDbLine
 62
253
  6
CONTINUOUS
 10
-7.55
 20
-19.9
 11
-7.55
 21
-19.4887023245
  0
LINE
  5
4D4
100
AcDbEntity
  8
ASSI
100
AcDbLine
 62
253
  6
CONTINUOUS
 10
-7.55
 20
19.4887023245
 11
-7.55
 21
19.9
  0
LINE
  5
4D5
100
AcDbEntity
  8
CURVE
100
AcDbLine
 62
253
  6
CONTINUOUS
 10
-7.5468573823
 20
-15.6428571105
 11
-7.5468573823
 21
-16.4571428329
  0
LINE
  5
4D6
100
AcDbEntity
  8
ASSI
100
AcDbLine
 62
7
  6
CONTINUOUS
 10
-7.25
 20
-19.6
 11
-7.25
 21
-19.4573288991
  0
LINE
  5
4D7
100
AcDbEntity
  8
ASSI
100
AcDbLine
 62
7
  6
CONTINUOUS
 10
-7.25
 20
19.4573288991
 11
-7.25
 21
19.6
  0
LINE
  5
4D8
100
AcDbEntity
  8
CURVE
100
AcDbLine
 62
253
  6
CONTINUOUS
 10
-7.0249999046
 20
-10.7285714164
 11
-7.0249999046
 21
-10.4571428329
  0
LINE
  5
4D9
100
AcDbEntity
  8
PORTATASTO
100
AcDbLine
 62
7
  6
CONTINUOUS
 10
-6.8840342314
 20
23.4906890903
 11
-6.8840342314
 21
22.8093109097
  0
LINE
  5
4DA
100
AcDbEntity
  8
PORTATASTO
100
AcDbLine
 62
7
  6
CONTINUOUS
 10
-6.8840342314
 20
-23.4906890903
 11
-6.8840342314
 21
-22.8093109097
  0
LINE
  5
4DB
100
AcDbEntity
  8
PORTATASTO
100
AcDbLine
 62
7
  6
CONTINUOUS
 10
-6.8447639644
 20
-22.35
 11
-6.8447639644
 21
-22.85711136
  0
LINE
  5
4DC
100
AcDbEntity
  8
PORTATASTO
100
AcDbLine
 62
7
  6
CONTINUOUS
 10
-6.8447639644
 20
22.35
 11
-6.8447639644
 21
22.85711136
  0
LINE
  5
4DD
100
AcDbEntity
  8
ASSI
100
AcDbLine
 62
7
  6
CONTINUOUS
 10
-6.75
 20
13.9869096983
 11
-6.75
 21
13.0
  0
LINE
  5
4DE
100
AcDbEntity
  8
ASSI
100
AcDbLine
 62
253
  6
CONTINUOUS
 10
-6.5448091789
 20
-19.4572832076
 11
-6.5448091789
 21
-19.4573288991
  0
LINE
  5
4DF
100
AcDbEntity
  8
ASSI
100
AcDbLine
 62
253
  6
CONTINUOUS
 10
-6.5448091789
 20
19.4572832076
 11
-6.5448091789
 21
19.4573288991
  0
LINE
  5
4E0
100
AcDbEntity
  8
CURVE
100
AcDbLine
 62
253
  6
CONTINUOUS
 10
-6.342857337
 20
11.8571428895
 11
-6.342857337
 21
12.1285714447
  0
LINE
  5
4E1
100
AcDbEntity
  8
PORTATASTO
100
AcDbLine
 62
7
  6
CONTINUOUS
 10
-8.257854181
 20
20.8
 11
-8.2447330057
 21
22.3035377648
  0
LINE
  5
4E2
100
AcDbEntity
  8
PORTATASTO
100
AcDbLine
 62
7
  6
CONTINUOUS
 10
-7.7168379024
 20
23.8
 11
-7.7171351539
 21
23.7659383532
  0
LINE
  5
4E3
100
AcDbEntity
  8
PORTATASTO
100
AcDbLine
 62
7
  6
CONTINUOUS
 10
-7.7298765698
 20
22.3059166979
 11
-7.7171963873
 21
23.7589217043
  0
LINE
  5
4E4
100
AcDbEntity
  8
PORTATASTO
100
AcDbLine
 62
7
  6
CONTINUOUS
 10
-6.8531380206
 20
23.4539868749
 11
-6.85
 21
23.8
  0
LINE
  5
4E5
100
AcDbEntity
  8
CURVE
100
AcDbLine
 62
253
  6
CONTINUOUS
 10
-3.492856884
 20
11.0428571671
 11
-3.628571558
 21
10.7714285836
  0
LINE
  5
4E6
100
AcDbEntity
  8
CURVE
100
AcDbLine
 62
253
  6
CONTINUOUS
 10
-16.8365
 20
-15.6428571105
 11
-16.6858572147
 21
-15.3714285553
  0
LINE
  5
4E7
100
AcDbEntity
  8
CURVE
100
AcDbLine
 62
253
  6
CONTINUOUS
 10
-19.6987142722
 20
-15.1
 11
-20.0
 21
-15.5071428895
  0
LINE
  5
4E8
100
AcDbEntity
  8
ASSI
100
AcDbLine
 62
253
  6
CONTINUOUS
 10
-19.1480074241
 20
-7.5315010731
 11
-19.7273502692
 21
-8.1108439182
  0
LINE
  5
4E9
100
AcDbEntity
  8
ASSI
100
AcDbLine
 62
253
  6
CONTINUOUS
 10
-18.9315010731
 20
-7.7480074241
 11
-19.5108439182
 21
-8.3273502692
  0
LINE
  5
4EA
100
AcDbEntity
  8
ASSI
100
AcDbLine
 62
253
  6
CONTINUOUS
 10
-10.4891560818
 20
-1.3726497308
 11
-11.0684989269
 21
-1.9519925759
  0
LINE
  5
4EB
100
AcDbEntity
  8
ASSI
100
AcDbLine
 62
253
  6
CONTINUOUS
 10
22.4
 20
17.6716990487
 11
21.8673158868
 21
17.4510540646
  0
LINE
  5
4EC
100
AcDbEntity
  8
ASSI
100
AcDbLine
 62
7
  6
CONTINUOUS
 10
-5.4891560818
 20
-8.3273502692
 11
-9.5108439182
 21
-8.3273502692
  0
LINE
  5
4ED
100
AcDbEntity
  8
ASSI
100
AcDbLine
 62
7
  6
CONTINUOUS
 10
-10.4891560818
 20
-8.3273502692
 11
-14.5108439182
 21
-8.3273502692
  0
LINE
  5
4EE
100
AcDbEntity
  8
ASSI
100
AcDbLine
 62
7
  6
CONTINUOUS
 10
-15.4891560818
 20
-8.3273502692
 11
-19.5108439182
 21
-8.3273502692
  0
LINE
  5
4EF
100
AcDbEntity
  8
CURVE
100
AcDbLine
 62
253
  6
CONTINUOUS
 10
2.9692856121
 20
-8.0
 11
2.8621431637
 21
-8.0
  0
LINE
  5
4F0
100
AcDbEntity
  8
CURVE
100
AcDbLine
 62
253
  6
CONTINUOUS
 10
1.7907143879
 20
-8.0
 11
1.6835715818
 21
-8.0
  0
LINE
  5
4F1
100
AcDbEntity
  8
CURVE
100
AcDbLine
 62
253
  6
CONTINUOUS
 10
-1.6378571939
 20
-8.0
 11
-1.745
 21
-8.0
  0
LINE
  5
4F2
100
AcDbEntity
  8
ASSI
100
AcDbLine
 62
253
  6
CONTINUOUS
 10
20.6010362387
 20
-7.8581334639
 11
22.2344815161
 21
-7.8581334639
  0
LINE
  5
4F3
100
AcDbEntity
  8
CURVE
100
AcDbLine
 62
253
  6
CONTINUOUS
 10
-22.2673819125
 20
-7.831288
 11
-22.2446972397
 21
-7.831288
  0
LINE
  5
4F4
100
AcDbEntity
  8
ASSI
100
AcDbLine
 62
7
  6
CONTINUOUS
 10
-6.1
 20
-7.75
 11
-8.9
 21
-7.75
  0
LINE
  5
4F5
100
AcDbEntity
  8
ASSI
100
AcDbLine
 62
7
  6
CONTINUOUS
 10
-11.1
 20
-7.75
 11
-13.9
 21
-7.75
  0
LINE
  5
4F6
100
AcDbEntity
  8
ASSI
100
AcDbLine
 62
7
  6
CONTINUOUS
 10
-16.1
 20
-7.75
 11
-18.9
 21
-7.75
  0
LINE
  5
4F7
100
AcDbEntity
  8
CURVE
100
AcDbLine
 62
253
  6
CONTINUOUS
 10
-2.495
 20
-7.6785714254
 11
-3.245
 21
-7.6785714254
  0
LINE
  5
4F8
100
AcDbEntity
  8
CURVE
100
AcDbLine
 62
253
  6
CONTINUOUS
 10
5.1121431637
 20
-7.5714285523
 11
5.683571701
 21
-7.5714285523
  0
LINE
  5
4F9
100
AcDbEntity
  8
ASSI
100
AcDbLine
 62
7
  6
CONTINUOUS
 10
20.2787223403
 20
-7.5
 11
20.0
 21
-7.5
  0
LINE
  5
4FA
100
AcDbEntity
  8
ASSI
100
AcDbLine
 62
7
  6
CONTINUOUS
 10
8.4990863217
 20
-7.5
 11
18.5
 21
-7.5
  0
LINE
  5
4FB
100
AcDbEntity
  8
ASSI
100
AcDbLine
 62
7
  6
CONTINUOUS
 10
20.8674681916
 20
-7.4738174026
 11
19.9476188458
 21
-7.4738174026
  0
LINE
  5
4FC
100
AcDbEntity
  8
CURVE
100
AcDbLine
 62
253
  6
CONTINUOUS
 10
-0.8878571939
 20
-7.4642857015
 11
-0.245
 21
-7.4642857015
  0
LINE
  5
4FD
100
AcDbEntity
  8
ASSI
100
AcDbLine
 62
7
  6
CONTINUOUS
 10
8.4467051675
 20
-7.4345085856
 11
18.5523811542
 21
-7.4345085856
  0
LINE
  5
4FE
100
AcDbEntity
  8
CURVE
100
AcDbLine
 62
253
  6
CONTINUOUS
 10
-22.2446972397
 20
-7.027348
 11
-22.2673819125
 21
-7.027348
  0
LINE
  5
4FF
100
AcDbEntity
  8
CURVE
100
AcDbLine
 62
253
  6
CONTINUOUS
 10
-22.3541731105
 20
-6.8615673444
 11
-22.3041660457
 21
-6.8615673444
  0
LINE
  5
500
100
AcDbEntity
  8
CURVE
100
AcDbLine
 62
253
  6
CONTINUOUS
 10
-1.745
 20
-6.5
 11
-1.6378571939
 21
-6.5
  0
LINE
  5
501
100
AcDbEntity
  8
CURVE
100
AcDbLine
 62
253
  6
CONTINUOUS
 10
0.1835715818
 20
-6.5
 11
0.9335715818
 21
-6.5
  0
LINE
  5
502
100
AcDbEntity
  8
CURVE
100
AcDbLine
 62
253
  6
CONTINUOUS
 10
1.6835715818
 20
-6.5
 11
1.7907143879
 21
-6.5
  0
LINE
  5
503
100
AcDbEntity
  8
CURVE
100
AcDbLine
 62
253
  6
CONTINUOUS
 10
2.8621431637
 20
-6.5
 11
2.9692856121
 21
-6.5
  0
LINE
  5
504
100
AcDbEntity
  8
ASSI
100
AcDbLine
 62
253
  6
CONTINUOUS
 10
21.8673158868
 20
-17.4510540646
 11
22.4
 21
-17.6716990487
  0
LINE
  5
505
100
AcDbEntity
  8
ASSI
100
AcDbLine
 62
253
  6
CONTINUOUS
 10
-9.7273502692
 20
-1.5891560818
 11
-9.1480074241
 21
-2.1684989269
  0
LINE
  5
506
100
AcDbEntity
  8
ASSI
100
AcDbLine
 62
253
  6
CONTINUOUS
 10
-9.5108439182
 20
-1.3726497308
 11
-8.9315010731
 21
-1.9519925759
  0
LINE
  5
507
100
AcDbEntity
  8
CURVE
100
AcDbLine
 62
253
  6
CONTINUOUS
 10
-1.745
 20
-8.0
 11
-1.9592857015
 21
-7.7857142761
  0
LINE
  5
508
100
AcDbEntity
  8
RACCORDO
100
AcDbLine
 62
7
  6
CONTINUOUS
 10
-6.25
 20
14.1
 11
-6.25
 21
14.0
  0
LINE
  5
509
100
AcDbEntity
  8
ASSI
100
AcDbLine
 62
7
  6
CONTINUOUS
 10
-6.1871617663
 20
-19.6
 11
-6.1871617663
 21
-19.4594147275
  0
LINE
  5
50A
100
AcDbEntity
  8
ASSI
100
AcDbLine
 62
7
  6
CONTINUOUS
 10
-6.1871617663
 20
19.4594137343
 11
-6.1871617663
 21
19.6
  0
LINE
  5
50B
100
AcDbEntity
  8
DRAFT
100
AcDbLine
 62
7
  6
CONTINUOUS
 10
-6.0
 20
19.0764760537
 11
-6.0
 21
19.0980014286
  0
LINE
  5
50C
100
AcDbEntity
  8
ASSI
100
AcDbLine
 62
7
  6
CONTINUOUS
 10
-5.85
 20
-2.2
 11
-5.85
 21
-7.5
  0
LINE
  5
50D
100
AcDbEntity
  8
CURVE
100
AcDbLine
 62
253
  6
CONTINUOUS
 10
-5.8
 20
11.5857143342
 11
-5.8
 21
12.4
  0
LINE
  5
50E
100
AcDbEntity
  8
ASSI
100
AcDbLine
 62
7
  6
CONTINUOUS
 10
-5.5
 20
-19.9
 11
-5.5
 21
-19.5254493507
  0
LINE
  5
50F
100
AcDbEntity
  8
ASSI
100
AcDbLine
 62
7
  6
CONTINUOUS
 10
-5.5
 20
19.5254493507
 11
-5.5
 21
19.9
  0
LINE
  5
510
100
AcDbEntity
  8
CURVE
100
AcDbLine
 62
253
  6
CONTINUOUS
 10
-5.3374281883
 20
-16.05
 11
-5.3374281883
 21
-16.7285714164
  0
LINE
  5
511
100
AcDbEntity
  8
ASSI
100
AcDbLine
 62
7
  6
CONTINUOUS
 10
-5.2726497308
 20
-1.5891560818
 11
-5.2726497308
 21
-8.1108439182
  0
LINE
  5
512
100
AcDbEntity
  8
CURVE
100
AcDbLine
 62
253
  6
CONTINUOUS
 10
-4.985714221
 20
10.7714285836
 11
-4.985714221
 21
11.3142857224
  0
LINE
  5
513
100
AcDbEntity
  8
PORTATASTO
100
AcDbLine
 62
7
  6
CONTINUOUS
 10
-4.75
 20
-20.0
 11
-4.75
 21
-19.7
  0
LINE
  5
514
100
AcDbEntity
  8
PORTATASTO
100
AcDbLine
 62
7
  6
CONTINUOUS
 10
-4.75
 20
19.7
 11
-4.75
 21
20.0
  0
LINE
  5
515
100
AcDbEntity
  8
CURVE
100
AcDbLine
 62
253
  6
CONTINUOUS
 10
-4.442857337
 20
11.0428571671
 11
-4.442857337
 21
11.8571428895
  0
LINE
  5
516
100
AcDbEntity
  8
CURVE
100
AcDbLine
 62
253
  6
CONTINUOUS
 10
-4.2829281883
 20
-16.7285714164
 11
-4.2829281883
 21
-16.1857142776
  0
LINE
  5
517
100
AcDbEntity
  8
0
100
AcDbLine
 62
7
  6
CONTINUOUS
 10
-4.25
 20
14.1
 11
-4.25
 21
14.0
  0
LINE
  5
518
100
AcDbEntity
  8
ASSI
100
AcDbLine
 62
7
  6
CONTINUOUS
 10
-4.2
 20
19.1832211978
 11
-4.2
 21
19.25
  0
LINE
  5
519
100
AcDbEntity
  8
PORTATASTO
100
AcDbLine
 62
7
  6
CONTINUOUS
 10
-4.15
 20
14.1
 11
-4.15
 21
14.0
  0
LINE
  5
51A
100
AcDbEntity
  8
CURVE
100
AcDbLine
 62
253
  6
CONTINUOUS
 10
-2.407143116
 20
10.5
 11
-1.864285326
 21
12.4
  0
LINE
  5
51B
100
AcDbEntity
  8
CURVE
100
AcDbLine
 62
253
  6
CONTINUOUS
 10
-15.782
 20
-16.4571428329
 11
-15.9326427853
 21
-16.7285714164
  0
LINE
  5
51C
100
AcDbEntity
  8
CURVE
100
AcDbLine
 62
253
  6
CONTINUOUS
 10
-20.0
 20
-17.0
 11
-18.9455
 21
-15.6428571105
  0
LINE
  5
51D
100
AcDbEntity
  8
ASSI
100
AcDbLine
 62
253
  6
CONTINUOUS
 10
-10.2726497308
 20
-1.5891560818
 11
-10.8519925759
 21
-2.1684989269
  0
LINE
  5
51E
100
AcDbEntity
  8
PORTATASTO
100
AcDbLine
 62
7
  6
CONTINUOUS
 10
15.65
 20
23.8
 11
15.6159383532
 21
23.7659383532
  0
LINE
  5
51F
100
AcDbEntity
  8
ASSI
100
AcDbLine
 62
253
  6
CONTINUOUS
 10
-14.1480074241
 20
-7.5315010731
 11
-14.7273502692
 21
-8.1108439182
  0
LINE
  5
520
100
AcDbEntity
  8
ASSI
100
AcDbLine
 62
253
  6
CONTINUOUS
 10
-13.9315010731
 20
-7.7480074241
 11
-14.5108439182
 21
-8.3273502692
  0
LINE
  5
521
100
AcDbEntity
  8
PORTATASTO
100
AcDbLine
 62
7
  6
CONTINUOUS
 10
18.4905416262
 20
22.2859700255
 11
18.5558178298
 21
22.3441821702
  0
LINE
  5
522
100
AcDbEntity
  8
PORTATASTO
100
AcDbLine
 62
253
  6
CONTINUOUS
 10
22.35
 20
21.850016923
 11
22.3412731322
 21
21.8441990932
  0
LINE
  5
523
100
AcDbEntity
  8
CURVE
100
AcDbLine
 62
253
  6
CONTINUOUS
 10
-22.3322541597
 20
-6.2788012718
 11
-22.3461443576
 21
-6.2788012718
  0
LINE
  5
524
100
AcDbEntity
  8
CURVE
100
AcDbLine
 62
253
  6
CONTINUOUS
 10
-22.3041660457
 20
-6.2587313832
 11
-22.3239673939
 21
-6.2587313832
  0
LINE
  5
525
100
AcDbEntity
  8
CURVE
100
AcDbLine
 62
253
  6
CONTINUOUS
 10
1.005
 20
-5.5
 11
4.0
 21
-5.5
  0
LINE
  5
526
100
AcDbEntity
  8
CURVE
100
AcDbLine
 62
253
  6
CONTINUOUS
 10
0.255
 20
-5.5
 11
-2.745
 21
-5.5
  0
LINE
  5
527
100
AcDbEntity
  8
CURVE
100
AcDbLine
 62
253
  6
CONTINUOUS
 10
-22.3277848459
 20
-5.30544429
 11
-22.3280838372
 21
-5.30544429
  0
LINE
  5
528
100
AcDbEntity
  8
CURVE
100
AcDbLine
 62
253
  6
CONTINUOUS
 10
-22.2673819125
 20
-5.041082
 11
-22.2446972397
 21
-5.041082
  0
LINE
  5
529
100
AcDbEntity
  8
ASSI
100
AcDbLine
 62
7
  6
CONTINUOUS
 10
18.5523811542
 20
-4.5654914144
 11
8.4467051675
 21
-4.5654914144
  0
LINE
  5
52A
100
AcDbEntity
  8
ASSI
100
AcDbLine
 62
7
  6
CONTINUOUS
 10
20.8674681916
 20
-4.5261825974
 11
19.9476188458
 21
-4.5261825974
  0
LINE
  5
52B
100
AcDbEntity
  8
ASSI
100
AcDbLine
 62
7
  6
CONTINUOUS
 10
20.2787223403
 20
-4.5
 11
20.0
 21
-4.5
  0
LINE
  5
52C
100
AcDbEntity
  8
ASSI
100
AcDbLine
 62
7
  6
CONTINUOUS
 10
18.5
 20
-4.5
 11
8.4990863217
 21
-4.5
  0
LINE
  5
52D
100
AcDbEntity
  8
ASSI
100
AcDbLine
 62
253
  6
CONTINUOUS
 10
22.2344815161
 20
-4.1418665361
 11
20.6010362387
 21
-4.1418665361
  0
LINE
  5
52E
100
AcDbEntity
  8
PORTATASTO
100
AcDbLine
 62
253
  6
CONTINUOUS
 10
22.3412731322
 20
-21.8441990932
 11
22.35
 21
-21.850016923
  0
LINE
  5
52F
100
AcDbEntity
  8
PORTATASTO
100
AcDbLine
 62
7
  6
CONTINUOUS
 10
18.4905416262
 20
-22.2859700255
 11
18.5558178298
 21
-22.3441821702
  0
LINE
  5
530
100
AcDbEntity
  8
PORTATASTO
100
AcDbLine
 62
7
  6
CONTINUOUS
 10
15.65
 20
-23.8
 11
15.6159383532
 21
-23.7659383532
  0
LINE
  5
531
100
AcDbEntity
  8
CURVE
100
AcDbLine
 62
253
  6
CONTINUOUS
 10
-1.6378571939
 20
-6.5
 11
-1.423571403
 21
-6.7142857015
  0
LINE
  5
532
100
AcDbEntity
  8
CURVE
100
AcDbLine
 62
253
  6
CONTINUOUS
 10
1.6835715818
 20
-8.0
 11
1.4692856121
 21
-7.7857142761
  0
LINE
  5
533
100
AcDbEntity
  8
CURVE
100
AcDbLine
 62
253
  6
CONTINUOUS
 10
-1.9592857015
 20
-7.7857142761
 11
-2.066428597
 21
-7.5714285523
  0
LINE
  5
534
100
AcDbEntity
  8
CURVE
100
AcDbLine
 62
253
  6
CONTINUOUS
 10
-1.423571403
 20
-6.7142857015
 11
-1.316428597
 21
-6.928571403
  0
LINE
  5
535
100
AcDbEntity
  8
PORTATASTO
100
AcDbLine
 62
7
  6
CONTINUOUS
 10
-2.9447639644
 20
23.2226497308
 11
-2.95
 21
23.8
  0
LINE
  5
536
100
AcDbEntity
  8
PORTATASTO
100
AcDbLine
 62
7
  6
CONTINUOUS
 10
-3.95
 20
-20.9959955457
 11
-3.95
 21
-19.7
  0
LINE
  5
537
100
AcDbEntity
  8
PORTATASTO
100
AcDbLine
 62
7
  6
CONTINUOUS
 10
-3.95
 20
19.7
 11
-3.95
 21
20.9959955457
  0
LINE
  5
538
100
AcDbEntity
  8
ASSI
100
AcDbLine
 62
7
  6
CONTINUOUS
 10
-3.85
 20
-20.85
 11
-3.85
 21
-19.6948533162
  0
LINE
  5
539
100
AcDbEntity
  8
ASSI
100
AcDbLine
 62
7
  6
CONTINUOUS
 10
-3.85
 20
19.6948533162
 11
-3.85
 21
20.85
  0
LINE
  5
53A
100
AcDbEntity
  8
ASSI
100
AcDbLine
 62
7
  6
CONTINUOUS
 10
-3.7435241039
 20
-19.5935241039
 11
-3.7435241039
 21
-20.7435241039
  0
LINE
  5
53B
100
AcDbEntity
  8
ASSI
100
AcDbLine
 62
7
  6
CONTINUOUS
 10
-3.7435241039
 20
19.5935241039
 11
-3.7435241039
 21
20.7435241039
  0
LINE
  5
53C
100
AcDbEntity
  8
PORTATASTO
100
AcDbLine
 62
253
  6
CONTINUOUS
 10
-3.6833543458
 20
-21.2859869487
 11
-3.6833543458
 21
-20.9959955457
  0
LINE
  5
53D
100
AcDbEntity
  8
PORTATASTO
100
AcDbLine
 62
253
  6
CONTINUOUS
 10
-3.6833543458
 20
20.9959955457
 11
-3.6833543458
 21
21.2859869487
  0
LINE
  5
53E
100
AcDbEntity
  8
CURVE
100
AcDbLine
 62
253
  6
CONTINUOUS
 10
-3.6803570471
 20
-16.4571428329
 11
-3.6803570471
 21
-15.6428571105
  0
LINE
  5
53F
100
AcDbEntity
  8
CURVE
100
AcDbLine
 62
253
  6
CONTINUOUS
 10
-3.492856884
 20
11.8571428895
 11
-3.492856884
 21
11.0428571671
  0
LINE
  5
540
100
AcDbEntity
  8
PORTATASTO
100
AcDbLine
 62
253
  6
CONTINUOUS
 10
-3.1834304982
 20
-21.4537354271
 11
-3.1834304982
 21
-20.9917082642
  0
LINE
  5
541
100
AcDbEntity
  8
PORTATASTO
100
AcDbLine
 62
253
  6
CONTINUOUS
 10
-3.1834304982
 20
20.9917082642
 11
-3.1834304982
 21
21.4537354271
  0
LINE
  5
542
100
AcDbEntity
  8
PORTATASTO
100
AcDbLine
 62
7
  6
CONTINUOUS
 10
-3.0174550649
 20
21.4051134101
 11
-3.0174550649
 21
20.9087268678
  0
LINE
  5
543
100
AcDbEntity
  8
PORTATASTO
100
AcDbLine
 62
7
  6
CONTINUOUS
 10
-3.0174550649
 20
-20.9087268678
 11
-3.0174550649
 21
-21.4051134101
  0
LINE
  5
544
100
AcDbEntity
  8
PORTATASTO
100
AcDbLine
 62
7
  6
CONTINUOUS
 10
-2.95
 20
24.2500034269
 11
-2.95
 21
23.8
  0
LINE
  5
545
100
AcDbEntity
  8
PORTATASTO
100
AcDbLine
 62
7
  6
CONTINUOUS
 10
-2.95
 20
-23.8
 11
-2.95
 21
-24.2500034269
  0
LINE
  5
546
100
AcDbEntity
  8
PORTATASTO
100
AcDbLine
 62
7
  6
CONTINUOUS
 10
-2.9447639644
 20
23.2226497308
 11
-2.9447639644
 21
22.35
  0
LINE
  5
547
100
AcDbEntity
  8
PORTATASTO
100
AcDbLine
 62
7
  6
CONTINUOUS
 10
-2.9447639644
 20
-22.35
 11
-2.9447639644
 21
-23.2226497308
  0
LINE
  5
548
100
AcDbEntity
  8
CURVE
100
AcDbLine
 62
253
  6
CONTINUOUS
 10
-2.8749999851
 20
0.7
 11
-2.8749999851
 21
1.45
  0
LINE
  5
549
100
AcDbEntity
  8
ASSI
100
AcDbLine
 62
7
  6
CONTINUOUS
 10
-2.75
 20
22.4
 11
-2.75
 21
20.85
  0
LINE
  5
54A
100
AcDbEntity
  8
ASSI
100
AcDbLine
 62
7
  6
CONTINUOUS
 10
-2.75
 20
-22.4
 11
-2.75
 21
-20.85
  0
LINE
  5
54B
100
AcDbEntity
  8
CURVE
100
AcDbLine
 62
253
  6
CONTINUOUS
 10
-2.7449999851
 20
-8.0
 11
-2.7449999851
 21
-7.25
  0
LINE
  5
54C
100
AcDbEntity
  8
ASSI
100
AcDbLine
 62
7
  6
CONTINUOUS
 10
-2.6435241039
 20
22.2935241039
 11
-2.6435241039
 21
20.7435241039
  0
LINE
  5
54D
100
AcDbEntity
  8
ASSI
100
AcDbLine
 62
7
  6
CONTINUOUS
 10
-2.6435241039
 20
-22.2935241039
 11
-2.6435241039
 21
-20.7435241039
  0
LINE
  5
54E
100
AcDbEntity
  8
CURVE
100
AcDbLine
 62
253
  6
CONTINUOUS
 10
-2.6258570471
 20
-15.6428571105
 11
-2.6258570471
 21
-16.4571428329
  0
LINE
  5
54F
100
AcDbEntity
  8
CURVE
100
AcDbLine
 62
253
  6
CONTINUOUS
 10
-2.196428597
 20
1.1285714477
 11
-2.196428597
 21
1.771428597
  0
LINE
  5
550
100
AcDbEntity
  8
ASSI
100
AcDbLine
 62
7
  6
CONTINUOUS
 10
-2.1
 20
19.1832211978
 11
-2.1
 21
19.25
  0
LINE
  5
551
100
AcDbEntity
  8
CURVE
100
AcDbLine
 62
253
  6
CONTINUOUS
 10
-2.066428597
 20
-7.5714285523
 11
-2.066428597
 21
-6.928571403
  0
LINE
  5
552
100
AcDbEntity
  8
CURVE
100
AcDbLine
 62
253
  6
CONTINUOUS
 10
-2.0232859058
 20
-17.0
 11
-2.0232859058
 21
-15.1
  0
LINE
  5
553
100
AcDbEntity
  8
PORTATASTO
100
AcDbLine
 62
7
  6
CONTINUOUS
 10
-2.95
 20
-23.8
 11
-2.9447639644
 21
-23.2226497308
  0
LINE
  5
554
100
AcDbEntity
  8
CURVE
100
AcDbLine
 62
253
  6
CONTINUOUS
 10
-3.375
 20
1.0214285746
 11
-3.0535714254
 21
2.2
  0
LINE
  5
555
100
AcDbEntity
  8
CURVE
100
AcDbLine
 62
253
  6
CONTINUOUS
 10
-2.196428597
 20
1.771428597
 11
-2.0892857015
 21
1.9857142985
  0
LINE
  5
556
100
AcDbEntity
  8
ASSI
100
AcDbLine
 62
253
  6
CONTINUOUS
 10
7.4476188458
 20
14.4339375259
 11
7.5
 21
14.4994289402
  0
LINE
  5
557
100
AcDbEntity
  8
PORTATASTO
100
AcDbLine
 62
7
  6
CONTINUOUS
 10
15.6155494757
 20
22.3059037278
 11
15.6552360356
 21
22.35
  0
LINE
  5
558
100
AcDbEntity
  8
CURVE
100
AcDbLine
 62
253
  6
CONTINUOUS
 10
-0.2588834765
 20
4.1161165235
 11
-0.6477922061
 21
3.7272077939
  0
LINE
  5
559
100
AcDbEntity
  8
ASSI
100
AcDbLine
 62
253
  6
CONTINUOUS
 10
-5.4891560818
 20
-1.3726497308
 11
-6.0684989269
 21
-1.9519925759
  0
LINE
  5
55A
100
AcDbEntity
  8
CURVE
100
AcDbLine
 62
253
  6
CONTINUOUS
 10
-2.0892857015
 20
1.9857142985
 11
-1.875
 21
2.2
  0
LINE
  5
55B
100
AcDbEntity
  8
ASSI
100
AcDbLine
 62
253
  6
CONTINUOUS
 10
-5.2726497308
 20
-1.5891560818
 11
-5.8519925759
 21
-2.1684989269
  0
LINE
  5
55C
100
AcDbEntity
  8
ASSI
100
AcDbLine
 62
7
  6
CONTINUOUS
 10
19.9476188458
 20
13.4738174026
 11
20.0
 21
13.5
  0
LINE
  5
55D
100
AcDbEntity
  8
CURVE
100
AcDbLine
 62
253
  6
CONTINUOUS
 10
-22.2446972397
 20
-3.656396
 11
-22.2534750738
 21
-3.656396
  0
LINE
  5
55E
100
AcDbEntity
  8
ASSI
100
AcDbLine
 62
253
  6
CONTINUOUS
 10
22.2516319481
 20
-3.1420188409
 11
20.6164713297
 21
-3.1420188409
  0
LINE
  5
55F
100
AcDbEntity
  8
ASSI
100
AcDbLine
 62
253
  6
CONTINUOUS
 10
20.6164713297
 20
-2.8579811591
 11
22.2516319481
 21
-2.8579811591
  0
LINE
  5
560
100
AcDbEntity
  8
CURVE
100
AcDbLine
 62
253
  6
CONTINUOUS
 10
-2.745
 20
-2.5
 11
0.255
 21
-2.5
  0
LINE
  5
561
100
AcDbEntity
  8
CURVE
100
AcDbLine
 62
253
  6
CONTINUOUS
 10
4.0
 20
-2.5
 11
1.005
 21
-2.5
  0
LINE
  5
562
100
AcDbEntity
  8
ASSI
100
AcDbLine
 62
7
  6
CONTINUOUS
 10
-18.9
 20
-1.95
 11
-16.1
 21
-1.95
  0
LINE
  5
563
100
AcDbEntity
  8
ASSI
100
AcDbLine
 62
7
  6
CONTINUOUS
 10
-13.9
 20
-1.95
 11
-11.1
 21
-1.95
  0
LINE
  5
564
100
AcDbEntity
  8
ASSI
100
AcDbLine
 62
7
  6
CONTINUOUS
 10
-8.9
 20
-1.95
 11
-6.1
 21
-1.95
  0
LINE
  5
565
100
AcDbEntity
  8
ASSI
100
AcDbLine
 62
7
  6
CONTINUOUS
 10
19.9476188458
 20
-13.4738174026
 11
20.0
 21
-13.5
  0
LINE
  5
566
100
AcDbEntity
  8
CURVE
100
AcDbLine
 62
253
  6
CONTINUOUS
 10
2.8621431637
 20
-8.0
 11
2.6478571939
 21
-7.7857142761
  0
LINE
  5
567
100
AcDbEntity
  8
CURVE
100
AcDbLine
 62
253
  6
CONTINUOUS
 10
1.7907143879
 20
-6.5
 11
2.005
 21
-6.7142857015
  0
LINE
  5
568
100
AcDbEntity
  8
RACCORDO
100
AcDbLine
 62
253
  6
CONTINUOUS
 10
-21.8911146886
 20
17.1836780775
 11
-21.7748797418
 21
17.0674431307
  0
LINE
  5
569
100
AcDbEntity
  8
CURVE
100
AcDbLine
 62
253
  6
CONTINUOUS
 10
2.9692856121
 20
-6.5
 11
3.1835712242
 21
-6.7142857015
  0
LINE
  5
56A
100
AcDbEntity
  8
PORTATASTO
100
AcDbLine
 62
7
  6
CONTINUOUS
 10
15.6552360356
 20
-22.35
 11
15.6155494757
 21
-22.3059037278
  0
LINE
  5
56B
100
AcDbEntity
  8
ASSI
100
AcDbLine
 62
253
  6
CONTINUOUS
 10
7.5
 20
-14.4994289402
 11
7.4476188458
 21
-14.4339375259
  0
LINE
  5
56C
100
AcDbEntity
  8
CURVE
100
AcDbLine
 62
253
  6
CONTINUOUS
 10
1.4692856121
 20
-7.7857142761
 11
1.3621428061
 21
-7.5714285523
  0
LINE
  5
56D
100
AcDbEntity
  8
PORTATASTO
100
AcDbLine
 62
7
  6
CONTINUOUS
 10
-0.675
 20
-23.8
 11
-0.6802360356
 21
-23.2226497308
  0
LINE
  5
56E
100
AcDbEntity
  8
CURVE
100
AcDbLine
 62
253
  6
CONTINUOUS
 10
-1.446428597
 20
1.771428597
 11
-1.446428597
 21
1.1285714477
  0
LINE
  5
56F
100
AcDbEntity
  8
CURVE
100
AcDbLine
 62
253
  6
CONTINUOUS
 10
-1.316428597
 20
-6.928571403
 11
-1.316428597
 21
-7.5714285523
  0
LINE
  5
570
100
AcDbEntity
  8
CURVE
100
AcDbLine
 62
253
  6
CONTINUOUS
 10
-0.9687859058
 20
-15.1
 11
-0.9687859058
 21
-17.0
  0
LINE
  5
571
100
AcDbEntity
  8
PORTATASTO
100
AcDbLine
 62
7
  6
CONTINUOUS
 10
-0.6802360356
 20
23.2226497308
 11
-0.6802360356
 21
22.4
  0
LINE
  5
572
100
AcDbEntity
  8
PORTATASTO
100
AcDbLine
 62
7
  6
CONTINUOUS
 10
-0.6802360356
 20
-22.4
 11
-0.6802360356
 21
-23.2226497308
  0
LINE
  5
573
100
AcDbEntity
  8
PORTATASTO
100
AcDbLine
 62
7
  6
CONTINUOUS
 10
-0.675
 20
-24.2500034269
 11
-0.675
 21
-23.8
  0
LINE
  5
574
100
AcDbEntity
  8
PORTATASTO
100
AcDbLine
 62
7
  6
CONTINUOUS
 10
-0.675
 20
23.8
 11
-0.675
 21
24.2500034269
  0
LINE
  5
575
100
AcDbEntity
  8
CURVE
100
AcDbLine
 62
253
  6
CONTINUOUS
 10
-0.295
 20
-5.5
 11
-0.295
 21
-2.5
  0
LINE
  5
576
100
AcDbEntity
  8
CURVE
100
AcDbLine
 62
253
  6
CONTINUOUS
 10
0.0535715818
 20
1.878571403
 11
0.0535715818
 21
2.2
  0
LINE
  5
577
100
AcDbEntity
  8
CURVE
100
AcDbLine
 62
253
  6
CONTINUOUS
 10
0.1835715818
 20
-6.821428597
 11
0.1835715818
 21
-6.5
  0
LINE
  5
578
100
AcDbEntity
  8
CURVE
100
AcDbLine
 62
253
  6
CONTINUOUS
 10
0.25
 20
5.9270248109
 11
0.25
 21
6.65
  0
LINE
  5
579
100
AcDbEntity
  8
CURVE
100
AcDbLine
 62
253
  6
CONTINUOUS
 10
0.255
 20
-2.5
 11
0.255
 21
-5.5
  0
LINE
  5
57A
100
AcDbEntity
  8
PORTATASTO
100
AcDbLine
 62
7
  6
CONTINUOUS
 10
-0.6802360356
 20
23.2226497308
 11
-0.675
 21
23.8
  0
LINE
  5
57B
100
AcDbEntity
  8
CURVE
100
AcDbLine
 62
253
  6
CONTINUOUS
 10
-3.245
 20
-7.6785714254
 11
-2.9235714254
 21
-6.5
  0
LINE
  5
57C
100
AcDbEntity
  8
CURVE
100
AcDbLine
 62
253
  6
CONTINUOUS
 10
0.8035715818
 20
2.2
 11
0.375
 21
0.7
  0
LINE
  5
57D
100
AcDbEntity
  8
CURVE
100
AcDbLine
 62
253
  6
CONTINUOUS
 10
-1.446428597
 20
1.1285714477
 11
-1.553571403
 21
0.9142857239
  0
LINE
  5
57E
100
AcDbEntity
  8
CURVE
100
AcDbLine
 62
253
  6
CONTINUOUS
 10
-8.6013573823
 20
-15.6428571105
 11
-8.4507140942
 21
-15.3714285553
  0
LINE
  5
57F
100
AcDbEntity
  8
ASSI
100
AcDbLine
 62
253
  6
CONTINUOUS
 10
8.4467051675
 20
13.4345085856
 11
8.4990863217
 21
13.5
  0
LINE
  5
580
100
AcDbEntity
  8
CURVE
100
AcDbLine
 62
253
  6
CONTINUOUS
 10
-1.553571403
 20
0.9142857239
 11
-1.7678571939
 21
0.7
  0
LINE
  5
581
100
AcDbEntity
  8
ASSI
100
AcDbLine
 62
253
  6
CONTINUOUS
 10
-20.5746195819
 20
-18.15805315
 11
-21.2816186673
 21
-18.8650522354
  0
LINE
  5
582
100
AcDbEntity
  8
ASSI
100
AcDbLine
 62
253
  6
CONTINUOUS
 10
-20.5652045402
 20
-18.1674681916
 11
-21.2722036264
 21
-18.8744672762
  0
LINE
  5
583
100
AcDbEntity
  8
ASSI
100
AcDbLine
 62
253
  6
CONTINUOUS
 10
-9.1480074241
 20
-7.5315010731
 11
-9.7273502692
 21
-8.1108439182
  0
LINE
  5
584
100
AcDbEntity
  8
ASSI
100
AcDbLine
 62
253
  6
CONTINUOUS
 10
-8.9315010731
 20
-7.7480074241
 11
-9.5108439182
 21
-8.3273502692
  0
LINE
  5
585
100
AcDbEntity
  8
CURVE
100
AcDbLine
 62
253
  6
CONTINUOUS
 10
1.3392856121
 20
1.9857142985
 11
1.5535715818
 21
2.2
  0
LINE
  5
586
100
AcDbEntity
  8
CURVE
100
AcDbLine
 62
253
  6
CONTINUOUS
 10
-16.6858572147
 20
-15.3714285553
 11
-16.3845713927
 21
-15.1
  0
LINE
  5
587
100
AcDbEntity
  8
CURVE
100
AcDbLine
 62
253
  6
CONTINUOUS
 10
-17.1121400909
 20
-9.1073502692
 11
-17.5451527928
 21
-9.3573502692
  0
LINE
  5
588
100
AcDbEntity
  8
ASSI
100
AcDbLine
 62
253
  6
CONTINUOUS
 10
20.6010362387
 20
-1.8581334639
 11
22.2344815161
 21
-1.8581334639
  0
LINE
  5
589
100
AcDbEntity
  8
ASSI
100
AcDbLine
 62
7
  6
CONTINUOUS
 10
20.2787223403
 20
-1.5
 11
20.0
 21
-1.5
  0
LINE
  5
58A
100
AcDbEntity
  8
ASSI
100
AcDbLine
 62
7
  6
CONTINUOUS
 10
8.4990863217
 20
-1.5
 11
18.5
 21
-1.5
  0
LINE
  5
58B
100
AcDbEntity
  8
ASSI
100
AcDbLine
 62
7
  6
CONTINUOUS
 10
20.8674681916
 20
-1.4738174026
 11
19.9476188458
 21
-1.4738174026
  0
LINE
  5
58C
100
AcDbEntity
  8
ASSI
100
AcDbLine
 62
7
  6
CONTINUOUS
 10
8.4467051675
 20
-1.4345085856
 11
18.5523811542
 21
-1.4345085856
  0
LINE
  5
58D
100
AcDbEntity
  8
ASSI
100
AcDbLine
 62
7
  6
CONTINUOUS
 10
-19.5108439182
 20
-1.3726497308
 11
-15.4891560818
 21
-1.3726497308
  0
LINE
  5
58E
100
AcDbEntity
  8
ASSI
100
AcDbLine
 62
7
  6
CONTINUOUS
 10
-14.5108439182
 20
-1.3726497308
 11
-10.4891560818
 21
-1.3726497308
  0
LINE
  5
58F
100
AcDbEntity
  8
ASSI
100
AcDbLine
 62
7
  6
CONTINUOUS
 10
-9.5108439182
 20
-1.3726497308
 11
-5.4891560818
 21
-1.3726497308
  0
LINE
  5
590
100
AcDbEntity
  8
CURVE
100
AcDbLine
 62
253
  6
CONTINUOUS
 10
-1.875
 20
0.7
 11
-2.0892857015
 21
0.9142857239
  0
LINE
  5
591
100
AcDbEntity
  8
RACCORDO
100
AcDbLine
 62
253
  6
CONTINUOUS
 10
-19.8911908759
 20
19.1831450453
 11
-19.7753366795
 21
19.067290849
  0
LINE
  5
592
100
AcDbEntity
  8
CURVE
100
AcDbLine
 62
253
  6
CONTINUOUS
 10
3.2045048712
 20
-3.2045048712
 11
4.7954951288
 21
-4.7954951288
  0
LINE
  5
593
100
AcDbEntity
  8
ASSI
100
AcDbLine
 62
253
  6
CONTINUOUS
 10
8.4990863217
 20
-13.5
 11
8.4467051675
 21
-13.4345085856
  0
LINE
  5
594
100
AcDbEntity
  8
CURVE
100
AcDbLine
 62
253
  6
CONTINUOUS
 10
-2.0892857015
 20
0.9142857239
 11
-2.196428597
 21
1.1285714477
  0
LINE
  5
595
100
AcDbEntity
  8
CURVE
100
AcDbLine
 62
253
  6
CONTINUOUS
 10
2.005
 20
-6.7142857015
 11
2.1121428061
 21
-6.928571403
  0
LINE
  5
596
100
AcDbEntity
  8
CURVE
100
AcDbLine
 62
253
  6
CONTINUOUS
 10
2.6478571939
 20
-7.7857142761
 11
2.5407143879
 21
-7.5714285523
  0
LINE
  5
597
100
AcDbEntity
  8
CURVE
100
AcDbLine
 62
253
  6
CONTINUOUS
 10
-1.553571403
 20
1.9857142985
 11
-1.446428597
 21
1.771428597
  0
LINE
  5
598
100
AcDbEntity
  8
CURVE
100
AcDbLine
 62
253
  6
CONTINUOUS
 10
3.1835712242
 20
-6.7142857015
 11
3.2907143879
 21
-6.928571403
  0
LINE
  5
599
100
AcDbEntity
  8
PORTATASTO
100
AcDbLine
 62
7
  6
CONTINUOUS
 10
0.675
 20
23.8
 11
0.6802360356
 21
23.2226497308
  0
LINE
  5
59A
100
AcDbEntity
  8
CURVE
100
AcDbLine
 62
253
  6
CONTINUOUS
 10
0.625
 20
3.75
 11
0.625
 21
3.2
  0
LINE
  5
59B
100
AcDbEntity
  8
CURVE
100
AcDbLine
 62
253
  6
CONTINUOUS
 10
0.625
 20
-2.5
 11
0.625
 21
-5.5
  0
LINE
  5
59C
100
AcDbEntity
  8
PORTATASTO
100
AcDbLine
 62
7
  6
CONTINUOUS
 10
0.675
 20
24.2500034269
 11
0.675
 21
23.8
  0
LINE
  5
59D
100
AcDbEntity
  8
PORTATASTO
100
AcDbLine
 62
7
  6
CONTINUOUS
 10
0.675
 20
-23.8
 11
0.675
 21
-24.2500034269
  0
LINE
  5
59E
100
AcDbEntity
  8
PORTATASTO
100
AcDbLine
 62
7
  6
CONTINUOUS
 10
0.6802360356
 20
23.2226497308
 11
0.6802360356
 21
22.4
  0
LINE
  5
59F
100
AcDbEntity
  8
PORTATASTO
100
AcDbLine
 62
7
  6
CONTINUOUS
 10
0.6802360356
 20
-22.4
 11
0.6802360356
 21
-23.2226497308
  0
LINE
  5
5A0
100
AcDbEntity
  8
CURVE
100
AcDbLine
 62
253
  6
CONTINUOUS
 10
1.0
 20
5.9270248109
 11
1.0
 21
6.65
  0
LINE
  5
5A1
100
AcDbEntity
  8
CURVE
100
AcDbLine
 62
253
  6
CONTINUOUS
 10
1.005
 20
-2.5
 11
1.005
 21
-5.5
  0
LINE
  5
5A2
100
AcDbEntity
  8
CURVE
100
AcDbLine
 62
253
  6
CONTINUOUS
 10
1.2321428061
 20
1.1285714477
 11
1.2321428061
 21
1.771428597
  0
LINE
  5
5A3
100
AcDbEntity
  8
CURVE
100
AcDbLine
 62
253
  6
CONTINUOUS
 10
1.3621428061
 20
-7.5714285523
 11
1.3621428061
 21
-6.928571403
  0
LINE
  5
5A4
100
AcDbEntity
  8
CURVE
100
AcDbLine
 62
253
  6
CONTINUOUS
 10
1.555
 20
-5.5
 11
1.555
 21
-2.5
  0
LINE
  5
5A5
100
AcDbEntity
  8
CURVE
100
AcDbLine
 62
253
  6
CONTINUOUS
 10
1.9821428061
 20
1.771428597
 11
1.9821428061
 21
1.1285714477
  0
LINE
  5
5A6
100
AcDbEntity
  8
CURVE
100
AcDbLine
 62
253
  6
CONTINUOUS
 10
2.1121428061
 20
-6.928571403
 11
2.1121428061
 21
-7.5714285523
  0
LINE
  5
5A7
100
AcDbEntity
  8
CURVE
100
AcDbLine
 62
253
  6
CONTINUOUS
 10
2.4107143879
 20
1.1285714477
 11
2.4107143879
 21
1.771428597
  0
LINE
  5
5A8
100
AcDbEntity
  8
PORTATASTO
100
AcDbLine
 62
7
  6
CONTINUOUS
 10
0.6802360356
 20
-23.2226497308
 11
0.675
 21
-23.8
  0
LINE
  5
5A9
100
AcDbEntity
  8
CURVE
100
AcDbLine
 62
253
  6
CONTINUOUS
 10
1.2321428061
 20
1.771428597
 11
1.3392856121
 21
1.9857142985
  0
LINE
  5
5AA
100
AcDbEntity
  8
CURVE
100
AcDbLine
 62
253
  6
CONTINUOUS
 10
-2.066428597
 20
-6.928571403
 11
-1.9592857015
 21
-6.7142857015
  0
LINE
  5
5AB
100
AcDbEntity
  8
CURVE
100
AcDbLine
 62
253
  6
CONTINUOUS
 10
1.9821428061
 20
1.1285714477
 11
1.875
 21
0.9142857239
  0
LINE
  5
5AC
100
AcDbEntity
  8
CURVE
100
AcDbLine
 62
253
  6
CONTINUOUS
 10
2.4107143879
 20
1.771428597
 11
2.5178571939
 21
1.9857142985
  0
LINE
  5
5AD
100
AcDbEntity
  8
CURVE
100
AcDbLine
 62
253
  6
CONTINUOUS
 10
-1.316428597
 20
-7.5714285523
 11
-1.423571403
 21
-7.7857142761
  0
LINE
  5
5AE
100
AcDbEntity
  8
CURVE
100
AcDbLine
 62
253
  6
CONTINUOUS
 10
3.1607143879
 20
1.1285714477
 11
3.0535712242
 21
0.9142857239
  0
LINE
  5
5AF
100
AcDbEntity
  8
CURVE
100
AcDbLine
 62
253
  6
CONTINUOUS
 10
-7.5468573823
 20
-16.4571428329
 11
-7.6974996648
 21
-16.7285714164
  0
LINE
  5
5B0
100
AcDbEntity
  8
ASSI
100
AcDbLine
 62
253
  6
CONTINUOUS
 10
7.4476188458
 20
8.4339375259
 11
7.5
 21
8.4994289402
  0
LINE
  5
5B1
100
AcDbEntity
  8
ASSI
100
AcDbLine
 62
253
  6
CONTINUOUS
 10
8.4467051675
 20
7.4345085856
 11
8.4990863217
 21
7.5
  0
LINE
  5
5B2
100
AcDbEntity
  8
CURVE
100
AcDbLine
 62
253
  6
CONTINUOUS
 10
2.5178571939
 20
1.9857142985
 11
2.7321431637
 21
2.2
  0
LINE
  5
5B3
100
AcDbEntity
  8
CURVE
100
AcDbLine
 62
253
  6
CONTINUOUS
 10
1.875
 20
0.9142857239
 11
1.6607143879
 21
0.7
  0
LINE
  5
5B4
100
AcDbEntity
  8
CURVE
100
AcDbLine
 62
253
  6
CONTINUOUS
 10
-7.9749999046
 20
-9.3714285553
 11
-7.7035713211
 21
-9.1
  0
LINE
  5
5B5
100
AcDbEntity
  8
CURVE
100
AcDbLine
 62
253
  6
CONTINUOUS
 10
3.0535712242
 20
0.9142857239
 11
2.8392856121
 21
0.7
  0
LINE
  5
5B6
100
AcDbEntity
  8
ASSI
100
AcDbLine
 62
253
  6
CONTINUOUS
 10
20.5652045402
 20
18.1674681916
 11
21.2722036264
 21
18.8744672762
  0
LINE
  5
5B7
100
AcDbEntity
  8
ASSI
100
AcDbLine
 62
253
  6
CONTINUOUS
 10
20.5746195819
 20
18.15805315
 11
21.2816186673
 21
18.8650522354
  0
LINE
  5
5B8
100
AcDbEntity
  8
CURVE
100
AcDbLine
 62
253
  6
CONTINUOUS
 10
-17.589714178
 20
-17.0
 11
-17.4390713927
 21
-16.8642857082
  0
LINE
  5
5B9
100
AcDbEntity
  8
CURVE
100
AcDbLine
 62
253
  6
CONTINUOUS
 10
-15.9326427853
 20
-16.7285714164
 11
-16.2339286073
 21
-17.0
  0
LINE
  5
5BA
100
AcDbEntity
  8
ASSI
100
AcDbLine
 62
7
  6
CONTINUOUS
 10
19.9476188458
 20
7.4738174026
 11
20.0
 21
7.5
  0
LINE
  5
5BB
100
AcDbEntity
  8
CURVE
100
AcDbLine
 62
253
  6
CONTINUOUS
 10
2.8392856121
 20
0.7
 11
2.7321431637
 21
0.7
  0
LINE
  5
5BC
100
AcDbEntity
  8
CURVE
100
AcDbLine
 62
253
  6
CONTINUOUS
 10
1.6607143879
 20
0.7
 11
1.5535715818
 21
0.7
  0
LINE
  5
5BD
100
AcDbEntity
  8
CURVE
100
AcDbLine
 62
253
  6
CONTINUOUS
 10
-1.7678571939
 20
0.7
 11
-1.875
 21
0.7
  0
LINE
  5
5BE
100
AcDbEntity
  8
CURVE
100
AcDbLine
 62
253
  6
CONTINUOUS
 10
-2.625
 20
1.0214285746
 11
-3.375
 21
1.0214285746
  0
LINE
  5
5BF
100
AcDbEntity
  8
CURVE
100
AcDbLine
 62
253
  6
CONTINUOUS
 10
-1.0178571939
 20
1.2357142985
 11
-0.375
 21
1.2357142985
  0
LINE
  5
5C0
100
AcDbEntity
  8
ASSI
100
AcDbLine
 62
7
  6
CONTINUOUS
 10
18.5523811542
 20
1.4345085856
 11
8.4467051675
 21
1.4345085856
  0
LINE
  5
5C1
100
AcDbEntity
  8
ASSI
100
AcDbLine
 62
7
  6
CONTINUOUS
 10
20.8674681916
 20
1.4738174026
 11
19.9476188458
 21
1.4738174026
  0
LINE
  5
5C2
100
AcDbEntity
  8
ASSI
100
AcDbLine
 62
7
  6
CONTINUOUS
 10
20.2787223403
 20
1.5
 11
20.0
 21
1.5
  0
LINE
  5
5C3
100
AcDbEntity
  8
ASSI
100
AcDbLine
 62
7
  6
CONTINUOUS
 10
18.5
 20
1.5
 11
8.4990863217
 21
1.5
  0
LINE
  5
5C4
100
AcDbEntity
  8
ASSI
100
AcDbLine
 62
253
  6
CONTINUOUS
 10
22.2344815161
 20
1.8581334639
 11
20.6010362387
 21
1.8581334639
  0
LINE
  5
5C5
100
AcDbEntity
  8
CURVE
100
AcDbLine
 62
253
  6
CONTINUOUS
 10
-1.875
 20
2.2
 11
-1.7678571939
 21
2.2
  0
LINE
  5
5C6
100
AcDbEntity
  8
CURVE
100
AcDbLine
 62
253
  6
CONTINUOUS
 10
0.0535715818
 20
2.2
 11
0.8035715818
 21
2.2
  0
LINE
  5
5C7
100
AcDbEntity
  8
CURVE
100
AcDbLine
 62
253
  6
CONTINUOUS
 10
1.5535715818
 20
2.2
 11
1.6607143879
 21
2.2
  0
LINE
  5
5C8
100
AcDbEntity
  8
CURVE
100
AcDbLine
 62
253
  6
CONTINUOUS
 10
2.7321431637
 20
2.2
 11
2.8392856121
 21
2.2
  0
LINE
  5
5C9
100
AcDbEntity
  8
ASSI
100
AcDbLine
 62
7
  6
CONTINUOUS
 10
19.9476188458
 20
-7.4738174026
 11
20.0
 21
-7.5
  0
LINE
  5
5CA
100
AcDbEntity
  8
CURVE
100
AcDbLine
 62
253
  6
CONTINUOUS
 10
-1.7678571939
 20
2.2
 11
-1.553571403
 21
1.9857142985
  0
LINE
  5
5CB
100
AcDbEntity
  8
CURVE
100
AcDbLine
 62
253
  6
CONTINUOUS
 10
-9.3285713315
 20
11.3142857224
 11
-9.6
 21
11.5857143342
  0
LINE
  5
5CC
100
AcDbEntity
  8
CURVE
100
AcDbLine
 62
253
  6
CONTINUOUS
 10
1.5535715818
 20
0.7
 11
1.3392856121
 21
0.9142857239
  0
LINE
  5
5CD
100
AcDbEntity
  8
ASSI
100
AcDbLine
 62
253
  6
CONTINUOUS
 10
20.5652045402
 20
-18.1674681916
 11
21.2722036256
 21
-18.874467277
  0
LINE
  5
5CE
100
AcDbEntity
  8
ASSI
100
AcDbLine
 62
253
  6
CONTINUOUS
 10
20.5746195819
 20
-18.15805315
 11
21.2816186669
 21
-18.8650522357
  0
LINE
  5
5CF
100
AcDbEntity
  8
CURVE
100
AcDbLine
 62
253
  6
CONTINUOUS
 10
2.7321431637
 20
0.7
 11
2.5178571939
 21
0.9142857239
  0
LINE
  5
5D0
100
AcDbEntity
  8
ASSI
100
AcDbLine
 62
253
  6
CONTINUOUS
 10
7.5
 20
-8.4994289402
 11
7.4476188458
 21
-8.4339375259
  0
LINE
  5
5D1
100
AcDbEntity
  8
ASSI
100
AcDbLine
 62
253
  6
CONTINUOUS
 10
8.4990863217
 20
-7.5
 11
8.4467051675
 21
-7.4345085856
  0
LINE
  5
5D2
100
AcDbEntity
  8
CURVE
100
AcDbLine
 62
253
  6
CONTINUOUS
 10
-4.307142663
 20
10.7714285836
 11
-4.442857337
 21
11.0428571671
  0
LINE
  5
5D3
100
AcDbEntity
  8
CURVE
100
AcDbLine
 62
253
  6
CONTINUOUS
 10
1.3392856121
 20
0.9142857239
 11
1.2321428061
 21
1.1285714477
  0
LINE
  5
5D4
100
AcDbEntity
  8
CURVE
100
AcDbLine
 62
253
  6
CONTINUOUS
 10
-3.628571558
 20
12.1285714447
 11
-3.492856884
 21
11.8571428895
  0
LINE
  5
5D5
100
AcDbEntity
  8
CURVE
100
AcDbLine
 62
253
  6
CONTINUOUS
 10
-2.95
 20
12.4
 11
-2.407143116
 21
10.5
  0
LINE
  5
5D6
100
AcDbEntity
  8
CURVE
100
AcDbLine
 62
253
  6
CONTINUOUS
 10
3.7192856121
 20
-6.5
 11
4.1478568363
 21
-8.0
  0
LINE
  5
5D7
100
AcDbEntity
  8
PORTATASTO
100
AcDbLine
 62
7
  6
CONTINUOUS
 10
2.9447639644
 20
-23.2226497308
 11
2.95
 21
-23.8
  0
LINE
  5
5D8
100
AcDbEntity
  8
CURVE
100
AcDbLine
 62
253
  6
CONTINUOUS
 10
2.5407143879
 20
-7.5714285523
 11
2.5407143879
 21
-6.928571403
  0
LINE
  5
5D9
100
AcDbEntity
  8
ASSI
100
AcDbLine
 62
7
  6
CONTINUOUS
 10
2.6435241039
 20
22.2935241039
 11
2.6435241039
 21
20.7435241039
  0
LINE
  5
5DA
100
AcDbEntity
  8
ASSI
100
AcDbLine
 62
7
  6
CONTINUOUS
 10
2.6435241039
 20
-22.2935241039
 11
2.6435241039
 21
-20.7435241039
  0
LINE
  5
5DB
100
AcDbEntity
  8
DRAFT
100
AcDbLine
 62
7
  6
CONTINUOUS
 10
2.65
 20
14.1
 11
2.65
 21
16.4
  0
LINE
  5
5DC
100
AcDbEntity
  8
ASSI
100
AcDbLine
 62
7
  6
CONTINUOUS
 10
2.75
 20
22.4
 11
2.75
 21
20.85
  0
LINE
  5
5DD
100
AcDbEntity
  8
ASSI
100
AcDbLine
 62
7
  6
CONTINUOUS
 10
2.75
 20
16.4
 11
2.75
 21
16.3706876291
  0
LINE
  5
5DE
100
AcDbEntity
  8
ASSI
100
AcDbLine
 62
7
  6
CONTINUOUS
 10
2.75
 20
-22.4
 11
2.75
 21
-20.85
  0
LINE
  5
5DF
100
AcDbEntity
  8
ASSI
100
AcDbLine
 62
7
  6
CONTINUOUS
 10
2.75
 20
14.0
 11
2.75
 21
15.0870482079
  0
LINE
  5
5E0
100
AcDbEntity
  8
ASSI
100
AcDbLine
 62
7
  6
CONTINUOUS
 10
2.7630903017
 20
13.9869096983
 11
2.7630903017
 21
16.2869096983
  0
LINE
  5
5E1
100
AcDbEntity
  8
PORTATASTO
100
AcDbLine
 62
7
  6
CONTINUOUS
 10
2.9447639644
 20
23.2226497308
 11
2.9447639644
 21
22.35
  0
LINE
  5
5E2
100
AcDbEntity
  8
PORTATASTO
100
AcDbLine
 62
7
  6
CONTINUOUS
 10
2.9447639644
 20
-22.35
 11
2.9447639644
 21
-23.2226497308
  0
LINE
  5
5E3
100
AcDbEntity
  8
PORTATASTO
100
AcDbLine
 62
7
  6
CONTINUOUS
 10
2.95
 20
-24.2500034269
 11
2.95
 21
-23.8
  0
LINE
  5
5E4
100
AcDbEntity
  8
PORTATASTO
100
AcDbLine
 62
7
  6
CONTINUOUS
 10
2.95
 20
23.8
 11
2.95
 21
24.2500034269
  0
LINE
  5
5E5
100
AcDbEntity
  8
PORTATASTO
100
AcDbLine
 62
7
  6
CONTINUOUS
 10
3.0174550649
 20
-21.4051134101
 11
3.0174550649
 21
-20.9087268678
  0
LINE
  5
5E6
100
AcDbEntity
  8
PORTATASTO
100
AcDbLine
 62
7
  6
CONTINUOUS
 10
3.0174550649
 20
20.9087268678
 11
3.0174550649
 21
21.4051134101
  0
LINE
  5
5E7
100
AcDbEntity
  8
CURVE
100
AcDbLine
 62
253
  6
CONTINUOUS
 10
3.1607143879
 20
1.771428597
 11
3.1607143879
 21
1.1285714477
  0
LINE
  5
5E8
100
AcDbEntity
  8
PORTATASTO
100
AcDbLine
 62
253
  6
CONTINUOUS
 10
3.1834304982
 20
21.4537354271
 11
3.1834304982
 21
20.9917082642
  0
LINE
  5
5E9
100
AcDbEntity
  8
PORTATASTO
100
AcDbLine
 62
253
  6
CONTINUOUS
 10
3.1834304982
 20
-20.9917082642
 11
3.1834304982
 21
-21.4537354271
  0
LINE
  5
5EA
100
AcDbEntity
  8
CURVE
100
AcDbLine
 62
253
  6
CONTINUOUS
 10
3.2907143879
 20
-6.928571403
 11
3.2907143879
 21
-7.5714285523
  0
LINE
  5
5EB
100
AcDbEntity
  8
RACCORDO
100
AcDbLine
 62
7
  6
CONTINUOUS
 10
3.65
 20
19.1831450453
 11
3.65
 21
16.4
  0
LINE
  5
5EC
100
AcDbEntity
  8
PORTATASTO
100
AcDbLine
 62
253
  6
CONTINUOUS
 10
3.6833543458
 20
21.2859869487
 11
3.6833543458
 21
20.9959955457
  0
LINE
  5
5ED
100
AcDbEntity
  8
PORTATASTO
100
AcDbLine
 62
253
  6
CONTINUOUS
 10
3.6833543458
 20
-20.9959955457
 11
3.6833543458
 21
-21.2859869487
  0
LINE
  5
5EE
100
AcDbEntity
  8
ASSI
100
AcDbLine
 62
7
  6
CONTINUOUS
 10
3.7435241039
 20
-19.5935241039
 11
3.7435241039
 21
-20.7435241039
  0
LINE
  5
5EF
100
AcDbEntity
  8
ASSI
100
AcDbLine
 62
7
  6
CONTINUOUS
 10
3.7435241039
 20
19.5935241039
 11
3.7435241039
 21
20.7435241039
  0
LINE
  5
5F0
100
AcDbEntity
  8
ASSI
100
AcDbLine
 62
7
  6
CONTINUOUS
 10
3.75
 20
16.2869096983
 11
3.75
 21
19.3683537664
  0
LINE
  5
5F1
100
AcDbEntity
  8
ASSI
100
AcDbLine
 62
7
  6
CONTINUOUS
 10
3.85
 20
20.85
 11
3.85
 21
19.6948533162
  0
LINE
  5
5F2
100
AcDbEntity
  8
ASSI
100
AcDbLine
 62
7
  6
CONTINUOUS
 10
3.85
 20
-19.6948533162
 11
3.85
 21
-20.85
  0
LINE
  5
5F3
100
AcDbEntity
  8
PORTATASTO
100
AcDbLine
 62
7
  6
CONTINUOUS
 10
3.95
 20
20.9959955457
 11
3.95
 21
19.7
  0
LINE
  5
5F4
100
AcDbEntity
  8
PORTATASTO
100
AcDbLine
 62
7
  6
CONTINUOUS
 10
3.95
 20
-19.7
 11
3.95
 21
-20.9959955457
  0
LINE
  5
5F5
100
AcDbEntity
  8
CURVE
100
AcDbLine
 62
253
  6
CONTINUOUS
 10
4.0
 20
-2.5
 11
4.0
 21
-2.875
  0
LINE
  5
5F6
100
AcDbEntity
  8
CURVE
100
AcDbLine
 62
253
  6
CONTINUOUS
 10
4.0
 20
-5.125
 11
4.0
 21
-5.5
  0
LINE
  5
5F7
100
AcDbEntity
  8
PORTATASTO
100
AcDbLine
 62
7
  6
CONTINUOUS
 10
2.95
 20
23.8
 11
2.9447639644
 21
23.2226497308
  0
LINE
  5
5F8
100
AcDbEntity
  8
CURVE
100
AcDbLine
 62
253
  6
CONTINUOUS
 10
4.5535712242
 20
0.7
 11
4.875
 21
2.2
  0
LINE
  5
5F9
100
AcDbEntity
  8
CURVE
100
AcDbLine
 62
253
  6
CONTINUOUS
 10
0.9335715818
 20
-6.5
 11
0.505
 21
-8.0
  0
LINE
  5
5FA
100
AcDbEntity
  8
CURVE
100
AcDbLine
 62
253
  6
CONTINUOUS
 10
3.9107143879
 20
0.7
 11
4.2321431637
 21
1.771428597
  0
LINE
  5
5FB
100
AcDbEntity
  8
CURVE
100
AcDbLine
 62
253
  6
CONTINUOUS
 10
1.3621428061
 20
-6.928571403
 11
1.4692856121
 21
-6.7142857015
  0
LINE
  5
5FC
100
AcDbEntity
  8
CURVE
100
AcDbLine
 62
253
  6
CONTINUOUS
 10
-5.0361426177
 20
-15.5071428895
 11
-5.3374281883
 21
-16.05
  0
LINE
  5
5FD
100
AcDbEntity
  8
CURVE
100
AcDbLine
 62
253
  6
CONTINUOUS
 10
-3.6803570471
 20
-15.6428571105
 11
-3.5297147646
 21
-15.3714285553
  0
LINE
  5
5FE
100
AcDbEntity
  8
CURVE
100
AcDbLine
 62
253
  6
CONTINUOUS
 10
-5.7391429529
 20
-15.2809523702
 11
-6.9442852354
 21
-16.9547619039
  0
LINE
  5
5FF
100
AcDbEntity
  8
ASSI
100
AcDbLine
 62
7
  6
CONTINUOUS
 10
18.5523811542
 20
16.5654914144
 11
18.5
 21
16.5
  0
LINE
  5
600
100
AcDbEntity
  8
ASSI
100
AcDbLine
 62
253
  6
CONTINUOUS
 10
7.4476188458
 20
2.4339375259
 11
7.5
 21
2.4994289402
  0
LINE
  5
601
100
AcDbEntity
  8
PORTATASTO
100
AcDbLine
 62
7
  6
CONTINUOUS
 10
-15.6155494757
 20
-22.3059037278
 11
-15.6552360356
 21
-22.35
  0
LINE
  5
602
100
AcDbEntity
  8
CURVE
100
AcDbLine
 62
253
  6
CONTINUOUS
 10
-7.2964284599
 20
-11.0
 11
-7.0249999046
 21
-10.7285714164
  0
LINE
  5
603
100
AcDbEntity
  8
CURVE
100
AcDbLine
 62
253
  6
CONTINUOUS
 10
-1.9592857015
 20
-6.7142857015
 11
-1.745
 21
-6.5
  0
LINE
  5
604
100
AcDbEntity
  8
ASSI
100
AcDbLine
 62
253
  6
CONTINUOUS
 10
-14.612975322
 20
-19.5254493507
 11
-14.5550994382
 21
-19.4675734669
  0
LINE
  5
605
100
AcDbEntity
  8
CURVE
100
AcDbLine
 62
253
  6
CONTINUOUS
 10
-1.423571403
 20
-7.7857142761
 11
-1.6378571939
 21
-8.0
  0
LINE
  5
606
100
AcDbEntity
  8
PORTATASTO
100
AcDbLine
 62
7
  6
CONTINUOUS
 10
-18.4905416262
 20
-22.2859700255
 11
-18.5558178298
 21
-22.3441821702
  0
LINE
  5
607
100
AcDbEntity
  8
CURVE
100
AcDbLine
 62
253
  6
CONTINUOUS
 10
-22.3546306717
 20
2.70079
 11
-22.3040263841
 21
2.70079
  0
LINE
  5
608
100
AcDbEntity
  8
ASSI
100
AcDbLine
 62
253
  6
CONTINUOUS
 10
22.2516319481
 20
2.8579811591
 11
20.6164713297
 21
2.8579811591
  0
LINE
  5
609
100
AcDbEntity
  8
ASSI
100
AcDbLine
 62
253
  6
CONTINUOUS
 10
20.6164713297
 20
3.1420188409
 11
22.2516319481
 21
3.1420188409
  0
LINE
  5
60A
100
AcDbEntity
  8
CURVE
100
AcDbLine
 62
253
  6
CONTINUOUS
 10
-22.3319232095
 20
3.323396
 11
-22.3462210622
 21
3.323396
  0
LINE
  5
60B
100
AcDbEntity
  8
CURVE
100
AcDbLine
 62
253
  6
CONTINUOUS
 10
-22.3040263841
 20
3.323396
 11
-22.3235135999
 21
3.323396
  0
LINE
  5
60C
100
AcDbEntity
  8
ASSI
100
AcDbLine
 62
253
  6
CONTINUOUS
 10
20.6010362387
 20
4.1418665361
 11
22.2344815161
 21
4.1418665361
  0
LINE
  5
60D
100
AcDbEntity
  8
CURVE
100
AcDbLine
 62
253
  6
CONTINUOUS
 10
-22.2015412072
 20
4.17619133
 11
-22.2047823682
 21
4.17619133
  0
LINE
  5
60E
100
AcDbEntity
  8
ASSI
100
AcDbLine
 62
7
  6
CONTINUOUS
 10
20.2787223403
 20
4.5
 11
20.0
 21
4.5
  0
LINE
  5
60F
100
AcDbEntity
  8
ASSI
100
AcDbLine
 62
7
  6
CONTINUOUS
 10
8.4990863217
 20
4.5
 11
18.5
 21
4.5
  0
LINE
  5
610
100
AcDbEntity
  8
ASSI
100
AcDbLine
 62
7
  6
CONTINUOUS
 10
20.8674681916
 20
4.5261825974
 11
19.9476188458
 21
4.5261825974
  0
LINE
  5
611
100
AcDbEntity
  8
ASSI
100
AcDbLine
 62
7
  6
CONTINUOUS
 10
8.4467051675
 20
4.5654914144
 11
18.5523811542
 21
4.5654914144
  0
LINE
  5
612
100
AcDbEntity
  8
PORTATASTO
100
AcDbLine
 62
7
  6
CONTINUOUS
 10
-18.4905416262
 20
22.2859700255
 11
-18.5558178298
 21
22.3441821702
  0
LINE
  5
613
100
AcDbEntity
  8
CURVE
100
AcDbLine
 62
253
  6
CONTINUOUS
 10
1.6607143879
 20
2.2
 11
1.875
 21
1.9857142985
  0
LINE
  5
614
100
AcDbEntity
  8
ASSI
100
AcDbLine
 62
253
  6
CONTINUOUS
 10
-14.5550994382
 20
19.4675734669
 11
-14.612975322
 21
19.5254493507
  0
LINE
  5
615
100
AcDbEntity
  8
CURVE
100
AcDbLine
 62
253
  6
CONTINUOUS
 10
2.8392856121
 20
2.2
 11
3.0535712242
 21
1.9857142985
  0
LINE
  5
616
100
AcDbEntity
  8
CURVE
100
AcDbLine
 62
253
  6
CONTINUOUS
 10
1.5088834765
 20
4.1161165235
 11
1.8977922061
 21
3.7272077939
  0
LINE
  5
617
100
AcDbEntity
  8
CURVE
100
AcDbLine
 62
253
  6
CONTINUOUS
 10
-6.342857337
 20
12.1285714447
 11
-6.614285779
 21
12.4
  0
LINE
  5
618
100
AcDbEntity
  8
CURVE
100
AcDbLine
 62
253
  6
CONTINUOUS
 10
-4.985714221
 20
11.3142857224
 11
-5.257142663
 21
11.5857143342
  0
LINE
  5
619
100
AcDbEntity
  8
CURVE
100
AcDbLine
 62
253
  6
CONTINUOUS
 10
-4.035714221
 20
10.5
 11
-4.307142663
 21
10.7714285836
  0
LINE
  5
61A
100
AcDbEntity
  8
PORTATASTO
100
AcDbLine
 62
7
  6
CONTINUOUS
 10
-15.6552360356
 20
22.35
 11
-15.6155494757
 21
22.3059037278
  0
LINE
  5
61B
100
AcDbEntity
  8
ASSI
100
AcDbLine
 62
7
  6
CONTINUOUS
 10
18.5523811542
 20
-16.5654914144
 11
18.5
 21
-16.5
  0
LINE
  5
61C
100
AcDbEntity
  8
ASSI
100
AcDbLine
 62
253
  6
CONTINUOUS
 10
7.5
 20
-2.4994289402
 11
7.4476188458
 21
-2.4339375259
  0
LINE
  5
61D
100
AcDbEntity
  8
CURVE
100
AcDbLine
 62
253
  6
CONTINUOUS
 10
1.875
 20
1.9857142985
 11
1.9821428061
 21
1.771428597
  0
LINE
  5
61E
100
AcDbEntity
  8
CURVE
100
AcDbLine
 62
253
  6
CONTINUOUS
 10
2.5178571939
 20
0.9142857239
 11
2.4107143879
 21
1.1285714477
  0
LINE
  5
61F
100
AcDbEntity
  8
CURVE
100
AcDbLine
 62
253
  6
CONTINUOUS
 10
3.0535712242
 20
1.9857142985
 11
3.1607143879
 21
1.771428597
  0
LINE
  5
620
100
AcDbEntity
  8
CURVE
100
AcDbLine
 62
253
  6
CONTINUOUS
 10
4.2321431637
 20
1.771428597
 11
4.5535712242
 21
0.7
  0
LINE
  5
621
100
AcDbEntity
  8
CURVE
100
AcDbLine
 62
253
  6
CONTINUOUS
 10
5.3978570747
 20
-6.5
 11
5.826428299
 21
-8.0
  0
LINE
  5
622
100
AcDbEntity
  8
CURVE
100
AcDbLine
 62
253
  6
CONTINUOUS
 10
3.5892856121
 20
2.2
 11
3.9107143879
 21
0.7
  0
LINE
  5
623
100
AcDbEntity
  8
PORTATASTO
100
AcDbLine
 62
7
  6
CONTINUOUS
 10
4.75
 20
20.0
 11
4.75
 21
19.7
  0
LINE
  5
624
100
AcDbEntity
  8
PORTATASTO
100
AcDbLine
 62
7
  6
CONTINUOUS
 10
4.75
 20
-19.7
 11
4.75
 21
-20.0
  0
LINE
  5
625
100
AcDbEntity
  8
ASSI
100
AcDbLine
 62
7
  6
CONTINUOUS
 10
5.5
 20
19.9
 11
5.5
 21
19.5254493507
  0
LINE
  5
626
100
AcDbEntity
  8
ASSI
100
AcDbLine
 62
7
  6
CONTINUOUS
 10
5.5
 20
-19.5254493507
 11
5.5
 21
-19.9
  0
LINE
  5
627
100
AcDbEntity
  8
PORTATASTO
100
AcDbLine
 62
7
  6
CONTINUOUS
 10
6.8447639644
 20
-22.35
 11
6.8447639644
 21
-22.85711136
  0
LINE
  5
628
100
AcDbEntity
  8
PORTATASTO
100
AcDbLine
 62
7
  6
CONTINUOUS
 10
6.8447639644
 20
22.35
 11
6.8447639644
 21
22.85711136
  0
LINE
  5
629
100
AcDbEntity
  8
PORTATASTO
100
AcDbLine
 62
7
  6
CONTINUOUS
 10
6.8840342314
 20
23.4906890903
 11
6.8840342314
 21
22.8093109097
  0
LINE
  5
62A
100
AcDbEntity
  8
PORTATASTO
100
AcDbLine
 62
7
  6
CONTINUOUS
 10
6.8840342314
 20
-23.4906890903
 11
6.8840342314
 21
-22.8093109097
  0
LINE
  5
62B
100
AcDbEntity
  8
CURVE
100
AcDbLine
 62
253
  6
CONTINUOUS
 10
4.1478568363
 20
-8.0
 11
4.5764287758
 21
-6.5
  0
LINE
  5
62C
100
AcDbEntity
  8
CURVE
100
AcDbLine
 62
253
  6
CONTINUOUS
 10
2.1121428061
 20
-7.5714285523
 11
2.005
 21
-7.7857142761
  0
LINE
  5
62D
100
AcDbEntity
  8
CURVE
100
AcDbLine
 62
253
  6
CONTINUOUS
 10
2.5407143879
 20
-6.928571403
 11
2.6478571939
 21
-6.7142857015
  0
LINE
  5
62E
100
AcDbEntity
  8
CURVE
100
AcDbLine
 62
253
  6
CONTINUOUS
 10
3.2907143879
 20
-7.5714285523
 11
3.1835712242
 21
-7.7857142761
  0
LINE
  5
62F
100
AcDbEntity
  8
CURVE
100
AcDbLine
 62
253
  6
CONTINUOUS
 10
-2.6258570471
 20
-16.4571428329
 11
-2.7764993296
 21
-16.7285714164
  0
LINE
  5
630
100
AcDbEntity
  8
ASSI
100
AcDbLine
 62
253
  6
CONTINUOUS
 10
8.4467051675
 20
1.4345085856
 11
8.4990863217
 21
1.5
  0
LINE
  5
631
100
AcDbEntity
  8
ASSI
100
AcDbLine
 62
7
  6
CONTINUOUS
 10
20.2787223403
 20
13.5
 11
20.6010362387
 21
13.8581334639
  0
LINE
  5
632
100
AcDbEntity
  8
PORTATASTO
100
AcDbLine
 62
253
  6
CONTINUOUS
 10
16.6
 20
9.4999238476
 11
16.6209460779
 21
9.5208699255
  0
LINE
  5
633
100
AcDbEntity
  8
CURVE
100
AcDbLine
 62
253
  6
CONTINUOUS
 10
3.2045048712
 20
-4.7954951288
 11
4.7954951288
 21
-3.2045048712
  0
LINE
  5
634
100
AcDbEntity
  8
PORTATASTO
100
AcDbLine
 62
253
  6
CONTINUOUS
 10
17.0999238476
 20
9.0
 11
17.1208699255
 21
9.0209460779
  0
LINE
  5
635
100
AcDbEntity
  8
PORTATASTO
100
AcDbLine
 62
7
  6
CONTINUOUS
 10
-15.65
 20
-23.8
 11
-15.6159383532
 21
-23.7659383532
  0
LINE
  5
636
100
AcDbEntity
  8
CURVE
100
AcDbLine
 62
253
  6
CONTINUOUS
 10
1.4692856121
 20
-6.7142857015
 11
1.6835715818
 21
-6.5
  0
LINE
  5
637
100
AcDbEntity
  8
ASSI
100
AcDbLine
 62
7
  6
CONTINUOUS
 10
22.2344815161
 20
13.8581334639
 11
21.8673158868
 21
13.4909678346
  0
LINE
  5
638
100
AcDbEntity
  8
CURVE
100
AcDbLine
 62
253
  6
CONTINUOUS
 10
2.6478571939
 20
-6.7142857015
 11
2.8621431637
 21
-6.5
  0
LINE
  5
639
100
AcDbEntity
  8
CURVE
100
AcDbLine
 62
253
  6
CONTINUOUS
 10
2.005
 20
-7.7857142761
 11
1.7907143879
 21
-8.0
  0
LINE
  5
63A
100
AcDbEntity
  8
CURVE
100
AcDbLine
 62
253
  6
CONTINUOUS
 10
-8.4507140942
 20
-15.3714285553
 11
-8.1494285235
 21
-15.1
  0
LINE
  5
63B
100
AcDbEntity
  8
CURVE
100
AcDbLine
 62
253
  6
CONTINUOUS
 10
-9.5052140942
 20
-17.0
 11
-9.2039285235
 21
-16.7285714164
  0
LINE
  5
63C
100
AcDbEntity
  8
PORTATASTO
100
AcDbLine
 62
253
  6
CONTINUOUS
 10
-22.35
 20
-21.850016923
 11
-22.3412731322
 21
-21.8441990932
  0
LINE
  5
63D
100
AcDbEntity
  8
CURVE
100
AcDbLine
 62
253
  6
CONTINUOUS
 10
-17.7403572147
 20
-15.9142856658
 11
-17.4892857382
 21
-15.7785714447
  0
LINE
  5
63E
100
AcDbEntity
  8
CURVE
100
AcDbLine
 62
253
  6
CONTINUOUS
 10
-22.1885765622
 20
4.82619133
 11
-22.1918177235
 21
4.82619133
  0
LINE
  5
63F
100
AcDbEntity
  8
CURVE
100
AcDbLine
 62
253
  6
CONTINUOUS
 10
-0.625
 20
5.0
 11
-1.175
 21
5.0
  0
LINE
  5
640
100
AcDbEntity
  8
CURVE
100
AcDbLine
 62
253
  6
CONTINUOUS
 10
1.875
 20
5.0
 11
2.425
 21
5.0
  0
LINE
  5
641
100
AcDbEntity
  8
CURVE
100
AcDbLine
 62
253
  6
CONTINUOUS
 10
-22.3040263841
 20
5.171133
 11
-22.3546306717
 21
5.171133
  0
LINE
  5
642
100
AcDbEntity
  8
CURVE
100
AcDbLine
 62
253
  6
CONTINUOUS
 10
-22.2080235292
 20
5.1976198792
 11
-22.1853354008
 21
5.1976198792
  0
LINE
  5
643
100
AcDbEntity
  8
CURVE
100
AcDbLine
 62
253
  6
CONTINUOUS
 10
-22.3546306717
 20
5.793739
 11
-22.3124359936
 21
5.793739
  0
LINE
  5
644
100
AcDbEntity
  8
CURVE
100
AcDbLine
 62
253
  6
CONTINUOUS
 10
1.0
 20
6.65
 11
0.25
 21
6.65
  0
LINE
  5
645
100
AcDbEntity
  8
CURVE
100
AcDbLine
 62
253
  6
CONTINUOUS
 10
-22.3124359936
 20
6.866738
 11
-22.3040263841
 21
6.866738
  0
LINE
  5
646
100
AcDbEntity
  8
ASSI
100
AcDbLine
 62
7
  6
CONTINUOUS
 10
-21.8673158868
 20
16.2954842613
 11
-22.0177340781
 21
16.3706876291
  0
LINE
  5
647
100
AcDbEntity
  8
PORTATASTO
100
AcDbLine
 62
253
  6
CONTINUOUS
 10
-22.3412731322
 20
21.8441990932
 11
-22.35
 21
21.850016923
  0
LINE
  5
648
100
AcDbEntity
  8
PORTATASTO
100
AcDbLine
 62
7
  6
CONTINUOUS
 10
-15.65
 20
23.8
 11
-15.6159383532
 21
23.7659383532
  0
LINE
  5
649
100
AcDbEntity
  8
ASSI
100
AcDbLine
 62
7
  6
CONTINUOUS
 10
21.8673158868
 20
-13.4909678346
 11
22.2344815161
 21
-13.8581334639
  0
LINE
  5
64A
100
AcDbEntity
  8
CURVE
100
AcDbLine
 62
253
  6
CONTINUOUS
 10
-3.9
 20
12.4
 11
-3.628571558
 21
12.1285714447
  0
LINE
  5
64B
100
AcDbEntity
  8
ASSI
100
AcDbLine
 62
7
  6
CONTINUOUS
 10
20.2787223403
 20
-13.5
 11
20.6010362387
 21
-13.8581334639
  0
LINE
  5
64C
100
AcDbEntity
  8
ASSI
100
AcDbLine
 62
253
  6
CONTINUOUS
 10
8.4990863217
 20
-1.5
 11
8.4467051675
 21
-1.4345085856
  0
LINE
  5
64D
100
AcDbEntity
  8
PORTATASTO
100
AcDbLine
 62
7
  6
CONTINUOUS
 10
6.8531380206
 20
23.4539868749
 11
6.85
 21
23.8
  0
LINE
  5
64E
100
AcDbEntity
  8
PORTATASTO
100
AcDbLine
 62
7
  6
CONTINUOUS
 10
7.7171963873
 20
23.7589217043
 11
7.7298765698
 21
22.3059166979
  0
LINE
  5
64F
100
AcDbEntity
  8
PORTATASTO
100
AcDbLine
 62
7
  6
CONTINUOUS
 10
7.7168379024
 20
23.8
 11
7.7171351539
 21
23.7659383532
  0
LINE
  5
650
100
AcDbEntity
  8
PORTATASTO
100
AcDbLine
 62
7
  6
CONTINUOUS
 10
8.257854181
 20
20.8
 11
8.2447330057
 21
22.3035377648
  0
LINE
  5
651
100
AcDbEntity
  8
ASSI
100
AcDbLine
 62
7
  6
CONTINUOUS
 10
7.4476188458
 20
-15.5660624741
 11
7.4476188458
 21
-14.4339375259
  0
LINE
  5
652
100
AcDbEntity
  8
ASSI
100
AcDbLine
 62
7
  6
CONTINUOUS
 10
7.4476188458
 20
-9.5660624741
 11
7.4476188458
 21
-8.4339375259
  0
LINE
  5
653
100
AcDbEntity
  8
ASSI
100
AcDbLine
 62
7
  6
CONTINUOUS
 10
7.4476188458
 20
-3.5660624741
 11
7.4476188458
 21
-2.4339375259
  0
LINE
  5
654
100
AcDbEntity
  8
ASSI
100
AcDbLine
 62
7
  6
CONTINUOUS
 10
7.4476188458
 20
2.4339375259
 11
7.4476188458
 21
3.5660624741
  0
LINE
  5
655
100
AcDbEntity
  8
ASSI
100
AcDbLine
 62
7
  6
CONTINUOUS
 10
7.4476188458
 20
8.4339375259
 11
7.4476188458
 21
9.5660624741
  0
LINE
  5
656
100
AcDbEntity
  8
ASSI
100
AcDbLine
 62
7
  6
CONTINUOUS
 10
7.4476188458
 20
14.4339375259
 11
7.4476188458
 21
15.5660624741
  0
LINE
  5
657
100
AcDbEntity
  8
ASSI
100
AcDbLine
 62
7
  6
CONTINUOUS
 10
7.5
 20
-15.5005710598
 11
7.5
 21
-14.4994289402
  0
LINE
  5
658
100
AcDbEntity
  8
ASSI
100
AcDbLine
 62
7
  6
CONTINUOUS
 10
7.5
 20
-9.5005710598
 11
7.5
 21
-8.4994289402
  0
LINE
  5
659
100
AcDbEntity
  8
ASSI
100
AcDbLine
 62
7
  6
CONTINUOUS
 10
7.5
 20
-3.5005710598
 11
7.5
 21
-2.4994289402
  0
LINE
  5
65A
100
AcDbEntity
  8
ASSI
100
AcDbLine
 62
7
  6
CONTINUOUS
 10
7.5
 20
2.4994289402
 11
7.5
 21
3.5005710598
  0
LINE
  5
65B
100
AcDbEntity
  8
ASSI
100
AcDbLine
 62
7
  6
CONTINUOUS
 10
7.5
 20
8.4994289402
 11
7.5
 21
9.5005710598
  0
LINE
  5
65C
100
AcDbEntity
  8
ASSI
100
AcDbLine
 62
7
  6
CONTINUOUS
 10
7.5
 20
14.4994289402
 11
7.5
 21
15.5005710598
  0
LINE
  5
65D
100
AcDbEntity
  8
ASSI
100
AcDbLine
 62
7
  6
CONTINUOUS
 10
7.85
 20
-20.0
 11
7.85
 21
-19.9
  0
LINE
  5
65E
100
AcDbEntity
  8
ASSI
100
AcDbLine
 62
7
  6
CONTINUOUS
 10
7.85
 20
19.9
 11
7.85
 21
20.0
  0
LINE
  5
65F
100
AcDbEntity
  8
ASSI
100
AcDbLine
 62
253
  6
CONTINUOUS
 10
8.85
 20
-20.0
 11
8.85
 21
-19.9
  0
LINE
  5
660
100
AcDbEntity
  8
ASSI
100
AcDbLine
 62
253
  6
CONTINUOUS
 10
8.85
 20
19.9
 11
8.85
 21
20.0
  0
LINE
  5
661
100
AcDbEntity
  8
ASSI
100
AcDbLine
 62
253
  6
CONTINUOUS
 10
9.0
 20
19.5226472899
 11
9.0
 21
19.4672432928
  0
LINE
  5
662
100
AcDbEntity
  8
ASSI
100
AcDbLine
 62
253
  6
CONTINUOUS
 10
9.0
 20
19.3128661497
 11
9.0
 21
19.2581018978
  0
LINE
  5
663
100
AcDbEntity
  8
ASSI
100
AcDbLine
 62
253
  6
CONTINUOUS
 10
9.0
 20
19.4177567198
 11
9.0
 21
19.3626725953
  0
LINE
  5
664
100
AcDbEntity
  8
ASSI
100
AcDbLine
 62
253
  6
CONTINUOUS
 10
9.0000000082
 20
-19.5226472899
 11
9.0000000077
 21
-19.4672432928
  0
LINE
  5
665
100
AcDbEntity
  8
ASSI
100
AcDbLine
 62
253
  6
CONTINUOUS
 10
9.0000000081
 20
-19.3128661497
 11
9.0000000075
 21
-19.2581018978
  0
LINE
  5
666
100
AcDbEntity
  8
ASSI
100
AcDbLine
 62
253
  6
CONTINUOUS
 10
9.0000000081
 20
-19.4177567198
 11
9.0000000076
 21
-19.3626725953
  0
LINE
  5
667
100
AcDbEntity
  8
PORTATASTO
100
AcDbLine
 62
7
  6
CONTINUOUS
 10
7.7168379024
 20
-23.8
 11
7.7171351539
 21
-23.7659383532
  0
LINE
  5
668
100
AcDbEntity
  8
PORTATASTO
100
AcDbLine
 62
7
  6
CONTINUOUS
 10
7.7298765698
 20
-22.3059166979
 11
7.7171963873
 21
-23.7589217043
  0
LINE
  5
669
100
AcDbEntity
  8
PORTATASTO
100
AcDbLine
 62
7
  6
CONTINUOUS
 10
8.257854181
 20
-20.8
 11
8.2447330057
 21
-22.3035377648
  0
LINE
  5
66A
100
AcDbEntity
  8
PORTATASTO
100
AcDbLine
 62
7
  6
CONTINUOUS
 10
6.85
 20
-23.8
 11
6.8531380206
 21
-23.4539868749
  0
LINE
  5
66B
100
AcDbEntity
  8
CURVE
100
AcDbLine
 62
253
  6
CONTINUOUS
 10
4.9692858505
 20
-8.0
 11
5.3978570747
 21
-6.5
  0
LINE
  5
66C
100
AcDbEntity
  8
CURVE
100
AcDbLine
 62
253
  6
CONTINUOUS
 10
0.5376429529
 20
-15.6428571105
 11
-0.3662147646
 21
-17.0
  0
LINE
  5
66D
100
AcDbEntity
  8
ASSI
100
AcDbLine
 62
7
  6
CONTINUOUS
 10
18.5523811542
 20
10.5654914144
 11
18.5
 21
10.5
  0
LINE
  5
66E
100
AcDbEntity
  8
ASSI
100
AcDbLine
 62
253
  6
CONTINUOUS
 10
7.4476188458
 20
-3.5660624741
 11
7.5
 21
-3.5005710598
  0
LINE
  5
66F
100
AcDbEntity
  8
CURVE
100
AcDbLine
 62
253
  6
CONTINUOUS
 10
3.1835712242
 20
-7.7857142761
 11
2.9692856121
 21
-8.0
  0
LINE
  5
670
100
AcDbEntity
  8
CURVE
100
AcDbLine
 62
253
  6
CONTINUOUS
 10
-7.6974996648
 20
-16.7285714164
 11
-7.9987852354
 21
-17.0
  0
LINE
  5
671
100
AcDbEntity
  8
CURVE
100
AcDbLine
 62
253
  6
CONTINUOUS
 10
-4.5842147646
 20
-15.1
 11
-5.0361426177
 21
-15.5071428895
  0
LINE
  5
672
100
AcDbEntity
  8
CURVE
100
AcDbLine
 62
253
  6
CONTINUOUS
 10
-3.5297147646
 20
-15.3714285553
 11
-3.2284281883
 21
-15.1
  0
LINE
  5
673
100
AcDbEntity
  8
ASSI
100
AcDbLine
 62
7
  6
CONTINUOUS
 10
19.9476188458
 20
1.4738174026
 11
20.0
 21
1.5
  0
LINE
  5
674
100
AcDbEntity
  8
ASSI
100
AcDbLine
 62
253
  6
CONTINUOUS
 10
-22.4
 20
-17.6716990487
 11
-21.8673158868
 21
-17.4510540646
  0
LINE
  5
675
100
AcDbEntity
  8
ASSI
100
AcDbLine
 62
7
  6
CONTINUOUS
 10
18.5523811542
 20
7.4345085856
 11
8.4467051675
 21
7.4345085856
  0
LINE
  5
676
100
AcDbEntity
  8
ASSI
100
AcDbLine
 62
7
  6
CONTINUOUS
 10
20.8674681916
 20
7.4738174026
 11
19.9476188458
 21
7.4738174026
  0
LINE
  5
677
100
AcDbEntity
  8
ASSI
100
AcDbLine
 62
7
  6
CONTINUOUS
 10
20.2787223403
 20
7.5
 11
20.0
 21
7.5
  0
LINE
  5
678
100
AcDbEntity
  8
ASSI
100
AcDbLine
 62
7
  6
CONTINUOUS
 10
18.5
 20
7.5
 11
8.4990863217
 21
7.5
  0
LINE
  5
679
100
AcDbEntity
  8
ASSI
100
AcDbLine
 62
253
  6
CONTINUOUS
 10
22.2344815161
 20
7.8581334639
 11
20.6010362387
 21
7.8581334639
  0
LINE
  5
67A
100
AcDbEntity
  8
CURVE
100
AcDbLine
 62
253
  6
CONTINUOUS
 10
-22.1853354008
 20
8.2309532642
 11
-22.2080235292
 21
8.2309532642
  0
LINE
  5
67B
100
AcDbEntity
  8
ASSI
100
AcDbLine
 62
253
  6
CONTINUOUS
 10
22.2516319481
 20
8.8579811591
 11
20.6164713297
 21
8.8579811591
  0
LINE
  5
67C
100
AcDbEntity
  8
PORTATASTO
100
AcDbLine
 62
7
  6
CONTINUOUS
 10
18.1000761524
 20
9.0
 11
17.0999238476
 21
9.0
  0
LINE
  5
67D
100
AcDbEntity
  8
PORTATASTO
100
AcDbLine
 62
7
  6
CONTINUOUS
 10
17.1208699255
 20
9.0209460779
 11
18.0791300745
 21
9.0209460779
  0
LINE
  5
67E
100
AcDbEntity
  8
ASSI
100
AcDbLine
 62
253
  6
CONTINUOUS
 10
20.6164713297
 20
9.1420188409
 11
22.2516319481
 21
9.1420188409
  0
LINE
  5
67F
100
AcDbEntity
  8
ASSI
100
AcDbLine
 62
253
  6
CONTINUOUS
 10
-22.0177340781
 20
17.5133593194
 11
-22.4
 21
17.6716990487
  0
LINE
  5
680
100
AcDbEntity
  8
ASSI
100
AcDbLine
 62
7
  6
CONTINUOUS
 10
19.9476188458
 20
-1.4738174026
 11
20.0
 21
-1.5
  0
LINE
  5
681
100
AcDbEntity
  8
ASSI
100
AcDbLine
 62
7
  6
CONTINUOUS
 10
18.5523811542
 20
-10.5654914144
 11
18.5
 21
-10.5
  0
LINE
  5
682
100
AcDbEntity
  8
ASSI
100
AcDbLine
 62
253
  6
CONTINUOUS
 10
7.5
 20
3.5005710598
 11
7.4476188458
 21
3.5660624741
  0
LINE
  5
683
100
AcDbEntity
  8
ASSI
100
AcDbLine
 62
7
  6
CONTINUOUS
 10
20.0058962398
 20
20.7435241039
 11
20.05
 21
20.85
  0
LINE
  5
684
100
AcDbEntity
  8
ASSI
100
AcDbLine
 62
253
  6
CONTINUOUS
 10
8.4467051675
 20
-4.5654914144
 11
8.4990863217
 21
-4.5
  0
LINE
  5
685
100
AcDbEntity
  8
ASSI
100
AcDbLine
 62
7
  6
CONTINUOUS
 10
20.2787223403
 20
7.5
 11
20.6010362387
 21
7.8581334639
  0
LINE
  5
686
100
AcDbEntity
  8
ASSI
100
AcDbLine
 62
7
  6
CONTINUOUS
 10
22.2344815161
 20
7.8581334639
 11
21.8673158868
 21
7.4909678346
  0
LINE
  5
687
100
AcDbEntity
  8
ASSI
100
AcDbLine
 62
7
  6
CONTINUOUS
 10
-3.8448533162
 20
-19.6948533162
 11
-3.7435241039
 21
-19.5935241039
  0
LINE
  5
688
100
AcDbEntity
  8
CURVE
100
AcDbLine
 62
253
  6
CONTINUOUS
 10
-4.5842147646
 20
-17.0
 11
-4.2829281883
 21
-16.7285714164
  0
LINE
  5
689
100
AcDbEntity
  8
CURVE
100
AcDbLine
 62
253
  6
CONTINUOUS
 10
-2.7764993296
 20
-16.7285714164
 11
-3.0777859058
 21
-17.0
  0
LINE
  5
68A
100
AcDbEntity
  8
ASSI
100
AcDbLine
 62
253
  6
CONTINUOUS
 10
-21.8143027805
 20
-19.0856972195
 11
-21.2816186673
 21
-18.8650522354
  0
LINE
  5
68B
100
AcDbEntity
  8
CURVE
100
AcDbLine
 62
253
  6
CONTINUOUS
 10
-13.3717144294
 20
-16.4119047403
 11
-13.0202142618
 21
-16.2761904627
  0
LINE
  5
68C
100
AcDbEntity
  8
ASSI
100
AcDbLine
 62
253
  6
CONTINUOUS
 10
20.6010362387
 20
10.1418665361
 11
22.2344815161
 21
10.1418665361
  0
LINE
  5
68D
100
AcDbEntity
  8
CURVE
100
AcDbLine
 62
253
  6
CONTINUOUS
 10
-22.1853354008
 20
10.1809532642
 11
-22.2080235292
 21
10.1809532642
  0
LINE
  5
68E
100
AcDbEntity
  8
CURVE
100
AcDbLine
 62
253
  6
CONTINUOUS
 10
-22.3040263841
 20
10.292325
 11
-22.3546306717
 21
10.292325
  0
LINE
  5
68F
100
AcDbEntity
  8
ASSI
100
AcDbLine
 62
7
  6
CONTINUOUS
 10
20.2787223403
 20
10.5
 11
20.0
 21
10.5
  0
LINE
  5
690
100
AcDbEntity
  8
CURVE
100
AcDbLine
 62
253
  6
CONTINUOUS
 10
-10.1428571105
 20
10.5
 11
-9.6
 21
10.5
  0
LINE
  5
691
100
AcDbEntity
  8
CURVE
100
AcDbLine
 62
253
  6
CONTINUOUS
 10
-5.8
 20
10.5
 11
-5.257142663
 21
10.5
  0
LINE
  5
692
100
AcDbEntity
  8
CURVE
100
AcDbLine
 62
253
  6
CONTINUOUS
 10
-3.9
 20
10.5
 11
-4.035714221
 21
10.5
  0
LINE
  5
693
100
AcDbEntity
  8
CURVE
100
AcDbLine
 62
253
  6
CONTINUOUS
 10
-6.342857337
 20
10.5
 11
-7.292857337
 21
10.5
  0
LINE
  5
694
100
AcDbEntity
  8
ASSI
100
AcDbLine
 62
7
  6
CONTINUOUS
 10
8.4990863217
 20
10.5
 11
18.5
 21
10.5
  0
LINE
  5
695
100
AcDbEntity
  8
ASSI
100
AcDbLine
 62
7
  6
CONTINUOUS
 10
20.8674681916
 20
10.5261825974
 11
19.9476188458
 21
10.5261825974
  0
LINE
  5
696
100
AcDbEntity
  8
ASSI
100
AcDbLine
 62
7
  6
CONTINUOUS
 10
8.4467051675
 20
10.5654914144
 11
18.5523811542
 21
10.5654914144
  0
LINE
  5
697
100
AcDbEntity
  8
CURVE
100
AcDbLine
 62
253
  6
CONTINUOUS
 10
-13.5
 20
10.7
 11
-18.0
 21
10.7
  0
LINE
  5
698
100
AcDbEntity
  8
CURVE
100
AcDbLine
 62
253
  6
CONTINUOUS
 10
-22.2047823682
 20
10.8309532642
 11
-22.1885765622
 21
10.8309532642
  0
LINE
  5
699
100
AcDbEntity
  8
CURVE
100
AcDbLine
 62
253
  6
CONTINUOUS
 10
-22.2710340745
 20
10.8428564042
 11
-22.2378745023
 21
10.8428564042
  0
LINE
  5
69A
100
AcDbEntity
  8
CURVE
100
AcDbLine
 62
253
  6
CONTINUOUS
 10
-22.3463787381
 20
10.87477
 11
-22.3040263841
 21
10.87477
  0
LINE
  5
69B
100
AcDbEntity
  8
ASSI
100
AcDbLine
 62
253
  6
CONTINUOUS
 10
-21.4320368586
 20
18.9273574902
 11
-21.8143027805
 21
19.0856972195
  0
LINE
  5
69C
100
AcDbEntity
  8
ASSI
100
AcDbLine
 62
7
  6
CONTINUOUS
 10
21.8673158868
 20
-7.4909678346
 11
22.2344815161
 21
-7.8581334639
  0
LINE
  5
69D
100
AcDbEntity
  8
ASSI
100
AcDbLine
 62
7
  6
CONTINUOUS
 10
-3.8448533162
 20
19.6948533162
 11
-3.7435241039
 21
19.5935241039
  0
LINE
  5
69E
100
AcDbEntity
  8
ASSI
100
AcDbLine
 62
7
  6
CONTINUOUS
 10
20.2787223403
 20
-7.5
 11
20.6010362387
 21
-7.8581334639
  0
LINE
  5
69F
100
AcDbEntity
  8
ASSI
100
AcDbLine
 62
253
  6
CONTINUOUS
 10
8.4990863217
 20
4.5
 11
8.4467051675
 21
4.5654914144
  0
LINE
  5
6A0
100
AcDbEntity
  8
ASSI
100
AcDbLine
 62
7
  6
CONTINUOUS
 10
2.65
 20
15.2870634407
 11
2.75
 21
15.0870482079
  0
LINE
  5
6A1
100
AcDbEntity
  8
ASSI
100
AcDbLine
 62
7
  6
CONTINUOUS
 10
20.0058962398
 20
-20.7435241039
 11
20.05
 21
-20.85
  0
LINE
  5
6A2
100
AcDbEntity
  8
PORTATASTO
100
AcDbLine
 62
7
  6
CONTINUOUS
 10
20.127202078
 20
20.8318698869
 11
20.1498936624
 21
20.9
  0
LINE
  5
6A3
100
AcDbEntity
  8
PORTATASTO
100
AcDbLine
 62
7
  6
CONTINUOUS
 10
20.8273084156
 20
20.1309095371
 11
20.85
 21
20.1990396502
  0
LINE
  5
6A4
100
AcDbEntity
  8
ASSI
100
AcDbLine
 62
253
  6
CONTINUOUS
 10
20.5652045402
 20
19.1673158868
 11
20.7417457641
 21
19.5935241039
  0
LINE
  5
6A5
100
AcDbEntity
  8
ASSI
100
AcDbLine
 62
253
  6
CONTINUOUS
 10
21.2722036256
 20
18.874467277
 11
21.4487448495
 21
19.3006754942
  0
LINE
  5
6A6
100
AcDbEntity
  8
ASSI
100
AcDbLine
 62
7
  6
CONTINUOUS
 10
18.5523811542
 20
4.5654914144
 11
18.5
 21
4.5
  0
LINE
  5
6A7
100
AcDbEntity
  8
ASSI
100
AcDbLine
 62
253
  6
CONTINUOUS
 10
7.4476188458
 20
-9.5660624741
 11
7.5
 21
-9.5005710598
  0
LINE
  5
6A8
100
AcDbEntity
  8
ASSI
100
AcDbLine
 62
253
  6
CONTINUOUS
 10
8.4467051675
 20
-10.5654914144
 11
8.4990863217
 21
-10.5
  0
LINE
  5
6A9
100
AcDbEntity
  8
ASSI
100
AcDbLine
 62
7
  6
CONTINUOUS
 10
-3.7435241039
 20
-20.7435241039
 11
-3.85
 21
-20.85
  0
LINE
  5
6AA
100
AcDbEntity
  8
ASSI
100
AcDbLine
 62
7
  6
CONTINUOUS
 10
-2.75
 20
-20.85
 11
-2.6435241039
 21
-20.7435241039
  0
LINE
  5
6AB
100
AcDbEntity
  8
PORTATASTO
100
AcDbLine
 62
7
  6
CONTINUOUS
 10
-3.0174550649
 20
-21.4051134101
 11
-3.9507059952
 21
-22.3383643404
  0
LINE
  5
6AC
100
AcDbEntity
  8
ASSI
100
AcDbLine
 62
7
  6
CONTINUOUS
 10
19.9476188458
 20
-4.5261825974
 11
20.0
 21
-4.5
  0
LINE
  5
6AD
100
AcDbEntity
  8
CURVE
100
AcDbLine
 62
253
  6
CONTINUOUS
 10
-12.6185
 20
-16.5476190463
 11
-12.2167857382
 21
-16.4119047403
  0
LINE
  5
6AE
100
AcDbEntity
  8
CURVE
100
AcDbLine
 62
253
  6
CONTINUOUS
 10
-19.0
 20
11.45
 11
-12.5
 21
11.45
  0
LINE
  5
6AF
100
AcDbEntity
  8
CURVE
100
AcDbLine
 62
253
  6
CONTINUOUS
 10
-8.785714221
 20
11.5857143342
 11
-7.835714221
 21
11.5857143342
  0
LINE
  5
6B0
100
AcDbEntity
  8
CURVE
100
AcDbLine
 62
253
  6
CONTINUOUS
 10
-5.257142663
 20
11.5857143342
 11
-5.8
 21
11.5857143342
  0
LINE
  5
6B1
100
AcDbEntity
  8
CURVE
100
AcDbLine
 62
253
  6
CONTINUOUS
 10
-9.6
 20
11.5857143342
 11
-10.1428571105
 21
11.5857143342
  0
LINE
  5
6B2
100
AcDbEntity
  8
CURVE
100
AcDbLine
 62
253
  6
CONTINUOUS
 10
-10.6857142776
 20
11.5857143342
 11
-11.5
 21
11.5857143342
  0
LINE
  5
6B3
100
AcDbEntity
  8
CURVE
100
AcDbLine
 62
253
  6
CONTINUOUS
 10
-22.1853354008
 20
11.6047629356
 11
-22.2080235292
 21
11.6047629356
  0
LINE
  5
6B4
100
AcDbEntity
  8
CURVE
100
AcDbLine
 62
253
  6
CONTINUOUS
 10
-22.2378745023
 20
12.0190468669
 11
-22.2544542884
 21
12.0190468669
  0
LINE
  5
6B5
100
AcDbEntity
  8
CURVE
100
AcDbLine
 62
253
  6
CONTINUOUS
 10
-22.1853354008
 20
12.19285779
 11
-22.2080235292
 21
12.19285779
  0
LINE
  5
6B6
100
AcDbEntity
  8
CURVE
100
AcDbLine
 62
253
  6
CONTINUOUS
 10
-18.0
 20
12.2
 11
-13.5
 21
12.2
  0
LINE
  5
6B7
100
AcDbEntity
  8
CURVE
100
AcDbLine
 62
253
  6
CONTINUOUS
 10
-22.3145291608
 20
12.328754
 11
-22.3546306717
 21
12.328754
  0
LINE
  5
6B8
100
AcDbEntity
  8
CURVE
100
AcDbLine
 62
253
  6
CONTINUOUS
 10
-11.5
 20
12.4
 11
-10.6857142776
 21
12.4
  0
LINE
  5
6B9
100
AcDbEntity
  8
CURVE
100
AcDbLine
 62
253
  6
CONTINUOUS
 10
-10.1428571105
 20
12.4
 11
-9.3285713315
 21
12.4
  0
LINE
  5
6BA
100
AcDbEntity
  8
CURVE
100
AcDbLine
 62
253
  6
CONTINUOUS
 10
-5.8
 20
12.4
 11
-4.985714221
 21
12.4
  0
LINE
  5
6BB
100
AcDbEntity
  8
CURVE
100
AcDbLine
 62
253
  6
CONTINUOUS
 10
-4.035714221
 20
12.4
 11
-3.9
 21
12.4
  0
LINE
  5
6BC
100
AcDbEntity
  8
CURVE
100
AcDbLine
 62
253
  6
CONTINUOUS
 10
-6.614285779
 20
12.4
 11
-7.021428442
 21
12.4
  0
LINE
  5
6BD
100
AcDbEntity
  8
CURVE
100
AcDbLine
 62
253
  6
CONTINUOUS
 10
-22.3546306717
 20
12.911198
 11
-22.3040263841
 21
12.911198
  0
LINE
  5
6BE
100
AcDbEntity
  8
CURVE
100
AcDbLine
 62
253
  6
CONTINUOUS
 10
-22.2080235292
 20
12.9357151985
 11
-22.1853354008
 21
12.9357151985
  0
LINE
  5
6BF
100
AcDbEntity
  8
ASSI
100
AcDbLine
 62
7
  6
CONTINUOUS
 10
-10.75
 20
13.0
 11
-6.75
 21
13.0
  0
LINE
  5
6C0
100
AcDbEntity
  8
CURVE
100
AcDbLine
 62
253
  6
CONTINUOUS
 10
-22.1853354008
 20
13.3071435928
 11
-22.2080235292
 21
13.3071435928
  0
LINE
  5
6C1
100
AcDbEntity
  8
CURVE
100
AcDbLine
 62
253
  6
CONTINUOUS
 10
-22.2710340745
 20
13.4214279056
 11
-22.2378745023
 21
13.4214279056
  0
LINE
  5
6C2
100
AcDbEntity
  8
ASSI
100
AcDbLine
 62
7
  6
CONTINUOUS
 10
18.5523811542
 20
13.4345085856
 11
8.4467051675
 21
13.4345085856
  0
LINE
  5
6C3
100
AcDbEntity
  8
ASSI
100
AcDbLine
 62
7
  6
CONTINUOUS
 10
20.8674681916
 20
13.4738174026
 11
19.9476188458
 21
13.4738174026
  0
LINE
  5
6C4
100
AcDbEntity
  8
ASSI
100
AcDbLine
 62
7
  6
CONTINUOUS
 10
20.2787223403
 20
13.5
 11
20.0
 21
13.5
  0
LINE
  5
6C5
100
AcDbEntity
  8
ASSI
100
AcDbLine
 62
7
  6
CONTINUOUS
 10
18.5
 20
13.5
 11
8.4990863217
 21
13.5
  0
LINE
  5
6C6
100
AcDbEntity
  8
ASSI
100
AcDbLine
 62
7
  6
CONTINUOUS
 10
19.9476188458
 20
4.5261825974
 11
20.0
 21
4.5
  0
LINE
  5
6C7
100
AcDbEntity
  8
ASSI
100
AcDbLine
 62
7
  6
CONTINUOUS
 10
2.7630903017
 20
13.9869096983
 11
2.75
 21
14.0
  0
LINE
  5
6C8
100
AcDbEntity
  8
ASSI
100
AcDbLine
 62
7
  6
CONTINUOUS
 10
-3.7435241039
 20
20.7435241039
 11
-3.85
 21
20.85
  0
LINE
  5
6C9
100
AcDbEntity
  8
ASSI
100
AcDbLine
 62
7
  6
CONTINUOUS
 10
-2.75
 20
20.85
 11
-2.6435241039
 21
20.7435241039
  0
LINE
  5
6CA
100
AcDbEntity
  8
PORTATASTO
100
AcDbLine
 62
7
  6
CONTINUOUS
 10
-3.9507059952
 20
22.3383643404
 11
-3.0174550649
 21
21.4051134101
  0
LINE
  5
6CB
100
AcDbEntity
  8
ASSI
100
AcDbLine
 62
7
  6
CONTINUOUS
 10
2.7630903017
 20
16.2869096983
 11
2.6540044543
 21
16.3959955457
  0
LINE
  5
6CC
100
AcDbEntity
  8
ASSI
100
AcDbLine
 62
7
  6
CONTINUOUS
 10
18.5523811542
 20
-4.5654914144
 11
18.5
 21
-4.5
  0
LINE
  5
6CD
100
AcDbEntity
  8
ASSI
100
AcDbLine
 62
253
  6
CONTINUOUS
 10
7.5
 20
9.5005710598
 11
7.4476188458
 21
9.5660624741
  0
LINE
  5
6CE
100
AcDbEntity
  8
ASSI
100
AcDbLine
 62
253
  6
CONTINUOUS
 10
8.4990863217
 20
10.5
 11
8.4467051675
 21
10.5654914144
  0
LINE
  5
6CF
100
AcDbEntity
  8
ASSI
100
AcDbLine
 62
253
  6
CONTINUOUS
 10
20.7417457641
 20
-19.5935241039
 11
20.5652045402
 21
-19.1673158868
  0
LINE
  5
6D0
100
AcDbEntity
  8
ASSI
100
AcDbLine
 62
253
  6
CONTINUOUS
 10
21.4487448495
 20
-19.3006754942
 11
21.2722036256
 21
-18.874467277
  0
LINE
  5
6D1
100
AcDbEntity
  8
PORTATASTO
100
AcDbLine
 62
7
  6
CONTINUOUS
 10
20.1498936624
 20
-20.9
 11
20.127202078
 21
-20.8318698869
  0
LINE
  5
6D2
100
AcDbEntity
  8
PORTATASTO
100
AcDbLine
 62
7
  6
CONTINUOUS
 10
20.85
 20
-20.1990396502
 11
20.8273084156
 21
-20.1309095371
  0
LINE
  5
6D3
100
AcDbEntity
  8
PORTATASTO
100
AcDbLine
 62
7
  6
CONTINUOUS
 10
15.65
 20
-23.8
 11
15.6468619794
 21
-23.4539868749
  0
LINE
  5
6D4
100
AcDbEntity
  8
PORTATASTO
100
AcDbLine
 62
7
  6
CONTINUOUS
 10
14.242145819
 20
-20.8
 11
14.2552669943
 21
-22.3035377648
  0
LINE
  5
6D5
100
AcDbEntity
  8
PORTATASTO
100
AcDbLine
 62
7
  6
CONTINUOUS
 10
14.7831620976
 20
-23.8
 11
14.7828648461
 21
-23.7659383532
  0
LINE
  5
6D6
100
AcDbEntity
  8
PORTATASTO
100
AcDbLine
 62
7
  6
CONTINUOUS
 10
14.7701234302
 20
-22.3059166979
 11
14.7828036127
 21
-23.7589217043
  0
LINE
  5
6D7
100
AcDbEntity
  8
ASSI
100
AcDbLine
 62
253
  6
CONTINUOUS
 10
13.65
 20
20.0
 11
13.65
 21
19.9
  0
LINE
  5
6D8
100
AcDbEntity
  8
ASSI
100
AcDbLine
 62
253
  6
CONTINUOUS
 10
13.65
 20
-19.9
 11
13.65
 21
-20.0
  0
LINE
  5
6D9
100
AcDbEntity
  8
ASSI
100
AcDbLine
 62
7
  6
CONTINUOUS
 10
14.65
 20
20.0
 11
14.65
 21
19.9
  0
LINE
  5
6DA
100
AcDbEntity
  8
ASSI
100
AcDbLine
 62
7
  6
CONTINUOUS
 10
14.65
 20
-19.9
 11
14.65
 21
-20.0
  0
LINE
  5
6DB
100
AcDbEntity
  8
PORTATASTO
100
AcDbLine
 62
7
  6
CONTINUOUS
 10
15.6159657686
 20
23.4906890903
 11
15.6159657686
 21
22.8093109097
  0
LINE
  5
6DC
100
AcDbEntity
  8
PORTATASTO
100
AcDbLine
 62
7
  6
CONTINUOUS
 10
15.6159657686
 20
-23.4906890903
 11
15.6159657686
 21
-22.8093109097
  0
LINE
  5
6DD
100
AcDbEntity
  8
PORTATASTO
100
AcDbLine
 62
7
  6
CONTINUOUS
 10
15.6552360356
 20
-22.35
 11
15.6552360356
 21
-22.85711136
  0
LINE
  5
6DE
100
AcDbEntity
  8
PORTATASTO
100
AcDbLine
 62
7
  6
CONTINUOUS
 10
15.6552360356
 20
22.35
 11
15.6552360356
 21
22.85711136
  0
LINE
  5
6DF
100
AcDbEntity
  8
PORTATASTO
100
AcDbLine
 62
7
  6
CONTINUOUS
 10
14.242145819
 20
20.8
 11
14.2552669943
 21
22.3035377648
  0
LINE
  5
6E0
100
AcDbEntity
  8
PORTATASTO
100
AcDbLine
 62
7
  6
CONTINUOUS
 10
14.7828036127
 20
23.7589217043
 11
14.7701234302
 21
22.3059166979
  0
LINE
  5
6E1
100
AcDbEntity
  8
PORTATASTO
100
AcDbLine
 62
7
  6
CONTINUOUS
 10
14.7831620976
 20
23.8
 11
14.7828648461
 21
23.7659383532
  0
LINE
  5
6E2
100
AcDbEntity
  8
PORTATASTO
100
AcDbLine
 62
7
  6
CONTINUOUS
 10
15.6468619794
 20
23.4539868749
 11
15.65
 21
23.8
  0
LINE
  5
6E3
100
AcDbEntity
  8
ASSI
100
AcDbLine
 62
7
  6
CONTINUOUS
 10
18.5523811542
 20
-1.4345085856
 11
18.5
 21
-1.5
  0
LINE
  5
6E4
100
AcDbEntity
  8
ASSI
100
AcDbLine
 62
253
  6
CONTINUOUS
 10
7.4476188458
 20
-15.5660624741
 11
7.5
 21
-15.5005710598
  0
LINE
  5
6E5
100
AcDbEntity
  8
ASSI
100
AcDbLine
 62
7
  6
CONTINUOUS
 10
20.2787223403
 20
1.5
 11
20.6010362387
 21
1.8581334639
  0
LINE
  5
6E6
100
AcDbEntity
  8
ASSI
100
AcDbLine
 62
7
  6
CONTINUOUS
 10
-2.75
 20
-22.4
 11
-2.6435241039
 21
-22.2935241039
  0
LINE
  5
6E7
100
AcDbEntity
  8
ASSI
100
AcDbLine
 62
7
  6
CONTINUOUS
 10
22.2344815161
 20
1.8581334639
 11
21.8673158868
 21
1.4909678346
  0
LINE
  5
6E8
100
AcDbEntity
  8
ASSI
100
AcDbLine
 62
253
  6
CONTINUOUS
 10
22.2344815161
 20
13.8581334639
 11
20.6010362387
 21
13.8581334639
  0
LINE
  5
6E9
100
AcDbEntity
  8
ASSI
100
AcDbLine
 62
7
  6
CONTINUOUS
 10
-20.2630903017
 20
13.9869096983
 11
-10.75
 21
13.9869096983
  0
LINE
  5
6EA
100
AcDbEntity
  8
ASSI
100
AcDbLine
 62
7
  6
CONTINUOUS
 10
-6.75
 20
13.9869096983
 11
2.7630903017
 21
13.9869096983
  0
LINE
  5
6EB
100
AcDbEntity
  8
ASSI
100
AcDbLine
 62
7
  6
CONTINUOUS
 10
-10.75
 20
13.9938911925
 11
-6.75
 21
13.9938911925
  0
LINE
  5
6EC
100
AcDbEntity
  8
ASSI
100
AcDbLine
 62
7
  6
CONTINUOUS
 10
-20.25
 20
14.0
 11
2.75
 21
14.0
  0
LINE
  5
6ED
100
AcDbEntity
  8
CURVE
100
AcDbLine
 62
253
  6
CONTINUOUS
 10
-22.2080235292
 20
14.0500010014
 11
-22.1853354008
 21
14.0500010014
  0
LINE
  5
6EE
100
AcDbEntity
  8
DRAFT
100
AcDbLine
 62
7
  6
CONTINUOUS
 10
-20.15
 20
14.1
 11
2.65
 21
14.1
  0
LINE
  5
6EF
100
AcDbEntity
  8
CURVE
100
AcDbLine
 62
253
  6
CONTINUOUS
 10
-22.1853354008
 20
14.4214293957
 11
-22.2080235292
 21
14.4214293957
  0
LINE
  5
6F0
100
AcDbEntity
  8
CURVE
100
AcDbLine
 62
253
  6
CONTINUOUS
 10
-22.2378745023
 20
14.5976181984
 11
-22.2544542884
 21
14.5976181984
  0
LINE
  5
6F1
100
AcDbEntity
  8
ASSI
100
AcDbLine
 62
253
  6
CONTINUOUS
 10
22.2516319481
 20
14.8579811591
 11
20.6164713297
 21
14.8579811591
  0
LINE
  5
6F2
100
AcDbEntity
  8
ASSI
100
AcDbLine
 62
253
  6
CONTINUOUS
 10
20.6164713297
 20
15.1420188409
 11
22.2516319481
 21
15.1420188409
  0
LINE
  5
6F3
100
AcDbEntity
  8
PORTATASTO
100
AcDbLine
 62
7
  6
CONTINUOUS
 10
20.5654648039
 20
15.3001980265
 11
20.0
 21
15.3001980265
  0
LINE
  5
6F4
100
AcDbEntity
  8
CURVE
100
AcDbLine
 62
253
  6
CONTINUOUS
 10
-22.1853354008
 20
15.3500003815
 11
-22.2080235292
 21
15.3500003815
  0
LINE
  5
6F5
100
AcDbEntity
  8
ASSI
100
AcDbLine
 62
7
  6
CONTINUOUS
 10
-2.75
 20
22.4
 11
-2.6435241039
 21
22.2935241039
  0
LINE
  5
6F6
100
AcDbEntity
  8
ASSI
100
AcDbLine
 62
7
  6
CONTINUOUS
 10
21.8673158868
 20
-1.4909678346
 11
22.2344815161
 21
-1.8581334639
  0
LINE
  5
6F7
100
AcDbEntity
  8
ASSI
100
AcDbLine
 62
7
  6
CONTINUOUS
 10
20.2787223403
 20
-1.5
 11
20.6010362387
 21
-1.8581334639
  0
LINE
  5
6F8
100
AcDbEntity
  8
ASSI
100
AcDbLine
 62
7
  6
CONTINUOUS
 10
18.5523811542
 20
1.4345085856
 11
18.5
 21
1.5
  0
LINE
  5
6F9
100
AcDbEntity
  8
ASSI
100
AcDbLine
 62
253
  6
CONTINUOUS
 10
7.5
 20
15.5005710598
 11
7.4476188458
 21
15.5660624741
  0
LINE
  5
6FA
100
AcDbEntity
  8
PORTATASTO
100
AcDbLine
 62
7
  6
CONTINUOUS
 10
16.6
 20
16.5
 11
16.6
 21
13.5
  0
LINE
  5
6FB
100
AcDbEntity
  8
PORTATASTO
100
AcDbLine
 62
7
  6
CONTINUOUS
 10
16.6
 20
10.5
 11
16.6
 21
9.4999238476
  0
LINE
  5
6FC
100
AcDbEntity
  8
PORTATASTO
100
AcDbLine
 62
7
  6
CONTINUOUS
 10
16.6209460779
 20
16.5
 11
16.6209460779
 21
13.5
  0
LINE
  5
6FD
100
AcDbEntity
  8
PORTATASTO
100
AcDbLine
 62
7
  6
CONTINUOUS
 10
16.6209460779
 20
10.5
 11
16.6209460779
 21
9.5208699255
  0
LINE
  5
6FE
100
AcDbEntity
  8
ASSI
100
AcDbLine
 62
7
  6
CONTINUOUS
 10
17.0
 20
-19.9
 11
17.0
 21
-19.5254493507
  0
LINE
  5
6FF
100
AcDbEntity
  8
ASSI
100
AcDbLine
 62
7
  6
CONTINUOUS
 10
17.0
 20
19.5254493507
 11
17.0
 21
19.9
  0
LINE
  5
700
100
AcDbEntity
  8
PORTATASTO
100
AcDbLine
 62
7
  6
CONTINUOUS
 10
17.75
 20
-20.0
 11
17.75
 21
-19.7
  0
LINE
  5
701
100
AcDbEntity
  8
PORTATASTO
100
AcDbLine
 62
7
  6
CONTINUOUS
 10
17.75
 20
19.7
 11
17.75
 21
20.0
  0
LINE
  5
702
100
AcDbEntity
  8
ASSI
100
AcDbLine
 62
253
  6
CONTINUOUS
 10
8.4467051675
 20
-16.5654914144
 11
8.4990863217
 21
-16.5
  0
LINE
  5
703
100
AcDbEntity
  8
PORTATASTO
100
AcDbLine
 62
7
  6
CONTINUOUS
 10
-3.0174550649
 20
-20.9087268678
 11
-3.1834304982
 21
-20.9917082642
  0
LINE
  5
704
100
AcDbEntity
  8
CURVE
100
AcDbLine
 62
253
  6
CONTINUOUS
 10
-22.2710340745
 20
15.9999992371
 11
-22.2378745023
 21
15.9999992371
  0
LINE
  5
705
100
AcDbEntity
  8
CURVE
100
AcDbLine
 62
253
  6
CONTINUOUS
 10
-22.2047823682
 20
16.0000003815
 11
-22.1983000462
 21
16.0000003815
  0
LINE
  5
706
100
AcDbEntity
  8
ASSI
100
AcDbLine
 62
253
  6
CONTINUOUS
 10
20.6010362387
 20
16.1418665361
 11
22.2344815161
 21
16.1418665361
  0
LINE
  5
707
100
AcDbEntity
  8
ASSI
100
AcDbLine
 62
7
  6
CONTINUOUS
 10
-20.8674681916
 20
16.2869096983
 11
-20.2630903017
 21
16.2869096983
  0
LINE
  5
708
100
AcDbEntity
  8
ASSI
100
AcDbLine
 62
7
  6
CONTINUOUS
 10
2.7630903017
 20
16.2869096983
 11
3.75
 21
16.2869096983
  0
LINE
  5
709
100
AcDbEntity
  8
ASSI
100
AcDbLine
 62
7
  6
CONTINUOUS
 10
-22.0177340781
 20
16.3706876291
 11
-20.25
 21
16.3706876291
  0
LINE
  5
70A
100
AcDbEntity
  8
ASSI
100
AcDbLine
 62
7
  6
CONTINUOUS
 10
2.75
 20
16.3706876291
 11
3.75
 21
16.3706876291
  0
LINE
  5
70B
100
AcDbEntity
  8
DRAFT
100
AcDbLine
 62
7
  6
CONTINUOUS
 10
3.65
 20
16.4
 11
2.65
 21
16.4
  0
LINE
  5
70C
100
AcDbEntity
  8
RACCORDO
100
AcDbLine
 62
7
  6
CONTINUOUS
 10
-20.15
 20
16.4
 11
-21.8912340648
 21
16.4
  0
LINE
  5
70D
100
AcDbEntity
  8
ASSI
100
AcDbLine
 62
7
  6
CONTINUOUS
 10
20.2787223403
 20
16.5
 11
20.0
 21
16.5
  0
LINE
  5
70E
100
AcDbEntity
  8
ASSI
100
AcDbLine
 62
7
  6
CONTINUOUS
 10
8.4990863217
 20
16.5
 11
18.5
 21
16.5
  0
LINE
  5
70F
100
AcDbEntity
  8
ASSI
100
AcDbLine
 62
7
  6
CONTINUOUS
 10
20.8674681916
 20
16.5261825974
 11
19.9476188458
 21
16.5261825974
  0
LINE
  5
710
100
AcDbEntity
  8
ASSI
100
AcDbLine
 62
7
  6
CONTINUOUS
 10
8.4467051675
 20
16.5654914144
 11
18.5523811542
 21
16.5654914144
  0
LINE
  5
711
100
AcDbEntity
  8
ASSI
100
AcDbLine
 62
253
  6
CONTINUOUS
 10
20.8674681916
 20
17.4510540646
 11
21.8673158868
 21
17.4510540642
  0
LINE
  5
712
100
AcDbEntity
  8
ASSI
100
AcDbLine
 62
253
  6
CONTINUOUS
 10
3.75
 20
17.5
 11
3.65
 21
17.5
  0
LINE
  5
713
100
AcDbEntity
  8
PORTATASTO
100
AcDbLine
 62
7
  6
CONTINUOUS
 10
-3.0174550649
 20
20.9087268678
 11
-3.1834304982
 21
20.9917082642
  0
LINE
  5
714
100
AcDbEntity
  8
ASSI
100
AcDbLine
 62
253
  6
CONTINUOUS
 10
8.4990863217
 20
16.5
 11
8.4467051675
 21
16.5654914144
  0
LINE
  5
715
100
AcDbEntity
  8
PORTATASTO
100
AcDbLine
 62
7
  6
CONTINUOUS
 10
19.5552360356
 20
23.2226497308
 11
19.55
 21
23.8
  0
LINE
  5
716
100
AcDbEntity
  8
ASSI
100
AcDbLine
 62
7
  6
CONTINUOUS
 10
18.5
 20
16.5
 11
18.5
 21
13.5
  0
LINE
  5
717
100
AcDbEntity
  8
ASSI
100
AcDbLine
 62
7
  6
CONTINUOUS
 10
18.5
 20
10.5
 11
18.5
 21
7.5
  0
LINE
  5
718
100
AcDbEntity
  8
ASSI
100
AcDbLine
 62
7
  6
CONTINUOUS
 10
18.5
 20
4.5
 11
18.5
 21
1.5
  0
LINE
  5
719
100
AcDbEntity
  8
ASSI
100
AcDbLine
 62
7
  6
CONTINUOUS
 10
18.5
 20
-1.5
 11
18.5
 21
-4.5
  0
LINE
  5
71A
100
AcDbEntity
  8
ASSI
100
AcDbLine
 62
7
  6
CONTINUOUS
 10
18.5
 20
-7.5
 11
18.5
 21
-10.5
  0
LINE
  5
71B
100
AcDbEntity
  8
ASSI
100
AcDbLine
 62
7
  6
CONTINUOUS
 10
18.5
 20
-13.5
 11
18.5
 21
-16.5
  0
LINE
  5
71C
100
AcDbEntity
  8
ASSI
100
AcDbLine
 62
253
  6
CONTINUOUS
 10
18.5
 20
-19.5226472899
 11
18.5
 21
-19.4672432928
  0
LINE
  5
71D
100
AcDbEntity
  8
ASSI
100
AcDbLine
 62
253
  6
CONTINUOUS
 10
18.5
 20
-19.3128661497
 11
18.5
 21
-19.2581018978
  0
LINE
  5
71E
100
AcDbEntity
  8
ASSI
100
AcDbLine
 62
253
  6
CONTINUOUS
 10
18.5
 20
-19.4177567198
 11
18.5
 21
-19.3626725953
  0
LINE
  5
71F
100
AcDbEntity
  8
ASSI
100
AcDbLine
 62
253
  6
CONTINUOUS
 10
18.4999998514
 20
19.5226472899
 11
18.4999998595
 21
19.4672432928
  0
LINE
  5
720
100
AcDbEntity
  8
ASSI
100
AcDbLine
 62
253
  6
CONTINUOUS
 10
18.4999998531
 20
19.3128661497
 11
18.499999863
 21
19.2581018978
  0
LINE
  5
721
100
AcDbEntity
  8
ASSI
100
AcDbLine
 62
253
  6
CONTINUOUS
 10
18.4999998523
 20
19.4177567198
 11
18.4999998611
 21
19.3626725953
  0
LINE
  5
722
100
AcDbEntity
  8
PORTATASTO
100
AcDbLine
 62
7
  6
CONTINUOUS
 10
18.55
 20
-20.9959955457
 11
18.55
 21
-19.7
  0
LINE
  5
723
100
AcDbEntity
  8
PORTATASTO
100
AcDbLine
 62
7
  6
CONTINUOUS
 10
18.55
 20
19.7
 11
18.55
 21
20.9959955457
  0
LINE
  5
724
100
AcDbEntity
  8
ASSI
100
AcDbLine
 62
7
  6
CONTINUOUS
 10
18.5523811542
 20
16.5654914144
 11
18.5523811542
 21
13.4345085856
  0
LINE
  5
725
100
AcDbEntity
  8
ASSI
100
AcDbLine
 62
7
  6
CONTINUOUS
 10
18.5523811542
 20
10.5654914144
 11
18.5523811542
 21
7.4345085856
  0
LINE
  5
726
100
AcDbEntity
  8
ASSI
100
AcDbLine
 62
7
  6
CONTINUOUS
 10
18.5523811542
 20
4.5654914144
 11
18.5523811542
 21
1.4345085856
  0
LINE
  5
727
100
AcDbEntity
  8
ASSI
100
AcDbLine
 62
7
  6
CONTINUOUS
 10
18.5523811542
 20
-1.4345085856
 11
18.5523811542
 21
-4.5654914144
  0
LINE
  5
728
100
AcDbEntity
  8
ASSI
100
AcDbLine
 62
7
  6
CONTINUOUS
 10
18.5523811542
 20
-7.4345085856
 11
18.5523811542
 21
-10.5654914144
  0
LINE
  5
729
100
AcDbEntity
  8
ASSI
100
AcDbLine
 62
7
  6
CONTINUOUS
 10
18.5523811542
 20
-13.4345085856
 11
18.5523811542
 21
-16.5654914144
  0
LINE
  5
72A
100
AcDbEntity
  8
ASSI
100
AcDbLine
 62
7
  6
CONTINUOUS
 10
18.65
 20
-20.85
 11
18.65
 21
-19.6948533162
  0
LINE
  5
72B
100
AcDbEntity
  8
ASSI
100
AcDbLine
 62
7
  6
CONTINUOUS
 10
18.65
 20
19.6948533162
 11
18.65
 21
20.85
  0
LINE
  5
72C
100
AcDbEntity
  8
ASSI
100
AcDbLine
 62
7
  6
CONTINUOUS
 10
18.7564758961
 20
-19.5935241039
 11
18.7564758961
 21
-20.7435241039
  0
LINE
  5
72D
100
AcDbEntity
  8
ASSI
100
AcDbLine
 62
7
  6
CONTINUOUS
 10
18.7564758961
 20
19.5935241039
 11
18.7564758961
 21
20.7435241039
  0
LINE
  5
72E
100
AcDbEntity
  8
PORTATASTO
100
AcDbLine
 62
253
  6
CONTINUOUS
 10
18.8166456542
 20
21.2859869487
 11
18.8166456542
 21
20.9959955457
  0
LINE
  5
72F
100
AcDbEntity
  8
PORTATASTO
100
AcDbLine
 62
253
  6
CONTINUOUS
 10
18.8166456542
 20
-20.9959955457
 11
18.8166456542
 21
-21.2859869487
  0
LINE
  5
730
100
AcDbEntity
  8
PORTATASTO
100
AcDbLine
 62
253
  6
CONTINUOUS
 10
19.3165695018
 20
21.4537354271
 11
19.3165695018
 21
20.9917082642
  0
LINE
  5
731
100
AcDbEntity
  8
PORTATASTO
100
AcDbLine
 62
253
  6
CONTINUOUS
 10
19.3165695018
 20
-20.9917082642
 11
19.3165695018
 21
-21.4537354271
  0
LINE
  5
732
100
AcDbEntity
  8
PORTATASTO
100
AcDbLine
 62
7
  6
CONTINUOUS
 10
19.5
 20
21.4
 11
19.5
 21
20.9
  0
LINE
  5
733
100
AcDbEntity
  8
PORTATASTO
100
AcDbLine
 62
7
  6
CONTINUOUS
 10
19.5
 20
-20.9
 11
19.5
 21
-21.4
  0
LINE
  5
734
100
AcDbEntity
  8
PORTATASTO
100
AcDbLine
 62
7
  6
CONTINUOUS
 10
19.55
 20
24.2500034269
 11
19.55
 21
23.8
  0
LINE
  5
735
100
AcDbEntity
  8
PORTATASTO
100
AcDbLine
 62
7
  6
CONTINUOUS
 10
19.55
 20
-23.8
 11
19.55
 21
-24.2500034269
  0
LINE
  5
736
100
AcDbEntity
  8
PORTATASTO
100
AcDbLine
 62
7
  6
CONTINUOUS
 10
19.5552360356
 20
23.2226497308
 11
19.5552360356
 21
22.35
  0
LINE
  5
737
100
AcDbEntity
  8
PORTATASTO
100
AcDbLine
 62
7
  6
CONTINUOUS
 10
19.5552360356
 20
-22.35
 11
19.5552360356
 21
-23.2226497308
  0
LINE
  5
738
100
AcDbEntity
  8
ASSI
100
AcDbLine
 62
7
  6
CONTINUOUS
 10
19.9476188458
 20
-16.5261825974
 11
19.9476188458
 21
-13.4738174026
  0
LINE
  5
739
100
AcDbEntity
  8
ASSI
100
AcDbLine
 62
7
  6
CONTINUOUS
 10
19.9476188458
 20
-10.5261825974
 11
19.9476188458
 21
-7.4738174026
  0
LINE
  5
73A
100
AcDbEntity
  8
ASSI
100
AcDbLine
 62
7
  6
CONTINUOUS
 10
19.9476188458
 20
-4.5261825974
 11
19.9476188458
 21
-1.4738174026
  0
LINE
  5
73B
100
AcDbEntity
  8
ASSI
100
AcDbLine
 62
7
  6
CONTINUOUS
 10
19.9476188458
 20
1.4738174026
 11
19.9476188458
 21
4.5261825974
  0
LINE
  5
73C
100
AcDbEntity
  8
ASSI
100
AcDbLine
 62
7
  6
CONTINUOUS
 10
19.9476188458
 20
7.4738174026
 11
19.9476188458
 21
10.5261825974
  0
LINE
  5
73D
100
AcDbEntity
  8
ASSI
100
AcDbLine
 62
7
  6
CONTINUOUS
 10
19.9476188458
 20
13.4738174026
 11
19.9476188458
 21
16.5261825974
  0
LINE
  5
73E
100
AcDbEntity
  8
ASSI
100
AcDbLine
 62
7
  6
CONTINUOUS
 10
20.0
 20
-16.5
 11
20.0
 21
-13.5
  0
LINE
  5
73F
100
AcDbEntity
  8
ASSI
100
AcDbLine
 62
7
  6
CONTINUOUS
 10
20.0
 20
-10.5
 11
20.0
 21
-7.5
  0
LINE
  5
740
100
AcDbEntity
  8
ASSI
100
AcDbLine
 62
7
  6
CONTINUOUS
 10
20.0
 20
-4.5
 11
20.0
 21
-1.5
  0
LINE
  5
741
100
AcDbEntity
  8
ASSI
100
AcDbLine
 62
7
  6
CONTINUOUS
 10
20.0
 20
1.5
 11
20.0
 21
4.5
  0
LINE
  5
742
100
AcDbEntity
  8
ASSI
100
AcDbLine
 62
7
  6
CONTINUOUS
 10
20.0
 20
7.5
 11
20.0
 21
10.5
  0
LINE
  5
743
100
AcDbEntity
  8
ASSI
100
AcDbLine
 62
7
  6
CONTINUOUS
 10
20.0
 20
13.5
 11
20.0
 21
16.5
  0
LINE
  5
744
100
AcDbEntity
  8
PORTATASTO
100
AcDbLine
 62
7
  6
CONTINUOUS
 10
19.55
 20
-23.8
 11
19.5552360356
 21
-23.2226497308
  0
LINE
  5
745
100
AcDbEntity
  8
ASSI
100
AcDbLine
 62
7
  6
CONTINUOUS
 10
18.5523811542
 20
-7.4345085856
 11
18.5
 21
-7.5
  0
LINE
  5
746
100
AcDbEntity
  8
ASSI
100
AcDbLine
 62
7
  6
CONTINUOUS
 10
20.2787223403
 20
-4.5
 11
20.6010362387
 21
-4.1418665361
  0
LINE
  5
747
100
AcDbEntity
  8
PORTATASTO
100
AcDbLine
 62
7
  6
CONTINUOUS
 10
6.8844505243
 20
-22.3059037278
 11
6.8447639644
 21
-22.35
  0
LINE
  5
748
100
AcDbEntity
  8
ASSI
100
AcDbLine
 62
7
  6
CONTINUOUS
 10
22.2344815161
 20
-4.1418665361
 11
21.8673158868
 21
-4.5090321654
  0
LINE
  5
749
100
AcDbEntity
  8
PORTATASTO
100
AcDbLine
 62
7
  6
CONTINUOUS
 10
4.0094583738
 20
-22.2859700255
 11
3.9507059952
 21
-22.3383643404
  0
LINE
  5
74A
100
AcDbEntity
  8
ASSI
100
AcDbLine
 62
7
  6
CONTINUOUS
 10
19.9476188458
 20
-10.5261825974
 11
20.0
 21
-10.5
  0
LINE
  5
74B
100
AcDbEntity
  8
PORTATASTO
100
AcDbLine
 62
7
  6
CONTINUOUS
 10
-3.1834304982
 20
-21.4537354271
 11
-3.0174550649
 21
-21.4051134101
  0
LINE
  5
74C
100
AcDbEntity
  8
ASSI
100
AcDbLine
 62
7
  6
CONTINUOUS
 10
-5.9826637724
 20
19.4646016185
 11
-5.9878926329
 21
19.4642569156
  0
LINE
  5
74D
100
AcDbEntity
  8
ASSI
100
AcDbLine
 62
7
  6
CONTINUOUS
 10
-5.9878926329
 20
19.4642569156
 11
-5.9907528431
 21
19.4640973386
  0
LINE
  5
74E
100
AcDbEntity
  8
ASSI
100
AcDbLine
 62
7
  6
CONTINUOUS
 10
-5.9907528431
 20
19.4640973386
 11
-5.9987821638
 21
19.4637075848
  0
LINE
  5
74F
100
AcDbEntity
  8
ASSI
100
AcDbLine
 62
7
  6
CONTINUOUS
 10
-5.9987821638
 20
19.4637075848
 11
-6.0092039069
 21
19.4632782105
  0
LINE
  5
750
100
AcDbEntity
  8
ASSI
100
AcDbLine
 62
7
  6
CONTINUOUS
 10
-6.0092039069
 20
19.4632782105
 11
-6.0289459517
 21
19.4625915551
  0
LINE
  5
751
100
AcDbEntity
  8
ASSI
100
AcDbLine
 62
7
  6
CONTINUOUS
 10
-6.0289459517
 20
19.4625915551
 11
-6.05308013
 21
19.4618916173
  0
LINE
  5
752
100
AcDbEntity
  8
ASSI
100
AcDbLine
 62
7
  6
CONTINUOUS
 10
-6.05308013
 20
19.4618916173
 11
-6.0815039487
 21
19.461212534
  0
LINE
  5
753
100
AcDbEntity
  8
ASSI
100
AcDbLine
 62
7
  6
CONTINUOUS
 10
-6.0815039487
 20
19.461212534
 11
-6.1384479927
 21
19.4601309554
  0
LINE
  5
754
100
AcDbEntity
  8
ASSI
100
AcDbLine
 62
7
  6
CONTINUOUS
 10
-6.1384479927
 20
19.4601309554
 11
-6.2064295303
 21
19.4591723833
  0
LINE
  5
755
100
AcDbEntity
  8
ASSI
100
AcDbLine
 62
7
  6
CONTINUOUS
 10
-6.2064295303
 20
19.4591723833
 11
-6.318007694
 21
19.4581037831
  0
LINE
  5
756
100
AcDbEntity
  8
ASSI
100
AcDbLine
 62
7
  6
CONTINUOUS
 10
-6.318007694
 20
19.4581037831
 11
-6.4632916006
 21
19.4574238364
  0
LINE
  5
757
100
AcDbEntity
  8
RACCORDO
100
AcDbLine
 62
253
  6
CONTINUOUS
 10
-19.7753366795
 20
18.0761696894
 11
3.65
 21
18.0761696894
  0
LINE
  5
758
100
AcDbEntity
  8
ASSI
100
AcDbLine
 62
7
  6
CONTINUOUS
 10
3.75
 20
18.1
 11
3.65
 21
18.1
  0
LINE
  5
759
100
AcDbEntity
  8
PORTATASTO
100
AcDbLine
 62
7
  6
CONTINUOUS
 10
22.3849101299
 20
18.1473460386
 11
22.3423580915
 21
18.1473460386
  0
LINE
  5
75A
100
AcDbEntity
  8
PORTATASTO
100
AcDbLine
 62
7
  6
CONTINUOUS
 10
-22.3849101299
 20
18.1473460386
 11
-22.3423580915
 21
18.1473460386
  0
LINE
  5
75B
100
AcDbEntity
  8
ASSI
100
AcDbLine
 62
253
  6
CONTINUOUS
 10
20.5652045402
 20
18.1674681916
 11
3.75
 21
18.1674681916
  0
LINE
  5
75C
100
AcDbEntity
  8
RACCORDO
100
AcDbLine
 62
253
  6
CONTINUOUS
 10
-19.7753366795
 20
19.067290849
 11
3.65
 21
19.067290849
  0
LINE
  5
75D
100
AcDbEntity
  8
DRAFT
100
AcDbLine
 62
7
  6
CONTINUOUS
 10
-11.5
 20
19.0764760537
 11
-6.0
 21
19.0764760537
  0
LINE
  5
75E
100
AcDbEntity
  8
0
100
AcDbLine
 62
7
  6
CONTINUOUS
 10
-6.0
 20
19.0980014286
 11
-11.5
 21
19.0980014286
  0
LINE
  5
75F
100
AcDbEntity
  8
ASSI
100
AcDbLine
 62
253
  6
CONTINUOUS
 10
20.5652045402
 20
19.1673158868
 11
3.75
 21
19.1673158868
  0
LINE
  5
760
100
AcDbEntity
  8
RACCORDO
100
AcDbLine
 62
7
  6
CONTINUOUS
 10
3.65
 20
19.1832211978
 11
-19.8911908764
 21
19.1832211978
  0
LINE
  5
761
100
AcDbEntity
  8
ASSI
100
AcDbLine
 62
7
  6
CONTINUOUS
 10
-4.2
 20
19.25
 11
-2.1
 21
19.25
  0
LINE
  5
762
100
AcDbEntity
  8
ASSI
100
AcDbLine
 62
7
  6
CONTINUOUS
 10
-13.3
 20
19.25
 11
-15.4
 21
19.25
  0
LINE
  5
763
100
AcDbEntity
  8
ASSI
100
AcDbLine
 62
7
  6
CONTINUOUS
 10
18.5
 20
19.2581018978
 11
9.0000001464
 21
19.2581018978
  0
LINE
  5
764
100
AcDbEntity
  8
ASSI
100
AcDbLine
 62
7
  6
CONTINUOUS
 10
9.0
 20
19.3128661497
 11
18.4999998531
 21
19.3128661497
  0
LINE
  5
765
100
AcDbEntity
  8
ASSI
100
AcDbLine
 62
7
  6
CONTINUOUS
 10
18.5
 20
19.3626725953
 11
9.0000001473
 21
19.3626725953
  0
LINE
  5
766
100
AcDbEntity
  8
ASSI
100
AcDbLine
 62
7
  6
CONTINUOUS
 10
-20.6484771565
 20
19.3683537664
 11
3.75
 21
19.3683537664
  0
LINE
  5
767
100
AcDbEntity
  8
ASSI
100
AcDbLine
 62
7
  6
CONTINUOUS
 10
9.0
 20
19.4177567198
 11
18.4999998523
 21
19.4177567198
  0
LINE
  5
768
100
AcDbEntity
  8
ASSI
100
AcDbLine
 62
7
  6
CONTINUOUS
 10
-6.4632916006
 20
19.4574238364
 11
-13.9551908211
 21
19.4573288991
  0
LINE
  5
769
100
AcDbEntity
  8
ASSI
100
AcDbLine
 62
7
  6
CONTINUOUS
 10
18.5
 20
19.4672432928
 11
9.0000001481
 21
19.4672432928
  0
LINE
  5
76A
100
AcDbEntity
  8
ASSI
100
AcDbLine
 62
253
  6
CONTINUOUS
 10
-12.95
 20
19.4887023245
 11
-7.55
 21
19.4887023245
  0
LINE
  5
76B
100
AcDbEntity
  8
ASSI
100
AcDbLine
 62
7
  6
CONTINUOUS
 10
-12.95
 20
19.50658205
 11
-7.55
 21
19.50658205
  0
LINE
  5
76C
100
AcDbEntity
  8
ASSI
100
AcDbLine
 62
7
  6
CONTINUOUS
 10
9.0
 20
19.5226472899
 11
18.4999998514
 21
19.5226472899
  0
LINE
  5
76D
100
AcDbEntity
  8
ASSI
100
AcDbLine
 62
7
  6
CONTINUOUS
 10
-5.5
 20
19.5254493507
 11
-5.887024678
 21
19.5254493507
  0
LINE
  5
76E
100
AcDbEntity
  8
ASSI
100
AcDbLine
 62
7
  6
CONTINUOUS
 10
-14.612975322
 20
19.5254493507
 11
-17.0
 21
19.5254493507
  0
LINE
  5
76F
100
AcDbEntity
  8
ASSI
100
AcDbLine
 62
7
  6
CONTINUOUS
 10
-20.7417457641
 20
19.5935241039
 11
-18.7564758961
 21
19.5935241039
  0
LINE
  5
770
100
AcDbEntity
  8
ASSI
100
AcDbLine
 62
7
  6
CONTINUOUS
 10
-3.7435241039
 20
19.5935241039
 11
3.7435241039
 21
19.5935241039
  0
LINE
  5
771
100
AcDbEntity
  8
ASSI
100
AcDbLine
 62
7
  6
CONTINUOUS
 10
18.7564758961
 20
19.5935241039
 11
20.7417457641
 21
19.5935241039
  0
LINE
  5
772
100
AcDbEntity
  8
ASSI
100
AcDbLine
 62
253
  6
CONTINUOUS
 10
-14.3128382337
 20
19.6
 11
-13.25
 21
19.6
  0
LINE
  5
773
100
AcDbEntity
  8
ASSI
100
AcDbLine
 62
253
  6
CONTINUOUS
 10
-7.25
 20
19.6
 11
-6.1871617663
 21
19.6
  0
LINE
  5
774
100
AcDbEntity
  8
ASSI
100
AcDbLine
 62
7
  6
CONTINUOUS
 10
3.8448533162
 20
19.6948533162
 11
3.95
 21
19.6948533162
  0
LINE
  5
775
100
AcDbEntity
  8
ASSI
100
AcDbLine
 62
7
  6
CONTINUOUS
 10
-3.8448533162
 20
19.6948533162
 11
-3.95
 21
19.6948533162
  0
LINE
  5
776
100
AcDbEntity
  8
ASSI
100
AcDbLine
 62
7
  6
CONTINUOUS
 10
4.75
 20
19.6948533162
 11
5.5
 21
19.6948533162
  0
LINE
  5
777
100
AcDbEntity
  8
ASSI
100
AcDbLine
 62
7
  6
CONTINUOUS
 10
-4.75
 20
19.6948533162
 11
-5.5
 21
19.6948533162
  0
LINE
  5
778
100
AcDbEntity
  8
ASSI
100
AcDbLine
 62
7
  6
CONTINUOUS
 10
17.0
 20
19.6948533162
 11
17.75
 21
19.6948533162
  0
LINE
  5
779
100
AcDbEntity
  8
ASSI
100
AcDbLine
 62
7
  6
CONTINUOUS
 10
-17.0
 20
19.6948533162
 11
-17.75
 21
19.6948533162
  0
LINE
  5
77A
100
AcDbEntity
  8
ASSI
100
AcDbLine
 62
7
  6
CONTINUOUS
 10
-18.55
 20
19.6948533162
 11
-18.6551466838
 21
19.6948533162
  0
LINE
  5
77B
100
AcDbEntity
  8
ASSI
100
AcDbLine
 62
7
  6
CONTINUOUS
 10
18.55
 20
19.6948533162
 11
18.6551466838
 21
19.6948533162
  0
LINE
  5
77C
100
AcDbEntity
  8
PORTATASTO
100
AcDbLine
 62
7
  6
CONTINUOUS
 10
18.55
 20
19.7
 11
17.75
 21
19.7
  0
LINE
  5
77D
100
AcDbEntity
  8
PORTATASTO
100
AcDbLine
 62
7
  6
CONTINUOUS
 10
4.75
 20
19.7
 11
3.95
 21
19.7
  0
LINE
  5
77E
100
AcDbEntity
  8
PORTATASTO
100
AcDbLine
 62
7
  6
CONTINUOUS
 10
-3.95
 20
19.7
 11
-4.75
 21
19.7
  0
LINE
  5
77F
100
AcDbEntity
  8
PORTATASTO
100
AcDbLine
 62
7
  6
CONTINUOUS
 10
-17.75
 20
19.7
 11
-18.55
 21
19.7
  0
LINE
  5
780
100
AcDbEntity
  8
ASSI
100
AcDbLine
 62
7
  6
CONTINUOUS
 10
-14.5821084147
 20
19.9
 11
-5.9779014345
 21
19.9
  0
LINE
  5
781
100
AcDbEntity
  8
ASSI
100
AcDbLine
 62
7
  6
CONTINUOUS
 10
17.0
 20
19.9
 11
5.5
 21
19.9
  0
LINE
  5
782
100
AcDbEntity
  8
ASSI
100
AcDbLine
 62
7
  6
CONTINUOUS
 10
-5.5
 20
19.9
 11
-5.8871160678
 21
19.9
  0
LINE
  5
783
100
AcDbEntity
  8
ASSI
100
AcDbLine
 62
7
  6
CONTINUOUS
 10
-14.6128839322
 20
19.9
 11
-17.0
 21
19.9
  0
LINE
  5
784
100
AcDbEntity
  8
PORTATASTO
100
AcDbLine
 62
7
  6
CONTINUOUS
 10
17.75
 20
20.0
 11
4.75
 21
20.0
  0
LINE
  5
785
100
AcDbEntity
  8
PORTATASTO
100
AcDbLine
 62
7
  6
CONTINUOUS
 10
-4.75
 20
20.0
 11
-17.75
 21
20.0
  0
LINE
  5
786
100
AcDbEntity
  8
ASSI
100
AcDbLine
 62
7
  6
CONTINUOUS
 10
-13.9551908216
 20
19.4573269577
 11
-14.116712123
 21
19.4577195022
  0
LINE
  5
787
100
AcDbEntity
  8
ASSI
100
AcDbLine
 62
7
  6
CONTINUOUS
 10
-14.116712123
 20
19.4577195022
 11
-14.2340942402
 21
19.4585353305
  0
LINE
  5
788
100
AcDbEntity
  8
ASSI
100
AcDbLine
 62
7
  6
CONTINUOUS
 10
-14.2340942402
 20
19.4585353305
 11
-14.3347727656
 21
19.4597143883
  0
LINE
  5
789
100
AcDbEntity
  8
ASSI
100
AcDbLine
 62
7
  6
CONTINUOUS
 10
-14.3347727656
 20
19.4597143883
 11
-14.390779344
 21
19.4606517801
  0
LINE
  5
78A
100
AcDbEntity
  8
ASSI
100
AcDbLine
 62
7
  6
CONTINUOUS
 10
-14.390779344
 20
19.4606517801
 11
-14.4371110599
 21
19.4616418837
  0
LINE
  5
78B
100
AcDbEntity
  8
ASSI
100
AcDbLine
 62
7
  6
CONTINUOUS
 10
-14.4371110599
 20
19.4616418837
 11
-14.4652490094
 21
19.462410217
  0
LINE
  5
78C
100
AcDbEntity
  8
ASSI
100
AcDbLine
 62
7
  6
CONTINUOUS
 10
-14.4652490094
 20
19.462410217
 11
-14.48792381
 21
19.4631704397
  0
LWPOLYLINE
  5
78D
100
AcDbEntity
  8
ASSI
100
AcDbPolyline
 62
7
  6
CONTINUOUS
 90
5
 70
0
 10
-14.48792381
 20
19.4631704397
 10
-14.4996927056
 20
19.4636409823
 10
-14.5045040317
 20
19.4638595561
 10
-14.508605078
 20
19.4640638436
 10
-14.5119917806
 20
19.4642498497
  0
LINE
  5
78E
100
AcDbEntity
  8
ASSI
100
AcDbLine
 62
7
  6
CONTINUOUS
 10
-14.5119917806
 20
19.4642498497
 11
-14.5166340127
 21
19.4645475124
  0
LINE
  5
78F
100
AcDbEntity
  8
PORTATASTO
100
AcDbLine
 62
7
  6
CONTINUOUS
 10
-3.1834304982
 20
21.4537354271
 11
-3.0174550649
 21
21.4051134101
  0
LINE
  5
790
100
AcDbEntity
  8
ASSI
100
AcDbLine
 62
7
  6
CONTINUOUS
 10
19.9476188458
 20
10.5261825974
 11
20.0
 21
10.5
  0
LINE
  5
791
100
AcDbEntity
  8
PORTATASTO
100
AcDbLine
 62
7
  6
CONTINUOUS
 10
4.0094583738
 20
22.2859700255
 11
3.9507059952
 21
22.3383643404
  0
LINE
  5
792
100
AcDbEntity
  8
ASSI
100
AcDbLine
 62
7
  6
CONTINUOUS
 10
21.8673158868
 20
4.5090321654
 11
22.2344815161
 21
4.1418665361
  0
LINE
  5
793
100
AcDbEntity
  8
PORTATASTO
100
AcDbLine
 62
253
  6
CONTINUOUS
 10
18.1000761524
 20
9.0
 11
18.0791300745
 21
9.0209460779
  0
LINE
  5
794
100
AcDbEntity
  8
ASSI
100
AcDbLine
 62
7
  6
CONTINUOUS
 10
20.2787223403
 20
4.5
 11
20.6010362387
 21
4.1418665361
  0
LINE
  5
795
100
AcDbEntity
  8
PORTATASTO
100
AcDbLine
 62
7
  6
CONTINUOUS
 10
6.8447639644
 20
22.35
 11
6.8844505243
 21
22.3059037278
  0
LINE
  5
796
100
AcDbEntity
  8
ASSI
100
AcDbLine
 62
7
  6
CONTINUOUS
 10
18.5523811542
 20
7.4345085856
 11
18.5
 21
7.5
  0
LINE
  5
797
100
AcDbEntity
  8
PORTATASTO
100
AcDbLine
 62
7
  6
CONTINUOUS
 10
22.3341651021
 20
-18.1800547675
 11
22.35
 21
-18.5
  0
LINE
  5
798
100
AcDbEntity
  8
PORTATASTO
100
AcDbLine
 62
7
  6
CONTINUOUS
 10
21.825
 20
-23.8
 11
21.8197639644
 21
-23.2226497308
  0
LINE
  5
799
100
AcDbEntity
  8
RACCORDO
100
AcDbLine
 62
253
  6
CONTINUOUS
 10
20.5196610029
 20
15.3001980265
 11
20.5196610029
 21
13.7677147906
  0
LINE
  5
79A
100
AcDbEntity
  8
PORTATASTO
100
AcDbLine
 62
7
  6
CONTINUOUS
 10
20.534041698
 20
15.3001980265
 11
20.534041698
 21
13.7836936491
  0
LINE
  5
79B
100
AcDbEntity
  8
ASSI
100
AcDbLine
 62
253
  6
CONTINUOUS
 10
20.5652045402
 20
-18.1674681916
 11
20.5652045383
 21
-19.1673158868
  0
LINE
  5
79C
100
AcDbEntity
  8
ASSI
100
AcDbLine
 62
253
  6
CONTINUOUS
 10
20.5652045402
 20
18.1674681916
 11
20.5652045402
 21
19.1673158868
  0
LINE
  5
79D
100
AcDbEntity
  8
PORTATASTO
100
AcDbLine
 62
7
  6
CONTINUOUS
 10
20.5654648039
 20
15.3001980265
 11
20.5654648039
 21
13.8186088848
  0
LINE
  5
79E
100
AcDbEntity
  8
ASSI
100
AcDbLine
 62
7
  6
CONTINUOUS
 10
20.6164713297
 20
15.1420188409
 11
20.6164713297
 21
14.8579811591
  0
LINE
  5
79F
100
AcDbEntity
  8
ASSI
100
AcDbLine
 62
7
  6
CONTINUOUS
 10
20.6164713297
 20
9.1420188409
 11
20.6164713297
 21
8.8579811591
  0
LINE
  5
7A0
100
AcDbEntity
  8
ASSI
100
AcDbLine
 62
7
  6
CONTINUOUS
 10
20.6164713297
 20
3.1420188409
 11
20.6164713297
 21
2.8579811591
  0
LINE
  5
7A1
100
AcDbEntity
  8
ASSI
100
AcDbLine
 62
7
  6
CONTINUOUS
 10
20.6164713297
 20
-2.8579811591
 11
20.6164713297
 21
-3.1420188409
  0
LINE
  5
7A2
100
AcDbEntity
  8
ASSI
100
AcDbLine
 62
7
  6
CONTINUOUS
 10
20.6164713297
 20
-8.8579811591
 11
20.6164713297
 21
-9.1420188409
  0
LINE
  5
7A3
100
AcDbEntity
  8
ASSI
100
AcDbLine
 62
7
  6
CONTINUOUS
 10
20.6164713297
 20
-14.8579811591
 11
20.6164713297
 21
-15.1420188409
  0
LINE
  5
7A4
100
AcDbEntity
  8
PORTATASTO
100
AcDbLine
 62
7
  6
CONTINUOUS
 10
20.8273084156
 20
-20.1309095371
 11
20.8273084156
 21
-20.0726915844
  0
LINE
  5
7A5
100
AcDbEntity
  8
PORTATASTO
100
AcDbLine
 62
7
  6
CONTINUOUS
 10
20.8273084156
 20
20.0726915844
 11
20.8273084156
 21
20.1309095371
  0
LINE
  5
7A6
100
AcDbEntity
  8
PORTATASTO
100
AcDbLine
 62
7
  6
CONTINUOUS
 10
20.85
 20
20.1990396502
 11
20.85
 21
20.05
  0
LINE
  5
7A7
100
AcDbEntity
  8
PORTATASTO
100
AcDbLine
 62
7
  6
CONTINUOUS
 10
20.85
 20
-20.05
 11
20.85
 21
-20.1990396502
  0
LINE
  5
7A8
100
AcDbEntity
  8
ASSI
100
AcDbLine
 62
253
  6
CONTINUOUS
 10
20.8674681916
 20
-17.4510540646
 11
20.8674681916
 21
-16.5261825974
  0
LINE
  5
7A9
100
AcDbEntity
  8
ASSI
100
AcDbLine
 62
253
  6
CONTINUOUS
 10
20.8674681916
 20
-13.4738174026
 11
20.8674681916
 21
-10.5261825974
  0
LINE
  5
7AA
100
AcDbEntity
  8
ASSI
100
AcDbLine
 62
253
  6
CONTINUOUS
 10
20.8674681916
 20
-7.4738174026
 11
20.8674681916
 21
-4.5261825974
  0
LINE
  5
7AB
100
AcDbEntity
  8
ASSI
100
AcDbLine
 62
253
  6
CONTINUOUS
 10
20.8674681916
 20
-1.4738174026
 11
20.8674681916
 21
1.4738174026
  0
LINE
  5
7AC
100
AcDbEntity
  8
ASSI
100
AcDbLine
 62
253
  6
CONTINUOUS
 10
20.8674681916
 20
4.5261825974
 11
20.8674681916
 21
7.4738174026
  0
LINE
  5
7AD
100
AcDbEntity
  8
ASSI
100
AcDbLine
 62
253
  6
CONTINUOUS
 10
20.8674681916
 20
10.5261825974
 11
20.8674681916
 21
13.4738174026
  0
LINE
  5
7AE
100
AcDbEntity
  8
ASSI
100
AcDbLine
 62
253
  6
CONTINUOUS
 10
20.8674681916
 20
16.5261825974
 11
20.8674681916
 21
17.4510540646
  0
LINE
  5
7AF
100
AcDbEntity
  8
PORTATASTO
100
AcDbLine
 62
7
  6
CONTINUOUS
 10
21.8197639644
 20
23.2226497308
 11
21.8197639644
 21
22.35
  0
LINE
  5
7B0
100
AcDbEntity
  8
PORTATASTO
100
AcDbLine
 62
7
  6
CONTINUOUS
 10
21.8197639644
 20
-22.35
 11
21.8197639644
 21
-23.2226497308
  0
LINE
  5
7B1
100
AcDbEntity
  8
PORTATASTO
100
AcDbLine
 62
7
  6
CONTINUOUS
 10
21.825
 20
-24.2500034269
 11
21.825
 21
-23.8
  0
LINE
  5
7B2
100
AcDbEntity
  8
PORTATASTO
100
AcDbLine
 62
7
  6
CONTINUOUS
 10
21.825
 20
23.8
 11
21.825
 21
24.2500034269
  0
LINE
  5
7B3
100
AcDbEntity
  8
ASSI
100
AcDbLine
 62
253
  6
CONTINUOUS
 10
21.8673158868
 20
-17.4510540646
 11
21.8673158868
 21
-16.5090321654
  0
LINE
  5
7B4
100
AcDbEntity
  8
ASSI
100
AcDbLine
 62
253
  6
CONTINUOUS
 10
21.8673158868
 20
-13.4909678346
 11
21.8673158868
 21
-10.5090321654
  0
LINE
  5
7B5
100
AcDbEntity
  8
ASSI
100
AcDbLine
 62
253
  6
CONTINUOUS
 10
21.8673158868
 20
-7.4909678346
 11
21.8673158868
 21
-4.5090321654
  0
LINE
  5
7B6
100
AcDbEntity
  8
ASSI
100
AcDbLine
 62
253
  6
CONTINUOUS
 10
21.8673158868
 20
-1.4909678346
 11
21.8673158868
 21
1.4909678346
  0
LINE
  5
7B7
100
AcDbEntity
  8
ASSI
100
AcDbLine
 62
253
  6
CONTINUOUS
 10
21.8673158868
 20
4.5090321654
 11
21.8673158868
 21
7.4909678346
  0
LINE
  5
7B8
100
AcDbEntity
  8
ASSI
100
AcDbLine
 62
253
  6
CONTINUOUS
 10
21.8673158868
 20
10.5090321654
 11
21.8673158868
 21
13.4909678346
  0
LINE
  5
7B9
100
AcDbEntity
  8
ASSI
100
AcDbLine
 62
253
  6
CONTINUOUS
 10
21.8673158868
 20
16.5090321654
 11
21.8673158868
 21
17.4510540646
  0
LINE
  5
7BA
100
AcDbEntity
  8
ASSI
100
AcDbLine
 62
7
  6
CONTINUOUS
 10
22.2516319481
 20
15.1420188409
 11
22.2516319481
 21
14.8579811591
  0
LINE
  5
7BB
100
AcDbEntity
  8
ASSI
100
AcDbLine
 62
7
  6
CONTINUOUS
 10
22.2516319481
 20
9.1420188409
 11
22.2516319481
 21
8.8579811591
  0
LINE
  5
7BC
100
AcDbEntity
  8
ASSI
100
AcDbLine
 62
7
  6
CONTINUOUS
 10
22.2516319481
 20
3.1420188409
 11
22.2516319481
 21
2.8579811591
  0
LINE
  5
7BD
100
AcDbEntity
  8
ASSI
100
AcDbLine
 62
7
  6
CONTINUOUS
 10
22.2516319481
 20
-2.8579811591
 11
22.2516319481
 21
-3.1420188409
  0
LINE
  5
7BE
100
AcDbEntity
  8
ASSI
100
AcDbLine
 62
7
  6
CONTINUOUS
 10
22.2516319481
 20
-8.8579811591
 11
22.2516319481
 21
-9.1420188409
  0
LINE
  5
7BF
100
AcDbEntity
  8
ASSI
100
AcDbLine
 62
7
  6
CONTINUOUS
 10
22.2516319481
 20
-14.8579811591
 11
22.2516319481
 21
-15.1420188409
  0
LINE
  5
7C0
100
AcDbEntity
  8
PORTATASTO
100
AcDbLine
 62
7
  6
CONTINUOUS
 10
22.3325462644
 20
-18.5674537356
 11
22.3325462644
 21
-18.1865176248
  0
LINE
  5
7C1
100
AcDbEntity
  8
PORTATASTO
100
AcDbLine
 62
7
  6
CONTINUOUS
 10
22.3325462644
 20
18.1865176261
 11
22.3325462644
 21
18.5674537356
  0
LINE
  5
7C2
100
AcDbEntity
  8
PORTATASTO
100
AcDbLine
 62
7
  6
CONTINUOUS
 10
22.3412731322
 20
21.8441990932
 11
22.3412731322
 21
18.5587268678
  0
LINE
  5
7C3
100
AcDbEntity
  8
PORTATASTO
100
AcDbLine
 62
7
  6
CONTINUOUS
 10
22.3412731322
 20
-18.5587268678
 11
22.3412731322
 21
-21.8441990932
  0
LINE
  5
7C4
100
AcDbEntity
  8
PORTATASTO
100
AcDbLine
 62
7
  6
CONTINUOUS
 10
22.35
 20
21.850016923
 11
22.35
 21
18.5
  0
LINE
  5
7C5
100
AcDbEntity
  8
PORTATASTO
100
AcDbLine
 62
7
  6
CONTINUOUS
 10
22.35
 20
-21.850016923
 11
22.35
 21
-18.5
  0
LINE
  5
7C6
100
AcDbEntity
  8
PORTATASTO
100
AcDbLine
 62
7
  6
CONTINUOUS
 10
22.3849101299
 20
-18.1473460386
 11
22.3849101299
 21
-17.9151571592
  0
LINE
  5
7C7
100
AcDbEntity
  8
PORTATASTO
100
AcDbLine
 62
7
  6
CONTINUOUS
 10
22.3849101299
 20
17.91515716
 11
22.3849101299
 21
18.1473460386
  0
LINE
  5
7C8
100
AcDbEntity
  8
ASSI
100
AcDbLine
 62
7
  6
CONTINUOUS
 10
22.4
 20
-17.6716990487
 11
22.4
 21
17.6716990487
  0
LINE
  5
7C9
100
AcDbEntity
  8
PORTATASTO
100
AcDbLine
 62
7
  6
CONTINUOUS
 10
21.8197639644
 20
23.2226497308
 11
21.825
 21
23.8
  0
LINE
  5
7CA
100
AcDbEntity
  8
PORTATASTO
100
AcDbLine
 62
7
  6
CONTINUOUS
 10
22.35
 20
18.5
 11
22.3341651021
 21
18.1800547684
  0
LINE
  5
7CB
100
AcDbEntity
  8
ASSI
100
AcDbLine
 62
7
  6
CONTINUOUS
 10
20.2787223403
 20
-10.5
 11
20.6010362387
 21
-10.1418665361
  0
LINE
  5
7CC
100
AcDbEntity
  8
PORTATASTO
100
AcDbLine
 62
7
  6
CONTINUOUS
 10
6.85
 20
-23.8
 11
6.8840616468
 21
-23.7659383532
  0
LINE
  5
7CD
100
AcDbEntity
  8
ASSI
100
AcDbLine
 62
7
  6
CONTINUOUS
 10
-20.0058962398
 20
20.7435241039
 11
-18.7564758961
 21
20.7435241039
  0
LINE
  5
7CE
100
AcDbEntity
  8
ASSI
100
AcDbLine
 62
7
  6
CONTINUOUS
 10
20.0058962398
 20
20.7435241039
 11
18.7564758961
 21
20.7435241039
  0
LINE
  5
7CF
100
AcDbEntity
  8
ASSI
100
AcDbLine
 62
7
  6
CONTINUOUS
 10
-3.7435241039
 20
20.7435241039
 11
-2.6435241039
 21
20.7435241039
  0
LINE
  5
7D0
100
AcDbEntity
  8
ASSI
100
AcDbLine
 62
7
  6
CONTINUOUS
 10
3.7435241039
 20
20.7435241039
 11
2.6435241039
 21
20.7435241039
  0
LINE
  5
7D1
100
AcDbEntity
  8
PORTATASTO
100
AcDbLine
 62
7
  6
CONTINUOUS
 10
-14.242145819
 20
20.8
 11
-8.257854181
 21
20.8
  0
LINE
  5
7D2
100
AcDbEntity
  8
PORTATASTO
100
AcDbLine
 62
7
  6
CONTINUOUS
 10
8.257854181
 20
20.8
 11
14.242145819
 21
20.8
  0
LINE
  5
7D3
100
AcDbEntity
  8
PORTATASTO
100
AcDbLine
 62
7
  6
CONTINUOUS
 10
-20.127202078
 20
20.8318698869
 11
-20.0681301131
 21
20.8318698869
  0
LINE
  5
7D4
100
AcDbEntity
  8
PORTATASTO
100
AcDbLine
 62
7
  6
CONTINUOUS
 10
-18.65
 20
20.8318698869
 11
-18.55
 21
20.8318698869
  0
LINE
  5
7D5
100
AcDbEntity
  8
PORTATASTO
100
AcDbLine
 62
7
  6
CONTINUOUS
 10
-3.95
 20
20.8318698869
 11
-3.85
 21
20.8318698869
  0
LINE
  5
7D6
100
AcDbEntity
  8
PORTATASTO
100
AcDbLine
 62
7
  6
CONTINUOUS
 10
3.85
 20
20.8318698869
 11
3.95
 21
20.8318698869
  0
LINE
  5
7D7
100
AcDbEntity
  8
PORTATASTO
100
AcDbLine
 62
7
  6
CONTINUOUS
 10
18.55
 20
20.8318698869
 11
18.65
 21
20.8318698869
  0
LINE
  5
7D8
100
AcDbEntity
  8
PORTATASTO
100
AcDbLine
 62
7
  6
CONTINUOUS
 10
20.0681301131
 20
20.8318698869
 11
20.127202078
 21
20.8318698869
  0
LINE
  5
7D9
100
AcDbEntity
  8
ASSI
100
AcDbLine
 62
7
  6
CONTINUOUS
 10
-20.05
 20
20.85
 11
-18.65
 21
20.85
  0
LINE
  5
7DA
100
AcDbEntity
  8
ASSI
100
AcDbLine
 62
7
  6
CONTINUOUS
 10
20.05
 20
20.85
 11
18.65
 21
20.85
  0
LINE
  5
7DB
100
AcDbEntity
  8
ASSI
100
AcDbLine
 62
7
  6
CONTINUOUS
 10
-3.85
 20
20.85
 11
-2.75
 21
20.85
  0
LINE
  5
7DC
100
AcDbEntity
  8
ASSI
100
AcDbLine
 62
7
  6
CONTINUOUS
 10
3.85
 20
20.85
 11
2.75
 21
20.85
  0
LINE
  5
7DD
100
AcDbEntity
  8
PORTATASTO
100
AcDbLine
 62
7
  6
CONTINUOUS
 10
3.95
 20
20.9
 11
2.75
 21
20.9
  0
LINE
  5
7DE
100
AcDbEntity
  8
PORTATASTO
100
AcDbLine
 62
7
  6
CONTINUOUS
 10
-2.75
 20
20.9
 11
-3.95
 21
20.9
  0
LINE
  5
7DF
100
AcDbEntity
  8
PORTATASTO
100
AcDbLine
 62
7
  6
CONTINUOUS
 10
-18.55
 20
20.9
 11
-20.1498936624
 21
20.9
  0
LINE
  5
7E0
100
AcDbEntity
  8
PORTATASTO
100
AcDbLine
 62
7
  6
CONTINUOUS
 10
18.55
 20
20.9
 11
20.1498936624
 21
20.9
  0
LINE
  5
7E1
100
AcDbEntity
  8
PORTATASTO
100
AcDbLine
 62
7
  6
CONTINUOUS
 10
3.0174550649
 20
20.9087268678
 11
2.75
 21
20.9087268678
  0
LINE
  5
7E2
100
AcDbEntity
  8
PORTATASTO
100
AcDbLine
 62
7
  6
CONTINUOUS
 10
-2.75
 20
20.9087268678
 11
-3.0174550649
 21
20.9087268678
  0
LINE
  5
7E3
100
AcDbEntity
  8
PORTATASTO
100
AcDbLine
 62
7
  6
CONTINUOUS
 10
-18.8166456542
 20
20.9959955457
 11
-18.55
 21
20.9959955457
  0
LINE
  5
7E4
100
AcDbEntity
  8
PORTATASTO
100
AcDbLine
 62
7
  6
CONTINUOUS
 10
18.8166456542
 20
20.9959955457
 11
18.55
 21
20.9959955457
  0
LINE
  5
7E5
100
AcDbEntity
  8
PORTATASTO
100
AcDbLine
 62
7
  6
CONTINUOUS
 10
3.6833543458
 20
20.9959955457
 11
3.95
 21
20.9959955457
  0
LINE
  5
7E6
100
AcDbEntity
  8
PORTATASTO
100
AcDbLine
 62
7
  6
CONTINUOUS
 10
-3.6833543458
 20
20.9959955457
 11
-3.95
 21
20.9959955457
  0
LINE
  5
7E7
100
AcDbEntity
  8
PORTATASTO
100
AcDbLine
 62
253
  6
CONTINUOUS
 10
18.8166456542
 20
21.2859869487
 11
14.2463869628
 21
21.2859869487
  0
LINE
  5
7E8
100
AcDbEntity
  8
PORTATASTO
100
AcDbLine
 62
253
  6
CONTINUOUS
 10
8.2536130372
 20
21.2859869487
 11
3.6833543458
 21
21.2859869487
  0
LINE
  5
7E9
100
AcDbEntity
  8
PORTATASTO
100
AcDbLine
 62
253
  6
CONTINUOUS
 10
-3.6833543458
 20
21.2859869487
 11
-8.2536130372
 21
21.2859869487
  0
LINE
  5
7EA
100
AcDbEntity
  8
PORTATASTO
100
AcDbLine
 62
253
  6
CONTINUOUS
 10
-14.2463869628
 20
21.2859869487
 11
-18.8166456542
 21
21.2859869487
  0
LINE
  5
7EB
100
AcDbEntity
  8
PORTATASTO
100
AcDbLine
 62
7
  6
CONTINUOUS
 10
14.25
 20
21.7
 11
8.25
 21
21.7
  0
LINE
  5
7EC
100
AcDbEntity
  8
PORTATASTO
100
AcDbLine
 62
7
  6
CONTINUOUS
 10
-8.25
 20
21.7
 11
-14.25
 21
21.7
  0
LINE
  5
7ED
100
AcDbEntity
  8
PORTATASTO
100
AcDbLine
 62
7
  6
CONTINUOUS
 10
18.4905416262
 20
22.2859700255
 11
14.2551136829
 21
22.2859700255
  0
LINE
  5
7EE
100
AcDbEntity
  8
PORTATASTO
100
AcDbLine
 62
7
  6
CONTINUOUS
 10
8.2448863171
 20
22.2859700255
 11
4.0094583738
 21
22.2859700255
  0
LINE
  5
7EF
100
AcDbEntity
  8
PORTATASTO
100
AcDbLine
 62
7
  6
CONTINUOUS
 10
-4.0094583738
 20
22.2859700255
 11
-8.2448863171
 21
22.2859700255
  0
LINE
  5
7F0
100
AcDbEntity
  8
PORTATASTO
100
AcDbLine
 62
7
  6
CONTINUOUS
 10
-14.2551136829
 20
22.2859700255
 11
-18.4905416262
 21
22.2859700255
  0
LINE
  5
7F1
100
AcDbEntity
  8
ASSI
100
AcDbLine
 62
7
  6
CONTINUOUS
 10
2.6435241039
 20
22.2935241039
 11
-2.6435241039
 21
22.2935241039
  0
LINE
  5
7F2
100
AcDbEntity
  8
PORTATASTO
100
AcDbLine
 62
7
  6
CONTINUOUS
 10
-3.9507059952
 20
22.3383643404
 11
-2.75
 21
22.3383643404
  0
LINE
  5
7F3
100
AcDbEntity
  8
PORTATASTO
100
AcDbLine
 62
7
  6
CONTINUOUS
 10
2.75
 20
22.3383643404
 11
3.9507059952
 21
22.3383643404
  0
LINE
  5
7F4
100
AcDbEntity
  8
PORTATASTO
100
AcDbLine
 62
7
  6
CONTINUOUS
 10
-21.8412794783
 20
22.3441821702
 11
-18.5558178298
 21
22.3441821702
  0
LINE
  5
7F5
100
AcDbEntity
  8
PORTATASTO
100
AcDbLine
 62
7
  6
CONTINUOUS
 10
18.5558178298
 20
22.3441821702
 11
21.8412794783
 21
22.3441821702
  0
LINE
  5
7F6
100
AcDbEntity
  8
PORTATASTO
100
AcDbLine
 62
7
  6
CONTINUOUS
 10
18.4905416262
 20
22.35
 11
15.6552360356
 21
22.35
  0
LINE
  5
7F7
100
AcDbEntity
  8
PORTATASTO
100
AcDbLine
 62
7
  6
CONTINUOUS
 10
6.8447639644
 20
22.35
 11
2.75
 21
22.35
  0
LINE
  5
7F8
100
AcDbEntity
  8
PORTATASTO
100
AcDbLine
 62
7
  6
CONTINUOUS
 10
-2.75
 20
22.35
 11
-6.8447639644
 21
22.35
  0
LINE
  5
7F9
100
AcDbEntity
  8
PORTATASTO
100
AcDbLine
 62
7
  6
CONTINUOUS
 10
-15.6552360356
 20
22.35
 11
-18.4905416262
 21
22.35
  0
LINE
  5
7FA
100
AcDbEntity
  8
ASSI
100
AcDbLine
 62
7
  6
CONTINUOUS
 10
2.75
 20
22.4
 11
-2.75
 21
22.4
  0
LINE
  5
7FB
100
AcDbEntity
  8
PORTATASTO
100
AcDbLine
 62
7
  6
CONTINUOUS
 10
6.85
 20
23.8
 11
6.8840616468
 21
23.7659383532
  0
LINE
  5
7FC
100
AcDbEntity
  8
ASSI
100
AcDbLine
 62
7
  6
CONTINUOUS
 10
20.2787223403
 20
10.5
 11
20.6010362387
 21
10.1418665361
  0
LINE
  5
7FD
100
AcDbEntity
  8
PORTATASTO
100
AcDbLine
 62
7
  6
CONTINUOUS
 10
22.35
 20
18.5
 11
22.3849101299
 21
18.1473460386
  0
LINE
  5
7FE
100
AcDbEntity
  8
PORTATASTO
100
AcDbLine
 62
7
  6
CONTINUOUS
 10
22.3849101299
 20
-18.1473460386
 11
22.35
 21
-18.5
  0
LINE
  5
7FF
100
AcDbEntity
  8
ASSI
100
AcDbLine
 62
7
  6
CONTINUOUS
 10
18.5523811542
 20
-13.4345085856
 11
18.5
 21
-13.5
  0
LINE
  5
800
100
AcDbEntity
  8
ASSI
100
AcDbLine
 62
7
  6
CONTINUOUS
 10
22.2344815161
 20
-10.1418665361
 11
21.8673158868
 21
-10.5090321654
  0
LINE
  5
801
100
AcDbEntity
  8
ASSI
100
AcDbLine
 62
7
  6
CONTINUOUS
 10
19.9476188458
 20
-16.5261825974
 11
20.0
 21
-16.5
  0
LINE
  5
802
100
AcDbEntity
  8
PORTATASTO
100
AcDbLine
 62
7
  6
CONTINUOUS
 10
-21.8197639644
 20
23.2226497308
 11
-19.5552360356
 21
23.2226497308
  0
LINE
  5
803
100
AcDbEntity
  8
PORTATASTO
100
AcDbLine
 62
7
  6
CONTINUOUS
 10
21.8197639644
 20
23.2226497308
 11
19.5552360356
 21
23.2226497308
  0
LINE
  5
804
100
AcDbEntity
  8
PORTATASTO
100
AcDbLine
 62
7
  6
CONTINUOUS
 10
0.6802360356
 20
23.2226497308
 11
2.9447639644
 21
23.2226497308
  0
LINE
  5
805
100
AcDbEntity
  8
PORTATASTO
100
AcDbLine
 62
7
  6
CONTINUOUS
 10
-0.6802360356
 20
23.2226497308
 11
-2.9447639644
 21
23.2226497308
  0
LINE
  5
806
100
AcDbEntity
  8
PORTATASTO
100
AcDbLine
 62
7
  6
CONTINUOUS
 10
-15.6159383532
 20
23.7659383532
 11
-14.7828648461
 21
23.7659383532
  0
LINE
  5
807
100
AcDbEntity
  8
PORTATASTO
100
AcDbLine
 62
7
  6
CONTINUOUS
 10
-7.7171351539
 20
23.7659383532
 11
-6.8840616468
 21
23.7659383532
  0
LINE
  5
808
100
AcDbEntity
  8
PORTATASTO
100
AcDbLine
 62
7
  6
CONTINUOUS
 10
6.8840616468
 20
23.7659383532
 11
7.7171351539
 21
23.7659383532
  0
LINE
  5
809
100
AcDbEntity
  8
PORTATASTO
100
AcDbLine
 62
7
  6
CONTINUOUS
 10
14.7828648461
 20
23.7659383532
 11
15.6159383532
 21
23.7659383532
  0
LINE
  5
80A
100
AcDbEntity
  8
PORTATASTO
100
AcDbLine
 62
7
  6
CONTINUOUS
 10
-21.825
 20
23.8
 11
-19.55
 21
23.8
  0
LINE
  5
80B
100
AcDbEntity
  8
PORTATASTO
100
AcDbLine
 62
7
  6
CONTINUOUS
 10
21.825
 20
23.8
 11
19.55
 21
23.8
  0
LINE
  5
80C
100
AcDbEntity
  8
PORTATASTO
100
AcDbLine
 62
7
  6
CONTINUOUS
 10
0.675
 20
23.8
 11
2.95
 21
23.8
  0
LINE
  5
80D
100
AcDbEntity
  8
PORTATASTO
100
AcDbLine
 62
7
  6
CONTINUOUS
 10
-0.675
 20
23.8
 11
-2.95
 21
23.8
  0
LINE
  5
80E
100
AcDbEntity
  8
PORTATASTO
100
AcDbLine
 62
7
  6
CONTINUOUS
 10
6.85
 20
23.8
 11
15.65
 21
23.8
  0
LINE
  5
80F
100
AcDbEntity
  8
PORTATASTO
100
AcDbLine
 62
7
  6
CONTINUOUS
 10
-6.85
 20
23.8
 11
-15.65
 21
23.8
  0
LINE
  5
810
100
AcDbEntity
  8
PORTATASTO
100
AcDbLine
 62
7
  6
CONTINUOUS
 10
-21.5750034269
 20
24.5
 11
-19.7999965731
 21
24.5
  0
LINE
  5
811
100
AcDbEntity
  8
PORTATASTO
100
AcDbLine
 62
7
  6
CONTINUOUS
 10
21.5750034269
 20
24.5
 11
19.7999965731
 21
24.5
  0
LINE
  5
812
100
AcDbEntity
  8
PORTATASTO
100
AcDbLine
 62
7
  6
CONTINUOUS
 10
0.9249965731
 20
24.5
 11
2.7000034269
 21
24.5
  0
LINE
  5
813
100
AcDbEntity
  8
PORTATASTO
100
AcDbLine
 62
7
  6
CONTINUOUS
 10
-0.9249965731
 20
24.5
 11
-2.7000034269
 21
24.5
  0
LINE
  5
814
100
AcDbEntity
  8
ASSI
100
AcDbLine
 62
7
  6
CONTINUOUS
 10
19.9476188458
 20
16.5261825974
 11
20.0
 21
16.5
  0
LINE
  5
815
100
AcDbEntity
  8
ASSI
100
AcDbLine
 62
7
  6
CONTINUOUS
 10
21.8673158868
 20
10.5090321654
 11
22.2344815161
 21
10.1418665361
  0
LINE
  5
816
100
AcDbEntity
  8
ASSI
100
AcDbLine
 62
7
  6
CONTINUOUS
 10
18.5523811542
 20
13.4345085856
 11
18.5
 21
13.5
  0
LINE
  5
817
100
AcDbEntity
  8
ASSI
100
AcDbLine
 62
7
  6
CONTINUOUS
 10
20.2787223403
 20
-16.5
 11
20.6010362387
 21
-16.1418665361
  0
LINE
  5
818
100
AcDbEntity
  8
PORTATASTO
100
AcDbLine
 62
7
  6
CONTINUOUS
 10
19.3165695018
 20
-21.4537354271
 11
19.5
 21
-21.4
  0
LINE
  5
819
100
AcDbEntity
  8
PORTATASTO
100
AcDbLine
 62
7
  6
CONTINUOUS
 10
19.3165695018
 20
21.4537354271
 11
19.5
 21
21.4
  0
LINE
  5
81A
100
AcDbEntity
  8
ASSI
100
AcDbLine
 62
7
  6
CONTINUOUS
 10
20.2787223403
 20
16.5
 11
20.6010362387
 21
16.1418665361
  0
LINE
  5
81B
100
AcDbEntity
  8
PORTATASTO
100
AcDbLine
 62
7
  6
CONTINUOUS
 10
20.8273084156
 20
-20.1309095371
 11
20.127202078
 21
-20.8318698869
  0
LINE
  5
81C
100
AcDbEntity
  8
PORTATASTO
100
AcDbLine
 62
7
  6
CONTINUOUS
 10
20.85
 20
-20.1990396502
 11
20.1498936624
 21
-20.9
  0
LINE
  5
81D
100
AcDbEntity
  8
ASSI
100
AcDbLine
 62
7
  6
CONTINUOUS
 10
18.6551466838
 20
-19.6948533162
 11
18.7564758961
 21
-19.5935241039
  0
LINE
  5
81E
100
AcDbEntity
  8
ASSI
100
AcDbLine
 62
7
  6
CONTINUOUS
 10
22.2344815161
 20
-16.1418665361
 11
21.8673158868
 21
-16.5090321654
  0
LINE
  5
81F
100
AcDbEntity
  8
ASSI
100
AcDbLine
 62
253
  6
CONTINUOUS
 10
20.5652045402
 20
-18.1674681916
 11
20.5746195819
 21
-18.15805315
  0
LINE
  5
820
100
AcDbEntity
  8
ASSI
100
AcDbLine
 62
7
  6
CONTINUOUS
 10
18.7564758961
 20
-20.7435241039
 11
18.65
 21
-20.85
  0
LINE
  5
821
100
AcDbEntity
  8
ASSI
100
AcDbLine
 62
253
  6
CONTINUOUS
 10
21.2722036256
 20
-18.874467277
 11
21.2816186673
 21
-18.8650522354
  0
LINE
  5
822
100
AcDbEntity
  8
ASSI
100
AcDbLine
 62
7
  6
CONTINUOUS
 10
21.4487448495
 20
-19.3006754942
 11
20.0058962398
 21
-20.7435241039
  0
LINE
  5
823
100
AcDbEntity
  8
PORTATASTO
100
AcDbLine
 62
7
  6
CONTINUOUS
 10
18.5558178298
 20
-22.3441821702
 11
19.5
 21
-21.4
  0
LINE
  5
824
100
AcDbEntity
  8
ASSI
100
AcDbLine
 62
7
  6
CONTINUOUS
 10
20.05
 20
-20.85
 11
21.8143027805
 21
-19.0856972195
  0
LINE
  5
825
100
AcDbEntity
  8
PORTATASTO
100
AcDbLine
 62
7
  6
CONTINUOUS
 10
21.4
 20
-19.5
 11
22.3325462644
 21
-18.5674537356
  0
LINE
  5
826
100
AcDbEntity
  8
PORTATASTO
100
AcDbLine
 62
7
  6
CONTINUOUS
 10
19.3165695018
 20
-20.9917082642
 11
19.5
 21
-20.9
  0
LINE
  5
827
100
AcDbEntity
  8
PORTATASTO
100
AcDbLine
 62
7
  6
CONTINUOUS
 10
19.3165695018
 20
20.9917082642
 11
19.5
 21
20.9
  0
LINE
  5
828
100
AcDbEntity
  8
ASSI
100
AcDbLine
 62
7
  6
CONTINUOUS
 10
18.6551466838
 20
19.6948533162
 11
18.7564758961
 21
19.5935241039
  0
LINE
  5
829
100
AcDbEntity
  8
ASSI
100
AcDbLine
 62
7
  6
CONTINUOUS
 10
21.8673158868
 20
16.5090321654
 11
22.2344815161
 21
16.1418665361
  0
LINE
  5
82A
100
AcDbEntity
  8
ASSI
100
AcDbLine
 62
253
  6
CONTINUOUS
 10
20.5746195819
 20
18.15805315
 11
20.5652045402
 21
18.1674681916
  0
LINE
  5
82B
100
AcDbEntity
  8
ASSI
100
AcDbLine
 62
7
  6
CONTINUOUS
 10
18.7564758961
 20
20.7435241039
 11
18.65
 21
20.85
  0
LINE
  5
82C
100
AcDbEntity
  8
ASSI
100
AcDbLine
 62
253
  6
CONTINUOUS
 10
21.2816186673
 20
18.8650522354
 11
21.2722036256
 21
18.874467277
  0
LINE
  5
82D
100
AcDbEntity
  8
ASSI
100
AcDbLine
 62
7
  6
CONTINUOUS
 10
20.0058962398
 20
20.7435241039
 11
21.4487448495
 21
19.3006754942
  0
LINE
  5
82E
100
AcDbEntity
  8
PORTATASTO
100
AcDbLine
 62
7
  6
CONTINUOUS
 10
18.5558178298
 20
22.3441821702
 11
19.5
 21
21.4
  0
LINE
  5
82F
100
AcDbEntity
  8
PORTATASTO
100
AcDbLine
 62
7
  6
CONTINUOUS
 10
22.3325462644
 20
18.5674537356
 11
21.4
 21
19.5
  0
LINE
  5
830
100
AcDbEntity
  8
ASSI
100
AcDbLine
 62
7
  6
CONTINUOUS
 10
21.8143027805
 20
19.0856972195
 11
20.05
 21
20.85
  0
LINE
  5
831
100
AcDbEntity
  8
PORTATASTO
100
AcDbLine
 62
7
  6
CONTINUOUS
 10
20.8273084156
 20
20.1309095371
 11
20.127202078
 21
20.8318698869
  0
LINE
  5
832
100
AcDbEntity
  8
PORTATASTO
100
AcDbLine
 62
7
  6
CONTINUOUS
 10
20.85
 20
20.1990396502
 11
20.1498936624
 21
20.9
  0
ARC
  5
833
100
AcDbEntity
  8
ASSI
100
AcDbCircle
 62
253
  6
CONTINUOUS
 10
-19.8673158978
 20
-17.4509278957
 40
1.999999993
100
AcDbArc
 50
180.0036144728
 51
224.9963855272
  0
ARC
  5
834
100
AcDbEntity
  8
ASSI
100
AcDbCircle
 62
253
  6
CONTINUOUS
 10
-20.5650731607
 20
-18.1671510134
 40
1.0001648821
100
AcDbArc
 50
225.0075262522
 51
269.9924737478
  0
ARC
  5
835
100
AcDbEntity
  8
ASSI
100
AcDbCircle
 62
253
  6
CONTINUOUS
 10
-19.8676218562
 20
-17.4510546278
 40
0.9998467828
100
AcDbArc
 50
179.9999677244
 51
225.0000322756
  0
ARC
  5
836
100
AcDbEntity
  8
PORTATASTO
100
AcDbCircle
 62
7
  6
CONTINUOUS
 10
-15.25
 20
-23.15
 40
0.5
100
AcDbArc
 50
137.04856697
 51
222.95143303
  0
ARC
  5
837
100
AcDbEntity
  8
PORTATASTO
100
AcDbCircle
 62
7
  6
CONTINUOUS
 10
-7.25
 20
-23.15
 40
0.5
100
AcDbArc
 50
317.04856697
 51
42.95143303
  0
ARC
  5
838
100
AcDbEntity
  8
PORTATASTO
100
AcDbCircle
 62
7
  6
CONTINUOUS
 10
-21.8500382388
 20
-21.8500494994
 40
0.499953721
100
AcDbArc
 50
179.9962667338
 51
270.0036549929
  0
ARC
  5
839
100
AcDbEntity
  8
ASSI
100
AcDbCircle
 62
7
  6
CONTINUOUS
 10
-12.9444970643
 20
-19.1854535215
 40
0.3032988911
100
AcDbArc
 50
243.6927463583
 51
268.9603903224
  0
ARC
  5
83A
100
AcDbEntity
  8
ASSI
100
AcDbCircle
 62
7
  6
CONTINUOUS
 10
-7.5555029346
 20
-19.1854538252
 40
0.303298595
100
AcDbArc
 50
271.0396105058
 51
296.3033240842
  0
ARC
  5
83B
100
AcDbEntity
  8
ASSI
100
AcDbCircle
 62
7
  6
CONTINUOUS
 10
-7.5499670958
 20
-19.2059100106
 40
0.3006720412
100
AcDbArc
 50
269.9937298001
 51
303.1387301159
  0
ARC
  5
83C
100
AcDbEntity
  8
ASSI
100
AcDbCircle
 62
7
  6
CONTINUOUS
 10
-12.9500329042
 20
-19.2059100106
 40
0.3006720412
100
AcDbArc
 50
236.8612698841
 51
270.0062701999
  0
ARC
  5
83D
100
AcDbEntity
  8
ASSI
100
AcDbCircle
 62
7
  6
CONTINUOUS
 10
-7.55
 20
-19.6
 40
0.3
100
AcDbArc
 50
270.0
 51
360.0
  0
ARC
  5
83E
100
AcDbEntity
  8
ASSI
100
AcDbCircle
 62
7
  6
CONTINUOUS
 10
-12.95
 20
-19.6
 40
0.3
100
AcDbArc
 50
180.0
 51
270.0
  0
ARC
  5
83F
100
AcDbEntity
  8
ASSI
100
AcDbCircle
 62
7
  6
CONTINUOUS
 10
-5.9448515235
 20
-19.1689287936
 40
0.2986446773
100
AcDbArc
 50
261.7080606963
 51
269.9905918593
  0
ARC
  5
840
100
AcDbEntity
  8
ASSI
100
AcDbCircle
 62
7
  6
CONTINUOUS
 10
-14.555148476
 20
-19.1689288457
 40
0.2986446252
100
AcDbArc
 50
270.0094080455
 51
278.2918943424
  0
ARC
  5
841
100
AcDbEntity
  8
CURVE
100
AcDbCircle
 62
253
  6
CONTINUOUS
 10
-18.2637621565
 20
-10.8099267339
 40
0.8
100
AcDbArc
 50
60.1105107414
 51
138.735359034
  0
ARC
  5
842
100
AcDbEntity
  8
CURVE
100
AcDbCircle
 62
253
  6
CONTINUOUS
 10
-17.2063397796
 20
-9.5722442557
 40
0.8
100
AcDbArc
 50
240.1105107414
 51
318.735359034
  0
ARC
  5
843
100
AcDbEntity
  8
ASSI
100
AcDbCircle
 62
7
  6
CONTINUOUS
 10
-18.9
 20
-7.5
 40
0.25
100
AcDbArc
 50
180.0
 51
270.0
  0
ARC
  5
844
100
AcDbEntity
  8
ASSI
100
AcDbCircle
 62
7
  6
CONTINUOUS
 10
-16.1
 20
-7.5
 40
0.25
100
AcDbArc
 50
270.0
 51
360.0
  0
ARC
  5
845
100
AcDbEntity
  8
ASSI
100
AcDbCircle
 62
7
  6
CONTINUOUS
 10
-16.1
 20
-2.2
 40
0.25
100
AcDbArc
 50
0.0
 51
90.0
  0
ARC
  5
846
100
AcDbEntity
  8
ASSI
100
AcDbCircle
 62
7
  6
CONTINUOUS
 10
-18.9
 20
-2.2
 40
0.25
100
AcDbArc
 50
90.0
 51
180.0
  0
ARC
  5
847
100
AcDbEntity
  8
ASSI
100
AcDbCircle
 62
7
  6
CONTINUOUS
 10
-13.9
 20
-7.5
 40
0.25
100
AcDbArc
 50
180.0
 51
270.0
  0
ARC
  5
848
100
AcDbEntity
  8
ASSI
100
AcDbCircle
 62
7
  6
CONTINUOUS
 10
-11.1
 20
-7.5
 40
0.25
100
AcDbArc
 50
270.0
 51
360.0
  0
ARC
  5
849
100
AcDbEntity
  8
ASSI
100
AcDbCircle
 62
7
  6
CONTINUOUS
 10
-11.1
 20
-2.2
 40
0.25
100
AcDbArc
 50
0.0
 51
90.0
  0
ARC
  5
84A
100
AcDbEntity
  8
ASSI
100
AcDbCircle
 62
7
  6
CONTINUOUS
 10
-13.9
 20
-2.2
 40
0.25
100
AcDbArc
 50
90.0
 51
180.0
  0
ARC
  5
84B
100
AcDbEntity
  8
ASSI
100
AcDbCircle
 62
7
  6
CONTINUOUS
 10
-8.9
 20
-7.5
 40
0.25
100
AcDbArc
 50
180.0
 51
270.0
  0
ARC
  5
84C
100
AcDbEntity
  8
ASSI
100
AcDbCircle
 62
7
  6
CONTINUOUS
 10
-6.1
 20
-7.5
 40
0.25
100
AcDbArc
 50
270.0
 51
360.0
  0
ARC
  5
84D
100
AcDbEntity
  8
ASSI
100
AcDbCircle
 62
7
  6
CONTINUOUS
 10
-6.1
 20
-2.2
 40
0.25
100
AcDbArc
 50
0.0
 51
90.0
  0
ARC
  5
84E
100
AcDbEntity
  8
ASSI
100
AcDbCircle
 62
7
  6
CONTINUOUS
 10
-8.9
 20
-2.2
 40
0.25
100
AcDbArc
 50
90.0
 51
180.0
  0
ARC
  5
84F
100
AcDbEntity
  8
ASSI
100
AcDbCircle
 62
253
  6
CONTINUOUS
 10
19.8673159132
 20
-17.450927902
 40
1.9999999776
100
AcDbArc
 50
315.0036142902
 51
359.9963857098
  0
ARC
  5
850
100
AcDbEntity
  8
ASSI
100
AcDbCircle
 62
253
  6
CONTINUOUS
 10
20.5650731607
 20
-18.1671510134
 40
1.0001648821
100
AcDbArc
 50
270.0075262522
 51
314.9924737478
  0
ARC
  5
851
100
AcDbEntity
  8
ASSI
100
AcDbCircle
 62
253
  6
CONTINUOUS
 10
19.8676319894
 20
-17.4510588251
 40
0.9998362022
100
AcDbArc
 50
314.9997271973
 51
0.0002728027
  0
ARC
  5
852
100
AcDbEntity
  8
CURVE
100
AcDbCircle
 62
253
  6
CONTINUOUS
 10
3.0
 20
-16.7
 40
0.7
100
AcDbArc
 50
90.0
 51
315.0
  0
ARC
  5
853
100
AcDbEntity
  8
CURVE
100
AcDbCircle
 62
253
  6
CONTINUOUS
 10
3.0
 20
-15.4
 40
0.6
100
AcDbArc
 50
60.0
 51
270.0
  0
ARC
  5
854
100
AcDbEntity
  8
PORTATASTO
100
AcDbCircle
 62
7
  6
CONTINUOUS
 10
7.25
 20
-23.15
 40
0.5
100
AcDbArc
 50
137.04856697
 51
222.95143303
  0
ARC
  5
855
100
AcDbEntity
  8
PORTATASTO
100
AcDbCircle
 62
7
  6
CONTINUOUS
 10
15.25
 20
-23.15
 40
0.5
100
AcDbArc
 50
317.04856697
 51
42.95143303
  0
ARC
  5
856
100
AcDbEntity
  8
PORTATASTO
100
AcDbCircle
 62
7
  6
CONTINUOUS
 10
21.8500379269
 20
-21.8500492562
 40
0.4999540432
100
AcDbArc
 50
270.0392712812
 51
0.0318712707
  0
CIRCLE
  5
857
100
AcDbEntity
  8
CURVE
100
AcDbCircle
 62
253
  6
CONTINUOUS
 10
4.0
 20
-4.0
 40
1.125
  0
ARC
  5
858
100
AcDbEntity
  8
PORTATASTO
100
AcDbCircle
 62
7
  6
CONTINUOUS
 10
8.2
 20
0.0
 40
3.6
100
AcDbArc
 50
24.6341503938
 51
101.296424906
  0
ARC
  5
859
100
AcDbEntity
  8
PORTATASTO
100
AcDbCircle
 62
7
  6
CONTINUOUS
 10
8.2
 20
0.0
 40
3.6
100
AcDbArc
 50
258.703575094
 51
335.3658496062
  0
ARC
  5
85A
100
AcDbEntity
  8
PORTATASTO
100
AcDbCircle
 62
253
  6
CONTINUOUS
 10
8.2
 20
0.0
 40
3.5980717138
100
AcDbArc
 50
258.6865655923
 51
335.3526206116
  0
ARC
  5
85B
100
AcDbEntity
  8
PORTATASTO
100
AcDbCircle
 62
253
  6
CONTINUOUS
 10
8.2
 20
0.0
 40
3.5980717138
100
AcDbArc
 50
24.647379385
 51
101.3134344059
  0
ARC
  5
85C
100
AcDbEntity
  8
PORTATASTO
100
AcDbCircle
 62
7
  6
CONTINUOUS
 10
-0.55
 20
13.6
 40
3.5705307923
100
AcDbArc
 50
22.4026885571
 51
26.2944342619
  0
ARC
  5
85D
100
AcDbEntity
  8
PORTATASTO
100
AcDbCircle
 62
7
  6
CONTINUOUS
 10
-0.55
 20
13.6
 40
3.5705307923
100
AcDbArc
 50
171.9499509924
 51
173.5626144006
  0
ARC
  5
85E
100
AcDbEntity
  8
PORTATASTO
100
AcDbCircle
 62
7
  6
CONTINUOUS
 10
-0.55
 20
13.6
 40
3.5
100
AcDbArc
 50
19.3903445843
 51
23.858614379
  0
ARC
  5
85F
100
AcDbEntity
  8
PORTATASTO
100
AcDbCircle
 62
7
  6
CONTINUOUS
 10
-0.55
 20
13.6
 40
3.5
100
AcDbArc
 50
171.7847528127
 51
173.4382712943
  0
ARC
  5
860
100
AcDbEntity
  8
PORTATASTO
100
AcDbCircle
 62
253
  6
CONTINUOUS
 10
8.2
 20
0.0
 40
2.9981630967
100
AcDbArc
 50
256.4962376083
 51
329.9764643191
  0
ARC
  5
861
100
AcDbEntity
  8
PORTATASTO
100
AcDbCircle
 62
253
  6
CONTINUOUS
 10
8.2
 20
0.0
 40
2.9981630967
100
AcDbArc
 50
30.0235333938
 51
103.5037627152
  0
ARC
  5
862
100
AcDbEntity
  8
ASSI
100
AcDbCircle
 62
253
  6
CONTINUOUS
 10
19.8673158978
 20
17.4509278957
 40
1.999999993
100
AcDbArc
 50
0.0036144728
 51
44.9963855272
  0
ARC
  5
863
100
AcDbEntity
  8
RACCORDO
100
AcDbCircle
 62
253
  6
CONTINUOUS
 10
-19.7749924234
 20
17.0674167718
 40
1.9998766778
100
AcDbArc
 50
90.0098628343
 51
179.9992448321
  0
ARC
  5
864
100
AcDbEntity
  8
RACCORDO
100
AcDbCircle
 62
7
  6
CONTINUOUS
 10
-19.8916317281
 20
17.1836227226
 40
1.9993498409
100
AcDbArc
 50
95.98664818
 51
174.0125583336
  0
ARC
  5
865
100
AcDbEntity
  8
RACCORDO
100
AcDbCircle
 62
7
  6
CONTINUOUS
 10
-19.8900245412
 20
17.1851792734
 40
1.9979661123
100
AcDbArc
 50
90.0334470434
 51
96.0371417336
  0
ARC
  5
866
100
AcDbEntity
  8
RACCORDO
100
AcDbCircle
 62
7
  6
CONTINUOUS
 10
-19.8934144697
 20
17.1822435542
 40
1.997700734
100
AcDbArc
 50
173.9678849236
 51
179.9588566319
  0
ARC
  5
867
100
AcDbEntity
  8
ASSI
100
AcDbCircle
 62
253
  6
CONTINUOUS
 10
20.5650731607
 20
18.1671510134
 40
1.0001648821
100
AcDbArc
 50
45.0075262522
 51
89.9924737478
  0
ARC
  5
868
100
AcDbEntity
  8
CURVE
100
AcDbCircle
 62
253
  6
CONTINUOUS
 10
0.625
 20
5.0
 40
1.0
100
AcDbArc
 50
112.024312837
 51
67.975687163
  0
ARC
  5
869
100
AcDbEntity
  8
ASSI
100
AcDbCircle
 62
253
  6
CONTINUOUS
 10
19.8676218513
 20
17.4510546257
 40
0.9998467828
100
AcDbArc
 50
359.9999678419
 51
45.000032158
  0
ARC
  5
86A
100
AcDbEntity
  8
RACCORDO
100
AcDbCircle
 62
253
  6
CONTINUOUS
 10
-19.7753370797
 20
17.0764869518
 40
0.9996880536
100
AcDbArc
 50
89.999977068
 51
180.0181846727
  0
ARC
  5
86B
100
AcDbEntity
  8
PORTATASTO
100
AcDbCircle
 62
7
  6
CONTINUOUS
 10
7.25
 20
23.15
 40
0.5
100
AcDbArc
 50
137.04856697
 51
222.95143303
  0
ARC
  5
86C
100
AcDbEntity
  8
PORTATASTO
100
AcDbCircle
 62
7
  6
CONTINUOUS
 10
15.25
 20
23.15
 40
0.5
100
AcDbArc
 50
317.04856697
 51
42.95143303
  0
ARC
  5
86D
100
AcDbEntity
  8
PORTATASTO
100
AcDbCircle
 62
7
  6
CONTINUOUS
 10
-15.25
 20
23.15
 40
0.5
100
AcDbArc
 50
137.04856697
 51
222.95143303
  0
ARC
  5
86E
100
AcDbEntity
  8
PORTATASTO
100
AcDbCircle
 62
7
  6
CONTINUOUS
 10
-7.25
 20
23.15
 40
0.5
100
AcDbArc
 50
317.04856697
 51
42.95143303
  0
ARC
  5
86F
100
AcDbEntity
  8
PORTATASTO
100
AcDbCircle
 62
7
  6
CONTINUOUS
 10
-21.8500379951
 20
21.8500492541
 40
0.4999540432
100
AcDbArc
 50
90.0392634605
 51
180.0318710392
  0
ARC
  5
870
100
AcDbEntity
  8
PORTATASTO
100
AcDbCircle
 62
7
  6
CONTINUOUS
 10
21.8500381445
 20
21.8500495277
 40
0.499953721
100
AcDbArc
 50
359.9962634925
 51
90.0036441889
  0
ARC
  5
871
100
AcDbEntity
  8
ASSI
100
AcDbCircle
 62
7
  6
CONTINUOUS
 10
-7.5555029729
 20
19.1854535281
 40
0.3032988911
100
AcDbArc
 50
63.6927395097
 51
88.960383278
  0
ARC
  5
872
100
AcDbEntity
  8
ASSI
100
AcDbCircle
 62
7
  6
CONTINUOUS
 10
-12.9444971051
 20
19.1854538173
 40
0.303298595
100
AcDbArc
 50
91.0396029706
 51
116.3033166883
  0
ARC
  5
873
100
AcDbEntity
  8
ASSI
100
AcDbCircle
 62
7
  6
CONTINUOUS
 10
-12.9500329042
 20
19.2059100106
 40
0.3006720412
100
AcDbArc
 50
89.9937298001
 51
123.1387301159
  0
ARC
  5
874
100
AcDbEntity
  8
ASSI
100
AcDbCircle
 62
7
  6
CONTINUOUS
 10
-7.5499670958
 20
19.2059100106
 40
0.3006720412
100
AcDbArc
 50
56.8612698841
 51
90.0062701999
  0
ARC
  5
875
100
AcDbEntity
  8
ASSI
100
AcDbCircle
 62
7
  6
CONTINUOUS
 10
-7.55
 20
19.6
 40
0.3
100
AcDbArc
 50
0.0
 51
90.0
  0
ARC
  5
876
100
AcDbEntity
  8
ASSI
100
AcDbCircle
 62
7
  6
CONTINUOUS
 10
-12.95
 20
19.6
 40
0.3
100
AcDbArc
 50
90.0
 51
180.0
  0
ARC
  5
877
100
AcDbEntity
  8
ASSI
100
AcDbCircle
 62
7
  6
CONTINUOUS
 10
-14.5551484765
 20
19.1689287936
 40
0.2986446773
100
AcDbArc
 50
81.7080606963
 51
89.9905918594
  0
ARC
  5
878
100
AcDbEntity
  8
ASSI
100
AcDbCircle
 62
7
  6
CONTINUOUS
 10
-5.944851524
 20
19.1689288457
 40
0.2986446252
100
AcDbArc
 50
90.0094080455
 51
98.2918943425
  0
ARC
  5
879
100
AcDbEntity
  8
CURVE
100
AcDbCircle
 62
253
  6
CONTINUOUS
 10
68.4589796992
 20
-5.98467421
 40
90.8056004093
100
AcDbArc
 50
179.8863943748
 51
180.1855862268
  0
SPLINE
  5
87A
100
AcDbEntity
  8
RACCORDO
100
AcDbSpline
 62
7
  6
CONTINUOUS
 70
0
 71
3
 72
11
 73
7
 74
5
 42
0.0000001
 43
0.0000001
 44
0.0000000001
 12
-0.4455882549
 22
-0.2874662287
 32
0.0
 13
2.3924875709
 23
0.0
 33
0.0
 40
0.0
 40
0.0
 40
0.0
 40
0.0
 40
0.0912770422
 40
0.3125514374
 40
0.6301600986
 40
1.0
 40
1.0
 40
1.0
 40
1.0
 10
-11.1507790802
 20
19.1379659684
 30
0.0
 10
-11.1643364062
 20
19.1292196127
 30
0.0
 10
-10.7107345238
 20
19.1189501821
 30
0.0
 10
-10.3755360576
 20
19.1086432836
 30
0.0
 10
-9.5709352551
 20
19.10132631
 30
0.0
 10
-9.0449457891
 20
19.0996186378
 30
0.0
 10
-8.75
 20
19.0996186378
 30
0.0
 11
-11.1507790802
 21
19.1379659684
 31
0.0
 11
-10.923904879
 21
19.1236613265
 31
0.0
 11
-10.3946607044
 21
19.1109734261
 31
0.0
 11
-9.6348324655
 21
19.1025638921
 31
0.0
 11
-8.75
 21
19.0996186378
 31
0.0
  0
LINE
  5
87B
100
AcDbEntity
  8
RACCORDO
100
AcDbLine
 62
7
  6
CONTINUOUS
 10
-9.0751973794
 20
19.1831450453
 11
-8.75
 21
19.1830678153
  0
LINE
  5
87C
100
AcDbEntity
  8
RACCORDO
100
AcDbLine
 62
7
  6
CONTINUOUS
 10
-8.75
 20
19.1830678153
 11
-8.6405334936
 21
19.1831192203
  0
LINE
  5
87D
100
AcDbEntity
  8
RACCORDO
100
AcDbLine
 62
7
  6
CONTINUOUS
 10
-8.6405334936
 20
19.1831192203
 11
-8.4592972871
 21
19.1832031433
  0
LINE
  5
87E
100
AcDbEntity
  8
RACCORDO
100
AcDbLine
 62
7
  6
CONTINUOUS
 10
-8.4592972871
 20
19.1832031433
 11
-8.4248026206
 21
19.1831450453
  0
SPLINE
  5
87F
100
AcDbEntity
  8
RACCORDO
100
AcDbSpline
 62
7
  6
CONTINUOUS
 70
0
 71
3
 72
12
 73
8
 74
6
 42
0.0000001
 43
0.0000001
 44
0.0000000001
 12
-2.0821084479
 22
-0.0049647383
 32
0.0
 13
-0.3877828745
 23
-0.2501737406
 33
0.0
 40
0.0
 40
0.0
 40
0.0
 40
0.0
 40
0.4050215486
 40
0.7364307136
 40
0.9430793387
 40
0.9965479479
 40
1.0
 40
1.0
 40
1.0
 40
1.0
 10
-9.0754344182
 20
19.1831450453
 30
0.0
 10
-9.3565340141
 20
19.18247477
 30
0.0
 10
-9.8553978135
 20
19.1832649365
 30
0.0
 10
-10.5512243085
 20
19.1626662943
 30
0.0
 10
-10.887413742
 20
19.1736343122
 30
0.0
 10
-11.1403668965
 20
19.1431031832
 30
0.0
 10
-11.1503328647
 20
19.1382538394
 30
0.0
 10
-11.1507790802
 20
19.1379659684
 30
0.0
 11
-9.0754344182
 21
19.1831450453
 31
0.0
 11
-9.9187213357
 21
19.1782395558
 31
0.0
 11
-10.6086798581
 21
19.1681847023
 31
0.0
 11
-11.0387254885
 21
19.1544134361
 31
0.0
 11
-11.1489597898
 21
19.1388484483
 31
0.0
 11
-11.1507790802
 21
19.1379659684
 31
0.0
  0
SPLINE
  5
880
100
AcDbEntity
  8
RACCORDO
100
AcDbSpline
 62
7
  6
CONTINUOUS
 70
0
 71
3
 72
12
 73
8
 74
6
 42
0.0000001
 43
0.0000001
 44
0.0000000001
 12
-0.3877828745
 22
0.2501737406
 32
0.0
 13
-2.0821084479
 23
0.0049647383
 33
0.0
 40
0.0
 40
0.0
 40
0.0
 40
0.0
 40
0.0034520521
 40
0.0569206613
 40
0.2635692864
 40
0.5949784514
 40
1.0
 40
1.0
 40
1.0
 40
1.0
 10
-6.3492209198
 20
19.1379659684
 30
0.0
 10
-6.3496671353
 20
19.1382538394
 30
0.0
 10
-6.3596331035
 20
19.1431031832
 30
0.0
 10
-6.612586258
 20
19.1736343122
 30
0.0
 10
-6.9487756915
 20
19.1626662943
 30
0.0
 10
-7.6446021865
 20
19.1832649365
 30
0.0
 10
-8.1434659859
 20
19.18247477
 30
0.0
 10
-8.4245655818
 20
19.1831450453
 30
0.0
 11
-6.3492209198
 21
19.1379659684
 31
0.0
 11
-6.3510402102
 21
19.1388484483
 31
0.0
 11
-6.4612745115
 21
19.1544134361
 31
0.0
 11
-6.8913201419
 21
19.1681847023
 31
0.0
 11
-7.5812786643
 21
19.1782395558
 31
0.0
 11
-8.4245655818
 21
19.1831450453
 31
0.0
  0
SPLINE
  5
881
100
AcDbEntity
  8
RACCORDO
100
AcDbSpline
 62
253
  6
CONTINUOUS
 70
0
 71
3
 72
10
 73
6
 74
4
 42
0.0000001
 43
0.0000001
 44
0.0000000001
 12
0.8943096832
 22
0.4472918198
 32
0.0
 13
0.9999298768
 23
0.0001514044
 33
0.0
 40
0.0
 40
0.0
 40
0.0
 40
0.0
 40
0.1397849518
 40
0.5050292707
 40
1.0
 40
1.0
 40
1.0
 40
1.0
 10
-21.7748797418
 20
17.0674431307
 30
0.0
 10
-21.7332093965
 20
17.0882846858
 30
0.0
 10
-21.5539423073
 20
17.0506590289
 30
0.0
 10
-21.2299722536
 20
17.0874823345
 30
0.0
 10
-20.9400107201
 20
17.0761446859
 30
0.0
 10
-20.7750320467
 20
17.0761696662
 30
0.0
 11
-21.7748797418
 21
17.0674431307
 31
0.0
 11
-21.635171374
 21
17.0717634162
 31
0.0
 11
-21.2699665718
 21
17.0749507906
 31
0.0
 11
-20.7750320467
 21
17.0761696662
 31
0.0
  0
LINE
  5
882
100
AcDbEntity
  8
PORTATASTO
100
AcDbLine
 62
253
  6
CONTINUOUS
 10
6.884483625
 20
23.7585444086
 11
6.8844775215
 21
23.4906890802
  0
LINE
  5
883
100
AcDbEntity
  8
PORTATASTO
100
AcDbLine
 62
253
  6
CONTINUOUS
 10
6.8844775215
 20
23.4906890802
 11
6.8844619952
 21
22.8093109
  0
LINE
  5
884
100
AcDbEntity
  8
PORTATASTO
100
AcDbLine
 62
253
  6
CONTINUOUS
 10
6.8844619952
 20
22.8093109
 11
6.8844505243
 21
22.3059037278
  0
LINE
  5
885
100
AcDbEntity
  8
PORTATASTO
100
AcDbLine
 62
253
  6
CONTINUOUS
 10
15.615516375
 20
23.7585444086
 11
15.6155224785
 21
23.4906890802
  0
LINE
  5
886
100
AcDbEntity
  8
PORTATASTO
100
AcDbLine
 62
253
  6
CONTINUOUS
 10
15.6155224785
 20
23.4906890802
 11
15.6155380048
 21
22.8093109
  0
LINE
  5
887
100
AcDbEntity
  8
PORTATASTO
100
AcDbLine
 62
253
  6
CONTINUOUS
 10
15.6155380048
 20
22.8093109
 11
15.6155494757
 21
22.3059037278
  0
LINE
  5
888
100
AcDbEntity
  8
PORTATASTO
100
AcDbLine
 62
253
  6
CONTINUOUS
 10
15.6155494757
 20
-22.3059037278
 11
15.6155380048
 21
-22.8093109
  0
LINE
  5
889
100
AcDbEntity
  8
PORTATASTO
100
AcDbLine
 62
253
  6
CONTINUOUS
 10
15.6155380048
 20
-22.8093109
 11
15.6155224785
 21
-23.4906890802
  0
LINE
  5
88A
100
AcDbEntity
  8
PORTATASTO
100
AcDbLine
 62
253
  6
CONTINUOUS
 10
15.6155224785
 20
-23.4906890802
 11
15.615516375
 21
-23.7585444086
  0
LINE
  5
88B
100
AcDbEntity
  8
PORTATASTO
100
AcDbLine
 62
253
  6
CONTINUOUS
 10
6.8844505243
 20
-22.3059037278
 11
6.8844619952
 21
-22.8093109
  0
LINE
  5
88C
100
AcDbEntity
  8
PORTATASTO
100
AcDbLine
 62
253
  6
CONTINUOUS
 10
6.8844619952
 20
-22.8093109
 11
6.8844775215
 21
-23.4906890802
  0
LINE
  5
88D
100
AcDbEntity
  8
PORTATASTO
100
AcDbLine
 62
253
  6
CONTINUOUS
 10
6.8844775215
 20
-23.4906890802
 11
6.884483625
 21
-23.7585444086
  0
LINE
  5
88E
100
AcDbEntity
  8
PORTATASTO
100
AcDbLine
 62
253
  6
CONTINUOUS
 10
-15.6155494757
 20
22.3059037278
 11
-15.6155380048
 21
22.8093109
  0
LINE
  5
88F
100
AcDbEntity
  8
PORTATASTO
100
AcDbLine
 62
253
  6
CONTINUOUS
 10
-15.6155380048
 20
22.8093109
 11
-15.6155224785
 21
23.4906890802
  0
LINE
  5
890
100
AcDbEntity
  8
PORTATASTO
100
AcDbLine
 62
253
  6
CONTINUOUS
 10
-15.6155224785
 20
23.4906890802
 11
-15.615516375
 21
23.7585444086
  0
LINE
  5
891
100
AcDbEntity
  8
PORTATASTO
100
AcDbLine
 62
253
  6
CONTINUOUS
 10
-6.8844505243
 20
22.3059037278
 11
-6.8844619952
 21
22.8093109
  0
LINE
  5
892
100
AcDbEntity
  8
PORTATASTO
100
AcDbLine
 62
253
  6
CONTINUOUS
 10
-6.8844619952
 20
22.8093109
 11
-6.8844775215
 21
23.4906890802
  0
LINE
  5
893
100
AcDbEntity
  8
PORTATASTO
100
AcDbLine
 62
253
  6
CONTINUOUS
 10
-6.8844775215
 20
23.4906890802
 11
-6.884483625
 21
23.7585444086
  0
LINE
  5
894
100
AcDbEntity
  8
PORTATASTO
100
AcDbLine
 62
253
  6
CONTINUOUS
 10
-6.884483625
 20
-23.7585444086
 11
-6.8844775215
 21
-23.4906890802
  0
LINE
  5
895
100
AcDbEntity
  8
PORTATASTO
100
AcDbLine
 62
253
  6
CONTINUOUS
 10
-6.8844775215
 20
-23.4906890802
 11
-6.8844619952
 21
-22.8093109
  0
LINE
  5
896
100
AcDbEntity
  8
PORTATASTO
100
AcDbLine
 62
253
  6
CONTINUOUS
 10
-6.8844619952
 20
-22.8093109
 11
-6.8844505243
 21
-22.3059037278
  0
LINE
  5
897
100
AcDbEntity
  8
PORTATASTO
100
AcDbLine
 62
253
  6
CONTINUOUS
 10
-15.615516375
 20
-23.7585444086
 11
-15.6155224785
 21
-23.4906890802
  0
LINE
  5
898
100
AcDbEntity
  8
PORTATASTO
100
AcDbLine
 62
253
  6
CONTINUOUS
 10
-15.6155224785
 20
-23.4906890802
 11
-15.6155380048
 21
-22.8093109
  0
LINE
  5
899
100
AcDbEntity
  8
PORTATASTO
100
AcDbLine
 62
253
  6
CONTINUOUS
 10
-15.6155380048
 20
-22.8093109
 11
-15.6155494757
 21
-22.3059037278
  0
SPLINE
  5
89A
100
AcDbEntity
  8
PORTATASTO
100
AcDbSpline
 62
7
  6
CONTINUOUS
 70
0
 71
3
 72
20
 73
16
 74
14
 42
0.0000001
 43
0.0000001
 44
0.0000000001
 12
0.4386829796
 22
-0.477220315
 32
0.0
 13
0.0194704804
 23
-0.6479219753
 33
0.0
 40
0.0
 40
0.0
 40
0.0
 40
0.0
 40
0.137259483
 40
0.2706046927
 40
0.396061918
 40
0.510527679
 40
0.6125876711
 40
0.7017124812
 40
0.7775468909
 40
0.8407175833
 40
0.8920126747
 40
0.9326412028
 40
0.9635266274
 40
0.9856620984
 40
1.0
 40
1.0
 40
1.0
 40
1.0
 10
15.1970254618
 20
-23.2659657686
 30
0.0
 10
15.2170965948
 20
-23.2878001065
 30
0.0
 10
15.25665929
 20
-23.3308527496
 30
0.0
 10
15.3144636507
 20
-23.393957485
 30
0.0
 10
15.3687662186
 20
-23.453590572
 30
0.0
 10
15.4182722949
 20
-23.5084479997
 30
0.0
 10
15.4622078809
 20
-23.5577566994
 30
0.0
 10
15.5002142643
 20
-23.601165693
 30
0.0
 10
15.5322427677
 20
-23.6386374725
 30
0.0
 10
15.5584433824
 20
-23.6703281245
 30
0.0
 10
15.5791997139
 20
-23.6966498778
 30
0.0
 10
15.5949106232
 20
-23.7180257942
 30
0.0
 10
15.6060469677
 20
-23.7349805699
 30
0.0
 10
15.6128732693
 20
-23.7477798719
 30
0.0
 10
15.6154233198
 20
-23.7554477948
 30
0.0
 10
15.615516375
 20
-23.7585444086
 30
0.0
 11
15.1970254618
 21
-23.2659657686
 31
0.0
 11
15.2572139269
 21
-23.3314916939
 31
0.0
 11
15.3155826553
 21
-23.3952437472
 31
0.0
 11
15.3703182137
 21
-23.4553892331
 31
0.0
 11
15.4200066165
 21
-23.5104933116
 31
0.0
 11
15.4639904907
 21
-23.5599112845
 31
0.0
 11
15.5020125537
 21
-23.6034075559
 31
0.0
 11
15.5339083591
 21
-23.6408116253
 31
0.0
 11
15.5599441987
 21
-23.6724167919
 31
0.0
 11
15.5804583218
 21
-23.6985844796
 31
0.0
 11
15.5959489865
 21
-23.7198829342
 31
0.0
 11
15.6067713138
 21
-23.7367261168
 31
0.0
 11
15.6132413071
 21
-23.7495331293
 31
0.0
 11
15.615516375
 21
-23.7585444086
 31
0.0
  0
SPLINE
  5
89B
100
AcDbEntity
  8
PORTATASTO
100
AcDbSpline
 62
7
  6
CONTINUOUS
 70
0
 71
3
 72
11
 73
7
 74
5
 42
0.0000001
 43
0.0000001
 44
0.0000000001
 12
-0.0006047414
 22
0.0692965049
 32
0.0
 13
0.0415060883
 23
0.0554780063
 33
0.0
 40
0.0
 40
0.0
 40
0.0
 40
0.0
 40
0.1315134432
 40
0.3359155698
 40
0.6223037684
 40
1.0
 40
1.0
 40
1.0
 40
1.0
 10
14.7828036127
 20
-23.7589217043
 30
0.0
 10
14.7827771022
 20
-23.755883897
 30
0.0
 10
14.7851419635
 20
-23.7482612776
 30
0.0
 10
14.7917348448
 20
-23.7355500251
 30
0.0
 10
14.8026352809
 20
-23.7186423734
 30
0.0
 10
14.8116326824
 20
-23.7062239247
 30
0.0
 10
14.8168582468
 20
-23.6992393134
 30
0.0
 11
14.7828036127
 21
-23.7589217043
 31
0.0
 11
14.7848118276
 21
-23.7500319429
 31
0.0
 11
14.7910328344
 21
-23.7373062504
 31
0.0
 11
14.8016124655
 21
-23.7205147866
 31
0.0
 11
14.8168582468
 21
-23.6992393134
 31
0.0
  0
SPLINE
  5
89C
100
AcDbEntity
  8
PORTATASTO
100
AcDbSpline
 62
7
  6
CONTINUOUS
 70
0
 71
3
 72
16
 73
12
 74
10
 42
0.0000001
 43
0.0000001
 44
0.0000000001
 12
0.345319771
 22
0.4615624651
 32
0.0
 13
0.3881686342
 23
0.4263048497
 33
0.0
 40
0.0
 40
0.0
 40
0.0
 40
0.0
 40
0.0574031267
 40
0.1281701985
 40
0.2131664144
 40
0.3130897145
 40
0.4275267664
 40
0.5558804872
 40
0.69657505
 40
0.846111034
 40
1.0
 40
1.0
 40
1.0
 40
1.0
 10
14.8168582468
 20
-23.6992393134
 30
0.0
 10
14.823465725
 20
-23.6904076039
 30
0.0
 10
14.838605639
 20
-23.670967781
 30
0.0
 10
14.8645343417
 20
-23.6392497258
 30
0.0
 10
14.8962667023
 20
-23.6017276143
 30
0.0
 10
14.9339459821
 20
-23.5582509486
 30
0.0
 10
14.9775201365
 20
-23.5088601302
 30
0.0
 10
15.0266312544
 20
-23.4539076577
 30
0.0
 10
15.0805086752
 20
-23.3941694379
 30
0.0
 10
15.1378610449
 20
-23.3309574015
 30
0.0
 10
15.1771138385
 20
-23.2878336394
 30
0.0
 10
15.1970254618
 20
-23.2659657686
 30
0.0
 11
14.8168582468
 21
-23.6992393134
 31
0.0
 11
14.8371173443
 21
-23.6730686846
 31
0.0
 11
14.8628829958
 21
-23.6414326784
 31
0.0
 11
14.8944829558
 21
-23.6039774237
 31
0.0
 11
14.9321786427
 21
-23.5604108643
 31
0.0
 11
14.9758003798
 21
-23.5109099431
 31
0.0
 11
15.0250905173
 21
-23.4557117395
 31
0.0
 11
15.0793995707
 21
-23.395457416
 31
0.0
 11
15.137315752
 21
-23.3315922815
 31
0.0
 11
15.1970254618
 21
-23.2659657686
 31
0.0
  0
SPLINE
  5
89D
100
AcDbEntity
  8
PORTATASTO
100
AcDbSpline
 62
7
  6
CONTINUOUS
 70
0
 71
3
 72
32
 73
28
 74
26
 42
0.0000001
 43
0.0000001
 44
0.0000000001
 12
-0.0073780941
 22
0.8454458426
 32
0.0
 13
0.5655943175
 23
-0.6284394777
 33
0.0
 40
0.0
 40
0.0
 40
0.0
 40
0.0
 40
0.0039078817
 40
0.0156419176
 40
0.0349820553
 40
0.0614715796
 40
0.0950347238
 40
0.1350859852
 40
0.1806567444
 40
0.2311166611
 40
0.2861897488
 40
0.3445959068
 40
0.4049968552
 40
0.4671829414
 40
0.5301457279
 40
0.5923787506
 40
0.6528619664
 40
0.7113871971
 40
0.7666255452
 40
0.8172860531
 40
0.863083047
 40
0.9033925916
 40
0.9372428476
 40
0.9640363596
 40
0.9836954609
 40
0.9957616461
 40
1.0
 40
1.0
 40
1.0
 40
1.0
 10
14.7701234302
 20
-22.3059166979
 30
0.0
 10
14.7701138193
 20
-22.3048153971
 30
0.0
 10
14.7771949956
 20
-22.3067840748
 30
0.0
 10
14.7844741848
 20
-22.3044248
 30
0.0
 10
14.8021420052
 20
-22.3053350963
 30
0.0
 10
14.8238911139
 20
-22.3045588747
 30
0.0
 10
14.8523395291
 20
-22.3045000866
 30
0.0
 10
14.8858452068
 20
-22.3041998625
 30
0.0
 10
14.9242232203
 20
-22.3040148874
 30
0.0
 10
14.966799324
 20
-22.3038293085
 30
0.0
 10
15.0130040072
 20
-22.3036843964
 30
0.0
 10
15.0620070851
 20
-22.3035712725
 30
0.0
 10
15.1130158389
 20
-22.3034951611
 30
0.0
 10
15.1653085335
 20
-22.303456137
 30
0.0
 10
15.2181176522
 20
-22.3034553246
 30
0.0
 10
15.2704467993
 20
-22.3034927172
 30
0.0
 10
15.3215253794
 20
-22.303567309
 30
0.0
 10
15.3706322982
 20
-22.3036787308
 30
0.0
 10
15.4169718809
 20
-22.3038228704
 30
0.0
 10
15.4597206625
 20
-22.304005043
 30
0.0
 10
15.4982732504
 20
-22.3041955872
 30
0.0
 10
15.5320530003
 20
-22.304474375
 30
0.0
 10
15.5605790338
 20
-22.3045905567
 30
0.0
 10
15.5830088029
 20
-22.3052151269
 30
0.0
 10
15.5999661477
 20
-22.3046492485
 30
0.0
 10
15.6092526873
 20
-22.3064215302
 30
0.0
 10
15.6147504127
 20
-22.3050158782
 30
0.0
 10
15.6155494757
 20
-22.3059037278
 30
0.0
 11
14.7701234302
 21
-22.3059166979
 31
0.0
 11
14.7734132261
 21
-22.3056103576
 31
0.0
 11
14.7833294468
 21
-22.3053066764
 31
0.0
 11
14.7996784741
 21
-22.3050131782
 31
0.0
 11
14.8220730627
 21
-22.3047354119
 31
0.0
 11
14.8504487629
 21
-22.304474337
 31
0.0
 11
14.8843103823
 21
-22.3042354922
 31
0.0
 11
14.9228388799
 21
-22.3040243691
 31
0.0
 11
14.9655012468
 21
-22.3038432792
 31
0.0
 11
15.0120640921
 21
-22.3036935796
 31
0.0
 11
15.0614450834
 21
-22.303579176
 31
0.0
 11
15.1125127005
 21
-22.3035021676
 31
0.0
 11
15.1650896557
 21
-22.3034626651
 31
0.0
 11
15.2183233088
 21
-22.3034618355
 31
0.0
 11
15.270939949
 21
-22.3034997028
 31
0.0
 11
15.3220771238
 21
-22.3035751199
 31
0.0
 11
15.3715587922
 21
-22.3036879738
 31
0.0
 11
15.418261367
 21
-22.3038362268
 31
0.0
 11
15.4610933364
 21
-22.3040160001
 31
0.0
 11
15.4998131199
 21
-22.3042259062
 31
0.0
 11
15.533893125
 21
-22.3044636812
 31
0.0
 11
15.5625115901
 21
-22.3047238893
 31
0.0
 11
15.5851632213
 21
-22.3050009741
 31
0.0
 11
15.6017819772
 21
-22.3052939571
 31
0.0
 11
15.6119791581
 21
-22.3055973953
 31
0.0
 11
15.6155494757
 21
-22.3059037278
 31
0.0
  0
SPLINE
  5
89E
100
AcDbEntity
  8
PORTATASTO
100
AcDbSpline
 62
7
  6
CONTINUOUS
 70
0
 71
3
 72
20
 73
16
 74
14
 42
0.0000001
 43
0.0000001
 44
0.0000000001
 12
0.4348249556
 22
-0.4775449922
 32
0.0
 13
-0.0056360312
 23
-0.645825206
 33
0.0
 40
0.0
 40
0.0
 40
0.0
 40
0.0
 40
0.1373286376
 40
0.2708260102
 40
0.396432089
 40
0.5110009845
 40
0.6131499204
 40
0.7023591233
 40
0.7782499603
 40
0.8414296142
 40
0.8926765224
 40
0.9332005485
 40
0.9639390507
 40
0.9858801705
 40
1.0
 40
1.0
 40
1.0
 40
1.0
 10
7.3029745382
 20
-23.2659657686
 30
0.0
 10
7.3228791778
 20
-23.2878259696
 30
0.0
 10
7.362125928
 20
-23.3309430877
 30
0.0
 10
7.4194734565
 20
-23.3941496897
 30
0.0
 10
7.4733512035
 20
-23.4538881342
 30
0.0
 10
7.5224604412
 20
-23.5088383028
 30
0.0
 10
7.5660327615
 20
-23.5582266822
 30
0.0
 10
7.6037141453
 20
-23.6017052537
 30
0.0
 10
7.6354506963
 20
-23.6392317302
 30
0.0
 10
7.6613829018
 20
-23.6709534639
 30
0.0
 10
7.6818865766
 20
-23.697279637
 30
0.0
 10
7.6973562524
 20
-23.7186301883
 30
0.0
 10
7.7082594415
 20
-23.7355401658
 30
0.0
 10
7.7148558405
 20
-23.7482559116
 30
0.0
 10
7.7172229139
 20
-23.755882057
 30
0.0
 10
7.7171963873
 20
-23.7589217043
 30
0.0
 11
7.3029745382
 21
-23.2659657686
 31
0.0
 11
7.3626633196
 21
-23.3315692516
 31
0.0
 11
7.4205823548
 21
-23.3954374333
 31
0.0
 11
7.4748948988
 21
-23.4556954918
 31
0.0
 11
7.5241797299
 21
-23.5108875344
 31
0.0
 11
7.567797763
 21
-23.5603838647
 31
0.0
 11
7.6054969215
 21
-23.6039538957
 31
0.0
 11
7.6371032675
 21
-23.6414161314
 31
0.0
 11
7.6628716058
 21
-23.6730548008
 31
0.0
 11
7.6831323179
 21
-23.6992266992
 31
0.0
 11
7.6983778004
 21
-23.7205004287
 31
0.0
 11
7.7089615534
 21
-23.7372963853
 31
0.0
 11
7.7151861913
 21
-23.7500267313
 31
0.0
 11
7.7171963873
 21
-23.7589217043
 31
0.0
  0
SPLINE
  5
89F
100
AcDbEntity
  8
PORTATASTO
100
AcDbSpline
 62
7
  6
CONTINUOUS
 70
0
 71
3
 72
20
 73
16
 74
14
 42
0.0000001
 43
0.0000001
 44
0.0000000001
 12
0.0194704816
 22
0.6479220184
 32
0.0
 13
0.4386830088
 23
0.4772203468
 33
0.0
 40
0.0
 40
0.0
 40
0.0
 40
0.0
 40
0.0143294845
 40
0.0364562005
 40
0.067332482
 40
0.107963921
 40
0.1592569708
 40
0.2224230084
 40
0.2982433051
 40
0.3873599791
 40
0.48942893
 40
0.6039079652
 40
0.7293574232
 40
0.8626951119
 40
1.0
 40
1.0
 40
1.0
 40
1.0
 10
6.884483625
 20
-23.7585444086
 30
0.0
 10
6.8845766256
 20
-23.7554496125
 30
0.0
 10
6.8871244947
 20
-23.7477851126
 30
0.0
 10
6.8939473022
 20
-23.7349902366
 30
0.0
 10
6.9050810046
 20
-23.7180376521
 30
0.0
 10
6.9207903781
 20
-23.696662792
 30
0.0
 10
6.9415458534
 20
-23.6703414102
 30
0.0
 10
6.9677433414
 20
-23.6386539989
 30
0.0
 10
6.9997678066
 20
-23.6011864125
 30
0.0
 10
7.0377720632
 20
-23.5577793674
 30
0.0
 10
7.0817095131
 20
-23.5084682427
 30
0.0
 10
7.1312175975
 20
-23.4536084101
 30
0.0
 10
7.1855198151
 20
-23.3939755854
 30
0.0
 10
7.24332853
 20
-23.3308660059
 30
0.0
 10
7.2828967644
 20
-23.2878073307
 30
0.0
 10
7.3029745382
 20
-23.2659657686
 30
0.0
 11
6.884483625
 21
-23.7585444086
 31
0.0
 11
6.8867566481
 21
-23.7495382397
 31
0.0
 11
6.8932230579
 21
-23.7367357741
 31
0.0
 11
6.9040413074
 21
-23.7198970145
 31
0.0
 11
6.9195324888
 21
-23.6985966003
 31
0.0
 11
6.9400454319
 21
-23.6724296663
 31
0.0
 11
6.9660790753
 21
-23.6408265963
 31
0.0
 11
6.9979686864
 21
-23.6034292632
 31
0.0
 11
7.0359870351
 21
-23.5599367448
 31
0.0
 11
7.0799745948
 21
-23.510514272
 31
0.0
 11
7.1296686647
 21
-23.4554037109
 31
0.0
 11
7.184400777
 21
-23.3952618892
 31
0.0
 11
7.2427661718
 21
-23.3315133859
 31
0.0
 11
7.3029745382
 21
-23.2659657686
 31
0.0
  0
SPLINE
  5
8A0
100
AcDbEntity
  8
PORTATASTO
100
AcDbSpline
 62
7
  6
CONTINUOUS
 70
0
 71
3
 72
32
 73
28
 74
26
 42
0.0000001
 43
0.0000001
 44
0.0000000001
 12
0.565594316
 22
0.628439476
 32
0.0
 13
-0.0073780941
 23
-0.8454458403
 33
0.0
 40
0.0
 40
0.0
 40
0.0
 40
0.0
 40
0.0042387001
 40
0.0163064589
 40
0.035969702
 40
0.0627624882
 40
0.0966097964
 40
0.136920316
 40
0.1827193745
 40
0.233375018
 40
0.2886089282
 40
0.3471367892
 40
0.4076185016
 40
0.4698448751
 40
0.532805241
 40
0.5949933655
 40
0.6553916584
 40
0.7137914861
 40
0.7688658947
 40
0.8193286661
 40
0.864896417
 40
0.9049469502
 40
0.9385143761
 40
0.9650077541
 40
0.9843505804
 40
0.9960898788
 40
1.0
 40
1.0
 40
1.0
 40
1.0
 10
6.8844505243
 20
-22.3059037278
 30
0.0
 10
6.8852496525
 20
-22.3050158056
 30
0.0
 10
6.8907480208
 20
-22.3064216379
 30
0.0
 10
6.9000361231
 20
-22.3046490561
 30
0.0
 10
6.9169949501
 20
-22.3052150782
 30
0.0
 10
6.9394248596
 20
-22.3045905336
 30
0.0
 10
6.9679501232
 20
-22.30447435
 30
0.0
 10
7.0017298998
 20
-22.3041955674
 30
0.0
 10
7.0402819732
 20
-22.3040050308
 30
0.0
 10
7.0830287153
 20
-22.3038228697
 30
0.0
 10
7.1293664174
 20
-22.3036787344
 30
0.0
 10
7.178472403
 20
-22.3035673129
 30
0.0
 10
7.2295494267
 20
-22.3034927221
 30
0.0
 10
7.2818755938
 20
-22.3034553278
 30
0.0
 10
7.3346827307
 20
-22.3034561337
 30
0.0
 10
7.3869745691
 20
-22.3034951505
 30
0.0
 10
7.4379813647
 20
-22.3035712518
 30
0.0
 10
7.4869822826
 20
-22.3036843598
 30
0.0
 10
7.5331863579
 20
-22.303829256
 30
0.0
 10
7.5757627918
 20
-22.3040148207
 30
0.0
 10
7.6141405502
 20
-22.3041997808
 30
0.0
 10
7.6476463974
 20
-22.3044999715
 30
0.0
 10
7.6760968907
 20
-22.3045587419
 30
0.0
 10
7.6978490421
 20
-22.3053349982
 30
0.0
 10
7.7155202969
 20
-22.3044245548
 30
0.0
 10
7.7228015397
 20
-22.3067846366
 30
0.0
 10
7.7298861863
 20
-22.304814766
 30
0.0
 10
7.7298765698
 20
-22.3059166979
 30
0.0
 11
6.8844505243
 21
-22.3059037278
 31
0.0
 11
6.8880211346
 21
-22.3055973823
 31
0.0
 11
6.8982196457
 21
-22.305293921
 31
0.0
 11
6.9148419033
 21
-22.3050008998
 31
0.0
 11
6.9374929211
 21
-22.304723842
 31
0.0
 11
6.966108894
 21
-22.3044636652
 31
0.0
 11
7.0001897234
 21
-22.3042258887
 31
0.0
 11
7.0389112523
 21
-22.3040159782
 31
0.0
 11
7.0817391089
 21
-22.3038362251
 31
0.0
 11
7.1284379314
 21
-22.3036879827
 31
0.0
 11
7.1779218236
 21
-22.3035751218
 31
0.0
 11
7.2290577272
 21
-22.3034997053
 31
0.0
 11
7.2816687455
 21
-22.3034618383
 31
0.0
 11
7.3349003519
 21
-22.3034626613
 31
0.0
 11
7.3874790303
 21
-22.3035021583
 31
0.0
 11
7.4385444021
 21
-22.303579156
 31
0.0
 11
7.4879200411
 21
-22.3036935359
 31
0.0
 11
7.5344840031
 21
-22.3038432244
 31
0.0
 11
7.5771487836
 21
-22.3040243095
 31
0.0
 11
7.6156747377
 21
-22.3042353998
 31
0.0
 11
7.6495357416
 21
-22.3044742125
 31
0.0
 11
7.6779150621
 21
-22.3047352857
 31
0.0
 11
7.7003129089
 21
-22.3050130513
 31
0.0
 11
7.7166642101
 21
-22.3053065323
 31
0.0
 11
7.7265848804
 21
-22.3056102698
 31
0.0
 11
7.7298765698
 21
-22.3059166979
 31
0.0
  0
SPLINE
  5
8A1
100
AcDbEntity
  8
PORTATASTO
100
AcDbSpline
 62
7
  6
CONTINUOUS
 70
0
 71
3
 72
11
 73
7
 74
5
 42
0.0000001
 43
0.0000001
 44
0.0000000001
 12
0.000605829
 22
-0.0694211264
 32
0.0
 13
-0.0415891602
 23
-0.0555713398
 33
0.0
 40
0.0
 40
0.0
 40
0.0
 40
0.0
 40
0.1316199872
 40
0.3363443786
 40
0.6229154929
 40
1.0
 40
1.0
 40
1.0
 40
1.0
 10
7.7171963873
 20
23.7589217043
 30
0.0
 10
7.717222967
 20
23.7558759684
 30
0.0
 10
7.7148462136
 20
23.7482306935
 30
0.0
 10
7.7082291793
 20
23.7354876472
 30
0.0
 10
7.6973045612
 20
23.718555337
 30
0.0
 10
7.688294487
 20
23.7061243443
 30
0.0
 10
7.6830669443
 20
23.6991393139
 30
0.0
 11
7.7171963873
 21
23.7589217043
 31
0.0
 11
7.7151796314
 21
23.7500094869
 31
0.0
 11
7.7089315948
 21
23.7372437519
 31
0.0
 11
7.6983200161
 21
23.7204152244
 31
0.0
 11
7.6830669443
 21
23.6991393139
 31
0.0
  0
SPLINE
  5
8A2
100
AcDbEntity
  8
PORTATASTO
100
AcDbSpline
 62
7
  6
CONTINUOUS
 70
0
 71
3
 72
16
 73
12
 74
10
 42
0.0000001
 43
0.0000001
 44
0.0000000001
 12
-0.3453149569
 22
-0.4614090486
 32
0.0
 13
-0.3880845609
 23
-0.4262125165
 33
0.0
 40
0.0
 40
0.0
 40
0.0
 40
0.0
 40
0.0574131493
 40
0.1281968375
 40
0.2132685866
 40
0.3132712566
 40
0.427677974
 40
0.5559257433
 40
0.6966040037
 40
0.8462652961
 40
1.0
 40
1.0
 40
1.0
 40
1.0
 10
7.6830669443
 20
23.6991393139
 30
0.0
 10
7.6764584046
 20
23.6903089984
 30
0.0
 10
7.6613166253
 20
23.6708708964
 30
0.0
 10
7.6353792854
 20
23.6391460282
 30
0.0
 10
7.6036309791
 20
23.6016081755
 30
0.0
 10
7.5659428341
 20
23.5581240133
 30
0.0
 10
7.5223844088
 20
23.5087529281
 30
0.0
 10
7.4733030234
 20
23.4538346149
 30
0.0
 10
7.4194367017
 20
23.3941090578
 30
0.0
 10
7.3621024478
 20
23.3309172878
 30
0.0
 10
7.3228618932
 20
23.2878069869
 30
0.0
 10
7.3029745382
 20
23.2659657686
 30
0.0
 11
7.6830669443
 21
23.6991393139
 31
0.0
 11
7.6628057525
 21
23.6729720656
 31
0.0
 11
7.6370376531
 21
23.6413370973
 31
0.0
 11
7.6054148989
 21
23.6038579956
 31
0.0
 11
7.5676960514
 21
23.5602674768
 31
0.0
 11
7.5240943038
 21
23.5107912938
 31
0.0
 11
7.4748550116
 21
23.4556510542
 31
0.0
 11
7.4205638166
 21
23.3954169379
 31
0.0
 11
7.3626115219
 21
23.3315122524
 31
0.0
 11
7.3029745382
 21
23.2659657686
 31
0.0
  0
SPLINE
  5
8A3
100
AcDbEntity
  8
PORTATASTO
100
AcDbSpline
 62
7
  6
CONTINUOUS
 70
0
 71
3
 72
32
 73
28
 74
26
 42
0.0000001
 43
0.0000001
 44
0.0000000001
 12
0.0073780941
 22
-0.8454458423
 32
0.0
 13
-0.5655943173
 23
0.6284394774
 33
0.0
 40
0.0
 40
0.0
 40
0.0
 40
0.0
 40
0.0039075378
 40
0.0156400482
 40
0.0349765774
 40
0.0614653234
 40
0.0950285599
 40
0.1350765512
 40
0.180643133
 40
0.2311041505
 40
0.2861774264
 40
0.3445777494
 40
0.4049772138
 40
0.4671661565
 40
0.5301279782
 40
0.5923566253
 40
0.6528409796
 40
0.7113715045
 40
0.7666078742
 40
0.8172663257
 40
0.8630685183
 40
0.9033817718
 40
0.9372310441
 40
0.9640259129
 40
0.9836916576
 40
0.995760812
 40
1.0
 40
1.0
 40
1.0
 40
1.0
 10
7.7298765698
 20
22.3059166979
 30
0.0
 10
7.7298861799
 20
22.304815494
 30
0.0
 10
7.7228058359
 20
22.3067839186
 30
0.0
 10
7.7155277789
 20
22.3044250216
 30
0.0
 10
7.6978618508
 20
22.3053351288
 30
0.0
 10
7.6761139376
 20
22.3045589211
 30
0.0
 10
7.6476666326
 20
22.3045001328
 30
0.0
 10
7.6141630236
 20
22.3041999154
 30
0.0
 10
7.5757868003
 20
22.3040149353
 30
0.0
 10
7.533211511
 20
22.3038293477
 30
0.0
 10
7.487008109
 20
22.3036844299
 30
0.0
 10
7.4380070407
 20
22.3035712998
 30
0.0
 10
7.3869995447
 20
22.303495178
 30
0.0
 10
7.3347067351
 20
22.3034561426
 30
0.0
 10
7.2818983166
 20
22.3034553196
 30
0.0
 10
7.2295703536
 20
22.3034926991
 30
0.0
 10
7.1784911938
 20
22.3035672777
 30
0.0
 10
7.1293830196
 20
22.3036786894
 30
0.0
 10
7.0830430821
 20
22.3038228172
 30
0.0
 10
7.0402939721
 20
22.3040049739
 30
0.0
 10
7.0017394531
 20
22.3041955082
 30
0.0
 10
6.9679574703
 20
22.3044742945
 30
0.0
 10
6.9394302923
 20
22.3045904723
 30
0.0
 10
6.9169985515
 20
22.3052150522
 30
0.0
 10
6.9000379843
 20
22.3046489314
 30
0.0
 10
6.8907487511
 20
22.3064217359
 30
0.0
 10
6.8852497445
 20
22.3050157034
 30
0.0
 10
6.8844505243
 20
22.3059037278
 30
0.0
 11
7.7298765698
 21
22.3059166979
 31
0.0
 11
7.7265870646
 21
22.3056103711
 31
0.0
 11
7.7166721336
 21
22.3053067124
 31
0.0
 11
7.7003261571
 21
22.3050132464
 31
0.0
 11
7.6779322269
 21
22.3047354681
 31
0.0
 11
7.6495564488
 21
22.3044743789
 31
0.0
 11
7.6156975941
 21
22.3042355418
 31
0.0
 11
7.5771726285
 21
22.3040244246
 31
0.0
 11
7.5345093309
 21
22.3038433184
 31
0.0
 11
7.4879463266
 21
22.3036936083
 31
0.0
 11
7.4385702687
 21
22.3035792053
 31
0.0
 11
7.3875039063
 21
22.3035021863
 31
0.0
 11
7.334924536
 21
22.3034626706
 31
0.0
 11
7.2816916987
 21
22.3034618302
 31
0.0
 11
7.229078758
 21
22.3034996823
 31
0.0
 11
7.1779406205
 21
22.3035750867
 31
0.0
 11
7.128454476
 21
22.3036879377
 31
0.0
 11
7.0817535739
 21
22.303836172
 31
0.0
 11
7.0389233431
 21
22.3040159204
 31
0.0
 11
7.0001991642
 21
22.3042258307
 31
0.0
 11
6.9661160232
 21
22.3044636086
 31
0.0
 11
6.9374983896
 21
22.3047237847
 31
0.0
 11
6.9148456108
 21
22.305000846
 31
0.0
 11
6.8982212381
 21
22.3052938856
 31
0.0
 11
6.888021547
 21
22.305597364
 31
0.0
 11
6.8844505243
 21
22.3059037278
 31
0.0
  0
SPLINE
  5
8A4
100
AcDbEntity
  8
PORTATASTO
100
AcDbSpline
 62
7
  6
CONTINUOUS
 70
0
 71
3
 72
20
 73
16
 74
14
 42
0.0000001
 43
0.0000001
 44
0.0000000001
 12
-0.4386828915
 22
0.4772202192
 32
0.0
 13
-0.0194704764
 23
0.6479218452
 33
0.0
 40
0.0
 40
0.0
 40
0.0
 40
0.0
 40
0.1371955179
 40
0.2706129374
 40
0.3960179404
 40
0.5103929375
 40
0.6124244401
 40
0.7015866444
 40
0.777440603
 40
0.8405976123
 40
0.8918808869
 40
0.9325178154
 40
0.96345379
 40
0.9856429953
 40
1.0
 40
1.0
 40
1.0
 40
1.0
 10
7.3029745382
 20
23.2659657686
 30
0.0
 10
7.2829127627
 20
23.2877899269
 30
0.0
 10
7.2433488674
 20
23.3308438707
 30
0.0
 10
7.1855508944
 20
23.3939415477
 30
0.0
 10
7.1312586131
 20
23.4535632965
 30
0.0
 10
7.0817771699
 20
23.5083930253
 30
0.0
 10
7.0378528477
 20
23.5576880515
 30
0.0
 10
6.9998417005
 20
23.6011010291
 30
0.0
 10
6.9678063317
 20
23.6385792241
 30
0.0
 10
6.9416054959
 20
23.6702680047
 30
0.0
 10
6.9208497629
 20
23.696585505
 30
0.0
 10
6.9051301745
 20
23.7179676123
 30
0.0
 10
6.8939767201
 20
23.7349403766
 30
0.0
 10
6.8871341931
 20
23.7477609069
 30
0.0
 10
6.8845768042
 20
23.7554436696
 30
0.0
 10
6.884483625
 20
23.7585444086
 30
0.0
 11
7.3029745382
 21
23.2659657686
 31
0.0
 11
7.2428141158
 21
23.3314611279
 31
0.0
 11
7.1844137645
 21
23.3952476676
 31
0.0
 11
7.1297009649
 21
23.4553680725
 31
0.0
 11
7.0800517268
 21
23.5104282251
 31
0.0
 11
7.0360795847
 21
23.5598318998
 31
0.0
 11
6.9980408432
 21
23.6033457713
 31
0.0
 11
6.9661360011
 21
23.6407587754
 31
0.0
 11
6.9401046541
 21
23.6723561406
 31
0.0
 11
6.9195933679
 21
23.6985163107
 31
0.0
 11
6.9040964933
 21
23.7198169751
 31
0.0
 11
6.8932525391
 21
23.7366852044
 31
0.0
 11
6.8867633355
 21
23.749521532
 31
0.0
 11
6.884483625
 21
23.7585444086
 31
0.0
  0
SPLINE
  5
8A5
100
AcDbEntity
  8
PORTATASTO
100
AcDbSpline
 62
7
  6
CONTINUOUS
 70
0
 71
3
 72
20
 73
16
 74
14
 42
0.0000001
 43
0.0000001
 44
0.0000000001
 12
-0.019470475
 22
-0.647921797
 32
0.0
 13
-0.4386828589
 23
-0.4772201837
 33
0.0
 40
0.0
 40
0.0
 40
0.0
 40
0.0
 40
0.0143662142
 40
0.0365657208
 40
0.0675127421
 40
0.1081481928
 40
0.1594348259
 40
0.2225978508
 40
0.2984670585
 40
0.3876367864
 40
0.4896580884
 40
0.6040180046
 40
0.7294289218
 40
0.8628533681
 40
1.0
 40
1.0
 40
1.0
 40
1.0
 10
15.615516375
 20
23.7585444086
 30
0.0
 10
15.615423136
 20
23.7554416808
 30
0.0
 10
15.6128633066
 20
23.747755023
 30
0.0
 10
15.606016738
 20
23.7349293351
 30
0.0
 10
15.594859932
 20
23.7179535774
 30
0.0
 10
15.5791381067
 20
23.6965696846
 30
0.0
 10
15.5583808784
 20
23.6702511852
 30
0.0
 10
15.5321763176
 20
23.6385585905
 30
0.0
 10
15.5001365855
 20
23.6010759451
 30
0.0
 10
15.4621233703
 20
23.5576611746
 30
0.0
 10
15.4182014102
 20
23.5083691898
 30
0.0
 10
15.3687226686
 20
23.4535426675
 30
0.0
 10
15.3144306337
 20
23.3939213278
 30
0.0
 10
15.2566378621
 20
23.3308294276
 30
0.0
 10
15.2170800873
 20
23.2877821489
 30
0.0
 10
15.1970254618
 20
23.2659657686
 30
0.0
 11
15.615516375
 21
23.7585444086
 31
0.0
 11
15.6132344253
 21
23.7495159412
 31
0.0
 11
15.6067410629
 21
23.7366742351
 31
0.0
 11
15.595892233
 21
23.7198006293
 31
0.0
 11
15.5803952153
 21
23.6985012561
 31
0.0
 11
15.5598821296
 21
23.6723397336
 31
0.0
 11
15.533847949
 21
23.6407396545
 31
0.0
 11
15.5019363718
 21
23.6033194079
 31
0.0
 11
15.4638941305
 21
23.5598021239
 31
0.0
 11
15.4199261792
 21
23.5104035778
 31
0.0
 11
15.370283375
 21
23.455350794
 31
0.0
 11
15.3155679293
 21
23.3952276218
 31
0.0
 11
15.2571644571
 21
23.3314377727
 31
0.0
 11
15.1970254618
 21
23.2659657686
 31
0.0
  0
SPLINE
  5
8A6
100
AcDbEntity
  8
PORTATASTO
100
AcDbSpline
 62
7
  6
CONTINUOUS
 70
0
 71
3
 72
32
 73
28
 74
26
 42
0.0000001
 43
0.0000001
 44
0.0000000001
 12
-0.5655943156
 22
-0.6284394756
 32
0.0
 13
0.0073780941
 23
0.8454458398
 33
0.0
 40
0.0
 40
0.0
 40
0.0
 40
0.0
 40
0.0042383619
 40
0.0163047165
 40
0.0359646772
 40
0.0627567088
 40
0.0966039508
 40
0.1369112534
 40
0.1827062989
 40
0.2333628943
 40
0.2885967521
 40
0.3471187803
 40
0.4075990052
 40
0.4698280333
 40
0.5327872152
 40
0.5949708538
 40
0.6553702862
 40
0.7137753024
 40
0.7688475577
 40
0.8193082493
 40
0.8648813148
 40
0.9049355893
 40
0.9385019884
 40
0.9649968603
 40
0.9843466161
 40
0.9960890133
 40
1.0
 40
1.0
 40
1.0
 40
1.0
 10
15.6155494757
 20
22.3059037278
 30
0.0
 10
15.6147504112
 20
22.3050158765
 30
0.0
 10
15.6092526277
 20
22.3064215413
 30
0.0
 10
15.5999658198
 20
22.304649211
 30
0.0
 10
15.5830085927
 20
22.3052151127
 30
0.0
 10
15.5605798345
 20
22.3045905785
 30
0.0
 10
15.5320557082
 20
22.3044743938
 30
0.0
 10
15.4982779864
 20
22.3041956172
 30
0.0
 10
15.4597276829
 20
22.3040050764
 30
0.0
 10
15.4169818184
 20
22.3038229075
 30
0.0
 10
15.3706455066
 20
22.303678767
 30
0.0
 10
15.3215415989
 20
22.3035673396
 30
0.0
 10
15.2704658903
 20
22.3034927385
 30
0.0
 10
15.2181397279
 20
22.303455333
 30
0.0
 10
15.1653334409
 20
22.3034561282
 30
0.0
 10
15.1130428793
 20
22.3034951315
 30
0.0
 10
15.0620355646
 20
22.3035712193
 30
0.0
 10
15.0130334701
 20
22.3036843167
 30
0.0
 10
14.9668291258
 20
22.3038292004
 30
0.0
 10
14.9242523861
 20
22.3040147481
 30
0.0
 10
14.885872661
 20
22.3041996976
 30
0.0
 10
14.8523645514
 20
22.3044998862
 30
0.0
 10
14.8239128936
 20
22.3045586571
 30
0.0
 10
14.8021586738
 20
22.3053349293
 30
0.0
 10
14.7844837516
 20
22.3044241261
 30
0.0
 10
14.7772002427
 20
22.3067849563
 30
0.0
 10
14.7701138116
 20
22.3048145221
 30
0.0
 10
14.7701234302
 20
22.3059166979
 30
0.0
 11
15.6155494757
 21
22.3059037278
 31
0.0
 11
15.6119791513
 21
22.305597395
 31
0.0
 11
15.6017818274
 21
22.3052939537
 31
0.0
 11
15.5851623449
 21
22.3050009614
 31
0.0
 11
15.5625119652
 21
22.3047238933
 31
0.0
 11
15.5338960485
 21
22.3044637045
 31
0.0
 11
15.4998179391
 21
22.3042259358
 31
0.0
 11
15.461099803
 21
22.304016031
 31
0.0
 11
15.4182711416
 21
22.3038362627
 31
0.0
 11
15.3715723636
 21
22.3036880106
 31
0.0
 11
15.322093403
 21
22.3035751503
 31
0.0
 11
15.270958757
 21
22.3034997234
 31
0.0
 11
15.2183454944
 21
22.3034618433
 31
0.0
 11
15.1651148891
 21
22.3034626555
 31
0.0
 11
15.1125400035
 21
22.3035021369
 31
0.0
 11
15.0614736683
 21
22.3035791217
 31
0.0
 11
15.0120936425
 21
22.3036934983
 31
0.0
 11
14.965531501
 21
22.3038431669
 31
0.0
 11
14.9228684788
 21
22.3040242261
 31
0.0
 11
14.8843380313
 21
22.3042353205
 31
0.0
 11
14.8504738642
 21
22.3044741353
 31
0.0
 11
14.8220954117
 21
22.3047351745
 31
0.0
 11
14.7996963014
 21
22.3050129157
 31
0.0
 11
14.7833391416
 21
22.3053064562
 31
0.0
 11
14.7734158513
 21
22.3056102359
 31
0.0
 11
14.7701234302
 21
22.3059166979
 31
0.0
  0
SPLINE
  5
8A7
100
AcDbEntity
  8
PORTATASTO
100
AcDbSpline
 62
7
  6
CONTINUOUS
 70
0
 71
3
 72
20
 73
16
 74
14
 42
0.0000001
 43
0.0000001
 44
0.0000000001
 12
-0.4348248578
 22
0.4775448847
 32
0.0
 13
0.0056360299
 23
0.6458250607
 33
0.0
 40
0.0
 40
0.0
 40
0.0
 40
0.0
 40
0.1372612184
 40
0.2708291103
 40
0.3963793855
 40
0.510855905
 40
0.6129751809
 40
0.7022213566
 40
0.7781327012
 40
0.8413004891
 40
0.892537779
 40
0.9330724581
 40
0.9638654833
 40
0.9858612026
 40
1.0
 40
1.0
 40
1.0
 40
1.0
 10
15.1970254618
 20
23.2659657686
 30
0.0
 10
15.1771305985
 20
23.2878152328
 30
0.0
 10
15.1378834052
 20
23.3309328321
 30
0.0
 10
15.0805434664
 20
23.3941309743
 30
0.0
 10
15.0266768965
 20
23.4538569605
 30
0.0
 10
14.9775929561
 20
23.5087783662
 30
0.0
 10
14.9340322031
 20
23.5581525082
 30
0.0
 10
14.896346115
 20
23.6016349096
 30
0.0
 10
14.8646023381
 20
23.6391681217
 30
0.0
 10
14.8386691069
 20
23.6708887227
 30
0.0
 10
14.8181650187
 20
23.6972115984
 30
0.0
 10
14.8026854781
 20
23.7185696936
 30
0.0
 10
14.7917643124
 20
23.7354988807
 30
0.0
 10
14.7851513362
 20
23.7482367102
 30
0.0
 10
14.7827770505
 20
23.7558779744
 30
0.0
 10
14.7828036127
 20
23.7589217043
 30
0.0
 11
15.1970254618
 21
23.2659657686
 31
0.0
 11
15.1373659777
 21
23.3315370123
 31
0.0
 11
15.0794163286
 21
23.3954388889
 31
0.0
 11
15.0251278767
 21
23.455670118
 31
0.0
 11
14.9758825208
 21
23.5108174028
 31
0.0
 11
14.9322765589
 21
23.5602988182
 31
0.0
 11
14.8945609782
 21
23.6038861994
 31
0.0
 11
14.8629451798
 21
23.6413577748
 31
0.0
 11
14.8371804074
 21
23.6729894528
 31
0.0
 11
14.8169214412
 21
23.6991548373
 31
0.0
 11
14.8016687169
 21
23.7204318341
 31
0.0
 11
14.7910620273
 21
23.7372549532
 31
0.0
 11
14.7848182066
 21
23.7500151682
 31
0.0
 11
14.7828036127
 21
23.7589217043
 31
0.0
  0
SPLINE
  5
8A8
100
AcDbEntity
  8
PORTATASTO
100
AcDbSpline
 62
7
  6
CONTINUOUS
 70
0
 71
3
 72
20
 73
16
 74
14
 42
0.0000001
 43
0.0000001
 44
0.0000000001
 12
-0.4348248211
 22
0.4775448444
 32
0.0
 13
0.0056360294
 23
0.6458250062
 33
0.0
 40
0.0
 40
0.0
 40
0.0
 40
0.0
 40
0.1372094282
 40
0.2707833046
 40
0.3963397546
 40
0.5108018939
 40
0.6129107858
 40
0.7021639526
 40
0.7780911554
 40
0.8412661519
 40
0.8925078377
 40
0.9330414667
 40
0.9638456155
 40
0.985851883
 40
1.0
 40
1.0
 40
1.0
 40
1.0
 10
-7.3029745382
 20
23.2659657686
 30
0.0
 10
-7.3228618932
 20
23.2878069869
 30
0.0
 10
-7.3621024478
 20
23.3309172878
 30
0.0
 10
-7.4194367017
 20
23.3941090578
 30
0.0
 10
-7.4733030234
 20
23.4538346149
 30
0.0
 10
-7.5223844088
 20
23.5087529281
 30
0.0
 10
-7.5659428341
 20
23.5581240133
 30
0.0
 10
-7.6036309791
 20
23.6016081755
 30
0.0
 10
-7.6353792854
 20
23.6391460282
 30
0.0
 10
-7.6613166253
 20
23.6708708964
 30
0.0
 10
-7.681822581
 20
23.6971952041
 30
0.0
 10
-7.6973045612
 20
23.718555337
 30
0.0
 10
-7.7082291793
 20
23.7354876472
 30
0.0
 10
-7.7148462136
 20
23.7482306935
 30
0.0
 10
-7.717222967
 20
23.7558759684
 30
0.0
 10
-7.7171963873
 20
23.7589217043
 30
0.0
 11
-7.3029745382
 21
23.2659657686
 31
0.0
 11
-7.3626115219
 21
23.3315122524
 31
0.0
 11
-7.4205638166
 21
23.3954169379
 31
0.0
 11
-7.4748550116
 21
23.4556510542
 31
0.0
 11
-7.5240943038
 21
23.5107912938
 31
0.0
 11
-7.5676960514
 21
23.5602674768
 31
0.0
 11
-7.6054148989
 21
23.6038579956
 31
0.0
 11
-7.6370376531
 21
23.6413370973
 31
0.0
 11
-7.6628057525
 21
23.6729720656
 31
0.0
 11
-7.6830669443
 21
23.6991393139
 31
0.0
 11
-7.6983200161
 21
23.7204152244
 31
0.0
 11
-7.7089315948
 21
23.7372437519
 31
0.0
 11
-7.7151796314
 21
23.7500094869
 31
0.0
 11
-7.7171963873
 21
23.7589217043
 31
0.0
  0
SPLINE
  5
8A9
100
AcDbEntity
  8
PORTATASTO
100
AcDbSpline
 62
7
  6
CONTINUOUS
 70
0
 71
3
 72
20
 73
16
 74
14
 42
0.0000001
 43
0.0000001
 44
0.0000000001
 12
-0.0194704764
 22
-0.6479218452
 32
0.0
 13
-0.4386828915
 23
-0.4772202192
 33
0.0
 40
0.0
 40
0.0
 40
0.0
 40
0.0
 40
0.0143570047
 40
0.03654621
 40
0.0674821846
 40
0.1081191131
 40
0.1594023877
 40
0.222559397
 40
0.2984133556
 40
0.3875755599
 40
0.4896070625
 40
0.6039820596
 40
0.7293870626
 40
0.8628044821
 40
1.0
 40
1.0
 40
1.0
 40
1.0
 10
-6.884483625
 20
23.7585444086
 30
0.0
 10
-6.8845768042
 20
23.7554436696
 30
0.0
 10
-6.8871341931
 20
23.7477609069
 30
0.0
 10
-6.8939767201
 20
23.7349403766
 30
0.0
 10
-6.9051301745
 20
23.7179676123
 30
0.0
 10
-6.9208497629
 20
23.696585505
 30
0.0
 10
-6.9416054959
 20
23.6702680047
 30
0.0
 10
-6.9678063317
 20
23.6385792241
 30
0.0
 10
-6.9998417005
 20
23.6011010291
 30
0.0
 10
-7.0378528477
 20
23.5576880515
 30
0.0
 10
-7.0817771699
 20
23.5083930253
 30
0.0
 10
-7.1312586131
 20
23.4535632965
 30
0.0
 10
-7.1855508944
 20
23.3939415477
 30
0.0
 10
-7.2433488674
 20
23.3308438707
 30
0.0
 10
-7.2829127627
 20
23.2877899269
 30
0.0
 10
-7.3029745382
 20
23.2659657686
 30
0.0
 11
-6.884483625
 21
23.7585444086
 31
0.0
 11
-6.8867633355
 21
23.749521532
 31
0.0
 11
-6.8932525391
 21
23.7366852044
 31
0.0
 11
-6.9040964933
 21
23.7198169751
 31
0.0
 11
-6.9195933679
 21
23.6985163107
 31
0.0
 11
-6.9401046541
 21
23.6723561406
 31
0.0
 11
-6.9661360011
 21
23.6407587754
 31
0.0
 11
-6.9980408432
 21
23.6033457713
 31
0.0
 11
-7.0360795847
 21
23.5598318998
 31
0.0
 11
-7.0800517268
 21
23.5104282251
 31
0.0
 11
-7.1297009649
 21
23.4553680725
 31
0.0
 11
-7.1844137645
 21
23.3952476676
 31
0.0
 11
-7.2428141158
 21
23.3314611279
 31
0.0
 11
-7.3029745382
 21
23.2659657686
 31
0.0
  0
SPLINE
  5
8AA
100
AcDbEntity
  8
PORTATASTO
100
AcDbSpline
 62
7
  6
CONTINUOUS
 70
0
 71
3
 72
32
 73
28
 74
26
 42
0.0000001
 43
0.0000001
 44
0.0000000001
 12
-0.5655943159
 22
-0.6284394759
 32
0.0
 13
0.0073780941
 23
0.8454458403
 33
0.0
 40
0.0
 40
0.0
 40
0.0
 40
0.0
 40
0.0042387505
 40
0.0163066574
 40
0.0359702116
 40
0.0627630635
 40
0.0966102765
 40
0.1369208292
 40
0.1827199868
 40
0.2333755402
 40
0.288609257
 40
0.3471370371
 40
0.4076187153
 40
0.4698449388
 40
0.5328050943
 40
0.5949930418
 40
0.6553913053
 40
0.7137911013
 40
0.7688653103
 40
0.8193279667
 40
0.8648958509
 40
0.9049464473
 40
0.9385137693
 40
0.9650072058
 40
0.9843503771
 40
0.996089833
 40
1.0
 40
1.0
 40
1.0
 40
1.0
 10
-6.8844505243
 20
22.3059037278
 30
0.0
 10
-6.885249662
 20
22.3050157951
 30
0.0
 10
-6.8907480975
 20
22.3064216483
 30
0.0
 10
-6.9000363314
 20
22.304649041
 30
0.0
 10
-6.9169953123
 20
22.3052150744
 30
0.0
 10
-6.9394253011
 20
22.3045905298
 30
0.0
 10
-6.9679505651
 20
22.3044743465
 30
0.0
 10
-7.0017303523
 20
22.3041955646
 30
0.0
 10
-7.0402824376
 20
22.3040050286
 30
0.0
 10
-7.0830291278
 20
22.3038228683
 30
0.0
 10
-7.1293667271
 20
22.3036787336
 30
0.0
 10
-7.1784726258
 20
22.3035673125
 30
0.0
 10
-7.2295495747
 20
22.303492722
 30
0.0
 10
-7.2818756307
 20
22.3034553278
 30
0.0
 10
-7.334682616
 20
22.3034561337
 30
0.0
 10
-7.386974337
 20
22.3034951502
 30
0.0
 10
-7.4379810654
 20
22.3035712513
 30
0.0
 10
-7.4869819099
 20
22.3036843588
 30
0.0
 10
-7.5331858876
 20
22.3038292543
 30
0.0
 10
-7.5757622705
 20
22.3040148182
 30
0.0
 10
-7.6141400517
 20
22.3041997778
 30
0.0
 10
-7.6476459254
 20
22.3044999676
 30
0.0
 10
-7.676096422
 20
22.3045587382
 30
0.0
 10
-7.6978486578
 20
22.3053349946
 30
0.0
 10
-7.7155200912
 20
22.3044245334
 30
0.0
 10
-7.7228014481
 20
22.3067846528
 30
0.0
 10
-7.7298861864
 20
22.3048147531
 30
0.0
 10
-7.7298765698
 20
22.3059166979
 30
0.0
 11
-6.8844505243
 21
22.3059037278
 31
0.0
 11
-6.8880211771
 21
22.3055973804
 31
0.0
 11
-6.8982198135
 21
22.3052939173
 31
0.0
 11
-6.9148423342
 21
22.3050008935
 31
0.0
 11
-6.9374934075
 21
22.3047238369
 31
0.0
 11
-6.9661092999
 21
22.304463662
 31
0.0
 11
-7.0001901572
 21
22.304225886
 31
0.0
 11
-7.0389117701
 21
22.3040159757
 31
0.0
 11
-7.0817395505
 21
22.3038362234
 31
0.0
 11
-7.1284382094
 21
22.3036879819
 31
0.0
 11
-7.1779220332
 21
22.3035751215
 31
0.0
 11
-7.2290579079
 21
22.3034997051
 31
0.0
 11
-7.2816687994
 21
22.3034618382
 31
0.0
 11
-7.3349002278
 21
22.3034626613
 31
0.0
 11
-7.3874787565
 21
22.303502158
 31
0.0
 11
-7.4385441035
 21
22.3035791555
 31
0.0
 11
-7.4879197157
 21
22.3036935351
 31
0.0
 11
-7.5344835091
 21
22.3038432226
 31
0.0
 11
-7.5771481922
 21
22.3040243066
 31
0.0
 11
-7.6156742591
 21
22.3042353968
 31
0.0
 11
-7.6495353164
 21
22.3044742091
 31
0.0
 11
-7.677914549
 21
22.3047352803
 31
0.0
 11
-7.7003124454
 21
22.3050130445
 31
0.0
 11
-7.7166640382
 21
22.3053065284
 31
0.0
 11
-7.7265848417
 21
22.305610268
 31
0.0
 11
-7.7298765698
 21
22.3059166979
 31
0.0
  0
SPLINE
  5
8AB
100
AcDbEntity
  8
PORTATASTO
100
AcDbSpline
 62
7
  6
CONTINUOUS
 70
0
 71
3
 72
20
 73
16
 74
14
 42
0.0000001
 43
0.0000001
 44
0.0000000001
 12
-0.4386828589
 22
0.4772201837
 32
0.0
 13
-0.019470475
 23
0.647921797
 33
0.0
 40
0.0
 40
0.0
 40
0.0
 40
0.0
 40
0.1371466319
 40
0.2705710782
 40
0.3959819954
 40
0.5103419116
 40
0.6123632136
 40
0.7015329415
 40
0.7774021492
 40
0.8405651741
 40
0.8918518072
 40
0.9324872579
 40
0.9634342792
 40
0.9856337858
 40
1.0
 40
1.0
 40
1.0
 40
1.0
 10
-15.1970254618
 20
23.2659657686
 30
0.0
 10
-15.2170800873
 20
23.2877821489
 30
0.0
 10
-15.2566378621
 20
23.3308294276
 30
0.0
 10
-15.3144306337
 20
23.3939213278
 30
0.0
 10
-15.3687226686
 20
23.4535426675
 30
0.0
 10
-15.4182014102
 20
23.5083691898
 30
0.0
 10
-15.4621233703
 20
23.5576611746
 30
0.0
 10
-15.5001365855
 20
23.6010759451
 30
0.0
 10
-15.5321763176
 20
23.6385585905
 30
0.0
 10
-15.5583808784
 20
23.6702511852
 30
0.0
 10
-15.5791381067
 20
23.6965696846
 30
0.0
 10
-15.594859932
 20
23.7179535774
 30
0.0
 10
-15.606016738
 20
23.7349293351
 30
0.0
 10
-15.6128633066
 20
23.747755023
 30
0.0
 10
-15.615423136
 20
23.7554416808
 30
0.0
 10
-15.615516375
 20
23.7585444086
 30
0.0
 11
-15.1970254618
 21
23.2659657686
 31
0.0
 11
-15.2571644571
 21
23.3314377727
 31
0.0
 11
-15.3155679293
 21
23.3952276218
 31
0.0
 11
-15.370283375
 21
23.455350794
 31
0.0
 11
-15.4199261792
 21
23.5104035778
 31
0.0
 11
-15.4638941305
 21
23.5598021239
 31
0.0
 11
-15.5019363718
 21
23.6033194079
 31
0.0
 11
-15.533847949
 21
23.6407396545
 31
0.0
 11
-15.5598821296
 21
23.6723397336
 31
0.0
 11
-15.5803952153
 21
23.6985012561
 31
0.0
 11
-15.595892233
 21
23.7198006293
 31
0.0
 11
-15.6067410629
 21
23.7366742351
 31
0.0
 11
-15.6132344253
 21
23.7495159412
 31
0.0
 11
-15.615516375
 21
23.7585444086
 31
0.0
  0
SPLINE
  5
8AC
100
AcDbEntity
  8
PORTATASTO
100
AcDbSpline
 62
7
  6
CONTINUOUS
 70
0
 71
3
 72
11
 73
7
 74
5
 42
0.0000001
 43
0.0000001
 44
0.0000000001
 12
0.0006056603
 22
-0.0694017954
 32
0.0
 13
-0.0415762977
 23
-0.0555568641
 33
0.0
 40
0.0
 40
0.0
 40
0.0
 40
0.0
 40
0.1315699345
 40
0.3362532095
 40
0.6228006575
 40
1.0
 40
1.0
 40
1.0
 40
1.0
 10
-14.7828036127
 20
23.7589217043
 30
0.0
 10
-14.7827770505
 20
23.7558779744
 30
0.0
 10
-14.7851513362
 20
23.7482367102
 30
0.0
 10
-14.7917643124
 20
23.7354988807
 30
0.0
 10
-14.8026854781
 20
23.7185696936
 30
0.0
 10
-14.8116939238
 20
23.7061401748
 30
0.0
 10
-14.8169214412
 20
23.6991548373
 30
0.0
 11
-14.7828036127
 21
23.7589217043
 31
0.0
 11
-14.7848182066
 21
23.7500151682
 31
0.0
 11
-14.7910620273
 21
23.7372549532
 31
0.0
 11
-14.8016687169
 21
23.7204318341
 31
0.0
 11
-14.8169214412
 21
23.6991548373
 31
0.0
  0
SPLINE
  5
8AD
100
AcDbEntity
  8
PORTATASTO
100
AcDbSpline
 62
7
  6
CONTINUOUS
 70
0
 71
3
 72
16
 73
12
 74
10
 42
0.0000001
 43
0.0000001
 44
0.0000000001
 12
-0.3453159264
 22
-0.4614328611
 32
0.0
 13
-0.3880976128
 23
-0.4262268508
 33
0.0
 40
0.0
 40
0.0
 40
0.0
 40
0.0
 40
0.0574062983
 40
0.1281795354
 40
0.2132306631
 40
0.3132221456
 40
0.4276366592
 40
0.5558962379
 40
0.6965628608
 40
0.8462124275
 40
1.0
 40
1.0
 40
1.0
 40
1.0
 10
-14.8169214412
 20
23.6991548373
 30
0.0
 10
-14.8235292109
 20
23.6903251198
 30
0.0
 10
-14.8386691069
 20
23.6708887227
 30
0.0
 10
-14.8646023381
 20
23.6391681217
 30
0.0
 10
-14.896346115
 20
23.6016349096
 30
0.0
 10
-14.9340322031
 20
23.5581525082
 30
0.0
 10
-14.9775929561
 20
23.5087783662
 30
0.0
 10
-15.0266768965
 20
23.4538569605
 30
0.0
 10
-15.0805434664
 20
23.3941309743
 30
0.0
 10
-15.1378834052
 20
23.3309328321
 30
0.0
 10
-15.1771305985
 20
23.2878152328
 30
0.0
 10
-15.1970254618
 20
23.2659657686
 30
0.0
 11
-14.8169214412
 21
23.6991548373
 31
0.0
 11
-14.8371804074
 21
23.6729894528
 31
0.0
 11
-14.8629451798
 21
23.6413577748
 31
0.0
 11
-14.8945609782
 21
23.6038861994
 31
0.0
 11
-14.9322765589
 21
23.5602988182
 31
0.0
 11
-14.9758825208
 21
23.5108174028
 31
0.0
 11
-15.0251278767
 21
23.455670118
 31
0.0
 11
-15.0794163286
 21
23.3954388889
 31
0.0
 11
-15.1373659777
 21
23.3315370123
 31
0.0
 11
-15.1970254618
 21
23.2659657686
 31
0.0
  0
SPLINE
  5
8AE
100
AcDbEntity
  8
PORTATASTO
100
AcDbSpline
 62
7
  6
CONTINUOUS
 70
0
 71
3
 72
32
 73
28
 74
26
 42
0.0000001
 43
0.0000001
 44
0.0000000001
 12
0.0073780941
 22
-0.8454458425
 32
0.0
 13
-0.5655943174
 23
0.6284394776
 33
0.0
 40
0.0
 40
0.0
 40
0.0
 40
0.0
 40
0.0039079261
 40
0.0156421064
 40
0.0349825537
 40
0.0614721403
 40
0.0950351843
 40
0.1350864774
 40
0.1806573374
 40
0.231117161
 40
0.2861900506
 40
0.3445961267
 40
0.4049970417
 40
0.467182976
 40
0.5301455487
 40
0.5923783923
 40
0.6528615807
 40
0.7113867821
 40
0.7666249279
 40
0.8172853193
 40
0.8630824532
 40
0.9033920654
 40
0.9372422149
 40
0.9640357866
 40
0.9836952471
 40
0.9957615972
 40
1.0
 40
1.0
 40
1.0
 40
1.0
 10
-14.7701234302
 20
22.3059166979
 30
0.0
 10
-14.7701138191
 20
22.3048153846
 30
0.0
 10
-14.777195081
 20
22.3067840897
 30
0.0
 10
-14.7844743742
 20
22.3044247807
 30
0.0
 10
-14.8021423583
 20
22.305335093
 30
0.0
 10
-14.8238915435
 20
22.3045588713
 30
0.0
 10
-14.8523399553
 20
22.3045000831
 30
0.0
 10
-14.8858456425
 20
22.3041998598
 30
0.0
 10
-14.924223667
 20
22.3040148853
 30
0.0
 10
-14.9667997171
 20
22.3038293071
 30
0.0
 10
-15.0130042951
 20
22.3036843956
 30
0.0
 10
-15.0620072847
 20
22.3035712721
 30
0.0
 10
-15.1130159632
 20
22.3034951609
 30
0.0
 10
-15.1653085453
 20
22.303456137
 30
0.0
 10
-15.2181175104
 20
22.3034553245
 30
0.0
 10
-15.2704465391
 20
22.3034927169
 30
0.0
 10
-15.3215250527
 20
22.3035673084
 30
0.0
 10
-15.3706318986
 20
22.3036787297
 30
0.0
 10
-15.4169713831
 20
22.3038228687
 30
0.0
 10
-15.4597201144
 20
22.3040050404
 30
0.0
 10
-15.4982727279
 20
22.3041955841
 30
0.0
 10
-15.5320525065
 20
22.3044743711
 30
0.0
 10
-15.5605785453
 20
22.3045905525
 30
0.0
 10
-15.5830084022
 20
22.3052151227
 30
0.0
 10
-15.5999659185
 20
22.3046492313
 30
0.0
 10
-15.609252606
 20
22.3064215416
 30
0.0
 10
-15.6147504035
 20
22.3050158679
 30
0.0
 10
-15.6155494757
 20
22.3059037278
 30
0.0
 11
-14.7701234302
 21
22.3059166979
 31
0.0
 11
-14.7734132637
 21
22.3056103559
 31
0.0
 11
-14.7833296064
 21
22.3053066728
 31
0.0
 11
-14.7996788955
 21
22.305013172
 31
0.0
 11
-14.8220735367
 21
22.3047354068
 31
0.0
 11
-14.8504491522
 21
22.3044743339
 31
0.0
 11
-14.8843107985
 21
22.3042354896
 31
0.0
 11
-14.9228393812
 21
22.3040243666
 31
0.0
 11
-14.9655016695
 21
22.3038432776
 31
0.0
 11
-15.0120643474
 21
22.3036935789
 31
0.0
 11
-15.0614452693
 21
22.3035791757
 31
0.0
 11
-15.1125128582
 21
22.3035021674
 31
0.0
 11
-15.165089685
 21
22.3034626651
 31
0.0
 11
-15.2183231572
 21
22.3034618354
 31
0.0
 11
-15.270939646
 21
22.3034997025
 31
0.0
 11
-15.3220767977
 21
22.3035751193
 31
0.0
 11
-15.3715584413
 21
22.3036879728
 31
0.0
 11
-15.418260845
 21
22.3038362249
 31
0.0
 11
-15.4610927159
 21
22.3040159971
 31
0.0
 11
-15.4998126179
 21
22.3042259031
 31
0.0
 11
-15.5338926801
 21
22.3044636777
 31
0.0
 11
-15.5625110551
 21
22.3047238837
 31
0.0
 11
-15.5851627368
 21
22.3050009671
 31
0.0
 11
-15.6017817965
 21
22.3052939531
 31
0.0
 11
-15.6119791167
 21
22.3055973935
 31
0.0
 11
-15.6155494757
 21
22.3059037278
 31
0.0
  0
SPLINE
  5
8AF
100
AcDbEntity
  8
PORTATASTO
100
AcDbSpline
 62
7
  6
CONTINUOUS
 70
0
 71
3
 72
11
 73
7
 74
5
 42
0.0000001
 43
0.0000001
 44
0.0000000001
 12
-0.0006048785
 22
0.069312207
 32
0.0
 13
0.0415165287
 23
0.0554897655
 33
0.0
 40
0.0
 40
0.0
 40
0.0
 40
0.0
 40
0.1315632874
 40
0.3360024302
 40
0.6224122908
 40
1.0
 40
1.0
 40
1.0
 40
1.0
 10
-7.7171963873
 20
-23.7589217043
 30
0.0
 10
-7.7172229139
 20
-23.755882057
 30
0.0
 10
-7.7148558405
 20
-23.7482559116
 30
0.0
 10
-7.7082594415
 20
-23.7355401658
 30
0.0
 10
-7.6973562524
 20
-23.7186301883
 30
0.0
 10
-7.6883576949
 20
-23.7062107837
 30
0.0
 10
-7.6831323179
 20
-23.6992266992
 30
0.0
 11
-7.7171963873
 21
-23.7589217043
 31
0.0
 11
-7.7151861913
 21
-23.7500267313
 31
0.0
 11
-7.7089615534
 21
-23.7372963853
 31
0.0
 11
-7.6983778004
 21
-23.7205004287
 31
0.0
 11
-7.6831323179
 21
-23.6992266992
 31
0.0
  0
SPLINE
  5
8B0
100
AcDbEntity
  8
PORTATASTO
100
AcDbSpline
 62
7
  6
CONTINUOUS
 70
0
 71
3
 72
16
 73
12
 74
10
 42
0.0000001
 43
0.0000001
 44
0.0000000001
 12
0.345318949
 22
0.4615431037
 32
0.0
 13
0.3881580293
 23
0.4262932029
 33
0.0
 40
0.0
 40
0.0
 40
0.0
 40
0.0
 40
0.0574081506
 40
0.1281836804
 40
0.213198616
 40
0.3131331395
 40
0.4275630963
 40
0.5559062224
 40
0.696613495
 40
0.846160805
 40
1.0
 40
1.0
 40
1.0
 40
1.0
 10
-7.6831323179
 20
-23.6992266992
 30
0.0
 10
-7.6765242772
 20
-23.6903945872
 30
0.0
 10
-7.6613829018
 20
-23.6709534639
 30
0.0
 10
-7.6354506963
 20
-23.6392317302
 30
0.0
 10
-7.6037141453
 20
-23.6017052537
 30
0.0
 10
-7.5660327615
 20
-23.5582266822
 30
0.0
 10
-7.5224604412
 20
-23.5088383028
 30
0.0
 10
-7.4733512035
 20
-23.4538881342
 30
0.0
 10
-7.4194734565
 20
-23.3941496897
 30
0.0
 10
-7.362125928
 20
-23.3309430877
 30
0.0
 10
-7.3228791778
 20
-23.2878259696
 30
0.0
 10
-7.3029745382
 20
-23.2659657686
 30
0.0
 11
-7.6831323179
 21
-23.6992266992
 31
0.0
 11
-7.6628716058
 21
-23.6730548008
 31
0.0
 11
-7.6371032675
 21
-23.6414161314
 31
0.0
 11
-7.6054969215
 21
-23.6039538957
 31
0.0
 11
-7.567797763
 21
-23.5603838647
 31
0.0
 11
-7.5241797299
 21
-23.5108875344
 31
0.0
 11
-7.4748948988
 21
-23.4556954918
 31
0.0
 11
-7.4205823548
 21
-23.3954374333
 31
0.0
 11
-7.3626633196
 21
-23.3315692516
 31
0.0
 11
-7.3029745382
 21
-23.2659657686
 31
0.0
  0
SPLINE
  5
8B1
100
AcDbEntity
  8
PORTATASTO
100
AcDbSpline
 62
7
  6
CONTINUOUS
 70
0
 71
3
 72
32
 73
28
 74
26
 42
0.0000001
 43
0.0000001
 44
0.0000000001
 12
-0.0073780941
 22
0.8454458424
 32
0.0
 13
0.5655943173
 23
-0.6284394775
 33
0.0
 40
0.0
 40
0.0
 40
0.0
 40
0.0
 40
0.0039074991
 40
0.0156398707
 40
0.0349760932
 40
0.0614647891
 40
0.0950281236
 40
0.1350760614
 40
0.1806425238
 40
0.2311036464
 40
0.2861771049
 40
0.3445774574
 40
0.4049769476
 40
0.4671660504
 40
0.5301280621
 40
0.5923568434
 40
0.6528412266
 40
0.7113718232
 40
0.7666083664
 40
0.8172668965
 40
0.8630689967
 40
0.9033822185
 40
0.9372315748
 40
0.9640263804
 40
0.9836918409
 40
0.9957608591
 40
1.0
 40
1.0
 40
1.0
 40
1.0
 10
-7.7298765698
 20
-22.3059166979
 30
0.0
 10
-7.7298861798
 20
-22.3048155049
 30
0.0
 10
-7.7228059157
 20
-22.3067839043
 30
0.0
 10
-7.7155279593
 20
-22.3044250406
 30
0.0
 10
-7.6978621892
 20
-22.305335132
 30
0.0
 10
-7.6761143489
 20
-22.3045589244
 30
0.0
 10
-7.6476670439
 20
-22.3045001362
 30
0.0
 10
-7.6141634563
 20
-22.3041999181
 30
0.0
 10
-7.575787252
 20
-22.3040149375
 30
0.0
 10
-7.5332119154
 20
-22.3038293491
 30
0.0
 10
-7.487008424
 20
-22.3036844307
 30
0.0
 10
-7.4380072887
 20
-22.3035713003
 30
0.0
 10
-7.3869997319
 20
-22.3034951782
 30
0.0
 10
-7.3347068164
 20
-22.3034561425
 30
0.0
 10
-7.2818982614
 20
-22.3034553196
 30
0.0
 10
-7.2295701989
 20
-22.3034926992
 30
0.0
 10
-7.1784909729
 20
-22.3035672781
 30
0.0
 10
-7.1293827214
 20
-22.3036786902
 30
0.0
 10
-7.0830426927
 20
-22.3038228186
 30
0.0
 10
-7.0402935377
 20
-22.3040049759
 30
0.0
 10
-7.0017390314
 20
-22.3041955108
 30
0.0
 10
-6.9679570601
 20
-22.3044742978
 30
0.0
 10
-6.9394298847
 20
-22.3045904758
 30
0.0
 10
-6.916998218
 20
-22.3052150556
 30
0.0
 10
-6.9000377926
 20
-22.3046489452
 30
0.0
 10
-6.8907486801
 20
-22.3064217263
 30
0.0
 10
-6.8852497356
 20
-22.3050157133
 30
0.0
 10
-6.8844505243
 20
-22.3059037278
 30
0.0
 11
-7.7298765698
 21
-22.3059166979
 31
0.0
 11
-7.7265870973
 21
-22.3056103726
 31
0.0
 11
-7.7166722837
 21
-22.3053067158
 31
0.0
 11
-7.7003265665
 21
-22.3050132525
 31
0.0
 11
-7.6779326787
 21
-22.3047354729
 31
0.0
 11
-7.6495568177
 21
-22.3044743818
 31
0.0
 11
-7.6156980082
 21
-22.3042355443
 31
0.0
 11
-7.5771731436
 21
-22.3040244271
 31
0.0
 11
-7.5345097572
 21
-22.30384332
 31
0.0
 11
-7.4879465984
 21
-22.303693609
 31
0.0
 11
-7.4385705156
 21
-22.3035792057
 31
0.0
 11
-7.3875041313
 21
-22.3035021866
 31
0.0
 11
-7.3349246257
 21
-22.3034626706
 31
0.0
 11
-7.2816916278
 21
-22.3034618302
 31
0.0
 11
-7.2290785736
 21
-22.3034996825
 31
0.0
 11
-7.1779404117
 21
-22.3035750871
 31
0.0
 11
-7.1284542066
 21
-22.3036879385
 31
0.0
 11
-7.0817531578
 21
-22.3038361735
 31
0.0
 11
-7.0389228604
 21
-22.3040159227
 31
0.0
 11
-7.0001987596
 21
-22.3042258332
 31
0.0
 11
-6.9661156455
 21
-22.3044636116
 31
0.0
 11
-6.9374979409
 21
-22.3047237894
 31
0.0
 11
-6.9148452156
 21
-22.3050008517
 31
0.0
 11
-6.8982210832
 21
-22.3052938891
 31
0.0
 11
-6.8880215072
 21
-22.3055973657
 31
0.0
 11
-6.8844505243
 21
-22.3059037278
 31
0.0
  0
SPLINE
  5
8B2
100
AcDbEntity
  8
PORTATASTO
100
AcDbSpline
 62
7
  6
CONTINUOUS
 70
0
 71
3
 72
20
 73
16
 74
14
 42
0.0000001
 43
0.0000001
 44
0.0000000001
 12
0.4386830088
 22
-0.4772203468
 32
0.0
 13
0.0194704816
 23
-0.6479220184
 33
0.0
 40
0.0
 40
0.0
 40
0.0
 40
0.0
 40
0.1373048881
 40
0.2706425768
 40
0.3960920348
 40
0.51057107
 40
0.6126400209
 40
0.7017566949
 40
0.7775769916
 40
0.8407430292
 40
0.892036079
 40
0.932667518
 40
0.9635437995
 40
0.9856705155
 40
1.0
 40
1.0
 40
1.0
 40
1.0
 10
-7.3029745382
 20
-23.2659657686
 30
0.0
 10
-7.2828967644
 20
-23.2878073307
 30
0.0
 10
-7.24332853
 20
-23.3308660059
 30
0.0
 10
-7.1855198151
 20
-23.3939755854
 30
0.0
 10
-7.1312175975
 20
-23.4536084101
 30
0.0
 10
-7.0817095131
 20
-23.5084682427
 30
0.0
 10
-7.0377720632
 20
-23.5577793674
 30
0.0
 10
-6.9997678066
 20
-23.6011864125
 30
0.0
 10
-6.9677433414
 20
-23.6386539989
 30
0.0
 10
-6.9415458534
 20
-23.6703414102
 30
0.0
 10
-6.9207903781
 20
-23.696662792
 30
0.0
 10
-6.9050810046
 20
-23.7180376521
 30
0.0
 10
-6.8939473022
 20
-23.7349902366
 30
0.0
 10
-6.8871244947
 20
-23.7477851126
 30
0.0
 10
-6.8845766256
 20
-23.7554496125
 30
0.0
 10
-6.884483625
 20
-23.7585444086
 30
0.0
 11
-7.3029745382
 21
-23.2659657686
 31
0.0
 11
-7.2427661718
 21
-23.3315133859
 31
0.0
 11
-7.184400777
 21
-23.3952618892
 31
0.0
 11
-7.1296686647
 21
-23.4554037109
 31
0.0
 11
-7.0799745948
 21
-23.510514272
 31
0.0
 11
-7.0359870351
 21
-23.5599367448
 31
0.0
 11
-6.9979686864
 21
-23.6034292632
 31
0.0
 11
-6.9660790753
 21
-23.6408265963
 31
0.0
 11
-6.9400454319
 21
-23.6724296663
 31
0.0
 11
-6.9195324888
 21
-23.6985966003
 31
0.0
 11
-6.9040413074
 21
-23.7198970145
 31
0.0
 11
-6.8932230579
 21
-23.7367357741
 31
0.0
 11
-6.8867566481
 21
-23.7495382397
 31
0.0
 11
-6.884483625
 21
-23.7585444086
 31
0.0
  0
SPLINE
  5
8B3
100
AcDbEntity
  8
PORTATASTO
100
AcDbSpline
 62
7
  6
CONTINUOUS
 70
0
 71
3
 72
20
 73
16
 74
14
 42
0.0000001
 43
0.0000001
 44
0.0000000001
 12
0.0194704804
 22
0.6479219753
 32
0.0
 13
0.4386829796
 23
0.477220315
 33
0.0
 40
0.0
 40
0.0
 40
0.0
 40
0.0
 40
0.0143379016
 40
0.0364733726
 40
0.0673587972
 40
0.1079873253
 40
0.1592824167
 40
0.2224531091
 40
0.2982875188
 40
0.3874123289
 40
0.489472321
 40
0.603938082
 40
0.7293953073
 40
0.862740517
 40
1.0
 40
1.0
 40
1.0
 40
1.0
 10
-15.615516375
 20
-23.7585444086
 30
0.0
 10
-15.6154233198
 20
-23.7554477948
 30
0.0
 10
-15.6128732693
 20
-23.7477798719
 30
0.0
 10
-15.6060469677
 20
-23.7349805699
 30
0.0
 10
-15.5949106232
 20
-23.7180257942
 30
0.0
 10
-15.5791997139
 20
-23.6966498778
 30
0.0
 10
-15.5584433824
 20
-23.6703281245
 30
0.0
 10
-15.5322427677
 20
-23.6386374725
 30
0.0
 10
-15.5002142643
 20
-23.601165693
 30
0.0
 10
-15.4622078809
 20
-23.5577566994
 30
0.0
 10
-15.4182722949
 20
-23.5084479997
 30
0.0
 10
-15.3687662186
 20
-23.453590572
 30
0.0
 10
-15.3144636507
 20
-23.393957485
 30
0.0
 10
-15.25665929
 20
-23.3308527496
 30
0.0
 10
-15.2170965948
 20
-23.2878001065
 30
0.0
 10
-15.1970254618
 20
-23.2659657686
 30
0.0
 11
-15.615516375
 21
-23.7585444086
 31
0.0
 11
-15.6132413071
 21
-23.7495331293
 31
0.0
 11
-15.6067713138
 21
-23.7367261168
 31
0.0
 11
-15.5959489865
 21
-23.7198829342
 31
0.0
 11
-15.5804583218
 21
-23.6985844796
 31
0.0
 11
-15.5599441987
 21
-23.6724167919
 31
0.0
 11
-15.5339083591
 21
-23.6408116253
 31
0.0
 11
-15.5020125537
 21
-23.6034075559
 31
0.0
 11
-15.4639904907
 21
-23.5599112845
 31
0.0
 11
-15.4200066165
 21
-23.5104933116
 31
0.0
 11
-15.3703182137
 21
-23.4553892331
 31
0.0
 11
-15.3155826553
 21
-23.3952437472
 31
0.0
 11
-15.2572139269
 21
-23.3314916939
 31
0.0
 11
-15.1970254618
 21
-23.2659657686
 31
0.0
  0
SPLINE
  5
8B4
100
AcDbEntity
  8
PORTATASTO
100
AcDbSpline
 62
7
  6
CONTINUOUS
 70
0
 71
3
 72
32
 73
28
 74
26
 42
0.0000001
 43
0.0000001
 44
0.0000000001
 12
0.5655943156
 22
0.6284394756
 32
0.0
 13
-0.0073780941
 23
-0.8454458399
 33
0.0
 40
0.0
 40
0.0
 40
0.0
 40
0.0
 40
0.0042383189
 40
0.0163045366
 40
0.0359642021
 40
0.0627561813
 40
0.0966035122
 40
0.1369107633
 40
0.1827056966
 40
0.2333623892
 40
0.2885964182
 40
0.3471184755
 40
0.4075987263
 40
0.4698279058
 40
0.5327872674
 40
0.5949710341
 40
0.6553704963
 40
0.7137755826
 40
0.7688480024
 40
0.8193087693
 40
0.8648817514
 40
0.9049359991
 40
0.9385024768
 40
0.9649972891
 40
0.9843467836
 40
0.996089056
 40
1.0
 40
1.0
 40
1.0
 40
1.0
 10
-15.6155494757
 20
-22.3059037278
 30
0.0
 10
-15.6147504193
 20
-22.3050158855
 30
0.0
 10
-15.6092526966
 20
-22.3064215317
 30
0.0
 10
-15.5999660113
 20
-22.3046492253
 30
0.0
 10
-15.5830089264
 20
-22.3052151162
 30
0.0
 10
-15.560580241
 20
-22.3045905819
 30
0.0
 10
-15.5320561185
 20
-22.304474397
 30
0.0
 10
-15.4982784179
 20
-22.3041956198
 30
0.0
 10
-15.4597281331
 20
-22.3040050786
 30
0.0
 10
-15.4169822246
 20
-22.3038229089
 30
0.0
 10
-15.370645829
 20
-22.3036787678
 30
0.0
 10
-15.3215418575
 20
-22.30356734
 30
0.0
 10
-15.2704660907
 20
-22.3034927387
 30
0.0
 10
-15.2181398277
 20
-22.303455333
 30
0.0
 10
-15.1653334112
 20
-22.3034561282
 30
0.0
 10
-15.1130427545
 20
-22.3034951316
 30
0.0
 10
-15.0620353755
 20
-22.3035712197
 30
0.0
 10
-15.0130332066
 20
-22.3036843174
 30
0.0
 10
-14.966828775
 20
-22.3038292016
 30
0.0
 10
-14.9242519912
 20
-22.30401475
 30
0.0
 10
-14.8858722758
 20
-22.3041996999
 30
0.0
 10
-14.8523641754
 20
-22.3044998892
 30
0.0
 10
-14.8239125184
 20
-22.3045586601
 30
0.0
 10
-14.8021583669
 20
-22.3053349322
 30
0.0
 10
-14.7844835855
 20
-22.3044241425
 30
0.0
 10
-14.7772001665
 20
-22.3067849433
 30
0.0
 10
-14.7701138117
 20
-22.3048145341
 30
0.0
 10
-14.7701234302
 20
-22.3059166979
 30
0.0
 11
-15.6155494757
 21
-22.3059037278
 31
0.0
 11
-15.6119791877
 21
-22.3055973966
 31
0.0
 11
-15.6017819795
 21
-22.3052939571
 31
0.0
 11
-15.5851627466
 21
-22.3050009672
 31
0.0
 11
-15.5625124112
 21
-22.3047238979
 31
0.0
 11
-15.5338964193
 21
-22.3044637074
 31
0.0
 11
-15.4998183534
 21
-22.3042259383
 31
0.0
 11
-15.4611003123
 21
-22.3040160334
 31
0.0
 11
-15.4182715687
 21
-22.3038362642
 31
0.0
 11
-15.3715726459
 21
-22.3036880114
 31
0.0
 11
-15.3220936607
 21
-22.3035751508
 31
0.0
 11
-15.2709589929
 21
-22.3034997236
 31
0.0
 11
-15.2183456022
 21
-22.3034618433
 31
0.0
 11
-15.165114845
 21
-22.3034626555
 31
0.0
 11
-15.112539851
 21
-22.303502137
 31
0.0
 11
-15.0614734905
 21
-22.303579122
 31
0.0
 11
-15.0120934056
 21
-22.3036934989
 31
0.0
 11
-14.9655311249
 21
-22.3038431683
 31
0.0
 11
-14.9228680392
 21
-22.3040242283
 31
0.0
 11
-14.8843376621
 21
-22.3042353228
 31
0.0
 11
-14.8504735177
 21
-22.3044741381
 31
0.0
 11
-14.8220949987
 21
-22.3047351789
 31
0.0
 11
-14.7996959388
 21
-22.305012921
 31
0.0
 11
-14.7833389999
 21
-22.3053064594
 31
0.0
 11
-14.7734158153
 21
-22.3056102376
 31
0.0
 11
-14.7701234302
 21
-22.3059166979
 31
0.0
  0
SPLINE
  5
8B5
100
AcDbEntity
  8
PORTATASTO
100
AcDbSpline
 62
7
  6
CONTINUOUS
 70
0
 71
3
 72
20
 73
16
 74
14
 42
0.0000001
 43
0.0000001
 44
0.0000000001
 12
0.4348249886
 22
-0.4775450284
 32
0.0
 13
-0.0056360316
 23
-0.645825255
 33
0.0
 40
0.0
 40
0.0
 40
0.0
 40
0.0
 40
0.1373768098
 40
0.2708677089
 40
0.3964658638
 40
0.5110473387
 40
0.6132053915
 40
0.7024070058
 40
0.7782831994
 40
0.8414570241
 40
0.8927008438
 40
0.9332273307
 40
0.9639565428
 40
0.9858887185
 40
1.0
 40
1.0
 40
1.0
 40
1.0
 10
-15.1970254618
 20
-23.2659657686
 30
0.0
 10
-15.1771138385
 20
-23.2878336394
 30
0.0
 10
-15.1378610449
 20
-23.3309574015
 30
0.0
 10
-15.0805086752
 20
-23.3941694379
 30
0.0
 10
-15.0266312544
 20
-23.4539076577
 30
0.0
 10
-14.9775201365
 20
-23.5088601302
 30
0.0
 10
-14.9339459821
 20
-23.5582509486
 30
0.0
 10
-14.8962667023
 20
-23.6017276143
 30
0.0
 10
-14.8645343418
 20
-23.6392497258
 30
0.0
 10
-14.838605639
 20
-23.670967781
 30
0.0
 10
-14.8181031996
 20
-23.6972931479
 30
0.0
 10
-14.8026352809
 20
-23.7186423734
 30
0.0
 10
-14.7917348448
 20
-23.7355500251
 30
0.0
 10
-14.7851419635
 20
-23.7482612776
 30
0.0
 10
-14.7827771022
 20
-23.755883897
 30
0.0
 10
-14.7828036127
 20
-23.7589217043
 30
0.0
 11
-15.1970254618
 21
-23.2659657686
 31
0.0
 11
-15.137315752
 21
-23.3315922815
 31
0.0
 11
-15.0793995707
 21
-23.395457416
 31
0.0
 11
-15.0250905173
 21
-23.4557117395
 31
0.0
 11
-14.9758003798
 21
-23.5109099431
 31
0.0
 11
-14.9321786427
 21
-23.5604108643
 31
0.0
 11
-14.8944829558
 21
-23.6039774237
 31
0.0
 11
-14.8628829958
 21
-23.6414326784
 31
0.0
 11
-14.8371173443
 21
-23.6730686846
 31
0.0
 11
-14.8168582468
 21
-23.6992393134
 31
0.0
 11
-14.8016124655
 21
-23.7205147866
 31
0.0
 11
-14.7910328344
 21
-23.7373062504
 31
0.0
 11
-14.7848118276
 21
-23.7500319429
 31
0.0
 11
-14.7828036127
 21
-23.7589217043
 31
0.0
  0
SPLINE
  5
8B6
100
AcDbEntity
  8
PORTATASTO
100
AcDbSpline
 62
7
  6
CONTINUOUS
 70
0
 71
3
 72
11
 73
7
 74
5
 42
0.0000001
 43
0.0000001
 44
0.0000000001
 12
-0.2622191459
 22
-0.3975362729
 32
0.0
 13
-0.2749508858
 23
-0.3888392717
 33
0.0
 40
0.0
 40
0.0
 40
0.0
 40
0.0
 40
0.243654614
 40
0.492867173
 40
0.7456018656
 40
1.0
 40
1.0
 40
1.0
 40
1.0
 10
-3.4123063547
 20
21.6775335309
 30
0.0
 10
-3.4336033229
 20
21.6452463485
 30
0.0
 10
-3.4772988815
 20
21.5803413031
 30
0.0
 10
-3.5445818579
 20
21.4829648185
 30
0.0
 10
-3.6135595411
 20
21.3846911358
 30
0.0
 10
-3.6600386816
 20
21.3189602771
 30
0.0
 10
-3.6833543458
 20
21.2859869487
 30
0.0
 11
-3.4123063547
 21
21.6775335309
 31
0.0
 11
-3.4769969315
 21
21.5812042191
 31
0.0
 11
-3.5443826602
 21
21.4835075774
 31
0.0
 11
-3.613464789
 21
21.3849475221
 31
0.0
 11
-3.6833543458
 21
21.2859869487
 31
0.0
  0
SPLINE
  5
8B7
100
AcDbEntity
  8
PORTATASTO
100
AcDbSpline
 62
7
  6
CONTINUOUS
 70
0
 71
3
 72
11
 73
7
 74
5
 42
0.0000001
 43
0.0000001
 44
0.0000000001
 12
-0.2749508858
 22
0.3888392717
 32
0.0
 13
-0.2622191459
 23
0.3975362729
 33
0.0
 40
0.0
 40
0.0
 40
0.0
 40
0.0
 40
0.2543981344
 40
0.507132827
 40
0.756345386
 40
1.0
 40
1.0
 40
1.0
 40
1.0
 10
-18.8166456542
 20
21.2859869487
 30
0.0
 10
-18.8399613184
 20
21.3189602771
 30
0.0
 10
-18.8864404589
 20
21.3846911358
 30
0.0
 10
-18.9554181421
 20
21.4829648185
 30
0.0
 10
-19.0227011185
 20
21.5803413031
 30
0.0
 10
-19.0663966771
 20
21.6452463485
 30
0.0
 10
-19.0876936453
 20
21.6775335309
 30
0.0
 11
-18.8166456542
 21
21.2859869487
 31
0.0
 11
-18.886535211
 21
21.3849475221
 31
0.0
 11
-18.9556173398
 21
21.4835075774
 31
0.0
 11
-19.0230030685
 21
21.5812042191
 31
0.0
 11
-19.0876936453
 21
21.6775335309
 31
0.0
  0
SPLINE
  5
8B8
100
AcDbEntity
  8
PORTATASTO
100
AcDbSpline
 62
7
  6
CONTINUOUS
 70
0
 71
3
 72
11
 73
7
 74
5
 42
0.0000001
 43
0.0000001
 44
0.0000000001
 12
0.2622191459
 22
0.3975362729
 32
0.0
 13
0.2749508858
 23
0.3888392717
 33
0.0
 40
0.0
 40
0.0
 40
0.0
 40
0.0
 40
0.243654614
 40
0.492867173
 40
0.7456018656
 40
1.0
 40
1.0
 40
1.0
 40
1.0
 10
-19.0876936453
 20
-21.6775335309
 30
0.0
 10
-19.0663966771
 20
-21.6452463485
 30
0.0
 10
-19.0227011185
 20
-21.5803413031
 30
0.0
 10
-18.9554181421
 20
-21.4829648185
 30
0.0
 10
-18.8864404589
 20
-21.3846911358
 30
0.0
 10
-18.8399613184
 20
-21.3189602771
 30
0.0
 10
-18.8166456542
 20
-21.2859869487
 30
0.0
 11
-19.0876936453
 21
-21.6775335309
 31
0.0
 11
-19.0230030685
 21
-21.5812042191
 31
0.0
 11
-18.9556173398
 21
-21.4835075774
 31
0.0
 11
-18.886535211
 21
-21.3849475221
 31
0.0
 11
-18.8166456542
 21
-21.2859869487
 31
0.0
  0
SPLINE
  5
8B9
100
AcDbEntity
  8
PORTATASTO
100
AcDbSpline
 62
7
  6
CONTINUOUS
 70
0
 71
3
 72
11
 73
7
 74
5
 42
0.0000001
 43
0.0000001
 44
0.0000000001
 12
0.2749508858
 22
-0.3888392717
 32
0.0
 13
0.2622191459
 23
-0.3975362729
 33
0.0
 40
0.0
 40
0.0
 40
0.0
 40
0.0
 40
0.2543981344
 40
0.507132827
 40
0.756345386
 40
1.0
 40
1.0
 40
1.0
 40
1.0
 10
-3.6833543458
 20
-21.2859869487
 30
0.0
 10
-3.6600386816
 20
-21.3189602771
 30
0.0
 10
-3.6135595411
 20
-21.3846911358
 30
0.0
 10
-3.5445818579
 20
-21.4829648185
 30
0.0
 10
-3.4772988815
 20
-21.5803413031
 30
0.0
 10
-3.4336033229
 20
-21.6452463485
 30
0.0
 10
-3.4123063547
 20
-21.6775335309
 30
0.0
 11
-3.6833543458
 21
-21.2859869487
 31
0.0
 11
-3.613464789
 21
-21.3849475221
 31
0.0
 11
-3.5443826602
 21
-21.4835075774
 31
0.0
 11
-3.4769969315
 21
-21.5812042191
 31
0.0
 11
-3.4123063547
 21
-21.6775335309
 31
0.0
  0
LINE
  5
8BA
100
AcDbEntity
  8
PORTATASTO
100
AcDbLine
 62
253
  6
CONTINUOUS
 10
-4.1649465025
 20
14.1000000125
 11
-4.1649889249
 21
14.000036033
  0
SPLINE
  5
8BB
100
AcDbEntity
  8
PORTATASTO
100
AcDbSpline
 62
7
  6
CONTINUOUS
 70
0
 71
3
 72
11
 73
7
 74
5
 42
0.0000001
 43
0.0000001
 44
0.0000000001
 12
-0.2749508858
 22
0.3888392717
 32
0.0
 13
-0.2622191459
 23
0.3975362729
 33
0.0
 40
0.0
 40
0.0
 40
0.0
 40
0.0
 40
0.2543981344
 40
0.507132827
 40
0.756345386
 40
1.0
 40
1.0
 40
1.0
 40
1.0
 10
3.6833543458
 20
21.2859869487
 30
0.0
 10
3.6600386816
 20
21.3189602771
 30
0.0
 10
3.6135595411
 20
21.3846911358
 30
0.0
 10
3.5445818579
 20
21.4829648185
 30
0.0
 10
3.4772988815
 20
21.5803413031
 30
0.0
 10
3.4336033229
 20
21.6452463485
 30
0.0
 10
3.4123063547
 20
21.6775335309
 30
0.0
 11
3.6833543458
 21
21.2859869487
 31
0.0
 11
3.613464789
 21
21.3849475221
 31
0.0
 11
3.5443826602
 21
21.4835075774
 31
0.0
 11
3.4769969315
 21
21.5812042191
 31
0.0
 11
3.4123063547
 21
21.6775335309
 31
0.0
  0
SPLINE
  5
8BC
100
AcDbEntity
  8
PORTATASTO
100
AcDbSpline
 62
7
  6
CONTINUOUS
 70
0
 71
3
 72
11
 73
7
 74
5
 42
0.0000001
 43
0.0000001
 44
0.0000000001
 12
-0.2622191459
 22
-0.3975362729
 32
0.0
 13
-0.2749508858
 23
-0.3888392717
 33
0.0
 40
0.0
 40
0.0
 40
0.0
 40
0.0
 40
0.243654614
 40
0.492867173
 40
0.7456018656
 40
1.0
 40
1.0
 40
1.0
 40
1.0
 10
19.0876936453
 20
21.6775335309
 30
0.0
 10
19.0663966771
 20
21.6452463485
 30
0.0
 10
19.0227011185
 20
21.5803413031
 30
0.0
 10
18.9554181421
 20
21.4829648185
 30
0.0
 10
18.8864404589
 20
21.3846911358
 30
0.0
 10
18.8399613184
 20
21.3189602771
 30
0.0
 10
18.8166456542
 20
21.2859869487
 30
0.0
 11
19.0876936453
 21
21.6775335309
 31
0.0
 11
19.0230030685
 21
21.5812042191
 31
0.0
 11
18.9556173398
 21
21.4835075774
 31
0.0
 11
18.886535211
 21
21.3849475221
 31
0.0
 11
18.8166456542
 21
21.2859869487
 31
0.0
  0
SPLINE
  5
8BD
100
AcDbEntity
  8
PORTATASTO
100
AcDbSpline
 62
7
  6
CONTINUOUS
 70
0
 71
3
 72
11
 73
7
 74
5
 42
0.0000001
 43
0.0000001
 44
0.0000000001
 12
0.2749508858
 22
-0.3888392717
 32
0.0
 13
0.2622191459
 23
-0.3975362729
 33
0.0
 40
0.0
 40
0.0
 40
0.0
 40
0.0
 40
0.2543981344
 40
0.507132827
 40
0.756345386
 40
1.0
 40
1.0
 40
1.0
 40
1.0
 10
18.8166456542
 20
-21.2859869487
 30
0.0
 10
18.8399613184
 20
-21.3189602771
 30
0.0
 10
18.8864404589
 20
-21.3846911358
 30
0.0
 10
18.9554181421
 20
-21.4829648185
 30
0.0
 10
19.0227011185
 20
-21.5803413031
 30
0.0
 10
19.0663966771
 20
-21.6452463485
 30
0.0
 10
19.0876936453
 20
-21.6775335309
 30
0.0
 11
18.8166456542
 21
-21.2859869487
 31
0.0
 11
18.886535211
 21
-21.3849475221
 31
0.0
 11
18.9556173398
 21
-21.4835075774
 31
0.0
 11
19.0230030685
 21
-21.5812042191
 31
0.0
 11
19.0876936453
 21
-21.6775335309
 31
0.0
  0
SPLINE
  5
8BE
100
AcDbEntity
  8
PORTATASTO
100
AcDbSpline
 62
7
  6
CONTINUOUS
 70
0
 71
3
 72
11
 73
7
 74
5
 42
0.0000001
 43
0.0000001
 44
0.0000000001
 12
0.2622191459
 22
0.3975362729
 32
0.0
 13
0.2749508858
 23
0.3888392717
 33
0.0
 40
0.0
 40
0.0
 40
0.0
 40
0.0
 40
0.243654614
 40
0.492867173
 40
0.7456018656
 40
1.0
 40
1.0
 40
1.0
 40
1.0
 10
3.4123063547
 20
-21.6775335309
 30
0.0
 10
3.4336033229
 20
-21.6452463485
 30
0.0
 10
3.4772988815
 20
-21.5803413031
 30
0.0
 10
3.5445818579
 20
-21.4829648185
 30
0.0
 10
3.6135595411
 20
-21.3846911358
 30
0.0
 10
3.6600386816
 20
-21.3189602771
 30
0.0
 10
3.6833543458
 20
-21.2859869487
 30
0.0
 11
3.4123063547
 21
-21.6775335309
 31
0.0
 11
3.4769969315
 21
-21.5812042191
 31
0.0
 11
3.5443826602
 21
-21.4835075774
 31
0.0
 11
3.613464789
 21
-21.3849475221
 31
0.0
 11
3.6833543458
 21
-21.2859869487
 31
0.0
  0
SPLINE
  5
8BF
100
AcDbEntity
  8
ASSI
100
AcDbSpline
 62
253
  6
CONTINUOUS
 70
0
 71
3
 72
10
 73
6
 74
4
 42
0.0000001
 43
0.0000001
 44
0.0000000001
 12
-0.3824592416
 22
0.0000476663
 32
0.0
 13
-0.3829864908
 23
0.0045460856
 33
0.0
 40
0.0
 40
0.0
 40
0.0
 40
0.0
 40
0.402292134
 40
0.777013915
 40
1.0
 40
1.0
 40
1.0
 40
1.0
 10
-13.9551908211
 20
19.4572832076
 30
0.0
 10
-14.0064776026
 20
19.4572895996
 30
0.0
 10
-14.105461759
 20
19.4576289995
 30
0.0
 10
-14.2332209882
 20
19.4580291002
 30
0.0
 10
-14.3089636264
 20
19.4597140501
 30
0.0
 10
-14.3374305125
 20
19.4600519547
 30
0.0
 11
-13.9551908211
 21
19.4572832076
 31
0.0
 11
-14.1090507682
 21
19.4576333983
 31
0.0
 11
-14.2523629144
 21
19.4586580737
 31
0.0
 11
-14.3374305125
 21
19.4600519547
 31
0.0
  0
SPLINE
  5
8C0
100
AcDbEntity
  8
ASSI
100
AcDbSpline
 62
253
  6
CONTINUOUS
 70
0
 71
3
 72
9
 73
5
 74
3
 42
0.0000001
 43
0.0000001
 44
0.0000000001
 12
-0.1050234258
 22
0.0012466379
 32
0.0
 13
-0.1042546978
 23
0.0035995662
 33
0.0
 40
0.0
 40
0.0
 40
0.0
 40
0.0
 40
0.3635442414
 40
1.0
 40
1.0
 40
1.0
 40
1.0
 10
-14.3374305125
 20
19.4600519547
 30
0.0
 10
-14.3501573997
 20
19.460203024
 30
0.0
 10
-14.385280491
 20
19.4604587437
 30
0.0
 10
-14.4209208118
 20
19.4599422227
 30
0.0
 10
-14.443038646
 20
19.4607058776
 30
0.0
 11
-14.3374305125
 21
19.4600519547
 31
0.0
 11
-14.3757633542
 21
19.4602868921
 31
0.0
 11
-14.443038646
 21
19.4607058776
 31
0.0
  0
SPLINE
  5
8C1
100
AcDbEntity
  8
ASSI
100
AcDbSpline
 62
253
  6
CONTINUOUS
 70
0
 71
3
 72
10
 73
6
 74
4
 42
0.0000001
 43
0.0000001
 44
0.0000000001
 12
-0.1121451316
 22
0.0038719965
 32
0.0
 13
-0.0798202496
 23
0.0797263681
 33
0.0
 40
0.0
 40
0.0
 40
0.0
 40
0.0
 40
0.2549428547
 40
0.7967320891
 40
1.0
 40
1.0
 40
1.0
 40
1.0
 10
-14.443038646
 20
19.4607058776
 30
0.0
 10
-14.452568846
 20
19.4610349235
 30
0.0
 10
-14.4820238544
 20
19.4626970627
 30
0.0
 10
-14.5169461305
 20
19.4686473959
 30
0.0
 10
-14.5496911397
 20
19.4621715294
 30
0.0
 10
-14.5550994382
 20
19.4675734669
 30
0.0
 11
-14.443038646
 21
19.4607058776
 31
0.0
 11
-14.4712521762
 21
19.4624138738
 31
0.0
 11
-14.5323246501
 21
19.4648930542
 31
0.0
 11
-14.5550994382
 21
19.4675734669
 31
0.0
  0
SPLINE
  5
8C2
100
AcDbEntity
  8
ASSI
100
AcDbSpline
 62
253
  6
CONTINUOUS
 70
0
 71
3
 72
10
 73
6
 74
4
 42
0.0000001
 43
0.0000001
 44
0.0000000001
 12
-0.0798103725
 22
-0.0797219783
 32
0.0
 13
-0.1121348784
 23
-0.0038717008
 33
0.0
 40
0.0
 40
0.0
 40
0.0
 40
0.0
 40
0.2029293166
 40
0.7451798866
 40
1.0
 40
1.0
 40
1.0
 40
1.0
 10
-5.9449005618
 20
19.4675734669
 30
0.0
 10
-5.9502991833
 20
19.4621808247
 30
0.0
 10
-5.9830447912
 20
19.4686499103
 30
0.0
 10
-6.0179618967
 20
19.4626982546
 30
0.0
 10
-6.0474266954
 20
19.461035742
 30
0.0
 10
-6.0569514362
 20
19.4607068796
 30
0.0
 11
-5.9449005618
 21
19.4675734669
 31
0.0
 11
-5.9676351172
 21
19.4648955344
 31
0.0
 11
-6.0287540953
 21
19.4624136718
 31
0.0
 11
-6.0569514362
 21
19.4607068796
 31
0.0
  0
SPLINE
  5
8C3
100
AcDbEntity
  8
ASSI
100
AcDbSpline
 62
253
  6
CONTINUOUS
 70
0
 71
3
 72
9
 73
5
 74
3
 42
0.0000001
 43
0.0000001
 44
0.0000000001
 12
-0.1042427924
 22
-0.0035992094
 32
0.0
 13
-0.1050116432
 23
-0.0012468026
 33
0.0
 40
0.0
 40
0.0
 40
0.0
 40
0.0
 40
0.6361539335
 40
1.0
 40
1.0
 40
1.0
 40
1.0
 10
-6.0569514362
 20
19.4607068796
 30
0.0
 10
-6.079056257
 20
19.4599436625
 30
0.0
 10
-6.114692584
 20
19.4604595482
 30
0.0
 10
-6.1498118029
 20
19.460203755
 30
0.0
 10
-6.1625478273
 20
19.4600525403
 30
0.0
 11
-6.0569514362
 21
19.4607068796
 31
0.0
 11
-6.1241873668
 21
19.4602877358
 31
0.0
 11
-6.1625478273
 21
19.4600525403
 31
0.0
  0
SPLINE
  5
8C4
100
AcDbEntity
  8
ASSI
100
AcDbSpline
 62
253
  6
CONTINUOUS
 70
0
 71
3
 72
10
 73
6
 74
4
 42
0.0000001
 43
0.0000001
 44
0.0000000001
 12
-0.3830084413
 22
-0.0045474568
 32
0.0
 13
-0.3824811551
 23
-0.000042181
 33
0.0
 40
0.0
 40
0.0
 40
0.0
 40
0.0
 40
0.2231283831
 40
0.5974016264
 40
1.0
 40
1.0
 40
1.0
 40
1.0
 10
-6.1625478273
 20
19.4600525403
 30
0.0
 10
-6.191034512
 20
19.4597143181
 30
0.0
 10
-6.2667423628
 20
19.4580299348
 30
0.0
 10
-6.3945087742
 20
19.4576294993
 30
0.0
 10
-6.4934804153
 20
19.4572888683
 30
0.0
 10
-6.5448091789
 20
19.4572832076
 30
0.0
 11
-6.1625478273
 21
19.4600525403
 31
0.0
 11
-6.2476744837
 21
19.4586576915
 31
0.0
 11
-6.3908232866
 21
19.4576339844
 31
0.0
 11
-6.5448091789
 21
19.4572832076
 31
0.0
  0
SPLINE
  5
8C5
100
AcDbEntity
  8
ASSI
100
AcDbSpline
 62
253
  6
CONTINUOUS
 70
0
 71
3
 72
9
 73
5
 74
3
 42
0.0000001
 43
0.0000001
 44
0.0000000001
 12
0.0008980123
 22
0.1208212512
 32
0.0
 13
0.1107514876
 23
0.0132423961
 33
0.0
 40
0.0
 40
0.0
 40
0.0
 40
0.0
 40
0.3854524774
 40
1.0
 40
1.0
 40
1.0
 40
1.0
 10
-19.9
 20
-19.2757505324
 30
0.0
 10
-19.8998846197
 20
-19.2602269155
 30
0.0
 10
-19.8363172833
 20
-19.2724647931
 30
0.0
 10
-19.7947340317
 20
-19.2708341293
 30
0.0
 10
-19.7720466809
 20
-19.2681214354
 30
0.0
 11
-19.9
 21
-19.2757505324
 31
0.0
 11
-19.8541465
 21
-19.2676006567
 31
0.0
 11
-19.7720466809
 21
-19.2681214354
 31
0.0
  0
SPLINE
  5
8C6
100
AcDbEntity
  8
ASSI
100
AcDbSpline
 62
253
  6
CONTINUOUS
 70
0
 71
3
 72
21
 73
17
 74
15
 42
0.0000001
 43
0.0000001
 44
0.0000000001
 12
4.1804582679
 22
0.4998513818
 32
0.0
 13
4.1805808182
 23
-0.4998750485
 33
0.0
 40
0.0
 40
0.0
 40
0.0
 40
0.0
 40
0.0137215172
 40
0.0623657472
 40
0.1278076205
 40
0.2075672971
 40
0.2985533496
 40
0.3972848528
 40
0.4999638378
 40
0.6026474034
 40
0.7013906375
 40
0.7923901094
 40
0.8721633547
 40
0.9376173339
 40
0.9862753484
 40
1.0
 40
1.0
 40
1.0
 40
1.0
 10
-19.7720466809
 20
-19.2681214354
 30
0.0
 10
-19.7529259376
 20
-19.2658351956
 30
0.0
 10
-19.6752776524
 20
-19.249921596
 30
0.0
 10
-19.4646347707
 20
-19.2552607189
 30
0.0
 10
-19.1777643885
 20
-19.2439649728
 30
0.0
 10
-18.8159298843
 20
-19.2408953835
 30
0.0
 10
-18.4071994673
 20
-19.2365327783
 30
0.0
 10
-17.9624202737
 20
-19.2344215672
 30
0.0
 10
-17.5001866861
 20
-19.2335715903
 30
0.0
 10
-17.0379351956
 20
-19.2344203239
 30
0.0
 10
-16.5931109532
 20
-19.2365304955
 30
0.0
 10
-16.1843212175
 20
-19.2408925493
 30
0.0
 10
-15.822428547
 20
-19.2439613188
 30
0.0
 10
-15.5354949755
 20
-19.2552583995
 30
0.0
 10
-15.3248134521
 20
-19.249915607
 30
0.0
 10
-15.2471339117
 20
-19.2658333328
 30
0.0
 10
-15.2280082399
 20
-19.2681202031
 30
0.0
 11
-19.7720466809
 21
-19.2681214354
 31
0.0
 11
-19.7175411932
 21
-19.2597291273
 31
0.0
 11
-19.4958087403
 21
-19.2524839371
 31
0.0
 11
-19.1974168082
 21
-19.2461346704
 31
0.0
 11
-18.8336957527
 21
-19.2409223316
 31
0.0
 11
-18.4187555105
 21
-19.2370495293
 31
0.0
 11
-17.9684789874
 21
-19.2346642441
 31
0.0
 11
-17.5001936368
 21
-19.2338583805
 31
0.0
 11
-17.031887393
 21
-19.2346629613
 31
0.0
 11
-16.581557363
 21
-19.2370472453
 31
0.0
 11
-16.1665559104
 21
-19.2409193642
 31
0.0
 11
-15.8027729604
 21
-19.2461313073
 31
0.0
 11
-15.5043257999
 21
-19.2524803643
 31
0.0
 11
-15.2825304605
 21
-19.259725964
 31
0.0
 11
-15.2280082399
 21
-19.2681202031
 31
0.0
  0
SPLINE
  5
8C7
100
AcDbEntity
  8
ASSI
100
AcDbSpline
 62
253
  6
CONTINUOUS
 70
0
 71
3
 72
9
 73
5
 74
3
 42
0.0000001
 43
0.0000001
 44
0.0000000001
 12
0.1108072926
 22
-0.0132493075
 32
0.0
 13
0.0009594598
 23
-0.1208781175
 33
0.0
 40
0.0
 40
0.0
 40
0.0
 40
0.0
 40
0.6145086027
 40
1.0
 40
1.0
 40
1.0
 40
1.0
 10
-15.2280082399
 20
-19.2681202031
 30
0.0
 10
-15.205310895
 20
-19.2708341409
 30
0.0
 10
-15.1637098278
 20
-19.2724656233
 30
0.0
 10
-15.1001232878
 20
-19.2602180409
 30
0.0
 10
-15.1
 20
-19.2757505324
 30
0.0
 11
-15.2280082399
 21
-19.2681202031
 31
0.0
 11
-15.1458802954
 21
-19.267598237
 31
0.0
 11
-15.1
 21
-19.2757505324
 31
0.0
  0
SPLINE
  5
8C8
100
AcDbEntity
  8
ASSI
100
AcDbSpline
 62
253
  6
CONTINUOUS
 70
0
 71
3
 72
9
 73
5
 74
3
 42
0.0000001
 43
0.0000001
 44
0.0000000001
 12
-0.000899832
 22
-0.1208213886
 32
0.0
 13
-0.1107517292
 23
-0.0132424418
 33
0.0
 40
0.0
 40
0.0
 40
0.0
 40
0.0
 40
0.3854519938
 40
1.0
 40
1.0
 40
1.0
 40
1.0
 10
-15.1
 20
-19.2757505324
 30
0.0
 10
-15.100115614
 20
-19.2912741474
 30
0.0
 10
-15.1636826591
 20
-19.2790362578
 30
0.0
 10
-15.2052659152
 20
-19.2806669395
 30
0.0
 10
-15.2279533333
 20
-19.2833796449
 30
0.0
 11
-15.1
 21
-19.2757505324
 31
0.0
 11
-15.1458534998
 21
-19.2839004081
 31
0.0
 11
-15.2279533333
 21
-19.2833796449
 31
0.0
  0
SPLINE
  5
8C9
100
AcDbEntity
  8
ASSI
100
AcDbSpline
 62
253
  6
CONTINUOUS
 70
0
 71
3
 72
21
 73
17
 74
15
 42
0.0000001
 43
0.0000001
 44
0.0000000001
 12
-4.1804618905
 22
-0.4998524493
 32
0.0
 13
-4.1805845275
 23
0.4998761322
 33
0.0
 40
0.0
 40
0.0
 40
0.0
 40
0.0
 40
0.0137214895
 40
0.0623657204
 40
0.1278075984
 40
0.2075672791
 40
0.2985533367
 40
0.3972848458
 40
0.4999638373
 40
0.6026474096
 40
0.7013906501
 40
0.7923901277
 40
0.8721633776
 40
0.9376173613
 40
0.9862753771
 40
1.0
 40
1.0
 40
1.0
 40
1.0
 10
-15.2279533333
 20
-19.2833796449
 30
0.0
 10
-15.2470740546
 20
-19.2856658849
 30
0.0
 10
-15.324722583
 20
-19.3015794646
 30
0.0
 10
-15.5353651543
 20
-19.2962403472
 30
0.0
 10
-15.8222356549
 20
-19.307536091
 30
0.0
 10
-16.1840701123
 20
-19.3106056813
 30
0.0
 10
-16.5928005401
 20
-19.3149682862
 30
0.0
 10
-17.0375797269
 20
-19.3170794974
 30
0.0
 10
-17.4998133142
 20
-19.3179294744
 30
0.0
 10
-17.9620648052
 20
-19.3170807409
 30
0.0
 10
-18.4068890429
 20
-19.3149705692
 30
0.0
 10
-18.8156787922
 20
-19.3106085156
 30
0.0
 10
-19.1775714166
 20
-19.3075397453
 30
0.0
 10
-19.4645051094
 20
-19.2962426667
 30
0.0
 10
-19.675186317
 20
-19.3015854539
 30
0.0
 10
-19.7528661045
 20
-19.2856677482
 30
0.0
 10
-19.7719917533
 20
-19.2833808778
 30
0.0
 11
-15.2279533333
 21
-19.2833796449
 31
0.0
 11
-15.2824588274
 21
-19.2917719373
 31
0.0
 11
-15.5041912702
 21
-19.2990171275
 31
0.0
 11
-15.8025832043
 21
-19.3053663941
 31
0.0
 11
-16.1663042544
 21
-19.3105787329
 31
0.0
 11
-16.5812444931
 21
-19.3144515353
 31
0.0
 11
-17.0315210136
 21
-19.3168368205
 31
0.0
 11
-17.4998063632
 21
-19.3176426842
 31
0.0
 11
-17.968112607
 21
-19.3168381035
 31
0.0
 11
-18.4184426369
 21
-19.3144538195
 31
0.0
 11
-18.8334440886
 21
-19.3105817005
 31
0.0
 11
-19.1972270359
 21
-19.3053697574
 31
0.0
 11
-19.495674197
 21
-19.2990207005
 31
0.0
 11
-19.7174695282
 21
-19.2917751007
 31
0.0
 11
-19.7719917533
 21
-19.2833808778
 31
0.0
  0
SPLINE
  5
8CA
100
AcDbEntity
  8
ASSI
100
AcDbSpline
 62
253
  6
CONTINUOUS
 70
0
 71
3
 72
9
 73
5
 74
3
 42
0.0000001
 43
0.0000001
 44
0.0000000001
 12
-0.1108075323
 22
0.0132493531
 32
0.0
 13
-0.0009613099
 23
0.1208782492
 33
0.0
 40
0.0
 40
0.0
 40
0.0
 40
0.0
 40
0.6145090846
 40
1.0
 40
1.0
 40
1.0
 40
1.0
 10
-19.7719917533
 20
-19.2833808778
 30
0.0
 10
-19.794689165
 20
-19.2806669285
 30
0.0
 10
-19.8362902345
 20
-19.279035428
 30
0.0
 10
-19.8998764746
 20
-19.2912830213
 30
0.0
 10
-19.9
 20
-19.2757505324
 30
0.0
 11
-19.7719917533
 21
-19.2833808778
 31
0.0
 11
-19.8541197065
 21
-19.2839028278
 31
0.0
 11
-19.9
 21
-19.2757505324
 31
0.0
  0
SPLINE
  5
8CB
100
AcDbEntity
  8
ASSI
100
AcDbSpline
 62
253
  6
CONTINUOUS
 70
0
 71
3
 72
9
 73
5
 74
3
 42
0.0000001
 43
0.0000001
 44
0.0000000001
 12
0.0008980123
 22
0.1208212512
 32
0.0
 13
0.1107514876
 23
0.0132423961
 33
0.0
 40
0.0
 40
0.0
 40
0.0
 40
0.0
 40
0.3854524774
 40
1.0
 40
1.0
 40
1.0
 40
1.0
 10
-14.9
 20
-19.2757505324
 30
0.0
 10
-14.8998846197
 20
-19.2602269155
 30
0.0
 10
-14.8363172833
 20
-19.2724647931
 30
0.0
 10
-14.7947340317
 20
-19.2708341293
 30
0.0
 10
-14.7720466809
 20
-19.2681214354
 30
0.0
 11
-14.9
 21
-19.2757505324
 31
0.0
 11
-14.8541465
 21
-19.2676006567
 31
0.0
 11
-14.7720466809
 21
-19.2681214354
 31
0.0
  0
SPLINE
  5
8CC
100
AcDbEntity
  8
ASSI
100
AcDbSpline
 62
253
  6
CONTINUOUS
 70
0
 71
3
 72
21
 73
17
 74
15
 42
0.0000001
 43
0.0000001
 44
0.0000000001
 12
4.1804582679
 22
0.4998513818
 32
0.0
 13
4.1805808182
 23
-0.4998750485
 33
0.0
 40
0.0
 40
0.0
 40
0.0
 40
0.0
 40
0.0137215172
 40
0.0623657472
 40
0.1278076205
 40
0.2075672971
 40
0.2985533496
 40
0.3972848528
 40
0.4999638378
 40
0.6026474034
 40
0.7013906375
 40
0.7923901094
 40
0.8721633547
 40
0.9376173339
 40
0.9862753484
 40
1.0
 40
1.0
 40
1.0
 40
1.0
 10
-14.7720466809
 20
-19.2681214354
 30
0.0
 10
-14.7529259376
 20
-19.2658351956
 30
0.0
 10
-14.6752776524
 20
-19.249921596
 30
0.0
 10
-14.4646347707
 20
-19.2552607189
 30
0.0
 10
-14.1777643885
 20
-19.2439649728
 30
0.0
 10
-13.8159298843
 20
-19.2408953835
 30
0.0
 10
-13.4071994673
 20
-19.2365327783
 30
0.0
 10
-12.9624202737
 20
-19.2344215672
 30
0.0
 10
-12.5001866861
 20
-19.2335715903
 30
0.0
 10
-12.0379351956
 20
-19.2344203239
 30
0.0
 10
-11.5931109532
 20
-19.2365304955
 30
0.0
 10
-11.1843212175
 20
-19.2408925493
 30
0.0
 10
-10.822428547
 20
-19.2439613188
 30
0.0
 10
-10.5354949755
 20
-19.2552583995
 30
0.0
 10
-10.3248134521
 20
-19.249915607
 30
0.0
 10
-10.2471339117
 20
-19.2658333328
 30
0.0
 10
-10.2280082399
 20
-19.2681202031
 30
0.0
 11
-14.7720466809
 21
-19.2681214354
 31
0.0
 11
-14.7175411932
 21
-19.2597291273
 31
0.0
 11
-14.4958087403
 21
-19.2524839371
 31
0.0
 11
-14.1974168082
 21
-19.2461346704
 31
0.0
 11
-13.8336957527
 21
-19.2409223316
 31
0.0
 11
-13.4187555105
 21
-19.2370495293
 31
0.0
 11
-12.9684789874
 21
-19.2346642441
 31
0.0
 11
-12.5001936368
 21
-19.2338583805
 31
0.0
 11
-12.031887393
 21
-19.2346629613
 31
0.0
 11
-11.581557363
 21
-19.2370472453
 31
0.0
 11
-11.1665559104
 21
-19.2409193642
 31
0.0
 11
-10.8027729604
 21
-19.2461313073
 31
0.0
 11
-10.5043257999
 21
-19.2524803643
 31
0.0
 11
-10.2825304605
 21
-19.259725964
 31
0.0
 11
-10.2280082399
 21
-19.2681202031
 31
0.0
  0
SPLINE
  5
8CD
100
AcDbEntity
  8
ASSI
100
AcDbSpline
 62
253
  6
CONTINUOUS
 70
0
 71
3
 72
9
 73
5
 74
3
 42
0.0000001
 43
0.0000001
 44
0.0000000001
 12
0.1108072926
 22
-0.0132493075
 32
0.0
 13
0.0009594598
 23
-0.1208781175
 33
0.0
 40
0.0
 40
0.0
 40
0.0
 40
0.0
 40
0.6145086027
 40
1.0
 40
1.0
 40
1.0
 40
1.0
 10
-10.2280082399
 20
-19.2681202031
 30
0.0
 10
-10.205310895
 20
-19.2708341409
 30
0.0
 10
-10.1637098278
 20
-19.2724656233
 30
0.0
 10
-10.1001232878
 20
-19.2602180409
 30
0.0
 10
-10.1
 20
-19.2757505324
 30
0.0
 11
-10.2280082399
 21
-19.2681202031
 31
0.0
 11
-10.1458802954
 21
-19.267598237
 31
0.0
 11
-10.1
 21
-19.2757505324
 31
0.0
  0
SPLINE
  5
8CE
100
AcDbEntity
  8
ASSI
100
AcDbSpline
 62
253
  6
CONTINUOUS
 70
0
 71
3
 72
9
 73
5
 74
3
 42
0.0000001
 43
0.0000001
 44
0.0000000001
 12
-0.000899832
 22
-0.1208213886
 32
0.0
 13
-0.1107517292
 23
-0.0132424418
 33
0.0
 40
0.0
 40
0.0
 40
0.0
 40
0.0
 40
0.3854519938
 40
1.0
 40
1.0
 40
1.0
 40
1.0
 10
-10.1
 20
-19.2757505324
 30
0.0
 10
-10.100115614
 20
-19.2912741474
 30
0.0
 10
-10.1636826591
 20
-19.2790362578
 30
0.0
 10
-10.2052659152
 20
-19.2806669395
 30
0.0
 10
-10.2279533333
 20
-19.2833796449
 30
0.0
 11
-10.1
 21
-19.2757505324
 31
0.0
 11
-10.1458534998
 21
-19.2839004081
 31
0.0
 11
-10.2279533333
 21
-19.2833796449
 31
0.0
  0
SPLINE
  5
8CF
100
AcDbEntity
  8
ASSI
100
AcDbSpline
 62
253
  6
CONTINUOUS
 70
0
 71
3
 72
21
 73
17
 74
15
 42
0.0000001
 43
0.0000001
 44
0.0000000001
 12
-4.1804618905
 22
-0.4998524493
 32
0.0
 13
-4.1805845275
 23
0.4998761322
 33
0.0
 40
0.0
 40
0.0
 40
0.0
 40
0.0
 40
0.0137214895
 40
0.0623657204
 40
0.1278075984
 40
0.2075672791
 40
0.2985533367
 40
0.3972848458
 40
0.4999638373
 40
0.6026474096
 40
0.7013906501
 40
0.7923901277
 40
0.8721633776
 40
0.9376173613
 40
0.9862753771
 40
1.0
 40
1.0
 40
1.0
 40
1.0
 10
-10.2279533333
 20
-19.2833796449
 30
0.0
 10
-10.2470740546
 20
-19.2856658849
 30
0.0
 10
-10.324722583
 20
-19.3015794646
 30
0.0
 10
-10.5353651543
 20
-19.2962403472
 30
0.0
 10
-10.8222356549
 20
-19.307536091
 30
0.0
 10
-11.1840701123
 20
-19.3106056813
 30
0.0
 10
-11.5928005401
 20
-19.3149682862
 30
0.0
 10
-12.0375797269
 20
-19.3170794974
 30
0.0
 10
-12.4998133142
 20
-19.3179294744
 30
0.0
 10
-12.9620648052
 20
-19.3170807409
 30
0.0
 10
-13.4068890429
 20
-19.3149705692
 30
0.0
 10
-13.8156787922
 20
-19.3106085156
 30
0.0
 10
-14.1775714166
 20
-19.3075397453
 30
0.0
 10
-14.4645051094
 20
-19.2962426667
 30
0.0
 10
-14.675186317
 20
-19.3015854539
 30
0.0
 10
-14.7528661045
 20
-19.2856677482
 30
0.0
 10
-14.7719917533
 20
-19.2833808778
 30
0.0
 11
-10.2279533333
 21
-19.2833796449
 31
0.0
 11
-10.2824588274
 21
-19.2917719373
 31
0.0
 11
-10.5041912702
 21
-19.2990171275
 31
0.0
 11
-10.8025832043
 21
-19.3053663941
 31
0.0
 11
-11.1663042544
 21
-19.3105787329
 31
0.0
 11
-11.5812444931
 21
-19.3144515353
 31
0.0
 11
-12.0315210136
 21
-19.3168368205
 31
0.0
 11
-12.4998063632
 21
-19.3176426842
 31
0.0
 11
-12.968112607
 21
-19.3168381035
 31
0.0
 11
-13.4184426369
 21
-19.3144538195
 31
0.0
 11
-13.8334440886
 21
-19.3105817005
 31
0.0
 11
-14.1972270359
 21
-19.3053697574
 31
0.0
 11
-14.495674197
 21
-19.2990207005
 31
0.0
 11
-14.7174695282
 21
-19.2917751007
 31
0.0
 11
-14.7719917533
 21
-19.2833808778
 31
0.0
  0
SPLINE
  5
8D0
100
AcDbEntity
  8
ASSI
100
AcDbSpline
 62
253
  6
CONTINUOUS
 70
0
 71
3
 72
9
 73
5
 74
3
 42
0.0000001
 43
0.0000001
 44
0.0000000001
 12
-0.1108075323
 22
0.0132493531
 32
0.0
 13
-0.0009613099
 23
0.1208782492
 33
0.0
 40
0.0
 40
0.0
 40
0.0
 40
0.0
 40
0.6145090846
 40
1.0
 40
1.0
 40
1.0
 40
1.0
 10
-14.7719917533
 20
-19.2833808778
 30
0.0
 10
-14.794689165
 20
-19.2806669285
 30
0.0
 10
-14.8362902345
 20
-19.279035428
 30
0.0
 10
-14.8998764746
 20
-19.2912830213
 30
0.0
 10
-14.9
 20
-19.2757505324
 30
0.0
 11
-14.7719917533
 21
-19.2833808778
 31
0.0
 11
-14.8541197065
 21
-19.2839028278
 31
0.0
 11
-14.9
 21
-19.2757505324
 31
0.0
  0
SPLINE
  5
8D1
100
AcDbEntity
  8
ASSI
100
AcDbSpline
 62
253
  6
CONTINUOUS
 70
0
 71
3
 72
9
 73
5
 74
3
 42
0.0000001
 43
0.0000001
 44
0.0000000001
 12
0.0008980123
 22
0.1208212512
 32
0.0
 13
0.1107514876
 23
0.0132423961
 33
0.0
 40
0.0
 40
0.0
 40
0.0
 40
0.0
 40
0.3854524774
 40
1.0
 40
1.0
 40
1.0
 40
1.0
 10
-9.9
 20
-19.2757505324
 30
0.0
 10
-9.8998846197
 20
-19.2602269155
 30
0.0
 10
-9.8363172833
 20
-19.2724647931
 30
0.0
 10
-9.7947340317
 20
-19.2708341293
 30
0.0
 10
-9.7720466809
 20
-19.2681214354
 30
0.0
 11
-9.9
 21
-19.2757505324
 31
0.0
 11
-9.8541465
 21
-19.2676006567
 31
0.0
 11
-9.7720466809
 21
-19.2681214354
 31
0.0
  0
SPLINE
  5
8D2
100
AcDbEntity
  8
ASSI
100
AcDbSpline
 62
253
  6
CONTINUOUS
 70
0
 71
3
 72
21
 73
17
 74
15
 42
0.0000001
 43
0.0000001
 44
0.0000000001
 12
4.1804582679
 22
0.4998513818
 32
0.0
 13
4.1805808182
 23
-0.4998750485
 33
0.0
 40
0.0
 40
0.0
 40
0.0
 40
0.0
 40
0.0137215172
 40
0.0623657472
 40
0.1278076205
 40
0.2075672971
 40
0.2985533496
 40
0.3972848528
 40
0.4999638378
 40
0.6026474034
 40
0.7013906375
 40
0.7923901094
 40
0.8721633547
 40
0.9376173339
 40
0.9862753484
 40
1.0
 40
1.0
 40
1.0
 40
1.0
 10
-9.7720466809
 20
-19.2681214354
 30
0.0
 10
-9.7529259376
 20
-19.2658351956
 30
0.0
 10
-9.6752776524
 20
-19.249921596
 30
0.0
 10
-9.4646347707
 20
-19.2552607189
 30
0.0
 10
-9.1777643885
 20
-19.2439649728
 30
0.0
 10
-8.8159298843
 20
-19.2408953835
 30
0.0
 10
-8.4071994673
 20
-19.2365327783
 30
0.0
 10
-7.9624202737
 20
-19.2344215672
 30
0.0
 10
-7.5001866861
 20
-19.2335715903
 30
0.0
 10
-7.0379351956
 20
-19.2344203239
 30
0.0
 10
-6.5931109532
 20
-19.2365304955
 30
0.0
 10
-6.1843212175
 20
-19.2408925493
 30
0.0
 10
-5.822428547
 20
-19.2439613188
 30
0.0
 10
-5.5354949755
 20
-19.2552583995
 30
0.0
 10
-5.3248134521
 20
-19.249915607
 30
0.0
 10
-5.2471339117
 20
-19.2658333328
 30
0.0
 10
-5.2280082399
 20
-19.2681202031
 30
0.0
 11
-9.7720466809
 21
-19.2681214354
 31
0.0
 11
-9.7175411932
 21
-19.2597291273
 31
0.0
 11
-9.4958087403
 21
-19.2524839371
 31
0.0
 11
-9.1974168082
 21
-19.2461346704
 31
0.0
 11
-8.8336957527
 21
-19.2409223316
 31
0.0
 11
-8.4187555105
 21
-19.2370495293
 31
0.0
 11
-7.9684789874
 21
-19.2346642441
 31
0.0
 11
-7.5001936368
 21
-19.2338583805
 31
0.0
 11
-7.031887393
 21
-19.2346629613
 31
0.0
 11
-6.581557363
 21
-19.2370472453
 31
0.0
 11
-6.1665559104
 21
-19.2409193642
 31
0.0
 11
-5.8027729604
 21
-19.2461313073
 31
0.0
 11
-5.5043257999
 21
-19.2524803643
 31
0.0
 11
-5.2825304605
 21
-19.259725964
 31
0.0
 11
-5.2280082399
 21
-19.2681202031
 31
0.0
  0
SPLINE
  5
8D3
100
AcDbEntity
  8
ASSI
100
AcDbSpline
 62
253
  6
CONTINUOUS
 70
0
 71
3
 72
9
 73
5
 74
3
 42
0.0000001
 43
0.0000001
 44
0.0000000001
 12
0.1108072926
 22
-0.0132493075
 32
0.0
 13
0.0009594598
 23
-0.1208781175
 33
0.0
 40
0.0
 40
0.0
 40
0.0
 40
0.0
 40
0.6145086027
 40
1.0
 40
1.0
 40
1.0
 40
1.0
 10
-5.2280082399
 20
-19.2681202031
 30
0.0
 10
-5.205310895
 20
-19.2708341409
 30
0.0
 10
-5.1637098278
 20
-19.2724656233
 30
0.0
 10
-5.1001232878
 20
-19.2602180409
 30
0.0
 10
-5.1
 20
-19.2757505324
 30
0.0
 11
-5.2280082399
 21
-19.2681202031
 31
0.0
 11
-5.1458802954
 21
-19.267598237
 31
0.0
 11
-5.1
 21
-19.2757505324
 31
0.0
  0
SPLINE
  5
8D4
100
AcDbEntity
  8
ASSI
100
AcDbSpline
 62
253
  6
CONTINUOUS
 70
0
 71
3
 72
9
 73
5
 74
3
 42
0.0000001
 43
0.0000001
 44
0.0000000001
 12
-0.000899832
 22
-0.1208213886
 32
0.0
 13
-0.1107517292
 23
-0.0132424418
 33
0.0
 40
0.0
 40
0.0
 40
0.0
 40
0.0
 40
0.3854519938
 40
1.0
 40
1.0
 40
1.0
 40
1.0
 10
-5.1
 20
-19.2757505324
 30
0.0
 10
-5.100115614
 20
-19.2912741474
 30
0.0
 10
-5.1636826591
 20
-19.2790362578
 30
0.0
 10
-5.2052659152
 20
-19.2806669395
 30
0.0
 10
-5.2279533333
 20
-19.2833796449
 30
0.0
 11
-5.1
 21
-19.2757505324
 31
0.0
 11
-5.1458534998
 21
-19.2839004081
 31
0.0
 11
-5.2279533333
 21
-19.2833796449
 31
0.0
  0
SPLINE
  5
8D5
100
AcDbEntity
  8
ASSI
100
AcDbSpline
 62
253
  6
CONTINUOUS
 70
0
 71
3
 72
21
 73
17
 74
15
 42
0.0000001
 43
0.0000001
 44
0.0000000001
 12
-4.1804618905
 22
-0.4998524493
 32
0.0
 13
-4.1805845275
 23
0.4998761322
 33
0.0
 40
0.0
 40
0.0
 40
0.0
 40
0.0
 40
0.0137214895
 40
0.0623657204
 40
0.1278075984
 40
0.2075672791
 40
0.2985533367
 40
0.3972848458
 40
0.4999638373
 40
0.6026474096
 40
0.7013906501
 40
0.7923901277
 40
0.8721633776
 40
0.9376173613
 40
0.9862753771
 40
1.0
 40
1.0
 40
1.0
 40
1.0
 10
-5.2279533333
 20
-19.2833796449
 30
0.0
 10
-5.2470740546
 20
-19.2856658849
 30
0.0
 10
-5.324722583
 20
-19.3015794646
 30
0.0
 10
-5.5353651543
 20
-19.2962403472
 30
0.0
 10
-5.8222356549
 20
-19.307536091
 30
0.0
 10
-6.1840701123
 20
-19.3106056813
 30
0.0
 10
-6.5928005401
 20
-19.3149682862
 30
0.0
 10
-7.0375797269
 20
-19.3170794974
 30
0.0
 10
-7.4998133142
 20
-19.3179294744
 30
0.0
 10
-7.9620648052
 20
-19.3170807409
 30
0.0
 10
-8.4068890429
 20
-19.3149705692
 30
0.0
 10
-8.8156787922
 20
-19.3106085156
 30
0.0
 10
-9.1775714166
 20
-19.3075397453
 30
0.0
 10
-9.4645051094
 20
-19.2962426667
 30
0.0
 10
-9.675186317
 20
-19.3015854539
 30
0.0
 10
-9.7528661045
 20
-19.2856677482
 30
0.0
 10
-9.7719917533
 20
-19.2833808778
 30
0.0
 11
-5.2279533333
 21
-19.2833796449
 31
0.0
 11
-5.2824588274
 21
-19.2917719373
 31
0.0
 11
-5.5041912702
 21
-19.2990171275
 31
0.0
 11
-5.8025832043
 21
-19.3053663941
 31
0.0
 11
-6.1663042544
 21
-19.3105787329
 31
0.0
 11
-6.5812444931
 21
-19.3144515353
 31
0.0
 11
-7.0315210136
 21
-19.3168368205
 31
0.0
 11
-7.4998063632
 21
-19.3176426842
 31
0.0
 11
-7.968112607
 21
-19.3168381035
 31
0.0
 11
-8.4184426369
 21
-19.3144538195
 31
0.0
 11
-8.8334440886
 21
-19.3105817005
 31
0.0
 11
-9.1972270359
 21
-19.3053697574
 31
0.0
 11
-9.495674197
 21
-19.2990207005
 31
0.0
 11
-9.7174695282
 21
-19.2917751007
 31
0.0
 11
-9.7719917533
 21
-19.2833808778
 31
0.0
  0
SPLINE
  5
8D6
100
AcDbEntity
  8
ASSI
100
AcDbSpline
 62
253
  6
CONTINUOUS
 70
0
 71
3
 72
9
 73
5
 74
3
 42
0.0000001
 43
0.0000001
 44
0.0000000001
 12
-0.1108075323
 22
0.0132493531
 32
0.0
 13
-0.0009613099
 23
0.1208782492
 33
0.0
 40
0.0
 40
0.0
 40
0.0
 40
0.0
 40
0.6145090846
 40
1.0
 40
1.0
 40
1.0
 40
1.0
 10
-9.7719917533
 20
-19.2833808778
 30
0.0
 10
-9.794689165
 20
-19.2806669285
 30
0.0
 10
-9.8362902345
 20
-19.279035428
 30
0.0
 10
-9.8998764746
 20
-19.2912830213
 30
0.0
 10
-9.9
 20
-19.2757505324
 30
0.0
 11
-9.7719917533
 21
-19.2833808778
 31
0.0
 11
-9.8541197065
 21
-19.2839028278
 31
0.0
 11
-9.9
 21
-19.2757505324
 31
0.0
  0
SPLINE
  5
8D7
100
AcDbEntity
  8
ASSI
100
AcDbSpline
 62
253
  6
CONTINUOUS
 70
0
 71
3
 72
10
 73
6
 74
4
 42
0.0000001
 43
0.0000001
 44
0.0000000001
 12
0.3824592416
 22
-0.0000476663
 32
0.0
 13
0.3829864908
 23
-0.0045460856
 33
0.0
 40
0.0
 40
0.0
 40
0.0
 40
0.0
 40
0.402292134
 40
0.777013915
 40
1.0
 40
1.0
 40
1.0
 40
1.0
 10
-6.5448091789
 20
-19.4572832076
 30
0.0
 10
-6.4935223974
 20
-19.4572895996
 30
0.0
 10
-6.394538241
 20
-19.4576289995
 30
0.0
 10
-6.2667790118
 20
-19.4580291002
 30
0.0
 10
-6.1910363736
 20
-19.4597140501
 30
0.0
 10
-6.1625694875
 20
-19.4600519547
 30
0.0
 11
-6.5448091789
 21
-19.4572832076
 31
0.0
 11
-6.3909492318
 21
-19.4576333983
 31
0.0
 11
-6.2476370856
 21
-19.4586580737
 31
0.0
 11
-6.1625694875
 21
-19.4600519547
 31
0.0
  0
SPLINE
  5
8D8
100
AcDbEntity
  8
ASSI
100
AcDbSpline
 62
253
  6
CONTINUOUS
 70
0
 71
3
 72
9
 73
5
 74
3
 42
0.0000001
 43
0.0000001
 44
0.0000000001
 12
0.1050234258
 22
-0.0012466379
 32
0.0
 13
0.1042546978
 23
-0.0035995662
 33
0.0
 40
0.0
 40
0.0
 40
0.0
 40
0.0
 40
0.3635442414
 40
1.0
 40
1.0
 40
1.0
 40
1.0
 10
-6.1625694875
 20
-19.4600519547
 30
0.0
 10
-6.1498426003
 20
-19.460203024
 30
0.0
 10
-6.114719509
 20
-19.4604587437
 30
0.0
 10
-6.0790791882
 20
-19.4599422227
 30
0.0
 10
-6.056961354
 20
-19.4607058776
 30
0.0
 11
-6.1625694875
 21
-19.4600519547
 31
0.0
 11
-6.1242366458
 21
-19.4602868921
 31
0.0
 11
-6.056961354
 21
-19.4607058776
 31
0.0
  0
SPLINE
  5
8D9
100
AcDbEntity
  8
ASSI
100
AcDbSpline
 62
253
  6
CONTINUOUS
 70
0
 71
3
 72
10
 73
6
 74
4
 42
0.0000001
 43
0.0000001
 44
0.0000000001
 12
0.1121451316
 22
-0.0038719965
 32
0.0
 13
0.0798202496
 23
-0.0797263681
 33
0.0
 40
0.0
 40
0.0
 40
0.0
 40
0.0
 40
0.2549428547
 40
0.7967320891
 40
1.0
 40
1.0
 40
1.0
 40
1.0
 10
-6.056961354
 20
-19.4607058776
 30
0.0
 10
-6.047431154
 20
-19.4610349235
 30
0.0
 10
-6.0179761456
 20
-19.4626970627
 30
0.0
 10
-5.9830538695
 20
-19.4686473959
 30
0.0
 10
-5.9503088603
 20
-19.4621715294
 30
0.0
 10
-5.9449005618
 20
-19.4675734669
 30
0.0
 11
-6.056961354
 21
-19.4607058776
 31
0.0
 11
-6.0287478238
 21
-19.4624138738
 31
0.0
 11
-5.9676753499
 21
-19.4648930542
 31
0.0
 11
-5.9449005618
 21
-19.4675734669
 31
0.0
  0
SPLINE
  5
8DA
100
AcDbEntity
  8
ASSI
100
AcDbSpline
 62
253
  6
CONTINUOUS
 70
0
 71
3
 72
10
 73
6
 74
4
 42
0.0000001
 43
0.0000001
 44
0.0000000001
 12
0.0798103725
 22
0.0797219783
 32
0.0
 13
0.1121348784
 23
0.0038717008
 33
0.0
 40
0.0
 40
0.0
 40
0.0
 40
0.0
 40
0.2029293166
 40
0.7451798866
 40
1.0
 40
1.0
 40
1.0
 40
1.0
 10
-14.5550994382
 20
-19.4675734669
 30
0.0
 10
-14.5497008167
 20
-19.4621808247
 30
0.0
 10
-14.5169552088
 20
-19.4686499103
 30
0.0
 10
-14.4820381033
 20
-19.4626982546
 30
0.0
 10
-14.4525733046
 20
-19.461035742
 30
0.0
 10
-14.4430485638
 20
-19.4607068796
 30
0.0
 11
-14.5550994382
 21
-19.4675734669
 31
0.0
 11
-14.5323648828
 21
-19.4648955344
 31
0.0
 11
-14.4712459047
 21
-19.4624136718
 31
0.0
 11
-14.4430485638
 21
-19.4607068796
 31
0.0
  0
SPLINE
  5
8DB
100
AcDbEntity
  8
ASSI
100
AcDbSpline
 62
253
  6
CONTINUOUS
 70
0
 71
3
 72
9
 73
5
 74
3
 42
0.0000001
 43
0.0000001
 44
0.0000000001
 12
0.1042427924
 22
0.0035992094
 32
0.0
 13
0.1050116432
 23
0.0012468026
 33
0.0
 40
0.0
 40
0.0
 40
0.0
 40
0.0
 40
0.6361539335
 40
1.0
 40
1.0
 40
1.0
 40
1.0
 10
-14.4430485638
 20
-19.4607068796
 30
0.0
 10
-14.420943743
 20
-19.4599436625
 30
0.0
 10
-14.385307416
 20
-19.4604595482
 30
0.0
 10
-14.3501881971
 20
-19.460203755
 30
0.0
 10
-14.3374521727
 20
-19.4600525403
 30
0.0
 11
-14.4430485638
 21
-19.4607068796
 31
0.0
 11
-14.3758126332
 21
-19.4602877358
 31
0.0
 11
-14.3374521727
 21
-19.4600525403
 31
0.0
  0
SPLINE
  5
8DC
100
AcDbEntity
  8
ASSI
100
AcDbSpline
 62
253
  6
CONTINUOUS
 70
0
 71
3
 72
10
 73
6
 74
4
 42
0.0000001
 43
0.0000001
 44
0.0000000001
 12
0.3830084413
 22
0.0045474568
 32
0.0
 13
0.3824811551
 23
0.000042181
 33
0.0
 40
0.0
 40
0.0
 40
0.0
 40
0.0
 40
0.2231283831
 40
0.5974016264
 40
1.0
 40
1.0
 40
1.0
 40
1.0
 10
-14.3374521727
 20
-19.4600525403
 30
0.0
 10
-14.308965488
 20
-19.4597143181
 30
0.0
 10
-14.2332576372
 20
-19.4580299348
 30
0.0
 10
-14.1054912258
 20
-19.4576294993
 30
0.0
 10
-14.0065195847
 20
-19.4572888683
 30
0.0
 10
-13.9551908211
 20
-19.4572832076
 30
0.0
 11
-14.3374521727
 21
-19.4600525403
 31
0.0
 11
-14.2523255163
 21
-19.4586576915
 31
0.0
 11
-14.1091767134
 21
-19.4576339844
 31
0.0
 11
-13.9551908211
 21
-19.4572832076
 31
0.0
  0
SPLINE
  5
8DD
100
AcDbEntity
  8
CURVE
100
AcDbSpline
 62
253
  6
CONTINUOUS
 70
0
 71
3
 72
11
 73
7
 74
5
 42
0.0000001
 43
0.0000001
 44
0.0000000001
 12
0.0128702777
 22
0.0113808125
 32
0.0
 13
0.0002873858
 23
-0.7373539953
 33
0.0
 40
0.0
 40
0.0
 40
0.0
 40
0.0
 40
0.2491315025
 40
0.4973515609
 40
0.7462289133
 40
1.0
 40
1.0
 40
1.0
 40
1.0
 10
-22.3401171014
 20
-5.4627200261
 30
0.0
 10
-22.3390483042
 20
-5.4617749198
 30
0.0
 10
-22.3368759503
 20
-5.4732383197
 30
0.0
 10
-22.3340196837
 20
-5.5749993121
 30
0.0
 10
-22.332531571
 20
-5.746549742
 30
0.0
 10
-22.3322784698
 20
-5.8705216342
 30
0.0
 10
-22.3322541597
 20
-5.9328946758
 30
0.0
 11
-22.3401171014
 21
-5.4627200261
 31
0.0
 11
-22.3369393883
 21
-5.4874007505
 31
0.0
 11
-22.3342509723
 21
-5.5863253894
 31
0.0
 11
-22.3327234388
 21
-5.7476704692
 31
0.0
 11
-22.3322541597
 21
-5.9328946758
 31
0.0
  0
SPLINE
  5
8DE
100
AcDbEntity
  8
CURVE
100
AcDbSpline
 62
253
  6
CONTINUOUS
 70
0
 71
3
 72
9
 73
5
 74
3
 42
0.0000001
 43
0.0000001
 44
0.0000000001
 12
0.0010753083
 22
0.5307774627
 32
0.0
 13
0.0093244064
 23
0.0083576149
 33
0.0
 40
0.0
 40
0.0
 40
0.0
 40
0.0
 40
0.5000882298
 40
1.0
 40
1.0
 40
1.0
 40
1.0
 10
-22.3464422107
 20
-5.804625691
 30
0.0
 10
-22.346262961
 20
-5.7161471704
 30
0.0
 10
-22.3449040566
 20
-5.5367587789
 30
0.0
 10
-22.3416708949
 20
-5.4641127161
 30
0.0
 10
-22.3401171014
 20
-5.4627200261
 30
0.0
 11
-22.3464422107
 21
-5.804625691
 31
0.0
 11
-22.3444350871
 21
-5.5634221249
 31
0.0
 11
-22.3401171014
 21
-5.4627200261
 31
0.0
  0
SPLINE
  5
8DF
100
AcDbEntity
  8
CURVE
100
AcDbSpline
 62
253
  6
CONTINUOUS
 70
0
 71
3
 72
11
 73
7
 74
5
 42
0.0000001
 43
0.0000001
 44
0.0000000001
 12
-0.008931429
 22
-1.4167437705
 32
0.0
 13
0.0038258405
 23
-1.4903036133
 33
0.0
 40
0.0
 40
0.0
 40
0.0
 40
0.0
 40
0.249614251
 40
0.499888924
 40
0.7499637517
 40
1.0
 40
1.0
 40
1.0
 40
1.0
 10
-22.3536403898
 20
-5.3678501192
 30
0.0
 10
-22.3543835272
 20
-5.485729931
 30
0.0
 10
-22.3552122185
 20
-5.735014474
 30
0.0
 10
-22.3554636894
 20
-6.1116431473
 30
0.0
 10
-22.3550595056
 20
-6.4882750285
 30
0.0
 10
-22.3544919768
 20
-6.7373573696
 30
0.0
 10
-22.3541731105
 20
-6.8615673444
 30
0.0
 11
-22.3536403898
 21
-5.3678501192
 31
0.0
 11
-22.3550462918
 21
-5.7351233729
 31
0.0
 11
-22.3553543495
 21
-6.1117086883
 31
0.0
 11
-22.3549849354
 21
-6.487811254
 31
0.0
 11
-22.3541731105
 21
-6.8615673444
 31
0.0
  0
SPLINE
  5
8E0
100
AcDbEntity
  8
CURVE
100
AcDbSpline
 62
253
  6
CONTINUOUS
 70
0
 71
3
 72
18
 73
14
 74
12
 42
0.0000001
 43
0.0000001
 44
0.0000000001
 12
-0.0040338679
 22
1.7915717583
 32
0.0
 13
-0.0106969353
 23
-1.6992591149
 33
0.0
 40
0.0
 40
0.0
 40
0.0
 40
0.0
 40
0.0626155709
 40
0.1255750725
 40
0.1873779143
 40
0.2500548274
 40
0.3131302752
 40
0.3757850613
 40
0.5005898481
 40
0.6254073429
 40
0.7503252015
 40
0.8752611255
 40
1.0
 40
1.0
 40
1.0
 40
1.0
 10
-22.3280838372
 20
-5.30544429
 30
0.0
 10
-22.3281680316
 20
-5.2680508605
 30
0.0
 10
-22.3290926687
 20
-5.205742357
 30
0.0
 10
-22.3303498052
 20
-5.1219941374
 30
0.0
 10
-22.3318500553
 20
-5.0470552444
 30
0.0
 10
-22.3335330461
 20
-4.9877497308
 30
0.0
 10
-22.3353549917
 20
-4.9423237958
 30
0.0
 10
-22.3378975413
 20
-4.9015430794
 30
0.0
 10
-22.3412034673
 20
-4.887359708
 30
0.0
 10
-22.3451338294
 20
-4.9207057947
 30
0.0
 10
-22.3487741108
 20
-5.0158512686
 30
0.0
 10
-22.3517430134
 20
-5.1675562972
 30
0.0
 10
-22.3531956153
 20
-5.2971955627
 30
0.0
 10
-22.3536403898
 20
-5.3678501192
 30
0.0
 11
-22.3280838372
 21
-5.30544429
 31
0.0
 11
-22.3290697131
 21
-5.2074502929
 31
0.0
 11
-22.3303987042
 21
-5.1229750287
 31
0.0
 11
-22.3318728042
 21
-5.0499699399
 31
0.0
 11
-22.333551242
 21
-4.9902217399
 31
0.0
 11
-22.3353741921
 21
-4.9447010075
 31
0.0
 11
-22.3372759862
 21
-4.914117073
 31
0.0
 11
-22.3411975495
 21
-4.8957499389
 31
0.0
 11
-22.3450842479
 21
-4.9309846614
 31
0.0
 11
-22.3486621262
 21
-5.0252799698
 31
0.0
 11
-22.3516128071
 21
-5.1747784359
 31
0.0
 11
-22.3536403898
 21
-5.3678501192
 31
0.0
  0
SPLINE
  5
8E1
100
AcDbEntity
  8
CURVE
100
AcDbSpline
 62
253
  6
CONTINUOUS
 70
0
 71
3
 72
11
 73
7
 74
5
 42
0.0000001
 43
0.0000001
 44
0.0000000001
 12
-0.0116058544
 22
-0.181193689
 32
0.0
 13
-0.0044548137
 23
-0.6402353954
 33
0.0
 40
0.0
 40
0.0
 40
0.0
 40
0.0
 40
0.2450440156
 40
0.5033055314
 40
0.7579591626
 40
1.0
 40
1.0
 40
1.0
 40
1.0
 10
-22.3178608368
 20
-4.9565587397
 30
0.0
 10
-22.3188088185
 20
-4.9713588828
 30
0.0
 10
-22.3207631123
 20
-5.0005213919
 30
0.0
 10
-22.3235979532
 20
-5.0651610171
 30
0.0
 10
-22.3261749629
 20
-5.159157879
 30
0.0
 10
-22.3274254303
 20
-5.2537899196
 30
0.0
 10
-22.3277848459
 20
-5.30544429
 30
0.0
 11
-22.3178608368
 21
-4.9565587397
 31
0.0
 11
-22.3206947508
 21
-5.0030172293
 31
0.0
 11
-22.3235689711
 21
-5.0705695192
 31
0.0
 11
-22.3261010502
 21
-5.169347468
 31
0.0
 11
-22.3277848459
 21
-5.30544429
 31
0.0
  0
LINE
  5
8E2
100
AcDbEntity
  8
CURVE
100
AcDbLine
 62
253
  6
CONTINUOUS
 10
-22.3041660457
 20
-4.7496410148
 11
-22.3178608368
 21
-4.9565587397
  0
SPLINE
  5
8E3
100
AcDbEntity
  8
CURVE
100
AcDbSpline
 62
253
  6
CONTINUOUS
 70
0
 71
3
 72
9
 73
5
 74
3
 42
0.0000001
 43
0.0000001
 44
0.0000000001
 12
0.0150000908
 22
0.3229459945
 32
0.0
 13
0.0154000008
 23
0.2537321442
 33
0.0
 40
0.0
 40
0.0
 40
0.0
 40
0.0
 40
0.499968398
 40
1.0
 40
1.0
 40
1.0
 40
1.0
 10
-22.3195090836
 20
-5.5965120355
 30
0.0
 10
-22.3170092265
 20
-5.542691105
 30
0.0
 10
-22.3118491479
 20
-5.4614309255
 30
0.0
 10
-22.3067328747
 20
-5.3741331019
 30
0.0
 10
-22.3041660457
 20
-5.3318417383
 30
0.0
 11
-22.3195090836
 21
-5.5965120355
 31
0.0
 11
-22.311860424
 21
-5.4599268412
 31
0.0
 11
-22.3041660457
 21
-5.3318417383
 31
0.0
  0
SPLINE
  5
8E4
100
AcDbEntity
  8
CURVE
100
AcDbSpline
 62
253
  6
CONTINUOUS
 70
0
 71
3
 72
11
 73
7
 74
5
 42
0.0000001
 43
0.0000001
 44
0.0000000001
 12
0.0
 22
0.4505958664
 32
0.0
 13
0.0073624405
 23
0.1583423737
 33
0.0
 40
0.0
 40
0.0
 40
0.0
 40
0.0
 40
0.2477795725
 40
0.4960551195
 40
0.7486644071
 40
1.0
 40
1.0
 40
1.0
 40
1.0
 10
-22.3239673939
 20
-5.9341993273
 30
0.0
 10
-22.3239673939
 20
-5.8969831769
 30
0.0
 10
-22.3237773393
 20
-5.8216580962
 30
0.0
 10
-22.3228049812
 20
-5.7211454858
 30
0.0
 10
-22.3213097809
 20
-5.6450913069
 30
0.0
 10
-22.320125898
 20
-5.609777727
 30
0.0
 10
-22.3195090836
 20
-5.5965120355
 30
0.0
 11
-22.3239673939
 21
-5.9341993273
 31
0.0
 11
-22.3236642021
 21
-5.8239107377
 31
0.0
 11
-22.3227258281
 21
-5.7258068357
 31
0.0
 11
-22.3212614727
 21
-5.648891914
 31
0.0
 11
-22.3195090836
 21
-5.5965120355
 31
0.0
  0
SPLINE
  5
8E5
100
AcDbEntity
  8
CURVE
100
AcDbSpline
 62
253
  6
CONTINUOUS
 70
0
 71
3
 72
13
 73
9
 74
7
 42
0.0000001
 43
0.0000001
 44
0.0000000001
 12
0.0119226138
 22
0.0
 32
0.0
 13
0.0014887831
 23
-0.6778031497
 33
0.0
 40
0.0
 40
0.0
 40
0.0
 40
0.0
 40
0.2490801906
 40
0.3745290044
 40
0.5000465587
 40
0.6245839973
 40
0.7501008193
 40
1.0
 40
1.0
 40
1.0
 40
1.0
 10
-22.339072132
 20
4.1187598859
 30
0.0
 10
-22.3380822364
 20
4.1187598859
 30
0.0
 10
-22.3365624017
 20
4.110949299
 30
0.0
 10
-22.3347380619
 20
4.0639042122
 30
0.0
 10
-22.3335197986
 20
4.0123287258
 30
0.0
 10
-22.332694807
 20
3.9389346122
 30
0.0
 10
-22.3321295355
 20
3.8288650197
 30
0.0
 10
-22.3320472184
 20
3.7430729482
 30
0.0
 10
-22.3319232032
 20
3.6866121309
 30
0.0
 11
-22.339072132
 21
4.1187598859
 31
0.0
 11
-22.3361285655
 21
4.0962409458
 31
0.0
 11
-22.3347636461
 21
4.0611974199
 31
0.0
 11
-22.3335826298
 21
4.0085354483
 31
0.0
 11
-22.3327630755
 21
3.9375915065
 31
0.0
 11
-22.3323084145
 21
3.8558979327
 31
0.0
 11
-22.3319232032
 21
3.6866121309
 31
0.0
  0
SPLINE
  5
8E6
100
AcDbEntity
  8
CURVE
100
AcDbSpline
 62
253
  6
CONTINUOUS
 70
0
 71
3
 72
13
 73
9
 74
7
 42
0.0000001
 43
0.0000001
 44
0.0000000001
 12
0.0014887831
 22
0.6778031497
 32
0.0
 13
0.0119226138
 23
-0.0
 33
0.0
 40
0.0
 40
0.0
 40
0.0
 40
0.0
 40
0.2498991807
 40
0.3754160027
 40
0.4999534413
 40
0.6254709956
 40
0.7509198094
 40
1.0
 40
1.0
 40
1.0
 40
1.0
 10
-22.3462210609
 20
3.6866121309
 30
0.0
 10
-22.3460970457
 20
3.7430729482
 30
0.0
 10
-22.3460147286
 20
3.8288650197
 30
0.0
 10
-22.3454494571
 20
3.9389346122
 30
0.0
 10
-22.3446244655
 20
4.0123287258
 30
0.0
 10
-22.3434062022
 20
4.0639042122
 30
0.0
 10
-22.3415818624
 20
4.110949299
 30
0.0
 10
-22.3400620277
 20
4.1187598859
 30
0.0
 10
-22.339072132
 20
4.1187598859
 30
0.0
 11
-22.3462210609
 21
3.6866121309
 31
0.0
 11
-22.3458358495
 21
3.8558979327
 31
0.0
 11
-22.3453811885
 21
3.9375915065
 31
0.0
 11
-22.3445616343
 21
4.0085354483
 31
0.0
 11
-22.3433806179
 21
4.0611974199
 31
0.0
 11
-22.3420156985
 21
4.0962409458
 31
0.0
 11
-22.339072132
 21
4.1187598859
 31
0.0
  0
SPLINE
  5
8E7
100
AcDbEntity
  8
CURVE
100
AcDbSpline
 62
253
  6
CONTINUOUS
 70
0
 71
3
 72
15
 73
11
 74
9
 42
0.0000001
 43
0.0000001
 44
0.0000000001
 12
-0.0297942716
 22
0.0
 32
0.0
 13
-0.0011033351
 23
-1.7060017172
 33
0.0
 40
0.0
 40
0.0
 40
0.0
 40
0.0
 40
0.1248401019
 40
0.2498663855
 40
0.374885782
 40
0.5000299202
 40
0.6250550432
 40
0.7501198193
 40
0.875035251
 40
1.0
 40
1.0
 40
1.0
 40
1.0
 10
-22.339072132
 20
4.7815268003
 30
0.0
 10
-22.340311972
 20
4.7815268003
 30
0.0
 10
-22.3428010436
 20
4.7716793234
 30
0.0
 10
-22.3464162974
 20
4.7119708447
 30
0.0
 10
-22.3495982804
 20
4.5935070156
 30
0.0
 10
-22.3519144959
 20
4.4217447249
 30
0.0
 10
-22.3533481818
 20
4.22298974
 30
0.0
 10
-22.3541835477
 20
4.0142899176
 30
0.0
 10
-22.3545313269
 20
3.801448305
 30
0.0
 10
-22.3545847099
 20
3.6592834163
 30
0.0
 10
-22.3546306693
 20
3.5882200575
 30
0.0
 11
-22.339072132
 21
4.7815268003
 31
0.0
 11
-22.3427793544
 21
4.7642105591
 31
0.0
 11
-22.3463436828
 21
4.7021878845
 31
0.0
 11
-22.3494530516
 21
4.584670781
 31
0.0
 11
-22.3517679479
 21
4.4171904032
 31
0.0
 11
-22.3532484531
 21
4.2213330331
 31
0.0
 11
-22.3541025357
 21
4.0135100265
 31
0.0
 11
-22.3544867006
 21
3.8013969153
 31
0.0
 11
-22.3546306693
 21
3.5882200575
 31
0.0
  0
SPLINE
  5
8E8
100
AcDbEntity
  8
CURVE
100
AcDbSpline
 62
253
  6
CONTINUOUS
 70
0
 71
3
 72
15
 73
11
 74
9
 42
0.0000001
 43
0.0000001
 44
0.0000000001
 12
-0.0011033351
 22
1.7060017172
 32
0.0
 13
-0.0297942716
 23
0.0
 33
0.0
 40
0.0
 40
0.0
 40
0.0
 40
0.0
 40
0.124964749
 40
0.2498801807
 40
0.3749449568
 40
0.4999700798
 40
0.625114218
 40
0.7501336145
 40
0.8751598981
 40
1.0
 40
1.0
 40
1.0
 40
1.0
 10
-22.3235135948
 20
3.5882200575
 30
0.0
 10
-22.3235595541
 20
3.6592834163
 30
0.0
 10
-22.3236129372
 20
3.801448305
 30
0.0
 10
-22.3239607164
 20
4.0142899176
 30
0.0
 10
-22.3247960823
 20
4.22298974
 30
0.0
 10
-22.3262297682
 20
4.4217447249
 30
0.0
 10
-22.3285459837
 20
4.5935070156
 30
0.0
 10
-22.3317279667
 20
4.7119708447
 30
0.0
 10
-22.3353432205
 20
4.7716793234
 30
0.0
 10
-22.3378322921
 20
4.7815268003
 30
0.0
 10
-22.339072132
 20
4.7815268003
 30
0.0
 11
-22.3235135948
 21
3.5882200575
 31
0.0
 11
-22.3236575635
 21
3.8013969153
 31
0.0
 11
-22.3240417284
 21
4.0135100265
 31
0.0
 11
-22.324895811
 21
4.2213330331
 31
0.0
 11
-22.3263763162
 21
4.4171904032
 31
0.0
 11
-22.3286912124
 21
4.584670781
 31
0.0
 11
-22.3318005812
 21
4.7021878845
 31
0.0
 11
-22.3353649097
 21
4.7642105591
 31
0.0
 11
-22.339072132
 21
4.7815268003
 31
0.0
  0
ELLIPSE
  5
8E9
100
AcDbEntity
  8
PORTATASTO
100
AcDbEllipse
 62
7
  6
CONTINUOUS
 10
-8.75
 20
22.3086937097
 30
0.0
 11
1.0201476635
 21
-0.0
 31
0.0
 40
0.0058178298
 41
-1.0526298966
 42
-0.0000507714
  0
ELLIPSE
  5
8EA
100
AcDbEntity
  8
PORTATASTO
100
AcDbEllipse
 62
7
  6
CONTINUOUS
 10
13.75
 20
22.3086937097
 30
0.0
 11
1.0201476635
 21
-0.0
 31
0.0
 40
0.0058178298
 41
-1.0526298966
 42
-0.0000507714
  0
ELLIPSE
  5
8EB
100
AcDbEntity
  8
PORTATASTO
100
AcDbEllipse
 62
7
  6
CONTINUOUS
 10
19.800003427
 20
24.249996573
 30
0.0
 11
0.1767815418
 21
-0.1767815418
 31
0.0
 40
0.9999725851
 41
2.3562081979
 42
3.9269771093
  0
ELLIPSE
  5
8EC
100
AcDbEntity
  8
PORTATASTO
100
AcDbEllipse
 62
7
  6
CONTINUOUS
 10
21.574996573
 20
24.249996573
 30
0.0
 11
-0.1767815418
 21
-0.1767815418
 31
0.0
 40
0.9999725851
 41
2.3562081979
 42
3.9269771093
  0
ELLIPSE
  5
8ED
100
AcDbEntity
  8
PORTATASTO
100
AcDbEllipse
 62
7
  6
CONTINUOUS
 10
0.925003427
 20
24.249996573
 30
0.0
 11
0.1767815418
 21
-0.1767815418
 31
0.0
 40
0.9999725851
 41
2.3562081979
 42
3.9269771093
  0
ELLIPSE
  5
8EE
100
AcDbEntity
  8
PORTATASTO
100
AcDbEllipse
 62
7
  6
CONTINUOUS
 10
2.699996573
 20
24.249996573
 30
0.0
 11
-0.1767815418
 21
-0.1767815418
 31
0.0
 40
0.9999725851
 41
2.3562081979
 42
3.9269771093
  0
ELLIPSE
  5
8EF
100
AcDbEntity
  8
PORTATASTO
100
AcDbEllipse
 62
7
  6
CONTINUOUS
 10
19.800003427
 20
-24.249996573
 30
0.0
 11
0.1767815418
 21
0.1767815418
 31
0.0
 40
0.9999725851
 41
2.3562081979
 42
3.9269771093
  0
ELLIPSE
  5
8F0
100
AcDbEntity
  8
PORTATASTO
100
AcDbEllipse
 62
7
  6
CONTINUOUS
 10
21.574996573
 20
-24.249996573
 30
0.0
 11
-0.1767815418
 21
0.1767815418
 31
0.0
 40
0.9999725851
 41
2.3562081979
 42
3.9269771093
  0
ELLIPSE
  5
8F1
100
AcDbEntity
  8
PORTATASTO
100
AcDbEllipse
 62
7
  6
CONTINUOUS
 10
0.925003427
 20
-24.249996573
 30
0.0
 11
0.1767815418
 21
0.1767815418
 31
0.0
 40
0.9999725851
 41
2.3562081979
 42
3.9269771093
  0
ELLIPSE
  5
8F2
100
AcDbEntity
  8
PORTATASTO
100
AcDbEllipse
 62
7
  6
CONTINUOUS
 10
2.699996573
 20
-24.249996573
 30
0.0
 11
-0.1767815418
 21
0.1767815418
 31
0.0
 40
0.9999725851
 41
2.3562081979
 42
3.9269771093
  0
ELLIPSE
  5
8F3
100
AcDbEntity
  8
PORTATASTO
100
AcDbEllipse
 62
7
  6
CONTINUOUS
 10
17.1210222419
 20
9.5210222419
 30
0.0
 11
0.3536610946
 21
0.3536610946
 31
0.0
 40
0.9996954599
 41
2.3563467834
 42
3.9268385237
  0
ELLIPSE
  5
8F4
100
AcDbEntity
  8
PORTATASTO
100
AcDbEllipse
 62
7
  6
CONTINUOUS
 10
18.0789777581
 20
9.5210222419
 30
0.0
 11
-0.3536610946
 21
0.3536610946
 31
0.0
 40
0.9996954599
 41
2.3563467834
 42
3.3591028629
  0
ELLIPSE
  5
8F5
100
AcDbEntity
  8
PORTATASTO
100
AcDbEllipse
 62
7
  6
CONTINUOUS
 10
-13.75
 20
22.3086937097
 30
0.0
 11
1.0201476635
 21
-0.0
 31
0.0
 40
0.0058178298
 41
-3.1415418822
 42
-2.0889627569
  0
ELLIPSE
  5
8F6
100
AcDbEntity
  8
PORTATASTO
100
AcDbEllipse
 62
7
  6
CONTINUOUS
 10
8.75
 20
22.3086937097
 30
0.0
 11
1.0201476635
 21
-0.0
 31
0.0
 40
0.0058178298
 41
-3.1415418822
 42
-2.0889627569
  0
ELLIPSE
  5
8F7
100
AcDbEntity
  8
PORTATASTO
100
AcDbEllipse
 62
7
  6
CONTINUOUS
 10
13.75
 20
-22.3086937097
 30
0.0
 11
1.0201476635
 21
-0.0
 31
0.0
 40
0.0058178298
 41
6.2832360786
 42
7.3358152038
  0
ELLIPSE
  5
8F8
100
AcDbEntity
  8
PORTATASTO
100
AcDbEllipse
 62
7
  6
CONTINUOUS
 10
-13.75
 20
-22.3086937097
 30
0.0
 11
1.0201476635
 21
-0.0
 31
0.0
 40
0.0058178298
 41
8.3721480641
 42
9.4247271893
  0
ELLIPSE
  5
8F9
100
AcDbEntity
  8
PORTATASTO
100
AcDbEllipse
 62
7
  6
CONTINUOUS
 10
8.75
 20
-22.3086937097
 30
0.0
 11
1.0201476635
 21
-0.0
 31
0.0
 40
0.0058178298
 41
8.3721480641
 42
9.4247271893
  0
ELLIPSE
  5
8FA
100
AcDbEntity
  8
PORTATASTO
100
AcDbEllipse
 62
7
  6
CONTINUOUS
 10
-8.75
 20
-22.3086937097
 30
0.0
 11
1.0201476635
 21
-0.0
 31
0.0
 40
0.0058178298
 41
6.2832360786
 42
7.3358152038
  0
ELLIPSE
  5
8FB
100
AcDbEntity
  8
PORTATASTO
100
AcDbEllipse
 62
7
  6
CONTINUOUS
 10
-21.574996573
 20
-24.249996573
 30
0.0
 11
0.1767815418
 21
0.1767815418
 31
0.0
 40
0.9999725851
 41
2.3562081979
 42
3.9269771093
  0
ELLIPSE
  5
8FC
100
AcDbEntity
  8
PORTATASTO
100
AcDbEllipse
 62
7
  6
CONTINUOUS
 10
-19.800003427
 20
-24.249996573
 30
0.0
 11
-0.1767815418
 21
0.1767815418
 31
0.0
 40
0.9999725851
 41
2.3562081979
 42
3.9269771093
  0
ELLIPSE
  5
8FD
100
AcDbEntity
  8
PORTATASTO
100
AcDbEllipse
 62
7
  6
CONTINUOUS
 10
-2.699996573
 20
-24.249996573
 30
0.0
 11
0.1767815418
 21
0.1767815418
 31
0.0
 40
0.9999725851
 41
2.3562081979
 42
3.9269771093
  0
ELLIPSE
  5
8FE
100
AcDbEntity
  8
PORTATASTO
100
AcDbEllipse
 62
7
  6
CONTINUOUS
 10
-0.925003427
 20
-24.249996573
 30
0.0
 11
-0.1767815418
 21
0.1767815418
 31
0.0
 40
0.9999725851
 41
2.3562081979
 42
3.9269771093
  0
ELLIPSE
  5
8FF
100
AcDbEntity
  8
PORTATASTO
100
AcDbEllipse
 62
7
  6
CONTINUOUS
 10
-19.800003427
 20
24.249996573
 30
0.0
 11
-0.1767815418
 21
-0.1767815418
 31
0.0
 40
0.9999725851
 41
2.3562081979
 42
3.9269771093
  0
ELLIPSE
  5
900
100
AcDbEntity
  8
PORTATASTO
100
AcDbEllipse
 62
7
  6
CONTINUOUS
 10
-21.574996573
 20
24.249996573
 30
0.0
 11
0.1767815418
 21
-0.1767815418
 31
0.0
 40
0.9999725851
 41
2.3562081979
 42
3.9269771093
  0
ELLIPSE
  5
901
100
AcDbEntity
  8
PORTATASTO
100
AcDbEllipse
 62
7
  6
CONTINUOUS
 10
-0.925003427
 20
24.249996573
 30
0.0
 11
-0.1767815418
 21
-0.1767815418
 31
0.0
 40
0.9999725851
 41
2.3562081979
 42
3.9269771093
  0
ELLIPSE
  5
902
100
AcDbEntity
  8
PORTATASTO
100
AcDbEllipse
 62
7
  6
CONTINUOUS
 10
-2.699996573
 20
24.249996573
 30
0.0
 11
0.1767815418
 21
-0.1767815418
 31
0.0
 40
0.9999725851
 41
2.3562081979
 42
3.9269771093
  0
ELLIPSE
  5
903
100
AcDbEntity
  8
PORTATASTO
100
AcDbEllipse
 62
7
  6
CONTINUOUS
 10
-18.5790539221
 20
14.0
 30
0.0
 11
-0.0
 21
2.55
 31
0.0
 40
0.0174550649
 41
-1.5707963268
 42
-1.5315706953
  0
ELLIPSE
  5
904
100
AcDbEntity
  8
PORTATASTO
100
AcDbEllipse
 62
7
  6
CONTINUOUS
 10
-19.9345351961
 20
14.0
 30
0.0
 11
0.0
 21
1.3
 31
0.0
 40
0.0261859216
 41
-1.5707963268
 42
-1.4937083902
  0
ELLIPSE
  5
905
100
AcDbEntity
  8
PORTATASTO
100
AcDbEllipse
 62
7
  6
CONTINUOUS
 10
21.841254093
 20
21.8441737085
 30
0.0
 11
-0.4160498344
 21
-0.2773626446
 31
0.0
 40
0.9999450019
 41
2.5536219432
 42
4.1243675013
  0
ELLIPSE
  5
906
100
AcDbEntity
  8
PORTATASTO
100
AcDbEllipse
 62
7
  6
CONTINUOUS
 10
18.8166456542
 20
-21.9537669705
 30
0.0
 11
0.4999904798
 21
0.5000285596
 31
0.0
 40
0.0061705924
 41
0.0112823085
 42
0.9916959574
  0
ELLIPSE
  5
907
100
AcDbEntity
  8
PORTATASTO
100
AcDbEllipse
 62
7
  6
CONTINUOUS
 10
3.6833543458
 20
-21.9537669705
 30
0.0
 11
-0.4999904798
 21
0.5000285596
 31
0.0
 40
0.0061705924
 41
-0.9916959574
 42
-0.0112823085
  0
ELLIPSE
  5
908
100
AcDbEntity
  8
PORTATASTO
100
AcDbEllipse
 62
7
  6
CONTINUOUS
 10
3.6833543458
 20
21.9537669705
 30
0.0
 11
0.4999904798
 21
0.5000285596
 31
0.0
 40
0.0061705924
 41
-3.1303103451
 42
-2.1498966962
  0
ELLIPSE
  5
909
100
AcDbEntity
  8
PORTATASTO
100
AcDbEllipse
 62
7
  6
CONTINUOUS
 10
18.8166456542
 20
21.9537669705
 30
0.0
 11
-0.4999904798
 21
0.5000285596
 31
0.0
 40
0.0061705924
 41
-4.133288611
 42
-3.1528749621
  0
ELLIPSE
  5
90A
100
AcDbEntity
  8
PORTATASTO
100
AcDbEllipse
 62
7
  6
CONTINUOUS
 10
-3.6833543458
 20
-21.9537669705
 30
0.0
 11
0.4999904798
 21
0.5000285596
 31
0.0
 40
0.0061705924
 41
0.0112823085
 42
0.9916959574
  0
ELLIPSE
  5
90B
100
AcDbEntity
  8
PORTATASTO
100
AcDbEllipse
 62
7
  6
CONTINUOUS
 10
-18.8166456542
 20
-21.9537669705
 30
0.0
 11
-0.4999904798
 21
0.5000285596
 31
0.0
 40
0.0061705924
 41
-0.9916959574
 42
-0.0112823085
  0
ELLIPSE
  5
90C
100
AcDbEntity
  8
PORTATASTO
100
AcDbEllipse
 62
7
  6
CONTINUOUS
 10
-18.8166456542
 20
21.9537669705
 30
0.0
 11
0.4999904798
 21
0.5000285596
 31
0.0
 40
0.0061705924
 41
-3.1303103451
 42
-2.1498966962
  0
ELLIPSE
  5
90D
100
AcDbEntity
  8
PORTATASTO
100
AcDbEllipse
 62
7
  6
CONTINUOUS
 10
-3.6833543458
 20
21.9537669705
 30
0.0
 11
-0.4999904798
 21
0.5000285596
 31
0.0
 40
0.0061705924
 41
-4.133288611
 42
-3.1528749621
  0
ELLIPSE
  5
90E
100
AcDbEntity
  8
PORTATASTO
100
AcDbEllipse
 62
7
  6
CONTINUOUS
 10
18.8166456542
 20
-20.9916321118
 30
0.0
 11
0.5
 21
-0.0
 31
0.0
 40
0.0087268678
 41
-1.5707963268
 42
-0.0174532925
  0
ELLIPSE
  5
90F
100
AcDbEntity
  8
PORTATASTO
100
AcDbEllipse
 62
7
  6
CONTINUOUS
 10
-3.6833543458
 20
-20.9916321118
 30
0.0
 11
0.5
 21
-0.0
 31
0.0
 40
0.0087268678
 41
-1.5707963268
 42
-0.0174532925
  0
ELLIPSE
  5
910
100
AcDbEntity
  8
PORTATASTO
100
AcDbEllipse
 62
7
  6
CONTINUOUS
 10
3.6833543458
 20
-20.9916321118
 30
0.0
 11
0.5
 21
-0.0
 31
0.0
 40
0.0087268678
 41
-3.1241393611
 42
-1.5707963268
  0
ELLIPSE
  5
911
100
AcDbEntity
  8
PORTATASTO
100
AcDbEllipse
 62
7
  6
CONTINUOUS
 10
-3.6833543458
 20
20.9916321118
 30
0.0
 11
0.5
 21
0.0
 31
0.0
 40
0.0087268678
 41
0.0174532925
 42
1.5707963268
  0
ELLIPSE
  5
912
100
AcDbEntity
  8
PORTATASTO
100
AcDbEllipse
 62
7
  6
CONTINUOUS
 10
3.6833543458
 20
20.9916321118
 30
0.0
 11
0.5
 21
-0.0
 31
0.0
 40
0.0087268678
 41
1.5707963268
 42
3.1241393611
  0
ELLIPSE
  5
913
100
AcDbEntity
  8
PORTATASTO
100
AcDbEllipse
 62
7
  6
CONTINUOUS
 10
18.8166456542
 20
20.9916321118
 30
0.0
 11
0.5
 21
0.0
 31
0.0
 40
0.0087268678
 41
0.0174532925
 42
1.5707963268
  0
ELLIPSE
  5
914
100
AcDbEntity
  8
PORTATASTO
100
AcDbEllipse
 62
7
  6
CONTINUOUS
 10
-18.8166456542
 20
-20.9916321118
 30
0.0
 11
0.5
 21
0.0
 31
0.0
 40
0.0087268678
 41
-3.1241393611
 42
-1.5707963268
  0
ELLIPSE
  5
915
100
AcDbEntity
  8
PORTATASTO
100
AcDbEllipse
 62
7
  6
CONTINUOUS
 10
-18.8166456542
 20
20.9916321118
 30
0.0
 11
0.5
 21
0.0
 31
0.0
 40
0.0087268678
 41
1.5707963268
 42
3.1241393611
  0
ELLIPSE
  5
916
100
AcDbEntity
  8
PORTATASTO
100
AcDbEllipse
 62
7
  6
CONTINUOUS
 10
-21.841254093
 20
-21.8441737085
 30
0.0
 11
0.4160498344
 21
0.2773626446
 31
0.0
 40
0.9999450019
 41
2.5536219432
 42
4.1243675013
  0
ELLIPSE
  5
917
100
AcDbEntity
  8
PORTATASTO
100
AcDbEllipse
 62
7
  6
CONTINUOUS
 10
21.841254093
 20
-21.8441737085
 30
0.0
 11
0.4160498344
 21
-0.2773626446
 31
0.0
 40
0.9999450019
 41
-0.9827748477
 42
0.5879707104
  0
ELLIPSE
  5
918
100
AcDbEntity
  8
PORTATASTO
100
AcDbEllipse
 62
7
  6
CONTINUOUS
 10
-21.841254093
 20
21.8441737085
 30
0.0
 11
-0.4160498344
 21
0.2773626446
 31
0.0
 40
0.9999450019
 41
-0.9827748477
 42
0.5879707104
  0
ELLIPSE
  5
919
100
AcDbEntity
  8
PORTATASTO
100
AcDbEllipse
 62
7
  6
CONTINUOUS
 10
17.100076164
 20
9.500076164
 30
0.0
 11
0.3536610946
 21
0.3536610946
 31
0.0
 40
0.9996954599
 41
2.3563467834
 42
3.9268385237
  0
ELLIPSE
  5
91A
100
AcDbEntity
  8
PORTATASTO
100
AcDbEllipse
 62
7
  6
CONTINUOUS
 10
18.099923836
 20
9.500076164
 30
0.0
 11
-0.3536610946
 21
0.3536610946
 31
0.0
 40
0.9996954599
 41
-3.9268385237
 42
-2.9989022941
  0
ELLIPSE
  5
91B
100
AcDbEntity
  8
PORTATASTO
100
AcDbEllipse
 62
7
  6
CONTINUOUS
 10
6.8840342314
 20
23.2659657686
 30
0.0
 11
-0.0
 21
0.5
 31
0.0
 40
0.0052360356
 41
-0.1725084557
 42
-0.0104719755
  0
ELLIPSE
  5
91C
100
AcDbEntity
  8
PORTATASTO
100
AcDbEllipse
 62
7
  6
CONTINUOUS
 10
15.6159657686
 20
23.2659657686
 30
0.0
 11
-0.0
 21
0.5
 31
0.0
 40
0.0052360356
 41
0.0104719755
 42
0.1725084557
  0
ELLIPSE
  5
91D
100
AcDbEntity
  8
PORTATASTO
100
AcDbEllipse
 62
7
  6
CONTINUOUS
 10
15.6159657686
 20
-23.2659657686
 30
0.0
 11
0.0
 21
0.5
 31
0.0
 40
0.0052360356
 41
-3.3141011093
 42
-3.1520646291
  0
ELLIPSE
  5
91E
100
AcDbEntity
  8
PORTATASTO
100
AcDbEllipse
 62
7
  6
CONTINUOUS
 10
6.8840342314
 20
-23.2659657686
 30
0.0
 11
0.0
 21
0.5
 31
0.0
 40
0.0052360356
 41
-3.1311206781
 42
-2.9690841979
  0
ELLIPSE
  5
91F
100
AcDbEntity
  8
PORTATASTO
100
AcDbEllipse
 62
7
  6
CONTINUOUS
 10
-15.6159657686
 20
23.2659657686
 30
0.0
 11
-0.0
 21
0.5
 31
0.0
 40
0.0052360356
 41
-0.1725084557
 42
-0.0104719755
  0
ELLIPSE
  5
920
100
AcDbEntity
  8
PORTATASTO
100
AcDbEllipse
 62
7
  6
CONTINUOUS
 10
-6.8840342314
 20
23.2659657686
 30
0.0
 11
-0.0
 21
0.5
 31
0.0
 40
0.0052360356
 41
0.0104719755
 42
0.1725084557
  0
ELLIPSE
  5
921
100
AcDbEntity
  8
PORTATASTO
100
AcDbEllipse
 62
7
  6
CONTINUOUS
 10
-6.8840342314
 20
-23.2659657686
 30
0.0
 11
0.0
 21
0.5
 31
0.0
 40
0.0052360356
 41
-3.3141011093
 42
-3.1520646291
  0
ELLIPSE
  5
922
100
AcDbEntity
  8
PORTATASTO
100
AcDbEllipse
 62
7
  6
CONTINUOUS
 10
-15.6159657686
 20
-23.2659657686
 30
0.0
 11
-0.0
 21
0.5
 31
0.0
 40
0.0052360356
 41
-3.1311206781
 42
-2.9690841979
  0
ELLIPSE
  5
923
100
AcDbEntity
  8
PORTATASTO
100
AcDbEllipse
 62
7
  6
CONTINUOUS
 10
-3.0094034965
 20
21.2859869487
 30
0.0
 11
1.0000571192
 21
-0.9999809595
 31
0.0
 40
0.0061705924
 41
3.1412394337
 42
4.303906225
  0
ELLIPSE
  5
924
100
AcDbEntity
  8
PORTATASTO
100
AcDbEllipse
 62
7
  6
CONTINUOUS
 10
-19.4905965035
 20
21.2859869487
 30
0.0
 11
1.0000571192
 21
0.9999809595
 31
0.0
 40
0.0061705924
 41
-1.1623135715
 42
0.0003532199
  0
ELLIPSE
  5
925
100
AcDbEntity
  8
PORTATASTO
100
AcDbEllipse
 62
7
  6
CONTINUOUS
 10
-19.4905965035
 20
-21.2859869487
 30
0.0
 11
1.0000571192
 21
-0.9999809595
 31
0.0
 40
0.0061705924
 41
-0.0003532199
 42
1.1623135715
  0
ELLIPSE
  5
926
100
AcDbEntity
  8
PORTATASTO
100
AcDbEllipse
 62
7
  6
CONTINUOUS
 10
-3.0094034965
 20
-21.2859869487
 30
0.0
 11
1.0000571192
 21
0.9999809595
 31
0.0
 40
0.0061705924
 41
1.9792790821
 42
3.1419458735
  0
ELLIPSE
  5
927
100
AcDbEntity
  8
PORTATASTO
100
AcDbEllipse
 62
7
  6
CONTINUOUS
 10
-18.5790539221
 20
14.0
 30
0.0
 11
0.0
 21
1.3
 31
0.0
 40
0.0174550649
 41
-1.5707963268
 42
-1.4937084101
  0
ELLIPSE
  5
928
100
AcDbEntity
  8
PORTATASTO
100
AcDbEllipse
 62
7
  6
CONTINUOUS
 10
3.0094034965
 20
21.2859869487
 30
0.0
 11
1.0000571192
 21
0.9999809595
 31
0.0
 40
0.0061705924
 41
-1.1623135715
 42
0.0003532199
  0
ELLIPSE
  5
929
100
AcDbEntity
  8
PORTATASTO
100
AcDbEllipse
 62
7
  6
CONTINUOUS
 10
19.4905965035
 20
21.2859869487
 30
0.0
 11
1.0000571192
 21
-0.9999809595
 31
0.0
 40
0.0061705924
 41
3.1412394337
 42
4.303906225
  0
ELLIPSE
  5
92A
100
AcDbEntity
  8
PORTATASTO
100
AcDbEllipse
 62
7
  6
CONTINUOUS
 10
19.4905965035
 20
-21.2859869487
 30
0.0
 11
1.0000571192
 21
0.9999809595
 31
0.0
 40
0.0061705924
 41
1.9792790821
 42
3.1419458735
  0
ELLIPSE
  5
92B
100
AcDbEntity
  8
PORTATASTO
100
AcDbEllipse
 62
7
  6
CONTINUOUS
 10
3.0094034965
 20
-21.2859869487
 30
0.0
 11
1.0000571192
 21
-0.9999809595
 31
0.0
 40
0.0061705924
 41
-0.0003532199
 42
1.1623135715
  0
ELLIPSE
  5
92C
100
AcDbEntity
  8
ASSI
100
AcDbEllipse
 62
7
  6
CONTINUOUS
 10
-14.6128839322
 20
19.6
 30
0.0
 11
-0.3000456984
 21
0.0
 31
0.0
 40
0.9998476952
 41
3.1415926536
 42
4.7123889804
  0
ELLIPSE
  5
92D
100
AcDbEntity
  8
ASSI
100
AcDbEllipse
 62
7
  6
CONTINUOUS
 10
-5.8871160678
 20
19.6
 30
0.0
 11
-0.3000456984
 21
0.0
 31
0.0
 40
0.9998476952
 41
-1.5707963268
 42
0.0
  0
ELLIPSE
  5
92E
100
AcDbEntity
  8
ASSI
100
AcDbEllipse
 62
7
  6
CONTINUOUS
 10
-14.6128839322
 20
-19.6
 30
0.0
 11
0.3000456984
 21
-0.0
 31
0.0
 40
0.9998476952
 41
-1.5707963268
 42
0.0
  0
ELLIPSE
  5
92F
100
AcDbEntity
  8
ASSI
100
AcDbEllipse
 62
7
  6
CONTINUOUS
 10
-5.8871160678
 20
-19.6
 30
0.0
 11
0.3000456984
 21
-0.0
 31
0.0
 40
0.9998476952
 41
3.1415926536
 42
4.7123889804
  0
ELLIPSE
  5
930
100
AcDbEntity
  8
ASSI
100
AcDbEllipse
 62
7
  6
CONTINUOUS
 10
20.6007620744
 20
-15.1420188409
 30
0.0
 11
-0.0
 21
1.0
 31
0.0
 40
0.0157092553
 41
-3.1241393611
 42
-1.5707963268
  0
ELLIPSE
  5
931
100
AcDbEntity
  8
ASSI
100
AcDbEllipse
 62
7
  6
CONTINUOUS
 10
20.6007620744
 20
-14.8579811591
 30
0.0
 11
0.0
 21
1.0
 31
0.0
 40
0.0157092553
 41
-1.5707963268
 42
-0.0174532925
  0
ELLIPSE
  5
932
100
AcDbEntity
  8
ASSI
100
AcDbEllipse
 62
7
  6
CONTINUOUS
 10
20.6007620744
 20
-9.1420188409
 30
0.0
 11
-0.0
 21
1.0
 31
0.0
 40
0.0157092553
 41
-3.1241393611
 42
-1.5707963268
  0
ELLIPSE
  5
933
100
AcDbEntity
  8
ASSI
100
AcDbEllipse
 62
7
  6
CONTINUOUS
 10
20.6007620744
 20
-8.8579811591
 30
0.0
 11
0.0
 21
1.0
 31
0.0
 40
0.0157092553
 41
-1.5707963268
 42
-0.0174532925
  0
ELLIPSE
  5
934
100
AcDbEntity
  8
ASSI
100
AcDbEllipse
 62
7
  6
CONTINUOUS
 10
20.6007620744
 20
-3.1420188409
 30
0.0
 11
-0.0
 21
1.0
 31
0.0
 40
0.0157092553
 41
-3.1241393611
 42
-1.5707963268
  0
ELLIPSE
  5
935
100
AcDbEntity
  8
ASSI
100
AcDbEllipse
 62
7
  6
CONTINUOUS
 10
20.6007620744
 20
-2.8579811591
 30
0.0
 11
0.0
 21
1.0
 31
0.0
 40
0.0157092553
 41
-1.5707963268
 42
-0.0174532925
  0
ELLIPSE
  5
936
100
AcDbEntity
  8
ASSI
100
AcDbEllipse
 62
7
  6
CONTINUOUS
 10
20.6007620744
 20
2.8579811591
 30
0.0
 11
-0.0
 21
1.0
 31
0.0
 40
0.0157092553
 41
-3.1241393611
 42
-1.5707963268
  0
ELLIPSE
  5
937
100
AcDbEntity
  8
ASSI
100
AcDbEllipse
 62
7
  6
CONTINUOUS
 10
20.6007620744
 20
3.1420188409
 30
0.0
 11
0.0
 21
1.0
 31
0.0
 40
0.0157092553
 41
-1.5707963268
 42
-0.0174532925
  0
ELLIPSE
  5
938
100
AcDbEntity
  8
ASSI
100
AcDbEllipse
 62
7
  6
CONTINUOUS
 10
20.6007620744
 20
8.8579811591
 30
0.0
 11
-0.0
 21
1.0
 31
0.0
 40
0.0157092553
 41
-3.1241393611
 42
-1.5707963268
  0
ELLIPSE
  5
939
100
AcDbEntity
  8
ASSI
100
AcDbEllipse
 62
7
  6
CONTINUOUS
 10
20.6007620744
 20
9.1420188409
 30
0.0
 11
0.0
 21
1.0
 31
0.0
 40
0.0157092553
 41
-1.5707963268
 42
-0.0174532925
  0
ELLIPSE
  5
93A
100
AcDbEntity
  8
ASSI
100
AcDbEllipse
 62
7
  6
CONTINUOUS
 10
20.6007620744
 20
14.8579811591
 30
0.0
 11
0.0
 21
1.0
 31
0.0
 40
0.0157092553
 41
-3.1241393611
 42
-1.5707963268
  0
ELLIPSE
  5
93B
100
AcDbEntity
  8
ASSI
100
AcDbEllipse
 62
7
  6
CONTINUOUS
 10
20.6007620744
 20
15.1420188409
 30
0.0
 11
0.0
 21
1.0
 31
0.0
 40
0.0157092553
 41
-1.5707963268
 42
-0.0174532925
  0
ELLIPSE
  5
93C
100
AcDbEntity
  8
ASSI
100
AcDbEllipse
 62
7
  6
CONTINUOUS
 10
8.5006095443
 20
-14.5009526852
 30
0.0
 11
0.625583377
 21
-0.7821580253
 31
0.0
 40
0.9984407853
 41
2.4677242523
 42
4.0369982839
  0
ELLIPSE
  5
93D
100
AcDbEntity
  8
ASSI
100
AcDbEllipse
 62
7
  6
CONTINUOUS
 10
8.5006095443
 20
-15.4990473148
 30
0.0
 11
-0.625583377
 21
-0.7821580253
 31
0.0
 40
0.9984407853
 41
-0.8954056303
 42
0.6738684012
  0
ELLIPSE
  5
93E
100
AcDbEntity
  8
ASSI
100
AcDbEllipse
 62
7
  6
CONTINUOUS
 10
8.5006095443
 20
-8.5009526852
 30
0.0
 11
0.625583377
 21
-0.7821580253
 31
0.0
 40
0.9984407853
 41
2.4677242523
 42
4.0369982839
  0
ELLIPSE
  5
93F
100
AcDbEntity
  8
ASSI
100
AcDbEllipse
 62
7
  6
CONTINUOUS
 10
8.5006095443
 20
-9.4990473148
 30
0.0
 11
-0.625583377
 21
-0.7821580253
 31
0.0
 40
0.9984407853
 41
-0.8954056303
 42
0.6738684012
  0
ELLIPSE
  5
940
100
AcDbEntity
  8
ASSI
100
AcDbEllipse
 62
7
  6
CONTINUOUS
 10
8.5006095443
 20
-2.5009526852
 30
0.0
 11
0.625583377
 21
-0.7821580253
 31
0.0
 40
0.9984407853
 41
2.4677242523
 42
4.0369982839
  0
ELLIPSE
  5
941
100
AcDbEntity
  8
ASSI
100
AcDbEllipse
 62
7
  6
CONTINUOUS
 10
8.5006095443
 20
-3.4990473148
 30
0.0
 11
-0.625583377
 21
-0.7821580253
 31
0.0
 40
0.9984407853
 41
-0.8954056303
 42
0.6738684012
  0
ELLIPSE
  5
942
100
AcDbEntity
  8
ASSI
100
AcDbEllipse
 62
7
  6
CONTINUOUS
 10
8.5006095443
 20
3.4990473148
 30
0.0
 11
0.625583377
 21
-0.7821580253
 31
0.0
 40
0.9984407853
 41
2.4677242523
 42
4.0369982839
  0
ELLIPSE
  5
943
100
AcDbEntity
  8
ASSI
100
AcDbEllipse
 62
7
  6
CONTINUOUS
 10
8.5006095443
 20
2.5009526852
 30
0.0
 11
-0.625583377
 21
-0.7821580253
 31
0.0
 40
0.9984407853
 41
-0.8954056303
 42
0.6738684012
  0
ELLIPSE
  5
944
100
AcDbEntity
  8
ASSI
100
AcDbEllipse
 62
7
  6
CONTINUOUS
 10
8.5006095443
 20
9.4990473148
 30
0.0
 11
0.625583377
 21
-0.7821580253
 31
0.0
 40
0.9984407853
 41
2.4677242523
 42
4.0369982839
  0
ELLIPSE
  5
945
100
AcDbEntity
  8
ASSI
100
AcDbEllipse
 62
7
  6
CONTINUOUS
 10
8.5006095443
 20
8.5009526852
 30
0.0
 11
-0.625583377
 21
-0.7821580253
 31
0.0
 40
0.9984407853
 41
-0.8954056303
 42
0.6738684012
  0
ELLIPSE
  5
946
100
AcDbEntity
  8
ASSI
100
AcDbEllipse
 62
7
  6
CONTINUOUS
 10
8.5006095443
 20
15.4990473148
 30
0.0
 11
0.625583377
 21
-0.7821580253
 31
0.0
 40
0.9984407853
 41
2.4677242523
 42
4.0369982839
  0
ELLIPSE
  5
947
100
AcDbEntity
  8
ASSI
100
AcDbEllipse
 62
7
  6
CONTINUOUS
 10
8.5006095443
 20
14.5009526852
 30
0.0
 11
-0.625583377
 21
-0.7821580253
 31
0.0
 40
0.9984407853
 41
-0.8954056303
 42
0.6738684012
  0
ELLIPSE
  5
948
100
AcDbEntity
  8
ASSI
100
AcDbEllipse
 62
7
  6
CONTINUOUS
 10
20.3996953439
 20
17.6714466826
 30
0.0
 11
1.8480888181
 21
0.7655034529
 31
0.0
 40
0.9998215708
 41
-0.3926359958
 42
0.3926359958
  0
ELLIPSE
  5
949
100
AcDbEntity
  8
ASSI
100
AcDbEllipse
 62
7
  6
CONTINUOUS
 10
20.3996953439
 20
-17.6714466826
 30
0.0
 11
1.8480888181
 21
-0.7655034529
 31
0.0
 40
0.9998215708
 41
-0.3926359958
 42
0.3926359958
  0
ELLIPSE
  5
94A
100
AcDbEntity
  8
ASSI
100
AcDbEllipse
 62
7
  6
CONTINUOUS
 10
-20.3996953439
 20
-17.6714466826
 30
0.0
 11
1.8480888181
 21
0.7655034529
 31
0.0
 40
0.9998215708
 41
2.7489566578
 42
3.5342286494
  0
ELLIPSE
  5
94B
100
AcDbEntity
  8
ASSI
100
AcDbEllipse
 62
7
  6
CONTINUOUS
 10
-20.3996953439
 20
17.6714466826
 30
0.0
 11
1.8480888181
 21
-0.7655034529
 31
0.0
 40
0.9998215708
 41
2.7489566578
 42
3.5342286494
  0
ELLIPSE
  5
94C
100
AcDbEntity
  8
ASSI
100
AcDbEllipse
 62
7
  6
CONTINUOUS
 10
20.8674681916
 20
-13.4912724675
 30
0.0
 11
1.0
 21
-0.0
 31
0.0
 40
0.0174550649
 41
0.0174532925
 42
1.5707963268
  0
ELLIPSE
  5
94D
100
AcDbEntity
  8
ASSI
100
AcDbEllipse
 62
7
  6
CONTINUOUS
 10
20.8674681916
 20
-16.5087275325
 30
0.0
 11
1.0
 21
-0.0
 31
0.0
 40
0.0174550649
 41
-1.5707963268
 42
-0.0174532925
  0
ELLIPSE
  5
94E
100
AcDbEntity
  8
ASSI
100
AcDbEllipse
 62
7
  6
CONTINUOUS
 10
20.8674681916
 20
-7.4912724675
 30
0.0
 11
1.0
 21
-0.0
 31
0.0
 40
0.0174550649
 41
0.0174532925
 42
1.5707963268
  0
ELLIPSE
  5
94F
100
AcDbEntity
  8
ASSI
100
AcDbEllipse
 62
7
  6
CONTINUOUS
 10
20.8674681916
 20
-10.5087275325
 30
0.0
 11
1.0
 21
0.0
 31
0.0
 40
0.0174550649
 41
-1.5707963268
 42
-0.0174532925
  0
ELLIPSE
  5
950
100
AcDbEntity
  8
ASSI
100
AcDbEllipse
 62
7
  6
CONTINUOUS
 10
20.8674681916
 20
-1.4912724675
 30
0.0
 11
1.0
 21
0.0
 31
0.0
 40
0.0174550649
 41
0.0174532925
 42
1.5707963268
  0
ELLIPSE
  5
951
100
AcDbEntity
  8
ASSI
100
AcDbEllipse
 62
7
  6
CONTINUOUS
 10
20.8674681916
 20
-4.5087275325
 30
0.0
 11
1.0
 21
0.0
 31
0.0
 40
0.0174550649
 41
-1.5707963268
 42
-0.0174532925
  0
ELLIPSE
  5
952
100
AcDbEntity
  8
ASSI
100
AcDbEllipse
 62
7
  6
CONTINUOUS
 10
20.8674681916
 20
4.5087275325
 30
0.0
 11
1.0
 21
0.0
 31
0.0
 40
0.0174550649
 41
0.0174532925
 42
1.5707963268
  0
ELLIPSE
  5
953
100
AcDbEntity
  8
ASSI
100
AcDbEllipse
 62
7
  6
CONTINUOUS
 10
20.8674681916
 20
1.4912724675
 30
0.0
 11
1.0
 21
0.0
 31
0.0
 40
0.0174550649
 41
-1.5707963268
 42
-0.0174532925
  0
ELLIPSE
  5
954
100
AcDbEntity
  8
ASSI
100
AcDbEllipse
 62
7
  6
CONTINUOUS
 10
20.8674681916
 20
10.5087275325
 30
0.0
 11
1.0
 21
-0.0
 31
0.0
 40
0.0174550649
 41
0.0174532925
 42
1.5707963268
  0
ELLIPSE
  5
955
100
AcDbEntity
  8
ASSI
100
AcDbEllipse
 62
7
  6
CONTINUOUS
 10
20.8674681916
 20
7.4912724675
 30
0.0
 11
1.0
 21
-0.0
 31
0.0
 40
0.0174550649
 41
-1.5707963268
 42
-0.0174532925
  0
ELLIPSE
  5
956
100
AcDbEntity
  8
ASSI
100
AcDbEllipse
 62
7
  6
CONTINUOUS
 10
20.8674681916
 20
16.5087275325
 30
0.0
 11
1.0
 21
0.0
 31
0.0
 40
0.0174550649
 41
0.0174532925
 42
1.5707963268
  0
ELLIPSE
  5
957
100
AcDbEntity
  8
ASSI
100
AcDbEllipse
 62
7
  6
CONTINUOUS
 10
20.8674681916
 20
13.4912724675
 30
0.0
 11
1.0
 21
-0.0
 31
0.0
 40
0.0174550649
 41
-1.5707963268
 42
-0.0174532925
  0
ELLIPSE
  5
958
100
AcDbEntity
  8
ASSI
100
AcDbEllipse
 62
7
  6
CONTINUOUS
 10
-20.8674681916
 20
16.2956365661
 30
0.0
 11
1.0
 21
0.0
 31
0.0
 40
0.0087268678
 41
-3.1241393611
 42
-1.5707963268
  0
ELLIPSE
  5
959
100
AcDbEntity
  8
ASSI
100
AcDbEllipse
 62
7
  6
CONTINUOUS
 10
-14.6128839322
 20
-19.2254036523
 30
0.0
 11
0.2121966568
 21
0.2121966567
 31
0.0
 40
0.9996954599
 41
-2.3563467834
 42
-1.6925417982
  0
ELLIPSE
  5
95A
100
AcDbEntity
  8
ASSI
100
AcDbEllipse
 62
7
  6
CONTINUOUS
 10
-5.8871160678
 20
19.2254036523
 30
0.0
 11
0.2121966568
 21
0.2121966568
 31
0.0
 40
0.9996954599
 41
1.3093180567
 42
1.4490508554
  0
ELLIPSE
  5
95B
100
AcDbEntity
  8
ASSI
100
AcDbEllipse
 62
7
  6
CONTINUOUS
 10
-5.8871160678
 20
19.2254036523
 30
0.0
 11
0.2121966567
 21
0.2121966568
 31
0.0
 40
0.9996954599
 41
0.7852458701
 42
1.3093180567
  0
ELLIPSE
  5
95C
100
AcDbEntity
  8
ASSI
100
AcDbEllipse
 62
7
  6
CONTINUOUS
 10
9.0
 20
-19.2854840238
 30
0.0
 11
1.5687191183
 21
-0.0
 31
0.0
 40
0.0174550853
 41
7.853981634
 42
10.9955742927
  0
ELLIPSE
  5
95D
100
AcDbEntity
  8
ASSI
100
AcDbEllipse
 62
7
  6
CONTINUOUS
 10
-20.6483509734
 20
18.3682014383
 30
0.0
 11
-0.3827517265
 21
0.924044409
 31
0.0
 40
0.9998215708
 41
-0.3926359958
 42
0.2527821273
  0
ELLIPSE
  5
95E
100
AcDbEntity
  8
ASSI
100
AcDbEllipse
 62
7
  6
CONTINUOUS
 10
9.0
 20
-19.3902146576
 30
0.0
 11
1.5778818508
 21
-0.0
 31
0.0
 40
0.0174550853
 41
7.853981634
 42
10.9955742927
  0
ELLIPSE
  5
95F
100
AcDbEntity
  8
ASSI
100
AcDbEllipse
 62
7
  6
CONTINUOUS
 10
9.0
 20
-19.4949452914
 30
0.0
 11
1.5870445833
 21
-0.0
 31
0.0
 40
0.0174550853
 41
7.853981634
 42
10.9955742927
  0
ELLIPSE
  5
960
100
AcDbEntity
  8
ASSI
100
AcDbEllipse
 62
7
  6
CONTINUOUS
 10
22.2341768832
 20
-15.1420188409
 30
0.0
 11
0.0
 21
1.0
 31
0.0
 40
0.0174550649
 41
-3.1241393611
 42
-1.5707963268
  0
ELLIPSE
  5
961
100
AcDbEntity
  8
ASSI
100
AcDbEllipse
 62
7
  6
CONTINUOUS
 10
22.2341768832
 20
-14.8579811591
 30
0.0
 11
0.0
 21
1.0
 31
0.0
 40
0.0174550649
 41
-1.5707963268
 42
-0.0174532925
  0
ELLIPSE
  5
962
100
AcDbEntity
  8
ASSI
100
AcDbEllipse
 62
7
  6
CONTINUOUS
 10
22.2341768832
 20
-9.1420188409
 30
0.0
 11
-0.0
 21
1.0
 31
0.0
 40
0.0174550649
 41
-3.1241393611
 42
-1.5707963268
  0
ELLIPSE
  5
963
100
AcDbEntity
  8
ASSI
100
AcDbEllipse
 62
7
  6
CONTINUOUS
 10
22.2341768832
 20
-8.8579811591
 30
0.0
 11
0.0
 21
1.0
 31
0.0
 40
0.0174550649
 41
-1.5707963268
 42
-0.0174532925
  0
ELLIPSE
  5
964
100
AcDbEntity
  8
ASSI
100
AcDbEllipse
 62
7
  6
CONTINUOUS
 10
22.2341768832
 20
-3.1420188409
 30
0.0
 11
0.0
 21
1.0
 31
0.0
 40
0.0174550649
 41
-3.1241393611
 42
-1.5707963268
  0
ELLIPSE
  5
965
100
AcDbEntity
  8
ASSI
100
AcDbEllipse
 62
7
  6
CONTINUOUS
 10
22.2341768832
 20
-2.8579811591
 30
0.0
 11
0.0
 21
1.0
 31
0.0
 40
0.0174550649
 41
-1.5707963268
 42
-0.0174532925
  0
ELLIPSE
  5
966
100
AcDbEntity
  8
ASSI
100
AcDbEllipse
 62
7
  6
CONTINUOUS
 10
22.2341768832
 20
2.8579811591
 30
0.0
 11
0.0
 21
1.0
 31
0.0
 40
0.0174550649
 41
-3.1241393611
 42
-1.5707963268
  0
ELLIPSE
  5
967
100
AcDbEntity
  8
ASSI
100
AcDbEllipse
 62
7
  6
CONTINUOUS
 10
22.2341768832
 20
3.1420188409
 30
0.0
 11
0.0
 21
1.0
 31
0.0
 40
0.0174550649
 41
-1.5707963268
 42
-0.0174532925
  0
ELLIPSE
  5
968
100
AcDbEntity
  8
ASSI
100
AcDbEllipse
 62
7
  6
CONTINUOUS
 10
22.2341768832
 20
8.8579811591
 30
0.0
 11
0.0
 21
1.0
 31
0.0
 40
0.0174550649
 41
-3.1241393611
 42
-1.5707963268
  0
ELLIPSE
  5
969
100
AcDbEntity
  8
ASSI
100
AcDbEllipse
 62
7
  6
CONTINUOUS
 10
22.2341768832
 20
9.1420188409
 30
0.0
 11
0.0
 21
1.0
 31
0.0
 40
0.0174550649
 41
-1.5707963268
 42
-0.0174532925
  0
ELLIPSE
  5
96A
100
AcDbEntity
  8
ASSI
100
AcDbEllipse
 62
7
  6
CONTINUOUS
 10
22.2341768832
 20
14.8579811591
 30
0.0
 11
0.0
 21
1.0
 31
0.0
 40
0.0174550649
 41
-3.1241393611
 42
-1.5707963268
  0
ELLIPSE
  5
96B
100
AcDbEntity
  8
ASSI
100
AcDbEllipse
 62
7
  6
CONTINUOUS
 10
22.2341768832
 20
15.1420188409
 30
0.0
 11
-0.0
 21
1.0
 31
0.0
 40
0.0174550649
 41
-1.5707963268
 42
-0.0174532925
  0
ELLIPSE
  5
96C
100
AcDbEntity
  8
ASSI
100
AcDbEllipse
 62
7
  6
CONTINUOUS
 10
8.4482283901
 20
-14.4354612708
 30
0.0
 11
-0.625583377
 21
0.7821580253
 31
0.0
 40
0.9984407853
 41
-0.6738684012
 42
0.8954056303
  0
ELLIPSE
  5
96D
100
AcDbEntity
  8
ASSI
100
AcDbEllipse
 62
7
  6
CONTINUOUS
 10
8.4482283901
 20
-15.5645387292
 30
0.0
 11
0.625583377
 21
0.7821580253
 31
0.0
 40
0.9984407853
 41
-4.0369982839
 42
-2.4677242523
  0
ELLIPSE
  5
96E
100
AcDbEntity
  8
ASSI
100
AcDbEllipse
 62
7
  6
CONTINUOUS
 10
8.4482283901
 20
-8.4354612708
 30
0.0
 11
-0.625583377
 21
0.7821580253
 31
0.0
 40
0.9984407853
 41
-0.6738684012
 42
0.8954056303
  0
ELLIPSE
  5
96F
100
AcDbEntity
  8
ASSI
100
AcDbEllipse
 62
7
  6
CONTINUOUS
 10
8.4482283901
 20
-9.5645387292
 30
0.0
 11
0.625583377
 21
0.7821580253
 31
0.0
 40
0.9984407853
 41
-4.0369982839
 42
-2.4677242523
  0
ELLIPSE
  5
970
100
AcDbEntity
  8
ASSI
100
AcDbEllipse
 62
7
  6
CONTINUOUS
 10
8.4482283901
 20
-2.4354612708
 30
0.0
 11
-0.625583377
 21
0.7821580253
 31
0.0
 40
0.9984407853
 41
-0.6738684012
 42
0.8954056303
  0
ELLIPSE
  5
971
100
AcDbEntity
  8
ASSI
100
AcDbEllipse
 62
7
  6
CONTINUOUS
 10
8.4482283901
 20
-3.5645387292
 30
0.0
 11
0.625583377
 21
0.7821580253
 31
0.0
 40
0.9984407853
 41
-4.0369982839
 42
-2.4677242523
  0
ELLIPSE
  5
972
100
AcDbEntity
  8
ASSI
100
AcDbEllipse
 62
7
  6
CONTINUOUS
 10
8.4482283901
 20
3.5645387292
 30
0.0
 11
-0.625583377
 21
0.7821580253
 31
0.0
 40
0.9984407853
 41
-0.6738684012
 42
0.8954056303
  0
ELLIPSE
  5
973
100
AcDbEntity
  8
ASSI
100
AcDbEllipse
 62
7
  6
CONTINUOUS
 10
8.4482283901
 20
2.4354612708
 30
0.0
 11
0.625583377
 21
0.7821580253
 31
0.0
 40
0.9984407853
 41
-4.0369982839
 42
-2.4677242523
  0
ELLIPSE
  5
974
100
AcDbEntity
  8
ASSI
100
AcDbEllipse
 62
7
  6
CONTINUOUS
 10
8.4482283901
 20
9.5645387292
 30
0.0
 11
-0.625583377
 21
0.7821580253
 31
0.0
 40
0.9984407853
 41
-0.6738684012
 42
0.8954056303
  0
ELLIPSE
  5
975
100
AcDbEntity
  8
ASSI
100
AcDbEllipse
 62
7
  6
CONTINUOUS
 10
8.4482283901
 20
8.4354612708
 30
0.0
 11
0.625583377
 21
0.7821580253
 31
0.0
 40
0.9984407853
 41
-4.0369982839
 42
-2.4677242523
  0
ELLIPSE
  5
976
100
AcDbEntity
  8
ASSI
100
AcDbEllipse
 62
7
  6
CONTINUOUS
 10
8.4482283901
 20
15.5645387292
 30
0.0
 11
-0.625583377
 21
0.7821580253
 31
0.0
 40
0.9984407853
 41
-0.6738684012
 42
0.8954056303
  0
ELLIPSE
  5
977
100
AcDbEntity
  8
ASSI
100
AcDbEllipse
 62
7
  6
CONTINUOUS
 10
8.4482283901
 20
14.4354612708
 30
0.0
 11
0.625583377
 21
0.7821580253
 31
0.0
 40
0.9984407853
 41
-4.0369982839
 42
-2.4677242523
  0
ELLIPSE
  5
978
100
AcDbEntity
  8
ASSI
100
AcDbEllipse
 62
7
  6
CONTINUOUS
 10
-20.017429422
 20
17.5131069533
 30
0.0
 11
-1.8480888181
 21
0.7655034529
 31
0.0
 40
0.9998215708
 41
-0.3926359958
 42
0.3926359958
  0
ELLIPSE
  5
979
100
AcDbEntity
  8
ASSI
100
AcDbEllipse
 62
7
  6
CONTINUOUS
 10
-20.7416195811
 20
-18.5933717759
 30
0.0
 11
0.3827517265
 21
0.924044409
 31
0.0
 40
0.9998215708
 41
-3.5342286494
 42
-2.7489566578
  0
ELLIPSE
  5
97A
100
AcDbEntity
  8
ASSI
100
AcDbEllipse
 62
7
  6
CONTINUOUS
 10
-20.7416195811
 20
18.5933717759
 30
0.0
 11
-0.3827517265
 21
0.924044409
 31
0.0
 40
0.9998215708
 41
-0.3926359958
 42
0.3926359958
  0
ELLIPSE
  5
97B
100
AcDbEntity
  8
ASSI
100
AcDbEllipse
 62
7
  6
CONTINUOUS
 10
20.7416195811
 20
18.5933717759
 30
0.0
 11
0.3827517265
 21
0.924044409
 31
0.0
 40
0.9998215708
 41
-0.3926359958
 42
0.3926359958
  0
ELLIPSE
  5
97C
100
AcDbEntity
  8
ASSI
100
AcDbEllipse
 62
7
  6
CONTINUOUS
 10
20.7416195811
 20
-18.5933717759
 30
0.0
 11
-0.3827517265
 21
0.924044409
 31
0.0
 40
0.9998215708
 41
-3.5342286494
 42
-2.7489566578
  0
ELLIPSE
  5
97D
100
AcDbEntity
  8
ASSI
100
AcDbEllipse
 62
7
  6
CONTINUOUS
 10
-19.4386751346
 20
-8.0386751346
 30
0.0
 11
0.2282177323
 21
0.2282177323
 31
0.0
 40
0.7745966692
 41
-3.8006506894
 42
-2.4825346178
  0
ELLIPSE
  5
97E
100
AcDbEntity
  8
ASSI
100
AcDbEllipse
 62
7
  6
CONTINUOUS
 10
-15.5613248654
 20
-8.0386751346
 30
0.0
 11
0.2282177323
 21
-0.2282177323
 31
0.0
 40
0.7745966692
 41
-0.6590580358
 42
0.6590580358
  0
ELLIPSE
  5
97F
100
AcDbEntity
  8
ASSI
100
AcDbEllipse
 62
7
  6
CONTINUOUS
 10
-15.5613248654
 20
-1.6613248654
 30
0.0
 11
0.2282177323
 21
0.2282177323
 31
0.0
 40
0.7745966692
 41
-0.6590580358
 42
0.6590580358
  0
ELLIPSE
  5
980
100
AcDbEntity
  8
ASSI
100
AcDbEllipse
 62
7
  6
CONTINUOUS
 10
-19.4386751346
 20
-1.6613248654
 30
0.0
 11
0.2282177323
 21
-0.2282177323
 31
0.0
 40
0.7745966692
 41
2.4825346178
 42
3.8006506894
  0
ELLIPSE
  5
981
100
AcDbEntity
  8
ASSI
100
AcDbEllipse
 62
7
  6
CONTINUOUS
 10
-14.4386751346
 20
-8.0386751346
 30
0.0
 11
0.2282177323
 21
0.2282177323
 31
0.0
 40
0.7745966692
 41
2.4825346178
 42
3.8006506894
  0
ELLIPSE
  5
982
100
AcDbEntity
  8
ASSI
100
AcDbEllipse
 62
7
  6
CONTINUOUS
 10
-10.5613248654
 20
-8.0386751346
 30
0.0
 11
0.2282177323
 21
-0.2282177323
 31
0.0
 40
0.7745966692
 41
-0.6590580358
 42
0.6590580358
  0
ELLIPSE
  5
983
100
AcDbEntity
  8
ASSI
100
AcDbEllipse
 62
7
  6
CONTINUOUS
 10
9.0
 20
19.4949452914
 30
0.0
 11
1.5870445833
 21
-0.0
 31
0.0
 40
0.0174550853
 41
1.5707963268
 42
4.7123890737
  0
ELLIPSE
  5
984
100
AcDbEntity
  8
ASSI
100
AcDbEllipse
 62
7
  6
CONTINUOUS
 10
9.0
 20
19.3902146576
 30
0.0
 11
1.5778818508
 21
-0.0
 31
0.0
 40
0.0174550853
 41
1.5707963268
 42
4.7123890737
  0
ELLIPSE
  5
985
100
AcDbEntity
  8
ASSI
100
AcDbEllipse
 62
7
  6
CONTINUOUS
 10
-10.5613248654
 20
-1.6613248654
 30
0.0
 11
0.2282177323
 21
0.2282177323
 31
0.0
 40
0.7745966692
 41
-0.6590580358
 42
0.6590580358
  0
ELLIPSE
  5
986
100
AcDbEntity
  8
ASSI
100
AcDbEllipse
 62
7
  6
CONTINUOUS
 10
-14.4386751346
 20
-1.6613248654
 30
0.0
 11
0.2282177323
 21
-0.2282177323
 31
0.0
 40
0.7745966692
 41
2.4825346178
 42
3.8006506894
  0
ELLIPSE
  5
987
100
AcDbEntity
  8
ASSI
100
AcDbEllipse
 62
7
  6
CONTINUOUS
 10
9.0
 20
19.2854840238
 30
0.0
 11
1.5687191183
 21
-0.0
 31
0.0
 40
0.0174550853
 41
1.5707963268
 42
4.7123890737
  0
ELLIPSE
  5
988
100
AcDbEntity
  8
ASSI
100
AcDbEllipse
 62
7
  6
CONTINUOUS
 10
18.5
 20
-19.4949452914
 30
0.0
 11
1.5870445833
 21
-0.0
 31
0.0
 40
0.0174550853
 41
-1.5707963268
 42
1.5707963319
  0
ELLIPSE
  5
989
100
AcDbEntity
  8
ASSI
100
AcDbEllipse
 62
7
  6
CONTINUOUS
 10
-9.4386751346
 20
-8.0386751346
 30
0.0
 11
0.2282177323
 21
0.2282177323
 31
0.0
 40
0.7745966692
 41
-3.8006506894
 42
-2.4825346178
  0
ELLIPSE
  5
98A
100
AcDbEntity
  8
ASSI
100
AcDbEllipse
 62
7
  6
CONTINUOUS
 10
18.5
 20
-19.3902146576
 30
0.0
 11
1.5778818508
 21
-0.0
 31
0.0
 40
0.0174550853
 41
-1.5707963268
 42
1.5707963319
  0
ELLIPSE
  5
98B
100
AcDbEntity
  8
ASSI
100
AcDbEllipse
 62
7
  6
CONTINUOUS
 10
18.5
 20
-19.2854840238
 30
0.0
 11
1.5687191183
 21
-0.0
 31
0.0
 40
0.0174550853
 41
-1.5707963268
 42
1.5707963319
  0
ELLIPSE
  5
98C
100
AcDbEntity
  8
ASSI
100
AcDbEllipse
 62
7
  6
CONTINUOUS
 10
-5.5613248654
 20
-8.0386751346
 30
0.0
 11
0.2282177323
 21
-0.2282177323
 31
0.0
 40
0.7745966692
 41
-0.6590580358
 42
0.6590580358
  0
ELLIPSE
  5
98D
100
AcDbEntity
  8
ASSI
100
AcDbEllipse
 62
7
  6
CONTINUOUS
 10
-5.5613248654
 20
-1.6613248654
 30
0.0
 11
0.2282177323
 21
0.2282177323
 31
0.0
 40
0.7745966692
 41
-0.6590580358
 42
0.6590580358
  0
ELLIPSE
  5
98E
100
AcDbEntity
  8
ASSI
100
AcDbEllipse
 62
7
  6
CONTINUOUS
 10
-9.4386751346
 20
-1.6613248654
 30
0.0
 11
0.2282177323
 21
-0.2282177323
 31
0.0
 40
0.7745966692
 41
2.4825346178
 42
3.8006506894
  0
ELLIPSE
  5
98F
100
AcDbEntity
  8
ASSI
100
AcDbEllipse
 62
7
  6
CONTINUOUS
 10
-5.8871160678
 20
-19.2254036523
 30
0.0
 11
0.2121966568
 21
-0.2121966568
 31
0.0
 40
0.9996954599
 41
-1.4490450433
 42
-0.7852458702
  0
ELLIPSE
  5
990
100
AcDbEntity
  8
ASSI
100
AcDbEllipse
 62
7
  6
CONTINUOUS
 10
-14.6128839322
 20
19.2254036523
 30
0.0
 11
0.2121966568
 21
-0.2121966567
 31
0.0
 40
0.9996954599
 41
1.8322745969
 42
2.3563467834
  0
ELLIPSE
  5
991
100
AcDbEntity
  8
ASSI
100
AcDbEllipse
 62
7
  6
CONTINUOUS
 10
-14.6128839322
 20
19.2254036523
 30
0.0
 11
-0.2121966567
 21
0.2121966568
 31
0.0
 40
0.9996954599
 41
-1.4490450433
 42
-1.3093180567
  0
ELLIPSE
  5
992
100
AcDbEntity
  8
ASSI
100
AcDbEllipse
 62
7
  6
CONTINUOUS
 10
18.5
 20
19.2854840238
 30
0.0
 11
1.5687191183
 21
-0.0
 31
0.0
 40
0.0174550853
 41
4.7123889804
 42
7.8539817276
  0
ELLIPSE
  5
993
100
AcDbEntity
  8
ASSI
100
AcDbEllipse
 62
7
  6
CONTINUOUS
 10
18.5
 20
19.3902146576
 30
0.0
 11
1.5778818508
 21
-0.0
 31
0.0
 40
0.0174550853
 41
4.7123889804
 42
7.8539817276
  0
ELLIPSE
  5
994
100
AcDbEntity
  8
ASSI
100
AcDbEllipse
 62
7
  6
CONTINUOUS
 10
18.5
 20
19.4949452914
 30
0.0
 11
1.5870445833
 21
-0.0
 31
0.0
 40
0.0174550853
 41
4.7123889804
 42
7.8539817276
  0
ELLIPSE
  5
995
100
AcDbEntity
  8
CURVE
100
AcDbEllipse
 62
253
  6
CONTINUOUS
 10
-22.2560395761
 20
-12.839757
 30
0.0
 11
-0.0
 21
0.65
 31
0.0
 40
0.0174497484
 41
-1.5707963268
 42
1.5707963268
  0
ENDSEC
  0
SECTION
  2
OBJECTS
  0
DICTIONARY
  5
C
100
AcDbDictionary
280
0
281
1
  3
ACAD_GROUP
350
D
  3
ACAD_MLINESTYLE
350
17
  3
ACAD_LAYOUT
350
1A
  3
ACAD_PLOTSETTINGS
350
19
  3
ACAD_PLOTSTYLENAME
350
E
  0
DICTIONARY
  5
D
102
{ACAD_REACTORS
330
C
102
}
100
AcDbDictionary
280
0
281
1
  0
ACDBDICTIONARYWDFLT
  5
E
102
{ACAD_REACTORS
330
C
102
}
100
AcDbDictionary
281
1
  3
Normal
350
F
100
AcDbDictionaryWithDefault
340
F
  0
DICTIONARY
  5
17
102
{ACAD_REACTORS
330
C
102
}
100
AcDbDictionary
280
0
281
1
  3
Standard
350
18
  0
DICTIONARY
  5
19
102
{ACAD_REACTORS
330
C
102
}
100
AcDbDictionary
281
1
  0
DICTIONARY
  5
1A
102
{ACAD_REACTORS
330
C
102
}
100
AcDbDictionary
281
1
  3
Model
350
996
  3
Layout1
350
997
  0
ACDBPLACEHOLDER
  5
F
102
{ACAD_REACTORS
330
E
102
}
  0
MLINESTYLE
  5
18
102
{ACAD_REACTORS
330
17
102
}
100
AcDbMlineStyle
  2
STANDARD
 70
0
  3

 62
256
 51
90.0
 52
90.0
 71
2
 49
0.5
 62
256
  6
BYLAYER
 49
-0.5
 62
256
  6
BYLAYER
  0
LAYOUT
  5
996
102
{ACAD_REACTORS
330
1A
102
}
100
AcDbPlotSettings
  1

  2
none_device
  4
ISO_A4_(297.00_x_210.00_MM)
  6

 40
0.0
 41
0.0
 42
0.0
 43
0.0
 44
297.0
 45
210.0
 46
0.0
 47
0.0
 48
0.0
 49
0.0
140
0.0
141
0.0
142
1.0
143
1.0
 70
1024
 72
1
 73
0
 74
0
  7

 75
0
147
1.0
148
0.0
149
0.0
100
AcDbLayout
  1
Model
 70
0
 71
0
 10
0.0
 20
0.0
 11
297.0
 21
210.0
 12
0.0
 22
0.0
 32
0.0
 14
0.0
 24
0.0
 34
0.0
 15
0.0
 25
0.0
 35
0.0
146
0.0
 13
0.0
 23
0.0
 33
0.0
 16
1.0
 26
0.0
 36
0.0
 17
0.0
 27
1.0
 37
0.0
 76
0
330
222
345
0
346
0
  0
LAYOUT
  5
997
102
{ACAD_REACTORS
330
1A
102
}
100
AcDbPlotSettings
  1

  2
none_device
  4
ISO_A4_(297.00_x_210.00_MM)
  6

 40
0.0
 41
0.0
 42
0.0
 43
0.0
 44
297.0
 45
210.0
 46
0.0
 47
0.0
 48
0.0
 49
0.0
140
0.0
141
0.0
142
1.0
143
1.0
 70
0
 72
1
 73
0
 74
0
  7

 75
0
147
1.0
148
0.0
149
0.0
100
AcDbLayout
  1
Layout1
 70
0
 71
1
 10
0.0
 20
0.0
 11
297.0
 21
210.0
 12
0.0
 22
0.0
 32
0.0
 14
0.0
 24
0.0
 34
0.0
 15
0.0
 25
0.0
 35
0.0
146
0.0
 13
0.0
 23
0.0
 33
0.0
 16
1.0
 26
0.0
 36
0.0
 17
0.0
 27
1.0
 37
0.0
 76
0
330
223
345
0
346
0
  0
ENDSEC
  0
EOF
