  0
SECTION
  2
HEADER
  9
$ACADVER
  1
AC1015
  9
$DWGCODEPAGE
  3
ANSI_1252
  9
$EXTMAX
 10
297.0
 20
210.0
 30
0.0
  9
$EXTMIN
 10
0.0
 20
0.0
 30
0.0
  9
$LIMMIN
 10
0.0
 20
0.0
  9
$LIMMAX
 10
297.0
 20
210.0
  9
$VIEWCTR
 10
148.5
 20
105.0
  9
$VIEWSIZE
 40
210.0
  9
$CLAYER
  8
0
  9
$LTSCALE
 40
16.335
  9
$CELTYPE
  6
BYLAYER
  9
$DIMSCALE
 40
1.0
  9
$DIMASZ
 40
3.0
  9
$DIMEXO
 40
0.5
  9
$DIMDLI
 40
11.286
  9
$DIMEXE
 40
1.5
  9
$DIMCEN
 40
2.673
  9
$DIMLFAC
 40
1.0
  9
$DIMBLK
  1
_FILLED
  9
$DIMTXT
 40
3.0
  9
$DIMTOL
 70
1
  9
$DIMLIM
 70
0
  9
$DIMTFAC
 40
1.0
  9
$DIMTP
 40
0.01
  9
$DIMTM
 40
0.01
  9
$DIMGAP
 40
0.625
  9
$DIMDSEP
 70
44
  9
$PDMODE
 70
3
  9
$PDSIZE
 40
3.0
  9
$HANDSEED
  5
798
  9
$TILEMODE
 70
1
  9
$MEASUREMENT
 70
1
  9
$INSUNITS
 70
4
  0
ENDSEC
  0
SECTION
  2
CLASSES
  0
CLASS
  1
ACDBDICTIONARYWDFLT
  2
AcDbDictionaryWithDefault
  3
AutoCAD 2000
 90
0
280
0
281
0
  0
CLASS
  1
ACDBPLACEHOLDER
  2
AcDbPlaceHolder
  3
AutoCAD 2000
 90
0
280
0
281
0
  0
CLASS
  1
LAYOUT
  2
AcDbLayout
  3
AutoCAD 2000
 90
0
280
0
281
0
  0
ENDSEC
  0
SECTION
  2
TABLES
  0
TABLE
  2
VPORT
  5
8
100
AcDbSymbolTable
 70
2
  0
VPORT
  5
1F4
100
AcDbSymbolTableRecord
100
AcDbViewportTableRecord
  2
*ACTIVE
 70
0
 10
0.0
 20
0.0
 11
1.0
 21
1.0
 12
148.5
 22
105.0
 13
0.0
 23
0.0
 14
1.0
 24
1.0
 15
0.0
 25
0.0
 16
0.0
 26
0.0
 36
1.0
 17
0.0
 27
0.0
 37
0.0
 40
210.0
 41
1.4142857143
 42
50.0
 43
0.0
 44
0.0
 50
0.0
 51
0.0
 71
0
 72
100
 73
1
 74
1
 75
0
 76
0
 77
0
 78
0
  0
ENDTAB
  0
TABLE
  2
LTYPE
  5
5
100
AcDbSymbolTable
 70
6
  0
LTYPE
  5
14
100
AcDbSymbolTableRecord
100
AcDbLinetypeTableRecord
  2
BYBLOCK
 70
0
  3

 72
65
 73
0
 40
0.0
  0
LTYPE
  5
15
100
AcDbSymbolTableRecord
100
AcDbLinetypeTableRecord
  2
BYLAYER
 70
0
  3

 72
65
 73
0
 40
0.0
  0
LTYPE
  5
16
100
AcDbSymbolTableRecord
100
AcDbLinetypeTableRecord
  2
CONTINUOUS
 70
64
  3
Solid line
 72
65
 73
0
 40
0.0
  0
LTYPE
  5
1F5
100
AcDbSymbolTableRecord
100
AcDbLinetypeTableRecord
  2
CENTER
 70
64
  3
____ _ ____ _ ____ _ ____ _ ____ _ ____ _ ____
 72
65
 73
4
 40
0.6
 49
0.375
 74
0
 49
-0.075
 74
0
 49
0.075
 74
0
 49
-0.075
 74
0
  0
LTYPE
  5
1F6
100
AcDbSymbolTableRecord
100
AcDbLinetypeTableRecord
  2
HIDDEN
 70
64
  3
- - - - - - - - - - - - - - - - - - - -
 72
65
 73
2
 40
0.2
 49
0.1
 74
0
 49
-0.1
 74
0
  0
LTYPE
  5
1F7
100
AcDbSymbolTableRecord
100
AcDbLinetypeTableRecord
  2
PHANTOM
 70
64
  3
_____ _ _ _____ _ _ _____ _ _ _____
 72
65
 73
6
 40
0.8
 49
0.45
 74
0
 49
-0.05
 74
0
 49
0.1
 74
0
 49
-0.05
 74
0
 49
0.1
 74
0
 49
-0.05
 74
0
  0
LTYPE
  5
1F8
100
AcDbSymbolTableRecord
100
AcDbLinetypeTableRecord
  2
DOT
 70
64
  3
. . . . . . . . . . . . . . . . . . . .
 72
65
 73
2
 40
0.2
 49
0.1
 74
0
 49
-0.1
 74
0
  0
LTYPE
  5
1F9
100
AcDbSymbolTableRecord
100
AcDbLinetypeTableRecord
  2
DASHED
 70
64
  3
- - - - - - - - - - - - - - - - - - - -
 72
65
 73
2
 40
0.2
 49
0.1
 74
0
 49
-0.1
 74
0
  0
ENDTAB
  0
TABLE
  2
LAYER
  5
2
100
AcDbSymbolTable
 70
36
  0
LAYER
  5
10
100
AcDbSymbolTableRecord
100
AcDbLayerTableRecord
  2
0
 70
0
 62
7
  6
CONTINUOUS
370
-3
390
F
  0
LAYER
  5
1FA
100
AcDbSymbolTableRecord
100
AcDbLayerTableRecord
  2
DEFAULT_1
 70
0
 62
7
  6
CENTER
370
-3
390
F
  0
LAYER
  5
1FB
100
AcDbSymbolTableRecord
100
AcDbLayerTableRecord
  2
DEFAULT_2
 70
0
 62
7
  6
HIDDEN
370
-3
390
F
  0
LAYER
  5
1FC
100
AcDbSymbolTableRecord
100
AcDbLayerTableRecord
  2
DEFAULT_3
 70
0
 62
7
  6
PHANTOM
370
-3
390
F
  0
LAYER
  5
1FD
100
AcDbSymbolTableRecord
100
AcDbLayerTableRecord
  2
ASSI
 70
0
 62
7
  6
CONTINUOUS
370
-3
390
F
  0
LAYER
  5
1FE
100
AcDbSymbolTableRecord
100
AcDbLayerTableRecord
  2
COORDINATE
 70
0
 62
7
  6
CONTINUOUS
370
-3
390
F
  0
LAYER
  5
1FF
100
AcDbSymbolTableRecord
100
AcDbLayerTableRecord
  2
COORD_ORIGINE
 70
0
 62
7
  6
CONTINUOUS
370
-3
390
F
  0
LAYER
  5
200
100
AcDbSymbolTableRecord
100
AcDbLayerTableRecord
  2
CURVE
 70
0
 62
7
  6
CONTINUOUS
370
-3
390
F
  0
LAYER
  5
201
100
AcDbSymbolTableRecord
100
AcDbLayerTableRecord
  2
DRAFT
 70
0
 62
7
  6
CONTINUOUS
370
-3
390
F
  0
LAYER
  5
202
100
AcDbSymbolTableRecord
100
AcDbLayerTableRecord
  2
IMPORT
 70
0
 62
7
  6
CONTINUOUS
370
-3
390
F
  0
LAYER
  5
203
100
AcDbSymbolTableRecord
100
AcDbLayerTableRecord
  2
NOTE
 70
0
 62
7
  6
CONTINUOUS
370
-3
390
F
  0
LAYER
  5
204
100
AcDbSymbolTableRecord
100
AcDbLayerTableRecord
  2
PIANI
 70
0
 62
7
  6
CONTINUOUS
370
-3
390
F
  0
LAYER
  5
205
100
AcDbSymbolTableRecord
100
AcDbLayerTableRecord
  2
PIANI_ORIGINE
 70
0
 62
7
  6
CONTINUOUS
370
-3
390
F
  0
LAYER
  5
206
100
AcDbSymbolTableRecord
100
AcDbLayerTableRecord
  2
PIANI_RIFERIMENTO
 70
0
 62
7
  6
CONTINUOUS
370
-3
390
F
  0
LAYER
  5
207
100
AcDbSymbolTableRecord
100
AcDbLayerTableRecord
  2
PIANI_SFORMO
 70
0
 62
7
  6
CONTINUOUS
370
-3
390
F
  0
LAYER
  5
208
100
AcDbSymbolTableRecord
100
AcDbLayerTableRecord
  2
PUNTI
 70
0
 62
7
  6
CONTINUOUS
370
-3
390
F
  0
LAYER
  5
209
100
AcDbSymbolTableRecord
100
AcDbLayerTableRecord
  2
RACCORDO
 70
0
 62
7
  6
CONTINUOUS
370
-3
390
F
  0
LAYER
  5
20A
100
AcDbSymbolTableRecord
100
AcDbLayerTableRecord
  2
SMUSSO
 70
0
 62
7
  6
CONTINUOUS
370
-3
390
F
  0
LAYER
  5
20B
100
AcDbSymbolTableRecord
100
AcDbLayerTableRecord
  2
SNAPLINE
 70
0
 62
7
  6
CONTINUOUS
370
-3
390
F
  0
LAYER
  5
20C
100
AcDbSymbolTableRecord
100
AcDbLayerTableRecord
  2
SUPERFICI
 70
0
 62
7
  6
CONTINUOUS
370
-3
390
F
  0
LAYER
  5
20D
100
AcDbSymbolTableRecord
100
AcDbLayerTableRecord
  2
TRASH
 70
0
 62
7
  6
CONTINUOUS
370
-3
390
F
  0
LAYER
  5
20E
100
AcDbSymbolTableRecord
100
AcDbLayerTableRecord
  2
XSEC_DATUMS
 70
0
 62
7
  6
CONTINUOUS
370
-3
390
F
  0
ENDTAB
  0
TABLE
  2
STYLE
  5
3
100
AcDbSymbolTable
 70
1
  0
STYLE
  5
11
100
AcDbSymbolTableRecord
100
AcDbTextStyleTableRecord
  2
STANDARD
 70
0
 40
0.0
 41
0.8
 50
0.0
 71
0
 42
0.2
  3
txt
  4

  0
STYLE
  5
20F
100
AcDbSymbolTableRecord
100
AcDbTextStyleTableRecord
  2
TEXTSTYLE_1
 70
0
 40
0.0
 41
0.8
 50
0.0
 71
0
 42
0.2
  3
gdt
  4

  0
ENDTAB
  0
TABLE
  2
VIEW
  5
6
100
AcDbSymbolTable
 70
0
  0
ENDTAB
  0
TABLE
  2
UCS
  5
7
100
AcDbSymbolTable
 70
0
  0
ENDTAB
  0
TABLE
  2
APPID
  5
9
100
AcDbSymbolTable
 70
1
  0
APPID
  5
210
100
AcDbSymbolTableRecord
100
AcDbRegAppTableRecord
  2
ACAD
 70
0
  0
ENDTAB
  0
TABLE
  2
BLOCK_RECORD
  5
1
100
AcDbSymbolTable
 70
0
  0
BLOCK_RECORD
  5
211
100
AcDbSymbolTableRecord
100
AcDbBlockTableRecord
  2
*Model_Space
  0
BLOCK_RECORD
  5
212
100
AcDbSymbolTableRecord
100
AcDbBlockTableRecord
  2
*Paper_Space
  0
ENDTAB
  0
TABLE
  2
DIMSTYLE
  5
A
100
AcDbSymbolTable
 70
1
100
AcDbDimStyleTable
 71
0
  0
DIMSTYLE
105
213
100
AcDbSymbolTableRecord
100
AcDbDimStyleTableRecord
  2
STANDARD
 70
0
  3

  4

 40
1.0
 41
3.0
 42
0.5
 43
0.38
 44
1.5
 45
0.0
 46
0.0
 47
0.01
 48
0.01
140
3.0
141
0.09
142
0.0
143
25.4
144
1.0
145
0.0
146
1.0
147
0.625
 71
1.0
 72
0.0
 73
0
 74
0
 75
0
 76
0
 77
1
 78
8
170
0
171
2
172
0
173
0
174
0
175
0
176
0
177
0
178
0
270
2
271
2
272
2
273
2
274
2
275
0
280
0
281
0
282
0
283
1
284
8
285
0
286
0
287
3
288
0
340
11
278
44
  0
ENDTAB
  0
ENDSEC
  0
SECTION
  2
BLOCKS
  0
BLOCK
  5
20
100
AcDbEntity
  8
0
100
AcDbBlockBegin
  2
*Model_Space
 70
0
 10
0.0
 20
0.0
 30
0.0
  3
*Model_Space
  1

  0
ENDBLK
  5
21
100
AcDbEntity
  8
0
100
AcDbBlockEnd
  0
BLOCK
  5
1C
100
AcDbEntity
  8
0
100
AcDbBlockBegin
  2
*Paper_Space
 70
0
 10
0.0
 20
0.0
 30
0.0
  3
*Paper_Space
  1

  0
ENDBLK
  5
1D
100
AcDbEntity
  8
0
100
AcDbBlockEnd
  0
ENDSEC
  0
SECTION
  2
ENTITIES
  0
LINE
  5
214
100
AcDbEntity
  8
RACCORDO
100
AcDbLine
 62
253
  6
CONTINUOUS
 10
-8.5366205461
 20
23.0632597374
 11
-8.5322487121
 21
23.0676315714
  0
LINE
  5
215
100
AcDbEntity
  8
RACCORDO
100
AcDbLine
 62
253
  6
CONTINUOUS
 10
-8.2866247769
 20
22.8132639682
 11
-8.2822529429
 21
22.8176358022
  0
LINE
  5
216
100
AcDbEntity
  8
RACCORDO
100
AcDbLine
 62
253
  6
CONTINUOUS
 10
-10.7321158502
 20
20.9589047036
 11
-10.7146607853
 21
20.9676315714
  0
LWPOLYLINE
  5
217
100
AcDbEntity
  8
RACCORDO
100
AcDbPolyline
 62
7
  6
CONTINUOUS
 90
11
 70
0
 10
-10.9159215072
 20
20.9201336408
 10
-10.9018512872
 20
20.9268660743
 10
-10.8821702074
 20
20.9353072064
 10
-10.8621087122
 20
20.9428028611
 10
-10.84171167
 20
20.9493359695
 10
-10.8210338196
 20
20.954889329
 10
-10.8001134837
 20
20.9594529747
 10
-10.778971073
 20
20.96302014
 10
-10.7576448756
 20
20.9655794459
 10
-10.7361918744
 20
20.9671191639
 10
-10.7146607853
 20
20.9676315714
  0
LINE
  5
218
100
AcDbEntity
  8
RACCORDO
100
AcDbLine
 62
7
  6
CONTINUOUS
 10
-10.4322571736
 20
-25.9323684286
 11
-8.5322487121
 21
-25.9323684286
  0
LINE
  5
219
100
AcDbEntity
  8
RACCORDO
100
AcDbLine
 62
7
  6
CONTINUOUS
 10
8.4677428264
 20
-25.9323684286
 11
10.3677512879
 21
-25.9323684286
  0
LINE
  5
21A
100
AcDbEntity
  8
RACCORDO
100
AcDbLine
 62
253
  6
CONTINUOUS
 10
-10.4278853396
 20
-25.9279965946
 11
-8.5366205461
 21
-25.9279965946
  0
LINE
  5
21B
100
AcDbEntity
  8
RACCORDO
100
AcDbLine
 62
253
  6
CONTINUOUS
 10
8.4721146604
 20
-25.9279965946
 11
10.3633794539
 21
-25.9279965946
  0
LINE
  5
21C
100
AcDbEntity
  8
RACCORDO
100
AcDbLine
 62
253
  6
CONTINUOUS
 10
8.2221188911
 20
-25.6780008254
 11
10.6133752231
 21
-25.6780008254
  0
LINE
  5
21D
100
AcDbEntity
  8
RACCORDO
100
AcDbLine
 62
253
  6
CONTINUOUS
 10
-8.2866247769
 20
-25.6780008254
 11
-10.6778811089
 21
-25.6780008254
  0
LWPOLYLINE
  5
21E
100
AcDbEntity
  8
RACCORDO
100
AcDbPolyline
 62
7
  6
CONTINUOUS
 90
34
 70
0
 10
-10.4322571736
 20
-25.9323684286
 10
-10.4441524589
 20
-25.9320852783
 10
-10.4560207984
 20
-25.9312364628
 10
-10.467835309
 20
-25.9298239027
 10
-10.4795692303
 20
-25.9278507963
 10
-10.4911959817
 20
-25.9253216103
 10
-10.5026892219
 20
-25.9222420703
 10
-10.5140229166
 20
-25.9186191499
 10
-10.5251713922
 20
-25.9144610544
 10
-10.5361093892
 20
-25.9097772008
 10
-10.5468121305
 20
-25.9045781974
 10
-10.5572553711
 20
-25.8988758202
 10
-10.5674154488
 20
-25.8926829867
 10
-10.577269348
 20
-25.886013724
 10
-10.5867947467
 20
-25.8788831393
 10
-10.5959700619
 20
-25.8713073874
 10
-10.6047745089
 20
-25.8633036291
 10
-10.6131881433
 20
-25.8548899947
 10
-10.6211919017
 20
-25.8460855476
 10
-10.6287676536
 20
-25.8369102324
 10
-10.6358982383
 20
-25.8273848337
 10
-10.642567501
 20
-25.8175309345
 10
-10.6487603345
 20
-25.8073708568
 10
-10.6544627117
 20
-25.7969276162
 10
-10.659661715
 20
-25.7862248749
 10
-10.6643455686
 20
-25.7752868779
 10
-10.6685036642
 20
-25.7641384024
 10
-10.6721265846
 20
-25.7528047076
 10
-10.6752061246
 20
-25.7413114674
 10
-10.6777353106
 20
-25.7296847161
 10
-10.679708417
 20
-25.7179507947
 10
-10.6811209771
 20
-25.7061362841
 10
-10.6819697926
 20
-25.6942679446
 10
-10.6822529429
 20
-25.6823726594
  0
LWPOLYLINE
  5
21F
100
AcDbEntity
  8
RACCORDO
100
AcDbPolyline
 62
7
  6
CONTINUOUS
 90
34
 70
0
 10
8.4677428264
 20
-25.9323684286
 10
8.4558475411
 20
-25.9320852783
 10
8.4439792016
 20
-25.9312364628
 10
8.432164691
 20
-25.9298239027
 10
8.4204307697
 20
-25.9278507963
 10
8.4088040183
 20
-25.9253216103
 10
8.3973107781
 20
-25.9222420703
 10
8.3859770834
 20
-25.9186191499
 10
8.3748286078
 20
-25.9144610544
 10
8.3638906108
 20
-25.9097772008
 10
8.3531878695
 20
-25.9045781974
 10
8.3427446289
 20
-25.8988758202
 10
8.3325845512
 20
-25.8926829867
 10
8.322730652
 20
-25.886013724
 10
8.3132052533
 20
-25.8788831393
 10
8.3040299381
 20
-25.8713073874
 10
8.2952254911
 20
-25.8633036291
 10
8.2868118567
 20
-25.8548899947
 10
8.2788080983
 20
-25.8460855476
 10
8.2712323464
 20
-25.8369102324
 10
8.2641017617
 20
-25.8273848337
 10
8.257432499
 20
-25.8175309345
 10
8.2512396655
 20
-25.8073708568
 10
8.2455372883
 20
-25.7969276162
 10
8.240338285
 20
-25.7862248749
 10
8.2356544314
 20
-25.7752868779
 10
8.2314963358
 20
-25.7641384024
 10
8.2278734154
 20
-25.7528047076
 10
8.2247938754
 20
-25.7413114674
 10
8.2222646894
 20
-25.7296847161
 10
8.220291583
 20
-25.7179507947
 10
8.2188790229
 20
-25.7061362841
 10
8.2180302074
 20
-25.6942679446
 10
8.2177470571
 20
-25.6823726594
  0
LWPOLYLINE
  5
220
100
AcDbEntity
  8
RACCORDO
100
AcDbPolyline
 62
253
  6
CONTINUOUS
 90
31
 70
0
 10
-10.4278853396
 20
-25.9279965946
 10
-10.4409376796
 20
-25.9276551874
 10
-10.453962574
 20
-25.9266319247
 10
-10.4669243486
 20
-25.9249283205
 10
-10.4797900673
 20
-25.9225471904
 10
-10.4925215325
 20
-25.919494077
 10
-10.5050757171
 20
-25.9157786372
 10
-10.517415521
 20
-25.9114120862
 10
-10.5295098771
 20
-25.9064056562
 10
-10.5413259554
 20
-25.9007729077
 10
-10.5528315558
 20
-25.894529106
 10
-10.5639948742
 20
-25.8876914242
 10
-10.5747849534
 20
-25.8802787942
 10
-10.5851720793
 20
-25.8723116519
 10
-10.5951279164
 20
-25.863811755
 10
-10.6046252509
 20
-25.8548023332
 10
-10.61363807
 20
-25.84530804
 10
-10.6221416115
 20
-25.8353549366
 10
-10.6301125197
 20
-25.8249703473
 10
-10.6375289266
 20
-25.814182757
 10
-10.6443705024
 20
-25.803021731
 10
-10.6506184815
 20
-25.7915178752
 10
-10.6562557298
 20
-25.7797027296
 10
-10.6612667853
 20
-25.7676086924
 10
-10.6656379003
 20
-25.7552689362
 10
-10.6693570898
 20
-25.7427172888
 10
-10.672414151
 20
-25.7299881749
 10
-10.6748006937
 20
-25.7171165352
 10
-10.6765101769
 20
-25.7041376778
 10
-10.6775379199
 20
-25.6910871795
 10
-10.6778811089
 20
-25.6780008254
  0
LWPOLYLINE
  5
221
100
AcDbEntity
  8
RACCORDO
100
AcDbPolyline
 62
253
  6
CONTINUOUS
 90
31
 70
0
 10
8.4721146604
 20
-25.9279965946
 10
8.4590311744
 20
-25.927653556
 10
8.4459835478
 20
-25.9266262661
 10
8.4330075416
 20
-25.9249175406
 10
8.4201387208
 20
-25.9225320626
 10
8.4074123562
 20
-25.9194763704
 10
8.3948633286
 20
-25.915758839
 10
8.3825260323
 20
-25.9113896575
 10
8.3704342816
 20
-25.906380801
 10
8.3586212178
 20
-25.9007459978
 10
8.3471192183
 20
-25.894500692
 10
8.3359598078
 20
-25.8876620005
 10
8.3251735722
 20
-25.8802486672
 10
8.3147900745
 20
-25.8722810104
 10
8.304837774
 20
-25.8637808681
 10
8.2953439481
 20
-25.8547715376
 10
8.2863346176
 20
-25.8452777117
 10
8.2778344753
 20
-25.8353254112
 10
8.2698668185
 20
-25.8249419136
 10
8.2624534852
 20
-25.814155678
 10
8.2556147938
 20
-25.8029962674
 10
8.2493694879
 20
-25.7914942679
 10
8.2437346847
 20
-25.7796812041
 10
8.2387258282
 20
-25.7675894534
 10
8.2343566467
 20
-25.7552521572
 10
8.2306391153
 20
-25.7427031295
 10
8.2275834231
 20
-25.7299767649
 10
8.2251979452
 20
-25.7171079441
 10
8.2234892196
 20
-25.704131938
 10
8.2224619297
 20
-25.6910843113
 10
8.2221188911
 20
-25.6780008254
  0
LWPOLYLINE
  5
222
100
AcDbEntity
  8
RACCORDO
100
AcDbPolyline
 62
7
  6
CONTINUOUS
 90
11
 70
0
 10
-10.915921175
 20
-23.7848706641
 10
-10.9018508062
 20
-23.7916031645
 10
-10.8821697693
 20
-23.8000442663
 10
-10.8621083186
 20
-23.8075398916
 10
-10.8417113233
 20
-23.8140729713
 10
-10.8210335222
 20
-23.8196263032
 10
-10.800113238
 20
-23.8241899227
 10
-10.7789708828
 20
-23.8277570627
 10
-10.7576447452
 20
-23.8303163448
 10
-10.7361918075
 20
-23.8318560408
 10
-10.7146607853
 20
-23.8323684286
  0
LINE
  5
223
100
AcDbEntity
  8
RACCORDO
100
AcDbLine
 62
253
  6
CONTINUOUS
 10
-10.7146607853
 20
-23.8323684286
 11
-10.7321158502
 21
-23.8236415608
  0
LINE
  5
224
100
AcDbEntity
  8
RACCORDO
100
AcDbLine
 62
253
  6
CONTINUOUS
 10
-8.5366205461
 20
-25.9279965946
 11
-8.5322487121
 21
-25.9323684286
  0
LINE
  5
225
100
AcDbEntity
  8
RACCORDO
100
AcDbLine
 62
253
  6
CONTINUOUS
 10
-8.2866247769
 20
-25.6780008254
 11
-8.2822529429
 21
-25.6823726594
  0
LINE
  5
226
100
AcDbEntity
  8
0
100
AcDbLine
 62
7
  6
CONTINUOUS
 10
-8.9321390097
 20
19.4676315714
 11
-9.6822529429
 21
18.7166026252
  0
LINE
  5
227
100
AcDbEntity
  8
RACCORDO
100
AcDbLine
 62
7
  6
CONTINUOUS
 10
-8.8322529429
 20
19.4176315714
 11
-10.5965557233
 21
17.6533287909
  0
LINE
  5
228
100
AcDbEntity
  8
0
100
AcDbLine
 62
7
  6
CONTINUOUS
 10
-8.8322529429
 20
19.4176315714
 11
-10.5965557233
 21
17.6533287909
  0
LINE
  5
229
100
AcDbEntity
  8
RACCORDO
100
AcDbLine
 62
7
  6
CONTINUOUS
 10
-8.2822529429
 20
19.9676315714
 11
-7.2909798106
 21
20.9589047036
  0
LINE
  5
22A
100
AcDbEntity
  8
RACCORDO
100
AcDbLine
 62
7
  6
CONTINUOUS
 10
-8.1162775096
 20
19.5593398357
 11
-8.278765652
 21
19.4781019519
  0
LINE
  5
22B
100
AcDbEntity
  8
RACCORDO
100
AcDbLine
 62
253
  6
CONTINUOUS
 10
8.2221188911
 20
-25.2767059959
 11
10.6133752231
 21
-25.2767059959
  0
LINE
  5
22C
100
AcDbEntity
  8
RACCORDO
100
AcDbLine
 62
253
  6
CONTINUOUS
 10
-8.2866247769
 20
-25.2767059959
 11
-10.6778811089
 21
-25.2767059959
  0
LINE
  5
22D
100
AcDbEntity
  8
DRAFT
100
AcDbLine
 62
7
  6
CONTINUOUS
 10
-4.4322529429
 20
-25.2323684286
 11
4.3677470571
 21
-25.2323684286
  0
LINE
  5
22E
100
AcDbEntity
  8
DRAFT
100
AcDbLine
 62
7
  6
CONTINUOUS
 10
3.4677470571
 20
-25.2265505988
 11
-3.5322529429
 21
-25.2265505988
  0
LINE
  5
22F
100
AcDbEntity
  8
ASSI
100
AcDbLine
 62
253
  6
CONTINUOUS
 10
4.3240964103
 20
-25.1887177817
 11
3.4677470571
 21
-25.1887177817
  0
LINE
  5
230
100
AcDbEntity
  8
ASSI
100
AcDbLine
 62
253
  6
CONTINUOUS
 10
-3.5322529429
 20
-25.1887177817
 11
-4.388602296
 21
-25.1887177817
  0
LINE
  5
231
100
AcDbEntity
  8
RACCORDO
100
AcDbLine
 62
253
  6
CONTINUOUS
 10
10.3633794539
 20
-25.0601996449
 11
8.4721146604
 21
-25.0601996449
  0
LINE
  5
232
100
AcDbEntity
  8
RACCORDO
100
AcDbLine
 62
253
  6
CONTINUOUS
 10
-8.5366205461
 20
-25.0601996449
 11
-10.4278853396
 21
-25.0601996449
  0
LINE
  5
233
100
AcDbEntity
  8
RACCORDO
100
AcDbLine
 62
7
  6
CONTINUOUS
 10
-10.4329759407
 20
-24.5550181594
 11
-8.531529945
 21
-24.5550181594
  0
LINE
  5
234
100
AcDbEntity
  8
RACCORDO
100
AcDbLine
 62
7
  6
CONTINUOUS
 10
8.4670240593
 20
-24.5550181594
 11
10.368470055
 21
-24.5550181594
  0
LINE
  5
235
100
AcDbEntity
  8
RACCORDO
100
AcDbLine
 62
7
  6
CONTINUOUS
 10
10.6501548996
 20
-23.8323684286
 11
10.6177470571
 21
-23.8323684286
  0
LINE
  5
236
100
AcDbEntity
  8
DRAFT
100
AcDbLine
 62
7
  6
CONTINUOUS
 10
-4.4322529429
 20
-23.8323684286
 11
-10.6822529429
 21
-23.8323684286
  0
LINE
  5
237
100
AcDbEntity
  8
DRAFT
100
AcDbLine
 62
7
  6
CONTINUOUS
 10
4.3677470571
 20
-23.8323684286
 11
10.6177470571
 21
-23.8323684286
  0
LINE
  5
238
100
AcDbEntity
  8
RACCORDO
100
AcDbLine
 62
7
  6
CONTINUOUS
 10
-10.6822529429
 20
-23.8323684286
 11
-10.7146607853
 21
-23.8323684286
  0
LINE
  5
239
100
AcDbEntity
  8
RACCORDO
100
AcDbLine
 62
7
  6
CONTINUOUS
 10
-10.7321158502
 20
-23.8236415608
 11
-7.2909798106
 21
-23.8236415608
  0
LINE
  5
23A
100
AcDbEntity
  8
RACCORDO
100
AcDbLine
 62
7
  6
CONTINUOUS
 10
7.2264739249
 20
-23.8236415608
 11
10.6676099645
 21
-23.8236415608
  0
LINE
  5
23B
100
AcDbEntity
  8
DRAFT
100
AcDbLine
 62
7
  6
CONTINUOUS
 10
-3.5322529429
 20
-23.7704076673
 11
-3.0322529429
 21
-23.7704076673
  0
LINE
  5
23C
100
AcDbEntity
  8
DRAFT
100
AcDbLine
 62
7
  6
CONTINUOUS
 10
2.9677470571
 20
-23.7704076673
 11
3.4677470571
 21
-23.7704076673
  0
LINE
  5
23D
100
AcDbEntity
  8
RACCORDO
100
AcDbLine
 62
7
  6
CONTINUOUS
 10
-8.1162775096
 20
-22.4240766928
 11
-8.278765652
 21
-22.342838809
  0
LINE
  5
23E
100
AcDbEntity
  8
RACCORDO
100
AcDbLine
 62
7
  6
CONTINUOUS
 10
-10.5965557233
 20
-20.5180656481
 11
-8.8322529429
 21
-22.2823684286
  0
LINE
  5
23F
100
AcDbEntity
  8
0
100
AcDbLine
 62
7
  6
CONTINUOUS
 10
-10.5965557233
 20
-20.5180656481
 11
-8.8322529429
 21
-22.2823684286
  0
LINE
  5
240
100
AcDbEntity
  8
RACCORDO
100
AcDbLine
 62
7
  6
CONTINUOUS
 10
-7.2909798106
 20
-23.8236415608
 11
-8.2822529429
 21
-22.8323684286
  0
LINE
  5
241
100
AcDbEntity
  8
0
100
AcDbLine
 62
7
  6
CONTINUOUS
 10
-8.9321390097
 20
-22.3323684286
 11
-9.6822529429
 21
-21.5813394824
  0
LINE
  5
242
100
AcDbEntity
  8
RACCORDO
100
AcDbLine
 62
7
  6
CONTINUOUS
 10
-10.4220050741
 20
17.5810275447
 11
-8.7599516966
 21
19.2430809221
  0
LINE
  5
243
100
AcDbEntity
  8
0
100
AcDbLine
 62
7
  6
CONTINUOUS
 10
-10.4220050741
 20
17.5810275447
 11
-8.7599516966
 21
19.2430809221
  0
LINE
  5
244
100
AcDbEntity
  8
DRAFT
100
AcDbLine
 62
7
  6
CONTINUOUS
 10
-7.4322529429
 20
19.3321017533
 11
-7.521273774
 21
19.2430809221
  0
LINE
  5
245
100
AcDbEntity
  8
0
100
AcDbLine
 62
7
  6
CONTINUOUS
 10
-7.4322529429
 20
19.3321017533
 11
-7.521273774
 21
19.2430809221
  0
LINE
  5
246
100
AcDbEntity
  8
DRAFT
100
AcDbLine
 62
7
  6
CONTINUOUS
 10
-7.4322529429
 20
18.2676315714
 11
-7.521273774
 21
18.1786107403
  0
LINE
  5
247
100
AcDbEntity
  8
0
100
AcDbLine
 62
7
  6
CONTINUOUS
 10
-7.4322529429
 20
18.2676315714
 11
-7.521273774
 21
18.1786107403
  0
LINE
  5
248
100
AcDbEntity
  8
RACCORDO
100
AcDbLine
 62
7
  6
CONTINUOUS
 10
-7.2752314414
 20
18.3246530729
 11
-7.3322529429
 21
18.2676315714
  0
LINE
  5
249
100
AcDbEntity
  8
RACCORDO
100
AcDbLine
 62
253
  6
CONTINUOUS
 10
-7.3695977761
 20
-23.7450235953
 11
-3.0322529429
 21
-23.7450235953
  0
LINE
  5
24A
100
AcDbEntity
  8
RACCORDO
100
AcDbLine
 62
253
  6
CONTINUOUS
 10
2.9677470571
 20
-23.7450235953
 11
7.3050918904
 21
-23.7450235953
  0
LINE
  5
24B
100
AcDbEntity
  8
0
100
AcDbLine
 62
7
  6
CONTINUOUS
 10
2.9677470571
 20
-23.1323684286
 11
-3.0322529429
 21
-23.1323684286
  0
LINE
  5
24C
100
AcDbEntity
  8
RACCORDO
100
AcDbLine
 62
253
  6
CONTINUOUS
 10
-7.616353662
 20
-22.7450616723
 11
-3.0322529429
 21
-22.7450616723
  0
LINE
  5
24D
100
AcDbEntity
  8
RACCORDO
100
AcDbLine
 62
253
  6
CONTINUOUS
 10
2.9677470571
 20
-22.7450616723
 11
7.5518477763
 21
-22.7450616723
  0
LINE
  5
24E
100
AcDbEntity
  8
0
100
AcDbLine
 62
7
  6
CONTINUOUS
 10
2.9677470571
 20
-22.4323684286
 11
-3.0322529429
 21
-22.4323684286
  0
LINE
  5
24F
100
AcDbEntity
  8
RACCORDO
100
AcDbLine
 62
7
  6
CONTINUOUS
 10
-7.616353662
 20
-22.4283639743
 11
-7.2740746447
 21
-22.4283639743
  0
LINE
  5
250
100
AcDbEntity
  8
RACCORDO
100
AcDbLine
 62
7
  6
CONTINUOUS
 10
7.209568759
 20
-22.4283639743
 11
7.5518477763
 21
-22.4283639743
  0
LINE
  5
251
100
AcDbEntity
  8
DRAFT
100
AcDbLine
 62
7
  6
CONTINUOUS
 10
-8.278765652
 20
-22.342838809
 11
-7.3310906175
 21
-22.342838809
  0
LINE
  5
252
100
AcDbEntity
  8
DRAFT
100
AcDbLine
 62
7
  6
CONTINUOUS
 10
7.2665847318
 20
-22.342838809
 11
8.2142597663
 21
-22.342838809
  0
LINE
  5
253
100
AcDbEntity
  8
0
100
AcDbLine
 62
7
  6
CONTINUOUS
 10
8.867633124
 20
-22.3323684286
 11
8.2177470571
 21
-22.3323684286
  0
LINE
  5
254
100
AcDbEntity
  8
0
100
AcDbLine
 62
7
  6
CONTINUOUS
 10
-8.2822529429
 20
-22.3323684286
 11
-8.9321390097
 21
-22.3323684286
  0
LINE
  5
255
100
AcDbEntity
  8
DRAFT
100
AcDbLine
 62
7
  6
CONTINUOUS
 10
-8.8322529429
 20
-22.2823684286
 11
-7.517782761
 21
-22.2823684286
  0
LINE
  5
256
100
AcDbEntity
  8
0
100
AcDbLine
 62
7
  6
CONTINUOUS
 10
-8.8322529429
 20
-22.2823684286
 11
-7.517782761
 21
-22.2823684286
  0
LINE
  5
257
100
AcDbEntity
  8
DRAFT
100
AcDbLine
 62
7
  6
CONTINUOUS
 10
7.4532768753
 20
-22.2823684286
 11
8.7677470571
 21
-22.2823684286
  0
LINE
  5
258
100
AcDbEntity
  8
0
100
AcDbLine
 62
7
  6
CONTINUOUS
 10
7.4532768753
 20
-22.2823684286
 11
8.7677470571
 21
-22.2823684286
  0
LINE
  5
259
100
AcDbEntity
  8
DRAFT
100
AcDbLine
 62
7
  6
CONTINUOUS
 10
-8.7599516966
 20
-22.1078177793
 11
-7.521273774
 21
-22.1078177793
  0
LINE
  5
25A
100
AcDbEntity
  8
0
100
AcDbLine
 62
7
  6
CONTINUOUS
 10
-8.7599516966
 20
-22.1078177793
 11
-7.521273774
 21
-22.1078177793
  0
LINE
  5
25B
100
AcDbEntity
  8
DRAFT
100
AcDbLine
 62
7
  6
CONTINUOUS
 10
7.4567678883
 20
-22.1078177793
 11
8.6954458109
 21
-22.1078177793
  0
LINE
  5
25C
100
AcDbEntity
  8
0
100
AcDbLine
 62
7
  6
CONTINUOUS
 10
7.4567678883
 20
-22.1078177793
 11
8.6954458109
 21
-22.1078177793
  0
LINE
  5
25D
100
AcDbEntity
  8
RACCORDO
100
AcDbLine
 62
253
  6
CONTINUOUS
 10
6.5259253553
 20
-22.0152927118
 11
-6.590431241
 21
-22.0152927118
  0
LINE
  5
25E
100
AcDbEntity
  8
RACCORDO
100
AcDbLine
 62
253
  6
CONTINUOUS
 10
-7.4322529429
 20
-21.890771677
 11
-7.3812749541
 21
-21.890771677
  0
LINE
  5
25F
100
AcDbEntity
  8
RACCORDO
100
AcDbLine
 62
253
  6
CONTINUOUS
 10
7.3167690684
 20
-21.890771677
 11
7.3677470571
 21
-21.890771677
  0
LINE
  5
260
100
AcDbEntity
  8
RACCORDO
100
AcDbLine
 62
7
  6
CONTINUOUS
 10
-8.7599516966
 20
-22.1078177793
 11
-10.4220050741
 21
-20.4457644018
  0
LINE
  5
261
100
AcDbEntity
  8
0
100
AcDbLine
 62
7
  6
CONTINUOUS
 10
-8.7599516966
 20
-22.1078177793
 11
-10.4220050741
 21
-20.4457644018
  0
LINE
  5
262
100
AcDbEntity
  8
DRAFT
100
AcDbLine
 62
7
  6
CONTINUOUS
 10
-7.4322529429
 20
-22.1968386104
 11
-7.521273774
 21
-22.1078177793
  0
LINE
  5
263
100
AcDbEntity
  8
0
100
AcDbLine
 62
7
  6
CONTINUOUS
 10
-7.4322529429
 20
-22.1968386104
 11
-7.521273774
 21
-22.1078177793
  0
LINE
  5
264
100
AcDbEntity
  8
DRAFT
100
AcDbLine
 62
7
  6
CONTINUOUS
 10
-7.4322529429
 20
-21.1323684286
 11
-7.521273774
 21
-21.0433475974
  0
LINE
  5
265
100
AcDbEntity
  8
0
100
AcDbLine
 62
7
  6
CONTINUOUS
 10
-7.4322529429
 20
-21.1323684286
 11
-7.521273774
 21
-21.0433475974
  0
LINE
  5
266
100
AcDbEntity
  8
RACCORDO
100
AcDbLine
 62
7
  6
CONTINUOUS
 10
-7.2752314414
 20
-21.18938993
 11
-7.3322529429
 21
-21.1323684286
  0
LINE
  5
267
100
AcDbEntity
  8
DRAFT
100
AcDbLine
 62
7
  6
CONTINUOUS
 10
-7.2740746447
 20
19.5636271171
 11
-7.3310906175
 21
19.4781019519
  0
LINE
  5
268
100
AcDbEntity
  8
ASSI
100
AcDbLine
 62
7
  6
CONTINUOUS
 10
-3.6261086606
 20
22.1910788556
 11
-3.6526553664
 21
22.1607091248
  0
LINE
  5
269
100
AcDbEntity
  8
ASSI
100
AcDbLine
 62
7
  6
CONTINUOUS
 10
-3.6526553664
 20
22.1607091248
 11
-3.6830614937
 21
22.1264613919
  0
LINE
  5
26A
100
AcDbEntity
  8
ASSI
100
AcDbLine
 62
7
  6
CONTINUOUS
 10
-3.6830614937
 20
22.1264613919
 11
-3.7173312927
 21
22.0883476266
  0
LINE
  5
26B
100
AcDbEntity
  8
ASSI
100
AcDbLine
 62
7
  6
CONTINUOUS
 10
-3.7173312927
 20
22.0883476266
 11
-3.7758247653
 21
22.0240334024
  0
LINE
  5
26C
100
AcDbEntity
  8
ASSI
100
AcDbLine
 62
7
  6
CONTINUOUS
 10
-3.7758247653
 20
22.0240334024
 11
-3.9602229305
 21
21.8239893861
  0
LINE
  5
26D
100
AcDbEntity
  8
RACCORDO
100
AcDbLine
 62
253
  6
CONTINUOUS
 10
6.5230418251
 20
-21.5153117502
 11
-6.5875477108
 21
-21.5153117502
  0
LINE
  5
26E
100
AcDbEntity
  8
DRAFT
100
AcDbLine
 62
7
  6
CONTINUOUS
 10
-2.5322529429
 20
-21.4856023221
 11
-2.473564066
 21
-21.4856023221
  0
LINE
  5
26F
100
AcDbEntity
  8
DRAFT
100
AcDbLine
 62
7
  6
CONTINUOUS
 10
2.4090581803
 20
-21.4856023221
 11
2.4677470571
 21
-21.4856023221
  0
LINE
  5
270
100
AcDbEntity
  8
DRAFT
100
AcDbLine
 62
7
  6
CONTINUOUS
 10
3.4677470571
 20
-21.4323684286
 11
3.3677470571
 21
-21.4323684286
  0
LINE
  5
271
100
AcDbEntity
  8
DRAFT
100
AcDbLine
 62
7
  6
CONTINUOUS
 10
-3.4322529429
 20
-21.4323684286
 11
-3.5322529429
 21
-21.4323684286
  0
LINE
  5
272
100
AcDbEntity
  8
RACCORDO
100
AcDbLine
 62
253
  6
CONTINUOUS
 10
-7.4322529429
 20
-21.3914569096
 11
-7.3840316282
 21
-21.3914569096
  0
LINE
  5
273
100
AcDbEntity
  8
RACCORDO
100
AcDbLine
 62
253
  6
CONTINUOUS
 10
7.3195257425
 20
-21.3914569096
 11
7.3677470571
 21
-21.3914569096
  0
LINE
  5
274
100
AcDbEntity
  8
RACCORDO
100
AcDbLine
 62
253
  6
CONTINUOUS
 10
7.209568759
 20
-21.3893865454
 11
6.5259253553
 21
-21.3893865454
  0
LINE
  5
275
100
AcDbEntity
  8
RACCORDO
100
AcDbLine
 62
253
  6
CONTINUOUS
 10
-6.590431241
 20
-21.3893865454
 11
-7.2740746447
 21
-21.3893865454
  0
LINE
  5
276
100
AcDbEntity
  8
RACCORDO
100
AcDbLine
 62
253
  6
CONTINUOUS
 10
6.418851902
 20
-21.3590246615
 11
3.3677470571
 21
-21.3590246615
  0
LINE
  5
277
100
AcDbEntity
  8
RACCORDO
100
AcDbLine
 62
253
  6
CONTINUOUS
 10
-3.4322529429
 20
-21.3590246615
 11
-6.4833577877
 21
-21.3590246615
  0
LINE
  5
278
100
AcDbEntity
  8
0
100
AcDbLine
 62
7
  6
CONTINUOUS
 10
-5.7822529429
 20
-21.3323684286
 11
-3.4254545534
 21
-21.3323684286
  0
LINE
  5
279
100
AcDbEntity
  8
RACCORDO
100
AcDbLine
 62
7
  6
CONTINUOUS
 10
-5.7822529429
 20
-21.3323684286
 11
-3.4254545534
 21
-21.3323684286
  0
LINE
  5
27A
100
AcDbEntity
  8
RACCORDO
100
AcDbLine
 62
7
  6
CONTINUOUS
 10
3.3609486677
 20
-21.3323684286
 11
5.7177470571
 21
-21.3323684286
  0
LINE
  5
27B
100
AcDbEntity
  8
0
100
AcDbLine
 62
7
  6
CONTINUOUS
 10
3.3609486677
 20
-21.3323684286
 11
5.7177470571
 21
-21.3323684286
  0
LINE
  5
27C
100
AcDbEntity
  8
RACCORDO
100
AcDbLine
 62
7
  6
CONTINUOUS
 10
-2.4322529429
 20
-21.3167553797
 11
2.3677470571
 21
-21.3167553797
  0
LINE
  5
27D
100
AcDbEntity
  8
0
100
AcDbLine
 62
7
  6
CONTINUOUS
 10
-2.4322529429
 20
-21.3167553797
 11
2.3677470571
 21
-21.3167553797
  0
LINE
  5
27E
100
AcDbEntity
  8
DRAFT
100
AcDbLine
 62
7
  6
CONTINUOUS
 10
-5.6932321117
 20
-21.2433475974
 11
5.628726226
 21
-21.2433475974
  0
LINE
  5
27F
100
AcDbEntity
  8
0
100
AcDbLine
 62
7
  6
CONTINUOUS
 10
-5.6932321117
 20
-21.2433475974
 11
5.628726226
 21
-21.2433475974
  0
LINE
  5
280
100
AcDbEntity
  8
RACCORDO
100
AcDbLine
 62
253
  6
CONTINUOUS
 10
7.2107255557
 20
-21.18938993
 11
6.5247685586
 21
-21.18938993
  0
LINE
  5
281
100
AcDbEntity
  8
RACCORDO
100
AcDbLine
 62
253
  6
CONTINUOUS
 10
-6.5892744443
 20
-21.18938993
 11
-7.2752314414
 21
-21.18938993
  0
LINE
  5
282
100
AcDbEntity
  8
DRAFT
100
AcDbLine
 62
7
  6
CONTINUOUS
 10
7.3677470571
 20
-21.1323684286
 11
5.7177470571
 21
-21.1323684286
  0
LINE
  5
283
100
AcDbEntity
  8
0
100
AcDbLine
 62
7
  6
CONTINUOUS
 10
7.3677470571
 20
-21.1323684286
 11
5.7177470571
 21
-21.1323684286
  0
LINE
  5
284
100
AcDbEntity
  8
DRAFT
100
AcDbLine
 62
7
  6
CONTINUOUS
 10
-5.7822529429
 20
-21.1323684286
 11
-7.4322529429
 21
-21.1323684286
  0
LINE
  5
285
100
AcDbEntity
  8
0
100
AcDbLine
 62
7
  6
CONTINUOUS
 10
-5.7822529429
 20
-21.1323684286
 11
-7.4322529429
 21
-21.1323684286
  0
LINE
  5
286
100
AcDbEntity
  8
DRAFT
100
AcDbLine
 62
7
  6
CONTINUOUS
 10
-7.521273774
 20
-21.0433475974
 11
-5.6932321117
 21
-21.0433475974
  0
LINE
  5
287
100
AcDbEntity
  8
0
100
AcDbLine
 62
7
  6
CONTINUOUS
 10
-7.521273774
 20
-21.0433475974
 11
-5.6932321117
 21
-21.0433475974
  0
LINE
  5
288
100
AcDbEntity
  8
DRAFT
100
AcDbLine
 62
7
  6
CONTINUOUS
 10
5.628726226
 20
-21.0433475974
 11
7.4567678883
 21
-21.0433475974
  0
LINE
  5
289
100
AcDbEntity
  8
0
100
AcDbLine
 62
7
  6
CONTINUOUS
 10
5.628726226
 20
-21.0433475974
 11
7.4567678883
 21
-21.0433475974
  0
LINE
  5
28A
100
AcDbEntity
  8
ASSI
100
AcDbLine
 62
7
  6
CONTINUOUS
 10
-3.9602229305
 20
-24.6887262433
 11
-3.8649091947
 21
-24.7918137903
  0
LINE
  5
28B
100
AcDbEntity
  8
ASSI
100
AcDbLine
 62
7
  6
CONTINUOUS
 10
-3.8649091947
 20
-24.7918137903
 11
-3.7759233489
 21
-24.8886618608
  0
LINE
  5
28C
100
AcDbEntity
  8
ASSI
100
AcDbLine
 62
7
  6
CONTINUOUS
 10
-3.7759233489
 20
-24.8886618608
 11
-3.7174758006
 21
-24.9529247975
  0
LINE
  5
28D
100
AcDbEntity
  8
ASSI
100
AcDbLine
 62
7
  6
CONTINUOUS
 10
-3.7174758006
 20
-24.9529247975
 11
-3.6832491522
 21
-24.9909887072
  0
LINE
  5
28E
100
AcDbEntity
  8
ASSI
100
AcDbLine
 62
7
  6
CONTINUOUS
 10
-3.6832491522
 20
-24.9909887072
 11
-3.6528764432
 21
-25.0251951832
  0
LWPOLYLINE
  5
28F
100
AcDbEntity
  8
ASSI
100
AcDbPolyline
 62
7
  6
CONTINUOUS
 90
18
 70
0
 10
-3.6528764432
 20
-25.0251951832
 10
-3.6263424356
 20
-25.055546089
 10
-3.614444633
 20
-25.0693660681
 10
-3.6034370541
 20
-25.0823053072
 10
-3.5933068913
 20
-25.0943655577
 10
-3.584003781
 20
-25.1056260565
 10
-3.5755235921
 20
-25.1160883534
 10
-3.5678530246
 20
-25.1257508985
 10
-3.560944794
 20
-25.1346882792
 10
-3.5547837385
 20
-25.1429200262
 10
-3.5493829386
 20
-25.1504266087
 10
-3.5447434337
 20
-25.1572240215
 10
-3.5408552103
 20
-25.1633041592
 10
-3.5377075106
 20
-25.1686751271
 10
-3.5352913754
 20
-25.173377236
 10
-3.5335902014
 20
-25.1774239227
 10
-3.5325838925
 20
-25.1808017503
 10
-3.5322529429
 20
-25.1835107189
  0
LINE
  5
290
100
AcDbEntity
  8
DRAFT
100
AcDbLine
 62
7
  6
CONTINUOUS
 10
-7.2740746447
 20
-22.4283639743
 11
-7.3310906175
 21
-22.342838809
  0
LINE
  5
291
100
AcDbEntity
  8
DRAFT
100
AcDbLine
 62
7
  6
CONTINUOUS
 10
-8.278765652
 20
19.4781019519
 11
-8.2822529429
 21
19.4676315714
  0
LINE
  5
292
100
AcDbEntity
  8
ASSI
100
AcDbLine
 62
7
  6
CONTINUOUS
 10
4.3677470571
 20
22.3676315714
 11
4.3240964103
 21
22.3239809246
  0
LINE
  5
293
100
AcDbEntity
  8
0
100
AcDbLine
 62
253
  6
CONTINUOUS
 10
10.9742633445
 20
-17.5180831026
 11
10.9671577218
 21
-17.5180831026
  0
LINE
  5
294
100
AcDbEntity
  8
0
100
AcDbLine
 62
253
  6
CONTINUOUS
 10
-11.0426124234
 20
-17.4323684286
 11
-11.0653040078
 21
-17.4323684286
  0
LINE
  5
295
100
AcDbEntity
  8
0
100
AcDbLine
 62
253
  6
CONTINUOUS
 10
10.9908431306
 20
-17.3823684286
 11
10.9837375074
 21
-17.3823684286
  0
LINE
  5
296
100
AcDbEntity
  8
0
100
AcDbLine
 62
253
  6
CONTINUOUS
 10
-11.0620623531
 20
-16.7108684286
 11
-11.0555790437
 21
-16.7108684286
  0
LINE
  5
297
100
AcDbEntity
  8
0
100
AcDbLine
 62
253
  6
CONTINUOUS
 10
10.9624206399
 20
-16.5680831026
 11
10.9955802121
 21
-16.5680831026
  0
LINE
  5
298
100
AcDbEntity
  8
ASSI
100
AcDbLine
 62
7
  6
CONTINUOUS
 10
4.3677470571
 20
-25.2323684286
 11
4.3240964103
 21
-25.1887177817
  0
LINE
  5
299
100
AcDbEntity
  8
DRAFT
100
AcDbLine
 62
7
  6
CONTINUOUS
 10
-8.278765652
 20
-22.342838809
 11
-8.2822529429
 21
-22.3323684286
  0
LINE
  5
29A
100
AcDbEntity
  8
0
100
AcDbLine
 62
253
  6
CONTINUOUS
 10
-11.0426124234
 20
-16.2985827389
 11
-11.0653040078
 21
-15.8862970491
  0
LINE
  5
29B
100
AcDbEntity
  8
0
100
AcDbLine
 62
253
  6
CONTINUOUS
 10
-11.0453138025
 20
-13.6187256697
 11
-11.0463943543
 21
-13.5843683139
  0
LINE
  5
29C
100
AcDbEntity
  8
0
100
AcDbLine
 62
253
  6
CONTINUOUS
 10
-11.0447735267
 20
-13.4812969345
 11
-11.0436929751
 21
-13.5156542903
  0
LINE
  5
29D
100
AcDbEntity
  8
0
100
AcDbLine
 62
253
  6
CONTINUOUS
 10
-11.0453138025
 20
-7.0565109581
 11
-11.0463943543
 21
-7.0221539463
  0
LINE
  5
29E
100
AcDbEntity
  8
0
100
AcDbLine
 62
253
  6
CONTINUOUS
 10
-11.0447735267
 20
-6.9190829109
 11
-11.0436929751
 21
-6.9534399227
  0
LINE
  5
29F
100
AcDbEntity
  8
0
100
AcDbLine
 62
253
  6
CONTINUOUS
 10
-11.0555790437
 20
-16.7108684286
 11
-11.0523373883
 21
-16.9170112734
  0
LINE
  5
2A0
100
AcDbEntity
  8
0
100
AcDbLine
 62
253
  6
CONTINUOUS
 10
-11.0555790437
 20
-11.1450111874
 11
-11.0523373883
 21
-11.3511539463
  0
LINE
  5
2A1
100
AcDbEntity
  8
0
100
AcDbLine
 62
253
  6
CONTINUOUS
 10
-11.0458540785
 20
-7.8467256697
 11
-11.0426124234
 21
-8.0528684286
  0
LINE
  5
2A2
100
AcDbEntity
  8
0
100
AcDbLine
 62
7
  6
CONTINUOUS
 10
-11.1822529429
 20
16.2393306201
 11
-11.1822529429
 21
-19.1040674773
  0
LINE
  5
2A3
100
AcDbEntity
  8
RACCORDO
100
AcDbLine
 62
7
  6
CONTINUOUS
 10
-11.1822529429
 20
-23.3735558883
 11
-11.1822529429
 21
20.5088190312
  0
LINE
  5
2A4
100
AcDbEntity
  8
0
100
AcDbLine
 62
253
  6
CONTINUOUS
 10
-11.0653040078
 20
10.958845595
 11
-11.0653040078
 21
10.1342745596
  0
LINE
  5
2A5
100
AcDbEntity
  8
0
100
AcDbLine
 62
253
  6
CONTINUOUS
 10
-11.0653040078
 20
-14.2371542903
 11
-11.0653040078
 21
-15.0617254977
  0
LINE
  5
2A6
100
AcDbEntity
  8
0
100
AcDbLine
 62
253
  6
CONTINUOUS
 10
-11.0653040078
 20
-17.4323684286
 11
-11.0653040078
 21
-16.9170112734
  0
LINE
  5
2A7
100
AcDbEntity
  8
0
100
AcDbLine
 62
253
  6
CONTINUOUS
 10
-11.0653040078
 20
-11.8665111874
 11
-11.0653040078
 21
-11.3511539463
  0
LINE
  5
2A8
100
AcDbEntity
  8
0
100
AcDbLine
 62
253
  6
CONTINUOUS
 10
-11.0653040078
 20
-10.7327256697
 11
-11.0653040078
 21
-10.1142967051
  0
LINE
  5
2A9
100
AcDbEntity
  8
0
100
AcDbLine
 62
253
  6
CONTINUOUS
 10
-11.0653040078
 20
-8.5682256697
 11
-11.0653040078
 21
-8.0528684286
  0
LINE
  5
2AA
100
AcDbEntity
  8
0
100
AcDbLine
 62
253
  6
CONTINUOUS
 10
-11.0653040078
 20
2.5413458817
 11
-11.0653040078
 21
3.0567029509
  0
LINE
  5
2AB
100
AcDbEntity
  8
0
100
AcDbLine
 62
253
  6
CONTINUOUS
 10
-11.0653040078
 20
3.8469173185
 11
-11.0653040078
 21
4.4653459391
  0
LINE
  5
2AC
100
AcDbEntity
  8
0
100
AcDbLine
 62
253
  6
CONTINUOUS
 10
-11.0555790437
 20
-10.7327256697
 11
-11.0555790437
 21
-10.320440152
  0
LINE
  5
2AD
100
AcDbEntity
  8
0
100
AcDbLine
 62
253
  6
CONTINUOUS
 10
-11.0555790437
 20
3.8469173185
 11
-11.0555790437
 21
4.2592028362
  0
LINE
  5
2AE
100
AcDbEntity
  8
0
100
AcDbLine
 62
253
  6
CONTINUOUS
 10
-11.0523373883
 20
-11.3511539463
 11
-11.0523373883
 21
-11.8665111874
  0
LINE
  5
2AF
100
AcDbEntity
  8
0
100
AcDbLine
 62
253
  6
CONTINUOUS
 10
-11.0523373883
 20
-16.9170112734
 11
-11.0523373883
 21
-17.4323684286
  0
LINE
  5
2B0
100
AcDbEntity
  8
0
100
AcDbLine
 62
253
  6
CONTINUOUS
 10
-11.0490957336
 20
12.0582741009
 11
-11.0490957336
 21
11.508559848
  0
LINE
  5
2B1
100
AcDbEntity
  8
0
100
AcDbLine
 62
253
  6
CONTINUOUS
 10
-11.0490957336
 20
1.9916316288
 11
-11.0490957336
 21
1.4419172898
  0
LINE
  5
2B2
100
AcDbEntity
  8
0
100
AcDbLine
 62
253
  6
CONTINUOUS
 10
-11.0490957336
 20
-15.6114399227
 11
-11.0490957336
 21
-16.1611541756
  0
LINE
  5
2B3
100
AcDbEntity
  8
0
100
AcDbLine
 62
253
  6
CONTINUOUS
 10
-11.0463943543
 20
-13.5843683139
 11
-11.0463943543
 21
-13.5156542903
  0
LINE
  5
2B4
100
AcDbEntity
  8
0
100
AcDbLine
 62
253
  6
CONTINUOUS
 10
-11.0463943543
 20
-7.0221539463
 11
-11.0463943543
 21
-6.9534399227
  0
LINE
  5
2B5
100
AcDbEntity
  8
0
100
AcDbLine
 62
253
  6
CONTINUOUS
 10
-11.0436929751
 20
-6.9534399227
 11
-11.0436929751
 21
-7.0221539463
  0
LINE
  5
2B6
100
AcDbEntity
  8
0
100
AcDbLine
 62
253
  6
CONTINUOUS
 10
-11.0436929751
 20
-13.5156542903
 11
-11.0436929751
 21
-13.5843683139
  0
LINE
  5
2B7
100
AcDbEntity
  8
0
100
AcDbLine
 62
253
  6
CONTINUOUS
 10
-11.0426124234
 20
13.123345595
 11
-11.0426124234
 21
12.6079890419
  0
LINE
  5
2B8
100
AcDbEntity
  8
0
100
AcDbLine
 62
253
  6
CONTINUOUS
 10
-11.0426124234
 20
4.4653459391
 11
-11.0426124234
 21
3.8469173185
  0
LINE
  5
2B9
100
AcDbEntity
  8
0
100
AcDbLine
 62
253
  6
CONTINUOUS
 10
-11.0426124234
 20
3.0567029509
 11
-11.0426124234
 21
2.5413458817
  0
LINE
  5
2BA
100
AcDbEntity
  8
0
100
AcDbLine
 62
253
  6
CONTINUOUS
 10
-11.0426124234
 20
-8.0528684286
 11
-11.0426124234
 21
-8.5682256697
  0
LINE
  5
2BB
100
AcDbEntity
  8
0
100
AcDbLine
 62
253
  6
CONTINUOUS
 10
-11.0426124234
 20
-10.1142967051
 11
-11.0426124234
 21
-10.7327256697
  0
LINE
  5
2BC
100
AcDbEntity
  8
0
100
AcDbLine
 62
253
  6
CONTINUOUS
 10
-11.0653040078
 20
3.0567029509
 11
-11.0620623531
 21
3.2628457097
  0
LINE
  5
2BD
100
AcDbEntity
  8
0
100
AcDbLine
 62
253
  6
CONTINUOUS
 10
-11.0653040078
 20
13.5356311127
 11
-11.0555790437
 21
13.9479166304
  0
LWPOLYLINE
  5
2BE
100
AcDbEntity
  8
RACCORDO
100
AcDbPolyline
 62
7
  6
CONTINUOUS
 90
34
 70
0
 10
-10.6822529429
 20
22.8176358022
 10
-10.6819697926
 20
22.8295310874
 10
-10.6811209771
 20
22.841399427
 10
-10.679708417
 20
22.8532139376
 10
-10.6777353106
 20
22.8649478589
 10
-10.6752061246
 20
22.8765746102
 10
-10.6721265846
 20
22.8880678504
 10
-10.6685036642
 20
22.8994015452
 10
-10.6643455686
 20
22.9105500207
 10
-10.659661715
 20
22.9214880177
 10
-10.6544627117
 20
22.932190759
 10
-10.6487603345
 20
22.9426339997
 10
-10.642567501
 20
22.9527940773
 10
-10.6358982383
 20
22.9626479765
 10
-10.6287676536
 20
22.9721733753
 10
-10.6211919017
 20
22.9813486905
 10
-10.6131881433
 20
22.9901531375
 10
-10.6047745089
 20
22.9985667719
 10
-10.5959700619
 20
23.0065705303
 10
-10.5867947467
 20
23.0141462821
 10
-10.577269348
 20
23.0212768669
 10
-10.5674154488
 20
23.0279461296
 10
-10.5572553711
 20
23.0341389631
 10
-10.5468121305
 20
23.0398413403
 10
-10.5361093892
 20
23.0450403436
 10
-10.5251713922
 20
23.0497241972
 10
-10.5140229166
 20
23.0538822928
 10
-10.5026892219
 20
23.0575052131
 10
-10.4911959817
 20
23.0605847531
 10
-10.4795692303
 20
23.0631139391
 10
-10.467835309
 20
23.0650870456
 10
-10.4560207984
 20
23.0664996057
 10
-10.4441524589
 20
23.0673484212
 10
-10.4322571736
 20
23.0676315714
  0
LWPOLYLINE
  5
2BF
100
AcDbEntity
  8
RACCORDO
100
AcDbPolyline
 62
253
  6
CONTINUOUS
 90
31
 70
0
 10
-10.6778811089
 20
22.8132639682
 10
-10.6775397016
 20
22.8263163082
 10
-10.676516439
 20
22.8393412026
 10
-10.6748128348
 20
22.8523029771
 10
-10.6724317047
 20
22.8651686959
 10
-10.6693785913
 20
22.8779001611
 10
-10.6656631515
 20
22.8904543457
 10
-10.6612966004
 20
22.9027941496
 10
-10.6562901705
 20
22.9148885057
 10
-10.6506574219
 20
22.926704584
 10
-10.6444136203
 20
22.9382101844
 10
-10.6375759385
 20
22.9493735028
 10
-10.6301633084
 20
22.960163582
 10
-10.6221961662
 20
22.9705507079
 10
-10.6136962693
 20
22.980506545
 10
-10.6046868475
 20
22.9900038795
 10
-10.5951925543
 20
22.9990166986
 10
-10.5852394509
 20
23.0075202401
 10
-10.5748548616
 20
23.0154911483
 10
-10.5640672713
 20
23.0229075551
 10
-10.5529062453
 20
23.0297491309
 10
-10.5414023895
 20
23.0359971101
 10
-10.5295872439
 20
23.0416343584
 10
-10.5174932067
 20
23.0466454138
 10
-10.5051534505
 20
23.0510165289
 10
-10.4926018031
 20
23.0547357184
 10
-10.4798726892
 20
23.0577927796
 10
-10.4670010495
 20
23.0601793223
 10
-10.4540221921
 20
23.0618888054
 10
-10.4409716938
 20
23.0629165484
 10
-10.4278853396
 20
23.0632597374
  0
LINE
  5
2C0
100
AcDbEntity
  8
0
100
AcDbLine
 62
253
  6
CONTINUOUS
 10
-11.0653040078
 20
6.9390600773
 11
-11.0426124234
 21
7.6605600773
  0
LINE
  5
2C1
100
AcDbEntity
  8
0
100
AcDbLine
 62
253
  6
CONTINUOUS
 10
-11.0653040078
 20
0.0676315714
 11
-11.0523373883
 21
0.4799173041
  0
LINE
  5
2C2
100
AcDbEntity
  8
0
100
AcDbLine
 62
253
  6
CONTINUOUS
 10
-11.0653040078
 20
11.7834166304
 11
-11.0426124234
 21
12.1957035242
  0
LINE
  5
2C3
100
AcDbEntity
  8
0
100
AcDbLine
 62
253
  6
CONTINUOUS
 10
-11.0653040078
 20
1.7167745023
 11
-11.0426124234
 21
2.129060192
  0
LINE
  5
2C4
100
AcDbEntity
  8
ASSI
100
AcDbLine
 62
7
  6
CONTINUOUS
 10
4.2289847689
 20
22.1901011779
 11
4.2024215916
 21
22.159730257
  0
LINE
  5
2C5
100
AcDbEntity
  8
ASSI
100
AcDbLine
 62
7
  6
CONTINUOUS
 10
4.2024215916
 20
22.159730257
 11
4.1720268353
 21
22.1255086409
  0
LINE
  5
2C6
100
AcDbEntity
  8
ASSI
100
AcDbLine
 62
7
  6
CONTINUOUS
 10
4.1720268353
 20
22.1255086409
 11
4.1378056672
 21
22.0874593382
  0
LINE
  5
2C7
100
AcDbEntity
  8
ASSI
100
AcDbLine
 62
7
  6
CONTINUOUS
 10
4.1378056672
 20
22.0874593382
 11
4.0794669154
 21
22.0233247787
  0
LINE
  5
2C8
100
AcDbEntity
  8
ASSI
100
AcDbLine
 62
7
  6
CONTINUOUS
 10
4.0794669154
 20
22.0233247787
 11
3.8957170448
 21
21.8239893861
  0
LINE
  5
2C9
100
AcDbEntity
  8
RACCORDO
100
AcDbLine
 62
253
  6
CONTINUOUS
 10
10.5320498376
 20
17.6533287909
 11
10.3574991883
 21
17.5810275447
  0
LINE
  5
2CA
100
AcDbEntity
  8
0
100
AcDbLine
 62
253
  6
CONTINUOUS
 10
10.5320498376
 20
17.6533287909
 11
10.3574991883
 21
17.5810275447
  0
LINE
  5
2CB
100
AcDbEntity
  8
0
100
AcDbLine
 62
253
  6
CONTINUOUS
 10
-11.0653040078
 20
-14.649439808
 11
-11.0426124234
 21
-14.649439808
  0
LINE
  5
2CC
100
AcDbEntity
  8
RACCORDO
100
AcDbLine
 62
253
  6
CONTINUOUS
 10
10.3574991883
 20
-20.4457644018
 11
10.5320498376
 21
-20.5180656481
  0
LINE
  5
2CD
100
AcDbEntity
  8
0
100
AcDbLine
 62
253
  6
CONTINUOUS
 10
10.3574991883
 20
-20.4457644018
 11
10.5320498376
 21
-20.5180656481
  0
LINE
  5
2CE
100
AcDbEntity
  8
ASSI
100
AcDbLine
 62
7
  6
CONTINUOUS
 10
3.8957170448
 20
-24.6887262433
 11
3.9907182596
 21
-24.791475493
  0
LINE
  5
2CF
100
AcDbEntity
  8
ASSI
100
AcDbLine
 62
7
  6
CONTINUOUS
 10
3.9907182596
 20
-24.791475493
 11
4.079374987
 21
-24.887960535
  0
LINE
  5
2D0
100
AcDbEntity
  8
ASSI
100
AcDbLine
 62
7
  6
CONTINUOUS
 10
4.079374987
 20
-24.887960535
 11
4.1376692069
 21
-24.9520454367
  0
LINE
  5
2D1
100
AcDbEntity
  8
ASSI
100
AcDbLine
 62
7
  6
CONTINUOUS
 10
4.1376692069
 20
-24.9520454367
 11
4.1718478344
 21
-24.9900456972
  0
LINE
  5
2D2
100
AcDbEntity
  8
ASSI
100
AcDbLine
 62
7
  6
CONTINUOUS
 10
4.1718478344
 20
-24.9900456972
 11
4.2022092445
 21
-25.0242263336
  0
LWPOLYLINE
  5
2D3
100
AcDbEntity
  8
ASSI
100
AcDbPolyline
 62
7
  6
CONTINUOUS
 90
18
 70
0
 10
4.2022092445
 20
-25.0242263336
 10
4.2287591286
 20
-25.0545779754
 10
4.2406735465
 20
-25.0684067131
 10
4.2517037653
 20
-25.0813601275
 10
4.2618615236
 20
-25.0934395125
 10
4.2711942709
 20
-25.1047208275
 10
4.2797055633
 20
-25.1152037743
 10
4.2874105657
 20
-25.1248886511
 10
4.2943579522
 20
-25.1338523121
 10
4.3005632022
 20
-25.1421144215
 10
4.3060138914
 20
-25.1496553152
 10
4.3107102729
 20
-25.1564928547
 10
4.3146623919
 20
-25.1626197174
 10
4.3178806947
 20
-25.168043226
 10
4.3203741061
 20
-25.1728032109
 10
4.3221587959
 20
-25.1769129488
 10
4.3232543417
 20
-25.1803591629
 10
4.3236797899
 20
-25.1831418533
  0
LINE
  5
2D4
100
AcDbEntity
  8
0
100
AcDbLine
 62
253
  6
CONTINUOUS
 10
-11.0426124234
 20
1.3044887266
 11
-11.0653040078
 21
1.7167745023
  0
LINE
  5
2D5
100
AcDbEntity
  8
0
100
AcDbLine
 62
253
  6
CONTINUOUS
 10
-11.0426124234
 20
11.3711318008
 11
-11.0653040078
 21
11.7834166304
  0
LWPOLYLINE
  5
2D6
100
AcDbEntity
  8
RACCORDO
100
AcDbPolyline
 62
253
  6
CONTINUOUS
 90
31
 70
0
 10
-10.6778811089
 20
22.4119691387
 10
-10.6775017771
 20
22.4006589882
 10
-10.6764407952
 20
22.3893797233
 10
-10.6747010603
 20
22.3781621454
 10
-10.6722873234
 20
22.3670368874
 10
-10.6692061758
 20
22.3560343299
 10
-10.6654660315
 20
22.3451845186
 10
-10.6610771041
 20
22.3345170822
 10
-10.6560513789
 20
22.3240611511
 10
-10.6504025799
 20
22.3138452783
 10
-10.6441461329
 20
22.3038973612
 10
-10.637299123
 20
22.2942445656
 10
-10.6298802479
 20
22.2849132511
 10
-10.6219097669
 20
22.2759288996
 10
-10.6134094459
 20
22.2673160456
 10
-10.6044024974
 20
22.2590982088
 10
-10.5949135175
 20
22.2512978306
 10
-10.5849684186
 20
22.2439362121
 10
-10.5745943587
 20
22.2370334563
 10
-10.5638196671
 20
22.2306084133
 10
-10.5526737674
 20
22.2246786284
 10
-10.5411870966
 20
22.2192602947
 10
-10.5293910225
 20
22.2143682085
 10
-10.5173177575
 20
22.210015729
 10
-10.5050002714
 20
22.2062147421
 10
-10.4924722005
 20
22.2029756273
 10
-10.4797677564
 20
22.2003072301
 10
-10.4669216324
 20
22.1982168372
 10
-10.4539689083
 20
22.1967101571
 10
-10.4409449555
 20
22.1957913042
 10
-10.4278853396
 20
22.1954627878
  0
LINE
  5
2D7
100
AcDbEntity
  8
0
100
AcDbLine
 62
253
  6
CONTINUOUS
 10
-11.0523373883
 20
0.4799173041
 11
-11.0653040078
 21
0.8922030369
  0
LINE
  5
2D8
100
AcDbEntity
  8
0
100
AcDbLine
 62
253
  6
CONTINUOUS
 10
-11.0653040078
 20
14.3602035242
 11
-11.0555790437
 21
13.9479166304
  0
LINE
  5
2D9
100
AcDbEntity
  8
0
100
AcDbLine
 62
253
  6
CONTINUOUS
 10
-9.8224018846
 20
12.9962030221
 11
-9.8098080568
 21
12.4390601595
  0
LINE
  5
2DA
100
AcDbEntity
  8
0
100
AcDbLine
 62
253
  6
CONTINUOUS
 10
-9.7506017202
 20
-2.2037969838
 11
-9.7558606838
 21
-1.9323684286
  0
LINE
  5
2DB
100
AcDbEntity
  8
0
100
AcDbLine
 62
253
  6
CONTINUOUS
 10
-9.9181902927
 20
15.1819172968
 11
-9.921788531
 21
15.3676315714
  0
LINE
  5
2DC
100
AcDbEntity
  8
0
100
AcDbLine
 62
253
  6
CONTINUOUS
 10
-9.820602767
 20
12.0676315714
 11
-9.8224018846
 21
12.1604887184
  0
LINE
  5
2DD
100
AcDbEntity
  8
0
100
AcDbLine
 62
253
  6
CONTINUOUS
 10
-9.8098080568
 20
13.2747743954
 11
-9.8116071744
 21
13.3676315714
  0
LINE
  5
2DE
100
AcDbEntity
  8
0
100
AcDbLine
 62
253
  6
CONTINUOUS
 10
-11.0458540785
 20
3.2628457097
 11
-11.0426124234
 21
3.0567029509
  0
LINE
  5
2DF
100
AcDbEntity
  8
0
100
AcDbLine
 62
253
  6
CONTINUOUS
 10
-9.837832161
 20
-3.8323684286
 11
-9.8588680088
 21
-1.9323684286
  0
LINE
  5
2E0
100
AcDbEntity
  8
0
100
AcDbLine
 62
253
  6
CONTINUOUS
 10
-9.9589952478
 20
12.0676315714
 11
-9.9733881963
 21
13.3676315714
  0
LINE
  5
2E1
100
AcDbEntity
  8
RACCORDO
100
AcDbLine
 62
253
  6
CONTINUOUS
 10
-10.6778811089
 20
-25.2767059959
 11
-10.6822529429
 21
-24.8428535768
  0
LINE
  5
2E2
100
AcDbEntity
  8
RACCORDO
100
AcDbLine
 62
253
  6
CONTINUOUS
 10
-10.4278853396
 20
-25.0601996449
 11
-10.4329759407
 21
-24.5550181594
  0
LINE
  5
2E3
100
AcDbEntity
  8
RACCORDO
100
AcDbLine
 62
7
  6
CONTINUOUS
 10
-11.0077022936
 20
-19.031766231
 11
-11.0077022936
 21
16.1670293739
  0
LINE
  5
2E4
100
AcDbEntity
  8
0
100
AcDbLine
 62
7
  6
CONTINUOUS
 10
-11.0077022936
 20
-19.031766231
 11
-11.0077022936
 21
16.1670293739
  0
LINE
  5
2E5
100
AcDbEntity
  8
RACCORDO
100
AcDbLine
 62
7
  6
CONTINUOUS
 10
-10.6822529429
 20
-23.8323684286
 11
-10.6822529429
 21
-25.6823726594
  0
LINE
  5
2E6
100
AcDbEntity
  8
RACCORDO
100
AcDbLine
 62
7
  6
CONTINUOUS
 10
-10.6822529429
 20
20.9676315714
 11
-10.6822529429
 21
22.8176358022
  0
LINE
  5
2E7
100
AcDbEntity
  8
RACCORDO
100
AcDbLine
 62
253
  6
CONTINUOUS
 10
-10.6778811089
 20
22.8132639682
 11
-10.6778811089
 21
22.4119691387
  0
LINE
  5
2E8
100
AcDbEntity
  8
RACCORDO
100
AcDbLine
 62
253
  6
CONTINUOUS
 10
-10.6778811089
 20
-25.2767059959
 11
-10.6778811089
 21
-25.6780008254
  0
LINE
  5
2E9
100
AcDbEntity
  8
RACCORDO
100
AcDbLine
 62
253
  6
CONTINUOUS
 10
-10.4278853396
 20
-25.0601996449
 11
-10.4278853396
 21
-25.9279965946
  0
LINE
  5
2EA
100
AcDbEntity
  8
RACCORDO
100
AcDbLine
 62
253
  6
CONTINUOUS
 10
-10.4278853396
 20
22.1954627878
 11
-10.4278853396
 21
23.0632597374
  0
LINE
  5
2EB
100
AcDbEntity
  8
RACCORDO
100
AcDbLine
 62
7
  6
CONTINUOUS
 10
-10.0822529429
 20
-6.5325207334
 11
-10.0822529429
 21
17.0677838763
  0
LINE
  5
2EC
100
AcDbEntity
  8
0
100
AcDbLine
 62
7
  6
CONTINUOUS
 10
-10.0822529429
 20
-6.5325207334
 11
-10.0822529429
 21
17.0677838763
  0
LINE
  5
2ED
100
AcDbEntity
  8
0
100
AcDbLine
 62
253
  6
CONTINUOUS
 10
-9.987781144
 20
13.3676315714
 11
-9.987781144
 21
12.0676315714
  0
LINE
  5
2EE
100
AcDbEntity
  8
0
100
AcDbLine
 62
253
  6
CONTINUOUS
 10
-9.9469761897
 20
14.0676315714
 11
-9.9469761897
 21
15.3676315714
  0
LINE
  5
2EF
100
AcDbEntity
  8
0
100
AcDbLine
 62
253
  6
CONTINUOUS
 10
-9.9408669169
 20
6.4676315714
 11
-9.9408669169
 21
10.0676315714
  0
LINE
  5
2F0
100
AcDbEntity
  8
0
100
AcDbLine
 62
253
  6
CONTINUOUS
 10
-9.923411852
 20
5.4676315714
 11
-9.923411852
 21
6.4676315714
  0
LINE
  5
2F1
100
AcDbEntity
  8
0
100
AcDbLine
 62
253
  6
CONTINUOUS
 10
-9.9181902927
 20
14.9962030221
 11
-9.9181902927
 21
15.1819172968
  0
LINE
  5
2F2
100
AcDbEntity
  8
0
100
AcDbLine
 62
253
  6
CONTINUOUS
 10
-9.9173025793
 20
8.5676315714
 11
-9.9173025793
 21
12.0676315714
  0
LINE
  5
2F3
100
AcDbEntity
  8
0
100
AcDbLine
 62
253
  6
CONTINUOUS
 10
-9.9068295403
 20
14.0676315714
 11
-9.9068295403
 21
8.5676315714
  0
LINE
  5
2F4
100
AcDbEntity
  8
0
100
AcDbLine
 62
253
  6
CONTINUOUS
 10
-9.8963565014
 20
8.5676315714
 11
-9.8963565014
 21
14.0676315714
  0
LINE
  5
2F5
100
AcDbEntity
  8
0
100
AcDbLine
 62
253
  6
CONTINUOUS
 10
-9.8858834624
 20
12.0676315714
 11
-9.8858834624
 21
8.5676315714
  0
LINE
  5
2F6
100
AcDbEntity
  8
0
100
AcDbLine
 62
253
  6
CONTINUOUS
 10
-9.8850107092
 20
14.0676315714
 11
-9.8850107092
 21
15.3676315714
  0
LINE
  5
2F7
100
AcDbEntity
  8
0
100
AcDbLine
 62
253
  6
CONTINUOUS
 10
-9.8799038554
 20
-1.9323684286
 11
-9.8799038554
 21
-3.8323684286
  0
LINE
  5
2F8
100
AcDbEntity
  8
0
100
AcDbLine
 62
253
  6
CONTINUOUS
 10
-9.8797741897
 20
6.4676315714
 11
-9.8797741897
 21
5.4676315714
  0
LINE
  5
2F9
100
AcDbEntity
  8
0
100
AcDbLine
 62
253
  6
CONTINUOUS
 10
-9.8623191248
 20
10.0676315714
 11
-9.8623191248
 21
6.4676315714
  0
LINE
  5
2FA
100
AcDbEntity
  8
0
100
AcDbLine
 62
253
  6
CONTINUOUS
 10
-9.8616221696
 20
15.3676315714
 11
-9.8616221696
 21
14.0676315714
  0
LINE
  5
2FB
100
AcDbEntity
  8
0
100
AcDbLine
 62
253
  6
CONTINUOUS
 10
-9.8367948324
 20
13.3676315714
 11
-9.8367948324
 21
12.0676315714
  0
LINE
  5
2FC
100
AcDbEntity
  8
0
100
AcDbLine
 62
253
  6
CONTINUOUS
 10
-9.8224018846
 20
13.1819172968
 11
-9.8224018846
 21
12.9962030221
  0
LINE
  5
2FD
100
AcDbEntity
  8
0
100
AcDbLine
 62
253
  6
CONTINUOUS
 10
-9.8098080568
 20
12.4390601595
 11
-9.8098080568
 21
12.2533458654
  0
LINE
  5
2FE
100
AcDbEntity
  8
0
100
AcDbLine
 62
253
  6
CONTINUOUS
 10
-9.7926734157
 20
-3.8323684286
 11
-9.7926734157
 21
-1.9323684286
  0
LINE
  5
2FF
100
AcDbEntity
  8
0
100
AcDbLine
 62
253
  6
CONTINUOUS
 10
-9.7506017202
 20
-2.4752255391
 11
-9.7506017202
 21
-2.2037969838
  0
LINE
  5
300
100
AcDbEntity
  8
RACCORDO
100
AcDbLine
 62
253
  6
CONTINUOUS
 10
-9.7049189075
 20
16.6904498409
 11
-9.7049189075
 21
3.762297426
  0
LINE
  5
301
100
AcDbEntity
  8
0
100
AcDbLine
 62
253
  6
CONTINUOUS
 10
-9.7049189075
 20
16.6904498409
 11
-9.7049189075
 21
3.762297426
  0
LINE
  5
302
100
AcDbEntity
  8
RACCORDO
100
AcDbLine
 62
253
  6
CONTINUOUS
 10
-9.7049189075
 20
-0.4270342831
 11
-9.7049189075
 21
-6.1551866981
  0
LINE
  5
303
100
AcDbEntity
  8
0
100
AcDbLine
 62
253
  6
CONTINUOUS
 10
-9.7049189075
 20
-0.4270342831
 11
-9.7049189075
 21
-6.1551866981
  0
LINE
  5
304
100
AcDbEntity
  8
DRAFT
100
AcDbLine
 62
7
  6
CONTINUOUS
 10
-9.6822529429
 20
-21.5813394824
 11
-9.6822529429
 21
-21.4323684286
  0
LINE
  5
305
100
AcDbEntity
  8
DRAFT
100
AcDbLine
 62
7
  6
CONTINUOUS
 10
-9.6822529429
 20
18.5676315714
 11
-9.6822529429
 21
18.7166026252
  0
LINE
  5
306
100
AcDbEntity
  8
RACCORDO
100
AcDbLine
 62
253
  6
CONTINUOUS
 10
-10.6822529429
 20
21.9781167196
 11
-10.6778811089
 21
22.4119691387
  0
LINE
  5
307
100
AcDbEntity
  8
RACCORDO
100
AcDbLine
 62
253
  6
CONTINUOUS
 10
-10.4329759407
 20
21.6902813022
 11
-10.4278853396
 21
22.1954627878
  0
LINE
  5
308
100
AcDbEntity
  8
0
100
AcDbLine
 62
253
  6
CONTINUOUS
 10
-9.9589952478
 20
13.3676315714
 11
-9.9733881963
 21
12.0676315714
  0
LINE
  5
309
100
AcDbEntity
  8
0
100
AcDbLine
 62
253
  6
CONTINUOUS
 10
-9.837832161
 20
-1.9323684286
 11
-9.8588680088
 21
-3.8323684286
  0
LINE
  5
30A
100
AcDbEntity
  8
0
100
AcDbLine
 62
253
  6
CONTINUOUS
 10
-9.9271858868
 20
15.3676315714
 11
-9.9307841236
 21
15.0890601207
  0
LINE
  5
30B
100
AcDbEntity
  8
0
100
AcDbLine
 62
253
  6
CONTINUOUS
 10
-9.7637491269
 20
-1.9323684286
 11
-9.7690080883
 21
-2.3395113181
  0
LINE
  5
30C
100
AcDbEntity
  8
0
100
AcDbLine
 62
253
  6
CONTINUOUS
 10
-9.9307841236
 20
14.0676315714
 11
-9.9181902927
 21
14.9962030221
  0
LINE
  5
30D
100
AcDbEntity
  8
0
100
AcDbLine
 62
253
  6
CONTINUOUS
 10
-9.7690080883
 20
-3.8323684286
 11
-9.7506017202
 21
-2.4752255391
  0
LWPOLYLINE
  5
30E
100
AcDbEntity
  8
RACCORDO
100
AcDbPolyline
 62
253
  6
CONTINUOUS
 90
58
 70
0
 10
-9.7049189075
 20
16.6904498409
 10
-9.7045310298
 20
16.7179946471
 10
-9.7033844706
 20
16.7455185443
 10
-9.7014801004
 20
16.7730006393
 10
-9.6988193646
 20
16.8004200707
 10
-9.695404283
 20
16.8277560246
 10
-9.691237448
 20
16.8549877506
 10
-9.6863220226
 20
16.8820945772
 10
-9.6806617381
 20
16.9090559279
 10
-9.6742608911
 20
16.9358513367
 10
-9.6671243404
 20
16.9624604632
 10
-9.6592575034
 20
16.9888631088
 10
-9.6506663517
 20
17.0150392314
 10
-9.6413574068
 20
17.0409689609
 10
-9.6313377349
 20
17.0666326144
 10
-9.6206149421
 20
17.0920107107
 10
-9.6091971677
 20
17.1170839856
 10
-9.5970930791
 20
17.1418334062
 10
-9.5843118642
 20
17.1662401853
 10
-9.5708632252
 20
17.190285796
 10
-9.5567573709
 20
17.2139519854
 10
-9.5420050088
 20
17.2372207889
 10
-9.5266173374
 20
17.2600745432
 10
-9.5106060374
 20
17.2824959002
 10
-9.4939832627
 20
17.30446784
 10
-9.4767616315
 20
17.3259736841
 10
-9.4589542168
 20
17.3469971074
 10
-9.4405745358
 20
17.3675221512
 10
-9.4216365405
 20
17.3875332352
 10
-9.4021546066
 20
17.4070151691
 10
-9.3821435226
 20
17.4259531644
 10
-9.3616184788
 20
17.4443328453
 10
-9.3405950555
 20
17.4621402601
 10
-9.3190892115
 20
17.4793618912
 10
-9.2971172716
 20
17.4959846659
 10
-9.2746959146
 20
17.511995966
 10
-9.2518421603
 20
17.5273836374
 10
-9.2285733569
 20
17.5421359995
 10
-9.2049071674
 20
17.5562418538
 10
-9.1808615567
 20
17.5696904928
 10
-9.1564547776
 20
17.5824717077
 10
-9.1317053571
 20
17.5945757963
 10
-9.1066320822
 20
17.6059935706
 10
-9.0812539858
 20
17.6167163635
 10
-9.0555903324
 20
17.6267360353
 10
-9.0296606028
 20
17.6360449803
 10
-9.0034844802
 20
17.644636132
 10
-8.9770818346
 20
17.652502969
 10
-8.9504727081
 20
17.6596395197
 10
-8.9236772994
 20
17.6660403667
 10
-8.8967159486
 20
17.6717006512
 10
-8.869609122
 20
17.6766160766
 10
-8.842377396
 20
17.6807829116
 10
-8.8150414421
 20
17.6841979931
 10
-8.7876220107
 20
17.6868587289
 10
-8.7601399157
 20
17.6887630992
 10
-8.7326160186
 20
17.6899096584
 10
-8.7050712124
 20
17.6902975361
  0
LWPOLYLINE
  5
30F
100
AcDbEntity
  8
0
100
AcDbPolyline
 62
253
  6
CONTINUOUS
 90
58
 70
0
 10
-9.7049189075
 20
16.6904498409
 10
-9.7045310298
 20
16.7179946471
 10
-9.7033844706
 20
16.7455185443
 10
-9.7014801004
 20
16.7730006393
 10
-9.6988193646
 20
16.8004200707
 10
-9.695404283
 20
16.8277560246
 10
-9.691237448
 20
16.8549877506
 10
-9.6863220226
 20
16.8820945772
 10
-9.6806617381
 20
16.9090559279
 10
-9.6742608911
 20
16.9358513367
 10
-9.6671243404
 20
16.9624604632
 10
-9.6592575034
 20
16.9888631088
 10
-9.6506663517
 20
17.0150392314
 10
-9.6413574068
 20
17.0409689609
 10
-9.6313377349
 20
17.0666326144
 10
-9.6206149421
 20
17.0920107107
 10
-9.6091971677
 20
17.1170839856
 10
-9.5970930791
 20
17.1418334062
 10
-9.5843118642
 20
17.1662401853
 10
-9.5708632252
 20
17.190285796
 10
-9.5567573709
 20
17.2139519854
 10
-9.5420050088
 20
17.2372207889
 10
-9.5266173374
 20
17.2600745432
 10
-9.5106060374
 20
17.2824959002
 10
-9.4939832627
 20
17.30446784
 10
-9.4767616315
 20
17.3259736841
 10
-9.4589542168
 20
17.3469971074
 10
-9.4405745358
 20
17.3675221512
 10
-9.4216365405
 20
17.3875332352
 10
-9.4021546066
 20
17.4070151691
 10
-9.3821435226
 20
17.4259531644
 10
-9.3616184788
 20
17.4443328453
 10
-9.3405950555
 20
17.4621402601
 10
-9.3190892115
 20
17.4793618912
 10
-9.2971172716
 20
17.4959846659
 10
-9.2746959146
 20
17.511995966
 10
-9.2518421603
 20
17.5273836374
 10
-9.2285733569
 20
17.5421359995
 10
-9.2049071674
 20
17.5562418538
 10
-9.1808615567
 20
17.5696904928
 10
-9.1564547776
 20
17.5824717077
 10
-9.1317053571
 20
17.5945757963
 10
-9.1066320822
 20
17.6059935706
 10
-9.0812539858
 20
17.6167163635
 10
-9.0555903324
 20
17.6267360353
 10
-9.0296606028
 20
17.6360449803
 10
-9.0034844802
 20
17.644636132
 10
-8.9770818346
 20
17.652502969
 10
-8.9504727081
 20
17.6596395197
 10
-8.9236772994
 20
17.6660403667
 10
-8.8967159486
 20
17.6717006512
 10
-8.869609122
 20
17.6766160766
 10
-8.842377396
 20
17.6807829116
 10
-8.8150414421
 20
17.6841979931
 10
-8.7876220107
 20
17.6868587289
 10
-8.7601399157
 20
17.6887630992
 10
-8.7326160186
 20
17.6899096584
 10
-8.7050712124
 20
17.6902975361
  0
LINE
  5
310
100
AcDbEntity
  8
0
100
AcDbLine
 62
253
  6
CONTINUOUS
 10
-11.0653040078
 20
-8.0528684286
 11
-11.0620623531
 21
-7.8467256697
  0
LINE
  5
311
100
AcDbEntity
  8
0
100
AcDbLine
 62
253
  6
CONTINUOUS
 10
-11.0653040078
 20
-11.3511539463
 11
-11.0620623531
 21
-11.1450111874
  0
LINE
  5
312
100
AcDbEntity
  8
0
100
AcDbLine
 62
253
  6
CONTINUOUS
 10
-11.0653040078
 20
-16.9170112734
 11
-11.0620623531
 21
-16.7108684286
  0
LINE
  5
313
100
AcDbEntity
  8
0
100
AcDbLine
 62
253
  6
CONTINUOUS
 10
-9.8688186431
 20
14.9962030221
 11
-9.8616221696
 21
15.3676315714
  0
LINE
  5
314
100
AcDbEntity
  8
0
100
AcDbLine
 62
253
  6
CONTINUOUS
 10
-9.8188036479
 20
13.3676315714
 11
-9.8224018846
 21
13.1819172968
  0
LINE
  5
315
100
AcDbEntity
  8
0
100
AcDbLine
 62
253
  6
CONTINUOUS
 10
-9.8098080568
 20
12.2533458654
 11
-9.813406292
 21
12.0676315714
  0
LINE
  5
316
100
AcDbEntity
  8
0
100
AcDbLine
 62
253
  6
CONTINUOUS
 10
-11.0463943543
 20
-6.9534399227
 11
-11.0453138025
 21
-6.9190829109
  0
LINE
  5
317
100
AcDbEntity
  8
0
100
AcDbLine
 62
253
  6
CONTINUOUS
 10
-11.0436929751
 20
-7.0221539463
 11
-11.0447735267
 21
-7.0565109581
  0
LINE
  5
318
100
AcDbEntity
  8
0
100
AcDbLine
 62
253
  6
CONTINUOUS
 10
-11.0653040078
 20
-9.7020111874
 11
-11.0426124234
 21
-8.9805111874
  0
LINE
  5
319
100
AcDbEntity
  8
0
100
AcDbLine
 62
253
  6
CONTINUOUS
 10
-11.0463943543
 20
-13.5156542903
 11
-11.0453138025
 21
-13.4812969345
  0
LINE
  5
31A
100
AcDbEntity
  8
0
100
AcDbLine
 62
253
  6
CONTINUOUS
 10
-11.0436929751
 20
-13.5843683139
 11
-11.0447735267
 21
-13.6187256697
  0
LWPOLYLINE
  5
31B
100
AcDbEntity
  8
RACCORDO
100
AcDbPolyline
 62
253
  6
CONTINUOUS
 90
31
 70
0
 10
-10.6778811089
 20
-25.2767059959
 10
-10.6775025532
 20
-25.2654080236
 10
-10.6764434257
 20
-25.2541377196
 10
-10.6747060491
 20
-25.2429258498
 10
-10.6722943477
 20
-25.2318020407
 10
-10.6692144775
 20
-25.2207977886
 10
-10.6654754265
 20
-25.2099462488
 10
-10.6610878821
 20
-25.1992781258
 10
-10.6560634831
 20
-25.1888214525
 10
-10.6504158025
 20
-25.1786045336
 10
-10.6441601099
 20
-25.1686551285
 10
-10.6373135353
 20
-25.1590006039
 10
-10.629894927
 20
-25.1496675805
 10
-10.621924623
 20
-25.1406816303
 10
-10.6134243282
 20
-25.1320672111
 10
-10.6044172377
 20
-25.1238478328
 10
-10.5949279341
 20
-25.1160459361
 10
-10.5849823469
 20
-25.1086828479
 10
-10.5746076641
 20
-25.101778699
 10
-10.5638322317
 20
-25.0953523524
 10
-10.5526854737
 20
-25.0894213555
 10
-10.5411978366
 20
-25.0840019081
 10
-10.5294006799
 20
-25.0791088061
 10
-10.5173262435
 20
-25.074755423
 10
-10.5050075639
 20
-25.0709536657
 10
-10.4924783285
 20
-25.0677139192
 10
-10.4797727256
 20
-25.0650450128
 10
-10.4669254048
 20
-25.0629542204
 10
-10.4539714376
 20
-25.0614472504
 10
-10.4409462238
 20
-25.060528222
 10
-10.4278853396
 20
-25.0601996449
  0
LINE
  5
31C
100
AcDbEntity
  8
0
100
AcDbLine
 62
253
  6
CONTINUOUS
 10
-11.0653040078
 20
-15.8862970491
 11
-11.0426124234
 21
-15.4740113594
  0
LINE
  5
31D
100
AcDbEntity
  8
RACCORDO
100
AcDbLine
 62
7
  6
CONTINUOUS
 10
-7.3310906175
 20
19.4781019519
 11
-7.3812749541
 21
19.0260348198
  0
LINE
  5
31E
100
AcDbEntity
  8
DRAFT
100
AcDbLine
 62
7
  6
CONTINUOUS
 10
5.7177470571
 20
18.4676315714
 11
5.628726226
 21
18.3786107403
  0
LINE
  5
31F
100
AcDbEntity
  8
0
100
AcDbLine
 62
7
  6
CONTINUOUS
 10
5.7177470571
 20
18.4676315714
 11
5.628726226
 21
18.3786107403
  0
LINE
  5
320
100
AcDbEntity
  8
RACCORDO
100
AcDbLine
 62
253
  6
CONTINUOUS
 10
10.3633794539
 20
23.0632597374
 11
10.3677512879
 21
23.0676315714
  0
LINE
  5
321
100
AcDbEntity
  8
DRAFT
100
AcDbLine
 62
7
  6
CONTINUOUS
 10
5.7177470571
 20
18.2676315714
 11
5.628726226
 21
18.1786107403
  0
LINE
  5
322
100
AcDbEntity
  8
0
100
AcDbLine
 62
7
  6
CONTINUOUS
 10
5.7177470571
 20
18.2676315714
 11
5.628726226
 21
18.1786107403
  0
LINE
  5
323
100
AcDbEntity
  8
RACCORDO
100
AcDbLine
 62
253
  6
CONTINUOUS
 10
11.1177470571
 20
16.2393306201
 11
10.9431964079
 21
16.1670293739
  0
LINE
  5
324
100
AcDbEntity
  8
0
100
AcDbLine
 62
253
  6
CONTINUOUS
 10
11.1177470571
 20
16.2393306201
 11
10.9431964079
 21
16.1670293739
  0
LINE
  5
325
100
AcDbEntity
  8
0
100
AcDbLine
 62
253
  6
CONTINUOUS
 10
11.0735503869
 20
-14.3435664286
 11
11.0229460992
 21
-14.3435664286
  0
LINE
  5
326
100
AcDbEntity
  8
0
100
AcDbLine
 62
253
  6
CONTINUOUS
 10
10.966368208
 20
-14.3061779092
 11
10.9655786944
 21
-14.3061779092
  0
LINE
  5
327
100
AcDbEntity
  8
0
100
AcDbLine
 62
253
  6
CONTINUOUS
 10
10.9655786944
 20
-14.1252257656
 11
10.966368208
 21
-14.1252257656
  0
LINE
  5
328
100
AcDbEntity
  8
0
100
AcDbLine
 62
253
  6
CONTINUOUS
 10
11.0334488759
 20
-13.7611224286
 11
11.0735503869
 21
-13.7611224286
  0
LINE
  5
329
100
AcDbEntity
  8
0
100
AcDbLine
 62
253
  6
CONTINUOUS
 10
-11.0447735267
 20
-13.6187256697
 11
-11.0453138025
 21
-13.6187256697
  0
LINE
  5
32A
100
AcDbEntity
  8
0
100
AcDbLine
 62
253
  6
CONTINUOUS
 10
-11.0453138025
 20
-13.4812969345
 11
-11.0447735267
 21
-13.4812969345
  0
LINE
  5
32B
100
AcDbEntity
  8
0
100
AcDbLine
 62
253
  6
CONTINUOUS
 10
10.9861060492
 20
-13.3109399866
 11
10.9718948038
 21
-13.3109399866
  0
LINE
  5
32C
100
AcDbEntity
  8
RACCORDO
100
AcDbLine
 62
253
  6
CONTINUOUS
 10
10.9431964079
 20
-19.031766231
 11
11.1177470571
 21
-19.1040674773
  0
LINE
  5
32D
100
AcDbEntity
  8
0
100
AcDbLine
 62
253
  6
CONTINUOUS
 10
10.9431964079
 20
-19.031766231
 11
11.1177470571
 21
-19.1040674773
  0
LINE
  5
32E
100
AcDbEntity
  8
DRAFT
100
AcDbLine
 62
7
  6
CONTINUOUS
 10
5.628726226
 20
-21.2433475974
 11
5.7177470571
 21
-21.3323684286
  0
LINE
  5
32F
100
AcDbEntity
  8
0
100
AcDbLine
 62
7
  6
CONTINUOUS
 10
5.628726226
 20
-21.2433475974
 11
5.7177470571
 21
-21.3323684286
  0
LINE
  5
330
100
AcDbEntity
  8
RACCORDO
100
AcDbLine
 62
253
  6
CONTINUOUS
 10
10.3633794539
 20
-25.9279965946
 11
10.3677512879
 21
-25.9323684286
  0
LINE
  5
331
100
AcDbEntity
  8
DRAFT
100
AcDbLine
 62
7
  6
CONTINUOUS
 10
5.7177470571
 20
-21.1323684286
 11
5.628726226
 21
-21.0433475974
  0
LINE
  5
332
100
AcDbEntity
  8
0
100
AcDbLine
 62
7
  6
CONTINUOUS
 10
5.7177470571
 20
-21.1323684286
 11
5.628726226
 21
-21.0433475974
  0
LINE
  5
333
100
AcDbEntity
  8
RACCORDO
100
AcDbLine
 62
7
  6
CONTINUOUS
 10
-7.3812749541
 20
-21.890771677
 11
-7.3310906175
 21
-22.342838809
  0
LWPOLYLINE
  5
334
100
AcDbEntity
  8
RACCORDO
100
AcDbPolyline
 62
253
  6
CONTINUOUS
 90
31
 70
0
 10
-8.2866247769
 20
-25.2767059959
 10
-8.2870041314
 20
-25.2653954882
 10
-8.2880651791
 20
-25.254115869
 10
-8.2898050224
 20
-25.2428979427
 10
-8.2922189077
 20
-25.2317723539
 10
-8.2953002437
 20
-25.220769477
 10
-8.2990406255
 20
-25.2099193343
 10
-8.3034298518
 20
-25.1992515381
 10
-8.308455934
 20
-25.1887952446
 10
-8.3141051303
 20
-25.1785790454
 10
-8.3203620021
 20
-25.1686308538
 10
-8.3272094677
 20
-25.1589778232
 10
-8.3346288318
 20
-25.149646307
 10
-8.3425998354
 20
-25.1406617861
 10
-8.3511007069
 20
-25.1320488006
 10
-8.3601082272
 20
-25.1238308754
 10
-8.369597791
 20
-25.1160304572
 10
-8.3795434867
 20
-25.1086688435
 10
-8.3899181662
 20
-25.1017661296
 10
-8.4006935187
 20
-25.0953411561
 10
-8.4118400982
 20
-25.0894114845
 10
-8.4233274125
 20
-25.0839933332
 10
-8.4351240545
 20
-25.079101506
 10
-8.4471978353
 20
-25.0747493414
 10
-8.4595158239
 20
-25.0709487065
 10
-8.4720448562
 20
-25.0677098693
 10
-8.484750254
 20
-25.0650418293
 10
-8.4975959054
 20
-25.06295207
 10
-8.5105462201
 20
-25.0614461514
 10
-8.5235662841
 20
-25.0605279054
 10
-8.5366205461
 20
-25.0601996449
  0
LINE
  5
335
100
AcDbEntity
  8
RACCORDO
100
AcDbLine
 62
253
  6
CONTINUOUS
 10
-8.5366205461
 20
22.1954627878
 11
-8.531529945
 21
21.6902813022
  0
LINE
  5
336
100
AcDbEntity
  8
RACCORDO
100
AcDbLine
 62
253
  6
CONTINUOUS
 10
-8.2866247769
 20
22.4119691387
 11
-8.2822529429
 21
21.9781167196
  0
LINE
  5
337
100
AcDbEntity
  8
RACCORDO
100
AcDbLine
 62
253
  6
CONTINUOUS
 10
-8.7050712124
 20
-0.1676902621
 11
-8.7050712124
 21
-7.1550343932
  0
LINE
  5
338
100
AcDbEntity
  8
0
100
AcDbLine
 62
253
  6
CONTINUOUS
 10
-8.7050712124
 20
-0.1676902621
 11
-8.7050712124
 21
-7.1550343932
  0
LINE
  5
339
100
AcDbEntity
  8
RACCORDO
100
AcDbLine
 62
253
  6
CONTINUOUS
 10
-8.7050712124
 20
3.5029534049
 11
-8.7050712124
 21
17.6902975361
  0
LINE
  5
33A
100
AcDbEntity
  8
0
100
AcDbLine
 62
253
  6
CONTINUOUS
 10
-8.7050712124
 20
3.5029534049
 11
-8.7050712124
 21
17.6902975361
  0
LINE
  5
33B
100
AcDbEntity
  8
RACCORDO
100
AcDbLine
 62
253
  6
CONTINUOUS
 10
-8.5366205461
 20
-25.0601996449
 11
-8.5366205461
 21
-25.9279965946
  0
LINE
  5
33C
100
AcDbEntity
  8
RACCORDO
100
AcDbLine
 62
253
  6
CONTINUOUS
 10
-8.5366205461
 20
22.1954627878
 11
-8.5366205461
 21
23.0632597374
  0
LINE
  5
33D
100
AcDbEntity
  8
0
100
AcDbLine
 62
7
  6
CONTINUOUS
 10
-8.4322529429
 20
-0.0945860435
 11
-8.4322529429
 21
3.4298491863
  0
LINE
  5
33E
100
AcDbEntity
  8
RACCORDO
100
AcDbLine
 62
253
  6
CONTINUOUS
 10
-8.2866247769
 20
-25.6780008254
 11
-8.2866247769
 21
-25.2767059959
  0
LINE
  5
33F
100
AcDbEntity
  8
RACCORDO
100
AcDbLine
 62
253
  6
CONTINUOUS
 10
-8.2866247769
 20
22.4119691387
 11
-8.2866247769
 21
22.8132639682
  0
LINE
  5
340
100
AcDbEntity
  8
DRAFT
100
AcDbLine
 62
7
  6
CONTINUOUS
 10
-8.2822529429
 20
-22.8323684286
 11
-8.2822529429
 21
-22.3323684286
  0
LINE
  5
341
100
AcDbEntity
  8
RACCORDO
100
AcDbLine
 62
7
  6
CONTINUOUS
 10
-8.2822529429
 20
-23.8323684286
 11
-8.2822529429
 21
-25.6823726594
  0
LINE
  5
342
100
AcDbEntity
  8
DRAFT
100
AcDbLine
 62
7
  6
CONTINUOUS
 10
-8.2822529429
 20
19.4676315714
 11
-8.2822529429
 21
19.9676315714
  0
LINE
  5
343
100
AcDbEntity
  8
RACCORDO
100
AcDbLine
 62
7
  6
CONTINUOUS
 10
-8.2822529429
 20
20.9676315714
 11
-8.2822529429
 21
22.8176358022
  0
LINE
  5
344
100
AcDbEntity
  8
RACCORDO
100
AcDbLine
 62
253
  6
CONTINUOUS
 10
-8.1162775096
 20
20.1336070047
 11
-8.1162775096
 21
19.5593398357
  0
LINE
  5
345
100
AcDbEntity
  8
RACCORDO
100
AcDbLine
 62
253
  6
CONTINUOUS
 10
-8.1162775096
 20
-22.4240766928
 11
-8.1162775096
 21
-22.9983438618
  0
LINE
  5
346
100
AcDbEntity
  8
RACCORDO
100
AcDbLine
 62
253
  6
CONTINUOUS
 10
-7.616353662
 20
19.8803248151
 11
-7.616353662
 21
19.5636271171
  0
LINE
  5
347
100
AcDbEntity
  8
RACCORDO
100
AcDbLine
 62
253
  6
CONTINUOUS
 10
-7.616353662
 20
-22.4283639743
 11
-7.616353662
 21
-22.7450616723
  0
LINE
  5
348
100
AcDbEntity
  8
DRAFT
100
AcDbLine
 62
7
  6
CONTINUOUS
 10
-7.521273774
 20
-22.1078177793
 11
-7.521273774
 21
-21.0433475974
  0
LINE
  5
349
100
AcDbEntity
  8
0
100
AcDbLine
 62
7
  6
CONTINUOUS
 10
-7.521273774
 20
-22.1078177793
 11
-7.521273774
 21
-21.0433475974
  0
LINE
  5
34A
100
AcDbEntity
  8
DRAFT
100
AcDbLine
 62
7
  6
CONTINUOUS
 10
-7.521273774
 20
18.1786107403
 11
-7.521273774
 21
19.2430809221
  0
LINE
  5
34B
100
AcDbEntity
  8
0
100
AcDbLine
 62
7
  6
CONTINUOUS
 10
-7.521273774
 20
18.1786107403
 11
-7.521273774
 21
19.2430809221
  0
LINE
  5
34C
100
AcDbEntity
  8
DRAFT
100
AcDbLine
 62
7
  6
CONTINUOUS
 10
-7.4322529429
 20
19.3321017533
 11
-7.4322529429
 21
18.2676315714
  0
LINE
  5
34D
100
AcDbEntity
  8
0
100
AcDbLine
 62
7
  6
CONTINUOUS
 10
-7.4322529429
 20
19.3321017533
 11
-7.4322529429
 21
18.2676315714
  0
LINE
  5
34E
100
AcDbEntity
  8
DRAFT
100
AcDbLine
 62
7
  6
CONTINUOUS
 10
-7.4322529429
 20
-21.1323684286
 11
-7.4322529429
 21
-22.1968386104
  0
LINE
  5
34F
100
AcDbEntity
  8
0
100
AcDbLine
 62
7
  6
CONTINUOUS
 10
-7.4322529429
 20
-21.1323684286
 11
-7.4322529429
 21
-22.1968386104
  0
LINE
  5
350
100
AcDbEntity
  8
RACCORDO
100
AcDbLine
 62
7
  6
CONTINUOUS
 10
-7.3840316282
 20
-21.3914569096
 11
-7.3840316282
 21
-21.1323684286
  0
LINE
  5
351
100
AcDbEntity
  8
RACCORDO
100
AcDbLine
 62
7
  6
CONTINUOUS
 10
-7.3840316282
 20
18.2676315714
 11
-7.3840316282
 21
18.5267200525
  0
LINE
  5
352
100
AcDbEntity
  8
RACCORDO
100
AcDbLine
 62
7
  6
CONTINUOUS
 10
-7.2740746447
 20
-22.4283639743
 11
-7.2740746447
 21
-21.3893865454
  0
LINE
  5
353
100
AcDbEntity
  8
RACCORDO
100
AcDbLine
 62
7
  6
CONTINUOUS
 10
-7.2740746447
 20
18.5246496883
 11
-7.2740746447
 21
19.5636271171
  0
LINE
  5
354
100
AcDbEntity
  8
RACCORDO
100
AcDbLine
 62
253
  6
CONTINUOUS
 10
-8.531529945
 20
-24.5550181594
 11
-8.5366205461
 21
-25.0601996449
  0
LINE
  5
355
100
AcDbEntity
  8
RACCORDO
100
AcDbLine
 62
253
  6
CONTINUOUS
 10
-8.2822529429
 20
-24.8428535768
 11
-8.2866247769
 21
-25.2767059959
  0
LWPOLYLINE
  5
356
100
AcDbEntity
  8
RACCORDO
100
AcDbPolyline
 62
7
  6
CONTINUOUS
 90
34
 70
0
 10
-8.2822529429
 20
-25.6823726594
 10
-8.2825360931
 20
-25.6942679446
 10
-8.2833849086
 20
-25.7061362841
 10
-8.2847974687
 20
-25.7179507947
 10
-8.2867705751
 20
-25.7296847161
 10
-8.2892997611
 20
-25.7413114674
 10
-8.2923793012
 20
-25.7528047076
 10
-8.2960022215
 20
-25.7641384024
 10
-8.3001603171
 20
-25.7752868779
 10
-8.3048441707
 20
-25.7862248749
 10
-8.310043174
 20
-25.7969276162
 10
-8.3157455512
 20
-25.8073708568
 10
-8.3219383847
 20
-25.8175309345
 10
-8.3286076474
 20
-25.8273848337
 10
-8.3357382321
 20
-25.8369102324
 10
-8.343313984
 20
-25.8460855476
 10
-8.3513177424
 20
-25.8548899947
 10
-8.3597313768
 20
-25.8633036291
 10
-8.3685358238
 20
-25.8713073874
 10
-8.377711139
 20
-25.8788831393
 10
-8.3872365377
 20
-25.886013724
 10
-8.397090437
 20
-25.8926829867
 10
-8.4072505146
 20
-25.8988758202
 10
-8.4176937553
 20
-25.9045781974
 10
-8.4283964966
 20
-25.9097772008
 10
-8.4393344936
 20
-25.9144610544
 10
-8.4504829691
 20
-25.9186191499
 10
-8.4618166639
 20
-25.9222420703
 10
-8.4733099041
 20
-25.9253216103
 10
-8.4849366554
 20
-25.9278507963
 10
-8.4966705767
 20
-25.9298239027
 10
-8.5084850873
 20
-25.9312364628
 10
-8.5203534268
 20
-25.9320852783
 10
-8.5322487121
 20
-25.9323684286
  0
LWPOLYLINE
  5
357
100
AcDbEntity
  8
RACCORDO
100
AcDbPolyline
 62
253
  6
CONTINUOUS
 90
31
 70
0
 10
-8.2866247769
 20
-25.6780008254
 10
-8.2869679659
 20
-25.6910871795
 10
-8.2879957088
 20
-25.7041376778
 10
-8.289705192
 20
-25.7171165352
 10
-8.2920917347
 20
-25.7299881749
 10
-8.2951487959
 20
-25.7427172888
 10
-8.2988679854
 20
-25.7552689362
 10
-8.3032391004
 20
-25.7676086924
 10
-8.3082501559
 20
-25.7797027296
 10
-8.3138874042
 20
-25.7915178752
 10
-8.3201353834
 20
-25.803021731
 10
-8.3269769592
 20
-25.814182757
 10
-8.334393366
 20
-25.8249703473
 10
-8.3423642742
 20
-25.8353549366
 10
-8.3508678157
 20
-25.84530804
 10
-8.3598806348
 20
-25.8548023332
 10
-8.3693779693
 20
-25.863811755
 10
-8.3793338064
 20
-25.8723116519
 10
-8.3897209323
 20
-25.8802787942
 10
-8.4005110115
 20
-25.8876914242
 10
-8.4116743299
 20
-25.894529106
 10
-8.4231799303
 20
-25.9007729077
 10
-8.4349960086
 20
-25.9064056562
 10
-8.4470903647
 20
-25.9114120862
 10
-8.4594301686
 20
-25.9157786372
 10
-8.4719843532
 20
-25.919494077
 10
-8.4847158184
 20
-25.9225471904
 10
-8.4975815371
 20
-25.9249283205
 10
-8.5105433117
 20
-25.9266319247
 10
-8.5235682061
 20
-25.9276551874
 10
-8.5366205461
 20
-25.9279965946
  0
LWPOLYLINE
  5
358
100
AcDbEntity
  8
RACCORDO
100
AcDbPolyline
 62
253
  6
CONTINUOUS
 90
31
 70
0
 10
-8.2866247769
 20
22.4119691387
 10
-8.2870033325
 20
22.4006711665
 10
-8.2880624601
 20
22.3894008624
 10
-8.2897998366
 20
22.3781889926
 10
-8.292211538
 20
22.3670651835
 10
-8.2952914082
 20
22.3560609314
 10
-8.2990304592
 20
22.3452093916
 10
-8.3034180036
 20
22.3345412686
 10
-8.3084424026
 20
22.3240845953
 10
-8.3140900832
 20
22.3138676765
 10
-8.3203457758
 20
22.3039182713
 10
-8.3271923504
 20
22.2942637468
 10
-8.3346109587
 20
22.2849307234
 10
-8.3425812627
 20
22.2759447732
 10
-8.3510815575
 20
22.267330354
 10
-8.360088648
 20
22.2591109756
 10
-8.3695779516
 20
22.251309079
 10
-8.3795235388
 20
22.2439459907
 10
-8.3898982216
 20
22.2370418419
 10
-8.400673654
 20
22.2306154953
 10
-8.411820412
 20
22.2246844983
 10
-8.4233080491
 20
22.219265051
 10
-8.4351052058
 20
22.214371949
 10
-8.4471796423
 20
22.2100185659
 10
-8.4594983219
 20
22.2062168085
 10
-8.4720275572
 20
22.2029770621
 10
-8.4847331601
 20
22.2003081556
 10
-8.4975804809
 20
22.1982173632
 10
-8.5105344481
 20
22.1967103933
 10
-8.5235596619
 20
22.1957913649
 10
-8.5366205461
 20
22.1954627878
  0
LINE
  5
359
100
AcDbEntity
  8
DRAFT
100
AcDbLine
 62
7
  6
CONTINUOUS
 10
4.3677470571
 20
20.9676315714
 11
4.3236797899
 21
20.9015297383
  0
LINE
  5
35A
100
AcDbEntity
  8
RACCORDO
100
AcDbLine
 62
253
  6
CONTINUOUS
 10
10.6133752231
 20
22.8132639682
 11
10.6177470571
 21
22.8176358022
  0
LINE
  5
35B
100
AcDbEntity
  8
DRAFT
100
AcDbLine
 62
7
  6
CONTINUOUS
 10
7.4532768753
 20
19.4176315714
 11
7.3677470571
 21
19.3321017533
  0
LINE
  5
35C
100
AcDbEntity
  8
0
100
AcDbLine
 62
7
  6
CONTINUOUS
 10
7.4532768753
 20
19.4176315714
 11
7.3677470571
 21
19.3321017533
  0
LINE
  5
35D
100
AcDbEntity
  8
RACCORDO
100
AcDbLine
 62
7
  6
CONTINUOUS
 10
6.5247685586
 20
18.3246530729
 11
6.4677470571
 21
18.2676315714
  0
LINE
  5
35E
100
AcDbEntity
  8
0
100
AcDbLine
 62
7
  6
CONTINUOUS
 10
-8.4322529429
 20
3.3953532964
 11
-8.5769287613
 21
3.2894447228
  0
LINE
  5
35F
100
AcDbEntity
  8
0
100
AcDbLine
 62
253
  6
CONTINUOUS
 10
10.9718948038
 20
-12.3609399866
 11
10.9861060492
 21
-12.3609399866
  0
LINE
  5
360
100
AcDbEntity
  8
0
100
AcDbLine
 62
253
  6
CONTINUOUS
 10
11.0652984532
 20
-12.3071384286
 11
11.0229460992
 21
-12.3071384286
  0
LINE
  5
361
100
AcDbEntity
  8
0
100
AcDbLine
 62
253
  6
CONTINUOUS
 10
-11.0426124234
 20
-11.8665111874
 11
-11.0653040078
 21
-11.8665111874
  0
LINE
  5
362
100
AcDbEntity
  8
0
100
AcDbLine
 62
253
  6
CONTINUOUS
 10
10.9861060492
 20
-11.8180826496
 11
10.9908431306
 21
-11.8180826496
  0
LINE
  5
363
100
AcDbEntity
  8
0
100
AcDbLine
 62
253
  6
CONTINUOUS
 10
11.0229460992
 20
-11.7246934286
 11
11.0735503869
 21
-11.7246934286
  0
LINE
  5
364
100
AcDbEntity
  8
0
100
AcDbLine
 62
253
  6
CONTINUOUS
 10
-11.0620623531
 20
-11.1450111874
 11
-11.0555790437
 21
-11.1450111874
  0
LINE
  5
365
100
AcDbEntity
  8
0
100
AcDbLine
 62
253
  6
CONTINUOUS
 10
-11.0426124234
 20
-10.7327256697
 11
-11.0653040078
 21
-10.7327256697
  0
LINE
  5
366
100
AcDbEntity
  8
RACCORDO
100
AcDbLine
 62
253
  6
CONTINUOUS
 10
10.6133752231
 20
-25.6780008254
 11
10.6177470571
 21
-25.6823726594
  0
LINE
  5
367
100
AcDbEntity
  8
DRAFT
100
AcDbLine
 62
7
  6
CONTINUOUS
 10
7.4532768753
 20
-22.2823684286
 11
7.3677470571
 21
-22.1968386104
  0
LINE
  5
368
100
AcDbEntity
  8
0
100
AcDbLine
 62
7
  6
CONTINUOUS
 10
7.4532768753
 20
-22.2823684286
 11
7.3677470571
 21
-22.1968386104
  0
LINE
  5
369
100
AcDbEntity
  8
RACCORDO
100
AcDbLine
 62
7
  6
CONTINUOUS
 10
6.5247685586
 20
-21.18938993
 11
6.4677470571
 21
-21.1323684286
  0
LINE
  5
36A
100
AcDbEntity
  8
DRAFT
100
AcDbLine
 62
7
  6
CONTINUOUS
 10
4.3677470571
 20
-23.8323684286
 11
4.3236797899
 21
-23.7662665955
  0
LINE
  5
36B
100
AcDbEntity
  8
RACCORDO
100
AcDbLine
 62
7
  6
CONTINUOUS
 10
-6.4450147964
 20
-7.4916684805
 11
-6.6133190213
 21
-7.1550343932
  0
LINE
  5
36C
100
AcDbEntity
  8
0
100
AcDbLine
 62
7
  6
CONTINUOUS
 10
-6.4450147964
 20
-7.4916684805
 11
-6.6133190213
 21
-7.1550343932
  0
LINE
  5
36D
100
AcDbEntity
  8
SMUSSO
100
AcDbLine
 62
7
  6
CONTINUOUS
 10
-5.8674834354
 20
-6.4917328495
 11
-6.0444705578
 21
-6.1377316447
  0
LINE
  5
36E
100
AcDbEntity
  8
0
100
AcDbLine
 62
7
  6
CONTINUOUS
 10
-5.8674834354
 20
-6.4917328495
 11
-6.0444705578
 21
-6.1377316447
  0
LINE
  5
36F
100
AcDbEntity
  8
RACCORDO
100
AcDbLine
 62
7
  6
CONTINUOUS
 10
-6.590431241
 20
-22.0152927118
 11
-6.590431241
 21
-21.3893865454
  0
LINE
  5
370
100
AcDbEntity
  8
RACCORDO
100
AcDbLine
 62
7
  6
CONTINUOUS
 10
-6.590431241
 20
18.5246496883
 11
-6.590431241
 21
19.1505558546
  0
LINE
  5
371
100
AcDbEntity
  8
SMUSSO
100
AcDbLine
 62
7
  6
CONTINUOUS
 10
-6.0444705578
 20
-5.7323684286
 11
-6.0444705578
 21
-6.1377316447
  0
LINE
  5
372
100
AcDbEntity
  8
0
100
AcDbLine
 62
7
  6
CONTINUOUS
 10
-6.0444705578
 20
-5.7323684286
 11
-6.0444705578
 21
-6.1377316447
  0
LINE
  5
373
100
AcDbEntity
  8
SMUSSO
100
AcDbLine
 62
253
  6
CONTINUOUS
 10
-5.8674834354
 20
-6.4917328495
 11
-5.8674834354
 21
-5.897137936
  0
LINE
  5
374
100
AcDbEntity
  8
0
100
AcDbLine
 62
253
  6
CONTINUOUS
 10
-5.8674834354
 20
-6.4917328495
 11
-5.8674834354
 21
-5.897137936
  0
LINE
  5
375
100
AcDbEntity
  8
DRAFT
100
AcDbLine
 62
7
  6
CONTINUOUS
 10
-5.7822529429
 20
-21.1323684286
 11
-5.7822529429
 21
-21.3323684286
  0
LINE
  5
376
100
AcDbEntity
  8
0
100
AcDbLine
 62
7
  6
CONTINUOUS
 10
-5.7822529429
 20
-21.1323684286
 11
-5.7822529429
 21
-21.3323684286
  0
LINE
  5
377
100
AcDbEntity
  8
DRAFT
100
AcDbLine
 62
7
  6
CONTINUOUS
 10
-5.7822529429
 20
18.2676315714
 11
-5.7822529429
 21
18.4676315714
  0
LINE
  5
378
100
AcDbEntity
  8
0
100
AcDbLine
 62
7
  6
CONTINUOUS
 10
-5.7822529429
 20
18.2676315714
 11
-5.7822529429
 21
18.4676315714
  0
LINE
  5
379
100
AcDbEntity
  8
DRAFT
100
AcDbLine
 62
7
  6
CONTINUOUS
 10
-5.6932321117
 20
18.3786107403
 11
-5.6932321117
 21
18.1786107403
  0
LINE
  5
37A
100
AcDbEntity
  8
0
100
AcDbLine
 62
7
  6
CONTINUOUS
 10
-5.6932321117
 20
18.3786107403
 11
-5.6932321117
 21
18.1786107403
  0
LINE
  5
37B
100
AcDbEntity
  8
DRAFT
100
AcDbLine
 62
7
  6
CONTINUOUS
 10
-5.6932321117
 20
-21.0433475974
 11
-5.6932321117
 21
-21.2433475974
  0
LINE
  5
37C
100
AcDbEntity
  8
0
100
AcDbLine
 62
7
  6
CONTINUOUS
 10
-5.6932321117
 20
-21.0433475974
 11
-5.6932321117
 21
-21.2433475974
  0
LWPOLYLINE
  5
37D
100
AcDbEntity
  8
ASSI
100
AcDbPolyline
 62
7
  6
CONTINUOUS
 90
17
 70
0
 10
-3.5322529429
 20
22.3187738618
 10
-3.5325852328
 20
22.3160554827
 10
-3.5335941496
 20
22.3126736515
 10
-3.5352970494
 20
22.3086283682
 10
-3.5377113993
 20
22.3039323939
 10
-3.5408518234
 20
22.2985729675
 10
-3.5447271079
 20
22.2925118061
 10
-3.5493460848
 20
22.2857436722
 10
-3.5547181762
 20
22.2782738032
 10
-3.5608472412
 20
22.2700796289
 10
-3.5677219381
 20
22.2611817365
 10
-3.5753576865
 20
22.2515595387
 10
-3.5838076754
 20
22.2411287032
 10
-3.5930910529
 20
22.2298864713
 10
-3.6032108372
 20
22.2178356017
 10
-3.6142127648
 20
22.2049000379
 10
-3.6261086606
 20
22.1910788556
  0
LINE
  5
37E
100
AcDbEntity
  8
RACCORDO
100
AcDbLine
 62
7
  6
CONTINUOUS
 10
6.5230418251
 20
18.6505748931
 11
6.418851902
 21
18.4942878043
  0
LWPOLYLINE
  5
37F
100
AcDbEntity
  8
RACCORDO
100
AcDbPolyline
 62
7
  6
CONTINUOUS
 90
3
 70
0
 10
7.761701614
 20
20.1806204559
 10
7.7105318873
 20
20.1062218161
 10
7.6845235556
 20
20.0687698359
  0
LINE
  5
380
100
AcDbEntity
  8
RACCORDO
100
AcDbLine
 62
7
  6
CONTINUOUS
 10
7.6845235556
 20
20.0687698359
 11
7.605281678
 21
19.9558154586
  0
LINE
  5
381
100
AcDbEntity
  8
RACCORDO
100
AcDbLine
 62
7
  6
CONTINUOUS
 10
7.605281678
 20
19.9558154586
 11
7.5518477763
 21
19.8803248151
  0
LINE
  5
382
100
AcDbEntity
  8
RACCORDO
100
AcDbLine
 62
253
  6
CONTINUOUS
 10
8.6405653266
 20
17.6902975361
 11
9.017899362
 21
18.0676315714
  0
LINE
  5
383
100
AcDbEntity
  8
0
100
AcDbLine
 62
253
  6
CONTINUOUS
 10
8.6405653266
 20
17.6902975361
 11
9.017899362
 21
18.0676315714
  0
LINE
  5
384
100
AcDbEntity
  8
RACCORDO
100
AcDbLine
 62
253
  6
CONTINUOUS
 10
9.6404130218
 20
16.6904498409
 11
10.0177470571
 21
17.0677838763
  0
LINE
  5
385
100
AcDbEntity
  8
0
100
AcDbLine
 62
253
  6
CONTINUOUS
 10
9.6404130218
 20
16.6904498409
 11
10.0177470571
 21
17.0677838763
  0
LINE
  5
386
100
AcDbEntity
  8
0
100
AcDbLine
 62
253
  6
CONTINUOUS
 10
10.9647891808
 20
-10.3252255391
 11
10.9766318852
 21
-10.3252255391
  0
LINE
  5
387
100
AcDbEntity
  8
0
100
AcDbLine
 62
253
  6
CONTINUOUS
 10
10.9837375074
 20
-10.2799873899
 11
10.9908431306
 21
-10.2799873899
  0
LINE
  5
388
100
AcDbEntity
  8
0
100
AcDbLine
 62
253
  6
CONTINUOUS
 10
-11.0426124234
 20
-9.7020111874
 11
-11.0653040078
 21
-9.7020111874
  0
LINE
  5
389
100
AcDbEntity
  8
0
100
AcDbLine
 62
253
  6
CONTINUOUS
 10
-11.0426124234
 20
-8.9805111874
 11
-11.0653040078
 21
-8.9805111874
  0
LWPOLYLINE
  5
38A
100
AcDbEntity
  8
SMUSSO
100
AcDbPolyline
 62
7
  6
CONTINUOUS
 90
40
 70
0
 10
-3.4264391091
 20
-7.5323684286
 10
-3.4591790158
 20
-7.5185078622
 10
-3.4916827752
 20
-7.5054475612
 10
-3.5239503874
 20
-7.4931875255
 10
-3.5559727467
 20
-7.4817397244
 10
-3.5877589588
 20
-7.4710921885
 10
-3.6193363406
 20
-7.4612090103
 10
-3.6506909275
 20
-7.452091094
 10
-3.6818366841
 20
-7.4437375352
 10
-3.7128428208
 20
-7.4361097135
 10
-3.743718654
 20
-7.429202461
 10
-3.7744548674
 20
-7.4230209456
 10
-3.805092723
 20
-7.4175420499
 10
-3.8356394517
 20
-7.4127634492
 10
-3.8660878227
 20
-7.4086874683
 10
-3.896457405
 20
-7.4052979649
 10
-3.9267423247
 20
-7.4025937238
 10
-3.9569484558
 20
-7.4005759602
 10
-3.9871129898
 20
-7.3992321778
 10
-4.0172205468
 20
-7.3985582065
 10
-4.0472865067
 20
-7.3985582164
 10
-4.0773942011
 20
-7.3992322214
 10
-4.1075591286
 20
-7.4005760711
 10
-4.1377657907
 20
-7.4025939159
 10
-4.1680510229
 20
-7.4052982201
 10
-4.1984206006
 20
-7.4086877772
 10
-4.2288687484
 20
-7.4127637936
 10
-4.2594149764
 20
-7.4175423539
 10
-4.290051824
 20
-7.4230210689
 10
-4.3207867518
 20
-7.4292023276
 10
-4.3516616507
 20
-7.4361093814
 10
-4.3826674987
 20
-7.4437371146
 10
-4.413813318
 20
-7.4520906428
 10
-4.4451680663
 20
-7.4612085641
 10
-4.476745663
 20
-7.4710917856
 10
-4.5085321888
 20
-7.4817394002
 10
-4.5405548432
 20
-7.4931872841
 10
-4.5728226925
 20
-7.5054473962
 10
-4.6053266703
 20
-7.5185077777
 10
-4.6380667766
 20
-7.5323684286
  0
LWPOLYLINE
  5
38B
100
AcDbEntity
  8
0
100
AcDbPolyline
 62
7
  6
CONTINUOUS
 90
40
 70
0
 10
-3.4264391091
 20
-7.5323684286
 10
-3.4591790158
 20
-7.5185078622
 10
-3.4916827752
 20
-7.5054475612
 10
-3.5239503874
 20
-7.4931875255
 10
-3.5559727467
 20
-7.4817397244
 10
-3.5877589588
 20
-7.4710921885
 10
-3.6193363406
 20
-7.4612090103
 10
-3.6506909275
 20
-7.452091094
 10
-3.6818366841
 20
-7.4437375352
 10
-3.7128428208
 20
-7.4361097135
 10
-3.743718654
 20
-7.429202461
 10
-3.7744548674
 20
-7.4230209456
 10
-3.805092723
 20
-7.4175420499
 10
-3.8356394517
 20
-7.4127634492
 10
-3.8660878227
 20
-7.4086874683
 10
-3.896457405
 20
-7.4052979649
 10
-3.9267423247
 20
-7.4025937238
 10
-3.9569484558
 20
-7.4005759602
 10
-3.9871129898
 20
-7.3992321778
 10
-4.0172205468
 20
-7.3985582065
 10
-4.0472865067
 20
-7.3985582164
 10
-4.0773942011
 20
-7.3992322214
 10
-4.1075591286
 20
-7.4005760711
 10
-4.1377657907
 20
-7.4025939159
 10
-4.1680510229
 20
-7.4052982201
 10
-4.1984206006
 20
-7.4086877772
 10
-4.2288687484
 20
-7.4127637936
 10
-4.2594149764
 20
-7.4175423539
 10
-4.290051824
 20
-7.4230210689
 10
-4.3207867518
 20
-7.4292023276
 10
-4.3516616507
 20
-7.4361093814
 10
-4.3826674987
 20
-7.4437371146
 10
-4.413813318
 20
-7.4520906428
 10
-4.4451680663
 20
-7.4612085641
 10
-4.476745663
 20
-7.4710917856
 10
-4.5085321888
 20
-7.4817394002
 10
-4.5405548432
 20
-7.4931872841
 10
-4.5728226925
 20
-7.5054473962
 10
-4.6053266703
 20
-7.5185077777
 10
-4.6380667766
 20
-7.5323684286
  0
LINE
  5
38C
100
AcDbEntity
  8
DRAFT
100
AcDbLine
 62
7
  6
CONTINUOUS
 10
-6.0322529429
 20
-5.7323684286
 11
-5.8674834354
 21
-5.897137936
  0
LINE
  5
38D
100
AcDbEntity
  8
0
100
AcDbLine
 62
7
  6
CONTINUOUS
 10
-6.0322529429
 20
-5.7323684286
 11
-5.8674834354
 21
-5.897137936
  0
LINE
  5
38E
100
AcDbEntity
  8
RACCORDO
100
AcDbLine
 62
7
  6
CONTINUOUS
 10
7.5518477763
 20
-22.7450616723
 11
7.605281678
 21
-22.8205523158
  0
LINE
  5
38F
100
AcDbEntity
  8
RACCORDO
100
AcDbLine
 62
7
  6
CONTINUOUS
 10
7.605281678
 20
-22.8205523158
 11
7.6845235556
 21
-22.933506693
  0
LWPOLYLINE
  5
390
100
AcDbEntity
  8
RACCORDO
100
AcDbPolyline
 62
7
  6
CONTINUOUS
 90
7
 70
0
 10
7.6845235556
 20
-22.933506693
 10
7.7362606664
 20
-23.0082610453
 10
7.761701614
 20
-23.045357313
 10
7.7866768611
 20
-23.0822864128
 10
7.8111271181
 20
-23.1190141924
 10
7.8351116747
 20
-23.1554373889
 10
7.8586305308
 20
-23.1914849549
  0
LINE
  5
391
100
AcDbEntity
  8
RACCORDO
100
AcDbLine
 62
7
  6
CONTINUOUS
 10
6.5230418251
 20
-21.5153117502
 11
6.418851902
 21
-21.3590246615
  0
LINE
  5
392
100
AcDbEntity
  8
DRAFT
100
AcDbLine
 62
7
  6
CONTINUOUS
 10
-4.4322529429
 20
22.3676315714
 11
-4.4322529429
 21
20.9676315714
  0
LINE
  5
393
100
AcDbEntity
  8
DRAFT
100
AcDbLine
 62
7
  6
CONTINUOUS
 10
-4.4322529429
 20
-23.8323684286
 11
-4.4322529429
 21
-25.2323684286
  0
LINE
  5
394
100
AcDbEntity
  8
ASSI
100
AcDbLine
 62
253
  6
CONTINUOUS
 10
-4.3881856756
 20
-25.1831418533
 11
-4.3881856756
 21
-23.7662665955
  0
LINE
  5
395
100
AcDbEntity
  8
ASSI
100
AcDbLine
 62
253
  6
CONTINUOUS
 10
-4.3881856756
 20
20.9015297383
 11
-4.3881856756
 21
22.3184049961
  0
LINE
  5
396
100
AcDbEntity
  8
DRAFT
100
AcDbLine
 62
7
  6
CONTINUOUS
 10
-3.5322529429
 20
-21.4323684286
 11
-3.5322529429
 21
-21.4768754543
  0
LINE
  5
397
100
AcDbEntity
  8
ASSI
100
AcDbLine
 62
7
  6
CONTINUOUS
 10
-3.5322529429
 20
-23.7662883237
 11
-3.5322529429
 21
-25.2265505988
  0
LINE
  5
398
100
AcDbEntity
  8
DRAFT
100
AcDbLine
 62
7
  6
CONTINUOUS
 10
-3.5322529429
 20
18.5676315714
 11
-3.5322529429
 21
18.6121385972
  0
LINE
  5
399
100
AcDbEntity
  8
ASSI
100
AcDbLine
 62
7
  6
CONTINUOUS
 10
-3.5322529429
 20
20.9015514666
 11
-3.5322529429
 21
22.3618137416
  0
LWPOLYLINE
  5
39A
100
AcDbEntity
  8
RACCORDO
100
AcDbPolyline
 62
7
  6
CONTINUOUS
 90
5
 70
0
 10
7.8586305308
 20
20.3267480978
 10
7.8351116747
 20
20.2907005317
 10
7.8111271181
 20
20.2542773353
 10
7.7866768611
 20
20.2175495556
 10
7.761701614
 20
20.1806204559
  0
LINE
  5
39B
100
AcDbEntity
  8
SMUSSO
100
AcDbLine
 62
7
  6
CONTINUOUS
 10
6.2644895883
 20
-7.5045063324
 11
6.2232832933
 21
-7.506557645
  0
LINE
  5
39C
100
AcDbEntity
  8
0
100
AcDbLine
 62
7
  6
CONTINUOUS
 10
6.2644895883
 20
-7.5045063324
 11
6.2232832933
 21
-7.506557645
  0
LINE
  5
39D
100
AcDbEntity
  8
SMUSSO
100
AcDbLine
 62
7
  6
CONTINUOUS
 10
-1.7355104117
 20
-7.5045063324
 11
-1.7767167067
 21
-7.506557645
  0
LINE
  5
39E
100
AcDbEntity
  8
0
100
AcDbLine
 62
7
  6
CONTINUOUS
 10
-1.7355104117
 20
-7.5045063324
 11
-1.7767167067
 21
-7.506557645
  0
LINE
  5
39F
100
AcDbEntity
  8
SMUSSO
100
AcDbLine
 62
7
  6
CONTINUOUS
 10
6.2232832933
 20
-7.506557645
 11
6.1761033715
 21
-7.5085683288
  0
LINE
  5
3A0
100
AcDbEntity
  8
0
100
AcDbLine
 62
7
  6
CONTINUOUS
 10
6.2232832933
 20
-7.506557645
 11
6.1761033715
 21
-7.5085683288
  0
LINE
  5
3A1
100
AcDbEntity
  8
SMUSSO
100
AcDbLine
 62
7
  6
CONTINUOUS
 10
-1.7767167067
 20
-7.506557645
 11
-1.8238966285
 21
-7.5085683288
  0
LINE
  5
3A2
100
AcDbEntity
  8
0
100
AcDbLine
 62
7
  6
CONTINUOUS
 10
-1.7767167067
 20
-7.506557645
 11
-1.8238966285
 21
-7.5085683288
  0
LINE
  5
3A3
100
AcDbEntity
  8
SMUSSO
100
AcDbLine
 62
7
  6
CONTINUOUS
 10
6.1761033715
 20
-7.5085683288
 11
6.1230395037
 21
-7.5105343944
  0
LINE
  5
3A4
100
AcDbEntity
  8
0
100
AcDbLine
 62
7
  6
CONTINUOUS
 10
6.1761033715
 20
-7.5085683288
 11
6.1230395037
 21
-7.5105343944
  0
LINE
  5
3A5
100
AcDbEntity
  8
SMUSSO
100
AcDbLine
 62
7
  6
CONTINUOUS
 10
-1.8238966285
 20
-7.5085683288
 11
-1.8769604963
 21
-7.5105343944
  0
LINE
  5
3A6
100
AcDbEntity
  8
0
100
AcDbLine
 62
7
  6
CONTINUOUS
 10
-1.8238966285
 20
-7.5085683288
 11
-1.8769604963
 21
-7.5105343944
  0
LINE
  5
3A7
100
AcDbEntity
  8
SMUSSO
100
AcDbLine
 62
7
  6
CONTINUOUS
 10
6.1230395037
 20
-7.5105343944
 11
6.0327158387
 21
-7.5133865929
  0
LINE
  5
3A8
100
AcDbEntity
  8
0
100
AcDbLine
 62
7
  6
CONTINUOUS
 10
6.1230395037
 20
-7.5105343944
 11
6.0327158387
 21
-7.5133865929
  0
LINE
  5
3A9
100
AcDbEntity
  8
SMUSSO
100
AcDbLine
 62
7
  6
CONTINUOUS
 10
-1.8769604963
 20
-7.5105343944
 11
-1.9672841613
 21
-7.5133865929
  0
LINE
  5
3AA
100
AcDbEntity
  8
0
100
AcDbLine
 62
7
  6
CONTINUOUS
 10
-1.8769604963
 20
-7.5105343944
 11
-1.9672841613
 21
-7.5133865929
  0
LINE
  5
3AB
100
AcDbEntity
  8
SMUSSO
100
AcDbLine
 62
7
  6
CONTINUOUS
 10
6.0327158387
 20
-7.5133865929
 11
5.9300615427
 21
-7.5161074463
  0
LINE
  5
3AC
100
AcDbEntity
  8
0
100
AcDbLine
 62
7
  6
CONTINUOUS
 10
6.0327158387
 20
-7.5133865929
 11
5.9300615427
 21
-7.5161074463
  0
LINE
  5
3AD
100
AcDbEntity
  8
SMUSSO
100
AcDbLine
 62
7
  6
CONTINUOUS
 10
-1.9672841613
 20
-7.5133865929
 11
-2.0699384573
 21
-7.5161074463
  0
LINE
  5
3AE
100
AcDbEntity
  8
0
100
AcDbLine
 62
7
  6
CONTINUOUS
 10
-1.9672841613
 20
-7.5133865929
 11
-2.0699384573
 21
-7.5161074463
  0
LINE
  5
3AF
100
AcDbEntity
  8
SMUSSO
100
AcDbLine
 62
7
  6
CONTINUOUS
 10
5.9300615427
 20
-7.5161074463
 11
5.8156820932
 21
-7.5186820364
  0
LINE
  5
3B0
100
AcDbEntity
  8
0
100
AcDbLine
 62
7
  6
CONTINUOUS
 10
5.9300615427
 20
-7.5161074463
 11
5.8156820932
 21
-7.5186820364
  0
LINE
  5
3B1
100
AcDbEntity
  8
SMUSSO
100
AcDbLine
 62
7
  6
CONTINUOUS
 10
-2.0699384573
 20
-7.5161074463
 11
-2.1843179068
 21
-7.5186820364
  0
LINE
  5
3B2
100
AcDbEntity
  8
0
100
AcDbLine
 62
7
  6
CONTINUOUS
 10
-2.0699384573
 20
-7.5161074463
 11
-2.1843179068
 21
-7.5186820364
  0
LINE
  5
3B3
100
AcDbEntity
  8
SMUSSO
100
AcDbLine
 62
7
  6
CONTINUOUS
 10
5.8156820932
 20
-7.5186820364
 11
5.6902803538
 21
-7.5210933958
  0
LINE
  5
3B4
100
AcDbEntity
  8
0
100
AcDbLine
 62
7
  6
CONTINUOUS
 10
5.8156820932
 20
-7.5186820364
 11
5.6902803538
 21
-7.5210933958
  0
LINE
  5
3B5
100
AcDbEntity
  8
SMUSSO
100
AcDbLine
 62
7
  6
CONTINUOUS
 10
-2.1843179068
 20
-7.5186820364
 11
-2.3097196462
 21
-7.5210933958
  0
LINE
  5
3B6
100
AcDbEntity
  8
0
100
AcDbLine
 62
7
  6
CONTINUOUS
 10
-2.1843179068
 20
-7.5186820364
 11
-2.3097196462
 21
-7.5210933958
  0
LINE
  5
3B7
100
AcDbEntity
  8
SMUSSO
100
AcDbLine
 62
7
  6
CONTINUOUS
 10
5.6902803538
 20
-7.5210933958
 11
5.5545698115
 21
-7.5233283482
  0
LINE
  5
3B8
100
AcDbEntity
  8
0
100
AcDbLine
 62
7
  6
CONTINUOUS
 10
5.6902803538
 20
-7.5210933958
 11
5.5545698115
 21
-7.5233283482
  0
LINE
  5
3B9
100
AcDbEntity
  8
SMUSSO
100
AcDbLine
 62
7
  6
CONTINUOUS
 10
-2.3097196462
 20
-7.5210933958
 11
-2.4454301885
 21
-7.5233283482
  0
LINE
  5
3BA
100
AcDbEntity
  8
0
100
AcDbLine
 62
7
  6
CONTINUOUS
 10
-2.3097196462
 20
-7.5210933958
 11
-2.4454301885
 21
-7.5233283482
  0
LINE
  5
3BB
100
AcDbEntity
  8
SMUSSO
100
AcDbLine
 62
7
  6
CONTINUOUS
 10
5.5545698115
 20
-7.5233283482
 11
5.4094200066
 21
-7.5253734685
  0
LINE
  5
3BC
100
AcDbEntity
  8
0
100
AcDbLine
 62
7
  6
CONTINUOUS
 10
5.5545698115
 20
-7.5233283482
 11
5.4094200066
 21
-7.5253734685
  0
LINE
  5
3BD
100
AcDbEntity
  8
SMUSSO
100
AcDbLine
 62
7
  6
CONTINUOUS
 10
-2.4454301885
 20
-7.5233283482
 11
-2.5905799934
 21
-7.5253734685
  0
LINE
  5
3BE
100
AcDbEntity
  8
0
100
AcDbLine
 62
7
  6
CONTINUOUS
 10
-2.4454301885
 20
-7.5233283482
 11
-2.5905799934
 21
-7.5253734685
  0
LINE
  5
3BF
100
AcDbEntity
  8
SMUSSO
100
AcDbLine
 62
7
  6
CONTINUOUS
 10
5.4094200066
 20
-7.5253734685
 11
5.2556514752
 21
-7.5272164066
  0
LINE
  5
3C0
100
AcDbEntity
  8
0
100
AcDbLine
 62
7
  6
CONTINUOUS
 10
5.4094200066
 20
-7.5253734685
 11
5.2556514752
 21
-7.5272164066
  0
LINE
  5
3C1
100
AcDbEntity
  8
SMUSSO
100
AcDbLine
 62
7
  6
CONTINUOUS
 10
-2.5905799934
 20
-7.5253734685
 11
-2.7443485248
 21
-7.5272164066
  0
LINE
  5
3C2
100
AcDbEntity
  8
0
100
AcDbLine
 62
7
  6
CONTINUOUS
 10
-2.5905799934
 20
-7.5253734685
 11
-2.7443485248
 21
-7.5272164066
  0
LINE
  5
3C3
100
AcDbEntity
  8
SMUSSO
100
AcDbLine
 62
7
  6
CONTINUOUS
 10
5.2556514752
 20
-7.5272164066
 11
5.0941787966
 21
-7.5288463246
  0
LINE
  5
3C4
100
AcDbEntity
  8
0
100
AcDbLine
 62
7
  6
CONTINUOUS
 10
5.2556514752
 20
-7.5272164066
 11
5.0941787966
 21
-7.5288463246
  0
LINE
  5
3C5
100
AcDbEntity
  8
SMUSSO
100
AcDbLine
 62
7
  6
CONTINUOUS
 10
-2.7443485248
 20
-7.5272164066
 11
-2.9058212034
 21
-7.5288463246
  0
LINE
  5
3C6
100
AcDbEntity
  8
0
100
AcDbLine
 62
7
  6
CONTINUOUS
 10
-2.7443485248
 20
-7.5272164066
 11
-2.9058212034
 21
-7.5288463246
  0
LINE
  5
3C7
100
AcDbEntity
  8
SMUSSO
100
AcDbLine
 62
7
  6
CONTINUOUS
 10
5.0941787966
 20
-7.5288463246
 11
4.926023596
 21
-7.5302538311
  0
LINE
  5
3C8
100
AcDbEntity
  8
0
100
AcDbLine
 62
7
  6
CONTINUOUS
 10
5.0941787966
 20
-7.5288463246
 11
4.926023596
 21
-7.5302538311
  0
LINE
  5
3C9
100
AcDbEntity
  8
SMUSSO
100
AcDbLine
 62
7
  6
CONTINUOUS
 10
-2.9058212034
 20
-7.5288463246
 11
-3.073976404
 21
-7.5302538311
  0
LINE
  5
3CA
100
AcDbEntity
  8
0
100
AcDbLine
 62
7
  6
CONTINUOUS
 10
-2.9058212034
 20
-7.5288463246
 11
-3.073976404
 21
-7.5302538311
  0
LINE
  5
3CB
100
AcDbEntity
  8
SMUSSO
100
AcDbLine
 62
7
  6
CONTINUOUS
 10
4.926023596
 20
-7.5302538311
 11
4.7521246872
 21
-7.5314303625
  0
LINE
  5
3CC
100
AcDbEntity
  8
0
100
AcDbLine
 62
7
  6
CONTINUOUS
 10
4.926023596
 20
-7.5302538311
 11
4.7521246872
 21
-7.5314303625
  0
LINE
  5
3CD
100
AcDbEntity
  8
SMUSSO
100
AcDbLine
 62
7
  6
CONTINUOUS
 10
-3.073976404
 20
-7.5302538311
 11
-3.2478753128
 21
-7.5314303625
  0
LINE
  5
3CE
100
AcDbEntity
  8
0
100
AcDbLine
 62
7
  6
CONTINUOUS
 10
-3.073976404
 20
-7.5302538311
 11
-3.2478753128
 21
-7.5314303625
  0
LINE
  5
3CF
100
AcDbEntity
  8
SMUSSO
100
AcDbLine
 62
7
  6
CONTINUOUS
 10
4.7521246872
 20
-7.5314303625
 11
4.5735608909
 21
-7.5323684286
  0
LINE
  5
3D0
100
AcDbEntity
  8
0
100
AcDbLine
 62
7
  6
CONTINUOUS
 10
4.7521246872
 20
-7.5314303625
 11
4.5735608909
 21
-7.5323684286
  0
LINE
  5
3D1
100
AcDbEntity
  8
SMUSSO
100
AcDbLine
 62
7
  6
CONTINUOUS
 10
-3.2478753128
 20
-7.5314303625
 11
-3.4264391091
 21
-7.5323684286
  0
LINE
  5
3D2
100
AcDbEntity
  8
0
100
AcDbLine
 62
7
  6
CONTINUOUS
 10
-3.2478753128
 20
-7.5314303625
 11
-3.4264391091
 21
-7.5323684286
  0
LINE
  5
3D3
100
AcDbEntity
  8
0
100
AcDbLine
 62
253
  6
CONTINUOUS
 10
10.9624206399
 20
-8.6514160584
 11
10.979000426
 21
-8.6514160584
  0
LINE
  5
3D4
100
AcDbEntity
  8
0
100
AcDbLine
 62
253
  6
CONTINUOUS
 10
-11.0426124234
 20
-8.5682256697
 11
-11.0653040078
 21
-8.5682256697
  0
LINE
  5
3D5
100
AcDbEntity
  8
0
100
AcDbLine
 62
253
  6
CONTINUOUS
 10
11.0313557088
 20
-8.2991064286
 11
11.0229460992
 21
-8.2991064286
  0
LINE
  5
3D6
100
AcDbEntity
  8
0
100
AcDbLine
 62
253
  6
CONTINUOUS
 10
-11.0620623531
 20
-7.8467256697
 11
-11.0458540785
 21
-7.8467256697
  0
LINE
  5
3D7
100
AcDbEntity
  8
SMUSSO
100
AcDbLine
 62
7
  6
CONTINUOUS
 10
9.017899362
 20
-7.5323684286
 11
4.5735608909
 21
-7.5323684286
  0
LINE
  5
3D8
100
AcDbEntity
  8
0
100
AcDbLine
 62
7
  6
CONTINUOUS
 10
9.017899362
 20
-7.5323684286
 11
4.5735608909
 21
-7.5323684286
  0
LINE
  5
3D9
100
AcDbEntity
  8
SMUSSO
100
AcDbLine
 62
7
  6
CONTINUOUS
 10
3.3619332234
 20
-7.5323684286
 11
-3.4264391091
 21
-7.5323684286
  0
LINE
  5
3DA
100
AcDbEntity
  8
0
100
AcDbLine
 62
7
  6
CONTINUOUS
 10
3.3619332234
 20
-7.5323684286
 11
-3.4264391091
 21
-7.5323684286
  0
LINE
  5
3DB
100
AcDbEntity
  8
SMUSSO
100
AcDbLine
 62
7
  6
CONTINUOUS
 10
-4.6380667766
 20
-7.5323684286
 11
-9.0824052477
 21
-7.5323684286
  0
LINE
  5
3DC
100
AcDbEntity
  8
0
100
AcDbLine
 62
7
  6
CONTINUOUS
 10
-4.6380667766
 20
-7.5323684286
 11
-9.0824052477
 21
-7.5323684286
  0
LINE
  5
3DD
100
AcDbEntity
  8
0
100
AcDbLine
 62
253
  6
CONTINUOUS
 10
10.9955802121
 20
-7.4752255957
 11
10.9624206399
 21
-7.4752255957
  0
LINE
  5
3DE
100
AcDbEntity
  8
0
100
AcDbLine
 62
253
  6
CONTINUOUS
 10
11.0735503869
 20
-7.2261074286
 11
11.0313557088
 21
-7.2261074286
  0
LINE
  5
3DF
100
AcDbEntity
  8
RACCORDO
100
AcDbLine
 62
253
  6
CONTINUOUS
 10
-8.7050712124
 20
-7.1550343932
 11
-6.6133190213
 21
-7.1550343932
  0
LINE
  5
3E0
100
AcDbEntity
  8
0
100
AcDbLine
 62
253
  6
CONTINUOUS
 10
-8.7050712124
 20
-7.1550343932
 11
-6.6133190213
 21
-7.1550343932
  0
LINE
  5
3E1
100
AcDbEntity
  8
RACCORDO
100
AcDbLine
 62
253
  6
CONTINUOUS
 10
-1.4511868644
 20
-7.1550343932
 11
1.3866809787
 21
-7.1550343932
  0
LINE
  5
3E2
100
AcDbEntity
  8
0
100
AcDbLine
 62
253
  6
CONTINUOUS
 10
-1.4511868644
 20
-7.1550343932
 11
1.3866809787
 21
-7.1550343932
  0
LINE
  5
3E3
100
AcDbEntity
  8
RACCORDO
100
AcDbLine
 62
253
  6
CONTINUOUS
 10
6.5488131356
 20
-7.1550343932
 11
8.6405653266
 21
-7.1550343932
  0
LINE
  5
3E4
100
AcDbEntity
  8
0
100
AcDbLine
 62
253
  6
CONTINUOUS
 10
6.5488131356
 20
-7.1550343932
 11
8.6405653266
 21
-7.1550343932
  0
LINE
  5
3E5
100
AcDbEntity
  8
0
100
AcDbLine
 62
253
  6
CONTINUOUS
 10
-11.0447735267
 20
-7.0565109581
 11
-11.0453138025
 21
-7.0565109581
  0
LINE
  5
3E6
100
AcDbEntity
  8
0
100
AcDbLine
 62
253
  6
CONTINUOUS
 10
-11.0453138025
 20
-6.9190829109
 11
-11.0447735267
 21
-6.9190829109
  0
LINE
  5
3E7
100
AcDbEntity
  8
SMUSSO
100
AcDbLine
 62
7
  6
CONTINUOUS
 10
-4.6380667766
 20
-7.5323684286
 11
-4.875155153
 21
-7.5310644041
  0
LINE
  5
3E8
100
AcDbEntity
  8
0
100
AcDbLine
 62
7
  6
CONTINUOUS
 10
-4.6380667766
 20
-7.5323684286
 11
-4.875155153
 21
-7.5310644041
  0
LINE
  5
3E9
100
AcDbEntity
  8
SMUSSO
100
AcDbLine
 62
7
  6
CONTINUOUS
 10
3.3619332234
 20
-7.5323684286
 11
3.124844847
 21
-7.5310644041
  0
LINE
  5
3EA
100
AcDbEntity
  8
0
100
AcDbLine
 62
7
  6
CONTINUOUS
 10
3.3619332234
 20
-7.5323684286
 11
3.124844847
 21
-7.5310644041
  0
LINE
  5
3EB
100
AcDbEntity
  8
SMUSSO
100
AcDbLine
 62
7
  6
CONTINUOUS
 10
-4.875155153
 20
-7.5310644041
 11
-5.0472541759
 21
-7.529810009
  0
LINE
  5
3EC
100
AcDbEntity
  8
0
100
AcDbLine
 62
7
  6
CONTINUOUS
 10
-4.875155153
 20
-7.5310644041
 11
-5.0472541759
 21
-7.529810009
  0
LINE
  5
3ED
100
AcDbEntity
  8
SMUSSO
100
AcDbLine
 62
7
  6
CONTINUOUS
 10
3.124844847
 20
-7.5310644041
 11
2.9527458241
 21
-7.529810009
  0
LINE
  5
3EE
100
AcDbEntity
  8
0
100
AcDbLine
 62
7
  6
CONTINUOUS
 10
3.124844847
 20
-7.5310644041
 11
2.9527458241
 21
-7.529810009
  0
LINE
  5
3EF
100
AcDbEntity
  8
SMUSSO
100
AcDbLine
 62
7
  6
CONTINUOUS
 10
-5.0472541759
 20
-7.529810009
 11
-5.2132892489
 21
-7.5283273832
  0
LINE
  5
3F0
100
AcDbEntity
  8
0
100
AcDbLine
 62
7
  6
CONTINUOUS
 10
-5.0472541759
 20
-7.529810009
 11
-5.2132892489
 21
-7.5283273832
  0
LINE
  5
3F1
100
AcDbEntity
  8
SMUSSO
100
AcDbLine
 62
7
  6
CONTINUOUS
 10
2.9527458241
 20
-7.529810009
 11
2.7867107511
 21
-7.5283273832
  0
LINE
  5
3F2
100
AcDbEntity
  8
0
100
AcDbLine
 62
7
  6
CONTINUOUS
 10
2.9527458241
 20
-7.529810009
 11
2.7867107511
 21
-7.5283273832
  0
LINE
  5
3F3
100
AcDbEntity
  8
SMUSSO
100
AcDbLine
 62
7
  6
CONTINUOUS
 10
-5.2132892489
 20
-7.5283273832
 11
-5.3723034277
 21
-7.5266253614
  0
LINE
  5
3F4
100
AcDbEntity
  8
0
100
AcDbLine
 62
7
  6
CONTINUOUS
 10
-5.2132892489
 20
-7.5283273832
 11
-5.3723034277
 21
-7.5266253614
  0
LINE
  5
3F5
100
AcDbEntity
  8
SMUSSO
100
AcDbLine
 62
7
  6
CONTINUOUS
 10
2.7867107511
 20
-7.5283273832
 11
2.6276965723
 21
-7.5266253614
  0
LINE
  5
3F6
100
AcDbEntity
  8
0
100
AcDbLine
 62
7
  6
CONTINUOUS
 10
2.7867107511
 20
-7.5283273832
 11
2.6276965723
 21
-7.5266253614
  0
LINE
  5
3F7
100
AcDbEntity
  8
SMUSSO
100
AcDbLine
 62
7
  6
CONTINUOUS
 10
-5.3723034277
 20
-7.5266253614
 11
-5.5232971871
 21
-7.524713769
  0
LINE
  5
3F8
100
AcDbEntity
  8
0
100
AcDbLine
 62
7
  6
CONTINUOUS
 10
-5.3723034277
 20
-7.5266253614
 11
-5.5232971871
 21
-7.524713769
  0
LINE
  5
3F9
100
AcDbEntity
  8
SMUSSO
100
AcDbLine
 62
7
  6
CONTINUOUS
 10
2.6276965723
 20
-7.5266253614
 11
2.4767028129
 21
-7.524713769
  0
LINE
  5
3FA
100
AcDbEntity
  8
0
100
AcDbLine
 62
7
  6
CONTINUOUS
 10
2.6276965723
 20
-7.5266253614
 11
2.4767028129
 21
-7.524713769
  0
LWPOLYLINE
  5
3FB
100
AcDbEntity
  8
RACCORDO
100
AcDbPolyline
 62
253
  6
CONTINUOUS
 90
58
 70
0
 10
-8.7050712124
 20
-7.1550343932
 10
-8.7326160186
 20
-7.1546465155
 10
-8.7601399157
 20
-7.1534999563
 10
-8.7876220107
 20
-7.1515955861
 10
-8.8150414421
 20
-7.1489348503
 10
-8.842377396
 20
-7.1455197687
 10
-8.869609122
 20
-7.1413529337
 10
-8.8967159486
 20
-7.1364375083
 10
-8.9236772994
 20
-7.1307772238
 10
-8.9504727081
 20
-7.1243763768
 10
-8.9770818346
 20
-7.1172398261
 10
-9.0034844802
 20
-7.1093729891
 10
-9.0296606028
 20
-7.1007818374
 10
-9.0555903324
 20
-7.0914728925
 10
-9.0812539858
 20
-7.0814532207
 10
-9.1066320822
 20
-7.0707304278
 10
-9.1317053571
 20
-7.0593126535
 10
-9.1564547776
 20
-7.0472085648
 10
-9.1808615567
 20
-7.0344273499
 10
-9.2049071674
 20
-7.0209787109
 10
-9.2285733569
 20
-7.0068728566
 10
-9.2518421603
 20
-6.9921204945
 10
-9.2746959146
 20
-6.9767328232
 10
-9.2971172716
 20
-6.9607215231
 10
-9.3190892115
 20
-6.9440987484
 10
-9.3405950555
 20
-6.9268771172
 10
-9.3616184788
 20
-6.9090697025
 10
-9.3821435226
 20
-6.8906900215
 10
-9.4021546066
 20
-6.8717520262
 10
-9.4216365405
 20
-6.8522700923
 10
-9.4405745358
 20
-6.8322590083
 10
-9.4589542168
 20
-6.8117339645
 10
-9.4767616315
 20
-6.7907105412
 10
-9.4939832627
 20
-6.7692046972
 10
-9.5106060374
 20
-6.7472327573
 10
-9.5266173374
 20
-6.7248114003
 10
-9.5420050088
 20
-6.701957646
 10
-9.5567573709
 20
-6.6786888426
 10
-9.5708632252
 20
-6.6550226531
 10
-9.5843118642
 20
-6.6309770424
 10
-9.5970930791
 20
-6.6065702633
 10
-9.6091971677
 20
-6.5818208428
 10
-9.6206149421
 20
-6.5567475679
 10
-9.6313377349
 20
-6.5313694716
 10
-9.6413574068
 20
-6.5057058181
 10
-9.6506663517
 20
-6.4797760885
 10
-9.6592575034
 20
-6.4535999659
 10
-9.6671243404
 20
-6.4271973203
 10
-9.6742608911
 20
-6.4005881938
 10
-9.6806617381
 20
-6.3737927851
 10
-9.6863220226
 20
-6.3468314343
 10
-9.691237448
 20
-6.3197246077
 10
-9.695404283
 20
-6.2924928818
 10
-9.6988193646
 20
-6.2651569278
 10
-9.7014801004
 20
-6.2377374965
 10
-9.7033844706
 20
-6.2102554015
 10
-9.7045310298
 20
-6.1827315043
 10
-9.7049189075
 20
-6.1551866981
  0
LWPOLYLINE
  5
3FC
100
AcDbEntity
  8
0
100
AcDbPolyline
 62
253
  6
CONTINUOUS
 90
58
 70
0
 10
-8.7050712124
 20
-7.1550343932
 10
-8.7326160186
 20
-7.1546465155
 10
-8.7601399157
 20
-7.1534999563
 10
-8.7876220107
 20
-7.1515955861
 10
-8.8150414421
 20
-7.1489348503
 10
-8.842377396
 20
-7.1455197687
 10
-8.869609122
 20
-7.1413529337
 10
-8.8967159486
 20
-7.1364375083
 10
-8.9236772994
 20
-7.1307772238
 10
-8.9504727081
 20
-7.1243763768
 10
-8.9770818346
 20
-7.1172398261
 10
-9.0034844802
 20
-7.1093729891
 10
-9.0296606028
 20
-7.1007818374
 10
-9.0555903324
 20
-7.0914728925
 10
-9.0812539858
 20
-7.0814532207
 10
-9.1066320822
 20
-7.0707304278
 10
-9.1317053571
 20
-7.0593126535
 10
-9.1564547776
 20
-7.0472085648
 10
-9.1808615567
 20
-7.0344273499
 10
-9.2049071674
 20
-7.0209787109
 10
-9.2285733569
 20
-7.0068728566
 10
-9.2518421603
 20
-6.9921204945
 10
-9.2746959146
 20
-6.9767328232
 10
-9.2971172716
 20
-6.9607215231
 10
-9.3190892115
 20
-6.9440987484
 10
-9.3405950555
 20
-6.9268771172
 10
-9.3616184788
 20
-6.9090697025
 10
-9.3821435226
 20
-6.8906900215
 10
-9.4021546066
 20
-6.8717520262
 10
-9.4216365405
 20
-6.8522700923
 10
-9.4405745358
 20
-6.8322590083
 10
-9.4589542168
 20
-6.8117339645
 10
-9.4767616315
 20
-6.7907105412
 10
-9.4939832627
 20
-6.7692046972
 10
-9.5106060374
 20
-6.7472327573
 10
-9.5266173374
 20
-6.7248114003
 10
-9.5420050088
 20
-6.701957646
 10
-9.5567573709
 20
-6.6786888426
 10
-9.5708632252
 20
-6.6550226531
 10
-9.5843118642
 20
-6.6309770424
 10
-9.5970930791
 20
-6.6065702633
 10
-9.6091971677
 20
-6.5818208428
 10
-9.6206149421
 20
-6.5567475679
 10
-9.6313377349
 20
-6.5313694716
 10
-9.6413574068
 20
-6.5057058181
 10
-9.6506663517
 20
-6.4797760885
 10
-9.6592575034
 20
-6.4535999659
 10
-9.6671243404
 20
-6.4271973203
 10
-9.6742608911
 20
-6.4005881938
 10
-9.6806617381
 20
-6.3737927851
 10
-9.6863220226
 20
-6.3468314343
 10
-9.691237448
 20
-6.3197246077
 10
-9.695404283
 20
-6.2924928818
 10
-9.6988193646
 20
-6.2651569278
 10
-9.7014801004
 20
-6.2377374965
 10
-9.7033844706
 20
-6.2102554015
 10
-9.7045310298
 20
-6.1827315043
 10
-9.7049189075
 20
-6.1551866981
  0
LINE
  5
3FD
100
AcDbEntity
  8
SMUSSO
100
AcDbLine
 62
7
  6
CONTINUOUS
 10
-5.5232971871
 20
-7.524713769
 11
-5.6653935568
 21
-7.5226039593
  0
LINE
  5
3FE
100
AcDbEntity
  8
0
100
AcDbLine
 62
7
  6
CONTINUOUS
 10
-5.5232971871
 20
-7.524713769
 11
-5.6653935568
 21
-7.5226039593
  0
LINE
  5
3FF
100
AcDbEntity
  8
SMUSSO
100
AcDbLine
 62
7
  6
CONTINUOUS
 10
2.4767028129
 20
-7.524713769
 11
2.3346064432
 21
-7.5226039593
  0
LINE
  5
400
100
AcDbEntity
  8
0
100
AcDbLine
 62
7
  6
CONTINUOUS
 10
2.4767028129
 20
-7.524713769
 11
2.3346064432
 21
-7.5226039593
  0
LINE
  5
401
100
AcDbEntity
  8
SMUSSO
100
AcDbLine
 62
7
  6
CONTINUOUS
 10
-5.6653935568
 20
-7.5226039593
 11
-5.7977586673
 21
-7.5203087221
  0
LINE
  5
402
100
AcDbEntity
  8
0
100
AcDbLine
 62
7
  6
CONTINUOUS
 10
-5.6653935568
 20
-7.5226039593
 11
-5.7977586673
 21
-7.5203087221
  0
LINE
  5
403
100
AcDbEntity
  8
SMUSSO
100
AcDbLine
 62
7
  6
CONTINUOUS
 10
2.3346064432
 20
-7.5226039593
 11
2.2022413327
 21
-7.5203087221
  0
LINE
  5
404
100
AcDbEntity
  8
0
100
AcDbLine
 62
7
  6
CONTINUOUS
 10
2.3346064432
 20
-7.5226039593
 11
2.2022413327
 21
-7.5203087221
  0
LINE
  5
405
100
AcDbEntity
  8
SMUSSO
100
AcDbLine
 62
7
  6
CONTINUOUS
 10
-5.7977586673
 20
-7.5203087221
 11
-5.919565193
 21
-7.5178413481
  0
LINE
  5
406
100
AcDbEntity
  8
0
100
AcDbLine
 62
7
  6
CONTINUOUS
 10
-5.7977586673
 20
-7.5203087221
 11
-5.919565193
 21
-7.5178413481
  0
LINE
  5
407
100
AcDbEntity
  8
SMUSSO
100
AcDbLine
 62
7
  6
CONTINUOUS
 10
2.2022413327
 20
-7.5203087221
 11
2.080434807
 21
-7.5178413481
  0
LINE
  5
408
100
AcDbEntity
  8
0
100
AcDbLine
 62
7
  6
CONTINUOUS
 10
2.2022413327
 20
-7.5203087221
 11
2.080434807
 21
-7.5178413481
  0
LINE
  5
409
100
AcDbEntity
  8
SMUSSO
100
AcDbLine
 62
7
  6
CONTINUOUS
 10
-5.919565193
 20
-7.5178413481
 11
-6.030110747
 21
-7.5152161941
  0
LINE
  5
40A
100
AcDbEntity
  8
0
100
AcDbLine
 62
7
  6
CONTINUOUS
 10
-5.919565193
 20
-7.5178413481
 11
-6.030110747
 21
-7.5152161941
  0
LINE
  5
40B
100
AcDbEntity
  8
SMUSSO
100
AcDbLine
 62
7
  6
CONTINUOUS
 10
2.080434807
 20
-7.5178413481
 11
1.969889253
 21
-7.5152161941
  0
LINE
  5
40C
100
AcDbEntity
  8
0
100
AcDbLine
 62
7
  6
CONTINUOUS
 10
2.080434807
 20
-7.5178413481
 11
1.969889253
 21
-7.5152161941
  0
LINE
  5
40D
100
AcDbEntity
  8
SMUSSO
100
AcDbLine
 62
7
  6
CONTINUOUS
 10
-6.030110747
 20
-7.5152161941
 11
-6.1287218218
 21
-7.5124498072
  0
LINE
  5
40E
100
AcDbEntity
  8
0
100
AcDbLine
 62
7
  6
CONTINUOUS
 10
-6.030110747
 20
-7.5152161941
 11
-6.1287218218
 21
-7.5124498072
  0
LINE
  5
40F
100
AcDbEntity
  8
SMUSSO
100
AcDbLine
 62
7
  6
CONTINUOUS
 10
1.969889253
 20
-7.5152161941
 11
1.8712781782
 21
-7.5124498072
  0
LINE
  5
410
100
AcDbEntity
  8
0
100
AcDbLine
 62
7
  6
CONTINUOUS
 10
1.969889253
 20
-7.5152161941
 11
1.8712781782
 21
-7.5124498072
  0
LINE
  5
411
100
AcDbEntity
  8
SMUSSO
100
AcDbLine
 62
7
  6
CONTINUOUS
 10
-6.1287218218
 20
-7.5124498072
 11
-6.2147955668
 21
-7.5095576884
  0
LINE
  5
412
100
AcDbEntity
  8
0
100
AcDbLine
 62
7
  6
CONTINUOUS
 10
-6.1287218218
 20
-7.5124498072
 11
-6.2147955668
 21
-7.5095576884
  0
LINE
  5
413
100
AcDbEntity
  8
SMUSSO
100
AcDbLine
 62
7
  6
CONTINUOUS
 10
1.8712781782
 20
-7.5124498072
 11
1.7852044332
 21
-7.5095576884
  0
LINE
  5
414
100
AcDbEntity
  8
0
100
AcDbLine
 62
7
  6
CONTINUOUS
 10
1.8712781782
 20
-7.5124498072
 11
1.7852044332
 21
-7.5095576884
  0
LINE
  5
415
100
AcDbEntity
  8
SMUSSO
100
AcDbLine
 62
7
  6
CONTINUOUS
 10
-6.2147955668
 20
-7.5095576884
 11
-6.264940672
 21
-7.5075683136
  0
LINE
  5
416
100
AcDbEntity
  8
0
100
AcDbLine
 62
7
  6
CONTINUOUS
 10
-6.2147955668
 20
-7.5095576884
 11
-6.264940672
 21
-7.5075683136
  0
LINE
  5
417
100
AcDbEntity
  8
SMUSSO
100
AcDbLine
 62
7
  6
CONTINUOUS
 10
1.7852044332
 20
-7.5095576884
 11
1.735059328
 21
-7.5075683136
  0
LINE
  5
418
100
AcDbEntity
  8
0
100
AcDbLine
 62
7
  6
CONTINUOUS
 10
1.7852044332
 20
-7.5095576884
 11
1.735059328
 21
-7.5075683136
  0
LWPOLYLINE
  5
419
100
AcDbEntity
  8
SMUSSO
100
AcDbPolyline
 62
7
  6
CONTINUOUS
 90
15
 70
0
 10
-6.264940672
 20
-7.5075683136
 10
-6.3091554103
 20
-7.5055363208
 10
-6.328995474
 20
-7.5045063324
 10
-6.347307965
 20
-7.5034676326
 10
-6.3640942883
 20
-7.5024202687
 10
-6.3793147672
 20
-7.5013663738
 10
-6.3929629086
 20
-7.5003059676
 10
-6.4050452056
 20
-7.4992390305
 10
-6.4155414602
 20
-7.4981676374
 10
-6.4244507514
 20
-7.4970917898
 10
-6.4317740003
 20
-7.4960114861
 10
-6.4374937726
 20
-7.4949287964
 10
-6.4416042571
 20
-7.4938444105
 10
-6.444111265
 20
-7.4927576386
 10
-6.4450147964
 20
-7.4916684805
  0
LWPOLYLINE
  5
41A
100
AcDbEntity
  8
0
100
AcDbPolyline
 62
7
  6
CONTINUOUS
 90
15
 70
0
 10
-6.264940672
 20
-7.5075683136
 10
-6.3091554103
 20
-7.5055363208
 10
-6.328995474
 20
-7.5045063324
 10
-6.347307965
 20
-7.5034676326
 10
-6.3640942883
 20
-7.5024202687
 10
-6.3793147672
 20
-7.5013663738
 10
-6.3929629086
 20
-7.5003059676
 10
-6.4050452056
 20
-7.4992390305
 10
-6.4155414602
 20
-7.4981676374
 10
-6.4244507514
 20
-7.4970917898
 10
-6.4317740003
 20
-7.4960114861
 10
-6.4374937726
 20
-7.4949287964
 10
-6.4416042571
 20
-7.4938444105
 10
-6.444111265
 20
-7.4927576386
 10
-6.4450147964
 20
-7.4916684805
  0
LWPOLYLINE
  5
41B
100
AcDbEntity
  8
SMUSSO
100
AcDbPolyline
 62
7
  6
CONTINUOUS
 90
15
 70
0
 10
1.735059328
 20
-7.5075683136
 10
1.6908445897
 20
-7.5055363208
 10
1.671004526
 20
-7.5045063324
 10
1.652692035
 20
-7.5034676326
 10
1.6359057117
 20
-7.5024202687
 10
1.6206852328
 20
-7.5013663738
 10
1.6070370914
 20
-7.5003059676
 10
1.5949547944
 20
-7.4992390305
 10
1.5844585398
 20
-7.4981676374
 10
1.5755492486
 20
-7.4970917898
 10
1.5682259997
 20
-7.4960114861
 10
1.5625062274
 20
-7.4949287964
 10
1.5583957429
 20
-7.4938444105
 10
1.555888735
 20
-7.4927576386
 10
1.5549852036
 20
-7.4916684805
  0
LWPOLYLINE
  5
41C
100
AcDbEntity
  8
0
100
AcDbPolyline
 62
7
  6
CONTINUOUS
 90
15
 70
0
 10
1.735059328
 20
-7.5075683136
 10
1.6908445897
 20
-7.5055363208
 10
1.671004526
 20
-7.5045063324
 10
1.652692035
 20
-7.5034676326
 10
1.6359057117
 20
-7.5024202687
 10
1.6206852328
 20
-7.5013663738
 10
1.6070370914
 20
-7.5003059676
 10
1.5949547944
 20
-7.4992390305
 10
1.5844585398
 20
-7.4981676374
 10
1.5755492486
 20
-7.4970917898
 10
1.5682259997
 20
-7.4960114861
 10
1.5625062274
 20
-7.4949287964
 10
1.5583957429
 20
-7.4938444105
 10
1.555888735
 20
-7.4927576386
 10
1.5549852036
 20
-7.4916684805
  0
LWPOLYLINE
  5
41D
100
AcDbEntity
  8
SMUSSO
100
AcDbPolyline
 62
7
  6
CONTINUOUS
 90
14
 70
0
 10
-5.733768987
 20
-6.5034817446
 10
-5.7681505162
 20
-6.5018691996
 10
-5.7834867059
 20
-6.501051631
 10
-5.7975697871
 20
-6.5002265625
 10
-5.8103878675
 20
-6.4993958222
 10
-5.8219304929
 20
-6.4985594335
 10
-5.8321891896
 20
-6.4977173732
 10
-5.8411563732
 20
-6.4968713987
 10
-5.848824525
 20
-6.4960215044
 10
-5.8551871054
 20
-6.4951676961
 10
-5.8602388184
 20
-6.4943117489
 10
-5.8639747369
 20
-6.4934542546
 10
-5.8663906482
 20
-6.4925946215
 10
-5.8674834354
 20
-6.4917328495
  0
LWPOLYLINE
  5
41E
100
AcDbEntity
  8
0
100
AcDbPolyline
 62
7
  6
CONTINUOUS
 90
14
 70
0
 10
-5.733768987
 20
-6.5034817446
 10
-5.7681505162
 20
-6.5018691996
 10
-5.7834867059
 20
-6.501051631
 10
-5.7975697871
 20
-6.5002265625
 10
-5.8103878675
 20
-6.4993958222
 10
-5.8219304929
 20
-6.4985594335
 10
-5.8321891896
 20
-6.4977173732
 10
-5.8411563732
 20
-6.4968713987
 10
-5.848824525
 20
-6.4960215044
 10
-5.8551871054
 20
-6.4951676961
 10
-5.8602388184
 20
-6.4943117489
 10
-5.8639747369
 20
-6.4934542546
 10
-5.8663906482
 20
-6.4925946215
 10
-5.8674834354
 20
-6.4917328495
  0
LINE
  5
41F
100
AcDbEntity
  8
SMUSSO
100
AcDbLine
 62
253
  6
CONTINUOUS
 10
-2.1970224503
 20
-6.4917328495
 11
-1.6194910893
 21
-7.4916684805
  0
LINE
  5
420
100
AcDbEntity
  8
0
100
AcDbLine
 62
253
  6
CONTINUOUS
 10
-2.1970224503
 20
-6.4917328495
 11
-1.6194910893
 21
-7.4916684805
  0
LINE
  5
421
100
AcDbEntity
  8
RACCORDO
100
AcDbLine
 62
7
  6
CONTINUOUS
 10
-2.0099579132
 20
-6.1551866981
 11
-2.020035328
 21
-6.1377316447
  0
LINE
  5
422
100
AcDbEntity
  8
0
100
AcDbLine
 62
7
  6
CONTINUOUS
 10
-2.0099579132
 20
-6.1551866981
 11
-2.020035328
 21
-6.1377316447
  0
LINE
  5
423
100
AcDbEntity
  8
RACCORDO
100
AcDbLine
 62
7
  6
CONTINUOUS
 10
-3.4322529429
 20
18.6159399204
 11
-3.4322529429
 21
18.4676315714
  0
LINE
  5
424
100
AcDbEntity
  8
0
100
AcDbLine
 62
7
  6
CONTINUOUS
 10
-3.4322529429
 20
18.6159399204
 11
-3.4322529429
 21
18.4655619669
  0
LINE
  5
425
100
AcDbEntity
  8
RACCORDO
100
AcDbLine
 62
7
  6
CONTINUOUS
 10
-3.4322529429
 20
-21.3323684286
 11
-3.4322529429
 21
-21.4806767775
  0
LINE
  5
426
100
AcDbEntity
  8
0
100
AcDbLine
 62
7
  6
CONTINUOUS
 10
-3.4322529429
 20
-21.330298824
 11
-3.4322529429
 21
-21.4806767775
  0
LINE
  5
427
100
AcDbEntity
  8
RACCORDO
100
AcDbLine
 62
7
  6
CONTINUOUS
 10
-3.0322529429
 20
-22.4323684286
 11
-3.0322529429
 21
-23.7704076673
  0
LINE
  5
428
100
AcDbEntity
  8
RACCORDO
100
AcDbLine
 62
7
  6
CONTINUOUS
 10
-3.0322529429
 20
19.5676315714
 11
-3.0322529429
 21
20.9056708101
  0
LINE
  5
429
100
AcDbEntity
  8
RACCORDO
100
AcDbLine
 62
253
  6
CONTINUOUS
 10
-2.4322529429
 20
18.6208093623
 11
-2.4322529429
 21
18.4520185226
  0
LINE
  5
42A
100
AcDbEntity
  8
0
100
AcDbLine
 62
253
  6
CONTINUOUS
 10
-2.4322529429
 20
18.620865465
 11
-2.4322529429
 21
18.4520185226
  0
LINE
  5
42B
100
AcDbEntity
  8
RACCORDO
100
AcDbLine
 62
253
  6
CONTINUOUS
 10
-2.4322529429
 20
-21.3167553797
 11
-2.4322529429
 21
-21.4855462195
  0
LINE
  5
42C
100
AcDbEntity
  8
0
100
AcDbLine
 62
253
  6
CONTINUOUS
 10
-2.4322529429
 20
-21.3167553797
 11
-2.4322529429
 21
-21.4856023221
  0
LINE
  5
42D
100
AcDbEntity
  8
SMUSSO
100
AcDbLine
 62
253
  6
CONTINUOUS
 10
-2.1970224503
 20
-6.4917328495
 11
-2.1970224503
 21
-5.897137936
  0
LINE
  5
42E
100
AcDbEntity
  8
0
100
AcDbLine
 62
253
  6
CONTINUOUS
 10
-2.1970224503
 20
-6.4917328495
 11
-2.1970224503
 21
-5.897137936
  0
LINE
  5
42F
100
AcDbEntity
  8
SMUSSO
100
AcDbLine
 62
7
  6
CONTINUOUS
 10
-2.020035328
 20
-6.1377316447
 11
-2.020035328
 21
-5.7323684286
  0
LINE
  5
430
100
AcDbEntity
  8
0
100
AcDbLine
 62
7
  6
CONTINUOUS
 10
-2.020035328
 20
-6.1377316447
 11
-2.020035328
 21
-5.7323684286
  0
LINE
  5
431
100
AcDbEntity
  8
0
100
AcDbLine
 62
7
  6
CONTINUOUS
 10
-9.6822529429
 20
-21.5813394824
 11
-9.6450328805
 21
-21.4695884909
  0
LINE
  5
432
100
AcDbEntity
  8
0
100
AcDbLine
 62
7
  6
CONTINUOUS
 10
-8.9321390097
 20
-22.3323684286
 11
-8.8946903336
 21
-22.2199310379
  0
LINE
  5
433
100
AcDbEntity
  8
RACCORDO
100
AcDbLine
 62
7
  6
CONTINUOUS
 10
-6.0545479725
 20
-6.1551866981
 11
-6.0444705578
 21
-6.1377316447
  0
LINE
  5
434
100
AcDbEntity
  8
0
100
AcDbLine
 62
7
  6
CONTINUOUS
 10
-6.0545479725
 20
-6.1551866981
 11
-6.0444705578
 21
-6.1377316447
  0
LINE
  5
435
100
AcDbEntity
  8
SMUSSO
100
AcDbLine
 62
253
  6
CONTINUOUS
 10
-6.4450147964
 20
-7.4916684805
 11
-5.8674834354
 21
-6.4917328495
  0
LINE
  5
436
100
AcDbEntity
  8
0
100
AcDbLine
 62
253
  6
CONTINUOUS
 10
-6.4450147964
 20
-7.4916684805
 11
-5.8674834354
 21
-6.4917328495
  0
LINE
  5
437
100
AcDbEntity
  8
RACCORDO
100
AcDbLine
 62
253
  6
CONTINUOUS
 10
-9.7049189075
 20
-6.1551866981
 11
-10.0822529429
 21
-6.5325207334
  0
LINE
  5
438
100
AcDbEntity
  8
0
100
AcDbLine
 62
253
  6
CONTINUOUS
 10
-9.7049189075
 20
-6.1551866981
 11
-10.0822529429
 21
-6.5325207334
  0
LINE
  5
439
100
AcDbEntity
  8
SMUSSO
100
AcDbLine
 62
7
  6
CONTINUOUS
 10
5.7036446305
 20
-6.5018691996
 11
5.6692631013
 21
-6.5034817446
  0
LINE
  5
43A
100
AcDbEntity
  8
0
100
AcDbLine
 62
7
  6
CONTINUOUS
 10
5.7036446305
 20
-6.5018691996
 11
5.6692631013
 21
-6.5034817446
  0
LINE
  5
43B
100
AcDbEntity
  8
SMUSSO
100
AcDbLine
 62
7
  6
CONTINUOUS
 10
-2.2963553695
 20
-6.5018691996
 11
-2.3307368987
 21
-6.5034817446
  0
LINE
  5
43C
100
AcDbEntity
  8
0
100
AcDbLine
 62
7
  6
CONTINUOUS
 10
-2.2963553695
 20
-6.5018691996
 11
-2.3307368987
 21
-6.5034817446
  0
LINE
  5
43D
100
AcDbEntity
  8
SMUSSO
100
AcDbLine
 62
7
  6
CONTINUOUS
 10
5.6692631013
 20
-6.5034817446
 11
5.6300219665
 21
-6.5050592072
  0
LINE
  5
43E
100
AcDbEntity
  8
0
100
AcDbLine
 62
7
  6
CONTINUOUS
 10
5.6692631013
 20
-6.5034817446
 11
5.6300219665
 21
-6.5050592072
  0
LINE
  5
43F
100
AcDbEntity
  8
SMUSSO
100
AcDbLine
 62
7
  6
CONTINUOUS
 10
-2.3307368987
 20
-6.5034817446
 11
-2.3699780335
 21
-6.5050592072
  0
LINE
  5
440
100
AcDbEntity
  8
0
100
AcDbLine
 62
7
  6
CONTINUOUS
 10
-2.3307368987
 20
-6.5034817446
 11
-2.3699780335
 21
-6.5050592072
  0
LINE
  5
441
100
AcDbEntity
  8
SMUSSO
100
AcDbLine
 62
7
  6
CONTINUOUS
 10
5.6300219665
 20
-6.5050592072
 11
5.5860389998
 21
-6.5065982453
  0
LINE
  5
442
100
AcDbEntity
  8
0
100
AcDbLine
 62
7
  6
CONTINUOUS
 10
5.6300219665
 20
-6.5050592072
 11
5.5860389998
 21
-6.5065982453
  0
LINE
  5
443
100
AcDbEntity
  8
SMUSSO
100
AcDbLine
 62
7
  6
CONTINUOUS
 10
-2.3699780335
 20
-6.5050592072
 11
-2.4139610002
 21
-6.5065982453
  0
LINE
  5
444
100
AcDbEntity
  8
0
100
AcDbLine
 62
7
  6
CONTINUOUS
 10
-2.3699780335
 20
-6.5050592072
 11
-2.4139610002
 21
-6.5065982453
  0
LINE
  5
445
100
AcDbEntity
  8
SMUSSO
100
AcDbLine
 62
7
  6
CONTINUOUS
 10
5.5860389998
 20
-6.5065982453
 11
5.5114636864
 21
-6.5088238359
  0
LINE
  5
446
100
AcDbEntity
  8
0
100
AcDbLine
 62
7
  6
CONTINUOUS
 10
5.5860389998
 20
-6.5065982453
 11
5.5114636864
 21
-6.5088238359
  0
LINE
  5
447
100
AcDbEntity
  8
SMUSSO
100
AcDbLine
 62
7
  6
CONTINUOUS
 10
-2.4139610002
 20
-6.5065982453
 11
-2.4885363136
 21
-6.5088238359
  0
LINE
  5
448
100
AcDbEntity
  8
0
100
AcDbLine
 62
7
  6
CONTINUOUS
 10
-2.4139610002
 20
-6.5065982453
 11
-2.4885363136
 21
-6.5088238359
  0
LINE
  5
449
100
AcDbEntity
  8
SMUSSO
100
AcDbLine
 62
7
  6
CONTINUOUS
 10
5.5114636864
 20
-6.5088238359
 11
5.4270350007
 21
-6.5109370802
  0
LINE
  5
44A
100
AcDbEntity
  8
0
100
AcDbLine
 62
7
  6
CONTINUOUS
 10
5.5114636864
 20
-6.5088238359
 11
5.4270350007
 21
-6.5109370802
  0
LINE
  5
44B
100
AcDbEntity
  8
SMUSSO
100
AcDbLine
 62
7
  6
CONTINUOUS
 10
-2.4885363136
 20
-6.5088238359
 11
-2.5729649993
 21
-6.5109370802
  0
LINE
  5
44C
100
AcDbEntity
  8
0
100
AcDbLine
 62
7
  6
CONTINUOUS
 10
-2.4885363136
 20
-6.5088238359
 11
-2.5729649993
 21
-6.5109370802
  0
LINE
  5
44D
100
AcDbEntity
  8
SMUSSO
100
AcDbLine
 62
7
  6
CONTINUOUS
 10
5.4270350007
 20
-6.5109370802
 11
5.3332713788
 21
-6.5129254228
  0
LINE
  5
44E
100
AcDbEntity
  8
0
100
AcDbLine
 62
7
  6
CONTINUOUS
 10
5.4270350007
 20
-6.5109370802
 11
5.3332713788
 21
-6.5129254228
  0
LINE
  5
44F
100
AcDbEntity
  8
SMUSSO
100
AcDbLine
 62
7
  6
CONTINUOUS
 10
-2.5729649993
 20
-6.5109370802
 11
-2.6667286212
 21
-6.5129254228
  0
LINE
  5
450
100
AcDbEntity
  8
0
100
AcDbLine
 62
7
  6
CONTINUOUS
 10
-2.5729649993
 20
-6.5109370802
 11
-2.6667286212
 21
-6.5129254228
  0
LINE
  5
451
100
AcDbEntity
  8
SMUSSO
100
AcDbLine
 62
7
  6
CONTINUOUS
 10
5.3332713788
 20
-6.5129254228
 11
5.2308545933
 21
-6.5147748377
  0
LINE
  5
452
100
AcDbEntity
  8
0
100
AcDbLine
 62
7
  6
CONTINUOUS
 10
5.3332713788
 20
-6.5129254228
 11
5.2308545933
 21
-6.5147748377
  0
LINE
  5
453
100
AcDbEntity
  8
SMUSSO
100
AcDbLine
 62
7
  6
CONTINUOUS
 10
-2.6667286212
 20
-6.5129254228
 11
-2.7691454067
 21
-6.5147748377
  0
LINE
  5
454
100
AcDbEntity
  8
0
100
AcDbLine
 62
7
  6
CONTINUOUS
 10
-2.6667286212
 20
-6.5129254228
 11
-2.7691454067
 21
-6.5147748377
  0
LINE
  5
455
100
AcDbEntity
  8
SMUSSO
100
AcDbLine
 62
7
  6
CONTINUOUS
 10
5.2308545933
 20
-6.5147748377
 11
5.1203611772
 21
-6.5164751727
  0
LINE
  5
456
100
AcDbEntity
  8
0
100
AcDbLine
 62
7
  6
CONTINUOUS
 10
5.2308545933
 20
-6.5147748377
 11
5.1203611772
 21
-6.5164751727
  0
LINE
  5
457
100
AcDbEntity
  8
SMUSSO
100
AcDbLine
 62
7
  6
CONTINUOUS
 10
-2.7691454067
 20
-6.5147748377
 11
-2.8796388228
 21
-6.5164751727
  0
LINE
  5
458
100
AcDbEntity
  8
0
100
AcDbLine
 62
7
  6
CONTINUOUS
 10
-2.7691454067
 20
-6.5147748377
 11
-2.8796388228
 21
-6.5164751727
  0
LINE
  5
459
100
AcDbEntity
  8
SMUSSO
100
AcDbLine
 62
7
  6
CONTINUOUS
 10
5.1203611772
 20
-6.5164751727
 11
4.9618359057
 21
-6.5184897865
  0
LINE
  5
45A
100
AcDbEntity
  8
0
100
AcDbLine
 62
7
  6
CONTINUOUS
 10
5.1203611772
 20
-6.5164751727
 11
4.9618359057
 21
-6.5184897865
  0
LINE
  5
45B
100
AcDbEntity
  8
SMUSSO
100
AcDbLine
 62
7
  6
CONTINUOUS
 10
-2.8796388228
 20
-6.5164751727
 11
-3.0381640943
 21
-6.5184897865
  0
LINE
  5
45C
100
AcDbEntity
  8
0
100
AcDbLine
 62
7
  6
CONTINUOUS
 10
-2.8796388228
 20
-6.5164751727
 11
-3.0381640943
 21
-6.5184897865
  0
LINE
  5
45D
100
AcDbEntity
  8
SMUSSO
100
AcDbLine
 62
7
  6
CONTINUOUS
 10
4.9618359057
 20
-6.5184897865
 11
4.7920794422
 21
-6.5201970203
  0
LINE
  5
45E
100
AcDbEntity
  8
0
100
AcDbLine
 62
7
  6
CONTINUOUS
 10
4.9618359057
 20
-6.5184897865
 11
4.7920794422
 21
-6.5201970203
  0
LINE
  5
45F
100
AcDbEntity
  8
SMUSSO
100
AcDbLine
 62
7
  6
CONTINUOUS
 10
-3.0381640943
 20
-6.5184897865
 11
-3.2079205578
 21
-6.5201970203
  0
LINE
  5
460
100
AcDbEntity
  8
0
100
AcDbLine
 62
7
  6
CONTINUOUS
 10
-3.0381640943
 20
-6.5184897865
 11
-3.2079205578
 21
-6.5201970203
  0
LINE
  5
461
100
AcDbEntity
  8
SMUSSO
100
AcDbLine
 62
7
  6
CONTINUOUS
 10
4.7920794422
 20
-6.5201970203
 11
4.6130595912
 21
-6.5215764828
  0
LINE
  5
462
100
AcDbEntity
  8
0
100
AcDbLine
 62
7
  6
CONTINUOUS
 10
4.7920794422
 20
-6.5201970203
 11
4.6130595912
 21
-6.5215764828
  0
LINE
  5
463
100
AcDbEntity
  8
SMUSSO
100
AcDbLine
 62
7
  6
CONTINUOUS
 10
-3.2079205578
 20
-6.5201970203
 11
-3.3869404088
 21
-6.5215764828
  0
LINE
  5
464
100
AcDbEntity
  8
0
100
AcDbLine
 62
7
  6
CONTINUOUS
 10
-3.2079205578
 20
-6.5201970203
 11
-3.3869404088
 21
-6.5215764828
  0
LINE
  5
465
100
AcDbEntity
  8
SMUSSO
100
AcDbLine
 62
7
  6
CONTINUOUS
 10
4.6130595912
 20
-6.5215764828
 11
4.4267908158
 21
-6.5226130613
  0
LINE
  5
466
100
AcDbEntity
  8
0
100
AcDbLine
 62
7
  6
CONTINUOUS
 10
4.6130595912
 20
-6.5215764828
 11
4.4267908158
 21
-6.5226130613
  0
LINE
  5
467
100
AcDbEntity
  8
SMUSSO
100
AcDbLine
 62
7
  6
CONTINUOUS
 10
-3.3869404088
 20
-6.5215764828
 11
-3.5732091842
 21
-6.5226130613
  0
LINE
  5
468
100
AcDbEntity
  8
0
100
AcDbLine
 62
7
  6
CONTINUOUS
 10
-3.3869404088
 20
-6.5215764828
 11
-3.5732091842
 21
-6.5226130613
  0
LINE
  5
469
100
AcDbEntity
  8
SMUSSO
100
AcDbLine
 62
7
  6
CONTINUOUS
 10
4.4267908158
 20
-6.5226130613
 11
4.2353671459
 21
-6.5232952346
  0
LINE
  5
46A
100
AcDbEntity
  8
0
100
AcDbLine
 62
7
  6
CONTINUOUS
 10
4.4267908158
 20
-6.5226130613
 11
4.2353671459
 21
-6.5232952346
  0
LINE
  5
46B
100
AcDbEntity
  8
SMUSSO
100
AcDbLine
 62
7
  6
CONTINUOUS
 10
-3.5732091842
 20
-6.5226130613
 11
-3.7646328541
 21
-6.5232952346
  0
LINE
  5
46C
100
AcDbEntity
  8
0
100
AcDbLine
 62
7
  6
CONTINUOUS
 10
-3.5732091842
 20
-6.5226130613
 11
-3.7646328541
 21
-6.5232952346
  0
LINE
  5
46D
100
AcDbEntity
  8
SMUSSO
100
AcDbLine
 62
7
  6
CONTINUOUS
 10
4.2353671459
 20
-6.5232952346
 11
4.0409976779
 21
-6.5236151276
  0
LINE
  5
46E
100
AcDbEntity
  8
0
100
AcDbLine
 62
7
  6
CONTINUOUS
 10
4.2353671459
 20
-6.5232952346
 11
4.0409976779
 21
-6.5236151276
  0
LINE
  5
46F
100
AcDbEntity
  8
SMUSSO
100
AcDbLine
 62
7
  6
CONTINUOUS
 10
-3.7646328541
 20
-6.5232952346
 11
-3.9590023221
 21
-6.5236151276
  0
LINE
  5
470
100
AcDbEntity
  8
0
100
AcDbLine
 62
7
  6
CONTINUOUS
 10
-3.7646328541
 20
-6.5232952346
 11
-3.9590023221
 21
-6.5236151276
  0
LINE
  5
471
100
AcDbEntity
  8
0
100
AcDbLine
 62
253
  6
CONTINUOUS
 10
11.0229460992
 20
-6.6035014286
 11
11.0735503869
 21
-6.6035014286
  0
LINE
  5
472
100
AcDbEntity
  8
RACCORDO
100
AcDbLine
 62
253
  6
CONTINUOUS
 10
-2.0099579132
 20
-6.1551866981
 11
1.9454520275
 21
-6.1551866981
  0
LINE
  5
473
100
AcDbEntity
  8
0
100
AcDbLine
 62
253
  6
CONTINUOUS
 10
-2.0099579132
 20
-6.1551866981
 11
1.9454520275
 21
-6.1551866981
  0
LINE
  5
474
100
AcDbEntity
  8
RACCORDO
100
AcDbLine
 62
253
  6
CONTINUOUS
 10
5.9900420868
 20
-6.1551866981
 11
9.6404130218
 21
-6.1551866981
  0
LINE
  5
475
100
AcDbEntity
  8
0
100
AcDbLine
 62
253
  6
CONTINUOUS
 10
5.9900420868
 20
-6.1551866981
 11
9.6404130218
 21
-6.1551866981
  0
LINE
  5
476
100
AcDbEntity
  8
RACCORDO
100
AcDbLine
 62
253
  6
CONTINUOUS
 10
-6.0545479725
 20
-6.1551866981
 11
-9.7049189075
 21
-6.1551866981
  0
LINE
  5
477
100
AcDbEntity
  8
0
100
AcDbLine
 62
253
  6
CONTINUOUS
 10
-6.0545479725
 20
-6.1551866981
 11
-9.7049189075
 21
-6.1551866981
  0
LINE
  5
478
100
AcDbEntity
  8
DRAFT
100
AcDbLine
 62
7
  6
CONTINUOUS
 10
-6.0444705578
 20
-5.7323684286
 11
-2.020035328
 21
-5.7323684286
  0
LINE
  5
479
100
AcDbEntity
  8
0
100
AcDbLine
 62
7
  6
CONTINUOUS
 10
-6.0444705578
 20
-5.7323684286
 11
-2.020035328
 21
-5.7323684286
  0
LINE
  5
47A
100
AcDbEntity
  8
DRAFT
100
AcDbLine
 62
7
  6
CONTINUOUS
 10
5.979964672
 20
-5.7323684286
 11
1.9555294422
 21
-5.7323684286
  0
LINE
  5
47B
100
AcDbEntity
  8
0
100
AcDbLine
 62
7
  6
CONTINUOUS
 10
5.979964672
 20
-5.7323684286
 11
1.9555294422
 21
-5.7323684286
  0
LINE
  5
47C
100
AcDbEntity
  8
SMUSSO
100
AcDbLine
 62
7
  6
CONTINUOUS
 10
-3.9590023221
 20
-6.5236151276
 11
-4.1542555748
 21
-6.5235693709
  0
LINE
  5
47D
100
AcDbEntity
  8
0
100
AcDbLine
 62
7
  6
CONTINUOUS
 10
-3.9590023221
 20
-6.5236151276
 11
-4.1542555748
 21
-6.5235693709
  0
LINE
  5
47E
100
AcDbEntity
  8
SMUSSO
100
AcDbLine
 62
7
  6
CONTINUOUS
 10
4.0409976779
 20
-6.5236151276
 11
3.8457444252
 21
-6.5235693709
  0
LINE
  5
47F
100
AcDbEntity
  8
0
100
AcDbLine
 62
7
  6
CONTINUOUS
 10
4.0409976779
 20
-6.5236151276
 11
3.8457444252
 21
-6.5235693709
  0
LINE
  5
480
100
AcDbEntity
  8
SMUSSO
100
AcDbLine
 62
7
  6
CONTINUOUS
 10
-4.1542555748
 20
-6.5235693709
 11
-4.3481077335
 21
-6.5231583291
  0
LINE
  5
481
100
AcDbEntity
  8
0
100
AcDbLine
 62
7
  6
CONTINUOUS
 10
-4.1542555748
 20
-6.5235693709
 11
-4.3481077335
 21
-6.5231583291
  0
LINE
  5
482
100
AcDbEntity
  8
SMUSSO
100
AcDbLine
 62
7
  6
CONTINUOUS
 10
3.8457444252
 20
-6.5235693709
 11
3.6518922665
 21
-6.5231583291
  0
LINE
  5
483
100
AcDbEntity
  8
0
100
AcDbLine
 62
7
  6
CONTINUOUS
 10
3.8457444252
 20
-6.5235693709
 11
3.6518922665
 21
-6.5231583291
  0
LINE
  5
484
100
AcDbEntity
  8
SMUSSO
100
AcDbLine
 62
7
  6
CONTINUOUS
 10
-4.3481077335
 20
-6.5231583291
 11
-4.5384219822
 21
-6.5223868555
  0
LINE
  5
485
100
AcDbEntity
  8
0
100
AcDbLine
 62
7
  6
CONTINUOUS
 10
-4.3481077335
 20
-6.5231583291
 11
-4.5384219822
 21
-6.5223868555
  0
LINE
  5
486
100
AcDbEntity
  8
SMUSSO
100
AcDbLine
 62
7
  6
CONTINUOUS
 10
3.6518922665
 20
-6.5231583291
 11
3.4615780178
 21
-6.5223868555
  0
LINE
  5
487
100
AcDbEntity
  8
0
100
AcDbLine
 62
7
  6
CONTINUOUS
 10
3.6518922665
 20
-6.5231583291
 11
3.4615780178
 21
-6.5223868555
  0
LINE
  5
488
100
AcDbEntity
  8
SMUSSO
100
AcDbLine
 62
7
  6
CONTINUOUS
 10
-4.5384219822
 20
-6.5223868555
 11
-4.7230832648
 21
-6.5212632366
  0
LINE
  5
489
100
AcDbEntity
  8
0
100
AcDbLine
 62
7
  6
CONTINUOUS
 10
-4.5384219822
 20
-6.5223868555
 11
-4.7230832648
 21
-6.5212632366
  0
LINE
  5
48A
100
AcDbEntity
  8
SMUSSO
100
AcDbLine
 62
7
  6
CONTINUOUS
 10
3.4615780178
 20
-6.5223868555
 11
3.2769167352
 21
-6.5212632366
  0
LINE
  5
48B
100
AcDbEntity
  8
0
100
AcDbLine
 62
7
  6
CONTINUOUS
 10
3.4615780178
 20
-6.5223868555
 11
3.2769167352
 21
-6.5212632366
  0
LINE
  5
48C
100
AcDbEntity
  8
SMUSSO
100
AcDbLine
 62
7
  6
CONTINUOUS
 10
-4.7230832648
 20
-6.5212632366
 11
-4.8999612522
 21
-6.5198001765
  0
LINE
  5
48D
100
AcDbEntity
  8
0
100
AcDbLine
 62
7
  6
CONTINUOUS
 10
-4.7230832648
 20
-6.5212632366
 11
-4.8999612522
 21
-6.5198001765
  0
LINE
  5
48E
100
AcDbEntity
  8
SMUSSO
100
AcDbLine
 62
7
  6
CONTINUOUS
 10
3.2769167352
 20
-6.5212632366
 11
3.1000387478
 21
-6.5198001765
  0
LINE
  5
48F
100
AcDbEntity
  8
0
100
AcDbLine
 62
7
  6
CONTINUOUS
 10
3.2769167352
 20
-6.5212632366
 11
3.1000387478
 21
-6.5198001765
  0
LINE
  5
490
100
AcDbEntity
  8
SMUSSO
100
AcDbLine
 62
7
  6
CONTINUOUS
 10
-4.8999612522
 20
-6.5198001765
 11
-5.0671068732
 21
-6.5180141531
  0
LINE
  5
491
100
AcDbEntity
  8
0
100
AcDbLine
 62
7
  6
CONTINUOUS
 10
-4.8999612522
 20
-6.5198001765
 11
-5.0671068732
 21
-6.5180141531
  0
LINE
  5
492
100
AcDbEntity
  8
SMUSSO
100
AcDbLine
 62
7
  6
CONTINUOUS
 10
3.1000387478
 20
-6.5198001765
 11
2.9328931268
 21
-6.5180141531
  0
LINE
  5
493
100
AcDbEntity
  8
0
100
AcDbLine
 62
7
  6
CONTINUOUS
 10
3.1000387478
 20
-6.5198001765
 11
2.9328931268
 21
-6.5180141531
  0
LINE
  5
494
100
AcDbEntity
  8
SMUSSO
100
AcDbLine
 62
7
  6
CONTINUOUS
 10
-5.0671068732
 20
-6.5180141531
 11
-5.2225459666
 21
-6.5159258681
  0
LINE
  5
495
100
AcDbEntity
  8
0
100
AcDbLine
 62
7
  6
CONTINUOUS
 10
-5.0671068732
 20
-6.5180141531
 11
-5.2225459666
 21
-6.5159258681
  0
LINE
  5
496
100
AcDbEntity
  8
SMUSSO
100
AcDbLine
 62
7
  6
CONTINUOUS
 10
2.9328931268
 20
-6.5180141531
 11
2.7774540334
 21
-6.5159258681
  0
LINE
  5
497
100
AcDbEntity
  8
0
100
AcDbLine
 62
7
  6
CONTINUOUS
 10
2.9328931268
 20
-6.5180141531
 11
2.7774540334
 21
-6.5159258681
  0
LINE
  5
498
100
AcDbEntity
  8
SMUSSO
100
AcDbLine
 62
7
  6
CONTINUOUS
 10
-5.2225459666
 20
-6.5159258681
 11
-5.330426889
 21
-6.5141745545
  0
LINE
  5
499
100
AcDbEntity
  8
0
100
AcDbLine
 62
7
  6
CONTINUOUS
 10
-5.2225459666
 20
-6.5159258681
 11
-5.330426889
 21
-6.5141745545
  0
LINE
  5
49A
100
AcDbEntity
  8
SMUSSO
100
AcDbLine
 62
7
  6
CONTINUOUS
 10
2.7774540334
 20
-6.5159258681
 11
2.669573111
 21
-6.5141745545
  0
LINE
  5
49B
100
AcDbEntity
  8
0
100
AcDbLine
 62
7
  6
CONTINUOUS
 10
2.7774540334
 20
-6.5159258681
 11
2.669573111
 21
-6.5141745545
  0
LINE
  5
49C
100
AcDbEntity
  8
SMUSSO
100
AcDbLine
 62
7
  6
CONTINUOUS
 10
-5.330426889
 20
-6.5141745545
 11
-5.4300277914
 21
-6.5122775589
  0
LINE
  5
49D
100
AcDbEntity
  8
0
100
AcDbLine
 62
7
  6
CONTINUOUS
 10
-5.330426889
 20
-6.5141745545
 11
-5.4300277914
 21
-6.5122775589
  0
LINE
  5
49E
100
AcDbEntity
  8
SMUSSO
100
AcDbLine
 62
7
  6
CONTINUOUS
 10
2.669573111
 20
-6.5141745545
 11
2.5699722086
 21
-6.5122775589
  0
LINE
  5
49F
100
AcDbEntity
  8
0
100
AcDbLine
 62
7
  6
CONTINUOUS
 10
2.669573111
 20
-6.5141745545
 11
2.5699722086
 21
-6.5122775589
  0
LINE
  5
4A0
100
AcDbEntity
  8
SMUSSO
100
AcDbLine
 62
7
  6
CONTINUOUS
 10
-5.4300277914
 20
-6.5122775589
 11
-5.5207479645
 21
-6.5102460784
  0
LINE
  5
4A1
100
AcDbEntity
  8
0
100
AcDbLine
 62
7
  6
CONTINUOUS
 10
-5.4300277914
 20
-6.5122775589
 11
-5.5207479645
 21
-6.5102460784
  0
LINE
  5
4A2
100
AcDbEntity
  8
SMUSSO
100
AcDbLine
 62
7
  6
CONTINUOUS
 10
2.5699722086
 20
-6.5122775589
 11
2.4792520355
 21
-6.5102460784
  0
LINE
  5
4A3
100
AcDbEntity
  8
0
100
AcDbLine
 62
7
  6
CONTINUOUS
 10
2.5699722086
 20
-6.5122775589
 11
2.4792520355
 21
-6.5102460784
  0
LINE
  5
4A4
100
AcDbEntity
  8
SMUSSO
100
AcDbLine
 62
7
  6
CONTINUOUS
 10
-5.5207479645
 20
-6.5102460784
 11
-5.6019496828
 21
-6.5080939083
  0
LINE
  5
4A5
100
AcDbEntity
  8
0
100
AcDbLine
 62
7
  6
CONTINUOUS
 10
-5.5207479645
 20
-6.5102460784
 11
-5.6019496828
 21
-6.5080939083
  0
LINE
  5
4A6
100
AcDbEntity
  8
SMUSSO
100
AcDbLine
 62
7
  6
CONTINUOUS
 10
2.4792520355
 20
-6.5102460784
 11
2.3980503172
 21
-6.5080939083
  0
LINE
  5
4A7
100
AcDbEntity
  8
0
100
AcDbLine
 62
7
  6
CONTINUOUS
 10
2.4792520355
 20
-6.5102460784
 11
2.3980503172
 21
-6.5080939083
  0
LINE
  5
4A8
100
AcDbEntity
  8
SMUSSO
100
AcDbLine
 62
7
  6
CONTINUOUS
 10
-5.6019496828
 20
-6.5080939083
 11
-5.6731212557
 21
-6.5058341472
  0
LINE
  5
4A9
100
AcDbEntity
  8
0
100
AcDbLine
 62
7
  6
CONTINUOUS
 10
-5.6019496828
 20
-6.5080939083
 11
-5.6731212557
 21
-6.5058341472
  0
LINE
  5
4AA
100
AcDbEntity
  8
SMUSSO
100
AcDbLine
 62
7
  6
CONTINUOUS
 10
2.3980503172
 20
-6.5080939083
 11
2.3268787443
 21
-6.5058341472
  0
LINE
  5
4AB
100
AcDbEntity
  8
0
100
AcDbLine
 62
7
  6
CONTINUOUS
 10
2.3980503172
 20
-6.5080939083
 11
2.3268787443
 21
-6.5058341472
  0
LWPOLYLINE
  5
4AC
100
AcDbEntity
  8
SMUSSO
100
AcDbPolyline
 62
7
  6
CONTINUOUS
 90
3
 70
0
 10
-5.6731212557
 20
-6.5058341472
 10
-5.7147489122
 20
-6.5042750772
 10
-5.733768987
 20
-6.5034817446
  0
LWPOLYLINE
  5
4AD
100
AcDbEntity
  8
0
100
AcDbPolyline
 62
7
  6
CONTINUOUS
 90
3
 70
0
 10
-5.6731212557
 20
-6.5058341472
 10
-5.7147489122
 20
-6.5042750772
 10
-5.733768987
 20
-6.5034817446
  0
LINE
  5
4AE
100
AcDbEntity
  8
SMUSSO
100
AcDbLine
 62
7
  6
CONTINUOUS
 10
2.3268787443
 20
-6.5058341472
 11
2.2852510878
 21
-6.5042750772
  0
LINE
  5
4AF
100
AcDbEntity
  8
0
100
AcDbLine
 62
7
  6
CONTINUOUS
 10
2.3268787443
 20
-6.5058341472
 11
2.2852510878
 21
-6.5042750772
  0
LWPOLYLINE
  5
4B0
100
AcDbEntity
  8
SMUSSO
100
AcDbPolyline
 62
7
  6
CONTINUOUS
 90
15
 70
0
 10
2.2852510878
 20
-6.5042750772
 10
2.2484261747
 20
-6.5026792221
 10
2.2318494838
 20
-6.5018691996
 10
2.2165132941
 20
-6.501051631
 10
2.2024302129
 20
-6.5002265625
 10
2.1896121325
 20
-6.4993958222
 10
2.1780695071
 20
-6.4985594335
 10
2.1678108104
 20
-6.4977173732
 10
2.1588436268
 20
-6.4968713987
 10
2.151175475
 20
-6.4960215044
 10
2.1448128946
 20
-6.4951676961
 10
2.1397611816
 20
-6.4943117489
 10
2.1360252631
 20
-6.4934542546
 10
2.1336093518
 20
-6.4925946215
 10
2.1325165646
 20
-6.4917328495
  0
LWPOLYLINE
  5
4B1
100
AcDbEntity
  8
0
100
AcDbPolyline
 62
7
  6
CONTINUOUS
 90
15
 70
0
 10
2.2852510878
 20
-6.5042750772
 10
2.2484261747
 20
-6.5026792221
 10
2.2318494838
 20
-6.5018691996
 10
2.2165132941
 20
-6.501051631
 10
2.2024302129
 20
-6.5002265625
 10
2.1896121325
 20
-6.4993958222
 10
2.1780695071
 20
-6.4985594335
 10
2.1678108104
 20
-6.4977173732
 10
2.1588436268
 20
-6.4968713987
 10
2.151175475
 20
-6.4960215044
 10
2.1448128946
 20
-6.4951676961
 10
2.1397611816
 20
-6.4943117489
 10
2.1360252631
 20
-6.4934542546
 10
2.1336093518
 20
-6.4925946215
 10
2.1325165646
 20
-6.4917328495
  0
LWPOLYLINE
  5
4B2
100
AcDbEntity
  8
SMUSSO
100
AcDbPolyline
 62
7
  6
CONTINUOUS
 90
40
 70
0
 10
4.5735608909
 20
-7.5323684286
 10
4.5408209842
 20
-7.5185078622
 10
4.5083172248
 20
-7.5054475612
 10
4.4760496126
 20
-7.4931875255
 10
4.4440272533
 20
-7.4817397244
 10
4.4122410412
 20
-7.4710921885
 10
4.3806636594
 20
-7.4612090103
 10
4.3493090725
 20
-7.452091094
 10
4.3181633159
 20
-7.4437375352
 10
4.2871571792
 20
-7.4361097135
 10
4.256281346
 20
-7.429202461
 10
4.2255451326
 20
-7.4230209456
 10
4.194907277
 20
-7.4175420499
 10
4.1643605483
 20
-7.4127634492
 10
4.1339121773
 20
-7.4086874683
 10
4.103542595
 20
-7.4052979649
 10
4.0732576753
 20
-7.4025937238
 10
4.0430515442
 20
-7.4005759602
 10
4.0128870102
 20
-7.3992321778
 10
3.9827794532
 20
-7.3985582065
 10
3.9527134933
 20
-7.3985582164
 10
3.9226057989
 20
-7.3992322214
 10
3.8924408714
 20
-7.4005760711
 10
3.8622342093
 20
-7.4025939159
 10
3.8319489771
 20
-7.4052982201
 10
3.8015793994
 20
-7.4086877772
 10
3.7711312516
 20
-7.4127637936
 10
3.7405850236
 20
-7.4175423539
 10
3.709948176
 20
-7.4230210689
 10
3.6792132482
 20
-7.4292023276
 10
3.6483383493
 20
-7.4361093814
 10
3.6173325013
 20
-7.4437371146
 10
3.586186682
 20
-7.4520906428
 10
3.5548319337
 20
-7.4612085641
 10
3.523254337
 20
-7.4710917856
 10
3.4914678112
 20
-7.4817394002
 10
3.4594451568
 20
-7.4931872841
 10
3.4271773075
 20
-7.5054473962
 10
3.3946733297
 20
-7.5185077777
 10
3.3619332234
 20
-7.5323684286
  0
LWPOLYLINE
  5
4B3
100
AcDbEntity
  8
0
100
AcDbPolyline
 62
7
  6
CONTINUOUS
 90
40
 70
0
 10
4.5735608909
 20
-7.5323684286
 10
4.5408209842
 20
-7.5185078622
 10
4.5083172248
 20
-7.5054475612
 10
4.4760496126
 20
-7.4931875255
 10
4.4440272533
 20
-7.4817397244
 10
4.4122410412
 20
-7.4710921885
 10
4.3806636594
 20
-7.4612090103
 10
4.3493090725
 20
-7.452091094
 10
4.3181633159
 20
-7.4437375352
 10
4.2871571792
 20
-7.4361097135
 10
4.256281346
 20
-7.429202461
 10
4.2255451326
 20
-7.4230209456
 10
4.194907277
 20
-7.4175420499
 10
4.1643605483
 20
-7.4127634492
 10
4.1339121773
 20
-7.4086874683
 10
4.103542595
 20
-7.4052979649
 10
4.0732576753
 20
-7.4025937238
 10
4.0430515442
 20
-7.4005759602
 10
4.0128870102
 20
-7.3992321778
 10
3.9827794532
 20
-7.3985582065
 10
3.9527134933
 20
-7.3985582164
 10
3.9226057989
 20
-7.3992322214
 10
3.8924408714
 20
-7.4005760711
 10
3.8622342093
 20
-7.4025939159
 10
3.8319489771
 20
-7.4052982201
 10
3.8015793994
 20
-7.4086877772
 10
3.7711312516
 20
-7.4127637936
 10
3.7405850236
 20
-7.4175423539
 10
3.709948176
 20
-7.4230210689
 10
3.6792132482
 20
-7.4292023276
 10
3.6483383493
 20
-7.4361093814
 10
3.6173325013
 20
-7.4437371146
 10
3.586186682
 20
-7.4520906428
 10
3.5548319337
 20
-7.4612085641
 10
3.523254337
 20
-7.4710917856
 10
3.4914678112
 20
-7.4817394002
 10
3.4594451568
 20
-7.4931872841
 10
3.4271773075
 20
-7.5054473962
 10
3.3946733297
 20
-7.5185077777
 10
3.3619332234
 20
-7.5323684286
  0
LINE
  5
4B4
100
AcDbEntity
  8
0
100
AcDbLine
 62
7
  6
CONTINUOUS
 10
-8.4322529429
 20
-0.0600901535
 11
-8.5769287613
 21
0.0458184201
  0
LINE
  5
4B5
100
AcDbEntity
  8
0
100
AcDbLine
 62
7
  6
CONTINUOUS
 10
-9.6450328805
 20
18.6048516338
 11
-9.6822529429
 21
18.7166026252
  0
LINE
  5
4B6
100
AcDbEntity
  8
0
100
AcDbLine
 62
7
  6
CONTINUOUS
 10
-8.8946903336
 20
19.3551941807
 11
-8.9321390097
 21
19.4676315714
  0
LWPOLYLINE
  5
4B7
100
AcDbEntity
  8
ASSI
100
AcDbPolyline
 62
7
  6
CONTINUOUS
 90
17
 70
0
 10
-4.3881856756
 20
-25.1831418533
 10
-4.3877595743
 20
-25.1803564583
 10
-4.3866622458
 20
-25.1769065708
 10
-4.3848746571
 20
-25.1727921911
 10
-4.3823771379
 20
-25.1680262605
 10
-4.3791535963
 20
-25.1625958376
 10
-4.3751956257
 20
-25.1564620975
 10
-4.3704933192
 20
-25.1496179607
 10
-4.365036714
 20
-25.1420705067
 10
-4.3588255377
 20
-25.1338021486
 10
-4.3518721162
 20
-25.1248321875
 10
-4.344161367
 20
-25.1151413223
 10
-4.3356453911
 20
-25.1046540623
 10
-4.3263100353
 20
-25.0933709987
 10
-4.3161514647
 20
-25.0812915403
 10
-4.3051209079
 20
-25.0683384231
 10
-4.293206034
 20
-25.0545098942
  0
LINE
  5
4B8
100
AcDbEntity
  8
DRAFT
100
AcDbLine
 62
7
  6
CONTINUOUS
 10
-8.8322529429
 20
-22.2823684286
 11
-8.7599516966
 21
-22.1078177793
  0
LINE
  5
4B9
100
AcDbEntity
  8
0
100
AcDbLine
 62
7
  6
CONTINUOUS
 10
-8.8322529429
 20
-22.2823684286
 11
-8.7599516966
 21
-22.1078177793
  0
LINE
  5
4BA
100
AcDbEntity
  8
RACCORDO
100
AcDbLine
 62
253
  6
CONTINUOUS
 10
-8.7050712124
 20
-7.1550343932
 11
-9.0824052477
 21
-7.5323684286
  0
LINE
  5
4BB
100
AcDbEntity
  8
0
100
AcDbLine
 62
253
  6
CONTINUOUS
 10
-8.7050712124
 20
-7.1550343932
 11
-9.0824052477
 21
-7.5323684286
  0
LINE
  5
4BC
100
AcDbEntity
  8
0
100
AcDbLine
 62
253
  6
CONTINUOUS
 10
11.0229460992
 20
-4.7557644286
 11
11.0424333151
 21
-4.7557644286
  0
LINE
  5
4BD
100
AcDbEntity
  8
0
100
AcDbLine
 62
253
  6
CONTINUOUS
 10
11.0508429246
 20
-4.7557644286
 11
11.0651407773
 21
-4.7557644286
  0
LINE
  5
4BE
100
AcDbEntity
  8
0
100
AcDbLine
 62
253
  6
CONTINUOUS
 10
11.0735503869
 20
-4.1331584286
 11
11.0229460992
 21
-4.1331584286
  0
LINE
  5
4BF
100
AcDbEntity
  8
0
100
AcDbLine
 62
253
  6
CONTINUOUS
 10
9.8180773233
 20
-3.8323684286
 11
9.8075593983
 21
-3.8323684286
  0
LINE
  5
4C0
100
AcDbEntity
  8
0
100
AcDbLine
 62
253
  6
CONTINUOUS
 10
-9.7506017202
 20
-3.8323684286
 11
-9.7690080883
 21
-3.8323684286
  0
LINE
  5
4C1
100
AcDbEntity
  8
0
100
AcDbLine
 62
253
  6
CONTINUOUS
 10
-9.7795260111
 20
-3.8323684286
 11
-9.7926734157
 21
-3.8323684286
  0
LINE
  5
4C2
100
AcDbEntity
  8
0
100
AcDbLine
 62
253
  6
CONTINUOUS
 10
9.6992482281
 20
-3.7213892597
 11
9.6861008235
 21
-3.7213892597
  0
LINE
  5
4C3
100
AcDbEntity
  8
RACCORDO
100
AcDbLine
 62
7
  6
CONTINUOUS
 10
-9.7049189075
 20
-0.4270342831
 11
-10.0461991529
 21
-0.3478564043
  0
LINE
  5
4C4
100
AcDbEntity
  8
0
100
AcDbLine
 62
7
  6
CONTINUOUS
 10
-9.7049189075
 20
-0.4270342831
 11
-10.0461991529
 21
-0.3478564043
  0
LINE
  5
4C5
100
AcDbEntity
  8
DRAFT
100
AcDbLine
 62
7
  6
CONTINUOUS
 10
1.9677470571
 20
-5.7323684286
 11
2.1325165646
 21
-5.897137936
  0
LINE
  5
4C6
100
AcDbEntity
  8
0
100
AcDbLine
 62
7
  6
CONTINUOUS
 10
1.9677470571
 20
-5.7323684286
 11
2.1325165646
 21
-5.897137936
  0
LINE
  5
4C7
100
AcDbEntity
  8
RACCORDO
100
AcDbLine
 62
7
  6
CONTINUOUS
 10
1.3866809787
 20
-7.1550343932
 11
1.5549852036
 21
-7.4916684805
  0
LINE
  5
4C8
100
AcDbEntity
  8
0
100
AcDbLine
 62
7
  6
CONTINUOUS
 10
1.3866809787
 20
-7.1550343932
 11
1.5549852036
 21
-7.4916684805
  0
LINE
  5
4C9
100
AcDbEntity
  8
SMUSSO
100
AcDbLine
 62
7
  6
CONTINUOUS
 10
1.9555294422
 20
-6.1377316447
 11
2.1325165646
 21
-6.4917328495
  0
LINE
  5
4CA
100
AcDbEntity
  8
0
100
AcDbLine
 62
7
  6
CONTINUOUS
 10
1.9555294422
 20
-6.1377316447
 11
2.1325165646
 21
-6.4917328495
  0
LINE
  5
4CB
100
AcDbEntity
  8
DRAFT
100
AcDbLine
 62
7
  6
CONTINUOUS
 10
-8.8322529429
 20
19.4176315714
 11
-8.7599516966
 21
19.2430809221
  0
LINE
  5
4CC
100
AcDbEntity
  8
0
100
AcDbLine
 62
7
  6
CONTINUOUS
 10
-8.8322529429
 20
19.4176315714
 11
-8.7599516966
 21
19.2430809221
  0
LINE
  5
4CD
100
AcDbEntity
  8
SMUSSO
100
AcDbLine
 62
7
  6
CONTINUOUS
 10
1.9555294422
 20
-6.1377316447
 11
1.9555294422
 21
-5.7323684286
  0
LINE
  5
4CE
100
AcDbEntity
  8
0
100
AcDbLine
 62
7
  6
CONTINUOUS
 10
1.9555294422
 20
-6.1377316447
 11
1.9555294422
 21
-5.7323684286
  0
LINE
  5
4CF
100
AcDbEntity
  8
SMUSSO
100
AcDbLine
 62
253
  6
CONTINUOUS
 10
2.1325165646
 20
-5.897137936
 11
2.1325165646
 21
-6.4917328495
  0
LINE
  5
4D0
100
AcDbEntity
  8
0
100
AcDbLine
 62
253
  6
CONTINUOUS
 10
2.1325165646
 20
-5.897137936
 11
2.1325165646
 21
-6.4917328495
  0
LWPOLYLINE
  5
4D1
100
AcDbEntity
  8
ASSI
100
AcDbPolyline
 62
7
  6
CONTINUOUS
 90
17
 70
0
 10
4.3236797899
 20
22.3184049961
 10
4.3232528686
 20
22.3156130669
 10
4.3221547576
 20
22.3121629887
 10
4.3203684944
 20
22.3080547617
 10
4.3178770712
 20
22.303301046
 10
4.3146662144
 20
22.2978891814
 10
4.3107270843
 20
22.2917811871
 10
4.3060511296
 20
22.2849726207
 10
4.3006288211
 20
22.2774679246
 10
4.2944548785
 20
22.2692424448
 10
4.2875397502
 20
22.2603165641
 10
4.2798678184
 20
22.2506698997
 10
4.2713850826
 20
22.2402166495
 10
4.2620709902
 20
22.2289525455
 10
4.2519229351
 20
22.2168818557
 10
4.2408978128
 20
22.2039315818
 10
4.2289847689
 20
22.1901011779
  0
LINE
  5
4D2
100
AcDbEntity
  8
0
100
AcDbLine
 62
7
  6
CONTINUOUS
 10
8.867633124
 20
19.4676315714
 11
8.8301844478
 21
19.3551941807
  0
LINE
  5
4D3
100
AcDbEntity
  8
DRAFT
100
AcDbLine
 62
7
  6
CONTINUOUS
 10
8.7677470571
 20
19.4176315714
 11
8.6954458109
 21
19.2430809221
  0
LINE
  5
4D4
100
AcDbEntity
  8
0
100
AcDbLine
 62
7
  6
CONTINUOUS
 10
8.7677470571
 20
19.4176315714
 11
8.6954458109
 21
19.2430809221
  0
LINE
  5
4D5
100
AcDbEntity
  8
SMUSSO
100
AcDbLine
 62
7
  6
CONTINUOUS
 10
-2.1970224503
 20
-6.4917328495
 11
-2.020035328
 21
-6.1377316447
  0
LINE
  5
4D6
100
AcDbEntity
  8
0
100
AcDbLine
 62
7
  6
CONTINUOUS
 10
-2.1970224503
 20
-6.4917328495
 11
-2.020035328
 21
-6.1377316447
  0
LINE
  5
4D7
100
AcDbEntity
  8
RACCORDO
100
AcDbLine
 62
7
  6
CONTINUOUS
 10
-1.6194910893
 20
-7.4916684805
 11
-1.4511868644
 21
-7.1550343932
  0
LINE
  5
4D8
100
AcDbEntity
  8
0
100
AcDbLine
 62
7
  6
CONTINUOUS
 10
-1.6194910893
 20
-7.4916684805
 11
-1.4511868644
 21
-7.1550343932
  0
LINE
  5
4D9
100
AcDbEntity
  8
RACCORDO
100
AcDbLine
 62
7
  6
CONTINUOUS
 10
9.6404130218
 20
-0.4270342831
 11
9.9816932672
 21
-0.3478564043
  0
LINE
  5
4DA
100
AcDbEntity
  8
0
100
AcDbLine
 62
7
  6
CONTINUOUS
 10
9.6404130218
 20
-0.4270342831
 11
9.9816932672
 21
-0.3478564043
  0
LINE
  5
4DB
100
AcDbEntity
  8
0
100
AcDbLine
 62
253
  6
CONTINUOUS
 10
9.8207068029
 20
-1.9323684286
 11
9.8101888801
 21
-1.9323684286
  0
LINE
  5
4DC
100
AcDbEntity
  8
0
100
AcDbLine
 62
253
  6
CONTINUOUS
 10
9.7944119959
 20
-1.9323684286
 11
9.7733761481
 21
-1.9323684286
  0
LINE
  5
4DD
100
AcDbEntity
  8
0
100
AcDbLine
 62
253
  6
CONTINUOUS
 10
-9.7558606838
 20
-1.9323684286
 11
-9.7637491269
 21
-1.9323684286
  0
LINE
  5
4DE
100
AcDbEntity
  8
0
100
AcDbLine
 62
253
  6
CONTINUOUS
 10
-9.8693859315
 20
-1.9323684286
 11
-9.8904217793
 21
-1.9323684286
  0
LWPOLYLINE
  5
4DF
100
AcDbEntity
  8
0
100
AcDbPolyline
 62
253
  6
CONTINUOUS
 90
15
 70
0
 10
11.0579918472
 20
-5.5511283144
 10
11.0577630796
 20
-5.5510329488
 10
11.0575338135
 20
-5.5507342245
 10
11.0573042911
 20
-5.5502132002
 10
11.0570747547
 20
-5.5494509347
 10
11.0568454467
 20
-5.5484284865
 10
11.0566166093
 20
-5.5471269145
 10
11.0563884849
 20
-5.5455272774
 10
11.0561613158
 20
-5.5436106338
 10
11.0559353443
 20
-5.5413580425
 10
11.0557108127
 20
-5.5387505622
 10
11.0554879634
 20
-5.5357692516
 10
11.0552670386
 20
-5.5323951694
 10
11.0550482807
 20
-5.5286093743
 10
11.0548458326
 20
-5.5246825665
  0
LINE
  5
4E0
100
AcDbEntity
  8
DRAFT
100
AcDbLine
 62
7
  6
CONTINUOUS
 10
8.7677470571
 20
-22.2823684286
 11
8.6954458109
 21
-22.1078177793
  0
LINE
  5
4E1
100
AcDbEntity
  8
0
100
AcDbLine
 62
7
  6
CONTINUOUS
 10
8.7677470571
 20
-22.2823684286
 11
8.6954458109
 21
-22.1078177793
  0
LINE
  5
4E2
100
AcDbEntity
  8
0
100
AcDbLine
 62
7
  6
CONTINUOUS
 10
8.8301844478
 20
-22.2199310379
 11
8.867633124
 21
-22.3323684286
  0
LINE
  5
4E3
100
AcDbEntity
  8
RACCORDO
100
AcDbLine
 62
253
  6
CONTINUOUS
 10
2.3677470571
 20
18.6208093623
 11
2.3677470571
 21
18.4520185226
  0
LINE
  5
4E4
100
AcDbEntity
  8
0
100
AcDbLine
 62
253
  6
CONTINUOUS
 10
2.3677470571
 20
18.620865465
 11
2.3677470571
 21
18.4520185226
  0
LINE
  5
4E5
100
AcDbEntity
  8
RACCORDO
100
AcDbLine
 62
253
  6
CONTINUOUS
 10
2.3677470571
 20
-21.3167553797
 11
2.3677470571
 21
-21.4855462195
  0
LINE
  5
4E6
100
AcDbEntity
  8
0
100
AcDbLine
 62
253
  6
CONTINUOUS
 10
2.3677470571
 20
-21.3167553797
 11
2.3677470571
 21
-21.4856023221
  0
LINE
  5
4E7
100
AcDbEntity
  8
RACCORDO
100
AcDbLine
 62
7
  6
CONTINUOUS
 10
2.9677470571
 20
-22.4323684286
 11
2.9677470571
 21
-23.7704076673
  0
LINE
  5
4E8
100
AcDbEntity
  8
RACCORDO
100
AcDbLine
 62
7
  6
CONTINUOUS
 10
2.9677470571
 20
19.5676315714
 11
2.9677470571
 21
20.9056708101
  0
LINE
  5
4E9
100
AcDbEntity
  8
RACCORDO
100
AcDbLine
 62
7
  6
CONTINUOUS
 10
3.3677470571
 20
18.6159399204
 11
3.3677470571
 21
18.4676315714
  0
LINE
  5
4EA
100
AcDbEntity
  8
0
100
AcDbLine
 62
7
  6
CONTINUOUS
 10
3.3677470571
 20
18.6159399204
 11
3.3677470571
 21
18.4655619669
  0
LINE
  5
4EB
100
AcDbEntity
  8
RACCORDO
100
AcDbLine
 62
7
  6
CONTINUOUS
 10
3.3677470571
 20
-21.3323684286
 11
3.3677470571
 21
-21.4806767775
  0
LINE
  5
4EC
100
AcDbEntity
  8
0
100
AcDbLine
 62
7
  6
CONTINUOUS
 10
3.3677470571
 20
-21.330298824
 11
3.3677470571
 21
-21.4806767775
  0
LINE
  5
4ED
100
AcDbEntity
  8
DRAFT
100
AcDbLine
 62
7
  6
CONTINUOUS
 10
3.4677470571
 20
18.6121385972
 11
3.4677470571
 21
18.5676315714
  0
LINE
  5
4EE
100
AcDbEntity
  8
DRAFT
100
AcDbLine
 62
7
  6
CONTINUOUS
 10
3.4677470571
 20
-21.4768754543
 11
3.4677470571
 21
-21.4323684286
  0
LINE
  5
4EF
100
AcDbEntity
  8
ASSI
100
AcDbLine
 62
7
  6
CONTINUOUS
 10
3.4677470571
 20
-23.7662883237
 11
3.4677470571
 21
-25.2265505988
  0
LINE
  5
4F0
100
AcDbEntity
  8
ASSI
100
AcDbLine
 62
7
  6
CONTINUOUS
 10
3.4677470571
 20
20.9015514666
 11
3.4677470571
 21
22.3618137416
  0
LINE
  5
4F1
100
AcDbEntity
  8
0
100
AcDbLine
 62
7
  6
CONTINUOUS
 10
9.6177470571
 20
18.7166026252
 11
9.5805269948
 21
18.6048516338
  0
LWPOLYLINE
  5
4F2
100
AcDbEntity
  8
SMUSSO
100
AcDbPolyline
 62
7
  6
CONTINUOUS
 90
13
 70
0
 10
-1.6194910893
 20
-7.4916684805
 10
-1.6203946207
 20
-7.4927576386
 10
-1.6229016286
 20
-7.4938444105
 10
-1.6270121131
 20
-7.4949287964
 10
-1.6327318854
 20
-7.4960114861
 10
-1.6400551343
 20
-7.4970917898
 10
-1.6489644255
 20
-7.4981676374
 10
-1.6594606801
 20
-7.4992390305
 10
-1.6715429771
 20
-7.5003059676
 10
-1.6851911185
 20
-7.5013663738
 10
-1.7004115974
 20
-7.5024202687
 10
-1.7171979207
 20
-7.5034676326
 10
-1.7355104117
 20
-7.5045063324
  0
LWPOLYLINE
  5
4F3
100
AcDbEntity
  8
0
100
AcDbPolyline
 62
7
  6
CONTINUOUS
 90
13
 70
0
 10
-1.6194910893
 20
-7.4916684805
 10
-1.6203946207
 20
-7.4927576386
 10
-1.6229016286
 20
-7.4938444105
 10
-1.6270121131
 20
-7.4949287964
 10
-1.6327318854
 20
-7.4960114861
 10
-1.6400551343
 20
-7.4970917898
 10
-1.6489644255
 20
-7.4981676374
 10
-1.6594606801
 20
-7.4992390305
 10
-1.6715429771
 20
-7.5003059676
 10
-1.6851911185
 20
-7.5013663738
 10
-1.7004115974
 20
-7.5024202687
 10
-1.7171979207
 20
-7.5034676326
 10
-1.7355104117
 20
-7.5045063324
  0
LINE
  5
4F4
100
AcDbEntity
  8
DRAFT
100
AcDbLine
 62
7
  6
CONTINUOUS
 10
-2.0322529429
 20
-5.7323684286
 11
-2.1970224503
 21
-5.897137936
  0
LINE
  5
4F5
100
AcDbEntity
  8
0
100
AcDbLine
 62
7
  6
CONTINUOUS
 10
-2.0322529429
 20
-5.7323684286
 11
-2.1970224503
 21
-5.897137936
  0
LWPOLYLINE
  5
4F6
100
AcDbEntity
  8
SMUSSO
100
AcDbPolyline
 62
7
  6
CONTINUOUS
 90
13
 70
0
 10
-2.1970224503
 20
-6.4917328495
 10
-2.1981152375
 20
-6.4925946215
 10
-2.2005311488
 20
-6.4934542546
 10
-2.2042670673
 20
-6.4943117489
 10
-2.2093187803
 20
-6.4951676961
 10
-2.2156813607
 20
-6.4960215044
 10
-2.2233495125
 20
-6.4968713987
 10
-2.2323166961
 20
-6.4977173732
 10
-2.2425753928
 20
-6.4985594335
 10
-2.2541180182
 20
-6.4993958222
 10
-2.2669360986
 20
-6.5002265625
 10
-2.2810191798
 20
-6.501051631
 10
-2.2963553695
 20
-6.5018691996
  0
LWPOLYLINE
  5
4F7
100
AcDbEntity
  8
0
100
AcDbPolyline
 62
7
  6
CONTINUOUS
 90
13
 70
0
 10
-2.1970224503
 20
-6.4917328495
 10
-2.1981152375
 20
-6.4925946215
 10
-2.2005311488
 20
-6.4934542546
 10
-2.2042670673
 20
-6.4943117489
 10
-2.2093187803
 20
-6.4951676961
 10
-2.2156813607
 20
-6.4960215044
 10
-2.2233495125
 20
-6.4968713987
 10
-2.2323166961
 20
-6.4977173732
 10
-2.2425753928
 20
-6.4985594335
 10
-2.2541180182
 20
-6.4993958222
 10
-2.2669360986
 20
-6.5002265625
 10
-2.2810191798
 20
-6.501051631
 10
-2.2963553695
 20
-6.5018691996
  0
LINE
  5
4F8
100
AcDbEntity
  8
0
100
AcDbLine
 62
253
  6
CONTINUOUS
 10
-11.0426124234
 20
0.0676315714
 11
-11.0653040078
 21
0.0676315714
  0
LINE
  5
4F9
100
AcDbEntity
  8
0
100
AcDbLine
 62
253
  6
CONTINUOUS
 10
-8.5769287613
 20
3.2894447228
 11
-10.0461991529
 21
3.6831195472
  0
LINE
  5
4FA
100
AcDbEntity
  8
RACCORDO
100
AcDbLine
 62
7
  6
CONTINUOUS
 10
-8.7050712124
 20
3.5029534049
 11
-8.4322529429
 21
3.4298491863
  0
LINE
  5
4FB
100
AcDbEntity
  8
0
100
AcDbLine
 62
7
  6
CONTINUOUS
 10
-8.7050712124
 20
3.5029534049
 11
-8.4322529429
 21
3.4298491863
  0
LINE
  5
4FC
100
AcDbEntity
  8
RACCORDO
100
AcDbLine
 62
253
  6
CONTINUOUS
 10
9.017899362
 20
-7.5323684286
 11
8.6405653266
 21
-7.1550343932
  0
LINE
  5
4FD
100
AcDbEntity
  8
0
100
AcDbLine
 62
253
  6
CONTINUOUS
 10
9.017899362
 20
-7.5323684286
 11
8.6405653266
 21
-7.1550343932
  0
LINE
  5
4FE
100
AcDbEntity
  8
SMUSSO
100
AcDbLine
 62
253
  6
CONTINUOUS
 10
5.8029775497
 20
-6.4917328495
 11
6.3805089107
 21
-7.4916684805
  0
LINE
  5
4FF
100
AcDbEntity
  8
0
100
AcDbLine
 62
253
  6
CONTINUOUS
 10
5.8029775497
 20
-6.4917328495
 11
6.3805089107
 21
-7.4916684805
  0
LINE
  5
500
100
AcDbEntity
  8
RACCORDO
100
AcDbLine
 62
7
  6
CONTINUOUS
 10
5.9900420868
 20
-6.1551866981
 11
5.979964672
 21
-6.1377316447
  0
LINE
  5
501
100
AcDbEntity
  8
0
100
AcDbLine
 62
7
  6
CONTINUOUS
 10
5.9900420868
 20
-6.1551866981
 11
5.979964672
 21
-6.1377316447
  0
LINE
  5
502
100
AcDbEntity
  8
0
100
AcDbLine
 62
7
  6
CONTINUOUS
 10
9.5805269948
 20
-21.4695884909
 11
9.6177470571
 21
-21.5813394824
  0
LINE
  5
503
100
AcDbEntity
  8
ASSI
100
AcDbLine
 62
253
  6
CONTINUOUS
 10
4.3236797899
 20
-25.1831418533
 11
4.3236797899
 21
-23.7662665955
  0
LINE
  5
504
100
AcDbEntity
  8
ASSI
100
AcDbLine
 62
253
  6
CONTINUOUS
 10
4.3236797899
 20
20.9015297383
 11
4.3236797899
 21
22.3184049961
  0
LINE
  5
505
100
AcDbEntity
  8
DRAFT
100
AcDbLine
 62
7
  6
CONTINUOUS
 10
4.3677470571
 20
-25.2323684286
 11
4.3677470571
 21
-23.8323684286
  0
LINE
  5
506
100
AcDbEntity
  8
DRAFT
100
AcDbLine
 62
7
  6
CONTINUOUS
 10
4.3677470571
 20
20.9676315714
 11
4.3677470571
 21
22.3676315714
  0
LINE
  5
507
100
AcDbEntity
  8
DRAFT
100
AcDbLine
 62
7
  6
CONTINUOUS
 10
5.628726226
 20
18.3786107403
 11
5.628726226
 21
18.1786107403
  0
LINE
  5
508
100
AcDbEntity
  8
0
100
AcDbLine
 62
7
  6
CONTINUOUS
 10
5.628726226
 20
18.3786107403
 11
5.628726226
 21
18.1786107403
  0
LINE
  5
509
100
AcDbEntity
  8
DRAFT
100
AcDbLine
 62
7
  6
CONTINUOUS
 10
5.628726226
 20
-21.2433475974
 11
5.628726226
 21
-21.0433475974
  0
LINE
  5
50A
100
AcDbEntity
  8
0
100
AcDbLine
 62
7
  6
CONTINUOUS
 10
5.628726226
 20
-21.2433475974
 11
5.628726226
 21
-21.0433475974
  0
LINE
  5
50B
100
AcDbEntity
  8
DRAFT
100
AcDbLine
 62
7
  6
CONTINUOUS
 10
5.7177470571
 20
-21.1323684286
 11
5.7177470571
 21
-21.3323684286
  0
LINE
  5
50C
100
AcDbEntity
  8
0
100
AcDbLine
 62
7
  6
CONTINUOUS
 10
5.7177470571
 20
-21.1323684286
 11
5.7177470571
 21
-21.3323684286
  0
LINE
  5
50D
100
AcDbEntity
  8
DRAFT
100
AcDbLine
 62
7
  6
CONTINUOUS
 10
5.7177470571
 20
18.2676315714
 11
5.7177470571
 21
18.4676315714
  0
LINE
  5
50E
100
AcDbEntity
  8
0
100
AcDbLine
 62
7
  6
CONTINUOUS
 10
5.7177470571
 20
18.2676315714
 11
5.7177470571
 21
18.4676315714
  0
LINE
  5
50F
100
AcDbEntity
  8
SMUSSO
100
AcDbLine
 62
253
  6
CONTINUOUS
 10
5.8029775497
 20
-5.897137936
 11
5.8029775497
 21
-6.4917328495
  0
LINE
  5
510
100
AcDbEntity
  8
0
100
AcDbLine
 62
253
  6
CONTINUOUS
 10
5.8029775497
 20
-5.897137936
 11
5.8029775497
 21
-6.4917328495
  0
LINE
  5
511
100
AcDbEntity
  8
RACCORDO
100
AcDbLine
 62
7
  6
CONTINUOUS
 10
1.9454520275
 20
-6.1551866981
 11
1.9555294422
 21
-6.1377316447
  0
LINE
  5
512
100
AcDbEntity
  8
0
100
AcDbLine
 62
7
  6
CONTINUOUS
 10
1.9454520275
 20
-6.1551866981
 11
1.9555294422
 21
-6.1377316447
  0
LINE
  5
513
100
AcDbEntity
  8
SMUSSO
100
AcDbLine
 62
253
  6
CONTINUOUS
 10
1.5549852036
 20
-7.4916684805
 11
2.1325165646
 21
-6.4917328495
  0
LINE
  5
514
100
AcDbEntity
  8
0
100
AcDbLine
 62
253
  6
CONTINUOUS
 10
1.5549852036
 20
-7.4916684805
 11
2.1325165646
 21
-6.4917328495
  0
LWPOLYLINE
  5
515
100
AcDbEntity
  8
RACCORDO
100
AcDbPolyline
 62
7
  6
CONTINUOUS
 90
5
 70
0
 10
-7.9231364165
 20
-23.1914849549
 10
-7.8996175604
 20
-23.1554373889
 10
-7.8756330038
 20
-23.1190141924
 10
-7.8511827468
 20
-23.0822864128
 10
-7.8262074997
 20
-23.045357313
  0
LINE
  5
516
100
AcDbEntity
  8
0
100
AcDbLine
 62
7
  6
CONTINUOUS
 10
8.3677470571
 20
-0.0600901535
 11
8.5124228756
 21
0.0458184201
  0
LINE
  5
517
100
AcDbEntity
  8
0
100
AcDbLine
 62
253
  6
CONTINUOUS
 10
9.9816932672
 20
3.6831195472
 11
8.5124228756
 21
3.2894447228
  0
LINE
  5
518
100
AcDbEntity
  8
RACCORDO
100
AcDbLine
 62
7
  6
CONTINUOUS
 10
8.6405653266
 20
3.5029534049
 11
8.3677470571
 21
3.4298491863
  0
LINE
  5
519
100
AcDbEntity
  8
0
100
AcDbLine
 62
7
  6
CONTINUOUS
 10
8.6405653266
 20
3.5029534049
 11
8.3677470571
 21
3.4298491863
  0
LINE
  5
51A
100
AcDbEntity
  8
RACCORDO
100
AcDbLine
 62
7
  6
CONTINUOUS
 10
-8.7050712124
 20
-0.1676902621
 11
-8.4322529429
 21
-0.0945860435
  0
LINE
  5
51B
100
AcDbEntity
  8
0
100
AcDbLine
 62
7
  6
CONTINUOUS
 10
-8.7050712124
 20
-0.1676902621
 11
-8.4322529429
 21
-0.0945860435
  0
LINE
  5
51C
100
AcDbEntity
  8
0
100
AcDbLine
 62
253
  6
CONTINUOUS
 10
-11.0653040078
 20
0.8922030369
 11
-11.0426124234
 21
0.8922030369
  0
LINE
  5
51D
100
AcDbEntity
  8
0
100
AcDbLine
 62
253
  6
CONTINUOUS
 10
-11.0426124234
 20
2.5413458817
 11
-11.0653040078
 21
2.5413458817
  0
LINE
  5
51E
100
AcDbEntity
  8
RACCORDO
100
AcDbLine
 62
7
  6
CONTINUOUS
 10
8.6405653266
 20
-0.1676902621
 11
8.3677470571
 21
-0.0945860435
  0
LINE
  5
51F
100
AcDbEntity
  8
0
100
AcDbLine
 62
7
  6
CONTINUOUS
 10
8.6405653266
 20
-0.1676902621
 11
8.3677470571
 21
-0.0945860435
  0
LINE
  5
520
100
AcDbEntity
  8
0
100
AcDbLine
 62
253
  6
CONTINUOUS
 10
9.9816932672
 20
-0.3478564043
 11
8.5124228756
 21
0.0458184201
  0
LINE
  5
521
100
AcDbEntity
  8
RACCORDO
100
AcDbLine
 62
253
  6
CONTINUOUS
 10
10.0177470571
 20
-6.5325207334
 11
9.6404130218
 21
-6.1551866981
  0
LINE
  5
522
100
AcDbEntity
  8
0
100
AcDbLine
 62
253
  6
CONTINUOUS
 10
10.0177470571
 20
-6.5325207334
 11
9.6404130218
 21
-6.1551866981
  0
LINE
  5
523
100
AcDbEntity
  8
SMUSSO
100
AcDbLine
 62
7
  6
CONTINUOUS
 10
5.979964672
 20
-6.1377316447
 11
5.979964672
 21
-5.7323684286
  0
LINE
  5
524
100
AcDbEntity
  8
0
100
AcDbLine
 62
7
  6
CONTINUOUS
 10
5.979964672
 20
-6.1377316447
 11
5.979964672
 21
-5.7323684286
  0
LINE
  5
525
100
AcDbEntity
  8
RACCORDO
100
AcDbLine
 62
7
  6
CONTINUOUS
 10
6.5259253553
 20
19.1505558546
 11
6.5259253553
 21
18.5246496883
  0
LINE
  5
526
100
AcDbEntity
  8
RACCORDO
100
AcDbLine
 62
7
  6
CONTINUOUS
 10
6.5259253553
 20
-21.3893865454
 11
6.5259253553
 21
-22.0152927118
  0
LINE
  5
527
100
AcDbEntity
  8
RACCORDO
100
AcDbLine
 62
7
  6
CONTINUOUS
 10
7.209568759
 20
19.5636271171
 11
7.209568759
 21
18.5246496883
  0
LINE
  5
528
100
AcDbEntity
  8
RACCORDO
100
AcDbLine
 62
7
  6
CONTINUOUS
 10
7.209568759
 20
-21.3893865454
 11
7.209568759
 21
-22.4283639743
  0
LINE
  5
529
100
AcDbEntity
  8
RACCORDO
100
AcDbLine
 62
7
  6
CONTINUOUS
 10
7.3195257425
 20
18.5267200525
 11
7.3195257425
 21
18.2676315714
  0
LINE
  5
52A
100
AcDbEntity
  8
RACCORDO
100
AcDbLine
 62
7
  6
CONTINUOUS
 10
7.3195257425
 20
-21.1323684286
 11
7.3195257425
 21
-21.3914569096
  0
LINE
  5
52B
100
AcDbEntity
  8
DRAFT
100
AcDbLine
 62
7
  6
CONTINUOUS
 10
7.3677470571
 20
-22.1968386104
 11
7.3677470571
 21
-21.1323684286
  0
LINE
  5
52C
100
AcDbEntity
  8
0
100
AcDbLine
 62
7
  6
CONTINUOUS
 10
7.3677470571
 20
-22.1968386104
 11
7.3677470571
 21
-21.1323684286
  0
LINE
  5
52D
100
AcDbEntity
  8
DRAFT
100
AcDbLine
 62
7
  6
CONTINUOUS
 10
7.3677470571
 20
18.2676315714
 11
7.3677470571
 21
19.3321017533
  0
LINE
  5
52E
100
AcDbEntity
  8
0
100
AcDbLine
 62
7
  6
CONTINUOUS
 10
7.3677470571
 20
18.2676315714
 11
7.3677470571
 21
19.3321017533
  0
LINE
  5
52F
100
AcDbEntity
  8
DRAFT
100
AcDbLine
 62
7
  6
CONTINUOUS
 10
7.4567678883
 20
19.2430809221
 11
7.4567678883
 21
18.1786107403
  0
LINE
  5
530
100
AcDbEntity
  8
0
100
AcDbLine
 62
7
  6
CONTINUOUS
 10
7.4567678883
 20
19.2430809221
 11
7.4567678883
 21
18.1786107403
  0
LINE
  5
531
100
AcDbEntity
  8
DRAFT
100
AcDbLine
 62
7
  6
CONTINUOUS
 10
7.4567678883
 20
-21.0433475974
 11
7.4567678883
 21
-22.1078177793
  0
LINE
  5
532
100
AcDbEntity
  8
0
100
AcDbLine
 62
7
  6
CONTINUOUS
 10
7.4567678883
 20
-21.0433475974
 11
7.4567678883
 21
-22.1078177793
  0
LINE
  5
533
100
AcDbEntity
  8
RACCORDO
100
AcDbLine
 62
253
  6
CONTINUOUS
 10
7.5518477763
 20
-22.7450616723
 11
7.5518477763
 21
-22.4283639743
  0
LINE
  5
534
100
AcDbEntity
  8
RACCORDO
100
AcDbLine
 62
253
  6
CONTINUOUS
 10
7.5518477763
 20
19.5636271171
 11
7.5518477763
 21
19.8803248151
  0
LWPOLYLINE
  5
535
100
AcDbEntity
  8
RACCORDO
100
AcDbPolyline
 62
7
  6
CONTINUOUS
 90
34
 70
0
 10
8.2177470571
 20
22.8176358022
 10
8.2180302074
 20
22.8295310874
 10
8.2188790229
 20
22.841399427
 10
8.220291583
 20
22.8532139376
 10
8.2222646894
 20
22.8649478589
 10
8.2247938754
 20
22.8765746102
 10
8.2278734154
 20
22.8880678504
 10
8.2314963358
 20
22.8994015452
 10
8.2356544314
 20
22.9105500207
 10
8.240338285
 20
22.9214880177
 10
8.2455372883
 20
22.932190759
 10
8.2512396655
 20
22.9426339997
 10
8.257432499
 20
22.9527940773
 10
8.2641017617
 20
22.9626479765
 10
8.2712323464
 20
22.9721733753
 10
8.2788080983
 20
22.9813486905
 10
8.2868118567
 20
22.9901531375
 10
8.2952254911
 20
22.9985667719
 10
8.3040299381
 20
23.0065705303
 10
8.3132052533
 20
23.0141462821
 10
8.322730652
 20
23.0212768669
 10
8.3325845512
 20
23.0279461296
 10
8.3427446289
 20
23.0341389631
 10
8.3531878695
 20
23.0398413403
 10
8.3638906108
 20
23.0450403436
 10
8.3748286078
 20
23.0497241972
 10
8.3859770834
 20
23.0538822928
 10
8.3973107781
 20
23.0575052131
 10
8.4088040183
 20
23.0605847531
 10
8.4204307697
 20
23.0631139391
 10
8.432164691
 20
23.0650870456
 10
8.4439792016
 20
23.0664996057
 10
8.4558475411
 20
23.0673484212
 10
8.4677428264
 20
23.0676315714
  0
LWPOLYLINE
  5
536
100
AcDbEntity
  8
RACCORDO
100
AcDbPolyline
 62
253
  6
CONTINUOUS
 90
31
 70
0
 10
8.2221188911
 20
22.8132639682
 10
8.2224620801
 20
22.8263503223
 10
8.2234898231
 20
22.8394008207
 10
8.2251993063
 20
22.8523796781
 10
8.227585849
 20
22.8652513177
 10
8.2306429102
 20
22.8779804317
 10
8.2343620997
 20
22.8905320791
 10
8.2387332147
 20
22.9028718352
 10
8.2437442702
 20
22.9149658725
 10
8.2493815185
 20
22.9267810181
 10
8.2556294976
 20
22.9382848739
 10
8.2624710734
 20
22.9494458999
 10
8.2698874803
 20
22.9602334902
 10
8.2778583885
 20
22.9706180794
 10
8.28636193
 20
22.9805711829
 10
8.2953747491
 20
22.990065476
 10
8.3048720836
 20
22.9990748978
 10
8.3148279207
 20
23.0075747948
 10
8.3252150466
 20
23.015541937
 10
8.3360051258
 20
23.022954567
 10
8.3471684442
 20
23.0297922489
 10
8.3586740446
 20
23.0360360505
 10
8.3704901229
 20
23.0416687991
 10
8.382584479
 20
23.046675229
 10
8.3949242829
 20
23.0510417801
 10
8.4074784675
 20
23.0547572198
 10
8.4202099327
 20
23.0578103332
 10
8.4330756514
 20
23.0601914634
 10
8.446037426
 20
23.0618950676
 10
8.4590623204
 20
23.0629183302
 10
8.4721146604
 20
23.0632597374
  0
LWPOLYLINE
  5
537
100
AcDbEntity
  8
ASSI
100
AcDbPolyline
 62
7
  6
CONTINUOUS
 90
17
 70
0
 10
3.4677470571
 20
-25.1835107189
 10
3.4680786018
 20
-25.1807990073
 10
3.469086688
 20
-25.1774174281
 10
3.4707908064
 20
-25.1733659814
 10
3.4732111433
 20
-25.1686577601
 10
3.4763642234
 20
-25.1632796712
 10
3.4802584803
 20
-25.1571924358
 10
3.4849041193
 20
-25.1503881902
 10
3.4903110592
 20
-25.1428747981
 10
3.4964782658
 20
-25.1346365719
 10
3.5033927408
 20
-25.1256926868
 10
3.5110692439
 20
-25.1160239677
 10
3.519554289
 20
-25.105557201
 10
3.5288601509
 20
-25.0942948402
 10
3.5389912346
 20
-25.0822344319
 10
3.5499992561
 20
-25.0692954032
 10
3.5618976264
 20
-25.0554755396
  0
LINE
  5
538
100
AcDbEntity
  8
SMUSSO
100
AcDbLine
 62
7
  6
CONTINUOUS
 10
5.979964672
 20
-6.1377316447
 11
5.8029775497
 21
-6.4917328495
  0
LINE
  5
539
100
AcDbEntity
  8
0
100
AcDbLine
 62
7
  6
CONTINUOUS
 10
5.979964672
 20
-6.1377316447
 11
5.8029775497
 21
-6.4917328495
  0
LINE
  5
53A
100
AcDbEntity
  8
RACCORDO
100
AcDbLine
 62
7
  6
CONTINUOUS
 10
-6.5875477108
 20
-21.5153117502
 11
-6.4833577877
 21
-21.3590246615
  0
LWPOLYLINE
  5
53B
100
AcDbEntity
  8
RACCORDO
100
AcDbPolyline
 62
7
  6
CONTINUOUS
 90
3
 70
0
 10
-7.8262074997
 20
-23.045357313
 10
-7.775037773
 20
-22.9709586732
 10
-7.7490294413
 20
-22.933506693
  0
LINE
  5
53C
100
AcDbEntity
  8
RACCORDO
100
AcDbLine
 62
7
  6
CONTINUOUS
 10
-7.7490294413
 20
-22.933506693
 11
-7.6697875637
 21
-22.8205523158
  0
LINE
  5
53D
100
AcDbEntity
  8
RACCORDO
100
AcDbLine
 62
7
  6
CONTINUOUS
 10
-7.6697875637
 20
-22.8205523158
 11
-7.616353662
 21
-22.7450616723
  0
LINE
  5
53E
100
AcDbEntity
  8
0
100
AcDbLine
 62
253
  6
CONTINUOUS
 10
-8.5769287613
 20
0.0458184201
 11
-10.0461991529
 21
-0.3478564043
  0
LINE
  5
53F
100
AcDbEntity
  8
0
100
AcDbLine
 62
253
  6
CONTINUOUS
 10
11.0641907257
 20
3.9541095714
 11
11.0518759323
 21
3.9541025714
  0
LINE
  5
540
100
AcDbEntity
  8
0
100
AcDbLine
 62
253
  6
CONTINUOUS
 10
-11.0620623531
 20
3.2628457097
 11
-11.0458540785
 21
3.2628457097
  0
LINE
  5
541
100
AcDbEntity
  8
0
100
AcDbLine
 62
253
  6
CONTINUOUS
 10
-11.0426124234
 20
3.8469173185
 11
-11.0653040078
 21
3.8469173185
  0
LINE
  5
542
100
AcDbEntity
  8
0
100
AcDbLine
 62
253
  6
CONTINUOUS
 10
11.0425137584
 20
3.9460405714
 11
11.0229463609
 21
3.9461055714
  0
LINE
  5
543
100
AcDbEntity
  8
RACCORDO
100
AcDbLine
 62
253
  6
CONTINUOUS
 10
-10.0822529429
 20
17.0677838763
 11
-9.7049189075
 21
16.6904498409
  0
LINE
  5
544
100
AcDbEntity
  8
0
100
AcDbLine
 62
253
  6
CONTINUOUS
 10
-10.0822529429
 20
17.0677838763
 11
-9.7049189075
 21
16.6904498409
  0
LINE
  5
545
100
AcDbEntity
  8
RACCORDO
100
AcDbLine
 62
7
  6
CONTINUOUS
 10
-7.616353662
 20
19.8803248151
 11
-7.6697875637
 21
19.9558154586
  0
LINE
  5
546
100
AcDbEntity
  8
RACCORDO
100
AcDbLine
 62
7
  6
CONTINUOUS
 10
-7.6697875637
 20
19.9558154586
 11
-7.7490294413
 21
20.0687698359
  0
LWPOLYLINE
  5
547
100
AcDbEntity
  8
RACCORDO
100
AcDbPolyline
 62
7
  6
CONTINUOUS
 90
7
 70
0
 10
-7.7490294413
 20
20.0687698359
 10
-7.8007665521
 20
20.1435241881
 10
-7.8262074997
 20
20.1806204559
 10
-7.8511827468
 20
20.2175495556
 10
-7.8756330038
 20
20.2542773353
 10
-7.8996175604
 20
20.2907005317
 10
-7.9231364165
 20
20.3267480978
  0
LINE
  5
548
100
AcDbEntity
  8
RACCORDO
100
AcDbLine
 62
7
  6
CONTINUOUS
 10
-6.5875477108
 20
18.6505748931
 11
-6.4833577877
 21
18.4942878043
  0
LWPOLYLINE
  5
549
100
AcDbEntity
  8
RACCORDO
100
AcDbPolyline
 62
253
  6
CONTINUOUS
 90
31
 70
0
 10
8.2221188911
 20
22.4119691387
 10
8.2224982229
 20
22.4006589882
 10
8.2235592048
 20
22.3893797233
 10
8.2252989397
 20
22.3781621454
 10
8.2277126766
 20
22.3670368874
 10
8.2307938242
 20
22.3560343299
 10
8.2345339685
 20
22.3451845186
 10
8.2389228959
 20
22.3345170822
 10
8.2439486211
 20
22.3240611511
 10
8.2495974201
 20
22.3138452783
 10
8.2558538671
 20
22.3038973612
 10
8.262700877
 20
22.2942445656
 10
8.2701197521
 20
22.2849132511
 10
8.2780902331
 20
22.2759288996
 10
8.2865905541
 20
22.2673160456
 10
8.2955975026
 20
22.2590982088
 10
8.3050864825
 20
22.2512978306
 10
8.3150315814
 20
22.2439362121
 10
8.3254056413
 20
22.2370334563
 10
8.3361803329
 20
22.2306084133
 10
8.3473262326
 20
22.2246786284
 10
8.3588129034
 20
22.2192602947
 10
8.3706089775
 20
22.2143682085
 10
8.3826822425
 20
22.210015729
 10
8.3949997286
 20
22.2062147421
 10
8.4075277995
 20
22.2029756273
 10
8.4202322436
 20
22.2003072301
 10
8.4330783676
 20
22.1982168372
 10
8.4460310917
 20
22.1967101571
 10
8.4590550445
 20
22.1957913042
 10
8.4721146604
 20
22.1954627878
  0
LINE
  5
54A
100
AcDbEntity
  8
RACCORDO
100
AcDbLine
 62
253
  6
CONTINUOUS
 10
8.2221188911
 20
-25.2767059959
 11
8.2177470571
 21
-24.8428535768
  0
LINE
  5
54B
100
AcDbEntity
  8
RACCORDO
100
AcDbLine
 62
253
  6
CONTINUOUS
 10
8.4721146604
 20
-25.0601996449
 11
8.4670240593
 21
-24.5550181594
  0
LINE
  5
54C
100
AcDbEntity
  8
RACCORDO
100
AcDbLine
 62
253
  6
CONTINUOUS
 10
8.0517716239
 20
-22.9983438618
 11
8.0517716239
 21
-22.4240766928
  0
LINE
  5
54D
100
AcDbEntity
  8
RACCORDO
100
AcDbLine
 62
253
  6
CONTINUOUS
 10
8.0517716239
 20
19.5593398357
 11
8.0517716239
 21
20.1336070047
  0
LINE
  5
54E
100
AcDbEntity
  8
DRAFT
100
AcDbLine
 62
7
  6
CONTINUOUS
 10
8.2177470571
 20
19.9676315714
 11
8.2177470571
 21
19.4676315714
  0
LINE
  5
54F
100
AcDbEntity
  8
DRAFT
100
AcDbLine
 62
7
  6
CONTINUOUS
 10
8.2177470571
 20
-22.3323684286
 11
8.2177470571
 21
-22.8323684286
  0
LINE
  5
550
100
AcDbEntity
  8
RACCORDO
100
AcDbLine
 62
7
  6
CONTINUOUS
 10
8.2177470571
 20
-23.8323684286
 11
8.2177470571
 21
-25.6823726594
  0
LINE
  5
551
100
AcDbEntity
  8
RACCORDO
100
AcDbLine
 62
7
  6
CONTINUOUS
 10
8.2177470571
 20
20.9676315714
 11
8.2177470571
 21
22.8176358022
  0
LINE
  5
552
100
AcDbEntity
  8
RACCORDO
100
AcDbLine
 62
253
  6
CONTINUOUS
 10
8.2221188911
 20
22.8132639682
 11
8.2221188911
 21
22.4119691387
  0
LINE
  5
553
100
AcDbEntity
  8
RACCORDO
100
AcDbLine
 62
253
  6
CONTINUOUS
 10
8.2221188911
 20
-25.2767059959
 11
8.2221188911
 21
-25.6780008254
  0
LINE
  5
554
100
AcDbEntity
  8
0
100
AcDbLine
 62
7
  6
CONTINUOUS
 10
8.3677470571
 20
3.4298491863
 11
8.3677470571
 21
-0.0945860435
  0
LINE
  5
555
100
AcDbEntity
  8
RACCORDO
100
AcDbLine
 62
253
  6
CONTINUOUS
 10
8.4721146604
 20
-25.0601996449
 11
8.4721146604
 21
-25.9279965946
  0
LINE
  5
556
100
AcDbEntity
  8
RACCORDO
100
AcDbLine
 62
253
  6
CONTINUOUS
 10
8.4721146604
 20
22.1954627878
 11
8.4721146604
 21
23.0632597374
  0
LINE
  5
557
100
AcDbEntity
  8
RACCORDO
100
AcDbLine
 62
253
  6
CONTINUOUS
 10
8.6405653266
 20
-7.1550343932
 11
8.6405653266
 21
-0.1676902621
  0
LINE
  5
558
100
AcDbEntity
  8
0
100
AcDbLine
 62
253
  6
CONTINUOUS
 10
8.6405653266
 20
-7.1550343932
 11
8.6405653266
 21
-0.1676902621
  0
LINE
  5
559
100
AcDbEntity
  8
RACCORDO
100
AcDbLine
 62
253
  6
CONTINUOUS
 10
8.6405653266
 20
3.5029534049
 11
8.6405653266
 21
17.6902975361
  0
LINE
  5
55A
100
AcDbEntity
  8
0
100
AcDbLine
 62
253
  6
CONTINUOUS
 10
8.6405653266
 20
3.5029534049
 11
8.6405653266
 21
17.6902975361
  0
LINE
  5
55B
100
AcDbEntity
  8
DRAFT
100
AcDbLine
 62
7
  6
CONTINUOUS
 10
9.6177470571
 20
-21.5813394824
 11
9.6177470571
 21
-21.4323684286
  0
LINE
  5
55C
100
AcDbEntity
  8
DRAFT
100
AcDbLine
 62
7
  6
CONTINUOUS
 10
9.6177470571
 20
18.5676315714
 11
9.6177470571
 21
18.7166026252
  0
LINE
  5
55D
100
AcDbEntity
  8
RACCORDO
100
AcDbLine
 62
253
  6
CONTINUOUS
 10
9.6404130218
 20
-6.1551866981
 11
9.6404130218
 21
-0.4270342831
  0
LINE
  5
55E
100
AcDbEntity
  8
0
100
AcDbLine
 62
253
  6
CONTINUOUS
 10
9.6404130218
 20
-6.1551866981
 11
9.6404130218
 21
-0.4270342831
  0
LINE
  5
55F
100
AcDbEntity
  8
RACCORDO
100
AcDbLine
 62
253
  6
CONTINUOUS
 10
9.6404130218
 20
3.762297426
 11
9.6404130218
 21
16.6904498409
  0
LINE
  5
560
100
AcDbEntity
  8
0
100
AcDbLine
 62
253
  6
CONTINUOUS
 10
9.6404130218
 20
3.762297426
 11
9.6404130218
 21
16.6904498409
  0
LINE
  5
561
100
AcDbEntity
  8
RACCORDO
100
AcDbLine
 62
253
  6
CONTINUOUS
 10
8.2177470571
 20
21.9781167196
 11
8.2221188911
 21
22.4119691387
  0
LINE
  5
562
100
AcDbEntity
  8
RACCORDO
100
AcDbLine
 62
253
  6
CONTINUOUS
 10
8.4670240593
 20
21.6902813022
 11
8.4721146604
 21
22.1954627878
  0
LWPOLYLINE
  5
563
100
AcDbEntity
  8
RACCORDO
100
AcDbPolyline
 62
253
  6
CONTINUOUS
 90
31
 70
0
 10
8.2221188911
 20
-25.2767059959
 10
8.2224974468
 20
-25.2654080236
 10
8.2235565743
 20
-25.2541377196
 10
8.2252939509
 20
-25.2429258498
 10
8.2277056523
 20
-25.2318020407
 10
8.2307855225
 20
-25.2207977886
 10
8.2345245735
 20
-25.2099462488
 10
8.2389121179
 20
-25.1992781258
 10
8.2439365169
 20
-25.1888214525
 10
8.2495841975
 20
-25.1786045336
 10
8.2558398901
 20
-25.1686551285
 10
8.2626864647
 20
-25.1590006039
 10
8.270105073
 20
-25.1496675805
 10
8.278075377
 20
-25.1406816303
 10
8.2865756718
 20
-25.1320672111
 10
8.2955827623
 20
-25.1238478328
 10
8.3050720659
 20
-25.1160459361
 10
8.3150176531
 20
-25.1086828479
 10
8.3253923359
 20
-25.101778699
 10
8.3361677683
 20
-25.0953523524
 10
8.3473145263
 20
-25.0894213555
 10
8.3588021634
 20
-25.0840019081
 10
8.3705993201
 20
-25.0791088061
 10
8.3826737565
 20
-25.074755423
 10
8.3949924361
 20
-25.0709536657
 10
8.4075216715
 20
-25.0677139192
 10
8.4202272744
 20
-25.0650450128
 10
8.4330745952
 20
-25.0629542204
 10
8.4460285624
 20
-25.0614472504
 10
8.4590537762
 20
-25.060528222
 10
8.4721146604
 20
-25.0601996449
  0
LINE
  5
564
100
AcDbEntity
  8
RACCORDO
100
AcDbLine
 62
7
  6
CONTINUOUS
 10
7.3167690684
 20
-21.890771677
 11
7.2665847318
 21
-22.342838809
  0
LINE
  5
565
100
AcDbEntity
  8
RACCORDO
100
AcDbLine
 62
7
  6
CONTINUOUS
 10
6.5488131356
 20
-7.1550343932
 11
6.3805089107
 21
-7.4916684805
  0
LINE
  5
566
100
AcDbEntity
  8
0
100
AcDbLine
 62
7
  6
CONTINUOUS
 10
6.5488131356
 20
-7.1550343932
 11
6.3805089107
 21
-7.4916684805
  0
LINE
  5
567
100
AcDbEntity
  8
DRAFT
100
AcDbLine
 62
7
  6
CONTINUOUS
 10
-4.4322529429
 20
-23.8323684286
 11
-4.3881856756
 21
-23.7662665955
  0
LWPOLYLINE
  5
568
100
AcDbEntity
  8
SMUSSO
100
AcDbPolyline
 62
7
  6
CONTINUOUS
 90
13
 70
0
 10
6.3805089107
 20
-7.4916684805
 10
6.3796053793
 20
-7.4927576386
 10
6.3770983714
 20
-7.4938444105
 10
6.3729878869
 20
-7.4949287964
 10
6.3672681146
 20
-7.4960114861
 10
6.3599448657
 20
-7.4970917898
 10
6.3510355745
 20
-7.4981676374
 10
6.3405393199
 20
-7.4992390305
 10
6.3284570229
 20
-7.5003059676
 10
6.3148088815
 20
-7.5013663738
 10
6.2995884026
 20
-7.5024202687
 10
6.2828020793
 20
-7.5034676326
 10
6.2644895883
 20
-7.5045063324
  0
LWPOLYLINE
  5
569
100
AcDbEntity
  8
0
100
AcDbPolyline
 62
7
  6
CONTINUOUS
 90
13
 70
0
 10
6.3805089107
 20
-7.4916684805
 10
6.3796053793
 20
-7.4927576386
 10
6.3770983714
 20
-7.4938444105
 10
6.3729878869
 20
-7.4949287964
 10
6.3672681146
 20
-7.4960114861
 10
6.3599448657
 20
-7.4970917898
 10
6.3510355745
 20
-7.4981676374
 10
6.3405393199
 20
-7.4992390305
 10
6.3284570229
 20
-7.5003059676
 10
6.3148088815
 20
-7.5013663738
 10
6.2995884026
 20
-7.5024202687
 10
6.2828020793
 20
-7.5034676326
 10
6.2644895883
 20
-7.5045063324
  0
LINE
  5
56A
100
AcDbEntity
  8
DRAFT
100
AcDbLine
 62
7
  6
CONTINUOUS
 10
5.9677470571
 20
-5.7323684286
 11
5.8029775497
 21
-5.897137936
  0
LINE
  5
56B
100
AcDbEntity
  8
0
100
AcDbLine
 62
7
  6
CONTINUOUS
 10
5.9677470571
 20
-5.7323684286
 11
5.8029775497
 21
-5.897137936
  0
LWPOLYLINE
  5
56C
100
AcDbEntity
  8
SMUSSO
100
AcDbPolyline
 62
7
  6
CONTINUOUS
 90
13
 70
0
 10
5.8029775497
 20
-6.4917328495
 10
5.8018847625
 20
-6.4925946215
 10
5.7994688512
 20
-6.4934542546
 10
5.7957329327
 20
-6.4943117489
 10
5.7906812197
 20
-6.4951676961
 10
5.7843186393
 20
-6.4960215044
 10
5.7766504875
 20
-6.4968713987
 10
5.7676833039
 20
-6.4977173732
 10
5.7574246072
 20
-6.4985594335
 10
5.7458819818
 20
-6.4993958222
 10
5.7330639014
 20
-6.5002265625
 10
5.7189808202
 20
-6.501051631
 10
5.7036446305
 20
-6.5018691996
  0
LWPOLYLINE
  5
56D
100
AcDbEntity
  8
0
100
AcDbPolyline
 62
7
  6
CONTINUOUS
 90
13
 70
0
 10
5.8029775497
 20
-6.4917328495
 10
5.8018847625
 20
-6.4925946215
 10
5.7994688512
 20
-6.4934542546
 10
5.7957329327
 20
-6.4943117489
 10
5.7906812197
 20
-6.4951676961
 10
5.7843186393
 20
-6.4960215044
 10
5.7766504875
 20
-6.4968713987
 10
5.7676833039
 20
-6.4977173732
 10
5.7574246072
 20
-6.4985594335
 10
5.7458819818
 20
-6.4993958222
 10
5.7330639014
 20
-6.5002265625
 10
5.7189808202
 20
-6.501051631
 10
5.7036446305
 20
-6.5018691996
  0
LINE
  5
56E
100
AcDbEntity
  8
RACCORDO
100
AcDbLine
 62
7
  6
CONTINUOUS
 10
-9.7049189075
 20
3.762297426
 11
-10.0461991529
 21
3.6831195472
  0
LINE
  5
56F
100
AcDbEntity
  8
0
100
AcDbLine
 62
7
  6
CONTINUOUS
 10
-9.7049189075
 20
3.762297426
 11
-10.0461991529
 21
3.6831195472
  0
LINE
  5
570
100
AcDbEntity
  8
0
100
AcDbLine
 62
253
  6
CONTINUOUS
 10
11.0229463609
 20
4.5261345714
 11
11.0735528996
 21
4.5261345714
  0
LINE
  5
571
100
AcDbEntity
  8
0
100
AcDbLine
 62
253
  6
CONTINUOUS
 10
-9.8797741897
 20
5.4676315714
 11
-9.923411852
 21
5.4676315714
  0
LINE
  5
572
100
AcDbEntity
  8
0
100
AcDbLine
 62
253
  6
CONTINUOUS
 10
-11.0653040078
 20
6.2862741009
 11
-11.0426124234
 21
6.2862741009
  0
LINE
  5
573
100
AcDbEntity
  8
RACCORDO
100
AcDbLine
 62
7
  6
CONTINUOUS
 10
9.6404130218
 20
3.762297426
 11
9.9816932672
 21
3.6831195472
  0
LINE
  5
574
100
AcDbEntity
  8
0
100
AcDbLine
 62
7
  6
CONTINUOUS
 10
9.6404130218
 20
3.762297426
 11
9.9816932672
 21
3.6831195472
  0
LINE
  5
575
100
AcDbEntity
  8
0
100
AcDbLine
 62
7
  6
CONTINUOUS
 10
8.3677470571
 20
3.3953532964
 11
8.5124228756
 21
3.2894447228
  0
LINE
  5
576
100
AcDbEntity
  8
RACCORDO
100
AcDbLine
 62
253
  6
CONTINUOUS
 10
-9.0824052477
 20
18.0676315714
 11
-8.7050712124
 21
17.6902975361
  0
LINE
  5
577
100
AcDbEntity
  8
0
100
AcDbLine
 62
253
  6
CONTINUOUS
 10
-9.0824052477
 20
18.0676315714
 11
-8.7050712124
 21
17.6902975361
  0
LINE
  5
578
100
AcDbEntity
  8
DRAFT
100
AcDbLine
 62
7
  6
CONTINUOUS
 10
-4.4322529429
 20
20.9676315714
 11
-4.3881856756
 21
20.9015297383
  0
LINE
  5
579
100
AcDbEntity
  8
RACCORDO
100
AcDbLine
 62
7
  6
CONTINUOUS
 10
7.2665847318
 20
19.4781019519
 11
7.3167690684
 21
19.0260348198
  0
LINE
  5
57A
100
AcDbEntity
  8
0
100
AcDbLine
 62
253
  6
CONTINUOUS
 10
10.9695262625
 20
-8.0180827628
 11
10.9955802121
 21
-8.4252255391
  0
LINE
  5
57B
100
AcDbEntity
  8
0
100
AcDbLine
 62
253
  6
CONTINUOUS
 10
10.9624206399
 20
-14.9395115446
 11
10.9955802121
 21
-15.4823684286
  0
LINE
  5
57C
100
AcDbEntity
  8
0
100
AcDbLine
 62
253
  6
CONTINUOUS
 10
11.032898441
 20
6.5919935714
 11
11.0229463609
 21
6.7751065714
  0
LINE
  5
57D
100
AcDbEntity
  8
0
100
AcDbLine
 62
253
  6
CONTINUOUS
 10
11.0577915715
 20
6.1339815714
 11
11.0425136363
 21
6.4150715714
  0
LINE
  5
57E
100
AcDbEntity
  8
0
100
AcDbLine
 62
253
  6
CONTINUOUS
 10
11.0229462213
 20
7.3551285714
 11
11.0735528996
 21
6.4240035714
  0
LINE
  5
57F
100
AcDbEntity
  8
0
100
AcDbLine
 62
253
  6
CONTINUOUS
 10
11.0420810046
 20
-15.6088594286
 11
11.0638775726
 21
-16.0388174286
  0
LINE
  5
580
100
AcDbEntity
  8
0
100
AcDbLine
 62
253
  6
CONTINUOUS
 10
11.0420810046
 20
-9.5838244286
 11
11.0638804343
 21
-10.0138394286
  0
LINE
  5
581
100
AcDbEntity
  8
0
100
AcDbLine
 62
253
  6
CONTINUOUS
 10
11.0229460992
 20
-15.2312574286
 11
11.0336713951
 21
-15.4482144286
  0
LINE
  5
582
100
AcDbEntity
  8
0
100
AcDbLine
 62
253
  6
CONTINUOUS
 10
11.0229460992
 20
-9.2063324286
 11
11.0336713951
 21
-9.4231804286
  0
LWPOLYLINE
  5
583
100
AcDbEntity
  8
0
100
AcDbPolyline
 62
253
  6
CONTINUOUS
 90
14
 70
0
 10
11.0515828674
 20
-6.1550290973
 10
11.0520228272
 20
-6.1639568126
 10
11.0524677451
 20
-6.1720477557
 10
11.0529170024
 20
-6.1793286856
 10
11.0533699805
 20
-6.1858263615
 10
11.0538260608
 20
-6.1915675425
 10
11.0542846248
 20
-6.1965789877
 10
11.0548102449
 20
-6.2014413641
 10
11.0553378808
 20
-6.2054330114
 10
11.0558671197
 20
-6.2085986415
 10
11.0563975487
 20
-6.2109829664
 10
11.0569287548
 20
-6.212630698
 10
11.0574603253
 20
-6.2135865482
 10
11.0579918472
 20
-6.2138952289
  0
LINE
  5
584
100
AcDbEntity
  8
0
100
AcDbLine
 62
253
  6
CONTINUOUS
 10
11.0735503869
 20
-15.6852524286
 11
11.0229460992
 21
-14.6368084286
  0
LINE
  5
585
100
AcDbEntity
  8
0
100
AcDbLine
 62
253
  6
CONTINUOUS
 10
11.0735503869
 20
-9.6602174286
 11
11.0229460992
 21
-8.6118824286
  0
LWPOLYLINE
  5
586
100
AcDbEntity
  8
0
100
AcDbPolyline
 62
253
  6
CONTINUOUS
 90
22
 70
0
 10
11.052390811
 20
2.3394361828
 10
11.0529455957
 20
2.3277269667
 10
11.0535077463
 20
2.3172294943
 10
11.0540764385
 20
2.30795967
 10
11.0546508482
 20
2.2999333983
 10
11.0552301514
 20
2.2931665837
 10
11.0558135237
 20
2.2876751307
 10
11.056400135
 20
2.2834720295
 10
11.0569891306
 20
2.280558613
 10
11.0575796498
 20
2.2789333001
 10
11.0581708317
 20
2.2785945093
 10
11.0587618156
 20
2.2795406594
 10
11.0593517406
 20
2.2817701691
 10
11.0599397461
 20
2.285281457
 10
11.0605249713
 20
2.290072942
 10
11.0611065554
 20
2.2961430426
 10
11.061683647
 20
2.3034874924
 10
11.0622554327
 20
2.3120912843
 10
11.0628211086
 20
2.3219367258
 10
11.0633798707
 20
2.3330061247
 10
11.0639309149
 20
2.3452817886
 10
11.0650066341
 20
2.3733811419
  0
LINE
  5
587
100
AcDbEntity
  8
0
100
AcDbLine
 62
253
  6
CONTINUOUS
 10
11.0548458326
 20
-5.5246825665
 11
11.0544478279
 21
-5.5157240937
  0
LINE
  5
588
100
AcDbEntity
  8
0
100
AcDbLine
 62
253
  6
CONTINUOUS
 10
11.0507202964
 20
-6.1345563131
 11
11.0515828674
 21
-6.1550290973
  0
LINE
  5
589
100
AcDbEntity
  8
0
100
AcDbLine
 62
253
  6
CONTINUOUS
 10
11.0513066355
 20
2.3664262279
 11
11.052390811
 21
2.3394361828
  0
LINE
  5
58A
100
AcDbEntity
  8
0
100
AcDbLine
 62
253
  6
CONTINUOUS
 10
11.0544478279
 20
-5.5157240937
 11
11.0540599586
 21
-5.5053348897
  0
LINE
  5
58B
100
AcDbEntity
  8
0
100
AcDbLine
 62
253
  6
CONTINUOUS
 10
10.9655786944
 20
-14.3061779092
 11
10.9639996671
 21
-14.2609399866
  0
LINE
  5
58C
100
AcDbEntity
  8
0
100
AcDbLine
 62
253
  6
CONTINUOUS
 10
10.966368208
 20
-14.1252257656
 11
10.9679472354
 21
-14.1704636882
  0
LINE
  5
58D
100
AcDbEntity
  8
0
100
AcDbLine
 62
253
  6
CONTINUOUS
 10
10.9718948038
 20
-13.3109399866
 11
10.9671577218
 21
-13.1752257656
  0
LINE
  5
58E
100
AcDbEntity
  8
0
100
AcDbLine
 62
253
  6
CONTINUOUS
 10
10.9861060492
 20
-12.3609399866
 11
10.9908431306
 21
-12.4966542076
  0
LWPOLYLINE
  5
58F
100
AcDbEntity
  8
RACCORDO
100
AcDbPolyline
 62
253
  6
CONTINUOUS
 90
31
 70
0
 10
10.6133752231
 20
-25.2767059959
 10
10.6129966675
 20
-25.2654080236
 10
10.6119375399
 20
-25.2541377196
 10
10.6102001634
 20
-25.2429258498
 10
10.607788462
 20
-25.2318020407
 10
10.6047085918
 20
-25.2207977886
 10
10.6009695408
 20
-25.2099462488
 10
10.5965819964
 20
-25.1992781258
 10
10.5915575974
 20
-25.1888214525
 10
10.5859099168
 20
-25.1786045336
 10
10.5796542242
 20
-25.1686551285
 10
10.5728076496
 20
-25.1590006039
 10
10.5653890413
 20
-25.1496675805
 10
10.5574187373
 20
-25.1406816303
 10
10.5489184425
 20
-25.1320672111
 10
10.539911352
 20
-25.1238478328
 10
10.5304220484
 20
-25.1160459361
 10
10.5204764612
 20
-25.1086828479
 10
10.5101017784
 20
-25.101778699
 10
10.499326346
 20
-25.0953523524
 10
10.488179588
 20
-25.0894213555
 10
10.4766919509
 20
-25.0840019081
 10
10.4648947942
 20
-25.0791088061
 10
10.4528203577
 20
-25.074755423
 10
10.4405016781
 20
-25.0709536657
 10
10.4279724428
 20
-25.0677139192
 10
10.4152668399
 20
-25.0650450128
 10
10.4024195191
 20
-25.0629542204
 10
10.3894655519
 20
-25.0614472504
 10
10.3764403381
 20
-25.060528222
 10
10.3633794539
 20
-25.0601996449
  0
LINE
  5
590
100
AcDbEntity
  8
0
100
AcDbLine
 62
253
  6
CONTINUOUS
 10
11.0498853183
 20
-6.1104665812
 11
11.0507202964
 21
-6.1345563131
  0
LINE
  5
591
100
AcDbEntity
  8
0
100
AcDbLine
 62
253
  6
CONTINUOUS
 10
11.0502617869
 20
2.3980703738
 11
11.0513066355
 21
2.3664262279
  0
LINE
  5
592
100
AcDbEntity
  8
0
100
AcDbLine
 62
253
  6
CONTINUOUS
 10
11.0540599586
 20
-5.5053348897
 11
11.0535401619
 21
-5.4886227494
  0
LINE
  5
593
100
AcDbEntity
  8
0
100
AcDbLine
 62
253
  6
CONTINUOUS
 10
11.0490842955
 20
-6.0827939138
 11
11.0498853183
 21
-6.1104665812
  0
LINE
  5
594
100
AcDbEntity
  8
0
100
AcDbLine
 62
253
  6
CONTINUOUS
 10
11.0492622267
 20
2.4341929051
 11
11.0502617869
 21
2.3980703738
  0
LINE
  5
595
100
AcDbEntity
  8
0
100
AcDbLine
 62
253
  6
CONTINUOUS
 10
10.9955802121
 20
-11.1395110916
 11
10.9884745889
 21
-10.8680826496
  0
LINE
  5
596
100
AcDbEntity
  8
0
100
AcDbLine
 62
253
  6
CONTINUOUS
 10
10.9624206399
 20
-10.8680826496
 11
10.9861060492
 21
-11.8180826496
  0
LINE
  5
597
100
AcDbEntity
  8
0
100
AcDbLine
 62
253
  6
CONTINUOUS
 10
11.0535401619
 20
-5.4886227494
 11
11.0531251811
 21
-5.4725086713
  0
LINE
  5
598
100
AcDbEntity
  8
0
100
AcDbLine
 62
253
  6
CONTINUOUS
 10
9.8049299187
 20
-2.4752255391
 11
9.8233362825
 21
-3.2895112614
  0
LINE
  5
599
100
AcDbEntity
  8
0
100
AcDbLine
 62
253
  6
CONTINUOUS
 10
11.0479610902
 20
-6.0347525383
 11
11.0490842955
 21
-6.0827939138
  0
LINE
  5
59A
100
AcDbEntity
  8
0
100
AcDbLine
 62
253
  6
CONTINUOUS
 10
11.0478595116
 20
2.4962870362
 11
11.0492622267
 21
2.4341929051
  0
LINE
  5
59B
100
AcDbEntity
  8
0
100
AcDbLine
 62
253
  6
CONTINUOUS
 10
9.8075593983
 20
-3.8323684286
 11
9.8049299187
 21
-3.6966541368
  0
LINE
  5
59C
100
AcDbEntity
  8
0
100
AcDbLine
 62
253
  6
CONTINUOUS
 10
9.8233362825
 20
-2.0680827628
 11
9.8207068029
 21
-1.9323684286
  0
LINE
  5
59D
100
AcDbEntity
  8
0
100
AcDbLine
 62
253
  6
CONTINUOUS
 10
11.0531251811
 20
-5.4725086713
 11
11.052618471
 21
-5.447735833
  0
LINE
  5
59E
100
AcDbEntity
  8
0
100
AcDbLine
 62
253
  6
CONTINUOUS
 10
10.9671577218
 20
-17.5180831026
 11
10.9624206399
 21
-17.2466537546
  0
LINE
  5
59F
100
AcDbEntity
  8
0
100
AcDbLine
 62
253
  6
CONTINUOUS
 10
10.9837375074
 20
-17.3823684286
 11
10.979000426
 21
-17.1109399866
  0
LINE
  5
5A0
100
AcDbEntity
  8
0
100
AcDbLine
 62
253
  6
CONTINUOUS
 10
10.9671577218
 20
-13.1752257656
 11
10.9624206399
 21
-12.9037968706
  0
LINE
  5
5A1
100
AcDbEntity
  8
0
100
AcDbLine
 62
253
  6
CONTINUOUS
 10
10.9908431306
 20
-12.4966542076
 11
10.9955802121
 21
-12.7680826496
  0
LINE
  5
5A2
100
AcDbEntity
  8
0
100
AcDbLine
 62
253
  6
CONTINUOUS
 10
10.9624206399
 20
-10.1895113181
 11
10.9647891808
 21
-10.3252255391
  0
LINE
  5
5A3
100
AcDbEntity
  8
0
100
AcDbLine
 62
253
  6
CONTINUOUS
 10
10.9861060492
 20
-6.9323684286
 11
10.9955802121
 21
-7.4752255957
  0
LINE
  5
5A4
100
AcDbEntity
  8
0
100
AcDbLine
 62
253
  6
CONTINUOUS
 10
11.0466403589
 20
-5.959071323
 11
11.0479610902
 21
-6.0347525383
  0
LINE
  5
5A5
100
AcDbEntity
  8
0
100
AcDbLine
 62
253
  6
CONTINUOUS
 10
11.046197552
 20
2.5926645252
 11
11.0478595116
 21
2.4962870362
  0
LINE
  5
5A6
100
AcDbEntity
  8
0
100
AcDbLine
 62
253
  6
CONTINUOUS
 10
11.052618471
 20
-5.447735833
 11
11.0521855017
 21
-5.419044541
  0
LINE
  5
5A7
100
AcDbEntity
  8
0
100
AcDbLine
 62
253
  6
CONTINUOUS
 10
10.9813689677
 20
-10.0537970971
 11
10.9837375074
 21
-10.2799873899
  0
LINE
  5
5A8
100
AcDbEntity
  8
0
100
AcDbLine
 62
253
  6
CONTINUOUS
 10
11.0452960313
 20
-5.8495588318
 11
11.0466403589
 21
-5.959071323
  0
LINE
  5
5A9
100
AcDbEntity
  8
0
100
AcDbLine
 62
253
  6
CONTINUOUS
 10
11.0445098945
 20
2.7316796028
 11
11.046197552
 21
2.5926645252
  0
LINE
  5
5AA
100
AcDbEntity
  8
RACCORDO
100
AcDbLine
 62
253
  6
CONTINUOUS
 10
10.3633794539
 20
22.1954627878
 11
10.368470055
 21
21.6902813022
  0
LINE
  5
5AB
100
AcDbEntity
  8
RACCORDO
100
AcDbLine
 62
253
  6
CONTINUOUS
 10
10.6133752231
 20
22.4119691387
 11
10.6177470571
 21
21.9781167196
  0
LINE
  5
5AC
100
AcDbEntity
  8
0
100
AcDbLine
 62
253
  6
CONTINUOUS
 10
11.0521855017
 20
-5.419044541
 11
11.0516827907
 21
-5.3699599351
  0
LINE
  5
5AD
100
AcDbEntity
  8
0
100
AcDbLine
 62
253
  6
CONTINUOUS
 10
11.043730826
 20
2.8226555714
 11
11.0445098945
 21
2.7316796028
  0
LINE
  5
5AE
100
AcDbEntity
  8
0
100
AcDbLine
 62
253
  6
CONTINUOUS
 10
11.0438155261
 20
-5.6537014617
 11
11.0452960313
 21
-5.8495588318
  0
LINE
  5
5AF
100
AcDbEntity
  8
0
100
AcDbLine
 62
253
  6
CONTINUOUS
 10
11.0516827907
 20
-5.3699599351
 11
11.0511754314
 21
-5.2730379302
  0
LINE
  5
5B0
100
AcDbEntity
  8
0
100
AcDbLine
 62
253
  6
CONTINUOUS
 10
11.0511754314
 20
-5.2730379302
 11
11.0508429183
 21
-5.1189805595
  0
LINE
  5
5B1
100
AcDbEntity
  8
0
100
AcDbLine
 62
253
  6
CONTINUOUS
 10
11.0426256915
 20
-5.276344291
 11
11.0438155261
 21
-5.6537014617
  0
LINE
  5
5B2
100
AcDbEntity
  8
0
100
AcDbLine
 62
253
  6
CONTINUOUS
 10
9.6861008235
 20
-3.7213892597
 11
9.6861008235
 21
-1.8213892597
  0
LINE
  5
5B3
100
AcDbEntity
  8
0
100
AcDbLine
 62
253
  6
CONTINUOUS
 10
9.7202840736
 20
-1.8213892597
 11
9.7202840736
 21
-3.7213892597
  0
LINE
  5
5B4
100
AcDbEntity
  8
0
100
AcDbLine
 62
253
  6
CONTINUOUS
 10
9.783894072
 20
-1.9323684286
 11
9.783894072
 21
-3.8323684286
  0
LINE
  5
5B5
100
AcDbEntity
  8
0
100
AcDbLine
 62
253
  6
CONTINUOUS
 10
9.8049299187
 20
-2.2037969838
 11
9.8049299187
 21
-2.4752255391
  0
LINE
  5
5B6
100
AcDbEntity
  8
0
100
AcDbLine
 62
253
  6
CONTINUOUS
 10
9.8233362825
 20
-3.2895112614
 11
9.8233362825
 21
-3.560939845
  0
LINE
  5
5B7
100
AcDbEntity
  8
RACCORDO
100
AcDbLine
 62
7
  6
CONTINUOUS
 10
10.0177470571
 20
-6.5325207334
 11
10.0177470571
 21
17.0677838763
  0
LINE
  5
5B8
100
AcDbEntity
  8
0
100
AcDbLine
 62
7
  6
CONTINUOUS
 10
10.0177470571
 20
-6.5325207334
 11
10.0177470571
 21
17.0677838763
  0
LINE
  5
5B9
100
AcDbEntity
  8
RACCORDO
100
AcDbLine
 62
253
  6
CONTINUOUS
 10
10.3633794539
 20
-25.0601996449
 11
10.3633794539
 21
-25.9279965946
  0
LINE
  5
5BA
100
AcDbEntity
  8
RACCORDO
100
AcDbLine
 62
253
  6
CONTINUOUS
 10
10.3633794539
 20
22.1954627878
 11
10.3633794539
 21
23.0632597374
  0
LINE
  5
5BB
100
AcDbEntity
  8
RACCORDO
100
AcDbLine
 62
253
  6
CONTINUOUS
 10
10.6133752231
 20
-25.6780008254
 11
10.6133752231
 21
-25.2767059959
  0
LINE
  5
5BC
100
AcDbEntity
  8
RACCORDO
100
AcDbLine
 62
253
  6
CONTINUOUS
 10
10.6133752231
 20
22.4119691387
 11
10.6133752231
 21
22.8132639682
  0
LINE
  5
5BD
100
AcDbEntity
  8
RACCORDO
100
AcDbLine
 62
7
  6
CONTINUOUS
 10
10.6177470571
 20
-23.8323684286
 11
10.6177470571
 21
-25.6823726594
  0
LINE
  5
5BE
100
AcDbEntity
  8
RACCORDO
100
AcDbLine
 62
7
  6
CONTINUOUS
 10
10.6177470571
 20
20.9676315714
 11
10.6177470571
 21
22.8176358022
  0
LINE
  5
5BF
100
AcDbEntity
  8
RACCORDO
100
AcDbLine
 62
7
  6
CONTINUOUS
 10
10.9431964079
 20
16.1670293739
 11
10.9431964079
 21
-19.031766231
  0
LINE
  5
5C0
100
AcDbEntity
  8
0
100
AcDbLine
 62
7
  6
CONTINUOUS
 10
10.9431964079
 20
16.1670293739
 11
10.9431964079
 21
-19.031766231
  0
LINE
  5
5C1
100
AcDbEntity
  8
0
100
AcDbLine
 62
253
  6
CONTINUOUS
 10
10.9624206399
 20
-9.5109397601
 11
10.9624206399
 21
-10.1895113181
  0
LINE
  5
5C2
100
AcDbEntity
  8
0
100
AcDbLine
 62
253
  6
CONTINUOUS
 10
10.9624206399
 20
-17.2466537546
 11
10.9624206399
 21
-16.5680831026
  0
LINE
  5
5C3
100
AcDbEntity
  8
0
100
AcDbLine
 62
253
  6
CONTINUOUS
 10
10.9624206399
 20
-12.9037968706
 11
10.9624206399
 21
-12.7680826496
  0
LINE
  5
5C4
100
AcDbEntity
  8
0
100
AcDbLine
 62
253
  6
CONTINUOUS
 10
10.9624206399
 20
-11.8180826496
 11
10.9624206399
 21
-10.8680826496
  0
LINE
  5
5C5
100
AcDbEntity
  8
0
100
AcDbLine
 62
253
  6
CONTINUOUS
 10
10.9639996671
 20
-14.2609399866
 11
10.9639996671
 21
-14.1704636882
  0
LINE
  5
5C6
100
AcDbEntity
  8
0
100
AcDbLine
 62
253
  6
CONTINUOUS
 10
10.9679472354
 20
-14.1704636882
 11
10.9679472354
 21
-14.2609399866
  0
LINE
  5
5C7
100
AcDbEntity
  8
0
100
AcDbLine
 62
253
  6
CONTINUOUS
 10
10.9695262625
 20
-8.9680826496
 11
10.9695262625
 21
-8.0180827628
  0
LINE
  5
5C8
100
AcDbEntity
  8
0
100
AcDbLine
 62
253
  6
CONTINUOUS
 10
10.9718948038
 20
-15.1204632352
 11
10.9718948038
 21
-15.8442736219
  0
LINE
  5
5C9
100
AcDbEntity
  8
0
100
AcDbLine
 62
253
  6
CONTINUOUS
 10
10.979000426
 20
-17.2466537546
 11
10.979000426
 21
-16.5680831026
  0
LINE
  5
5CA
100
AcDbEntity
  8
0
100
AcDbLine
 62
253
  6
CONTINUOUS
 10
10.9813689677
 20
-10.0537970971
 11
10.9813689677
 21
-9.7823684286
  0
LINE
  5
5CB
100
AcDbEntity
  8
0
100
AcDbLine
 62
253
  6
CONTINUOUS
 10
10.9955802121
 20
-12.7680826496
 11
10.9955802121
 21
-12.9037968706
  0
LINE
  5
5CC
100
AcDbEntity
  8
0
100
AcDbLine
 62
253
  6
CONTINUOUS
 10
10.9955802121
 20
-16.5680831026
 11
10.9955802121
 21
-16.9752253126
  0
LINE
  5
5CD
100
AcDbEntity
  8
0
100
AcDbLine
 62
253
  6
CONTINUOUS
 10
10.9955802121
 20
-11.5466542076
 11
10.9955802121
 21
-11.1395110916
  0
LINE
  5
5CE
100
AcDbEntity
  8
0
100
AcDbLine
 62
253
  6
CONTINUOUS
 10
10.9955802121
 20
-10.0537970971
 11
10.9955802121
 21
-9.5109397601
  0
LINE
  5
5CF
100
AcDbEntity
  8
0
100
AcDbLine
 62
253
  6
CONTINUOUS
 10
11.0229462213
 20
4.9128135714
 11
11.0229463609
 21
5.4928425714
  0
LINE
  5
5D0
100
AcDbEntity
  8
0
100
AcDbLine
 62
253
  6
CONTINUOUS
 10
11.0229462213
 20
10.5786165714
 11
11.0229462213
 21
9.9985945714
  0
LINE
  5
5D1
100
AcDbEntity
  8
0
100
AcDbLine
 62
253
  6
CONTINUOUS
 10
11.0229462213
 20
8.3218285714
 11
11.0229462213
 21
7.7418075714
  0
LINE
  5
5D2
100
AcDbEntity
  8
0
100
AcDbLine
 62
253
  6
CONTINUOUS
 10
11.0229460992
 20
-4.1331584286
 11
11.0229460992
 21
-4.7557644286
  0
LINE
  5
5D3
100
AcDbEntity
  8
0
100
AcDbLine
 62
253
  6
CONTINUOUS
 10
11.0229460992
 20
-8.6118824286
 11
11.0229460992
 21
-9.2063324286
  0
LINE
  5
5D4
100
AcDbEntity
  8
0
100
AcDbLine
 62
253
  6
CONTINUOUS
 10
11.0229460992
 20
-10.7807994286
 11
11.0229460992
 21
-11.4074424286
  0
LINE
  5
5D5
100
AcDbEntity
  8
0
100
AcDbLine
 62
253
  6
CONTINUOUS
 10
11.0229460992
 20
-14.6368084286
 11
11.0229460992
 21
-15.2312574286
  0
LINE
  5
5D6
100
AcDbEntity
  8
0
100
AcDbLine
 62
253
  6
CONTINUOUS
 10
11.0229460992
 20
-16.8059424286
 11
11.0229460992
 21
-17.4323684286
  0
LINE
  5
5D7
100
AcDbEntity
  8
0
100
AcDbLine
 62
253
  6
CONTINUOUS
 10
11.0229460992
 20
-14.3435664286
 11
11.0229460992
 21
-13.4599144286
  0
LINE
  5
5D8
100
AcDbEntity
  8
0
100
AcDbLine
 62
253
  6
CONTINUOUS
 10
11.0229460992
 20
-12.3071384286
 11
11.0229460992
 21
-11.7246934286
  0
LINE
  5
5D9
100
AcDbEntity
  8
0
100
AcDbLine
 62
253
  6
CONTINUOUS
 10
11.0229460992
 20
-8.2991064286
 11
11.0229460992
 21
-6.6035014286
  0
LINE
  5
5DA
100
AcDbEntity
  8
0
100
AcDbLine
 62
253
  6
CONTINUOUS
 10
11.0229463609
 20
3.9461055714
 11
11.0229463609
 21
4.5261345714
  0
LINE
  5
5DB
100
AcDbEntity
  8
0
100
AcDbLine
 62
253
  6
CONTINUOUS
 10
11.0229464831
 20
2.2052505714
 11
11.0229463609
 21
2.8585555714
  0
LINE
  5
5DC
100
AcDbEntity
  8
0
100
AcDbLine
 62
253
  6
CONTINUOUS
 10
11.0229463609
 20
6.7751065714
 11
11.0229462213
 21
7.3551285714
  0
LINE
  5
5DD
100
AcDbEntity
  8
0
100
AcDbLine
 62
253
  6
CONTINUOUS
 10
11.0229460992
 20
13.6364995714
 11
11.0229462213
 21
13.0564555714
  0
LINE
  5
5DE
100
AcDbEntity
  8
0
100
AcDbLine
 62
253
  6
CONTINUOUS
 10
11.0229460992
 20
11.7386455714
 11
11.0229462213
 21
11.1586235714
  0
LINE
  5
5DF
100
AcDbEntity
  8
0
100
AcDbLine
 62
253
  6
CONTINUOUS
 10
11.0229462213
 20
9.4502185714
 11
11.0229463609
 21
8.8702115714
  0
LINE
  5
5E0
100
AcDbEntity
  8
0
100
AcDbLine
 62
253
  6
CONTINUOUS
 10
11.0313557088
 20
-7.2261074286
 11
11.0313557088
 21
-8.2991064286
  0
LINE
  5
5E1
100
AcDbEntity
  8
0
100
AcDbLine
 62
253
  6
CONTINUOUS
 10
11.032898441
 20
5.6759485714
 11
11.032898441
 21
6.5919935714
  0
LINE
  5
5E2
100
AcDbEntity
  8
0
100
AcDbLine
 62
253
  6
CONTINUOUS
 10
11.0336713951
 20
-9.4231804286
 11
11.0336713951
 21
-10.5719174286
  0
LINE
  5
5E3
100
AcDbEntity
  8
0
100
AcDbLine
 62
253
  6
CONTINUOUS
 10
11.0336713951
 20
-15.4482144286
 11
11.0336713951
 21
-16.5969524286
  0
LINE
  5
5E4
100
AcDbEntity
  8
0
100
AcDbLine
 62
253
  6
CONTINUOUS
 10
11.0420810046
 20
-16.4402374286
 11
11.0420810046
 21
-15.6088594286
  0
LINE
  5
5E5
100
AcDbEntity
  8
0
100
AcDbLine
 62
253
  6
CONTINUOUS
 10
11.0420810046
 20
-10.4153114286
 11
11.0420810046
 21
-9.5838244286
  0
LINE
  5
5E6
100
AcDbEntity
  8
0
100
AcDbLine
 62
253
  6
CONTINUOUS
 10
11.0426256915
 20
-5.276344291
 11
11.0424333151
 21
-4.7557644286
  0
LINE
  5
5E7
100
AcDbEntity
  8
0
100
AcDbLine
 62
253
  6
CONTINUOUS
 10
11.0425136363
 20
3.4398095714
 11
11.0425137584
 21
3.9460405714
  0
LINE
  5
5E8
100
AcDbEntity
  8
0
100
AcDbLine
 62
253
  6
CONTINUOUS
 10
11.0425136363
 20
6.4150715714
 11
11.0425136363
 21
5.8528775714
  0
LINE
  5
5E9
100
AcDbEntity
  8
0
100
AcDbLine
 62
253
  6
CONTINUOUS
 10
11.0508429246
 20
-4.7557644286
 11
11.0508429246
 21
-5.1189804286
  0
LINE
  5
5EA
100
AcDbEntity
  8
0
100
AcDbLine
 62
253
  6
CONTINUOUS
 10
11.0518759323
 20
3.9541025714
 11
11.0518759323
 21
3.2484235714
  0
LINE
  5
5EB
100
AcDbEntity
  8
0
100
AcDbLine
 62
253
  6
CONTINUOUS
 10
11.0641907257
 20
3.2484235714
 11
11.0641907257
 21
3.9541095714
  0
LINE
  5
5EC
100
AcDbEntity
  8
0
100
AcDbLine
 62
253
  6
CONTINUOUS
 10
11.0735503869
 20
-6.6035014286
 11
11.0735503869
 21
-7.2261074286
  0
LINE
  5
5ED
100
AcDbEntity
  8
0
100
AcDbLine
 62
253
  6
CONTINUOUS
 10
11.0735503869
 20
-11.7246934286
 11
11.0735503869
 21
-12.6485074286
  0
LINE
  5
5EE
100
AcDbEntity
  8
0
100
AcDbLine
 62
253
  6
CONTINUOUS
 10
11.0735503869
 20
-13.7611224286
 11
11.0735503869
 21
-14.3435664286
  0
LINE
  5
5EF
100
AcDbEntity
  8
0
100
AcDbLine
 62
253
  6
CONTINUOUS
 10
11.0735503869
 20
-16.4243034286
 11
11.0735503869
 21
-15.6852524286
  0
LINE
  5
5F0
100
AcDbEntity
  8
0
100
AcDbLine
 62
253
  6
CONTINUOUS
 10
11.0735503869
 20
-10.3992684286
 11
11.0735503869
 21
-9.6602174286
  0
LINE
  5
5F1
100
AcDbEntity
  8
0
100
AcDbLine
 62
253
  6
CONTINUOUS
 10
11.0735528996
 20
6.4240035714
 11
11.0735528996
 21
5.8439525714
  0
LINE
  5
5F2
100
AcDbEntity
  8
0
100
AcDbLine
 62
253
  6
CONTINUOUS
 10
11.0735527775
 20
7.7418075714
 11
11.0735527775
 21
8.6186435714
  0
LINE
  5
5F3
100
AcDbEntity
  8
0
100
AcDbLine
 62
253
  6
CONTINUOUS
 10
11.0735527775
 20
9.7017795714
 11
11.0735527775
 21
10.5786165714
  0
LINE
  5
5F4
100
AcDbEntity
  8
0
100
AcDbLine
 62
253
  6
CONTINUOUS
 10
11.0735527775
 20
11.1586165714
 11
11.0735527775
 21
11.7386375714
  0
LINE
  5
5F5
100
AcDbEntity
  8
0
100
AcDbLine
 62
253
  6
CONTINUOUS
 10
11.0735527775
 20
12.1253165714
 11
11.0735527775
 21
12.7053455714
  0
LINE
  5
5F6
100
AcDbEntity
  8
0
100
AcDbLine
 62
253
  6
CONTINUOUS
 10
11.0735527775
 20
13.9876025714
 11
11.0735527775
 21
14.5676315714
  0
LINE
  5
5F7
100
AcDbEntity
  8
0
100
AcDbLine
 62
7
  6
CONTINUOUS
 10
11.1177470571
 20
-19.1040674773
 11
11.1177470571
 21
16.2393306201
  0
LINE
  5
5F8
100
AcDbEntity
  8
RACCORDO
100
AcDbLine
 62
7
  6
CONTINUOUS
 10
11.1177470571
 20
-23.3735558883
 11
11.1177470571
 21
20.5088190312
  0
LINE
  5
5F9
100
AcDbEntity
  8
0
100
AcDbLine
 62
253
  6
CONTINUOUS
 10
11.0651407773
 20
-4.7557644286
 11
11.065108504
 21
-5.1343934854
  0
LINE
  5
5FA
100
AcDbEntity
  8
0
100
AcDbLine
 62
253
  6
CONTINUOUS
 10
11.0731488146
 20
2.9665631301
 11
11.0735528996
 21
4.5261345714
  0
LINE
  5
5FB
100
AcDbEntity
  8
0
100
AcDbLine
 62
253
  6
CONTINUOUS
 10
11.065108504
 20
-5.1343934854
 11
11.064621277
 21
-5.3195374829
  0
LINE
  5
5FC
100
AcDbEntity
  8
0
100
AcDbLine
 62
253
  6
CONTINUOUS
 10
11.0723490676
 20
-5.6196046635
 11
11.0735503869
 21
-4.1331584286
  0
LINE
  5
5FD
100
AcDbEntity
  8
0
100
AcDbLine
 62
253
  6
CONTINUOUS
 10
10.9955802121
 20
-16.9752253126
 11
10.9947906975
 21
-17.1109399866
  0
LINE
  5
5FE
100
AcDbEntity
  8
0
100
AcDbLine
 62
253
  6
CONTINUOUS
 10
11.0719588886
 20
2.7752972197
 11
11.0731488146
 21
2.9665631301
  0
LINE
  5
5FF
100
AcDbEntity
  8
0
100
AcDbLine
 62
253
  6
CONTINUOUS
 10
11.0709465279
 20
-5.8228353301
 11
11.0723490676
 21
-5.6196046635
  0
LINE
  5
600
100
AcDbEntity
  8
0
100
AcDbLine
 62
253
  6
CONTINUOUS
 10
11.064621277
 20
-5.3195374829
 11
11.0641528242
 21
-5.3869576227
  0
LINE
  5
601
100
AcDbEntity
  8
RACCORDO
100
AcDbLine
 62
253
  6
CONTINUOUS
 10
10.368470055
 20
-24.5550181594
 11
10.3633794539
 21
-25.0601996449
  0
LINE
  5
602
100
AcDbEntity
  8
RACCORDO
100
AcDbLine
 62
253
  6
CONTINUOUS
 10
10.6177470571
 20
-24.8428535768
 11
10.6133752231
 21
-25.2767059959
  0
LINE
  5
603
100
AcDbEntity
  8
0
100
AcDbLine
 62
253
  6
CONTINUOUS
 10
11.0704103421
 20
2.6313399756
 11
11.0719588886
 21
2.7752972197
  0
LINE
  5
604
100
AcDbEntity
  8
0
100
AcDbLine
 62
253
  6
CONTINUOUS
 10
11.0696396179
 20
-5.9383214624
 11
11.0709465279
 21
-5.8228353301
  0
LINE
  5
605
100
AcDbEntity
  8
0
100
AcDbLine
 62
253
  6
CONTINUOUS
 10
11.0641528242
 20
-5.3869576227
 11
11.0636974074
 21
-5.4265694248
  0
LWPOLYLINE
  5
606
100
AcDbEntity
  8
RACCORDO
100
AcDbPolyline
 62
253
  6
CONTINUOUS
 90
58
 70
0
 10
9.6404130218
 20
-6.1551866981
 10
9.6400251441
 20
-6.1827315043
 10
9.6388785849
 20
-6.2102554015
 10
9.6369742146
 20
-6.2377374965
 10
9.6343134788
 20
-6.2651569278
 10
9.6308983973
 20
-6.2924928818
 10
9.6267315623
 20
-6.3197246077
 10
9.6218161369
 20
-6.3468314343
 10
9.6161558524
 20
-6.3737927851
 10
9.6097550054
 20
-6.4005881938
 10
9.6026184547
 20
-6.4271973203
 10
9.5947516177
 20
-6.4535999659
 10
9.586160466
 20
-6.4797760885
 10
9.5768515211
 20
-6.5057058181
 10
9.5668318492
 20
-6.5313694716
 10
9.5561090564
 20
-6.5567475679
 10
9.544691282
 20
-6.5818208428
 10
9.5325871934
 20
-6.6065702633
 10
9.5198059785
 20
-6.6309770424
 10
9.5063573395
 20
-6.6550226531
 10
9.4922514852
 20
-6.6786888426
 10
9.4774991231
 20
-6.701957646
 10
9.4621114517
 20
-6.7248114003
 10
9.4461001517
 20
-6.7472327573
 10
9.429477377
 20
-6.7692046972
 10
9.4122557458
 20
-6.7907105412
 10
9.394448331
 20
-6.8117339645
 10
9.3760686501
 20
-6.8322590083
 10
9.3571306548
 20
-6.8522700923
 10
9.3376487209
 20
-6.8717520262
 10
9.3176376369
 20
-6.8906900215
 10
9.2971125931
 20
-6.9090697025
 10
9.2760891698
 20
-6.9268771172
 10
9.2545833258
 20
-6.9440987484
 10
9.2326113859
 20
-6.9607215231
 10
9.2101900289
 20
-6.9767328232
 10
9.1873362746
 20
-6.9921204945
 10
9.1640674712
 20
-7.0068728566
 10
9.1404012817
 20
-7.0209787109
 10
9.116355671
 20
-7.0344273499
 10
9.0919488919
 20
-7.0472085648
 10
9.0671994713
 20
-7.0593126535
 10
9.0421261965
 20
-7.0707304278
 10
9.0167481001
 20
-7.0814532207
 10
8.9910844467
 20
-7.0914728925
 10
8.9651547171
 20
-7.1007818374
 10
8.9389785945
 20
-7.1093729891
 10
8.9125759489
 20
-7.1172398261
 10
8.8859668224
 20
-7.1243763768
 10
8.8591714137
 20
-7.1307772238
 10
8.8322100629
 20
-7.1364375083
 10
8.8051032363
 20
-7.1413529337
 10
8.7778715103
 20
-7.1455197687
 10
8.7505355564
 20
-7.1489348503
 10
8.723116125
 20
-7.1515955861
 10
8.69563403
 20
-7.1534999563
 10
8.6681101329
 20
-7.1546465155
 10
8.6405653266
 20
-7.1550343932
  0
LWPOLYLINE
  5
607
100
AcDbEntity
  8
0
100
AcDbPolyline
 62
253
  6
CONTINUOUS
 90
58
 70
0
 10
9.6404130218
 20
-6.1551866981
 10
9.6400251441
 20
-6.1827315043
 10
9.6388785849
 20
-6.2102554015
 10
9.6369742146
 20
-6.2377374965
 10
9.6343134788
 20
-6.2651569278
 10
9.6308983973
 20
-6.2924928818
 10
9.6267315623
 20
-6.3197246077
 10
9.6218161369
 20
-6.3468314343
 10
9.6161558524
 20
-6.3737927851
 10
9.6097550054
 20
-6.4005881938
 10
9.6026184547
 20
-6.4271973203
 10
9.5947516177
 20
-6.4535999659
 10
9.586160466
 20
-6.4797760885
 10
9.5768515211
 20
-6.5057058181
 10
9.5668318492
 20
-6.5313694716
 10
9.5561090564
 20
-6.5567475679
 10
9.544691282
 20
-6.5818208428
 10
9.5325871934
 20
-6.6065702633
 10
9.5198059785
 20
-6.6309770424
 10
9.5063573395
 20
-6.6550226531
 10
9.4922514852
 20
-6.6786888426
 10
9.4774991231
 20
-6.701957646
 10
9.4621114517
 20
-6.7248114003
 10
9.4461001517
 20
-6.7472327573
 10
9.429477377
 20
-6.7692046972
 10
9.4122557458
 20
-6.7907105412
 10
9.394448331
 20
-6.8117339645
 10
9.3760686501
 20
-6.8322590083
 10
9.3571306548
 20
-6.8522700923
 10
9.3376487209
 20
-6.8717520262
 10
9.3176376369
 20
-6.8906900215
 10
9.2971125931
 20
-6.9090697025
 10
9.2760891698
 20
-6.9268771172
 10
9.2545833258
 20
-6.9440987484
 10
9.2326113859
 20
-6.9607215231
 10
9.2101900289
 20
-6.9767328232
 10
9.1873362746
 20
-6.9921204945
 10
9.1640674712
 20
-7.0068728566
 10
9.1404012817
 20
-7.0209787109
 10
9.116355671
 20
-7.0344273499
 10
9.0919488919
 20
-7.0472085648
 10
9.0671994713
 20
-7.0593126535
 10
9.0421261965
 20
-7.0707304278
 10
9.0167481001
 20
-7.0814532207
 10
8.9910844467
 20
-7.0914728925
 10
8.9651547171
 20
-7.1007818374
 10
8.9389785945
 20
-7.1093729891
 10
8.9125759489
 20
-7.1172398261
 10
8.8859668224
 20
-7.1243763768
 10
8.8591714137
 20
-7.1307772238
 10
8.8322100629
 20
-7.1364375083
 10
8.8051032363
 20
-7.1413529337
 10
8.7778715103
 20
-7.1455197687
 10
8.7505355564
 20
-7.1489348503
 10
8.723116125
 20
-7.1515955861
 10
8.69563403
 20
-7.1534999563
 10
8.6681101329
 20
-7.1546465155
 10
8.6405653266
 20
-7.1550343932
  0
LINE
  5
608
100
AcDbEntity
  8
0
100
AcDbLine
 62
253
  6
CONTINUOUS
 10
10.9947906975
 20
-17.1109399866
 11
10.9908431306
 21
-17.3823684286
  0
LINE
  5
609
100
AcDbEntity
  8
0
100
AcDbLine
 62
253
  6
CONTINUOUS
 10
11.0688454823
 20
2.529939898
 11
11.0704103421
 21
2.6313399756
  0
LINE
  5
60A
100
AcDbEntity
  8
0
100
AcDbLine
 62
253
  6
CONTINUOUS
 10
10.9766318852
 20
-10.3252255391
 11
10.9813689677
 21
-10.0537970971
  0
LINE
  5
60B
100
AcDbEntity
  8
0
100
AcDbLine
 62
253
  6
CONTINUOUS
 10
10.9624206399
 20
-12.7680826496
 11
10.9671577218
 21
-12.4966542076
  0
LINE
  5
60C
100
AcDbEntity
  8
0
100
AcDbLine
 62
253
  6
CONTINUOUS
 10
10.9908431306
 20
-11.8180826496
 11
10.9955802121
 21
-11.5466542076
  0
LINE
  5
60D
100
AcDbEntity
  8
0
100
AcDbLine
 62
253
  6
CONTINUOUS
 10
10.9955802121
 20
-12.9037968706
 11
10.9908431306
 21
-13.1752257656
  0
LINE
  5
60E
100
AcDbEntity
  8
0
100
AcDbLine
 62
253
  6
CONTINUOUS
 10
10.979000426
 20
-17.2466537546
 11
10.9742633445
 21
-17.5180831026
  0
LINE
  5
60F
100
AcDbEntity
  8
0
100
AcDbLine
 62
253
  6
CONTINUOUS
 10
11.0683727668
 20
-6.0170392096
 11
11.0696396179
 21
-5.9383214624
  0
LINE
  5
610
100
AcDbEntity
  8
0
100
AcDbLine
 62
253
  6
CONTINUOUS
 10
11.0636974074
 20
-5.4265694248
 11
11.0632445421
 21
-5.4543045338
  0
LINE
  5
611
100
AcDbEntity
  8
0
100
AcDbLine
 62
253
  6
CONTINUOUS
 10
9.7097661509
 20
-2.3642463702
 11
9.7202840736
 21
-1.8213892597
  0
LINE
  5
612
100
AcDbEntity
  8
0
100
AcDbLine
 62
253
  6
CONTINUOUS
 10
9.8101888801
 20
-1.9323684286
 11
9.8049299187
 21
-2.2037969838
  0
LINE
  5
613
100
AcDbEntity
  8
0
100
AcDbLine
 62
253
  6
CONTINUOUS
 10
9.8233362825
 20
-3.560939845
 11
9.8180773233
 21
-3.8323684286
  0
LINE
  5
614
100
AcDbEntity
  8
0
100
AcDbLine
 62
253
  6
CONTINUOUS
 10
10.9908431306
 20
-10.2799873899
 11
10.9955802121
 21
-10.0537970971
  0
LINE
  5
615
100
AcDbEntity
  8
0
100
AcDbLine
 62
253
  6
CONTINUOUS
 10
11.0675052769
 20
2.4634318497
 11
11.0688454823
 21
2.529939898
  0
LINE
  5
616
100
AcDbEntity
  8
0
100
AcDbLine
 62
253
  6
CONTINUOUS
 10
11.0632445421
 20
-5.4543045338
 11
11.0628585132
 21
-5.4725086713
  0
LINE
  5
617
100
AcDbEntity
  8
0
100
AcDbLine
 62
253
  6
CONTINUOUS
 10
11.0672850823
 20
-6.0676404978
 11
11.0683727668
 21
-6.0170392096
  0
LWPOLYLINE
  5
618
100
AcDbEntity
  8
RACCORDO
100
AcDbPolyline
 62
7
  6
CONTINUOUS
 90
34
 70
0
 10
10.6177470571
 20
-25.6823726594
 10
10.6174639069
 20
-25.6942679446
 10
10.6166150914
 20
-25.7061362841
 10
10.6152025313
 20
-25.7179507947
 10
10.6132294249
 20
-25.7296847161
 10
10.6107002389
 20
-25.7413114674
 10
10.6076206988
 20
-25.7528047076
 10
10.6039977785
 20
-25.7641384024
 10
10.5998396829
 20
-25.7752868779
 10
10.5951558293
 20
-25.7862248749
 10
10.589956826
 20
-25.7969276162
 10
10.5842544488
 20
-25.8073708568
 10
10.5780616153
 20
-25.8175309345
 10
10.5713923526
 20
-25.8273848337
 10
10.5642617679
 20
-25.8369102324
 10
10.556686016
 20
-25.8460855476
 10
10.5486822576
 20
-25.8548899947
 10
10.5402686232
 20
-25.8633036291
 10
10.5314641762
 20
-25.8713073874
 10
10.522288861
 20
-25.8788831393
 10
10.5127634623
 20
-25.886013724
 10
10.502909563
 20
-25.8926829867
 10
10.4927494854
 20
-25.8988758202
 10
10.4823062447
 20
-25.9045781974
 10
10.4716035034
 20
-25.9097772008
 10
10.4606655064
 20
-25.9144610544
 10
10.4495170309
 20
-25.9186191499
 10
10.4381833361
 20
-25.9222420703
 10
10.4266900959
 20
-25.9253216103
 10
10.4150633446
 20
-25.9278507963
 10
10.4033294233
 20
-25.9298239027
 10
10.3915149127
 20
-25.9312364628
 10
10.3796465732
 20
-25.9320852783
 10
10.3677512879
 20
-25.9323684286
  0
LWPOLYLINE
  5
619
100
AcDbEntity
  8
RACCORDO
100
AcDbPolyline
 62
253
  6
CONTINUOUS
 90
31
 70
0
 10
10.6133752231
 20
-25.6780008254
 10
10.6130321846
 20
-25.6910843113
 10
10.6120048947
 20
-25.704131938
 10
10.6102961691
 20
-25.7171079441
 10
10.6079106912
 20
-25.7299767649
 10
10.604854999
 20
-25.7427031295
 10
10.6011374676
 20
-25.7552521572
 10
10.5967682861
 20
-25.7675894534
 10
10.5917594296
 20
-25.7796812041
 10
10.5861246264
 20
-25.7914942679
 10
10.5798793205
 20
-25.8029962674
 10
10.5730406291
 20
-25.814155678
 10
10.5656272957
 20
-25.8249419136
 10
10.557659639
 20
-25.8353254112
 10
10.5491594967
 20
-25.8452777117
 10
10.5401501661
 20
-25.8547715376
 10
10.5306563402
 20
-25.8637808681
 10
10.5207040398
 20
-25.8722810104
 10
10.5103205421
 20
-25.8802486672
 10
10.4995343065
 20
-25.8876620005
 10
10.488374896
 20
-25.894500692
 10
10.4768728964
 20
-25.9007459978
 10
10.4650598326
 20
-25.906380801
 10
10.452968082
 20
-25.9113896575
 10
10.4406307857
 20
-25.915758839
 10
10.4280817581
 20
-25.9194763704
 10
10.4153553935
 20
-25.9225320626
 10
10.4024865727
 20
-25.9249175406
 10
10.3895105665
 20
-25.9266262661
 10
10.3764629399
 20
-25.927653556
 10
10.3633794539
 20
-25.9279965946
  0
LINE
  5
61A
100
AcDbEntity
  8
0
100
AcDbLine
 62
253
  6
CONTINUOUS
 10
11.0628585132
 20
-5.4725086713
 11
11.0624435324
 21
-5.4886227494
  0
LINE
  5
61B
100
AcDbEntity
  8
0
100
AcDbLine
 62
253
  6
CONTINUOUS
 10
11.0660418344
 20
2.406093247
 11
11.0675052769
 21
2.4634318497
  0
LINE
  5
61C
100
AcDbEntity
  8
0
100
AcDbLine
 62
253
  6
CONTINUOUS
 10
11.0665035508
 20
-6.0970728107
 11
11.0672850823
 21
-6.0676404978
  0
LINE
  5
61D
100
AcDbEntity
  8
0
100
AcDbLine
 62
253
  6
CONTINUOUS
 10
11.0650066341
 20
2.3733811419
 11
11.0660418344
 21
2.406093247
  0
LINE
  5
61E
100
AcDbEntity
  8
0
100
AcDbLine
 62
253
  6
CONTINUOUS
 10
11.0624435324
 20
-5.4886227494
 11
11.0619237357
 21
-5.5053348897
  0
LINE
  5
61F
100
AcDbEntity
  8
0
100
AcDbLine
 62
253
  6
CONTINUOUS
 10
11.0656847125
 20
-6.1229646178
 11
11.0665035508
 21
-6.0970728107
  0
LWPOLYLINE
  5
620
100
AcDbEntity
  8
RACCORDO
100
AcDbPolyline
 62
253
  6
CONTINUOUS
 90
31
 70
0
 10
10.6133752231
 20
22.4119691387
 10
10.6129966675
 20
22.4006711665
 10
10.6119375399
 20
22.3894008624
 10
10.6102001634
 20
22.3781889926
 10
10.607788462
 20
22.3670651835
 10
10.6047085918
 20
22.3560609314
 10
10.6009695408
 20
22.3452093916
 10
10.5965819964
 20
22.3345412686
 10
10.5915575974
 20
22.3240845953
 10
10.5859099168
 20
22.3138676765
 10
10.5796542242
 20
22.3039182713
 10
10.5728076496
 20
22.2942637468
 10
10.5653890413
 20
22.2849307234
 10
10.5574187373
 20
22.2759447732
 10
10.5489184425
 20
22.267330354
 10
10.539911352
 20
22.2591109756
 10
10.5304220484
 20
22.251309079
 10
10.5204764612
 20
22.2439459907
 10
10.5101017784
 20
22.2370418419
 10
10.499326346
 20
22.2306154953
 10
10.488179588
 20
22.2246844983
 10
10.4766919509
 20
22.219265051
 10
10.4648947942
 20
22.214371949
 10
10.4528203577
 20
22.2100185659
 10
10.4405016781
 20
22.2062168085
 10
10.4279724428
 20
22.2029770621
 10
10.4152668399
 20
22.2003081556
 10
10.4024195191
 20
22.1982173632
 10
10.3894655519
 20
22.1967103933
 10
10.3764403381
 20
22.1957913649
 10
10.3633794539
 20
22.1954627878
  0
LINE
  5
621
100
AcDbEntity
  8
0
100
AcDbLine
 62
253
  6
CONTINUOUS
 10
11.0229463609
 20
2.8585555714
 11
11.0425136363
 21
3.4398095714
  0
LINE
  5
622
100
AcDbEntity
  8
0
100
AcDbLine
 62
253
  6
CONTINUOUS
 10
11.0437307911
 20
2.8226535714
 11
11.0229464831
 21
2.2052505714
  0
LINE
  5
623
100
AcDbEntity
  8
0
100
AcDbLine
 62
253
  6
CONTINUOUS
 10
10.9671577218
 20
-12.4966542076
 11
10.9718948038
 21
-12.3609399866
  0
LINE
  5
624
100
AcDbEntity
  8
0
100
AcDbLine
 62
253
  6
CONTINUOUS
 10
10.9908431306
 20
-13.1752257656
 11
10.9861060492
 21
-13.3109399866
  0
LINE
  5
625
100
AcDbEntity
  8
0
100
AcDbLine
 62
253
  6
CONTINUOUS
 10
10.9639996671
 20
-14.1704636882
 11
10.9655786944
 21
-14.1252257656
  0
LINE
  5
626
100
AcDbEntity
  8
0
100
AcDbLine
 62
253
  6
CONTINUOUS
 10
10.9679472354
 20
-14.2609399866
 11
10.966368208
 21
-14.3061779092
  0
LINE
  5
627
100
AcDbEntity
  8
0
100
AcDbLine
 62
253
  6
CONTINUOUS
 10
11.0735503869
 20
-12.6485074286
 11
11.0334488759
 21
-13.7611224286
  0
LINE
  5
628
100
AcDbEntity
  8
0
100
AcDbLine
 62
253
  6
CONTINUOUS
 10
11.0229460992
 20
-13.4599144286
 11
11.0652984532
 21
-12.3071384286
  0
LINE
  5
629
100
AcDbEntity
  8
0
100
AcDbLine
 62
253
  6
CONTINUOUS
 10
11.0619237357
 20
-5.5053348897
 11
11.0615358665
 21
-5.5157240937
  0
LWPOLYLINE
  5
62A
100
AcDbEntity
  8
0
100
AcDbPolyline
 62
253
  6
CONTINUOUS
 90
16
 70
0
 10
11.0615358665
 20
-5.5157240937
 10
11.0611378617
 20
-5.5246825665
 10
11.0609354137
 20
-5.5286093743
 10
11.0607166558
 20
-5.5323951694
 10
11.060495731
 20
-5.5357692516
 10
11.0602728816
 20
-5.5387505622
 10
11.06004835
 20
-5.5413580425
 10
11.0598223785
 20
-5.5436106338
 10
11.0595952094
 20
-5.5455272774
 10
11.059367085
 20
-5.5471269145
 10
11.0591382477
 20
-5.5484284865
 10
11.0589089396
 20
-5.5494509347
 10
11.0586794032
 20
-5.5502132002
 10
11.0584498808
 20
-5.5507342245
 10
11.0582206147
 20
-5.5510329488
 10
11.0579918472
 20
-5.5511283144
  0
LINE
  5
62B
100
AcDbEntity
  8
0
100
AcDbLine
 62
253
  6
CONTINUOUS
 10
11.0229460992
 20
-11.4074424286
 11
11.0735503869
 21
-10.3992684286
  0
LINE
  5
62C
100
AcDbEntity
  8
0
100
AcDbLine
 62
253
  6
CONTINUOUS
 10
11.0336713951
 20
-10.5719174286
 11
11.0229460992
 21
-10.7807994286
  0
LINE
  5
62D
100
AcDbEntity
  8
0
100
AcDbLine
 62
253
  6
CONTINUOUS
 10
11.0735527775
 20
14.5676315714
 11
11.0229460992
 21
13.6364995714
  0
LINE
  5
62E
100
AcDbEntity
  8
0
100
AcDbLine
 62
253
  6
CONTINUOUS
 10
11.0387074273
 20
13.3464705714
 11
11.0735527775
 21
13.9876025714
  0
LINE
  5
62F
100
AcDbEntity
  8
0
100
AcDbLine
 62
253
  6
CONTINUOUS
 10
11.0229463609
 20
5.4928425714
 11
11.032898441
 21
5.6759485714
  0
LINE
  5
630
100
AcDbEntity
  8
0
100
AcDbLine
 62
253
  6
CONTINUOUS
 10
11.0425136363
 20
5.8528775714
 11
11.0577915715
 21
6.1339815714
  0
LINE
  5
631
100
AcDbEntity
  8
0
100
AcDbLine
 62
253
  6
CONTINUOUS
 10
11.0735528996
 20
5.8439525714
 11
11.0229462213
 21
4.9128135714
  0
LINE
  5
632
100
AcDbEntity
  8
0
100
AcDbLine
 62
253
  6
CONTINUOUS
 10
11.0638804343
 20
-10.0138394286
 11
11.0420810046
 21
-10.4153114286
  0
LINE
  5
633
100
AcDbEntity
  8
0
100
AcDbLine
 62
253
  6
CONTINUOUS
 10
11.056317853
 20
9.9985945714
 11
11.0229462213
 21
9.4502185714
  0
LINE
  5
634
100
AcDbEntity
  8
0
100
AcDbLine
 62
253
  6
CONTINUOUS
 10
11.0405959787
 20
9.1602115714
 11
11.0735527775
 21
9.7017795714
  0
LINE
  5
635
100
AcDbEntity
  8
RACCORDO
100
AcDbLine
 62
7
  6
CONTINUOUS
 10
-6.5892744443
 20
-21.18938993
 11
-6.5322529429
 21
-21.1323684286
  0
LINE
  5
636
100
AcDbEntity
  8
DRAFT
100
AcDbLine
 62
7
  6
CONTINUOUS
 10
-7.517782761
 20
-22.2823684286
 11
-7.4322529429
 21
-22.1968386104
  0
LINE
  5
637
100
AcDbEntity
  8
0
100
AcDbLine
 62
7
  6
CONTINUOUS
 10
-7.517782761
 20
-22.2823684286
 11
-7.4322529429
 21
-22.1968386104
  0
LINE
  5
638
100
AcDbEntity
  8
RACCORDO
100
AcDbLine
 62
253
  6
CONTINUOUS
 10
-10.6778811089
 20
-25.6780008254
 11
-10.6822529429
 21
-25.6823726594
  0
LINE
  5
639
100
AcDbEntity
  8
0
100
AcDbLine
 62
7
  6
CONTINUOUS
 10
11.0229460992
 20
-4.2000328411
 11
11.0735503868
 21
-4.1494285535
  0
LINE
  5
63A
100
AcDbEntity
  8
DRAFT
100
AcDbLine
 62
7
  6
CONTINUOUS
 10
-5.7822529429
 20
-21.1323684286
 11
-5.6932321117
 21
-21.0433475974
  0
LINE
  5
63B
100
AcDbEntity
  8
0
100
AcDbLine
 62
7
  6
CONTINUOUS
 10
-5.7822529429
 20
-21.1323684286
 11
-5.6932321117
 21
-21.0433475974
  0
LINE
  5
63C
100
AcDbEntity
  8
RACCORDO
100
AcDbLine
 62
253
  6
CONTINUOUS
 10
-10.4278853396
 20
-25.9279965946
 11
-10.4322571736
 21
-25.9323684286
  0
LINE
  5
63D
100
AcDbEntity
  8
DRAFT
100
AcDbLine
 62
7
  6
CONTINUOUS
 10
-5.7822529429
 20
-21.3323684286
 11
-5.6932321117
 21
-21.2433475974
  0
LINE
  5
63E
100
AcDbEntity
  8
0
100
AcDbLine
 62
7
  6
CONTINUOUS
 10
-5.7822529429
 20
-21.3323684286
 11
-5.6932321117
 21
-21.2433475974
  0
LINE
  5
63F
100
AcDbEntity
  8
0
100
AcDbLine
 62
7
  6
CONTINUOUS
 10
11.0229460992
 20
-4.6200542692
 11
11.0735503857
 21
-4.5694499827
  0
LINE
  5
640
100
AcDbEntity
  8
0
100
AcDbLine
 62
7
  6
CONTINUOUS
 10
11.0651407773
 20
-4.9978810191
 11
11.0735503845
 21
-4.9894714119
  0
LINE
  5
641
100
AcDbEntity
  8
0
100
AcDbLine
 62
7
  6
CONTINUOUS
 10
11.0424333099
 20
-5.0205884865
 11
11.0508429202
 21
-5.0121788762
  0
LINE
  5
642
100
AcDbEntity
  8
0
100
AcDbLine
 62
7
  6
CONTINUOUS
 10
11.0637952439
 20
-5.4192479805
 11
11.0731035405
 21
-5.4099396839
  0
LINE
  5
643
100
AcDbEntity
  8
0
100
AcDbLine
 62
7
  6
CONTINUOUS
 10
11.0429483616
 20
-5.4400948628
 11
11.0523542831
 21
-5.4306889413
  0
LINE
  5
644
100
AcDbEntity
  8
0
100
AcDbLine
 62
7
  6
CONTINUOUS
 10
11.0453870749
 20
-5.8576775775
 11
11.0708462886
 21
-5.8322183639
  0
LWPOLYLINE
  5
645
100
AcDbEntity
  8
0
100
AcDbPolyline
 62
253
  6
CONTINUOUS
 90
16
 70
0
 10
11.0579918472
 20
-6.2138952289
 10
11.0585233691
 20
-6.2135865482
 10
11.0590549395
 20
-6.212630698
 10
11.0595861457
 20
-6.2109829664
 10
11.0601165746
 20
-6.2085986415
 10
11.0606458135
 20
-6.2054330114
 10
11.0611734494
 20
-6.2014413641
 10
11.0616990695
 20
-6.1965789877
 10
11.0621576335
 20
-6.1915675425
 10
11.0626137139
 20
-6.1858263615
 10
11.063066692
 20
-6.1793286856
 10
11.0635159493
 20
-6.1720477557
 10
11.0639608671
 20
-6.1639568126
 10
11.0644008269
 20
-6.1550290973
 10
11.0648352101
 20
-6.1452378505
 10
11.0656847125
 20
-6.1229646178
  0
LINE
  5
646
100
AcDbEntity
  8
0
100
AcDbLine
 62
253
  6
CONTINUOUS
 10
-9.8623191248
 20
6.4676315714
 11
-9.8797741897
 21
6.4676315714
  0
LINE
  5
647
100
AcDbEntity
  8
0
100
AcDbLine
 62
253
  6
CONTINUOUS
 10
-9.923411852
 20
6.4676315714
 11
-9.9408669169
 21
6.4676315714
  0
LINE
  5
648
100
AcDbEntity
  8
0
100
AcDbLine
 62
253
  6
CONTINUOUS
 10
-11.0426124234
 20
6.9390600773
 11
-11.0653040078
 21
6.9390600773
  0
LINE
  5
649
100
AcDbEntity
  8
0
100
AcDbLine
 62
253
  6
CONTINUOUS
 10
-11.0426124234
 20
7.6605600773
 11
-11.0653040078
 21
7.6605600773
  0
LINE
  5
64A
100
AcDbEntity
  8
0
100
AcDbLine
 62
253
  6
CONTINUOUS
 10
11.0229462213
 20
7.7418075714
 11
11.0735527775
 21
7.7418075714
  0
LINE
  5
64B
100
AcDbEntity
  8
RACCORDO
100
AcDbLine
 62
7
  6
CONTINUOUS
 10
-6.5892744443
 20
18.3246530729
 11
-6.5322529429
 21
18.2676315714
  0
LINE
  5
64C
100
AcDbEntity
  8
DRAFT
100
AcDbLine
 62
7
  6
CONTINUOUS
 10
-7.517782761
 20
19.4176315714
 11
-7.4322529429
 21
19.3321017533
  0
LINE
  5
64D
100
AcDbEntity
  8
0
100
AcDbLine
 62
7
  6
CONTINUOUS
 10
-7.517782761
 20
19.4176315714
 11
-7.4322529429
 21
19.3321017533
  0
LINE
  5
64E
100
AcDbEntity
  8
RACCORDO
100
AcDbLine
 62
253
  6
CONTINUOUS
 10
-10.6778811089
 20
22.8132639682
 11
-10.6822529429
 21
22.8176358022
  0
LINE
  5
64F
100
AcDbEntity
  8
DRAFT
100
AcDbLine
 62
7
  6
CONTINUOUS
 10
-5.7822529429
 20
18.2676315714
 11
-5.6932321117
 21
18.1786107403
  0
LINE
  5
650
100
AcDbEntity
  8
0
100
AcDbLine
 62
7
  6
CONTINUOUS
 10
-5.7822529429
 20
18.2676315714
 11
-5.6932321117
 21
18.1786107403
  0
LINE
  5
651
100
AcDbEntity
  8
RACCORDO
100
AcDbLine
 62
253
  6
CONTINUOUS
 10
-10.4278853396
 20
23.0632597374
 11
-10.4322571736
 21
23.0676315714
  0
LINE
  5
652
100
AcDbEntity
  8
DRAFT
100
AcDbLine
 62
7
  6
CONTINUOUS
 10
-5.6932321117
 20
18.3786107403
 11
-5.7822529429
 21
18.4676315714
  0
LINE
  5
653
100
AcDbEntity
  8
0
100
AcDbLine
 62
7
  6
CONTINUOUS
 10
-5.6932321117
 20
18.3786107403
 11
-5.7822529429
 21
18.4676315714
  0
LINE
  5
654
100
AcDbEntity
  8
0
100
AcDbLine
 62
253
  6
CONTINUOUS
 10
11.0229463609
 20
8.8702115714
 11
11.056317853
 21
8.3218365714
  0
LINE
  5
655
100
AcDbEntity
  8
0
100
AcDbLine
 62
253
  6
CONTINUOUS
 10
11.0735527775
 20
8.6186435714
 11
11.0405959787
 21
9.1602115714
  0
LINE
  5
656
100
AcDbEntity
  8
0
100
AcDbLine
 62
253
  6
CONTINUOUS
 10
11.0229462213
 20
13.0564555714
 11
11.0735527775
 21
12.1253165714
  0
LINE
  5
657
100
AcDbEntity
  8
0
100
AcDbLine
 62
253
  6
CONTINUOUS
 10
11.0735527775
 20
12.7053455714
 11
11.0387074273
 21
13.3464705714
  0
LINE
  5
658
100
AcDbEntity
  8
0
100
AcDbLine
 62
253
  6
CONTINUOUS
 10
11.0229460992
 20
-17.4323684286
 11
11.0735503869
 21
-16.4243034286
  0
LINE
  5
659
100
AcDbEntity
  8
0
100
AcDbLine
 62
253
  6
CONTINUOUS
 10
11.0336713951
 20
-16.5969524286
 11
11.0229460992
 21
-16.8059424286
  0
LINE
  5
65A
100
AcDbEntity
  8
0
100
AcDbLine
 62
253
  6
CONTINUOUS
 10
11.0638775726
 20
-16.0388174286
 11
11.0420810046
 21
-16.4402374286
  0
LINE
  5
65B
100
AcDbEntity
  8
0
100
AcDbLine
 62
253
  6
CONTINUOUS
 10
10.9955802121
 20
-15.4823684286
 11
10.9624206399
 21
-16.0252253126
  0
LINE
  5
65C
100
AcDbEntity
  8
ASSI
100
AcDbLine
 62
7
  6
CONTINUOUS
 10
-4.293206034
 20
-25.0545098942
 11
-4.2666564966
 21
-25.0241598538
  0
LINE
  5
65D
100
AcDbEntity
  8
ASSI
100
AcDbLine
 62
7
  6
CONTINUOUS
 10
-4.2666564966
 20
-25.0241598538
 11
-4.2362979354
 21
-24.98998341
  0
LINE
  5
65E
100
AcDbEntity
  8
ASSI
100
AcDbLine
 62
7
  6
CONTINUOUS
 10
-4.2362979354
 20
-24.98998341
 11
-4.2021206585
 21
-24.9519851489
  0
LINE
  5
65F
100
AcDbEntity
  8
ASSI
100
AcDbLine
 62
7
  6
CONTINUOUS
 10
-4.2021206585
 20
-24.9519851489
 11
-4.1438231856
 21
-24.8878973721
  0
LINE
  5
660
100
AcDbEntity
  8
ASSI
100
AcDbLine
 62
7
  6
CONTINUOUS
 10
-4.1438231856
 20
-24.8878973721
 11
-3.9602229305
 21
-24.6887262433
  0
LINE
  5
661
100
AcDbEntity
  8
0
100
AcDbLine
 62
7
  6
CONTINUOUS
 10
11.0229460992
 20
-6.7201614093
 11
11.0735503869
 21
-6.6695571216
  0
LINE
  5
662
100
AcDbEntity
  8
0
100
AcDbLine
 62
7
  6
CONTINUOUS
 10
11.0229460992
 20
-7.1401828373
 11
11.0735503869
 21
-7.0895785497
  0
LINE
  5
663
100
AcDbEntity
  8
0
100
AcDbLine
 62
7
  6
CONTINUOUS
 10
11.0229460992
 20
-7.5602042653
 11
11.0313557088
 21
-7.5517946558
  0
LINE
  5
664
100
AcDbEntity
  8
0
100
AcDbLine
 62
7
  6
CONTINUOUS
 10
11.0229460992
 20
-7.9802256934
 11
11.0313557088
 21
-7.9718160838
  0
LINE
  5
665
100
AcDbEntity
  8
RACCORDO
100
AcDbLine
 62
253
  6
CONTINUOUS
 10
-11.1822529429
 20
-19.1040674773
 11
-11.0077022936
 21
-19.031766231
  0
LINE
  5
666
100
AcDbEntity
  8
0
100
AcDbLine
 62
253
  6
CONTINUOUS
 10
-11.1822529429
 20
-19.1040674773
 11
-11.0077022936
 21
-19.031766231
  0
LINE
  5
667
100
AcDbEntity
  8
0
100
AcDbLine
 62
253
  6
CONTINUOUS
 10
11.056317853
 20
8.3218365714
 11
11.0229462213
 21
8.3218285714
  0
LINE
  5
668
100
AcDbEntity
  8
0
100
AcDbLine
 62
253
  6
CONTINUOUS
 10
-11.0653040078
 20
9.4814885832
 11
-11.0426124234
 21
9.4814885832
  0
LINE
  5
669
100
AcDbEntity
  8
0
100
AcDbLine
 62
253
  6
CONTINUOUS
 10
11.0229462213
 20
9.9985945714
 11
11.056317853
 21
9.9985945714
  0
LINE
  5
66A
100
AcDbEntity
  8
0
100
AcDbLine
 62
253
  6
CONTINUOUS
 10
-9.9408669169
 20
10.0676315714
 11
-9.8623191248
 21
10.0676315714
  0
LINE
  5
66B
100
AcDbEntity
  8
RACCORDO
100
AcDbLine
 62
253
  6
CONTINUOUS
 10
-11.0077022936
 20
16.1670293739
 11
-11.1822529429
 21
16.2393306201
  0
LINE
  5
66C
100
AcDbEntity
  8
0
100
AcDbLine
 62
253
  6
CONTINUOUS
 10
-11.0077022936
 20
16.1670293739
 11
-11.1822529429
 21
16.2393306201
  0
LINE
  5
66D
100
AcDbEntity
  8
ASSI
100
AcDbLine
 62
7
  6
CONTINUOUS
 10
-3.9602229305
 20
21.8239893861
 11
-4.0552963631
 21
21.926817272
  0
LINE
  5
66E
100
AcDbEntity
  8
ASSI
100
AcDbLine
 62
7
  6
CONTINUOUS
 10
-4.0552963631
 20
21.926817272
 11
-4.1439196573
 21
22.0232665846
  0
LINE
  5
66F
100
AcDbEntity
  8
ASSI
100
AcDbLine
 62
7
  6
CONTINUOUS
 10
-4.1439196573
 20
22.0232665846
 11
-4.2022621463
 21
22.0874046133
  0
LINE
  5
670
100
AcDbEntity
  8
ASSI
100
AcDbLine
 62
7
  6
CONTINUOUS
 10
-4.2022621463
 20
22.0874046133
 11
-4.2364822728
 21
22.1254523128
  0
LINE
  5
671
100
AcDbEntity
  8
ASSI
100
AcDbLine
 62
7
  6
CONTINUOUS
 10
-4.2364822728
 20
22.1254523128
 11
-4.2668744416
 21
22.1596701172
  0
LWPOLYLINE
  5
672
100
AcDbEntity
  8
ASSI
100
AcDbPolyline
 62
7
  6
CONTINUOUS
 90
18
 70
0
 10
-4.2668744416
 20
22.1596701172
 10
-4.2934372939
 20
22.1900395707
 10
-4.3053507301
 20
22.2038697607
 10
-4.3163761329
 20
22.2168197316
 10
-4.3265248909
 20
22.2288904427
 10
-4.3358412926
 20
22.2401560653
 10
-4.3443281785
 20
22.2506131136
 10
-4.3520052169
 20
22.2602650735
 10
-4.3589257574
 20
22.2691965733
 10
-4.3651050684
 20
22.2774276977
 10
-4.3705327612
 20
22.2849383621
 10
-4.3752141184
 20
22.291752941
 10
-4.3791585849
 20
22.2978672026
 10
-4.3823742302
 20
22.3032853788
 10
-4.3848694291
 20
22.3080445392
 10
-4.3866583749
 20
22.3121570406
 10
-4.387758144
 20
22.3156105262
 10
-4.3881856756
 20
22.3184049961
  0
LINE
  5
673
100
AcDbEntity
  8
DRAFT
100
AcDbLine
 62
7
  6
CONTINUOUS
 10
8.2142597663
 20
-22.342838809
 11
8.2177470571
 21
-22.3323684286
  0
LINE
  5
674
100
AcDbEntity
  8
0
100
AcDbLine
 62
7
  6
CONTINUOUS
 10
11.0229460992
 20
-8.8202685494
 11
11.0325419261
 21
-8.8106727225
  0
LINE
  5
675
100
AcDbEntity
  8
0
100
AcDbLine
 62
7
  6
CONTINUOUS
 10
11.0245464836
 20
-9.238689593
 11
11.0518831995
 21
-9.2113528772
  0
LINE
  5
676
100
AcDbEntity
  8
0
100
AcDbLine
 62
7
  6
CONTINUOUS
 10
11.0448481638
 20
-9.6384093408
 11
11.0712244728
 21
-9.6120330318
  0
LINE
  5
677
100
AcDbEntity
  8
0
100
AcDbLine
 62
7
  6
CONTINUOUS
 10
11.0336713951
 20
-9.6495861096
 11
11.0420810046
 21
-9.6411765
  0
LINE
  5
678
100
AcDbEntity
  8
ASSI
100
AcDbLine
 62
7
  6
CONTINUOUS
 10
-4.4322529429
 20
-25.2323684286
 11
-4.388602296
 21
-25.1887177817
  0
LINE
  5
679
100
AcDbEntity
  8
0
100
AcDbLine
 62
7
  6
CONTINUOUS
 10
11.0336713951
 20
-10.0696075376
 11
11.0420810046
 21
-10.061197928
  0
LINE
  5
67A
100
AcDbEntity
  8
0
100
AcDbLine
 62
7
  6
CONTINUOUS
 10
11.0624129247
 20
-10.040866008
 11
11.0735503869
 21
-10.0297285458
  0
LINE
  5
67B
100
AcDbEntity
  8
0
100
AcDbLine
 62
7
  6
CONTINUOUS
 10
11.0336713951
 20
-10.4896289656
 11
11.0708826097
 21
-10.452417751
  0
LINE
  5
67C
100
AcDbEntity
  8
0
100
AcDbLine
 62
7
  6
CONTINUOUS
 10
11.0229460992
 20
-10.9203756895
 11
11.0486859122
 21
-10.8946358765
  0
LINE
  5
67D
100
AcDbEntity
  8
RACCORDO
100
AcDbLine
 62
253
  6
CONTINUOUS
 10
-10.5965557233
 20
-20.5180656481
 11
-10.4220050741
 21
-20.4457644018
  0
LINE
  5
67E
100
AcDbEntity
  8
0
100
AcDbLine
 62
253
  6
CONTINUOUS
 10
-10.5965557233
 20
-20.5180656481
 11
-10.4220050741
 21
-20.4457644018
  0
LINE
  5
67F
100
AcDbEntity
  8
0
100
AcDbLine
 62
253
  6
CONTINUOUS
 10
-11.0653040078
 20
10.5465600773
 11
-11.0426124234
 21
10.5465600773
  0
LINE
  5
680
100
AcDbEntity
  8
0
100
AcDbLine
 62
253
  6
CONTINUOUS
 10
11.0735527775
 20
10.5786165714
 11
11.0229462213
 21
10.5786165714
  0
LINE
  5
681
100
AcDbEntity
  8
0
100
AcDbLine
 62
253
  6
CONTINUOUS
 10
11.0229462213
 20
11.1586235714
 11
11.0735527775
 21
11.1586165714
  0
LINE
  5
682
100
AcDbEntity
  8
0
100
AcDbLine
 62
253
  6
CONTINUOUS
 10
11.0735527775
 20
11.7386375714
 11
11.0229460992
 21
11.7386455714
  0
LINE
  5
683
100
AcDbEntity
  8
RACCORDO
100
AcDbLine
 62
253
  6
CONTINUOUS
 10
-10.4220050741
 20
17.5810275447
 11
-10.5965557233
 21
17.6533287909
  0
LINE
  5
684
100
AcDbEntity
  8
0
100
AcDbLine
 62
253
  6
CONTINUOUS
 10
-10.4220050741
 20
17.5810275447
 11
-10.5965557233
 21
17.6533287909
  0
LINE
  5
685
100
AcDbEntity
  8
ASSI
100
AcDbLine
 62
7
  6
CONTINUOUS
 10
-4.4322529429
 20
22.3676315714
 11
-4.388602296
 21
22.3239809246
  0
LINE
  5
686
100
AcDbEntity
  8
DRAFT
100
AcDbLine
 62
7
  6
CONTINUOUS
 10
8.2142597663
 20
19.4781019519
 11
8.2177470571
 21
19.4676315714
  0
LINE
  5
687
100
AcDbEntity
  8
0
100
AcDbLine
 62
7
  6
CONTINUOUS
 10
11.0229460992
 20
-11.3403971176
 11
11.0264892148
 21
-11.3368540019
  0
LINE
  5
688
100
AcDbEntity
  8
0
100
AcDbLine
 62
7
  6
CONTINUOUS
 10
11.0229460992
 20
-11.7604185456
 11
11.0586712162
 21
-11.7246934286
  0
LINE
  5
689
100
AcDbEntity
  8
0
100
AcDbLine
 62
7
  6
CONTINUOUS
 10
11.0229460992
 20
-12.1804399736
 11
11.0735503869
 21
-12.1298356859
  0
LINE
  5
68A
100
AcDbEntity
  8
0
100
AcDbLine
 62
7
  6
CONTINUOUS
 10
11.0557262539
 20
-12.567681247
 11
11.0735503869
 21
-12.549857114
  0
LINE
  5
68B
100
AcDbEntity
  8
0
100
AcDbLine
 62
7
  6
CONTINUOUS
 10
11.0397063355
 20
-13.0037225934
 11
11.0615342515
 21
-12.9818946773
  0
LINE
  5
68C
100
AcDbEntity
  8
0
100
AcDbLine
 62
7
  6
CONTINUOUS
 10
11.023686417
 20
-13.4397639399
 11
11.0458295596
 21
-13.4176207973
  0
LINE
  5
68D
100
AcDbEntity
  8
0
100
AcDbLine
 62
7
  6
CONTINUOUS
 10
11.0229460992
 20
-13.8605256857
 11
11.0735503869
 21
-13.809921398
  0
LINE
  5
68E
100
AcDbEntity
  8
0
100
AcDbLine
 62
253
  6
CONTINUOUS
 10
-9.813406292
 20
12.0676315714
 11
-9.820602767
 21
12.0676315714
  0
LINE
  5
68F
100
AcDbEntity
  8
0
100
AcDbLine
 62
253
  6
CONTINUOUS
 10
-9.9173025793
 20
12.0676315714
 11
-9.9583219819
 21
12.0676315714
  0
LINE
  5
690
100
AcDbEntity
  8
0
100
AcDbLine
 62
253
  6
CONTINUOUS
 10
-9.8448640598
 20
12.0676315714
 11
-9.8858834624
 21
12.0676315714
  0
LINE
  5
691
100
AcDbEntity
  8
0
100
AcDbLine
 62
253
  6
CONTINUOUS
 10
-11.0426124234
 20
12.6079890419
 11
-11.0653040078
 21
12.6079890419
  0
LINE
  5
692
100
AcDbEntity
  8
0
100
AcDbLine
 62
253
  6
CONTINUOUS
 10
-9.8116071744
 20
13.3676315714
 11
-9.8188036479
 21
13.3676315714
  0
LINE
  5
693
100
AcDbEntity
  8
0
100
AcDbLine
 62
253
  6
CONTINUOUS
 10
-9.8295983581
 20
13.3676315714
 11
-9.8439913066
 21
13.3676315714
  0
LINE
  5
694
100
AcDbEntity
  8
0
100
AcDbLine
 62
253
  6
CONTINUOUS
 10
-9.9805846697
 20
13.3676315714
 11
-9.9949776182
 21
13.3676315714
  0
LINE
  5
695
100
AcDbEntity
  8
DRAFT
100
AcDbLine
 62
7
  6
CONTINUOUS
 10
7.209568759
 20
-22.4283639743
 11
7.2665847318
 21
-22.342838809
  0
LINE
  5
696
100
AcDbEntity
  8
ASSI
100
AcDbLine
 62
7
  6
CONTINUOUS
 10
3.5618976264
 20
-25.0554755396
 11
3.5884315271
 21
-25.0251260222
  0
LINE
  5
697
100
AcDbEntity
  8
ASSI
100
AcDbLine
 62
7
  6
CONTINUOUS
 10
3.5884315271
 20
-25.0251260222
 11
3.618801722
 21
-24.990923411
  0
LINE
  5
698
100
AcDbEntity
  8
ASSI
100
AcDbLine
 62
7
  6
CONTINUOUS
 10
3.618801722
 20
-24.990923411
 11
3.6530273712
 21
-24.952861151
  0
LWPOLYLINE
  5
699
100
AcDbEntity
  8
ASSI
100
AcDbPolyline
 62
7
  6
CONTINUOUS
 90
3
 70
0
 10
3.6530273712
 20
-24.952861151
 10
3.7114785665
 20
-24.8885949555
 10
3.7327878215
 20
-24.8652981197
  0
LINE
  5
69A
100
AcDbEntity
  8
0
100
AcDbLine
 62
7
  6
CONTINUOUS
 10
11.0229460992
 20
-14.2805471137
 11
11.0735503869
 21
-14.2299428261
  0
LINE
  5
69B
100
AcDbEntity
  8
0
100
AcDbLine
 62
7
  6
CONTINUOUS
 10
11.0229460992
 20
-14.7005685418
 11
11.0258818529
 21
-14.697632788
  0
LINE
  5
69C
100
AcDbEntity
  8
0
100
AcDbLine
 62
7
  6
CONTINUOUS
 10
11.0229460992
 20
-15.1205899698
 11
11.0452212081
 21
-15.0983148609
  0
LINE
  5
69D
100
AcDbEntity
  8
0
100
AcDbLine
 62
7
  6
CONTINUOUS
 10
11.0336713951
 20
-15.5298861019
 11
11.0645605632
 21
-15.4989969338
  0
LINE
  5
69E
100
AcDbEntity
  8
0
100
AcDbLine
 62
7
  6
CONTINUOUS
 10
11.0581303775
 20
-15.9254485476
 11
11.0735503869
 21
-15.9100285382
  0
LINE
  5
69F
100
AcDbEntity
  8
0
100
AcDbLine
 62
7
  6
CONTINUOUS
 10
11.0336713951
 20
-15.94990753
 11
11.0420810046
 21
-15.9414979204
  0
LINE
  5
6A0
100
AcDbEntity
  8
0
100
AcDbLine
 62
7
  6
CONTINUOUS
 10
11.0466007045
 20
-16.3569996485
 11
11.0735503869
 21
-16.3300499662
  0
LINE
  5
6A1
100
AcDbEntity
  8
0
100
AcDbLine
 62
7
  6
CONTINUOUS
 10
11.0336713951
 20
-16.369928958
 11
11.0420810046
 21
-16.3615193484
  0
LINE
  5
6A2
100
AcDbEntity
  8
0
100
AcDbLine
 62
253
  6
CONTINUOUS
 10
-11.0555790437
 20
13.9479166304
 11
-11.0426124234
 21
13.9479166304
  0
LINE
  5
6A3
100
AcDbEntity
  8
0
100
AcDbLine
 62
253
  6
CONTINUOUS
 10
-9.9173025793
 20
14.0676315714
 11
-9.9068295403
 21
14.0676315714
  0
LINE
  5
6A4
100
AcDbEntity
  8
0
100
AcDbLine
 62
253
  6
CONTINUOUS
 10
-9.8963565014
 20
14.0676315714
 11
-9.8858834624
 21
14.0676315714
  0
LINE
  5
6A5
100
AcDbEntity
  8
0
100
AcDbLine
 62
253
  6
CONTINUOUS
 10
-9.8760151166
 20
14.0676315714
 11
-9.8850107092
 21
14.0676315714
  0
LINE
  5
6A6
100
AcDbEntity
  8
0
100
AcDbLine
 62
253
  6
CONTINUOUS
 10
-9.9181902927
 20
14.0676315714
 11
-9.9307841236
 21
14.0676315714
  0
LINE
  5
6A7
100
AcDbEntity
  8
0
100
AcDbLine
 62
253
  6
CONTINUOUS
 10
-9.9379805971
 20
14.0676315714
 11
-9.9469761897
 21
14.0676315714
  0
LINE
  5
6A8
100
AcDbEntity
  8
0
100
AcDbLine
 62
253
  6
CONTINUOUS
 10
-9.921788531
 20
15.3676315714
 11
-9.9271858868
 21
15.3676315714
  0
LINE
  5
6A9
100
AcDbEntity
  8
ASSI
100
AcDbLine
 62
7
  6
CONTINUOUS
 10
3.7326822157
 20
22.0006767127
 11
3.671445914
 21
22.0677780861
  0
LINE
  5
6AA
100
AcDbEntity
  8
ASSI
100
AcDbLine
 62
7
  6
CONTINUOUS
 10
3.671445914
 20
22.0677780861
 11
3.6352597359
 21
22.1078383942
  0
LINE
  5
6AB
100
AcDbEntity
  8
ASSI
100
AcDbLine
 62
7
  6
CONTINUOUS
 10
3.6352597359
 20
22.1078383942
 11
3.6029253346
 21
22.1440030851
  0
LWPOLYLINE
  5
6AC
100
AcDbEntity
  8
ASSI
100
AcDbPolyline
 62
7
  6
CONTINUOUS
 90
19
 70
0
 10
3.6029253346
 20
22.1440030851
 10
3.574456027
 20
22.1763094731
 10
3.5616581029
 20
22.191014931
 10
3.5497616937
 20
22.2048360074
 10
3.5387593874
 20
22.2177713519
 10
3.5286388044
 20
22.229822315
 10
3.5193529848
 20
22.2410661691
 10
3.5108986734
 20
22.2515009606
 10
3.5032576296
 20
22.2611286432
 10
3.4963773244
 20
22.2700323503
 10
3.4902426989
 20
22.278232366
 10
3.4848650353
 20
22.2857084063
 10
3.4802404711
 20
22.2924827529
 10
3.4763596777
 20
22.2985503871
 10
3.4732143257
 20
22.3039163275
 10
3.470796106
 20
22.3086179114
 10
3.469090477
 20
22.3126675846
 10
3.4680799041
 20
22.3160529014
 10
3.4677470571
 20
22.3187738618
  0
LINE
  5
6AD
100
AcDbEntity
  8
DRAFT
100
AcDbLine
 62
7
  6
CONTINUOUS
 10
7.209568759
 20
19.5636271171
 11
7.2665847318
 21
19.4781019519
  0
LWPOLYLINE
  5
6AE
100
AcDbEntity
  8
ASSI
100
AcDbPolyline
 62
7
  6
CONTINUOUS
 90
3
 70
0
 10
3.7327878215
 20
-24.8652981197
 10
3.8239482071
 20
-24.7663397347
 10
3.8957170448
 20
-24.6887262433
  0
LINE
  5
6AF
100
AcDbEntity
  8
0
100
AcDbLine
 62
7
  6
CONTINUOUS
 10
11.0232310083
 20
-16.8003907728
 11
11.056332703
 21
-16.7672890781
  0
LINE
  5
6B0
100
AcDbEntity
  8
0
100
AcDbLine
 62
7
  6
CONTINUOUS
 10
11.0229460992
 20
-17.2206971099
 11
11.0341334787
 21
-17.2095097305
  0
LINE
  5
6B1
100
AcDbEntity
  8
RACCORDO
100
AcDbLine
 62
7
  6
CONTINUOUS
 10
7.2107255557
 20
-21.18938993
 11
7.2677470571
 21
-21.1323684286
  0
LINE
  5
6B2
100
AcDbEntity
  8
DRAFT
100
AcDbLine
 62
7
  6
CONTINUOUS
 10
7.3677470571
 20
-21.1323684286
 11
7.4567678883
 21
-21.0433475974
  0
LINE
  5
6B3
100
AcDbEntity
  8
0
100
AcDbLine
 62
7
  6
CONTINUOUS
 10
7.3677470571
 20
-21.1323684286
 11
7.4567678883
 21
-21.0433475974
  0
LINE
  5
6B4
100
AcDbEntity
  8
DRAFT
100
AcDbLine
 62
7
  6
CONTINUOUS
 10
7.3677470571
 20
-22.1968386104
 11
7.4567678883
 21
-22.1078177793
  0
LINE
  5
6B5
100
AcDbEntity
  8
0
100
AcDbLine
 62
7
  6
CONTINUOUS
 10
7.3677470571
 20
-22.1968386104
 11
7.4567678883
 21
-22.1078177793
  0
LINE
  5
6B6
100
AcDbEntity
  8
RACCORDO
100
AcDbLine
 62
253
  6
CONTINUOUS
 10
9.6404130218
 20
16.6904498409
 11
-9.7049189075
 21
16.6904498409
  0
LINE
  5
6B7
100
AcDbEntity
  8
0
100
AcDbLine
 62
253
  6
CONTINUOUS
 10
9.6404130218
 20
16.6904498409
 11
-9.7049189075
 21
16.6904498409
  0
LINE
  5
6B8
100
AcDbEntity
  8
RACCORDO
100
AcDbLine
 62
7
  6
CONTINUOUS
 10
7.2107255557
 20
18.3246530729
 11
7.2677470571
 21
18.2676315714
  0
LINE
  5
6B9
100
AcDbEntity
  8
DRAFT
100
AcDbLine
 62
7
  6
CONTINUOUS
 10
7.3677470571
 20
18.2676315714
 11
7.4567678883
 21
18.1786107403
  0
LINE
  5
6BA
100
AcDbEntity
  8
0
100
AcDbLine
 62
7
  6
CONTINUOUS
 10
7.3677470571
 20
18.2676315714
 11
7.4567678883
 21
18.1786107403
  0
LINE
  5
6BB
100
AcDbEntity
  8
DRAFT
100
AcDbLine
 62
7
  6
CONTINUOUS
 10
7.3677470571
 20
19.3321017533
 11
7.4567678883
 21
19.2430809221
  0
LINE
  5
6BC
100
AcDbEntity
  8
0
100
AcDbLine
 62
7
  6
CONTINUOUS
 10
7.3677470571
 20
19.3321017533
 11
7.4567678883
 21
19.2430809221
  0
LINE
  5
6BD
100
AcDbEntity
  8
ASSI
100
AcDbLine
 62
7
  6
CONTINUOUS
 10
3.8957170448
 20
21.8239893861
 11
3.8003284235
 21
21.927158473
  0
LINE
  5
6BE
100
AcDbEntity
  8
ASSI
100
AcDbLine
 62
7
  6
CONTINUOUS
 10
3.8003284235
 20
21.927158473
 11
3.7326822157
 21
22.0006767127
  0
LINE
  5
6BF
100
AcDbEntity
  8
0
100
AcDbLine
 62
7
  6
CONTINUOUS
 10
8.867633124
 20
-22.3323684286
 11
9.6177470571
 21
-21.5813394824
  0
LINE
  5
6C0
100
AcDbEntity
  8
RACCORDO
100
AcDbLine
 62
7
  6
CONTINUOUS
 10
10.3574991883
 20
-20.4457644018
 11
8.6954458109
 21
-22.1078177793
  0
LINE
  5
6C1
100
AcDbEntity
  8
0
100
AcDbLine
 62
7
  6
CONTINUOUS
 10
10.3574991883
 20
-20.4457644018
 11
8.6954458109
 21
-22.1078177793
  0
LINE
  5
6C2
100
AcDbEntity
  8
RACCORDO
100
AcDbLine
 62
7
  6
CONTINUOUS
 10
7.2264739249
 20
-23.8236415608
 11
8.2177470571
 21
-22.8323684286
  0
LINE
  5
6C3
100
AcDbEntity
  8
RACCORDO
100
AcDbLine
 62
7
  6
CONTINUOUS
 10
8.7677470571
 20
-22.2823684286
 11
10.5320498376
 21
-20.5180656481
  0
LINE
  5
6C4
100
AcDbEntity
  8
0
100
AcDbLine
 62
7
  6
CONTINUOUS
 10
8.7677470571
 20
-22.2823684286
 11
10.5320498376
 21
-20.5180656481
  0
LINE
  5
6C5
100
AcDbEntity
  8
RACCORDO
100
AcDbLine
 62
253
  6
CONTINUOUS
 10
8.6405653266
 20
17.6902975361
 11
-8.7050712124
 21
17.6902975361
  0
LINE
  5
6C6
100
AcDbEntity
  8
0
100
AcDbLine
 62
253
  6
CONTINUOUS
 10
8.6405653266
 20
17.6902975361
 11
-8.7050712124
 21
17.6902975361
  0
LINE
  5
6C7
100
AcDbEntity
  8
RACCORDO
100
AcDbLine
 62
7
  6
CONTINUOUS
 10
9.017899362
 20
18.0676315714
 11
-9.0824052477
 21
18.0676315714
  0
LINE
  5
6C8
100
AcDbEntity
  8
0
100
AcDbLine
 62
7
  6
CONTINUOUS
 10
9.017899362
 20
18.0676315714
 11
-9.0824052477
 21
18.0676315714
  0
LINE
  5
6C9
100
AcDbEntity
  8
DRAFT
100
AcDbLine
 62
7
  6
CONTINUOUS
 10
7.4567678883
 20
18.1786107403
 11
5.628726226
 21
18.1786107403
  0
LINE
  5
6CA
100
AcDbEntity
  8
0
100
AcDbLine
 62
7
  6
CONTINUOUS
 10
7.4567678883
 20
18.1786107403
 11
5.628726226
 21
18.1786107403
  0
LINE
  5
6CB
100
AcDbEntity
  8
DRAFT
100
AcDbLine
 62
7
  6
CONTINUOUS
 10
-5.6932321117
 20
18.1786107403
 11
-7.521273774
 21
18.1786107403
  0
LINE
  5
6CC
100
AcDbEntity
  8
0
100
AcDbLine
 62
7
  6
CONTINUOUS
 10
-5.6932321117
 20
18.1786107403
 11
-7.521273774
 21
18.1786107403
  0
LINE
  5
6CD
100
AcDbEntity
  8
DRAFT
100
AcDbLine
 62
7
  6
CONTINUOUS
 10
-7.4322529429
 20
18.2676315714
 11
-5.7822529429
 21
18.2676315714
  0
LINE
  5
6CE
100
AcDbEntity
  8
0
100
AcDbLine
 62
7
  6
CONTINUOUS
 10
-7.4322529429
 20
18.2676315714
 11
-5.7822529429
 21
18.2676315714
  0
LINE
  5
6CF
100
AcDbEntity
  8
DRAFT
100
AcDbLine
 62
7
  6
CONTINUOUS
 10
5.7177470571
 20
18.2676315714
 11
7.3677470571
 21
18.2676315714
  0
LINE
  5
6D0
100
AcDbEntity
  8
0
100
AcDbLine
 62
7
  6
CONTINUOUS
 10
5.7177470571
 20
18.2676315714
 11
7.3677470571
 21
18.2676315714
  0
LINE
  5
6D1
100
AcDbEntity
  8
RACCORDO
100
AcDbLine
 62
253
  6
CONTINUOUS
 10
-7.2752314414
 20
18.3246530729
 11
-6.5892744443
 21
18.3246530729
  0
LINE
  5
6D2
100
AcDbEntity
  8
RACCORDO
100
AcDbLine
 62
253
  6
CONTINUOUS
 10
6.5247685586
 20
18.3246530729
 11
7.2107255557
 21
18.3246530729
  0
LINE
  5
6D3
100
AcDbEntity
  8
DRAFT
100
AcDbLine
 62
7
  6
CONTINUOUS
 10
5.628726226
 20
18.3786107403
 11
-5.6932321117
 21
18.3786107403
  0
LINE
  5
6D4
100
AcDbEntity
  8
0
100
AcDbLine
 62
7
  6
CONTINUOUS
 10
5.628726226
 20
18.3786107403
 11
-5.6932321117
 21
18.3786107403
  0
LINE
  5
6D5
100
AcDbEntity
  8
RACCORDO
100
AcDbLine
 62
7
  6
CONTINUOUS
 10
-2.4322529429
 20
18.4520185226
 11
2.3677470571
 21
18.4520185226
  0
LINE
  5
6D6
100
AcDbEntity
  8
0
100
AcDbLine
 62
7
  6
CONTINUOUS
 10
-2.4322529429
 20
18.4520185226
 11
2.3677470571
 21
18.4520185226
  0
LINE
  5
6D7
100
AcDbEntity
  8
0
100
AcDbLine
 62
7
  6
CONTINUOUS
 10
-5.7822529429
 20
18.4676315714
 11
-3.4254545534
 21
18.4676315714
  0
LINE
  5
6D8
100
AcDbEntity
  8
RACCORDO
100
AcDbLine
 62
7
  6
CONTINUOUS
 10
-5.7822529429
 20
18.4676315714
 11
-3.4254545534
 21
18.4676315714
  0
LINE
  5
6D9
100
AcDbEntity
  8
RACCORDO
100
AcDbLine
 62
7
  6
CONTINUOUS
 10
3.3609486677
 20
18.4676315714
 11
5.7177470571
 21
18.4676315714
  0
LINE
  5
6DA
100
AcDbEntity
  8
0
100
AcDbLine
 62
7
  6
CONTINUOUS
 10
3.3609486677
 20
18.4676315714
 11
5.7177470571
 21
18.4676315714
  0
LINE
  5
6DB
100
AcDbEntity
  8
RACCORDO
100
AcDbLine
 62
253
  6
CONTINUOUS
 10
-6.4833577877
 20
18.4942878043
 11
-3.4322529429
 21
18.4942878043
  0
LINE
  5
6DC
100
AcDbEntity
  8
RACCORDO
100
AcDbLine
 62
253
  6
CONTINUOUS
 10
3.3677470571
 20
18.4942878043
 11
6.418851902
 21
18.4942878043
  0
LINE
  5
6DD
100
AcDbEntity
  8
RACCORDO
100
AcDbLine
 62
253
  6
CONTINUOUS
 10
-7.2740746447
 20
18.5246496883
 11
-6.590431241
 21
18.5246496883
  0
LINE
  5
6DE
100
AcDbEntity
  8
RACCORDO
100
AcDbLine
 62
253
  6
CONTINUOUS
 10
6.5259253553
 20
18.5246496883
 11
7.209568759
 21
18.5246496883
  0
LINE
  5
6DF
100
AcDbEntity
  8
RACCORDO
100
AcDbLine
 62
253
  6
CONTINUOUS
 10
-7.4322529429
 20
18.5267200525
 11
-7.3840316282
 21
18.5267200525
  0
LINE
  5
6E0
100
AcDbEntity
  8
RACCORDO
100
AcDbLine
 62
253
  6
CONTINUOUS
 10
7.3195257425
 20
18.5267200525
 11
7.3677470571
 21
18.5267200525
  0
LINE
  5
6E1
100
AcDbEntity
  8
DRAFT
100
AcDbLine
 62
7
  6
CONTINUOUS
 10
3.4677470571
 20
18.5676315714
 11
3.3677470571
 21
18.5676315714
  0
LINE
  5
6E2
100
AcDbEntity
  8
DRAFT
100
AcDbLine
 62
7
  6
CONTINUOUS
 10
-3.4322529429
 20
18.5676315714
 11
-3.5322529429
 21
18.5676315714
  0
LINE
  5
6E3
100
AcDbEntity
  8
DRAFT
100
AcDbLine
 62
7
  6
CONTINUOUS
 10
-2.5322529429
 20
18.620865465
 11
-2.473564066
 21
18.620865465
  0
LINE
  5
6E4
100
AcDbEntity
  8
DRAFT
100
AcDbLine
 62
7
  6
CONTINUOUS
 10
2.4090581803
 20
18.620865465
 11
2.4677470571
 21
18.620865465
  0
LINE
  5
6E5
100
AcDbEntity
  8
RACCORDO
100
AcDbLine
 62
253
  6
CONTINUOUS
 10
-6.5875477108
 20
18.6505748931
 11
6.5230418251
 21
18.6505748931
  0
LINE
  5
6E6
100
AcDbEntity
  8
RACCORDO
100
AcDbLine
 62
253
  6
CONTINUOUS
 10
-7.4322529429
 20
19.0260348198
 11
-7.3812749541
 21
19.0260348198
  0
LINE
  5
6E7
100
AcDbEntity
  8
RACCORDO
100
AcDbLine
 62
253
  6
CONTINUOUS
 10
7.3167690684
 20
19.0260348198
 11
7.3677470571
 21
19.0260348198
  0
LINE
  5
6E8
100
AcDbEntity
  8
RACCORDO
100
AcDbLine
 62
253
  6
CONTINUOUS
 10
-6.590431241
 20
19.1505558546
 11
6.5259253553
 21
19.1505558546
  0
LINE
  5
6E9
100
AcDbEntity
  8
DRAFT
100
AcDbLine
 62
7
  6
CONTINUOUS
 10
8.6954458109
 20
19.2430809221
 11
7.4567678883
 21
19.2430809221
  0
LINE
  5
6EA
100
AcDbEntity
  8
0
100
AcDbLine
 62
7
  6
CONTINUOUS
 10
8.6954458109
 20
19.2430809221
 11
7.4567678883
 21
19.2430809221
  0
LINE
  5
6EB
100
AcDbEntity
  8
DRAFT
100
AcDbLine
 62
7
  6
CONTINUOUS
 10
-7.521273774
 20
19.2430809221
 11
-8.7599516966
 21
19.2430809221
  0
LINE
  5
6EC
100
AcDbEntity
  8
0
100
AcDbLine
 62
7
  6
CONTINUOUS
 10
-7.521273774
 20
19.2430809221
 11
-8.7599516966
 21
19.2430809221
  0
LINE
  5
6ED
100
AcDbEntity
  8
DRAFT
100
AcDbLine
 62
7
  6
CONTINUOUS
 10
8.7677470571
 20
19.4176315714
 11
7.4532768753
 21
19.4176315714
  0
LINE
  5
6EE
100
AcDbEntity
  8
0
100
AcDbLine
 62
7
  6
CONTINUOUS
 10
8.7677470571
 20
19.4176315714
 11
7.4532768753
 21
19.4176315714
  0
LINE
  5
6EF
100
AcDbEntity
  8
DRAFT
100
AcDbLine
 62
7
  6
CONTINUOUS
 10
-7.517782761
 20
19.4176315714
 11
-8.8322529429
 21
19.4176315714
  0
LINE
  5
6F0
100
AcDbEntity
  8
0
100
AcDbLine
 62
7
  6
CONTINUOUS
 10
-7.517782761
 20
19.4176315714
 11
-8.8322529429
 21
19.4176315714
  0
LINE
  5
6F1
100
AcDbEntity
  8
0
100
AcDbLine
 62
7
  6
CONTINUOUS
 10
8.867633124
 20
19.4676315714
 11
8.2177470571
 21
19.4676315714
  0
LINE
  5
6F2
100
AcDbEntity
  8
0
100
AcDbLine
 62
7
  6
CONTINUOUS
 10
-8.2822529429
 20
19.4676315714
 11
-8.9321390097
 21
19.4676315714
  0
LINE
  5
6F3
100
AcDbEntity
  8
DRAFT
100
AcDbLine
 62
7
  6
CONTINUOUS
 10
8.2142597663
 20
19.4781019519
 11
7.2665847318
 21
19.4781019519
  0
LINE
  5
6F4
100
AcDbEntity
  8
DRAFT
100
AcDbLine
 62
7
  6
CONTINUOUS
 10
-7.3310906175
 20
19.4781019519
 11
-8.278765652
 21
19.4781019519
  0
LWPOLYLINE
  5
6F5
100
AcDbEntity
  8
RACCORDO
100
AcDbPolyline
 62
253
  6
CONTINUOUS
 90
58
 70
0
 10
8.6405653266
 20
17.6902975361
 10
8.6681101329
 20
17.6899096584
 10
8.69563403
 20
17.6887630992
 10
8.723116125
 20
17.6868587289
 10
8.7505355564
 20
17.6841979931
 10
8.7778715103
 20
17.6807829116
 10
8.8051032363
 20
17.6766160766
 10
8.8322100629
 20
17.6717006512
 10
8.8591714137
 20
17.6660403667
 10
8.8859668224
 20
17.6596395197
 10
8.9125759489
 20
17.652502969
 10
8.9389785945
 20
17.644636132
 10
8.9651547171
 20
17.6360449803
 10
8.9910844467
 20
17.6267360353
 10
9.0167481001
 20
17.6167163635
 10
9.0421261965
 20
17.6059935706
 10
9.0671994713
 20
17.5945757963
 10
9.0919488919
 20
17.5824717077
 10
9.116355671
 20
17.5696904928
 10
9.1404012817
 20
17.5562418538
 10
9.1640674712
 20
17.5421359995
 10
9.1873362746
 20
17.5273836374
 10
9.2101900289
 20
17.511995966
 10
9.2326113859
 20
17.4959846659
 10
9.2545833258
 20
17.4793618912
 10
9.2760891698
 20
17.4621402601
 10
9.2971125931
 20
17.4443328453
 10
9.3176376369
 20
17.4259531644
 10
9.3376487209
 20
17.4070151691
 10
9.3571306548
 20
17.3875332352
 10
9.3760686501
 20
17.3675221512
 10
9.394448331
 20
17.3469971074
 10
9.4122557458
 20
17.3259736841
 10
9.429477377
 20
17.30446784
 10
9.4461001517
 20
17.2824959002
 10
9.4621114517
 20
17.2600745432
 10
9.4774991231
 20
17.2372207889
 10
9.4922514852
 20
17.2139519854
 10
9.5063573395
 20
17.190285796
 10
9.5198059785
 20
17.1662401853
 10
9.5325871934
 20
17.1418334062
 10
9.544691282
 20
17.1170839856
 10
9.5561090564
 20
17.0920107107
 10
9.5668318492
 20
17.0666326144
 10
9.5768515211
 20
17.0409689609
 10
9.586160466
 20
17.0150392314
 10
9.5947516177
 20
16.9888631088
 10
9.6026184547
 20
16.9624604632
 10
9.6097550054
 20
16.9358513367
 10
9.6161558524
 20
16.9090559279
 10
9.6218161369
 20
16.8820945772
 10
9.6267315623
 20
16.8549877506
 10
9.6308983973
 20
16.8277560246
 10
9.6343134788
 20
16.8004200707
 10
9.6369742146
 20
16.7730006393
 10
9.6388785849
 20
16.7455185443
 10
9.6400251441
 20
16.7179946471
 10
9.6404130218
 20
16.6904498409
  0
LWPOLYLINE
  5
6F6
100
AcDbEntity
  8
0
100
AcDbPolyline
 62
253
  6
CONTINUOUS
 90
58
 70
0
 10
8.6405653266
 20
17.6902975361
 10
8.6681101329
 20
17.6899096584
 10
8.69563403
 20
17.6887630992
 10
8.723116125
 20
17.6868587289
 10
8.7505355564
 20
17.6841979931
 10
8.7778715103
 20
17.6807829116
 10
8.8051032363
 20
17.6766160766
 10
8.8322100629
 20
17.6717006512
 10
8.8591714137
 20
17.6660403667
 10
8.8859668224
 20
17.6596395197
 10
8.9125759489
 20
17.652502969
 10
8.9389785945
 20
17.644636132
 10
8.9651547171
 20
17.6360449803
 10
8.9910844467
 20
17.6267360353
 10
9.0167481001
 20
17.6167163635
 10
9.0421261965
 20
17.6059935706
 10
9.0671994713
 20
17.5945757963
 10
9.0919488919
 20
17.5824717077
 10
9.116355671
 20
17.5696904928
 10
9.1404012817
 20
17.5562418538
 10
9.1640674712
 20
17.5421359995
 10
9.1873362746
 20
17.5273836374
 10
9.2101900289
 20
17.511995966
 10
9.2326113859
 20
17.4959846659
 10
9.2545833258
 20
17.4793618912
 10
9.2760891698
 20
17.4621402601
 10
9.2971125931
 20
17.4443328453
 10
9.3176376369
 20
17.4259531644
 10
9.3376487209
 20
17.4070151691
 10
9.3571306548
 20
17.3875332352
 10
9.3760686501
 20
17.3675221512
 10
9.394448331
 20
17.3469971074
 10
9.4122557458
 20
17.3259736841
 10
9.429477377
 20
17.30446784
 10
9.4461001517
 20
17.2824959002
 10
9.4621114517
 20
17.2600745432
 10
9.4774991231
 20
17.2372207889
 10
9.4922514852
 20
17.2139519854
 10
9.5063573395
 20
17.190285796
 10
9.5198059785
 20
17.1662401853
 10
9.5325871934
 20
17.1418334062
 10
9.544691282
 20
17.1170839856
 10
9.5561090564
 20
17.0920107107
 10
9.5668318492
 20
17.0666326144
 10
9.5768515211
 20
17.0409689609
 10
9.586160466
 20
17.0150392314
 10
9.5947516177
 20
16.9888631088
 10
9.6026184547
 20
16.9624604632
 10
9.6097550054
 20
16.9358513367
 10
9.6161558524
 20
16.9090559279
 10
9.6218161369
 20
16.8820945772
 10
9.6267315623
 20
16.8549877506
 10
9.6308983973
 20
16.8277560246
 10
9.6343134788
 20
16.8004200707
 10
9.6369742146
 20
16.7730006393
 10
9.6388785849
 20
16.7455185443
 10
9.6400251441
 20
16.7179946471
 10
9.6404130218
 20
16.6904498409
  0
LINE
  5
6F7
100
AcDbEntity
  8
RACCORDO
100
AcDbLine
 62
7
  6
CONTINUOUS
 10
8.6954458109
 20
19.2430809221
 11
10.3574991883
 21
17.5810275447
  0
LINE
  5
6F8
100
AcDbEntity
  8
0
100
AcDbLine
 62
7
  6
CONTINUOUS
 10
8.6954458109
 20
19.2430809221
 11
10.3574991883
 21
17.5810275447
  0
LINE
  5
6F9
100
AcDbEntity
  8
RACCORDO
100
AcDbLine
 62
7
  6
CONTINUOUS
 10
10.5320498376
 20
17.6533287909
 11
8.7677470571
 21
19.4176315714
  0
LINE
  5
6FA
100
AcDbEntity
  8
0
100
AcDbLine
 62
7
  6
CONTINUOUS
 10
10.5320498376
 20
17.6533287909
 11
8.7677470571
 21
19.4176315714
  0
LINE
  5
6FB
100
AcDbEntity
  8
RACCORDO
100
AcDbLine
 62
7
  6
CONTINUOUS
 10
8.2177470571
 20
19.9676315714
 11
7.2264739249
 21
20.9589047036
  0
LINE
  5
6FC
100
AcDbEntity
  8
0
100
AcDbLine
 62
7
  6
CONTINUOUS
 10
8.867633124
 20
19.4676315714
 11
9.6177470571
 21
18.7166026252
  0
LINE
  5
6FD
100
AcDbEntity
  8
RACCORDO
100
AcDbLine
 62
253
  6
CONTINUOUS
 10
8.2221188911
 20
-25.6780008254
 11
8.2177470571
 21
-25.6823726594
  0
LINE
  5
6FE
100
AcDbEntity
  8
RACCORDO
100
AcDbLine
 62
253
  6
CONTINUOUS
 10
8.4721146604
 20
-25.9279965946
 11
8.4677428264
 21
-25.9323684286
  0
LINE
  5
6FF
100
AcDbEntity
  8
RACCORDO
100
AcDbLine
 62
7
  6
CONTINUOUS
 10
8.0517716239
 20
-22.4240766928
 11
8.2142597663
 21
-22.342838809
  0
LINE
  5
700
100
AcDbEntity
  8
RACCORDO
100
AcDbLine
 62
7
  6
CONTINUOUS
 10
7.5518477763
 20
19.5636271171
 11
7.209568759
 21
19.5636271171
  0
LINE
  5
701
100
AcDbEntity
  8
RACCORDO
100
AcDbLine
 62
7
  6
CONTINUOUS
 10
-7.2740746447
 20
19.5636271171
 11
-7.616353662
 21
19.5636271171
  0
LINE
  5
702
100
AcDbEntity
  8
0
100
AcDbLine
 62
7
  6
CONTINUOUS
 10
2.9677470571
 20
19.5676315714
 11
-3.0322529429
 21
19.5676315714
  0
LINE
  5
703
100
AcDbEntity
  8
RACCORDO
100
AcDbLine
 62
253
  6
CONTINUOUS
 10
7.5518477763
 20
19.8803248151
 11
2.9677470571
 21
19.8803248151
  0
LINE
  5
704
100
AcDbEntity
  8
RACCORDO
100
AcDbLine
 62
253
  6
CONTINUOUS
 10
-3.0322529429
 20
19.8803248151
 11
-7.616353662
 21
19.8803248151
  0
LINE
  5
705
100
AcDbEntity
  8
0
100
AcDbLine
 62
7
  6
CONTINUOUS
 10
-3.0322529429
 20
20.2676315714
 11
2.9677470571
 21
20.2676315714
  0
LINE
  5
706
100
AcDbEntity
  8
RACCORDO
100
AcDbLine
 62
253
  6
CONTINUOUS
 10
7.3050918904
 20
20.8802867382
 11
2.9677470571
 21
20.8802867382
  0
LINE
  5
707
100
AcDbEntity
  8
RACCORDO
100
AcDbLine
 62
253
  6
CONTINUOUS
 10
-3.0322529429
 20
20.8802867382
 11
-7.3695977761
 21
20.8802867382
  0
LINE
  5
708
100
AcDbEntity
  8
DRAFT
100
AcDbLine
 62
7
  6
CONTINUOUS
 10
-3.5322529429
 20
20.9056708101
 11
-3.0322529429
 21
20.9056708101
  0
LINE
  5
709
100
AcDbEntity
  8
DRAFT
100
AcDbLine
 62
7
  6
CONTINUOUS
 10
2.9677470571
 20
20.9056708101
 11
3.4677470571
 21
20.9056708101
  0
LINE
  5
70A
100
AcDbEntity
  8
RACCORDO
100
AcDbLine
 62
7
  6
CONTINUOUS
 10
10.6676099645
 20
20.9589047036
 11
7.2264739249
 21
20.9589047036
  0
LINE
  5
70B
100
AcDbEntity
  8
RACCORDO
100
AcDbLine
 62
7
  6
CONTINUOUS
 10
-7.2909798106
 20
20.9589047036
 11
-10.7321158502
 21
20.9589047036
  0
LINE
  5
70C
100
AcDbEntity
  8
RACCORDO
100
AcDbLine
 62
7
  6
CONTINUOUS
 10
10.6506390802
 20
20.9676315714
 11
10.6177470571
 21
20.9676315714
  0
LINE
  5
70D
100
AcDbEntity
  8
DRAFT
100
AcDbLine
 62
7
  6
CONTINUOUS
 10
-4.4322529429
 20
20.9676315714
 11
-10.6822529429
 21
20.9676315714
  0
LINE
  5
70E
100
AcDbEntity
  8
DRAFT
100
AcDbLine
 62
7
  6
CONTINUOUS
 10
4.3677470571
 20
20.9676315714
 11
10.6177470571
 21
20.9676315714
  0
LINE
  5
70F
100
AcDbEntity
  8
RACCORDO
100
AcDbLine
 62
7
  6
CONTINUOUS
 10
-10.6822529429
 20
20.9676315714
 11
-10.7151404177
 21
20.9676315714
  0
LINE
  5
710
100
AcDbEntity
  8
RACCORDO
100
AcDbLine
 62
7
  6
CONTINUOUS
 10
8.0517716239
 20
19.5593398357
 11
8.2142597663
 21
19.4781019519
  0
LINE
  5
711
100
AcDbEntity
  8
RACCORDO
100
AcDbLine
 62
253
  6
CONTINUOUS
 10
8.2221188911
 20
22.8132639682
 11
8.2177470571
 21
22.8176358022
  0
LINE
  5
712
100
AcDbEntity
  8
RACCORDO
100
AcDbLine
 62
253
  6
CONTINUOUS
 10
8.4721146604
 20
23.0632597374
 11
8.4677428264
 21
23.0676315714
  0
LINE
  5
713
100
AcDbEntity
  8
RACCORDO
100
AcDbLine
 62
253
  6
CONTINUOUS
 10
10.6676099645
 20
-23.8236415608
 11
10.6501548996
 21
-23.8323684286
  0
LWPOLYLINE
  5
714
100
AcDbEntity
  8
RACCORDO
100
AcDbPolyline
 62
7
  6
CONTINUOUS
 90
11
 70
0
 10
10.8514146946
 20
-23.7848709614
 10
10.8373442283
 20
-23.7916035048
 10
10.8176632422
 20
-23.8000445734
 10
10.7976018473
 20
-23.8075401636
 10
10.7772049142
 20
-23.8140732064
 10
10.7565271816
 20
-23.8196264999
 10
10.7356069724
 20
-23.8241900801
 10
10.7144647
 20
-23.8277571802
 10
10.6931386538
 20
-23.8303164221
 10
10.671685815
 20
-23.8318560787
 10
10.6501548996
 20
-23.8323684286
  0
LINE
  5
715
100
AcDbEntity
  8
RACCORDO
100
AcDbLine
 62
7
  6
CONTINUOUS
 10
-10.4329759407
 20
21.6902813022
 11
-8.531529945
 21
21.6902813022
  0
LINE
  5
716
100
AcDbEntity
  8
RACCORDO
100
AcDbLine
 62
7
  6
CONTINUOUS
 10
8.4670240593
 20
21.6902813022
 11
10.368470055
 21
21.6902813022
  0
LINE
  5
717
100
AcDbEntity
  8
RACCORDO
100
AcDbLine
 62
253
  6
CONTINUOUS
 10
-10.4278853396
 20
22.1954627878
 11
-8.5366205461
 21
22.1954627878
  0
LINE
  5
718
100
AcDbEntity
  8
RACCORDO
100
AcDbLine
 62
253
  6
CONTINUOUS
 10
8.4721146604
 20
22.1954627878
 11
10.3633794539
 21
22.1954627878
  0
LINE
  5
719
100
AcDbEntity
  8
ASSI
100
AcDbLine
 62
253
  6
CONTINUOUS
 10
4.3240964103
 20
22.3239809246
 11
3.4677470571
 21
22.3239809246
  0
LINE
  5
71A
100
AcDbEntity
  8
ASSI
100
AcDbLine
 62
253
  6
CONTINUOUS
 10
-3.5322529429
 20
22.3239809246
 11
-4.388602296
 21
22.3239809246
  0
LINE
  5
71B
100
AcDbEntity
  8
DRAFT
100
AcDbLine
 62
7
  6
CONTINUOUS
 10
3.4677470571
 20
22.3618137416
 11
-3.5322529429
 21
22.3618137416
  0
LINE
  5
71C
100
AcDbEntity
  8
DRAFT
100
AcDbLine
 62
7
  6
CONTINUOUS
 10
4.3677470571
 20
22.3676315714
 11
-4.4322529429
 21
22.3676315714
  0
LINE
  5
71D
100
AcDbEntity
  8
RACCORDO
100
AcDbLine
 62
253
  6
CONTINUOUS
 10
8.2221188911
 20
22.4119691387
 11
10.6133752231
 21
22.4119691387
  0
LINE
  5
71E
100
AcDbEntity
  8
RACCORDO
100
AcDbLine
 62
253
  6
CONTINUOUS
 10
-8.2866247769
 20
22.4119691387
 11
-10.6778811089
 21
22.4119691387
  0
LINE
  5
71F
100
AcDbEntity
  8
RACCORDO
100
AcDbLine
 62
253
  6
CONTINUOUS
 10
8.2221188911
 20
22.8132639682
 11
10.6133752231
 21
22.8132639682
  0
LINE
  5
720
100
AcDbEntity
  8
RACCORDO
100
AcDbLine
 62
253
  6
CONTINUOUS
 10
-8.2866247769
 20
22.8132639682
 11
-10.6778811089
 21
22.8132639682
  0
LINE
  5
721
100
AcDbEntity
  8
RACCORDO
100
AcDbLine
 62
253
  6
CONTINUOUS
 10
10.3633794539
 20
23.0632597374
 11
8.4721146604
 21
23.0632597374
  0
LINE
  5
722
100
AcDbEntity
  8
RACCORDO
100
AcDbLine
 62
253
  6
CONTINUOUS
 10
-8.5366205461
 20
23.0632597374
 11
-10.4278853396
 21
23.0632597374
  0
LINE
  5
723
100
AcDbEntity
  8
RACCORDO
100
AcDbLine
 62
7
  6
CONTINUOUS
 10
10.3677512879
 20
23.0676315714
 11
8.4677428264
 21
23.0676315714
  0
LINE
  5
724
100
AcDbEntity
  8
RACCORDO
100
AcDbLine
 62
7
  6
CONTINUOUS
 10
-8.5322487121
 20
23.0676315714
 11
-10.4322571736
 21
23.0676315714
  0
LWPOLYLINE
  5
725
100
AcDbEntity
  8
RACCORDO
100
AcDbPolyline
 62
7
  6
CONTINUOUS
 90
34
 70
0
 10
-8.5322487121
 20
23.0676315714
 10
-8.5203534268
 20
23.0673484212
 10
-8.5084850873
 20
23.0664996057
 10
-8.4966705767
 20
23.0650870456
 10
-8.4849366554
 20
23.0631139391
 10
-8.4733099041
 20
23.0605847531
 10
-8.4618166639
 20
23.0575052131
 10
-8.4504829691
 20
23.0538822928
 10
-8.4393344936
 20
23.0497241972
 10
-8.4283964966
 20
23.0450403436
 10
-8.4176937553
 20
23.0398413403
 10
-8.4072505146
 20
23.0341389631
 10
-8.397090437
 20
23.0279461296
 10
-8.3872365377
 20
23.0212768669
 10
-8.377711139
 20
23.0141462821
 10
-8.3685358238
 20
23.0065705303
 10
-8.3597313768
 20
22.9985667719
 10
-8.3513177424
 20
22.9901531375
 10
-8.343313984
 20
22.9813486905
 10
-8.3357382321
 20
22.9721733753
 10
-8.3286076474
 20
22.9626479765
 10
-8.3219383847
 20
22.9527940773
 10
-8.3157455512
 20
22.9426339997
 10
-8.310043174
 20
22.932190759
 10
-8.3048441707
 20
22.9214880177
 10
-8.3001603171
 20
22.9105500207
 10
-8.2960022215
 20
22.8994015452
 10
-8.2923793012
 20
22.8880678504
 10
-8.2892997611
 20
22.8765746102
 10
-8.2867705751
 20
22.8649478589
 10
-8.2847974687
 20
22.8532139376
 10
-8.2833849086
 20
22.841399427
 10
-8.2825360931
 20
22.8295310874
 10
-8.2822529429
 20
22.8176358022
  0
LWPOLYLINE
  5
726
100
AcDbEntity
  8
RACCORDO
100
AcDbPolyline
 62
7
  6
CONTINUOUS
 90
34
 70
0
 10
10.3677512879
 20
23.0676315714
 10
10.3796465732
 20
23.0673484212
 10
10.3915149127
 20
23.0664996057
 10
10.4033294233
 20
23.0650870456
 10
10.4150633446
 20
23.0631139391
 10
10.4266900959
 20
23.0605847531
 10
10.4381833361
 20
23.0575052131
 10
10.4495170309
 20
23.0538822928
 10
10.4606655064
 20
23.0497241972
 10
10.4716035034
 20
23.0450403436
 10
10.4823062447
 20
23.0398413403
 10
10.4927494854
 20
23.0341389631
 10
10.502909563
 20
23.0279461296
 10
10.5127634623
 20
23.0212768669
 10
10.522288861
 20
23.0141462821
 10
10.5314641762
 20
23.0065705303
 10
10.5402686232
 20
22.9985667719
 10
10.5486822576
 20
22.9901531375
 10
10.556686016
 20
22.9813486905
 10
10.5642617679
 20
22.9721733753
 10
10.5713923526
 20
22.9626479765
 10
10.5780616153
 20
22.9527940773
 10
10.5842544488
 20
22.9426339997
 10
10.589956826
 20
22.932190759
 10
10.5951558293
 20
22.9214880177
 10
10.5998396829
 20
22.9105500207
 10
10.6039977785
 20
22.8994015452
 10
10.6076206988
 20
22.8880678504
 10
10.6107002389
 20
22.8765746102
 10
10.6132294249
 20
22.8649478589
 10
10.6152025313
 20
22.8532139376
 10
10.6166150914
 20
22.841399427
 10
10.6174639069
 20
22.8295310874
 10
10.6177470571
 20
22.8176358022
  0
LWPOLYLINE
  5
727
100
AcDbEntity
  8
RACCORDO
100
AcDbPolyline
 62
253
  6
CONTINUOUS
 90
31
 70
0
 10
-8.5366205461
 20
23.0632597374
 10
-8.5235370601
 20
23.0629166989
 10
-8.5104894335
 20
23.061889409
 10
-8.4975134273
 20
23.0601806834
 10
-8.4846446065
 20
23.0577952054
 10
-8.4719182419
 20
23.0547395132
 10
-8.4593692143
 20
23.0510219819
 10
-8.447031918
 20
23.0466528004
 10
-8.4349401674
 20
23.0416439439
 10
-8.4231271036
 20
23.0360091407
 10
-8.411625104
 20
23.0297638348
 10
-8.4004656935
 20
23.0229251434
 10
-8.3896794579
 20
23.01551181
 10
-8.3792959602
 20
23.0075441533
 10
-8.3693436598
 20
22.999044011
 10
-8.3598498339
 20
22.9900346804
 10
-8.3508405033
 20
22.9805408545
 10
-8.342340361
 20
22.9705885541
 10
-8.3343727043
 20
22.9602050564
 10
-8.3269593709
 20
22.9494188208
 10
-8.3201206795
 20
22.9382594103
 10
-8.3138753736
 20
22.9267574107
 10
-8.3082405704
 20
22.9149443469
 10
-8.3032317139
 20
22.9028525963
 10
-8.2988625324
 20
22.8905153
 10
-8.295145001
 20
22.8779662723
 10
-8.2920893088
 20
22.8652399078
 10
-8.2897038309
 20
22.8523710869
 10
-8.2879951053
 20
22.8393950808
 10
-8.2869678154
 20
22.8263474542
 10
-8.2866247769
 20
22.8132639682
  0
LWPOLYLINE
  5
728
100
AcDbEntity
  8
RACCORDO
100
AcDbPolyline
 62
7
  6
CONTINUOUS
 90
11
 70
0
 10
10.8514147986
 20
20.9201340522
 10
10.8373443517
 20
20.9268665871
 10
10.8176633559
 20
20.935307662
 10
10.7976019505
 20
20.9428032587
 10
10.777205006
 20
20.9493363082
 10
10.756527261
 20
20.9548896086
 10
10.7356070384
 20
20.9594531957
 10
10.7144647515
 20
20.9630203028
 10
10.6931386893
 20
20.9655795517
 10
10.6716858334
 20
20.9671192151
 10
10.6501548996
 20
20.9676315714
  0
LINE
  5
729
100
AcDbEntity
  8
RACCORDO
100
AcDbLine
 62
253
  6
CONTINUOUS
 10
10.6501548996
 20
20.9676315714
 11
10.6676099645
 21
20.9589047036
  0
LWPOLYLINE
  5
72A
100
AcDbEntity
  8
RACCORDO
100
AcDbPolyline
 62
253
  6
CONTINUOUS
 90
31
 70
0
 10
10.3633794539
 20
23.0632597374
 10
10.3764317939
 20
23.0629183302
 10
10.3894566883
 20
23.0618950676
 10
10.4024184629
 20
23.0601914634
 10
10.4152841816
 20
23.0578103332
 10
10.4280156468
 20
23.0547572198
 10
10.4405698314
 20
23.0510417801
 10
10.4529096353
 20
23.046675229
 10
10.4650039914
 20
23.0416687991
 10
10.4768200697
 20
23.0360360505
 10
10.4883256701
 20
23.0297922489
 10
10.4994889885
 20
23.022954567
 10
10.5102790677
 20
23.015541937
 10
10.5206661936
 20
23.0075747948
 10
10.5306220307
 20
22.9990748978
 10
10.5401193652
 20
22.990065476
 10
10.5491321843
 20
22.9805711829
 10
10.5576357258
 20
22.9706180794
 10
10.565606634
 20
22.9602334902
 10
10.5730230408
 20
22.9494458999
 10
10.5798646166
 20
22.9382848739
 10
10.5861125958
 20
22.9267810181
 10
10.5917498441
 20
22.9149658725
 10
10.5967608996
 20
22.9028718352
 10
10.6011320146
 20
22.8905320791
 10
10.6048512041
 20
22.8779804317
 10
10.6079082653
 20
22.8652513177
 10
10.610294808
 20
22.8523796781
 10
10.6120042912
 20
22.8394008207
 10
10.6130320341
 20
22.8263503223
 10
10.6133752231
 20
22.8132639682
  0
ELLIPSE
  5
72B
100
AcDbEntity
  8
DRAFT
100
AcDbEllipse
 62
7
  6
CONTINUOUS
 10
-2.5322529429
 20
18.6121385972
 30
0.0
 11
1.0
 21
-0.0
 31
0.0
 40
0.0087268678
 41
1.5707963268
 42
3.1415926536
  0
ELLIPSE
  5
72C
100
AcDbEntity
  8
DRAFT
100
AcDbEllipse
 62
7
  6
CONTINUOUS
 10
-2.5322529429
 20
-21.4768754543
 30
0.0
 11
1.0
 21
0.0
 31
0.0
 40
0.0087268678
 41
3.1415926536
 42
4.7123889804
  0
ELLIPSE
  5
72D
100
AcDbEntity
  8
DRAFT
100
AcDbEllipse
 62
7
  6
CONTINUOUS
 10
-0.0322529429
 20
18.7500231083
 30
0.0
 11
15.0
 21
-0.0
 31
0.0
 40
0.0087268678
 41
-1.7342776332
 42
-1.4073150204
  0
ELLIPSE
  5
72E
100
AcDbEntity
  8
DRAFT
100
AcDbEllipse
 62
7
  6
CONTINUOUS
 10
2.4677470571
 20
18.6121385972
 30
0.0
 11
1.0
 21
-0.0
 31
0.0
 40
0.0087268678
 41
-0.0
 42
1.5707963268
  0
ELLIPSE
  5
72F
100
AcDbEntity
  8
DRAFT
100
AcDbEllipse
 62
7
  6
CONTINUOUS
 10
-0.0322529429
 20
-21.6147599654
 30
0.0
 11
15.0
 21
-0.0
 31
0.0
 40
0.0087268678
 41
1.4073150204
 42
1.7342776332
  0
ELLIPSE
  5
730
100
AcDbEntity
  8
DRAFT
100
AcDbEllipse
 62
7
  6
CONTINUOUS
 10
2.4677470571
 20
-21.4768754543
 30
0.0
 11
1.0
 21
0.0
 31
0.0
 40
0.0087268678
 41
-1.5707963268
 42
0.0
  0
ELLIPSE
  5
731
100
AcDbEntity
  8
RACCORDO
100
AcDbEllipse
 62
7
  6
CONTINUOUS
 10
-10.7321843952
 20
-23.3736244255
 30
0.0
 11
-0.4025750024
 21
0.2012721715
 31
0.0
 40
0.9998096356
 41
6.7467263073
 42
8.3176749331
  0
ELLIPSE
  5
732
100
AcDbEntity
  8
RACCORDO
100
AcDbEllipse
 62
7
  6
CONTINUOUS
 10
10.6676785095
 20
20.5088875684
 30
0.0
 11
0.4025750024
 21
-0.2012721715
 31
0.0
 40
0.9998096356
 41
6.7467263073
 42
8.3176749331
  0
ELLIPSE
  5
733
100
AcDbEntity
  8
RACCORDO
100
AcDbEllipse
 62
7
  6
CONTINUOUS
 10
10.6676785095
 20
-23.3736244255
 30
0.0
 11
-0.4025750024
 21
-0.2012721715
 31
0.0
 40
0.9998096356
 41
1.1071030277
 42
2.6780516535
  0
ELLIPSE
  5
734
100
AcDbEntity
  8
DRAFT
100
AcDbEllipse
 62
7
  6
CONTINUOUS
 10
-3.9602229305
 20
-23.7662883237
 30
0.0
 11
0.4279699877
 21
0.0
 31
0.0
 40
0.0087268678
 41
-0.0
 42
3.1357748894
  0
ELLIPSE
  5
735
100
AcDbEntity
  8
DRAFT
100
AcDbEllipse
 62
7
  6
CONTINUOUS
 10
3.8957170448
 20
-23.7662883237
 30
0.0
 11
0.4279699877
 21
0.0
 31
0.0
 40
0.0087268678
 41
0.0058177642
 42
3.1415926536
  0
ELLIPSE
  5
736
100
AcDbEntity
  8
DRAFT
100
AcDbEllipse
 62
7
  6
CONTINUOUS
 10
3.8957170448
 20
20.9015514666
 30
0.0
 11
0.4279699877
 21
-0.0
 31
0.0
 40
0.0087268678
 41
3.1415926536
 42
6.277367543
  0
ELLIPSE
  5
737
100
AcDbEntity
  8
ASSI
100
AcDbEllipse
 62
7
  6
CONTINUOUS
 10
4.3241133336
 20
-24.6887262433
 30
0.0
 11
0.0
 21
0.5
 31
0.0
 40
0.0058178298
 41
-3.2911896616
 42
-3.1474104178
  0
ELLIPSE
  5
738
100
AcDbEntity
  8
ASSI
100
AcDbEllipse
 62
7
  6
CONTINUOUS
 10
-4.3886192193
 20
-24.6887262433
 30
0.0
 11
-0.0
 21
0.5
 31
0.0
 40
0.0058178298
 41
-3.1357748894
 42
-2.9919956456
  0
ELLIPSE
  5
739
100
AcDbEntity
  8
ASSI
100
AcDbEllipse
 62
7
  6
CONTINUOUS
 10
-4.3886192193
 20
21.8239893861
 30
0.0
 11
0.0
 21
0.5
 31
0.0
 40
0.0058178298
 41
-0.149597008
 42
-0.0058177642
  0
ELLIPSE
  5
73A
100
AcDbEntity
  8
ASSI
100
AcDbEllipse
 62
7
  6
CONTINUOUS
 10
4.3241133336
 20
21.8239893861
 30
0.0
 11
0.0
 21
0.5
 31
0.0
 40
0.0058178298
 41
0.0058177642
 42
0.149597008
  0
ELLIPSE
  5
73B
100
AcDbEntity
  8
DRAFT
100
AcDbEllipse
 62
7
  6
CONTINUOUS
 10
-3.9602229305
 20
20.9015514666
 30
0.0
 11
0.4279699877
 21
-0.0
 31
0.0
 40
0.0087268678
 41
-3.1357748894
 42
0.0
  0
ELLIPSE
  5
73C
100
AcDbEntity
  8
RACCORDO
100
AcDbEllipse
 62
7
  6
CONTINUOUS
 10
6.4188772867
 20
17.9943068428
 30
0.0
 11
-0.0
 21
0.5
 31
0.0
 40
0.0058178298
 41
0.0087266463
 42
0.9923144385
  0
ELLIPSE
  5
73D
100
AcDbEntity
  8
RACCORDO
100
AcDbEllipse
 62
7
  6
CONTINUOUS
 10
-6.4833831724
 20
17.9943068428
 30
0.0
 11
0.0
 21
0.5
 31
0.0
 40
0.0058178298
 41
-0.9923144385
 42
-0.0087266463
  0
ELLIPSE
  5
73E
100
AcDbEntity
  8
RACCORDO
100
AcDbEllipse
 62
7
  6
CONTINUOUS
 10
-6.4833831724
 20
-20.8590436999
 30
0.0
 11
-0.0
 21
0.5
 31
0.0
 40
0.0058178298
 41
-3.1328660073
 42
-2.1492782151
  0
ELLIPSE
  5
73F
100
AcDbEntity
  8
RACCORDO
100
AcDbEllipse
 62
7
  6
CONTINUOUS
 10
-10.7321843952
 20
20.5088875684
 30
0.0
 11
0.4025750024
 21
0.2012721715
 31
0.0
 40
0.9998096356
 41
1.1071030277
 42
2.6780516535
  0
ELLIPSE
  5
740
100
AcDbEntity
  8
RACCORDO
100
AcDbEllipse
 62
7
  6
CONTINUOUS
 10
6.4188772867
 20
-20.8590436999
 30
0.0
 11
0.0
 21
0.5
 31
0.0
 40
0.0058178298
 41
-4.133907092
 42
-3.1503192998
  0
ELLIPSE
  5
741
100
AcDbEntity
  8
RACCORDO
100
AcDbEllipse
 62
7
  6
CONTINUOUS
 10
7.3166168276
 20
-21.3914569096
 30
0.0
 11
-0.0
 21
0.5
 31
0.0
 40
0.0058178298
 41
-3.089232776
 42
-1.5707963268
  0
ELLIPSE
  5
742
100
AcDbEntity
  8
RACCORDO
100
AcDbEllipse
 62
7
  6
CONTINUOUS
 10
-7.616353662
 20
-22.4240005404
 30
0.0
 11
0.5
 21
-0.0
 31
0.0
 40
0.0087268678
 41
-3.1241393611
 42
-1.5707963268
  0
ELLIPSE
  5
743
100
AcDbEntity
  8
RACCORDO
100
AcDbEllipse
 62
7
  6
CONTINUOUS
 10
7.5518477763
 20
-22.4240005404
 30
0.0
 11
0.5
 21
-0.0
 31
0.0
 40
0.0087268678
 41
-1.5707963268
 42
-0.0174532925
  0
ELLIPSE
  5
744
100
AcDbEntity
  8
RACCORDO
100
AcDbEllipse
 62
7
  6
CONTINUOUS
 10
-7.616353662
 20
19.5592636832
 30
0.0
 11
0.5
 21
-0.0
 31
0.0
 40
0.0087268678
 41
1.5707963268
 42
3.1241393611
  0
ELLIPSE
  5
745
100
AcDbEntity
  8
RACCORDO
100
AcDbEllipse
 62
7
  6
CONTINUOUS
 10
7.5518477763
 20
19.5592636832
 30
0.0
 11
0.5
 21
-0.0
 31
0.0
 40
0.0087268678
 41
0.0174532925
 42
1.5707963268
  0
ELLIPSE
  5
746
100
AcDbEntity
  8
RACCORDO
100
AcDbEllipse
 62
7
  6
CONTINUOUS
 10
-7.3811227133
 20
-21.3914569096
 30
0.0
 11
-0.0
 21
0.5
 31
0.0
 40
0.0058178298
 41
-4.7123889804
 42
-3.1939525311
  0
ELLIPSE
  5
747
100
AcDbEntity
  8
RACCORDO
100
AcDbEllipse
 62
7
  6
CONTINUOUS
 10
7.3166168276
 20
18.5267200525
 30
0.0
 11
0.0
 21
0.5
 31
0.0
 40
0.0058178298
 41
-1.5707963268
 42
-0.0523598776
  0
ELLIPSE
  5
748
100
AcDbEntity
  8
RACCORDO
100
AcDbEllipse
 62
7
  6
CONTINUOUS
 10
-7.3811227133
 20
18.5267200525
 30
0.0
 11
0.0
 21
0.5
 31
0.0
 40
0.0058178298
 41
0.0523598776
 42
1.5707963268
  0
ELLIPSE
  5
749
100
AcDbEntity
  8
RACCORDO
100
AcDbEllipse
 62
7
  6
CONTINUOUS
 10
-10.432248712
 20
-24.843693294
 30
0.0
 11
-0.0029088041
 21
0.2886641433
 31
0.0
 40
0.8660144118
 41
-0.0087264124
 42
1.5591610446
  0
ELLIPSE
  5
74A
100
AcDbEntity
  8
RACCORDO
100
AcDbEllipse
 62
7
  6
CONTINUOUS
 10
-8.5322571737
 20
-24.843693294
 30
0.0
 11
0.0029088041
 21
0.2886641433
 31
0.0
 40
0.8660144118
 41
-1.5591610446
 42
0.0087264124
  0
ELLIPSE
  5
74B
100
AcDbEntity
  8
RACCORDO
100
AcDbEllipse
 62
7
  6
CONTINUOUS
 10
-6.5875223261
 20
19.1505558546
 30
0.0
 11
0.0
 21
0.5
 31
0.0
 40
0.0058178298
 41
-4.7123889804
 42
-3.1503192998
  0
ELLIPSE
  5
74C
100
AcDbEntity
  8
RACCORDO
100
AcDbEllipse
 62
7
  6
CONTINUOUS
 10
6.5230164403
 20
19.1505558546
 30
0.0
 11
0.0
 21
0.5
 31
0.0
 40
0.0058178298
 41
-3.1328660073
 42
-1.5707963268
  0
ELLIPSE
  5
74D
100
AcDbEntity
  8
RACCORDO
100
AcDbEllipse
 62
7
  6
CONTINUOUS
 10
6.5230164403
 20
-22.0152927118
 30
0.0
 11
0.0
 21
0.5
 31
0.0
 40
0.0058178298
 41
-1.5707963268
 42
-0.0087266463
  0
ELLIPSE
  5
74E
100
AcDbEntity
  8
RACCORDO
100
AcDbEllipse
 62
7
  6
CONTINUOUS
 10
-6.5875223261
 20
-22.0152927118
 30
0.0
 11
0.0
 21
0.5
 31
0.0
 40
0.0058178298
 41
0.0087266463
 42
1.5707963268
  0
ELLIPSE
  5
74F
100
AcDbEntity
  8
RACCORDO
100
AcDbEllipse
 62
7
  6
CONTINUOUS
 10
6.5247617893
 20
18.5246496883
 30
0.0
 11
0.0
 21
0.2
 31
0.0
 40
0.0058178298
 41
-3.1357748894
 42
-1.5707963268
  0
ELLIPSE
  5
750
100
AcDbEntity
  8
RACCORDO
100
AcDbEllipse
 62
7
  6
CONTINUOUS
 10
7.210732325
 20
18.5246496883
 30
0.0
 11
0.0
 21
0.2
 31
0.0
 40
0.0058178298
 41
-4.7123889804
 42
-3.1474104178
  0
ELLIPSE
  5
751
100
AcDbEntity
  8
RACCORDO
100
AcDbEllipse
 62
7
  6
CONTINUOUS
 10
-7.2752382107
 20
18.5246496883
 30
0.0
 11
0.0
 21
0.2
 31
0.0
 40
0.0058178298
 41
-3.1357748894
 42
-1.5707963268
  0
ELLIPSE
  5
752
100
AcDbEntity
  8
RACCORDO
100
AcDbEllipse
 62
7
  6
CONTINUOUS
 10
8.467751288
 20
-24.843693294
 30
0.0
 11
-0.0029088041
 21
0.2886641433
 31
0.0
 40
0.8660144118
 41
-0.0087264124
 42
1.5591610446
  0
ELLIPSE
  5
753
100
AcDbEntity
  8
RACCORDO
100
AcDbEllipse
 62
7
  6
CONTINUOUS
 10
10.3677428263
 20
-24.843693294
 30
0.0
 11
0.0029088041
 21
0.2886641433
 31
0.0
 40
0.8660144118
 41
-1.5591610446
 42
0.0087264124
  0
ELLIPSE
  5
754
100
AcDbEntity
  8
RACCORDO
100
AcDbEllipse
 62
7
  6
CONTINUOUS
 10
-6.589267675
 20
18.5246496883
 30
0.0
 11
0.0
 21
0.2
 31
0.0
 40
0.0058178298
 41
-4.7123889804
 42
-3.1474104178
  0
ELLIPSE
  5
755
100
AcDbEntity
  8
RACCORDO
100
AcDbEllipse
 62
7
  6
CONTINUOUS
 10
-6.589267675
 20
-21.3893865454
 30
0.0
 11
0.0
 21
0.2
 31
0.0
 40
0.0058178298
 41
0.0058177642
 42
1.5707963268
  0
ELLIPSE
  5
756
100
AcDbEntity
  8
RACCORDO
100
AcDbEllipse
 62
7
  6
CONTINUOUS
 10
-7.2752382107
 20
-21.3893865454
 30
0.0
 11
0.0
 21
0.2
 31
0.0
 40
0.0058178298
 41
-1.5707963268
 42
-0.0058177642
  0
ELLIPSE
  5
757
100
AcDbEntity
  8
RACCORDO
100
AcDbEllipse
 62
7
  6
CONTINUOUS
 10
7.210732325
 20
-21.3893865454
 30
0.0
 11
0.0
 21
0.2
 31
0.0
 40
0.0058178298
 41
0.0058177642
 42
1.5707963268
  0
ELLIPSE
  5
758
100
AcDbEntity
  8
RACCORDO
100
AcDbEllipse
 62
7
  6
CONTINUOUS
 10
6.5247617893
 20
-21.3893865454
 30
0.0
 11
-0.0
 21
0.2
 31
0.0
 40
0.0058178298
 41
-1.5707963268
 42
-0.0058177642
  0
ELLIPSE
  5
759
100
AcDbEntity
  8
RACCORDO
100
AcDbEllipse
 62
7
  6
CONTINUOUS
 10
8.467751288
 20
21.9789564368
 30
0.0
 11
0.0029088041
 21
0.2886641433
 31
0.0
 40
0.8660144118
 41
-4.7007536982
 42
-3.1328662411
  0
ELLIPSE
  5
75A
100
AcDbEntity
  8
RACCORDO
100
AcDbEllipse
 62
7
  6
CONTINUOUS
 10
10.3677428263
 20
21.9789564368
 30
0.0
 11
-0.0029088041
 21
0.2886641433
 31
0.0
 40
0.8660144118
 41
-3.150319066
 42
-1.582431609
  0
ELLIPSE
  5
75B
100
AcDbEntity
  8
RACCORDO
100
AcDbEllipse
 62
7
  6
CONTINUOUS
 10
-10.432248712
 20
21.9789564368
 30
0.0
 11
0.0029088041
 21
0.2886641433
 31
0.0
 40
0.8660144118
 41
-4.7007536982
 42
-3.1328662411
  0
ELLIPSE
  5
75C
100
AcDbEntity
  8
RACCORDO
100
AcDbEllipse
 62
7
  6
CONTINUOUS
 10
-8.5322571737
 20
21.9789564368
 30
0.0
 11
-0.0029088041
 21
0.2886641433
 31
0.0
 40
0.8660144118
 41
-3.150319066
 42
-1.582431609
  0
ELLIPSE
  5
75D
100
AcDbEntity
  8
RACCORDO
100
AcDbEllipse
 62
7
  6
CONTINUOUS
 10
-9.1819482868
 20
16.239078254
 30
0.0
 11
1.8480888181
 21
-0.7655034529
 31
0.0
 40
0.9998215708
 41
2.7489566578
 42
3.5342286494
  0
ELLIPSE
  5
75E
100
AcDbEntity
  8
RACCORDO
100
AcDbEllipse
 62
7
  6
CONTINUOUS
 10
-9.1819482868
 20
-19.1038151111
 30
0.0
 11
1.8480888181
 21
0.7655034529
 31
0.0
 40
0.9998215708
 41
2.7489566578
 42
3.5342286494
  0
ELLIPSE
  5
75F
100
AcDbEntity
  8
RACCORDO
100
AcDbEllipse
 62
7
  6
CONTINUOUS
 10
9.1174424011
 20
-19.1038151111
 30
0.0
 11
1.8480888181
 21
-0.7655034529
 31
0.0
 40
0.9998215708
 41
-0.3926359958
 42
0.3926359958
  0
ELLIPSE
  5
760
100
AcDbEntity
  8
RACCORDO
100
AcDbEllipse
 62
7
  6
CONTINUOUS
 10
9.1174424011
 20
16.239078254
 30
0.0
 11
1.8480888181
 21
0.7655034529
 31
0.0
 40
0.9998215708
 41
-0.3926359958
 42
0.3926359958
  0
ELLIPSE
  5
761
100
AcDbEntity
  8
DRAFT
100
AcDbEllipse
 62
7
  6
CONTINUOUS
 10
-4.0322529429
 20
-5.8969981681
 30
0.0
 11
1.8353003752
 21
0.0
 31
0.0
 40
0.0087268678
 41
-3.1328660073
 42
-0.0087266463
  0
ELLIPSE
  5
762
100
AcDbEntity
  8
DRAFT
100
AcDbEllipse
 62
7
  6
CONTINUOUS
 10
3.9677470571
 20
-5.8969981681
 30
0.0
 11
1.8353003752
 21
0.0
 31
0.0
 40
0.0087268678
 41
-3.1328660073
 42
-0.0087266463
  0
ELLIPSE
  5
763
100
AcDbEntity
  8
RACCORDO
100
AcDbEllipse
 62
7
  6
CONTINUOUS
 10
5.9712377976
 20
-6.1551866981
 30
0.0
 11
-0.5774690812
 21
0.9999668392
 31
0.0
 40
0.0141024672
 41
-3.1322831899
 42
-1.5789401556
  0
ELLIPSE
  5
764
100
AcDbEntity
  8
RACCORDO
100
AcDbEllipse
 62
7
  6
CONTINUOUS
 10
-6.0357436833
 20
-6.1551866981
 30
0.0
 11
0.5774690812
 21
0.9999668392
 31
0.0
 40
0.0141024672
 41
-4.7042451516
 42
-3.1509021173
  0
ELLIPSE
  5
765
100
AcDbEntity
  8
RACCORDO
100
AcDbEllipse
 62
7
  6
CONTINUOUS
 10
-8.7050712124
 20
3.4942265371
 30
0.0
 11
0.9999976196
 21
-0.2679777991
 31
0.0
 40
0.0081421982
 41
1.5729782569
 42
3.1263212912
  0
ELLIPSE
  5
766
100
AcDbEntity
  8
RACCORDO
100
AcDbEllipse
 62
7
  6
CONTINUOUS
 10
-2.0287622024
 20
-6.1551866981
 30
0.0
 11
-0.5774690812
 21
0.9999668392
 31
0.0
 40
0.0141024672
 41
-3.1322831899
 42
-1.5789401556
  0
ELLIPSE
  5
767
100
AcDbEntity
  8
RACCORDO
100
AcDbEllipse
 62
7
  6
CONTINUOUS
 10
8.6405653266
 20
3.4942265371
 30
0.0
 11
0.9999976196
 21
0.2679777991
 31
0.0
 40
0.0081421982
 41
0.0152713624
 42
1.5686143967
  0
ELLIPSE
  5
768
100
AcDbEntity
  8
RACCORDO
100
AcDbEllipse
 62
7
  6
CONTINUOUS
 10
-9.0073976375
 20
16.1667770077
 30
0.0
 11
-1.8480888181
 21
0.7655034529
 31
0.0
 40
0.9998215708
 41
-0.3926359958
 42
0.3926359958
  0
ELLIPSE
  5
769
100
AcDbEntity
  8
RACCORDO
100
AcDbEllipse
 62
7
  6
CONTINUOUS
 10
-9.0073976375
 20
-19.0315138649
 30
0.0
 11
1.8480888181
 21
0.7655034529
 31
0.0
 40
0.9998215708
 41
2.7489566578
 42
3.5342286494
  0
ELLIPSE
  5
76A
100
AcDbEntity
  8
RACCORDO
100
AcDbEllipse
 62
7
  6
CONTINUOUS
 10
8.9428917518
 20
-19.0315138649
 30
0.0
 11
1.8480888181
 21
-0.7655034529
 31
0.0
 40
0.9998215708
 41
-0.3926359958
 42
0.3926359958
  0
ELLIPSE
  5
76B
100
AcDbEntity
  8
RACCORDO
100
AcDbEllipse
 62
7
  6
CONTINUOUS
 10
2.3677470571
 20
-21.3344253326
 30
0.0
 11
1.0
 21
-0.0
 31
0.0
 40
0.0176699529
 41
0.1166713885
 42
1.5707963268
  0
ELLIPSE
  5
76C
100
AcDbEntity
  8
RACCORDO
100
AcDbEllipse
 62
7
  6
CONTINUOUS
 10
-2.4322529429
 20
-21.3344253326
 30
0.0
 11
1.0
 21
-0.0
 31
0.0
 40
0.0176699529
 41
1.5707963268
 42
3.0249212651
  0
ELLIPSE
  5
76D
100
AcDbEntity
  8
RACCORDO
100
AcDbEllipse
 62
7
  6
CONTINUOUS
 10
2.3677470571
 20
18.4696884754
 30
0.0
 11
1.0
 21
-0.0
 31
0.0
 40
0.0176699529
 41
-1.5707963268
 42
-0.1166713885
  0
ELLIPSE
  5
76E
100
AcDbEntity
  8
RACCORDO
100
AcDbEllipse
 62
7
  6
CONTINUOUS
 10
-2.4322529429
 20
18.4696884754
 30
0.0
 11
1.0
 21
-0.0
 31
0.0
 40
0.0176699529
 41
-3.0249212651
 42
-1.5707963268
  0
ELLIPSE
  5
76F
100
AcDbEntity
  8
RACCORDO
100
AcDbEllipse
 62
7
  6
CONTINUOUS
 10
8.9428917518
 20
16.1667770077
 30
0.0
 11
-1.8480888181
 21
-0.7655034529
 31
0.0
 40
0.9998215708
 41
2.7489566578
 42
3.5342286494
  0
ELLIPSE
  5
770
100
AcDbEntity
  8
RACCORDO
100
AcDbEllipse
 62
7
  6
CONTINUOUS
 10
8.6405653266
 20
-0.1589633943
 30
0.0
 11
0.9999976196
 21
-0.2679777991
 31
0.0
 40
0.0081421982
 41
-1.5686143967
 42
-0.0152713624
  0
ELLIPSE
  5
771
100
AcDbEntity
  8
RACCORDO
100
AcDbEllipse
 62
7
  6
CONTINUOUS
 10
-8.7050712124
 20
-0.1589633943
 30
0.0
 11
0.9999976196
 21
0.2679777991
 31
0.0
 40
0.0081421982
 41
-3.1263212912
 42
-1.5729782569
  0
ELLIPSE
  5
772
100
AcDbEntity
  8
RACCORDO
100
AcDbEllipse
 62
7
  6
CONTINUOUS
 10
1.9642563167
 20
-6.1551866981
 30
0.0
 11
0.5774690812
 21
0.9999668392
 31
0.0
 40
0.0141024672
 41
-4.7042451516
 42
-3.1509021173
  0
ELLIPSE
  5
773
100
AcDbEntity
  8
RACCORDO
100
AcDbEllipse
 62
7
  6
CONTINUOUS
 10
9.0175947291
 20
-6.5322161005
 30
0.0
 11
0.7073221892
 21
-0.7073221892
 31
0.0
 40
0.9996954599
 41
-0.7852458701
 42
0.7852458701
  0
ELLIPSE
  5
774
100
AcDbEntity
  8
RACCORDO
100
AcDbEllipse
 62
7
  6
CONTINUOUS
 10
-9.0821006148
 20
17.0674792434
 30
0.0
 11
0.7073221892
 21
-0.7073221892
 31
0.0
 40
0.9996954599
 41
2.3563467834
 42
3.9268385237
  0
ELLIPSE
  5
775
100
AcDbEntity
  8
RACCORDO
100
AcDbEllipse
 62
7
  6
CONTINUOUS
 10
9.0175947291
 20
17.0674792434
 30
0.0
 11
0.7073221892
 21
0.7073221892
 31
0.0
 40
0.9996954599
 41
-0.7852458701
 42
0.7852458701
  0
ELLIPSE
  5
776
100
AcDbEntity
  8
RACCORDO
100
AcDbEllipse
 62
7
  6
CONTINUOUS
 10
-9.0821006148
 20
-6.5322161005
 30
0.0
 11
0.7073221892
 21
0.7073221892
 31
0.0
 40
0.9996954599
 41
-3.9268385237
 42
-2.3563467834
  0
ELLIPSE
  5
777
100
AcDbEntity
  8
0
100
AcDbEllipse
 62
7
  6
CONTINUOUS
 10
8.5123324575
 20
1.6676315714
 30
0.0
 11
-0.0
 21
1.6218462458
 31
0.0
 40
0.0087268916
 41
-3.1352043015
 42
-0.0063883521
  0
ELLIPSE
  5
778
100
AcDbEntity
  8
0
100
AcDbEllipse
 62
7
  6
CONTINUOUS
 10
-8.5768383433
 20
1.6676315714
 30
0.0
 11
-0.0
 21
1.6218462458
 31
0.0
 40
0.0087268916
 41
0.0063883521
 42
3.1352043015
  0
ELLIPSE
  5
779
100
AcDbEntity
  8
0
100
AcDbEllipse
 62
7
  6
CONTINUOUS
 10
3.9677470571
 20
-5.8969981681
 30
0.0
 11
1.8353003752
 21
0.0
 31
0.0
 40
0.0087268678
 41
-3.1328660073
 42
-0.0087266463
  0
ELLIPSE
  5
77A
100
AcDbEntity
  8
0
100
AcDbEllipse
 62
7
  6
CONTINUOUS
 10
-4.0322529429
 20
-5.8969981681
 30
0.0
 11
1.8353003752
 21
0.0
 31
0.0
 40
0.0087268678
 41
-3.1328660073
 42
-0.0087266463
  0
ELLIPSE
  5
77B
100
AcDbEntity
  8
0
100
AcDbEllipse
 62
7
  6
CONTINUOUS
 10
9.1174424011
 20
16.239078254
 30
0.0
 11
1.8480888181
 21
0.7655034529
 31
0.0
 40
0.9998215708
 41
-0.3926359958
 42
0.3926359958
  0
ELLIPSE
  5
77C
100
AcDbEntity
  8
0
100
AcDbEllipse
 62
7
  6
CONTINUOUS
 10
9.1174424011
 20
-19.1038151111
 30
0.0
 11
1.8480888181
 21
-0.7655034529
 31
0.0
 40
0.9998215708
 41
-0.3926359958
 42
0.3926359958
  0
ELLIPSE
  5
77D
100
AcDbEntity
  8
0
100
AcDbEllipse
 62
7
  6
CONTINUOUS
 10
-9.1819482868
 20
-19.1038151111
 30
0.0
 11
1.8480888181
 21
0.7655034529
 31
0.0
 40
0.9998215708
 41
2.7489566578
 42
3.5342286494
  0
ELLIPSE
  5
77E
100
AcDbEntity
  8
0
100
AcDbEllipse
 62
7
  6
CONTINUOUS
 10
-9.1819482868
 20
16.239078254
 30
0.0
 11
1.8480888181
 21
-0.7655034529
 31
0.0
 40
0.9998215708
 41
2.7489566578
 42
3.5342286494
  0
ELLIPSE
  5
77F
100
AcDbEntity
  8
0
100
AcDbEllipse
 62
7
  6
CONTINUOUS
 10
-10.0460566823
 20
1.6676315714
 30
0.0
 11
0.0
 21
2.0155045024
 31
0.0
 40
0.0174552558
 41
0.0040496413
 42
3.1375430123
  0
ELLIPSE
  5
780
100
AcDbEntity
  8
0
100
AcDbEllipse
 62
7
  6
CONTINUOUS
 10
9.9815507966
 20
1.6676315714
 30
0.0
 11
-0.0
 21
2.0155045024
 31
0.0
 40
0.0174552558
 41
-3.1375430123
 42
-0.0040496413
  0
ELLIPSE
  5
781
100
AcDbEntity
  8
0
100
AcDbEllipse
 62
7
  6
CONTINUOUS
 10
8.9428917518
 20
16.1667770077
 30
0.0
 11
-1.8480888181
 21
-0.7655034529
 31
0.0
 40
0.9998215708
 41
2.7489566578
 42
3.5342286494
  0
ELLIPSE
  5
782
100
AcDbEntity
  8
0
100
AcDbEllipse
 62
7
  6
CONTINUOUS
 10
8.9428917518
 20
-19.0315138649
 30
0.0
 11
1.8480888181
 21
-0.7655034529
 31
0.0
 40
0.9998215708
 41
-0.3926359958
 42
0.3926359958
  0
ELLIPSE
  5
783
100
AcDbEntity
  8
0
100
AcDbEllipse
 62
7
  6
CONTINUOUS
 10
-9.0073976375
 20
-19.0315138649
 30
0.0
 11
1.8480888181
 21
0.7655034529
 31
0.0
 40
0.9998215708
 41
2.7489566578
 42
3.5342286494
  0
ELLIPSE
  5
784
100
AcDbEntity
  8
0
100
AcDbEllipse
 62
7
  6
CONTINUOUS
 10
-9.0073976375
 20
16.1667770077
 30
0.0
 11
-1.8480888181
 21
0.7655034529
 31
0.0
 40
0.9998215708
 41
-0.3926359958
 42
0.3926359958
  0
ELLIPSE
  5
785
100
AcDbEntity
  8
0
100
AcDbEllipse
 62
7
  6
CONTINUOUS
 10
8.6405653266
 20
3.4942265371
 30
0.0
 11
0.9999976196
 21
0.2679777991
 31
0.0
 40
0.0081421982
 41
0.0152713624
 42
1.5686143967
  0
ELLIPSE
  5
786
100
AcDbEntity
  8
0
100
AcDbEllipse
 62
7
  6
CONTINUOUS
 10
-8.7050712124
 20
3.4942265371
 30
0.0
 11
0.9999976196
 21
-0.2679777991
 31
0.0
 40
0.0081421982
 41
1.5729782569
 42
3.1263212912
  0
ELLIPSE
  5
787
100
AcDbEntity
  8
0
100
AcDbEllipse
 62
7
  6
CONTINUOUS
 10
-6.0357436833
 20
-6.1551866981
 30
0.0
 11
0.5774690812
 21
0.9999668392
 31
0.0
 40
0.0141024672
 41
-4.7042451516
 42
-3.1509021173
  0
ELLIPSE
  5
788
100
AcDbEntity
  8
0
100
AcDbEllipse
 62
7
  6
CONTINUOUS
 10
-8.7050712124
 20
-0.1589633943
 30
0.0
 11
0.9999976196
 21
0.2679777991
 31
0.0
 40
0.0081421982
 41
-3.1263212912
 42
-1.5729782569
  0
ELLIPSE
  5
789
100
AcDbEntity
  8
0
100
AcDbEllipse
 62
7
  6
CONTINUOUS
 10
8.6405653266
 20
-0.1589633943
 30
0.0
 11
0.9999976196
 21
-0.2679777991
 31
0.0
 40
0.0081421982
 41
-1.5686143967
 42
-0.0152713624
  0
ELLIPSE
  5
78A
100
AcDbEntity
  8
0
100
AcDbEllipse
 62
7
  6
CONTINUOUS
 10
5.9712377976
 20
-6.1551866981
 30
0.0
 11
-0.5774690812
 21
0.9999668392
 31
0.0
 40
0.0141024672
 41
-3.1322831899
 42
-1.5789401556
  0
ELLIPSE
  5
78B
100
AcDbEntity
  8
0
100
AcDbEllipse
 62
7
  6
CONTINUOUS
 10
1.9642563167
 20
-6.1551866981
 30
0.0
 11
0.5774690812
 21
0.9999668392
 31
0.0
 40
0.0141024672
 41
-4.7042451516
 42
-3.1509021173
  0
ELLIPSE
  5
78C
100
AcDbEntity
  8
0
100
AcDbEllipse
 62
7
  6
CONTINUOUS
 10
-2.0287622024
 20
-6.1551866981
 30
0.0
 11
-0.5774690812
 21
0.9999668392
 31
0.0
 40
0.0141024672
 41
-3.1322831899
 42
-1.5789401556
  0
ELLIPSE
  5
78D
100
AcDbEntity
  8
0
100
AcDbEllipse
 62
7
  6
CONTINUOUS
 10
2.3677470571
 20
-21.3344253326
 30
0.0
 11
1.0
 21
-0.0
 31
0.0
 40
0.0176699529
 41
0.1166713885
 42
1.5707963268
  0
ELLIPSE
  5
78E
100
AcDbEntity
  8
0
100
AcDbEllipse
 62
7
  6
CONTINUOUS
 10
-9.0821006148
 20
-6.5322161005
 30
0.0
 11
0.7073221892
 21
0.7073221892
 31
0.0
 40
0.9996954599
 41
-3.9268385237
 42
-2.3563467834
  0
ELLIPSE
  5
78F
100
AcDbEntity
  8
0
100
AcDbEllipse
 62
7
  6
CONTINUOUS
 10
9.0175947291
 20
17.0674792434
 30
0.0
 11
0.7073221892
 21
0.7073221892
 31
0.0
 40
0.9996954599
 41
-0.7852458701
 42
0.7852458701
  0
ELLIPSE
  5
790
100
AcDbEntity
  8
0
100
AcDbEllipse
 62
7
  6
CONTINUOUS
 10
-9.0821006148
 20
17.0674792434
 30
0.0
 11
0.7073221892
 21
-0.7073221892
 31
0.0
 40
0.9996954599
 41
2.3563467834
 42
3.9268385237
  0
ELLIPSE
  5
791
100
AcDbEntity
  8
0
100
AcDbEllipse
 62
7
  6
CONTINUOUS
 10
9.0175947291
 20
-6.5322161005
 30
0.0
 11
0.7073221892
 21
-0.7073221892
 31
0.0
 40
0.9996954599
 41
-0.7852458701
 42
0.7852458701
  0
ELLIPSE
  5
792
100
AcDbEntity
  8
0
100
AcDbEllipse
 62
7
  6
CONTINUOUS
 10
-2.4322529429
 20
-21.3344253326
 30
0.0
 11
1.0
 21
0.0
 31
0.0
 40
0.0176699529
 41
1.5707963268
 42
3.0249212651
  0
ELLIPSE
  5
793
100
AcDbEntity
  8
0
100
AcDbEllipse
 62
7
  6
CONTINUOUS
 10
2.3677470571
 20
18.4696884754
 30
0.0
 11
1.0
 21
-0.0
 31
0.0
 40
0.0176699529
 41
-1.5707963268
 42
-0.1166713885
  0
ELLIPSE
  5
794
100
AcDbEntity
  8
0
100
AcDbEllipse
 62
7
  6
CONTINUOUS
 10
-2.4322529429
 20
18.4696884754
 30
0.0
 11
1.0
 21
-0.0
 31
0.0
 40
0.0176699529
 41
-3.0249212651
 42
-1.5707963268
  0
ELLIPSE
  5
795
100
AcDbEntity
  8
0
100
AcDbEllipse
 62
253
  6
CONTINUOUS
 10
11.0580333028
 20
3.2484265714
 30
0.0
 11
-0.0
 21
0.352865
 31
0.0
 40
0.0174497484
 41
-4.7123889804
 42
-1.5707963268
  0
ENDSEC
  0
SECTION
  2
OBJECTS
  0
DICTIONARY
  5
C
100
AcDbDictionary
280
0
281
1
  3
ACAD_GROUP
350
D
  3
ACAD_MLINESTYLE
350
17
  3
ACAD_LAYOUT
350
1A
  3
ACAD_PLOTSETTINGS
350
19
  3
ACAD_PLOTSTYLENAME
350
E
  0
DICTIONARY
  5
D
102
{ACAD_REACTORS
330
C
102
}
100
AcDbDictionary
280
0
281
1
  0
ACDBDICTIONARYWDFLT
  5
E
102
{ACAD_REACTORS
330
C
102
}
100
AcDbDictionary
281
1
  3
Normal
350
F
100
AcDbDictionaryWithDefault
340
F
  0
DICTIONARY
  5
17
102
{ACAD_REACTORS
330
C
102
}
100
AcDbDictionary
280
0
281
1
  3
Standard
350
18
  0
DICTIONARY
  5
19
102
{ACAD_REACTORS
330
C
102
}
100
AcDbDictionary
281
1
  0
DICTIONARY
  5
1A
102
{ACAD_REACTORS
330
C
102
}
100
AcDbDictionary
281
1
  3
Model
350
796
  3
Layout1
350
797
  0
ACDBPLACEHOLDER
  5
F
102
{ACAD_REACTORS
330
E
102
}
  0
MLINESTYLE
  5
18
102
{ACAD_REACTORS
330
17
102
}
100
AcDbMlineStyle
  2
STANDARD
 70
0
  3

 62
256
 51
90.0
 52
90.0
 71
2
 49
0.5
 62
256
  6
BYLAYER
 49
-0.5
 62
256
  6
BYLAYER
  0
LAYOUT
  5
796
102
{ACAD_REACTORS
330
1A
102
}
100
AcDbPlotSettings
  1

  2
none_device
  4
ISO_A4_(297.00_x_210.00_MM)
  6

 40
0.0
 41
0.0
 42
0.0
 43
0.0
 44
297.0
 45
210.0
 46
0.0
 47
0.0
 48
0.0
 49
0.0
140
0.0
141
0.0
142
1.0
143
1.0
 70
1024
 72
1
 73
0
 74
0
  7

 75
0
147
1.0
148
0.0
149
0.0
100
AcDbLayout
  1
Model
 70
0
 71
0
 10
0.0
 20
0.0
 11
297.0
 21
210.0
 12
0.0
 22
0.0
 32
0.0
 14
0.0
 24
0.0
 34
0.0
 15
0.0
 25
0.0
 35
0.0
146
0.0
 13
0.0
 23
0.0
 33
0.0
 16
1.0
 26
0.0
 36
0.0
 17
0.0
 27
1.0
 37
0.0
 76
0
330
211
345
0
346
0
  0
LAYOUT
  5
797
102
{ACAD_REACTORS
330
1A
102
}
100
AcDbPlotSettings
  1

  2
none_device
  4
ISO_A4_(297.00_x_210.00_MM)
  6

 40
0.0
 41
0.0
 42
0.0
 43
0.0
 44
297.0
 45
210.0
 46
0.0
 47
0.0
 48
0.0
 49
0.0
140
0.0
141
0.0
142
1.0
143
1.0
 70
0
 72
1
 73
0
 74
0
  7

 75
0
147
1.0
148
0.0
149
0.0
100
AcDbLayout
  1
Layout1
 70
0
 71
1
 10
0.0
 20
0.0
 11
297.0
 21
210.0
 12
0.0
 22
0.0
 32
0.0
 14
0.0
 24
0.0
 34
0.0
 15
0.0
 25
0.0
 35
0.0
146
0.0
 13
0.0
 23
0.0
 33
0.0
 16
1.0
 26
0.0
 36
0.0
 17
0.0
 27
1.0
 37
0.0
 76
0
330
212
345
0
346
0
  0
ENDSEC
  0
EOF
