0
SECTION
2
HEADER
9
$ACADVER
1
AC1014
9
$HANDSEED
5
       468
9
$EXTMAX
10
297.0000000000
20
210.0000000000
9
$EXTMIN
10
0.0000000000
20
0.0000000000
9
$LIMMIN
10
0.0000000000
20
0.0000000000
9
$LIMMAX
10
297.0000000000
20
210.0000000000
9
$VIEWCTR
10
148.5000000000
20
105.0000000000
9
$VIEWSIZE
40
210.0000000000
9
$CLAYER
8
0
9
$LTSCALE
40
16.3350000000
9
$CELTYPE
6
BYLAYER
9
$DIMSCALE
40
1
9
$DIMASZ
40
3.0000000000
9
$DIMEXO
40
1.8562500000
9
$DIMDLI
40
11.2860000000
9
$DIMEXE
40
5.3460000000
9
$DIMCEN
40
2.6730000000
9
$DIMLFAC
40
1.0000000000
9
$DIMTXT
40
3.0000000000
9
$DIMTOL
70
1
9
$DIMLIM
70
0
9
$DIMTFAC
40
1.0000000000
9
$DIMTP
40
0.0100000000
9
$DIMTM
40
0.0100000000
9
$MEASUREMENT
70
1
0
ENDSEC
0
SECTION
2
CLASSES
0
ENDSEC
0
SECTION
2
TABLES
0
TABLE
2
VPORT
5
8
100
AcDbSymbolTable
70
2
0
VPORT
5
1F4
100
AcDbSymbolTableRecord
100
AcDbViewportTableRecord
2
*ACTIVE
70
0
10
0.0
20
0.0
11
1.0
21
1.0
12
148.5000000000
22
105.0000000000
13
0.0
23
0.0
14
1.0
24
1.0
15
0.0
25
0.0
16
0.0
26
0.0
36
1.0
17
0.0
27
0.0
37
0.0
40
210.0000000000
41
1.4142857143
42
50.0
43
0.0
44
0.0
50
0.0
51
0.0
71
0
72
100
73
1
74
1
75
0
76
0
77
0
78
0
0
ENDTAB
0
TABLE
2
LTYPE
5
5
100
AcDbSymbolTable
70
6
0
LTYPE
5
14
100
AcDbSymbolTableRecord
100
AcDbLinetypeTableRecord
2
BYBLOCK
70
0
3

72
65
73
0
40
0.0
0
LTYPE
5
15
100
AcDbSymbolTableRecord
100
AcDbLinetypeTableRecord
2
BYLAYER
70
0
3

72
65
73
0
40
0.0
0
LTYPE
5
16
100
AcDbSymbolTableRecord
100
AcDbLinetypeTableRecord
2
CONTINUOUS
70
64
3
Solid line
72
65
73
0
40
0
0
LTYPE
5
1F5
100
AcDbSymbolTableRecord
100
AcDbLinetypeTableRecord
2
CENTER
70
64
3
____ _ ____ _ ____ _ ____ _ ____ _ ____ _ ____
72
65
73
4
40
0.6
49
0.375
74
0
49
-0.075
74
0
49
0.075
74
0
49
-0.075
74
0
0
LTYPE
5
1F6
100
AcDbSymbolTableRecord
100
AcDbLinetypeTableRecord
2
HIDDEN
70
64
3
- - - - - - - - - - - - - - - - - - - -
72
65
73
2
40
0.2
49
0.1
74
0
49
-0.1
74
0
0
LTYPE
5
1F7
100
AcDbSymbolTableRecord
100
AcDbLinetypeTableRecord
2
PHANTOM
70
64
3
_____ _ _ _____ _ _ _____ _ _ _____
72
65
73
6
40
0.8
49
0.45
74
0
49
-0.05
74
0
49
0.1
74
0
49
-0.05
74
0
49
0.1
74
0
49
-0.05
74
0
0
LTYPE
5
1F8
100
AcDbSymbolTableRecord
100
AcDbLinetypeTableRecord
2
DOT
70
64
3
. . . . . . . . . . . . . . . . . . . .
72
65
73
2
40
0.2
49
0.1
74
0
49
-0.1
74
0
0
LTYPE
5
1F9
100
AcDbSymbolTableRecord
100
AcDbLinetypeTableRecord
2
DASHED
70
64
3
- - - - - - - - - - - - - - - - - - - -
72
65
73
2
40
0.2
49
0.1
74
0
49
-0.1
74
0
0
ENDTAB
0
TABLE
2
LAYER
5
2
100
AcDbSymbolTable
70
36
0
LAYER
5
10
100
AcDbSymbolTableRecord
100
AcDbLayerTableRecord
2
0
70
0
62
7
6
CONTINUOUS
0
LAYER
5
1FA
100
AcDbSymbolTableRecord
100
AcDbLayerTableRecord
2
DEFAULT_1
70
0
62
7
6
CENTER
0
LAYER
5
1FB
100
AcDbSymbolTableRecord
100
AcDbLayerTableRecord
2
DEFAULT_2
70
0
62
8
6
HIDDEN
0
LAYER
5
1FC
100
AcDbSymbolTableRecord
100
AcDbLayerTableRecord
2
DEFAULT_3
70
0
62
7
6
PHANTOM
0
LAYER
5
1FD
100
AcDbSymbolTableRecord
100
AcDbLayerTableRecord
2
_BLACK_HOLE
70
0
62
7
6
CONTINUOUS
0
LAYER
5
1FE
100
AcDbSymbolTableRecord
100
AcDbLayerTableRecord
2
ASSI
70
0
62
7
6
CONTINUOUS
0
LAYER
5
1FF
100
AcDbSymbolTableRecord
100
AcDbLayerTableRecord
2
COORDINATE
70
0
62
7
6
CONTINUOUS
0
LAYER
5
200
100
AcDbSymbolTableRecord
100
AcDbLayerTableRecord
2
COORD_ORIGINE
70
0
62
7
6
CONTINUOUS
0
LAYER
5
201
100
AcDbSymbolTableRecord
100
AcDbLayerTableRecord
2
CURVE
70
0
62
7
6
CONTINUOUS
0
LAYER
5
202
100
AcDbSymbolTableRecord
100
AcDbLayerTableRecord
2
DRAFT
70
0
62
7
6
CONTINUOUS
0
LAYER
5
203
100
AcDbSymbolTableRecord
100
AcDbLayerTableRecord
2
IMPORT
70
0
62
7
6
CONTINUOUS
0
LAYER
5
204
100
AcDbSymbolTableRecord
100
AcDbLayerTableRecord
2
LAY0001
70
0
62
7
6
CONTINUOUS
0
LAYER
5
205
100
AcDbSymbolTableRecord
100
AcDbLayerTableRecord
2
NOTE
70
0
62
7
6
CONTINUOUS
0
LAYER
5
206
100
AcDbSymbolTableRecord
100
AcDbLayerTableRecord
2
PIANI
70
0
62
7
6
CONTINUOUS
0
LAYER
5
207
100
AcDbSymbolTableRecord
100
AcDbLayerTableRecord
2
PIANI_ORIGINE
70
0
62
7
6
CONTINUOUS
0
LAYER
5
208
100
AcDbSymbolTableRecord
100
AcDbLayerTableRecord
2
PIANI_RIFERIMENTO
70
0
62
7
6
CONTINUOUS
0
LAYER
5
209
100
AcDbSymbolTableRecord
100
AcDbLayerTableRecord
2
PUNTI
70
0
62
7
6
CONTINUOUS
0
LAYER
5
20A
100
AcDbSymbolTableRecord
100
AcDbLayerTableRecord
2
RACCORDO
70
0
62
7
6
CONTINUOUS
0
LAYER
5
20B
100
AcDbSymbolTableRecord
100
AcDbLayerTableRecord
2
SMUSSO
70
0
62
7
6
CONTINUOUS
0
LAYER
5
20C
100
AcDbSymbolTableRecord
100
AcDbLayerTableRecord
2
SNAPLINE
70
0
62
7
6
CONTINUOUS
0
LAYER
5
20D
100
AcDbSymbolTableRecord
100
AcDbLayerTableRecord
2
SUPERFICI
70
0
62
7
6
CONTINUOUS
0
LAYER
5
20E
100
AcDbSymbolTableRecord
100
AcDbLayerTableRecord
2
TRASH
70
0
62
7
6
CONTINUOUS
0
LAYER
5
20F
100
AcDbSymbolTableRecord
100
AcDbLayerTableRecord
2
XSEC_DATUMS
70
0
62
7
6
CONTINUOUS
0
ENDTAB
0
TABLE
2
STYLE
5
3
100
AcDbSymbolTable
70
1
0
STYLE
5
11
100
AcDbSymbolTableRecord
100
AcDbTextStyleTableRecord
2
STANDARD
70
0
40
0.0
41
0.8000000000
50
0.0
71
0
42
0.2
3
txt
4

0
ENDTAB
0
TABLE
2
VIEW
5
6
100
AcDbSymbolTable
70
0
0
ENDTAB
0
TABLE
2
UCS
5
7
100
AcDbSymbolTable
70
0
0
ENDTAB
0
TABLE
2
APPID
5
9
100
AcDbSymbolTable
70
1
0
APPID
5
210
100
AcDbSymbolTableRecord
100
AcDbRegAppTableRecord
2
ACAD
70
0
0
ENDTAB
0
TABLE
2
DIMSTYLE
5
A
100
AcDbSymbolTable
70
1
0
DIMSTYLE
105
211
100
AcDbSymbolTableRecord
100
AcDbDimStyleTableRecord
2
STANDARD
70
0
3

4

5

6

7

40
1.0
41
3.0000000000
42
0.0625
43
0.38
44
0.18
45
0.0
46
0.0
47
0.0100000000
48
0.0100000000
140
3.0000000000
141
0.09
142
0.0
143
25.4
144
1.0000000000
145
0.0
146
1.0000000000
147
0.09
71
1
72
0
73
0
74
0
75
0
76
0
77
1
78
8
170
0
171
2
172
0
173
0
174
0
175
0
176
0
177
0
178
0
270
2
271
2
272
2
273
2
274
2
340
11
275
0
280
0
281
0
282
0
283
1
284
8
285
0
286
0
287
3
288
0
0
ENDTAB
0
TABLE
2
BLOCK_RECORD
5
1
100
AcDbSymbolTable
70
0
0
BLOCK_RECORD
5
1B
100
AcDbSymbolTableRecord
100
AcDbBlockTableRecord
2
*MODEL_SPACE
0
BLOCK_RECORD
5
1C
100
AcDbSymbolTableRecord
100
AcDbBlockTableRecord
2
*PAPER_SPACE
0
ENDTAB
0
ENDSEC
0
SECTION
2
BLOCKS
0
BLOCK
5
1E
100
AcDbEntity
8
0
100
AcDbBlockBegin
2
*MODEL_SPACE
70
0
10
0.0
20
0.0
30
0.0
3
*MODEL_SPACE
1

0
ENDBLK
5
1F
100
AcDbEntity
8
0
100
AcDbBlockEnd
0
BLOCK
5
20
100
AcDbEntity
8
0
100
AcDbBlockBegin
2
*PAPER_SPACE
70
0
10
0.0
20
0.0
30
0.0
3
*PAPER_SPACE
1

0
ENDBLK
5
21
100
AcDbEntity
8
0
100
AcDbBlockEnd
0
ENDSEC
0
SECTION
2
ENTITIES
0
LINE
5
212
100
AcDbEntity
8
0
100
AcDbLine
62
9
6
CONTINUOUS
10
-10.1264839060
20
22.3664121357
11
-10.1090288410
21
22.3751390035
0
LINE
5
213
100
AcDbEntity
8
0
100
AcDbLine
62
7
6
CONTINUOUS
10
-9.8766404619
20
-24.5248609965
11
-7.9766320003
21
-24.5248609965
0
LINE
5
214
100
AcDbEntity
8
0
100
AcDbLine
62
7
6
CONTINUOUS
10
9.0233595381
20
-24.5248609965
11
10.9233679997
21
-24.5248609965
0
LINE
5
215
100
AcDbEntity
8
0
100
AcDbLine
62
9
6
CONTINUOUS
10
-9.8722686279
20
-24.5204891625
11
-7.9810038343
21
-24.5204891625
0
LINE
5
216
100
AcDbEntity
8
0
100
AcDbLine
62
9
6
CONTINUOUS
10
9.0277313721
20
-24.5204891625
11
10.9189961657
21
-24.5204891625
0
LINE
5
217
100
AcDbEntity
8
0
100
AcDbLine
62
9
6
CONTINUOUS
10
-7.7310080651
20
-24.2704933933
11
-10.1222643971
21
-24.2704933933
0
LINE
5
218
100
AcDbEntity
8
0
100
AcDbLine
62
9
6
CONTINUOUS
10
8.7777356029
20
-24.2704933933
11
11.1689919349
21
-24.2704933933
0
LINE
5
219
100
AcDbEntity
8
0
100
AcDbLine
62
9
6
CONTINUOUS
10
-7.7310080651
20
-23.8691985638
11
-10.1222643971
21
-23.8691985638
0
LINE
5
21A
100
AcDbEntity
8
0
100
AcDbLine
62
7
6
CONTINUOUS
10
-3.8766362311
20
-23.8248609965
11
4.9233637689
21
-23.8248609965
0
LINE
5
21B
100
AcDbEntity
8
0
100
AcDbLine
62
7
6
CONTINUOUS
10
-2.9766362311
20
-23.8190431667
11
4.0233637689
21
-23.8190431667
0
LINE
5
21C
100
AcDbEntity
8
0
100
AcDbLine
62
9
6
CONTINUOUS
10
-3.8329855842
20
-23.7812103497
11
-2.9766362311
21
-23.7812103497
0
LINE
5
21D
100
AcDbEntity
8
0
100
AcDbLine
62
9
6
CONTINUOUS
10
4.0233637689
20
-23.7812103497
11
4.8797131220
21
-23.7812103497
0
LINE
5
21E
100
AcDbEntity
8
0
100
AcDbLine
62
7
6
CONTINUOUS
10
9.0277313721
20
-23.7248609965
11
10.9189961657
21
-23.7248609965
0
LINE
5
21F
100
AcDbEntity
8
0
100
AcDbLine
62
9
6
CONTINUOUS
10
-7.9810038343
20
-23.6526922129
11
-9.8722686279
21
-23.6526922129
0
LINE
5
220
100
AcDbEntity
8
0
100
AcDbLine
62
9
6
CONTINUOUS
10
-10.1090288410
20
-22.4248609965
11
-10.1232380084
21
-22.4177569539
0
LINE
5
221
100
AcDbEntity
8
0
100
AcDbLine
62
9
6
CONTINUOUS
10
-7.9810038343
20
24.4707671695
11
-7.9766320003
21
24.4751390035
0
LINE
5
222
100
AcDbEntity
8
0
100
AcDbLine
62
9
6
CONTINUOUS
10
-7.7310080651
20
24.2207714003
11
-7.7266362311
21
24.2251432343
0
LINE
5
223
100
AcDbEntity
8
0
100
AcDbLine
62
7
6
CONTINUOUS
10
-7.5606607978
20
20.9668472677
11
-7.7231489402
21
20.8856093839
0
LINE
5
224
100
AcDbEntity
8
0
100
AcDbLine
62
7
6
CONTINUOUS
10
10.9240867668
20
-23.1475107273
11
9.0226407710
21
-23.1475107273
0
LINE
5
225
100
AcDbEntity
8
0
100
AcDbLine
62
7
6
CONTINUOUS
10
-7.9759132332
20
-23.1475107273
11
-9.8773592290
21
-23.1475107273
0
LINE
5
226
100
AcDbEntity
8
0
100
AcDbLine
62
7
6
CONTINUOUS
10
4.9233637689
20
-22.4248609965
11
11.1557563788
21
-22.4248609965
0
LINE
5
227
100
AcDbEntity
8
0
100
AcDbLine
62
7
6
CONTINUOUS
10
-3.8766362311
20
-22.4248609965
11
-10.1090288410
21
-22.4248609965
0
LINE
5
228
100
AcDbEntity
8
0
100
AcDbLine
62
7
6
CONTINUOUS
10
-10.1264839060
20
-22.4161341287
11
-6.7353630989
21
-22.4161341287
0
LINE
5
229
100
AcDbEntity
8
0
100
AcDbLine
62
7
6
CONTINUOUS
10
-2.9766362311
20
-22.4161341287
11
-2.4766362311
21
-22.4161341287
0
LINE
5
22A
100
AcDbEntity
8
0
100
AcDbLine
62
7
6
CONTINUOUS
10
3.5233637689
20
-22.4161341287
11
4.0233637689
21
-22.4161341287
0
LINE
5
22B
100
AcDbEntity
8
0
100
AcDbLine
62
7
6
CONTINUOUS
10
7.7820906367
20
-22.4161341287
11
11.1732114437
21
-22.4161341287
0
LINE
5
22C
100
AcDbEntity
8
0
100
AcDbLine
62
9
6
CONTINUOUS
10
-6.8139810643
20
-22.3375161633
11
-2.4766362311
21
-22.3375161633
0
LINE
5
22D
100
AcDbEntity
8
0
100
AcDbLine
62
9
6
CONTINUOUS
10
3.5233637689
20
-22.3375161633
11
7.8607086021
21
-22.3375161633
0
LINE
5
22E
100
AcDbEntity
8
0
100
AcDbLine
62
7
6
CONTINUOUS
10
3.5233637689
20
-21.7248609965
11
-2.4766362311
21
-21.7248609965
0
LINE
5
22F
100
AcDbEntity
8
0
100
AcDbLine
62
7
6
CONTINUOUS
10
-7.5606607978
20
-21.0165692607
11
-7.7231489402
21
-20.9353313770
0
LINE
5
230
100
AcDbEntity
8
0
100
AcDbLine
62
9
6
CONTINUOUS
10
-7.9810038343
20
-24.5204891625
11
-7.9766320003
21
-24.5248609965
0
LINE
5
231
100
AcDbEntity
8
0
100
AcDbLine
62
9
6
CONTINUOUS
10
-7.7310080651
20
-24.2704933933
11
-7.7266362311
21
-24.2748652273
0
LINE
5
232
100
AcDbEntity
8
0
100
AcDbLine
62
7
6
CONTINUOUS
10
-7.7266362311
20
21.3751390035
11
-6.7353630989
21
22.3664121357
0
LINE
5
233
100
AcDbEntity
8
0
100
AcDbLine
62
9
6
CONTINUOUS
10
-7.0607369503
20
-21.3375542402
11
-2.4766362311
21
-21.3375542402
0
LINE
5
234
100
AcDbEntity
8
0
100
AcDbLine
62
9
6
CONTINUOUS
10
3.5233637689
20
-21.3375542402
11
8.1074644881
21
-21.3375542402
0
LINE
5
235
100
AcDbEntity
8
0
100
AcDbLine
62
7
6
CONTINUOUS
10
-2.4766362311
20
-21.0248609965
11
3.5233637689
21
-21.0248609965
0
LINE
5
236
100
AcDbEntity
8
0
100
AcDbLine
62
7
6
CONTINUOUS
10
-7.0607369503
20
-21.0208565422
11
-6.7184579330
21
-21.0208565422
0
LINE
5
237
100
AcDbEntity
8
0
100
AcDbLine
62
7
6
CONTINUOUS
10
7.7651854708
20
-21.0208565422
11
8.1074644881
21
-21.0208565422
0
LINE
5
238
100
AcDbEntity
8
0
100
AcDbLine
62
7
6
CONTINUOUS
10
-7.7231489402
20
-20.9353313770
11
-6.7754739057
21
-20.9353313770
0
LINE
5
239
100
AcDbEntity
8
0
100
AcDbLine
62
7
6
CONTINUOUS
10
7.8222014435
20
-20.9353313770
11
8.7698764780
21
-20.9353313770
0
LINE
5
23A
100
AcDbEntity
8
0
100
AcDbLine
62
7
6
CONTINUOUS
10
-8.6270168308
20
-20.9248609965
11
-7.7266362311
21
-20.9248609965
0
LINE
5
23B
100
AcDbEntity
8
0
100
AcDbLine
62
7
6
CONTINUOUS
10
8.7733637689
20
-20.9248609965
11
9.6737443686
21
-20.9248609965
0
LINE
5
23C
100
AcDbEntity
8
0
100
AcDbLine
62
9
6
CONTINUOUS
10
7.0815420670
20
-20.6077852797
11
-6.0348145292
21
-20.6077852797
0
LINE
5
23D
100
AcDbEntity
8
0
100
AcDbLine
62
7
6
CONTINUOUS
10
9.5183942908
20
-20.4584317609
11
7.8751424542
21
-20.4584317609
0
LINE
5
23E
100
AcDbEntity
8
0
100
AcDbLine
62
7
6
CONTINUOUS
10
-6.8284149164
20
-20.4584317609
11
-8.4716667530
21
-20.4584317609
0
LINE
5
23F
100
AcDbEntity
8
0
100
AcDbLine
62
9
6
CONTINUOUS
10
7.0786585368
20
-20.1078043182
11
-6.0319309991
21
-20.1078043182
0
LINE
5
240
100
AcDbEntity
8
0
100
AcDbLine
62
7
6
CONTINUOUS
10
-5.9248575458
20
-19.9471918732
11
6.9715850836
21
-19.9471918732
0
LINE
5
241
100
AcDbEntity
8
0
100
AcDbLine
62
7
6
CONTINUOUS
10
-6.7353630989
20
-22.4161341287
11
-7.7266362311
21
-21.4248609965
0
LINE
5
242
100
AcDbEntity
8
0
100
AcDbLine
62
7
6
CONTINUOUS
10
-6.7184579330
20
20.9711345492
11
-6.7754739057
21
20.8856093839
0
LINE
5
243
100
AcDbEntity
8
0
100
AcDbLine
62
7
6
CONTINUOUS
10
-6.7184579330
20
-21.0208565422
11
-6.7754739057
21
-20.9353313770
0
LINE
5
244
100
AcDbEntity
8
0
100
AcDbLine
62
7
6
CONTINUOUS
10
-8.9712861532
20
12.4751390035
11
-9.1266362311
21
12.3974698801
0
LINE
5
245
100
AcDbEntity
8
0
100
AcDbLine
62
7
6
CONTINUOUS
10
-5.9889461664
20
13.7878246341
11
-5.9766362311
21
13.7939791330
0
LINE
5
246
100
AcDbEntity
8
0
100
AcDbLine
62
7
6
CONTINUOUS
10
-7.7266362311
20
20.8751390035
11
-7.7231489402
21
20.8856093839
0
LINE
5
247
100
AcDbEntity
8
0
100
AcDbLine
62
9
6
CONTINUOUS
10
-5.9889461664
20
13.4627833767
11
-5.9766362311
21
13.4750933120
0
LINE
5
248
100
AcDbEntity
8
0
100
AcDbLine
62
9
6
CONTINUOUS
10
-5.6889918579
20
13.1628290682
11
-5.6766819226
21
13.1751390035
0
LINE
5
249
100
AcDbEntity
8
0
100
AcDbLine
62
7
6
CONTINUOUS
10
4.9233637689
20
23.7751390035
11
4.8797131220
21
23.7314883566
0
LINE
5
24A
100
AcDbEntity
8
0
100
AcDbLine
62
7
6
CONTINUOUS
10
-3.9766362311
20
-14.1641960815
11
-4.9766362311
21
-14.1641960815
0
LINE
5
24B
100
AcDbEntity
8
0
100
AcDbLine
62
7
6
CONTINUOUS
10
5.0233637689
20
-14.1641960815
11
6.0233637689
21
-14.1641960815
0
LINE
5
24C
100
AcDbEntity
8
0
100
AcDbLine
62
7
6
CONTINUOUS
10
4.9233637689
20
-23.8248609965
11
4.8797131220
21
-23.7812103497
0
LINE
5
24D
100
AcDbEntity
8
0
100
AcDbLine
62
7
6
CONTINUOUS
10
-7.7231489402
20
-20.9353313770
11
-7.7266362311
21
-20.9248609965
0
LINE
5
24E
100
AcDbEntity
8
0
100
AcDbLine
62
7
6
CONTINUOUS
10
-9.1266362311
20
8.0974698801
11
-8.9712861532
21
8.1751390035
0
LINE
5
24F
100
AcDbEntity
8
0
100
AcDbLine
62
7
6
CONTINUOUS
10
9.5733637689
20
-12.3499120595
11
-8.5266362311
21
-12.3499120595
0
LINE
5
250
100
AcDbEntity
8
0
100
AcDbLine
62
9
6
CONTINUOUS
10
9.8733637689
20
-12.0499120595
11
-8.8266362311
21
-12.0499120595
0
LINE
5
251
100
AcDbEntity
8
0
100
AcDbLine
62
7
6
CONTINUOUS
10
-9.1266362311
20
-8.8471918732
11
-8.9712861532
21
-8.9248609965
0
LINE
5
252
100
AcDbEntity
8
0
100
AcDbLine
62
9
6
CONTINUOUS
10
-10.1222643971
20
-23.8691985638
11
-10.1266362311
21
-23.4353461447
0
LINE
5
253
100
AcDbEntity
8
0
100
AcDbLine
62
9
6
CONTINUOUS
10
-9.8722686279
20
-23.6526922129
11
-9.8773592290
21
-23.1475107273
0
LINE
5
254
100
AcDbEntity
8
0
100
AcDbLine
62
7
6
CONTINUOUS
10
-10.6266362311
20
21.8663169441
11
-10.6266362311
21
-21.9160389371
0
LINE
5
255
100
AcDbEntity
8
0
100
AcDbLine
62
7
6
CONTINUOUS
10
-10.1266362311
20
-22.4245509645
11
-10.1266362311
21
-24.2748652273
0
LINE
5
256
100
AcDbEntity
8
0
100
AcDbLine
62
7
6
CONTINUOUS
10
-10.1266362311
20
22.3748289715
11
-10.1266362311
21
24.2251432343
0
LINE
5
257
100
AcDbEntity
8
0
100
AcDbLine
62
9
6
CONTINUOUS
10
-10.1222643971
20
24.2207714003
11
-10.1222643971
21
23.8194765708
0
LINE
5
258
100
AcDbEntity
8
0
100
AcDbLine
62
9
6
CONTINUOUS
10
-10.1222643971
20
-23.8691985638
11
-10.1222643971
21
-24.2704933933
0
LINE
5
259
100
AcDbEntity
8
0
100
AcDbLine
62
9
6
CONTINUOUS
10
-9.8722686279
20
-23.6526922129
11
-9.8722686279
21
-24.5204891625
0
LINE
5
25A
100
AcDbEntity
8
0
100
AcDbLine
62
9
6
CONTINUOUS
10
-9.8722686279
20
23.6029702198
11
-9.8722686279
21
24.4707671695
0
LINE
5
25B
100
AcDbEntity
8
0
100
AcDbLine
62
7
6
CONTINUOUS
10
-9.1266362311
20
-20.4246321445
11
-9.1266362311
21
20.3749101514
0
LINE
5
25C
100
AcDbEntity
8
0
100
AcDbLine
62
7
6
CONTINUOUS
10
-9.0637979974
20
20.1862421460
11
-9.0637979974
21
19.7751390035
0
LINE
5
25D
100
AcDbEntity
8
0
100
AcDbLine
62
7
6
CONTINUOUS
10
-9.0061962831
20
19.2751390035
11
-9.0061962831
21
15.2544368454
0
LINE
5
25E
100
AcDbEntity
8
0
100
AcDbLine
62
9
6
CONTINUOUS
10
-10.1266362311
20
23.3856241517
11
-10.1222643971
21
23.8194765708
0
LINE
5
25F
100
AcDbEntity
8
0
100
AcDbLine
62
9
6
CONTINUOUS
10
-9.8773592290
20
23.0977887343
11
-9.8722686279
21
23.6029702198
0
LINE
5
260
100
AcDbEntity
8
0
100
AcDbLine
62
7
6
CONTINUOUS
10
-6.7975804184
20
20.6864709981
11
-6.7754739057
21
20.8856093839
0
LINE
5
261
100
AcDbEntity
8
0
100
AcDbLine
62
9
6
CONTINUOUS
10
10.9189961657
20
24.4707671695
11
10.9233679997
21
24.4751390035
0
LINE
5
262
100
AcDbEntity
8
0
100
AcDbLine
62
9
6
CONTINUOUS
10
11.1689919349
20
24.2207714003
11
11.1733637689
21
24.2251432343
0
LINE
5
263
100
AcDbEntity
8
0
100
AcDbLine
62
7
6
CONTINUOUS
10
-8.8266362311
20
-8.9248609965
11
-8.9712861532
21
-8.9248609965
0
LINE
5
264
100
AcDbEntity
8
0
100
AcDbLine
62
7
6
CONTINUOUS
10
9.8733637689
20
-8.9248609965
11
10.0180136910
21
-8.9248609965
0
LINE
5
265
100
AcDbEntity
8
0
100
AcDbLine
62
9
6
CONTINUOUS
10
10.9189961657
20
-24.5204891625
11
10.9233679997
21
-24.5248609965
0
LINE
5
266
100
AcDbEntity
8
0
100
AcDbLine
62
9
6
CONTINUOUS
10
11.1689919349
20
-24.2704933933
11
11.1733637689
21
-24.2748652273
0
LINE
5
267
100
AcDbEntity
8
0
100
AcDbLine
62
7
6
CONTINUOUS
10
-6.7754739057
20
-20.9353313770
11
-6.8284149164
21
-20.4584317609
0
LINE
5
268
100
AcDbEntity
8
0
100
AcDbLine
62
9
6
CONTINUOUS
10
-6.7184579330
20
-20.0524123188
11
-6.8284149164
21
-16.8313747217
0
LINE
5
269
100
AcDbEntity
8
0
100
AcDbLine
62
9
6
CONTINUOUS
10
-7.9810038343
20
23.6029702198
11
-7.9759132332
21
23.0977887343
0
LINE
5
26A
100
AcDbEntity
8
0
100
AcDbLine
62
9
6
CONTINUOUS
10
-7.7310080651
20
23.8194765708
11
-7.7266362311
21
23.3856241517
0
LINE
5
26B
100
AcDbEntity
8
0
100
AcDbLine
62
7
6
CONTINUOUS
10
-8.9712861532
20
14.6751390035
11
-8.9712861532
21
12.4751390035
0
LINE
5
26C
100
AcDbEntity
8
0
100
AcDbLine
62
7
6
CONTINUOUS
10
-8.9712861532
20
-8.9248609965
11
-8.9712861532
21
-19.9582029088
0
LINE
5
26D
100
AcDbEntity
8
0
100
AcDbLine
62
7
6
CONTINUOUS
10
-8.9712861532
20
-7.9248609965
11
-8.9712861532
21
-0.5248609965
0
LINE
5
26E
100
AcDbEntity
8
0
100
AcDbLine
62
7
6
CONTINUOUS
10
-8.9712861532
20
0.4751390035
11
-8.9712861532
21
7.1751390035
0
LINE
5
26F
100
AcDbEntity
8
0
100
AcDbLine
62
7
6
CONTINUOUS
10
-8.9712861532
20
8.1751390035
11
-8.9712861532
21
11.4751390035
0
LINE
5
270
100
AcDbEntity
8
0
100
AcDbLine
62
7
6
CONTINUOUS
10
-8.8266362311
20
-12.0499120595
11
-8.8266362311
21
11.6500879405
0
LINE
5
271
100
AcDbEntity
8
0
100
AcDbLine
62
9
6
CONTINUOUS
10
-8.6889234279
20
12.3869748962
11
-8.6889234279
21
11.6500879405
0
LINE
5
272
100
AcDbEntity
8
0
100
AcDbLine
62
9
6
CONTINUOUS
10
-8.4070156417
20
12.3852522652
11
-8.4070156417
21
11.6500879405
0
LINE
5
273
100
AcDbEntity
8
0
100
AcDbLine
62
7
6
CONTINUOUS
10
-8.3766362311
20
11.6500879405
11
-8.3766362311
21
12.1000879405
0
LINE
5
274
100
AcDbEntity
8
0
100
AcDbLine
62
9
6
CONTINUOUS
10
-7.9810038343
20
-23.6526922129
11
-7.9810038343
21
-24.5204891625
0
LINE
5
275
100
AcDbEntity
8
0
100
AcDbLine
62
9
6
CONTINUOUS
10
-7.9810038343
20
23.6029702198
11
-7.9810038343
21
24.4707671695
0
LINE
5
276
100
AcDbEntity
8
0
100
AcDbLine
62
9
6
CONTINUOUS
10
-7.7310080651
20
-24.2704933933
11
-7.7310080651
21
-23.8691985638
0
LINE
5
277
100
AcDbEntity
8
0
100
AcDbLine
62
9
6
CONTINUOUS
10
-7.7310080651
20
23.8194765708
11
-7.7310080651
21
24.2207714003
0
LINE
5
278
100
AcDbEntity
8
0
100
AcDbLine
62
7
6
CONTINUOUS
10
-7.7266362311
20
-21.4248609965
11
-7.7266362311
21
-20.9248609965
0
LINE
5
279
100
AcDbEntity
8
0
100
AcDbLine
62
7
6
CONTINUOUS
10
-7.7266362311
20
-22.4248609965
11
-7.7266362311
21
-24.2748652273
0
LINE
5
27A
100
AcDbEntity
8
0
100
AcDbLine
62
7
6
CONTINUOUS
10
-7.7266362311
20
20.8751390035
11
-7.7266362311
21
21.3751390035
0
LINE
5
27B
100
AcDbEntity
8
0
100
AcDbLine
62
7
6
CONTINUOUS
10
-7.7266362311
20
22.3751390035
11
-7.7266362311
21
24.2251432343
0
LINE
5
27C
100
AcDbEntity
8
0
100
AcDbLine
62
9
6
CONTINUOUS
10
-7.5606607978
20
21.5411144367
11
-7.5606607978
21
20.9668472677
0
LINE
5
27D
100
AcDbEntity
8
0
100
AcDbLine
62
9
6
CONTINUOUS
10
-7.5606607978
20
-21.0165692607
11
-7.5606607978
21
-21.5908364298
0
LINE
5
27E
100
AcDbEntity
8
0
100
AcDbLine
62
9
6
CONTINUOUS
10
-7.9759132332
20
-23.1475107273
11
-7.9810038343
21
-23.6526922129
0
LINE
5
27F
100
AcDbEntity
8
0
100
AcDbLine
62
9
6
CONTINUOUS
10
-7.7266362311
20
-23.4353461447
11
-7.7310080651
21
-23.8691985638
0
LINE
5
280
100
AcDbEntity
8
0
100
AcDbLine
62
9
6
CONTINUOUS
10
-6.7184579330
20
20.0026903257
11
-6.8167792568
21
17.1225032681
0
LINE
5
281
100
AcDbEntity
8
0
100
AcDbLine
62
7
6
CONTINUOUS
10
4.9233637689
20
22.3751390035
11
4.8792965016
21
22.3090371704
0
LINE
5
282
100
AcDbEntity
8
0
100
AcDbLine
62
7
6
CONTINUOUS
10
-9.1266362311
20
-8.8471918732
11
-8.8266362311
21
-8.8399988115
0
LINE
5
283
100
AcDbEntity
8
0
100
AcDbLine
62
7
6
CONTINUOUS
10
9.8733637689
20
-8.0097231815
11
10.1733637689
21
-8.0025301199
0
LINE
5
284
100
AcDbEntity
8
0
100
AcDbLine
62
7
6
CONTINUOUS
10
-8.9712861532
20
-7.9248609965
11
-8.8266362311
21
-7.9248609965
0
LINE
5
285
100
AcDbEntity
8
0
100
AcDbLine
62
7
6
CONTINUOUS
10
9.8733637689
20
-7.9248609965
11
10.0180136910
21
-7.9248609965
0
LINE
5
286
100
AcDbEntity
8
0
100
AcDbLine
62
7
6
CONTINUOUS
10
-1.7344519224
20
-7.5499120595
11
2.7811794601
21
-7.5499120595
0
LINE
5
287
100
AcDbEntity
8
0
100
AcDbLine
62
7
6
CONTINUOUS
10
9.8733637689
20
-8.8399988115
11
10.1733637689
21
-8.8471918732
0
LINE
5
288
100
AcDbEntity
8
0
100
AcDbLine
62
7
6
CONTINUOUS
10
-9.1266362311
20
-8.0025301199
11
-8.8266362311
21
-8.0097231815
0
LINE
5
289
100
AcDbEntity
8
0
100
AcDbLine
62
7
6
CONTINUOUS
10
4.9233637689
20
-22.4248609965
11
4.8792965016
21
-22.3587591634
0
LINE
5
28A
100
AcDbEntity
8
0
100
AcDbLine
62
9
6
CONTINUOUS
10
-7.0607369503
20
21.2878322472
11
-7.0607369503
21
20.9711345492
0
LINE
5
28B
100
AcDbEntity
8
0
100
AcDbLine
62
9
6
CONTINUOUS
10
-7.0607369503
20
-21.0208565422
11
-7.0607369503
21
-21.3375542402
0
LINE
5
28C
100
AcDbEntity
8
0
100
AcDbLine
62
7
6
CONTINUOUS
10
-6.9766362311
20
13.3751580419
11
-6.9766362311
21
12.4751390035
0
LINE
5
28D
100
AcDbEntity
8
0
100
AcDbLine
62
7
6
CONTINUOUS
10
-6.8867494929
20
13.2852713037
11
-6.8867494929
21
12.3852522652
0
LINE
5
28E
100
AcDbEntity
8
0
100
AcDbLine
62
7
6
CONTINUOUS
10
-6.8284149164
20
-20.4584317609
11
-6.8284149164
21
-16.8313747217
0
LINE
5
28F
100
AcDbEntity
8
0
100
AcDbLine
62
7
6
CONTINUOUS
10
-6.8167792568
20
17.1225032681
11
-6.8167792568
21
19.2751390035
0
LINE
5
290
100
AcDbEntity
8
0
100
AcDbLine
62
7
6
CONTINUOUS
10
-6.7975804184
20
20.6864709981
11
-6.7975804184
21
19.7751390035
0
LINE
5
291
100
AcDbEntity
8
0
100
AcDbLine
62
7
6
CONTINUOUS
10
-6.7184579330
20
-21.0208565422
11
-6.7184579330
21
-20.0524123188
0
LINE
5
292
100
AcDbEntity
8
0
100
AcDbLine
62
7
6
CONTINUOUS
10
-6.7184579330
20
20.0026903257
11
-6.7184579330
21
20.9711345492
0
LINE
5
293
100
AcDbEntity
8
0
100
AcDbLine
62
9
6
CONTINUOUS
10
-6.2889004750
20
13.4627833767
11
-6.2889004750
21
13.7852522652
0
LINE
5
294
100
AcDbEntity
8
0
100
AcDbLine
62
7
6
CONTINUOUS
10
-6.0348145292
20
-20.6077852797
11
-6.0348145292
21
-20.0524123188
0
LINE
5
295
100
AcDbEntity
8
0
100
AcDbLine
62
7
6
CONTINUOUS
10
-6.0348145292
20
20.0026903257
11
-6.0348145292
21
20.5580632867
0
LINE
5
296
100
AcDbEntity
8
0
100
AcDbLine
62
9
6
CONTINUOUS
10
-5.9889461664
20
13.4627833767
11
-5.9889461664
21
13.7878246341
0
LINE
5
297
100
AcDbEntity
8
0
100
AcDbLine
62
7
6
CONTINUOUS
10
-5.9766362311
20
13.7939791330
11
-5.9766362311
21
13.4750933120
0
LINE
5
298
100
AcDbEntity
8
0
100
AcDbLine
62
7
6
CONTINUOUS
10
-5.9766362311
20
12.1000879405
11
-5.9766362311
21
12.7822457847
0
LINE
5
299
100
AcDbEntity
8
0
100
AcDbLine
62
7
6
CONTINUOUS
10
-5.9556920438
20
19.9437222794
11
-5.9556920438
21
19.7751390035
0
LINE
5
29A
100
AcDbEntity
8
0
100
AcDbLine
62
7
6
CONTINUOUS
10
-5.9364932054
20
17.1225032681
11
-5.9364932054
21
19.2751390035
0
LINE
5
29B
100
AcDbEntity
8
0
100
AcDbLine
62
7
6
CONTINUOUS
10
-5.9248575458
20
-16.8313747217
11
-5.9248575458
21
-19.9471918732
0
LINE
5
29C
100
AcDbEntity
8
0
100
AcDbLine
62
9
6
CONTINUOUS
10
-5.6889918579
20
12.8628747596
11
-5.6889918579
21
13.1628290682
0
LINE
5
29D
100
AcDbEntity
8
0
100
AcDbLine
62
7
6
CONTINUOUS
10
-5.3766362311
20
-0.5499120595
11
-5.3766362311
21
1.7500879405
0
LINE
5
29E
100
AcDbEntity
8
0
100
AcDbLine
62
7
6
CONTINUOUS
10
10.0180136910
20
11.4751390035
11
10.1733637689
21
11.5528081268
0
LINE
5
29F
100
AcDbEntity
8
0
100
AcDbLine
62
7
6
CONTINUOUS
10
-2.1016362311
20
-6.9999120595
11
3.1483637689
21
-6.9999120595
0
LINE
5
2A0
100
AcDbEntity
8
0
100
AcDbLine
62
7
6
CONTINUOUS
10
3.7227969332
20
-6.6499120595
11
3.1483637689
21
-6.6499120595
0
LINE
5
2A1
100
AcDbEntity
8
0
100
AcDbLine
62
7
6
CONTINUOUS
10
-2.1016362311
20
-6.6499120595
11
-2.6760693954
21
-6.6499120595
0
LINE
5
2A2
100
AcDbEntity
8
0
100
AcDbLine
62
7
6
CONTINUOUS
10
4.1655166221
20
-5.8999120595
11
3.8233637689
21
-5.8999120595
0
LINE
5
2A3
100
AcDbEntity
8
0
100
AcDbLine
62
7
6
CONTINUOUS
10
-2.7766362311
20
-5.8999120595
11
-3.1187890843
21
-5.8999120595
0
LINE
5
2A4
100
AcDbEntity
8
0
100
AcDbLine
62
7
6
CONTINUOUS
10
3.8233637689
20
-5.7999120595
11
2.5733637689
21
-5.7999120595
0
LINE
5
2A5
100
AcDbEntity
8
0
100
AcDbLine
62
7
6
CONTINUOUS
10
-1.5266362311
20
-5.7999120595
11
-2.7766362311
21
-5.7999120595
0
LINE
5
2A6
100
AcDbEntity
8
0
100
AcDbLine
62
9
6
CONTINUOUS
10
-6.0348145292
20
20.0026903257
11
-5.9364932054
21
17.1225032681
0
LINE
5
2A7
100
AcDbEntity
8
0
100
AcDbLine
62
7
6
CONTINUOUS
10
-4.0201370872
20
-12.3499120595
11
-3.9766362311
21
-14.1641960815
0
LINE
5
2A8
100
AcDbEntity
8
0
100
AcDbLine
62
7
6
CONTINUOUS
10
-4.9766362311
20
-12.3499120595
11
-4.9766362311
21
-14.1641960815
0
LINE
5
2A9
100
AcDbEntity
8
0
100
AcDbLine
62
7
6
CONTINUOUS
10
-4.9766362311
20
11.8000879405
11
-4.9766362311
21
12.1000879405
0
LINE
5
2AA
100
AcDbEntity
8
0
100
AcDbLine
62
7
6
CONTINUOUS
10
-4.4766362311
20
11.6500879405
11
-4.4766362311
21
11.8000879405
0
LINE
5
2AB
100
AcDbEntity
8
0
100
AcDbLine
62
7
6
CONTINUOUS
10
-3.9766362311
20
-12.3499120595
11
-3.9766362311
21
-14.1641960815
0
LINE
5
2AC
100
AcDbEntity
8
0
100
AcDbLine
62
7
6
CONTINUOUS
10
-3.9766362311
20
17.5751390035
11
-3.9766362311
21
19.9725209431
0
LINE
5
2AD
100
AcDbEntity
8
0
100
AcDbLine
62
7
6
CONTINUOUS
10
-3.8766362311
20
23.7751390035
11
-3.8766362311
21
22.3751390035
0
LINE
5
2AE
100
AcDbEntity
8
0
100
AcDbLine
62
7
6
CONTINUOUS
10
-3.8766362311
20
-22.4248609965
11
-3.8766362311
21
-23.8248609965
0
LINE
5
2AF
100
AcDbEntity
8
0
100
AcDbLine
62
9
6
CONTINUOUS
10
-3.8325689639
20
-22.3587591634
11
-3.8325689639
21
-23.7756344212
0
LINE
5
2B0
100
AcDbEntity
8
0
100
AcDbLine
62
9
6
CONTINUOUS
10
-3.8325689639
20
22.3090371704
11
-3.8325689639
21
23.7259124282
0
LINE
5
2B1
100
AcDbEntity
8
0
100
AcDbLine
62
7
6
CONTINUOUS
10
-3.8266362311
20
0.1000879405
11
-3.8266362311
21
0.4000879405
0
LINE
5
2B2
100
AcDbEntity
8
0
100
AcDbLine
62
9
6
CONTINUOUS
10
-3.6766362311
20
17.2751390035
11
-3.6766362311
21
19.9751390035
0
LINE
5
2B3
100
AcDbEntity
8
0
100
AcDbLine
62
7
6
CONTINUOUS
10
-4.9331353750
20
-12.3499120595
11
-4.9766362311
21
-14.1641960815
0
LINE
5
2B4
100
AcDbEntity
8
0
100
AcDbLine
62
9
6
CONTINUOUS
10
-6.0348145292
20
-20.0524123188
11
-5.9248575458
21
-16.8313747217
0
LINE
5
2B5
100
AcDbEntity
8
0
100
AcDbLine
62
7
6
CONTINUOUS
10
7.0786585368
20
20.0580823251
11
7.0024195816
21
19.9437222794
0
LINE
5
2B6
100
AcDbEntity
8
0
100
AcDbLine
62
9
6
CONTINUOUS
10
7.4334960691
20
13.7852522652
11
7.5233828074
21
13.8751390035
0
LINE
5
2B7
100
AcDbEntity
8
0
100
AcDbLine
62
9
6
CONTINUOUS
10
7.9334770306
20
13.2852713037
11
8.0233637689
21
13.3751580419
0
LINE
5
2B8
100
AcDbEntity
8
0
100
AcDbLine
62
7
6
CONTINUOUS
10
-8.9712861532
20
0.4751390035
11
-9.1266362311
21
0.3974698801
0
LINE
5
2B9
100
AcDbEntity
8
0
100
AcDbLine
62
7
6
CONTINUOUS
10
4.4233637689
20
-4.0499120595
11
3.5733637689
21
-4.0499120595
0
LINE
5
2BA
100
AcDbEntity
8
0
100
AcDbLine
62
7
6
CONTINUOUS
10
-2.5266362311
20
-4.0499120595
11
-3.3766362311
21
-4.0499120595
0
LINE
5
2BB
100
AcDbEntity
8
0
100
AcDbLine
62
7
6
CONTINUOUS
10
-8.9712861532
20
-0.5248609965
11
-9.1266362311
21
-0.4471918732
0
LINE
5
2BC
100
AcDbEntity
8
0
100
AcDbLine
62
7
6
CONTINUOUS
10
7.0786585368
20
-20.1078043182
11
6.9715850836
21
-19.9471918732
0
LINE
5
2BD
100
AcDbEntity
8
0
100
AcDbLine
62
7
6
CONTINUOUS
10
-8.9712861532
20
14.6751390035
11
-8.9979255144
21
14.7551220780
0
LINE
5
2BE
100
AcDbEntity
8
0
100
AcDbLine
62
7
6
CONTINUOUS
10
-3.4766362311
20
11.6500879405
11
-3.4766362311
21
1.7500879405
0
LINE
5
2BF
100
AcDbEntity
8
0
100
AcDbLine
62
7
6
CONTINUOUS
10
-3.4766362311
20
-0.5499120595
11
-3.4766362311
21
-4.2499120595
0
LINE
5
2C0
100
AcDbEntity
8
0
100
AcDbLine
62
7
6
CONTINUOUS
10
-3.3766362311
20
-4.0499120595
11
-3.3766362311
21
-5.1342498108
0
LINE
5
2C1
100
AcDbEntity
8
0
100
AcDbLine
62
7
6
CONTINUOUS
10
-2.9766362311
20
-22.3587808917
11
-2.9766362311
21
-23.8190431667
0
LINE
5
2C2
100
AcDbEntity
8
0
100
AcDbLine
62
7
6
CONTINUOUS
10
-2.9766362311
20
13.8751390035
11
-2.9766362311
21
16.1751390035
0
LINE
5
2C3
100
AcDbEntity
8
0
100
AcDbLine
62
7
6
CONTINUOUS
10
-2.9766362311
20
22.3090588987
11
-2.9766362311
21
23.7693211737
0
LINE
5
2C4
100
AcDbEntity
8
0
100
AcDbLine
62
7
6
CONTINUOUS
10
-2.8766362311
20
12.1000879405
11
-2.8766362311
21
3.1000879405
0
LINE
5
2C5
100
AcDbEntity
8
0
100
AcDbLine
62
7
6
CONTINUOUS
10
-2.8766362311
20
14.0751390035
11
-2.8766362311
21
15.4751390035
0
LINE
5
2C6
100
AcDbEntity
8
0
100
AcDbLine
62
7
6
CONTINUOUS
10
-2.7766362311
20
-4.0499120595
11
-2.7766362311
21
-5.8999120595
0
LINE
5
2C7
100
AcDbEntity
8
0
100
AcDbLine
62
7
6
CONTINUOUS
10
-2.5266362311
20
-1.5499120595
11
-2.5266362311
21
-4.0499120595
0
LINE
5
2C8
100
AcDbEntity
8
0
100
AcDbLine
62
7
6
CONTINUOUS
10
-2.4766362311
20
-21.0248609965
11
-2.4766362311
21
-22.4161341287
0
LINE
5
2C9
100
AcDbEntity
8
0
100
AcDbLine
62
7
6
CONTINUOUS
10
-2.4766362311
20
20.9751390035
11
-2.4766362311
21
22.3664121357
0
LINE
5
2CA
100
AcDbEntity
8
0
100
AcDbLine
62
7
6
CONTINUOUS
10
-2.1016362311
20
-6.6499120595
11
-2.1016362311
21
-7.2661425147
0
LINE
5
2CB
100
AcDbEntity
8
0
100
AcDbLine
62
7
6
CONTINUOUS
10
-1.8766362311
20
1.7500879405
11
-1.8766362311
21
3.1000879405
0
LINE
5
2CC
100
AcDbEntity
8
0
100
AcDbLine
62
9
6
CONTINUOUS
10
-8.9712861532
20
-19.9582029088
11
-9.1266362311
21
-20.4246321445
0
LINE
5
2CD
100
AcDbEntity
8
0
100
AcDbLine
62
7
6
CONTINUOUS
10
8.0233637689
20
12.4751390035
11
7.9334770306
21
12.3852522652
0
LINE
5
2CE
100
AcDbEntity
8
0
100
AcDbLine
62
7
6
CONTINUOUS
10
10.1733637689
20
7.2528081268
11
10.0180136910
21
7.1751390035
0
LINE
5
2CF
100
AcDbEntity
8
0
100
AcDbLine
62
7
6
CONTINUOUS
10
3.5733637689
20
-3.2999120595
11
-2.5266362311
21
-3.2999120595
0
LINE
5
2D0
100
AcDbEntity
8
0
100
AcDbLine
62
7
6
CONTINUOUS
10
10.0180136910
20
-7.9248609965
11
10.1733637689
21
-8.0025301199
0
LINE
5
2D1
100
AcDbEntity
8
0
100
AcDbLine
62
7
6
CONTINUOUS
10
-3.0266362311
20
-1.0499120595
11
-2.5266362311
21
-1.5499120595
0
LINE
5
2D2
100
AcDbEntity
8
0
100
AcDbLine
62
9
6
CONTINUOUS
10
-9.1266362311
20
20.3749101514
11
-9.0637979974
21
20.1862421460
0
LINE
5
2D3
100
AcDbEntity
8
0
100
AcDbLine
62
7
6
CONTINUOUS
10
-1.5766362311
20
-0.5499120595
11
-1.5766362311
21
0.1000879405
0
LINE
5
2D4
100
AcDbEntity
8
0
100
AcDbLine
62
7
6
CONTINUOUS
10
-1.5766362311
20
0.4000879405
11
-1.5766362311
21
1.7500879405
0
LINE
5
2D5
100
AcDbEntity
8
0
100
AcDbLine
62
7
6
CONTINUOUS
10
-1.5266362311
20
-6.9999120595
11
-1.5266362311
21
-5.7999120595
0
LINE
5
2D6
100
AcDbEntity
8
0
100
AcDbLine
62
7
6
CONTINUOUS
10
-0.8766362311
20
6.5000879405
11
-0.8766362311
21
4.6000879405
0
LINE
5
2D7
100
AcDbEntity
8
0
100
AcDbLine
62
7
6
CONTINUOUS
10
-0.7266362311
20
5.6000879405
11
-0.7266362311
21
4.1000879405
0
LINE
5
2D8
100
AcDbEntity
8
0
100
AcDbLine
62
9
6
CONTINUOUS
10
-8.4716667530
20
-20.4584317609
11
-8.6270168308
21
-20.9248609965
0
LINE
5
2D9
100
AcDbEntity
8
0
100
AcDbLine
62
7
6
CONTINUOUS
10
-9.1266362311
20
-0.4471918732
11
-8.8266362311
21
-0.4399988115
0
LINE
5
2DA
100
AcDbEntity
8
0
100
AcDbLine
62
7
6
CONTINUOUS
10
9.8733637689
20
0.3902768185
11
10.1733637689
21
0.3974698801
0
LINE
5
2DB
100
AcDbEntity
8
0
100
AcDbLine
62
7
6
CONTINUOUS
10
-3.4766362311
20
-1.0499120595
11
-3.0266362311
21
-1.0499120595
0
LINE
5
2DC
100
AcDbEntity
8
0
100
AcDbLine
62
7
6
CONTINUOUS
10
4.0733637689
20
-1.0499120595
11
4.5233637689
21
-1.0499120595
0
LINE
5
2DD
100
AcDbEntity
8
0
100
AcDbLine
62
9
6
CONTINUOUS
10
-8.8266362311
20
-0.9499120595
11
-3.4766362311
21
-0.9499120595
0
LINE
5
2DE
100
AcDbEntity
8
0
100
AcDbLine
62
9
6
CONTINUOUS
10
4.5233637689
20
-0.9499120595
11
9.8733637689
21
-0.9499120595
0
LINE
5
2DF
100
AcDbEntity
8
0
100
AcDbLine
62
7
6
CONTINUOUS
10
9.8733637689
20
-0.6499120595
11
4.5233637689
21
-0.6499120595
0
LINE
5
2E0
100
AcDbEntity
8
0
100
AcDbLine
62
7
6
CONTINUOUS
10
-3.4766362311
20
-0.6499120595
11
-8.8266362311
21
-0.6499120595
0
LINE
5
2E1
100
AcDbEntity
8
0
100
AcDbLine
62
7
6
CONTINUOUS
10
6.4233637689
20
-0.5499120595
11
-5.3766362311
21
-0.5499120595
0
LINE
5
2E2
100
AcDbEntity
8
0
100
AcDbLine
62
7
6
CONTINUOUS
10
10.0180136910
20
-0.5248609965
11
9.8733637689
21
-0.5248609965
0
LINE
5
2E3
100
AcDbEntity
8
0
100
AcDbLine
62
7
6
CONTINUOUS
10
-8.9712861532
20
-0.5248609965
11
-8.8266362311
21
-0.5248609965
0
LINE
5
2E4
100
AcDbEntity
8
0
100
AcDbLine
62
9
6
CONTINUOUS
10
9.8733637689
20
-0.3499120595
11
6.4233637689
21
-0.3499120595
0
LINE
5
2E5
100
AcDbEntity
8
0
100
AcDbLine
62
9
6
CONTINUOUS
10
-5.3766362311
20
-0.3499120595
11
-8.8266362311
21
-0.3499120595
0
LINE
5
2E6
100
AcDbEntity
8
0
100
AcDbLine
62
7
6
CONTINUOUS
10
4.8733637689
20
0.1000879405
11
-3.8266362311
21
0.1000879405
0
LINE
5
2E7
100
AcDbEntity
8
0
100
AcDbLine
62
7
6
CONTINUOUS
10
9.8733637689
20
-0.4399988115
11
10.1733637689
21
-0.4471918732
0
LINE
5
2E8
100
AcDbEntity
8
0
100
AcDbLine
62
7
6
CONTINUOUS
10
-9.1266362311
20
0.3974698801
11
-8.8266362311
21
0.3902768185
0
LINE
5
2E9
100
AcDbEntity
8
0
100
AcDbLine
62
9
6
CONTINUOUS
10
-8.6270168308
20
20.8751390035
11
-8.5641785971
21
20.6864709981
0
LINE
5
2EA
100
AcDbEntity
8
0
100
AcDbLine
62
7
6
CONTINUOUS
10
1.7733637689
20
5.6000879405
11
1.7733637689
21
4.1000879405
0
LINE
5
2EB
100
AcDbEntity
8
0
100
AcDbLine
62
7
6
CONTINUOUS
10
4.8733637689
20
0.4000879405
11
-3.8266362311
21
0.4000879405
0
LINE
5
2EC
100
AcDbEntity
8
0
100
AcDbLine
62
7
6
CONTINUOUS
10
10.0180136910
20
0.4751390035
11
9.8733637689
21
0.4751390035
0
LINE
5
2ED
100
AcDbEntity
8
0
100
AcDbLine
62
7
6
CONTINUOUS
10
-8.9712861532
20
0.4751390035
11
-8.8266362311
21
0.4751390035
0
LINE
5
2EE
100
AcDbEntity
8
0
100
AcDbLine
62
7
6
CONTINUOUS
10
6.4233637689
20
1.7500879405
11
2.6233637689
21
1.7500879405
0
LINE
5
2EF
100
AcDbEntity
8
0
100
AcDbLine
62
7
6
CONTINUOUS
10
-1.5766362311
20
1.7500879405
11
-5.3766362311
21
1.7500879405
0
LINE
5
2F0
100
AcDbEntity
8
0
100
AcDbLine
62
7
6
CONTINUOUS
10
1.9233637689
20
4.6000879405
11
1.9233637689
21
6.5000879405
0
LINE
5
2F1
100
AcDbEntity
8
0
100
AcDbLine
62
7
6
CONTINUOUS
10
2.5733637689
20
-5.7999120595
11
2.5733637689
21
-6.9999120595
0
LINE
5
2F2
100
AcDbEntity
8
0
100
AcDbLine
62
7
6
CONTINUOUS
10
2.6233637689
20
-0.5499120595
11
2.6233637689
21
0.1000879405
0
LINE
5
2F3
100
AcDbEntity
8
0
100
AcDbLine
62
7
6
CONTINUOUS
10
2.6233637689
20
0.4000879405
11
2.6233637689
21
1.7500879405
0
LINE
5
2F4
100
AcDbEntity
8
0
100
AcDbLine
62
7
6
CONTINUOUS
10
2.9233637689
20
1.7500879405
11
2.9233637689
21
3.1000879405
0
LINE
5
2F5
100
AcDbEntity
8
0
100
AcDbLine
62
7
6
CONTINUOUS
10
3.1483637689
20
-6.6499120595
11
3.1483637689
21
-7.2661425147
0
LINE
5
2F6
100
AcDbEntity
8
0
100
AcDbLine
62
7
6
CONTINUOUS
10
3.5233637689
20
-21.0248609965
11
3.5233637689
21
-22.4161341287
0
LINE
5
2F7
100
AcDbEntity
8
0
100
AcDbLine
62
7
6
CONTINUOUS
10
3.5233637689
20
20.9751390035
11
3.5233637689
21
22.3664121357
0
LINE
5
2F8
100
AcDbEntity
8
0
100
AcDbLine
62
7
6
CONTINUOUS
10
3.5733637689
20
-4.0499120595
11
3.5733637689
21
-1.5499120595
0
LINE
5
2F9
100
AcDbEntity
8
0
100
AcDbLine
62
9
6
CONTINUOUS
10
9.6109061349
20
20.6864709981
11
9.6737443686
21
20.8751390035
0
LINE
5
2FA
100
AcDbEntity
8
0
100
AcDbLine
62
9
6
CONTINUOUS
10
10.1105255351
20
20.1862421460
11
10.1733637689
21
20.3749101514
0
LINE
5
2FB
100
AcDbEntity
8
0
100
AcDbLine
62
7
6
CONTINUOUS
10
3.5733637689
20
-1.5499120595
11
4.0733637689
21
-1.0499120595
0
LINE
5
2FC
100
AcDbEntity
8
0
100
AcDbLine
62
7
6
CONTINUOUS
10
-8.9712861532
20
-7.9248609965
11
-9.1266362311
21
-8.0025301199
0
LINE
5
2FD
100
AcDbEntity
8
0
100
AcDbLine
62
7
6
CONTINUOUS
10
3.9233637689
20
3.1000879405
11
2.9233637689
21
3.1000879405
0
LINE
5
2FE
100
AcDbEntity
8
0
100
AcDbLine
62
7
6
CONTINUOUS
10
-2.8766362311
20
3.1000879405
11
-1.8766362311
21
3.1000879405
0
LINE
5
2FF
100
AcDbEntity
8
0
100
AcDbLine
62
7
6
CONTINUOUS
10
-8.9712861532
20
7.1751390035
11
-9.1266362311
21
7.2528081268
0
LINE
5
300
100
AcDbEntity
8
0
100
AcDbLine
62
9
6
CONTINUOUS
10
9.6737443686
20
-20.9248609965
11
9.5183942908
21
-20.4584317609
0
LINE
5
301
100
AcDbEntity
8
0
100
AcDbLine
62
9
6
CONTINUOUS
10
10.1733637689
20
-20.4246321445
11
10.0180136910
21
-19.9582029088
0
LINE
5
302
100
AcDbEntity
8
0
100
AcDbLine
62
7
6
CONTINUOUS
10
3.8233637689
20
-5.8999120595
11
3.8233637689
21
-4.0499120595
0
LINE
5
303
100
AcDbEntity
8
0
100
AcDbLine
62
7
6
CONTINUOUS
10
3.9233637689
20
15.4751390035
11
3.9233637689
21
14.0751390035
0
LINE
5
304
100
AcDbEntity
8
0
100
AcDbLine
62
7
6
CONTINUOUS
10
3.9233637689
20
12.1000879405
11
3.9233637689
21
3.1000879405
0
LINE
5
305
100
AcDbEntity
8
0
100
AcDbLine
62
7
6
CONTINUOUS
10
4.0233637689
20
-22.3587808917
11
4.0233637689
21
-23.8190431667
0
LINE
5
306
100
AcDbEntity
8
0
100
AcDbLine
62
7
6
CONTINUOUS
10
4.0233637689
20
13.8751390035
11
4.0233637689
21
16.1751390035
0
LINE
5
307
100
AcDbEntity
8
0
100
AcDbLine
62
7
6
CONTINUOUS
10
4.0233637689
20
22.3090588987
11
4.0233637689
21
23.7693211737
0
LINE
5
308
100
AcDbEntity
8
0
100
AcDbLine
62
7
6
CONTINUOUS
10
4.4233637689
20
-5.1342498108
11
4.4233637689
21
-4.0499120595
0
LINE
5
309
100
AcDbEntity
8
0
100
AcDbLine
62
7
6
CONTINUOUS
10
4.5233637689
20
11.6500879405
11
4.5233637689
21
1.7500879405
0
LINE
5
30A
100
AcDbEntity
8
0
100
AcDbLine
62
7
6
CONTINUOUS
10
4.5233637689
20
-4.2499120595
11
4.5233637689
21
-0.5499120595
0
LINE
5
30B
100
AcDbEntity
8
0
100
AcDbLine
62
9
6
CONTINUOUS
10
4.7233637689
20
19.9751390035
11
4.7233637689
21
17.2751390035
0
LINE
5
30C
100
AcDbEntity
8
0
100
AcDbLine
62
7
6
CONTINUOUS
10
4.8733637689
20
0.1000879405
11
4.8733637689
21
0.4000879405
0
LINE
5
30D
100
AcDbEntity
8
0
100
AcDbLine
62
9
6
CONTINUOUS
10
4.8792965016
20
-22.3587591634
11
4.8792965016
21
-23.7756344212
0
LINE
5
30E
100
AcDbEntity
8
0
100
AcDbLine
62
9
6
CONTINUOUS
10
4.8792965016
20
22.3090371704
11
4.8792965016
21
23.7259124282
0
LINE
5
30F
100
AcDbEntity
8
0
100
AcDbLine
62
7
6
CONTINUOUS
10
4.9233637689
20
-23.8248609965
11
4.9233637689
21
-22.4248609965
0
LINE
5
310
100
AcDbEntity
8
0
100
AcDbLine
62
7
6
CONTINUOUS
10
4.9233637689
20
22.3751390035
11
4.9233637689
21
23.7751390035
0
LINE
5
311
100
AcDbEntity
8
0
100
AcDbLine
62
7
6
CONTINUOUS
10
5.0233637689
20
19.9725209431
11
5.0233637689
21
17.5751390035
0
LINE
5
312
100
AcDbEntity
8
0
100
AcDbLine
62
7
6
CONTINUOUS
10
5.0233637689
20
-12.3499120595
11
5.0233637689
21
-14.1641960815
0
LINE
5
313
100
AcDbEntity
8
0
100
AcDbLine
62
7
6
CONTINUOUS
10
5.5233637689
20
11.8000879405
11
5.5233637689
21
11.6500879405
0
LINE
5
314
100
AcDbEntity
8
0
100
AcDbLine
62
7
6
CONTINUOUS
10
5.0668646250
20
-12.3499120595
11
5.0233637689
21
-14.1641960815
0
LINE
5
315
100
AcDbEntity
8
0
100
AcDbLine
62
7
6
CONTINUOUS
10
10.0180136910
20
14.6751390035
11
10.0446530522
21
14.7551220780
0
LINE
5
316
100
AcDbEntity
8
0
100
AcDbLine
62
7
6
CONTINUOUS
10
10.0180136910
20
-0.5248609965
11
10.1733637689
21
-0.4471918732
0
LINE
5
317
100
AcDbEntity
8
0
100
AcDbLine
62
7
6
CONTINUOUS
10
-0.7266362311
20
4.1000879405
11
1.7733637689
21
4.1000879405
0
LINE
5
318
100
AcDbEntity
8
0
100
AcDbLine
62
7
6
CONTINUOUS
10
-0.7266362311
20
4.5000879405
11
1.7733637689
21
4.5000879405
0
LINE
5
319
100
AcDbEntity
8
0
100
AcDbLine
62
7
6
CONTINUOUS
10
-0.8766362311
20
4.6000879405
11
-0.7266362311
21
4.6000879405
0
LINE
5
31A
100
AcDbEntity
8
0
100
AcDbLine
62
7
6
CONTINUOUS
10
1.7733637689
20
4.6000879405
11
1.9233637689
21
4.6000879405
0
LINE
5
31B
100
AcDbEntity
8
0
100
AcDbLine
62
7
6
CONTINUOUS
10
-0.7266362311
20
5.6000879405
11
1.7733637689
21
5.6000879405
0
LINE
5
31C
100
AcDbEntity
8
0
100
AcDbLine
62
7
6
CONTINUOUS
10
10.0180136910
20
0.4751390035
11
10.1733637689
21
0.3974698801
0
LINE
5
31D
100
AcDbEntity
8
0
100
AcDbLine
62
7
6
CONTINUOUS
10
-6.9766362311
20
12.4751390035
11
-6.8867494929
21
12.3852522652
0
LINE
5
31E
100
AcDbEntity
8
0
100
AcDbLine
62
9
6
CONTINUOUS
10
-6.9766362311
20
13.3751580419
11
-6.8867494929
21
13.2852713037
0
LINE
5
31F
100
AcDbEntity
8
0
100
AcDbLine
62
9
6
CONTINUOUS
10
-6.4766552696
20
13.8751390035
11
-6.3867685313
21
13.7852522652
0
LINE
5
320
100
AcDbEntity
8
0
100
AcDbLine
62
9
6
CONTINUOUS
10
7.0815420670
20
-20.0524123188
11
6.9715850836
21
-16.8313747217
0
LINE
5
321
100
AcDbEntity
8
0
100
AcDbLine
62
7
6
CONTINUOUS
10
5.9798629128
20
-12.3499120595
11
6.0233637689
21
-14.1641960815
0
LINE
5
322
100
AcDbEntity
8
0
100
AcDbLine
62
7
6
CONTINUOUS
10
6.0233637689
20
-12.3499120595
11
6.0233637689
21
-14.1641960815
0
LINE
5
323
100
AcDbEntity
8
0
100
AcDbLine
62
7
6
CONTINUOUS
10
6.0233637689
20
11.8000879405
11
6.0233637689
21
12.1000879405
0
LINE
5
324
100
AcDbEntity
8
0
100
AcDbLine
62
7
6
CONTINUOUS
10
6.4233637689
20
-0.5499120595
11
6.4233637689
21
1.7500879405
0
LINE
5
325
100
AcDbEntity
8
0
100
AcDbLine
62
9
6
CONTINUOUS
10
6.7357193956
20
12.8628747596
11
6.7357193957
21
13.1628290682
0
LINE
5
326
100
AcDbEntity
8
0
100
AcDbLine
62
7
6
CONTINUOUS
10
6.9715850836
20
-19.9471918732
11
6.9715850836
21
-16.8313747217
0
LINE
5
327
100
AcDbEntity
8
0
100
AcDbLine
62
7
6
CONTINUOUS
10
6.9832207432
20
17.1225032681
11
6.9832207432
21
19.2751390035
0
LINE
5
328
100
AcDbEntity
8
0
100
AcDbLine
62
7
6
CONTINUOUS
10
7.0024195816
20
19.9437222794
11
7.0024195816
21
19.7751390035
0
LINE
5
329
100
AcDbEntity
8
0
100
AcDbLine
62
7
6
CONTINUOUS
10
7.0233637689
20
12.7822457847
11
7.0233637689
21
12.1000879405
0
LINE
5
32A
100
AcDbEntity
8
0
100
AcDbLine
62
7
6
CONTINUOUS
10
7.0233637689
20
13.4750933120
11
7.0233637689
21
13.7939791330
0
LINE
5
32B
100
AcDbEntity
8
0
100
AcDbLine
62
9
6
CONTINUOUS
10
7.0356737042
20
13.7878246341
11
7.0356737042
21
13.4627833767
0
LINE
5
32C
100
AcDbEntity
8
0
100
AcDbLine
62
7
6
CONTINUOUS
10
7.0815420670
20
20.5580632867
11
7.0815420670
21
20.0026903257
0
LINE
5
32D
100
AcDbEntity
8
0
100
AcDbLine
62
7
6
CONTINUOUS
10
7.0815420670
20
-20.0524123188
11
7.0815420670
21
-20.6077852797
0
LINE
5
32E
100
AcDbEntity
8
0
100
AcDbLine
62
9
6
CONTINUOUS
10
7.3356280128
20
13.7852522652
11
7.3356280128
21
13.4627833767
0
LINE
5
32F
100
AcDbEntity
8
0
100
AcDbLine
62
9
6
CONTINUOUS
10
7.0815420670
20
20.0026903257
11
6.9832207432
21
17.1225032681
0
LINE
5
330
100
AcDbEntity
8
0
100
AcDbLine
62
7
6
CONTINUOUS
10
-6.0319309991
20
-20.1078043182
11
-5.9248575458
21
-19.9471918732
0
LINE
5
331
100
AcDbEntity
8
0
100
AcDbLine
62
7
6
CONTINUOUS
10
-9.1266362311
20
7.2528081268
11
-8.8266362311
21
7.2600011885
0
LINE
5
332
100
AcDbEntity
8
0
100
AcDbLine
62
7
6
CONTINUOUS
10
1.9233637689
20
6.5000879405
11
-0.8766362311
21
6.5000879405
0
LINE
5
333
100
AcDbEntity
8
0
100
AcDbLine
62
7
6
CONTINUOUS
10
10.0180136910
20
7.1751390035
11
9.8733637689
21
7.1751390035
0
LINE
5
334
100
AcDbEntity
8
0
100
AcDbLine
62
7
6
CONTINUOUS
10
-8.9712861532
20
7.1751390035
11
-8.8266362311
21
7.1751390035
0
LINE
5
335
100
AcDbEntity
8
0
100
AcDbLine
62
7
6
CONTINUOUS
10
-8.9712861532
20
11.4751390035
11
-9.1266362311
21
11.5528081268
0
LINE
5
336
100
AcDbEntity
8
0
100
AcDbLine
62
7
6
CONTINUOUS
10
-6.0319309991
20
20.0580823251
11
-5.9556920438
21
19.9437222794
0
LINE
5
337
100
AcDbEntity
8
0
100
AcDbLine
62
9
6
CONTINUOUS
10
7.7651854708
20
20.0026903257
11
7.8635067946
21
17.1225032681
0
LINE
5
338
100
AcDbEntity
8
0
100
AcDbLine
62
9
6
CONTINUOUS
10
8.7777356029
20
-23.8691985638
11
8.7733637689
21
-23.4353461447
0
LINE
5
339
100
AcDbEntity
8
0
100
AcDbLine
62
9
6
CONTINUOUS
10
9.0284586008
20
-23.7248609965
11
9.0226407710
21
-23.1475107273
0
LINE
5
33A
100
AcDbEntity
8
0
100
AcDbLine
62
7
6
CONTINUOUS
10
7.7651854708
20
20.9711345492
11
7.7651854708
21
20.0026903257
0
LINE
5
33B
100
AcDbEntity
8
0
100
AcDbLine
62
7
6
CONTINUOUS
10
7.7651854708
20
-20.0524123188
11
7.7651854708
21
-21.0208565422
0
LINE
5
33C
100
AcDbEntity
8
0
100
AcDbLine
62
7
6
CONTINUOUS
10
7.8443079562
20
20.6864709981
11
7.8443079562
21
19.7751390035
0
LINE
5
33D
100
AcDbEntity
8
0
100
AcDbLine
62
7
6
CONTINUOUS
10
7.8635067946
20
17.1225032681
11
7.8635067946
21
19.2751390035
0
LINE
5
33E
100
AcDbEntity
8
0
100
AcDbLine
62
7
6
CONTINUOUS
10
7.8751424542
20
-20.4584317609
11
7.8751424542
21
-16.8313747217
0
LINE
5
33F
100
AcDbEntity
8
0
100
AcDbLine
62
7
6
CONTINUOUS
10
7.9334770306
20
13.2852713037
11
7.9334770306
21
12.3852522652
0
LINE
5
340
100
AcDbEntity
8
0
100
AcDbLine
62
7
6
CONTINUOUS
10
8.0233637689
20
13.3751580419
11
8.0233637689
21
12.4751390035
0
LINE
5
341
100
AcDbEntity
8
0
100
AcDbLine
62
9
6
CONTINUOUS
10
8.1074644881
20
-21.3375542402
11
8.1074644881
21
-21.0208565422
0
LINE
5
342
100
AcDbEntity
8
0
100
AcDbLine
62
9
6
CONTINUOUS
10
8.1074644881
20
20.9711345492
11
8.1074644881
21
21.2878322472
0
LINE
5
343
100
AcDbEntity
8
0
100
AcDbLine
62
9
6
CONTINUOUS
10
8.6073883356
20
-21.5908364298
11
8.6073883356
21
-21.0165692607
0
LINE
5
344
100
AcDbEntity
8
0
100
AcDbLine
62
9
6
CONTINUOUS
10
8.6073883356
20
20.9668472677
11
8.6073883356
21
21.5411144367
0
LINE
5
345
100
AcDbEntity
8
0
100
AcDbLine
62
7
6
CONTINUOUS
10
8.7733637689
20
21.3751390035
11
8.7733637689
21
20.8751390035
0
LINE
5
346
100
AcDbEntity
8
0
100
AcDbLine
62
7
6
CONTINUOUS
10
8.7733637689
20
-20.9248609965
11
8.7733637689
21
-21.4248609965
0
LINE
5
347
100
AcDbEntity
8
0
100
AcDbLine
62
7
6
CONTINUOUS
10
8.7733637689
20
-22.4248609965
11
8.7733637689
21
-24.2748652273
0
LINE
5
348
100
AcDbEntity
8
0
100
AcDbLine
62
7
6
CONTINUOUS
10
8.7733637689
20
22.3751390035
11
8.7733637689
21
24.2251432343
0
LINE
5
349
100
AcDbEntity
8
0
100
AcDbLine
62
9
6
CONTINUOUS
10
8.7777356029
20
24.2207714003
11
8.7777356029
21
23.8194765708
0
LINE
5
34A
100
AcDbEntity
8
0
100
AcDbLine
62
9
6
CONTINUOUS
10
8.7777356029
20
-23.8691985638
11
8.7777356029
21
-24.2704933933
0
LINE
5
34B
100
AcDbEntity
8
0
100
AcDbLine
62
9
6
CONTINUOUS
10
9.0277313721
20
-23.7248609965
11
9.0277313721
21
-24.5204891625
0
LINE
5
34C
100
AcDbEntity
8
0
100
AcDbLine
62
9
6
CONTINUOUS
10
9.0277313721
20
23.6029702198
11
9.0277313721
21
24.4707671695
0
LINE
5
34D
100
AcDbEntity
8
0
100
AcDbLine
62
9
6
CONTINUOUS
10
8.7733637689
20
23.3856241517
11
8.7777356029
21
23.8194765708
0
LINE
5
34E
100
AcDbEntity
8
0
100
AcDbLine
62
9
6
CONTINUOUS
10
9.0226407710
20
23.0977887343
11
9.0277313721
21
23.6029702198
0
LINE
5
34F
100
AcDbEntity
8
0
100
AcDbLine
62
9
6
CONTINUOUS
10
7.7651854708
20
-20.0524123188
11
7.8751424542
21
-16.8313747217
0
LINE
5
350
100
AcDbEntity
8
0
100
AcDbLine
62
7
6
CONTINUOUS
10
9.8733637689
20
8.0902768185
11
10.1733637689
21
8.0974698801
0
LINE
5
351
100
AcDbEntity
8
0
100
AcDbLine
62
7
6
CONTINUOUS
10
-3.4766362311
20
7.6500879405
11
-2.8766362311
21
7.6500879405
0
LINE
5
352
100
AcDbEntity
8
0
100
AcDbLine
62
7
6
CONTINUOUS
10
3.9233637689
20
7.6500879405
11
4.5233637689
21
7.6500879405
0
LINE
5
353
100
AcDbEntity
8
0
100
AcDbLine
62
7
6
CONTINUOUS
10
10.0180136910
20
8.1751390035
11
9.8733637689
21
8.1751390035
0
LINE
5
354
100
AcDbEntity
8
0
100
AcDbLine
62
7
6
CONTINUOUS
10
-8.9712861532
20
8.1751390035
11
-8.8266362311
21
8.1751390035
0
LINE
5
355
100
AcDbEntity
8
0
100
AcDbLine
62
7
6
CONTINUOUS
10
9.8733637689
20
7.2600011885
11
10.1733637689
21
7.2528081268
0
LINE
5
356
100
AcDbEntity
8
0
100
AcDbLine
62
7
6
CONTINUOUS
10
-9.1266362311
20
8.0974698801
11
-8.8266362311
21
8.0902768185
0
LINE
5
357
100
AcDbEntity
8
0
100
AcDbLine
62
7
6
CONTINUOUS
10
9.4233637689
20
11.6500879405
11
9.4233637689
21
12.1000879405
0
LINE
5
358
100
AcDbEntity
8
0
100
AcDbLine
62
9
6
CONTINUOUS
10
9.4537431795
20
11.6500879405
11
9.4537431795
21
12.3852522652
0
LINE
5
359
100
AcDbEntity
8
0
100
AcDbLine
62
9
6
CONTINUOUS
10
9.7356509657
20
11.6500879405
11
9.7356509657
21
12.3869748962
0
LINE
5
35A
100
AcDbEntity
8
0
100
AcDbLine
62
7
6
CONTINUOUS
10
9.8733637689
20
-12.0499120595
11
9.8733637689
21
11.6500879405
0
LINE
5
35B
100
AcDbEntity
8
0
100
AcDbLine
62
7
6
CONTINUOUS
10
10.0180136910
20
-19.9582029088
11
10.0180136910
21
-8.9248609965
0
LINE
5
35C
100
AcDbEntity
8
0
100
AcDbLine
62
7
6
CONTINUOUS
10
10.0180136910
20
-7.9248609965
11
10.0180136910
21
-0.5248609965
0
LINE
5
35D
100
AcDbEntity
8
0
100
AcDbLine
62
7
6
CONTINUOUS
10
10.0180136910
20
0.4751390035
11
10.0180136910
21
7.1751390035
0
LINE
5
35E
100
AcDbEntity
8
0
100
AcDbLine
62
7
6
CONTINUOUS
10
10.0180136910
20
8.1751390035
11
10.0180136910
21
11.4751390035
0
LINE
5
35F
100
AcDbEntity
8
0
100
AcDbLine
62
7
6
CONTINUOUS
10
10.0180136910
20
12.4751390035
11
10.0180136910
21
14.6751390035
0
LINE
5
360
100
AcDbEntity
8
0
100
AcDbLine
62
7
6
CONTINUOUS
10
10.0529238209
20
19.2751390035
11
10.0529238209
21
15.2544368454
0
LINE
5
361
100
AcDbEntity
8
0
100
AcDbLine
62
7
6
CONTINUOUS
10
10.1105255351
20
20.1862421460
11
10.1105255351
21
19.7751390035
0
LINE
5
362
100
AcDbEntity
8
0
100
AcDbLine
62
7
6
CONTINUOUS
10
10.1733637689
20
20.3749101514
11
10.1733637689
21
-20.4246321445
0
LINE
5
363
100
AcDbEntity
8
0
100
AcDbLine
62
9
6
CONTINUOUS
10
10.9189961657
20
-23.7248609965
11
10.9189961657
21
-24.5204891625
0
LINE
5
364
100
AcDbEntity
8
0
100
AcDbLine
62
9
6
CONTINUOUS
10
10.9189961657
20
23.6029702198
11
10.9189961657
21
24.4707671695
0
LINE
5
365
100
AcDbEntity
8
0
100
AcDbLine
62
7
6
CONTINUOUS
10
7.8222014435
20
-20.9353313770
11
7.8751424542
21
-20.4584317609
0
LINE
5
366
100
AcDbEntity
8
0
100
AcDbLine
62
7
6
CONTINUOUS
10
-3.8766362311
20
-22.4248609965
11
-3.8325689639
21
-22.3587591634
0
LINE
5
367
100
AcDbEntity
8
0
100
AcDbLine
62
9
6
CONTINUOUS
10
-10.1222643971
20
-24.2704933933
11
-10.1266362311
21
-24.2748652273
0
LINE
5
368
100
AcDbEntity
8
0
100
AcDbLine
62
9
6
CONTINUOUS
10
-9.8722686279
20
-24.5204891625
11
-9.8766404619
21
-24.5248609965
0
LINE
5
369
100
AcDbEntity
8
0
100
AcDbLine
62
9
6
CONTINUOUS
10
-10.1222643971
20
24.2207714003
11
-10.1266362311
21
24.2251432343
0
LINE
5
36A
100
AcDbEntity
8
0
100
AcDbLine
62
9
6
CONTINUOUS
10
-9.8722686279
20
24.4707671695
11
-9.8766404619
21
24.4751390035
0
LINE
5
36B
100
AcDbEntity
8
0
100
AcDbLine
62
7
6
CONTINUOUS
10
-3.8766362311
20
22.3751390035
11
-3.8325689639
21
22.3090371704
0
LINE
5
36C
100
AcDbEntity
8
0
100
AcDbLine
62
7
6
CONTINUOUS
10
7.8443079562
20
20.6864709981
11
7.8222014435
21
20.8856093839
0
LINE
5
36D
100
AcDbEntity
8
0
100
AcDbLine
62
9
6
CONTINUOUS
10
10.9189961657
20
23.6029702198
11
10.9240867668
21
23.0977887343
0
LINE
5
36E
100
AcDbEntity
8
0
100
AcDbLine
62
9
6
CONTINUOUS
10
11.1689919349
20
23.8194765708
11
11.1733637689
21
23.3856241517
0
LINE
5
36F
100
AcDbEntity
8
0
100
AcDbLine
62
9
6
CONTINUOUS
10
11.1689919349
20
-24.2704933933
11
11.1689919349
21
-23.8691985638
0
LINE
5
370
100
AcDbEntity
8
0
100
AcDbLine
62
9
6
CONTINUOUS
10
11.1689919349
20
23.8194765708
11
11.1689919349
21
24.2207714003
0
LINE
5
371
100
AcDbEntity
8
0
100
AcDbLine
62
7
6
CONTINUOUS
10
11.1733637689
20
-22.4245509645
11
11.1733637689
21
-24.2748652273
0
LINE
5
372
100
AcDbEntity
8
0
100
AcDbLine
62
7
6
CONTINUOUS
10
11.1733637689
20
22.3748289715
11
11.1733637689
21
24.2251432343
0
LINE
5
373
100
AcDbEntity
8
0
100
AcDbLine
62
7
6
CONTINUOUS
10
11.6733637689
20
21.8663169441
11
11.6733637689
21
-21.9160389371
0
LINE
5
374
100
AcDbEntity
8
0
100
AcDbLine
62
9
6
CONTINUOUS
10
10.9240867668
20
-23.1475107273
11
10.9182689369
21
-23.7248609965
0
LINE
5
375
100
AcDbEntity
8
0
100
AcDbLine
62
9
6
CONTINUOUS
10
11.1733637689
20
-23.4353461447
11
11.1689919349
21
-23.8691985638
0
LINE
5
376
100
AcDbEntity
8
0
100
AcDbLine
62
7
6
CONTINUOUS
10
10.1733637689
20
-8.8471918732
11
10.0180136910
21
-8.9248609965
0
LINE
5
377
100
AcDbEntity
8
0
100
AcDbLine
62
7
6
CONTINUOUS
10
-9.1266362311
20
11.5528081268
11
-8.8266362311
21
11.5600011885
0
LINE
5
378
100
AcDbEntity
8
0
100
AcDbLine
62
7
6
CONTINUOUS
10
9.7356509657
20
12.3869748962
11
10.1733637689
21
12.3974698801
0
LINE
5
379
100
AcDbEntity
8
0
100
AcDbLine
62
9
6
CONTINUOUS
10
4.5233637689
20
11.2500879405
11
3.9233637689
21
11.2500879405
0
LINE
5
37A
100
AcDbEntity
8
0
100
AcDbLine
62
9
6
CONTINUOUS
10
-2.8766362311
20
11.2500879405
11
-3.4766362311
21
11.2500879405
0
LINE
5
37B
100
AcDbEntity
8
0
100
AcDbLine
62
7
6
CONTINUOUS
10
-8.9712861532
20
11.4751390035
11
-8.8266362311
21
11.4751390035
0
LINE
5
37C
100
AcDbEntity
8
0
100
AcDbLine
62
7
6
CONTINUOUS
10
9.8733637689
20
11.4751390035
11
10.0180136910
21
11.4751390035
0
LINE
5
37D
100
AcDbEntity
8
0
100
AcDbLine
62
7
6
CONTINUOUS
10
-8.8266362311
20
11.6500879405
11
-3.4766362311
21
11.6500879405
0
LINE
5
37E
100
AcDbEntity
8
0
100
AcDbLine
62
7
6
CONTINUOUS
10
4.5233637689
20
11.6500879405
11
9.8733637689
21
11.6500879405
0
LINE
5
37F
100
AcDbEntity
8
0
100
AcDbLine
62
7
6
CONTINUOUS
10
5.5233637689
20
11.7500879405
11
3.9233637689
21
11.7500879405
0
LINE
5
380
100
AcDbEntity
8
0
100
AcDbLine
62
7
6
CONTINUOUS
10
-2.8766362311
20
11.7500879405
11
-4.4766362311
21
11.7500879405
0
LINE
5
381
100
AcDbEntity
8
0
100
AcDbLine
62
7
6
CONTINUOUS
10
-2.8766362311
20
11.8000879405
11
-8.3766362311
21
11.8000879405
0
LINE
5
382
100
AcDbEntity
8
0
100
AcDbLine
62
7
6
CONTINUOUS
10
3.9233637689
20
11.8000879405
11
9.4233637689
21
11.8000879405
0
LINE
5
383
100
AcDbEntity
8
0
100
AcDbLine
62
7
6
CONTINUOUS
10
-8.3766362311
20
12.1000879405
11
9.4233637689
21
12.1000879405
0
LINE
5
384
100
AcDbEntity
8
0
100
AcDbLine
62
7
6
CONTINUOUS
10
-8.4070156417
20
12.3852522652
11
-6.8867494929
21
12.3852522652
0
LINE
5
385
100
AcDbEntity
8
0
100
AcDbLine
62
7
6
CONTINUOUS
10
9.4537431795
20
12.3852522652
11
7.9334770306
21
12.3852522652
0
LINE
5
386
100
AcDbEntity
8
0
100
AcDbLine
62
9
6
CONTINUOUS
10
-5.9766362311
20
12.4286923941
11
7.0233637689
21
12.4286923941
0
LINE
5
387
100
AcDbEntity
8
0
100
AcDbLine
62
7
6
CONTINUOUS
10
8.0233637689
20
12.4751390035
11
10.0180136910
21
12.4751390035
0
LINE
5
388
100
AcDbEntity
8
0
100
AcDbLine
62
7
6
CONTINUOUS
10
-6.9766362311
20
12.4751390035
11
-8.9712861532
21
12.4751390035
0
LINE
5
389
100
AcDbEntity
8
0
100
AcDbLine
62
9
6
CONTINUOUS
10
-5.9766362311
20
12.7822457847
11
7.0233637689
21
12.7822457847
0
LINE
5
38A
100
AcDbEntity
8
0
100
AcDbLine
62
9
6
CONTINUOUS
10
6.7357193957
20
12.8628747596
11
-5.6889918579
21
12.8628747596
0
LINE
5
38B
100
AcDbEntity
8
0
100
AcDbLine
62
7
6
CONTINUOUS
10
9.8733637689
20
11.5600011885
11
10.1733637689
21
11.5528081268
0
LINE
5
38C
100
AcDbEntity
8
0
100
AcDbLine
62
7
6
CONTINUOUS
10
-9.1266362311
20
12.3974698801
11
-8.6889234279
21
12.3869748962
0
LINE
5
38D
100
AcDbEntity
8
0
100
AcDbLine
62
7
6
CONTINUOUS
10
10.0180136910
20
8.1751390035
11
10.1733637689
21
8.0974698801
0
LINE
5
38E
100
AcDbEntity
8
0
100
AcDbLine
62
7
6
CONTINUOUS
10
-3.8766362311
20
-23.8248609965
11
-3.8329855842
21
-23.7812103497
0
LINE
5
38F
100
AcDbEntity
8
0
100
AcDbLine
62
9
6
CONTINUOUS
10
6.7357193957
20
13.1628290682
11
-5.6889918579
21
13.1628290682
0
LINE
5
390
100
AcDbEntity
8
0
100
AcDbLine
62
7
6
CONTINUOUS
10
-5.6766819226
20
13.1751390035
11
6.7234094603
21
13.1751390035
0
LINE
5
391
100
AcDbEntity
8
0
100
AcDbLine
62
9
6
CONTINUOUS
10
7.3356280128
20
13.4627833767
11
7.0356737042
21
13.4627833767
0
LINE
5
392
100
AcDbEntity
8
0
100
AcDbLine
62
9
6
CONTINUOUS
10
-6.2889004750
20
13.4627833767
11
-5.9889461664
21
13.4627833767
0
LINE
5
393
100
AcDbEntity
8
0
100
AcDbLine
62
7
6
CONTINUOUS
10
-6.3867685313
20
13.7852522652
11
-6.2889004750
21
13.7852522652
0
LINE
5
394
100
AcDbEntity
8
0
100
AcDbLine
62
7
6
CONTINUOUS
10
7.3356280128
20
13.7852522652
11
7.4334960691
21
13.7852522652
0
LINE
5
395
100
AcDbEntity
8
0
100
AcDbLine
62
7
6
CONTINUOUS
10
-5.9766362311
20
13.7939791330
11
7.0233637689
21
13.7939791330
0
LINE
5
396
100
AcDbEntity
8
0
100
AcDbLine
62
7
6
CONTINUOUS
10
-6.4766552696
20
13.8751390035
11
-2.9766362311
21
13.8751390035
0
LINE
5
397
100
AcDbEntity
8
0
100
AcDbLine
62
7
6
CONTINUOUS
10
4.0233637689
20
13.8751390035
11
7.5233828074
21
13.8751390035
0
LINE
5
398
100
AcDbEntity
8
0
100
AcDbLine
62
7
6
CONTINUOUS
10
-8.9712861532
20
14.6751390035
11
-2.9766362311
21
14.6751390035
0
LINE
5
399
100
AcDbEntity
8
0
100
AcDbLine
62
7
6
CONTINUOUS
10
4.0233637689
20
14.6751390035
11
10.0180136910
21
14.6751390035
0
LINE
5
39A
100
AcDbEntity
8
0
100
AcDbLine
62
7
6
CONTINUOUS
10
-3.8766362311
20
23.7751390035
11
-3.8329855842
21
23.7314883566
0
LINE
5
39B
100
AcDbEntity
8
0
100
AcDbLine
62
9
6
CONTINUOUS
10
6.7357193957
20
13.1628290682
11
6.7234094603
21
13.1751390035
0
LINE
5
39C
100
AcDbEntity
8
0
100
AcDbLine
62
9
6
CONTINUOUS
10
7.0356737042
20
13.4627833767
11
7.0233637689
21
13.4750933120
0
LINE
5
39D
100
AcDbEntity
8
0
100
AcDbLine
62
7
6
CONTINUOUS
10
8.7733637689
20
-20.9248609965
11
8.7698764780
21
-20.9353313770
0
LINE
5
39E
100
AcDbEntity
8
0
100
AcDbLine
62
9
6
CONTINUOUS
10
10.0446530522
20
14.7551220780
11
4.0233637689
21
14.7551220780
0
LINE
5
39F
100
AcDbEntity
8
0
100
AcDbLine
62
9
6
CONTINUOUS
10
-2.9766362311
20
14.7551220780
11
-8.9979255144
21
14.7551220780
0
LINE
5
3A0
100
AcDbEntity
8
0
100
AcDbLine
62
7
6
CONTINUOUS
10
4.0233637689
20
14.8751390035
11
3.9233637689
21
14.8751390035
0
LINE
5
3A1
100
AcDbEntity
8
0
100
AcDbLine
62
7
6
CONTINUOUS
10
-2.8766362311
20
14.8751390035
11
-2.9766362311
21
14.8751390035
0
LINE
5
3A2
100
AcDbEntity
8
0
100
AcDbLine
62
7
6
CONTINUOUS
10
4.0233637689
20
15.0751390035
11
3.9233637689
21
15.0751390035
0
LINE
5
3A3
100
AcDbEntity
8
0
100
AcDbLine
62
7
6
CONTINUOUS
10
-2.8766362311
20
15.0751390035
11
-2.9766362311
21
15.0751390035
0
LINE
5
3A4
100
AcDbEntity
8
0
100
AcDbLine
62
9
6
CONTINUOUS
10
10.0529238209
20
15.2544368454
11
4.0233637689
21
15.2544368454
0
LINE
5
3A5
100
AcDbEntity
8
0
100
AcDbLine
62
9
6
CONTINUOUS
10
-2.9766362311
20
15.2544368454
11
-9.0061962831
21
15.2544368454
0
LINE
5
3A6
100
AcDbEntity
8
0
100
AcDbLine
62
7
6
CONTINUOUS
10
4.0233637689
20
15.4751390035
11
3.9233637689
21
15.4751390035
0
LINE
5
3A7
100
AcDbEntity
8
0
100
AcDbLine
62
7
6
CONTINUOUS
10
-2.8766362311
20
15.4751390035
11
-2.9766362311
21
15.4751390035
0
LINE
5
3A8
100
AcDbEntity
8
0
100
AcDbLine
62
7
6
CONTINUOUS
10
-2.9766362311
20
16.1751390035
11
4.0233637689
21
16.1751390035
0
LINE
5
3A9
100
AcDbEntity
8
0
100
AcDbLine
62
7
6
CONTINUOUS
10
7.0356737042
20
13.7878246341
11
7.0233637689
21
13.7939791330
0
LINE
5
3AA
100
AcDbEntity
8
0
100
AcDbLine
62
7
6
CONTINUOUS
10
10.0180136910
20
12.4751390035
11
10.1733637689
21
12.3974698801
0
LINE
5
3AB
100
AcDbEntity
8
0
100
AcDbLine
62
7
6
CONTINUOUS
10
8.7698764780
20
20.8856093839
11
8.7733637689
21
20.8751390035
0
LINE
5
3AC
100
AcDbEntity
8
0
100
AcDbLine
62
7
6
CONTINUOUS
10
7.7651854708
20
-21.0208565422
11
7.8222014435
21
-20.9353313770
0
LINE
5
3AD
100
AcDbEntity
8
0
100
AcDbLine
62
7
6
CONTINUOUS
10
4.7233637689
20
17.2751390035
11
-3.6766362311
21
17.2751390035
0
LINE
5
3AE
100
AcDbEntity
8
0
100
AcDbLine
62
9
6
CONTINUOUS
10
5.0233637689
20
17.7751390035
11
-3.9766362311
21
17.7751390035
0
LINE
5
3AF
100
AcDbEntity
8
0
100
AcDbLine
62
7
6
CONTINUOUS
10
7.7651854708
20
20.9711345492
11
7.8222014435
21
20.8856093839
0
LINE
5
3B0
100
AcDbEntity
8
0
100
AcDbLine
62
7
6
CONTINUOUS
10
10.1017980027
20
19.2751390035
11
7.8472168711
21
19.2751390035
0
LINE
5
3B1
100
AcDbEntity
8
0
100
AcDbLine
62
7
6
CONTINUOUS
10
6.9995106667
20
19.2751390035
11
5.0233637689
21
19.2751390035
0
LINE
5
3B2
100
AcDbEntity
8
0
100
AcDbLine
62
7
6
CONTINUOUS
10
-3.9766362311
20
19.2751390035
11
-5.9527831289
21
19.2751390035
0
LINE
5
3B3
100
AcDbEntity
8
0
100
AcDbLine
62
7
6
CONTINUOUS
10
-6.8004893333
20
19.2751390035
11
-9.0550704649
21
19.2751390035
0
LINE
5
3B4
100
AcDbEntity
8
0
100
AcDbLine
62
9
6
CONTINUOUS
10
10.1105255351
20
19.7751390035
11
7.8443079562
21
19.7751390035
0
LINE
5
3B5
100
AcDbEntity
8
0
100
AcDbLine
62
9
6
CONTINUOUS
10
7.0024195816
20
19.7751390035
11
5.0233637689
21
19.7751390035
0
LINE
5
3B6
100
AcDbEntity
8
0
100
AcDbLine
62
9
6
CONTINUOUS
10
-3.9766362311
20
19.7751390035
11
-5.9556920438
21
19.7751390035
0
LINE
5
3B7
100
AcDbEntity
8
0
100
AcDbLine
62
9
6
CONTINUOUS
10
-6.7975804184
20
19.7751390035
11
-9.0637979974
21
19.7751390035
0
LINE
5
3B8
100
AcDbEntity
8
0
100
AcDbLine
62
7
6
CONTINUOUS
10
7.0024195816
20
19.9437222794
11
5.0233637689
21
19.9437222794
0
LINE
5
3B9
100
AcDbEntity
8
0
100
AcDbLine
62
7
6
CONTINUOUS
10
-3.9766362311
20
19.9437222794
11
-5.9556920438
21
19.9437222794
0
LINE
5
3BA
100
AcDbEntity
8
0
100
AcDbLine
62
7
6
CONTINUOUS
10
-3.6766362311
20
19.9751390035
11
4.7233637689
21
19.9751390035
0
LINE
5
3BB
100
AcDbEntity
8
0
100
AcDbLine
62
9
6
CONTINUOUS
10
-6.0319309991
20
20.0580823251
11
7.0786585368
21
20.0580823251
0
LINE
5
3BC
100
AcDbEntity
8
0
100
AcDbLine
62
7
6
CONTINUOUS
10
7.7820906367
20
-22.4161341287
11
8.7733637689
21
-21.4248609965
0
LINE
5
3BD
100
AcDbEntity
8
0
100
AcDbLine
62
9
6
CONTINUOUS
10
-6.0348145292
20
20.5580632867
11
7.0815420670
21
20.5580632867
0
LINE
5
3BE
100
AcDbEntity
8
0
100
AcDbLine
62
7
6
CONTINUOUS
10
-8.5641785971
20
20.6864709981
11
-6.7975804184
21
20.6864709981
0
LINE
5
3BF
100
AcDbEntity
8
0
100
AcDbLine
62
7
6
CONTINUOUS
10
7.8443079562
20
20.6864709981
11
9.6109061349
21
20.6864709981
0
LINE
5
3C0
100
AcDbEntity
8
0
100
AcDbLine
62
7
6
CONTINUOUS
10
-8.6270168308
20
20.8751390035
11
-7.7266362311
21
20.8751390035
0
LINE
5
3C1
100
AcDbEntity
8
0
100
AcDbLine
62
7
6
CONTINUOUS
10
8.7733637689
20
20.8751390035
11
9.6737443686
21
20.8751390035
0
LINE
5
3C2
100
AcDbEntity
8
0
100
AcDbLine
62
7
6
CONTINUOUS
10
8.7698764780
20
20.8856093839
11
7.8222014435
21
20.8856093839
0
LINE
5
3C3
100
AcDbEntity
8
0
100
AcDbLine
62
7
6
CONTINUOUS
10
-6.7754739057
20
20.8856093839
11
-7.7231489402
21
20.8856093839
0
LINE
5
3C4
100
AcDbEntity
8
0
100
AcDbLine
62
7
6
CONTINUOUS
10
8.1074644881
20
20.9711345492
11
7.7651854708
21
20.9711345492
0
LINE
5
3C5
100
AcDbEntity
8
0
100
AcDbLine
62
7
6
CONTINUOUS
10
-6.7184579330
20
20.9711345492
11
-7.0607369503
21
20.9711345492
0
LINE
5
3C6
100
AcDbEntity
8
0
100
AcDbLine
62
7
6
CONTINUOUS
10
-2.4766362311
20
20.9751390035
11
3.5233637689
21
20.9751390035
0
LINE
5
3C7
100
AcDbEntity
8
0
100
AcDbLine
62
9
6
CONTINUOUS
10
8.1074644881
20
21.2878322472
11
3.5233637689
21
21.2878322472
0
LINE
5
3C8
100
AcDbEntity
8
0
100
AcDbLine
62
9
6
CONTINUOUS
10
-2.4766362311
20
21.2878322472
11
-7.0607369503
21
21.2878322472
0
LINE
5
3C9
100
AcDbEntity
8
0
100
AcDbLine
62
7
6
CONTINUOUS
10
-2.4766362311
20
21.6751390035
11
3.5233637689
21
21.6751390035
0
LINE
5
3CA
100
AcDbEntity
8
0
100
AcDbLine
62
7
6
CONTINUOUS
10
8.7733637689
20
21.3751390035
11
7.7820906367
21
22.3664121357
0
LINE
5
3CB
100
AcDbEntity
8
0
100
AcDbLine
62
9
6
CONTINUOUS
10
8.7777356029
20
-24.2704933933
11
8.7733637689
21
-24.2748652273
0
LINE
5
3CC
100
AcDbEntity
8
0
100
AcDbLine
62
9
6
CONTINUOUS
10
9.0277313721
20
-24.5204891625
11
9.0233595381
21
-24.5248609965
0
LINE
5
3CD
100
AcDbEntity
8
0
100
AcDbLine
62
7
6
CONTINUOUS
10
8.6073883356
20
-21.0165692607
11
8.7698764780
21
-20.9353313770
0
LINE
5
3CE
100
AcDbEntity
8
0
100
AcDbLine
62
9
6
CONTINUOUS
10
7.8607086021
20
22.2877941702
11
3.5233637689
21
22.2877941702
0
LINE
5
3CF
100
AcDbEntity
8
0
100
AcDbLine
62
9
6
CONTINUOUS
10
-2.4766362311
20
22.2877941702
11
-6.8139810643
21
22.2877941702
0
LINE
5
3D0
100
AcDbEntity
8
0
100
AcDbLine
62
7
6
CONTINUOUS
10
11.1732114437
20
22.3664121357
11
7.7820906367
21
22.3664121357
0
LINE
5
3D1
100
AcDbEntity
8
0
100
AcDbLine
62
7
6
CONTINUOUS
10
4.0233637689
20
22.3664121357
11
3.5233637689
21
22.3664121357
0
LINE
5
3D2
100
AcDbEntity
8
0
100
AcDbLine
62
7
6
CONTINUOUS
10
-2.4766362311
20
22.3664121357
11
-2.9766362311
21
22.3664121357
0
LINE
5
3D3
100
AcDbEntity
8
0
100
AcDbLine
62
7
6
CONTINUOUS
10
-6.7353630989
20
22.3664121357
11
-10.1264839060
21
22.3664121357
0
LINE
5
3D4
100
AcDbEntity
8
0
100
AcDbLine
62
7
6
CONTINUOUS
10
4.9233637689
20
22.3751390035
11
11.1557563788
21
22.3751390035
0
LINE
5
3D5
100
AcDbEntity
8
0
100
AcDbLine
62
7
6
CONTINUOUS
10
-3.8766362311
20
22.3751390035
11
-10.1090288410
21
22.3751390035
0
LINE
5
3D6
100
AcDbEntity
8
0
100
AcDbLine
62
7
6
CONTINUOUS
10
10.9240867668
20
23.0977887343
11
9.0226407710
21
23.0977887343
0
LINE
5
3D7
100
AcDbEntity
8
0
100
AcDbLine
62
7
6
CONTINUOUS
10
-7.9759132332
20
23.0977887343
11
-9.8773592290
21
23.0977887343
0
LINE
5
3D8
100
AcDbEntity
8
0
100
AcDbLine
62
9
6
CONTINUOUS
10
-9.8722686279
20
23.6029702198
11
-7.9810038343
21
23.6029702198
0
LINE
5
3D9
100
AcDbEntity
8
0
100
AcDbLine
62
9
6
CONTINUOUS
10
9.0277313721
20
23.6029702198
11
10.9189961657
21
23.6029702198
0
LINE
5
3DA
100
AcDbEntity
8
0
100
AcDbLine
62
9
6
CONTINUOUS
10
-3.8329855842
20
23.7314883566
11
-2.9766362311
21
23.7314883566
0
LINE
5
3DB
100
AcDbEntity
8
0
100
AcDbLine
62
9
6
CONTINUOUS
10
4.0233637689
20
23.7314883566
11
4.8797131220
21
23.7314883566
0
LINE
5
3DC
100
AcDbEntity
8
0
100
AcDbLine
62
7
6
CONTINUOUS
10
-2.9766362311
20
23.7693211737
11
4.0233637689
21
23.7693211737
0
LINE
5
3DD
100
AcDbEntity
8
0
100
AcDbLine
62
7
6
CONTINUOUS
10
4.9233637689
20
23.7751390035
11
-3.8766362311
21
23.7751390035
0
LINE
5
3DE
100
AcDbEntity
8
0
100
AcDbLine
62
7
6
CONTINUOUS
10
8.6073883356
20
20.9668472677
11
8.7698764780
21
20.8856093839
0
LINE
5
3DF
100
AcDbEntity
8
0
100
AcDbLine
62
9
6
CONTINUOUS
10
8.7777356029
20
24.2207714003
11
8.7733637689
21
24.2251432343
0
LINE
5
3E0
100
AcDbEntity
8
0
100
AcDbLine
62
9
6
CONTINUOUS
10
9.0277313721
20
24.4707671695
11
9.0233595381
21
24.4751390035
0
LINE
5
3E1
100
AcDbEntity
8
0
100
AcDbLine
62
9
6
CONTINUOUS
10
11.1732114437
20
-22.4161341287
11
11.1557563788
21
-22.4248609965
0
LINE
5
3E2
100
AcDbEntity
8
0
100
AcDbLine
62
9
6
CONTINUOUS
10
-7.7310080651
20
23.8194765708
11
-10.1222643971
21
23.8194765708
0
LINE
5
3E3
100
AcDbEntity
8
0
100
AcDbLine
62
9
6
CONTINUOUS
10
8.7777356029
20
23.8194765708
11
11.1689919349
21
23.8194765708
0
LINE
5
3E4
100
AcDbEntity
8
0
100
AcDbLine
62
9
6
CONTINUOUS
10
-7.7310080651
20
24.2207714003
11
-10.1222643971
21
24.2207714003
0
LINE
5
3E5
100
AcDbEntity
8
0
100
AcDbLine
62
9
6
CONTINUOUS
10
8.7777356029
20
24.2207714003
11
11.1689919349
21
24.2207714003
0
LINE
5
3E6
100
AcDbEntity
8
0
100
AcDbLine
62
9
6
CONTINUOUS
10
10.9189961657
20
24.4707671695
11
9.0277313721
21
24.4707671695
0
LINE
5
3E7
100
AcDbEntity
8
0
100
AcDbLine
62
9
6
CONTINUOUS
10
-7.9810038343
20
24.4707671695
11
-9.8722686279
21
24.4707671695
0
LINE
5
3E8
100
AcDbEntity
8
0
100
AcDbLine
62
7
6
CONTINUOUS
10
10.9233679997
20
24.4751390035
11
9.0233595381
21
24.4751390035
0
LINE
5
3E9
100
AcDbEntity
8
0
100
AcDbLine
62
7
6
CONTINUOUS
10
-7.9766320003
20
24.4751390035
11
-9.8766404619
21
24.4751390035
0
LINE
5
3EA
100
AcDbEntity
8
0
100
AcDbLine
62
9
6
CONTINUOUS
10
11.1557563788
20
22.3751390035
11
11.1699655461
21
22.3680349609
0
ARC
5
3EB
100
AcDbEntity
8
0
100
AcDbCircle
62
7
6
CONTINUOUS
10
-8.5266362311
20
-12.0499120595
40
0.3000000000
100
AcDbArc
50
180.0000000000
51
270.0000000000
0
ARC
5
3EC
100
AcDbEntity
8
0
100
AcDbCircle
62
7
6
CONTINUOUS
10
9.5733637689
20
-12.0499120595
40
0.3000000000
100
AcDbArc
50
270.0000000000
51
360.0000000000
0
ARC
5
3ED
100
AcDbEntity
8
0
100
AcDbCircle
62
7
6
CONTINUOUS
10
0.5233637689
20
-4.2499120595
40
4.0000000000
100
AcDbArc
50
180.0000000000
51
360.0000000000
0
ARC
5
3EE
100
AcDbEntity
8
0
100
AcDbCircle
62
7
6
CONTINUOUS
10
-3.6766362311
20
17.5751390035
40
0.3000000000
100
AcDbArc
50
180.0000000000
51
270.0000000000
0
ARC
5
3EF
100
AcDbEntity
8
0
100
AcDbCircle
62
7
6
CONTINUOUS
10
4.7233637689
20
17.5751390035
40
0.3000000000
100
AcDbArc
50
270.0000000000
51
360.0000000000
0
SPLINE
5
3F0
100
AcDbEntity
8
0
100
AcDbSpline
62
7
6
CONTINUOUS
70
0
71
3
72
15
73
11
74
9
42
0.0000001000
43
0.0000001000
44
0.0000000001
12
0.4952922600
22
0.2476022018
32
0.0000000000
13
-0.0000000000
23
0.5532600274
33
0.0000000000
40
0.0000000000
40
0.0000000000
40
0.0000000000
40
0.0000000000
40
0.0973271354
40
0.2260972216
40
0.3552949958
40
0.4840559134
40
0.6132095317
40
0.7420195137
40
0.8710792965
40
1.0000000000
40
1.0000000000
40
1.0000000000
40
1.0000000000
10
11.3968530372
20
-22.3633491018
30
0.0000000000
10
11.4129214961
20
-22.3553162975
30
0.0000000000
10
11.4492440821
20
-22.3346449298
30
0.0000000000
10
11.5018770909
20
-22.2952462327
30
0.0000000000
10
11.5524820808
20
-22.2446438428
30
0.0000000000
10
11.5954118451
20
-22.1872995640
30
0.0000000000
10
11.6297115237
20
-22.1244921729
30
0.0000000000
10
11.6547408210
20
-22.0573880830
30
0.0000000000
10
11.6699584907
20
-21.9874610303
30
0.0000000000
10
11.6733637689
20
-21.9398144944
30
0.0000000000
10
11.6733637689
20
-21.9160389371
30
0.0000000000
11
11.3968530372
21
-22.3633491018
31
0.0000000000
11
11.4436685849
21
-22.3367042309
31
0.0000000000
11
11.5007026870
21
-22.2940108485
31
0.0000000000
11
11.5512478934
21
-22.2434681203
31
0.0000000000
11
11.5939409270
21
-22.1864400936
31
0.0000000000
11
11.6281887025
21
-22.1237265921
31
0.0000000000
11
11.6530950074
21
-22.0569550770
31
0.0000000000
11
11.6682760033
21
-21.9871839213
31
0.0000000000
11
11.6733637689
21
-21.9160389371
31
0.0000000000
0
SPLINE
5
3F1
100
AcDbEntity
8
0
100
AcDbSpline
62
7
6
CONTINUOUS
70
0
71
3
72
11
73
7
74
5
42
0.0000001000
43
0.0000001000
44
0.0000000001
12
-0.1916277652
22
0.0958221412
32
0.0000000000
13
-0.2139705222
23
0.0075033280
33
0.0000000000
40
0.0000000000
40
0.0000000000
40
0.0000000000
40
0.0000000000
40
0.0922585923
40
0.3945010835
40
0.6980582833
40
1.0000000000
40
1.0000000000
40
1.0000000000
40
1.0000000000
10
11.3794007581
20
22.3223526354
30
0.0000000000
10
11.3735076554
20
22.3252994407
30
0.0000000000
10
11.3480594671
20
22.3374022587
30
0.0000000000
10
11.3012913329
20
22.3549727658
30
0.0000000000
10
11.2380384612
20
22.3697570593
30
0.0000000000
10
11.1948984503
20
22.3740750129
30
0.0000000000
10
11.1733629080
20
22.3748302021
30
0.0000000000
11
11.3794007581
21
22.3223526354
31
0.0000000000
11
11.3615512277
21
22.3308413611
31
0.0000000000
11
11.3009746656
21
22.3536000800
31
0.0000000000
11
11.2376876559
21
22.3683900286
31
0.0000000000
11
11.1733629080
21
22.3748302021
31
0.0000000000
0
SPLINE
5
3F2
100
AcDbEntity
8
0
100
AcDbSpline
62
7
6
CONTINUOUS
70
0
71
3
72
11
73
7
74
5
42
0.0000001000
43
0.0000001000
44
0.0000000001
12
0.1916277652
22
-0.0958221412
32
0.0000000000
13
0.2139705222
23
-0.0075033280
33
0.0000000000
40
0.0000000000
40
0.0000000000
40
0.0000000000
40
0.0000000000
40
0.0922585923
40
0.3945010835
40
0.6980582833
40
1.0000000000
40
1.0000000000
40
1.0000000000
40
1.0000000000
10
-10.3326732203
20
-22.3720746285
30
0.0000000000
10
-10.3267801177
20
-22.3750214338
30
0.0000000000
10
-10.3013319293
20
-22.3871242518
30
0.0000000000
10
-10.2545637951
20
-22.4046947589
30
0.0000000000
10
-10.1913109235
20
-22.4194790524
30
0.0000000000
10
-10.1481709125
20
-22.4237970059
30
0.0000000000
10
-10.1266353702
20
-22.4245521952
30
0.0000000000
11
-10.3326732203
21
-22.3720746285
31
0.0000000000
11
-10.3148236899
21
-22.3805633542
31
0.0000000000
11
-10.2542471278
21
-22.4033220730
31
0.0000000000
11
-10.1909601181
21
-22.4181120216
31
0.0000000000
11
-10.1266353702
21
-22.4245521952
31
0.0000000000
0
SPLINE
5
3F3
100
AcDbEntity
8
0
100
AcDbSpline
62
7
6
CONTINUOUS
70
0
71
3
72
15
73
11
74
9
42
0.0000001000
43
0.0000001000
44
0.0000000001
12
-0.4952922600
22
-0.2476022018
32
0.0000000000
13
0.0000000000
23
-0.5532600274
33
0.0000000000
40
0.0000000000
40
0.0000000000
40
0.0000000000
40
0.0000000000
40
0.0973271354
40
0.2260972216
40
0.3552949958
40
0.4840559134
40
0.6132095317
40
0.7420195137
40
0.8710792965
40
1.0000000000
40
1.0000000000
40
1.0000000000
40
1.0000000000
10
-10.3501254994
20
22.3136271088
30
0.0000000000
10
-10.3661939583
20
22.3055943044
30
0.0000000000
10
-10.4025165443
20
22.2849229368
30
0.0000000000
10
-10.4551495532
20
22.2455242396
30
0.0000000000
10
-10.5057545430
20
22.1949218497
30
0.0000000000
10
-10.5486843073
20
22.1375775710
30
0.0000000000
10
-10.5829839859
20
22.0747701798
30
0.0000000000
10
-10.6080132832
20
22.0076660900
30
0.0000000000
10
-10.6232309530
20
21.9377390372
30
0.0000000000
10
-10.6266362311
20
21.8900925014
30
0.0000000000
10
-10.6266362311
20
21.8663169441
30
0.0000000000
11
-10.3501254994
21
22.3136271088
31
0.0000000000
11
-10.3969410472
21
22.2869822378
31
0.0000000000
11
-10.4539751492
21
22.2442888555
31
0.0000000000
11
-10.5045203556
21
22.1937461272
31
0.0000000000
11
-10.5472133892
21
22.1367181006
31
0.0000000000
11
-10.5814611647
21
22.0740045990
31
0.0000000000
11
-10.6063674696
21
22.0072330839
31
0.0000000000
11
-10.6215484655
21
21.9374619283
31
0.0000000000
11
-10.6266362311
21
21.8663169441
31
0.0000000000
0
SPLINE
5
3F4
100
AcDbEntity
8
0
100
AcDbSpline
62
7
6
CONTINUOUS
70
0
71
3
72
11
73
7
74
5
42
0.0000001000
43
0.0000001000
44
0.0000000001
12
-0.2139705222
22
-0.0075033280
32
0.0000000000
13
-0.1916277652
23
-0.0958221412
33
0.0000000000
40
0.0000000000
40
0.0000000000
40
0.0000000000
40
0.0000000000
40
0.3019417167
40
0.6054989165
40
0.9077414077
40
1.0000000000
40
1.0000000000
40
1.0000000000
40
1.0000000000
10
-10.1266353702
20
22.3748302021
30
0.0000000000
10
-10.1481709125
20
22.3740750129
30
0.0000000000
10
-10.1913109235
20
22.3697570593
30
0.0000000000
10
-10.2545637951
20
22.3549727658
30
0.0000000000
10
-10.3013319293
20
22.3374022587
30
0.0000000000
10
-10.3267801177
20
22.3252994407
30
0.0000000000
10
-10.3326732203
20
22.3223526354
30
0.0000000000
11
-10.1266353702
21
22.3748302021
31
0.0000000000
11
-10.1909601181
21
22.3683900286
31
0.0000000000
11
-10.2542471278
21
22.3536000800
31
0.0000000000
11
-10.3148236899
21
22.3308413611
31
0.0000000000
11
-10.3326732203
21
22.3223526354
31
0.0000000000
0
SPLINE
5
3F5
100
AcDbEntity
8
0
100
AcDbSpline
62
7
6
CONTINUOUS
70
0
71
3
72
15
73
11
74
9
42
0.0000001000
43
0.0000001000
44
0.0000000001
12
0.0000000000
22
-0.5532600274
32
0.0000000000
13
0.4952922600
23
-0.2476022018
33
0.0000000000
40
0.0000000000
40
0.0000000000
40
0.0000000000
40
0.0000000000
40
0.1289207035
40
0.2579804863
40
0.3867904683
40
0.5159440866
40
0.6447050042
40
0.7739027784
40
0.9026728646
40
1.0000000000
40
1.0000000000
40
1.0000000000
40
1.0000000000
10
-10.6266362311
20
-21.9160389371
30
0.0000000000
10
-10.6266362311
20
-21.9398144944
30
0.0000000000
10
-10.6232309530
20
-21.9874610303
30
0.0000000000
10
-10.6080132832
20
-22.0573880830
30
0.0000000000
10
-10.5829839859
20
-22.1244921729
30
0.0000000000
10
-10.5486843073
20
-22.1872995640
30
0.0000000000
10
-10.5057545430
20
-22.2446438428
30
0.0000000000
10
-10.4551495532
20
-22.2952462327
30
0.0000000000
10
-10.4025165443
20
-22.3346449298
30
0.0000000000
10
-10.3661939583
20
-22.3553162975
30
0.0000000000
10
-10.3501254994
20
-22.3633491018
30
0.0000000000
11
-10.6266362311
21
-21.9160389371
31
0.0000000000
11
-10.6215484655
21
-21.9871839213
31
0.0000000000
11
-10.6063674696
21
-22.0569550770
31
0.0000000000
11
-10.5814611647
21
-22.1237265921
31
0.0000000000
11
-10.5472133892
21
-22.1864400936
31
0.0000000000
11
-10.5045203556
21
-22.2434681203
31
0.0000000000
11
-10.4539751492
21
-22.2940108485
31
0.0000000000
11
-10.3969410472
21
-22.3367042309
31
0.0000000000
11
-10.3501254994
21
-22.3633491018
31
0.0000000000
0
SPLINE
5
3F6
100
AcDbEntity
8
0
100
AcDbSpline
62
7
6
CONTINUOUS
70
0
71
3
72
15
73
11
74
9
42
0.0000001000
43
0.0000001000
44
0.0000000001
12
0.0000000000
22
0.5532600274
32
0.0000000000
13
-0.4952922600
23
0.2476022018
33
0.0000000000
40
0.0000000000
40
0.0000000000
40
0.0000000000
40
0.0000000000
40
0.1289207035
40
0.2579804863
40
0.3867904683
40
0.5159440866
40
0.6447050042
40
0.7739027784
40
0.9026728646
40
1.0000000000
40
1.0000000000
40
1.0000000000
40
1.0000000000
10
11.6733637689
20
21.8663169441
30
0.0000000000
10
11.6733637689
20
21.8900925014
30
0.0000000000
10
11.6699584907
20
21.9377390372
30
0.0000000000
10
11.6547408210
20
22.0076660900
30
0.0000000000
10
11.6297115237
20
22.0747701798
30
0.0000000000
10
11.5954118451
20
22.1375775710
30
0.0000000000
10
11.5524820808
20
22.1949218497
30
0.0000000000
10
11.5018770909
20
22.2455242396
30
0.0000000000
10
11.4492440821
20
22.2849229368
30
0.0000000000
10
11.4129214961
20
22.3055943044
30
0.0000000000
10
11.3968530372
20
22.3136271088
30
0.0000000000
11
11.6733637689
21
21.8663169441
31
0.0000000000
11
11.6682760033
21
21.9374619283
31
0.0000000000
11
11.6530950074
21
22.0072330839
31
0.0000000000
11
11.6281887025
21
22.0740045990
31
0.0000000000
11
11.5939409270
21
22.1367181006
31
0.0000000000
11
11.5512478934
21
22.1937461272
31
0.0000000000
11
11.5007026870
21
22.2442888555
31
0.0000000000
11
11.4436685849
21
22.2869822378
31
0.0000000000
11
11.3968530372
21
22.3136271088
31
0.0000000000
0
SPLINE
5
3F7
100
AcDbEntity
8
0
100
AcDbSpline
62
7
6
CONTINUOUS
70
0
71
3
72
11
73
7
74
5
42
0.0000001000
43
0.0000001000
44
0.0000000001
12
0.2139705222
22
0.0075033280
32
0.0000000000
13
0.1916277652
23
0.0958221412
33
0.0000000000
40
0.0000000000
40
0.0000000000
40
0.0000000000
40
0.0000000000
40
0.3019417167
40
0.6054989165
40
0.9077414077
40
1.0000000000
40
1.0000000000
40
1.0000000000
40
1.0000000000
10
11.1733629080
20
-22.4245521952
30
0.0000000000
10
11.1948984503
20
-22.4237970059
30
0.0000000000
10
11.2380384612
20
-22.4194790524
30
0.0000000000
10
11.3012913329
20
-22.4046947589
30
0.0000000000
10
11.3480594671
20
-22.3871242518
30
0.0000000000
10
11.3735076554
20
-22.3750214338
30
0.0000000000
10
11.3794007581
20
-22.3720746285
30
0.0000000000
11
11.1733629080
21
-22.4245521952
31
0.0000000000
11
11.2376876559
21
-22.4181120216
31
0.0000000000
11
11.3009746656
21
-22.4033220730
31
0.0000000000
11
11.3615512277
21
-22.3805633542
31
0.0000000000
11
11.3794007581
21
-22.3720746285
31
0.0000000000
0
SPLINE
5
3F8
100
AcDbEntity
8
0
100
AcDbSpline
62
7
6
CONTINUOUS
70
0
71
3
72
18
73
14
74
12
42
0.0000001000
43
0.0000001000
44
0.0000000001
12
0.0000000000
22
0.3923594660
32
0.0000000000
13
0.3923594660
23
0.0000000000
33
0.0000000000
40
0.0000000000
40
0.0000000000
40
0.0000000000
40
0.0000000000
40
0.0909090103
40
0.1818180598
40
0.2727271497
40
0.3636362742
40
0.4545454220
40
0.5454545780
40
0.6363637258
40
0.7272728503
40
0.8181819402
40
0.9090909897
40
1.0000000000
40
1.0000000000
40
1.0000000000
40
1.0000000000
10
8.7733637689
20
24.2251432343
30
0.0000000000
10
8.7733637689
20
24.2370329045
30
0.0000000000
10
8.7750658864
20
24.2608471692
30
0.0000000000
10
8.7826735186
20
24.2958138070
30
0.0000000000
10
8.7951808152
20
24.3293493423
30
0.0000000000
10
8.8123332173
20
24.3607615588
30
0.0000000000
10
8.8337815945
20
24.3894135015
30
0.0000000000
10
8.8590892709
20
24.4147211779
30
0.0000000000
10
8.8877412135
20
24.4361695551
30
0.0000000000
10
8.9191534301
20
24.4533219572
30
0.0000000000
10
8.9526889653
20
24.4658292537
30
0.0000000000
10
8.9876556032
20
24.4734368859
30
0.0000000000
10
9.0114698679
20
24.4751390035
30
0.0000000000
10
9.0233595381
20
24.4751390035
30
0.0000000000
11
8.7733637689
21
24.2251432343
31
0.0000000000
11
8.7759082947
21
24.2607213696
31
0.0000000000
11
8.7834901272
21
24.2955752825
31
0.0000000000
11
8.7959549967
21
24.3289954498
31
0.0000000000
11
8.8130492108
21
24.3603015094
31
0.0000000000
11
8.8344248100
21
24.3888561225
31
0.0000000000
11
8.8596466498
21
24.4140779623
31
0.0000000000
11
8.8882012630
21
24.4354535616
31
0.0000000000
11
8.9195073226
21
24.4525477757
31
0.0000000000
11
8.9529274899
21
24.4650126452
31
0.0000000000
11
8.9877814028
21
24.4725944776
31
0.0000000000
11
9.0233595381
21
24.4751390035
31
0.0000000000
0
SPLINE
5
3F9
100
AcDbEntity
8
0
100
AcDbSpline
62
7
6
CONTINUOUS
70
0
71
3
72
18
73
14
74
12
42
0.0000001000
43
0.0000001000
44
0.0000000001
12
0.3923594660
22
0.0000000000
32
0.0000000000
13
-0.0000000000
23
-0.3923594660
33
0.0000000000
40
0.0000000000
40
0.0000000000
40
0.0000000000
40
0.0000000000
40
0.0909090103
40
0.1818180598
40
0.2727271497
40
0.3636362742
40
0.4545454220
40
0.5454545780
40
0.6363637258
40
0.7272728503
40
0.8181819402
40
0.9090909897
40
1.0000000000
40
1.0000000000
40
1.0000000000
40
1.0000000000
10
10.9233679997
20
24.4751390035
30
0.0000000000
10
10.9352576699
20
24.4751390035
30
0.0000000000
10
10.9590719346
20
24.4734368859
30
0.0000000000
10
10.9940385725
20
24.4658292537
30
0.0000000000
10
11.0275741077
20
24.4533219572
30
0.0000000000
10
11.0589863243
20
24.4361695551
30
0.0000000000
10
11.0876382669
20
24.4147211779
30
0.0000000000
10
11.1129459433
20
24.3894135015
30
0.0000000000
10
11.1343943205
20
24.3607615588
30
0.0000000000
10
11.1515467226
20
24.3293493423
30
0.0000000000
10
11.1640540191
20
24.2958138070
30
0.0000000000
10
11.1716616513
20
24.2608471692
30
0.0000000000
10
11.1733637689
20
24.2370329045
30
0.0000000000
10
11.1733637689
20
24.2251432343
30
0.0000000000
11
10.9233679997
21
24.4751390035
31
0.0000000000
11
10.9589461350
21
24.4725944776
31
0.0000000000
11
10.9938000479
21
24.4650126452
31
0.0000000000
11
11.0272202152
21
24.4525477757
31
0.0000000000
11
11.0585262748
21
24.4354535616
31
0.0000000000
11
11.0870808880
21
24.4140779623
31
0.0000000000
11
11.1123027278
21
24.3888561225
31
0.0000000000
11
11.1336783270
21
24.3603015094
31
0.0000000000
11
11.1507725411
21
24.3289954498
31
0.0000000000
11
11.1632374106
21
24.2955752825
31
0.0000000000
11
11.1708192430
21
24.2607213696
31
0.0000000000
11
11.1733637689
21
24.2251432343
31
0.0000000000
0
SPLINE
5
3FA
100
AcDbEntity
8
0
100
AcDbSpline
62
7
6
CONTINUOUS
70
0
71
3
72
18
73
14
74
12
42
0.0000001000
43
0.0000001000
44
0.0000000001
12
0.3923594660
22
0.0000000000
32
0.0000000000
13
-0.0000000000
23
-0.3923594660
33
0.0000000000
40
0.0000000000
40
0.0000000000
40
0.0000000000
40
0.0000000000
40
0.0909090103
40
0.1818180598
40
0.2727271497
40
0.3636362742
40
0.4545454220
40
0.5454545780
40
0.6363637258
40
0.7272728503
40
0.8181819402
40
0.9090909897
40
1.0000000000
40
1.0000000000
40
1.0000000000
40
1.0000000000
10
-7.9766320003
20
24.4751390035
30
0.0000000000
10
-7.9647423301
20
24.4751390035
30
0.0000000000
10
-7.9409280654
20
24.4734368859
30
0.0000000000
10
-7.9059614275
20
24.4658292537
30
0.0000000000
10
-7.8724258923
20
24.4533219572
30
0.0000000000
10
-7.8410136757
20
24.4361695551
30
0.0000000000
10
-7.8123617331
20
24.4147211779
30
0.0000000000
10
-7.7870540567
20
24.3894135015
30
0.0000000000
10
-7.7656056795
20
24.3607615588
30
0.0000000000
10
-7.7484532774
20
24.3293493423
30
0.0000000000
10
-7.7359459809
20
24.2958138070
30
0.0000000000
10
-7.7283383487
20
24.2608471692
30
0.0000000000
10
-7.7266362311
20
24.2370329045
30
0.0000000000
10
-7.7266362311
20
24.2251432343
30
0.0000000000
11
-7.9766320003
21
24.4751390035
31
0.0000000000
11
-7.9410538650
21
24.4725944776
31
0.0000000000
11
-7.9061999521
21
24.4650126452
31
0.0000000000
11
-7.8727797848
21
24.4525477757
31
0.0000000000
11
-7.8414737252
21
24.4354535616
31
0.0000000000
11
-7.8129191120
21
24.4140779623
31
0.0000000000
11
-7.7876972722
21
24.3888561225
31
0.0000000000
11
-7.7663216730
21
24.3603015094
31
0.0000000000
11
-7.7492274589
21
24.3289954498
31
0.0000000000
11
-7.7367625894
21
24.2955752825
31
0.0000000000
11
-7.7291807570
21
24.2607213696
31
0.0000000000
11
-7.7266362311
21
24.2251432343
31
0.0000000000
0
SPLINE
5
3FB
100
AcDbEntity
8
0
100
AcDbSpline
62
7
6
CONTINUOUS
70
0
71
3
72
18
73
14
74
12
42
0.0000001000
43
0.0000001000
44
0.0000000001
12
0.0000000000
22
0.3923594660
32
0.0000000000
13
0.3923594660
23
0.0000000000
33
0.0000000000
40
0.0000000000
40
0.0000000000
40
0.0000000000
40
0.0000000000
40
0.0909090103
40
0.1818180598
40
0.2727271497
40
0.3636362742
40
0.4545454220
40
0.5454545780
40
0.6363637258
40
0.7272728503
40
0.8181819402
40
0.9090909897
40
1.0000000000
40
1.0000000000
40
1.0000000000
40
1.0000000000
10
-10.1266362311
20
24.2251432343
30
0.0000000000
10
-10.1266362311
20
24.2370329045
30
0.0000000000
10
-10.1249341136
20
24.2608471692
30
0.0000000000
10
-10.1173264814
20
24.2958138070
30
0.0000000000
10
-10.1048191848
20
24.3293493423
30
0.0000000000
10
-10.0876667827
20
24.3607615588
30
0.0000000000
10
-10.0662184055
20
24.3894135015
30
0.0000000000
10
-10.0409107291
20
24.4147211779
30
0.0000000000
10
-10.0122587865
20
24.4361695551
30
0.0000000000
10
-9.9808465699
20
24.4533219572
30
0.0000000000
10
-9.9473110347
20
24.4658292537
30
0.0000000000
10
-9.9123443968
20
24.4734368859
30
0.0000000000
10
-9.8885301321
20
24.4751390035
30
0.0000000000
10
-9.8766404619
20
24.4751390035
30
0.0000000000
11
-10.1266362311
21
24.2251432343
31
0.0000000000
11
-10.1240917053
21
24.2607213696
31
0.0000000000
11
-10.1165098728
21
24.2955752825
31
0.0000000000
11
-10.1040450033
21
24.3289954498
31
0.0000000000
11
-10.0869507892
21
24.3603015094
31
0.0000000000
11
-10.0655751900
21
24.3888561225
31
0.0000000000
11
-10.0403533502
21
24.4140779623
31
0.0000000000
11
-10.0117987370
21
24.4354535616
31
0.0000000000
11
-9.9804926774
21
24.4525477757
31
0.0000000000
11
-9.9470725101
21
24.4650126452
31
0.0000000000
11
-9.9122185972
21
24.4725944776
31
0.0000000000
11
-9.8766404619
21
24.4751390035
31
0.0000000000
0
SPLINE
5
3FC
100
AcDbEntity
8
0
100
AcDbSpline
62
7
6
CONTINUOUS
70
0
71
3
72
18
73
14
74
12
42
0.0000001000
43
0.0000001000
44
0.0000000001
12
-0.3923594660
22
0.0000000000
32
0.0000000000
13
0.0000000000
23
0.3923594660
33
0.0000000000
40
0.0000000000
40
0.0000000000
40
0.0000000000
40
0.0000000000
40
0.0909090103
40
0.1818180598
40
0.2727271497
40
0.3636362742
40
0.4545454220
40
0.5454545780
40
0.6363637258
40
0.7272728503
40
0.8181819402
40
0.9090909897
40
1.0000000000
40
1.0000000000
40
1.0000000000
40
1.0000000000
10
9.0233595381
20
-24.5248609965
30
0.0000000000
10
9.0114698679
20
-24.5248609965
30
0.0000000000
10
8.9876556032
20
-24.5231588790
30
0.0000000000
10
8.9526889653
20
-24.5155512468
30
0.0000000000
10
8.9191534301
20
-24.5030439502
30
0.0000000000
10
8.8877412135
20
-24.4858915481
30
0.0000000000
10
8.8590892709
20
-24.4644431709
30
0.0000000000
10
8.8337815945
20
-24.4391354945
30
0.0000000000
10
8.8123332173
20
-24.4104835519
30
0.0000000000
10
8.7951808152
20
-24.3790713354
30
0.0000000000
10
8.7826735186
20
-24.3455358001
30
0.0000000000
10
8.7750658864
20
-24.3105691622
30
0.0000000000
10
8.7733637689
20
-24.2867548976
30
0.0000000000
10
8.7733637689
20
-24.2748652273
30
0.0000000000
11
9.0233595381
21
-24.5248609965
31
0.0000000000
11
8.9877814028
21
-24.5223164707
31
0.0000000000
11
8.9529274899
21
-24.5147346382
31
0.0000000000
11
8.9195073226
21
-24.5022697687
31
0.0000000000
11
8.8882012630
21
-24.4851755547
31
0.0000000000
11
8.8596466498
21
-24.4637999554
31
0.0000000000
11
8.8344248100
21
-24.4385781156
31
0.0000000000
11
8.8130492108
21
-24.4100235024
31
0.0000000000
11
8.7959549967
21
-24.3787174428
31
0.0000000000
11
8.7834901272
21
-24.3452972755
31
0.0000000000
11
8.7759082947
21
-24.3104433627
31
0.0000000000
11
8.7733637689
21
-24.2748652273
31
0.0000000000
0
SPLINE
5
3FD
100
AcDbEntity
8
0
100
AcDbSpline
62
7
6
CONTINUOUS
70
0
71
3
72
18
73
14
74
12
42
0.0000001000
43
0.0000001000
44
0.0000000001
12
0.0000000000
22
-0.3923594660
32
0.0000000000
13
-0.3923594660
23
0.0000000000
33
0.0000000000
40
0.0000000000
40
0.0000000000
40
0.0000000000
40
0.0000000000
40
0.0909090103
40
0.1818180598
40
0.2727271497
40
0.3636362742
40
0.4545454220
40
0.5454545780
40
0.6363637258
40
0.7272728503
40
0.8181819402
40
0.9090909897
40
1.0000000000
40
1.0000000000
40
1.0000000000
40
1.0000000000
10
11.1733637689
20
-24.2748652273
30
0.0000000000
10
11.1733637689
20
-24.2867548976
30
0.0000000000
10
11.1716616513
20
-24.3105691622
30
0.0000000000
10
11.1640540191
20
-24.3455358001
30
0.0000000000
10
11.1515467226
20
-24.3790713354
30
0.0000000000
10
11.1343943205
20
-24.4104835519
30
0.0000000000
10
11.1129459433
20
-24.4391354945
30
0.0000000000
10
11.0876382669
20
-24.4644431709
30
0.0000000000
10
11.0589863243
20
-24.4858915481
30
0.0000000000
10
11.0275741077
20
-24.5030439502
30
0.0000000000
10
10.9940385725
20
-24.5155512468
30
0.0000000000
10
10.9590719346
20
-24.5231588790
30
0.0000000000
10
10.9352576699
20
-24.5248609965
30
0.0000000000
10
10.9233679997
20
-24.5248609965
30
0.0000000000
11
11.1733637689
21
-24.2748652273
31
0.0000000000
11
11.1708192430
21
-24.3104433627
31
0.0000000000
11
11.1632374106
21
-24.3452972755
31
0.0000000000
11
11.1507725411
21
-24.3787174428
31
0.0000000000
11
11.1336783270
21
-24.4100235024
31
0.0000000000
11
11.1123027278
21
-24.4385781156
31
0.0000000000
11
11.0870808880
21
-24.4637999554
31
0.0000000000
11
11.0585262748
21
-24.4851755547
31
0.0000000000
11
11.0272202152
21
-24.5022697687
31
0.0000000000
11
10.9938000479
21
-24.5147346382
31
0.0000000000
11
10.9589461350
21
-24.5223164707
31
0.0000000000
11
10.9233679997
21
-24.5248609965
31
0.0000000000
0
SPLINE
5
3FE
100
AcDbEntity
8
0
100
AcDbSpline
62
7
6
CONTINUOUS
70
0
71
3
72
18
73
14
74
12
42
0.0000001000
43
0.0000001000
44
0.0000000001
12
-0.3923594660
22
0.0000000000
32
0.0000000000
13
0.0000000000
23
0.3923594660
33
0.0000000000
40
0.0000000000
40
0.0000000000
40
0.0000000000
40
0.0000000000
40
0.0909090103
40
0.1818180598
40
0.2727271497
40
0.3636362742
40
0.4545454220
40
0.5454545780
40
0.6363637258
40
0.7272728503
40
0.8181819402
40
0.9090909897
40
1.0000000000
40
1.0000000000
40
1.0000000000
40
1.0000000000
10
-9.8766404619
20
-24.5248609965
30
0.0000000000
10
-9.8885301321
20
-24.5248609965
30
0.0000000000
10
-9.9123443968
20
-24.5231588790
30
0.0000000000
10
-9.9473110347
20
-24.5155512468
30
0.0000000000
10
-9.9808465699
20
-24.5030439502
30
0.0000000000
10
-10.0122587865
20
-24.4858915481
30
0.0000000000
10
-10.0409107291
20
-24.4644431709
30
0.0000000000
10
-10.0662184055
20
-24.4391354945
30
0.0000000000
10
-10.0876667827
20
-24.4104835519
30
0.0000000000
10
-10.1048191848
20
-24.3790713354
30
0.0000000000
10
-10.1173264814
20
-24.3455358001
30
0.0000000000
10
-10.1249341136
20
-24.3105691622
30
0.0000000000
10
-10.1266362311
20
-24.2867548976
30
0.0000000000
10
-10.1266362311
20
-24.2748652273
30
0.0000000000
11
-9.8766404619
21
-24.5248609965
31
0.0000000000
11
-9.9122185972
21
-24.5223164707
31
0.0000000000
11
-9.9470725101
21
-24.5147346382
31
0.0000000000
11
-9.9804926774
21
-24.5022697687
31
0.0000000000
11
-10.0117987370
21
-24.4851755547
31
0.0000000000
11
-10.0403533502
21
-24.4637999554
31
0.0000000000
11
-10.0655751900
21
-24.4385781156
31
0.0000000000
11
-10.0869507892
21
-24.4100235024
31
0.0000000000
11
-10.1040450033
21
-24.3787174428
31
0.0000000000
11
-10.1165098728
21
-24.3452972755
31
0.0000000000
11
-10.1240917053
21
-24.3104433627
31
0.0000000000
11
-10.1266362311
21
-24.2748652273
31
0.0000000000
0
SPLINE
5
3FF
100
AcDbEntity
8
0
100
AcDbSpline
62
7
6
CONTINUOUS
70
0
71
3
72
18
73
14
74
12
42
0.0000001000
43
0.0000001000
44
0.0000000001
12
0.0000000000
22
-0.3923594660
32
0.0000000000
13
-0.3923594660
23
-0.0000000000
33
0.0000000000
40
0.0000000000
40
0.0000000000
40
0.0000000000
40
0.0000000000
40
0.0909090103
40
0.1818180598
40
0.2727271497
40
0.3636362742
40
0.4545454220
40
0.5454545780
40
0.6363637258
40
0.7272728503
40
0.8181819402
40
0.9090909897
40
1.0000000000
40
1.0000000000
40
1.0000000000
40
1.0000000000
10
-7.7266362311
20
-24.2748652273
30
0.0000000000
10
-7.7266362311
20
-24.2867548976
30
0.0000000000
10
-7.7283383487
20
-24.3105691622
30
0.0000000000
10
-7.7359459809
20
-24.3455358001
30
0.0000000000
10
-7.7484532774
20
-24.3790713354
30
0.0000000000
10
-7.7656056795
20
-24.4104835519
30
0.0000000000
10
-7.7870540567
20
-24.4391354945
30
0.0000000000
10
-7.8123617331
20
-24.4644431709
30
0.0000000000
10
-7.8410136757
20
-24.4858915481
30
0.0000000000
10
-7.8724258923
20
-24.5030439502
30
0.0000000000
10
-7.9059614275
20
-24.5155512468
30
0.0000000000
10
-7.9409280654
20
-24.5231588790
30
0.0000000000
10
-7.9647423301
20
-24.5248609965
30
0.0000000000
10
-7.9766320003
20
-24.5248609965
30
0.0000000000
11
-7.7266362311
21
-24.2748652273
31
0.0000000000
11
-7.7291807570
21
-24.3104433627
31
0.0000000000
11
-7.7367625894
21
-24.3452972755
31
0.0000000000
11
-7.7492274589
21
-24.3787174428
31
0.0000000000
11
-7.7663216730
21
-24.4100235024
31
0.0000000000
11
-7.7876972722
21
-24.4385781156
31
0.0000000000
11
-7.8129191120
21
-24.4637999554
31
0.0000000000
11
-7.8414737252
21
-24.4851755547
31
0.0000000000
11
-7.8727797848
21
-24.5022697687
31
0.0000000000
11
-7.9061999521
21
-24.5147346382
31
0.0000000000
11
-7.9410538650
21
-24.5223164707
31
0.0000000000
11
-7.9766320003
21
-24.5248609965
31
0.0000000000
0
SPLINE
5
400
100
AcDbEntity
8
0
100
AcDbSpline
62
7
6
CONTINUOUS
70
0
71
3
72
11
73
7
74
5
42
0.0000001000
43
0.0000001000
44
0.0000000001
12
0.2073876945
22
-0.1036754537
32
0.0000000000
13
0.2316598315
23
0.0000000000
33
0.0000000000
40
0.0000000000
40
0.0000000000
40
0.0000000000
40
0.0000000000
40
0.0760497115
40
0.3837369054
40
0.6920303720
40
1.0000000000
40
1.0000000000
40
1.0000000000
40
1.0000000000
10
-10.3501254994
20
-22.3633491018
30
0.0000000000
10
-10.3448682413
20
-22.3659772646
30
0.0000000000
10
-10.3181070176
20
-22.3787711321
30
0.0000000000
10
-10.2678653970
20
-22.3975089273
30
0.0000000000
10
-10.1979228817
20
-22.4127284014
30
0.0000000000
10
-10.1502653033
20
-22.4161341287
30
0.0000000000
10
-10.1264839060
20
-22.4161341287
30
0.0000000000
11
-10.3501254994
21
-22.3633491018
31
0.0000000000
11
-10.3342179278
21
-22.3709538869
31
0.0000000000
11
-10.2674331014
21
-22.3958627025
31
0.0000000000
11
-10.1976464002
21
-22.4110455958
31
0.0000000000
11
-10.1264839060
21
-22.4161341287
31
0.0000000000
0
SPLINE
5
401
100
AcDbEntity
8
0
100
AcDbSpline
62
7
6
CONTINUOUS
70
0
71
3
72
18
73
14
74
12
42
0.0000001000
43
0.0000001000
44
0.0000000001
12
0.0000000000
22
0.3000410888
32
0.0000000000
13
0.3000410888
23
0.0000000000
33
0.0000000000
40
0.0000000000
40
0.0000000000
40
0.0000000000
40
0.0000000000
40
0.0101331894
40
0.0405137385
40
0.0904288540
40
0.1583068908
40
0.2439349815
40
0.3456513967
40
0.4601999737
40
0.5846397139
40
0.7185740614
40
0.8585450709
40
1.0000000000
40
1.0000000000
40
1.0000000000
40
1.0000000000
10
-3.9766362311
20
19.9725209431
30
0.0000000000
10
-3.9766362311
20
19.9735344009
30
0.0000000000
10
-3.9701713427
20
19.9719306455
30
0.0000000000
10
-3.9634565266
20
19.9740312457
30
0.0000000000
10
-3.9473413122
20
19.9733518685
30
0.0000000000
10
-3.9275547813
20
19.9740932026
30
0.0000000000
10
-3.9018204074
20
19.9742210706
30
0.0000000000
10
-3.8717009170
20
19.9745355221
30
0.0000000000
10
-3.8376030015
20
19.9747362433
30
0.0000000000
10
-3.8003131996
20
19.9749170431
30
0.0000000000
10
-3.7604712856
20
19.9750435259
30
0.0000000000
10
-3.7189302552
20
19.9751218241
30
0.0000000000
10
-3.6907836614
20
19.9751390035
30
0.0000000000
10
-3.6766362311
20
19.9751390035
30
0.0000000000
11
-3.9766362311
21
19.9725209431
31
0.0000000000
11
-3.9736185055
21
19.9728913500
31
0.0000000000
11
-3.9645104594
21
19.9732577528
31
0.0000000000
11
-3.9495379767
21
19.9736082926
31
0.0000000000
11
-3.9291743840
21
19.9739341699
31
0.0000000000
11
-3.9034841900
21
19.9742341676
31
0.0000000000
11
-3.8729662482
21
19.9745005100
31
0.0000000000
11
-3.8385976996
21
19.9747246886
31
0.0000000000
11
-3.8012610874
21
19.9749024132
31
0.0000000000
11
-3.7610754927
21
19.9750331598
31
0.0000000000
11
-3.7190785139
21
19.9751126708
31
0.0000000000
11
-3.6766362311
21
19.9751390035
31
0.0000000000
0
SPLINE
5
402
100
AcDbEntity
8
0
100
AcDbSpline
62
7
6
CONTINUOUS
70
0
71
3
72
18
73
14
74
12
42
0.0000001000
43
0.0000001000
44
0.0000000001
12
-0.5002718639
22
0.0000000000
32
0.0000000000
13
0.0000000000
23
0.5002718639
33
0.0000000000
40
0.0000000000
40
0.0000000000
40
0.0000000000
40
0.0000000000
40
0.0104691420
40
0.0409117320
40
0.0907483099
40
0.1592317187
40
0.2445764980
40
0.3455990248
40
0.4595763739
40
0.5849133839
40
0.7183602474
40
0.8578045429
40
1.0000000000
40
1.0000000000
40
1.0000000000
40
1.0000000000
10
-9.0550704649
20
19.2751390035
30
0.0000000000
10
-9.0568162706
20
19.2751390035
30
0.0000000000
10
-9.0554808874
20
19.2857821227
30
0.0000000000
10
-9.0586005111
20
19.2972289477
30
0.0000000000
10
-9.0585134438
20
19.3240505061
30
0.0000000000
10
-9.0600557879
20
19.3571218504
30
0.0000000000
10
-9.0608321967
20
19.3999374834
30
0.0000000000
10
-9.0617537086
20
19.4499019727
30
0.0000000000
10
-9.0624628435
20
19.5066875870
30
0.0000000000
10
-9.0630540104
20
19.5688343149
30
0.0000000000
10
-9.0634794721
20
19.6352438195
30
0.0000000000
10
-9.0637401019
20
19.7044611484
30
0.0000000000
10
-9.0637979974
20
19.7514268747
30
0.0000000000
10
-9.0637979974
20
19.7751390035
30
0.0000000000
11
-9.0550704649
21
19.2751390035
31
0.0000000000
11
-9.0563123725
21
19.2802270487
31
0.0000000000
11
-9.0575302063
21
19.2954078498
31
0.0000000000
11
-9.0586956089
21
19.3203124351
31
0.0000000000
11
-9.0597900938
21
19.3545552709
31
0.0000000000
11
-9.0607852805
21
19.3972392628
31
0.0000000000
11
-9.0616672263
21
19.4477702946
31
0.0000000000
11
-9.0624121565
21
19.5047850892
31
0.0000000000
11
-9.0630097327
21
19.5674848212
31
0.0000000000
11
-9.0634443192
21
19.6342431178
31
0.0000000000
11
-9.0637092166
21
19.7040026725
31
0.0000000000
11
-9.0637979974
21
19.7751390035
31
0.0000000000
0
SPLINE
5
403
100
AcDbEntity
8
0
100
AcDbSpline
62
9
6
CONTINUOUS
70
0
71
3
72
17
73
13
74
11
42
0.0000001000
43
0.0000001000
44
0.0000000001
12
0.0001453269
22
-0.4707410336
32
0.0000000000
13
-0.4707410336
23
0.0001453245
33
0.0000000000
40
0.0000000000
40
0.0000000000
40
0.0000000000
40
0.0000000000
40
0.1000827617
40
0.2001303356
40
0.3001427185
40
0.4001077027
40
0.5000208983
40
0.5999201549
40
0.6998681637
40
0.7998709046
40
0.8999170628
40
1.0000000000
40
1.0000000000
40
1.0000000000
40
1.0000000000
10
7.0356737042
20
13.4627833767
30
0.0000000000
10
7.0356785524
20
13.4470790225
30
0.0000000000
10
7.0332131488
20
13.4156192029
30
0.0000000000
10
7.0221818302
20
13.3696424857
30
0.0000000000
10
7.0040952438
20
13.3259645253
30
0.0000000000
10
6.9794067989
20
13.2856770118
30
0.0000000000
10
6.9487303450
20
13.2497615055
30
0.0000000000
10
6.9128152350
20
13.2190888016
30
0.0000000000
10
6.8725324742
20
13.1944049585
30
0.0000000000
10
6.8288584578
20
13.1763204926
30
0.0000000000
10
6.7828834023
20
13.1652896127
30
0.0000000000
10
6.7514237774
20
13.1628242200
30
0.0000000000
10
6.7357193957
20
13.1628290682
30
0.0000000000
11
7.0356737042
21
13.4627833767
31
0.0000000000
11
7.0319897599
21
13.4158145632
31
0.0000000000
11
7.0210032684
21
13.3700174304
31
0.0000000000
11
7.0029899269
21
13.3265198468
31
0.0000000000
11
6.9784023308
21
13.2863966623
31
0.0000000000
11
6.9478555197
21
13.2506332970
31
0.0000000000
11
6.9120954682
21
13.2200927094
31
0.0000000000
11
6.8719783471
21
13.1955105128
31
0.0000000000
11
6.8284847850
21
13.1774993231
31
0.0000000000
11
6.7826882910
21
13.1665130255
31
0.0000000000
11
6.7357193957
21
13.1628290682
31
0.0000000000
0
SPLINE
5
404
100
AcDbEntity
8
0
100
AcDbSpline
62
7
6
CONTINUOUS
70
0
71
3
72
18
73
14
74
12
42
0.0000001000
43
0.0000001000
44
0.0000000001
12
-0.5000304280
22
0.0000000000
32
0.0000000000
13
0.0000000000
23
0.5000304280
33
0.0000000000
40
0.0000000000
40
0.0000000000
40
0.0000000000
40
0.0000000000
40
0.0102074906
40
0.0405737928
40
0.0903796442
40
0.1588581713
40
0.2442173468
40
0.3452710659
40
0.4592942765
40
0.5846896483
40
0.7182051632
40
0.8577248678
40
1.0000000000
40
1.0000000000
40
1.0000000000
40
1.0000000000
10
-5.9527831289
20
19.2751390035
30
0.0000000000
10
-5.9544844808
20
19.2751390035
30
0.0000000000
10
-5.9513222314
20
19.2859840437
30
0.0000000000
10
-5.9549652713
20
19.2971369563
30
0.0000000000
10
-5.9534766879
20
19.3240984325
30
0.0000000000
10
-5.9546189985
20
19.3570979197
30
0.0000000000
10
-5.9546423020
20
19.3999340148
30
0.0000000000
10
-5.9550305991
20
19.4498873743
30
0.0000000000
10
-5.9552407467
20
19.5066749901
30
0.0000000000
10
-5.9554459010
20
19.5688220287
30
0.0000000000
10
-5.9555853242
20
19.6352346219
30
0.0000000000
10
-5.9556729047
20
19.7044561314
30
0.0000000000
10
-5.9556920438
20
19.7514250384
30
0.0000000000
10
-5.9556920438
20
19.7751390035
30
0.0000000000
11
-5.9527831289
21
19.2751390035
31
0.0000000000
11
-5.9531970284
21
19.2802262496
31
0.0000000000
11
-5.9536029102
21
19.2954048990
31
0.0000000000
11
-5.9539913231
21
19.3203063111
31
0.0000000000
11
-5.9543561100
21
19.3545457152
31
0.0000000000
11
-5.9546878105
21
19.3972266114
31
0.0000000000
11
-5.9549817773
21
19.4477556907
31
0.0000000000
11
-5.9552300830
21
19.5047702248
31
0.0000000000
11
-5.9554292770
21
19.5674714098
31
0.0000000000
11
-5.9555741445
21
19.6342330727
31
0.0000000000
11
-5.9556624482
21
19.7039971144
31
0.0000000000
11
-5.9556920438
21
19.7751390035
31
0.0000000000
0
SPLINE
5
405
100
AcDbEntity
8
0
100
AcDbSpline
62
9
6
CONTINUOUS
70
0
71
3
72
17
73
13
74
11
42
0.0000001000
43
0.0000001000
44
0.0000000001
12
-0.4707410336
22
-0.0001453269
32
0.0000000000
13
0.0001453245
23
0.4707410336
33
0.0000000000
40
0.0000000000
40
0.0000000000
40
0.0000000000
40
0.0000000000
40
0.1000827617
40
0.2001303356
40
0.3001427185
40
0.4001077027
40
0.5000208983
40
0.5999201549
40
0.6998681637
40
0.7998709046
40
0.8999170628
40
1.0000000000
40
1.0000000000
40
1.0000000000
40
1.0000000000
10
-5.6889918579
20
13.1628290682
30
0.0000000000
10
-5.7046962121
20
13.1628242199
30
0.0000000000
10
-5.7361560317
20
13.1652896235
30
0.0000000000
10
-5.7821327489
20
13.1763209422
30
0.0000000000
10
-5.8258107093
20
13.1944075285
30
0.0000000000
10
-5.8660982228
20
13.2190959734
30
0.0000000000
10
-5.9020137291
20
13.2497724273
30
0.0000000000
10
-5.9326864330
20
13.2856875374
30
0.0000000000
10
-5.9573702761
20
13.3259702982
30
0.0000000000
10
-5.9754547419
20
13.3696443145
30
0.0000000000
10
-5.9864856219
20
13.4156193701
30
0.0000000000
10
-5.9889510146
20
13.4470789949
30
0.0000000000
10
-5.9889461664
20
13.4627833767
30
0.0000000000
11
-5.6889918579
21
13.1628290682
31
0.0000000000
11
-5.7359606714
21
13.1665130125
31
0.0000000000
11
-5.7817578042
21
13.1774995039
31
0.0000000000
11
-5.8252553878
21
13.1955128455
31
0.0000000000
11
-5.8653785723
21
13.2201004415
31
0.0000000000
11
-5.9011419375
21
13.2506472527
31
0.0000000000
11
-5.9316825252
21
13.2864073042
31
0.0000000000
11
-5.9562647218
21
13.3265244253
31
0.0000000000
11
-5.9742759115
21
13.3700179874
31
0.0000000000
11
-5.9852622090
21
13.4158144814
31
0.0000000000
11
-5.9889461664
21
13.4627833767
31
0.0000000000
0
SPLINE
5
406
100
AcDbEntity
8
0
100
AcDbSpline
62
7
6
CONTINUOUS
70
0
71
3
72
18
73
14
74
12
42
0.0000001000
43
0.0000001000
44
0.0000000001
12
-0.5000304280
22
0.0000000000
32
0.0000000000
13
0.0000000000
23
0.5000304280
33
0.0000000000
40
0.0000000000
40
0.0000000000
40
0.0000000000
40
0.0000000000
40
0.0102074906
40
0.0405737928
40
0.0903796442
40
0.1588581713
40
0.2442173468
40
0.3452710659
40
0.4592942765
40
0.5846896483
40
0.7182051632
40
0.8577248678
40
1.0000000000
40
1.0000000000
40
1.0000000000
40
1.0000000000
10
7.8472168711
20
19.2751390035
30
0.0000000000
10
7.8455155192
20
19.2751390035
30
0.0000000000
10
7.8486777686
20
19.2859840437
30
0.0000000000
10
7.8450347287
20
19.2971369563
30
0.0000000000
10
7.8465233121
20
19.3240984325
30
0.0000000000
10
7.8453810015
20
19.3570979197
30
0.0000000000
10
7.8453576980
20
19.3999340148
30
0.0000000000
10
7.8449694009
20
19.4498873743
30
0.0000000000
10
7.8447592533
20
19.5066749901
30
0.0000000000
10
7.8445540990
20
19.5688220287
30
0.0000000000
10
7.8444146758
20
19.6352346219
30
0.0000000000
10
7.8443270953
20
19.7044561314
30
0.0000000000
10
7.8443079562
20
19.7514250384
30
0.0000000000
10
7.8443079562
20
19.7751390035
30
0.0000000000
11
7.8472168711
21
19.2751390035
31
0.0000000000
11
7.8468029716
21
19.2802262496
31
0.0000000000
11
7.8463970898
21
19.2954048990
31
0.0000000000
11
7.8460086769
21
19.3203063111
31
0.0000000000
11
7.8456438900
21
19.3545457152
31
0.0000000000
11
7.8453121895
21
19.3972266114
31
0.0000000000
11
7.8450182227
21
19.4477556907
31
0.0000000000
11
7.8447699170
21
19.5047702248
31
0.0000000000
11
7.8445707230
21
19.5674714098
31
0.0000000000
11
7.8444258555
21
19.6342330727
31
0.0000000000
11
7.8443375518
21
19.7039971144
31
0.0000000000
11
7.8443079562
21
19.7751390035
31
0.0000000000
0
SPLINE
5
407
100
AcDbEntity
8
0
100
AcDbSpline
62
7
6
CONTINUOUS
70
0
71
3
72
9
73
5
74
3
42
0.0000001000
43
0.0000001000
44
0.0000000001
12
0.0039567437
22
-0.0039567437
32
0.0000000000
13
0.0002158296
23
-0.0055915167
33
0.0000000000
40
0.0000000000
40
0.0000000000
40
0.0000000000
40
0.0000000000
40
0.2717515543
40
1.0000000000
40
1.0000000000
40
1.0000000000
40
1.0000000000
10
-3.8329855842
20
23.7314883566
30
0.0000000000
10
-3.8326271672
20
23.7311299395
30
0.0000000000
10
-3.8330049337
20
23.7289504033
30
0.0000000000
10
-3.8326213564
20
23.7272697660
30
0.0000000000
10
-3.8325689639
20
23.7259124282
30
0.0000000000
11
-3.8329855842
21
23.7314883566
31
0.0000000000
11
-3.8327762601
21
23.7299821979
31
0.0000000000
11
-3.8325689639
21
23.7259124282
31
0.0000000000
0
SPLINE
5
408
100
AcDbEntity
8
0
100
AcDbSpline
62
7
6
CONTINUOUS
70
0
71
3
72
9
73
5
74
3
42
0.0000001000
43
0.0000001000
44
0.0000000001
12
-0.0039567437
22
-0.0039567437
32
0.0000000000
13
-0.0002158296
23
-0.0055915167
33
0.0000000000
40
0.0000000000
40
0.0000000000
40
0.0000000000
40
0.0000000000
40
0.2717515543
40
1.0000000000
40
1.0000000000
40
1.0000000000
40
1.0000000000
10
4.8797131220
20
23.7314883566
30
0.0000000000
10
4.8793547049
20
23.7311299395
30
0.0000000000
10
4.8797324715
20
23.7289504033
30
0.0000000000
10
4.8793488942
20
23.7272697660
30
0.0000000000
10
4.8792965016
20
23.7259124282
30
0.0000000000
11
4.8797131220
21
23.7314883566
31
0.0000000000
11
4.8795037978
21
23.7299821979
31
0.0000000000
11
4.8792965016
21
23.7259124282
31
0.0000000000
0
SPLINE
5
409
100
AcDbEntity
8
0
100
AcDbSpline
62
7
6
CONTINUOUS
70
0
71
3
72
9
73
5
74
3
42
0.0000001000
43
0.0000001000
44
0.0000000001
12
0.0002158296
22
-0.0055915167
32
0.0000000000
13
0.0039567437
23
-0.0039567437
33
0.0000000000
40
0.0000000000
40
0.0000000000
40
0.0000000000
40
0.0000000000
40
0.7282484456
40
1.0000000000
40
1.0000000000
40
1.0000000000
40
1.0000000000
10
4.8792965016
20
-23.7756344212
30
0.0000000000
10
4.8793488942
20
-23.7769917590
30
0.0000000000
10
4.8797324715
20
-23.7786723963
30
0.0000000000
10
4.8793547049
20
-23.7808519326
30
0.0000000000
10
4.8797131220
20
-23.7812103497
30
0.0000000000
11
4.8792965016
21
-23.7756344212
31
0.0000000000
11
4.8795037978
21
-23.7797041910
31
0.0000000000
11
4.8797131220
21
-23.7812103497
31
0.0000000000
0
SPLINE
5
40A
100
AcDbEntity
8
0
100
AcDbSpline
62
7
6
CONTINUOUS
70
0
71
3
72
9
73
5
74
3
42
0.0000001000
43
0.0000001000
44
0.0000000001
12
-0.0002158296
22
-0.0055915167
32
0.0000000000
13
-0.0039567437
23
-0.0039567437
33
0.0000000000
40
0.0000000000
40
0.0000000000
40
0.0000000000
40
0.0000000000
40
0.7282484456
40
1.0000000000
40
1.0000000000
40
1.0000000000
40
1.0000000000
10
-3.8325689639
20
-23.7756344212
30
0.0000000000
10
-3.8326213564
20
-23.7769917590
30
0.0000000000
10
-3.8330049337
20
-23.7786723963
30
0.0000000000
10
-3.8326271672
20
-23.7808519326
30
0.0000000000
10
-3.8329855842
20
-23.7812103497
30
0.0000000000
11
-3.8325689639
21
-23.7756344212
31
0.0000000000
11
-3.8327762601
21
-23.7797041910
31
0.0000000000
11
-3.8329855842
21
-23.7812103497
31
0.0000000000
0
SPLINE
5
40B
100
AcDbEntity
8
0
100
AcDbSpline
62
7
6
CONTINUOUS
70
0
71
3
72
11
73
7
74
5
42
0.0000001000
43
0.0000001000
44
0.0000000001
12
-0.2073876945
22
0.1036754537
32
0.0000000000
13
-0.2316598315
23
-0.0000000000
33
0.0000000000
40
0.0000000000
40
0.0000000000
40
0.0000000000
40
0.0000000000
40
0.0760497115
40
0.3837369054
40
0.6920303720
40
1.0000000000
40
1.0000000000
40
1.0000000000
40
1.0000000000
10
11.3968530372
20
22.3136271088
30
0.0000000000
10
11.3915957791
20
22.3162552716
30
0.0000000000
10
11.3648345553
20
22.3290491391
30
0.0000000000
10
11.3145929348
20
22.3477869342
30
0.0000000000
10
11.2446504195
20
22.3630064083
30
0.0000000000
10
11.1969928411
20
22.3664121357
30
0.0000000000
10
11.1732114437
20
22.3664121357
30
0.0000000000
11
11.3968530372
21
22.3136271088
31
0.0000000000
11
11.3809454656
21
22.3212318939
31
0.0000000000
11
11.3141606392
21
22.3461407095
31
0.0000000000
11
11.2443739380
21
22.3613236028
31
0.0000000000
11
11.1732114437
21
22.3664121357
31
0.0000000000
0
SPLINE
5
40C
100
AcDbEntity
8
0
100
AcDbSpline
62
7
6
CONTINUOUS
70
0
71
3
72
18
73
14
74
12
42
0.0000001000
43
0.0000001000
44
0.0000000001
12
0.4450903692
22
-0.4810902355
32
0.0000000000
13
0.0252793885
23
-0.6549154174
33
0.0000000000
40
0.0000000000
40
0.0000000000
40
0.0000000000
40
0.0000000000
40
0.1610700427
40
0.3161797675
40
0.4596391690
40
0.5858983805
40
0.6937258751
40
0.7831374497
40
0.8554530788
40
0.9120560403
40
0.9545072575
40
0.9834021834
40
1.0000000000
40
1.0000000000
40
1.0000000000
40
1.0000000000
10
4.4513337566
20
-23.2812188112
30
0.0000000000
10
4.4752306648
20
-23.3070485528
30
0.0000000000
10
4.5221403934
20
-23.3577520569
30
0.0000000000
10
4.5902223832
20
-23.4315645275
30
0.0000000000
10
4.6529302491
20
-23.4999878228
30
0.0000000000
10
4.7083410750
20
-23.5610847124
30
0.0000000000
10
4.7554155319
20
-23.6138032312
30
0.0000000000
10
4.7941368640
20
-23.6581661452
30
0.0000000000
10
4.8249206629
20
-23.6946260359
30
0.0000000000
10
4.8483059881
20
-23.7238163696
30
0.0000000000
10
4.8649726700
20
-23.7463981655
30
0.0000000000
10
4.8749883238
20
-23.7625866913
30
0.0000000000
10
4.8791566408
20
-23.7720110326
30
0.0000000000
10
4.8792965016
20
-23.7756344212
30
0.0000000000
11
4.4513337566
21
-23.2812188112
31
0.0000000000
11
4.5230047031
21
-23.3587263296
31
0.0000000000
11
4.5919066991
21
-23.4334735576
31
0.0000000000
11
4.6554048925
21
-23.5028164954
31
0.0000000000
11
4.7109611721
21
-23.5641449152
31
0.0000000000
11
4.7579852677
21
-23.6168995423
31
0.0000000000
11
4.7964615562
21
-23.6610991858
31
0.0000000000
11
4.8269521186
21
-23.6973854904
31
0.0000000000
11
4.8500365835
21
-23.7264259983
31
0.0000000000
11
4.8663249444
21
-23.7489823661
31
0.0000000000
11
4.8759802552
21
-23.7652739643
31
0.0000000000
11
4.8792965016
21
-23.7756344212
31
0.0000000000
0
SPLINE
5
40D
100
AcDbEntity
8
0
100
AcDbSpline
62
7
6
CONTINUOUS
70
0
71
3
72
18
73
14
74
12
42
0.0000001000
43
0.0000001000
44
0.0000000001
12
0.0000000000
22
0.6557630403
32
0.0000000000
13
0.4453347936
23
0.4813544294
33
0.0000000000
40
0.0000000000
40
0.0000000000
40
0.0000000000
40
0.0000000000
40
0.0161526913
40
0.0446274527
40
0.0867517597
40
0.1430990577
40
0.2152238647
40
0.3045425997
40
0.4124115318
40
0.5388851786
40
0.6827559966
40
0.8383959184
40
1.0000000000
40
1.0000000000
40
1.0000000000
40
1.0000000000
10
4.0233637689
20
-23.7760032869
30
0.0000000000
10
4.0233637689
20
-23.7724725075
30
0.0000000000
10
4.0273843581
20
-23.7631337430
30
0.0000000000
10
4.0371830532
20
-23.7471394341
30
0.0000000000
10
4.0536949939
20
-23.7246767862
30
0.0000000000
10
4.0769548583
20
-23.6955845178
30
0.0000000000
10
4.1076612593
20
-23.6591757554
30
0.0000000000
10
4.1463547635
20
-23.6148171452
30
0.0000000000
10
4.1934698844
20
-23.5620346304
30
0.0000000000
10
4.2490035038
20
-23.5007911886
30
0.0000000000
10
4.3119138006
20
-23.4321414513
30
0.0000000000
10
4.3802509749
20
-23.3580505304
30
0.0000000000
10
4.4273444498
20
-23.3071484247
30
0.0000000000
10
4.4513337566
20
-23.2812188112
30
0.0000000000
11
4.0233637689
21
-23.7760032869
31
0.0000000000
11
4.0264078754
21
-23.7658577933
31
0.0000000000
11
4.0358379339
21
-23.7497412312
31
0.0000000000
11
4.0519580672
21
-23.7273090540
31
0.0000000000
11
4.0749185014
21
-23.6983581283
31
0.0000000000
11
4.1053235908
21
-23.6621294630
31
0.0000000000
11
4.1437661924
21
-23.6179385499
31
0.0000000000
11
4.1908242841
21
-23.5651258372
31
0.0000000000
11
4.2464993870
21
-23.5036540039
31
0.0000000000
11
4.3102114944
21
-23.4340711215
31
0.0000000000
11
4.3793858469
21
-23.3590261602
31
0.0000000000
11
4.4513337566
21
-23.2812188112
31
0.0000000000
0
SPLINE
5
40E
100
AcDbEntity
8
0
100
AcDbSpline
62
7
6
CONTINUOUS
70
0
71
3
72
28
73
24
74
22
42
0.0000001000
43
0.0000001000
44
0.0000000001
12
0.0000000000
22
0.8560454358
32
0.0000000000
13
0.4748439349
23
-0.7122759476
33
0.0000000000
40
0.0000000000
40
0.0000000000
40
0.0000000000
40
0.0000000000
40
0.0056001076
40
0.0221878247
40
0.0493779407
40
0.0866467356
40
0.1330293372
40
0.1876956588
40
0.2491587429
40
0.3163869080
40
0.3874909704
40
0.4613265883
40
0.5357849589
40
0.6096852126
40
0.6809167069
40
0.7483330403
40
0.8100397611
40
0.8650010733
40
0.9117220307
40
0.9493664272
40
0.9769597041
40
0.9939700659
40
1.0000000000
40
1.0000000000
40
1.0000000000
40
1.0000000000
10
4.0233637689
20
-22.3587808917
30
0.0000000000
10
4.0233637689
20
-22.3571829095
30
0.0000000000
10
4.0334799557
20
-22.3597595128
30
0.0000000000
10
4.0439435477
20
-22.3564719600
30
0.0000000000
10
4.0690874541
20
-22.3575740952
30
0.0000000000
10
4.0998450906
20
-22.3564362434
30
0.0000000000
10
4.1396356951
20
-22.3562683523
30
0.0000000000
10
4.1858957457
20
-22.3558124570
30
0.0000000000
10
4.2382513605
20
-22.3555328246
30
0.0000000000
10
4.2952512394
20
-22.3552866743
30
0.0000000000
10
4.3557960286
20
-22.3551268108
30
0.0000000000
10
4.4183999546
20
-22.3550432704
30
0.0000000000
10
4.4818031161
20
-22.3550417190
30
0.0000000000
10
4.5444623334
20
-22.3551219592
30
0.0000000000
10
4.6051138126
20
-22.3552793083
30
0.0000000000
10
4.6622795034
20
-22.3555208680
30
0.0000000000
10
4.7148222456
20
-22.3558035835
30
0.0000000000
10
4.7613955963
20
-22.3562397553
30
0.0000000000
10
4.8012906597
20
-22.3564562902
30
0.0000000000
10
4.8328568182
20
-22.3574601152
30
0.0000000000
10
4.8572083645
20
-22.3566585358
30
0.0000000000
10
4.8700383260
20
-22.3594446702
30
0.0000000000
10
4.8783420758
20
-22.3573275044
30
0.0000000000
10
4.8792965016
20
-22.3587591634
30
0.0000000000
11
4.0233637689
21
-22.3587808917
31
0.0000000000
11
4.0281254129
21
-22.3582253110
31
0.0000000000
11
4.0423148468
21
-22.3576817968
31
0.0000000000
11
4.0655850464
21
-22.3571633286
31
0.0000000000
11
4.0974851684
21
-22.3566800990
31
0.0000000000
11
4.1371883935
21
-22.3562445240
31
0.0000000000
11
4.1839837053
21
-22.3558644688
31
0.0000000000
11
4.2365979594
21
-22.3555502193
31
0.0000000000
11
4.2941478098
21
-22.3553070843
31
0.0000000000
11
4.3550158936
21
-22.3551418697
31
0.0000000000
11
4.4182224807
21
-22.3550572490
31
0.0000000000
11
4.4819622289
21
-22.3550556311
31
0.0000000000
11
4.5452241515
21
-22.3551370413
31
0.0000000000
11
4.6062013315
21
-22.3552991630
31
0.0000000000
11
4.6639122761
21
-22.3555393721
31
0.0000000000
11
4.7167351139
21
-22.3558509450
31
0.0000000000
11
4.7637829785
21
-22.3562286179
31
0.0000000000
11
4.8037758910
21
-22.3566621697
31
0.0000000000
11
4.8359976058
21
-22.3571437715
31
0.0000000000
11
4.8596130399
21
-22.3576610493
31
0.0000000000
11
4.8741645629
21
-22.3582038339
31
0.0000000000
11
4.8792965016
21
-22.3587591634
31
0.0000000000
0
SPLINE
5
40F
100
AcDbEntity
8
0
100
AcDbSpline
62
7
6
CONTINUOUS
70
0
71
3
72
18
73
14
74
12
42
0.0000001000
43
0.0000001000
44
0.0000000001
12
0.4453347054
22
-0.4813543341
32
0.0000000000
13
0.0000000000
23
-0.6557629105
33
0.0000000000
40
0.0000000000
40
0.0000000000
40
0.0000000000
40
0.0000000000
40
0.1614952952
40
0.3171097781
40
0.4609917901
40
0.5874696091
40
0.6953300589
40
0.7846477581
40
0.8567778755
40
0.9131578401
40
0.9553196044
40
0.9838298659
40
1.0000000000
40
1.0000000000
40
1.0000000000
40
1.0000000000
10
-3.4046062188
20
-23.2812188112
30
0.0000000000
10
-3.3806330656
20
-23.3071309646
30
0.0000000000
10
-3.3335595259
20
-23.3580115244
30
0.0000000000
10
-3.2652404705
20
-23.4320825440
30
0.0000000000
10
-3.2023314173
20
-23.5007304095
30
0.0000000000
10
-3.1467964277
20
-23.5619746162
30
0.0000000000
10
-3.0996815449
20
-23.6147557596
30
0.0000000000
10
-3.0609878196
20
-23.6591129280
30
0.0000000000
10
-3.0302749430
20
-23.6955268021
30
0.0000000000
10
-3.0070031059
20
-23.7246304766
30
0.0000000000
10
-2.9904750520
20
-23.7471102441
30
0.0000000000
10
-2.9806641828
20
-23.7631195262
30
0.0000000000
10
-2.9766362311
20
-23.7724686955
30
0.0000000000
10
-2.9766362311
20
-23.7760032869
30
0.0000000000
11
-3.4046062188
21
-23.2812188112
31
0.0000000000
11
-3.3327067289
21
-23.3589737422
31
0.0000000000
11
-3.2635435524
21
-23.4340062900
31
0.0000000000
11
-3.1998262311
21
-23.5035943260
31
0.0000000000
11
-3.1441489099
21
-23.5650678193
31
0.0000000000
11
-3.0970939322
21
-23.6178758378
31
0.0000000000
11
-3.0586508677
21
-23.6620654325
31
0.0000000000
11
-3.0282421587
21
-23.6982955942
31
0.0000000000
11
-3.0052664983
21
-23.7272617754
31
0.0000000000
11
-2.9891296451
21
-23.7497121780
31
0.0000000000
11
-2.9796852800
21
-23.7658473365
31
0.0000000000
11
-2.9766362311
21
-23.7760032869
31
0.0000000000
0
SPLINE
5
410
100
AcDbEntity
8
0
100
AcDbSpline
62
7
6
CONTINUOUS
70
0
71
3
72
18
73
14
74
12
42
0.0000001000
43
0.0000001000
44
0.0000000001
12
0.0252793929
22
0.6549155310
32
0.0000000000
13
0.4450904464
23
0.4810903189
33
0.0000000000
40
0.0000000000
40
0.0000000000
40
0.0000000000
40
0.0000000000
40
0.0165806563
40
0.0454411065
40
0.0878560839
40
0.1444275358
40
0.2167384756
40
0.3061519021
40
0.4139889825
40
0.5402449784
40
0.6836932136
40
0.8388260589
40
1.0000000000
40
1.0000000000
40
1.0000000000
40
1.0000000000
10
-3.8325689639
20
-23.7756344212
30
0.0000000000
10
-3.8324292475
20
-23.7720147781
30
0.0000000000
10
-3.8282680192
20
-23.7626004738
30
0.0000000000
10
-3.8182642540
20
-23.7464265433
30
0.0000000000
10
-3.8016131181
20
-23.7238612884
30
0.0000000000
10
-3.7782392924
20
-23.6946819081
30
0.0000000000
10
-3.7474615413
20
-23.6582267381
30
0.0000000000
10
-3.7087400257
20
-23.6138620027
30
0.0000000000
10
-3.6616648813
20
-23.5611416739
30
0.0000000000
10
-3.6062550959
20
-23.5000452343
30
0.0000000000
10
-3.5435461694
20
-23.4316202998
30
0.0000000000
10
-3.4754471284
20
-23.3577891001
30
0.0000000000
10
-3.4285185459
20
-23.3070652188
30
0.0000000000
10
-3.4046062188
20
-23.2812188112
30
0.0000000000
11
-3.8325689639
21
-23.7756344212
31
0.0000000000
11
-3.8292576683
21
-23.7652841868
31
0.0000000000
11
-3.8196162582
21
-23.7490106122
31
0.0000000000
11
-3.8033440524
21
-23.7264718699
31
0.0000000000
11
-3.7802742565
21
-23.6974460746
31
0.0000000000
11
-3.7497869867
21
-23.6611610069
31
0.0000000000
11
-3.7113107656
21
-23.6169596821
31
0.0000000000
11
-3.6642830434
21
-23.5641998551
31
0.0000000000
11
-3.6087285362
21
-23.5028726541
31
0.0000000000
11
-3.5452355260
21
-23.4335348711
31
0.0000000000
11
-3.4763233833
21
-23.3587763633
31
0.0000000000
11
-3.4046062188
21
-23.2812188112
31
0.0000000000
0
SPLINE
5
411
100
AcDbEntity
8
0
100
AcDbSpline
62
7
6
CONTINUOUS
70
0
71
3
72
28
73
24
74
22
42
0.0000001000
43
0.0000001000
44
0.0000000001
12
0.4748439350
22
0.7122759476
32
0.0000000000
13
0.0000000000
23
-0.8560454358
33
0.0000000000
40
0.0000000000
40
0.0000000000
40
0.0000000000
40
0.0000000000
40
0.0060299341
40
0.0230402959
40
0.0506335728
40
0.0882779693
40
0.1349989267
40
0.1899602389
40
0.2516669597
40
0.3190832931
40
0.3903147874
40
0.4642150411
40
0.5386734117
40
0.6125090296
40
0.6836130920
40
0.7508412571
40
0.8123043412
40
0.8669706628
40
0.9133532644
40
0.9506220593
40
0.9778121753
40
0.9943998924
40
1.0000000000
40
1.0000000000
40
1.0000000000
40
1.0000000000
10
-3.8325689639
20
-22.3587591634
30
0.0000000000
10
-3.8316145380
20
-22.3573275044
30
0.0000000000
10
-3.8233107882
20
-22.3594446702
30
0.0000000000
10
-3.8104808267
20
-22.3566585358
30
0.0000000000
10
-3.7861292805
20
-22.3574601152
30
0.0000000000
10
-3.7545631219
20
-22.3564562902
30
0.0000000000
10
-3.7146680585
20
-22.3562397553
30
0.0000000000
10
-3.6680947078
20
-22.3558035835
30
0.0000000000
10
-3.6155519656
20
-22.3555208680
30
0.0000000000
10
-3.5583862748
20
-22.3552793083
30
0.0000000000
10
-3.4977347956
20
-22.3551219592
30
0.0000000000
10
-3.4350755783
20
-22.3550417190
30
0.0000000000
10
-3.3716724168
20
-22.3550432704
30
0.0000000000
10
-3.3090684908
20
-22.3551268108
30
0.0000000000
10
-3.2485237017
20
-22.3552866743
30
0.0000000000
10
-3.1915238227
20
-22.3555328246
30
0.0000000000
10
-3.1391682079
20
-22.3558124570
30
0.0000000000
10
-3.0929081573
20
-22.3562683523
30
0.0000000000
10
-3.0531175528
20
-22.3564362434
30
0.0000000000
10
-3.0223599163
20
-22.3575740952
30
0.0000000000
10
-2.9972160099
20
-22.3564719600
30
0.0000000000
10
-2.9867524179
20
-22.3597595128
30
0.0000000000
10
-2.9766362311
20
-22.3571829095
30
0.0000000000
10
-2.9766362311
20
-22.3587808917
30
0.0000000000
11
-3.8325689639
21
-22.3587591634
31
0.0000000000
11
-3.8274370251
21
-22.3582038339
31
0.0000000000
11
-3.8128855021
21
-22.3576610493
31
0.0000000000
11
-3.7892700680
21
-22.3571437715
31
0.0000000000
11
-3.7570483532
21
-22.3566621697
31
0.0000000000
11
-3.7170554407
21
-22.3562286179
31
0.0000000000
11
-3.6700075761
21
-22.3558509450
31
0.0000000000
11
-3.6171847383
21
-22.3555393721
31
0.0000000000
11
-3.5594737937
21
-22.3552991630
31
0.0000000000
11
-3.4984966137
21
-22.3551370413
31
0.0000000000
11
-3.4352346911
21
-22.3550556311
31
0.0000000000
11
-3.3714949429
21
-22.3550572490
31
0.0000000000
11
-3.3082883558
21
-22.3551418697
31
0.0000000000
11
-3.2474202720
21
-22.3553070843
31
0.0000000000
11
-3.1898704217
21
-22.3555502193
31
0.0000000000
11
-3.1372561675
21
-22.3558644688
31
0.0000000000
11
-3.0904608557
21
-22.3562445240
31
0.0000000000
11
-3.0507576306
21
-22.3566800990
31
0.0000000000
11
-3.0188575086
21
-22.3571633286
31
0.0000000000
11
-2.9955873091
21
-22.3576817968
31
0.0000000000
11
-2.9813978751
21
-22.3582253110
31
0.0000000000
11
-2.9766362311
21
-22.3587808917
31
0.0000000000
0
SPLINE
5
412
100
AcDbEntity
8
0
100
AcDbSpline
62
7
6
CONTINUOUS
70
0
71
3
72
18
73
14
74
12
42
0.0000001000
43
0.0000001000
44
0.0000000001
12
-0.4453347138
22
0.4813543431
32
0.0000000000
13
0.0000000000
23
0.6557629228
33
0.0000000000
40
0.0000000000
40
0.0000000000
40
0.0000000000
40
0.0000000000
40
0.1612016661
40
0.3168616821
40
0.4607450366
40
0.5870767765
40
0.6948071043
40
0.7840907429
40
0.8562933587
40
0.9129036648
40
0.9552698300
40
0.9838485666
40
1.0000000000
40
1.0000000000
40
1.0000000000
40
1.0000000000
10
4.4513337566
20
23.2314968182
30
0.0000000000
10
4.4274041906
20
23.2573618589
30
0.0000000000
10
4.3803674817
20
23.3082026148
30
0.0000000000
10
4.3120846866
20
23.3822337046
30
0.0000000000
10
4.2491897947
20
23.4508651353
30
0.0000000000
10
4.1936942424
20
23.5120640031
30
0.0000000000
10
4.1466225748
20
23.5647927890
30
0.0000000000
10
4.1079384828
20
23.6091317809
30
0.0000000000
10
4.0771825618
20
23.6455861532
30
0.0000000000
10
4.0538349851
20
23.6747710718
30
0.0000000000
10
4.0372362710
20
23.6973360109
30
0.0000000000
10
4.0273933442
20
23.7133906997
30
0.0000000000
10
4.0233637689
20
23.7227507901
30
0.0000000000
10
4.0233637689
20
23.7262812938
30
0.0000000000
11
4.4513337566
21
23.2314968182
31
0.0000000000
11
4.3795649189
21
23.3091103096
31
0.0000000000
11
4.3103811908
21
23.3841645249
31
0.0000000000
11
4.2466627542
21
23.4537527357
31
0.0000000000
11
4.1910486798
21
23.5151542712
31
0.0000000000
11
4.1440482388
21
23.5678965971
31
0.0000000000
11
4.1056159679
21
23.6120659781
31
0.0000000000
11
4.0751710007
21
23.6483277759
31
0.0000000000
11
4.0520949775
21
23.6774071468
31
0.0000000000
11
4.0358751921
21
23.6999630107
31
0.0000000000
11
4.0264075182
21
23.7161365563
31
0.0000000000
11
4.0233637689
21
23.7262812938
31
0.0000000000
0
SPLINE
5
413
100
AcDbEntity
8
0
100
AcDbSpline
62
7
6
CONTINUOUS
70
0
71
3
72
18
73
14
74
12
42
0.0000001000
43
0.0000001000
44
0.0000000001
12
-0.0252793934
22
-0.6549155442
32
0.0000000000
13
-0.4450904554
23
-0.4810903286
33
0.0000000000
40
0.0000000000
40
0.0000000000
40
0.0000000000
40
0.0000000000
40
0.0165612013
40
0.0454873726
40
0.0880998360
40
0.1448866598
40
0.2172643667
40
0.3066417466
40
0.4143507724
40
0.5404648439
40
0.6839186683
40
0.8391027189
40
1.0000000000
40
1.0000000000
40
1.0000000000
40
1.0000000000
10
4.8792965016
20
23.7259124282
30
0.0000000000
10
4.8791569493
20
23.7222970321
30
0.0000000000
10
4.8749942308
20
23.7128725792
30
0.0000000000
10
4.8649597239
20
23.6966550693
30
0.0000000000
10
4.8482414049
20
23.6740089690
30
0.0000000000
10
4.8247960106
20
23.6447527821
30
0.0000000000
10
4.7939787605
20
23.6082606506
30
0.0000000000
10
4.7552679422
20
23.5639147915
30
0.0000000000
10
4.7082355376
20
23.5112459514
30
0.0000000000
10
4.6528637291
20
23.4501930436
30
0.0000000000
10
4.5901669298
20
23.3817822209
30
0.0000000000
10
4.5221001693
20
23.3079865902
30
0.0000000000
10
4.4752050379
20
23.2572988601
30
0.0000000000
10
4.4513337566
20
23.2314968182
30
0.0000000000
11
4.8792965016
21
23.7259124282
31
0.0000000000
11
4.8759908179
21
23.7155737858
31
0.0000000000
11
4.8663269847
21
23.6992634296
31
0.0000000000
11
4.8499746640
21
23.6766228871
31
0.0000000000
11
4.8268109826
21
23.6474914024
31
0.0000000000
11
4.7962902583
21
23.6111772880
31
0.0000000000
11
4.7578259563
21
23.5669969085
31
0.0000000000
11
4.7108520256
21
23.5143015610
31
0.0000000000
11
4.6553590122
21
23.4530441609
31
0.0000000000
11
4.5918630640
21
23.3837040986
31
0.0000000000
11
4.5229278866
21
23.3089211783
31
0.0000000000
11
4.4513337566
21
23.2314968182
31
0.0000000000
0
SPLINE
5
414
100
AcDbEntity
8
0
100
AcDbSpline
62
7
6
CONTINUOUS
70
0
71
3
72
28
73
24
74
22
42
0.0000001000
43
0.0000001000
44
0.0000000001
12
-0.4748439350
22
-0.7122759476
32
0.0000000000
13
0.0000000000
23
0.8560454358
33
0.0000000000
40
0.0000000000
40
0.0000000000
40
0.0000000000
40
0.0000000000
40
0.0060299341
40
0.0230402959
40
0.0506335728
40
0.0882779693
40
0.1349989267
40
0.1899602389
40
0.2516669597
40
0.3190832931
40
0.3903147874
40
0.4642150411
40
0.5386734117
40
0.6125090296
40
0.6836130920
40
0.7508412571
40
0.8123043412
40
0.8669706628
40
0.9133532644
40
0.9506220593
40
0.9778121753
40
0.9943998924
40
1.0000000000
40
1.0000000000
40
1.0000000000
40
1.0000000000
10
4.8792965016
20
22.3090371704
30
0.0000000000
10
4.8783420758
20
22.3076055114
30
0.0000000000
10
4.8700383260
20
22.3097226772
30
0.0000000000
10
4.8572083645
20
22.3069365427
30
0.0000000000
10
4.8328568182
20
22.3077381222
30
0.0000000000
10
4.8012906597
20
22.3067342971
30
0.0000000000
10
4.7613955963
20
22.3065177623
30
0.0000000000
10
4.7148222456
20
22.3060815904
30
0.0000000000
10
4.6622795034
20
22.3057988750
30
0.0000000000
10
4.6051138126
20
22.3055573153
30
0.0000000000
10
4.5444623334
20
22.3053999661
30
0.0000000000
10
4.4818031161
20
22.3053197259
30
0.0000000000
10
4.4183999546
20
22.3053212774
30
0.0000000000
10
4.3557960286
20
22.3054048177
30
0.0000000000
10
4.2952512394
20
22.3055646813
30
0.0000000000
10
4.2382513605
20
22.3058108316
30
0.0000000000
10
4.1858957457
20
22.3060904640
30
0.0000000000
10
4.1396356951
20
22.3065463592
30
0.0000000000
10
4.0998450906
20
22.3067142503
30
0.0000000000
10
4.0690874541
20
22.3078521021
30
0.0000000000
10
4.0439435477
20
22.3067499669
30
0.0000000000
10
4.0334799557
20
22.3100375197
30
0.0000000000
10
4.0233637689
20
22.3074609165
30
0.0000000000
10
4.0233637689
20
22.3090588987
30
0.0000000000
11
4.8792965016
21
22.3090371704
31
0.0000000000
11
4.8741645629
21
22.3084818409
31
0.0000000000
11
4.8596130399
21
22.3079390563
31
0.0000000000
11
4.8359976058
21
22.3074217784
31
0.0000000000
11
4.8037758910
21
22.3069401767
31
0.0000000000
11
4.7637829785
21
22.3065066248
31
0.0000000000
11
4.7167351139
21
22.3061289520
31
0.0000000000
11
4.6639122761
21
22.3058173790
31
0.0000000000
11
4.6062013315
21
22.3055771699
31
0.0000000000
11
4.5452241515
21
22.3054150483
31
0.0000000000
11
4.4819622289
21
22.3053336380
31
0.0000000000
11
4.4182224807
21
22.3053352560
31
0.0000000000
11
4.3550158936
21
22.3054198766
31
0.0000000000
11
4.2941478098
21
22.3055850913
31
0.0000000000
11
4.2365979594
21
22.3058282262
31
0.0000000000
11
4.1839837053
21
22.3061424758
31
0.0000000000
11
4.1371883935
21
22.3065225309
31
0.0000000000
11
4.0974851684
21
22.3069581060
31
0.0000000000
11
4.0655850464
21
22.3074413356
31
0.0000000000
11
4.0423148468
21
22.3079598037
31
0.0000000000
11
4.0281254129
21
22.3085033180
31
0.0000000000
11
4.0233637689
21
22.3090588987
31
0.0000000000
0
SPLINE
5
415
100
AcDbEntity
8
0
100
AcDbSpline
62
7
6
CONTINUOUS
70
0
71
3
72
18
73
14
74
12
42
0.0000001000
43
0.0000001000
44
0.0000000001
12
-0.4450903719
22
0.4810902383
32
0.0000000000
13
-0.0252793887
23
0.6549154213
33
0.0000000000
40
0.0000000000
40
0.0000000000
40
0.0000000000
40
0.0000000000
40
0.1607870617
40
0.3159451345
40
0.4594086114
40
0.5855248047
40
0.6932231358
40
0.7825985590
40
0.8549817506
40
0.9118040473
40
0.9544563951
40
0.9834203014
40
1.0000000000
40
1.0000000000
40
1.0000000000
40
1.0000000000
10
-3.4046062188
20
23.2314968182
30
0.0000000000
10
-3.4284611431
20
23.2572811801
30
0.0000000000
10
-3.4753360581
20
23.3079470604
30
0.0000000000
10
-3.5433841904
20
23.3817222371
30
0.0000000000
10
-3.6060791400
20
23.4501305222
30
0.0000000000
10
-3.6614514756
20
23.5111832479
30
0.0000000000
10
-3.7084829087
20
23.5638498544
30
0.0000000000
10
-3.7471935635
20
23.6081937514
30
0.0000000000
10
-3.7780176385
20
23.6446912782
30
0.0000000000
10
-3.8014758413
20
23.6739597114
30
0.0000000000
10
-3.8182113297
20
23.6966241282
30
0.0000000000
10
-3.8282588426
20
23.7128576052
30
0.0000000000
10
-3.8324292556
20
23.7222929947
30
0.0000000000
10
-3.8325689639
20
23.7259124282
30
0.0000000000
11
-3.4046062188
21
23.2314968182
31
0.0000000000
11
-3.4761513186
21
23.3088681005
31
0.0000000000
11
-3.5450750881
21
23.3836383548
31
0.0000000000
11
-3.6085755692
21
23.4529828203
31
0.0000000000
11
-3.6640699083
21
23.5142408749
31
0.0000000000
11
-3.7110397848
21
23.5669304287
31
0.0000000000
11
-3.7495041961
21
23.6111089980
31
0.0000000000
11
-3.7800286794
21
23.6474246372
31
0.0000000000
11
-3.8032088260
21
23.6765727235
31
0.0000000000
11
-3.8195789140
21
23.6992326724
31
0.0000000000
11
-3.8292579454
21
23.7155627660
31
0.0000000000
11
-3.8325689639
21
23.7259124282
31
0.0000000000
0
SPLINE
5
416
100
AcDbEntity
8
0
100
AcDbSpline
62
7
6
CONTINUOUS
70
0
71
3
72
18
73
14
74
12
42
0.0000001000
43
0.0000001000
44
0.0000000001
12
0.0000000000
22
-0.6557630631
32
0.0000000000
13
-0.4453348090
23
-0.4813544461
33
0.0000000000
40
0.0000000000
40
0.0000000000
40
0.0000000000
40
0.0000000000
40
0.0161326616
40
0.0446726060
40
0.0869974468
40
0.1435711078
40
0.2157675599
40
0.3050524484
40
0.4127923755
40
0.5391209607
40
0.6829945913
40
0.8386829812
40
1.0000000000
40
1.0000000000
40
1.0000000000
40
1.0000000000
10
-2.9766362311
20
23.7262812938
30
0.0000000000
10
-2.9766362311
20
23.7227548926
30
0.0000000000
10
-2.9806578288
20
23.7134061215
30
0.0000000000
10
-2.9904874383
20
23.6973678180
30
0.0000000000
10
-3.0070683697
20
23.6748218205
30
0.0000000000
10
-3.0304026189
20
23.6456496469
30
0.0000000000
10
-3.0611512875
20
23.6092010517
30
0.0000000000
10
-3.0998351447
20
23.5648604652
30
0.0000000000
10
-3.1469073392
20
23.5121298759
30
0.0000000000
10
-3.2024020177
20
23.4509311576
30
0.0000000000
10
-3.2652989357
20
23.3822969624
30
0.0000000000
10
-3.3336014689
20
23.3082442001
30
0.0000000000
10
-3.3806595242
20
23.2573803729
30
0.0000000000
10
-3.4046062188
20
23.2314968182
30
0.0000000000
11
-2.9766362311
21
23.7262812938
31
0.0000000000
11
-2.9796746637
21
23.7161478109
31
0.0000000000
11
-2.9891267220
21
23.6999945964
31
0.0000000000
11
-3.0053280823
21
23.6774588541
31
0.0000000000
11
-3.0283870692
21
23.6483966314
31
0.0000000000
11
-3.0588279212
21
23.6121366430
31
0.0000000000
11
-3.0972597315
21
23.5679657581
31
0.0000000000
11
-3.1442637163
21
23.5152181384
31
0.0000000000
11
-3.1998759847
21
23.4538177345
31
0.0000000000
11
-3.2635898380
21
23.3842339454
31
0.0000000000
11
-3.3327860382
21
23.3091658915
31
0.0000000000
11
-3.4046062188
21
23.2314968182
31
0.0000000000
0
SPLINE
5
417
100
AcDbEntity
8
0
100
AcDbSpline
62
7
6
CONTINUOUS
70
0
71
3
72
28
73
24
74
22
42
0.0000001000
43
0.0000001000
44
0.0000000001
12
0.0000000000
22
-0.8560454358
32
0.0000000000
13
-0.4748439350
23
0.7122759476
33
0.0000000000
40
0.0000000000
40
0.0000000000
40
0.0000000000
40
0.0000000000
40
0.0056001076
40
0.0221878247
40
0.0493779407
40
0.0866467356
40
0.1330293372
40
0.1876956588
40
0.2491587429
40
0.3163869080
40
0.3874909704
40
0.4613265883
40
0.5357849589
40
0.6096852126
40
0.6809167069
40
0.7483330403
40
0.8100397611
40
0.8650010733
40
0.9117220307
40
0.9493664272
40
0.9769597041
40
0.9939700659
40
1.0000000000
40
1.0000000000
40
1.0000000000
40
1.0000000000
10
-2.9766362311
20
22.3090588987
30
0.0000000000
10
-2.9766362311
20
22.3074609165
30
0.0000000000
10
-2.9867524179
20
22.3100375197
30
0.0000000000
10
-2.9972160099
20
22.3067499669
30
0.0000000000
10
-3.0223599163
20
22.3078521021
30
0.0000000000
10
-3.0531175528
20
22.3067142503
30
0.0000000000
10
-3.0929081573
20
22.3065463592
30
0.0000000000
10
-3.1391682079
20
22.3060904640
30
0.0000000000
10
-3.1915238227
20
22.3058108316
30
0.0000000000
10
-3.2485237017
20
22.3055646813
30
0.0000000000
10
-3.3090684908
20
22.3054048177
30
0.0000000000
10
-3.3716724168
20
22.3053212774
30
0.0000000000
10
-3.4350755783
20
22.3053197259
30
0.0000000000
10
-3.4977347956
20
22.3053999661
30
0.0000000000
10
-3.5583862748
20
22.3055573153
30
0.0000000000
10
-3.6155519656
20
22.3057988750
30
0.0000000000
10
-3.6680947078
20
22.3060815904
30
0.0000000000
10
-3.7146680585
20
22.3065177623
30
0.0000000000
10
-3.7545631219
20
22.3067342971
30
0.0000000000
10
-3.7861292805
20
22.3077381222
30
0.0000000000
10
-3.8104808267
20
22.3069365427
30
0.0000000000
10
-3.8233107882
20
22.3097226772
30
0.0000000000
10
-3.8316145380
20
22.3076055114
30
0.0000000000
10
-3.8325689639
20
22.3090371704
30
0.0000000000
11
-2.9766362311
21
22.3090588987
31
0.0000000000
11
-2.9813978751
21
22.3085033180
31
0.0000000000
11
-2.9955873091
21
22.3079598037
31
0.0000000000
11
-3.0188575086
21
22.3074413356
31
0.0000000000
11
-3.0507576306
21
22.3069581060
31
0.0000000000
11
-3.0904608557
21
22.3065225309
31
0.0000000000
11
-3.1372561675
21
22.3061424758
31
0.0000000000
11
-3.1898704217
21
22.3058282262
31
0.0000000000
11
-3.2474202720
21
22.3055850913
31
0.0000000000
11
-3.3082883558
21
22.3054198766
31
0.0000000000
11
-3.3714949429
21
22.3053352560
31
0.0000000000
11
-3.4352346911
21
22.3053336380
31
0.0000000000
11
-3.4984966137
21
22.3054150483
31
0.0000000000
11
-3.5594737937
21
22.3055771699
31
0.0000000000
11
-3.6171847383
21
22.3058173790
31
0.0000000000
11
-3.6700075761
21
22.3061289520
31
0.0000000000
11
-3.7170554407
21
22.3065066248
31
0.0000000000
11
-3.7570483532
21
22.3069401767
31
0.0000000000
11
-3.7892700680
21
22.3074217784
31
0.0000000000
11
-3.8128855021
21
22.3079390563
31
0.0000000000
11
-3.8274370251
21
22.3084818409
31
0.0000000000
11
-3.8325689639
21
22.3090371704
31
0.0000000000
0
SPLINE
5
418
100
AcDbEntity
8
0
100
AcDbSpline
62
7
6
CONTINUOUS
70
0
71
3
72
18
73
14
74
12
42
0.0000001000
43
0.0000001000
44
0.0000000001
12
0.3000410888
22
0.0000000000
32
0.0000000000
13
0.0000000000
23
-0.3000410888
33
0.0000000000
40
0.0000000000
40
0.0000000000
40
0.0000000000
40
0.0000000000
40
0.1414549291
40
0.2814259386
40
0.4153602861
40
0.5398000263
40
0.6543486033
40
0.7560650185
40
0.8416931092
40
0.9095711460
40
0.9594862615
40
0.9898668106
40
1.0000000000
40
1.0000000000
40
1.0000000000
40
1.0000000000
10
4.7233637689
20
19.9751390035
30
0.0000000000
10
4.7375111992
20
19.9751390035
30
0.0000000000
10
4.7656577929
20
19.9751218241
30
0.0000000000
10
4.8071988234
20
19.9750435259
30
0.0000000000
10
4.8470407373
20
19.9749170431
30
0.0000000000
10
4.8843305393
20
19.9747362433
30
0.0000000000
10
4.9184284548
20
19.9745355221
30
0.0000000000
10
4.9485479452
20
19.9742210706
30
0.0000000000
10
4.9742823191
20
19.9740932026
30
0.0000000000
10
4.9940688500
20
19.9733518685
30
0.0000000000
10
5.0101840643
20
19.9740312457
30
0.0000000000
10
5.0168988804
20
19.9719306455
30
0.0000000000
10
5.0233637689
20
19.9735344009
30
0.0000000000
10
5.0233637689
20
19.9725209431
30
0.0000000000
11
4.7233637689
21
19.9751390035
31
0.0000000000
11
4.7658060517
21
19.9751126708
31
0.0000000000
11
4.8078030305
21
19.9750331598
31
0.0000000000
11
4.8479886252
21
19.9749024132
31
0.0000000000
11
4.8853252374
21
19.9747246886
31
0.0000000000
11
4.9196937860
21
19.9745005100
31
0.0000000000
11
4.9502117278
21
19.9742341676
31
0.0000000000
11
4.9759019218
21
19.9739341699
31
0.0000000000
11
4.9962655145
21
19.9736082926
31
0.0000000000
11
5.0112379972
21
19.9732577528
31
0.0000000000
11
5.0203460433
21
19.9728913500
31
0.0000000000
11
5.0233637689
21
19.9725209431
31
0.0000000000
0
SPLINE
5
419
100
AcDbEntity
8
0
100
AcDbSpline
62
7
6
CONTINUOUS
70
0
71
3
72
18
73
14
74
12
42
0.0000001000
43
0.0000001000
44
0.0000000001
12
0.0000000000
22
-0.5000304280
32
0.0000000000
13
-0.5000304280
23
0.0000000000
33
0.0000000000
40
0.0000000000
40
0.0000000000
40
0.0000000000
40
0.0000000000
40
0.1422751322
40
0.2817948368
40
0.4153103517
40
0.5407057235
40
0.6547289341
40
0.7557826532
40
0.8411418287
40
0.9096203558
40
0.9594262072
40
0.9897925094
40
1.0000000000
40
1.0000000000
40
1.0000000000
40
1.0000000000
10
-6.7975804184
20
19.7751390035
30
0.0000000000
10
-6.7975804184
20
19.7514250384
30
0.0000000000
10
-6.7975995575
20
19.7044561314
30
0.0000000000
10
-6.7976871380
20
19.6352346219
30
0.0000000000
10
-6.7978265612
20
19.5688220287
30
0.0000000000
10
-6.7980317155
20
19.5066749901
30
0.0000000000
10
-6.7982418631
20
19.4498873743
30
0.0000000000
10
-6.7986301602
20
19.3999340148
30
0.0000000000
10
-6.7986534637
20
19.3570979197
30
0.0000000000
10
-6.7997957744
20
19.3240984325
30
0.0000000000
10
-6.7983071909
20
19.2971369563
30
0.0000000000
10
-6.8019502308
20
19.2859840437
30
0.0000000000
10
-6.7987879814
20
19.2751390035
30
0.0000000000
10
-6.8004893333
20
19.2751390035
30
0.0000000000
11
-6.7975804184
21
19.7751390035
31
0.0000000000
11
-6.7976100140
21
19.7039971144
31
0.0000000000
11
-6.7976983177
21
19.6342330727
31
0.0000000000
11
-6.7978431852
21
19.5674714098
31
0.0000000000
11
-6.7980423793
21
19.5047702248
31
0.0000000000
11
-6.7982906850
21
19.4477556907
31
0.0000000000
11
-6.7985846517
21
19.3972266114
31
0.0000000000
11
-6.7989163522
21
19.3545457152
31
0.0000000000
11
-6.7992811391
21
19.3203063111
31
0.0000000000
11
-6.7996695520
21
19.2954048990
31
0.0000000000
11
-6.8000754338
21
19.2802262496
31
0.0000000000
11
-6.8004893333
21
19.2751390035
31
0.0000000000
0
SPLINE
5
41A
100
AcDbEntity
8
0
100
AcDbSpline
62
7
6
CONTINUOUS
70
0
71
3
72
10
73
6
74
4
42
0.0000001000
43
0.0000001000
44
0.0000000001
12
0.0176000091
22
0.0006200554
32
0.0000000000
13
0.0176109281
23
0.0000000000
33
0.0000000000
40
0.0000000000
40
0.0000000000
40
0.0000000000
40
0.0000000000
40
0.3333346336
40
0.6666679752
40
1.0000000000
40
1.0000000000
40
1.0000000000
40
1.0000000000
10
-10.1266362311
20
22.3748289715
30
0.0000000000
10
-10.1246806669
20
22.3748978668
30
0.0000000000
10
-10.1207686963
20
22.3750126815
30
0.0000000000
10
-10.1148991756
20
22.3751160364
30
0.0000000000
10
-10.1109856031
20
22.3751390035
30
0.0000000000
10
-10.1090288410
20
22.3751390035
30
0.0000000000
11
-10.1266362311
21
22.3748289715
31
0.0000000000
11
-10.1207684260
21
22.3750012039
31
0.0000000000
11
-10.1148990263
21
22.3751045525
31
0.0000000000
11
-10.1090288410
21
22.3751390035
31
0.0000000000
0
SPLINE
5
41B
100
AcDbEntity
8
0
100
AcDbSpline
62
7
6
CONTINUOUS
70
0
71
3
72
11
73
7
74
5
42
0.0000001000
43
0.0000001000
44
0.0000000001
12
-0.2316598315
22
0.0000000000
32
0.0000000000
13
-0.2073876945
23
-0.1036754537
33
0.0000000000
40
0.0000000000
40
0.0000000000
40
0.0000000000
40
0.0000000000
40
0.3079696280
40
0.6162630946
40
0.9239502885
40
1.0000000000
40
1.0000000000
40
1.0000000000
40
1.0000000000
10
-10.1264839060
20
22.3664121357
30
0.0000000000
10
-10.1502653033
20
22.3664121357
30
0.0000000000
10
-10.1979228817
20
22.3630064083
30
0.0000000000
10
-10.2678653970
20
22.3477869342
30
0.0000000000
10
-10.3181070176
20
22.3290491391
30
0.0000000000
10
-10.3448682413
20
22.3162552716
30
0.0000000000
10
-10.3501254994
20
22.3136271088
30
0.0000000000
11
-10.1264839060
21
22.3664121357
31
0.0000000000
11
-10.1976464002
21
22.3613236028
31
0.0000000000
11
-10.2674331014
21
22.3461407095
31
0.0000000000
11
-10.3342179278
21
22.3212318939
31
0.0000000000
11
-10.3501254994
21
22.3136271088
31
0.0000000000
0
SPLINE
5
41C
100
AcDbEntity
8
0
100
AcDbSpline
62
7
6
CONTINUOUS
70
0
71
3
72
10
73
6
74
4
42
0.0000001000
43
0.0000001000
44
0.0000000001
12
-0.0176109281
22
0.0000000000
32
0.0000000000
13
-0.0176000091
23
0.0006200554
33
0.0000000000
40
0.0000000000
40
0.0000000000
40
0.0000000000
40
0.0000000000
40
0.3333320248
40
0.6666653664
40
1.0000000000
40
1.0000000000
40
1.0000000000
40
1.0000000000
10
-10.1090288410
20
-22.4248609965
30
0.0000000000
10
-10.1109856031
20
-22.4248609965
30
0.0000000000
10
-10.1148991756
20
-22.4248380294
30
0.0000000000
10
-10.1207686963
20
-22.4247346746
30
0.0000000000
10
-10.1246806669
20
-22.4246198598
30
0.0000000000
10
-10.1266362311
20
-22.4245509645
30
0.0000000000
11
-10.1090288410
21
-22.4248609965
31
0.0000000000
11
-10.1148990263
21
-22.4248265455
31
0.0000000000
11
-10.1207684260
21
-22.4247231969
31
0.0000000000
11
-10.1266362311
21
-22.4245509645
31
0.0000000000
0
SPLINE
5
41D
100
AcDbEntity
8
0
100
AcDbSpline
62
7
6
CONTINUOUS
70
0
71
3
72
18
73
14
74
12
42
0.0000001000
43
0.0000001000
44
0.0000000001
12
0.0000000000
22
-0.5000304280
32
0.0000000000
13
-0.5000304280
23
0.0000000000
33
0.0000000000
40
0.0000000000
40
0.0000000000
40
0.0000000000
40
0.0000000000
40
0.1422751322
40
0.2817948368
40
0.4153103517
40
0.5407057235
40
0.6547289341
40
0.7557826532
40
0.8411418287
40
0.9096203558
40
0.9594262072
40
0.9897925094
40
1.0000000000
40
1.0000000000
40
1.0000000000
40
1.0000000000
10
7.0024195816
20
19.7751390035
30
0.0000000000
10
7.0024195816
20
19.7514250384
30
0.0000000000
10
7.0024004425
20
19.7044561314
30
0.0000000000
10
7.0023128620
20
19.6352346219
30
0.0000000000
10
7.0021734388
20
19.5688220287
30
0.0000000000
10
7.0019682845
20
19.5066749901
30
0.0000000000
10
7.0017581369
20
19.4498873743
30
0.0000000000
10
7.0013698398
20
19.3999340148
30
0.0000000000
10
7.0013465363
20
19.3570979197
30
0.0000000000
10
7.0002042256
20
19.3240984325
30
0.0000000000
10
7.0016928091
20
19.2971369563
30
0.0000000000
10
6.9980497692
20
19.2859840437
30
0.0000000000
10
7.0012120186
20
19.2751390035
30
0.0000000000
10
6.9995106667
20
19.2751390035
30
0.0000000000
11
7.0024195816
21
19.7751390035
31
0.0000000000
11
7.0023899860
21
19.7039971144
31
0.0000000000
11
7.0023016823
21
19.6342330727
31
0.0000000000
11
7.0021568148
21
19.5674714098
31
0.0000000000
11
7.0019576207
21
19.5047702248
31
0.0000000000
11
7.0017093150
21
19.4477556907
31
0.0000000000
11
7.0014153483
21
19.3972266114
31
0.0000000000
11
7.0010836478
21
19.3545457152
31
0.0000000000
11
7.0007188609
21
19.3203063111
31
0.0000000000
11
7.0003304480
21
19.2954048990
31
0.0000000000
11
6.9999245662
21
19.2802262496
31
0.0000000000
11
6.9995106667
21
19.2751390035
31
0.0000000000
0
SPLINE
5
41E
100
AcDbEntity
8
0
100
AcDbSpline
62
7
6
CONTINUOUS
70
0
71
3
72
18
73
14
74
12
42
0.0000001000
43
0.0000001000
44
0.0000000001
12
0.0000000000
22
-0.5002718639
32
0.0000000000
13
-0.5002718639
23
0.0000000000
33
0.0000000000
40
0.0000000000
40
0.0000000000
40
0.0000000000
40
0.0000000000
40
0.1421954571
40
0.2816397526
40
0.4150866161
40
0.5404236261
40
0.6544009752
40
0.7554235020
40
0.8407682813
40
0.9092516901
40
0.9590882680
40
0.9895308580
40
1.0000000000
40
1.0000000000
40
1.0000000000
40
1.0000000000
10
10.1105255351
20
19.7751390035
30
0.0000000000
10
10.1105255351
20
19.7514268747
30
0.0000000000
10
10.1104676397
20
19.7044611484
30
0.0000000000
10
10.1102070099
20
19.6352438195
30
0.0000000000
10
10.1097815482
20
19.5688343149
30
0.0000000000
10
10.1091903812
20
19.5066875870
30
0.0000000000
10
10.1084812464
20
19.4499019727
30
0.0000000000
10
10.1075597345
20
19.3999374834
30
0.0000000000
10
10.1067833257
20
19.3571218504
30
0.0000000000
10
10.1052409816
20
19.3240505061
30
0.0000000000
10
10.1053280489
20
19.2972289477
30
0.0000000000
10
10.1022084252
20
19.2857821227
30
0.0000000000
10
10.1035438084
20
19.2751390035
30
0.0000000000
10
10.1017980027
20
19.2751390035
30
0.0000000000
11
10.1105255351
21
19.7751390035
31
0.0000000000
11
10.1104367544
21
19.7040026725
31
0.0000000000
11
10.1101718570
21
19.6342431178
31
0.0000000000
11
10.1097372705
21
19.5674848212
31
0.0000000000
11
10.1091396943
21
19.5047850892
31
0.0000000000
11
10.1083947640
21
19.4477702946
31
0.0000000000
11
10.1075128183
21
19.3972392628
31
0.0000000000
11
10.1065176316
21
19.3545552709
31
0.0000000000
11
10.1054231466
21
19.3203124351
31
0.0000000000
11
10.1042577440
21
19.2954078498
31
0.0000000000
11
10.1030399103
21
19.2802270487
31
0.0000000000
11
10.1017980027
21
19.2751390035
31
0.0000000000
0
SPLINE
5
41F
100
AcDbEntity
8
0
100
AcDbSpline
62
7
6
CONTINUOUS
70
0
71
3
72
18
73
14
74
12
42
0.0000001000
43
0.0000001000
44
0.0000000001
12
-0.1578409399
22
0.4739078986
32
0.0000000000
13
0.0000000000
23
0.4995022108
33
0.0000000000
40
0.0000000000
40
0.0000000000
40
0.0000000000
40
0.0000000000
40
0.0168850185
40
0.0524137367
40
0.1058505898
40
0.1764357885
40
0.2624485662
40
0.3627729459
40
0.4748820158
40
0.5973098602
40
0.7270886859
40
0.8622995714
40
1.0000000000
40
1.0000000000
40
1.0000000000
40
1.0000000000
10
-8.9979255144
20
14.7551220780
30
0.0000000000
10
-8.9988138968
20
14.7577893926
30
0.0000000000
10
-8.9992502502
20
14.7666400174
30
0.0000000000
10
-9.0006235002
20
14.7841111189
30
0.0000000000
10
-9.0014971302
20
14.8107183390
30
0.0000000000
10
-9.0025590161
20
14.8456506199
30
0.0000000000
10
-9.0034478663
20
14.8884279098
30
0.0000000000
10
-9.0042647038
20
14.9381099629
30
0.0000000000
10
-9.0049486949
20
14.9938614742
30
0.0000000000
10
-9.0054982804
20
15.0545176270
30
0.0000000000
10
-9.0058984872
20
15.1190218581
30
0.0000000000
10
-9.0061420010
20
15.1860696623
30
0.0000000000
10
-9.0061962831
20
15.2315096226
30
0.0000000000
10
-9.0061962831
20
15.2544368454
30
0.0000000000
11
-8.9979255144
21
14.7551220780
31
0.0000000000
11
-8.9991203226
21
14.7634711226
31
0.0000000000
11
-9.0002847852
21
14.7811795511
31
0.0000000000
11
-9.0013935679
21
14.8078483379
31
0.0000000000
11
-9.0024302352
21
14.8430905570
31
0.0000000000
11
-9.0033696626
21
14.8860438577
31
0.0000000000
11
-9.0041995513
21
14.9361492350
31
0.0000000000
11
-9.0048989978
21
14.9921435949
31
0.0000000000
11
-9.0054589305
21
15.0532940103
31
0.0000000000
11
-9.0058656538
21
15.1181175448
31
0.0000000000
11
-9.0061133103
21
15.1856552269
31
0.0000000000
11
-9.0061962831
21
15.2544368454
31
0.0000000000
0
SPLINE
5
420
100
AcDbEntity
8
0
100
AcDbSpline
62
7
6
CONTINUOUS
70
0
71
3
72
18
73
14
74
12
42
0.0000001000
43
0.0000001000
44
0.0000000001
12
0.0000000000
22
-0.4995022108
32
0.0000000000
13
-0.1578409399
23
-0.4739078986
33
0.0000000000
40
0.0000000000
40
0.0000000000
40
0.0000000000
40
0.0000000000
40
0.1377004286
40
0.2729113141
40
0.4026901398
40
0.5251179842
40
0.6372270541
40
0.7375514338
40
0.8235642115
40
0.8941494102
40
0.9475862633
40
0.9831149815
40
1.0000000000
40
1.0000000000
40
1.0000000000
40
1.0000000000
10
10.0529238209
20
15.2544368454
30
0.0000000000
10
10.0529238209
20
15.2315096226
30
0.0000000000
10
10.0528695388
20
15.1860696623
30
0.0000000000
10
10.0526260250
20
15.1190218581
30
0.0000000000
10
10.0522258182
20
15.0545176270
30
0.0000000000
10
10.0516762327
20
14.9938614742
30
0.0000000000
10
10.0509922416
20
14.9381099629
30
0.0000000000
10
10.0501754041
20
14.8884279098
30
0.0000000000
10
10.0492865539
20
14.8456506199
30
0.0000000000
10
10.0482246680
20
14.8107183390
30
0.0000000000
10
10.0473510380
20
14.7841111189
30
0.0000000000
10
10.0459777880
20
14.7666400174
30
0.0000000000
10
10.0455414346
20
14.7577893926
30
0.0000000000
10
10.0446530522
20
14.7551220780
30
0.0000000000
11
10.0529238209
21
15.2544368454
31
0.0000000000
11
10.0528408481
21
15.1856552269
31
0.0000000000
11
10.0525931916
21
15.1181175448
31
0.0000000000
11
10.0521864683
21
15.0532940103
31
0.0000000000
11
10.0516265356
21
14.9921435949
31
0.0000000000
11
10.0509270890
21
14.9361492350
31
0.0000000000
11
10.0500972004
21
14.8860438577
31
0.0000000000
11
10.0491577730
21
14.8430905570
31
0.0000000000
11
10.0481211057
21
14.8078483379
31
0.0000000000
11
10.0470123229
21
14.7811795511
31
0.0000000000
11
10.0458478603
21
14.7634711226
31
0.0000000000
11
10.0446530522
21
14.7551220780
31
0.0000000000
0
SPLINE
5
421
100
AcDbEntity
8
0
100
AcDbSpline
62
7
6
CONTINUOUS
70
0
71
3
72
10
73
6
74
4
42
0.0000001000
43
0.0000001000
44
0.0000000001
12
0.0176109281
22
0.0000000000
32
0.0000000000
13
0.0176000091
23
-0.0006200554
33
0.0000000000
40
0.0000000000
40
0.0000000000
40
0.0000000000
40
0.0000000000
40
0.3333320248
40
0.6666653664
40
1.0000000000
40
1.0000000000
40
1.0000000000
40
1.0000000000
10
11.1557563788
20
22.3751390035
30
0.0000000000
10
11.1577131409
20
22.3751390035
30
0.0000000000
10
11.1616267133
20
22.3751160364
30
0.0000000000
10
11.1674962341
20
22.3750126815
30
0.0000000000
10
11.1714082047
20
22.3748978668
30
0.0000000000
10
11.1733637689
20
22.3748289715
30
0.0000000000
11
11.1557563788
21
22.3751390035
31
0.0000000000
11
11.1616265641
21
22.3751045525
31
0.0000000000
11
11.1674959638
21
22.3750012039
31
0.0000000000
11
11.1733637689
21
22.3748289715
31
0.0000000000
0
SPLINE
5
422
100
AcDbEntity
8
0
100
AcDbSpline
62
7
6
CONTINUOUS
70
0
71
3
72
10
73
6
74
4
42
0.0000001000
43
0.0000001000
44
0.0000000001
12
-0.0176000091
22
-0.0006200554
32
0.0000000000
13
-0.0176109281
23
0.0000000000
33
0.0000000000
40
0.0000000000
40
0.0000000000
40
0.0000000000
40
0.0000000000
40
0.3333346336
40
0.6666679752
40
1.0000000000
40
1.0000000000
40
1.0000000000
40
1.0000000000
10
11.1733637689
20
-22.4245509645
30
0.0000000000
10
11.1714082047
20
-22.4246198598
30
0.0000000000
10
11.1674962341
20
-22.4247346746
30
0.0000000000
10
11.1616267133
20
-22.4248380294
30
0.0000000000
10
11.1577131409
20
-22.4248609965
30
0.0000000000
10
11.1557563788
20
-22.4248609965
30
0.0000000000
11
11.1733637689
21
-22.4245509645
31
0.0000000000
11
11.1674959638
21
-22.4247231969
31
0.0000000000
11
11.1616265641
21
-22.4248265455
31
0.0000000000
11
11.1557563788
21
-22.4248609965
31
0.0000000000
0
SPLINE
5
423
100
AcDbEntity
8
0
100
AcDbSpline
62
7
6
CONTINUOUS
70
0
71
3
72
11
73
7
74
5
42
0.0000001000
43
0.0000001000
44
0.0000000001
12
0.2316598315
22
0.0000000000
32
0.0000000000
13
0.2073876945
23
0.1036754537
33
0.0000000000
40
0.0000000000
40
0.0000000000
40
0.0000000000
40
0.0000000000
40
0.3079696280
40
0.6162630946
40
0.9239502885
40
1.0000000000
40
1.0000000000
40
1.0000000000
40
1.0000000000
10
11.1732114437
20
-22.4161341287
30
0.0000000000
10
11.1969928411
20
-22.4161341287
30
0.0000000000
10
11.2446504195
20
-22.4127284014
30
0.0000000000
10
11.3145929348
20
-22.3975089273
30
0.0000000000
10
11.3648345553
20
-22.3787711321
30
0.0000000000
10
11.3915957791
20
-22.3659772646
30
0.0000000000
10
11.3968530372
20
-22.3633491018
30
0.0000000000
11
11.1732114437
21
-22.4161341287
31
0.0000000000
11
11.2443739380
21
-22.4110455958
31
0.0000000000
11
11.3141606392
21
-22.3958627025
31
0.0000000000
11
11.3809454656
21
-22.3709538869
31
0.0000000000
11
11.3968530372
21
-22.3633491018
31
0.0000000000
0
SPLINE
5
424
100
AcDbEntity
8
0
100
AcDbSpline
62
7
6
CONTINUOUS
70
0
71
3
72
18
73
14
74
12
42
0.0000001000
43
0.0000001000
44
0.0000000001
12
-0.7846442912
22
0.0000000000
32
0.0000000000
13
0.0000000000
23
-0.7846442912
33
0.0000000000
40
0.0000000000
40
0.0000000000
40
0.0000000000
40
0.0000000000
40
0.0908164987
40
0.1817113867
40
0.2724205288
40
0.3633775303
40
0.4540716926
40
0.5451007617
40
0.6358638258
40
0.7269477360
40
0.8178383033
40
0.9089451916
40
1.0000000000
40
1.0000000000
40
1.0000000000
40
1.0000000000
10
-8.5641785971
20
20.6864709981
30
0.0000000000
10
-8.5879314795
20
20.6864709981
30
0.0000000000
10
-8.6355275276
20
20.6830691596
30
0.0000000000
10
-8.7053747451
20
20.6678651915
30
0.0000000000
10
-8.7723945470
20
20.6428593098
30
0.0000000000
10
-8.8351222110
20
20.6085899851
30
0.0000000000
10
-8.8923994501
20
20.5656914259
30
0.0000000000
10
-8.9429522657
20
20.5151108891
30
0.0000000000
10
-8.9858513148
20
20.4577699924
30
0.0000000000
10
-9.0201388828
20
20.3949398277
30
0.0000000000
10
-9.0451681594
20
20.3277834116
30
0.0000000000
10
-9.0603913693
20
20.2577712327
30
0.0000000000
10
-9.0637979974
20
20.2100573578
30
0.0000000000
10
-9.0637979974
20
20.1862421460
30
0.0000000000
11
-8.5641785971
21
20.6864709981
31
0.0000000000
11
-8.6352556653
21
20.6813871823
31
0.0000000000
11
-8.7049444246
21
20.6662200688
31
0.0000000000
11
-8.7716280393
21
20.6413385046
31
0.0000000000
11
-8.8342600840
21
20.6071223428
31
0.0000000000
11
-8.8912188550
21
20.5644629697
31
0.0000000000
11
-8.9417110549
21
20.5139443480
31
0.0000000000
11
-8.9843741317
21
20.4569208168
31
0.0000000000
11
-9.0186103212
21
20.3941862526
31
0.0000000000
11
-9.0435186491
21
20.3273606876
31
0.0000000000
11
-9.0587059952
21
20.2575060945
31
0.0000000000
11
-9.0637979974
21
20.1862421460
31
0.0000000000
0
SPLINE
5
425
100
AcDbEntity
8
0
100
AcDbSpline
62
7
6
CONTINUOUS
70
0
71
3
72
18
73
14
74
12
42
0.0000001000
43
0.0000001000
44
0.0000000001
12
0.0000000000
22
0.7846442912
32
0.0000000000
13
0.7846442912
23
0.0000000000
33
0.0000000000
40
0.0000000000
40
0.0000000000
40
0.0000000000
40
0.0000000000
40
0.0910548084
40
0.1821616967
40
0.2730522640
40
0.3641361742
40
0.4548992383
40
0.5459283074
40
0.6366224697
40
0.7275794712
40
0.8182886133
40
0.9091835013
40
1.0000000000
40
1.0000000000
40
1.0000000000
40
1.0000000000
10
-9.1266362311
20
20.3749101514
30
0.0000000000
10
-9.1266362311
20
20.3987253633
30
0.0000000000
10
-9.1232296030
20
20.4464392381
30
0.0000000000
10
-9.1080063931
20
20.5164514170
30
0.0000000000
10
-9.0829771165
20
20.5836078331
30
0.0000000000
10
-9.0486895485
20
20.6464379979
30
0.0000000000
10
-9.0057904995
20
20.7037788945
30
0.0000000000
10
-8.9552376839
20
20.7543594313
30
0.0000000000
10
-8.8979604447
20
20.7972579905
30
0.0000000000
10
-8.8352327807
20
20.8315273152
30
0.0000000000
10
-8.7682129789
20
20.8565331969
30
0.0000000000
10
-8.6983657614
20
20.8717371650
30
0.0000000000
10
-8.6507697133
20
20.8751390035
30
0.0000000000
10
-8.6270168308
20
20.8751390035
30
0.0000000000
11
-9.1266362311
21
20.3749101514
31
0.0000000000
11
-9.1215442289
21
20.4461740999
31
0.0000000000
11
-9.1063568829
21
20.5160286930
31
0.0000000000
11
-9.0814485550
21
20.5828542580
31
0.0000000000
11
-9.0472123654
21
20.6455888222
31
0.0000000000
11
-9.0045492887
21
20.7026123535
31
0.0000000000
11
-8.9540570888
21
20.7531309751
31
0.0000000000
11
-8.8970983177
21
20.7957903482
31
0.0000000000
11
-8.8344662731
21
20.8300065100
31
0.0000000000
11
-8.7677826583
21
20.8548880742
31
0.0000000000
11
-8.6980938991
21
20.8700551877
31
0.0000000000
11
-8.6270168308
21
20.8751390035
31
0.0000000000
0
SPLINE
5
426
100
AcDbEntity
8
0
100
AcDbSpline
62
7
6
CONTINUOUS
70
0
71
3
72
18
73
14
74
12
42
0.0000001000
43
0.0000001000
44
0.0000000001
12
-0.7846442912
22
0.0000000000
32
0.0000000000
13
0.0000000000
23
0.7846442912
33
0.0000000000
40
0.0000000000
40
0.0000000000
40
0.0000000000
40
0.0000000000
40
0.0908164987
40
0.1817113867
40
0.2724205288
40
0.3633775303
40
0.4540716926
40
0.5451007617
40
0.6358638258
40
0.7269477360
40
0.8178383033
40
0.9089451916
40
1.0000000000
40
1.0000000000
40
1.0000000000
40
1.0000000000
10
-8.6270168308
20
-20.9248609965
30
0.0000000000
10
-8.6507697133
20
-20.9248609965
30
0.0000000000
10
-8.6983657614
20
-20.9214591581
30
0.0000000000
10
-8.7682129789
20
-20.9062551899
30
0.0000000000
10
-8.8352327807
20
-20.8812493082
30
0.0000000000
10
-8.8979604447
20
-20.8469799836
30
0.0000000000
10
-8.9552376839
20
-20.8040814244
30
0.0000000000
10
-9.0057904995
20
-20.7535008875
30
0.0000000000
10
-9.0486895485
20
-20.6961599909
30
0.0000000000
10
-9.0829771165
20
-20.6333298262
30
0.0000000000
10
-9.1080063931
20
-20.5661734101
30
0.0000000000
10
-9.1232296030
20
-20.4961612312
30
0.0000000000
10
-9.1266362311
20
-20.4484473563
30
0.0000000000
10
-9.1266362311
20
-20.4246321445
30
0.0000000000
11
-8.6270168308
21
-20.9248609965
31
0.0000000000
11
-8.6980938991
21
-20.9197771807
31
0.0000000000
11
-8.7677826583
21
-20.9046100673
31
0.0000000000
11
-8.8344662731
21
-20.8797285031
31
0.0000000000
11
-8.8970983177
21
-20.8455123413
31
0.0000000000
11
-8.9540570888
21
-20.8028529682
31
0.0000000000
11
-9.0045492887
21
-20.7523343465
31
0.0000000000
11
-9.0472123654
21
-20.6953108153
31
0.0000000000
11
-9.0814485550
21
-20.6325762511
31
0.0000000000
11
-9.1063568829
21
-20.5657506861
31
0.0000000000
11
-9.1215442289
21
-20.4958960930
31
0.0000000000
11
-9.1266362311
21
-20.4246321445
31
0.0000000000
0
SPLINE
5
427
100
AcDbEntity
8
0
100
AcDbSpline
62
7
6
CONTINUOUS
70
0
71
3
72
18
73
14
74
12
42
0.0000001000
43
0.0000001000
44
0.0000000001
12
0.0000000000
22
-0.7846442912
32
0.0000000000
13
0.7846442912
23
-0.0000000000
33
0.0000000000
40
0.0000000000
40
0.0000000000
40
0.0000000000
40
0.0000000000
40
0.0910548084
40
0.1821616967
40
0.2730522640
40
0.3641361742
40
0.4548992383
40
0.5459283074
40
0.6366224697
40
0.7275794712
40
0.8182886133
40
0.9091835013
40
1.0000000000
40
1.0000000000
40
1.0000000000
40
1.0000000000
10
-8.9712861532
20
-19.9582029088
30
0.0000000000
10
-8.9712861532
20
-19.9820181207
30
0.0000000000
10
-8.9678795251
20
-20.0297319956
30
0.0000000000
10
-8.9526563152
20
-20.0997441745
30
0.0000000000
10
-8.9276270387
20
-20.1669005905
30
0.0000000000
10
-8.8933394707
20
-20.2297307553
30
0.0000000000
10
-8.8504404216
20
-20.2870716519
30
0.0000000000
10
-8.7998876060
20
-20.3376521888
30
0.0000000000
10
-8.7426103669
20
-20.3805507479
30
0.0000000000
10
-8.6798827028
20
-20.4148200726
30
0.0000000000
10
-8.6128629010
20
-20.4398259543
30
0.0000000000
10
-8.5430156835
20
-20.4550299225
30
0.0000000000
10
-8.4954196354
20
-20.4584317609
30
0.0000000000
10
-8.4716667530
20
-20.4584317609
30
0.0000000000
11
-8.9712861532
21
-19.9582029088
31
0.0000000000
11
-8.9661941510
21
-20.0294668573
31
0.0000000000
11
-8.9510068050
21
-20.0993214504
31
0.0000000000
11
-8.9260984771
21
-20.1661470155
31
0.0000000000
11
-8.8918622876
21
-20.2288815797
31
0.0000000000
11
-8.8491992108
21
-20.2859051109
31
0.0000000000
11
-8.7987070109
21
-20.3364237326
31
0.0000000000
11
-8.7417482399
21
-20.3790831057
31
0.0000000000
11
-8.6791161952
21
-20.4132992675
31
0.0000000000
11
-8.6124325805
21
-20.4381808316
31
0.0000000000
11
-8.5427438212
21
-20.4533479451
31
0.0000000000
11
-8.4716667530
21
-20.4584317609
31
0.0000000000
0
SPLINE
5
428
100
AcDbEntity
8
0
100
AcDbSpline
62
7
6
CONTINUOUS
70
0
71
3
72
18
73
14
74
12
42
0.0000001000
43
0.0000001000
44
0.0000000001
12
0.7846442912
22
0.0000000000
32
0.0000000000
13
-0.0000000000
23
0.7846442912
33
0.0000000000
40
0.0000000000
40
0.0000000000
40
0.0000000000
40
0.0000000000
40
0.0908164987
40
0.1817113867
40
0.2724205288
40
0.3633775303
40
0.4540716926
40
0.5451007617
40
0.6358638258
40
0.7269477360
40
0.8178383033
40
0.9089451916
40
1.0000000000
40
1.0000000000
40
1.0000000000
40
1.0000000000
10
9.5183942908
20
-20.4584317609
30
0.0000000000
10
9.5421471732
20
-20.4584317609
30
0.0000000000
10
9.5897432213
20
-20.4550299225
30
0.0000000000
10
9.6595904388
20
-20.4398259543
30
0.0000000000
10
9.7266102406
20
-20.4148200726
30
0.0000000000
10
9.7893379047
20
-20.3805507479
30
0.0000000000
10
9.8466151438
20
-20.3376521888
30
0.0000000000
10
9.8971679594
20
-20.2870716519
30
0.0000000000
10
9.9400670085
20
-20.2297307553
30
0.0000000000
10
9.9743545764
20
-20.1669005905
30
0.0000000000
10
9.9993838530
20
-20.0997441745
30
0.0000000000
10
10.0146070629
20
-20.0297319956
30
0.0000000000
10
10.0180136910
20
-19.9820181207
30
0.0000000000
10
10.0180136910
20
-19.9582029088
30
0.0000000000
11
9.5183942908
21
-20.4584317609
31
0.0000000000
11
9.5894713590
21
-20.4533479451
31
0.0000000000
11
9.6591601183
21
-20.4381808316
31
0.0000000000
11
9.7258437330
21
-20.4132992675
31
0.0000000000
11
9.7884757777
21
-20.3790831057
31
0.0000000000
11
9.8454345487
21
-20.3364237326
31
0.0000000000
11
9.8959267486
21
-20.2859051109
31
0.0000000000
11
9.9385898253
21
-20.2288815797
31
0.0000000000
11
9.9728260149
21
-20.1661470155
31
0.0000000000
11
9.9977343428
21
-20.0993214504
31
0.0000000000
11
10.0129216888
21
-20.0294668573
31
0.0000000000
11
10.0180136910
21
-19.9582029088
31
0.0000000000
0
SPLINE
5
429
100
AcDbEntity
8
0
100
AcDbSpline
62
7
6
CONTINUOUS
70
0
71
3
72
18
73
14
74
12
42
0.0000001000
43
0.0000001000
44
0.0000000001
12
0.0000000000
22
-0.7846442912
32
0.0000000000
13
-0.7846442912
23
0.0000000000
33
0.0000000000
40
0.0000000000
40
0.0000000000
40
0.0000000000
40
0.0000000000
40
0.0910548084
40
0.1821616967
40
0.2730522640
40
0.3641361742
40
0.4548992383
40
0.5459283074
40
0.6366224697
40
0.7275794712
40
0.8182886133
40
0.9091835013
40
1.0000000000
40
1.0000000000
40
1.0000000000
40
1.0000000000
10
10.1733637689
20
-20.4246321445
30
0.0000000000
10
10.1733637689
20
-20.4484473563
30
0.0000000000
10
10.1699571408
20
-20.4961612312
30
0.0000000000
10
10.1547339309
20
-20.5661734101
30
0.0000000000
10
10.1297046543
20
-20.6333298262
30
0.0000000000
10
10.0954170863
20
-20.6961599909
30
0.0000000000
10
10.0525180372
20
-20.7535008875
30
0.0000000000
10
10.0019652217
20
-20.8040814244
30
0.0000000000
10
9.9446879825
20
-20.8469799836
30
0.0000000000
10
9.8819603185
20
-20.8812493082
30
0.0000000000
10
9.8149405166
20
-20.9062551899
30
0.0000000000
10
9.7450932991
20
-20.9214591581
30
0.0000000000
10
9.6974972511
20
-20.9248609965
30
0.0000000000
10
9.6737443686
20
-20.9248609965
30
0.0000000000
11
10.1733637689
21
-20.4246321445
31
0.0000000000
11
10.1682717667
21
-20.4958960930
31
0.0000000000
11
10.1530844207
21
-20.5657506861
31
0.0000000000
11
10.1281760928
21
-20.6325762511
31
0.0000000000
11
10.0939399032
21
-20.6953108153
31
0.0000000000
11
10.0512768265
21
-20.7523343465
31
0.0000000000
11
10.0007846265
21
-20.8028529682
31
0.0000000000
11
9.9438258555
21
-20.8455123413
31
0.0000000000
11
9.8811938109
21
-20.8797285031
31
0.0000000000
11
9.8145101961
21
-20.9046100673
31
0.0000000000
11
9.7448214369
21
-20.9197771807
31
0.0000000000
11
9.6737443686
21
-20.9248609965
31
0.0000000000
0
SPLINE
5
42A
100
AcDbEntity
8
0
100
AcDbSpline
62
7
6
CONTINUOUS
70
0
71
3
72
18
73
14
74
12
42
0.0000001000
43
0.0000001000
44
0.0000000001
12
0.7846442912
22
0.0000000000
32
0.0000000000
13
0.0000000000
23
-0.7846442912
33
0.0000000000
40
0.0000000000
40
0.0000000000
40
0.0000000000
40
0.0000000000
40
0.0908164987
40
0.1817113867
40
0.2724205288
40
0.3633775303
40
0.4540716926
40
0.5451007617
40
0.6358638258
40
0.7269477360
40
0.8178383033
40
0.9089451916
40
1.0000000000
40
1.0000000000
40
1.0000000000
40
1.0000000000
10
9.6737443686
20
20.8751390035
30
0.0000000000
10
9.6974972511
20
20.8751390035
30
0.0000000000
10
9.7450932991
20
20.8717371650
30
0.0000000000
10
9.8149405166
20
20.8565331969
30
0.0000000000
10
9.8819603185
20
20.8315273152
30
0.0000000000
10
9.9446879825
20
20.7972579905
30
0.0000000000
10
10.0019652217
20
20.7543594313
30
0.0000000000
10
10.0525180372
20
20.7037788945
30
0.0000000000
10
10.0954170863
20
20.6464379979
30
0.0000000000
10
10.1297046543
20
20.5836078331
30
0.0000000000
10
10.1547339309
20
20.5164514170
30
0.0000000000
10
10.1699571408
20
20.4464392381
30
0.0000000000
10
10.1733637689
20
20.3987253633
30
0.0000000000
10
10.1733637689
20
20.3749101514
30
0.0000000000
11
9.6737443686
21
20.8751390035
31
0.0000000000
11
9.7448214369
21
20.8700551877
31
0.0000000000
11
9.8145101961
21
20.8548880742
31
0.0000000000
11
9.8811938109
21
20.8300065100
31
0.0000000000
11
9.9438258555
21
20.7957903482
31
0.0000000000
11
10.0007846265
21
20.7531309751
31
0.0000000000
11
10.0512768265
21
20.7026123535
31
0.0000000000
11
10.0939399032
21
20.6455888222
31
0.0000000000
11
10.1281760928
21
20.5828542580
31
0.0000000000
11
10.1530844207
21
20.5160286930
31
0.0000000000
11
10.1682717667
21
20.4461740999
31
0.0000000000
11
10.1733637689
21
20.3749101514
31
0.0000000000
0
SPLINE
5
42B
100
AcDbEntity
8
0
100
AcDbSpline
62
7
6
CONTINUOUS
70
0
71
3
72
18
73
14
74
12
42
0.0000001000
43
0.0000001000
44
0.0000000001
12
0.0000000000
22
0.7846442912
32
0.0000000000
13
-0.7846442912
23
-0.0000000000
33
0.0000000000
40
0.0000000000
40
0.0000000000
40
0.0000000000
40
0.0000000000
40
0.0910548084
40
0.1821616967
40
0.2730522640
40
0.3641361742
40
0.4548992383
40
0.5459283074
40
0.6366224697
40
0.7275794712
40
0.8182886133
40
0.9091835013
40
1.0000000000
40
1.0000000000
40
1.0000000000
40
1.0000000000
10
10.1105255351
20
20.1862421460
30
0.0000000000
10
10.1105255351
20
20.2100573578
30
0.0000000000
10
10.1071189070
20
20.2577712327
30
0.0000000000
10
10.0918956972
20
20.3277834116
30
0.0000000000
10
10.0668664206
20
20.3949398277
30
0.0000000000
10
10.0325788526
20
20.4577699924
30
0.0000000000
10
9.9896798035
20
20.5151108891
30
0.0000000000
10
9.9391269879
20
20.5656914259
30
0.0000000000
10
9.8818497488
20
20.6085899851
30
0.0000000000
10
9.8191220847
20
20.6428593098
30
0.0000000000
10
9.7521022829
20
20.6678651915
30
0.0000000000
10
9.6822550654
20
20.6830691596
30
0.0000000000
10
9.6346590173
20
20.6864709981
30
0.0000000000
10
9.6109061349
20
20.6864709981
30
0.0000000000
11
10.1105255351
21
20.1862421460
31
0.0000000000
11
10.1054335330
21
20.2575060945
31
0.0000000000
11
10.0902461869
21
20.3273606876
31
0.0000000000
11
10.0653378590
21
20.3941862526
31
0.0000000000
11
10.0311016695
21
20.4569208168
31
0.0000000000
11
9.9884385927
21
20.5139443480
31
0.0000000000
11
9.9379463928
21
20.5644629697
31
0.0000000000
11
9.8809876218
21
20.6071223428
31
0.0000000000
11
9.8183555771
21
20.6413385046
31
0.0000000000
11
9.7516719624
21
20.6662200688
31
0.0000000000
11
9.6819832031
21
20.6813871823
31
0.0000000000
11
9.6109061349
21
20.6864709981
31
0.0000000000
0
SPLINE
5
42C
100
AcDbEntity
8
0
100
AcDbSpline
62
7
6
CONTINUOUS
70
0
71
3
72
18
73
14
74
12
42
0.0000001000
43
0.0000001000
44
0.0000000001
12
-0.4472051012
22
0.2235855214
32
0.0000000000
13
-0.4999828876
23
0.0000000000
33
0.0000000000
40
0.0000000000
40
0.0000000000
40
0.0000000000
40
0.0000000000
40
0.0124656256
40
0.0445860838
40
0.0956297107
40
0.1648293831
40
0.2504153456
40
0.3512246475
40
0.4645991173
40
0.5889859396
40
0.7212300941
40
0.8592827416
40
1.0000000000
40
1.0000000000
40
1.0000000000
40
1.0000000000
10
8.6073883356
20
20.9668472677
30
0.0000000000
10
8.6055301052
20
20.9677763122
30
0.0000000000
10
8.5976768994
20
20.9669997345
30
0.0000000000
10
8.5821268741
20
20.9685817636
30
0.0000000000
10
8.5565359966
20
20.9685447370
30
0.0000000000
10
8.5223216446
20
20.9692978509
30
0.0000000000
10
8.4796947933
20
20.9696824172
30
0.0000000000
10
8.4297474518
20
20.9701331823
30
0.0000000000
10
8.3733185648
20
20.9704811203
30
0.0000000000
10
8.3116548139
20
20.9707704521
30
0.0000000000
10
8.2458764552
20
20.9709787222
30
0.0000000000
10
8.1773766490
20
20.9711062230
30
0.0000000000
10
8.1309165618
20
20.9711345492
30
0.0000000000
10
8.1074644881
20
20.9711345492
30
0.0000000000
11
8.6073883356
21
20.9668472677
31
0.0000000000
11
8.6011859712
21
20.9674604327
31
0.0000000000
11
8.5851375050
21
20.9680604635
31
0.0000000000
11
8.5596230036
21
20.9686336970
31
0.0000000000
11
8.5250285277
21
20.9691712462
31
0.0000000000
11
8.4822397964
21
20.9696594774
31
0.0000000000
11
8.4318387238
21
20.9700917011
31
0.0000000000
11
8.3751546030
21
20.9704565202
31
0.0000000000
11
8.3129640080
21
20.9707489777
31
0.0000000000
11
8.2468445356
21
20.9709615860
31
0.0000000000
11
8.1778206958
21
20.9710911352
31
0.0000000000
11
8.1074644881
21
20.9711345492
31
0.0000000000
0
SPLINE
5
42D
100
AcDbEntity
8
0
100
AcDbSpline
62
7
6
CONTINUOUS
70
0
71
3
72
18
73
14
74
12
42
0.0000001000
43
0.0000001000
44
0.0000000001
12
-0.4999828876
22
0.0000000000
32
0.0000000000
13
-0.4472051012
23
-0.2235855214
33
0.0000000000
40
0.0000000000
40
0.0000000000
40
0.0000000000
40
0.0000000000
40
0.1407172584
40
0.2787699059
40
0.4110140604
40
0.5354008827
40
0.6487753525
40
0.7495846544
40
0.8351706169
40
0.9043702893
40
0.9554139162
40
0.9875343744
40
1.0000000000
40
1.0000000000
40
1.0000000000
40
1.0000000000
10
-7.0607369503
20
20.9711345492
30
0.0000000000
10
-7.0841890240
20
20.9711345492
30
0.0000000000
10
-7.1306491112
20
20.9711062230
30
0.0000000000
10
-7.1991489174
20
20.9709787222
30
0.0000000000
10
-7.2649272761
20
20.9707704521
30
0.0000000000
10
-7.3265910271
20
20.9704811203
30
0.0000000000
10
-7.3830199140
20
20.9701331823
30
0.0000000000
10
-7.4329672555
20
20.9696824172
30
0.0000000000
10
-7.4755941068
20
20.9692978509
30
0.0000000000
10
-7.5098084589
20
20.9685447370
30
0.0000000000
10
-7.5353993364
20
20.9685817636
30
0.0000000000
10
-7.5509493616
20
20.9669997345
30
0.0000000000
10
-7.5588025674
20
20.9677763122
30
0.0000000000
10
-7.5606607978
20
20.9668472677
30
0.0000000000
11
-7.0607369503
21
20.9711345492
31
0.0000000000
11
-7.1310931581
21
20.9710911352
31
0.0000000000
11
-7.2001169978
21
20.9709615860
31
0.0000000000
11
-7.2662364702
21
20.9707489777
31
0.0000000000
11
-7.3284270652
21
20.9704565202
31
0.0000000000
11
-7.3851111860
21
20.9700917011
31
0.0000000000
11
-7.4355122586
21
20.9696594774
31
0.0000000000
11
-7.4783009899
21
20.9691712462
31
0.0000000000
11
-7.5128954658
21
20.9686336970
31
0.0000000000
11
-7.5384099672
21
20.9680604635
31
0.0000000000
11
-7.5544584334
21
20.9674604327
31
0.0000000000
11
-7.5606607978
21
20.9668472677
31
0.0000000000
0
SPLINE
5
42E
100
AcDbEntity
8
0
100
AcDbSpline
62
7
6
CONTINUOUS
70
0
71
3
72
18
73
14
74
12
42
0.0000001000
43
0.0000001000
44
0.0000000001
12
0.4999828876
22
0.0000000000
32
0.0000000000
13
0.4472051012
23
0.2235855214
33
0.0000000000
40
0.0000000000
40
0.0000000000
40
0.0000000000
40
0.0000000000
40
0.1407172584
40
0.2787699059
40
0.4110140604
40
0.5354008827
40
0.6487753525
40
0.7495846544
40
0.8351706169
40
0.9043702893
40
0.9554139162
40
0.9875343744
40
1.0000000000
40
1.0000000000
40
1.0000000000
40
1.0000000000
10
8.1074644881
20
-21.0208565422
30
0.0000000000
10
8.1309165618
20
-21.0208565422
30
0.0000000000
10
8.1773766490
20
-21.0208282161
30
0.0000000000
10
8.2458764552
20
-21.0207007152
30
0.0000000000
10
8.3116548139
20
-21.0204924451
30
0.0000000000
10
8.3733185648
20
-21.0202031133
30
0.0000000000
10
8.4297474518
20
-21.0198551753
30
0.0000000000
10
8.4796947933
20
-21.0194044103
30
0.0000000000
10
8.5223216446
20
-21.0190198440
30
0.0000000000
10
8.5565359966
20
-21.0182667300
30
0.0000000000
10
8.5821268741
20
-21.0183037567
30
0.0000000000
10
8.5976768994
20
-21.0167217275
30
0.0000000000
10
8.6055301052
20
-21.0174983052
30
0.0000000000
10
8.6073883356
20
-21.0165692607
30
0.0000000000
11
8.1074644881
21
-21.0208565422
31
0.0000000000
11
8.1778206958
21
-21.0208131283
31
0.0000000000
11
8.2468445356
21
-21.0206835791
31
0.0000000000
11
8.3129640080
21
-21.0204709708
31
0.0000000000
11
8.3751546030
21
-21.0201785133
31
0.0000000000
11
8.4318387238
21
-21.0198136942
31
0.0000000000
11
8.4822397964
21
-21.0193814704
31
0.0000000000
11
8.5250285277
21
-21.0188932393
31
0.0000000000
11
8.5596230036
21
-21.0183556901
31
0.0000000000
11
8.5851375050
21
-21.0177824566
31
0.0000000000
11
8.6011859712
21
-21.0171824258
31
0.0000000000
11
8.6073883356
21
-21.0165692607
31
0.0000000000
0
SPLINE
5
42F
100
AcDbEntity
8
0
100
AcDbSpline
62
7
6
CONTINUOUS
70
0
71
3
72
18
73
14
74
12
42
0.0000001000
43
0.0000001000
44
0.0000000001
12
0.4472051012
22
-0.2235855214
32
0.0000000000
13
0.4999828876
23
-0.0000000000
33
0.0000000000
40
0.0000000000
40
0.0000000000
40
0.0000000000
40
0.0000000000
40
0.0124656256
40
0.0445860838
40
0.0956297107
40
0.1648293831
40
0.2504153456
40
0.3512246475
40
0.4645991173
40
0.5889859396
40
0.7212300941
40
0.8592827416
40
1.0000000000
40
1.0000000000
40
1.0000000000
40
1.0000000000
10
-7.5606607978
20
-21.0165692607
30
0.0000000000
10
-7.5588025674
20
-21.0174983052
30
0.0000000000
10
-7.5509493616
20
-21.0167217275
30
0.0000000000
10
-7.5353993364
20
-21.0183037567
30
0.0000000000
10
-7.5098084589
20
-21.0182667300
30
0.0000000000
10
-7.4755941068
20
-21.0190198440
30
0.0000000000
10
-7.4329672555
20
-21.0194044103
30
0.0000000000
10
-7.3830199140
20
-21.0198551753
30
0.0000000000
10
-7.3265910271
20
-21.0202031133
30
0.0000000000
10
-7.2649272761
20
-21.0204924451
30
0.0000000000
10
-7.1991489174
20
-21.0207007152
30
0.0000000000
10
-7.1306491112
20
-21.0208282161
30
0.0000000000
10
-7.0841890240
20
-21.0208565422
30
0.0000000000
10
-7.0607369503
20
-21.0208565422
30
0.0000000000
11
-7.5606607978
21
-21.0165692607
31
0.0000000000
11
-7.5544584334
21
-21.0171824258
31
0.0000000000
11
-7.5384099672
21
-21.0177824566
31
0.0000000000
11
-7.5128954658
21
-21.0183556901
31
0.0000000000
11
-7.4783009899
21
-21.0188932393
31
0.0000000000
11
-7.4355122586
21
-21.0193814704
31
0.0000000000
11
-7.3851111860
21
-21.0198136942
31
0.0000000000
11
-7.3284270652
21
-21.0201785133
31
0.0000000000
11
-7.2662364702
21
-21.0204709708
31
0.0000000000
11
-7.2001169978
21
-21.0206835791
31
0.0000000000
11
-7.1310931581
21
-21.0208131283
31
0.0000000000
11
-7.0607369503
21
-21.0208565422
31
0.0000000000
0
SPLINE
5
430
100
AcDbEntity
8
0
100
AcDbSpline
62
7
6
CONTINUOUS
70
0
71
3
72
11
73
7
74
5
42
0.0000001000
43
0.0000001000
44
0.0000000001
12
-0.3127582945
22
0.4423070219
32
0.0000000000
13
-0.2926807401
23
0.4558412408
33
0.0000000000
40
0.0000000000
40
0.0000000000
40
0.0000000000
40
0.0000000000
40
0.2559001112
40
0.5096100791
40
0.7585931600
40
1.0000000000
40
1.0000000000
40
1.0000000000
40
1.0000000000
10
-7.0607369503
20
21.2878322472
30
0.0000000000
10
-7.0874152444
20
21.3255610525
30
0.0000000000
10
-7.1405439977
20
21.4006953783
30
0.0000000000
10
-7.2191181911
20
21.5129004198
30
0.0000000000
10
-7.2951060492
20
21.6237152294
30
0.0000000000
10
-7.3439679939
20
21.6975744653
30
0.0000000000
10
-7.3675197048
20
21.7342555298
30
0.0000000000
11
-7.0607369503
21
21.2878322472
31
0.0000000000
11
-7.1406856035
21
21.4010795872
31
0.0000000000
11
-7.2194210612
21
21.5137292481
31
0.0000000000
11
-7.2955660351
21
21.6250569877
31
0.0000000000
11
-7.3675197048
21
21.7342555298
31
0.0000000000
0
SPLINE
5
431
100
AcDbEntity
8
0
100
AcDbSpline
62
7
6
CONTINUOUS
70
0
71
3
72
11
73
7
74
5
42
0.0000001000
43
0.0000001000
44
0.0000000001
12
-0.2926807401
22
-0.4558412408
32
0.0000000000
13
-0.3127582945
23
-0.4423070219
33
0.0000000000
40
0.0000000000
40
0.0000000000
40
0.0000000000
40
0.0000000000
40
0.2414068400
40
0.4903899209
40
0.7440998888
40
1.0000000000
40
1.0000000000
40
1.0000000000
40
1.0000000000
10
8.4142472425
20
21.7342555298
30
0.0000000000
10
8.3906955317
20
21.6975744653
30
0.0000000000
10
8.3418335870
20
21.6237152294
30
0.0000000000
10
8.2658457289
20
21.5129004198
30
0.0000000000
10
8.1872715355
20
21.4006953783
30
0.0000000000
10
8.1341427822
20
21.3255610525
30
0.0000000000
10
8.1074644881
20
21.2878322472
30
0.0000000000
11
8.4142472425
21
21.7342555298
31
0.0000000000
11
8.3422935729
21
21.6250569877
31
0.0000000000
11
8.2661485990
21
21.5137292481
31
0.0000000000
11
8.1874131413
21
21.4010795872
31
0.0000000000
11
8.1074644881
21
21.2878322472
31
0.0000000000
0
SPLINE
5
432
100
AcDbEntity
8
0
100
AcDbSpline
62
7
6
CONTINUOUS
70
0
71
3
72
11
73
7
74
5
42
0.0000001000
43
0.0000001000
44
0.0000000001
12
0.2926807401
22
0.4558412408
32
0.0000000000
13
0.3127582945
23
0.4423070219
33
0.0000000000
40
0.0000000000
40
0.0000000000
40
0.0000000000
40
0.0000000000
40
0.2414068400
40
0.4903899209
40
0.7440998888
40
1.0000000000
40
1.0000000000
40
1.0000000000
40
1.0000000000
10
-7.3675197048
20
-21.7839775229
30
0.0000000000
10
-7.3439679939
20
-21.7472964584
30
0.0000000000
10
-7.2951060492
20
-21.6734372224
30
0.0000000000
10
-7.2191181911
20
-21.5626224129
30
0.0000000000
10
-7.1405439977
20
-21.4504173713
30
0.0000000000
10
-7.0874152444
20
-21.3752830456
30
0.0000000000
10
-7.0607369503
20
-21.3375542402
30
0.0000000000
11
-7.3675197048
21
-21.7839775229
31
0.0000000000
11
-7.2955660351
21
-21.6747789807
31
0.0000000000
11
-7.2194210612
21
-21.5634512412
31
0.0000000000
11
-7.1406856035
21
-21.4508015803
31
0.0000000000
11
-7.0607369503
21
-21.3375542402
31
0.0000000000
0
SPLINE
5
433
100
AcDbEntity
8
0
100
AcDbSpline
62
7
6
CONTINUOUS
70
0
71
3
72
11
73
7
74
5
42
0.0000001000
43
0.0000001000
44
0.0000000001
12
0.3127582945
22
-0.4423070219
32
0.0000000000
13
0.2926807401
23
-0.4558412408
33
0.0000000000
40
0.0000000000
40
0.0000000000
40
0.0000000000
40
0.0000000000
40
0.2559001112
40
0.5096100791
40
0.7585931600
40
1.0000000000
40
1.0000000000
40
1.0000000000
40
1.0000000000
10
8.1074644881
20
-21.3375542402
30
0.0000000000
10
8.1341427822
20
-21.3752830456
30
0.0000000000
10
8.1872715355
20
-21.4504173713
30
0.0000000000
10
8.2658457289
20
-21.5626224129
30
0.0000000000
10
8.3418335870
20
-21.6734372224
30
0.0000000000
10
8.3906955317
20
-21.7472964584
30
0.0000000000
10
8.4142472425
20
-21.7839775229
30
0.0000000000
11
8.1074644881
21
-21.3375542402
31
0.0000000000
11
8.1874131413
21
-21.4508015803
31
0.0000000000
11
8.2661485990
21
-21.5634512412
31
0.0000000000
11
8.3422935729
21
-21.6747789807
31
0.0000000000
11
8.4142472425
21
-21.7839775229
31
0.0000000000
0
SPLINE
5
434
100
AcDbEntity
8
0
100
AcDbSpline
62
7
6
CONTINUOUS
70
0
71
3
72
19
73
15
74
13
42
0.0000001000
43
0.0000001000
44
0.0000000001
12
0.0000000000
22
0.7848103230
32
0.0000000000
13
0.7848103230
23
0.0000000000
33
0.0000000000
40
0.0000000000
40
0.0000000000
40
0.0000000000
40
0.0000000000
40
0.0828470979
40
0.1665193248
40
0.2501669630
40
0.3331337658
40
0.4161823866
40
0.5000173671
40
0.5838579914
40
0.6669154987
40
0.7498742162
40
0.8334993514
40
0.9171584428
40
1.0000000000
40
1.0000000000
40
1.0000000000
40
1.0000000000
10
-6.9766362311
20
13.3751580419
30
0.0000000000
10
-6.9766362311
20
13.3968311278
30
0.0000000000
10
-6.9737960361
20
13.4404459977
30
0.0000000000
10
-6.9610244117
20
13.5048158279
30
0.0000000000
10
-6.9399169186
20
13.5669980433
30
0.0000000000
10
-6.9109501527
20
13.6257415022
30
0.0000000000
10
-6.8745639090
20
13.6802620803
30
0.0000000000
10
-6.8312102290
20
13.7297344620
30
0.0000000000
10
-6.7817335132
20
13.7730867744
30
0.0000000000
10
-6.7272089250
20
13.8094701368
30
0.0000000000
10
-6.6684685433
20
13.8384301873
30
0.0000000000
10
-6.6062963010
20
13.8595310310
30
0.0000000000
10
-6.5419368790
20
13.8722993177
30
0.0000000000
10
-6.4983269060
20
13.8751390035
30
0.0000000000
10
-6.4766552696
20
13.8751390035
30
0.0000000000
11
-6.9766362311
21
13.3751580419
31
0.0000000000
11
-6.9724088464
21
13.4400397272
31
0.0000000000
11
-6.9596306096
21
13.5044512859
31
0.0000000000
11
-6.9385286818
21
13.5666148350
31
0.0000000000
11
-6.9097319819
21
13.6250141442
31
0.0000000000
11
-6.8735509130
21
13.6792269256
31
0.0000000000
11
-6.8301878488
21
13.7287099382
31
0.0000000000
11
-6.7806989430
21
13.7720729979
31
0.0000000000
11
-6.7264778094
21
13.8082541154
31
0.0000000000
11
-6.6680821431
21
13.8370438549
31
0.0000000000
11
-6.6059343242
21
13.8581371800
31
0.0000000000
11
-6.5415326341
21
13.8709121842
31
0.0000000000
11
-6.4766552696
21
13.8751390035
31
0.0000000000
0
SPLINE
5
435
100
AcDbEntity
8
0
100
AcDbSpline
62
7
6
CONTINUOUS
70
0
71
3
72
19
73
15
74
13
42
0.0000001000
43
0.0000001000
44
0.0000000001
12
0.7848103230
22
0.0000000000
32
0.0000000000
13
0.0000000000
23
-0.7848103230
33
0.0000000000
40
0.0000000000
40
0.0000000000
40
0.0000000000
40
0.0000000000
40
0.0828415572
40
0.1665006486
40
0.2501257838
40
0.3330845013
40
0.4161420086
40
0.4999826329
40
0.5838176134
40
0.6668662342
40
0.7498330370
40
0.8334806752
40
0.9171529021
40
1.0000000000
40
1.0000000000
40
1.0000000000
40
1.0000000000
10
7.5233828074
20
13.8751390035
30
0.0000000000
10
7.5450544438
20
13.8751390035
30
0.0000000000
10
7.5886644168
20
13.8722993177
30
0.0000000000
10
7.6530238388
20
13.8595310310
30
0.0000000000
10
7.7151960811
20
13.8384301873
30
0.0000000000
10
7.7739364628
20
13.8094701368
30
0.0000000000
10
7.8284610509
20
13.7730867744
30
0.0000000000
10
7.8779377668
20
13.7297344620
30
0.0000000000
10
7.9212914468
20
13.6802620803
30
0.0000000000
10
7.9576776905
20
13.6257415022
30
0.0000000000
10
7.9866444564
20
13.5669980433
30
0.0000000000
10
8.0077519494
20
13.5048158279
30
0.0000000000
10
8.0205235739
20
13.4404459977
30
0.0000000000
10
8.0233637689
20
13.3968311278
30
0.0000000000
10
8.0233637689
20
13.3751580419
30
0.0000000000
11
7.5233828074
21
13.8751390035
31
0.0000000000
11
7.5882601719
21
13.8709121842
31
0.0000000000
11
7.6526618620
21
13.8581371800
31
0.0000000000
11
7.7148096809
21
13.8370438549
31
0.0000000000
11
7.7732053472
21
13.8082541154
31
0.0000000000
11
7.8274264808
21
13.7720729979
31
0.0000000000
11
7.8769153866
21
13.7287099382
31
0.0000000000
11
7.9202784508
21
13.6792269256
31
0.0000000000
11
7.9564595197
21
13.6250141442
31
0.0000000000
11
7.9852562196
21
13.5666148350
31
0.0000000000
11
8.0063581474
21
13.5044512859
31
0.0000000000
11
8.0191363842
21
13.4400397272
31
0.0000000000
11
8.0233637689
21
13.3751580419
31
0.0000000000
0
SPLINE
5
436
100
AcDbEntity
8
0
100
AcDbSpline
62
9
6
CONTINUOUS
70
0
71
3
72
17
73
13
74
11
42
0.0000001000
43
0.0000001000
44
0.0000000001
12
0.3922846478
22
-0.0000132773
32
0.0000000000
13
0.0000132773
23
-0.3922846478
33
0.0000000000
40
0.0000000000
40
0.0000000000
40
0.0000000000
40
0.0000000000
40
0.0998239394
40
0.1998359985
40
0.2998483200
40
0.3998691378
40
0.4998893118
40
0.5999112671
40
0.6999336806
40
0.7999562942
40
0.8999787118
40
1.0000000000
40
1.0000000000
40
1.0000000000
40
1.0000000000
10
10.9189961657
20
24.4707671695
30
0.0000000000
10
10.9320492986
20
24.4707667277
30
0.0000000000
10
10.9582262877
20
24.4687108818
30
0.0000000000
10
10.9965031037
20
24.4595292249
30
0.0000000000
10
11.0329058299
20
24.4444612303
30
0.0000000000
10
11.0665011622
20
24.4238832475
30
0.0000000000
10
11.0964648498
20
24.3983016062
30
0.0000000000
10
11.1220570293
20
24.3683466314
30
0.0000000000
10
11.1426475199
20
24.3347568618
30
0.0000000000
10
11.1577288412
20
24.2983564315
30
0.0000000000
10
11.1669293934
20
24.2600547699
30
0.0000000000
10
11.1689914922
20
24.2338503389
30
0.0000000000
10
11.1689919349
20
24.2207714003
30
0.0000000000
11
10.9189961657
21
24.4707671695
31
0.0000000000
11
10.9580351746
21
24.4676988954
31
0.0000000000
11
10.9961865431
21
24.4585492121
31
0.0000000000
11
11.0324367814
21
24.4435434826
31
0.0000000000
11
11.0658957794
21
24.4230493691
31
0.0000000000
11
11.0957360769
21
24.3975729081
31
0.0000000000
11
11.1212233457
21
24.3677409222
31
0.0000000000
11
11.1417293075
21
24.3342884501
31
0.0000000000
11
11.1567487264
21
24.2980395111
31
0.0000000000
11
11.1659115198
21
24.2598871101
31
0.0000000000
11
11.1689919349
21
24.2207714003
31
0.0000000000
0
SPLINE
5
437
100
AcDbEntity
8
0
100
AcDbSpline
62
7
6
CONTINUOUS
70
0
71
3
72
17
73
13
74
11
42
0.0000001000
43
0.0000001000
44
0.0000000001
12
0.0000000000
22
-0.4220147089
32
0.0000000000
13
-0.4220147089
23
-0.0000000000
33
0.0000000000
40
0.0000000000
40
0.0000000000
40
0.0000000000
40
0.0000000000
40
0.1163097356
40
0.2303278571
40
0.3412445469
40
0.4475088604
40
0.5491224320
40
0.6456322518
40
0.7382753117
40
0.8272646510
40
0.9144010609
40
1.0000000000
40
1.0000000000
40
1.0000000000
40
1.0000000000
10
11.1733637689
20
23.3856241517
30
0.0000000000
10
11.1733637689
20
23.3692626786
30
0.0000000000
10
11.1709738054
20
23.3368101748
30
0.0000000000
10
11.1604108045
20
23.2898121628
30
0.0000000000
10
11.1435061538
20
23.2462062162
30
0.0000000000
10
11.1211040428
20
23.2071577709
30
0.0000000000
10
11.0942533432
20
23.1735820811
30
0.0000000000
10
11.0639083918
20
23.1459024094
30
0.0000000000
10
11.0310286697
20
23.1243804697
30
0.0000000000
10
10.9962966759
20
23.1090140395
30
0.0000000000
10
10.9604750356
20
23.0998287744
30
0.0000000000
10
10.9361281039
20
23.0977887343
30
0.0000000000
10
10.9240867668
20
23.0977887343
30
0.0000000000
11
11.1733637689
21
23.3856241517
31
0.0000000000
11
11.1697414101
21
23.3366735774
31
0.0000000000
11
11.1591539058
21
23.2897355155
31
0.0000000000
11
11.1421793520
21
23.2461132985
31
0.0000000000
11
11.1198026661
21
23.2072498553
31
0.0000000000
11
11.0929614752
21
23.1738065813
31
0.0000000000
11
11.0628228581
21
23.1464116977
31
0.0000000000
11
11.0300762905
21
23.1250524629
31
0.0000000000
11
10.9957136520
21
23.1099008015
31
0.0000000000
11
10.9600851908
21
23.1007983291
31
0.0000000000
11
10.9240867668
21
23.0977887343
31
0.0000000000
0
SPLINE
5
438
100
AcDbEntity
8
0
100
AcDbSpline
62
9
6
CONTINUOUS
70
0
71
3
72
17
73
13
74
11
42
0.0000001000
43
0.0000001000
44
0.0000000001
12
-0.0012298291
22
-0.3661500354
32
0.0000000000
13
-0.3661509389
23
-0.0009224053
33
0.0000000000
40
0.0000000000
40
0.0000000000
40
0.0000000000
40
0.0000000000
40
0.0926637669
40
0.1861959939
40
0.2811621264
40
0.3780472439
40
0.4771141944
40
0.5784104998
40
0.6817687109
40
0.7868361684
40
0.8931123906
40
1.0000000000
40
1.0000000000
40
1.0000000000
40
1.0000000000
10
11.1689919349
20
23.8194765708
30
0.0000000000
10
11.1689539480
20
23.8081669569
30
0.0000000000
10
11.1668058801
20
23.7853961935
30
0.0000000000
10
11.1574713022
20
23.7521945205
30
0.0000000000
10
11.1422615542
20
23.7206648631
30
0.0000000000
10
11.1215756682
20
23.6916071222
30
0.0000000000
10
11.0959405639
20
23.6657215428
30
0.0000000000
10
11.0659972998
20
23.6436295917
30
0.0000000000
10
11.0324844007
20
23.6258559540
30
0.0000000000
10
10.9962180990
20
23.6128216871
30
0.0000000000
10
10.9580889158
20
23.6048350318
30
0.0000000000
10
10.9320418319
20
23.6030030844
30
0.0000000000
10
10.9189961657
20
23.6029702198
30
0.0000000000
11
11.1689919349
21
23.8194765708
31
0.0000000000
11
11.1658168752
21
23.7856964247
31
0.0000000000
11
11.1565862525
21
23.7527168237
31
0.0000000000
11
11.1415266285
21
23.7213751085
31
0.0000000000
11
11.1210057531
21
23.6924381554
31
0.0000000000
11
11.0955280638
21
23.6666184077
31
0.0000000000
11
11.0657184901
21
23.6445492739
31
0.0000000000
11
11.0323086626
21
23.6267724830
31
0.0000000000
11
10.9961183899
21
23.6137242406
31
0.0000000000
11
10.9580362309
21
23.6057247953
31
0.0000000000
11
10.9189961657
21
23.6029702198
31
0.0000000000
0
SPLINE
5
439
100
AcDbEntity
8
0
100
AcDbSpline
62
7
6
CONTINUOUS
70
0
71
3
72
17
73
13
74
11
42
0.0000001000
43
0.0000001000
44
0.0000000001
12
-0.4220147089
22
0.0000000000
32
0.0000000000
13
-0.0000000000
23
0.4220147089
33
0.0000000000
40
0.0000000000
40
0.0000000000
40
0.0000000000
40
0.0000000000
40
0.0855989391
40
0.1727353490
40
0.2617246883
40
0.3543677482
40
0.4508775680
40
0.5524911396
40
0.6587554531
40
0.7696721429
40
0.8836902644
40
1.0000000000
40
1.0000000000
40
1.0000000000
40
1.0000000000
10
9.0226407710
20
23.0977887343
30
0.0000000000
10
9.0105994339
20
23.0977887343
30
0.0000000000
10
8.9862525022
20
23.0998287744
30
0.0000000000
10
8.9504308619
20
23.1090140395
30
0.0000000000
10
8.9156988681
20
23.1243804697
30
0.0000000000
10
8.8828191459
20
23.1459024094
30
0.0000000000
10
8.8524741946
20
23.1735820811
30
0.0000000000
10
8.8256234950
20
23.2071577709
30
0.0000000000
10
8.8032213840
20
23.2462062162
30
0.0000000000
10
8.7863167333
20
23.2898121628
30
0.0000000000
10
8.7757537324
20
23.3368101748
30
0.0000000000
10
8.7733637689
20
23.3692626786
30
0.0000000000
10
8.7733637689
20
23.3856241517
30
0.0000000000
11
9.0226407710
21
23.0977887343
31
0.0000000000
11
8.9866423470
21
23.1007983291
31
0.0000000000
11
8.9510138857
21
23.1099008015
31
0.0000000000
11
8.9166512473
21
23.1250524629
31
0.0000000000
11
8.8839046797
21
23.1464116977
31
0.0000000000
11
8.8537660626
21
23.1738065813
31
0.0000000000
11
8.8269248717
21
23.2072498553
31
0.0000000000
11
8.8045481858
21
23.2461132985
31
0.0000000000
11
8.7875736320
21
23.2897355155
31
0.0000000000
11
8.7769861277
21
23.3366735774
31
0.0000000000
11
8.7733637689
21
23.3856241517
31
0.0000000000
0
SPLINE
5
43A
100
AcDbEntity
8
0
100
AcDbSpline
62
9
6
CONTINUOUS
70
0
71
3
72
17
73
13
74
11
42
0.0000001000
43
0.0000001000
44
0.0000000001
12
0.0012298290
22
-0.3661500127
32
0.0000000000
13
0.3661509162
23
-0.0009224053
33
0.0000000000
40
0.0000000000
40
0.0000000000
40
0.0000000000
40
0.0000000000
40
0.0927409810
40
0.1862742706
40
0.2812426722
40
0.3781228716
40
0.4771847111
40
0.5784746944
40
0.6818263867
40
0.7868857196
40
0.8931548188
40
1.0000000000
40
1.0000000000
40
1.0000000000
40
1.0000000000
10
8.7777356029
20
23.8194765708
30
0.0000000000
10
8.7777736214
20
23.8081575336
30
0.0000000000
10
8.7799243556
20
23.7853770959
30
0.0000000000
10
8.7892665345
20
23.7521673493
30
0.0000000000
10
8.8044807534
20
23.7206400623
30
0.0000000000
10
8.8251699466
20
23.6915858948
30
0.0000000000
10
8.8508066393
20
23.6657047540
30
0.0000000000
10
8.8807503278
20
23.6436171390
30
0.0000000000
10
8.9142624556
20
23.6258475849
30
0.0000000000
10
8.9505271532
20
23.6128168272
30
0.0000000000
10
8.9886498910
20
23.6048338881
30
0.0000000000
10
9.0146908851
20
23.6030030713
30
0.0000000000
10
9.0277313721
20
23.6029702198
30
0.0000000000
11
8.7777356029
21
23.8194765708
31
0.0000000000
11
8.7809158485
21
23.7856685176
31
0.0000000000
11
8.7901514515
21
23.7526899092
31
0.0000000000
11
8.8052159564
21
23.7213496203
31
0.0000000000
11
8.8257396578
21
23.6924168820
31
0.0000000000
11
8.8512190533
21
23.6666014503
31
0.0000000000
11
8.8810289922
21
23.6445367046
31
0.0000000000
11
8.9144382385
21
23.6267639081
31
0.0000000000
11
8.9506266500
21
23.6137192814
31
0.0000000000
11
8.9887067314
21
23.6057226449
31
0.0000000000
11
9.0277313721
21
23.6029702198
31
0.0000000000
0
SPLINE
5
43B
100
AcDbEntity
8
0
100
AcDbSpline
62
9
6
CONTINUOUS
70
0
71
3
72
17
73
13
74
11
42
0.0000001000
43
0.0000001000
44
0.0000000001
12
0.0000132773
22
0.3922846478
32
0.0000000000
13
0.3922846478
23
0.0000132773
33
0.0000000000
40
0.0000000000
40
0.0000000000
40
0.0000000000
40
0.0000000000
40
0.1000212882
40
0.2000437058
40
0.3000663194
40
0.4000887329
40
0.5001106882
40
0.6001308622
40
0.7001516800
40
0.8001640015
40
0.9001760606
40
1.0000000000
40
1.0000000000
40
1.0000000000
40
1.0000000000
10
8.7777356029
20
24.2207714003
30
0.0000000000
10
8.7777360456
20
24.2338503389
30
0.0000000000
10
8.7797981444
20
24.2600547699
30
0.0000000000
10
8.7889986966
20
24.2983564315
30
0.0000000000
10
8.8040800179
20
24.3347568618
30
0.0000000000
10
8.8246705085
20
24.3683466314
30
0.0000000000
10
8.8502626880
20
24.3983016062
30
0.0000000000
10
8.8802263756
20
24.4238832475
30
0.0000000000
10
8.9138217078
20
24.4444612303
30
0.0000000000
10
8.9502244341
20
24.4595292249
30
0.0000000000
10
8.9885012501
20
24.4687108818
30
0.0000000000
10
9.0146782391
20
24.4707667277
30
0.0000000000
10
9.0277313721
20
24.4707671695
30
0.0000000000
11
8.7777356029
21
24.2207714003
31
0.0000000000
11
8.7808160180
21
24.2598871101
31
0.0000000000
11
8.7899788114
21
24.2980395111
31
0.0000000000
11
8.8049982302
21
24.3342884501
31
0.0000000000
11
8.8255041921
21
24.3677409222
31
0.0000000000
11
8.8509914609
21
24.3975729081
31
0.0000000000
11
8.8808317583
21
24.4230493691
31
0.0000000000
11
8.9142907564
21
24.4435434826
31
0.0000000000
11
8.9505409947
21
24.4585492121
31
0.0000000000
11
8.9886923632
21
24.4676988954
31
0.0000000000
11
9.0277313721
21
24.4707671695
31
0.0000000000
0
SPLINE
5
43C
100
AcDbEntity
8
0
100
AcDbSpline
62
9
6
CONTINUOUS
70
0
71
3
72
17
73
13
74
11
42
0.0000001000
43
0.0000001000
44
0.0000000001
12
0.3922846482
22
-0.0000132773
32
0.0000000000
13
0.0000132773
23
-0.3922846482
33
0.0000000000
40
0.0000000000
40
0.0000000000
40
0.0000000000
40
0.0000000000
40
0.0999991830
40
0.1999988695
40
0.2999989843
40
0.3999994104
40
0.5000000000
40
0.6000005896
40
0.7000010157
40
0.8000011305
40
0.9000008170
40
1.0000000000
40
1.0000000000
40
1.0000000000
40
1.0000000000
10
-7.9810038343
20
24.4707671695
30
0.0000000000
10
-7.9679277862
20
24.4707667269
30
0.0000000000
10
-7.9417292488
20
24.4687055494
30
0.0000000000
10
-7.9034357660
20
24.4595090968
30
0.0000000000
10
-7.8670422272
20
24.4444343944
30
0.0000000000
10
-7.8334573519
20
24.4238526000
30
0.0000000000
10
-7.8035046860
20
24.3982705486
30
0.0000000000
10
-7.7779226346
20
24.3683178827
30
0.0000000000
10
-7.7573408402
20
24.3347330074
30
0.0000000000
10
-7.7422661378
20
24.2983394686
30
0.0000000000
10
-7.7330696852
20
24.2600459858
30
0.0000000000
10
-7.7310085077
20
24.2338474484
30
0.0000000000
10
-7.7310080651
20
24.2207714003
30
0.0000000000
11
-7.9810038343
21
24.4707671695
31
0.0000000000
11
-7.9418967156
21
24.4676881155
31
0.0000000000
11
-7.9037525025
21
24.4585294139
31
0.0000000000
11
-7.8675103918
21
24.4435165728
31
0.0000000000
11
-7.8340627461
21
24.4230192421
31
0.0000000000
11
-7.8042331221
21
24.3975421125
31
0.0000000000
11
-7.7787559925
21
24.3677124885
31
0.0000000000
11
-7.7582586618
21
24.3342648428
31
0.0000000000
11
-7.7432458207
21
24.2980227321
31
0.0000000000
11
-7.7340871191
21
24.2598785190
31
0.0000000000
11
-7.7310080651
21
24.2207714003
31
0.0000000000
0
SPLINE
5
43D
100
AcDbEntity
8
0
100
AcDbSpline
62
7
6
CONTINUOUS
70
0
71
3
72
17
73
13
74
11
42
0.0000001000
43
0.0000001000
44
0.0000000001
12
0.0000000000
22
-0.4220147089
32
0.0000000000
13
-0.4220147089
23
0.0000000000
33
0.0000000000
40
0.0000000000
40
0.0000000000
40
0.0000000000
40
0.0000000000
40
0.1163097356
40
0.2303278571
40
0.3412445469
40
0.4475088604
40
0.5491224320
40
0.6456322518
40
0.7382753117
40
0.8272646510
40
0.9144010609
40
1.0000000000
40
1.0000000000
40
1.0000000000
40
1.0000000000
10
-7.7266362311
20
23.3856241517
30
0.0000000000
10
-7.7266362311
20
23.3692626786
30
0.0000000000
10
-7.7290261946
20
23.3368101748
30
0.0000000000
10
-7.7395891955
20
23.2898121628
30
0.0000000000
10
-7.7564938462
20
23.2462062162
30
0.0000000000
10
-7.7788959572
20
23.2071577709
30
0.0000000000
10
-7.8057466568
20
23.1735820811
30
0.0000000000
10
-7.8360916082
20
23.1459024094
30
0.0000000000
10
-7.8689713303
20
23.1243804697
30
0.0000000000
10
-7.9037033241
20
23.1090140395
30
0.0000000000
10
-7.9395249644
20
23.0998287744
30
0.0000000000
10
-7.9638718961
20
23.0977887343
30
0.0000000000
10
-7.9759132332
20
23.0977887343
30
0.0000000000
11
-7.7266362311
21
23.3856241517
31
0.0000000000
11
-7.7302585899
21
23.3366735774
31
0.0000000000
11
-7.7408460942
21
23.2897355155
31
0.0000000000
11
-7.7578206480
21
23.2461132985
31
0.0000000000
11
-7.7801973339
21
23.2072498553
31
0.0000000000
11
-7.8070385248
21
23.1738065813
31
0.0000000000
11
-7.8371771419
21
23.1464116977
31
0.0000000000
11
-7.8699237095
21
23.1250524629
31
0.0000000000
11
-7.9042863480
21
23.1099008015
31
0.0000000000
11
-7.9399148092
21
23.1007983291
31
0.0000000000
11
-7.9759132332
21
23.0977887343
31
0.0000000000
0
SPLINE
5
43E
100
AcDbEntity
8
0
100
AcDbSpline
62
9
6
CONTINUOUS
70
0
71
3
72
17
73
13
74
11
42
0.0000001000
43
0.0000001000
44
0.0000000001
12
-0.0012298291
22
-0.3661500354
32
0.0000000000
13
-0.3661509389
23
-0.0009224053
33
0.0000000000
40
0.0000000000
40
0.0000000000
40
0.0000000000
40
0.0000000000
40
0.0926637669
40
0.1861959939
40
0.2811621264
40
0.3780472439
40
0.4771141944
40
0.5784104998
40
0.6817687109
40
0.7868361684
40
0.8931123906
40
1.0000000000
40
1.0000000000
40
1.0000000000
40
1.0000000000
10
-7.7310080651
20
23.8194765708
30
0.0000000000
10
-7.7310460520
20
23.8081669569
30
0.0000000000
10
-7.7331941199
20
23.7853961935
30
0.0000000000
10
-7.7425286978
20
23.7521945205
30
0.0000000000
10
-7.7577384458
20
23.7206648631
30
0.0000000000
10
-7.7784243318
20
23.6916071222
30
0.0000000000
10
-7.8040594361
20
23.6657215428
30
0.0000000000
10
-7.8340027002
20
23.6436295917
30
0.0000000000
10
-7.8675155993
20
23.6258559540
30
0.0000000000
10
-7.9037819010
20
23.6128216871
30
0.0000000000
10
-7.9419110842
20
23.6048350318
30
0.0000000000
10
-7.9679581681
20
23.6030030844
30
0.0000000000
10
-7.9810038343
20
23.6029702198
30
0.0000000000
11
-7.7310080651
21
23.8194765708
31
0.0000000000
11
-7.7341831248
21
23.7856964247
31
0.0000000000
11
-7.7434137475
21
23.7527168237
31
0.0000000000
11
-7.7584733715
21
23.7213751085
31
0.0000000000
11
-7.7789942469
21
23.6924381554
31
0.0000000000
11
-7.8044719362
21
23.6666184077
31
0.0000000000
11
-7.8342815099
21
23.6445492739
31
0.0000000000
11
-7.8676913374
21
23.6267724830
31
0.0000000000
11
-7.9038816101
21
23.6137242406
31
0.0000000000
11
-7.9419637691
21
23.6057247953
31
0.0000000000
11
-7.9810038343
21
23.6029702198
31
0.0000000000
0
SPLINE
5
43F
100
AcDbEntity
8
0
100
AcDbSpline
62
9
6
CONTINUOUS
70
0
71
3
72
17
73
13
74
11
42
0.0000001000
43
0.0000001000
44
0.0000000001
12
0.0012298291
22
-0.3661500354
32
0.0000000000
13
0.3661509389
23
-0.0009224053
33
0.0000000000
40
0.0000000000
40
0.0000000000
40
0.0000000000
40
0.0000000000
40
0.0926637669
40
0.1861959939
40
0.2811621264
40
0.3780472439
40
0.4771141944
40
0.5784104998
40
0.6817687109
40
0.7868361684
40
0.8931123906
40
1.0000000000
40
1.0000000000
40
1.0000000000
40
1.0000000000
10
-10.1222643971
20
23.8194765708
30
0.0000000000
10
-10.1222264102
20
23.8081669569
30
0.0000000000
10
-10.1200783424
20
23.7853961935
30
0.0000000000
10
-10.1107437645
20
23.7521945205
30
0.0000000000
10
-10.0955340164
20
23.7206648631
30
0.0000000000
10
-10.0748481305
20
23.6916071222
30
0.0000000000
10
-10.0492130261
20
23.6657215428
30
0.0000000000
10
-10.0192697621
20
23.6436295917
30
0.0000000000
10
-9.9857568629
20
23.6258559540
30
0.0000000000
10
-9.9494905612
20
23.6128216871
30
0.0000000000
10
-9.9113613780
20
23.6048350318
30
0.0000000000
10
-9.8853142941
20
23.6030030844
30
0.0000000000
10
-9.8722686279
20
23.6029702198
30
0.0000000000
11
-10.1222643971
21
23.8194765708
31
0.0000000000
11
-10.1190893374
21
23.7856964247
31
0.0000000000
11
-10.1098587147
21
23.7527168237
31
0.0000000000
11
-10.0947990907
21
23.7213751085
31
0.0000000000
11
-10.0742782153
21
23.6924381554
31
0.0000000000
11
-10.0488005260
21
23.6666184077
31
0.0000000000
11
-10.0189909523
21
23.6445492739
31
0.0000000000
11
-9.9855811249
21
23.6267724830
31
0.0000000000
11
-9.9493908521
21
23.6137242406
31
0.0000000000
11
-9.9113086931
21
23.6057247953
31
0.0000000000
11
-9.8722686279
21
23.6029702198
31
0.0000000000
0
SPLINE
5
440
100
AcDbEntity
8
0
100
AcDbSpline
62
7
6
CONTINUOUS
70
0
71
3
72
17
73
13
74
11
42
0.0000001000
43
0.0000001000
44
0.0000000001
12
-0.4220147089
22
0.0000000000
32
0.0000000000
13
-0.0000000000
23
0.4220147089
33
0.0000000000
40
0.0000000000
40
0.0000000000
40
0.0000000000
40
0.0000000000
40
0.0855989391
40
0.1727353490
40
0.2617246883
40
0.3543677482
40
0.4508775680
40
0.5524911396
40
0.6587554531
40
0.7696721429
40
0.8836902644
40
1.0000000000
40
1.0000000000
40
1.0000000000
40
1.0000000000
10
-9.8773592290
20
23.0977887343
30
0.0000000000
10
-9.8894005661
20
23.0977887343
30
0.0000000000
10
-9.9137474978
20
23.0998287744
30
0.0000000000
10
-9.9495691381
20
23.1090140395
30
0.0000000000
10
-9.9843011319
20
23.1243804697
30
0.0000000000
10
-10.0171808541
20
23.1459024094
30
0.0000000000
10
-10.0475258054
20
23.1735820811
30
0.0000000000
10
-10.0743765050
20
23.2071577709
30
0.0000000000
10
-10.0967786160
20
23.2462062162
30
0.0000000000
10
-10.1136832667
20
23.2898121628
30
0.0000000000
10
-10.1242462676
20
23.3368101748
30
0.0000000000
10
-10.1266362311
20
23.3692626786
30
0.0000000000
10
-10.1266362311
20
23.3856241517
30
0.0000000000
11
-9.8773592290
21
23.0977887343
31
0.0000000000
11
-9.9133576530
21
23.1007983291
31
0.0000000000
11
-9.9489861143
21
23.1099008015
31
0.0000000000
11
-9.9833487527
21
23.1250524629
31
0.0000000000
11
-10.0160953203
21
23.1464116977
31
0.0000000000
11
-10.0462339374
21
23.1738065813
31
0.0000000000
11
-10.0730751283
21
23.2072498553
31
0.0000000000
11
-10.0954518142
21
23.2461132985
31
0.0000000000
11
-10.1124263680
21
23.2897355155
31
0.0000000000
11
-10.1230138723
21
23.3366735774
31
0.0000000000
11
-10.1266362311
21
23.3856241517
31
0.0000000000
0
SPLINE
5
441
100
AcDbEntity
8
0
100
AcDbSpline
62
9
6
CONTINUOUS
70
0
71
3
72
17
73
13
74
11
42
0.0000001000
43
0.0000001000
44
0.0000000001
12
0.0000132773
22
0.3922846482
32
0.0000000000
13
0.3922846482
23
0.0000132773
33
0.0000000000
40
0.0000000000
40
0.0000000000
40
0.0000000000
40
0.0000000000
40
0.0999991830
40
0.1999988695
40
0.2999989843
40
0.3999994104
40
0.5000000000
40
0.6000005896
40
0.7000010157
40
0.8000011305
40
0.9000008170
40
1.0000000000
40
1.0000000000
40
1.0000000000
40
1.0000000000
10
-10.1222643971
20
24.2207714003
30
0.0000000000
10
-10.1222639545
20
24.2338474484
30
0.0000000000
10
-10.1202027770
20
24.2600459858
30
0.0000000000
10
-10.1110063245
20
24.2983394686
30
0.0000000000
10
-10.0959316220
20
24.3347330074
30
0.0000000000
10
-10.0753498276
20
24.3683178827
30
0.0000000000
10
-10.0497677763
20
24.3982705486
30
0.0000000000
10
-10.0198151103
20
24.4238526000
30
0.0000000000
10
-9.9862302351
20
24.4444343944
30
0.0000000000
10
-9.9498366962
20
24.4595090968
30
0.0000000000
10
-9.9115432134
20
24.4687055494
30
0.0000000000
10
-9.8853446760
20
24.4707667269
30
0.0000000000
10
-9.8722686279
20
24.4707671695
30
0.0000000000
11
-10.1222643971
21
24.2207714003
31
0.0000000000
11
-10.1191853431
21
24.2598785190
31
0.0000000000
11
-10.1100266415
21
24.2980227321
31
0.0000000000
11
-10.0950138004
21
24.3342648428
31
0.0000000000
11
-10.0745164697
21
24.3677124885
31
0.0000000000
11
-10.0490393401
21
24.3975421125
31
0.0000000000
11
-10.0192097161
21
24.4230192421
31
0.0000000000
11
-9.9857620704
21
24.4435165728
31
0.0000000000
11
-9.9495199597
21
24.4585294139
31
0.0000000000
11
-9.9113757466
21
24.4676881155
31
0.0000000000
11
-9.8722686279
21
24.4707671695
31
0.0000000000
0
SPLINE
5
442
100
AcDbEntity
8
0
100
AcDbSpline
62
7
6
CONTINUOUS
70
0
71
3
72
15
73
11
74
9
42
0.0000001000
43
0.0000001000
44
0.0000000001
12
0.2818357699
22
-0.0067575402
32
0.0000000000
13
0.2819167706
23
0.0000000000
33
0.0000000000
40
0.0000000000
40
0.0000000000
40
0.0000000000
40
0.0000000000
40
0.0667268088
40
0.1556192857
40
0.2636873075
40
0.3896622572
40
0.5299557647
40
0.6802841648
40
0.8387342494
40
1.0000000000
40
1.0000000000
40
1.0000000000
40
1.0000000000
10
-8.6889234279
20
12.3869748962
30
0.0000000000
10
-8.6826547607
20
12.3868245932
30
0.0000000000
10
-8.6680330453
20
12.3865612167
30
0.0000000000
10
-8.6432558106
20
12.3862406504
30
0.0000000000
10
-8.6129101444
20
12.3859526730
30
0.0000000000
10
-8.5777337499
20
12.3857052889
30
0.0000000000
10
-8.5385856859
20
12.3855063573
30
0.0000000000
10
-8.4963856133
20
12.3853606336
30
0.0000000000
10
-8.4522145707
20
12.3852720201
30
0.0000000000
10
-8.4221701482
20
12.3852522652
30
0.0000000000
10
-8.4070156417
20
12.3852522652
30
0.0000000000
11
-8.6889234279
21
12.3869748962
31
0.0000000000
11
-8.6701155150
21
12.3866123708
31
0.0000000000
11
-8.6450574797
21
12.3862769591
31
0.0000000000
11
-8.6145927377
21
12.3859801628
31
0.0000000000
11
-8.5790791985
21
12.3857256788
31
0.0000000000
11
-8.5395286329
21
12.3855215120
31
0.0000000000
11
-8.4971487953
21
12.3853732209
31
0.0000000000
11
-8.4524791512
21
12.3852825029
31
0.0000000000
11
-8.4070156417
21
12.3852522652
31
0.0000000000
0
SPLINE
5
443
100
AcDbEntity
8
0
100
AcDbSpline
62
7
6
CONTINUOUS
70
0
71
3
72
15
73
11
74
9
42
0.0000001000
43
0.0000001000
44
0.0000000001
12
0.2819167706
22
0.0000000000
32
0.0000000000
13
0.2818357699
23
0.0067575402
33
0.0000000000
40
0.0000000000
40
0.0000000000
40
0.0000000000
40
0.0000000000
40
0.1612657506
40
0.3197158352
40
0.4700442353
40
0.6103377428
40
0.7363126925
40
0.8443807143
40
0.9332731912
40
1.0000000000
40
1.0000000000
40
1.0000000000
40
1.0000000000
10
9.4537431795
20
12.3852522652
30
0.0000000000
10
9.4688976860
20
12.3852522652
30
0.0000000000
10
9.4989421085
20
12.3852720201
30
0.0000000000
10
9.5431131510
20
12.3853606336
30
0.0000000000
10
9.5853132237
20
12.3855063573
30
0.0000000000
10
9.6244612877
20
12.3857052889
30
0.0000000000
10
9.6596376822
20
12.3859526730
30
0.0000000000
10
9.6899833484
20
12.3862406504
30
0.0000000000
10
9.7147605831
20
12.3865612167
30
0.0000000000
10
9.7293822985
20
12.3868245932
30
0.0000000000
10
9.7356509657
20
12.3869748962
30
0.0000000000
11
9.4537431795
21
12.3852522652
31
0.0000000000
11
9.4992066890
21
12.3852825029
31
0.0000000000
11
9.5438763330
21
12.3853732209
31
0.0000000000
11
9.5862561707
21
12.3855215120
31
0.0000000000
11
9.6258067363
21
12.3857256788
31
0.0000000000
11
9.6613202755
21
12.3859801628
31
0.0000000000
11
9.6917850175
21
12.3862769591
31
0.0000000000
11
9.7168430528
21
12.3866123708
31
0.0000000000
11
9.7356509657
21
12.3869748962
31
0.0000000000
0
SPLINE
5
444
100
AcDbEntity
8
0
100
AcDbSpline
62
7
6
CONTINUOUS
70
0
71
3
72
18
73
14
74
12
42
0.0000001000
43
0.0000001000
44
0.0000000001
12
0.4707733302
22
0.0000000000
32
0.0000000000
13
0.0000000000
23
0.4707733302
33
0.0000000000
40
0.0000000000
40
0.0000000000
40
0.0000000000
40
0.0000000000
40
0.0903850020
40
0.1816634799
40
0.2727515457
40
0.3630741296
40
0.4541969839
40
0.5458541143
40
0.6369915697
40
0.7273206016
40
0.8183639138
40
0.9096142515
40
1.0000000000
40
1.0000000000
40
1.0000000000
40
1.0000000000
10
6.7234094603
20
13.1751390035
30
0.0000000000
10
6.7375930765
20
13.1751390035
30
0.0000000000
10
6.7661416497
20
13.1771671250
30
0.0000000000
10
6.8081068812
20
13.1862721628
30
0.0000000000
10
6.8483417626
20
13.2012714198
30
0.0000000000
10
6.8860125009
20
13.2218187353
30
0.0000000000
10
6.9204576106
20
13.2475640283
30
0.0000000000
10
6.9509562108
20
13.2780650802
30
0.0000000000
10
6.9767003526
20
13.3125152490
30
0.0000000000
10
6.9972418070
20
13.3501849698
30
0.0000000000
10
7.0122342002
20
13.3904110713
30
0.0000000000
10
7.0213359351
20
13.4323653037
30
0.0000000000
10
7.0233637689
20
13.4609095788
30
0.0000000000
10
7.0233637689
20
13.4750933120
30
0.0000000000
11
6.7234094603
21
13.1751390035
31
0.0000000000
11
6.7658531952
21
13.1781562987
31
0.0000000000
11
6.8078478804
21
13.1872663977
31
0.0000000000
11
6.8480282507
21
13.2022460295
31
0.0000000000
11
6.8853578844
21
13.2226071030
31
0.0000000000
11
6.9197186652
21
13.2482896483
31
0.0000000000
11
6.9502289068
21
13.2788023435
31
0.0000000000
11
6.9759124089
21
13.3131709906
31
0.0000000000
11
6.9962708867
21
13.3505054976
31
0.0000000000
11
7.0112400134
21
13.3906672988
31
0.0000000000
11
7.0203464239
21
13.4326492284
31
0.0000000000
11
7.0233637689
21
13.4750933120
31
0.0000000000
0
SPLINE
5
445
100
AcDbEntity
8
0
100
AcDbSpline
62
7
6
CONTINUOUS
70
0
71
3
72
18
73
14
74
12
42
0.0000001000
43
0.0000001000
44
0.0000000001
12
0.0000000000
22
-0.4707733302
32
0.0000000000
13
0.4707733302
23
0.0000000000
33
0.0000000000
40
0.0000000000
40
0.0000000000
40
0.0000000000
40
0.0000000000
40
0.0903850020
40
0.1816634799
40
0.2727515457
40
0.3630741296
40
0.4541969839
40
0.5458541143
40
0.6369915697
40
0.7273206016
40
0.8183639138
40
0.9096142515
40
1.0000000000
40
1.0000000000
40
1.0000000000
40
1.0000000000
10
-5.9766362311
20
13.4750933120
30
0.0000000000
10
-5.9766362311
20
13.4609096959
30
0.0000000000
10
-5.9746081096
20
13.4323611227
30
0.0000000000
10
-5.9655030718
20
13.3903958911
30
0.0000000000
10
-5.9505038148
20
13.3501610098
30
0.0000000000
10
-5.9299564992
20
13.3124902715
30
0.0000000000
10
-5.9042112063
20
13.2780451617
30
0.0000000000
10
-5.8737101544
20
13.2475465615
30
0.0000000000
10
-5.8392599855
20
13.2218024197
30
0.0000000000
10
-5.8015902648
20
13.2012609654
30
0.0000000000
10
-5.7613641633
20
13.1862685721
30
0.0000000000
10
-5.7194099309
20
13.1771668372
30
0.0000000000
10
-5.6908656558
20
13.1751390035
30
0.0000000000
10
-5.6766819226
20
13.1751390035
30
0.0000000000
11
-5.9766362311
21
13.4750933120
31
0.0000000000
11
-5.9736189359
21
13.4326495772
31
0.0000000000
11
-5.9645088369
21
13.3906548919
31
0.0000000000
11
-5.9495292051
21
13.3504745216
31
0.0000000000
11
-5.9291681316
21
13.3131448879
31
0.0000000000
11
-5.9034855863
21
13.2787841072
31
0.0000000000
11
-5.8729728910
21
13.2482738656
31
0.0000000000
11
-5.8386042439
21
13.2225903635
31
0.0000000000
11
-5.8012697370
21
13.2022318857
31
0.0000000000
11
-5.7611079358
21
13.1872627590
31
0.0000000000
11
-5.7191260062
21
13.1781563485
31
0.0000000000
11
-5.6766819226
21
13.1751390035
31
0.0000000000
0
SPLINE
5
446
100
AcDbEntity
8
0
100
AcDbSpline
62
9
6
CONTINUOUS
70
0
71
3
72
17
73
13
74
11
42
0.0000001000
43
0.0000001000
44
0.0000000001
12
-0.3922846482
22
0.0000132773
32
0.0000000000
13
-0.0000132773
23
0.3922846482
33
0.0000000000
40
0.0000000000
40
0.0000000000
40
0.0000000000
40
0.0000000000
40
0.0999991830
40
0.1999988695
40
0.2999989843
40
0.3999994104
40
0.5000000000
40
0.6000005896
40
0.7000010157
40
0.8000011305
40
0.9000008170
40
1.0000000000
40
1.0000000000
40
1.0000000000
40
1.0000000000
10
9.0277313721
20
-24.5204891625
30
0.0000000000
10
9.0146553240
20
-24.5204887200
30
0.0000000000
10
8.9884567866
20
-24.5184275424
30
0.0000000000
10
8.9501633038
20
-24.5092310899
30
0.0000000000
10
8.9137697649
20
-24.4941563874
30
0.0000000000
10
8.8801848897
20
-24.4735745930
30
0.0000000000
10
8.8502322237
20
-24.4479925417
30
0.0000000000
10
8.8246501724
20
-24.4180398757
30
0.0000000000
10
8.8040683780
20
-24.3844550005
30
0.0000000000
10
8.7889936755
20
-24.3480614617
30
0.0000000000
10
8.7797972230
20
-24.3097679788
30
0.0000000000
10
8.7777360455
20
-24.2835694414
30
0.0000000000
10
8.7777356029
20
-24.2704933933
30
0.0000000000
11
9.0277313721
21
-24.5204891625
31
0.0000000000
11
8.9886242534
21
-24.5174101085
31
0.0000000000
11
8.9504800403
21
-24.5082514070
31
0.0000000000
11
8.9142379296
21
-24.4932385658
31
0.0000000000
11
8.8807902839
21
-24.4727412351
31
0.0000000000
11
8.8509606599
21
-24.4472641055
31
0.0000000000
11
8.8254835303
21
-24.4174344815
31
0.0000000000
11
8.8049861996
21
-24.3839868358
31
0.0000000000
11
8.7899733585
21
-24.3477447251
31
0.0000000000
11
8.7808146569
21
-24.3096005120
31
0.0000000000
11
8.7777356029
21
-24.2704933933
31
0.0000000000
0
SPLINE
5
447
100
AcDbEntity
8
0
100
AcDbSpline
62
7
6
CONTINUOUS
70
0
71
3
72
17
73
13
74
11
42
0.0000001000
43
0.0000001000
44
0.0000000001
12
0.0000000000
22
0.4220147089
32
0.0000000000
13
0.4220147089
23
-0.0000000000
33
0.0000000000
40
0.0000000000
40
0.0000000000
40
0.0000000000
40
0.0000000000
40
0.1163097356
40
0.2303278571
40
0.3412445469
40
0.4475088604
40
0.5491224320
40
0.6456322518
40
0.7382753117
40
0.8272646510
40
0.9144010609
40
1.0000000000
40
1.0000000000
40
1.0000000000
40
1.0000000000
10
8.7733637689
20
-23.4353461447
30
0.0000000000
10
8.7733637689
20
-23.4189846717
30
0.0000000000
10
8.7757537324
20
-23.3865321679
30
0.0000000000
10
8.7863167333
20
-23.3395341558
30
0.0000000000
10
8.8032213840
20
-23.2959282092
30
0.0000000000
10
8.8256234950
20
-23.2568797639
30
0.0000000000
10
8.8524741946
20
-23.2233040741
30
0.0000000000
10
8.8828191459
20
-23.1956244024
30
0.0000000000
10
8.9156988681
20
-23.1741024628
30
0.0000000000
10
8.9504308619
20
-23.1587360325
30
0.0000000000
10
8.9862525022
20
-23.1495507674
30
0.0000000000
10
9.0105994339
20
-23.1475107273
30
0.0000000000
10
9.0226407710
20
-23.1475107273
30
0.0000000000
11
8.7733637689
21
-23.4353461447
31
0.0000000000
11
8.7769861277
21
-23.3863955704
31
0.0000000000
11
8.7875736320
21
-23.3394575085
31
0.0000000000
11
8.8045481858
21
-23.2958352916
31
0.0000000000
11
8.8269248717
21
-23.2569718483
31
0.0000000000
11
8.8537660626
21
-23.2235285743
31
0.0000000000
11
8.8839046797
21
-23.1961336908
31
0.0000000000
11
8.9166512473
21
-23.1747744559
31
0.0000000000
11
8.9510138857
21
-23.1596227946
31
0.0000000000
11
8.9866423470
21
-23.1505203222
31
0.0000000000
11
9.0226407710
21
-23.1475107273
31
0.0000000000
0
SPLINE
5
448
100
AcDbEntity
8
0
100
AcDbSpline
62
7
6
CONTINUOUS
70
0
71
3
72
18
73
14
74
12
42
0.0000001000
43
0.0000001000
44
0.0000000001
12
0.0031763781
22
0.3152256661
32
0.0000000000
13
0.3152416691
23
0.0000000000
33
0.0000000000
40
0.0000000000
40
0.0000000000
40
0.0000000000
40
0.0000000000
40
0.0600923894
40
0.1232193774
40
0.1912702092
40
0.2657636629
40
0.3477531865
40
0.4378167491
40
0.5360799495
40
0.6422378908
40
0.7555663097
40
0.8749375201
40
1.0000000000
40
1.0000000000
40
1.0000000000
40
1.0000000000
10
8.7777356029
20
-23.8691985638
30
0.0000000000
10
8.7777992283
20
-23.8628843427
30
0.0000000000
10
8.7794268876
20
-23.8499085997
30
0.0000000000
10
8.7863141547
20
-23.8308716254
30
0.0000000000
10
8.7976846050
20
-23.8123356591
30
0.0000000000
10
8.8134754428
20
-23.7946595826
30
0.0000000000
10
8.8335769326
20
-23.7781745511
30
0.0000000000
10
8.8578189828
20
-23.7632277442
30
0.0000000000
10
8.8859490947
20
-23.7501796154
30
0.0000000000
10
8.9176112661
20
-23.7394017862
30
0.0000000000
10
8.9523310091
20
-23.7312579376
30
0.0000000000
10
8.9896176520
20
-23.7261011586
30
0.0000000000
10
9.0153169659
20
-23.7248609965
30
0.0000000000
10
9.0284586008
20
-23.7248609965
30
0.0000000000
11
8.7777356029
21
-23.8691985638
31
0.0000000000
11
8.7800549434
21
-23.8503974577
31
0.0000000000
11
8.7867224534
21
-23.8316474032
31
0.0000000000
11
8.7978171258
21
-23.8132866791
31
0.0000000000
11
8.8133456227
21
-23.7956702728
31
0.0000000000
11
8.8332369917
21
-23.7791664630
31
0.0000000000
11
8.8573352949
21
-23.7641542879
31
0.0000000000
11
8.8853896577
21
-23.7510201377
31
0.0000000000
11
8.9170413568
21
-23.7401525998
31
0.0000000000
11
8.9518090366
21
-23.7319340789
31
0.0000000000
11
8.9890779133
21
-23.7267276982
31
0.0000000000
11
9.0284586008
21
-23.7248609965
31
0.0000000000
0
SPLINE
5
449
100
AcDbEntity
8
0
100
AcDbSpline
62
9
6
CONTINUOUS
70
0
71
3
72
17
73
13
74
11
42
0.0000001000
43
0.0000001000
44
0.0000000001
12
-0.0000132773
22
-0.3922846478
32
0.0000000000
13
-0.3922846478
23
-0.0000132773
33
0.0000000000
40
0.0000000000
40
0.0000000000
40
0.0000000000
40
0.0000000000
40
0.0998239394
40
0.1998359985
40
0.2998483200
40
0.3998691378
40
0.4998893118
40
0.5999112671
40
0.6999336806
40
0.7999562942
40
0.8999787118
40
1.0000000000
40
1.0000000000
40
1.0000000000
40
1.0000000000
10
11.1689919349
20
-24.2704933933
30
0.0000000000
10
11.1689914931
20
-24.2835465263
30
0.0000000000
10
11.1669356472
20
-24.3097235153
30
0.0000000000
10
11.1577539903
20
-24.3480003313
30
0.0000000000
10
11.1426859957
20
-24.3844030576
30
0.0000000000
10
11.1221080129
20
-24.4179983898
30
0.0000000000
10
11.0965263716
20
-24.4479620774
30
0.0000000000
10
11.0665713968
20
-24.4735542569
30
0.0000000000
10
11.0329816272
20
-24.4941447475
30
0.0000000000
10
10.9965811969
20
-24.5092260688
30
0.0000000000
10
10.9582795353
20
-24.5184266210
30
0.0000000000
10
10.9320751043
20
-24.5204887199
30
0.0000000000
10
10.9189961657
20
-24.5204891625
30
0.0000000000
11
11.1689919349
21
-24.2704933933
31
0.0000000000
11
11.1659236608
21
-24.3095324022
31
0.0000000000
11
11.1567739776
21
-24.3476837708
31
0.0000000000
11
11.1417682480
21
-24.3839340091
31
0.0000000000
11
11.1212741345
21
-24.4173930071
31
0.0000000000
11
11.0957976735
21
-24.4472333046
31
0.0000000000
11
11.0659656876
21
-24.4727205734
31
0.0000000000
11
11.0325132155
21
-24.4932265352
31
0.0000000000
11
10.9962642766
21
-24.5082459540
31
0.0000000000
11
10.9581118756
21
-24.5174087474
31
0.0000000000
11
10.9189961657
21
-24.5204891625
31
0.0000000000
0
SPLINE
5
44A
100
AcDbEntity
8
0
100
AcDbSpline
62
7
6
CONTINUOUS
70
0
71
3
72
18
73
14
74
12
42
0.0000001000
43
0.0000001000
44
0.0000000001
12
0.3145151746
22
0.0000000000
32
0.0000000000
13
0.0031690579
23
-0.3144992085
33
0.0000000000
40
0.0000000000
40
0.0000000000
40
0.0000000000
40
0.0000000000
40
0.1233645867
40
0.2431315365
40
0.3566833685
40
0.4629485722
40
0.5612613068
40
0.6513651559
40
0.7334201413
40
0.8080244445
40
0.8762413066
40
0.9395978155
40
1.0000000000
40
1.0000000000
40
1.0000000000
40
1.0000000000
10
10.9189961657
20
-23.7248609965
30
0.0000000000
10
10.9319295105
20
-23.7248609965
30
0.0000000000
10
10.9574301471
20
-23.7261503472
30
0.0000000000
10
10.9945176426
20
-23.7312771651
30
0.0000000000
10
11.0292286797
20
-23.7394352658
30
0.0000000000
10
11.0608521233
20
-23.7502105495
30
0.0000000000
10
11.0889332792
20
-23.7632433414
30
0.0000000000
10
11.1131328262
20
-23.7781645628
30
0.0000000000
10
11.1332091606
20
-23.7946211861
30
0.0000000000
10
11.1489963753
20
-23.8122751125
30
0.0000000000
10
11.1603819060
20
-23.8308054652
30
0.0000000000
10
11.1672926890
20
-23.8498637129
30
0.0000000000
10
11.1689281289
20
-23.8628664174
30
0.0000000000
10
11.1689919349
20
-23.8691985638
30
0.0000000000
11
10.9189961657
21
-23.7248609965
31
0.0000000000
11
10.9577508114
21
-23.7267371928
31
0.0000000000
11
10.9950555323
21
-23.7319597814
31
0.0000000000
11
11.0298085386
21
-23.7401879180
31
0.0000000000
11
11.0614157092
21
-23.7510515328
31
0.0000000000
11
11.0894169002
21
-23.7641676325
31
0.0000000000
11
11.1134703789
21
-23.7791519798
31
0.0000000000
11
11.1333359242
21
-23.7956258722
31
0.0000000000
11
11.1488609405
21
-23.8132196742
31
0.0000000000
11
11.1599703928
21
-23.8315747095
31
0.0000000000
11
11.1666600689
21
-23.8503448176
31
0.0000000000
11
11.1689919349
21
-23.8691985638
31
0.0000000000
0
SPLINE
5
44B
100
AcDbEntity
8
0
100
AcDbSpline
62
7
6
CONTINUOUS
70
0
71
3
72
17
73
13
74
11
42
0.0000001000
43
0.0000001000
44
0.0000000001
12
0.4220147089
22
0.0000000000
32
0.0000000000
13
0.0000000000
23
-0.4220147089
33
0.0000000000
40
0.0000000000
40
0.0000000000
40
0.0000000000
40
0.0000000000
40
0.0855989391
40
0.1727353490
40
0.2617246883
40
0.3543677482
40
0.4508775680
40
0.5524911396
40
0.6587554531
40
0.7696721429
40
0.8836902644
40
1.0000000000
40
1.0000000000
40
1.0000000000
40
1.0000000000
10
10.9240867668
20
-23.1475107273
30
0.0000000000
10
10.9361281039
20
-23.1475107273
30
0.0000000000
10
10.9604750356
20
-23.1495507674
30
0.0000000000
10
10.9962966759
20
-23.1587360325
30
0.0000000000
10
11.0310286697
20
-23.1741024628
30
0.0000000000
10
11.0639083918
20
-23.1956244024
30
0.0000000000
10
11.0942533432
20
-23.2233040741
30
0.0000000000
10
11.1211040428
20
-23.2568797639
30
0.0000000000
10
11.1435061538
20
-23.2959282092
30
0.0000000000
10
11.1604108045
20
-23.3395341558
30
0.0000000000
10
11.1709738054
20
-23.3865321679
30
0.0000000000
10
11.1733637689
20
-23.4189846717
30
0.0000000000
10
11.1733637689
20
-23.4353461447
30
0.0000000000
11
10.9240867668
21
-23.1475107273
31
0.0000000000
11
10.9600851908
21
-23.1505203222
31
0.0000000000
11
10.9957136520
21
-23.1596227946
31
0.0000000000
11
11.0300762905
21
-23.1747744559
31
0.0000000000
11
11.0628228581
21
-23.1961336908
31
0.0000000000
11
11.0929614752
21
-23.2235285743
31
0.0000000000
11
11.1198026661
21
-23.2569718483
31
0.0000000000
11
11.1421793520
21
-23.2958352916
31
0.0000000000
11
11.1591539058
21
-23.3394575085
31
0.0000000000
11
11.1697414101
21
-23.3863955704
31
0.0000000000
11
11.1733637689
21
-23.4353461447
31
0.0000000000
0
SPLINE
5
44C
100
AcDbEntity
8
0
100
AcDbSpline
62
9
6
CONTINUOUS
70
0
71
3
72
17
73
13
74
11
42
0.0000001000
43
0.0000001000
44
0.0000000001
12
-0.3922846478
22
0.0000132773
32
0.0000000000
13
-0.0000132773
23
0.3922846478
33
0.0000000000
40
0.0000000000
40
0.0000000000
40
0.0000000000
40
0.0000000000
40
0.0998239394
40
0.1998359985
40
0.2998483200
40
0.3998691378
40
0.4998893118
40
0.5999112671
40
0.6999336806
40
0.7999562942
40
0.8999787118
40
1.0000000000
40
1.0000000000
40
1.0000000000
40
1.0000000000
10
-9.8722686279
20
-24.5204891625
30
0.0000000000
10
-9.8853217609
20
-24.5204887207
30
0.0000000000
10
-9.9114987499
20
-24.5184328748
30
0.0000000000
10
-9.9497755659
20
-24.5092512179
30
0.0000000000
10
-9.9861782922
20
-24.4941832233
30
0.0000000000
10
-10.0197736244
20
-24.4736052405
30
0.0000000000
10
-10.0497373120
20
-24.4480235993
30
0.0000000000
10
-10.0753294915
20
-24.4180686244
30
0.0000000000
10
-10.0959199821
20
-24.3844788548
30
0.0000000000
10
-10.1110013034
20
-24.3480784245
30
0.0000000000
10
-10.1202018556
20
-24.3097767629
30
0.0000000000
10
-10.1222639544
20
-24.2835723319
30
0.0000000000
10
-10.1222643971
20
-24.2704933933
30
0.0000000000
11
-9.8722686279
21
-24.5204891625
31
0.0000000000
11
-9.9113076368
21
-24.5174208885
31
0.0000000000
11
-9.9494590053
21
-24.5082712052
31
0.0000000000
11
-9.9857092436
21
-24.4932654756
31
0.0000000000
11
-10.0191682417
21
-24.4727713621
31
0.0000000000
11
-10.0490085391
21
-24.4472949011
31
0.0000000000
11
-10.0744958079
21
-24.4174629153
31
0.0000000000
11
-10.0950017698
21
-24.3840104432
31
0.0000000000
11
-10.1100211886
21
-24.3477615042
31
0.0000000000
11
-10.1191839820
21
-24.3096091032
31
0.0000000000
11
-10.1222643971
21
-24.2704933933
31
0.0000000000
0
SPLINE
5
44D
100
AcDbEntity
8
0
100
AcDbSpline
62
7
6
CONTINUOUS
70
0
71
3
72
17
73
13
74
11
42
0.0000001000
43
0.0000001000
44
0.0000000001
12
0.0000000000
22
0.4220147089
32
0.0000000000
13
0.4220147089
23
0.0000000000
33
0.0000000000
40
0.0000000000
40
0.0000000000
40
0.0000000000
40
0.0000000000
40
0.1163097356
40
0.2303278571
40
0.3412445469
40
0.4475088604
40
0.5491224320
40
0.6456322518
40
0.7382753117
40
0.8272646510
40
0.9144010609
40
1.0000000000
40
1.0000000000
40
1.0000000000
40
1.0000000000
10
-10.1266362311
20
-23.4353461447
30
0.0000000000
10
-10.1266362311
20
-23.4189846717
30
0.0000000000
10
-10.1242462676
20
-23.3865321679
30
0.0000000000
10
-10.1136832667
20
-23.3395341558
30
0.0000000000
10
-10.0967786160
20
-23.2959282092
30
0.0000000000
10
-10.0743765050
20
-23.2568797639
30
0.0000000000
10
-10.0475258054
20
-23.2233040741
30
0.0000000000
10
-10.0171808541
20
-23.1956244024
30
0.0000000000
10
-9.9843011319
20
-23.1741024628
30
0.0000000000
10
-9.9495691381
20
-23.1587360325
30
0.0000000000
10
-9.9137474978
20
-23.1495507674
30
0.0000000000
10
-9.8894005661
20
-23.1475107273
30
0.0000000000
10
-9.8773592290
20
-23.1475107273
30
0.0000000000
11
-10.1266362311
21
-23.4353461447
31
0.0000000000
11
-10.1230138723
21
-23.3863955704
31
0.0000000000
11
-10.1124263680
21
-23.3394575085
31
0.0000000000
11
-10.0954518142
21
-23.2958352916
31
0.0000000000
11
-10.0730751283
21
-23.2569718483
31
0.0000000000
11
-10.0462339374
21
-23.2235285743
31
0.0000000000
11
-10.0160953203
21
-23.1961336908
31
0.0000000000
11
-9.9833487527
21
-23.1747744559
31
0.0000000000
11
-9.9489861143
21
-23.1596227946
31
0.0000000000
11
-9.9133576530
21
-23.1505203222
31
0.0000000000
11
-9.8773592290
21
-23.1475107273
31
0.0000000000
0
SPLINE
5
44E
100
AcDbEntity
8
0
100
AcDbSpline
62
9
6
CONTINUOUS
70
0
71
3
72
17
73
13
74
11
42
0.0000001000
43
0.0000001000
44
0.0000000001
12
0.0012298291
22
0.3661500354
32
0.0000000000
13
0.3661509389
23
0.0009224053
33
0.0000000000
40
0.0000000000
40
0.0000000000
40
0.0000000000
40
0.0000000000
40
0.0926637669
40
0.1861959939
40
0.2811621264
40
0.3780472439
40
0.4771141944
40
0.5784104998
40
0.6817687109
40
0.7868361684
40
0.8931123906
40
1.0000000000
40
1.0000000000
40
1.0000000000
40
1.0000000000
10
-10.1222643971
20
-23.8691985638
30
0.0000000000
10
-10.1222264102
20
-23.8578889500
30
0.0000000000
10
-10.1200783424
20
-23.8351181866
30
0.0000000000
10
-10.1107437645
20
-23.8019165135
30
0.0000000000
10
-10.0955340164
20
-23.7703868562
30
0.0000000000
10
-10.0748481305
20
-23.7413291152
30
0.0000000000
10
-10.0492130261
20
-23.7154435359
30
0.0000000000
10
-10.0192697621
20
-23.6933515848
30
0.0000000000
10
-9.9857568629
20
-23.6755779471
30
0.0000000000
10
-9.9494905612
20
-23.6625436802
30
0.0000000000
10
-9.9113613780
20
-23.6545570248
30
0.0000000000
10
-9.8853142941
20
-23.6527250774
30
0.0000000000
10
-9.8722686279
20
-23.6526922129
30
0.0000000000
11
-10.1222643971
21
-23.8691985638
31
0.0000000000
11
-10.1190893374
21
-23.8354184177
31
0.0000000000
11
-10.1098587147
21
-23.8024388167
31
0.0000000000
11
-10.0947990907
21
-23.7710971016
31
0.0000000000
11
-10.0742782153
21
-23.7421601485
31
0.0000000000
11
-10.0488005260
21
-23.7163404007
31
0.0000000000
11
-10.0189909523
21
-23.6942712670
31
0.0000000000
11
-9.9855811249
21
-23.6764944761
31
0.0000000000
11
-9.9493908521
21
-23.6634462336
31
0.0000000000
11
-9.9113086931
21
-23.6554467883
31
0.0000000000
11
-9.8722686279
21
-23.6526922129
31
0.0000000000
0
SPLINE
5
44F
100
AcDbEntity
8
0
100
AcDbSpline
62
9
6
CONTINUOUS
70
0
71
3
72
17
73
13
74
11
42
0.0000001000
43
0.0000001000
44
0.0000000001
12
-0.0000132773
22
-0.3922846478
32
0.0000000000
13
-0.3922846478
23
-0.0000132773
33
0.0000000000
40
0.0000000000
40
0.0000000000
40
0.0000000000
40
0.0000000000
40
0.1000212882
40
0.2000437058
40
0.3000663194
40
0.4000887329
40
0.5001106882
40
0.6001308622
40
0.7001516800
40
0.8001640015
40
0.9001760606
40
1.0000000000
40
1.0000000000
40
1.0000000000
40
1.0000000000
10
-7.7310080651
20
-24.2704933933
30
0.0000000000
10
-7.7310085078
20
-24.2835723319
30
0.0000000000
10
-7.7330706066
20
-24.3097767629
30
0.0000000000
10
-7.7422711588
20
-24.3480784245
30
0.0000000000
10
-7.7573524801
20
-24.3844788548
30
0.0000000000
10
-7.7779429707
20
-24.4180686244
30
0.0000000000
10
-7.8035351502
20
-24.4480235993
30
0.0000000000
10
-7.8334988378
20
-24.4736052405
30
0.0000000000
10
-7.8670941701
20
-24.4941832233
30
0.0000000000
10
-7.9034968963
20
-24.5092512179
30
0.0000000000
10
-7.9417737123
20
-24.5184328748
30
0.0000000000
10
-7.9679507014
20
-24.5204887207
30
0.0000000000
10
-7.9810038343
20
-24.5204891625
30
0.0000000000
11
-7.7310080651
21
-24.2704933933
31
0.0000000000
11
-7.7340884802
21
-24.3096091032
31
0.0000000000
11
-7.7432512736
21
-24.3477615042
31
0.0000000000
11
-7.7582706925
21
-24.3840104432
31
0.0000000000
11
-7.7787766543
21
-24.4174629153
31
0.0000000000
11
-7.8042639231
21
-24.4472949011
31
0.0000000000
11
-7.8341042206
21
-24.4727713621
31
0.0000000000
11
-7.8675632186
21
-24.4932654756
31
0.0000000000
11
-7.9038134569
21
-24.5082712052
31
0.0000000000
11
-7.9419648254
21
-24.5174208885
31
0.0000000000
11
-7.9810038343
21
-24.5204891625
31
0.0000000000
0
SPLINE
5
450
100
AcDbEntity
8
0
100
AcDbSpline
62
9
6
CONTINUOUS
70
0
71
3
72
17
73
13
74
11
42
0.0000001000
43
0.0000001000
44
0.0000000001
12
-0.0012298290
22
0.3661500177
32
0.0000000000
13
-0.3661509212
23
0.0009224053
33
0.0000000000
40
0.0000000000
40
0.0000000000
40
0.0000000000
40
0.0000000000
40
0.0927380474
40
0.1862683312
40
0.2812329042
40
0.3781093545
40
0.4771672798
40
0.5784533210
40
0.6818006960
40
0.7868568096
40
0.8931227640
40
1.0000000000
40
1.0000000000
40
1.0000000000
40
1.0000000000
10
-7.7310080651
20
-23.8691985638
30
0.0000000000
10
-7.7310460824
20
-23.8578798846
30
0.0000000000
10
-7.7331966814
20
-23.8351001759
30
0.0000000000
10
-7.7425382502
20
-23.8018915128
30
0.0000000000
10
-7.7577514461
20
-23.7703651874
30
0.0000000000
10
-7.7784392343
20
-23.7413117606
30
0.0000000000
10
-7.8040742769
20
-23.7154309992
30
0.0000000000
10
-7.8340161172
20
-23.6933434023
30
0.0000000000
10
-7.8675264061
20
-23.6755733986
30
0.0000000000
10
-7.9037893948
20
-23.6625417580
30
0.0000000000
10
-7.9419148808
20
-23.6545566721
30
0.0000000000
10
-7.9679594349
20
-23.6527250743
30
0.0000000000
10
-7.9810038343
20
-23.6526922129
30
0.0000000000
11
-7.7310080651
21
-23.8691985638
31
0.0000000000
11
-7.7341881137
21
-23.8353915705
31
0.0000000000
11
-7.7434231424
21
-23.8024139437
31
0.0000000000
11
-7.7584865941
21
-23.7710747034
31
0.0000000000
11
-7.7790089261
21
-23.7421426762
31
0.0000000000
11
-7.8044866766
21
-23.7163276339
31
0.0000000000
11
-7.8342948153
21
-23.6942628814
31
0.0000000000
11
-7.8677020773
21
-23.6764897198
31
0.0000000000
11
-7.9038889026
21
-23.6634441672
31
0.0000000000
11
-7.9419675416
21
-23.6554462623
31
0.0000000000
11
-7.9810038343
21
-23.6526922129
31
0.0000000000
0
SPLINE
5
451
100
AcDbEntity
8
0
100
AcDbSpline
62
7
6
CONTINUOUS
70
0
71
3
72
17
73
13
74
11
42
0.0000001000
43
0.0000001000
44
0.0000000001
12
0.4220147089
22
0.0000000000
32
0.0000000000
13
0.0000000000
23
-0.4220147089
33
0.0000000000
40
0.0000000000
40
0.0000000000
40
0.0000000000
40
0.0000000000
40
0.0855989391
40
0.1727353490
40
0.2617246883
40
0.3543677482
40
0.4508775680
40
0.5524911396
40
0.6587554531
40
0.7696721429
40
0.8836902644
40
1.0000000000
40
1.0000000000
40
1.0000000000
40
1.0000000000
10
-7.9759132332
20
-23.1475107273
30
0.0000000000
10
-7.9638718961
20
-23.1475107273
30
0.0000000000
10
-7.9395249644
20
-23.1495507674
30
0.0000000000
10
-7.9037033241
20
-23.1587360325
30
0.0000000000
10
-7.8689713303
20
-23.1741024628
30
0.0000000000
10
-7.8360916082
20
-23.1956244024
30
0.0000000000
10
-7.8057466568
20
-23.2233040741
30
0.0000000000
10
-7.7788959572
20
-23.2568797639
30
0.0000000000
10
-7.7564938462
20
-23.2959282092
30
0.0000000000
10
-7.7395891955
20
-23.3395341558
30
0.0000000000
10
-7.7290261946
20
-23.3865321679
30
0.0000000000
10
-7.7266362311
20
-23.4189846717
30
0.0000000000
10
-7.7266362311
20
-23.4353461447
30
0.0000000000
11
-7.9759132332
21
-23.1475107273
31
0.0000000000
11
-7.9399148092
21
-23.1505203222
31
0.0000000000
11
-7.9042863480
21
-23.1596227946
31
0.0000000000
11
-7.8699237095
21
-23.1747744559
31
0.0000000000
11
-7.8371771419
21
-23.1961336908
31
0.0000000000
11
-7.8070385248
21
-23.2235285743
31
0.0000000000
11
-7.7801973339
21
-23.2569718483
31
0.0000000000
11
-7.7578206480
21
-23.2958352916
31
0.0000000000
11
-7.7408460942
21
-23.3394575085
31
0.0000000000
11
-7.7302585899
21
-23.3863955704
31
0.0000000000
11
-7.7266362311
21
-23.4353461447
31
0.0000000000
0
SPLINE
5
452
100
AcDbEntity
8
0
100
AcDbSpline
62
7
6
CONTINUOUS
70
0
71
3
72
19
73
15
74
13
42
0.0000001000
43
0.0000001000
44
0.0000000001
12
-0.7848103230
22
0.0000000000
32
0.0000000000
13
0.0000000000
23
-0.7848103230
33
0.0000000000
40
0.0000000000
40
0.0000000000
40
0.0000000000
40
0.0000000000
40
0.0828415572
40
0.1665006486
40
0.2501257838
40
0.3330845013
40
0.4161420086
40
0.4999826329
40
0.5838176134
40
0.6668662342
40
0.7498330370
40
0.8334806752
40
0.9171529021
40
1.0000000000
40
1.0000000000
40
1.0000000000
40
1.0000000000
10
-6.3867685313
20
13.7852522652
30
0.0000000000
10
-6.4084401677
20
13.7852522652
30
0.0000000000
10
-6.4520501407
20
13.7824125795
30
0.0000000000
10
-6.5164095628
20
13.7696442928
30
0.0000000000
10
-6.5785818051
20
13.7485434490
30
0.0000000000
10
-6.6373221868
20
13.7195833985
30
0.0000000000
10
-6.6918467749
20
13.6832000362
30
0.0000000000
10
-6.7413234907
20
13.6398477237
30
0.0000000000
10
-6.7846771707
20
13.5903753421
30
0.0000000000
10
-6.8210634145
20
13.5358547640
30
0.0000000000
10
-6.8500301804
20
13.4771113051
30
0.0000000000
10
-6.8711376734
20
13.4149290896
30
0.0000000000
10
-6.8839092978
20
13.3505592595
30
0.0000000000
10
-6.8867494929
20
13.3069443896
30
0.0000000000
10
-6.8867494929
20
13.2852713037
30
0.0000000000
11
-6.3867685313
21
13.7852522652
31
0.0000000000
11
-6.4516458958
21
13.7810254460
31
0.0000000000
11
-6.5160475860
21
13.7682504418
31
0.0000000000
11
-6.5781954048
21
13.7471571167
31
0.0000000000
11
-6.6365910711
21
13.7183673771
31
0.0000000000
11
-6.6908122047
21
13.6821862597
31
0.0000000000
11
-6.7403011106
21
13.6388232000
31
0.0000000000
11
-6.7836641748
21
13.5893401873
31
0.0000000000
11
-6.8198452437
21
13.5351274060
31
0.0000000000
11
-6.8486419436
21
13.4767280967
31
0.0000000000
11
-6.8697438713
21
13.4145645476
31
0.0000000000
11
-6.8825221082
21
13.3501529890
31
0.0000000000
11
-6.8867494929
21
13.2852713037
31
0.0000000000
0
SPLINE
5
453
100
AcDbEntity
8
0
100
AcDbSpline
62
7
6
CONTINUOUS
70
0
71
3
72
18
73
14
74
12
42
0.0000001000
43
0.0000001000
44
0.0000000001
12
0.0000000000
22
-0.5000091213
32
0.0000000000
13
-0.2773524497
23
-0.4160345418
33
0.0000000000
40
0.0000000000
40
0.0000000000
40
0.0000000000
40
0.0000000000
40
0.1414964259
40
0.2802828744
40
0.4131632444
40
0.5380551258
40
0.6517551650
40
0.7526882579
40
0.8381627778
40
0.9070040251
40
0.9574305388
40
0.9886738564
40
1.0000000000
40
1.0000000000
40
1.0000000000
40
1.0000000000
10
7.0815420670
20
20.5580632867
30
0.0000000000
10
7.0815420670
20
20.5344801188
30
0.0000000000
10
7.0815230314
20
20.4877654142
30
0.0000000000
10
7.0814368496
20
20.4189038273
30
0.0000000000
10
7.0812973525
20
20.3528090805
30
0.0000000000
10
7.0810995646
20
20.2908981004
30
0.0000000000
10
7.0808745524
20
20.2343038727
30
0.0000000000
10
7.0805423444
20
20.1843050066
30
0.0000000000
10
7.0803674459
20
20.1417079641
30
0.0000000000
10
7.0796374725
20
20.1077355045
30
0.0000000000
10
7.0801853226
20
20.0822996770
30
0.0000000000
10
7.0781872031
20
20.0674483793
30
0.0000000000
10
7.0797056481
20
20.0596530141
30
0.0000000000
10
7.0786585368
20
20.0580823251
30
0.0000000000
11
7.0815420670
21
20.5580632867
31
0.0000000000
11
7.0815127987
21
20.4873137892
31
0.0000000000
11
7.0814254660
21
20.4179193539
31
0.0000000000
11
7.0812821664
21
20.3514781115
31
0.0000000000
11
7.0810850883
21
20.2890313426
31
0.0000000000
11
7.0808393343
21
20.2321808170
31
0.0000000000
11
7.0805482820
21
20.1817141892
31
0.0000000000
11
7.0802196928
21
20.1389774128
31
0.0000000000
11
7.0798581197
21
20.1045580603
31
0.0000000000
11
7.0794728363
21
20.0793472874
31
0.0000000000
11
7.0790698823
21
20.0637305414
31
0.0000000000
11
7.0786585368
21
20.0580823251
31
0.0000000000
0
SPLINE
5
454
100
AcDbEntity
8
0
100
AcDbSpline
62
7
6
CONTINUOUS
70
0
71
3
72
18
73
14
74
12
42
0.0000001000
43
0.0000001000
44
0.0000000001
12
-0.2773524497
22
0.4160345418
32
0.0000000000
13
0.0000000000
23
0.5000091213
33
0.0000000000
40
0.0000000000
40
0.0000000000
40
0.0000000000
40
0.0000000000
40
0.0113261436
40
0.0425694612
40
0.0929959749
40
0.1618372222
40
0.2473117421
40
0.3482448350
40
0.4619448742
40
0.5868367556
40
0.7197171256
40
0.8585035741
40
1.0000000000
40
1.0000000000
40
1.0000000000
40
1.0000000000
10
-6.0319309991
20
20.0580823251
30
0.0000000000
10
-6.0329781103
20
20.0596530141
30
0.0000000000
10
-6.0314596653
20
20.0674483793
30
0.0000000000
10
-6.0334577848
20
20.0822996770
30
0.0000000000
10
-6.0329099348
20
20.1077355045
30
0.0000000000
10
-6.0336399081
20
20.1417079641
30
0.0000000000
10
-6.0338148066
20
20.1843050066
30
0.0000000000
10
-6.0341470146
20
20.2343038727
30
0.0000000000
10
-6.0343720268
20
20.2908981004
30
0.0000000000
10
-6.0345698147
20
20.3528090805
30
0.0000000000
10
-6.0347093119
20
20.4189038273
30
0.0000000000
10
-6.0347954936
20
20.4877654142
30
0.0000000000
10
-6.0348145292
20
20.5344801188
30
0.0000000000
10
-6.0348145292
20
20.5580632867
30
0.0000000000
11
-6.0319309991
21
20.0580823251
31
0.0000000000
11
-6.0323423445
21
20.0637305414
31
0.0000000000
11
-6.0327452985
21
20.0793472874
31
0.0000000000
11
-6.0331305820
21
20.1045580603
31
0.0000000000
11
-6.0334921551
21
20.1389774128
31
0.0000000000
11
-6.0338207442
21
20.1817141892
31
0.0000000000
11
-6.0341117966
21
20.2321808170
31
0.0000000000
11
-6.0343575505
21
20.2890313426
31
0.0000000000
11
-6.0345546286
21
20.3514781115
31
0.0000000000
11
-6.0346979283
21
20.4179193539
31
0.0000000000
11
-6.0347852609
21
20.4873137892
31
0.0000000000
11
-6.0348145292
21
20.5580632867
31
0.0000000000
0
SPLINE
5
455
100
AcDbEntity
8
0
100
AcDbSpline
62
7
6
CONTINUOUS
70
0
71
3
72
18
73
14
74
12
42
0.0000001000
43
0.0000001000
44
0.0000000001
12
0.0000000000
22
0.5000091213
32
0.0000000000
13
0.2773524497
23
0.4160345418
33
0.0000000000
40
0.0000000000
40
0.0000000000
40
0.0000000000
40
0.0000000000
40
0.1414964259
40
0.2802828744
40
0.4131632444
40
0.5380551258
40
0.6517551650
40
0.7526882579
40
0.8381627778
40
0.9070040251
40
0.9574305388
40
0.9886738564
40
1.0000000000
40
1.0000000000
40
1.0000000000
40
1.0000000000
10
-6.0348145292
20
-20.6077852797
30
0.0000000000
10
-6.0348145292
20
-20.5842021119
30
0.0000000000
10
-6.0347954936
20
-20.5374874072
30
0.0000000000
10
-6.0347093119
20
-20.4686258203
30
0.0000000000
10
-6.0345698147
20
-20.4025310735
30
0.0000000000
10
-6.0343720268
20
-20.3406200935
30
0.0000000000
10
-6.0341470146
20
-20.2840258657
30
0.0000000000
10
-6.0338148066
20
-20.2340269996
30
0.0000000000
10
-6.0336399081
20
-20.1914299572
30
0.0000000000
10
-6.0329099348
20
-20.1574574976
30
0.0000000000
10
-6.0334577848
20
-20.1320216701
30
0.0000000000
10
-6.0314596653
20
-20.1171703723
30
0.0000000000
10
-6.0329781103
20
-20.1093750072
30
0.0000000000
10
-6.0319309991
20
-20.1078043182
30
0.0000000000
11
-6.0348145292
21
-20.6077852797
31
0.0000000000
11
-6.0347852609
21
-20.5370357822
31
0.0000000000
11
-6.0346979283
21
-20.4676413470
31
0.0000000000
11
-6.0345546286
21
-20.4012001045
31
0.0000000000
11
-6.0343575505
21
-20.3387533356
31
0.0000000000
11
-6.0341117966
21
-20.2819028101
31
0.0000000000
11
-6.0338207442
21
-20.2314361823
31
0.0000000000
11
-6.0334921551
21
-20.1886994059
31
0.0000000000
11
-6.0331305820
21
-20.1542800534
31
0.0000000000
11
-6.0327452985
21
-20.1290692805
31
0.0000000000
11
-6.0323423445
21
-20.1134525345
31
0.0000000000
11
-6.0319309991
21
-20.1078043182
31
0.0000000000
0
SPLINE
5
456
100
AcDbEntity
8
0
100
AcDbSpline
62
7
6
CONTINUOUS
70
0
71
3
72
18
73
14
74
12
42
0.0000001000
43
0.0000001000
44
0.0000000001
12
0.2773524497
22
-0.4160345418
32
0.0000000000
13
0.0000000000
23
-0.5000091213
33
0.0000000000
40
0.0000000000
40
0.0000000000
40
0.0000000000
40
0.0000000000
40
0.0113261436
40
0.0425694612
40
0.0929959749
40
0.1618372222
40
0.2473117421
40
0.3482448350
40
0.4619448742
40
0.5868367556
40
0.7197171256
40
0.8585035741
40
1.0000000000
40
1.0000000000
40
1.0000000000
40
1.0000000000
10
7.0786585368
20
-20.1078043182
30
0.0000000000
10
7.0797056481
20
-20.1093750072
30
0.0000000000
10
7.0781872031
20
-20.1171703723
30
0.0000000000
10
7.0801853226
20
-20.1320216701
30
0.0000000000
10
7.0796374725
20
-20.1574574976
30
0.0000000000
10
7.0803674459
20
-20.1914299572
30
0.0000000000
10
7.0805423444
20
-20.2340269996
30
0.0000000000
10
7.0808745524
20
-20.2840258657
30
0.0000000000
10
7.0810995646
20
-20.3406200935
30
0.0000000000
10
7.0812973525
20
-20.4025310735
30
0.0000000000
10
7.0814368496
20
-20.4686258203
30
0.0000000000
10
7.0815230314
20
-20.5374874072
30
0.0000000000
10
7.0815420670
20
-20.5842021119
30
0.0000000000
10
7.0815420670
20
-20.6077852797
30
0.0000000000
11
7.0786585368
21
-20.1078043182
31
0.0000000000
11
7.0790698823
21
-20.1134525345
31
0.0000000000
11
7.0794728363
21
-20.1290692805
31
0.0000000000
11
7.0798581197
21
-20.1542800534
31
0.0000000000
11
7.0802196928
21
-20.1886994059
31
0.0000000000
11
7.0805482820
21
-20.2314361823
31
0.0000000000
11
7.0808393343
21
-20.2819028101
31
0.0000000000
11
7.0810850883
21
-20.3387533356
31
0.0000000000
11
7.0812821664
21
-20.4012001045
31
0.0000000000
11
7.0814254660
21
-20.4676413470
31
0.0000000000
11
7.0815127987
21
-20.5370357822
31
0.0000000000
11
7.0815420670
21
-20.6077852797
31
0.0000000000
0
SPLINE
5
457
100
AcDbEntity
8
0
100
AcDbSpline
62
7
6
CONTINUOUS
70
0
71
3
72
29
73
25
74
23
42
0.0000001000
43
0.0000001000
44
0.0000000001
12
0.0000000000
22
-1.3915531874
32
0.0000000000
13
0.0000000000
23
1.3915531874
33
0.0000000000
40
0.0000000000
40
0.0000000000
40
0.0000000000
40
0.0000000000
40
0.0460864919
40
0.0921974370
40
0.1381475988
40
0.1840370526
40
0.2296253540
40
0.2751518994
40
0.3203344751
40
0.3654890455
40
0.4103615618
40
0.4552346560
40
0.4999970050
40
0.5447604167
40
0.5896336457
40
0.6345061249
40
0.6796622821
40
0.7248432020
40
0.7703726778
40
0.8159584641
40
0.8618513462
40
0.9077989078
40
0.9539123982
40
1.0000000000
40
1.0000000000
40
1.0000000000
40
1.0000000000
10
7.8635067946
20
17.1225032681
30
0.0000000000
10
7.8635067946
20
17.1011259998
30
0.0000000000
10
7.8604694108
20
17.0582982607
30
0.0000000000
10
7.8468965482
20
16.9954618184
30
0.0000000000
10
7.8245975551
20
16.9352520071
30
0.0000000000
10
7.7941039123
20
16.8790270685
30
0.0000000000
10
7.7560568779
20
16.8278574397
30
0.0000000000
10
7.7113498928
20
16.7828501581
30
0.0000000000
10
7.6608499154
20
16.7447923953
30
0.0000000000
10
7.6057002488
20
16.7144757500
30
0.0000000000
10
7.5469192983
20
16.6924050465
30
0.0000000000
10
7.4857618599
20
16.6790100242
30
0.0000000000
10
7.4233674694
20
16.6745185223
30
0.0000000000
10
7.3609729246
20
16.6790089341
30
0.0000000000
10
7.2998147489
20
16.6924031188
30
0.0000000000
10
7.2410327267
20
16.7144731914
30
0.0000000000
10
7.1858826960
20
16.7447891154
30
0.0000000000
10
7.1353811830
20
16.7828470132
30
0.0000000000
10
7.0906740918
20
16.8278534309
30
0.0000000000
10
7.0526254946
20
16.8790240818
30
0.0000000000
10
7.0221317207
20
16.9352481078
30
0.0000000000
10
6.9998317561
20
16.9954591953
30
0.0000000000
10
6.9862583200
20
17.0582960473
30
0.0000000000
10
6.9832207432
20
17.1011254850
30
0.0000000000
10
6.9832207432
20
17.1225032681
30
0.0000000000
11
7.8635067946
21
17.1225032681
31
0.0000000000
11
7.8589657843
21
17.0585324340
31
0.0000000000
11
7.8454165781
21
16.9958134330
31
0.0000000000
11
7.8232027289
21
16.9358539777
31
0.0000000000
11
7.7927521315
21
16.8797241620
31
0.0000000000
11
7.7548923221
21
16.8288214708
31
0.0000000000
11
7.7102388734
21
16.7838812590
31
0.0000000000
11
7.6600217488
21
16.7460477436
31
0.0000000000
11
7.6049543648
21
16.7157852464
31
0.0000000000
11
7.5464946414
21
16.6938415529
31
0.0000000000
11
7.4854964633
21
16.6804853698
31
0.0000000000
11
7.4233679475
21
16.6760142796
31
0.0000000000
11
7.3612378783
21
16.6804843857
31
0.0000000000
11
7.3002393085
21
16.6938396576
31
0.0000000000
11
7.2417792958
21
16.7157824334
31
0.0000000000
11
7.1867095878
21
16.7460452862
31
0.0000000000
11
7.1364938158
21
16.7838767681
31
0.0000000000
11
7.0918370071
21
16.8288193898
31
0.0000000000
11
7.0539787730
21
16.8797188908
31
0.0000000000
11
7.0235254169
21
16.9358526373
31
0.0000000000
11
7.0013123877
21
16.9958085378
31
0.0000000000
11
6.9877619722
21
17.0585309012
31
0.0000000000
11
6.9832207432
21
17.1225032681
31
0.0000000000
0
SPLINE
5
458
100
AcDbEntity
8
0
100
AcDbSpline
62
7
6
CONTINUOUS
70
0
71
3
72
27
73
23
74
21
42
0.0000001000
43
0.0000001000
44
0.0000000001
12
0.0000000000
22
-1.0805082960
32
0.0000000000
13
-0.0000000000
23
1.0805082960
33
0.0000000000
40
0.0000000000
40
0.0000000000
40
0.0000000000
40
0.0000000000
40
0.0507710745
40
0.1014558907
40
0.1519847477
40
0.2022946362
40
0.2524260466
40
0.3022499772
40
0.3519442833
40
0.4013676145
40
0.4507394599
40
0.5000000000
40
0.5492605401
40
0.5986323855
40
0.6480557167
40
0.6977500228
40
0.7475739534
40
0.7977053638
40
0.8480152523
40
0.8985441093
40
0.9492289255
40
1.0000000000
40
1.0000000000
40
1.0000000000
40
1.0000000000
10
7.0815420670
20
20.0026903257
30
0.0000000000
10
7.0815420670
20
19.9844041366
30
0.0000000000
10
7.0844026381
20
19.9477985973
30
0.0000000000
10
7.0971559733
20
19.8943462851
30
0.0000000000
10
7.1180093636
20
19.8436695213
30
0.0000000000
10
7.1463974959
20
19.7970337326
30
0.0000000000
10
7.1815531122
20
19.7555928724
30
0.0000000000
10
7.2225876298
20
19.7203046090
30
0.0000000000
10
7.2684296066
20
19.6920171725
30
0.0000000000
10
7.3179939050
20
19.6713430040
30
0.0000000000
10
7.3700420367
20
19.6587581445
30
0.0000000000
10
7.4233637689
20
19.6545328980
30
0.0000000000
10
7.4766855011
20
19.6587581445
30
0.0000000000
10
7.5287336327
20
19.6713430040
30
0.0000000000
10
7.5782979312
20
19.6920171725
30
0.0000000000
10
7.6241399080
20
19.7203046090
30
0.0000000000
10
7.6651744256
20
19.7555928724
30
0.0000000000
10
7.7003300419
20
19.7970337326
30
0.0000000000
10
7.7287181742
20
19.8436695213
30
0.0000000000
10
7.7495715645
20
19.8943462851
30
0.0000000000
10
7.7623248996
20
19.9477985973
30
0.0000000000
10
7.7651854708
20
19.9844041366
30
0.0000000000
10
7.7651854708
20
20.0026903257
30
0.0000000000
11
7.0815420670
21
20.0026903257
31
0.0000000000
11
7.0858206716
21
19.9479988644
31
0.0000000000
11
7.0985323692
21
19.8947291931
31
0.0000000000
11
7.1193159281
21
19.8442429612
31
0.0000000000
11
7.1475882003
21
19.7978132765
31
0.0000000000
11
7.1826369672
21
19.7565132562
31
0.0000000000
11
7.2234608334
21
19.7214185626
31
0.0000000000
11
7.2691609249
21
19.6932287332
31
0.0000000000
11
7.3184500565
21
19.6726766233
31
0.0000000000
11
7.3703035548
21
19.6601433118
31
0.0000000000
11
7.4233637689
21
19.6559402535
31
0.0000000000
11
7.4764239830
21
19.6601433118
31
0.0000000000
11
7.5282774813
21
19.6726766233
31
0.0000000000
11
7.5775666128
21
19.6932287332
31
0.0000000000
11
7.6232667043
21
19.7214185626
31
0.0000000000
11
7.6640905705
21
19.7565132562
31
0.0000000000
11
7.6991393374
21
19.7978132765
31
0.0000000000
11
7.7274116097
21
19.8442429612
31
0.0000000000
11
7.7481951686
21
19.8947291931
31
0.0000000000
11
7.7609068661
21
19.9479988644
31
0.0000000000
11
7.7651854708
21
20.0026903257
31
0.0000000000
0
SPLINE
5
459
100
AcDbEntity
8
0
100
AcDbSpline
62
7
6
CONTINUOUS
70
0
71
3
72
27
73
23
74
21
42
0.0000001000
43
0.0000001000
44
0.0000000001
12
0.0000000000
22
1.0805082960
32
0.0000000000
13
-0.0000000000
23
-1.0805082960
33
0.0000000000
40
0.0000000000
40
0.0000000000
40
0.0000000000
40
0.0000000000
40
0.0507710745
40
0.1014558907
40
0.1519847477
40
0.2022946362
40
0.2524260466
40
0.3022499772
40
0.3519442833
40
0.4013676145
40
0.4507394599
40
0.5000000000
40
0.5492605401
40
0.5986323855
40
0.6480557167
40
0.6977500228
40
0.7475739534
40
0.7977053638
40
0.8480152523
40
0.8985441093
40
0.9492289255
40
1.0000000000
40
1.0000000000
40
1.0000000000
40
1.0000000000
10
-6.0348145292
20
-20.0524123188
30
0.0000000000
10
-6.0348145292
20
-20.0341261297
30
0.0000000000
10
-6.0376751004
20
-19.9975205903
30
0.0000000000
10
-6.0504284355
20
-19.9440682782
30
0.0000000000
10
-6.0712818258
20
-19.8933915144
30
0.0000000000
10
-6.0996699581
20
-19.8467557257
30
0.0000000000
10
-6.1348255744
20
-19.8053148655
30
0.0000000000
10
-6.1758600920
20
-19.7700266020
30
0.0000000000
10
-6.2217020688
20
-19.7417391655
30
0.0000000000
10
-6.2712663673
20
-19.7210649970
30
0.0000000000
10
-6.3233144989
20
-19.7084801376
30
0.0000000000
10
-6.3766362311
20
-19.7042548911
30
0.0000000000
10
-6.4299579633
20
-19.7084801376
30
0.0000000000
10
-6.4820060950
20
-19.7210649970
30
0.0000000000
10
-6.5315703934
20
-19.7417391655
30
0.0000000000
10
-6.5774123702
20
-19.7700266020
30
0.0000000000
10
-6.6184468878
20
-19.8053148655
30
0.0000000000
10
-6.6536025041
20
-19.8467557257
30
0.0000000000
10
-6.6819906364
20
-19.8933915144
30
0.0000000000
10
-6.7028440267
20
-19.9440682782
30
0.0000000000
10
-6.7155973619
20
-19.9975205903
30
0.0000000000
10
-6.7184579330
20
-20.0341261297
30
0.0000000000
10
-6.7184579330
20
-20.0524123188
30
0.0000000000
11
-6.0348145292
21
-20.0524123188
31
0.0000000000
11
-6.0390931339
21
-19.9977208575
31
0.0000000000
11
-6.0518048314
21
-19.9444511862
31
0.0000000000
11
-6.0725883903
21
-19.8939649542
31
0.0000000000
11
-6.1008606626
21
-19.8475352696
31
0.0000000000
11
-6.1359094295
21
-19.8062352493
31
0.0000000000
11
-6.1767332957
21
-19.7711405556
31
0.0000000000
11
-6.2224333872
21
-19.7429507263
31
0.0000000000
11
-6.2717225187
21
-19.7223986163
31
0.0000000000
11
-6.3235760170
21
-19.7098653049
31
0.0000000000
11
-6.3766362311
21
-19.7056622466
31
0.0000000000
11
-6.4296964452
21
-19.7098653049
31
0.0000000000
11
-6.4815499435
21
-19.7223986163
31
0.0000000000
11
-6.5308390751
21
-19.7429507263
31
0.0000000000
11
-6.5765391666
21
-19.7711405556
31
0.0000000000
11
-6.6173630328
21
-19.8062352493
31
0.0000000000
11
-6.6524117997
21
-19.8475352696
31
0.0000000000
11
-6.6806840719
21
-19.8939649542
31
0.0000000000
11
-6.7014676308
21
-19.9444511862
31
0.0000000000
11
-6.7141793284
21
-19.9977208575
31
0.0000000000
11
-6.7184579330
21
-20.0524123188
31
0.0000000000
0
SPLINE
5
45A
100
AcDbEntity
8
0
100
AcDbSpline
62
7
6
CONTINUOUS
70
0
71
3
72
29
73
25
74
23
42
0.0000001000
43
0.0000001000
44
0.0000000001
12
0.0000000000
22
1.4283404133
32
0.0000000000
13
0.0000000000
23
-1.4283404133
33
0.0000000000
40
0.0000000000
40
0.0000000000
40
0.0000000000
40
0.0000000000
40
0.0461614366
40
0.0922605403
40
0.1382361858
40
0.1840449824
40
0.2297019764
40
0.2751112250
40
0.3203948812
40
0.3654313474
40
0.4103994780
40
0.4552072678
40
0.5000000000
40
0.5447927322
40
0.5896005220
40
0.6345686526
40
0.6796051188
40
0.7248887750
40
0.7702980236
40
0.8159550176
40
0.8617638142
40
0.9077394597
40
0.9538385634
40
1.0000000000
40
1.0000000000
40
1.0000000000
40
1.0000000000
10
-6.8284149164
20
-16.8313747217
30
0.0000000000
10
-6.8284149164
20
-16.8093966399
30
0.0000000000
10
-6.8252899682
20
-16.7654063230
30
0.0000000000
10
-6.8113356740
20
-16.7008706224
30
0.0000000000
10
-6.7884436215
20
-16.6391040785
30
0.0000000000
10
-6.7571326248
20
-16.5813927353
30
0.0000000000
10
-6.7181090477
20
-16.5289242526
30
0.0000000000
10
-6.6722010205
20
-16.4827131129
30
0.0000000000
10
-6.6204148798
20
-16.4436885778
30
0.0000000000
10
-6.5637756549
20
-16.4125534631
30
0.0000000000
10
-6.5034795006
20
-16.3899116076
30
0.0000000000
10
-6.4406776329
20
-16.3761575848
30
0.0000000000
10
-6.3766362311
20
-16.3715449328
30
0.0000000000
10
-6.3125948294
20
-16.3761575848
30
0.0000000000
10
-6.2497929616
20
-16.3899116076
30
0.0000000000
10
-6.1894968073
20
-16.4125534631
30
0.0000000000
10
-6.1328575824
20
-16.4436885778
30
0.0000000000
10
-6.0810714418
20
-16.4827131129
30
0.0000000000
10
-6.0351634145
20
-16.5289242526
30
0.0000000000
10
-5.9961398374
20
-16.5813927353
30
0.0000000000
10
-5.9648288407
20
-16.6391040785
30
0.0000000000
10
-5.9419367882
20
-16.7008706224
30
0.0000000000
10
-5.9279824940
20
-16.7654063230
30
0.0000000000
10
-5.9248575458
20
-16.8093966399
30
0.0000000000
10
-5.9248575458
20
-16.8313747217
30
0.0000000000
11
-6.8284149164
21
-16.8313747217
31
0.0000000000
11
-6.8237386857
21
-16.7656065107
31
0.0000000000
11
-6.8098211529
21
-16.7012489600
31
0.0000000000
11
-6.7869929478
21
-16.6396756389
31
0.0000000000
11
-6.7557836643
21
-16.5821679158
31
0.0000000000
11
-6.7168575089
21
-16.5298459801
31
0.0000000000
11
-6.6711390925
21
-16.4838391493
31
0.0000000000
11
-6.6194778880
21
-16.4449202085
31
0.0000000000
11
-6.5631024485
21
-16.4139391687
31
0.0000000000
11
-6.5029701315
21
-16.3913654799
31
0.0000000000
11
-6.4404502874
21
-16.3776772161
31
0.0000000000
11
-6.3766362311
21
-16.3730823112
31
0.0000000000
11
-6.3128221748
21
-16.3776772161
31
0.0000000000
11
-6.2503023307
21
-16.3913654799
31
0.0000000000
11
-6.1901700137
21
-16.4139391687
31
0.0000000000
11
-6.1337945742
21
-16.4449202085
31
0.0000000000
11
-6.0821333698
21
-16.4838391493
31
0.0000000000
11
-6.0364149533
21
-16.5298459801
31
0.0000000000
11
-5.9974887979
21
-16.5821679158
31
0.0000000000
11
-5.9662795144
21
-16.6396756389
31
0.0000000000
11
-5.9434513093
21
-16.7012489600
31
0.0000000000
11
-5.9295337765
21
-16.7656065107
31
0.0000000000
11
-5.9248575458
21
-16.8313747217
31
0.0000000000
0
SPLINE
5
45B
100
AcDbEntity
8
0
100
AcDbSpline
62
7
6
CONTINUOUS
70
0
71
3
72
27
73
23
74
21
42
0.0000001000
43
0.0000001000
44
0.0000000001
12
0.0000000000
22
1.0805082960
32
0.0000000000
13
-0.0000000000
23
-1.0805082960
33
0.0000000000
40
0.0000000000
40
0.0000000000
40
0.0000000000
40
0.0000000000
40
0.0507710745
40
0.1014558907
40
0.1519847477
40
0.2022946362
40
0.2524260466
40
0.3022499772
40
0.3519442833
40
0.4013676145
40
0.4507394599
40
0.5000000000
40
0.5492605401
40
0.5986323855
40
0.6480557167
40
0.6977500228
40
0.7475739534
40
0.7977053638
40
0.8480152523
40
0.8985441093
40
0.9492289255
40
1.0000000000
40
1.0000000000
40
1.0000000000
40
1.0000000000
10
7.7651854708
20
-20.0524123188
30
0.0000000000
10
7.7651854708
20
-20.0341261297
30
0.0000000000
10
7.7623248996
20
-19.9975205903
30
0.0000000000
10
7.7495715645
20
-19.9440682782
30
0.0000000000
10
7.7287181742
20
-19.8933915144
30
0.0000000000
10
7.7003300419
20
-19.8467557257
30
0.0000000000
10
7.6651744256
20
-19.8053148655
30
0.0000000000
10
7.6241399080
20
-19.7700266020
30
0.0000000000
10
7.5782979312
20
-19.7417391655
30
0.0000000000
10
7.5287336327
20
-19.7210649970
30
0.0000000000
10
7.4766855011
20
-19.7084801376
30
0.0000000000
10
7.4233637689
20
-19.7042548911
30
0.0000000000
10
7.3700420367
20
-19.7084801376
30
0.0000000000
10
7.3179939050
20
-19.7210649970
30
0.0000000000
10
7.2684296066
20
-19.7417391655
30
0.0000000000
10
7.2225876298
20
-19.7700266020
30
0.0000000000
10
7.1815531122
20
-19.8053148655
30
0.0000000000
10
7.1463974959
20
-19.8467557257
30
0.0000000000
10
7.1180093636
20
-19.8933915144
30
0.0000000000
10
7.0971559733
20
-19.9440682782
30
0.0000000000
10
7.0844026381
20
-19.9975205903
30
0.0000000000
10
7.0815420670
20
-20.0341261297
30
0.0000000000
10
7.0815420670
20
-20.0524123188
30
0.0000000000
11
7.7651854708
21
-20.0524123188
31
0.0000000000
11
7.7609068661
21
-19.9977208575
31
0.0000000000
11
7.7481951686
21
-19.9444511862
31
0.0000000000
11
7.7274116097
21
-19.8939649542
31
0.0000000000
11
7.6991393374
21
-19.8475352696
31
0.0000000000
11
7.6640905705
21
-19.8062352493
31
0.0000000000
11
7.6232667043
21
-19.7711405556
31
0.0000000000
11
7.5775666128
21
-19.7429507263
31
0.0000000000
11
7.5282774813
21
-19.7223986163
31
0.0000000000
11
7.4764239830
21
-19.7098653049
31
0.0000000000
11
7.4233637689
21
-19.7056622466
31
0.0000000000
11
7.3703035548
21
-19.7098653049
31
0.0000000000
11
7.3184500565
21
-19.7223986163
31
0.0000000000
11
7.2691609249
21
-19.7429507263
31
0.0000000000
11
7.2234608334
21
-19.7711405556
31
0.0000000000
11
7.1826369672
21
-19.8062352493
31
0.0000000000
11
7.1475882003
21
-19.8475352696
31
0.0000000000
11
7.1193159281
21
-19.8939649542
31
0.0000000000
11
7.0985323692
21
-19.9444511862
31
0.0000000000
11
7.0858206716
21
-19.9977208575
31
0.0000000000
11
7.0815420670
21
-20.0524123188
31
0.0000000000
0
SPLINE
5
45C
100
AcDbEntity
8
0
100
AcDbSpline
62
7
6
CONTINUOUS
70
0
71
3
72
29
73
25
74
23
42
0.0000001000
43
0.0000001000
44
0.0000000001
12
0.0000000000
22
1.4283404133
32
0.0000000000
13
0.0000000000
23
-1.4283404133
33
0.0000000000
40
0.0000000000
40
0.0000000000
40
0.0000000000
40
0.0000000000
40
0.0461614366
40
0.0922605403
40
0.1382361858
40
0.1840449824
40
0.2297019764
40
0.2751112250
40
0.3203948812
40
0.3654313474
40
0.4103994780
40
0.4552072678
40
0.5000000000
40
0.5447927322
40
0.5896005220
40
0.6345686526
40
0.6796051188
40
0.7248887750
40
0.7702980236
40
0.8159550176
40
0.8617638142
40
0.9077394597
40
0.9538385634
40
1.0000000000
40
1.0000000000
40
1.0000000000
40
1.0000000000
10
6.9715850836
20
-16.8313747217
30
0.0000000000
10
6.9715850836
20
-16.8093966399
30
0.0000000000
10
6.9747100318
20
-16.7654063230
30
0.0000000000
10
6.9886643260
20
-16.7008706224
30
0.0000000000
10
7.0115563785
20
-16.6391040785
30
0.0000000000
10
7.0428673752
20
-16.5813927353
30
0.0000000000
10
7.0818909523
20
-16.5289242526
30
0.0000000000
10
7.1277989795
20
-16.4827131129
30
0.0000000000
10
7.1795851202
20
-16.4436885778
30
0.0000000000
10
7.2362243451
20
-16.4125534631
30
0.0000000000
10
7.2965204994
20
-16.3899116076
30
0.0000000000
10
7.3593223671
20
-16.3761575848
30
0.0000000000
10
7.4233637689
20
-16.3715449328
30
0.0000000000
10
7.4874051706
20
-16.3761575848
30
0.0000000000
10
7.5502070384
20
-16.3899116076
30
0.0000000000
10
7.6105031927
20
-16.4125534631
30
0.0000000000
10
7.6671424176
20
-16.4436885778
30
0.0000000000
10
7.7189285582
20
-16.4827131129
30
0.0000000000
10
7.7648365855
20
-16.5289242526
30
0.0000000000
10
7.8038601626
20
-16.5813927353
30
0.0000000000
10
7.8351711593
20
-16.6391040785
30
0.0000000000
10
7.8580632118
20
-16.7008706224
30
0.0000000000
10
7.8720175060
20
-16.7654063230
30
0.0000000000
10
7.8751424542
20
-16.8093966399
30
0.0000000000
10
7.8751424542
20
-16.8313747217
30
0.0000000000
11
6.9715850836
21
-16.8313747217
31
0.0000000000
11
6.9762613143
21
-16.7656065107
31
0.0000000000
11
6.9901788471
21
-16.7012489600
31
0.0000000000
11
7.0130070522
21
-16.6396756389
31
0.0000000000
11
7.0442163357
21
-16.5821679158
31
0.0000000000
11
7.0831424911
21
-16.5298459801
31
0.0000000000
11
7.1288609075
21
-16.4838391493
31
0.0000000000
11
7.1805221120
21
-16.4449202085
31
0.0000000000
11
7.2368975515
21
-16.4139391687
31
0.0000000000
11
7.2970298685
21
-16.3913654799
31
0.0000000000
11
7.3595497126
21
-16.3776772161
31
0.0000000000
11
7.4233637689
21
-16.3730823112
31
0.0000000000
11
7.4871778252
21
-16.3776772161
31
0.0000000000
11
7.5496976693
21
-16.3913654799
31
0.0000000000
11
7.6098299863
21
-16.4139391687
31
0.0000000000
11
7.6662054258
21
-16.4449202085
31
0.0000000000
11
7.7178666302
21
-16.4838391493
31
0.0000000000
11
7.7635850467
21
-16.5298459801
31
0.0000000000
11
7.8025112021
21
-16.5821679158
31
0.0000000000
11
7.8337204856
21
-16.6396756389
31
0.0000000000
11
7.8565486907
21
-16.7012489600
31
0.0000000000
11
7.8704662235
21
-16.7656065107
31
0.0000000000
11
7.8751424542
21
-16.8313747217
31
0.0000000000
0
SPLINE
5
45D
100
AcDbEntity
8
0
100
AcDbSpline
62
7
6
CONTINUOUS
70
0
71
3
72
29
73
25
74
23
42
0.0000001000
43
0.0000001000
44
0.0000000001
12
0.0000000000
22
-1.3915531874
32
0.0000000000
13
0.0000000000
23
1.3915531874
33
0.0000000000
40
0.0000000000
40
0.0000000000
40
0.0000000000
40
0.0000000000
40
0.0460864919
40
0.0921974370
40
0.1381475988
40
0.1840370526
40
0.2296253540
40
0.2751518994
40
0.3203344751
40
0.3654890455
40
0.4103615618
40
0.4552346560
40
0.4999970050
40
0.5447604167
40
0.5896336457
40
0.6345061249
40
0.6796622821
40
0.7248432020
40
0.7703726778
40
0.8159584641
40
0.8618513462
40
0.9077989078
40
0.9539123982
40
1.0000000000
40
1.0000000000
40
1.0000000000
40
1.0000000000
10
-5.9364932054
20
17.1225032681
30
0.0000000000
10
-5.9364932054
20
17.1011259998
30
0.0000000000
10
-5.9395305892
20
17.0582982607
30
0.0000000000
10
-5.9531034518
20
16.9954618184
30
0.0000000000
10
-5.9754024449
20
16.9352520071
30
0.0000000000
10
-6.0058960877
20
16.8790270685
30
0.0000000000
10
-6.0439431221
20
16.8278574397
30
0.0000000000
10
-6.0886501072
20
16.7828501581
30
0.0000000000
10
-6.1391500846
20
16.7447923953
30
0.0000000000
10
-6.1942997512
20
16.7144757500
30
0.0000000000
10
-6.2530807017
20
16.6924050465
30
0.0000000000
10
-6.3142381401
20
16.6790100242
30
0.0000000000
10
-6.3766325306
20
16.6745185223
30
0.0000000000
10
-6.4390270754
20
16.6790089341
30
0.0000000000
10
-6.5001852511
20
16.6924031188
30
0.0000000000
10
-6.5589672733
20
16.7144731914
30
0.0000000000
10
-6.6141173040
20
16.7447891154
30
0.0000000000
10
-6.6646188170
20
16.7828470132
30
0.0000000000
10
-6.7093259082
20
16.8278534309
30
0.0000000000
10
-6.7473745054
20
16.8790240818
30
0.0000000000
10
-6.7778682793
20
16.9352481078
30
0.0000000000
10
-6.8001682439
20
16.9954591953
30
0.0000000000
10
-6.8137416800
20
17.0582960473
30
0.0000000000
10
-6.8167792568
20
17.1011254850
30
0.0000000000
10
-6.8167792568
20
17.1225032681
30
0.0000000000
11
-5.9364932054
21
17.1225032681
31
0.0000000000
11
-5.9410342157
21
17.0585324340
31
0.0000000000
11
-5.9545834219
21
16.9958134330
31
0.0000000000
11
-5.9767972711
21
16.9358539777
31
0.0000000000
11
-6.0072478685
21
16.8797241620
31
0.0000000000
11
-6.0451076779
21
16.8288214708
31
0.0000000000
11
-6.0897611266
21
16.7838812590
31
0.0000000000
11
-6.1399782512
21
16.7460477436
31
0.0000000000
11
-6.1950456352
21
16.7157852464
31
0.0000000000
11
-6.2535053586
21
16.6938415529
31
0.0000000000
11
-6.3145035367
21
16.6804853698
31
0.0000000000
11
-6.3766320525
21
16.6760142796
31
0.0000000000
11
-6.4387621217
21
16.6804843857
31
0.0000000000
11
-6.4997606915
21
16.6938396576
31
0.0000000000
11
-6.5582207042
21
16.7157824334
31
0.0000000000
11
-6.6132904122
21
16.7460452862
31
0.0000000000
11
-6.6635061842
21
16.7838767681
31
0.0000000000
11
-6.7081629929
21
16.8288193898
31
0.0000000000
11
-6.7460212270
21
16.8797188908
31
0.0000000000
11
-6.7764745831
21
16.9358526373
31
0.0000000000
11
-6.7986876123
21
16.9958085378
31
0.0000000000
11
-6.8122380278
21
17.0585309012
31
0.0000000000
11
-6.8167792568
21
17.1225032681
31
0.0000000000
0
SPLINE
5
45E
100
AcDbEntity
8
0
100
AcDbSpline
62
7
6
CONTINUOUS
70
0
71
3
72
27
73
23
74
21
42
0.0000001000
43
0.0000001000
44
0.0000000001
12
0.0000000000
22
-1.0805082960
32
0.0000000000
13
-0.0000000000
23
1.0805082960
33
0.0000000000
40
0.0000000000
40
0.0000000000
40
0.0000000000
40
0.0000000000
40
0.0507710745
40
0.1014558907
40
0.1519847477
40
0.2022946362
40
0.2524260466
40
0.3022499772
40
0.3519442833
40
0.4013676145
40
0.4507394599
40
0.5000000000
40
0.5492605401
40
0.5986323855
40
0.6480557167
40
0.6977500228
40
0.7475739534
40
0.7977053638
40
0.8480152523
40
0.8985441093
40
0.9492289255
40
1.0000000000
40
1.0000000000
40
1.0000000000
40
1.0000000000
10
-6.7184579330
20
20.0026903257
30
0.0000000000
10
-6.7184579330
20
19.9844041366
30
0.0000000000
10
-6.7155973619
20
19.9477985973
30
0.0000000000
10
-6.7028440267
20
19.8943462851
30
0.0000000000
10
-6.6819906364
20
19.8436695213
30
0.0000000000
10
-6.6536025041
20
19.7970337326
30
0.0000000000
10
-6.6184468878
20
19.7555928724
30
0.0000000000
10
-6.5774123702
20
19.7203046090
30
0.0000000000
10
-6.5315703934
20
19.6920171725
30
0.0000000000
10
-6.4820060950
20
19.6713430040
30
0.0000000000
10
-6.4299579633
20
19.6587581445
30
0.0000000000
10
-6.3766362311
20
19.6545328980
30
0.0000000000
10
-6.3233144989
20
19.6587581445
30
0.0000000000
10
-6.2712663673
20
19.6713430040
30
0.0000000000
10
-6.2217020688
20
19.6920171725
30
0.0000000000
10
-6.1758600920
20
19.7203046090
30
0.0000000000
10
-6.1348255744
20
19.7555928724
30
0.0000000000
10
-6.0996699581
20
19.7970337326
30
0.0000000000
10
-6.0712818258
20
19.8436695213
30
0.0000000000
10
-6.0504284355
20
19.8943462851
30
0.0000000000
10
-6.0376751004
20
19.9477985973
30
0.0000000000
10
-6.0348145292
20
19.9844041366
30
0.0000000000
10
-6.0348145292
20
20.0026903257
30
0.0000000000
11
-6.7184579330
21
20.0026903257
31
0.0000000000
11
-6.7141793284
21
19.9479988644
31
0.0000000000
11
-6.7014676308
21
19.8947291931
31
0.0000000000
11
-6.6806840719
21
19.8442429612
31
0.0000000000
11
-6.6524117997
21
19.7978132765
31
0.0000000000
11
-6.6173630328
21
19.7565132562
31
0.0000000000
11
-6.5765391666
21
19.7214185626
31
0.0000000000
11
-6.5308390751
21
19.6932287332
31
0.0000000000
11
-6.4815499435
21
19.6726766233
31
0.0000000000
11
-6.4296964452
21
19.6601433118
31
0.0000000000
11
-6.3766362311
21
19.6559402535
31
0.0000000000
11
-6.3235760170
21
19.6601433118
31
0.0000000000
11
-6.2717225187
21
19.6726766233
31
0.0000000000
11
-6.2224333872
21
19.6932287332
31
0.0000000000
11
-6.1767332957
21
19.7214185626
31
0.0000000000
11
-6.1359094295
21
19.7565132562
31
0.0000000000
11
-6.1008606626
21
19.7978132765
31
0.0000000000
11
-6.0725883903
21
19.8442429612
31
0.0000000000
11
-6.0518048314
21
19.8947291931
31
0.0000000000
11
-6.0390931339
21
19.9479988644
31
0.0000000000
11
-6.0348145292
21
20.0026903257
31
0.0000000000
0
SPLINE
5
45F
100
AcDbEntity
8
0
100
AcDbSpline
62
7
6
CONTINUOUS
70
0
71
3
72
19
73
15
74
13
42
0.0000001000
43
0.0000001000
44
0.0000000001
12
0.0000000000
22
0.7848103230
32
0.0000000000
13
-0.7848103230
23
0.0000000000
33
0.0000000000
40
0.0000000000
40
0.0000000000
40
0.0000000000
40
0.0000000000
40
0.0828470979
40
0.1665193248
40
0.2501669630
40
0.3331337658
40
0.4161823866
40
0.5000173671
40
0.5838579914
40
0.6669154987
40
0.7498742162
40
0.8334993514
40
0.9171584428
40
1.0000000000
40
1.0000000000
40
1.0000000000
40
1.0000000000
10
7.9334770306
20
13.2852713037
30
0.0000000000
10
7.9334770306
20
13.3069443896
30
0.0000000000
10
7.9306368356
20
13.3505592595
30
0.0000000000
10
7.9178652112
20
13.4149290896
30
0.0000000000
10
7.8967577182
20
13.4771113051
30
0.0000000000
10
7.8677909523
20
13.5358547640
30
0.0000000000
10
7.8314047085
20
13.5903753421
30
0.0000000000
10
7.7880510285
20
13.6398477237
30
0.0000000000
10
7.7385743127
20
13.6832000362
30
0.0000000000
10
7.6840497246
20
13.7195833985
30
0.0000000000
10
7.6253093429
20
13.7485434490
30
0.0000000000
10
7.5631371006
20
13.7696442928
30
0.0000000000
10
7.4987776785
20
13.7824125795
30
0.0000000000
10
7.4551677055
20
13.7852522652
30
0.0000000000
10
7.4334960691
20
13.7852522652
30
0.0000000000
11
7.9334770306
21
13.2852713037
31
0.0000000000
11
7.9292496460
21
13.3501529890
31
0.0000000000
11
7.9164714091
21
13.4145645476
31
0.0000000000
11
7.8953694814
21
13.4767280967
31
0.0000000000
11
7.8665727815
21
13.5351274060
31
0.0000000000
11
7.8303917126
21
13.5893401873
31
0.0000000000
11
7.7870286484
21
13.6388232000
31
0.0000000000
11
7.7375397425
21
13.6821862597
31
0.0000000000
11
7.6833186089
21
13.7183673771
31
0.0000000000
11
7.6249229426
21
13.7471571167
31
0.0000000000
11
7.5627751238
21
13.7682504418
31
0.0000000000
11
7.4983734336
21
13.7810254460
31
0.0000000000
11
7.4334960691
21
13.7852522652
31
0.0000000000
0
SPLINE
5
460
100
AcDbEntity
8
0
100
AcDbSpline
62
9
6
CONTINUOUS
70
0
71
3
72
20
73
16
74
14
42
0.0000001000
43
0.0000001000
44
0.0000000001
12
0.9417737580
22
0.0000133107
32
0.0000000000
13
0.0000094993
23
0.9417737581
33
0.0000000000
40
0.0000000000
40
0.0000000000
40
0.0000000000
40
0.0000000000
40
0.0758486843
40
0.1526583047
40
0.2299608345
40
0.3073690774
40
0.3845607189
40
0.4615292453
40
0.5384226716
40
0.6153836179
40
0.6925644639
40
0.7699659235
40
0.8472769796
40
0.9241105040
40
1.0000000000
40
1.0000000000
40
1.0000000000
40
1.0000000000
10
6.7357193957
20
12.8628747596
30
0.0000000000
10
6.7595301625
20
12.8628750961
30
0.0000000000
10
6.8075020646
20
12.8657334140
30
0.0000000000
10
6.8786976707
20
12.8786491718
30
0.0000000000
10
6.9482949163
20
12.9002115911
30
0.0000000000
10
7.0148723786
20
12.9301011321
30
0.0000000000
10
7.0772488625
20
12.9677803634
30
0.0000000000
10
7.1344883549
20
13.0126181964
30
0.0000000000
10
7.1858527057
20
13.0639786867
30
0.0000000000
10
7.2306916103
20
13.1212099477
30
0.0000000000
10
7.2683726955
20
13.1835760017
30
0.0000000000
10
7.2982683817
20
13.2501475419
30
0.0000000000
10
7.3198407472
20
13.3197502046
30
0.0000000000
10
7.3327665326
20
13.3909675011
30
0.0000000000
10
7.3356277725
20
13.4389597981
30
0.0000000000
10
7.3356280128
20
13.4627833767
30
0.0000000000
11
6.7357193957
21
12.8628747596
31
0.0000000000
11
6.8070250539
21
12.8671264242
31
0.0000000000
11
6.8782009397
21
12.8800367325
31
0.0000000000
11
6.9477410462
21
12.9015827559
31
0.0000000000
11
7.0142474814
21
12.9314400403
31
0.0000000000
11
7.0764728210
21
12.9690282032
31
0.0000000000
11
7.1335364737
21
13.0137282677
31
0.0000000000
11
7.1847443948
21
13.0649323343
31
0.0000000000
11
7.2294446996
21
13.1219867303
31
0.0000000000
11
7.2670335705
21
13.1841997639
31
0.0000000000
11
7.2968955476
21
13.2506970893
31
0.0000000000
11
7.3184514865
21
13.3202425296
31
0.0000000000
11
7.3313717489
21
13.3914394891
31
0.0000000000
11
7.3356280128
21
13.4627833767
31
0.0000000000
0
SPLINE
5
461
100
AcDbEntity
8
0
100
AcDbSpline
62
9
6
CONTINUOUS
70
0
71
3
72
20
73
16
74
14
42
0.0000001000
43
0.0000001000
44
0.0000000001
12
0.0000133107
22
-0.9417737580
32
0.0000000000
13
0.9417737581
23
-0.0000094993
33
0.0000000000
40
0.0000000000
40
0.0000000000
40
0.0000000000
40
0.0000000000
40
0.0758486843
40
0.1526583047
40
0.2299608345
40
0.3073690774
40
0.3845607189
40
0.4615292453
40
0.5384226716
40
0.6153836179
40
0.6925644639
40
0.7699659235
40
0.8472769796
40
0.9241105040
40
1.0000000000
40
1.0000000000
40
1.0000000000
40
1.0000000000
10
-6.2889004750
20
13.4627833767
30
0.0000000000
10
-6.2889001384
20
13.4389726099
30
0.0000000000
10
-6.2860418205
20
13.3910007078
30
0.0000000000
10
-6.2731260628
20
13.3198051016
30
0.0000000000
10
-6.2515636435
20
13.2502078561
30
0.0000000000
10
-6.2216741025
20
13.1836303938
30
0.0000000000
10
-6.1839948712
20
13.1212539099
30
0.0000000000
10
-6.1391570381
20
13.0640144175
30
0.0000000000
10
-6.0877965479
20
13.0126500666
30
0.0000000000
10
-6.0305652869
20
12.9678111620
30
0.0000000000
10
-5.9681992329
20
12.9301300769
30
0.0000000000
10
-5.9016276927
20
12.9002343907
30
0.0000000000
10
-5.8320250300
20
12.8786620252
30
0.0000000000
10
-5.7608077335
20
12.8657362397
30
0.0000000000
10
-5.7128154365
20
12.8628749999
30
0.0000000000
10
-5.6889918579
20
12.8628747596
30
0.0000000000
11
-6.2889004750
21
13.4627833767
31
0.0000000000
11
-6.2846488103
21
13.3914777185
31
0.0000000000
11
-6.2717385020
21
13.3203018326
31
0.0000000000
11
-6.2501924787
21
13.2507617262
31
0.0000000000
11
-6.2203351943
21
13.1842552910
31
0.0000000000
11
-6.1827470314
21
13.1220299514
31
0.0000000000
11
-6.1380469669
21
13.0649662987
31
0.0000000000
11
-6.0868429003
21
13.0137583776
31
0.0000000000
11
-6.0297885043
21
12.9690580728
31
0.0000000000
11
-5.9675754707
21
12.9314692019
31
0.0000000000
11
-5.9010781453
21
12.9016072247
31
0.0000000000
11
-5.8315327050
21
12.8800512858
31
0.0000000000
11
-5.7603357455
21
12.8671310235
31
0.0000000000
11
-5.6889918579
21
12.8628747596
31
0.0000000000
0
SPLINE
5
462
100
AcDbEntity
8
0
100
AcDbSpline
62
7
6
CONTINUOUS
70
0
71
3
72
17
73
13
74
11
42
0.0000001000
43
0.0000001000
44
0.0000000001
12
0.2999891204
22
0.0000000000
32
0.0000000000
13
0.2683225132
23
0.1341510391
33
0.0000000000
40
0.0000000000
40
0.0000000000
40
0.0000000000
40
0.0000000000
40
0.1538310774
40
0.3054203692
40
0.4490822258
40
0.5812705336
40
0.7009038737
40
0.8034314696
40
0.8855150069
40
0.9467886262
40
0.9853511170
40
1.0000000000
40
1.0000000000
40
1.0000000000
40
1.0000000000
10
-6.2889004750
20
13.7852522652
30
0.0000000000
10
-6.2735179251
20
13.7852522652
30
0.0000000000
10
-6.2429770424
20
13.7852727909
30
0.0000000000
10
-6.1980703059
20
13.7853637361
30
0.0000000000
10
-6.1553289061
20
13.7855162641
30
0.0000000000
10
-6.1157800317
20
13.7857141185
30
0.0000000000
10
-6.0803551183
20
13.7859911681
30
0.0000000000
10
-6.0499100159
20
13.7862212745
30
0.0000000000
10
-6.0253868741
20
13.7867296404
30
0.0000000000
10
-6.0070497779
20
13.7866452436
30
0.0000000000
10
-5.9958851790
20
13.7877869281
30
0.0000000000
10
-5.9902563748
20
13.7871695798
30
0.0000000000
10
-5.9889461664
20
13.7878246341
30
0.0000000000
11
-6.2889004750
21
13.7852522652
31
0.0000000000
11
-6.2427528359
21
13.7852834253
31
0.0000000000
11
-6.1972777946
21
13.7853773528
31
0.0000000000
11
-6.1541810748
21
13.7855310906
31
0.0000000000
11
-6.1145265706
21
13.7857399375
31
0.0000000000
11
-6.0786388335
21
13.7860028973
31
0.0000000000
11
-6.0478832174
21
13.7863113962
31
0.0000000000
11
-6.0232614284
21
13.7866536895
31
0.0000000000
11
-6.0048838040
21
13.7870271760
31
0.0000000000
11
-5.9933222324
21
13.7874224831
31
0.0000000000
11
-5.9889461664
21
13.7878246341
31
0.0000000000
0
SPLINE
5
463
100
AcDbEntity
8
0
100
AcDbSpline
62
7
6
CONTINUOUS
70
0
71
3
72
17
73
13
74
11
42
0.0000001000
43
0.0000001000
44
0.0000000001
12
0.2683225132
22
-0.1341510391
32
0.0000000000
13
0.2999891204
23
0.0000000000
33
0.0000000000
40
0.0000000000
40
0.0000000000
40
0.0000000000
40
0.0000000000
40
0.0146488830
40
0.0532113738
40
0.1144849931
40
0.1965685304
40
0.2990961263
40
0.4187294664
40
0.5509177742
40
0.6945796308
40
0.8461689226
40
1.0000000000
40
1.0000000000
40
1.0000000000
40
1.0000000000
10
7.0356737042
20
13.7878246341
30
0.0000000000
10
7.0369839126
20
13.7871695798
30
0.0000000000
10
7.0426127168
20
13.7877869281
30
0.0000000000
10
7.0537773156
20
13.7866452436
30
0.0000000000
10
7.0721144118
20
13.7867296404
30
0.0000000000
10
7.0966375536
20
13.7862212745
30
0.0000000000
10
7.1270826561
20
13.7859911681
30
0.0000000000
10
7.1625075694
20
13.7857141185
30
0.0000000000
10
7.2020564439
20
13.7855162641
30
0.0000000000
10
7.2447978436
20
13.7853637361
30
0.0000000000
10
7.2897045802
20
13.7852727909
30
0.0000000000
10
7.3202454629
20
13.7852522652
30
0.0000000000
10
7.3356280128
20
13.7852522652
30
0.0000000000
11
7.0356737042
21
13.7878246341
31
0.0000000000
11
7.0400497702
21
13.7874224831
31
0.0000000000
11
7.0516113418
21
13.7870271760
31
0.0000000000
11
7.0699889662
21
13.7866536895
31
0.0000000000
11
7.0946107551
21
13.7863113962
31
0.0000000000
11
7.1253663713
21
13.7860028973
31
0.0000000000
11
7.1612541084
21
13.7857399375
31
0.0000000000
11
7.2009086126
21
13.7855310906
31
0.0000000000
11
7.2440053324
21
13.7853773528
31
0.0000000000
11
7.2894803737
21
13.7852834253
31
0.0000000000
11
7.3356280128
21
13.7852522652
31
0.0000000000
0
ENDSEC
0
SECTION
2
OBJECTS
0
DICTIONARY
5
464
100
AcDbDictionary
3
ACAD_GROUP
350
465
3
ACAD_MLINESTYLE
350
466
0
DICTIONARY
5
465
102
{ACAD_REACTORS
330
464
102
}
100
AcDbDictionary
0
DICTIONARY
5
466
102
{ACAD_REACTORS
330
464
102
}
100
AcDbDictionary
3
STANDARD
350
467
0
MLINESTYLE
5
467
102
{ACAD_REACTORS
330
466
102
}
100
AcDbMlineStyle
2
STANDARD
70
0
3

62
256
51
90.0
52
90.0
71
2
49
0.5
62
256
6
BYLAYER
49
-0.5
62
256
6
BYLAYER
0
ENDSEC
0
EOF
