  0
SECTION
  2
HEADER
  9
$ACADVER
  1
AC1015
  9
$DWGCODEPAGE
  3
ANSI_1252
  9
$EXTMAX
 10
297.0
 20
210.0
 30
0.0
  9
$EXTMIN
 10
0.0
 20
0.0
 30
0.0
  9
$LIMMIN
 10
0.0
 20
0.0
  9
$LIMMAX
 10
297.0
 20
210.0
  9
$VIEWCTR
 10
148.5
 20
105.0
  9
$VIEWSIZE
 40
210.0
  9
$CLAYER
  8
0
  9
$LTSCALE
 40
16.335
  9
$CELTYPE
  6
BYLAYER
  9
$DIMSCALE
 40
1.0
  9
$DIMASZ
 40
3.0
  9
$DIMEXO
 40
1.85625
  9
$DIMDLI
 40
11.286
  9
$DIMEXE
 40
5.346
  9
$DIMCEN
 40
2.673
  9
$DIMLFAC
 40
1.0
  9
$DIMBLK
  1
_FILLED
  9
$DIMTXT
 40
3.0
  9
$DIMTOL
 70
1
  9
$DIMLIM
 70
0
  9
$DIMTFAC
 40
1.0
  9
$DIMTP
 40
0.01
  9
$DIMTM
 40
0.01
  9
$PDMODE
 70
3
  9
$PDSIZE
 40
3.0
  9
$HANDSEED
  5
754
  9
$TILEMODE
 70
1
  9
$MEASUREMENT
 70
1
  9
$INSUNITS
 70
4
  0
ENDSEC
  0
SECTION
  2
CLASSES
  0
CLASS
  1
ACDBDICTIONARYWDFLT
  2
AcDbDictionaryWithDefault
  3
AutoCAD 2000
 90
0
280
0
281
0
  0
CLASS
  1
ACDBPLACEHOLDER
  2
AcDbPlaceHolder
  3
AutoCAD 2000
 90
0
280
0
281
0
  0
CLASS
  1
LAYOUT
  2
AcDbLayout
  3
AutoCAD 2000
 90
0
280
0
281
0
  0
ENDSEC
  0
SECTION
  2
TABLES
  0
TABLE
  2
VPORT
  5
8
100
AcDbSymbolTable
 70
2
  0
VPORT
  5
1F4
100
AcDbSymbolTableRecord
100
AcDbViewportTableRecord
  2
*ACTIVE
 70
0
 10
0.0
 20
0.0
 11
1.0
 21
1.0
 12
148.5
 22
105.0
 13
0.0
 23
0.0
 14
1.0
 24
1.0
 15
0.0
 25
0.0
 16
0.0
 26
0.0
 36
1.0
 17
0.0
 27
0.0
 37
0.0
 40
210.0
 41
1.4142857143
 42
50.0
 43
0.0
 44
0.0
 50
0.0
 51
0.0
 71
0
 72
100
 73
1
 74
1
 75
0
 76
0
 77
0
 78
0
  0
ENDTAB
  0
TABLE
  2
LTYPE
  5
5
100
AcDbSymbolTable
 70
6
  0
LTYPE
  5
14
100
AcDbSymbolTableRecord
100
AcDbLinetypeTableRecord
  2
BYBLOCK
 70
0
  3

 72
65
 73
0
 40
0.0
  0
LTYPE
  5
15
100
AcDbSymbolTableRecord
100
AcDbLinetypeTableRecord
  2
BYLAYER
 70
0
  3

 72
65
 73
0
 40
0.0
  0
LTYPE
  5
16
100
AcDbSymbolTableRecord
100
AcDbLinetypeTableRecord
  2
CONTINUOUS
 70
64
  3
Solid line
 72
65
 73
0
 40
0.0
  0
LTYPE
  5
1F5
100
AcDbSymbolTableRecord
100
AcDbLinetypeTableRecord
  2
CENTER
 70
64
  3
____ _ ____ _ ____ _ ____ _ ____ _ ____ _ ____
 72
65
 73
4
 40
0.6
 49
0.375
 74
0
 49
-0.075
 74
0
 49
0.075
 74
0
 49
-0.075
 74
0
  0
LTYPE
  5
1F6
100
AcDbSymbolTableRecord
100
AcDbLinetypeTableRecord
  2
HIDDEN
 70
64
  3
- - - - - - - - - - - - - - - - - - - -
 72
65
 73
2
 40
0.2
 49
0.1
 74
0
 49
-0.1
 74
0
  0
LTYPE
  5
1F7
100
AcDbSymbolTableRecord
100
AcDbLinetypeTableRecord
  2
PHANTOM
 70
64
  3
_____ _ _ _____ _ _ _____ _ _ _____
 72
65
 73
6
 40
0.8
 49
0.45
 74
0
 49
-0.05
 74
0
 49
0.1
 74
0
 49
-0.05
 74
0
 49
0.1
 74
0
 49
-0.05
 74
0
  0
LTYPE
  5
1F8
100
AcDbSymbolTableRecord
100
AcDbLinetypeTableRecord
  2
DOT
 70
64
  3
. . . . . . . . . . . . . . . . . . . .
 72
65
 73
2
 40
0.2
 49
0.1
 74
0
 49
-0.1
 74
0
  0
LTYPE
  5
1F9
100
AcDbSymbolTableRecord
100
AcDbLinetypeTableRecord
  2
DASHED
 70
64
  3
- - - - - - - - - - - - - - - - - - - -
 72
65
 73
2
 40
0.2
 49
0.1
 74
0
 49
-0.1
 74
0
  0
ENDTAB
  0
TABLE
  2
LAYER
  5
2
100
AcDbSymbolTable
 70
36
  0
LAYER
  5
10
100
AcDbSymbolTableRecord
100
AcDbLayerTableRecord
  2
0
 70
0
 62
7
  6
CONTINUOUS
370
-3
390
F
  0
LAYER
  5
1FA
100
AcDbSymbolTableRecord
100
AcDbLayerTableRecord
  2
DEFAULT_1
 70
0
 62
7
  6
CENTER
370
-3
390
F
  0
LAYER
  5
1FB
100
AcDbSymbolTableRecord
100
AcDbLayerTableRecord
  2
DEFAULT_2
 70
0
 62
7
  6
HIDDEN
370
-3
390
F
  0
LAYER
  5
1FC
100
AcDbSymbolTableRecord
100
AcDbLayerTableRecord
  2
DEFAULT_3
 70
0
 62
7
  6
PHANTOM
370
-3
390
F
  0
LAYER
  5
1FD
100
AcDbSymbolTableRecord
100
AcDbLayerTableRecord
  2
06___PRT_ALL_SURFS
 70
0
 62
7
  6
CONTINUOUS
370
-3
390
F
  0
LAYER
  5
1FE
100
AcDbSymbolTableRecord
100
AcDbLayerTableRecord
  2
ASSI
 70
0
 62
7
  6
CONTINUOUS
370
-3
390
F
  0
LAYER
  5
1FF
100
AcDbSymbolTableRecord
100
AcDbLayerTableRecord
  2
COLOR17
 70
0
 62
7
  6
CONTINUOUS
370
-3
390
F
  0
LAYER
  5
200
100
AcDbSymbolTableRecord
100
AcDbLayerTableRecord
  2
COLOR3
 70
0
 62
7
  6
CONTINUOUS
370
-3
390
F
  0
LAYER
  5
201
100
AcDbSymbolTableRecord
100
AcDbLayerTableRecord
  2
COLOR4
 70
0
 62
7
  6
CONTINUOUS
370
-3
390
F
  0
LAYER
  5
202
100
AcDbSymbolTableRecord
100
AcDbLayerTableRecord
  2
COLOR5
 70
0
 62
7
  6
CONTINUOUS
370
-3
390
F
  0
LAYER
  5
203
100
AcDbSymbolTableRecord
100
AcDbLayerTableRecord
  2
COORDINATE
 70
0
 62
7
  6
CONTINUOUS
370
-3
390
F
  0
LAYER
  5
204
100
AcDbSymbolTableRecord
100
AcDbLayerTableRecord
  2
COORD_ORIGINE
 70
0
 62
7
  6
CONTINUOUS
370
-3
390
F
  0
LAYER
  5
205
100
AcDbSymbolTableRecord
100
AcDbLayerTableRecord
  2
COPY_PUBLISH
 70
0
 62
7
  6
CONTINUOUS
370
-3
390
F
  0
LAYER
  5
206
100
AcDbSymbolTableRecord
100
AcDbLayerTableRecord
  2
COSMETICI
 70
0
 62
7
  6
CONTINUOUS
370
-3
390
F
  0
LAYER
  5
207
100
AcDbSymbolTableRecord
100
AcDbLayerTableRecord
  2
CURVE
 70
0
 62
7
  6
CONTINUOUS
370
-3
390
F
  0
LAYER
  5
208
100
AcDbSymbolTableRecord
100
AcDbLayerTableRecord
  2
DRAFT
 70
0
 62
7
  6
CONTINUOUS
370
-3
390
F
  0
LAYER
  5
209
100
AcDbSymbolTableRecord
100
AcDbLayerTableRecord
  2
IMPORT
 70
0
 62
7
  6
CONTINUOUS
370
-3
390
F
  0
LAYER
  5
20A
100
AcDbSymbolTableRecord
100
AcDbLayerTableRecord
  2
IMPORT_IGES
 70
0
 62
7
  6
CONTINUOUS
370
-3
390
F
  0
LAYER
  5
20B
100
AcDbSymbolTableRecord
100
AcDbLayerTableRecord
  2
INCISIONI_LASER
 70
0
 62
7
  6
CONTINUOUS
370
-3
390
F
  0
LAYER
  5
20C
100
AcDbSymbolTableRecord
100
AcDbLayerTableRecord
  2
INTF_BLANK
 70
0
 62
7
  6
CONTINUOUS
370
-3
390
F
  0
LAYER
  5
20D
100
AcDbSymbolTableRecord
100
AcDbLayerTableRecord
  2
LAY0001
 70
0
 62
7
  6
CONTINUOUS
370
-3
390
F
  0
LAYER
  5
20E
100
AcDbSymbolTableRecord
100
AcDbLayerTableRecord
  2
NOTE
 70
0
 62
7
  6
CONTINUOUS
370
-3
390
F
  0
LAYER
  5
20F
100
AcDbSymbolTableRecord
100
AcDbLayerTableRecord
  2
PIANI
 70
0
 62
7
  6
CONTINUOUS
370
-3
390
F
  0
LAYER
  5
210
100
AcDbSymbolTableRecord
100
AcDbLayerTableRecord
  2
PIANI_ORIGINE
 70
0
 62
7
  6
CONTINUOUS
370
-3
390
F
  0
LAYER
  5
211
100
AcDbSymbolTableRecord
100
AcDbLayerTableRecord
  2
PIANI_RIFERIMENTO
 70
0
 62
7
  6
CONTINUOUS
370
-3
390
F
  0
LAYER
  5
212
100
AcDbSymbolTableRecord
100
AcDbLayerTableRecord
  2
PUNTI
 70
0
 62
7
  6
CONTINUOUS
370
-3
390
F
  0
LAYER
  5
213
100
AcDbSymbolTableRecord
100
AcDbLayerTableRecord
  2
RACCORDO
 70
0
 62
7
  6
CONTINUOUS
370
-3
390
F
  0
LAYER
  5
214
100
AcDbSymbolTableRecord
100
AcDbLayerTableRecord
  2
SIMBOLI
 70
0
 62
7
  6
CONTINUOUS
370
-3
390
F
  0
LAYER
  5
215
100
AcDbSymbolTableRecord
100
AcDbLayerTableRecord
  2
SMUSSO
 70
0
 62
7
  6
CONTINUOUS
370
-3
390
F
  0
LAYER
  5
216
100
AcDbSymbolTableRecord
100
AcDbLayerTableRecord
  2
SNAPLINE
 70
0
 62
7
  6
CONTINUOUS
370
-3
390
F
  0
LAYER
  5
217
100
AcDbSymbolTableRecord
100
AcDbLayerTableRecord
  2
SUPERFICI
 70
0
 62
7
  6
CONTINUOUS
370
-3
390
F
  0
LAYER
  5
218
100
AcDbSymbolTableRecord
100
AcDbLayerTableRecord
  2
TRASH
 70
0
 62
7
  6
CONTINUOUS
370
-3
390
F
  0
LAYER
  5
219
100
AcDbSymbolTableRecord
100
AcDbLayerTableRecord
  2
XSEC_DATUMS
 70
0
 62
7
  6
CONTINUOUS
370
-3
390
F
  0
LAYER
  5
21A
100
AcDbSymbolTableRecord
100
AcDbLayerTableRecord
  2
_BLACK_HOLE
 70
0
 62
7
  6
CONTINUOUS
370
-3
390
F
  0
LAYER
  5
21B
100
AcDbSymbolTableRecord
100
AcDbLayerTableRecord
  2
___SHELL
 70
0
 62
7
  6
CONTINUOUS
370
-3
390
F
  0
ENDTAB
  0
TABLE
  2
STYLE
  5
3
100
AcDbSymbolTable
 70
1
  0
STYLE
  5
11
100
AcDbSymbolTableRecord
100
AcDbTextStyleTableRecord
  2
STANDARD
 70
0
 40
0.0
 41
0.8
 50
0.0
 71
0
 42
0.2
  3
txt
  4

  0
STYLE
  5
21C
100
AcDbSymbolTableRecord
100
AcDbTextStyleTableRecord
  2
TEXTSTYLE_1
 70
0
 40
0.0
 41
0.8
 50
0.0
 71
0
 42
0.2
  3
gdt
  4

  0
ENDTAB
  0
TABLE
  2
VIEW
  5
6
100
AcDbSymbolTable
 70
0
  0
ENDTAB
  0
TABLE
  2
UCS
  5
7
100
AcDbSymbolTable
 70
0
  0
ENDTAB
  0
TABLE
  2
APPID
  5
9
100
AcDbSymbolTable
 70
1
  0
APPID
  5
21D
100
AcDbSymbolTableRecord
100
AcDbRegAppTableRecord
  2
ACAD
 70
0
  0
ENDTAB
  0
TABLE
  2
BLOCK_RECORD
  5
1
100
AcDbSymbolTable
 70
0
  0
BLOCK_RECORD
  5
21E
100
AcDbSymbolTableRecord
100
AcDbBlockTableRecord
  2
*Model_Space
  0
BLOCK_RECORD
  5
21F
100
AcDbSymbolTableRecord
100
AcDbBlockTableRecord
  2
*Paper_Space
  0
ENDTAB
  0
TABLE
  2
DIMSTYLE
  5
A
100
AcDbSymbolTable
 70
1
100
AcDbDimStyleTable
 71
0
  0
DIMSTYLE
105
220
100
AcDbSymbolTableRecord
100
AcDbDimStyleTableRecord
  2
STANDARD
 70
0
  3

  4

 40
1.0
 41
3.0
 42
0.0625
 43
0.38
 44
0.18
 45
0.0
 46
0.0
 47
0.01
 48
0.01
140
3.0
141
0.09
142
0.0
143
25.4
144
1.0
145
0.0
146
1.0
147
0.09
 71
1.0
 72
0.0
 73
0
 74
0
 75
0
 76
0
 77
1
 78
8
170
0
171
2
172
0
173
0
174
0
175
0
176
0
177
0
178
0
270
2
271
2
272
2
273
2
274
2
275
0
280
0
281
0
282
0
283
1
284
8
285
0
286
0
287
3
288
0
340
11
  0
ENDTAB
  0
ENDSEC
  0
SECTION
  2
BLOCKS
  0
BLOCK
  5
20
100
AcDbEntity
  8
0
100
AcDbBlockBegin
  2
*Model_Space
 70
0
 10
0.0
 20
0.0
 30
0.0
  3
*Model_Space
  1

  0
ENDBLK
  5
21
100
AcDbEntity
  8
0
100
AcDbBlockEnd
  0
BLOCK
  5
1C
100
AcDbEntity
  8
0
100
AcDbBlockBegin
  2
*Paper_Space
 70
0
 10
0.0
 20
0.0
 30
0.0
  3
*Paper_Space
  1

  0
ENDBLK
  5
1D
100
AcDbEntity
  8
0
100
AcDbBlockEnd
  0
ENDSEC
  0
SECTION
  2
ENTITIES
  0
LINE
  5
221
100
AcDbEntity
  8
RACCORDO
100
AcDbLine
 62
253
  6
CONTINUOUS
 10
-9.1793676032
 20
24.495628166
 11
-9.1749957692
 21
24.5
  0
LINE
  5
222
100
AcDbEntity
  8
RACCORDO
100
AcDbLine
 62
253
  6
CONTINUOUS
 10
-8.929371834
 20
24.2456323968
 11
-8.925
 21
24.2500042308
  0
LINE
  5
223
100
AcDbEntity
  8
RACCORDO
100
AcDbLine
 62
253
  6
CONTINUOUS
 10
-11.3248476749
 20
22.3912731322
 11
-11.3073926099
 21
22.4
  0
LINE
  5
224
100
AcDbEntity
  8
RACCORDO
100
AcDbLine
 62
7
  6
CONTINUOUS
 10
-11.0750042308
 20
-24.5
 11
-9.1749957692
 21
-24.5
  0
LINE
  5
225
100
AcDbEntity
  8
RACCORDO
100
AcDbLine
 62
7
  6
CONTINUOUS
 10
7.8249957692
 20
-24.5
 11
9.7250042308
 21
-24.5
  0
LINE
  5
226
100
AcDbEntity
  8
RACCORDO
100
AcDbLine
 62
253
  6
CONTINUOUS
 10
-11.0706323968
 20
-24.495628166
 11
-9.1793676032
 21
-24.495628166
  0
LINE
  5
227
100
AcDbEntity
  8
RACCORDO
100
AcDbLine
 62
253
  6
CONTINUOUS
 10
7.8293676032
 20
-24.495628166
 11
9.7206323968
 21
-24.495628166
  0
LINE
  5
228
100
AcDbEntity
  8
RACCORDO
100
AcDbLine
 62
253
  6
CONTINUOUS
 10
7.579371834
 20
-24.2456323968
 11
9.970628166
 21
-24.2456323968
  0
LINE
  5
229
100
AcDbEntity
  8
RACCORDO
100
AcDbLine
 62
253
  6
CONTINUOUS
 10
-8.929371834
 20
-24.2456323968
 11
-11.320628166
 21
-24.2456323968
  0
LINE
  5
22A
100
AcDbEntity
  8
RACCORDO
100
AcDbLine
 62
253
  6
CONTINUOUS
 10
7.579371834
 20
-23.8443375673
 11
9.970628166
 21
-23.8443375673
  0
LINE
  5
22B
100
AcDbEntity
  8
RACCORDO
100
AcDbLine
 62
253
  6
CONTINUOUS
 10
-8.929371834
 20
-23.8443375673
 11
-11.320628166
 21
-23.8443375673
  0
LINE
  5
22C
100
AcDbEntity
  8
DRAFT
100
AcDbLine
 62
7
  6
CONTINUOUS
 10
-5.075
 20
-23.8
 11
3.725
 21
-23.8
  0
LINE
  5
22D
100
AcDbEntity
  8
DRAFT
100
AcDbLine
 62
7
  6
CONTINUOUS
 10
2.825
 20
-23.7941821702
 11
-4.175
 21
-23.7941821702
  0
LINE
  5
22E
100
AcDbEntity
  8
ASSI
100
AcDbLine
 62
253
  6
CONTINUOUS
 10
3.6813493531
 20
-23.7563493531
 11
2.825
 21
-23.7563493531
  0
LINE
  5
22F
100
AcDbEntity
  8
ASSI
100
AcDbLine
 62
253
  6
CONTINUOUS
 10
-4.175
 20
-23.7563493531
 11
-5.0313493531
 21
-23.7563493531
  0
LINE
  5
230
100
AcDbEntity
  8
RACCORDO
100
AcDbLine
 62
253
  6
CONTINUOUS
 10
9.7206323968
 20
-23.6278312164
 11
7.8293676032
 21
-23.6278312164
  0
LINE
  5
231
100
AcDbEntity
  8
RACCORDO
100
AcDbLine
 62
253
  6
CONTINUOUS
 10
-9.1793676032
 20
-23.6278312164
 11
-11.0706323968
 21
-23.6278312164
  0
LWPOLYLINE
  5
232
100
AcDbEntity
  8
RACCORDO
100
AcDbPolyline
 62
7
  6
CONTINUOUS
 90
34
 70
0
 10
-11.0750042308
 20
-24.5
 10
-11.086899516
 20
-24.4997168498
 10
-11.0987678556
 20
-24.4988680342
 10
-11.1105823661
 20
-24.4974554741
 10
-11.1223162875
 20
-24.4954823677
 10
-11.1339430388
 20
-24.4929531817
 10
-11.145436279
 20
-24.4898736417
 10
-11.1567699738
 20
-24.4862507213
 10
-11.1679184493
 20
-24.4820926258
 10
-11.1788564463
 20
-24.4774087722
 10
-11.1895591876
 20
-24.4722097688
 10
-11.2000024283
 20
-24.4665073916
 10
-11.2101625059
 20
-24.4603145581
 10
-11.2200164051
 20
-24.4536452955
 10
-11.2295418038
 20
-24.4465147107
 10
-11.2387171191
 20
-24.4389389589
 10
-11.2475215661
 20
-24.4309352005
 10
-11.2559352005
 20
-24.4225215661
 10
-11.2639389589
 20
-24.4137171191
 10
-11.2715147107
 20
-24.4045418038
 10
-11.2786452955
 20
-24.3950164051
 10
-11.2853145581
 20
-24.3851625059
 10
-11.2915073916
 20
-24.3750024283
 10
-11.2972097688
 20
-24.3645591876
 10
-11.3024087722
 20
-24.3538564463
 10
-11.3070926258
 20
-24.3429184493
 10
-11.3112507213
 20
-24.3317699738
 10
-11.3148736417
 20
-24.320436279
 10
-11.3179531817
 20
-24.3089430388
 10
-11.3204823677
 20
-24.2973162875
 10
-11.3224554741
 20
-24.2855823661
 10
-11.3238680342
 20
-24.2737678556
 10
-11.3247168498
 20
-24.261899516
 10
-11.325
 20
-24.2500042308
  0
LWPOLYLINE
  5
233
100
AcDbEntity
  8
RACCORDO
100
AcDbPolyline
 62
7
  6
CONTINUOUS
 90
34
 70
0
 10
7.8249957692
 20
-24.5
 10
7.813100484
 20
-24.4997168498
 10
7.8012321444
 20
-24.4988680342
 10
7.7894176339
 20
-24.4974554741
 10
7.7776837125
 20
-24.4954823677
 10
7.7660569612
 20
-24.4929531817
 10
7.754563721
 20
-24.4898736417
 10
7.7432300262
 20
-24.4862507213
 10
7.7320815507
 20
-24.4820926258
 10
7.7211435537
 20
-24.4774087722
 10
7.7104408124
 20
-24.4722097688
 10
7.6999975717
 20
-24.4665073916
 10
7.6898374941
 20
-24.4603145581
 10
7.6799835949
 20
-24.4536452955
 10
7.6704581962
 20
-24.4465147107
 10
7.6612828809
 20
-24.4389389589
 10
7.6524784339
 20
-24.4309352005
 10
7.6440647995
 20
-24.4225215661
 10
7.6360610411
 20
-24.4137171191
 10
7.6284852893
 20
-24.4045418038
 10
7.6213547045
 20
-24.3950164051
 10
7.6146854419
 20
-24.3851625059
 10
7.6084926084
 20
-24.3750024283
 10
7.6027902312
 20
-24.3645591876
 10
7.5975912278
 20
-24.3538564463
 10
7.5929073742
 20
-24.3429184493
 10
7.5887492787
 20
-24.3317699738
 10
7.5851263583
 20
-24.320436279
 10
7.5820468183
 20
-24.3089430388
 10
7.5795176323
 20
-24.2973162875
 10
7.5775445259
 20
-24.2855823661
 10
7.5761319658
 20
-24.2737678556
 10
7.5752831502
 20
-24.261899516
 10
7.575
 20
-24.2500042308
  0
LWPOLYLINE
  5
234
100
AcDbEntity
  8
RACCORDO
100
AcDbPolyline
 62
253
  6
CONTINUOUS
 90
31
 70
0
 10
-11.0706323968
 20
-24.495628166
 10
-11.0836847368
 20
-24.4952867588
 10
-11.0967096311
 20
-24.4942634962
 10
-11.1096714057
 20
-24.492559892
 10
-11.1225371245
 20
-24.4901787618
 10
-11.1352685897
 20
-24.4871256484
 10
-11.1478227742
 20
-24.4834102087
 10
-11.1601625782
 20
-24.4790436576
 10
-11.1722569343
 20
-24.4740372277
 10
-11.1840730125
 20
-24.4684044791
 10
-11.195578613
 20
-24.4621606774
 10
-11.2067419314
 20
-24.4553229956
 10
-11.2175320106
 20
-24.4479103656
 10
-11.2279191364
 20
-24.4399432233
 10
-11.2378749736
 20
-24.4314433264
 10
-11.247372308
 20
-24.4224339046
 10
-11.2563851271
 20
-24.4129396114
 10
-11.2648886687
 20
-24.402986508
 10
-11.2728595768
 20
-24.3926019187
 10
-11.2802759837
 20
-24.3818143284
 10
-11.2871175595
 20
-24.3706533025
 10
-11.2933655387
 20
-24.3591494467
 10
-11.2990027869
 20
-24.347334301
 10
-11.3040138424
 20
-24.3352402638
 10
-11.3083849575
 20
-24.3229005077
 10
-11.312104147
 20
-24.3103488602
 10
-11.3151612081
 20
-24.2976197463
 10
-11.3175477509
 20
-24.2847481067
 10
-11.319257234
 20
-24.2717692492
 10
-11.320284977
 20
-24.2587187509
 10
-11.320628166
 20
-24.2456323968
  0
LWPOLYLINE
  5
235
100
AcDbEntity
  8
RACCORDO
100
AcDbPolyline
 62
253
  6
CONTINUOUS
 90
31
 70
0
 10
7.8293676032
 20
-24.495628166
 10
7.8162841172
 20
-24.4952851274
 10
7.8032364906
 20
-24.4942578375
 10
7.7902604845
 20
-24.492549112
 10
7.7773916636
 20
-24.490163634
 10
7.7646652991
 20
-24.4871079418
 10
7.7521162714
 20
-24.4833904104
 10
7.7397789751
 20
-24.4790212289
 10
7.7276872245
 20
-24.4740123724
 10
7.7158741607
 20
-24.4683775693
 10
7.7043721611
 20
-24.4621322634
 10
7.6932127506
 20
-24.455293572
 10
7.682426515
 20
-24.4478802386
 10
7.6720430174
 20
-24.4399125818
 10
7.6620907169
 20
-24.4314124395
 10
7.652596891
 20
-24.422403109
 10
7.6435875605
 20
-24.4129092831
 10
7.6350874182
 20
-24.4029569826
 10
7.6271197614
 20
-24.392573485
 10
7.619706428
 20
-24.3817872494
 10
7.6128677366
 20
-24.3706278389
 10
7.6066224307
 20
-24.3591258393
 10
7.6009876276
 20
-24.3473127755
 10
7.5959787711
 20
-24.3352210249
 10
7.5916095896
 20
-24.3228837286
 10
7.5878920582
 20
-24.3103347009
 10
7.584836366
 20
-24.2976083364
 10
7.582450888
 20
-24.2847395155
 10
7.5807421625
 20
-24.2717635094
 10
7.5797148726
 20
-24.2587158828
 10
7.579371834
 20
-24.2456323968
  0
LWPOLYLINE
  5
236
100
AcDbEntity
  8
RACCORDO
100
AcDbPolyline
 62
7
  6
CONTINUOUS
 90
11
 70
0
 10
-11.5310370741
 20
-22.3472138017
 10
-11.5131874588
 20
-22.3557023577
 10
-11.4933694928
 20
-22.3641420636
 10
-11.4731597008
 20
-22.3717368058
 10
-11.4526108967
 20
-22.3784610765
 10
-11.4317435211
 20
-22.3843026901
 10
-11.4106119114
 20
-22.3892409661
 10
-11.389323887
 20
-22.3932510251
 10
-11.3679434461
 20
-22.396327304
 10
-11.3464883972
 20
-22.3984737398
 10
-11.3249991391
 20
-22.3996911987
  0
LINE
  5
237
100
AcDbEntity
  8
RACCORDO
100
AcDbLine
 62
253
  6
CONTINUOUS
 10
-11.3073926099
 20
-22.4
 11
-11.3248476749
 21
-22.3912731322
  0
LINE
  5
238
100
AcDbEntity
  8
RACCORDO
100
AcDbLine
 62
253
  6
CONTINUOUS
 10
-9.1793676032
 20
-24.495628166
 11
-9.1749957692
 21
-24.5
  0
LINE
  5
239
100
AcDbEntity
  8
RACCORDO
100
AcDbLine
 62
253
  6
CONTINUOUS
 10
-8.929371834
 20
-24.2456323968
 11
-8.925
 21
-24.2500042308
  0
LINE
  5
23A
100
AcDbEntity
  8
RACCORDO
100
AcDbLine
 62
7
  6
CONTINUOUS
 10
-8.7590245667
 20
20.9917082642
 11
-8.9215127091
 21
20.9104703804
  0
LWPOLYLINE
  5
23B
100
AcDbEntity
  8
RACCORDO
100
AcDbPolyline
 62
7
  6
CONTINUOUS
 90
11
 70
0
 10
9.9749991391
 20
-22.3996911987
 10
9.9964883972
 20
-22.3984737398
 10
10.0179434461
 20
-22.396327304
 10
10.039323887
 20
-22.3932510251
 10
10.0606119114
 20
-22.3892409661
 10
10.0817435211
 20
-22.3843026901
 10
10.1026108967
 20
-22.3784610765
 10
10.1231597008
 20
-22.3717368058
 10
10.1433694928
 20
-22.3641420636
 10
10.1631874588
 20
-22.3557023577
 10
10.1810370741
 20
-22.3472138017
  0
LINE
  5
23C
100
AcDbEntity
  8
RACCORDO
100
AcDbLine
 62
7
  6
CONTINUOUS
 10
9.975
 20
-22.399689968
 11
9.9710883071
 21
-22.3998124433
  0
LINE
  5
23D
100
AcDbEntity
  8
RACCORDO
100
AcDbLine
 62
7
  6
CONTINUOUS
 10
9.9710883071
 20
-22.3998124433
 11
9.9671758755
 21
-22.3999043042
  0
LINE
  5
23E
100
AcDbEntity
  8
RACCORDO
100
AcDbLine
 62
7
  6
CONTINUOUS
 10
9.9671758755
 20
-22.3999043042
 11
9.9632627952
 21
-22.399965549
  0
LINE
  5
23F
100
AcDbEntity
  8
RACCORDO
100
AcDbLine
 62
7
  6
CONTINUOUS
 10
9.9632627952
 20
-22.399965549
 11
9.9593494256
 21
-22.3999961716
  0
LINE
  5
240
100
AcDbEntity
  8
RACCORDO
100
AcDbLine
 62
7
  6
CONTINUOUS
 10
-11.0757229979
 20
-23.1226497308
 11
-9.1742770021
 21
-23.1226497308
  0
LINE
  5
241
100
AcDbEntity
  8
RACCORDO
100
AcDbLine
 62
7
  6
CONTINUOUS
 10
7.8242770021
 20
-23.1226497308
 11
9.7257229979
 21
-23.1226497308
  0
LINE
  5
242
100
AcDbEntity
  8
DRAFT
100
AcDbLine
 62
7
  6
CONTINUOUS
 10
7.575
 20
-22.4
 11
3.725
 21
-22.4
  0
LINE
  5
243
100
AcDbEntity
  8
RACCORDO
100
AcDbLine
 62
7
  6
CONTINUOUS
 10
7.575
 20
-22.4
 11
9.9593494256
 21
-22.3999961716
  0
LINE
  5
244
100
AcDbEntity
  8
DRAFT
100
AcDbLine
 62
7
  6
CONTINUOUS
 10
-5.075
 20
-22.4
 11
-8.925
 21
-22.4
  0
LINE
  5
245
100
AcDbEntity
  8
RACCORDO
100
AcDbLine
 62
7
  6
CONTINUOUS
 10
-11.3248476749
 20
-22.3912731322
 11
-7.9337268678
 21
-22.3912731322
  0
LINE
  5
246
100
AcDbEntity
  8
DRAFT
100
AcDbLine
 62
7
  6
CONTINUOUS
 10
-4.175
 20
-22.3912731322
 11
-3.675
 21
-22.3912731322
  0
LINE
  5
247
100
AcDbEntity
  8
DRAFT
100
AcDbLine
 62
7
  6
CONTINUOUS
 10
2.325
 20
-22.3912731322
 11
2.825
 21
-22.3912731322
  0
LINE
  5
248
100
AcDbEntity
  8
RACCORDO
100
AcDbLine
 62
7
  6
CONTINUOUS
 10
6.5837268678
 20
-22.3912731322
 11
9.9748476749
 21
-22.3912731322
  0
LINE
  5
249
100
AcDbEntity
  8
RACCORDO
100
AcDbLine
 62
253
  6
CONTINUOUS
 10
-8.0123448332
 20
-22.3126551668
 11
-3.675
 21
-22.3126551668
  0
LINE
  5
24A
100
AcDbEntity
  8
RACCORDO
100
AcDbLine
 62
253
  6
CONTINUOUS
 10
2.325
 20
-22.3126551668
 11
6.6623448332
 21
-22.3126551668
  0
LINE
  5
24B
100
AcDbEntity
  8
0
100
AcDbLine
 62
7
  6
CONTINUOUS
 10
2.325
 20
-21.7
 11
-3.675
 21
-21.7
  0
LINE
  5
24C
100
AcDbEntity
  8
RACCORDO
100
AcDbLine
 62
7
  6
CONTINUOUS
 10
-8.925
 20
-22.4
 11
-11.3093494256
 21
-22.3999961716
  0
LINE
  5
24D
100
AcDbEntity
  8
RACCORDO
100
AcDbLine
 62
7
  6
CONTINUOUS
 10
-11.3093494256
 20
-22.3999961716
 11
-11.3132627952
 21
-22.399965549
  0
LINE
  5
24E
100
AcDbEntity
  8
RACCORDO
100
AcDbLine
 62
7
  6
CONTINUOUS
 10
-11.3132627952
 20
-22.399965549
 11
-11.3171758755
 21
-22.3999043042
  0
LINE
  5
24F
100
AcDbEntity
  8
RACCORDO
100
AcDbLine
 62
7
  6
CONTINUOUS
 10
-11.3171758755
 20
-22.3999043042
 11
-11.3210883071
 21
-22.3998124433
  0
LINE
  5
250
100
AcDbEntity
  8
RACCORDO
100
AcDbLine
 62
7
  6
CONTINUOUS
 10
-11.3210883071
 20
-22.3998124433
 11
-11.325
 21
-22.399689968
  0
LINE
  5
251
100
AcDbEntity
  8
RACCORDO
100
AcDbLine
 62
7
  6
CONTINUOUS
 10
-8.7590245667
 20
-20.9917082642
 11
-8.9215127091
 21
-20.9104703804
  0
LINE
  5
252
100
AcDbEntity
  8
RACCORDO
100
AcDbLine
 62
7
  6
CONTINUOUS
 10
-8.925
 20
21.4
 11
-7.9337268678
 21
22.3912731322
  0
LINE
  5
253
100
AcDbEntity
  8
RACCORDO
100
AcDbLine
 62
253
  6
CONTINUOUS
 10
-8.2591007192
 20
-21.3126932437
 11
-3.675
 21
-21.3126932437
  0
LINE
  5
254
100
AcDbEntity
  8
RACCORDO
100
AcDbLine
 62
253
  6
CONTINUOUS
 10
2.325
 20
-21.3126932437
 11
6.9091007192
 21
-21.3126932437
  0
LINE
  5
255
100
AcDbEntity
  8
0
100
AcDbLine
 62
7
  6
CONTINUOUS
 10
2.325
 20
-21.0
 11
-3.675
 21
-21.0
  0
LINE
  5
256
100
AcDbEntity
  8
RACCORDO
100
AcDbLine
 62
7
  6
CONTINUOUS
 10
-8.2591007192
 20
-20.9959955457
 11
-7.9168217019
 21
-20.9959955457
  0
LINE
  5
257
100
AcDbEntity
  8
RACCORDO
100
AcDbLine
 62
7
  6
CONTINUOUS
 10
6.5668217019
 20
-20.9959955457
 11
6.9091007192
 21
-20.9959955457
  0
LINE
  5
258
100
AcDbEntity
  8
DRAFT
100
AcDbLine
 62
7
  6
CONTINUOUS
 10
-8.9215127091
 20
-20.9104703804
 11
-7.9738376746
 21
-20.9104703804
  0
LINE
  5
259
100
AcDbEntity
  8
DRAFT
100
AcDbLine
 62
7
  6
CONTINUOUS
 10
6.6238376746
 20
-20.9104703804
 11
7.5715127091
 21
-20.9104703804
  0
LINE
  5
25A
100
AcDbEntity
  8
RACCORDO
100
AcDbLine
 62
7
  6
CONTINUOUS
 10
8.4753805997
 20
-20.9
 11
7.575
 21
-20.9
  0
LINE
  5
25B
100
AcDbEntity
  8
RACCORDO
100
AcDbLine
 62
7
  6
CONTINUOUS
 10
-8.925
 20
-20.9
 11
-9.8253805997
 21
-20.9
  0
LINE
  5
25C
100
AcDbEntity
  8
RACCORDO
100
AcDbLine
 62
7
  6
CONTINUOUS
 10
8.412542366
 20
-20.7113319946
 11
6.6459441873
 21
-20.7113319946
  0
LINE
  5
25D
100
AcDbEntity
  8
RACCORDO
100
AcDbLine
 62
7
  6
CONTINUOUS
 10
-7.9959441873
 20
-20.7113319946
 11
-9.762542366
 21
-20.7113319946
  0
LINE
  5
25E
100
AcDbEntity
  8
RACCORDO
100
AcDbLine
 62
253
  6
CONTINUOUS
 10
5.8831782981
 20
-20.5829242832
 11
-7.2331782981
 21
-20.5829242832
  0
LINE
  5
25F
100
AcDbEntity
  8
RACCORDO
100
AcDbLine
 62
253
  6
CONTINUOUS
 10
5.880294768
 20
-20.0829433217
 11
-7.230294768
 21
-20.0829433217
  0
LINE
  5
260
100
AcDbEntity
  8
RACCORDO
100
AcDbLine
 62
7
  6
CONTINUOUS
 10
3.525
 20
-20.0
 11
-4.875
 21
-20.0
  0
LINE
  5
261
100
AcDbEntity
  8
0
100
AcDbLine
 62
7
  6
CONTINUOUS
 10
-7.1540558127
 20
-19.968583276
 11
-5.175
 21
-19.968583276
  0
LINE
  5
262
100
AcDbEntity
  8
0
100
AcDbLine
 62
7
  6
CONTINUOUS
 10
3.825
 20
-19.968583276
 11
5.8040558127
 21
-19.968583276
  0
LINE
  5
263
100
AcDbEntity
  8
RACCORDO
100
AcDbLine
 62
253
  6
CONTINUOUS
 10
-10.2621617663
 20
-19.8
 11
-7.9959441873
 21
-19.8
  0
LINE
  5
264
100
AcDbEntity
  8
RACCORDO
100
AcDbLine
 62
253
  6
CONTINUOUS
 10
-7.1540558127
 20
-19.8
 11
-5.175
 21
-19.8
  0
LINE
  5
265
100
AcDbEntity
  8
RACCORDO
100
AcDbLine
 62
253
  6
CONTINUOUS
 10
3.825
 20
-19.8
 11
5.8040558127
 21
-19.8
  0
LINE
  5
266
100
AcDbEntity
  8
RACCORDO
100
AcDbLine
 62
253
  6
CONTINUOUS
 10
6.6459441873
 20
-19.8
 11
8.9121617663
 21
-19.8
  0
LINE
  5
267
100
AcDbEntity
  8
RACCORDO
100
AcDbLine
 62
7
  6
CONTINUOUS
 10
-7.9337268678
 20
-22.3912731322
 11
-8.925
 21
-21.4
  0
LINE
  5
268
100
AcDbEntity
  8
DRAFT
100
AcDbLine
 62
7
  6
CONTINUOUS
 10
-7.9168217019
 20
20.9959955457
 11
-7.9738376746
 21
20.9104703804
  0
LINE
  5
269
100
AcDbEntity
  8
ASSI
100
AcDbLine
 62
7
  6
CONTINUOUS
 10
-4.2688557177
 20
23.6234472841
 11
-4.2954024235
 21
23.5930775533
  0
LINE
  5
26A
100
AcDbEntity
  8
ASSI
100
AcDbLine
 62
7
  6
CONTINUOUS
 10
-4.2954024235
 20
23.5930775533
 11
-4.3258085508
 21
23.5588298205
  0
LINE
  5
26B
100
AcDbEntity
  8
ASSI
100
AcDbLine
 62
7
  6
CONTINUOUS
 10
-4.3258085508
 20
23.5588298205
 11
-4.3600783499
 21
23.5207160551
  0
LINE
  5
26C
100
AcDbEntity
  8
ASSI
100
AcDbLine
 62
7
  6
CONTINUOUS
 10
-4.3600783499
 20
23.5207160551
 11
-4.4185718225
 21
23.4564018309
  0
LINE
  5
26D
100
AcDbEntity
  8
ASSI
100
AcDbLine
 62
7
  6
CONTINUOUS
 10
-4.4185718225
 20
23.4564018309
 11
-4.6029699877
 21
23.2563578147
  0
LINE
  5
26E
100
AcDbEntity
  8
RACCORDO
100
AcDbLine
 62
7
  6
CONTINUOUS
 10
-10.2534342338
 20
-19.3
 11
-7.9988531022
 21
-19.3
  0
LINE
  5
26F
100
AcDbEntity
  8
RACCORDO
100
AcDbLine
 62
7
  6
CONTINUOUS
 10
-7.1511468978
 20
-19.3
 11
-5.175
 21
-19.3
  0
LINE
  5
270
100
AcDbEntity
  8
RACCORDO
100
AcDbLine
 62
7
  6
CONTINUOUS
 10
3.825
 20
-19.3
 11
5.8011468978
 21
-19.3
  0
LINE
  5
271
100
AcDbEntity
  8
RACCORDO
100
AcDbLine
 62
7
  6
CONTINUOUS
 10
6.6488531022
 20
-19.3
 11
8.9034342338
 21
-19.3
  0
LINE
  5
272
100
AcDbEntity
  8
ASSI
100
AcDbLine
 62
7
  6
CONTINUOUS
 10
-4.6029699877
 20
-23.2563578147
 11
-4.3982989853
 21
-23.4786137322
  0
LINE
  5
273
100
AcDbEntity
  8
ASSI
100
AcDbLine
 62
7
  6
CONTINUOUS
 10
-4.3982989853
 20
-23.4786137322
 11
-4.360280314
 21
-23.5204927224
  0
LINE
  5
274
100
AcDbEntity
  8
ASSI
100
AcDbLine
 62
7
  6
CONTINUOUS
 10
-4.360280314
 20
-23.5204927224
 11
-4.3260546648
 21
-23.5585549825
  0
LINE
  5
275
100
AcDbEntity
  8
ASSI
100
AcDbLine
 62
7
  6
CONTINUOUS
 10
-4.3260546648
 20
-23.5585549825
 11
-4.29568447
 21
-23.5927575937
  0
LWPOLYLINE
  5
276
100
AcDbEntity
  8
ASSI
100
AcDbPolyline
 62
7
  6
CONTINUOUS
 90
18
 70
0
 10
-4.29568447
 20
-23.5927575937
 10
-4.2691505693
 20
-23.623107111
 10
-4.257252199
 20
-23.6369269746
 10
-4.2462441775
 20
-23.6498660033
 10
-4.2361130937
 20
-23.6619264116
 10
-4.2268072318
 20
-23.6731887725
 10
-4.2183221868
 20
-23.6836555391
 10
-4.2106456837
 20
-23.6933242583
 10
-4.2037312086
 20
-23.7022681433
 10
-4.197564002
 20
-23.7105063695
 10
-4.1921570622
 20
-23.7180197616
 10
-4.1875114232
 20
-23.7248240072
 10
-4.1836171662
 20
-23.7309112426
 10
-4.1804640862
 20
-23.7362893315
 10
-4.1780437493
 20
-23.7409975528
 10
-4.1763396308
 20
-23.7450489996
 10
-4.1753315447
 20
-23.7484305787
 10
-4.175
 20
-23.7511422903
  0
LINE
  5
277
100
AcDbEntity
  8
DRAFT
100
AcDbLine
 62
7
  6
CONTINUOUS
 10
-7.9168217019
 20
-20.9959955457
 11
-7.9738376746
 21
-20.9104703804
  0
LINE
  5
278
100
AcDbEntity
  8
RACCORDO
100
AcDbLine
 62
253
  6
CONTINUOUS
 10
3.825
 20
-17.8
 11
-5.175
 21
-17.8
  0
LINE
  5
279
100
AcDbEntity
  8
RACCORDO
100
AcDbLine
 62
7
  6
CONTINUOUS
 10
-4.875
 20
-17.3
 11
3.525
 21
-17.3
  0
LINE
  5
27A
100
AcDbEntity
  8
0
100
AcDbLine
 62
7
  6
CONTINUOUS
 10
2.825
 20
-16.2
 11
-4.175
 21
-16.2
  0
LINE
  5
27B
100
AcDbEntity
  8
DRAFT
100
AcDbLine
 62
7
  6
CONTINUOUS
 10
-8.925
 20
20.9
 11
-8.9215127091
 21
20.9104703804
  0
LINE
  5
27C
100
AcDbEntity
  8
RACCORDO
100
AcDbLine
 62
7
  6
CONTINUOUS
 10
-4.175
 20
-15.6
 11
-4.075
 21
-15.6
  0
LINE
  5
27D
100
AcDbEntity
  8
RACCORDO
100
AcDbLine
 62
7
  6
CONTINUOUS
 10
2.725
 20
-15.6
 11
2.825
 21
-15.6
  0
LINE
  5
27E
100
AcDbEntity
  8
RACCORDO
100
AcDbLine
 62
253
  6
CONTINUOUS
 10
-10.204560052
 20
-15.2792978419
 11
-4.175
 21
-15.2792978419
  0
LINE
  5
27F
100
AcDbEntity
  8
RACCORDO
100
AcDbLine
 62
253
  6
CONTINUOUS
 10
2.825
 20
-15.2792978419
 11
8.854560052
 21
-15.2792978419
  0
LINE
  5
280
100
AcDbEntity
  8
0
100
AcDbLine
 62
7
  6
CONTINUOUS
 10
-4.175
 20
-15.2
 11
-4.075
 21
-15.2
  0
LINE
  5
281
100
AcDbEntity
  8
0
100
AcDbLine
 62
7
  6
CONTINUOUS
 10
2.725
 20
-15.2
 11
2.825
 21
-15.2
  0
LINE
  5
282
100
AcDbEntity
  8
0
100
AcDbLine
 62
7
  6
CONTINUOUS
 10
-4.175
 20
-15.0
 11
-4.075
 21
-15.0
  0
LINE
  5
283
100
AcDbEntity
  8
0
100
AcDbLine
 62
7
  6
CONTINUOUS
 10
2.725
 20
-15.0
 11
2.825
 21
-15.0
  0
LINE
  5
284
100
AcDbEntity
  8
RACCORDO
100
AcDbLine
 62
253
  6
CONTINUOUS
 10
-10.1962892833
 20
-14.7799830745
 11
-4.175
 21
-14.7799830745
  0
LINE
  5
285
100
AcDbEntity
  8
RACCORDO
100
AcDbLine
 62
253
  6
CONTINUOUS
 10
2.825
 20
-14.7799830745
 11
8.8462892833
 21
-14.7799830745
  0
LINE
  5
286
100
AcDbEntity
  8
DRAFT
100
AcDbLine
 62
7
  6
CONTINUOUS
 10
8.8196499221
 20
-14.7
 11
2.825
 21
-14.7
  0
LINE
  5
287
100
AcDbEntity
  8
DRAFT
100
AcDbLine
 62
7
  6
CONTINUOUS
 10
-4.175
 20
-14.7
 11
-10.1696499221
 21
-14.7
  0
LINE
  5
288
100
AcDbEntity
  8
DRAFT
100
AcDbLine
 62
7
  6
CONTINUOUS
 10
-10.1696499221
 20
-12.5
 11
-10.325
 21
-12.4223308767
  0
LINE
  5
289
100
AcDbEntity
  8
RACCORDO
100
AcDbLine
 62
7
  6
CONTINUOUS
 10
-7.1873099353
 20
-13.8126856306
 11
-7.175
 21
-13.8188401295
  0
LINE
  5
28A
100
AcDbEntity
  8
RACCORDO
100
AcDbLine
 62
253
  6
CONTINUOUS
 10
-7.1873099353
 20
-13.4876443732
 11
-7.175
 21
-13.4999543085
  0
LINE
  5
28B
100
AcDbEntity
  8
DRAFT
100
AcDbLine
 62
7
  6
CONTINUOUS
 10
-8.9215127091
 20
-20.9104703804
 11
-8.925
 21
-20.9
  0
LINE
  5
28C
100
AcDbEntity
  8
ASSI
100
AcDbLine
 62
7
  6
CONTINUOUS
 10
3.5862377117
 20
23.6224696064
 11
3.5596745345
 21
23.5920986856
  0
LINE
  5
28D
100
AcDbEntity
  8
ASSI
100
AcDbLine
 62
7
  6
CONTINUOUS
 10
3.5596745345
 20
23.5920986856
 11
3.5292797782
 21
23.5578770694
  0
LINE
  5
28E
100
AcDbEntity
  8
ASSI
100
AcDbLine
 62
7
  6
CONTINUOUS
 10
3.5292797782
 20
23.5578770694
 11
3.49505861
 21
23.5198277667
  0
LINE
  5
28F
100
AcDbEntity
  8
ASSI
100
AcDbLine
 62
7
  6
CONTINUOUS
 10
3.49505861
 20
23.5198277667
 11
3.4367198582
 21
23.4556932073
  0
LINE
  5
290
100
AcDbEntity
  8
ASSI
100
AcDbLine
 62
7
  6
CONTINUOUS
 10
3.4367198582
 20
23.4556932073
 11
3.2529699877
 21
23.2563578147
  0
LINE
  5
291
100
AcDbEntity
  8
ASSI
100
AcDbLine
 62
7
  6
CONTINUOUS
 10
3.725
 20
23.8
 11
3.6813493531
 21
23.7563493531
  0
LINE
  5
292
100
AcDbEntity
  8
IMPORT_IGES
100
AcDbLine
 62
7
  6
CONTINUOUS
 10
-8.8436835105
 20
9.7843765662
 11
-7.7659283053
 21
10.8621317713
  0
LINE
  5
293
100
AcDbEntity
  8
IMPORT_IGES
100
AcDbLine
 62
253
  6
CONTINUOUS
 10
-8.6340625132
 20
9.6404371128
 11
-7.8780016412
 21
10.3965277095
  0
LWPOLYLINE
  5
294
100
AcDbEntity
  8
IMPORT_IGES
100
AcDbPolyline
 62
253
  6
CONTINUOUS
 90
10
 70
0
 10
-8.0194213567
 20
10.6086387199
 10
-8.0097286622
 20
10.613826999
 10
-7.9978603244
 20
10.612206609
 10
-7.9841715077
 20
10.6035460237
 10
-7.969446819
 20
10.5875664772
 10
-7.9538084777
 20
10.5643527646
 10
-7.936506597
 20
10.533956627
 10
-7.9175289036
 20
10.4960369264
 10
-7.8978099736
 20
10.4502760229
 10
-7.8780032824
 20
10.3965277092
  0
LINE
  5
295
100
AcDbEntity
  8
DRAFT
100
AcDbLine
 62
7
  6
CONTINUOUS
 10
-10.325
 20
8.8223308767
 11
-10.1696499221
 21
8.9
  0
LWPOLYLINE
  5
296
100
AcDbEntity
  8
RACCORDO
100
AcDbPolyline
 62
253
  6
CONTINUOUS
 90
40
 70
0
 10
-6.8873556268
 20
-12.8877357561
 10
-6.9111385987
 20
-12.8881909062
 10
-6.9349071514
 20
-12.8896081277
 10
-6.958661285
 20
-12.8919874208
 10
-6.9824567775
 20
-12.8953296346
 10
-7.0062378508
 20
-12.8996339199
 10
-7.0298371708
 20
-12.9048977291
 10
-7.0532507333
 20
-12.9111322298
 10
-7.0764825426
 20
-12.9183262544
 10
-7.0993772773
 20
-12.9264437525
 10
-7.1219293645
 20
-12.9354942028
 10
-7.1441443772
 20
-12.9454681265
 10
-7.1658837125
 20
-12.9563010368
 10
-7.1871337842
 20
-12.967994363
 10
-7.2079081785
 20
-12.9805466757
 10
-7.2281090521
 20
-12.9938891997
 10
-7.2477294958
 20
-13.0080215247
 10
-7.2667764187
 20
-13.022944061
 10
-7.2851727048
 20
-13.0385892642
 10
-7.3029167925
 20
-13.0549588296
 10
-7.3200102435
 20
-13.0720510619
 10
-7.3363806259
 20
-13.0897933308
 10
-7.3520261596
 20
-13.1081870444
 10
-7.3669486248
 20
-13.1272307947
 10
-7.3810809307
 20
-13.1468477268
 10
-7.3944235084
 20
-13.1670446059
 10
-7.4069759269
 20
-13.1878146669
 10
-7.4186698016
 20
-13.2090607604
 10
-7.4295037875
 20
-13.2307962874
 10
-7.4394792297
 20
-13.2530078469
 10
-7.4485317788
 20
-13.2755580858
 10
-7.4566521937
 20
-13.2984529456
 10
-7.4638497155
 20
-13.3216864848
 10
-7.4700877176
 20
-13.3451035261
 10
-7.4753550403
 20
-13.3687080694
 10
-7.4796628434
 20
-13.3924961148
 10
-7.48300798
 20
-13.4163004856
 10
-7.4853894011
 20
-13.4400654562
 10
-7.4868081558
 20
-13.463846752
 10
-7.4872642439
 20
-13.4876443732
  0
LINE
  5
297
100
AcDbEntity
  8
DRAFT
100
AcDbLine
 62
7
  6
CONTINUOUS
 10
2.825
 20
-13.9052361207
 11
2.480325392
 21
-13.9052361207
  0
LINE
  5
298
100
AcDbEntity
  8
DRAFT
100
AcDbLine
 62
7
  6
CONTINUOUS
 10
-3.830325392
 20
-13.9052361207
 11
-4.175
 21
-13.9052361207
  0
LINE
  5
299
100
AcDbEntity
  8
RACCORDO
100
AcDbLine
 62
7
  6
CONTINUOUS
 10
-3.775
 20
-13.9
 11
2.425
 21
-13.9
  0
LINE
  5
29A
100
AcDbEntity
  8
RACCORDO
100
AcDbLine
 62
7
  6
CONTINUOUS
 10
6.3250190385
 20
-13.9
 11
2.825
 21
-13.9
  0
LINE
  5
29B
100
AcDbEntity
  8
RACCORDO
100
AcDbLine
 62
7
  6
CONTINUOUS
 10
-4.175
 20
-13.9
 11
-7.6750190385
 21
-13.9
  0
LINE
  5
29C
100
AcDbEntity
  8
DRAFT
100
AcDbLine
 62
7
  6
CONTINUOUS
 10
5.825
 20
-13.8188401295
 11
-7.175
 21
-13.8188401295
  0
LINE
  5
29D
100
AcDbEntity
  8
RACCORDO
100
AcDbLine
 62
7
  6
CONTINUOUS
 10
6.2351323002
 20
-13.8101132618
 11
6.1372642439
 21
-13.8101132618
  0
LINE
  5
29E
100
AcDbEntity
  8
RACCORDO
100
AcDbLine
 62
7
  6
CONTINUOUS
 10
-7.4872642439
 20
-13.8101132618
 11
-7.5851323002
 21
-13.8101132618
  0
LINE
  5
29F
100
AcDbEntity
  8
RACCORDO
100
AcDbLine
 62
253
  6
CONTINUOUS
 10
-7.4872642439
 20
-13.4876443732
 11
-7.1873099353
 21
-13.4876443732
  0
LINE
  5
2A0
100
AcDbEntity
  8
RACCORDO
100
AcDbLine
 62
253
  6
CONTINUOUS
 10
6.1372642439
 20
-13.4876443732
 11
5.8373099353
 21
-13.4876443732
  0
LINE
  5
2A1
100
AcDbEntity
  8
RACCORDO
100
AcDbLine
 62
7
  6
CONTINUOUS
 10
5.5250456915
 20
-13.2
 11
-6.8750456915
 21
-13.2
  0
LINE
  5
2A2
100
AcDbEntity
  8
RACCORDO
100
AcDbLine
 62
253
  6
CONTINUOUS
 10
-6.8873556268
 20
-13.1876900647
 11
5.5373556268
 21
-13.1876900647
  0
LINE
  5
2A3
100
AcDbEntity
  8
RACCORDO
100
AcDbLine
 62
253
  6
CONTINUOUS
 10
-6.8873556268
 20
-12.8877357561
 11
5.5373556268
 21
-12.8877357561
  0
LINE
  5
2A4
100
AcDbEntity
  8
DRAFT
100
AcDbLine
 62
7
  6
CONTINUOUS
 10
6.825
 20
-12.5
 11
8.8196499221
 21
-12.5
  0
LINE
  5
2A5
100
AcDbEntity
  8
DRAFT
100
AcDbLine
 62
7
  6
CONTINUOUS
 10
-8.175
 20
-12.5
 11
-10.1696499221
 21
-12.5
  0
LWPOLYLINE
  5
2A6
100
AcDbEntity
  8
RACCORDO
100
AcDbPolyline
 62
253
  6
CONTINUOUS
 90
31
 70
0
 10
5.5373556268
 20
-13.1876900647
 10
5.5530710042
 20
-13.1880969714
 10
5.5687415919
 20
-13.1893261439
 10
5.5843244403
 20
-13.191374009
 10
5.5997769086
 20
-13.1942347394
 10
5.6150566182
 20
-13.1979003094
 10
5.6301215731
 20
-13.2023605005
 10
5.6449307566
 20
-13.2076029693
 10
5.6594434341
 20
-13.2136130801
 10
5.6736191567
 20
-13.220373842
 10
5.6874191205
 20
-13.2278663725
 10
5.7008058038
 20
-13.2360698985
 10
5.7137423412
 20
-13.2449614381
 10
5.7261929689
 20
-13.2545158657
 10
5.7381244751
 20
-13.2647071133
 10
5.7495057064
 20
-13.2755082492
 10
5.7603053131
 20
-13.2868893252
 10
5.7704941673
 20
-13.2988194201
 10
5.7800462941
 20
-13.3112683007
 10
5.7889357988
 20
-13.3242029688
 10
5.7971374311
 20
-13.3375874674
 10
5.8046284907
 20
-13.3513854218
 10
5.8113882297
 20
-13.3655595081
 10
5.8173976352
 20
-13.3800708186
 10
5.8226396803
 20
-13.3948789839
 10
5.8270997027
 20
-13.4099434274
 10
5.8307652481
 20
-13.4252230332
 10
5.8336259779
 20
-13.4406754779
 10
5.8356738415
 20
-13.4562582702
 10
5.8369030227
 20
-13.4719288849
 10
5.8373099353
 20
-13.4876443732
  0
LINE
  5
2A7
100
AcDbEntity
  8
IMPORT_IGES
100
AcDbLine
 62
253
  6
CONTINUOUS
 10
-6.9481433759
 20
-10.7375492881
 11
-7.725005001
 21
-10.2911911821
  0
LINE
  5
2A8
100
AcDbEntity
  8
IMPORT_IGES
100
AcDbLine
 62
7
  6
CONTINUOUS
 10
-7.0481434264
 20
-10.9098076293
 11
-8.7801681369
 21
-9.9098226964
  0
LINE
  5
2A9
100
AcDbEntity
  8
IMPORT_IGES
100
AcDbLine
 62
253
  6
CONTINUOUS
 10
-8.1249999671
 20
-10.1812645708
 11
-8.6302052355
 21
-9.8895904447
  0
LWPOLYLINE
  5
2AA
100
AcDbEntity
  8
IMPORT_IGES
100
AcDbPolyline
 62
253
  6
CONTINUOUS
 90
4
 70
0
 10
-8.8394187057
 20
-9.8230205932
 10
-8.8097873591
 20
-9.8430452747
 10
-8.7772202749
 20
-9.8597707232
 10
-8.7423446812
 20
-9.87292622
  0
LINE
  5
2AB
100
AcDbEntity
  8
RACCORDO
100
AcDbLine
 62
253
  6
CONTINUOUS
 10
-6.8873556268
 20
-13.1876900647
 11
-6.8750456915
 21
-13.2
  0
LINE
  5
2AC
100
AcDbEntity
  8
ASSI
100
AcDbLine
 62
7
  6
CONTINUOUS
 10
3.725
 20
-23.8
 11
3.6813493531
 21
-23.7563493531
  0
LINE
  5
2AD
100
AcDbEntity
  8
DRAFT
100
AcDbLine
 62
7
  6
CONTINUOUS
 10
-8.175
 20
-11.5
 11
-8.1575462644
 21
-11.5174537356
  0
LINE
  5
2AE
100
AcDbEntity
  8
ASSI
100
AcDbLine
 62
7
  6
CONTINUOUS
 10
3.2529699877
 20
-23.2563578147
 11
3.4569393381
 21
-23.4778438168
  0
LINE
  5
2AF
100
AcDbEntity
  8
ASSI
100
AcDbLine
 62
7
  6
CONTINUOUS
 10
3.4569393381
 20
-23.4778438168
 11
3.4948677157
 21
-23.5196167203
  0
LINE
  5
2B0
100
AcDbEntity
  8
ASSI
100
AcDbLine
 62
7
  6
CONTINUOUS
 10
3.4948677157
 20
-23.5196167203
 11
3.5290449926
 21
-23.5576149814
  0
LINE
  5
2B1
100
AcDbEntity
  8
ASSI
100
AcDbLine
 62
7
  6
CONTINUOUS
 10
3.5290449926
 20
-23.5576149814
 11
3.5594035537
 21
-23.5917914252
  0
LWPOLYLINE
  5
2B2
100
AcDbEntity
  8
IMPORT_IGES
100
AcDbPolyline
 62
253
  6
CONTINUOUS
 90
3
 70
0
 10
-7.7681125571
 20
-10.2414126579
 10
-7.8085359344
 20
-10.1956655886
 10
-7.8445264272
 20
-10.1544494947
  0
LWPOLYLINE
  5
2B3
100
AcDbEntity
  8
ASSI
100
AcDbPolyline
 62
7
  6
CONTINUOUS
 90
18
 70
0
 10
3.5594035537
 20
-23.5917914252
 10
3.5859530912
 20
-23.6221414657
 10
3.597867965
 20
-23.6359699945
 10
3.6088985218
 20
-23.6489231118
 10
3.6190570925
 20
-23.6610025701
 10
3.6283924483
 20
-23.6722856337
 10
3.6369084242
 20
-23.6827728937
 10
3.6446191733
 20
-23.6924637589
 10
3.6515725949
 20
-23.70143372
 10
3.6577837712
 20
-23.7097020781
 10
3.6632403763
 20
-23.7172495321
 10
3.6679426829
 20
-23.7240936689
 10
3.6719006534
 20
-23.7302274091
 10
3.675124195
 20
-23.735657832
 10
3.6776217143
 20
-23.7404237625
 10
3.6794093029
 20
-23.7445381423
 10
3.6805066314
 20
-23.7479880297
 10
3.6809327327
 20
-23.7507734247
  0
LWPOLYLINE
  5
2B4
100
AcDbEntity
  8
IMPORT_IGES
100
AcDbPolyline
 62
253
  6
CONTINUOUS
 90
3
 70
0
 10
-7.8445264272
 20
-10.1544494947
 10
-7.8602273397
 20
-10.1362740556
 10
-7.8871084085
 20
-10.1046674797
  0
LWPOLYLINE
  5
2B5
100
AcDbEntity
  8
IMPORT_IGES
100
AcDbPolyline
 62
253
  6
CONTINUOUS
 90
3
 70
0
 10
-7.725005001
 20
-10.2911911821
 10
-7.7467794515
 20
-10.2657783284
 10
-7.7681125571
 20
-10.2414126579
  0
LWPOLYLINE
  5
2B6
100
AcDbEntity
  8
IMPORT_IGES
100
AcDbPolyline
 62
253
  6
CONTINUOUS
 90
4
 70
0
 10
-7.8871084085
 20
-10.1046674797
 10
-7.8984443137
 20
-10.0911456203
 10
-7.9079848651
 20
-10.0792881848
 10
-7.920758356
 20
-10.0632021024
  0
LINE
  5
2B7
100
AcDbEntity
  8
RACCORDO
100
AcDbLine
 62
253
  6
CONTINUOUS
 10
-11.320628166
 20
-23.8443375673
 11
-11.325
 21
-23.4104851482
  0
LINE
  5
2B8
100
AcDbEntity
  8
RACCORDO
100
AcDbLine
 62
253
  6
CONTINUOUS
 10
-11.0706323968
 20
-23.6278312164
 11
-11.0757229979
 21
-23.1226497308
  0
LINE
  5
2B9
100
AcDbEntity
  8
RACCORDO
100
AcDbLine
 62
7
  6
CONTINUOUS
 10
-11.825
 20
-21.8911779406
 11
-11.825
 21
21.8911779406
  0
LINE
  5
2BA
100
AcDbEntity
  8
RACCORDO
100
AcDbLine
 62
7
  6
CONTINUOUS
 10
-11.325
 20
-22.399689968
 11
-11.325
 21
-24.2500042308
  0
LINE
  5
2BB
100
AcDbEntity
  8
RACCORDO
100
AcDbLine
 62
7
  6
CONTINUOUS
 10
-11.325
 20
22.399689968
 11
-11.325
 21
24.2500042308
  0
LINE
  5
2BC
100
AcDbEntity
  8
RACCORDO
100
AcDbLine
 62
253
  6
CONTINUOUS
 10
-11.320628166
 20
24.2456323968
 11
-11.320628166
 21
23.8443375673
  0
LINE
  5
2BD
100
AcDbEntity
  8
RACCORDO
100
AcDbLine
 62
253
  6
CONTINUOUS
 10
-11.320628166
 20
-23.8443375673
 11
-11.320628166
 21
-24.2456323968
  0
LINE
  5
2BE
100
AcDbEntity
  8
RACCORDO
100
AcDbLine
 62
253
  6
CONTINUOUS
 10
-11.0706323968
 20
-23.6278312164
 11
-11.0706323968
 21
-24.495628166
  0
LINE
  5
2BF
100
AcDbEntity
  8
RACCORDO
100
AcDbLine
 62
253
  6
CONTINUOUS
 10
-11.0706323968
 20
23.7
 11
-11.0706323968
 21
24.495628166
  0
LINE
  5
2C0
100
AcDbEntity
  8
RACCORDO
100
AcDbLine
 62
253
  6
CONTINUOUS
 10
-11.325
 20
23.4104851482
 11
-11.320628166
 21
23.8443375673
  0
LINE
  5
2C1
100
AcDbEntity
  8
RACCORDO
100
AcDbLine
 62
253
  6
CONTINUOUS
 10
-11.0757229979
 20
23.1226497308
 11
-11.0699051681
 21
23.7
  0
LWPOLYLINE
  5
2C2
100
AcDbEntity
  8
RACCORDO
100
AcDbPolyline
 62
7
  6
CONTINUOUS
 90
34
 70
0
 10
-11.325
 20
24.2500042308
 10
-11.3247168498
 20
24.261899516
 10
-11.3238680342
 20
24.2737678556
 10
-11.3224554741
 20
24.2855823661
 10
-11.3204823677
 20
24.2973162875
 10
-11.3179531817
 20
24.3089430388
 10
-11.3148736417
 20
24.320436279
 10
-11.3112507213
 20
24.3317699738
 10
-11.3070926258
 20
24.3429184493
 10
-11.3024087722
 20
24.3538564463
 10
-11.2972097688
 20
24.3645591876
 10
-11.2915073916
 20
24.3750024283
 10
-11.2853145581
 20
24.3851625059
 10
-11.2786452955
 20
24.3950164051
 10
-11.2715147107
 20
24.4045418038
 10
-11.2639389589
 20
24.4137171191
 10
-11.2559352005
 20
24.4225215661
 10
-11.2475215661
 20
24.4309352005
 10
-11.2387171191
 20
24.4389389589
 10
-11.2295418038
 20
24.4465147107
 10
-11.2200164051
 20
24.4536452955
 10
-11.2101625059
 20
24.4603145581
 10
-11.2000024283
 20
24.4665073916
 10
-11.1895591876
 20
24.4722097688
 10
-11.1788564463
 20
24.4774087722
 10
-11.1679184493
 20
24.4820926258
 10
-11.1567699738
 20
24.4862507213
 10
-11.145436279
 20
24.4898736417
 10
-11.1339430388
 20
24.4929531817
 10
-11.1223162875
 20
24.4954823677
 10
-11.1105823661
 20
24.4974554741
 10
-11.0987678556
 20
24.4988680342
 10
-11.086899516
 20
24.4997168498
 10
-11.0750042308
 20
24.5
  0
LWPOLYLINE
  5
2C3
100
AcDbEntity
  8
RACCORDO
100
AcDbPolyline
 62
253
  6
CONTINUOUS
 90
31
 70
0
 10
-11.320628166
 20
24.2456323968
 10
-11.3202867588
 20
24.2586847368
 10
-11.3192634962
 20
24.2717096311
 10
-11.317559892
 20
24.2846714057
 10
-11.3151787618
 20
24.2975371245
 10
-11.3121256484
 20
24.3102685897
 10
-11.3084102087
 20
24.3228227742
 10
-11.3040436576
 20
24.3351625782
 10
-11.2990372277
 20
24.3472569343
 10
-11.2934044791
 20
24.3590730125
 10
-11.2871606774
 20
24.370578613
 10
-11.2803229956
 20
24.3817419314
 10
-11.2729103656
 20
24.3925320106
 10
-11.2649432233
 20
24.4029191364
 10
-11.2564433264
 20
24.4128749736
 10
-11.2474339046
 20
24.422372308
 10
-11.2379396114
 20
24.4313851271
 10
-11.227986508
 20
24.4398886687
 10
-11.2176019187
 20
24.4478595768
 10
-11.2068143284
 20
24.4552759837
 10
-11.1956533025
 20
24.4621175595
 10
-11.1841494467
 20
24.4683655387
 10
-11.172334301
 20
24.4740027869
 10
-11.1602402638
 20
24.4790138424
 10
-11.1479005077
 20
24.4833849575
 10
-11.1353488602
 20
24.487104147
 10
-11.1226197463
 20
24.4901612081
 10
-11.1097481067
 20
24.4925477509
 10
-11.0967692492
 20
24.494257234
 10
-11.0837187509
 20
24.495284977
 10
-11.0706323968
 20
24.495628166
  0
LWPOLYLINE
  5
2C4
100
AcDbEntity
  8
IMPORT_IGES
100
AcDbPolyline
 62
253
  6
CONTINUOUS
 90
5
 70
0
 10
-7.6642942213
 20
10.4958030965
 10
-7.6728579063
 20
10.4780698167
 10
-7.6756559813
 20
10.4725413774
 10
-7.6773996503
 20
10.4689248829
 10
-7.678
 20
10.4672173636
  0
LWPOLYLINE
  5
2C5
100
AcDbEntity
  8
IMPORT_IGES
100
AcDbPolyline
 62
253
  6
CONTINUOUS
 90
3
 70
0
 10
-7.5517659922
 20
10.7226887176
 10
-7.577677254
 20
10.6694864987
 10
-7.5894581933
 20
10.6456130758
  0
LWPOLYLINE
  5
2C6
100
AcDbEntity
  8
IMPORT_IGES
100
AcDbPolyline
 62
253
  6
CONTINUOUS
 90
4
 70
0
 10
-7.6427834705
 20
10.5389253483
 10
-7.6538718736
 20
10.5162416455
 10
-7.6590577006
 20
10.5061514334
 10
-7.6642942213
 20
10.4958030965
  0
LINE
  5
2C7
100
AcDbEntity
  8
IMPORT_IGES
100
AcDbLine
 62
253
  6
CONTINUOUS
 10
-7.619905682
 20
10.5848943826
 11
-7.6427834705
 21
10.5389253483
  0
LINE
  5
2C8
100
AcDbEntity
  8
IMPORT_IGES
100
AcDbLine
 62
253
  6
CONTINUOUS
 10
-7.5894581933
 20
10.6456130758
 11
-7.619905682
 21
10.5848943826
  0
LWPOLYLINE
  5
2C9
100
AcDbEntity
  8
IMPORT_IGES
100
AcDbPolyline
 62
253
  6
CONTINUOUS
 90
10
 70
0
 10
-7.5517659922
 20
10.7226887176
 10
-7.5484996927
 20
10.7279486638
 10
-7.5451257238
 20
10.7327144886
 10
-7.5416434815
 20
10.73698617
 10
-7.5381440907
 20
10.7408013616
 10
-7.5345367086
 20
10.7441223451
 10
-7.5305431947
 20
10.7468361568
 10
-7.5260656379
 20
10.7489052627
 10
-7.5211919432
 20
10.7503674366
 10
-7.5159186905
 20
10.7512228026
  0
LINE
  5
2CA
100
AcDbEntity
  8
DRAFT
100
AcDbLine
 62
7
  6
CONTINUOUS
 10
-9.175
 20
7.9
 11
-9.0851132618
 21
7.9898867382
  0
LINE
  5
2CB
100
AcDbEntity
  8
RACCORDO
100
AcDbLine
 62
7
  6
CONTINUOUS
 10
-9.175
 20
5.9
 11
-9.0877084755
 21
5.9872915245
  0
LWPOLYLINE
  5
2CC
100
AcDbEntity
  8
IMPORT_IGES
100
AcDbPolyline
 62
253
  6
CONTINUOUS
 90
8
 70
0
 10
-4.6336706681
 20
10.7482239013
 10
-4.6164213562
 20
10.7621320344
 10
-4.5967522858
 20
10.7743291397
 10
-4.575
 20
10.7846065215
 10
-4.5515366865
 20
10.7927883308
 10
-4.526763809
 20
10.7987345747
 10
-4.5011052384
 20
10.8023435113
 10
-4.475
 20
10.8035533906
  0
LINE
  5
2CD
100
AcDbEntity
  8
IMPORT_IGES
100
AcDbLine
 62
253
  6
CONTINUOUS
 10
7.355949602
 20
-9.8823041024
 11
7.3925461267
 21
-9.8728625734
  0
LINE
  5
2CE
100
AcDbEntity
  8
RACCORDO
100
AcDbLine
 62
7
  6
CONTINUOUS
 10
-9.8872871968
 20
-12.4118358927
 11
-10.325
 21
-12.4223308767
  0
LINE
  5
2CF
100
AcDbEntity
  8
RACCORDO
100
AcDbLine
 62
7
  6
CONTINUOUS
 10
8.975
 20
-11.5776691233
 11
8.5372871968
 21
-11.5881641073
  0
LWPOLYLINE
  5
2D0
100
AcDbEntity
  8
IMPORT_IGES
100
AcDbPolyline
 62
253
  6
CONTINUOUS
 90
3
 70
0
 10
3.4984473905
 20
-10.750882232
 10
3.3765891359
 20
-10.7521534949
 10
3.3251965846
 20
-10.7525790528
  0
LINE
  5
2D1
100
AcDbEntity
  8
RACCORDO
100
AcDbLine
 62
7
  6
CONTINUOUS
 10
-9.6053794106
 20
-12.4101132618
 11
-8.0851132618
 21
-12.4101132618
  0
LINE
  5
2D2
100
AcDbEntity
  8
RACCORDO
100
AcDbLine
 62
7
  6
CONTINUOUS
 10
8.2553794106
 20
-12.4101132618
 11
6.7351132618
 21
-12.4101132618
  0
LINE
  5
2D3
100
AcDbEntity
  8
0
100
AcDbLine
 62
7
  6
CONTINUOUS
 10
5.825
 20
-12.3
 11
-7.175
 21
-12.3
  0
LINE
  5
2D4
100
AcDbEntity
  8
RACCORDO
100
AcDbLine
 62
7
  6
CONTINUOUS
 10
-9.6053794106
 20
-11.5898867382
 11
-7.175
 21
-11.5898867382
  0
LINE
  5
2D5
100
AcDbEntity
  8
RACCORDO
100
AcDbLine
 62
7
  6
CONTINUOUS
 10
8.2553794106
 20
-11.5898867382
 11
5.825
 21
-11.5898867382
  0
LINE
  5
2D6
100
AcDbEntity
  8
DRAFT
100
AcDbLine
 62
7
  6
CONTINUOUS
 10
6.6575462644
 20
-11.5174537356
 11
5.825
 21
-11.5174537356
  0
LINE
  5
2D7
100
AcDbEntity
  8
DRAFT
100
AcDbLine
 62
7
  6
CONTINUOUS
 10
-7.175
 20
-11.5174537356
 11
-8.1575462644
 21
-11.5174537356
  0
LINE
  5
2D8
100
AcDbEntity
  8
DRAFT
100
AcDbLine
 62
7
  6
CONTINUOUS
 10
8.8196499221
 20
-11.5
 11
6.675
 21
-11.5
  0
LINE
  5
2D9
100
AcDbEntity
  8
DRAFT
100
AcDbLine
 62
7
  6
CONTINUOUS
 10
-8.175
 20
-11.5
 11
-10.1696499221
 21
-11.5
  0
LINE
  5
2DA
100
AcDbEntity
  8
0
100
AcDbLine
 62
7
  6
CONTINUOUS
 10
3.0590925511
 20
-11.3500290004
 11
2.2887011241
 21
-11.3500290004
  0
LINE
  5
2DB
100
AcDbEntity
  8
0
100
AcDbLine
 62
7
  6
CONTINUOUS
 10
2.1930427503
 20
-11.3500290004
 11
0.1509075832
 21
-11.3500290004
  0
LINE
  5
2DC
100
AcDbEntity
  8
0
100
AcDbLine
 62
7
  6
CONTINUOUS
 10
0.1456800276
 20
-11.3500290004
 11
-4.4090923596
 21
-11.3500290004
  0
LINE
  5
2DD
100
AcDbEntity
  8
RACCORDO
100
AcDbLine
 62
253
  6
CONTINUOUS
 10
-7.175
 20
-11.2878679656
 11
-4.4090923596
 21
-11.2878679656
  0
LINE
  5
2DE
100
AcDbEntity
  8
RACCORDO
100
AcDbLine
 62
253
  6
CONTINUOUS
 10
2.1930427503
 20
-11.2878679656
 11
2.2887011241
 21
-11.2878679656
  0
LINE
  5
2DF
100
AcDbEntity
  8
RACCORDO
100
AcDbLine
 62
253
  6
CONTINUOUS
 10
3.0590925511
 20
-11.2878679656
 11
5.825
 21
-11.2878679656
  0
LINE
  5
2E0
100
AcDbEntity
  8
IMPORT_IGES
100
AcDbLine
 62
7
  6
CONTINUOUS
 10
4.7476866561
 20
-11.2500290004
 11
3.0480847372
 21
-11.2500290004
  0
LINE
  5
2E1
100
AcDbEntity
  8
IMPORT_IGES
100
AcDbLine
 62
7
  6
CONTINUOUS
 10
2.2892506611
 20
-11.2500290004
 11
2.1930427503
 21
-11.2500290004
  0
LINE
  5
2E2
100
AcDbEntity
  8
IMPORT_IGES
100
AcDbLine
 62
7
  6
CONTINUOUS
 10
1.4824376773
 20
-11.2500290004
 11
0.9836476516
 21
-11.2500290004
  0
LINE
  5
2E3
100
AcDbEntity
  8
IMPORT_IGES
100
AcDbLine
 62
7
  6
CONTINUOUS
 10
0.4933986377
 20
-11.2500290004
 11
-0.2744306851
 21
-11.2500290004
  0
LINE
  5
2E4
100
AcDbEntity
  8
IMPORT_IGES
100
AcDbLine
 62
7
  6
CONTINUOUS
 10
-0.764679556
 20
-11.2500290004
 11
-1.4223988905
 21
-11.2500290004
  0
LINE
  5
2E5
100
AcDbEntity
  8
IMPORT_IGES
100
AcDbLine
 62
7
  6
CONTINUOUS
 10
-1.9592872884
 20
-11.2500290004
 11
-1.9753524638
 21
-11.2500290004
  0
LINE
  5
2E6
100
AcDbEntity
  8
IMPORT_IGES
100
AcDbLine
 62
7
  6
CONTINUOUS
 10
-2.508110862
 20
-11.2500290004
 11
-3.0673810224
 21
-11.2500290004
  0
LINE
  5
2E7
100
AcDbEntity
  8
IMPORT_IGES
100
AcDbLine
 62
7
  6
CONTINUOUS
 10
-3.6042696263
 20
-11.2500290004
 11
-3.6203348018
 21
-11.2500290004
  0
LINE
  5
2E8
100
AcDbEntity
  8
IMPORT_IGES
100
AcDbLine
 62
7
  6
CONTINUOUS
 10
-4.1530931999
 20
-11.2500290004
 11
-6.0976866561
 21
-11.2500290004
  0
LINE
  5
2E9
100
AcDbEntity
  8
0
100
AcDbLine
 62
7
  6
CONTINUOUS
 10
4.7476866561
 20
-11.2500290004
 11
-6.0976866561
 21
-11.2500290004
  0
LINE
  5
2EA
100
AcDbEntity
  8
RACCORDO
100
AcDbLine
 62
7
  6
CONTINUOUS
 10
-7.175
 20
-11.2
 11
-6.1256603434
 21
-11.2
  0
LINE
  5
2EB
100
AcDbEntity
  8
RACCORDO
100
AcDbLine
 62
7
  6
CONTINUOUS
 10
4.7756603228
 20
-11.2
 11
5.825
 21
-11.2
  0
LINE
  5
2EC
100
AcDbEntity
  8
IMPORT_IGES
100
AcDbLine
 62
7
  6
CONTINUOUS
 10
5.2249973684
 20
-11.15
 11
-6.6217065296
 21
-11.15
  0
LINE
  5
2ED
100
AcDbEntity
  8
IMPORT_IGES
100
AcDbLine
 62
253
  6
CONTINUOUS
 10
5.3249999179
 20
-11.05
 11
-6.674999714
 21
-11.05
  0
LINE
  5
2EE
100
AcDbEntity
  8
IMPORT_IGES
100
AcDbLine
 62
7
  6
CONTINUOUS
 10
5.5481434338
 20
-10.95
 11
-6.8981472947
 21
-10.95
  0
LINE
  5
2EF
100
AcDbEntity
  8
IMPORT_IGES
100
AcDbLine
 62
253
  6
CONTINUOUS
 10
-6.8981434278
 20
-10.7508823024
 11
-4.8484520392
 21
-10.7508823024
  0
LINE
  5
2F0
100
AcDbEntity
  8
IMPORT_IGES
100
AcDbLine
 62
253
  6
CONTINUOUS
 10
3.4984421839
 20
-10.7508821734
 11
5.5481434353
 21
-10.7508821734
  0
LWPOLYLINE
  5
2F1
100
AcDbEntity
  8
IMPORT_IGES
100
AcDbPolyline
 62
253
  6
CONTINUOUS
 90
5
 70
0
 10
3.3251965846
 20
-10.7525790528
 10
3.3136424345
 20
-10.7525484639
 10
3.3052449342
 20
-10.7523322918
 10
3.3001503538
 20
-10.7519691892
 10
3.29844733
 20
-10.7514595596
  0
LINE
  5
2F2
100
AcDbEntity
  8
IMPORT_IGES
100
AcDbLine
 62
253
  6
CONTINUOUS
 10
-4.655297493
 20
-10.7525418203
 11
-4.6753126872
 21
-10.7525111471
  0
LINE
  5
2F3
100
AcDbEntity
  8
IMPORT_IGES
100
AcDbLine
 62
253
  6
CONTINUOUS
 10
-4.6753126872
 20
-10.7525111471
 11
-4.7965170525
 21
-10.7514862945
  0
LINE
  5
2F4
100
AcDbEntity
  8
IMPORT_IGES
100
AcDbLine
 62
253
  6
CONTINUOUS
 10
-4.7965170525
 20
-10.7514862945
 11
-4.8485008954
 21
-10.7508906715
  0
LINE
  5
2F5
100
AcDbEntity
  8
RACCORDO
100
AcDbLine
 62
7
  6
CONTINUOUS
 10
8.975
 20
-12.4223308767
 11
8.5372871968
 21
-12.4118358927
  0
LINE
  5
2F6
100
AcDbEntity
  8
RACCORDO
100
AcDbLine
 62
7
  6
CONTINUOUS
 10
-9.8872871968
 20
-11.5881641073
 11
-10.325
 21
-11.5776691233
  0
LWPOLYLINE
  5
2F7
100
AcDbEntity
  8
IMPORT_IGES
100
AcDbPolyline
 62
253
  6
CONTINUOUS
 90
10
 70
0
 10
-6.8981434278
 20
-10.7508823024
 10
-6.9040011224
 20
-10.7507083201
 10
-6.9097972175
 20
-10.7502033906
 10
-6.9155317131
 20
-10.749367514
 10
-6.9212231913
 20
-10.7481952488
 10
-6.92685307
 20
-10.7466920367
 10
-6.9323656025
 20
-10.744874202
 10
-6.9377422066
 20
-10.7427471862
 10
-6.9430014644
 20
-10.7403055481
 10
-6.9481433759
 20
-10.7375492881
  0
LWPOLYLINE
  5
2F8
100
AcDbEntity
  8
IMPORT_IGES
100
AcDbPolyline
 62
253
  6
CONTINUOUS
 90
13
 70
0
 10
-4.4527713647
 20
-10.5472708738
 10
-4.4791281066
 20
-10.5459958849
 10
-4.5050871126
 20
-10.5419439172
 10
-4.5301884314
 20
-10.5351662905
 10
-4.5541222075
 20
-10.525698087
 10
-4.5762911662
 20
-10.5137239779
 10
-4.5959412538
 20
-10.4997206576
 10
-4.6126529168
 20
-10.4842320893
 10
-4.6265211721
 20
-10.4674446536
 10
-4.6376325529
 20
-10.4493625669
 10
-4.6458393405
 20
-10.4301542378
 10
-4.6509230585
 20
-10.4102325628
 10
-4.6527899725
 20
-10.3899456087
  0
LWPOLYLINE
  5
2F9
100
AcDbEntity
  8
IMPORT_IGES
100
AcDbPolyline
 62
253
  6
CONTINUOUS
 90
3
 70
0
 10
-8.7057892718
 20
-9.8823364101
 10
-8.6681584808
 20
-9.887904116
 10
-8.6300789366
 20
-9.8895896286
  0
LINE
  5
2FA
100
AcDbEntity
  8
IMPORT_IGES
100
AcDbLine
 62
253
  6
CONTINUOUS
 10
-8.7423446812
 20
-9.87292622
 11
-8.7057892718
 21
-9.8823364101
  0
LWPOLYLINE
  5
2FB
100
AcDbEntity
  8
IMPORT_IGES
100
AcDbPolyline
 62
253
  6
CONTINUOUS
 90
3
 70
0
 10
-7.920758356
 20
-10.0632021024
 10
-7.9239423782
 20
-10.058957061
 10
-7.925
 20
-10.0571443343
  0
LINE
  5
2FC
100
AcDbEntity
  8
IMPORT_IGES
100
AcDbLine
 62
7
  6
CONTINUOUS
 10
-8.0550828182
 20
-7.9542999891
 11
-8.125
 21
-7.8451539777
  0
LWPOLYLINE
  5
2FD
100
AcDbEntity
  8
IMPORT_IGES
100
AcDbPolyline
 62
253
  6
CONTINUOUS
 90
7
 70
0
 10
-8.9301485566
 20
-9.6552357219
 10
-8.9270254636
 20
-9.6865184208
 10
-8.9188139931
 20
-9.7171442733
 10
-8.905669641
 20
-9.7465908303
 10
-8.8878195255
 20
-9.7743742886
 10
-8.8655885822
 20
-9.8000072758
 10
-8.8394187057
 20
-9.8230205932
  0
LWPOLYLINE
  5
2FE
100
AcDbEntity
  8
RACCORDO
100
AcDbPolyline
 62
253
  6
CONTINUOUS
 90
31
 70
0
 10
-8.929371834
 20
-23.8443375673
 10
-8.9297511885
 20
-23.8330270596
 10
-8.9308122363
 20
-23.8217474404
 10
-8.9325520796
 20
-23.8105295141
 10
-8.9349659648
 20
-23.7994039253
 10
-8.9380473009
 20
-23.7884010484
 10
-8.9417876826
 20
-23.7775509057
 10
-8.946176909
 20
-23.7668831095
 10
-8.9512029911
 20
-23.756426816
 10
-8.9568521875
 20
-23.7462106168
 10
-8.9631090593
 20
-23.7362624252
 10
-8.9699565249
 20
-23.7266093946
 10
-8.9773758889
 20
-23.7172778785
 10
-8.9853468926
 20
-23.7082933575
 10
-8.9938477641
 20
-23.699680372
 10
-9.0028552844
 20
-23.6914624468
 10
-9.0123448482
 20
-23.6836620286
 10
-9.0222905438
 20
-23.676300415
 10
-9.0326652233
 20
-23.6693977011
 10
-9.0434405758
 20
-23.6629727275
 10
-9.0545871553
 20
-23.6570430559
 10
-9.0660744696
 20
-23.6516249047
 10
-9.0778711116
 20
-23.6467330775
 10
-9.0899448924
 20
-23.6423809129
 10
-9.1022628811
 20
-23.6385802779
 10
-9.1147919133
 20
-23.6353414408
 10
-9.1274973112
 20
-23.6326734007
 10
-9.1403429626
 20
-23.6305836414
 10
-9.1532932772
 20
-23.6290777228
 10
-9.1663133412
 20
-23.6281594768
 10
-9.1793676032
 20
-23.6278312164
  0
LINE
  5
2FF
100
AcDbEntity
  8
IMPORT_IGES
100
AcDbLine
 62
7
  6
CONTINUOUS
 10
-8.9301485566
 20
-9.6552357234
 11
-9.0977212945
 21
-0.055
  0
LINE
  5
300
100
AcDbEntity
  8
RACCORDO
100
AcDbLine
 62
253
  6
CONTINUOUS
 10
-9.1800948319
 20
23.7
 11
-9.1742770021
 21
23.1226497308
  0
LINE
  5
301
100
AcDbEntity
  8
RACCORDO
100
AcDbLine
 62
7
  6
CONTINUOUS
 10
-10.325
 20
-20.3997711479
 11
-10.325
 21
-12.4223308767
  0
LINE
  5
302
100
AcDbEntity
  8
DRAFT
100
AcDbLine
 62
7
  6
CONTINUOUS
 10
-10.325
 20
-12.4223308767
 11
-10.325
 21
8.8223308767
  0
LINE
  5
303
100
AcDbEntity
  8
RACCORDO
100
AcDbLine
 62
7
  6
CONTINUOUS
 10
-10.325
 20
8.8223308767
 11
-10.325
 21
20.3997711479
  0
LINE
  5
304
100
AcDbEntity
  8
RACCORDO
100
AcDbLine
 62
7
  6
CONTINUOUS
 10
-10.2621617663
 20
-20.2111031425
 11
-10.2621617663
 21
-19.8
  0
LINE
  5
305
100
AcDbEntity
  8
RACCORDO
100
AcDbLine
 62
7
  6
CONTINUOUS
 10
-10.204560052
 20
-19.3
 11
-10.204560052
 21
-15.2792978419
  0
LINE
  5
306
100
AcDbEntity
  8
RACCORDO
100
AcDbLine
 62
7
  6
CONTINUOUS
 10
-10.1696499221
 20
19.9333419123
 11
-10.1696499221
 21
8.9
  0
LINE
  5
307
100
AcDbEntity
  8
DRAFT
100
AcDbLine
 62
7
  6
CONTINUOUS
 10
-10.1696499221
 20
7.9
 11
-10.1696499221
 21
0.5
  0
LINE
  5
308
100
AcDbEntity
  8
DRAFT
100
AcDbLine
 62
7
  6
CONTINUOUS
 10
-10.1696499221
 20
-0.5
 11
-10.1696499221
 21
-7.2
  0
LINE
  5
309
100
AcDbEntity
  8
DRAFT
100
AcDbLine
 62
7
  6
CONTINUOUS
 10
-10.1696499221
 20
-8.35
 11
-10.1696499221
 21
-11.5
  0
LINE
  5
30A
100
AcDbEntity
  8
DRAFT
100
AcDbLine
 62
7
  6
CONTINUOUS
 10
-10.1696499221
 20
-12.5
 11
-10.1696499221
 21
-14.7
  0
LINE
  5
30B
100
AcDbEntity
  8
RACCORDO
100
AcDbLine
 62
253
  6
CONTINUOUS
 10
-9.8872871968
 20
8.8118358927
 11
-9.8872871968
 21
7.9881641073
  0
LINE
  5
30C
100
AcDbEntity
  8
RACCORDO
100
AcDbLine
 62
253
  6
CONTINUOUS
 10
-9.8872871968
 20
0.4118358927
 11
-9.8872871968
 21
-0.4118358927
  0
LINE
  5
30D
100
AcDbEntity
  8
RACCORDO
100
AcDbLine
 62
253
  6
CONTINUOUS
 10
-9.8872871968
 20
-7.2881641073
 11
-9.8872871968
 21
-8.35
  0
LINE
  5
30E
100
AcDbEntity
  8
RACCORDO
100
AcDbLine
 62
253
  6
CONTINUOUS
 10
-9.8872871968
 20
-11.5881641073
 11
-9.8872871968
 21
-12.4118358927
  0
LINE
  5
30F
100
AcDbEntity
  8
RACCORDO
100
AcDbLine
 62
253
  6
CONTINUOUS
 10
-9.6053794106
 20
8.8101132618
 11
-9.6053794106
 21
7.9898867382
  0
LINE
  5
310
100
AcDbEntity
  8
RACCORDO
100
AcDbLine
 62
253
  6
CONTINUOUS
 10
-9.6053794106
 20
0.4101132618
 11
-9.6053794106
 21
-0.4101132618
  0
LINE
  5
311
100
AcDbEntity
  8
RACCORDO
100
AcDbLine
 62
253
  6
CONTINUOUS
 10
-9.6053794106
 20
-7.2898867382
 11
-9.6053794106
 21
-8.35
  0
LINE
  5
312
100
AcDbEntity
  8
RACCORDO
100
AcDbLine
 62
253
  6
CONTINUOUS
 10
-9.6053794106
 20
-11.5898867382
 11
-9.6053794106
 21
-12.4101132618
  0
LINE
  5
313
100
AcDbEntity
  8
RACCORDO
100
AcDbLine
 62
253
  6
CONTINUOUS
 10
-9.1793676032
 20
-23.6278312164
 11
-9.1793676032
 21
-24.495628166
  0
LINE
  5
314
100
AcDbEntity
  8
RACCORDO
100
AcDbLine
 62
253
  6
CONTINUOUS
 10
-9.1793676032
 20
23.7
 11
-9.1793676032
 21
24.495628166
  0
LINE
  5
315
100
AcDbEntity
  8
DRAFT
100
AcDbLine
 62
7
  6
CONTINUOUS
 10
-9.175
 20
7.9
 11
-9.175
 21
5.9
  0
LINE
  5
316
100
AcDbEntity
  8
RACCORDO
100
AcDbLine
 62
7
  6
CONTINUOUS
 10
-9.0851132618
 20
7.9898867382
 11
-9.0851132618
 21
6.2872801014
  0
LINE
  5
317
100
AcDbEntity
  8
DRAFT
100
AcDbLine
 62
7
  6
CONTINUOUS
 10
-9.025
 20
-8.35
 11
-9.025
 21
-9.6
  0
LINE
  5
318
100
AcDbEntity
  8
DRAFT
100
AcDbLine
 62
7
  6
CONTINUOUS
 10
-9.0075462644
 20
-9.5825462644
 11
-9.0075462644
 21
-8.35
  0
LINE
  5
319
100
AcDbEntity
  8
RACCORDO
100
AcDbLine
 62
253
  6
CONTINUOUS
 10
-8.929371834
 20
-24.2456323968
 11
-8.929371834
 21
-23.8443375673
  0
LINE
  5
31A
100
AcDbEntity
  8
RACCORDO
100
AcDbLine
 62
253
  6
CONTINUOUS
 10
-8.929371834
 20
23.8443375673
 11
-8.929371834
 21
24.2456323968
  0
LINE
  5
31B
100
AcDbEntity
  8
DRAFT
100
AcDbLine
 62
7
  6
CONTINUOUS
 10
-8.925
 20
-21.4
 11
-8.925
 21
-20.9
  0
LINE
  5
31C
100
AcDbEntity
  8
RACCORDO
100
AcDbLine
 62
7
  6
CONTINUOUS
 10
-8.925
 20
-22.4
 11
-8.925
 21
-24.2500042308
  0
LINE
  5
31D
100
AcDbEntity
  8
DRAFT
100
AcDbLine
 62
7
  6
CONTINUOUS
 10
-8.925
 20
20.9
 11
-8.925
 21
21.4
  0
LINE
  5
31E
100
AcDbEntity
  8
RACCORDO
100
AcDbLine
 62
7
  6
CONTINUOUS
 10
-8.925
 20
22.4
 11
-8.925
 21
24.2500042308
  0
LINE
  5
31F
100
AcDbEntity
  8
RACCORDO
100
AcDbLine
 62
253
  6
CONTINUOUS
 10
-9.1742770021
 20
-23.1226497308
 11
-9.1793676032
 21
-23.6278312164
  0
LINE
  5
320
100
AcDbEntity
  8
IMPORT_IGES
100
AcDbLine
 62
7
  6
CONTINUOUS
 10
-8.9869349463
 20
6.4019456371
 11
-8.9315057833
 21
9.5774802551
  0
LINE
  5
321
100
AcDbEntity
  8
IMPORT_IGES
100
AcDbLine
 62
7
  6
CONTINUOUS
 10
-9.0977212944
 20
-0.055
 11
-8.9850157199
 21
6.4018980425
  0
LWPOLYLINE
  5
322
100
AcDbEntity
  8
RACCORDO
100
AcDbPolyline
 62
253
  6
CONTINUOUS
 90
31
 70
0
 10
-11.320628166
 20
-23.8443375673
 10
-11.3202496104
 20
-23.833039595
 10
-11.3191904828
 20
-23.821769291
 10
-11.3174531063
 20
-23.8105574212
 10
-11.3150414049
 20
-23.7994336121
 10
-11.3119615346
 20
-23.78842936
 10
-11.3082224836
 20
-23.7775778202
 10
-11.3038349392
 20
-23.7669096972
 10
-11.2988105402
 20
-23.7564530239
 10
-11.2931628596
 20
-23.746236105
 10
-11.2869071671
 20
-23.7362866999
 10
-11.2800605925
 20
-23.7266321754
 10
-11.2726419842
 20
-23.7172991519
 10
-11.2646716801
 20
-23.7083132018
 10
-11.2561713853
 20
-23.6996987826
 10
-11.2471642949
 20
-23.6914794042
 10
-11.2376749912
 20
-23.6836775075
 10
-11.2277294041
 20
-23.6763144193
 10
-11.2173547212
 20
-23.6694102704
 10
-11.2065792888
 20
-23.6629839239
 10
-11.1954325308
 20
-23.6570529269
 10
-11.1839448938
 20
-23.6516334796
 10
-11.172147737
 20
-23.6467403776
 10
-11.1600733006
 20
-23.6423869945
 10
-11.147754621
 20
-23.6385852371
 10
-11.1352253856
 20
-23.6353454907
 10
-11.1225197828
 20
-23.6326765842
 10
-11.109672462
 20
-23.6305857918
 10
-11.0967184947
 20
-23.6290788219
 10
-11.083693281
 20
-23.6281597935
 10
-11.0706323968
 20
-23.6278312164
  0
LWPOLYLINE
  5
323
100
AcDbEntity
  8
RACCORDO
100
AcDbPolyline
 62
7
  6
CONTINUOUS
 90
34
 70
0
 10
-8.929371834
 20
23.8443375673
 10
-8.9296695603
 20
23.8380959882
 10
-8.9304408118
 20
23.8318228771
 10
-8.9316911745
 20
23.8255364611
 10
-8.9334252218
 20
23.819262429
 10
-8.9356466645
 20
23.8130128907
 10
-8.9383586845
 20
23.8067864067
 10
-8.9415631814
 20
23.8006034693
 10
-8.9452611059
 20
23.7944838391
 10
-8.9494533569
 20
23.7884256826
 10
-8.9541388411
 20
23.7824505058
 10
-8.959315483
 20
23.7765790982
 10
-8.9649818538
 20
23.7708092763
 10
-8.9711336377
 20
23.7651632953
 10
-8.9777654201
 20
23.7596628022
 10
-8.9848732229
 20
23.7543054665
 10
-8.9924492184
 20
23.7491140142
 10
-9.0004843004
 20
23.7441107054
 10
-9.008971526
 20
23.7392932914
 10
-9.0178992355
 20
23.734684598
 10
-9.0272542142
 20
23.7303071891
 10
-9.0370258888
 20
23.7261591412
 10
-9.0471984
 20
23.7222628822
 10
-9.0577539871
 20
23.7186408394
 10
-9.0686775879
 20
23.7152916032
 10
-9.0799486454
 20
23.7122365701
 10
-9.0915445699
 20
23.7094973639
 10
-9.1034452677
 20
23.7070730824
 10
-9.1156120954
 20
23.7049862817
 10
-9.1280301503
 20
23.7032528228
 10
-9.1407141444
 20
23.7018667017
 10
-9.153648855
 20
23.7008436197
 10
-9.1667873565
 20
23.7002144299
 10
-9.1800948319
 20
23.7
  0
LINE
  5
324
100
AcDbEntity
  8
DRAFT
100
AcDbLine
 62
7
  6
CONTINUOUS
 10
-7.9738376746
 20
20.9104703804
 11
-8.0267786853
 21
20.4335707644
  0
LINE
  5
325
100
AcDbEntity
  8
DRAFT
100
AcDbLine
 62
7
  6
CONTINUOUS
 10
3.725
 20
22.4
 11
3.6809327327
 21
22.3338981669
  0
LINE
  5
326
100
AcDbEntity
  8
RACCORDO
100
AcDbLine
 62
253
  6
CONTINUOUS
 10
9.7206323968
 20
24.495628166
 11
9.7250042308
 21
24.5
  0
LINE
  5
327
100
AcDbEntity
  8
RACCORDO
100
AcDbLine
 62
253
  6
CONTINUOUS
 10
9.970628166
 20
24.2456323968
 11
9.975
 21
24.2500042308
  0
LWPOLYLINE
  5
328
100
AcDbEntity
  8
IMPORT_IGES
100
AcDbPolyline
 62
7
  6
CONTINUOUS
 90
3
 70
0
 10
3.4444300774
 20
-8.3933606307
 10
3.4674140095
 20
-8.3876924639
 10
3.4918419728
 20
-8.3835896712
  0
LWPOLYLINE
  5
329
100
AcDbEntity
  8
IMPORT_IGES
100
AcDbPolyline
 62
253
  6
CONTINUOUS
 90
3
 70
0
 10
-4.6484360049
 20
-10.752401958
 10
-4.6501619832
 20
-10.7524929589
 10
-4.655297493
 20
-10.7525418203
  0
LWPOLYLINE
  5
32A
100
AcDbEntity
  8
IMPORT_IGES
100
AcDbPolyline
 62
253
  6
CONTINUOUS
 90
3
 70
0
 10
7.2801942481
 20
-9.889590653
 10
7.3182891353
 20
-9.8878917596
 10
7.355949602
 20
-9.8823041024
  0
LINE
  5
32B
100
AcDbEntity
  8
IMPORT_IGES
100
AcDbLine
 62
253
  6
CONTINUOUS
 10
3.1028043935
 20
-10.5472710107
 11
-4.4528043933
 21
-10.5472710152
  0
LINE
  5
32C
100
AcDbEntity
  8
DRAFT
100
AcDbLine
 62
7
  6
CONTINUOUS
 10
-9.025
 20
-9.6
 11
-8.9311710506
 21
-9.6
  0
LINE
  5
32D
100
AcDbEntity
  8
DRAFT
100
AcDbLine
 62
7
  6
CONTINUOUS
 10
7.5811126997
 20
-9.6
 11
7.675
 21
-9.6
  0
LINE
  5
32E
100
AcDbEntity
  8
DRAFT
100
AcDbLine
 62
7
  6
CONTINUOUS
 10
7.6575462644
 20
-9.5825462644
 11
7.5814173558
 21
-9.5825462644
  0
LINE
  5
32F
100
AcDbEntity
  8
DRAFT
100
AcDbLine
 62
7
  6
CONTINUOUS
 10
-8.9314173558
 20
-9.5825462644
 11
-9.0075462644
 21
-9.5825462644
  0
LWPOLYLINE
  5
330
100
AcDbEntity
  8
IMPORT_IGES
100
AcDbPolyline
 62
253
  6
CONTINUOUS
 90
6
 70
0
 10
6.7749999846
 20
-10.1812646504
 10
6.7491893122
 20
-10.1799289717
 10
6.7238971975
 20
-10.1759625949
 10
6.699537065
 20
-10.1694584775
 10
6.6766132228
 20
-10.1606012045
 10
6.6553564851
 20
-10.1495323007
  0
LWPOLYLINE
  5
331
100
AcDbEntity
  8
IMPORT_IGES
100
AcDbPolyline
 62
7
  6
CONTINUOUS
 90
5
 70
0
 10
-4.8509847362
 20
-8.3825380693
 10
-4.8292740464
 20
-8.3854635279
 10
-4.8084760453
 20
-8.3896773756
 10
-4.788775667
 20
-8.3950449199
 10
-4.7704676437
 20
-8.4013765366
  0
LWPOLYLINE
  5
332
100
AcDbEntity
  8
IMPORT_IGES
100
AcDbPolyline
 62
253
  6
CONTINUOUS
 90
4
 70
0
 10
-4.6877656373
 20
-8.4808118158
 10
-4.6905057043
 20
-8.4803575025
 10
-4.7016014777
 20
-8.4791262097
 10
-4.7154556842
 20
-8.4780275707
  0
LINE
  5
333
100
AcDbEntity
  8
IMPORT_IGES
100
AcDbLine
 62
7
  6
CONTINUOUS
 10
-4.7704676437
 20
-8.4013765366
 11
-4.7632289359
 21
-8.4043394369
  0
LWPOLYLINE
  5
334
100
AcDbEntity
  8
IMPORT_IGES
100
AcDbPolyline
 62
7
  6
CONTINUOUS
 90
6
 70
0
 10
-4.7632697864
 20
-8.4044392395
 10
-4.7586943795
 20
-8.406599632
 10
-4.745835408
 20
-8.4137433196
 10
-4.7339401885
 20
-8.4219581309
 10
-4.723186807
 20
-8.4310064057
 10
-4.713637621
 20
-8.4406773203
  0
LWPOLYLINE
  5
335
100
AcDbEntity
  8
IMPORT_IGES
100
AcDbPolyline
 62
253
  6
CONTINUOUS
 90
6
 70
0
 10
-4.7351743447
 20
-8.2067231028
 10
-4.7514482094
 20
-8.1978925827
 10
-4.7691449657
 20
-8.190816064
 10
-4.7879391743
 20
-8.1856558943
 10
-4.807545878
 20
-8.182521018
 10
-4.8276247031
 20
-8.1815015194
  0
LINE
  5
336
100
AcDbEntity
  8
RACCORDO
100
AcDbLine
 62
253
  6
CONTINUOUS
 10
9.7206323968
 20
-24.495628166
 11
9.7250042308
 21
-24.5
  0
LINE
  5
337
100
AcDbEntity
  8
RACCORDO
100
AcDbLine
 62
253
  6
CONTINUOUS
 10
9.970628166
 20
-24.2456323968
 11
9.975
 21
-24.2500042308
  0
LWPOLYLINE
  5
338
100
AcDbEntity
  8
IMPORT_IGES
100
AcDbPolyline
 62
7
  6
CONTINUOUS
 90
8
 70
0
 10
-4.713637621
 20
-8.4406773203
 10
-4.705261442
 20
-8.4508302544
 10
-4.6980292869
 20
-8.4613260553
 10
-4.6919708112
 20
-8.4719050201
 10
-4.6870783745
 20
-8.4822674771
 10
-4.6832073985
 20
-8.4923464705
 10
-4.6802774699
 20
-8.5019207
 10
-4.6782425541
 20
-8.5104679139
  0
LINE
  5
339
100
AcDbEntity
  8
DRAFT
100
AcDbLine
 62
7
  6
CONTINUOUS
 10
3.725
 20
-22.4
 11
3.6809327327
 21
-22.3338981669
  0
LWPOLYLINE
  5
33A
100
AcDbEntity
  8
IMPORT_IGES
100
AcDbPolyline
 62
253
  6
CONTINUOUS
 90
13
 70
0
 10
-9.02797906
 20
-4.0505299365
 10
-9.0252030866
 20
-4.0663988954
 10
-9.0175196972
 20
-4.081852287
 10
-9.0051168962
 20
-4.0966408583
 10
-8.988357631
 20
-4.1104602873
 10
-8.9675131088
 20
-4.1231805314
 10
-8.9425407076
 20
-4.134787263
 10
-8.9135123402
 20
-4.1451075311
 10
-8.8809612155
 20
-4.1538276226
 10
-8.8455150269
 20
-4.1607088839
 10
-8.8078046399
 20
-4.165584943
 10
-8.7684124988
 20
-4.168338965
 10
-8.7280248924
 20
-4.1688776093
  0
LWPOLYLINE
  5
33B
100
AcDbEntity
  8
IMPORT_IGES
100
AcDbPolyline
 62
253
  6
CONTINUOUS
 90
13
 70
0
 10
-9.0816864272
 20
-0.9736369292
 10
-9.0789101247
 20
-0.9895068083
 10
-9.0712260483
 20
-1.0049606939
 10
-9.0588225907
 20
-1.0197493413
 10
-9.0420632528
 20
-1.0335683515
 10
-9.0212194599
 20
-1.0462879099
 10
-8.9962480741
 20
-1.0578941066
 10
-8.9672207808
 20
-1.0682139274
 10
-8.9346708129
 20
-1.076933724
 10
-8.8992252575
 20
-1.0838152659
 10
-8.8615146447
 20
-1.0886922131
 10
-8.8221215055
 20
-1.0914474641
 10
-8.7817321259
 20
-1.0919875572
  0
LINE
  5
33C
100
AcDbEntity
  8
0
100
AcDbLine
 62
7
  6
CONTINUOUS
 10
-7.9959441873
 20
-20.7113319946
 11
-7.9738376746
 21
-20.9104703804
  0
LINE
  5
33D
100
AcDbEntity
  8
0
100
AcDbLine
 62
253
  6
CONTINUOUS
 10
-7.9168217019
 20
-20.0275513222
 11
-8.0151430257
 21
-17.1473642646
  0
LWPOLYLINE
  5
33E
100
AcDbEntity
  8
RACCORDO
100
AcDbPolyline
 62
7
  6
CONTINUOUS
 90
61
 70
0
 10
-7.2331782981
 20
-20.0275513222
 10
-7.2336674893
 20
-20.0091628585
 10
-7.2350936909
 20
-19.9909323714
 10
-7.2374569028
 20
-19.972859861
 10
-7.2407705039
 20
-19.9548948957
 10
-7.2450211154
 20
-19.9370879072
 10
-7.2501686003
 20
-19.9195901896
 10
-7.2562211779
 20
-19.9024050225
 10
-7.2631706289
 20
-19.8855291263
 10
-7.2709521592
 20
-19.8691039577
 10
-7.2795705492
 20
-19.8531369236
 10
-7.2890210184
 20
-19.837620617
 10
-7.2992244315
 20
-19.822674273
 10
-7.3101914986
 20
-19.8082977976
 10
-7.3219115096
 20
-19.7944912848
 10
-7.3342731984
 20
-19.7813742528
 10
-7.3472727677
 20
-19.768960632
 10
-7.3609140147
 20
-19.757236492
 10
-7.3750970645
 20
-19.7462795591
 10
-7.3898362991
 20
-19.7360885994
 10
-7.4051173365
 20
-19.7266648468
 10
-7.4207971561
 20
-19.7180897298
 10
-7.4368660352
 20
-19.7103762769
 10
-7.4533336966
 20
-19.7035114596
 10
-7.4700862876
 20
-19.6975376198
 10
-7.4871361408
 20
-19.6924573364
 10
-7.5044709235
 20
-19.6882680305
 10
-7.5219397859
 20
-19.6850043083
 10
-7.5395371376
 20
-19.6826748955
 10
-7.5572685688
 20
-19.6812710663
 10
-7.575
 20
-19.6808012501
 10
-7.5927314312
 20
-19.6812710663
 10
-7.6104628624
 20
-19.6826748955
 10
-7.6280602141
 20
-19.6850043083
 10
-7.6455290765
 20
-19.6882680305
 10
-7.6628638592
 20
-19.6924573364
 10
-7.6799137124
 20
-19.6975376198
 10
-7.6966663034
 20
-19.7035114596
 10
-7.7131339648
 20
-19.7103762769
 10
-7.7292028439
 20
-19.7180897298
 10
-7.7448826635
 20
-19.7266648468
 10
-7.7601637009
 20
-19.7360885994
 10
-7.7749029355
 20
-19.7462795591
 10
-7.7890859853
 20
-19.757236492
 10
-7.8027272323
 20
-19.768960632
 10
-7.8157268016
 20
-19.7813742528
 10
-7.8280884904
 20
-19.7944912848
 10
-7.8398085014
 20
-19.8082977976
 10
-7.8507755685
 20
-19.822674273
 10
-7.8609789816
 20
-19.837620617
 10
-7.8704294508
 20
-19.8531369236
 10
-7.8790478408
 20
-19.8691039577
 10
-7.8868293711
 20
-19.8855291263
 10
-7.8937788221
 20
-19.9024050225
 10
-7.8998313997
 20
-19.9195901896
 10
-7.9049788846
 20
-19.9370879072
 10
-7.9092294961
 20
-19.9548948957
 10
-7.9125430972
 20
-19.972859861
 10
-7.9149063091
 20
-19.9909323714
 10
-7.9163325107
 20
-20.0091628585
 10
-7.9168217019
 20
-20.0275513222
  0
LWPOLYLINE
  5
33F
100
AcDbEntity
  8
RACCORDO
100
AcDbPolyline
 62
7
  6
CONTINUOUS
 90
61
 70
0
 10
-7.9168217019
 20
20.0275513222
 10
-7.9163325107
 20
20.0091628585
 10
-7.9149063091
 20
19.9909323714
 10
-7.9125430972
 20
19.972859861
 10
-7.9092294961
 20
19.9548948957
 10
-7.9049788846
 20
19.9370879072
 10
-7.8998313997
 20
19.9195901896
 10
-7.8937788221
 20
19.9024050225
 10
-7.8868293711
 20
19.8855291263
 10
-7.8790478408
 20
19.8691039577
 10
-7.8704294508
 20
19.8531369236
 10
-7.8609789816
 20
19.837620617
 10
-7.8507755685
 20
19.822674273
 10
-7.8398085014
 20
19.8082977976
 10
-7.8280884904
 20
19.7944912848
 10
-7.8157268016
 20
19.7813742528
 10
-7.8027272323
 20
19.768960632
 10
-7.7890859853
 20
19.757236492
 10
-7.7749029355
 20
19.7462795591
 10
-7.7601637009
 20
19.7360885994
 10
-7.7448826635
 20
19.7266648468
 10
-7.7292028439
 20
19.7180897298
 10
-7.7131339648
 20
19.7103762769
 10
-7.6966663034
 20
19.7035114596
 10
-7.6799137124
 20
19.6975376198
 10
-7.6628638592
 20
19.6924573364
 10
-7.6455290765
 20
19.6882680305
 10
-7.6280602141
 20
19.6850043083
 10
-7.6104628624
 20
19.6826748955
 10
-7.5927314312
 20
19.6812710663
 10
-7.575
 20
19.6808012501
 10
-7.5572685688
 20
19.6812710663
 10
-7.5395371376
 20
19.6826748955
 10
-7.5219397859
 20
19.6850043083
 10
-7.5044709235
 20
19.6882680305
 10
-7.4871361408
 20
19.6924573364
 10
-7.4700862876
 20
19.6975376198
 10
-7.4533336966
 20
19.7035114596
 10
-7.4368660352
 20
19.7103762769
 10
-7.4207971561
 20
19.7180897298
 10
-7.4051173365
 20
19.7266648468
 10
-7.3898362991
 20
19.7360885994
 10
-7.3750970645
 20
19.7462795591
 10
-7.3609140147
 20
19.757236492
 10
-7.3472727677
 20
19.768960632
 10
-7.3342731984
 20
19.7813742528
 10
-7.3219115096
 20
19.7944912848
 10
-7.3101914986
 20
19.8082977976
 10
-7.2992244315
 20
19.822674273
 10
-7.2890210184
 20
19.837620617
 10
-7.2795705492
 20
19.8531369236
 10
-7.2709521592
 20
19.8691039577
 10
-7.2631706289
 20
19.8855291263
 10
-7.2562211779
 20
19.9024050225
 10
-7.2501686003
 20
19.9195901896
 10
-7.2450211154
 20
19.9370879072
 10
-7.2407705039
 20
19.9548948957
 10
-7.2374569028
 20
19.972859861
 10
-7.2350936909
 20
19.9909323714
 10
-7.2336674893
 20
20.0091628585
 10
-7.2331782981
 20
20.0275513222
  0
LINE
  5
340
100
AcDbEntity
  8
IMPORT_IGES
100
AcDbLine
 62
253
  6
CONTINUOUS
 10
-8.7165782852
 20
-4.7388371703
 11
-8.7280247281
 21
-4.1688776069
  0
LINE
  5
341
100
AcDbEntity
  8
IMPORT_IGES
100
AcDbLine
 62
253
  6
CONTINUOUS
 10
-8.6304304026
 20
-9.8493180328
 11
-8.6599870784
 21
-8.1815039995
  0
LINE
  5
342
100
AcDbEntity
  8
IMPORT_IGES
100
AcDbLine
 62
253
  6
CONTINUOUS
 10
-8.7280247281
 20
-4.1688776069
 11
-8.7817323708
 21
-1.0919876444
  0
LINE
  5
343
100
AcDbEntity
  8
IMPORT_IGES
100
AcDbLine
 62
253
  6
CONTINUOUS
 10
-8.6623574003
 20
-7.8451539726
 11
-8.7165782852
 21
-4.7388371703
  0
LINE
  5
344
100
AcDbEntity
  8
IMPORT_IGES
100
AcDbLine
 62
7
  6
CONTINUOUS
 10
-8.7939111452
 20
-0.2710841037
 11
-8.7817323708
 21
-1.0919876444
  0
LINE
  5
345
100
AcDbEntity
  8
IMPORT_IGES
100
AcDbLine
 62
253
  6
CONTINUOUS
 10
-8.7970539415
 20
-0.0549999076
 11
-8.7939112984
 21
-0.2710854105
  0
LINE
  5
346
100
AcDbEntity
  8
RACCORDO
100
AcDbLine
 62
253
  6
CONTINUOUS
 10
-8.929371834
 20
23.8443375673
 11
-8.925
 21
23.4104851482
  0
LINE
  5
347
100
AcDbEntity
  8
IMPORT_IGES
100
AcDbLine
 62
7
  6
CONTINUOUS
 10
-8.6623574003
 20
-7.8451539726
 11
-8.6599870784
 21
-8.1815036063
  0
LINE
  5
348
100
AcDbEntity
  8
IMPORT_IGES
100
AcDbLine
 62
253
  6
CONTINUOUS
 10
-8.6302052355
 20
-9.8895904447
 11
-8.6304304026
 21
-9.8493180328
  0
LINE
  5
349
100
AcDbEntity
  8
IMPORT_IGES
100
AcDbLine
 62
253
  6
CONTINUOUS
 10
-7.7251577587
 20
-0.0710831898
 11
-7.725024177
 21
-0.2710818644
  0
LINE
  5
34A
100
AcDbEntity
  8
RACCORDO
100
AcDbLine
 62
253
  6
CONTINUOUS
 10
-8.7590245667
 20
21.5659754333
 11
-8.7590245667
 21
20.9917082642
  0
LINE
  5
34B
100
AcDbEntity
  8
RACCORDO
100
AcDbLine
 62
253
  6
CONTINUOUS
 10
-8.7590245667
 20
-20.9917082642
 11
-8.7590245667
 21
-21.5659754333
  0
LINE
  5
34C
100
AcDbEntity
  8
RACCORDO
100
AcDbLine
 62
253
  6
CONTINUOUS
 10
-8.2591007192
 20
21.3126932437
 11
-8.2591007192
 21
20.9959955457
  0
LINE
  5
34D
100
AcDbEntity
  8
RACCORDO
100
AcDbLine
 62
253
  6
CONTINUOUS
 10
-8.2591007192
 20
-20.9959955457
 11
-8.2591007192
 21
-21.3126932437
  0
LINE
  5
34E
100
AcDbEntity
  8
DRAFT
100
AcDbLine
 62
7
  6
CONTINUOUS
 10
-8.175
 20
-10.2504317477
 11
-8.175
 21
-11.5
  0
LINE
  5
34F
100
AcDbEntity
  8
RACCORDO
100
AcDbLine
 62
7
  6
CONTINUOUS
 10
-8.175
 20
-13.4000190385
 11
-8.175
 21
-12.5
  0
LINE
  5
350
100
AcDbEntity
  8
DRAFT
100
AcDbLine
 62
7
  6
CONTINUOUS
 10
-8.1575462644
 20
-10.2539460096
 11
-8.1575462644
 21
-11.5174537356
  0
LINE
  5
351
100
AcDbEntity
  8
IMPORT_IGES
100
AcDbLine
 62
253
  6
CONTINUOUS
 10
-8.1249999671
 20
-10.1812645708
 11
-8.125
 21
-8.6420020066
  0
LINE
  5
352
100
AcDbEntity
  8
IMPORT_IGES
100
AcDbLine
 62
253
  6
CONTINUOUS
 10
-8.125
 20
-7.8451539777
 11
-8.12498952
 21
-0.4528334326
  0
LINE
  5
353
100
AcDbEntity
  8
RACCORDO
100
AcDbLine
 62
7
  6
CONTINUOUS
 10
-8.0851132618
 20
-13.3101323002
 11
-8.0851132618
 21
-12.4101132618
  0
LINE
  5
354
100
AcDbEntity
  8
RACCORDO
100
AcDbLine
 62
7
  6
CONTINUOUS
 10
-8.0267786853
 20
20.4335707644
 11
-8.0267786853
 21
16.8065137252
  0
LINE
  5
355
100
AcDbEntity
  8
0
100
AcDbLine
 62
7
  6
CONTINUOUS
 10
-8.0151430257
 20
-17.1473642646
 11
-8.0151430257
 21
-19.3
  0
LINE
  5
356
100
AcDbEntity
  8
RACCORDO
100
AcDbLine
 62
7
  6
CONTINUOUS
 10
-7.9959441873
 20
-20.7113319946
 11
-7.9959441873
 21
-19.8
  0
LINE
  5
357
100
AcDbEntity
  8
IMPORT_IGES
100
AcDbLine
 62
7
  6
CONTINUOUS
 10
-7.925
 20
-10.0571442482
 11
-7.925
 21
-8.4822748922
  0
LINE
  5
358
100
AcDbEntity
  8
RACCORDO
100
AcDbLine
 62
7
  6
CONTINUOUS
 10
-7.9168217019
 20
-20.9959955457
 11
-7.9168217019
 21
-20.0275513222
  0
LINE
  5
359
100
AcDbEntity
  8
RACCORDO
100
AcDbLine
 62
7
  6
CONTINUOUS
 10
-7.9168217019
 20
20.0275513222
 11
-7.9168217019
 21
20.9959955457
  0
LINE
  5
35A
100
AcDbEntity
  8
IMPORT_IGES
100
AcDbLine
 62
253
  6
CONTINUOUS
 10
-7.8780016412
 20
10.3965277095
 11
-7.878
 21
8.0694332493
  0
LINE
  5
35B
100
AcDbEntity
  8
IMPORT_IGES
100
AcDbLine
 62
253
  6
CONTINUOUS
 10
-7.7250035661
 20
-8.3405803827
 11
-7.725005001
 21
-10.2911911821
  0
LINE
  5
35C
100
AcDbEntity
  8
IMPORT_IGES
100
AcDbLine
 62
7
  6
CONTINUOUS
 10
-7.678
 20
8.1485687875
 11
-7.678
 21
10.4672173642
  0
LINE
  5
35D
100
AcDbEntity
  8
RACCORDO
100
AcDbLine
 62
253
  6
CONTINUOUS
 10
-7.4872642439
 20
-13.8101132618
 11
-7.4872642439
 21
-13.4876443732
  0
LINE
  5
35E
100
AcDbEntity
  8
IMPORT_IGES
100
AcDbLine
 62
253
  6
CONTINUOUS
 10
-7.478
 20
8.2018593491
 11
-7.4780000072
 21
10.95
  0
LINE
  5
35F
100
AcDbEntity
  8
RACCORDO
100
AcDbLine
 62
7
  6
CONTINUOUS
 10
-7.2331782981
 20
-20.5829242832
 11
-7.2331782981
 21
-20.0275513222
  0
LINE
  5
360
100
AcDbEntity
  8
RACCORDO
100
AcDbLine
 62
7
  6
CONTINUOUS
 10
-7.2331782981
 20
20.0275513222
 11
-7.2331782981
 21
20.5829242832
  0
LINE
  5
361
100
AcDbEntity
  8
RACCORDO
100
AcDbLine
 62
253
  6
CONTINUOUS
 10
-7.1873099353
 20
-13.8126856306
 11
-7.1873099353
 21
-13.4876443732
  0
LINE
  5
362
100
AcDbEntity
  8
RACCORDO
100
AcDbLine
 62
7
  6
CONTINUOUS
 10
-7.175
 20
-13.4999543085
 11
-7.175
 21
-13.8188401295
  0
LINE
  5
363
100
AcDbEntity
  8
DRAFT
100
AcDbLine
 62
7
  6
CONTINUOUS
 10
-7.175
 20
-12.3
 11
-7.175
 21
-11.5836351166
  0
LINE
  5
364
100
AcDbEntity
  8
RACCORDO
100
AcDbLine
 62
7
  6
CONTINUOUS
 10
-7.175
 20
-11.5836351166
 11
-7.175
 21
-10.8365669523
  0
LINE
  5
365
100
AcDbEntity
  8
RACCORDO
100
AcDbLine
 62
7
  6
CONTINUOUS
 10
-7.1540558127
 20
-19.968583276
 11
-7.1540558127
 21
-19.8
  0
LINE
  5
366
100
AcDbEntity
  8
0
100
AcDbLine
 62
7
  6
CONTINUOUS
 10
-7.1348569743
 20
-17.1473642646
 11
-7.1348569743
 21
-19.3
  0
LINE
  5
367
100
AcDbEntity
  8
RACCORDO
100
AcDbLine
 62
7
  6
CONTINUOUS
 10
-7.1232213147
 20
19.9223308767
 11
-7.1232213147
 21
16.8065137252
  0
LINE
  5
368
100
AcDbEntity
  8
IMPORT_IGES
100
AcDbLine
 62
253
  6
CONTINUOUS
 10
-7.025
 20
0.545
 11
-7.025
 21
1.945
  0
LINE
  5
369
100
AcDbEntity
  8
IMPORT_IGES
100
AcDbLine
 62
7
  6
CONTINUOUS
 10
-8.6634829208
 20
7.7428932188
 11
-8.6610142604
 21
8.0964466088
  0
LINE
  5
36A
100
AcDbEntity
  8
RACCORDO
100
AcDbLine
 62
253
  6
CONTINUOUS
 10
-8.925
 20
-23.4104851482
 11
-8.929371834
 21
-23.8443375673
  0
LINE
  5
36B
100
AcDbEntity
  8
IMPORT_IGES
100
AcDbLine
 62
253
  6
CONTINUOUS
 10
-8.6610144018
 20
8.0964466092
 11
-8.6340625132
 21
9.6404371128
  0
LINE
  5
36C
100
AcDbEntity
  8
IMPORT_IGES
100
AcDbLine
 62
253
  6
CONTINUOUS
 10
-8.6696706022
 20
7.3884011851
 11
-8.6634829208
 21
7.7428932181
  0
LINE
  5
36D
100
AcDbEntity
  8
IMPORT_IGES
100
AcDbLine
 62
253
  6
CONTINUOUS
 10
-8.7970539415
 20
-0.0549999076
 11
-8.6850943144
 21
6.3952710701
  0
LWPOLYLINE
  5
36E
100
AcDbEntity
  8
RACCORDO
100
AcDbPolyline
 62
7
  6
CONTINUOUS
 90
34
 70
0
 10
-8.925
 20
-24.2500042308
 10
-8.9252831502
 20
-24.261899516
 10
-8.9261319658
 20
-24.2737678556
 10
-8.9275445259
 20
-24.2855823661
 10
-8.9295176323
 20
-24.2973162875
 10
-8.9320468183
 20
-24.3089430388
 10
-8.9351263583
 20
-24.320436279
 10
-8.9387492787
 20
-24.3317699738
 10
-8.9429073742
 20
-24.3429184493
 10
-8.9475912278
 20
-24.3538564463
 10
-8.9527902312
 20
-24.3645591876
 10
-8.9584926084
 20
-24.3750024283
 10
-8.9646854419
 20
-24.3851625059
 10
-8.9713547045
 20
-24.3950164051
 10
-8.9784852893
 20
-24.4045418038
 10
-8.9860610411
 20
-24.4137171191
 10
-8.9940647995
 20
-24.4225215661
 10
-9.0024784339
 20
-24.4309352005
 10
-9.0112828809
 20
-24.4389389589
 10
-9.0204581962
 20
-24.4465147107
 10
-9.0299835949
 20
-24.4536452955
 10
-9.0398374941
 20
-24.4603145581
 10
-9.0499975717
 20
-24.4665073916
 10
-9.0604408124
 20
-24.4722097688
 10
-9.0711435537
 20
-24.4774087722
 10
-9.0820815507
 20
-24.4820926258
 10
-9.0932300262
 20
-24.4862507213
 10
-9.104563721
 20
-24.4898736417
 10
-9.1160569612
 20
-24.4929531817
 10
-9.1276837125
 20
-24.4954823677
 10
-9.1394176339
 20
-24.4974554741
 10
-9.1512321444
 20
-24.4988680342
 10
-9.163100484
 20
-24.4997168498
 10
-9.1749957692
 20
-24.5
  0
LWPOLYLINE
  5
36F
100
AcDbEntity
  8
0
100
AcDbPolyline
 62
7
  6
CONTINUOUS
 90
67
 70
0
 10
-8.0151430257
 20
-17.1473642646
 10
-8.0146302663
 20
-17.1259015607
 10
-8.0131165962
 20
-17.1045779493
 10
-8.0106020154
 20
-17.0833934305
 10
-8.0070737998
 20
-17.0622921631
 10
-8.0025446736
 20
-17.0413299883
 10
-7.9970528092
 20
-17.0206744296
 10
-7.9905950829
 20
-17.0003416951
 10
-7.9831746186
 20
-16.9803155769
 10
-7.97483896
 20
-16.9607149742
 10
-7.9655733056
 20
-16.9415277614
 10
-7.955392457
 20
-16.9227660642
 10
-7.9443883626
 20
-16.9045851585
 10
-7.9325688729
 20
-16.8870095678
 10
-7.9199261375
 20
-16.8700147687
 10
-7.9065285532
 20
-16.8536824674
 10
-7.8923533649
 20
-16.8379975206
 10
-7.8774233279
 20
-16.8229750716
 10
-7.8618751045
 20
-16.8087422555
 10
-7.8457278264
 20
-16.7953242537
 10
-7.828962362
 20
-16.7826958848
 10
-7.8116579799
 20
-16.7709087402
 10
-7.7937871059
 20
-16.7599523211
 10
-7.7753773142
 20
-16.7498371262
 10
-7.7565905959
 20
-16.7406462429
 10
-7.7374493227
 20
-16.7323974148
 10
-7.7179311229
 20
-16.7250728982
 10
-7.6981308725
 20
-16.7187025494
 10
-7.6780280445
 20
-16.713285299
 10
-7.657643166
 20
-16.7088222164
 10
-7.6371326944
 20
-16.7053463663
 10
-7.6165069754
 20
-16.7028666925
 10
-7.5957556633
 20
-16.7013742512
 10
-7.5750041786
 20
-16.7008752761
 10
-7.5542523632
 20
-16.7013739204
 10
-7.5335003752
 20
-16.702866031
 10
-7.5128741094
 20
-16.7053453822
 10
-7.4923634174
 20
-16.7088209234
 10
-7.4719784476
 20
-16.7132837052
 10
-7.4518755396
 20
-16.7187006542
 10
-7.4320752606
 20
-16.7250706503
 10
-7.4125570435
 20
-16.7323948136
 10
-7.3934155269
 20
-16.7406434299
 10
-7.3746280484
 20
-16.7498344259
 10
-7.3562172705
 20
-16.7599498749
 10
-7.3383458189
 20
-16.7709062827
 10
-7.3210417899
 20
-16.7826927619
 10
-7.3042770871
 20
-16.7953201999
 10
-7.2881300469
 20
-16.8087377646
 10
-7.2725808699
 20
-16.8229712622
 10
-7.2576493555
 20
-16.8379948865
 10
-7.2434732382
 20
-16.8536803863
 10
-7.230075974
 20
-16.8700117754
 10
-7.217434107
 20
-16.88700504
 10
-7.2056150042
 20
-16.9045798873
 10
-7.1946101787
 20
-16.922761853
 10
-7.1844281174
 20
-16.9415254015
 10
-7.1751616481
 20
-16.9607136338
 10
-7.1668260728
 20
-16.9803133499
 10
-7.1594060895
 20
-17.0003377497
 10
-7.1529486188
 20
-17.0206695343
 10
-7.147456465
 20
-17.0413257692
 10
-7.1429268238
 20
-17.0622893888
 10
-7.1393982033
 20
-17.0833918978
 10
-7.1368834396
 20
-17.1045771308
 10
-7.1353696966
 20
-17.125901253
 10
-7.1348569743
 20
-17.1473642646
  0
LWPOLYLINE
  5
370
100
AcDbEntity
  8
RACCORDO
100
AcDbPolyline
 62
7
  6
CONTINUOUS
 90
67
 70
0
 10
-7.1232213147
 20
16.8065137252
 10
-7.1237532469
 20
16.7844342482
 10
-7.1253119905
 20
16.7625115112
 10
-7.1278975454
 20
16.7407455142
 10
-7.1315221572
 20
16.7190853843
 10
-7.1361735803
 20
16.6975819945
 10
-7.1418150782
 20
16.6763879635
 10
-7.1484540198
 20
16.6555067062
 10
-7.1560830361
 20
16.6349348077
 10
-7.1646432833
 20
16.6148146424
 10
-7.1741397471
 20
16.5951521798
 10
-7.1845674419
 20
16.5759414502
 10
-7.1958525668
 20
16.5573069193
 10
-7.2080047666
 20
16.5392482489
 10
-7.2210143966
 20
16.5217657771
 10
-7.2347787222
 20
16.5049849836
 10
-7.2492949607
 20
16.4889190733
 10
-7.2645658948
 20
16.4735548414
 10
-7.2804971387
 20
16.4589781527
 10
-7.2971027323
 20
16.4451861472
 10
-7.3143686358
 20
16.4321816851
 10
-7.3321583431
 20
16.4200592119
 10
-7.3504618101
 20
16.4088328227
 10
-7.3692890809
 20
16.3984884224
 10
-7.3885337826
 20
16.3890781722
 10
-7.4082111741
 20
16.3806017527
 10
-7.4283059965
 20
16.3730594833
 10
-7.4486660996
 20
16.3665044834
 10
-7.46928126
 20
16.3609467581
 10
-7.4901617012
 20
16.3563763022
 10
-7.5111859437
 20
16.3528162195
 10
-7.5323614282
 20
16.3502706391
 10
-7.5536807141
 20
16.3487354319
 10
-7.575
 20
16.3482213147
 10
-7.5963192859
 20
16.3487354319
 10
-7.6176385718
 20
16.3502706391
 10
-7.6388140563
 20
16.3528162195
 10
-7.6598382988
 20
16.3563763022
 10
-7.68071874
 20
16.3609467581
 10
-7.7013339004
 20
16.3665044834
 10
-7.7216940035
 20
16.3730594833
 10
-7.7417888259
 20
16.3806017527
 10
-7.7614662174
 20
16.3890781722
 10
-7.7807109191
 20
16.3984884224
 10
-7.7995381899
 20
16.4088328227
 10
-7.8178416569
 20
16.4200592119
 10
-7.8356313642
 20
16.4321816851
 10
-7.8528972677
 20
16.4451861472
 10
-7.8695028613
 20
16.4589781527
 10
-7.8854341052
 20
16.4735548414
 10
-7.9007050393
 20
16.4889190733
 10
-7.9152212778
 20
16.5049849836
 10
-7.9289856034
 20
16.5217657771
 10
-7.9419952334
 20
16.5392482489
 10
-7.9541474332
 20
16.5573069193
 10
-7.9654325581
 20
16.5759414502
 10
-7.9758602529
 20
16.5951521798
 10
-7.9853567167
 20
16.6148146424
 10
-7.9939169639
 20
16.6349348077
 10
-8.0015459802
 20
16.6555067062
 10
-8.0081849218
 20
16.6763879635
 10
-8.0138264197
 20
16.6975819945
 10
-8.0184778428
 20
16.7190853843
 10
-8.0221024546
 20
16.7407455142
 10
-8.0246880095
 20
16.7625115112
 10
-8.0262467531
 20
16.7844342482
 10
-8.0267786853
 20
16.8065137252
  0
LWPOLYLINE
  5
371
100
AcDbEntity
  8
RACCORDO
100
AcDbPolyline
 62
253
  6
CONTINUOUS
 90
31
 70
0
 10
-8.929371834
 20
-24.2456323968
 10
-8.929715023
 20
-24.2587187509
 10
-8.930742766
 20
-24.2717692492
 10
-8.9324522491
 20
-24.2847481067
 10
-8.9348387919
 20
-24.2976197463
 10
-8.937895853
 20
-24.3103488602
 10
-8.9416150425
 20
-24.3229005077
 10
-8.9459861576
 20
-24.3352402638
 10
-8.9509972131
 20
-24.347334301
 10
-8.9566344613
 20
-24.3591494467
 10
-8.9628824405
 20
-24.3706533025
 10
-8.9697240163
 20
-24.3818143284
 10
-8.9771404232
 20
-24.3926019187
 10
-8.9851113313
 20
-24.402986508
 10
-8.9936148729
 20
-24.4129396114
 10
-9.002627692
 20
-24.4224339046
 10
-9.0121250264
 20
-24.4314433264
 10
-9.0220808636
 20
-24.4399432233
 10
-9.0324679894
 20
-24.4479103656
 10
-9.0432580686
 20
-24.4553229956
 10
-9.054421387
 20
-24.4621606774
 10
-9.0659269875
 20
-24.4684044791
 10
-9.0777430657
 20
-24.4740372277
 10
-9.0898374218
 20
-24.4790436576
 10
-9.1021772258
 20
-24.4834102087
 10
-9.1147314103
 20
-24.4871256484
 10
-9.1274628755
 20
-24.4901787618
 10
-9.1403285943
 20
-24.492559892
 10
-9.1532903689
 20
-24.4942634962
 10
-9.1663152632
 20
-24.4952867588
 10
-9.1793676032
 20
-24.495628166
  0
LINE
  5
372
100
AcDbEntity
  8
RACCORDO
100
AcDbLine
 62
253
  6
CONTINUOUS
 10
-7.9168217019
 20
20.0275513222
 11
-8.0267786853
 21
16.8065137252
  0
LWPOLYLINE
  5
373
100
AcDbEntity
  8
IMPORT_IGES
100
AcDbPolyline
 62
253
  6
CONTINUOUS
 90
5
 70
0
 10
-7.925
 20
-10.0215376376
 10
-7.9266724706
 20
-10.0421508702
 10
-7.9316389285
 20
-10.0623499873
 10
-7.9397829774
 20
-10.0818048116
 10
-7.9508734889
 20
-10.1001125916
  0
LWPOLYLINE
  5
374
100
AcDbEntity
  8
IMPORT_IGES
100
AcDbPolyline
 62
7
  6
CONTINUOUS
 90
14
 70
0
 10
-7.9249968274
 20
-8.480809703
 10
-7.9248372845
 20
-8.4790763907
 10
-7.9242995524
 20
-8.4759898339
 10
-7.9231038592
 20
-8.471744807
 10
-7.9206167452
 20
-8.4658260378
 10
-7.9167892754
 20
-8.4590845116
 10
-7.9114326504
 20
-8.4516456081
 10
-7.9039806967
 20
-8.4432547129
 10
-7.8943763674
 20
-8.4343653855
 10
-7.8826720395
 20
-8.4253721702
 10
-7.8686806674
 20
-8.4164490866
 10
-7.8521764992
 20
-8.4077976474
 10
-7.8333026485
 20
-8.3998082438
 10
-7.8124136803
 20
-8.3928916726
  0
LWPOLYLINE
  5
375
100
AcDbEntity
  8
IMPORT_IGES
100
AcDbPolyline
 62
253
  6
CONTINUOUS
 90
10
 70
0
 10
-8.125
 20
-8.6420020066
 10
-8.1206277255
 20
-8.6048034418
 10
-8.1123596655
 20
-8.5701289095
 10
-8.1001958199
 20
-8.5379784098
 10
-8.0838844911
 20
-8.508507501
 10
-8.0636773766
 20
-8.4815606248
 10
-8.0403295696
 20
-8.4566711058
 10
-8.0137735958
 20
-8.4334901921
 10
-7.9840769293
 20
-8.4123666357
 10
-7.9521970861
 20
-8.3938800171
  0
LWPOLYLINE
  5
376
100
AcDbEntity
  8
ASSI
100
AcDbPolyline
 62
7
  6
CONTINUOUS
 90
17
 70
0
 10
-4.175
 20
23.7511422903
 10
-4.1753322899
 20
23.7484239112
 10
-4.1763412067
 20
23.7450420801
 10
-4.1780441065
 20
23.7409967968
 10
-4.1804584565
 20
23.7363008225
 10
-4.1835988805
 20
23.7309413961
 10
-4.187474165
 20
23.7248802347
 10
-4.192093142
 20
23.7181121007
 10
-4.1974652334
 20
23.7106422318
 10
-4.2035942983
 20
23.7024480575
 10
-4.2104689952
 20
23.6935501651
 10
-4.2181047436
 20
23.6839279673
 10
-4.2265547325
 20
23.6734971318
 10
-4.2358381101
 20
23.6622548999
 10
-4.2459578944
 20
23.6502040303
 10
-4.2569598219
 20
23.6372684665
 10
-4.2688557177
 20
23.6234472841
  0
LWPOLYLINE
  5
377
100
AcDbEntity
  8
IMPORT_IGES
100
AcDbPolyline
 62
253
  6
CONTINUOUS
 90
13
 70
0
 10
-7.9250000485
 20
-1.0096539321
 10
-7.9266739682
 20
-1.0202341318
 10
-7.93164023
 20
-1.0306506586
 10
-7.9397832581
 20
-1.0406842151
 10
-7.9508731302
 20
-1.0501272818
 10
-7.9647332302
 20
-1.0588843669
 10
-7.9813829055
 20
-1.0669370759
 10
-8.000767735
 20
-1.0741650726
 10
-8.0225341964
 20
-1.080353188
 10
-8.0462608157
 20
-1.0853338561
 10
-8.0715221658
 20
-1.08898773
 10
-8.0979234815
 20
-1.0912291618
 10
-8.1249999999
 20
-1.0919877028
  0
LWPOLYLINE
  5
378
100
AcDbEntity
  8
IMPORT_IGES
100
AcDbPolyline
 62
253
  6
CONTINUOUS
 90
19
 70
0
 10
-8.0724980996
 20
-0.2710854105
 10
-8.07912836
 20
-0.2843720104
 10
-8.0851157182
 20
-0.297001862
 10
-8.0904601745
 20
-0.3089745785
 10
-8.0950554793
 20
-0.3201194809
 10
-8.099007882
 20
-0.3306069303
 10
-8.1026361307
 20
-0.3409480627
 10
-8.1060236578
 20
-0.3512619807
 10
-8.1090870308
 20
-0.3614291404
 10
-8.1118946999
 20
-0.3716024207
 10
-8.1144819328
 20
-0.3819214886
 10
-8.1168134617
 20
-0.3922460477
 10
-8.1188519331
 20
-0.4023091694
 10
-8.120579871
 20
-0.4121642336
 10
-8.1220147514
 20
-0.4217578364
 10
-8.123171649
 20
-0.4306636119
 10
-8.1240555888
 20
-0.438740006
 10
-8.1246615458
 20
-0.4461297611
 10
-8.12498952
 20
-0.4528334326
  0
LWPOLYLINE
  5
379
100
AcDbEntity
  8
IMPORT_IGES
100
AcDbPolyline
 62
253
  6
CONTINUOUS
 90
13
 70
0
 10
6.2037955869
 20
10.9499974091
 10
6.1990033893
 20
10.9483923246
 10
6.1942142099
 20
10.9435008113
 10
6.1895547975
 20
10.9353415953
 10
6.1852061351
 20
10.9242861769
 10
6.1812106168
 20
10.9106058452
 10
6.177501904
 20
10.894034525
 10
6.1741721745
 20
10.8747431385
 10
6.1713386012
 20
10.8532570471
 10
6.1690253908
 20
10.8295691956
 10
6.1673090661
 20
10.8040867242
 10
6.1662625597
 20
10.7777157085
 10
6.1658975954
 20
10.7512228488
  0
LWPOLYLINE
  5
37A
100
AcDbEntity
  8
IMPORT_IGES
100
AcDbPolyline
 62
253
  6
CONTINUOUS
 90
3
 70
0
 10
-7.8059040964
 20
-8.3473168656
 10
-7.7660997355
 20
-8.3425698851
 10
-7.7250029293
 20
-8.3405804277
  0
LINE
  5
37B
100
AcDbEntity
  8
IMPORT_IGES
100
AcDbLine
 62
7
  6
CONTINUOUS
 10
3.4918419728
 20
-8.3835896712
 11
3.5167652349
 21
-8.3813216186
  0
LWPOLYLINE
  5
37C
100
AcDbEntity
  8
IMPORT_IGES
100
AcDbPolyline
 62
253
  6
CONTINUOUS
 90
13
 70
0
 10
-8.1249999671
 20
-8.6420020066
 10
-8.0991893026
 20
-8.6406663084
 10
-8.0738971938
 20
-8.636699918
 10
-8.049537065
 20
-8.630195792
 10
-8.0266132241
 20
-8.6213385165
 10
-8.0053564857
 20
-8.6102696141
 10
-7.9858094817
 20
-8.5969729731
 10
-7.9682638616
 20
-8.5814916084
 10
-7.9532424901
 20
-8.5641081862
 10
-7.9411520943
 20
-8.5451592578
 10
-7.9322824015
 20
-8.5249845581
 10
-7.9268413568
 20
-8.5038993755
 10
-7.925
 20
-8.4822748922
  0
LWPOLYLINE
  5
37D
100
AcDbEntity
  8
IMPORT_IGES
100
AcDbPolyline
 62
253
  6
CONTINUOUS
 90
13
 70
0
 10
3.1378962508
 20
-7.622413084
 10
3.1642529971
 20
-7.6211377719
 10
3.1902120064
 20
-7.6170855618
 10
3.2153133274
 20
-7.6103077736
 10
3.2392471042
 20
-7.6008395161
 10
3.2614160625
 20
-7.5888654339
 10
3.2810661498
 20
-7.5748621406
 10
3.2977778127
 20
-7.5593735723
 10
3.3116460681
 20
-7.5425861367
 10
3.3227574489
 20
-7.52450405
 10
3.3309642365
 20
-7.5052957208
 10
3.3360479544
 20
-7.4853740458
 10
3.3379148685
 20
-7.4650870917
  0
LWPOLYLINE
  5
37E
100
AcDbEntity
  8
IMPORT_IGES
100
AcDbPolyline
 62
253
  6
CONTINUOUS
 90
8
 70
0
 10
3.4776328103
 20
-8.181501764
 10
3.4585472466
 20
-8.1824187905
 10
3.4397996988
 20
-8.1852637603
 10
3.4216924419
 20
-8.1899832617
 10
3.4045867786
 20
-8.1964622612
 10
3.3886733295
 20
-8.2046067582
 10
3.3740239786
 20
-8.2144154651
 10
3.3608633713
 20
-8.2258481306
  0
LWPOLYLINE
  5
37F
100
AcDbEntity
  8
IMPORT_IGES
100
AcDbPolyline
 62
253
  6
CONTINUOUS
 90
13
 70
0
 10
3.4761435655
 20
-8.343813051
 10
3.4568509117
 20
-8.3446967782
 10
3.4379485116
 20
-8.3475418698
 10
3.4197423488
 20
-8.3522785884
 10
3.4026072123
 20
-8.3587697238
 10
3.3867102222
 20
-8.36690948
 10
3.3720749834
 20
-8.3767104332
 10
3.3589146967
 20
-8.3881427763
 10
3.3476172147
 20
-8.40100023
 10
3.3384828106
 20
-8.4150382698
 10
3.3317268235
 20
-8.4300090488
 10
3.3275047968
 20
-8.445681552
 10
3.3259454464
 20
-8.4617837821
  0
LWPOLYLINE
  5
380
100
AcDbEntity
  8
IMPORT_IGES
100
AcDbPolyline
 62
7
  6
CONTINUOUS
 90
13
 70
0
 10
3.4792761933
 20
-8.0830942709
 10
3.4597030825
 20
-8.0837965114
 10
3.4405015359
 20
-8.0861820365
 10
3.4219958896
 20
-8.090196752
 10
3.4045055182
 20
-8.0957409287
 10
3.3883084407
 20
-8.1027191581
 10
3.3736447762
 20
-8.1110512251
 10
3.3607624321
 20
-8.1205842488
 10
3.3498741262
 20
-8.1311471277
 10
3.341143968
 20
-8.1426153725
 10
3.3347293205
 20
-8.1548098127
 10
3.3307616603
 20
-8.1674921086
 10
3.3293242501
 20
-8.1804299495
  0
LINE
  5
381
100
AcDbEntity
  8
IMPORT_IGES
100
AcDbLine
 62
7
  6
CONTINUOUS
 10
3.5167652349
 20
-8.3813216186
 11
3.5344838091
 21
-8.3808530221
  0
LINE
  5
382
100
AcDbEntity
  8
RACCORDO
100
AcDbLine
 62
7
  6
CONTINUOUS
 10
8.975
 20
-7.2776691233
 11
8.5372871968
 21
-7.2881641073
  0
LWPOLYLINE
  5
383
100
AcDbEntity
  8
IMPORT_IGES
100
AcDbPolyline
 62
253
  6
CONTINUOUS
 90
13
 70
0
 10
-8.6623573621
 20
-7.8451539719
 10
-8.7011114514
 20
-7.8455030495
 10
-8.7390565075
 20
-7.8452155447
 10
-8.7755740584
 20
-7.844304285
 10
-8.8099033956
 20
-7.842801845
 10
-8.8417155098
 20
-7.8407368584
 10
-8.8709780859
 20
-7.8381032355
 10
-8.8972639525
 20
-7.8349024062
 10
-8.9197826436
 20
-7.8311880701
 10
-8.937924996
 20
-7.8270291684
 10
-8.9512582463
 20
-7.8224982516
 10
-8.959472425
 20
-7.8176639632
 10
-8.9623117233
 20
-7.8126091373
  0
LWPOLYLINE
  5
384
100
AcDbEntity
  8
IMPORT_IGES
100
AcDbPolyline
 62
253
  6
CONTINUOUS
 90
10
 70
0
 10
3.5344903074
 20
-8.3405803557
 10
3.5279156326
 20
-8.3406181796
 10
3.5213564566
 20
-8.3407368835
 10
3.5148127793
 20
-8.3409364676
 10
3.5082746979
 20
-8.3412176547
 10
3.5017521152
 20
-8.3415797219
 10
3.4952747403
 20
-8.3420205003
 10
3.4888524764
 20
-8.3425392671
 10
3.4824754203
 20
-8.3431367452
 10
3.4761435721
 20
-8.3438129345
  0
LINE
  5
385
100
AcDbEntity
  8
IMPORT_IGES
100
AcDbLine
 62
7
  6
CONTINUOUS
 10
6.3749999999
 20
-8.3808532807
 11
3.5344854821
 21
-8.3808532807
  0
LINE
  5
386
100
AcDbEntity
  8
IMPORT_IGES
100
AcDbLine
 62
7
  6
CONTINUOUS
 10
-4.8844905982
 20
-8.3808532807
 11
-7.7250035661
 21
-8.3808532807
  0
LINE
  5
387
100
AcDbEntity
  8
RACCORDO
100
AcDbLine
 62
7
  6
CONTINUOUS
 10
7.6029315309
 20
-8.35
 11
8.975
 21
-8.35
  0
LINE
  5
388
100
AcDbEntity
  8
RACCORDO
100
AcDbLine
 62
7
  6
CONTINUOUS
 10
-8.9529315309
 20
-8.35
 11
-10.325
 21
-8.35
  0
LINE
  5
389
100
AcDbEntity
  8
IMPORT_IGES
100
AcDbLine
 62
253
  6
CONTINUOUS
 10
-7.7250029293
 20
-8.3405804277
 11
-4.8844905995
 21
-8.3405803827
  0
LINE
  5
38A
100
AcDbEntity
  8
IMPORT_IGES
100
AcDbLine
 62
253
  6
CONTINUOUS
 10
3.5344903074
 20
-8.3405803557
 11
6.3749991095
 21
-8.3405803359
  0
LINE
  5
38B
100
AcDbEntity
  8
IMPORT_IGES
100
AcDbLine
 62
253
  6
CONTINUOUS
 10
3.4776328089
 20
-8.1815015967
 11
7.3100090078
 21
-8.181503443
  0
LINE
  5
38C
100
AcDbEntity
  8
IMPORT_IGES
100
AcDbLine
 62
253
  6
CONTINUOUS
 10
-4.8276247022
 20
-8.181501341
 11
-8.6599870784
 21
-8.1815039995
  0
LINE
  5
38D
100
AcDbEntity
  8
IMPORT_IGES
100
AcDbLine
 62
7
  6
CONTINUOUS
 10
-5.225
 20
-8.0830938817
 11
-4.8293131955
 21
-8.0830946273
  0
LINE
  5
38E
100
AcDbEntity
  8
IMPORT_IGES
100
AcDbLine
 62
7
  6
CONTINUOUS
 10
3.875
 20
-8.0830940215
 11
3.479313196
 21
-8.0830942548
  0
LINE
  5
38F
100
AcDbEntity
  8
IMPORT_IGES
100
AcDbLine
 62
7
  6
CONTINUOUS
 10
6.7050828182
 20
-7.9542999891
 11
4.9449171818
 21
-7.9542999891
  0
LINE
  5
390
100
AcDbEntity
  8
IMPORT_IGES
100
AcDbLine
 62
7
  6
CONTINUOUS
 10
-6.2949171818
 20
-7.9542999891
 11
-8.0550828182
 21
-7.9542999891
  0
LINE
  5
391
100
AcDbEntity
  8
IMPORT_IGES
100
AcDbLine
 62
253
  6
CONTINUOUS
 10
7.3123573988
 20
-7.8451539653
 11
6.775
 21
-7.8451539698
  0
LINE
  5
392
100
AcDbEntity
  8
IMPORT_IGES
100
AcDbLine
 62
253
  6
CONTINUOUS
 10
-8.125
 20
-7.8451539777
 11
-8.6623574003
 21
-7.8451539726
  0
LINE
  5
393
100
AcDbEntity
  8
IMPORT_IGES
100
AcDbLine
 62
253
  6
CONTINUOUS
 10
4.875
 20
-7.8451319631
 11
4.0481303335
 21
-7.8451457132
  0
LINE
  5
394
100
AcDbEntity
  8
IMPORT_IGES
100
AcDbLine
 62
253
  6
CONTINUOUS
 10
-6.225
 20
-7.8451489625
 11
-5.3981303336
 21
-7.8451552779
  0
LINE
  5
395
100
AcDbEntity
  8
IMPORT_IGES
100
AcDbLine
 62
253
  6
CONTINUOUS
 10
-4.4879292279
 20
-7.6224178635
 11
3.1379292811
 21
-7.6224132299
  0
LINE
  5
396
100
AcDbEntity
  8
RACCORDO
100
AcDbLine
 62
7
  6
CONTINUOUS
 10
8.2553794106
 20
-7.2898867382
 11
7.6214358767
 21
-7.2898867382
  0
LINE
  5
397
100
AcDbEntity
  8
RACCORDO
100
AcDbLine
 62
7
  6
CONTINUOUS
 10
-8.9714358767
 20
-7.2898867382
 11
-9.6053794106
 21
-7.2898867382
  0
LINE
  5
398
100
AcDbEntity
  8
DRAFT
100
AcDbLine
 62
7
  6
CONTINUOUS
 10
-10.1696499221
 20
-7.2
 11
-8.9730048555
 21
-7.2
  0
LINE
  5
399
100
AcDbEntity
  8
DRAFT
100
AcDbLine
 62
7
  6
CONTINUOUS
 10
8.8196499221
 20
-7.2
 11
7.6230048555
 21
-7.2
  0
LWPOLYLINE
  5
39A
100
AcDbEntity
  8
IMPORT_IGES
100
AcDbPolyline
 62
253
  6
CONTINUOUS
 90
10
 70
0
 10
-4.8844905995
 20
-8.3405803827
 10
-4.8779474105
 20
-8.3406170632
 10
-4.8714116726
 20
-8.3407348913
 10
-4.864883386
 20
-8.340933867
 10
-4.8583528618
 20
-8.3412147043
 10
-4.8518297889
 20
-8.3415766893
 10
-4.8453432334
 20
-8.3420176799
 10
-4.8389028843
 20
-8.3425369622
 10
-4.8324990526
 20
-8.3431352501
 10
-4.8261317385
 20
-8.3438125438
  0
LWPOLYLINE
  5
39B
100
AcDbEntity
  8
IMPORT_IGES
100
AcDbPolyline
 62
253
  6
CONTINUOUS
 90
11
 70
0
 10
3.5258301237
 20
-8.4751640381
 10
3.4999990626
 20
-8.4749533788
 10
3.4746951288
 20
-8.4749454415
 10
3.4503314999
 20
-8.4751380041
 10
3.4274185234
 20
-8.4755229494
 10
3.4061764568
 20
-8.4760923007
 10
3.3866264516
 20
-8.4768483893
 10
3.3690538891
 20
-8.4777916518
 10
3.3539983059
 20
-8.4789079099
 10
3.3418797777
 20
-8.4801784191
 10
3.3376980967
 20
-8.480838374
  0
LWPOLYLINE
  5
39C
100
AcDbEntity
  8
IMPORT_IGES
100
AcDbPolyline
 62
253
  6
CONTINUOUS
 90
13
 70
0
 10
7.312357413
 20
-7.8451540964
 10
7.350923033
 20
-7.8455030168
 10
7.3887573473
 20
-7.8452204676
 10
7.425242314
 20
-7.8443157027
 10
7.459632537
 20
-7.8428165569
 10
7.4915606122
 20
-7.8407488564
 10
7.5209202394
 20
-7.8381094068
 10
7.5472728598
 20
-7.8349012648
 10
7.5698360377
 20
-7.8311778612
 10
7.5879847266
 20
-7.8270127969
 10
7.6012968562
 20
-7.8224815734
 10
7.609485254
 20
-7.8176525612
 10
7.6123117233
 20
-7.8126091381
  0
LWPOLYLINE
  5
39D
100
AcDbEntity
  8
IMPORT_IGES
100
AcDbPolyline
 62
7
  6
CONTINUOUS
 90
5
 70
0
 10
6.3749999482
 20
-8.380851355
 10
6.38279188
 20
-8.3809421833
 10
6.4077268652
 20
-8.3824791553
 10
6.4320041902
 20
-8.3858493842
 10
6.4550620629
 20
-8.3908798701
  0
LWPOLYLINE
  5
39E
100
AcDbEntity
  8
IMPORT_IGES
100
AcDbPolyline
 62
7
  6
CONTINUOUS
 90
3
 70
0
 10
-4.8844906466
 20
-8.3808520753
 10
-4.8728987556
 20
-8.381051574
 10
-4.8509847362
 20
-8.3825380693
  0
LINE
  5
39F
100
AcDbEntity
  8
RACCORDO
100
AcDbLine
 62
7
  6
CONTINUOUS
 10
-9.8872871968
 20
-7.2881641073
 11
-10.325
 21
-7.2776691233
  0
LWPOLYLINE
  5
3A0
100
AcDbEntity
  8
IMPORT_IGES
100
AcDbPolyline
 62
7
  6
CONTINUOUS
 90
13
 70
0
 10
-4.8292796108
 20
-8.0830944316
 10
-4.8097007713
 20
-8.0837977383
 10
-4.7904947956
 20
-8.086184841
 10
-4.7719861659
 20
-8.0902013073
 10
-4.7544944935
 20
-8.0957467317
 10
-4.7382974612
 20
-8.102725677
 10
-4.7236344614
 20
-8.1110587487
 10
-4.7107527747
 20
-8.1205940061
 10
-4.6998657216
 20
-8.1311592929
 10
-4.6911380327
 20
-8.142627846
 10
-4.6847263989
 20
-8.1548195006
 10
-4.680761046
 20
-8.1674965445
 10
-4.6793242378
 20
-8.1804309723
  0
LWPOLYLINE
  5
3A1
100
AcDbEntity
  8
IMPORT_IGES
100
AcDbPolyline
 62
253
  6
CONTINUOUS
 90
13
 70
0
 10
-8.6598772364
 20
-8.181503282
 10
-8.6981841385
 20
-8.179797508
 10
-8.735775797
 20
-8.1742152234
 10
-8.7720464738
 20
-8.1648752703
 10
-8.8062650177
 20
-8.1520238567
 10
-8.838070427
 20
-8.1358572911
 10
-8.8673589235
 20
-8.1163666524
 10
-8.8937019942
 20
-8.0936140376
 10
-8.9163315395
 20
-8.0680070655
 10
-8.9346318561
 20
-8.0400629897
 10
-8.9481859397
 20
-8.0102903636
 10
-8.9567092336
 20
-7.9791396084
 10
-8.9599633178
 20
-7.9471491975
  0
LWPOLYLINE
  5
3A2
100
AcDbEntity
  8
IMPORT_IGES
100
AcDbPolyline
 62
253
  6
CONTINUOUS
 90
13
 70
0
 10
-4.8258963433
 20
-8.3438016609
 10
-4.8068458656
 20
-8.3446928184
 10
-4.7880988908
 20
-8.3475109966
 10
-4.7699596684
 20
-8.3522122694
 10
-4.7527558275
 20
-8.3587075988
 10
-4.7367300591
 20
-8.3669010171
 10
-4.7220614584
 20
-8.3767234339
 10
-4.7090301535
 20
-8.3880311691
 10
-4.6978715313
 20
-8.4006698178
 10
-4.6887435209
 20
-8.4145682431
 10
-4.6818863687
 20
-8.429569988
 10
-4.6775566634
 20
-8.4454015212
 10
-4.6759453436
 20
-8.4617923
  0
LWPOLYLINE
  5
3A3
100
AcDbEntity
  8
IMPORT_IGES
100
AcDbPolyline
 62
253
  6
CONTINUOUS
 90
13
 70
0
 10
6.7749999999
 20
-8.6420018257
 10
6.7494560413
 20
-8.6406937073
 10
6.7243209066
 20
-8.6367887762
 10
6.7000073342
 20
-8.6303480795
 10
6.676999164
 20
-8.6215120464
 10
6.6555799464
 20
-8.6104024716
 10
6.635893658
 20
-8.5970379119
 10
6.6182457251
 20
-8.5814731413
 10
6.6031540116
 20
-8.5639894201
 10
6.5910544978
 20
-8.5449767784
 10
6.5822200456
 20
-8.5248045923
 10
6.5768209783
 20
-8.5037799556
 10
6.5749999999
 20
-8.4822750741
  0
LWPOLYLINE
  5
3A4
100
AcDbEntity
  8
IMPORT_IGES
100
AcDbPolyline
 62
253
  6
CONTINUOUS
 90
8
 70
0
 10
-4.7154556842
 20
-8.4780275707
 10
-4.7321021262
 20
-8.4770634089
 10
-4.7515044583
 20
-8.4762502145
 10
-4.7733016993
 20
-8.4756158798
 10
-4.7970485856
 20
-8.475180278
 10
-4.822307419
 20
-8.4749552981
 10
-4.8486898295
 20
-8.4749480632
 10
-4.875730978
 20
-8.4751628453
  0
LINE
  5
3A5
100
AcDbEntity
  8
IMPORT_IGES
100
AcDbLine
 62
253
  6
CONTINUOUS
 10
6.3749991095
 20
-8.3405803359
 11
6.4192545051
 21
-8.3433907123
  0
LINE
  5
3A6
100
AcDbEntity
  8
IMPORT_IGES
100
AcDbLine
 62
253
  6
CONTINUOUS
 10
6.4192545051
 20
-8.3433907123
 11
6.4613196299
 21
-8.3488095358
  0
LWPOLYLINE
  5
3A7
100
AcDbEntity
  8
IMPORT_IGES
100
AcDbPolyline
 62
253
  6
CONTINUOUS
 90
9
 70
0
 10
-5.425
 20
-5.8638753356
 10
-5.4233275292
 20
-5.8644360734
 10
-5.4183610714
 20
-5.8649855454
 10
-5.4102170226
 20
-5.8655147701
 10
-5.3991265112
 20
-5.8660127913
 10
-5.3852667441
 20
-5.8664745945
 10
-5.3686175463
 20
-5.8668992537
 10
-5.3492327771
 20
-5.8672804328
 10
-5.3037397459
 20
-5.8678694368
  0
LWPOLYLINE
  5
3A8
100
AcDbEntity
  8
IMPORT_IGES
100
AcDbPolyline
 62
253
  6
CONTINUOUS
 90
10
 70
0
 10
-4.6566024459
 20
-6.1764277373
 10
-4.6647549398
 20
-6.1622977486
 10
-4.674523038
 20
-6.1483092844
 10
-4.6857086705
 20
-6.1347769067
 10
-4.6978752287
 20
-6.1221620776
 10
-4.7108645914
 20
-6.1105267686
 10
-4.7249488624
 20
-6.0996382362
 10
-4.7400609864
 20
-6.089655738
 10
-4.7556837752
 20
-6.0809864481
 10
-4.7714593881
 20
-6.0738233983
  0
LWPOLYLINE
  5
3A9
100
AcDbEntity
  8
IMPORT_IGES
100
AcDbPolyline
 62
253
  6
CONTINUOUS
 90
13
 70
0
 10
-6.424999996
 20
-4.7136529364
 10
-6.4233246567
 20
-4.7169011451
 10
-6.4183587973
 20
-4.720084619
 10
-6.4102170226
 20
-4.7231513346
 10
-6.3991279705
 20
-4.7260379287
 10
-6.3852676313
 20
-4.7287150762
 10
-6.3686175463
 20
-4.7311768821
 10
-6.3492327771
 20
-4.7333864937
 10
-6.3274663738
 20
-4.7352782135
 10
-6.3037397459
 20
-4.7368008202
 10
-6.2784782879
 20
-4.7379178269
 10
-6.2520767832
 20
-4.7386030461
 10
-6.225
 20
-4.7388349378
  0
LWPOLYLINE
  5
3AA
100
AcDbEntity
  8
IMPORT_IGES
100
AcDbPolyline
 62
7
  6
CONTINUOUS
 90
46
 70
0
 10
-5.3981303336
 20
-7.8451565739
 10
-5.3936423261
 20
-7.8571441225
 10
-5.3891228123
 20
-7.8686507345
 10
-5.3845717921
 20
-7.8796751497
 10
-5.3799720938
 20
-7.8901956805
 10
-5.375340889
 20
-7.9002351413
 10
-5.3707296931
 20
-7.9098596843
 10
-5.3661471138
 20
-7.9190739549
 10
-5.3615845434
 20
-7.9278773461
 10
-5.3570676731
 20
-7.9363272665
 10
-5.3526009917
 20
-7.9444301334
 10
-5.3481800106
 20
-7.9521847451
 10
-5.3438169549
 20
-7.9596360281
 10
-5.3395141715
 20
-7.9667901962
 10
-5.3352693136
 20
-7.9736465696
 10
-5.3310875666
 20
-7.9802387882
 10
-5.326970696
 20
-7.9865717297
 10
-5.3229169363
 20
-7.9926460137
 10
-5.3189261765
 20
-7.9984881046
 10
-5.3149997701
 20
-8.0041022677
 10
-5.3111363635
 20
-8.0094894809
 10
-5.3073317849
 20
-8.0146706225
 10
-5.3035868401
 20
-8.019650062
 10
-5.2999007233
 20
-8.0244283192
 10
-5.2962668445
 20
-8.0290199985
 10
-5.2926860046
 20
-8.0334293215
 10
-5.2891574027
 20
-8.0376566393
 10
-5.2856720464
 20
-8.041710435
 10
-5.2822314302
 20
-8.0455946933
 10
-5.2788340597
 20
-8.049309761
 10
-5.2754664595
 20
-8.0528585208
 10
-5.2721313044
 20
-8.0562455557
 10
-5.2688259195
 20
-8.0594704269
 10
-5.2655288048
 20
-8.0625285198
 10
-5.262239174
 20
-8.0654299808
 10
-5.2589578133
 20
-8.0681686651
 10
-5.2556655812
 20
-8.070715954
 10
-5.2523715809
 20
-8.0730800333
 10
-5.2490667092
 20
-8.0752570413
 10
-5.2457045145
 20
-8.0772010791
 10
-5.2422411672
 20
-8.0789320309
 10
-5.238720497
 20
-8.0804342964
 10
-5.2352275415
 20
-8.0816097602
 10
-5.2317906464
 20
-8.0824272617
 10
-5.2283814659
 20
-8.0829216697
 10
-5.225
 20
-8.0830938817
  0
LWPOLYLINE
  5
3AB
100
AcDbEntity
  8
IMPORT_IGES
100
AcDbPolyline
 62
253
  6
CONTINUOUS
 90
13
 70
0
 10
-4.6879148702
 20
-7.4650869514
 10
-4.6859225409
 20
-7.4860876844
 10
-4.6804589755
 20
-7.5067553488
 10
-4.6715956576
 20
-7.526697157
 10
-4.6593811705
 20
-7.5456662134
 10
-4.6440557116
 20
-7.5631883631
 10
-4.626227462
 20
-7.5786686515
 10
-4.6065837962
 20
-7.5917802388
 10
-4.5853566429
 20
-7.6026017997
 10
-4.5625499799
 20
-7.6112024956
 10
-4.5383768836
 20
-7.6174669032
 10
-4.513357604
 20
-7.6212267748
 10
-4.4878962593
 20
-7.6224123498
  0
LWPOLYLINE
  5
3AC
100
AcDbEntity
  8
IMPORT_IGES
100
AcDbPolyline
 62
253
  6
CONTINUOUS
 90
8
 70
0
 10
-4.677894374
 20
-8.2994960772
 10
-4.6793123023
 20
-8.2841805008
 10
-4.6831600687
 20
-8.2691868726
 10
-4.6893551083
 20
-8.2547571699
 10
-4.6977324542
 20
-8.2411837874
 10
-4.7081640075
 20
-8.2286071491
 10
-4.7206578189
 20
-8.2170636882
 10
-4.7351743447
 20
-8.2067231028
  0
LINE
  5
3AD
100
AcDbEntity
  8
RACCORDO
100
AcDbLine
 62
253
  6
CONTINUOUS
 10
-7.2331782981
 20
20.0275513222
 11
-7.1232213147
 21
16.8065137252
  0
LINE
  5
3AE
100
AcDbEntity
  8
DRAFT
100
AcDbLine
 62
7
  6
CONTINUOUS
 10
-6.1033250947
 20
11.15
 11
-6.175
 21
14.139335085
  0
LWPOLYLINE
  5
3AF
100
AcDbEntity
  8
IMPORT_IGES
100
AcDbPolyline
 62
7
  6
CONTINUOUS
 90
10
 70
0
 10
-5.425
 20
-7.6829598042
 10
-5.4245709782
 20
-7.7024399887
 10
-5.4234788268
 20
-7.7216225365
 10
-5.421723546
 20
-7.7405074474
 10
-5.4192731286
 20
-7.7591840269
 10
-5.4161595818
 20
-7.7775629695
 10
-5.4124789267
 20
-7.7953763575
 10
-5.4082631706
 20
-7.8125348854
 10
-5.4034803062
 20
-7.8291278589
 10
-5.3981303336
 20
-7.8451552779
  0
LINE
  5
3B0
100
AcDbEntity
  8
IMPORT_IGES
100
AcDbLine
 62
253
  6
CONTINUOUS
 10
-6.8981434278
 20
-10.7508823024
 11
-6.8981434153
 21
-10.95
  0
LINE
  5
3B1
100
AcDbEntity
  8
RACCORDO
100
AcDbLine
 62
253
  6
CONTINUOUS
 10
-6.8873556268
 20
-12.8877357561
 11
-6.8873556268
 21
-13.1876900647
  0
LINE
  5
3B2
100
AcDbEntity
  8
IMPORT_IGES
100
AcDbLine
 62
253
  6
CONTINUOUS
 10
-6.8250004231
 20
11.15
 11
-6.8250005306
 21
10.95
  0
LINE
  5
3B3
100
AcDbEntity
  8
IMPORT_IGES
100
AcDbLine
 62
7
  6
CONTINUOUS
 10
-6.725
 20
1.945
 11
-6.725
 21
-0.455
  0
LINE
  5
3B4
100
AcDbEntity
  8
IMPORT_IGES
100
AcDbLine
 62
7
  6
CONTINUOUS
 10
-6.6217065296
 20
-11.15
 11
-6.6217065296
 21
-11.1381387631
  0
LINE
  5
3B5
100
AcDbEntity
  8
IMPORT_IGES
100
AcDbLine
 62
7
  6
CONTINUOUS
 10
-6.425
 20
-0.9743342048
 11
-6.425
 21
-6.4663853498
  0
LINE
  5
3B6
100
AcDbEntity
  8
IMPORT_IGES
100
AcDbLine
 62
253
  6
CONTINUOUS
 10
-6.425
 20
-0.455
 11
-6.425
 21
1.945
  0
LINE
  5
3B7
100
AcDbEntity
  8
IMPORT_IGES
100
AcDbLine
 62
253
  6
CONTINUOUS
 10
-6.3250001416
 20
-11.1499999994
 11
-6.3250013496
 21
-10.95
  0
LINE
  5
3B8
100
AcDbEntity
  8
IMPORT_IGES
100
AcDbLine
 62
253
  6
CONTINUOUS
 10
-6.225
 20
-1.0458098149
 11
-6.225
 21
-7.8451489625
  0
LINE
  5
3B9
100
AcDbEntity
  8
DRAFT
100
AcDbLine
 62
7
  6
CONTINUOUS
 10
-6.175
 20
11.15
 11
-6.175
 21
14.139335085
  0
LINE
  5
3BA
100
AcDbEntity
  8
IMPORT_IGES
100
AcDbLine
 62
253
  6
CONTINUOUS
 10
-6.125
 20
-1.055
 11
-6.125
 21
-0.755
  0
LINE
  5
3BB
100
AcDbEntity
  8
IMPORT_IGES
100
AcDbLine
 62
253
  6
CONTINUOUS
 10
-5.775
 20
-0.755
 11
-5.775
 21
-1.055
  0
LINE
  5
3BC
100
AcDbEntity
  8
IMPORT_IGES
100
AcDbLine
 62
253
  6
CONTINUOUS
 10
-5.725
 20
2.645
 11
-5.725
 21
3.245
  0
LINE
  5
3BD
100
AcDbEntity
  8
IMPORT_IGES
100
AcDbLine
 62
253
  6
CONTINUOUS
 10
-5.475
 20
-0.455
 11
-5.4749991816
 21
6.3440525646
  0
LINE
  5
3BE
100
AcDbEntity
  8
IMPORT_IGES
100
AcDbLine
 62
7
  6
CONTINUOUS
 10
-5.425
 20
-7.6829598037
 11
-5.425
 21
-1.1904696055
  0
LINE
  5
3BF
100
AcDbEntity
  8
IMPORT_IGES
100
AcDbLine
 62
253
  6
CONTINUOUS
 10
-5.225
 20
-8.0830938817
 11
-5.225
 21
-0.9360899655
  0
LINE
  5
3C0
100
AcDbEntity
  8
IMPORT_IGES
100
AcDbLine
 62
7
  6
CONTINUOUS
 10
-5.225
 20
-0.9360899655
 11
-5.225
 21
-0.6941633693
  0
LINE
  5
3C1
100
AcDbEntity
  8
DRAFT
100
AcDbLine
 62
7
  6
CONTINUOUS
 10
-5.2466749053
 20
11.15
 11
-5.175
 21
14.139335085
  0
LWPOLYLINE
  5
3C2
100
AcDbEntity
  8
RACCORDO
100
AcDbPolyline
 62
253
  6
CONTINUOUS
 90
31
 70
0
 10
-7.1873099353
 20
-13.4876443732
 10
-7.1869030286
 20
-13.4719289958
 10
-7.1856738561
 20
-13.4562584081
 10
-7.183625991
 20
-13.4406755597
 10
-7.1807652606
 20
-13.4252230914
 10
-7.1770996906
 20
-13.4099433818
 10
-7.1726394995
 20
-13.3948784269
 10
-7.1673970307
 20
-13.3800692434
 10
-7.1613869199
 20
-13.3655565659
 10
-7.154626158
 20
-13.3513808433
 10
-7.1471336275
 20
-13.3375808795
 10
-7.1389301015
 20
-13.3241941962
 10
-7.1300385619
 20
-13.3112576588
 10
-7.1204841343
 20
-13.2988070311
 10
-7.1102928867
 20
-13.2868755249
 10
-7.0994917508
 20
-13.2754942936
 10
-7.0881106748
 20
-13.2646946869
 10
-7.0761805799
 20
-13.2545058327
 10
-7.0637316993
 20
-13.2449537059
 10
-7.0507970312
 20
-13.2360642012
 10
-7.0374125326
 20
-13.2278625689
 10
-7.0236145782
 20
-13.2203715093
 10
-7.0094404919
 20
-13.2136117703
 10
-6.9949291814
 20
-13.2076023648
 10
-6.9801210161
 20
-13.2023603197
 10
-6.9650565726
 20
-13.1979002973
 10
-6.9497769668
 20
-13.1942347519
 10
-6.9343245221
 20
-13.1913740221
 10
-6.9187417298
 20
-13.1893261585
 10
-6.9030711151
 20
-13.1880969773
 10
-6.8873556268
 20
-13.1876900647
  0
LINE
  5
3C3
100
AcDbEntity
  8
0
100
AcDbLine
 62
253
  6
CONTINUOUS
 10
-7.2331782981
 20
-20.0275513222
 11
-7.1348569743
 21
-17.1473642646
  0
LWPOLYLINE
  5
3C4
100
AcDbEntity
  8
IMPORT_IGES
100
AcDbPolyline
 62
7
  6
CONTINUOUS
 90
10
 70
0
 10
-5.4204596355
 20
-1.0919876275
 10
-5.4214154558
 20
-1.1029098869
 10
-5.4222584759
 20
-1.1138379198
 10
-5.4229886957
 20
-1.1247717261
 10
-5.4236061602
 20
-1.1357122763
 10
-5.4241108244
 20
-1.1466585999
 10
-5.4245025539
 20
-1.1576077858
 10
-5.424781304
 20
-1.1685588635
 10
-5.4249471193
 20
-1.1795128034
 10
-5.425
 20
-1.1904696055
  0
LWPOLYLINE
  5
3C5
100
AcDbEntity
  8
IMPORT_IGES
100
AcDbPolyline
 62
253
  6
CONTINUOUS
 90
13
 70
0
 10
-4.675
 20
8.5866771729
 10
-4.6733309363
 20
8.6049096152
 10
-4.6683724381
 20
8.6227819842
 10
-4.6602374924
 20
8.6400021161
 10
-4.6491524536
 20
8.6562147949
 10
-4.6352924049
 20
8.6712537375
 10
-4.6186409406
 20
8.685082791
 10
-4.5992548253
 20
8.6974941301
 10
-4.5774863108
 20
8.7081197915
 10
-4.5537563157
 20
8.716672385
 10
-4.5284901281
 20
8.7229469
 10
-4.5020830045
 20
8.726796022
 10
-4.475
 20
8.7280986591
  0
LWPOLYLINE
  5
3C6
100
AcDbEntity
  8
IMPORT_IGES
100
AcDbPolyline
 62
253
  6
CONTINUOUS
 90
6
 70
0
 10
-4.675
 20
10.6621320344
 10
-4.6732889723
 20
10.6805912255
 10
-4.6681851653
 20
10.6987345747
 10
-4.6597759065
 20
10.7162516444
 10
-4.6482050808
 20
10.7328427125
 10
-4.6336706681
 20
10.7482239013
  0
LINE
  5
3C7
100
AcDbEntity
  8
IMPORT_IGES
100
AcDbLine
 62
7
  6
CONTINUOUS
 10
-4.7117559346
 20
7.7606570943
 11
-4.8166667458
 21
6.969602164
  0
LWPOLYLINE
  5
3C8
100
AcDbEntity
  8
IMPORT_IGES
100
AcDbPolyline
 62
7
  6
CONTINUOUS
 90
31
 70
0
 10
-8.0550828182
 20
-7.9542999891
 10
-8.0455262163
 20
-7.9227560858
 10
-8.0365845778
 20
-7.8901063649
 10
-8.0282579028
 20
-7.8563508266
 10
-8.0206304309
 20
-7.8214984454
 10
-8.0136179225
 20
-7.7855402468
 10
-8.0069676586
 20
-7.7484493063
 10
-8.0006249465
 20
-7.7102202249
 10
-7.9946444789
 20
-7.6708584017
 10
-7.9889376149
 20
-7.6303531097
 10
-7.983489045
 20
-7.5887301105
 10
-7.9783140787
 20
-7.5459636426
 10
-7.9733700032
 20
-7.5019656948
 10
-7.9686473549
 20
-7.4567452191
 10
-7.9641555975
 20
-7.4102932634
 10
-7.959880409
 20
-7.362494961
 10
-7.9558145687
 20
-7.3133426428
 10
-7.9519652973
 20
-7.2628439779
 10
-7.9483399351
 20
-7.2109071062
 10
-7.944933612
 20
-7.1575333275
 10
-7.9417511981
 20
-7.1027213422
 10
-7.9388146443
 20
-7.0463753914
 10
-7.9361190239
 20
-6.9884971036
 10
-7.9336692636
 20
-6.9290848504
 10
-7.9315020942
 20
-6.8680379879
 10
-7.9296114983
 20
-6.8053542047
 10
-7.9280034935
 20
-6.7410358121
 10
-7.9267328628
 20
-6.6749891013
 10
-7.9258178676
 20
-6.6071828358
 10
-7.9252402467
 20
-6.5376482519
 10
-7.925
 20
-0.4710739544
  0
LWPOLYLINE
  5
3C9
100
AcDbEntity
  8
IMPORT_IGES
100
AcDbPolyline
 62
253
  6
CONTINUOUS
 90
4
 70
0
 10
-3.3125594702
 20
6.7779419294
 10
-3.2782155077
 20
6.885524281
 10
-3.2276763807
 20
7.0490650861
 10
-3.1750473188
 20
7.2213177878
  0
LWPOLYLINE
  5
3CA
100
AcDbEntity
  8
IMPORT_IGES
100
AcDbPolyline
 62
253
  6
CONTINUOUS
 90
15
 70
0
 10
-5.0408805718
 20
4.903248457
 10
-4.9896407254
 20
5.0451953736
 10
-4.9137940202
 20
5.2201533469
 10
-4.8241582866
 20
5.3993850448
 10
-4.7217045904
 20
5.5789696712
 10
-4.6094920234
 20
5.7543322964
 10
-4.486909703
 20
5.9245550639
 10
-4.3545685118
 20
6.0905558303
 10
-4.2173601886
 20
6.2505132356
 10
-4.0816055591
 20
6.3985752181
 10
-3.9409837976
 20
6.5405938395
 10
-3.7814241666
 20
6.6923039247
 10
-3.5982364202
 20
6.8589504153
 10
-3.3961108043
 20
7.0352883697
 10
-3.1750473188
 20
7.2213177878
  0
LINE
  5
3CB
100
AcDbEntity
  8
IMPORT_IGES
100
AcDbLine
 62
253
  6
CONTINUOUS
 10
-3.2509347913
 20
7.1058531341
 11
-3.1750316096
 21
7.2213468442
  0
LWPOLYLINE
  5
3CC
100
AcDbEntity
  8
RACCORDO
100
AcDbPolyline
 62
7
  6
CONTINUOUS
 90
4
 70
0
 10
7.2158834737
 20
21.7591165263
 10
7.168380061
 20
21.6866457638
 10
7.143929804
 20
21.6499179842
 10
7.1189545568
 20
21.6129888844
  0
LINE
  5
3CD
100
AcDbEntity
  8
IMPORT_IGES
100
AcDbLine
 62
253
  6
CONTINUOUS
 10
-3.5771484348
 20
6.6149581552
 11
-3.4801029622
 21
6.7618542326
  0
LINE
  5
3CE
100
AcDbEntity
  8
RACCORDO
100
AcDbLine
 62
7
  6
CONTINUOUS
 10
5.880294768
 20
20.0829433217
 11
5.7732213147
 21
19.9223308767
  0
LINE
  5
3CF
100
AcDbEntity
  8
IMPORT_IGES
100
AcDbLine
 62
253
  6
CONTINUOUS
 10
-3.4801029622
 20
6.7618542326
 11
-3.2509347913
 21
7.1058531341
  0
LINE
  5
3D0
100
AcDbEntity
  8
RACCORDO
100
AcDbLine
 62
7
  6
CONTINUOUS
 10
7.1189545568
 20
21.6129888844
 11
7.0677848301
 21
21.5385902446
  0
LWPOLYLINE
  5
3D1
100
AcDbEntity
  8
IMPORT_IGES
100
AcDbPolyline
 62
253
  6
CONTINUOUS
 90
10
 70
0
 10
-8.0724980996
 20
-0.271086715
 10
-8.0446300248
 20
-0.2312287525
 10
-8.0135846811
 20
-0.1955827491
 10
-7.9793620685
 20
-0.1641487049
 10
-7.9413009562
 20
-0.1366641518
 10
-7.900062575
 20
-0.1133915579
 10
-7.857630617
 20
-0.0951183274
 10
-7.814666313
 20
-0.0821069282
 10
-7.7705084323
 20
-0.0740948923
 10
-7.7251569748
 20
-0.0710822198
  0
LINE
  5
3D2
100
AcDbEntity
  8
RACCORDO
100
AcDbLine
 62
7
  6
CONTINUOUS
 10
7.0677848301
 20
21.5385902446
 11
7.0154803352
 21
21.4636002076
  0
LWPOLYLINE
  5
3D3
100
AcDbEntity
  8
RACCORDO
100
AcDbPolyline
 62
7
  6
CONTINUOUS
 90
3
 70
0
 10
7.0154803352
 20
21.4636002076
 10
6.9358850697
 20
21.3504165494
 10
6.9091007192
 20
21.3126932437
  0
LWPOLYLINE
  5
3D4
100
AcDbEntity
  8
IMPORT_IGES
100
AcDbPolyline
 62
253
  6
CONTINUOUS
 90
6
 70
0
 10
-7.9025189665
 20
-0.3710813008
 10
-7.9145103758
 20
-0.3864668702
 10
-7.9265534456
 20
-0.4007696309
 10
-7.9394613129
 20
-0.413597917
 10
-7.9541899012
 20
-0.4243329929
 10
-7.9713732994
 20
-0.4328161965
  0
LWPOLYLINE
  5
3D5
100
AcDbEntity
  8
IMPORT_IGES
100
AcDbPolyline
 62
7
  6
CONTINUOUS
 90
5
 70
0
 10
-7.8124136803
 20
-8.3928916726
 10
-7.7898036621
 20
-8.38734287
 10
-7.7658738516
 20
-8.3833993114
 10
-7.7414495864
 20
-8.3812630301
 10
-7.7250035625
 20
-8.3808547176
  0
LWPOLYLINE
  5
3D6
100
AcDbEntity
  8
IMPORT_IGES
100
AcDbPolyline
 62
253
  6
CONTINUOUS
 90
13
 70
0
 10
3.5006020189
 20
-6.3038303399
 10
3.4813715238
 20
-6.3045897925
 10
3.4625207217
 20
-6.3070761535
 10
3.4443539669
 20
-6.3112315332
 10
3.4272467511
 20
-6.3169375972
 10
3.4113654942
 20
-6.3241048495
 10
3.3967324914
 20
-6.3327505532
 10
3.3835604212
 20
-6.3428557446
 10
3.3722477147
 20
-6.3542380933
 10
3.3631071328
 20
-6.3666737276
 10
3.3563559126
 20
-6.3799390372
 10
3.3521468014
 20
-6.3938315491
 10
3.3506082637
 20
-6.4081050235
  0
LINE
  5
3D7
100
AcDbEntity
  8
IMPORT_IGES
100
AcDbLine
 62
253
  6
CONTINUOUS
 10
3.9992327771
 20
-5.8672804328
 11
3.9537397459
 21
-5.8678694368
  0
LINE
  5
3D8
100
AcDbEntity
  8
IMPORT_IGES
100
AcDbLine
 62
253
  6
CONTINUOUS
 10
3.3301398378
 20
-6.8454496887
 11
3.2868153315
 21
-6.8459027196
  0
LWPOLYLINE
  5
3D9
100
AcDbEntity
  8
IMPORT_IGES
100
AcDbPolyline
 62
253
  6
CONTINUOUS
 90
5
 70
0
 10
-4.4953866402
 20
-6.845501943
 10
-4.5472469961
 20
-6.8460093473
 10
-4.5720405994
 20
-6.8461000504
 10
-4.595505035
 20
-6.846032071
 10
-4.6686171357
 20
-6.8455245698
  0
LWPOLYLINE
  5
3DA
100
AcDbEntity
  8
IMPORT_IGES
100
AcDbPolyline
 62
253
  6
CONTINUOUS
 90
5
 70
0
 10
-4.6686171357
 20
-6.8455245698
 10
-4.680162705
 20
-6.8456104625
 10
-4.6885514929
 20
-6.8458975027
 10
-4.693638902
 20
-6.8463549221
 10
-4.6953376433
 20
-6.8469908552
  0
LWPOLYLINE
  5
3DB
100
AcDbEntity
  8
IMPORT_IGES
100
AcDbPolyline
 62
253
  6
CONTINUOUS
 90
3
 70
0
 10
3.2868153315
 20
-6.8459027196
 10
3.2454171662
 20
-6.8461666689
 10
3.2219589939
 20
-6.8461797309
  0
LINE
  5
3DC
100
AcDbEntity
  8
IMPORT_IGES
100
AcDbLine
 62
253
  6
CONTINUOUS
 10
3.9537397459
 20
-5.8678694368
 11
3.9020767832
 21
-5.868180338
  0
LINE
  5
3DD
100
AcDbEntity
  8
IMPORT_IGES
100
AcDbLine
 62
253
  6
CONTINUOUS
 10
-4.4953932811
 20
-6.8455020228
 11
3.1453932811
 21
-6.8455020228
  0
LINE
  5
3DE
100
AcDbEntity
  8
IMPORT_IGES
100
AcDbLine
 62
253
  6
CONTINUOUS
 10
-4.7714593868
 20
-6.0738283964
 11
-5.225
 21
-6.073834867
  0
LINE
  5
3DF
100
AcDbEntity
  8
IMPORT_IGES
100
AcDbLine
 62
253
  6
CONTINUOUS
 10
3.875
 20
-6.073834867
 11
3.421458952
 21
-6.0738215284
  0
LINE
  5
3E0
100
AcDbEntity
  8
IMPORT_IGES
100
AcDbLine
 62
253
  6
CONTINUOUS
 10
3.157129547
 20
-5.8682203415
 11
3.9020767832
 21
-5.868180338
  0
LINE
  5
3E1
100
AcDbEntity
  8
IMPORT_IGES
100
AcDbLine
 62
253
  6
CONTINUOUS
 10
-5.2520767832
 20
-5.868180338
 11
-4.507129547
 21
-5.8682203415
  0
LINE
  5
3E2
100
AcDbEntity
  8
IMPORT_IGES
100
AcDbLine
 62
253
  6
CONTINUOUS
 10
-5.3037397459
 20
-5.8678694368
 11
-5.2520767832
 21
-5.868180338
  0
LWPOLYLINE
  5
3E3
100
AcDbEntity
  8
IMPORT_IGES
100
AcDbPolyline
 62
253
  6
CONTINUOUS
 90
3
 70
0
 10
3.2219589939
 20
-6.8461797309
 10
3.1715119352
 20
-6.8458308306
 10
3.14538664
 20
-6.8455019433
  0
LWPOLYLINE
  5
3E4
100
AcDbEntity
  8
IMPORT_IGES
100
AcDbPolyline
 62
253
  6
CONTINUOUS
 90
13
 70
0
 10
-4.8506469517
 20
-6.3038308302
 10
-4.8314301139
 20
-6.3045851839
 10
-4.8125800999
 20
-6.3070660134
 10
-4.7944020489
 20
-6.3112186752
 10
-4.7772656407
 20
-6.3169308501
 10
-4.7613491085
 20
-6.3241139395
 10
-4.7466980789
 20
-6.3327743064
 10
-4.7335315851
 20
-6.3428819789
 10
-4.7222322938
 20
-6.3542573577
 10
-4.7131012243
 20
-6.3666838639
 10
-4.7063541726
 20
-6.3799417734
 10
-4.7021469499
 20
-6.393826174
 10
-4.7006083757
 20
-6.4080956972
  0
LWPOLYLINE
  5
3E5
100
AcDbEntity
  8
IMPORT_IGES
100
AcDbPolyline
 62
253
  6
CONTINUOUS
 90
13
 70
0
 10
-5.225
 20
-6.0738348672
 10
-5.2508106793
 20
-6.0726522517
 10
-5.2761027992
 20
-6.0691404357
 10
-5.3004629351
 20
-6.0633817236
 10
-5.3233867782
 20
-6.0555395478
 10
-5.3446435154
 20
-6.0457392124
 10
-5.3641905184
 20
-6.0339664518
 10
-5.3817361386
 20
-6.02025935
 10
-5.3967575101
 20
-6.0048681786
 10
-5.4088479058
 20
-5.988090919
 10
-5.4177175985
 20
-5.9702283708
 10
-5.4231586431
 20
-5.9515596878
 10
-5.425
 20
-5.932413511
  0
LWPOLYLINE
  5
3E6
100
AcDbEntity
  8
IMPORT_IGES
100
AcDbPolyline
 62
253
  6
CONTINUOUS
 90
4
 70
0
 10
3.3453546974
 20
-6.8455707489
 10
3.3436464619
 20
-6.8454543133
 10
3.3385452681
 20
-6.845416758
 10
3.3301398378
 20
-6.8454496887
  0
LWPOLYLINE
  5
3E7
100
AcDbEntity
  8
IMPORT_IGES
100
AcDbPolyline
 62
253
  6
CONTINUOUS
 90
5
 70
0
 10
6.4613196299
 20
-8.3488095358
 10
6.5011944839
 20
-8.3568368062
 10
6.5389563799
 20
-8.3675228595
 10
6.5745280051
 20
-8.3808173598
 10
6.6076774215
 20
-8.3965692993
  0
LWPOLYLINE
  5
3E8
100
AcDbEntity
  8
IMPORT_IGES
100
AcDbPolyline
 62
7
  6
CONTINUOUS
 90
15
 70
0
 10
6.4550620629
 20
-8.3908798701
 10
6.476351842
 20
-8.3973002012
 10
6.4954772716
 20
-8.4047520919
 10
6.5123569976
 20
-8.4129226638
 10
6.5268286368
 20
-8.421438601
 10
6.538888316
 20
-8.4299424825
 10
6.5489014711
 20
-8.4383431026
 10
6.5570864728
 20
-8.4465487491
 10
6.5634241207
 20
-8.4542289253
 10
6.5679800455
 20
-8.4610018023
 10
6.5712490554
 20
-8.4671510007
 10
6.573384974
 20
-8.4725931268
 10
6.5744159034
 20
-8.4765510499
 10
6.5748786128
 20
-8.479504827
 10
6.5749971737
 20
-8.4809606773
  0
LINE
  5
3E9
100
AcDbEntity
  8
DRAFT
100
AcDbLine
 62
7
  6
CONTINUOUS
 10
8.8196499221
 20
-11.5
 11
8.975
 21
-11.5776691233
  0
LINE
  5
3EA
100
AcDbEntity
  8
RACCORDO
100
AcDbLine
 62
253
  6
CONTINUOUS
 10
6.3250190385
 20
-13.9
 11
6.2351323002
 21
-13.8101132618
  0
LWPOLYLINE
  5
3EB
100
AcDbEntity
  8
IMPORT_IGES
100
AcDbPolyline
 62
7
  6
CONTINUOUS
 90
10
 70
0
 10
-6.7810818204
 20
-0.071081606
 10
-6.8300996671
 20
-0.0128983375
 10
-6.8737747816
 20
0.048196282
 10
-6.9121071638
 20
0.1122022527
 10
-6.9452784461
 20
0.1795779616
 10
-6.9731069962
 20
0.2498650215
 10
-6.9950479164
 20
0.3216882714
 10
-7.0109195741
 20
0.3945893243
 10
-7.020903602
 20
0.4690265671
 10
-7.025
 20
0.545
  0
LINE
  5
3EC
100
AcDbEntity
  8
RACCORDO
100
AcDbLine
 62
7
  6
CONTINUOUS
 10
6.9091007192
 20
-21.3126932437
 11
6.9625346208
 21
-21.3881838872
  0
LINE
  5
3ED
100
AcDbEntity
  8
RACCORDO
100
AcDbLine
 62
7
  6
CONTINUOUS
 10
6.9625346208
 20
-21.3881838872
 11
7.0417764984
 21
-21.5011382645
  0
LWPOLYLINE
  5
3EE
100
AcDbEntity
  8
RACCORDO
100
AcDbPolyline
 62
7
  6
CONTINUOUS
 90
5
 70
0
 10
7.0417764984
 20
-21.5011382645
 10
7.0935136093
 20
-21.5758926167
 10
7.1189545568
 20
-21.6129888844
 10
7.143929804
 20
-21.6499179842
 10
7.168380061
 20
-21.6866457638
  0
LINE
  5
3EF
100
AcDbEntity
  8
0
100
AcDbLine
 62
7
  6
CONTINUOUS
 10
5.880294768
 20
-20.0829433217
 11
5.8040558127
 21
-19.968583276
  0
LINE
  5
3F0
100
AcDbEntity
  8
RACCORDO
100
AcDbLine
 62
7
  6
CONTINUOUS
 10
7.168380061
 20
-21.6866457638
 11
7.2158834737
 21
-21.7591165263
  0
LWPOLYLINE
  5
3F1
100
AcDbEntity
  8
IMPORT_IGES
100
AcDbPolyline
 62
7
  6
CONTINUOUS
 90
14
 70
0
 10
-4.8261317379
 20
-8.343815082
 10
-4.8241739437
 20
-8.3508090635
 10
-4.821425507
 20
-8.3575086278
 10
-4.8180169855
 20
-8.3638595824
 10
-4.8142166028
 20
-8.3697971052
 10
-4.8099840443
 20
-8.3752875787
 10
-4.8050253293
 20
-8.3803511048
 10
-4.7994013189
 20
-8.3849913068
 10
-4.7933018119
 20
-8.389226532
 10
-4.7866736864
 20
-8.3931439574
 10
-4.7795299655
 20
-8.3968276813
 10
-4.7719945996
 20
-8.4003590309
 10
-4.7641766046
 20
-8.4038292126
 10
-4.7632115755
 20
-8.4042507179
  0
LWPOLYLINE
  5
3F2
100
AcDbEntity
  8
IMPORT_IGES
100
AcDbPolyline
 62
253
  6
CONTINUOUS
 90
13
 70
0
 10
-6.425
 20
-4.0864896401
 10
-6.4233275524
 20
-4.0971223269
 10
-6.4183611969
 20
-4.1075414422
 10
-6.4102172825
 20
-4.1175766762
 10
-6.399126872
 20
-4.1270202879
 10
-6.3852671415
 20
-4.1357771694
 10
-6.3686179648
 20
-4.1438297136
 10
-6.3492332514
 20
-4.1510576903
 10
-6.3274669019
 20
-4.15724579
 10
-6.3037402659
 20
-4.1622266729
 10
-6.2784787081
 20
-4.1658810447
 10
-6.2520770284
 20
-4.1681231583
 10
-6.225
 20
-4.168882542
  0
LWPOLYLINE
  5
3F3
100
AcDbEntity
  8
IMPORT_IGES
100
AcDbPolyline
 62
253
  6
CONTINUOUS
 90
13
 70
0
 10
-6.425
 20
-1.0095966325
 10
-6.4233275117
 20
-1.0202294483
 10
-6.4183610575
 20
-1.0306486519
 10
-6.4102170226
 20
-1.0406839314
 10
-6.3991265201
 20
-1.0501275368
 10
-6.3852667495
 20
-1.0588843781
 10
-6.3686175463
 20
-1.0669368839
 10
-6.3492327771
 20
-1.0741649052
 10
-6.3274663738
 20
-1.0803530475
 10
-6.3037397459
 20
-1.0853337571
 10
-6.2784782879
 20
-1.0889876791
 10
-6.2520767832
 20
-1.0912291494
 10
-6.225
 20
-1.0919877073
  0
LINE
  5
3F4
100
AcDbEntity
  8
IMPORT_IGES
100
AcDbLine
 62
253
  6
CONTINUOUS
 10
-4.8789117447
 20
-8.3806626415
 11
-4.8757029653
 21
-8.4751625089
  0
LINE
  5
3F5
100
AcDbEntity
  8
IMPORT_IGES
100
AcDbLine
 62
253
  6
CONTINUOUS
 10
-4.8293131955
 20
-8.0830942834
 11
-4.8276247022
 21
-8.181501341
  0
LINE
  5
3F6
100
AcDbEntity
  8
IMPORT_IGES
100
AcDbLine
 62
7
  6
CONTINUOUS
 10
-4.6484353236
 20
-10.7525582689
 11
-4.7006085126
 21
-6.4080843038
  0
LINE
  5
3F7
100
AcDbEntity
  8
IMPORT_IGES
100
AcDbLine
 62
253
  6
CONTINUOUS
 10
-4.4528043933
 20
-10.5472710152
 11
-4.4879292279
 21
-7.6224178635
  0
LINE
  5
3F8
100
AcDbEntity
  8
IMPORT_IGES
100
AcDbLine
 62
253
  6
CONTINUOUS
 10
-4.4953932811
 20
-6.8455020228
 11
-4.507129547
 21
-5.8682203415
  0
LINE
  5
3F9
100
AcDbEntity
  8
IMPORT_IGES
100
AcDbLine
 62
7
  6
CONTINUOUS
 10
-4.8757029653
 20
-8.4751625089
 11
-4.8484520392
 21
-10.7508823024
  0
LINE
  5
3FA
100
AcDbEntity
  8
IMPORT_IGES
100
AcDbLine
 62
253
  6
CONTINUOUS
 10
-4.8506133673
 20
-6.3038306226
 11
-4.8293131955
 21
-8.0830946273
  0
LINE
  5
3FB
100
AcDbEntity
  8
IMPORT_IGES
100
AcDbLine
 62
7
  6
CONTINUOUS
 10
-4.4484511638
 20
-10.95
 11
-4.4528050669
 21
-10.5472710223
  0
LINE
  5
3FC
100
AcDbEntity
  8
IMPORT_IGES
100
AcDbLine
 62
7
  6
CONTINUOUS
 10
-4.4953930427
 20
-6.8455020204
 11
-4.4879292279
 21
-7.6224155467
  0
LINE
  5
3FD
100
AcDbEntity
  8
IMPORT_IGES
100
AcDbLine
 62
253
  6
CONTINUOUS
 10
-4.8261317385
 20
-8.3438125438
 11
-4.8276247022
 21
-8.181501341
  0
LINE
  5
3FE
100
AcDbEntity
  8
RACCORDO
100
AcDbLine
 62
7
  6
CONTINUOUS
 10
-5.175
 20
-19.9973819397
 11
-5.175
 21
-17.6
  0
LINE
  5
3FF
100
AcDbEntity
  8
IMPORT_IGES
100
AcDbLine
 62
7
  6
CONTINUOUS
 10
-5.175
 20
-0.4550000001
 11
-5.175
 21
3.2772667015
  0
LINE
  5
400
100
AcDbEntity
  8
IMPORT_IGES
100
AcDbLine
 62
7
  6
CONTINUOUS
 10
-5.175
 20
4.5605817051
 11
-5.175
 21
6.344603557
  0
LINE
  5
401
100
AcDbEntity
  8
DRAFT
100
AcDbLine
 62
7
  6
CONTINUOUS
 10
-5.175
 20
11.15
 11
-5.175
 21
14.139335085
  0
LINE
  5
402
100
AcDbEntity
  8
DRAFT
100
AcDbLine
 62
7
  6
CONTINUOUS
 10
-5.075
 20
23.8
 11
-5.075
 21
22.4
  0
LINE
  5
403
100
AcDbEntity
  8
DRAFT
100
AcDbLine
 62
7
  6
CONTINUOUS
 10
-5.075
 20
-22.4
 11
-5.075
 21
-23.8
  0
LINE
  5
404
100
AcDbEntity
  8
ASSI
100
AcDbLine
 62
253
  6
CONTINUOUS
 10
-5.0309327327
 20
-22.3338981669
 11
-5.0309327327
 21
-23.7507734247
  0
LINE
  5
405
100
AcDbEntity
  8
ASSI
100
AcDbLine
 62
253
  6
CONTINUOUS
 10
-5.0309327327
 20
22.3338981669
 11
-5.0309327327
 21
23.7507734247
  0
LINE
  5
406
100
AcDbEntity
  8
IMPORT_IGES
100
AcDbLine
 62
253
  6
CONTINUOUS
 10
-4.8844905981
 20
-8.3808532759
 11
-4.8844905995
 21
-8.3405804277
  0
LINE
  5
407
100
AcDbEntity
  8
RACCORDO
100
AcDbLine
 62
253
  6
CONTINUOUS
 10
-4.875
 20
-20.0
 11
-4.875
 21
-17.3
  0
LINE
  5
408
100
AcDbEntity
  8
IMPORT_IGES
100
AcDbLine
 62
253
  6
CONTINUOUS
 10
-4.875
 20
8.5748812075
 11
-4.8749999992
 21
10.95
  0
LINE
  5
409
100
AcDbEntity
  8
IMPORT_IGES
100
AcDbLine
 62
253
  6
CONTINUOUS
 10
-4.8484520392
 20
-10.7508823024
 11
-4.8484592499
 21
-10.95
  0
LINE
  5
40A
100
AcDbEntity
  8
IMPORT_IGES
100
AcDbLine
 62
7
  6
CONTINUOUS
 10
-4.7798535023
 20
7.5975524476
 11
-4.7798535023
 21
7.5293706294
  0
LINE
  5
40B
100
AcDbEntity
  8
IMPORT_IGES
100
AcDbLine
 62
253
  6
CONTINUOUS
 10
-4.7627513367
 20
3.1132052805
 11
-4.762751337
 21
3.3132052805
  0
LINE
  5
40C
100
AcDbEntity
  8
IMPORT_IGES
100
AcDbLine
 62
7
  6
CONTINUOUS
 10
-4.675
 20
10.75
 11
-4.675
 21
8.5866771736
  0
LINE
  5
40D
100
AcDbEntity
  8
0
100
AcDbLine
 62
7
  6
CONTINUOUS
 10
-4.4090923596
 20
-11.2500290004
 11
-4.4090923596
 21
-11.3500290004
  0
LINE
  5
40E
100
AcDbEntity
  8
0
100
AcDbLine
 62
253
  6
CONTINUOUS
 10
-4.319625439
 20
-11.2500290004
 11
-4.319625439
 21
-11.3500290004
  0
LINE
  5
40F
100
AcDbEntity
  8
0
100
AcDbLine
 62
253
  6
CONTINUOUS
 10
-4.231441145
 20
-11.2500290004
 11
-4.231441145
 21
-11.3500290004
  0
LINE
  5
410
100
AcDbEntity
  8
RACCORDO
100
AcDbLine
 62
7
  6
CONTINUOUS
 10
-4.175
 20
-22.3339198952
 11
-4.175
 21
-23.7511422903
  0
LINE
  5
411
100
AcDbEntity
  8
ASSI
100
AcDbLine
 62
7
  6
CONTINUOUS
 10
-4.175
 20
-22.3339198952
 11
-4.175
 21
-23.7941821702
  0
LINE
  5
412
100
AcDbEntity
  8
RACCORDO
100
AcDbLine
 62
7
  6
CONTINUOUS
 10
-4.175
 20
-16.2
 11
-4.175
 21
-14.7
  0
LINE
  5
413
100
AcDbEntity
  8
DRAFT
100
AcDbLine
 62
7
  6
CONTINUOUS
 10
-4.175
 20
-14.7
 11
-4.175
 21
-13.9
  0
LINE
  5
414
100
AcDbEntity
  8
ASSI
100
AcDbLine
 62
7
  6
CONTINUOUS
 10
-4.175
 20
22.3339198952
 11
-4.175
 21
23.7941821702
  0
LINE
  5
415
100
AcDbEntity
  8
RACCORDO
100
AcDbLine
 62
7
  6
CONTINUOUS
 10
-4.075
 20
-15.6
 11
-4.075
 21
-14.2
  0
LINE
  5
416
100
AcDbEntity
  8
0
100
AcDbLine
 62
7
  6
CONTINUOUS
 10
-3.9137188245
 20
-11.2500290004
 11
-3.9137188245
 21
-11.3500290004
  0
LINE
  5
417
100
AcDbEntity
  8
0
100
AcDbLine
 62
7
  6
CONTINUOUS
 10
-3.878701048
 20
-11.2500290004
 11
-3.878701048
 21
-11.3500290004
  0
LINE
  5
418
100
AcDbEntity
  8
RACCORDO
100
AcDbLine
 62
7
  6
CONTINUOUS
 10
-3.675
 20
-21.0
 11
-3.675
 21
-22.3912731322
  0
LINE
  5
419
100
AcDbEntity
  8
RACCORDO
100
AcDbLine
 62
7
  6
CONTINUOUS
 10
-3.675
 20
21.0
 11
-3.675
 21
22.3912731322
  0
LINE
  5
41A
100
AcDbEntity
  8
0
100
AcDbLine
 62
7
  6
CONTINUOUS
 10
-3.6122242261
 20
-11.2500290004
 11
-3.6122242261
 21
-11.3500290004
  0
LINE
  5
41B
100
AcDbEntity
  8
IMPORT_IGES
100
AcDbLine
 62
7
  6
CONTINUOUS
 10
-3.5798535023
 20
3.5761904762
 11
-3.5798535023
 21
3.6227891219
  0
LWPOLYLINE
  5
41C
100
AcDbEntity
  8
IMPORT_IGES
100
AcDbPolyline
 62
253
  6
CONTINUOUS
 90
5
 70
0
 10
-4.475
 20
3.1132052805
 10
-4.474917264
 20
2.7665843596
 10
-4.4753542982
 20
2.716270204
 10
-4.4760297546
 20
2.6649577753
 10
-4.476943633
 20
2.6132065629
  0
LWPOLYLINE
  5
41D
100
AcDbEntity
  8
IMPORT_IGES
100
AcDbPolyline
 62
253
  6
CONTINUOUS
 90
10
 70
0
 10
-4.7006085222
 20
-6.4080835056
 10
-4.7003274971
 20
-6.3792684516
 10
-4.6988075542
 20
-6.3511815178
 10
-4.696092188
 20
-6.3238415365
 10
-4.6922538695
 20
-6.2972097392
 10
-4.6873360477
 20
-6.2713227586
 10
-4.681301257
 20
-6.2462916039
 10
-4.6741334238
 20
-6.2221517712
 10
-4.665889146
 20
-6.1988642784
 10
-4.6566050143
 20
-6.1764276556
  0
LWPOLYLINE
  5
41E
100
AcDbEntity
  8
IMPORT_IGES
100
AcDbPolyline
 62
253
  6
CONTINUOUS
 90
7
 70
0
 10
-4.875
 20
8.5748812075
 10
-4.8830748485
 20
8.1863345751
 10
-4.9076904938
 20
7.7988011896
 10
-4.9488469358
 20
7.412313853
 10
-5.0066661424
 20
7.0259106829
 10
-5.0810261458
 20
6.6406197805
 10
-5.0887885998
 20
6.6079382964
  0
LINE
  5
41F
100
AcDbEntity
  8
IMPORT_IGES
100
AcDbLine
 62
253
  6
CONTINUOUS
 10
-4.4960480159
 20
8.096447098
 11
-4.5003537172
 21
7.9929399047
  0
LINE
  5
420
100
AcDbEntity
  8
IMPORT_IGES
100
AcDbLine
 62
253
  6
CONTINUOUS
 10
-4.5003537172
 20
7.9929399047
 11
-4.5080646792
 21
7.8297602697
  0
LINE
  5
421
100
AcDbEntity
  8
IMPORT_IGES
100
AcDbLine
 62
253
  6
CONTINUOUS
 10
-4.5080646792
 20
7.8297602697
 11
-4.5125463848
 21
7.7428932182
  0
LWPOLYLINE
  5
422
100
AcDbEntity
  8
IMPORT_IGES
100
AcDbPolyline
 62
253
  6
CONTINUOUS
 90
10
 70
0
 10
-4.4960224345
 20
8.0964466623
 10
-4.4916100489
 20
8.1665898451
 10
-4.4877167693
 20
8.2367445714
 10
-4.4843425956
 20
8.3069108412
 10
-4.4814874891
 20
8.3770905884
 10
-4.4791514885
 20
8.4472818791
 10
-4.4773347102
 20
8.5174789117
 10
-4.4760371927
 20
8.5876797523
 10
-4.4752588975
 20
8.6578863348
 10
-4.475
 20
10.95
  0
LWPOLYLINE
  5
423
100
AcDbEntity
  8
IMPORT_IGES
100
AcDbPolyline
 62
7
  6
CONTINUOUS
 90
4
 70
0
 10
-5.3917526098
 20
-0.9156500466
 10
-5.3939925263
 20
-0.9265975866
 10
-5.4083362446
 20
-1.0088068398
 10
-5.4204596355
 20
-1.0919876754
  0
LINE
  5
424
100
AcDbEntity
  8
RACCORDO
100
AcDbLine
 62
7
  6
CONTINUOUS
 10
-10.1696499221
 20
-14.7
 11
-10.1962892833
 21
-14.7799830745
  0
LINE
  5
425
100
AcDbEntity
  8
IMPORT_IGES
100
AcDbLine
 62
253
  6
CONTINUOUS
 10
-5.7722590663
 20
-1.0559703216
 11
-5.7850095844
 21
-1.0919875797
  0
LINE
  5
426
100
AcDbEntity
  8
IMPORT_IGES
100
AcDbLine
 62
253
  6
CONTINUOUS
 10
-6.725
 20
-0.0184195839
 11
-6.7810815424
 21
-0.0710819827
  0
LINE
  5
427
100
AcDbEntity
  8
DRAFT
100
AcDbLine
 62
7
  6
CONTINUOUS
 10
-10.1696499221
 20
0.5
 11
-10.325
 21
0.4223308767
  0
LWPOLYLINE
  5
428
100
AcDbEntity
  8
IMPORT_IGES
100
AcDbPolyline
 62
253
  6
CONTINUOUS
 90
13
 70
0
 10
4.875
 20
-4.1688807149
 10
4.9008109926
 20
-4.1681917139
 10
4.9261033267
 20
-4.1661457118
 10
4.9504635731
 20
-4.1627906733
 10
4.973387401
 20
-4.1582218341
 10
4.9946440406
 20
-4.152512205
 10
5.0141909502
 20
-4.1456534593
 10
5.0317369808
 20
-4.1376675243
 10
5.0467585943
 20
-4.1287004156
 10
5.0588481285
 20
-4.1189266262
 10
5.0677165107
 20
-4.1085218491
 10
5.0731571519
 20
-4.097648474
 10
5.074999999
 20
-4.0864978885
  0
LWPOLYLINE
  5
429
100
AcDbEntity
  8
IMPORT_IGES
100
AcDbPolyline
 62
253
  6
CONTINUOUS
 90
13
 70
0
 10
-8.125
 20
-4.1688807149
 10
-8.0991890074
 20
-4.1681917139
 10
-8.0738966733
 20
-4.1661457118
 10
-8.0495364269
 20
-4.1627906733
 10
-8.026612599
 20
-4.1582218341
 10
-8.0053559594
 20
-4.152512205
 10
-7.9858090498
 20
-4.1456534593
 10
-7.9682630192
 20
-4.1376675243
 10
-7.9532414057
 20
-4.1287004156
 10
-7.9411518715
 20
-4.1189266262
 10
-7.9322834893
 20
-4.1085218491
 10
-7.9268428481
 20
-4.097648474
 10
-7.925000001
 20
-4.0864978885
  0
LWPOLYLINE
  5
42A
100
AcDbEntity
  8
IMPORT_IGES
100
AcDbPolyline
 62
253
  6
CONTINUOUS
 90
13
 70
0
 10
7.3780247561
 20
-4.1688807123
 10
7.4166624141
 20
-4.1684111395
 10
7.4544972132
 20
-4.1659053059
 10
7.4909162394
 20
-4.1614302995
 10
7.5251650463
 20
-4.1551229573
 10
7.5569176595
 20
-4.1470895137
 10
7.5861433091
 20
-4.1373114349
 10
7.6124192061
 20
-4.1258107769
 10
7.6349613534
 20
-4.1127935669
 10
7.653165202
 20
-4.0985073628
 10
7.6666001186
 20
-4.0832042937
 10
7.6749568142
 20
-4.0671190113
 10
7.6779790623
 20
-4.0505298058
  0
LWPOLYLINE
  5
42B
100
AcDbEntity
  8
IMPORT_IGES
100
AcDbPolyline
 62
253
  6
CONTINUOUS
 90
13
 70
0
 10
-8.7165784153
 20
-4.7388349419
 10
-8.7553322919
 20
-4.7391840145
 10
-8.7932771703
 20
-4.7388965122
 10
-8.8297945857
 20
-4.7379852612
 10
-8.8641238257
 20
-4.7364828352
 10
-8.8959358907
 20
-4.7344178657
 10
-8.9251984834
 20
-4.7317842587
 10
-8.9514844252
 20
-4.728583441
 10
-8.9740032302
 20
-4.7248691104
 10
-8.9921457195
 20
-4.7207102048
 10
-9.0054791042
 20
-4.716179273
 10
-9.0136933848
 20
-4.7113449583
 10
-9.0165327238
 20
-4.7062900951
  0
LWPOLYLINE
  5
42C
100
AcDbEntity
  8
IMPORT_IGES
100
AcDbPolyline
 62
253
  6
CONTINUOUS
 90
13
 70
0
 10
-8.125
 20
-4.7388362272
 10
-8.0991893207
 20
-4.7386250311
 10
-8.0738972009
 20
-4.7379991493
 10
-8.0495370651
 20
-4.7369732402
 10
-8.0266132219
 20
-4.7355764587
 10
-8.0053564847
 20
-4.7338310735
 10
-7.9858094817
 20
-4.7317344009
 10
-7.9682638616
 20
-4.7292931756
 10
-7.95324249
 20
-4.7265520187
 10
-7.9411520943
 20
-4.7235640006
 10
-7.9322824016
 20
-4.7203826932
 10
-7.926841357
 20
-4.7170578138
 10
-7.925
 20
-4.7136478931
  0
LWPOLYLINE
  5
42D
100
AcDbEntity
  8
IMPORT_IGES
100
AcDbPolyline
 62
253
  6
CONTINUOUS
 90
13
 70
0
 10
4.875
 20
-4.7388338308
 10
4.9008106793
 20
-4.7386236998
 10
4.9261027991
 20
-4.7379986168
 10
4.9504629349
 20
-4.7369732402
 10
4.9733867781
 20
-4.7355766362
 10
4.9946435153
 20
-4.7338311623
 10
5.0141905183
 20
-4.7317344009
 10
5.0317361384
 20
-4.7292931756
 10
5.04675751
 20
-4.7265520187
 10
5.0588479057
 20
-4.7235640006
 10
5.0677175984
 20
-4.7203826932
 10
5.073158643
 20
-4.7170578138
 10
5.075
 20
-4.7136478931
  0
LINE
  5
42E
100
AcDbEntity
  8
IMPORT_IGES
100
AcDbLine
 62
253
  6
CONTINUOUS
 10
4.875
 20
-4.7388340209
 11
4.075
 21
-4.7388401477
  0
LINE
  5
42F
100
AcDbEntity
  8
IMPORT_IGES
100
AcDbLine
 62
253
  6
CONTINUOUS
 10
-8.125
 20
-4.7388366987
 11
-8.7165782852
 21
-4.7388371703
  0
LINE
  5
430
100
AcDbEntity
  8
IMPORT_IGES
100
AcDbLine
 62
253
  6
CONTINUOUS
 10
-6.225
 20
-4.7388340414
 11
-5.425
 21
-4.738841877
  0
LINE
  5
431
100
AcDbEntity
  8
IMPORT_IGES
100
AcDbLine
 62
253
  6
CONTINUOUS
 10
6.775
 20
-4.738839919
 11
7.366578185
 21
-4.7388424615
  0
LINE
  5
432
100
AcDbEntity
  8
IMPORT_IGES
100
AcDbLine
 62
7
  6
CONTINUOUS
 10
-1.7798535023
 20
-4.3548242709
 11
0.4298535023
 21
-4.3548242708
  0
LINE
  5
433
100
AcDbEntity
  8
IMPORT_IGES
100
AcDbLine
 62
253
  6
CONTINUOUS
 10
-8.7280247281
 20
-4.1688776069
 11
-8.1249999999
 21
-4.1688786577
  0
LINE
  5
434
100
AcDbEntity
  8
IMPORT_IGES
100
AcDbLine
 62
253
  6
CONTINUOUS
 10
6.775
 20
-4.1688799861
 11
7.3780246782
 21
-4.1688797904
  0
LINE
  5
435
100
AcDbEntity
  8
IMPORT_IGES
100
AcDbLine
 62
253
  6
CONTINUOUS
 10
-6.225
 20
-4.1688827651
 11
-5.425
 21
-4.1688773296
  0
LINE
  5
436
100
AcDbEntity
  8
IMPORT_IGES
100
AcDbLine
 62
253
  6
CONTINUOUS
 10
4.075
 20
-4.1688751909
 11
4.875
 21
-4.168881256
  0
LINE
  5
437
100
AcDbEntity
  8
IMPORT_IGES
100
AcDbLine
 62
7
  6
CONTINUOUS
 10
-2.0798535023
 20
-3.7843023014
 11
0.7298535023
 21
-3.7843023014
  0
LINE
  5
438
100
AcDbEntity
  8
IMPORT_IGES
100
AcDbLine
 62
7
  6
CONTINUOUS
 10
1.9298535023
 20
-3.6822008571
 11
1.0298535023
 21
-3.6822008571
  0
LINE
  5
439
100
AcDbEntity
  8
IMPORT_IGES
100
AcDbLine
 62
7
  6
CONTINUOUS
 10
-2.3798535023
 20
-3.6822008571
 11
-3.2798535023
 21
-3.6822008571
  0
LINE
  5
43A
100
AcDbEntity
  8
IMPORT_IGES
100
AcDbLine
 62
7
  6
CONTINUOUS
 10
2.1871606882
 20
-3.650058
 11
-3.5371605543
 21
-3.650058
  0
LWPOLYLINE
  5
43B
100
AcDbEntity
  8
IMPORT_IGES
100
AcDbPolyline
 62
253
  6
CONTINUOUS
 90
13
 70
0
 10
6.775
 20
-4.7388349378
 10
6.7491890074
 20
-4.7386243096
 10
6.7238966734
 20
-4.7379988452
 10
6.6995364269
 20
-4.7369732075
 10
6.6766125991
 20
-4.7355765098
 10
6.6553559594
 20
-4.7338310719
 10
6.6358090498
 20
-4.7317343481
 10
6.6182625642
 20
-4.7292929695
 10
6.6032406551
 20
-4.7265516314
 10
6.5911518715
 20
-4.723563935
 10
6.5822846648
 20
-4.7203837202
 10
6.5768443367
 20
-4.717060559
 10
6.575000004
 20
-4.7136529364
  0
LWPOLYLINE
  5
43C
100
AcDbEntity
  8
IMPORT_IGES
100
AcDbPolyline
 62
253
  6
CONTINUOUS
 90
13
 70
0
 10
7.3665782264
 20
-4.7388424622
 10
7.4053324584
 20
-4.7391881913
 10
7.4432776378
 20
-4.7388981723
 10
7.4797952885
 20
-4.737985233
 10
7.5141246927
 20
-4.7364822273
 10
7.545936844
 20
-4.73441751
 10
7.5751994415
 20
-4.7317841542
 10
7.601485317
 20
-4.7285833107
 10
7.624003993
 20
-4.7248689587
 10
7.6421462999
 20
-4.7207100406
 10
7.6554794747
 20
-4.7161791084
 10
7.6636935519
 20
-4.7113448058
 10
7.6665327239
 20
-4.7062900932
  0
LWPOLYLINE
  5
43D
100
AcDbEntity
  8
IMPORT_IGES
100
AcDbPolyline
 62
253
  6
CONTINUOUS
 90
13
 70
0
 10
6.775
 20
-4.1688801819
 10
6.7491893207
 20
-4.1681914346
 10
6.7238972009
 20
-4.1661456508
 10
6.699537065
 20
-4.1627907804
 10
6.6766132219
 20
-4.1582220186
 10
6.6553564847
 20
-4.1525123863
 10
6.6358094817
 20
-4.1456536317
 10
6.6182638559
 20
-4.1376679592
 10
6.6032424807
 20
-4.1287011579
 10
6.5911520943
 20
-4.1189268405
 10
6.5822824161
 20
-4.108520256
 10
6.5768413753
 20
-4.0976440348
 10
6.575
 20
-4.0864896401
  0
LINE
  5
43E
100
AcDbEntity
  8
DRAFT
100
AcDbLine
 62
7
  6
CONTINUOUS
 10
-10.1696499221
 20
-0.5
 11
-10.325
 21
-0.4223308767
  0
LINE
  5
43F
100
AcDbEntity
  8
IMPORT_IGES
100
AcDbLine
 62
253
  6
CONTINUOUS
 10
-7.9025187086
 20
-0.3710814526
 11
-8.0724980996
 21
-0.271086715
  0
LWPOLYLINE
  5
440
100
AcDbEntity
  8
IMPORT_IGES
100
AcDbPolyline
 62
253
  6
CONTINUOUS
 90
10
 70
0
 10
6.6076774215
 20
-8.3965692993
 10
6.6385187943
 20
-8.4148895158
 10
6.6669379583
 20
-8.4356671716
 10
6.69236048
 20
-8.4584187459
 10
6.714810336
 20
-8.4827390492
 10
6.7342635497
 20
-8.509033271
 10
6.7500737577
 20
-8.5380334592
 10
6.7620255057
 20
-8.56998363
 10
6.770334248
 20
-8.6046397672
 10
6.7749999846
 20
-8.6420018709
  0
LWPOLYLINE
  5
441
100
AcDbEntity
  8
IMPORT_IGES
100
AcDbPolyline
 62
253
  6
CONTINUOUS
 90
7
 70
0
 10
6.6553564851
 20
-10.1495323007
 10
6.6358094816
 20
-10.1362356585
 10
6.6182638615
 20
-10.1207542906
 10
6.6032424899
 20
-10.1033708651
 10
6.5911520942
 20
-10.0844219433
 10
6.5822824015
 20
-10.0642472634
 10
6.5768413568
 20
-10.0431621104
  0
LINE
  5
442
100
AcDbEntity
  8
RACCORDO
100
AcDbLine
 62
253
  6
CONTINUOUS
 10
6.825
 20
-13.4000190385
 11
6.7351132618
 21
-13.3101323002
  0
LINE
  5
443
100
AcDbEntity
  8
DRAFT
100
AcDbLine
 62
7
  6
CONTINUOUS
 10
6.825
 20
-12.5
 11
6.7351132618
 21
-12.4101132618
  0
LINE
  5
444
100
AcDbEntity
  8
0
100
AcDbLine
 62
7
  6
CONTINUOUS
 10
-3.3508720685
 20
-11.2500290004
 11
-3.3508720685
 21
-11.3500290004
  0
LINE
  5
445
100
AcDbEntity
  8
0
100
AcDbLine
 62
7
  6
CONTINUOUS
 10
-3.315854292
 20
-11.2500290004
 11
-3.315854292
 21
-11.3500290004
  0
LINE
  5
446
100
AcDbEntity
  8
IMPORT_IGES
100
AcDbLine
 62
253
  6
CONTINUOUS
 10
-3.2798535023
 20
3.85570592
 11
-3.2798535023
 21
3.5714285714
  0
LINE
  5
447
100
AcDbEntity
  8
IMPORT_IGES
100
AcDbLine
 62
253
  6
CONTINUOUS
 10
-3.2798535023
 20
-3.6822008571
 11
-3.2798535023
 21
-3.8467035702
  0
LINE
  5
448
100
AcDbEntity
  8
0
100
AcDbLine
 62
253
  6
CONTINUOUS
 10
-2.9708006192
 20
-11.2500290004
 11
-2.9708006192
 21
-11.3500290004
  0
LINE
  5
449
100
AcDbEntity
  8
0
100
AcDbLine
 62
253
  6
CONTINUOUS
 10
-2.8922242017
 20
-11.2500290004
 11
-2.8922242017
 21
-11.3500290004
  0
LINE
  5
44A
100
AcDbEntity
  8
0
100
AcDbLine
 62
7
  6
CONTINUOUS
 10
-2.8076690961
 20
-11.2500290004
 11
-2.8076690961
 21
-11.3500290004
  0
LINE
  5
44B
100
AcDbEntity
  8
0
100
AcDbLine
 62
7
  6
CONTINUOUS
 10
-2.7641100217
 20
-11.2500290004
 11
-2.7641100217
 21
-11.3500290004
  0
LINE
  5
44C
100
AcDbEntity
  8
0
100
AcDbLine
 62
253
  6
CONTINUOUS
 10
-2.6746432454
 20
-11.2500290004
 11
-2.6746432454
 21
-11.3500290004
  0
LINE
  5
44D
100
AcDbEntity
  8
0
100
AcDbLine
 62
253
  6
CONTINUOUS
 10
-2.5864588071
 20
-11.2500290004
 11
-2.5864588071
 21
-11.3500290004
  0
LINE
  5
44E
100
AcDbEntity
  8
IMPORT_IGES
100
AcDbLine
 62
253
  6
CONTINUOUS
 10
-2.3798533349
 20
-4.3441429522
 11
-2.3798535023
 21
-3.6822008571
  0
LINE
  5
44F
100
AcDbEntity
  8
IMPORT_IGES
100
AcDbLine
 62
253
  6
CONTINUOUS
 10
-2.379853018
 20
3.5714285714
 11
-2.3798528248
 21
4.344947717
  0
LINE
  5
450
100
AcDbEntity
  8
0
100
AcDbLine
 62
7
  6
CONTINUOUS
 10
-2.2687364865
 20
-11.2500290004
 11
-2.2687364865
 21
-11.3500290004
  0
LINE
  5
451
100
AcDbEntity
  8
0
100
AcDbLine
 62
7
  6
CONTINUOUS
 10
-2.23371871
 20
-11.2500290004
 11
-2.23371871
 21
-11.3500290004
  0
LINE
  5
452
100
AcDbEntity
  8
IMPORT_IGES
100
AcDbLine
 62
7
  6
CONTINUOUS
 10
-2.0798535023
 20
-4.4545137633
 11
-2.0798535023
 21
-3.6893437143
  0
LINE
  5
453
100
AcDbEntity
  8
IMPORT_IGES
100
AcDbLine
 62
7
  6
CONTINUOUS
 10
-2.0798535023
 20
3.5761904762
 11
-2.0798535023
 21
4.4545346441
  0
LINE
  5
454
100
AcDbEntity
  8
0
100
AcDbLine
 62
7
  6
CONTINUOUS
 10
-1.9672418881
 20
-11.2500290004
 11
-1.9672418881
 21
-11.3500290004
  0
LINE
  5
455
100
AcDbEntity
  8
IMPORT_IGES
100
AcDbLine
 62
7
  6
CONTINUOUS
 10
-1.7798535023
 20
-4.5410889427
 11
-1.7798535023
 21
-4.3548242709
  0
LINE
  5
456
100
AcDbEntity
  8
IMPORT_IGES
100
AcDbLine
 62
7
  6
CONTINUOUS
 10
-1.7798535023
 20
4.3372234626
 11
-1.7798535023
 21
4.541057624
  0
LINE
  5
457
100
AcDbEntity
  8
0
100
AcDbLine
 62
7
  6
CONTINUOUS
 10
-1.7058897305
 20
-11.2500290004
 11
-1.7058897305
 21
-11.3500290004
  0
LINE
  5
458
100
AcDbEntity
  8
0
100
AcDbLine
 62
7
  6
CONTINUOUS
 10
-1.670871954
 20
-11.2500290004
 11
-1.670871954
 21
-11.3500290004
  0
LINE
  5
459
100
AcDbEntity
  8
RACCORDO
100
AcDbLine
 62
253
  6
CONTINUOUS
 10
-10.2621617663
 20
-20.2111031425
 11
-10.325
 21
-20.3997711479
  0
LINE
  5
45A
100
AcDbEntity
  8
RACCORDO
100
AcDbLine
 62
253
  6
CONTINUOUS
 10
-9.762542366
 20
-20.7113319946
 11
-9.8253805997
 21
-20.9
  0
LWPOLYLINE
  5
45B
100
AcDbEntity
  8
IMPORT_IGES
100
AcDbPolyline
 62
253
  6
CONTINUOUS
 90
3
 70
0
 10
-4.6566050143
 20
-6.1764276556
 10
-4.6435482183
 20
-6.1478097709
 10
-4.6292745489
 20
-6.1176966325
  0
LINE
  5
45C
100
AcDbEntity
  8
IMPORT_IGES
100
AcDbLine
 62
253
  6
CONTINUOUS
 10
2.139383876
 20
6.4342446924
 11
2.2497518712
 21
6.601034697
  0
LINE
  5
45D
100
AcDbEntity
  8
IMPORT_IGES
100
AcDbLine
 62
7
  6
CONTINUOUS
 10
3.7298535023
 20
6.9015490589
 11
3.5715295625
 21
6.7418226951
  0
LINE
  5
45E
100
AcDbEntity
  8
DRAFT
100
AcDbLine
 62
7
  6
CONTINUOUS
 10
8.8196499221
 20
7.9
 11
8.975
 21
7.9776691233
  0
LWPOLYLINE
  5
45F
100
AcDbEntity
  8
IMPORT_IGES
100
AcDbPolyline
 62
253
  6
CONTINUOUS
 90
7
 70
0
 10
-7.9713732994
 20
-0.4328161965
 10
-7.9906482986
 20
-0.4395297214
 10
-8.011690874
 20
-0.4446746459
 10
-8.0342657172
 20
-0.4479775681
 10
-8.0574532046
 20
-0.4501238207
 10
-8.080578662
 20
-0.4519019248
 10
-8.1032474259
 20
-0.4529734833
  0
LWPOLYLINE
  5
460
100
AcDbEntity
  8
IMPORT_IGES
100
AcDbPolyline
 62
253
  6
CONTINUOUS
 90
5
 70
0
 10
-6.7810818204
 20
-0.071081606
 10
-6.7648726437
 20
-0.0777916958
 10
-6.7483633753
 20
-0.0843033495
 10
-6.7315540152
 20
-0.0906105702
 10
-6.725
 20
-0.0929432846
  0
LINE
  5
461
100
AcDbEntity
  8
DRAFT
100
AcDbLine
 62
7
  6
CONTINUOUS
 10
8.8196499221
 20
-7.2
 11
8.975
 21
-7.2776691233
  0
LWPOLYLINE
  5
462
100
AcDbEntity
  8
IMPORT_IGES
100
AcDbPolyline
 62
253
  6
CONTINUOUS
 90
4
 70
0
 10
3.3190451936
 20
-5.9924647942
 10
3.2259924543
 20
-5.920646814
 10
3.192253338
 20
-5.8947568546
 10
3.157129547
 20
-5.8682203415
  0
LINE
  5
463
100
AcDbEntity
  8
IMPORT_IGES
100
AcDbLine
 62
253
  6
CONTINUOUS
 10
3.3471021721
 20
-6.0144137004
 11
3.3190451936
 21
-5.9924647942
  0
LINE
  5
464
100
AcDbEntity
  8
IMPORT_IGES
100
AcDbLine
 62
253
  6
CONTINUOUS
 10
3.421458952
 20
-6.0738281976
 11
3.3471021721
 21
-6.0144137004
  0
LWPOLYLINE
  5
465
100
AcDbEntity
  8
IMPORT_IGES
100
AcDbPolyline
 62
253
  6
CONTINUOUS
 90
10
 70
0
 10
-8.6340672199
 20
9.6404394662
 10
-8.6614052188
 20
9.6814350506
 10
-8.6892355167
 20
9.7169034296
 10
-8.7168879157
 20
9.7464639041
 10
-8.7437697818
 20
9.7702214226
 10
-8.7690124994
 20
9.7873692746
 10
-8.7918222711
 20
9.7968683549
 10
-8.8119286744
 20
9.7989925144
 10
-8.8292349937
 20
9.7946390452
 10
-8.8436835105
 20
9.7843765662
  0
LINE
  5
466
100
AcDbEntity
  8
RACCORDO
100
AcDbLine
 62
253
  6
CONTINUOUS
 10
-10.325
 20
20.3997711479
 11
-10.1696499221
 21
19.9333419123
  0
LINE
  5
467
100
AcDbEntity
  8
RACCORDO
100
AcDbLine
 62
253
  6
CONTINUOUS
 10
-9.8253805997
 20
20.9
 11
-9.6700305219
 21
20.4335707644
  0
LINE
  5
468
100
AcDbEntity
  8
0
100
AcDbLine
 62
253
  6
CONTINUOUS
 10
-1.3258185674
 20
-11.2500290004
 11
-1.3258185674
 21
-11.3500290004
  0
LINE
  5
469
100
AcDbEntity
  8
IMPORT_IGES
100
AcDbLine
 62
7
  6
CONTINUOUS
 10
-1.275
 20
3.85
 11
-1.275
 21
4.6400356936
  0
LINE
  5
46A
100
AcDbEntity
  8
0
100
AcDbLine
 62
253
  6
CONTINUOUS
 10
-1.2472419243
 20
-11.2500290004
 11
-1.2472419243
 21
-11.3500290004
  0
LINE
  5
46B
100
AcDbEntity
  8
0
100
AcDbLine
 62
7
  6
CONTINUOUS
 10
-1.1626867581
 20
-11.2500290004
 11
-1.1626867581
 21
-11.3500290004
  0
LINE
  5
46C
100
AcDbEntity
  8
0
100
AcDbLine
 62
7
  6
CONTINUOUS
 10
-1.1071708966
 20
-11.2500290004
 11
-1.1071708966
 21
-11.3500290004
  0
LINE
  5
46D
100
AcDbEntity
  8
0
100
AcDbLine
 62
253
  6
CONTINUOUS
 10
-0.983327469
 20
-11.2500290004
 11
-0.983327469
 21
-11.3500290004
  0
LINE
  5
46E
100
AcDbEntity
  8
0
100
AcDbLine
 62
253
  6
CONTINUOUS
 10
-0.8902312566
 20
-11.2500290004
 11
-0.8902312566
 21
-11.3500290004
  0
LINE
  5
46F
100
AcDbEntity
  8
0
100
AcDbLine
 62
7
  6
CONTINUOUS
 10
-0.764679556
 20
-11.2500290004
 11
-0.764679556
 21
-11.3500290004
  0
LINE
  5
470
100
AcDbEntity
  8
0
100
AcDbLine
 62
7
  6
CONTINUOUS
 10
-0.2744306851
 20
-11.2500290004
 11
-0.2744306851
 21
-11.3500290004
  0
LINE
  5
471
100
AcDbEntity
  8
0
100
AcDbLine
 62
253
  6
CONTINUOUS
 10
-0.1232562352
 20
-11.2500290004
 11
-0.1232562352
 21
-11.3500290004
  0
LINE
  5
472
100
AcDbEntity
  8
IMPORT_IGES
100
AcDbLine
 62
7
  6
CONTINUOUS
 10
-0.075
 20
4.640035451
 11
-0.075
 21
3.85
  0
LINE
  5
473
100
AcDbEntity
  8
0
100
AcDbLine
 62
253
  6
CONTINUOUS
 10
-0.0344306458
 20
-11.2500290004
 11
-0.0344306458
 21
-11.3500290004
  0
LINE
  5
474
100
AcDbEntity
  8
0
100
AcDbLine
 62
7
  6
CONTINUOUS
 10
0.0680606555
 20
-11.2500290004
 11
0.0680606555
 21
-11.3500290004
  0
LINE
  5
475
100
AcDbEntity
  8
0
100
AcDbLine
 62
7
  6
CONTINUOUS
 10
0.1118476528
 20
-11.3500290004
 11
0.1118476528
 21
-11.2500290004
  0
LINE
  5
476
100
AcDbEntity
  8
0
100
AcDbLine
 62
7
  6
CONTINUOUS
 10
0.1327819983
 20
-11.2500290004
 11
0.1327819983
 21
-11.3500290004
  0
LINE
  5
477
100
AcDbEntity
  8
0
100
AcDbLine
 62
7
  6
CONTINUOUS
 10
0.1456800276
 20
-11.2500290004
 11
0.1456800276
 21
-11.3500290004
  0
LINE
  5
478
100
AcDbEntity
  8
0
100
AcDbLine
 62
7
  6
CONTINUOUS
 10
0.1509075832
 20
-11.2500290004
 11
0.1509075832
 21
-11.3500290004
  0
LWPOLYLINE
  5
479
100
AcDbEntity
  8
ASSI
100
AcDbPolyline
 62
7
  6
CONTINUOUS
 90
17
 70
0
 10
-5.0309327327
 20
-23.7507734247
 10
-5.0305072846
 20
-23.7479907344
 10
-5.0294117387
 20
-23.7445445202
 10
-5.027627049
 20
-23.7404347823
 10
-5.0251336376
 20
-23.7356747975
 10
-5.0219153347
 20
-23.7302512888
 10
-5.0179632158
 20
-23.7241244261
 10
-5.0132668343
 20
-23.7172868866
 10
-5.0078161451
 20
-23.709745993
 10
-5.0016108951
 20
-23.7014838836
 10
-4.9946635086
 20
-23.6925202225
 10
-4.9869585062
 20
-23.6828353457
 10
-4.9784472137
 20
-23.6723523989
 10
-4.9691144665
 20
-23.6610710839
 10
-4.9589567081
 20
-23.6489916989
 10
-4.9479264894
 20
-23.6360382845
 10
-4.9360120715
 20
-23.6222095469
  0
LWPOLYLINE
  5
47A
100
AcDbEntity
  8
ASSI
100
AcDbPolyline
 62
7
  6
CONTINUOUS
 90
17
 70
0
 10
3.6809327327
 20
23.7507734247
 10
3.6805058115
 20
23.7479814955
 10
3.6794077005
 20
23.7445314173
 10
3.6776214372
 20
23.7404231902
 10
3.675130014
 20
23.7356694746
 10
3.6719191573
 20
23.73025761
 10
3.6679800271
 20
23.7241496156
 10
3.6633040725
 20
23.7173410493
 10
3.657881764
 20
23.7098363532
 10
3.6517078213
 20
23.7016108734
 10
3.6447926931
 20
23.6926849926
 10
3.6371207612
 20
23.6830383283
 10
3.6286380254
 20
23.672585078
 10
3.6193239331
 20
23.6613209741
 10
3.609175878
 20
23.6492502843
 10
3.5981507556
 20
23.6363000104
 10
3.5862377117
 20
23.6224696064
  0
LINE
  5
47B
100
AcDbEntity
  8
IMPORT_IGES
100
AcDbLine
 62
253
  6
CONTINUOUS
 10
-4.6292745489
 20
-6.1176966325
 11
-4.5810659871
 21
-6.0181562904
  0
LINE
  5
47C
100
AcDbEntity
  8
IMPORT_IGES
100
AcDbLine
 62
253
  6
CONTINUOUS
 10
-4.526281826
 20
-5.9073903514
 11
-4.5071229061
 21
-5.8682202618
  0
LWPOLYLINE
  5
47D
100
AcDbEntity
  8
IMPORT_IGES
100
AcDbPolyline
 62
253
  6
CONTINUOUS
 90
3
 70
0
 10
-4.5810659871
 20
-6.0181562904
 10
-4.5634724253
 20
-5.9823005675
 10
-4.526281826
 20
-5.9073903514
  0
LINE
  5
47E
100
AcDbEntity
  8
IMPORT_IGES
100
AcDbLine
 62
253
  6
CONTINUOUS
 10
-6.9481431955
 20
-10.7375490169
 11
-7.0337864358
 21
-10.885426135
  0
LINE
  5
47F
100
AcDbEntity
  8
IMPORT_IGES
100
AcDbLine
 62
253
  6
CONTINUOUS
 10
-7.7250050012
 20
-10.2911912295
 11
-7.7734607427
 21
-10.3747148007
  0
LWPOLYLINE
  5
480
100
AcDbEntity
  8
IMPORT_IGES
100
AcDbPolyline
 62
253
  6
CONTINUOUS
 90
4
 70
0
 10
-7.0337864358
 20
-10.885426135
 10
-7.0444163513
 20
-10.903604567
 10
-7.0471779702
 20
-10.9082629183
 10
-7.0481422926
 20
-10.9098077498
  0
LINE
  5
481
100
AcDbEntity
  8
IMPORT_IGES
100
AcDbLine
 62
253
  6
CONTINUOUS
 10
-7.7734607427
 20
-10.3747148007
 11
-7.8028329477
 21
-10.4248177683
  0
LWPOLYLINE
  5
482
100
AcDbEntity
  8
IMPORT_IGES
100
AcDbPolyline
 62
253
  6
CONTINUOUS
 90
5
 70
0
 10
-7.8028329477
 20
-10.4248177683
 10
-7.8164329069
 20
-10.4476812761
 10
-7.821077989
 20
-10.4553303032
 10
-7.8239597006
 20
-10.4599074685
 10
-7.8249995977
 20
-10.4612885539
  0
LINE
  5
483
100
AcDbEntity
  8
IMPORT_IGES
100
AcDbLine
 62
7
  6
CONTINUOUS
 10
-6.225
 20
-7.8451400551
 11
-6.2949171818
 21
-7.9542999891
  0
LWPOLYLINE
  5
484
100
AcDbEntity
  8
IMPORT_IGES
100
AcDbPolyline
 62
253
  6
CONTINUOUS
 90
10
 70
0
 10
-4.7714593868
 20
-6.0738283964
 10
-4.7873536853
 20
-6.0949308187
 10
-4.8015499721
 20
-6.1171836886
 10
-4.8140482473
 20
-6.1405870062
 10
-4.8249509658
 20
-6.1651902414
 10
-4.8341556727
 20
-6.1909439242
 10
-4.8413550028
 20
-6.2176996447
 10
-4.8464465011
 20
-6.245407933
 10
-4.8495326226
 20
-6.2741182589
 10
-4.8506133673
 20
-6.3038306226
  0
LWPOLYLINE
  5
485
100
AcDbEntity
  8
IMPORT_IGES
100
AcDbPolyline
 62
253
  6
CONTINUOUS
 90
4
 70
0
 10
-7.9508734889
 20
-10.1001125916
 10
-7.964733256
 20
-10.1170889844
 10
-7.9813824537
 20
-10.1326999226
 10
-8.0007672229
 20
-10.1467124779
  0
LWPOLYLINE
  5
486
100
AcDbEntity
  8
IMPORT_IGES
100
AcDbPolyline
 62
7
  6
CONTINUOUS
 90
10
 70
0
 10
-7.7251577719
 20
-0.2710562344
 10
-7.7468368765
 20
-0.2722539046
 10
-7.7689110894
 20
-0.275918836
 10
-7.7910787858
 20
-0.2822188579
 10
-7.8132769103
 20
-0.2914377203
 10
-7.834806067
 20
-0.3035946131
 10
-7.8545652202
 20
-0.3180600262
 10
-7.8722573212
 20
-0.3342461277
 10
-7.8881808947
 20
-0.3520182944
 10
-7.9025187086
 20
-0.3710814526
  0
LINE
  5
487
100
AcDbEntity
  8
RACCORDO
100
AcDbLine
 62
7
  6
CONTINUOUS
 10
-9.8872871968
 20
-0.4118358927
 11
-10.325
 21
-0.4223308767
  0
LINE
  5
488
100
AcDbEntity
  8
RACCORDO
100
AcDbLine
 62
7
  6
CONTINUOUS
 10
8.975
 20
0.4223308767
 11
8.5372871968
 21
0.4118358927
  0
LINE
  5
489
100
AcDbEntity
  8
IMPORT_IGES
100
AcDbLine
 62
253
  6
CONTINUOUS
 10
-8.7939112984
 20
-0.271084106
 11
-9.0938581795
 21
-0.2763177048
  0
LWPOLYLINE
  5
48A
100
AcDbEntity
  8
IMPORT_IGES
100
AcDbPolyline
 62
253
  6
CONTINUOUS
 90
13
 70
0
 10
7.4317321136
 20
-1.0919872869
 10
7.4703672975
 20
-1.0915179981
 10
7.5082007226
 20
-1.0890125707
 10
7.5446194701
 20
-1.0845379268
 10
7.5788693266
 20
-1.0782306544
 10
7.6106237345
 20
-1.0701969009
 10
7.6398507987
 20
-1.060418383
 10
7.6661275758
 20
-1.0489172691
 10
7.6886702122
 20
-1.0358995633
 10
7.7068739357
 20
-1.0216130809
 10
7.7203083129
 20
-1.0063100992
 10
7.7286644489
 20
-0.9902252403
 10
7.7316864295
 20
-0.9736368005
  0
LWPOLYLINE
  5
48B
100
AcDbEntity
  8
IMPORT_IGES
100
AcDbPolyline
 62
253
  6
CONTINUOUS
 90
13
 70
0
 10
6.7749999999
 20
-0.4528325501
 10
6.7488776111
 20
-0.4530700157
 10
6.7232331391
 20
-0.4535383855
 10
6.6985025031
 20
-0.4542378162
 10
6.6751179524
 20
-0.455168961
 10
6.6534551742
 20
-0.456332203
 10
6.6338389349
 20
-0.4577262543
 10
6.6166082972
 20
-0.4593544192
 10
6.6020598126
 20
-0.4612177672
 10
6.5904252551
 20
-0.4633119685
 10
6.5819252475
 20
-0.4656422697
 10
6.576743847
 20
-0.4682258113
 10
6.575
 20
-0.4710819857
  0
LINE
  5
48C
100
AcDbEntity
  8
IMPORT_IGES
100
AcDbLine
 62
253
  6
CONTINUOUS
 10
6.775
 20
-1.0919877069
 11
7.4317321905
 21
-1.091987288
  0
LINE
  5
48D
100
AcDbEntity
  8
IMPORT_IGES
100
AcDbLine
 62
253
  6
CONTINUOUS
 10
-8.7817323708
 20
-1.0919876444
 11
-8.1249999998
 21
-1.0919876736
  0
LINE
  5
48E
100
AcDbEntity
  8
IMPORT_IGES
100
AcDbLine
 62
253
  6
CONTINUOUS
 10
-6.225
 20
-1.0919875574
 11
-5.4204596355
 21
-1.0919876275
  0
LINE
  5
48F
100
AcDbEntity
  8
IMPORT_IGES
100
AcDbLine
 62
253
  6
CONTINUOUS
 10
4.0704596355
 20
-1.0919869261
 11
4.875
 21
-1.0919856479
  0
LINE
  5
490
100
AcDbEntity
  8
IMPORT_IGES
100
AcDbLine
 62
7
  6
CONTINUOUS
 10
-6.125
 20
-1.055
 11
-5.775
 21
-1.055
  0
LINE
  5
491
100
AcDbEntity
  8
IMPORT_IGES
100
AcDbLine
 62
7
  6
CONTINUOUS
 10
4.425
 20
-1.055
 11
4.775
 21
-1.055
  0
LINE
  5
492
100
AcDbEntity
  8
IMPORT_IGES
100
AcDbLine
 62
7
  6
CONTINUOUS
 10
-5.1110261456
 20
-0.9360899655
 11
-5.225
 21
-0.9360899655
  0
LINE
  5
493
100
AcDbEntity
  8
IMPORT_IGES
100
AcDbLine
 62
253
  6
CONTINUOUS
 10
-6.125
 20
-0.755
 11
-5.775
 21
-0.755
  0
LINE
  5
494
100
AcDbEntity
  8
IMPORT_IGES
100
AcDbLine
 62
253
  6
CONTINUOUS
 10
4.425
 20
-0.755
 11
4.775
 21
-0.755
  0
LINE
  5
495
100
AcDbEntity
  8
DRAFT
100
AcDbLine
 62
7
  6
CONTINUOUS
 10
-10.1696499221
 20
-0.5
 11
-9.0899537906
 21
-0.5
  0
LINE
  5
496
100
AcDbEntity
  8
DRAFT
100
AcDbLine
 62
7
  6
CONTINUOUS
 10
8.8196499221
 20
-0.5
 11
7.7399537906
 21
-0.5
  0
LINE
  5
497
100
AcDbEntity
  8
IMPORT_IGES
100
AcDbLine
 62
253
  6
CONTINUOUS
 10
-5.475
 20
-0.455
 11
-5.175
 21
-0.4550000001
  0
LINE
  5
498
100
AcDbEntity
  8
IMPORT_IGES
100
AcDbLine
 62
253
  6
CONTINUOUS
 10
-6.725
 20
-0.455
 11
-6.425
 21
-0.455
  0
LINE
  5
499
100
AcDbEntity
  8
IMPORT_IGES
100
AcDbLine
 62
253
  6
CONTINUOUS
 10
4.125
 20
-0.455
 11
3.825
 21
-0.455
  0
LINE
  5
49A
100
AcDbEntity
  8
IMPORT_IGES
100
AcDbLine
 62
253
  6
CONTINUOUS
 10
5.075
 20
-0.455
 11
5.375
 21
-0.4550000001
  0
LINE
  5
49B
100
AcDbEntity
  8
RACCORDO
100
AcDbLine
 62
7
  6
CONTINUOUS
 10
8.2553794106
 20
-0.4101132618
 11
7.7415227694
 21
-0.4101132618
  0
LINE
  5
49C
100
AcDbEntity
  8
RACCORDO
100
AcDbLine
 62
7
  6
CONTINUOUS
 10
-9.0915227694
 20
-0.4101132618
 11
-9.6053794106
 21
-0.4101132618
  0
LINE
  5
49D
100
AcDbEntity
  8
IMPORT_IGES
100
AcDbLine
 62
253
  6
CONTINUOUS
 10
6.7224982454
 20
-0.271084954
 11
7.444384815
 21
-0.2710821499
  0
LINE
  5
49E
100
AcDbEntity
  8
IMPORT_IGES
100
AcDbLine
 62
253
  6
CONTINUOUS
 10
-8.7939112984
 20
-0.2710854105
 11
-8.0724980996
 21
-0.271086715
  0
LINE
  5
49F
100
AcDbEntity
  8
IMPORT_IGES
100
AcDbLine
 62
7
  6
CONTINUOUS
 10
5.375
 20
-0.2710819831
 11
6.3751548037
 21
-0.2710819831
  0
LINE
  5
4A0
100
AcDbEntity
  8
IMPORT_IGES
100
AcDbLine
 62
7
  6
CONTINUOUS
 10
-6.725
 20
-0.2710819831
 11
-7.7250167009
 21
-0.271081983
  0
LINE
  5
4A1
100
AcDbEntity
  8
IMPORT_IGES
100
AcDbLine
 62
253
  6
CONTINUOUS
 10
5.4310730709
 20
-0.0710827939
 11
6.375154201
 21
-0.0710822837
  0
LINE
  5
4A2
100
AcDbEntity
  8
IMPORT_IGES
100
AcDbLine
 62
253
  6
CONTINUOUS
 10
-7.7251569748
 20
-0.0710822198
 11
-6.7810818204
 21
-0.071081606
  0
LINE
  5
4A3
100
AcDbEntity
  8
IMPORT_IGES
100
AcDbLine
 62
7
  6
CONTINUOUS
 10
-9.0977212945
 20
-0.055
 11
-8.7970539428
 21
-0.0549999076
  0
LINE
  5
4A4
100
AcDbEntity
  8
IMPORT_IGES
100
AcDbLine
 62
7
  6
CONTINUOUS
 10
7.7477212945
 20
-0.055
 11
7.4473723772
 21
-0.0549943904
  0
LINE
  5
4A5
100
AcDbEntity
  8
IMPORT_IGES
100
AcDbLine
 62
7
  6
CONTINUOUS
 10
3.7603662579
 20
-0.9359777403
 11
3.875
 21
-0.9360899655
  0
LWPOLYLINE
  5
4A6
100
AcDbEntity
  8
IMPORT_IGES
100
AcDbPolyline
 62
253
  6
CONTINUOUS
 90
9
 70
0
 10
6.7749993728
 20
-0.4528329011
 10
6.7528590833
 20
-0.4526583091
 10
6.730245357
 20
-0.451392598
 10
6.707657096
 20
-0.4497438115
 10
6.685600801
 20
-0.4478799586
 10
6.6644771423
 20
-0.44518751
 10
6.6446043439
 20
-0.4410119659
 10
6.6263180762
 20
-0.4353411247
 10
6.6097416503
 20
-0.4278857813
  0
LWPOLYLINE
  5
4A7
100
AcDbEntity
  8
IMPORT_IGES
100
AcDbPolyline
 62
253
  6
CONTINUOUS
 90
13
 70
0
 10
-8.1249895162
 20
-0.452834058
 10
-8.0988311189
 20
-0.4530724962
 10
-8.0731572412
 20
-0.4535412842
 10
-8.0484050035
 20
-0.4542401356
 10
-8.0250060574
 20
-0.4551692652
 10
-8.0033376003
 20
-0.4563298674
 10
-7.9837270344
 20
-0.4577228234
 10
-7.966512289
 20
-0.4593541319
 10
-7.9519857024
 20
-0.4612226647
 10
-7.9403753591
 20
-0.4633191257
 10
-7.9318982382
 20
-0.4656473806
 10
-7.9267347258
 20
-0.4682265698
 10
-7.925
 20
-0.4710732349
  0
LINE
  5
4A8
100
AcDbEntity
  8
IMPORT_IGES
100
AcDbLine
 62
253
  6
CONTINUOUS
 10
7.443903875
 20
-0.2710817554
 11
7.7438581795
 21
-0.276317705
  0
LINE
  5
4A9
100
AcDbEntity
  8
RACCORDO
100
AcDbLine
 62
7
  6
CONTINUOUS
 10
8.975
 20
-0.4223308767
 11
8.5372871968
 21
-0.4118358927
  0
LINE
  5
4AA
100
AcDbEntity
  8
RACCORDO
100
AcDbLine
 62
7
  6
CONTINUOUS
 10
-9.8872871968
 20
0.4118358927
 11
-10.325
 21
0.4223308767
  0
LWPOLYLINE
  5
4AB
100
AcDbEntity
  8
IMPORT_IGES
100
AcDbPolyline
 62
253
  6
CONTINUOUS
 90
13
 70
0
 10
6.775
 20
-1.0919877073
 10
6.7491896804
 20
-1.0912987424
 10
6.7238978066
 20
-1.0892528275
 10
6.6995377977
 20
-1.0858978958
 10
6.676613937
 20
-1.0813291379
 10
6.6553570878
 20
-1.0756195444
 10
6.6358099775
 20
-1.068760822
 10
6.6182642876
 20
-1.0607751759
 10
6.6032428425
 20
-1.0518084001
 10
6.5911523501
 20
-1.0420340789
 10
6.58228255
 20
-1.0316274471
 10
6.5768414138
 20
-1.0207511432
 10
6.575
 20
-1.0095966325
  0
LINE
  5
4AC
100
AcDbEntity
  8
DRAFT
100
AcDbLine
 62
7
  6
CONTINUOUS
 10
7.675
 20
-9.6
 11
7.6575462644
 21
-9.5825462644
  0
LWPOLYLINE
  5
4AD
100
AcDbEntity
  8
IMPORT_IGES
100
AcDbPolyline
 62
253
  6
CONTINUOUS
 90
10
 70
0
 10
6.7749999683
 20
-10.1812646504
 10
6.7875092043
 20
-10.1957745145
 10
6.7999669553
 20
-10.2080969659
 10
6.812222205
 20
-10.2181796791
 10
6.8240889108
 20
-10.2260191056
 10
6.8354674896
 20
-10.2315672194
 10
6.8463492925
 20
-10.2347426751
 10
6.8566566121
 20
-10.2355492
 10
6.8662399235
 20
-10.2340633499
 10
6.87499907
 20
-10.2303497067
  0
LWPOLYLINE
  5
4AE
100
AcDbEntity
  8
IMPORT_IGES
100
AcDbPolyline
 62
253
  6
CONTINUOUS
 90
10
 70
0
 10
3.421458952
 20
-6.0738215284
 10
3.4372099268
 20
-6.0946714365
 10
3.4513105252
 20
-6.1167310993
 10
3.4637607472
 20
-6.140000517
 10
3.4746793561
 20
-6.1645238222
 10
3.4839475887
 20
-6.1902568822
 10
3.4912091551
 20
-6.2170672988
 10
3.4963452922
 20
-6.2449109393
 10
3.4994747632
 20
-6.2738319363
 10
3.5005975682
 20
-6.3038302899
  0
LINE
  5
4AF
100
AcDbEntity
  8
IMPORT_IGES
100
AcDbLine
 62
7
  6
CONTINUOUS
 10
4.9449171818
 20
-7.9542999891
 11
4.875
 21
-7.8451319631
  0
LWPOLYLINE
  5
4B0
100
AcDbEntity
  8
IMPORT_IGES
100
AcDbPolyline
 62
253
  6
CONTINUOUS
 90
3
 70
0
 10
5.6981434186
 20
-10.9098076322
 10
5.6972867496
 20
-10.908443823
 10
5.6947804221
 20
-10.9042226165
  0
LWPOLYLINE
  5
4B1
100
AcDbEntity
  8
IMPORT_IGES
100
AcDbPolyline
 62
253
  6
CONTINUOUS
 90
4
 70
0
 10
6.4665022765
 20
-10.4477958596
 10
6.4711163334
 20
-10.4553912056
 10
6.4739722693
 20
-10.4599247336
 10
6.4749997817
 20
-10.4612870004
  0
LINE
  5
4B2
100
AcDbEntity
  8
IMPORT_IGES
100
AcDbLine
 62
253
  6
CONTINUOUS
 10
6.4530145723
 20
-10.4251263737
 11
6.4665022765
 21
-10.4477958596
  0
LINE
  5
4B3
100
AcDbEntity
  8
IMPORT_IGES
100
AcDbLine
 62
253
  6
CONTINUOUS
 10
5.6947804221
 20
-10.9042226165
 11
5.6698042906
 21
-10.8613805393
  0
LINE
  5
4B4
100
AcDbEntity
  8
IMPORT_IGES
100
AcDbLine
 62
253
  6
CONTINUOUS
 10
5.6698042906
 20
-10.8613805393
 11
5.5981428441
 21
-10.7375484859
  0
LINE
  5
4B5
100
AcDbEntity
  8
0
100
AcDbLine
 62
253
  6
CONTINUOUS
 10
0.2747509492
 20
-11.2500290004
 11
0.2747509492
 21
-11.3500290004
  0
LINE
  5
4B6
100
AcDbEntity
  8
0
100
AcDbLine
 62
253
  6
CONTINUOUS
 10
0.3678469371
 20
-11.2500290004
 11
0.3678469371
 21
-11.3500290004
  0
LINE
  5
4B7
100
AcDbEntity
  8
IMPORT_IGES
100
AcDbLine
 62
7
  6
CONTINUOUS
 10
0.4298535023
 20
-4.54108908
 11
0.4298535023
 21
-4.3548242709
  0
LINE
  5
4B8
100
AcDbEntity
  8
IMPORT_IGES
100
AcDbLine
 62
7
  6
CONTINUOUS
 10
0.4298535023
 20
4.3372234626
 11
0.4298535023
 21
4.5410575459
  0
LINE
  5
4B9
100
AcDbEntity
  8
0
100
AcDbLine
 62
7
  6
CONTINUOUS
 10
0.4933986377
 20
-11.2500290004
 11
0.4933986377
 21
-11.3500290004
  0
LINE
  5
4BA
100
AcDbEntity
  8
IMPORT_IGES
100
AcDbLine
 62
7
  6
CONTINUOUS
 10
0.7298535023
 20
-4.4545139339
 11
0.7298535023
 21
-3.6893437143
  0
LINE
  5
4BB
100
AcDbEntity
  8
IMPORT_IGES
100
AcDbLine
 62
7
  6
CONTINUOUS
 10
0.7298535023
 20
3.5761904762
 11
0.7298535023
 21
4.4545345534
  0
LINE
  5
4BC
100
AcDbEntity
  8
0
100
AcDbLine
 62
7
  6
CONTINUOUS
 10
0.9836476516
 20
-11.2500290004
 11
0.9836476516
 21
-11.3500290004
  0
LINE
  5
4BD
100
AcDbEntity
  8
IMPORT_IGES
100
AcDbLine
 62
253
  6
CONTINUOUS
 10
1.0298530175
 20
-3.6822008571
 11
1.0298530175
 21
-4.344142906
  0
LINE
  5
4BE
100
AcDbEntity
  8
IMPORT_IGES
100
AcDbLine
 62
253
  6
CONTINUOUS
 10
1.029853015
 20
3.5714285714
 11
1.029853015
 21
4.3449475257
  0
LINE
  5
4BF
100
AcDbEntity
  8
0
100
AcDbLine
 62
253
  6
CONTINUOUS
 10
1.1348221015
 20
-11.2500290004
 11
1.1348221015
 21
-11.3500290004
  0
LINE
  5
4C0
100
AcDbEntity
  8
0
100
AcDbLine
 62
253
  6
CONTINUOUS
 10
1.2236476909
 20
-11.2500290004
 11
1.2236476909
 21
-11.3500290004
  0
LINE
  5
4C1
100
AcDbEntity
  8
0
100
AcDbLine
 62
7
  6
CONTINUOUS
 10
1.3261388492
 20
-11.2500290004
 11
1.3261388492
 21
-11.3500290004
  0
LINE
  5
4C2
100
AcDbEntity
  8
0
100
AcDbLine
 62
7
  6
CONTINUOUS
 10
1.4610854339
 20
-11.2500290004
 11
1.4610854339
 21
-11.3500290004
  0
LINE
  5
4C3
100
AcDbEntity
  8
0
100
AcDbLine
 62
7
  6
CONTINUOUS
 10
1.4824376773
 20
-11.2500290004
 11
1.4824376773
 21
-11.3500290004
  0
LINE
  5
4C4
100
AcDbEntity
  8
0
100
AcDbLine
 62
253
  6
CONTINUOUS
 10
1.6216548022
 20
-11.2500290004
 11
1.6216548022
 21
-11.3500290004
  0
LINE
  5
4C5
100
AcDbEntity
  8
IMPORT_IGES
100
AcDbLine
 62
253
  6
CONTINUOUS
 10
1.9298535023
 20
-3.8467036178
 11
1.9298535023
 21
-3.6822008571
  0
LINE
  5
4C6
100
AcDbEntity
  8
IMPORT_IGES
100
AcDbLine
 62
253
  6
CONTINUOUS
 10
1.9298535023
 20
3.5714285714
 11
1.9298535023
 21
3.8557062027
  0
LINE
  5
4C7
100
AcDbEntity
  8
0
100
AcDbLine
 62
253
  6
CONTINUOUS
 10
1.9658541393
 20
-11.2500290004
 11
1.9658541393
 21
-11.3500290004
  0
LINE
  5
4C8
100
AcDbEntity
  8
RACCORDO
100
AcDbLine
 62
253
  6
CONTINUOUS
 10
8.3200305219
 20
20.4335707644
 11
8.4753805997
 21
20.9
  0
LWPOLYLINE
  5
4C9
100
AcDbEntity
  8
IMPORT_IGES
100
AcDbPolyline
 62
253
  6
CONTINUOUS
 90
6
 70
0
 10
-8.1249999342
 20
-10.1812645708
 10
-8.1374791043
 20
-10.1957424578
 10
-8.1499149
 20
-10.2080497922
 10
-8.1621567079
 20
-10.2181308401
 10
-8.1740179268
 20
-10.2259785808
 10
-8.1853986751
 20
-10.2315408155
  0
LINE
  5
4CA
100
AcDbEntity
  8
DRAFT
100
AcDbLine
 62
7
  6
CONTINUOUS
 10
-9.025
 20
-9.6
 11
-9.0075462644
 21
-9.5825462644
  0
LWPOLYLINE
  5
4CB
100
AcDbEntity
  8
IMPORT_IGES
100
AcDbPolyline
 62
253
  6
CONTINUOUS
 90
4
 70
0
 10
-4.7714593868
 20
-6.0738219254
 10
-4.6973076782
 20
-6.0145894082
 10
-4.6692763128
 20
-5.9926604625
 10
-4.5761597893
 20
-5.9207761773
  0
LWPOLYLINE
  5
4CC
100
AcDbEntity
  8
IMPORT_IGES
100
AcDbPolyline
 62
253
  6
CONTINUOUS
 90
3
 70
0
 10
-4.5761597893
 20
-5.9207761773
 10
-4.5423493596
 20
-5.894830359
 10
-4.507129547
 20
-5.8682203415
  0
LINE
  5
4CD
100
AcDbEntity
  8
DRAFT
100
AcDbLine
 62
7
  6
CONTINUOUS
 10
-10.325
 20
-7.2776691233
 11
-10.1696499221
 21
-7.2
  0
LWPOLYLINE
  5
4CE
100
AcDbEntity
  8
IMPORT_IGES
100
AcDbPolyline
 62
253
  6
CONTINUOUS
 90
5
 70
0
 10
5.375
 20
-0.092939914
 10
5.3815477205
 20
-0.0906093979
 10
5.3983564977
 20
-0.0843027143
 10
5.4148649478
 20
-0.0777920177
 10
5.4310730709
 20
-0.0710833041
  0
LINE
  5
4CF
100
AcDbEntity
  8
RACCORDO
100
AcDbLine
 62
7
  6
CONTINUOUS
 10
-9.6053794106
 20
0.4101132618
 11
-9.0915227694
 21
0.4101132618
  0
LINE
  5
4D0
100
AcDbEntity
  8
RACCORDO
100
AcDbLine
 62
7
  6
CONTINUOUS
 10
7.7415227694
 20
0.4101132618
 11
8.2553794106
 21
0.4101132618
  0
LINE
  5
4D1
100
AcDbEntity
  8
DRAFT
100
AcDbLine
 62
7
  6
CONTINUOUS
 10
-10.1696499221
 20
0.5
 11
-9.0899537906
 21
0.5
  0
LINE
  5
4D2
100
AcDbEntity
  8
DRAFT
100
AcDbLine
 62
7
  6
CONTINUOUS
 10
8.8196499221
 20
0.5
 11
7.7399537906
 21
0.5
  0
LINE
  5
4D3
100
AcDbEntity
  8
IMPORT_IGES
100
AcDbLine
 62
253
  6
CONTINUOUS
 10
5.6749999999
 20
0.545
 11
5.375
 21
0.545
  0
LINE
  5
4D4
100
AcDbEntity
  8
IMPORT_IGES
100
AcDbLine
 62
253
  6
CONTINUOUS
 10
-6.725
 20
0.545
 11
-7.025
 21
0.545
  0
LINE
  5
4D5
100
AcDbEntity
  8
IMPORT_IGES
100
AcDbLine
 62
253
  6
CONTINUOUS
 10
5.675
 20
1.945
 11
5.075
 21
1.945
  0
LINE
  5
4D6
100
AcDbEntity
  8
IMPORT_IGES
100
AcDbLine
 62
253
  6
CONTINUOUS
 10
-6.425
 20
1.945
 11
-7.025
 21
1.945
  0
LWPOLYLINE
  5
4D7
100
AcDbEntity
  8
IMPORT_IGES
100
AcDbPolyline
 62
253
  6
CONTINUOUS
 90
10
 70
0
 10
6.375154201
 20
-0.0710822837
 10
6.4205816184
 20
-0.074113944
 10
6.4647938333
 20
-0.0821442184
 10
6.5077908457
 20
-0.095173107
 10
6.5502302636
 20
-0.1134684757
 10
6.5914544789
 20
-0.1367624586
 10
6.6294906672
 20
-0.1642514576
 10
6.6636812203
 20
-0.1956676069
 10
6.6946837464
 20
-0.2312787724
 10
6.7224982454
 20
-0.271084954
  0
LINE
  5
4D8
100
AcDbEntity
  8
IMPORT_IGES
100
AcDbLine
 62
7
  6
CONTINUOUS
 10
-4.9253656963
 20
6.7456928091
 11
-5.0798535023
 21
6.9015490589
  0
LWPOLYLINE
  5
4D9
100
AcDbEntity
  8
IMPORT_IGES
100
AcDbPolyline
 62
253
  6
CONTINUOUS
 90
13
 70
0
 10
-7.5517996593
 20
10.7226299935
 10
-7.5717532269
 20
10.7446350939
 10
-7.5934023801
 20
10.7665806359
 10
-7.6159900147
 20
10.7876133843
 10
-7.6383302876
 20
10.806659099
 10
-7.6598983821
 20
10.8233762792
 10
-7.6809090386
 20
10.8379562376
 10
-7.7006574836
 20
10.8498766759
 10
-7.7184735326
 20
10.8587615109
 10
-7.7344449165
 20
10.8646358314
 10
-7.7480658103
 20
10.8671950402
 10
-7.7586334755
 20
10.8662883829
 10
-7.7659282315
 20
10.8621318774
  0
LINE
  5
4DA
100
AcDbEntity
  8
IMPORT_IGES
100
AcDbLine
 62
253
  6
CONTINUOUS
 10
-3.5997518712
 20
6.601034697
 11
-3.489383876
 21
6.4342446924
  0
LINE
  5
4DB
100
AcDbEntity
  8
IMPORT_IGES
100
AcDbLine
 62
253
  6
CONTINUOUS
 10
6.4239296291
 20
-10.375521083
 11
6.4530145723
 21
-10.4251263737
  0
LINE
  5
4DC
100
AcDbEntity
  8
IMPORT_IGES
100
AcDbLine
 62
253
  6
CONTINUOUS
 10
6.3750038541
 20
-10.2911914861
 11
6.4239296291
 21
-10.375521083
  0
LWPOLYLINE
  5
4DD
100
AcDbEntity
  8
IMPORT_IGES
100
AcDbPolyline
 62
253
  6
CONTINUOUS
 90
3
 70
0
 10
3.2134515608
 20
-5.9822580694
 10
3.2310430917
 20
-6.0181097247
 10
3.2792605079
 20
-6.1176657832
  0
LWPOLYLINE
  5
4DE
100
AcDbEntity
  8
IMPORT_IGES
100
AcDbPolyline
 62
253
  6
CONTINUOUS
 90
3
 70
0
 10
3.157122906
 20
-5.8682202618
 10
3.1762723474
 20
-5.9073712031
 10
3.2134515608
 20
-5.9822580694
  0
LWPOLYLINE
  5
4DF
100
AcDbEntity
  8
IMPORT_IGES
100
AcDbPolyline
 62
253
  6
CONTINUOUS
 90
3
 70
0
 10
3.2792605079
 20
-6.1176657832
 10
3.2935411253
 20
-6.1477928477
 10
3.3066056377
 20
-6.1764290221
  0
LWPOLYLINE
  5
4E0
100
AcDbEntity
  8
IMPORT_IGES
100
AcDbPolyline
 62
253
  6
CONTINUOUS
 90
10
 70
0
 10
3.3066056377
 20
-6.1764290221
 10
3.3158770727
 20
-6.1988306047
 10
3.3241136338
 20
-6.2220886315
 10
3.3312780788
 20
-6.2462045469
 10
3.3373123197
 20
-6.2712128893
 10
3.3422326271
 20
-6.2970825657
 10
3.3460769399
 20
-6.3237157871
 10
3.3487997844
 20
-6.3510802907
 10
3.3503256359
 20
-6.3792103941
 10
3.3506085397
 20
-6.4080820471
  0
LINE
  5
4E1
100
AcDbEntity
  8
RACCORDO
100
AcDbLine
 62
253
  6
CONTINUOUS
 10
8.4753805997
 20
-20.9
 11
8.412542366
 21
-20.7113319946
  0
LINE
  5
4E2
100
AcDbEntity
  8
IMPORT_IGES
100
AcDbLine
 62
253
  6
CONTINUOUS
 10
3.1559538368
 20
7.8723459288
 11
3.1625209569
 21
7.7428918817
  0
LINE
  5
4E3
100
AcDbEntity
  8
IMPORT_IGES
100
AcDbLine
 62
253
  6
CONTINUOUS
 10
3.1503265995
 20
7.9929302822
 11
3.1559538368
 21
7.8723459288
  0
LINE
  5
4E4
100
AcDbEntity
  8
IMPORT_IGES
100
AcDbLine
 62
253
  6
CONTINUOUS
 10
3.146022297
 20
8.0964466064
 11
3.1503265995
 21
7.9929302822
  0
LWPOLYLINE
  5
4E5
100
AcDbEntity
  8
IMPORT_IGES
100
AcDbPolyline
 62
253
  6
CONTINUOUS
 90
9
 70
0
 10
3.1252589938
 20
8.6578863295
 10
3.1260367154
 20
8.5876797428
 10
3.1273338504
 20
8.5174788991
 10
3.1291504631
 20
8.4472818658
 10
3.1314864892
 20
8.3770905754
 10
3.1343417357
 20
8.3069108254
 10
3.1377161382
 20
8.2367445483
 10
3.1416097612
 20
8.1665898115
 10
3.1460226047
 20
8.0964466152
  0
LINE
  5
4E6
100
AcDbEntity
  8
0
100
AcDbLine
 62
253
  6
CONTINUOUS
 10
2.1315480662
 20
-11.2500290004
 11
2.1315480662
 21
-11.3500290004
  0
LINE
  5
4E7
100
AcDbEntity
  8
0
100
AcDbLine
 62
7
  6
CONTINUOUS
 10
2.1930427503
 20
-11.2500290004
 11
2.1930427503
 21
-11.3500290004
  0
LINE
  5
4E8
100
AcDbEntity
  8
IMPORT_IGES
100
AcDbLine
 62
7
  6
CONTINUOUS
 10
2.2298535023
 20
3.6227884036
 11
2.2298535023
 21
3.5761904762
  0
LINE
  5
4E9
100
AcDbEntity
  8
0
100
AcDbLine
 62
7
  6
CONTINUOUS
 10
2.2887011241
 20
-11.2500290004
 11
2.2887011241
 21
-11.3500290004
  0
LINE
  5
4EA
100
AcDbEntity
  8
RACCORDO
100
AcDbLine
 62
7
  6
CONTINUOUS
 10
2.325
 20
-21.0
 11
2.325
 21
-22.3912731322
  0
LINE
  5
4EB
100
AcDbEntity
  8
RACCORDO
100
AcDbLine
 62
7
  6
CONTINUOUS
 10
2.325
 20
21.0
 11
2.325
 21
22.3912731322
  0
LINE
  5
4EC
100
AcDbEntity
  8
0
100
AcDbLine
 62
253
  6
CONTINUOUS
 10
2.5082028715
 20
-11.2500290004
 11
2.5082028715
 21
-11.3500290004
  0
LINE
  5
4ED
100
AcDbEntity
  8
RACCORDO
100
AcDbLine
 62
7
  6
CONTINUOUS
 10
2.725
 20
-14.2
 11
2.725
 21
-15.6
  0
LINE
  5
4EE
100
AcDbEntity
  8
ASSI
100
AcDbLine
 62
7
  6
CONTINUOUS
 10
2.825
 20
-22.3339198952
 11
2.825
 21
-23.7941821702
  0
LINE
  5
4EF
100
AcDbEntity
  8
RACCORDO
100
AcDbLine
 62
7
  6
CONTINUOUS
 10
2.825
 20
-16.2
 11
2.825
 21
-14.7
  0
LINE
  5
4F0
100
AcDbEntity
  8
DRAFT
100
AcDbLine
 62
7
  6
CONTINUOUS
 10
2.825
 20
-14.7
 11
2.825
 21
-13.9
  0
LINE
  5
4F1
100
AcDbEntity
  8
RACCORDO
100
AcDbLine
 62
7
  6
CONTINUOUS
 10
2.825
 20
22.3339198952
 11
2.825
 21
23.7511422903
  0
LINE
  5
4F2
100
AcDbEntity
  8
ASSI
100
AcDbLine
 62
7
  6
CONTINUOUS
 10
2.825
 20
22.3339198952
 11
2.825
 21
23.7941821702
  0
LINE
  5
4F3
100
AcDbEntity
  8
0
100
AcDbLine
 62
253
  6
CONTINUOUS
 10
2.9984519761
 20
-11.2500290004
 11
2.9984519761
 21
-11.3500290004
  0
LINE
  5
4F4
100
AcDbEntity
  8
0
100
AcDbLine
 62
7
  6
CONTINUOUS
 10
3.0266370308
 20
-11.2500290004
 11
3.0266370308
 21
-11.3500290004
  0
LINE
  5
4F5
100
AcDbEntity
  8
0
100
AcDbLine
 62
7
  6
CONTINUOUS
 10
3.0590925511
 20
-11.2500290004
 11
3.0590925511
 21
-11.3500290004
  0
LINE
  5
4F6
100
AcDbEntity
  8
IMPORT_IGES
100
AcDbLine
 62
253
  6
CONTINUOUS
 10
3.125
 20
10.95
 11
3.1252589938
 21
8.6578863295
  0
LINE
  5
4F7
100
AcDbEntity
  8
IMPORT_IGES
100
AcDbLine
 62
7
  6
CONTINUOUS
 10
3.325
 20
8.5866771736
 11
3.325
 21
10.75
  0
LINE
  5
4F8
100
AcDbEntity
  8
IMPORT_IGES
100
AcDbLine
 62
253
  6
CONTINUOUS
 10
3.412751337
 20
3.1132052805
 11
3.412751337
 21
3.3132052805
  0
LINE
  5
4F9
100
AcDbEntity
  8
IMPORT_IGES
100
AcDbLine
 62
7
  6
CONTINUOUS
 10
3.4298535023
 20
8.15
 11
3.4298535023
 21
7.6101398601
  0
LINE
  5
4FA
100
AcDbEntity
  8
IMPORT_IGES
100
AcDbLine
 62
7
  6
CONTINUOUS
 10
3.4298535023
 20
7.5293706294
 11
3.4298535023
 21
7.5975524476
  0
LINE
  5
4FB
100
AcDbEntity
  8
IMPORT_IGES
100
AcDbLine
 62
253
  6
CONTINUOUS
 10
3.4984592793
 20
-10.95
 11
3.4984421839
 21
-10.7508821734
  0
LINE
  5
4FC
100
AcDbEntity
  8
RACCORDO
100
AcDbLine
 62
253
  6
CONTINUOUS
 10
3.525
 20
-17.3
 11
3.525
 21
-20.0
  0
LINE
  5
4FD
100
AcDbEntity
  8
IMPORT_IGES
100
AcDbLine
 62
253
  6
CONTINUOUS
 10
3.525
 20
8.5748812075
 11
3.5249999452
 21
10.95
  0
LINE
  5
4FE
100
AcDbEntity
  8
IMPORT_IGES
100
AcDbLine
 62
253
  6
CONTINUOUS
 10
3.5344854821
 20
-8.3808532803
 11
3.5344854821
 21
-8.3405803829
  0
LINE
  5
4FF
100
AcDbEntity
  8
ASSI
100
AcDbLine
 62
253
  6
CONTINUOUS
 10
3.6809327327
 20
-22.3338981669
 11
3.6809327327
 21
-23.7507734247
  0
LINE
  5
500
100
AcDbEntity
  8
ASSI
100
AcDbLine
 62
253
  6
CONTINUOUS
 10
3.6809327327
 20
22.3338981669
 11
3.6809327327
 21
23.7507734247
  0
LINE
  5
501
100
AcDbEntity
  8
DRAFT
100
AcDbLine
 62
7
  6
CONTINUOUS
 10
3.725
 20
-23.8
 11
3.725
 21
-22.4
  0
LINE
  5
502
100
AcDbEntity
  8
DRAFT
100
AcDbLine
 62
7
  6
CONTINUOUS
 10
3.725
 20
22.4
 11
3.725
 21
23.8
  0
LINE
  5
503
100
AcDbEntity
  8
IMPORT_IGES
100
AcDbLine
 62
7
  6
CONTINUOUS
 10
3.825
 20
6.344599476
 11
3.825
 21
4.5605817051
  0
LINE
  5
504
100
AcDbEntity
  8
IMPORT_IGES
100
AcDbLine
 62
7
  6
CONTINUOUS
 10
3.825
 20
3.2772667053
 11
3.825
 21
-0.455
  0
LINE
  5
505
100
AcDbEntity
  8
RACCORDO
100
AcDbLine
 62
7
  6
CONTINUOUS
 10
3.825
 20
-17.6
 11
3.825
 21
-19.9973819397
  0
LINE
  5
506
100
AcDbEntity
  8
DRAFT
100
AcDbLine
 62
7
  6
CONTINUOUS
 10
3.825
 20
11.15
 11
3.825
 21
14.139335085
  0
LWPOLYLINE
  5
507
100
AcDbEntity
  8
IMPORT_IGES
100
AcDbPolyline
 62
253
  6
CONTINUOUS
 90
7
 70
0
 10
3.125
 20
3.1132052805
 10
3.1249293418
 20
2.8619854288
 10
3.1248032311
 20
2.8153509188
 10
3.1249158822
 20
2.7666182959
 10
3.1253530373
 20
2.716296733
 10
3.1260289542
 20
2.6649729196
 10
3.126943633
 20
2.6132065629
  0
LINE
  5
508
100
AcDbEntity
  8
IMPORT_IGES
100
AcDbLine
 62
253
  6
CONTINUOUS
 10
3.4761435721
 20
-8.3438129345
 11
3.4776328089
 21
-8.1815015967
  0
LINE
  5
509
100
AcDbEntity
  8
IMPORT_IGES
100
AcDbLine
 62
7
  6
CONTINUOUS
 10
3.1379295204
 20
-7.6224132307
 11
3.1453932808
 21
-6.845502023
  0
LINE
  5
50A
100
AcDbEntity
  8
IMPORT_IGES
100
AcDbLine
 62
7
  6
CONTINUOUS
 10
3.1028043677
 20
-10.5472710106
 11
3.0984528596
 21
-10.9499999995
  0
LINE
  5
50B
100
AcDbEntity
  8
IMPORT_IGES
100
AcDbLine
 62
253
  6
CONTINUOUS
 10
3.157129547
 20
-5.8682203415
 11
3.1453932811
 21
-6.8455020228
  0
LINE
  5
50C
100
AcDbEntity
  8
IMPORT_IGES
100
AcDbLine
 62
253
  6
CONTINUOUS
 10
3.1379292811
 20
-7.6224132299
 11
3.1028043935
 21
-10.5472710107
  0
LINE
  5
50D
100
AcDbEntity
  8
IMPORT_IGES
100
AcDbLine
 62
7
  6
CONTINUOUS
 10
3.298423846
 20
-10.7535140118
 11
3.3506085274
 21
-6.4080830712
  0
LINE
  5
50E
100
AcDbEntity
  8
IMPORT_IGES
100
AcDbLine
 62
253
  6
CONTINUOUS
 10
3.479313196
 20
-8.0830942548
 11
3.5005975682
 21
-6.3038302899
  0
LINE
  5
50F
100
AcDbEntity
  8
IMPORT_IGES
100
AcDbLine
 62
253
  6
CONTINUOUS
 10
3.4776328089
 20
-8.1815023568
 11
3.479313196
 21
-8.0830942858
  0
LWPOLYLINE
  5
510
100
AcDbEntity
  8
IMPORT_IGES
100
AcDbPolyline
 62
7
  6
CONTINUOUS
 90
10
 70
0
 10
3.4984421839
 20
-10.7508821734
 10
3.5044419457
 20
-10.4980825263
 10
3.5089548752
 20
-10.2452464476
 10
3.5119809723
 20
-9.9923834491
 10
3.5125280555
 20
-9.7395034842
 10
3.5115883063
 20
-9.486615655
 10
3.5121382693
 20
-9.2337282129
 10
3.515170126
 20
-8.9808502815
 10
3.5196916949
 20
-8.7279918557
 10
3.525702976
 20
-8.475162509
  0
LINE
  5
511
100
AcDbEntity
  8
IMPORT_IGES
100
AcDbLine
 62
253
  6
CONTINUOUS
 10
3.525702976
 20
-8.475162509
 11
3.5289088854
 21
-8.3806640917
  0
LINE
  5
512
100
AcDbEntity
  8
RACCORDO
100
AcDbLine
 62
253
  6
CONTINUOUS
 10
8.8196499221
 20
19.9333419123
 11
8.975
 21
20.3997711479
  0
LWPOLYLINE
  5
513
100
AcDbEntity
  8
IMPORT_IGES
100
AcDbPolyline
 62
253
  6
CONTINUOUS
 90
10
 70
0
 10
6.5280000003
 20
10.3965066857
 10
6.547862755
 20
10.4503990741
 10
6.5676231746
 20
10.4962397086
 10
6.5866254139
 20
10.5341853627
 10
6.6039417858
 20
10.5645639725
 10
6.6195814329
 20
10.5877286801
 10
6.6342829812
 20
10.6036461236
 10
6.6479295592
 20
10.6122502146
 10
6.6597556827
 20
10.613832836
 10
6.6694213565
 20
10.6086387202
  0
LINE
  5
514
100
AcDbEntity
  8
DRAFT
100
AcDbLine
 62
7
  6
CONTINUOUS
 10
-8.175
 20
-12.5
 11
-8.0851132618
 21
-12.4101132618
  0
LINE
  5
515
100
AcDbEntity
  8
RACCORDO
100
AcDbLine
 62
253
  6
CONTINUOUS
 10
-8.0851132618
 20
-13.3101323002
 11
-8.175
 21
-13.4000190385
  0
LINE
  5
516
100
AcDbEntity
  8
IMPORT_IGES
100
AcDbLine
 62
253
  6
CONTINUOUS
 10
6.5525165383
 20
-0.3710818598
 11
6.7224982454
 21
-0.271087758
  0
LINE
  5
517
100
AcDbEntity
  8
IMPORT_IGES
100
AcDbLine
 62
253
  6
CONTINUOUS
 10
4.0075206373
 20
3.7922589292
 11
3.8092642038
 21
3.765907713
  0
LINE
  5
518
100
AcDbEntity
  8
IMPORT_IGES
100
AcDbLine
 62
253
  6
CONTINUOUS
 10
-5.1775898749
 20
3.2451045053
 11
-5.175
 21
3.2451623704
  0
LINE
  5
519
100
AcDbEntity
  8
IMPORT_IGES
100
AcDbLine
 62
253
  6
CONTINUOUS
 10
-5.1979591699
 20
3.2450127055
 11
-5.1775898749
 21
3.2451045053
  0
LINE
  5
51A
100
AcDbEntity
  8
IMPORT_IGES
100
AcDbLine
 62
7
  6
CONTINUOUS
 10
3.4210746081
 20
2.085
 11
3.825
 21
2.085
  0
LINE
  5
51B
100
AcDbEntity
  8
IMPORT_IGES
100
AcDbLine
 62
7
  6
CONTINUOUS
 10
-4.7710746081
 20
2.085
 11
-5.175
 21
2.085
  0
LINE
  5
51C
100
AcDbEntity
  8
IMPORT_IGES
100
AcDbLine
 62
253
  6
CONTINUOUS
 10
4.375
 20
2.645
 11
3.825
 21
2.645
  0
LINE
  5
51D
100
AcDbEntity
  8
IMPORT_IGES
100
AcDbLine
 62
253
  6
CONTINUOUS
 10
-5.175
 20
2.645
 11
-5.725
 21
2.645
  0
LINE
  5
51E
100
AcDbEntity
  8
IMPORT_IGES
100
AcDbLine
 62
7
  6
CONTINUOUS
 10
4.3749999999
 20
2.945
 11
4.125
 21
2.945
  0
LINE
  5
51F
100
AcDbEntity
  8
IMPORT_IGES
100
AcDbLine
 62
7
  6
CONTINUOUS
 10
-5.4749999999
 20
2.945
 11
-5.725
 21
2.945
  0
LINE
  5
520
100
AcDbEntity
  8
IMPORT_IGES
100
AcDbLine
 62
7
  6
CONTINUOUS
 10
3.412751337
 20
3.1132052805
 11
2.7516717018
 21
3.1132052805
  0
LINE
  5
521
100
AcDbEntity
  8
IMPORT_IGES
100
AcDbLine
 62
7
  6
CONTINUOUS
 10
-4.1016717018
 20
3.1132052805
 11
-4.7627513364
 21
3.1132052805
  0
LINE
  5
522
100
AcDbEntity
  8
IMPORT_IGES
100
AcDbLine
 62
253
  6
CONTINUOUS
 10
3.825
 20
3.244999947
 11
4.375
 21
3.245
  0
LINE
  5
523
100
AcDbEntity
  8
IMPORT_IGES
100
AcDbLine
 62
253
  6
CONTINUOUS
 10
-4.762751337
 20
3.3132052805
 11
-3.9179794848
 21
3.3132052805
  0
LINE
  5
524
100
AcDbEntity
  8
IMPORT_IGES
100
AcDbLine
 62
253
  6
CONTINUOUS
 10
2.5679794848
 20
3.3132052805
 11
3.412751337
 21
3.3132052805
  0
LINE
  5
525
100
AcDbEntity
  8
IMPORT_IGES
100
AcDbLine
 62
7
  6
CONTINUOUS
 10
-3.6653584295
 20
3.55
 11
-1.575
 21
3.55
  0
LINE
  5
526
100
AcDbEntity
  8
IMPORT_IGES
100
AcDbLine
 62
7
  6
CONTINUOUS
 10
0.225
 20
3.55
 11
2.315358293
 21
3.55
  0
LINE
  5
527
100
AcDbEntity
  8
IMPORT_IGES
100
AcDbLine
 62
7
  6
CONTINUOUS
 10
-3.2798535023
 20
3.5714285714
 11
-2.3798535023
 21
3.5714285714
  0
LINE
  5
528
100
AcDbEntity
  8
IMPORT_IGES
100
AcDbLine
 62
7
  6
CONTINUOUS
 10
1.0298535023
 20
3.5714285714
 11
1.9298535023
 21
3.5714285714
  0
LINE
  5
529
100
AcDbEntity
  8
IMPORT_IGES
100
AcDbLine
 62
7
  6
CONTINUOUS
 10
-2.0798535023
 20
3.6377200292
 11
-1.3630160053
 21
3.6377200292
  0
LINE
  5
52A
100
AcDbEntity
  8
IMPORT_IGES
100
AcDbLine
 62
7
  6
CONTINUOUS
 10
0.0130160053
 20
3.6377200292
 11
0.7298535023
 21
3.6377200292
  0
LINE
  5
52B
100
AcDbEntity
  8
IMPORT_IGES
100
AcDbLine
 62
253
  6
CONTINUOUS
 10
-5.725
 20
3.245
 11
-5.1979591699
 21
3.2450127055
  0
LINE
  5
52C
100
AcDbEntity
  8
IMPORT_IGES
100
AcDbLine
 62
253
  6
CONTINUOUS
 10
-5.3575206373
 20
3.7922589293
 11
-5.1592642038
 21
3.765907713
  0
LINE
  5
52D
100
AcDbEntity
  8
DRAFT
100
AcDbLine
 62
7
  6
CONTINUOUS
 10
-10.1696499221
 20
7.9
 11
-10.325
 21
7.9776691233
  0
LWPOLYLINE
  5
52E
100
AcDbEntity
  8
IMPORT_IGES
100
AcDbPolyline
 62
253
  6
CONTINUOUS
 90
4
 70
0
 10
6.6097416503
 20
-0.4278857813
 10
6.594562279
 20
-0.4175263293
 10
6.5802917889
 20
-0.4040770689
 10
6.5664975422
 20
-0.3884053443
  0
LINE
  5
52F
100
AcDbEntity
  8
IMPORT_IGES
100
AcDbLine
 62
253
  6
CONTINUOUS
 10
5.375
 20
-0.0184368386
 11
5.4310730709
 21
-0.0710833041
  0
LINE
  5
530
100
AcDbEntity
  8
IMPORT_IGES
100
AcDbLine
 62
253
  6
CONTINUOUS
 10
4.4223054311
 20
-1.0548577458
 11
4.4350082658
 21
-1.0919857543
  0
LINE
  5
531
100
AcDbEntity
  8
RACCORDO
100
AcDbLine
 62
253
  6
CONTINUOUS
 10
8.975
 20
-20.3997711479
 11
8.9121617663
 21
-20.2111031425
  0
LINE
  5
532
100
AcDbEntity
  8
RACCORDO
100
AcDbLine
 62
7
  6
CONTINUOUS
 10
8.8196499221
 20
-14.7
 11
8.8462892833
 21
-14.7799830745
  0
LWPOLYLINE
  5
533
100
AcDbEntity
  8
IMPORT_IGES
100
AcDbPolyline
 62
7
  6
CONTINUOUS
 90
11
 70
0
 10
4.0704596355
 20
-1.0919857543
 10
4.068257353
 20
-1.0711090777
 10
4.0658743966
 20
-1.0507995411
 10
4.0633107665
 20
-1.0310692954
 10
4.0605363879
 20
-1.0119587304
 10
4.0575813356
 20
-0.9934496706
 10
4.0545358332
 20
-0.9754642635
 10
4.0514113484
 20
-0.9580059509
 10
4.0481964135
 20
-0.9410873133
 10
4.0449468497
 20
-0.9246416498
 10
4.0434210188
 20
-0.9172060215
  0
LWPOLYLINE
  5
534
100
AcDbEntity
  8
IMPORT_IGES
100
AcDbPolyline
 62
253
  6
CONTINUOUS
 90
6
 70
0
 10
3.325
 20
10.6621320344
 10
3.3232889723
 20
10.6805912255
 10
3.3181851653
 20
10.6987345747
 10
3.3097759065
 20
10.7162516444
 10
3.2982050808
 20
10.7328427125
 10
3.2836706681
 20
10.7482239013
  0
LINE
  5
535
100
AcDbEntity
  8
0
100
AcDbLine
 62
253
  6
CONTINUOUS
 10
5.8831782981
 20
-20.0275513222
 11
5.7848569743
 21
-17.1473642646
  0
LINE
  5
536
100
AcDbEntity
  8
DRAFT
100
AcDbLine
 62
7
  6
CONTINUOUS
 10
3.8966749053
 20
11.15
 11
3.825
 21
14.139335085
  0
LWPOLYLINE
  5
537
100
AcDbEntity
  8
IMPORT_IGES
100
AcDbPolyline
 62
7
  6
CONTINUOUS
 90
10
 70
0
 10
4.075
 20
-1.1904696055
 10
4.0749471052
 20
-1.1795127206
 10
4.0747812793
 20
-1.1685586979
 10
4.0745025223
 20
-1.1576075373
 10
4.0741107892
 20
-1.1466582667
 10
4.073606125
 20
-1.1357118583
 10
4.0729886641
 20
-1.1247712284
 10
4.0722584513
 20
-1.1138373491
 10
4.0714154417
 20
-1.1029092483
 10
4.0704596355
 20
-1.0919869261
  0
LINE
  5
538
100
AcDbEntity
  8
IMPORT_IGES
100
AcDbLine
 62
7
  6
CONTINUOUS
 10
3.875
 20
-0.6933071266
 11
3.875
 21
-0.9360899655
  0
LINE
  5
539
100
AcDbEntity
  8
IMPORT_IGES
100
AcDbLine
 62
253
  6
CONTINUOUS
 10
3.875
 20
-8.0830940215
 11
3.875
 21
-0.9360899655
  0
LINE
  5
53A
100
AcDbEntity
  8
IMPORT_IGES
100
AcDbLine
 62
7
  6
CONTINUOUS
 10
4.075
 20
-7.6829598037
 11
4.075
 21
-1.1904696055
  0
LINE
  5
53B
100
AcDbEntity
  8
IMPORT_IGES
100
AcDbLine
 62
253
  6
CONTINUOUS
 10
4.1250027839
 20
6.3443620484
 11
4.125
 21
-0.455
  0
LINE
  5
53C
100
AcDbEntity
  8
IMPORT_IGES
100
AcDbLine
 62
253
  6
CONTINUOUS
 10
4.375
 20
3.245
 11
4.375
 21
2.645
  0
LINE
  5
53D
100
AcDbEntity
  8
IMPORT_IGES
100
AcDbLine
 62
253
  6
CONTINUOUS
 10
4.425
 20
-1.055
 11
4.425
 21
-0.755
  0
LINE
  5
53E
100
AcDbEntity
  8
IMPORT_IGES
100
AcDbLine
 62
253
  6
CONTINUOUS
 10
4.775
 20
-1.055
 11
4.775
 21
-0.755
  0
LINE
  5
53F
100
AcDbEntity
  8
DRAFT
100
AcDbLine
 62
7
  6
CONTINUOUS
 10
4.825
 20
11.15
 11
4.825
 21
14.139335085
  0
LINE
  5
540
100
AcDbEntity
  8
IMPORT_IGES
100
AcDbLine
 62
253
  6
CONTINUOUS
 10
4.875
 20
-7.8451319631
 11
4.8750000001
 21
-1.0458081025
  0
LINE
  5
541
100
AcDbEntity
  8
IMPORT_IGES
100
AcDbLine
 62
253
  6
CONTINUOUS
 10
4.9750001766
 20
-10.95
 11
4.9750001407
 21
-11.1499999993
  0
LINE
  5
542
100
AcDbEntity
  8
IMPORT_IGES
100
AcDbLine
 62
253
  6
CONTINUOUS
 10
5.075
 20
1.945
 11
5.075
 21
-0.455
  0
LINE
  5
543
100
AcDbEntity
  8
IMPORT_IGES
100
AcDbLine
 62
7
  6
CONTINUOUS
 10
5.375
 20
1.945
 11
5.375
 21
-0.4550000001
  0
LINE
  5
544
100
AcDbEntity
  8
IMPORT_IGES
100
AcDbLine
 62
253
  6
CONTINUOUS
 10
5.475
 20
10.95
 11
5.4750004231
 21
11.15
  0
LINE
  5
545
100
AcDbEntity
  8
RACCORDO
100
AcDbLine
 62
253
  6
CONTINUOUS
 10
5.5373556268
 20
-12.8877357561
 11
5.5373556268
 21
-13.1876900647
  0
LINE
  5
546
100
AcDbEntity
  8
IMPORT_IGES
100
AcDbLine
 62
253
  6
CONTINUOUS
 10
5.5481434353
 20
-10.7508821734
 11
5.5481434947
 21
-10.95
  0
LINE
  5
547
100
AcDbEntity
  8
IMPORT_IGES
100
AcDbLine
 62
253
  6
CONTINUOUS
 10
5.6749999999
 20
0.545
 11
5.6749999999
 21
1.945
  0
LINE
  5
548
100
AcDbEntity
  8
DRAFT
100
AcDbLine
 62
7
  6
CONTINUOUS
 10
4.7533250947
 20
11.15
 11
4.825
 21
14.139335085
  0
LINE
  5
549
100
AcDbEntity
  8
RACCORDO
100
AcDbLine
 62
253
  6
CONTINUOUS
 10
5.8831782981
 20
20.0275513222
 11
5.7732213147
 21
16.8065137252
  0
LWPOLYLINE
  5
54A
100
AcDbEntity
  8
IMPORT_IGES
100
AcDbPolyline
 62
253
  6
CONTINUOUS
 90
13
 70
0
 10
4.075
 20
-5.9324135107
 10
4.0733275292
 20
-5.9506644171
 10
4.0683610714
 20
-5.9685486465
 10
4.0602170226
 20
-5.9857738638
 10
4.0491265112
 20
-6.0019834687
 10
4.0352667441
 20
-6.0170142517
 10
4.0186175463
 20
-6.0308360701
 10
3.9992327771
 20
-6.0432426971
 10
3.9774663738
 20
-6.0538644108
 10
3.9537397459
 20
-6.0624136116
 10
3.9284782879
 20
-6.0686854314
 10
3.9020767832
 20
-6.072532831
 10
3.875
 20
-6.073834867
  0
LWPOLYLINE
  5
54B
100
AcDbEntity
  8
IMPORT_IGES
100
AcDbPolyline
 62
253
  6
CONTINUOUS
 90
13
 70
0
 10
3.3027899742
 20
-10.3899454684
 10
3.3007976447
 20
-10.4109462125
 10
3.2953340793
 20
-10.4316138852
 10
3.2864707613
 20
-10.451555699
 10
3.2742562742
 20
-10.4705247572
 10
3.2589308155
 20
-10.4880469059
 10
3.2411025659
 20
-10.5035271935
 10
3.2214589002
 20
-10.5166387807
 10
3.2002317469
 20
-10.5274603417
 10
3.177425084
 20
-10.5360610375
 10
3.1532519876
 20
-10.5423254452
 10
3.1282327082
 20
-10.5460853169
 10
3.1027713635
 20
-10.5472708919
  0
LWPOLYLINE
  5
54C
100
AcDbEntity
  8
IMPORT_IGES
100
AcDbPolyline
 62
253
  6
CONTINUOUS
 90
13
 70
0
 10
5.0749999515
 20
-1.0096539323
 10
5.0733260318
 20
-1.0202341318
 10
5.06835977
 20
-1.0306506586
 10
5.0602167419
 20
-1.0406842151
 10
5.0491268698
 20
-1.0501272818
 10
5.0352667698
 20
-1.0588843669
 10
5.0186170945
 20
-1.0669370759
 10
4.999232265
 20
-1.0741651093
 10
4.9774658036
 20
-1.0803532613
 10
4.9537391843
 20
-1.0853338561
 10
4.9284778342
 20
-1.0889875101
 10
4.9020765184
 20
-1.0912286121
 10
4.875
 20
-1.0919867132
  0
LWPOLYLINE
  5
54D
100
AcDbEntity
  8
IMPORT_IGES
100
AcDbPolyline
 62
7
  6
CONTINUOUS
 90
10
 70
0
 10
3.3295477886
 20
-8.504510915
 10
3.3317954611
 20
-8.496504746
 10
3.3347102767
 20
-8.4880359285
 10
3.3383911116
 20
-8.4791689253
 10
3.3427341362
 20
-8.4703649545
 10
3.3476589758
 20
-8.4618402333
 10
3.3532343922
 20
-8.453515459
 10
3.3595074086
 20
-8.4453952618
 10
3.3664641361
 20
-8.4375727522
 10
3.3740813743
 20
-8.4301345729
  0
LINE
  5
54E
100
AcDbEntity
  8
IMPORT_IGES
100
AcDbLine
 62
7
  6
CONTINUOUS
 10
3.4741793417
 20
-8.3508013436
 11
3.4761435712
 21
-8.3438166698
  0
LWPOLYLINE
  5
54F
100
AcDbEntity
  8
RACCORDO
100
AcDbPolyline
 62
7
  6
CONTINUOUS
 90
4
 70
0
 10
-8.5658834737
 20
-21.7591165263
 10
-8.518380061
 20
-21.6866457638
 10
-8.493929804
 20
-21.6499179842
 10
-8.4689545568
 20
-21.6129888844
  0
LINE
  5
550
100
AcDbEntity
  8
0
100
AcDbLine
 62
7
  6
CONTINUOUS
 10
-7.230294768
 20
-20.0829433217
 11
-7.1540558127
 21
-19.968583276
  0
LINE
  5
551
100
AcDbEntity
  8
RACCORDO
100
AcDbLine
 62
7
  6
CONTINUOUS
 10
-8.4689545568
 20
-21.6129888844
 11
-8.4177848301
 21
-21.5385902446
  0
LINE
  5
552
100
AcDbEntity
  8
RACCORDO
100
AcDbLine
 62
7
  6
CONTINUOUS
 10
-8.4177848301
 20
-21.5385902446
 11
-8.3654803352
 21
-21.4636002076
  0
LWPOLYLINE
  5
553
100
AcDbEntity
  8
RACCORDO
100
AcDbPolyline
 62
7
  6
CONTINUOUS
 90
3
 70
0
 10
-8.3654803352
 20
-21.4636002076
 10
-8.2858850697
 20
-21.3504165494
 10
-8.2591007192
 20
-21.3126932437
  0
LWPOLYLINE
  5
554
100
AcDbEntity
  8
IMPORT_IGES
100
AcDbPolyline
 62
7
  6
CONTINUOUS
 90
10
 70
0
 10
5.4310730709
 20
-0.0710827939
 10
5.4799759495
 20
-0.0130890465
 10
5.5235743046
 20
0.0478597758
 10
5.561868136
 20
0.1117636731
 10
5.5950513744
 20
0.1790761133
 10
5.6229300893
 20
0.2493436285
 10
5.6449224885
 20
0.3212058151
 10
5.6608346413
 20
0.3942092053
 10
5.6708604784
 20
0.4688072669
 10
5.6749999999
 20
0.545
  0
LINE
  5
555
100
AcDbEntity
  8
RACCORDO
100
AcDbLine
 62
253
  6
CONTINUOUS
 10
-7.5851323002
 20
-13.8101132618
 11
-7.6750190385
 21
-13.9
  0
LWPOLYLINE
  5
556
100
AcDbEntity
  8
IMPORT_IGES
100
AcDbPolyline
 62
253
  6
CONTINUOUS
 90
10
 70
0
 10
-8.630194248
 20
-9.889590653
 10
-8.64858297
 20
-9.900185218
 10
-8.666941438
 20
-9.9088625867
 10
-8.6851195042
 20
-9.9155157566
 10
-8.7030429835
 20
-9.9200672399
 10
-8.7204715556
 20
-9.9224040141
 10
-8.7370303499
 20
-9.9224794655
 10
-8.7525328604
 20
-9.9203564886
 10
-8.7669511889
 20
-9.9161056004
 10
-8.780194248
 20
-9.9098076212
  0
LWPOLYLINE
  5
557
100
AcDbEntity
  8
IMPORT_IGES
100
AcDbPolyline
 62
253
  6
CONTINUOUS
 90
6
 70
0
 10
-8.0007672229
 20
-10.1467124779
 10
-8.0225336262
 20
-10.1587090787
 10
-8.0462602541
 20
-10.168364898
 10
-8.0715217121
 20
-10.1754485495
 10
-8.0979232168
 20
-10.179793961
 10
-8.125
 20
-10.1812645341
  0
LINE
  5
558
100
AcDbEntity
  8
DRAFT
100
AcDbLine
 62
7
  6
CONTINUOUS
 10
8.8196499221
 20
-0.5
 11
8.975
 21
-0.4223308767
  0
LWPOLYLINE
  5
559
100
AcDbEntity
  8
IMPORT_IGES
100
AcDbPolyline
 62
253
  6
CONTINUOUS
 90
5
 70
0
 10
-7.9521970861
 20
-8.3938800171
 10
-7.9181563277
 20
-8.3781833348
 10
-7.8819323925
 20
-8.3651235904
 10
-7.8444160119
 20
-8.354821369
 10
-7.8059040964
 20
-8.3473168656
  0
LINE
  5
55A
100
AcDbEntity
  8
IMPORT_IGES
100
AcDbLine
 62
253
  6
CONTINUOUS
 10
-1.7798535023
 20
4.3372234626
 11
-1.275
 21
4.3372234626
  0
LINE
  5
55B
100
AcDbEntity
  8
IMPORT_IGES
100
AcDbLine
 62
253
  6
CONTINUOUS
 10
-0.075
 20
4.3372234626
 11
0.4298535023
 21
4.3372234626
  0
LINE
  5
55C
100
AcDbEntity
  8
DRAFT
100
AcDbLine
 62
7
  6
CONTINUOUS
 10
8.8196499221
 20
0.5
 11
8.975
 21
0.4223308767
  0
LINE
  5
55D
100
AcDbEntity
  8
IMPORT_IGES
100
AcDbLine
 62
253
  6
CONTINUOUS
 10
6.5664975422
 20
-0.3884053443
 11
6.5525165383
 21
-0.3710818598
  0
LWPOLYLINE
  5
55E
100
AcDbEntity
  8
IMPORT_IGES
100
AcDbPolyline
 62
7
  6
CONTINUOUS
 90
10
 70
0
 10
6.552516464
 20
-0.3710819036
 10
6.5394158377
 20
-0.3536102175
 10
6.5246181837
 20
-0.3367174541
 10
6.5078084687
 20
-0.3207883686
 10
6.4884669754
 20
-0.306008553
 10
6.4668267973
 20
-0.2932029753
 10
6.4441745654
 20
-0.2833193988
 10
6.4212991826
 20
-0.2764668192
 10
6.398183609
 20
-0.2724040746
 10
6.375155296
 20
-0.2710540368
  0
LINE
  5
55F
100
AcDbEntity
  8
RACCORDO
100
AcDbLine
 62
7
  6
CONTINUOUS
 10
-8.2591007192
 20
21.3126932437
 11
-8.3125346208
 21
21.3881838872
  0
LINE
  5
560
100
AcDbEntity
  8
RACCORDO
100
AcDbLine
 62
7
  6
CONTINUOUS
 10
-8.3125346208
 20
21.3881838872
 11
-8.3917764984
 21
21.5011382645
  0
LWPOLYLINE
  5
561
100
AcDbEntity
  8
RACCORDO
100
AcDbPolyline
 62
7
  6
CONTINUOUS
 90
5
 70
0
 10
-8.3917764984
 20
21.5011382645
 10
-8.4435136093
 20
21.5758926167
 10
-8.4689545568
 20
21.6129888844
 10
-8.493929804
 20
21.6499179842
 10
-8.518380061
 20
21.6866457638
  0
LINE
  5
562
100
AcDbEntity
  8
RACCORDO
100
AcDbLine
 62
7
  6
CONTINUOUS
 10
-7.230294768
 20
20.0829433217
 11
-7.1232213147
 21
19.9223308767
  0
LWPOLYLINE
  5
563
100
AcDbEntity
  8
IMPORT_IGES
100
AcDbPolyline
 62
253
  6
CONTINUOUS
 90
3
 70
0
 10
1.8250316096
 20
7.2213468442
 10
1.9014514029
 20
7.1050523934
 10
2.1321979173
 20
6.7586795433
  0
LINE
  5
564
100
AcDbEntity
  8
IMPORT_IGES
100
AcDbLine
 62
253
  6
CONTINUOUS
 10
2.1321979173
 20
6.7586795433
 11
2.2271403837
 21
6.6149631146
  0
LINE
  5
565
100
AcDbEntity
  8
RACCORDO
100
AcDbLine
 62
7
  6
CONTINUOUS
 10
-8.518380061
 20
21.6866457638
 11
-8.5658834737
 21
21.7591165263
  0
LWPOLYLINE
  5
566
100
AcDbEntity
  8
IMPORT_IGES
100
AcDbPolyline
 62
253
  6
CONTINUOUS
 90
4
 70
0
 10
1.9624021122
 20
6.7780388601
 10
1.9262829937
 20
6.8913800612
 10
1.8766865312
 20
7.0520786548
 10
1.8250473188
 20
7.2213177878
  0
LWPOLYLINE
  5
567
100
AcDbEntity
  8
IMPORT_IGES
100
AcDbPolyline
 62
253
  6
CONTINUOUS
 90
7
 70
0
 10
3.7387891563
 20
6.6079380564
 10
3.7310208731
 20
6.6406444692
 10
3.6566621444
 20
7.0259348533
 10
3.5988442175
 20
7.4123350882
 10
3.5576886766
 20
7.7988177732
 10
3.5330739375
 20
8.1863440813
 10
3.525
 20
8.5748812075
  0
LINE
  5
568
100
AcDbEntity
  8
IMPORT_IGES
100
AcDbLine
 62
253
  6
CONTINUOUS
 10
6.5768413568
 20
-10.0431621104
 11
6.5749999999
 21
-10.021537665
  0
LWPOLYLINE
  5
569
100
AcDbEntity
  8
IMPORT_IGES
100
AcDbPolyline
 62
253
  6
CONTINUOUS
 90
13
 70
0
 10
6.7749999999
 20
-0.4528306519
 10
6.7744976219
 20
-0.4444636679
 10
6.7731913327
 20
-0.4338755363
 10
6.7710811323
 20
-0.4210635747
 10
6.7680235597
 20
-0.4050793375
 10
6.7641620758
 20
-0.3868646595
 10
6.7599270634
 20
-0.3692572668
 10
6.7556484803
 20
-0.3536161067
 10
6.7509963686
 20
-0.3385872428
 10
6.7454112383
 20
-0.3229423423
 10
6.7387065926
 20
-0.3062719569
 10
6.7310689283
 20
-0.2889867318
 10
6.7224982454
 20
-0.271087758
  0
LINE
  5
56A
100
AcDbEntity
  8
RACCORDO
100
AcDbLine
 62
253
  6
CONTINUOUS
 10
6.5668217019
 20
20.0275513222
 11
6.6767786853
 21
16.8065137252
  0
LWPOLYLINE
  5
56B
100
AcDbEntity
  8
RACCORDO
100
AcDbPolyline
 62
7
  6
CONTINUOUS
 90
61
 70
0
 10
6.5668217019
 20
-20.0275513222
 10
6.5663325107
 20
-20.0091628585
 10
6.5649063091
 20
-19.9909323714
 10
6.5625430972
 20
-19.972859861
 10
6.5592294961
 20
-19.9548948957
 10
6.5549788846
 20
-19.9370879072
 10
6.5498313997
 20
-19.9195901896
 10
6.5437788221
 20
-19.9024050225
 10
6.5368293711
 20
-19.8855291263
 10
6.5290478408
 20
-19.8691039577
 10
6.5204294508
 20
-19.8531369236
 10
6.5109789816
 20
-19.837620617
 10
6.5007755685
 20
-19.822674273
 10
6.4898085014
 20
-19.8082977976
 10
6.4780884904
 20
-19.7944912848
 10
6.4657268016
 20
-19.7813742528
 10
6.4527272323
 20
-19.768960632
 10
6.4390859853
 20
-19.757236492
 10
6.4249029355
 20
-19.7462795591
 10
6.4101637009
 20
-19.7360885994
 10
6.3948826635
 20
-19.7266648468
 10
6.3792028439
 20
-19.7180897298
 10
6.3631339648
 20
-19.7103762769
 10
6.3466663034
 20
-19.7035114596
 10
6.3299137124
 20
-19.6975376198
 10
6.3128638592
 20
-19.6924573364
 10
6.2955290765
 20
-19.6882680305
 10
6.2780602141
 20
-19.6850043083
 10
6.2604628624
 20
-19.6826748955
 10
6.2427314312
 20
-19.6812710663
 10
6.225
 20
-19.6808012501
 10
6.2072685688
 20
-19.6812710663
 10
6.1895371376
 20
-19.6826748955
 10
6.1719397859
 20
-19.6850043083
 10
6.1544709235
 20
-19.6882680305
 10
6.1371361408
 20
-19.6924573364
 10
6.1200862876
 20
-19.6975376198
 10
6.1033336966
 20
-19.7035114596
 10
6.0868660352
 20
-19.7103762769
 10
6.0707971561
 20
-19.7180897298
 10
6.0551173365
 20
-19.7266648468
 10
6.0398362991
 20
-19.7360885994
 10
6.0250970645
 20
-19.7462795591
 10
6.0109140147
 20
-19.757236492
 10
5.9972727677
 20
-19.768960632
 10
5.9842731984
 20
-19.7813742528
 10
5.9719115096
 20
-19.7944912848
 10
5.9601914986
 20
-19.8082977976
 10
5.9492244315
 20
-19.822674273
 10
5.9390210184
 20
-19.837620617
 10
5.9295705492
 20
-19.8531369236
 10
5.9209521592
 20
-19.8691039577
 10
5.9131706289
 20
-19.8855291263
 10
5.9062211779
 20
-19.9024050225
 10
5.9001686003
 20
-19.9195901896
 10
5.8950211154
 20
-19.9370879072
 10
5.8907705039
 20
-19.9548948957
 10
5.8874569028
 20
-19.972859861
 10
5.8850936909
 20
-19.9909323714
 10
5.8836674893
 20
-20.0091628585
 10
5.8831782981
 20
-20.0275513222
  0
LWPOLYLINE
  5
56C
100
AcDbEntity
  8
RACCORDO
100
AcDbPolyline
 62
7
  6
CONTINUOUS
 90
61
 70
0
 10
5.8831782981
 20
20.0275513222
 10
5.8836674893
 20
20.0091628585
 10
5.8850936909
 20
19.9909323714
 10
5.8874569028
 20
19.972859861
 10
5.8907705039
 20
19.9548948957
 10
5.8950211154
 20
19.9370879072
 10
5.9001686003
 20
19.9195901896
 10
5.9062211779
 20
19.9024050225
 10
5.9131706289
 20
19.8855291263
 10
5.9209521592
 20
19.8691039577
 10
5.9295705492
 20
19.8531369236
 10
5.9390210184
 20
19.837620617
 10
5.9492244315
 20
19.822674273
 10
5.9601914986
 20
19.8082977976
 10
5.9719115096
 20
19.7944912848
 10
5.9842731984
 20
19.7813742528
 10
5.9972727677
 20
19.768960632
 10
6.0109140147
 20
19.757236492
 10
6.0250970645
 20
19.7462795591
 10
6.0398362991
 20
19.7360885994
 10
6.0551173365
 20
19.7266648468
 10
6.0707971561
 20
19.7180897298
 10
6.0868660352
 20
19.7103762769
 10
6.1033336966
 20
19.7035114596
 10
6.1200862876
 20
19.6975376198
 10
6.1371361408
 20
19.6924573364
 10
6.1544709235
 20
19.6882680305
 10
6.1719397859
 20
19.6850043083
 10
6.1895371376
 20
19.6826748955
 10
6.2072685688
 20
19.6812710663
 10
6.225
 20
19.6808012501
 10
6.2427314312
 20
19.6812710663
 10
6.2604628624
 20
19.6826748955
 10
6.2780602141
 20
19.6850043083
 10
6.2955290765
 20
19.6882680305
 10
6.3128638592
 20
19.6924573364
 10
6.3299137124
 20
19.6975376198
 10
6.3466663034
 20
19.7035114596
 10
6.3631339648
 20
19.7103762769
 10
6.3792028439
 20
19.7180897298
 10
6.3948826635
 20
19.7266648468
 10
6.4101637009
 20
19.7360885994
 10
6.4249029355
 20
19.7462795591
 10
6.4390859853
 20
19.757236492
 10
6.4527272323
 20
19.768960632
 10
6.4657268016
 20
19.7813742528
 10
6.4780884904
 20
19.7944912848
 10
6.4898085014
 20
19.8082977976
 10
6.5007755685
 20
19.822674273
 10
6.5109789816
 20
19.837620617
 10
6.5204294508
 20
19.8531369236
 10
6.5290478408
 20
19.8691039577
 10
6.5368293711
 20
19.8855291263
 10
6.5437788221
 20
19.9024050225
 10
6.5498313997
 20
19.9195901896
 10
6.5549788846
 20
19.9370879072
 10
6.5592294961
 20
19.9548948957
 10
6.5625430972
 20
19.972859861
 10
6.5649063091
 20
19.9909323714
 10
6.5663325107
 20
20.0091628585
 10
6.5668217019
 20
20.0275513222
  0
LWPOLYLINE
  5
56D
100
AcDbEntity
  8
RACCORDO
100
AcDbPolyline
 62
253
  6
CONTINUOUS
 90
40
 70
0
 10
6.1372642439
 20
-13.4876443732
 10
6.1368090938
 20
-13.4638614013
 10
6.1353918723
 20
-13.4400928486
 10
6.1330125792
 20
-13.416338715
 10
6.1296703654
 20
-13.3925432225
 10
6.1253660801
 20
-13.3687621492
 10
6.1201022709
 20
-13.3451628292
 10
6.1138677702
 20
-13.3217492667
 10
6.1066737456
 20
-13.2985174574
 10
6.0985562475
 20
-13.2756227227
 10
6.0895057972
 20
-13.2530706355
 10
6.0795318735
 20
-13.2308556228
 10
6.0686989632
 20
-13.2091162875
 10
6.057005637
 20
-13.1878662158
 10
6.0444533243
 20
-13.1670918215
 10
6.0311108003
 20
-13.1468909479
 10
6.0169784753
 20
-13.1272705042
 10
6.002055939
 20
-13.1082235813
 10
5.9864107358
 20
-13.0898272952
 10
5.9700411704
 20
-13.0720832075
 10
5.9529489381
 20
-13.0549897565
 10
5.9352066692
 20
-13.0386193741
 10
5.9168129556
 20
-13.0229738404
 10
5.8977692053
 20
-13.0080513752
 10
5.8781522732
 20
-12.9939190693
 10
5.8579553941
 20
-12.9805764916
 10
5.8371853331
 20
-12.9680240731
 10
5.8159392396
 20
-12.9563301984
 10
5.7942037126
 20
-12.9454962125
 10
5.7719921531
 20
-12.9355207703
 10
5.7494419142
 20
-12.9264682212
 10
5.7265470544
 20
-12.9183478063
 10
5.7033135152
 20
-12.9111502845
 10
5.6798964739
 20
-12.9049122824
 10
5.6562919306
 20
-12.8996449597
 10
5.6325038852
 20
-12.8953371566
 10
5.6086995144
 20
-12.89199202
 10
5.5849345438
 20
-12.8896105989
 10
5.561153248
 20
-12.8881918442
 10
5.5373556268
 20
-12.8877357561
  0
LINE
  5
56E
100
AcDbEntity
  8
IMPORT_IGES
100
AcDbLine
 62
253
  6
CONTINUOUS
 10
7.3134829207
 20
7.7428932182
 11
7.319670625
 21
7.3883998778
  0
LINE
  5
56F
100
AcDbEntity
  8
IMPORT_IGES
100
AcDbLine
 62
253
  6
CONTINUOUS
 10
7.2840625198
 20
9.6404371412
 11
7.3110144018
 21
8.0964466092
  0
LINE
  5
570
100
AcDbEntity
  8
IMPORT_IGES
100
AcDbLine
 62
253
  6
CONTINUOUS
 10
7.335149868
 20
6.3924136332
 11
7.4470555343
 21
-0.054999921
  0
LINE
  5
571
100
AcDbEntity
  8
RACCORDO
100
AcDbLine
 62
253
  6
CONTINUOUS
 10
7.579371834
 20
-23.8443375673
 11
7.575
 21
-23.4104851482
  0
LINE
  5
572
100
AcDbEntity
  8
IMPORT_IGES
100
AcDbLine
 62
7
  6
CONTINUOUS
 10
7.3110144018
 20
8.0964466092
 11
7.3134830685
 21
7.7428932188
  0
LINE
  5
573
100
AcDbEntity
  8
RACCORDO
100
AcDbLine
 62
7
  6
CONTINUOUS
 10
5.7732213147
 20
16.8065137252
 11
5.7732213147
 21
19.9223308767
  0
LINE
  5
574
100
AcDbEntity
  8
0
100
AcDbLine
 62
7
  6
CONTINUOUS
 10
5.7848569743
 20
-17.1473642646
 11
5.7848569743
 21
-19.3
  0
LINE
  5
575
100
AcDbEntity
  8
RACCORDO
100
AcDbLine
 62
7
  6
CONTINUOUS
 10
5.8040558127
 20
-19.968583276
 11
5.8040558127
 21
-19.8
  0
LINE
  5
576
100
AcDbEntity
  8
RACCORDO
100
AcDbLine
 62
7
  6
CONTINUOUS
 10
5.825
 20
-13.8188401295
 11
5.825
 21
-13.4999543085
  0
LINE
  5
577
100
AcDbEntity
  8
DRAFT
100
AcDbLine
 62
7
  6
CONTINUOUS
 10
5.825
 20
-12.3
 11
5.825
 21
-11.5836351166
  0
LINE
  5
578
100
AcDbEntity
  8
RACCORDO
100
AcDbLine
 62
7
  6
CONTINUOUS
 10
5.825
 20
-11.5836351166
 11
5.825
 21
-10.8365669523
  0
LINE
  5
579
100
AcDbEntity
  8
RACCORDO
100
AcDbLine
 62
253
  6
CONTINUOUS
 10
5.8373099353
 20
-13.4876443732
 11
5.8373099353
 21
-13.8126856306
  0
LINE
  5
57A
100
AcDbEntity
  8
RACCORDO
100
AcDbLine
 62
7
  6
CONTINUOUS
 10
5.8831782981
 20
20.5829242832
 11
5.8831782981
 21
20.0275513222
  0
LINE
  5
57B
100
AcDbEntity
  8
RACCORDO
100
AcDbLine
 62
7
  6
CONTINUOUS
 10
5.8831782981
 20
-20.0275513222
 11
5.8831782981
 21
-20.5829242832
  0
LINE
  5
57C
100
AcDbEntity
  8
IMPORT_IGES
100
AcDbLine
 62
253
  6
CONTINUOUS
 10
6.1280000015
 20
10.95
 11
6.1279981821
 21
8.201858569
  0
LINE
  5
57D
100
AcDbEntity
  8
RACCORDO
100
AcDbLine
 62
253
  6
CONTINUOUS
 10
6.1372642439
 20
-13.4876443732
 11
6.1372642439
 21
-13.8101132618
  0
LINE
  5
57E
100
AcDbEntity
  8
IMPORT_IGES
100
AcDbLine
 62
7
  6
CONTINUOUS
 10
6.328
 20
10.4672162206
 11
6.328
 21
8.1485647603
  0
LINE
  5
57F
100
AcDbEntity
  8
IMPORT_IGES
100
AcDbLine
 62
253
  6
CONTINUOUS
 10
6.3749991095
 20
-8.3405803557
 11
6.3750033344
 21
-10.2911905861
  0
LINE
  5
580
100
AcDbEntity
  8
IMPORT_IGES
100
AcDbLine
 62
253
  6
CONTINUOUS
 10
6.375154201
 20
-0.0710827939
 11
6.3751548138
 21
-0.2710819827
  0
LINE
  5
581
100
AcDbEntity
  8
IMPORT_IGES
100
AcDbLine
 62
253
  6
CONTINUOUS
 10
6.528
 20
10.3965066856
 11
6.528
 21
8.0694368637
  0
LINE
  5
582
100
AcDbEntity
  8
RACCORDO
100
AcDbLine
 62
7
  6
CONTINUOUS
 10
6.5668217019
 20
20.9959955457
 11
6.5668217019
 21
20.0275513222
  0
LINE
  5
583
100
AcDbEntity
  8
RACCORDO
100
AcDbLine
 62
7
  6
CONTINUOUS
 10
6.5668217019
 20
-20.0275513222
 11
6.5668217019
 21
-20.9959955457
  0
LINE
  5
584
100
AcDbEntity
  8
IMPORT_IGES
100
AcDbLine
 62
7
  6
CONTINUOUS
 10
6.575
 20
-0.4710819846
 11
6.575
 21
-6.4663853498
  0
LINE
  5
585
100
AcDbEntity
  8
IMPORT_IGES
100
AcDbLine
 62
7
  6
CONTINUOUS
 10
6.5749999999
 20
-8.4822750736
 11
6.5749999999
 21
-10.0571440889
  0
LINE
  5
586
100
AcDbEntity
  8
RACCORDO
100
AcDbLine
 62
7
  6
CONTINUOUS
 10
6.6459441873
 20
-20.7113319946
 11
6.6459441873
 21
-19.8
  0
LINE
  5
587
100
AcDbEntity
  8
DRAFT
100
AcDbLine
 62
7
  6
CONTINUOUS
 10
6.6575462644
 20
-11.5174537356
 11
6.6575462644
 21
-10.3558961425
  0
LINE
  5
588
100
AcDbEntity
  8
0
100
AcDbLine
 62
7
  6
CONTINUOUS
 10
6.6651430257
 20
-17.1473642646
 11
6.6651430257
 21
-19.3
  0
LINE
  5
589
100
AcDbEntity
  8
DRAFT
100
AcDbLine
 62
7
  6
CONTINUOUS
 10
6.675
 20
-11.5
 11
6.675
 21
-10.3458192235
  0
LINE
  5
58A
100
AcDbEntity
  8
RACCORDO
100
AcDbLine
 62
7
  6
CONTINUOUS
 10
6.6767786853
 20
20.4335707644
 11
6.6767786853
 21
16.8065137252
  0
LINE
  5
58B
100
AcDbEntity
  8
RACCORDO
100
AcDbLine
 62
7
  6
CONTINUOUS
 10
6.7351132618
 20
-13.3101323002
 11
6.7351132618
 21
-12.4101132618
  0
LINE
  5
58C
100
AcDbEntity
  8
IMPORT_IGES
100
AcDbLine
 62
253
  6
CONTINUOUS
 10
6.7749999846
 20
-8.6420018709
 11
6.7749999683
 21
-10.1812646504
  0
LINE
  5
58D
100
AcDbEntity
  8
IMPORT_IGES
100
AcDbLine
 62
253
  6
CONTINUOUS
 10
6.775
 20
-7.8451539698
 11
6.7749999999
 21
-0.4528306519
  0
LINE
  5
58E
100
AcDbEntity
  8
RACCORDO
100
AcDbLine
 62
7
  6
CONTINUOUS
 10
6.825
 20
-13.4000190385
 11
6.825
 21
-12.5
  0
LINE
  5
58F
100
AcDbEntity
  8
RACCORDO
100
AcDbLine
 62
253
  6
CONTINUOUS
 10
6.9091007192
 20
-21.3126932437
 11
6.9091007192
 21
-20.9959955457
  0
LINE
  5
590
100
AcDbEntity
  8
RACCORDO
100
AcDbLine
 62
253
  6
CONTINUOUS
 10
6.9091007192
 20
20.9959955457
 11
6.9091007192
 21
21.3126932437
  0
LINE
  5
591
100
AcDbEntity
  8
RACCORDO
100
AcDbLine
 62
253
  6
CONTINUOUS
 10
7.4090245667
 20
-21.5659754333
 11
7.4090245667
 21
-20.9917082642
  0
LINE
  5
592
100
AcDbEntity
  8
RACCORDO
100
AcDbLine
 62
253
  6
CONTINUOUS
 10
7.4090245667
 20
20.9917082642
 11
7.4090245667
 21
21.5659754333
  0
LINE
  5
593
100
AcDbEntity
  8
IMPORT_IGES
100
AcDbLine
 62
7
  6
CONTINUOUS
 10
7.3123573988
 20
-7.8451539698
 11
7.3100089773
 21
-8.181503769
  0
LINE
  5
594
100
AcDbEntity
  8
IMPORT_IGES
100
AcDbLine
 62
253
  6
CONTINUOUS
 10
7.2809191794
 20
-9.8493178939
 11
7.2806144928
 21
-9.8895873508
  0
LINE
  5
595
100
AcDbEntity
  8
RACCORDO
100
AcDbLine
 62
253
  6
CONTINUOUS
 10
7.575
 20
23.4104851482
 11
7.579371834
 21
23.8443375673
  0
LINE
  5
596
100
AcDbEntity
  8
IMPORT_IGES
100
AcDbLine
 62
253
  6
CONTINUOUS
 10
7.444384815
 20
-0.2710821499
 11
7.4470555343
 21
-0.054999921
  0
LINE
  5
597
100
AcDbEntity
  8
IMPORT_IGES
100
AcDbLine
 62
7
  6
CONTINUOUS
 10
7.444384815
 20
-0.2710821499
 11
7.4317321905
 21
-1.091987288
  0
LINE
  5
598
100
AcDbEntity
  8
IMPORT_IGES
100
AcDbLine
 62
253
  6
CONTINUOUS
 10
7.366578185
 20
-4.7388424615
 11
7.3123573988
 21
-7.8451539653
  0
LINE
  5
599
100
AcDbEntity
  8
IMPORT_IGES
100
AcDbLine
 62
253
  6
CONTINUOUS
 10
7.4317321905
 20
-1.091987288
 11
7.3780246782
 21
-4.1688797904
  0
LINE
  5
59A
100
AcDbEntity
  8
IMPORT_IGES
100
AcDbLine
 62
253
  6
CONTINUOUS
 10
7.3100090078
 20
-8.181503443
 11
7.2809191794
 21
-9.8493178939
  0
LINE
  5
59B
100
AcDbEntity
  8
IMPORT_IGES
100
AcDbLine
 62
253
  6
CONTINUOUS
 10
7.3780246782
 20
-4.1688797904
 11
7.366578185
 21
-4.7388424615
  0
LWPOLYLINE
  5
59C
100
AcDbEntity
  8
0
100
AcDbPolyline
 62
7
  6
CONTINUOUS
 90
67
 70
0
 10
5.7848569743
 20
-17.1473642646
 10
5.7853697337
 20
-17.1259015607
 10
5.7868834038
 20
-17.1045779493
 10
5.7893979846
 20
-17.0833934305
 10
5.7929262002
 20
-17.0622921631
 10
5.7974553264
 20
-17.0413299883
 10
5.8029471908
 20
-17.0206744296
 10
5.8094049171
 20
-17.0003416951
 10
5.8168253814
 20
-16.9803155769
 10
5.82516104
 20
-16.9607149742
 10
5.8344266944
 20
-16.9415277614
 10
5.844607543
 20
-16.9227660642
 10
5.8556116374
 20
-16.9045851585
 10
5.8674311271
 20
-16.8870095678
 10
5.8800738625
 20
-16.8700147687
 10
5.8934714468
 20
-16.8536824674
 10
5.9076466351
 20
-16.8379975206
 10
5.9225766721
 20
-16.8229750716
 10
5.9381248955
 20
-16.8087422555
 10
5.9542721736
 20
-16.7953242537
 10
5.971037638
 20
-16.7826958848
 10
5.9883420201
 20
-16.7709087402
 10
6.0062128941
 20
-16.7599523211
 10
6.0246226858
 20
-16.7498371262
 10
6.0434094041
 20
-16.7406462429
 10
6.0625506773
 20
-16.7323974148
 10
6.0820688771
 20
-16.7250728982
 10
6.1018691275
 20
-16.7187025494
 10
6.1219719555
 20
-16.713285299
 10
6.142356834
 20
-16.7088222164
 10
6.1628673056
 20
-16.7053463663
 10
6.1834930246
 20
-16.7028666925
 10
6.2042443367
 20
-16.7013742512
 10
6.2249958214
 20
-16.7008752761
 10
6.2457476368
 20
-16.7013739204
 10
6.2664996248
 20
-16.702866031
 10
6.2871258906
 20
-16.7053453822
 10
6.3076365826
 20
-16.7088209234
 10
6.3280215524
 20
-16.7132837052
 10
6.3481244604
 20
-16.7187006542
 10
6.3679247394
 20
-16.7250706503
 10
6.3874429565
 20
-16.7323948136
 10
6.4065844731
 20
-16.7406434299
 10
6.4253719516
 20
-16.7498344259
 10
6.4437827295
 20
-16.7599498749
 10
6.4616541811
 20
-16.7709062827
 10
6.4789582101
 20
-16.7826927619
 10
6.4957229129
 20
-16.7953201999
 10
6.5118699531
 20
-16.8087377646
 10
6.5274191301
 20
-16.8229712622
 10
6.5423506445
 20
-16.8379948865
 10
6.5565267618
 20
-16.8536803863
 10
6.569924026
 20
-16.8700117754
 10
6.582565893
 20
-16.88700504
 10
6.5943849958
 20
-16.9045798873
 10
6.6053898213
 20
-16.922761853
 10
6.6155718826
 20
-16.9415254015
 10
6.6248383519
 20
-16.9607136338
 10
6.6331739272
 20
-16.9803133499
 10
6.6405939105
 20
-17.0003377497
 10
6.6470513812
 20
-17.0206695343
 10
6.652543535
 20
-17.0413257692
 10
6.6570731762
 20
-17.0622893888
 10
6.6606017967
 20
-17.0833918978
 10
6.6631165604
 20
-17.1045771308
 10
6.6646303034
 20
-17.125901253
 10
6.6651430257
 20
-17.1473642646
  0
LWPOLYLINE
  5
59D
100
AcDbEntity
  8
RACCORDO
100
AcDbPolyline
 62
7
  6
CONTINUOUS
 90
34
 70
0
 10
7.575
 20
24.2500042308
 10
7.5752831502
 20
24.261899516
 10
7.5761319658
 20
24.2737678556
 10
7.5775445259
 20
24.2855823661
 10
7.5795176323
 20
24.2973162875
 10
7.5820468183
 20
24.3089430388
 10
7.5851263583
 20
24.320436279
 10
7.5887492787
 20
24.3317699738
 10
7.5929073742
 20
24.3429184493
 10
7.5975912278
 20
24.3538564463
 10
7.6027902312
 20
24.3645591876
 10
7.6084926084
 20
24.3750024283
 10
7.6146854419
 20
24.3851625059
 10
7.6213547045
 20
24.3950164051
 10
7.6284852893
 20
24.4045418038
 10
7.6360610411
 20
24.4137171191
 10
7.6440647995
 20
24.4225215661
 10
7.6524784339
 20
24.4309352005
 10
7.6612828809
 20
24.4389389589
 10
7.6704581962
 20
24.4465147107
 10
7.6799835949
 20
24.4536452955
 10
7.6898374941
 20
24.4603145581
 10
7.6999975717
 20
24.4665073916
 10
7.7104408124
 20
24.4722097688
 10
7.7211435537
 20
24.4774087722
 10
7.7320815507
 20
24.4820926258
 10
7.7432300262
 20
24.4862507213
 10
7.754563721
 20
24.4898736417
 10
7.7660569612
 20
24.4929531817
 10
7.7776837125
 20
24.4954823677
 10
7.7894176339
 20
24.4974554741
 10
7.8012321444
 20
24.4988680342
 10
7.813100484
 20
24.4997168498
 10
7.8249957692
 20
24.5
  0
LWPOLYLINE
  5
59E
100
AcDbEntity
  8
RACCORDO
100
AcDbPolyline
 62
7
  6
CONTINUOUS
 90
67
 70
0
 10
6.6767786853
 20
16.8065137252
 10
6.6762467531
 20
16.7844342482
 10
6.6746880095
 20
16.7625115112
 10
6.6721024546
 20
16.7407455142
 10
6.6684778428
 20
16.7190853843
 10
6.6638264197
 20
16.6975819945
 10
6.6581849218
 20
16.6763879635
 10
6.6515459802
 20
16.6555067062
 10
6.6439169639
 20
16.6349348077
 10
6.6353567167
 20
16.6148146424
 10
6.6258602529
 20
16.5951521798
 10
6.6154325581
 20
16.5759414502
 10
6.6041474332
 20
16.5573069193
 10
6.5919952334
 20
16.5392482489
 10
6.5789856034
 20
16.5217657771
 10
6.5652212778
 20
16.5049849836
 10
6.5507050393
 20
16.4889190733
 10
6.5354341052
 20
16.4735548414
 10
6.5195028613
 20
16.4589781527
 10
6.5028972677
 20
16.4451861472
 10
6.4856313642
 20
16.4321816851
 10
6.4678416569
 20
16.4200592119
 10
6.4495381899
 20
16.4088328227
 10
6.4307109191
 20
16.3984884224
 10
6.4114662174
 20
16.3890781722
 10
6.3917888259
 20
16.3806017527
 10
6.3716940035
 20
16.3730594833
 10
6.3513339004
 20
16.3665044834
 10
6.33071874
 20
16.3609467581
 10
6.3098382988
 20
16.3563763022
 10
6.2888140563
 20
16.3528162195
 10
6.2676385718
 20
16.3502706391
 10
6.2463192859
 20
16.3487354319
 10
6.225
 20
16.3482213147
 10
6.2036807141
 20
16.3487354319
 10
6.1823614282
 20
16.3502706391
 10
6.1611859437
 20
16.3528162195
 10
6.1401617012
 20
16.3563763022
 10
6.11928126
 20
16.3609467581
 10
6.0986660996
 20
16.3665044834
 10
6.0783059965
 20
16.3730594833
 10
6.0582111741
 20
16.3806017527
 10
6.0385337826
 20
16.3890781722
 10
6.0192890809
 20
16.3984884224
 10
6.0004618101
 20
16.4088328227
 10
5.9821583431
 20
16.4200592119
 10
5.9643686358
 20
16.4321816851
 10
5.9471027323
 20
16.4451861472
 10
5.9304971387
 20
16.4589781527
 10
5.9145658948
 20
16.4735548414
 10
5.8992949607
 20
16.4889190733
 10
5.8847787222
 20
16.5049849836
 10
5.8710143966
 20
16.5217657771
 10
5.8580047666
 20
16.5392482489
 10
5.8458525668
 20
16.5573069193
 10
5.8345674419
 20
16.5759414502
 10
5.8241397471
 20
16.5951521798
 10
5.8146432833
 20
16.6148146424
 10
5.8060830361
 20
16.6349348077
 10
5.7984540198
 20
16.6555067062
 10
5.7918150782
 20
16.6763879635
 10
5.7861735803
 20
16.6975819945
 10
5.7815221572
 20
16.7190853843
 10
5.7778975454
 20
16.7407455142
 10
5.7753119905
 20
16.7625115112
 10
5.7737532469
 20
16.7844342482
 10
5.7732213147
 20
16.8065137252
  0
LWPOLYLINE
  5
59F
100
AcDbEntity
  8
RACCORDO
100
AcDbPolyline
 62
253
  6
CONTINUOUS
 90
31
 70
0
 10
7.579371834
 20
24.2456323968
 10
7.579715023
 20
24.2587187509
 10
7.580742766
 20
24.2717692492
 10
7.5824522491
 20
24.2847481067
 10
7.5848387919
 20
24.2976197463
 10
7.587895853
 20
24.3103488602
 10
7.5916150425
 20
24.3229005077
 10
7.5959861576
 20
24.3352402638
 10
7.6009972131
 20
24.347334301
 10
7.6066344613
 20
24.3591494467
 10
7.6128824405
 20
24.3706533025
 10
7.6197240163
 20
24.3818143284
 10
7.6271404232
 20
24.3926019187
 10
7.6351113313
 20
24.402986508
 10
7.6436148729
 20
24.4129396114
 10
7.652627692
 20
24.4224339046
 10
7.6621250264
 20
24.4314433264
 10
7.6720808636
 20
24.4399432233
 10
7.6824679894
 20
24.4479103656
 10
7.6932580686
 20
24.4553229956
 10
7.704421387
 20
24.4621606774
 10
7.7159269875
 20
24.4684044791
 10
7.7277430657
 20
24.4740372277
 10
7.7398374218
 20
24.4790436576
 10
7.7521772258
 20
24.4834102087
 10
7.7647314103
 20
24.4871256484
 10
7.7774628755
 20
24.4901787618
 10
7.7903285943
 20
24.492559892
 10
7.8032903689
 20
24.4942634962
 10
7.8163152632
 20
24.4952867588
 10
7.8293676032
 20
24.495628166
  0
LINE
  5
5A0
100
AcDbEntity
  8
0
100
AcDbLine
 62
253
  6
CONTINUOUS
 10
6.5668217019
 20
-20.0275513222
 11
6.6651430257
 21
-17.1473642646
  0
LWPOLYLINE
  5
5A1
100
AcDbEntity
  8
ASSI
100
AcDbPolyline
 62
7
  6
CONTINUOUS
 90
17
 70
0
 10
2.825
 20
-23.7511422903
 10
2.8253309496
 20
-23.7484333218
 10
2.8263372585
 20
-23.7450554941
 10
2.8280384326
 20
-23.7410088074
 10
2.8304545678
 20
-23.7363066986
 10
2.8336022674
 20
-23.7309357306
 10
2.8374904908
 20
-23.7248555929
 10
2.8421299958
 20
-23.7180581801
 10
2.8475307956
 20
-23.7105515976
 10
2.8536918512
 20
-23.7023198506
 10
2.8606000818
 20
-23.69338247
 10
2.8682706493
 20
-23.6837199248
 10
2.8767508381
 20
-23.673257628
 10
2.8860539485
 20
-23.6619971292
 10
2.8961841112
 20
-23.6499368786
 10
2.9071916901
 20
-23.6369976396
 10
2.9190894927
 20
-23.6231776604
  0
LWPOLYLINE
  5
5A2
100
AcDbEntity
  8
IMPORT_IGES
100
AcDbPolyline
 62
7
  6
CONTINUOUS
 90
31
 70
0
 10
4.9449171818
 20
-7.9542999891
 10
4.9544737764
 20
-7.922756117
 10
4.9634154101
 20
-7.8901064173
 10
4.9717420828
 20
-7.8563508899
 10
4.9793695557
 20
-7.8214985077
 10
4.9863820677
 20
-7.7855402977
 10
4.9930323354
 20
-7.7484493415
 10
4.999375051
 20
-7.7102202397
 10
5.0053555224
 20
-7.6708583916
 10
5.0110623896
 20
-7.6303530767
 10
5.0165109613
 20
-7.5887300614
 10
5.0216859289
 20
-7.5459635792
 10
5.026630006
 20
-7.5019656105
 10
5.0313526567
 20
-7.4567451013
 10
5.035844417
 20
-7.4102931056
 10
5.0401196078
 20
-7.362494765
 10
5.0441854496
 20
-7.3133424125
 10
5.0480347218
 20
-7.2628437151
 10
5.0516600843
 20
-7.2109068165
 10
5.055066407
 20
-7.157533017
 10
5.0582488198
 20
-7.1027210163
 10
5.0611853723
 20
-7.0463750565
 10
5.0638809909
 20
-6.9884967653
 10
5.0663307492
 20
-6.9290845151
 10
5.0684979164
 20
-6.8680376657
 10
5.0703885099
 20
-6.8053539058
 10
5.0719965123
 20
-6.7410355467
 10
5.0732671408
 20
-6.6749888822
 10
5.0741821344
 20
-6.6071826768
 10
5.0747597542
 20
-6.537648166
 10
5.075
 20
-0.9746152423
  0
LWPOLYLINE
  5
5A3
100
AcDbEntity
  8
IMPORT_IGES
100
AcDbPolyline
 62
7
  6
CONTINUOUS
 90
10
 70
0
 10
4.0481303335
 20
-7.8451457132
 10
4.0534769271
 20
-7.8291356317
 10
4.0582575448
 20
-7.8125556476
 10
4.0624721866
 20
-7.7954057609
 10
4.066153243
 20
-7.7775962931
 10
4.0692683234
 20
-7.7592169227
 10
4.0717202565
 20
-7.740536685
 10
4.0734766517
 20
-7.7216452585
 10
4.0745698996
 20
-7.7024529647
 10
4.075
 20
-7.6829598037
  0
LWPOLYLINE
  5
5A4
100
AcDbEntity
  8
IMPORT_IGES
100
AcDbPolyline
 62
7
  6
CONTINUOUS
 90
46
 70
0
 10
4.0481314396
 20
-7.8451502999
 10
4.0437133083
 20
-7.8571450121
 10
4.0391837171
 20
-7.868640328
 10
4.034584909
 20
-7.8796445046
 10
4.0299703182
 20
-7.8901540533
 10
4.0253636517
 20
-7.9001936533
 10
4.0207528784
 20
-7.9098122758
 10
4.016160918
 20
-7.9190190752
 10
4.0116152163
 20
-7.9278235151
 10
4.0070987674
 20
-7.9362700543
 10
4.0026260826
 20
-7.944368224
 10
3.9982167346
 20
-7.9521243319
 10
3.9938538076
 20
-7.9595739769
 10
3.9895468881
 20
-7.966725628
 10
3.9853099483
 20
-7.9735839962
 10
3.981127917
 20
-7.9801759843
 10
3.9770078948
 20
-7.9865079987
 10
3.9729594377
 20
-7.9925845858
 10
3.9689680778
 20
-7.9984274983
 10
3.9650390472
 20
-8.004041913
 10
3.9611790115
 20
-8.0094316416
 10
3.9573735308
 20
-8.0146144484
 10
3.9536262235
 20
-8.0195950546
 10
3.9499420107
 20
-8.0243759717
 10
3.9463069085
 20
-8.0289700111
 10
3.9427237577
 20
-8.0333812298
 10
3.939195901
 20
-8.0376113
 10
3.9357090287
 20
-8.0416680315
 10
3.9322661421
 20
-8.0455545943
 10
3.9288687451
 20
-8.0492722084
 10
3.9254994434
 20
-8.0528243598
 10
3.9221619209
 20
-8.0562140128
 10
3.9188557467
 20
-8.0594411838
 10
3.9155566255
 20
-8.0625032959
 10
3.9122644633
 20
-8.0654077877
 10
3.9089816241
 20
-8.0681483232
 10
3.9056869449
 20
-8.0706999722
 10
3.9023901492
 20
-8.0730667097
 10
3.8990833552
 20
-8.0752443983
 10
3.8957184835
 20
-8.0771934376
 10
3.8922523604
 20
-8.0789297888
 10
3.8887294689
 20
-8.0804325374
 10
3.8852333672
 20
-8.0816080857
 10
3.8817928025
 20
-8.0824273391
 10
3.8783813354
 20
-8.0829222817
 10
3.875
 20
-8.0830940215
  0
LINE
  5
5A5
100
AcDbEntity
  8
DRAFT
100
AcDbLine
 62
7
  6
CONTINUOUS
 10
-10.1696499221
 20
-11.5
 11
-10.325
 21
-11.5776691233
  0
LWPOLYLINE
  5
5A6
100
AcDbEntity
  8
IMPORT_IGES
100
AcDbPolyline
 62
253
  6
CONTINUOUS
 90
10
 70
0
 10
3.4214589533
 20
-6.0738230025
 10
3.4062992697
 20
-6.0806768718
 10
3.3911055904
 20
-6.0890249051
 10
3.3762065321
 20
-6.0987433064
 10
3.3620762299
 20
-6.1095241416
 10
3.348851969
 20
-6.1212274948
 10
3.3364113949
 20
-6.133995988
 10
3.3249706828
 20
-6.1477248566
 10
3.3149588874
 20
-6.1619801113
 10
3.3066030646
 20
-6.1764291034
  0
LWPOLYLINE
  5
5A7
100
AcDbEntity
  8
IMPORT_IGES
100
AcDbPolyline
 62
253
  6
CONTINUOUS
 90
8
 70
0
 10
4.075
 20
-5.8638753356
 10
4.0733275292
 20
-5.8644360734
 10
4.0683610714
 20
-5.8649855454
 10
4.0602170226
 20
-5.8655147701
 10
4.0491265112
 20
-5.8660127913
 10
4.0352667441
 20
-5.8664745945
 10
4.0186175463
 20
-5.8668992537
 10
3.9992327771
 20
-5.8672804328
  0
LINE
  5
5A8
100
AcDbEntity
  8
IMPORT_IGES
100
AcDbLine
 62
253
  6
CONTINUOUS
 10
3.4666667458
 20
6.969602164
 11
3.2697133433
 21
6.9348263547
  0
LWPOLYLINE
  5
5A9
100
AcDbEntity
  8
IMPORT_IGES
100
AcDbPolyline
 62
253
  6
CONTINUOUS
 90
3
 70
0
 10
6.4778006752
 20
8.0918478418
 10
6.5018947616
 20
8.09523673
 10
6.528
 20
8.0964466093
  0
LINE
  5
5AA
100
AcDbEntity
  8
IMPORT_IGES
100
AcDbLine
 62
253
  6
CONTINUOUS
 10
3.3617559346
 20
7.7606570943
 11
3.1625463848
 21
7.7428932188
  0
LINE
  5
5AB
100
AcDbEntity
  8
IMPORT_IGES
100
AcDbLine
 62
7
  6
CONTINUOUS
 10
7.6324277517
 20
6.401794473
 11
7.635015322
 21
6.4019208396
  0
LWPOLYLINE
  5
5AC
100
AcDbEntity
  8
IMPORT_IGES
100
AcDbPolyline
 62
7
  6
CONTINUOUS
 90
3
 70
0
 10
3.825
 20
6.344599476
 10
3.827589799
 20
6.344697702
 10
3.8352959886
 20
6.3447576036
  0
LINE
  5
5AD
100
AcDbEntity
  8
IMPORT_IGES
100
AcDbLine
 62
7
  6
CONTINUOUS
 10
7.4853353552
 20
6.3970812158
 11
7.6324277517
 21
6.401794473
  0
LINE
  5
5AE
100
AcDbEntity
  8
IMPORT_IGES
100
AcDbLine
 62
7
  6
CONTINUOUS
 10
7.3348316646
 20
6.3924587123
 11
7.4853353552
 21
6.3970812158
  0
LINE
  5
5AF
100
AcDbEntity
  8
IMPORT_IGES
100
AcDbLine
 62
7
  6
CONTINUOUS
 10
-5.1775898608
 20
6.344593207
 11
-5.175
 21
6.3446238705
  0
LINE
  5
5B0
100
AcDbEntity
  8
IMPORT_IGES
100
AcDbLine
 62
7
  6
CONTINUOUS
 10
-5.4749991816
 20
6.3440525646
 11
-5.1775898608
 21
6.344593207
  0
LINE
  5
5B1
100
AcDbEntity
  8
RACCORDO
100
AcDbLine
 62
7
  6
CONTINUOUS
 10
-9.175
 20
5.9
 11
-8.9956964399
 21
5.9
  0
LINE
  5
5B2
100
AcDbEntity
  8
RACCORDO
100
AcDbLine
 62
7
  6
CONTINUOUS
 10
7.6456964399
 20
5.9
 11
7.825
 21
5.9
  0
LINE
  5
5B3
100
AcDbEntity
  8
RACCORDO
100
AcDbLine
 62
253
  6
CONTINUOUS
 10
-9.0877084755
 20
5.9872915245
 11
-8.9941727607
 21
5.9872915245
  0
LINE
  5
5B4
100
AcDbEntity
  8
RACCORDO
100
AcDbLine
 62
253
  6
CONTINUOUS
 10
7.6441727607
 20
5.9872915245
 11
7.7377084755
 21
5.9872915245
  0
LINE
  5
5B5
100
AcDbEntity
  8
RACCORDO
100
AcDbLine
 62
253
  6
CONTINUOUS
 10
-9.0851132618
 20
6.2872801014
 11
-8.9889364406
 21
6.2872801014
  0
LINE
  5
5B6
100
AcDbEntity
  8
RACCORDO
100
AcDbLine
 62
253
  6
CONTINUOUS
 10
7.6389364406
 20
6.2872801014
 11
7.7351132618
 21
6.2872801014
  0
LINE
  5
5B7
100
AcDbEntity
  8
IMPORT_IGES
100
AcDbLine
 62
7
  6
CONTINUOUS
 10
3.4528659928
 20
7.05
 11
3.5898630836
 21
7.05
  0
LINE
  5
5B8
100
AcDbEntity
  8
IMPORT_IGES
100
AcDbLine
 62
7
  6
CONTINUOUS
 10
-4.8060042723
 20
7.05
 11
-4.9398630836
 21
7.05
  0
LWPOLYLINE
  5
5B9
100
AcDbEntity
  8
IMPORT_IGES
100
AcDbPolyline
 62
7
  6
CONTINUOUS
 90
3
 70
0
 10
3.8352959886
 20
6.3447576036
 10
3.8653226642
 20
6.3447526878
 10
4.124998684
 20
6.3440741648
  0
LINE
  5
5BA
100
AcDbEntity
  8
IMPORT_IGES
100
AcDbLine
 62
7
  6
CONTINUOUS
 10
-8.6850852126
 20
6.3966544877
 11
-8.9850157199
 21
6.4018980425
  0
LINE
  5
5BB
100
AcDbEntity
  8
IMPORT_IGES
100
AcDbLine
 62
253
  6
CONTINUOUS
 10
-4.7117559346
 20
7.7606570943
 11
-4.5125463895
 21
7.7428931668
  0
LWPOLYLINE
  5
5BC
100
AcDbEntity
  8
IMPORT_IGES
100
AcDbPolyline
 62
253
  6
CONTINUOUS
 90
3
 70
0
 10
-7.8278075988
 20
8.0918488157
 10
-7.8518947616
 20
8.0952367301
 10
-7.878
 20
8.0964466094
  0
LINE
  5
5BD
100
AcDbEntity
  8
IMPORT_IGES
100
AcDbLine
 62
253
  6
CONTINUOUS
 10
-4.6197133425
 20
6.9348263546
 11
-4.8166667458
 21
6.969602164
  0
LWPOLYLINE
  5
5BE
100
AcDbEntity
  8
IMPORT_IGES
100
AcDbPolyline
 62
253
  6
CONTINUOUS
 90
15
 70
0
 10
1.8250316096
 20
7.2213468442
 10
2.0461342096
 20
7.035276942
 10
2.2482910377
 20
6.8589051878
 10
2.4315020938
 20
6.6922315817
 10
2.5910752293
 20
6.5405031184
 10
2.7317025928
 20
6.3984728032
 10
2.8674606306
 20
6.2503996519
 10
3.0046727183
 20
6.0904283039
 10
3.1370154802
 20
5.9244141198
 10
3.2595952358
 20
5.7541821976
 10
3.3717995038
 20
5.5788155462
 10
3.4742407654
 20
5.3992311567
 10
3.5638627843
 20
5.2200050999
 10
3.6396941613
 20
5.0450586035
 10
3.6908631859
 20
4.903284227
  0
LWPOLYLINE
  5
5BF
100
AcDbEntity
  8
IMPORT_IGES
100
AcDbPolyline
 62
253
  6
CONTINUOUS
 90
13
 70
0
 10
7.6109687103
 20
7.889550297
 10
7.6079632423
 20
7.916972422
 10
7.5999563082
 20
7.9438444921
 10
7.5870827676
 20
7.9697139049
 10
7.5695594477
 20
7.9941449446
 10
7.5476814913
 20
8.0167261241
 10
7.5218173854
 20
8.0370771158
 10
7.4924027555
 20
8.054855152
 10
7.459933028
 20
8.0697607987
 10
7.4249550856
 20
8.0815430022
 10
7.3880580568
 20
8.0900033166
 10
7.349863393
 20
8.094999246
 10
7.3110144012
 20
8.0964466446
  0
LWPOLYLINE
  5
5C0
100
AcDbEntity
  8
IMPORT_IGES
100
AcDbPolyline
 62
253
  6
CONTINUOUS
 90
3
 70
0
 10
7.5840181559
 20
9.4335465263
 10
7.5810603585
 20
9.4607326598
 10
7.573229725
 20
9.4872718948
  0
LWPOLYLINE
  5
5C1
100
AcDbEntity
  8
RACCORDO
100
AcDbPolyline
 62
253
  6
CONTINUOUS
 90
31
 70
0
 10
7.579371834
 20
23.8443375673
 10
7.5797511657
 20
23.8330274168
 10
7.5808121477
 20
23.8217481519
 10
7.5825518825
 20
23.810530574
 10
7.5849656195
 20
23.7994053159
 10
7.5880467671
 20
23.7884027584
 10
7.5917869113
 20
23.7775529472
 10
7.5961758387
 20
23.7668855107
 10
7.601201564
 20
23.7564295797
 10
7.606850363
 20
23.7462137069
 10
7.6131068099
 20
23.7362657898
 10
7.6199538199
 20
23.7266129942
 10
7.627372695
 20
23.7172816797
 10
7.6353431759
 20
23.7082973282
 10
7.6438434969
 20
23.6996844742
 10
7.6528504455
 20
23.6914666374
 10
7.6623394254
 20
23.6836662592
 10
7.6722845243
 20
23.6763046407
 10
7.6826585842
 20
23.6694018849
 10
7.6934332757
 20
23.6629768418
 10
7.7045791754
 20
23.6570470569
 10
7.7160658462
 20
23.6516287232
 10
7.7278619204
 20
23.646736637
 10
7.7399351853
 20
23.6423841576
 10
7.7522526715
 20
23.6385831707
 10
7.7647807423
 20
23.6353440559
 10
7.7774851864
 20
23.6326756587
 10
7.7903313105
 20
23.6305852658
 10
7.8032840345
 20
23.6290785857
 10
7.8163079873
 20
23.6281597328
 10
7.8293676032
 20
23.6278312164
  0
LWPOLYLINE
  5
5C2
100
AcDbEntity
  8
RACCORDO
100
AcDbPolyline
 62
253
  6
CONTINUOUS
 90
31
 70
0
 10
9.970628166
 20
-23.8443375673
 10
9.9702496104
 20
-23.833039595
 10
9.9691904828
 20
-23.821769291
 10
9.9674531063
 20
-23.8105574212
 10
9.9650414049
 20
-23.7994336121
 10
9.9619615346
 20
-23.78842936
 10
9.9582224836
 20
-23.7775778202
 10
9.9538349392
 20
-23.7669096972
 10
9.9488105402
 20
-23.7564530239
 10
9.9431628596
 20
-23.746236105
 10
9.9369071671
 20
-23.7362866999
 10
9.9300605925
 20
-23.7266321754
 10
9.9226419842
 20
-23.7172991519
 10
9.9146716801
 20
-23.7083132018
 10
9.9061713853
 20
-23.6996987826
 10
9.8971642949
 20
-23.6914794042
 10
9.8876749912
 20
-23.6836775075
 10
9.8777294041
 20
-23.6763144193
 10
9.8673547212
 20
-23.6694102704
 10
9.8565792888
 20
-23.6629839239
 10
9.8454325308
 20
-23.6570529269
 10
9.8339448938
 20
-23.6516334796
 10
9.822147737
 20
-23.6467403776
 10
9.8100733006
 20
-23.6423869945
 10
9.797754621
 20
-23.6385852371
 10
9.7852253856
 20
-23.6353454907
 10
9.7725197828
 20
-23.6326765842
 10
9.759672462
 20
-23.6305857918
 10
9.7467184947
 20
-23.6290788219
 10
9.733693281
 20
-23.6281597935
 10
9.7206323968
 20
-23.6278312164
  0
LINE
  5
5C3
100
AcDbEntity
  8
IMPORT_IGES
100
AcDbLine
 62
7
  6
CONTINUOUS
 10
7.7477212944
 20
-0.055
 11
7.6350156476
 21
6.4019021835
  0
LINE
  5
5C4
100
AcDbEntity
  8
IMPORT_IGES
100
AcDbLine
 62
7
  6
CONTINUOUS
 10
7.6369346561
 20
6.4019622604
 11
7.5815057833
 21
9.5774802551
  0
LINE
  5
5C5
100
AcDbEntity
  8
RACCORDO
100
AcDbLine
 62
253
  6
CONTINUOUS
 10
7.8293676032
 20
-23.6278312164
 11
7.8242770021
 21
-23.1226497308
  0
LINE
  5
5C6
100
AcDbEntity
  8
DRAFT
100
AcDbLine
 62
7
  6
CONTINUOUS
 10
7.575
 20
21.4
 11
7.575
 21
20.9
  0
LINE
  5
5C7
100
AcDbEntity
  8
DRAFT
100
AcDbLine
 62
7
  6
CONTINUOUS
 10
7.575
 20
-20.9
 11
7.575
 21
-21.4
  0
LINE
  5
5C8
100
AcDbEntity
  8
RACCORDO
100
AcDbLine
 62
7
  6
CONTINUOUS
 10
7.575
 20
-22.4
 11
7.575
 21
-24.2500042308
  0
LINE
  5
5C9
100
AcDbEntity
  8
RACCORDO
100
AcDbLine
 62
7
  6
CONTINUOUS
 10
7.575
 20
22.4
 11
7.575
 21
24.2500042308
  0
LINE
  5
5CA
100
AcDbEntity
  8
RACCORDO
100
AcDbLine
 62
253
  6
CONTINUOUS
 10
7.579371834
 20
24.2456323968
 11
7.579371834
 21
23.8443375673
  0
LINE
  5
5CB
100
AcDbEntity
  8
RACCORDO
100
AcDbLine
 62
253
  6
CONTINUOUS
 10
7.579371834
 20
-23.8443375673
 11
7.579371834
 21
-24.2456323968
  0
LINE
  5
5CC
100
AcDbEntity
  8
DRAFT
100
AcDbLine
 62
7
  6
CONTINUOUS
 10
7.6575462644
 20
-8.35
 11
7.6575462644
 21
-9.5825462644
  0
LINE
  5
5CD
100
AcDbEntity
  8
DRAFT
100
AcDbLine
 62
7
  6
CONTINUOUS
 10
7.675
 20
-9.6
 11
7.675
 21
-8.35
  0
LINE
  5
5CE
100
AcDbEntity
  8
RACCORDO
100
AcDbLine
 62
7
  6
CONTINUOUS
 10
7.7351132618
 20
6.2872801014
 11
7.7351132618
 21
7.9898867382
  0
LINE
  5
5CF
100
AcDbEntity
  8
DRAFT
100
AcDbLine
 62
7
  6
CONTINUOUS
 10
7.825
 20
5.9
 11
7.825
 21
7.9
  0
LINE
  5
5D0
100
AcDbEntity
  8
RACCORDO
100
AcDbLine
 62
253
  6
CONTINUOUS
 10
7.8293676032
 20
-23.6278312164
 11
7.8293676032
 21
-24.495628166
  0
LINE
  5
5D1
100
AcDbEntity
  8
RACCORDO
100
AcDbLine
 62
253
  6
CONTINUOUS
 10
7.8293676032
 20
23.6278312164
 11
7.8293676032
 21
24.495628166
  0
LINE
  5
5D2
100
AcDbEntity
  8
RACCORDO
100
AcDbLine
 62
253
  6
CONTINUOUS
 10
8.2553794106
 20
-12.4101132618
 11
8.2553794106
 21
-11.5898867382
  0
LINE
  5
5D3
100
AcDbEntity
  8
RACCORDO
100
AcDbLine
 62
253
  6
CONTINUOUS
 10
8.2553794106
 20
-8.35
 11
8.2553794106
 21
-7.2898867382
  0
LINE
  5
5D4
100
AcDbEntity
  8
RACCORDO
100
AcDbLine
 62
253
  6
CONTINUOUS
 10
8.2553794106
 20
-0.4101132618
 11
8.2553794106
 21
0.4101132618
  0
LINE
  5
5D5
100
AcDbEntity
  8
RACCORDO
100
AcDbLine
 62
253
  6
CONTINUOUS
 10
8.2553794106
 20
7.9898867382
 11
8.2553794106
 21
8.8101132618
  0
LINE
  5
5D6
100
AcDbEntity
  8
RACCORDO
100
AcDbLine
 62
253
  6
CONTINUOUS
 10
8.5372871968
 20
-12.4118358927
 11
8.5372871968
 21
-11.5881641073
  0
LINE
  5
5D7
100
AcDbEntity
  8
RACCORDO
100
AcDbLine
 62
253
  6
CONTINUOUS
 10
8.5372871968
 20
-8.35
 11
8.5372871968
 21
-7.2881641073
  0
LINE
  5
5D8
100
AcDbEntity
  8
RACCORDO
100
AcDbLine
 62
253
  6
CONTINUOUS
 10
8.5372871968
 20
-0.4118358927
 11
8.5372871968
 21
0.4118358927
  0
LINE
  5
5D9
100
AcDbEntity
  8
RACCORDO
100
AcDbLine
 62
253
  6
CONTINUOUS
 10
8.5372871968
 20
7.9881641073
 11
8.5372871968
 21
8.8118358927
  0
LINE
  5
5DA
100
AcDbEntity
  8
DRAFT
100
AcDbLine
 62
7
  6
CONTINUOUS
 10
8.8196499221
 20
7.9
 11
8.8196499221
 21
0.5
  0
LINE
  5
5DB
100
AcDbEntity
  8
DRAFT
100
AcDbLine
 62
7
  6
CONTINUOUS
 10
8.8196499221
 20
-0.5
 11
8.8196499221
 21
-7.2
  0
LINE
  5
5DC
100
AcDbEntity
  8
DRAFT
100
AcDbLine
 62
7
  6
CONTINUOUS
 10
8.8196499221
 20
-8.35
 11
8.8196499221
 21
-11.5
  0
LINE
  5
5DD
100
AcDbEntity
  8
DRAFT
100
AcDbLine
 62
7
  6
CONTINUOUS
 10
8.8196499221
 20
-14.7
 11
8.8196499221
 21
-12.5
  0
LINE
  5
5DE
100
AcDbEntity
  8
RACCORDO
100
AcDbLine
 62
7
  6
CONTINUOUS
 10
8.8196499221
 20
8.9
 11
8.8196499221
 21
19.9333419123
  0
LINE
  5
5DF
100
AcDbEntity
  8
RACCORDO
100
AcDbLine
 62
7
  6
CONTINUOUS
 10
8.854560052
 20
-19.3
 11
8.854560052
 21
-15.2792978419
  0
LINE
  5
5E0
100
AcDbEntity
  8
RACCORDO
100
AcDbLine
 62
7
  6
CONTINUOUS
 10
8.9121617663
 20
-20.2111031425
 11
8.9121617663
 21
-19.8
  0
LINE
  5
5E1
100
AcDbEntity
  8
RACCORDO
100
AcDbLine
 62
7
  6
CONTINUOUS
 10
8.975
 20
20.3997711479
 11
8.975
 21
8.8223308767
  0
LINE
  5
5E2
100
AcDbEntity
  8
RACCORDO
100
AcDbLine
 62
7
  6
CONTINUOUS
 10
8.975
 20
-12.4223308767
 11
8.975
 21
-20.3997711479
  0
LINE
  5
5E3
100
AcDbEntity
  8
DRAFT
100
AcDbLine
 62
7
  6
CONTINUOUS
 10
8.975
 20
-12.4223308767
 11
8.975
 21
8.8223308767
  0
LINE
  5
5E4
100
AcDbEntity
  8
RACCORDO
100
AcDbLine
 62
253
  6
CONTINUOUS
 10
7.8242770021
 20
23.1226497308
 11
7.8293676032
 21
23.6278312164
  0
LINE
  5
5E5
100
AcDbEntity
  8
IMPORT_IGES
100
AcDbLine
 62
7
  6
CONTINUOUS
 10
7.5801485566
 20
-9.6552357219
 11
7.7477212944
 21
-0.055
  0
LWPOLYLINE
  5
5E6
100
AcDbEntity
  8
RACCORDO
100
AcDbPolyline
 62
253
  6
CONTINUOUS
 90
31
 70
0
 10
7.579371834
 20
-23.8443375673
 10
7.5797503896
 20
-23.833039595
 10
7.5808095172
 20
-23.821769291
 10
7.5825468937
 20
-23.8105574212
 10
7.5849585951
 20
-23.7994336121
 10
7.5880384654
 20
-23.78842936
 10
7.5917775164
 20
-23.7775778202
 10
7.5961650608
 20
-23.7669096972
 10
7.6011894598
 20
-23.7564530239
 10
7.6068371404
 20
-23.746236105
 10
7.6130928329
 20
-23.7362866999
 10
7.6199394075
 20
-23.7266321754
 10
7.6273580158
 20
-23.7172991519
 10
7.6353283199
 20
-23.7083132018
 10
7.6438286147
 20
-23.6996987826
 10
7.6528357051
 20
-23.6914794042
 10
7.6623250088
 20
-23.6836775075
 10
7.6722705959
 20
-23.6763144193
 10
7.6826452788
 20
-23.6694102704
 10
7.6934207112
 20
-23.6629839239
 10
7.7045674692
 20
-23.6570529269
 10
7.7160551062
 20
-23.6516334796
 10
7.727852263
 20
-23.6467403776
 10
7.7399266994
 20
-23.6423869945
 10
7.752245379
 20
-23.6385852371
 10
7.7647746144
 20
-23.6353454907
 10
7.7774802172
 20
-23.6326765842
 10
7.790327538
 20
-23.6305857918
 10
7.8032815053
 20
-23.6290788219
 10
7.816306719
 20
-23.6281597935
 10
7.8293676032
 20
-23.6278312164
  0
LWPOLYLINE
  5
5E7
100
AcDbEntity
  8
RACCORDO
100
AcDbPolyline
 62
253
  6
CONTINUOUS
 90
31
 70
0
 10
9.970628166
 20
23.8443375673
 10
9.9702496104
 20
23.833039595
 10
9.9691904828
 20
23.821769291
 10
9.9674531063
 20
23.8105574212
 10
9.9650414049
 20
23.7994336121
 10
9.9619615346
 20
23.78842936
 10
9.9582224836
 20
23.7775778202
 10
9.9538349392
 20
23.7669096972
 10
9.9488105402
 20
23.7564530239
 10
9.9431628596
 20
23.746236105
 10
9.9369071671
 20
23.7362866999
 10
9.9300605925
 20
23.7266321754
 10
9.9226419842
 20
23.7172991519
 10
9.9146716801
 20
23.7083132018
 10
9.9061713853
 20
23.6996987826
 10
9.8971642949
 20
23.6914794042
 10
9.8876749912
 20
23.6836775075
 10
9.8777294041
 20
23.6763144193
 10
9.8673547212
 20
23.6694102704
 10
9.8565792888
 20
23.6629839239
 10
9.8454325308
 20
23.6570529269
 10
9.8339448938
 20
23.6516334796
 10
9.822147737
 20
23.6467403776
 10
9.8100733006
 20
23.6423869945
 10
9.797754621
 20
23.6385852371
 10
9.7852253856
 20
23.6353454907
 10
9.7725197828
 20
23.6326765842
 10
9.759672462
 20
23.6305857918
 10
9.7467184947
 20
23.6290788219
 10
9.733693281
 20
23.6281597935
 10
9.7206323968
 20
23.6278312164
  0
LWPOLYLINE
  5
5E8
100
AcDbEntity
  8
IMPORT_IGES
100
AcDbPolyline
 62
253
  6
CONTINUOUS
 90
13
 70
0
 10
7.6099633178
 20
-7.9471491959
 10
7.6069739583
 20
-7.9776936873
 10
7.5991533865
 20
-8.0075637696
 10
7.5866720688
 20
-8.0362803816
 10
7.5698655339
 20
-8.0632639468
 10
7.5489913865
 20
-8.0882419742
 10
7.5240294433
 20
-8.1111512626
 10
7.495079385
 20
-8.131644537
 10
7.462651717
 20
-8.1491330585
 10
7.4273264895
 20
-8.1631639067
 10
7.3897063846
 20
-8.173397706
 10
7.3503775865
 20
-8.1795798105
 10
7.3100199943
 20
-8.1815038383
  0
LINE
  5
5E9
100
AcDbEntity
  8
0
100
AcDbLine
 62
7
  6
CONTINUOUS
 10
6.6459441873
 20
-20.7113319946
 11
6.6238376746
 21
-20.9104703804
  0
LINE
  5
5EA
100
AcDbEntity
  8
DRAFT
100
AcDbLine
 62
7
  6
CONTINUOUS
 10
-5.075
 20
-22.4
 11
-5.0309327327
 21
-22.3338981669
  0
LWPOLYLINE
  5
5EB
100
AcDbEntity
  8
IMPORT_IGES
100
AcDbPolyline
 62
253
  6
CONTINUOUS
 90
6
 70
0
 10
3.3608633713
 20
-8.2258481306
 10
3.3495656439
 20
-8.2387060172
 10
3.3404310845
 20
-8.2527446387
 10
3.3336750888
 20
-8.2677161561
 10
3.329453274
 20
-8.2833895183
 10
3.3278944147
 20
-8.2994926932
  0
LWPOLYLINE
  5
5EC
100
AcDbEntity
  8
IMPORT_IGES
100
AcDbPolyline
 62
7
  6
CONTINUOUS
 90
6
 70
0
 10
3.4551709357
 20
-8.3802468276
 10
3.4600865715
 20
-8.3751999237
 10
3.4642830966
 20
-8.3697330298
 10
3.4680533083
 20
-8.3638189632
 10
3.4714399968
 20
-8.3574864738
 10
3.4741793417
 20
-8.3508013436
  0
LINE
  5
5ED
100
AcDbEntity
  8
RACCORDO
100
AcDbLine
 62
253
  6
CONTINUOUS
 10
-11.320628166
 20
-24.2456323968
 11
-11.325
 21
-24.2500042308
  0
LWPOLYLINE
  5
5EE
100
AcDbEntity
  8
IMPORT_IGES
100
AcDbPolyline
 62
7
  6
CONTINUOUS
 90
6
 70
0
 10
3.3740813743
 20
-8.4301345729
 10
3.3823990664
 20
-8.4231045648
 10
3.3913535977
 20
-8.4165966108
 10
3.4008972401
 20
-8.410690801
 10
3.4110907862
 20
-8.405404148
 10
3.4140211489
 20
-8.4040623165
  0
LWPOLYLINE
  5
5EF
100
AcDbEntity
  8
IMPORT_IGES
100
AcDbPolyline
 62
7
  6
CONTINUOUS
 90
5
 70
0
 10
3.3733306391
 20
-8.4236278783
 10
3.381501434
 20
-8.4190233504
 10
3.3897748449
 20
-8.4148227854
 10
3.3980834379
 20
-8.4109264659
 10
3.4064238525
 20
-8.4072087984
  0
LWPOLYLINE
  5
5F0
100
AcDbEntity
  8
IMPORT_IGES
100
AcDbPolyline
 62
7
  6
CONTINUOUS
 90
7
 70
0
 10
3.4139741044
 20
-8.4039198069
 10
3.4223338614
 20
-8.4002149053
 10
3.4298588494
 20
-8.3966888266
 10
3.4369858765
 20
-8.3930093955
 10
3.4435710294
 20
-8.3890997327
 10
3.4496066094
 20
-8.3848752866
 10
3.4551709357
 20
-8.3802468276
  0
LINE
  5
5F1
100
AcDbEntity
  8
IMPORT_IGES
100
AcDbLine
 62
7
  6
CONTINUOUS
 10
3.4064238525
 20
-8.4072087984
 11
3.4139741044
 21
-8.4039198069
  0
LWPOLYLINE
  5
5F2
100
AcDbEntity
  8
IMPORT_IGES
100
AcDbPolyline
 62
7
  6
CONTINUOUS
 90
3
 70
0
 10
3.4095593115
 20
-8.4058408926
 10
3.4231739246
 20
-8.4003505412
 10
3.4444300774
 20
-8.3933606307
  0
LWPOLYLINE
  5
5F3
100
AcDbEntity
  8
IMPORT_IGES
100
AcDbPolyline
 62
253
  6
CONTINUOUS
 90
5
 70
0
 10
-8.1853986751
 20
-10.2315408155
 10
-8.1962902942
 20
-10.2347314447
 10
-8.2066137986
 20
-10.2355499646
 10
-8.2162171686
 20
-10.2340693152
 10
-8.2250000001
 20
-10.2303491697
  0
LWPOLYLINE
  5
5F4
100
AcDbEntity
  8
IMPORT_IGES
100
AcDbPolyline
 62
253
  6
CONTINUOUS
 90
13
 70
0
 10
-8.6610136848
 20
8.096446603
 10
-8.6998629986
 20
8.0949992437
 10
-8.7380579034
 20
8.0900033089
 10
-8.7749550862
 20
8.081542967
 10
-8.8099330747
 20
8.0697607453
 10
-8.8424027773
 20
8.0548551056
 10
-8.871817386
 20
8.0370770805
 10
-8.8976814919
 20
8.0167260876
 10
-8.9195594484
 20
7.9941449068
 10
-8.9370827682
 20
7.9697138697
 10
-8.9499563087
 20
7.9438444647
 10
-8.9579632426
 20
7.9169724064
 10
-8.9609687103
 20
7.889550297
  0
LINE
  5
5F5
100
AcDbEntity
  8
RACCORDO
100
AcDbLine
 62
7
  6
CONTINUOUS
 10
-9.8872871968
 20
7.9881641073
 11
-10.325
 21
7.9776691233
  0
LINE
  5
5F6
100
AcDbEntity
  8
RACCORDO
100
AcDbLine
 62
7
  6
CONTINUOUS
 10
8.975
 20
8.8223308767
 11
8.5372871968
 21
8.8118358927
  0
LINE
  5
5F7
100
AcDbEntity
  8
IMPORT_IGES
100
AcDbLine
 62
253
  6
CONTINUOUS
 10
7.6134372293
 20
7.7481289397
 11
7.3134829207
 21
7.7428932184
  0
LWPOLYLINE
  5
5F8
100
AcDbEntity
  8
IMPORT_IGES
100
AcDbPolyline
 62
253
  6
CONTINUOUS
 90
13
 70
0
 10
-4.4960217456
 20
8.0964465866
 10
-4.5207184103
 20
8.096184745
 10
-4.5453774095
 20
8.0937074191
 10
-4.5693815398
 20
8.0890112794
 10
-4.5918450576
 20
8.0823099053
 10
-4.6125677844
 20
8.073771392
 10
-4.6318889154
 20
8.0632326831
 10
-4.6493600857
 20
8.0507856678
 10
-4.6643982608
 20
8.0367491435
 10
-4.6768868771
 20
8.0211156318
 10
-4.6864485644
 20
8.0041331511
 10
-4.6927068759
 20
7.9863710385
 10
-4.6955798567
 20
7.9683231794
  0
LWPOLYLINE
  5
5F9
100
AcDbEntity
  8
IMPORT_IGES
100
AcDbPolyline
 62
253
  6
CONTINUOUS
 90
13
 70
0
 10
-4.875
 20
8.5748812075
 10
-4.8492155415
 20
8.5749796495
 10
-4.8239402748
 20
8.5752721036
 10
-4.7995873815
 20
8.575751906
 10
-4.7766592051
 20
8.5764057063
 10
-4.7553909146
 20
8.5772231783
 10
-4.7358336631
 20
8.5782052895
 10
-4.7182813678
 20
8.5793453122
 10
-4.7032544019
 20
8.5806258538
 10
-4.6911592
 20
8.5820322167
 10
-4.6822856909
 20
8.5835426728
 10
-4.6768422079
 20
8.5851305111
 10
-4.675
 20
8.5867682816
  0
LINE
  5
5FA
100
AcDbEntity
  8
IMPORT_IGES
100
AcDbLine
 62
7
  6
CONTINUOUS
 10
3.4298535023
 20
7.65
 11
3.3723707822
 21
7.65
  0
LINE
  5
5FB
100
AcDbEntity
  8
IMPORT_IGES
100
AcDbLine
 62
7
  6
CONTINUOUS
 10
-4.7264314332
 20
7.65
 11
-4.7798535023
 21
7.65
  0
LINE
  5
5FC
100
AcDbEntity
  8
IMPORT_IGES
100
AcDbLine
 62
253
  6
CONTINUOUS
 10
7.3134829207
 20
7.7428932182
 11
7.018214385
 21
7.7428932181
  0
LINE
  5
5FD
100
AcDbEntity
  8
IMPORT_IGES
100
AcDbLine
 62
253
  6
CONTINUOUS
 10
3.1625463848
 20
7.7428932181
 11
-4.5125463848
 21
7.7428932188
  0
LINE
  5
5FE
100
AcDbEntity
  8
IMPORT_IGES
100
AcDbLine
 62
253
  6
CONTINUOUS
 10
-8.3682177674
 20
7.7428932181
 11
-8.6634829208
 21
7.7428932181
  0
LINE
  5
5FF
100
AcDbEntity
  8
DRAFT
100
AcDbLine
 62
7
  6
CONTINUOUS
 10
8.8196499221
 20
7.9
 11
7.825
 21
7.9
  0
LINE
  5
600
100
AcDbEntity
  8
DRAFT
100
AcDbLine
 62
7
  6
CONTINUOUS
 10
-9.175
 20
7.9
 11
-10.1696499221
 21
7.9
  0
LINE
  5
601
100
AcDbEntity
  8
RACCORDO
100
AcDbLine
 62
7
  6
CONTINUOUS
 10
8.2553794106
 20
7.9898867382
 11
7.7351132618
 21
7.9898867382
  0
LINE
  5
602
100
AcDbEntity
  8
RACCORDO
100
AcDbLine
 62
7
  6
CONTINUOUS
 10
-9.0851132618
 20
7.9898867382
 11
-9.6053794106
 21
7.9898867382
  0
LINE
  5
603
100
AcDbEntity
  8
IMPORT_IGES
100
AcDbLine
 62
253
  6
CONTINUOUS
 10
6.528
 20
8.0964466093
 11
7.3110144018
 21
8.0964466092
  0
LINE
  5
604
100
AcDbEntity
  8
IMPORT_IGES
100
AcDbLine
 62
253
  6
CONTINUOUS
 10
-7.8780016412
 20
8.0964466091
 11
-8.6610144018
 21
8.0964466092
  0
LINE
  5
605
100
AcDbEntity
  8
IMPORT_IGES
100
AcDbLine
 62
253
  6
CONTINUOUS
 10
3.1460226047
 20
8.0964466152
 11
-4.4960224345
 21
8.0964466623
  0
LINE
  5
606
100
AcDbEntity
  8
RACCORDO
100
AcDbLine
 62
7
  6
CONTINUOUS
 10
-9.6053794106
 20
8.8101132618
 11
-8.944900224
 21
8.8101132618
  0
LINE
  5
607
100
AcDbEntity
  8
RACCORDO
100
AcDbLine
 62
7
  6
CONTINUOUS
 10
8.2553794106
 20
8.8101132618
 11
7.594900224
 21
8.8101132618
  0
LINE
  5
608
100
AcDbEntity
  8
DRAFT
100
AcDbLine
 62
7
  6
CONTINUOUS
 10
7.5933312452
 20
8.9
 11
8.8196499221
 21
8.9
  0
LINE
  5
609
100
AcDbEntity
  8
DRAFT
100
AcDbLine
 62
7
  6
CONTINUOUS
 10
-8.9433312452
 20
8.9
 11
-10.1696499221
 21
8.9
  0
LWPOLYLINE
  5
60A
100
AcDbEntity
  8
IMPORT_IGES
100
AcDbPolyline
 62
253
  6
CONTINUOUS
 90
13
 70
0
 10
3.525
 20
8.5748812075
 10
3.4988947616
 20
8.5749821256
 10
3.473236191
 20
8.5752831512
 10
3.4484633135
 20
8.5757791336
 10
3.425
 20
8.5764615866
 10
3.4032477142
 20
8.5773188331
 10
3.3835786438
 20
8.5783362057
 10
3.3663293319
 20
8.5794962968
 10
3.3517949192
 20
8.580779257
 10
3.3402240935
 20
8.5821631344
 10
3.3318148347
 20
8.5836242506
 10
3.3267110277
 20
8.5851376053
 10
3.325
 20
8.5866773047
  0
LWPOLYLINE
  5
60B
100
AcDbEntity
  8
IMPORT_IGES
100
AcDbPolyline
 62
253
  6
CONTINUOUS
 90
13
 70
0
 10
3.1460222866
 20
8.0964390047
 10
3.1707183831
 20
8.0961772403
 10
3.1953768541
 20
8.0937001276
 10
3.2193805374
 20
8.089004325
 10
3.241843771
 20
8.0823033656
 10
3.2625663399
 20
8.0737653239
 10
3.2818873223
 20
8.0632272043
 10
3.2993583754
 20
8.0507809182
 10
3.3143965424
 20
8.0367452301
 10
3.3268852893
 20
8.0211126761
 10
3.3364473002
 20
8.0041312477
 10
3.3427061664
 20
7.9863702098
 10
3.3455799357
 20
7.9683233834
  0
LINE
  5
60C
100
AcDbEntity
  8
IMPORT_IGES
100
AcDbLine
 62
253
  6
CONTINUOUS
 10
-8.6634829213
 20
7.7428931884
 11
-8.9634372293
 21
7.7481289407
  0
LINE
  5
60D
100
AcDbEntity
  8
RACCORDO
100
AcDbLine
 62
7
  6
CONTINUOUS
 10
8.975
 20
7.9776691233
 11
8.5372871968
 21
7.9881641073
  0
LINE
  5
60E
100
AcDbEntity
  8
RACCORDO
100
AcDbLine
 62
7
  6
CONTINUOUS
 10
-9.8872871968
 20
8.8118358927
 11
-10.325
 21
8.8223308767
  0
LWPOLYLINE
  5
60F
100
AcDbEntity
  8
IMPORT_IGES
100
AcDbPolyline
 62
253
  6
CONTINUOUS
 90
13
 70
0
 10
3.125
 20
8.7280986591
 10
3.1507844852
 20
8.7269184529
 10
3.1760597702
 20
8.7234122652
 10
3.2004126732
 20
8.7176599901
 10
3.2233408497
 20
8.7098216842
 10
3.2446091331
 20
8.7000211498
 10
3.2641663751
 20
8.6882467866
 10
3.2817186593
 20
8.6745387379
 10
3.2967456139
 20
8.6591460785
 10
3.3088408078
 20
8.6423664284
 10
3.3177143122
 20
8.6245005068
 10
3.3231577928
 20
8.6058278071
 10
3.325
 20
8.5866771729
  0
LWPOLYLINE
  5
610
100
AcDbEntity
  8
IMPORT_IGES
100
AcDbPolyline
 62
253
  6
CONTINUOUS
 90
13
 70
0
 10
-7.5537973437
 20
10.9499999605
 10
-7.5489364091
 20
10.9483482818
 10
-7.5440728908
 20
10.9433050758
 10
-7.5393364117
 20
10.934870884
 10
-7.534892486
 20
10.9233474054
 10
-7.5308101063
 20
10.9090230944
 10
-7.52708265
 20
10.8918768852
 10
-7.5238118088
 20
10.8723311633
 10
-7.5210723086
 20
10.8508931723
 10
-7.5188615323
 20
10.8274819445
 10
-7.5172380208
 20
10.8024811356
 10
-7.5162584921
 20
10.7768212403
 10
-7.5159186903
 20
10.7512228026
  0
LINE
  5
611
100
AcDbEntity
  8
RACCORDO
100
AcDbLine
 62
253
  6
CONTINUOUS
 10
-11.320628166
 20
24.2456323968
 11
-11.325
 21
24.2500042308
  0
LINE
  5
612
100
AcDbEntity
  8
DRAFT
100
AcDbLine
 62
7
  6
CONTINUOUS
 10
-5.075
 20
22.4
 11
-5.0309327327
 21
22.3338981669
  0
LINE
  5
613
100
AcDbEntity
  8
DRAFT
100
AcDbLine
 62
7
  6
CONTINUOUS
 10
6.6238376746
 20
20.9104703804
 11
6.6767786853
 21
20.4335707644
  0
LINE
  5
614
100
AcDbEntity
  8
RACCORDO
100
AcDbLine
 62
253
  6
CONTINUOUS
 10
9.7206323968
 20
23.6278312164
 11
9.7257229979
 21
23.1226497308
  0
LINE
  5
615
100
AcDbEntity
  8
RACCORDO
100
AcDbLine
 62
253
  6
CONTINUOUS
 10
9.970628166
 20
23.8443375673
 11
9.975
 21
23.4104851482
  0
LINE
  5
616
100
AcDbEntity
  8
RACCORDO
100
AcDbLine
 62
253
  6
CONTINUOUS
 10
9.7206323968
 20
-23.6278312164
 11
9.7206323968
 21
-24.495628166
  0
LINE
  5
617
100
AcDbEntity
  8
RACCORDO
100
AcDbLine
 62
253
  6
CONTINUOUS
 10
9.7206323968
 20
23.6278312164
 11
9.7206323968
 21
24.495628166
  0
LINE
  5
618
100
AcDbEntity
  8
RACCORDO
100
AcDbLine
 62
253
  6
CONTINUOUS
 10
9.970628166
 20
-24.2456323968
 11
9.970628166
 21
-23.8443375673
  0
LINE
  5
619
100
AcDbEntity
  8
RACCORDO
100
AcDbLine
 62
253
  6
CONTINUOUS
 10
9.970628166
 20
23.8443375673
 11
9.970628166
 21
24.2456323968
  0
LINE
  5
61A
100
AcDbEntity
  8
RACCORDO
100
AcDbLine
 62
7
  6
CONTINUOUS
 10
9.975
 20
-22.399689968
 11
9.975
 21
-24.2500042308
  0
LINE
  5
61B
100
AcDbEntity
  8
RACCORDO
100
AcDbLine
 62
7
  6
CONTINUOUS
 10
9.975
 20
22.399689968
 11
9.975
 21
24.2500042308
  0
LINE
  5
61C
100
AcDbEntity
  8
RACCORDO
100
AcDbLine
 62
7
  6
CONTINUOUS
 10
10.475
 20
-21.8911779406
 11
10.475
 21
21.8911779406
  0
LINE
  5
61D
100
AcDbEntity
  8
RACCORDO
100
AcDbLine
 62
253
  6
CONTINUOUS
 10
9.7257229979
 20
-23.1226497308
 11
9.7206323968
 21
-23.6278312164
  0
LINE
  5
61E
100
AcDbEntity
  8
RACCORDO
100
AcDbLine
 62
253
  6
CONTINUOUS
 10
9.975
 20
-23.4104851482
 11
9.970628166
 21
-23.8443375673
  0
LWPOLYLINE
  5
61F
100
AcDbEntity
  8
RACCORDO
100
AcDbPolyline
 62
7
  6
CONTINUOUS
 90
34
 70
0
 10
9.975
 20
-24.2500042308
 10
9.9747168498
 20
-24.261899516
 10
9.9738680342
 20
-24.2737678556
 10
9.9724554741
 20
-24.2855823661
 10
9.9704823677
 20
-24.2973162875
 10
9.9679531817
 20
-24.3089430388
 10
9.9648736417
 20
-24.320436279
 10
9.9612507213
 20
-24.3317699738
 10
9.9570926258
 20
-24.3429184493
 10
9.9524087722
 20
-24.3538564463
 10
9.9472097688
 20
-24.3645591876
 10
9.9415073916
 20
-24.3750024283
 10
9.9353145581
 20
-24.3851625059
 10
9.9286452955
 20
-24.3950164051
 10
9.9215147107
 20
-24.4045418038
 10
9.9139389589
 20
-24.4137171191
 10
9.9059352005
 20
-24.4225215661
 10
9.8975215661
 20
-24.4309352005
 10
9.8887171191
 20
-24.4389389589
 10
9.8795418038
 20
-24.4465147107
 10
9.8700164051
 20
-24.4536452955
 10
9.8601625059
 20
-24.4603145581
 10
9.8500024283
 20
-24.4665073916
 10
9.8395591876
 20
-24.4722097688
 10
9.8288564463
 20
-24.4774087722
 10
9.8179184493
 20
-24.4820926258
 10
9.8067699738
 20
-24.4862507213
 10
9.795436279
 20
-24.4898736417
 10
9.7839430388
 20
-24.4929531817
 10
9.7723162875
 20
-24.4954823677
 10
9.7605823661
 20
-24.4974554741
 10
9.7487678556
 20
-24.4988680342
 10
9.736899516
 20
-24.4997168498
 10
9.7250042308
 20
-24.5
  0
LWPOLYLINE
  5
620
100
AcDbEntity
  8
RACCORDO
100
AcDbPolyline
 62
253
  6
CONTINUOUS
 90
31
 70
0
 10
9.970628166
 20
-24.2456323968
 10
9.9702851274
 20
-24.2587158828
 10
9.9692578375
 20
-24.2717635094
 10
9.967549112
 20
-24.2847395155
 10
9.965163634
 20
-24.2976083364
 10
9.9621079418
 20
-24.3103347009
 10
9.9583904104
 20
-24.3228837286
 10
9.9540212289
 20
-24.3352210249
 10
9.9490123724
 20
-24.3473127755
 10
9.9433775693
 20
-24.3591258393
 10
9.9371322634
 20
-24.3706278389
 10
9.930293572
 20
-24.3817872494
 10
9.9228802386
 20
-24.392573485
 10
9.9149125818
 20
-24.4029569826
 10
9.9064124395
 20
-24.4129092831
 10
9.897403109
 20
-24.422403109
 10
9.8879092831
 20
-24.4314124395
 10
9.8779569826
 20
-24.4399125818
 10
9.867573485
 20
-24.4478802386
 10
9.8567872494
 20
-24.455293572
 10
9.8456278389
 20
-24.4621322634
 10
9.8341258393
 20
-24.4683775693
 10
9.8223127755
 20
-24.4740123724
 10
9.8102210249
 20
-24.4790212289
 10
9.7978837286
 20
-24.4833904104
 10
9.7853347009
 20
-24.4871079418
 10
9.7726083364
 20
-24.490163634
 10
9.7597395155
 20
-24.492549112
 10
9.7467635094
 20
-24.4942578375
 10
9.7337158828
 20
-24.4952851274
 10
9.7206323968
 20
-24.495628166
  0
LINE
  5
621
100
AcDbEntity
  8
IMPORT_IGES
100
AcDbLine
 62
7
  6
CONTINUOUS
 10
6.775
 20
-7.8451539743
 11
6.7050828182
 21
-7.9542999891
  0
LINE
  5
622
100
AcDbEntity
  8
RACCORDO
100
AcDbLine
 62
253
  6
CONTINUOUS
 10
-11.0706323968
 20
-24.495628166
 11
-11.0750042308
 21
-24.5
  0
LWPOLYLINE
  5
623
100
AcDbEntity
  8
IMPORT_IGES
100
AcDbPolyline
 62
253
  6
CONTINUOUS
 90
4
 70
0
 10
3.3250000012
 20
10.750000765
 10
3.3267138088
 20
10.7501726076
 10
3.3318201191
 20
10.7503310733
 10
3.340231479
 20
10.75047887
  0
LWPOLYLINE
  5
624
100
AcDbEntity
  8
IMPORT_IGES
100
AcDbPolyline
 62
253
  6
CONTINUOUS
 90
13
 70
0
 10
6.528
 20
10.396506661
 10
6.5025608255
 20
10.3953579827
 10
6.4774907659
 20
10.3919224657
 10
6.4532018426
 20
10.3862440552
 10
6.4301709402
 20
10.3784333389
 10
6.4086991056
 20
10.3685914645
 10
6.388964123
 20
10.3567441088
 10
6.3712769558
 20
10.3429428232
 10
6.3561542911
 20
10.3274353282
 10
6.3440422015
 20
10.3105809278
 10
6.3352097334
 20
10.2927145083
 10
6.3298171702
 20
10.2741059125
 10
6.328
 20
10.2550853298
  0
LWPOLYLINE
  5
625
100
AcDbEntity
  8
IMPORT_IGES
100
AcDbPolyline
 62
253
  6
CONTINUOUS
 90
13
 70
0
 10
-8.6340638468
 20
9.6404428721
 10
-8.6725767299
 20
9.6390234463
 10
-8.7102954098
 20
9.6341442085
 10
-8.7466126671
 20
9.6259283488
 10
-8.780780924
 20
9.6146194488
 10
-8.8124761594
 20
9.6004026806
 10
-8.8416669501
 20
9.5832474631
 10
-8.8679346562
 20
9.5631979404
 10
-8.8905021218
 20
9.5406156959
 10
-8.9087690156
 20
9.5159303233
 10
-8.9223072452
 20
9.4895763192
 10
-8.9308089769
 20
9.4619563741
 10
-8.9340181559
 20
9.4335465263
  0
LINE
  5
626
100
AcDbEntity
  8
IMPORT_IGES
100
AcDbLine
 62
253
  6
CONTINUOUS
 10
3.340231479
 20
10.75047887
 11
3.3663392571
 21
10.7507617447
  0
LINE
  5
627
100
AcDbEntity
  8
IMPORT_IGES
100
AcDbLine
 62
253
  6
CONTINUOUS
 10
3.3663392571
 20
10.7507617447
 11
3.4484712879
 21
10.7511525828
  0
LINE
  5
628
100
AcDbEntity
  8
IMPORT_IGES
100
AcDbLine
 62
253
  6
CONTINUOUS
 10
-7.5159186905
 20
10.7512228026
 11
-4.8749999996
 21
10.7512452069
  0
LINE
  5
629
100
AcDbEntity
  8
IMPORT_IGES
100
AcDbLine
 62
253
  6
CONTINUOUS
 10
3.125
 20
10.8035533907
 11
-4.475
 21
10.8035533909
  0
LINE
  5
62A
100
AcDbEntity
  8
IMPORT_IGES
100
AcDbLine
 62
7
  6
CONTINUOUS
 10
6.203796659
 20
10.95
 11
-7.5537973436
 21
10.95
  0
LINE
  5
62B
100
AcDbEntity
  8
IMPORT_IGES
100
AcDbLine
 62
253
  6
CONTINUOUS
 10
5.825
 20
11.05
 11
-7.175
 21
11.05
  0
LINE
  5
62C
100
AcDbEntity
  8
IMPORT_IGES
100
AcDbLine
 62
253
  6
CONTINUOUS
 10
6.1659281986
 20
10.7512225932
 11
3.4484712879
 21
10.7511525828
  0
LINE
  5
62D
100
AcDbEntity
  8
IMPORT_IGES
100
AcDbLine
 62
253
  6
CONTINUOUS
 10
-4.8749999996
 20
10.751244565
 11
-4.7532503761
 21
10.7509878203
  0
LWPOLYLINE
  5
62E
100
AcDbEntity
  8
IMPORT_IGES
100
AcDbPolyline
 62
253
  6
CONTINUOUS
 90
6
 70
0
 10
-4.7532503761
 20
10.7509878203
 10
-4.7017966659
 20
10.750622144
 10
-4.6902252923
 20
10.7504779296
 10
-4.6818154557
 20
10.7503301768
 10
-4.6767112046
 20
10.7501717698
 10
-4.675
 20
10.75
  0
LWPOLYLINE
  5
62F
100
AcDbEntity
  8
IMPORT_IGES
100
AcDbPolyline
 62
253
  6
CONTINUOUS
 90
13
 70
0
 10
-7.8780016412
 20
10.3965277095
 10
-7.8518956655
 20
10.3953085706
 10
-7.8262365433
 20
10.3916926088
 10
-7.8014633135
 20
10.3857416263
 10
-7.7779998947
 20
10.3775582167
 10
-7.756247666
 20
10.3672816304
 10
-7.7365786438
 20
10.3550853298
 10
-7.7193293319
 20
10.3411771967
 10
-7.7047949192
 20
10.3257960079
 10
-7.6932240935
 20
10.3092049398
 10
-7.6848148347
 20
10.2916878702
 10
-7.6797110277
 20
10.273544521
 10
-7.678
 20
10.2550853298
  0
LWPOLYLINE
  5
630
100
AcDbEntity
  8
IMPORT_IGES
100
AcDbPolyline
 62
253
  6
CONTINUOUS
 90
8
 70
0
 10
3.2836706681
 20
10.7482239013
 10
3.2664213562
 20
10.7621320344
 10
3.2467522858
 20
10.7743291397
 10
3.225
 20
10.7846065215
 10
3.2015366865
 20
10.7927883308
 10
3.176763809
 20
10.7987345748
 10
3.1511052384
 20
10.8023435114
 10
3.125
 20
10.8035533907
  0
LINE
  5
631
100
AcDbEntity
  8
RACCORDO
100
AcDbLine
 62
253
  6
CONTINUOUS
 10
-11.0706323968
 20
24.495628166
 11
-11.0750042308
 21
24.5
  0
LINE
  5
632
100
AcDbEntity
  8
RACCORDO
100
AcDbLine
 62
7
  6
CONTINUOUS
 10
7.825
 20
5.9
 11
7.7377084755
 21
5.9872915245
  0
LINE
  5
633
100
AcDbEntity
  8
DRAFT
100
AcDbLine
 62
7
  6
CONTINUOUS
 10
7.7351132618
 20
7.9898867382
 11
7.825
 21
7.9
  0
LWPOLYLINE
  5
634
100
AcDbEntity
  8
IMPORT_IGES
100
AcDbPolyline
 62
253
  6
CONTINUOUS
 90
8
 70
0
 10
6.2963906808
 20
10.5314272108
 10
6.3035254693
 20
10.5173262597
 10
6.3100740733
 20
10.5040593513
 10
6.3158092253
 20
10.4921806508
 10
6.3207184783
 20
10.4824801696
 10
6.3245863679
 20
10.4752196791
 10
6.3271026565
 20
10.4701325895
 10
6.3279999987
 20
10.467215077
  0
LWPOLYLINE
  5
635
100
AcDbEntity
  8
IMPORT_IGES
100
AcDbPolyline
 62
253
  6
CONTINUOUS
 90
3
 70
0
 10
6.2014383616
 20
10.7216618726
 10
6.2799667537
 20
10.5646709268
 10
6.2963906808
 20
10.5314272108
  0
LWPOLYLINE
  5
636
100
AcDbEntity
  8
IMPORT_IGES
100
AcDbPolyline
 62
253
  6
CONTINUOUS
 90
11
 70
0
 10
7.573229725
 20
9.4872718948
 10
7.5607155188
 20
9.512738074
 10
7.5438806837
 20
9.5366088502
 10
7.522995146
 20
9.5586597544
 10
7.4980166023
 20
9.5788677695
 10
7.4690179695
 20
9.5969383214
 10
7.43652975
 20
9.6123309637
 10
7.4011741684
 20
9.6246314847
 10
7.3635761441
 20
9.6335479015
 10
7.3243126979
 20
9.6388728427
 10
7.2840632332
 20
9.6404371474
  0
LWPOLYLINE
  5
637
100
AcDbEntity
  8
IMPORT_IGES
100
AcDbPolyline
 62
253
  6
CONTINUOUS
 90
3
 70
0
 10
6.5708235581
 20
-10.063103835
 10
6.5739602943
 20
-10.0589133251
 10
6.5749999999
 20
-10.057144341
  0
LWPOLYLINE
  5
638
100
AcDbEntity
  8
IMPORT_IGES
100
AcDbPolyline
 62
253
  6
CONTINUOUS
 90
5
 70
0
 10
6.5107015087
 20
-10.1357011747
 10
6.5374518621
 20
-10.1042422498
 10
6.5487195434
 20
-10.0908052313
 10
6.5581896988
 20
-10.0790415899
 10
6.5708235581
 20
-10.063103835
  0
LWPOLYLINE
  5
639
100
AcDbEntity
  8
IMPORT_IGES
100
AcDbPolyline
 62
253
  6
CONTINUOUS
 90
4
 70
0
 10
6.375
 20
-10.2911905861
 10
6.3969398469
 20
-10.2655927769
 10
6.418409389
 20
-10.2410759594
 10
6.4590082922
 20
-10.1951263278
  0
LWPOLYLINE
  5
63A
100
AcDbEntity
  8
IMPORT_IGES
100
AcDbPolyline
 62
253
  6
CONTINUOUS
 90
3
 70
0
 10
6.4590082922
 20
-10.1951263278
 10
6.4950371421
 20
-10.1538439367
 10
6.5107015087
 20
-10.1357011747
  0
LINE
  5
63B
100
AcDbEntity
  8
ASSI
100
AcDbLine
 62
7
  6
CONTINUOUS
 10
-4.9360120715
 20
-23.6222095469
 11
-4.9094621874
 21
-23.5918579051
  0
LINE
  5
63C
100
AcDbEntity
  8
ASSI
100
AcDbLine
 62
7
  6
CONTINUOUS
 10
-4.9094621874
 20
-23.5918579051
 11
-4.8791007772
 21
-23.5576772686
  0
LINE
  5
63D
100
AcDbEntity
  8
ASSI
100
AcDbLine
 62
7
  6
CONTINUOUS
 10
-4.8791007772
 20
-23.5576772686
 11
-4.8449221498
 21
-23.5196770081
  0
LINE
  5
63E
100
AcDbEntity
  8
ASSI
100
AcDbLine
 62
7
  6
CONTINUOUS
 10
-4.8449221498
 20
-23.5196770081
 11
-4.7866279299
 21
-23.4555921064
  0
LINE
  5
63F
100
AcDbEntity
  8
ASSI
100
AcDbLine
 62
7
  6
CONTINUOUS
 10
-4.7866279299
 20
-23.4555921064
 11
-4.6029699877
 21
-23.2563578147
  0
LINE
  5
640
100
AcDbEntity
  8
DRAFT
100
AcDbLine
 62
7
  6
CONTINUOUS
 10
6.675
 20
-11.5
 11
6.6575462644
 21
-11.5174537356
  0
LWPOLYLINE
  5
641
100
AcDbEntity
  8
IMPORT_IGES
100
AcDbPolyline
 62
253
  6
CONTINUOUS
 90
7
 70
0
 10
7.4897604422
 20
-9.8227566963
 10
7.5159137278
 20
-9.7996800112
 10
7.5380997073
 20
-9.7740001626
 10
7.5558711639
 20
-9.7462178779
 10
7.5689228931
 20
-9.7168372377
 10
7.5770586906
 20
-9.6863365307
 10
7.5801485566
 20
-9.6552357218
  0
LINE
  5
642
100
AcDbEntity
  8
IMPORT_IGES
100
AcDbLine
 62
7
  6
CONTINUOUS
 10
7.430194248
 20
-9.9098076211
 11
5.6981378189
 21
-10.9098108667
  0
LINE
  5
643
100
AcDbEntity
  8
IMPORT_IGES
100
AcDbLine
 62
253
  6
CONTINUOUS
 10
7.2806144928
 20
-9.8895873508
 11
6.7749999683
 21
-10.1812646504
  0
LINE
  5
644
100
AcDbEntity
  8
IMPORT_IGES
100
AcDbLine
 62
253
  6
CONTINUOUS
 10
6.3750033344
 20
-10.2911905861
 11
5.5981434312
 21
-10.7375493447
  0
LWPOLYLINE
  5
645
100
AcDbEntity
  8
IMPORT_IGES
100
AcDbPolyline
 62
253
  6
CONTINUOUS
 90
10
 70
0
 10
5.5981434312
 20
-10.7375493447
 10
5.5930009158
 20
-10.7403058168
 10
5.5877411999
 20
-10.7427475945
 10
5.5823642838
 20
-10.7448746774
 10
5.5768515799
 20
-10.7466924873
 10
5.5712216757
 20
-10.748195602
 10
5.5655303329
 20
-10.7493677556
 10
5.5597961389
 20
-10.7502035262
 10
5.5540005064
 20
-10.7507083356
 10
5.5481434353
 20
-10.7508821837
  0
LWPOLYLINE
  5
646
100
AcDbEntity
  8
IMPORT_IGES
100
AcDbPolyline
 62
253
  6
CONTINUOUS
 90
10
 70
0
 10
7.430194248
 20
-9.9098076211
 10
7.4169566719
 20
-9.9161035055
 10
7.402543651
 20
-9.920354183
 10
7.3870459601
 20
-9.9224784544
 10
7.3704887381
 20
-9.9224067337
 10
7.3530607166
 20
-9.9200743005
 10
7.3351440484
 20
-9.9155233871
 10
7.3169814513
 20
-9.9088654439
 10
7.2986445579
 20
-9.9001790123
 10
7.2802834855
 20
-9.8895708374
  0
LWPOLYLINE
  5
647
100
AcDbEntity
  8
IMPORT_IGES
100
AcDbPolyline
 62
253
  6
CONTINUOUS
 90
4
 70
0
 10
7.3925461267
 20
-9.8728625734
 10
7.4274822216
 20
-9.8596545859
 10
7.4601088276
 20
-9.8428551285
 10
7.4897604422
 20
-9.8227566963
  0
LINE
  5
648
100
AcDbEntity
  8
IMPORT_IGES
100
AcDbLine
 62
7
  6
CONTINUOUS
 10
5.7247278077
 20
11.15
 11
-7.075
 21
11.15
  0
LWPOLYLINE
  5
649
100
AcDbEntity
  8
IMPORT_IGES
100
AcDbPolyline
 62
253
  6
CONTINUOUS
 90
10
 70
0
 10
6.1659281986
 20
10.7512225932
 10
6.1708939432
 20
10.7505064906
 10
6.1755406993
 20
10.7491783277
 10
6.1798706615
 20
10.7472380218
 10
6.1838081732
 20
10.7447253994
 10
6.1874359126
 20
10.7416004688
 10
6.1909902379
 20
10.7377435435
 10
6.1945479294
 20
10.7331148174
 10
6.1980306887
 20
10.7277542387
 10
6.2014383616
 20
10.7216618726
  0
LINE
  5
64A
100
AcDbEntity
  8
DRAFT
100
AcDbLine
 62
7
  6
CONTINUOUS
 10
8.975
 20
8.8223308767
 11
8.8196499221
 21
8.9
  0
LWPOLYLINE
  5
64B
100
AcDbEntity
  8
IMPORT_IGES
100
AcDbPolyline
 62
253
  6
CONTINUOUS
 90
13
 70
0
 10
6.4159264735
 20
10.8621336307
 10
6.4085914189
 20
10.8663011091
 10
6.3979527122
 20
10.8671878381
 10
6.3842333366
 20
10.8645750658
 10
6.3681476297
 20
10.858617984
 10
6.3502095224
 20
10.8496273747
 10
6.3303296989
 20
10.8375773491
 10
6.3091616439
 20
10.8228314657
 10
6.2874478066
 20
10.8059373548
 10
6.2650558765
 20
10.7867764813
 10
6.2425343178
 20
10.7657322328
 10
6.2210279652
 20
10.7438633822
 10
6.2012646594
 20
10.7220094336
  0
LWPOLYLINE
  5
64C
100
AcDbEntity
  8
IMPORT_IGES
100
AcDbPolyline
 62
253
  6
CONTINUOUS
 90
10
 70
0
 10
7.4936821363
 20
9.7843779403
 10
7.4797035484
 20
9.7944589806
 10
7.4629600292
 20
9.7989793195
 10
7.4433889338
 20
9.7972746144
 10
7.4209472372
 20
9.7883662675
 10
7.3958306505
 20
9.7718118221
 10
7.3688356336
 20
9.7483982236
 10
7.340815949
 20
9.7187543029
 10
7.3123283363
 20
9.6826791741
 10
7.2840672032
 20
9.6404394829
  0
LINE
  5
64D
100
AcDbEntity
  8
IMPORT_IGES
100
AcDbLine
 62
253
  6
CONTINUOUS
 10
6.528
 20
10.3965066856
 11
7.2840625198
 21
9.6404371412
  0
LINE
  5
64E
100
AcDbEntity
  8
IMPORT_IGES
100
AcDbLine
 62
7
  6
CONTINUOUS
 10
7.493684219
 20
9.7843758577
 11
6.4159282199
 21
10.8621318567
  0
LINE
  5
64F
100
AcDbEntity
  8
ASSI
100
AcDbLine
 62
7
  6
CONTINUOUS
 10
-4.6029699877
 20
23.2563578147
 11
-4.8070411236
 21
23.4779554989
  0
LINE
  5
650
100
AcDbEntity
  8
ASSI
100
AcDbLine
 62
7
  6
CONTINUOUS
 10
-4.8070411236
 20
23.4779554989
 11
-4.8450092035
 21
23.5197730418
  0
LINE
  5
651
100
AcDbEntity
  8
ASSI
100
AcDbLine
 62
7
  6
CONTINUOUS
 10
-4.8450092035
 20
23.5197730418
 11
-4.8792293299
 21
23.5578207413
  0
LINE
  5
652
100
AcDbEntity
  8
ASSI
100
AcDbLine
 62
7
  6
CONTINUOUS
 10
-4.8792293299
 20
23.5578207413
 11
-4.9096214988
 21
23.5920385457
  0
LWPOLYLINE
  5
653
100
AcDbEntity
  8
ASSI
100
AcDbPolyline
 62
7
  6
CONTINUOUS
 90
18
 70
0
 10
-4.9096214988
 20
23.5920385457
 10
-4.936184351
 20
23.6224079992
 10
-4.9480977873
 20
23.6362381892
 10
-4.95912319
 20
23.6491881602
 10
-4.969271948
 20
23.6612588713
 10
-4.9785883497
 20
23.6725244939
 10
-4.9870752357
 20
23.6829815422
 10
-4.994752274
 20
23.692633502
 10
-5.0016728146
 20
23.7015650018
 10
-5.0078521255
 20
23.7097961262
 10
-5.0132798184
 20
23.7173067906
 10
-5.0179611755
 20
23.7241213695
 10
-5.0219056421
 20
23.7302356312
 10
-5.0251212873
 20
23.7356538073
 10
-5.0276164863
 20
23.7404129678
 10
-5.029405432
 20
23.7445254691
 10
-5.0305052012
 20
23.7479789548
 10
-5.0309327327
 20
23.7507734247
  0
LINE
  5
654
100
AcDbEntity
  8
DRAFT
100
AcDbLine
 62
7
  6
CONTINUOUS
 10
7.575
 20
-20.9
 11
7.5715127091
 21
-20.9104703804
  0
LINE
  5
655
100
AcDbEntity
  8
ASSI
100
AcDbLine
 62
7
  6
CONTINUOUS
 10
-5.075
 20
-23.8
 11
-5.0313493531
 21
-23.7563493531
  0
LINE
  5
656
100
AcDbEntity
  8
RACCORDO
100
AcDbLine
 62
253
  6
CONTINUOUS
 10
5.5373556268
 20
-13.1876900647
 11
5.5250456915
 21
-13.2
  0
LINE
  5
657
100
AcDbEntity
  8
RACCORDO
100
AcDbLine
 62
253
  6
CONTINUOUS
 10
5.8373099353
 20
-13.4876443732
 11
5.825
 21
-13.4999543085
  0
LINE
  5
658
100
AcDbEntity
  8
DRAFT
100
AcDbLine
 62
7
  6
CONTINUOUS
 10
3.825
 20
14.139335085
 11
4.825
 21
14.139335085
  0
LINE
  5
659
100
AcDbEntity
  8
DRAFT
100
AcDbLine
 62
7
  6
CONTINUOUS
 10
-5.175
 20
14.139335085
 11
-6.175
 21
14.139335085
  0
LINE
  5
65A
100
AcDbEntity
  8
ASSI
100
AcDbLine
 62
7
  6
CONTINUOUS
 10
-5.075
 20
23.8
 11
-5.0313493531
 21
23.7563493531
  0
LINE
  5
65B
100
AcDbEntity
  8
DRAFT
100
AcDbLine
 62
7
  6
CONTINUOUS
 10
7.5715127091
 20
20.9104703804
 11
7.575
 21
20.9
  0
LINE
  5
65C
100
AcDbEntity
  8
RACCORDO
100
AcDbLine
 62
7
  6
CONTINUOUS
 10
5.8373099353
 20
-13.8126856306
 11
5.825
 21
-13.8188401295
  0
LINE
  5
65D
100
AcDbEntity
  8
DRAFT
100
AcDbLine
 62
7
  6
CONTINUOUS
 10
8.8196499221
 20
-12.5
 11
8.975
 21
-12.4223308767
  0
LINE
  5
65E
100
AcDbEntity
  8
DRAFT
100
AcDbLine
 62
7
  6
CONTINUOUS
 10
6.5668217019
 20
-20.9959955457
 11
6.6238376746
 21
-20.9104703804
  0
LINE
  5
65F
100
AcDbEntity
  8
ASSI
100
AcDbLine
 62
7
  6
CONTINUOUS
 10
2.9190894927
 20
-23.6231776604
 11
2.9456235004
 21
-23.5928267546
  0
LINE
  5
660
100
AcDbEntity
  8
ASSI
100
AcDbLine
 62
7
  6
CONTINUOUS
 10
2.9456235004
 20
-23.5928267546
 11
2.9759962094
 21
-23.5586202787
  0
LINE
  5
661
100
AcDbEntity
  8
ASSI
100
AcDbLine
 62
7
  6
CONTINUOUS
 10
2.9759962094
 20
-23.5586202787
 11
3.0102228577
 21
-23.520556369
  0
LINE
  5
662
100
AcDbEntity
  8
ASSI
100
AcDbLine
 62
7
  6
CONTINUOUS
 10
3.0102228577
 20
-23.520556369
 11
3.068670406
 21
-23.4562934323
  0
LINE
  5
663
100
AcDbEntity
  8
ASSI
100
AcDbLine
 62
7
  6
CONTINUOUS
 10
3.068670406
 20
-23.4562934323
 11
3.2529699877
 21
-23.2563578147
  0
LINE
  5
664
100
AcDbEntity
  8
ASSI
100
AcDbLine
 62
7
  6
CONTINUOUS
 10
3.2529699877
 20
23.2563578147
 11
3.04819
 21
23.4787333295
  0
LINE
  5
665
100
AcDbEntity
  8
ASSI
100
AcDbLine
 62
7
  6
CONTINUOUS
 10
3.04819
 20
23.4787333295
 11
3.0101306782
 21
23.520658084
  0
LINE
  5
666
100
AcDbEntity
  8
ASSI
100
AcDbLine
 62
7
  6
CONTINUOUS
 10
3.0101306782
 20
23.520658084
 11
2.9758615818
 21
23.5587705835
  0
LINE
  5
667
100
AcDbEntity
  8
ASSI
100
AcDbLine
 62
7
  6
CONTINUOUS
 10
2.9758615818
 20
23.5587705835
 11
2.9454577011
 21
23.5930148412
  0
LWPOLYLINE
  5
668
100
AcDbEntity
  8
ASSI
100
AcDbPolyline
 62
7
  6
CONTINUOUS
 90
18
 70
0
 10
2.9454577011
 20
23.5930148412
 10
2.9189110457
 20
23.6233833596
 10
2.9070146366
 20
23.637204436
 10
2.8960123303
 20
23.6501397805
 10
2.8858917472
 20
23.6621907435
 10
2.8766059276
 20
23.6734345977
 10
2.8681516162
 20
23.6838693892
 10
2.8605105725
 20
23.6934970717
 10
2.8536302672
 20
23.7024007789
 10
2.8474956417
 20
23.7106007946
 10
2.8421179781
 20
23.7180768349
 10
2.837493414
 20
23.7248511814
 10
2.8336126205
 20
23.7309188156
 10
2.8304672686
 20
23.736284756
 10
2.8280490489
 20
23.74098634
 10
2.8263434198
 20
23.7450360132
 10
2.825332847
 20
23.74842133
 10
2.825
 20
23.7511422903
  0
LINE
  5
669
100
AcDbEntity
  8
DRAFT
100
AcDbLine
 62
7
  6
CONTINUOUS
 10
6.5668217019
 20
20.9959955457
 11
6.6238376746
 21
20.9104703804
  0
LINE
  5
66A
100
AcDbEntity
  8
DRAFT
100
AcDbLine
 62
7
  6
CONTINUOUS
 10
5.7732213147
 20
19.9223308767
 11
-7.1232213147
 21
19.9223308767
  0
LINE
  5
66B
100
AcDbEntity
  8
RACCORDO
100
AcDbLine
 62
253
  6
CONTINUOUS
 10
-7.230294768
 20
20.0829433217
 11
5.880294768
 21
20.0829433217
  0
LINE
  5
66C
100
AcDbEntity
  8
RACCORDO
100
AcDbLine
 62
7
  6
CONTINUOUS
 10
6.5837268678
 20
-22.3912731322
 11
7.575
 21
-21.4
  0
LINE
  5
66D
100
AcDbEntity
  8
RACCORDO
100
AcDbLine
 62
7
  6
CONTINUOUS
 10
-9.6700305219
 20
20.4335707644
 11
-8.0267786853
 21
20.4335707644
  0
LINE
  5
66E
100
AcDbEntity
  8
RACCORDO
100
AcDbLine
 62
7
  6
CONTINUOUS
 10
6.6767786853
 20
20.4335707644
 11
8.3200305219
 21
20.4335707644
  0
LINE
  5
66F
100
AcDbEntity
  8
RACCORDO
100
AcDbLine
 62
253
  6
CONTINUOUS
 10
-7.2331782981
 20
20.5829242832
 11
5.8831782981
 21
20.5829242832
  0
LINE
  5
670
100
AcDbEntity
  8
RACCORDO
100
AcDbLine
 62
7
  6
CONTINUOUS
 10
8.4753805997
 20
20.9
 11
7.575
 21
20.9
  0
LINE
  5
671
100
AcDbEntity
  8
RACCORDO
100
AcDbLine
 62
7
  6
CONTINUOUS
 10
-8.925
 20
20.9
 11
-9.8253805997
 21
20.9
  0
LINE
  5
672
100
AcDbEntity
  8
DRAFT
100
AcDbLine
 62
7
  6
CONTINUOUS
 10
7.5715127091
 20
20.9104703804
 11
6.6238376746
 21
20.9104703804
  0
LINE
  5
673
100
AcDbEntity
  8
DRAFT
100
AcDbLine
 62
7
  6
CONTINUOUS
 10
-7.9738376746
 20
20.9104703804
 11
-8.9215127091
 21
20.9104703804
  0
LINE
  5
674
100
AcDbEntity
  8
RACCORDO
100
AcDbLine
 62
7
  6
CONTINUOUS
 10
6.9091007192
 20
20.9959955457
 11
6.5668217019
 21
20.9959955457
  0
LINE
  5
675
100
AcDbEntity
  8
RACCORDO
100
AcDbLine
 62
7
  6
CONTINUOUS
 10
-7.9168217019
 20
20.9959955457
 11
-8.2591007192
 21
20.9959955457
  0
LINE
  5
676
100
AcDbEntity
  8
0
100
AcDbLine
 62
7
  6
CONTINUOUS
 10
2.325
 20
21.0
 11
-3.675
 21
21.0
  0
LINE
  5
677
100
AcDbEntity
  8
RACCORDO
100
AcDbLine
 62
253
  6
CONTINUOUS
 10
6.9091007192
 20
21.3126932437
 11
2.325
 21
21.3126932437
  0
LINE
  5
678
100
AcDbEntity
  8
RACCORDO
100
AcDbLine
 62
253
  6
CONTINUOUS
 10
-3.675
 20
21.3126932437
 11
-8.2591007192
 21
21.3126932437
  0
LINE
  5
679
100
AcDbEntity
  8
0
100
AcDbLine
 62
7
  6
CONTINUOUS
 10
-3.675
 20
21.7
 11
2.325
 21
21.7
  0
LINE
  5
67A
100
AcDbEntity
  8
RACCORDO
100
AcDbLine
 62
7
  6
CONTINUOUS
 10
7.575
 20
21.4
 11
6.5837268678
 21
22.3912731322
  0
LINE
  5
67B
100
AcDbEntity
  8
RACCORDO
100
AcDbLine
 62
253
  6
CONTINUOUS
 10
7.579371834
 20
-24.2456323968
 11
7.575
 21
-24.2500042308
  0
LINE
  5
67C
100
AcDbEntity
  8
RACCORDO
100
AcDbLine
 62
253
  6
CONTINUOUS
 10
7.8293676032
 20
-24.495628166
 11
7.8249957692
 21
-24.5
  0
LINE
  5
67D
100
AcDbEntity
  8
RACCORDO
100
AcDbLine
 62
7
  6
CONTINUOUS
 10
7.4090245667
 20
-20.9917082642
 11
7.5715127091
 21
-20.9104703804
  0
LWPOLYLINE
  5
67E
100
AcDbEntity
  8
RACCORDO
100
AcDbPolyline
 62
7
  6
CONTINUOUS
 90
11
 70
0
 10
-11.3249991391
 20
22.3996911987
 10
-11.3464883972
 20
22.3984737398
 10
-11.3679434461
 20
22.396327304
 10
-11.389323887
 20
22.3932510251
 10
-11.4106119114
 20
22.3892409661
 10
-11.4317435211
 20
22.3843026901
 10
-11.4526108967
 20
22.3784610765
 10
-11.4731597008
 20
22.3717368058
 10
-11.4933694928
 20
22.3641420636
 10
-11.5131874588
 20
22.3557023577
 10
-11.5310370741
 20
22.3472138017
  0
LINE
  5
67F
100
AcDbEntity
  8
RACCORDO
100
AcDbLine
 62
7
  6
CONTINUOUS
 10
-11.325
 20
22.399689968
 11
-11.3210883071
 21
22.3998124433
  0
LINE
  5
680
100
AcDbEntity
  8
RACCORDO
100
AcDbLine
 62
7
  6
CONTINUOUS
 10
-11.3210883071
 20
22.3998124433
 11
-11.3171758755
 21
22.3999043042
  0
LINE
  5
681
100
AcDbEntity
  8
RACCORDO
100
AcDbLine
 62
7
  6
CONTINUOUS
 10
-11.3171758755
 20
22.3999043042
 11
-11.3132627952
 21
22.399965549
  0
LINE
  5
682
100
AcDbEntity
  8
RACCORDO
100
AcDbLine
 62
7
  6
CONTINUOUS
 10
-11.3132627952
 20
22.399965549
 11
-11.3093494256
 21
22.3999961716
  0
LINE
  5
683
100
AcDbEntity
  8
RACCORDO
100
AcDbLine
 62
253
  6
CONTINUOUS
 10
6.6623448332
 20
22.3126551668
 11
2.325
 21
22.3126551668
  0
LINE
  5
684
100
AcDbEntity
  8
RACCORDO
100
AcDbLine
 62
253
  6
CONTINUOUS
 10
-3.675
 20
22.3126551668
 11
-8.0123448332
 21
22.3126551668
  0
LINE
  5
685
100
AcDbEntity
  8
RACCORDO
100
AcDbLine
 62
7
  6
CONTINUOUS
 10
9.9748476749
 20
22.3912731322
 11
6.5837268678
 21
22.3912731322
  0
LINE
  5
686
100
AcDbEntity
  8
DRAFT
100
AcDbLine
 62
7
  6
CONTINUOUS
 10
2.825
 20
22.3912731322
 11
2.325
 21
22.3912731322
  0
LINE
  5
687
100
AcDbEntity
  8
DRAFT
100
AcDbLine
 62
7
  6
CONTINUOUS
 10
-3.675
 20
22.3912731322
 11
-4.175
 21
22.3912731322
  0
LINE
  5
688
100
AcDbEntity
  8
RACCORDO
100
AcDbLine
 62
7
  6
CONTINUOUS
 10
-7.9337268678
 20
22.3912731322
 11
-11.3248476749
 21
22.3912731322
  0
LINE
  5
689
100
AcDbEntity
  8
RACCORDO
100
AcDbLine
 62
7
  6
CONTINUOUS
 10
-11.3093494256
 20
22.3999961716
 11
-8.925
 21
22.4
  0
LINE
  5
68A
100
AcDbEntity
  8
DRAFT
100
AcDbLine
 62
7
  6
CONTINUOUS
 10
7.575
 20
22.4
 11
3.725
 21
22.4
  0
LINE
  5
68B
100
AcDbEntity
  8
DRAFT
100
AcDbLine
 62
7
  6
CONTINUOUS
 10
-5.075
 20
22.4
 11
-8.925
 21
22.4
  0
LINE
  5
68C
100
AcDbEntity
  8
RACCORDO
100
AcDbLine
 62
7
  6
CONTINUOUS
 10
-11.0757229979
 20
23.1226497308
 11
-9.1742770021
 21
23.1226497308
  0
LINE
  5
68D
100
AcDbEntity
  8
RACCORDO
100
AcDbLine
 62
7
  6
CONTINUOUS
 10
7.8242770021
 20
23.1226497308
 11
9.7257229979
 21
23.1226497308
  0
LINE
  5
68E
100
AcDbEntity
  8
RACCORDO
100
AcDbLine
 62
253
  6
CONTINUOUS
 10
7.8293676032
 20
23.6278312164
 11
9.7206323968
 21
23.6278312164
  0
LINE
  5
68F
100
AcDbEntity
  8
RACCORDO
100
AcDbLine
 62
7
  6
CONTINUOUS
 10
-9.1793676032
 20
23.7
 11
-11.0706323968
 21
23.7
  0
LINE
  5
690
100
AcDbEntity
  8
ASSI
100
AcDbLine
 62
253
  6
CONTINUOUS
 10
3.6813493531
 20
23.7563493531
 11
2.825
 21
23.7563493531
  0
LINE
  5
691
100
AcDbEntity
  8
ASSI
100
AcDbLine
 62
253
  6
CONTINUOUS
 10
-4.175
 20
23.7563493531
 11
-5.0313493531
 21
23.7563493531
  0
LINE
  5
692
100
AcDbEntity
  8
DRAFT
100
AcDbLine
 62
7
  6
CONTINUOUS
 10
2.825
 20
23.7941821702
 11
-4.175
 21
23.7941821702
  0
LINE
  5
693
100
AcDbEntity
  8
DRAFT
100
AcDbLine
 62
7
  6
CONTINUOUS
 10
3.725
 20
23.8
 11
-5.075
 21
23.8
  0
LINE
  5
694
100
AcDbEntity
  8
RACCORDO
100
AcDbLine
 62
7
  6
CONTINUOUS
 10
7.575
 20
22.4
 11
9.9593494256
 21
22.3999961716
  0
LINE
  5
695
100
AcDbEntity
  8
RACCORDO
100
AcDbLine
 62
7
  6
CONTINUOUS
 10
9.9593494256
 20
22.3999961716
 11
9.9632627952
 21
22.399965549
  0
LINE
  5
696
100
AcDbEntity
  8
RACCORDO
100
AcDbLine
 62
7
  6
CONTINUOUS
 10
9.9632627952
 20
22.399965549
 11
9.9671758755
 21
22.3999043042
  0
LWPOLYLINE
  5
697
100
AcDbEntity
  8
RACCORDO
100
AcDbPolyline
 62
7
  6
CONTINUOUS
 90
34
 70
0
 10
-11.0706323968
 20
23.7
 10
-11.0836568719
 20
23.7002535774
 10
-11.0965864441
 20
23.7008789762
 10
-11.1093870425
 20
23.7018761963
 10
-11.1220370996
 20
23.7032578617
 10
-11.1344932499
 20
23.7050113484
 10
-11.1466917635
 20
23.7070987849
 10
-11.1585923857
 20
23.7095212536
 10
-11.1701827847
 20
23.7122776721
 10
-11.1814447697
 20
23.7153269215
 10
-11.1923559423
 20
23.7186694804
 10
-11.202896047
 20
23.7223048703
 10
-11.2130519403
 20
23.7261905362
 10
-11.2228060819
 20
23.7303265244
 10
-11.2321427969
 20
23.7347127887
 10
-11.2410531313
 20
23.739306636
 10
-11.2495239743
 20
23.7441078614
 10
-11.2575437065
 20
23.7491166698
 10
-11.26510661
 20
23.7542909833
 10
-11.2722035023
 20
23.7596304659
 10
-11.2788264114
 20
23.7651354536
 10
-11.2849721553
 20
23.7707648756
 10
-11.2906350363
 20
23.7765183262
 10
-11.2958103935
 20
23.7823962112
 10
-11.3004971716
 20
23.7883586777
 10
-11.3046927965
 20
23.794405262
 10
-11.3083956467
 20
23.8005364279
 10
-11.3116066239
 20
23.8067137129
 10
-11.3143259908
 20
23.8129365718
 10
-11.3165549373
 20
23.8192055499
 10
-11.3182963
 20
23.8254838211
 10
-11.3195530388
 20
23.8317591101
 10
-11.3203287436
 20
23.8380436921
 10
-11.320628166
 20
23.8443375673
  0
LINE
  5
698
100
AcDbEntity
  8
RACCORDO
100
AcDbLine
 62
7
  6
CONTINUOUS
 10
9.9671758755
 20
22.3999043042
 11
9.9710883071
 21
22.3998124433
  0
LINE
  5
699
100
AcDbEntity
  8
RACCORDO
100
AcDbLine
 62
7
  6
CONTINUOUS
 10
9.9710883071
 20
22.3998124433
 11
9.975
 21
22.399689968
  0
LINE
  5
69A
100
AcDbEntity
  8
RACCORDO
100
AcDbLine
 62
7
  6
CONTINUOUS
 10
7.4090245667
 20
20.9917082642
 11
7.5715127091
 21
20.9104703804
  0
LINE
  5
69B
100
AcDbEntity
  8
RACCORDO
100
AcDbLine
 62
253
  6
CONTINUOUS
 10
7.579371834
 20
24.2456323968
 11
7.575
 21
24.2500042308
  0
LINE
  5
69C
100
AcDbEntity
  8
RACCORDO
100
AcDbLine
 62
253
  6
CONTINUOUS
 10
7.8293676032
 20
24.495628166
 11
7.8249957692
 21
24.5
  0
LINE
  5
69D
100
AcDbEntity
  8
RACCORDO
100
AcDbLine
 62
253
  6
CONTINUOUS
 10
9.9748476749
 20
-22.3912731322
 11
9.9573926099
 21
-22.4
  0
LINE
  5
69E
100
AcDbEntity
  8
RACCORDO
100
AcDbLine
 62
253
  6
CONTINUOUS
 10
7.579371834
 20
23.8443375673
 11
9.970628166
 21
23.8443375673
  0
LINE
  5
69F
100
AcDbEntity
  8
RACCORDO
100
AcDbLine
 62
253
  6
CONTINUOUS
 10
7.579371834
 20
24.2456323968
 11
9.970628166
 21
24.2456323968
  0
LINE
  5
6A0
100
AcDbEntity
  8
RACCORDO
100
AcDbLine
 62
253
  6
CONTINUOUS
 10
-8.929371834
 20
24.2456323968
 11
-11.320628166
 21
24.2456323968
  0
LINE
  5
6A1
100
AcDbEntity
  8
RACCORDO
100
AcDbLine
 62
253
  6
CONTINUOUS
 10
9.7206323968
 20
24.495628166
 11
7.8293676032
 21
24.495628166
  0
LINE
  5
6A2
100
AcDbEntity
  8
RACCORDO
100
AcDbLine
 62
253
  6
CONTINUOUS
 10
-9.1793676032
 20
24.495628166
 11
-11.0706323968
 21
24.495628166
  0
LINE
  5
6A3
100
AcDbEntity
  8
RACCORDO
100
AcDbLine
 62
7
  6
CONTINUOUS
 10
9.7250042308
 20
24.5
 11
7.8249957692
 21
24.5
  0
LINE
  5
6A4
100
AcDbEntity
  8
RACCORDO
100
AcDbLine
 62
7
  6
CONTINUOUS
 10
-9.1749957692
 20
24.5
 11
-11.0750042308
 21
24.5
  0
LWPOLYLINE
  5
6A5
100
AcDbEntity
  8
RACCORDO
100
AcDbPolyline
 62
7
  6
CONTINUOUS
 90
34
 70
0
 10
-9.1749957692
 20
24.5
 10
-9.163100484
 20
24.4997168498
 10
-9.1512321444
 20
24.4988680342
 10
-9.1394176339
 20
24.4974554741
 10
-9.1276837125
 20
24.4954823677
 10
-9.1160569612
 20
24.4929531817
 10
-9.104563721
 20
24.4898736417
 10
-9.0932300262
 20
24.4862507213
 10
-9.0820815507
 20
24.4820926258
 10
-9.0711435537
 20
24.4774087722
 10
-9.0604408124
 20
24.4722097688
 10
-9.0499975717
 20
24.4665073916
 10
-9.0398374941
 20
24.4603145581
 10
-9.0299835949
 20
24.4536452955
 10
-9.0204581962
 20
24.4465147107
 10
-9.0112828809
 20
24.4389389589
 10
-9.0024784339
 20
24.4309352005
 10
-8.9940647995
 20
24.4225215661
 10
-8.9860610411
 20
24.4137171191
 10
-8.9784852893
 20
24.4045418038
 10
-8.9713547045
 20
24.3950164051
 10
-8.9646854419
 20
24.3851625059
 10
-8.9584926084
 20
24.3750024283
 10
-8.9527902312
 20
24.3645591876
 10
-8.9475912278
 20
24.3538564463
 10
-8.9429073742
 20
24.3429184493
 10
-8.9387492787
 20
24.3317699738
 10
-8.9351263583
 20
24.320436279
 10
-8.9320468183
 20
24.3089430388
 10
-8.9295176323
 20
24.2973162875
 10
-8.9275445259
 20
24.2855823661
 10
-8.9261319658
 20
24.2737678556
 10
-8.9252831502
 20
24.261899516
 10
-8.925
 20
24.2500042308
  0
LWPOLYLINE
  5
6A6
100
AcDbEntity
  8
RACCORDO
100
AcDbPolyline
 62
7
  6
CONTINUOUS
 90
34
 70
0
 10
9.7250042308
 20
24.5
 10
9.736899516
 20
24.4997168498
 10
9.7487678556
 20
24.4988680342
 10
9.7605823661
 20
24.4974554741
 10
9.7723162875
 20
24.4954823677
 10
9.7839430388
 20
24.4929531817
 10
9.795436279
 20
24.4898736417
 10
9.8067699738
 20
24.4862507213
 10
9.8179184493
 20
24.4820926258
 10
9.8288564463
 20
24.4774087722
 10
9.8395591876
 20
24.4722097688
 10
9.8500024283
 20
24.4665073916
 10
9.8601625059
 20
24.4603145581
 10
9.8700164051
 20
24.4536452955
 10
9.8795418038
 20
24.4465147107
 10
9.8887171191
 20
24.4389389589
 10
9.8975215661
 20
24.4309352005
 10
9.9059352005
 20
24.4225215661
 10
9.9139389589
 20
24.4137171191
 10
9.9215147107
 20
24.4045418038
 10
9.9286452955
 20
24.3950164051
 10
9.9353145581
 20
24.3851625059
 10
9.9415073916
 20
24.3750024283
 10
9.9472097688
 20
24.3645591876
 10
9.9524087722
 20
24.3538564463
 10
9.9570926258
 20
24.3429184493
 10
9.9612507213
 20
24.3317699738
 10
9.9648736417
 20
24.320436279
 10
9.9679531817
 20
24.3089430388
 10
9.9704823677
 20
24.2973162875
 10
9.9724554741
 20
24.2855823661
 10
9.9738680342
 20
24.2737678556
 10
9.9747168498
 20
24.261899516
 10
9.975
 20
24.2500042308
  0
LWPOLYLINE
  5
6A7
100
AcDbEntity
  8
RACCORDO
100
AcDbPolyline
 62
253
  6
CONTINUOUS
 90
31
 70
0
 10
-9.1793676032
 20
24.495628166
 10
-9.1662841172
 20
24.4952851274
 10
-9.1532364906
 20
24.4942578375
 10
-9.1402604845
 20
24.492549112
 10
-9.1273916636
 20
24.490163634
 10
-9.1146652991
 20
24.4871079418
 10
-9.1021162714
 20
24.4833904104
 10
-9.0897789751
 20
24.4790212289
 10
-9.0776872245
 20
24.4740123724
 10
-9.0658741607
 20
24.4683775693
 10
-9.0543721611
 20
24.4621322634
 10
-9.0432127506
 20
24.455293572
 10
-9.032426515
 20
24.4478802386
 10
-9.0220430174
 20
24.4399125818
 10
-9.0120907169
 20
24.4314124395
 10
-9.002596891
 20
24.422403109
 10
-8.9935875605
 20
24.4129092831
 10
-8.9850874182
 20
24.4029569826
 10
-8.9771197614
 20
24.392573485
 10
-8.969706428
 20
24.3817872494
 10
-8.9628677366
 20
24.3706278389
 10
-8.9566224307
 20
24.3591258393
 10
-8.9509876276
 20
24.3473127755
 10
-8.9459787711
 20
24.3352210249
 10
-8.9416095896
 20
24.3228837286
 10
-8.9378920582
 20
24.3103347009
 10
-8.934836366
 20
24.2976083364
 10
-8.932450888
 20
24.2847395155
 10
-8.9307421625
 20
24.2717635094
 10
-8.9297148726
 20
24.2587158828
 10
-8.929371834
 20
24.2456323968
  0
LWPOLYLINE
  5
6A8
100
AcDbEntity
  8
RACCORDO
100
AcDbPolyline
 62
253
  6
CONTINUOUS
 90
31
 70
0
 10
9.7206323968
 20
24.495628166
 10
9.7336847368
 20
24.4952867588
 10
9.7467096311
 20
24.4942634962
 10
9.7596714057
 20
24.492559892
 10
9.7725371245
 20
24.4901787618
 10
9.7852685897
 20
24.4871256484
 10
9.7978227742
 20
24.4834102087
 10
9.8101625782
 20
24.4790436576
 10
9.8222569343
 20
24.4740372277
 10
9.8340730125
 20
24.4684044791
 10
9.845578613
 20
24.4621606774
 10
9.8567419314
 20
24.4553229956
 10
9.8675320106
 20
24.4479103656
 10
9.8779191364
 20
24.4399432233
 10
9.8878749736
 20
24.4314433264
 10
9.897372308
 20
24.4224339046
 10
9.9063851271
 20
24.4129396114
 10
9.9148886687
 20
24.402986508
 10
9.9228595768
 20
24.3926019187
 10
9.9302759837
 20
24.3818143284
 10
9.9371175595
 20
24.3706533025
 10
9.9433655387
 20
24.3591494467
 10
9.9490027869
 20
24.347334301
 10
9.9540138424
 20
24.3352402638
 10
9.9583849575
 20
24.3229005077
 10
9.962104147
 20
24.3103488602
 10
9.9651612081
 20
24.2976197463
 10
9.9675477509
 20
24.2847481067
 10
9.969257234
 20
24.2717692492
 10
9.970284977
 20
24.2587187509
 10
9.970628166
 20
24.2456323968
  0
LWPOLYLINE
  5
6A9
100
AcDbEntity
  8
RACCORDO
100
AcDbPolyline
 62
7
  6
CONTINUOUS
 90
11
 70
0
 10
10.1810370741
 20
22.3472138017
 10
10.1631874588
 20
22.3557023577
 10
10.1433694928
 20
22.3641420636
 10
10.1231597008
 20
22.3717368058
 10
10.1026108967
 20
22.3784610765
 10
10.0817435211
 20
22.3843026901
 10
10.0606119114
 20
22.3892409661
 10
10.039323887
 20
22.3932510251
 10
10.0179434461
 20
22.396327304
 10
9.9964883972
 20
22.3984737398
 10
9.9749991391
 20
22.3996911987
  0
LINE
  5
6AA
100
AcDbEntity
  8
RACCORDO
100
AcDbLine
 62
253
  6
CONTINUOUS
 10
9.9573926099
 20
22.4
 11
9.9748476749
 21
22.3912731322
  0
ARC
  5
6AB
100
AcDbEntity
  8
RACCORDO
100
AcDbCircle
 62
7
  6
CONTINUOUS
 10
-3.775
 20
-14.2
 40
0.3
100
AcDbArc
 50
90.0
 51
180.0
  0
ARC
  5
6AC
100
AcDbEntity
  8
IMPORT_IGES
100
AcDbCircle
 62
7
  6
CONTINUOUS
 10
-6.8981434405
 20
-10.65
 40
0.3
100
AcDbArc
 50
240.0000120939
 51
270.0000000642
  0
ARC
  5
6AD
100
AcDbEntity
  8
RACCORDO
100
AcDbCircle
 62
7
  6
CONTINUOUS
 10
-4.875
 20
-17.6
 40
0.3
100
AcDbArc
 50
90.0
 51
180.0
  0
ARC
  5
6AE
100
AcDbEntity
  8
IMPORT_IGES
100
AcDbCircle
 62
7
  6
CONTINUOUS
 10
-8.6301964078
 20
-9.650000366
 40
0.2999990457
100
AcDbArc
 50
180.9998575135
 51
240.0057583378
  0
ARC
  5
6AF
100
AcDbEntity
  8
IMPORT_IGES
100
AcDbCircle
 62
7
  6
CONTINUOUS
 10
-8.125
 20
-10.0571440889
 40
0.2
100
AcDbArc
 50
240.0000032026
 51
359.9999543684
  0
ARC
  5
6B0
100
AcDbEntity
  8
IMPORT_IGES
100
AcDbCircle
 62
7
  6
CONTINUOUS
 10
-4.4484545901
 20
-10.7499981243
 40
0.1999996962
100
AcDbArc
 50
180.6869390008
 51
270.0029465965
  0
ARC
  5
6B1
100
AcDbEntity
  8
IMPORT_IGES
100
AcDbCircle
 62
7
  6
CONTINUOUS
 10
-6.575
 20
-11.05
 40
0.1
100
AcDbArc
 50
179.9999999998
 51
270.0012693104
  0
ARC
  5
6B2
100
AcDbEntity
  8
IMPORT_IGES
100
AcDbCircle
 62
7
  6
CONTINUOUS
 10
-6.775
 20
-11.05
 40
0.1
100
AcDbArc
 50
0.0000000003
 51
89.9975836551
  0
ARC
  5
6B3
100
AcDbEntity
  8
IMPORT_IGES
100
AcDbCircle
 62
7
  6
CONTINUOUS
 10
-7.725
 20
-0.471081983
 40
0.2
100
AcDbArc
 50
90.0000000761
 51
179.9990411618
  0
ARC
  5
6B4
100
AcDbEntity
  8
IMPORT_IGES
100
AcDbCircle
 62
253
  6
CONTINUOUS
 10
-13.975
 20
8.5866773029
 40
9.5
100
AcDbArc
 50
349.9865678122
 51
354.9043096237
  0
ARC
  5
6B5
100
AcDbEntity
  8
IMPORT_IGES
100
AcDbCircle
 62
7
  6
CONTINUOUS
 10
-13.975
 20
8.5866773029
 40
9.3
100
AcDbArc
 50
349.9865678122
 51
0.0001398085
  0
ARC
  5
6B6
100
AcDbEntity
  8
IMPORT_IGES
100
AcDbCircle
 62
7
  6
CONTINUOUS
 10
-8.6315514748
 20
9.5722445332
 40
0.3
100
AcDbArc
 50
135.0000018621
 51
179.0
  0
ARC
  5
6B7
100
AcDbEntity
  8
IMPORT_IGES
100
AcDbCircle
 62
7
  6
CONTINUOUS
 10
-7.878
 20
10.4672173642
 40
0.2
100
AcDbArc
 50
0.0
 51
135.000001097
  0
ARC
  5
6B8
100
AcDbEntity
  8
IMPORT_IGES
100
AcDbCircle
 62
7
  6
CONTINUOUS
 10
-5.775
 20
-0.455
 40
0.6
100
AcDbArc
 50
269.9999999999
 51
360.0
  0
ARC
  5
6B9
100
AcDbEntity
  8
IMPORT_IGES
100
AcDbCircle
 62
7
  6
CONTINUOUS
 10
-6.125
 20
-0.455
 40
0.6
100
AcDbArc
 50
180.0
 51
270.0
  0
ARC
  5
6BA
100
AcDbEntity
  8
IMPORT_IGES
100
AcDbCircle
 62
253
  6
CONTINUOUS
 10
-5.775
 20
-0.455
 40
0.3
100
AcDbArc
 50
270.0000000001
 51
360.0
  0
ARC
  5
6BB
100
AcDbEntity
  8
IMPORT_IGES
100
AcDbCircle
 62
253
  6
CONTINUOUS
 10
-6.125
 20
-0.455
 40
0.3
100
AcDbArc
 50
180.0
 51
270.0
  0
ARC
  5
6BC
100
AcDbEntity
  8
IMPORT_IGES
100
AcDbCircle
 62
253
  6
CONTINUOUS
 10
-5.725
 20
1.945
 40
1.3
100
AcDbArc
 50
89.999999999
 51
180.0
  0
ARC
  5
6BD
100
AcDbEntity
  8
IMPORT_IGES
100
AcDbCircle
 62
7
  6
CONTINUOUS
 10
-5.725
 20
1.945
 40
1.0
100
AcDbArc
 50
90.0
 51
180.0
  0
ARC
  5
6BE
100
AcDbEntity
  8
IMPORT_IGES
100
AcDbCircle
 62
253
  6
CONTINUOUS
 10
-4.475
 20
3.3132052805
 40
0.7
100
AcDbArc
 50
186.1256577714
 51
269.8387858744
  0
ARC
  5
6BF
100
AcDbEntity
  8
IMPORT_IGES
100
AcDbCircle
 62
253
  6
CONTINUOUS
 10
-5.725
 20
1.945
 40
0.7
100
AcDbArc
 50
90.0
 51
180.0
  0
ARC
  5
6C0
100
AcDbEntity
  8
IMPORT_IGES
100
AcDbCircle
 62
7
  6
CONTINUOUS
 10
-5.3196828416
 20
2.3283292674
 40
0.6
100
AcDbArc
 50
283.9720463855
 51
334.8767063357
  0
ARC
  5
6C1
100
AcDbEntity
  8
IMPORT_IGES
100
AcDbCircle
 62
7
  6
CONTINUOUS
 10
-4.762751337
 20
3.7132052805
 40
0.6
100
AcDbArc
 50
172.4289186542
 51
269.9999999999
  0
ARC
  5
6C2
100
AcDbEntity
  8
IMPORT_IGES
100
AcDbCircle
 62
253
  6
CONTINUOUS
 10
-4.762751337
 20
3.7132052805
 40
0.4
100
AcDbArc
 50
172.4289186646
 51
269.9999999999
  0
ARC
  5
6C3
100
AcDbEntity
  8
IMPORT_IGES
100
AcDbCircle
 62
7
  6
CONTINUOUS
 10
-5.475
 20
2.645
 40
0.3
100
AcDbArc
 50
0.0
 51
90.0000000002
  0
ARC
  5
6C4
100
AcDbEntity
  8
IMPORT_IGES
100
AcDbCircle
 62
7
  6
CONTINUOUS
 10
-1.3923919684
 20
3.2652346042
 40
4.0
100
AcDbArc
 50
123.4933347856
 51
172.4289186646
  0
ARC
  5
6C5
100
AcDbEntity
  8
IMPORT_IGES
100
AcDbCircle
 62
253
  6
CONTINUOUS
 10
-1.3923919684
 20
3.2652346042
 40
3.8
100
AcDbArc
 50
123.4933347857
 51
172.4289186646
  0
ARC
  5
6C6
100
AcDbEntity
  8
IMPORT_IGES
100
AcDbCircle
 62
7
  6
CONTINUOUS
 10
-1.575
 20
3.85
 40
0.3
100
AcDbArc
 50
270.0
 51
360.0
  0
ARC
  5
6C7
100
AcDbEntity
  8
IMPORT_IGES
100
AcDbCircle
 62
7
  6
CONTINUOUS
 10
-7.0805080062
 20
6.3399886066
 40
1.905513565
100
AcDbArc
 50
0.1395587833
 51
178.1372298283
  0
ARC
  5
6C8
100
AcDbEntity
  8
IMPORT_IGES
100
AcDbCircle
 62
253
  6
CONTINUOUS
 10
-7.0805080062
 20
6.3399886066
 40
1.6054856081
100
AcDbArc
 50
0.1450301271
 51
178.0267814416
  0
ARC
  5
6C9
100
AcDbEntity
  8
IMPORT_IGES
100
AcDbCircle
 62
253
  6
CONTINUOUS
 10
-5.3090502541
 20
7.0565416876
 40
0.7
100
AcDbArc
 50
280.7609054582
 51
349.9865678122
  0
ARC
  5
6CA
100
AcDbEntity
  8
IMPORT_IGES
100
AcDbCircle
 62
7
  6
CONTINUOUS
 10
-5.3090502541
 20
7.0565416876
 40
0.5
100
AcDbArc
 50
283.6943991251
 51
349.9865678122
  0
ARC
  5
6CB
100
AcDbEntity
  8
IMPORT_IGES
100
AcDbCircle
 62
7
  6
CONTINUOUS
 10
-7.5537960079
 20
10.65
 40
0.3
100
AcDbArc
 50
90.0
 51
135.000071038
  0
ARC
  5
6CC
100
AcDbEntity
  8
IMPORT_IGES
100
AcDbCircle
 62
7
  6
CONTINUOUS
 10
-4.475
 20
10.75
 40
0.2
100
AcDbArc
 50
90.000000014
 51
179.9999999998
  0
ARC
  5
6CD
100
AcDbEntity
  8
IMPORT_IGES
100
AcDbCircle
 62
7
  6
CONTINUOUS
 10
-7.075
 20
11.05
 40
0.1
100
AcDbArc
 50
89.9985366611
 51
179.9999999999
  0
ARC
  5
6CE
100
AcDbEntity
  8
IMPORT_IGES
100
AcDbCircle
 62
7
  6
CONTINUOUS
 10
-7.275
 20
11.05
 40
0.1
100
AcDbArc
 50
270.0028894103
 51
360.0
  0
ARC
  5
6CF
100
AcDbEntity
  8
RACCORDO
100
AcDbCircle
 62
7
  6
CONTINUOUS
 10
2.425
 20
-14.2
 40
0.3
100
AcDbArc
 50
0.0
 51
90.0
  0
ARC
  5
6D0
100
AcDbEntity
  8
RACCORDO
100
AcDbCircle
 62
7
  6
CONTINUOUS
 10
3.525
 20
-17.6
 40
0.3
100
AcDbArc
 50
0.0
 51
90.0
  0
ARC
  5
6D1
100
AcDbEntity
  8
IMPORT_IGES
100
AcDbCircle
 62
7
  6
CONTINUOUS
 10
3.0984612692
 20
-10.7499918865
 40
0.1999984052
100
AcDbArc
 50
269.9972218018
 51
359.4199982135
  0
ARC
  5
6D2
100
AcDbEntity
  8
IMPORT_IGES
100
AcDbCircle
 62
7
  6
CONTINUOUS
 10
5.5481434405
 20
-10.65
 40
0.3
100
AcDbArc
 50
269.9999717711
 51
299.9999553967
  0
ARC
  5
6D3
100
AcDbEntity
  8
IMPORT_IGES
100
AcDbCircle
 62
7
  6
CONTINUOUS
 10
7.2801966713
 20
-9.6500005556
 40
0.2999989024
100
AcDbArc
 50
300.0000000008
 51
359.0003443683
  0
ARC
  5
6D4
100
AcDbEntity
  8
IMPORT_IGES
100
AcDbCircle
 62
7
  6
CONTINUOUS
 10
6.7749999999
 20
-10.057144089
 40
0.2
100
AcDbArc
 50
180.0000360725
 51
300.0000003414
  0
ARC
  5
6D5
100
AcDbEntity
  8
IMPORT_IGES
100
AcDbCircle
 62
7
  6
CONTINUOUS
 10
5.425
 20
-11.05
 40
0.1
100
AcDbArc
 50
90.0032404254
 51
179.9999999998
  0
ARC
  5
6D6
100
AcDbEntity
  8
IMPORT_IGES
100
AcDbCircle
 62
7
  6
CONTINUOUS
 10
5.225
 20
-11.05
 40
0.1
100
AcDbArc
 50
269.998492417
 51
360.0
  0
ARC
  5
6D7
100
AcDbEntity
  8
IMPORT_IGES
100
AcDbCircle
 62
253
  6
CONTINUOUS
 10
-0.675
 20
0.1502977476
 40
7.4999707336
100
AcDbArc
 50
70.5285040378
 51
109.4716831012
  0
ARC
  5
6D8
100
AcDbEntity
  8
IMPORT_IGES
100
AcDbCircle
 62
7
  6
CONTINUOUS
 10
-0.675
 20
0.1502977476
 40
4.53
100
AcDbArc
 50
25.1232936643
 51
154.8767063357
  0
ARC
  5
6D9
100
AcDbEntity
  8
IMPORT_IGES
100
AcDbCircle
 62
7
  6
CONTINUOUS
 10
-0.675
 20
-0.18
 40
4.5
100
AcDbArc
 50
183.051925112
 51
356.9480150513
  0
ARC
  5
6DA
100
AcDbEntity
  8
IMPORT_IGES
100
AcDbCircle
 62
7
  6
CONTINUOUS
 10
-0.675
 20
2.181099574
 40
5.3
100
AcDbArc
 50
56.5066652144
 51
123.4933347856
  0
ARC
  5
6DB
100
AcDbEntity
  8
IMPORT_IGES
100
AcDbCircle
 62
253
  6
CONTINUOUS
 10
-0.675
 20
2.181099574
 40
5.0999439942
100
AcDbArc
 50
56.5066652143
 51
123.4933347857
  0
ARC
  5
6DC
100
AcDbEntity
  8
IMPORT_IGES
100
AcDbCircle
 62
7
  6
CONTINUOUS
 10
0.0423919684
 20
3.2652346042
 40
4.0
100
AcDbArc
 50
7.571081337
 51
56.5066652144
  0
ARC
  5
6DD
100
AcDbEntity
  8
IMPORT_IGES
100
AcDbCircle
 62
253
  6
CONTINUOUS
 10
0.0423919684
 20
3.2652346042
 40
3.8
100
AcDbArc
 50
7.5710813354
 51
56.5066652143
  0
ARC
  5
6DE
100
AcDbEntity
  8
IMPORT_IGES
100
AcDbCircle
 62
7
  6
CONTINUOUS
 10
0.225
 20
3.85
 40
0.3
100
AcDbArc
 50
180.0
 51
270.0
  0
ARC
  5
6DF
100
AcDbEntity
  8
IMPORT_IGES
100
AcDbCircle
 62
7
  6
CONTINUOUS
 10
4.425
 20
-0.455
 40
0.6
100
AcDbArc
 50
180.0
 51
270.0
  0
ARC
  5
6E0
100
AcDbEntity
  8
IMPORT_IGES
100
AcDbCircle
 62
7
  6
CONTINUOUS
 10
4.775
 20
-0.455
 40
0.6
100
AcDbArc
 50
269.9999999999
 51
360.0
  0
ARC
  5
6E1
100
AcDbEntity
  8
IMPORT_IGES
100
AcDbCircle
 62
253
  6
CONTINUOUS
 10
4.775
 20
-0.455
 40
0.3
100
AcDbArc
 50
270.0000000001
 51
359.9999999999
  0
ARC
  5
6E2
100
AcDbEntity
  8
IMPORT_IGES
100
AcDbCircle
 62
253
  6
CONTINUOUS
 10
4.425
 20
-0.455
 40
0.3
100
AcDbArc
 50
180.0
 51
270.0
  0
ARC
  5
6E3
100
AcDbEntity
  8
IMPORT_IGES
100
AcDbCircle
 62
253
  6
CONTINUOUS
 10
3.125
 20
3.3132052805
 40
0.7
100
AcDbArc
 50
270.1612141257
 51
354.4162937363
  0
ARC
  5
6E4
100
AcDbEntity
  8
IMPORT_IGES
100
AcDbCircle
 62
7
  6
CONTINUOUS
 10
3.412751337
 20
3.7132052805
 40
0.6
100
AcDbArc
 50
269.9999999428
 51
7.5710813447
  0
ARC
  5
6E5
100
AcDbEntity
  8
IMPORT_IGES
100
AcDbCircle
 62
253
  6
CONTINUOUS
 10
3.412751337
 20
3.7132052805
 40
0.4
100
AcDbArc
 50
270.0000000002
 51
7.5710813353
  0
ARC
  5
6E6
100
AcDbEntity
  8
IMPORT_IGES
100
AcDbCircle
 62
253
  6
CONTINUOUS
 10
4.375
 20
1.945
 40
1.3
100
AcDbArc
 50
0.0
 51
90.0
  0
ARC
  5
6E7
100
AcDbEntity
  8
IMPORT_IGES
100
AcDbCircle
 62
7
  6
CONTINUOUS
 10
4.375
 20
1.945
 40
1.0
100
AcDbArc
 50
0.0
 51
90.0
  0
ARC
  5
6E8
100
AcDbEntity
  8
IMPORT_IGES
100
AcDbCircle
 62
253
  6
CONTINUOUS
 10
4.375
 20
1.945
 40
0.7
100
AcDbArc
 50
0.0
 51
90.0
  0
ARC
  5
6E9
100
AcDbEntity
  8
IMPORT_IGES
100
AcDbCircle
 62
7
  6
CONTINUOUS
 10
3.9696828416
 20
2.3283292674
 40
0.6
100
AcDbArc
 50
205.1232936644
 51
256.0468877463
  0
ARC
  5
6EA
100
AcDbEntity
  8
IMPORT_IGES
100
AcDbCircle
 62
7
  6
CONTINUOUS
 10
4.125
 20
2.645
 40
0.3
100
AcDbArc
 50
90.0000000003
 51
179.9999999994
  0
ARC
  5
6EB
100
AcDbEntity
  8
IMPORT_IGES
100
AcDbCircle
 62
7
  6
CONTINUOUS
 10
5.7305080062
 20
6.3399886066
 40
1.905513565
100
AcDbArc
 50
1.8627654693
 51
179.8604365352
  0
ARC
  5
6EC
100
AcDbEntity
  8
IMPORT_IGES
100
AcDbCircle
 62
253
  6
CONTINUOUS
 10
5.7305080062
 20
6.3399886066
 40
1.605485616
100
AcDbArc
 50
1.8712366982
 51
179.8439250555
  0
ARC
  5
6ED
100
AcDbEntity
  8
IMPORT_IGES
100
AcDbCircle
 62
253
  6
CONTINUOUS
 10
3.9590502541
 20
7.0565416876
 40
0.7
100
AcDbArc
 50
190.0134321878
 51
259.2439469407
  0
ARC
  5
6EE
100
AcDbEntity
  8
IMPORT_IGES
100
AcDbCircle
 62
7
  6
CONTINUOUS
 10
3.9590502541
 20
7.0565416876
 40
0.5
100
AcDbArc
 50
190.0134321878
 51
256.3053094334
  0
ARC
  5
6EF
100
AcDbEntity
  8
IMPORT_IGES
100
AcDbCircle
 62
7
  6
CONTINUOUS
 10
3.125
 20
10.75
 40
0.2
100
AcDbArc
 50
0.0000000002
 51
90.0
  0
ARC
  5
6F0
100
AcDbEntity
  8
IMPORT_IGES
100
AcDbCircle
 62
7
  6
CONTINUOUS
 10
5.725
 20
11.05
 40
0.1
100
AcDbArc
 50
0.0000000001
 51
90.0014633388
  0
ARC
  5
6F1
100
AcDbEntity
  8
IMPORT_IGES
100
AcDbCircle
 62
7
  6
CONTINUOUS
 10
5.925
 20
11.05
 40
0.1
100
AcDbArc
 50
179.9999999999
 51
269.9971105898
  0
ARC
  5
6F2
100
AcDbEntity
  8
IMPORT_IGES
100
AcDbCircle
 62
7
  6
CONTINUOUS
 10
6.375
 20
-0.4710819831
 40
0.2
100
AcDbArc
 50
0.0
 51
89.9855208623
  0
ARC
  5
6F3
100
AcDbEntity
  8
IMPORT_IGES
100
AcDbCircle
 62
253
  6
CONTINUOUS
 10
12.625
 20
8.5866773029
 40
9.5
100
AcDbArc
 50
185.0956903802
 51
190.0134321878
  0
ARC
  5
6F4
100
AcDbEntity
  8
IMPORT_IGES
100
AcDbCircle
 62
7
  6
CONTINUOUS
 10
12.625
 20
8.5866773029
 40
9.3
100
AcDbArc
 50
180.0000007965
 51
190.0134321859
  0
ARC
  5
6F5
100
AcDbEntity
  8
IMPORT_IGES
100
AcDbCircle
 62
7
  6
CONTINUOUS
 10
6.2037960079
 20
10.65
 40
0.3
100
AcDbArc
 50
44.9999520207
 51
89.9997513231
  0
ARC
  5
6F6
100
AcDbEntity
  8
IMPORT_IGES
100
AcDbCircle
 62
7
  6
CONTINUOUS
 10
7.2815514748
 20
9.5722445332
 40
0.3
100
AcDbArc
 50
1.0
 51
44.9999963826
  0
ARC
  5
6F7
100
AcDbEntity
  8
IMPORT_IGES
100
AcDbCircle
 62
7
  6
CONTINUOUS
 10
6.528
 20
10.4672173642
 40
0.2
100
AcDbArc
 50
44.9999998017
 51
180.0
  0
ELLIPSE
  5
6F8
100
AcDbEntity
  8
IMPORT_IGES
100
AcDbEllipse
 62
7
  6
CONTINUOUS
 10
-6.0976866561
 20
-9.2500290004
 30
0.0
 11
0.0
 21
2.0
 31
0.0
 40
0.0633224816
 41
-3.4571714601
 42
-3.1415926536
  0
ELLIPSE
  5
6F9
100
AcDbEntity
  8
IMPORT_IGES
100
AcDbEllipse
 62
7
  6
CONTINUOUS
 10
4.7476866561
 20
-9.2500290004
 30
0.0
 11
0.0
 21
2.0
 31
0.0
 40
0.0633224816
 41
-3.1415926536
 42
-2.8260139546
  0
ELLIPSE
  5
6FA
100
AcDbEntity
  8
IMPORT_IGES
100
AcDbEllipse
 62
7
  6
CONTINUOUS
 10
-2.3798535023
 20
-3.6893437143
 30
0.0
 11
0.3
 21
-0.0
 31
0.0
 40
0.0238095238
 41
-0.0
 42
1.5707963268
  0
ELLIPSE
  5
6FB
100
AcDbEntity
  8
IMPORT_IGES
100
AcDbEllipse
 62
7
  6
CONTINUOUS
 10
1.1298535023
 20
4.3372234626
 30
0.0
 11
0.1302818482
 21
0.6877693218
 31
0.0
 40
1.0
 41
-4.5251804518
 42
-3.5626297039
  0
ELLIPSE
  5
6FC
100
AcDbEntity
  8
IMPORT_IGES
100
AcDbEllipse
 62
7
  6
CONTINUOUS
 10
-2.4798535023
 20
4.3372234626
 30
0.0
 11
0.3456708834
 21
0.6086966735
 31
0.0
 40
1.0
 41
-2.0168748885
 42
-1.0543241407
  0
ELLIPSE
  5
6FD
100
AcDbEntity
  8
IMPORT_IGES
100
AcDbEllipse
 62
7
  6
CONTINUOUS
 10
1.9298535023
 20
3.5761904762
 30
0.0
 11
0.3
 21
-0.0
 31
0.0
 40
0.0158730159
 41
-1.5707963268
 42
0.0
  0
ELLIPSE
  5
6FE
100
AcDbEntity
  8
IMPORT_IGES
100
AcDbEllipse
 62
7
  6
CONTINUOUS
 10
1.9298535023
 20
-3.6893437143
 30
0.0
 11
0.3
 21
-0.0
 31
0.0
 40
0.0238095238
 41
0.7734969708
 42
1.5707963268
  0
ELLIPSE
  5
6FF
100
AcDbEntity
  8
IMPORT_IGES
100
AcDbEllipse
 62
7
  6
CONTINUOUS
 10
-2.3798535023
 20
3.5761904762
 30
0.0
 11
0.3
 21
-0.0
 31
0.0
 40
0.0158730159
 41
-1.5707963268
 42
0.0
  0
ELLIPSE
  5
700
100
AcDbEntity
  8
IMPORT_IGES
100
AcDbEllipse
 62
7
  6
CONTINUOUS
 10
1.0298535023
 20
3.5761904762
 30
0.0
 11
0.3
 21
0.0
 31
0.0
 40
0.0158730159
 41
-3.1415926536
 42
-1.5707963268
  0
ELLIPSE
  5
701
100
AcDbEntity
  8
IMPORT_IGES
100
AcDbEllipse
 62
7
  6
CONTINUOUS
 10
-5.0798535023
 20
7.6101398601
 30
0.0
 11
0.3
 21
0.0
 31
0.0
 40
0.020979021
 41
-0.5228872352
 42
-0.0
  0
ELLIPSE
  5
702
100
AcDbEntity
  8
IMPORT_IGES
100
AcDbEllipse
 62
7
  6
CONTINUOUS
 10
-2.4699012909
 20
-4.4724425069
 30
0.0
 11
0.0453579273
 21
0.6985289245
 31
0.0
 40
1.0
 41
-1.3371269504
 42
-0.5261809443
  0
ELLIPSE
  5
703
100
AcDbEntity
  8
IMPORT_IGES
100
AcDbEllipse
 62
7
  6
CONTINUOUS
 10
1.0298535023
 20
-3.6893437143
 30
0.0
 11
0.3
 21
-0.0
 31
0.0
 40
0.0238095238
 41
1.5707963268
 42
3.1415926536
  0
ELLIPSE
  5
704
100
AcDbEntity
  8
IMPORT_IGES
100
AcDbEllipse
 62
7
  6
CONTINUOUS
 10
1.1199012909
 20
-4.4724425069
 30
0.0
 11
-0.3770143572
 21
0.589796723
 31
0.0
 40
1.0
 41
0.0222583543
 42
0.8332043604
  0
ELLIPSE
  5
705
100
AcDbEntity
  8
IMPORT_IGES
100
AcDbEllipse
 62
7
  6
CONTINUOUS
 10
-3.2798535023
 20
3.5761904762
 30
0.0
 11
0.3
 21
0.0
 31
0.0
 40
0.0158730159
 41
3.1415926536
 42
4.7123889804
  0
ELLIPSE
  5
706
100
AcDbEntity
  8
IMPORT_IGES
100
AcDbEllipse
 62
7
  6
CONTINUOUS
 10
-3.2798535023
 20
-3.6893437143
 30
0.0
 11
0.3
 21
-0.0
 31
0.0
 40
0.0238095238
 41
1.5707963268
 42
2.3680956255
  0
ELLIPSE
  5
707
100
AcDbEntity
  8
IMPORT_IGES
100
AcDbEllipse
 62
7
  6
CONTINUOUS
 10
6.775
 20
-6.4663853497
 30
0.0
 11
0.0
 21
1.5881180375
 31
0.0
 40
0.1259352235
 41
-4.7123889803
 42
-3.4987217427
  0
ELLIPSE
  5
708
100
AcDbEntity
  8
IMPORT_IGES
100
AcDbEllipse
 62
7
  6
CONTINUOUS
 10
-6.225
 20
-6.4663853496
 30
0.0
 11
0.0
 21
1.5881180375
 31
0.0
 40
0.1259352235
 41
-4.7123889803
 42
-3.4987217427
  0
ELLIPSE
  5
709
100
AcDbEntity
  8
RACCORDO
100
AcDbEllipse
 62
7
  6
CONTINUOUS
 10
9.974923836
 20
21.891254093
 30
0.0
 11
0.4473055582
 21
-0.2236357461
 31
0.0
 40
0.9998096356
 41
6.7467263073
 42
8.3176749331
  0
ELLIPSE
  5
70A
100
AcDbEntity
  8
RACCORDO
100
AcDbEllipse
 62
7
  6
CONTINUOUS
 10
5.8011468978
 20
-19.8
 30
0.0
 11
-0.0
 21
0.5
 31
0.0
 40
0.0058178298
 41
-1.5707963268
 42
0.0
  0
ELLIPSE
  5
70B
100
AcDbEntity
  8
ASSI
100
AcDbEllipse
 62
7
  6
CONTINUOUS
 10
3.6813662764
 20
-23.2563578147
 30
0.0
 11
0.0
 21
0.5
 31
0.0
 40
0.0058178298
 41
-3.2911896616
 42
-3.1474104178
  0
ELLIPSE
  5
70C
100
AcDbEntity
  8
ASSI
100
AcDbEllipse
 62
7
  6
CONTINUOUS
 10
-5.0313662764
 20
-23.2563578147
 30
0.0
 11
-0.0
 21
0.5
 31
0.0
 40
0.0058178298
 41
-3.1357748894
 42
-2.9919956456
  0
ELLIPSE
  5
70D
100
AcDbEntity
  8
ASSI
100
AcDbEllipse
 62
7
  6
CONTINUOUS
 10
-5.0313662764
 20
23.2563578147
 30
0.0
 11
0.0
 21
0.5
 31
0.0
 40
0.0058178298
 41
-0.149597008
 42
-0.0058177642
  0
ELLIPSE
  5
70E
100
AcDbEntity
  8
ASSI
100
AcDbEllipse
 62
7
  6
CONTINUOUS
 10
3.6813662764
 20
23.2563578147
 30
0.0
 11
0.0
 21
0.5
 31
0.0
 40
0.0058178298
 41
0.0058177642
 42
0.149597008
  0
ELLIPSE
  5
70F
100
AcDbEntity
  8
RACCORDO
100
AcDbEllipse
 62
7
  6
CONTINUOUS
 10
8.2553794106
 20
-11.5872686779
 30
0.0
 11
0.3
 21
0.0
 31
0.0
 40
0.0087268678
 41
-1.5707963268
 42
-0.3490658504
  0
ELLIPSE
  5
710
100
AcDbEntity
  8
RACCORDO
100
AcDbEllipse
 62
7
  6
CONTINUOUS
 10
-4.875
 20
-19.9973819397
 30
0.0
 11
0.3
 21
-0.0
 31
0.0
 40
0.0087268678
 41
-3.1415926536
 42
-1.5707963268
  0
ELLIPSE
  5
711
100
AcDbEntity
  8
RACCORDO
100
AcDbEllipse
 62
7
  6
CONTINUOUS
 10
6.6488531022
 20
-19.8
 30
0.0
 11
0.0
 21
0.5
 31
0.0
 40
0.0058178298
 41
0.0
 42
1.5707963268
  0
ELLIPSE
  5
712
100
AcDbEntity
  8
RACCORDO
100
AcDbEllipse
 62
7
  6
CONTINUOUS
 10
-7.1511468978
 20
-19.8
 30
0.0
 11
0.0
 21
0.5
 31
0.0
 40
0.0058178298
 41
0.0
 42
1.5707963268
  0
ELLIPSE
  5
713
100
AcDbEntity
  8
RACCORDO
100
AcDbEllipse
 62
7
  6
CONTINUOUS
 10
-10.2534342338
 20
-19.8
 30
0.0
 11
-0.0
 21
0.5
 31
0.0
 40
0.0174550649
 41
-0.0
 42
1.5707963268
  0
ELLIPSE
  5
714
100
AcDbEntity
  8
RACCORDO
100
AcDbEllipse
 62
7
  6
CONTINUOUS
 10
-7.6749809608
 20
10.3999809608
 30
0.0
 11
-0.3535803155
 21
0.3535803156
 31
0.0
 40
0.9999238505
 41
-0.4800406147
 42
0.6724321788
  0
ELLIPSE
  5
715
100
AcDbEntity
  8
RACCORDO
100
AcDbEllipse
 62
7
  6
CONTINUOUS
 10
-7.6749809608
 20
10.3999809608
 30
0.0
 11
0.3535803156
 21
-0.3535803156
 31
0.0
 40
0.9999238505
 41
2.4521872415
 42
2.6615520388
  0
ELLIPSE
  5
716
100
AcDbEntity
  8
RACCORDO
100
AcDbEllipse
 62
7
  6
CONTINUOUS
 10
6.3249809608
 20
10.3999809608
 30
0.0
 11
0.3535803156
 21
0.3535803156
 31
0.0
 40
0.9999238505
 41
-0.6724321787
 42
0.689404366
  0
ELLIPSE
  5
717
100
AcDbEntity
  8
RACCORDO
100
AcDbEllipse
 62
7
  6
CONTINUOUS
 10
6.3249809608
 20
-13.3999809608
 30
0.0
 11
0.3535803156
 21
-0.3535803156
 31
0.0
 40
0.9999238505
 41
-0.7853600872
 42
0.7853600872
  0
ELLIPSE
  5
718
100
AcDbEntity
  8
RACCORDO
100
AcDbEllipse
 62
7
  6
CONTINUOUS
 10
-7.6749809608
 20
-13.3999809608
 30
0.0
 11
0.3535803156
 21
0.3535803156
 31
0.0
 40
0.9999238505
 41
2.3562325664
 42
3.9269527408
  0
ELLIPSE
  5
719
100
AcDbEntity
  8
RACCORDO
100
AcDbEllipse
 62
7
  6
CONTINUOUS
 10
-11.0749957691
 20
-23.4113248654
 30
0.0
 11
-0.0029088041
 21
0.2886641433
 31
0.0
 40
0.8660144118
 41
-0.0087264124
 42
1.5591610446
  0
ELLIPSE
  5
71A
100
AcDbEntity
  8
RACCORDO
100
AcDbEllipse
 62
7
  6
CONTINUOUS
 10
-9.1750042309
 20
-23.4113248654
 30
0.0
 11
0.0029088041
 21
0.2886641433
 31
0.0
 40
0.8660144118
 41
-1.5591610446
 42
0.0087264124
  0
ELLIPSE
  5
71B
100
AcDbEntity
  8
RACCORDO
100
AcDbEllipse
 62
7
  6
CONTINUOUS
 10
7.8250042309
 20
-23.4113248654
 30
0.0
 11
-0.0029088041
 21
0.2886641433
 31
0.0
 40
0.8660144118
 41
-0.0087264124
 42
1.5591610446
  0
ELLIPSE
  5
71C
100
AcDbEntity
  8
RACCORDO
100
AcDbEllipse
 62
7
  6
CONTINUOUS
 10
8.2553794106
 20
-12.4127313221
 30
0.0
 11
0.3
 21
0.0
 31
0.0
 40
0.0087268678
 41
0.3490658504
 42
1.5707963268
  0
ELLIPSE
  5
71D
100
AcDbEntity
  8
RACCORDO
100
AcDbEllipse
 62
7
  6
CONTINUOUS
 10
-9.6053794106
 20
-12.4127313221
 30
0.0
 11
0.3
 21
-0.0
 31
0.0
 40
0.0087268678
 41
1.5707963268
 42
2.7925268032
  0
ELLIPSE
  5
71E
100
AcDbEntity
  8
RACCORDO
100
AcDbEllipse
 62
7
  6
CONTINUOUS
 10
8.2553794106
 20
8.8127313221
 30
0.0
 11
0.3
 21
0.0
 31
0.0
 40
0.0087268678
 41
-1.5707963268
 42
-0.3490658504
  0
ELLIPSE
  5
71F
100
AcDbEntity
  8
RACCORDO
100
AcDbEllipse
 62
7
  6
CONTINUOUS
 10
-9.6053794106
 20
8.8127313221
 30
0.0
 11
0.3
 21
-0.0
 31
0.0
 40
0.0087268678
 41
-2.7925268032
 42
-1.5707963268
  0
ELLIPSE
  5
720
100
AcDbEntity
  8
RACCORDO
100
AcDbEllipse
 62
7
  6
CONTINUOUS
 10
9.7249957691
 20
-23.4113248654
 30
0.0
 11
0.0029088041
 21
0.2886641433
 31
0.0
 40
0.8660144118
 41
-1.5591610446
 42
0.0087264124
  0
ELLIPSE
  5
721
100
AcDbEntity
  8
RACCORDO
100
AcDbEllipse
 62
7
  6
CONTINUOUS
 10
-11.0749957691
 20
23.4113248654
 30
0.0
 11
0.0029088041
 21
0.2886641433
 31
0.0
 40
0.8660144118
 41
-4.7007536982
 42
-3.1328662411
  0
ELLIPSE
  5
722
100
AcDbEntity
  8
RACCORDO
100
AcDbEllipse
 62
7
  6
CONTINUOUS
 10
-7.4872642439
 20
-13.8127313221
 30
0.0
 11
0.3
 21
0.0
 31
0.0
 40
0.0087268678
 41
0.0174532925
 42
1.5707963268
  0
ELLIPSE
  5
723
100
AcDbEntity
  8
RACCORDO
100
AcDbEllipse
 62
7
  6
CONTINUOUS
 10
6.1372642439
 20
-13.8127313221
 30
0.0
 11
0.3
 21
-0.0
 31
0.0
 40
0.0087268678
 41
1.5707963268
 42
3.1241393611
  0
ELLIPSE
  5
724
100
AcDbEntity
  8
RACCORDO
100
AcDbEllipse
 62
7
  6
CONTINUOUS
 10
8.8458325195
 20
-15.2792978419
 30
0.0
 11
0.0
 21
0.5
 31
0.0
 40
0.0174550649
 41
-1.5707963268
 42
-0.0523598776
  0
ELLIPSE
  5
725
100
AcDbEntity
  8
RACCORDO
100
AcDbEllipse
 62
7
  6
CONTINUOUS
 10
-9.1750042309
 20
23.4113248654
 30
0.0
 11
-0.0029088041
 21
0.2886641433
 31
0.0
 40
0.8660144118
 41
-3.150319066
 42
-1.582431609
  0
ELLIPSE
  5
726
100
AcDbEntity
  8
RACCORDO
100
AcDbEllipse
 62
7
  6
CONTINUOUS
 10
-10.1958325195
 20
-15.2792978419
 30
0.0
 11
0.0
 21
0.5
 31
0.0
 40
0.0174550649
 41
0.0523598776
 42
1.5707963268
  0
ELLIPSE
  5
727
100
AcDbEntity
  8
RACCORDO
100
AcDbEllipse
 62
7
  6
CONTINUOUS
 10
8.2553794106
 20
-0.4127313221
 30
0.0
 11
0.3
 21
-0.0
 31
0.0
 40
0.0087268678
 41
0.3490658504
 42
1.5707963268
  0
ELLIPSE
  5
728
100
AcDbEntity
  8
RACCORDO
100
AcDbEllipse
 62
7
  6
CONTINUOUS
 10
8.2553794106
 20
0.4127313221
 30
0.0
 11
0.3
 21
0.0
 31
0.0
 40
0.0087268678
 41
-1.5707963268
 42
-0.3490658504
  0
ELLIPSE
  5
729
100
AcDbEntity
  8
RACCORDO
100
AcDbEllipse
 62
7
  6
CONTINUOUS
 10
-9.6053794106
 20
0.4127313221
 30
0.0
 11
0.3
 21
-0.0
 31
0.0
 40
0.0087268678
 41
-2.7925268032
 42
-1.5707963268
  0
ELLIPSE
  5
72A
100
AcDbEntity
  8
RACCORDO
100
AcDbEllipse
 62
7
  6
CONTINUOUS
 10
-9.6053794106
 20
-0.4127313221
 30
0.0
 11
0.3
 21
-0.0
 31
0.0
 40
0.0087268678
 41
1.5707963268
 42
2.7925268032
  0
ELLIPSE
  5
72B
100
AcDbEntity
  8
RACCORDO
100
AcDbEllipse
 62
7
  6
CONTINUOUS
 10
7.7377313221
 20
6.2872801014
 30
0.0
 11
-0.0
 21
0.3
 31
0.0
 40
0.0087268678
 41
-4.7123889804
 42
-3.1503192998
  0
ELLIPSE
  5
72C
100
AcDbEntity
  8
RACCORDO
100
AcDbEllipse
 62
7
  6
CONTINUOUS
 10
7.8250042309
 20
23.4113248654
 30
0.0
 11
0.0029088041
 21
0.2886641433
 31
0.0
 40
0.8660144118
 41
-4.7007536982
 42
-3.1328662411
  0
ELLIPSE
  5
72D
100
AcDbEntity
  8
RACCORDO
100
AcDbEllipse
 62
7
  6
CONTINUOUS
 10
8.2553794106
 20
-7.2872686779
 30
0.0
 11
0.3
 21
0.0
 31
0.0
 40
0.0087268678
 41
-1.5707963268
 42
-0.3490658504
  0
ELLIPSE
  5
72E
100
AcDbEntity
  8
RACCORDO
100
AcDbEllipse
 62
7
  6
CONTINUOUS
 10
9.7249957691
 20
23.4113248654
 30
0.0
 11
-0.0029088041
 21
0.2886641433
 31
0.0
 40
0.8660144118
 41
-3.150319066
 42
-1.582431609
  0
ELLIPSE
  5
72F
100
AcDbEntity
  8
RACCORDO
100
AcDbEllipse
 62
7
  6
CONTINUOUS
 10
-9.0877313221
 20
6.2872801014
 30
0.0
 11
0.0
 21
0.3
 31
0.0
 40
0.0087268678
 41
-3.1328660073
 42
-1.5707963268
  0
ELLIPSE
  5
730
100
AcDbEntity
  8
RACCORDO
100
AcDbEllipse
 62
7
  6
CONTINUOUS
 10
-9.6053794106
 20
-7.2872686779
 30
0.0
 11
0.3
 21
-0.0
 31
0.0
 40
0.0087268678
 41
-2.7925268032
 42
-1.5707963268
  0
ELLIPSE
  5
731
100
AcDbEntity
  8
RACCORDO
100
AcDbEllipse
 62
7
  6
CONTINUOUS
 10
-9.6053794106
 20
-11.5872686779
 30
0.0
 11
0.3
 21
-0.0
 31
0.0
 40
0.0087268678
 41
-2.7925268032
 42
-1.5707963268
  0
ELLIPSE
  5
732
100
AcDbEntity
  8
RACCORDO
100
AcDbEllipse
 62
7
  6
CONTINUOUS
 10
-8.2591007192
 20
-20.9916321118
 30
0.0
 11
0.5
 21
0.0
 31
0.0
 40
0.0087268678
 41
-3.1241393611
 42
-1.5707963268
  0
ELLIPSE
  5
733
100
AcDbEntity
  8
RACCORDO
100
AcDbEllipse
 62
7
  6
CONTINUOUS
 10
6.9091007192
 20
-20.9916321118
 30
0.0
 11
0.5
 21
-0.0
 31
0.0
 40
0.0087268678
 41
-1.5707963268
 42
-0.0174532925
  0
ELLIPSE
  5
734
100
AcDbEntity
  8
RACCORDO
100
AcDbEllipse
 62
7
  6
CONTINUOUS
 10
3.525
 20
-19.9973819397
 30
0.0
 11
0.3
 21
-0.0
 31
0.0
 40
0.0087268678
 41
-1.5707963268
 42
0.0
  0
ELLIPSE
  5
735
100
AcDbEntity
  8
RACCORDO
100
AcDbEllipse
 62
7
  6
CONTINUOUS
 10
-8.2591007192
 20
20.9916321118
 30
0.0
 11
0.5
 21
0.0
 31
0.0
 40
0.0087268678
 41
1.5707963268
 42
3.1241393611
  0
ELLIPSE
  5
736
100
AcDbEntity
  8
RACCORDO
100
AcDbEllipse
 62
7
  6
CONTINUOUS
 10
-7.9988531022
 20
-19.8
 30
0.0
 11
-0.0
 21
0.5
 31
0.0
 40
0.0058178298
 41
-1.5707963268
 42
0.0
  0
ELLIPSE
  5
737
100
AcDbEntity
  8
RACCORDO
100
AcDbEllipse
 62
7
  6
CONTINUOUS
 10
6.9091007192
 20
20.9916321118
 30
0.0
 11
0.5
 21
0.0
 31
0.0
 40
0.0087268678
 41
0.0174532925
 42
1.5707963268
  0
ELLIPSE
  5
738
100
AcDbEntity
  8
RACCORDO
100
AcDbEllipse
 62
7
  6
CONTINUOUS
 10
-7.2302693832
 20
-20.5829242832
 30
0.0
 11
0.0
 21
0.5
 31
0.0
 40
0.0058178298
 41
0.0087266463
 42
1.5707963268
  0
ELLIPSE
  5
739
100
AcDbEntity
  8
RACCORDO
100
AcDbEllipse
 62
7
  6
CONTINUOUS
 10
5.8802693832
 20
-20.5829242832
 30
0.0
 11
0.0
 21
0.5
 31
0.0
 40
0.0058178298
 41
-1.5707963268
 42
-0.0087266463
  0
ELLIPSE
  5
73A
100
AcDbEntity
  8
RACCORDO
100
AcDbEllipse
 62
7
  6
CONTINUOUS
 10
5.8802693832
 20
20.5829242832
 30
0.0
 11
0.0
 21
0.5
 31
0.0
 40
0.0058178298
 41
-3.1328660073
 42
-1.5707963268
  0
ELLIPSE
  5
73B
100
AcDbEntity
  8
RACCORDO
100
AcDbEllipse
 62
7
  6
CONTINUOUS
 10
-7.2302693832
 20
20.5829242832
 30
0.0
 11
0.0
 21
0.5
 31
0.0
 40
0.0058178298
 41
-4.7123889804
 42
-3.1503192998
  0
ELLIPSE
  5
73C
100
AcDbEntity
  8
DRAFT
100
AcDbEllipse
 62
7
  6
CONTINUOUS
 10
-4.6029699877
 20
22.3339198952
 30
0.0
 11
0.4279699877
 21
0.0
 31
0.0
 40
0.0087268678
 41
-3.1357748894
 42
-0.0
  0
ELLIPSE
  5
73D
100
AcDbEntity
  8
DRAFT
100
AcDbEllipse
 62
7
  6
CONTINUOUS
 10
3.2529699877
 20
22.3339198952
 30
0.0
 11
0.4279699877
 21
-0.0
 31
0.0
 40
0.0087268678
 41
-3.1415926536
 42
-0.0058177642
  0
ELLIPSE
  5
73E
100
AcDbEntity
  8
DRAFT
100
AcDbEllipse
 62
7
  6
CONTINUOUS
 10
-4.6029699877
 20
-22.3339198952
 30
0.0
 11
0.4279699877
 21
0.0
 31
0.0
 40
0.0087268678
 41
-0.0
 42
3.1357748894
  0
ELLIPSE
  5
73F
100
AcDbEntity
  8
DRAFT
100
AcDbEllipse
 62
7
  6
CONTINUOUS
 10
3.2529699877
 20
-22.3339198952
 30
0.0
 11
0.4279699877
 21
0.0
 31
0.0
 40
0.0087268678
 41
0.0058177642
 42
3.1415926536
  0
ELLIPSE
  5
740
100
AcDbEntity
  8
RACCORDO
100
AcDbEllipse
 62
7
  6
CONTINUOUS
 10
8.2553794106
 20
7.9872686779
 30
0.0
 11
0.3
 21
0.0
 31
0.0
 40
0.0087268678
 41
0.3490658504
 42
1.5707963268
  0
ELLIPSE
  5
741
100
AcDbEntity
  8
RACCORDO
100
AcDbEllipse
 62
7
  6
CONTINUOUS
 10
-9.6053794106
 20
7.9872686779
 30
0.0
 11
0.3
 21
-0.0
 31
0.0
 40
0.0087268678
 41
1.5707963268
 42
2.7925268032
  0
ELLIPSE
  5
742
100
AcDbEntity
  8
RACCORDO
100
AcDbEllipse
 62
7
  6
CONTINUOUS
 10
-6.8749543016
 20
-13.5000456984
 30
0.0
 11
0.2121966568
 21
-0.2121966568
 31
0.0
 40
0.9996954599
 41
2.3563467834
 42
3.9268385237
  0
ELLIPSE
  5
743
100
AcDbEntity
  8
RACCORDO
100
AcDbEllipse
 62
7
  6
CONTINUOUS
 10
5.5249543016
 20
-13.5000456984
 30
0.0
 11
-0.2121966568
 21
-0.2121966568
 31
0.0
 40
0.9996954599
 41
2.3563467834
 42
3.9268385237
  0
ELLIPSE
  5
744
100
AcDbEntity
  8
RACCORDO
100
AcDbEllipse
 62
7
  6
CONTINUOUS
 10
6.2350942226
 20
-13.3100942226
 30
0.0
 11
-0.3535803156
 21
0.3535803156
 31
0.0
 40
0.9999238505
 41
2.3562325664
 42
3.9269527408
  0
ELLIPSE
  5
745
100
AcDbEntity
  8
RACCORDO
100
AcDbEllipse
 62
7
  6
CONTINUOUS
 10
-11.324923836
 20
21.891254093
 30
0.0
 11
0.4473055582
 21
0.2236357461
 31
0.0
 40
0.9998096356
 41
1.1071030277
 42
2.6780516535
  0
ELLIPSE
  5
746
100
AcDbEntity
  8
RACCORDO
100
AcDbEllipse
 62
7
  6
CONTINUOUS
 10
-7.5850942226
 20
-13.3100942226
 30
0.0
 11
-0.3535803156
 21
-0.3535803156
 31
0.0
 40
0.9999238505
 41
-0.7853600872
 42
0.7853600872
  0
ELLIPSE
  5
747
100
AcDbEntity
  8
RACCORDO
100
AcDbEllipse
 62
7
  6
CONTINUOUS
 10
9.974923836
 20
-21.891254093
 30
0.0
 11
-0.4473055582
 21
-0.2236357461
 31
0.0
 40
0.9998096356
 41
1.1071030277
 42
2.6780516535
  0
ELLIPSE
  5
748
100
AcDbEntity
  8
RACCORDO
100
AcDbEllipse
 62
7
  6
CONTINUOUS
 10
8.9034342338
 20
-19.8
 30
0.0
 11
0.0
 21
0.5
 31
0.0
 40
0.0174550649
 41
-1.5707963268
 42
0.0
  0
ELLIPSE
  5
749
100
AcDbEntity
  8
RACCORDO
100
AcDbEllipse
 62
7
  6
CONTINUOUS
 10
8.4120856022
 20
-20.2106458216
 30
0.0
 11
-0.1582391023
 21
0.4751033573
 31
0.0
 40
0.9984778551
 41
2.8205423031
 42
4.3904252414
  0
ELLIPSE
  5
74A
100
AcDbEntity
  8
RACCORDO
100
AcDbEllipse
 62
7
  6
CONTINUOUS
 10
8.474923836
 20
-20.399313827
 30
0.0
 11
-0.1582391023
 21
0.4751033573
 31
0.0
 40
0.9984778551
 41
-3.4626430041
 42
-1.8927600658
  0
ELLIPSE
  5
74B
100
AcDbEntity
  8
RACCORDO
100
AcDbEllipse
 62
7
  6
CONTINUOUS
 10
8.474923836
 20
20.399313827
 30
0.0
 11
0.1582391023
 21
0.4751033573
 31
0.0
 40
0.9984778551
 41
-1.2488325878
 42
0.3210503505
  0
ELLIPSE
  5
74C
100
AcDbEntity
  8
RACCORDO
100
AcDbEllipse
 62
7
  6
CONTINUOUS
 10
8.3195737581
 20
19.9328845914
 30
0.0
 11
-0.1582391023
 21
-0.4751033573
 31
0.0
 40
0.9984778551
 41
1.8927600658
 42
3.4626430041
  0
ELLIPSE
  5
74D
100
AcDbEntity
  8
RACCORDO
100
AcDbEllipse
 62
7
  6
CONTINUOUS
 10
-9.6695737581
 20
19.9328845914
 30
0.0
 11
-0.1582391023
 21
0.4751033573
 31
0.0
 40
0.9984778551
 41
-0.3210503505
 42
1.2488325878
  0
ELLIPSE
  5
74E
100
AcDbEntity
  8
RACCORDO
100
AcDbEllipse
 62
7
  6
CONTINUOUS
 10
-9.824923836
 20
20.399313827
 30
0.0
 11
-0.1582391023
 21
0.4751033573
 31
0.0
 40
0.9984778551
 41
-0.3210503505
 42
1.2488325878
  0
ELLIPSE
  5
74F
100
AcDbEntity
  8
RACCORDO
100
AcDbEllipse
 62
7
  6
CONTINUOUS
 10
-9.824923836
 20
-20.399313827
 30
0.0
 11
0.1582391023
 21
0.4751033573
 31
0.0
 40
0.9984778551
 41
-4.3904252414
 42
-2.8205423031
  0
ELLIPSE
  5
750
100
AcDbEntity
  8
RACCORDO
100
AcDbEllipse
 62
7
  6
CONTINUOUS
 10
-9.7620856022
 20
-20.2106458216
 30
0.0
 11
-0.1582391023
 21
-0.4751033573
 31
0.0
 40
0.9984778551
 41
-1.2488325878
 42
0.3210503505
  0
ELLIPSE
  5
751
100
AcDbEntity
  8
RACCORDO
100
AcDbEllipse
 62
7
  6
CONTINUOUS
 10
-11.324923836
 20
-21.891254093
 30
0.0
 11
-0.4473055582
 21
0.2236357461
 31
0.0
 40
0.9998096356
 41
6.7467263073
 42
8.3176749331
  0
ENDSEC
  0
SECTION
  2
OBJECTS
  0
DICTIONARY
  5
C
100
AcDbDictionary
280
0
281
1
  3
ACAD_GROUP
350
D
  3
ACAD_MLINESTYLE
350
17
  3
ACAD_LAYOUT
350
1A
  3
ACAD_PLOTSETTINGS
350
19
  3
ACAD_PLOTSTYLENAME
350
E
  0
DICTIONARY
  5
D
102
{ACAD_REACTORS
330
C
102
}
100
AcDbDictionary
280
0
281
1
  0
ACDBDICTIONARYWDFLT
  5
E
102
{ACAD_REACTORS
330
C
102
}
100
AcDbDictionary
281
1
  3
Normal
350
F
100
AcDbDictionaryWithDefault
340
F
  0
DICTIONARY
  5
17
102
{ACAD_REACTORS
330
C
102
}
100
AcDbDictionary
280
0
281
1
  3
Standard
350
18
  0
DICTIONARY
  5
19
102
{ACAD_REACTORS
330
C
102
}
100
AcDbDictionary
281
1
  0
DICTIONARY
  5
1A
102
{ACAD_REACTORS
330
C
102
}
100
AcDbDictionary
281
1
  3
Model
350
752
  3
Layout1
350
753
  0
ACDBPLACEHOLDER
  5
F
102
{ACAD_REACTORS
330
E
102
}
  0
MLINESTYLE
  5
18
102
{ACAD_REACTORS
330
17
102
}
100
AcDbMlineStyle
  2
STANDARD
 70
0
  3

 62
256
 51
90.0
 52
90.0
 71
2
 49
0.5
 62
256
  6
BYLAYER
 49
-0.5
 62
256
  6
BYLAYER
  0
LAYOUT
  5
752
102
{ACAD_REACTORS
330
1A
102
}
100
AcDbPlotSettings
  1

  2
none_device
  4
ISO_A4_(297.00_x_210.00_MM)
  6

 40
0.0
 41
0.0
 42
0.0
 43
0.0
 44
297.0
 45
210.0
 46
0.0
 47
0.0
 48
0.0
 49
0.0
140
0.0
141
0.0
142
1.0
143
1.0
 70
1024
 72
1
 73
0
 74
0
  7

 75
0
147
1.0
148
0.0
149
0.0
100
AcDbLayout
  1
Model
 70
0
 71
0
 10
0.0
 20
0.0
 11
297.0
 21
210.0
 12
0.0
 22
0.0
 32
0.0
 14
0.0
 24
0.0
 34
0.0
 15
0.0
 25
0.0
 35
0.0
146
0.0
 13
0.0
 23
0.0
 33
0.0
 16
1.0
 26
0.0
 36
0.0
 17
0.0
 27
1.0
 37
0.0
 76
0
330
21E
345
0
346
0
  0
LAYOUT
  5
753
102
{ACAD_REACTORS
330
1A
102
}
100
AcDbPlotSettings
  1

  2
none_device
  4
ISO_A4_(297.00_x_210.00_MM)
  6

 40
0.0
 41
0.0
 42
0.0
 43
0.0
 44
297.0
 45
210.0
 46
0.0
 47
0.0
 48
0.0
 49
0.0
140
0.0
141
0.0
142
1.0
143
1.0
 70
0
 72
1
 73
0
 74
0
  7

 75
0
147
1.0
148
0.0
149
0.0
100
AcDbLayout
  1
Layout1
 70
0
 71
1
 10
0.0
 20
0.0
 11
297.0
 21
210.0
 12
0.0
 22
0.0
 32
0.0
 14
0.0
 24
0.0
 34
0.0
 15
0.0
 25
0.0
 35
0.0
146
0.0
 13
0.0
 23
0.0
 33
0.0
 16
1.0
 26
0.0
 36
0.0
 17
0.0
 27
1.0
 37
0.0
 76
0
330
21F
345
0
346
0
  0
ENDSEC
  0
EOF
