  0
SECTION
  2
HEADER
  9
$ACADVER
  1
AC1015
  9
$DWGCODEPAGE
  3
ANSI_1252
  9
$EXTMAX
 10
297.0
 20
210.0
 30
0.0
  9
$EXTMIN
 10
0.0
 20
0.0
 30
0.0
  9
$LIMMIN
 10
0.0
 20
0.0
  9
$LIMMAX
 10
297.0
 20
210.0
  9
$VIEWCTR
 10
148.5
 20
105.0
  9
$VIEWSIZE
 40
210.0
  9
$CLAYER
  8
0
  9
$LTSCALE
 40
16.335
  9
$CELTYPE
  6
BYLAYER
  9
$DIMSCALE
 40
1.0
  9
$DIMASZ
 40
3.0
  9
$DIMEXO
 40
1.85625
  9
$DIMDLI
 40
11.286
  9
$DIMEXE
 40
5.346
  9
$DIMCEN
 40
2.673
  9
$DIMLFAC
 40
1.0
  9
$DIMBLK
  1
_FILLED
  9
$DIMTXT
 40
3.0
  9
$DIMTOL
 70
1
  9
$DIMLIM
 70
0
  9
$DIMTFAC
 40
1.0
  9
$DIMTP
 40
0.01
  9
$DIMTM
 40
0.01
  9
$PDMODE
 70
3
  9
$PDSIZE
 40
3.0
  9
$HANDSEED
  5
4D8
  9
$TILEMODE
 70
1
  9
$MEASUREMENT
 70
1
  9
$INSUNITS
 70
4
  0
ENDSEC
  0
SECTION
  2
CLASSES
  0
CLASS
  1
ACDBDICTIONARYWDFLT
  2
AcDbDictionaryWithDefault
  3
AutoCAD 2000
 90
0
280
0
281
0
  0
CLASS
  1
ACDBPLACEHOLDER
  2
AcDbPlaceHolder
  3
AutoCAD 2000
 90
0
280
0
281
0
  0
CLASS
  1
LAYOUT
  2
AcDbLayout
  3
AutoCAD 2000
 90
0
280
0
281
0
  0
ENDSEC
  0
SECTION
  2
TABLES
  0
TABLE
  2
VPORT
  5
8
100
AcDbSymbolTable
 70
2
  0
VPORT
  5
1F4
100
AcDbSymbolTableRecord
100
AcDbViewportTableRecord
  2
*ACTIVE
 70
0
 10
0.0
 20
0.0
 11
1.0
 21
1.0
 12
148.5
 22
105.0
 13
0.0
 23
0.0
 14
1.0
 24
1.0
 15
0.0
 25
0.0
 16
0.0
 26
0.0
 36
1.0
 17
0.0
 27
0.0
 37
0.0
 40
210.0
 41
1.4142857143
 42
50.0
 43
0.0
 44
0.0
 50
0.0
 51
0.0
 71
0
 72
100
 73
1
 74
1
 75
0
 76
0
 77
0
 78
0
  0
ENDTAB
  0
TABLE
  2
LTYPE
  5
5
100
AcDbSymbolTable
 70
6
  0
LTYPE
  5
14
100
AcDbSymbolTableRecord
100
AcDbLinetypeTableRecord
  2
BYBLOCK
 70
0
  3

 72
65
 73
0
 40
0.0
  0
LTYPE
  5
15
100
AcDbSymbolTableRecord
100
AcDbLinetypeTableRecord
  2
BYLAYER
 70
0
  3

 72
65
 73
0
 40
0.0
  0
LTYPE
  5
16
100
AcDbSymbolTableRecord
100
AcDbLinetypeTableRecord
  2
CONTINUOUS
 70
64
  3
Solid line
 72
65
 73
0
 40
0.0
  0
LTYPE
  5
1F5
100
AcDbSymbolTableRecord
100
AcDbLinetypeTableRecord
  2
CENTER
 70
64
  3
____ _ ____ _ ____ _ ____ _ ____ _ ____ _ ____
 72
65
 73
4
 40
0.6
 49
0.375
 74
0
 49
-0.075
 74
0
 49
0.075
 74
0
 49
-0.075
 74
0
  0
LTYPE
  5
1F6
100
AcDbSymbolTableRecord
100
AcDbLinetypeTableRecord
  2
HIDDEN
 70
64
  3
- - - - - - - - - - - - - - - - - - - -
 72
65
 73
2
 40
0.2
 49
0.1
 74
0
 49
-0.1
 74
0
  0
LTYPE
  5
1F7
100
AcDbSymbolTableRecord
100
AcDbLinetypeTableRecord
  2
PHANTOM
 70
64
  3
_____ _ _ _____ _ _ _____ _ _ _____
 72
65
 73
6
 40
0.8
 49
0.45
 74
0
 49
-0.05
 74
0
 49
0.1
 74
0
 49
-0.05
 74
0
 49
0.1
 74
0
 49
-0.05
 74
0
  0
LTYPE
  5
1F8
100
AcDbSymbolTableRecord
100
AcDbLinetypeTableRecord
  2
DOT
 70
64
  3
. . . . . . . . . . . . . . . . . . . .
 72
65
 73
2
 40
0.2
 49
0.1
 74
0
 49
-0.1
 74
0
  0
LTYPE
  5
1F9
100
AcDbSymbolTableRecord
100
AcDbLinetypeTableRecord
  2
DASHED
 70
64
  3
- - - - - - - - - - - - - - - - - - - -
 72
65
 73
2
 40
0.2
 49
0.1
 74
0
 49
-0.1
 74
0
  0
ENDTAB
  0
TABLE
  2
LAYER
  5
2
100
AcDbSymbolTable
 70
36
  0
LAYER
  5
10
100
AcDbSymbolTableRecord
100
AcDbLayerTableRecord
  2
0
 70
0
 62
7
  6
CONTINUOUS
370
-3
390
F
  0
LAYER
  5
1FA
100
AcDbSymbolTableRecord
100
AcDbLayerTableRecord
  2
DEFAULT_1
 70
0
 62
7
  6
CENTER
370
-3
390
F
  0
LAYER
  5
1FB
100
AcDbSymbolTableRecord
100
AcDbLayerTableRecord
  2
DEFAULT_2
 70
0
 62
7
  6
HIDDEN
370
-3
390
F
  0
LAYER
  5
1FC
100
AcDbSymbolTableRecord
100
AcDbLayerTableRecord
  2
DEFAULT_3
 70
0
 62
7
  6
PHANTOM
370
-3
390
F
  0
LAYER
  5
1FD
100
AcDbSymbolTableRecord
100
AcDbLayerTableRecord
  2
ASSI
 70
0
 62
7
  6
CONTINUOUS
370
-3
390
F
  0
LAYER
  5
1FE
100
AcDbSymbolTableRecord
100
AcDbLayerTableRecord
  2
COORDINATE
 70
0
 62
7
  6
CONTINUOUS
370
-3
390
F
  0
LAYER
  5
1FF
100
AcDbSymbolTableRecord
100
AcDbLayerTableRecord
  2
COORD_ORIGINE
 70
0
 62
7
  6
CONTINUOUS
370
-3
390
F
  0
LAYER
  5
200
100
AcDbSymbolTableRecord
100
AcDbLayerTableRecord
  2
COPY_PUBLISH
 70
0
 62
7
  6
CONTINUOUS
370
-3
390
F
  0
LAYER
  5
201
100
AcDbSymbolTableRecord
100
AcDbLayerTableRecord
  2
COSMETIC
 70
0
 62
7
  6
CONTINUOUS
370
-3
390
F
  0
LAYER
  5
202
100
AcDbSymbolTableRecord
100
AcDbLayerTableRecord
  2
COSMETICI
 70
0
 62
7
  6
CONTINUOUS
370
-3
390
F
  0
LAYER
  5
203
100
AcDbSymbolTableRecord
100
AcDbLayerTableRecord
  2
CURVE
 70
0
 62
7
  6
CONTINUOUS
370
-3
390
F
  0
LAYER
  5
204
100
AcDbSymbolTableRecord
100
AcDbLayerTableRecord
  2
DRAFT
 70
0
 62
7
  6
CONTINUOUS
370
-3
390
F
  0
LAYER
  5
205
100
AcDbSymbolTableRecord
100
AcDbLayerTableRecord
  2
IMPORT_IGES
 70
0
 62
7
  6
CONTINUOUS
370
-3
390
F
  0
LAYER
  5
206
100
AcDbSymbolTableRecord
100
AcDbLayerTableRecord
  2
NOTE
 70
0
 62
7
  6
CONTINUOUS
370
-3
390
F
  0
LAYER
  5
207
100
AcDbSymbolTableRecord
100
AcDbLayerTableRecord
  2
PIANI
 70
0
 62
7
  6
CONTINUOUS
370
-3
390
F
  0
LAYER
  5
208
100
AcDbSymbolTableRecord
100
AcDbLayerTableRecord
  2
PIANI_ORIGINE
 70
0
 62
7
  6
CONTINUOUS
370
-3
390
F
  0
LAYER
  5
209
100
AcDbSymbolTableRecord
100
AcDbLayerTableRecord
  2
PIANI_RIFERIMENTO
 70
0
 62
7
  6
CONTINUOUS
370
-3
390
F
  0
LAYER
  5
20A
100
AcDbSymbolTableRecord
100
AcDbLayerTableRecord
  2
PUNTI
 70
0
 62
7
  6
CONTINUOUS
370
-3
390
F
  0
LAYER
  5
20B
100
AcDbSymbolTableRecord
100
AcDbLayerTableRecord
  2
RACCORDO
 70
0
 62
7
  6
CONTINUOUS
370
-3
390
F
  0
LAYER
  5
20C
100
AcDbSymbolTableRecord
100
AcDbLayerTableRecord
  2
SIMBOLI
 70
0
 62
7
  6
CONTINUOUS
370
-3
390
F
  0
LAYER
  5
20D
100
AcDbSymbolTableRecord
100
AcDbLayerTableRecord
  2
SMUSSO
 70
0
 62
7
  6
CONTINUOUS
370
-3
390
F
  0
LAYER
  5
20E
100
AcDbSymbolTableRecord
100
AcDbLayerTableRecord
  2
SNAPLINE
 70
0
 62
7
  6
CONTINUOUS
370
-3
390
F
  0
LAYER
  5
20F
100
AcDbSymbolTableRecord
100
AcDbLayerTableRecord
  2
SUPERFICI
 70
0
 62
7
  6
CONTINUOUS
370
-3
390
F
  0
LAYER
  5
210
100
AcDbSymbolTableRecord
100
AcDbLayerTableRecord
  2
TRASH
 70
0
 62
7
  6
CONTINUOUS
370
-3
390
F
  0
LAYER
  5
211
100
AcDbSymbolTableRecord
100
AcDbLayerTableRecord
  2
XSEC_DATUMS
 70
0
 62
7
  6
CONTINUOUS
370
-3
390
F
  0
ENDTAB
  0
TABLE
  2
STYLE
  5
3
100
AcDbSymbolTable
 70
1
  0
STYLE
  5
11
100
AcDbSymbolTableRecord
100
AcDbTextStyleTableRecord
  2
STANDARD
 70
0
 40
0.0
 41
0.8
 50
0.0
 71
0
 42
0.2
  3
txt
  4

  0
STYLE
  5
212
100
AcDbSymbolTableRecord
100
AcDbTextStyleTableRecord
  2
TEXTSTYLE_1
 70
0
 40
0.0
 41
0.8
 50
0.0
 71
0
 42
0.2
  3
gdt
  4

  0
ENDTAB
  0
TABLE
  2
VIEW
  5
6
100
AcDbSymbolTable
 70
0
  0
ENDTAB
  0
TABLE
  2
UCS
  5
7
100
AcDbSymbolTable
 70
0
  0
ENDTAB
  0
TABLE
  2
APPID
  5
9
100
AcDbSymbolTable
 70
1
  0
APPID
  5
213
100
AcDbSymbolTableRecord
100
AcDbRegAppTableRecord
  2
ACAD
 70
0
  0
ENDTAB
  0
TABLE
  2
BLOCK_RECORD
  5
1
100
AcDbSymbolTable
 70
0
  0
BLOCK_RECORD
  5
214
100
AcDbSymbolTableRecord
100
AcDbBlockTableRecord
  2
*Model_Space
  0
BLOCK_RECORD
  5
215
100
AcDbSymbolTableRecord
100
AcDbBlockTableRecord
  2
*Paper_Space
  0
ENDTAB
  0
TABLE
  2
DIMSTYLE
  5
A
100
AcDbSymbolTable
 70
1
100
AcDbDimStyleTable
 71
0
  0
DIMSTYLE
105
216
100
AcDbSymbolTableRecord
100
AcDbDimStyleTableRecord
  2
STANDARD
 70
0
  3

  4

 40
1.0
 41
3.0
 42
0.0625
 43
0.38
 44
0.18
 45
0.0
 46
0.0
 47
0.01
 48
0.01
140
3.0
141
0.09
142
0.0
143
25.4
144
1.0
145
0.0
146
1.0
147
0.09
 71
1.0
 72
0.0
 73
0
 74
0
 75
0
 76
0
 77
1
 78
8
170
0
171
2
172
0
173
0
174
0
175
0
176
0
177
0
178
0
270
2
271
2
272
2
273
2
274
2
275
0
280
0
281
0
282
0
283
1
284
8
285
0
286
0
287
3
288
0
340
11
  0
ENDTAB
  0
ENDSEC
  0
SECTION
  2
BLOCKS
  0
BLOCK
  5
20
100
AcDbEntity
  8
0
100
AcDbBlockBegin
  2
*Model_Space
 70
0
 10
0.0
 20
0.0
 30
0.0
  3
*Model_Space
  1

  0
ENDBLK
  5
21
100
AcDbEntity
  8
0
100
AcDbBlockEnd
  0
BLOCK
  5
1C
100
AcDbEntity
  8
0
100
AcDbBlockBegin
  2
*Paper_Space
 70
0
 10
0.0
 20
0.0
 30
0.0
  3
*Paper_Space
  1

  0
ENDBLK
  5
1D
100
AcDbEntity
  8
0
100
AcDbBlockEnd
  0
ENDSEC
  0
SECTION
  2
ENTITIES
  0
LWPOLYLINE
  5
217
100
AcDbEntity
  8
RACCORDO
100
AcDbPolyline
 62
7
  6
CONTINUOUS
 90
3
 70
0
 10
10.464706535
 20
-24.4914797761
 10
10.4326345276
 20
-24.4978602393
 10
10.4000042308
 20
-24.5
  0
LWPOLYLINE
  5
218
100
AcDbEntity
  8
RACCORDO
100
AcDbPolyline
 62
7
  6
CONTINUOUS
 90
16
 70
0
 10
-10.3956323968
 20
-24.495628166
 10
-10.4213492317
 20
-24.4943010441
 10
-10.4469103599
 20
-24.4903109733
 10
-10.4720363312
 20
-24.4836641013
 10
-10.4964829129
 20
-24.4743800665
 10
-10.5199299147
 20
-24.4625337261
 10
-10.5420035559
 20
-24.4482930995
 10
-10.5624274973
 20
-24.4318451154
 10
-10.5810154727
 20
-24.4133491077
 10
-10.5975699396
 20
-24.3929996217
 10
-10.6119099479
 20
-24.3710120998
 10
-10.6238695902
 20
-24.3476328491
 10
-10.6333104873
 20
-24.3231292552
 10
-10.6401280305
 20
-24.2977755339
 10
-10.6442489485
 20
-24.2718479197
 10
-10.645628166
 20
-24.2456323968
  0
LINE
  5
219
100
AcDbEntity
  8
RACCORDO
100
AcDbLine
 62
7
  6
CONTINUOUS
 10
-10.4000042308
 20
-24.5
 11
-10.4326345276
 21
-24.4978602393
  0
LINE
  5
21A
100
AcDbEntity
  8
RACCORDO
100
AcDbLine
 62
7
  6
CONTINUOUS
 10
-10.4326345276
 20
-24.4978602393
 11
-10.464706535
 21
-24.4914797761
  0
LWPOLYLINE
  5
21B
100
AcDbEntity
  8
RACCORDO
100
AcDbPolyline
 62
7
  6
CONTINUOUS
 90
9
 70
0
 10
-10.464706535
 20
-24.4914797761
 10
-10.4956715157
 20
-24.4809677771
 10
-10.5249996731
 20
-24.4665040978
 10
-10.5521892159
 20
-24.4483362052
 10
-10.5767749435
 20
-24.4267749435
 10
-10.5983362052
 20
-24.4021892159
 10
-10.6165040978
 20
-24.3749996731
 10
-10.6309677771
 20
-24.3456715157
 10
-10.6414797761
 20
-24.314706535
  0
LINE
  5
21C
100
AcDbEntity
  8
RACCORDO
100
AcDbLine
 62
253
  6
CONTINUOUS
 10
-10.6998629074
 20
22.3912731322
 11
-10.6824078424
 21
22.4
  0
LWPOLYLINE
  5
21D
100
AcDbEntity
  8
RACCORDO
100
AcDbPolyline
 62
7
  6
CONTINUOUS
 90
4
 70
0
 10
-10.8657108728
 20
22.360990282
 10
-10.8217340448
 20
22.3779011792
 10
-10.7761859963
 20
22.3901301207
 10
-10.7295736134
 20
22.3975273309
  0
LINE
  5
21E
100
AcDbEntity
  8
RACCORDO
100
AcDbLine
 62
7
  6
CONTINUOUS
 10
-10.3956323968
 20
-24.495628166
 11
-8.5043676032
 21
-24.495628166
  0
LINE
  5
21F
100
AcDbEntity
  8
RACCORDO
100
AcDbLine
 62
7
  6
CONTINUOUS
 10
8.5043676032
 20
-24.495628166
 11
10.3956323968
 21
-24.495628166
  0
LINE
  5
220
100
AcDbEntity
  8
RACCORDO
100
AcDbLine
 62
253
  6
CONTINUOUS
 10
-8.254371834
 20
-24.2456323968
 11
-10.645628166
 21
-24.2456323968
  0
LINE
  5
221
100
AcDbEntity
  8
RACCORDO
100
AcDbLine
 62
253
  6
CONTINUOUS
 10
8.254371834
 20
-24.2456323968
 11
10.645628166
 21
-24.2456323968
  0
LINE
  5
222
100
AcDbEntity
  8
RACCORDO
100
AcDbLine
 62
253
  6
CONTINUOUS
 10
-8.254371834
 20
-23.8443375673
 11
-10.645628166
 21
-23.8443375673
  0
LINE
  5
223
100
AcDbEntity
  8
RACCORDO
100
AcDbLine
 62
253
  6
CONTINUOUS
 10
8.254371834
 20
-23.8443375673
 11
10.645628166
 21
-23.8443375673
  0
LINE
  5
224
100
AcDbEntity
  8
DRAFT
100
AcDbLine
 62
7
  6
CONTINUOUS
 10
-4.4
 20
-23.8
 11
4.4
 21
-23.8
  0
LINE
  5
225
100
AcDbEntity
  8
DRAFT
100
AcDbLine
 62
7
  6
CONTINUOUS
 10
3.5
 20
-23.7941821702
 11
-3.5
 21
-23.7941821702
  0
LINE
  5
226
100
AcDbEntity
  8
ASSI
100
AcDbLine
 62
7
  6
CONTINUOUS
 10
4.3563493531
 20
-23.7563493531
 11
3.5
 21
-23.7563493531
  0
LINE
  5
227
100
AcDbEntity
  8
ASSI
100
AcDbLine
 62
7
  6
CONTINUOUS
 10
-3.5
 20
-23.7563493531
 11
-4.3563493531
 21
-23.7563493531
  0
LINE
  5
228
100
AcDbEntity
  8
RACCORDO
100
AcDbLine
 62
253
  6
CONTINUOUS
 10
10.3956323968
 20
-23.6278312164
 11
8.5043676032
 21
-23.6278312164
  0
LINE
  5
229
100
AcDbEntity
  8
RACCORDO
100
AcDbLine
 62
253
  6
CONTINUOUS
 10
-8.5043676032
 20
-23.6278312164
 11
-10.3956323968
 21
-23.6278312164
  0
LINE
  5
22A
100
AcDbEntity
  8
RACCORDO
100
AcDbLine
 62
7
  6
CONTINUOUS
 10
-10.4007229979
 20
-23.1226497308
 11
-8.4992770021
 21
-23.1226497308
  0
LINE
  5
22B
100
AcDbEntity
  8
RACCORDO
100
AcDbLine
 62
7
  6
CONTINUOUS
 10
8.4992770021
 20
-23.1226497308
 11
10.4007229979
 21
-23.1226497308
  0
LWPOLYLINE
  5
22C
100
AcDbEntity
  8
RACCORDO
100
AcDbPolyline
 62
7
  6
CONTINUOUS
 90
16
 70
0
 10
8.5043676032
 20
-24.495628166
 10
8.4782364906
 20
-24.4942578375
 10
8.4523916636
 20
-24.490163634
 10
8.4271162714
 20
-24.4833904104
 10
8.4026872245
 20
-24.4740123724
 10
8.3793721611
 20
-24.4621322634
 10
8.357426515
 20
-24.4478802386
 10
8.3370907169
 20
-24.4314124395
 10
8.3185875605
 20
-24.4129092831
 10
8.3021197614
 20
-24.392573485
 10
8.2878677366
 20
-24.3706278389
 10
8.2759876276
 20
-24.3473127755
 10
8.2666095896
 20
-24.3228837286
 10
8.259836366
 20
-24.2976083364
 10
8.2557421625
 20
-24.2717635094
 10
8.254371834
 20
-24.2456323968
  0
LINE
  5
22D
100
AcDbEntity
  8
RACCORDO
100
AcDbLine
 62
7
  6
CONTINUOUS
 10
8.4999957692
 20
-24.5
 11
8.4673654724
 21
-24.4978602393
  0
LWPOLYLINE
  5
22E
100
AcDbEntity
  8
RACCORDO
100
AcDbPolyline
 62
7
  6
CONTINUOUS
 90
4
 70
0
 10
-10.865713417
 20
-22.3609890494
 10
-10.8217361076
 20
-22.3779002623
 10
-10.7761874678
 20
-22.3901295302
 10
-10.7295743958
 20
-22.3975270526
  0
LINE
  5
22F
100
AcDbEntity
  8
RACCORDO
100
AcDbLine
 62
253
  6
CONTINUOUS
 10
-10.6824078424
 20
-22.4
 11
-10.6998629074
 21
-22.3912731322
  0
LINE
  5
230
100
AcDbEntity
  8
RACCORDO
100
AcDbLine
 62
7
  6
CONTINUOUS
 10
-8.0840245667
 20
20.9917082642
 11
-8.2465127091
 21
20.9104703804
  0
LWPOLYLINE
  5
231
100
AcDbEntity
  8
RACCORDO
100
AcDbPolyline
 62
7
  6
CONTINUOUS
 90
3
 70
0
 10
-8.435293465
 20
-24.4914797761
 10
-8.4673654724
 20
-24.4978602393
 10
-8.4999957692
 20
-24.5
  0
LINE
  5
232
100
AcDbEntity
  8
RACCORDO
100
AcDbLine
 62
7
  6
CONTINUOUS
 10
10.7295748194
 20
-22.3975268696
 11
10.6824078424
 21
-22.4
  0
LINE
  5
233
100
AcDbEntity
  8
RACCORDO
100
AcDbLine
 62
7
  6
CONTINUOUS
 10
10.6824078424
 20
-22.4
 11
10.65
 21
-22.4
  0
LINE
  5
234
100
AcDbEntity
  8
DRAFT
100
AcDbLine
 62
7
  6
CONTINUOUS
 10
-4.4
 20
-22.4
 11
-10.65
 21
-22.4
  0
LINE
  5
235
100
AcDbEntity
  8
DRAFT
100
AcDbLine
 62
7
  6
CONTINUOUS
 10
4.4
 20
-22.4
 11
10.65
 21
-22.4
  0
LINE
  5
236
100
AcDbEntity
  8
RACCORDO
100
AcDbLine
 62
7
  6
CONTINUOUS
 10
-10.65
 20
-22.4
 11
-10.6824078424
 21
-22.4
  0
LINE
  5
237
100
AcDbEntity
  8
RACCORDO
100
AcDbLine
 62
7
  6
CONTINUOUS
 10
-10.6998629074
 20
-22.3912731322
 11
-7.2587268678
 21
-22.3912731322
  0
LINE
  5
238
100
AcDbEntity
  8
DRAFT
100
AcDbLine
 62
7
  6
CONTINUOUS
 10
-3.5
 20
-22.3912731322
 11
-3.0
 21
-22.3912731322
  0
LINE
  5
239
100
AcDbEntity
  8
DRAFT
100
AcDbLine
 62
7
  6
CONTINUOUS
 10
3.0
 20
-22.3912731322
 11
3.5
 21
-22.3912731322
  0
LINE
  5
23A
100
AcDbEntity
  8
RACCORDO
100
AcDbLine
 62
7
  6
CONTINUOUS
 10
7.2587268678
 20
-22.3912731322
 11
10.6998629074
 21
-22.3912731322
  0
LINE
  5
23B
100
AcDbEntity
  8
RACCORDO
100
AcDbLine
 62
253
  6
CONTINUOUS
 10
-7.3373448332
 20
-22.3126551668
 11
-3.0
 21
-22.3126551668
  0
LINE
  5
23C
100
AcDbEntity
  8
RACCORDO
100
AcDbLine
 62
253
  6
CONTINUOUS
 10
3.0
 20
-22.3126551668
 11
7.3373448332
 21
-22.3126551668
  0
LINE
  5
23D
100
AcDbEntity
  8
0
100
AcDbLine
 62
7
  6
CONTINUOUS
 10
3.0
 20
-21.7
 11
-3.0
 21
-21.7
  0
LINE
  5
23E
100
AcDbEntity
  8
RACCORDO
100
AcDbLine
 62
253
  6
CONTINUOUS
 10
-7.5841007192
 20
-21.3126932437
 11
-3.0
 21
-21.3126932437
  0
LINE
  5
23F
100
AcDbEntity
  8
RACCORDO
100
AcDbLine
 62
253
  6
CONTINUOUS
 10
3.0
 20
-21.3126932437
 11
7.5841007192
 21
-21.3126932437
  0
LINE
  5
240
100
AcDbEntity
  8
RACCORDO
100
AcDbLine
 62
7
  6
CONTINUOUS
 10
-10.7295743958
 20
-22.3975270526
 11
-10.6824078424
 21
-22.4
  0
LINE
  5
241
100
AcDbEntity
  8
RACCORDO
100
AcDbLine
 62
7
  6
CONTINUOUS
 10
8.4673654724
 20
-24.4978602393
 11
8.435293465
 21
-24.4914797761
  0
LINE
  5
242
100
AcDbEntity
  8
RACCORDO
100
AcDbLine
 62
7
  6
CONTINUOUS
 10
-8.0840245667
 20
-20.9917082642
 11
-8.2465127091
 21
-20.9104703804
  0
LINE
  5
243
100
AcDbEntity
  8
SMUSSO
100
AcDbLine
 62
7
  6
CONTINUOUS
 10
-9.65
 20
20.1489710538
 11
-8.8998860669
 21
20.9
  0
LINE
  5
244
100
AcDbEntity
  8
0
100
AcDbLine
 62
7
  6
CONTINUOUS
 10
-9.5871617663
 20
19.9603030484
 11
-8.8370478331
 21
20.7113319946
  0
LINE
  5
245
100
AcDbEntity
  8
RACCORDO
100
AcDbLine
 62
7
  6
CONTINUOUS
 10
-8.25
 20
21.4
 11
-7.2587268678
 21
22.3912731322
  0
LWPOLYLINE
  5
246
100
AcDbEntity
  8
RACCORDO
100
AcDbPolyline
 62
253
  6
CONTINUOUS
 90
22
 70
0
 10
6.8968790409
 20
-19.6708580904
 10
6.8785605513
 20
-19.6713423693
 10
6.8596687253
 20
-19.6727902821
 10
6.8402709167
 20
-19.6752999512
 10
6.8204669375
 20
-19.6789695426
 10
6.8003276674
 20
-19.6838893255
 10
6.7798987959
 20
-19.6901523682
 10
6.7592865912
 20
-19.6978601272
 10
6.7386470462
 20
-19.7070969851
 10
6.7181271004
 20
-19.7179315553
 10
6.6979029042
 20
-19.7304258782
 10
6.678154822
 20
-19.744639779
 10
6.6590635449
 20
-19.7606233614
 10
6.6408811263
 20
-19.7783625006
 10
6.6238017696
 20
-19.7978887063
 10
6.6079754773
 20
-19.819317339
 10
6.5936937314
 20
-19.8426096378
 10
6.5812592208
 20
-19.8677038191
 10
6.5709313275
 20
-19.8946708037
 10
6.5630606733
 20
-19.9234303916
 10
6.558034602
 20
-19.9537248783
 10
6.5562117438
 20
-19.9852938746
  0
LWPOLYLINE
  5
247
100
AcDbEntity
  8
RACCORDO
100
AcDbPolyline
 62
253
  6
CONTINUOUS
 90
19
 70
0
 10
-6.9037940101
 20
-19.8678215691
 10
-6.9319005773
 20
-19.8682785972
 10
-6.9600101318
 20
-19.8695539008
 10
-6.987921388
 20
-19.87164748
 10
-7.0154329252
 20
-19.8745719965
 10
-7.0423282661
 20
-19.8783147885
 10
-7.0683792565
 20
-19.8828378706
 10
-7.0933863141
 20
-19.8881672933
 10
-7.1171260124
 20
-19.8942770062
 10
-7.1393481856
 20
-19.9010508718
 10
-7.159840693
 20
-19.9084991926
 10
-7.1784515858
 20
-19.9166116662
 10
-7.1950356883
 20
-19.9252412475
 10
-7.2094520885
 20
-19.9344237375
 10
-7.2215163111
 20
-19.9441233352
 10
-7.2310590575
 20
-19.9540855925
 10
-7.2379856662
 20
-19.9642256935
 10
-7.2422439202
 20
-19.9746284542
 10
-7.2437882562
 20
-19.9852938746
  0
LWPOLYLINE
  5
248
100
AcDbEntity
  8
RACCORDO
100
AcDbPolyline
 62
253
  6
CONTINUOUS
 90
22
 70
0
 10
6.8962059899
 20
-19.8678215691
 10
6.8779176639
 20
-19.8679725344
 10
6.8590612197
 20
-19.8685545972
 10
6.8397036365
 20
-19.8695677575
 10
6.8199433427
 20
-19.8709777391
 10
6.7998515674
 20
-19.8728188182
 10
6.7794759514
 20
-19.8751938233
 10
6.7589222436
 20
-19.8781095896
 10
6.7383447654
 20
-19.8815592819
 10
6.7178902103
 20
-19.8856252221
 10
6.6977335675
 20
-19.8903217658
 10
6.6780527428
 20
-19.8956345574
 10
6.6590259271
 20
-19.9016028529
 10
6.6409026633
 20
-19.9082280759
 10
6.6238752144
 20
-19.9155088028
 10
6.6080914695
 20
-19.9234800184
 10
6.5938399782
 20
-19.9321750021
 10
6.5814205389
 20
-19.9415604745
 10
6.5710892817
 20
-19.9515715833
 10
6.5631929234
 20
-19.9621867108
 10
6.5581152662
 20
-19.9734274745
 10
6.5562117438
 20
-19.9852938746
  0
LINE
  5
249
100
AcDbEntity
  8
0
100
AcDbLine
 62
7
  6
CONTINUOUS
 10
3.0
 20
-21.0
 11
-3.0
 21
-21.0
  0
LINE
  5
24A
100
AcDbEntity
  8
RACCORDO
100
AcDbLine
 62
7
  6
CONTINUOUS
 10
7.5841007192
 20
-20.9959955457
 11
6.9037940101
 21
-20.9959955457
  0
LINE
  5
24B
100
AcDbEntity
  8
RACCORDO
100
AcDbLine
 62
7
  6
CONTINUOUS
 10
-6.9037940101
 20
-20.9959955457
 11
-7.5841007192
 21
-20.9959955457
  0
LINE
  5
24C
100
AcDbEntity
  8
DRAFT
100
AcDbLine
 62
7
  6
CONTINUOUS
 10
-8.2465127091
 20
-20.9104703804
 11
-7.2988376746
 21
-20.9104703804
  0
LINE
  5
24D
100
AcDbEntity
  8
DRAFT
100
AcDbLine
 62
7
  6
CONTINUOUS
 10
7.2988376746
 20
-20.9104703804
 11
8.2465127091
 21
-20.9104703804
  0
LINE
  5
24E
100
AcDbEntity
  8
SMUSSO
100
AcDbLine
 62
7
  6
CONTINUOUS
 10
8.8998860669
 20
-20.9
 11
8.25
 21
-20.9
  0
LINE
  5
24F
100
AcDbEntity
  8
SMUSSO
100
AcDbLine
 62
7
  6
CONTINUOUS
 10
-8.25
 20
-20.9
 11
-8.8998860669
 21
-20.9
  0
LINE
  5
250
100
AcDbEntity
  8
RACCORDO
100
AcDbLine
 62
253
  6
CONTINUOUS
 10
6.9
 20
-20.5829242832
 11
-6.8962059899
 21
-20.5829242832
  0
LINE
  5
251
100
AcDbEntity
  8
SMUSSO
100
AcDbLine
 62
7
  6
CONTINUOUS
 10
-8.744535989
 20
-20.4335707644
 11
-7.3517786853
 21
-20.4335707644
  0
LINE
  5
252
100
AcDbEntity
  8
SMUSSO
100
AcDbLine
 62
7
  6
CONTINUOUS
 10
7.3517786853
 20
-20.4335707644
 11
8.744535989
 21
-20.4335707644
  0
LINE
  5
253
100
AcDbEntity
  8
RACCORDO
100
AcDbLine
 62
7
  6
CONTINUOUS
 10
6.555294768
 20
-20.0829433217
 11
-6.555294768
 21
-20.0829433217
  0
LINE
  5
254
100
AcDbEntity
  8
RACCORDO
100
AcDbLine
 62
7
  6
CONTINUOUS
 10
6.4511048448
 20
-19.9266562329
 11
-6.4511048448
 21
-19.9266562329
  0
LINE
  5
255
100
AcDbEntity
  8
RACCORDO
100
AcDbLine
 62
253
  6
CONTINUOUS
 10
6.903794027
 20
-19.8678199262
 11
6.8962059875
 21
-19.8678199262
  0
LINE
  5
256
100
AcDbEntity
  8
RACCORDO
100
AcDbLine
 62
253
  6
CONTINUOUS
 10
-6.8962059899
 20
-19.8678199262
 11
-6.9037940101
 21
-19.8678199262
  0
LINE
  5
257
100
AcDbEntity
  8
RACCORDO
100
AcDbLine
 62
253
  6
CONTINUOUS
 10
6.9031209497
 20
-19.6708583756
 11
6.8968790503
 21
-19.6708583756
  0
LINE
  5
258
100
AcDbEntity
  8
RACCORDO
100
AcDbLine
 62
253
  6
CONTINUOUS
 10
-6.8968790503
 20
-19.6708583756
 11
-6.9031209497
 21
-19.6708583756
  0
LWPOLYLINE
  5
259
100
AcDbEntity
  8
RACCORDO
100
AcDbPolyline
 62
7
  6
CONTINUOUS
 90
9
 70
0
 10
8.435293465
 20
-24.4914797761
 10
8.4043284843
 20
-24.4809677771
 10
8.3750003269
 20
-24.4665040978
 10
8.3478107841
 20
-24.4483362052
 10
8.3232250565
 20
-24.4267749435
 10
8.3016637948
 20
-24.4021892159
 10
8.2834959022
 20
-24.3749996731
 10
8.2690322229
 20
-24.3456715157
 10
8.2585202239
 20
-24.314706535
  0
LINE
  5
25A
100
AcDbEntity
  8
RACCORDO
100
AcDbLine
 62
7
  6
CONTINUOUS
 10
-7.2587268678
 20
-22.3912731322
 11
-8.25
 21
-21.4
  0
LINE
  5
25B
100
AcDbEntity
  8
SMUSSO
100
AcDbLine
 62
7
  6
CONTINUOUS
 10
-9.65
 20
-20.1489710538
 11
-8.8998860669
 21
-20.9
  0
LINE
  5
25C
100
AcDbEntity
  8
SMUSSO
100
AcDbLine
 62
7
  6
CONTINUOUS
 10
-9.4946499221
 20
-19.6825418182
 11
-8.744535989
 21
-20.4335707644
  0
LWPOLYLINE
  5
25D
100
AcDbEntity
  8
RACCORDO
100
AcDbPolyline
 62
7
  6
CONTINUOUS
 90
9
 70
0
 10
-10.6414797761
 20
24.314706535
 10
-10.6309677771
 20
24.3456715157
 10
-10.6165040978
 20
24.3749996731
 10
-10.5983362052
 20
24.4021892159
 10
-10.5767749435
 20
24.4267749435
 10
-10.5521892159
 20
24.4483362052
 10
-10.5249996731
 20
24.4665040978
 10
-10.4956715157
 20
24.4809677771
 10
-10.464706535
 20
24.4914797761
  0
LINE
  5
25E
100
AcDbEntity
  8
ASSI
100
AcDbLine
 62
7
  6
CONTINUOUS
 10
-3.6145947547
 20
23.599677416
 11
-3.6690986329
 21
23.5383765532
  0
LINE
  5
25F
100
AcDbEntity
  8
ASSI
100
AcDbLine
 62
7
  6
CONTINUOUS
 10
-3.6690986329
 20
23.5383765532
 11
-3.7680068459
 21
23.429614591
  0
LINE
  5
260
100
AcDbEntity
  8
ASSI
100
AcDbLine
 62
7
  6
CONTINUOUS
 10
-3.8856246237
 20
23.3026009503
 11
-3.9279699877
 21
23.2563578147
  0
LINE
  5
261
100
AcDbEntity
  8
ASSI
100
AcDbLine
 62
7
  6
CONTINUOUS
 10
-3.7680068459
 20
23.429614591
 11
-3.8856246237
 21
23.3026009503
  0
LWPOLYLINE
  5
262
100
AcDbEntity
  8
RACCORDO
100
AcDbPolyline
 62
253
  6
CONTINUOUS
 90
19
 70
0
 10
-6.9031209591
 20
-19.6708580904
 10
-6.9313266487
 20
-19.6719686556
 10
-6.959533247
 20
-19.6752679214
 10
-6.9875376719
 20
-19.680778578
 10
-7.0151343214
 20
-19.6885051452
 10
-7.0421080949
 20
-19.6984360011
 10
-7.0682369262
 20
-19.7105404203
 10
-7.0933225426
 20
-19.7247694872
 10
-7.1171358814
 20
-19.7410484354
 10
-7.1394220689
 20
-19.7592631869
 10
-7.1599667479
 20
-19.7792616872
 10
-7.1786175938
 20
-19.8009250916
 10
-7.1952279332
 20
-19.824156773
 10
-7.209656109
 20
-19.8488300097
 10
-7.2217159885
 20
-19.8747190319
 10
-7.2312360196
 20
-19.9015475951
 10
-7.2381211966
 20
-19.9290645168
 10
-7.2423202382
 20
-19.957059618
 10
-7.2437882562
 20
-19.9852938746
  0
LINE
  5
263
100
AcDbEntity
  8
RACCORDO
100
AcDbLine
 62
253
  6
CONTINUOUS
 10
6.4482213147
 20
-19.4266752714
 11
-6.4482213147
 21
-19.4266752714
  0
LINE
  5
264
100
AcDbEntity
  8
ASSI
100
AcDbLine
 62
7
  6
CONTINUOUS
 10
-3.8856132922
 20
-23.3026071248
 11
-3.7681811995
 21
-23.4294283652
  0
LINE
  5
265
100
AcDbEntity
  8
ASSI
100
AcDbLine
 62
7
  6
CONTINUOUS
 10
-3.9279699877
 20
-23.2563578147
 11
-3.8856132922
 21
-23.3026071248
  0
LINE
  5
266
100
AcDbEntity
  8
ASSI
100
AcDbLine
 62
7
  6
CONTINUOUS
 10
-3.7681811995
 20
-23.4294283652
 11
-3.6695700851
 21
-23.5378538589
  0
LWPOLYLINE
  5
267
100
AcDbEntity
  8
ASSI
100
AcDbPolyline
 62
7
  6
CONTINUOUS
 90
7
 70
0
 10
-3.6695700851
 20
-23.5378538589
 10
-3.6151291384
 20
-23.5990691971
 10
-3.591493153
 20
-23.6261314954
 10
-3.5704331357
 20
-23.6508305663
 10
-3.5519767756
 20
-23.672981812
 10
-3.536210425
 20
-23.6925560506
 10
-3.5232302724
 20
-23.709582464
  0
LINE
  5
268
100
AcDbEntity
  8
RACCORDO
100
AcDbLine
 62
7
  6
CONTINUOUS
 10
-7.2437882562
 20
20.9930456726
 11
-7.2988376746
 21
20.9104703804
  0
LINE
  5
269
100
AcDbEntity
  8
RACCORDO
100
AcDbLine
 62
7
  6
CONTINUOUS
 10
-7.3401430257
 20
19.4
 11
-7.3238277175
 21
19.4244733075
  0
LWPOLYLINE
  5
26A
100
AcDbEntity
  8
ASSI
100
AcDbPolyline
 62
7
  6
CONTINUOUS
 90
6
 70
0
 10
-3.522975171
 20
23.7099260988
 10
-3.5358550541
 20
23.6930131696
 10
-3.5515314491
 20
23.6735255744
 10
-3.569927131
 20
23.6514221525
 10
-3.5909613123
 20
23.6267440646
 10
-3.6145947547
 20
23.599677416
  0
LINE
  5
26B
100
AcDbEntity
  8
RACCORDO
100
AcDbLine
 62
7
  6
CONTINUOUS
 10
-4.2712013363
 20
19.968583276
 11
-4.242379826
 21
19.9974047863
  0
LINE
  5
26C
100
AcDbEntity
  8
RACCORDO
100
AcDbLine
 62
7
  6
CONTINUOUS
 10
-4.2755266925
 20
19.4244733075
 11
-4.3
 21
19.4
  0
LINE
  5
26D
100
AcDbEntity
  8
RACCORDO
100
AcDbLine
 62
7
  6
CONTINUOUS
 10
-7.0121164182
 20
-16.3674200646
 11
-6.7878835818
 21
-16.3674200646
  0
LINE
  5
26E
100
AcDbEntity
  8
RACCORDO
100
AcDbLine
 62
7
  6
CONTINUOUS
 10
6.7878835818
 20
-16.3674200646
 11
7.0121164182
 21
-16.3674200646
  0
LWPOLYLINE
  5
26F
100
AcDbEntity
  8
ASSI
100
AcDbPolyline
 62
7
  6
CONTINUOUS
 90
5
 70
0
 10
-3.5232302724
 20
-23.709582464
 10
-3.5130839246
 20
-23.7239639999
 10
-3.505814757
 20
-23.7356683075
 10
-3.5014519327
 20
-23.7447277377
 10
-3.5
 20
-23.7511422903
  0
LINE
  5
270
100
AcDbEntity
  8
RACCORDO
100
AcDbLine
 62
7
  6
CONTINUOUS
 10
-7.2437882562
 20
-20.9930456726
 11
-7.2988376746
 21
-20.9104703804
  0
LINE
  5
271
100
AcDbEntity
  8
RACCORDO
100
AcDbLine
 62
7
  6
CONTINUOUS
 10
-10.6478602393
 20
24.2826345276
 11
-10.6414797761
 21
24.314706535
  0
LINE
  5
272
100
AcDbEntity
  8
DRAFT
100
AcDbLine
 62
7
  6
CONTINUOUS
 10
-8.25
 20
20.9
 11
-8.2465127091
 21
20.9104703804
  0
LINE
  5
273
100
AcDbEntity
  8
RACCORDO
100
AcDbLine
 62
253
  6
CONTINUOUS
 10
-4.3
 20
17.5999885769
 11
-4.242379826
 21
17.6576087509
  0
LINE
  5
274
100
AcDbEntity
  8
RACCORDO
100
AcDbLine
 62
253
  6
CONTINUOUS
 10
-4.0000114231
 20
17.3
 11
-3.9423912491
 21
17.357620174
  0
LINE
  5
275
100
AcDbEntity
  8
DRAFT
100
AcDbLine
 62
7
  6
CONTINUOUS
 10
-8.2465127091
 20
-20.9104703804
 11
-8.25
 21
-20.9
  0
LWPOLYLINE
  5
276
100
AcDbEntity
  8
RACCORDO
100
AcDbPolyline
 62
7
  6
CONTINUOUS
 90
3
 70
0
 10
-10.6414797761
 20
-24.314706535
 10
-10.6478602393
 20
-24.2826345276
 10
-10.65
 20
-24.2500042308
  0
LINE
  5
277
100
AcDbEntity
  8
DRAFT
100
AcDbLine
 62
7
  6
CONTINUOUS
 10
-9.65
 20
8.8660254038
 11
-10.15
 21
8.0
  0
LINE
  5
278
100
AcDbEntity
  8
DRAFT
100
AcDbLine
 62
7
  6
CONTINUOUS
 10
-9.4946499221
 20
8.9797613849
 11
-10.0723308767
 21
7.9791886211
  0
LINE
  5
279
100
AcDbEntity
  8
ASSI
100
AcDbLine
 62
7
  6
CONTINUOUS
 10
4.2404759687
 20
23.5986881602
 11
4.186031313
 21
23.5374767378
  0
LINE
  5
27A
100
AcDbEntity
  8
ASSI
100
AcDbLine
 62
7
  6
CONTINUOUS
 10
4.186031313
 20
23.5374767378
 11
4.0873692685
 21
23.4290012333
  0
LINE
  5
27B
100
AcDbEntity
  8
ASSI
100
AcDbLine
 62
7
  6
CONTINUOUS
 10
3.9701568555
 20
23.3024247016
 11
3.9279699877
 21
23.2563578147
  0
LINE
  5
27C
100
AcDbEntity
  8
ASSI
100
AcDbLine
 62
7
  6
CONTINUOUS
 10
4.0873692685
 20
23.4290012333
 11
3.9701568555
 21
23.3024247016
  0
LINE
  5
27D
100
AcDbEntity
  8
ASSI
100
AcDbLine
 62
7
  6
CONTINUOUS
 10
4.4
 20
23.8
 11
4.3563493531
 21
23.7563493531
  0
LINE
  5
27E
100
AcDbEntity
  8
DRAFT
100
AcDbLine
 62
7
  6
CONTINUOUS
 10
-9.4946499221
 20
8.9797613849
 11
-9.65
 21
8.8660254038
  0
LINE
  5
27F
100
AcDbEntity
  8
RACCORDO
100
AcDbLine
 62
7
  6
CONTINUOUS
 10
9.529560052
 20
19.4
 11
9.5785103949
 21
19.4244733075
  0
LINE
  5
280
100
AcDbEntity
  8
DRAFT
100
AcDbLine
 62
7
  6
CONTINUOUS
 10
-9.4946499221
 20
-8.9797613849
 11
-9.65
 21
-8.8660254038
  0
LINE
  5
281
100
AcDbEntity
  8
ASSI
100
AcDbLine
 62
7
  6
CONTINUOUS
 10
4.4
 20
-23.8
 11
4.3563493531
 21
-23.7563493531
  0
LINE
  5
282
100
AcDbEntity
  8
ASSI
100
AcDbLine
 62
7
  6
CONTINUOUS
 10
3.9701750631
 20
-23.3024386874
 11
4.0872241449
 21
-23.4288465587
  0
LINE
  5
283
100
AcDbEntity
  8
ASSI
100
AcDbLine
 62
7
  6
CONTINUOUS
 10
3.9279699877
 20
-23.2563578147
 11
3.9701750631
 21
-23.3024386874
  0
LINE
  5
284
100
AcDbEntity
  8
ASSI
100
AcDbLine
 62
7
  6
CONTINUOUS
 10
4.0872241449
 20
-23.4288465587
 11
4.1856002185
 21
-23.5369994082
  0
LWPOLYLINE
  5
285
100
AcDbEntity
  8
ASSI
100
AcDbPolyline
 62
7
  6
CONTINUOUS
 90
11
 70
0
 10
4.1856002185
 20
-23.5369994082
 10
4.2399765122
 20
-23.598119985
 10
4.2636156407
 20
-23.6251693127
 10
4.2847014612
 20
-23.6498767634
 10
4.3032033563
 20
-23.6720551669
 10
4.3190363015
 20
-23.6916742746
 10
4.3321054488
 20
-23.708764335
 10
4.3423629021
 20
-23.7232289227
 10
4.3497671346
 20
-23.735035896
 10
4.354291409
 20
-23.7442173967
 10
4.3559327327
 20
-23.7507734247
  0
LINE
  5
286
100
AcDbEntity
  8
DRAFT
100
AcDbLine
 62
7
  6
CONTINUOUS
 10
-10.15
 20
-8.0
 11
-9.65
 21
-8.8660254038
  0
LINE
  5
287
100
AcDbEntity
  8
DRAFT
100
AcDbLine
 62
7
  6
CONTINUOUS
 10
-10.0723308767
 20
-7.9791886211
 11
-9.4946499221
 21
-8.9797613849
  0
LINE
  5
288
100
AcDbEntity
  8
RACCORDO
100
AcDbLine
 62
253
  6
CONTINUOUS
 10
-10.645628166
 20
-23.8443375673
 11
-10.65
 21
-23.4104851482
  0
LINE
  5
289
100
AcDbEntity
  8
RACCORDO
100
AcDbLine
 62
253
  6
CONTINUOUS
 10
-10.3956323968
 20
-23.6278312164
 11
-10.4007229979
 21
-23.1226497308
  0
LINE
  5
28A
100
AcDbEntity
  8
RACCORDO
100
AcDbLine
 62
7
  6
CONTINUOUS
 10
-11.15
 20
-21.9411874598
 11
-11.15
 21
21.9411874598
  0
LINE
  5
28B
100
AcDbEntity
  8
RACCORDO
100
AcDbLine
 62
7
  6
CONTINUOUS
 10
-10.65
 20
-22.4
 11
-10.65
 21
-23.8443375673
  0
LINE
  5
28C
100
AcDbEntity
  8
RACCORDO
100
AcDbLine
 62
7
  6
CONTINUOUS
 10
-10.65
 20
22.4
 11
-10.65
 21
23.8443375673
  0
LINE
  5
28D
100
AcDbEntity
  8
RACCORDO
100
AcDbLine
 62
7
  6
CONTINUOUS
 10
-10.645628166
 20
24.2456323968
 11
-10.645628166
 21
23.8443375673
  0
LINE
  5
28E
100
AcDbEntity
  8
RACCORDO
100
AcDbLine
 62
7
  6
CONTINUOUS
 10
-10.645628166
 20
-23.8443375673
 11
-10.645628166
 21
-24.2456323968
  0
LINE
  5
28F
100
AcDbEntity
  8
RACCORDO
100
AcDbLine
 62
253
  6
CONTINUOUS
 10
-10.65
 20
23.4104851482
 11
-10.645628166
 21
23.8443375673
  0
LINE
  5
290
100
AcDbEntity
  8
RACCORDO
100
AcDbLine
 62
253
  6
CONTINUOUS
 10
-10.4007229979
 20
23.1226497308
 11
-10.3956323968
 21
23.6278312164
  0
LWPOLYLINE
  5
291
100
AcDbEntity
  8
RACCORDO
100
AcDbPolyline
 62
7
  6
CONTINUOUS
 90
16
 70
0
 10
-10.645628166
 20
24.2456323968
 10
-10.6443010441
 20
24.2713492317
 10
-10.6403109733
 20
24.2969103599
 10
-10.6336641013
 20
24.3220363312
 10
-10.6243800665
 20
24.3464829129
 10
-10.6125337261
 20
24.3699299147
 10
-10.5982930995
 20
24.3920035559
 10
-10.5818451154
 20
24.4124274973
 10
-10.5633491077
 20
24.4310154727
 10
-10.5429996217
 20
24.4475699396
 10
-10.5210120998
 20
24.4619099479
 10
-10.4976328491
 20
24.4738695902
 10
-10.4731292552
 20
24.4833104873
 10
-10.4477755339
 20
24.4901280305
 10
-10.4218479197
 20
24.4942489485
 10
-10.3956323968
 20
24.495628166
  0
LINE
  5
292
100
AcDbEntity
  8
RACCORDO
100
AcDbLine
 62
7
  6
CONTINUOUS
 10
-10.65
 20
24.2500042308
 11
-10.6478602393
 21
24.2826345276
  0
LINE
  5
293
100
AcDbEntity
  8
RACCORDO
100
AcDbLine
 62
7
  6
CONTINUOUS
 10
-9.7190883586
 20
5.5906064646
 11
-9.7220740231
 21
5.5845601032
  0
LINE
  5
294
100
AcDbEntity
  8
RACCORDO
100
AcDbLine
 62
7
  6
CONTINUOUS
 10
-9.7012302989
 20
5.6203284745
 11
-9.6918271332
 21
5.6388321374
  0
LWPOLYLINE
  5
295
100
AcDbEntity
  8
RACCORDO
100
AcDbPolyline
 62
7
  6
CONTINUOUS
 90
4
 70
0
 10
-9.7093952326
 20
5.6086247054
 10
-9.7127647343
 20
5.6026475511
 10
-9.7159852623
 20
5.5966356139
 10
-9.7190883586
 20
5.5906064646
  0
LINE
  5
296
100
AcDbEntity
  8
RACCORDO
100
AcDbLine
 62
7
  6
CONTINUOUS
 10
-9.6918271332
 20
5.6388321374
 11
-9.7023985597
 21
5.6205800906
  0
LINE
  5
297
100
AcDbEntity
  8
RACCORDO
100
AcDbLine
 62
7
  6
CONTINUOUS
 10
-9.7023985597
 20
5.6205800906
 11
-9.7093952326
 21
5.6086247054
  0
LWPOLYLINE
  5
298
100
AcDbEntity
  8
ASSI
100
AcDbPolyline
 62
7
  6
CONTINUOUS
 90
6
 70
0
 10
4.3323434824
 20
23.7090837818
 10
4.3193672298
 20
23.6920988623
 10
4.3036177493
 20
23.6725603487
 10
4.2851730062
 20
23.6504278889
 10
4.2641126449
 20
23.6257418349
 10
4.2404759687
 20
23.5986881602
  0
LINE
  5
299
100
AcDbEntity
  8
DRAFT
100
AcDbLine
 62
7
  6
CONTINUOUS
 10
-10.0723308767
 20
5.6124860802
 11
-10.1002568536
 21
5.5845601032
  0
LINE
  5
29A
100
AcDbEntity
  8
DRAFT
100
AcDbLine
 62
7
  6
CONTINUOUS
 10
-10.0723308767
 20
-5.6124860802
 11
-10.1002568536
 21
-5.5845601032
  0
LWPOLYLINE
  5
29B
100
AcDbEntity
  8
RACCORDO
100
AcDbPolyline
 62
7
  6
CONTINUOUS
 90
5
 70
0
 10
-9.702740655
 20
-5.619989515
 10
-9.7097685662
 20
-5.6079782877
 10
-9.713098124
 20
-5.6020695463
 10
-9.7162435981
 20
-5.5961874513
 10
-9.7192355645
 20
-5.5903509703
  0
LINE
  5
29C
100
AcDbEntity
  8
RACCORDO
100
AcDbLine
 62
7
  6
CONTINUOUS
 10
-9.691827165
 20
-5.6388321318
 11
-9.702740655
 21
-5.619989515
  0
LWPOLYLINE
  5
29D
100
AcDbEntity
  8
RACCORDO
100
AcDbPolyline
 62
7
  6
CONTINUOUS
 90
5
 70
0
 10
-9.691827165
 20
-5.6388321318
 10
-9.7011966553
 20
-5.6204636326
 10
-9.7088348066
 20
-5.6015203472
 10
-9.7147416191
 20
-5.5820022754
 10
-9.7189170927
 20
-5.5619094174
  0
LINE
  5
29E
100
AcDbEntity
  8
RACCORDO
100
AcDbLine
 62
7
  6
CONTINUOUS
 10
-9.7192355645
 20
-5.5903509703
 11
-9.7220740231
 21
-5.5845601032
  0
LWPOLYLINE
  5
29F
100
AcDbEntity
  8
RACCORDO
100
AcDbPolyline
 62
253
  6
CONTINUOUS
 90
16
 70
0
 10
-8.254371834
 20
-23.8443375673
 10
-8.2558144186
 20
-23.8217299178
 10
-8.2599745395
 20
-23.7993694101
 10
-8.2668067254
 20
-23.7775005227
 10
-8.2762363816
 20
-23.7563621843
 10
-8.2881603724
 20
-23.7361857082
 10
-8.3024479408
 20
-23.7171921737
 10
-8.3189424026
 20
-23.699589447
 10
-8.3374635163
 20
-23.6835695112
 10
-8.3578092594
 20
-23.6693070044
 10
-8.3797672449
 20
-23.6569528518
 10
-8.4030886371
 20
-23.6466489465
 10
-8.4274859967
 20
-23.6385171664
 10
-8.4526782332
 20
-23.6326397727
 10
-8.4783989842
 20
-23.6290678757
 10
-8.5043676032
 20
-23.6278312164
  0
LWPOLYLINE
  5
2A0
100
AcDbEntity
  8
RACCORDO
100
AcDbPolyline
 62
253
  6
CONTINUOUS
 90
16
 70
0
 10
-10.645628166
 20
23.8443375673
 10
-10.6441878523
 20
23.8217481519
 10
-10.6400343805
 20
23.7994053159
 10
-10.6332130887
 20
23.7775529472
 10
-10.623798436
 20
23.7564295797
 10
-10.6118931901
 20
23.7362657898
 10
-10.597627305
 20
23.7172816797
 10
-10.5811565031
 20
23.6996844742
 10
-10.5626605746
 20
23.6836662592
 10
-10.5423414158
 20
23.6694018849
 10
-10.5204208246
 20
23.6570470569
 10
-10.4971380796
 20
23.646736637
 10
-10.4727473285
 20
23.6385831707
 10
-10.4475148136
 20
23.6326756587
 10
-10.4217159655
 20
23.6290785857
 10
-10.3956323968
 20
23.6278312164
  0
LWPOLYLINE
  5
2A1
100
AcDbEntity
  8
RACCORDO
100
AcDbPolyline
 62
7
  6
CONTINUOUS
 90
7
 70
0
 10
-9.7220476014
 20
5.5845336816
 10
-9.7221943223
 20
5.5910293703
 10
-9.722339757
 20
5.5963072668
 10
-9.7224839053
 20
5.6003673711
 10
-9.7226267672
 20
5.6032096833
 10
-9.7227683429
 20
5.6048342033
 10
-9.7229086322
 20
5.6052409312
  0
LINE
  5
2A2
100
AcDbEntity
  8
RACCORDO
100
AcDbLine
 62
253
  6
CONTINUOUS
 10
-9.7216466496
 20
5.4766331038
 11
-9.7220740231
 21
5.5199715968
  0
LINE
  5
2A3
100
AcDbEntity
  8
RACCORDO
100
AcDbLine
 62
253
  6
CONTINUOUS
 10
-9.7207617618
 20
5.2882140174
 11
-9.7216466496
 21
5.4766331038
  0
LINE
  5
2A4
100
AcDbEntity
  8
RACCORDO
100
AcDbLine
 62
253
  6
CONTINUOUS
 10
-9.7203134184
 20
4.9340313378
 11
-9.7207617618
 21
5.2882140174
  0
LINE
  5
2A5
100
AcDbEntity
  8
RACCORDO
100
AcDbLine
 62
253
  6
CONTINUOUS
 10
-10.3956323968
 20
-23.6278312164
 11
-10.3956323968
 21
-24.495628166
  0
LINE
  5
2A6
100
AcDbEntity
  8
RACCORDO
100
AcDbLine
 62
253
  6
CONTINUOUS
 10
-10.3956323968
 20
23.6278312164
 11
-10.3956323968
 21
24.495628166
  0
LINE
  5
2A7
100
AcDbEntity
  8
DRAFT
100
AcDbLine
 62
7
  6
CONTINUOUS
 10
-10.15
 20
8.0
 11
-10.15
 21
-8.0
  0
LINE
  5
2A8
100
AcDbEntity
  8
DRAFT
100
AcDbLine
 62
7
  6
CONTINUOUS
 10
-10.1002568536
 20
-5.5845601032
 11
-10.1002568536
 21
5.5845601032
  0
LINE
  5
2A9
100
AcDbEntity
  8
DRAFT
100
AcDbLine
 62
7
  6
CONTINUOUS
 10
-10.0723308767
 20
7.9791886211
 11
-10.0723308767
 21
5.6124860802
  0
LINE
  5
2AA
100
AcDbEntity
  8
DRAFT
100
AcDbLine
 62
7
  6
CONTINUOUS
 10
-10.0723308767
 20
-5.6124860802
 11
-10.0723308767
 21
-7.9791886211
  0
LINE
  5
2AB
100
AcDbEntity
  8
RACCORDO
100
AcDbLine
 62
7
  6
CONTINUOUS
 10
-9.7220740231
 20
-5.5199715718
 11
-9.7220740231
 21
-4.9340313378
  0
LINE
  5
2AC
100
AcDbEntity
  8
RACCORDO
100
AcDbLine
 62
7
  6
CONTINUOUS
 10
-9.7220740231
 20
4.9340313378
 11
-9.7220740231
 21
5.5199715968
  0
LINE
  5
2AD
100
AcDbEntity
  8
RACCORDO
100
AcDbLine
 62
7
  6
CONTINUOUS
 10
-9.7203134184
 20
-4.9340313378
 11
-9.7203134184
 21
4.9340313378
  0
LINE
  5
2AE
100
AcDbEntity
  8
DRAFT
100
AcDbLine
 62
7
  6
CONTINUOUS
 10
-9.65
 20
-20.1489710538
 11
-9.65
 21
-8.8660254038
  0
LINE
  5
2AF
100
AcDbEntity
  8
DRAFT
100
AcDbLine
 62
7
  6
CONTINUOUS
 10
-9.65
 20
8.8660254038
 11
-9.65
 21
20.1489710538
  0
LINE
  5
2B0
100
AcDbEntity
  8
RACCORDO
100
AcDbLine
 62
7
  6
CONTINUOUS
 10
-9.5871617663
 20
19.9603030484
 11
-9.5871617663
 21
19.924454269
  0
LINE
  5
2B1
100
AcDbEntity
  8
RACCORDO
100
AcDbLine
 62
7
  6
CONTINUOUS
 10
-9.529560052
 20
15.2131093409
 11
-9.529560052
 21
19.4
  0
LINE
  5
2B2
100
AcDbEntity
  8
RACCORDO
100
AcDbLine
 62
253
  6
CONTINUOUS
 10
-9.5203210338
 20
-4.9340313485
 11
-9.5203210338
 21
4.9340313485
  0
LINE
  5
2B3
100
AcDbEntity
  8
DRAFT
100
AcDbLine
 62
7
  6
CONTINUOUS
 10
-9.4946499221
 20
14.7
 11
-9.4946499221
 21
8.9797613849
  0
LINE
  5
2B4
100
AcDbEntity
  8
DRAFT
100
AcDbLine
 62
7
  6
CONTINUOUS
 10
-9.4946499221
 20
-8.9797613849
 11
-9.4946499221
 21
-19.6825418182
  0
LINE
  5
2B5
100
AcDbEntity
  8
RACCORDO
100
AcDbLine
 62
253
  6
CONTINUOUS
 10
-9.7211511734
 20
-5.3939456666
 11
-9.7203134184
 21
-4.9340313378
  0
LINE
  5
2B6
100
AcDbEntity
  8
RACCORDO
100
AcDbLine
 62
253
  6
CONTINUOUS
 10
-9.7217839816
 20
-5.4928979175
 11
-9.7211511734
 21
-5.3939456666
  0
LINE
  5
2B7
100
AcDbEntity
  8
RACCORDO
100
AcDbLine
 62
253
  6
CONTINUOUS
 10
-9.7220740231
 20
-5.5199715718
 11
-9.7217839816
 21
-5.4928979175
  0
LWPOLYLINE
  5
2B8
100
AcDbEntity
  8
RACCORDO
100
AcDbPolyline
 62
7
  6
CONTINUOUS
 90
6
 70
0
 10
-9.7220740231
 20
5.5199993424
 10
-9.7213948922
 20
5.5411066112
 10
-9.7189709543
 20
5.5616931588
 10
-9.7148022095
 20
5.5817589852
 10
-9.7088886577
 20
5.6013040904
 10
-9.7012302989
 20
5.6203284745
  0
LWPOLYLINE
  5
2B9
100
AcDbEntity
  8
RACCORDO
100
AcDbPolyline
 62
253
  6
CONTINUOUS
 90
16
 70
0
 10
-8.254371834
 20
23.8443375673
 10
-8.2557972728
 20
23.821867947
 10
-8.2599158043
 20
23.7996063846
 10
-8.2666953571
 20
23.7777957701
 10
-8.2760801139
 20
23.7566651497
 10
-8.2879766955
 20
23.7364606533
 10
-8.3022421028
 20
23.7174372488
 10
-8.3187107428
 20
23.6998121994
 10
-8.3372094985
 20
23.683767696
 10
-8.3575368624
 20
23.6694786415
 10
-8.3794714821
 20
23.6571010859
 10
-8.4027729209
 20
23.6467711244
 10
-8.4271848091
 20
23.638602409
 10
-8.4524394939
 20
23.6326841728
 10
-8.4782612309
 20
23.6290807159
 10
-8.5043676032
 20
23.6278312164
  0
LWPOLYLINE
  5
2BA
100
AcDbEntity
  8
RACCORDO
100
AcDbPolyline
 62
253
  6
CONTINUOUS
 90
16
 70
0
 10
-10.645628166
 20
-23.8443375673
 10
-10.6442027272
 20
-23.821867947
 10
-10.6400841957
 20
-23.7996063846
 10
-10.6333046429
 20
-23.7777957701
 10
-10.6239198861
 20
-23.7566651497
 10
-10.6120233045
 20
-23.7364606533
 10
-10.5977578972
 20
-23.7174372488
 10
-10.5812892572
 20
-23.6998121994
 10
-10.5627905015
 20
-23.683767696
 10
-10.5424631376
 20
-23.6694786415
 10
-10.5205285179
 20
-23.6571010859
 10
-10.4972270791
 20
-23.6467711244
 10
-10.4728151909
 20
-23.638602409
 10
-10.4475605061
 20
-23.6326841728
 10
-10.4217387691
 20
-23.6290807159
 10
-10.3956323968
 20
-23.6278312164
  0
LINE
  5
2BB
100
AcDbEntity
  8
0
100
AcDbLine
 62
7
  6
CONTINUOUS
 10
-7.2988376746
 20
20.9104703804
 11
-7.3209441873
 21
20.7113319946
  0
LWPOLYLINE
  5
2BC
100
AcDbEntity
  8
RACCORDO
100
AcDbPolyline
 62
253
  6
CONTINUOUS
 90
19
 70
0
 10
-6.5562117438
 20
19.9852938746
 10
-6.5577680035
 20
19.9745863108
 10
-6.5620507349
 20
19.9641598834
 10
-6.56900014
 20
19.9540145926
 10
-6.578543759
 20
19.9440728631
 10
-6.5905772887
 20
19.9344122701
 10
-6.6049475465
 20
19.9252655393
 10
-6.6214803714
 20
19.9166641274
 10
-6.6400301054
 20
19.9085765777
 10
-6.6604606948
 20
19.9011412454
 10
-6.6826213767
 20
19.8943610039
 10
-6.7063052796
 20
19.8882329797
 10
-6.7312820562
 20
19.8828869077
 10
-6.7573463301
 20
19.8783537872
 10
-6.7842893987
 20
19.8746026187
 10
-6.8118609027
 20
19.8716701391
 10
-6.8398353045
 20
19.8695685937
 10
-6.8680178819
 20
19.868285737
 10
-6.8962059899
 20
19.8678215691
  0
LINE
  5
2BD
100
AcDbEntity
  8
DRAFT
100
AcDbLine
 62
7
  6
CONTINUOUS
 10
4.4
 20
22.4
 11
4.3559327327
 21
22.3338981669
  0
LINE
  5
2BE
100
AcDbEntity
  8
RACCORDO
100
AcDbLine
 62
7
  6
CONTINUOUS
 10
9.4946499221
 20
14.7
 11
9.5209086807
 21
14.7131283793
  0
LINE
  5
2BF
100
AcDbEntity
  8
DRAFT
100
AcDbLine
 62
7
  6
CONTINUOUS
 10
4.4
 20
-22.4
 11
4.3559327327
 21
-22.3338981669
  0
LWPOLYLINE
  5
2C0
100
AcDbEntity
  8
RACCORDO
100
AcDbPolyline
 62
253
  6
CONTINUOUS
 90
19
 70
0
 10
-6.5562117438
 20
-19.9852938746
 10
-6.5577379397
 20
-19.9746952435
 10
-6.5619538235
 20
-19.964339787
 10
-6.5688282298
 20
-19.9542275051
 10
-6.5783299532
 20
-19.9442665734
 10
-6.5903744352
 20
-19.9345488163
 10
-6.6047754033
 20
-19.9253497067
 10
-6.6213369369
 20
-19.9167121937
 10
-6.6399242606
 20
-19.9085933282
 10
-6.6603861276
 20
-19.9011397353
 10
-6.6825590393
 20
-19.8943630929
 10
-6.7062374519
 20
-19.8882517231
 10
-6.7311961492
 20
-19.8829172172
 10
-6.7572147191
 20
-19.8783829183
 10
-6.7840958746
 20
-19.8746254834
 10
-6.8116416451
 20
-19.8716864748
 10
-6.8396476615
 20
-19.8695797466
 10
-6.8679034441
 20
-19.8682914447
 10
-6.8962059899
 20
-19.8678215691
  0
LWPOLYLINE
  5
2C1
100
AcDbEntity
  8
RACCORDO
100
AcDbPolyline
 62
7
  6
CONTINUOUS
 90
3
 70
0
 10
-9.7189170927
 20
-5.5619094174
 10
-9.7213612273
 20
-5.541241773
 10
-9.7220740231
 20
-5.5199993424
  0
LINE
  5
2C2
100
AcDbEntity
  8
DRAFT
100
AcDbLine
 62
7
  6
CONTINUOUS
 10
-7.3517786853
 20
-20.4335707644
 11
-7.2988376746
 21
-20.9104703804
  0
LWPOLYLINE
  5
2C3
100
AcDbEntity
  8
RACCORDO
100
AcDbPolyline
 62
253
  6
CONTINUOUS
 90
19
 70
0
 10
-6.5562117438
 20
-19.9852938746
 10
-6.5576620311
 20
-19.9572357813
 10
-6.5618187921
 20
-19.9293652335
 10
-6.5686516415
 20
-19.9019198565
 10
-6.5781304555
 20
-19.8750942688
 10
-6.5901704612
 20
-19.8491612078
 10
-6.6045830298
 20
-19.8244487998
 10
-6.6211703795
 20
-19.8011952879
 10
-6.6397970213
 20
-19.7795128455
 10
-6.6603103123
 20
-19.7595019923
 10
-6.6825460988
 20
-19.7412867081
 10
-6.70629684
 20
-19.7250073213
 10
-6.7313337215
 20
-19.7107612985
 10
-6.7574319917
 20
-19.6986275794
 10
-6.7843947554
 20
-19.6886591985
 10
-6.812027853
 20
-19.6808834648
 10
-6.8401273882
 20
-19.6753214038
 10
-6.8684793931
 20
-19.6719833797
 10
-6.8968790409
 20
-19.6708580904
  0
LINE
  5
2C4
100
AcDbEntity
  8
RACCORDO
100
AcDbLine
 62
253
  6
CONTINUOUS
 10
-7.3517786853
 20
-16.7123163328
 11
-7.2437882562
 21
-19.9852938746
  0
LINE
  5
2C5
100
AcDbEntity
  8
RACCORDO
100
AcDbLine
 62
253
  6
CONTINUOUS
 10
-7.0121164182
 20
-16.3674200646
 11
-6.9031209497
 21
-19.6708583756
  0
LINE
  5
2C6
100
AcDbEntity
  8
RACCORDO
100
AcDbLine
 62
253
  6
CONTINUOUS
 10
-8.5043676032
 20
23.6278312164
 11
-8.4992770021
 21
23.1226497308
  0
LINE
  5
2C7
100
AcDbEntity
  8
RACCORDO
100
AcDbLine
 62
253
  6
CONTINUOUS
 10
-8.254371834
 20
23.8443375673
 11
-8.25
 21
23.4104851482
  0
LINE
  5
2C8
100
AcDbEntity
  8
RACCORDO
100
AcDbLine
 62
253
  6
CONTINUOUS
 10
-6.8967294568
 20
-19.6908675681
 11
-6.8968790503
 21
-19.6708583756
  0
LINE
  5
2C9
100
AcDbEntity
  8
RACCORDO
100
AcDbLine
 62
253
  6
CONTINUOUS
 10
-6.8962059899
 20
-19.8678199262
 11
-6.8967294568
 21
-19.6908675681
  0
LINE
  5
2CA
100
AcDbEntity
  8
RACCORDO
100
AcDbLine
 62
253
  6
CONTINUOUS
 10
-8.5043676032
 20
-23.6278312164
 11
-8.5043676032
 21
-24.495628166
  0
LINE
  5
2CB
100
AcDbEntity
  8
RACCORDO
100
AcDbLine
 62
253
  6
CONTINUOUS
 10
-8.5043676032
 20
23.6278312164
 11
-8.5043676032
 21
24.495628166
  0
LINE
  5
2CC
100
AcDbEntity
  8
RACCORDO
100
AcDbLine
 62
7
  6
CONTINUOUS
 10
-8.254371834
 20
-24.2456323968
 11
-8.254371834
 21
-23.8443375673
  0
LINE
  5
2CD
100
AcDbEntity
  8
RACCORDO
100
AcDbLine
 62
7
  6
CONTINUOUS
 10
-8.254371834
 20
23.8443375673
 11
-8.254371834
 21
24.2456323968
  0
LINE
  5
2CE
100
AcDbEntity
  8
DRAFT
100
AcDbLine
 62
7
  6
CONTINUOUS
 10
-8.25
 20
-21.4
 11
-8.25
 21
-20.9
  0
LINE
  5
2CF
100
AcDbEntity
  8
RACCORDO
100
AcDbLine
 62
7
  6
CONTINUOUS
 10
-8.25
 20
-22.4
 11
-8.25
 21
-23.8443375673
  0
LINE
  5
2D0
100
AcDbEntity
  8
DRAFT
100
AcDbLine
 62
7
  6
CONTINUOUS
 10
-8.25
 20
20.9
 11
-8.25
 21
21.4
  0
LINE
  5
2D1
100
AcDbEntity
  8
RACCORDO
100
AcDbLine
 62
7
  6
CONTINUOUS
 10
-8.25
 20
22.4
 11
-8.25
 21
23.8443375673
  0
LINE
  5
2D2
100
AcDbEntity
  8
RACCORDO
100
AcDbLine
 62
253
  6
CONTINUOUS
 10
-8.0840245667
 20
21.5659754333
 11
-8.0840245667
 21
20.9917082642
  0
LINE
  5
2D3
100
AcDbEntity
  8
RACCORDO
100
AcDbLine
 62
253
  6
CONTINUOUS
 10
-8.0840245667
 20
-20.9917082642
 11
-8.0840245667
 21
-21.5659754333
  0
LINE
  5
2D4
100
AcDbEntity
  8
0
100
AcDbLine
 62
7
  6
CONTINUOUS
 10
-8.0
 20
4.6188021535
 11
-8.0
 21
-4.6188021535
  0
LINE
  5
2D5
100
AcDbEntity
  8
RACCORDO
100
AcDbLine
 62
253
  6
CONTINUOUS
 10
-7.5841007192
 20
21.3126932437
 11
-7.5841007192
 21
20.9959955457
  0
LINE
  5
2D6
100
AcDbEntity
  8
RACCORDO
100
AcDbLine
 62
253
  6
CONTINUOUS
 10
-7.5841007192
 20
-20.9959955457
 11
-7.5841007192
 21
-21.3126932437
  0
LINE
  5
2D7
100
AcDbEntity
  8
RACCORDO
100
AcDbLine
 62
7
  6
CONTINUOUS
 10
-7.3517786853
 20
-20.4335707644
 11
-7.3517786853
 21
-16.7123163328
  0
LINE
  5
2D8
100
AcDbEntity
  8
DRAFT
100
AcDbLine
 62
7
  6
CONTINUOUS
 10
-7.3401430257
 20
17.0649702942
 11
-7.3401430257
 21
19.4
  0
LINE
  5
2D9
100
AcDbEntity
  8
RACCORDO
100
AcDbLine
 62
7
  6
CONTINUOUS
 10
-7.3209441873
 20
20.7113319946
 11
-7.3209441873
 21
19.924454269
  0
LINE
  5
2DA
100
AcDbEntity
  8
RACCORDO
100
AcDbLine
 62
7
  6
CONTINUOUS
 10
-7.2437882562
 20
20.9930456726
 11
-7.2437882562
 21
19.9852938746
  0
LINE
  5
2DB
100
AcDbEntity
  8
RACCORDO
100
AcDbLine
 62
7
  6
CONTINUOUS
 10
-7.2437882562
 20
-19.9852938746
 11
-7.2437882562
 21
-20.9930456726
  0
LINE
  5
2DC
100
AcDbEntity
  8
RACCORDO
100
AcDbLine
 62
7
  6
CONTINUOUS
 10
-6.898102995
 20
20.5829242832
 11
-6.903794009
 21
19.8678199262
  0
LWPOLYLINE
  5
2DD
100
AcDbEntity
  8
RACCORDO
100
AcDbPolyline
 62
253
  6
CONTINUOUS
 90
3
 70
0
 10
-6.8968790503
 20
19.6708583756
 10
-6.8968042639
 20
19.6785902948
 10
-6.8962059899
 20
19.8678199262
  0
LINE
  5
2DE
100
AcDbEntity
  8
RACCORDO
100
AcDbLine
 62
253
  6
CONTINUOUS
 10
-8.4992770021
 20
-23.1226497308
 11
-8.5043676032
 21
-23.6278312164
  0
LINE
  5
2DF
100
AcDbEntity
  8
RACCORDO
100
AcDbLine
 62
253
  6
CONTINUOUS
 10
-8.25
 20
-23.4104851482
 11
-8.254371834
 21
-23.8443375673
  0
LINE
  5
2E0
100
AcDbEntity
  8
0
100
AcDbLine
 62
253
  6
CONTINUOUS
 10
-7.3401430257
 20
17.0649702942
 11
-7.2437882562
 21
19.9852938746
  0
LINE
  5
2E1
100
AcDbEntity
  8
0
100
AcDbLine
 62
253
  6
CONTINUOUS
 10
-7.0004807586
 20
16.720074026
 11
-6.9031209497
 21
19.6708583756
  0
LWPOLYLINE
  5
2E2
100
AcDbEntity
  8
RACCORDO
100
AcDbPolyline
 62
253
  6
CONTINUOUS
 90
19
 70
0
 10
-6.5562117438
 20
19.9852938746
 10
-6.5576913728
 20
19.9569443505
 10
-6.561914668
 20
19.9288852714
 10
-6.5688222588
 20
19.9013554521
 10
-6.5783422526
 20
19.8745781662
 10
-6.5903698074
 20
19.8487823885
 10
-6.6047498834
 20
19.8241934121
 10
-6.6213066536
 20
19.8010253293
 10
-6.6398939969
 20
19.7794149075
 10
-6.6603760042
 20
19.7594485234
 10
-6.6826037971
 20
19.7412462009
 10
-6.7063671988
 20
19.7249626718
 10
-6.73142737
 20
19.7107098788
 10
-6.7575710313
 20
19.6985655899
 10
-6.7845922549
 20
19.6885912853
 10
-6.812248127
 20
19.6808283299
 10
-6.8403149945
 20
19.6752907909
 10
-6.8685934446
 20
19.6719743645
 10
-6.8968790409
 20
19.6708580904
  0
LWPOLYLINE
  5
2E3
100
AcDbEntity
  8
RACCORDO
100
AcDbPolyline
 62
7
  6
CONTINUOUS
 90
16
 70
0
 10
-8.254371834
 20
-24.2456323968
 10
-8.2557510515
 20
-24.2718479197
 10
-8.2598719695
 20
-24.2977755339
 10
-8.2666895127
 20
-24.3231292552
 10
-8.2761304098
 20
-24.3476328491
 10
-8.2880900521
 20
-24.3710120998
 10
-8.3024300604
 20
-24.3929996217
 10
-8.3189845273
 20
-24.4133491077
 10
-8.3375725027
 20
-24.4318451154
 10
-8.3579964441
 20
-24.4482930995
 10
-8.3800700853
 20
-24.4625337261
 10
-8.4035170871
 20
-24.4743800665
 10
-8.4279636688
 20
-24.4836641013
 10
-8.4530896401
 20
-24.4903109733
 10
-8.4786507683
 20
-24.4943010441
 10
-8.5043676032
 20
-24.495628166
  0
LWPOLYLINE
  5
2E4
100
AcDbEntity
  8
ASSI
100
AcDbPolyline
 62
7
  6
CONTINUOUS
 90
5
 70
0
 10
-3.5
 20
23.7511422903
 10
-3.5014308821
 20
23.7447993963
 10
-3.5057373078
 20
23.7358192122
 10
-3.5129251752
 20
23.7242017379
 10
-3.522975171
 20
23.7099260988
  0
LWPOLYLINE
  5
2E5
100
AcDbEntity
  8
RACCORDO
100
AcDbPolyline
 62
7
  6
CONTINUOUS
 90
7
 70
0
 10
-9.7229086322
 20
-5.6052409312
 10
-9.7227598146
 20
-5.60459683
 10
-9.7226120673
 20
-5.6028288312
 10
-9.7224653902
 20
-5.599936935
 10
-9.7223197834
 20
-5.5959211411
 10
-9.7221752469
 20
-5.5907814498
 10
-9.7220317807
 20
-5.5845178608
  0
LINE
  5
2E6
100
AcDbEntity
  8
RACCORDO
100
AcDbLine
 62
253
  6
CONTINUOUS
 10
-9.5447026277
 20
-5.0363542711
 11
-9.5203210338
 21
-4.9340313378
  0
LINE
  5
2E7
100
AcDbEntity
  8
RACCORDO
100
AcDbLine
 62
253
  6
CONTINUOUS
 10
-9.6354671658
 20
-5.412088967
 11
-9.5447026277
 21
-5.0363542711
  0
LINE
  5
2E8
100
AcDbEntity
  8
RACCORDO
100
AcDbLine
 62
253
  6
CONTINUOUS
 10
-9.6814028944
 20
-5.5982575786
 11
-9.6354671658
 21
-5.412088967
  0
LINE
  5
2E9
100
AcDbEntity
  8
RACCORDO
100
AcDbLine
 62
253
  6
CONTINUOUS
 10
-9.6918952806
 20
-5.6386738928
 11
-9.6814028944
 21
-5.5982575786
  0
LWPOLYLINE
  5
2EA
100
AcDbEntity
  8
RACCORDO
100
AcDbPolyline
 62
7
  6
CONTINUOUS
 90
4
 70
0
 10
6.718805482
 20
20.3650828073
 10
6.7721993148
 20
20.4317727281
 10
6.8012624195
 20
20.4674150493
 10
6.8962059899
 20
20.5829242832
  0
LINE
  5
2EB
100
AcDbEntity
  8
DRAFT
100
AcDbLine
 62
7
  6
CONTINUOUS
 10
3.5061088075
 20
15.5
 11
3.4965092529
 21
15.4904004454
  0
LINE
  5
2EC
100
AcDbEntity
  8
RACCORDO
100
AcDbLine
 62
7
  6
CONTINUOUS
 10
3.5131283793
 20
14.7131283793
 11
3.5
 21
14.7
  0
LINE
  5
2ED
100
AcDbEntity
  8
0
100
AcDbLine
 62
7
  6
CONTINUOUS
 10
0.0
 20
9.237604307
 11
-8.0
 21
4.6188021535
  0
LINE
  5
2EE
100
AcDbEntity
  8
0
100
AcDbLine
 62
7
  6
CONTINUOUS
 10
-8.0
 20
-4.6188021535
 11
-0.0
 21
-9.237604307
  0
LINE
  5
2EF
100
AcDbEntity
  8
RACCORDO
100
AcDbLine
 62
7
  6
CONTINUOUS
 10
6.8962059899
 20
-20.5829242832
 11
6.8012675638
 21
-20.46742135
  0
LINE
  5
2F0
100
AcDbEntity
  8
RACCORDO
100
AcDbLine
 62
7
  6
CONTINUOUS
 10
6.8012675638
 20
-20.46742135
 11
6.7721726764
 21
-20.4317377618
  0
LWPOLYLINE
  5
2F1
100
AcDbEntity
  8
RACCORDO
100
AcDbPolyline
 62
7
  6
CONTINUOUS
 90
14
 70
0
 10
6.7721726764
 20
-20.4317377618
 10
6.7186412739
 20
-20.3648753075
 10
6.6943078226
 20
-20.3339240836
 10
6.6717654017
 20
-20.3045982727
 10
6.6509286708
 20
-20.2769579826
 10
6.631898657
 20
-20.2509723688
 10
6.6148249494
 20
-20.2266722757
 10
6.5997413856
 20
-20.2042103446
 10
6.5867285289
 20
-20.1835803156
 10
6.5759257072
 20
-20.1647884485
 10
6.5674381967
 20
-20.1480061633
 10
6.5613143221
 20
-20.1332905999
 10
6.5575693908
 20
-20.1205846184
 10
6.5562117438
 20
-20.1098882188
  0
LINE
  5
2F2
100
AcDbEntity
  8
RACCORDO
100
AcDbLine
 62
253
  6
CONTINUOUS
 10
-9.6814029082
 20
5.5982575461
 11
-9.6918951868
 21
5.6386740518
  0
LINE
  5
2F3
100
AcDbEntity
  8
RACCORDO
100
AcDbLine
 62
253
  6
CONTINUOUS
 10
-9.6583187358
 20
5.5055232636
 11
-9.6814029082
 21
5.5982575461
  0
LWPOLYLINE
  5
2F4
100
AcDbEntity
  8
RACCORDO
100
AcDbPolyline
 62
253
  6
CONTINUOUS
 90
3
 70
0
 10
-9.5203210338
 20
4.9340313378
 10
-9.5326144721
 20
4.9859752881
 10
-9.6583187358
 20
5.5055232636
  0
LINE
  5
2F5
100
AcDbEntity
  8
0
100
AcDbLine
 62
253
  6
CONTINUOUS
 10
-6.7995192414
 20
16.720074026
 11
-6.8968790503
 21
19.6708583756
  0
LINE
  5
2F6
100
AcDbEntity
  8
0
100
AcDbLine
 62
253
  6
CONTINUOUS
 10
-6.4598569743
 20
17.0649702942
 11
-6.5562117438
 21
19.9852938746
  0
LINE
  5
2F7
100
AcDbEntity
  8
RACCORDO
100
AcDbLine
 62
7
  6
CONTINUOUS
 10
-6.9037940101
 20
20.9959955457
 11
-6.9
 21
20.5829242832
  0
LINE
  5
2F8
100
AcDbEntity
  8
RACCORDO
100
AcDbLine
 62
253
  6
CONTINUOUS
 10
-6.9031209497
 20
19.6708583756
 11
-6.9032619297
 21
19.6908669642
  0
LINE
  5
2F9
100
AcDbEntity
  8
RACCORDO
100
AcDbLine
 62
253
  6
CONTINUOUS
 10
-6.898102995
 20
20.5829242832
 11
-6.8962059944
 21
19.8678199262
  0
LWPOLYLINE
  5
2FA
100
AcDbEntity
  8
RACCORDO
100
AcDbPolyline
 62
253
  6
CONTINUOUS
 90
3
 70
0
 10
-6.9032619297
 20
19.6908669642
 10
-6.9037248727
 20
19.8369169906
 10
-6.9037939549
 20
19.8678215689
  0
LINE
  5
2FB
100
AcDbEntity
  8
RACCORDO
100
AcDbLine
 62
253
  6
CONTINUOUS
 10
-6.8962059899
 20
-19.8678199262
 11
-6.8962059899
 21
-20.5829242832
  0
LINE
  5
2FC
100
AcDbEntity
  8
RACCORDO
100
AcDbLine
 62
7
  6
CONTINUOUS
 10
-6.5562117438
 20
20.1098882188
 11
-6.5562117438
 21
19.9852938746
  0
LINE
  5
2FD
100
AcDbEntity
  8
RACCORDO
100
AcDbLine
 62
7
  6
CONTINUOUS
 10
-6.5562117438
 20
-19.9852938746
 11
-6.5562117438
 21
-20.1098882188
  0
LINE
  5
2FE
100
AcDbEntity
  8
RACCORDO
100
AcDbLine
 62
7
  6
CONTINUOUS
 10
-6.4790558127
 20
19.968583276
 11
-6.4790558127
 21
19.924454269
  0
LINE
  5
2FF
100
AcDbEntity
  8
DRAFT
100
AcDbLine
 62
7
  6
CONTINUOUS
 10
-6.4598569743
 20
17.0649702942
 11
-6.4598569743
 21
19.4
  0
LINE
  5
300
100
AcDbEntity
  8
RACCORDO
100
AcDbLine
 62
7
  6
CONTINUOUS
 10
-6.4482213147
 20
-16.7123163328
 11
-6.4482213147
 21
-19.4266752714
  0
LINE
  5
301
100
AcDbEntity
  8
RACCORDO
100
AcDbLine
 62
253
  6
CONTINUOUS
 10
-6.9037940101
 20
-20.9959955457
 11
-6.9033375491
 21
-19.707397901
  0
LWPOLYLINE
  5
302
100
AcDbEntity
  8
RACCORDO
100
AcDbPolyline
 62
253
  6
CONTINUOUS
 90
3
 70
0
 10
-6.9033375491
 20
-19.707397901
 10
-6.9031904479
 20
-19.6785905959
 10
-6.903121052
 20
-19.6708580906
  0
LINE
  5
303
100
AcDbEntity
  8
RACCORDO
100
AcDbLine
 62
253
  6
CONTINUOUS
 10
-6.7878835818
 20
-16.3674200646
 11
-6.8968790503
 21
-19.6708583756
  0
LINE
  5
304
100
AcDbEntity
  8
RACCORDO
100
AcDbLine
 62
253
  6
CONTINUOUS
 10
-6.4482213147
 20
-16.7123163328
 11
-6.5562117438
 21
-19.9852938746
  0
LINE
  5
305
100
AcDbEntity
  8
RACCORDO
100
AcDbLine
 62
7
  6
CONTINUOUS
 10
-8.25
 20
-24.2500042308
 11
-8.2521397607
 21
-24.2826345276
  0
LWPOLYLINE
  5
306
100
AcDbEntity
  8
RACCORDO
100
AcDbPolyline
 62
7
  6
CONTINUOUS
 90
4
 70
0
 10
7.8908834737
 20
21.7591165263
 10
7.826966671
 20
21.6622820938
 10
7.7939284257
 20
21.6130029455
 10
7.7600399297
 20
21.5634376887
  0
LINE
  5
307
100
AcDbEntity
  8
0
100
AcDbLine
 62
7
  6
CONTINUOUS
 10
6.555294768
 20
20.0829433217
 11
6.4790558127
 21
19.968583276
  0
LINE
  5
308
100
AcDbEntity
  8
RACCORDO
100
AcDbLine
 62
7
  6
CONTINUOUS
 10
6.4598569743
 20
19.4
 11
6.4761722825
 21
19.4244733075
  0
LWPOLYLINE
  5
309
100
AcDbEntity
  8
RACCORDO
100
AcDbPolyline
 62
7
  6
CONTINUOUS
 90
4
 70
0
 10
7.7600399297
 20
21.5634376887
 10
7.655358614
 20
21.4132782388
 10
7.6198940823
 20
21.3629351402
 10
7.5841007192
 20
21.3126932437
  0
LINE
  5
30A
100
AcDbEntity
  8
DRAFT
100
AcDbLine
 62
7
  6
CONTINUOUS
 10
10.0723308767
 20
-5.6124860802
 11
9.75
 21
-5.6124860802
  0
LINE
  5
30B
100
AcDbEntity
  8
DRAFT
100
AcDbLine
 62
7
  6
CONTINUOUS
 10
-9.75
 20
-5.6124860802
 11
-10.0723308767
 21
-5.6124860802
  0
LINE
  5
30C
100
AcDbEntity
  8
RACCORDO
100
AcDbLine
 62
7
  6
CONTINUOUS
 10
10.1002568536
 20
-5.5845601032
 11
9.7220740231
 21
-5.5845601032
  0
LINE
  5
30D
100
AcDbEntity
  8
RACCORDO
100
AcDbLine
 62
7
  6
CONTINUOUS
 10
-9.7220740231
 20
-5.5845601032
 11
-10.1002568536
 21
-5.5845601032
  0
LINE
  5
30E
100
AcDbEntity
  8
RACCORDO
100
AcDbLine
 62
7
  6
CONTINUOUS
 10
7.5841007192
 20
-21.3126932437
 11
7.6198940823
 21
-21.3629351402
  0
LINE
  5
30F
100
AcDbEntity
  8
RACCORDO
100
AcDbLine
 62
7
  6
CONTINUOUS
 10
7.6198940823
 20
-21.3629351402
 11
7.6904943142
 21
-21.463591597
  0
LWPOLYLINE
  5
310
100
AcDbEntity
  8
RACCORDO
100
AcDbPolyline
 62
7
  6
CONTINUOUS
 90
4
 70
0
 10
7.6904943142
 20
-21.463591597
 10
7.7600399297
 20
-21.5634376887
 10
7.7939284257
 20
-21.6130029455
 10
7.826966671
 20
-21.6622820938
  0
LINE
  5
311
100
AcDbEntity
  8
RACCORDO
100
AcDbLine
 62
7
  6
CONTINUOUS
 10
6.555294768
 20
-20.0829433217
 11
6.4511048448
 21
-19.9266562329
  0
LINE
  5
312
100
AcDbEntity
  8
RACCORDO
100
AcDbLine
 62
7
  6
CONTINUOUS
 10
7.826966671
 20
-21.6622820938
 11
7.8908834737
 21
-21.7591165263
  0
LINE
  5
313
100
AcDbEntity
  8
DRAFT
100
AcDbLine
 62
7
  6
CONTINUOUS
 10
-3.4965092529
 20
15.1
 11
-3.4947638793
 21
14.9
  0
LINE
  5
314
100
AcDbEntity
  8
DRAFT
100
AcDbLine
 62
7
  6
CONTINUOUS
 10
-4.4
 20
23.8
 11
-4.4
 21
22.4
  0
LINE
  5
315
100
AcDbEntity
  8
DRAFT
100
AcDbLine
 62
7
  6
CONTINUOUS
 10
-4.4
 20
-22.4
 11
-4.4
 21
-23.8
  0
LINE
  5
316
100
AcDbEntity
  8
ASSI
100
AcDbLine
 62
7
  6
CONTINUOUS
 10
-4.3559327327
 20
-22.3338981669
 11
-4.3559327327
 21
-23.7507734247
  0
LINE
  5
317
100
AcDbEntity
  8
ASSI
100
AcDbLine
 62
7
  6
CONTINUOUS
 10
-4.3559327327
 20
22.3338981669
 11
-4.3559327327
 21
23.7507734247
  0
LINE
  5
318
100
AcDbEntity
  8
RACCORDO
100
AcDbLine
 62
7
  6
CONTINUOUS
 10
-4.3
 20
19.4
 11
-4.3
 21
17.5999885769
  0
LINE
  5
319
100
AcDbEntity
  8
RACCORDO
100
AcDbLine
 62
7
  6
CONTINUOUS
 10
-4.2712013363
 20
19.924454269
 11
-4.2712013363
 21
19.968583276
  0
LINE
  5
31A
100
AcDbEntity
  8
RACCORDO
100
AcDbLine
 62
7
  6
CONTINUOUS
 10
-4.242379826
 20
19.9974047863
 11
-4.242379826
 21
17.6576087509
  0
LINE
  5
31B
100
AcDbEntity
  8
RACCORDO
100
AcDbLine
 62
253
  6
CONTINUOUS
 10
-3.9423912491
 20
20.0
 11
-3.9423912491
 21
17.357620174
  0
LINE
  5
31C
100
AcDbEntity
  8
RACCORDO
100
AcDbLine
 62
7
  6
CONTINUOUS
 10
-3.5174537356
 20
15.2131093409
 11
-3.5174537356
 21
16.2
  0
LINE
  5
31D
100
AcDbEntity
  8
DRAFT
100
AcDbLine
 62
7
  6
CONTINUOUS
 10
-3.5061088075
 20
15.5
 11
-3.5061088075
 21
16.2
  0
LINE
  5
31E
100
AcDbEntity
  8
DRAFT
100
AcDbLine
 62
7
  6
CONTINUOUS
 10
-3.5
 20
14.7
 11
-3.5
 21
14.0
  0
LINE
  5
31F
100
AcDbEntity
  8
RACCORDO
100
AcDbLine
 62
7
  6
CONTINUOUS
 10
-3.5
 20
-22.3339198952
 11
-3.5
 21
-23.7511422903
  0
LINE
  5
320
100
AcDbEntity
  8
ASSI
100
AcDbLine
 62
7
  6
CONTINUOUS
 10
-3.5
 20
-22.3339198952
 11
-3.5
 21
-23.7511660005
  0
LINE
  5
321
100
AcDbEntity
  8
ASSI
100
AcDbLine
 62
7
  6
CONTINUOUS
 10
-3.5
 20
-23.7563493531
 11
-3.5
 21
-23.7941821702
  0
LINE
  5
322
100
AcDbEntity
  8
ASSI
100
AcDbLine
 62
7
  6
CONTINUOUS
 10
-3.5
 20
23.7563493531
 11
-3.5
 21
23.7941821702
  0
LINE
  5
323
100
AcDbEntity
  8
ASSI
100
AcDbLine
 62
7
  6
CONTINUOUS
 10
-3.5
 20
22.3339198952
 11
-3.5
 21
23.7511660005
  0
LINE
  5
324
100
AcDbEntity
  8
DRAFT
100
AcDbLine
 62
7
  6
CONTINUOUS
 10
-3.4965092529
 20
15.4904004454
 11
-3.4965092529
 21
15.1
  0
LINE
  5
325
100
AcDbEntity
  8
DRAFT
100
AcDbLine
 62
7
  6
CONTINUOUS
 10
-3.4947638793
 20
14.9
 11
-3.4947638793
 21
14.0
  0
LINE
  5
326
100
AcDbEntity
  8
RACCORDO
100
AcDbLine
 62
7
  6
CONTINUOUS
 10
-3.4
 20
14.1
 11
-3.4
 21
15.5
  0
LWPOLYLINE
  5
327
100
AcDbEntity
  8
RACCORDO
100
AcDbPolyline
 62
7
  6
CONTINUOUS
 90
13
 70
0
 10
-6.5562117438
 20
-20.1098882188
 10
-6.5575696162
 20
-20.1205675404
 10
-6.5613244025
 20
-20.1333041487
 10
-6.5674809273
 20
-20.1480980436
 10
-6.5760502147
 20
-20.1650349791
 10
-6.586988566
 20
-20.1840292012
 10
-6.6001410963
 20
-20.2048234481
 10
-6.6153292625
 20
-20.2273983406
 10
-6.6324723001
 20
-20.2517732579
 10
-6.6515164865
 20
-20.2777490756
 10
-6.6722641165
 20
-20.3052375522
 10
-6.6946318412
 20
-20.3343269292
 10
-6.718805482
 20
-20.3650828073
  0
LINE
  5
328
100
AcDbEntity
  8
RACCORDO
100
AcDbLine
 62
7
  6
CONTINUOUS
 10
-8.2521397607
 20
-24.2826345276
 11
-8.2585202239
 21
-24.314706535
  0
LINE
  5
329
100
AcDbEntity
  8
DRAFT
100
AcDbLine
 62
7
  6
CONTINUOUS
 10
-10.15
 20
-8.0
 11
-10.0723308767
 21
-7.9791886211
  0
LINE
  5
32A
100
AcDbEntity
  8
RACCORDO
100
AcDbLine
 62
253
  6
CONTINUOUS
 10
9.7203134184
 20
-4.9340313378
 11
9.5203210338
 21
-4.9340313381
  0
LINE
  5
32B
100
AcDbEntity
  8
RACCORDO
100
AcDbLine
 62
253
  6
CONTINUOUS
 10
-9.7203134184
 20
-4.9340313378
 11
-9.5203210338
 21
-4.9340313378
  0
LINE
  5
32C
100
AcDbEntity
  8
DRAFT
100
AcDbLine
 62
7
  6
CONTINUOUS
 10
10.15
 20
-8.0
 11
10.0723308767
 21
-7.9791886211
  0
LWPOLYLINE
  5
32D
100
AcDbEntity
  8
RACCORDO
100
AcDbPolyline
 62
7
  6
CONTINUOUS
 90
3
 70
0
 10
-8.2585202239
 20
24.314706535
 10
-8.2521397607
 20
24.2826345276
 10
-8.25
 20
24.2500042308
  0
LWPOLYLINE
  5
32E
100
AcDbEntity
  8
RACCORDO
100
AcDbPolyline
 62
253
  6
CONTINUOUS
 90
16
 70
0
 10
-4.242379826
 20
17.6576087509
 10
-4.2407342285
 20
17.6262529205
 10
-4.2358202396
 20
17.5952405979
 10
-4.2276916927
 20
17.5649115276
 10
-4.2164376372
 20
17.5355979692
 10
-4.202181363
 20
17.5076210568
 10
-4.1850790496
 20
17.4812872819
 10
-4.1653180555
 20
17.4568851347
 10
-4.1431148653
 20
17.4346819445
 10
-4.1187127181
 20
17.4149209504
 10
-4.0923789432
 20
17.397818637
 10
-4.0644020308
 20
17.3835623628
 10
-4.0350884724
 20
17.3723083073
 10
-4.0047594021
 20
17.3641797604
 10
-3.9737470795
 20
17.3592657715
 10
-3.9423912491
 20
17.357620174
  0
LINE
  5
32F
100
AcDbEntity
  8
0
100
AcDbLine
 62
7
  6
CONTINUOUS
 10
-3.1403983299
 20
-0.9
 11
-3.1403983299
 21
0.9
  0
LINE
  5
330
100
AcDbEntity
  8
RACCORDO
100
AcDbLine
 62
7
  6
CONTINUOUS
 10
-3.0
 20
-21.0
 11
-3.0
 21
-22.3912731322
  0
LINE
  5
331
100
AcDbEntity
  8
RACCORDO
100
AcDbLine
 62
7
  6
CONTINUOUS
 10
-3.0
 20
21.0
 11
-3.0
 21
22.3912731322
  0
LINE
  5
332
100
AcDbEntity
  8
SMUSSO
100
AcDbLine
 62
7
  6
CONTINUOUS
 10
-9.4946499221
 20
-19.6825418182
 11
-9.65
 21
-20.1489710538
  0
LINE
  5
333
100
AcDbEntity
  8
SMUSSO
100
AcDbLine
 62
7
  6
CONTINUOUS
 10
-8.744535989
 20
-20.4335707644
 11
-8.8998860669
 21
-20.9
  0
LINE
  5
334
100
AcDbEntity
  8
DRAFT
100
AcDbLine
 62
7
  6
CONTINUOUS
 10
-9.75
 20
-5.6124860802
 11
-9.7220317807
 21
-5.5845178608
  0
LINE
  5
335
100
AcDbEntity
  8
RACCORDO
100
AcDbLine
 62
7
  6
CONTINUOUS
 10
-9.7229086322
 20
-5.6052409312
 11
-9.75
 21
-5.6124860802
  0
LINE
  5
336
100
AcDbEntity
  8
0
100
AcDbLine
 62
7
  6
CONTINUOUS
 10
2.7950849719
 20
-2.5
 11
1.5596016701
 21
-2.5
  0
LINE
  5
337
100
AcDbEntity
  8
RACCORDO
100
AcDbLine
 62
7
  6
CONTINUOUS
 10
9.7229086322
 20
-5.6052409312
 11
9.75
 21
-5.6124860802
  0
LINE
  5
338
100
AcDbEntity
  8
DRAFT
100
AcDbLine
 62
7
  6
CONTINUOUS
 10
-9.7220476014
 20
5.5845336816
 11
-9.75
 21
5.6124860802
  0
LINE
  5
339
100
AcDbEntity
  8
0
100
AcDbLine
 62
7
  6
CONTINUOUS
 10
-9.65
 20
20.1489710538
 11
-9.5871617663
 21
19.9603030484
  0
LINE
  5
33A
100
AcDbEntity
  8
0
100
AcDbLine
 62
7
  6
CONTINUOUS
 10
-8.8998860669
 20
20.9
 11
-8.8370478331
 21
20.7113319946
  0
LWPOLYLINE
  5
33B
100
AcDbEntity
  8
ASSI
100
AcDbPolyline
 62
7
  6
CONTINUOUS
 90
5
 70
0
 10
4.3559327327
 20
23.7507734247
 10
4.3543120218
 20
23.7442841914
 10
4.3498405056
 20
23.7351764464
 10
4.3425117071
 20
23.7234501896
 10
4.3323434824
 20
23.7090837818
  0
LWPOLYLINE
  5
33C
100
AcDbEntity
  8
RACCORDO
100
AcDbPolyline
 62
7
  6
CONTINUOUS
 90
9
 70
0
 10
-8.2585202239
 20
-24.314706535
 10
-8.2690322229
 20
-24.3456715157
 10
-8.2834959022
 20
-24.3749996731
 10
-8.3016637948
 20
-24.4021892159
 10
-8.3232250565
 20
-24.4267749435
 10
-8.3478107841
 20
-24.4483362052
 10
-8.3750003269
 20
-24.4665040978
 10
-8.4043284843
 20
-24.4809677771
 10
-8.435293465
 20
-24.4914797761
  0
LWPOLYLINE
  5
33D
100
AcDbEntity
  8
RACCORDO
100
AcDbPolyline
 62
7
  6
CONTINUOUS
 90
9
 70
0
 10
8.2585202239
 20
24.314706535
 10
8.2690322229
 20
24.3456715157
 10
8.2834959022
 20
24.3749996731
 10
8.3016637948
 20
24.4021892159
 10
8.3232250565
 20
24.4267749435
 10
8.3478107841
 20
24.4483362052
 10
8.3750003269
 20
24.4665040978
 10
8.4043284843
 20
24.4809677771
 10
8.435293465
 20
24.4914797761
  0
LINE
  5
33E
100
AcDbEntity
  8
0
100
AcDbLine
 62
7
  6
CONTINUOUS
 10
1.5596016701
 20
-1.25
 11
2.9596016701
 21
-1.25
  0
LINE
  5
33F
100
AcDbEntity
  8
0
100
AcDbLine
 62
7
  6
CONTINUOUS
 10
-3.6403983299
 20
-0.9
 11
-3.1403983299
 21
-0.9
  0
LINE
  5
340
100
AcDbEntity
  8
0
100
AcDbLine
 62
7
  6
CONTINUOUS
 10
1.5596016701
 20
3.4102994928
 11
1.5596016701
 21
2.5
  0
LINE
  5
341
100
AcDbEntity
  8
0
100
AcDbLine
 62
7
  6
CONTINUOUS
 10
1.5596016701
 20
1.25
 11
1.5596016701
 21
-1.25
  0
LINE
  5
342
100
AcDbEntity
  8
0
100
AcDbLine
 62
7
  6
CONTINUOUS
 10
1.5596016701
 20
-2.5
 11
1.5596016701
 21
-3.4102994928
  0
LWPOLYLINE
  5
343
100
AcDbEntity
  8
ASSI
100
AcDbPolyline
 62
7
  6
CONTINUOUS
 90
5
 70
0
 10
-4.3559327327
 20
-23.7507734247
 10
-4.3543006904
 20
-23.744251162
 10
-4.3497984189
 20
-23.7350990027
 10
-4.3424221365
 20
-23.7233169469
 10
-4.3321898984
 20
-23.7088741372
  0
LINE
  5
344
100
AcDbEntity
  8
0
100
AcDbLine
 62
7
  6
CONTINUOUS
 10
8.8998860669
 20
20.9
 11
8.8370478331
 21
20.7113319946
  0
LINE
  5
345
100
AcDbEntity
  8
0
100
AcDbLine
 62
7
  6
CONTINUOUS
 10
-3.1403983299
 20
0.9
 11
-3.6403983299
 21
0.9
  0
LINE
  5
346
100
AcDbEntity
  8
0
100
AcDbLine
 62
7
  6
CONTINUOUS
 10
2.9596016701
 20
1.25
 11
1.5596016701
 21
1.25
  0
LINE
  5
347
100
AcDbEntity
  8
SMUSSO
100
AcDbLine
 62
7
  6
CONTINUOUS
 10
8.744535989
 20
-20.4335707644
 11
8.8998860669
 21
-20.9
  0
LINE
  5
348
100
AcDbEntity
  8
0
100
AcDbLine
 62
7
  6
CONTINUOUS
 10
2.9596016701
 20
-1.25
 11
2.9596016701
 21
1.25
  0
LINE
  5
349
100
AcDbEntity
  8
RACCORDO
100
AcDbLine
 62
7
  6
CONTINUOUS
 10
3.0
 20
-21.0
 11
3.0
 21
-22.3912731322
  0
LINE
  5
34A
100
AcDbEntity
  8
RACCORDO
100
AcDbLine
 62
7
  6
CONTINUOUS
 10
3.0
 20
21.0
 11
3.0
 21
22.3912731322
  0
LINE
  5
34B
100
AcDbEntity
  8
RACCORDO
100
AcDbLine
 62
7
  6
CONTINUOUS
 10
3.4
 20
15.5
 11
3.4
 21
14.1
  0
LINE
  5
34C
100
AcDbEntity
  8
DRAFT
100
AcDbLine
 62
7
  6
CONTINUOUS
 10
3.4947638793
 20
14.9
 11
3.4947638793
 21
14.0
  0
LINE
  5
34D
100
AcDbEntity
  8
DRAFT
100
AcDbLine
 62
7
  6
CONTINUOUS
 10
3.4965092529
 20
15.4904004454
 11
3.4965092529
 21
15.1
  0
LINE
  5
34E
100
AcDbEntity
  8
DRAFT
100
AcDbLine
 62
7
  6
CONTINUOUS
 10
3.5
 20
14.7
 11
3.5
 21
14.0
  0
LINE
  5
34F
100
AcDbEntity
  8
ASSI
100
AcDbLine
 62
7
  6
CONTINUOUS
 10
3.5
 20
-22.3339198952
 11
3.5
 21
-23.7511660005
  0
LINE
  5
350
100
AcDbEntity
  8
ASSI
100
AcDbLine
 62
7
  6
CONTINUOUS
 10
3.5
 20
-23.7563493531
 11
3.5
 21
-23.7941821702
  0
LINE
  5
351
100
AcDbEntity
  8
RACCORDO
100
AcDbLine
 62
7
  6
CONTINUOUS
 10
3.5
 20
22.3339198952
 11
3.5
 21
23.7511422903
  0
LINE
  5
352
100
AcDbEntity
  8
ASSI
100
AcDbLine
 62
7
  6
CONTINUOUS
 10
3.5
 20
23.7563493531
 11
3.5
 21
23.7941821702
  0
LINE
  5
353
100
AcDbEntity
  8
ASSI
100
AcDbLine
 62
7
  6
CONTINUOUS
 10
3.5
 20
22.3339198952
 11
3.5
 21
23.7511660005
  0
LINE
  5
354
100
AcDbEntity
  8
DRAFT
100
AcDbLine
 62
7
  6
CONTINUOUS
 10
3.5061088075
 20
15.5
 11
3.5061088075
 21
16.2
  0
LINE
  5
355
100
AcDbEntity
  8
RACCORDO
100
AcDbLine
 62
7
  6
CONTINUOUS
 10
3.5174537356
 20
15.2131093409
 11
3.5174537356
 21
16.2
  0
LINE
  5
356
100
AcDbEntity
  8
DRAFT
100
AcDbLine
 62
7
  6
CONTINUOUS
 10
3.4965092529
 20
15.1
 11
3.4947638793
 21
14.9
  0
LINE
  5
357
100
AcDbEntity
  8
RACCORDO
100
AcDbLine
 62
7
  6
CONTINUOUS
 10
8.2521397607
 20
24.2826345276
 11
8.2585202239
 21
24.314706535
  0
LINE
  5
358
100
AcDbEntity
  8
0
100
AcDbLine
 62
7
  6
CONTINUOUS
 10
9.65
 20
20.1489710538
 11
9.5871617663
 21
19.9603030484
  0
LINE
  5
359
100
AcDbEntity
  8
DRAFT
100
AcDbLine
 62
7
  6
CONTINUOUS
 10
9.75
 20
5.6124860802
 11
9.7220317807
 21
5.5845178608
  0
LINE
  5
35A
100
AcDbEntity
  8
RACCORDO
100
AcDbLine
 62
7
  6
CONTINUOUS
 10
9.7229086322
 20
5.6052409312
 11
9.75
 21
5.6124860802
  0
LINE
  5
35B
100
AcDbEntity
  8
0
100
AcDbLine
 62
7
  6
CONTINUOUS
 10
1.5596016701
 20
2.5
 11
2.7950849719
 21
2.5
  0
LINE
  5
35C
100
AcDbEntity
  8
RACCORDO
100
AcDbLine
 62
7
  6
CONTINUOUS
 10
-9.7229086322
 20
5.6052409312
 11
-9.75
 21
5.6124860802
  0
LINE
  5
35D
100
AcDbEntity
  8
DRAFT
100
AcDbLine
 62
7
  6
CONTINUOUS
 10
9.75
 20
-5.6124860802
 11
9.7220740231
 21
-5.5845601032
  0
LINE
  5
35E
100
AcDbEntity
  8
SMUSSO
100
AcDbLine
 62
7
  6
CONTINUOUS
 10
9.4946499221
 20
-19.6825418182
 11
9.65
 21
-20.1489710538
  0
LWPOLYLINE
  5
35F
100
AcDbEntity
  8
RACCORDO
100
AcDbPolyline
 62
7
  6
CONTINUOUS
 90
3
 70
0
 10
8.2585202239
 20
-24.314706535
 10
8.2521397607
 20
-24.2826345276
 10
8.25
 20
-24.2500042308
  0
LINE
  5
360
100
AcDbEntity
  8
RACCORDO
100
AcDbLine
 62
253
  6
CONTINUOUS
 10
3.9423912491
 20
17.357620174
 11
3.9423912491
 21
20.0
  0
LINE
  5
361
100
AcDbEntity
  8
RACCORDO
100
AcDbLine
 62
7
  6
CONTINUOUS
 10
4.242379826
 20
17.6576087509
 11
4.242379826
 21
19.9974047863
  0
LINE
  5
362
100
AcDbEntity
  8
RACCORDO
100
AcDbLine
 62
7
  6
CONTINUOUS
 10
4.2712013363
 20
19.924454269
 11
4.2712013363
 21
19.968583276
  0
LINE
  5
363
100
AcDbEntity
  8
RACCORDO
100
AcDbLine
 62
7
  6
CONTINUOUS
 10
4.3
 20
19.4
 11
4.3
 21
17.5999885769
  0
LINE
  5
364
100
AcDbEntity
  8
ASSI
100
AcDbLine
 62
7
  6
CONTINUOUS
 10
4.3559327327
 20
-22.3338981669
 11
4.3559327327
 21
-23.7507734247
  0
LINE
  5
365
100
AcDbEntity
  8
ASSI
100
AcDbLine
 62
7
  6
CONTINUOUS
 10
4.3559327327
 20
22.3338981669
 11
4.3559327327
 21
23.7507734247
  0
LINE
  5
366
100
AcDbEntity
  8
DRAFT
100
AcDbLine
 62
7
  6
CONTINUOUS
 10
4.4
 20
-23.8
 11
4.4
 21
-22.4
  0
LINE
  5
367
100
AcDbEntity
  8
DRAFT
100
AcDbLine
 62
7
  6
CONTINUOUS
 10
4.4
 20
22.4
 11
4.4
 21
23.8
  0
LWPOLYLINE
  5
368
100
AcDbEntity
  8
RACCORDO
100
AcDbPolyline
 62
7
  6
CONTINUOUS
 90
13
 70
0
 10
6.5562117438
 20
20.1098882188
 10
6.5575696162
 20
20.1205675404
 10
6.5613244025
 20
20.1333041487
 10
6.5674809273
 20
20.1480980436
 10
6.5760502147
 20
20.1650349791
 10
6.586988566
 20
20.1840292012
 10
6.6001410963
 20
20.2048234481
 10
6.6153292625
 20
20.2273983406
 10
6.6324723001
 20
20.2517732579
 10
6.6515164865
 20
20.2777490756
 10
6.6722641165
 20
20.3052375522
 10
6.6946318412
 20
20.3343269292
 10
6.718805482
 20
20.3650828073
  0
LWPOLYLINE
  5
369
100
AcDbEntity
  8
RACCORDO
100
AcDbPolyline
 62
253
  6
CONTINUOUS
 90
19
 70
0
 10
7.2437882562
 20
19.9852938746
 10
7.2422435983
 20
19.9746279438
 10
7.2379846632
 20
19.9642257574
 10
7.2310573702
 20
19.9540873152
 10
7.2215142256
 20
19.9441278531
 10
7.2094502526
 20
19.9344321352
 10
7.1950353045
 20
19.9252544546
 10
7.1784542336
 20
19.9166330664
 10
7.1598482659
 20
19.9085297154
 10
7.1393631659
 20
19.9010839293
 10
7.117152448
 20
19.8942995716
 10
7.0934272975
 20
19.8881727788
 10
7.068433946
 20
19.8828314876
 10
7.0423966978
 20
19.8783077354
 10
7.0155132828
 20
19.8745694847
 10
6.9880023745
 20
19.8716485603
 10
6.9600765595
 20
19.8695555704
 10
6.931939935
 20
19.8682799066
 10
6.9037940101
 20
19.8678215691
  0
LWPOLYLINE
  5
36A
100
AcDbEntity
  8
RACCORDO
100
AcDbPolyline
 62
7
  6
CONTINUOUS
 90
4
 70
0
 10
-7.8908834737
 20
-21.7591165263
 10
-7.826966671
 20
-21.6622820938
 10
-7.7939284257
 20
-21.6130029455
 10
-7.7600399297
 20
-21.5634376887
  0
LINE
  5
36B
100
AcDbEntity
  8
DRAFT
100
AcDbLine
 62
7
  6
CONTINUOUS
 10
10.15
 20
8.0
 11
10.0723308767
 21
7.9791886211
  0
LINE
  5
36C
100
AcDbEntity
  8
RACCORDO
100
AcDbLine
 62
253
  6
CONTINUOUS
 10
9.7203134184
 20
4.9340313378
 11
9.5203210338
 21
4.9340313378
  0
LINE
  5
36D
100
AcDbEntity
  8
RACCORDO
100
AcDbLine
 62
253
  6
CONTINUOUS
 10
-9.7203134184
 20
4.9340313378
 11
-9.5203210338
 21
4.9340313381
  0
LINE
  5
36E
100
AcDbEntity
  8
RACCORDO
100
AcDbLine
 62
7
  6
CONTINUOUS
 10
-10.1002568536
 20
5.5845601032
 11
-9.7220740231
 21
5.5845601032
  0
LINE
  5
36F
100
AcDbEntity
  8
RACCORDO
100
AcDbLine
 62
7
  6
CONTINUOUS
 10
9.7220740231
 20
5.5845601032
 11
10.1002568536
 21
5.5845601032
  0
LINE
  5
370
100
AcDbEntity
  8
DRAFT
100
AcDbLine
 62
7
  6
CONTINUOUS
 10
10.0723308767
 20
5.6124860802
 11
9.75
 21
5.6124860802
  0
LINE
  5
371
100
AcDbEntity
  8
DRAFT
100
AcDbLine
 62
7
  6
CONTINUOUS
 10
-9.75
 20
5.6124860802
 11
-10.0723308767
 21
5.6124860802
  0
LINE
  5
372
100
AcDbEntity
  8
DRAFT
100
AcDbLine
 62
7
  6
CONTINUOUS
 10
-10.15
 20
8.0
 11
-10.0723308767
 21
7.9791886211
  0
LINE
  5
373
100
AcDbEntity
  8
RACCORDO
100
AcDbLine
 62
7
  6
CONTINUOUS
 10
-6.4598569743
 20
19.4
 11
-6.4761722825
 21
19.4244733075
  0
LINE
  5
374
100
AcDbEntity
  8
RACCORDO
100
AcDbLine
 62
7
  6
CONTINUOUS
 10
-7.826966671
 20
21.6622820938
 11
-7.8908834737
 21
21.7591165263
  0
LWPOLYLINE
  5
375
100
AcDbEntity
  8
RACCORDO
100
AcDbPolyline
 62
253
  6
CONTINUOUS
 90
19
 70
0
 10
7.2437882562
 20
-19.9852938746
 10
7.2422320057
 20
-19.9745860793
 10
7.2379493792
 20
-19.964158716
 10
7.2310002851
 20
-19.9540117847
 10
7.2214573807
 20
-19.9440675875
 10
7.2094250136
 20
-19.9344038222
 10
7.1950560418
 20
-19.9252535826
 10
7.178524445
 20
-19.9166462316
 10
7.1599758364
 20
-19.9085524063
 10
7.139545883
 20
-19.9011171118
 10
7.117385615
 20
-19.8943501123
 10
7.0937014166
 20
-19.8882416437
 10
7.0687217601
 20
-19.8829074186
 10
7.0426483737
 20
-19.8783701205
 10
7.0156928829
 20
-19.8746070659
 10
6.9881143358
 20
-19.8716659175
 10
6.9601418119
 20
-19.869562563
 10
6.931967485
 20
-19.8682811148
 10
6.9037940126
 20
-19.8678215728
  0
LWPOLYLINE
  5
376
100
AcDbEntity
  8
RACCORDO
100
AcDbPolyline
 62
253
  6
CONTINUOUS
 90
19
 70
0
 10
7.2437882562
 20
-19.9852938746
 10
7.2423086301
 20
-19.9569445645
 10
7.2380853422
 20
-19.9288853853
 10
7.2311777378
 20
-19.9013551558
 10
7.2216576907
 20
-19.8745770831
 10
7.2096300166
 20
-19.8487802283
 10
7.1952497161
 20
-19.8241901247
 10
7.1786922535
 20
-19.8010201531
 10
7.1601039915
 20
-19.7794079043
 10
7.1396220707
 20
-19.7594420213
 10
7.1173979399
 20
-19.7412451318
 10
7.093640069
 20
-19.7249683105
 10
7.0685812844
 20
-19.7107174901
 10
7.0424282053
 20
-19.6985677653
 10
7.0153916964
 20
-19.6885867607
 10
6.9877264603
 20
-19.6808217509
 10
6.9596609211
 20
-19.6752863429
 10
6.9313909311
 20
-19.6719726835
 10
6.9031209591
 20
-19.6708580904
  0
LINE
  5
377
100
AcDbEntity
  8
RACCORDO
100
AcDbLine
 62
253
  6
CONTINUOUS
 10
6.4482213147
 20
-16.7123163328
 11
6.5562117438
 21
-19.9852938746
  0
LINE
  5
378
100
AcDbEntity
  8
RACCORDO
100
AcDbLine
 62
253
  6
CONTINUOUS
 10
6.7878835818
 20
-16.3674200646
 11
6.8968790503
 21
-19.6708583756
  0
LINE
  5
379
100
AcDbEntity
  8
RACCORDO
100
AcDbLine
 62
7
  6
CONTINUOUS
 10
6.9037940101
 20
-20.9959955457
 11
6.9
 21
-20.5829242832
  0
LINE
  5
37A
100
AcDbEntity
  8
RACCORDO
100
AcDbLine
 62
253
  6
CONTINUOUS
 10
6.9032705238
 20
-19.6908675672
 11
6.9031209497
 21
-19.6708583756
  0
LINE
  5
37B
100
AcDbEntity
  8
RACCORDO
100
AcDbLine
 62
253
  6
CONTINUOUS
 10
6.8968790503
 20
19.6708583756
 11
6.8967370567
 21
19.6908655377
  0
LINE
  5
37C
100
AcDbEntity
  8
RACCORDO
100
AcDbLine
 62
253
  6
CONTINUOUS
 10
6.898102995
 20
-20.5829242832
 11
6.8962059875
 21
-19.8678199262
  0
LINE
  5
37D
100
AcDbEntity
  8
RACCORDO
100
AcDbLine
 62
253
  6
CONTINUOUS
 10
6.9037939646
 20
-19.8678199262
 11
6.9032705238
 21
-19.6908675672
  0
LINE
  5
37E
100
AcDbEntity
  8
RACCORDO
100
AcDbLine
 62
253
  6
CONTINUOUS
 10
6.8967370567
 20
19.6908655377
 11
6.8962058927
 21
19.8678215684
  0
LINE
  5
37F
100
AcDbEntity
  8
RACCORDO
100
AcDbLine
 62
7
  6
CONTINUOUS
 10
6.4482213147
 20
-19.4266752714
 11
6.4482213147
 21
-16.7123163328
  0
LINE
  5
380
100
AcDbEntity
  8
DRAFT
100
AcDbLine
 62
7
  6
CONTINUOUS
 10
6.4598569743
 20
17.0649702942
 11
6.4598569743
 21
19.4
  0
LINE
  5
381
100
AcDbEntity
  8
RACCORDO
100
AcDbLine
 62
7
  6
CONTINUOUS
 10
6.4790558127
 20
19.968583276
 11
6.4790558127
 21
19.924454269
  0
LINE
  5
382
100
AcDbEntity
  8
RACCORDO
100
AcDbLine
 62
7
  6
CONTINUOUS
 10
6.5562117438
 20
-20.1098882188
 11
6.5562117438
 21
-19.9852938746
  0
LINE
  5
383
100
AcDbEntity
  8
RACCORDO
100
AcDbLine
 62
7
  6
CONTINUOUS
 10
6.5562117438
 20
19.9852938746
 11
6.5562117438
 21
20.1098882188
  0
LINE
  5
384
100
AcDbEntity
  8
RACCORDO
100
AcDbLine
 62
253
  6
CONTINUOUS
 10
6.8962059899
 20
19.8678199262
 11
6.8962059899
 21
20.5829242832
  0
LINE
  5
385
100
AcDbEntity
  8
RACCORDO
100
AcDbLine
 62
7
  6
CONTINUOUS
 10
7.2437882562
 20
-20.9930456726
 11
7.2437882562
 21
-19.9852938746
  0
LINE
  5
386
100
AcDbEntity
  8
RACCORDO
100
AcDbLine
 62
7
  6
CONTINUOUS
 10
7.2437882562
 20
19.9852938746
 11
7.2437882562
 21
20.9930456726
  0
LINE
  5
387
100
AcDbEntity
  8
RACCORDO
100
AcDbLine
 62
7
  6
CONTINUOUS
 10
7.3209441873
 20
20.7113319946
 11
7.3209441873
 21
19.924454269
  0
LINE
  5
388
100
AcDbEntity
  8
DRAFT
100
AcDbLine
 62
7
  6
CONTINUOUS
 10
7.3401430257
 20
17.0649702942
 11
7.3401430257
 21
19.4
  0
LINE
  5
389
100
AcDbEntity
  8
RACCORDO
100
AcDbLine
 62
7
  6
CONTINUOUS
 10
7.3517786853
 20
-20.4335707644
 11
7.3517786853
 21
-16.7123163328
  0
LWPOLYLINE
  5
38A
100
AcDbEntity
  8
RACCORDO
100
AcDbPolyline
 62
253
  6
CONTINUOUS
 90
3
 70
0
 10
6.8962059899
 20
-19.8678199262
 10
6.8968099773
 20
-19.6785900024
 10
6.8968790426
 20
-19.6708580904
  0
LINE
  5
38B
100
AcDbEntity
  8
RACCORDO
100
AcDbLine
 62
7
  6
CONTINUOUS
 10
6.898102995
 20
-20.5829242832
 11
6.903794027
 21
-19.8678199262
  0
LWPOLYLINE
  5
38C
100
AcDbEntity
  8
RACCORDO
100
AcDbPolyline
 62
253
  6
CONTINUOUS
 90
3
 70
0
 10
6.9031209497
 20
19.6708583756
 10
6.9031957364
 20
19.6785902947
 10
6.9037940101
 20
20.9959955457
  0
LINE
  5
38D
100
AcDbEntity
  8
0
100
AcDbLine
 62
253
  6
CONTINUOUS
 10
6.4598569743
 20
17.0649702942
 11
6.5562117438
 21
19.9852938746
  0
LINE
  5
38E
100
AcDbEntity
  8
0
100
AcDbLine
 62
253
  6
CONTINUOUS
 10
6.7995192414
 20
16.720074026
 11
6.8968790503
 21
19.6708583756
  0
LWPOLYLINE
  5
38F
100
AcDbEntity
  8
RACCORDO
100
AcDbPolyline
 62
253
  6
CONTINUOUS
 90
19
 70
0
 10
7.2437882562
 20
19.9852938746
 10
7.2423199362
 20
19.9570563476
 10
7.2381203214
 20
19.9290599468
 10
7.2312347901
 20
19.9015436672
 10
7.2217151081
 20
19.8747176557
 10
7.2096567246
 20
19.8488328146
 10
7.1952315507
 20
19.8241648785
 10
7.1786264083
 20
19.8009400953
 10
7.1599829471
 20
19.7792839425
 10
7.1394466289
 20
19.7592902083
 10
7.117169023
 20
19.7410761328
 10
7.0933647146
 20
19.7247953424
 10
7.0682884559
 20
19.7105641688
 10
7.0421726951
 20
19.6984600377
 10
7.0152122004
 20
19.6885285595
 10
6.9876175109
 20
19.6807964966
 10
6.9595990365
 20
19.6752773294
 10
6.9313657547
 20
19.6719711119
 10
6.9031209591
 20
19.6708580904
  0
LWPOLYLINE
  5
390
100
AcDbEntity
  8
RACCORDO
100
AcDbPolyline
 62
7
  6
CONTINUOUS
 90
16
 70
0
 10
8.254371834
 20
24.2456323968
 10
8.2557510515
 20
24.2718479197
 10
8.2598719695
 20
24.2977755339
 10
8.2666895127
 20
24.3231292552
 10
8.2761304098
 20
24.3476328491
 10
8.2880900521
 20
24.3710120998
 10
8.3024300604
 20
24.3929996217
 10
8.3189845273
 20
24.4133491077
 10
8.3375725027
 20
24.4318451154
 10
8.3579964441
 20
24.4482930995
 10
8.3800700853
 20
24.4625337261
 10
8.4035170871
 20
24.4743800665
 10
8.4279636688
 20
24.4836641013
 10
8.4530896401
 20
24.4903109733
 10
8.4786507683
 20
24.4943010441
 10
8.5043676032
 20
24.495628166
  0
LINE
  5
391
100
AcDbEntity
  8
RACCORDO
100
AcDbLine
 62
7
  6
CONTINUOUS
 10
8.25
 20
24.2500042308
 11
8.2521397607
 21
24.2826345276
  0
LINE
  5
392
100
AcDbEntity
  8
RACCORDO
100
AcDbLine
 62
7
  6
CONTINUOUS
 10
-6.555294768
 20
-20.0829433217
 11
-6.4511048448
 21
-19.9266562329
  0
LWPOLYLINE
  5
393
100
AcDbEntity
  8
RACCORDO
100
AcDbPolyline
 62
7
  6
CONTINUOUS
 90
4
 70
0
 10
-7.7600399297
 20
-21.5634376887
 10
-7.655358614
 20
-21.4132782388
 10
-7.6198940823
 20
-21.3629351402
 10
-7.5841007192
 20
-21.3126932437
  0
LINE
  5
394
100
AcDbEntity
  8
RACCORDO
100
AcDbLine
 62
7
  6
CONTINUOUS
 10
-7.5841007192
 20
21.3126932437
 11
-7.6198940823
 21
21.3629351402
  0
LINE
  5
395
100
AcDbEntity
  8
RACCORDO
100
AcDbLine
 62
7
  6
CONTINUOUS
 10
-7.6198940823
 20
21.3629351402
 11
-7.6904943142
 21
21.463591597
  0
LWPOLYLINE
  5
396
100
AcDbEntity
  8
RACCORDO
100
AcDbPolyline
 62
7
  6
CONTINUOUS
 90
4
 70
0
 10
-7.6904943142
 20
21.463591597
 10
-7.7600399297
 20
21.5634376887
 10
-7.7939284257
 20
21.6130029455
 10
-7.826966671
 20
21.6622820938
  0
LINE
  5
397
100
AcDbEntity
  8
0
100
AcDbLine
 62
7
  6
CONTINUOUS
 10
-6.555294768
 20
20.0829433217
 11
-6.4790558127
 21
19.968583276
  0
LWPOLYLINE
  5
398
100
AcDbEntity
  8
RACCORDO
100
AcDbPolyline
 62
253
  6
CONTINUOUS
 90
16
 70
0
 10
10.645628166
 20
-23.8443375673
 10
10.6442027272
 20
-23.821867947
 10
10.6400841957
 20
-23.7996063846
 10
10.6333046429
 20
-23.7777957701
 10
10.6239198861
 20
-23.7566651497
 10
10.6120233045
 20
-23.7364606533
 10
10.5977578972
 20
-23.7174372488
 10
10.5812892572
 20
-23.6998121994
 10
10.5627905015
 20
-23.683767696
 10
10.5424631376
 20
-23.6694786415
 10
10.5205285179
 20
-23.6571010859
 10
10.4972270791
 20
-23.6467711244
 10
10.4728151909
 20
-23.638602409
 10
10.4475605061
 20
-23.6326841728
 10
10.4217387691
 20
-23.6290807159
 10
10.3956323968
 20
-23.6278312164
  0
LINE
  5
399
100
AcDbEntity
  8
0
100
AcDbLine
 62
253
  6
CONTINUOUS
 10
7.0004807586
 20
16.720074026
 11
6.9031209497
 21
19.6708583756
  0
LINE
  5
39A
100
AcDbEntity
  8
0
100
AcDbLine
 62
253
  6
CONTINUOUS
 10
7.3401430257
 20
17.0649702942
 11
7.2437882562
 21
19.9852938746
  0
LINE
  5
39B
100
AcDbEntity
  8
RACCORDO
100
AcDbLine
 62
253
  6
CONTINUOUS
 10
8.254371834
 20
-23.8443375673
 11
8.25
 21
-23.4104851482
  0
LINE
  5
39C
100
AcDbEntity
  8
RACCORDO
100
AcDbLine
 62
253
  6
CONTINUOUS
 10
8.5043676032
 20
-23.6278312164
 11
8.4992770021
 21
-23.1226497308
  0
LINE
  5
39D
100
AcDbEntity
  8
RACCORDO
100
AcDbLine
 62
253
  6
CONTINUOUS
 10
7.5841007192
 20
-21.3126932437
 11
7.5841007192
 21
-20.9959955457
  0
LINE
  5
39E
100
AcDbEntity
  8
RACCORDO
100
AcDbLine
 62
253
  6
CONTINUOUS
 10
7.5841007192
 20
20.9959955457
 11
7.5841007192
 21
21.3126932437
  0
LINE
  5
39F
100
AcDbEntity
  8
0
100
AcDbLine
 62
7
  6
CONTINUOUS
 10
8.0
 20
-4.6188021535
 11
8.0
 21
4.6188021535
  0
LINE
  5
3A0
100
AcDbEntity
  8
RACCORDO
100
AcDbLine
 62
253
  6
CONTINUOUS
 10
8.0840245667
 20
-21.5659754333
 11
8.0840245667
 21
-20.9917082642
  0
LINE
  5
3A1
100
AcDbEntity
  8
RACCORDO
100
AcDbLine
 62
253
  6
CONTINUOUS
 10
8.0840245667
 20
20.9917082642
 11
8.0840245667
 21
21.5659754333
  0
LINE
  5
3A2
100
AcDbEntity
  8
DRAFT
100
AcDbLine
 62
7
  6
CONTINUOUS
 10
8.25
 20
21.4
 11
8.25
 21
20.9
  0
LINE
  5
3A3
100
AcDbEntity
  8
DRAFT
100
AcDbLine
 62
7
  6
CONTINUOUS
 10
8.25
 20
-20.9
 11
8.25
 21
-21.4
  0
LINE
  5
3A4
100
AcDbEntity
  8
RACCORDO
100
AcDbLine
 62
7
  6
CONTINUOUS
 10
8.25
 20
-22.4
 11
8.25
 21
-23.8443375673
  0
LINE
  5
3A5
100
AcDbEntity
  8
RACCORDO
100
AcDbLine
 62
7
  6
CONTINUOUS
 10
8.25
 20
22.4
 11
8.25
 21
23.8443375673
  0
LINE
  5
3A6
100
AcDbEntity
  8
RACCORDO
100
AcDbLine
 62
7
  6
CONTINUOUS
 10
8.254371834
 20
24.2456323968
 11
8.254371834
 21
23.8443375673
  0
LINE
  5
3A7
100
AcDbEntity
  8
RACCORDO
100
AcDbLine
 62
7
  6
CONTINUOUS
 10
8.254371834
 20
-23.8443375673
 11
8.254371834
 21
-24.2456323968
  0
LINE
  5
3A8
100
AcDbEntity
  8
RACCORDO
100
AcDbLine
 62
253
  6
CONTINUOUS
 10
8.5043676032
 20
-23.6278312164
 11
8.5043676032
 21
-24.495628166
  0
LINE
  5
3A9
100
AcDbEntity
  8
RACCORDO
100
AcDbLine
 62
253
  6
CONTINUOUS
 10
8.5043676032
 20
23.6278312164
 11
8.5043676032
 21
24.495628166
  0
LINE
  5
3AA
100
AcDbEntity
  8
RACCORDO
100
AcDbLine
 62
253
  6
CONTINUOUS
 10
8.25
 20
23.4104851482
 11
8.254371834
 21
23.8443375673
  0
LINE
  5
3AB
100
AcDbEntity
  8
RACCORDO
100
AcDbLine
 62
253
  6
CONTINUOUS
 10
8.4992770021
 20
23.1226497308
 11
8.5043676032
 21
23.6278312164
  0
LINE
  5
3AC
100
AcDbEntity
  8
RACCORDO
100
AcDbLine
 62
253
  6
CONTINUOUS
 10
7.0121164182
 20
-16.3674200646
 11
6.9031209497
 21
-19.6708583756
  0
LINE
  5
3AD
100
AcDbEntity
  8
RACCORDO
100
AcDbLine
 62
253
  6
CONTINUOUS
 10
7.3517786853
 20
-16.7123163328
 11
7.2437882562
 21
-19.9852938746
  0
LWPOLYLINE
  5
3AE
100
AcDbEntity
  8
RACCORDO
100
AcDbPolyline
 62
253
  6
CONTINUOUS
 90
16
 70
0
 10
10.645628166
 20
23.8443375673
 10
10.6442027272
 20
23.821867947
 10
10.6400841957
 20
23.7996063846
 10
10.6333046429
 20
23.7777957701
 10
10.6239198861
 20
23.7566651497
 10
10.6120233045
 20
23.7364606533
 10
10.5977578972
 20
23.7174372488
 10
10.5812892572
 20
23.6998121994
 10
10.5627905015
 20
23.683767696
 10
10.5424631376
 20
23.6694786415
 10
10.5205285179
 20
23.6571010859
 10
10.4972270791
 20
23.6467711244
 10
10.4728151909
 20
23.638602409
 10
10.4475605061
 20
23.6326841728
 10
10.4217387691
 20
23.6290807159
 10
10.3956323968
 20
23.6278312164
  0
LWPOLYLINE
  5
3AF
100
AcDbEntity
  8
ASSI
100
AcDbPolyline
 62
7
  6
CONTINUOUS
 90
5
 70
0
 10
3.5
 20
-23.7511422903
 10
3.5014423437
 20
-23.7447640382
 10
3.5057811615
 20
-23.7357369161
 10
3.5130191591
 20
-23.724060924
 10
3.5231362374
 20
-23.7097056451
  0
LWPOLYLINE
  5
3B0
100
AcDbEntity
  8
RACCORDO
100
AcDbPolyline
 62
7
  6
CONTINUOUS
 90
7
 70
0
 10
9.7229086322
 20
5.6052409312
 10
9.7227598146
 20
5.60459683
 10
9.7226120673
 20
5.6028288312
 10
9.7224653902
 20
5.599936935
 10
9.7223197834
 20
5.5959211411
 10
9.7221752469
 20
5.5907814498
 10
9.7220317807
 20
5.5845178608
  0
LINE
  5
3B1
100
AcDbEntity
  8
RACCORDO
100
AcDbLine
 62
253
  6
CONTINUOUS
 10
9.5447026277
 20
5.0363542711
 11
9.5203210338
 21
4.9340313378
  0
LINE
  5
3B2
100
AcDbEntity
  8
RACCORDO
100
AcDbLine
 62
253
  6
CONTINUOUS
 10
9.6354671658
 20
5.412088967
 11
9.5447026277
 21
5.0363542711
  0
LINE
  5
3B3
100
AcDbEntity
  8
RACCORDO
100
AcDbLine
 62
253
  6
CONTINUOUS
 10
9.6814028944
 20
5.5982575786
 11
9.6354671658
 21
5.412088967
  0
LINE
  5
3B4
100
AcDbEntity
  8
RACCORDO
100
AcDbLine
 62
253
  6
CONTINUOUS
 10
9.6918952806
 20
5.6386738928
 11
9.6814028944
 21
5.5982575786
  0
LINE
  5
3B5
100
AcDbEntity
  8
DRAFT
100
AcDbLine
 62
7
  6
CONTINUOUS
 10
-4.4
 20
-22.4
 11
-4.3559327327
 21
-22.3338981669
  0
LWPOLYLINE
  5
3B6
100
AcDbEntity
  8
RACCORDO
100
AcDbPolyline
 62
7
  6
CONTINUOUS
 90
4
 70
0
 10
-6.718805482
 20
-20.3650828073
 10
-6.7721993148
 20
-20.4317727281
 10
-6.8012624195
 20
-20.4674150493
 10
-6.8962059899
 20
-20.5829242832
  0
LINE
  5
3B7
100
AcDbEntity
  8
0
100
AcDbLine
 62
7
  6
CONTINUOUS
 10
-0.0
 20
-9.237604307
 11
8.0
 21
-4.6188021535
  0
LINE
  5
3B8
100
AcDbEntity
  8
RACCORDO
100
AcDbLine
 62
7
  6
CONTINUOUS
 10
-9.4946499221
 20
14.7
 11
-9.5209086807
 21
14.7131283793
  0
LINE
  5
3B9
100
AcDbEntity
  8
0
100
AcDbLine
 62
7
  6
CONTINUOUS
 10
8.0
 20
4.6188021535
 11
0.0
 21
9.237604307
  0
LINE
  5
3BA
100
AcDbEntity
  8
RACCORDO
100
AcDbLine
 62
7
  6
CONTINUOUS
 10
-3.5131283793
 20
14.7131283793
 11
-3.5
 21
14.7
  0
LINE
  5
3BB
100
AcDbEntity
  8
DRAFT
100
AcDbLine
 62
7
  6
CONTINUOUS
 10
-3.5061088075
 20
15.5
 11
-3.4965092529
 21
15.4904004454
  0
LINE
  5
3BC
100
AcDbEntity
  8
RACCORDO
100
AcDbLine
 62
7
  6
CONTINUOUS
 10
-6.8962059899
 20
20.5829242832
 11
-6.8012675638
 21
20.46742135
  0
LINE
  5
3BD
100
AcDbEntity
  8
RACCORDO
100
AcDbLine
 62
7
  6
CONTINUOUS
 10
-6.8012675638
 20
20.46742135
 11
-6.7721726764
 21
20.4317377618
  0
LWPOLYLINE
  5
3BE
100
AcDbEntity
  8
RACCORDO
100
AcDbPolyline
 62
7
  6
CONTINUOUS
 90
14
 70
0
 10
-6.7721726764
 20
20.4317377618
 10
-6.7186412739
 20
20.3648753075
 10
-6.6943078226
 20
20.3339240836
 10
-6.6717654017
 20
20.3045982727
 10
-6.6509286708
 20
20.2769579826
 10
-6.631898657
 20
20.2509723688
 10
-6.6148249494
 20
20.2266722757
 10
-6.5997413856
 20
20.2042103446
 10
-6.5867285289
 20
20.1835803156
 10
-6.5759257072
 20
20.1647884485
 10
-6.5674381967
 20
20.1480061633
 10
-6.5613143221
 20
20.1332905999
 10
-6.5575693908
 20
20.1205846184
 10
-6.5562117438
 20
20.1098882188
  0
LINE
  5
3BF
100
AcDbEntity
  8
DRAFT
100
AcDbLine
 62
7
  6
CONTINUOUS
 10
-4.4
 20
22.4
 11
-4.3559327327
 21
22.3338981669
  0
LINE
  5
3C0
100
AcDbEntity
  8
RACCORDO
100
AcDbLine
 62
253
  6
CONTINUOUS
 10
9.6814029082
 20
-5.5982575461
 11
9.6918951868
 21
-5.6386740518
  0
LINE
  5
3C1
100
AcDbEntity
  8
RACCORDO
100
AcDbLine
 62
253
  6
CONTINUOUS
 10
9.6583187358
 20
-5.5055232636
 11
9.6814029082
 21
-5.5982575461
  0
LINE
  5
3C2
100
AcDbEntity
  8
RACCORDO
100
AcDbLine
 62
253
  6
CONTINUOUS
 10
9.5326144721
 20
-4.9859752881
 11
9.6583187358
 21
-5.5055232636
  0
LINE
  5
3C3
100
AcDbEntity
  8
RACCORDO
100
AcDbLine
 62
253
  6
CONTINUOUS
 10
9.5203210338
 20
-4.9340313378
 11
9.5326144721
 21
-4.9859752881
  0
LWPOLYLINE
  5
3C4
100
AcDbEntity
  8
RACCORDO
100
AcDbPolyline
 62
253
  6
CONTINUOUS
 90
16
 70
0
 10
8.254371834
 20
23.8443375673
 10
8.2558121477
 20
23.8217481519
 10
8.2599656195
 20
23.7994053159
 10
8.2667869113
 20
23.7775529472
 10
8.276201564
 20
23.7564295797
 10
8.2881068099
 20
23.7362657898
 10
8.302372695
 20
23.7172816797
 10
8.3188434969
 20
23.6996844742
 10
8.3373394254
 20
23.6836662592
 10
8.3576585842
 20
23.6694018849
 10
8.3795791754
 20
23.6570470569
 10
8.4028619204
 20
23.646736637
 10
8.4272526715
 20
23.6385831707
 10
8.4524851864
 20
23.6326756587
 10
8.4782840345
 20
23.6290785857
 10
8.5043676032
 20
23.6278312164
  0
LWPOLYLINE
  5
3C5
100
AcDbEntity
  8
RACCORDO
100
AcDbPolyline
 62
7
  6
CONTINUOUS
 90
7
 70
0
 10
9.7220476014
 20
-5.5845336816
 10
9.7221943223
 20
-5.5910293703
 10
9.722339757
 20
-5.5963072668
 10
9.7224839053
 20
-5.6003673711
 10
9.7226267672
 20
-5.6032096833
 10
9.7227683429
 20
-5.6048342033
 10
9.7229086322
 20
-5.6052409312
  0
LINE
  5
3C6
100
AcDbEntity
  8
RACCORDO
100
AcDbLine
 62
253
  6
CONTINUOUS
 10
10.3956323968
 20
23.6278312164
 11
10.4007229979
 21
23.1226497308
  0
LINE
  5
3C7
100
AcDbEntity
  8
RACCORDO
100
AcDbLine
 62
253
  6
CONTINUOUS
 10
10.645628166
 20
23.8443375673
 11
10.65
 21
23.4104851482
  0
LINE
  5
3C8
100
AcDbEntity
  8
RACCORDO
100
AcDbLine
 62
253
  6
CONTINUOUS
 10
9.7216466496
 20
-5.4766331038
 11
9.7220740231
 21
-5.5199715968
  0
LINE
  5
3C9
100
AcDbEntity
  8
RACCORDO
100
AcDbLine
 62
253
  6
CONTINUOUS
 10
9.7207617618
 20
-5.2882140174
 11
9.7216466496
 21
-5.4766331038
  0
LINE
  5
3CA
100
AcDbEntity
  8
RACCORDO
100
AcDbLine
 62
253
  6
CONTINUOUS
 10
9.7203134184
 20
-4.9340313378
 11
9.7207617618
 21
-5.2882140174
  0
LINE
  5
3CB
100
AcDbEntity
  8
DRAFT
100
AcDbLine
 62
7
  6
CONTINUOUS
 10
9.4946499221
 20
14.7
 11
9.4946499221
 21
8.9797613849
  0
LINE
  5
3CC
100
AcDbEntity
  8
DRAFT
100
AcDbLine
 62
7
  6
CONTINUOUS
 10
9.4946499221
 20
-8.9797613849
 11
9.4946499221
 21
-19.6825418182
  0
LINE
  5
3CD
100
AcDbEntity
  8
RACCORDO
100
AcDbLine
 62
253
  6
CONTINUOUS
 10
9.5203210338
 20
4.9340313485
 11
9.5203210338
 21
-4.9340313485
  0
LINE
  5
3CE
100
AcDbEntity
  8
RACCORDO
100
AcDbLine
 62
7
  6
CONTINUOUS
 10
9.529560052
 20
15.2131093409
 11
9.529560052
 21
19.4
  0
LINE
  5
3CF
100
AcDbEntity
  8
RACCORDO
100
AcDbLine
 62
7
  6
CONTINUOUS
 10
9.5871617663
 20
19.9603030484
 11
9.5871617663
 21
19.924454269
  0
LINE
  5
3D0
100
AcDbEntity
  8
DRAFT
100
AcDbLine
 62
7
  6
CONTINUOUS
 10
9.65
 20
-20.1489710538
 11
9.65
 21
-8.8660254038
  0
LINE
  5
3D1
100
AcDbEntity
  8
DRAFT
100
AcDbLine
 62
7
  6
CONTINUOUS
 10
9.65
 20
8.8660254038
 11
9.65
 21
20.1489710538
  0
LINE
  5
3D2
100
AcDbEntity
  8
RACCORDO
100
AcDbLine
 62
7
  6
CONTINUOUS
 10
9.7203134184
 20
4.9340313378
 11
9.7203134184
 21
-4.9340313378
  0
LINE
  5
3D3
100
AcDbEntity
  8
RACCORDO
100
AcDbLine
 62
7
  6
CONTINUOUS
 10
9.7220740231
 20
5.5199715718
 11
9.7220740231
 21
4.9340313378
  0
LINE
  5
3D4
100
AcDbEntity
  8
RACCORDO
100
AcDbLine
 62
7
  6
CONTINUOUS
 10
9.7220740231
 20
-4.9340313378
 11
9.7220740231
 21
-5.5199715968
  0
LINE
  5
3D5
100
AcDbEntity
  8
DRAFT
100
AcDbLine
 62
7
  6
CONTINUOUS
 10
10.0723308767
 20
-7.9791886211
 11
10.0723308767
 21
-5.6124860802
  0
LINE
  5
3D6
100
AcDbEntity
  8
DRAFT
100
AcDbLine
 62
7
  6
CONTINUOUS
 10
10.0723308767
 20
5.6124860802
 11
10.0723308767
 21
7.9791886211
  0
LINE
  5
3D7
100
AcDbEntity
  8
DRAFT
100
AcDbLine
 62
7
  6
CONTINUOUS
 10
10.1002568536
 20
-5.5845601032
 11
10.1002568536
 21
5.5845601032
  0
LINE
  5
3D8
100
AcDbEntity
  8
DRAFT
100
AcDbLine
 62
7
  6
CONTINUOUS
 10
10.15
 20
-8.0
 11
10.15
 21
8.0
  0
LINE
  5
3D9
100
AcDbEntity
  8
RACCORDO
100
AcDbLine
 62
253
  6
CONTINUOUS
 10
10.3956323968
 20
-23.6278312164
 11
10.3956323968
 21
-24.495628166
  0
LINE
  5
3DA
100
AcDbEntity
  8
RACCORDO
100
AcDbLine
 62
253
  6
CONTINUOUS
 10
10.3956323968
 20
23.6278312164
 11
10.3956323968
 21
24.495628166
  0
LINE
  5
3DB
100
AcDbEntity
  8
RACCORDO
100
AcDbLine
 62
7
  6
CONTINUOUS
 10
10.645628166
 20
-24.2456323968
 11
10.645628166
 21
-23.8443375673
  0
LINE
  5
3DC
100
AcDbEntity
  8
RACCORDO
100
AcDbLine
 62
7
  6
CONTINUOUS
 10
10.645628166
 20
23.8443375673
 11
10.645628166
 21
24.2456323968
  0
LINE
  5
3DD
100
AcDbEntity
  8
RACCORDO
100
AcDbLine
 62
7
  6
CONTINUOUS
 10
10.65
 20
-22.4
 11
10.65
 21
-23.8443375673
  0
LINE
  5
3DE
100
AcDbEntity
  8
RACCORDO
100
AcDbLine
 62
7
  6
CONTINUOUS
 10
10.65
 20
22.4
 11
10.65
 21
23.8443375673
  0
LINE
  5
3DF
100
AcDbEntity
  8
RACCORDO
100
AcDbLine
 62
253
  6
CONTINUOUS
 10
9.7211511734
 20
5.3939456666
 11
9.7203134184
 21
4.9340313378
  0
LINE
  5
3E0
100
AcDbEntity
  8
RACCORDO
100
AcDbLine
 62
253
  6
CONTINUOUS
 10
9.7217839816
 20
5.4928979175
 11
9.7211511734
 21
5.3939456666
  0
LINE
  5
3E1
100
AcDbEntity
  8
RACCORDO
100
AcDbLine
 62
253
  6
CONTINUOUS
 10
10.4007229979
 20
-23.1226497308
 11
10.3956323968
 21
-23.6278312164
  0
LINE
  5
3E2
100
AcDbEntity
  8
RACCORDO
100
AcDbLine
 62
253
  6
CONTINUOUS
 10
10.65
 20
-23.4104851482
 11
10.645628166
 21
-23.8443375673
  0
LINE
  5
3E3
100
AcDbEntity
  8
RACCORDO
100
AcDbLine
 62
253
  6
CONTINUOUS
 10
9.7220740231
 20
5.5199715718
 11
9.7217839816
 21
5.4928979175
  0
LWPOLYLINE
  5
3E4
100
AcDbEntity
  8
RACCORDO
100
AcDbPolyline
 62
7
  6
CONTINUOUS
 90
6
 70
0
 10
9.7220740231
 20
-5.5199993424
 10
9.7213982549
 20
-5.541093076
 10
9.7189763346
 20
-5.5616715025
 10
9.7148082623
 20
-5.5817346219
 10
9.708894038
 20
-5.6012824342
 10
9.7012336616
 20
-5.6203149393
  0
LWPOLYLINE
  5
3E5
100
AcDbEntity
  8
RACCORDO
100
AcDbPolyline
 62
253
  6
CONTINUOUS
 90
16
 70
0
 10
8.254371834
 20
-23.8443375673
 10
8.2557972728
 20
-23.821867947
 10
8.2599158043
 20
-23.7996063846
 10
8.2666953571
 20
-23.7777957701
 10
8.2760801139
 20
-23.7566651497
 10
8.2879766955
 20
-23.7364606533
 10
8.3022421028
 20
-23.7174372488
 10
8.3187107428
 20
-23.6998121994
 10
8.3372094985
 20
-23.683767696
 10
8.3575368624
 20
-23.6694786415
 10
8.3794714821
 20
-23.6571010859
 10
8.4027729209
 20
-23.6467711244
 10
8.4271848091
 20
-23.638602409
 10
8.4524394939
 20
-23.6326841728
 10
8.4782612309
 20
-23.6290807159
 10
8.5043676032
 20
-23.6278312164
  0
LINE
  5
3E6
100
AcDbEntity
  8
DRAFT
100
AcDbLine
 62
7
  6
CONTINUOUS
 10
7.3517786853
 20
-20.4335707644
 11
7.2988376746
 21
-20.9104703804
  0
LWPOLYLINE
  5
3E7
100
AcDbEntity
  8
ASSI
100
AcDbPolyline
 62
7
  6
CONTINUOUS
 90
6
 70
0
 10
-4.3321898984
 20
-23.7088741372
 10
-4.3191375981
 20
-23.691801431
 10
-4.3033151409
 20
-23.6721914001
 10
-4.2848156203
 20
-23.6500094209
 10
-4.2637218579
 20
-23.6252901169
 10
-4.2400731719
 20
-23.5982299306
  0
LWPOLYLINE
  5
3E8
100
AcDbEntity
  8
RACCORDO
100
AcDbPolyline
 62
7
  6
CONTINUOUS
 90
3
 70
0
 10
9.7188564562
 20
5.562151679
 10
9.7213233295
 20
5.5413931865
 10
9.7220740231
 20
5.5199993424
  0
LINE
  5
3E9
100
AcDbEntity
  8
0
100
AcDbLine
 62
7
  6
CONTINUOUS
 10
7.2988376746
 20
20.9104703804
 11
7.3209441873
 21
20.7113319946
  0
LINE
  5
3EA
100
AcDbEntity
  8
RACCORDO
100
AcDbLine
 62
7
  6
CONTINUOUS
 10
11.15
 20
-21.9411874598
 11
11.15
 21
21.9411874598
  0
LWPOLYLINE
  5
3EB
100
AcDbEntity
  8
RACCORDO
100
AcDbPolyline
 62
7
  6
CONTINUOUS
 90
16
 70
0
 10
10.645628166
 20
-24.2456323968
 10
10.6442578375
 20
-24.2717635094
 10
10.640163634
 20
-24.2976083364
 10
10.6333904104
 20
-24.3228837286
 10
10.6240123724
 20
-24.3473127755
 10
10.6121322634
 20
-24.3706278389
 10
10.5978802386
 20
-24.392573485
 10
10.5814124395
 20
-24.4129092831
 10
10.5629092831
 20
-24.4314124395
 10
10.542573485
 20
-24.4478802386
 10
10.5206278389
 20
-24.4621322634
 10
10.4973127755
 20
-24.4740123724
 10
10.4728837286
 20
-24.4833904104
 10
10.4476083364
 20
-24.490163634
 10
10.4217635094
 20
-24.4942578375
 10
10.3956323968
 20
-24.495628166
  0
LINE
  5
3EC
100
AcDbEntity
  8
RACCORDO
100
AcDbLine
 62
7
  6
CONTINUOUS
 10
10.65
 20
-24.2500042308
 11
10.6478602393
 21
-24.2826345276
  0
LINE
  5
3ED
100
AcDbEntity
  8
RACCORDO
100
AcDbLine
 62
7
  6
CONTINUOUS
 10
9.7190883586
 20
-5.5906064646
 11
9.7220740231
 21
-5.5845601032
  0
LINE
  5
3EE
100
AcDbEntity
  8
RACCORDO
100
AcDbLine
 62
7
  6
CONTINUOUS
 10
9.7012336616
 20
-5.6203149393
 11
9.6918271332
 21
-5.6388321374
  0
LWPOLYLINE
  5
3EF
100
AcDbEntity
  8
RACCORDO
100
AcDbPolyline
 62
7
  6
CONTINUOUS
 90
4
 70
0
 10
9.7093952326
 20
-5.6086247054
 10
9.7127647343
 20
-5.6026475511
 10
9.7159852623
 20
-5.5966356139
 10
9.7190883586
 20
-5.5906064646
  0
LINE
  5
3F0
100
AcDbEntity
  8
DRAFT
100
AcDbLine
 62
7
  6
CONTINUOUS
 10
9.4946499221
 20
-8.9797613849
 11
10.0723308767
 21
-7.9791886211
  0
LINE
  5
3F1
100
AcDbEntity
  8
DRAFT
100
AcDbLine
 62
7
  6
CONTINUOUS
 10
9.65
 20
-8.8660254038
 11
10.15
 21
-8.0
  0
LINE
  5
3F2
100
AcDbEntity
  8
RACCORDO
100
AcDbLine
 62
7
  6
CONTINUOUS
 10
9.6918271332
 20
-5.6388321374
 11
9.7023985597
 21
-5.6205800906
  0
LINE
  5
3F3
100
AcDbEntity
  8
RACCORDO
100
AcDbLine
 62
7
  6
CONTINUOUS
 10
9.7023985597
 20
-5.6205800906
 11
9.7093952326
 21
-5.6086247054
  0
LINE
  5
3F4
100
AcDbEntity
  8
ASSI
100
AcDbLine
 62
7
  6
CONTINUOUS
 10
-4.2400731719
 20
-23.5982299306
 11
-4.1856895727
 21
-23.5370992598
  0
LINE
  5
3F5
100
AcDbEntity
  8
ASSI
100
AcDbLine
 62
7
  6
CONTINUOUS
 10
-4.1856895727
 20
-23.5370992598
 11
-4.0872853497
 21
-23.428913051
  0
LINE
  5
3F6
100
AcDbEntity
  8
DRAFT
100
AcDbLine
 62
7
  6
CONTINUOUS
 10
10.0723308767
 20
-5.6124860802
 11
10.1002568536
 21
-5.5845601032
  0
LINE
  5
3F7
100
AcDbEntity
  8
DRAFT
100
AcDbLine
 62
7
  6
CONTINUOUS
 10
10.0723308767
 20
5.6124860802
 11
10.1002568536
 21
5.5845601032
  0
LINE
  5
3F8
100
AcDbEntity
  8
ASSI
100
AcDbLine
 62
7
  6
CONTINUOUS
 10
-4.0875439541
 20
23.429191375
 11
-4.18619987
 21
23.5376657278
  0
LWPOLYLINE
  5
3F9
100
AcDbEntity
  8
ASSI
100
AcDbPolyline
 62
7
  6
CONTINUOUS
 90
11
 70
0
 10
-4.18619987
 20
23.5376657278
 10
-4.2406080658
 20
23.5988384606
 10
-4.2642400999
 20
23.6258867636
 10
-4.2852969342
 20
23.6505713048
 10
-4.3037280838
 20
23.6726949285
 10
-4.3194531752
 20
23.6922100522
 10
-4.3324027181
 20
23.7091642583
 10
-4.3425472708
 20
23.7235031394
 10
-4.349857599
 20
23.7352085596
 10
-4.3543167195
 20
23.7442986547
 10
-4.3559327327
 20
23.7507734247
  0
LWPOLYLINE
  5
3FA
100
AcDbEntity
  8
RACCORDO
100
AcDbPolyline
 62
7
  6
CONTINUOUS
 90
5
 70
0
 10
9.702740655
 20
5.619989515
 10
9.7097685662
 20
5.6079782877
 10
9.713098124
 20
5.6020695463
 10
9.7162435981
 20
5.5961874513
 10
9.7192355645
 20
5.5903509703
  0
LINE
  5
3FB
100
AcDbEntity
  8
RACCORDO
100
AcDbLine
 62
7
  6
CONTINUOUS
 10
9.691827165
 20
5.6388321318
 11
9.702740655
 21
5.619989515
  0
LINE
  5
3FC
100
AcDbEntity
  8
DRAFT
100
AcDbLine
 62
7
  6
CONTINUOUS
 10
10.0723308767
 20
7.9791886211
 11
9.4946499221
 21
8.9797613849
  0
LINE
  5
3FD
100
AcDbEntity
  8
DRAFT
100
AcDbLine
 62
7
  6
CONTINUOUS
 10
10.15
 20
8.0
 11
9.65
 21
8.8660254038
  0
LWPOLYLINE
  5
3FE
100
AcDbEntity
  8
RACCORDO
100
AcDbPolyline
 62
7
  6
CONTINUOUS
 90
5
 70
0
 10
9.691827165
 20
5.6388321318
 10
9.7011587575
 20
5.6206150461
 10
9.7087741702
 20
5.6017626088
 10
9.7146734031
 20
5.5822748197
 10
9.7188564562
 20
5.562151679
  0
LINE
  5
3FF
100
AcDbEntity
  8
RACCORDO
100
AcDbLine
 62
7
  6
CONTINUOUS
 10
9.7192355645
 20
5.5903509703
 11
9.7220740231
 21
5.5845601032
  0
LINE
  5
400
100
AcDbEntity
  8
DRAFT
100
AcDbLine
 62
7
  6
CONTINUOUS
 10
8.25
 20
-20.9
 11
8.2465127091
 21
-20.9104703804
  0
LINE
  5
401
100
AcDbEntity
  8
ASSI
100
AcDbLine
 62
7
  6
CONTINUOUS
 10
-3.9701912161
 20
-23.3024567509
 11
-3.9279699877
 21
-23.2563578147
  0
LINE
  5
402
100
AcDbEntity
  8
ASSI
100
AcDbLine
 62
7
  6
CONTINUOUS
 10
-4.0872853497
 20
-23.428913051
 11
-3.9701912161
 21
-23.3024567509
  0
LINE
  5
403
100
AcDbEntity
  8
ASSI
100
AcDbLine
 62
7
  6
CONTINUOUS
 10
-4.4
 20
-23.8
 11
-4.3563493531
 21
-23.7563493531
  0
LINE
  5
404
100
AcDbEntity
  8
DRAFT
100
AcDbLine
 62
7
  6
CONTINUOUS
 10
9.4946499221
 20
-8.9797613849
 11
9.65
 21
-8.8660254038
  0
LINE
  5
405
100
AcDbEntity
  8
RACCORDO
100
AcDbLine
 62
7
  6
CONTINUOUS
 10
3.1
 20
13.8
 11
-3.1
 21
13.8
  0
LINE
  5
406
100
AcDbEntity
  8
DRAFT
100
AcDbLine
 62
7
  6
CONTINUOUS
 10
3.5
 20
14.0
 11
3.382729781
 21
14.0
  0
LINE
  5
407
100
AcDbEntity
  8
DRAFT
100
AcDbLine
 62
7
  6
CONTINUOUS
 10
-3.382729781
 20
14.0
 11
-3.5
 21
14.0
  0
LINE
  5
408
100
AcDbEntity
  8
RACCORDO
100
AcDbLine
 62
7
  6
CONTINUOUS
 10
-9.529560052
 20
19.4
 11
-9.5785103949
 21
19.4244733075
  0
LINE
  5
409
100
AcDbEntity
  8
DRAFT
100
AcDbLine
 62
7
  6
CONTINUOUS
 10
9.4946499221
 20
8.9797613849
 11
9.65
 21
8.8660254038
  0
LINE
  5
40A
100
AcDbEntity
  8
ASSI
100
AcDbLine
 62
7
  6
CONTINUOUS
 10
-4.4
 20
23.8
 11
-4.3563493531
 21
23.7563493531
  0
LINE
  5
40B
100
AcDbEntity
  8
ASSI
100
AcDbLine
 62
7
  6
CONTINUOUS
 10
-3.9702210545
 20
23.3024943895
 11
-4.0875439541
 21
23.429191375
  0
LINE
  5
40C
100
AcDbEntity
  8
ASSI
100
AcDbLine
 62
7
  6
CONTINUOUS
 10
-3.9279699877
 20
23.2563578147
 11
-3.9702210545
 21
23.3024943895
  0
LINE
  5
40D
100
AcDbEntity
  8
DRAFT
100
AcDbLine
 62
7
  6
CONTINUOUS
 10
8.2465127091
 20
20.9104703804
 11
8.25
 21
20.9
  0
LINE
  5
40E
100
AcDbEntity
  8
RACCORDO
100
AcDbLine
 62
7
  6
CONTINUOUS
 10
10.6478602393
 20
-24.2826345276
 11
10.6414797761
 21
-24.314706535
  0
LINE
  5
40F
100
AcDbEntity
  8
DRAFT
100
AcDbLine
 62
7
  6
CONTINUOUS
 10
9.4946499221
 20
14.7
 11
3.5
 21
14.7
  0
LINE
  5
410
100
AcDbEntity
  8
DRAFT
100
AcDbLine
 62
7
  6
CONTINUOUS
 10
-3.5
 20
14.7
 11
-9.4946499221
 21
14.7
  0
LINE
  5
411
100
AcDbEntity
  8
RACCORDO
100
AcDbLine
 62
7
  6
CONTINUOUS
 10
-9.5209086807
 20
14.7131283793
 11
-3.5131283793
 21
14.7131283793
  0
LINE
  5
412
100
AcDbEntity
  8
RACCORDO
100
AcDbLine
 62
7
  6
CONTINUOUS
 10
3.5131283793
 20
14.7131283793
 11
9.5209086807
 21
14.7131283793
  0
LINE
  5
413
100
AcDbEntity
  8
DRAFT
100
AcDbLine
 62
7
  6
CONTINUOUS
 10
-3.4947638793
 20
14.9
 11
-3.4
 21
14.9
  0
LINE
  5
414
100
AcDbEntity
  8
DRAFT
100
AcDbLine
 62
7
  6
CONTINUOUS
 10
3.4
 20
14.9
 11
3.4947638793
 21
14.9
  0
LINE
  5
415
100
AcDbEntity
  8
DRAFT
100
AcDbLine
 62
7
  6
CONTINUOUS
 10
-3.4965092529
 20
15.1
 11
-3.4
 21
15.1
  0
LINE
  5
416
100
AcDbEntity
  8
DRAFT
100
AcDbLine
 62
7
  6
CONTINUOUS
 10
3.4
 20
15.1
 11
3.4965092529
 21
15.1
  0
LINE
  5
417
100
AcDbEntity
  8
RACCORDO
100
AcDbLine
 62
253
  6
CONTINUOUS
 10
-9.529560052
 20
15.2131093409
 11
-3.5174537356
 21
15.2131093409
  0
LINE
  5
418
100
AcDbEntity
  8
RACCORDO
100
AcDbLine
 62
253
  6
CONTINUOUS
 10
3.5174537356
 20
15.2131093409
 11
9.529560052
 21
15.2131093409
  0
LINE
  5
419
100
AcDbEntity
  8
DRAFT
100
AcDbLine
 62
7
  6
CONTINUOUS
 10
3.4965092529
 20
15.4904004454
 11
3.4
 21
15.4904004454
  0
LINE
  5
41A
100
AcDbEntity
  8
DRAFT
100
AcDbLine
 62
7
  6
CONTINUOUS
 10
-3.4
 20
15.4904004454
 11
-3.4965092529
 21
15.4904004454
  0
LINE
  5
41B
100
AcDbEntity
  8
RACCORDO
100
AcDbLine
 62
7
  6
CONTINUOUS
 10
3.5061088075
 20
15.5
 11
3.4
 21
15.5
  0
LINE
  5
41C
100
AcDbEntity
  8
RACCORDO
100
AcDbLine
 62
7
  6
CONTINUOUS
 10
-3.4
 20
15.5
 11
-3.5061088075
 21
15.5
  0
LINE
  5
41D
100
AcDbEntity
  8
DRAFT
100
AcDbLine
 62
7
  6
CONTINUOUS
 10
3.5174537356
 20
16.2
 11
-3.5174537356
 21
16.2
  0
LINE
  5
41E
100
AcDbEntity
  8
RACCORDO
100
AcDbLine
 62
253
  6
CONTINUOUS
 10
4.0000114231
 20
17.3
 11
3.9423912491
 21
17.357620174
  0
LINE
  5
41F
100
AcDbEntity
  8
RACCORDO
100
AcDbLine
 62
253
  6
CONTINUOUS
 10
4.3
 20
17.5999885769
 11
4.242379826
 21
17.6576087509
  0
LWPOLYLINE
  5
420
100
AcDbEntity
  8
RACCORDO
100
AcDbPolyline
 62
7
  6
CONTINUOUS
 90
3
 70
0
 10
10.6414797761
 20
24.314706535
 10
10.6478602393
 20
24.2826345276
 10
10.65
 20
24.2500042308
  0
LWPOLYLINE
  5
421
100
AcDbEntity
  8
RACCORDO
100
AcDbPolyline
 62
7
  6
CONTINUOUS
 90
9
 70
0
 10
10.6414797761
 20
-24.314706535
 10
10.6309677771
 20
-24.3456715157
 10
10.6165040978
 20
-24.3749996731
 10
10.5983362052
 20
-24.4021892159
 10
10.5767749435
 20
-24.4267749435
 10
10.5521892159
 20
-24.4483362052
 10
10.5249996731
 20
-24.4665040978
 10
10.4956715157
 20
-24.4809677771
 10
10.464706535
 20
-24.4914797761
  0
LINE
  5
422
100
AcDbEntity
  8
RACCORDO
100
AcDbLine
 62
7
  6
CONTINUOUS
 10
7.2437882562
 20
-20.9930456726
 11
7.2988376746
 21
-20.9104703804
  0
LWPOLYLINE
  5
423
100
AcDbEntity
  8
ASSI
100
AcDbPolyline
 62
7
  6
CONTINUOUS
 90
6
 70
0
 10
3.5231362374
 20
-23.7097056451
 10
3.5360952185
 20
-23.6927014962
 10
3.5518474045
 20
-23.6731397275
 10
3.5702997872
 20
-23.6509854882
 10
3.5913681752
 20
-23.6262736291
 10
3.6150142413
 20
-23.5991999528
  0
LWPOLYLINE
  5
424
100
AcDbEntity
  8
RACCORDO
100
AcDbPolyline
 62
7
  6
CONTINUOUS
 90
16
 70
0
 10
3.9423912491
 20
17.357620174
 10
3.973847869
 20
17.3592763892
 10
4.0049588844
 20
17.3642222456
 10
4.0353811793
 20
17.372403597
 10
4.0647832537
 20
17.3837324318
 10
4.0928362315
 20
17.398083209
 10
4.1192195834
 20
17.4152900344
 10
4.1436378887
 20
17.4351539962
 10
4.165832496
 20
17.4574579476
 10
4.1855698553
 20
17.4819647747
 10
4.2026585245
 20
17.5084505162
 10
4.216874595
 20
17.5365840442
 10
4.2280169195
 20
17.5659183266
 10
4.2359953272
 20
17.5960698225
 10
4.2407855812
 20
17.62674508
 10
4.242379826
 20
17.6576087509
  0
LINE
  5
425
100
AcDbEntity
  8
0
100
AcDbLine
 62
7
  6
CONTINUOUS
 10
-7.0004807586
 20
16.720074026
 11
-6.7995192414
 21
16.720074026
  0
LINE
  5
426
100
AcDbEntity
  8
0
100
AcDbLine
 62
7
  6
CONTINUOUS
 10
6.7995192414
 20
16.720074026
 11
7.0004807586
 21
16.720074026
  0
LINE
  5
427
100
AcDbEntity
  8
RACCORDO
100
AcDbLine
 62
7
  6
CONTINUOUS
 10
4.0000114231
 20
17.3
 11
-4.0000114231
 21
17.3
  0
LINE
  5
428
100
AcDbEntity
  8
RACCORDO
100
AcDbLine
 62
7
  6
CONTINUOUS
 10
-3.9423912491
 20
17.357620174
 11
3.9423912491
 21
17.357620174
  0
LINE
  5
429
100
AcDbEntity
  8
RACCORDO
100
AcDbLine
 62
253
  6
CONTINUOUS
 10
4.242379826
 20
17.6576087509
 11
-4.242379826
 21
17.6576087509
  0
LINE
  5
42A
100
AcDbEntity
  8
RACCORDO
100
AcDbLine
 62
7
  6
CONTINUOUS
 10
4.2755266925
 20
19.4244733075
 11
4.3
 21
19.4
  0
LINE
  5
42B
100
AcDbEntity
  8
RACCORDO
100
AcDbLine
 62
7
  6
CONTINUOUS
 10
4.2712013363
 20
19.968583276
 11
4.242379826
 21
19.9974047863
  0
LWPOLYLINE
  5
42C
100
AcDbEntity
  8
ASSI
100
AcDbPolyline
 62
7
  6
CONTINUOUS
 90
5
 70
0
 10
3.5229199546
 20
23.7100015425
 10
3.5128923962
 20
23.7242508958
 10
3.5057217898
 20
23.7358487444
 10
3.501426773
 20
23.7448125425
 10
3.5
 20
23.7511422903
  0
LINE
  5
42D
100
AcDbEntity
  8
RACCORDO
100
AcDbLine
 62
7
  6
CONTINUOUS
 10
7.3401430257
 20
19.4
 11
7.3238277175
 21
19.4244733075
  0
LINE
  5
42E
100
AcDbEntity
  8
RACCORDO
100
AcDbLine
 62
7
  6
CONTINUOUS
 10
7.2437882562
 20
20.9930456726
 11
7.2988376746
 21
20.9104703804
  0
LINE
  5
42F
100
AcDbEntity
  8
ASSI
100
AcDbLine
 62
7
  6
CONTINUOUS
 10
3.6150142413
 20
-23.5991999528
 11
3.6694600993
 21
-23.5379768411
  0
LINE
  5
430
100
AcDbEntity
  8
ASSI
100
AcDbLine
 62
7
  6
CONTINUOUS
 10
3.6694600993
 20
-23.5379768411
 11
3.7680997843
 21
-23.4295168871
  0
LINE
  5
431
100
AcDbEntity
  8
ASSI
100
AcDbLine
 62
7
  6
CONTINUOUS
 10
3.8855897648
 20
-23.3026332055
 11
3.9279699877
 21
-23.2563578147
  0
LINE
  5
432
100
AcDbEntity
  8
ASSI
100
AcDbLine
 62
7
  6
CONTINUOUS
 10
3.7680997843
 20
-23.4295168871
 11
3.8855897648
 21
-23.3026332055
  0
LINE
  5
433
100
AcDbEntity
  8
DRAFT
100
AcDbLine
 62
7
  6
CONTINUOUS
 10
9.529560052
 20
19.4
 11
7.3401430257
 21
19.4
  0
LINE
  5
434
100
AcDbEntity
  8
DRAFT
100
AcDbLine
 62
7
  6
CONTINUOUS
 10
6.4598569743
 20
19.4
 11
4.3
 21
19.4
  0
LINE
  5
435
100
AcDbEntity
  8
DRAFT
100
AcDbLine
 62
7
  6
CONTINUOUS
 10
-4.3
 20
19.4
 11
-6.4598569743
 21
19.4
  0
LINE
  5
436
100
AcDbEntity
  8
DRAFT
100
AcDbLine
 62
7
  6
CONTINUOUS
 10
-7.3401430257
 20
19.4
 11
-9.529560052
 21
19.4
  0
LINE
  5
437
100
AcDbEntity
  8
RACCORDO
100
AcDbLine
 62
7
  6
CONTINUOUS
 10
-9.5785103949
 20
19.4244733075
 11
-7.3238277175
 21
19.4244733075
  0
LINE
  5
438
100
AcDbEntity
  8
RACCORDO
100
AcDbLine
 62
7
  6
CONTINUOUS
 10
-6.4761722825
 20
19.4244733075
 11
-4.2755266925
 21
19.4244733075
  0
LINE
  5
439
100
AcDbEntity
  8
RACCORDO
100
AcDbLine
 62
7
  6
CONTINUOUS
 10
4.2755266925
 20
19.4244733075
 11
6.4761722825
 21
19.4244733075
  0
LINE
  5
43A
100
AcDbEntity
  8
RACCORDO
100
AcDbLine
 62
7
  6
CONTINUOUS
 10
7.3238277175
 20
19.4244733075
 11
9.5785103949
 21
19.4244733075
  0
LINE
  5
43B
100
AcDbEntity
  8
RACCORDO
100
AcDbLine
 62
253
  6
CONTINUOUS
 10
6.9031209497
 20
19.6708583756
 11
6.8968790503
 21
19.6708583756
  0
LINE
  5
43C
100
AcDbEntity
  8
RACCORDO
100
AcDbLine
 62
253
  6
CONTINUOUS
 10
-6.8968790503
 20
19.6708583756
 11
-6.9031209497
 21
19.6708583756
  0
LINE
  5
43D
100
AcDbEntity
  8
RACCORDO
100
AcDbLine
 62
253
  6
CONTINUOUS
 10
6.9037940101
 20
19.8678199262
 11
6.8962059899
 21
19.8678199262
  0
LINE
  5
43E
100
AcDbEntity
  8
RACCORDO
100
AcDbLine
 62
253
  6
CONTINUOUS
 10
-6.8962059944
 20
19.8678199262
 11
-6.903794009
 21
19.8678199262
  0
LINE
  5
43F
100
AcDbEntity
  8
RACCORDO
100
AcDbLine
 62
253
  6
CONTINUOUS
 10
-9.5871617663
 20
19.924454269
 11
-7.3209441873
 21
19.924454269
  0
LINE
  5
440
100
AcDbEntity
  8
RACCORDO
100
AcDbLine
 62
253
  6
CONTINUOUS
 10
-6.4790558127
 20
19.924454269
 11
-4.2712013363
 21
19.924454269
  0
LINE
  5
441
100
AcDbEntity
  8
RACCORDO
100
AcDbLine
 62
253
  6
CONTINUOUS
 10
4.2712013363
 20
19.924454269
 11
6.4790558127
 21
19.924454269
  0
LINE
  5
442
100
AcDbEntity
  8
RACCORDO
100
AcDbLine
 62
253
  6
CONTINUOUS
 10
7.3209441873
 20
19.924454269
 11
9.5871617663
 21
19.924454269
  0
LINE
  5
443
100
AcDbEntity
  8
DRAFT
100
AcDbLine
 62
7
  6
CONTINUOUS
 10
6.4790558127
 20
19.968583276
 11
4.2712013363
 21
19.968583276
  0
LINE
  5
444
100
AcDbEntity
  8
DRAFT
100
AcDbLine
 62
7
  6
CONTINUOUS
 10
-4.2712013363
 20
19.968583276
 11
-6.4790558127
 21
19.968583276
  0
LWPOLYLINE
  5
445
100
AcDbEntity
  8
RACCORDO
100
AcDbPolyline
 62
253
  6
CONTINUOUS
 90
22
 70
0
 10
-6.9037940006
 20
19.8678215703
 10
-6.9220629327
 20
19.8679682866
 10
-6.9409025321
 20
19.8685467256
 10
-6.9602459597
 20
19.8695568873
 10
-6.9799952794
 20
19.8709643315
 10
-7.0000789395
 20
19.8728034983
 10
-7.0204482192
 20
19.8751777086
 10
-7.040997103
 20
19.8780944545
 10
-7.0615716495
 20
19.8815462439
 10
-7.0820250844
 20
19.8856139208
 10
-7.1021819122
 20
19.8903117326
 10
-7.1218647222
 20
19.895625432
 10
-7.1408964745
 20
19.9015931215
 10
-7.1590277564
 20
19.9082147691
 10
-7.1760651553
 20
19.9154904068
 10
-7.1918597807
 20
19.9234582324
 10
-7.206122334
 20
19.932152595
 10
-7.2185526348
 20
19.9415391455
 10
-7.2288940166
 20
19.9515530337
 10
-7.2367989021
 20
19.9621726429
 10
-7.2418824578
 20
19.9734195899
 10
-7.2437882562
 20
19.9852938746
  0
LWPOLYLINE
  5
446
100
AcDbEntity
  8
RACCORDO
100
AcDbPolyline
 62
253
  6
CONTINUOUS
 90
19
 70
0
 10
6.8962059899
 20
19.8678215691
 10
6.8679263196
 20
19.8682867551
 10
6.8396851435
 20
19.869571094
 10
6.8116853949
 20
19.8716745856
 10
6.7841349779
 20
19.8746094747
 10
6.7572418888
 20
19.8783635166
 10
6.7312129768
 20
19.8828999775
 10
6.7062485344
 20
19.8882476551
 10
6.6825657323
 20
19.8943777518
 10
6.660388605
 20
19.9011671402
 10
6.6399221908
 20
19.9086216566
 10
6.6213309665
 20
19.9167354649
 10
6.6047671535
 20
19.9253679295
 10
6.5903651838
 20
19.9345639999
 10
6.5783210074
 20
19.9442787267
 10
6.5688213771
 20
19.954236626
 10
6.5619500179
 20
19.9643458697
 10
6.5577367712
 20
19.9746982859
 10
6.5562117438
 20
19.9852938746
  0
LWPOLYLINE
  5
447
100
AcDbEntity
  8
RACCORDO
100
AcDbPolyline
 62
253
  6
CONTINUOUS
 90
22
 70
0
 10
-6.9031209591
 20
19.6708580904
 10
-6.9214193604
 20
19.671340709
 10
-6.9402937391
 20
19.6727853135
 10
-6.9596768873
 20
19.6752903562
 10
-6.9794693427
 20
19.6789544491
 10
-6.9996000566
 20
19.6838682121
 10
-7.0200226859
 20
19.6901248185
 10
-7.0406309207
 20
19.6978261063
 10
-7.061268827
 20
19.7070567318
 10
-7.0817889834
 20
19.7178850564
 10
-7.1020149134
 20
19.7303732041
 10
-7.1217664601
 20
19.7445814319
 10
-7.1408631693
 20
19.760560114
 10
-7.1590526986
 20
19.7782952028
 10
-7.1761405443
 20
19.7978187969
 10
-7.1919766518
 20
19.8192474417
 10
-7.2062689731
 20
19.8425429574
 10
-7.2187140931
 20
19.8676435435
 10
-7.229052003
 20
19.8946204355
 10
-7.2369311614
 20
19.9233935341
 10
-7.2419631429
 20
19.9537049292
 10
-7.2437882562
 20
19.9852938746
  0
LWPOLYLINE
  5
448
100
AcDbEntity
  8
RACCORDO
100
AcDbPolyline
 62
253
  6
CONTINUOUS
 90
19
 70
0
 10
6.8968790409
 20
19.6708580904
 10
6.8685025518
 20
19.671980729
 10
6.8401656552
 20
19.6753137238
 10
6.8120730894
 20
19.680870301
 10
6.784437042
 20
19.6886425283
 10
6.7574641274
 20
19.6986110658
 10
6.7313550425
 20
19.7107478334
 10
6.7063078777
 20
19.7250002752
 10
6.6825468811
 20
19.7412892193
 10
6.6603037691
 20
19.7595130685
 10
6.6397868598
 20
19.7795287128
 10
6.6211588076
 20
19.8012136815
 10
6.604571301
 20
19.8244692937
 10
6.5901591356
 20
19.8491845792
 10
6.5781205307
 20
19.8751197652
 10
6.5686444649
 20
19.9019444685
 10
6.5618149473
 20
19.9293849866
 10
6.5576608937
 20
19.9572473012
 10
6.5562117438
 20
19.9852938746
  0
LINE
  5
449
100
AcDbEntity
  8
ASSI
100
AcDbLine
 62
7
  6
CONTINUOUS
 10
3.8855635511
 20
23.302667227
 11
3.7678414696
 21
23.4297946427
  0
LINE
  5
44A
100
AcDbEntity
  8
ASSI
100
AcDbLine
 62
7
  6
CONTINUOUS
 10
3.9279699877
 20
23.2563578147
 11
3.8855635511
 21
23.302667227
  0
LINE
  5
44B
100
AcDbEntity
  8
ASSI
100
AcDbLine
 62
7
  6
CONTINUOUS
 10
3.7678414696
 20
23.4297946427
 11
3.6689395324
 21
23.5385549555
  0
LWPOLYLINE
  5
44C
100
AcDbEntity
  8
ASSI
100
AcDbPolyline
 62
7
  6
CONTINUOUS
 90
7
 70
0
 10
3.6689395324
 20
23.5385549555
 10
3.6144694912
 20
23.5998200155
 10
3.5908404058
 20
23.6268816238
 10
3.569809667
 20
23.6515581795
 10
3.5514271118
 20
23.673653048
 10
3.5357742172
 20
23.6931181388
 10
3.5229199546
 20
23.7100015425
  0
LINE
  5
44D
100
AcDbEntity
  8
SMUSSO
100
AcDbLine
 62
7
  6
CONTINUOUS
 10
9.4946499221
 20
-19.6825418182
 11
8.744535989
 21
-20.4335707644
  0
LINE
  5
44E
100
AcDbEntity
  8
SMUSSO
100
AcDbLine
 62
7
  6
CONTINUOUS
 10
9.65
 20
-20.1489710538
 11
8.8998860669
 21
-20.9
  0
LINE
  5
44F
100
AcDbEntity
  8
RACCORDO
100
AcDbLine
 62
7
  6
CONTINUOUS
 10
7.2587268678
 20
-22.3912731322
 11
8.25
 21
-21.4
  0
LINE
  5
450
100
AcDbEntity
  8
RACCORDO
100
AcDbLine
 62
7
  6
CONTINUOUS
 10
-3.9423912491
 20
20.0
 11
3.9423912491
 21
20.0
  0
LINE
  5
451
100
AcDbEntity
  8
RACCORDO
100
AcDbLine
 62
7
  6
CONTINUOUS
 10
-6.555294768
 20
20.0829433217
 11
6.555294768
 21
20.0829433217
  0
LINE
  5
452
100
AcDbEntity
  8
RACCORDO
100
AcDbLine
 62
253
  6
CONTINUOUS
 10
-6.9
 20
20.5829242832
 11
6.8962059899
 21
20.5829242832
  0
LINE
  5
453
100
AcDbEntity
  8
0
100
AcDbLine
 62
7
  6
CONTINUOUS
 10
8.8370478331
 20
20.7113319946
 11
7.3209441873
 21
20.7113319946
  0
LINE
  5
454
100
AcDbEntity
  8
0
100
AcDbLine
 62
7
  6
CONTINUOUS
 10
-7.3209441873
 20
20.7113319946
 11
-8.8370478331
 21
20.7113319946
  0
LINE
  5
455
100
AcDbEntity
  8
SMUSSO
100
AcDbLine
 62
7
  6
CONTINUOUS
 10
8.8998860669
 20
20.9
 11
8.25
 21
20.9
  0
LINE
  5
456
100
AcDbEntity
  8
SMUSSO
100
AcDbLine
 62
7
  6
CONTINUOUS
 10
-8.25
 20
20.9
 11
-8.8998860669
 21
20.9
  0
LINE
  5
457
100
AcDbEntity
  8
DRAFT
100
AcDbLine
 62
7
  6
CONTINUOUS
 10
8.2465127091
 20
20.9104703804
 11
7.2988376746
 21
20.9104703804
  0
LINE
  5
458
100
AcDbEntity
  8
DRAFT
100
AcDbLine
 62
7
  6
CONTINUOUS
 10
-7.2988376746
 20
20.9104703804
 11
-8.2465127091
 21
20.9104703804
  0
LINE
  5
459
100
AcDbEntity
  8
RACCORDO
100
AcDbLine
 62
7
  6
CONTINUOUS
 10
-7.5841007192
 20
20.9959955457
 11
-6.9037940101
 21
20.9959955457
  0
LINE
  5
45A
100
AcDbEntity
  8
RACCORDO
100
AcDbLine
 62
7
  6
CONTINUOUS
 10
6.9037940101
 20
20.9959955457
 11
7.5841007192
 21
20.9959955457
  0
LINE
  5
45B
100
AcDbEntity
  8
0
100
AcDbLine
 62
7
  6
CONTINUOUS
 10
3.0
 20
21.0
 11
-3.0
 21
21.0
  0
LINE
  5
45C
100
AcDbEntity
  8
RACCORDO
100
AcDbLine
 62
253
  6
CONTINUOUS
 10
7.5841007192
 20
21.3126932437
 11
3.0
 21
21.3126932437
  0
LINE
  5
45D
100
AcDbEntity
  8
RACCORDO
100
AcDbLine
 62
253
  6
CONTINUOUS
 10
-3.0
 20
21.3126932437
 11
-7.5841007192
 21
21.3126932437
  0
LINE
  5
45E
100
AcDbEntity
  8
0
100
AcDbLine
 62
7
  6
CONTINUOUS
 10
-3.0
 20
21.7
 11
3.0
 21
21.7
  0
LWPOLYLINE
  5
45F
100
AcDbEntity
  8
RACCORDO
100
AcDbPolyline
 62
7
  6
CONTINUOUS
 90
9
 70
0
 10
-8.435293465
 20
24.4914797761
 10
-8.4043284843
 20
24.4809677771
 10
-8.3750003269
 20
24.4665040978
 10
-8.3478107841
 20
24.4483362052
 10
-8.3232250565
 20
24.4267749435
 10
-8.3016637948
 20
24.4021892159
 10
-8.2834959022
 20
24.3749996731
 10
-8.2690322229
 20
24.3456715157
 10
-8.2585202239
 20
24.314706535
  0
LINE
  5
460
100
AcDbEntity
  8
RACCORDO
100
AcDbLine
 62
7
  6
CONTINUOUS
 10
8.25
 20
21.4
 11
7.2587268678
 21
22.3912731322
  0
LINE
  5
461
100
AcDbEntity
  8
0
100
AcDbLine
 62
7
  6
CONTINUOUS
 10
9.5871617663
 20
19.9603030484
 11
8.8370478331
 21
20.7113319946
  0
LINE
  5
462
100
AcDbEntity
  8
SMUSSO
100
AcDbLine
 62
7
  6
CONTINUOUS
 10
9.65
 20
20.1489710538
 11
8.8998860669
 21
20.9
  0
LINE
  5
463
100
AcDbEntity
  8
RACCORDO
100
AcDbLine
 62
7
  6
CONTINUOUS
 10
8.0840245667
 20
-20.9917082642
 11
8.2465127091
 21
-20.9104703804
  0
LWPOLYLINE
  5
464
100
AcDbEntity
  8
RACCORDO
100
AcDbPolyline
 62
7
  6
CONTINUOUS
 90
3
 70
0
 10
8.435293465
 20
24.4914797761
 10
8.4673654724
 20
24.4978602393
 10
8.4999957692
 20
24.5
  0
LINE
  5
465
100
AcDbEntity
  8
RACCORDO
100
AcDbLine
 62
7
  6
CONTINUOUS
 10
-10.7295736134
 20
22.3975273309
 11
-10.6824078424
 21
22.4
  0
LINE
  5
466
100
AcDbEntity
  8
RACCORDO
100
AcDbLine
 62
253
  6
CONTINUOUS
 10
7.3373448332
 20
22.3126551668
 11
3.0
 21
22.3126551668
  0
LINE
  5
467
100
AcDbEntity
  8
RACCORDO
100
AcDbLine
 62
253
  6
CONTINUOUS
 10
-3.0
 20
22.3126551668
 11
-7.3373448332
 21
22.3126551668
  0
LINE
  5
468
100
AcDbEntity
  8
RACCORDO
100
AcDbLine
 62
7
  6
CONTINUOUS
 10
10.6998629074
 20
22.3912731322
 11
7.2587268678
 21
22.3912731322
  0
LINE
  5
469
100
AcDbEntity
  8
DRAFT
100
AcDbLine
 62
7
  6
CONTINUOUS
 10
3.5
 20
22.3912731322
 11
3.0
 21
22.3912731322
  0
LINE
  5
46A
100
AcDbEntity
  8
DRAFT
100
AcDbLine
 62
7
  6
CONTINUOUS
 10
-3.0
 20
22.3912731322
 11
-3.5
 21
22.3912731322
  0
LINE
  5
46B
100
AcDbEntity
  8
RACCORDO
100
AcDbLine
 62
7
  6
CONTINUOUS
 10
-7.2587268678
 20
22.3912731322
 11
-10.6998629074
 21
22.3912731322
  0
LINE
  5
46C
100
AcDbEntity
  8
RACCORDO
100
AcDbLine
 62
7
  6
CONTINUOUS
 10
10.6830127944
 20
22.4
 11
10.65
 21
22.4
  0
LINE
  5
46D
100
AcDbEntity
  8
DRAFT
100
AcDbLine
 62
7
  6
CONTINUOUS
 10
-4.4
 20
22.4
 11
-10.65
 21
22.4
  0
LINE
  5
46E
100
AcDbEntity
  8
DRAFT
100
AcDbLine
 62
7
  6
CONTINUOUS
 10
4.4
 20
22.4
 11
10.65
 21
22.4
  0
LINE
  5
46F
100
AcDbEntity
  8
RACCORDO
100
AcDbLine
 62
7
  6
CONTINUOUS
 10
-10.65
 20
22.4
 11
-10.6828874748
 21
22.4
  0
LINE
  5
470
100
AcDbEntity
  8
RACCORDO
100
AcDbLine
 62
7
  6
CONTINUOUS
 10
-10.4007229979
 20
23.1226497308
 11
-8.4992770021
 21
23.1226497308
  0
LINE
  5
471
100
AcDbEntity
  8
RACCORDO
100
AcDbLine
 62
7
  6
CONTINUOUS
 10
8.4992770021
 20
23.1226497308
 11
10.4007229979
 21
23.1226497308
  0
LINE
  5
472
100
AcDbEntity
  8
RACCORDO
100
AcDbLine
 62
7
  6
CONTINUOUS
 10
10.7295750306
 20
22.3975267915
 11
10.6824078424
 21
22.4
  0
LINE
  5
473
100
AcDbEntity
  8
RACCORDO
100
AcDbLine
 62
7
  6
CONTINUOUS
 10
-8.4673654724
 20
24.4978602393
 11
-8.435293465
 21
24.4914797761
  0
LINE
  5
474
100
AcDbEntity
  8
RACCORDO
100
AcDbLine
 62
7
  6
CONTINUOUS
 10
8.0840245667
 20
20.9917082642
 11
8.2465127091
 21
20.9104703804
  0
LINE
  5
475
100
AcDbEntity
  8
RACCORDO
100
AcDbLine
 62
253
  6
CONTINUOUS
 10
10.6998629074
 20
-22.3912731322
 11
10.6824078424
 21
-22.4
  0
LWPOLYLINE
  5
476
100
AcDbEntity
  8
RACCORDO
100
AcDbPolyline
 62
7
  6
CONTINUOUS
 90
4
 70
0
 10
10.8657148284
 20
-22.360988351
 10
10.8217372407
 20
-22.3778997207
 10
10.7761882693
 20
-22.3901291642
 10
10.7295748194
 20
-22.3975268696
  0
LWPOLYLINE
  5
477
100
AcDbEntity
  8
RACCORDO
100
AcDbPolyline
 62
7
  6
CONTINUOUS
 90
3
 70
0
 10
-10.464706535
 20
24.4914797761
 10
-10.4326345276
 20
24.4978602393
 10
-10.4000042308
 20
24.5
  0
LINE
  5
478
100
AcDbEntity
  8
RACCORDO
100
AcDbLine
 62
253
  6
CONTINUOUS
 10
-10.3956323968
 20
23.6278312164
 11
-8.5043676032
 21
23.6278312164
  0
LINE
  5
479
100
AcDbEntity
  8
RACCORDO
100
AcDbLine
 62
253
  6
CONTINUOUS
 10
8.5043676032
 20
23.6278312164
 11
10.3956323968
 21
23.6278312164
  0
LINE
  5
47A
100
AcDbEntity
  8
ASSI
100
AcDbLine
 62
7
  6
CONTINUOUS
 10
4.3563493531
 20
23.7563493531
 11
3.5
 21
23.7563493531
  0
LINE
  5
47B
100
AcDbEntity
  8
ASSI
100
AcDbLine
 62
7
  6
CONTINUOUS
 10
-3.5
 20
23.7563493531
 11
-4.3563493531
 21
23.7563493531
  0
LINE
  5
47C
100
AcDbEntity
  8
DRAFT
100
AcDbLine
 62
7
  6
CONTINUOUS
 10
3.5
 20
23.7941821702
 11
-3.5
 21
23.7941821702
  0
LINE
  5
47D
100
AcDbEntity
  8
DRAFT
100
AcDbLine
 62
7
  6
CONTINUOUS
 10
4.4
 20
23.8
 11
-4.4
 21
23.8
  0
LINE
  5
47E
100
AcDbEntity
  8
RACCORDO
100
AcDbLine
 62
253
  6
CONTINUOUS
 10
-8.254371834
 20
23.8443375673
 11
-10.645628166
 21
23.8443375673
  0
LINE
  5
47F
100
AcDbEntity
  8
RACCORDO
100
AcDbLine
 62
253
  6
CONTINUOUS
 10
8.254371834
 20
23.8443375673
 11
10.645628166
 21
23.8443375673
  0
LINE
  5
480
100
AcDbEntity
  8
RACCORDO
100
AcDbLine
 62
253
  6
CONTINUOUS
 10
-8.254371834
 20
24.2456323968
 11
-10.645628166
 21
24.2456323968
  0
LINE
  5
481
100
AcDbEntity
  8
RACCORDO
100
AcDbLine
 62
253
  6
CONTINUOUS
 10
8.254371834
 20
24.2456323968
 11
10.645628166
 21
24.2456323968
  0
LINE
  5
482
100
AcDbEntity
  8
RACCORDO
100
AcDbLine
 62
7
  6
CONTINUOUS
 10
10.3956323968
 20
24.495628166
 11
8.5043676032
 21
24.495628166
  0
LINE
  5
483
100
AcDbEntity
  8
RACCORDO
100
AcDbLine
 62
7
  6
CONTINUOUS
 10
-8.5043676032
 20
24.495628166
 11
-10.3956323968
 21
24.495628166
  0
LWPOLYLINE
  5
484
100
AcDbEntity
  8
RACCORDO
100
AcDbPolyline
 62
7
  6
CONTINUOUS
 90
16
 70
0
 10
10.3956323968
 20
24.495628166
 10
10.4213492317
 20
24.4943010441
 10
10.4469103599
 20
24.4903109733
 10
10.4720363312
 20
24.4836641013
 10
10.4964829129
 20
24.4743800665
 10
10.5199299147
 20
24.4625337261
 10
10.5420035559
 20
24.4482930995
 10
10.5624274973
 20
24.4318451154
 10
10.5810154727
 20
24.4133491077
 10
10.5975699396
 20
24.3929996217
 10
10.6119099479
 20
24.3710120998
 10
10.6238695902
 20
24.3476328491
 10
10.6333104873
 20
24.3231292552
 10
10.6401280305
 20
24.2977755339
 10
10.6442489485
 20
24.2718479197
 10
10.645628166
 20
24.2456323968
  0
LWPOLYLINE
  5
485
100
AcDbEntity
  8
RACCORDO
100
AcDbPolyline
 62
7
  6
CONTINUOUS
 90
16
 70
0
 10
-8.5043676032
 20
24.495628166
 10
-8.4782364906
 20
24.4942578375
 10
-8.4523916636
 20
24.490163634
 10
-8.4271162714
 20
24.4833904104
 10
-8.4026872245
 20
24.4740123724
 10
-8.3793721611
 20
24.4621322634
 10
-8.357426515
 20
24.4478802386
 10
-8.3370907169
 20
24.4314124395
 10
-8.3185875605
 20
24.4129092831
 10
-8.3021197614
 20
24.392573485
 10
-8.2878677366
 20
24.3706278389
 10
-8.2759876276
 20
24.3473127755
 10
-8.2666095896
 20
24.3228837286
 10
-8.259836366
 20
24.2976083364
 10
-8.2557421625
 20
24.2717635094
 10
-8.254371834
 20
24.2456323968
  0
LINE
  5
486
100
AcDbEntity
  8
RACCORDO
100
AcDbLine
 62
7
  6
CONTINUOUS
 10
-8.4999957692
 20
24.5
 11
-8.4673654724
 21
24.4978602393
  0
LINE
  5
487
100
AcDbEntity
  8
RACCORDO
100
AcDbLine
 62
7
  6
CONTINUOUS
 10
10.4000042308
 20
24.5
 11
10.4326345276
 21
24.4978602393
  0
LINE
  5
488
100
AcDbEntity
  8
RACCORDO
100
AcDbLine
 62
7
  6
CONTINUOUS
 10
10.4326345276
 20
24.4978602393
 11
10.464706535
 21
24.4914797761
  0
LWPOLYLINE
  5
489
100
AcDbEntity
  8
RACCORDO
100
AcDbPolyline
 62
7
  6
CONTINUOUS
 90
9
 70
0
 10
10.464706535
 20
24.4914797761
 10
10.4956715157
 20
24.4809677771
 10
10.5249996731
 20
24.4665040978
 10
10.5521892159
 20
24.4483362052
 10
10.5767749435
 20
24.4267749435
 10
10.5983362052
 20
24.4021892159
 10
10.6165040978
 20
24.3749996731
 10
10.6309677771
 20
24.3456715157
 10
10.6414797761
 20
24.314706535
  0
LWPOLYLINE
  5
48A
100
AcDbEntity
  8
RACCORDO
100
AcDbPolyline
 62
7
  6
CONTINUOUS
 90
4
 70
0
 10
10.8657155135
 20
22.3609880178
 10
10.8217377965
 20
22.3778994703
 10
10.7761886661
 20
22.390129001
 10
10.7295750306
 20
22.3975267915
  0
LINE
  5
48B
100
AcDbEntity
  8
RACCORDO
100
AcDbLine
 62
253
  6
CONTINUOUS
 10
10.6824078424
 20
22.4
 11
10.6998629074
 21
22.3912731322
  0
CIRCLE
  5
48C
100
AcDbEntity
  8
ASSI
100
AcDbCircle
 62
7
  6
CONTINUOUS
 10
-1.5
 20
-1.7
 40
0.4
  0
CIRCLE
  5
48D
100
AcDbEntity
  8
ASSI
100
AcDbCircle
 62
7
  6
CONTINUOUS
 10
-1.5
 20
1.7
 40
0.4
  0
ARC
  5
48E
100
AcDbEntity
  8
RACCORDO
100
AcDbCircle
 62
7
  6
CONTINUOUS
 10
-3.1
 20
14.1
 40
0.3
100
AcDbArc
 50
180.0
 51
270.0
  0
ARC
  5
48F
100
AcDbEntity
  8
DRAFT
100
AcDbCircle
 62
7
  6
CONTINUOUS
 10
0.0
 20
0.0
 40
11.25
100
AcDbArc
 50
29.9264348666
 51
150.0735651334
  0
ARC
  5
490
100
AcDbEntity
  8
DRAFT
100
AcDbCircle
 62
7
  6
CONTINUOUS
 10
0.0
 20
0.0
 40
11.25
100
AcDbArc
 50
209.9264348666
 51
330.0735651334
  0
ARC
  5
491
100
AcDbEntity
  8
RACCORDO
100
AcDbCircle
 62
7
  6
CONTINUOUS
 10
0.0
 20
0.0
 40
11.2229086322
100
AcDbArc
 50
209.9633786174
 51
330.0366213826
  0
ARC
  5
492
100
AcDbEntity
  8
RACCORDO
100
AcDbCircle
 62
7
  6
CONTINUOUS
 10
0.0
 20
0.0
 40
11.2229086322
100
AcDbArc
 50
29.9633786174
 51
150.0366213826
  0
ARC
  5
493
100
AcDbEntity
  8
RACCORDO
100
AcDbCircle
 62
253
  6
CONTINUOUS
 10
0.0
 20
0.0
 40
10.7229276707
100
AcDbArc
 50
207.396041959
 51
332.6039580409
  0
ARC
  5
494
100
AcDbEntity
  8
RACCORDO
100
AcDbCircle
 62
253
  6
CONTINUOUS
 10
0.0
 20
0.0
 40
10.7229276707
100
AcDbArc
 50
27.396041959
 51
152.6039580409
  0
ARC
  5
495
100
AcDbEntity
  8
0
100
AcDbCircle
 62
7
  6
CONTINUOUS
 10
0.0
 20
0.0
 40
8.037604307
100
AcDbArc
 50
65.5445024781
 51
114.4554975219
  0
ARC
  5
496
100
AcDbEntity
  8
0
100
AcDbCircle
 62
7
  6
CONTINUOUS
 10
0.0
 20
0.0
 40
8.037604307
100
AcDbArc
 50
5.5445024781
 51
54.4554975219
  0
ARC
  5
497
100
AcDbEntity
  8
0
100
AcDbCircle
 62
7
  6
CONTINUOUS
 10
0.0
 20
0.0
 40
8.037604307
100
AcDbArc
 50
185.5445024781
 51
234.4554975219
  0
ARC
  5
498
100
AcDbEntity
  8
0
100
AcDbCircle
 62
7
  6
CONTINUOUS
 10
0.0
 20
0.0
 40
8.037604307
100
AcDbArc
 50
245.5445024781
 51
294.4554975219
  0
ARC
  5
499
100
AcDbEntity
  8
0
100
AcDbCircle
 62
7
  6
CONTINUOUS
 10
0.0
 20
0.0
 40
8.037604307
100
AcDbArc
 50
125.5445024781
 51
174.4554975219
  0
ARC
  5
49A
100
AcDbEntity
  8
0
100
AcDbCircle
 62
7
  6
CONTINUOUS
 10
0.0
 20
0.0
 40
8.037604307
100
AcDbArc
 50
305.5445024781
 51
354.4554975219
  0
CIRCLE
  5
49B
100
AcDbEntity
  8
0
100
AcDbCircle
 62
7
  6
CONTINUOUS
 10
0.0
 20
0.0
 40
5.5
  0
CIRCLE
  5
49C
100
AcDbEntity
  8
0
100
AcDbCircle
 62
7
  6
CONTINUOUS
 10
0.0
 20
0.0
 40
4.95
  0
CIRCLE
  5
49D
100
AcDbEntity
  8
0
100
AcDbCircle
 62
7
  6
CONTINUOUS
 10
0.0
 20
0.0
 40
4.5
  0
CIRCLE
  5
49E
100
AcDbEntity
  8
0
100
AcDbCircle
 62
7
  6
CONTINUOUS
 10
0.0
 20
0.0
 40
3.75
  0
CIRCLE
  5
49F
100
AcDbEntity
  8
ASSI
100
AcDbCircle
 62
7
  6
CONTINUOUS
 10
0.4
 20
-2.5
 40
0.4
  0
CIRCLE
  5
4A0
100
AcDbEntity
  8
ASSI
100
AcDbCircle
 62
7
  6
CONTINUOUS
 10
0.4
 20
2.5
 40
0.4
  0
ARC
  5
4A1
100
AcDbEntity
  8
RACCORDO
100
AcDbCircle
 62
7
  6
CONTINUOUS
 10
3.1
 20
14.1
 40
0.3
100
AcDbArc
 50
270.0
 51
360.0
  0
ELLIPSE
  5
4A2
100
AcDbEntity
  8
RACCORDO
100
AcDbEllipse
 62
7
  6
CONTINUOUS
 10
-10.6999314524
 20
-21.9412559969
 30
0.0
 11
-0.4025750024
 21
0.2012721715
 31
0.0
 40
0.9998096356
 41
6.7467263073
 42
8.3176749331
  0
ELLIPSE
  5
4A3
100
AcDbEntity
  8
RACCORDO
100
AcDbEllipse
 62
7
  6
CONTINUOUS
 10
10.6999314524
 20
-21.9412559969
 30
0.0
 11
-0.4025750024
 21
-0.2012721715
 31
0.0
 40
0.9998096356
 41
1.1071030277
 42
2.6780516535
  0
ELLIPSE
  5
4A4
100
AcDbEntity
  8
RACCORDO
100
AcDbEllipse
 62
7
  6
CONTINUOUS
 10
6.4511302296
 20
-19.4266752714
 30
0.0
 11
-0.0
 21
0.5
 31
0.0
 40
0.0058178298
 41
-4.7123889804
 42
-3.1503192998
  0
ELLIPSE
  5
4A5
100
AcDbEntity
  8
RACCORDO
100
AcDbEllipse
 62
7
  6
CONTINUOUS
 10
-3.9999885765
 20
17.6000114235
 30
0.0
 11
0.2121481893
 21
0.2121481893
 31
0.0
 40
0.9999238505
 41
2.3562325664
 42
3.9269527408
  0
ELLIPSE
  5
4A6
100
AcDbEntity
  8
RACCORDO
100
AcDbEllipse
 62
7
  6
CONTINUOUS
 10
-6.4511302296
 20
-19.4266752714
 30
0.0
 11
-0.0
 21
0.5
 31
0.0
 40
0.0058178298
 41
-3.1328660073
 42
-1.5707963268
  0
ELLIPSE
  5
4A7
100
AcDbEntity
  8
RACCORDO
100
AcDbEllipse
 62
7
  6
CONTINUOUS
 10
10.6999314524
 20
21.9412559969
 30
0.0
 11
0.4025750024
 21
-0.2012721715
 31
0.0
 40
0.9998096356
 41
6.7467263073
 42
8.3176749331
  0
ELLIPSE
  5
4A8
100
AcDbEntity
  8
ASSI
100
AcDbEllipse
 62
7
  6
CONTINUOUS
 10
4.3563662764
 20
-23.2563578147
 30
0.0
 11
0.0
 21
0.5
 31
0.0
 40
0.0058178298
 41
-3.2911896616
 42
-3.1474104178
  0
ELLIPSE
  5
4A9
100
AcDbEntity
  8
ASSI
100
AcDbEllipse
 62
7
  6
CONTINUOUS
 10
-4.3563662764
 20
-23.2563578147
 30
0.0
 11
0.0
 21
0.5
 31
0.0
 40
0.0058178298
 41
-3.1357748894
 42
-2.9919956456
  0
ELLIPSE
  5
4AA
100
AcDbEntity
  8
RACCORDO
100
AcDbEllipse
 62
7
  6
CONTINUOUS
 10
-3.9423912491
 20
19.9973819397
 30
0.0
 11
0.3
 21
-0.0
 31
0.0
 40
0.0087268678
 41
1.5707963268
 42
3.1328660073
  0
ELLIPSE
  5
4AB
100
AcDbEntity
  8
RACCORDO
100
AcDbEllipse
 62
7
  6
CONTINUOUS
 10
3.9423912491
 20
19.9973819397
 30
0.0
 11
0.3
 21
0.0
 31
0.0
 40
0.0087268678
 41
0.0087266463
 42
1.5707963268
  0
ELLIPSE
  5
4AC
100
AcDbEntity
  8
RACCORDO
100
AcDbEllipse
 62
7
  6
CONTINUOUS
 10
3.9999885765
 20
17.6000114235
 30
0.0
 11
-0.2121481893
 21
0.2121481893
 31
0.0
 40
0.9999238505
 41
-3.9269527408
 42
-2.3562325664
  0
ELLIPSE
  5
4AD
100
AcDbEntity
  8
RACCORDO
100
AcDbEllipse
 62
7
  6
CONTINUOUS
 10
9.5784342338
 20
19.924454269
 30
0.0
 11
0.0
 21
0.5
 31
0.0
 40
0.0174550649
 41
-3.1328660073
 42
-1.5707963268
  0
ELLIPSE
  5
4AE
100
AcDbEntity
  8
RACCORDO
100
AcDbEllipse
 62
7
  6
CONTINUOUS
 10
7.3238531022
 20
19.924454269
 30
0.0
 11
-0.0
 21
0.5
 31
0.0
 40
0.0058178298
 41
-4.7123889804
 42
-3.1503192998
  0
ELLIPSE
  5
4AF
100
AcDbEntity
  8
RACCORDO
100
AcDbEllipse
 62
7
  6
CONTINUOUS
 10
6.4761468978
 20
19.924454269
 30
0.0
 11
0.0
 21
0.5
 31
0.0
 40
0.0058178298
 41
-3.1328660073
 42
-1.5707963268
  0
ELLIPSE
  5
4B0
100
AcDbEntity
  8
RACCORDO
100
AcDbEllipse
 62
7
  6
CONTINUOUS
 10
4.2755647702
 20
19.924454269
 30
0.0
 11
-0.0
 21
0.5
 31
0.0
 40
0.0087268678
 41
1.5707963268
 42
3.1328660073
  0
ELLIPSE
  5
4B1
100
AcDbEntity
  8
RACCORDO
100
AcDbEllipse
 62
7
  6
CONTINUOUS
 10
-4.2755647702
 20
19.924454269
 30
0.0
 11
-0.0
 21
0.5
 31
0.0
 40
0.0087268678
 41
-3.1328660073
 42
-1.5707963268
  0
ELLIPSE
  5
4B2
100
AcDbEntity
  8
RACCORDO
100
AcDbEllipse
 62
7
  6
CONTINUOUS
 10
-6.4761468978
 20
19.924454269
 30
0.0
 11
-0.0
 21
0.5
 31
0.0
 40
0.0058178298
 41
-4.7123889804
 42
-3.1503192998
  0
ELLIPSE
  5
4B3
100
AcDbEntity
  8
RACCORDO
100
AcDbEllipse
 62
7
  6
CONTINUOUS
 10
-7.3238531022
 20
19.924454269
 30
0.0
 11
0.0
 21
0.5
 31
0.0
 40
0.0058178298
 41
-3.1328660073
 42
-1.5707963268
  0
ELLIPSE
  5
4B4
100
AcDbEntity
  8
RACCORDO
100
AcDbEllipse
 62
7
  6
CONTINUOUS
 10
-9.5784342338
 20
19.924454269
 30
0.0
 11
0.0
 21
0.5
 31
0.0
 40
0.0174550649
 41
1.5707963268
 42
3.1328660073
  0
ELLIPSE
  5
4B5
100
AcDbEntity
  8
RACCORDO
100
AcDbEllipse
 62
7
  6
CONTINUOUS
 10
9.5208325195
 20
15.2131093409
 30
0.0
 11
-0.0
 21
0.5
 31
0.0
 40
0.0174550649
 41
-3.1328660073
 42
-1.5707963268
  0
ELLIPSE
  5
4B6
100
AcDbEntity
  8
DRAFT
100
AcDbEllipse
 62
7
  6
CONTINUOUS
 10
-3.9279699877
 20
22.3339198952
 30
0.0
 11
0.4279699877
 21
0.0
 31
0.0
 40
0.0087268678
 41
-3.1357748894
 42
-0.0
  0
ELLIPSE
  5
4B7
100
AcDbEntity
  8
RACCORDO
100
AcDbEllipse
 62
7
  6
CONTINUOUS
 10
-9.5208325195
 20
15.2131093409
 30
0.0
 11
0.0
 21
0.5
 31
0.0
 40
0.0174550649
 41
1.5707963268
 42
3.1328660073
  0
ELLIPSE
  5
4B8
100
AcDbEntity
  8
DRAFT
100
AcDbEllipse
 62
7
  6
CONTINUOUS
 10
3.9279699877
 20
22.3339198952
 30
0.0
 11
0.4279699877
 21
0.0
 31
0.0
 40
0.0087268678
 41
3.1415926536
 42
6.277367543
  0
ELLIPSE
  5
4B9
100
AcDbEntity
  8
DRAFT
100
AcDbEllipse
 62
7
  6
CONTINUOUS
 10
-3.9279699877
 20
-22.3339198952
 30
0.0
 11
0.4279699877
 21
0.0
 31
0.0
 40
0.0087268678
 41
-0.0
 42
3.1357748894
  0
ELLIPSE
  5
4BA
100
AcDbEntity
  8
DRAFT
100
AcDbEllipse
 62
7
  6
CONTINUOUS
 10
3.9279699877
 20
-22.3339198952
 30
0.0
 11
0.4279699877
 21
0.0
 31
0.0
 40
0.0087268678
 41
0.0058177642
 42
3.1415926536
  0
ELLIPSE
  5
4BB
100
AcDbEntity
  8
RACCORDO
100
AcDbEllipse
 62
7
  6
CONTINUOUS
 10
3.5130903017
 20
15.2131093409
 30
0.0
 11
-0.0
 21
0.5
 31
0.0
 40
0.0087268678
 41
-3.1328660073
 42
-1.5707963268
  0
ELLIPSE
  5
4BC
100
AcDbEntity
  8
RACCORDO
100
AcDbEllipse
 62
7
  6
CONTINUOUS
 10
-3.5130903017
 20
15.2131093409
 30
0.0
 11
0.0
 21
0.5
 31
0.0
 40
0.0087268678
 41
1.5707963268
 42
3.1328660073
  0
ELLIPSE
  5
4BD
100
AcDbEntity
  8
RACCORDO
100
AcDbEllipse
 62
7
  6
CONTINUOUS
 10
-10.6999314524
 20
21.9412559969
 30
0.0
 11
0.4025750024
 21
0.2012721715
 31
0.0
 40
0.9998096356
 41
1.1071030277
 42
2.6780516535
  0
ELLIPSE
  5
4BE
100
AcDbEntity
  8
RACCORDO
100
AcDbEllipse
 62
7
  6
CONTINUOUS
 10
-7.5841007192
 20
-20.9916321118
 30
0.0
 11
0.5
 21
-0.0
 31
0.0
 40
0.0087268678
 41
-3.1241393611
 42
-1.5707963268
  0
ELLIPSE
  5
4BF
100
AcDbEntity
  8
RACCORDO
100
AcDbEllipse
 62
7
  6
CONTINUOUS
 10
7.5841007192
 20
-20.9916321118
 30
0.0
 11
0.5
 21
-0.0
 31
0.0
 40
0.0087268678
 41
-1.5707963268
 42
-0.0174532925
  0
ELLIPSE
  5
4C0
100
AcDbEntity
  8
RACCORDO
100
AcDbEllipse
 62
7
  6
CONTINUOUS
 10
-7.5841007192
 20
20.9916321118
 30
0.0
 11
0.5
 21
-0.0
 31
0.0
 40
0.0087268678
 41
1.5707963268
 42
3.1241393611
  0
ELLIPSE
  5
4C1
100
AcDbEntity
  8
RACCORDO
100
AcDbEllipse
 62
7
  6
CONTINUOUS
 10
7.5841007192
 20
20.9916321118
 30
0.0
 11
0.5
 21
0.0
 31
0.0
 40
0.0087268678
 41
0.0174532925
 42
1.5707963268
  0
ELLIPSE
  5
4C2
100
AcDbEntity
  8
RACCORDO
100
AcDbEllipse
 62
7
  6
CONTINUOUS
 10
-10.3999957691
 20
-23.4113248654
 30
0.0
 11
-0.0029088041
 21
0.2886641433
 31
0.0
 40
0.8660144118
 41
-0.0087264124
 42
1.5591610446
  0
ELLIPSE
  5
4C3
100
AcDbEntity
  8
RACCORDO
100
AcDbEllipse
 62
7
  6
CONTINUOUS
 10
-8.5000042309
 20
-23.4113248654
 30
0.0
 11
0.0029088041
 21
0.2886641433
 31
0.0
 40
0.8660144118
 41
-1.5591610446
 42
0.0087264124
  0
ELLIPSE
  5
4C4
100
AcDbEntity
  8
RACCORDO
100
AcDbEllipse
 62
7
  6
CONTINUOUS
 10
8.5000042309
 20
-23.4113248654
 30
0.0
 11
-0.0029088041
 21
0.2886641433
 31
0.0
 40
0.8660144118
 41
-0.0087264124
 42
1.5591610446
  0
ELLIPSE
  5
4C5
100
AcDbEntity
  8
RACCORDO
100
AcDbEllipse
 62
7
  6
CONTINUOUS
 10
10.3999957691
 20
-23.4113248654
 30
0.0
 11
0.0029088041
 21
0.2886641433
 31
0.0
 40
0.8660144118
 41
-1.5591610446
 42
0.0087264124
  0
ELLIPSE
  5
4C6
100
AcDbEntity
  8
RACCORDO
100
AcDbEllipse
 62
7
  6
CONTINUOUS
 10
-8.5000042309
 20
23.4113248654
 30
0.0
 11
-0.0029088041
 21
0.2886641433
 31
0.0
 40
0.8660144118
 41
-3.150319066
 42
-1.582431609
  0
ELLIPSE
  5
4C7
100
AcDbEntity
  8
RACCORDO
100
AcDbEllipse
 62
7
  6
CONTINUOUS
 10
-10.3999957691
 20
23.4113248654
 30
0.0
 11
0.0029088041
 21
0.2886641433
 31
0.0
 40
0.8660144118
 41
-4.7007536982
 42
-3.1328662411
  0
ELLIPSE
  5
4C8
100
AcDbEntity
  8
RACCORDO
100
AcDbEllipse
 62
7
  6
CONTINUOUS
 10
10.3999957691
 20
23.4113248654
 30
0.0
 11
-0.0029088041
 21
0.2886641433
 31
0.0
 40
0.8660144118
 41
-3.150319066
 42
-1.582431609
  0
ELLIPSE
  5
4C9
100
AcDbEntity
  8
RACCORDO
100
AcDbEllipse
 62
7
  6
CONTINUOUS
 10
8.5000042309
 20
23.4113248654
 30
0.0
 11
0.0029088041
 21
0.2886641433
 31
0.0
 40
0.8660144118
 41
-4.7007536982
 42
-3.1328662412
  0
ELLIPSE
  5
4CA
100
AcDbEntity
  8
RACCORDO
100
AcDbEllipse
 62
7
  6
CONTINUOUS
 10
-6.7882270686
 20
-16.7126651127
 30
0.0
 11
0.0113851973
 21
0.3450629409
 31
0.0
 40
0.9847915895
 41
-1.5373047583
 42
0.0324813299
  0
ELLIPSE
  5
4CB
100
AcDbEntity
  8
RACCORDO
100
AcDbEllipse
 62
7
  6
CONTINUOUS
 10
-6.9037940101
 20
-20.9930284106
 30
0.0
 11
0.34
 21
-0.0
 31
0.0
 40
0.0087268678
 41
-3.1357748894
 42
-1.5707963268
  0
ELLIPSE
  5
4CC
100
AcDbEntity
  8
0
100
AcDbEllipse
 62
7
  6
CONTINUOUS
 10
-6.7998627283
 20
17.0653190741
 30
0.0
 11
0.0113851973
 21
-0.3450629409
 31
0.0
 40
0.9847915895
 41
-0.0324813299
 42
1.5373047583
  0
ELLIPSE
  5
4CD
100
AcDbEntity
  8
RACCORDO
100
AcDbEllipse
 62
7
  6
CONTINUOUS
 10
-6.9037940101
 20
20.9930284106
 30
0.0
 11
0.34
 21
0.0
 31
0.0
 40
0.0087268678
 41
1.5707963268
 42
3.1357748894
  0
ELLIPSE
  5
4CE
100
AcDbEntity
  8
0
100
AcDbEllipse
 62
7
  6
CONTINUOUS
 10
-7.0001372717
 20
17.0653190741
 30
0.0
 11
-0.0113851973
 21
-0.3450629409
 31
0.0
 40
0.9847915895
 41
-1.5373047583
 42
0.0324813299
  0
ELLIPSE
  5
4CF
100
AcDbEntity
  8
RACCORDO
100
AcDbEllipse
 62
7
  6
CONTINUOUS
 10
6.9037940101
 20
20.9930284106
 30
0.0
 11
0.34
 21
0.0
 31
0.0
 40
0.0087268678
 41
0.0058177642
 42
1.5707963268
  0
ELLIPSE
  5
4D0
100
AcDbEntity
  8
0
100
AcDbEllipse
 62
7
  6
CONTINUOUS
 10
7.0001372717
 20
17.0653190741
 30
0.0
 11
0.0113851973
 21
-0.3450629409
 31
0.0
 40
0.9847915895
 41
-0.0324813299
 42
1.5373047583
  0
ELLIPSE
  5
4D1
100
AcDbEntity
  8
0
100
AcDbEllipse
 62
7
  6
CONTINUOUS
 10
6.7998627283
 20
17.0653190741
 30
0.0
 11
-0.0113851973
 21
-0.3450629409
 31
0.0
 40
0.9847915895
 41
-1.5373047583
 42
0.0324813299
  0
ELLIPSE
  5
4D2
100
AcDbEntity
  8
RACCORDO
100
AcDbEllipse
 62
7
  6
CONTINUOUS
 10
7.0117729314
 20
-16.7126651127
 30
0.0
 11
0.0113851973
 21
0.3450629409
 31
0.0
 40
0.9847915895
 41
-1.5373047583
 42
0.0324813299
  0
ELLIPSE
  5
4D3
100
AcDbEntity
  8
RACCORDO
100
AcDbEllipse
 62
7
  6
CONTINUOUS
 10
6.9037940101
 20
-20.9930284106
 30
0.0
 11
0.34
 21
-0.0
 31
0.0
 40
0.0087268678
 41
-1.5707963268
 42
-0.0058177642
  0
ELLIPSE
  5
4D4
100
AcDbEntity
  8
RACCORDO
100
AcDbEllipse
 62
7
  6
CONTINUOUS
 10
6.7882270686
 20
-16.7126651127
 30
0.0
 11
-0.0113851973
 21
0.3450629409
 31
0.0
 40
0.9847915895
 41
-0.0324813299
 42
1.5373047583
  0
ELLIPSE
  5
4D5
100
AcDbEntity
  8
RACCORDO
100
AcDbEllipse
 62
7
  6
CONTINUOUS
 10
-7.0117729314
 20
-16.7126651127
 30
0.0
 11
-0.0113851973
 21
0.3450629409
 31
0.0
 40
0.9847915895
 41
-0.0324813299
 42
1.5373047583
  0
ENDSEC
  0
SECTION
  2
OBJECTS
  0
DICTIONARY
  5
C
100
AcDbDictionary
280
0
281
1
  3
ACAD_GROUP
350
D
  3
ACAD_MLINESTYLE
350
17
  3
ACAD_LAYOUT
350
1A
  3
ACAD_PLOTSETTINGS
350
19
  3
ACAD_PLOTSTYLENAME
350
E
  0
DICTIONARY
  5
D
102
{ACAD_REACTORS
330
C
102
}
100
AcDbDictionary
280
0
281
1
  0
ACDBDICTIONARYWDFLT
  5
E
102
{ACAD_REACTORS
330
C
102
}
100
AcDbDictionary
281
1
  3
Normal
350
F
100
AcDbDictionaryWithDefault
340
F
  0
DICTIONARY
  5
17
102
{ACAD_REACTORS
330
C
102
}
100
AcDbDictionary
280
0
281
1
  3
Standard
350
18
  0
DICTIONARY
  5
19
102
{ACAD_REACTORS
330
C
102
}
100
AcDbDictionary
281
1
  0
DICTIONARY
  5
1A
102
{ACAD_REACTORS
330
C
102
}
100
AcDbDictionary
281
1
  3
Model
350
4D6
  3
Layout1
350
4D7
  0
ACDBPLACEHOLDER
  5
F
102
{ACAD_REACTORS
330
E
102
}
  0
MLINESTYLE
  5
18
102
{ACAD_REACTORS
330
17
102
}
100
AcDbMlineStyle
  2
STANDARD
 70
0
  3

 62
256
 51
90.0
 52
90.0
 71
2
 49
0.5
 62
256
  6
BYLAYER
 49
-0.5
 62
256
  6
BYLAYER
  0
LAYOUT
  5
4D6
102
{ACAD_REACTORS
330
1A
102
}
100
AcDbPlotSettings
  1

  2
none_device
  4
ISO_A4_(297.00_x_210.00_MM)
  6

 40
0.0
 41
0.0
 42
0.0
 43
0.0
 44
297.0
 45
210.0
 46
0.0
 47
0.0
 48
0.0
 49
0.0
140
0.0
141
0.0
142
1.0
143
1.0
 70
1024
 72
1
 73
0
 74
0
  7

 75
0
147
1.0
148
0.0
149
0.0
100
AcDbLayout
  1
Model
 70
0
 71
0
 10
0.0
 20
0.0
 11
297.0
 21
210.0
 12
0.0
 22
0.0
 32
0.0
 14
0.0
 24
0.0
 34
0.0
 15
0.0
 25
0.0
 35
0.0
146
0.0
 13
0.0
 23
0.0
 33
0.0
 16
1.0
 26
0.0
 36
0.0
 17
0.0
 27
1.0
 37
0.0
 76
0
330
214
345
0
346
0
  0
LAYOUT
  5
4D7
102
{ACAD_REACTORS
330
1A
102
}
100
AcDbPlotSettings
  1

  2
none_device
  4
ISO_A4_(297.00_x_210.00_MM)
  6

 40
0.0
 41
0.0
 42
0.0
 43
0.0
 44
297.0
 45
210.0
 46
0.0
 47
0.0
 48
0.0
 49
0.0
140
0.0
141
0.0
142
1.0
143
1.0
 70
0
 72
1
 73
0
 74
0
  7

 75
0
147
1.0
148
0.0
149
0.0
100
AcDbLayout
  1
Layout1
 70
0
 71
1
 10
0.0
 20
0.0
 11
297.0
 21
210.0
 12
0.0
 22
0.0
 32
0.0
 14
0.0
 24
0.0
 34
0.0
 15
0.0
 25
0.0
 35
0.0
146
0.0
 13
0.0
 23
0.0
 33
0.0
 16
1.0
 26
0.0
 36
0.0
 17
0.0
 27
1.0
 37
0.0
 76
0
330
215
345
0
346
0
  0
ENDSEC
  0
EOF
