  0
SECTION
  2
HEADER
  9
$ACADVER
  1
AC1024
  9
$DWGCODEPAGE
  3
ANSI_1252
  9
$EXTMAX
 10
558.8
 20
431.8
 30
0.0
  9
$EXTMIN
 10
0.0
 20
0.0
 30
0.0
  9
$LIMMIN
 10
0.0
 20
0.0
  9
$LIMMAX
 10
558.8
 20
431.8
  9
$VIEWCTR
 10
279.4
 20
215.9
  9
$VIEWSIZE
 40
431.8
  9
$CLAYER
  8
0
  9
$LTSCALE
 40
30.734
  9
$CELTYPE
  6
BYLAYER
  9
$DIMSCALE
 40
1.0
  9
$DIMASZ
 40
3.0
  9
$DIMEXO
 40
0.5
  9
$DIMDLI
 40
21.2344
  9
$DIMEXE
 40
1.5
  9
$DIMCEN
 40
5.0292
  9
$DIMLFAC
 40
1.0
  9
$DIMBLK
  1
_FILLED
  9
$DIMALT
 70
0
  9
$DIMALTF
 40
0.0393700787
  9
$DIMTXT
 40
3.0
  9
$DIMTOL
 70
1
  9
$DIMLIM
 70
0
  9
$DIMTFAC
 40
1.0
  9
$DIMTP
 40
0.01
  9
$DIMTM
 40
0.01
  9
$DIMGAP
 40
0.625
  9
$DIMDSEP
 70
44
  9
$AUNITS
 70
0
  9
$PDMODE
 70
3
  9
$PDSIZE
 40
3.0
  9
$HANDSEED
  5
2A6
  9
$TILEMODE
 70
1
  9
$MEASUREMENT
 70
1
  9
$INSUNITS
 70
4
  0
ENDSEC
  0
SECTION
  2
CLASSES
  0
CLASS
  1
ACDBDICTIONARYWDFLT
  2
AcDbDictionaryWithDefault
  3
AutoCAD 2000
 90
0
 91
1
280
0
281
0
  0
CLASS
  1
ACDBPLACEHOLDER
  2
AcDbPlaceHolder
  3
AutoCAD 2000
 90
0
 91
1
280
0
281
0
  0
CLASS
  1
LAYOUT
  2
AcDbLayout
  3
AutoCAD 2000
 90
0
 91
0
280
0
281
0
  0
ENDSEC
  0
SECTION
  2
TABLES
  0
TABLE
  2
VPORT
  5
8
100
AcDbSymbolTable
 70
2
  0
VPORT
  5
1F4
100
AcDbSymbolTableRecord
100
AcDbViewportTableRecord
  2
*ACTIVE
 70
0
 10
0.0
 20
0.0
 11
1.0
 21
1.0
 12
279.4
 22
215.9
 13
0.0
 23
0.0
 14
1.0
 24
1.0
 15
0.0
 25
0.0
 16
0.0
 26
0.0
 36
1.0
 17
0.0
 27
0.0
 37
0.0
 40
431.8
 41
1.2941176471
 42
50.0
 43
0.0
 44
0.0
 50
0.0
 51
0.0
 71
0
 72
100
 73
1
 74
1
 75
0
 76
0
 77
0
 78
0
  0
ENDTAB
  0
TABLE
  2
LTYPE
  5
5
100
AcDbSymbolTable
 70
6
  0
LTYPE
  5
14
100
AcDbSymbolTableRecord
100
AcDbLinetypeTableRecord
  2
BYBLOCK
 70
0
  3

 72
65
 73
0
 40
0.0
  0
LTYPE
  5
15
100
AcDbSymbolTableRecord
100
AcDbLinetypeTableRecord
  2
BYLAYER
 70
0
  3

 72
65
 73
0
 40
0.0
  0
LTYPE
  5
16
100
AcDbSymbolTableRecord
100
AcDbLinetypeTableRecord
  2
CONTINUOUS
 70
64
  3
Solid line
 72
65
 73
0
 40
0.0
  0
LTYPE
  5
1F5
100
AcDbSymbolTableRecord
100
AcDbLinetypeTableRecord
  2
CENTER
 70
64
  3
____ _ ____ _ ____ _ ____ _ ____ _ ____ _ ____
 72
65
 73
4
 40
0.6
 49
0.375
 74
0
 49
-0.075
 74
0
 49
0.075
 74
0
 49
-0.075
 74
0
  0
LTYPE
  5
1F6
100
AcDbSymbolTableRecord
100
AcDbLinetypeTableRecord
  2
HIDDEN
 70
64
  3
- - - - - - - - - - - - - - - - - - - -
 72
65
 73
2
 40
0.2
 49
0.1
 74
0
 49
-0.1
 74
0
  0
LTYPE
  5
1F7
100
AcDbSymbolTableRecord
100
AcDbLinetypeTableRecord
  2
PHANTOM
 70
64
  3
_____ _ _ _____ _ _ _____ _ _ _____
 72
65
 73
6
 40
0.8
 49
0.45
 74
0
 49
-0.05
 74
0
 49
0.1
 74
0
 49
-0.05
 74
0
 49
0.1
 74
0
 49
-0.05
 74
0
  0
LTYPE
  5
1F8
100
AcDbSymbolTableRecord
100
AcDbLinetypeTableRecord
  2
DOT
 70
64
  3
. . . . . . . . . . . . . . . . . . . .
 72
65
 73
2
 40
0.2
 49
0.1
 74
0
 49
-0.1
 74
0
  0
LTYPE
  5
1F9
100
AcDbSymbolTableRecord
100
AcDbLinetypeTableRecord
  2
DASHED
 70
64
  3
- - - - - - - - - - - - - - - - - - - -
 72
65
 73
2
 40
0.2
 49
0.1
 74
0
 49
-0.1
 74
0
  0
ENDTAB
  0
TABLE
  2
LAYER
  5
2
100
AcDbSymbolTable
 70
36
  0
LAYER
  5
10
100
AcDbSymbolTableRecord
100
AcDbLayerTableRecord
  2
0
 70
0
 62
7
  6
CONTINUOUS
370
-3
390
F
  0
LAYER
  5
1FA
100
AcDbSymbolTableRecord
100
AcDbLayerTableRecord
  2
DEFAULT_1
 70
0
 62
7
  6
CENTER
370
-3
390
F
  0
LAYER
  5
1FB
100
AcDbSymbolTableRecord
100
AcDbLayerTableRecord
  2
DEFAULT_2
 70
0
 62
7
  6
HIDDEN
370
-3
390
F
  0
LAYER
  5
1FC
100
AcDbSymbolTableRecord
100
AcDbLayerTableRecord
  2
DEFAULT_3
 70
0
 62
7
  6
PHANTOM
370
-3
390
F
  0
LAYER
  5
1FD
100
AcDbSymbolTableRecord
100
AcDbLayerTableRecord
  2
ASSI
 70
0
 62
7
  6
CONTINUOUS
370
-3
390
F
  0
LAYER
  5
1FE
100
AcDbSymbolTableRecord
100
AcDbLayerTableRecord
  2
COORDINATE
 70
0
 62
7
  6
CONTINUOUS
370
-3
390
F
  0
LAYER
  5
1FF
100
AcDbSymbolTableRecord
100
AcDbLayerTableRecord
  2
COPY_PUBLISH
 70
0
 62
7
  6
CONTINUOUS
370
-3
390
F
  0
LAYER
  5
200
100
AcDbSymbolTableRecord
100
AcDbLayerTableRecord
  2
COSMETIC
 70
0
 62
7
  6
CONTINUOUS
370
-3
390
F
  0
LAYER
  5
201
100
AcDbSymbolTableRecord
100
AcDbLayerTableRecord
  2
COSMETICI
 70
0
 62
7
  6
CONTINUOUS
370
-3
390
F
  0
LAYER
  5
202
100
AcDbSymbolTableRecord
100
AcDbLayerTableRecord
  2
CURVE
 70
0
 62
7
  6
CONTINUOUS
370
-3
390
F
  0
LAYER
  5
203
100
AcDbSymbolTableRecord
100
AcDbLayerTableRecord
  2
DRAFT
 70
0
 62
7
  6
CONTINUOUS
370
-3
390
F
  0
LAYER
  5
204
100
AcDbSymbolTableRecord
100
AcDbLayerTableRecord
  2
IMPORT_IGES
 70
0
 62
7
  6
CONTINUOUS
370
-3
390
F
  0
LAYER
  5
205
100
AcDbSymbolTableRecord
100
AcDbLayerTableRecord
  2
INTFCLR_1
 70
0
 62
7
  6
CONTINUOUS
370
-3
390
F
  0
LAYER
  5
206
100
AcDbSymbolTableRecord
100
AcDbLayerTableRecord
  2
INTF_1
 70
0
 62
7
  6
CONTINUOUS
370
-3
390
F
  0
LAYER
  5
207
100
AcDbSymbolTableRecord
100
AcDbLayerTableRecord
  2
INTF_7
 70
0
 62
7
  6
CONTINUOUS
370
-3
390
F
  0
LAYER
  5
208
100
AcDbSymbolTableRecord
100
AcDbLayerTableRecord
  2
INTF_CYAN
 70
0
 62
7
  6
CONTINUOUS
370
-3
390
F
  0
LAYER
  5
209
100
AcDbSymbolTableRecord
100
AcDbLayerTableRecord
  2
NOTE
 70
0
 62
7
  6
CONTINUOUS
370
-3
390
F
  0
LAYER
  5
20A
100
AcDbSymbolTableRecord
100
AcDbLayerTableRecord
  2
PIANI
 70
0
 62
7
  6
CONTINUOUS
370
-3
390
F
  0
LAYER
  5
20B
100
AcDbSymbolTableRecord
100
AcDbLayerTableRecord
  2
PUNTI
 70
0
 62
7
  6
CONTINUOUS
370
-3
390
F
  0
LAYER
  5
20C
100
AcDbSymbolTableRecord
100
AcDbLayerTableRecord
  2
RACCORDO
 70
0
 62
7
  6
CONTINUOUS
370
-3
390
F
  0
LAYER
  5
20D
100
AcDbSymbolTableRecord
100
AcDbLayerTableRecord
  2
RGB__255__255__255__
 70
0
 62
7
  6
CONTINUOUS
370
-3
390
F
  0
LAYER
  5
20E
100
AcDbSymbolTableRecord
100
AcDbLayerTableRecord
  2
RGB____0____0____0__
 70
0
 62
7
  6
CONTINUOUS
370
-3
390
F
  0
LAYER
  5
20F
100
AcDbSymbolTableRecord
100
AcDbLayerTableRecord
  2
SIMBOLI
 70
0
 62
7
  6
CONTINUOUS
370
-3
390
F
  0
LAYER
  5
210
100
AcDbSymbolTableRecord
100
AcDbLayerTableRecord
  2
SNAPLINE
 70
0
 62
7
  6
CONTINUOUS
370
-3
390
F
  0
LAYER
  5
211
100
AcDbSymbolTableRecord
100
AcDbLayerTableRecord
  2
SUPERFICI
 70
0
 62
7
  6
CONTINUOUS
370
-3
390
F
  0
LAYER
  5
212
100
AcDbSymbolTableRecord
100
AcDbLayerTableRecord
  2
TRASH
 70
0
 62
7
  6
CONTINUOUS
370
-3
390
F
  0
ENDTAB
  0
TABLE
  2
STYLE
  5
3
100
AcDbSymbolTable
 70
1
  0
STYLE
  5
11
100
AcDbSymbolTableRecord
100
AcDbTextStyleTableRecord
  2
STANDARD
 70
0
 40
0.0
 41
0.8
 50
0.0
 71
0
 42
0.2
  3
txt
  4

  0
STYLE
  5
213
100
AcDbSymbolTableRecord
100
AcDbTextStyleTableRecord
  2
TEXTSTYLE_1
 70
0
 40
0.0
 41
0.8
 50
0.0
 71
0
 42
0.2
  3
gdt
  4

  0
ENDTAB
  0
TABLE
  2
VIEW
  5
6
100
AcDbSymbolTable
 70
0
  0
ENDTAB
  0
TABLE
  2
UCS
  5
7
100
AcDbSymbolTable
 70
0
  0
ENDTAB
  0
TABLE
  2
APPID
  5
9
100
AcDbSymbolTable
 70
1
  0
APPID
  5
214
100
AcDbSymbolTableRecord
100
AcDbRegAppTableRecord
  2
ACAD
 70
0
  0
ENDTAB
  0
TABLE
  2
BLOCK_RECORD
  5
1
100
AcDbSymbolTable
 70
0
  0
BLOCK_RECORD
  5
215
100
AcDbSymbolTableRecord
100
AcDbBlockTableRecord
  2
*Model_Space
  0
BLOCK_RECORD
  5
216
100
AcDbSymbolTableRecord
100
AcDbBlockTableRecord
  2
*Paper_Space
  0
BLOCK_RECORD
  5
217
100
AcDbSymbolTableRecord
100
AcDbBlockTableRecord
  2
_FILLED
  0
ENDTAB
  0
TABLE
  2
DIMSTYLE
  5
A
100
AcDbSymbolTable
 70
1
100
AcDbDimStyleTable
 71
0
  0
DIMSTYLE
105
218
100
AcDbSymbolTableRecord
100
AcDbDimStyleTableRecord
  2
STANDARD
 70
0
  3

  4

 40
1.0
 41
3.0
 42
0.5
 43
0.38
 44
1.5
 45
0.0
 46
0.0
 47
0.01
 48
0.01
140
3.0
141
0.09
142
0.0
143
25.4
144
1.0
145
0.0
146
1.0
147
0.625
 71
1.0
 72
0.0
 73
0
 74
0
 75
0
 76
0
 77
1
 78
8
 79
2
170
0
171
1
172
0
173
0
174
0
175
0
176
0
177
0
178
0
270
2
179
2
271
2
272
2
273
2
274
2
275
0
280
0
281
0
282
0
283
1
284
8
285
0
286
0
287
3
288
0
340
11
278
44
341
217
342
217
343
217
344
217
  0
ENDTAB
  0
ENDSEC
  0
SECTION
  2
BLOCKS
  0
BLOCK
  5
20
100
AcDbEntity
  8
0
100
AcDbBlockBegin
  2
*Model_Space
 70
0
 10
0.0
 20
0.0
 30
0.0
  3
*Model_Space
  1

  0
ENDBLK
  5
21
100
AcDbEntity
  8
0
100
AcDbBlockEnd
  0
BLOCK
  5
1C
100
AcDbEntity
  8
0
100
AcDbBlockBegin
  2
*Paper_Space
 70
0
 10
0.0
 20
0.0
 30
0.0
  3
*Paper_Space
  1

  0
ENDBLK
  5
1D
100
AcDbEntity
  8
0
100
AcDbBlockEnd
  0
BLOCK
  5
219
100
AcDbEntity
  8
0
100
AcDbBlockBegin
  2
_FILLED
 70
64
 10
0.0
 20
0.0
  3
_FILLED
  1

  0
SOLID
  5
21A
100
AcDbEntity
  8
0
  6
BYBLOCK
 62
0
100
AcDbTrace
 10
0.0
 20
0.0
 11
-1.0
 21
0.3166666667
 12
-1.0
 22
-0.3166666667
 13
-1.0
 23
-0.3166666667
  0
ENDBLK
  5
21B
100
AcDbEntity
  8
0
  6
BYBLOCK
 62
0
100
AcDbBlockEnd
  0
ENDSEC
  0
SECTION
  2
ENTITIES
  0
LINE
  5
21C
100
AcDbEntity
  8
RACCORDO
100
AcDbLine
 62
7
  6
CONTINUOUS
 10
17.0
 20
-40.0
 11
4.2017932267
 21
-40.0
  0
LINE
  5
21D
100
AcDbEntity
  8
RACCORDO
100
AcDbLine
 62
7
  6
CONTINUOUS
 10
-4.2017932267
 20
-40.0
 11
-17.0
 21
-40.0
  0
LINE
  5
21E
100
AcDbEntity
  8
RACCORDO
100
AcDbLine
 62
7
  6
CONTINUOUS
 10
-3.0615117685
 20
-39.8951844414
 11
3.0615117685
 21
-39.8951844414
  0
LINE
  5
21F
100
AcDbEntity
  8
RACCORDO
100
AcDbLine
 62
7
  6
CONTINUOUS
 10
-17.0
 20
-38.4
 11
-4.2017932267
 21
-38.4
  0
LINE
  5
220
100
AcDbEntity
  8
RACCORDO
100
AcDbLine
 62
7
  6
CONTINUOUS
 10
4.2017932267
 20
-38.4
 11
17.0
 21
-38.4
  0
LINE
  5
221
100
AcDbEntity
  8
RACCORDO
100
AcDbLine
 62
7
  6
CONTINUOUS
 10
3.5572341992
 20
39.9179680371
 11
3.706070796
 21
39.9772164043
  0
LINE
  5
222
100
AcDbEntity
  8
RACCORDO
100
AcDbLine
 62
7
  6
CONTINUOUS
 10
-3.0615117685
 20
-38.2951844414
 11
3.0615117685
 21
-38.2951844414
  0
LINE
  5
223
100
AcDbEntity
  8
RACCORDO
100
AcDbLine
 62
250
  6
CONTINUOUS
 10
5.7499996127
 20
-38.1970486314
 11
-5.7499999687
 21
-38.1970486314
  0
LINE
  5
224
100
AcDbEntity
  8
RACCORDO
100
AcDbLine
 62
250
  6
CONTINUOUS
 10
5.749999486
 20
-37.992849267
 11
-5.7499998462
 21
-37.992849267
  0
LINE
  5
225
100
AcDbEntity
  8
RACCORDO
100
AcDbLine
 62
250
  6
CONTINUOUS
 10
18.4
 20
-37.0
 11
18.2040677768
 21
-37.0
  0
LINE
  5
226
100
AcDbEntity
  8
RACCORDO
100
AcDbLine
 62
250
  6
CONTINUOUS
 10
-18.4
 20
-37.0
 11
-18.2040677367
 21
-37.0
  0
LINE
  5
227
100
AcDbEntity
  8
RACCORDO
100
AcDbLine
 62
7
  6
CONTINUOUS
 10
3.5572341992
 20
-39.9179680371
 11
3.706070796
 21
-39.9772164043
  0
LINE
  5
228
100
AcDbEntity
  8
RACCORDO
100
AcDbLine
 62
7
  6
CONTINUOUS
 10
3.5572341992
 20
38.3179680371
 11
3.706070796
 21
38.3772164043
  0
LINE
  5
229
100
AcDbEntity
  8
RACCORDO
100
AcDbLine
 62
7
  6
CONTINUOUS
 10
3.5572341992
 20
-38.3179680371
 11
3.706070796
 21
-38.3772164043
  0
LINE
  5
22A
100
AcDbEntity
  8
0
100
AcDbLine
 62
7
  6
CONTINUOUS
 10
10.95
 20
-24.15
 11
-10.95
 21
-24.15
  0
LINE
  5
22B
100
AcDbEntity
  8
0
100
AcDbLine
 62
7
  6
CONTINUOUS
 10
10.95
 20
-22.55
 11
-10.95
 21
-22.55
  0
LINE
  5
22C
100
AcDbEntity
  8
SUPERFICI
100
AcDbLine
 62
7
  6
CONTINUOUS
 10
-20.0
 20
-37.0
 11
-20.0
 21
37.0
  0
LINE
  5
22D
100
AcDbEntity
  8
DRAFT
100
AcDbLine
 62
7
  6
CONTINUOUS
 10
-18.4
 20
37.0
 11
-18.4
 21
-37.0
  0
LINE
  5
22E
100
AcDbEntity
  8
RACCORDO
100
AcDbLine
 62
250
  6
CONTINUOUS
 10
-18.176214553
 20
-11.7500008474
 11
-18.176214553
 21
11.7500008474
  0
LINE
  5
22F
100
AcDbEntity
  8
RACCORDO
100
AcDbLine
 62
250
  6
CONTINUOUS
 10
-18.0504688968
 20
-11.750000834
 11
-18.0504688968
 21
11.7500008339
  0
LINE
  5
230
100
AcDbEntity
  8
RACCORDO
100
AcDbLine
 62
250
  6
CONTINUOUS
 10
-17.0
 20
38.4
 11
-17.0
 21
38.2066489261
  0
LINE
  5
231
100
AcDbEntity
  8
RACCORDO
100
AcDbLine
 62
250
  6
CONTINUOUS
 10
-17.0
 20
-38.4
 11
-17.0
 21
-38.2066236815
  0
LINE
  5
232
100
AcDbEntity
  8
0
100
AcDbLine
 62
7
  6
CONTINUOUS
 10
-12.85
 20
-22.25
 11
-12.85
 21
22.25
  0
LINE
  5
233
100
AcDbEntity
  8
RACCORDO
100
AcDbLine
 62
250
  6
CONTINUOUS
 10
-12.85
 20
-11.7499998187
 11
-18.1762145527
 21
-11.7500008474
  0
LINE
  5
234
100
AcDbEntity
  8
RACCORDO
100
AcDbLine
 62
250
  6
CONTINUOUS
 10
12.85
 20
-11.7499998187
 11
18.1762145527
 21
-11.7500008474
  0
LINE
  5
235
100
AcDbEntity
  8
0
100
AcDbLine
 62
7
  6
CONTINUOUS
 10
-11.25
 20
-22.25
 11
-11.25
 21
22.25
  0
LINE
  5
236
100
AcDbEntity
  8
RACCORDO
100
AcDbLine
 62
250
  6
CONTINUOUS
 10
-5.7500028179
 20
-24.15
 11
-5.7499999687
 21
-38.1970486314
  0
LINE
  5
237
100
AcDbEntity
  8
RACCORDO
100
AcDbLine
 62
250
  6
CONTINUOUS
 10
-5.7499999457
 20
24.15
 11
-5.7499996249
 21
38.1970486314
  0
LINE
  5
238
100
AcDbEntity
  8
RACCORDO
100
AcDbLine
 62
250
  6
CONTINUOUS
 10
-4.2017932267
 20
-40.0
 11
-4.2017932267
 21
-38.4
  0
LINE
  5
239
100
AcDbEntity
  8
RACCORDO
100
AcDbLine
 62
250
  6
CONTINUOUS
 10
-4.2017932267
 20
38.4
 11
-4.2017932267
 21
40.0
  0
LINE
  5
23A
100
AcDbEntity
  8
RACCORDO
100
AcDbLine
 62
250
  6
CONTINUOUS
 10
-3.706070796
 20
-39.9772164043
 11
-3.706070796
 21
-38.3772164043
  0
LINE
  5
23B
100
AcDbEntity
  8
RACCORDO
100
AcDbLine
 62
250
  6
CONTINUOUS
 10
-3.706070796
 20
38.3772164043
 11
-3.706070796
 21
39.9772164043
  0
LINE
  5
23C
100
AcDbEntity
  8
RACCORDO
100
AcDbLine
 62
250
  6
CONTINUOUS
 10
-3.5572341992
 20
39.9179680371
 11
-3.5572341992
 21
38.3179680371
  0
LINE
  5
23D
100
AcDbEntity
  8
RACCORDO
100
AcDbLine
 62
250
  6
CONTINUOUS
 10
-3.5572341992
 20
-38.3179680371
 11
-3.5572341992
 21
-39.9179680371
  0
LINE
  5
23E
100
AcDbEntity
  8
RACCORDO
100
AcDbLine
 62
250
  6
CONTINUOUS
 10
-3.0615117685
 20
39.8951844414
 11
-3.0615117685
 21
38.2951844414
  0
LINE
  5
23F
100
AcDbEntity
  8
RACCORDO
100
AcDbLine
 62
250
  6
CONTINUOUS
 10
-3.0615117685
 20
-38.2951844414
 11
-3.0615117685
 21
-39.8951844414
  0
LINE
  5
240
100
AcDbEntity
  8
RACCORDO
100
AcDbLine
 62
250
  6
CONTINUOUS
 10
3.0615117685
 20
39.8951844414
 11
3.0615117685
 21
38.2951844414
  0
LINE
  5
241
100
AcDbEntity
  8
RACCORDO
100
AcDbLine
 62
250
  6
CONTINUOUS
 10
3.0615117685
 20
-38.2951844414
 11
3.0615117685
 21
-39.8951844414
  0
LINE
  5
242
100
AcDbEntity
  8
RACCORDO
100
AcDbLine
 62
250
  6
CONTINUOUS
 10
3.5572341992
 20
39.9179680371
 11
3.5572341992
 21
38.3179680371
  0
LINE
  5
243
100
AcDbEntity
  8
RACCORDO
100
AcDbLine
 62
250
  6
CONTINUOUS
 10
3.5572341992
 20
-38.3179680371
 11
3.5572341992
 21
-39.9179680371
  0
LINE
  5
244
100
AcDbEntity
  8
RACCORDO
100
AcDbLine
 62
250
  6
CONTINUOUS
 10
3.706070796
 20
39.9772164043
 11
3.706070796
 21
38.3772164043
  0
LINE
  5
245
100
AcDbEntity
  8
RACCORDO
100
AcDbLine
 62
250
  6
CONTINUOUS
 10
3.706070796
 20
-38.3772164043
 11
3.706070796
 21
-39.9772164043
  0
LINE
  5
246
100
AcDbEntity
  8
RACCORDO
100
AcDbLine
 62
250
  6
CONTINUOUS
 10
4.2017932267
 20
40.0
 11
4.2017932267
 21
38.4
  0
LINE
  5
247
100
AcDbEntity
  8
RACCORDO
100
AcDbLine
 62
250
  6
CONTINUOUS
 10
4.2017932267
 20
-38.4
 11
4.2017932267
 21
-40.0
  0
LINE
  5
248
100
AcDbEntity
  8
RACCORDO
100
AcDbLine
 62
250
  6
CONTINUOUS
 10
5.7499999309
 20
-24.15
 11
5.7499996127
 21
-38.1970486314
  0
LINE
  5
249
100
AcDbEntity
  8
RACCORDO
100
AcDbLine
 62
250
  6
CONTINUOUS
 10
5.7500028492
 20
24.15
 11
5.749999983
 21
38.1970486314
  0
LINE
  5
24A
100
AcDbEntity
  8
0
100
AcDbLine
 62
7
  6
CONTINUOUS
 10
11.25
 20
22.25
 11
11.25
 21
-22.25
  0
LINE
  5
24B
100
AcDbEntity
  8
RACCORDO
100
AcDbLine
 62
250
  6
CONTINUOUS
 10
18.1762145527
 20
11.7500008474
 11
12.85
 21
11.7499998187
  0
LINE
  5
24C
100
AcDbEntity
  8
RACCORDO
100
AcDbLine
 62
250
  6
CONTINUOUS
 10
-12.85
 20
11.7499998187
 11
-18.1762145527
 21
11.7500008474
  0
LINE
  5
24D
100
AcDbEntity
  8
0
100
AcDbLine
 62
7
  6
CONTINUOUS
 10
12.85
 20
22.25
 11
12.85
 21
-22.25
  0
LINE
  5
24E
100
AcDbEntity
  8
RACCORDO
100
AcDbLine
 62
250
  6
CONTINUOUS
 10
17.0
 20
38.4
 11
17.0
 21
38.2066489261
  0
LINE
  5
24F
100
AcDbEntity
  8
RACCORDO
100
AcDbLine
 62
250
  6
CONTINUOUS
 10
17.0
 20
-38.4
 11
17.0
 21
-38.2066276377
  0
LINE
  5
250
100
AcDbEntity
  8
RACCORDO
100
AcDbLine
 62
250
  6
CONTINUOUS
 10
18.0504688968
 20
11.750000834
 11
18.0504688968
 21
-11.750000834
  0
LINE
  5
251
100
AcDbEntity
  8
RACCORDO
100
AcDbLine
 62
250
  6
CONTINUOUS
 10
18.176214553
 20
11.7500008474
 11
18.176214553
 21
-11.7500008474
  0
LINE
  5
252
100
AcDbEntity
  8
DRAFT
100
AcDbLine
 62
7
  6
CONTINUOUS
 10
18.4
 20
-37.0
 11
18.4
 21
37.0
  0
LINE
  5
253
100
AcDbEntity
  8
SUPERFICI
100
AcDbLine
 62
7
  6
CONTINUOUS
 10
20.0
 20
37.0
 11
20.0
 21
-37.0
  0
LINE
  5
254
100
AcDbEntity
  8
0
100
AcDbLine
 62
7
  6
CONTINUOUS
 10
-10.95
 20
22.55
 11
10.95
 21
22.55
  0
LINE
  5
255
100
AcDbEntity
  8
0
100
AcDbLine
 62
7
  6
CONTINUOUS
 10
-10.95
 20
24.15
 11
10.95
 21
24.15
  0
LINE
  5
256
100
AcDbEntity
  8
RACCORDO
100
AcDbLine
 62
7
  6
CONTINUOUS
 10
-3.706070796
 20
-38.3772164043
 11
-3.5572341992
 21
-38.3179680371
  0
LINE
  5
257
100
AcDbEntity
  8
RACCORDO
100
AcDbLine
 62
7
  6
CONTINUOUS
 10
-3.706070796
 20
-39.9772164043
 11
-3.5572341992
 21
-39.9179680371
  0
LINE
  5
258
100
AcDbEntity
  8
RACCORDO
100
AcDbLine
 62
7
  6
CONTINUOUS
 10
-3.706070796
 20
38.3772164043
 11
-3.5572341992
 21
38.3179680371
  0
LINE
  5
259
100
AcDbEntity
  8
RACCORDO
100
AcDbLine
 62
7
  6
CONTINUOUS
 10
-3.706070796
 20
39.9772164043
 11
-3.5572341992
 21
39.9179680371
  0
LINE
  5
25A
100
AcDbEntity
  8
RACCORDO
100
AcDbLine
 62
250
  6
CONTINUOUS
 10
18.4
 20
37.0
 11
18.2040682738
 21
37.0
  0
LINE
  5
25B
100
AcDbEntity
  8
RACCORDO
100
AcDbLine
 62
250
  6
CONTINUOUS
 10
-18.4
 20
37.0
 11
-18.2040682738
 21
37.0
  0
LINE
  5
25C
100
AcDbEntity
  8
RACCORDO
100
AcDbLine
 62
250
  6
CONTINUOUS
 10
-5.7499994985
 20
37.992849267
 11
5.7499998606
 21
37.992849267
  0
LINE
  5
25D
100
AcDbEntity
  8
RACCORDO
100
AcDbLine
 62
250
  6
CONTINUOUS
 10
-5.7499996249
 20
38.1970486314
 11
5.749999983
 21
38.1970486314
  0
LINE
  5
25E
100
AcDbEntity
  8
RACCORDO
100
AcDbLine
 62
7
  6
CONTINUOUS
 10
-3.0615117685
 20
38.2951844414
 11
3.0615117685
 21
38.2951844414
  0
LINE
  5
25F
100
AcDbEntity
  8
RACCORDO
100
AcDbLine
 62
7
  6
CONTINUOUS
 10
17.0
 20
38.4
 11
4.2017932267
 21
38.4
  0
LINE
  5
260
100
AcDbEntity
  8
RACCORDO
100
AcDbLine
 62
7
  6
CONTINUOUS
 10
-4.2017932267
 20
38.4
 11
-17.0
 21
38.4
  0
LINE
  5
261
100
AcDbEntity
  8
RACCORDO
100
AcDbLine
 62
7
  6
CONTINUOUS
 10
-3.0615117685
 20
39.8951844414
 11
3.0615117685
 21
39.8951844414
  0
LINE
  5
262
100
AcDbEntity
  8
RACCORDO
100
AcDbLine
 62
7
  6
CONTINUOUS
 10
-17.0
 20
40.0
 11
-4.2017932267
 21
40.0
  0
LINE
  5
263
100
AcDbEntity
  8
RACCORDO
100
AcDbLine
 62
7
  6
CONTINUOUS
 10
4.2017932267
 20
40.0
 11
17.0
 21
40.0
  0
ARC
  5
264
100
AcDbEntity
  8
SUPERFICI
100
AcDbCircle
 62
7
  6
CONTINUOUS
 10
17.0
 20
-37.0
 40
3.0
100
AcDbArc
 50
270.0
 51
360.0
  0
ARC
  5
265
100
AcDbEntity
  8
SUPERFICI
100
AcDbCircle
 62
7
  6
CONTINUOUS
 10
-17.0
 20
-37.0
 40
3.0
100
AcDbArc
 50
180.0
 51
270.0
  0
ARC
  5
266
100
AcDbEntity
  8
SUPERFICI
100
AcDbCircle
 62
7
  6
CONTINUOUS
 10
-17.0
 20
37.0
 40
3.0
100
AcDbArc
 50
90.0
 51
180.0
  0
ARC
  5
267
100
AcDbEntity
  8
SUPERFICI
100
AcDbCircle
 62
7
  6
CONTINUOUS
 10
17.0
 20
37.0
 40
3.0
100
AcDbArc
 50
0.0
 51
90.0
  0
ARC
  5
268
100
AcDbEntity
  8
0
100
AcDbCircle
 62
7
  6
CONTINUOUS
 10
10.95
 20
-22.25
 40
1.9
100
AcDbArc
 50
270.0
 51
360.0
  0
ARC
  5
269
100
AcDbEntity
  8
0
100
AcDbCircle
 62
7
  6
CONTINUOUS
 10
10.95
 20
22.25
 40
1.9
100
AcDbArc
 50
0.0
 51
90.0
  0
ARC
  5
26A
100
AcDbEntity
  8
0
100
AcDbCircle
 62
7
  6
CONTINUOUS
 10
-10.95
 20
22.25
 40
1.9
100
AcDbArc
 50
90.0
 51
180.0
  0
ARC
  5
26B
100
AcDbEntity
  8
0
100
AcDbCircle
 62
7
  6
CONTINUOUS
 10
-10.95
 20
-22.25
 40
1.9
100
AcDbArc
 50
180.0
 51
270.0
  0
ARC
  5
26C
100
AcDbEntity
  8
DRAFT
100
AcDbCircle
 62
7
  6
CONTINUOUS
 10
17.0
 20
37.0
 40
1.4
100
AcDbArc
 50
0.0
 51
90.0
  0
ARC
  5
26D
100
AcDbEntity
  8
DRAFT
100
AcDbCircle
 62
7
  6
CONTINUOUS
 10
17.0
 20
-37.0
 40
1.4
100
AcDbArc
 50
270.0
 51
360.0
  0
ARC
  5
26E
100
AcDbEntity
  8
DRAFT
100
AcDbCircle
 62
7
  6
CONTINUOUS
 10
-17.0
 20
-37.0
 40
1.4
100
AcDbArc
 50
180.0
 51
270.0
  0
ARC
  5
26F
100
AcDbEntity
  8
DRAFT
100
AcDbCircle
 62
7
  6
CONTINUOUS
 10
-17.0
 20
37.0
 40
1.4
100
AcDbArc
 50
90.0
 51
180.0
  0
ARC
  5
270
100
AcDbEntity
  8
RACCORDO
100
AcDbCircle
 62
250
  6
CONTINUOUS
 10
-17.0032040318
 20
37.0057213132
 40
1.2009097801
100
AcDbArc
 50
89.8471372755
 51
180.2729739199
  0
ARC
  5
271
100
AcDbEntity
  8
RACCORDO
100
AcDbCircle
 62
250
  6
CONTINUOUS
 10
17.003204199
 20
37.0057214877
 40
1.2009096045
100
AcDbArc
 50
359.7270177186
 51
90.1528707229
  0
ARC
  5
272
100
AcDbEntity
  8
RACCORDO
100
AcDbCircle
 62
250
  6
CONTINUOUS
 10
17.0032398442
 20
-37.0057369512
 40
1.2008729099
100
AcDbArc
 50
269.8454239407
 51
0.2737283031
  0
ARC
  5
273
100
AcDbEntity
  8
RACCORDO
100
AcDbCircle
 62
250
  6
CONTINUOUS
 10
-17.0032465043
 20
-37.005739849
 40
1.2008660874
100
AcDbArc
 50
179.7261319092
 51
270.1548947011
  0
ARC
  5
274
100
AcDbEntity
  8
0
100
AcDbCircle
 62
7
  6
CONTINUOUS
 10
10.95
 20
22.25
 40
0.3
100
AcDbArc
 50
0.0
 51
90.0
  0
ARC
  5
275
100
AcDbEntity
  8
0
100
AcDbCircle
 62
7
  6
CONTINUOUS
 10
10.95
 20
-22.25
 40
0.3
100
AcDbArc
 50
270.0
 51
360.0
  0
ARC
  5
276
100
AcDbEntity
  8
0
100
AcDbCircle
 62
7
  6
CONTINUOUS
 10
-10.95
 20
22.25
 40
0.3
100
AcDbArc
 50
90.0
 51
180.0
  0
ARC
  5
277
100
AcDbEntity
  8
0
100
AcDbCircle
 62
7
  6
CONTINUOUS
 10
-10.95
 20
-22.25
 40
0.3
100
AcDbArc
 50
180.0
 51
270.0
  0
SPLINE
  5
278
100
AcDbEntity
  8
RACCORDO
100
AcDbSpline
 62
250
  6
CONTINUOUS
 70
0
 71
3
 72
12
 73
8
 74
0
 42
0.0000001
 43
0.0000001
 44
0.0000000001
 40
0.0
 40
0.0
 40
0.0
 40
0.0
 40
0.1249249627
 40
0.2499269031
 40
0.4999358821
 40
0.7499552147
 40
1.0
 40
1.0
 40
1.0
 40
1.0
 10
-17.0
 20
38.2066489261
 30
0.0
 10
-16.53153414
 20
38.2049739691
 30
0.0
 10
-15.5943070383
 20
38.2038737318
 30
0.0
 10
-13.7195480191
 20
38.202083857
 30
0.0
 10
-11.375684055
 20
38.19991626
 30
0.0
 10
-8.5629096337
 20
38.197355188
 30
0.0
 10
-6.6876680586
 20
38.1970487701
 30
0.0
 10
-5.7499996249
 20
38.1970486314
 30
0.0
  0
SPLINE
  5
279
100
AcDbEntity
  8
RACCORDO
100
AcDbSpline
 62
250
  6
CONTINUOUS
 70
0
 71
3
 72
12
 73
8
 74
0
 42
0.0000001
 43
0.0000001
 44
0.0000000001
 40
0.0
 40
0.0
 40
0.0
 40
0.0
 40
0.2500447623
 40
0.5000640701
 40
0.7500730397
 40
0.8750749634
 40
1.0
 40
1.0
 40
1.0
 40
1.0
 10
5.749999983
 20
38.1970486314
 30
0.0
 10
6.6876683005
 20
38.1970487419
 30
0.0
 10
8.5629096368
 20
38.1973546749
 30
0.0
 10
11.3756837534
 20
38.1999166052
 30
0.0
 10
13.7195474528
 20
38.2020833166
 30
0.0
 10
15.5943065914
 20
38.2038737304
 30
0.0
 10
16.5315338776
 20
38.2049739879
 30
0.0
 10
17.0
 20
38.2066489261
 30
0.0
  0
SPLINE
  5
27A
100
AcDbEntity
  8
RACCORDO
100
AcDbSpline
 62
250
  6
CONTINUOUS
 70
0
 71
3
 72
14
 73
10
 74
0
 42
0.0000001
 43
0.0000001
 44
0.0000000001
 40
0.0
 40
0.0
 40
0.0
 40
0.0
 40
0.3807210739
 40
0.5482508882
 40
0.6942803325
 40
0.8150253077
 40
0.9074681697
 40
0.9692343126
 40
1.0
 40
1.0
 40
1.0
 40
1.0
 10
-17.0198343771
 20
-37.9668387638
 30
0.0
 10
-17.0192999964
 20
-37.9974786767
 30
0.0
 10
-17.0180708445
 20
-38.0416046863
 30
0.0
 10
-17.0152431843
 20
-38.0974016154
 30
0.0
 10
-17.0128562656
 20
-38.1323190755
 30
0.0
 10
-17.0100986012
 20
-38.1609970078
 30
0.0
 10
-17.0073313221
 20
-38.1832282901
 30
0.0
 10
-17.0041523718
 20
-38.1972667855
 30
0.0
 10
-17.001967294
 20
-38.2051094995
 30
0.0
 10
-16.9999999984
 20
-38.2066135249
 30
0.0
  0
SPLINE
  5
27B
100
AcDbEntity
  8
RACCORDO
100
AcDbSpline
 62
250
  6
CONTINUOUS
 70
0
 71
3
 72
12
 73
8
 74
0
 42
0.0000001
 43
0.0000001
 44
0.0000000001
 40
0.0
 40
0.0
 40
0.0
 40
0.0
 40
0.1249301898
 40
0.2499306094
 40
0.4999381865
 40
0.7499564552
 40
1.0
 40
1.0
 40
1.0
 40
1.0
 10
17.0
 20
-38.2066276377
 30
0.0
 10
16.5315145709
 20
-38.2049441376
 30
0.0
 10
15.5942733907
 20
-38.2039332104
 30
0.0
 10
13.7195058751
 20
-38.2020532108
 30
0.0
 10
11.3756568143
 20
-38.1999192456
 30
0.0
 10
8.5628963174
 20
-38.1973551324
 30
0.0
 10
6.6876633902
 20
-38.1970487755
 30
0.0
 10
5.7499996127
 20
-38.1970486314
 30
0.0
  0
SPLINE
  5
27C
100
AcDbEntity
  8
RACCORDO
100
AcDbSpline
 62
250
  6
CONTINUOUS
 70
0
 71
3
 72
12
 73
8
 74
0
 42
0.0000001
 43
0.0000001
 44
0.0000000001
 40
0.0
 40
0.0
 40
0.0
 40
0.0
 40
0.2500435042
 40
0.5000617311
 40
0.750069279
 40
0.875069685
 40
1.0
 40
1.0
 40
1.0
 40
1.0
 10
-5.7499999687
 20
-38.1970486314
 30
0.0
 10
-6.6876635637
 20
-38.1970487484
 30
0.0
 10
-8.5628961214
 20
-38.1973549568
 30
0.0
 10
-11.3756561095
 20
-38.1999192811
 30
0.0
 10
-13.719504775
 20
-38.2020533786
 30
0.0
 10
-15.5942725451
 20
-38.2039323089
 30
0.0
 10
-16.5315141028
 20
-38.2049440314
 30
0.0
 10
-17.0
 20
-38.2066236815
 30
0.0
  0
SPLINE
  5
27D
100
AcDbEntity
  8
RACCORDO
100
AcDbSpline
 62
250
  6
CONTINUOUS
 70
0
 71
3
 72
14
 73
10
 74
0
 42
0.0000001
 43
0.0000001
 44
0.0000000001
 40
0.0
 40
0.0
 40
0.0
 40
0.0
 40
0.2501760212
 40
0.5003572254
 40
0.6254125174
 40
0.7503877786
 40
0.8753570017
 40
0.9378267484
 40
1.0
 40
1.0
 40
1.0
 40
1.0
 10
18.176214553
 20
-11.7500008474
 30
0.0
 10
18.1762144625
 20
-13.8556531762
 30
0.0
 10
18.1726095047
 20
-18.0670000856
 30
0.0
 10
18.1706683657
 20
-23.3309005128
 30
0.0
 10
18.1759039268
 20
-27.5410223892
 30
0.0
 10
18.1837285301
 20
-30.6972675554
 30
0.0
 10
18.1903068591
 20
-33.3267501297
 30
0.0
 10
18.1940580823
 20
-35.4276557457
 30
0.0
 10
18.2002591356
 20
-36.4767212941
 30
0.0
 10
18.2040677768
 20
-37.0
 30
0.0
  0
SPLINE
  5
27E
100
AcDbEntity
  8
RACCORDO
100
AcDbSpline
 62
250
  6
CONTINUOUS
 70
0
 71
3
 72
14
 73
10
 74
0
 42
0.0000001
 43
0.0000001
 44
0.0000000001
 40
0.0
 40
0.0
 40
0.0
 40
0.0
 40
0.0621732457
 40
0.1246430836
 40
0.2496119964
 40
0.3745872541
 40
0.4996426599
 40
0.74982396
 40
1.0
 40
1.0
 40
1.0
 40
1.0
 10
18.2040682738
 20
37.0
 30
0.0
 10
18.2002593447
 20
36.4767213465
 30
0.0
 10
18.1940552131
 20
35.4276550843
 30
0.0
 10
18.1903282877
 20
33.3267513019
 30
0.0
 10
18.183723296
 20
30.6972706643
 30
0.0
 10
18.1759046663
 20
27.5410271661
 30
0.0
 10
18.1706690333
 20
23.3309035581
 30
0.0
 10
18.1726093448
 20
18.0670012076
 30
0.0
 10
18.1762144273
 20
13.8556533342
 30
0.0
 10
18.176214553
 20
11.7500008474
 30
0.0
  0
SPLINE
  5
27F
100
AcDbEntity
  8
RACCORDO
100
AcDbSpline
 62
250
  6
CONTINUOUS
 70
0
 71
3
 72
13
 73
9
 74
0
 42
0.0000001
 43
0.0000001
 44
0.0000000001
 40
0.0
 40
0.0
 40
0.0
 40
0.0
 40
0.3728928317
 40
0.6826638809
 40
0.8031911128
 40
0.8967904192
 40
0.9617644484
 40
1.0
 40
1.0
 40
1.0
 40
1.0
 10
-17.9568218217
 20
-37.0402573002
 30
0.0
 10
-17.9883354808
 20
-37.039264189
 30
0.0
 10
-18.0459743033
 20
-37.0361620026
 30
0.0
 10
-18.1136172056
 20
-37.0288219343
 30
0.0
 10
-18.1571244104
 20
-37.0208013921
 30
0.0
 10
-18.180125871
 20
-37.0147248494
 30
0.0
 10
-18.195331553
 20
-37.0087216994
 30
0.0
 10
-18.2029289929
 20
-37.0030257505
 30
0.0
 10
-18.2040677367
 20
-37.0
 30
0.0
  0
SPLINE
  5
280
100
AcDbEntity
  8
RACCORDO
100
AcDbSpline
 62
250
  6
CONTINUOUS
 70
0
 71
3
 72
14
 73
10
 74
0
 42
0.0000001
 43
0.0000001
 44
0.0000000001
 40
0.0
 40
0.0
 40
0.0
 40
0.0
 40
0.3807115023
 40
0.5482388043
 40
0.6942671744
 40
0.8150124612
 40
0.9074570417
 40
0.9692267221
 40
1.0
 40
1.0
 40
1.0
 40
1.0
 10
17.0198604671
 20
-37.9668404506
 30
0.0
 10
17.0193250717
 20
-37.9974816672
 30
0.0
 10
17.0180939605
 20
-38.0416096773
 30
0.0
 10
17.0152624656
 20
-38.097409174
 30
0.0
 10
17.0128723264
 20
-38.1323285513
 30
0.0
 10
17.0101113493
 20
-38.1610082186
 30
0.0
 10
17.0073400069
 20
-38.183241037
 30
0.0
 10
17.0041581066
 20
-38.1972808275
 30
0.0
 10
17.0019687438
 20
-38.2051242228
 30
0.0
 10
17.0
 20
-38.2066276377
 30
0.0
  0
SPLINE
  5
281
100
AcDbEntity
  8
RACCORDO
100
AcDbSpline
 62
250
  6
CONTINUOUS
 70
0
 71
3
 72
13
 73
9
 74
0
 42
0.0000001
 43
0.0000001
 44
0.0000000001
 40
0.0
 40
0.0
 40
0.0
 40
0.0
 40
0.3728951885
 40
0.6826662125
 40
0.8031928114
 40
0.8967913189
 40
0.9617646407
 40
1.0
 40
1.0
 40
1.0
 40
1.0
 10
17.9568208396
 20
-37.0402578587
 30
0.0
 10
17.9883338695
 20
-37.0392646691
 30
0.0
 10
18.0459713699
 20
-37.0361623557
 30
0.0
 10
18.1136126096
 20
-37.0288221255
 30
0.0
 10
18.1571184987
 20
-37.0208014866
 30
0.0
 10
18.1801191084
 20
-37.0147248855
 30
0.0
 10
18.1953241894
 20
-37.0087217286
 30
0.0
 10
18.2029211898
 20
-37.0030257002
 30
0.0
 10
18.2040597784
 20
-36.9999999991
 30
0.0
  0
SPLINE
  5
282
100
AcDbEntity
  8
RACCORDO
100
AcDbSpline
 62
250
  6
CONTINUOUS
 70
0
 71
3
 72
13
 73
9
 74
0
 42
0.0000001
 43
0.0000001
 44
0.0000000001
 40
0.0
 40
0.0
 40
0.0
 40
0.0
 40
0.3728927692
 40
0.6826635729
 40
0.8031906978
 40
0.8967899604
 40
0.9617640779
 40
1.0
 40
1.0
 40
1.0
 40
1.0
 10
17.9568233568
 20
37.0402581073
 30
0.0
 10
17.9883369236
 20
37.0392650023
 30
0.0
 10
18.0459755609
 20
37.0361627886
 30
0.0
 10
18.1136182247
 20
37.0288225791
 30
0.0
 10
18.1571252451
 20
37.0208018644
 30
0.0
 10
18.1801265883
 20
37.0147251796
 30
0.0
 10
18.1953322231
 20
37.0087218881
 30
0.0
 10
18.2029295635
 20
37.0030257871
 30
0.0
 10
18.2040682738
 20
37.0
 30
0.0
  0
SPLINE
  5
283
100
AcDbEntity
  8
RACCORDO
100
AcDbSpline
 62
250
  6
CONTINUOUS
 70
0
 71
3
 72
14
 73
10
 74
0
 42
0.0000001
 43
0.0000001
 44
0.0000000001
 40
0.0
 40
0.0
 40
0.0
 40
0.0
 40
0.3807435238
 40
0.5482760076
 40
0.6943045429
 40
0.8150463196
 40
0.9074845587
 40
0.9692447444
 40
1.0
 40
1.0
 40
1.0
 40
1.0
 10
17.0197954248
 20
37.9669402648
 30
0.0
 10
17.0192616461
 20
37.9975715085
 30
0.0
 10
17.018034464
 20
38.0416844583
 30
0.0
 10
17.0152119748
 20
38.0974644588
 30
0.0
 10
17.0128298353
 20
38.1323701015
 30
0.0
 10
17.0100774172
 20
38.1610379662
 30
0.0
 10
17.007316639
 20
38.1832610455
 30
0.0
 10
17.0041428132
 20
38.1972942527
 30
0.0
 10
17.0019645821
 20
38.2051338388
 30
0.0
 10
16.9999999983
 20
38.2066386327
 30
0.0
  0
SPLINE
  5
284
100
AcDbEntity
  8
RACCORDO
100
AcDbSpline
 62
250
  6
CONTINUOUS
 70
0
 71
3
 72
14
 73
10
 74
0
 42
0.0000001
 43
0.0000001
 44
0.0000000001
 40
0.0
 40
0.0
 40
0.0
 40
0.0
 40
0.3807393218
 40
0.5482711643
 40
0.6942998751
 40
0.8150424717
 40
0.9074819456
 40
0.9692435269
 40
1.0
 40
1.0
 40
1.0
 40
1.0
 10
-17.0197954717
 20
37.9669404067
 30
0.0
 10
-17.0192617402
 20
37.997572593
 30
0.0
 10
-17.0180346101
 20
38.041686997
 30
0.0
 10
-17.0152121671
 20
38.097468963
 30
0.0
 10
-17.0128300344
 20
38.1323760924
 30
0.0
 10
-17.010077594
 20
38.161045363
 30
0.0
 10
-17.0073167883
 20
38.1832696149
 30
0.0
 10
-17.0041428748
 20
38.1973038223
 30
0.0
 10
-17.0019646332
 20
38.2051438656
 30
0.0
 10
-17.0
 20
38.2066489261
 30
0.0
  0
SPLINE
  5
285
100
AcDbEntity
  8
RACCORDO
100
AcDbSpline
 62
250
  6
CONTINUOUS
 70
0
 71
3
 72
22
 73
18
 74
0
 42
0.0000001
 43
0.0000001
 44
0.0000000001
 40
0.0
 40
0.0
 40
0.0
 40
0.0
 40
0.0310453479
 40
0.0621997735
 40
0.0934321355
 40
0.1246848963
 40
0.1403100695
 40
0.1559342266
 40
0.187179681
 40
0.2184207609
 40
0.249658811
 40
0.3121393098
 40
0.3746370569
 40
0.4996864288
 40
0.6247679373
 40
0.7498457722
 40
1.0
 40
1.0
 40
1.0
 40
1.0
 10
17.956823228
 20
37.0402580083
 30
0.0
 10
17.9595732391
 20
36.7785517105
 30
0.0
 10
17.9671743343
 20
36.2542427582
 30
0.0
 10
17.9817873605
 20
35.4667154862
 30
0.0
 10
18.0046321281
 20
34.6776151408
 30
0.0
 10
18.0108736708
 20
34.0191262073
 30
0.0
 10
18.0143097631
 20
33.4922308833
 30
0.0
 10
18.0170775876
 20
32.96538918
 30
0.0
 10
18.0196468692
 20
32.3068998405
 30
0.0
 10
18.0216264473
 20
31.5167783014
 30
0.0
 10
18.0237705831
 20
30.4633367614
 30
0.0
 10
18.0276596464
 20
29.1463964223
 30
0.0
 10
18.0326682681
 20
27.0386011213
 30
0.0
 10
18.0351673198
 20
24.4030570808
 30
0.0
 10
18.0410673794
 20
21.2399508253
 30
0.0
 10
18.0502198426
 20
17.0221802513
 30
0.0
 10
18.0504559334
 20
13.8588691656
 30
0.0
 10
18.0504559259
 20
11.7500008341
 30
0.0
  0
SPLINE
  5
286
100
AcDbEntity
  8
RACCORDO
100
AcDbSpline
 62
250
  6
CONTINUOUS
 70
0
 71
3
 72
11
 73
7
 74
0
 42
0.0000001
 43
0.0000001
 44
0.0000000001
 40
0.0
 40
0.0
 40
0.0
 40
0.0
 40
0.2503088934
 40
0.5008455101
 40
0.7509890483
 40
1.0
 40
1.0
 40
1.0
 40
1.0
 10
17.0197954707
 20
37.9669404035
 30
0.0
 10
17.1406869248
 20
37.965946939
 30
0.0
 10
17.3846256591
 20
37.9153637458
 30
0.0
 10
17.6932841637
 20
37.7090603396
 30
0.0
 10
17.9034264831
 20
37.4035788488
 30
0.0
 10
17.9555533896
 20
37.1605199536
 30
0.0
 10
17.956823228
 20
37.0402580083
 30
0.0
  0
SPLINE
  5
287
100
AcDbEntity
  8
RACCORDO
100
AcDbSpline
 62
250
  6
CONTINUOUS
 70
0
 71
3
 72
9
 73
5
 74
0
 42
0.0000001
 43
0.0000001
 44
0.0000000001
 40
0.0
 40
0.0
 40
0.0
 40
0.0
 40
0.5000588313
 40
1.0
 40
1.0
 40
1.0
 40
1.0
 10
5.7499998607
 20
37.9928536239
 30
0.0
 10
7.6285265009
 20
37.9928540345
 30
0.0
 10
11.3851198458
 20
37.9860919325
 30
0.0
 10
15.1417717662
 20
37.9820676143
 30
0.0
 10
17.0197954707
 20
37.9669404035
 30
0.0
  0
SPLINE
  5
288
100
AcDbEntity
  8
RACCORDO
100
AcDbSpline
 62
250
  6
CONTINUOUS
 70
0
 71
3
 72
21
 73
17
 74
0
 42
0.0000001
 43
0.0000001
 44
0.0000000001
 40
0.0
 40
0.0
 40
0.0
 40
0.0
 40
0.2501542416
 40
0.3752320782
 40
0.5003135934
 40
0.6253629731
 40
0.6878607188
 40
0.7503412367
 40
0.8128203555
 40
0.8440658132
 40
0.8596899852
 40
0.8753151153
 40
0.9065679274
 40
0.9378002593
 40
0.9689546709
 40
1.0
 40
1.0
 40
1.0
 40
1.0
 10
-18.0504559259
 20
11.750000834
 30
0.0
 10
-18.0504557028
 20
13.8588692914
 30
0.0
 10
-18.0502199586
 20
17.0221805249
 30
0.0
 10
-18.0410657848
 20
21.2399512974
 30
0.0
 10
-18.0351725176
 20
24.4030577298
 30
0.0
 10
-18.0326559485
 20
27.0386018182
 30
0.0
 10
-18.0276705669
 20
29.1463974795
 30
0.0
 10
-18.0229926776
 20
30.7267073014
 30
0.0
 10
-18.0207095116
 20
32.0435578114
 30
0.0
 10
-18.0170541132
 20
32.9653903247
 30
0.0
 10
-18.0143167519
 20
33.4922319406
 30
0.0
 10
-18.0109208693
 20
34.0191277831
 30
0.0
 10
-18.0046132665
 20
34.6776158026
 30
0.0
 10
-17.9817957127
 20
35.4667165824
 30
0.0
 10
-17.9671689983
 20
36.2542431097
 30
0.0
 10
-17.9595734419
 20
36.7785518701
 30
0.0
 10
-17.956823228
 20
37.0402580083
 30
0.0
  0
SPLINE
  5
289
100
AcDbEntity
  8
RACCORDO
100
AcDbSpline
 62
250
  6
CONTINUOUS
 70
0
 71
3
 72
9
 73
5
 74
0
 42
0.0000001
 43
0.0000001
 44
0.0000000001
 40
0.0
 40
0.0
 40
0.0
 40
0.0
 40
0.4999411222
 40
1.0
 40
1.0
 40
1.0
 40
1.0
 10
-17.0197954707
 20
37.9669404035
 30
0.0
 10
-15.1417718775
 20
37.9820672445
 30
0.0
 10
-11.3851198398
 20
37.9860915618
 30
0.0
 10
-7.6285263736
 20
37.992854239
 30
0.0
 10
-5.7499994985
 20
37.9928536239
 30
0.0
  0
SPLINE
  5
28A
100
AcDbEntity
  8
RACCORDO
100
AcDbSpline
 62
250
  6
CONTINUOUS
 70
0
 71
3
 72
11
 73
7
 74
0
 42
0.0000001
 43
0.0000001
 44
0.0000000001
 40
0.0
 40
0.0
 40
0.0
 40
0.0
 40
0.2490104531
 40
0.4991528572
 40
0.7496904876
 40
1.0
 40
1.0
 40
1.0
 40
1.0
 10
-17.956823228
 20
37.0402580083
 30
0.0
 10
-17.9555447944
 20
37.1605195874
 30
0.0
 10
-17.9034344964
 20
37.4035784007
 30
0.0
 10
-17.693283762
 20
37.7090595192
 30
0.0
 10
-17.3846260662
 20
37.9153556484
 30
0.0
 10
-17.1406872535
 20
37.9659547807
 30
0.0
 10
-17.0197954707
 20
37.9669404035
 30
0.0
  0
SPLINE
  5
28B
100
AcDbEntity
  8
RACCORDO
100
AcDbSpline
 62
250
  6
CONTINUOUS
 70
0
 71
3
 72
13
 73
9
 74
0
 42
0.0000001
 43
0.0000001
 44
0.0000000001
 40
0.0
 40
0.0
 40
0.0
 40
0.0
 40
0.3728954008
 40
0.6826662539
 40
0.8031927421
 40
0.8967911772
 40
0.9617645074
 40
1.0
 40
1.0
 40
1.0
 40
1.0
 10
-17.9568232141
 20
37.0402579976
 30
0.0
 10
-17.9883360332
 20
37.0392647811
 30
0.0
 10
-18.0459731177
 20
37.0361624266
 30
0.0
 10
-18.1136138523
 20
37.0288221563
 30
0.0
 10
-18.1571193845
 20
37.0208014979
 30
0.0
 10
-18.1801197955
 20
37.0147248882
 30
0.0
 10
-18.1953247613
 20
37.008721723
 30
0.0
 10
-18.2029216812
 20
37.0030256908
 30
0.0
 10
-18.2040602604
 20
36.9999999991
 30
0.0
  0
SPLINE
  5
28C
100
AcDbEntity
  8
RACCORDO
100
AcDbSpline
 62
250
  6
CONTINUOUS
 70
0
 71
3
 72
22
 73
18
 74
0
 42
0.0000001
 43
0.0000001
 44
0.0000000001
 40
0.0
 40
0.0
 40
0.0
 40
0.0
 40
0.0310454734
 40
0.0621997338
 40
0.0934327233
 40
0.1246847032
 40
0.1403100108
 40
0.1559344401
 40
0.1871798906
 40
0.2496589214
 40
0.3121395178
 40
0.3746372424
 40
0.4371544899
 40
0.4996865086
 40
0.6247679485
 40
0.7498457699
 40
1.0
 40
1.0
 40
1.0
 40
1.0
 10
-17.9568217381
 20
-37.0402572359
 30
0.0
 10
-17.9595884743
 20
-36.7785500751
 30
0.0
 10
-17.9671652101
 20
-36.2542409805
 30
0.0
 10
-17.9819071416
 20
-35.4667117265
 30
0.0
 10
-18.0046447194
 20
-34.6776105226
 30
0.0
 10
-18.0106712769
 20
-34.0191202531
 30
0.0
 10
-18.014336379
 20
-33.4922297453
 30
0.0
 10
-18.0172115539
 20
-32.9653851603
 30
0.0
 10
-18.020593645
 20
-32.043550236
 30
0.0
 10
-18.0230000895
 20
-30.726700516
 30
0.0
 10
-18.027660062
 20
-29.1463909511
 30
0.0
 10
-18.0314446268
 20
-27.5657566063
 30
0.0
 10
-18.0336216123
 20
-25.9846858341
 30
0.0
 10
-18.0361786503
 20
-23.8760174883
 30
0.0
 10
-18.0410523628
 20
-21.2399493551
 30
0.0
 10
-18.0502321893
 20
-17.0221798372
 30
0.0
 10
-18.0504563664
 20
-13.858869036
 30
0.0
 10
-18.0504559261
 20
-11.7500008341
 30
0.0
  0
SPLINE
  5
28D
100
AcDbEntity
  8
RACCORDO
100
AcDbSpline
 62
250
  6
CONTINUOUS
 70
0
 71
3
 72
11
 73
7
 74
0
 42
0.0000001
 43
0.0000001
 44
0.0000000001
 40
0.0
 40
0.0
 40
0.0
 40
0.0
 40
0.2503105636
 40
0.5008447573
 40
0.7509890465
 40
1.0
 40
1.0
 40
1.0
 40
1.0
 10
-17.0198344379
 20
-37.9668389471
 30
0.0
 10
-17.1407194414
 20
-37.9657770058
 30
0.0
 10
-17.3846369824
 20
-37.9153197987
 30
0.0
 10
-17.6933528145
 20
-37.7090668232
 30
0.0
 10
-17.9033805241
 20
-37.4035383175
 30
0.0
 10
-17.9555442689
 20
-37.1605124606
 30
0.0
 10
-17.9568217381
 20
-37.0402572359
 30
0.0
  0
SPLINE
  5
28E
100
AcDbEntity
  8
RACCORDO
100
AcDbSpline
 62
250
  6
CONTINUOUS
 70
0
 71
3
 72
13
 73
9
 74
0
 42
0.0000001
 43
0.0000001
 44
0.0000000001
 40
0.0
 40
0.0
 40
0.0
 40
0.0
 40
0.2500394182
 40
0.5000558082
 40
0.7500622754
 40
0.8750629652
 40
0.937556306
 40
1.0
 40
1.0
 40
1.0
 40
1.0
 10
-5.7499998462
 20
-37.9928536239
 30
0.0
 10
-6.6893054566
 20
-37.992853853
 30
0.0
 10
-8.5678305239
 20
-37.9915855928
 30
0.0
 10
-11.3855320485
 20
-37.9865436345
 30
0.0
 10
-13.7335141995
 20
-37.9834389191
 30
0.0
 10
-15.377032075
 20
-37.9782300291
 30
0.0
 10
-16.3159501188
 20
-37.9740979676
 30
0.0
 10
-16.785265275
 20
-37.9688591101
 30
0.0
 10
-17.0198344379
 20
-37.9668389471
 30
0.0
  0
SPLINE
  5
28F
100
AcDbEntity
  8
RACCORDO
100
AcDbSpline
 62
250
  6
CONTINUOUS
 70
0
 71
3
 72
14
 73
10
 74
0
 42
0.0000001
 43
0.0000001
 44
0.0000000001
 40
0.0
 40
0.0
 40
0.0
 40
0.0
 40
0.2501760545
 40
0.5003573632
 40
0.625412773
 40
0.7503880594
 40
0.8753569687
 40
0.9378267869
 40
1.0
 40
1.0
 40
1.0
 40
1.0
 10
-18.176214553
 20
11.7500008474
 30
0.0
 10
-18.1762143843
 20
13.8556534568
 30
0.0
 10
-18.1726095104
 20
18.0670015246
 30
0.0
 10
-18.1706687437
 20
23.3309041045
 30
0.0
 10
-18.175905167
 20
27.5410280584
 30
0.0
 10
-18.1837226975
 20
30.6972718044
 30
0.0
 10
-18.1903277925
 20
33.3267524869
 30
0.0
 10
-18.1940550201
 20
35.4276557997
 30
0.0
 10
-18.2002595481
 20
36.476721619
 30
0.0
 10
-18.2040682738
 20
37.0
 30
0.0
  0
SPLINE
  5
290
100
AcDbEntity
  8
RACCORDO
100
AcDbSpline
 62
250
  6
CONTINUOUS
 70
0
 71
3
 72
10
 73
6
 74
0
 42
0.0000001
 43
0.0000001
 44
0.0000000001
 40
0.0
 40
0.0
 40
0.0
 40
0.0
 40
0.49994337
 40
0.7499601708
 40
1.0
 40
1.0
 40
1.0
 40
1.0
 10
17.0198604226
 20
-37.9668403169
 30
0.0
 10
15.1418229353
 20
-37.9826380524
 30
0.0
 10
12.3244567121
 20
-37.9846721526
 30
0.0
 10
8.5678386343
 20
-37.9916238875
 30
0.0
 10
6.6893074438
 20
-37.9928539526
 30
0.0
 10
5.749999486
 20
-37.9928536239
 30
0.0
  0
SPLINE
  5
291
100
AcDbEntity
  8
RACCORDO
100
AcDbSpline
 62
250
  6
CONTINUOUS
 70
0
 71
3
 72
11
 73
7
 74
0
 42
0.0000001
 43
0.0000001
 44
0.0000000001
 40
0.0
 40
0.0
 40
0.0
 40
0.0
 40
0.2490110897
 40
0.4991544026
 40
0.7496903973
 40
1.0
 40
1.0
 40
1.0
 40
1.0
 10
17.9568208531
 20
-37.0402578691
 30
0.0
 10
17.9555354005
 20
-37.1605111909
 30
0.0
 10
17.9033984211
 20
-37.4035367569
 30
0.0
 10
17.6933523242
 20
-37.709053761
 30
0.0
 10
17.3846600291
 20
-37.915306545
 30
0.0
 10
17.1407433355
 20
-37.9658092064
 30
0.0
 10
17.0198604226
 20
-37.9668403169
 30
0.0
  0
SPLINE
  5
292
100
AcDbEntity
  8
RACCORDO
100
AcDbSpline
 62
250
  6
CONTINUOUS
 70
0
 71
3
 72
23
 73
19
 74
0
 42
0.0000001
 43
0.0000001
 44
0.0000000001
 40
0.0
 40
0.0
 40
0.0
 40
0.0
 40
0.2501541972
 40
0.3752320007
 40
0.5003134258
 40
0.5628454351
 40
0.6253626578
 40
0.6878604418
 40
0.7503409613
 40
0.7815789166
 40
0.8128199896
 40
0.8440654361
 40
0.8596898722
 40
0.8753151348
 40
0.9065671774
 40
0.9378002231
 40
0.9689544997
 40
1.0
 40
1.0
 40
1.0
 40
1.0
 10
18.050455926
 20
-11.750000834
 30
0.0
 10
18.0504561293
 20
-13.8588688402
 30
0.0
 10
18.0502467566
 20
-17.0221793529
 30
0.0
 10
18.0410360488
 20
-21.2399484352
 30
0.0
 10
18.0362267168
 20
-23.8760164034
 30
0.0
 10
18.0335656531
 20
-25.9846842844
 30
0.0
 10
18.0314571932
 20
-27.5657554053
 30
0.0
 10
18.0277917064
 20
-29.1463897287
 30
0.0
 10
18.0237142585
 20
-30.4633292023
 30
0.0
 10
18.0216261271
 20
-31.5167701899
 30
0.0
 10
18.0196157699
 20
-32.306890617
 30
0.0
 10
18.0172182682
 20
-32.9653828797
 30
0.0
 10
18.0143271561
 20
-33.4922270474
 30
0.0
 10
18.0106980344
 20
-34.0191179998
 30
0.0
 10
18.0046534738
 20
-34.6776089903
 30
0.0
 10
17.9818542869
 20
-35.4667097838
 30
0.0
 10
17.9671756955
 20
-36.2542412536
 30
0.0
 10
17.9595866312
 20
-36.7785504612
 30
0.0
 10
17.9568208531
 20
-37.0402578691
 30
0.0
  0
SPLINE
  5
293
100
AcDbEntity
  8
RACCORDO
100
AcDbSpline
 62
250
  6
CONTINUOUS
 70
0
 71
3
 72
14
 73
10
 74
0
 42
0.0000001
 43
0.0000001
 44
0.0000000001
 40
0.0
 40
0.0
 40
0.0
 40
0.0
 40
0.0621731829
 40
0.1246429053
 40
0.2496121401
 40
0.3745874441
 40
0.4996427426
 40
0.7498239605
 40
1.0
 40
1.0
 40
1.0
 40
1.0
 10
-18.2040677367
 20
-37.0
 30
0.0
 10
-18.2002588334
 20
-36.4767218744
 30
0.0
 10
-18.1940576398
 20
-35.4276571086
 30
0.0
 10
-18.1903065162
 20
-33.3267521765
 30
0.0
 10
-18.1837282158
 20
-30.6972693479
 30
0.0
 10
-18.1759030294
 20
-27.5410236693
 30
0.0
 10
-18.1706698071
 20
-23.3309012597
 30
0.0
 10
-18.1726090404
 20
-18.0670005097
 30
0.0
 10
-18.1762145065
 20
-13.8556533304
 30
0.0
 10
-18.176214553
 20
-11.7500008474
 30
0.0
  0
ELLIPSE
  5
294
100
AcDbEntity
  8
RACCORDO
100
AcDbEllipse
 62
7
  6
CONTINUOUS
 10
3.0615117685
 20
39.9213883311
 30
0.0
 11
0.5
 21
-0.0
 31
0.0
 40
0.0524077793
 41
-1.5707963268
 42
-0.1308996939
  0
ELLIPSE
  5
295
100
AcDbEntity
  8
RACCORDO
100
AcDbEllipse
 62
7
  6
CONTINUOUS
 10
-3.0615117685
 20
39.9213883311
 30
0.0
 11
0.5
 21
-0.0
 31
0.0
 40
0.0524077793
 41
-3.0106929597
 42
-1.5707963268
  0
ELLIPSE
  5
296
100
AcDbEntity
  8
RACCORDO
100
AcDbEllipse
 62
7
  6
CONTINUOUS
 10
-3.0615117685
 20
-39.9213883311
 30
0.0
 11
0.5
 21
-0.0
 31
0.0
 40
0.0524077793
 41
1.5707963268
 42
3.0106929597
  0
ELLIPSE
  5
297
100
AcDbEntity
  8
RACCORDO
100
AcDbEllipse
 62
7
  6
CONTINUOUS
 10
3.0615117685
 20
-39.9213883311
 30
0.0
 11
0.5
 21
0.0
 31
0.0
 40
0.0524077793
 41
0.1308996939
 42
1.5707963268
  0
ELLIPSE
  5
298
100
AcDbEntity
  8
RACCORDO
100
AcDbEllipse
 62
7
  6
CONTINUOUS
 10
-4.2017932267
 20
-39.9737961104
 30
0.0
 11
0.5
 21
0.0
 31
0.0
 40
0.0524077793
 41
-1.5707963268
 42
-0.1308996939
  0
ELLIPSE
  5
299
100
AcDbEntity
  8
RACCORDO
100
AcDbEllipse
 62
7
  6
CONTINUOUS
 10
4.2017932267
 20
-39.9737961104
 30
0.0
 11
0.5
 21
-0.0
 31
0.0
 40
0.0524077793
 41
-3.0106929597
 42
-1.5707963268
  0
ELLIPSE
  5
29A
100
AcDbEntity
  8
RACCORDO
100
AcDbEllipse
 62
7
  6
CONTINUOUS
 10
4.2017932267
 20
39.9737961104
 30
0.0
 11
0.5
 21
-0.0
 31
0.0
 40
0.0524077793
 41
1.5707963268
 42
3.0106929597
  0
ELLIPSE
  5
29B
100
AcDbEntity
  8
RACCORDO
100
AcDbEllipse
 62
7
  6
CONTINUOUS
 10
-4.2017932267
 20
39.9737961104
 30
0.0
 11
0.5
 21
0.0
 31
0.0
 40
0.0524077793
 41
0.1308996939
 42
1.5707963268
  0
ELLIPSE
  5
29C
100
AcDbEntity
  8
RACCORDO
100
AcDbEllipse
 62
7
  6
CONTINUOUS
 10
4.2017932267
 20
38.3737961104
 30
0.0
 11
0.5
 21
-0.0
 31
0.0
 40
0.0524077793
 41
1.5707963268
 42
3.0106929597
  0
ELLIPSE
  5
29D
100
AcDbEntity
  8
RACCORDO
100
AcDbEllipse
 62
7
  6
CONTINUOUS
 10
-4.2017932267
 20
38.3737961104
 30
0.0
 11
0.5
 21
0.0
 31
0.0
 40
0.0524077793
 41
0.1308996939
 42
1.5707963268
  0
ELLIPSE
  5
29E
100
AcDbEntity
  8
RACCORDO
100
AcDbEllipse
 62
7
  6
CONTINUOUS
 10
4.2017932267
 20
-38.3737961104
 30
0.0
 11
0.5
 21
0.0
 31
0.0
 40
0.0524077793
 41
-3.0106929597
 42
-1.5707963268
  0
ELLIPSE
  5
29F
100
AcDbEntity
  8
RACCORDO
100
AcDbEllipse
 62
7
  6
CONTINUOUS
 10
-4.2017932267
 20
-38.3737961104
 30
0.0
 11
0.5
 21
-0.0
 31
0.0
 40
0.0524077793
 41
-1.5707963268
 42
-0.1308996939
  0
ELLIPSE
  5
2A0
100
AcDbEntity
  8
RACCORDO
100
AcDbEllipse
 62
7
  6
CONTINUOUS
 10
3.0615117685
 20
38.3213883311
 30
0.0
 11
0.5
 21
-0.0
 31
0.0
 40
0.0524077793
 41
-1.5707963268
 42
-0.1308996939
  0
ELLIPSE
  5
2A1
100
AcDbEntity
  8
RACCORDO
100
AcDbEllipse
 62
7
  6
CONTINUOUS
 10
-3.0615117685
 20
38.3213883311
 30
0.0
 11
0.5
 21
0.0
 31
0.0
 40
0.0524077793
 41
-3.0106929597
 42
-1.5707963268
  0
ELLIPSE
  5
2A2
100
AcDbEntity
  8
RACCORDO
100
AcDbEllipse
 62
7
  6
CONTINUOUS
 10
3.0615117685
 20
-38.3213883311
 30
0.0
 11
0.5
 21
0.0
 31
0.0
 40
0.0524077793
 41
0.1308996939
 42
1.5707963268
  0
ELLIPSE
  5
2A3
100
AcDbEntity
  8
RACCORDO
100
AcDbEllipse
 62
7
  6
CONTINUOUS
 10
-3.0615117685
 20
-38.3213883311
 30
0.0
 11
0.5
 21
-0.0
 31
0.0
 40
0.0524077793
 41
1.5707963268
 42
3.0106929597
  0
ENDSEC
  0
SECTION
  2
OBJECTS
  0
DICTIONARY
  5
C
100
AcDbDictionary
280
0
281
1
  3
ACAD_GROUP
350
D
  3
ACAD_MLINESTYLE
350
17
  3
ACAD_LAYOUT
350
1A
  3
ACAD_PLOTSETTINGS
350
19
  3
ACAD_PLOTSTYLENAME
350
E
  0
DICTIONARY
  5
D
102
{ACAD_REACTORS
330
C
102
}
100
AcDbDictionary
280
0
281
1
  0
ACDBDICTIONARYWDFLT
  5
E
102
{ACAD_REACTORS
330
C
102
}
100
AcDbDictionary
281
1
  3
Normal
350
F
100
AcDbDictionaryWithDefault
340
F
  0
DICTIONARY
  5
17
102
{ACAD_REACTORS
330
C
102
}
100
AcDbDictionary
280
0
281
1
  3
Standard
350
18
  0
DICTIONARY
  5
19
102
{ACAD_REACTORS
330
C
102
}
100
AcDbDictionary
281
1
  0
DICTIONARY
  5
1A
102
{ACAD_REACTORS
330
C
102
}
100
AcDbDictionary
281
1
  3
Model
350
2A4
  3
Layout1
350
2A5
  0
ACDBPLACEHOLDER
  5
F
102
{ACAD_REACTORS
330
E
102
}
  0
MLINESTYLE
  5
18
102
{ACAD_REACTORS
330
17
102
}
100
AcDbMlineStyle
  2
STANDARD
 70
0
  3

 62
256
 51
90.0
 52
90.0
 71
2
 49
0.5
 62
256
  6
BYLAYER
 49
-0.5
 62
256
  6
BYLAYER
  0
LAYOUT
  5
2A4
102
{ACAD_REACTORS
330
1A
102
}
100
AcDbPlotSettings
  1

  2
none_device
  4
ANSI_C_(22.00_x_17.00_Inches)
  6

 40
0.0
 41
0.0
 42
0.0
 43
0.0
 44
558.8
 45
431.8
 46
0.0
 47
0.0
 48
0.0
 49
0.0
140
0.0
141
0.0
142
1.0
143
1.0
 70
1024
 72
1
 73
0
 74
0
  7

 75
0
147
1.0
148
0.0
149
0.0
100
AcDbLayout
  1
Model
 70
0
 71
0
 10
0.0
 20
0.0
 11
558.8
 21
431.8
 12
0.0
 22
0.0
 32
0.0
 14
0.0
 24
0.0
 34
0.0
 15
0.0
 25
0.0
 35
0.0
146
0.0
 13
0.0
 23
0.0
 33
0.0
 16
1.0
 26
0.0
 36
0.0
 17
0.0
 27
1.0
 37
0.0
 76
0
330
215
345
0
346
0
  0
LAYOUT
  5
2A5
102
{ACAD_REACTORS
330
1A
102
}
100
AcDbPlotSettings
  1

  2
none_device
  4
ANSI_C_(22.00_x_17.00_Inches)
  6

 40
0.0
 41
0.0
 42
0.0
 43
0.0
 44
558.8
 45
431.8
 46
0.0
 47
0.0
 48
0.0
 49
0.0
140
0.0
141
0.0
142
1.0
143
1.0
 70
0
 72
1
 73
0
 74
0
  7

 75
0
147
1.0
148
0.0
149
0.0
100
AcDbLayout
  1
Layout1
 70
0
 71
1
 10
0.0
 20
0.0
 11
558.8
 21
431.8
 12
0.0
 22
0.0
 32
0.0
 14
0.0
 24
0.0
 34
0.0
 15
0.0
 25
0.0
 35
0.0
146
0.0
 13
0.0
 23
0.0
 33
0.0
 16
1.0
 26
0.0
 36
0.0
 17
0.0
 27
1.0
 37
0.0
 76
0
330
216
345
0
346
0
  0
ENDSEC
  0
EOF
