  0
SECTION
  2
HEADER
  9
$ACADVER
  1
AC1024
  9
$DWGCODEPAGE
  3
ANSI_1252
  9
$EXTMAX
 10
210.0
 20
297.0
 30
0.0
  9
$EXTMIN
 10
0.0
 20
0.0
 30
0.0
  9
$LIMMIN
 10
0.0
 20
0.0
  9
$LIMMAX
 10
210.0
 20
297.0
  9
$VIEWCTR
 10
105.0
 20
148.5
  9
$VIEWSIZE
 40
297.0
  9
$CLAYER
  8
0
  9
$LTSCALE
 40
19.36
  9
$CELTYPE
  6
BYLAYER
  9
$DIMSCALE
 40
1.0
  9
$DIMASZ
 40
3.0
  9
$DIMEXO
 40
0.5
  9
$DIMDLI
 40
13.376
  9
$DIMEXE
 40
1.5
  9
$DIMCEN
 40
3.168
  9
$DIMLFAC
 40
1.0
  9
$DIMBLK
  1
_FILLED
  9
$DIMALT
 70
0
  9
$DIMALTF
 40
0.0393700787
  9
$DIMTXT
 40
3.0
  9
$DIMTOL
 70
1
  9
$DIMLIM
 70
0
  9
$DIMTFAC
 40
1.0
  9
$DIMTP
 40
0.01
  9
$DIMTM
 40
0.01
  9
$DIMGAP
 40
0.625
  9
$DIMDSEP
 70
44
  9
$AUNITS
 70
0
  9
$PDMODE
 70
3
  9
$PDSIZE
 40
3.0
  9
$HANDSEED
  5
65B
  9
$TILEMODE
 70
1
  9
$MEASUREMENT
 70
1
  9
$INSUNITS
 70
4
  0
ENDSEC
  0
SECTION
  2
CLASSES
  0
CLASS
  1
ACDBDICTIONARYWDFLT
  2
AcDbDictionaryWithDefault
  3
AutoCAD 2000
 90
0
 91
1
280
0
281
0
  0
CLASS
  1
ACDBPLACEHOLDER
  2
AcDbPlaceHolder
  3
AutoCAD 2000
 90
0
 91
1
280
0
281
0
  0
CLASS
  1
LAYOUT
  2
AcDbLayout
  3
AutoCAD 2000
 90
0
 91
0
280
0
281
0
  0
ENDSEC
  0
SECTION
  2
TABLES
  0
TABLE
  2
VPORT
  5
8
100
AcDbSymbolTable
 70
2
  0
VPORT
  5
1F4
100
AcDbSymbolTableRecord
100
AcDbViewportTableRecord
  2
*ACTIVE
 70
0
 10
0.0
 20
0.0
 11
1.0
 21
1.0
 12
105.0
 22
148.5
 13
0.0
 23
0.0
 14
1.0
 24
1.0
 15
0.0
 25
0.0
 16
0.0
 26
0.0
 36
1.0
 17
0.0
 27
0.0
 37
0.0
 40
297.0
 41
0.7070707071
 42
50.0
 43
0.0
 44
0.0
 50
0.0
 51
0.0
 71
0
 72
100
 73
1
 74
1
 75
0
 76
0
 77
0
 78
0
  0
ENDTAB
  0
TABLE
  2
LTYPE
  5
5
100
AcDbSymbolTable
 70
6
  0
LTYPE
  5
14
100
AcDbSymbolTableRecord
100
AcDbLinetypeTableRecord
  2
BYBLOCK
 70
0
  3

 72
65
 73
0
 40
0.0
  0
LTYPE
  5
15
100
AcDbSymbolTableRecord
100
AcDbLinetypeTableRecord
  2
BYLAYER
 70
0
  3

 72
65
 73
0
 40
0.0
  0
LTYPE
  5
16
100
AcDbSymbolTableRecord
100
AcDbLinetypeTableRecord
  2
CONTINUOUS
 70
64
  3
Solid line
 72
65
 73
0
 40
0.0
  0
LTYPE
  5
1F5
100
AcDbSymbolTableRecord
100
AcDbLinetypeTableRecord
  2
CENTER
 70
64
  3
____ _ ____ _ ____ _ ____ _ ____ _ ____ _ ____
 72
65
 73
4
 40
0.6
 49
0.375
 74
0
 49
-0.075
 74
0
 49
0.075
 74
0
 49
-0.075
 74
0
  0
LTYPE
  5
1F6
100
AcDbSymbolTableRecord
100
AcDbLinetypeTableRecord
  2
HIDDEN
 70
64
  3
- - - - - - - - - - - - - - - - - - - -
 72
65
 73
2
 40
0.2
 49
0.1
 74
0
 49
-0.1
 74
0
  0
LTYPE
  5
1F7
100
AcDbSymbolTableRecord
100
AcDbLinetypeTableRecord
  2
PHANTOM
 70
64
  3
_____ _ _ _____ _ _ _____ _ _ _____
 72
65
 73
6
 40
0.8
 49
0.45
 74
0
 49
-0.05
 74
0
 49
0.1
 74
0
 49
-0.05
 74
0
 49
0.1
 74
0
 49
-0.05
 74
0
  0
LTYPE
  5
1F8
100
AcDbSymbolTableRecord
100
AcDbLinetypeTableRecord
  2
DOT
 70
64
  3
. . . . . . . . . . . . . . . . . . . .
 72
65
 73
2
 40
0.2
 49
0.1
 74
0
 49
-0.1
 74
0
  0
LTYPE
  5
1F9
100
AcDbSymbolTableRecord
100
AcDbLinetypeTableRecord
  2
DASHED
 70
64
  3
- - - - - - - - - - - - - - - - - - - -
 72
65
 73
2
 40
0.2
 49
0.1
 74
0
 49
-0.1
 74
0
  0
ENDTAB
  0
TABLE
  2
LAYER
  5
2
100
AcDbSymbolTable
 70
36
  0
LAYER
  5
10
100
AcDbSymbolTableRecord
100
AcDbLayerTableRecord
  2
0
 70
0
 62
7
  6
CONTINUOUS
370
-3
390
F
  0
LAYER
  5
1FA
100
AcDbSymbolTableRecord
100
AcDbLayerTableRecord
  2
DEFAULT_1
 70
0
 62
7
  6
CENTER
370
-3
390
F
  0
LAYER
  5
1FB
100
AcDbSymbolTableRecord
100
AcDbLayerTableRecord
  2
DEFAULT_2
 70
0
 62
7
  6
HIDDEN
370
-3
390
F
  0
LAYER
  5
1FC
100
AcDbSymbolTableRecord
100
AcDbLayerTableRecord
  2
DEFAULT_3
 70
0
 62
7
  6
PHANTOM
370
-3
390
F
  0
LAYER
  5
1FD
100
AcDbSymbolTableRecord
100
AcDbLayerTableRecord
  2
ASSI
 70
0
 62
7
  6
CONTINUOUS
370
-3
390
F
  0
LAYER
  5
1FE
100
AcDbSymbolTableRecord
100
AcDbLayerTableRecord
  2
COORDINATE
 70
0
 62
7
  6
CONTINUOUS
370
-3
390
F
  0
LAYER
  5
1FF
100
AcDbSymbolTableRecord
100
AcDbLayerTableRecord
  2
COORD_ORIGINE
 70
0
 62
7
  6
CONTINUOUS
370
-3
390
F
  0
LAYER
  5
200
100
AcDbSymbolTableRecord
100
AcDbLayerTableRecord
  2
COPY_PUBLISH
 70
0
 62
7
  6
CONTINUOUS
370
-3
390
F
  0
LAYER
  5
201
100
AcDbSymbolTableRecord
100
AcDbLayerTableRecord
  2
COSMETICI
 70
0
 62
7
  6
CONTINUOUS
370
-3
390
F
  0
LAYER
  5
202
100
AcDbSymbolTableRecord
100
AcDbLayerTableRecord
  2
CURVE
 70
0
 62
7
  6
CONTINUOUS
370
-3
390
F
  0
LAYER
  5
203
100
AcDbSymbolTableRecord
100
AcDbLayerTableRecord
  2
DRAFT
 70
0
 62
7
  6
CONTINUOUS
370
-3
390
F
  0
LAYER
  5
204
100
AcDbSymbolTableRecord
100
AcDbLayerTableRecord
  2
IGES
 70
0
 62
7
  6
CONTINUOUS
370
-3
390
F
  0
LAYER
  5
205
100
AcDbSymbolTableRecord
100
AcDbLayerTableRecord
  2
IMPORT_IGES
 70
0
 62
7
  6
CONTINUOUS
370
-3
390
F
  0
LAYER
  5
206
100
AcDbSymbolTableRecord
100
AcDbLayerTableRecord
  2
INTFCLR_2
 70
0
 62
7
  6
CONTINUOUS
370
-3
390
F
  0
LAYER
  5
207
100
AcDbSymbolTableRecord
100
AcDbLayerTableRecord
  2
INTFCLR_3
 70
0
 62
7
  6
CONTINUOUS
370
-3
390
F
  0
LAYER
  5
208
100
AcDbSymbolTableRecord
100
AcDbLayerTableRecord
  2
INTFCLR_4
 70
0
 62
7
  6
CONTINUOUS
370
-3
390
F
  0
LAYER
  5
209
100
AcDbSymbolTableRecord
100
AcDbLayerTableRecord
  2
NOTE
 70
0
 62
7
  6
CONTINUOUS
370
-3
390
F
  0
LAYER
  5
20A
100
AcDbSymbolTableRecord
100
AcDbLayerTableRecord
  2
PIANI
 70
0
 62
7
  6
CONTINUOUS
370
-3
390
F
  0
LAYER
  5
20B
100
AcDbSymbolTableRecord
100
AcDbLayerTableRecord
  2
PIANI_ORIGINE
 70
0
 62
7
  6
CONTINUOUS
370
-3
390
F
  0
LAYER
  5
20C
100
AcDbSymbolTableRecord
100
AcDbLayerTableRecord
  2
PIANI_RIFERIMENTO
 70
0
 62
7
  6
CONTINUOUS
370
-3
390
F
  0
LAYER
  5
20D
100
AcDbSymbolTableRecord
100
AcDbLayerTableRecord
  2
PUNTI
 70
0
 62
7
  6
CONTINUOUS
370
-3
390
F
  0
LAYER
  5
20E
100
AcDbSymbolTableRecord
100
AcDbLayerTableRecord
  2
RACCORDO
 70
0
 62
7
  6
CONTINUOUS
370
-3
390
F
  0
LAYER
  5
20F
100
AcDbSymbolTableRecord
100
AcDbLayerTableRecord
  2
SIMBOLI
 70
0
 62
7
  6
CONTINUOUS
370
-3
390
F
  0
LAYER
  5
210
100
AcDbSymbolTableRecord
100
AcDbLayerTableRecord
  2
SMUSSO
 70
0
 62
7
  6
CONTINUOUS
370
-3
390
F
  0
LAYER
  5
211
100
AcDbSymbolTableRecord
100
AcDbLayerTableRecord
  2
SNAPLINE
 70
0
 62
7
  6
CONTINUOUS
370
-3
390
F
  0
LAYER
  5
212
100
AcDbSymbolTableRecord
100
AcDbLayerTableRecord
  2
SUPERFICI
 70
0
 62
7
  6
CONTINUOUS
370
-3
390
F
  0
LAYER
  5
213
100
AcDbSymbolTableRecord
100
AcDbLayerTableRecord
  2
TRASH
 70
0
 62
7
  6
CONTINUOUS
370
-3
390
F
  0
LAYER
  5
214
100
AcDbSymbolTableRecord
100
AcDbLayerTableRecord
  2
XSEC_DATUMS
 70
0
 62
7
  6
CONTINUOUS
370
-3
390
F
  0
ENDTAB
  0
TABLE
  2
STYLE
  5
3
100
AcDbSymbolTable
 70
1
  0
STYLE
  5
11
100
AcDbSymbolTableRecord
100
AcDbTextStyleTableRecord
  2
STANDARD
 70
0
 40
0.0
 41
0.8
 50
0.0
 71
0
 42
0.2
  3
txt
  4

  0
STYLE
  5
215
100
AcDbSymbolTableRecord
100
AcDbTextStyleTableRecord
  2
TEXTSTYLE_1
 70
0
 40
0.0
 41
0.8
 50
0.0
 71
0
 42
0.2
  3
gdt
  4

  0
ENDTAB
  0
TABLE
  2
VIEW
  5
6
100
AcDbSymbolTable
 70
0
  0
ENDTAB
  0
TABLE
  2
UCS
  5
7
100
AcDbSymbolTable
 70
0
  0
ENDTAB
  0
TABLE
  2
APPID
  5
9
100
AcDbSymbolTable
 70
1
  0
APPID
  5
216
100
AcDbSymbolTableRecord
100
AcDbRegAppTableRecord
  2
ACAD
 70
0
  0
ENDTAB
  0
TABLE
  2
BLOCK_RECORD
  5
1
100
AcDbSymbolTable
 70
0
  0
BLOCK_RECORD
  5
217
100
AcDbSymbolTableRecord
100
AcDbBlockTableRecord
  2
*Model_Space
  0
BLOCK_RECORD
  5
218
100
AcDbSymbolTableRecord
100
AcDbBlockTableRecord
  2
*Paper_Space
  0
BLOCK_RECORD
  5
219
100
AcDbSymbolTableRecord
100
AcDbBlockTableRecord
  2
_FILLED
  0
ENDTAB
  0
TABLE
  2
DIMSTYLE
  5
A
100
AcDbSymbolTable
 70
1
100
AcDbDimStyleTable
 71
0
  0
DIMSTYLE
105
21A
100
AcDbSymbolTableRecord
100
AcDbDimStyleTableRecord
  2
STANDARD
 70
0
  3

  4

 40
1.0
 41
3.0
 42
0.5
 43
0.38
 44
1.5
 45
0.0
 46
0.0
 47
0.01
 48
0.01
140
3.0
141
0.09
142
0.0
143
25.4
144
1.0
145
0.0
146
1.0
147
0.625
 71
1
 72
0
 73
0
 74
0
 75
0
 76
0
 77
1
 78
8
 79
2
170
0
171
1
172
0
173
0
174
0
175
0
176
0
177
0
178
0
270
2
179
2
271
2
272
2
273
2
274
2
275
0
280
0
281
0
282
0
283
1
284
8
285
0
286
0
287
3
288
0
340
11
278
44
341
219
342
219
343
219
344
219
  0
ENDTAB
  0
ENDSEC
  0
SECTION
  2
BLOCKS
  0
BLOCK
  5
20
100
AcDbEntity
  8
0
100
AcDbBlockBegin
  2
*Model_Space
 70
0
 10
0.0
 20
0.0
 30
0.0
  3
*Model_Space
  1

  0
ENDBLK
  5
21
100
AcDbEntity
  8
0
100
AcDbBlockEnd
  0
BLOCK
  5
1C
100
AcDbEntity
  8
0
100
AcDbBlockBegin
  2
*Paper_Space
 70
0
 10
0.0
 20
0.0
 30
0.0
  3
*Paper_Space
  1

  0
ENDBLK
  5
1D
100
AcDbEntity
  8
0
100
AcDbBlockEnd
  0
BLOCK
  5
21B
100
AcDbEntity
  8
0
100
AcDbBlockBegin
  2
_FILLED
 70
64
 10
0.0
 20
0.0
  3
_FILLED
  1

  0
SOLID
  5
21C
100
AcDbEntity
  8
0
  6
BYBLOCK
 62
0
100
AcDbTrace
 10
0.0
 20
0.0
 11
-1.0
 21
0.3166666667
 12
-1.0
 22
-0.3166666667
 13
-1.0
 23
-0.3166666667
  0
ENDBLK
  5
21D
100
AcDbEntity
  8
0
  6
BYBLOCK
 62
0
100
AcDbBlockEnd
  0
ENDSEC
  0
SECTION
  2
ENTITIES
  0
LINE
  5
21E
100
AcDbEntity
  8
ASSI
100
AcDbLine
 62
7
  6
CONTINUOUS
 10
3.0762639583
 20
-22.0138360539
 11
3.4269539244
 21
-21.9820028959
  0
LINE
  5
21F
100
AcDbEntity
  8
ASSI
100
AcDbLine
 62
7
  6
CONTINUOUS
 10
-8.1237360417
 20
-22.0138360539
 11
-7.7730460756
 21
-21.9820028959
  0
LINE
  5
220
100
AcDbEntity
  8
ASSI
100
AcDbLine
 62
7
  6
CONTINUOUS
 10
10.3212348907
 20
-22.0138360539
 11
7.4931139443
 21
-22.0138360539
  0
LINE
  5
221
100
AcDbEntity
  8
ASSI
100
AcDbLine
 62
7
  6
CONTINUOUS
 10
3.0762639583
 20
-22.0138360539
 11
-3.7068860557
 21
-22.0138360539
  0
LINE
  5
222
100
AcDbEntity
  8
ASSI
100
AcDbLine
 62
7
  6
CONTINUOUS
 10
-8.1237360417
 20
-22.0138360539
 11
-10.9518569881
 21
-22.0138360539
  0
LINE
  5
223
100
AcDbEntity
  8
ASSI
100
AcDbLine
 62
7
  6
CONTINUOUS
 10
6.9692188975
 20
-21.9767621179
 11
3.6001590051
 21
-21.9767621179
  0
LINE
  5
224
100
AcDbEntity
  8
ASSI
100
AcDbLine
 62
7
  6
CONTINUOUS
 10
-4.2307811025
 20
-21.9767621179
 11
-7.5998409949
 21
-21.9767621179
  0
LINE
  5
225
100
AcDbEntity
  8
ASSI
100
AcDbLine
 62
7
  6
CONTINUOUS
 10
-3.7068860557
 20
-22.0138360539
 11
-4.0575760218
 21
-21.9820028959
  0
LINE
  5
226
100
AcDbEntity
  8
ASSI
100
AcDbLine
 62
7
  6
CONTINUOUS
 10
7.4931139443
 20
-22.0138360539
 11
7.1424239782
 21
-21.9820028959
  0
LWPOLYLINE
  5
227
100
AcDbEntity
  8
ASSI
100
AcDbPolyline
 62
250
  6
CONTINUOUS
 90
8
 70
0
 10
-10.1525138908
 20
-19.9617144815
 10
-10.1516982236
 20
-19.9624236967
 10
-10.1498000697
 20
-19.962992392
 10
-10.146842889
 20
-19.9634906617
 10
-10.1428234027
 20
-19.964056482
 10
-10.137741142
 20
-19.9646706907
 10
-10.1316431965
 20
-19.9651798113
 10
-10.1165763691
 20
-19.9662437471
  0
LINE
  5
228
100
AcDbEntity
  8
ASSI
100
AcDbLine
 62
7
  6
CONTINUOUS
 10
3.4269539244
 20
-20.4326249629
 11
3.0009704745
 21
-20.5232184789
  0
LWPOLYLINE
  5
229
100
AcDbEntity
  8
ASSI
100
AcDbPolyline
 62
250
  6
CONTINUOUS
 90
13
 70
0
 10
9.4454480487
 20
-19.9679739959
 10
9.456734593
 20
-19.967580323
 10
9.4672838518
 20
-19.967154579
 10
9.4770381313
 20
-19.966699092
 10
9.4859440857
 20
-19.9662163521
 10
9.4939530085
 20
-19.9657089998
 10
9.5010210991
 20
-19.9651798113
 10
9.5071097023
 20
-19.9646316784
 10
9.5121855196
 20
-19.9640675988
 10
9.5162207916
 20
-19.9634906617
 10
9.5191934494
 20
-19.9629040215
 10
9.5210872357
 20
-19.9623108814
 10
9.5218917934
 20
-19.9617144815
  0
LINE
  5
22A
100
AcDbEntity
  8
ASSI
100
AcDbLine
 62
250
  6
CONTINUOUS
 10
9.4209137013
 20
-19.9686567
 11
9.4454480487
 21
-19.9679739959
  0
LINE
  5
22B
100
AcDbEntity
  8
ASSI
100
AcDbLine
 62
250
  6
CONTINUOUS
 10
9.3942167868
 20
-19.9691877796
 11
9.4209137013
 21
-19.9686567
  0
LINE
  5
22C
100
AcDbEntity
  8
ASSI
100
AcDbLine
 62
250
  6
CONTINUOUS
 10
9.3659405262
 20
-19.9695556313
 11
9.3942167868
 21
-19.9691877796
  0
LINE
  5
22D
100
AcDbEntity
  8
ASSI
100
AcDbLine
 62
250
  6
CONTINUOUS
 10
9.3367026424
 20
-19.969752224
 11
9.3659405262
 21
-19.9695556313
  0
LINE
  5
22E
100
AcDbEntity
  8
ASSI
100
AcDbLine
 62
7
  6
CONTINUOUS
 10
9.3735256252
 20
-20.5232184789
 11
7.5684074281
 21
-20.5232184789
  0
LINE
  5
22F
100
AcDbEntity
  8
ASSI
100
AcDbLine
 62
7
  6
CONTINUOUS
 10
3.0009704745
 20
-20.5232184789
 11
-3.6315925719
 21
-20.5232184789
  0
LINE
  5
230
100
AcDbEntity
  8
ASSI
100
AcDbLine
 62
7
  6
CONTINUOUS
 10
-8.1990295255
 20
-20.5232184789
 11
-10.0041477226
 21
-20.5232184789
  0
LINE
  5
231
100
AcDbEntity
  8
ASSI
100
AcDbLine
 62
7
  6
CONTINUOUS
 10
6.9692188975
 20
-20.4203465068
 11
5.6048213253
 21
-20.4203465068
  0
LINE
  5
232
100
AcDbEntity
  8
ASSI
100
AcDbLine
 62
7
  6
CONTINUOUS
 10
4.9645565773
 20
-20.4203465068
 11
3.6001590051
 21
-20.4203465068
  0
LINE
  5
233
100
AcDbEntity
  8
ASSI
100
AcDbLine
 62
7
  6
CONTINUOUS
 10
-4.2307811025
 20
-20.4203465068
 11
-5.5951786747
 21
-20.4203465068
  0
LINE
  5
234
100
AcDbEntity
  8
ASSI
100
AcDbLine
 62
7
  6
CONTINUOUS
 10
-6.2354434227
 20
-20.4203465068
 11
-7.5998409949
 21
-20.4203465068
  0
LINE
  5
235
100
AcDbEntity
  8
ASSI
100
AcDbLine
 62
7
  6
CONTINUOUS
 10
-5.8374188195
 20
-20.2134809607
 11
-5.9932032779
 21
-20.2134809607
  0
LINE
  5
236
100
AcDbEntity
  8
ASSI
100
AcDbLine
 62
7
  6
CONTINUOUS
 10
5.2067967221
 20
-20.2134809607
 11
5.3625811805
 21
-20.2134809607
  0
LINE
  5
237
100
AcDbEntity
  8
ASSI
100
AcDbLine
 62
250
  6
CONTINUOUS
 10
-9.9525443517
 20
-20.1602237119
 11
-6.3094241259
 21
-20.1602237119
  0
LINE
  5
238
100
AcDbEntity
  8
ASSI
100
AcDbLine
 62
250
  6
CONTINUOUS
 10
-5.5211979715
 20
-20.1602237119
 11
4.8905758741
 21
-20.1602237119
  0
LINE
  5
239
100
AcDbEntity
  8
ASSI
100
AcDbLine
 62
250
  6
CONTINUOUS
 10
5.6788020285
 20
-20.1602237119
 11
9.3219222543
 21
-20.1602237119
  0
LINE
  5
23A
100
AcDbEntity
  8
ASSI
100
AcDbLine
 62
250
  6
CONTINUOUS
 10
-9.9525443414
 20
-19.9697847971
 11
-6.3155514373
 21
-19.9697847971
  0
LINE
  5
23B
100
AcDbEntity
  8
ASSI
100
AcDbLine
 62
250
  6
CONTINUOUS
 10
-5.5150706601
 20
-19.9697847971
 11
4.8844485627
 21
-19.9697847971
  0
LINE
  5
23C
100
AcDbEntity
  8
ASSI
100
AcDbLine
 62
250
  6
CONTINUOUS
 10
5.6849293399
 20
-19.9697847971
 11
9.3367026424
 21
-19.969752224
  0
LWPOLYLINE
  5
23D
100
AcDbEntity
  8
ASSI
100
AcDbPolyline
 62
250
  6
CONTINUOUS
 90
3
 70
0
 10
-9.9965626236
 20
-19.9695556313
 10
-9.9672909324
 20
-19.9696495939
 10
-9.9525443517
 20
-19.9697847971
  0
LINE
  5
23E
100
AcDbEntity
  8
ASSI
100
AcDbLine
 62
250
  6
CONTINUOUS
 10
-10.0108666523
 20
-19.9694106282
 11
-9.9965626236
 21
-19.9695556313
  0
LWPOLYLINE
  5
23F
100
AcDbEntity
  8
ASSI
100
AcDbPolyline
 62
250
  6
CONTINUOUS
 90
3
 70
0
 10
-10.0760701461
 20
-19.9679739959
 10
-10.051542487
 20
-19.9686736903
 10
-10.0108666523
 20
-19.9694106282
  0
LWPOLYLINE
  5
240
100
AcDbEntity
  8
ASSI
100
AcDbPolyline
 62
250
  6
CONTINUOUS
 90
25
 70
0
 10
-9.9525443517
 20
-20.1602237119
 10
-9.9656053312
 20
-20.1597722615
 10
-9.9786105328
 20
-20.1584749916
 10
-9.991504417
 20
-20.1563374424
 10
-10.0042319196
 20
-20.1533687424
 10
-10.0167386868
 20
-20.1495815696
 10
-10.0289713077
 20
-20.1449920975
 10
-10.0408775419
 20
-20.1396199256
 10
-10.0524065432
 20
-20.1334879962
 10
-10.0635090761
 20
-20.1266224962
 10
-10.0741377265
 20
-20.1190527451
 10
-10.0842471039
 20
-20.11081107
 10
-10.0937940357
 20
-20.1019326677
 10
-10.1027377509
 20
-20.0924554539
 10
-10.1110400548
 20
-20.0824199017
 10
-10.1186654919
 20
-20.0718688687
 10
-10.1255814971
 20
-20.0608474138
 10
-10.1317585353
 20
-20.0494026049
 10
-10.1371702269
 20
-20.0375833177
 10
-10.1417934609
 20
-20.0254400275
 10
-10.1456084936
 20
-20.0130245929
 10
-10.1485990325
 20
-20.0003900349
 10
-10.1507523063
 20
-19.9875903103
 10
-10.1520591193
 20
-19.9746800811
 10
-10.1525138908
 20
-19.9617144815
  0
LWPOLYLINE
  5
241
100
AcDbEntity
  8
ASSI
100
AcDbPolyline
 62
250
  6
CONTINUOUS
 90
3
 70
0
 10
-10.1076602287
 20
-19.966699092
 10
-10.0873647873
 20
-19.9675999827
 10
-10.0760701461
 20
-19.9679739959
  0
LINE
  5
242
100
AcDbEntity
  8
ASSI
100
AcDbLine
 62
250
  6
CONTINUOUS
 10
-10.1165763691
 20
-19.9662437471
 11
-10.1076602287
 21
-19.966699092
  0
LINE
  5
243
100
AcDbEntity
  8
ASSI
100
AcDbLine
 62
7
  6
CONTINUOUS
 10
-4.0575760218
 20
-20.4326249629
 11
-3.6315925719
 21
-20.5232184789
  0
LINE
  5
244
100
AcDbEntity
  8
ASSI
100
AcDbLine
 62
7
  6
CONTINUOUS
 10
-7.7730460756
 20
-20.4326249629
 11
-8.1990295255
 21
-20.5232184789
  0
LWPOLYLINE
  5
245
100
AcDbEntity
  8
ASSI
100
AcDbPolyline
 62
250
  6
CONTINUOUS
 90
25
 70
0
 10
5.3251498753
 20
-17.9148004279
 10
5.3411701333
 20
-17.9143689497
 10
5.3571245209
 20
-17.9135048471
 10
5.3729474418
 20
-17.9122116731
 10
5.3885738409
 20
-17.9104947448
 10
5.4039394698
 20
-17.9083611215
 10
5.4189811509
 20
-17.9058195763
 10
5.4336370407
 20
-17.9028805593
 10
5.4478468822
 20
-17.8995561544
 10
5.4615522511
 20
-17.8958600306
 10
5.4746967986
 20
-17.8918073851
 10
5.487226482
 20
-17.8874148806
 10
5.4990897864
 20
-17.8827005773
 10
5.5102379368
 20
-17.8776838585
 10
5.5206250993
 20
-17.8723853506
 10
5.5302085688
 20
-17.8668268384
 10
5.538948944
 20
-17.861031176
 10
5.5468102906
 20
-17.8550221921
 10
5.5537602889
 20
-17.848824592
 10
5.5597703649
 20
-17.8424638573
 10
5.5648158099
 20
-17.8359661398
 10
5.568875881
 20
-17.8293581537
 10
5.5719338864
 20
-17.8226670672
 10
5.5739772536
 20
-17.8159203906
 10
5.5749975821
 20
-17.8091458624
  0
LINE
  5
246
100
AcDbEntity
  8
ASSI
100
AcDbLine
 62
250
  6
CONTINUOUS
 10
5.3251498753
 20
-17.9148004279
 11
5.2442280273
 21
-17.9148004279
  0
LINE
  5
247
100
AcDbEntity
  8
ASSI
100
AcDbLine
 62
250
  6
CONTINUOUS
 10
-5.8748501247
 20
-17.9148004279
 11
-5.9557719727
 21
-17.9148004279
  0
LWPOLYLINE
  5
248
100
AcDbEntity
  8
ASSI
100
AcDbPolyline
 62
250
  6
CONTINUOUS
 90
25
 70
0
 10
-5.9557719727
 20
-17.9148004279
 10
-5.9717921711
 20
-17.9143689532
 10
-5.9877465029
 20
-17.913504857
 10
-6.0035693725
 20
-17.9122116921
 10
-6.0191957245
 20
-17.9104947753
 10
-6.0345613118
 20
-17.9083611656
 10
-6.0496029592
 20
-17.9058196353
 10
-6.0642588235
 20
-17.9028806339
 10
-6.0784686475
 20
-17.8995562449
 10
-6.0921740079
 20
-17.8958601364
 10
-6.1053185557
 20
-17.8918075049
 10
-6.1178482475
 20
-17.8874150127
 10
-6.1297115677
 20
-17.8827007194
 10
-6.1408597408
 20
-17.8776840076
 10
-6.1512469313
 20
-17.8723855033
 10
-6.1608304327
 20
-17.8668269913
 10
-6.1695708427
 20
-17.8610313251
 10
-6.1774322254
 20
-17.8550223334
 10
-6.1843822589
 20
-17.8488247221
 10
-6.1903923684
 20
-17.8424639725
 10
-6.1954378436
 20
-17.8359662364
 10
-6.1994979401
 20
-17.8293582293
 10
-6.2025559649
 20
-17.8226671196
 10
-6.2045993452
 20
-17.8159204177
 10
-6.2056196795
 20
-17.8091458624
  0
LINE
  5
249
100
AcDbEntity
  8
ASSI
100
AcDbLine
 62
7
  6
CONTINUOUS
 10
7.1424239782
 20
-20.4326249629
 11
7.5684074281
 21
-20.5232184789
  0
LINE
  5
24A
100
AcDbEntity
  8
ASSI
100
AcDbLine
 62
250
  6
CONTINUOUS
 10
-6.2665369633
 20
16.0197420531
 11
-6.3209312417
 21
15.9925532003
  0
LINE
  5
24B
100
AcDbEntity
  8
ASSI
100
AcDbLine
 62
250
  6
CONTINUOUS
 10
-6.016689715
 20
15.7697799002
 11
-6.0712067208
 21
15.7425297024
  0
LWPOLYLINE
  5
24C
100
AcDbEntity
  8
ASSI
100
AcDbPolyline
 62
7
  6
CONTINUOUS
 90
31
 70
0
 10
5.1850263093
 20
-16.9546289591
 10
5.1694117214
 20
-16.955575455
 10
5.1541202883
 20
-16.9572067166
 10
5.1392052173
 20
-16.959522744
 10
5.1247209511
 20
-16.9625692151
 10
5.110700908
 20
-16.966300452
 10
5.097158856
 20
-16.9705794212
 10
5.0841292618
 20
-16.9754000956
 10
5.0716344152
 20
-16.9807685022
 10
5.0596657875
 20
-16.9865656882
 10
5.0482431405
 20
-16.9927848436
 10
5.0373815144
 20
-16.9994327784
 10
5.0270650065
 20
-17.0064109701
 10
5.0173040575
 20
-17.0137141924
 10
5.0081086173
 20
-17.0213476717
 10
4.9994638851
 20
-17.0292285649
 10
4.9913748432
 20
-17.0373534369
 10
4.9838471286
 20
-17.0457257229
 10
4.9768693196
 20
-17.0542728853
 10
4.9704426685
 20
-17.0629929862
 10
4.9645692458
 20
-17.0718879636
 10
4.9592407927
 20
-17.0808910937
 10
4.9544555403
 20
-17.0900013933
 10
4.9502122257
 20
-17.0992198455
 10
4.9465042117
 20
-17.1084826756
 10
4.9433267235
 20
-17.1177895803
 10
4.9406752368
 20
-17.1271408628
 10
4.9385428736
 20
-17.1364736582
 10
4.9369219284
 20
-17.1457670113
 10
4.935803754
 20
-17.1550418772
 10
4.9351786026
 20
-17.1642982559
  0
LWPOLYLINE
  5
24D
100
AcDbEntity
  8
ASSI
100
AcDbPolyline
 62
250
  6
CONTINUOUS
 90
25
 70
0
 10
5.2429487754
 20
-17.2105667788
 10
5.2266705532
 20
-17.2111870719
 10
5.2104615033
 20
-17.2128508942
 10
5.1943905015
 20
-17.2155511752
 10
5.178525836
 20
-17.2192764407
 10
5.1629349199
 20
-17.2240108604
 10
5.1476840041
 20
-17.2297343156
 10
5.1328378928
 20
-17.2364224851
 10
5.1184596696
 20
-17.2440469486
 10
5.1046104313
 20
-17.2525753067
 10
5.0913490257
 20
-17.2619713193
 10
5.0787318021
 20
-17.2721950602
 10
5.0668123731
 20
-17.2832030853
 10
5.055641386
 20
-17.2949486181
 10
5.0452663071
 20
-17.307381749
 10
5.0357312207
 20
-17.3204496469
 10
5.0270766422
 20
-17.3340967828
 10
5.0193393451
 20
-17.3482651672
 10
5.0125522049
 20
-17.3628945969
 10
5.0067440604
 20
-17.3779229083
 10
5.0019395902
 20
-17.3932862435
 10
4.998159208
 20
-17.4089193227
 10
4.9954189764
 20
-17.4247557189
 10
4.9937305387
 20
-17.4407281402
 10
4.9931010686
 20
-17.456768717
  0
LWPOLYLINE
  5
24E
100
AcDbEntity
  8
ASSI
100
AcDbPolyline
 62
250
  6
CONTINUOUS
 90
25
 70
0
 10
-5.9570512246
 20
-17.2105667788
 10
-5.9733294468
 20
-17.2111870719
 10
-5.9895384967
 20
-17.2128508942
 10
-6.0056094985
 20
-17.2155511752
 10
-6.021474164
 20
-17.2192764407
 10
-6.0370650801
 20
-17.2240108604
 10
-6.0523159959
 20
-17.2297343156
 10
-6.0671621072
 20
-17.2364224851
 10
-6.0815403304
 20
-17.2440469486
 10
-6.0953895687
 20
-17.2525753067
 10
-6.1086509743
 20
-17.2619713193
 10
-6.1212681979
 20
-17.2721950602
 10
-6.1331876269
 20
-17.2832030853
 10
-6.144358614
 20
-17.2949486181
 10
-6.1547336929
 20
-17.307381749
 10
-6.1642687793
 20
-17.3204496469
 10
-6.1729233578
 20
-17.3340967828
 10
-6.1806606549
 20
-17.3482651672
 10
-6.1874477951
 20
-17.3628945969
 10
-6.1932559396
 20
-17.3779229083
 10
-6.1980604098
 20
-17.3932862435
 10
-6.201840792
 20
-17.4089193227
 10
-6.2045810236
 20
-17.4247557189
 10
-6.2062694613
 20
-17.4407281402
 10
-6.2068989314
 20
-17.456768717
  0
LWPOLYLINE
  5
24F
100
AcDbEntity
  8
ASSI
100
AcDbPolyline
 62
250
  6
CONTINUOUS
 90
25
 70
0
 10
-5.8748501247
 20
-17.9148004279
 10
-5.8588298667
 20
-17.9143689497
 10
-5.8428754791
 20
-17.9135048471
 10
-5.8270525582
 20
-17.9122116731
 10
-5.8114261591
 20
-17.9104947448
 10
-5.7960605302
 20
-17.9083611215
 10
-5.7810188491
 20
-17.9058195763
 10
-5.7663629593
 20
-17.9028805593
 10
-5.7521531178
 20
-17.8995561544
 10
-5.7384477489
 20
-17.8958600306
 10
-5.7253032014
 20
-17.8918073851
 10
-5.712773518
 20
-17.8874148806
 10
-5.7009102136
 20
-17.8827005773
 10
-5.6897620632
 20
-17.8776838585
 10
-5.6793749007
 20
-17.8723853506
 10
-5.6697914312
 20
-17.8668268384
 10
-5.661051056
 20
-17.861031176
 10
-5.6531897094
 20
-17.8550221921
 10
-5.6462397111
 20
-17.848824592
 10
-5.6402296351
 20
-17.8424638573
 10
-5.6351841901
 20
-17.8359661398
 10
-5.631124119
 20
-17.8293581537
 10
-5.6280661136
 20
-17.8226670672
 10
-5.6260227464
 20
-17.8159203906
 10
-5.6250024179
 20
-17.8091458624
  0
LINE
  5
250
100
AcDbEntity
  8
ASSI
100
AcDbLine
 62
250
  6
CONTINUOUS
 10
-6.2054560893
 20
-17.7880149493
 11
-5.6251660081
 21
-17.7880149493
  0
LINE
  5
251
100
AcDbEntity
  8
ASSI
100
AcDbLine
 62
250
  6
CONTINUOUS
 10
4.9945439107
 20
-17.7880149493
 11
5.5748339919
 21
-17.7880149493
  0
LINE
  5
252
100
AcDbEntity
  8
ASSI
100
AcDbLine
 62
250
  6
CONTINUOUS
 10
-6.2054560893
 20
-17.5060091047
 11
-5.6251660081
 21
-17.5060091047
  0
LINE
  5
253
100
AcDbEntity
  8
ASSI
100
AcDbLine
 62
250
  6
CONTINUOUS
 10
4.9945439107
 20
-17.5060091047
 11
5.5748339919
 21
-17.5060091047
  0
LINE
  5
254
100
AcDbEntity
  8
ASSI
100
AcDbLine
 62
250
  6
CONTINUOUS
 10
5.3264291272
 20
-17.2105667788
 11
5.2429487754
 21
-17.2105667788
  0
LINE
  5
255
100
AcDbEntity
  8
ASSI
100
AcDbLine
 62
250
  6
CONTINUOUS
 10
-5.8735708728
 20
-17.2105667788
 11
-5.9570512246
 21
-17.2105667788
  0
LINE
  5
256
100
AcDbEntity
  8
ASSI
100
AcDbLine
 62
7
  6
CONTINUOUS
 10
5.3771373829
 20
-16.9545233481
 11
5.1922405197
 21
-16.9545233481
  0
LINE
  5
257
100
AcDbEntity
  8
ASSI
100
AcDbLine
 62
7
  6
CONTINUOUS
 10
-6.0077594803
 20
-16.9545233481
 11
-5.8228626171
 21
-16.9545233481
  0
LWPOLYLINE
  5
258
100
AcDbEntity
  8
ASSI
100
AcDbPolyline
 62
250
  6
CONTINUOUS
 90
25
 70
0
 10
5.2442280273
 20
-17.9148004279
 10
5.2282078289
 20
-17.9143689532
 10
5.2122534971
 20
-17.913504857
 10
5.1964306275
 20
-17.9122116921
 10
5.1808042755
 20
-17.9104947753
 10
5.1654386882
 20
-17.9083611656
 10
5.1503970408
 20
-17.9058196353
 10
5.1357411765
 20
-17.9028806339
 10
5.1215313525
 20
-17.8995562449
 10
5.1078259921
 20
-17.8958601364
 10
5.0946814443
 20
-17.8918075049
 10
5.0821517525
 20
-17.8874150127
 10
5.0702884323
 20
-17.8827007194
 10
5.0591402592
 20
-17.8776840076
 10
5.0487530687
 20
-17.8723855033
 10
5.0391695673
 20
-17.8668269913
 10
5.0304291573
 20
-17.8610313251
 10
5.0225677746
 20
-17.8550223334
 10
5.0156177411
 20
-17.8488247221
 10
5.0096076316
 20
-17.8424639725
 10
5.0045621564
 20
-17.8359662364
 10
5.0005020599
 20
-17.8293582293
 10
4.9974440351
 20
-17.8226671196
 10
4.9954006548
 20
-17.8159204177
 10
4.9943803205
 20
-17.8091458624
  0
LWPOLYLINE
  5
259
100
AcDbEntity
  8
ASSI
100
AcDbPolyline
 62
250
  6
CONTINUOUS
 90
25
 70
0
 10
-5.8735708728
 20
-17.2105667788
 10
-5.8572927068
 20
-17.2111870678
 10
-5.8410837098
 20
-17.2128508793
 10
-5.8250127569
 20
-17.2155511432
 10
-5.8091481364
 20
-17.2192763858
 10
-5.7935572602
 20
-17.2240107777
 10
-5.7783063769
 20
-17.2297342016
 10
-5.7634602902
 20
-17.2364223377
 10
-5.7490820839
 20
-17.2440467667
 10
-5.7352328538
 20
-17.2525750912
 10
-5.7219714479
 20
-17.2619710725
 10
-5.7093542162
 20
-17.2721947855
 10
-5.6974347719
 20
-17.2832027876
 10
-5.6862637628
 20
-17.2949483039
 10
-5.6758886567
 20
-17.3073814254
 10
-5.6663535392
 20
-17.3204493214
 10
-5.657698927
 20
-17.334096464
 10
-5.6499615951
 20
-17.348264864
 10
-5.6431744209
 20
-17.3628943171
 10
-5.6373662442
 20
-17.3779226602
 10
-5.6325617452
 20
-17.3932860349
 10
-5.6287813391
 20
-17.4089191594
 10
-5.6260410896
 20
-17.4247556056
 10
-5.6243526404
 20
-17.4407280815
 10
-5.623723166
 20
-17.456768717
  0
LWPOLYLINE
  5
25A
100
AcDbEntity
  8
ASSI
100
AcDbPolyline
 62
250
  6
CONTINUOUS
 90
25
 70
0
 10
5.3264291272
 20
-17.2105667788
 10
5.3427072932
 20
-17.2111870678
 10
5.3589162902
 20
-17.2128508793
 10
5.3749872431
 20
-17.2155511432
 10
5.3908518636
 20
-17.2192763858
 10
5.4064427398
 20
-17.2240107777
 10
5.4216936231
 20
-17.2297342016
 10
5.4365397098
 20
-17.2364223377
 10
5.4509179161
 20
-17.2440467667
 10
5.4647671462
 20
-17.2525750912
 10
5.4780285521
 20
-17.2619710725
 10
5.4906457838
 20
-17.2721947855
 10
5.5025652281
 20
-17.2832027876
 10
5.5137362372
 20
-17.2949483039
 10
5.5241113433
 20
-17.3073814254
 10
5.5336464608
 20
-17.3204493214
 10
5.542301073
 20
-17.334096464
 10
5.5500384049
 20
-17.348264864
 10
5.5568255791
 20
-17.3628943171
 10
5.5626337558
 20
-17.3779226602
 10
5.5674382548
 20
-17.3932860349
 10
5.5712186609
 20
-17.4089191594
 10
5.5739589104
 20
-17.4247556056
 10
5.5756473596
 20
-17.4407280815
 10
5.576276834
 20
-17.456768717
  0
LINE
  5
25B
100
AcDbEntity
  8
ASSI
100
AcDbLine
 62
250
  6
CONTINUOUS
 10
-6.3209312417
 20
-15.7015998966
 11
-6.2665369633
 21
-15.7287887494
  0
LINE
  5
25C
100
AcDbEntity
  8
ASSI
100
AcDbLine
 62
250
  6
CONTINUOUS
 10
-6.0712067208
 20
-15.4515763986
 11
-6.016689715
 21
-15.4788265964
  0
LWPOLYLINE
  5
25D
100
AcDbEntity
  8
ASSI
100
AcDbPolyline
 62
250
  6
CONTINUOUS
 90
25
 70
0
 10
5.1833107434
 20
-15.4788268256
 10
5.1669762174
 20
-15.4793715539
 10
5.1507115863
 20
-15.4809835005
 10
5.134586444
 20
-15.4836557679
 10
5.1186697874
 20
-15.4873769213
 10
5.1030297213
 20
-15.4921310382
 10
5.0877331676
 20
-15.4978977759
 10
5.0728455775
 20
-15.504652459
 10
5.0584306526
 20
-15.5123661849
 10
5.044550072
 20
-15.5210059471
 10
5.0312632283
 20
-15.5305347771
 10
5.0186269734
 20
-15.540911902
 10
5.0066953755
 20
-15.5520929194
 10
4.9955194877
 20
-15.5640299871
 10
4.9851471294
 20
-15.576672028
 10
4.9756226816
 20
-15.5899649484
 10
4.9669868975
 20
-15.6038518699
 10
4.9592767275
 20
-15.6182733723
 10
4.9525251618
 20
-15.6331677485
 10
4.9467610884
 20
-15.6484712675
 10
4.9420091705
 20
-15.6641184482
 10
4.9382897399
 20
-15.6800423389
 10
4.935618711
 20
-15.6961748043
 10
4.9340075121
 20
-15.7124468161
 10
4.9334630367
 20
-15.7287887494
  0
LWPOLYLINE
  5
25E
100
AcDbEntity
  8
ASSI
100
AcDbPolyline
 62
250
  6
CONTINUOUS
 90
25
 70
0
 10
-6.0166892566
 20
-15.4788268256
 10
-6.0330237826
 20
-15.4793715539
 10
-6.0492884137
 20
-15.4809835005
 10
-6.065413556
 20
-15.4836557679
 10
-6.0813302126
 20
-15.4873769213
 10
-6.0969702787
 20
-15.4921310382
 10
-6.1122668324
 20
-15.4978977759
 10
-6.1271544225
 20
-15.504652459
 10
-6.1415693474
 20
-15.5123661849
 10
-6.155449928
 20
-15.5210059471
 10
-6.1687367717
 20
-15.5305347771
 10
-6.1813730266
 20
-15.540911902
 10
-6.1933046245
 20
-15.5520929194
 10
-6.2044805123
 20
-15.5640299871
 10
-6.2148528706
 20
-15.576672028
 10
-6.2243773184
 20
-15.5899649484
 10
-6.2330131025
 20
-15.6038518699
 10
-6.2407232725
 20
-15.6182733723
 10
-6.2474748382
 20
-15.6331677485
 10
-6.2532389116
 20
-15.6484712675
 10
-6.2579908295
 20
-15.6641184482
 10
-6.2617102601
 20
-15.6800423389
 10
-6.264381289
 20
-15.6961748043
 10
-6.2659924879
 20
-15.7124468161
 10
-6.2665369633
 20
-15.7287887494
  0
LINE
  5
25F
100
AcDbEntity
  8
ASSI
100
AcDbLine
 62
250
  6
CONTINUOUS
 10
-6.2648213974
 20
-15.7787811341
 11
-5.5658007
 21
-15.7787811341
  0
LINE
  5
260
100
AcDbEntity
  8
ASSI
100
AcDbLine
 62
250
  6
CONTINUOUS
 10
4.9351786026
 20
-15.7787811341
 11
5.6341993
 21
-15.7787811341
  0
LINE
  5
261
100
AcDbEntity
  8
ASSI
100
AcDbLine
 62
250
  6
CONTINUOUS
 10
5.3860676176
 20
-15.4788265964
 11
5.183310285
 21
-15.4788265964
  0
LINE
  5
262
100
AcDbEntity
  8
ASSI
100
AcDbLine
 62
250
  6
CONTINUOUS
 10
-5.8139323824
 20
-15.4788265964
 11
-6.016689715
 21
-15.4788265964
  0
LINE
  5
263
100
AcDbEntity
  8
ASSI
100
AcDbLine
 62
7
  6
CONTINUOUS
 10
5.4405846234
 20
-15.4515763986
 11
5.1287932792
 21
-15.4515763986
  0
LINE
  5
264
100
AcDbEntity
  8
ASSI
100
AcDbLine
 62
7
  6
CONTINUOUS
 10
-5.7594153766
 20
-15.4515763986
 11
-6.0712067208
 21
-15.4515763986
  0
LWPOLYLINE
  5
265
100
AcDbEntity
  8
ASSI
100
AcDbPolyline
 62
7
  6
CONTINUOUS
 90
28
 70
0
 10
-5.7594153766
 20
-15.4515763986
 10
-5.7449567143
 20
-15.451994625
 10
-5.7305175224
 20
-15.4532515956
 10
-5.7161466972
 20
-15.4553483578
 10
-5.7018738451
 20
-15.4582876904
 10
-5.6877684501
 20
-15.46206252
 10
-5.6739366766
 20
-15.4666445815
 10
-5.6604544552
 20
-15.472000209
 10
-5.6473333255
 20
-15.478116115
 10
-5.6345807573
 20
-15.4849869757
 10
-5.6222388444
 20
-15.4925922675
 10
-5.6103516605
 20
-15.5009070686
 10
-5.5989341079
 20
-15.5099267619
 10
-5.587999965
 20
-15.5196548926
 10
-5.5776246357
 20
-15.5300395126
 10
-5.5679061398
 20
-15.5409824712
 10
-5.5588967867
 20
-15.5524078129
 10
-5.5505926186
 20
-15.5643022458
 10
-5.5429972348
 20
-15.5766524726
 10
-5.5361356072
 20
-15.5894150352
 10
-5.5300288561
 20
-15.6025475108
 10
-5.524682443
 20
-15.6160427819
 10
-5.5201096683
 20
-15.6298907367
 10
-5.5163451276
 20
-15.6440141242
 10
-5.5134179833
 20
-15.6583027827
 10
-5.5113351081
 20
-15.6726856978
 10
-5.5100931839
 20
-15.6871344072
 10
-5.5096908557
 20
-15.7015998966
  0
LWPOLYLINE
  5
266
100
AcDbEntity
  8
ASSI
100
AcDbPolyline
 62
7
  6
CONTINUOUS
 90
28
 70
0
 10
5.4405846234
 20
-15.4515763986
 10
5.4550432857
 20
-15.451994625
 10
5.4694824776
 20
-15.4532515956
 10
5.4838533028
 20
-15.4553483578
 10
5.4981261549
 20
-15.4582876904
 10
5.5122315499
 20
-15.46206252
 10
5.5260633234
 20
-15.4666445815
 10
5.5395455448
 20
-15.472000209
 10
5.5526666745
 20
-15.478116115
 10
5.5654192427
 20
-15.4849869757
 10
5.5777611556
 20
-15.4925922675
 10
5.5896483395
 20
-15.5009070686
 10
5.6010658921
 20
-15.5099267619
 10
5.612000035
 20
-15.5196548926
 10
5.6223753643
 20
-15.5300395126
 10
5.6320938602
 20
-15.5409824712
 10
5.6411032133
 20
-15.5524078129
 10
5.6494073814
 20
-15.5643022458
 10
5.6570027652
 20
-15.5766524726
 10
5.6638643928
 20
-15.5894150352
 10
5.6699711439
 20
-15.6025475108
 10
5.675317557
 20
-15.6160427819
 10
5.6798903317
 20
-15.6298907367
 10
5.6836548724
 20
-15.6440141242
 10
5.6865820167
 20
-15.6583027827
 10
5.6886648919
 20
-15.6726856978
 10
5.6899068161
 20
-15.6871344072
 10
5.6903091443
 20
-15.7015998966
  0
LWPOLYLINE
  5
267
100
AcDbEntity
  8
ASSI
100
AcDbPolyline
 62
250
  6
CONTINUOUS
 90
25
 70
0
 10
-5.8139328408
 20
-15.4788268256
 10
-5.7975983431
 20
-15.479371552
 10
-5.781333738
 20
-15.4809834933
 10
-5.765208619
 20
-15.4836557524
 10
-5.7492919829
 20
-15.4873768949
 10
-5.7336519344
 20
-15.4921309988
 10
-5.7183553946
 20
-15.4978977221
 10
-5.7034678148
 20
-15.5046523899
 10
-5.6890528967
 20
-15.5123661
 10
-5.6751723191
 20
-15.5210058469
 10
-5.6618854748
 20
-15.5305346624
 10
-5.6492492161
 20
-15.5409117744
 10
-5.6373176113
 20
-15.5520927808
 10
-5.6261417139
 20
-15.5640298401
 10
-5.6157693437
 20
-15.5766718754
 10
-5.6062448822
 20
-15.5899647937
 10
-5.5976090832
 20
-15.6038517168
 10
-5.5898988977
 20
-15.6182732247
 10
-5.5831473164
 20
-15.6331676102
 10
-5.5773832281
 20
-15.6484711428
 10
-5.5726312965
 20
-15.6641183411
 10
-5.5689118543
 20
-15.6800422534
 10
-5.5662408164
 20
-15.6961747439
 10
-5.5646296116
 20
-15.7124467844
 10
-5.5640851341
 20
-15.7287887494
  0
LWPOLYLINE
  5
268
100
AcDbEntity
  8
ASSI
100
AcDbPolyline
 62
250
  6
CONTINUOUS
 90
25
 70
0
 10
5.3860671592
 20
-15.4788268256
 10
5.4024016569
 20
-15.479371552
 10
5.418666262
 20
-15.4809834933
 10
5.434791381
 20
-15.4836557524
 10
5.4507080171
 20
-15.4873768949
 10
5.4663480656
 20
-15.4921309988
 10
5.4816446054
 20
-15.4978977221
 10
5.4965321852
 20
-15.5046523899
 10
5.5109471033
 20
-15.5123661
 10
5.5248276809
 20
-15.5210058469
 10
5.5381145252
 20
-15.5305346624
 10
5.5507507839
 20
-15.5409117744
 10
5.5626823887
 20
-15.5520927808
 10
5.5738582861
 20
-15.5640298401
 10
5.5842306563
 20
-15.5766718754
 10
5.5937551178
 20
-15.5899647937
 10
5.6023909168
 20
-15.6038517168
 10
5.6101011023
 20
-15.6182732247
 10
5.6168526836
 20
-15.6331676102
 10
5.6226167719
 20
-15.6484711428
 10
5.6273687035
 20
-15.6641183411
 10
5.6310881457
 20
-15.6800422534
 10
5.6337591836
 20
-15.6961747439
 10
5.6353703884
 20
-15.7124467844
 10
5.6359148659
 20
-15.7287887494
  0
LINE
  5
269
100
AcDbEntity
  8
ASSI
100
AcDbLine
 62
7
  6
CONTINUOUS
 10
-10.1984341496
 20
-13.9545233481
 11
-9.8153110487
 21
-13.9545233481
  0
LINE
  5
26A
100
AcDbEntity
  8
ASSI
100
AcDbLine
 62
7
  6
CONTINUOUS
 10
9.1846889513
 20
-13.9545233481
 11
9.5678120522
 21
-13.9545233481
  0
LINE
  5
26B
100
AcDbEntity
  8
ASSI
100
AcDbLine
 62
7
  6
CONTINUOUS
 10
10.8346889513
 20
-12.9545233481
 11
9.5846889513
 21
-12.9545233481
  0
LINE
  5
26C
100
AcDbEntity
  8
ASSI
100
AcDbLine
 62
7
  6
CONTINUOUS
 10
-10.2153110487
 20
-12.9545233481
 11
-11.4653110487
 21
-12.9545233481
  0
LWPOLYLINE
  5
26D
100
AcDbEntity
  8
ASSI
100
AcDbPolyline
 62
250
  6
CONTINUOUS
 90
13
 70
0
 10
-6.2665369633
 20
-15.7287887494
 10
-6.266436219
 20
-15.7289235623
 10
-6.2663365259
 20
-15.7292205715
 10
-6.266237884
 20
-15.7296797771
 10
-6.2661399634
 20
-15.7303037637
 10
-6.2660430939
 20
-15.7310899466
 10
-6.2659482657
 20
-15.7320305721
 10
-6.2658555098
 20
-15.7331271527
 10
-6.2657647951
 20
-15.734378176
 10
-6.2656770193
 20
-15.7357713505
 10
-6.2655922114
 20
-15.737308104
 10
-6.2655103423
 20
-15.7389870087
 10
-6.2654322225
 20
-15.7407914903
  0
LINE
  5
26E
100
AcDbEntity
  8
ASSI
100
AcDbLine
 62
250
  6
CONTINUOUS
 10
4.9334630367
 20
16.0197420531
 11
4.8790687583
 21
15.9925532003
  0
LINE
  5
26F
100
AcDbEntity
  8
ASSI
100
AcDbLine
 62
250
  6
CONTINUOUS
 10
5.183310285
 20
15.7697799002
 11
5.1287932792
 21
15.7425297024
  0
LINE
  5
270
100
AcDbEntity
  8
ASSI
100
AcDbLine
 62
250
  6
CONTINUOUS
 10
4.8790687583
 20
-15.7015998966
 11
4.9334630367
 21
-15.7287887494
  0
LINE
  5
271
100
AcDbEntity
  8
ASSI
100
AcDbLine
 62
250
  6
CONTINUOUS
 10
5.1287932792
 20
-15.4515763986
 11
5.183310285
 21
-15.4788265964
  0
LINE
  5
272
100
AcDbEntity
  8
ASSI
100
AcDbLine
 62
7
  6
CONTINUOUS
 10
-11.4653110487
 20
-12.9545233481
 11
-11.4522368114
 21
-21.5158903261
  0
LINE
  5
273
100
AcDbEntity
  8
ASSI
100
AcDbLine
 62
7
  6
CONTINUOUS
 10
-10.2040565405
 20
-20.3242821165
 11
-10.2153110487
 21
-12.9545233481
  0
LINE
  5
274
100
AcDbEntity
  8
ASSI
100
AcDbLine
 62
250
  6
CONTINUOUS
 10
-10.1525138916
 20
20.2526677911
 11
-10.1489126402
 21
14.2454766519
  0
LINE
  5
275
100
AcDbEntity
  8
ASSI
100
AcDbLine
 62
7
  6
CONTINUOUS
 10
-11.4653110487
 20
-0.1545005028
 11
-11.4653110487
 21
-12.9545233481
  0
LINE
  5
276
100
AcDbEntity
  8
ASSI
100
AcDbLine
 62
7
  6
CONTINUOUS
 10
-11.4653110487
 20
0.4454538066
 11
-11.4653110487
 21
13.2454766519
  0
LINE
  5
277
100
AcDbEntity
  8
ASSI
100
AcDbLine
 62
7
  6
CONTINUOUS
 10
-10.2153110487
 20
0.0454766519
 11
-10.2153110487
 21
-12.9545233481
  0
LINE
  5
278
100
AcDbEntity
  8
ASSI
100
AcDbLine
 62
7
  6
CONTINUOUS
 10
-10.2153110487
 20
0.2454766519
 11
-10.2153110487
 21
13.2454766519
  0
LINE
  5
279
100
AcDbEntity
  8
ASSI
100
AcDbLine
 62
7
  6
CONTINUOUS
 10
-10.1984341496
 20
14.2454766519
 11
-10.1984341496
 21
10.4454766519
  0
LINE
  5
27A
100
AcDbEntity
  8
ASSI
100
AcDbLine
 62
7
  6
CONTINUOUS
 10
-10.1984341496
 20
-13.9545233481
 11
-10.1984341496
 21
-10.1545233481
  0
LINE
  5
27B
100
AcDbEntity
  8
ASSI
100
AcDbLine
 62
7
  6
CONTINUOUS
 10
-10.1612003474
 20
0.0184233617
 11
-10.1612003474
 21
-1.1305289533
  0
LINE
  5
27C
100
AcDbEntity
  8
ASSI
100
AcDbLine
 62
7
  6
CONTINUOUS
 10
-10.1612003474
 20
0.272529942
 11
-10.1612003474
 21
1.421482257
  0
LINE
  5
27D
100
AcDbEntity
  8
ASSI
100
AcDbLine
 62
250
  6
CONTINUOUS
 10
-10.1472881864
 20
10.4454766519
 11
-10.1454598045
 21
1.4529729374
  0
LINE
  5
27E
100
AcDbEntity
  8
ASSI
100
AcDbLine
 62
250
  6
CONTINUOUS
 10
-10.1454598045
 20
-1.1620196337
 11
-10.1472881864
 21
-10.1545233481
  0
LINE
  5
27F
100
AcDbEntity
  8
ASSI
100
AcDbLine
 62
250
  6
CONTINUOUS
 10
-10.1489126402
 20
-13.9545233481
 11
-10.1525138916
 21
-19.9617144873
  0
LINE
  5
280
100
AcDbEntity
  8
ASSI
100
AcDbLine
 62
7
  6
CONTINUOUS
 10
-11.4653110487
 20
13.2454766519
 11
-11.4522368114
 21
21.8068436298
  0
LINE
  5
281
100
AcDbEntity
  8
ASSI
100
AcDbLine
 62
7
  6
CONTINUOUS
 10
-10.2040565405
 20
20.6152354203
 11
-10.2153110487
 21
13.2454766519
  0
LWPOLYLINE
  5
282
100
AcDbEntity
  8
ASSI
100
AcDbPolyline
 62
250
  6
CONTINUOUS
 90
25
 70
0
 10
-10.1525138908
 20
20.2526677853
 10
-10.1520643228
 20
20.2655567312
 10
-10.1507703302
 20
20.2784093399
 10
-10.148633832
 20
20.2911708722
 10
-10.1456591825
 20
20.3037909584
 10
-10.1418561586
 20
20.3162105655
 10
-10.1372428011
 20
20.3283630892
 10
-10.1318391479
 20
20.3401938957
 10
-10.1256666068
 20
20.3516545354
 10
-10.1187539243
 20
20.3626908687
 10
-10.1111325204
 20
20.3732536001
 10
-10.102833747
 20
20.3833000646
 10
-10.0938913523
 20
20.3927892991
 10
-10.0843421279
 20
20.401681558
 10
-10.0742277562
 20
20.4099373666
 10
-10.0635931006
 20
20.417519955
 10
-10.0524845599
 20
20.4243964712
 10
-10.0409489317
 20
20.4305381673
 10
-10.0290348992
 20
20.4359191455
 10
-10.0167930504
 20
20.4405164575
 10
-10.0042760707
 20
20.4443102204
 10
-9.9915378437
 20
20.4472840814
 10
-9.9786329863
 20
20.4494253162
 10
-9.9656165938
 20
20.4507248093
 10
-9.9525443517
 20
20.4511770156
  0
LINE
  5
283
100
AcDbEntity
  8
ASSI
100
AcDbLine
 62
7
  6
CONTINUOUS
 10
-6.3094241259
 20
20.4511770156
 11
-6.2354434227
 21
20.7112998105
  0
LINE
  5
284
100
AcDbEntity
  8
ASSI
100
AcDbLine
 62
7
  6
CONTINUOUS
 10
-10.1984341496
 20
-10.1545233481
 11
-9.8153110487
 21
-10.1545233481
  0
LINE
  5
285
100
AcDbEntity
  8
ASSI
100
AcDbLine
 62
7
  6
CONTINUOUS
 10
9.1846889513
 20
-10.1545233481
 11
9.5678120522
 21
-10.1545233481
  0
LINE
  5
286
100
AcDbEntity
  8
ASSI
100
AcDbLine
 62
7
  6
CONTINUOUS
 10
-6.2354434227
 20
-20.4203465068
 11
-6.3094241259
 21
-20.1602237119
  0
LINE
  5
287
100
AcDbEntity
  8
ASSI
100
AcDbLine
 62
7
  6
CONTINUOUS
 10
-8.1237360417
 20
-22.0138360539
 11
-8.1990295255
 21
-20.5232184789
  0
LINE
  5
288
100
AcDbEntity
  8
ASSI
100
AcDbLine
 62
250
  6
CONTINUOUS
 10
-9.9525443517
 20
20.4511770156
 11
-9.9489403066
 21
14.2454766519
  0
LINE
  5
289
100
AcDbEntity
  8
ASSI
100
AcDbLine
 62
250
  6
CONTINUOUS
 10
-9.9473171564
 20
10.4454766519
 11
-9.9454905563
 21
1.4598345949
  0
LINE
  5
28A
100
AcDbEntity
  8
ASSI
100
AcDbLine
 62
7
  6
CONTINUOUS
 10
-9.8153110487
 20
14.2454766519
 11
-9.8153110487
 21
10.4454766519
  0
LINE
  5
28B
100
AcDbEntity
  8
ASSI
100
AcDbLine
 62
7
  6
CONTINUOUS
 10
-9.8153110487
 20
-13.9545233481
 11
-9.8153110487
 21
-10.1545233481
  0
LINE
  5
28C
100
AcDbEntity
  8
ASSI
100
AcDbLine
 62
250
  6
CONTINUOUS
 10
-9.9454905563
 20
-1.1688812912
 11
-9.9473171564
 21
-10.1545233481
  0
LINE
  5
28D
100
AcDbEntity
  8
ASSI
100
AcDbLine
 62
250
  6
CONTINUOUS
 10
-9.9489403066
 20
-13.9545233481
 11
-9.9525443517
 21
-20.1602237119
  0
LINE
  5
28E
100
AcDbEntity
  8
ASSI
100
AcDbLine
 62
7
  6
CONTINUOUS
 10
-8.1237360417
 20
22.3047893576
 11
-8.1990295255
 21
20.8141717826
  0
LINE
  5
28F
100
AcDbEntity
  8
ASSI
100
AcDbLine
 62
250
  6
CONTINUOUS
 10
-6.2068989314
 20
17.7477220208
 11
-6.2648213974
 21
17.4552515597
  0
LINE
  5
290
100
AcDbEntity
  8
ASSI
100
AcDbLine
 62
250
  6
CONTINUOUS
 10
-5.9570512246
 20
17.5015200825
 11
-6.0077594803
 21
17.2454766519
  0
LINE
  5
291
100
AcDbEntity
  8
ASSI
100
AcDbLine
 62
7
  6
CONTINUOUS
 10
-10.1454598045
 20
1.4529729374
 11
-10.1612003474
 21
1.421482257
  0
LINE
  5
292
100
AcDbEntity
  8
ASSI
100
AcDbLine
 62
250
  6
CONTINUOUS
 10
-7.4071919075
 20
6.3034130412
 11
-7.3520619722
 21
6.3585429764
  0
LINE
  5
293
100
AcDbEntity
  8
ASSI
100
AcDbLine
 62
250
  6
CONTINUOUS
 10
-7.1073751869
 20
6.0035952655
 11
-7.0521174247
 21
6.0588530277
  0
LINE
  5
294
100
AcDbEntity
  8
ASSI
100
AcDbLine
 62
250
  6
CONTINUOUS
 10
-7.3520619722
 20
-6.0675896727
 11
-7.4071919075
 21
-6.0124597375
  0
LINE
  5
295
100
AcDbEntity
  8
ASSI
100
AcDbLine
 62
250
  6
CONTINUOUS
 10
-7.0521174247
 20
-5.767899724
 11
-7.1073751869
 21
-5.7126419618
  0
LWPOLYLINE
  5
296
100
AcDbEntity
  8
ASSI
100
AcDbPolyline
 62
250
  6
CONTINUOUS
 90
13
 70
0
 10
-7.1073751869
 20
-5.7126419618
 10
-7.1077333042
 20
-5.7120170296
 10
-7.1080880821
 20
-5.7108779504
 10
-7.1084395206
 20
-5.709224724
 10
-7.1087885453
 20
-5.707050351
 10
-7.1091342305
 20
-5.704361831
 10
-7.1094737996
 20
-5.7011801621
 10
-7.1098071861
 20
-5.697501438
 10
-7.1101344566
 20
-5.6933295651
 10
-7.1104530334
 20
-5.6886972602
 10
-7.1107628423
 20
-5.6836009489
 10
-7.1110639575
 20
-5.6780442057
 10
-7.1113540246
 20
-5.6720704704
  0
LINE
  5
297
100
AcDbEntity
  8
ASSI
100
AcDbLine
 62
7
  6
CONTINUOUS
 10
-10.1612003474
 20
-1.1305289533
 11
-10.1454598045
 21
-1.1620196337
  0
LWPOLYLINE
  5
298
100
AcDbEntity
  8
ASSI
100
AcDbPolyline
 62
250
  6
CONTINUOUS
 90
8
 70
0
 10
-7.4071922254
 20
-6.0124597372
 10
-7.407550636
 20
-6.0109128612
 10
-7.4079056108
 20
-6.0080605832
 10
-7.4082571499
 20
-6.0039103067
 10
-7.4086061346
 20
-5.9984728588
 10
-7.4089516835
 20
-5.9917624069
 10
-7.4092911527
 20
-5.9837963776
 10
-7.4096245382
 20
-5.9745953692
  0
LINE
  5
299
100
AcDbEntity
  8
ASSI
100
AcDbLine
 62
250
  6
CONTINUOUS
 10
-6.2648213974
 20
-17.1642982559
 11
-6.2068989314
 21
-17.456768717
  0
LINE
  5
29A
100
AcDbEntity
  8
ASSI
100
AcDbLine
 62
250
  6
CONTINUOUS
 10
-6.0077594803
 20
-16.9545233481
 11
-5.9570512246
 21
-17.2105667788
  0
LWPOLYLINE
  5
29B
100
AcDbEntity
  8
ASSI
100
AcDbPolyline
 62
250
  6
CONTINUOUS
 90
10
 70
0
 10
-6.2068989314
 20
-17.456768717
 10
-6.2067990555
 20
-17.4573607213
 10
-6.2067011556
 20
-17.4581116429
 10
-6.2066052315
 20
-17.4590214817
 10
-6.2065109605
 20
-17.4600944322
 10
-6.2064186654
 20
-17.4613262999
 10
-6.2063293144
 20
-17.462704502
 10
-6.2062429487
 20
-17.4642304472
 10
-6.2061595271
 20
-17.4659027268
 10
-6.2060798939
 20
-17.4677045306
  0
LWPOLYLINE
  5
29C
100
AcDbEntity
  8
ASSI
100
AcDbPolyline
 62
7
  6
CONTINUOUS
 90
31
 70
0
 10
-5.5658007
 20
-17.1642982559
 10
-5.5664269818
 20
-17.1550804721
 10
-5.5675449395
 20
-17.1457982083
 10
-5.569164971
 20
-17.1364736582
 10
-5.5712971346
 20
-17.1271340463
 10
-5.5739491093
 20
-17.1177994249
 10
-5.5771263091
 20
-17.1084826756
 10
-5.5808341002
 20
-17.0992122364
 10
-5.5850779572
 20
-17.0900123032
 10
-5.5898628901
 20
-17.0808910937
 10
-5.5951911018
 20
-17.0718797204
 10
-5.6010651278
 20
-17.063005341
 10
-5.607491417
 20
-17.0542728853
 10
-5.6144689667
 20
-17.0457168693
 10
-5.6219973597
 20
-17.0373677461
 10
-5.6300859825
 20
-17.0292285649
 10
-5.6387304322
 20
-17.0213380263
 10
-5.647926646
 20
-17.0137309617
 10
-5.6576871039
 20
-17.0064109701
 10
-5.6680032929
 20
-16.9994218905
 10
-5.6788658082
 20
-16.9928043135
 10
-5.6902878849
 20
-16.9865656882
 10
-5.7022561285
 20
-16.9807553869
 10
-5.7147519839
 20
-16.975421424
 10
-5.7277809534
 20
-16.9705794212
 10
-5.7413225167
 20
-16.9662837655
 10
-5.7553436478
 20
-16.962589676
 10
-5.7698273147
 20
-16.959522744
 10
-5.7847401771
 20
-16.9571313076
 10
-5.8000310753
 20
-16.9554817789
 10
-5.8156484067
 20
-16.9546289591
  0
LINE
  5
29D
100
AcDbEntity
  8
ASSI
100
AcDbLine
 62
250
  6
CONTINUOUS
 10
-7.5442510993
 20
-3.085666876
 11
-7.5434271927
 21
-3.1009773119
  0
LINE
  5
29E
100
AcDbEntity
  8
ASSI
100
AcDbLine
 62
250
  6
CONTINUOUS
 10
-7.3863709981
 20
3.3766201797
 11
-7.3871949047
 21
3.3919306156
  0
LINE
  5
29F
100
AcDbEntity
  8
ASSI
100
AcDbLine
 62
250
  6
CONTINUOUS
 10
-7.5457924865
 20
-3.0528325604
 11
-7.5442510993
 21
-3.085666876
  0
LINE
  5
2A0
100
AcDbEntity
  8
ASSI
100
AcDbLine
 62
250
  6
CONTINUOUS
 10
-7.3848296109
 20
3.3437858641
 11
-7.3863709981
 21
3.3766201797
  0
LINE
  5
2A1
100
AcDbEntity
  8
ASSI
100
AcDbLine
 62
250
  6
CONTINUOUS
 10
-7.8192680728
 20
5.9630237742
 11
-7.8187212506
 21
5.94981864
  0
LINE
  5
2A2
100
AcDbEntity
  8
ASSI
100
AcDbLine
 62
250
  6
CONTINUOUS
 10
-7.1113540246
 20
-5.6720704704
 11
-7.1119008468
 21
-5.6588653363
  0
LINE
  5
2A3
100
AcDbEntity
  8
ASSI
100
AcDbLine
 62
250
  6
CONTINUOUS
 10
-7.5471979544
 20
-3.0171067483
 11
-7.5457924865
 21
-3.0528325604
  0
LINE
  5
2A4
100
AcDbEntity
  8
ASSI
100
AcDbLine
 62
250
  6
CONTINUOUS
 10
-7.383424143
 20
3.308060052
 11
-7.3848296109
 21
3.3437858641
  0
LINE
  5
2A5
100
AcDbEntity
  8
ASSI
100
AcDbLine
 62
250
  6
CONTINUOUS
 10
-7.5434273193
 20
-3.100977312
 11
-7.5187348632
 21
-3.8080767387
  0
LINE
  5
2A6
100
AcDbEntity
  8
ASSI
100
AcDbLine
 62
250
  6
CONTINUOUS
 10
-7.3871947781
 20
3.3919306157
 11
-7.4118872342
 21
4.0990300425
  0
LWPOLYLINE
  5
2A7
100
AcDbEntity
  8
ASSI
100
AcDbPolyline
 62
250
  6
CONTINUOUS
 90
3
 70
0
 10
-6.2060798939
 20
-17.4677045306
 10
-6.2059320667
 20
-17.4716994765
 10
-6.2058645685
 20
-17.4738702781
  0
LWPOLYLINE
  5
2A8
100
AcDbEntity
  8
ASSI
100
AcDbPolyline
 62
250
  6
CONTINUOUS
 90
3
 70
0
 10
-6.2654322225
 20
-15.7407914903
 10
-6.2652873038
 20
-15.7447797772
 10
-6.26522117
 20
-15.746941822
  0
LINE
  5
2A9
100
AcDbEntity
  8
ASSI
100
AcDbLine
 62
250
  6
CONTINUOUS
 10
-7.8187212506
 20
5.94981864
 11
-7.8182250358
 21
5.9351031009
  0
LINE
  5
2AA
100
AcDbEntity
  8
ASSI
100
AcDbLine
 62
250
  6
CONTINUOUS
 10
-7.1119008468
 20
-5.6588653363
 11
-7.1123970616
 21
-5.6441497972
  0
LINE
  5
2AB
100
AcDbEntity
  8
ASSI
100
AcDbLine
 62
250
  6
CONTINUOUS
 10
-7.5484336989
 20
-2.978933136
 11
-7.5471979544
 21
-3.0171067483
  0
LINE
  5
2AC
100
AcDbEntity
  8
ASSI
100
AcDbLine
 62
250
  6
CONTINUOUS
 10
-7.3821883985
 20
3.2698864397
 11
-7.383424143
 21
3.308060052
  0
LINE
  5
2AD
100
AcDbEntity
  8
ASSI
100
AcDbLine
 62
250
  6
CONTINUOUS
 10
-7.8448563206
 20
-3.2629120574
 11
-7.8181401966
 21
-4.0330829416
  0
LINE
  5
2AE
100
AcDbEntity
  8
ASSI
100
AcDbLine
 62
250
  6
CONTINUOUS
 10
-7.0857657768
 20
3.5538653611
 11
-7.1124819008
 21
4.3240362453
  0
LINE
  5
2AF
100
AcDbEntity
  8
ASSI
100
AcDbLine
 62
250
  6
CONTINUOUS
 10
-7.4096245382
 20
-5.9745953692
 11
-7.4102704383
 21
-5.9525885395
  0
LINE
  5
2B0
100
AcDbEntity
  8
ASSI
100
AcDbLine
 62
250
  6
CONTINUOUS
 10
-7.5209975592
 20
6.2655486729
 11
-7.5203516591
 21
6.2435418433
  0
LINE
  5
2B1
100
AcDbEntity
  8
ASSI
100
AcDbLine
 62
250
  6
CONTINUOUS
 10
-7.8182250358
 20
5.9351031009
 11
-7.8177833201
 21
5.9189926551
  0
LINE
  5
2B2
100
AcDbEntity
  8
ASSI
100
AcDbLine
 62
250
  6
CONTINUOUS
 10
-7.1123970616
 20
-5.6441497972
 11
-7.1128387773
 21
-5.6280393514
  0
LINE
  5
2B3
100
AcDbEntity
  8
ASSI
100
AcDbLine
 62
250
  6
CONTINUOUS
 10
-7.8463295488
 20
-3.2080834681
 11
-7.8448563206
 21
-3.2629120574
  0
LINE
  5
2B4
100
AcDbEntity
  8
ASSI
100
AcDbLine
 62
250
  6
CONTINUOUS
 10
-7.0842925486
 20
3.4990367718
 11
-7.0857657768
 21
3.5538653611
  0
LINE
  5
2B5
100
AcDbEntity
  8
ASSI
100
AcDbLine
 62
250
  6
CONTINUOUS
 10
-7.8181401966
 20
-4.0330829416
 11
-7.8177699329
 21
-4.0469021191
  0
LINE
  5
2B6
100
AcDbEntity
  8
ASSI
100
AcDbLine
 62
250
  6
CONTINUOUS
 10
-7.1124819008
 20
4.3240362453
 11
-7.1128521645
 21
4.3378554228
  0
LINE
  5
2B7
100
AcDbEntity
  8
ASSI
100
AcDbLine
 62
250
  6
CONTINUOUS
 10
-7.5494844874
 20
-2.9387141717
 11
-7.5484336989
 21
-2.978933136
  0
LINE
  5
2B8
100
AcDbEntity
  8
ASSI
100
AcDbLine
 62
250
  6
CONTINUOUS
 10
-7.38113761
 20
3.2296674754
 11
-7.3821883985
 21
3.2698864397
  0
LINE
  5
2B9
100
AcDbEntity
  8
ASSI
100
AcDbLine
 62
250
  6
CONTINUOUS
 10
-7.4102704383
 20
-5.9525885395
 11
-7.4108812913
 21
-5.9259744672
  0
LINE
  5
2BA
100
AcDbEntity
  8
ASSI
100
AcDbLine
 62
250
  6
CONTINUOUS
 10
-7.5203516591
 20
6.2435418433
 11
-7.5197408061
 21
6.2169277709
  0
LINE
  5
2BB
100
AcDbEntity
  8
ASSI
100
AcDbLine
 62
250
  6
CONTINUOUS
 10
-7.8177833201
 20
5.9189926551
 11
-7.8174016009
 21
5.9016716536
  0
LINE
  5
2BC
100
AcDbEntity
  8
ASSI
100
AcDbLine
 62
250
  6
CONTINUOUS
 10
-7.1128387773
 20
-5.6280393514
 11
-7.1132204965
 21
-5.6107183499
  0
LINE
  5
2BD
100
AcDbEntity
  8
ASSI
100
AcDbLine
 62
250
  6
CONTINUOUS
 10
-7.8482506952
 20
-3.1178693356
 11
-7.8463295488
 21
-3.2080834681
  0
LINE
  5
2BE
100
AcDbEntity
  8
ASSI
100
AcDbLine
 62
250
  6
CONTINUOUS
 10
-7.0823714022
 20
3.4088226394
 11
-7.0842925486
 21
3.4990367718
  0
LINE
  5
2BF
100
AcDbEntity
  8
ASSI
100
AcDbLine
 62
250
  6
CONTINUOUS
 10
-7.8177699329
 20
-4.0469021191
 11
-7.8172958262
 21
-4.0692723837
  0
LINE
  5
2C0
100
AcDbEntity
  8
ASSI
100
AcDbLine
 62
250
  6
CONTINUOUS
 10
-7.1128521645
 20
4.3378554228
 11
-7.1133262712
 21
4.3602256874
  0
LINE
  5
2C1
100
AcDbEntity
  8
ASSI
100
AcDbLine
 62
250
  6
CONTINUOUS
 10
-7.5503302337
 20
-2.8969916316
 11
-7.5494844874
 21
-2.9387141717
  0
LINE
  5
2C2
100
AcDbEntity
  8
ASSI
100
AcDbLine
 62
250
  6
CONTINUOUS
 10
-7.3802918637
 20
3.1879449353
 11
-7.38113761
 21
3.2296674754
  0
LINE
  5
2C3
100
AcDbEntity
  8
ASSI
100
AcDbLine
 62
250
  6
CONTINUOUS
 10
-7.4108812913
 20
-5.9259744672
 11
-7.4117180971
 21
-5.8780358803
  0
LINE
  5
2C4
100
AcDbEntity
  8
ASSI
100
AcDbLine
 62
250
  6
CONTINUOUS
 10
-7.5197408061
 20
6.2169277709
 11
-7.5189040003
 21
6.168989184
  0
LINE
  5
2C5
100
AcDbEntity
  8
ASSI
100
AcDbLine
 62
250
  6
CONTINUOUS
 10
-7.8174016009
 20
5.9016716536
 11
-7.8169499162
 21
5.873838331
  0
LINE
  5
2C6
100
AcDbEntity
  8
ASSI
100
AcDbLine
 62
250
  6
CONTINUOUS
 10
-7.1132204965
 20
-5.6107183499
 11
-7.1136721812
 21
-5.5828850273
  0
LINE
  5
2C7
100
AcDbEntity
  8
ASSI
100
AcDbLine
 62
250
  6
CONTINUOUS
 10
-7.8172958262
 20
-4.0692723837
 11
-7.8169277368
 21
-4.0932262045
  0
LINE
  5
2C8
100
AcDbEntity
  8
ASSI
100
AcDbLine
 62
250
  6
CONTINUOUS
 10
-7.1133262712
 20
4.3602256874
 11
-7.1136943606
 21
4.3841795082
  0
LINE
  5
2C9
100
AcDbEntity
  8
ASSI
100
AcDbLine
 62
250
  6
CONTINUOUS
 10
-7.8497500003
 20
-3.0203963312
 11
-7.8482506952
 21
-3.1178693356
  0
LINE
  5
2CA
100
AcDbEntity
  8
ASSI
100
AcDbLine
 62
250
  6
CONTINUOUS
 10
-7.5509631305
 20
-2.8543561326
 11
-7.5503302337
 21
-2.8969916316
  0
LINE
  5
2CB
100
AcDbEntity
  8
ASSI
100
AcDbLine
 62
250
  6
CONTINUOUS
 10
-7.3796589669
 20
3.1453094364
 11
-7.3802918637
 21
3.1879449353
  0
LINE
  5
2CC
100
AcDbEntity
  8
ASSI
100
AcDbLine
 62
250
  6
CONTINUOUS
 10
-7.0808720971
 20
3.3113496349
 11
-7.0823714022
 21
3.4088226394
  0
LINE
  5
2CD
100
AcDbEntity
  8
ASSI
100
AcDbLine
 62
250
  6
CONTINUOUS
 10
-7.4117180971
 20
-5.8780358803
 11
-7.4126559698
 21
-5.8009639569
  0
LINE
  5
2CE
100
AcDbEntity
  8
ASSI
100
AcDbLine
 62
250
  6
CONTINUOUS
 10
-7.5189040003
 20
6.168989184
 11
-7.5179661276
 21
6.0919172606
  0
LINE
  5
2CF
100
AcDbEntity
  8
ASSI
100
AcDbLine
 62
250
  6
CONTINUOUS
 10
-7.5187348632
 20
-3.8080767387
 11
-7.5177830633
 21
-3.8929748811
  0
LINE
  5
2D0
100
AcDbEntity
  8
ASSI
100
AcDbLine
 62
250
  6
CONTINUOUS
 10
-7.4118872342
 20
4.0990300425
 11
-7.4128390341
 21
4.1839281848
  0
LINE
  5
2D1
100
AcDbEntity
  8
ASSI
100
AcDbLine
 62
250
  6
CONTINUOUS
 10
-7.8169277368
 20
-4.0932262045
 11
-7.8166720411
 21
-4.1183490261
  0
LINE
  5
2D2
100
AcDbEntity
  8
ASSI
100
AcDbLine
 62
250
  6
CONTINUOUS
 10
-7.1136943606
 20
4.3841795082
 11
-7.1139500563
 21
4.4093023298
  0
LINE
  5
2D3
100
AcDbEntity
  8
ASSI
100
AcDbLine
 62
250
  6
CONTINUOUS
 10
-7.8507805432
 20
-2.9185172064
 11
-7.8497500003
 21
-3.0203963312
  0
LINE
  5
2D4
100
AcDbEntity
  8
ASSI
100
AcDbLine
 62
250
  6
CONTINUOUS
 10
-7.5513808303
 20
-2.8113328629
 11
-7.5509631305
 21
-2.8543561326
  0
LINE
  5
2D5
100
AcDbEntity
  8
ASSI
100
AcDbLine
 62
250
  6
CONTINUOUS
 10
-7.3792412671
 20
3.1022861666
 11
-7.3796589669
 21
3.1453094364
  0
LINE
  5
2D6
100
AcDbEntity
  8
ASSI
100
AcDbLine
 62
250
  6
CONTINUOUS
 10
-7.0798415542
 20
3.2094705101
 11
-7.0808720971
 21
3.3113496349
  0
LINE
  5
2D7
100
AcDbEntity
  8
ASSI
100
AcDbLine
 62
250
  6
CONTINUOUS
 10
-7.8169499162
 20
5.873838331
 11
-7.8166522802
 21
5.8443554417
  0
LINE
  5
2D8
100
AcDbEntity
  8
ASSI
100
AcDbLine
 62
250
  6
CONTINUOUS
 10
-7.1136721812
 20
-5.5828850273
 11
-7.1139698172
 21
-5.553402138
  0
LINE
  5
2D9
100
AcDbEntity
  8
ASSI
100
AcDbLine
 62
250
  6
CONTINUOUS
 10
-7.5179661276
 20
6.0919172606
 11
-7.5171327334
 21
5.9790675618
  0
LINE
  5
2DA
100
AcDbEntity
  8
ASSI
100
AcDbLine
 62
250
  6
CONTINUOUS
 10
-7.4126559698
 20
-5.8009639569
 11
-7.413489364
 21
-5.6881142581
  0
LINE
  5
2DB
100
AcDbEntity
  8
ASSI
100
AcDbLine
 62
250
  6
CONTINUOUS
 10
-7.5177830633
 20
-3.8929748811
 11
-7.5170124118
 21
-4.0112860486
  0
LINE
  5
2DC
100
AcDbEntity
  8
ASSI
100
AcDbLine
 62
250
  6
CONTINUOUS
 10
-7.4128390341
 20
4.1839281848
 11
-7.4136096856
 21
4.3022393524
  0
LINE
  5
2DD
100
AcDbEntity
  8
ASSI
100
AcDbLine
 62
250
  6
CONTINUOUS
 10
-7.8166720411
 20
-4.1183490261
 11
-7.8165331253
 21
-4.1441874132
  0
LINE
  5
2DE
100
AcDbEntity
  8
ASSI
100
AcDbLine
 62
250
  6
CONTINUOUS
 10
-7.1139500563
 20
4.4093023298
 11
-7.1140889721
 21
4.4351407169
  0
LINE
  5
2DF
100
AcDbEntity
  8
ASSI
100
AcDbLine
 62
250
  6
CONTINUOUS
 10
-7.8513276372
 20
-2.815479295
 11
-7.8507805432
 21
-2.9185172064
  0
LINE
  5
2E0
100
AcDbEntity
  8
ASSI
100
AcDbLine
 62
250
  6
CONTINUOUS
 10
-7.0792944602
 20
3.1064325988
 11
-7.0798415542
 21
3.2094705101
  0
LINE
  5
2E1
100
AcDbEntity
  8
ASSI
100
AcDbLine
 62
250
  6
CONTINUOUS
 10
-7.5515867061
 20
-2.7685893799
 11
-7.5513808303
 21
-2.8113328629
  0
LINE
  5
2E2
100
AcDbEntity
  8
ASSI
100
AcDbLine
 62
250
  6
CONTINUOUS
 10
-7.3790353913
 20
3.0595426837
 11
-7.3792412671
 21
3.1022861666
  0
LINE
  5
2E3
100
AcDbEntity
  8
ASSI
100
AcDbLine
 62
250
  6
CONTINUOUS
 10
-7.8166522802
 20
5.8443554417
 11
-7.8165158078
 21
5.8139862291
  0
LINE
  5
2E4
100
AcDbEntity
  8
ASSI
100
AcDbLine
 62
250
  6
CONTINUOUS
 10
-7.1139698172
 20
-5.553402138
 11
-7.1141062896
 21
-5.5230329254
  0
LINE
  5
2E5
100
AcDbEntity
  8
ASSI
100
AcDbLine
 62
250
  6
CONTINUOUS
 10
-7.5171327334
 20
5.9790675618
 11
-7.5166985754
 21
5.8292847785
  0
LINE
  5
2E6
100
AcDbEntity
  8
ASSI
100
AcDbLine
 62
250
  6
CONTINUOUS
 10
-7.413489364
 20
-5.6881142581
 11
-7.413923522
 21
-5.5383314748
  0
LINE
  5
2E7
100
AcDbEntity
  8
ASSI
100
AcDbLine
 62
250
  6
CONTINUOUS
 10
-7.8514272695
 20
-1.140639569
 11
-7.8513276372
 21
-2.815479295
  0
LINE
  5
2E8
100
AcDbEntity
  8
ASSI
100
AcDbLine
 62
250
  6
CONTINUOUS
 10
-7.7730460756
 20
-21.9820028959
 11
-7.7730460756
 21
-20.4326249629
  0
LINE
  5
2E9
100
AcDbEntity
  8
ASSI
100
AcDbLine
 62
250
  6
CONTINUOUS
 10
-7.7730460756
 20
20.7235782666
 11
-7.7730460756
 21
22.2729561996
  0
LINE
  5
2EA
100
AcDbEntity
  8
ASSI
100
AcDbLine
 62
250
  6
CONTINUOUS
 10
-7.5998409949
 20
-21.9767621179
 11
-7.5998409949
 21
-20.4203465068
  0
LINE
  5
2EB
100
AcDbEntity
  8
ASSI
100
AcDbLine
 62
250
  6
CONTINUOUS
 10
-7.5998409949
 20
20.7112998105
 11
-7.5998409949
 21
22.2677154217
  0
LINE
  5
2EC
100
AcDbEntity
  8
ASSI
100
AcDbLine
 62
250
  6
CONTINUOUS
 10
-7.5516100214
 20
-1.1305289533
 11
-7.5515867061
 21
-2.7685893799
  0
LINE
  5
2ED
100
AcDbEntity
  8
ASSI
100
AcDbLine
 62
250
  6
CONTINUOUS
 10
-7.5170124118
 20
-4.0112860486
 11
-7.5166892519
 21
-5.5127483359
  0
LINE
  5
2EE
100
AcDbEntity
  8
ASSI
100
AcDbLine
 62
250
  6
CONTINUOUS
 10
-7.4136096856
 20
4.3022393524
 11
-7.4139328455
 21
5.8037016396
  0
LINE
  5
2EF
100
AcDbEntity
  8
ASSI
100
AcDbLine
 62
250
  6
CONTINUOUS
 10
-7.379012076
 20
1.421482257
 11
-7.3790353913
 21
3.0595426837
  0
LINE
  5
2F0
100
AcDbEntity
  8
ASSI
100
AcDbLine
 62
250
  6
CONTINUOUS
 10
-7.0791948279
 20
1.4315928727
 11
-7.0792944602
 21
3.1064325988
  0
LINE
  5
2F1
100
AcDbEntity
  8
ASSI
100
AcDbLine
 62
250
  6
CONTINUOUS
 10
-7.8165331253
 20
-4.1441874132
 11
-7.8165158078
 21
-5.5230329255
  0
LINE
  5
2F2
100
AcDbEntity
  8
ASSI
100
AcDbLine
 62
250
  6
CONTINUOUS
 10
-7.1140889721
 20
4.4351407169
 11
-7.1141062896
 21
5.8139862292
  0
LINE
  5
2F3
100
AcDbEntity
  8
ASSI
100
AcDbLine
 62
250
  6
CONTINUOUS
 10
-7.8165158078
 20
5.8139862291
 11
-7.8165331253
 21
4.4351407168
  0
LINE
  5
2F4
100
AcDbEntity
  8
ASSI
100
AcDbLine
 62
250
  6
CONTINUOUS
 10
-7.1141062896
 20
-5.5230329254
 11
-7.1140889721
 21
-4.1441874131
  0
LINE
  5
2F5
100
AcDbEntity
  8
ASSI
100
AcDbLine
 62
250
  6
CONTINUOUS
 10
-7.5166985754
 20
5.8292847785
 11
-7.5169271589
 21
4.3231847678
  0
LINE
  5
2F6
100
AcDbEntity
  8
ASSI
100
AcDbLine
 62
250
  6
CONTINUOUS
 10
-7.413923522
 20
-5.5383314748
 11
-7.4136949385
 21
-4.0322314641
  0
LINE
  5
2F7
100
AcDbEntity
  8
ASSI
100
AcDbLine
 62
250
  6
CONTINUOUS
 10
-7.5515102961
 20
3.0808652268
 11
-7.5516100214
 21
1.421482257
  0
LINE
  5
2F8
100
AcDbEntity
  8
ASSI
100
AcDbLine
 62
250
  6
CONTINUOUS
 10
-7.3791118013
 20
-2.7899119231
 11
-7.379012076
 21
-1.1305289533
  0
LINE
  5
2F9
100
AcDbEntity
  8
ASSI
100
AcDbLine
 62
250
  6
CONTINUOUS
 10
-7.8511982115
 20
3.1406056353
 11
-7.8514272695
 21
1.4315928727
  0
LINE
  5
2FA
100
AcDbEntity
  8
ASSI
100
AcDbLine
 62
250
  6
CONTINUOUS
 10
-7.0794238859
 20
-2.8496523316
 11
-7.0791948279
 21
-1.140639569
  0
LINE
  5
2FB
100
AcDbEntity
  8
ASSI
100
AcDbLine
 62
250
  6
CONTINUOUS
 10
-7.5166892354
 20
-5.5127483359
 11
-7.5170159951
 21
-5.6639215989
  0
LINE
  5
2FC
100
AcDbEntity
  8
ASSI
100
AcDbLine
 62
250
  6
CONTINUOUS
 10
-7.413932862
 20
5.8037016396
 11
-7.4136061023
 21
5.9548749027
  0
LINE
  5
2FD
100
AcDbEntity
  8
ASSI
100
AcDbLine
 62
250
  6
CONTINUOUS
 10
-7.8165158078
 20
-5.5230329255
 11
-7.8166522802
 21
-5.5534021381
  0
LINE
  5
2FE
100
AcDbEntity
  8
ASSI
100
AcDbLine
 62
250
  6
CONTINUOUS
 10
-7.1141062896
 20
5.8139862292
 11
-7.1139698172
 21
5.8443554419
  0
LINE
  5
2FF
100
AcDbEntity
  8
ASSI
100
AcDbLine
 62
250
  6
CONTINUOUS
 10
-7.8165331253
 20
4.4351407168
 11
-7.8166720411
 21
4.4093023297
  0
LINE
  5
300
100
AcDbEntity
  8
ASSI
100
AcDbLine
 62
250
  6
CONTINUOUS
 10
-7.1140889721
 20
-4.1441874131
 11
-7.1139500563
 21
-4.118349026
  0
LINE
  5
301
100
AcDbEntity
  8
ASSI
100
AcDbLine
 62
250
  6
CONTINUOUS
 10
-7.5169271589
 20
4.3231847678
 11
-7.5176250539
 21
4.2025792176
  0
LINE
  5
302
100
AcDbEntity
  8
ASSI
100
AcDbLine
 62
250
  6
CONTINUOUS
 10
-7.4136949385
 20
-4.0322314641
 11
-7.4129970435
 21
-3.9116259138
  0
LINE
  5
303
100
AcDbEntity
  8
ASSI
100
AcDbLine
 62
250
  6
CONTINUOUS
 10
-7.5170159951
 20
-5.6639215989
 11
-7.517767813
 21
-5.7796762918
  0
LINE
  5
304
100
AcDbEntity
  8
ASSI
100
AcDbLine
 62
250
  6
CONTINUOUS
 10
-7.4136061023
 20
5.9548749027
 11
-7.4128542844
 21
6.0706295955
  0
LINE
  5
305
100
AcDbEntity
  8
ASSI
100
AcDbLine
 62
250
  6
CONTINUOUS
 10
-7.8504914962
 20
3.243691508
 11
-7.8511982115
 21
3.1406056353
  0
LINE
  5
306
100
AcDbEntity
  8
ASSI
100
AcDbLine
 62
250
  6
CONTINUOUS
 10
-7.5511985082
 20
3.1237919468
 11
-7.5515102961
 21
3.0808652268
  0
LINE
  5
307
100
AcDbEntity
  8
ASSI
100
AcDbLine
 62
250
  6
CONTINUOUS
 10
-7.3794235892
 20
-2.8328386431
 11
-7.3791118013
 21
-2.7899119231
  0
LINE
  5
308
100
AcDbEntity
  8
ASSI
100
AcDbLine
 62
250
  6
CONTINUOUS
 10
-7.0801306012
 20
-2.9527382042
 11
-7.0794238859
 21
-2.8496523316
  0
LINE
  5
309
100
AcDbEntity
  8
ASSI
100
AcDbLine
 62
250
  6
CONTINUOUS
 10
-7.8166720411
 20
4.4093023297
 11
-7.8169277368
 21
4.3841795081
  0
LINE
  5
30A
100
AcDbEntity
  8
ASSI
100
AcDbLine
 62
250
  6
CONTINUOUS
 10
-7.1139500563
 20
-4.118349026
 11
-7.1136943606
 21
-4.0932262044
  0
LINE
  5
30B
100
AcDbEntity
  8
ASSI
100
AcDbLine
 62
250
  6
CONTINUOUS
 10
-7.8166522802
 20
-5.5534021381
 11
-7.8169499162
 21
-5.5828850274
  0
LINE
  5
30C
100
AcDbEntity
  8
ASSI
100
AcDbLine
 62
250
  6
CONTINUOUS
 10
-7.1139698172
 20
5.8443554419
 11
-7.1136721812
 21
5.8738383311
  0
LWPOLYLINE
  5
30D
100
AcDbEntity
  8
ASSI
100
AcDbPolyline
 62
250
  6
CONTINUOUS
 90
3
 70
0
 10
-7.5176250539
 20
4.2025792176
 10
-7.5185235705
 20
4.1147857685
 10
-7.5187348632
 20
4.0990300425
  0
LWPOLYLINE
  5
30E
100
AcDbEntity
  8
ASSI
100
AcDbPolyline
 62
250
  6
CONTINUOUS
 90
3
 70
0
 10
-7.4129970435
 20
-3.9116259138
 10
-7.4120985269
 20
-3.8238324648
 10
-7.4118872342
 20
-3.8080767387
  0
LINE
  5
30F
100
AcDbEntity
  8
ASSI
100
AcDbLine
 62
250
  6
CONTINUOUS
 10
-7.4128542844
 20
6.0706295955
 11
-7.4119728155
 21
6.1510364803
  0
LINE
  5
310
100
AcDbEntity
  8
ASSI
100
AcDbLine
 62
250
  6
CONTINUOUS
 10
-7.517767813
 20
-5.7796762918
 11
-7.5186492819
 21
-5.8600831766
  0
LINE
  5
311
100
AcDbEntity
  8
ASSI
100
AcDbLine
 62
250
  6
CONTINUOUS
 10
-7.8493016922
 20
3.3444494817
 11
-7.8504914962
 21
3.243691508
  0
LINE
  5
312
100
AcDbEntity
  8
ASSI
100
AcDbLine
 62
250
  6
CONTINUOUS
 10
-7.5506740993
 20
3.1667083496
 11
-7.5511985082
 21
3.1237919468
  0
LINE
  5
313
100
AcDbEntity
  8
ASSI
100
AcDbLine
 62
250
  6
CONTINUOUS
 10
-7.3799479981
 20
-2.8757550459
 11
-7.3794235892
 21
-2.8328386431
  0
LINE
  5
314
100
AcDbEntity
  8
ASSI
100
AcDbLine
 62
250
  6
CONTINUOUS
 10
-7.0813204052
 20
-3.053496178
 11
-7.0801306012
 21
-2.9527382042
  0
LINE
  5
315
100
AcDbEntity
  8
ASSI
100
AcDbLine
 62
250
  6
CONTINUOUS
 10
-7.8169277368
 20
4.3841795081
 11
-7.8172958262
 21
4.3602256872
  0
LINE
  5
316
100
AcDbEntity
  8
ASSI
100
AcDbLine
 62
250
  6
CONTINUOUS
 10
-7.1136943606
 20
-4.0932262044
 11
-7.1133262712
 21
-4.0692723835
  0
LINE
  5
317
100
AcDbEntity
  8
ASSI
100
AcDbLine
 62
250
  6
CONTINUOUS
 10
-7.4119728155
 20
6.1510364803
 11
-7.4111713193
 21
6.2019781402
  0
LINE
  5
318
100
AcDbEntity
  8
ASSI
100
AcDbLine
 62
250
  6
CONTINUOUS
 10
-7.5186492819
 20
-5.8600831766
 11
-7.5194507781
 21
-5.9110248365
  0
LINE
  5
319
100
AcDbEntity
  8
ASSI
100
AcDbLine
 62
250
  6
CONTINUOUS
 10
-7.8169499162
 20
-5.5828850274
 11
-7.8174016009
 21
-5.61071835
  0
LINE
  5
31A
100
AcDbEntity
  8
ASSI
100
AcDbLine
 62
250
  6
CONTINUOUS
 10
-7.1136721812
 20
5.8738383311
 11
-7.1132204965
 21
5.9016716537
  0
LINE
  5
31B
100
AcDbEntity
  8
ASSI
100
AcDbLine
 62
250
  6
CONTINUOUS
 10
-7.5499327148
 20
3.2089738003
 11
-7.5506740993
 21
3.1667083496
  0
LINE
  5
31C
100
AcDbEntity
  8
ASSI
100
AcDbLine
 62
250
  6
CONTINUOUS
 10
-7.3806893826
 20
-2.9180204966
 11
-7.3799479981
 21
-2.8757550459
  0
LINE
  5
31D
100
AcDbEntity
  8
ASSI
100
AcDbLine
 62
250
  6
CONTINUOUS
 10
-7.8476553902
 20
3.4398085198
 11
-7.8493016922
 21
3.3444494817
  0
LINE
  5
31E
100
AcDbEntity
  8
ASSI
100
AcDbLine
 62
250
  6
CONTINUOUS
 10
-7.0829667072
 20
-3.148855216
 11
-7.0813204052
 21
-3.053496178
  0
LINE
  5
31F
100
AcDbEntity
  8
ASSI
100
AcDbLine
 62
250
  6
CONTINUOUS
 10
-7.4111713193
 20
6.2019781402
 11
-7.4105802206
 21
6.2307944057
  0
LINE
  5
320
100
AcDbEntity
  8
ASSI
100
AcDbLine
 62
250
  6
CONTINUOUS
 10
-7.5194507781
 20
-5.9110248365
 11
-7.5200418768
 21
-5.939841102
  0
LINE
  5
321
100
AcDbEntity
  8
ASSI
100
AcDbLine
 62
250
  6
CONTINUOUS
 10
-7.8172958262
 20
4.3602256872
 11
-7.817769933
 21
4.3378554227
  0
LINE
  5
322
100
AcDbEntity
  8
ASSI
100
AcDbLine
 62
250
  6
CONTINUOUS
 10
-7.8174016009
 20
-5.61071835
 11
-7.8177833201
 21
-5.6280393514
  0
LINE
  5
323
100
AcDbEntity
  8
ASSI
100
AcDbLine
 62
250
  6
CONTINUOUS
 10
-7.1132204965
 20
5.9016716537
 11
-7.1128387773
 21
5.9189926552
  0
LINE
  5
324
100
AcDbEntity
  8
ASSI
100
AcDbLine
 62
250
  6
CONTINUOUS
 10
-7.1133262712
 20
-4.0692723835
 11
-7.1128521644
 21
-4.046902119
  0
LINE
  5
325
100
AcDbEntity
  8
ASSI
100
AcDbLine
 62
250
  6
CONTINUOUS
 10
-7.8463295488
 20
3.499036773
 11
-7.8476553902
 21
3.4398085198
  0
LINE
  5
326
100
AcDbEntity
  8
ASSI
100
AcDbLine
 62
250
  6
CONTINUOUS
 10
-7.0842925486
 20
-3.2080834693
 11
-7.0829667072
 21
-3.148855216
  0
LINE
  5
327
100
AcDbEntity
  8
ASSI
100
AcDbLine
 62
250
  6
CONTINUOUS
 10
-7.5489844473
 20
3.2499850341
 11
-7.5499327148
 21
3.2089738003
  0
LINE
  5
328
100
AcDbEntity
  8
ASSI
100
AcDbLine
 62
250
  6
CONTINUOUS
 10
-7.3816376501
 20
-2.9590317304
 11
-7.3806893826
 21
-2.9180204966
  0
LWPOLYLINE
  5
329
100
AcDbEntity
  8
ASSI
100
AcDbPolyline
 62
250
  6
CONTINUOUS
 90
10
 70
0
 10
-7.4105802206
 20
6.2307944057
 10
-7.409951844
 20
6.2551368261
 10
-7.4096245382
 20
6.265548673
 10
-7.4092911527
 20
6.2747496815
 10
-7.4089516835
 20
6.2827157107
 10
-7.4086061346
 20
6.2894261626
 10
-7.4082571499
 20
6.2948636105
 10
-7.4079056108
 20
6.299013887
 10
-7.407550636
 20
6.3018661649
 10
-7.4071922254
 20
6.303413041
  0
LWPOLYLINE
  5
32A
100
AcDbEntity
  8
ASSI
100
AcDbPolyline
 62
250
  6
CONTINUOUS
 90
10
 70
0
 10
-7.5200418768
 20
-5.939841102
 10
-7.5206702534
 20
-5.9641835224
 10
-7.5209975592
 20
-5.9745953693
 10
-7.5213309447
 20
-5.9837963777
 10
-7.5216704139
 20
-5.991762407
 10
-7.5220159628
 20
-5.9984728588
 10
-7.5223649475
 20
-6.0039103068
 10
-7.5227164866
 20
-6.0080605832
 10
-7.5230714614
 20
-6.0109128612
 10
-7.523429872
 20
-6.0124597373
  0
LINE
  5
32B
100
AcDbEntity
  8
ASSI
100
AcDbLine
 62
250
  6
CONTINUOUS
 10
-7.8448563206
 20
3.5538653632
 11
-7.8463295488
 21
3.499036773
  0
LINE
  5
32C
100
AcDbEntity
  8
ASSI
100
AcDbLine
 62
250
  6
CONTINUOUS
 10
-7.817769933
 20
4.3378554227
 11
-7.8181401966
 21
4.3240362452
  0
LINE
  5
32D
100
AcDbEntity
  8
ASSI
100
AcDbLine
 62
250
  6
CONTINUOUS
 10
-7.1128521644
 20
-4.046902119
 11
-7.1124819008
 21
-4.0330829415
  0
LINE
  5
32E
100
AcDbEntity
  8
ASSI
100
AcDbLine
 62
250
  6
CONTINUOUS
 10
-7.0857657768
 20
-3.2629120594
 11
-7.0842925486
 21
-3.2080834693
  0
LINE
  5
32F
100
AcDbEntity
  8
ASSI
100
AcDbLine
 62
250
  6
CONTINUOUS
 10
-7.8177833201
 20
-5.6280393514
 11
-7.8182250358
 21
-5.6441497973
  0
LINE
  5
330
100
AcDbEntity
  8
ASSI
100
AcDbLine
 62
250
  6
CONTINUOUS
 10
-7.1128387773
 20
5.9189926552
 11
-7.1123970616
 21
5.935103101
  0
LWPOLYLINE
  5
331
100
AcDbEntity
  8
ASSI
100
AcDbPolyline
 62
7
  6
CONTINUOUS
 90
28
 70
0
 10
-7.8785046727
 20
6.0588530277
 10
-7.8779965307
 20
6.0761816506
 10
-7.8764829701
 20
6.0934934914
 10
-7.8739617342
 20
6.110729874
 10
-7.8704277394
 20
6.1278582856
 10
-7.8658888785
 20
6.1447918717
 10
-7.8603814698
 20
6.161393765
 10
-7.8539479503
 20
6.1775698572
 10
-7.8466039142
 20
6.1933097868
 10
-7.8383560994
 20
6.2086053506
 10
-7.8292300667
 20
6.2234056928
 10
-7.8192558165
 20
6.2376590215
 10
-7.8084374483
 20
6.2513501364
 10
-7.7967705899
 20
6.2644627761
 10
-7.7843176515
 20
6.2769064843
 10
-7.7711945044
 20
6.2885653495
 10
-7.7574907089
 20
6.2993773037
 10
-7.7432230232
 20
6.3093458034
 10
-7.728409015
 20
6.3184651845
 10
-7.7131014315
 20
6.3267051737
 10
-7.6973504796
 20
6.3340408609
 10
-7.6811645704
 20
6.3404657468
 10
-7.664555353
 20
6.3459640317
 10
-7.6476158186
 20
6.3504939943
 10
-7.6304792331
 20
6.3540203055
 10
-7.6132311352
 20
6.3565348028
 10
-7.5959051994
 20
6.3580417638
 10
-7.5785601252
 20
6.3585429764
  0
LWPOLYLINE
  5
332
100
AcDbEntity
  8
ASSI
100
AcDbPolyline
 62
7
  6
CONTINUOUS
 90
28
 70
0
 10
-7.0521174247
 20
-5.767899724
 10
-7.0526255667
 20
-5.7852283469
 10
-7.0541391273
 20
-5.8025401877
 10
-7.0566603632
 20
-5.8197765703
 10
-7.060194358
 20
-5.8369049818
 10
-7.0647332189
 20
-5.853838568
 10
-7.0702406276
 20
-5.8704404613
 10
-7.0766741471
 20
-5.8866165535
 10
-7.0840181832
 20
-5.9023564831
 10
-7.092265998
 20
-5.9176520469
 10
-7.1013920307
 20
-5.9324523891
 10
-7.1113662809
 20
-5.9467057178
 10
-7.1221846491
 20
-5.9603968327
 10
-7.1338515075
 20
-5.9735094724
 10
-7.1463044459
 20
-5.9859531806
 10
-7.159427593
 20
-5.9976120458
 10
-7.1731313885
 20
-6.008424
 10
-7.1873990742
 20
-6.0183924997
 10
-7.2022130824
 20
-6.0275118808
 10
-7.2175206659
 20
-6.03575187
 10
-7.2332716178
 20
-6.0430875572
 10
-7.249457527
 20
-6.0495124431
 10
-7.2660667444
 20
-6.055010728
 10
-7.2830062788
 20
-6.0595406905
 10
-7.3001428643
 20
-6.0630670018
 10
-7.3173909622
 20
-6.065581499
 10
-7.334716898
 20
-6.0670884601
 10
-7.3520619722
 20
-6.0675896727
  0
LINE
  5
333
100
AcDbEntity
  8
ASSI
100
AcDbLine
 62
250
  6
CONTINUOUS
 10
-7.5478385025
 20
3.2892556245
 11
-7.5489844473
 21
3.2499850341
  0
LINE
  5
334
100
AcDbEntity
  8
ASSI
100
AcDbLine
 62
250
  6
CONTINUOUS
 10
-7.3827835949
 20
-2.9983023208
 11
-7.3816376501
 21
-2.9590317304
  0
LINE
  5
335
100
AcDbEntity
  8
ASSI
100
AcDbLine
 62
250
  6
CONTINUOUS
 10
-7.8432448243
 20
3.6040552956
 11
-7.8448563206
 21
3.5538653632
  0
LINE
  5
336
100
AcDbEntity
  8
ASSI
100
AcDbLine
 62
250
  6
CONTINUOUS
 10
-7.0873772731
 20
-3.3131019919
 11
-7.0857657768
 21
-3.2629120594
  0
LWPOLYLINE
  5
337
100
AcDbEntity
  8
ASSI
100
AcDbPolyline
 62
250
  6
CONTINUOUS
 90
15
 70
0
 10
-6.26522117
 20
16.0378951257
 10
-6.2653578885
 20
16.033676149
 10
-6.2654322225
 20
16.031744794
 10
-6.2655103423
 20
16.0299403124
 10
-6.2655922114
 20
16.0282614077
 10
-6.2656770193
 20
16.0267246542
 10
-6.2657647951
 20
16.0253314797
 10
-6.2658555098
 20
16.0240804564
 10
-6.2659482657
 20
16.0229838758
 10
-6.2660430939
 20
16.0220432503
 10
-6.2661399634
 20
16.0212570674
 10
-6.266237884
 20
16.0206330808
 10
-6.2663365259
 20
16.0201738752
 10
-6.266436219
 20
16.019876866
 10
-6.2665369633
 20
16.0197420531
  0
LINE
  5
338
100
AcDbEntity
  8
ASSI
100
AcDbLine
 62
250
  6
CONTINUOUS
 10
-7.8181401966
 20
4.3240362452
 11
-7.8432448243
 21
3.6040552956
  0
LINE
  5
339
100
AcDbEntity
  8
ASSI
100
AcDbLine
 62
250
  6
CONTINUOUS
 10
-7.5187348632
 20
4.0990300425
 11
-7.5434273192
 21
3.3919306191
  0
LINE
  5
33A
100
AcDbEntity
  8
ASSI
100
AcDbLine
 62
250
  6
CONTINUOUS
 10
-7.4118872342
 20
-3.8080767387
 11
-7.3871947782
 21
-3.1009773154
  0
LINE
  5
33B
100
AcDbEntity
  8
ASSI
100
AcDbLine
 62
250
  6
CONTINUOUS
 10
-7.1124819008
 20
-4.0330829415
 11
-7.0873772731
 21
-3.3131019919
  0
LWPOLYLINE
  5
33C
100
AcDbEntity
  8
ASSI
100
AcDbPolyline
 62
250
  6
CONTINUOUS
 90
12
 70
0
 10
-6.2058645685
 20
17.7648235818
 10
-6.2060040861
 20
17.7605905451
 10
-6.2060798939
 20
17.7586578344
 10
-6.2061595271
 20
17.7568560305
 10
-6.2062429487
 20
17.7551837509
 10
-6.2063293144
 20
17.7536578057
 10
-6.2064186654
 20
17.7522796036
 10
-6.2065109605
 20
17.7510477359
 10
-6.2066052315
 20
17.7499747854
 10
-6.2067011556
 20
17.7490649466
 10
-6.2067990555
 20
17.748314025
 10
-6.2068989314
 20
17.7477220208
  0
LINE
  5
33D
100
AcDbEntity
  8
ASSI
100
AcDbLine
 62
250
  6
CONTINUOUS
 10
-7.8182250358
 20
-5.6441497973
 11
-7.8187212506
 21
-5.6588653363
  0
LINE
  5
33E
100
AcDbEntity
  8
ASSI
100
AcDbLine
 62
250
  6
CONTINUOUS
 10
-7.1123970616
 20
5.935103101
 11
-7.1119008468
 21
5.9498186401
  0
LINE
  5
33F
100
AcDbEntity
  8
ASSI
100
AcDbLine
 62
250
  6
CONTINUOUS
 10
-7.5465129583
 20
3.3262695201
 11
-7.5478385025
 21
3.2892556245
  0
LINE
  5
340
100
AcDbEntity
  8
ASSI
100
AcDbLine
 62
250
  6
CONTINUOUS
 10
-7.3841091391
 20
-3.0353162164
 11
-7.3827835949
 21
-2.9983023208
  0
LWPOLYLINE
  5
341
100
AcDbEntity
  8
ASSI
100
AcDbPolyline
 62
250
  6
CONTINUOUS
 90
14
 70
0
 10
-7.8187212506
 20
-5.6588653363
 10
-7.8192680728
 20
-5.6720704705
 10
-7.8195581399
 20
-5.6780442058
 10
-7.8198592551
 20
-5.683600949
 10
-7.820169064
 20
-5.6886972602
 10
-7.8204876408
 20
-5.6933295652
 10
-7.8208149113
 20
-5.6975014381
 10
-7.8211482978
 20
-5.7011801621
 10
-7.8214878669
 20
-5.704361831
 10
-7.8218335521
 20
-5.7070503511
 10
-7.8221825768
 20
-5.709224724
 10
-7.8225340153
 20
-5.7108779504
 10
-7.8228887932
 20
-5.7120170297
 10
-7.8232469105
 20
-5.7126419618
  0
LWPOLYLINE
  5
342
100
AcDbEntity
  8
ASSI
100
AcDbPolyline
 62
250
  6
CONTINUOUS
 90
14
 70
0
 10
-7.1119008468
 20
5.9498186401
 10
-7.1113540246
 20
5.9630237742
 10
-7.1110639575
 20
5.9689975095
 10
-7.1107628423
 20
5.9745542527
 10
-7.1104530334
 20
5.979650564
 10
-7.1101344566
 20
5.9842828689
 10
-7.1098071861
 20
5.9884547418
 10
-7.1094737996
 20
5.9921334658
 10
-7.1091342305
 20
5.9953151348
 10
-7.1087885453
 20
5.9980036548
 10
-7.1084395206
 20
6.0001780277
 10
-7.1080880821
 20
6.0018312541
 10
-7.1077333042
 20
6.0029703334
 10
-7.1073751869
 20
6.0035952655
  0
LWPOLYLINE
  5
343
100
AcDbEntity
  8
ASSI
100
AcDbPolyline
 62
250
  6
CONTINUOUS
 90
4
 70
0
 10
-7.5434271925
 20
3.3919306191
 10
-7.5442510994
 20
3.3766201822
 10
-7.5450395308
 20
3.3605670956
 10
-7.5465129583
 20
3.3262695201
  0
LWPOLYLINE
  5
344
100
AcDbEntity
  8
ASSI
100
AcDbPolyline
 62
250
  6
CONTINUOUS
 90
4
 70
0
 10
-7.3871949049
 20
-3.1009773153
 10
-7.386370998
 20
-3.0856668784
 10
-7.3855825666
 20
-3.0696137919
 10
-7.3841091391
 20
-3.0353162164
  0
LINE
  5
345
100
AcDbEntity
  8
ASSI
100
AcDbLine
 62
250
  6
CONTINUOUS
 10
-10.1525138916
 20
-19.9617144873
 11
-10.2040565405
 21
-20.3242821165
  0
LINE
  5
346
100
AcDbEntity
  8
ASSI
100
AcDbLine
 62
250
  6
CONTINUOUS
 10
-9.9525443517
 20
-20.1602237119
 11
-10.0041477226
 21
-20.5232184789
  0
LWPOLYLINE
  5
347
100
AcDbEntity
  8
ASSI
100
AcDbPolyline
 62
250
  6
CONTINUOUS
 90
25
 70
0
 10
6.892807565
 20
-6.0124592099
 10
6.9124013993
 20
-6.011794407
 10
6.9319114588
 20
-6.0098505705
 10
6.9512543277
 20
-6.0066360115
 10
6.9703473053
 20
-6.002164474
 10
6.9891087589
 20
-5.9964550764
 10
7.0074584733
 20
-5.9895322297
 10
7.025317994
 20
-5.9814255329
 10
7.0426109623
 20
-5.9721696466
 10
7.0592634416
 20
-5.961804145
 10
7.075204234
 20
-5.9503733462
 10
7.0903651846
 20
-5.937926123
 10
7.1046814724
 20
-5.9245156943
 10
7.1180918882
 20
-5.9101993968
 10
7.1305390956
 20
-5.8950384403
 10
7.1419698767
 20
-5.8790976462
 10
7.1523353593
 20
-5.8624451698
 10
7.1615912258
 20
-5.8451522092
 10
7.1696979031
 20
-5.827292701
 10
7.1766207312
 20
-5.8089430039
 10
7.182330112
 20
-5.7901815725
 10
7.1868016352
 20
-5.7710886215
 10
7.1900161833
 20
-5.7517457833
 10
7.1919600127
 20
-5.7322357582
 10
7.1926248131
 20
-5.7126419618
  0
LWPOLYLINE
  5
348
100
AcDbEntity
  8
ASSI
100
AcDbPolyline
 62
7
  6
CONTINUOUS
 90
28
 70
0
 10
-7.5785601252
 20
-6.0675896727
 10
-7.5959051994
 20
-6.0670884601
 10
-7.6132311352
 20
-6.065581499
 10
-7.6304792331
 20
-6.0630670018
 10
-7.6476158186
 20
-6.0595406905
 10
-7.664555353
 20
-6.055010728
 10
-7.6811645704
 20
-6.0495124431
 10
-7.6973504796
 20
-6.0430875572
 10
-7.7131014315
 20
-6.03575187
 10
-7.728409015
 20
-6.0275118808
 10
-7.7432230232
 20
-6.0183924997
 10
-7.7574907089
 20
-6.008424
 10
-7.7711945044
 20
-5.9976120458
 10
-7.7843176515
 20
-5.9859531806
 10
-7.7967705899
 20
-5.9735094724
 10
-7.8084374483
 20
-5.9603968327
 10
-7.8192558165
 20
-5.9467057178
 10
-7.8292300667
 20
-5.9324523891
 10
-7.8383560994
 20
-5.9176520469
 10
-7.8466039142
 20
-5.9023564831
 10
-7.8539479503
 20
-5.8866165535
 10
-7.8603814698
 20
-5.8704404613
 10
-7.8658888785
 20
-5.853838568
 10
-7.8704277394
 20
-5.8369049818
 10
-7.8739617342
 20
-5.8197765703
 10
-7.8764829701
 20
-5.8025401877
 10
-7.8779965307
 20
-5.7852283469
 10
-7.8785046727
 20
-5.767899724
  0
LWPOLYLINE
  5
349
100
AcDbEntity
  8
ASSI
100
AcDbPolyline
 62
250
  6
CONTINUOUS
 90
25
 70
0
 10
-7.5234296624
 20
-6.0124592099
 10
-7.5430234803
 20
-6.0117944082
 10
-7.5625335244
 20
-6.0098505748
 10
-7.5818763794
 20
-6.0066360207
 10
-7.6009693443
 20
-6.0021644897
 10
-7.6197307869
 20
-5.9964551001
 10
-7.6380804924
 20
-5.9895322623
 10
-7.6559400062
 20
-5.9814255751
 10
-7.6732329697
 20
-5.9721696988
 10
-7.6898854465
 20
-5.961804207
 10
-7.7058262386
 20
-5.9503734176
 10
-7.7209871908
 20
-5.9379262031
 10
-7.7353034824
 20
-5.9245157818
 10
-7.7487139037
 20
-5.9101994903
 10
-7.7611611181
 20
-5.895038538
 10
-7.7725919075
 20
-5.8790977459
 10
-7.7829573993
 20
-5.8624452691
 10
-7.7922132756
 20
-5.8451523057
 10
-7.8003199628
 20
-5.8272927919
 10
-7.8072428006
 20
-5.8089430864
 10
-7.8129521903
 20
-5.7901816437
 10
-7.8174237212
 20
-5.7710886788
 10
-7.8206382753
 20
-5.7517458239
 10
-7.8225821087
 20
-5.7322357797
 10
-7.8232469105
 20
-5.7126419618
  0
LWPOLYLINE
  5
34A
100
AcDbEntity
  8
ASSI
100
AcDbPolyline
 62
7
  6
CONTINUOUS
 90
15
 70
0
 10
-10.1454598045
 20
-1.1620196337
 10
-10.1448213344
 20
-1.1624700603
 10
-10.1433606933
 20
-1.1629157123
 10
-10.1410778813
 20
-1.1633565898
 10
-10.1379508661
 20
-1.1637952275
 10
-10.13400168
 20
-1.1642290907
 10
-10.1292964199
 20
-1.1646505749
 10
-10.1238443793
 20
-1.1650580802
 10
-10.1176362648
 20
-1.1654532065
 10
-10.1107102931
 20
-1.1658331491
 10
-10.1030376721
 20
-1.1661989465
 10
-10.0946471939
 20
-1.1665495602
 10
-10.0856634518
 20
-1.1668790699
 10
-10.0760705933
 20
-1.1671869135
 10
-10.0552772347
 20
-1.1677350552
  0
LINE
  5
34B
100
AcDbEntity
  8
ASSI
100
AcDbLine
 62
250
  6
CONTINUOUS
 10
-10.2040565405
 20
20.6152354203
 11
-10.1525138916
 21
20.2526677911
  0
LINE
  5
34C
100
AcDbEntity
  8
ASSI
100
AcDbLine
 62
250
  6
CONTINUOUS
 10
-10.0041477226
 20
20.8141717826
 11
-9.9525443517
 21
20.4511770156
  0
LWPOLYLINE
  5
34D
100
AcDbEntity
  8
ASSI
100
AcDbPolyline
 62
250
  6
CONTINUOUS
 90
5
 70
0
 10
-6.0166893324
 20
-15.4788265967
 10
-6.0165885082
 20
-15.4796228968
 10
-6.016488781
 20
-15.4814088649
 10
-6.0163901508
 20
-15.4841788182
 10
-6.0162923229
 20
-15.4879239146
  0
LWPOLYLINE
  5
34E
100
AcDbEntity
  8
ASSI
100
AcDbPolyline
 62
7
  6
CONTINUOUS
 90
31
 70
0
 10
-6.2648213974
 20
17.4552515597
 10
-6.2641951156
 20
17.4460337758
 10
-6.2630771579
 20
17.436751512
 10
-6.2614571264
 20
17.4274269619
 10
-6.2593249628
 20
17.41808735
 10
-6.2566729881
 20
17.4087527286
 10
-6.2534957883
 20
17.3994359793
 10
-6.2497879972
 20
17.3901655402
 10
-6.2455441402
 20
17.3809656069
 10
-6.2407592073
 20
17.3718443974
 10
-6.2354309956
 20
17.3628330241
 10
-6.2295569696
 20
17.3539586447
 10
-6.2231306804
 20
17.345226189
 10
-6.2161531307
 20
17.336670173
 10
-6.2086247377
 20
17.3283210498
 10
-6.2005361149
 20
17.3201818687
 10
-6.1918916652
 20
17.31229133
 10
-6.1826954514
 20
17.3046842654
 10
-6.1729349935
 20
17.2973642739
 10
-6.1626188045
 20
17.2903751942
 10
-6.1517562892
 20
17.2837576172
 10
-6.1403342125
 20
17.277518992
 10
-6.1283659689
 20
17.2717086906
 10
-6.1158701135
 20
17.2663747278
 10
-6.102841144
 20
17.2615327249
 10
-6.0892995807
 20
17.2572370692
 10
-6.0752784496
 20
17.2535429797
 10
-6.0607947827
 20
17.2504760478
 10
-6.0458819203
 20
17.2480846114
 10
-6.0305910221
 20
17.2464350827
 10
-6.0149736907
 20
17.2455822628
  0
LINE
  5
34F
100
AcDbEntity
  8
ASSI
100
AcDbLine
 62
250
  6
CONTINUOUS
 10
-5.9570512246
 20
-17.2105667788
 11
-5.9569512985
 21
-17.2140933706
  0
LINE
  5
350
100
AcDbEntity
  8
ASSI
100
AcDbLine
 62
250
  6
CONTINUOUS
 10
-5.8735708728
 20
17.5015200825
 11
-5.8736707989
 21
17.5050466743
  0
LINE
  5
351
100
AcDbEntity
  8
ASSI
100
AcDbLine
 62
250
  6
CONTINUOUS
 10
-5.6246900307
 20
17.7626527802
 11
-5.6248204586
 21
17.7671040426
  0
LINE
  5
352
100
AcDbEntity
  8
ASSI
100
AcDbLine
 62
250
  6
CONTINUOUS
 10
-5.5653347936
 20
16.035733081
 11
-5.5654625641
 21
16.0401632812
  0
LINE
  5
353
100
AcDbEntity
  8
ASSI
100
AcDbLine
 62
250
  6
CONTINUOUS
 10
-6.2058645685
 20
-17.4738702781
 11
-6.2057432302
 21
-17.4785397661
  0
LINE
  5
354
100
AcDbEntity
  8
ASSI
100
AcDbLine
 62
250
  6
CONTINUOUS
 10
-6.26522117
 20
-15.746941822
 11
-6.2651023475
 21
-15.7515832458
  0
LINE
  5
355
100
AcDbEntity
  8
ASSI
100
AcDbLine
 62
250
  6
CONTINUOUS
 10
-5.6248204586
 20
17.7671040426
 11
-5.624932164
 21
17.7719664277
  0
LINE
  5
356
100
AcDbEntity
  8
ASSI
100
AcDbLine
 62
250
  6
CONTINUOUS
 10
-5.5654625641
 20
16.0401632812
 11
-5.5655719215
 21
16.0449914733
  0
LINE
  5
357
100
AcDbEntity
  8
ASSI
100
AcDbLine
 62
250
  6
CONTINUOUS
 10
-6.2057432302
 20
-17.4785397661
 11
-6.2056418014
 21
-17.4835716407
  0
LINE
  5
358
100
AcDbEntity
  8
ASSI
100
AcDbLine
 62
250
  6
CONTINUOUS
 10
-6.2651023475
 20
-15.7515832458
 11
-6.2650030682
 21
-15.756575566
  0
LINE
  5
359
100
AcDbEntity
  8
ASSI
100
AcDbLine
 62
250
  6
CONTINUOUS
 10
-5.9569512985
 20
-17.2140933706
 11
-5.9567574891
 21
-17.2240943223
  0
LINE
  5
35A
100
AcDbEntity
  8
ASSI
100
AcDbLine
 62
250
  6
CONTINUOUS
 10
-5.8736707989
 20
17.5050466743
 11
-5.8738646083
 21
17.515047626
  0
LINE
  5
35B
100
AcDbEntity
  8
ASSI
100
AcDbLine
 62
250
  6
CONTINUOUS
 10
-6.0162923229
 20
-15.4879239146
 11
-6.0161008425
 21
-15.4982870676
  0
LINE
  5
35C
100
AcDbEntity
  8
ASSI
100
AcDbLine
 62
250
  6
CONTINUOUS
 10
-5.8143297745
 20
15.7788772183
 11
-5.8145212549
 21
15.7892403713
  0
LINE
  5
35D
100
AcDbEntity
  8
ASSI
100
AcDbLine
 62
250
  6
CONTINUOUS
 10
-5.8374188195
 20
-20.2134809607
 11
-5.8748501247
 21
-17.9148004279
  0
LINE
  5
35E
100
AcDbEntity
  8
ASSI
100
AcDbLine
 62
250
  6
CONTINUOUS
 10
-5.9932032779
 20
20.5044342644
 11
-5.9557719727
 21
18.2057537316
  0
LINE
  5
35F
100
AcDbEntity
  8
ASSI
100
AcDbLine
 62
250
  6
CONTINUOUS
 10
-5.624932164
 20
17.7719664277
 11
-5.6250233162
 21
17.7771677918
  0
LINE
  5
360
100
AcDbEntity
  8
ASSI
100
AcDbLine
 62
250
  6
CONTINUOUS
 10
-5.5655719215
 20
16.0449914733
 11
-5.5656611227
 21
16.0501479216
  0
LINE
  5
361
100
AcDbEntity
  8
ASSI
100
AcDbLine
 62
250
  6
CONTINUOUS
 10
-6.2056418014
 20
-17.4835716407
 11
-6.2055613041
 21
-17.4889149459
  0
LINE
  5
362
100
AcDbEntity
  8
ASSI
100
AcDbLine
 62
250
  6
CONTINUOUS
 10
-6.2650030682
 20
-15.756575566
 11
-6.2649243086
 21
-15.7618694165
  0
LINE
  5
363
100
AcDbEntity
  8
ASSI
100
AcDbLine
 62
250
  6
CONTINUOUS
 10
-6.2354434227
 20
19.9315944217
 11
-6.2055556253
 21
18.0956087486
  0
LINE
  5
364
100
AcDbEntity
  8
ASSI
100
AcDbLine
 62
250
  6
CONTINUOUS
 10
-5.5951786747
 20
-19.640641118
 11
-5.6250664721
 21
-17.8046554449
  0
LINE
  5
365
100
AcDbEntity
  8
ASSI
100
AcDbLine
 62
250
  6
CONTINUOUS
 10
-5.6250233162
 20
17.7771677918
 11
-5.625092672
 21
17.7826272246
  0
LINE
  5
366
100
AcDbEntity
  8
ASSI
100
AcDbLine
 62
250
  6
CONTINUOUS
 10
-5.5656611227
 20
16.0501479216
 11
-5.5657289741
 21
16.0555541085
  0
LINE
  5
367
100
AcDbEntity
  8
ASSI
100
AcDbLine
 62
250
  6
CONTINUOUS
 10
-5.9567574891
 20
-17.2240943223
 11
-5.9564818825
 21
-17.246194695
  0
LINE
  5
368
100
AcDbEntity
  8
ASSI
100
AcDbLine
 62
250
  6
CONTINUOUS
 10
-5.8738646083
 20
17.515047626
 11
-5.8741402149
 21
17.5371479987
  0
LINE
  5
369
100
AcDbEntity
  8
ASSI
100
AcDbLine
 62
250
  6
CONTINUOUS
 10
-6.0161008425
 20
-15.4982870676
 11
-6.015829368
 21
-15.5207323212
  0
LINE
  5
36A
100
AcDbEntity
  8
ASSI
100
AcDbLine
 62
250
  6
CONTINUOUS
 10
-5.8145212549
 20
15.7892403713
 11
-5.8147927294
 21
15.8116856249
  0
LINE
  5
36B
100
AcDbEntity
  8
ASSI
100
AcDbLine
 62
250
  6
CONTINUOUS
 10
-6.2055556253
 20
18.0956087486
 11
-6.2054888179
 21
18.0886008515
  0
LINE
  5
36C
100
AcDbEntity
  8
ASSI
100
AcDbLine
 62
250
  6
CONTINUOUS
 10
-5.6250664721
 20
-17.8046554449
 11
-5.6251332795
 21
-17.7976475478
  0
LINE
  5
36D
100
AcDbEntity
  8
ASSI
100
AcDbLine
 62
250
  6
CONTINUOUS
 10
-6.2649243086
 20
-15.7618694165
 11
-6.2648472885
 21
-15.770202384
  0
LINE
  5
36E
100
AcDbEntity
  8
ASSI
100
AcDbLine
 62
250
  6
CONTINUOUS
 10
-6.2055613041
 20
-17.4889149459
 11
-6.2054825619
 21
-17.4973352614
  0
LINE
  5
36F
100
AcDbEntity
  8
ASSI
100
AcDbLine
 62
250
  6
CONTINUOUS
 10
-6.015829368
 20
-15.5207323212
 11
-6.0153733978
 21
-15.5877361853
  0
LINE
  5
370
100
AcDbEntity
  8
ASSI
100
AcDbLine
 62
250
  6
CONTINUOUS
 10
-5.9564818825
 20
-17.246194695
 11
-5.9560168486
 21
-17.3131732622
  0
LINE
  5
371
100
AcDbEntity
  8
ASSI
100
AcDbLine
 62
250
  6
CONTINUOUS
 10
-5.8741402149
 20
17.5371479987
 11
-5.8746052488
 21
17.6041265659
  0
LINE
  5
372
100
AcDbEntity
  8
ASSI
100
AcDbLine
 62
250
  6
CONTINUOUS
 10
-5.8147927294
 20
15.8116856249
 11
-5.8152486996
 21
15.8786894891
  0
LINE
  5
373
100
AcDbEntity
  8
ASSI
100
AcDbLine
 62
250
  6
CONTINUOUS
 10
-5.625092672
 20
17.7826272246
 11
-5.6251541674
 21
17.7911516764
  0
LINE
  5
374
100
AcDbEntity
  8
ASSI
100
AcDbLine
 62
250
  6
CONTINUOUS
 10
-5.5657289741
 20
16.0555541085
 11
-5.5657891202
 21
16.0639879619
  0
LINE
  5
375
100
AcDbEntity
  8
ASSI
100
AcDbLine
 62
250
  6
CONTINUOUS
 10
-6.2054888179
 20
18.0886008515
 11
-6.2054581689
 21
18.0813989235
  0
LINE
  5
376
100
AcDbEntity
  8
ASSI
100
AcDbLine
 62
250
  6
CONTINUOUS
 10
-5.6251332795
 20
-17.7976475478
 11
-5.6251639285
 21
-17.7904456197
  0
LINE
  5
377
100
AcDbEntity
  8
ASSI
100
AcDbLine
 62
250
  6
CONTINUOUS
 10
-6.2648472885
 20
-15.770202384
 11
-6.2648213974
 21
-15.7787811341
  0
LINE
  5
378
100
AcDbEntity
  8
ASSI
100
AcDbLine
 62
250
  6
CONTINUOUS
 10
-6.2054825619
 20
-17.4973352614
 11
-6.2054560893
 21
-17.5060091047
  0
LINE
  5
379
100
AcDbEntity
  8
ASSI
100
AcDbLine
 62
250
  6
CONTINUOUS
 10
-5.9560168486
 20
-17.3131732622
 11
-5.955611408
 21
-17.4885754526
  0
LINE
  5
37A
100
AcDbEntity
  8
ASSI
100
AcDbLine
 62
250
  6
CONTINUOUS
 10
-5.8746052488
 20
17.6041265659
 11
-5.8750106894
 21
17.7795287563
  0
LINE
  5
37B
100
AcDbEntity
  8
ASSI
100
AcDbLine
 62
250
  6
CONTINUOUS
 10
-6.0153733978
 20
-15.5877361853
 11
-6.0149736907
 21
-15.7787811341
  0
LINE
  5
37C
100
AcDbEntity
  8
ASSI
100
AcDbLine
 62
250
  6
CONTINUOUS
 10
-5.8152486996
 20
15.8786894891
 11
-5.8156484067
 21
16.0697344378
  0
LINE
  5
37D
100
AcDbEntity
  8
ASSI
100
AcDbLine
 62
250
  6
CONTINUOUS
 10
-6.2648213974
 20
-15.7787811341
 11
-6.2648213974
 21
-17.1642982559
  0
LINE
  5
37E
100
AcDbEntity
  8
ASSI
100
AcDbLine
 62
7
  6
CONTINUOUS
 10
-6.2354434227
 20
-20.4203465068
 11
-6.2354434227
 21
-19.640641118
  0
LINE
  5
37F
100
AcDbEntity
  8
ASSI
100
AcDbLine
 62
7
  6
CONTINUOUS
 10
-6.2354434227
 20
19.9315944217
 11
-6.2354434227
 21
20.7112998105
  0
LINE
  5
380
100
AcDbEntity
  8
ASSI
100
AcDbLine
 62
250
  6
CONTINUOUS
 10
-6.0149736907
 20
-15.7787811341
 11
-6.0149736907
 21
-16.9546289591
  0
LINE
  5
381
100
AcDbEntity
  8
ASSI
100
AcDbLine
 62
250
  6
CONTINUOUS
 10
-5.8156484067
 20
16.0697344378
 11
-5.8156484067
 21
17.2455822628
  0
LINE
  5
382
100
AcDbEntity
  8
ASSI
100
AcDbLine
 62
7
  6
CONTINUOUS
 10
-5.5951786747
 20
20.7112998105
 11
-5.5951786747
 21
19.9315944217
  0
LINE
  5
383
100
AcDbEntity
  8
ASSI
100
AcDbLine
 62
7
  6
CONTINUOUS
 10
-5.5951786747
 20
-19.640641118
 11
-5.5951786747
 21
-20.4203465068
  0
LINE
  5
384
100
AcDbEntity
  8
ASSI
100
AcDbLine
 62
250
  6
CONTINUOUS
 10
-5.5657891202
 20
16.0639879619
 11
-5.5658007
 21
17.4552515597
  0
LINE
  5
385
100
AcDbEntity
  8
ASSI
100
AcDbLine
 62
250
  6
CONTINUOUS
 10
-5.6251541674
 20
17.7911516764
 11
-5.6251639285
 21
18.0813989237
  0
LINE
  5
386
100
AcDbEntity
  8
ASSI
100
AcDbLine
 62
250
  6
CONTINUOUS
 10
-5.9557719727
 20
18.2057537316
 11
-5.9556816568
 21
17.7109380727
  0
LINE
  5
387
100
AcDbEntity
  8
ASSI
100
AcDbLine
 62
250
  6
CONTINUOUS
 10
-5.8748501247
 20
-17.9148004279
 11
-5.8749404406
 21
-17.419984769
  0
LINE
  5
388
100
AcDbEntity
  8
ASSI
100
AcDbLine
 62
250
  6
CONTINUOUS
 10
-5.8750106894
 20
17.7795287563
 11
-5.8748501247
 21
18.2057537316
  0
LINE
  5
389
100
AcDbEntity
  8
ASSI
100
AcDbLine
 62
250
  6
CONTINUOUS
 10
-5.955611408
 20
-17.4885754526
 11
-5.9557719727
 21
-17.9148004279
  0
LINE
  5
38A
100
AcDbEntity
  8
ASSI
100
AcDbLine
 62
250
  6
CONTINUOUS
 10
-6.2648213974
 20
17.4552515597
 11
-6.2648329772
 21
16.0639879619
  0
LINE
  5
38B
100
AcDbEntity
  8
ASSI
100
AcDbLine
 62
250
  6
CONTINUOUS
 10
-6.2054581689
 20
18.0813989235
 11
-6.20546793
 21
17.7911516764
  0
LINE
  5
38C
100
AcDbEntity
  8
ASSI
100
AcDbLine
 62
250
  6
CONTINUOUS
 10
-5.6251639285
 20
-17.7904456197
 11
-5.6251541674
 21
-17.5001983727
  0
LINE
  5
38D
100
AcDbEntity
  8
ASSI
100
AcDbLine
 62
250
  6
CONTINUOUS
 10
-5.5658007
 20
-17.1642982559
 11
-5.5657891202
 21
-15.7730346582
  0
LINE
  5
38E
100
AcDbEntity
  8
ASSI
100
AcDbLine
 62
250
  6
CONTINUOUS
 10
-6.0149736907
 20
17.2455822628
 11
-6.0153117605
 21
15.8923069582
  0
LINE
  5
38F
100
AcDbEntity
  8
ASSI
100
AcDbLine
 62
250
  6
CONTINUOUS
 10
-5.8156484067
 20
-16.9546289591
 11
-5.8153103369
 21
-15.6013536545
  0
LINE
  5
390
100
AcDbEntity
  8
ASSI
100
AcDbLine
 62
250
  6
CONTINUOUS
 10
-6.2054560893
 20
-17.5060091047
 11
-6.2054745091
 21
-17.7952588191
  0
LINE
  5
391
100
AcDbEntity
  8
ASSI
100
AcDbLine
 62
250
  6
CONTINUOUS
 10
-5.9556816568
 20
17.7109380727
 11
-5.956156383
 21
17.5787475495
  0
LINE
  5
392
100
AcDbEntity
  8
ASSI
100
AcDbLine
 62
250
  6
CONTINUOUS
 10
-5.8749404406
 20
-17.419984769
 11
-5.8744657144
 21
-17.2877942458
  0
LINE
  5
393
100
AcDbEntity
  8
ASSI
100
AcDbLine
 62
250
  6
CONTINUOUS
 10
-5.6251639285
 20
18.0813989237
 11
-5.6251332795
 21
18.088600852
  0
LINE
  5
394
100
AcDbEntity
  8
ASSI
100
AcDbLine
 62
250
  6
CONTINUOUS
 10
-6.0153117605
 20
15.8923069582
 11
-6.0157445469
 21
15.820911399
  0
LINE
  5
395
100
AcDbEntity
  8
ASSI
100
AcDbLine
 62
250
  6
CONTINUOUS
 10
-5.8153103369
 20
-15.6013536545
 11
-5.8148775505
 21
-15.5299580953
  0
LINE
  5
396
100
AcDbEntity
  8
ASSI
100
AcDbLine
 62
250
  6
CONTINUOUS
 10
-6.2648329772
 20
16.0639879619
 11
-6.2648931233
 21
16.0555541085
  0
LINE
  5
397
100
AcDbEntity
  8
ASSI
100
AcDbLine
 62
250
  6
CONTINUOUS
 10
-5.5657891202
 20
-15.7730346582
 11
-5.5657289741
 21
-15.7646008048
  0
LINE
  5
398
100
AcDbEntity
  8
ASSI
100
AcDbLine
 62
250
  6
CONTINUOUS
 10
-6.20546793
 20
17.7911516764
 11
-6.2055294254
 21
17.7826272245
  0
LINE
  5
399
100
AcDbEntity
  8
ASSI
100
AcDbLine
 62
250
  6
CONTINUOUS
 10
-5.6251541674
 20
-17.5001983727
 11
-5.625092672
 21
-17.4916739208
  0
LINE
  5
39A
100
AcDbEntity
  8
ASSI
100
AcDbLine
 62
250
  6
CONTINUOUS
 10
-6.2054745091
 20
-17.7952588191
 11
-6.2055294723
 21
-17.8023582627
  0
LINE
  5
39B
100
AcDbEntity
  8
ASSI
100
AcDbLine
 62
250
  6
CONTINUOUS
 10
-5.956156383
 20
17.5787475495
 11
-5.956571158
 21
17.5288650286
  0
LINE
  5
39C
100
AcDbEntity
  8
ASSI
100
AcDbLine
 62
250
  6
CONTINUOUS
 10
-5.8744657144
 20
-17.2877942458
 11
-5.8740509394
 21
-17.2379117249
  0
LINE
  5
39D
100
AcDbEntity
  8
ASSI
100
AcDbLine
 62
250
  6
CONTINUOUS
 10
-5.6251332795
 20
18.088600852
 11
-5.6250664721
 21
18.095608749
  0
LINE
  5
39E
100
AcDbEntity
  8
ASSI
100
AcDbLine
 62
250
  6
CONTINUOUS
 10
-6.0157445469
 20
15.820911399
 11
-6.016008042
 21
15.7958237945
  0
LINE
  5
39F
100
AcDbEntity
  8
ASSI
100
AcDbLine
 62
250
  6
CONTINUOUS
 10
-5.8148775505
 20
-15.5299580953
 11
-5.8146140554
 21
-15.5048704907
  0
LINE
  5
3A0
100
AcDbEntity
  8
ASSI
100
AcDbLine
 62
250
  6
CONTINUOUS
 10
-6.2648931233
 20
16.0555541085
 11
-6.2649609747
 21
16.0501479216
  0
LINE
  5
3A1
100
AcDbEntity
  8
ASSI
100
AcDbLine
 62
250
  6
CONTINUOUS
 10
-5.5657289741
 20
-15.7646008048
 11
-5.5656611227
 21
-15.7591946179
  0
LINE
  5
3A2
100
AcDbEntity
  8
ASSI
100
AcDbLine
 62
250
  6
CONTINUOUS
 10
-6.2055294254
 20
17.7826272245
 11
-6.2055987812
 21
17.7771677918
  0
LINE
  5
3A3
100
AcDbEntity
  8
ASSI
100
AcDbLine
 62
250
  6
CONTINUOUS
 10
-5.625092672
 20
-17.4916739208
 11
-5.6250233162
 21
-17.4862144881
  0
LINE
  5
3A4
100
AcDbEntity
  8
ASSI
100
AcDbLine
 62
250
  6
CONTINUOUS
 10
-5.956571158
 20
17.5288650286
 11
-5.9567574891
 21
17.515047626
  0
LINE
  5
3A5
100
AcDbEntity
  8
ASSI
100
AcDbLine
 62
250
  6
CONTINUOUS
 10
-5.8740509394
 20
-17.2379117249
 11
-5.8738646083
 21
-17.2240943222
  0
LINE
  5
3A6
100
AcDbEntity
  8
ASSI
100
AcDbLine
 62
250
  6
CONTINUOUS
 10
-6.2055294723
 20
-17.8023582627
 11
-6.2056196795
 21
-17.8091458624
  0
LINE
  5
3A7
100
AcDbEntity
  8
ASSI
100
AcDbLine
 62
250
  6
CONTINUOUS
 10
-5.8748501247
 20
18.2057537316
 11
-5.8374188195
 21
20.5044342644
  0
LINE
  5
3A8
100
AcDbEntity
  8
ASSI
100
AcDbLine
 62
250
  6
CONTINUOUS
 10
-5.6250664721
 20
18.095608749
 11
-5.5951786747
 21
19.9315944217
  0
LINE
  5
3A9
100
AcDbEntity
  8
ASSI
100
AcDbLine
 62
250
  6
CONTINUOUS
 10
-6.2056196795
 20
-17.8091458624
 11
-6.2354434227
 21
-19.640641118
  0
LINE
  5
3AA
100
AcDbEntity
  8
ASSI
100
AcDbLine
 62
250
  6
CONTINUOUS
 10
-5.9557719727
 20
-17.9148004279
 11
-5.9932032779
 21
-20.2134809607
  0
LWPOLYLINE
  5
3AB
100
AcDbEntity
  8
ASSI
100
AcDbPolyline
 62
250
  6
CONTINUOUS
 90
7
 70
0
 10
-6.016008042
 20
15.7958237945
 10
-6.0161955919
 20
15.7835852324
 10
-6.0162923229
 20
15.7788772183
 10
-6.0163901508
 20
15.7751321219
 10
-6.016488781
 20
15.7723621686
 10
-6.0165885082
 20
15.7705762005
 10
-6.0166893324
 20
15.7697799005
  0
LWPOLYLINE
  5
3AC
100
AcDbEntity
  8
ASSI
100
AcDbPolyline
 62
250
  6
CONTINUOUS
 90
7
 70
0
 10
-5.8146140554
 20
-15.5048704907
 10
-5.8144265055
 20
-15.4926319286
 10
-5.8143297745
 20
-15.4879239145
 10
-5.8142319466
 20
-15.4841788182
 10
-5.8141333164
 20
-15.4814088649
 10
-5.8140335892
 20
-15.4796228968
 10
-5.813932765
 20
-15.4788265967
  0
LINE
  5
3AD
100
AcDbEntity
  8
ASSI
100
AcDbLine
 62
250
  6
CONTINUOUS
 10
-6.2649609747
 20
16.0501479216
 11
-6.2650501759
 21
16.0449914733
  0
LINE
  5
3AE
100
AcDbEntity
  8
ASSI
100
AcDbLine
 62
250
  6
CONTINUOUS
 10
-5.5656611227
 20
-15.7591946179
 11
-5.5655719215
 21
-15.7540381696
  0
LINE
  5
3AF
100
AcDbEntity
  8
ASSI
100
AcDbLine
 62
250
  6
CONTINUOUS
 10
-6.2055987812
 20
17.7771677918
 11
-6.2056899334
 21
17.7719664277
  0
LINE
  5
3B0
100
AcDbEntity
  8
ASSI
100
AcDbLine
 62
250
  6
CONTINUOUS
 10
-5.6250233162
 20
-17.4862144881
 11
-5.624932164
 21
-17.481013124
  0
LWPOLYLINE
  5
3B1
100
AcDbEntity
  8
ASSI
100
AcDbPolyline
 62
250
  6
CONTINUOUS
 90
3
 70
0
 10
-5.9567574891
 20
17.515047626
 10
-5.9569512985
 20
17.5050466743
 10
-5.9570512246
 20
17.5015200825
  0
LWPOLYLINE
  5
3B2
100
AcDbEntity
  8
ASSI
100
AcDbPolyline
 62
250
  6
CONTINUOUS
 90
3
 70
0
 10
-5.8738646083
 20
-17.2240943222
 10
-5.8736707989
 20
-17.2140933706
 10
-5.8735708728
 20
-17.2105667788
  0
LWPOLYLINE
  5
3B3
100
AcDbEntity
  8
ASSI
100
AcDbPolyline
 62
250
  6
CONTINUOUS
 90
3
 70
0
 10
-6.2650501759
 20
16.0449914733
 10
-6.2651595333
 20
16.0401632812
 10
-6.26522117
 20
16.0378951257
  0
LINE
  5
3B4
100
AcDbEntity
  8
ASSI
100
AcDbLine
 62
250
  6
CONTINUOUS
 10
-5.5655719215
 20
-15.7540381696
 11
-5.5654625641
 21
-15.7492099775
  0
LWPOLYLINE
  5
3B5
100
AcDbEntity
  8
ASSI
100
AcDbPolyline
 62
250
  6
CONTINUOUS
 90
3
 70
0
 10
-6.2056899334
 20
17.7719664277
 10
-6.2058016388
 20
17.7671040426
 10
-6.2058645685
 20
17.7648235818
  0
LINE
  5
3B6
100
AcDbEntity
  8
ASSI
100
AcDbLine
 62
250
  6
CONTINUOUS
 10
-5.624932164
 20
-17.481013124
 11
-5.6248204586
 21
-17.4761507389
  0
LWPOLYLINE
  5
3B7
100
AcDbEntity
  8
ASSI
100
AcDbPolyline
 62
7
  6
CONTINUOUS
 90
28
 70
0
 10
-5.5096908557
 20
15.9925532003
 10
-5.5100932911
 20
15.9780858236
 10
-5.5113355313
 20
15.9636353303
 10
-5.5134189149
 20
15.9492507517
 10
-5.5163467769
 20
15.9349604243
 10
-5.5201122085
 20
15.9208355211
 10
-5.5246858768
 20
15.9069866245
 10
-5.5300329901
 20
15.8934912055
 10
-5.536140236
 20
15.8803590963
 10
-5.5430022436
 20
15.8675970756
 10
-5.5505978992
 20
15.8552474973
 10
-5.5589021781
 20
15.8433538538
 10
-5.5679115632
 20
15.8319292952
 10
-5.5776300505
 20
15.8209870681
 10
-5.588005298
 20
15.8106031639
 10
-5.5989392863
 20
15.8008757237
 10
-5.6103566063
 20
15.7918566942
 10
-5.6222434902
 20
15.7835425188
 10
-5.6345850646
 20
15.7759377949
 10
-5.6473372784
 20
15.7690674348
 10
-5.6604580284
 20
15.7629519717
 10
-5.6739398279
 20
15.7575967383
 10
-5.6877711315
 20
15.7530150215
 10
-5.7018760228
 20
15.749240479
 10
-5.7161483486
 20
15.7463013714
 10
-5.7305186327
 20
15.7442047702
 10
-5.7449572723
 20
15.7429478964
 10
-5.7594153766
 20
15.7425297024
  0
LWPOLYLINE
  5
3B8
100
AcDbEntity
  8
ASSI
100
AcDbPolyline
 62
7
  6
CONTINUOUS
 90
28
 70
0
 10
-6.3209312417
 20
-15.7015998966
 10
-6.3205288063
 20
-15.6871325199
 10
-6.3192865661
 20
-15.6726820266
 10
-6.3172031825
 20
-15.6582974479
 10
-6.3142753205
 20
-15.6440071206
 10
-6.3105098889
 20
-15.6298822174
 10
-6.3059362206
 20
-15.6160333208
 10
-6.3005891073
 20
-15.6025379017
 10
-6.2944818614
 20
-15.5894057925
 10
-6.2876198538
 20
-15.5766437719
 10
-6.2800241982
 20
-15.5642941936
 10
-6.2717199193
 20
-15.5524005501
 10
-6.2627105342
 20
-15.5409759914
 10
-6.2529920469
 20
-15.5300337644
 10
-6.2426167994
 20
-15.5196498601
 10
-6.2316828111
 20
-15.50992242
 10
-6.2202654911
 20
-15.5009033905
 10
-6.2083786072
 20
-15.4925892151
 10
-6.1960370328
 20
-15.4849844912
 10
-6.183284819
 20
-15.4781141311
 10
-6.170164069
 20
-15.471998668
 10
-6.1566822695
 20
-15.4666434346
 10
-6.1428509659
 20
-15.4620617178
 10
-6.1287460746
 20
-15.4582871753
 10
-6.1144737488
 20
-15.4553480676
 10
-6.1001034647
 20
-15.4532514665
 10
-6.0856648251
 20
-15.4519945927
 10
-6.0712067208
 20
-15.4515763986
  0
LINE
  5
3B9
100
AcDbEntity
  8
ASSI
100
AcDbLine
 62
250
  6
CONTINUOUS
 10
-5.5654625641
 20
-15.7492099775
 11
-5.5653347936
 21
-15.7447797772
  0
LINE
  5
3BA
100
AcDbEntity
  8
ASSI
100
AcDbLine
 62
250
  6
CONTINUOUS
 10
-5.6248204586
 20
-17.4761507389
 11
-5.6246900307
 21
-17.4716994765
  0
LWPOLYLINE
  5
3BB
100
AcDbEntity
  8
ASSI
100
AcDbPolyline
 62
7
  6
CONTINUOUS
 90
31
 70
0
 10
-6.2648213974
 20
-17.1642982559
 10
-6.264196246
 20
-17.1550418772
 10
-6.2630780716
 20
-17.1457670113
 10
-6.2614571264
 20
-17.1364736582
 10
-6.2593247632
 20
-17.1271408628
 10
-6.2566732765
 20
-17.1177895803
 10
-6.2534957883
 20
-17.1084826756
 10
-6.2497877743
 20
-17.0992198455
 10
-6.2455444597
 20
-17.0900013933
 10
-6.2407592073
 20
-17.0808910937
 10
-6.2354307542
 20
-17.0718879636
 10
-6.2295573315
 20
-17.0629929862
 10
-6.2231306804
 20
-17.0542728853
 10
-6.2161528714
 20
-17.0457257229
 10
-6.2086251568
 20
-17.0373534369
 10
-6.2005361149
 20
-17.0292285649
 10
-6.1918913827
 20
-17.0213476717
 10
-6.1826959425
 20
-17.0137141924
 10
-6.1729349935
 20
-17.0064109701
 10
-6.1626184856
 20
-16.9994327784
 10
-6.1517568595
 20
-16.9927848436
 10
-6.1403342125
 20
-16.9865656882
 10
-6.1283655848
 20
-16.9807685022
 10
-6.1158707382
 20
-16.9754000956
 10
-6.102841144
 20
-16.9705794212
 10
-6.089299092
 20
-16.966300452
 10
-6.0752790489
 20
-16.9625692151
 10
-6.0607947827
 20
-16.959522744
 10
-6.0458797117
 20
-16.9572067166
 10
-6.0305882786
 20
-16.955575455
 10
-6.0149736907
 20
-16.9546289591
  0
LINE
  5
3BC
100
AcDbEntity
  8
ASSI
100
AcDbLine
 62
7
  6
CONTINUOUS
 10
-7.0509531056
 20
1.4598345949
 11
-7.0791948279
 21
1.4315928727
  0
LWPOLYLINE
  5
3BD
100
AcDbEntity
  8
ASSI
100
AcDbPolyline
 62
250
  6
CONTINUOUS
 90
25
 70
0
 10
-7.407192435
 20
-6.0124592099
 10
-7.3875986007
 20
-6.011794407
 10
-7.3680885412
 20
-6.0098505705
 10
-7.3487456723
 20
-6.0066360115
 10
-7.3296526947
 20
-6.002164474
 10
-7.3108912411
 20
-5.9964550764
 10
-7.2925415267
 20
-5.9895322297
 10
-7.274682006
 20
-5.9814255329
 10
-7.2573890377
 20
-5.9721696466
 10
-7.2407365584
 20
-5.961804145
 10
-7.224795766
 20
-5.9503733462
 10
-7.2096348154
 20
-5.937926123
 10
-7.1953185276
 20
-5.9245156943
 10
-7.1819081118
 20
-5.9101993968
 10
-7.1694609044
 20
-5.8950384403
 10
-7.1580301233
 20
-5.8790976462
 10
-7.1476646407
 20
-5.8624451698
 10
-7.1384087742
 20
-5.8451522092
 10
-7.1303020969
 20
-5.827292701
 10
-7.1233792688
 20
-5.8089430039
 10
-7.117669888
 20
-5.7901815725
 10
-7.1131983648
 20
-5.7710886215
 10
-7.1099838167
 20
-5.7517457833
 10
-7.1080399873
 20
-5.7322357582
 10
-7.1073751869
 20
-5.7126419618
  0
LINE
  5
3BE
100
AcDbEntity
  8
ASSI
100
AcDbLine
 62
7
  6
CONTINUOUS
 10
6.9479380278
 20
-6.0675896727
 11
6.7214398748
 21
-6.0675896727
  0
LINE
  5
3BF
100
AcDbEntity
  8
ASSI
100
AcDbLine
 62
7
  6
CONTINUOUS
 10
-7.3520619722
 20
-6.0675896727
 11
-7.5785601252
 21
-6.0675896727
  0
LINE
  5
3C0
100
AcDbEntity
  8
ASSI
100
AcDbLine
 62
250
  6
CONTINUOUS
 10
-7.5234301899
 20
-6.0124597375
 11
-7.4071919075
 21
-6.0124597375
  0
LINE
  5
3C1
100
AcDbEntity
  8
ASSI
100
AcDbLine
 62
250
  6
CONTINUOUS
 10
6.7765698101
 20
-6.0124597375
 11
6.8928080925
 21
-6.0124597375
  0
LINE
  5
3C2
100
AcDbEntity
  8
ASSI
100
AcDbLine
 62
250
  6
CONTINUOUS
 10
-7.8165065
 20
-5.5127637964
 11
-7.1141155974
 21
-5.5127637964
  0
LINE
  5
3C3
100
AcDbEntity
  8
ASSI
100
AcDbLine
 62
250
  6
CONTINUOUS
 10
6.4834935
 20
-5.5127637964
 11
7.1858844026
 21
-5.5127637964
  0
LWPOLYLINE
  5
3C4
100
AcDbEntity
  8
ASSI
100
AcDbPolyline
 62
7
  6
CONTINUOUS
 90
28
 70
0
 10
6.7214398748
 20
-6.0675896727
 10
6.7040948006
 20
-6.0670884601
 10
6.6867688648
 20
-6.065581499
 10
6.6695207669
 20
-6.0630670018
 10
6.6523841814
 20
-6.0595406905
 10
6.635444647
 20
-6.055010728
 10
6.6188354296
 20
-6.0495124431
 10
6.6026495204
 20
-6.0430875572
 10
6.5868985685
 20
-6.03575187
 10
6.571590985
 20
-6.0275118808
 10
6.5567769768
 20
-6.0183924997
 10
6.5425092911
 20
-6.008424
 10
6.5288054956
 20
-5.9976120458
 10
6.5156823485
 20
-5.9859531806
 10
6.5032294101
 20
-5.9735094724
 10
6.4915625517
 20
-5.9603968327
 10
6.4807441835
 20
-5.9467057178
 10
6.4707699333
 20
-5.9324523891
 10
6.4616439006
 20
-5.9176520469
 10
6.4533960858
 20
-5.9023564831
 10
6.4460520497
 20
-5.8866165535
 10
6.4396185302
 20
-5.8704404613
 10
6.4341111215
 20
-5.853838568
 10
6.4295722606
 20
-5.8369049818
 10
6.4260382658
 20
-5.8197765703
 10
6.4235170299
 20
-5.8025401877
 10
6.4220034693
 20
-5.7852283469
 10
6.4214953273
 20
-5.767899724
  0
LWPOLYLINE
  5
3C5
100
AcDbEntity
  8
ASSI
100
AcDbPolyline
 62
250
  6
CONTINUOUS
 90
25
 70
0
 10
6.7765703376
 20
-6.0124592099
 10
6.7569765197
 20
-6.0117944082
 10
6.7374664756
 20
-6.0098505748
 10
6.7181236206
 20
-6.0066360207
 10
6.6990306557
 20
-6.0021644897
 10
6.6802692131
 20
-5.9964551001
 10
6.6619195076
 20
-5.9895322623
 10
6.6440599938
 20
-5.9814255751
 10
6.6267670303
 20
-5.9721696988
 10
6.6101145535
 20
-5.961804207
 10
6.5941737614
 20
-5.9503734176
 10
6.5790128092
 20
-5.9379262031
 10
6.5646965176
 20
-5.9245157818
 10
6.5512860963
 20
-5.9101994903
 10
6.5388388819
 20
-5.895038538
 10
6.5274080925
 20
-5.8790977459
 10
6.5170426007
 20
-5.8624452691
 10
6.5077867244
 20
-5.8451523057
 10
6.4996800372
 20
-5.8272927919
 10
6.4927571994
 20
-5.8089430864
 10
6.4870478097
 20
-5.7901816437
 10
6.4825762788
 20
-5.7710886788
 10
6.4793617247
 20
-5.7517458239
 10
6.4774178913
 20
-5.7322357797
 10
6.4767530895
 20
-5.7126419618
  0
LINE
  5
3C6
100
AcDbEntity
  8
ASSI
100
AcDbLine
 62
7
  6
CONTINUOUS
 10
-7.0791948279
 20
-1.140639569
 11
-7.0509531056
 21
-1.1688812912
  0
LWPOLYLINE
  5
3C7
100
AcDbEntity
  8
ASSI
100
AcDbPolyline
 62
250
  6
CONTINUOUS
 90
13
 70
0
 10
4.9334630367
 20
-15.7287887494
 10
4.933563781
 20
-15.7289235623
 10
4.9336634741
 20
-15.7292205715
 10
4.933762116
 20
-15.7296797771
 10
4.9338600366
 20
-15.7303037637
 10
4.9339569061
 20
-15.7310899466
 10
4.9340517343
 20
-15.7320305721
 10
4.9341444902
 20
-15.7331271527
 10
4.9342352049
 20
-15.734378176
 10
4.9343229807
 20
-15.7357713505
 10
4.9344077886
 20
-15.737308104
 10
4.9344896577
 20
-15.7389870087
 10
4.9345677775
 20
-15.7407914903
  0
LWPOLYLINE
  5
3C8
100
AcDbEntity
  8
ASSI
100
AcDbPolyline
 62
250
  6
CONTINUOUS
 90
8
 70
0
 10
-7.523429872
 20
6.303413041
 10
-7.5230714614
 20
6.3018661649
 10
-7.5227164866
 20
6.2990138869
 10
-7.5223649475
 20
6.2948636104
 10
-7.5220159628
 20
6.2894261625
 10
-7.5216704139
 20
6.2827157106
 10
-7.5213309447
 20
6.2747496814
 10
-7.5209975592
 20
6.2655486729
  0
LINE
  5
3C9
100
AcDbEntity
  8
ASSI
100
AcDbLine
 62
250
  6
CONTINUOUS
 10
-5.6245422035
 20
17.7586578344
 11
-5.6246900307
 21
17.7626527802
  0
LINE
  5
3CA
100
AcDbEntity
  8
ASSI
100
AcDbLine
 62
250
  6
CONTINUOUS
 10
-5.5651898749
 20
16.031744794
 11
-5.5653347936
 21
16.035733081
  0
LINE
  5
3CB
100
AcDbEntity
  8
ASSI
100
AcDbLine
 62
250
  6
CONTINUOUS
 10
-4.2307811025
 20
22.2677154217
 11
-4.2307811025
 21
20.7112998105
  0
LINE
  5
3CC
100
AcDbEntity
  8
ASSI
100
AcDbLine
 62
250
  6
CONTINUOUS
 10
-4.2307811025
 20
-20.4203465068
 11
-4.2307811025
 21
-21.9767621179
  0
LINE
  5
3CD
100
AcDbEntity
  8
ASSI
100
AcDbLine
 62
250
  6
CONTINUOUS
 10
-4.0575760218
 20
22.2729561996
 11
-4.0575760218
 21
20.7235782666
  0
LINE
  5
3CE
100
AcDbEntity
  8
ASSI
100
AcDbLine
 62
250
  6
CONTINUOUS
 10
-4.0575760218
 20
-20.4326249629
 11
-4.0575760218
 21
-21.9820028959
  0
LWPOLYLINE
  5
3CF
100
AcDbEntity
  8
ASSI
100
AcDbPolyline
 62
250
  6
CONTINUOUS
 90
14
 70
0
 10
-5.5653347936
 20
-15.7447797772
 10
-5.5651898749
 20
-15.7407914903
 10
-5.5651117551
 20
-15.7389870087
 10
-5.565029886
 20
-15.737308104
 10
-5.5649450781
 20
-15.7357713505
 10
-5.5648573023
 20
-15.734378176
 10
-5.5647665876
 20
-15.7331271527
 10
-5.5646738317
 20
-15.732030572
 10
-5.5645790035
 20
-15.7310899465
 10
-5.564482134
 20
-15.7303037637
 10
-5.5643842134
 20
-15.7296797771
 10
-5.5642855715
 20
-15.7292205715
 10
-5.5641858784
 20
-15.7289235623
 10
-5.5640851341
 20
-15.7287887494
  0
LWPOLYLINE
  5
3D0
100
AcDbEntity
  8
ASSI
100
AcDbPolyline
 62
250
  6
CONTINUOUS
 90
11
 70
0
 10
-5.6246900307
 20
-17.4716994765
 10
-5.6245422035
 20
-17.4677045306
 10
-5.6244625703
 20
-17.4659027268
 10
-5.6243791487
 20
-17.4642304472
 10
-5.624292783
 20
-17.4627045019
 10
-5.624203432
 20
-17.4613262999
 10
-5.6241111369
 20
-17.4600944322
 10
-5.6240168659
 20
-17.4590214817
 10
-5.6239209418
 20
-17.4581116429
 10
-5.6238230419
 20
-17.4573607213
 10
-5.623723166
 20
-17.456768717
  0
LINE
  5
3D1
100
AcDbEntity
  8
ASSI
100
AcDbLine
 62
7
  6
CONTINUOUS
 10
-7.8796689918
 20
-1.1688812912
 11
-7.8514272695
 21
-1.140639569
  0
LINE
  5
3D2
100
AcDbEntity
  8
ASSI
100
AcDbLine
 62
7
  6
CONTINUOUS
 10
-10.1612003474
 20
0.272529942
 11
-10.2153110487
 21
0.2454766519
  0
LWPOLYLINE
  5
3D3
100
AcDbEntity
  8
ASSI
100
AcDbPolyline
 62
250
  6
CONTINUOUS
 90
25
 70
0
 10
6.7812651368
 20
-3.8080767387
 10
6.7619579229
 20
-3.8088538864
 10
6.7427308097
 20
-3.8105078821
 10
6.7236635646
 20
-3.8130318639
 10
6.7048352918
 20
-3.8164153604
 10
6.6863241041
 20
-3.8206443343
 10
6.6682067992
 20
-3.8257012408
 10
6.6505585401
 20
-3.8315651002
 10
6.6334525442
 20
-3.838211585
 10
6.616959779
 20
-3.8456131207
 10
6.6011486681
 20
-3.8537390004
 10
6.5860848067
 20
-3.8625555123
 10
6.5718306902
 20
-3.872026079
 10
6.5584454545
 20
-3.88211141
 10
6.5459846306
 20
-3.8927696641
 10
6.5344999145
 20
-3.9039566233
 10
6.5240389527
 20
-3.9156258763
 10
6.5146451442
 20
-3.9277290108
 10
6.5063574607
 20
-3.9402158145
 10
6.4992102852
 20
-3.9530344833
 10
6.4932332688
 20
-3.9661318366
 10
6.4884512079
 20
-3.9794535374
 10
6.4848839417
 20
-3.992944318
 10
6.4825462693
 20
-4.0065482093
 10
6.4814478886
 20
-4.0202087731
  0
LWPOLYLINE
  5
3D4
100
AcDbEntity
  8
ASSI
100
AcDbPolyline
 62
250
  6
CONTINUOUS
 90
25
 70
0
 10
-7.5187348632
 20
-3.8080767387
 10
-7.5380420771
 20
-3.8088538864
 10
-7.5572691903
 20
-3.8105078821
 10
-7.5763364354
 20
-3.8130318639
 10
-7.5951647082
 20
-3.8164153604
 10
-7.6136758959
 20
-3.8206443343
 10
-7.6317932008
 20
-3.8257012408
 10
-7.6494414599
 20
-3.8315651002
 10
-7.6665474558
 20
-3.838211585
 10
-7.683040221
 20
-3.8456131207
 10
-7.6988513319
 20
-3.8537390004
 10
-7.7139151933
 20
-3.8625555123
 10
-7.7281693098
 20
-3.872026079
 10
-7.7415545455
 20
-3.88211141
 10
-7.7540153694
 20
-3.8927696641
 10
-7.7655000855
 20
-3.9039566233
 10
-7.7759610473
 20
-3.9156258763
 10
-7.7853548558
 20
-3.9277290108
 10
-7.7936425393
 20
-3.9402158145
 10
-7.8007897148
 20
-3.9530344833
 10
-7.8067667312
 20
-3.9661318366
 10
-7.8115487921
 20
-3.9794535374
 10
-7.8151160583
 20
-3.992944318
 10
-7.8174537307
 20
-4.0065482093
 10
-7.8185521114
 20
-4.0202087731
  0
LWPOLYLINE
  5
3D5
100
AcDbEntity
  8
ASSI
100
AcDbPolyline
 62
250
  6
CONTINUOUS
 90
25
 70
0
 10
6.7565724238
 20
-3.1009699575
 10
6.7372652223
 20
-3.1017471043
 10
6.7180381204
 20
-3.1034010981
 10
6.6989708856
 20
-3.1059250771
 10
6.680142622
 20
-3.1093085699
 10
6.6616314424
 20
-3.1135375396
 10
6.643514144
 20
-3.1185944414
 10
6.62586589
 20
-3.1244582957
 10
6.6087598976
 20
-3.1311047753
 10
6.5922671343
 20
-3.1385063059
 10
6.5764560236
 20
-3.1466321808
 10
6.561392161
 20
-3.1554486883
 10
6.5471380418
 20
-3.1649192512
 10
6.5337528021
 20
-3.1750045793
 10
6.5212919731
 20
-3.1856628314
 10
6.5098072511
 20
-3.1968497898
 10
6.4993462825
 20
-3.2085190431
 10
6.4899524669
 20
-3.2206221793
 10
6.4816647762
 20
-3.233108986
 10
6.4745175937
 20
-3.2459276593
 10
6.4685405707
 20
-3.2590250185
 10
6.4637585041
 20
-3.2723467266
 10
6.4601912333
 20
-3.2858375158
 10
6.4578535577
 20
-3.2994414171
 10
6.4567551757
 20
-3.3131019919
  0
LINE
  5
3D6
100
AcDbEntity
  8
ASSI
100
AcDbLine
 62
250
  6
CONTINUOUS
 10
-7.8165065
 20
-4.1616301293
 11
-7.1141155974
 21
-4.1616301293
  0
LINE
  5
3D7
100
AcDbEntity
  8
ASSI
100
AcDbLine
 62
250
  6
CONTINUOUS
 10
6.4834935
 20
-4.1616301293
 11
7.1858844026
 21
-4.1616301293
  0
LINE
  5
3D8
100
AcDbEntity
  8
ASSI
100
AcDbLine
 62
250
  6
CONTINUOUS
 10
6.8881127658
 20
-3.8080767387
 11
6.7812651368
 21
-3.8080767387
  0
LINE
  5
3D9
100
AcDbEntity
  8
ASSI
100
AcDbLine
 62
250
  6
CONTINUOUS
 10
-7.4118872342
 20
-3.8080767387
 11
-7.5187348632
 21
-3.8080767387
  0
LINE
  5
3DA
100
AcDbEntity
  8
ASSI
100
AcDbLine
 62
250
  6
CONTINUOUS
 10
-7.5434273193
 20
-3.100977312
 11
-7.3871947782
 21
-3.1009773154
  0
LINE
  5
3DB
100
AcDbEntity
  8
ASSI
100
AcDbLine
 62
250
  6
CONTINUOUS
 10
6.7565726807
 20
-3.100977312
 11
6.9128052218
 21
-3.1009773154
  0
LWPOLYLINE
  5
3DC
100
AcDbEntity
  8
ASSI
100
AcDbPolyline
 62
250
  6
CONTINUOUS
 90
25
 70
0
 10
-7.4118872342
 20
-3.8080767387
 10
-7.3925800326
 20
-3.8088538855
 10
-7.3733529307
 20
-3.8105078793
 10
-7.3542856959
 20
-3.8130318582
 10
-7.3354574323
 20
-3.8164153511
 10
-7.3169462527
 20
-3.8206443207
 10
-7.2988289544
 20
-3.8257012225
 10
-7.2811807003
 20
-3.8315650769
 10
-7.2640747079
 20
-3.8382115565
 10
-7.2475819446
 20
-3.8456130871
 10
-7.2317708339
 20
-3.853738962
 10
-7.2167069713
 20
-3.8625554694
 10
-7.2024528521
 20
-3.8720260324
 10
-7.1890676124
 20
-3.8821113605
 10
-7.1766067834
 20
-3.8927696126
 10
-7.1651220614
 20
-3.903956571
 10
-7.1546610928
 20
-3.9156258243
 10
-7.1452672772
 20
-3.9277289605
 10
-7.1369795866
 20
-3.9402157672
 10
-7.129832404
 20
-3.9530344405
 10
-7.123855381
 20
-3.9661317997
 10
-7.1190733144
 20
-3.9794535078
 10
-7.1155060436
 20
-3.992944297
 10
-7.113168368
 20
-4.0065481983
 10
-7.112069986
 20
-4.0202087731
  0
LWPOLYLINE
  5
3DD
100
AcDbEntity
  8
ASSI
100
AcDbPolyline
 62
250
  6
CONTINUOUS
 90
25
 70
0
 10
6.8881127658
 20
-3.8080767387
 10
6.9074199674
 20
-3.8088538855
 10
6.9266470693
 20
-3.8105078793
 10
6.9457143041
 20
-3.8130318582
 10
6.9645425677
 20
-3.8164153511
 10
6.9830537473
 20
-3.8206443207
 10
7.0011710456
 20
-3.8257012225
 10
7.0188192997
 20
-3.8315650769
 10
7.0359252921
 20
-3.8382115565
 10
7.0524180554
 20
-3.8456130871
 10
7.0682291661
 20
-3.853738962
 10
7.0832930287
 20
-3.8625554694
 10
7.0975471479
 20
-3.8720260324
 10
7.1109323876
 20
-3.8821113605
 10
7.1233932166
 20
-3.8927696126
 10
7.1348779386
 20
-3.903956571
 10
7.1453389072
 20
-3.9156258243
 10
7.1547327228
 20
-3.9277289605
 10
7.1630204134
 20
-3.9402157672
 10
7.170167596
 20
-3.9530344405
 10
7.176144619
 20
-3.9661317997
 10
7.1809266856
 20
-3.9794535078
 10
7.1844939564
 20
-3.992944297
 10
7.186831632
 20
-4.0065481983
 10
7.187930014
 20
-4.0202087731
  0
LWPOLYLINE
  5
3DE
100
AcDbEntity
  8
ASSI
100
AcDbPolyline
 62
250
  6
CONTINUOUS
 90
25
 70
0
 10
-7.3871945212
 20
-3.1009699575
 10
-7.3678873497
 20
-3.1017471024
 10
-7.3486602761
 20
-3.1034010918
 10
-7.3295930675
 20
-3.1059250639
 10
-7.310764828
 20
-3.1093085478
 10
-7.2922536699
 20
-3.1135375066
 10
-7.2741363894
 20
-3.1185943962
 10
-7.2564881495
 20
-3.1244582374
 10
-7.2393821676
 20
-3.1311047032
 10
-7.2228894104
 20
-3.13850622
 10
-7.2070783017
 20
-3.1466320817
 10
-7.1920144372
 20
-3.1554485768
 10
-7.177760312
 20
-3.164919129
 10
-7.1643750627
 20
-3.1750044483
 10
-7.151914221
 20
-3.1856626941
 10
-7.1404294835
 20
-3.1968496492
 10
-7.1299684974
 20
-3.2085189025
 10
-7.1205746629
 20
-3.2206220422
 10
-7.1122869527
 20
-3.2331088564
 10
-7.1051397509
 20
-3.2459275413
 10
-7.0991627098
 20
-3.2590249161
 10
-7.0943806273
 20
-3.2723466439
 10
-7.0908133435
 20
-3.285837457
 10
-7.088475659
 20
-3.2994413859
 10
-7.0873772731
 20
-3.3131019919
  0
LINE
  5
3DF
100
AcDbEntity
  8
ASSI
100
AcDbLine
 62
7
  6
CONTINUOUS
 10
-10.1612003474
 20
0.0184233617
 11
-10.2153110487
 21
0.0454766519
  0
LINE
  5
3E0
100
AcDbEntity
  8
ASSI
100
AcDbLine
 62
7
  6
CONTINUOUS
 10
-7.8514272695
 20
1.4315928727
 11
-7.8796689918
 21
1.4598345949
  0
LWPOLYLINE
  5
3E1
100
AcDbEntity
  8
ASSI
100
AcDbPolyline
 62
250
  6
CONTINUOUS
 90
13
 70
0
 10
-7.8232469105
 20
6.0035952655
 10
-7.8228887932
 20
6.0029703334
 10
-7.8225340153
 20
6.0018312541
 10
-7.8221825768
 20
6.0001780277
 10
-7.8218335521
 20
5.9980036548
 10
-7.8214878669
 20
5.9953151347
 10
-7.8211482978
 20
5.9921334658
 10
-7.8208149113
 20
5.9884547418
 10
-7.8204876408
 20
5.9842828688
 10
-7.820169064
 20
5.9796505639
 10
-7.8198592551
 20
5.9745542526
 10
-7.8195581399
 20
5.9689975094
 10
-7.8192680728
 20
5.9630237742
  0
LWPOLYLINE
  5
3E2
100
AcDbEntity
  8
ASSI
100
AcDbPolyline
 62
250
  6
CONTINUOUS
 90
5
 70
0
 10
-5.813932765
 20
15.7697799005
 10
-5.8140335892
 20
15.7705762006
 10
-5.8141333164
 20
15.7723621686
 10
-5.8142319466
 20
15.7751321219
 10
-5.8143297745
 20
15.7788772183
  0
LINE
  5
3E3
100
AcDbEntity
  8
ASSI
100
AcDbLine
 62
7
  6
CONTINUOUS
 10
-3.7068860557
 20
22.3047893576
 11
-3.6315925719
 21
20.8141717826
  0
LINE
  5
3E4
100
AcDbEntity
  8
ASSI
100
AcDbLine
 62
7
  6
CONTINUOUS
 10
-3.7068860557
 20
-22.0138360539
 11
-3.6315925719
 21
-20.5232184789
  0
LINE
  5
3E5
100
AcDbEntity
  8
ASSI
100
AcDbLine
 62
250
  6
CONTINUOUS
 10
-5.8735708728
 20
-17.2105667788
 11
-5.8228626171
 21
-16.9545233481
  0
LINE
  5
3E6
100
AcDbEntity
  8
ASSI
100
AcDbLine
 62
250
  6
CONTINUOUS
 10
-5.623723166
 20
-17.456768717
 11
-5.5658007
 21
-17.1642982559
  0
LWPOLYLINE
  5
3E7
100
AcDbEntity
  8
ASSI
100
AcDbPolyline
 62
250
  6
CONTINUOUS
 90
25
 70
0
 10
-7.5434275762
 20
-3.1009699575
 10
-7.5627347777
 20
-3.1017471043
 10
-7.5819618796
 20
-3.1034010981
 10
-7.6010291144
 20
-3.1059250771
 10
-7.619857378
 20
-3.1093085699
 10
-7.6383685576
 20
-3.1135375396
 10
-7.656485856
 20
-3.1185944414
 10
-7.67413411
 20
-3.1244582957
 10
-7.6912401024
 20
-3.1311047753
 10
-7.7077328657
 20
-3.1385063059
 10
-7.7235439764
 20
-3.1466321808
 10
-7.738607839
 20
-3.1554486883
 10
-7.7528619582
 20
-3.1649192512
 10
-7.7662471979
 20
-3.1750045793
 10
-7.7787080269
 20
-3.1856628314
 10
-7.7901927489
 20
-3.1968497898
 10
-7.8006537175
 20
-3.2085190431
 10
-7.8100475331
 20
-3.2206221793
 10
-7.8183352238
 20
-3.233108986
 10
-7.8254824063
 20
-3.2459276593
 10
-7.8314594293
 20
-3.2590250185
 10
-7.8362414959
 20
-3.2723467266
 10
-7.8398087667
 20
-3.2858375158
 10
-7.8421464423
 20
-3.2994414171
 10
-7.8432448243
 20
-3.3131019919
  0
LWPOLYLINE
  5
3E8
100
AcDbEntity
  8
ASSI
100
AcDbPolyline
 62
7
  6
CONTINUOUS
 90
13
 70
0
 10
9.4550413544
 20
-1.1668790699
 10
9.4640250965
 20
-1.1665495602
 10
9.4724155747
 20
-1.1661989465
 10
9.4800881957
 20
-1.1658331491
 10
9.4870141674
 20
-1.1654532065
 10
9.4932222819
 20
-1.1650580802
 10
9.4986743225
 20
-1.1646505749
 10
9.5033795826
 20
-1.1642290907
 10
9.5073287687
 20
-1.1637952275
 10
9.5104557839
 20
-1.1633565898
 10
9.5127385959
 20
-1.1629157123
 10
9.514199237
 20
-1.1624700603
 10
9.5148377071
 20
-1.1620196337
  0
LINE
  5
3E9
100
AcDbEntity
  8
ASSI
100
AcDbLine
 62
7
  6
CONTINUOUS
 10
9.4352623734
 20
-1.1674736531
 11
9.4550413544
 21
-1.1668790699
  0
LINE
  5
3EA
100
AcDbEntity
  8
ASSI
100
AcDbLine
 62
7
  6
CONTINUOUS
 10
9.4136584143
 20
-1.1679701211
 11
9.4352623734
 21
-1.1674736531
  0
LWPOLYLINE
  5
3EB
100
AcDbEntity
  8
ASSI
100
AcDbPolyline
 62
7
  6
CONTINUOUS
 90
3
 70
0
 10
9.3783240978
 20
-1.1685199121
 10
9.390478897
 20
-1.1683630028
 10
9.4136584143
 20
-1.1679701211
  0
LINE
  5
3EC
100
AcDbEntity
  8
ASSI
100
AcDbLine
 62
250
  6
CONTINUOUS
 10
6.4485727305
 20
-2.7474165669
 11
7.2208051721
 21
-2.747416567
  0
LINE
  5
3ED
100
AcDbEntity
  8
ASSI
100
AcDbLine
 62
250
  6
CONTINUOUS
 10
-7.8514272695
 20
-2.7474165669
 11
-7.0791948279
 21
-2.747416567
  0
LINE
  5
3EE
100
AcDbEntity
  8
ASSI
100
AcDbLine
 62
7
  6
CONTINUOUS
 10
-10.0328626751
 20
-1.1681798495
 11
-10.0089461952
 21
-1.1685199121
  0
LINE
  5
3EF
100
AcDbEntity
  8
ASSI
100
AcDbLine
 62
7
  6
CONTINUOUS
 10
-10.0552772347
 20
-1.1677350552
 11
-10.0328626751
 21
-1.1681798495
  0
LWPOLYLINE
  5
3F0
100
AcDbEntity
  8
ASSI
100
AcDbPolyline
 62
250
  6
CONTINUOUS
 90
25
 70
0
 10
6.9128054788
 20
-3.1009699575
 10
6.9321126503
 20
-3.1017471024
 10
6.9513397239
 20
-3.1034010918
 10
6.9704069325
 20
-3.1059250639
 10
6.989235172
 20
-3.1093085478
 10
7.0077463301
 20
-3.1135375066
 10
7.0258636106
 20
-3.1185943962
 10
7.0435118505
 20
-3.1244582374
 10
7.0606178324
 20
-3.1311047032
 10
7.0771105896
 20
-3.13850622
 10
7.0929216983
 20
-3.1466320817
 10
7.1079855628
 20
-3.1554485768
 10
7.122239688
 20
-3.164919129
 10
7.1356249373
 20
-3.1750044483
 10
7.148085779
 20
-3.1856626941
 10
7.1595705165
 20
-3.1968496492
 10
7.1700315026
 20
-3.2085189025
 10
7.1794253371
 20
-3.2206220422
 10
7.1877130473
 20
-3.2331088564
 10
7.1948602491
 20
-3.2459275413
 10
7.2008372902
 20
-3.2590249161
 10
7.2056193727
 20
-3.2723466439
 10
7.2091866565
 20
-3.285837457
 10
7.211524341
 20
-3.2994413859
 10
7.2126227269
 20
-3.3131019919
  0
LINE
  5
3F1
100
AcDbEntity
  8
ASSI
100
AcDbLine
 62
250
  6
CONTINUOUS
 10
-5.8228626171
 20
17.2454766519
 11
-5.8735708728
 21
17.5015200825
  0
LINE
  5
3F2
100
AcDbEntity
  8
ASSI
100
AcDbLine
 62
250
  6
CONTINUOUS
 10
-5.5658007
 20
17.4552515597
 11
-5.623723166
 21
17.7477220208
  0
LWPOLYLINE
  5
3F3
100
AcDbEntity
  8
ASSI
100
AcDbPolyline
 62
250
  6
CONTINUOUS
 90
10
 70
0
 10
-5.623723166
 20
17.7477220208
 10
-5.6238230419
 20
17.748314025
 10
-5.6239209418
 20
17.7490649466
 10
-5.6240168659
 20
17.7499747854
 10
-5.6241111369
 20
17.7510477359
 10
-5.624203432
 20
17.7522796036
 10
-5.624292783
 20
17.7536578057
 10
-5.6243791487
 20
17.755183751
 10
-5.6244625703
 20
17.7568560305
 10
-5.6245422035
 20
17.7586578344
  0
LINE
  5
3F4
100
AcDbEntity
  8
ASSI
100
AcDbLine
 62
7
  6
CONTINUOUS
 10
4.8905758741
 20
20.4511770156
 11
4.9645565773
 21
20.7112998105
  0
LINE
  5
3F5
100
AcDbEntity
  8
ASSI
100
AcDbLine
 62
250
  6
CONTINUOUS
 10
-7.8232469105
 20
-5.7126419618
 11
-7.8785046727
 21
-5.767899724
  0
LINE
  5
3F6
100
AcDbEntity
  8
ASSI
100
AcDbLine
 62
250
  6
CONTINUOUS
 10
-7.5234301899
 20
-6.0124597375
 11
-7.5785601252
 21
-6.0675896727
  0
LINE
  5
3F7
100
AcDbEntity
  8
ASSI
100
AcDbLine
 62
7
  6
CONTINUOUS
 10
1.5542461477
 20
0.0027149997
 11
1.60770311
 21
0.0158053014
  0
LWPOLYLINE
  5
3F8
100
AcDbEntity
  8
ASSI
100
AcDbPolyline
 62
7
  6
CONTINUOUS
 90
25
 70
0
 10
1.3001018915
 20
0.0027149997
 10
1.2838447674
 20
0.0022779993
 10
1.2676929633
 20
0.0009649713
 10
1.251646479
 20
-0.0012240842
 10
1.2356366687
 20
-0.0043056511
 10
1.2197321783
 20
-0.0082632456
 10
1.2041389459
 20
-0.0130474163
 10
1.1889025308
 20
-0.0186509072
 10
1.1739773737
 20
-0.0250809743
 10
1.1594327352
 20
-0.0323099334
 10
1.1452385432
 20
-0.0403588655
 10
1.1314248698
 20
-0.0492066895
 10
1.1181511916
 20
-0.0587624784
 10
1.1054273605
 20
-0.069039186
 10
1.0932435247
 20
-0.0800238583
 10
1.0817296054
 20
-0.0915867068
 10
1.0709135748
 20
-0.103704997
 10
1.0607674608
 20
-0.1164014633
 10
1.0513372679
 20
-0.12961452
 10
1.0426049688
 20
-0.1433844007
 10
1.0345885908
 20
-0.1576708716
 10
1.0273882206
 20
-0.1722916465
 10
1.0210372207
 20
-0.1871859629
 10
1.0155022286
 20
-0.2024145833
 10
1.0107832444
 20
-0.2179775074
  0
LWPOLYLINE
  5
3F9
100
AcDbEntity
  8
ASSI
100
AcDbPolyline
 62
7
  6
CONTINUOUS
 90
25
 70
0
 10
-1.9307239889
 20
0.288238304
 10
-1.9144668648
 20
0.2886753044
 10
-1.8983150607
 20
0.2899883324
 10
-1.8822685764
 20
0.2921773879
 10
-1.8662587661
 20
0.2952589549
 10
-1.8503542757
 20
0.2992165494
 10
-1.8347610433
 20
0.30400072
 10
-1.8195246282
 20
0.309604211
 10
-1.8045994711
 20
0.316034278
 10
-1.7900548326
 20
0.3232632371
 10
-1.7758606406
 20
0.3313121692
 10
-1.7620469672
 20
0.3401599933
 10
-1.748773289
 20
0.3497157821
 10
-1.7360494579
 20
0.3599924897
 10
-1.7238656221
 20
0.370977162
 10
-1.7123517028
 20
0.3825400105
 10
-1.7015356722
 20
0.3946583007
 10
-1.6913895582
 20
0.4073547671
 10
-1.6819593653
 20
0.4205678238
 10
-1.6732270662
 20
0.4343377044
 10
-1.6652106882
 20
0.4486241754
 10
-1.658010318
 20
0.4632449502
 10
-1.6516593181
 20
0.4781392667
 10
-1.646124326
 20
0.493367887
 10
-1.6414053418
 20
0.5089308111
  0
LINE
  5
3FA
100
AcDbEntity
  8
ASSI
100
AcDbLine
 62
7
  6
CONTINUOUS
 10
9.3532080596
 20
-1.1687517742
 11
9.3783240978
 21
-1.1685199121
  0
LINE
  5
3FB
100
AcDbEntity
  8
ASSI
100
AcDbLine
 62
7
  6
CONTINUOUS
 10
9.3277670775
 20
-1.1688669249
 11
9.3532080596
 21
-1.1687517742
  0
LINE
  5
3FC
100
AcDbEntity
  8
ASSI
100
AcDbLine
 62
7
  6
CONTINUOUS
 10
9.3277670775
 20
-1.1688669249
 11
7.2490468944
 21
-1.1688812912
  0
LINE
  5
3FD
100
AcDbEntity
  8
ASSI
100
AcDbLine
 62
7
  6
CONTINUOUS
 10
6.4203310082
 20
-1.1688812912
 11
2.3257045131
 21
-1.1688812912
  0
LINE
  5
3FE
100
AcDbEntity
  8
ASSI
100
AcDbLine
 62
7
  6
CONTINUOUS
 10
-2.9563266105
 20
-1.1688812912
 11
-7.0509531056
 21
-1.1688812912
  0
LINE
  5
3FF
100
AcDbEntity
  8
ASSI
100
AcDbLine
 62
7
  6
CONTINUOUS
 10
-10.1612003474
 20
-1.1305289533
 11
-7.5516100214
 21
-1.1305289533
  0
LINE
  5
400
100
AcDbEntity
  8
ASSI
100
AcDbLine
 62
7
  6
CONTINUOUS
 10
-7.379012076
 20
-1.1305289533
 11
-2.9750684992
 21
-1.1305289533
  0
LINE
  5
401
100
AcDbEntity
  8
ASSI
100
AcDbLine
 62
7
  6
CONTINUOUS
 10
2.3444464018
 20
-1.1305289533
 11
6.7483899786
 21
-1.1305289533
  0
LINE
  5
402
100
AcDbEntity
  8
ASSI
100
AcDbLine
 62
7
  6
CONTINUOUS
 10
6.920987924
 20
-1.1305289533
 11
9.53057825
 21
-1.1305289533
  0
LINE
  5
403
100
AcDbEntity
  8
ASSI
100
AcDbLine
 62
7
  6
CONTINUOUS
 10
-2.1848682451
 20
0.0027149997
 11
-1.9307239889
 21
0.0027149997
  0
LINE
  5
404
100
AcDbEntity
  8
ASSI
100
AcDbLine
 62
7
  6
CONTINUOUS
 10
1.3001018915
 20
0.0027149997
 11
1.5542461477
 21
0.0027149997
  0
LINE
  5
405
100
AcDbEntity
  8
ASSI
100
AcDbLine
 62
7
  6
CONTINUOUS
 10
-2.6116527787
 20
0.0158053014
 11
-2.2383252074
 21
0.0158053014
  0
LINE
  5
406
100
AcDbEntity
  8
ASSI
100
AcDbLine
 62
7
  6
CONTINUOUS
 10
1.60770311
 20
0.0158053014
 11
1.9810306813
 21
0.0158053014
  0
LINE
  5
407
100
AcDbEntity
  8
ASSI
100
AcDbLine
 62
7
  6
CONTINUOUS
 10
9.53057825
 20
0.0184233617
 11
1.9864215318
 21
0.0184233617
  0
LINE
  5
408
100
AcDbEntity
  8
ASSI
100
AcDbLine
 62
7
  6
CONTINUOUS
 10
-2.6170436292
 20
0.0184233617
 11
-10.1612003474
 21
0.0184233617
  0
LINE
  5
409
100
AcDbEntity
  8
ASSI
100
AcDbLine
 62
7
  6
CONTINUOUS
 10
10.6346889501
 20
0.0454766519
 11
9.5846889513
 21
0.0454766519
  0
LINE
  5
40A
100
AcDbEntity
  8
ASSI
100
AcDbLine
 62
7
  6
CONTINUOUS
 10
-10.2153110487
 20
0.0454766519
 11
-11.2653110475
 21
0.0454766519
  0
LINE
  5
40B
100
AcDbEntity
  8
ASSI
100
AcDbLine
 62
7
  6
CONTINUOUS
 10
-11.2653110475
 20
0.2454766519
 11
-10.2153110487
 21
0.2454766519
  0
LINE
  5
40C
100
AcDbEntity
  8
ASSI
100
AcDbLine
 62
7
  6
CONTINUOUS
 10
9.5846889513
 20
0.2454766519
 11
10.6346889501
 21
0.2454766519
  0
LINE
  5
40D
100
AcDbEntity
  8
ASSI
100
AcDbLine
 62
7
  6
CONTINUOUS
 10
-10.1612003474
 20
0.272529942
 11
-2.6170436292
 21
0.272529942
  0
LINE
  5
40E
100
AcDbEntity
  8
ASSI
100
AcDbLine
 62
7
  6
CONTINUOUS
 10
1.9864215318
 20
0.272529942
 11
9.53057825
 21
0.272529942
  0
LINE
  5
40F
100
AcDbEntity
  8
ASSI
100
AcDbLine
 62
7
  6
CONTINUOUS
 10
1.9810306813
 20
0.2751480023
 11
1.60770311
 21
0.2751480023
  0
LINE
  5
410
100
AcDbEntity
  8
ASSI
100
AcDbLine
 62
7
  6
CONTINUOUS
 10
-2.2383252074
 20
0.2751480023
 11
-2.6116527787
 21
0.2751480023
  0
LINE
  5
411
100
AcDbEntity
  8
ASSI
100
AcDbLine
 62
7
  6
CONTINUOUS
 10
1.5542461477
 20
0.288238304
 11
1.3001018915
 21
0.288238304
  0
LINE
  5
412
100
AcDbEntity
  8
ASSI
100
AcDbLine
 62
7
  6
CONTINUOUS
 10
-1.9307239889
 20
0.288238304
 11
-2.1848682451
 21
0.288238304
  0
LINE
  5
413
100
AcDbEntity
  8
ASSI
100
AcDbLine
 62
7
  6
CONTINUOUS
 10
-9.9711690416
 20
-1.1688237526
 11
-7.8796689918
 21
-1.1688812912
  0
LWPOLYLINE
  5
414
100
AcDbEntity
  8
ASSI
100
AcDbPolyline
 62
7
  6
CONTINUOUS
 90
3
 70
0
 10
-10.0089461952
 20
-1.1685199121
 10
-9.9964475518
 20
-1.1686502462
 10
-9.9711690416
 20
-1.1688237526
  0
LINE
  5
415
100
AcDbEntity
  8
ASSI
100
AcDbLine
 62
7
  6
CONTINUOUS
 10
-2.2383252074
 20
0.0158053014
 11
-2.1848682451
 21
0.0027149997
  0
LINE
  5
416
100
AcDbEntity
  8
ASSI
100
AcDbLine
 62
250
  6
CONTINUOUS
 10
-7.8785046727
 20
6.0588530277
 11
-7.8232469105
 21
6.0035952655
  0
LINE
  5
417
100
AcDbEntity
  8
ASSI
100
AcDbLine
 62
250
  6
CONTINUOUS
 10
-7.5785601252
 20
6.3585429764
 11
-7.5234301899
 21
6.3034130412
  0
LWPOLYLINE
  5
418
100
AcDbEntity
  8
ASSI
100
AcDbPolyline
 62
7
  6
CONTINUOUS
 90
25
 70
0
 10
-1.6414053418
 20
-0.2179775074
 10
-1.646124326
 20
-0.2024145833
 10
-1.6516593181
 20
-0.1871859629
 10
-1.658010318
 20
-0.1722916465
 10
-1.6652106882
 20
-0.1576708716
 10
-1.6732270662
 20
-0.1433844007
 10
-1.6819593653
 20
-0.12961452
 10
-1.6913895582
 20
-0.1164014633
 10
-1.7015356722
 20
-0.103704997
 10
-1.7123517028
 20
-0.0915867068
 10
-1.7238656221
 20
-0.0800238583
 10
-1.7360494579
 20
-0.069039186
 10
-1.748773289
 20
-0.0587624784
 10
-1.7620469672
 20
-0.0492066895
 10
-1.7758606406
 20
-0.0403588655
 10
-1.7900548326
 20
-0.0323099334
 10
-1.8045994711
 20
-0.0250809743
 10
-1.8195246282
 20
-0.0186509072
 10
-1.8347610433
 20
-0.0130474163
 10
-1.8503542757
 20
-0.0082632456
 10
-1.8662587661
 20
-0.0043056511
 10
-1.8822685764
 20
-0.0012240842
 10
-1.8983150607
 20
0.0009649713
 10
-1.9144668648
 20
0.0022779993
 10
-1.9307239889
 20
0.0027149997
  0
LINE
  5
419
100
AcDbEntity
  8
ASSI
100
AcDbLine
 62
7
  6
CONTINUOUS
 10
4.9645565773
 20
-20.4203465068
 11
4.8905758741
 21
-20.1602237119
  0
LINE
  5
41A
100
AcDbEntity
  8
ASSI
100
AcDbLine
 62
250
  6
CONTINUOUS
 10
4.9931010686
 20
17.7477220208
 11
4.9351786026
 21
17.4552515597
  0
LINE
  5
41B
100
AcDbEntity
  8
ASSI
100
AcDbLine
 62
7
  6
CONTINUOUS
 10
-5.5211979715
 20
-20.1602237119
 11
-5.5951786747
 21
-20.4203465068
  0
LINE
  5
41C
100
AcDbEntity
  8
ASSI
100
AcDbLine
 62
250
  6
CONTINUOUS
 10
6.8928080925
 20
6.3034130412
 11
6.9479380278
 21
6.3585429764
  0
LINE
  5
41D
100
AcDbEntity
  8
ASSI
100
AcDbLine
 62
250
  6
CONTINUOUS
 10
7.1926248131
 20
6.0035952655
 11
7.2478825753
 21
6.0588530277
  0
LINE
  5
41E
100
AcDbEntity
  8
ASSI
100
AcDbLine
 62
7
  6
CONTINUOUS
 10
-2.1848682451
 20
0.288238304
 11
-2.2383252074
 21
0.2751480023
  0
LWPOLYLINE
  5
41F
100
AcDbEntity
  8
ASSI
100
AcDbPolyline
 62
7
  6
CONTINUOUS
 90
13
 70
0
 10
-10.0856634518
 20
1.4578323736
 10
-10.0946471939
 20
1.4575028639
 10
-10.1030376721
 20
1.4571522502
 10
-10.1107102931
 20
1.4567864528
 10
-10.1176362648
 20
1.4564065102
 10
-10.1238443793
 20
1.4560113839
 10
-10.1292964199
 20
1.4556038786
 10
-10.13400168
 20
1.4551823944
 10
-10.1379508661
 20
1.4547485312
 10
-10.1410778813
 20
1.4543098935
 10
-10.1433606933
 20
1.453869016
 10
-10.1448213344
 20
1.453423364
 10
-10.1454598045
 20
1.4529729374
  0
LINE
  5
420
100
AcDbEntity
  8
ASSI
100
AcDbLine
 62
7
  6
CONTINUOUS
 10
-10.0658844708
 20
1.4584269568
 11
-10.0856634518
 21
1.4578323736
  0
LINE
  5
421
100
AcDbEntity
  8
ASSI
100
AcDbLine
 62
7
  6
CONTINUOUS
 10
-10.0442805117
 20
1.4589234248
 11
-10.0658844708
 21
1.4584269568
  0
LINE
  5
422
100
AcDbEntity
  8
ASSI
100
AcDbLine
 62
7
  6
CONTINUOUS
 10
-10.0211009944
 20
1.4593163065
 11
-10.0442805117
 21
1.4589234248
  0
LINE
  5
423
100
AcDbEntity
  8
ASSI
100
AcDbLine
 62
7
  6
CONTINUOUS
 10
-9.9964475518
 20
1.4596035499
 11
-10.0211009944
 21
1.4593163065
  0
LINE
  5
424
100
AcDbEntity
  8
ASSI
100
AcDbLine
 62
7
  6
CONTINUOUS
 10
-9.9711690417
 20
1.4597770563
 11
-9.9964475518
 21
1.4596035499
  0
LINE
  5
425
100
AcDbEntity
  8
ASSI
100
AcDbLine
 62
7
  6
CONTINUOUS
 10
9.53057825
 20
1.421482257
 11
6.920987924
 21
1.421482257
  0
LINE
  5
426
100
AcDbEntity
  8
ASSI
100
AcDbLine
 62
7
  6
CONTINUOUS
 10
6.7483899786
 20
1.421482257
 11
2.3444464018
 21
1.421482257
  0
LINE
  5
427
100
AcDbEntity
  8
ASSI
100
AcDbLine
 62
7
  6
CONTINUOUS
 10
-2.9750684992
 20
1.421482257
 11
-7.379012076
 21
1.421482257
  0
LINE
  5
428
100
AcDbEntity
  8
ASSI
100
AcDbLine
 62
7
  6
CONTINUOUS
 10
-7.5516100214
 20
1.421482257
 11
-10.1612003474
 21
1.421482257
  0
LINE
  5
429
100
AcDbEntity
  8
ASSI
100
AcDbLine
 62
7
  6
CONTINUOUS
 10
-9.9711690417
 20
1.4597770563
 11
-7.8796689918
 21
1.4598345949
  0
LINE
  5
42A
100
AcDbEntity
  8
ASSI
100
AcDbLine
 62
7
  6
CONTINUOUS
 10
-7.0509531056
 20
1.4598345949
 11
-2.9563266105
 21
1.4598345949
  0
LINE
  5
42B
100
AcDbEntity
  8
ASSI
100
AcDbLine
 62
7
  6
CONTINUOUS
 10
2.3257045131
 20
1.4598345949
 11
6.4203310082
 21
1.4598345949
  0
LINE
  5
42C
100
AcDbEntity
  8
ASSI
100
AcDbLine
 62
7
  6
CONTINUOUS
 10
9.3405469442
 20
1.4597770563
 11
7.2490468944
 21
1.4598345949
  0
LINE
  5
42D
100
AcDbEntity
  8
ASSI
100
AcDbLine
 62
7
  6
CONTINUOUS
 10
9.3658254544
 20
1.4596035499
 11
9.3405469442
 21
1.4597770563
  0
LINE
  5
42E
100
AcDbEntity
  8
ASSI
100
AcDbLine
 62
7
  6
CONTINUOUS
 10
9.390478897
 20
1.4593163065
 11
9.3658254544
 21
1.4596035499
  0
LINE
  5
42F
100
AcDbEntity
  8
ASSI
100
AcDbLine
 62
7
  6
CONTINUOUS
 10
9.4136584143
 20
1.4589234248
 11
9.390478897
 21
1.4593163065
  0
LINE
  5
430
100
AcDbEntity
  8
ASSI
100
AcDbLine
 62
7
  6
CONTINUOUS
 10
9.4352623734
 20
1.4584269568
 11
9.4136584143
 21
1.4589234248
  0
LINE
  5
431
100
AcDbEntity
  8
ASSI
100
AcDbLine
 62
7
  6
CONTINUOUS
 10
1.60770311
 20
0.2751480023
 11
1.5542461477
 21
0.288238304
  0
LINE
  5
432
100
AcDbEntity
  8
ASSI
100
AcDbLine
 62
250
  6
CONTINUOUS
 10
6.9479380278
 20
-6.0675896727
 11
6.8928080925
 21
-6.0124597375
  0
LINE
  5
433
100
AcDbEntity
  8
ASSI
100
AcDbLine
 62
250
  6
CONTINUOUS
 10
7.2478825753
 20
-5.767899724
 11
7.1926248131
 21
-5.7126419618
  0
LWPOLYLINE
  5
434
100
AcDbEntity
  8
ASSI
100
AcDbPolyline
 62
7
  6
CONTINUOUS
 90
25
 70
0
 10
1.0107832444
 20
0.5089308111
 10
1.0155022286
 20
0.493367887
 10
1.0210372207
 20
0.4781392667
 10
1.0273882206
 20
0.4632449502
 10
1.0345885908
 20
0.4486241754
 10
1.0426049688
 20
0.4343377044
 10
1.0513372679
 20
0.4205678238
 10
1.0607674608
 20
0.4073547671
 10
1.0709135748
 20
0.3946583007
 10
1.0817296054
 20
0.3825400105
 10
1.0932435247
 20
0.370977162
 10
1.1054273605
 20
0.3599924897
 10
1.1181511916
 20
0.3497157821
 10
1.1314248698
 20
0.3401599933
 10
1.1452385432
 20
0.3313121692
 10
1.1594327352
 20
0.3232632371
 10
1.1739773737
 20
0.316034278
 10
1.1889025308
 20
0.309604211
 10
1.2041389459
 20
0.30400072
 10
1.2197321783
 20
0.2992165494
 10
1.2356366687
 20
0.2952589549
 10
1.251646479
 20
0.2921773879
 10
1.2676929633
 20
0.2899883324
 10
1.2838447674
 20
0.2886753044
 10
1.3001018915
 20
0.288238304
  0
LINE
  5
435
100
AcDbEntity
  8
ASSI
100
AcDbLine
 62
7
  6
CONTINUOUS
 10
-5.5951786747
 20
20.7112998105
 11
-5.5211979715
 21
20.4511770156
  0
LINE
  5
436
100
AcDbEntity
  8
ASSI
100
AcDbLine
 62
250
  6
CONTINUOUS
 10
4.9351786026
 20
-17.1642982559
 11
4.9931010686
 21
-17.456768717
  0
LINE
  5
437
100
AcDbEntity
  8
ASSI
100
AcDbLine
 62
7
  6
CONTINUOUS
 10
3.0762639583
 20
-22.0138360539
 11
3.0009704745
 21
-20.5232184789
  0
LINE
  5
438
100
AcDbEntity
  8
ASSI
100
AcDbLine
 62
7
  6
CONTINUOUS
 10
3.0762639583
 20
22.3047893576
 11
3.0009704745
 21
20.8141717826
  0
LINE
  5
439
100
AcDbEntity
  8
ASSI
100
AcDbLine
 62
250
  6
CONTINUOUS
 10
5.2429487754
 20
17.5015200825
 11
5.1922405197
 21
17.2454766519
  0
LWPOLYLINE
  5
43A
100
AcDbEntity
  8
ASSI
100
AcDbPolyline
 62
250
  6
CONTINUOUS
 90
25
 70
0
 10
6.9128054788
 20
3.3919232613
 10
6.9321126803
 20
3.392700408
 10
6.9513397822
 20
3.3943544018
 10
6.970407017
 20
3.3968783808
 10
6.9892352806
 20
3.4002618736
 10
7.0077464602
 20
3.4044908433
 10
7.0258637586
 20
3.4095477451
 10
7.0435120126
 20
3.4154115994
 10
7.060618005
 20
3.422058079
 10
7.0771107683
 20
3.4294596096
 10
7.092921879
 20
3.4375854845
 10
7.1079857416
 20
3.446401992
 10
7.1222398608
 20
3.455872555
 10
7.1356251005
 20
3.465957883
 10
7.1480859295
 20
3.4766161351
 10
7.1595706515
 20
3.4878030935
 10
7.1700316201
 20
3.4994723469
 10
7.1794254357
 20
3.511575483
 10
7.1877131264
 20
3.5240622897
 10
7.1948603089
 20
3.5368809631
 10
7.2008373319
 20
3.5499783222
 10
7.2056193985
 20
3.5633000303
 10
7.2091866693
 20
3.5767908196
 10
7.2115243449
 20
3.5903947208
 10
7.2126227269
 20
3.6040552956
  0
LWPOLYLINE
  5
43B
100
AcDbEntity
  8
ASSI
100
AcDbPolyline
 62
250
  6
CONTINUOUS
 90
25
 70
0
 10
-7.3871945212
 20
3.3919232613
 10
-7.3678873197
 20
3.392700408
 10
-7.3486602178
 20
3.3943544018
 10
-7.329592983
 20
3.3968783808
 10
-7.3107647194
 20
3.4002618736
 10
-7.2922535398
 20
3.4044908433
 10
-7.2741362414
 20
3.4095477451
 10
-7.2564879874
 20
3.4154115994
 10
-7.239381995
 20
3.422058079
 10
-7.2228892317
 20
3.4294596096
 10
-7.207078121
 20
3.4375854845
 10
-7.1920142584
 20
3.446401992
 10
-7.1777601392
 20
3.455872555
 10
-7.1643748995
 20
3.465957883
 10
-7.1519140705
 20
3.4766161351
 10
-7.1404293485
 20
3.4878030935
 10
-7.1299683799
 20
3.4994723469
 10
-7.1205745643
 20
3.511575483
 10
-7.1122868736
 20
3.5240622897
 10
-7.1051396911
 20
3.5368809631
 10
-7.0991626681
 20
3.5499783222
 10
-7.0943806015
 20
3.5633000303
 10
-7.0908133307
 20
3.5767908196
 10
-7.0884756551
 20
3.5903947208
 10
-7.0873772731
 20
3.6040552956
  0
LINE
  5
43C
100
AcDbEntity
  8
ASSI
100
AcDbLine
 62
250
  6
CONTINUOUS
 10
-7.8514272695
 20
3.0383698707
 11
-7.0791948279
 21
3.0383698707
  0
LINE
  5
43D
100
AcDbEntity
  8
ASSI
100
AcDbLine
 62
250
  6
CONTINUOUS
 10
6.4485727305
 20
3.0383698707
 11
7.2208051721
 21
3.0383698707
  0
LINE
  5
43E
100
AcDbEntity
  8
ASSI
100
AcDbLine
 62
250
  6
CONTINUOUS
 10
-7.3871947781
 20
3.3919306157
 11
-7.5434273192
 21
3.3919306191
  0
LINE
  5
43F
100
AcDbEntity
  8
ASSI
100
AcDbLine
 62
250
  6
CONTINUOUS
 10
6.9128052219
 20
3.3919306157
 11
6.7565726808
 21
3.3919306191
  0
LWPOLYLINE
  5
440
100
AcDbEntity
  8
ASSI
100
AcDbPolyline
 62
250
  6
CONTINUOUS
 90
25
 70
0
 10
-7.5434275762
 20
3.3919232613
 10
-7.5627347477
 20
3.3927004061
 10
-7.5819618213
 20
3.3943543955
 10
-7.6010290299
 20
3.3968783676
 10
-7.6198572694
 20
3.4002618515
 10
-7.6383684275
 20
3.4044908103
 10
-7.656485708
 20
3.4095476999
 10
-7.6741339479
 20
3.4154115411
 10
-7.6912399298
 20
3.4220580069
 10
-7.707732687
 20
3.4294595237
 10
-7.7235437957
 20
3.4375853854
 10
-7.7386076602
 20
3.4464018805
 10
-7.7528617854
 20
3.4558724327
 10
-7.7662470347
 20
3.465957752
 10
-7.7787078764
 20
3.4766159978
 10
-7.7901926139
 20
3.4878029529
 10
-7.8006536
 20
3.4994722062
 10
-7.8100474345
 20
3.5115753459
 10
-7.8183351447
 20
3.5240621601
 10
-7.8254823465
 20
3.536880845
 10
-7.8314593876
 20
3.5499782198
 10
-7.8362414701
 20
3.5632999476
 10
-7.8398087539
 20
3.5767907607
 10
-7.8421464384
 20
3.5903946896
 10
-7.8432448243
 20
3.6040552956
  0
LWPOLYLINE
  5
441
100
AcDbEntity
  8
ASSI
100
AcDbPolyline
 62
250
  6
CONTINUOUS
 90
25
 70
0
 10
6.7565724238
 20
3.3919232613
 10
6.7372652523
 20
3.3927004061
 10
6.7180381787
 20
3.3943543955
 10
6.6989709701
 20
3.3968783676
 10
6.6801427306
 20
3.4002618515
 10
6.6616315725
 20
3.4044908103
 10
6.643514292
 20
3.4095476999
 10
6.6258660521
 20
3.4154115411
 10
6.6087600702
 20
3.4220580069
 10
6.592267313
 20
3.4294595237
 10
6.5764562043
 20
3.4375853854
 10
6.5613923398
 20
3.4464018805
 10
6.5471382146
 20
3.4558724327
 10
6.5337529653
 20
3.465957752
 10
6.5212921236
 20
3.4766159978
 10
6.5098073861
 20
3.4878029529
 10
6.4993464
 20
3.4994722062
 10
6.4899525655
 20
3.5115753459
 10
6.4816648553
 20
3.5240621601
 10
6.4745176535
 20
3.536880845
 10
6.4685406124
 20
3.5499782198
 10
6.4637585299
 20
3.5632999476
 10
6.4601912461
 20
3.5767907607
 10
6.4578535616
 20
3.5903946896
 10
6.4567551757
 20
3.6040552956
  0
LINE
  5
442
100
AcDbEntity
  8
ASSI
100
AcDbLine
 62
250
  6
CONTINUOUS
 10
5.1922405197
 20
-16.9545233481
 11
5.2429487754
 21
-17.2105667788
  0
LWPOLYLINE
  5
443
100
AcDbEntity
  8
ASSI
100
AcDbPolyline
 62
250
  6
CONTINUOUS
 90
10
 70
0
 10
4.9931010686
 20
-17.456768717
 10
4.9932009445
 20
-17.4573607213
 10
4.9932988444
 20
-17.4581116429
 10
4.9933947685
 20
-17.4590214817
 10
4.9934890395
 20
-17.4600944322
 10
4.9935813346
 20
-17.4613262999
 10
4.9936706856
 20
-17.462704502
 10
4.9937570513
 20
-17.4642304472
 10
4.9938404729
 20
-17.4659027268
 10
4.9939201061
 20
-17.4677045306
  0
LWPOLYLINE
  5
444
100
AcDbEntity
  8
ASSI
100
AcDbPolyline
 62
250
  6
CONTINUOUS
 90
6
 70
0
 10
5.1833106676
 20
-15.4788265967
 10
5.1834114918
 20
-15.4796228968
 10
5.183511219
 20
-15.4814088649
 10
5.1836098492
 20
-15.4841788182
 10
5.1837076771
 20
-15.4879239146
 10
5.1838044081
 20
-15.4926319287
  0
LWPOLYLINE
  5
445
100
AcDbEntity
  8
ASSI
100
AcDbPolyline
 62
7
  6
CONTINUOUS
 90
31
 70
0
 10
5.6341993
 20
-17.1642982559
 10
5.6335730182
 20
-17.1550804721
 10
5.6324550605
 20
-17.1457982083
 10
5.630835029
 20
-17.1364736582
 10
5.6287028654
 20
-17.1271340463
 10
5.6260508907
 20
-17.1177994249
 10
5.6228736909
 20
-17.1084826756
 10
5.6191658998
 20
-17.0992122364
 10
5.6149220428
 20
-17.0900123032
 10
5.6101371099
 20
-17.0808910937
 10
5.6048088982
 20
-17.0718797204
 10
5.5989348722
 20
-17.063005341
 10
5.592508583
 20
-17.0542728853
 10
5.5855310333
 20
-17.0457168693
 10
5.5780026403
 20
-17.0373677461
 10
5.5699140175
 20
-17.0292285649
 10
5.5612695678
 20
-17.0213380263
 10
5.552073354
 20
-17.0137309617
 10
5.5423128961
 20
-17.0064109701
 10
5.5319967071
 20
-16.9994218905
 10
5.5211341918
 20
-16.9928043135
 10
5.5097121151
 20
-16.9865656882
 10
5.4977438715
 20
-16.9807553869
 10
5.4852480161
 20
-16.975421424
 10
5.4722190466
 20
-16.9705794212
 10
5.4586774833
 20
-16.9662837655
 10
5.4446563522
 20
-16.962589676
 10
5.4301726853
 20
-16.959522744
 10
5.4152598229
 20
-16.9571313076
 10
5.3999689247
 20
-16.9554817789
 10
5.3843515933
 20
-16.9546289591
  0
LINE
  5
446
100
AcDbEntity
  8
ASSI
100
AcDbLine
 62
250
  6
CONTINUOUS
 10
4.9939201061
 20
-17.4677045306
 11
4.9940679333
 21
-17.4716994765
  0
LINE
  5
447
100
AcDbEntity
  8
ASSI
100
AcDbLine
 62
250
  6
CONTINUOUS
 10
4.9345677775
 20
-15.7407914903
 11
4.9347126962
 21
-15.7447797772
  0
LWPOLYLINE
  5
448
100
AcDbEntity
  8
ASSI
100
AcDbPolyline
 62
250
  6
CONTINUOUS
 90
3
 70
0
 10
5.2429487754
 20
-17.2105667788
 10
5.2430487015
 20
-17.2140933706
 10
5.2431466134
 20
-17.2186074688
  0
LINE
  5
449
100
AcDbEntity
  8
ASSI
100
AcDbLine
 62
250
  6
CONTINUOUS
 10
4.9940679333
 20
-17.4716994765
 11
4.9941983612
 21
-17.4761507389
  0
LINE
  5
44A
100
AcDbEntity
  8
ASSI
100
AcDbLine
 62
250
  6
CONTINUOUS
 10
4.9347126962
 20
-15.7447797772
 11
4.9348404667
 21
-15.7492099775
  0
LINE
  5
44B
100
AcDbEntity
  8
ASSI
100
AcDbLine
 62
250
  6
CONTINUOUS
 10
4.9941983612
 20
-17.4761507389
 11
4.9943100666
 21
-17.481013124
  0
LINE
  5
44C
100
AcDbEntity
  8
ASSI
100
AcDbLine
 62
250
  6
CONTINUOUS
 10
4.9348404667
 20
-15.7492099775
 11
4.9349498241
 21
-15.7540381696
  0
LINE
  5
44D
100
AcDbEntity
  8
ASSI
100
AcDbLine
 62
250
  6
CONTINUOUS
 10
4.9943100666
 20
-17.481013124
 11
4.9944012188
 21
-17.4862144881
  0
LINE
  5
44E
100
AcDbEntity
  8
ASSI
100
AcDbLine
 62
250
  6
CONTINUOUS
 10
4.9349498241
 20
-15.7540381696
 11
4.9350390253
 21
-15.7591946179
  0
LINE
  5
44F
100
AcDbEntity
  8
ASSI
100
AcDbLine
 62
250
  6
CONTINUOUS
 10
4.9944012188
 20
-17.4862144881
 11
4.9944705746
 21
-17.4916739208
  0
LINE
  5
450
100
AcDbEntity
  8
ASSI
100
AcDbLine
 62
250
  6
CONTINUOUS
 10
4.9350390253
 20
-15.7591946179
 11
4.9351068767
 21
-15.7646008048
  0
LINE
  5
451
100
AcDbEntity
  8
ASSI
100
AcDbLine
 62
250
  6
CONTINUOUS
 10
4.9944705746
 20
-17.4916739208
 11
4.9945174381
 21
-17.4973352614
  0
LINE
  5
452
100
AcDbEntity
  8
ASSI
100
AcDbLine
 62
250
  6
CONTINUOUS
 10
4.9351068767
 20
-15.7646008048
 11
4.9351670228
 21
-15.7730346582
  0
LINE
  5
453
100
AcDbEntity
  8
ASSI
100
AcDbLine
 62
250
  6
CONTINUOUS
 10
3.4269539244
 20
-21.9820028959
 11
3.4269539244
 21
-20.4326249629
  0
LINE
  5
454
100
AcDbEntity
  8
ASSI
100
AcDbLine
 62
250
  6
CONTINUOUS
 10
3.4269539244
 20
20.7235782666
 11
3.4269539244
 21
22.2729561996
  0
LINE
  5
455
100
AcDbEntity
  8
ASSI
100
AcDbLine
 62
250
  6
CONTINUOUS
 10
3.6001590051
 20
-21.9767621179
 11
3.6001590051
 21
-20.4203465068
  0
LINE
  5
456
100
AcDbEntity
  8
ASSI
100
AcDbLine
 62
250
  6
CONTINUOUS
 10
3.6001590051
 20
20.7112998105
 11
3.6001590051
 21
22.2677154217
  0
LINE
  5
457
100
AcDbEntity
  8
ASSI
100
AcDbLine
 62
250
  6
CONTINUOUS
 10
4.9351670228
 20
16.0639879619
 11
4.9351068767
 21
16.0555541085
  0
LINE
  5
458
100
AcDbEntity
  8
ASSI
100
AcDbLine
 62
250
  6
CONTINUOUS
 10
4.9945174381
 20
17.7882885651
 11
4.9944386959
 21
17.7798682496
  0
LINE
  5
459
100
AcDbEntity
  8
ASSI
100
AcDbLine
 62
250
  6
CONTINUOUS
 10
4.9351068767
 20
16.0555541085
 11
4.9350390253
 21
16.0501479216
  0
LINE
  5
45A
100
AcDbEntity
  8
ASSI
100
AcDbLine
 62
250
  6
CONTINUOUS
 10
4.9944386959
 20
17.7798682496
 11
4.9943581986
 21
17.7745249444
  0
LINE
  5
45B
100
AcDbEntity
  8
ASSI
100
AcDbLine
 62
250
  6
CONTINUOUS
 10
4.9350390253
 20
16.0501479216
 11
4.9349498241
 21
16.0449914733
  0
LINE
  5
45C
100
AcDbEntity
  8
ASSI
100
AcDbLine
 62
250
  6
CONTINUOUS
 10
4.9943581986
 20
17.7745249444
 11
4.9942567698
 21
17.7694930698
  0
LINE
  5
45D
100
AcDbEntity
  8
ASSI
100
AcDbLine
 62
250
  6
CONTINUOUS
 10
4.9349498241
 20
16.0449914733
 11
4.9348404667
 21
16.0401632812
  0
LINE
  5
45E
100
AcDbEntity
  8
ASSI
100
AcDbLine
 62
250
  6
CONTINUOUS
 10
4.9942567698
 20
17.7694930698
 11
4.9941354315
 21
17.7648235818
  0
LINE
  5
45F
100
AcDbEntity
  8
ASSI
100
AcDbLine
 62
250
  6
CONTINUOUS
 10
4.9348404667
 20
16.0401632812
 11
4.9347126962
 21
16.0357330809
  0
LWPOLYLINE
  5
460
100
AcDbEntity
  8
ASSI
100
AcDbPolyline
 62
250
  6
CONTINUOUS
 90
12
 70
0
 10
4.9941354315
 20
17.7648235818
 10
4.9939959139
 20
17.7605905451
 10
4.9939201061
 20
17.7586578344
 10
4.9938404729
 20
17.7568560305
 10
4.9937570513
 20
17.7551837509
 10
4.9936706856
 20
17.7536578057
 10
4.9935813346
 20
17.7522796036
 10
4.9934890395
 20
17.7510477359
 10
4.9933947685
 20
17.7499747854
 10
4.9932988444
 20
17.7490649466
 10
4.9932009445
 20
17.748314025
 10
4.9931010686
 20
17.7477220208
  0
LWPOLYLINE
  5
461
100
AcDbEntity
  8
ASSI
100
AcDbPolyline
 62
250
  6
CONTINUOUS
 90
14
 70
0
 10
4.9347126962
 20
16.0357330809
 10
4.9345677775
 20
16.031744794
 10
4.9344896577
 20
16.0299403124
 10
4.9344077886
 20
16.0282614077
 10
4.9343229807
 20
16.0267246542
 10
4.9342352049
 20
16.0253314797
 10
4.9341444902
 20
16.0240804564
 10
4.9340517343
 20
16.0229838758
 10
4.9339569061
 20
16.0220432503
 10
4.9338600366
 20
16.0212570674
 10
4.933762116
 20
16.0206330808
 10
4.9336634741
 20
16.0201738752
 10
4.933563781
 20
16.019876866
 10
4.9334630367
 20
16.0197420531
  0
LWPOLYLINE
  5
462
100
AcDbEntity
  8
ASSI
100
AcDbPolyline
 62
7
  6
CONTINUOUS
 90
31
 70
0
 10
5.6341993
 20
17.4552515597
 10
5.6335741486
 20
17.4459951809
 10
5.6324559742
 20
17.436720315
 10
5.630835029
 20
17.4274269619
 10
5.6287026658
 20
17.4180941665
 10
5.6260511791
 20
17.408742884
 10
5.6228736909
 20
17.3994359793
 10
5.6191656769
 20
17.3901731492
 10
5.6149223623
 20
17.380954697
 10
5.6101371099
 20
17.3718443974
 10
5.6048086568
 20
17.3628412674
 10
5.5989352341
 20
17.35394629
 10
5.592508583
 20
17.345226189
 10
5.585530774
 20
17.3366790266
 10
5.5780030594
 20
17.3283067407
 10
5.5699140175
 20
17.3201818687
 10
5.5612692853
 20
17.3123009754
 10
5.5520738451
 20
17.3046674962
 10
5.5423128961
 20
17.2973642739
 10
5.5319963882
 20
17.2903860821
 10
5.5211347621
 20
17.2837381473
 10
5.5097121151
 20
17.277518992
 10
5.4977434874
 20
17.2717218059
 10
5.4852486408
 20
17.2663533993
 10
5.4722190466
 20
17.2615327249
 10
5.4586769946
 20
17.2572537558
 10
5.4446569515
 20
17.2535225189
 10
5.4301726853
 20
17.2504760478
 10
5.4152576143
 20
17.2481600203
 10
5.3999661812
 20
17.2465287587
 10
5.3843515933
 20
17.2455822628
  0
LINE
  5
463
100
AcDbEntity
  8
ASSI
100
AcDbLine
 62
7
  6
CONTINUOUS
 10
7.2490468944
 20
1.4598345949
 11
7.2208051721
 21
1.4315928727
  0
LINE
  5
464
100
AcDbEntity
  8
ASSI
100
AcDbLine
 62
7
  6
CONTINUOUS
 10
9.53057825
 20
0.0184233617
 11
9.5846889513
 21
0.0454766519
  0
LWPOLYLINE
  5
465
100
AcDbEntity
  8
ASSI
100
AcDbPolyline
 62
250
  6
CONTINUOUS
 90
25
 70
0
 10
6.8881127658
 20
4.0990300425
 10
6.9074199797
 20
4.0998071901
 10
6.9266470929
 20
4.1014611858
 10
6.945714338
 20
4.1039851676
 10
6.9645426108
 20
4.1073686641
 10
6.9830537985
 20
4.111597638
 10
7.0011711034
 20
4.1166545446
 10
7.0188193625
 20
4.122518404
 10
7.0359253584
 20
4.1291648887
 10
7.0524181236
 20
4.1365664244
 10
7.0682292345
 20
4.1446923042
 10
7.0832930959
 20
4.153508816
 10
7.0975472124
 20
4.1629793827
 10
7.1109324481
 20
4.1730647137
 10
7.123393272
 20
4.1837229678
 10
7.1348779881
 20
4.194909927
 10
7.1453389499
 20
4.20657918
 10
7.1547327584
 20
4.2186823145
 10
7.1630204419
 20
4.2311691182
 10
7.1701676174
 20
4.2439877871
 10
7.1761446338
 20
4.2570851403
 10
7.1809266947
 20
4.2704068411
 10
7.1844939609
 20
4.2838976217
 10
7.1868316334
 20
4.2975015131
 10
7.187930014
 20
4.3111620768
  0
LWPOLYLINE
  5
466
100
AcDbEntity
  8
ASSI
100
AcDbPolyline
 62
250
  6
CONTINUOUS
 90
25
 70
0
 10
-7.4118872342
 20
4.0990300425
 10
-7.3925800203
 20
4.0998071901
 10
-7.3733529071
 20
4.1014611858
 10
-7.354285662
 20
4.1039851676
 10
-7.3354573892
 20
4.1073686641
 10
-7.3169462015
 20
4.111597638
 10
-7.2988288966
 20
4.1166545446
 10
-7.2811806375
 20
4.122518404
 10
-7.2640746416
 20
4.1291648887
 10
-7.2475818764
 20
4.1365664244
 10
-7.2317707655
 20
4.1446923042
 10
-7.2167069041
 20
4.153508816
 10
-7.2024527876
 20
4.1629793827
 10
-7.1890675519
 20
4.1730647137
 10
-7.176606728
 20
4.1837229678
 10
-7.1651220119
 20
4.194909927
 10
-7.1546610501
 20
4.20657918
 10
-7.1452672416
 20
4.2186823145
 10
-7.1369795581
 20
4.2311691182
 10
-7.1298323826
 20
4.2439877871
 10
-7.1238553662
 20
4.2570851403
 10
-7.1190733053
 20
4.2704068411
 10
-7.1155060391
 20
4.2838976217
 10
-7.1131683666
 20
4.2975015131
 10
-7.112069986
 20
4.3111620768
  0
LINE
  5
467
100
AcDbEntity
  8
ASSI
100
AcDbLine
 62
250
  6
CONTINUOUS
 10
-7.5187348632
 20
4.0990300425
 11
-7.4118872342
 21
4.0990300425
  0
LINE
  5
468
100
AcDbEntity
  8
ASSI
100
AcDbLine
 62
250
  6
CONTINUOUS
 10
6.7812651368
 20
4.0990300425
 11
6.8881127658
 21
4.0990300425
  0
LINE
  5
469
100
AcDbEntity
  8
ASSI
100
AcDbLine
 62
250
  6
CONTINUOUS
 10
-7.8165065
 20
4.452583433
 11
-7.1141155974
 21
4.452583433
  0
LINE
  5
46A
100
AcDbEntity
  8
ASSI
100
AcDbLine
 62
250
  6
CONTINUOUS
 10
6.4834935
 20
4.452583433
 11
7.1858844026
 21
4.452583433
  0
LWPOLYLINE
  5
46B
100
AcDbEntity
  8
ASSI
100
AcDbPolyline
 62
250
  6
CONTINUOUS
 90
25
 70
0
 10
-7.5187348632
 20
4.0990300425
 10
-7.5380420648
 20
4.0998071892
 10
-7.5572691667
 20
4.101461183
 10
-7.5763364015
 20
4.1039851619
 10
-7.5951646651
 20
4.1073686548
 10
-7.6136758447
 20
4.1115976245
 10
-7.631793143
 20
4.1166545262
 10
-7.6494413971
 20
4.1225183806
 10
-7.6665473895
 20
4.1291648602
 10
-7.6830401528
 20
4.1365663908
 10
-7.6988512635
 20
4.1446922657
 10
-7.7139151261
 20
4.1535087732
 10
-7.7281692453
 20
4.1629793361
 10
-7.741554485
 20
4.1730646642
 10
-7.754015314
 20
4.1837229163
 10
-7.765500036
 20
4.1949098747
 10
-7.7759610046
 20
4.206579128
 10
-7.7853548202
 20
4.2186822642
 10
-7.7936425108
 20
4.2311690709
 10
-7.8007896934
 20
4.2439877443
 10
-7.8067667164
 20
4.2570851034
 10
-7.811548783
 20
4.2704068115
 10
-7.8151160538
 20
4.2838976007
 10
-7.8174537294
 20
4.297501502
 10
-7.8185521114
 20
4.3111620768
  0
LWPOLYLINE
  5
46C
100
AcDbEntity
  8
ASSI
100
AcDbPolyline
 62
250
  6
CONTINUOUS
 90
25
 70
0
 10
6.7812651368
 20
4.0990300425
 10
6.7619579352
 20
4.0998071892
 10
6.7427308333
 20
4.101461183
 10
6.7236635985
 20
4.1039851619
 10
6.7048353349
 20
4.1073686548
 10
6.6863241553
 20
4.1115976245
 10
6.668206857
 20
4.1166545262
 10
6.6505586029
 20
4.1225183806
 10
6.6334526105
 20
4.1291648602
 10
6.6169598472
 20
4.1365663908
 10
6.6011487365
 20
4.1446922657
 10
6.5860848739
 20
4.1535087732
 10
6.5718307547
 20
4.1629793361
 10
6.558445515
 20
4.1730646642
 10
6.545984686
 20
4.1837229163
 10
6.534499964
 20
4.1949098747
 10
6.5240389954
 20
4.206579128
 10
6.5146451798
 20
4.2186822642
 10
6.5063574892
 20
4.2311690709
 10
6.4992103066
 20
4.2439877443
 10
6.4932332836
 20
4.2570851034
 10
6.488451217
 20
4.2704068115
 10
6.4848839462
 20
4.2838976007
 10
6.4825462706
 20
4.297501502
 10
6.4814478886
 20
4.3111620768
  0
LINE
  5
46D
100
AcDbEntity
  8
ASSI
100
AcDbLine
 62
7
  6
CONTINUOUS
 10
9.53057825
 20
0.272529942
 11
9.5846889513
 21
0.2454766519
  0
LINE
  5
46E
100
AcDbEntity
  8
ASSI
100
AcDbLine
 62
7
  6
CONTINUOUS
 10
7.2208051721
 20
-1.140639569
 11
7.2490468944
 21
-1.1688812912
  0
LWPOLYLINE
  5
46F
100
AcDbEntity
  8
ASSI
100
AcDbPolyline
 62
250
  6
CONTINUOUS
 90
13
 70
0
 10
7.1926248131
 20
-5.7126419618
 10
7.1922666958
 20
-5.7120170296
 10
7.1919119179
 20
-5.7108779504
 10
7.1915604794
 20
-5.709224724
 10
7.1912114547
 20
-5.707050351
 10
7.1908657695
 20
-5.704361831
 10
7.1905262004
 20
-5.7011801621
 10
7.1901928139
 20
-5.697501438
 10
7.1898655434
 20
-5.6933295651
 10
7.1895469666
 20
-5.6886972602
 10
7.1892371577
 20
-5.6836009489
 10
7.1889360425
 20
-5.6780442057
 10
7.1886459754
 20
-5.6720704704
  0
LWPOLYLINE
  5
470
100
AcDbEntity
  8
ASSI
100
AcDbPolyline
 62
7
  6
CONTINUOUS
 90
31
 70
0
 10
4.9351786026
 20
17.4552515597
 10
4.9358048844
 20
17.4460337758
 10
4.9369228421
 20
17.436751512
 10
4.9385428736
 20
17.4274269619
 10
4.9406750372
 20
17.41808735
 10
4.9433270119
 20
17.4087527286
 10
4.9465042117
 20
17.3994359793
 10
4.9502120028
 20
17.3901655402
 10
4.9544558598
 20
17.3809656069
 10
4.9592407927
 20
17.3718443974
 10
4.9645690044
 20
17.3628330241
 10
4.9704430304
 20
17.3539586447
 10
4.9768693196
 20
17.345226189
 10
4.9838468693
 20
17.336670173
 10
4.9913752623
 20
17.3283210498
 10
4.9994638851
 20
17.3201818687
 10
5.0081083348
 20
17.31229133
 10
5.0173045486
 20
17.3046842654
 10
5.0270650065
 20
17.2973642739
 10
5.0373811955
 20
17.2903751942
 10
5.0482437108
 20
17.2837576172
 10
5.0596657875
 20
17.277518992
 10
5.0716340311
 20
17.2717086906
 10
5.0841298865
 20
17.2663747278
 10
5.097158856
 20
17.2615327249
 10
5.1107004193
 20
17.2572370692
 10
5.1247215504
 20
17.2535429797
 10
5.1392052173
 20
17.2504760478
 10
5.1541180797
 20
17.2480846114
 10
5.1694089779
 20
17.2464350827
 10
5.1850263093
 20
17.2455822628
  0
LINE
  5
471
100
AcDbEntity
  8
ASSI
100
AcDbLine
 62
250
  6
CONTINUOUS
 10
5.5754577965
 20
17.7586578344
 11
5.5753099693
 21
17.7626527802
  0
LINE
  5
472
100
AcDbEntity
  8
ASSI
100
AcDbLine
 62
250
  6
CONTINUOUS
 10
5.6348101251
 20
16.031744794
 11
5.6346652064
 21
16.035733081
  0
LINE
  5
473
100
AcDbEntity
  8
ASSI
100
AcDbLine
 62
250
  6
CONTINUOUS
 10
6.4551436794
 20
-3.2629120574
 11
6.4818598034
 21
-4.0330829416
  0
LINE
  5
474
100
AcDbEntity
  8
ASSI
100
AcDbLine
 62
250
  6
CONTINUOUS
 10
5.3264291272
 20
17.5015200825
 11
5.3263292011
 21
17.5050466743
  0
LINE
  5
475
100
AcDbEntity
  8
ASSI
100
AcDbLine
 62
250
  6
CONTINUOUS
 10
5.5753099693
 20
17.7626527802
 11
5.5751795414
 21
17.7671040426
  0
LINE
  5
476
100
AcDbEntity
  8
ASSI
100
AcDbLine
 62
250
  6
CONTINUOUS
 10
5.6346652064
 20
16.035733081
 11
5.6345374359
 21
16.0401632812
  0
LINE
  5
477
100
AcDbEntity
  8
ASSI
100
AcDbLine
 62
250
  6
CONTINUOUS
 10
6.4536704512
 20
-3.2080834681
 11
6.4551436794
 21
-3.2629120574
  0
LINE
  5
478
100
AcDbEntity
  8
ASSI
100
AcDbLine
 62
250
  6
CONTINUOUS
 10
6.4818598034
 20
-4.0330829416
 11
6.4822300671
 21
-4.0469021191
  0
LINE
  5
479
100
AcDbEntity
  8
ASSI
100
AcDbLine
 62
250
  6
CONTINUOUS
 10
5.5751795414
 20
17.7671040426
 11
5.575067836
 21
17.7719664277
  0
LINE
  5
47A
100
AcDbEntity
  8
ASSI
100
AcDbLine
 62
250
  6
CONTINUOUS
 10
5.6345374359
 20
16.0401632812
 11
5.6344280785
 21
16.0449914733
  0
LINE
  5
47B
100
AcDbEntity
  8
ASSI
100
AcDbLine
 62
250
  6
CONTINUOUS
 10
6.4517493048
 20
-3.1178693356
 11
6.4536704512
 21
-3.2080834681
  0
LINE
  5
47C
100
AcDbEntity
  8
ASSI
100
AcDbLine
 62
250
  6
CONTINUOUS
 10
6.4822300671
 20
-4.0469021191
 11
6.4827041738
 21
-4.0692723837
  0
LINE
  5
47D
100
AcDbEntity
  8
ASSI
100
AcDbLine
 62
250
  6
CONTINUOUS
 10
5.3263292011
 20
17.5050466743
 11
5.3261353917
 21
17.515047626
  0
LINE
  5
47E
100
AcDbEntity
  8
ASSI
100
AcDbLine
 62
250
  6
CONTINUOUS
 10
5.3856702255
 20
15.7788772183
 11
5.3854787451
 21
15.7892403713
  0
LINE
  5
47F
100
AcDbEntity
  8
ASSI
100
AcDbLine
 62
250
  6
CONTINUOUS
 10
5.3625811805
 20
-20.2134809607
 11
5.3251498753
 21
-17.9148004279
  0
LINE
  5
480
100
AcDbEntity
  8
ASSI
100
AcDbLine
 62
250
  6
CONTINUOUS
 10
5.2067967221
 20
20.5044342644
 11
5.2442280273
 21
18.2057537316
  0
LINE
  5
481
100
AcDbEntity
  8
ASSI
100
AcDbLine
 62
250
  6
CONTINUOUS
 10
5.575067836
 20
17.7719664277
 11
5.5749766838
 21
17.7771677918
  0
LINE
  5
482
100
AcDbEntity
  8
ASSI
100
AcDbLine
 62
250
  6
CONTINUOUS
 10
5.6344280785
 20
16.0449914733
 11
5.6343388773
 21
16.0501479216
  0
LINE
  5
483
100
AcDbEntity
  8
ASSI
100
AcDbLine
 62
250
  6
CONTINUOUS
 10
5.2431466134
 20
-17.2186074688
 11
5.2433366836
 21
-17.230536272
  0
LINE
  5
484
100
AcDbEntity
  8
ASSI
100
AcDbLine
 62
250
  6
CONTINUOUS
 10
5.1838044081
 20
-15.4926319287
 11
5.183991958
 21
-15.5048704908
  0
LINE
  5
485
100
AcDbEntity
  8
ASSI
100
AcDbLine
 62
250
  6
CONTINUOUS
 10
6.4827041738
 20
-4.0692723837
 11
6.4830722632
 21
-4.0932262045
  0
LINE
  5
486
100
AcDbEntity
  8
ASSI
100
AcDbLine
 62
250
  6
CONTINUOUS
 10
6.4502499997
 20
-3.0203963312
 11
6.4517493048
 21
-3.1178693356
  0
LINE
  5
487
100
AcDbEntity
  8
ASSI
100
AcDbLine
 62
250
  6
CONTINUOUS
 10
4.9645565773
 20
19.9315944217
 11
4.9944443747
 21
18.0956087486
  0
LINE
  5
488
100
AcDbEntity
  8
ASSI
100
AcDbLine
 62
250
  6
CONTINUOUS
 10
5.6048213253
 20
-19.640641118
 11
5.5749335279
 21
-17.8046554449
  0
LINE
  5
489
100
AcDbEntity
  8
ASSI
100
AcDbLine
 62
250
  6
CONTINUOUS
 10
5.5749766838
 20
17.7771677918
 11
5.574907328
 21
17.7826272246
  0
LINE
  5
48A
100
AcDbEntity
  8
ASSI
100
AcDbLine
 62
250
  6
CONTINUOUS
 10
5.6343388773
 20
16.0501479216
 11
5.6342710259
 21
16.0555541085
  0
LINE
  5
48B
100
AcDbEntity
  8
ASSI
100
AcDbLine
 62
250
  6
CONTINUOUS
 10
5.3261353917
 20
17.515047626
 11
5.3258597851
 21
17.5371479987
  0
LINE
  5
48C
100
AcDbEntity
  8
ASSI
100
AcDbLine
 62
250
  6
CONTINUOUS
 10
5.3854787451
 20
15.7892403713
 11
5.3852072706
 21
15.8116856249
  0
LINE
  5
48D
100
AcDbEntity
  8
ASSI
100
AcDbLine
 62
250
  6
CONTINUOUS
 10
6.4830722632
 20
-4.0932262045
 11
6.4833279589
 21
-4.1183490261
  0
LINE
  5
48E
100
AcDbEntity
  8
ASSI
100
AcDbLine
 62
250
  6
CONTINUOUS
 10
5.2433366836
 20
-17.230536272
 11
5.2436880588
 21
-17.2653669126
  0
LINE
  5
48F
100
AcDbEntity
  8
ASSI
100
AcDbLine
 62
250
  6
CONTINUOUS
 10
6.4492194568
 20
-2.9185172064
 11
6.4502499997
 21
-3.0203963312
  0
LINE
  5
490
100
AcDbEntity
  8
ASSI
100
AcDbLine
 62
250
  6
CONTINUOUS
 10
5.183991958
 20
-15.5048704908
 11
5.1843373102
 21
-15.5400073506
  0
LINE
  5
491
100
AcDbEntity
  8
ASSI
100
AcDbLine
 62
250
  6
CONTINUOUS
 10
4.9944443747
 20
18.0956087486
 11
4.9945111821
 21
18.0886008515
  0
LINE
  5
492
100
AcDbEntity
  8
ASSI
100
AcDbLine
 62
250
  6
CONTINUOUS
 10
5.5749335279
 20
-17.8046554449
 11
5.5748667205
 21
-17.7976475478
  0
LINE
  5
493
100
AcDbEntity
  8
ASSI
100
AcDbLine
 62
250
  6
CONTINUOUS
 10
5.3258597851
 20
17.5371479987
 11
5.3253947512
 21
17.6041265659
  0
LINE
  5
494
100
AcDbEntity
  8
ASSI
100
AcDbLine
 62
250
  6
CONTINUOUS
 10
5.3852072706
 20
15.8116856249
 11
5.3847513004
 21
15.8786894891
  0
LINE
  5
495
100
AcDbEntity
  8
ASSI
100
AcDbLine
 62
250
  6
CONTINUOUS
 10
5.574907328
 20
17.7826272246
 11
5.5748458326
 21
17.7911516764
  0
LINE
  5
496
100
AcDbEntity
  8
ASSI
100
AcDbLine
 62
250
  6
CONTINUOUS
 10
5.6342710259
 20
16.0555541085
 11
5.6342108798
 21
16.0639879619
  0
LINE
  5
497
100
AcDbEntity
  8
ASSI
100
AcDbLine
 62
250
  6
CONTINUOUS
 10
6.4833279589
 20
-4.1183490261
 11
6.4834668747
 21
-4.1441874132
  0
LINE
  5
498
100
AcDbEntity
  8
ASSI
100
AcDbLine
 62
250
  6
CONTINUOUS
 10
6.4486723628
 20
-2.815479295
 11
6.4492194568
 21
-2.9185172064
  0
LINE
  5
499
100
AcDbEntity
  8
ASSI
100
AcDbLine
 62
250
  6
CONTINUOUS
 10
5.2436880588
 20
-17.2653669126
 11
5.2442059611
 21
-17.3713780153
  0
LINE
  5
49A
100
AcDbEntity
  8
ASSI
100
AcDbLine
 62
250
  6
CONTINUOUS
 10
5.1843373102
 20
-15.5400073506
 11
5.1848446913
 21
-15.6455395881
  0
LINE
  5
49B
100
AcDbEntity
  8
ASSI
100
AcDbLine
 62
250
  6
CONTINUOUS
 10
6.4833477198
 20
5.8443554417
 11
6.4834841922
 21
5.8139862291
  0
LINE
  5
49C
100
AcDbEntity
  8
ASSI
100
AcDbLine
 62
250
  6
CONTINUOUS
 10
4.9945111821
 20
18.0886008515
 11
4.9945418311
 21
18.0813989235
  0
LINE
  5
49D
100
AcDbEntity
  8
ASSI
100
AcDbLine
 62
250
  6
CONTINUOUS
 10
5.5748667205
 20
-17.7976475478
 11
5.5748360715
 21
-17.7904456197
  0
LINE
  5
49E
100
AcDbEntity
  8
ASSI
100
AcDbLine
 62
250
  6
CONTINUOUS
 10
4.9945174381
 20
-17.4973352614
 11
4.9945439107
 21
-17.5060091047
  0
LINE
  5
49F
100
AcDbEntity
  8
ASSI
100
AcDbLine
 62
250
  6
CONTINUOUS
 10
5.3253947512
 20
17.6041265659
 11
5.3249893106
 21
17.7795287563
  0
LINE
  5
4A0
100
AcDbEntity
  8
ASSI
100
AcDbLine
 62
250
  6
CONTINUOUS
 10
5.3847513004
 20
15.8786894891
 11
5.3843515933
 21
16.0697344378
  0
LINE
  5
4A1
100
AcDbEntity
  8
ASSI
100
AcDbLine
 62
250
  6
CONTINUOUS
 10
4.9351670228
 20
-15.7730346582
 11
4.9351786026
 21
-17.1642982559
  0
LINE
  5
4A2
100
AcDbEntity
  8
ASSI
100
AcDbLine
 62
7
  6
CONTINUOUS
 10
4.9645565773
 20
-20.4203465068
 11
4.9645565773
 21
-19.640641118
  0
LINE
  5
4A3
100
AcDbEntity
  8
ASSI
100
AcDbLine
 62
7
  6
CONTINUOUS
 10
4.9645565773
 20
19.9315944217
 11
4.9645565773
 21
20.7112998105
  0
LINE
  5
4A4
100
AcDbEntity
  8
ASSI
100
AcDbLine
 62
250
  6
CONTINUOUS
 10
5.1848446913
 20
-15.6455395881
 11
5.1850263093
 21
-16.9546289591
  0
LINE
  5
4A5
100
AcDbEntity
  8
ASSI
100
AcDbLine
 62
250
  6
CONTINUOUS
 10
5.3843515933
 20
16.0697344378
 11
5.3843515933
 21
17.2455822628
  0
LINE
  5
4A6
100
AcDbEntity
  8
ASSI
100
AcDbLine
 62
7
  6
CONTINUOUS
 10
5.6048213253
 20
20.7112998105
 11
5.6048213253
 21
19.9315944217
  0
LINE
  5
4A7
100
AcDbEntity
  8
ASSI
100
AcDbLine
 62
7
  6
CONTINUOUS
 10
5.6048213253
 20
-19.640641118
 11
5.6048213253
 21
-20.4203465068
  0
LINE
  5
4A8
100
AcDbEntity
  8
ASSI
100
AcDbLine
 62
250
  6
CONTINUOUS
 10
5.6342108798
 20
16.0639879619
 11
5.6341993
 21
17.4552515597
  0
LINE
  5
4A9
100
AcDbEntity
  8
ASSI
100
AcDbLine
 62
250
  6
CONTINUOUS
 10
6.4485727305
 20
-1.140639569
 11
6.4486723628
 21
-2.815479295
  0
LINE
  5
4AA
100
AcDbEntity
  8
ASSI
100
AcDbLine
 62
250
  6
CONTINUOUS
 10
5.5748458326
 20
17.7911516764
 11
5.5748360715
 21
18.0813989237
  0
LINE
  5
4AB
100
AcDbEntity
  8
ASSI
100
AcDbLine
 62
250
  6
CONTINUOUS
 10
6.4834668747
 20
-4.1441874132
 11
6.4834841922
 21
-5.5230329255
  0
LINE
  5
4AC
100
AcDbEntity
  8
ASSI
100
AcDbLine
 62
250
  6
CONTINUOUS
 10
5.2442280273
 20
18.2057537316
 11
5.2443183432
 21
17.7109380727
  0
LINE
  5
4AD
100
AcDbEntity
  8
ASSI
100
AcDbLine
 62
250
  6
CONTINUOUS
 10
5.2442059611
 20
-17.3713780153
 11
5.2443183419
 21
-17.8740537655
  0
LINE
  5
4AE
100
AcDbEntity
  8
ASSI
100
AcDbLine
 62
250
  6
CONTINUOUS
 10
5.3251498753
 20
-17.9148004279
 11
5.3250595594
 21
-17.419984769
  0
LINE
  5
4AF
100
AcDbEntity
  8
ASSI
100
AcDbLine
 62
250
  6
CONTINUOUS
 10
6.4834841922
 20
5.8139862291
 11
6.4834668747
 21
4.4351407168
  0
LINE
  5
4B0
100
AcDbEntity
  8
ASSI
100
AcDbLine
 62
250
  6
CONTINUOUS
 10
5.3249893106
 20
17.7795287563
 11
5.3251498753
 21
18.2057537316
  0
LINE
  5
4B1
100
AcDbEntity
  8
ASSI
100
AcDbLine
 62
250
  6
CONTINUOUS
 10
5.2443183419
 20
-17.8740537655
 11
5.2442280273
 21
-17.9148004279
  0
LINE
  5
4B2
100
AcDbEntity
  8
ASSI
100
AcDbLine
 62
250
  6
CONTINUOUS
 10
4.9351786026
 20
17.4552515597
 11
4.9351670228
 21
16.0639879619
  0
LWPOLYLINE
  5
4B3
100
AcDbEntity
  8
ASSI
100
AcDbPolyline
 62
250
  6
CONTINUOUS
 90
3
 70
0
 10
4.9945418311
 20
18.0813989235
 10
4.99453207
 20
17.7911516764
 10
4.9945174381
 20
17.7882885651
  0
LINE
  5
4B4
100
AcDbEntity
  8
ASSI
100
AcDbLine
 62
250
  6
CONTINUOUS
 10
5.5748360715
 20
-17.7904456197
 11
5.5748458326
 21
-17.5001983727
  0
LINE
  5
4B5
100
AcDbEntity
  8
ASSI
100
AcDbLine
 62
250
  6
CONTINUOUS
 10
5.6341993
 20
-17.1642982559
 11
5.6342108798
 21
-15.7730346582
  0
LINE
  5
4B6
100
AcDbEntity
  8
ASSI
100
AcDbLine
 62
250
  6
CONTINUOUS
 10
6.4488017885
 20
3.1406056353
 11
6.4485727305
 21
1.4315928727
  0
LINE
  5
4B7
100
AcDbEntity
  8
ASSI
100
AcDbLine
 62
250
  6
CONTINUOUS
 10
5.1850263093
 20
17.2455822628
 11
5.1846882395
 21
15.8923069582
  0
LINE
  5
4B8
100
AcDbEntity
  8
ASSI
100
AcDbLine
 62
250
  6
CONTINUOUS
 10
5.3843515933
 20
-16.9546289591
 11
5.3846896631
 21
-15.6013536545
  0
LINE
  5
4B9
100
AcDbEntity
  8
ASSI
100
AcDbLine
 62
250
  6
CONTINUOUS
 10
4.9945439107
 20
-17.5060091047
 11
4.9945254909
 21
-17.7952588191
  0
LINE
  5
4BA
100
AcDbEntity
  8
ASSI
100
AcDbLine
 62
250
  6
CONTINUOUS
 10
5.2443183432
 20
17.7109380727
 11
5.243843617
 21
17.5787475495
  0
LINE
  5
4BB
100
AcDbEntity
  8
ASSI
100
AcDbLine
 62
250
  6
CONTINUOUS
 10
5.3250595594
 20
-17.419984769
 11
5.3255342856
 21
-17.2877942458
  0
LINE
  5
4BC
100
AcDbEntity
  8
ASSI
100
AcDbLine
 62
250
  6
CONTINUOUS
 10
5.5748360715
 20
18.0813989237
 11
5.5748667205
 21
18.088600852
  0
LINE
  5
4BD
100
AcDbEntity
  8
ASSI
100
AcDbLine
 62
250
  6
CONTINUOUS
 10
6.4834841922
 20
-5.5230329255
 11
6.4833477198
 21
-5.5534021381
  0
LINE
  5
4BE
100
AcDbEntity
  8
ASSI
100
AcDbLine
 62
250
  6
CONTINUOUS
 10
6.4834668747
 20
4.4351407168
 11
6.4833279589
 21
4.4093023297
  0
LINE
  5
4BF
100
AcDbEntity
  8
ASSI
100
AcDbLine
 62
250
  6
CONTINUOUS
 10
5.1846882395
 20
15.8923069582
 11
5.1842554531
 21
15.820911399
  0
LINE
  5
4C0
100
AcDbEntity
  8
ASSI
100
AcDbLine
 62
250
  6
CONTINUOUS
 10
5.3846896631
 20
-15.6013536545
 11
5.3851224495
 21
-15.5299580953
  0
LINE
  5
4C1
100
AcDbEntity
  8
ASSI
100
AcDbLine
 62
250
  6
CONTINUOUS
 10
6.4495085038
 20
3.243691508
 11
6.4488017885
 21
3.1406056353
  0
LINE
  5
4C2
100
AcDbEntity
  8
ASSI
100
AcDbLine
 62
250
  6
CONTINUOUS
 10
5.6342108798
 20
-15.7730346582
 11
5.6342710259
 21
-15.7646008048
  0
LINE
  5
4C3
100
AcDbEntity
  8
ASSI
100
AcDbLine
 62
250
  6
CONTINUOUS
 10
5.5748458326
 20
-17.5001983727
 11
5.574907328
 21
-17.4916739208
  0
LINE
  5
4C4
100
AcDbEntity
  8
ASSI
100
AcDbLine
 62
250
  6
CONTINUOUS
 10
4.9945254909
 20
-17.7952588191
 11
4.9944705277
 21
-17.8023582627
  0
LINE
  5
4C5
100
AcDbEntity
  8
ASSI
100
AcDbLine
 62
250
  6
CONTINUOUS
 10
5.243843617
 20
17.5787475495
 11
5.243428842
 21
17.5288650286
  0
LINE
  5
4C6
100
AcDbEntity
  8
ASSI
100
AcDbLine
 62
250
  6
CONTINUOUS
 10
5.3255342856
 20
-17.2877942458
 11
5.3259490606
 21
-17.2379117249
  0
LINE
  5
4C7
100
AcDbEntity
  8
ASSI
100
AcDbLine
 62
250
  6
CONTINUOUS
 10
5.5748667205
 20
18.088600852
 11
5.5749335279
 21
18.095608749
  0
LINE
  5
4C8
100
AcDbEntity
  8
ASSI
100
AcDbLine
 62
250
  6
CONTINUOUS
 10
6.4833279589
 20
4.4093023297
 11
6.4830722632
 21
4.3841795081
  0
LINE
  5
4C9
100
AcDbEntity
  8
ASSI
100
AcDbLine
 62
250
  6
CONTINUOUS
 10
5.1842554531
 20
15.820911399
 11
5.183991958
 21
15.7958237945
  0
LINE
  5
4CA
100
AcDbEntity
  8
ASSI
100
AcDbLine
 62
250
  6
CONTINUOUS
 10
5.3851224495
 20
-15.5299580953
 11
5.3853859446
 21
-15.5048704907
  0
LINE
  5
4CB
100
AcDbEntity
  8
ASSI
100
AcDbLine
 62
250
  6
CONTINUOUS
 10
6.4506983078
 20
3.3444494817
 11
6.4495085038
 21
3.243691508
  0
LINE
  5
4CC
100
AcDbEntity
  8
ASSI
100
AcDbLine
 62
250
  6
CONTINUOUS
 10
5.6342710259
 20
-15.7646008048
 11
5.6343388773
 21
-15.7591946179
  0
LINE
  5
4CD
100
AcDbEntity
  8
ASSI
100
AcDbLine
 62
250
  6
CONTINUOUS
 10
5.574907328
 20
-17.4916739208
 11
5.5749766838
 21
-17.4862144881
  0
LWPOLYLINE
  5
4CE
100
AcDbEntity
  8
ASSI
100
AcDbPolyline
 62
250
  6
CONTINUOUS
 90
5
 70
0
 10
5.243428842
 20
17.5288650286
 10
5.2432425109
 20
17.515047626
 10
5.2431466134
 20
17.5095607725
 10
5.2430487015
 20
17.5050466743
 10
5.2429487754
 20
17.5015200825
  0
LINE
  5
4CF
100
AcDbEntity
  8
ASSI
100
AcDbLine
 62
250
  6
CONTINUOUS
 10
5.3259490606
 20
-17.2379117249
 11
5.3261353917
 21
-17.2240943222
  0
LINE
  5
4D0
100
AcDbEntity
  8
ASSI
100
AcDbLine
 62
250
  6
CONTINUOUS
 10
4.9944705277
 20
-17.8023582627
 11
4.9943803205
 21
-17.8091458624
  0
LINE
  5
4D1
100
AcDbEntity
  8
ASSI
100
AcDbLine
 62
250
  6
CONTINUOUS
 10
5.3251498753
 20
18.2057537316
 11
5.3625811805
 21
20.5044342644
  0
LINE
  5
4D2
100
AcDbEntity
  8
ASSI
100
AcDbLine
 62
250
  6
CONTINUOUS
 10
5.5749335279
 20
18.095608749
 11
5.6048213253
 21
19.9315944217
  0
LINE
  5
4D3
100
AcDbEntity
  8
ASSI
100
AcDbLine
 62
250
  6
CONTINUOUS
 10
4.9943803205
 20
-17.8091458624
 11
4.9645565773
 21
-19.640641118
  0
LINE
  5
4D4
100
AcDbEntity
  8
ASSI
100
AcDbLine
 62
250
  6
CONTINUOUS
 10
5.2442280273
 20
-17.9148004279
 11
5.2067967221
 21
-20.2134809607
  0
LWPOLYLINE
  5
4D5
100
AcDbEntity
  8
ASSI
100
AcDbPolyline
 62
250
  6
CONTINUOUS
 90
7
 70
0
 10
5.183991958
 20
15.7958237945
 10
5.1838044081
 20
15.7835852324
 10
5.1837076771
 20
15.7788772183
 10
5.1836098492
 20
15.7751321219
 10
5.183511219
 20
15.7723621686
 10
5.1834114918
 20
15.7705762005
 10
5.1833106676
 20
15.7697799005
  0
LWPOLYLINE
  5
4D6
100
AcDbEntity
  8
ASSI
100
AcDbPolyline
 62
250
  6
CONTINUOUS
 90
7
 70
0
 10
5.3853859446
 20
-15.5048704907
 10
5.3855734945
 20
-15.4926319286
 10
5.3856702255
 20
-15.4879239145
 10
5.3857680534
 20
-15.4841788182
 10
5.3858666836
 20
-15.4814088649
 10
5.3859664108
 20
-15.4796228968
 10
5.386067235
 20
-15.4788265967
  0
LINE
  5
4D7
100
AcDbEntity
  8
ASSI
100
AcDbLine
 62
250
  6
CONTINUOUS
 10
6.4830722632
 20
4.3841795081
 11
6.4827041738
 21
4.3602256872
  0
LINE
  5
4D8
100
AcDbEntity
  8
ASSI
100
AcDbLine
 62
250
  6
CONTINUOUS
 10
5.6343388773
 20
-15.7591946179
 11
5.6344280785
 21
-15.7540381696
  0
LINE
  5
4D9
100
AcDbEntity
  8
ASSI
100
AcDbLine
 62
250
  6
CONTINUOUS
 10
5.5749766838
 20
-17.4862144881
 11
5.575067836
 21
-17.481013124
  0
LINE
  5
4DA
100
AcDbEntity
  8
ASSI
100
AcDbLine
 62
250
  6
CONTINUOUS
 10
6.4523446098
 20
3.4398085198
 11
6.4506983078
 21
3.3444494817
  0
LWPOLYLINE
  5
4DB
100
AcDbEntity
  8
ASSI
100
AcDbPolyline
 62
250
  6
CONTINUOUS
 90
3
 70
0
 10
5.3261353917
 20
-17.2240943222
 10
5.3263292011
 20
-17.2140933706
 10
5.3264291272
 20
-17.2105667788
  0
LINE
  5
4DC
100
AcDbEntity
  8
ASSI
100
AcDbLine
 62
250
  6
CONTINUOUS
 10
6.4827041738
 20
4.3602256872
 11
6.482230067
 21
4.3378554227
  0
LINE
  5
4DD
100
AcDbEntity
  8
ASSI
100
AcDbLine
 62
250
  6
CONTINUOUS
 10
6.4536704512
 20
3.499036773
 11
6.4523446098
 21
3.4398085198
  0
LINE
  5
4DE
100
AcDbEntity
  8
ASSI
100
AcDbLine
 62
250
  6
CONTINUOUS
 10
5.6344280785
 20
-15.7540381696
 11
5.6345374359
 21
-15.7492099775
  0
LINE
  5
4DF
100
AcDbEntity
  8
ASSI
100
AcDbLine
 62
250
  6
CONTINUOUS
 10
5.575067836
 20
-17.481013124
 11
5.5751795414
 21
-17.4761507389
  0
LWPOLYLINE
  5
4E0
100
AcDbEntity
  8
ASSI
100
AcDbPolyline
 62
7
  6
CONTINUOUS
 90
28
 70
0
 10
5.6903091443
 20
15.9925532003
 10
5.6899067089
 20
15.9780858236
 10
5.6886644687
 20
15.9636353303
 10
5.6865810851
 20
15.9492507517
 10
5.6836532231
 20
15.9349604243
 10
5.6798877915
 20
15.9208355211
 10
5.6753141232
 20
15.9069866245
 10
5.6699670099
 20
15.8934912055
 10
5.663859764
 20
15.8803590963
 10
5.6569977564
 20
15.8675970756
 10
5.6494021008
 20
15.8552474973
 10
5.6410978219
 20
15.8433538538
 10
5.6320884368
 20
15.8319292952
 10
5.6223699495
 20
15.8209870681
 10
5.611994702
 20
15.8106031639
 10
5.6010607137
 20
15.8008757237
 10
5.5896433937
 20
15.7918566942
 10
5.5777565098
 20
15.7835425188
 10
5.5654149354
 20
15.7759377949
 10
5.5526627216
 20
15.7690674348
 10
5.5395419716
 20
15.7629519717
 10
5.5260601721
 20
15.7575967383
 10
5.5122288685
 20
15.7530150215
 10
5.4981239772
 20
15.749240479
 10
5.4838516514
 20
15.7463013714
 10
5.4694813673
 20
15.7442047702
 10
5.4550427277
 20
15.7429478964
 10
5.4405846234
 20
15.7425297024
  0
LWPOLYLINE
  5
4E1
100
AcDbEntity
  8
ASSI
100
AcDbPolyline
 62
7
  6
CONTINUOUS
 90
28
 70
0
 10
4.8790687583
 20
-15.7015998966
 10
4.8794711937
 20
-15.6871325199
 10
4.8807134339
 20
-15.6726820266
 10
4.8827968175
 20
-15.6582974479
 10
4.8857246795
 20
-15.6440071206
 10
4.8894901111
 20
-15.6298822174
 10
4.8940637794
 20
-15.6160333208
 10
4.8994108927
 20
-15.6025379017
 10
4.9055181386
 20
-15.5894057925
 10
4.9123801462
 20
-15.5766437719
 10
4.9199758018
 20
-15.5642941936
 10
4.9282800807
 20
-15.5524005501
 10
4.9372894658
 20
-15.5409759914
 10
4.9470079531
 20
-15.5300337644
 10
4.9573832006
 20
-15.5196498601
 10
4.9683171889
 20
-15.50992242
 10
4.9797345089
 20
-15.5009033905
 10
4.9916213928
 20
-15.4925892151
 10
5.0039629672
 20
-15.4849844912
 10
5.016715181
 20
-15.4781141311
 10
5.029835931
 20
-15.471998668
 10
5.0433177305
 20
-15.4666434346
 10
5.0571490341
 20
-15.4620617178
 10
5.0712539254
 20
-15.4582871753
 10
5.0855262512
 20
-15.4553480676
 10
5.0998965353
 20
-15.4532514665
 10
5.1143351749
 20
-15.4519945927
 10
5.1287932792
 20
-15.4515763986
  0
LINE
  5
4E2
100
AcDbEntity
  8
ASSI
100
AcDbLine
 62
250
  6
CONTINUOUS
 10
6.4551436794
 20
3.5538653632
 11
6.4536704512
 21
3.499036773
  0
LINE
  5
4E3
100
AcDbEntity
  8
ASSI
100
AcDbLine
 62
250
  6
CONTINUOUS
 10
6.482230067
 20
4.3378554227
 11
6.4818598034
 21
4.3240362452
  0
LWPOLYLINE
  5
4E4
100
AcDbEntity
  8
ASSI
100
AcDbPolyline
 62
7
  6
CONTINUOUS
 90
28
 70
0
 10
6.4214953273
 20
6.0588530277
 10
6.4220034693
 20
6.0761816506
 10
6.4235170299
 20
6.0934934914
 10
6.4260382658
 20
6.110729874
 10
6.4295722606
 20
6.1278582856
 10
6.4341111215
 20
6.1447918717
 10
6.4396185302
 20
6.161393765
 10
6.4460520497
 20
6.1775698572
 10
6.4533960858
 20
6.1933097868
 10
6.4616439006
 20
6.2086053506
 10
6.4707699333
 20
6.2234056928
 10
6.4807441835
 20
6.2376590215
 10
6.4915625517
 20
6.2513501364
 10
6.5032294101
 20
6.2644627761
 10
6.5156823485
 20
6.2769064843
 10
6.5288054956
 20
6.2885653495
 10
6.5425092911
 20
6.2993773037
 10
6.5567769768
 20
6.3093458034
 10
6.571590985
 20
6.3184651845
 10
6.5868985685
 20
6.3267051737
 10
6.6026495204
 20
6.3340408609
 10
6.6188354296
 20
6.3404657468
 10
6.635444647
 20
6.3459640317
 10
6.6523841814
 20
6.3504939943
 10
6.6695207669
 20
6.3540203055
 10
6.6867688648
 20
6.3565348028
 10
6.7040948006
 20
6.3580417638
 10
6.7214398748
 20
6.3585429764
  0
LINE
  5
4E5
100
AcDbEntity
  8
ASSI
100
AcDbLine
 62
250
  6
CONTINUOUS
 10
5.6345374359
 20
-15.7492099775
 11
5.6346652064
 21
-15.7447797772
  0
LINE
  5
4E6
100
AcDbEntity
  8
ASSI
100
AcDbLine
 62
250
  6
CONTINUOUS
 10
5.5751795414
 20
-17.4761507389
 11
5.5753099693
 21
-17.4716994765
  0
LINE
  5
4E7
100
AcDbEntity
  8
ASSI
100
AcDbLine
 62
250
  6
CONTINUOUS
 10
6.4567551757
 20
3.6040552956
 11
6.4551436794
 21
3.5538653632
  0
LINE
  5
4E8
100
AcDbEntity
  8
ASSI
100
AcDbLine
 62
250
  6
CONTINUOUS
 10
6.4818598034
 20
4.3240362452
 11
6.4567551757
 21
3.6040552956
  0
LWPOLYLINE
  5
4E9
100
AcDbEntity
  8
ASSI
100
AcDbPolyline
 62
250
  6
CONTINUOUS
 90
14
 70
0
 10
5.6346652064
 20
-15.7447797772
 10
5.6348101251
 20
-15.7407914903
 10
5.6348882449
 20
-15.7389870087
 10
5.634970114
 20
-15.737308104
 10
5.6350549219
 20
-15.7357713505
 10
5.6351426977
 20
-15.734378176
 10
5.6352334124
 20
-15.7331271527
 10
5.6353261683
 20
-15.732030572
 10
5.6354209965
 20
-15.7310899465
 10
5.635517866
 20
-15.7303037637
 10
5.6356157866
 20
-15.7296797771
 10
5.6357144285
 20
-15.7292205715
 10
5.6358141216
 20
-15.7289235623
 10
5.6359148659
 20
-15.7287887494
  0
LWPOLYLINE
  5
4EA
100
AcDbEntity
  8
ASSI
100
AcDbPolyline
 62
250
  6
CONTINUOUS
 90
11
 70
0
 10
5.5753099693
 20
-17.4716994765
 10
5.5754577965
 20
-17.4677045306
 10
5.5755374297
 20
-17.4659027268
 10
5.5756208513
 20
-17.4642304472
 10
5.575707217
 20
-17.4627045019
 10
5.575796568
 20
-17.4613262999
 10
5.5758888631
 20
-17.4600944322
 10
5.5759831341
 20
-17.4590214817
 10
5.5760790582
 20
-17.4581116429
 10
5.5761769581
 20
-17.4573607213
 10
5.576276834
 20
-17.456768717
  0
LINE
  5
4EB
100
AcDbEntity
  8
ASSI
100
AcDbLine
 62
250
  6
CONTINUOUS
 10
9.3219222543
 20
20.4511770156
 11
9.3735256252
 21
20.8141717826
  0
LINE
  5
4EC
100
AcDbEntity
  8
ASSI
100
AcDbLine
 62
7
  6
CONTINUOUS
 10
6.4203310082
 20
-1.1688812912
 11
6.4485727305
 21
-1.140639569
  0
LWPOLYLINE
  5
4ED
100
AcDbEntity
  8
ASSI
100
AcDbPolyline
 62
250
  6
CONTINUOUS
 90
25
 70
0
 10
6.7765703376
 20
6.3034125136
 10
6.7569765033
 20
6.3027477108
 10
6.7374664438
 20
6.3008038742
 10
6.7181235749
 20
6.2975893152
 10
6.6990305973
 20
6.2931177777
 10
6.6802691437
 20
6.2874083801
 10
6.6619194293
 20
6.2804855334
 10
6.6440599086
 20
6.2723788366
 10
6.6267669403
 20
6.2631229504
 10
6.610114461
 20
6.2527574487
 10
6.5941736686
 20
6.2413266499
 10
6.579012718
 20
6.2288794267
 10
6.5646964302
 20
6.215468998
 10
6.5512860144
 20
6.2011527005
 10
6.538838807
 20
6.185991744
 10
6.5274080259
 20
6.1700509499
 10
6.5170425433
 20
6.1533984735
 10
6.5077866768
 20
6.1361055129
 10
6.4996799995
 20
6.1182460047
 10
6.4927571714
 20
6.0998963077
 10
6.4870477906
 20
6.0811348762
 10
6.4825762674
 20
6.0620419253
 10
6.4793617193
 20
6.042699087
 10
6.4774178899
 20
6.023189062
 10
6.4767530895
 20
6.0035952655
  0
LWPOLYLINE
  5
4EE
100
AcDbEntity
  8
ASSI
100
AcDbPolyline
 62
250
  6
CONTINUOUS
 90
25
 70
0
 10
-7.5234296624
 20
6.3034125136
 10
-7.5430234967
 20
6.3027477108
 10
-7.5625335562
 20
6.3008038742
 10
-7.5818764251
 20
6.2975893152
 10
-7.6009694027
 20
6.2931177777
 10
-7.6197308563
 20
6.2874083801
 10
-7.6380805707
 20
6.2804855334
 10
-7.6559400914
 20
6.2723788366
 10
-7.6732330597
 20
6.2631229504
 10
-7.689885539
 20
6.2527574487
 10
-7.7058263314
 20
6.2413266499
 10
-7.720987282
 20
6.2288794267
 10
-7.7353035698
 20
6.215468998
 10
-7.7487139856
 20
6.2011527005
 10
-7.761161193
 20
6.185991744
 10
-7.7725919741
 20
6.1700509499
 10
-7.7829574567
 20
6.1533984735
 10
-7.7922133232
 20
6.1361055129
 10
-7.8003200005
 20
6.1182460047
 10
-7.8072428286
 20
6.0998963077
 10
-7.8129522094
 20
6.0811348762
 10
-7.8174237326
 20
6.0620419253
 10
-7.8206382807
 20
6.042699087
 10
-7.8225821101
 20
6.023189062
 10
-7.8232469105
 20
6.0035952655
  0
LINE
  5
4EF
100
AcDbEntity
  8
ASSI
100
AcDbLine
 62
250
  6
CONTINUOUS
 10
-7.8165065
 20
5.8037171001
 11
-7.1141155974
 21
5.8037171001
  0
LINE
  5
4F0
100
AcDbEntity
  8
ASSI
100
AcDbLine
 62
250
  6
CONTINUOUS
 10
6.4834935
 20
5.8037171001
 11
7.1858844026
 21
5.8037171001
  0
LINE
  5
4F1
100
AcDbEntity
  8
ASSI
100
AcDbLine
 62
250
  6
CONTINUOUS
 10
6.8928080925
 20
6.3034130412
 11
6.7765698101
 21
6.3034130412
  0
LINE
  5
4F2
100
AcDbEntity
  8
ASSI
100
AcDbLine
 62
250
  6
CONTINUOUS
 10
-7.4071919075
 20
6.3034130412
 11
-7.5234301899
 21
6.3034130412
  0
LINE
  5
4F3
100
AcDbEntity
  8
ASSI
100
AcDbLine
 62
7
  6
CONTINUOUS
 10
-7.5785601252
 20
6.3585429764
 11
-7.3520619722
 21
6.3585429764
  0
LINE
  5
4F4
100
AcDbEntity
  8
ASSI
100
AcDbLine
 62
7
  6
CONTINUOUS
 10
6.7214398748
 20
6.3585429764
 11
6.9479380278
 21
6.3585429764
  0
LWPOLYLINE
  5
4F5
100
AcDbEntity
  8
ASSI
100
AcDbPolyline
 62
7
  6
CONTINUOUS
 90
28
 70
0
 10
-7.3520619722
 20
6.3585429764
 10
-7.334716898
 20
6.3580417638
 10
-7.3173909622
 20
6.3565348028
 10
-7.3001428643
 20
6.3540203055
 10
-7.2830062788
 20
6.3504939943
 10
-7.2660667444
 20
6.3459640317
 10
-7.249457527
 20
6.3404657468
 10
-7.2332716178
 20
6.3340408609
 10
-7.2175206659
 20
6.3267051737
 10
-7.2022130824
 20
6.3184651845
 10
-7.1873990742
 20
6.3093458034
 10
-7.1731313885
 20
6.2993773037
 10
-7.159427593
 20
6.2885653495
 10
-7.1463044459
 20
6.2769064843
 10
-7.1338515075
 20
6.2644627761
 10
-7.1221846491
 20
6.2513501364
 10
-7.1113662809
 20
6.2376590215
 10
-7.1013920307
 20
6.2234056928
 10
-7.092265998
 20
6.2086053506
 10
-7.0840181832
 20
6.1933097868
 10
-7.0766741471
 20
6.1775698572
 10
-7.0702406276
 20
6.161393765
 10
-7.0647332189
 20
6.1447918717
 10
-7.060194358
 20
6.1278582856
 10
-7.0566603632
 20
6.110729874
 10
-7.0541391273
 20
6.0934934914
 10
-7.0526255667
 20
6.0761816506
 10
-7.0521174247
 20
6.0588530277
  0
LWPOLYLINE
  5
4F6
100
AcDbEntity
  8
ASSI
100
AcDbPolyline
 62
7
  6
CONTINUOUS
 90
28
 70
0
 10
6.9479380278
 20
6.3585429764
 10
6.965283102
 20
6.3580417638
 10
6.9826090378
 20
6.3565348028
 10
6.9998571357
 20
6.3540203055
 10
7.0169937212
 20
6.3504939943
 10
7.0339332556
 20
6.3459640317
 10
7.050542473
 20
6.3404657468
 10
7.0667283822
 20
6.3340408609
 10
7.0824793341
 20
6.3267051737
 10
7.0977869176
 20
6.3184651845
 10
7.1126009258
 20
6.3093458034
 10
7.1268686115
 20
6.2993773037
 10
7.140572407
 20
6.2885653495
 10
7.1536955541
 20
6.2769064843
 10
7.1661484925
 20
6.2644627761
 10
7.1778153509
 20
6.2513501364
 10
7.1886337191
 20
6.2376590215
 10
7.1986079693
 20
6.2234056928
 10
7.207734002
 20
6.2086053506
 10
7.2159818168
 20
6.1933097868
 10
7.2233258529
 20
6.1775698572
 10
7.2297593724
 20
6.161393765
 10
7.2352667811
 20
6.1447918717
 10
7.239805642
 20
6.1278582856
 10
7.2433396368
 20
6.110729874
 10
7.2458608727
 20
6.0934934914
 10
7.2473744333
 20
6.0761816506
 10
7.2478825753
 20
6.0588530277
  0
LWPOLYLINE
  5
4F7
100
AcDbEntity
  8
ASSI
100
AcDbPolyline
 62
250
  6
CONTINUOUS
 90
25
 70
0
 10
-7.407192435
 20
6.3034125136
 10
-7.3875986171
 20
6.3027477119
 10
-7.368088573
 20
6.3008038785
 10
-7.348745718
 20
6.2975893244
 10
-7.3296527531
 20
6.2931177935
 10
-7.3108913105
 20
6.2874084038
 10
-7.292541605
 20
6.280485566
 10
-7.2746820912
 20
6.2723788788
 10
-7.2573891277
 20
6.2631230025
 10
-7.2407366509
 20
6.2527575107
 10
-7.2247958588
 20
6.2413267213
 10
-7.2096349066
 20
6.2288795068
 10
-7.195318615
 20
6.2154690856
 10
-7.1819081937
 20
6.201152794
 10
-7.1694609793
 20
6.1859918417
 10
-7.1580301899
 20
6.1700510496
 10
-7.1476646981
 20
6.1533985729
 10
-7.1384088218
 20
6.1361056094
 10
-7.1303021346
 20
6.1182460956
 10
-7.1233792968
 20
6.0998963901
 10
-7.1176699071
 20
6.0811349475
 10
-7.1131983762
 20
6.0620419825
 10
-7.1099838221
 20
6.0426991276
 10
-7.1080399887
 20
6.0231890834
 10
-7.1073751869
 20
6.0035952655
  0
LWPOLYLINE
  5
4F8
100
AcDbEntity
  8
ASSI
100
AcDbPolyline
 62
250
  6
CONTINUOUS
 90
25
 70
0
 10
6.892807565
 20
6.3034125136
 10
6.9124013829
 20
6.3027477119
 10
6.931911427
 20
6.3008038785
 10
6.951254282
 20
6.2975893244
 10
6.9703472469
 20
6.2931177935
 10
6.9891086895
 20
6.2874084038
 10
7.007458395
 20
6.280485566
 10
7.0253179088
 20
6.2723788788
 10
7.0426108723
 20
6.2631230025
 10
7.0592633491
 20
6.2527575107
 10
7.0752041412
 20
6.2413267213
 10
7.0903650934
 20
6.2288795068
 10
7.104681385
 20
6.2154690856
 10
7.1180918063
 20
6.201152794
 10
7.1305390207
 20
6.1859918417
 10
7.1419698101
 20
6.1700510496
 10
7.1523353019
 20
6.1533985729
 10
7.1615911782
 20
6.1361056094
 10
7.1696978654
 20
6.1182460956
 10
7.1766207032
 20
6.0998963901
 10
7.1823300929
 20
6.0811349475
 10
7.1868016238
 20
6.0620419825
 10
7.1900161779
 20
6.0426991276
 10
7.1919600113
 20
6.0231890834
 10
7.1926248131
 20
6.0035952655
  0
LWPOLYLINE
  5
4F9
100
AcDbEntity
  8
ASSI
100
AcDbPolyline
 62
7
  6
CONTINUOUS
 90
14
 70
0
 10
9.5148377071
 20
1.4529729374
 10
9.514199237
 20
1.453423364
 10
9.5127385959
 20
1.453869016
 10
9.5104557839
 20
1.4543098935
 10
9.5073287687
 20
1.4547485312
 10
9.5033795826
 20
1.4551823944
 10
9.4986743225
 20
1.4556038786
 10
9.4932222819
 20
1.4560113839
 10
9.4870141674
 20
1.4564065102
 10
9.4800881957
 20
1.4567864528
 10
9.4724155747
 20
1.4571522502
 10
9.4640250965
 20
1.4575028639
 10
9.4550413544
 20
1.4578323736
 10
9.4352623734
 20
1.4584269568
  0
LINE
  5
4FA
100
AcDbEntity
  8
ASSI
100
AcDbLine
 62
7
  6
CONTINUOUS
 10
6.4485727305
 20
1.4315928727
 11
6.4203310082
 21
1.4598345949
  0
LWPOLYLINE
  5
4FB
100
AcDbEntity
  8
ASSI
100
AcDbPolyline
 62
250
  6
CONTINUOUS
 90
13
 70
0
 10
-5.5640851341
 20
16.0197420531
 10
-5.5641858784
 20
16.019876866
 10
-5.5642855715
 20
16.0201738752
 10
-5.5643842134
 20
16.0206330809
 10
-5.564482134
 20
16.0212570674
 10
-5.5645790035
 20
16.0220432503
 10
-5.5646738317
 20
16.0229838758
 10
-5.5647665876
 20
16.0240804564
 10
-5.5648573023
 20
16.0253314797
 10
-5.5649450781
 20
16.0267246542
 10
-5.565029886
 20
16.0282614077
 10
-5.5651117551
 20
16.0299403124
 10
-5.5651898749
 20
16.031744794
  0
LWPOLYLINE
  5
4FC
100
AcDbEntity
  8
ASSI
100
AcDbPolyline
 62
250
  6
CONTINUOUS
 90
8
 70
0
 10
6.8928077746
 20
-6.0124597372
 10
6.892449364
 20
-6.0109128612
 10
6.8920943892
 20
-6.0080605832
 10
6.8917428501
 20
-6.0039103067
 10
6.8913938654
 20
-5.9984728588
 10
6.8910483165
 20
-5.9917624069
 10
6.8907088473
 20
-5.9837963776
 10
6.8903754618
 20
-5.9745953692
  0
LINE
  5
4FD
100
AcDbEntity
  8
ASSI
100
AcDbLine
 62
250
  6
CONTINUOUS
 10
9.3735256252
 20
-20.5232184789
 11
9.3219222543
 21
-20.1602237119
  0
LINE
  5
4FE
100
AcDbEntity
  8
ASSI
100
AcDbLine
 62
250
  6
CONTINUOUS
 10
6.7557489007
 20
-3.085666876
 11
6.7565728073
 21
-3.1009773119
  0
LINE
  5
4FF
100
AcDbEntity
  8
ASSI
100
AcDbLine
 62
250
  6
CONTINUOUS
 10
6.9136290019
 20
3.3766201797
 11
6.9128050953
 21
3.3919306156
  0
LINE
  5
500
100
AcDbEntity
  8
ASSI
100
AcDbLine
 62
250
  6
CONTINUOUS
 10
6.7542075135
 20
-3.0528325604
 11
6.7557489007
 21
-3.085666876
  0
LINE
  5
501
100
AcDbEntity
  8
ASSI
100
AcDbLine
 62
250
  6
CONTINUOUS
 10
6.9151703891
 20
3.3437858641
 11
6.9136290019
 21
3.3766201797
  0
LINE
  5
502
100
AcDbEntity
  8
ASSI
100
AcDbLine
 62
250
  6
CONTINUOUS
 10
6.4807319272
 20
5.9630237742
 11
6.4812787494
 21
5.94981864
  0
LINE
  5
503
100
AcDbEntity
  8
ASSI
100
AcDbLine
 62
250
  6
CONTINUOUS
 10
7.1886459754
 20
-5.6720704704
 11
7.1880991532
 21
-5.6588653363
  0
LINE
  5
504
100
AcDbEntity
  8
ASSI
100
AcDbLine
 62
250
  6
CONTINUOUS
 10
6.7528020456
 20
-3.0171067483
 11
6.7542075135
 21
-3.0528325604
  0
LINE
  5
505
100
AcDbEntity
  8
ASSI
100
AcDbLine
 62
250
  6
CONTINUOUS
 10
6.916575857
 20
3.308060052
 11
6.9151703891
 21
3.3437858641
  0
LINE
  5
506
100
AcDbEntity
  8
ASSI
100
AcDbLine
 62
250
  6
CONTINUOUS
 10
6.7565726807
 20
-3.100977312
 11
6.7812651368
 21
-3.8080767387
  0
LINE
  5
507
100
AcDbEntity
  8
ASSI
100
AcDbLine
 62
250
  6
CONTINUOUS
 10
6.9128052219
 20
3.3919306157
 11
6.8881127658
 21
4.0990300425
  0
LINE
  5
508
100
AcDbEntity
  8
ASSI
100
AcDbLine
 62
250
  6
CONTINUOUS
 10
6.4812787494
 20
5.94981864
 11
6.4817749642
 21
5.9351031009
  0
LINE
  5
509
100
AcDbEntity
  8
ASSI
100
AcDbLine
 62
250
  6
CONTINUOUS
 10
7.1880991532
 20
-5.6588653363
 11
7.1876029384
 21
-5.6441497972
  0
LINE
  5
50A
100
AcDbEntity
  8
ASSI
100
AcDbLine
 62
250
  6
CONTINUOUS
 10
6.7515663011
 20
-2.978933136
 11
6.7528020456
 21
-3.0171067483
  0
LINE
  5
50B
100
AcDbEntity
  8
ASSI
100
AcDbLine
 62
250
  6
CONTINUOUS
 10
6.9178116015
 20
3.2698864397
 11
6.916575857
 21
3.308060052
  0
LINE
  5
50C
100
AcDbEntity
  8
ASSI
100
AcDbLine
 62
250
  6
CONTINUOUS
 10
7.2142342232
 20
3.5538653611
 11
7.1875180992
 21
4.3240362453
  0
LINE
  5
50D
100
AcDbEntity
  8
ASSI
100
AcDbLine
 62
250
  6
CONTINUOUS
 10
6.8903754618
 20
-5.9745953692
 11
6.8897295617
 21
-5.9525885395
  0
LINE
  5
50E
100
AcDbEntity
  8
ASSI
100
AcDbLine
 62
250
  6
CONTINUOUS
 10
6.7790024408
 20
6.2655486729
 11
6.7796483409
 21
6.2435418433
  0
LINE
  5
50F
100
AcDbEntity
  8
ASSI
100
AcDbLine
 62
250
  6
CONTINUOUS
 10
6.4817749642
 20
5.9351031009
 11
6.4822166799
 21
5.9189926551
  0
LINE
  5
510
100
AcDbEntity
  8
ASSI
100
AcDbLine
 62
250
  6
CONTINUOUS
 10
7.1876029384
 20
-5.6441497972
 11
7.1871612227
 21
-5.6280393514
  0
LINE
  5
511
100
AcDbEntity
  8
ASSI
100
AcDbLine
 62
250
  6
CONTINUOUS
 10
7.2157074514
 20
3.4990367718
 11
7.2142342232
 21
3.5538653611
  0
LINE
  5
512
100
AcDbEntity
  8
ASSI
100
AcDbLine
 62
250
  6
CONTINUOUS
 10
7.1875180992
 20
4.3240362453
 11
7.1871478355
 21
4.3378554228
  0
LINE
  5
513
100
AcDbEntity
  8
ASSI
100
AcDbLine
 62
250
  6
CONTINUOUS
 10
6.7505155126
 20
-2.9387141717
 11
6.7515663011
 21
-2.978933136
  0
LINE
  5
514
100
AcDbEntity
  8
ASSI
100
AcDbLine
 62
250
  6
CONTINUOUS
 10
6.91886239
 20
3.2296674754
 11
6.9178116015
 21
3.2698864397
  0
LINE
  5
515
100
AcDbEntity
  8
ASSI
100
AcDbLine
 62
250
  6
CONTINUOUS
 10
6.8897295617
 20
-5.9525885395
 11
6.8891187087
 21
-5.9259744672
  0
LINE
  5
516
100
AcDbEntity
  8
ASSI
100
AcDbLine
 62
250
  6
CONTINUOUS
 10
6.7796483409
 20
6.2435418433
 11
6.7802591939
 21
6.2169277709
  0
LINE
  5
517
100
AcDbEntity
  8
ASSI
100
AcDbLine
 62
250
  6
CONTINUOUS
 10
6.4822166799
 20
5.9189926551
 11
6.4825983991
 21
5.9016716536
  0
LINE
  5
518
100
AcDbEntity
  8
ASSI
100
AcDbLine
 62
250
  6
CONTINUOUS
 10
7.1871612227
 20
-5.6280393514
 11
7.1867795035
 21
-5.6107183499
  0
LINE
  5
519
100
AcDbEntity
  8
ASSI
100
AcDbLine
 62
250
  6
CONTINUOUS
 10
7.2176285978
 20
3.4088226394
 11
7.2157074514
 21
3.4990367718
  0
LINE
  5
51A
100
AcDbEntity
  8
ASSI
100
AcDbLine
 62
250
  6
CONTINUOUS
 10
7.1871478355
 20
4.3378554228
 11
7.1866737288
 21
4.3602256874
  0
LINE
  5
51B
100
AcDbEntity
  8
ASSI
100
AcDbLine
 62
250
  6
CONTINUOUS
 10
6.7496697663
 20
-2.8969916316
 11
6.7505155126
 21
-2.9387141717
  0
LINE
  5
51C
100
AcDbEntity
  8
ASSI
100
AcDbLine
 62
250
  6
CONTINUOUS
 10
6.9197081363
 20
3.1879449353
 11
6.91886239
 21
3.2296674754
  0
LINE
  5
51D
100
AcDbEntity
  8
ASSI
100
AcDbLine
 62
250
  6
CONTINUOUS
 10
6.8891187087
 20
-5.9259744672
 11
6.8882819029
 21
-5.8780358803
  0
LINE
  5
51E
100
AcDbEntity
  8
ASSI
100
AcDbLine
 62
250
  6
CONTINUOUS
 10
6.7802591939
 20
6.2169277709
 11
6.7810959997
 21
6.168989184
  0
LINE
  5
51F
100
AcDbEntity
  8
ASSI
100
AcDbLine
 62
250
  6
CONTINUOUS
 10
6.4825983991
 20
5.9016716536
 11
6.4830500838
 21
5.873838331
  0
LINE
  5
520
100
AcDbEntity
  8
ASSI
100
AcDbLine
 62
250
  6
CONTINUOUS
 10
7.1867795035
 20
-5.6107183499
 11
7.1863278188
 21
-5.5828850273
  0
LINE
  5
521
100
AcDbEntity
  8
ASSI
100
AcDbLine
 62
250
  6
CONTINUOUS
 10
7.1866737288
 20
4.3602256874
 11
7.1863056394
 21
4.3841795082
  0
LINE
  5
522
100
AcDbEntity
  8
ASSI
100
AcDbLine
 62
250
  6
CONTINUOUS
 10
6.7490368695
 20
-2.8543561326
 11
6.7496697663
 21
-2.8969916316
  0
LINE
  5
523
100
AcDbEntity
  8
ASSI
100
AcDbLine
 62
250
  6
CONTINUOUS
 10
6.9203410331
 20
3.1453094364
 11
6.9197081363
 21
3.1879449353
  0
LINE
  5
524
100
AcDbEntity
  8
ASSI
100
AcDbLine
 62
250
  6
CONTINUOUS
 10
7.2191279029
 20
3.3113496349
 11
7.2176285978
 21
3.4088226394
  0
LINE
  5
525
100
AcDbEntity
  8
ASSI
100
AcDbLine
 62
250
  6
CONTINUOUS
 10
6.8882819029
 20
-5.8780358803
 11
6.8873440302
 21
-5.8009639569
  0
LINE
  5
526
100
AcDbEntity
  8
ASSI
100
AcDbLine
 62
250
  6
CONTINUOUS
 10
6.7810959997
 20
6.168989184
 11
6.7820338724
 21
6.0919172606
  0
LINE
  5
527
100
AcDbEntity
  8
ASSI
100
AcDbLine
 62
250
  6
CONTINUOUS
 10
6.7812651368
 20
-3.8080767387
 11
6.7822169367
 21
-3.8929748811
  0
LINE
  5
528
100
AcDbEntity
  8
ASSI
100
AcDbLine
 62
250
  6
CONTINUOUS
 10
6.8881127658
 20
4.0990300425
 11
6.8871609659
 21
4.1839281848
  0
LINE
  5
529
100
AcDbEntity
  8
ASSI
100
AcDbLine
 62
250
  6
CONTINUOUS
 10
7.1863056394
 20
4.3841795082
 11
7.1860499437
 21
4.4093023298
  0
LINE
  5
52A
100
AcDbEntity
  8
ASSI
100
AcDbLine
 62
250
  6
CONTINUOUS
 10
6.7486191697
 20
-2.8113328629
 11
6.7490368695
 21
-2.8543561326
  0
LINE
  5
52B
100
AcDbEntity
  8
ASSI
100
AcDbLine
 62
250
  6
CONTINUOUS
 10
6.9207587329
 20
3.1022861666
 11
6.9203410331
 21
3.1453094364
  0
LINE
  5
52C
100
AcDbEntity
  8
ASSI
100
AcDbLine
 62
250
  6
CONTINUOUS
 10
7.2201584458
 20
3.2094705101
 11
7.2191279029
 21
3.3113496349
  0
LINE
  5
52D
100
AcDbEntity
  8
ASSI
100
AcDbLine
 62
250
  6
CONTINUOUS
 10
6.4830500838
 20
5.873838331
 11
6.4833477198
 21
5.8443554417
  0
LINE
  5
52E
100
AcDbEntity
  8
ASSI
100
AcDbLine
 62
250
  6
CONTINUOUS
 10
7.1863278188
 20
-5.5828850273
 11
7.1860301828
 21
-5.553402138
  0
LINE
  5
52F
100
AcDbEntity
  8
ASSI
100
AcDbLine
 62
250
  6
CONTINUOUS
 10
6.7820338724
 20
6.0919172606
 11
6.7828672666
 21
5.9790675618
  0
LINE
  5
530
100
AcDbEntity
  8
ASSI
100
AcDbLine
 62
250
  6
CONTINUOUS
 10
6.8873440302
 20
-5.8009639569
 11
6.886510636
 21
-5.6881142581
  0
LINE
  5
531
100
AcDbEntity
  8
ASSI
100
AcDbLine
 62
250
  6
CONTINUOUS
 10
6.7822169367
 20
-3.8929748811
 11
6.7829875882
 21
-4.0112860486
  0
LINE
  5
532
100
AcDbEntity
  8
ASSI
100
AcDbLine
 62
250
  6
CONTINUOUS
 10
6.8871609659
 20
4.1839281848
 11
6.8863903144
 21
4.3022393524
  0
LINE
  5
533
100
AcDbEntity
  8
ASSI
100
AcDbLine
 62
250
  6
CONTINUOUS
 10
7.1860499437
 20
4.4093023298
 11
7.1859110279
 21
4.4351407169
  0
LINE
  5
534
100
AcDbEntity
  8
ASSI
100
AcDbLine
 62
250
  6
CONTINUOUS
 10
7.2207055398
 20
3.1064325988
 11
7.2201584458
 21
3.2094705101
  0
LINE
  5
535
100
AcDbEntity
  8
ASSI
100
AcDbLine
 62
250
  6
CONTINUOUS
 10
6.7484132939
 20
-2.7685893799
 11
6.7486191697
 21
-2.8113328629
  0
LINE
  5
536
100
AcDbEntity
  8
ASSI
100
AcDbLine
 62
250
  6
CONTINUOUS
 10
6.9209646087
 20
3.0595426837
 11
6.9207587329
 21
3.1022861666
  0
LINE
  5
537
100
AcDbEntity
  8
ASSI
100
AcDbLine
 62
250
  6
CONTINUOUS
 10
7.1860301828
 20
-5.553402138
 11
7.1858937104
 21
-5.5230329254
  0
LINE
  5
538
100
AcDbEntity
  8
ASSI
100
AcDbLine
 62
250
  6
CONTINUOUS
 10
6.7828672666
 20
5.9790675618
 11
6.7833014246
 21
5.8292847785
  0
LINE
  5
539
100
AcDbEntity
  8
ASSI
100
AcDbLine
 62
250
  6
CONTINUOUS
 10
6.886510636
 20
-5.6881142581
 11
6.886076478
 21
-5.5383314748
  0
LINE
  5
53A
100
AcDbEntity
  8
ASSI
100
AcDbLine
 62
250
  6
CONTINUOUS
 10
6.7483899786
 20
-1.1305289533
 11
6.7484132939
 21
-2.7685893799
  0
LINE
  5
53B
100
AcDbEntity
  8
ASSI
100
AcDbLine
 62
250
  6
CONTINUOUS
 10
6.7829875882
 20
-4.0112860486
 11
6.7833107481
 21
-5.5127483359
  0
LINE
  5
53C
100
AcDbEntity
  8
ASSI
100
AcDbLine
 62
250
  6
CONTINUOUS
 10
6.8863903144
 20
4.3022393524
 11
6.8860671545
 21
5.8037016396
  0
LINE
  5
53D
100
AcDbEntity
  8
ASSI
100
AcDbLine
 62
250
  6
CONTINUOUS
 10
6.920987924
 20
1.421482257
 11
6.9209646087
 21
3.0595426837
  0
LINE
  5
53E
100
AcDbEntity
  8
ASSI
100
AcDbLine
 62
250
  6
CONTINUOUS
 10
6.9692188975
 20
22.2677154217
 11
6.9692188975
 21
20.7112998105
  0
LINE
  5
53F
100
AcDbEntity
  8
ASSI
100
AcDbLine
 62
250
  6
CONTINUOUS
 10
6.9692188975
 20
-20.4203465068
 11
6.9692188975
 21
-21.9767621179
  0
LINE
  5
540
100
AcDbEntity
  8
ASSI
100
AcDbLine
 62
250
  6
CONTINUOUS
 10
7.1424239782
 20
22.2729561996
 11
7.1424239782
 21
20.7235782666
  0
LINE
  5
541
100
AcDbEntity
  8
ASSI
100
AcDbLine
 62
250
  6
CONTINUOUS
 10
7.1424239782
 20
-20.4326249629
 11
7.1424239782
 21
-21.9820028959
  0
LINE
  5
542
100
AcDbEntity
  8
ASSI
100
AcDbLine
 62
250
  6
CONTINUOUS
 10
7.2208051721
 20
1.4315928727
 11
7.2207055398
 21
3.1064325988
  0
LINE
  5
543
100
AcDbEntity
  8
ASSI
100
AcDbLine
 62
250
  6
CONTINUOUS
 10
7.1859110279
 20
4.4351407169
 11
7.1858937104
 21
5.8139862292
  0
LINE
  5
544
100
AcDbEntity
  8
ASSI
100
AcDbLine
 62
250
  6
CONTINUOUS
 10
7.1858937104
 20
-5.5230329254
 11
7.1859110279
 21
-4.1441874131
  0
LINE
  5
545
100
AcDbEntity
  8
ASSI
100
AcDbLine
 62
250
  6
CONTINUOUS
 10
6.7833014246
 20
5.8292847785
 11
6.7830728411
 21
4.3231847678
  0
LINE
  5
546
100
AcDbEntity
  8
ASSI
100
AcDbLine
 62
250
  6
CONTINUOUS
 10
6.886076478
 20
-5.5383314748
 11
6.8863050615
 21
-4.0322314641
  0
LINE
  5
547
100
AcDbEntity
  8
ASSI
100
AcDbLine
 62
250
  6
CONTINUOUS
 10
6.7484897039
 20
3.0808652268
 11
6.7483899786
 21
1.421482257
  0
LINE
  5
548
100
AcDbEntity
  8
ASSI
100
AcDbLine
 62
250
  6
CONTINUOUS
 10
6.9208881987
 20
-2.7899119231
 11
6.920987924
 21
-1.1305289533
  0
LINE
  5
549
100
AcDbEntity
  8
ASSI
100
AcDbLine
 62
250
  6
CONTINUOUS
 10
7.2205761141
 20
-2.8496523316
 11
7.2208051721
 21
-1.140639569
  0
LINE
  5
54A
100
AcDbEntity
  8
ASSI
100
AcDbLine
 62
250
  6
CONTINUOUS
 10
6.7833107646
 20
-5.5127483359
 11
6.7829840049
 21
-5.6639215989
  0
LINE
  5
54B
100
AcDbEntity
  8
ASSI
100
AcDbLine
 62
250
  6
CONTINUOUS
 10
6.886067138
 20
5.8037016396
 11
6.8863938977
 21
5.9548749027
  0
LINE
  5
54C
100
AcDbEntity
  8
ASSI
100
AcDbLine
 62
250
  6
CONTINUOUS
 10
7.1858937104
 20
5.8139862292
 11
7.1860301828
 21
5.8443554419
  0
LINE
  5
54D
100
AcDbEntity
  8
ASSI
100
AcDbLine
 62
250
  6
CONTINUOUS
 10
7.1859110279
 20
-4.1441874131
 11
7.1860499437
 21
-4.118349026
  0
LINE
  5
54E
100
AcDbEntity
  8
ASSI
100
AcDbLine
 62
250
  6
CONTINUOUS
 10
6.7830728411
 20
4.3231847678
 11
6.7823749461
 21
4.2025792176
  0
LINE
  5
54F
100
AcDbEntity
  8
ASSI
100
AcDbLine
 62
250
  6
CONTINUOUS
 10
6.8863050615
 20
-4.0322314641
 11
6.8870029565
 21
-3.9116259138
  0
LINE
  5
550
100
AcDbEntity
  8
ASSI
100
AcDbLine
 62
250
  6
CONTINUOUS
 10
6.7829840049
 20
-5.6639215989
 11
6.782232187
 21
-5.7796762918
  0
LINE
  5
551
100
AcDbEntity
  8
ASSI
100
AcDbLine
 62
250
  6
CONTINUOUS
 10
6.8863938977
 20
5.9548749027
 11
6.8871457156
 21
6.0706295955
  0
LINE
  5
552
100
AcDbEntity
  8
ASSI
100
AcDbLine
 62
250
  6
CONTINUOUS
 10
6.7488014918
 20
3.1237919468
 11
6.7484897039
 21
3.0808652268
  0
LINE
  5
553
100
AcDbEntity
  8
ASSI
100
AcDbLine
 62
250
  6
CONTINUOUS
 10
6.9205764108
 20
-2.8328386431
 11
6.9208881987
 21
-2.7899119231
  0
LINE
  5
554
100
AcDbEntity
  8
ASSI
100
AcDbLine
 62
250
  6
CONTINUOUS
 10
7.2198693988
 20
-2.9527382042
 11
7.2205761141
 21
-2.8496523316
  0
LINE
  5
555
100
AcDbEntity
  8
ASSI
100
AcDbLine
 62
250
  6
CONTINUOUS
 10
7.1860499437
 20
-4.118349026
 11
7.1863056394
 21
-4.0932262044
  0
LINE
  5
556
100
AcDbEntity
  8
ASSI
100
AcDbLine
 62
250
  6
CONTINUOUS
 10
6.4833477198
 20
-5.5534021381
 11
6.4830500838
 21
-5.5828850274
  0
LINE
  5
557
100
AcDbEntity
  8
ASSI
100
AcDbLine
 62
250
  6
CONTINUOUS
 10
7.1860301828
 20
5.8443554419
 11
7.1863278188
 21
5.8738383311
  0
LWPOLYLINE
  5
558
100
AcDbEntity
  8
ASSI
100
AcDbPolyline
 62
250
  6
CONTINUOUS
 90
3
 70
0
 10
6.7823749461
 20
4.2025792176
 10
6.7814764295
 20
4.1147857685
 10
6.7812651368
 20
4.0990300425
  0
LWPOLYLINE
  5
559
100
AcDbEntity
  8
ASSI
100
AcDbPolyline
 62
250
  6
CONTINUOUS
 90
3
 70
0
 10
6.8870029565
 20
-3.9116259138
 10
6.8879014731
 20
-3.8238324648
 10
6.8881127658
 20
-3.8080767387
  0
LINE
  5
55A
100
AcDbEntity
  8
ASSI
100
AcDbLine
 62
250
  6
CONTINUOUS
 10
6.8871457156
 20
6.0706295955
 11
6.8880271845
 21
6.1510364803
  0
LINE
  5
55B
100
AcDbEntity
  8
ASSI
100
AcDbLine
 62
250
  6
CONTINUOUS
 10
6.782232187
 20
-5.7796762918
 11
6.7813507181
 21
-5.8600831766
  0
LINE
  5
55C
100
AcDbEntity
  8
ASSI
100
AcDbLine
 62
250
  6
CONTINUOUS
 10
6.7493259007
 20
3.1667083496
 11
6.7488014918
 21
3.1237919468
  0
LINE
  5
55D
100
AcDbEntity
  8
ASSI
100
AcDbLine
 62
250
  6
CONTINUOUS
 10
6.9200520019
 20
-2.8757550459
 11
6.9205764108
 21
-2.8328386431
  0
LINE
  5
55E
100
AcDbEntity
  8
ASSI
100
AcDbLine
 62
250
  6
CONTINUOUS
 10
7.2186795948
 20
-3.053496178
 11
7.2198693988
 21
-2.9527382042
  0
LINE
  5
55F
100
AcDbEntity
  8
ASSI
100
AcDbLine
 62
250
  6
CONTINUOUS
 10
7.1863056394
 20
-4.0932262044
 11
7.1866737288
 21
-4.0692723835
  0
LINE
  5
560
100
AcDbEntity
  8
ASSI
100
AcDbLine
 62
250
  6
CONTINUOUS
 10
6.8880271845
 20
6.1510364803
 11
6.8888286807
 21
6.2019781402
  0
LINE
  5
561
100
AcDbEntity
  8
ASSI
100
AcDbLine
 62
250
  6
CONTINUOUS
 10
6.7813507181
 20
-5.8600831766
 11
6.7805492219
 21
-5.9110248365
  0
LINE
  5
562
100
AcDbEntity
  8
ASSI
100
AcDbLine
 62
250
  6
CONTINUOUS
 10
6.4830500838
 20
-5.5828850274
 11
6.4825983991
 21
-5.61071835
  0
LINE
  5
563
100
AcDbEntity
  8
ASSI
100
AcDbLine
 62
250
  6
CONTINUOUS
 10
7.1863278188
 20
5.8738383311
 11
7.1867795035
 21
5.9016716537
  0
LINE
  5
564
100
AcDbEntity
  8
ASSI
100
AcDbLine
 62
250
  6
CONTINUOUS
 10
6.7500672852
 20
3.2089738003
 11
6.7493259007
 21
3.1667083496
  0
LINE
  5
565
100
AcDbEntity
  8
ASSI
100
AcDbLine
 62
250
  6
CONTINUOUS
 10
6.9193106174
 20
-2.9180204966
 11
6.9200520019
 21
-2.8757550459
  0
LINE
  5
566
100
AcDbEntity
  8
ASSI
100
AcDbLine
 62
250
  6
CONTINUOUS
 10
7.2170332928
 20
-3.148855216
 11
7.2186795948
 21
-3.053496178
  0
LINE
  5
567
100
AcDbEntity
  8
ASSI
100
AcDbLine
 62
250
  6
CONTINUOUS
 10
6.8888286807
 20
6.2019781402
 11
6.8894197794
 21
6.2307944057
  0
LINE
  5
568
100
AcDbEntity
  8
ASSI
100
AcDbLine
 62
250
  6
CONTINUOUS
 10
6.7805492219
 20
-5.9110248365
 11
6.7799581232
 21
-5.939841102
  0
LINE
  5
569
100
AcDbEntity
  8
ASSI
100
AcDbLine
 62
250
  6
CONTINUOUS
 10
6.4825983991
 20
-5.61071835
 11
6.4822166799
 21
-5.6280393514
  0
LINE
  5
56A
100
AcDbEntity
  8
ASSI
100
AcDbLine
 62
250
  6
CONTINUOUS
 10
7.1867795035
 20
5.9016716537
 11
7.1871612227
 21
5.9189926552
  0
LINE
  5
56B
100
AcDbEntity
  8
ASSI
100
AcDbLine
 62
250
  6
CONTINUOUS
 10
7.1866737288
 20
-4.0692723835
 11
7.1871478356
 21
-4.046902119
  0
LINE
  5
56C
100
AcDbEntity
  8
ASSI
100
AcDbLine
 62
250
  6
CONTINUOUS
 10
7.2157074514
 20
-3.2080834693
 11
7.2170332928
 21
-3.148855216
  0
LINE
  5
56D
100
AcDbEntity
  8
ASSI
100
AcDbLine
 62
250
  6
CONTINUOUS
 10
6.7510155527
 20
3.2499850341
 11
6.7500672852
 21
3.2089738003
  0
LINE
  5
56E
100
AcDbEntity
  8
ASSI
100
AcDbLine
 62
250
  6
CONTINUOUS
 10
6.9183623499
 20
-2.9590317304
 11
6.9193106174
 21
-2.9180204966
  0
LWPOLYLINE
  5
56F
100
AcDbEntity
  8
ASSI
100
AcDbPolyline
 62
250
  6
CONTINUOUS
 90
10
 70
0
 10
6.8894197794
 20
6.2307944057
 10
6.890048156
 20
6.2551368261
 10
6.8903754618
 20
6.265548673
 10
6.8907088473
 20
6.2747496815
 10
6.8910483165
 20
6.2827157107
 10
6.8913938654
 20
6.2894261626
 10
6.8917428501
 20
6.2948636105
 10
6.8920943892
 20
6.299013887
 10
6.892449364
 20
6.3018661649
 10
6.8928077746
 20
6.303413041
  0
LWPOLYLINE
  5
570
100
AcDbEntity
  8
ASSI
100
AcDbPolyline
 62
250
  6
CONTINUOUS
 90
10
 70
0
 10
6.7799581232
 20
-5.939841102
 10
6.7793297466
 20
-5.9641835224
 10
6.7790024408
 20
-5.9745953693
 10
6.7786690553
 20
-5.9837963777
 10
6.7783295861
 20
-5.991762407
 10
6.7779840372
 20
-5.9984728588
 10
6.7776350525
 20
-6.0039103068
 10
6.7772835134
 20
-6.0080605832
 10
6.7769285386
 20
-6.0109128612
 10
6.776570128
 20
-6.0124597373
  0
LINE
  5
571
100
AcDbEntity
  8
ASSI
100
AcDbLine
 62
250
  6
CONTINUOUS
 10
7.1871478356
 20
-4.046902119
 11
7.1875180992
 21
-4.0330829415
  0
LINE
  5
572
100
AcDbEntity
  8
ASSI
100
AcDbLine
 62
250
  6
CONTINUOUS
 10
7.2142342232
 20
-3.2629120594
 11
7.2157074514
 21
-3.2080834693
  0
LINE
  5
573
100
AcDbEntity
  8
ASSI
100
AcDbLine
 62
250
  6
CONTINUOUS
 10
6.4822166799
 20
-5.6280393514
 11
6.4817749642
 21
-5.6441497973
  0
LINE
  5
574
100
AcDbEntity
  8
ASSI
100
AcDbLine
 62
250
  6
CONTINUOUS
 10
7.1871612227
 20
5.9189926552
 11
7.1876029384
 21
5.935103101
  0
LWPOLYLINE
  5
575
100
AcDbEntity
  8
ASSI
100
AcDbPolyline
 62
7
  6
CONTINUOUS
 90
28
 70
0
 10
7.2478825753
 20
-5.767899724
 10
7.2473744333
 20
-5.7852283469
 10
7.2458608727
 20
-5.8025401877
 10
7.2433396368
 20
-5.8197765703
 10
7.239805642
 20
-5.8369049818
 10
7.2352667811
 20
-5.853838568
 10
7.2297593724
 20
-5.8704404613
 10
7.2233258529
 20
-5.8866165535
 10
7.2159818168
 20
-5.9023564831
 10
7.207734002
 20
-5.9176520469
 10
7.1986079693
 20
-5.9324523891
 10
7.1886337191
 20
-5.9467057178
 10
7.1778153509
 20
-5.9603968327
 10
7.1661484925
 20
-5.9735094724
 10
7.1536955541
 20
-5.9859531806
 10
7.140572407
 20
-5.9976120458
 10
7.1268686115
 20
-6.008424
 10
7.1126009258
 20
-6.0183924997
 10
7.0977869176
 20
-6.0275118808
 10
7.0824793341
 20
-6.03575187
 10
7.0667283822
 20
-6.0430875572
 10
7.050542473
 20
-6.0495124431
 10
7.0339332556
 20
-6.055010728
 10
7.0169937212
 20
-6.0595406905
 10
6.9998571357
 20
-6.0630670018
 10
6.9826090378
 20
-6.065581499
 10
6.965283102
 20
-6.0670884601
 10
6.9479380278
 20
-6.0675896727
  0
LINE
  5
576
100
AcDbEntity
  8
ASSI
100
AcDbLine
 62
250
  6
CONTINUOUS
 10
6.7521614975
 20
3.2892556245
 11
6.7510155527
 21
3.2499850341
  0
LINE
  5
577
100
AcDbEntity
  8
ASSI
100
AcDbLine
 62
250
  6
CONTINUOUS
 10
6.9172164051
 20
-2.9983023208
 11
6.9183623499
 21
-2.9590317304
  0
LINE
  5
578
100
AcDbEntity
  8
ASSI
100
AcDbLine
 62
250
  6
CONTINUOUS
 10
7.2126227269
 20
-3.3131019919
 11
7.2142342232
 21
-3.2629120594
  0
LINE
  5
579
100
AcDbEntity
  8
ASSI
100
AcDbLine
 62
250
  6
CONTINUOUS
 10
6.7812651368
 20
4.0990300425
 11
6.7565726808
 21
3.3919306191
  0
LINE
  5
57A
100
AcDbEntity
  8
ASSI
100
AcDbLine
 62
250
  6
CONTINUOUS
 10
6.8881127658
 20
-3.8080767387
 11
6.9128052218
 21
-3.1009773154
  0
LINE
  5
57B
100
AcDbEntity
  8
ASSI
100
AcDbLine
 62
250
  6
CONTINUOUS
 10
7.1875180992
 20
-4.0330829415
 11
7.2126227269
 21
-3.3131019919
  0
LINE
  5
57C
100
AcDbEntity
  8
ASSI
100
AcDbLine
 62
250
  6
CONTINUOUS
 10
6.4817749642
 20
-5.6441497973
 11
6.4812787494
 21
-5.6588653363
  0
LINE
  5
57D
100
AcDbEntity
  8
ASSI
100
AcDbLine
 62
250
  6
CONTINUOUS
 10
7.1876029384
 20
5.935103101
 11
7.1880991532
 21
5.9498186401
  0
LINE
  5
57E
100
AcDbEntity
  8
ASSI
100
AcDbLine
 62
250
  6
CONTINUOUS
 10
6.7534870417
 20
3.3262695201
 11
6.7521614975
 21
3.2892556245
  0
LINE
  5
57F
100
AcDbEntity
  8
ASSI
100
AcDbLine
 62
250
  6
CONTINUOUS
 10
6.9158908609
 20
-3.0353162164
 11
6.9172164051
 21
-2.9983023208
  0
LWPOLYLINE
  5
580
100
AcDbEntity
  8
ASSI
100
AcDbPolyline
 62
250
  6
CONTINUOUS
 90
14
 70
0
 10
6.4812787494
 20
-5.6588653363
 10
6.4807319272
 20
-5.6720704705
 10
6.4804418601
 20
-5.6780442058
 10
6.4801407449
 20
-5.683600949
 10
6.479830936
 20
-5.6886972602
 10
6.4795123592
 20
-5.6933295652
 10
6.4791850887
 20
-5.6975014381
 10
6.4788517022
 20
-5.7011801621
 10
6.4785121331
 20
-5.704361831
 10
6.4781664479
 20
-5.7070503511
 10
6.4778174232
 20
-5.709224724
 10
6.4774659847
 20
-5.7108779504
 10
6.4771112068
 20
-5.7120170297
 10
6.4767530895
 20
-5.7126419618
  0
LWPOLYLINE
  5
581
100
AcDbEntity
  8
ASSI
100
AcDbPolyline
 62
250
  6
CONTINUOUS
 90
14
 70
0
 10
7.1880991532
 20
5.9498186401
 10
7.1886459754
 20
5.9630237742
 10
7.1889360425
 20
5.9689975095
 10
7.1892371577
 20
5.9745542527
 10
7.1895469666
 20
5.979650564
 10
7.1898655434
 20
5.9842828689
 10
7.1901928139
 20
5.9884547418
 10
7.1905262004
 20
5.9921334658
 10
7.1908657695
 20
5.9953151348
 10
7.1912114547
 20
5.9980036548
 10
7.1915604794
 20
6.0001780277
 10
7.1919119179
 20
6.0018312541
 10
7.1922666958
 20
6.0029703334
 10
7.1926248131
 20
6.0035952655
  0
LWPOLYLINE
  5
582
100
AcDbEntity
  8
ASSI
100
AcDbPolyline
 62
250
  6
CONTINUOUS
 90
4
 70
0
 10
6.7565728075
 20
3.3919306191
 10
6.7557489006
 20
3.3766201822
 10
6.7549604692
 20
3.3605670956
 10
6.7534870417
 20
3.3262695201
  0
LWPOLYLINE
  5
583
100
AcDbEntity
  8
ASSI
100
AcDbPolyline
 62
250
  6
CONTINUOUS
 90
4
 70
0
 10
6.9128050951
 20
-3.1009773153
 10
6.913629002
 20
-3.0856668784
 10
6.9144174334
 20
-3.0696137919
 10
6.9158908609
 20
-3.0353162164
  0
LINE
  5
584
100
AcDbEntity
  8
ASSI
100
AcDbLine
 62
250
  6
CONTINUOUS
 10
9.5218917942
 20
20.2526677911
 11
9.5734344431
 21
20.6152354203
  0
LWPOLYLINE
  5
585
100
AcDbEntity
  8
ASSI
100
AcDbPolyline
 62
250
  6
CONTINUOUS
 90
8
 70
0
 10
6.776570128
 20
6.303413041
 10
6.7769285386
 20
6.3018661649
 10
6.7772835134
 20
6.2990138869
 10
6.7776350525
 20
6.2948636104
 10
6.7779840372
 20
6.2894261625
 10
6.7783295861
 20
6.2827157106
 10
6.7786690553
 20
6.2747496814
 10
6.7790024408
 20
6.2655486729
  0
LINE
  5
586
100
AcDbEntity
  8
ASSI
100
AcDbLine
 62
250
  6
CONTINUOUS
 10
9.5734344431
 20
-20.3242821165
 11
9.5218917942
 21
-19.9617144873
  0
LWPOLYLINE
  5
587
100
AcDbEntity
  8
ASSI
100
AcDbPolyline
 62
250
  6
CONTINUOUS
 90
5
 70
0
 10
5.386067235
 20
15.7697799005
 10
5.3859664108
 20
15.7705762006
 10
5.3858666836
 20
15.7723621686
 10
5.3857680534
 20
15.7751321219
 10
5.3856702255
 20
15.7788772183
  0
LINE
  5
588
100
AcDbEntity
  8
ASSI
100
AcDbLine
 62
7
  6
CONTINUOUS
 10
7.4931139443
 20
22.3047893576
 11
7.5684074281
 21
20.8141717826
  0
LINE
  5
589
100
AcDbEntity
  8
ASSI
100
AcDbLine
 62
7
  6
CONTINUOUS
 10
9.5734344431
 20
20.6152354203
 11
9.5846889513
 21
13.2454766519
  0
LINE
  5
58A
100
AcDbEntity
  8
ASSI
100
AcDbLine
 62
250
  6
CONTINUOUS
 10
9.5218917942
 20
-19.9617144873
 11
9.5182905428
 21
-13.9545233481
  0
LINE
  5
58B
100
AcDbEntity
  8
ASSI
100
AcDbLine
 62
7
  6
CONTINUOUS
 10
9.1846889513
 20
14.2454766519
 11
9.1846889513
 21
10.4454766519
  0
LINE
  5
58C
100
AcDbEntity
  8
ASSI
100
AcDbLine
 62
7
  6
CONTINUOUS
 10
9.1846889513
 20
-13.9545233481
 11
9.1846889513
 21
-10.1545233481
  0
LINE
  5
58D
100
AcDbEntity
  8
ASSI
100
AcDbLine
 62
250
  6
CONTINUOUS
 10
9.316695059
 20
-10.1545233481
 11
9.3148684589
 21
-1.1688812912
  0
LINE
  5
58E
100
AcDbEntity
  8
ASSI
100
AcDbLine
 62
250
  6
CONTINUOUS
 10
9.3219222543
 20
-20.1602237119
 11
9.3183182092
 21
-13.9545233481
  0
LINE
  5
58F
100
AcDbEntity
  8
ASSI
100
AcDbLine
 62
250
  6
CONTINUOUS
 10
9.516666089
 20
-10.1545233481
 11
9.5148377071
 21
-1.1620196337
  0
LINE
  5
590
100
AcDbEntity
  8
ASSI
100
AcDbLine
 62
7
  6
CONTINUOUS
 10
9.53057825
 20
0.0184233617
 11
9.53057825
 21
-1.1305289533
  0
LINE
  5
591
100
AcDbEntity
  8
ASSI
100
AcDbLine
 62
7
  6
CONTINUOUS
 10
9.53057825
 20
0.272529942
 11
9.53057825
 21
1.421482257
  0
LINE
  5
592
100
AcDbEntity
  8
ASSI
100
AcDbLine
 62
7
  6
CONTINUOUS
 10
9.5678120522
 20
14.2454766519
 11
9.5678120522
 21
10.4454766519
  0
LINE
  5
593
100
AcDbEntity
  8
ASSI
100
AcDbLine
 62
7
  6
CONTINUOUS
 10
9.5678120522
 20
-13.9545233481
 11
9.5678120522
 21
-10.1545233481
  0
LINE
  5
594
100
AcDbEntity
  8
ASSI
100
AcDbLine
 62
7
  6
CONTINUOUS
 10
9.5846889513
 20
0.0454766519
 11
9.5846889513
 21
-12.9545233481
  0
LINE
  5
595
100
AcDbEntity
  8
ASSI
100
AcDbLine
 62
7
  6
CONTINUOUS
 10
9.5846889513
 20
0.2454766519
 11
9.5846889513
 21
13.2454766519
  0
LINE
  5
596
100
AcDbEntity
  8
ASSI
100
AcDbLine
 62
250
  6
CONTINUOUS
 10
9.3148684589
 20
1.4598345949
 11
9.316695059
 21
10.4454766519
  0
LINE
  5
597
100
AcDbEntity
  8
ASSI
100
AcDbLine
 62
250
  6
CONTINUOUS
 10
9.5148377071
 20
1.4529729374
 11
9.516666089
 21
10.4454766519
  0
LINE
  5
598
100
AcDbEntity
  8
ASSI
100
AcDbLine
 62
250
  6
CONTINUOUS
 10
9.3183182092
 20
14.2454766519
 11
9.3219222543
 21
20.4511770156
  0
LINE
  5
599
100
AcDbEntity
  8
ASSI
100
AcDbLine
 62
250
  6
CONTINUOUS
 10
9.5182905428
 20
14.2454766519
 11
9.5218917942
 21
20.2526677911
  0
LINE
  5
59A
100
AcDbEntity
  8
ASSI
100
AcDbLine
 62
7
  6
CONTINUOUS
 10
9.5734344431
 20
-20.3242821165
 11
9.5846889513
 21
-12.9545233481
  0
LINE
  5
59B
100
AcDbEntity
  8
ASSI
100
AcDbLine
 62
7
  6
CONTINUOUS
 10
7.4931139443
 20
-22.0138360539
 11
7.5684074281
 21
-20.5232184789
  0
LINE
  5
59C
100
AcDbEntity
  8
ASSI
100
AcDbLine
 62
250
  6
CONTINUOUS
 10
5.3264291272
 20
-17.2105667788
 11
5.3771373829
 21
-16.9545233481
  0
LINE
  5
59D
100
AcDbEntity
  8
ASSI
100
AcDbLine
 62
250
  6
CONTINUOUS
 10
5.576276834
 20
-17.456768717
 11
5.6341993
 21
-17.1642982559
  0
LINE
  5
59E
100
AcDbEntity
  8
ASSI
100
AcDbLine
 62
7
  6
CONTINUOUS
 10
9.5148377071
 20
-1.1620196337
 11
9.53057825
 21
-1.1305289533
  0
LINE
  5
59F
100
AcDbEntity
  8
ASSI
100
AcDbLine
 62
250
  6
CONTINUOUS
 10
6.4767530895
 20
-5.7126419618
 11
6.4214953273
 21
-5.767899724
  0
LINE
  5
5A0
100
AcDbEntity
  8
ASSI
100
AcDbLine
 62
250
  6
CONTINUOUS
 10
6.7765698101
 20
-6.0124597375
 11
6.7214398748
 21
-6.0675896727
  0
LINE
  5
5A1
100
AcDbEntity
  8
ASSI
100
AcDbLine
 62
250
  6
CONTINUOUS
 10
6.4214953273
 20
6.0588530277
 11
6.4767530895
 21
6.0035952655
  0
LINE
  5
5A2
100
AcDbEntity
  8
ASSI
100
AcDbLine
 62
250
  6
CONTINUOUS
 10
6.7214398748
 20
6.3585429764
 11
6.7765698101
 21
6.3034130412
  0
LWPOLYLINE
  5
5A3
100
AcDbEntity
  8
ASSI
100
AcDbPolyline
 62
250
  6
CONTINUOUS
 90
13
 70
0
 10
6.4767530895
 20
6.0035952655
 10
6.4771112068
 20
6.0029703334
 10
6.4774659847
 20
6.0018312541
 10
6.4778174232
 20
6.0001780277
 10
6.4781664479
 20
5.9980036548
 10
6.4785121331
 20
5.9953151347
 10
6.4788517022
 20
5.9921334658
 10
6.4791850887
 20
5.9884547418
 10
6.4795123592
 20
5.9842828688
 10
6.479830936
 20
5.9796505639
 10
6.4801407449
 20
5.9745542526
 10
6.4804418601
 20
5.9689975094
 10
6.4807319272
 20
5.9630237742
  0
LINE
  5
5A4
100
AcDbEntity
  8
ASSI
100
AcDbLine
 62
7
  6
CONTINUOUS
 10
9.53057825
 20
1.421482257
 11
9.5148377071
 21
1.4529729374
  0
LINE
  5
5A5
100
AcDbEntity
  8
ASSI
100
AcDbLine
 62
250
  6
CONTINUOUS
 10
5.3771373829
 20
17.2454766519
 11
5.3264291272
 21
17.5015200825
  0
LINE
  5
5A6
100
AcDbEntity
  8
ASSI
100
AcDbLine
 62
250
  6
CONTINUOUS
 10
5.6341993
 20
17.4552515597
 11
5.576276834
 21
17.7477220208
  0
LWPOLYLINE
  5
5A7
100
AcDbEntity
  8
ASSI
100
AcDbPolyline
 62
250
  6
CONTINUOUS
 90
10
 70
0
 10
5.576276834
 20
17.7477220208
 10
5.5761769581
 20
17.748314025
 10
5.5760790582
 20
17.7490649466
 10
5.5759831341
 20
17.7499747854
 10
5.5758888631
 20
17.7510477359
 10
5.575796568
 20
17.7522796036
 10
5.575707217
 20
17.7536578057
 10
5.5756208513
 20
17.755183751
 10
5.5755374297
 20
17.7568560305
 10
5.5754577965
 20
17.7586578344
  0
LINE
  5
5A8
100
AcDbEntity
  8
ASSI
100
AcDbLine
 62
7
  6
CONTINUOUS
 10
10.8346889513
 20
13.2454766519
 11
10.821614714
 21
21.8068436298
  0
LINE
  5
5A9
100
AcDbEntity
  8
ASSI
100
AcDbLine
 62
7
  6
CONTINUOUS
 10
10.8346889513
 20
-0.1545005028
 11
10.8346889513
 21
-12.9545233481
  0
LINE
  5
5AA
100
AcDbEntity
  8
ASSI
100
AcDbLine
 62
7
  6
CONTINUOUS
 10
10.8346889513
 20
0.4454538066
 11
10.8346889513
 21
13.2454766519
  0
LINE
  5
5AB
100
AcDbEntity
  8
ASSI
100
AcDbLine
 62
7
  6
CONTINUOUS
 10
10.8346889513
 20
-12.9545233481
 11
10.821614714
 21
-21.5158903261
  0
LWPOLYLINE
  5
5AC
100
AcDbEntity
  8
ASSI
100
AcDbPolyline
 62
250
  6
CONTINUOUS
 90
25
 70
0
 10
9.5218917934
 20
-19.9617144815
 10
9.5214422254
 20
-19.9746034275
 10
9.5201482328
 20
-19.9874560362
 10
9.5180117346
 20
-20.0002175685
 10
9.5150370851
 20
-20.0128376547
 10
9.5112340613
 20
-20.0252572618
 10
9.5066207037
 20
-20.0374097855
 10
9.5012170505
 20
-20.049240592
 10
9.4950445094
 20
-20.0607012317
 10
9.4881318269
 20
-20.071737565
 10
9.480510423
 20
-20.0823002964
 10
9.4722116496
 20
-20.0923467608
 10
9.4632692549
 20
-20.1018359954
 10
9.4537200305
 20
-20.1107282543
 10
9.4436056588
 20
-20.1189840629
 10
9.4329710032
 20
-20.1265666513
 10
9.4218624625
 20
-20.1334431675
 10
9.4103268343
 20
-20.1395848636
 10
9.3984128018
 20
-20.1449658418
 10
9.386170953
 20
-20.1495631538
 10
9.3736539733
 20
-20.1533569166
 10
9.3609157463
 20
-20.1563307777
 10
9.3480108889
 20
-20.1584720125
 10
9.3349944964
 20
-20.1597715056
 10
9.3219222543
 20
-20.1602237119
  0
LINE
  5
5AD
100
AcDbEntity
  8
ASSI
100
AcDbLine
 62
7
  6
CONTINUOUS
 10
5.6788020285
 20
-20.1602237119
 11
5.6048213253
 21
-20.4203465068
  0
LINE
  5
5AE
100
AcDbEntity
  8
ASSI
100
AcDbLine
 62
250
  6
CONTINUOUS
 10
-5.8139323824
 20
-15.4788265964
 11
-5.7594153766
 21
-15.4515763986
  0
LINE
  5
5AF
100
AcDbEntity
  8
ASSI
100
AcDbLine
 62
7
  6
CONTINUOUS
 10
9.5678120522
 20
10.4454766519
 11
9.1846889513
 21
10.4454766519
  0
LINE
  5
5B0
100
AcDbEntity
  8
ASSI
100
AcDbLine
 62
7
  6
CONTINUOUS
 10
-9.8153110487
 20
10.4454766519
 11
-10.1984341496
 21
10.4454766519
  0
LINE
  5
5B1
100
AcDbEntity
  8
ASSI
100
AcDbLine
 62
250
  6
CONTINUOUS
 10
-5.7594153766
 20
15.7425297024
 11
-5.8139323824
 21
15.7697799002
  0
LINE
  5
5B2
100
AcDbEntity
  8
ASSI
100
AcDbLine
 62
7
  6
CONTINUOUS
 10
5.6048213253
 20
20.7112998105
 11
5.6788020285
 21
20.4511770156
  0
LINE
  5
5B3
100
AcDbEntity
  8
ASSI
100
AcDbLine
 62
250
  6
CONTINUOUS
 10
-5.5640851341
 20
-15.7287887494
 11
-5.5096908557
 21
-15.7015998966
  0
LINE
  5
5B4
100
AcDbEntity
  8
ASSI
100
AcDbLine
 62
7
  6
CONTINUOUS
 10
-11.4653110487
 20
13.2454766519
 11
-10.2153110487
 21
13.2454766519
  0
LINE
  5
5B5
100
AcDbEntity
  8
ASSI
100
AcDbLine
 62
7
  6
CONTINUOUS
 10
9.5846889513
 20
13.2454766519
 11
10.8346889513
 21
13.2454766519
  0
LINE
  5
5B6
100
AcDbEntity
  8
ASSI
100
AcDbLine
 62
250
  6
CONTINUOUS
 10
-5.5096908557
 20
15.9925532003
 11
-5.5640851341
 21
16.0197420531
  0
LINE
  5
5B7
100
AcDbEntity
  8
ASSI
100
AcDbLine
 62
7
  6
CONTINUOUS
 10
9.5678120522
 20
14.2454766519
 11
9.1846889513
 21
14.2454766519
  0
LINE
  5
5B8
100
AcDbEntity
  8
ASSI
100
AcDbLine
 62
7
  6
CONTINUOUS
 10
-9.8153110487
 20
14.2454766519
 11
-10.1984341496
 21
14.2454766519
  0
LWPOLYLINE
  5
5B9
100
AcDbEntity
  8
ASSI
100
AcDbPolyline
 62
250
  6
CONTINUOUS
 90
13
 70
0
 10
5.6359148659
 20
16.0197420531
 10
5.6358141216
 20
16.019876866
 10
5.6357144285
 20
16.0201738752
 10
5.6356157866
 20
16.0206330809
 10
5.635517866
 20
16.0212570674
 10
5.6354209965
 20
16.0220432503
 10
5.6353261683
 20
16.0229838758
 10
5.6352334124
 20
16.0240804564
 10
5.6351426977
 20
16.0253314797
 10
5.6350549219
 20
16.0267246542
 10
5.634970114
 20
16.0282614077
 10
5.6348882449
 20
16.0299403124
 10
5.6348101251
 20
16.031744794
  0
LINE
  5
5BA
100
AcDbEntity
  8
ASSI
100
AcDbLine
 62
250
  6
CONTINUOUS
 10
5.3860676176
 20
-15.4788265964
 11
5.4405846234
 21
-15.4515763986
  0
LWPOLYLINE
  5
5BB
100
AcDbEntity
  8
ASSI
100
AcDbPolyline
 62
250
  6
CONTINUOUS
 90
25
 70
0
 10
5.3860671592
 20
15.7697801293
 10
5.4024016852
 20
15.7703248576
 10
5.4186663163
 20
15.7719368042
 10
5.4347914586
 20
15.7746090716
 10
5.4507081152
 20
15.778330225
 10
5.4663481813
 20
15.7830843419
 10
5.481644735
 20
15.7888510796
 10
5.4965323251
 20
15.7956057627
 10
5.51094725
 20
15.8033194886
 10
5.5248278306
 20
15.8119592508
 10
5.5381146743
 20
15.8214880808
 10
5.5507509292
 20
15.8318652058
 10
5.5626825271
 20
15.8430462232
 10
5.5738584149
 20
15.8549832908
 10
5.5842307732
 20
15.8676253317
 10
5.593755221
 20
15.8809182521
 10
5.6023910051
 20
15.8948051736
 10
5.6101011751
 20
15.9092266761
 10
5.6168527408
 20
15.9241210522
 10
5.6226168142
 20
15.9394245712
 10
5.6273687321
 20
15.9550717519
 10
5.6310881627
 20
15.9709956427
 10
5.6337591916
 20
15.987128108
 10
5.6353703905
 20
16.0034001198
 10
5.6359148659
 20
16.0197420531
  0
LWPOLYLINE
  5
5BC
100
AcDbEntity
  8
ASSI
100
AcDbPolyline
 62
250
  6
CONTINUOUS
 90
25
 70
0
 10
-5.8139328408
 20
15.7697801293
 10
-5.7975983148
 20
15.7703248576
 10
-5.7813336837
 20
15.7719368042
 10
-5.7652085414
 20
15.7746090716
 10
-5.7492918848
 20
15.778330225
 10
-5.7336518187
 20
15.7830843419
 10
-5.718355265
 20
15.7888510796
 10
-5.7034676749
 20
15.7956057627
 10
-5.68905275
 20
15.8033194886
 10
-5.6751721694
 20
15.8119592508
 10
-5.6618853257
 20
15.8214880808
 10
-5.6492490708
 20
15.8318652058
 10
-5.6373174729
 20
15.8430462232
 10
-5.6261415851
 20
15.8549832908
 10
-5.6157692268
 20
15.8676253317
 10
-5.606244779
 20
15.8809182521
 10
-5.5976089949
 20
15.8948051736
 10
-5.5898988249
 20
15.9092266761
 10
-5.5831472592
 20
15.9241210522
 10
-5.5773831858
 20
15.9394245712
 10
-5.5726312679
 20
15.9550717519
 10
-5.5689118373
 20
15.9709956427
 10
-5.5662408084
 20
15.987128108
 10
-5.5646296095
 20
16.0034001198
 10
-5.5640851341
 20
16.0197420531
  0
LINE
  5
5BD
100
AcDbEntity
  8
ASSI
100
AcDbLine
 62
7
  6
CONTINUOUS
 10
-6.0712067208
 20
15.7425297024
 11
-5.7594153766
 21
15.7425297024
  0
LINE
  5
5BE
100
AcDbEntity
  8
ASSI
100
AcDbLine
 62
7
  6
CONTINUOUS
 10
5.1287932792
 20
15.7425297024
 11
5.4405846234
 21
15.7425297024
  0
LINE
  5
5BF
100
AcDbEntity
  8
ASSI
100
AcDbLine
 62
250
  6
CONTINUOUS
 10
-6.016689715
 20
15.7697799002
 11
-5.8139323824
 21
15.7697799002
  0
LINE
  5
5C0
100
AcDbEntity
  8
ASSI
100
AcDbLine
 62
250
  6
CONTINUOUS
 10
5.183310285
 20
15.7697799002
 11
5.3860676176
 21
15.7697799002
  0
LINE
  5
5C1
100
AcDbEntity
  8
ASSI
100
AcDbLine
 62
250
  6
CONTINUOUS
 10
-6.2648213974
 20
16.0697344378
 11
-5.5658007
 21
16.0697344378
  0
LINE
  5
5C2
100
AcDbEntity
  8
ASSI
100
AcDbLine
 62
250
  6
CONTINUOUS
 10
4.9351786026
 20
16.0697344378
 11
5.6341993
 21
16.0697344378
  0
LWPOLYLINE
  5
5C3
100
AcDbEntity
  8
ASSI
100
AcDbPolyline
 62
7
  6
CONTINUOUS
 90
28
 70
0
 10
-6.0712067208
 20
15.7425297024
 10
-6.0856653831
 20
15.7429479287
 10
-6.100104575
 20
15.7442048994
 10
-6.1144754002
 20
15.7463016615
 10
-6.1287482523
 20
15.7492409941
 10
-6.1428536473
 20
15.7530158238
 10
-6.1566854208
 20
15.7575978852
 10
-6.1701676422
 20
15.7629535127
 10
-6.1832887719
 20
15.7690694187
 10
-6.1960413401
 20
15.7759402795
 10
-6.208383253
 20
15.7835455712
 10
-6.2202704369
 20
15.7918603723
 10
-6.2316879895
 20
15.8008800656
 10
-6.2426221324
 20
15.8106081963
 10
-6.2529974617
 20
15.8209928163
 10
-6.2627159576
 20
15.8319357749
 10
-6.2717253107
 20
15.8433611167
 10
-6.2800294788
 20
15.8552555495
 10
-6.2876248626
 20
15.8676057763
 10
-6.2944864902
 20
15.8803683389
 10
-6.3005932413
 20
15.8935008146
 10
-6.3059396544
 20
15.9069960856
 10
-6.3105124291
 20
15.9208440404
 10
-6.3142769698
 20
15.9349674279
 10
-6.3172041141
 20
15.9492560864
 10
-6.3192869893
 20
15.9636390015
 10
-6.3205289135
 20
15.9780877109
 10
-6.3209312417
 20
15.9925532003
  0
LWPOLYLINE
  5
5C4
100
AcDbEntity
  8
ASSI
100
AcDbPolyline
 62
7
  6
CONTINUOUS
 90
28
 70
0
 10
5.1287932792
 20
15.7425297024
 10
5.1143346169
 20
15.7429479287
 10
5.099895425
 20
15.7442048994
 10
5.0855245998
 20
15.7463016615
 10
5.0712517477
 20
15.7492409941
 10
5.0571463527
 20
15.7530158238
 10
5.0433145792
 20
15.7575978852
 10
5.0298323578
 20
15.7629535127
 10
5.0167112281
 20
15.7690694187
 10
5.0039586599
 20
15.7759402795
 10
4.991616747
 20
15.7835455712
 10
4.9797295631
 20
15.7918603723
 10
4.9683120105
 20
15.8008800656
 10
4.9573778676
 20
15.8106081963
 10
4.9470025383
 20
15.8209928163
 10
4.9372840424
 20
15.8319357749
 10
4.9282746893
 20
15.8433611167
 10
4.9199705212
 20
15.8552555495
 10
4.9123751374
 20
15.8676057763
 10
4.9055135098
 20
15.8803683389
 10
4.8994067587
 20
15.8935008146
 10
4.8940603456
 20
15.9069960856
 10
4.8894875709
 20
15.9208440404
 10
4.8857230302
 20
15.9349674279
 10
4.8827958859
 20
15.9492560864
 10
4.8807130107
 20
15.9636390015
 10
4.8794710865
 20
15.9780877109
 10
4.8790687583
 20
15.9925532003
  0
LWPOLYLINE
  5
5C5
100
AcDbEntity
  8
ASSI
100
AcDbPolyline
 62
250
  6
CONTINUOUS
 90
25
 70
0
 10
-6.0166892566
 20
15.7697801293
 10
-6.0330237543
 20
15.7703248557
 10
-6.0492883594
 20
15.771936797
 10
-6.0654134784
 20
15.7746090561
 10
-6.0813301145
 20
15.7783301986
 10
-6.096970163
 20
15.7830843025
 10
-6.1122667028
 20
15.7888510258
 10
-6.1271542826
 20
15.7956056936
 10
-6.1415692007
 20
15.8033194038
 10
-6.1554497783
 20
15.8119591506
 10
-6.1687366226
 20
15.8214879662
 10
-6.1813728813
 20
15.8318650781
 10
-6.1933044861
 20
15.8430460846
 10
-6.2044803835
 20
15.8549831438
 10
-6.2148527537
 20
15.8676251792
 10
-6.2243772152
 20
15.8809180975
 10
-6.2330130142
 20
15.8948050205
 10
-6.2407231997
 20
15.9092265284
 10
-6.247474781
 20
15.9241209139
 10
-6.2532388693
 20
15.9394244465
 10
-6.2579908009
 20
15.9550716449
 10
-6.2617102431
 20
15.9709955572
 10
-6.264381281
 20
15.9871280477
 10
-6.2659924858
 20
16.0034000881
 10
-6.2665369633
 20
16.0197420531
  0
LWPOLYLINE
  5
5C6
100
AcDbEntity
  8
ASSI
100
AcDbPolyline
 62
250
  6
CONTINUOUS
 90
25
 70
0
 10
5.1833107434
 20
15.7697801293
 10
5.1669762457
 20
15.7703248557
 10
5.1507116406
 20
15.771936797
 10
5.1345865216
 20
15.7746090561
 10
5.1186698855
 20
15.7783301986
 10
5.103029837
 20
15.7830843025
 10
5.0877332972
 20
15.7888510258
 10
5.0728457174
 20
15.7956056936
 10
5.0584307993
 20
15.8033194038
 10
5.0445502217
 20
15.8119591506
 10
5.0312633774
 20
15.8214879662
 10
5.0186271187
 20
15.8318650781
 10
5.0066955139
 20
15.8430460846
 10
4.9955196165
 20
15.8549831438
 10
4.9851472463
 20
15.8676251792
 10
4.9756227848
 20
15.8809180975
 10
4.9669869858
 20
15.8948050205
 10
4.9592768003
 20
15.9092265284
 10
4.952525219
 20
15.9241209139
 10
4.9467611307
 20
15.9394244465
 10
4.9420091991
 20
15.9550716449
 10
4.9382897569
 20
15.9709955572
 10
4.935618719
 20
15.9871280477
 10
4.9340075142
 20
16.0034000881
 10
4.9334630367
 20
16.0197420531
  0
LINE
  5
5C7
100
AcDbEntity
  8
ASSI
100
AcDbLine
 62
250
  6
CONTINUOUS
 10
5.4405846234
 20
15.7425297024
 11
5.3860676176
 21
15.7697799002
  0
LINE
  5
5C8
100
AcDbEntity
  8
ASSI
100
AcDbLine
 62
250
  6
CONTINUOUS
 10
5.6359148659
 20
-15.7287887494
 11
5.6903091443
 21
-15.7015998966
  0
LWPOLYLINE
  5
5C9
100
AcDbEntity
  8
ASSI
100
AcDbPolyline
 62
7
  6
CONTINUOUS
 90
31
 70
0
 10
-5.8156484067
 20
17.2455822628
 10
-5.8000338188
 20
17.2465287587
 10
-5.7847423857
 20
17.2481600203
 10
-5.7698273147
 20
17.2504760478
 10
-5.7553430485
 20
17.2535225189
 10
-5.7413230054
 20
17.2572537558
 10
-5.7277809534
 20
17.2615327249
 10
-5.7147513592
 20
17.2663533993
 10
-5.7022565126
 20
17.2717218059
 10
-5.6902878849
 20
17.277518992
 10
-5.6788652379
 20
17.2837381473
 10
-5.6680036118
 20
17.2903860821
 10
-5.6576871039
 20
17.2973642739
 10
-5.6479261549
 20
17.3046674962
 10
-5.6387307147
 20
17.3123009754
 10
-5.6300859825
 20
17.3201818687
 10
-5.6219969406
 20
17.3283067407
 10
-5.614469226
 20
17.3366790266
 10
-5.607491417
 20
17.345226189
 10
-5.6010647659
 20
17.35394629
 10
-5.5951913432
 20
17.3628412674
 10
-5.5898628901
 20
17.3718443974
 10
-5.5850776377
 20
17.380954697
 10
-5.5808343231
 20
17.3901731492
 10
-5.5771263091
 20
17.3994359793
 10
-5.5739488209
 20
17.408742884
 10
-5.5712973342
 20
17.4180941665
 10
-5.569164971
 20
17.4274269619
 10
-5.5675440258
 20
17.436720315
 10
-5.5664258514
 20
17.4459951809
 10
-5.5658007
 20
17.4552515597
  0
LWPOLYLINE
  5
5CA
100
AcDbEntity
  8
ASSI
100
AcDbPolyline
 62
250
  6
CONTINUOUS
 90
25
 70
0
 10
5.3264291272
 20
17.5015200825
 10
5.3427073494
 20
17.5021403756
 10
5.3589163993
 20
17.5038041979
 10
5.3749874011
 20
17.5065044789
 10
5.3908520666
 20
17.5102297444
 10
5.4064429827
 20
17.5149641641
 10
5.4216938985
 20
17.5206876193
 10
5.4365400098
 20
17.5273757888
 10
5.450918233
 20
17.5350002523
 10
5.4647674713
 20
17.5435286104
 10
5.4780288769
 20
17.5529246231
 10
5.4906461005
 20
17.5631483639
 10
5.5025655295
 20
17.574156389
 10
5.5137365166
 20
17.5859019218
 10
5.5241115955
 20
17.5983350527
 10
5.5336466819
 20
17.6114029506
 10
5.5423012604
 20
17.6250500865
 10
5.5500385575
 20
17.6392184709
 10
5.5568256977
 20
17.6538479007
 10
5.5626338422
 20
17.668876212
 10
5.5674383124
 20
17.6842395472
 10
5.5712186946
 20
17.6998726264
 10
5.5739589262
 20
17.7157090227
 10
5.5756473639
 20
17.7316814439
 10
5.576276834
 20
17.7477220208
  0
LWPOLYLINE
  5
5CB
100
AcDbEntity
  8
ASSI
100
AcDbPolyline
 62
250
  6
CONTINUOUS
 90
25
 70
0
 10
-5.8735708728
 20
17.5015200825
 10
-5.8572926506
 20
17.5021403756
 10
-5.8410836007
 20
17.5038041979
 10
-5.8250125989
 20
17.5065044789
 10
-5.8091479334
 20
17.5102297444
 10
-5.7935570173
 20
17.5149641641
 10
-5.7783061015
 20
17.5206876193
 10
-5.7634599902
 20
17.5273757888
 10
-5.749081767
 20
17.5350002523
 10
-5.7352325287
 20
17.5435286104
 10
-5.7219711231
 20
17.5529246231
 10
-5.7093538995
 20
17.5631483639
 10
-5.6974344705
 20
17.574156389
 10
-5.6862634834
 20
17.5859019218
 10
-5.6758884045
 20
17.5983350527
 10
-5.6663533181
 20
17.6114029506
 10
-5.6576987396
 20
17.6250500865
 10
-5.6499614425
 20
17.6392184709
 10
-5.6431743023
 20
17.6538479007
 10
-5.6373661578
 20
17.668876212
 10
-5.6325616876
 20
17.6842395472
 10
-5.6287813054
 20
17.6998726264
 10
-5.6260410738
 20
17.7157090227
 10
-5.6243526361
 20
17.7316814439
 10
-5.623723166
 20
17.7477220208
  0
LWPOLYLINE
  5
5CC
100
AcDbEntity
  8
ASSI
100
AcDbPolyline
 62
250
  6
CONTINUOUS
 90
25
 70
0
 10
5.2442280273
 20
18.2057537316
 10
5.2282077693
 20
18.2053222534
 10
5.2122533817
 20
18.2044581508
 10
5.1964304608
 20
18.2031649768
 10
5.1808040617
 20
18.2014480485
 10
5.1654384328
 20
18.1993144252
 10
5.1503967517
 20
18.19677288
 10
5.1357408619
 20
18.193833863
 10
5.1215310204
 20
18.1905094581
 10
5.1078256515
 20
18.1868133343
 10
5.094681104
 20
18.1827606888
 10
5.0821514206
 20
18.1783681843
 10
5.0702881162
 20
18.173653881
 10
5.0591399658
 20
18.1686371623
 10
5.0487528033
 20
18.1633386544
 10
5.0391693338
 20
18.1577801422
 10
5.0304289586
 20
18.1519844797
 10
5.022567612
 20
18.1459754958
 10
5.0156176137
 20
18.1397778958
 10
5.0096075377
 20
18.133417161
 10
5.0045620928
 20
18.1269194435
 10
5.0005020216
 20
18.1203114574
 10
4.9974440162
 20
18.1136203709
 10
4.995400649
 20
18.1068736943
 10
4.9943803205
 20
18.1000991662
  0
LWPOLYLINE
  5
5CD
100
AcDbEntity
  8
ASSI
100
AcDbPolyline
 62
250
  6
CONTINUOUS
 90
25
 70
0
 10
-5.9557719727
 20
18.2057537316
 10
-5.9717922307
 20
18.2053222534
 10
-5.9877466183
 20
18.2044581508
 10
-6.0035695392
 20
18.2031649768
 10
-6.0191959383
 20
18.2014480485
 10
-6.0345615672
 20
18.1993144252
 10
-6.0496032483
 20
18.19677288
 10
-6.0642591381
 20
18.193833863
 10
-6.0784689796
 20
18.1905094581
 10
-6.0921743485
 20
18.1868133343
 10
-6.105318896
 20
18.1827606888
 10
-6.1178485794
 20
18.1783681843
 10
-6.1297118838
 20
18.173653881
 10
-6.1408600342
 20
18.1686371623
 10
-6.1512471967
 20
18.1633386544
 10
-6.1608306662
 20
18.1577801422
 10
-6.1695710414
 20
18.1519844797
 10
-6.177432388
 20
18.1459754958
 10
-6.1843823863
 20
18.1397778958
 10
-6.1903924623
 20
18.133417161
 10
-6.1954379072
 20
18.1269194435
 10
-6.1994979784
 20
18.1203114574
 10
-6.2025559838
 20
18.1136203709
 10
-6.204599351
 20
18.1068736943
 10
-6.2056196795
 20
18.1000991662
  0
LINE
  5
5CE
100
AcDbEntity
  8
ASSI
100
AcDbLine
 62
7
  6
CONTINUOUS
 10
5.3771373829
 20
17.2454766519
 11
5.1922405197
 21
17.2454766519
  0
LINE
  5
5CF
100
AcDbEntity
  8
ASSI
100
AcDbLine
 62
7
  6
CONTINUOUS
 10
-6.0077594803
 20
17.2454766519
 11
-5.8228626171
 21
17.2454766519
  0
LINE
  5
5D0
100
AcDbEntity
  8
ASSI
100
AcDbLine
 62
250
  6
CONTINUOUS
 10
-5.9570512246
 20
17.5015200825
 11
-5.8735708728
 21
17.5015200825
  0
LINE
  5
5D1
100
AcDbEntity
  8
ASSI
100
AcDbLine
 62
250
  6
CONTINUOUS
 10
5.2429487754
 20
17.5015200825
 11
5.3264291272
 21
17.5015200825
  0
LINE
  5
5D2
100
AcDbEntity
  8
ASSI
100
AcDbLine
 62
250
  6
CONTINUOUS
 10
-6.2054560893
 20
17.7969624084
 11
-5.6251660081
 21
17.7969624084
  0
LINE
  5
5D3
100
AcDbEntity
  8
ASSI
100
AcDbLine
 62
250
  6
CONTINUOUS
 10
4.9945439107
 20
17.7969624084
 11
5.5748339919
 21
17.7969624084
  0
LINE
  5
5D4
100
AcDbEntity
  8
ASSI
100
AcDbLine
 62
250
  6
CONTINUOUS
 10
-6.2054560893
 20
18.0789682531
 11
-5.6251660081
 21
18.0789682531
  0
LINE
  5
5D5
100
AcDbEntity
  8
ASSI
100
AcDbLine
 62
250
  6
CONTINUOUS
 10
4.9945439107
 20
18.0789682531
 11
5.5748339919
 21
18.0789682531
  0
LINE
  5
5D6
100
AcDbEntity
  8
ASSI
100
AcDbLine
 62
250
  6
CONTINUOUS
 10
-5.9557719727
 20
18.2057537316
 11
-5.8748501247
 21
18.2057537316
  0
LINE
  5
5D7
100
AcDbEntity
  8
ASSI
100
AcDbLine
 62
250
  6
CONTINUOUS
 10
5.2442280273
 20
18.2057537316
 11
5.3251498753
 21
18.2057537316
  0
LWPOLYLINE
  5
5D8
100
AcDbEntity
  8
ASSI
100
AcDbPolyline
 62
250
  6
CONTINUOUS
 90
25
 70
0
 10
-5.8748501247
 20
18.2057537316
 10
-5.8588299263
 20
18.2053222569
 10
-5.8428755945
 20
18.2044581607
 10
-5.8270527249
 20
18.2031649958
 10
-5.8114263729
 20
18.201448079
 10
-5.7960607856
 20
18.1993144693
 10
-5.7810191382
 20
18.1967729391
 10
-5.7663632739
 20
18.1938339376
 10
-5.7521534499
 20
18.1905095486
 10
-5.7384480895
 20
18.1868134401
 10
-5.7253035417
 20
18.1827608087
 10
-5.7127738499
 20
18.1783683164
 10
-5.7009105297
 20
18.1736540231
 10
-5.6897623566
 20
18.1686373113
 10
-5.6793751661
 20
18.163338807
 10
-5.6697916647
 20
18.157780295
 10
-5.6610512547
 20
18.1519846288
 10
-5.653189872
 20
18.1459756372
 10
-5.6462398385
 20
18.1397780259
 10
-5.640229729
 20
18.1334172762
 10
-5.6351842538
 20
18.1269195401
 10
-5.6311241573
 20
18.120311533
 10
-5.6280661325
 20
18.1136204233
 10
-5.6260227522
 20
18.1068737214
 10
-5.6250024179
 20
18.1000991662
  0
LWPOLYLINE
  5
5D9
100
AcDbEntity
  8
ASSI
100
AcDbPolyline
 62
250
  6
CONTINUOUS
 90
25
 70
0
 10
5.3251498753
 20
18.2057537316
 10
5.3411700737
 20
18.2053222569
 10
5.3571244055
 20
18.2044581607
 10
5.3729472751
 20
18.2031649958
 10
5.3885736271
 20
18.201448079
 10
5.4039392144
 20
18.1993144693
 10
5.4189808618
 20
18.1967729391
 10
5.4336367261
 20
18.1938339376
 10
5.4478465501
 20
18.1905095486
 10
5.4615519105
 20
18.1868134401
 10
5.4746964583
 20
18.1827608087
 10
5.4872261501
 20
18.1783683164
 10
5.4990894703
 20
18.1736540231
 10
5.5102376434
 20
18.1686373113
 10
5.5206248339
 20
18.163338807
 10
5.5302083353
 20
18.157780295
 10
5.5389487453
 20
18.1519846288
 10
5.546810128
 20
18.1459756372
 10
5.5537601615
 20
18.1397780259
 10
5.559770271
 20
18.1334172762
 10
5.5648157462
 20
18.1269195401
 10
5.5688758427
 20
18.120311533
 10
5.5719338675
 20
18.1136204233
 10
5.5739772478
 20
18.1068737214
 10
5.5749975821
 20
18.1000991662
  0
LWPOLYLINE
  5
5DA
100
AcDbEntity
  8
ASSI
100
AcDbPolyline
 62
250
  6
CONTINUOUS
 90
25
 70
0
 10
-5.9570512246
 20
17.5015200825
 10
-5.9733293906
 20
17.5021403716
 10
-5.9895383876
 20
17.503804183
 10
-6.0056093405
 20
17.5065044469
 10
-6.021473961
 20
17.5102296895
 10
-6.0370648372
 20
17.5149640814
 10
-6.0523157205
 20
17.5206875053
 10
-6.0671618072
 20
17.5273756414
 10
-6.0815400135
 20
17.5350000705
 10
-6.0953892436
 20
17.5435283949
 10
-6.1086506495
 20
17.5529243762
 10
-6.1212678812
 20
17.5631480892
 10
-6.1331873255
 20
17.5741560914
 10
-6.1443583346
 20
17.5859016076
 10
-6.1547334407
 20
17.5983347291
 10
-6.1642685582
 20
17.6114026251
 10
-6.1729231704
 20
17.6250497677
 10
-6.1806605023
 20
17.6392181677
 10
-6.1874476765
 20
17.6538476209
 10
-6.1932558532
 20
17.6688759639
 10
-6.1980603522
 20
17.6842393386
 10
-6.2018407583
 20
17.6998724631
 10
-6.2045810078
 20
17.7157089093
 10
-6.206269457
 20
17.7316813852
 10
-6.2068989314
 20
17.7477220208
  0
LWPOLYLINE
  5
5DB
100
AcDbEntity
  8
ASSI
100
AcDbPolyline
 62
250
  6
CONTINUOUS
 90
25
 70
0
 10
5.2429487754
 20
17.5015200825
 10
5.2266706094
 20
17.5021403716
 10
5.2104616124
 20
17.503804183
 10
5.1943906595
 20
17.5065044469
 10
5.178526039
 20
17.5102296895
 10
5.1629351628
 20
17.5149640814
 10
5.1476842795
 20
17.5206875053
 10
5.1328381928
 20
17.5273756414
 10
5.1184599865
 20
17.5350000705
 10
5.1046107564
 20
17.5435283949
 10
5.0913493505
 20
17.5529243762
 10
5.0787321188
 20
17.5631480892
 10
5.0668126745
 20
17.5741560914
 10
5.0556416654
 20
17.5859016076
 10
5.0452665593
 20
17.5983347291
 10
5.0357314418
 20
17.6114026251
 10
5.0270768296
 20
17.6250497677
 10
5.0193394977
 20
17.6392181677
 10
5.0125523235
 20
17.6538476209
 10
5.0067441468
 20
17.6688759639
 10
5.0019396478
 20
17.6842393386
 10
4.9981592417
 20
17.6998724631
 10
4.9954189922
 20
17.7157089093
 10
4.993730543
 20
17.7316813852
 10
4.9931010686
 20
17.7477220208
  0
LINE
  5
5DC
100
AcDbEntity
  8
ASSI
100
AcDbLine
 62
250
  6
CONTINUOUS
 10
5.6903091443
 20
15.9925532003
 11
5.6359148659
 21
16.0197420531
  0
LINE
  5
5DD
100
AcDbEntity
  8
ASSI
100
AcDbLine
 62
7
  6
CONTINUOUS
 10
7.1424239782
 20
20.7235782666
 11
7.5684074281
 21
20.8141717826
  0
LINE
  5
5DE
100
AcDbEntity
  8
ASSI
100
AcDbLine
 62
7
  6
CONTINUOUS
 10
-7.7730460756
 20
20.7235782666
 11
-8.1990295255
 21
20.8141717826
  0
LINE
  5
5DF
100
AcDbEntity
  8
ASSI
100
AcDbLine
 62
7
  6
CONTINUOUS
 10
-4.0575760218
 20
20.7235782666
 11
-3.6315925719
 21
20.8141717826
  0
LINE
  5
5E0
100
AcDbEntity
  8
ASSI
100
AcDbLine
 62
7
  6
CONTINUOUS
 10
7.4931139443
 20
22.3047893576
 11
7.1424239782
 21
22.2729561996
  0
LWPOLYLINE
  5
5E1
100
AcDbEntity
  8
ASSI
100
AcDbPolyline
 62
250
  6
CONTINUOUS
 90
13
 70
0
 10
-10.0760701461
 20
20.2589272996
 10
-10.0873566904
 20
20.2585336268
 10
-10.0979059492
 20
20.2581078827
 10
-10.1076602287
 20
20.2576523957
 10
-10.1165661831
 20
20.2571696558
 10
-10.1245751059
 20
20.2566623035
 10
-10.1316431965
 20
20.2561331151
 10
-10.1377317997
 20
20.2555849821
 10
-10.142807617
 20
20.2550209025
 10
-10.146842889
 20
20.2544439654
 10
-10.1498155468
 20
20.2538573253
 10
-10.1517093331
 20
20.2532641851
 10
-10.1525138908
 20
20.2526677853
  0
LINE
  5
5E2
100
AcDbEntity
  8
ASSI
100
AcDbLine
 62
250
  6
CONTINUOUS
 10
-10.0515357987
 20
20.2596100038
 11
-10.0760701461
 21
20.2589272996
  0
LINE
  5
5E3
100
AcDbEntity
  8
ASSI
100
AcDbLine
 62
250
  6
CONTINUOUS
 10
-10.0248388842
 20
20.2601410834
 11
-10.0515357987
 21
20.2596100038
  0
LINE
  5
5E4
100
AcDbEntity
  8
ASSI
100
AcDbLine
 62
250
  6
CONTINUOUS
 10
-9.9965626236
 20
20.260508935
 11
-10.0248388842
 21
20.2601410834
  0
LINE
  5
5E5
100
AcDbEntity
  8
ASSI
100
AcDbLine
 62
250
  6
CONTINUOUS
 10
-9.9673247398
 20
20.2607055277
 11
-9.9965626236
 21
20.260508935
  0
LINE
  5
5E6
100
AcDbEntity
  8
ASSI
100
AcDbLine
 62
250
  6
CONTINUOUS
 10
9.321922244
 20
20.2607381008
 11
5.6849293399
 21
20.2607381008
  0
LINE
  5
5E7
100
AcDbEntity
  8
ASSI
100
AcDbLine
 62
250
  6
CONTINUOUS
 10
4.8844485627
 20
20.2607381008
 11
-5.5150706601
 21
20.2607381008
  0
LINE
  5
5E8
100
AcDbEntity
  8
ASSI
100
AcDbLine
 62
250
  6
CONTINUOUS
 10
-6.3155514373
 20
20.2607381008
 11
-9.9673247398
 21
20.2607055277
  0
LINE
  5
5E9
100
AcDbEntity
  8
ASSI
100
AcDbLine
 62
250
  6
CONTINUOUS
 10
9.3219222543
 20
20.4511770156
 11
5.6788020285
 21
20.4511770156
  0
LINE
  5
5EA
100
AcDbEntity
  8
ASSI
100
AcDbLine
 62
250
  6
CONTINUOUS
 10
4.8905758741
 20
20.4511770156
 11
-5.5211979715
 21
20.4511770156
  0
LINE
  5
5EB
100
AcDbEntity
  8
ASSI
100
AcDbLine
 62
250
  6
CONTINUOUS
 10
-6.3094241259
 20
20.4511770156
 11
-9.9525443517
 21
20.4511770156
  0
LINE
  5
5EC
100
AcDbEntity
  8
ASSI
100
AcDbLine
 62
7
  6
CONTINUOUS
 10
-5.8374188195
 20
20.5044342644
 11
-5.9932032779
 21
20.5044342644
  0
LINE
  5
5ED
100
AcDbEntity
  8
ASSI
100
AcDbLine
 62
7
  6
CONTINUOUS
 10
5.2067967221
 20
20.5044342644
 11
5.3625811805
 21
20.5044342644
  0
LINE
  5
5EE
100
AcDbEntity
  8
ASSI
100
AcDbLine
 62
7
  6
CONTINUOUS
 10
-7.5998409949
 20
20.7112998105
 11
-6.2354434227
 21
20.7112998105
  0
LINE
  5
5EF
100
AcDbEntity
  8
ASSI
100
AcDbLine
 62
7
  6
CONTINUOUS
 10
-5.5951786747
 20
20.7112998105
 11
-4.2307811025
 21
20.7112998105
  0
LINE
  5
5F0
100
AcDbEntity
  8
ASSI
100
AcDbLine
 62
7
  6
CONTINUOUS
 10
3.6001590051
 20
20.7112998105
 11
4.9645565773
 21
20.7112998105
  0
LINE
  5
5F1
100
AcDbEntity
  8
ASSI
100
AcDbLine
 62
7
  6
CONTINUOUS
 10
5.6048213253
 20
20.7112998105
 11
6.9692188975
 21
20.7112998105
  0
LINE
  5
5F2
100
AcDbEntity
  8
ASSI
100
AcDbLine
 62
7
  6
CONTINUOUS
 10
-10.0041477226
 20
20.8141717826
 11
-8.1990295255
 21
20.8141717826
  0
LINE
  5
5F3
100
AcDbEntity
  8
ASSI
100
AcDbLine
 62
7
  6
CONTINUOUS
 10
-3.6315925719
 20
20.8141717826
 11
3.0009704745
 21
20.8141717826
  0
LINE
  5
5F4
100
AcDbEntity
  8
ASSI
100
AcDbLine
 62
7
  6
CONTINUOUS
 10
7.5684074281
 20
20.8141717826
 11
9.3735256252
 21
20.8141717826
  0
LWPOLYLINE
  5
5F5
100
AcDbEntity
  8
ASSI
100
AcDbPolyline
 62
250
  6
CONTINUOUS
 90
3
 70
0
 10
9.3659405262
 20
20.260508935
 10
9.336668835
 20
20.2606028976
 10
9.3219222543
 20
20.2607381008
  0
LINE
  5
5F6
100
AcDbEntity
  8
ASSI
100
AcDbLine
 62
250
  6
CONTINUOUS
 10
9.3802445549
 20
20.2603639319
 11
9.3659405262
 21
20.260508935
  0
LWPOLYLINE
  5
5F7
100
AcDbEntity
  8
ASSI
100
AcDbPolyline
 62
250
  6
CONTINUOUS
 90
3
 70
0
 10
9.4454480487
 20
20.2589272996
 10
9.4209203896
 20
20.259626994
 10
9.3802445549
 20
20.2603639319
  0
LWPOLYLINE
  5
5F8
100
AcDbEntity
  8
ASSI
100
AcDbPolyline
 62
250
  6
CONTINUOUS
 90
25
 70
0
 10
9.3219222543
 20
20.4511770156
 10
9.3349832338
 20
20.4507255652
 10
9.3479884354
 20
20.4494282953
 10
9.3608823196
 20
20.4472907461
 10
9.3736098222
 20
20.4443220461
 10
9.3861165894
 20
20.4405348734
 10
9.3983492103
 20
20.4359454012
 10
9.4102554445
 20
20.4305732293
 10
9.4217844458
 20
20.4244412999
 10
9.4328869787
 20
20.4175757999
 10
9.4435156291
 20
20.4100060488
 10
9.4536250065
 20
20.4017643737
 10
9.4631719383
 20
20.3928859714
 10
9.4721156535
 20
20.3834087576
 10
9.4804179574
 20
20.3733732054
 10
9.4880433945
 20
20.3628221725
 10
9.4949593997
 20
20.3518007175
 10
9.5011364379
 20
20.3403559086
 10
9.5065481295
 20
20.3285366214
 10
9.5111713635
 20
20.3163933312
 10
9.5149863962
 20
20.3039778966
 10
9.5179769351
 20
20.2913433386
 10
9.5201302089
 20
20.278543614
 10
9.5214370219
 20
20.2656333849
 10
9.5218917934
 20
20.2526677853
  0
LWPOLYLINE
  5
5F9
100
AcDbEntity
  8
ASSI
100
AcDbPolyline
 62
250
  6
CONTINUOUS
 90
3
 70
0
 10
9.4770381313
 20
20.2576523957
 10
9.4567426899
 20
20.2585532864
 10
9.4454480487
 20
20.2589272996
  0
LINE
  5
5FA
100
AcDbEntity
  8
ASSI
100
AcDbLine
 62
250
  6
CONTINUOUS
 10
9.4859542717
 20
20.2571970508
 11
9.4770381313
 21
20.2576523957
  0
LINE
  5
5FB
100
AcDbEntity
  8
ASSI
100
AcDbLine
 62
7
  6
CONTINUOUS
 10
-8.1237360417
 20
22.3047893576
 11
-7.7730460756
 21
22.2729561996
  0
LINE
  5
5FC
100
AcDbEntity
  8
ASSI
100
AcDbLine
 62
7
  6
CONTINUOUS
 10
3.4269539244
 20
20.7235782666
 11
3.0009704745
 21
20.8141717826
  0
LWPOLYLINE
  5
5FD
100
AcDbEntity
  8
ASSI
100
AcDbPolyline
 62
250
  6
CONTINUOUS
 90
8
 70
0
 10
9.5218917934
 20
20.2526677853
 10
9.5210761262
 20
20.2533770005
 10
9.5191779723
 20
20.2539456957
 10
9.5162207916
 20
20.2544439654
 10
9.5122013053
 20
20.2550097857
 10
9.5071190446
 20
20.2556239944
 10
9.5010210991
 20
20.2561331151
 10
9.4859542717
 20
20.2571970508
  0
LINE
  5
5FE
100
AcDbEntity
  8
ASSI
100
AcDbLine
 62
7
  6
CONTINUOUS
 10
-3.7068860557
 20
22.3047893576
 11
-4.0575760218
 21
22.2729561996
  0
LINE
  5
5FF
100
AcDbEntity
  8
ASSI
100
AcDbLine
 62
7
  6
CONTINUOUS
 10
-7.5998409949
 20
22.2677154217
 11
-4.2307811025
 21
22.2677154217
  0
LINE
  5
600
100
AcDbEntity
  8
ASSI
100
AcDbLine
 62
7
  6
CONTINUOUS
 10
3.6001590051
 20
22.2677154217
 11
6.9692188975
 21
22.2677154217
  0
LINE
  5
601
100
AcDbEntity
  8
ASSI
100
AcDbLine
 62
7
  6
CONTINUOUS
 10
-10.9518569881
 20
22.3047893576
 11
-8.1237360417
 21
22.3047893576
  0
LINE
  5
602
100
AcDbEntity
  8
ASSI
100
AcDbLine
 62
7
  6
CONTINUOUS
 10
-3.7068860557
 20
22.3047893576
 11
3.0762639583
 21
22.3047893576
  0
LINE
  5
603
100
AcDbEntity
  8
ASSI
100
AcDbLine
 62
7
  6
CONTINUOUS
 10
7.4931139443
 20
22.3047893576
 11
10.3212348907
 21
22.3047893576
  0
LINE
  5
604
100
AcDbEntity
  8
ASSI
100
AcDbLine
 62
7
  6
CONTINUOUS
 10
3.0762639583
 20
22.3047893576
 11
3.4269539244
 21
22.2729561996
  0
ARC
  5
605
100
AcDbEntity
  8
ASSI
100
AcDbCircle
 62
7
  6
CONTINUOUS
 10
-0.3153110487
 20
0.1454766519
 40
2.95
100
AcDbArc
 50
25.6291347882
 51
154.3708652118
  0
ARC
  5
606
100
AcDbEntity
  8
ASSI
100
AcDbCircle
 62
7
  6
CONTINUOUS
 10
-0.3153110487
 20
0.1454766519
 40
2.95
100
AcDbArc
 50
205.6291347882
 51
334.3708652118
  0
ARC
  5
607
100
AcDbEntity
  8
ASSI
100
AcDbCircle
 62
7
  6
CONTINUOUS
 10
-0.3153110487
 20
0.1454766519
 40
2.3052365195
100
AcDbArc
 50
3.1594622934
 51
176.8405377066
  0
ARC
  5
608
100
AcDbEntity
  8
ASSI
100
AcDbCircle
 62
7
  6
CONTINUOUS
 10
-0.3153110487
 20
0.1454766519
 40
2.3052365195
100
AcDbArc
 50
183.1594622934
 51
356.8405377066
  0
ARC
  5
609
100
AcDbEntity
  8
ASSI
100
AcDbCircle
 62
7
  6
CONTINUOUS
 10
-0.3153110487
 20
0.1454766519
 40
2.3
100
AcDbArc
 50
3.2319837745
 51
176.7680162255
  0
ARC
  5
60A
100
AcDbEntity
  8
ASSI
100
AcDbCircle
 62
7
  6
CONTINUOUS
 10
-0.3153110487
 20
0.1454766519
 40
2.3
100
AcDbArc
 50
183.2319837745
 51
356.7680162255
  0
ARC
  5
60B
100
AcDbEntity
  8
ASSI
100
AcDbCircle
 62
7
  6
CONTINUOUS
 10
-0.3153110487
 20
0.1454766519
 40
1.9273811542
100
AcDbArc
 50
3.8576891981
 51
176.1423108019
  0
ARC
  5
60C
100
AcDbEntity
  8
ASSI
100
AcDbCircle
 62
7
  6
CONTINUOUS
 10
-0.3153110487
 20
0.1454766519
 40
1.9273811542
100
AcDbArc
 50
183.8576891981
 51
356.1423108019
  0
ARC
  5
60D
100
AcDbEntity
  8
ASSI
100
AcDbCircle
 62
7
  6
CONTINUOUS
 10
-0.3153110487
 20
0.1454766519
 40
1.875
100
AcDbArc
 50
4.3667008241
 51
175.6332991759
  0
ARC
  5
60E
100
AcDbEntity
  8
ASSI
100
AcDbCircle
 62
7
  6
CONTINUOUS
 10
-0.3153110487
 20
0.1454766519
 40
1.875
100
AcDbArc
 50
184.3667008241
 51
355.6332991759
  0
ARC
  5
60F
100
AcDbEntity
  8
ASSI
100
AcDbCircle
 62
7
  6
CONTINUOUS
 10
-0.3153110487
 20
0.1454766519
 40
1.375
100
AcDbArc
 50
15.3271627815
 51
164.6728372185
  0
ARC
  5
610
100
AcDbEntity
  8
ASSI
100
AcDbCircle
 62
7
  6
CONTINUOUS
 10
-0.3153110487
 20
0.1454766519
 40
1.375
100
AcDbArc
 50
195.3271627815
 51
344.6728372185
  0
ELLIPSE
  5
611
100
AcDbEntity
  8
ASSI
100
AcDbEllipse
 62
7
  6
CONTINUOUS
 10
-10.9521613425
 20
21.8063883961
 30
0.0
 11
0.498078285
 21
0.0448076117
 31
0.0
 40
0.9965957691
 41
1.4807720384
 42
3.0506549766
  0
ELLIPSE
  5
612
100
AcDbEntity
  8
ASSI
100
AcDbEllipse
 62
7
  6
CONTINUOUS
 10
10.3215392451
 20
21.8063883961
 30
0.0
 11
0.498078285
 21
-0.0448076117
 31
0.0
 40
0.9965957691
 41
0.0909376769
 42
1.6608206152
  0
ELLIPSE
  5
613
100
AcDbEntity
  8
ASSI
100
AcDbEllipse
 62
7
  6
CONTINUOUS
 10
-11.2652805831
 20
0.4454842675
 30
0.0
 11
0.1789222233
 21
0.0894542984
 31
0.0
 40
0.9998096356
 41
2.6780516535
 42
4.2486956813
  0
ELLIPSE
  5
614
100
AcDbEntity
  8
ASSI
100
AcDbEllipse
 62
7
  6
CONTINUOUS
 10
10.6346584857
 20
0.4454842675
 30
0.0
 11
0.1789222233
 21
-0.0894542984
 31
0.0
 40
0.9998096356
 41
-1.1071030277
 42
0.4635410001
  0
ELLIPSE
  5
615
100
AcDbEntity
  8
ASSI
100
AcDbEllipse
 62
7
  6
CONTINUOUS
 10
6.9692188975
 20
22.2781969775
 30
0.0
 11
0.2
 21
-0.0
 31
0.0
 40
0.0524077793
 41
-1.5707963268
 42
-0.5235987756
  0
ELLIPSE
  5
616
100
AcDbEntity
  8
ASSI
100
AcDbEllipse
 62
7
  6
CONTINUOUS
 10
3.6001590051
 20
22.2781969775
 30
0.0
 11
0.2
 21
-0.0
 31
0.0
 40
0.0524077793
 41
-2.617993878
 42
-1.5707963268
  0
ELLIPSE
  5
617
100
AcDbEntity
  8
ASSI
100
AcDbEllipse
 62
7
  6
CONTINUOUS
 10
-4.2307811025
 20
22.2781969775
 30
0.0
 11
0.2
 21
0.0
 31
0.0
 40
0.0524077793
 41
-1.5707963268
 42
-0.5235987756
  0
ELLIPSE
  5
618
100
AcDbEntity
  8
ASSI
100
AcDbEllipse
 62
7
  6
CONTINUOUS
 10
-7.5998409949
 20
22.2781969775
 30
0.0
 11
0.2
 21
0.0
 31
0.0
 40
0.0524077793
 41
-2.617993878
 42
-1.5707963268
  0
ELLIPSE
  5
619
100
AcDbEntity
  8
ASSI
100
AcDbEllipse
 62
7
  6
CONTINUOUS
 10
-5.8453310608
 20
19.9128838686
 30
0.0
 11
0.0096324734
 21
0.5915363915
 31
0.0
 40
0.4225722455
 41
-1.5322803821
 42
0.0068809827
  0
ELLIPSE
  5
61A
100
AcDbEntity
  8
ASSI
100
AcDbEllipse
 62
7
  6
CONTINUOUS
 10
23.8282740913
 20
0.1454766519
 30
0.0
 11
0.0
 21
498.5
 31
0.0
 40
0.0349207695
 41
1.5589337088
 42
1.568159698
  0
ELLIPSE
  5
61B
100
AcDbEntity
  8
ASSI
100
AcDbEllipse
 62
7
  6
CONTINUOUS
 10
5.2147089634
 20
19.9128838686
 30
0.0
 11
-0.0096324734
 21
0.5915363915
 31
0.0
 40
0.4225722455
 41
-0.0068809827
 42
1.5322803821
  0
ELLIPSE
  5
61C
100
AcDbEntity
  8
ASSI
100
AcDbEllipse
 62
7
  6
CONTINUOUS
 10
5.3546689392
 20
19.9128838686
 30
0.0
 11
0.0096324734
 21
0.5915363915
 31
0.0
 40
0.4225722455
 41
-1.5322803821
 42
0.0068809827
  0
ELLIPSE
  5
61D
100
AcDbEntity
  8
ASSI
100
AcDbEllipse
 62
7
  6
CONTINUOUS
 10
5.1937565017
 20
17.4993333048
 30
0.0
 11
0.0493464685
 21
0.2491672984
 31
0.0
 40
0.9842259085
 41
-2.97793128
 42
-2.9490849661
  0
ELLIPSE
  5
61E
100
AcDbEntity
  8
ASSI
100
AcDbEllipse
 62
7
  6
CONTINUOUS
 10
5.3756214009
 20
17.4993333048
 30
0.0
 11
-0.0493464685
 21
0.2491672984
 31
0.0
 40
0.9842259085
 41
-3.3341003411
 42
-3.3052540272
  0
ELLIPSE
  5
61F
100
AcDbEntity
  8
ASSI
100
AcDbEllipse
 62
7
  6
CONTINUOUS
 10
-6.0062434983
 20
17.4993333048
 30
0.0
 11
0.0493464685
 21
0.2491672984
 31
0.0
 40
0.9842259085
 41
-2.97793128
 42
-2.9490849661
  0
ELLIPSE
  5
620
100
AcDbEntity
  8
ASSI
100
AcDbEllipse
 62
7
  6
CONTINUOUS
 10
-5.8243785991
 20
17.4993333048
 30
0.0
 11
-0.0493464685
 21
0.2491672984
 31
0.0
 40
0.9842259085
 41
-3.3341003411
 42
-3.3052540272
  0
ELLIPSE
  5
621
100
AcDbEntity
  8
ASSI
100
AcDbEllipse
 62
7
  6
CONTINUOUS
 10
-24.4588961887
 20
0.1454766519
 30
0.0
 11
0.0
 21
498.5
 31
0.0
 40
0.0349207695
 41
-1.568159698
 42
-1.5589337088
  0
ELLIPSE
  5
622
100
AcDbEntity
  8
ASSI
100
AcDbEllipse
 62
7
  6
CONTINUOUS
 10
9.5282740913
 20
0.1454766519
 30
0.0
 11
0.0
 21
498.5
 31
0.0
 40
0.0349207695
 41
1.5589337088
 42
1.568159698
  0
ELLIPSE
  5
623
100
AcDbEntity
  8
ASSI
100
AcDbEllipse
 62
7
  6
CONTINUOUS
 10
-5.9852910366
 20
19.9128838686
 30
0.0
 11
-0.0096324734
 21
0.5915363915
 31
0.0
 40
0.4225722455
 41
-0.0068809827
 42
1.5322803821
  0
ELLIPSE
  5
624
100
AcDbEntity
  8
ASSI
100
AcDbEllipse
 62
7
  6
CONTINUOUS
 10
22.2782740913
 20
0.1454766519
 30
0.0
 11
0.0
 21
498.5
 31
0.0
 40
0.0349207695
 41
1.5304337907
 42
1.5390014484
  0
ELLIPSE
  5
625
100
AcDbEntity
  8
ASSI
100
AcDbEllipse
 62
7
  6
CONTINUOUS
 10
4.8914270283
 20
20.2526677853
 30
0.0
 11
0.0
 21
0.2
 31
0.0
 40
0.0349207695
 41
0.1221730476
 42
1.5304337907
  0
ELLIPSE
  5
626
100
AcDbEntity
  8
ASSI
100
AcDbEllipse
 62
7
  6
CONTINUOUS
 10
5.6779508743
 20
20.2526677853
 30
0.0
 11
0.0
 21
0.2
 31
0.0
 40
0.0349207695
 41
-1.5304337907
 42
-0.1221730476
  0
ELLIPSE
  5
627
100
AcDbEntity
  8
ASSI
100
AcDbEllipse
 62
7
  6
CONTINUOUS
 10
-11.7088961887
 20
0.1454766519
 30
0.0
 11
0.0
 21
498.5
 31
0.0
 40
0.0349207695
 41
-1.5390014484
 42
-1.5304337907
  0
ELLIPSE
  5
628
100
AcDbEntity
  8
ASSI
100
AcDbEllipse
 62
7
  6
CONTINUOUS
 10
11.0782740913
 20
0.1454766519
 30
0.0
 11
0.0
 21
498.5
 31
0.0
 40
0.0349207695
 41
1.5304337907
 42
1.5390014484
  0
ELLIPSE
  5
629
100
AcDbEntity
  8
ASSI
100
AcDbEllipse
 62
7
  6
CONTINUOUS
 10
-6.3085729717
 20
20.2526677853
 30
0.0
 11
-0.0
 21
0.2
 31
0.0
 40
0.0349207695
 41
0.1221730476
 42
1.5304337907
  0
ELLIPSE
  5
62A
100
AcDbEntity
  8
ASSI
100
AcDbEllipse
 62
7
  6
CONTINUOUS
 10
-5.5220491257
 20
20.2526677853
 30
0.0
 11
0.0
 21
0.2
 31
0.0
 40
0.0349207695
 41
-1.5304337907
 42
-0.1221730476
  0
ELLIPSE
  5
62B
100
AcDbEntity
  8
ASSI
100
AcDbEllipse
 62
7
  6
CONTINUOUS
 10
-22.9088961887
 20
0.1454766519
 30
0.0
 11
0.0
 21
498.5
 31
0.0
 40
0.0349207695
 41
-1.5390014484
 42
-1.5304337907
  0
ELLIPSE
  5
62C
100
AcDbEntity
  8
ASSI
100
AcDbEllipse
 62
7
  6
CONTINUOUS
 10
-7.379012076
 20
1.4319584879
 30
0.0
 11
0.3
 21
-0.0
 31
0.0
 40
0.0349207695
 41
-1.5707963268
 42
-0.034906585
  0
ELLIPSE
  5
62D
100
AcDbEntity
  8
ASSI
100
AcDbEllipse
 62
7
  6
CONTINUOUS
 10
6.9692188975
 20
20.7358567227
 30
0.0
 11
0.2
 21
0.0
 31
0.0
 40
0.1227845609
 41
-1.5707963268
 42
-0.5235987756
  0
ELLIPSE
  5
62E
100
AcDbEntity
  8
ASSI
100
AcDbEllipse
 62
7
  6
CONTINUOUS
 10
3.6001590051
 20
20.7358567227
 30
0.0
 11
0.2
 21
0.0
 31
0.0
 40
0.1227845609
 41
-2.617993878
 42
-1.5707963268
  0
ELLIPSE
  5
62F
100
AcDbEntity
  8
ASSI
100
AcDbEllipse
 62
7
  6
CONTINUOUS
 10
-4.2307811025
 20
20.7358567227
 30
0.0
 11
0.2
 21
0.0
 31
0.0
 40
0.1227845609
 41
-1.5707963268
 42
-0.5235987756
  0
ELLIPSE
  5
630
100
AcDbEntity
  8
ASSI
100
AcDbEllipse
 62
7
  6
CONTINUOUS
 10
-7.5998409949
 20
20.7358567227
 30
0.0
 11
0.2
 21
-0.0
 31
0.0
 40
0.1227845609
 41
-2.617993878
 42
-1.5707963268
  0
ELLIPSE
  5
631
100
AcDbEntity
  8
ASSI
100
AcDbEllipse
 62
7
  6
CONTINUOUS
 10
-10.0040267224
 20
20.614811398
 30
0.0
 11
0.1992395838
 21
-0.0178260286
 31
0.0
 40
0.9965982379
 41
1.6603320108
 42
3.2290014227
  0
ELLIPSE
  5
632
100
AcDbEntity
  8
ASSI
100
AcDbEllipse
 62
7
  6
CONTINUOUS
 10
9.373404625
 20
20.614811398
 30
0.0
 11
0.1992395838
 21
0.0178260286
 31
0.0
 40
0.9965982379
 41
-0.0874087691
 42
1.4812606428
  0
ELLIPSE
  5
633
100
AcDbEntity
  8
ASSI
100
AcDbEllipse
 62
7
  6
CONTINUOUS
 10
-10.1588961887
 20
0.1454766519
 30
0.0
 11
0.0
 21
498.5
 31
0.0
 40
0.0349207695
 41
-1.568159698
 42
-1.5589337088
  0
ELLIPSE
  5
634
100
AcDbEntity
  8
ASSI
100
AcDbEllipse
 62
7
  6
CONTINUOUS
 10
6.920987924
 20
1.4319584879
 30
0.0
 11
0.3
 21
0.0
 31
0.0
 40
0.0349207695
 41
-1.5707963268
 42
-0.034906585
  0
ELLIPSE
  5
635
100
AcDbEntity
  8
ASSI
100
AcDbEllipse
 62
7
  6
CONTINUOUS
 10
10.3215392451
 20
-21.5154350924
 30
0.0
 11
0.498078285
 21
0.0448076117
 31
0.0
 40
0.9965957691
 41
-1.6608206152
 42
-0.0909376769
  0
ELLIPSE
  5
636
100
AcDbEntity
  8
ASSI
100
AcDbEllipse
 62
7
  6
CONTINUOUS
 10
-10.9521613425
 20
-21.5154350924
 30
0.0
 11
0.498078285
 21
-0.0448076117
 31
0.0
 40
0.9965957691
 41
-3.0506549766
 42
-1.4807720384
  0
ELLIPSE
  5
637
100
AcDbEntity
  8
ASSI
100
AcDbEllipse
 62
7
  6
CONTINUOUS
 10
10.6346584857
 20
-0.1545309638
 30
0.0
 11
-0.1789222233
 21
-0.0894542984
 31
0.0
 40
0.9998096356
 41
2.6780516535
 42
4.2486956813
  0
ELLIPSE
  5
638
100
AcDbEntity
  8
ASSI
100
AcDbEllipse
 62
7
  6
CONTINUOUS
 10
-11.2652805831
 20
-0.1545309638
 30
0.0
 11
-0.1789222233
 21
0.0894542984
 31
0.0
 40
0.9998096356
 41
-1.1071030277
 42
0.4635410001
  0
ELLIPSE
  5
639
100
AcDbEntity
  8
ASSI
100
AcDbEllipse
 62
7
  6
CONTINUOUS
 10
-7.5998409949
 20
-21.9872436738
 30
0.0
 11
0.2
 21
-0.0
 31
0.0
 40
0.0524077793
 41
1.5707963268
 42
2.617993878
  0
ELLIPSE
  5
63A
100
AcDbEntity
  8
ASSI
100
AcDbEllipse
 62
7
  6
CONTINUOUS
 10
-4.2307811025
 20
-21.9872436738
 30
0.0
 11
0.2
 21
0.0
 31
0.0
 40
0.0524077793
 41
0.5235987756
 42
1.5707963268
  0
ELLIPSE
  5
63B
100
AcDbEntity
  8
ASSI
100
AcDbEllipse
 62
7
  6
CONTINUOUS
 10
3.6001590051
 20
-21.9872436738
 30
0.0
 11
0.2
 21
0.0
 31
0.0
 40
0.0524077793
 41
1.5707963268
 42
2.617993878
  0
ELLIPSE
  5
63C
100
AcDbEntity
  8
ASSI
100
AcDbEllipse
 62
7
  6
CONTINUOUS
 10
6.9692188975
 20
-21.9872436738
 30
0.0
 11
0.2
 21
0.0
 31
0.0
 40
0.0524077793
 41
0.5235987756
 42
1.5707963268
  0
ELLIPSE
  5
63D
100
AcDbEntity
  8
ASSI
100
AcDbEllipse
 62
7
  6
CONTINUOUS
 10
5.3546689392
 20
-19.6219305649
 30
0.0
 11
-0.0096324734
 21
0.5915363915
 31
0.0
 40
0.4225722455
 41
-3.1484736363
 42
-1.6093122714
  0
ELLIPSE
  5
63E
100
AcDbEntity
  8
ASSI
100
AcDbEllipse
 62
7
  6
CONTINUOUS
 10
-24.4588961887
 20
0.1454766519
 30
0.0
 11
0.0
 21
498.5
 31
0.0
 40
0.0349207695
 41
-1.5826589448
 42
-1.5734329556
  0
ELLIPSE
  5
63F
100
AcDbEntity
  8
ASSI
100
AcDbEllipse
 62
7
  6
CONTINUOUS
 10
5.2147089634
 20
-19.6219305649
 30
0.0
 11
0.0096324734
 21
0.5915363915
 31
0.0
 40
0.4225722455
 41
-4.6738730357
 42
-3.1347116709
  0
ELLIPSE
  5
640
100
AcDbEntity
  8
ASSI
100
AcDbEllipse
 62
7
  6
CONTINUOUS
 10
23.8282740913
 20
0.1454766519
 30
0.0
 11
0.0
 21
498.5
 31
0.0
 40
0.0349207695
 41
-4.7097523516
 42
-4.7005263624
  0
ELLIPSE
  5
641
100
AcDbEntity
  8
ASSI
100
AcDbEllipse
 62
7
  6
CONTINUOUS
 10
-5.8453310608
 20
-19.6219305649
 30
0.0
 11
-0.0096324734
 21
0.5915363915
 31
0.0
 40
0.4225722455
 41
-3.1484736363
 42
-1.6093122714
  0
ELLIPSE
  5
642
100
AcDbEntity
  8
ASSI
100
AcDbEllipse
 62
7
  6
CONTINUOUS
 10
-5.8243785991
 20
-17.2083800011
 30
0.0
 11
0.0493464685
 21
0.2491672984
 31
0.0
 40
0.9842259085
 41
0.1636613736
 42
0.1925076875
  0
ELLIPSE
  5
643
100
AcDbEntity
  8
ASSI
100
AcDbEllipse
 62
7
  6
CONTINUOUS
 10
-6.0062434983
 20
-17.2083800011
 30
0.0
 11
-0.0493464685
 21
0.2491672984
 31
0.0
 40
0.9842259085
 41
-0.1925076875
 42
-0.1636613736
  0
ELLIPSE
  5
644
100
AcDbEntity
  8
ASSI
100
AcDbEllipse
 62
7
  6
CONTINUOUS
 10
5.3756214009
 20
-17.2083800011
 30
0.0
 11
0.0493464685
 21
0.2491672984
 31
0.0
 40
0.9842259085
 41
0.1636613736
 42
0.1925076875
  0
ELLIPSE
  5
645
100
AcDbEntity
  8
ASSI
100
AcDbEllipse
 62
7
  6
CONTINUOUS
 10
5.1937565017
 20
-17.2083800011
 30
0.0
 11
-0.0493464685
 21
0.2491672984
 31
0.0
 40
0.9842259085
 41
-0.1925076875
 42
-0.1636613736
  0
ELLIPSE
  5
646
100
AcDbEntity
  8
ASSI
100
AcDbEllipse
 62
7
  6
CONTINUOUS
 10
-5.9852910366
 20
-19.6219305649
 30
0.0
 11
0.0096324734
 21
0.5915363915
 31
0.0
 40
0.4225722455
 41
-4.6738730357
 42
-3.1347116709
  0
ELLIPSE
  5
647
100
AcDbEntity
  8
ASSI
100
AcDbEllipse
 62
7
  6
CONTINUOUS
 10
-10.1588961887
 20
0.1454766519
 30
0.0
 11
0.0
 21
498.5
 31
0.0
 40
0.0349207695
 41
-1.5826589448
 42
-1.5734329556
  0
ELLIPSE
  5
648
100
AcDbEntity
  8
ASSI
100
AcDbEllipse
 62
7
  6
CONTINUOUS
 10
-22.9088961887
 20
0.1454766519
 30
0.0
 11
0.0
 21
498.5
 31
0.0
 40
0.0349207695
 41
-1.6111588629
 42
-1.6025912052
  0
ELLIPSE
  5
649
100
AcDbEntity
  8
ASSI
100
AcDbEllipse
 62
7
  6
CONTINUOUS
 10
-5.5220491257
 20
-19.9617144815
 30
0.0
 11
-0.0
 21
0.2
 31
0.0
 40
0.0349207695
 41
-3.019419606
 42
-1.6111588629
  0
ELLIPSE
  5
64A
100
AcDbEntity
  8
ASSI
100
AcDbEllipse
 62
7
  6
CONTINUOUS
 10
-6.3085729717
 20
-19.9617144815
 30
0.0
 11
0.0
 21
0.2
 31
0.0
 40
0.0349207695
 41
-4.6720264443
 42
-3.2637657012
  0
ELLIPSE
  5
64B
100
AcDbEntity
  8
ASSI
100
AcDbEllipse
 62
7
  6
CONTINUOUS
 10
11.0782740913
 20
0.1454766519
 30
0.0
 11
0.0
 21
498.5
 31
0.0
 40
0.0349207695
 41
-4.680594102
 42
-4.6720264443
  0
ELLIPSE
  5
64C
100
AcDbEntity
  8
ASSI
100
AcDbEllipse
 62
7
  6
CONTINUOUS
 10
-11.7088961887
 20
0.1454766519
 30
0.0
 11
0.0
 21
498.5
 31
0.0
 40
0.0349207695
 41
-1.6111588629
 42
-1.6025912052
  0
ELLIPSE
  5
64D
100
AcDbEntity
  8
ASSI
100
AcDbEllipse
 62
7
  6
CONTINUOUS
 10
5.6779508743
 20
-19.9617144815
 30
0.0
 11
-0.0
 21
0.2
 31
0.0
 40
0.0349207695
 41
-3.0194196059
 42
-1.6111588629
  0
ELLIPSE
  5
64E
100
AcDbEntity
  8
ASSI
100
AcDbEllipse
 62
7
  6
CONTINUOUS
 10
4.8914270283
 20
-19.9617144815
 30
0.0
 11
-0.0
 21
0.2
 31
0.0
 40
0.0349207695
 41
-4.6720264443
 42
-3.2637657012
  0
ELLIPSE
  5
64F
100
AcDbEntity
  8
ASSI
100
AcDbEllipse
 62
7
  6
CONTINUOUS
 10
22.2782740913
 20
0.1454766519
 30
0.0
 11
0.0
 21
498.5
 31
0.0
 40
0.0349207695
 41
-4.680594102
 42
-4.6720264443
  0
ELLIPSE
  5
650
100
AcDbEntity
  8
ASSI
100
AcDbEllipse
 62
7
  6
CONTINUOUS
 10
6.7483899786
 20
-1.1410051842
 30
0.0
 11
0.3
 21
-0.0
 31
0.0
 40
0.0349207695
 41
1.5707963268
 42
3.1066860685
  0
ELLIPSE
  5
651
100
AcDbEntity
  8
ASSI
100
AcDbEllipse
 62
7
  6
CONTINUOUS
 10
-7.5998409949
 20
-20.444903419
 30
0.0
 11
0.2
 21
0.0
 31
0.0
 40
0.1227845609
 41
1.5707963268
 42
2.617993878
  0
ELLIPSE
  5
652
100
AcDbEntity
  8
ASSI
100
AcDbEllipse
 62
7
  6
CONTINUOUS
 10
-4.2307811025
 20
-20.444903419
 30
0.0
 11
0.2
 21
0.0
 31
0.0
 40
0.1227845609
 41
0.5235987756
 42
1.5707963268
  0
ELLIPSE
  5
653
100
AcDbEntity
  8
ASSI
100
AcDbEllipse
 62
7
  6
CONTINUOUS
 10
3.6001590051
 20
-20.444903419
 30
0.0
 11
0.2
 21
-0.0
 31
0.0
 40
0.1227845609
 41
1.5707963268
 42
2.617993878
  0
ELLIPSE
  5
654
100
AcDbEntity
  8
ASSI
100
AcDbEllipse
 62
7
  6
CONTINUOUS
 10
6.9692188975
 20
-20.444903419
 30
0.0
 11
0.2
 21
0.0
 31
0.0
 40
0.1227845609
 41
0.5235987756
 42
1.5707963268
  0
ELLIPSE
  5
655
100
AcDbEntity
  8
ASSI
100
AcDbEllipse
 62
7
  6
CONTINUOUS
 10
9.373404625
 20
-20.3238580943
 30
0.0
 11
0.1992395838
 21
-0.0178260286
 31
0.0
 40
0.9965982379
 41
-1.4812606428
 42
0.0874087691
  0
ELLIPSE
  5
656
100
AcDbEntity
  8
ASSI
100
AcDbEllipse
 62
7
  6
CONTINUOUS
 10
-10.0040267224
 20
-20.3238580943
 30
0.0
 11
0.1992395838
 21
0.0178260286
 31
0.0
 40
0.9965982379
 41
3.0541838845
 42
4.6228532963
  0
ELLIPSE
  5
657
100
AcDbEntity
  8
ASSI
100
AcDbEllipse
 62
7
  6
CONTINUOUS
 10
9.5282740913
 20
0.1454766519
 30
0.0
 11
0.0
 21
498.5
 31
0.0
 40
0.0349207695
 41
-4.7097523516
 42
-4.7005263624
  0
ELLIPSE
  5
658
100
AcDbEntity
  8
ASSI
100
AcDbEllipse
 62
7
  6
CONTINUOUS
 10
-7.5516100214
 20
-1.1410051842
 30
0.0
 11
0.3
 21
-0.0
 31
0.0
 40
0.0349207695
 41
1.5707963268
 42
3.1066860685
  0
ENDSEC
  0
SECTION
  2
OBJECTS
  0
DICTIONARY
  5
C
100
AcDbDictionary
280
0
281
1
  3
ACAD_GROUP
350
D
  3
ACAD_MLINESTYLE
350
17
  3
ACAD_LAYOUT
350
1A
  3
ACAD_PLOTSETTINGS
350
19
  3
ACAD_PLOTSTYLENAME
350
E
  0
DICTIONARY
  5
D
102
{ACAD_REACTORS
330
C
102
}
100
AcDbDictionary
280
0
281
1
  0
ACDBDICTIONARYWDFLT
  5
E
102
{ACAD_REACTORS
330
C
102
}
100
AcDbDictionary
281
1
  3
Normal
350
F
100
AcDbDictionaryWithDefault
340
F
  0
DICTIONARY
  5
17
102
{ACAD_REACTORS
330
C
102
}
100
AcDbDictionary
280
0
281
1
  3
Standard
350
18
  0
DICTIONARY
  5
19
102
{ACAD_REACTORS
330
C
102
}
100
AcDbDictionary
281
1
  0
DICTIONARY
  5
1A
102
{ACAD_REACTORS
330
C
102
}
100
AcDbDictionary
281
1
  3
Model
350
659
  3
Layout1
350
65A
  0
ACDBPLACEHOLDER
  5
F
102
{ACAD_REACTORS
330
E
102
}
  0
MLINESTYLE
  5
18
102
{ACAD_REACTORS
330
17
102
}
100
AcDbMlineStyle
  2
STANDARD
 70
0
  3

 62
256
 51
90.0
 52
90.0
 71
2
 49
0.5
 62
256
  6
BYLAYER
 49
-0.5
 62
256
  6
BYLAYER
  0
LAYOUT
  5
659
102
{ACAD_REACTORS
330
1A
102
}
100
AcDbPlotSettings
  1

  2
none_device
  4

  6

 40
0.0
 41
0.0
 42
0.0
 43
0.0
 44
210.0
 45
297.0
 46
0.0
 47
0.0
 48
0.0
 49
0.0
140
0.0
141
0.0
142
1.0
143
1.0
 70
1024
 72
1
 73
0
 74
0
  7

 75
0
147
1.0
148
0.0
149
0.0
100
AcDbLayout
  1
Model
 70
0
 71
0
 10
0.0
 20
0.0
 11
210.0
 21
297.0
 12
0.0
 22
0.0
 32
0.0
 14
0.0
 24
0.0
 34
0.0
 15
0.0
 25
0.0
 35
0.0
146
0.0
 13
0.0
 23
0.0
 33
0.0
 16
1.0
 26
0.0
 36
0.0
 17
0.0
 27
1.0
 37
0.0
 76
0
330
217
345
0
346
0
  0
LAYOUT
  5
65A
102
{ACAD_REACTORS
330
1A
102
}
100
AcDbPlotSettings
  1

  2
none_device
  4

  6

 40
0.0
 41
0.0
 42
0.0
 43
0.0
 44
210.0
 45
297.0
 46
0.0
 47
0.0
 48
0.0
 49
0.0
140
0.0
141
0.0
142
1.0
143
1.0
 70
0
 72
1
 73
0
 74
0
  7

 75
0
147
1.0
148
0.0
149
0.0
100
AcDbLayout
  1
Layout1
 70
0
 71
1
 10
0.0
 20
0.0
 11
210.0
 21
297.0
 12
0.0
 22
0.0
 32
0.0
 14
0.0
 24
0.0
 34
0.0
 15
0.0
 25
0.0
 35
0.0
146
0.0
 13
0.0
 23
0.0
 33
0.0
 16
1.0
 26
0.0
 36
0.0
 17
0.0
 27
1.0
 37
0.0
 76
0
330
218
345
0
346
0
  0
ENDSEC
  0
EOF
