  0
SECTION
  2
HEADER
  9
$ACADVER
  1
AC1015
  9
$DWGCODEPAGE
  3
ANSI_1252
  9
$EXTMAX
 10
297.0
 20
210.0
 30
0.0
  9
$EXTMIN
 10
0.0
 20
0.0
 30
0.0
  9
$LIMMIN
 10
0.0
 20
0.0
  9
$LIMMAX
 10
297.0
 20
210.0
  9
$VIEWCTR
 10
148.5
 20
105.0
  9
$VIEWSIZE
 40
210.0
  9
$CLAYER
  8
0
  9
$LTSCALE
 40
16.335
  9
$CELTYPE
  6
BYLAYER
  9
$DIMSCALE
 40
1.0
  9
$DIMASZ
 40
3.0
  9
$DIMEXO
 40
0.5
  9
$DIMDLI
 40
11.286
  9
$DIMEXE
 40
1.5
  9
$DIMCEN
 40
2.673
  9
$DIMLFAC
 40
1.0
  9
$DIMBLK
  1
_FILLED
  9
$DIMTXT
 40
3.0
  9
$DIMTOL
 70
1
  9
$DIMLIM
 70
0
  9
$DIMTFAC
 40
1.0
  9
$DIMTP
 40
0.01
  9
$DIMTM
 40
0.01
  9
$DIMGAP
 40
0.625
  9
$DIMDSEP
 70
44
  9
$PDMODE
 70
3
  9
$PDSIZE
 40
3.0
  9
$HANDSEED
  5
3D1
  9
$TILEMODE
 70
1
  9
$MEASUREMENT
 70
1
  9
$INSUNITS
 70
4
  0
ENDSEC
  0
SECTION
  2
CLASSES
  0
CLASS
  1
ACDBDICTIONARYWDFLT
  2
AcDbDictionaryWithDefault
  3
AutoCAD 2000
 90
0
280
0
281
0
  0
CLASS
  1
ACDBPLACEHOLDER
  2
AcDbPlaceHolder
  3
AutoCAD 2000
 90
0
280
0
281
0
  0
CLASS
  1
LAYOUT
  2
AcDbLayout
  3
AutoCAD 2000
 90
0
280
0
281
0
  0
ENDSEC
  0
SECTION
  2
TABLES
  0
TABLE
  2
VPORT
  5
8
100
AcDbSymbolTable
 70
2
  0
VPORT
  5
1F4
100
AcDbSymbolTableRecord
100
AcDbViewportTableRecord
  2
*ACTIVE
 70
0
 10
0.0
 20
0.0
 11
1.0
 21
1.0
 12
148.5
 22
105.0
 13
0.0
 23
0.0
 14
1.0
 24
1.0
 15
0.0
 25
0.0
 16
0.0
 26
0.0
 36
1.0
 17
0.0
 27
0.0
 37
0.0
 40
210.0
 41
1.4142857143
 42
50.0
 43
0.0
 44
0.0
 50
0.0
 51
0.0
 71
0
 72
100
 73
1
 74
1
 75
0
 76
0
 77
0
 78
0
  0
ENDTAB
  0
TABLE
  2
LTYPE
  5
5
100
AcDbSymbolTable
 70
6
  0
LTYPE
  5
14
100
AcDbSymbolTableRecord
100
AcDbLinetypeTableRecord
  2
BYBLOCK
 70
0
  3

 72
65
 73
0
 40
0.0
  0
LTYPE
  5
15
100
AcDbSymbolTableRecord
100
AcDbLinetypeTableRecord
  2
BYLAYER
 70
0
  3

 72
65
 73
0
 40
0.0
  0
LTYPE
  5
16
100
AcDbSymbolTableRecord
100
AcDbLinetypeTableRecord
  2
CONTINUOUS
 70
64
  3
Solid line
 72
65
 73
0
 40
0.0
  0
LTYPE
  5
1F5
100
AcDbSymbolTableRecord
100
AcDbLinetypeTableRecord
  2
CENTER
 70
64
  3
____ _ ____ _ ____ _ ____ _ ____ _ ____ _ ____
 72
65
 73
4
 40
0.6
 49
0.375
 74
0
 49
-0.075
 74
0
 49
0.075
 74
0
 49
-0.075
 74
0
  0
LTYPE
  5
1F6
100
AcDbSymbolTableRecord
100
AcDbLinetypeTableRecord
  2
HIDDEN
 70
64
  3
- - - - - - - - - - - - - - - - - - - -
 72
65
 73
2
 40
0.2
 49
0.1
 74
0
 49
-0.1
 74
0
  0
LTYPE
  5
1F7
100
AcDbSymbolTableRecord
100
AcDbLinetypeTableRecord
  2
PHANTOM
 70
64
  3
_____ _ _ _____ _ _ _____ _ _ _____
 72
65
 73
6
 40
0.8
 49
0.45
 74
0
 49
-0.05
 74
0
 49
0.1
 74
0
 49
-0.05
 74
0
 49
0.1
 74
0
 49
-0.05
 74
0
  0
LTYPE
  5
1F8
100
AcDbSymbolTableRecord
100
AcDbLinetypeTableRecord
  2
DOT
 70
64
  3
. . . . . . . . . . . . . . . . . . . .
 72
65
 73
2
 40
0.2
 49
0.1
 74
0
 49
-0.1
 74
0
  0
LTYPE
  5
1F9
100
AcDbSymbolTableRecord
100
AcDbLinetypeTableRecord
  2
DASHED
 70
64
  3
- - - - - - - - - - - - - - - - - - - -
 72
65
 73
2
 40
0.2
 49
0.1
 74
0
 49
-0.1
 74
0
  0
ENDTAB
  0
TABLE
  2
LAYER
  5
2
100
AcDbSymbolTable
 70
36
  0
LAYER
  5
10
100
AcDbSymbolTableRecord
100
AcDbLayerTableRecord
  2
0
 70
0
 62
7
  6
CONTINUOUS
370
-3
390
F
  0
LAYER
  5
1FA
100
AcDbSymbolTableRecord
100
AcDbLayerTableRecord
  2
DEFAULT_1
 70
0
 62
7
  6
CENTER
370
-3
390
F
  0
LAYER
  5
1FB
100
AcDbSymbolTableRecord
100
AcDbLayerTableRecord
  2
DEFAULT_2
 70
0
 62
7
  6
HIDDEN
370
-3
390
F
  0
LAYER
  5
1FC
100
AcDbSymbolTableRecord
100
AcDbLayerTableRecord
  2
DEFAULT_3
 70
0
 62
7
  6
PHANTOM
370
-3
390
F
  0
LAYER
  5
1FD
100
AcDbSymbolTableRecord
100
AcDbLayerTableRecord
  2
ASSI
 70
0
 62
7
  6
CONTINUOUS
370
-3
390
F
  0
LAYER
  5
1FE
100
AcDbSymbolTableRecord
100
AcDbLayerTableRecord
  2
COLOR5
 70
0
 62
7
  6
CONTINUOUS
370
-3
390
F
  0
LAYER
  5
1FF
100
AcDbSymbolTableRecord
100
AcDbLayerTableRecord
  2
COORDINATE
 70
0
 62
7
  6
CONTINUOUS
370
-3
390
F
  0
LAYER
  5
200
100
AcDbSymbolTableRecord
100
AcDbLayerTableRecord
  2
COORD_ORIGINE
 70
0
 62
7
  6
CONTINUOUS
370
-3
390
F
  0
LAYER
  5
201
100
AcDbSymbolTableRecord
100
AcDbLayerTableRecord
  2
COSMETICI
 70
0
 62
7
  6
CONTINUOUS
370
-3
390
F
  0
LAYER
  5
202
100
AcDbSymbolTableRecord
100
AcDbLayerTableRecord
  2
CURVE
 70
0
 62
7
  6
CONTINUOUS
370
-3
390
F
  0
LAYER
  5
203
100
AcDbSymbolTableRecord
100
AcDbLayerTableRecord
  2
DRAFT
 70
0
 62
7
  6
CONTINUOUS
370
-3
390
F
  0
LAYER
  5
204
100
AcDbSymbolTableRecord
100
AcDbLayerTableRecord
  2
IGES_SCRITTE
 70
0
 62
7
  6
CONTINUOUS
370
-3
390
F
  0
LAYER
  5
205
100
AcDbSymbolTableRecord
100
AcDbLayerTableRecord
  2
INTF_1
 70
0
 62
7
  6
CONTINUOUS
370
-3
390
F
  0
LAYER
  5
206
100
AcDbSymbolTableRecord
100
AcDbLayerTableRecord
  2
INTF_7
 70
0
 62
7
  6
CONTINUOUS
370
-3
390
F
  0
LAYER
  5
207
100
AcDbSymbolTableRecord
100
AcDbLayerTableRecord
  2
NOTE
 70
0
 62
7
  6
CONTINUOUS
370
-3
390
F
  0
LAYER
  5
208
100
AcDbSymbolTableRecord
100
AcDbLayerTableRecord
  2
PIANI
 70
0
 62
7
  6
CONTINUOUS
370
-3
390
F
  0
LAYER
  5
209
100
AcDbSymbolTableRecord
100
AcDbLayerTableRecord
  2
PIANI_ORIGINE
 70
0
 62
7
  6
CONTINUOUS
370
-3
390
F
  0
LAYER
  5
20A
100
AcDbSymbolTableRecord
100
AcDbLayerTableRecord
  2
PUNTI
 70
0
 62
7
  6
CONTINUOUS
370
-3
390
F
  0
LAYER
  5
20B
100
AcDbSymbolTableRecord
100
AcDbLayerTableRecord
  2
RACCORDO
 70
0
 62
7
  6
CONTINUOUS
370
-3
390
F
  0
LAYER
  5
20C
100
AcDbSymbolTableRecord
100
AcDbLayerTableRecord
  2
RGB__255__255__255__
 70
0
 62
7
  6
CONTINUOUS
370
-3
390
F
  0
LAYER
  5
20D
100
AcDbSymbolTableRecord
100
AcDbLayerTableRecord
  2
RGB____0____0____0__
 70
0
 62
7
  6
CONTINUOUS
370
-3
390
F
  0
LAYER
  5
20E
100
AcDbSymbolTableRecord
100
AcDbLayerTableRecord
  2
SNAPLINE
 70
0
 62
7
  6
CONTINUOUS
370
-3
390
F
  0
LAYER
  5
20F
100
AcDbSymbolTableRecord
100
AcDbLayerTableRecord
  2
SUPERFICI
 70
0
 62
7
  6
CONTINUOUS
370
-3
390
F
  0
LAYER
  5
210
100
AcDbSymbolTableRecord
100
AcDbLayerTableRecord
  2
TRASH
 70
0
 62
7
  6
CONTINUOUS
370
-3
390
F
  0
LAYER
  5
211
100
AcDbSymbolTableRecord
100
AcDbLayerTableRecord
  2
XSEC_DATUMS
 70
0
 62
7
  6
CONTINUOUS
370
-3
390
F
  0
ENDTAB
  0
TABLE
  2
STYLE
  5
3
100
AcDbSymbolTable
 70
1
  0
STYLE
  5
11
100
AcDbSymbolTableRecord
100
AcDbTextStyleTableRecord
  2
STANDARD
 70
0
 40
0.0
 41
0.8
 50
0.0
 71
0
 42
0.2
  3
txt
  4

  0
STYLE
  5
212
100
AcDbSymbolTableRecord
100
AcDbTextStyleTableRecord
  2
TEXTSTYLE_1
 70
0
 40
0.0
 41
0.8
 50
0.0
 71
0
 42
0.2
  3
gdt
  4

  0
ENDTAB
  0
TABLE
  2
VIEW
  5
6
100
AcDbSymbolTable
 70
0
  0
ENDTAB
  0
TABLE
  2
UCS
  5
7
100
AcDbSymbolTable
 70
0
  0
ENDTAB
  0
TABLE
  2
APPID
  5
9
100
AcDbSymbolTable
 70
1
  0
APPID
  5
213
100
AcDbSymbolTableRecord
100
AcDbRegAppTableRecord
  2
ACAD
 70
0
  0
ENDTAB
  0
TABLE
  2
BLOCK_RECORD
  5
1
100
AcDbSymbolTable
 70
0
  0
BLOCK_RECORD
  5
214
100
AcDbSymbolTableRecord
100
AcDbBlockTableRecord
  2
*Model_Space
  0
BLOCK_RECORD
  5
215
100
AcDbSymbolTableRecord
100
AcDbBlockTableRecord
  2
*Paper_Space
  0
ENDTAB
  0
TABLE
  2
DIMSTYLE
  5
A
100
AcDbSymbolTable
 70
1
100
AcDbDimStyleTable
 71
0
  0
DIMSTYLE
105
216
100
AcDbSymbolTableRecord
100
AcDbDimStyleTableRecord
  2
STANDARD
 70
0
  3

  4

 40
1.0
 41
3.0
 42
0.5
 43
0.38
 44
1.5
 45
0.0
 46
0.0
 47
0.01
 48
0.01
140
3.0
141
0.09
142
0.0
143
25.4
144
1.0
145
0.0
146
1.0
147
0.625
 71
1.0
 72
0.0
 73
0
 74
0
 75
0
 76
0
 77
1
 78
8
170
0
171
2
172
0
173
0
174
0
175
0
176
0
177
0
178
0
270
2
271
2
272
2
273
2
274
2
275
0
280
0
281
0
282
0
283
1
284
8
285
0
286
0
287
3
288
0
340
11
278
44
  0
ENDTAB
  0
ENDSEC
  0
SECTION
  2
BLOCKS
  0
BLOCK
  5
20
100
AcDbEntity
  8
0
100
AcDbBlockBegin
  2
*Model_Space
 70
0
 10
0.0
 20
0.0
 30
0.0
  3
*Model_Space
  1

  0
ENDBLK
  5
21
100
AcDbEntity
  8
0
100
AcDbBlockEnd
  0
BLOCK
  5
1C
100
AcDbEntity
  8
0
100
AcDbBlockBegin
  2
*Paper_Space
 70
0
 10
0.0
 20
0.0
 30
0.0
  3
*Paper_Space
  1

  0
ENDBLK
  5
1D
100
AcDbEntity
  8
0
100
AcDbBlockEnd
  0
ENDSEC
  0
SECTION
  2
ENTITIES
  0
LWPOLYLINE
  5
217
100
AcDbEntity
  8
RACCORDO
100
AcDbPolyline
 62
253
  6
CONTINUOUS
 90
10
 70
0
 10
87.8970458034
 20
65.6506213656
 10
87.8640761211
 20
65.7055988116
 10
87.8348744326
 20
65.7620642422
 10
87.8094407382
 20
65.8200176572
 10
87.7877105363
 20
65.8797153123
 10
87.7697483284
 20
65.940900952
 10
87.7557476187
 20
66.002805809
 10
87.7457729087
 20
66.0651736278
 10
87.7397596969
 20
66.128260664
 10
87.7377079834
 20
66.1920669176
  0
LWPOLYLINE
  5
218
100
AcDbEntity
  8
0
100
AcDbPolyline
 62
7
  6
CONTINUOUS
 90
22
 70
0
 10
85.2457399312
 20
65.7029259378
 10
85.2544647255
 20
65.4768952994
 10
85.2795068022
 20
65.2544960753
 10
85.3208661614
 20
65.0357282654
 10
85.3789555772
 20
64.8193809113
 10
85.4533622755
 20
64.6066649715
 10
85.5428479339
 20
64.4012133215
 10
85.6476651532
 20
64.2031786013
 10
85.7675613326
 20
64.0124081709
 10
85.9005403477
 20
63.8320769854
 10
86.0468211961
 20
63.6623598998
 10
86.2061848803
 20
63.5030820591
 10
86.3759782828
 20
63.3568938544
 10
86.5563759699
 20
63.2240145195
 10
86.7472033755
 20
63.1042248205
 10
86.9452836832
 20
62.9995174476
 10
87.1508227671
 20
62.9101452201
 10
87.3636147532
 20
62.8358553186
 10
87.5798652028
 20
62.7778819752
 10
87.7983093031
 20
62.7366366007
 10
88.020211867
 20
62.7117077843
 10
88.2455728944
 20
62.703095526
  0
LINE
  5
219
100
AcDbEntity
  8
0
100
AcDbLine
 62
7
  6
CONTINUOUS
 10
85.2457399309
 20
139.7032427305
 11
85.2457399312
 21
65.7029259378
  0
LINE
  5
21A
100
AcDbEntity
  8
RACCORDO
100
AcDbLine
 62
253
  6
CONTINUOUS
 10
85.7437029373
 20
66.1920668568
 11
85.7437029731
 21
139.5119839126
  0
LWPOLYLINE
  5
21B
100
AcDbEntity
  8
RACCORDO
100
AcDbPolyline
 62
253
  6
CONTINUOUS
 90
22
 70
0
 10
85.7437736492
 20
139.511983911
 10
85.7523263818
 20
139.7360729217
 10
85.7775502949
 20
139.9589124224
 10
85.8193702183
 20
140.1791419407
 10
85.8774727806
 20
140.3955521799
 10
85.9515160636
 20
140.6069921576
 10
86.0411665231
 20
140.8123397314
 10
86.1459280183
 20
141.010506997
 10
86.265155541
 20
141.2003566409
 10
86.3981717922
 20
141.3807231881
 10
86.544217433
 20
141.5505262398
 10
86.7024560121
 20
141.7089322698
 10
86.8720869917
 20
141.855141917
 10
87.0522689424
 20
141.9883153085
 10
87.24193761
 20
142.1076842131
 10
87.4399365102
 20
142.2125753407
 10
87.6451279879
 20
142.3023573394
 10
87.8564178888
 20
142.3765147068
 10
88.0726740191
 20
142.4346984971
 10
88.2927387775
 20
142.4765784936
 10
88.5154166223
 20
142.501848766
 10
88.7393709464
 20
142.5104127358
  0
LWPOLYLINE
  5
21C
100
AcDbEntity
  8
RACCORDO
100
AcDbPolyline
 62
7
  6
CONTINUOUS
 90
13
 70
0
 10
88.7393709399
 20
141.9317591392
 10
88.8300920926
 20
141.9934784833
 10
88.9214039176
 20
142.0483565454
 10
89.0133064151
 20
142.0968688111
 10
89.1056605336
 20
142.1397192254
 10
89.1986053244
 20
142.1771241493
 10
89.2925579422
 20
142.2089110763
 10
89.3883155872
 20
142.2358092872
 10
89.4850810592
 20
142.258039404
 10
89.5808799117
 20
142.2748356893
 10
89.6750539959
 20
142.2862580711
 10
89.7682614607
 20
142.2930255212
 10
89.8605023059
 20
142.295329365
  0
LWPOLYLINE
  5
21D
100
AcDbEntity
  8
RACCORDO
100
AcDbPolyline
 62
253
  6
CONTINUOUS
 90
19
 70
0
 10
89.1055495252
 20
139.9339681985
 10
89.3087379136
 20
136.7525401735
 10
89.5198374614
 20
133.6514029967
 10
89.7378701824
 20
130.6305566683
 10
89.9618846445
 20
127.6900470899
 10
90.1909523083
 20
124.8298283597
 10
90.4241669288
 20
122.0497627729
 10
90.6606538238
 20
119.3498453146
 10
90.8995587721
 20
116.7300809995
 10
91.1400423173
 20
114.1903471674
 10
91.381303967
 20
111.7306421129
 10
91.6225648687
 20
109.3509675413
 10
91.8630529186
 20
107.051205908
 10
92.1020418621
 20
104.8313614089
 10
92.3388276097
 20
102.6914298481
 10
92.572705609
 20
100.6312810933
 10
92.8030129165
 20
98.650871767
 10
93.0291304378
 20
96.7502452467
 10
93.2504555843
 20
94.9294015323
  0
LINE
  5
21E
100
AcDbEntity
  8
RACCORDO
100
AcDbLine
 62
253
  6
CONTINUOUS
 10
87.7377079834
 20
66.1920669176
 11
87.7377067166
 21
139.5119839083
  0
LINE
  5
21F
100
AcDbEntity
  8
RACCORDO
100
AcDbLine
 62
7
  6
CONTINUOUS
 10
87.8970458034
 20
140.0526453602
 11
87.8970458111
 21
67.3538530939
  0
LINE
  5
220
100
AcDbEntity
  8
RACCORDO
100
AcDbLine
 62
7
  6
CONTINUOUS
 10
87.8970458034
 20
65.6506213656
 11
87.8970458034
 21
65.3543851189
  0
LINE
  5
221
100
AcDbEntity
  8
RACCORDO
100
AcDbLine
 62
7
  6
CONTINUOUS
 10
87.8970458034
 20
140.0526453602
 11
87.8968813671
 21
140.2771683184
  0
LINE
  5
222
100
AcDbEntity
  8
RACCORDO
100
AcDbLine
 62
253
  6
CONTINUOUS
 10
88.7347112405
 20
63.2010585438
 11
88.7347113056
 21
65.1950637213
  0
LINE
  5
223
100
AcDbEntity
  8
RACCORDO
100
AcDbLine
 62
253
  6
CONTINUOUS
 10
91.0978991773
 20
141.9336559334
 11
91.0978991773
 21
141.0811133147
  0
LINE
  5
224
100
AcDbEntity
  8
RACCORDO
100
AcDbLine
 62
253
  6
CONTINUOUS
 10
88.7393709438
 20
142.5104809526
 11
88.7393709399
 21
141.9317591392
  0
LWPOLYLINE
  5
225
100
AcDbEntity
  8
0
100
AcDbPolyline
 62
253
  6
CONTINUOUS
 90
10
 70
0
 10
87.7377067166
 20
139.5119839083
 10
87.739757955
 20
139.5756200861
 10
87.7457706604
 20
139.6385570462
 10
87.7557448328
 20
139.7007947887
 10
87.7697447267
 20
139.7625885844
 10
87.7877060875
 20
139.8236831624
 10
87.809436152
 20
139.8833127103
 10
87.8348706656
 20
139.9412219571
 10
87.8640738827
 20
139.9976661737
 10
87.8970458034
 20
140.0526453602
  0
LWPOLYLINE
  5
226
100
AcDbEntity
  8
RACCORDO
100
AcDbPolyline
 62
7
  6
CONTINUOUS
 90
13
 70
0
 10
87.8968835631
 20
140.2771683182
 10
87.9028411925
 20
140.4360874863
 10
87.921174514
 20
140.5942648603
 10
87.9518003927
 20
140.7506985063
 10
87.9945155595
 20
140.90425006
 10
88.0490969297
 20
141.0540895713
 10
88.1154131363
 20
141.1996605489
 10
88.1932006657
 20
141.3400302862
 10
88.2820450566
 20
141.4741706077
 10
88.3816139912
 20
141.6013370361
 10
88.4914530316
 20
141.7206363952
 10
88.6109308071
 20
141.8310722653
 10
88.7393709399
 20
141.9317591392
  0
LINE
  5
227
100
AcDbEntity
  8
0
100
AcDbLine
 62
7
  6
CONTINUOUS
 10
93.2391680464
 20
134.8114371198
 11
93.2457399309
 21
134.8358216024
  0
LWPOLYLINE
  5
228
100
AcDbEntity
  8
0
100
AcDbPolyline
 62
7
  6
CONTINUOUS
 90
33
 70
0
 10
95.2279410782
 20
138.6297309701
 10
95.2640216456
 20
138.656169574
 10
95.4839757281
 20
138.8086852212
 10
95.7117528542
 20
138.9521632928
 10
95.9464778288
 20
139.0861408012
 10
96.1880549573
 20
139.2106410919
 10
96.4359679597
 20
139.3254358609
 10
96.6896803437
 20
139.4303120248
 10
96.9487396217
 20
139.5251095714
 10
97.2127462863
 20
139.6096910935
 10
97.4814246054
 20
139.6839476357
 10
97.7540408629
 20
139.7476486766
 10
98.0294780172
 20
139.800549945
 10
98.3070096216
 20
139.842568744
 10
98.5862767486
 20
139.8736993902
 10
98.866688122
 20
139.8939087189
 10
99.1477017497
 20
139.903185878
 10
99.4287802438
 20
139.9015338383
 10
99.7093383999
 20
139.8889720244
 10
99.9888389653
 20
139.8655360079
 10
100.2667505132
 20
139.8312745398
 10
100.5425015878
 20
139.7862572624
 10
100.8157673762
 20
139.7305190721
 10
101.0858177221
 20
139.6641831149
 10
101.3515052982
 20
139.5875508058
 10
101.6120517443
 20
139.5009197088
 10
101.8672867848
 20
139.4044133983
 10
102.1170032845
 20
139.298132629
 10
102.3608259414
 20
139.1822269322
 10
102.5981928202
 20
139.0569457382
 10
102.828617535
 20
138.9225305385
 10
103.0520258457
 20
138.7789710821
 10
103.2635103948
 20
138.6297519372
  0
LWPOLYLINE
  5
229
100
AcDbEntity
  8
RACCORDO
100
AcDbPolyline
 62
253
  6
CONTINUOUS
 90
19
 70
0
 10
91.0985996563
 20
141.0811133147
 10
91.3019716688
 20
137.8997158063
 10
91.511387233
 20
134.7985988572
 10
91.7268463487
 20
131.7777624673
 10
91.9492738713
 20
128.8372488514
 10
92.1777449455
 20
125.9770157947
 10
92.4094850053
 20
123.1969366532
 10
92.6443960231
 20
120.4970099563
 10
92.8825760265
 20
117.8772371747
 10
93.1215445327
 20
115.3374960759
 10
93.3612296645
 20
112.8777852593
 10
93.6017032991
 20
110.4981061257
 10
93.8407005856
 20
108.1983406447
 10
94.0781725619
 20
105.9784846818
 10
94.31416819
 20
103.8385423717
 10
94.5465695056
 20
101.7784080879
 10
94.7746705203
 20
99.7980466218
 10
94.9991772224
 20
97.897493182
 10
95.220089612
 20
96.0767477687
  0
LINE
  5
22A
100
AcDbEntity
  8
0
100
AcDbLine
 62
7
  6
CONTINUOUS
 10
93.2457399309
 20
134.9794645986
 11
93.2457399309
 21
133.9427258502
  0
LINE
  5
22B
100
AcDbEntity
  8
RACCORDO
100
AcDbLine
 62
253
  6
CONTINUOUS
 10
94.7455599024
 20
78.781641501
 11
94.7455599024
 21
77.3028776574
  0
LINE
  5
22C
100
AcDbEntity
  8
RACCORDO
100
AcDbLine
 62
253
  6
CONTINUOUS
 10
95.2207075393
 20
96.0767477687
 11
95.2207075393
 21
94.582299444
  0
LINE
  5
22D
100
AcDbEntity
  8
0
100
AcDbLine
 62
7
  6
CONTINUOUS
 10
96.2457399309
 20
102.5410418839
 11
96.2457399309
 21
101.5043030244
  0
LWPOLYLINE
  5
22E
100
AcDbEntity
  8
0
100
AcDbPolyline
 62
7
  6
CONTINUOUS
 90
21
 70
0
 10
93.2457399309
 20
134.9794645986
 10
93.2514506014
 20
135.1938500719
 10
93.2685717424
 20
135.4078274503
 10
93.2970707627
 20
135.6209894156
 10
93.3368934129
 20
135.832930202
 10
93.3879638883
 20
136.0432463682
 10
93.4501849733
 20
136.2515375652
 10
93.5234382266
 20
136.4574072991
 10
93.6075842064
 20
136.660463685
 10
93.7024627361
 20
136.8603201937
 10
93.807893209
 20
137.0565963868
 10
93.9236749323
 20
137.2489186414
 10
94.0495875087
 20
137.4369208614
 10
94.1853912566
 20
137.6202451736
 10
94.3308276658
 20
137.7985426099
 10
94.4856198899
 20
137.971473771
 10
94.6494732731
 20
138.1387094726
 10
94.822075911
 20
138.299931372
 10
95.0030992449
 20
138.4548325742
 10
95.1921986864
 20
138.6031182159
 10
95.2279410782
 20
138.6297309701
  0
LWPOLYLINE
  5
22F
100
AcDbEntity
  8
0
100
AcDbPolyline
 62
7
  6
CONTINUOUS
 90
21
 70
0
 10
96.2457399309
 20
102.5410418839
 10
96.2514506014
 20
102.755427346
 10
96.2685717424
 20
102.9694047131
 10
96.2970707627
 20
103.1825666672
 10
96.3368934129
 20
103.3945074425
 10
96.3879638883
 20
103.6048235976
 10
96.4501849733
 20
103.8131147837
 10
96.5234382266
 20
104.0189845067
 10
96.6075842064
 20
104.222040882
 10
96.7024627361
 20
104.4218973801
 10
96.807893209
 20
104.6181735629
 10
96.9236749323
 20
104.8104958074
 10
97.0495875087
 20
104.9984980175
 10
97.1853912566
 20
105.1818223201
 10
97.3308276658
 20
105.360119747
 10
97.4856198899
 20
105.5330508991
 10
97.6494732731
 20
105.7002865918
 10
97.822075911
 20
105.8615084828
 10
98.0030992449
 20
106.0164096768
 10
98.1921986864
 20
106.1646953107
 10
98.2279410782
 20
106.1913080635
  0
LWPOLYLINE
  5
230
100
AcDbEntity
  8
RACCORDO
100
AcDbPolyline
 62
253
  6
CONTINUOUS
 90
7
 70
0
 10
95.2207075508
 20
94.582299444
 10
95.1400490018
 20
91.9502330817
 10
95.0599773616
 20
89.3176160682
 10
94.9804926303
 20
86.6844484033
 10
94.9015948079
 20
84.0507300872
 10
94.8232838944
 20
81.4164611198
 10
94.7455598898
 20
78.781641501
  0
LWPOLYLINE
  5
231
100
AcDbEntity
  8
RACCORDO
100
AcDbPolyline
 62
253
  6
CONTINUOUS
 90
7
 70
0
 10
93.2504555843
 20
94.9294015323
 10
93.169367552
 20
92.2974285913
 10
93.0888686395
 20
89.6648834507
 10
93.0089589787
 20
87.0317661103
 10
92.9296387006
 20
84.3980765702
 10
92.8509079351
 20
81.7638148304
 10
92.7727668112
 20
79.1289808908
  0
LWPOLYLINE
  5
232
100
AcDbEntity
  8
0
100
AcDbPolyline
 62
7
  6
CONTINUOUS
 90
17
 70
0
 10
103.2938744419
 20
134.9794645986
 10
103.2883266142
 20
134.8059165875
 10
103.2716983375
 20
134.6328442596
 10
103.2440351886
 20
134.4607219938
 10
103.2054129903
 20
134.2900215655
 10
103.1559376033
 20
134.1212108527
 10
103.0957446364
 20
133.9547525537
 10
103.0249990742
 20
133.7911029192
 10
102.9438948253
 20
133.6307105014
 10
102.852654191
 20
133.4740149249
 10
102.7515272553
 20
133.3214456813
 10
102.6407912003
 20
133.1734209522
 10
102.5207495458
 20
133.0303464633
 10
102.3917313175
 20
132.8926143718
 10
102.2540901456
 20
132.7606021916
 10
102.1082032948
 20
132.634671759
 10
101.9568318827
 20
132.5169111996
  0
LINE
  5
233
100
AcDbEntity
  8
0
100
AcDbLine
 62
7
  6
CONTINUOUS
 10
96.2391680464
 20
102.3730142483
 11
96.2457399309
 21
102.3973987295
  0
LWPOLYLINE
  5
234
100
AcDbEntity
  8
0
100
AcDbPolyline
 62
7
  6
CONTINUOUS
 90
32
 70
0
 10
101.9568318827
 20
132.5169111996
 10
101.8244374706
 20
132.4234390303
 10
101.6770401339
 20
132.3287553225
 10
101.5235532181
 20
132.2395033164
 10
101.3645941687
 20
132.1560863246
 10
101.2003688779
 20
132.078645857
 10
101.0312369196
 20
132.0073980272
 10
100.8577137637
 20
131.942597097
 10
100.6802320868
 20
131.8844299443
 10
100.4993825068
 20
131.8331015545
 10
100.3155387802
 20
131.7887215339
 10
100.1287973237
 20
131.7513408298
 10
99.9395182685
 20
131.7210833561
 10
99.7483257264
 20
131.6980930643
 10
99.5557047374
 20
131.6824588008
 10
99.3621669271
 20
131.6742468149
 10
99.1682335974
 20
131.673496769
 10
98.974409891
 20
131.6802218262
 10
98.7812148451
 20
131.6944091808
 10
98.5891721838
 20
131.7160184113
 10
98.3987938748
 20
131.7449828221
 10
98.2107062067
 20
131.7811839792
 10
98.0252945735
 20
131.8245169418
 10
97.8427188869
 20
131.8749342059
 10
97.6633858574
 20
131.93233346
 10
97.4878874754
 20
131.9965273657
 10
97.3166735841
 20
132.0673409967
 10
97.1502602356
 20
132.1445405838
 10
96.9890523212
 20
132.2279086232
 10
96.8333366803
 20
132.3172736875
 10
96.683753302
 20
132.4122290254
 10
96.5346417221
 20
132.5169158219
  0
LWPOLYLINE
  5
235
100
AcDbEntity
  8
0
100
AcDbPolyline
 62
7
  6
CONTINUOUS
 90
61
 70
0
 10
103.2938744419
 20
134.9794645986
 10
103.2883266142
 20
135.1530126096
 10
103.2716983375
 20
135.3260849375
 10
103.2440351886
 20
135.4982072033
 10
103.2054129903
 20
135.6689076316
 10
103.1559376033
 20
135.8377183444
 10
103.0957446364
 20
136.0041766434
 10
103.0249990742
 20
136.1678262779
 10
102.9438948253
 20
136.3282186957
 10
102.852654191
 20
136.4849142722
 10
102.7515272553
 20
136.6374835158
 10
102.6407912003
 20
136.7855082449
 10
102.5207495458
 20
136.9285827338
 10
102.3917313175
 20
137.0663148254
 10
102.2540901456
 20
137.1983270055
 10
102.1082032948
 20
137.3242574381
 10
101.9544706309
 20
137.4437609564
 10
101.7933135244
 20
137.5565100097
 10
101.6251736958
 20
137.6621955607
 10
101.4505120046
 20
137.7605279326
 10
101.2698071864
 20
137.8512376032
 10
101.0835545406
 20
137.9340759436
 10
100.8922645726
 20
138.0088158997
 10
100.6964615951
 20
138.0752526145
 10
100.4966822903
 20
138.1332039894
 10
100.2934742395
 20
138.1825111839
 10
100.0873944217
 20
138.2230390504
 10
99.8790076875
 20
138.2546765047
 10
99.6688852104
 20
138.2773368309
 10
99.4576029215
 20
138.2909579185
 10
99.2457399309
 20
138.2955024331
 10
99.0338769403
 20
138.2909579185
 10
98.8225946514
 20
138.2773368309
 10
98.6124721743
 20
138.2546765047
 10
98.4040854401
 20
138.2230390504
 10
98.1980056223
 20
138.1825111839
 10
97.9947975715
 20
138.1332039894
 10
97.7950182667
 20
138.0752526145
 10
97.5992152892
 20
138.0088158997
 10
97.4079253213
 20
137.9340759436
 10
97.2216726754
 20
137.8512376032
 10
97.0409678573
 20
137.7605279326
 10
96.8663061661
 20
137.6621955607
 10
96.6981663375
 20
137.5565100097
 10
96.537009231
 20
137.4437609564
 10
96.3832765671
 20
137.3242574381
 10
96.2373897163
 20
137.1983270055
 10
96.0997485443
 20
137.0663148254
 10
95.970730316
 20
136.9285827338
 10
95.8506886615
 20
136.7855082449
 10
95.7399526065
 20
136.6374835158
 10
95.6388256709
 20
136.4849142722
 10
95.5475850365
 20
136.3282186957
 10
95.4664807877
 20
136.1678262779
 10
95.3957352254
 20
136.0041766434
 10
95.3355422585
 20
135.8377183444
 10
95.2860668716
 20
135.6689076316
 10
95.2474446733
 20
135.4982072033
 10
95.2197815244
 20
135.3260849375
 10
95.2031532476
 20
135.1530126096
 10
95.19760542
 20
134.9794645986
  0
LWPOLYLINE
  5
236
100
AcDbEntity
  8
0
100
AcDbPolyline
 62
7
  6
CONTINUOUS
 90
61
 70
0
 10
106.2938744419
 20
102.5410418839
 10
106.2883266142
 20
102.7145898858
 10
106.2716983375
 20
102.8876622047
 10
106.2440351886
 20
103.0597844613
 10
106.2054129903
 20
103.2304848806
 10
106.1559376033
 20
103.3992955846
 10
106.0957446364
 20
103.5657538749
 10
106.0249990742
 20
103.7294035008
 10
105.9438948253
 20
103.8897959101
 10
105.852654191
 20
104.0464914784
 10
105.7515272553
 20
104.199060714
 10
105.6407912003
 20
104.3470854352
 10
105.5207495458
 20
104.4901599166
 10
105.3917313175
 20
104.627892001
 10
105.2540901456
 20
104.7599041742
 10
105.1082032948
 20
104.8858346001
 10
104.9544706309
 20
105.0053381122
 10
104.7933135244
 20
105.1180871596
 10
104.6251736958
 20
105.223772705
 10
104.4505120046
 20
105.3221050717
 10
104.2698071864
 20
105.4128147375
 10
104.0835545406
 20
105.4956530736
 10
103.8922645726
 20
105.5703930258
 10
103.6964615951
 20
105.636829737
 10
103.4966822903
 20
105.6947811089
 10
103.2934742395
 20
105.7440883008
 10
103.0873944217
 20
105.7846161652
 10
102.8790076875
 20
105.8162536179
 10
102.6688852104
 20
105.8389139428
 10
102.4576029215
 20
105.8525350297
 10
102.2457399309
 20
105.8570795441
 10
102.0338769403
 20
105.8525350297
 10
101.8225946514
 20
105.8389139428
 10
101.6124721743
 20
105.8162536179
 10
101.4040854401
 20
105.7846161652
 10
101.1980056223
 20
105.7440883008
 10
100.9947975715
 20
105.6947811089
 10
100.7950182667
 20
105.636829737
 10
100.5992152892
 20
105.5703930258
 10
100.4079253213
 20
105.4956530736
 10
100.2216726754
 20
105.4128147375
 10
100.0409678573
 20
105.3221050717
 10
99.8663061661
 20
105.223772705
 10
99.6981663375
 20
105.1180871596
 10
99.537009231
 20
105.0053381122
 10
99.3832765671
 20
104.8858346001
 10
99.2373897163
 20
104.7599041742
 10
99.0997485443
 20
104.627892001
 10
98.970730316
 20
104.4901599166
 10
98.8506886615
 20
104.3470854352
 10
98.7399526065
 20
104.199060714
 10
98.6388256709
 20
104.0464914784
 10
98.5475850365
 20
103.8897959101
 10
98.4664807877
 20
103.7294035008
 10
98.3957352254
 20
103.5657538749
 10
98.3355422585
 20
103.3992955846
 10
98.2860668716
 20
103.2304848806
 10
98.2474446733
 20
103.0597844613
 10
98.2197815244
 20
102.8876622047
 10
98.2031532476
 20
102.7145898858
 10
98.19760542
 20
102.5410418839
  0
LINE
  5
237
100
AcDbEntity
  8
0
100
AcDbLine
 62
7
  6
CONTINUOUS
 10
105.2457399309
 20
134.9794645986
 11
105.2457399309
 21
133.9427258502
  0
LWPOLYLINE
  5
238
100
AcDbEntity
  8
0
100
AcDbPolyline
 62
7
  6
CONTINUOUS
 90
37
 70
0
 10
105.2457399309
 20
134.9794645986
 10
105.2400292604
 20
134.7650791252
 10
105.2229081194
 20
134.5511017468
 10
105.1944090991
 20
134.3379397815
 10
105.1545864489
 20
134.1259989951
 10
105.1035159735
 20
133.9156828289
 10
105.0412948885
 20
133.7073916319
 10
104.9680416352
 20
133.501521898
 10
104.8838956554
 20
133.2984655121
 10
104.7890171257
 20
133.0986090035
 10
104.6835866528
 20
132.9023328104
 10
104.5678049296
 20
132.7100105557
 10
104.4418923531
 20
132.5220083357
 10
104.3060886052
 20
132.3386840235
 10
104.160652196
 20
132.1603865872
 10
104.0058599719
 20
131.9874554261
 10
103.8420065888
 20
131.8202197245
 10
103.6694039508
 20
131.6589978251
 10
103.488380617
 20
131.5040966229
 10
103.2992811754
 20
131.3558109812
 10
103.1024655878
 20
131.2144231701
 10
102.8983085036
 20
131.0802023294
 10
102.6871985475
 20
130.953403956
 10
102.4695375794
 20
130.8342694179
 10
102.2457399292
 20
130.7230254944
 10
102.0162316085
 20
130.6198839447
 10
101.7814494994
 20
130.5250411045
 10
101.541840523
 20
130.4386775127
 10
101.2978607887
 20
130.3609575671
 10
101.0499747256
 20
130.2920292122
 10
100.7986541991
 20
130.232023657
 10
100.5443776119
 20
130.1810551254
 10
100.2876289941
 20
130.1392206389
 10
100.0288970815
 20
130.106599832
 10
99.7686743852
 20
130.0832548002
 10
99.5074562539
 20
130.069229982
 10
99.2457399309
 20
130.0645520744
  0
LWPOLYLINE
  5
239
100
AcDbEntity
  8
0
100
AcDbPolyline
 62
7
  6
CONTINUOUS
 90
34
 70
0
 10
105.2457399309
 20
133.9427258502
 10
105.2389081797
 20
133.7090434829
 10
105.2185050177
 20
133.4753611155
 10
105.1846685822
 20
133.2432608692
 10
105.1373077191
 20
133.0127534799
 10
105.0765135825
 20
132.7838282116
 10
105.0026977726
 20
132.5580349781
 10
104.9157719281
 20
132.3353950325
 10
104.8158244103
 20
132.1158871217
 10
104.703531903
 20
131.9009974001
 10
104.5788106368
 20
131.6907572054
 10
104.441744381
 20
131.4851352001
 10
104.2932611279
 20
131.2855235254
 10
104.1332834051
 20
131.0919629658
 10
103.9618886851
 20
130.904412737
 10
103.780237377
 20
130.7241426274
 10
103.5882598829
 20
130.5512020376
 10
103.3860258008
 20
130.3855415671
 10
103.1749043346
 20
130.2282828021
 10
102.9548351772
 20
130.0794827539
 10
102.7258786357
 20
129.9390844112
 10
102.4895848356
 20
129.8080383257
 10
102.2459039884
 20
129.686407959
 10
101.9948858826
 20
129.5741298495
 10
101.7382300089
 20
129.4719641638
 10
101.4758981112
 20
129.3799795221
 10
101.2079284457
 20
129.2981073043
 10
100.936135272
 20
129.2269018173
 10
100.6604926447
 20
129.1664354426
 10
100.3810265092
 20
129.1166357987
 10
100.0996289606
 20
129.0778400488
 10
99.8169306971
 20
129.0501605806
 10
99.5323010206
 20
129.0334850063
 10
99.2457399309
 20
129.027813326
  0
LWPOLYLINE
  5
23A
100
AcDbEntity
  8
0
100
AcDbPolyline
 62
7
  6
CONTINUOUS
 90
17
 70
0
 10
106.2938744419
 20
102.5410418839
 10
106.2883266142
 20
102.367493882
 10
106.2716983375
 20
102.1944215631
 10
106.2440351886
 20
102.0222993065
 10
106.2054129903
 20
101.8515988871
 10
106.1559376033
 20
101.6827881832
 10
106.0957446364
 20
101.5163298929
 10
106.0249990742
 20
101.352680267
 10
105.9438948253
 20
101.1922878577
 10
105.852654191
 20
101.0355922894
 10
105.7515272553
 20
100.8830230538
 10
105.6407912003
 20
100.7349983326
 10
105.5207495458
 20
100.5919238512
 10
105.3917313175
 20
100.4541917668
 10
105.2540901456
 20
100.3221795936
 10
105.1082032948
 20
100.1962491677
 10
104.9568318827
 20
100.0784886145
  0
LWPOLYLINE
  5
23B
100
AcDbEntity
  8
RACCORDO
100
AcDbPolyline
 62
253
  6
CONTINUOUS
 90
16
 70
0
 10
94.7448491672
 20
77.3028776574
 10
94.2408498589
 20
75.9445284616
 10
93.7610248653
 20
74.6650848506
 10
93.3053741863
 20
73.465005255
 10
92.8730917245
 20
72.344423363
 10
92.4649835774
 20
71.3040072557
 10
92.0834680375
 20
70.3447600538
 10
91.728927734
 20
69.4670855825
 10
91.4009800378
 20
68.6706074398
 10
91.1008953541
 20
67.9550025411
 10
90.828865746
 20
67.3205234883
 10
90.5846991504
 20
66.7668434823
 10
90.3690897837
 20
66.2931841178
 10
90.1822690516
 20
65.8996154092
 10
90.0240055484
 20
65.5866267889
 10
89.8942992742
 20
65.354385119
  0
LWPOLYLINE
  5
23C
100
AcDbEntity
  8
RACCORDO
100
AcDbPolyline
 62
253
  6
CONTINUOUS
 90
16
 70
0
 10
92.7727668112
 20
79.1289808908
 10
92.2675437057
 20
77.7915645576
 10
91.7853862418
 20
76.5322508718
 10
91.3268591654
 20
75.3510398333
 10
90.8921398778
 20
74.2473301828
 10
90.4822403547
 20
73.2217231795
 10
90.0987513274
 20
72.276022602
 10
89.7421914176
 20
71.410924664
 10
89.412699381
 20
70.6257331516
 10
89.11096277
 20
69.9201632025
 10
88.8373140021
 20
69.2942879083
 10
88.5918751348
 20
68.7480341772
 10
88.3749038825
 20
68.2808978715
 10
88.1866310938
 20
67.892710945
 10
88.0272712827
 20
67.5836414438
 10
87.8970458034
 20
67.3536893679
  0
LINE
  5
23D
100
AcDbEntity
  8
0
100
AcDbLine
 62
7
  6
CONTINUOUS
 10
108.2457399309
 20
102.5410418839
 11
108.2457399309
 21
101.5043030244
  0
LWPOLYLINE
  5
23E
100
AcDbEntity
  8
0
100
AcDbPolyline
 62
7
  6
CONTINUOUS
 90
37
 70
0
 10
108.2457399309
 20
102.5410418839
 10
108.2400292604
 20
102.3266564218
 10
108.2229081194
 20
102.1126790547
 10
108.1944090991
 20
101.8995171006
 10
108.1545864489
 20
101.6875763253
 10
108.1035159735
 20
101.4772601702
 10
108.0412948885
 20
101.2689689841
 10
107.9680416352
 20
101.0630992611
 10
107.8838956554
 20
100.8600428858
 10
107.7890171257
 20
100.6601863877
 10
107.6835866528
 20
100.4639102049
 10
107.5678049296
 20
100.2715879604
 10
107.4418923531
 20
100.0835857503
 10
107.3060886052
 20
99.9002614477
 10
107.160652196
 20
99.7219640208
 10
107.0058599719
 20
99.5490328687
 10
106.8420065888
 20
99.381797176
 10
106.6694039508
 20
99.220575285
 10
106.488380617
 20
99.065674091
 10
106.2992811754
 20
98.9173884571
 10
106.1024655878
 20
98.7760006534
 10
105.8983085036
 20
98.6417798198
 10
105.6871985475
 20
98.5149814531
 10
105.4695375794
 20
98.3958469212
 10
105.2457399292
 20
98.2846030036
 10
105.0162316085
 20
98.1814614593
 10
104.7814494994
 20
98.0866186241
 10
104.541840523
 20
98.0002550368
 10
104.2978607887
 20
97.9225350953
 10
104.0499747256
 20
97.853606744
 10
103.7986541991
 20
97.793601192
 10
103.5443776119
 20
97.742632663
 10
103.2876289941
 20
97.7007981788
 10
103.0288970815
 20
97.6681773736
 10
102.7686743852
 20
97.644832343
 10
102.5074562539
 20
97.6308075255
 10
102.2457399309
 20
97.6261296182
  0
LWPOLYLINE
  5
23F
100
AcDbEntity
  8
0
100
AcDbPolyline
 62
7
  6
CONTINUOUS
 90
34
 70
0
 10
108.2457399309
 20
101.5043030244
 10
108.2389081797
 20
101.2706206693
 10
108.2185050177
 20
101.0369383142
 10
108.1846685822
 20
100.8048380801
 10
108.1373077191
 20
100.5743307029
 10
108.0765135825
 20
100.3454054467
 10
108.0026977726
 20
100.1196122251
 10
107.9157719281
 20
99.8969722912
 10
107.8158244103
 20
99.6774643919
 10
107.703531903
 20
99.4625746816
 10
107.5788106368
 20
99.252334498
 10
107.441744381
 20
99.0467125034
 10
107.2932611279
 20
98.8471008393
 10
107.1332834051
 20
98.6535402899
 10
106.9618886851
 20
98.4659900709
 10
106.780237377
 20
98.2857199708
 10
106.5882598829
 20
98.1127793901
 10
106.3860258008
 20
97.9471189284
 10
106.1749043346
 20
97.7898601716
 10
105.9548351772
 20
97.6410601312
 10
105.7258786357
 20
97.5006617959
 10
105.4895848356
 20
97.3696157173
 10
105.2459039884
 20
97.247985357
 10
104.9948858826
 20
97.1357072533
 10
104.7382300089
 20
97.0335415731
 10
104.4758981112
 20
96.9415569362
 10
104.2079284457
 20
96.8596847227
 10
103.936135272
 20
96.7884792395
 10
103.6604926447
 20
96.7280128679
 10
103.3810265092
 20
96.6782132266
 10
103.0996289606
 20
96.6394174788
 10
102.8169306971
 20
96.611738012
 10
102.5323010206
 20
96.5950624386
 10
102.2457399309
 20
96.5893907586
  0
LINE
  5
240
100
AcDbEntity
  8
0
100
AcDbLine
 62
7
  6
CONTINUOUS
 10
108.2523118154
 20
102.3730142483
 11
108.2457399309
 21
102.3973987295
  0
LINE
  5
241
100
AcDbEntity
  8
0
100
AcDbLine
 62
7
  6
CONTINUOUS
 10
118.6855739003
 20
119.853564818
 11
118.6855739003
 21
122.3110210801
  0
LWPOLYLINE
  5
242
100
AcDbEntity
  8
0
100
AcDbPolyline
 62
7
  6
CONTINUOUS
 90
34
 70
0
 10
118.6855739003
 20
122.3110210801
 10
118.6992465024
 20
122.5330373125
 10
118.7371903256
 20
122.7492157154
 10
118.7994053699
 20
122.9595562887
 10
118.8868886257
 20
123.165847327
 10
118.9986431027
 20
123.3663005358
 10
119.1316778299
 20
123.5555510317
 10
119.2865674737
 20
123.7332962892
 10
119.4627373677
 20
123.8998388338
 10
119.6554725416
 20
124.0507213595
 10
119.8652203357
 20
124.1855209725
 10
120.0915334096
 20
124.3046605665
 10
120.3283547728
 20
124.4049515171
 10
120.5759681982
 20
124.4858848226
 10
120.8340899128
 20
124.5479694847
 10
121.0958116068
 20
124.5895438838
 10
121.3612304964
 20
124.6100541467
 10
121.6302493654
 20
124.6100541467
 10
121.8956682551
 20
124.5895438838
 10
122.157389949
 20
124.5479694847
 10
122.4155116636
 20
124.4858848226
 10
122.663125089
 20
124.4049515171
 10
122.8999464522
 20
124.3046605665
 10
123.1262595262
 20
124.1855209725
 10
123.3360073202
 20
124.0507213595
 10
123.5287424941
 20
123.8998388338
 10
123.7049123882
 20
123.7332962892
 10
123.859802032
 20
123.5555510317
 10
123.9928367591
 20
123.3663005358
 10
124.1045912361
 20
123.165847327
 10
124.1920744919
 20
122.9595562887
 10
124.2542895363
 20
122.7492157154
 10
124.2922333595
 20
122.5330373125
 10
124.3059059615
 20
122.3110210801
  0
LWPOLYLINE
  5
243
100
AcDbEntity
  8
0
100
AcDbPolyline
 62
7
  6
CONTINUOUS
 90
28
 70
0
 10
119.2457399309
 20
121.8521599803
 10
119.2626352657
 20
122.0707329201
 10
119.3078658001
 20
122.2808578059
 10
119.3814315341
 20
122.4825346375
 10
119.4850778455
 20
122.6782397797
 10
119.6170593565
 20
122.8654968679
 10
119.7721399339
 20
123.0368768077
 10
119.9512482737
 20
123.19174126
 10
120.1534556799
 20
123.330728564
 10
120.3707399309
 20
123.448324644
 10
120.60370719
 20
123.5436694677
 10
120.851751294
 20
123.6176230675
 10
121.1050315312
 20
123.667251465
 10
121.3637584199
 20
123.6915766673
 10
121.6277214419
 20
123.6915766673
 10
121.8864483307
 20
123.667251465
 10
122.1397285678
 20
123.6176230675
 10
122.3877726718
 20
123.5436694677
 10
122.6207399309
 20
123.448324644
 10
122.8380241819
 20
123.330728564
 10
123.0402315881
 20
123.19174126
 10
123.2193399279
 20
123.0368768077
 10
123.3744205053
 20
122.8654968679
 10
123.5064020163
 20
122.6782397797
 10
123.6100483277
 20
122.4825346375
 10
123.6836140617
 20
122.2808578059
 10
123.7288445961
 20
122.0707329201
 10
123.7457399309
 20
121.8521599803
  0
LWPOLYLINE
  5
244
100
AcDbEntity
  8
0
100
AcDbPolyline
 62
7
  6
CONTINUOUS
 90
28
 70
0
 10
119.7457399309
 20
121.8521599803
 10
119.7588807469
 20
122.0221611557
 10
119.7940600514
 20
122.1855916224
 10
119.8512778445
 20
122.3424513804
 10
119.9318916423
 20
122.494666491
 10
120.0345439286
 20
122.6403108928
 10
120.1551621555
 20
122.7736064016
 10
120.294468642
 20
122.8940565311
 10
120.451741069
 20
123.0021577676
 10
120.6207399309
 20
123.0936213854
 10
120.801936688
 20
123.1677784705
 10
120.99485988
 20
123.225297937
 10
121.19185562
 20
123.2638978017
 10
121.3930876446
 20
123.2828174035
 10
121.5983922172
 20
123.2828174035
 10
121.7996242418
 20
123.2638978017
 10
121.9966199819
 20
123.225297937
 10
122.1895431738
 20
123.1677784705
 10
122.3707399309
 20
123.0936213854
 10
122.5397387928
 20
123.0021577676
 10
122.6970112198
 20
122.8940565311
 10
122.8363177064
 20
122.7736064016
 10
122.9569359332
 20
122.6403108928
 10
123.0595882195
 20
122.494666491
 10
123.1402020173
 20
122.3424513804
 10
123.1974198104
 20
122.1855916224
 10
123.232599115
 20
122.0221611557
 10
123.2457399309
 20
121.8521599803
  0
LWPOLYLINE
  5
245
100
AcDbEntity
  8
0
100
AcDbPolyline
 62
7
  6
CONTINUOUS
 90
25
 70
0
 10
120.3169991336
 20
122.0815905302
 10
120.3284865021
 20
122.2110099394
 10
120.3583952689
 20
122.3341788963
 10
120.4067254341
 20
122.4510974007
 10
120.4749177545
 20
122.5635317454
 10
120.5615314732
 20
122.6697156376
 10
120.6622443199
 20
122.7643501998
 10
120.7777717826
 20
122.8468493383
 10
120.9073983731
 20
122.9177991468
 10
121.0446553567
 20
122.9736590284
 10
121.1899299528
 20
123.0136632149
 10
121.3428349418
 20
123.0385774744
 10
121.4957399309
 20
123.0471585148
 10
121.64864492
 20
123.0385774744
 10
121.8015499091
 20
123.0136632149
 10
121.9468245051
 20
122.9736590284
 10
122.0840814887
 20
122.9177991468
 10
122.2137080793
 20
122.8468493383
 10
122.3292355419
 20
122.7643501998
 10
122.4299483886
 20
122.6697156376
 10
122.5165621073
 20
122.5635317454
 10
122.5847544277
 20
122.4510974007
 10
122.6330845929
 20
122.3341788963
 10
122.6629933597
 20
122.2110099394
 10
122.6744807282
 20
122.0815905302
  0
LWPOLYLINE
  5
246
100
AcDbEntity
  8
0
100
AcDbPolyline
 62
7
  6
CONTINUOUS
 90
22
 70
0
 10
224.7459069688
 20
62.703095526
 10
224.9712677367
 20
62.7117077801
 10
225.1931700152
 20
62.7366365316
 10
225.4116138042
 20
62.7778817805
 10
225.6278638868
 20
62.835854928
 10
225.8406554798
 20
62.910144573
 10
226.0461942345
 20
62.9995165124
 10
226.2442742928
 20
63.1042235484
 10
226.4351015127
 20
63.2240128788
 10
226.6154991192
 20
63.3568918939
 10
226.7852925742
 20
63.5030798356
 10
226.9446564156
 20
63.6623574621
 10
227.0909374825
 20
63.8320744386
 10
227.2239167891
 20
64.0124056455
 10
227.3438133212
 20
64.2031762024
 10
227.4486308744
 20
64.4012111337
 10
227.5381168364
 20
64.606663103
 10
227.6125238195
 20
64.8193794467
 10
227.6706134572
 20
65.0357271985
 10
227.7119729605
 20
65.2544953698
 10
227.7370151183
 20
65.4768949492
 10
227.7457399306
 20
65.7029259368
  0
LINE
  5
247
100
AcDbEntity
  8
0
100
AcDbLine
 62
7
  6
CONTINUOUS
 10
88.2455728944
 20
62.703095526
 11
224.7459069688
 21
62.703095526
  0
LINE
  5
248
100
AcDbEntity
  8
RACCORDO
100
AcDbLine
 62
253
  6
CONTINUOUS
 10
224.2567686223
 20
63.2010585438
 11
88.7347112405
 21
63.2010585438
  0
LINE
  5
249
100
AcDbEntity
  8
RACCORDO
100
AcDbLine
 62
253
  6
CONTINUOUS
 10
224.2567685571
 20
65.1950637208
 11
88.7347113056
 21
65.1950637213
  0
LWPOLYLINE
  5
24A
100
AcDbEntity
  8
RACCORDO
100
AcDbPolyline
 62
7
  6
CONTINUOUS
 90
28
 70
0
 10
89.8945284705
 20
65.3543851499
 10
89.7774547409
 20
65.3578834575
 10
89.6616127702
 20
65.3680266324
 10
89.5470025585
 20
65.3848146748
 10
89.4332634519
 20
65.4083476104
 10
89.3207561043
 20
65.4385254135
 10
89.2105624768
 20
65.4750480062
 10
89.1026857313
 20
65.5179825464
 10
88.997122706
 20
65.5672618762
 10
88.8949458762
 20
65.6223844447
 10
88.7961928684
 20
65.6834089408
 10
88.700826056
 20
65.7502766756
 10
88.6098050348
 20
65.8223100316
 10
88.523174622
 20
65.8995606011
 10
88.4408900004
 20
65.9819767918
 10
88.3637763137
 20
66.068726209
 10
88.291886148
 20
66.1598517209
 10
88.2251669173
 20
66.2553104594
 10
88.1642860081
 20
66.3541414249
 10
88.1093015946
 20
66.456381022
 10
88.0601555025
 20
66.5619928461
 10
88.0173405953
 20
66.6699066845
 10
87.9809228626
 20
66.7801264845
 10
87.9508363147
 20
66.8926482988
 10
87.9273758461
 20
67.0063900724
 10
87.9106397551
 20
67.1209911203
 10
87.9005297434
 20
67.2368121274
 10
87.8970458111
 20
67.3538530939
  0
LWPOLYLINE
  5
24B
100
AcDbEntity
  8
RACCORDO
100
AcDbPolyline
 62
253
  6
CONTINUOUS
 90
10
 70
0
 10
88.7347113056
 20
65.1950637213
 10
88.6708608745
 20
65.1971229857
 10
88.6077431504
 20
65.2031424477
 10
88.5453581333
 20
65.2131221073
 10
88.4834520613
 20
65.2271278568
 10
88.4222786963
 20
65.2450938039
 10
88.3625993237
 20
65.2668222714
 10
88.304667705
 20
65.2922473668
 10
88.2482300786
 20
65.3214349827
 10
88.1932864445
 20
65.3543851189
  0
LWPOLYLINE
  5
24C
100
AcDbEntity
  8
RACCORDO
100
AcDbPolyline
 62
253
  6
CONTINUOUS
 90
22
 70
0
 10
88.7347111757
 20
63.2011316751
 10
88.5114261283
 20
63.2103182747
 10
88.2894433
 20
63.2360959895
 10
88.0700745469
 20
63.2783591965
 10
87.8545114562
 20
63.3367985504
 10
87.643902718
 20
63.4110899787
 10
87.4393611993
 20
63.5008906444
 10
87.2419725803
 20
63.6056752024
 10
87.0528688661
 20
63.7248173349
 10
86.8731932257
 20
63.8576622516
 10
86.7039985534
 20
64.0034398699
 10
86.5461151696
 20
64.1613137959
 10
86.4003346147
 20
64.3305089642
 10
86.2674904046
 20
64.51019918
 10
86.1483315769
 20
64.6993080373
 10
86.043535591
 20
64.8966931957
 10
85.9537474604
 20
65.1012253673
 10
85.8794586703
 20
65.311823897
 10
85.8210096991
 20
65.5273881156
 10
85.7787458769
 20
65.7467777021
 10
85.7529749969
 20
65.9687856861
 10
85.7437736586
 20
66.1920668629
  0
LINE
  5
24D
100
AcDbEntity
  8
0
100
AcDbLine
 62
7
  6
CONTINUOUS
 10
105.2523118154
 20
134.8114371198
 11
105.2457399309
 21
134.8358216024
  0
LINE
  5
24E
100
AcDbEntity
  8
0
100
AcDbLine
 62
7
  6
CONTINUOUS
 10
119.2457399309
 20
119.3947037182
 11
119.2457399309
 21
121.8521599803
  0
LINE
  5
24F
100
AcDbEntity
  8
0
100
AcDbLine
 62
7
  6
CONTINUOUS
 10
119.7457399309
 20
119.3947037182
 11
119.7457399309
 21
121.8521599803
  0
LINE
  5
250
100
AcDbEntity
  8
0
100
AcDbLine
 62
7
  6
CONTINUOUS
 10
120.3169991336
 20
119.6241342681
 11
120.3169991336
 21
122.0815905302
  0
LINE
  5
251
100
AcDbEntity
  8
0
100
AcDbLine
 62
7
  6
CONTINUOUS
 10
122.6744807282
 20
122.0815905302
 11
122.6744807282
 21
119.6241342681
  0
LINE
  5
252
100
AcDbEntity
  8
0
100
AcDbLine
 62
7
  6
CONTINUOUS
 10
123.2457399309
 20
121.8521599803
 11
123.2457399309
 21
119.3947037182
  0
LINE
  5
253
100
AcDbEntity
  8
0
100
AcDbLine
 62
7
  6
CONTINUOUS
 10
123.7457399309
 20
121.8521599803
 11
123.7457399309
 21
119.3947037182
  0
LINE
  5
254
100
AcDbEntity
  8
0
100
AcDbLine
 62
7
  6
CONTINUOUS
 10
124.3059059615
 20
122.3110210801
 11
124.3059059615
 21
119.853564818
  0
LWPOLYLINE
  5
255
100
AcDbEntity
  8
0
100
AcDbPolyline
 62
7
  6
CONTINUOUS
 90
34
 70
0
 10
124.3059059615
 20
119.853564818
 10
124.2922333595
 20
119.6315485857
 10
124.2542895363
 20
119.4153701828
 10
124.1920744919
 20
119.2050296095
 10
124.1045912361
 20
118.9987385712
 10
123.9928367591
 20
118.7982853624
 10
123.859802032
 20
118.6090348665
 10
123.7049123882
 20
118.431289609
 10
123.5287424941
 20
118.2647470644
 10
123.3360073202
 20
118.1138645387
 10
123.1262595262
 20
117.9790649257
 10
122.8999464522
 20
117.8599253317
 10
122.663125089
 20
117.7596343811
 10
122.4155116636
 20
117.6787010756
 10
122.157389949
 20
117.6166164135
 10
121.8956682551
 20
117.5750420144
 10
121.6302493654
 20
117.5545317515
 10
121.3612304964
 20
117.5545317515
 10
121.0958116068
 20
117.5750420144
 10
120.8340899128
 20
117.6166164135
 10
120.5759681982
 20
117.6787010756
 10
120.3283547728
 20
117.7596343811
 10
120.0915334096
 20
117.8599253317
 10
119.8652203357
 20
117.9790649257
 10
119.6554725416
 20
118.1138645387
 10
119.4627373677
 20
118.2647470644
 10
119.2865674737
 20
118.431289609
 10
119.1316778299
 20
118.6090348665
 10
118.9986431027
 20
118.7982853624
 10
118.8868886257
 20
118.9987385712
 10
118.7994053699
 20
119.2050296095
 10
118.7371903256
 20
119.4153701828
 10
118.6992465024
 20
119.6315485857
 10
118.6855739003
 20
119.853564818
  0
LWPOLYLINE
  5
256
100
AcDbEntity
  8
0
100
AcDbPolyline
 62
7
  6
CONTINUOUS
 90
28
 70
0
 10
123.2457399309
 20
119.3947037182
 10
123.232599115
 20
119.2247025427
 10
123.1974198104
 20
119.0612720761
 10
123.1402020173
 20
118.9044123181
 10
123.0595882195
 20
118.7521972075
 10
122.9569359332
 20
118.6065528056
 10
122.8363177064
 20
118.4732572968
 10
122.6970112198
 20
118.3528071673
 10
122.5397387928
 20
118.2447059309
 10
122.3707399309
 20
118.153242313
 10
122.1895431738
 20
118.0790852279
 10
121.9966199819
 20
118.0215657614
 10
121.7996242418
 20
117.9829658968
 10
121.5983922172
 20
117.9640462949
 10
121.3930876446
 20
117.9640462949
 10
121.19185562
 20
117.9829658968
 10
120.99485988
 20
118.0215657614
 10
120.801936688
 20
118.0790852279
 10
120.6207399309
 20
118.153242313
 10
120.451741069
 20
118.2447059309
 10
120.294468642
 20
118.3528071673
 10
120.1551621555
 20
118.4732572968
 10
120.0345439286
 20
118.6065528056
 10
119.9318916423
 20
118.7521972075
 10
119.8512778445
 20
118.9044123181
 10
119.7940600514
 20
119.0612720761
 10
119.7588807469
 20
119.2247025427
 10
119.7457399309
 20
119.3947037182
  0
LWPOLYLINE
  5
257
100
AcDbEntity
  8
0
100
AcDbPolyline
 62
7
  6
CONTINUOUS
 90
28
 70
0
 10
123.7457399309
 20
119.3947037182
 10
123.7288445961
 20
119.1761307783
 10
123.6836140617
 20
118.9660058926
 10
123.6100483277
 20
118.764329061
 10
123.5064020163
 20
118.5686239187
 10
123.3744205053
 20
118.3813668306
 10
123.2193399279
 20
118.2099868907
 10
123.0402315881
 20
118.0551224385
 10
122.8380241819
 20
117.9161351345
 10
122.6207399309
 20
117.7985390544
 10
122.3877726718
 20
117.7031942307
 10
122.1397285678
 20
117.6292406309
 10
121.8864483307
 20
117.5796122335
 10
121.6277214419
 20
117.5552870312
 10
121.3637584199
 20
117.5552870312
 10
121.1050315312
 20
117.5796122335
 10
120.851751294
 20
117.6292406309
 10
120.60370719
 20
117.7031942307
 10
120.3707399309
 20
117.7985390544
 10
120.1534556799
 20
117.9161351345
 10
119.9512482737
 20
118.0551224385
 10
119.7721399339
 20
118.2099868907
 10
119.6170593565
 20
118.3813668306
 10
119.4850778455
 20
118.5686239187
 10
119.3814315341
 20
118.764329061
 10
119.3078658001
 20
118.9660058926
 10
119.2626352657
 20
119.1761307783
 10
119.2457399309
 20
119.3947037182
  0
LWPOLYLINE
  5
258
100
AcDbEntity
  8
0
100
AcDbPolyline
 62
7
  6
CONTINUOUS
 90
25
 70
0
 10
122.6744807282
 20
119.6241342681
 10
122.6629933597
 20
119.4947148589
 10
122.6330845929
 20
119.3715459021
 10
122.5847544277
 20
119.2546273976
 10
122.5165621073
 20
119.142193053
 10
122.4299483886
 20
119.0360091607
 10
122.3292355419
 20
118.9413745985
 10
122.2137080793
 20
118.85887546
 10
122.0840814887
 20
118.7879256515
 10
121.9468245051
 20
118.7320657699
 10
121.8015499091
 20
118.6920615835
 10
121.64864492
 20
118.6671473239
 10
121.4957399309
 20
118.6585662835
 10
121.3428349418
 20
118.6671473239
 10
121.1899299528
 20
118.6920615835
 10
121.0446553567
 20
118.7320657699
 10
120.9073983731
 20
118.7879256515
 10
120.7777717826
 20
118.85887546
 10
120.6622443199
 20
118.9413745985
 10
120.5615314732
 20
119.0360091607
 10
120.4749177545
 20
119.142193053
 10
120.4067254341
 20
119.2546273976
 10
120.3583952689
 20
119.3715459021
 10
120.3284865021
 20
119.4947148589
 10
120.3169991336
 20
119.6241342681
  0
LINE
  5
259
100
AcDbEntity
  8
0
100
AcDbLine
 62
253
  6
CONTINUOUS
 10
124.3059059615
 20
122.3110210801
 11
123.7457399309
 21
121.8521599803
  0
LINE
  5
25A
100
AcDbEntity
  8
0
100
AcDbLine
 62
253
  6
CONTINUOUS
 10
124.3059059615
 20
119.853564818
 11
123.7457399309
 21
119.3947037182
  0
LWPOLYLINE
  5
25B
100
AcDbEntity
  8
0
100
AcDbPolyline
 62
7
  6
CONTINUOUS
 90
33
 70
0
 10
98.2279410782
 20
106.1913080635
 10
98.2640216456
 20
106.2177466663
 10
98.4839757281
 20
106.3702623069
 10
98.7117528542
 20
106.5137403723
 10
98.9464778288
 20
106.6477178749
 10
99.1880549573
 20
106.7722181602
 10
99.4359679597
 20
106.8870129241
 10
99.6896803437
 20
106.9918890834
 10
99.9487396217
 20
107.0866866259
 10
100.2127462863
 20
107.1712681442
 10
100.4814246054
 20
107.2455246831
 10
100.7540408629
 20
107.3092257212
 10
101.0294780172
 20
107.3621269873
 10
101.3070096216
 20
107.4041457844
 10
101.5862767486
 20
107.4352764293
 10
101.866688122
 20
107.455485757
 10
102.1477017497
 20
107.4647629157
 10
102.4287802438
 20
107.4631108761
 10
102.7093383999
 20
107.4505490628
 10
102.9888389653
 20
107.4271130473
 10
103.2667505132
 20
107.3928515807
 10
103.5425015878
 20
107.3478343053
 10
103.8157673762
 20
107.2920961175
 10
104.0858177221
 20
107.2257601633
 10
104.3515052982
 20
107.1491278575
 10
104.6120517443
 20
107.0624967644
 10
104.8672867848
 20
106.9659904581
 10
105.1170032845
 20
106.8597096934
 10
105.3608259414
 20
106.7438040017
 10
105.5981928202
 20
106.6185228131
 10
105.828617535
 20
106.4841076193
 10
106.0520258457
 20
106.3405481691
 10
106.2635103948
 20
106.1913290306
  0
LINE
  5
25C
100
AcDbEntity
  8
RACCORDO
100
AcDbLine
 62
7
  6
CONTINUOUS
 10
225.0944340584
 20
65.3543851189
 11
224.7981934186
 21
65.3543851189
  0
LINE
  5
25D
100
AcDbEntity
  8
RACCORDO
100
AcDbLine
 62
7
  6
CONTINUOUS
 10
223.0969512453
 20
65.3543851499
 11
89.8945284705
 21
65.3543851499
  0
LINE
  5
25E
100
AcDbEntity
  8
RACCORDO
100
AcDbLine
 62
7
  6
CONTINUOUS
 10
88.1932864445
 20
65.3543851189
 11
87.8970458034
 21
65.3543851189
  0
LINE
  5
25F
100
AcDbEntity
  8
RACCORDO
100
AcDbLine
 62
253
  6
CONTINUOUS
 10
227.2477769245
 20
66.1920668559
 11
225.2537718789
 21
66.1920669167
  0
LINE
  5
260
100
AcDbEntity
  8
RACCORDO
100
AcDbLine
 62
253
  6
CONTINUOUS
 10
85.7437029373
 20
66.1920668568
 11
87.7377079834
 21
66.1920669176
  0
LWPOLYLINE
  5
261
100
AcDbEntity
  8
0
100
AcDbPolyline
 62
7
  6
CONTINUOUS
 90
17
 70
0
 10
99.5346417221
 20
100.0784932368
 10
99.3832765671
 20
100.1962491677
 10
99.2373897163
 20
100.3221795936
 10
99.0997485443
 20
100.4541917668
 10
98.970730316
 20
100.5919238512
 10
98.8506886615
 20
100.7349983326
 10
98.7399526065
 20
100.8830230538
 10
98.6388256709
 20
101.0355922894
 10
98.5475850365
 20
101.1922878577
 10
98.4664807877
 20
101.352680267
 10
98.3957352254
 20
101.5163298929
 10
98.3355422585
 20
101.6827881832
 10
98.2860668716
 20
101.8515988871
 10
98.2474446733
 20
102.0222993065
 10
98.2197815244
 20
102.1944215631
 10
98.2031532476
 20
102.367493882
 10
98.19760542
 20
102.5410418839
  0
LWPOLYLINE
  5
262
100
AcDbEntity
  8
0
100
AcDbPolyline
 62
7
  6
CONTINUOUS
 90
32
 70
0
 10
104.9568318827
 20
100.0784886145
 10
104.8244374706
 20
99.9850164515
 10
104.6770401339
 20
99.8903327501
 10
104.5235532181
 20
99.80108075
 10
104.3645941687
 20
99.7176637637
 10
104.2003688779
 20
99.6402233012
 10
104.0312369196
 20
99.5689754761
 10
103.8577137637
 20
99.5041745501
 10
103.6802320868
 20
99.4460074012
 10
103.4993825068
 20
99.3946790147
 10
103.3155387802
 20
99.350298997
 10
103.1287973237
 20
99.3129182953
 10
102.9395182685
 20
99.2826608235
 10
102.7483257264
 20
99.2596705332
 10
102.5557047374
 20
99.2440362707
 10
102.3621669271
 20
99.2358242854
 10
102.1682335974
 20
99.2350742395
 10
101.974409891
 20
99.2417992963
 10
101.7812148451
 20
99.25598665
 10
101.5891721838
 20
99.2775958791
 10
101.3987938748
 20
99.306560288
 10
101.2107062067
 20
99.3427614428
 10
101.0252945735
 20
99.3860944026
 10
100.8427188869
 20
99.4365116635
 10
100.6633858574
 20
99.4939109138
 10
100.4878874754
 20
99.5581048153
 10
100.3166735841
 20
99.6289184417
 10
100.1502602356
 20
99.7061180237
 10
99.9890523212
 20
99.7894860575
 10
99.8333366803
 20
99.8788511159
 10
99.683753302
 20
99.9738064474
 10
99.5346417221
 20
100.0784932368
  0
LINE
  5
263
100
AcDbEntity
  8
0
100
AcDbLine
 62
253
  6
CONTINUOUS
 10
119.7457399309
 20
121.8521599803
 11
120.3169991336
 21
122.0815905302
  0
LINE
  5
264
100
AcDbEntity
  8
0
100
AcDbLine
 62
253
  6
CONTINUOUS
 10
119.7457399309
 20
119.3947037182
 11
120.3169991336
 21
119.6241342681
  0
LWPOLYLINE
  5
265
100
AcDbEntity
  8
RACCORDO
100
AcDbPolyline
 62
253
  6
CONTINUOUS
 90
16
 70
0
 10
218.2459199603
 20
77.3028776598
 10
218.4438186898
 20
77.3242754113
 10
218.639729775
 20
77.3637951351
 10
218.8316850743
 20
77.4210427324
 10
219.0177558517
 20
77.4954469417
 10
219.1960735301
 20
77.5862613601
 10
219.3648486179
 20
77.6925714955
 10
219.522386713
 20
77.813309215
 10
219.6671053724
 20
77.9472638336
 10
219.7975514793
 20
78.093090316
 10
219.9124158411
 20
78.2493227886
 10
220.0105448615
 20
78.4143932175
 10
220.0909522542
 20
78.5866467769
 10
220.1528309083
 20
78.7643531973
 10
220.1955608293
 20
78.9457245823
 10
220.2187139807
 20
79.1289370783
  0
LWPOLYLINE
  5
266
100
AcDbEntity
  8
RACCORDO
100
AcDbPolyline
 62
253
  6
CONTINUOUS
 90
14
 70
0
 10
218.6189293079
 20
78.8001819094
 10
218.8021524241
 20
78.8112403386
 10
218.9799974049
 20
78.8263916126
 10
219.1509566019
 20
78.845477827
 10
219.3143656515
 20
78.8657649426
 10
219.4683628963
 20
78.8887296274
 10
219.6112304242
 20
78.9151385527
 10
219.7424063808
 20
78.9415639987
 10
219.8603251151
 20
78.9699134753
 10
219.9636240098
 20
79.0011201634
 10
220.0519759291
 20
79.0311831431
 10
220.1245503344
 20
79.0603444855
 10
220.1802817827
 20
79.0923543992
 10
220.2187139807
 20
79.1289370783
  0
LINE
  5
267
100
AcDbEntity
  8
RACCORDO
100
AcDbLine
 62
253
  6
CONTINUOUS
 10
218.2459199594
 20
78.781641501
 11
218.6189293079
 21
78.8001819094
  0
LWPOLYLINE
  5
268
100
AcDbEntity
  8
RACCORDO
100
AcDbPolyline
 62
253
  6
CONTINUOUS
 90
16
 70
0
 10
94.745559902
 20
77.3028776597
 10
94.5480336826
 20
77.322994984
 10
94.3519215184
 20
77.3627418457
 10
94.1595544121
 20
77.421126522
 10
93.9733407223
 20
77.4959135934
 10
93.7950842534
 20
77.5861994955
 10
93.6261958085
 20
77.6928745688
 10
93.4685725514
 20
77.8139508667
 10
93.3239091724
 20
77.9472832895
 10
93.1934477384
 20
78.093682278
 10
93.0785128781
 20
78.2503669911
 10
92.9803647551
 20
78.4146763008
 10
92.9001611837
 20
78.5875494856
 10
92.8387300464
 20
78.76715659
 10
92.7962936449
 20
78.9487830455
 10
92.7727658811
 20
79.1289370774
  0
LWPOLYLINE
  5
269
100
AcDbEntity
  8
0
100
AcDbPolyline
 62
7
  6
CONTINUOUS
 90
21
 70
0
 10
106.2635103948
 20
106.1913290306
 10
106.2992811754
 20
106.1646953107
 10
106.488380617
 20
106.0164096768
 10
106.6694039508
 20
105.8615084828
 10
106.8420065888
 20
105.7002865918
 10
107.0058599719
 20
105.5330508991
 10
107.160652196
 20
105.360119747
 10
107.3060886052
 20
105.1818223201
 10
107.4418923531
 20
104.9984980175
 10
107.5678049296
 20
104.8104958074
 10
107.6835866528
 20
104.6181735629
 10
107.7890171257
 20
104.4218973801
 10
107.8838956554
 20
104.222040882
 10
107.9680416352
 20
104.0189845067
 10
108.0412948885
 20
103.8131147837
 10
108.1035159735
 20
103.6048235976
 10
108.1545864489
 20
103.3945074425
 10
108.1944090991
 20
103.1825666672
 10
108.2229081194
 20
102.9694047131
 10
108.2400292604
 20
102.755427346
 10
108.2457399309
 20
102.5410418839
  0
LWPOLYLINE
  5
26A
100
AcDbEntity
  8
RACCORDO
100
AcDbPolyline
 62
253
  6
CONTINUOUS
 90
10
 70
0
 10
136.5131840847
 20
78.80669574
 10
136.5507429249
 20
78.7596457514
 10
136.5896620208
 20
78.7121406243
 10
136.6297817266
 20
78.6643744332
 10
136.6709428185
 20
78.6165362712
 10
136.7129719419
 20
78.5688270047
 10
136.7556813407
 20
78.5214582223
 10
136.7988907008
 20
78.4746277356
 10
136.8424288351
 20
78.4285190624
 10
136.8861185019
 20
78.3833180393
  0
LWPOLYLINE
  5
26B
100
AcDbEntity
  8
RACCORDO
100
AcDbPolyline
 62
253
  6
CONTINUOUS
 90
10
 70
0
 10
137.1815292897
 20
79.6425493309
 10
137.2337052309
 20
79.5565996955
 10
137.2947379901
 20
79.470151886
 10
137.363802204
 20
79.384374961
 10
137.4399638976
 20
79.3004289061
 10
137.5221931146
 20
79.2194489482
 10
137.6093778453
 20
79.1425302028
 10
137.7003390656
 20
79.0707128642
 10
137.7938466809
 20
79.0049681388
 10
137.8886361609
 20
78.9461851113
  0
LWPOLYLINE
  5
26C
100
AcDbEntity
  8
RACCORDO
100
AcDbPolyline
 62
253
  6
CONTINUOUS
 90
10
 70
0
 10
136.8456709121
 20
79.1965352405
 10
136.8899205258
 20
79.1106579118
 10
136.9394829384
 20
79.0241325678
 10
136.9938261226
 20
78.9378880137
 10
137.052366732
 20
78.8528500403
 10
137.1144763633
 20
78.7699314866
 10
137.1794883016
 20
78.6900224401
 10
137.2467046772
 20
78.6139806833
 10
137.3154039567
 20
78.5426224853
 10
137.3848486887
 20
78.4767138395
  0
LINE
  5
26D
100
AcDbEntity
  8
0
100
AcDbLine
 62
253
  6
CONTINUOUS
 10
85.2457399312
 20
65.7028917348
 11
85.7437029373
 21
66.1920669265
  0
LWPOLYLINE
  5
26E
100
AcDbEntity
  8
RACCORDO
100
AcDbPolyline
 62
253
  6
CONTINUOUS
 90
7
 70
0
 10
135.7673152707
 20
78.781641501
 10
135.8947250464
 20
78.7823467405
 10
136.0215750704
 20
78.7844590893
 10
136.1473511401
 20
78.7879685691
 10
136.2715442655
 20
78.7928595512
 10
136.3936527212
 20
78.7991108329
 10
136.5131840626
 20
78.8066957366
  0
LINE
  5
26F
100
AcDbEntity
  8
RACCORDO
100
AcDbLine
 62
253
  6
CONTINUOUS
 10
94.7455599024
 20
77.3028776574
 11
218.2459199594
 21
77.3028776574
  0
LINE
  5
270
100
AcDbEntity
  8
RACCORDO
100
AcDbLine
 62
253
  6
CONTINUOUS
 10
177.2260010634
 20
78.1591787759
 11
135.7654843851
 21
78.1591768242
  0
LINE
  5
271
100
AcDbEntity
  8
RACCORDO
100
AcDbLine
 62
253
  6
CONTINUOUS
 10
175.6066353639
 20
78.4767153689
 11
137.3848486887
 21
78.4767138395
  0
LINE
  5
272
100
AcDbEntity
  8
RACCORDO
100
AcDbLine
 62
253
  6
CONTINUOUS
 10
94.7455598898
 20
78.781641501
 11
135.7673152707
 21
78.781641501
  0
LINE
  5
273
100
AcDbEntity
  8
RACCORDO
100
AcDbLine
 62
253
  6
CONTINUOUS
 10
177.2241677395
 20
78.781641501
 11
218.2459199712
 21
78.781641501
  0
LWPOLYLINE
  5
274
100
AcDbEntity
  8
RACCORDO
100
AcDbPolyline
 62
253
  6
CONTINUOUS
 90
7
 70
0
 10
177.2241677395
 20
78.781641501
 10
177.0967498075
 20
78.7823468552
 10
176.9698951207
 20
78.784459423
 10
176.8441178765
 20
78.7879691118
 10
176.7199269768
 20
78.7928601796
 10
176.597823977
 20
78.7991113136
 10
176.4783010722
 20
78.8066957304
  0
LWPOLYLINE
  5
275
100
AcDbEntity
  8
RACCORDO
100
AcDbPolyline
 62
253
  6
CONTINUOUS
 90
16
 70
0
 10
94.7455599024
 20
78.781641501
 10
94.5581543027
 20
78.7885099815
 10
94.3723991773
 20
78.7983766571
 10
94.1899304653
 20
78.8111547039
 10
94.0123551629
 20
78.8267316782
 10
93.8412371679
 20
78.844970413
 10
93.6780835067
 20
78.8657102164
 10
93.5243310657
 20
78.8887684189
 10
93.3813339367
 20
78.9139419898
 10
93.2503514887
 20
78.9410092267
 10
93.1325372771
 20
78.9697317077
 10
93.0289288862
 20
78.9998564903
 10
92.9404387921
 20
79.0311183315
 10
92.8678463223
 20
79.0632418909
 10
92.8117907931
 20
79.0959441658
 10
92.7727658811
 20
79.1289370774
  0
LWPOLYLINE
  5
276
100
AcDbEntity
  8
ASSI
100
AcDbPolyline
 62
7
  6
CONTINUOUS
 90
33
 70
0
 10
137.2968325475
 20
91.0346470224
 10
137.3374097901
 20
90.6486356107
 10
137.4039427819
 20
90.2777457598
 10
137.4974977084
 20
89.9189111172
 10
137.6170083841
 20
89.5751980355
 10
137.759276253
 20
89.2558055719
 10
137.9249158659
 20
88.9613904972
 10
138.1133126721
 20
88.6912960406
 10
138.3194244629
 20
88.4527509477
 10
138.543729626
 20
88.2466071991
 10
138.7857497738
 20
88.0720128142
 10
139.0390075351
 20
87.9336405967
 10
139.303806378
 20
87.8324687149
 10
139.5798428344
 20
87.7675190004
 10
139.8597291285
 20
87.7405297525
 10
140.1435692238
 20
87.7525260815
 10
140.4312591568
 20
87.8024828771
 10
140.7150992606
 20
87.8890631071
 10
140.9949855719
 20
88.0132557757
 10
141.271022054
 20
88.1740718788
 10
141.5358209305
 20
88.3672073714
 10
141.7890787333
 20
88.5935350283
 10
142.0310989305
 20
88.8521820747
 10
142.2554041494
 20
89.1362261409
 10
142.4615160028
 20
89.4463530653
 10
142.649912878
 20
89.7818770095
 10
142.8155525646
 20
90.1338180883
 10
142.9578205119
 20
90.5026196412
 10
143.0773312707
 20
90.8878383287
 10
143.1708862826
 20
91.2791642469
 10
143.2374193616
 20
91.6731607614
 10
143.2779966937
 20
92.0732645067
 10
143.292618279
 20
92.4794754828
  0
LWPOLYLINE
  5
277
100
AcDbEntity
  8
ASSI
100
AcDbPolyline
 62
7
  6
CONTINUOUS
 90
40
 70
0
 10
137.2822110563
 20
91.1902035939
 10
137.2948934709
 20
90.7719770027
 10
137.3308510888
 20
90.3657811042
 10
137.3900839079
 20
89.9716167344
 10
137.47327501
 20
89.5870940107
 10
137.5797413134
 20
89.2146028155
 10
137.7074335726
 20
88.8613127967
 10
137.8567629793
 20
88.5275959216
 10
138.0273183418
 20
88.2130802229
 10
138.2158168393
 20
87.9238194455
 10
138.4226060683
 20
87.660302831
 10
138.6473384323
 20
87.4220411378
 10
138.8856883205
 20
87.2136203869
 10
139.1379195335
 20
87.0356186607
 10
139.4037682708
 20
86.8874578767
 10
139.6781175207
 20
86.7719898087
 10
139.9611319563
 20
86.689847784
 10
140.2526469046
 20
86.6403984754
 10
140.547051335
 20
86.6245936748
 10
140.844401223
 20
86.6430851476
 10
141.1446405931
 20
86.6952211285
 10
141.4419904886
 20
86.7799981127
 10
141.7363949343
 20
86.8980484259
 10
142.0279099054
 20
87.0487397425
 10
142.3109243709
 20
87.2291715814
 10
142.585273658
 20
87.4399200798
 10
142.8511224396
 20
87.6804091006
 10
143.1033537031
 20
87.9460097516
 10
143.3417036483
 20
88.2372084985
 10
143.5664360754
 20
88.5535188757
 10
143.7732253727
 20
88.8888525944
 10
143.9617239435
 20
89.2435781772
 10
144.1322793845
 20
89.6173271014
 10
144.2816088732
 20
90.0029055109
 10
144.4093012179
 20
90.400542568
 10
144.5157676104
 20
90.8100091103
 10
144.5989588035
 20
91.223423795
 10
144.6581917148
 20
91.6381595078
 10
144.6941494266
 20
92.0568433629
 10
144.7068319391
 20
92.4794753604
  0
LINE
  5
278
100
AcDbEntity
  8
RACCORDO
100
AcDbLine
 62
253
  6
CONTINUOUS
 10
135.7685891312
 20
78.1591768243
 11
135.767225362
 21
78.4622397417
  0
LINE
  5
279
100
AcDbEntity
  8
RACCORDO
100
AcDbLine
 62
253
  6
CONTINUOUS
 10
137.1815292897
 20
79.6425493309
 11
137.1815363998
 21
94.6840193314
  0
LINE
  5
27A
100
AcDbEntity
  8
RACCORDO
100
AcDbLine
 62
253
  6
CONTINUOUS
 10
135.767225362
 20
78.4622397417
 11
135.7673227397
 21
96.0767477687
  0
LINE
  5
27B
100
AcDbEntity
  8
0
100
AcDbLine
 62
253
  6
CONTINUOUS
 10
88.2455361436
 20
62.703095526
 11
88.7347113074
 21
63.2010585438
  0
LINE
  5
27C
100
AcDbEntity
  8
0
100
AcDbLine
 62
253
  6
CONTINUOUS
 10
149.4957399309
 20
120.0090677837
 11
150.0669991336
 21
120.2384983336
  0
LINE
  5
27D
100
AcDbEntity
  8
0
100
AcDbLine
 62
253
  6
CONTINUOUS
 10
149.4957399309
 20
117.5516115216
 11
150.0669991336
 21
117.7810420715
  0
LINE
  5
27E
100
AcDbEntity
  8
RACCORDO
100
AcDbLine
 62
253
  6
CONTINUOUS
 10
136.4582403728
 20
78.2935892399
 11
136.8768123994
 21
78.3814062681
  0
LINE
  5
27F
100
AcDbEntity
  8
RACCORDO
100
AcDbLine
 62
253
  6
CONTINUOUS
 10
136.8768123994
 20
78.3814062681
 11
136.9642060492
 21
78.3992959366
  0
LINE
  5
280
100
AcDbEntity
  8
RACCORDO
100
AcDbLine
 62
253
  6
CONTINUOUS
 10
136.2811103769
 20
78.2574020419
 11
136.4582403728
 21
78.2935892399
  0
LINE
  5
281
100
AcDbEntity
  8
RACCORDO
100
AcDbLine
 62
253
  6
CONTINUOUS
 10
136.116627529
 20
78.2247531491
 11
136.2811103769
 21
78.2574020419
  0
LINE
  5
282
100
AcDbEntity
  8
RACCORDO
100
AcDbLine
 62
253
  6
CONTINUOUS
 10
136.9642060492
 20
78.3992959366
 11
137.0483100028
 21
78.4158408453
  0
LINE
  5
283
100
AcDbEntity
  8
RACCORDO
100
AcDbLine
 62
253
  6
CONTINUOUS
 10
136.0185241213
 20
78.2058390754
 11
136.116627529
 21
78.2247531491
  0
LINE
  5
284
100
AcDbEntity
  8
RACCORDO
100
AcDbLine
 62
253
  6
CONTINUOUS
 10
137.0483100028
 20
78.4158408453
 11
137.130179278
 21
78.4313064036
  0
LINE
  5
285
100
AcDbEntity
  8
RACCORDO
100
AcDbLine
 62
253
  6
CONTINUOUS
 10
135.8863923185
 20
78.1811836875
 11
136.0185241213
 21
78.2058390754
  0
LINE
  5
286
100
AcDbEntity
  8
RACCORDO
100
AcDbLine
 62
253
  6
CONTINUOUS
 10
137.130179278
 20
78.4313064036
 11
137.2140888154
 21
78.4466853848
  0
LINE
  5
287
100
AcDbEntity
  8
RACCORDO
100
AcDbLine
 62
253
  6
CONTINUOUS
 10
135.7654843851
 20
78.1591768242
 11
135.8863923185
 21
78.1811836875
  0
LINE
  5
288
100
AcDbEntity
  8
RACCORDO
100
AcDbLine
 62
253
  6
CONTINUOUS
 10
137.2140888154
 20
78.4466853848
 11
137.2990060536
 21
78.4618384968
  0
LINE
  5
289
100
AcDbEntity
  8
RACCORDO
100
AcDbLine
 62
253
  6
CONTINUOUS
 10
137.2990060536
 20
78.4618384968
 11
137.3848486887
 21
78.4767138395
  0
LINE
  5
28A
100
AcDbEntity
  8
RACCORDO
100
AcDbLine
 62
253
  6
CONTINUOUS
 10
175.6066353639
 20
78.4767153689
 11
175.6930858769
 21
78.4617330783
  0
LINE
  5
28B
100
AcDbEntity
  8
RACCORDO
100
AcDbLine
 62
253
  6
CONTINUOUS
 10
175.6930858769
 20
78.4617330783
 11
175.8206036796
 21
78.4388315149
  0
LINE
  5
28C
100
AcDbEntity
  8
RACCORDO
100
AcDbLine
 62
253
  6
CONTINUOUS
 10
177.1003993624
 20
78.1820392234
 11
177.2260010634
 21
78.1591787759
  0
LINE
  5
28D
100
AcDbEntity
  8
RACCORDO
100
AcDbLine
 62
253
  6
CONTINUOUS
 10
175.8206036796
 20
78.4388315149
 11
175.9035952079
 21
78.4233720834
  0
LINE
  5
28E
100
AcDbEntity
  8
RACCORDO
100
AcDbLine
 62
253
  6
CONTINUOUS
 10
176.9623720423
 20
78.2078575934
 11
177.1003993624
 21
78.1820392234
  0
LINE
  5
28F
100
AcDbEntity
  8
RACCORDO
100
AcDbLine
 62
253
  6
CONTINUOUS
 10
175.9035952079
 20
78.4233720834
 11
175.985755471
 21
78.4075548738
  0
LINE
  5
290
100
AcDbEntity
  8
RACCORDO
100
AcDbLine
 62
253
  6
CONTINUOUS
 10
176.8590912362
 20
78.2278375837
 11
176.9623720423
 21
78.2078575934
  0
LINE
  5
291
100
AcDbEntity
  8
RACCORDO
100
AcDbLine
 62
253
  6
CONTINUOUS
 10
176.6917964428
 20
78.2611558475
 11
176.8590912362
 21
78.2278375837
  0
LINE
  5
292
100
AcDbEntity
  8
RACCORDO
100
AcDbLine
 62
253
  6
CONTINUOUS
 10
175.985755471
 20
78.4075548738
 11
176.0710378361
 21
78.3904192154
  0
LINE
  5
293
100
AcDbEntity
  8
RACCORDO
100
AcDbLine
 62
253
  6
CONTINUOUS
 10
176.4654567406
 20
78.307652205
 11
176.6917964428
 21
78.2611558475
  0
LINE
  5
294
100
AcDbEntity
  8
RACCORDO
100
AcDbLine
 62
253
  6
CONTINUOUS
 10
176.0710378361
 20
78.3904192154
 11
176.4654567406
 21
78.307652205
  0
LWPOLYLINE
  5
295
100
AcDbEntity
  8
RACCORDO
100
AcDbPolyline
 62
253
  6
CONTINUOUS
 90
13
 70
0
 10
135.7673227397
 20
96.0767477687
 10
135.9096474834
 20
95.9899440416
 10
136.0508890498
 20
95.8950704177
 10
136.1899725052
 20
95.7928489425
 10
136.3258393405
 20
95.6840575833
 10
136.4574555269
 20
95.5695243079
 10
136.5838193857
 20
95.450120784
 10
136.7039692116
 20
95.3267557444
 10
136.8169905917
 20
95.2003680717
 10
136.9220233652
 20
95.0719196523
 10
137.018268169
 20
94.9423880565
 10
137.1049925222
 20
94.812759098
 10
137.1815363998
 20
94.6840193314
  0
LWPOLYLINE
  5
296
100
AcDbEntity
  8
RACCORDO
100
AcDbPolyline
 62
253
  6
CONTINUOUS
 90
10
 70
0
 10
144.8028485888
 20
88.4715140262
 10
144.8550245308
 20
88.3855643895
 10
144.9160572907
 20
88.2991165792
 10
144.9851215051
 20
88.2133396538
 10
145.0612831988
 20
88.1293935991
 10
145.1435124154
 20
88.0484136418
 10
145.2306971457
 20
87.971494897
 10
145.3216583656
 20
87.8996775588
 10
145.4151659804
 20
87.8339328338
 10
145.5099554599
 20
87.7751498066
  0
LWPOLYLINE
  5
297
100
AcDbEntity
  8
RACCORDO
100
AcDbPolyline
 62
253
  6
CONTINUOUS
 90
7
 70
0
 10
145.4917825907
 20
103.8894554779
 10
145.4975063922
 20
103.8333939022
 10
145.5021523168
 20
103.7780491016
 10
145.5057203646
 20
103.7234210759
 10
145.5082105356
 20
103.6695098252
 10
145.5096228297
 20
103.6163153496
 10
145.5099572471
 20
103.5638376489
  0
LWPOLYLINE
  5
298
100
AcDbEntity
  8
ASSI
100
AcDbPolyline
 62
7
  6
CONTINUOUS
 90
34
 70
0
 10
144.7068319391
 20
92.4794753604
 10
144.6941495225
 20
92.8977027875
 10
144.6581919046
 20
93.3038986859
 10
144.5989590855
 20
93.6980630557
 10
144.5157679834
 20
94.0825857795
 10
144.40930168
 20
94.4550769747
 10
144.2816094208
 20
94.8083669935
 10
144.1322800141
 20
95.1420838685
 10
143.9617246515
 20
95.4565995673
 10
143.7732261541
 20
95.7458603446
 10
143.5664369251
 20
96.0093769592
 10
143.3417045611
 20
96.2476386523
 10
143.1033546728
 20
96.4560594032
 10
142.8511234599
 20
96.6340611295
 10
142.5852747226
 20
96.7822219135
 10
142.3109254727
 20
96.8976899815
 10
142.0279110371
 20
96.9798320061
 10
141.7363960888
 20
97.0292813147
 10
141.4419916584
 20
97.0450861154
 10
141.1446417704
 20
97.0265946425
 10
140.8444024003
 20
96.9744586617
 10
140.5470525048
 20
96.8896816774
 10
140.2526480591
 20
96.7716313643
 10
139.961133088
 20
96.6209400477
 10
139.6781186225
 20
96.4405082087
 10
139.4037693353
 20
96.2297597103
 10
139.1379205538
 20
95.9892706896
 10
138.8856892903
 20
95.7236700385
 10
138.6473393451
 20
95.4324712916
 10
138.4226069179
 20
95.1161609144
 10
138.2158176207
 20
94.7808271957
 10
138.0273190498
 20
94.426101613
 10
137.8567636089
 20
94.0523526888
 10
137.7167804377
 20
93.6930304881
  0
LINE
  5
299
100
AcDbEntity
  8
RACCORDO
100
AcDbLine
 62
253
  6
CONTINUOUS
 10
144.8028503028
 20
103.5129773573
 11
144.8028485888
 21
88.4715140262
  0
LINE
  5
29A
100
AcDbEntity
  8
RACCORDO
100
AcDbLine
 62
253
  6
CONTINUOUS
 10
145.5099554599
 20
87.7751498066
 11
145.5099572471
 21
103.5638376489
  0
LWPOLYLINE
  5
29B
100
AcDbEntity
  8
RACCORDO
100
AcDbPolyline
 62
253
  6
CONTINUOUS
 90
7
 70
0
 10
144.8254523518
 20
103.7702757544
 10
144.8236107706
 20
103.7263122646
 10
144.8209730824
 20
103.6827769277
 10
144.8175587182
 20
103.6396732965
 10
144.813387155
 20
103.5970041856
 10
144.8084778707
 20
103.5547717154
 10
144.8028503028
 20
103.5129773573
  0
LWPOLYLINE
  5
29C
100
AcDbEntity
  8
ASSI
100
AcDbPolyline
 62
7
  6
CONTINUOUS
 90
7
 70
0
 10
137.7167804377
 20
93.6930304881
 10
137.5797417754
 20
93.2691372222
 10
137.4732753829
 20
92.8596706799
 10
137.3900841899
 20
92.4462559952
 10
137.3308512786
 20
92.0315202824
 10
137.2948935667
 20
91.6128364273
 10
137.2822110543
 20
91.1902044297
  0
LWPOLYLINE
  5
29D
100
AcDbEntity
  8
ASSI
100
AcDbPolyline
 62
7
  6
CONTINUOUS
 90
28
 70
0
 10
137.7592767687
 20
93.7814373895
 10
137.9249164553
 20
94.1333784682
 10
138.1133133305
 20
94.4689024124
 10
138.3194251838
 20
94.7790293369
 10
138.5437304028
 20
95.063073403
 10
138.7857506
 20
95.3217204494
 10
139.0390084028
 20
95.5480481063
 10
139.3038072792
 20
95.7411835989
 10
139.5798437614
 20
95.901999702
 10
139.8597300727
 20
96.0261923707
 10
140.1435701765
 20
96.1127726006
 10
140.4312601095
 20
96.1627293962
 10
140.7151002048
 20
96.1747257252
 10
140.9949864988
 20
96.1477364773
 10
141.2710229552
 20
96.0827867628
 10
141.5358217982
 20
95.981614881
 10
141.7890795594
 20
95.8432426635
 10
142.0310997072
 20
95.6686482786
 10
142.2554048703
 20
95.46250453
 10
142.4615166612
 20
95.2239594371
 10
142.6499134673
 20
94.9538649806
 10
142.8155530803
 20
94.6594499058
 10
142.9578209492
 20
94.3400574422
 10
143.0773316249
 20
93.9963443605
 10
143.1708865514
 20
93.6375097179
 10
143.2374195432
 20
93.266619867
 10
143.2779967857
 20
92.8806084553
 10
143.292618279
 20
92.4794754828
  0
LINE
  5
29E
100
AcDbEntity
  8
RACCORDO
100
AcDbLine
 62
253
  6
CONTINUOUS
 10
135.7673227397
 20
96.0767477687
 11
144.2673165649
 21
105.9236179615
  0
LWPOLYLINE
  5
29F
100
AcDbEntity
  8
ASSI
100
AcDbPolyline
 62
7
  6
CONTINUOUS
 90
8
 70
0
 10
157.495733479
 20
90.0376780605
 10
157.9102885488
 20
90.1265646557
 10
158.31303862
 20
90.2436668821
 10
158.7039836925
 20
90.3889847397
 10
159.0851984211
 20
90.5636313853
 10
159.4546081511
 20
90.7664936621
 10
159.8059889183
 20
90.9942320999
 10
160.1372660679
 20
91.2457335419
  0
LWPOLYLINE
  5
2A0
100
AcDbEntity
  8
ASSI
100
AcDbPolyline
 62
7
  6
CONTINUOUS
 90
8
 70
0
 10
157.4786935116
 20
89.3730626844
 10
157.9560258865
 20
89.4689445758
 10
158.426889184
 20
89.6036084174
 10
158.8883228712
 20
89.7759484854
 10
159.3314453499
 20
89.9826476077
 10
159.7559018931
 20
90.2243713922
 10
160.1620472277
 20
90.5004542311
 10
160.5420639362
 20
90.8055821287
  0
LWPOLYLINE
  5
2A1
100
AcDbEntity
  8
RACCORDO
100
AcDbPolyline
 62
253
  6
CONTINUOUS
 90
10
 70
0
 10
144.8028485888
 20
88.4715140262
 10
144.8671266464
 20
88.4817424446
 10
144.9363060375
 20
88.4909616008
 10
145.0098636062
 20
88.4991007285
 10
145.0872482806
 20
88.506097689
 10
145.1678678399
 20
88.5118978292
 10
145.2510911455
 20
88.5164553252
 10
145.3362778782
 20
88.5197353326
 10
145.42278556
 20
88.5217133295
 10
145.509955533
 20
88.5223743179
  0
LWPOLYLINE
  5
2A2
100
AcDbEntity
  8
ASSI
100
AcDbPolyline
 62
7
  6
CONTINUOUS
 90
7
 70
0
 10
157.4957333647
 20
89.5961851949
 10
157.3318628213
 20
89.5709664481
 10
157.1668742663
 20
89.5502955783
 10
157.0007676997
 20
89.5341725857
 10
156.8335431216
 20
89.5225974701
 10
156.665200532
 20
89.5155702316
 10
156.4957399309
 20
89.5130908701
  0
LWPOLYLINE
  5
2A3
100
AcDbEntity
  8
ASSI
100
AcDbPolyline
 62
7
  6
CONTINUOUS
 90
3
 70
0
 10
156.4957399309
 20
89.2943275804
 10
156.9919315264
 20
89.3148570192
 10
157.4786935116
 20
89.3730626844
  0
LWPOLYLINE
  5
2A4
100
AcDbEntity
  8
RACCORDO
100
AcDbPolyline
 62
253
  6
CONTINUOUS
 90
16
 70
0
 10
217.7707723226
 20
94.582299444
 10
217.9571806649
 20
94.5893734971
 10
218.1419646502
 20
94.5994122312
 10
218.3235140758
 20
94.6123281693
 10
218.5002469252
 20
94.6280087624
 10
218.6706231532
 20
94.6463173703
 10
218.8331581062
 20
94.6670944523
 10
218.9864354592
 20
94.6901589573
 10
219.1291195574
 20
94.7153099019
 10
219.2599670558
 20
94.7423281216
 10
219.3778377528
 20
94.7709781803
 10
219.4817045265
 20
94.8010104221
 10
219.5706622847
 20
94.8321631472
 10
219.643935852
 20
94.8641648914
 10
219.7008867246
 20
94.8967367923
 10
219.7410186342
 20
94.929595019
  0
LINE
  5
2A5
100
AcDbEntity
  8
RACCORDO
100
AcDbLine
 62
253
  6
CONTINUOUS
 10
145.5099554599
 20
87.7751498066
 11
167.4815268477
 21
87.7751481572
  0
LINE
  5
2A6
100
AcDbEntity
  8
RACCORDO
100
AcDbLine
 62
253
  6
CONTINUOUS
 10
145.509955533
 20
88.5223743179
 11
167.4815269208
 21
88.5223726684
  0
LWPOLYLINE
  5
2A7
100
AcDbEntity
  8
RACCORDO
100
AcDbPolyline
 62
253
  6
CONTINUOUS
 90
10
 70
0
 10
167.4815269208
 20
88.5223726684
 10
167.5686826224
 20
88.5217118768
 10
167.6551750162
 20
88.5197345482
 10
167.7403458436
 20
88.5164557314
 10
167.8235469036
 20
88.5119003801
 10
167.9041449867
 20
88.5061031632
 10
167.9815266932
 20
88.499108201
 10
168.0551031022
 20
88.4909687294
 10
168.1243142533
 20
88.4817466946
 10
168.1886334085
 20
88.4715122817
  0
LWPOLYLINE
  5
2A8
100
AcDbEntity
  8
ASSI
100
AcDbPolyline
 62
7
  6
CONTINUOUS
 90
7
 70
0
 10
156.4957399309
 20
89.5130908701
 10
156.3262770645
 20
89.5155703158
 10
156.1579322402
 20
89.522597758
 10
155.9907054581
 20
89.534173197
 10
155.8245967182
 20
89.5502966326
 10
155.6596060204
 20
89.5709680649
 10
155.4957333647
 20
89.5961874939
  0
LWPOLYLINE
  5
2A9
100
AcDbEntity
  8
ASSI
100
AcDbPolyline
 62
7
  6
CONTINUOUS
 90
3
 70
0
 10
155.5127863603
 20
89.3730627825
 10
155.9995483384
 20
89.3148570696
 10
156.4957399309
 20
89.2943275804
  0
LINE
  5
2AA
100
AcDbEntity
  8
ASSI
100
AcDbLine
 62
7
  6
CONTINUOUS
 10
155.0354539967
 20
89.4689447192
 11
155.5127863603
 21
89.3730627825
  0
LWPOLYLINE
  5
2AB
100
AcDbEntity
  8
ASSI
100
AcDbPolyline
 62
7
  6
CONTINUOUS
 90
10
 70
0
 10
155.4957333647
 20
90.5658192216
 10
155.1757847378
 20
90.6412429821
 10
154.8640736581
 20
90.7359940001
 10
154.5606001257
 20
90.8500722757
 10
154.2641424392
 20
90.9841279653
 10
153.9759223
 20
91.1375109125
 10
153.6996048125
 20
91.308270648
 10
153.4364116782
 20
91.4957570153
 10
153.1851211956
 20
91.7006201711
 10
152.9457333647
 20
91.9228601151
  0
LWPOLYLINE
  5
2AC
100
AcDbEntity
  8
0
100
AcDbPolyline
 62
7
  6
CONTINUOUS
 90
17
 70
0
 10
96.5346417221
 20
132.5169158219
 10
96.3832765671
 20
132.634671759
 10
96.2373897163
 20
132.7606021916
 10
96.0997485443
 20
132.8926143718
 10
95.970730316
 20
133.0303464633
 10
95.8506886615
 20
133.1734209522
 10
95.7399526065
 20
133.3214456813
 10
95.6388256709
 20
133.4740149249
 10
95.5475850365
 20
133.6307105014
 10
95.4664807877
 20
133.7911029192
 10
95.3957352254
 20
133.9547525537
 10
95.3355422585
 20
134.1212108527
 10
95.2860668716
 20
134.2900215655
 10
95.2474446733
 20
134.4607219938
 10
95.2197815244
 20
134.6328442596
 10
95.2031532476
 20
134.8059165875
 10
95.19760542
 20
134.9794645986
  0
LINE
  5
2AD
100
AcDbEntity
  8
0
100
AcDbLine
 62
253
  6
CONTINUOUS
 10
118.6855739003
 20
119.853564818
 11
119.2457399309
 21
119.3947037182
  0
LWPOLYLINE
  5
2AE
100
AcDbEntity
  8
ASSI
100
AcDbPolyline
 62
7
  6
CONTINUOUS
 90
9
 70
0
 10
152.540952147
 20
91.5221244081
 10
152.8541999183
 20
91.2457453204
 10
153.1854767929
 20
90.9942424178
 10
153.5368574273
 20
90.7665025323
 10
153.906267165
 20
90.563638832
 10
154.287482036
 20
90.3889908208
 10
154.6784273837
 20
90.2436716667
 10
155.0811778647
 20
90.1265682018
 10
155.495733479
 20
90.037680426
  0
LWPOLYLINE
  5
2AF
100
AcDbEntity
  8
ASSI
100
AcDbPolyline
 62
7
  6
CONTINUOUS
 90
8
 70
0
 10
152.0960342044
 20
91.1403181078
 10
152.4494160899
 20
90.8055824718
 10
152.8294327692
 20
90.5004545531
 10
153.2355780753
 20
90.2243716875
 10
153.6600345926
 20
89.9826478716
 10
154.1031570483
 20
89.775948713
 10
154.5645907153
 20
89.6036086042
 10
155.0354539967
 20
89.4689447192
  0
LINE
  5
2B0
100
AcDbEntity
  8
ASSI
100
AcDbLine
 62
7
  6
CONTINUOUS
 10
152.245733479
 20
91.8233796809
 11
152.540952147
 21
91.5221244081
  0
LWPOLYLINE
  5
2B1
100
AcDbEntity
  8
ASSI
100
AcDbPolyline
 62
7
  6
CONTINUOUS
 90
4
 70
0
 10
152.2457333647
 20
91.2642923442
 10
151.9450010628
 20
91.588706416
 10
151.671971465
 20
91.9301131261
 10
151.4266445713
 20
92.2885124747
  0
LWPOLYLINE
  5
2B2
100
AcDbEntity
  8
RACCORDO
100
AcDbPolyline
 62
253
  6
CONTINUOUS
 90
8
 70
0
 10
144.2673165649
 20
105.9236179615
 10
144.28962187
 20
105.8628219776
 10
144.3119479409
 20
105.8011059611
 10
144.3342493068
 20
105.7384988812
 10
144.3564500587
 20
105.6750183196
 10
144.3785358667
 20
105.6107076548
 10
144.4005534922
 20
105.5456336319
 10
144.4224645229
 20
105.4798073764
  0
LWPOLYLINE
  5
2B3
100
AcDbEntity
  8
RACCORDO
100
AcDbPolyline
 62
253
  6
CONTINUOUS
 90
3
 70
0
 10
144.4224645229
 20
105.4798073764
 10
144.4658373986
 20
105.3461709708
 10
144.4872835343
 20
105.2785123041
  0
LWPOLYLINE
  5
2B4
100
AcDbEntity
  8
RACCORDO
100
AcDbPolyline
 62
253
  6
CONTINUOUS
 90
3
 70
0
 10
144.4872835343
 20
105.2785123041
 10
144.5295333823
 20
105.1418025177
 10
144.5503086065
 20
105.0729547124
  0
LWPOLYLINE
  5
2B5
100
AcDbEntity
  8
RACCORDO
100
AcDbPolyline
 62
253
  6
CONTINUOUS
 90
3
 70
0
 10
144.5503086065
 20
105.0729547124
 10
144.5910429056
 20
104.934447223
 10
144.6109991721
 20
104.8648983158
  0
LWPOLYLINE
  5
2B6
100
AcDbEntity
  8
RACCORDO
100
AcDbPolyline
 62
253
  6
CONTINUOUS
 90
3
 70
0
 10
144.6109991721
 20
104.8648983158
 10
144.6499622631
 20
104.7254342313
 10
144.6689707113
 20
104.6556187973
  0
LWPOLYLINE
  5
2B7
100
AcDbEntity
  8
RACCORDO
100
AcDbPolyline
 62
253
  6
CONTINUOUS
 90
4
 70
0
 10
144.6689707113
 20
104.6556187973
 10
144.7058913269
 20
104.5161136194
 10
144.7238126067
 20
104.446602839
 10
144.7413049795
 20
104.3772901243
  0
LINE
  5
2B8
100
AcDbEntity
  8
RACCORDO
100
AcDbLine
 62
253
  6
CONTINUOUS
 10
144.7413049795
 20
104.3772901243
 11
144.7680939244
 21
104.2680221569
  0
LWPOLYLINE
  5
2B9
100
AcDbEntity
  8
RACCORDO
100
AcDbPolyline
 62
253
  6
CONTINUOUS
 90
3
 70
0
 10
144.7680939244
 20
104.2680221569
 10
144.7830166258
 20
104.2056824829
 10
144.7880423837
 20
104.184358236
  0
LWPOLYLINE
  5
2BA
100
AcDbEntity
  8
RACCORDO
100
AcDbPolyline
 62
253
  6
CONTINUOUS
 90
10
 70
0
 10
144.7880423837
 20
104.184358236
 10
144.7967327942
 20
104.1449001967
 10
144.8043730629
 20
104.1038379917
 10
144.8109389131
 20
104.0611786177
 10
144.8164356735
 20
104.0170003814
 10
144.8208077826
 20
103.9712414114
 10
144.8239357601
 20
103.923699636
 10
144.825758107
 20
103.8743149872
 10
144.8262743342
 20
103.8231694916
 10
144.8254523518
 20
103.7702757544
  0
LWPOLYLINE
  5
2BB
100
AcDbEntity
  8
0
100
AcDbPolyline
 62
7
  6
CONTINUOUS
 90
37
 70
0
 10
150.0669991336
 20
117.7810420715
 10
150.0929971559
 20
117.3163978577
 10
150.1660151662
 20
116.8620741146
 10
150.2860531643
 20
116.4180708423
 10
150.454732157
 20
115.9811823248
 10
150.6704311376
 20
115.5546142781
 10
150.9282870861
 20
115.1479838499
 10
151.229257645
 20
114.7617439455
 10
151.5723851718
 20
114.3954416595
 10
151.9499337187
 20
114.057335424
 10
152.3626851975
 20
113.7480657438
 10
152.8098576965
 20
113.466992114
 10
153.2813695323
 20
113.2204514524
 10
153.7777735999
 20
113.009228214
 10
154.2985170043
 20
112.8325379438
 10
154.8318593765
 20
112.6943641948
 10
155.3780869161
 20
112.5955819128
 10
155.9369134235
 20
112.5353161521
 10
156.4957399309
 20
112.5149256283
 10
157.0545664383
 20
112.5353161521
 10
157.6133929457
 20
112.5955819128
 10
158.1596204853
 20
112.6943641948
 10
158.6929628575
 20
112.8325379438
 10
159.2137062619
 20
113.009228214
 10
159.7101103296
 20
113.2204514524
 10
160.1816221653
 20
113.466992114
 10
160.6287946643
 20
113.7480657438
 10
161.0415461432
 20
114.057335424
 10
161.4190946901
 20
114.3954416595
 10
161.7622222168
 20
114.7617439455
 10
162.0631927757
 20
115.1479838499
 10
162.3210487242
 20
115.5546142781
 10
162.5367477048
 20
115.9811823248
 10
162.7054266975
 20
116.4180708423
 10
162.8254646957
 20
116.8620741146
 10
162.8984827059
 20
117.3163978577
 10
162.9244807282
 20
117.7810420715
  0
LWPOLYLINE
  5
2BC
100
AcDbEntity
  8
0
100
AcDbPolyline
 62
7
  6
CONTINUOUS
 90
40
 70
0
 10
148.9957399309
 20
117.5516115216
 10
149.0213623797
 20
117.0520276272
 10
149.0940078361
 20
116.5619378124
 10
149.2136763002
 20
116.0813420771
 10
149.3817478063
 20
115.6072596486
 10
149.59684232
 20
115.1426712996
 10
149.8548197385
 20
114.6965193484
 10
150.1565107946
 20
114.269160947
 10
150.5010847555
 20
113.8602389433
 10
150.8819093196
 20
113.477624199
 10
151.2996867382
 20
113.1218263416
 10
151.75371476
 20
112.7923357436
 10
152.2352543304
 20
112.4954943845
 10
152.7448384064
 20
112.2319347493
 10
153.281934031
 20
112.0010243529
 10
153.8362032781
 20
111.8072077197
 10
154.4079788373
 20
111.6512034347
 10
154.9969280191
 20
111.5322929129
 10
155.591714829
 20
111.4527649239
 10
156.1924523542
 20
111.413382391
 10
156.7990275076
 20
111.413382391
 10
157.3997650328
 20
111.4527649239
 10
157.9945518427
 20
111.5322929129
 10
158.5835010245
 20
111.6512034347
 10
159.1552765837
 20
111.8072077197
 10
159.7095458309
 20
112.0010243529
 10
160.2466414554
 20
112.2319347493
 10
160.7562255314
 20
112.4954943845
 10
161.2377651018
 20
112.7923357436
 10
161.6917931236
 20
113.1218263416
 10
162.1095705422
 20
113.477624199
 10
162.4903951064
 20
113.8602389433
 10
162.8349690672
 20
114.269160947
 10
163.1366601233
 20
114.6965193484
 10
163.3946375418
 20
115.1426712996
 10
163.6097320555
 20
115.6072596486
 10
163.7778035616
 20
116.0813420771
 10
163.8974720257
 20
116.5619378124
 10
163.9701174821
 20
117.0520276272
 10
163.9957399309
 20
117.5516115216
  0
LWPOLYLINE
  5
2BD
100
AcDbEntity
  8
0
100
AcDbPolyline
 62
7
  6
CONTINUOUS
 90
40
 70
0
 10
149.4957399309
 20
117.5516115216
 10
149.5196542164
 20
117.0853332202
 10
149.5874566424
 20
116.6279160596
 10
149.6991472089
 20
116.17936004
 10
149.8560139479
 20
115.7368831068
 10
150.0567688274
 20
115.3032673144
 10
150.2975477513
 20
114.8868588266
 10
150.5791260704
 20
114.4879909853
 10
150.9007284338
 20
114.1063304485
 10
151.2561646937
 20
113.7492233539
 10
151.6460902844
 20
113.4171453536
 10
152.0698497714
 20
113.1096207955
 10
152.5192867038
 20
112.8325688603
 10
152.9948985081
 20
112.5865798674
 10
153.4961877576
 20
112.3710634975
 10
154.0135057216
 20
112.1901679732
 10
154.5471629102
 20
112.0445639738
 10
155.0968488132
 20
111.9335808201
 10
155.6519831691
 20
111.8593546971
 10
156.212671526
 20
111.8225976664
 10
156.7788083358
 20
111.8225976664
 10
157.3394966927
 20
111.8593546971
 10
157.8946310486
 20
111.9335808201
 10
158.4443169516
 20
112.0445639738
 10
158.9779741402
 20
112.1901679732
 10
159.4952921042
 20
112.3710634975
 10
159.9965813538
 20
112.5865798674
 10
160.472193158
 20
112.8325688603
 10
160.9216300904
 20
113.1096207955
 10
161.3453895775
 20
113.4171453536
 10
161.7353151681
 20
113.7492233539
 10
162.090751428
 20
114.1063304485
 10
162.4123537915
 20
114.4879909853
 10
162.6939321105
 20
114.8868588266
 10
162.9347110344
 20
115.3032673144
 10
163.1354659139
 20
115.7368831068
 10
163.2923326529
 20
116.17936004
 10
163.4040232194
 20
116.6279160596
 10
163.4718256454
 20
117.0853332202
 10
163.4957399309
 20
117.5516115216
  0
LWPOLYLINE
  5
2BE
100
AcDbEntity
  8
0
100
AcDbPolyline
 62
7
  6
CONTINUOUS
 90
43
 70
0
 10
148.4355739003
 20
118.0104726215
 10
148.4591537432
 20
117.5125552675
 10
148.5265154734
 20
117.0228236431
 10
148.6376590909
 20
116.5412777482
 10
148.7936917089
 20
116.0653258285
 10
148.9935062141
 20
115.5975596384
 10
149.2337812672
 20
115.1457544406
 10
149.5151931552
 20
114.7101770189
 10
149.8370655909
 20
114.2905605896
 10
150.1940483743
 20
113.8938800647
 10
150.586728365
 20
113.5205188116
 10
151.0145187034
 20
113.170093463
 10
151.4703086096
 20
112.8484288289
 10
151.9545660887
 20
112.5560056368
 10
152.4668231357
 20
112.2923431592
 10
152.9985649557
 20
112.0618240238
 10
153.5501172311
 20
111.8650022125
 10
154.1211542795
 20
111.7013237434
 10
154.7021842579
 20
111.5735092987
 10
155.2933741956
 20
111.4821583357
 10
155.8945570632
 20
111.4266713971
 10
156.4957399309
 20
111.407970793
 10
157.0969227986
 20
111.4266713971
 10
157.6981056663
 20
111.4821583357
 10
158.2892956039
 20
111.5735092987
 10
158.8703255823
 20
111.7013237434
 10
159.4413626307
 20
111.8650022125
 10
159.9929149062
 20
112.0618240238
 10
160.5246567261
 20
112.2923431592
 10
161.0369137731
 20
112.5560056368
 10
161.5211712523
 20
112.8484288289
 10
161.9769611585
 20
113.170093463
 10
162.4047514968
 20
113.5205188116
 10
162.7974314875
 20
113.8938800647
 10
163.1544142709
 20
114.2905605896
 10
163.4762867067
 20
114.7101770189
 10
163.7576985946
 20
115.1457544406
 10
163.9979736477
 20
115.5975596384
 10
164.197788153
 20
116.0653258285
 10
164.3538207709
 20
116.5412777482
 10
164.4649643884
 20
117.0228236431
 10
164.5323261186
 20
117.5125552675
 10
164.5559059615
 20
118.0104726215
  0
LINE
  5
2BF
100
AcDbEntity
  8
0
100
AcDbLine
 62
7
  6
CONTINUOUS
 10
148.4355739003
 20
120.4679288836
 11
148.4355739003
 21
118.0104726215
  0
LINE
  5
2C0
100
AcDbEntity
  8
0
100
AcDbLine
 62
7
  6
CONTINUOUS
 10
148.9957399309
 20
120.0090677837
 11
148.9957399309
 21
117.5516115216
  0
LINE
  5
2C1
100
AcDbEntity
  8
0
100
AcDbLine
 62
7
  6
CONTINUOUS
 10
149.4957399309
 20
120.0090677837
 11
149.4957399309
 21
117.5516115216
  0
LINE
  5
2C2
100
AcDbEntity
  8
0
100
AcDbLine
 62
7
  6
CONTINUOUS
 10
150.0669991336
 20
120.2384983336
 11
150.0669991336
 21
117.7810420715
  0
LWPOLYLINE
  5
2C3
100
AcDbEntity
  8
ASSI
100
AcDbPolyline
 62
7
  6
CONTINUOUS
 90
11
 70
0
 10
150.5322052409
 20
95.1717041409
 10
150.5322052409
 20
95.6090431934
 10
150.5646727284
 20
96.0427723764
 10
150.6301503076
 20
96.4728060705
 10
150.7280953742
 20
96.8992298951
 10
150.8568801152
 20
97.3150809708
 10
151.017007583
 20
97.7201783011
 10
151.2079747251
 20
98.1147028824
 10
151.4266445713
 20
98.4922348242
 10
151.671971465
 20
98.850634163
 10
151.9450010628
 20
99.1920408623
  0
LINE
  5
2C4
100
AcDbEntity
  8
RACCORDO
100
AcDbLine
 62
253
  6
CONTINUOUS
 10
137.1815363998
 20
94.6840193314
 11
144.8028503028
 21
103.5129773573
  0
LINE
  5
2C5
100
AcDbEntity
  8
0
100
AcDbLine
 62
253
  6
CONTINUOUS
 10
164.5559059615
 20
120.4679288836
 11
163.9957399309
 21
120.0090677837
  0
LINE
  5
2C6
100
AcDbEntity
  8
0
100
AcDbLine
 62
253
  6
CONTINUOUS
 10
164.5559059615
 20
118.0104726215
 11
163.9957399309
 21
117.5516115216
  0
LWPOLYLINE
  5
2C7
100
AcDbEntity
  8
RACCORDO
100
AcDbPolyline
 62
253
  6
CONTINUOUS
 90
10
 70
0
 10
144.7880423837
 20
104.184358236
 10
144.8440438823
 20
104.2120217932
 10
144.9028660621
 20
104.2399206946
 10
144.9641906743
 20
104.2679039975
 10
145.0276859311
 20
104.2958203023
 10
145.0930083005
 20
104.3235185721
 10
145.1598043653
 20
104.3508489496
 10
145.2277127353
 20
104.3776635677
 10
145.2963660019
 20
104.4038173501
 10
145.3653927267
 20
104.4291687957
  0
LINE
  5
2C8
100
AcDbEntity
  8
0
100
AcDbLine
 62
253
  6
CONTINUOUS
 10
189.7457399309
 20
121.8521599803
 11
190.3169991336
 21
122.0815905302
  0
LWPOLYLINE
  5
2C9
100
AcDbEntity
  8
0
100
AcDbPolyline
 62
7
  6
CONTINUOUS
 90
21
 70
0
 10
210.7457399309
 20
96.5074755542
 10
211.2839600282
 20
96.5276828757
 10
211.8102254199
 20
96.5844371314
 10
212.324536106
 20
96.6777383214
 10
212.830605424
 20
96.8088463955
 10
213.3247200363
 20
96.9765014038
 10
213.7957399309
 20
97.1769234969
 10
214.2431404855
 20
97.4108570157
 10
214.6674463223
 20
97.6775576194
 10
215.0590912962
 20
97.9710124358
 10
215.417333479
 20
98.2918292167
 10
215.7429147987
 20
98.6394002104
 10
216.028494894
 20
99.0058892893
 10
216.2731650923
 20
99.3917261989
 10
216.4778340661
 20
99.7964811937
 10
216.6378874713
 20
100.21102891
 10
216.7523118154
 20
100.6355918004
 10
216.8221205909
 20
101.0699474124
 10
216.8457399309
 20
101.5043030244
 10
216.8221205909
 20
101.9386586363
 10
216.7523118154
 20
102.3730142483
  0
LWPOLYLINE
  5
2CA
100
AcDbEntity
  8
RACCORDO
100
AcDbPolyline
 62
253
  6
CONTINUOUS
 90
10
 70
0
 10
135.7673227397
 20
94.582299444
 10
135.9416626592
 20
94.5836213606
 10
136.1146779954
 20
94.5875772885
 10
136.2850514328
 20
94.5941372324
 10
136.451498016
 20
94.6032521489
 10
136.6127371075
 20
94.6148523498
 10
136.7675064304
 20
94.6288461881
 10
136.9146215435
 20
94.6451243581
 10
137.0529803038
 20
94.6635625831
 10
137.1815363998
 20
94.6840193314
  0
LINE
  5
2CB
100
AcDbEntity
  8
ASSI
100
AcDbLine
 62
7
  6
CONTINUOUS
 10
160.7457333647
 20
94.4055657041
 11
160.0457333647
 21
94.405565718
  0
LINE
  5
2CC
100
AcDbEntity
  8
ASSI
100
AcDbLine
 62
7
  6
CONTINUOUS
 10
152.9457333647
 20
94.4055658588
 11
152.2457333647
 21
94.4055658727
  0
LINE
  5
2CD
100
AcDbEntity
  8
RACCORDO
100
AcDbLine
 62
253
  6
CONTINUOUS
 10
95.2207075508
 20
94.582299444
 11
135.7673227397
 21
94.582299444
  0
LINE
  5
2CE
100
AcDbEntity
  8
RACCORDO
100
AcDbLine
 62
253
  6
CONTINUOUS
 10
177.2241633729
 20
94.582299444
 11
217.7707723104
 21
94.582299444
  0
LINE
  5
2CF
100
AcDbEntity
  8
RACCORDO
100
AcDbLine
 62
253
  6
CONTINUOUS
 10
95.220089612
 20
96.0767477687
 11
135.7673227397
 21
96.0767477687
  0
LINE
  5
2D0
100
AcDbEntity
  8
RACCORDO
100
AcDbLine
 62
253
  6
CONTINUOUS
 10
177.2241633729
 20
96.0767477687
 11
217.7713773283
 21
96.0767477687
  0
LINE
  5
2D1
100
AcDbEntity
  8
ASSI
100
AcDbLine
 62
7
  6
CONTINUOUS
 10
152.2457333647
 20
96.3751813936
 11
152.9457333647
 21
96.3751813798
  0
LINE
  5
2D2
100
AcDbEntity
  8
ASSI
100
AcDbLine
 62
7
  6
CONTINUOUS
 10
160.0457333647
 20
96.3751812389
 11
160.7457333647
 21
96.375181225
  0
LINE
  5
2D3
100
AcDbEntity
  8
ASSI
100
AcDbLine
 62
7
  6
CONTINUOUS
 10
152.245733479
 20
96.5488295291
 11
152.945733479
 21
96.5488295152
  0
LINE
  5
2D4
100
AcDbEntity
  8
ASSI
100
AcDbLine
 62
7
  6
CONTINUOUS
 10
160.045733479
 20
96.5488293743
 11
160.745733479
 21
96.5488293605
  0
LWPOLYLINE
  5
2D5
100
AcDbEntity
  8
RACCORDO
100
AcDbPolyline
 62
253
  6
CONTINUOUS
 90
10
 70
0
 10
177.2241633729
 20
94.582299444
 10
177.0498519435
 20
94.5836209609
 10
176.8768671285
 20
94.5875755476
 10
176.7065254459
 20
94.5941331074
 10
176.540123298
 20
94.6032437332
 10
176.3789271047
 20
94.6148380877
 10
176.2241636656
 20
94.628827931
 10
176.0770108232
 20
94.645106792
 10
175.9385884987
 20
94.6635507787
 10
175.809950169
 20
94.6840195215
  0
LWPOLYLINE
  5
2D6
100
AcDbEntity
  8
0
100
AcDbPolyline
 62
7
  6
CONTINUOUS
 90
37
 70
0
 10
102.2457399309
 20
97.6261296182
 10
101.984023608
 20
97.6308075255
 10
101.7228054766
 20
97.644832343
 10
101.4625827803
 20
97.6681773736
 10
101.2038508678
 20
97.7007981788
 10
100.9471022499
 20
97.742632663
 10
100.6928256627
 20
97.793601192
 10
100.4415051362
 20
97.853606744
 10
100.1936190732
 20
97.9225350953
 10
99.9496393388
 20
98.0002550368
 10
99.7100303624
 20
98.0866186241
 10
99.4752482534
 20
98.1814614593
 10
99.2457399326
 20
98.2846030036
 10
99.0219422824
 20
98.3958469212
 10
98.8042813143
 20
98.5149814531
 10
98.5931713583
 20
98.6417798198
 10
98.3890142741
 20
98.7760006534
 10
98.1921986864
 20
98.9173884571
 10
98.0030992449
 20
99.065674091
 10
97.822075911
 20
99.220575285
 10
97.6494732731
 20
99.381797176
 10
97.4856198899
 20
99.5490328687
 10
97.3308276658
 20
99.7219640208
 10
97.1853912566
 20
99.9002614477
 10
97.0495875087
 20
100.0835857503
 10
96.9236749323
 20
100.2715879604
 10
96.807893209
 20
100.4639102049
 10
96.7024627361
 20
100.6601863877
 10
96.6075842064
 20
100.8600428858
 10
96.5234382266
 20
101.0630992611
 10
96.4501849733
 20
101.2689689841
 10
96.3879638883
 20
101.4772601702
 10
96.3368934129
 20
101.6875763253
 10
96.2970707627
 20
101.8995171006
 10
96.2685717424
 20
102.1126790547
 10
96.2514506014
 20
102.3266564218
 10
96.2457399309
 20
102.5410418839
  0
LWPOLYLINE
  5
2D7
100
AcDbEntity
  8
0
100
AcDbPolyline
 62
7
  6
CONTINUOUS
 90
34
 70
0
 10
102.2457399309
 20
96.5893907586
 10
101.9591788412
 20
96.5950624386
 10
101.6745491647
 20
96.611738012
 10
101.3918509013
 20
96.6394174788
 10
101.1104533526
 20
96.6782132266
 10
100.8309872171
 20
96.7280128679
 10
100.5553445899
 20
96.7884792395
 10
100.2835514161
 20
96.8596847227
 10
100.0155817506
 20
96.9415569362
 10
99.7532498529
 20
97.0335415731
 10
99.4965939792
 20
97.1357072533
 10
99.2455758734
 20
97.247985357
 10
99.0018950262
 20
97.3696157173
 10
98.7656012261
 20
97.5006617959
 10
98.5366446846
 20
97.6410601312
 10
98.3165755272
 20
97.7898601716
 10
98.1054540611
 20
97.9471189284
 10
97.903219979
 20
98.1127793901
 10
97.7112424848
 20
98.2857199708
 10
97.5295911768
 20
98.4659900709
 10
97.3581964567
 20
98.6535402899
 10
97.1982187339
 20
98.8471008393
 10
97.0497354808
 20
99.0467125034
 10
96.9126692251
 20
99.252334498
 10
96.7879479588
 20
99.4625746816
 10
96.6756554515
 20
99.6774643919
 10
96.5757079337
 20
99.8969722912
 10
96.4887820892
 20
100.1196122251
 10
96.4149662793
 20
100.3454054467
 10
96.3541721428
 20
100.5743307029
 10
96.3068112796
 20
100.8048380801
 10
96.2729748442
 20
101.0369383142
 10
96.2525716821
 20
101.2706206693
 10
96.2457399309
 20
101.5043030244
  0
LWPOLYLINE
  5
2D8
100
AcDbEntity
  8
0
100
AcDbPolyline
 62
7
  6
CONTINUOUS
 90
34
 70
0
 10
210.7457399309
 20
96.5893907586
 10
210.4591788412
 20
96.5950624386
 10
210.1745491647
 20
96.611738012
 10
209.8918509013
 20
96.6394174788
 10
209.6104533526
 20
96.6782132266
 10
209.3309872171
 20
96.7280128679
 10
209.0553445899
 20
96.7884792395
 10
208.7835514161
 20
96.8596847227
 10
208.5155817506
 20
96.9415569362
 10
208.2532498529
 20
97.0335415731
 10
207.9965939792
 20
97.1357072533
 10
207.7455758734
 20
97.247985357
 10
207.5018950262
 20
97.3696157173
 10
207.2656012261
 20
97.5006617959
 10
207.0366446846
 20
97.6410601312
 10
206.8165755272
 20
97.7898601716
 10
206.6054540611
 20
97.9471189284
 10
206.403219979
 20
98.1127793901
 10
206.2112424848
 20
98.2857199708
 10
206.0295911768
 20
98.4659900709
 10
205.8581964567
 20
98.6535402899
 10
205.6982187339
 20
98.8471008393
 10
205.5497354808
 20
99.0467125034
 10
205.4126692251
 20
99.252334498
 10
205.2879479588
 20
99.4625746816
 10
205.1756554515
 20
99.6774643919
 10
205.0757079337
 20
99.8969722912
 10
204.9887820892
 20
100.1196122251
 10
204.9149662793
 20
100.3454054467
 10
204.8541721428
 20
100.5743307029
 10
204.8068112796
 20
100.8048380801
 10
204.7729748442
 20
101.0369383142
 10
204.7525716821
 20
101.2706206693
 10
204.7457399309
 20
101.5043030244
  0
LWPOLYLINE
  5
2D9
100
AcDbEntity
  8
RACCORDO
100
AcDbPolyline
 62
253
  6
CONTINUOUS
 90
16
 70
0
 10
95.2207075393
 20
94.582299444
 10
95.0347352665
 20
94.5868988907
 10
94.8496365348
 20
94.5973886859
 10
94.6674541106
 20
94.6122440825
 10
94.4904183272
 20
94.6285895629
 10
94.3200449659
 20
94.646148433
 10
94.1572626537
 20
94.6674022604
 10
94.0037688591
 20
94.6906770991
 10
93.8611281397
 20
94.7146669025
 10
93.7301527984
 20
94.7423173301
 10
93.6122533189
 20
94.7713988726
 10
93.5086198934
 20
94.8004590858
 10
93.419828069
 20
94.8329033891
 10
93.3467316521
 20
94.867915661
 10
93.2901643329
 20
94.9010190382
 10
93.2504612276
 20
94.929595019
  0
LWPOLYLINE
  5
2DA
100
AcDbEntity
  8
0
100
AcDbPolyline
 62
7
  6
CONTINUOUS
 90
21
 70
0
 10
102.2457399309
 20
96.5074755542
 10
101.7075198336
 20
96.5276828757
 10
101.1812544419
 20
96.5844371314
 10
100.6669437558
 20
96.6777383214
 10
100.1608744379
 20
96.8088463955
 10
99.6667598255
 20
96.9765014038
 10
99.1957399309
 20
97.1769234969
 10
98.7483393763
 20
97.4108570157
 10
98.3240335395
 20
97.6775576194
 10
97.9323885657
 20
97.9710124358
 10
97.5741463829
 20
98.2918292167
 10
97.2485650631
 20
98.6394002104
 10
96.9629849678
 20
99.0058892893
 10
96.7183147695
 20
99.3917261989
 10
96.5136457957
 20
99.7964811937
 10
96.3535923906
 20
100.21102891
 10
96.2391680464
 20
100.6355918004
 10
96.1693592709
 20
101.0699474124
 10
96.1457399309
 20
101.5043030244
 10
96.1693592709
 20
101.9386586363
 10
96.2391680464
 20
102.3730142483
  0
LINE
  5
2DB
100
AcDbEntity
  8
RACCORDO
100
AcDbLine
 62
253
  6
CONTINUOUS
 10
177.1969849754
 20
78.1803736798
 11
177.2229300249
 21
78.1597472868
  0
LWPOLYLINE
  5
2DC
100
AcDbEntity
  8
RACCORDO
100
AcDbPolyline
 62
253
  6
CONTINUOUS
 90
7
 70
0
 10
175.4852409234
 20
78.5716663461
 10
175.5047837871
 20
78.5556862401
 10
175.524602468
 20
78.5397681114
 10
175.5446969661
 20
78.5239119599
 10
175.5650672815
 20
78.5081177857
 10
175.5857134141
 20
78.4923855887
 10
175.6066353639
 20
78.4767153689
  0
LINE
  5
2DD
100
AcDbEntity
  8
0
100
AcDbLine
 62
253
  6
CONTINUOUS
 10
118.6855739003
 20
122.3110210801
 11
119.2457399309
 21
121.8521599803
  0
LWPOLYLINE
  5
2DE
100
AcDbEntity
  8
RACCORDO
100
AcDbPolyline
 62
253
  6
CONTINUOUS
 90
10
 70
0
 10
176.8691463885
 20
78.4540428538
 10
176.9072802907
 20
78.4205409936
 10
176.944467272
 20
78.3881956397
 10
176.9805198824
 20
78.3571858706
 10
177.0156172882
 20
78.3273639985
 10
177.0492832618
 20
78.299129736
 10
177.0812422064
 20
78.2726968837
 10
177.1117738441
 20
78.247831371
 10
177.1412330424
 20
78.2242466567
 10
177.1969849754
 20
78.1803736798
  0
LWPOLYLINE
  5
2DF
100
AcDbEntity
  8
RACCORDO
100
AcDbPolyline
 62
253
  6
CONTINUOUS
 90
10
 70
0
 10
175.3920397647
 20
78.6516561009
 10
175.4023500212
 20
78.6424864977
 10
175.412671947
 20
78.6333874697
 10
175.4230055422
 20
78.6243590169
 10
175.4333512233
 20
78.6154012887
 10
175.4437085737
 20
78.6065141356
 10
175.4540763439
 20
78.5976971097
 10
175.4644541173
 20
78.5889500614
 10
175.4748423105
 20
78.5802731402
 10
175.4852409234
 20
78.5716663461
  0
LWPOLYLINE
  5
2E0
100
AcDbEntity
  8
RACCORDO
100
AcDbPolyline
 62
253
  6
CONTINUOUS
 90
25
 70
0
 10
144.2673165649
 20
105.9236179615
 10
144.3145109181
 20
105.8733755383
 10
144.3615584676
 20
105.8221420287
 10
144.4084592133
 20
105.7699656828
 10
144.4552441267
 20
105.7169094015
 10
144.5018822363
 20
105.6630095074
 10
144.5482806275
 20
105.608273521
 10
144.5944522737
 20
105.5527343585
 10
144.6403842016
 20
105.4964581579
 10
144.6859445768
 20
105.4395017644
 10
144.731136486
 20
105.3819118754
 10
144.7759568426
 20
105.3237461294
 10
144.8202645521
 20
105.2650795762
 10
144.8640438481
 20
105.2059860676
 10
144.9073104971
 20
105.1465008029
 10
144.9499707042
 20
105.0866413464
 10
144.992024874
 20
105.0264624664
 10
145.033472602
 20
104.9660192382
 10
145.0742188786
 20
104.9053292898
 10
145.1142706332
 20
104.8444367515
 10
145.1536209366
 20
104.7834094286
 10
145.1921539915
 20
104.7223008374
 10
145.2298311988
 20
104.6611670496
 10
145.2666911578
 20
104.6000666464
 10
145.3027338683
 20
104.5390574601
  0
LWPOLYLINE
  5
2E1
100
AcDbEntity
  8
ASSI
100
AcDbPolyline
 62
7
  6
CONTINUOUS
 90
8
 70
0
 10
151.4266445713
 20
92.2885124747
 10
151.2079747251
 20
92.6660444252
 10
151.017007583
 20
93.0605690141
 10
150.8568801152
 20
93.4656663507
 10
150.7280953742
 20
93.8815174314
 10
150.6301503076
 20
94.3079412599
 10
150.5646727284
 20
94.7379749566
 10
150.5322052409
 20
95.1717041409
  0
LINE
  5
2E2
100
AcDbEntity
  8
RACCORDO
100
AcDbLine
 62
253
  6
CONTINUOUS
 10
145.3027338683
 20
104.5390574601
 11
145.3233417657
 21
104.5034607
  0
LINE
  5
2E3
100
AcDbEntity
  8
RACCORDO
100
AcDbLine
 62
253
  6
CONTINUOUS
 10
145.3233417657
 20
104.5034607
 11
145.3442280518
 21
104.4668238734
  0
LINE
  5
2E4
100
AcDbEntity
  8
RACCORDO
100
AcDbLine
 62
253
  6
CONTINUOUS
 10
145.3442280518
 20
104.4668238734
 11
145.3653927267
 21
104.4291687957
  0
LWPOLYLINE
  5
2E5
100
AcDbEntity
  8
ASSI
100
AcDbPolyline
 62
7
  6
CONTINUOUS
 90
5
 70
0
 10
150.9828427988
 20
92.7285532884
 10
151.2121852429
 20
92.2982163871
 10
151.4739552285
 20
91.8899225497
 10
151.7687809457
 20
91.5040987968
 10
152.0960342044
 20
91.1403181078
  0
LWPOLYLINE
  5
2E6
100
AcDbEntity
  8
RACCORDO
100
AcDbPolyline
 62
253
  6
CONTINUOUS
 90
10
 70
0
 10
145.3653927267
 20
104.4291687957
 10
145.3842427667
 20
104.3766244614
 10
145.401940216
 20
104.3222735456
 10
145.4184850747
 20
104.2661160483
 10
145.4339427958
 20
104.2082177983
 10
145.4482479262
 20
104.1485129667
 10
145.4612041069
 20
104.0868040676
 10
145.4727458847
 20
104.023025272
 10
145.4829387126
 20
103.9572424088
 10
145.4917825907
 20
103.8894554779
  0
LINE
  5
2E7
100
AcDbEntity
  8
ASSI
100
AcDbLine
 62
7
  6
CONTINUOUS
 10
152.2457333647
 20
99.5164549222
 11
152.2457333647
 21
96.3751813936
  0
LINE
  5
2E8
100
AcDbEntity
  8
ASSI
100
AcDbLine
 62
7
  6
CONTINUOUS
 10
152.2457333647
 20
94.4055658727
 11
152.2457333647
 21
91.2642923442
  0
LINE
  5
2E9
100
AcDbEntity
  8
ASSI
100
AcDbLine
 62
7
  6
CONTINUOUS
 10
152.9457333647
 20
91.9228601151
 11
152.9457333647
 21
94.4055658588
  0
LINE
  5
2EA
100
AcDbEntity
  8
ASSI
100
AcDbLine
 62
7
  6
CONTINUOUS
 10
152.945733479
 20
99.0315352589
 11
152.9457333647
 21
96.3751813798
  0
LINE
  5
2EB
100
AcDbEntity
  8
ASSI
100
AcDbLine
 62
7
  6
CONTINUOUS
 10
155.4957333647
 20
89.5961874939
 11
155.4957333647
 21
90.5658192216
  0
LINE
  5
2EC
100
AcDbEntity
  8
ASSI
100
AcDbLine
 62
7
  6
CONTINUOUS
 10
155.4957333647
 20
100.2149279158
 11
155.4957333647
 21
101.1845596435
  0
LWPOLYLINE
  5
2ED
100
AcDbEntity
  8
RACCORDO
100
AcDbPolyline
 62
253
  6
CONTINUOUS
 90
12
 70
0
 10
136.5131840626
 20
78.8066957366
 10
136.5397270002
 20
78.8414625604
 10
136.5665195033
 20
78.8757557776
 10
136.5935482322
 20
78.909578076
 10
136.6207904824
 20
78.9428914956
 10
136.6482405644
 20
78.9757392995
 10
136.6759091522
 20
79.0082462007
 10
136.7037849705
 20
79.0404556532
 10
136.731845535
 20
79.0723299017
 10
136.7600827974
 20
79.103872105
 10
136.788481066
 20
79.1350852456
 10
136.8170172803
 20
79.1659720314
  0
LWPOLYLINE
  5
2EE
100
AcDbEntity
  8
RACCORDO
100
AcDbPolyline
 62
253
  6
CONTINUOUS
 90
10
 70
0
 10
136.9887344342
 20
79.3627348734
 10
137.0118444357
 20
79.392634698
 10
137.0345243765
 20
79.4228398758
 10
137.0567751892
 20
79.4533484949
 10
137.0785908334
 20
79.4841631777
 10
137.0999800461
 20
79.5152775214
 10
137.1209654373
 20
79.5466762756
 10
137.1415548784
 20
79.5783533334
 10
137.1617423948
 20
79.6103115547
 10
137.1815292897
 20
79.6425493309
  0
LWPOLYLINE
  5
2EF
100
AcDbEntity
  8
RACCORDO
100
AcDbPolyline
 62
253
  6
CONTINUOUS
 90
9
 70
0
 10
136.9266019062
 20
79.2867436461
 10
136.933533697
 20
79.2949202427
 10
136.9404590701
 20
79.3031634241
 10
136.9473777632
 20
79.3114732074
 10
136.9542895239
 20
79.3198494833
 10
136.9611940747
 20
79.3282923945
 10
136.9680911136
 20
79.3368023354
 10
136.9749803607
 20
79.345379448
 10
136.9887344342
 20
79.3627348734
  0
LINE
  5
2F0
100
AcDbEntity
  8
RACCORDO
100
AcDbLine
 62
253
  6
CONTINUOUS
 10
137.1815292897
 20
79.6425493309
 11
144.8028485888
 21
88.4715140262
  0
LWPOLYLINE
  5
2F1
100
AcDbEntity
  8
ASSI
100
AcDbPolyline
 62
7
  6
CONTINUOUS
 90
16
 70
0
 10
152.0960342044
 20
99.4667810291
 10
151.7687809457
 20
99.103000353
 10
151.4739552285
 20
98.7171766119
 10
151.2121852429
 20
98.3088827848
 10
150.9828427988
 20
97.8785458926
 10
150.7903422402
 20
97.4344489867
 10
150.6353972724
 20
96.9763255065
 10
150.51729419
 20
96.5044420126
 10
150.4383062209
 20
96.0278812381
 10
150.3991911077
 20
95.5465525743
 10
150.3991911077
 20
95.0605466299
 10
150.4383062209
 20
94.5792179645
 10
150.51729419
 20
94.1026571869
 10
150.6353972724
 20
93.6307736883
 10
150.7903422402
 20
93.172650202
 10
150.9828427988
 20
92.7285532884
  0
LINE
  5
2F2
100
AcDbEntity
  8
ASSI
100
AcDbLine
 62
7
  6
CONTINUOUS
 10
151.9450010628
 20
99.1920408623
 11
152.2457333647
 21
99.5164549222
  0
LINE
  5
2F3
100
AcDbEntity
  8
ASSI
100
AcDbLine
 62
7
  6
CONTINUOUS
 10
152.540952147
 20
99.6059191175
 11
152.245733479
 21
99.3046638564
  0
LWPOLYLINE
  5
2F4
100
AcDbEntity
  8
ASSI
100
AcDbPolyline
 62
7
  6
CONTINUOUS
 90
9
 70
0
 10
152.945733479
 20
99.0315352589
 10
153.1851213099
 20
99.2537751935
 10
153.4364117925
 20
99.4586383392
 10
153.6996049268
 20
99.6461246962
 10
153.9759224143
 20
99.8168844207
 10
154.2641425535
 20
99.9702673564
 10
154.56060024
 20
100.1043230342
 10
154.8640737723
 20
100.2184012978
 10
155.175784852
 20
100.3131523035
  0
LWPOLYLINE
  5
2F5
100
AcDbEntity
  8
ASSI
100
AcDbPolyline
 62
7
  6
CONTINUOUS
 90
10
 70
0
 10
152.9457333647
 20
98.8578871235
 10
153.1851211956
 20
99.080127058
 10
153.4364116782
 20
99.2849902038
 10
153.6996048125
 20
99.4724765607
 10
153.9759223
 20
99.6432362852
 10
154.2641424392
 20
99.796619221
 10
154.5606001257
 20
99.9306748988
 10
154.8640736581
 20
100.0447531624
 10
155.1757847378
 20
100.139504168
 10
155.4957333647
 20
100.2149279158
  0
LINE
  5
2F6
100
AcDbEntity
  8
0
100
AcDbLine
 62
253
  6
CONTINUOUS
 10
189.7457399309
 20
119.3947037182
 11
190.3169991336
 21
119.6241342681
  0
LINE
  5
2F7
100
AcDbEntity
  8
ASSI
100
AcDbLine
 62
7
  6
CONTINUOUS
 10
155.175784852
 20
100.3131523035
 11
155.495733479
 21
100.3885760513
  0
LWPOLYLINE
  5
2F8
100
AcDbEntity
  8
ASSI
100
AcDbPolyline
 62
7
  6
CONTINUOUS
 90
9
 70
0
 10
155.495733479
 20
101.0903629823
 10
155.0811778647
 20
101.001475223
 10
154.6784273837
 20
100.884371774
 10
154.287482036
 20
100.7390526355
 10
153.906267165
 20
100.5644046394
 10
153.5368574273
 20
100.3615409537
 10
153.1854767929
 20
100.1338010822
 10
152.8541999183
 20
99.8822981927
 10
152.540952147
 20
99.6059191175
  0
LWPOLYLINE
  5
2F9
100
AcDbEntity
  8
ASSI
100
AcDbPolyline
 62
7
  6
CONTINUOUS
 90
9
 70
0
 10
155.5127863603
 20
101.2340362188
 10
155.0354539967
 20
101.138154301
 10
154.5645907153
 20
101.0034904347
 10
154.1031570483
 20
100.8311503442
 10
153.6600345926
 20
100.6244512032
 10
153.2355780753
 20
100.3827274042
 10
152.8294327692
 20
100.1066445546
 10
152.4494160899
 20
99.801516651
 10
152.0960342044
 20
99.4667810291
  0
LWPOLYLINE
  5
2FA
100
AcDbEntity
  8
ASSI
100
AcDbPolyline
 62
7
  6
CONTINUOUS
 90
7
 70
0
 10
155.4957333647
 20
101.1845596435
 10
155.6596060204
 20
101.209779066
 10
155.8245967182
 20
101.2304504918
 10
155.9907054581
 20
101.2465739208
 10
156.1579322402
 20
101.2581493531
 10
156.3262770645
 20
101.2651767887
 10
156.4957399309
 20
101.2676562276
  0
LWPOLYLINE
  5
2FB
100
AcDbEntity
  8
RACCORDO
100
AcDbPolyline
 62
253
  6
CONTINUOUS
 90
16
 70
0
 10
95.2207075393
 20
96.0767477687
 10
95.031334016
 20
96.0560210025
 10
94.843679236
 20
96.0250708545
 10
94.6594463435
 20
95.984178204
 10
94.4803074267
 20
95.9337141616
 10
94.3078883384
 20
95.8741367295
 10
94.1437539398
 20
95.8059866481
 10
93.9893939024
 20
95.7298824475
 10
93.8462091886
 20
95.6465148311
 10
93.7154993327
 20
95.5566404375
 10
93.5984506465
 20
95.4610749733
 10
93.4961254561
 20
95.3606857792
 10
93.4094524602
 20
95.2563839607
 10
93.339218296
 20
95.1491161595
 10
93.2860604002
 20
95.039855959
 10
93.2504612276
 20
94.929595019
  0
LWPOLYLINE
  5
2FC
100
AcDbEntity
  8
ASSI
100
AcDbPolyline
 62
7
  6
CONTINUOUS
 90
3
 70
0
 10
156.4957399309
 20
101.3127713819
 10
155.9995483384
 20
101.2922419124
 10
155.5127863603
 20
101.2340362188
  0
LWPOLYLINE
  5
2FD
100
AcDbEntity
  8
0
100
AcDbPolyline
 62
7
  6
CONTINUOUS
 90
21
 70
0
 10
102.2457399309
 20
96.5074755542
 10
102.7839600282
 20
96.5276828757
 10
103.3102254199
 20
96.5844371314
 10
103.824536106
 20
96.6777383214
 10
104.330605424
 20
96.8088463955
 10
104.8247200363
 20
96.9765014038
 10
105.2957399309
 20
97.1769234969
 10
105.7431404855
 20
97.4108570157
 10
106.1674463223
 20
97.6775576194
 10
106.5590912962
 20
97.9710124358
 10
106.917333479
 20
98.2918292167
 10
107.2429147987
 20
98.6394002104
 10
107.528494894
 20
99.0058892893
 10
107.7731650923
 20
99.3917261989
 10
107.9778340661
 20
99.7964811937
 10
108.1378874713
 20
100.21102891
 10
108.2523118154
 20
100.6355918004
 10
108.3221205909
 20
101.0699474124
 10
108.3457399309
 20
101.5043030244
 10
108.3221205909
 20
101.9386586363
 10
108.2523118154
 20
102.3730142483
  0
LWPOLYLINE
  5
2FE
100
AcDbEntity
  8
0
100
AcDbPolyline
 62
7
  6
CONTINUOUS
 90
43
 70
0
 10
102.2457399309
 20
96.5074755541
 10
102.7849694755
 20
96.5246106438
 10
103.315334122
 20
96.573561322
 10
103.8368338704
 20
96.6543275886
 10
104.3522755125
 20
96.7677139647
 10
104.8588522565
 20
96.9129159293
 10
105.3481437272
 20
97.0875199196
 10
105.8198610064
 20
97.2920173821
 10
106.2742930122
 20
97.5259168702
 10
106.703886125
 20
97.785330481
 10
107.1082251694
 20
98.0706846761
 10
107.4877253207
 20
98.3815529939
 10
107.836078484
 20
98.7127681469
 10
108.1527640464
 20
99.0646702269
 10
108.4383026208
 20
99.4369191422
 10
108.687947952
 20
99.8233273299
 10
108.9011000945
 20
100.2241314585
 10
109.0783589938
 20
100.6390948595
 10
109.2167782313
 20
101.0613199647
 10
109.3157086127
 20
101.4909281517
 10
109.3757993322
 20
101.9277980428
 10
109.3960515537
 20
102.3646679374
 10
109.3757993878
 20
102.8015378355
 10
109.3157087238
 20
103.2384077371
 10
109.2167783944
 20
103.6680159405
 10
109.0783592051
 20
104.0902410687
 10
108.9011003504
 20
104.5052044988
 10
108.687948246
 20
104.9060086607
 10
108.438302946
 20
105.2924168863
 10
108.1527643963
 20
105.6646658437
 10
107.8360788506
 20
106.0165679673
 10
107.4877256953
 20
106.3477831655
 10
107.1082255441
 20
106.65865153
 10
106.7038864915
 20
106.9440057702
 10
106.2742933622
 20
107.2034194246
 10
105.8198613315
 20
107.4373189548
 10
105.3481440212
 20
107.6418164552
 10
104.8588525124
 20
107.8164204788
 10
104.3522757238
 20
107.9616224725
 10
103.8368340336
 20
108.0750088716
 10
103.3153342344
 20
108.1557751546
 10
102.7849695335
 20
108.2047258429
 10
102.2457399309
 20
108.2218609366
  0
LWPOLYLINE
  5
2FF
100
AcDbEntity
  8
ASSI
100
AcDbPolyline
 62
7
  6
CONTINUOUS
 90
7
 70
0
 10
156.4957399309
 20
101.2676562276
 10
156.665200532
 20
101.2651768594
 10
156.8335431216
 20
101.2581496142
 10
157.0007676997
 20
101.246574492
 10
157.1668742663
 20
101.2304514928
 10
157.3318628213
 20
101.2097806165
 10
157.4957333647
 20
101.1845618631
  0
LWPOLYLINE
  5
300
100
AcDbEntity
  8
0
100
AcDbPolyline
 62
7
  6
CONTINUOUS
 90
37
 70
0
 10
210.7457399309
 20
97.6261296182
 10
210.484023608
 20
97.6308075255
 10
210.2228054766
 20
97.644832343
 10
209.9625827803
 20
97.6681773736
 10
209.7038508678
 20
97.7007981788
 10
209.4471022499
 20
97.742632663
 10
209.1928256627
 20
97.793601192
 10
208.9415051362
 20
97.853606744
 10
208.6936190732
 20
97.9225350953
 10
208.4496393388
 20
98.0002550368
 10
208.2100303624
 20
98.0866186241
 10
207.9752482534
 20
98.1814614593
 10
207.7457399326
 20
98.2846030036
 10
207.5219422824
 20
98.3958469212
 10
207.3042813143
 20
98.5149814531
 10
207.0931713583
 20
98.6417798198
 10
206.8890142741
 20
98.7760006534
 10
206.6921986864
 20
98.9173884571
 10
206.5030992449
 20
99.065674091
 10
206.322075911
 20
99.220575285
 10
206.1494732731
 20
99.381797176
 10
205.9856198899
 20
99.5490328687
 10
205.8308276658
 20
99.7219640208
 10
205.6853912566
 20
99.9002614477
 10
205.5495875087
 20
100.0835857503
 10
205.4236749323
 20
100.2715879604
 10
205.307893209
 20
100.4639102049
 10
205.2024627361
 20
100.6601863877
 10
205.1075842064
 20
100.8600428858
 10
205.0234382266
 20
101.0630992611
 10
204.9501849733
 20
101.2689689841
 10
204.8879638883
 20
101.4772601702
 10
204.8368934129
 20
101.6875763253
 10
204.7970707627
 20
101.8995171006
 10
204.7685717424
 20
102.1126790547
 10
204.7514506014
 20
102.3266564218
 10
204.7457399309
 20
102.5410418839
  0
LWPOLYLINE
  5
301
100
AcDbEntity
  8
0
100
AcDbPolyline
 62
7
  6
CONTINUOUS
 90
43
 70
0
 10
210.7457399309
 20
96.5074755541
 10
210.2065103863
 20
96.5246106438
 10
209.6761457398
 20
96.573561322
 10
209.1546459914
 20
96.6543275886
 10
208.6392043493
 20
96.7677139647
 10
208.1326276053
 20
96.9129159293
 10
207.6433361346
 20
97.0875199196
 10
207.1716188555
 20
97.2920173821
 10
206.7171868496
 20
97.5259168702
 10
206.2875937369
 20
97.785330481
 10
205.8832546924
 20
98.0706846761
 10
205.5037545412
 20
98.3815529939
 10
205.1554013778
 20
98.7127681469
 10
204.8387158155
 20
99.0646702269
 10
204.5531772411
 20
99.4369191422
 10
204.3035319098
 20
99.8233273299
 10
204.0903797673
 20
100.2241314585
 10
203.913120868
 20
100.6390948595
 10
203.7747016306
 20
101.0613199647
 10
203.6757712492
 20
101.4909281517
 10
203.6156805296
 20
101.9277980428
 10
203.5954283081
 20
102.3646679374
 10
203.6156804741
 20
102.8015378355
 10
203.675771138
 20
103.2384077371
 10
203.7747014674
 20
103.6680159405
 10
203.9131206567
 20
104.0902410687
 10
204.0903795114
 20
104.5052044988
 10
204.3035316158
 20
104.9060086607
 10
204.5531769159
 20
105.2924168863
 10
204.8387154656
 20
105.6646658437
 10
205.1554010112
 20
106.0165679673
 10
205.5037541665
 20
106.3477831655
 10
205.8832543178
 20
106.65865153
 10
206.2875933703
 20
106.9440057702
 10
206.7171864997
 20
107.2034194246
 10
207.1716185303
 20
107.4373189548
 10
207.6433358406
 20
107.6418164552
 10
208.1326273495
 20
107.8164204788
 10
208.639204138
 20
107.9616224725
 10
209.1546458282
 20
108.0750088716
 10
209.6761456275
 20
108.1557751546
 10
210.2065103284
 20
108.2047258429
 10
210.7457399309
 20
108.2218609366
  0
LWPOLYLINE
  5
302
100
AcDbEntity
  8
0
100
AcDbPolyline
 62
7
  6
CONTINUOUS
 90
21
 70
0
 10
210.7457399309
 20
96.5074755542
 10
210.2075198336
 20
96.5276828757
 10
209.6812544419
 20
96.5844371314
 10
209.1669437558
 20
96.6777383214
 10
208.6608744379
 20
96.8088463955
 10
208.1667598255
 20
96.9765014038
 10
207.6957399309
 20
97.1769234969
 10
207.2483393763
 20
97.4108570157
 10
206.8240335395
 20
97.6775576194
 10
206.4323885657
 20
97.9710124358
 10
206.0741463829
 20
98.2918292167
 10
205.7485650631
 20
98.6394002104
 10
205.4629849678
 20
99.0058892893
 10
205.2183147695
 20
99.3917261989
 10
205.0136457957
 20
99.7964811937
 10
204.8535923906
 20
100.21102891
 10
204.7391680464
 20
100.6355918004
 10
204.6693592709
 20
101.0699474124
 10
204.6457399309
 20
101.5043030244
 10
204.6693592709
 20
101.9386586363
 10
204.7391680464
 20
102.3730142483
  0
LWPOLYLINE
  5
303
100
AcDbEntity
  8
RACCORDO
100
AcDbPolyline
 62
253
  6
CONTINUOUS
 90
16
 70
0
 10
217.7707723226
 20
96.0767477687
 10
217.959769322
 20
96.0583485777
 10
218.1476765216
 20
96.0269811203
 10
218.3324140495
 20
95.9842123594
 10
218.511808362
 20
95.9330321625
 10
218.6842683434
 20
95.8740980398
 10
218.8486256058
 20
95.8054193027
 10
219.0031966333
 20
95.728964055
 10
219.1464215268
 20
95.6465667368
 10
219.2772263678
 20
95.5559971221
 10
219.3942840424
 20
95.4598953271
 10
219.4964545457
 20
95.3603645374
 10
219.5828866778
 20
95.2548813467
 10
219.6527456433
 20
95.1448626265
 10
219.705500904
 20
95.0353183841
 10
219.7410186342
 20
94.929595019
  0
LWPOLYLINE
  5
304
100
AcDbEntity
  8
ASSI
100
AcDbPolyline
 62
7
  6
CONTINUOUS
 90
3
 70
0
 10
157.4786935116
 20
101.2340362389
 10
156.9919315264
 20
101.2922419234
 10
156.4957399309
 20
101.3127713819
  0
LINE
  5
305
100
AcDbEntity
  8
ASSI
100
AcDbLine
 62
7
  6
CONTINUOUS
 10
157.9560258865
 20
101.1381543286
 11
157.4786935116
 21
101.2340362389
  0
LWPOLYLINE
  5
306
100
AcDbEntity
  8
ASSI
100
AcDbPolyline
 62
7
  6
CONTINUOUS
 90
10
 70
0
 10
157.4957333647
 20
100.2149278762
 10
157.8156816754
 20
100.1395050677
 10
158.1273925158
 20
100.0447550305
 10
158.430865886
 20
99.9306777647
 10
158.7273234848
 20
99.7966231197
 10
159.0155436134
 20
99.6432412461
 10
159.2918611753
 20
99.4724825952
 10
159.5550544718
 20
99.2849973175
 10
159.8063452016
 20
99.0801352626
 10
160.0457333647
 20
98.8578964304
  0
LWPOLYLINE
  5
307
100
AcDbEntity
  8
ASSI
100
AcDbPolyline
 62
7
  6
CONTINUOUS
 90
10
 70
0
 10
157.495733479
 20
100.3885760116
 10
157.8156817896
 20
100.3131532031
 10
158.12739263
 20
100.218403166
 10
158.4308660002
 20
100.1043259002
 10
158.7273235991
 20
99.9702712552
 10
159.0155437277
 20
99.8168893815
 10
159.2918612896
 20
99.6461307306
 10
159.555054586
 20
99.458645453
 10
159.8063453158
 20
99.253783398
 10
160.045733479
 20
99.0315445658
  0
LWPOLYLINE
  5
308
100
AcDbEntity
  8
0
100
AcDbPolyline
 62
7
  6
CONTINUOUS
 90
21
 70
0
 10
103.2635103948
 20
138.6297519372
 10
103.2992811754
 20
138.6031182159
 10
103.488380617
 20
138.4548325742
 10
103.6694039508
 20
138.299931372
 10
103.8420065888
 20
138.1387094726
 10
104.0058599719
 20
137.971473771
 10
104.160652196
 20
137.7985426099
 10
104.3060886052
 20
137.6202451736
 10
104.4418923531
 20
137.4369208614
 10
104.5678049296
 20
137.2489186414
 10
104.6835866528
 20
137.0565963868
 10
104.7890171257
 20
136.8603201937
 10
104.8838956554
 20
136.660463685
 10
104.9680416352
 20
136.4574072991
 10
105.0412948885
 20
136.2515375652
 10
105.1035159735
 20
136.0432463682
 10
105.1545864489
 20
135.832930202
 10
105.1944090991
 20
135.6209894156
 10
105.2229081194
 20
135.4078274503
 10
105.2400292604
 20
135.1938500719
 10
105.2457399309
 20
134.9794645986
  0
LINE
  5
309
100
AcDbEntity
  8
RACCORDO
100
AcDbLine
 62
253
  6
CONTINUOUS
 10
176.7932691627
 20
78.5215099935
 11
176.8691463885
 21
78.4540428538
  0
LINE
  5
30A
100
AcDbEntity
  8
RACCORDO
100
AcDbLine
 62
253
  6
CONTINUOUS
 10
176.5523604604
 20
78.7385563073
 11
176.7932691627
 21
78.5215099935
  0
LINE
  5
30B
100
AcDbEntity
  8
RACCORDO
100
AcDbLine
 62
253
  6
CONTINUOUS
 10
176.4776386065
 20
78.8067546492
 11
176.5523604604
 21
78.7385563073
  0
LWPOLYLINE
  5
30C
100
AcDbEntity
  8
ASSI
100
AcDbPolyline
 62
7
  6
CONTINUOUS
 90
8
 70
0
 10
160.8954458514
 20
99.4667810381
 10
160.5420639362
 20
99.8015166731
 10
160.1620472277
 20
100.1066445858
 10
159.7559018931
 20
100.3827274407
 10
159.3314453499
 20
100.6244512421
 10
158.8883228712
 20
100.831150382
 10
158.426889184
 20
101.0034904682
 10
157.9560258865
 20
101.1381543286
  0
LWPOLYLINE
  5
30D
100
AcDbEntity
  8
ASSI
100
AcDbPolyline
 62
7
  6
CONTINUOUS
 90
10
 70
0
 10
160.745733479
 20
99.3046782911
 10
160.4505142548
 20
99.6059320668
 10
160.1372660679
 20
99.8823096822
 10
159.8059889183
 20
100.1338111374
 10
159.4546081511
 20
100.3615495891
 10
159.0851984211
 20
100.5644118806
 10
158.7039836925
 20
100.7390585413
 10
158.31303862
 20
100.8843764144
 10
157.9102885488
 20
101.0014786568
 10
157.495733479
 20
101.0903652685
  0
LWPOLYLINE
  5
30E
100
AcDbEntity
  8
RACCORDO
100
AcDbPolyline
 62
253
  6
CONTINUOUS
 90
12
 70
0
 10
176.1746949542
 20
79.1657279482
 10
176.2034236582
 20
79.1346315701
 10
176.2319768715
 20
79.1032444257
 10
176.2603305042
 20
79.0715592197
 10
176.2884672808
 20
79.0395768426
 10
176.3163769825
 20
79.0073064607
 10
176.3440378321
 20
78.9747782534
 10
176.3714358135
 20
78.9419556472
 10
176.3985742347
 20
78.9087478885
 10
176.425444299
 20
78.8751227554
 10
176.4520246072
 20
78.8411063888
 10
176.4783010722
 20
78.8066957304
  0
LWPOLYLINE
  5
30F
100
AcDbEntity
  8
RACCORDO
100
AcDbPolyline
 62
253
  6
CONTINUOUS
 90
10
 70
0
 10
175.1028477651
 20
78.9461864498
 10
175.1323474671
 20
78.9124440294
 10
175.1624939994
 20
78.878949836
 10
175.1932873619
 20
78.8457038697
 10
175.2247124141
 20
78.8126981577
 10
175.2567842965
 20
78.7799406728
 10
175.2895484307
 20
78.7474553329
 10
175.323019957
 20
78.7152501106
 10
175.357183735
 20
78.6833170332
 10
175.3920397647
 20
78.6516561009
  0
LINE
  5
310
100
AcDbEntity
  8
RACCORDO
100
AcDbLine
 62
253
  6
CONTINUOUS
 10
167.4815268477
 20
87.7751481572
 11
175.1028477651
 21
78.9461864498
  0
LINE
  5
311
100
AcDbEntity
  8
RACCORDO
100
AcDbLine
 62
253
  6
CONTINUOUS
 10
168.1886334085
 20
88.4715122817
 11
175.8099543259
 21
79.6425505744
  0
LWPOLYLINE
  5
312
100
AcDbEntity
  8
RACCORDO
100
AcDbPolyline
 62
253
  6
CONTINUOUS
 90
7
 70
0
 10
176.0648831274
 20
79.2867434364
 10
176.0779145992
 20
79.2715612713
 10
176.091127548
 20
79.2564374403
 10
176.1045229309
 20
79.2413724999
 10
176.1181016728
 20
79.2263670141
 10
176.1318646644
 20
79.2114215545
 10
176.1746949542
 20
79.1657279482
  0
LINE
  5
313
100
AcDbEntity
  8
ASSI
100
AcDbLine
 62
7
  6
CONTINUOUS
 10
157.4957333647
 20
101.1845618631
 11
157.4957333647
 21
100.2149278762
  0
LINE
  5
314
100
AcDbEntity
  8
ASSI
100
AcDbLine
 62
7
  6
CONTINUOUS
 10
157.4957333647
 20
90.5658191819
 11
157.4957333647
 21
89.5961851949
  0
LINE
  5
315
100
AcDbEntity
  8
ASSI
100
AcDbLine
 62
7
  6
CONTINUOUS
 10
160.0457333647
 20
94.405565718
 11
160.0457333647
 21
91.9228505265
  0
LINE
  5
316
100
AcDbEntity
  8
ASSI
100
AcDbLine
 62
7
  6
CONTINUOUS
 10
160.045733479
 20
99.0315445658
 11
160.0457333647
 21
96.3751812389
  0
LINE
  5
317
100
AcDbEntity
  8
ASSI
100
AcDbLine
 62
7
  6
CONTINUOUS
 10
160.7457333647
 20
91.2642786917
 11
160.7457333647
 21
94.4055657041
  0
LINE
  5
318
100
AcDbEntity
  8
ASSI
100
AcDbLine
 62
7
  6
CONTINUOUS
 10
160.7457333647
 20
96.375181225
 11
160.7457333647
 21
99.5164682374
  0
LINE
  5
319
100
AcDbEntity
  8
RACCORDO
100
AcDbLine
 62
253
  6
CONTINUOUS
 10
137.8886361609
 20
78.9461851113
 11
145.5099554599
 21
87.7751498066
  0
LWPOLYLINE
  5
31A
100
AcDbEntity
  8
RACCORDO
100
AcDbPolyline
 62
253
  6
CONTINUOUS
 90
10
 70
0
 10
136.8170172803
 20
79.1659720314
 10
136.8549183873
 20
79.2063698268
 10
136.8641021077
 20
79.2162527889
 10
136.8732221287
 20
79.2261840071
 10
136.8822787541
 20
79.2361646372
 10
136.8912718055
 20
79.2461932869
 10
136.9002006306
 20
79.2562660138
 10
136.9090650739
 20
79.2663814239
 10
136.9178654675
 20
79.2765406738
 10
136.9266019062
 20
79.2867436461
  0
LINE
  5
31B
100
AcDbEntity
  8
RACCORDO
100
AcDbLine
 62
253
  6
CONTINUOUS
 10
136.4462966519
 20
78.7450664978
 11
136.5138465264
 21
78.8067546553
  0
LWPOLYLINE
  5
31C
100
AcDbEntity
  8
RACCORDO
100
AcDbPolyline
 62
253
  6
CONTINUOUS
 90
10
 70
0
 10
137.5994439366
 20
78.6516543913
 10
137.6341062464
 20
78.6831299993
 10
137.6681267367
 20
78.7149230629
 10
137.7015054075
 20
78.7470335819
 10
137.7342297794
 20
78.7794681546
 10
137.7663123318
 20
78.8122201827
 10
137.7977905024
 20
78.8452698719
 10
137.8286767704
 20
78.878610624
 10
137.8589586566
 20
78.9122490371
 10
137.8886361609
 20
78.9461851113
  0
LINE
  5
31D
100
AcDbEntity
  8
RACCORDO
100
AcDbLine
 62
253
  6
CONTINUOUS
 10
136.2281665881
 20
78.5483720042
 11
136.4462966519
 21
78.7450664978
  0
LINE
  5
31E
100
AcDbEntity
  8
RACCORDO
100
AcDbLine
 62
253
  6
CONTINUOUS
 10
136.1490088309
 20
78.4776474234
 11
136.2281665881
 21
78.5483720042
  0
LWPOLYLINE
  5
31F
100
AcDbEntity
  8
0
100
AcDbPolyline
 62
7
  6
CONTINUOUS
 90
33
 70
0
 10
209.7279410782
 20
138.6297309701
 10
209.7640216456
 20
138.656169574
 10
209.9839757281
 20
138.8086852212
 10
210.2117528542
 20
138.9521632928
 10
210.4464778288
 20
139.0861408012
 10
210.6880549573
 20
139.2106410919
 10
210.9359679597
 20
139.3254358609
 10
211.1896803437
 20
139.4303120248
 10
211.4487396217
 20
139.5251095714
 10
211.7127462863
 20
139.6096910935
 10
211.9814246054
 20
139.6839476357
 10
212.2540408629
 20
139.7476486766
 10
212.5294780172
 20
139.800549945
 10
212.8070096216
 20
139.842568744
 10
213.0862767486
 20
139.8736993902
 10
213.366688122
 20
139.8939087189
 10
213.6477017497
 20
139.903185878
 10
213.9287802438
 20
139.9015338383
 10
214.2093383999
 20
139.8889720244
 10
214.4888389653
 20
139.8655360079
 10
214.7667505132
 20
139.8312745398
 10
215.0425015878
 20
139.7862572624
 10
215.3157673762
 20
139.7305190721
 10
215.5858177221
 20
139.6641831149
 10
215.8515052982
 20
139.5875508058
 10
216.1120517443
 20
139.5009197088
 10
216.3672867848
 20
139.4044133983
 10
216.6170032845
 20
139.298132629
 10
216.8608259414
 20
139.1822269322
 10
217.0981928202
 20
139.0569457382
 10
217.328617535
 20
138.9225305385
 10
217.5520258457
 20
138.7789710821
 10
217.7635103948
 20
138.6297519372
  0
LWPOLYLINE
  5
320
100
AcDbEntity
  8
RACCORDO
100
AcDbPolyline
 62
253
  6
CONTINUOUS
 90
10
 70
0
 10
144.8028503028
 20
103.5129773573
 10
144.8671694858
 20
103.5232117683
 10
144.9363806733
 20
103.5324337992
 10
145.0099571259
 20
103.5405732647
 10
145.0873388823
 20
103.5475682185
 10
145.1679370203
 20
103.5533654247
 10
145.2511381391
 20
103.5579207632
 10
145.3363090276
 20
103.561199565
 10
145.4228014836
 20
103.5631768764
 10
145.5099572471
 20
103.5638376489
  0
LINE
  5
321
100
AcDbEntity
  8
RACCORDO
100
AcDbLine
 62
253
  6
CONTINUOUS
 10
145.3653927267
 20
104.4291687957
 11
167.6260926028
 21
104.4291658496
  0
LINE
  5
322
100
AcDbEntity
  8
RACCORDO
100
AcDbLine
 62
253
  6
CONTINUOUS
 10
144.2673165649
 20
105.9236179615
 11
168.7241685006
 21
105.9236147248
  0
LWPOLYLINE
  5
323
100
AcDbEntity
  8
RACCORDO
100
AcDbPolyline
 62
253
  6
CONTINUOUS
 90
10
 70
0
 10
167.48152816
 20
103.5638358191
 10
167.5686838461
 20
103.5631750276
 10
167.6551762299
 20
103.5611976996
 10
167.7403470527
 20
103.5579188834
 10
167.8235481152
 20
103.5533635324
 10
167.9041462055
 20
103.5475663155
 10
167.9815279189
 20
103.540571353
 10
168.0551043329
 20
103.5324318811
 10
168.1243154886
 20
103.5232098458
 10
168.1886346477
 20
103.5129754324
  0
LWPOLYLINE
  5
324
100
AcDbEntity
  8
RACCORDO
100
AcDbPolyline
 62
253
  6
CONTINUOUS
 90
10
 70
0
 10
167.6260926028
 20
104.4291658496
 10
167.6951192889
 20
104.4038144129
 10
167.7637725163
 20
104.3776606403
 10
167.8316808472
 20
104.3508460328
 10
167.8984768737
 20
104.3235156667
 10
167.9637992061
 20
104.2958174088
 10
168.0272944278
 20
104.2679011161
 10
168.0886190075
 20
104.2399178254
 10
168.1474411578
 20
104.212018936
 10
168.2034426304
 20
104.1843553906
  0
LINE
  5
325
100
AcDbEntity
  8
0
100
AcDbLine
 62
253
  6
CONTINUOUS
 10
123.2457399309
 20
119.3947037182
 11
122.6744807282
 21
119.6241342681
  0
LINE
  5
326
100
AcDbEntity
  8
0
100
AcDbLine
 62
253
  6
CONTINUOUS
 10
123.2457399309
 20
121.8521599803
 11
122.6744807282
 21
122.0815905302
  0
LWPOLYLINE
  5
327
100
AcDbEntity
  8
ASSI
100
AcDbPolyline
 62
7
  6
CONTINUOUS
 90
12
 70
0
 10
160.7457333647
 20
99.5164682374
 10
161.0464679443
 20
99.1920536958
 10
161.3194996295
 20
98.8506463137
 10
161.5648284201
 20
98.4922460911
 10
161.7834999898
 20
98.1147130392
 10
161.974468665
 20
97.7201871469
 10
162.1345974253
 20
97.3150883809
 10
162.2633832097
 20
96.899235742
 10
162.3613290792
 20
96.4728102295
 10
162.4268071964
 20
96.0427748079
 10
162.4592749487
 20
95.6090438593
 10
162.4592749487
 20
95.1717030018
  0
LWPOLYLINE
  5
328
100
AcDbEntity
  8
RACCORDO
100
AcDbPolyline
 62
253
  6
CONTINUOUS
 90
10
 70
0
 10
176.0027490153
 20
79.3627364894
 10
176.0096220694
 20
79.3540250191
 10
176.0165034438
 20
79.34538063
 10
176.0233928672
 20
79.3368033066
 10
176.0302900811
 20
79.3282931592
 10
176.0371948059
 20
79.3198500457
 10
176.0441067413
 20
79.3114735713
 10
176.0510256101
 20
79.303163593
 10
176.0579511597
 20
79.2949202204
 10
176.0648831274
 20
79.2867434364
  0
LWPOLYLINE
  5
329
100
AcDbEntity
  8
RACCORDO
100
AcDbPolyline
 62
253
  6
CONTINUOUS
 90
10
 70
0
 10
175.8099543259
 20
79.6425505744
 10
175.8296245867
 20
79.6104971146
 10
175.8497214289
 20
79.578675842
 10
175.8702473432
 20
79.547088562
 10
175.8911969212
 20
79.5157315496
 10
175.9125797801
 20
79.4846121935
 10
175.9344215301
 20
79.4537491885
 10
175.9567327214
 20
79.423150259
 10
175.9795078605
 20
79.3928119667
 10
176.0027490153
 20
79.3627364894
  0
LWPOLYLINE
  5
32A
100
AcDbEntity
  8
0
100
AcDbPolyline
 62
7
  6
CONTINUOUS
 90
37
 70
0
 10
162.9244807282
 20
120.2384983336
 10
162.8984827059
 20
120.7031425475
 10
162.8254646957
 20
121.1574662906
 10
162.7054266975
 20
121.6014695629
 10
162.5367477048
 20
122.0383580803
 10
162.3210487242
 20
122.4649261271
 10
162.0631927757
 20
122.8715565553
 10
161.7622222168
 20
123.2577964597
 10
161.4190946901
 20
123.6240987457
 10
161.0415461432
 20
123.9622049812
 10
160.6287946643
 20
124.2714746614
 10
160.1816221653
 20
124.5525482912
 10
159.7101103296
 20
124.7990889528
 10
159.2137062619
 20
125.0103121912
 10
158.6929628575
 20
125.1870024614
 10
158.1596204853
 20
125.3251762104
 10
157.6133929457
 20
125.4239584924
 10
157.0545664383
 20
125.4842242531
 10
156.4957399309
 20
125.5046147769
 10
155.9369134235
 20
125.4842242531
 10
155.3780869161
 20
125.4239584924
 10
154.8318593765
 20
125.3251762104
 10
154.2985170043
 20
125.1870024614
 10
153.7777735999
 20
125.0103121912
 10
153.2813695323
 20
124.7990889528
 10
152.8098576965
 20
124.5525482912
 10
152.3626851975
 20
124.2714746614
 10
151.9499337187
 20
123.9622049812
 10
151.5723851718
 20
123.6240987457
 10
151.229257645
 20
123.2577964597
 10
150.9282870861
 20
122.8715565553
 10
150.6704311376
 20
122.4649261271
 10
150.454732157
 20
122.0383580803
 10
150.2860531643
 20
121.6014695629
 10
150.1660151662
 20
121.1574662906
 10
150.0929971559
 20
120.7031425475
 10
150.0669991336
 20
120.2384983336
  0
LWPOLYLINE
  5
32B
100
AcDbEntity
  8
0
100
AcDbPolyline
 62
7
  6
CONTINUOUS
 90
40
 70
0
 10
163.4957399309
 20
120.0090677837
 10
163.4718256454
 20
120.4753460851
 10
163.4040232194
 20
120.9327632457
 10
163.2923326529
 20
121.3813192653
 10
163.1354659139
 20
121.8237961985
 10
162.9347110344
 20
122.2574119909
 10
162.6939321105
 20
122.6738204787
 10
162.4123537915
 20
123.07268832
 10
162.090751428
 20
123.4543488568
 10
161.7353151681
 20
123.8114559514
 10
161.3453895775
 20
124.1435339517
 10
160.9216300904
 20
124.4510585098
 10
160.472193158
 20
124.728110445
 10
159.9965813538
 20
124.9740994379
 10
159.4952921042
 20
125.1896158078
 10
158.9779741402
 20
125.3705113321
 10
158.4443169516
 20
125.5161153315
 10
157.8946310486
 20
125.6270984852
 10
157.3394966927
 20
125.7013246083
 10
156.7788083358
 20
125.7380816389
 10
156.212671526
 20
125.7380816389
 10
155.6519831691
 20
125.7013246083
 10
155.0968488132
 20
125.6270984852
 10
154.5471629102
 20
125.5161153315
 10
154.0135057216
 20
125.3705113321
 10
153.4961877576
 20
125.1896158078
 10
152.9948985081
 20
124.9740994379
 10
152.5192867038
 20
124.728110445
 10
152.0698497714
 20
124.4510585098
 10
151.6460902844
 20
124.1435339517
 10
151.2561646937
 20
123.8114559514
 10
150.9007284338
 20
123.4543488568
 10
150.5791260704
 20
123.07268832
 10
150.2975477513
 20
122.6738204787
 10
150.0567688274
 20
122.2574119909
 10
149.8560139479
 20
121.8237961985
 10
149.6991472089
 20
121.3813192653
 10
149.5874566424
 20
120.9327632457
 10
149.5196542164
 20
120.4753460851
 10
149.4957399309
 20
120.0090677837
  0
LWPOLYLINE
  5
32C
100
AcDbEntity
  8
0
100
AcDbPolyline
 62
7
  6
CONTINUOUS
 90
40
 70
0
 10
163.9957399309
 20
120.0090677837
 10
163.9701174821
 20
120.5086516781
 10
163.8974720257
 20
120.998741493
 10
163.7778035616
 20
121.4793372283
 10
163.6097320555
 20
121.9534196567
 10
163.3946375418
 20
122.4180080057
 10
163.1366601233
 20
122.8641599569
 10
162.8349690672
 20
123.2915183583
 10
162.4903951064
 20
123.700440362
 10
162.1095705422
 20
124.0830551063
 10
161.6917931236
 20
124.4388529637
 10
161.2377651018
 20
124.7683435617
 10
160.7562255314
 20
125.0651849208
 10
160.2466414554
 20
125.3287445561
 10
159.7095458309
 20
125.5596549524
 10
159.1552765837
 20
125.7534715856
 10
158.5835010245
 20
125.9094758706
 10
157.9945518427
 20
126.0283863925
 10
157.3997650328
 20
126.1079143814
 10
156.7990275076
 20
126.1472969143
 10
156.1924523542
 20
126.1472969143
 10
155.591714829
 20
126.1079143814
 10
154.9969280191
 20
126.0283863925
 10
154.4079788373
 20
125.9094758706
 10
153.8362032781
 20
125.7534715856
 10
153.281934031
 20
125.5596549524
 10
152.7448384064
 20
125.3287445561
 10
152.2352543304
 20
125.0651849208
 10
151.75371476
 20
124.7683435617
 10
151.2996867382
 20
124.4388529637
 10
150.8819093196
 20
124.0830551063
 10
150.5010847555
 20
123.700440362
 10
150.1565107946
 20
123.2915183583
 10
149.8548197385
 20
122.8641599569
 10
149.59684232
 20
122.4180080057
 10
149.3817478063
 20
121.9534196567
 10
149.2136763002
 20
121.4793372283
 10
149.0940078361
 20
120.998741493
 10
149.0213623797
 20
120.5086516781
 10
148.9957399309
 20
120.0090677837
  0
LWPOLYLINE
  5
32D
100
AcDbEntity
  8
0
100
AcDbPolyline
 62
7
  6
CONTINUOUS
 90
43
 70
0
 10
164.5559059615
 20
120.4679288836
 10
164.5323261186
 20
120.9658462375
 10
164.4649643884
 20
121.455577862
 10
164.3538207709
 20
121.9371237569
 10
164.197788153
 20
122.4130756766
 10
163.9979736477
 20
122.8808418667
 10
163.7576985946
 20
123.3326470644
 10
163.4762867067
 20
123.7682244862
 10
163.1544142709
 20
124.1878409155
 10
162.7974314875
 20
124.5845214404
 10
162.4047514968
 20
124.9578826934
 10
161.9769611585
 20
125.308308042
 10
161.5211712523
 20
125.6299726761
 10
161.0369137731
 20
125.9223958682
 10
160.5246567261
 20
126.1860583459
 10
159.9929149062
 20
126.4165774813
 10
159.4413626307
 20
126.6133992926
 10
158.8703255823
 20
126.7770777617
 10
158.2892956039
 20
126.9048922064
 10
157.6981056663
 20
126.9962431694
 10
157.0969227986
 20
127.051730108
 10
156.4957399309
 20
127.070430712
 10
155.8945570632
 20
127.051730108
 10
155.2933741956
 20
126.9962431694
 10
154.7021842579
 20
126.9048922064
 10
154.1211542795
 20
126.7770777617
 10
153.5501172311
 20
126.6133992926
 10
152.9985649557
 20
126.4165774813
 10
152.4668231357
 20
126.1860583459
 10
151.9545660887
 20
125.9223958682
 10
151.4703086096
 20
125.6299726761
 10
151.0145187034
 20
125.308308042
 10
150.586728365
 20
124.9578826934
 10
150.1940483743
 20
124.5845214404
 10
149.8370655909
 20
124.1878409155
 10
149.5151931552
 20
123.7682244862
 10
149.2337812672
 20
123.3326470644
 10
148.9935062141
 20
122.8808418667
 10
148.7936917089
 20
122.4130756766
 10
148.6376590909
 20
121.9371237569
 10
148.5265154734
 20
121.455577862
 10
148.4591537432
 20
120.9658462375
 10
148.4355739003
 20
120.4679288836
  0
LINE
  5
32E
100
AcDbEntity
  8
0
100
AcDbLine
 62
7
  6
CONTINUOUS
 10
162.9244807282
 20
117.7810420715
 11
162.9244807282
 21
120.2384983336
  0
LINE
  5
32F
100
AcDbEntity
  8
0
100
AcDbLine
 62
7
  6
CONTINUOUS
 10
163.4957399309
 20
117.5516115216
 11
163.4957399309
 21
120.0090677837
  0
LINE
  5
330
100
AcDbEntity
  8
0
100
AcDbLine
 62
7
  6
CONTINUOUS
 10
163.9957399309
 20
117.5516115216
 11
163.9957399309
 21
120.0090677837
  0
LINE
  5
331
100
AcDbEntity
  8
0
100
AcDbLine
 62
7
  6
CONTINUOUS
 10
164.5559059615
 20
118.0104726215
 11
164.5559059615
 21
120.4679288836
  0
LINE
  5
332
100
AcDbEntity
  8
RACCORDO
100
AcDbLine
 62
253
  6
CONTINUOUS
 10
167.4815268477
 20
87.7751481572
 11
167.48152816
 21
103.5638358191
  0
LWPOLYLINE
  5
333
100
AcDbEntity
  8
ASSI
100
AcDbPolyline
 62
7
  6
CONTINUOUS
 90
7
 70
0
 10
162.4592749487
 20
95.1717030018
 10
162.4268071964
 20
94.7379720545
 10
162.3613290792
 20
94.3079366356
 10
162.2633832097
 20
93.8815111269
 10
162.1345974253
 20
93.4656584931
 10
161.974468665
 20
93.0605597335
 10
161.7834999898
 20
92.6660338487
  0
LWPOLYLINE
  5
334
100
AcDbEntity
  8
RACCORDO
100
AcDbPolyline
 62
253
  6
CONTINUOUS
 90
7
 70
0
 10
167.4997028498
 20
103.8894532307
 10
167.494145369
 20
103.8364384991
 10
167.4895992345
 20
103.7829218326
 10
167.4860644464
 20
103.7289032314
 10
167.4835410046
 20
103.6743826954
 10
167.4820289091
 20
103.6193602246
 10
167.48152816
 20
103.5638358191
  0
LWPOLYLINE
  5
335
100
AcDbEntity
  8
RACCORDO
100
AcDbPolyline
 62
253
  6
CONTINUOUS
 90
10
 70
0
 10
168.2034426304
 20
104.1843553906
 10
168.1947524846
 20
104.1449003131
 10
168.1871123918
 20
104.1038400758
 10
168.180546651
 20
104.0611816722
 10
168.1750499889
 20
104.0170030424
 10
168.1706779668
 20
103.9712426781
 10
168.1675499801
 20
103.9236996018
 10
168.16572749
 20
103.874314111
 10
168.1652110219
 20
103.8231678679
 10
168.1660326679
 20
103.7702734788
  0
LINE
  5
336
100
AcDbEntity
  8
RACCORDO
100
AcDbLine
 62
253
  6
CONTINUOUS
 10
168.2184589233
 20
104.2475586951
 11
168.2034426304
 21
104.1843553906
  0
LINE
  5
337
100
AcDbEntity
  8
RACCORDO
100
AcDbLine
 62
253
  6
CONTINUOUS
 10
168.2331564639
 20
104.308213375
 11
168.2184589233
 21
104.2475586951
  0
LWPOLYLINE
  5
338
100
AcDbEntity
  8
RACCORDO
100
AcDbPolyline
 62
253
  6
CONTINUOUS
 90
3
 70
0
 10
168.2676207046
 20
104.4463897843
 10
168.250150728
 20
104.3771611458
 10
168.2331564639
 20
104.308213375
  0
LWPOLYLINE
  5
339
100
AcDbEntity
  8
RACCORDO
100
AcDbPolyline
 62
253
  6
CONTINUOUS
 90
4
 70
0
 10
168.3414851409
 20
104.725295017
 10
168.3224644391
 20
104.6554345257
 10
168.3038165457
 20
104.5855671333
 10
168.2676207046
 20
104.4463897843
  0
LWPOLYLINE
  5
33A
100
AcDbEntity
  8
RACCORDO
100
AcDbPolyline
 62
253
  6
CONTINUOUS
 90
3
 70
0
 10
168.400409525
 20
104.9343311393
 10
168.38045269
 20
104.8647781868
 10
168.3414851409
 20
104.725295017
  0
LWPOLYLINE
  5
33B
100
AcDbEntity
  8
RACCORDO
100
AcDbPolyline
 62
253
  6
CONTINUOUS
 90
3
 70
0
 10
168.4619229752
 20
105.1417053623
 10
168.4411453665
 20
105.0728475715
 10
168.400409525
 20
104.9343311393
  0
LWPOLYLINE
  5
33C
100
AcDbEntity
  8
RACCORDO
100
AcDbPolyline
 62
253
  6
CONTINUOUS
 90
3
 70
0
 10
168.5256394848
 20
105.3461422304
 10
168.5041884049
 20
105.2784681966
 10
168.4619229752
 20
105.1417053623
  0
LWPOLYLINE
  5
33D
100
AcDbEntity
  8
RACCORDO
100
AcDbPolyline
 62
253
  6
CONTINUOUS
 90
10
 70
0
 10
167.6260926028
 20
104.4291658496
 10
167.6072436852
 20
104.3766253677
 10
167.5895469581
 20
104.3222770096
 10
167.5730024214
 20
104.2661207754
 10
167.5575444586
 20
104.2082220255
 10
167.5432386864
 20
104.1485153995
 10
167.5302819543
 20
104.0868048152
 10
167.5187398792
 20
104.023024912
 10
167.5085468444
 20
103.9572410505
 10
167.4997028498
 20
103.8894532307
  0
LWPOLYLINE
  5
33E
100
AcDbEntity
  8
RACCORDO
100
AcDbPolyline
 62
253
  6
CONTINUOUS
 90
9
 70
0
 10
168.7241685006
 20
105.9236147248
 10
168.7018572552
 20
105.8628024084
 10
168.6795259034
 20
105.8010714209
 10
168.6572199421
 20
105.7384508426
 10
168.6350144919
 20
105.674956153
 10
168.612924713
 20
105.6106329769
 10
168.5909062216
 20
105.5455549779
 10
168.5690005651
 20
105.4797432069
 10
168.5256394848
 20
105.3461422304
  0
LWPOLYLINE
  5
33F
100
AcDbEntity
  8
ASSI
100
AcDbPolyline
 62
7
  6
CONTINUOUS
 90
17
 70
0
 10
161.7792948988
 20
92.2982160182
 10
162.008637368
 20
92.7285529275
 10
162.2011379482
 20
93.1726498536
 10
162.3560829338
 20
93.6307733574
 10
162.4741860304
 20
94.1026568779
 10
162.553174009
 20
94.5792176801
 10
162.5922891269
 20
95.060546373
 10
162.5922891269
 20
95.5465523475
 10
162.553174009
 20
96.0278810418
 10
162.4741860304
 20
96.5044418472
 10
162.3560829338
 20
96.9763253724
 10
162.2011379482
 20
97.4344488823
 10
162.008637368
 20
97.878545816
 10
161.7792948988
 20
98.3088827344
 10
161.5175248864
 20
98.7171765846
 10
161.2226991405
 20
99.1030003455
 10
160.8954458514
 20
99.4667810381
  0
LINE
  5
340
100
AcDbEntity
  8
RACCORDO
100
AcDbLine
 62
253
  6
CONTINUOUS
 10
167.6472785772
 20
104.4668572967
 11
167.6260926028
 21
104.4291658496
  0
LINE
  5
341
100
AcDbEntity
  8
RACCORDO
100
AcDbLine
 62
253
  6
CONTINUOUS
 10
167.6681648351
 20
104.5034941773
 11
167.6472785772
 21
104.4668572967
  0
LWPOLYLINE
  5
342
100
AcDbEntity
  8
ASSI
100
AcDbPolyline
 62
7
  6
CONTINUOUS
 90
5
 70
0
 10
161.7834999898
 20
92.6660338487
 10
161.5648284201
 20
92.2885008055
 10
161.3194996295
 20
91.9301005927
 10
161.0464679443
 20
91.5886932214
 10
160.7457333647
 20
91.2642786917
  0
LINE
  5
343
100
AcDbEntity
  8
RACCORDO
100
AcDbLine
 62
253
  6
CONTINUOUS
 10
167.6887513765
 20
104.5390543778
 11
167.6681648351
 21
104.5034941773
  0
LWPOLYLINE
  5
344
100
AcDbEntity
  8
ASSI
100
AcDbPolyline
 62
7
  6
CONTINUOUS
 90
4
 70
0
 10
160.8954458514
 20
91.1403177496
 10
161.2226991405
 20
91.5040984293
 10
161.5175248864
 20
91.8899221784
 10
161.7792948988
 20
92.2982160182
  0
LWPOLYLINE
  5
345
100
AcDbEntity
  8
RACCORDO
100
AcDbPolyline
 62
253
  6
CONTINUOUS
 90
25
 70
0
 10
168.7241685006
 20
105.9236147248
 10
168.676961573
 20
105.8733587833
 10
168.6299029218
 20
105.8221127724
 10
168.5829925471
 20
105.7699250642
 10
168.5361978845
 20
105.7168567998
 10
168.4895514984
 20
105.6629462238
 10
168.4431510818
 20
105.6082067543
 10
168.3969902767
 20
105.5526797533
 10
168.3510754411
 20
105.496423727
 10
168.3055233424
 20
105.439476823
 10
168.2603216479
 20
105.3818736344
 10
168.2154826902
 20
105.3236829499
 10
168.1711602349
 20
105.2649958531
 10
168.1273756223
 20
105.2058935799
 10
168.0841075121
 20
105.1464043526
 10
168.0414456485
 20
105.0865405324
 10
167.99939002
 20
105.0263580263
 10
167.9579406381
 20
104.9659107895
 10
167.9171872823
 20
104.9052076767
 10
167.8771121707
 20
104.8442747448
 10
167.8377330852
 20
104.7831978419
 10
167.7991931505
 20
104.7220759518
 10
167.761540075
 20
104.6609802403
 10
167.7247261503
 20
104.5999539214
 10
167.6887513765
 20
104.5390543778
  0
LINE
  5
346
100
AcDbEntity
  8
ASSI
100
AcDbLine
 62
7
  6
CONTINUOUS
 10
160.4505142548
 20
91.5221111449
 11
160.745733479
 21
91.8233649089
  0
LINE
  5
347
100
AcDbEntity
  8
ASSI
100
AcDbLine
 62
7
  6
CONTINUOUS
 10
160.5420639362
 20
90.8055821287
 11
160.8954458514
 21
91.1403177496
  0
LWPOLYLINE
  5
348
100
AcDbEntity
  8
ASSI
100
AcDbPolyline
 62
7
  6
CONTINUOUS
 90
10
 70
0
 10
160.0457333647
 20
91.9228505265
 10
159.8063452016
 20
91.7006117038
 10
159.5550544718
 20
91.4957496588
 10
159.2918611753
 20
91.3082643916
 10
159.0155436134
 20
91.1375057517
 10
158.7273234848
 20
90.9841238895
 10
158.430865886
 20
90.8500692562
 10
158.1273925158
 20
90.7359920025
 10
157.8156816754
 20
90.6412419777
 10
157.4957333647
 20
90.5658191819
  0
LINE
  5
349
100
AcDbEntity
  8
ASSI
100
AcDbLine
 62
7
  6
CONTINUOUS
 10
160.1372660679
 20
91.2457335419
 11
160.4505142548
 21
91.5221111449
  0
LWPOLYLINE
  5
34A
100
AcDbEntity
  8
RACCORDO
100
AcDbPolyline
 62
253
  6
CONTINUOUS
 90
10
 70
0
 10
137.5062451609
 20
78.571666565
 10
137.5166435085
 20
78.5802731603
 10
137.5270314368
 20
78.588949879
 10
137.5374089459
 20
78.5976967213
 10
137.5477764525
 20
78.6065135382
 10
137.5581335399
 20
78.6154004787
 10
137.5684789571
 20
78.6243579895
 10
137.5788122872
 20
78.6333862197
 10
137.589133947
 20
78.6424850203
 10
137.5994439366
 20
78.6516543913
  0
LINE
  5
34B
100
AcDbEntity
  8
0
100
AcDbLine
 62
253
  6
CONTINUOUS
 10
194.3059059615
 20
122.3110210801
 11
193.7457399309
 21
121.8521599803
  0
LINE
  5
34C
100
AcDbEntity
  8
0
100
AcDbLine
 62
253
  6
CONTINUOUS
 10
194.3059059615
 20
119.853564818
 11
193.7457399309
 21
119.3947037182
  0
LWPOLYLINE
  5
34D
100
AcDbEntity
  8
RACCORDO
100
AcDbPolyline
 62
253
  6
CONTINUOUS
 90
9
 70
0
 10
135.8478039349
 20
78.2223063088
 10
135.876071418
 20
78.2449300141
 10
135.9052405364
 20
78.2686166682
 10
135.9357482126
 20
78.2937628675
 10
135.9677023412
 20
78.3204793476
 10
136.0010129908
 20
78.348691188
 10
136.0358019481
 20
78.3785090987
 10
136.0723782714
 20
78.4102201503
 10
136.1490088309
 20
78.4776474234
  0
LINE
  5
34E
100
AcDbEntity
  8
RACCORDO
100
AcDbLine
 62
253
  6
CONTINUOUS
 10
135.7685857015
 20
78.1597299479
 11
135.8478039349
 21
78.2223063088
  0
LWPOLYLINE
  5
34F
100
AcDbEntity
  8
RACCORDO
100
AcDbPolyline
 62
253
  6
CONTINUOUS
 90
10
 70
0
 10
137.3848486887
 20
78.4767138395
 10
137.3987197551
 20
78.4870658564
 10
137.4124953653
 20
78.4974685463
 10
137.4261755193
 20
78.507921909
 10
137.4397604654
 20
78.5184274132
 10
137.4532499554
 20
78.5289835904
 10
137.4666432443
 20
78.5395860347
 10
137.4799400842
 20
78.5502332776
 10
137.493140723
 20
78.5609267877
 10
137.5062451609
 20
78.571666565
  0
LWPOLYLINE
  5
350
100
AcDbEntity
  8
0
100
AcDbPolyline
 62
7
  6
CONTINUOUS
 90
32
 70
0
 10
216.4568318827
 20
132.5169111996
 10
216.3244374706
 20
132.4234390303
 10
216.1770401339
 20
132.3287553225
 10
216.0235532181
 20
132.2395033164
 10
215.8645941687
 20
132.1560863246
 10
215.7003688779
 20
132.078645857
 10
215.5312369196
 20
132.0073980272
 10
215.3577137637
 20
131.942597097
 10
215.1802320868
 20
131.8844299443
 10
214.9993825068
 20
131.8331015545
 10
214.8155387802
 20
131.7887215339
 10
214.6287973237
 20
131.7513408298
 10
214.4395182685
 20
131.7210833561
 10
214.2483257264
 20
131.6980930643
 10
214.0557047374
 20
131.6824588008
 10
213.8621669271
 20
131.6742468149
 10
213.6682335974
 20
131.673496769
 10
213.474409891
 20
131.6802218262
 10
213.2812148451
 20
131.6944091808
 10
213.0891721838
 20
131.7160184113
 10
212.8987938748
 20
131.7449828221
 10
212.7107062067
 20
131.7811839792
 10
212.5252945735
 20
131.8245169418
 10
212.3427188869
 20
131.8749342059
 10
212.1633858574
 20
131.93233346
 10
211.9878874754
 20
131.9965273657
 10
211.8166735841
 20
132.0673409967
 10
211.6502602356
 20
132.1445405838
 10
211.4890523212
 20
132.2279086232
 10
211.3333366803
 20
132.3172736875
 10
211.183753302
 20
132.4122290254
 10
211.0346417221
 20
132.5169158219
  0
LWPOLYLINE
  5
351
100
AcDbEntity
  8
0
100
AcDbPolyline
 62
7
  6
CONTINUOUS
 90
43
 70
0
 10
102.2457399309
 20
108.2218609366
 10
101.7065103284
 20
108.2047258429
 10
101.1761456275
 20
108.1557751546
 10
100.6546458282
 20
108.0750088716
 10
100.139204138
 20
107.9616224725
 10
99.6326273495
 20
107.8164204788
 10
99.1433358406
 20
107.6418164552
 10
98.6716185303
 20
107.4373189548
 10
98.2171864997
 20
107.2034194246
 10
97.7875933703
 20
106.9440057702
 10
97.3832543178
 20
106.65865153
 10
97.0037541665
 20
106.3477831655
 10
96.6554010112
 20
106.0165679673
 10
96.3387154656
 20
105.6646658437
 10
96.0531769159
 20
105.2924168863
 10
95.8035316158
 20
104.9060086607
 10
95.5903795114
 20
104.5052044988
 10
95.4131206567
 20
104.0902410687
 10
95.2747014674
 20
103.6680159405
 10
95.175771138
 20
103.2384077371
 10
95.1156804741
 20
102.8015378355
 10
95.0954283081
 20
102.3646679374
 10
95.1156805296
 20
101.9277980428
 10
95.1757712492
 20
101.4909281517
 10
95.2747016306
 20
101.0613199647
 10
95.413120868
 20
100.6390948595
 10
95.5903797673
 20
100.2241314585
 10
95.8035319098
 20
99.8233273299
 10
96.0531772411
 20
99.4369191422
 10
96.3387158155
 20
99.0646702269
 10
96.6554013778
 20
98.7127681469
 10
97.0037545412
 20
98.3815529939
 10
97.3832546924
 20
98.0706846761
 10
97.7875937369
 20
97.785330481
 10
98.2171868496
 20
97.5259168702
 10
98.6716188555
 20
97.2920173821
 10
99.1433361346
 20
97.0875199196
 10
99.6326276053
 20
96.9129159293
 10
100.1392043493
 20
96.7677139647
 10
100.6546459914
 20
96.6543275886
 10
101.1761457398
 20
96.573561322
 10
101.7065103863
 20
96.5246106438
 10
102.2457399309
 20
96.5074755541
  0
LWPOLYLINE
  5
352
100
AcDbEntity
  8
0
100
AcDbPolyline
 62
7
  6
CONTINUOUS
 90
43
 70
0
 10
210.7457399309
 20
108.2218609366
 10
211.2849695335
 20
108.2047258429
 10
211.8153342344
 20
108.1557751546
 10
212.3368340336
 20
108.0750088716
 10
212.8522757238
 20
107.9616224725
 10
213.3588525124
 20
107.8164204788
 10
213.8481440212
 20
107.6418164552
 10
214.3198613315
 20
107.4373189548
 10
214.7742933622
 20
107.2034194246
 10
215.2038864915
 20
106.9440057702
 10
215.6082255441
 20
106.65865153
 10
215.9877256953
 20
106.3477831655
 10
216.3360788506
 20
106.0165679673
 10
216.6527643963
 20
105.6646658437
 10
216.938302946
 20
105.2924168863
 10
217.187948246
 20
104.9060086607
 10
217.4011003504
 20
104.5052044988
 10
217.5783592051
 20
104.0902410687
 10
217.7167783944
 20
103.6680159405
 10
217.8157087238
 20
103.2384077371
 10
217.8757993878
 20
102.8015378355
 10
217.8960515537
 20
102.3646679374
 10
217.8757993322
 20
101.9277980428
 10
217.8157086127
 20
101.4909281517
 10
217.7167782313
 20
101.0613199647
 10
217.5783589938
 20
100.6390948595
 10
217.4011000945
 20
100.2241314585
 10
217.187947952
 20
99.8233273299
 10
216.9383026208
 20
99.4369191422
 10
216.6527640464
 20
99.0646702269
 10
216.336078484
 20
98.7127681469
 10
215.9877253207
 20
98.3815529939
 10
215.6082251694
 20
98.0706846761
 10
215.203886125
 20
97.785330481
 10
214.7742930122
 20
97.5259168702
 10
214.3198610064
 20
97.2920173821
 10
213.8481437272
 20
97.0875199196
 10
213.3588522565
 20
96.9129159293
 10
212.8522755125
 20
96.7677139647
 10
212.3368338704
 20
96.6543275886
 10
211.815334122
 20
96.573561322
 10
211.2849694755
 20
96.5246106438
 10
210.7457399309
 20
96.5074755541
  0
LWPOLYLINE
  5
353
100
AcDbEntity
  8
RACCORDO
100
AcDbPolyline
 62
253
  6
CONTINUOUS
 90
7
 70
0
 10
87.8968813671
 20
140.2771683184
 10
88.0257948116
 20
140.21988919
 10
88.18373921
 20
140.162641705
 10
88.3707024075
 20
140.1054258633
 10
88.5866700008
 20
140.048241665
 10
88.8316253392
 20
139.9910891101
 10
89.1055495252
 20
139.9339681985
  0
LWPOLYLINE
  5
354
100
AcDbEntity
  8
RACCORDO
100
AcDbPolyline
 62
253
  6
CONTINUOUS
 90
7
 70
0
 10
89.8605023059
 20
142.295329365
 10
89.9867381508
 20
142.2349438829
 10
90.1449725096
 20
142.1746010315
 10
90.3352053825
 20
142.1143008109
 10
90.5574367694
 20
142.054043221
 10
90.8116666702
 20
141.9938282618
 10
91.0978950851
 20
141.9336559334
  0
LINE
  5
355
100
AcDbEntity
  8
0
100
AcDbLine
 62
253
  6
CONTINUOUS
 10
148.4355739003
 20
118.0104726215
 11
148.9957399309
 21
117.5516115216
  0
LINE
  5
356
100
AcDbEntity
  8
0
100
AcDbLine
 62
253
  6
CONTINUOUS
 10
148.4355739003
 20
120.4679288836
 11
148.9957399309
 21
120.0090677837
  0
LINE
  5
357
100
AcDbEntity
  8
RACCORDO
100
AcDbLine
 62
253
  6
CONTINUOUS
 10
168.1886346477
 20
103.5129754324
 11
175.809950169
 21
94.6840195215
  0
LINE
  5
358
100
AcDbEntity
  8
RACCORDO
100
AcDbLine
 62
253
  6
CONTINUOUS
 10
168.7241685006
 20
105.9236147248
 11
177.2241633729
 21
96.0767477687
  0
LWPOLYLINE
  5
359
100
AcDbEntity
  8
RACCORDO
100
AcDbPolyline
 62
253
  6
CONTINUOUS
 90
7
 70
0
 10
168.1660326679
 20
103.7702734788
 10
168.1676956063
 20
103.7287347716
 10
168.1701964911
 20
103.6866511773
 10
168.1735381462
 20
103.6440280917
 10
168.1777233073
 20
103.6008708835
 10
168.1827546216
 20
103.5571848932
 10
168.1886346477
 20
103.5129754324
  0
LINE
  5
35A
100
AcDbEntity
  8
RACCORDO
100
AcDbLine
 62
253
  6
CONTINUOUS
 10
168.1886346477
 20
103.5129754324
 11
168.1886334085
 21
88.4715122817
  0
LWPOLYLINE
  5
35B
100
AcDbEntity
  8
ASSI
100
AcDbPolyline
 62
7
  6
CONTINUOUS
 90
34
 70
0
 10
168.284649826
 20
92.4794751524
 10
168.2973318021
 20
92.8977026297
 10
168.33328912
 20
93.3038985418
 10
168.3925217797
 20
93.6980628886
 10
168.4757129099
 20
94.0825855454
 10
168.582179382
 20
94.455076637
 10
168.7098718096
 20
94.8083665381
 10
168.8592013404
 20
95.1420832873
 10
169.0297568269
 20
95.456598846
 10
169.2182554398
 20
95.745859473
 10
169.4250447754
 20
96.0093759257
 10
169.6497772375
 20
96.2476374468
 10
169.8881272084
 20
96.4560580237
 10
170.1403584877
 20
96.6340595732
 10
170.4062072758
 20
96.7822201785
 10
170.680556557
 20
96.8976880768
 10
170.9635710031
 20
96.9798299406
 10
171.2550859422
 20
97.0292790974
 10
171.5494903437
 20
97.0450837664
 10
171.8468401815
 20
97.0265921827
 10
172.1470794815
 20
96.9744561112
 10
172.4444292908
 20
96.8896790654
 10
172.7388336329
 20
96.7716287211
 10
173.0303484841
 20
96.6209374024
 10
173.3133628204
 20
96.4405055948
 10
173.5877119684
 20
96.2297571632
 10
173.8535606014
 20
95.9892682426
 10
174.1057917155
 20
95.7236677239
 10
174.3441415107
 20
95.4324691435
 10
174.568873787
 20
95.116158965
 10
174.7756629412
 20
94.7808254701
 10
174.9641613774
 20
94.4261001379
 10
175.1347166915
 20
94.0523514892
 10
175.2746997572
 20
93.6930295579
  0
LWPOLYLINE
  5
35C
100
AcDbEntity
  8
RACCORDO
100
AcDbPolyline
 62
253
  6
CONTINUOUS
 90
13
 70
0
 10
177.2241633729
 20
96.0767477687
 10
177.0818382901
 20
95.9899437858
 10
176.9405932859
 20
95.8950676827
 10
176.8015034809
 20
95.7928410482
 10
176.6656267172
 20
95.6840406714
 10
176.5339985448
 20
95.5694950382
 10
176.4076239898
 20
95.450078432
 10
176.2874620237
 20
95.3266966489
 10
176.1744306989
 20
95.2002919454
 10
176.0694004789
 20
95.0718394152
 10
175.9731712804
 20
94.9423214751
 10
175.8864689614
 20
94.8127195701
 10
175.809950169
 20
94.6840195215
  0
LINE
  5
35D
100
AcDbEntity
  8
0
100
AcDbLine
 62
253
  6
CONTINUOUS
 10
163.4957399309
 20
117.5516115216
 11
162.9244807282
 21
117.7810420715
  0
LWPOLYLINE
  5
35E
100
AcDbEntity
  8
ASSI
100
AcDbPolyline
 62
7
  6
CONTINUOUS
 90
28
 70
0
 10
175.2322030931
 20
93.7814373895
 10
175.0665634065
 20
94.1333784682
 10
174.8781665314
 20
94.4689024124
 10
174.672054678
 20
94.7790293369
 10
174.447749459
 20
95.063073403
 10
174.2057292619
 20
95.3217204494
 10
173.9524714591
 20
95.5480481063
 10
173.6876725826
 20
95.7411835989
 10
173.4116361004
 20
95.901999702
 10
173.1317497892
 20
96.0261923707
 10
172.8479096853
 20
96.1127726006
 10
172.5602197524
 20
96.1627293962
 10
172.276379657
 20
96.1747257252
 10
171.996493363
 20
96.1477364773
 10
171.7204569066
 20
96.0827867628
 10
171.4556580636
 20
95.981614881
 10
171.2024003024
 20
95.8432426635
 10
170.9603801546
 20
95.6686482786
 10
170.7360749915
 20
95.46250453
 10
170.5299632007
 20
95.2239594371
 10
170.3415663945
 20
94.9538649806
 10
170.1759267816
 20
94.6594499058
 10
170.0336589126
 20
94.3400574422
 10
169.9141482369
 20
93.9963443605
 10
169.8205933105
 20
93.6375097179
 10
169.7540603187
 20
93.266619867
 10
169.7134830761
 20
92.8806084553
 10
169.6988615828
 20
92.4794754828
  0
LWPOLYLINE
  5
35F
100
AcDbEntity
  8
ASSI
100
AcDbPolyline
 62
7
  6
CONTINUOUS
 90
7
 70
0
 10
175.2746997572
 20
93.6930295579
 10
175.4117382713
 20
93.2691366227
 10
175.518204537
 20
92.8596704047
 10
175.6013957543
 20
92.4462560205
 10
175.6606288864
 20
92.031520572
 10
175.69658697
 20
91.6128369572
 10
175.7092700052
 20
91.1902051762
  0
LINE
  5
360
100
AcDbEntity
  8
RACCORDO
100
AcDbLine
 62
253
  6
CONTINUOUS
 10
175.809950169
 20
94.6840195215
 11
175.8099543259
 21
79.6425505744
  0
LINE
  5
361
100
AcDbEntity
  8
RACCORDO
100
AcDbLine
 62
253
  6
CONTINUOUS
 10
177.2241633729
 20
96.0767477687
 11
177.2243844207
 21
78.5664349946
  0
LWPOLYLINE
  5
362
100
AcDbEntity
  8
RACCORDO
100
AcDbPolyline
 62
253
  6
CONTINUOUS
 90
3
 70
0
 10
177.2243844207
 20
78.5664349946
 10
177.2235176453
 20
78.2573073694
 10
177.2229109075
 20
78.1591787757
  0
LWPOLYLINE
  5
363
100
AcDbEntity
  8
ASSI
100
AcDbPolyline
 62
7
  6
CONTINUOUS
 90
40
 70
0
 10
175.7092700032
 20
91.1902043404
 10
175.6965870679
 20
90.7719781329
 10
175.6606290759
 20
90.3657825693
 10
175.6013960293
 20
89.9716184854
 10
175.5182048927
 20
89.5870959929
 10
175.4117387015
 20
89.2146049801
 10
175.2840465613
 20
88.8613151115
 10
175.1347172365
 20
88.5275983604
 10
174.9641619627
 20
88.2130827534
 10
174.7756635533
 20
87.9238220353
 10
174.5688744113
 20
87.6603054457
 10
174.3441421338
 20
87.4220437448
 10
174.1057923244
 20
87.2136229588
 10
173.8535611822
 20
87.0356211687
 10
173.5877125082
 20
86.8874602933
 10
173.3133633096
 20
86.7719921158
 10
173.0303489125
 20
86.6898499628
 10
172.7388339909
 20
86.6404005076
 10
172.4444295743
 20
86.6245955532
 10
172.1470796861
 20
86.6430868653
 10
171.846840303
 20
86.6952226783
 10
171.5494903842
 20
86.779999498
 10
171.2550859041
 20
86.8980496507
 10
170.9635708882
 20
87.0487408101
 10
170.6805563731
 20
87.2291725024
 10
170.4062070309
 20
87.4399208663
 10
170.1403581895
 20
87.6804097632
 10
169.8881268682
 20
87.9460103041
 10
169.6497768672
 20
88.2372089561
 10
169.4250443864
 20
88.553519252
 10
169.2182550442
 20
88.8888529015
 10
169.0297564377
 20
89.2435784282
 10
168.8592009699
 20
89.6173273085
 10
168.7098714677
 20
90.0029056804
 10
168.5821790798
 20
90.4005427148
 10
168.4757126575
 20
90.8100092409
 10
168.3925215829
 20
91.2234238851
 10
168.333288983
 20
91.6381595228
 10
168.2973317308
 20
92.0568432786
 10
168.284649826
 20
92.4794751524
  0
LWPOLYLINE
  5
364
100
AcDbEntity
  8
ASSI
100
AcDbPolyline
 62
7
  6
CONTINUOUS
 90
33
 70
0
 10
175.6946473143
 20
91.0346470224
 10
175.6540700717
 20
90.6486356107
 10
175.5875370799
 20
90.2777457598
 10
175.4939821535
 20
89.9189111172
 10
175.3744714778
 20
89.5751980355
 10
175.2322036088
 20
89.2558055719
 10
175.0665639959
 20
88.9613904972
 10
174.8781671897
 20
88.6912960406
 10
174.6720553989
 20
88.4527509477
 10
174.4477502358
 20
88.2466071991
 10
174.205730088
 20
88.0720128142
 10
173.9524723267
 20
87.9336405967
 10
173.6876734838
 20
87.8324687149
 10
173.4116370274
 20
87.7675190004
 10
173.1317507334
 20
87.7405297525
 10
172.847910638
 20
87.7525260815
 10
172.560220705
 20
87.8024828771
 10
172.2763806012
 20
87.8890631071
 10
171.9964942899
 20
88.0132557757
 10
171.7204578078
 20
88.1740718788
 10
171.4556589313
 20
88.3672073714
 10
171.2024011285
 20
88.5935350283
 10
170.9603809314
 20
88.8521820747
 10
170.7360757124
 20
89.1362261409
 10
170.529963859
 20
89.4463530653
 10
170.3415669839
 20
89.7818770095
 10
170.1759272973
 20
90.1338180883
 10
170.0336593499
 20
90.5026196412
 10
169.9141485912
 20
90.8878383287
 10
169.8205935792
 20
91.2791642469
 10
169.7540605002
 20
91.6731607614
 10
169.7134831681
 20
92.0732645067
 10
169.6988615828
 20
92.4794754828
  0
LWPOLYLINE
  5
365
100
AcDbEntity
  8
RACCORDO
100
AcDbPolyline
 62
253
  6
CONTINUOUS
 90
10
 70
0
 10
167.4815268477
 20
87.7751481572
 10
167.5763300903
 20
87.8339403206
 10
167.6698509598
 20
87.8996961289
 10
167.7608243729
 20
87.971526098
 10
167.8480239099
 20
88.0484624959
 10
167.9302652933
 20
88.1294610713
 10
168.0064250817
 20
88.2134133852
 10
168.0754729299
 20
88.2991786738
 10
168.1364826461
 20
88.3856009929
 10
168.1886334085
 20
88.4715122817
  0
LWPOLYLINE
  5
366
100
AcDbEntity
  8
0
100
AcDbPolyline
 62
253
  6
CONTINUOUS
 90
10
 70
0
 10
85.7437029731
 20
139.5119839126
 10
85.6521787439
 20
139.5332098606
 10
85.5697008508
 20
139.5544425251
 10
85.4962712542
 20
139.5756819064
 10
85.4318939867
 20
139.59692823
 10
85.3765667132
 20
139.6181812703
 10
85.330284594
 20
139.6394403497
 10
85.2930497372
 20
139.6607052426
 10
85.2648673356
 20
139.6819761746
 10
85.2457399309
 20
139.7032531458
  0
LINE
  5
367
100
AcDbEntity
  8
0
100
AcDbLine
 62
253
  6
CONTINUOUS
 10
163.4957399309
 20
120.0090677837
 11
162.9244807282
 21
120.2384983336
  0
LINE
  5
368
100
AcDbEntity
  8
0
100
AcDbLine
 62
253
  6
CONTINUOUS
 10
224.2567685553
 20
63.2010585438
 11
224.7459437183
 21
62.703095526
  0
LWPOLYLINE
  5
369
100
AcDbEntity
  8
0
100
AcDbPolyline
 62
253
  6
CONTINUOUS
 90
10
 70
0
 10
224.7461462714
 20
142.7030940747
 10
224.7273132028
 20
142.6816669589
 10
224.6994648758
 20
142.6602460168
 10
224.6626012902
 20
142.6388312484
 10
224.6167220923
 20
142.6174223327
 10
224.5618276359
 20
142.5960195908
 10
224.4979189827
 20
142.5746239855
 10
224.4249964867
 20
142.5532358378
 10
224.343059794
 20
142.5318548269
 10
224.2521089046
 20
142.5104809526
  0
LWPOLYLINE
  5
36A
100
AcDbEntity
  8
0
100
AcDbPolyline
 62
7
  6
CONTINUOUS
 90
33
 70
0
 10
206.7279410782
 20
106.1913080635
 10
206.7640216456
 20
106.2177466663
 10
206.9839757281
 20
106.3702623069
 10
207.2117528542
 20
106.5137403723
 10
207.4464778288
 20
106.6477178749
 10
207.6880549573
 20
106.7722181602
 10
207.9359679597
 20
106.8870129241
 10
208.1896803437
 20
106.9918890834
 10
208.4487396217
 20
107.0866866259
 10
208.7127462863
 20
107.1712681442
 10
208.9814246054
 20
107.2455246831
 10
209.2540408629
 20
107.3092257212
 10
209.5294780172
 20
107.3621269873
 10
209.8070096216
 20
107.4041457844
 10
210.0862767486
 20
107.4352764293
 10
210.366688122
 20
107.455485757
 10
210.6477017497
 20
107.4647629157
 10
210.9287802438
 20
107.4631108761
 10
211.2093383999
 20
107.4505490628
 10
211.4888389653
 20
107.4271130473
 10
211.7667505132
 20
107.3928515807
 10
212.0425015878
 20
107.3478343053
 10
212.3157673762
 20
107.2920961175
 10
212.5858177221
 20
107.2257601633
 10
212.8515052982
 20
107.1491278575
 10
213.1120517443
 20
107.0624967644
 10
213.3672867848
 20
106.9659904581
 10
213.6170032845
 20
106.8597096934
 10
213.8608259414
 20
106.7438040017
 10
214.0981928202
 20
106.6185228131
 10
214.328617535
 20
106.4841076193
 10
214.5520258457
 20
106.3405481691
 10
214.7635103948
 20
106.1913290306
  0
LWPOLYLINE
  5
36B
100
AcDbEntity
  8
RACCORDO
100
AcDbPolyline
 62
253
  6
CONTINUOUS
 90
7
 70
0
 10
221.8935847767
 20
141.9336559334
 10
222.1798131916
 20
141.9938282618
 10
222.4340430925
 20
142.054043221
 10
222.6562744793
 20
142.1143008109
 10
222.8465073522
 20
142.1746010315
 10
223.0047417111
 20
142.2349438829
 10
223.130977556
 20
142.295329365
  0
LWPOLYLINE
  5
36C
100
AcDbEntity
  8
RACCORDO
100
AcDbPolyline
 62
253
  6
CONTINUOUS
 90
7
 70
0
 10
223.8859305479
 20
139.9339682404
 10
224.1598546283
 20
139.9910891334
 10
224.4048098986
 20
140.0482416743
 10
224.6207774544
 20
140.1054258633
 10
224.8077406379
 20
140.1626417003
 10
224.9656850385
 20
140.2198891854
 10
225.0945984947
 20
140.2771683184
  0
LWPOLYLINE
  5
36D
100
AcDbEntity
  8
0
100
AcDbPolyline
 62
7
  6
CONTINUOUS
 90
21
 70
0
 10
213.7457399309
 20
128.9458981173
 10
214.2839600282
 20
128.9661054398
 10
214.8102254199
 20
129.0228596986
 10
215.324536106
 20
129.1161608935
 10
215.830605424
 20
129.2472689744
 10
216.3247200363
 20
129.4149239915
 10
216.7957399309
 20
129.6153460952
 10
217.2431404855
 20
129.8492796263
 10
217.6674463223
 20
130.115980244
 10
218.0590912962
 20
130.4094350758
 10
218.417333479
 20
130.7302518736
 10
218.7429147987
 20
131.0778228856
 10
219.028494894
 20
131.4443119838
 10
219.2731650923
 20
131.8301489136
 10
219.4778340661
 20
132.2349039297
 10
219.6378874713
 20
132.6494516678
 10
219.7523118154
 20
133.0740145806
 10
219.8221205909
 20
133.5083702154
 10
219.8457399309
 20
133.9427258502
 10
219.8221205909
 20
134.377081485
 10
219.7523118154
 20
134.8114371198
  0
LWPOLYLINE
  5
36E
100
AcDbEntity
  8
0
100
AcDbPolyline
 62
7
  6
CONTINUOUS
 90
37
 70
0
 10
99.2457399309
 20
130.0645520744
 10
98.984023608
 20
130.069229982
 10
98.7228054766
 20
130.0832548002
 10
98.4625827803
 20
130.106599832
 10
98.2038508678
 20
130.1392206389
 10
97.9471022499
 20
130.1810551254
 10
97.6928256627
 20
130.232023657
 10
97.4415051362
 20
130.2920292122
 10
97.1936190732
 20
130.3609575671
 10
96.9496393388
 20
130.4386775127
 10
96.7100303624
 20
130.5250411045
 10
96.4752482534
 20
130.6198839447
 10
96.2457399326
 20
130.7230254944
 10
96.0219422824
 20
130.8342694179
 10
95.8042813143
 20
130.953403956
 10
95.5931713583
 20
131.0802023294
 10
95.3890142741
 20
131.2144231701
 10
95.1921986864
 20
131.3558109812
 10
95.0030992449
 20
131.5040966229
 10
94.822075911
 20
131.6589978251
 10
94.6494732731
 20
131.8202197245
 10
94.4856198899
 20
131.9874554261
 10
94.3308276658
 20
132.1603865872
 10
94.1853912566
 20
132.3386840235
 10
94.0495875087
 20
132.5220083357
 10
93.9236749323
 20
132.7100105557
 10
93.807893209
 20
132.9023328104
 10
93.7024627361
 20
133.0986090035
 10
93.6075842064
 20
133.2984655121
 10
93.5234382266
 20
133.501521898
 10
93.4501849733
 20
133.7073916319
 10
93.3879638883
 20
133.9156828289
 10
93.3368934129
 20
134.1259989951
 10
93.2970707627
 20
134.3379397815
 10
93.2685717424
 20
134.5511017468
 10
93.2514506014
 20
134.7650791252
 10
93.2457399309
 20
134.9794645986
  0
LWPOLYLINE
  5
36F
100
AcDbEntity
  8
0
100
AcDbPolyline
 62
7
  6
CONTINUOUS
 90
34
 70
0
 10
99.2457399309
 20
129.027813326
 10
98.9591788412
 20
129.0334850063
 10
98.6745491647
 20
129.0501605806
 10
98.3918509013
 20
129.0778400488
 10
98.1104533526
 20
129.1166357987
 10
97.8309872171
 20
129.1664354426
 10
97.5553445899
 20
129.2269018173
 10
97.2835514161
 20
129.2981073043
 10
97.0155817506
 20
129.3799795221
 10
96.7532498529
 20
129.4719641638
 10
96.4965939792
 20
129.5741298495
 10
96.2455758734
 20
129.686407959
 10
96.0018950262
 20
129.8080383257
 10
95.7656012261
 20
129.9390844112
 10
95.5366446846
 20
130.0794827539
 10
95.3165755272
 20
130.2282828021
 10
95.1054540611
 20
130.3855415671
 10
94.903219979
 20
130.5512020376
 10
94.7112424848
 20
130.7241426274
 10
94.5295911768
 20
130.904412737
 10
94.3581964567
 20
131.0919629658
 10
94.1982187339
 20
131.2855235254
 10
94.0497354808
 20
131.4851352001
 10
93.9126692251
 20
131.6907572054
 10
93.7879479588
 20
131.9009974001
 10
93.6756554515
 20
132.1158871217
 10
93.5757079337
 20
132.3353950325
 10
93.4887820892
 20
132.5580349781
 10
93.4149662793
 20
132.7838282116
 10
93.3541721428
 20
133.0127534799
 10
93.3068112796
 20
133.2432608692
 10
93.2729748442
 20
133.4753611155
 10
93.2525716821
 20
133.7090434829
 10
93.2457399309
 20
133.9427258502
  0
LWPOLYLINE
  5
370
100
AcDbEntity
  8
0
100
AcDbPolyline
 62
7
  6
CONTINUOUS
 90
34
 70
0
 10
213.7457399309
 20
129.027813326
 10
213.4591788412
 20
129.0334850063
 10
213.1745491647
 20
129.0501605806
 10
212.8918509013
 20
129.0778400488
 10
212.6104533526
 20
129.1166357987
 10
212.3309872171
 20
129.1664354426
 10
212.0553445899
 20
129.2269018173
 10
211.7835514161
 20
129.2981073043
 10
211.5155817506
 20
129.3799795221
 10
211.2532498529
 20
129.4719641638
 10
210.9965939792
 20
129.5741298495
 10
210.7455758734
 20
129.686407959
 10
210.5018950262
 20
129.8080383257
 10
210.2656012261
 20
129.9390844112
 10
210.0366446846
 20
130.0794827539
 10
209.8165755272
 20
130.2282828021
 10
209.6054540611
 20
130.3855415671
 10
209.403219979
 20
130.5512020376
 10
209.2112424848
 20
130.7241426274
 10
209.0295911768
 20
130.904412737
 10
208.8581964567
 20
131.0919629658
 10
208.6982187339
 20
131.2855235254
 10
208.5497354808
 20
131.4851352001
 10
208.4126692251
 20
131.6907572054
 10
208.2879479588
 20
131.9009974001
 10
208.1756554515
 20
132.1158871217
 10
208.0757079337
 20
132.3353950325
 10
207.9887820892
 20
132.5580349781
 10
207.9149662793
 20
132.7838282116
 10
207.8541721428
 20
133.0127534799
 10
207.8068112796
 20
133.2432608692
 10
207.7729748442
 20
133.4753611155
 10
207.7525716821
 20
133.7090434829
 10
207.7457399309
 20
133.9427258502
  0
LWPOLYLINE
  5
371
100
AcDbEntity
  8
0
100
AcDbPolyline
 62
7
  6
CONTINUOUS
 90
21
 70
0
 10
99.2457399309
 20
128.9458981173
 10
98.7075198336
 20
128.9661054398
 10
98.1812544419
 20
129.0228596986
 10
97.6669437558
 20
129.1161608935
 10
97.1608744379
 20
129.2472689744
 10
96.6667598255
 20
129.4149239915
 10
96.1957399309
 20
129.6153460952
 10
95.7483393763
 20
129.8492796263
 10
95.3240335395
 20
130.115980244
 10
94.9323885657
 20
130.4094350758
 10
94.5741463829
 20
130.7302518736
 10
94.2485650631
 20
131.0778228856
 10
93.9629849678
 20
131.4443119838
 10
93.7183147695
 20
131.8301489136
 10
93.5136457957
 20
132.2349039297
 10
93.3535923906
 20
132.6494516678
 10
93.2391680464
 20
133.0740145806
 10
93.1693592709
 20
133.5083702154
 10
93.1457399309
 20
133.9427258502
 10
93.1693592709
 20
134.377081485
 10
93.2391680464
 20
134.8114371198
  0
LWPOLYLINE
  5
372
100
AcDbEntity
  8
0
100
AcDbPolyline
 62
253
  6
CONTINUOUS
 90
10
 70
0
 10
88.7393709571
 20
142.5104809526
 10
88.6484200677
 20
142.5318548269
 10
88.5664833751
 20
142.5532358378
 10
88.4935608791
 20
142.5746239855
 10
88.429652226
 20
142.5960195908
 10
88.3747577695
 20
142.6174223327
 10
88.3288785716
 20
142.6388312484
 10
88.292014986
 20
142.6602460168
 10
88.264166659
 20
142.6816669589
 10
88.2453335905
 20
142.7030940747
  0
LINE
  5
373
100
AcDbEntity
  8
0
100
AcDbLine
 62
253
  6
CONTINUOUS
 10
227.2477769245
 20
66.1920669256
 11
227.7457399306
 21
65.7028917347
  0
LWPOLYLINE
  5
374
100
AcDbEntity
  8
0
100
AcDbPolyline
 62
7
  6
CONTINUOUS
 90
34
 70
0
 10
188.6855739003
 20
119.853564818
 10
188.6992465024
 20
119.6315485857
 10
188.7371903256
 20
119.4153701828
 10
188.7994053699
 20
119.2050296095
 10
188.8868886257
 20
118.9987385712
 10
188.9986431027
 20
118.7982853624
 10
189.1316778299
 20
118.6090348665
 10
189.2865674737
 20
118.431289609
 10
189.4627373677
 20
118.2647470644
 10
189.6554725416
 20
118.1138645387
 10
189.8652203357
 20
117.9790649257
 10
190.0915334096
 20
117.8599253317
 10
190.3283547728
 20
117.7596343811
 10
190.5759681982
 20
117.6787010756
 10
190.8340899128
 20
117.6166164135
 10
191.0958116068
 20
117.5750420144
 10
191.3612304964
 20
117.5545317515
 10
191.6302493654
 20
117.5545317515
 10
191.8956682551
 20
117.5750420144
 10
192.157389949
 20
117.6166164135
 10
192.4155116636
 20
117.6787010756
 10
192.663125089
 20
117.7596343811
 10
192.8999464522
 20
117.8599253317
 10
193.1262595262
 20
117.9790649257
 10
193.3360073202
 20
118.1138645387
 10
193.5287424941
 20
118.2647470644
 10
193.7049123882
 20
118.431289609
 10
193.859802032
 20
118.6090348665
 10
193.9928367591
 20
118.7982853624
 10
194.1045912361
 20
118.9987385712
 10
194.1920744919
 20
119.2050296095
 10
194.2542895363
 20
119.4153701828
 10
194.2922333595
 20
119.6315485857
 10
194.3059059615
 20
119.853564818
  0
LINE
  5
375
100
AcDbEntity
  8
0
100
AcDbLine
 62
7
  6
CONTINUOUS
 10
188.6855739003
 20
122.3110210801
 11
188.6855739003
 21
119.853564818
  0
LINE
  5
376
100
AcDbEntity
  8
0
100
AcDbLine
 62
7
  6
CONTINUOUS
 10
189.2457399309
 20
121.8521599803
 11
189.2457399309
 21
119.3947037182
  0
LINE
  5
377
100
AcDbEntity
  8
0
100
AcDbLine
 62
7
  6
CONTINUOUS
 10
189.7457399309
 20
121.8521599803
 11
189.7457399309
 21
119.3947037182
  0
LWPOLYLINE
  5
378
100
AcDbEntity
  8
0
100
AcDbPolyline
 62
253
  6
CONTINUOUS
 90
10
 70
0
 10
227.745739931
 20
139.7032531458
 10
227.7266125262
 20
139.6819761746
 10
227.6984301246
 20
139.6607052426
 10
227.6611952678
 20
139.6394403497
 10
227.6149131486
 20
139.6181812703
 10
227.5595858751
 20
139.59692823
 10
227.4952086077
 20
139.5756819064
 10
227.4217790111
 20
139.5544425251
 10
227.3393011179
 20
139.5332098606
 10
227.2477768888
 20
139.5119839126
  0
LWPOLYLINE
  5
379
100
AcDbEntity
  8
RACCORDO
100
AcDbPolyline
 62
253
  6
CONTINUOUS
 90
10
 70
0
 10
176.1045093097
 20
78.3835380381
 10
176.1483608839
 20
78.4288533191
 10
176.1920249393
 20
78.4750477113
 10
176.2353235004
 20
78.5219322901
 10
176.2780859505
 20
78.5693218158
 10
176.320132461
 20
78.6170166362
 10
176.3612757526
 20
78.6648031899
 10
176.401344746
 20
78.7124805764
 10
176.4401841616
 20
78.759861636
 10
176.4776386065
 20
78.8067546492
  0
LWPOLYLINE
  5
37A
100
AcDbEntity
  8
RACCORDO
100
AcDbPolyline
 62
253
  6
CONTINUOUS
 90
10
 70
0
 10
175.6066353639
 20
78.4767153689
 10
175.6760800217
 20
78.542624037
 10
175.7447792329
 20
78.6139822484
 10
175.8119955473
 20
78.6900240102
 10
175.8770074324
 20
78.7699330538
 10
175.9391170193
 20
78.8528515975
 10
175.9976575938
 20
78.9378895541
 10
176.052000753
 20
79.0241340857
 10
176.1015631512
 20
79.1106594023
 10
176.1458127619
 20
79.1965367001
  0
LWPOLYLINE
  5
37B
100
AcDbEntity
  8
RACCORDO
100
AcDbPolyline
 62
253
  6
CONTINUOUS
 90
10
 70
0
 10
175.1028477651
 20
78.9461864498
 10
175.197637195
 20
79.0049694785
 10
175.2911447606
 20
79.0707142001
 10
175.3821059333
 20
79.1425315306
 10
175.46929062
 20
79.2194502643
 10
175.5515197979
 20
79.300430208
 10
175.6276814591
 20
79.3843762473
 10
175.6967456483
 20
79.4701531569
 10
175.7577783915
 20
79.5566009517
 10
175.8099543259
 20
79.6425505744
  0
LWPOLYLINE
  5
37C
100
AcDbEntity
  8
0
100
AcDbPolyline
 62
7
  6
CONTINUOUS
 90
21
 70
0
 10
99.2457399309
 20
128.9458981173
 10
99.7839600282
 20
128.9661054398
 10
100.3102254199
 20
129.0228596986
 10
100.824536106
 20
129.1161608935
 10
101.330605424
 20
129.2472689744
 10
101.8247200363
 20
129.4149239915
 10
102.2957399309
 20
129.6153460952
 10
102.7431404855
 20
129.8492796263
 10
103.1674463223
 20
130.115980244
 10
103.5590912962
 20
130.4094350758
 10
103.917333479
 20
130.7302518736
 10
104.2429147987
 20
131.0778228856
 10
104.528494894
 20
131.4443119838
 10
104.7731650923
 20
131.8301489136
 10
104.9778340661
 20
132.2349039297
 10
105.1378874713
 20
132.6494516678
 10
105.2523118154
 20
133.0740145806
 10
105.3221205909
 20
133.5083702154
 10
105.3457399309
 20
133.9427258502
 10
105.3221205909
 20
134.377081485
 10
105.2523118154
 20
134.8114371198
  0
LWPOLYLINE
  5
37D
100
AcDbEntity
  8
0
100
AcDbPolyline
 62
7
  6
CONTINUOUS
 90
43
 70
0
 10
99.2457399309
 20
128.9458981173
 10
99.7849694677
 20
128.9630332077
 10
100.3153341053
 20
129.0119838876
 10
100.8368338437
 20
129.0927501569
 10
101.352275475
 20
129.2061365368
 10
101.8588522071
 20
129.3513385061
 10
102.3481436639
 20
129.5259425012
 10
102.8198609268
 20
129.7304399688
 10
103.2742929144
 20
129.9643394621
 10
103.7038860065
 20
130.2237530772
 10
104.1082250277
 20
130.5091072756
 10
104.4877251533
 20
130.8199755957
 10
104.8360782892
 20
131.1511907489
 10
105.1527638218
 20
131.503092827
 10
105.4383023646
 20
131.8753417382
 10
105.6879476634
 20
132.2617499187
 10
105.9010997724
 20
132.6625540369
 10
106.0783586375
 20
133.0775174244
 10
106.2167778415
 20
133.4997425126
 10
106.3157081903
 20
133.9293506788
 10
106.3757988779
 20
134.3662205456
 10
106.3960510703
 20
134.8030904125
 10
106.3757988779
 20
135.2399602793
 10
106.3157081903
 20
135.6768301462
 10
106.2167778415
 20
136.1064383124
 10
106.0783586375
 20
136.5286634005
 10
105.9010997724
 20
136.9436267881
 10
105.6879476634
 20
137.3444309062
 10
105.4383023646
 20
137.7308390868
 10
105.1527638218
 20
138.103087998
 10
104.8360782892
 20
138.454990076
 10
104.4877251533
 20
138.7862052293
 10
104.1082250277
 20
139.0970735494
 10
103.7038860065
 20
139.3824277477
 10
103.2742929144
 20
139.6418413628
 10
102.8198609268
 20
139.8757408561
 10
102.3481436639
 20
140.0802383237
 10
101.8588522071
 20
140.2548423188
 10
101.352275475
 20
140.4000442881
 10
100.8368338437
 20
140.5134306681
 10
100.3153341053
 20
140.5941969373
 10
99.7849694677
 20
140.6431476172
 10
99.2457399309
 20
140.6602827076
  0
LWPOLYLINE
  5
37E
100
AcDbEntity
  8
0
100
AcDbPolyline
 62
7
  6
CONTINUOUS
 90
37
 70
0
 10
213.7457399309
 20
130.0645520744
 10
213.484023608
 20
130.069229982
 10
213.2228054766
 20
130.0832548002
 10
212.9625827803
 20
130.106599832
 10
212.7038508678
 20
130.1392206389
 10
212.4471022499
 20
130.1810551254
 10
212.1928256627
 20
130.232023657
 10
211.9415051362
 20
130.2920292122
 10
211.6936190732
 20
130.3609575671
 10
211.4496393388
 20
130.4386775127
 10
211.2100303624
 20
130.5250411045
 10
210.9752482534
 20
130.6198839447
 10
210.7457399326
 20
130.7230254944
 10
210.5219422824
 20
130.8342694179
 10
210.3042813143
 20
130.953403956
 10
210.0931713583
 20
131.0802023294
 10
209.8890142741
 20
131.2144231701
 10
209.6921986864
 20
131.3558109812
 10
209.5030992449
 20
131.5040966229
 10
209.322075911
 20
131.6589978251
 10
209.1494732731
 20
131.8202197245
 10
208.9856198899
 20
131.9874554261
 10
208.8308276658
 20
132.1603865872
 10
208.6853912566
 20
132.3386840235
 10
208.5495875087
 20
132.5220083357
 10
208.4236749323
 20
132.7100105557
 10
208.307893209
 20
132.9023328104
 10
208.2024627361
 20
133.0986090035
 10
208.1075842064
 20
133.2984655121
 10
208.0234382266
 20
133.501521898
 10
207.9501849733
 20
133.7073916319
 10
207.8879638883
 20
133.9156828289
 10
207.8368934129
 20
134.1259989951
 10
207.7970707627
 20
134.3379397815
 10
207.7685717424
 20
134.5511017468
 10
207.7514506014
 20
134.7650791252
 10
207.7457399309
 20
134.9794645986
  0
LWPOLYLINE
  5
37F
100
AcDbEntity
  8
0
100
AcDbPolyline
 62
7
  6
CONTINUOUS
 90
43
 70
0
 10
213.7457399309
 20
128.9458981173
 10
213.2065103941
 20
128.9630332077
 10
212.6761457565
 20
129.0119838876
 10
212.1546460181
 20
129.0927501569
 10
211.6392043868
 20
129.2061365368
 10
211.1326276547
 20
129.3513385061
 10
210.6433361979
 20
129.5259425012
 10
210.171618935
 20
129.7304399688
 10
209.7171869474
 20
129.9643394621
 10
209.2875938554
 20
130.2237530772
 10
208.8832548342
 20
130.5091072756
 10
208.5037547085
 20
130.8199755957
 10
208.1554015727
 20
131.1511907489
 10
207.83871604
 20
131.503092827
 10
207.5531774973
 20
131.8753417382
 10
207.3035321985
 20
132.2617499187
 10
207.0903800894
 20
132.6625540369
 10
206.9131212243
 20
133.0775174244
 10
206.7747020203
 20
133.4997425126
 10
206.6757716716
 20
133.9293506788
 10
206.6156809839
 20
134.3662205456
 10
206.5954287915
 20
134.8030904125
 10
206.6156809839
 20
135.2399602793
 10
206.6757716716
 20
135.6768301462
 10
206.7747020203
 20
136.1064383124
 10
206.9131212243
 20
136.5286634005
 10
207.0903800894
 20
136.9436267881
 10
207.3035321985
 20
137.3444309062
 10
207.5531774973
 20
137.7308390868
 10
207.83871604
 20
138.103087998
 10
208.1554015727
 20
138.454990076
 10
208.5037547085
 20
138.7862052293
 10
208.8832548342
 20
139.0970735494
 10
209.2875938554
 20
139.3824277477
 10
209.7171869474
 20
139.6418413628
 10
210.171618935
 20
139.8757408561
 10
210.6433361979
 20
140.0802383237
 10
211.1326276547
 20
140.2548423188
 10
211.6392043868
 20
140.4000442881
 10
212.1546460181
 20
140.5134306681
 10
212.6761457565
 20
140.5941969373
 10
213.2065103941
 20
140.6431476172
 10
213.7457399309
 20
140.6602827076
  0
LWPOLYLINE
  5
380
100
AcDbEntity
  8
0
100
AcDbPolyline
 62
7
  6
CONTINUOUS
 90
21
 70
0
 10
213.7457399309
 20
128.9458981173
 10
213.2075198336
 20
128.9661054398
 10
212.6812544419
 20
129.0228596986
 10
212.1669437558
 20
129.1161608935
 10
211.6608744379
 20
129.2472689744
 10
211.1667598255
 20
129.4149239915
 10
210.6957399309
 20
129.6153460952
 10
210.2483393763
 20
129.8492796263
 10
209.8240335395
 20
130.115980244
 10
209.4323885657
 20
130.4094350758
 10
209.0741463829
 20
130.7302518736
 10
208.7485650631
 20
131.0778228856
 10
208.4629849678
 20
131.4443119838
 10
208.2183147695
 20
131.8301489136
 10
208.0136457957
 20
132.2349039297
 10
207.8535923906
 20
132.6494516678
 10
207.7391680464
 20
133.0740145806
 10
207.6693592709
 20
133.5083702154
 10
207.6457399309
 20
133.9427258502
 10
207.6693592709
 20
134.377081485
 10
207.7391680464
 20
134.8114371198
  0
LINE
  5
381
100
AcDbEntity
  8
0
100
AcDbLine
 62
253
  6
CONTINUOUS
 10
193.2457399309
 20
119.3947037182
 11
192.6744807282
 21
119.6241342681
  0
LINE
  5
382
100
AcDbEntity
  8
0
100
AcDbLine
 62
253
  6
CONTINUOUS
 10
193.2457399309
 20
121.8521599803
 11
192.6744807282
 21
122.0815905302
  0
LWPOLYLINE
  5
383
100
AcDbEntity
  8
0
100
AcDbPolyline
 62
7
  6
CONTINUOUS
 90
17
 70
0
 10
208.0346417221
 20
100.0784932368
 10
207.8832765671
 20
100.1962491677
 10
207.7373897163
 20
100.3221795936
 10
207.5997485443
 20
100.4541917668
 10
207.470730316
 20
100.5919238512
 10
207.3506886615
 20
100.7349983326
 10
207.2399526065
 20
100.8830230538
 10
207.1388256709
 20
101.0355922894
 10
207.0475850365
 20
101.1922878577
 10
206.9664807877
 20
101.352680267
 10
206.8957352254
 20
101.5163298929
 10
206.8355422585
 20
101.6827881832
 10
206.7860668716
 20
101.8515988871
 10
206.7474446733
 20
102.0222993065
 10
206.7197815244
 20
102.1944215631
 10
206.7031532476
 20
102.367493882
 10
206.69760542
 20
102.5410418839
  0
LWPOLYLINE
  5
384
100
AcDbEntity
  8
0
100
AcDbPolyline
 62
7
  6
CONTINUOUS
 90
25
 70
0
 10
190.3169991336
 20
119.6241342681
 10
190.3284865021
 20
119.4947148589
 10
190.3583952689
 20
119.3715459021
 10
190.4067254341
 20
119.2546273976
 10
190.4749177545
 20
119.142193053
 10
190.5615314732
 20
119.0360091607
 10
190.6622443199
 20
118.9413745985
 10
190.7777717826
 20
118.85887546
 10
190.9073983731
 20
118.7879256515
 10
191.0446553567
 20
118.7320657699
 10
191.1899299528
 20
118.6920615835
 10
191.3428349418
 20
118.6671473239
 10
191.4957399309
 20
118.6585662835
 10
191.64864492
 20
118.6671473239
 10
191.8015499091
 20
118.6920615835
 10
191.9468245051
 20
118.7320657699
 10
192.0840814887
 20
118.7879256515
 10
192.2137080793
 20
118.85887546
 10
192.3292355419
 20
118.9413745985
 10
192.4299483886
 20
119.0360091607
 10
192.5165621073
 20
119.142193053
 10
192.5847544277
 20
119.2546273976
 10
192.6330845929
 20
119.3715459021
 10
192.6629933597
 20
119.4947148589
 10
192.6744807282
 20
119.6241342681
  0
LWPOLYLINE
  5
385
100
AcDbEntity
  8
0
100
AcDbPolyline
 62
7
  6
CONTINUOUS
 90
25
 70
0
 10
192.6744807282
 20
122.0815905302
 10
192.6629933597
 20
122.2110099394
 10
192.6330845929
 20
122.3341788963
 10
192.5847544277
 20
122.4510974007
 10
192.5165621073
 20
122.5635317454
 10
192.4299483886
 20
122.6697156376
 10
192.3292355419
 20
122.7643501998
 10
192.2137080793
 20
122.8468493383
 10
192.0840814887
 20
122.9177991468
 10
191.9468245051
 20
122.9736590284
 10
191.8015499091
 20
123.0136632149
 10
191.64864492
 20
123.0385774744
 10
191.4957399309
 20
123.0471585148
 10
191.3428349418
 20
123.0385774744
 10
191.1899299528
 20
123.0136632149
 10
191.0446553567
 20
122.9736590284
 10
190.9073983731
 20
122.9177991468
 10
190.7777717826
 20
122.8468493383
 10
190.6622443199
 20
122.7643501998
 10
190.5615314732
 20
122.6697156376
 10
190.4749177545
 20
122.5635317454
 10
190.4067254341
 20
122.4510974007
 10
190.3583952689
 20
122.3341788963
 10
190.3284865021
 20
122.2110099394
 10
190.3169991336
 20
122.0815905302
  0
LWPOLYLINE
  5
386
100
AcDbEntity
  8
0
100
AcDbPolyline
 62
7
  6
CONTINUOUS
 90
28
 70
0
 10
189.2457399309
 20
119.3947037182
 10
189.2626352657
 20
119.1761307783
 10
189.3078658001
 20
118.9660058926
 10
189.3814315341
 20
118.764329061
 10
189.4850778455
 20
118.5686239187
 10
189.6170593565
 20
118.3813668306
 10
189.7721399339
 20
118.2099868907
 10
189.9512482737
 20
118.0551224385
 10
190.1534556799
 20
117.9161351345
 10
190.3707399309
 20
117.7985390544
 10
190.60370719
 20
117.7031942307
 10
190.851751294
 20
117.6292406309
 10
191.1050315312
 20
117.5796122335
 10
191.3637584199
 20
117.5552870312
 10
191.6277214419
 20
117.5552870312
 10
191.8864483307
 20
117.5796122335
 10
192.1397285678
 20
117.6292406309
 10
192.3877726718
 20
117.7031942307
 10
192.6207399309
 20
117.7985390544
 10
192.8380241819
 20
117.9161351345
 10
193.0402315881
 20
118.0551224385
 10
193.2193399279
 20
118.2099868907
 10
193.3744205053
 20
118.3813668306
 10
193.5064020163
 20
118.5686239187
 10
193.6100483277
 20
118.764329061
 10
193.6836140617
 20
118.9660058926
 10
193.7288445961
 20
119.1761307783
 10
193.7457399309
 20
119.3947037182
  0
LWPOLYLINE
  5
387
100
AcDbEntity
  8
0
100
AcDbPolyline
 62
7
  6
CONTINUOUS
 90
28
 70
0
 10
189.7457399309
 20
119.3947037182
 10
189.7588807469
 20
119.2247025427
 10
189.7940600514
 20
119.0612720761
 10
189.8512778445
 20
118.9044123181
 10
189.9318916423
 20
118.7521972075
 10
190.0345439286
 20
118.6065528056
 10
190.1551621555
 20
118.4732572968
 10
190.294468642
 20
118.3528071673
 10
190.451741069
 20
118.2447059309
 10
190.6207399309
 20
118.153242313
 10
190.801936688
 20
118.0790852279
 10
190.99485988
 20
118.0215657614
 10
191.19185562
 20
117.9829658968
 10
191.3930876446
 20
117.9640462949
 10
191.5983922172
 20
117.9640462949
 10
191.7996242418
 20
117.9829658968
 10
191.9966199819
 20
118.0215657614
 10
192.1895431738
 20
118.0790852279
 10
192.3707399309
 20
118.153242313
 10
192.5397387928
 20
118.2447059309
 10
192.6970112198
 20
118.3528071673
 10
192.8363177064
 20
118.4732572968
 10
192.9569359332
 20
118.6065528056
 10
193.0595882195
 20
118.7521972075
 10
193.1402020173
 20
118.9044123181
 10
193.1974198104
 20
119.0612720761
 10
193.232599115
 20
119.2247025427
 10
193.2457399309
 20
119.3947037182
  0
LWPOLYLINE
  5
388
100
AcDbEntity
  8
0
100
AcDbPolyline
 62
7
  6
CONTINUOUS
 90
28
 70
0
 10
193.2457399309
 20
121.8521599803
 10
193.232599115
 20
122.0221611557
 10
193.1974198104
 20
122.1855916224
 10
193.1402020173
 20
122.3424513804
 10
193.0595882195
 20
122.494666491
 10
192.9569359332
 20
122.6403108928
 10
192.8363177064
 20
122.7736064016
 10
192.6970112198
 20
122.8940565311
 10
192.5397387928
 20
123.0021577676
 10
192.3707399309
 20
123.0936213854
 10
192.1895431738
 20
123.1677784705
 10
191.9966199819
 20
123.225297937
 10
191.7996242418
 20
123.2638978017
 10
191.5983922172
 20
123.2828174035
 10
191.3930876446
 20
123.2828174035
 10
191.19185562
 20
123.2638978017
 10
190.99485988
 20
123.225297937
 10
190.801936688
 20
123.1677784705
 10
190.6207399309
 20
123.0936213854
 10
190.451741069
 20
123.0021577676
 10
190.294468642
 20
122.8940565311
 10
190.1551621555
 20
122.7736064016
 10
190.0345439286
 20
122.6403108928
 10
189.9318916423
 20
122.494666491
 10
189.8512778445
 20
122.3424513804
 10
189.7940600514
 20
122.1855916224
 10
189.7588807469
 20
122.0221611557
 10
189.7457399309
 20
121.8521599803
  0
LWPOLYLINE
  5
389
100
AcDbEntity
  8
0
100
AcDbPolyline
 62
7
  6
CONTINUOUS
 90
28
 70
0
 10
193.7457399309
 20
121.8521599803
 10
193.7288445961
 20
122.0707329201
 10
193.6836140617
 20
122.2808578059
 10
193.6100483277
 20
122.4825346375
 10
193.5064020163
 20
122.6782397797
 10
193.3744205053
 20
122.8654968679
 10
193.2193399279
 20
123.0368768077
 10
193.0402315881
 20
123.19174126
 10
192.8380241819
 20
123.330728564
 10
192.6207399309
 20
123.448324644
 10
192.3877726718
 20
123.5436694677
 10
192.1397285678
 20
123.6176230675
 10
191.8864483307
 20
123.667251465
 10
191.6277214419
 20
123.6915766673
 10
191.3637584199
 20
123.6915766673
 10
191.1050315312
 20
123.667251465
 10
190.851751294
 20
123.6176230675
 10
190.60370719
 20
123.5436694677
 10
190.3707399309
 20
123.448324644
 10
190.1534556799
 20
123.330728564
 10
189.9512482737
 20
123.19174126
 10
189.7721399339
 20
123.0368768077
 10
189.6170593565
 20
122.8654968679
 10
189.4850778455
 20
122.6782397797
 10
189.3814315341
 20
122.4825346375
 10
189.3078658001
 20
122.2808578059
 10
189.2626352657
 20
122.0707329201
 10
189.2457399309
 20
121.8521599803
  0
LINE
  5
38A
100
AcDbEntity
  8
0
100
AcDbLine
 62
7
  6
CONTINUOUS
 10
190.3169991336
 20
122.0815905302
 11
190.3169991336
 21
119.6241342681
  0
LINE
  5
38B
100
AcDbEntity
  8
0
100
AcDbLine
 62
7
  6
CONTINUOUS
 10
192.6744807282
 20
119.6241342681
 11
192.6744807282
 21
122.0815905302
  0
LINE
  5
38C
100
AcDbEntity
  8
0
100
AcDbLine
 62
7
  6
CONTINUOUS
 10
193.2457399309
 20
119.3947037182
 11
193.2457399309
 21
121.8521599803
  0
LINE
  5
38D
100
AcDbEntity
  8
0
100
AcDbLine
 62
7
  6
CONTINUOUS
 10
193.7457399309
 20
119.3947037182
 11
193.7457399309
 21
121.8521599803
  0
LINE
  5
38E
100
AcDbEntity
  8
0
100
AcDbLine
 62
7
  6
CONTINUOUS
 10
194.3059059615
 20
119.853564818
 11
194.3059059615
 21
122.3110210801
  0
LWPOLYLINE
  5
38F
100
AcDbEntity
  8
0
100
AcDbPolyline
 62
7
  6
CONTINUOUS
 90
32
 70
0
 10
213.4568318827
 20
100.0784886145
 10
213.3244374706
 20
99.9850164515
 10
213.1770401339
 20
99.8903327501
 10
213.0235532181
 20
99.80108075
 10
212.8645941687
 20
99.7176637637
 10
212.7003688779
 20
99.6402233012
 10
212.5312369196
 20
99.5689754761
 10
212.3577137637
 20
99.5041745501
 10
212.1802320868
 20
99.4460074012
 10
211.9993825068
 20
99.3946790147
 10
211.8155387802
 20
99.350298997
 10
211.6287973237
 20
99.3129182953
 10
211.4395182685
 20
99.2826608235
 10
211.2483257264
 20
99.2596705332
 10
211.0557047374
 20
99.2440362707
 10
210.8621669271
 20
99.2358242854
 10
210.6682335974
 20
99.2350742395
 10
210.474409891
 20
99.2417992963
 10
210.2812148451
 20
99.25598665
 10
210.0891721838
 20
99.2775958791
 10
209.8987938748
 20
99.306560288
 10
209.7107062067
 20
99.3427614428
 10
209.5252945735
 20
99.3860944026
 10
209.3427188869
 20
99.4365116635
 10
209.1633858574
 20
99.4939109138
 10
208.9878874754
 20
99.5581048153
 10
208.8166735841
 20
99.6289184417
 10
208.6502602356
 20
99.7061180237
 10
208.4890523212
 20
99.7894860575
 10
208.3333366803
 20
99.8788511159
 10
208.183753302
 20
99.9738064474
 10
208.0346417221
 20
100.0784932368
  0
LINE
  5
390
100
AcDbEntity
  8
RACCORDO
100
AcDbLine
 62
253
  6
CONTINUOUS
 10
227.2477768888
 20
139.5119839126
 11
225.2537731452
 21
139.5119839083
  0
LINE
  5
391
100
AcDbEntity
  8
RACCORDO
100
AcDbLine
 62
253
  6
CONTINUOUS
 10
85.7437029731
 20
139.5119839126
 11
87.7377067166
 21
139.5119839083
  0
LINE
  5
392
100
AcDbEntity
  8
RACCORDO
100
AcDbLine
 62
253
  6
CONTINUOUS
 10
91.0985996563
 20
141.0811133147
 11
221.8928938877
 21
141.0811133147
  0
LWPOLYLINE
  5
393
100
AcDbEntity
  8
0
100
AcDbPolyline
 62
7
  6
CONTINUOUS
 90
21
 70
0
 10
214.7635103948
 20
106.1913290306
 10
214.7992811754
 20
106.1646953107
 10
214.988380617
 20
106.0164096768
 10
215.1694039508
 20
105.8615084828
 10
215.3420065888
 20
105.7002865918
 10
215.5058599719
 20
105.5330508991
 10
215.660652196
 20
105.360119747
 10
215.8060886052
 20
105.1818223201
 10
215.9418923531
 20
104.9984980175
 10
216.0678049296
 20
104.8104958074
 10
216.1835866528
 20
104.6181735629
 10
216.2890171257
 20
104.4218973801
 10
216.3838956554
 20
104.222040882
 10
216.4680416352
 20
104.0189845067
 10
216.5412948885
 20
103.8131147837
 10
216.6035159735
 20
103.6048235976
 10
216.6545864489
 20
103.3945074425
 10
216.6944090991
 20
103.1825666672
 10
216.7229081195
 20
102.9694047131
 10
216.7400292604
 20
102.755427346
 10
216.7457399309
 20
102.5410418839
  0
LINE
  5
394
100
AcDbEntity
  8
0
100
AcDbLine
 62
253
  6
CONTINUOUS
 10
188.6855739003
 20
119.853564818
 11
189.2457399309
 21
119.3947037182
  0
LINE
  5
395
100
AcDbEntity
  8
0
100
AcDbLine
 62
253
  6
CONTINUOUS
 10
188.6855739003
 20
122.3110210801
 11
189.2457399309
 21
121.8521599803
  0
LWPOLYLINE
  5
396
100
AcDbEntity
  8
0
100
AcDbPolyline
 62
7
  6
CONTINUOUS
 90
34
 70
0
 10
194.3059059615
 20
122.3110210801
 10
194.2922333595
 20
122.5330373125
 10
194.2542895363
 20
122.7492157154
 10
194.1920744919
 20
122.9595562887
 10
194.1045912361
 20
123.165847327
 10
193.9928367591
 20
123.3663005358
 10
193.859802032
 20
123.5555510317
 10
193.7049123882
 20
123.7332962892
 10
193.5287424941
 20
123.8998388338
 10
193.3360073202
 20
124.0507213595
 10
193.1262595262
 20
124.1855209725
 10
192.8999464522
 20
124.3046605665
 10
192.663125089
 20
124.4049515171
 10
192.4155116636
 20
124.4858848226
 10
192.157389949
 20
124.5479694847
 10
191.8956682551
 20
124.5895438838
 10
191.6302493654
 20
124.6100541467
 10
191.3612304964
 20
124.6100541467
 10
191.0958116068
 20
124.5895438838
 10
190.8340899128
 20
124.5479694847
 10
190.5759681982
 20
124.4858848226
 10
190.3283547728
 20
124.4049515171
 10
190.0915334096
 20
124.3046605665
 10
189.8652203357
 20
124.1855209725
 10
189.6554725416
 20
124.0507213595
 10
189.4627373677
 20
123.8998388338
 10
189.2865674737
 20
123.7332962892
 10
189.1316778299
 20
123.5555510317
 10
188.9986431027
 20
123.3663005358
 10
188.8868886257
 20
123.165847327
 10
188.7994053699
 20
122.9595562887
 10
188.7371903256
 20
122.7492157154
 10
188.6992465024
 20
122.5330373125
 10
188.6855739003
 20
122.3110210801
  0
LINE
  5
397
100
AcDbEntity
  8
0
100
AcDbLine
 62
7
  6
CONTINUOUS
 10
207.7391680464
 20
134.8114371198
 11
207.7457399309
 21
134.8358216024
  0
LWPOLYLINE
  5
398
100
AcDbEntity
  8
RACCORDO
100
AcDbPolyline
 62
253
  6
CONTINUOUS
 90
16
 70
0
 10
91.0978991773
 20
141.0811133147
 10
90.8985946796
 20
141.0671748791
 10
90.7012793612
 20
141.0419263094
 10
90.5079225455
 20
141.0056196657
 10
90.3204540461
 20
140.9586173939
 10
90.1407449119
 20
140.9013886215
 10
89.970588753
 20
140.834504465
 10
89.8116838326
 20
140.7586324533
 10
89.6656161159
 20
140.6745298737
 10
89.5338434474
 20
140.5830361212
 10
89.4176810009
 20
140.4850643211
 10
89.318288147
 20
140.3815923074
 10
89.2366568829
 20
140.2736528555
 10
89.1736019391
 20
140.1623232507
 10
89.1297526474
 20
140.048714547
 10
89.1055466543
 20
139.933960565
  0
LWPOLYLINE
  5
399
100
AcDbEntity
  8
RACCORDO
100
AcDbPolyline
 62
253
  6
CONTINUOUS
 90
16
 70
0
 10
91.0978991773
 20
141.9336559334
 10
90.8904600382
 20
141.9225588072
 10
90.6843849285
 20
141.889575991
 10
90.482483185
 20
141.8349272964
 10
90.2877200544
 20
141.7595749366
 10
90.1021511059
 20
141.6645128987
 10
89.9271803677
 20
141.550222697
 10
89.7650543554
 20
141.418223001
 10
89.6177419098
 20
141.2703758625
 10
89.4864147033
 20
141.1073981573
 10
89.3726970269
 20
140.9315259492
 10
89.2780047458
 20
140.7453456736
 10
89.2033106098
 20
140.5497949274
 10
89.1495145855
 20
140.3469488136
 10
89.1169935374
 20
140.1405367787
 10
89.1055466543
 20
139.933960565
  0
LWPOLYLINE
  5
39A
100
AcDbEntity
  8
0
100
AcDbPolyline
 62
7
  6
CONTINUOUS
 90
22
 70
0
 10
88.2453335905
 20
142.7030940747
 10
88.01999996
 20
142.6944839222
 10
87.7981209224
 20
142.6695565928
 10
87.5796964777
 20
142.6283120864
 10
87.3634604467
 20
142.5703388548
 10
87.1506790086
 20
142.4960484464
 10
86.945150701
 20
142.4066755059
 10
86.7470828979
 20
142.3019673488
 10
86.5562682253
 20
142.1821766596
 10
86.3758830995
 20
142.0492961373
 10
86.2061021192
 20
141.9031065677
 10
86.0467506857
 20
141.7438271649
 10
85.9004814195
 20
141.5741082698
 10
85.767513309
 20
141.3937750401
 10
85.6476273658
 20
141.2030023182
 10
85.5428192457
 20
141.004964972
 10
85.4533414336
 20
140.7995098388
 10
85.3789414445
 20
140.5867900814
 10
85.3208574796
 20
140.3704400562
 10
85.2795022725
 20
140.1516712154
 10
85.2544630896
 20
139.9292721069
 10
85.2457399309
 20
139.7032427305
  0
LWPOLYLINE
  5
39B
100
AcDbEntity
  8
0
100
AcDbPolyline
 62
7
  6
CONTINUOUS
 90
43
 70
0
 10
99.2457399309
 20
140.6602827076
 10
98.7065103941
 20
140.6431476172
 10
98.1761457565
 20
140.5941969373
 10
97.6546460181
 20
140.5134306681
 10
97.1392043868
 20
140.4000442881
 10
96.6326276547
 20
140.2548423188
 10
96.1433361979
 20
140.0802383237
 10
95.671618935
 20
139.8757408561
 10
95.2171869474
 20
139.6418413628
 10
94.7875938554
 20
139.3824277477
 10
94.3832548342
 20
139.0970735494
 10
94.0037547085
 20
138.7862052293
 10
93.6554015727
 20
138.454990076
 10
93.33871604
 20
138.103087998
 10
93.0531774973
 20
137.7308390868
 10
92.8035321985
 20
137.3444309062
 10
92.5903800894
 20
136.9436267881
 10
92.4131212243
 20
136.5286634005
 10
92.2747020203
 20
136.1064383124
 10
92.1757716716
 20
135.6768301462
 10
92.1156809839
 20
135.2399602793
 10
92.0954287915
 20
134.8030904125
 10
92.1156809839
 20
134.3662205456
 10
92.1757716716
 20
133.9293506788
 10
92.2747020203
 20
133.4997425126
 10
92.4131212243
 20
133.0775174244
 10
92.5903800894
 20
132.6625540369
 10
92.8035321985
 20
132.2617499187
 10
93.0531774973
 20
131.8753417382
 10
93.33871604
 20
131.503092827
 10
93.6554015727
 20
131.1511907489
 10
94.0037547085
 20
130.8199755957
 10
94.3832548342
 20
130.5091072756
 10
94.7875938554
 20
130.2237530772
 10
95.2171869474
 20
129.9643394621
 10
95.671618935
 20
129.7304399688
 10
96.1433361979
 20
129.5259425012
 10
96.6326276547
 20
129.3513385061
 10
97.1392043868
 20
129.2061365368
 10
97.6546460181
 20
129.0927501569
 10
98.1761457565
 20
129.0119838876
 10
98.7065103941
 20
128.9630332077
 10
99.2457399309
 20
128.9458981173
  0
LINE
  5
39C
100
AcDbEntity
  8
RACCORDO
100
AcDbLine
 62
253
  6
CONTINUOUS
 10
91.0978950851
 20
141.9336559334
 11
221.8935847767
 21
141.9336559334
  0
LINE
  5
39D
100
AcDbEntity
  8
RACCORDO
100
AcDbLine
 62
7
  6
CONTINUOUS
 10
89.8605023059
 20
142.295329365
 11
223.130977556
 21
142.295329365
  0
LINE
  5
39E
100
AcDbEntity
  8
RACCORDO
100
AcDbLine
 62
253
  6
CONTINUOUS
 10
88.7393709571
 20
142.5104809526
 11
224.2521089046
 21
142.5104809526
  0
LINE
  5
39F
100
AcDbEntity
  8
0
100
AcDbLine
 62
7
  6
CONTINUOUS
 10
88.2453335905
 20
142.7030940747
 11
224.7461462714
 21
142.7030940747
  0
LWPOLYLINE
  5
3A0
100
AcDbEntity
  8
RACCORDO
100
AcDbPolyline
 62
7
  6
CONTINUOUS
 90
13
 70
0
 10
223.130977556
 20
142.295329365
 10
223.2232184053
 20
142.293025521
 10
223.3164258742
 20
142.2862580702
 10
223.4105999627
 20
142.2748356874
 10
223.5063988195
 20
142.2580394006
 10
223.6031642959
 20
142.2358092818
 10
223.6989219453
 20
142.2089110683
 10
223.7928745672
 20
142.1771241383
 10
223.885819362
 20
142.1397192109
 10
223.9781734843
 20
142.0968687925
 10
224.0700759857
 20
142.0483565219
 10
224.1613878145
 20
141.9934784543
 10
224.2521089708
 20
141.931759104
  0
LWPOLYLINE
  5
3A1
100
AcDbEntity
  8
0
100
AcDbPolyline
 62
7
  6
CONTINUOUS
 90
43
 70
0
 10
213.7457399309
 20
140.6602827076
 10
214.2849694677
 20
140.6431476172
 10
214.8153341053
 20
140.5941969373
 10
215.3368338437
 20
140.5134306681
 10
215.852275475
 20
140.4000442881
 10
216.3588522071
 20
140.2548423188
 10
216.8481436639
 20
140.0802383237
 10
217.3198609268
 20
139.8757408561
 10
217.7742929144
 20
139.6418413628
 10
218.2038860065
 20
139.3824277477
 10
218.6082250277
 20
139.0970735494
 10
218.9877251533
 20
138.7862052293
 10
219.3360782892
 20
138.454990076
 10
219.6527638218
 20
138.103087998
 10
219.9383023646
 20
137.7308390868
 10
220.1879476634
 20
137.3444309062
 10
220.4010997724
 20
136.9436267881
 10
220.5783586375
 20
136.5286634005
 10
220.7167778415
 20
136.1064383124
 10
220.8157081903
 20
135.6768301462
 10
220.8757988779
 20
135.2399602793
 10
220.8960510703
 20
134.8030904125
 10
220.8757988779
 20
134.3662205456
 10
220.8157081903
 20
133.9293506788
 10
220.7167778415
 20
133.4997425126
 10
220.5783586375
 20
133.0775174244
 10
220.4010997724
 20
132.6625540369
 10
220.1879476634
 20
132.2617499187
 10
219.9383023646
 20
131.8753417382
 10
219.6527638218
 20
131.503092827
 10
219.3360782892
 20
131.1511907489
 10
218.9877251533
 20
130.8199755957
 10
218.6082250277
 20
130.5091072756
 10
218.2038860065
 20
130.2237530772
 10
217.7742929144
 20
129.9643394621
 10
217.3198609268
 20
129.7304399688
 10
216.8481436639
 20
129.5259425012
 10
216.3588522071
 20
129.3513385061
 10
215.852275475
 20
129.2061365368
 10
215.3368338437
 20
129.0927501569
 10
214.8153341053
 20
129.0119838876
 10
214.2849694677
 20
128.9630332077
 10
213.7457399309
 20
128.9458981173
  0
LWPOLYLINE
  5
3A2
100
AcDbEntity
  8
RACCORDO
100
AcDbPolyline
 62
253
  6
CONTINUOUS
 90
22
 70
0
 10
224.2521089153
 20
142.510412739
 10
224.4760632012
 20
142.5018487728
 10
224.6987410071
 20
142.4765785038
 10
224.9188057543
 20
142.4346985119
 10
225.1350618924
 20
142.3765147267
 10
225.3463518076
 20
142.3023573645
 10
225.5515432947
 20
142.2125753704
 10
225.7495421982
 20
142.107684247
 10
225.939210866
 20
141.9883153462
 10
226.1193928173
 20
141.8551419587
 10
226.2890237997
 20
141.7089323156
 10
226.4472623831
 20
141.550526289
 10
226.5933080288
 20
141.3807232393
 10
226.7263242846
 20
141.2003566922
 10
226.8455518116
 20
141.0105070482
 10
226.9503133111
 20
140.8123397852
 10
227.039963775
 20
140.6069922194
 10
227.1140070626
 20
140.3955522528
 10
227.1721096298
 20
140.1791420176
 10
227.2139295578
 20
139.9589124857
 10
227.2391534751
 20
139.7360729489
 10
227.2477062118
 20
139.5119839067
  0
LWPOLYLINE
  5
3A3
100
AcDbEntity
  8
RACCORDO
100
AcDbPolyline
 62
253
  6
CONTINUOUS
 90
16
 70
0
 10
221.8935806845
 20
141.9336559334
 10
222.1019963383
 20
141.9223382434
 10
222.3070851686
 20
141.8894511097
 10
222.5073368035
 20
141.8354701216
 10
222.7014768052
 20
141.7606437384
 10
222.88755349
 20
141.6654737494
 10
223.0627901628
 20
141.5513240091
 10
223.2248163792
 20
141.4197431198
 10
223.372316379
 20
141.2717994822
 10
223.5039010815
 20
141.1090052348
 10
223.6177078828
 20
140.93350205
 10
223.7124609478
 20
140.7472145868
 10
223.7875522216
 20
140.5516966782
 10
223.8420299285
 20
140.3491309835
 10
223.8749398185
 20
140.1423361559
 10
223.8859332075
 20
139.933960565
  0
LWPOLYLINE
  5
3A4
100
AcDbEntity
  8
RACCORDO
100
AcDbPolyline
 62
253
  6
CONTINUOUS
 90
16
 70
0
 10
221.8935806845
 20
141.0811133147
 10
222.0940288541
 20
141.0673905118
 10
222.2907142812
 20
141.0421037585
 10
222.4827021994
 20
141.0058062438
 10
222.669748413
 20
140.959077314
 10
222.8500647975
 20
140.9019539751
 10
223.0203739108
 20
140.8347289322
 10
223.1790946233
 20
140.7589273627
 10
223.3254506601
 20
140.6751206039
 10
223.4574145859
 20
140.5832056531
 10
223.5735435162
 20
140.4850970813
 10
223.6730143869
 20
140.382109995
 10
223.754758238
 20
140.2737510061
 10
223.8178525527
 20
140.1612022304
 10
223.861694236
 20
140.0472446883
 10
223.8859332075
 20
139.933960565
  0
LWPOLYLINE
  5
3A5
100
AcDbEntity
  8
RACCORDO
100
AcDbPolyline
 62
253
  6
CONTINUOUS
 90
16
 70
0
 10
225.0944340584
 20
67.3536893679
 10
224.9642085792
 20
67.5836414429
 10
224.804848768
 20
67.8927109433
 10
224.6165759793
 20
68.2808978692
 10
224.399604727
 20
68.7480341742
 10
224.1541658596
 20
69.2942879046
 10
223.8805170917
 20
69.9201631996
 10
223.5787804808
 20
70.6257331534
 10
223.2492884444
 20
71.4109246718
 10
222.8927285346
 20
72.2760226116
 10
222.5092395087
 20
73.2217231753
 10
222.0993399871
 20
74.2473301604
 10
221.6646206953
 20
75.3510398156
 10
221.206093606
 20
76.5322508904
 10
220.7239361212
 20
77.7915646352
 10
220.2187129857
 20
79.1289810501
  0
LWPOLYLINE
  5
3A6
100
AcDbEntity
  8
RACCORDO
100
AcDbPolyline
 62
253
  6
CONTINUOUS
 90
16
 70
0
 10
223.0971805876
 20
65.354385119
 10
222.9674743137
 20
65.5866267889
 10
222.8092108108
 20
65.8996154092
 10
222.6223900789
 20
66.2931841177
 10
222.4067807125
 20
66.7668434823
 10
222.1626141171
 20
67.3205234883
 10
221.8905845087
 20
67.9550025411
 10
221.5904998236
 20
68.6706074397
 10
221.2625521255
 20
69.4670855824
 10
220.9080118214
 20
70.3447600537
 10
220.5264962838
 20
71.3040072556
 10
220.1183881403
 20
72.3444233632
 10
219.6861056807
 20
73.4650052552
 10
219.2304550017
 20
74.6650848508
 10
218.7506300067
 20
75.9445284618
 10
218.2466306956
 20
77.3028776574
  0
LINE
  5
3A7
100
AcDbEntity
  8
0
100
AcDbLine
 62
7
  6
CONTINUOUS
 10
204.7457399309
 20
102.5410418839
 11
204.7457399309
 21
101.5043030244
  0
LWPOLYLINE
  5
3A8
100
AcDbEntity
  8
0
100
AcDbPolyline
 62
7
  6
CONTINUOUS
 90
21
 70
0
 10
204.7457399309
 20
102.5410418839
 10
204.7514506014
 20
102.755427346
 10
204.7685717424
 20
102.9694047131
 10
204.7970707627
 20
103.1825666672
 10
204.8368934129
 20
103.3945074425
 10
204.8879638883
 20
103.6048235976
 10
204.9501849733
 20
103.8131147837
 10
205.0234382266
 20
104.0189845067
 10
205.1075842064
 20
104.222040882
 10
205.2024627361
 20
104.4218973801
 10
205.307893209
 20
104.6181735629
 10
205.4236749323
 20
104.8104958074
 10
205.5495875087
 20
104.9984980175
 10
205.6853912566
 20
105.1818223201
 10
205.8308276658
 20
105.360119747
 10
205.9856198899
 20
105.5330508991
 10
206.1494732731
 20
105.7002865918
 10
206.322075911
 20
105.8615084828
 10
206.5030992449
 20
106.0164096768
 10
206.6921986864
 20
106.1646953107
 10
206.7279410782
 20
106.1913080635
  0
LINE
  5
3A9
100
AcDbEntity
  8
0
100
AcDbLine
 62
7
  6
CONTINUOUS
 10
204.7391680464
 20
102.3730142483
 11
204.7457399309
 21
102.3973987295
  0
LINE
  5
3AA
100
AcDbEntity
  8
0
100
AcDbLine
 62
7
  6
CONTINUOUS
 10
207.7457399309
 20
134.9794645986
 11
207.7457399309
 21
133.9427258502
  0
LWPOLYLINE
  5
3AB
100
AcDbEntity
  8
0
100
AcDbPolyline
 62
7
  6
CONTINUOUS
 90
21
 70
0
 10
207.7457399309
 20
134.9794645986
 10
207.7514506014
 20
135.1938500719
 10
207.7685717424
 20
135.4078274503
 10
207.7970707627
 20
135.6209894156
 10
207.8368934129
 20
135.832930202
 10
207.8879638883
 20
136.0432463682
 10
207.9501849733
 20
136.2515375652
 10
208.0234382266
 20
136.4574072991
 10
208.1075842064
 20
136.660463685
 10
208.2024627361
 20
136.8603201937
 10
208.307893209
 20
137.0565963868
 10
208.4236749323
 20
137.2489186414
 10
208.5495875087
 20
137.4369208614
 10
208.6853912566
 20
137.6202451736
 10
208.8308276658
 20
137.7985426099
 10
208.9856198899
 20
137.971473771
 10
209.1494732731
 20
138.1387094726
 10
209.322075911
 20
138.299931372
 10
209.5030992449
 20
138.4548325742
 10
209.6921986864
 20
138.6031182159
 10
209.7279410782
 20
138.6297309701
  0
LWPOLYLINE
  5
3AC
100
AcDbEntity
  8
0
100
AcDbPolyline
 62
7
  6
CONTINUOUS
 90
61
 70
0
 10
214.7938744419
 20
102.5410418839
 10
214.7883266142
 20
102.7145898858
 10
214.7716983375
 20
102.8876622047
 10
214.7440351886
 20
103.0597844613
 10
214.7054129903
 20
103.2304848806
 10
214.6559376033
 20
103.3992955846
 10
214.5957446364
 20
103.5657538749
 10
214.5249990742
 20
103.7294035008
 10
214.4438948253
 20
103.8897959101
 10
214.352654191
 20
104.0464914784
 10
214.2515272553
 20
104.199060714
 10
214.1407912003
 20
104.3470854352
 10
214.0207495458
 20
104.4901599166
 10
213.8917313175
 20
104.627892001
 10
213.7540901456
 20
104.7599041742
 10
213.6082032948
 20
104.8858346001
 10
213.4544706309
 20
105.0053381122
 10
213.2933135244
 20
105.1180871596
 10
213.1251736958
 20
105.223772705
 10
212.9505120046
 20
105.3221050717
 10
212.7698071864
 20
105.4128147375
 10
212.5835545406
 20
105.4956530736
 10
212.3922645726
 20
105.5703930258
 10
212.1964615951
 20
105.636829737
 10
211.9966822903
 20
105.6947811089
 10
211.7934742395
 20
105.7440883008
 10
211.5873944217
 20
105.7846161652
 10
211.3790076875
 20
105.8162536179
 10
211.1688852104
 20
105.8389139428
 10
210.9576029215
 20
105.8525350297
 10
210.7457399309
 20
105.8570795441
 10
210.5338769403
 20
105.8525350297
 10
210.3225946514
 20
105.8389139428
 10
210.1124721743
 20
105.8162536179
 10
209.9040854401
 20
105.7846161652
 10
209.6980056223
 20
105.7440883008
 10
209.4947975715
 20
105.6947811089
 10
209.2950182667
 20
105.636829737
 10
209.0992152892
 20
105.5703930258
 10
208.9079253213
 20
105.4956530736
 10
208.7216726754
 20
105.4128147375
 10
208.5409678573
 20
105.3221050717
 10
208.3663061661
 20
105.223772705
 10
208.1981663375
 20
105.1180871596
 10
208.037009231
 20
105.0053381122
 10
207.8832765671
 20
104.8858346001
 10
207.7373897163
 20
104.7599041742
 10
207.5997485443
 20
104.627892001
 10
207.470730316
 20
104.4901599166
 10
207.3506886615
 20
104.3470854352
 10
207.2399526065
 20
104.199060714
 10
207.1388256709
 20
104.0464914784
 10
207.0475850365
 20
103.8897959101
 10
206.9664807877
 20
103.7294035008
 10
206.8957352254
 20
103.5657538749
 10
206.8355422585
 20
103.3992955846
 10
206.7860668716
 20
103.2304848806
 10
206.7474446733
 20
103.0597844613
 10
206.7197815244
 20
102.8876622047
 10
206.7031532476
 20
102.7145898858
 10
206.69760542
 20
102.5410418839
  0
LINE
  5
3AD
100
AcDbEntity
  8
0
100
AcDbLine
 62
7
  6
CONTINUOUS
 10
216.7457399309
 20
102.5410418839
 11
216.7457399309
 21
101.5043030244
  0
LWPOLYLINE
  5
3AE
100
AcDbEntity
  8
0
100
AcDbPolyline
 62
7
  6
CONTINUOUS
 90
37
 70
0
 10
216.7457399309
 20
102.5410418839
 10
216.7400292604
 20
102.3266564218
 10
216.7229081195
 20
102.1126790547
 10
216.6944090991
 20
101.8995171006
 10
216.6545864489
 20
101.6875763253
 10
216.6035159735
 20
101.4772601702
 10
216.5412948885
 20
101.2689689841
 10
216.4680416352
 20
101.0630992611
 10
216.3838956554
 20
100.8600428858
 10
216.2890171257
 20
100.6601863877
 10
216.1835866528
 20
100.4639102049
 10
216.0678049296
 20
100.2715879604
 10
215.9418923531
 20
100.0835857503
 10
215.8060886052
 20
99.9002614477
 10
215.660652196
 20
99.7219640208
 10
215.5058599719
 20
99.5490328687
 10
215.3420065888
 20
99.381797176
 10
215.1694039508
 20
99.220575285
 10
214.988380617
 20
99.065674091
 10
214.7992811754
 20
98.9173884571
 10
214.6024655878
 20
98.7760006534
 10
214.3983085036
 20
98.6417798198
 10
214.1871985475
 20
98.5149814531
 10
213.9695375794
 20
98.3958469212
 10
213.7457399292
 20
98.2846030036
 10
213.5162316085
 20
98.1814614593
 10
213.2814494994
 20
98.0866186241
 10
213.041840523
 20
98.0002550368
 10
212.7978607887
 20
97.9225350953
 10
212.5499747256
 20
97.853606744
 10
212.2986541991
 20
97.793601192
 10
212.0443776119
 20
97.742632663
 10
211.7876289941
 20
97.7007981788
 10
211.5288970815
 20
97.6681773736
 10
211.2686743852
 20
97.644832343
 10
211.0074562539
 20
97.6308075255
 10
210.7457399309
 20
97.6261296182
  0
LWPOLYLINE
  5
3AF
100
AcDbEntity
  8
0
100
AcDbPolyline
 62
7
  6
CONTINUOUS
 90
34
 70
0
 10
216.7457399309
 20
101.5043030244
 10
216.7389081797
 20
101.2706206693
 10
216.7185050177
 20
101.0369383142
 10
216.6846685822
 20
100.8048380801
 10
216.6373077191
 20
100.5743307029
 10
216.5765135825
 20
100.3454054467
 10
216.5026977726
 20
100.1196122251
 10
216.4157719281
 20
99.8969722912
 10
216.3158244103
 20
99.6774643919
 10
216.203531903
 20
99.4625746816
 10
216.0788106368
 20
99.252334498
 10
215.941744381
 20
99.0467125034
 10
215.7932611279
 20
98.8471008393
 10
215.6332834051
 20
98.6535402899
 10
215.4618886851
 20
98.4659900709
 10
215.280237377
 20
98.2857199708
 10
215.0882598829
 20
98.1127793901
 10
214.8860258008
 20
97.9471189284
 10
214.6749043346
 20
97.7898601716
 10
214.4548351772
 20
97.6410601312
 10
214.2258786357
 20
97.5006617959
 10
213.9895848356
 20
97.3696157173
 10
213.7459039884
 20
97.247985357
 10
213.4948858826
 20
97.1357072533
 10
213.2382300089
 20
97.0335415731
 10
212.9758981112
 20
96.9415569362
 10
212.7079284457
 20
96.8596847227
 10
212.436135272
 20
96.7884792395
 10
212.1604926447
 20
96.7280128679
 10
211.8810265092
 20
96.6782132266
 10
211.5996289606
 20
96.6394174788
 10
211.3169306971
 20
96.611738012
 10
211.0323010206
 20
96.5950624386
 10
210.7457399309
 20
96.5893907586
  0
LWPOLYLINE
  5
3B0
100
AcDbEntity
  8
0
100
AcDbPolyline
 62
7
  6
CONTINUOUS
 90
17
 70
0
 10
214.7938744419
 20
102.5410418839
 10
214.7883266142
 20
102.367493882
 10
214.7716983375
 20
102.1944215631
 10
214.7440351886
 20
102.0222993065
 10
214.7054129903
 20
101.8515988871
 10
214.6559376033
 20
101.6827881832
 10
214.5957446364
 20
101.5163298929
 10
214.5249990742
 20
101.352680267
 10
214.4438948253
 20
101.1922878577
 10
214.352654191
 20
101.0355922894
 10
214.2515272553
 20
100.8830230538
 10
214.1407912003
 20
100.7349983326
 10
214.0207495458
 20
100.5919238512
 10
213.8917313175
 20
100.4541917668
 10
213.7540901456
 20
100.3221795936
 10
213.6082032948
 20
100.1962491677
 10
213.4568318827
 20
100.0784886145
  0
LWPOLYLINE
  5
3B1
100
AcDbEntity
  8
0
100
AcDbPolyline
 62
7
  6
CONTINUOUS
 90
17
 70
0
 10
217.7938744419
 20
134.9794645986
 10
217.7883266142
 20
134.8059165875
 10
217.7716983375
 20
134.6328442596
 10
217.7440351886
 20
134.4607219938
 10
217.7054129903
 20
134.2900215655
 10
217.6559376033
 20
134.1212108527
 10
217.5957446364
 20
133.9547525537
 10
217.5249990742
 20
133.7911029192
 10
217.4438948253
 20
133.6307105014
 10
217.352654191
 20
133.4740149249
 10
217.2515272553
 20
133.3214456813
 10
217.1407912003
 20
133.1734209522
 10
217.0207495458
 20
133.0303464633
 10
216.8917313175
 20
132.8926143718
 10
216.7540901456
 20
132.7606021916
 10
216.6082032948
 20
132.634671759
 10
216.4568318827
 20
132.5169111996
  0
LWPOLYLINE
  5
3B2
100
AcDbEntity
  8
0
100
AcDbPolyline
 62
7
  6
CONTINUOUS
 90
17
 70
0
 10
211.0346417221
 20
132.5169158219
 10
210.8832765671
 20
132.634671759
 10
210.7373897163
 20
132.7606021916
 10
210.5997485443
 20
132.8926143718
 10
210.470730316
 20
133.0303464633
 10
210.3506886615
 20
133.1734209522
 10
210.2399526065
 20
133.3214456813
 10
210.1388256709
 20
133.4740149249
 10
210.0475850365
 20
133.6307105014
 10
209.9664807877
 20
133.7911029192
 10
209.8957352254
 20
133.9547525537
 10
209.8355422585
 20
134.1212108527
 10
209.7860668716
 20
134.2900215655
 10
209.7474446733
 20
134.4607219938
 10
209.7197815244
 20
134.6328442596
 10
209.7031532476
 20
134.8059165875
 10
209.69760542
 20
134.9794645986
  0
LINE
  5
3B3
100
AcDbEntity
  8
0
100
AcDbLine
 62
7
  6
CONTINUOUS
 10
216.7523118154
 20
102.3730142483
 11
216.7457399309
 21
102.3973987295
  0
LWPOLYLINE
  5
3B4
100
AcDbEntity
  8
0
100
AcDbPolyline
 62
7
  6
CONTINUOUS
 90
61
 70
0
 10
217.7938744419
 20
134.9794645986
 10
217.7883266142
 20
135.1530126096
 10
217.7716983375
 20
135.3260849375
 10
217.7440351886
 20
135.4982072033
 10
217.7054129903
 20
135.6689076316
 10
217.6559376033
 20
135.8377183444
 10
217.5957446364
 20
136.0041766434
 10
217.5249990742
 20
136.1678262779
 10
217.4438948253
 20
136.3282186957
 10
217.352654191
 20
136.4849142722
 10
217.2515272553
 20
136.6374835158
 10
217.1407912003
 20
136.7855082449
 10
217.0207495458
 20
136.9285827338
 10
216.8917313175
 20
137.0663148254
 10
216.7540901456
 20
137.1983270055
 10
216.6082032948
 20
137.3242574381
 10
216.4544706309
 20
137.4437609564
 10
216.2933135244
 20
137.5565100097
 10
216.1251736958
 20
137.6621955607
 10
215.9505120046
 20
137.7605279326
 10
215.7698071864
 20
137.8512376032
 10
215.5835545406
 20
137.9340759436
 10
215.3922645726
 20
138.0088158997
 10
215.1964615951
 20
138.0752526145
 10
214.9966822903
 20
138.1332039894
 10
214.7934742395
 20
138.1825111839
 10
214.5873944217
 20
138.2230390504
 10
214.3790076875
 20
138.2546765047
 10
214.1688852104
 20
138.2773368309
 10
213.9576029215
 20
138.2909579185
 10
213.7457399309
 20
138.2955024331
 10
213.5338769403
 20
138.2909579185
 10
213.3225946514
 20
138.2773368309
 10
213.1124721743
 20
138.2546765047
 10
212.9040854401
 20
138.2230390504
 10
212.6980056223
 20
138.1825111839
 10
212.4947975715
 20
138.1332039894
 10
212.2950182667
 20
138.0752526145
 10
212.0992152892
 20
138.0088158997
 10
211.9079253213
 20
137.9340759436
 10
211.7216726754
 20
137.8512376032
 10
211.5409678573
 20
137.7605279326
 10
211.3663061661
 20
137.6621955607
 10
211.1981663375
 20
137.5565100097
 10
211.037009231
 20
137.4437609564
 10
210.8832765671
 20
137.3242574381
 10
210.7373897163
 20
137.1983270055
 10
210.5997485443
 20
137.0663148254
 10
210.470730316
 20
136.9285827338
 10
210.3506886615
 20
136.7855082449
 10
210.2399526065
 20
136.6374835158
 10
210.1388256709
 20
136.4849142722
 10
210.0475850365
 20
136.3282186957
 10
209.9664807877
 20
136.1678262779
 10
209.8957352254
 20
136.0041766434
 10
209.8355422585
 20
135.8377183444
 10
209.7860668716
 20
135.6689076316
 10
209.7474446733
 20
135.4982072033
 10
209.7197815244
 20
135.3260849375
 10
209.7031532476
 20
135.1530126096
 10
209.69760542
 20
134.9794645986
  0
LWPOLYLINE
  5
3B5
100
AcDbEntity
  8
RACCORDO
100
AcDbPolyline
 62
253
  6
CONTINUOUS
 90
7
 70
0
 10
220.2187129857
 20
79.1289810501
 10
220.1405718983
 20
81.7638148785
 10
220.0618411466
 20
84.3980768261
 10
219.9825208594
 20
87.031766893
 10
219.9026111661
 20
89.664885079
 10
219.822112197
 20
92.2974313843
 10
219.7410240836
 20
94.9294058088
  0
LWPOLYLINE
  5
3B6
100
AcDbEntity
  8
RACCORDO
100
AcDbPolyline
 62
253
  6
CONTINUOUS
 90
7
 70
0
 10
218.2459199712
 20
78.781641501
 10
218.1681959544
 20
81.4164615387
 10
218.0898850336
 20
84.0507307574
 10
218.0109872088
 20
86.6844491574
 10
217.93150248
 20
89.3176167384
 10
217.8514308472
 20
91.9502335006
 10
217.7707723104
 20
94.582299444
  0
LINE
  5
3B7
100
AcDbEntity
  8
RACCORDO
100
AcDbLine
 62
253
  6
CONTINUOUS
 10
217.7707723226
 20
96.0767477687
 11
217.7707723226
 21
94.582299444
  0
LINE
  5
3B8
100
AcDbEntity
  8
RACCORDO
100
AcDbLine
 62
253
  6
CONTINUOUS
 10
218.2459199594
 20
78.781641501
 11
218.2459199594
 21
77.3028776574
  0
LINE
  5
3B9
100
AcDbEntity
  8
0
100
AcDbLine
 62
7
  6
CONTINUOUS
 10
219.7457399309
 20
134.9794645986
 11
219.7457399309
 21
133.9427258502
  0
LINE
  5
3BA
100
AcDbEntity
  8
RACCORDO
100
AcDbLine
 62
253
  6
CONTINUOUS
 10
221.8935806845
 20
141.9336559334
 11
221.8935806845
 21
141.0811133147
  0
LWPOLYLINE
  5
3BB
100
AcDbEntity
  8
0
100
AcDbPolyline
 62
7
  6
CONTINUOUS
 90
37
 70
0
 10
219.7457399309
 20
134.9794645986
 10
219.7400292604
 20
134.7650791252
 10
219.7229081195
 20
134.5511017468
 10
219.6944090991
 20
134.3379397815
 10
219.6545864489
 20
134.1259989951
 10
219.6035159735
 20
133.9156828289
 10
219.5412948885
 20
133.7073916319
 10
219.4680416352
 20
133.501521898
 10
219.3838956554
 20
133.2984655121
 10
219.2890171257
 20
133.0986090035
 10
219.1835866528
 20
132.9023328104
 10
219.0678049296
 20
132.7100105557
 10
218.9418923531
 20
132.5220083357
 10
218.8060886052
 20
132.3386840235
 10
218.660652196
 20
132.1603865872
 10
218.5058599719
 20
131.9874554261
 10
218.3420065888
 20
131.8202197245
 10
218.1694039508
 20
131.6589978251
 10
217.988380617
 20
131.5040966229
 10
217.7992811754
 20
131.3558109812
 10
217.6024655878
 20
131.2144231701
 10
217.3983085036
 20
131.0802023294
 10
217.1871985475
 20
130.953403956
 10
216.9695375794
 20
130.8342694179
 10
216.7457399292
 20
130.7230254944
 10
216.5162316085
 20
130.6198839447
 10
216.2814494994
 20
130.5250411045
 10
216.041840523
 20
130.4386775127
 10
215.7978607887
 20
130.3609575671
 10
215.5499747256
 20
130.2920292122
 10
215.2986541991
 20
130.232023657
 10
215.0443776119
 20
130.1810551254
 10
214.7876289941
 20
130.1392206389
 10
214.5288970815
 20
130.106599832
 10
214.2686743852
 20
130.0832548002
 10
214.0074562539
 20
130.069229982
 10
213.7457399309
 20
130.0645520744
  0
LWPOLYLINE
  5
3BC
100
AcDbEntity
  8
0
100
AcDbPolyline
 62
7
  6
CONTINUOUS
 90
34
 70
0
 10
219.7457399309
 20
133.9427258502
 10
219.7389081797
 20
133.7090434829
 10
219.7185050177
 20
133.4753611155
 10
219.6846685822
 20
133.2432608692
 10
219.6373077191
 20
133.0127534799
 10
219.5765135825
 20
132.7838282116
 10
219.5026977726
 20
132.5580349781
 10
219.4157719281
 20
132.3353950325
 10
219.3158244103
 20
132.1158871217
 10
219.203531903
 20
131.9009974001
 10
219.0788106368
 20
131.6907572054
 10
218.941744381
 20
131.4851352001
 10
218.7932611279
 20
131.2855235254
 10
218.6332834051
 20
131.0919629658
 10
218.4618886851
 20
130.904412737
 10
218.280237377
 20
130.7241426274
 10
218.0882598829
 20
130.5512020376
 10
217.8860258008
 20
130.3855415671
 10
217.6749043346
 20
130.2282828021
 10
217.4548351772
 20
130.0794827539
 10
217.2258786357
 20
129.9390844112
 10
216.9895848356
 20
129.8080383257
 10
216.7459039884
 20
129.686407959
 10
216.4948858826
 20
129.5741298495
 10
216.2382300089
 20
129.4719641638
 10
215.9758981112
 20
129.3799795221
 10
215.7079284457
 20
129.2981073043
 10
215.436135272
 20
129.2269018173
 10
215.1604926447
 20
129.1664354426
 10
214.8810265092
 20
129.1166357987
 10
214.5996289606
 20
129.0778400488
 10
214.3169306971
 20
129.0501605806
 10
214.0323010206
 20
129.0334850063
 10
213.7457399309
 20
129.027813326
  0
LWPOLYLINE
  5
3BD
100
AcDbEntity
  8
RACCORDO
100
AcDbPolyline
 62
253
  6
CONTINUOUS
 90
19
 70
0
 10
217.7713773283
 20
96.0767477687
 10
217.993850779
 20
97.9106253865
 10
218.2196866225
 20
99.8227690185
 10
218.4488848588
 20
101.8131786647
 10
218.682139673
 20
103.8818198591
 10
218.9187568799
 20
106.0287270676
 10
219.156653924
 20
108.2540036887
 10
219.3958773852
 20
110.557645719
 10
219.6363806836
 20
112.939657162
 10
219.875941524
 20
115.4001534265
 10
220.1146289604
 20
117.9391332447
 10
220.3523739388
 20
120.5565978844
 10
220.5867470028
 20
123.2526665574
 10
220.8178428663
 20
126.0273378306
 10
221.0455668154
 20
128.880613137
 10
221.267205252
 20
131.8126159875
 10
221.4818536431
 20
134.8233875524
 10
221.6904165217
 20
137.9128866615
 10
221.8928938877
 20
141.0811133147
  0
LWPOLYLINE
  5
3BE
100
AcDbEntity
  8
RACCORDO
100
AcDbPolyline
 62
253
  6
CONTINUOUS
 90
19
 70
0
 10
219.7410240836
 20
94.9294058088
 10
219.9639283595
 20
96.7633802015
 10
220.1913751641
 20
98.6755956969
 10
220.4227701355
 20
100.6660522952
 10
220.6575031285
 20
102.7347074878
 10
220.894921654
 20
104.8816037833
 10
221.134333065
 20
107.1068687067
 10
221.3750453759
 20
109.4105064704
 10
221.616345408
 20
111.7925128619
 10
221.8574757799
 20
114.2530027694
 10
222.0976726375
 20
116.7919745698
 10
222.336151435
 20
119.4094298862
 10
222.5720902044
 20
122.1054884746
 10
222.8046525886
 20
124.8801450682
 10
223.032982744
 20
127.733404934
 10
223.2561947104
 20
130.6654036284
 10
223.4733808247
 20
133.676186337
 10
223.683611203
 20
136.7657078744
 10
223.8859305479
 20
139.9339682404
  0
LWPOLYLINE
  5
3BF
100
AcDbEntity
  8
0
100
AcDbPolyline
 62
7
  6
CONTINUOUS
 90
21
 70
0
 10
217.7635103948
 20
138.6297519372
 10
217.7992811754
 20
138.6031182159
 10
217.988380617
 20
138.4548325742
 10
218.1694039508
 20
138.299931372
 10
218.3420065888
 20
138.1387094726
 10
218.5058599719
 20
137.971473771
 10
218.660652196
 20
137.7985426099
 10
218.8060886052
 20
137.6202451736
 10
218.9418923531
 20
137.4369208614
 10
219.0678049296
 20
137.2489186414
 10
219.1835866528
 20
137.0565963868
 10
219.2890171257
 20
136.8603201937
 10
219.3838956554
 20
136.660463685
 10
219.4680416352
 20
136.4574072991
 10
219.5412948885
 20
136.2515375652
 10
219.6035159735
 20
136.0432463682
 10
219.6545864489
 20
135.832930202
 10
219.6944090991
 20
135.6209894156
 10
219.7229081195
 20
135.4078274503
 10
219.7400292604
 20
135.1938500719
 10
219.7457399309
 20
134.9794645986
  0
LINE
  5
3C0
100
AcDbEntity
  8
RACCORDO
100
AcDbLine
 62
253
  6
CONTINUOUS
 10
224.2567686223
 20
63.2010585438
 11
224.2567685571
 21
65.1950637208
  0
LINE
  5
3C1
100
AcDbEntity
  8
RACCORDO
100
AcDbLine
 62
7
  6
CONTINUOUS
 10
225.0944340584
 20
65.3543851189
 11
225.0944340584
 21
65.650621362
  0
LINE
  5
3C2
100
AcDbEntity
  8
RACCORDO
100
AcDbLine
 62
253
  6
CONTINUOUS
 10
225.2537731452
 20
139.5119839083
 11
225.2537718789
 21
66.1920669167
  0
LINE
  5
3C3
100
AcDbEntity
  8
RACCORDO
100
AcDbLine
 62
253
  6
CONTINUOUS
 10
227.2477768888
 20
139.5119839126
 11
227.2477769245
 21
66.1920668559
  0
LINE
  5
3C4
100
AcDbEntity
  8
0
100
AcDbLine
 62
7
  6
CONTINUOUS
 10
227.7457399306
 20
65.7029259368
 11
227.745739931
 21
139.703242731
  0
LINE
  5
3C5
100
AcDbEntity
  8
RACCORDO
100
AcDbLine
 62
253
  6
CONTINUOUS
 10
224.2521089179
 20
142.5104809526
 11
224.2521089708
 21
141.931759104
  0
LINE
  5
3C6
100
AcDbEntity
  8
RACCORDO
100
AcDbLine
 62
7
  6
CONTINUOUS
 10
225.0945984947
 20
140.2771683184
 11
225.0944340507
 21
67.3538531546
  0
LWPOLYLINE
  5
3C7
100
AcDbEntity
  8
RACCORDO
100
AcDbPolyline
 62
7
  6
CONTINUOUS
 90
28
 70
0
 10
225.0944340507
 20
67.3538531546
 10
225.0909502095
 20
67.2368113637
 10
225.0808399795
 20
67.120989108
 10
225.0641033608
 20
67.0063863875
 10
225.040642068
 20
66.8926423634
 10
225.0105543864
 20
66.7801178744
 10
224.9741351727
 20
66.6698954368
 10
224.9313183241
 20
66.561978991
 10
224.8821699434
 20
66.4563645966
 10
224.827183195
 20
66.3541229478
 10
224.7662998569
 20
66.2552905622
 10
224.6995781511
 20
66.1598309223
 10
224.6276859093
 20
66.0687051697
 10
224.5505706068
 20
65.9819563067
 10
224.4682847683
 20
65.8995413309
 10
224.3816537985
 20
65.8222923767
 10
224.2906330143
 20
65.7502610982
 10
224.1952670989
 20
65.6833958413
 10
224.096515507
 20
65.6223737777
 10
223.9943407255
 20
65.5672535485
 10
223.8887802676
 20
65.5179765126
 10
223.7809061274
 20
65.4750439185
 10
223.6707151436
 20
65.4385228111
 10
223.5582104774
 20
65.4083461456
 10
223.4444736068
 20
65.3848140353
 10
223.3298650241
 20
65.3680265182
 10
223.214024237
 20
65.3578835564
 10
223.0969512453
 20
65.3543851499
  0
LWPOLYLINE
  5
3C8
100
AcDbEntity
  8
RACCORDO
100
AcDbPolyline
 62
253
  6
CONTINUOUS
 90
10
 70
0
 10
225.2537718789
 20
66.1920669167
 10
225.2517201653
 20
66.1282606629
 10
225.2457069535
 20
66.0651736264
 10
225.2357322434
 20
66.0028058074
 10
225.2217315335
 20
65.94090095
 10
225.2037693255
 20
65.8797153101
 10
225.1820391235
 20
65.8200176546
 10
225.156605429
 20
65.7620642393
 10
225.1274037407
 20
65.7055988084
 10
225.0944340584
 20
65.650621362
  0
LWPOLYLINE
  5
3C9
100
AcDbEntity
  8
RACCORDO
100
AcDbPolyline
 62
253
  6
CONTINUOUS
 90
10
 70
0
 10
224.7981934186
 20
65.3543851189
 10
224.7432497845
 20
65.3214349824
 10
224.6868121582
 20
65.2922473663
 10
224.6288805395
 20
65.2668222705
 10
224.5692011668
 20
65.2450938027
 10
224.5080278019
 20
65.2271278553
 10
224.4461217299
 20
65.2131221057
 10
224.3837367127
 20
65.2031424463
 10
224.3206189884
 20
65.1971229847
 10
224.2567685571
 20
65.1950637208
  0
LINE
  5
3CA
100
AcDbEntity
  8
0
100
AcDbLine
 62
7
  6
CONTINUOUS
 10
219.7523118154
 20
134.8114371198
 11
219.7457399309
 21
134.8358216024
  0
LWPOLYLINE
  5
3CB
100
AcDbEntity
  8
0
100
AcDbPolyline
 62
7
  6
CONTINUOUS
 90
22
 70
0
 10
227.745739931
 20
139.703242731
 10
227.7370169905
 20
139.9292679055
 10
227.7119787821
 20
140.1516627414
 10
227.6706253056
 20
140.3704272386
 10
227.612544005
 20
140.5867724866
 10
227.5381474365
 20
140.799487396
 10
227.4486732681
 20
141.0049386983
 10
227.3438691563
 20
141.2029735123
 10
227.2239874446
 20
141.3937447193
 10
227.0910228318
 20
141.5740776948
 10
226.9447561857
 20
141.743797903
 10
226.7854066385
 20
141.9030798797
 10
226.6156262856
 20
142.049272608
 10
226.4352401888
 20
142.1821569702
 10
226.2444232863
 20
142.3019520839
 10
226.0463524888
 20
142.4066642855
 10
225.8408202281
 20
142.4960406845
 10
225.6280340724
 20
142.5703341713
 10
225.4117936374
 20
142.6283097531
 10
225.1933654615
 20
142.6695557654
 10
224.9714830061
 20
142.6944838726
 10
224.7461462714
 20
142.7030940747
  0
LWPOLYLINE
  5
3CC
100
AcDbEntity
  8
RACCORDO
100
AcDbPolyline
 62
253
  6
CONTINUOUS
 90
22
 70
0
 10
227.2477062088
 20
66.1920668009
 10
227.238504874
 20
65.9687857028
 10
227.212734
 20
65.7467778012
 10
227.170470187
 20
65.5273882509
 10
227.1120212252
 20
65.3118240283
 10
227.0377324429
 20
65.1012254756
 10
226.947944319
 20
64.8966932862
 10
226.8431483399
 20
64.699308122
 10
226.7239895185
 20
64.510199264
 10
226.5911453151
 20
64.3305090476
 10
226.4453647673
 20
64.1613138755
 10
226.2874813896
 20
64.0034399431
 10
226.1182867212
 20
63.8576623174
 10
225.9386110813
 20
63.7248173936
 10
225.7495073666
 20
63.6056752545
 10
225.5521187511
 20
63.5008906897
 10
225.3475772471
 20
63.4110900173
 10
225.1369685315
 20
63.3367985811
 10
224.921405448
 20
63.2783592174
 10
224.7020366655
 20
63.2360960013
 10
224.4800537591
 20
63.2103182814
 10
224.2567686219
 20
63.2011316803
  0
LWPOLYLINE
  5
3CD
100
AcDbEntity
  8
RACCORDO
100
AcDbPolyline
 62
7
  6
CONTINUOUS
 90
13
 70
0
 10
224.2521089708
 20
141.931759104
 10
224.3805490947
 20
141.8310722313
 10
224.5000268625
 20
141.720636363
 10
224.6098658963
 20
141.6013370059
 10
224.7094348259
 20
141.4741705792
 10
224.7982792126
 20
141.3400302592
 10
224.8760667382
 20
141.1996605238
 10
224.9423829415
 20
141.0540895484
 10
224.9969643088
 20
140.9042500397
 10
225.0396794731
 20
140.7506984896
 10
225.0703053497
 20
140.5942648483
 10
225.0886386698
 20
140.4360874799
 10
225.0945962987
 20
140.2771683182
  0
LWPOLYLINE
  5
3CE
100
AcDbEntity
  8
0
100
AcDbPolyline
 62
253
  6
CONTINUOUS
 90
10
 70
0
 10
225.0944340584
 20
140.0526453594
 10
225.1274059792
 20
139.9976661731
 10
225.1566091964
 20
139.9412219566
 10
225.18204371
 20
139.8833127099
 10
225.2037737744
 20
139.8236831621
 10
225.2217351351
 20
139.7625885841
 10
225.2357350289
 20
139.7007947885
 10
225.2457092013
 20
139.6385570461
 10
225.2517219067
 20
139.575620086
 10
225.2537731452
 20
139.5119839083
  0
ENDSEC
  0
SECTION
  2
OBJECTS
  0
DICTIONARY
  5
C
100
AcDbDictionary
280
0
281
1
  3
ACAD_GROUP
350
D
  3
ACAD_MLINESTYLE
350
17
  3
ACAD_LAYOUT
350
1A
  3
ACAD_PLOTSETTINGS
350
19
  3
ACAD_PLOTSTYLENAME
350
E
  0
DICTIONARY
  5
D
102
{ACAD_REACTORS
330
C
102
}
100
AcDbDictionary
280
0
281
1
  0
ACDBDICTIONARYWDFLT
  5
E
102
{ACAD_REACTORS
330
C
102
}
100
AcDbDictionary
281
1
  3
Normal
350
F
100
AcDbDictionaryWithDefault
340
F
  0
DICTIONARY
  5
17
102
{ACAD_REACTORS
330
C
102
}
100
AcDbDictionary
280
0
281
1
  3
Standard
350
18
  0
DICTIONARY
  5
19
102
{ACAD_REACTORS
330
C
102
}
100
AcDbDictionary
281
1
  0
DICTIONARY
  5
1A
102
{ACAD_REACTORS
330
C
102
}
100
AcDbDictionary
281
1
  3
Model
350
3CF
  3
Layout1
350
3D0
  0
ACDBPLACEHOLDER
  5
F
102
{ACAD_REACTORS
330
E
102
}
  0
MLINESTYLE
  5
18
102
{ACAD_REACTORS
330
17
102
}
100
AcDbMlineStyle
  2
STANDARD
 70
0
  3

 62
256
 51
90.0
 52
90.0
 71
2
 49
0.5
 62
256
  6
BYLAYER
 49
-0.5
 62
256
  6
BYLAYER
  0
LAYOUT
  5
3CF
102
{ACAD_REACTORS
330
1A
102
}
100
AcDbPlotSettings
  1

  2
none_device
  4
ISO_A4_(297.00_x_210.00_MM)
  6

 40
0.0
 41
0.0
 42
0.0
 43
0.0
 44
297.0
 45
210.0
 46
0.0
 47
0.0
 48
0.0
 49
0.0
140
0.0
141
0.0
142
1.0
143
1.0
 70
1024
 72
1
 73
0
 74
0
  7

 75
0
147
1.0
148
0.0
149
0.0
100
AcDbLayout
  1
Model
 70
0
 71
0
 10
0.0
 20
0.0
 11
297.0
 21
210.0
 12
0.0
 22
0.0
 32
0.0
 14
0.0
 24
0.0
 34
0.0
 15
0.0
 25
0.0
 35
0.0
146
0.0
 13
0.0
 23
0.0
 33
0.0
 16
1.0
 26
0.0
 36
0.0
 17
0.0
 27
1.0
 37
0.0
 76
0
330
214
345
0
346
0
  0
LAYOUT
  5
3D0
102
{ACAD_REACTORS
330
1A
102
}
100
AcDbPlotSettings
  1

  2
none_device
  4
ISO_A4_(297.00_x_210.00_MM)
  6

 40
0.0
 41
0.0
 42
0.0
 43
0.0
 44
297.0
 45
210.0
 46
0.0
 47
0.0
 48
0.0
 49
0.0
140
0.0
141
0.0
142
1.0
143
1.0
 70
0
 72
1
 73
0
 74
0
  7

 75
0
147
1.0
148
0.0
149
0.0
100
AcDbLayout
  1
Layout1
 70
0
 71
1
 10
0.0
 20
0.0
 11
297.0
 21
210.0
 12
0.0
 22
0.0
 32
0.0
 14
0.0
 24
0.0
 34
0.0
 15
0.0
 25
0.0
 35
0.0
146
0.0
 13
0.0
 23
0.0
 33
0.0
 16
1.0
 26
0.0
 36
0.0
 17
0.0
 27
1.0
 37
0.0
 76
0
330
215
345
0
346
0
  0
ENDSEC
  0
EOF
