  0
SECTION
  2
HEADER
  9
$ACADVER
  1
AC1024
  9
$DWGCODEPAGE
  3
ANSI_1252
  9
$EXTMAX
 10
297.0
 20
210.0
 30
0.0
  9
$EXTMIN
 10
0.0
 20
0.0
 30
0.0
  9
$LIMMIN
 10
0.0
 20
0.0
  9
$LIMMAX
 10
297.0
 20
210.0
  9
$VIEWCTR
 10
148.5
 20
105.0
  9
$VIEWSIZE
 40
210.0
  9
$CLAYER
  8
0
  9
$LTSCALE
 40
16.335
  9
$CELTYPE
  6
BYLAYER
  9
$DIMSCALE
 40
1.0
  9
$DIMASZ
 40
3.0
  9
$DIMEXO
 40
0.5
  9
$DIMDLI
 40
11.286
  9
$DIMEXE
 40
1.5
  9
$DIMCEN
 40
2.673
  9
$DIMLFAC
 40
1.0
  9
$DIMBLK
  1
_FILLED
  9
$DIMALT
 70
0
  9
$DIMALTF
 40
0.0393700787
  9
$DIMTXT
 40
3.0
  9
$DIMTOL
 70
1
  9
$DIMLIM
 70
0
  9
$DIMTFAC
 40
1.0
  9
$DIMTP
 40
0.01
  9
$DIMTM
 40
0.01
  9
$DIMGAP
 40
0.625
  9
$DIMDSEP
 70
44
  9
$AUNITS
 70
0
  9
$PDMODE
 70
3
  9
$PDSIZE
 40
3.0
  9
$HANDSEED
  5
3D5
  9
$TILEMODE
 70
1
  9
$MEASUREMENT
 70
1
  9
$INSUNITS
 70
4
  0
ENDSEC
  0
SECTION
  2
CLASSES
  0
CLASS
  1
ACDBDICTIONARYWDFLT
  2
AcDbDictionaryWithDefault
  3
AutoCAD 2000
 90
0
 91
1
280
0
281
0
  0
CLASS
  1
ACDBPLACEHOLDER
  2
AcDbPlaceHolder
  3
AutoCAD 2000
 90
0
 91
1
280
0
281
0
  0
CLASS
  1
LAYOUT
  2
AcDbLayout
  3
AutoCAD 2000
 90
0
 91
0
280
0
281
0
  0
ENDSEC
  0
SECTION
  2
TABLES
  0
TABLE
  2
VPORT
  5
8
100
AcDbSymbolTable
 70
2
  0
VPORT
  5
1F4
100
AcDbSymbolTableRecord
100
AcDbViewportTableRecord
  2
*ACTIVE
 70
0
 10
0.0
 20
0.0
 11
1.0
 21
1.0
 12
148.5
 22
105.0
 13
0.0
 23
0.0
 14
1.0
 24
1.0
 15
0.0
 25
0.0
 16
0.0
 26
0.0
 36
1.0
 17
0.0
 27
0.0
 37
0.0
 40
210.0
 41
1.4142857143
 42
50.0
 43
0.0
 44
0.0
 50
0.0
 51
0.0
 71
0
 72
100
 73
1
 74
1
 75
0
 76
0
 77
0
 78
0
  0
ENDTAB
  0
TABLE
  2
LTYPE
  5
5
100
AcDbSymbolTable
 70
6
  0
LTYPE
  5
14
100
AcDbSymbolTableRecord
100
AcDbLinetypeTableRecord
  2
BYBLOCK
 70
0
  3

 72
65
 73
0
 40
0.0
  0
LTYPE
  5
15
100
AcDbSymbolTableRecord
100
AcDbLinetypeTableRecord
  2
BYLAYER
 70
0
  3

 72
65
 73
0
 40
0.0
  0
LTYPE
  5
16
100
AcDbSymbolTableRecord
100
AcDbLinetypeTableRecord
  2
CONTINUOUS
 70
64
  3
Solid line
 72
65
 73
0
 40
0.0
  0
LTYPE
  5
1F5
100
AcDbSymbolTableRecord
100
AcDbLinetypeTableRecord
  2
CENTER
 70
64
  3
____ _ ____ _ ____ _ ____ _ ____ _ ____ _ ____
 72
65
 73
4
 40
0.6
 49
0.375
 74
0
 49
-0.075
 74
0
 49
0.075
 74
0
 49
-0.075
 74
0
  0
LTYPE
  5
1F6
100
AcDbSymbolTableRecord
100
AcDbLinetypeTableRecord
  2
HIDDEN
 70
64
  3
- - - - - - - - - - - - - - - - - - - -
 72
65
 73
2
 40
0.2
 49
0.1
 74
0
 49
-0.1
 74
0
  0
LTYPE
  5
1F7
100
AcDbSymbolTableRecord
100
AcDbLinetypeTableRecord
  2
PHANTOM
 70
64
  3
_____ _ _ _____ _ _ _____ _ _ _____
 72
65
 73
6
 40
0.8
 49
0.45
 74
0
 49
-0.05
 74
0
 49
0.1
 74
0
 49
-0.05
 74
0
 49
0.1
 74
0
 49
-0.05
 74
0
  0
LTYPE
  5
1F8
100
AcDbSymbolTableRecord
100
AcDbLinetypeTableRecord
  2
DOT
 70
64
  3
. . . . . . . . . . . . . . . . . . . .
 72
65
 73
2
 40
0.2
 49
0.1
 74
0
 49
-0.1
 74
0
  0
LTYPE
  5
1F9
100
AcDbSymbolTableRecord
100
AcDbLinetypeTableRecord
  2
DASHED
 70
64
  3
- - - - - - - - - - - - - - - - - - - -
 72
65
 73
2
 40
0.2
 49
0.1
 74
0
 49
-0.1
 74
0
  0
ENDTAB
  0
TABLE
  2
LAYER
  5
2
100
AcDbSymbolTable
 70
36
  0
LAYER
  5
10
100
AcDbSymbolTableRecord
100
AcDbLayerTableRecord
  2
0
 70
0
 62
7
  6
CONTINUOUS
370
-3
390
F
  0
LAYER
  5
1FA
100
AcDbSymbolTableRecord
100
AcDbLayerTableRecord
  2
DEFAULT_1
 70
0
 62
7
  6
CENTER
370
-3
390
F
  0
LAYER
  5
1FB
100
AcDbSymbolTableRecord
100
AcDbLayerTableRecord
  2
DEFAULT_2
 70
0
 62
7
  6
HIDDEN
370
-3
390
F
  0
LAYER
  5
1FC
100
AcDbSymbolTableRecord
100
AcDbLayerTableRecord
  2
DEFAULT_3
 70
0
 62
7
  6
PHANTOM
370
-3
390
F
  0
LAYER
  5
1FD
100
AcDbSymbolTableRecord
100
AcDbLayerTableRecord
  2
21714904_SKEL
 70
0
 62
7
  6
CONTINUOUS
370
-3
390
F
  0
LAYER
  5
1FE
100
AcDbSymbolTableRecord
100
AcDbLayerTableRecord
  2
ASSI
 70
0
 62
7
  6
CONTINUOUS
370
-3
390
F
  0
LAYER
  5
1FF
100
AcDbSymbolTableRecord
100
AcDbLayerTableRecord
  2
COLOR5
 70
0
 62
7
  6
CONTINUOUS
370
-3
390
F
  0
LAYER
  5
200
100
AcDbSymbolTableRecord
100
AcDbLayerTableRecord
  2
COORDINATE
 70
0
 62
7
  6
CONTINUOUS
370
-3
390
F
  0
LAYER
  5
201
100
AcDbSymbolTableRecord
100
AcDbLayerTableRecord
  2
COORD_ORIGINE
 70
0
 62
7
  6
CONTINUOUS
370
-3
390
F
  0
LAYER
  5
202
100
AcDbSymbolTableRecord
100
AcDbLayerTableRecord
  2
COPY_GEOM
 70
0
 62
7
  6
CONTINUOUS
370
-3
390
F
  0
LAYER
  5
203
100
AcDbSymbolTableRecord
100
AcDbLayerTableRecord
  2
CURVE
 70
0
 62
7
  6
CONTINUOUS
370
-3
390
F
  0
LAYER
  5
204
100
AcDbSymbolTableRecord
100
AcDbLayerTableRecord
  2
DRAFT
 70
0
 62
7
  6
CONTINUOUS
370
-3
390
F
  0
LAYER
  5
205
100
AcDbSymbolTableRecord
100
AcDbLayerTableRecord
  2
IGES_INCIS
 70
0
 62
7
  6
CONTINUOUS
370
-3
390
F
  0
LAYER
  5
206
100
AcDbSymbolTableRecord
100
AcDbLayerTableRecord
  2
IGES_INCISIONI
 70
0
 62
7
  6
CONTINUOUS
370
-3
390
F
  0
LAYER
  5
207
100
AcDbSymbolTableRecord
100
AcDbLayerTableRecord
  2
INTF_1
 70
0
 62
7
  6
CONTINUOUS
370
-3
390
F
  0
LAYER
  5
208
100
AcDbSymbolTableRecord
100
AcDbLayerTableRecord
  2
INTF_7
 70
0
 62
7
  6
CONTINUOUS
370
-3
390
F
  0
LAYER
  5
209
100
AcDbSymbolTableRecord
100
AcDbLayerTableRecord
  2
MARCHI
 70
0
 62
7
  6
CONTINUOUS
370
-3
390
F
  0
LAYER
  5
20A
100
AcDbSymbolTableRecord
100
AcDbLayerTableRecord
  2
NOTE
 70
0
 62
7
  6
CONTINUOUS
370
-3
390
F
  0
LAYER
  5
20B
100
AcDbSymbolTableRecord
100
AcDbLayerTableRecord
  2
PIANI
 70
0
 62
7
  6
CONTINUOUS
370
-3
390
F
  0
LAYER
  5
20C
100
AcDbSymbolTableRecord
100
AcDbLayerTableRecord
  2
PIANI_ORIGINE
 70
0
 62
7
  6
CONTINUOUS
370
-3
390
F
  0
LAYER
  5
20D
100
AcDbSymbolTableRecord
100
AcDbLayerTableRecord
  2
PUNTI
 70
0
 62
7
  6
CONTINUOUS
370
-3
390
F
  0
LAYER
  5
20E
100
AcDbSymbolTableRecord
100
AcDbLayerTableRecord
  2
RACCORDO
 70
0
 62
7
  6
CONTINUOUS
370
-3
390
F
  0
LAYER
  5
20F
100
AcDbSymbolTableRecord
100
AcDbLayerTableRecord
  2
RGB__255__255__255__
 70
0
 62
7
  6
CONTINUOUS
370
-3
390
F
  0
LAYER
  5
210
100
AcDbSymbolTableRecord
100
AcDbLayerTableRecord
  2
RGB____0____0____0__
 70
0
 62
7
  6
CONTINUOUS
370
-3
390
F
  0
LAYER
  5
211
100
AcDbSymbolTableRecord
100
AcDbLayerTableRecord
  2
SMUSSO
 70
0
 62
7
  6
CONTINUOUS
370
-3
390
F
  0
LAYER
  5
212
100
AcDbSymbolTableRecord
100
AcDbLayerTableRecord
  2
SNAPLINE
 70
0
 62
7
  6
CONTINUOUS
370
-3
390
F
  0
LAYER
  5
213
100
AcDbSymbolTableRecord
100
AcDbLayerTableRecord
  2
SUPERFICI
 70
0
 62
7
  6
CONTINUOUS
370
-3
390
F
  0
LAYER
  5
214
100
AcDbSymbolTableRecord
100
AcDbLayerTableRecord
  2
TRASH
 70
0
 62
7
  6
CONTINUOUS
370
-3
390
F
  0
LAYER
  5
215
100
AcDbSymbolTableRecord
100
AcDbLayerTableRecord
  2
XSEC_DATUMS
 70
0
 62
7
  6
CONTINUOUS
370
-3
390
F
  0
ENDTAB
  0
TABLE
  2
STYLE
  5
3
100
AcDbSymbolTable
 70
1
  0
STYLE
  5
11
100
AcDbSymbolTableRecord
100
AcDbTextStyleTableRecord
  2
STANDARD
 70
0
 40
0.0
 41
0.8
 50
0.0
 71
0
 42
0.2
  3
txt
  4

  0
STYLE
  5
216
100
AcDbSymbolTableRecord
100
AcDbTextStyleTableRecord
  2
TEXTSTYLE_1
 70
0
 40
0.0
 41
0.8
 50
0.0
 71
0
 42
0.2
  3
gdt
  4

  0
ENDTAB
  0
TABLE
  2
VIEW
  5
6
100
AcDbSymbolTable
 70
0
  0
ENDTAB
  0
TABLE
  2
UCS
  5
7
100
AcDbSymbolTable
 70
0
  0
ENDTAB
  0
TABLE
  2
APPID
  5
9
100
AcDbSymbolTable
 70
1
  0
APPID
  5
217
100
AcDbSymbolTableRecord
100
AcDbRegAppTableRecord
  2
ACAD
 70
0
  0
ENDTAB
  0
TABLE
  2
BLOCK_RECORD
  5
1
100
AcDbSymbolTable
 70
0
  0
BLOCK_RECORD
  5
218
100
AcDbSymbolTableRecord
100
AcDbBlockTableRecord
  2
*Model_Space
  0
BLOCK_RECORD
  5
219
100
AcDbSymbolTableRecord
100
AcDbBlockTableRecord
  2
*Paper_Space
  0
BLOCK_RECORD
  5
21A
100
AcDbSymbolTableRecord
100
AcDbBlockTableRecord
  2
_FILLED
  0
ENDTAB
  0
TABLE
  2
DIMSTYLE
  5
A
100
AcDbSymbolTable
 70
1
100
AcDbDimStyleTable
 71
0
  0
DIMSTYLE
105
21B
100
AcDbSymbolTableRecord
100
AcDbDimStyleTableRecord
  2
STANDARD
 70
0
  3

  4

 40
1.0
 41
3.0
 42
0.5
 43
0.38
 44
1.5
 45
0.0
 46
0.0
 47
0.01
 48
0.01
140
3.0
141
0.09
142
0.0
143
25.4
144
1.0
145
0.0
146
1.0
147
0.625
 71
1
 72
0
 73
0
 74
0
 75
0
 76
0
 77
1
 78
8
 79
2
170
0
171
1
172
0
173
0
174
0
175
0
176
0
177
0
178
0
270
2
179
2
271
2
272
2
273
2
274
2
275
0
280
0
281
0
282
0
283
1
284
8
285
0
286
0
287
3
288
0
340
11
278
44
341
21A
342
21A
343
21A
344
21A
  0
ENDTAB
  0
ENDSEC
  0
SECTION
  2
BLOCKS
  0
BLOCK
  5
20
100
AcDbEntity
  8
0
100
AcDbBlockBegin
  2
*Model_Space
 70
0
 10
0.0
 20
0.0
 30
0.0
  3
*Model_Space
  1

  0
ENDBLK
  5
21
100
AcDbEntity
  8
0
100
AcDbBlockEnd
  0
BLOCK
  5
1C
100
AcDbEntity
  8
0
100
AcDbBlockBegin
  2
*Paper_Space
 70
0
 10
0.0
 20
0.0
 30
0.0
  3
*Paper_Space
  1

  0
ENDBLK
  5
1D
100
AcDbEntity
  8
0
100
AcDbBlockEnd
  0
BLOCK
  5
21C
100
AcDbEntity
  8
0
100
AcDbBlockBegin
  2
_FILLED
 70
64
 10
0.0
 20
0.0
  3
_FILLED
  1

  0
SOLID
  5
21D
100
AcDbEntity
  8
0
  6
BYBLOCK
 62
0
100
AcDbTrace
 10
0.0
 20
0.0
 11
-1.0
 21
0.3166666667
 12
-1.0
 22
-0.3166666667
 13
-1.0
 23
-0.3166666667
  0
ENDBLK
  5
21E
100
AcDbEntity
  8
0
  6
BYBLOCK
 62
0
100
AcDbBlockEnd
  0
ENDSEC
  0
SECTION
  2
ENTITIES
  0
LINE
  5
21F
100
AcDbEntity
  8
RACCORDO
100
AcDbLine
 62
7
  6
CONTINUOUS
 10
-66.2
 20
80.58
 11
-66.3372617805
 21
80.4427382195
  0
LINE
  5
220
100
AcDbEntity
  8
RACCORDO
100
AcDbLine
 62
7
  6
CONTINUOUS
 10
-60.58
 20
86.2
 11
-60.4427382195
 21
86.3372617805
  0
LINE
  5
221
100
AcDbEntity
  8
RACCORDO
100
AcDbLine
 62
7
  6
CONTINUOUS
 10
-60.58
 20
-86.2
 11
-60.4427382195
 21
-86.3372617805
  0
LINE
  5
222
100
AcDbEntity
  8
RACCORDO
100
AcDbLine
 62
7
  6
CONTINUOUS
 10
-66.2
 20
-80.58
 11
-66.3372617805
 21
-80.4427382195
  0
LWPOLYLINE
  5
223
100
AcDbEntity
  8
RACCORDO
100
AcDbPolyline
 62
7
  6
CONTINUOUS
 90
4
 70
0
 10
-67.2358531346
 20
-69.950104677
 10
-67.1641581652
 20
-70.0105093475
 10
-67.0850811083
 20
-70.0607620783
 10
-67.0
 20
-70.1
  0
LWPOLYLINE
  5
224
100
AcDbEntity
  8
RACCORDO
100
AcDbPolyline
 62
7
  6
CONTINUOUS
 90
4
 70
0
 10
-48.450104677
 20
87.2358531346
 10
-48.5105093475
 20
87.1641581652
 10
-48.5607620783
 20
87.0850811083
 10
-48.6
 20
87.0
  0
LWPOLYLINE
  5
225
100
AcDbEntity
  8
0
100
AcDbPolyline
 62
7
  6
CONTINUOUS
 90
23
 70
0
 10
-67.6159885716
 20
58.0
 10
-67.6230155778
 20
57.9925408922
 10
-67.6369677137
 20
57.9370017967
 10
-67.6508164888
 20
57.8251144974
 10
-67.6645633873
 20
57.6576881027
 10
-67.6780091087
 20
57.4371499374
 10
-67.6911492651
 20
57.1627262552
 10
-67.7039882444
 20
56.8351908025
 10
-67.7163399086
 20
56.4592921435
 10
-67.7281971585
 20
56.0343257102
 10
-67.7395670934
 20
55.5609960705
 10
-67.7502848735
 20
55.046165493
 10
-67.7603409982
 20
54.4892293808
 10
-67.769744968
 20
53.8907923308
 10
-67.7783604457
 20
53.2595304014
 10
-67.7861759441
 20
52.594965391
 10
-67.7932029504
 20
51.8975755012
 10
-67.7993395878
 20
51.1774713954
 10
-67.8045728853
 20
50.4343221667
 10
-67.8089158139
 20
49.6684587218
 10
-67.8123054106
 20
48.8909844444
 10
-67.8147206876
 20
48.1056004622
 10
-67.8166912456
 20
46.5
  0
LWPOLYLINE
  5
226
100
AcDbEntity
  8
RACCORDO
100
AcDbPolyline
 62
7
  6
CONTINUOUS
 90
10
 70
0
 10
47.9774272018
 20
-87.3798882488
 10
48.064073323
 20
-87.3726906993
 10
48.1470807181
 20
-87.3556175277
 10
48.2264493871
 20
-87.3290196741
 10
48.3031514836
 20
-87.2932141394
 10
48.3762148541
 20
-87.2487054473
 10
48.4427230371
 20
-87.1963751602
 10
48.5017038789
 20
-87.1370643879
 10
48.5541295332
 20
-87.0713697277
 10
48.6
 20
-87.0
  0
LWPOLYLINE
  5
227
100
AcDbEntity
  8
RACCORDO
100
AcDbPolyline
 62
250
  6
CONTINUOUS
 90
7
 70
0
 10
47.9461426692
 20
-87.4499522118
 10
48.0396398787
 20
-87.4436915807
 10
48.131461492
 20
-87.4250001148
 10
48.219961942
 20
-87.3942127903
 10
48.3035551812
 20
-87.3518813575
 10
48.3807431059
 20
-87.298764453
 10
48.450104677
 20
-87.2358531346
  0
LINE
  5
228
100
AcDbEntity
  8
RACCORDO
100
AcDbLine
 62
250
  6
CONTINUOUS
 10
54.9911149112
 20
-87.4560016781
 11
54.9614562807
 21
-87.4572119715
  0
LINE
  5
229
100
AcDbEntity
  8
RACCORDO
100
AcDbLine
 62
250
  6
CONTINUOUS
 10
54.9614562807
 20
-87.4572119715
 11
54.9247646045
 21
-87.458424369
  0
LINE
  5
22A
100
AcDbEntity
  8
RACCORDO
100
AcDbLine
 62
250
  6
CONTINUOUS
 10
54.9247646045
 20
-87.458424369
 11
54.8809262377
 21
-87.4596221766
  0
LINE
  5
22B
100
AcDbEntity
  8
RACCORDO
100
AcDbLine
 62
250
  6
CONTINUOUS
 10
54.8809262377
 20
-87.4596221766
 11
54.8018933012
 21
-87.4613354473
  0
LINE
  5
22C
100
AcDbEntity
  8
RACCORDO
100
AcDbLine
 62
250
  6
CONTINUOUS
 10
54.8018933012
 20
-87.4613354473
 11
54.6737788718
 21
-87.4633605638
  0
LINE
  5
22D
100
AcDbEntity
  8
RACCORDO
100
AcDbLine
 62
250
  6
CONTINUOUS
 10
54.6737788718
 20
-87.4633605638
 11
54.5630474083
 21
-87.4646160743
  0
LINE
  5
22E
100
AcDbEntity
  8
DRAFT
100
AcDbLine
 62
7
  6
CONTINUOUS
 10
-62.0
 20
-88.0
 11
62.0
 21
-88.0
  0
LINE
  5
22F
100
AcDbEntity
  8
ASSI
100
AcDbLine
 62
7
  6
CONTINUOUS
 10
62.0
 20
-88.0
 11
-62.0
 21
-88.0
  0
LWPOLYLINE
  5
230
100
AcDbEntity
  8
RACCORDO
100
AcDbPolyline
 62
250
  6
CONTINUOUS
 90
10
 70
0
 10
-67.4499522117
 20
-69.4461426692
 10
-67.441583617
 20
-69.449411021
 10
-67.433362545
 20
-69.4527339413
 10
-67.4252889955
 20
-69.45611143
 10
-67.4173650956
 20
-69.4595470051
 10
-67.4095887184
 20
-69.4630371486
 10
-67.4019534828
 20
-69.4665713072
 10
-67.3944572621
 20
-69.4701459632
 10
-67.387102183
 20
-69.4737646344
 10
-67.3798882457
 20
-69.4774273206
  0
LWPOLYLINE
  5
231
100
AcDbEntity
  8
ASSI
100
AcDbPolyline
 62
7
  6
CONTINUOUS
 90
22
 70
0
 10
-67.6159885716
 20
-58.0
 10
-67.6230155778
 20
-57.9925408922
 10
-67.6369677137
 20
-57.9370017967
 10
-67.6508164888
 20
-57.8251144974
 10
-67.6645633873
 20
-57.6576881027
 10
-67.6780091087
 20
-57.4371499374
 10
-67.6911492651
 20
-57.1627262552
 10
-67.7039882444
 20
-56.8351908025
 10
-67.7163399086
 20
-56.4592921435
 10
-67.7281971585
 20
-56.0343257102
 10
-67.7395670934
 20
-55.5609960705
 10
-67.7502848735
 20
-55.046165493
 10
-67.7603409982
 20
-54.4892293808
 10
-67.769744968
 20
-53.8907923308
 10
-67.7783604457
 20
-53.2595304014
 10
-67.7861759441
 20
-52.594965391
 10
-67.7932029504
 20
-51.8975755012
 10
-67.7993395878
 20
-51.1774713954
 10
-67.8045728853
 20
-50.4343221667
 10
-67.8089158139
 20
-49.6684587218
 10
-67.8123054106
 20
-48.8909844444
 10
-67.8147206876
 20
-48.1056004622
  0
LINE
  5
232
100
AcDbEntity
  8
RACCORDO
100
AcDbLine
 62
250
  6
CONTINUOUS
 10
54.5630474083
 20
-87.4646160743
 11
54.3586794837
 21
-87.4660856165
  0
LINE
  5
233
100
AcDbEntity
  8
RACCORDO
100
AcDbLine
 62
250
  6
CONTINUOUS
 10
54.3586794837
 20
-87.4660856165
 11
54.1
 21
-87.4667094077
  0
LINE
  5
234
100
AcDbEntity
  8
ASSI
100
AcDbLine
 62
7
  6
CONTINUOUS
 10
35.6056004622
 20
-87.8147206876
 11
34.0
 21
-87.8166912456
  0
LINE
  5
235
100
AcDbEntity
  8
ASSI
100
AcDbLine
 62
7
  6
CONTINUOUS
 10
1.6056004622
 20
-87.8147206876
 11
-0.0
 21
-87.8166912456
  0
LINE
  5
236
100
AcDbEntity
  8
ASSI
100
AcDbLine
 62
7
  6
CONTINUOUS
 10
-32.3943995378
 20
-87.8147206876
 11
-34.0
 21
-87.8166912456
  0
LINE
  5
237
100
AcDbEntity
  8
ASSI
100
AcDbLine
 62
7
  6
CONTINUOUS
 10
32.3943995378
 20
-87.4172564555
 11
34.0
 21
-87.4152858976
  0
LINE
  5
238
100
AcDbEntity
  8
ASSI
100
AcDbLine
 62
7
  6
CONTINUOUS
 10
-1.6056004622
 20
-87.4172564555
 11
-0.0
 21
-87.4152858976
  0
LINE
  5
239
100
AcDbEntity
  8
ASSI
100
AcDbLine
 62
7
  6
CONTINUOUS
 10
-35.6056004622
 20
-87.4172564555
 11
-34.0
 21
-87.4152858976
  0
LINE
  5
23A
100
AcDbEntity
  8
RACCORDO
100
AcDbLine
 62
250
  6
CONTINUOUS
 10
-62.0
 20
-87.3798882457
 11
47.9774273211
 21
-87.3798882457
  0
LINE
  5
23B
100
AcDbEntity
  8
RACCORDO
100
AcDbLine
 62
250
  6
CONTINUOUS
 10
55.022572675
 20
-87.3798882457
 11
62.0
 21
-87.3798882457
  0
LINE
  5
23C
100
AcDbEntity
  8
RACCORDO
100
AcDbLine
 62
7
  6
CONTINUOUS
 10
54.4
 20
-87.0
 11
48.6
 21
-87.0
  0
LINE
  5
23D
100
AcDbEntity
  8
RACCORDO
100
AcDbLine
 62
7
  6
CONTINUOUS
 10
62.0
 20
-86.3372617805
 11
60.4427382195
 21
-86.3372617805
  0
LINE
  5
23E
100
AcDbEntity
  8
RACCORDO
100
AcDbLine
 62
7
  6
CONTINUOUS
 10
-60.4427382195
 20
-86.3372617805
 11
-62.0
 21
-86.3372617805
  0
LINE
  5
23F
100
AcDbEntity
  8
DRAFT
100
AcDbLine
 62
7
  6
CONTINUOUS
 10
-62.0
 20
-86.2
 11
-60.58
 21
-86.2
  0
LINE
  5
240
100
AcDbEntity
  8
DRAFT
100
AcDbLine
 62
7
  6
CONTINUOUS
 10
62.0
 20
-86.2
 11
60.58
 21
-86.2
  0
LINE
  5
241
100
AcDbEntity
  8
RACCORDO
100
AcDbLine
 62
250
  6
CONTINUOUS
 10
-60.4421154889
 20
-85.8801167031
 11
60.4421154889
 21
-85.8801167051
  0
LINE
  5
242
100
AcDbEntity
  8
DRAFT
100
AcDbLine
 62
250
  6
CONTINUOUS
 10
60.58
 20
-82.0
 11
60.4421154889
 21
-82.0
  0
LINE
  5
243
100
AcDbEntity
  8
DRAFT
100
AcDbLine
 62
250
  6
CONTINUOUS
 10
-60.58
 20
-82.0
 11
-60.4421154889
 21
-82.0
  0
LINE
  5
244
100
AcDbEntity
  8
RACCORDO
100
AcDbLine
 62
250
  6
CONTINUOUS
 10
66.2
 20
-82.0
 11
68.0
 21
-82.0
  0
LINE
  5
245
100
AcDbEntity
  8
RACCORDO
100
AcDbLine
 62
250
  6
CONTINUOUS
 10
-66.2
 20
-82.0
 11
-68.0
 21
-82.0
  0
LINE
  5
246
100
AcDbEntity
  8
DRAFT
100
AcDbLine
 62
7
  6
CONTINUOUS
 10
62.0
 20
-80.58
 11
66.2
 21
-80.58
  0
LINE
  5
247
100
AcDbEntity
  8
DRAFT
100
AcDbLine
 62
7
  6
CONTINUOUS
 10
-62.0
 20
-80.58
 11
-66.2
 21
-80.58
  0
LWPOLYLINE
  5
248
100
AcDbEntity
  8
ASSI
100
AcDbPolyline
 62
7
  6
CONTINUOUS
 90
23
 70
0
 10
-34.0
 20
-87.8166912456
 10
-35.6056004622
 20
-87.8147206876
 10
-36.3909844444
 20
-87.8123054106
 10
-37.1684587218
 20
-87.8089158139
 10
-37.9343221667
 20
-87.8045728853
 10
-38.6774713954
 20
-87.7993395878
 10
-39.3975755012
 20
-87.7932029504
 10
-40.094965391
 20
-87.7861759441
 10
-40.7595304014
 20
-87.7783604457
 10
-41.3907923308
 20
-87.769744968
 10
-41.9892293808
 20
-87.7603409982
 10
-42.546165493
 20
-87.7502848735
 10
-43.0609960705
 20
-87.7395670934
 10
-43.5343257102
 20
-87.7281971585
 10
-43.9592921435
 20
-87.7163399086
 10
-44.3351908025
 20
-87.7039882444
 10
-44.6627262552
 20
-87.6911492651
 10
-44.9371499374
 20
-87.6780091087
 10
-45.1576881027
 20
-87.6645633873
 10
-45.3251144974
 20
-87.6508164888
 10
-45.4370017967
 20
-87.6369677137
 10
-45.4925408922
 20
-87.6230155778
 10
-45.5
 20
-87.6159885716
  0
LWPOLYLINE
  5
249
100
AcDbEntity
  8
ASSI
100
AcDbPolyline
 62
7
  6
CONTINUOUS
 90
23
 70
0
 10
-0.0
 20
-87.8166912456
 10
-1.6056004622
 20
-87.8147206876
 10
-2.3909844444
 20
-87.8123054106
 10
-3.1684587218
 20
-87.8089158139
 10
-3.9343221667
 20
-87.8045728853
 10
-4.6774713954
 20
-87.7993395878
 10
-5.3975755012
 20
-87.7932029504
 10
-6.094965391
 20
-87.7861759441
 10
-6.7595304014
 20
-87.7783604457
 10
-7.3907923308
 20
-87.769744968
 10
-7.9892293808
 20
-87.7603409982
 10
-8.546165493
 20
-87.7502848735
 10
-9.0609960705
 20
-87.7395670934
 10
-9.5343257102
 20
-87.7281971585
 10
-9.9592921435
 20
-87.7163399086
 10
-10.3351908025
 20
-87.7039882444
 10
-10.6627262552
 20
-87.6911492651
 10
-10.9371499374
 20
-87.6780091087
 10
-11.1576881027
 20
-87.6645633873
 10
-11.3251144974
 20
-87.6508164888
 10
-11.4370017967
 20
-87.6369677137
 10
-11.4925408922
 20
-87.6230155778
 10
-11.5
 20
-87.6159885716
  0
LWPOLYLINE
  5
24A
100
AcDbEntity
  8
ASSI
100
AcDbPolyline
 62
7
  6
CONTINUOUS
 90
23
 70
0
 10
34.0
 20
-87.8166912456
 10
32.3943995378
 20
-87.8147206876
 10
31.6090155556
 20
-87.8123054106
 10
30.8315412782
 20
-87.8089158139
 10
30.0656778333
 20
-87.8045728853
 10
29.3225286046
 20
-87.7993395878
 10
28.6024244988
 20
-87.7932029504
 10
27.905034609
 20
-87.7861759441
 10
27.2404695986
 20
-87.7783604457
 10
26.6092076692
 20
-87.769744968
 10
26.0107706192
 20
-87.7603409982
 10
25.453834507
 20
-87.7502848735
 10
24.9390039295
 20
-87.7395670934
 10
24.4656742898
 20
-87.7281971585
 10
24.0407078565
 20
-87.7163399086
 10
23.6648091975
 20
-87.7039882444
 10
23.3372737448
 20
-87.6911492651
 10
23.0628500626
 20
-87.6780091087
 10
22.8423118973
 20
-87.6645633873
 10
22.6748855026
 20
-87.6508164888
 10
22.5629982033
 20
-87.6369677137
 10
22.5074591078
 20
-87.6230155778
 10
22.5
 20
-87.6159885716
  0
LWPOLYLINE
  5
24B
100
AcDbEntity
  8
ASSI
100
AcDbPolyline
 62
7
  6
CONTINUOUS
 90
23
 70
0
 10
-34.0
 20
-87.4152858976
 10
-32.3943995378
 20
-87.4172564555
 10
-31.6090155556
 20
-87.4196717325
 10
-30.8315412782
 20
-87.4230613292
 10
-30.0656778333
 20
-87.4274042579
 10
-29.3225286046
 20
-87.4326375554
 10
-28.6024244988
 20
-87.4387741928
 10
-27.905034609
 20
-87.445801199
 10
-27.2404695986
 20
-87.4536166975
 10
-26.6092076692
 20
-87.4622321751
 10
-26.0107706192
 20
-87.471636145
 10
-25.453834507
 20
-87.4816922696
 10
-24.9390039295
 20
-87.4924100498
 10
-24.4656742898
 20
-87.5037799847
 10
-24.0407078565
 20
-87.5156372346
 10
-23.6648091975
 20
-87.5279888988
 10
-23.3372737448
 20
-87.540827878
 10
-23.0628500626
 20
-87.5539680345
 10
-22.8423118973
 20
-87.5674137558
 10
-22.6748855026
 20
-87.5811606544
 10
-22.5629982033
 20
-87.5950094295
 10
-22.5074591078
 20
-87.6089615654
 10
-22.5
 20
-87.6159885716
  0
LWPOLYLINE
  5
24C
100
AcDbEntity
  8
ASSI
100
AcDbPolyline
 62
7
  6
CONTINUOUS
 90
23
 70
0
 10
-0.0
 20
-87.4152858976
 10
1.6056004622
 20
-87.4172564555
 10
2.3909844444
 20
-87.4196717325
 10
3.1684587218
 20
-87.4230613292
 10
3.9343221667
 20
-87.4274042579
 10
4.6774713954
 20
-87.4326375554
 10
5.3975755012
 20
-87.4387741928
 10
6.094965391
 20
-87.445801199
 10
6.7595304014
 20
-87.4536166975
 10
7.3907923308
 20
-87.4622321751
 10
7.9892293808
 20
-87.471636145
 10
8.546165493
 20
-87.4816922696
 10
9.0609960705
 20
-87.4924100498
 10
9.5343257102
 20
-87.5037799847
 10
9.9592921435
 20
-87.5156372346
 10
10.3351908025
 20
-87.5279888988
 10
10.6627262552
 20
-87.540827878
 10
10.9371499374
 20
-87.5539680345
 10
11.1576881027
 20
-87.5674137558
 10
11.3251144974
 20
-87.5811606544
 10
11.4370017967
 20
-87.5950094295
 10
11.4925408922
 20
-87.6089615654
 10
11.5
 20
-87.6159885716
  0
LWPOLYLINE
  5
24D
100
AcDbEntity
  8
ASSI
100
AcDbPolyline
 62
7
  6
CONTINUOUS
 90
23
 70
0
 10
34.0
 20
-87.4152858976
 10
35.6056004622
 20
-87.4172564555
 10
36.3909844444
 20
-87.4196717325
 10
37.1684587218
 20
-87.4230613292
 10
37.9343221667
 20
-87.4274042579
 10
38.6774713954
 20
-87.4326375554
 10
39.3975755012
 20
-87.4387741928
 10
40.094965391
 20
-87.445801199
 10
40.7595304014
 20
-87.4536166975
 10
41.3907923308
 20
-87.4622321751
 10
41.9892293808
 20
-87.471636145
 10
42.546165493
 20
-87.4816922696
 10
43.0609960705
 20
-87.4924100498
 10
43.5343257102
 20
-87.5037799847
 10
43.9592921435
 20
-87.5156372346
 10
44.3351908025
 20
-87.5279888988
 10
44.6627262552
 20
-87.540827878
 10
44.9371499374
 20
-87.5539680345
 10
45.1576881027
 20
-87.5674137558
 10
45.3251144974
 20
-87.5811606544
 10
45.4370017967
 20
-87.5950094295
 10
45.4925408922
 20
-87.6089615654
 10
45.5
 20
-87.6159885716
  0
LINE
  5
24E
100
AcDbEntity
  8
RACCORDO
100
AcDbLine
 62
250
  6
CONTINUOUS
 10
54.1
 20
-87.4667094077
 11
48.6543479184
 21
-87.4661479354
  0
LINE
  5
24F
100
AcDbEntity
  8
RACCORDO
100
AcDbLine
 62
250
  6
CONTINUOUS
 10
48.6543479184
 20
-87.4661479354
 11
48.4500780249
 21
-87.4647413566
  0
LINE
  5
250
100
AcDbEntity
  8
RACCORDO
100
AcDbLine
 62
250
  6
CONTINUOUS
 10
48.4500780249
 20
-87.4647413566
 11
48.2811673401
 21
-87.4627309026
  0
LINE
  5
251
100
AcDbEntity
  8
RACCORDO
100
AcDbLine
 62
250
  6
CONTINUOUS
 10
48.2811673401
 20
-87.4627309026
 11
48.1892898844
 21
-87.4611658322
  0
LINE
  5
252
100
AcDbEntity
  8
RACCORDO
100
AcDbLine
 62
250
  6
CONTINUOUS
 10
48.1892898844
 20
-87.4611658322
 11
48.1088670441
 21
-87.4593627942
  0
LINE
  5
253
100
AcDbEntity
  8
RACCORDO
100
AcDbLine
 62
250
  6
CONTINUOUS
 10
48.1088670441
 20
-87.4593627942
 11
48.0630667569
 21
-87.4580485882
  0
LWPOLYLINE
  5
254
100
AcDbEntity
  8
RACCORDO
100
AcDbPolyline
 62
250
  6
CONTINUOUS
 90
11
 70
0
 10
48.0630667569
 20
-87.4580485882
 10
48.0241839434
 20
-87.4566585011
 10
48.0075994817
 20
-87.4559418307
 10
47.9928972909
 20
-87.4552108641
 10
47.9801889926
 20
-87.4544722353
 10
47.9695077762
 20
-87.4537259561
 10
47.9608204523
 20
-87.4529720146
 10
47.9541390742
 20
-87.4522170096
 10
47.94946766
 20
-87.4514631406
 10
47.9468021916
 20
-87.4507082079
 10
47.9461426692
 20
-87.4499522117
  0
LWPOLYLINE
  5
255
100
AcDbEntity
  8
RACCORDO
100
AcDbPolyline
 62
250
  6
CONTINUOUS
 90
7
 70
0
 10
55.0538573308
 20
-87.4499521428
 10
54.9603601211
 20
-87.4436915232
 10
54.8685385066
 20
-87.4250000682
 10
54.7800380547
 20
-87.3942127539
 10
54.696444813
 20
-87.3518813306
 10
54.6192568856
 20
-87.2987644346
 10
54.5629591772
 20
-87.2490472714
  0
LWPOLYLINE
  5
256
100
AcDbEntity
  8
RACCORDO
100
AcDbPolyline
 62
250
  6
CONTINUOUS
 90
10
 70
0
 10
-47.9461426692
 20
87.4499522117
 10
-47.9494110561
 20
87.4415835303
 10
-47.9527340073
 20
87.4333623852
 10
-47.9561115227
 20
87.4252887765
 10
-47.9595471262
 20
87.4173648206
 10
-47.9630372939
 20
87.4095884011
 10
-47.9665714545
 20
87.4019531688
 10
-47.970146084
 20
87.3944570072
 10
-47.9737647063
 20
87.3871020329
 10
-47.9774273214
 20
87.3798882457
  0
LWPOLYLINE
  5
257
100
AcDbEntity
  8
0
100
AcDbPolyline
 62
7
  6
CONTINUOUS
 90
23
 70
0
 10
-67.6159885716
 20
35.0
 10
-67.6089615654
 20
35.0074591078
 10
-67.5950094295
 20
35.0629982033
 10
-67.5811606544
 20
35.1748855026
 10
-67.5674137558
 20
35.3423118973
 10
-67.5539680345
 20
35.5628500626
 10
-67.540827878
 20
35.8372737448
 10
-67.5279888988
 20
36.1648091975
 10
-67.5156372346
 20
36.5407078565
 10
-67.5037799847
 20
36.9656742898
 10
-67.4924100498
 20
37.4390039295
 10
-67.4816922696
 20
37.953834507
 10
-67.471636145
 20
38.5107706192
 10
-67.4622321751
 20
39.1092076692
 10
-67.4536166975
 20
39.7404695986
 10
-67.445801199
 20
40.405034609
 10
-67.4387741928
 20
41.1024244988
 10
-67.4326375554
 20
41.8225286046
 10
-67.4274042579
 20
42.5656778333
 10
-67.4230613292
 20
43.3315412782
 10
-67.4196717325
 20
44.1090155556
 10
-67.4172564555
 20
44.8943995378
 10
-67.4152858976
 20
46.5
  0
LINE
  5
258
100
AcDbEntity
  8
RACCORDO
100
AcDbLine
 62
7
  6
CONTINUOUS
 10
62.0
 20
-80.4421154889
 11
65.880116703
 21
-80.4421154889
  0
LINE
  5
259
100
AcDbEntity
  8
RACCORDO
100
AcDbLine
 62
7
  6
CONTINUOUS
 10
-62.0
 20
-80.4421154889
 11
-65.8801167057
 21
-80.4421154889
  0
LINE
  5
25A
100
AcDbEntity
  8
RACCORDO
100
AcDbLine
 62
250
  6
CONTINUOUS
 10
-67.4667094077
 20
-75.6
 11
-67.0
 21
-75.6
  0
LWPOLYLINE
  5
25B
100
AcDbEntity
  8
ASSI
100
AcDbPolyline
 62
7
  6
CONTINUOUS
 90
22
 70
0
 10
-67.6159885716
 20
-35.0
 10
-67.6089615654
 20
-35.0074591078
 10
-67.5950094295
 20
-35.0629982033
 10
-67.5811606544
 20
-35.1748855026
 10
-67.5674137558
 20
-35.3423118973
 10
-67.5539680345
 20
-35.5628500626
 10
-67.540827878
 20
-35.8372737448
 10
-67.5279888988
 20
-36.1648091975
 10
-67.5156372346
 20
-36.5407078565
 10
-67.5037799847
 20
-36.9656742898
 10
-67.4924100498
 20
-37.4390039295
 10
-67.4816922696
 20
-37.953834507
 10
-67.471636145
 20
-38.5107706192
 10
-67.4622321751
 20
-39.1092076692
 10
-67.4536166975
 20
-39.7404695986
 10
-67.445801199
 20
-40.405034609
 10
-67.4387741928
 20
-41.1024244988
 10
-67.4326375554
 20
-41.8225286046
 10
-67.4274042579
 20
-42.5656778333
 10
-67.4230613292
 20
-43.3315412782
 10
-67.4196717325
 20
-44.1090155556
 10
-67.4172564555
 20
-44.8943995378
  0
LWPOLYLINE
  5
25C
100
AcDbEntity
  8
RACCORDO
100
AcDbPolyline
 62
7
  6
CONTINUOUS
 90
10
 70
0
 10
-67.3798882487
 20
-69.4774272014
 10
-67.3726906895
 20
-69.5640733884
 10
-67.3556174981
 20
-69.647080827
 10
-67.3290196225
 20
-69.7264495174
 10
-67.2932140747
 20
-69.8031516056
 10
-67.2487053838
 20
-69.8762149455
 10
-67.1963751055
 20
-69.9427230988
 10
-67.1370643447
 20
-70.0017039192
 10
-67.0713697026
 20
-70.0541295529
 10
-67.0
 20
-70.1
  0
LWPOLYLINE
  5
25D
100
AcDbEntity
  8
RACCORDO
100
AcDbPolyline
 62
250
  6
CONTINUOUS
 90
7
 70
0
 10
-67.4499522118
 20
-69.4461426692
 10
-67.4436915807
 20
-69.5396398787
 10
-67.4250001148
 20
-69.631461492
 10
-67.3942127903
 20
-69.719961942
 10
-67.3518813575
 20
-69.8035551812
 10
-67.298764453
 20
-69.8807431059
 10
-67.2358531346
 20
-69.950104677
  0
LINE
  5
25E
100
AcDbEntity
  8
RACCORDO
100
AcDbLine
 62
250
  6
CONTINUOUS
 10
-67.4560016781
 20
-76.4911149112
 11
-67.4572119715
 21
-76.4614562807
  0
LINE
  5
25F
100
AcDbEntity
  8
RACCORDO
100
AcDbLine
 62
250
  6
CONTINUOUS
 10
-67.4572119715
 20
-76.4614562807
 11
-67.458424369
 21
-76.4247646045
  0
LINE
  5
260
100
AcDbEntity
  8
RACCORDO
100
AcDbLine
 62
250
  6
CONTINUOUS
 10
-67.458424369
 20
-76.4247646045
 11
-67.4596221766
 21
-76.3809262377
  0
LINE
  5
261
100
AcDbEntity
  8
RACCORDO
100
AcDbLine
 62
250
  6
CONTINUOUS
 10
-67.4596221766
 20
-76.3809262377
 11
-67.4613354473
 21
-76.3018933012
  0
LINE
  5
262
100
AcDbEntity
  8
RACCORDO
100
AcDbLine
 62
250
  6
CONTINUOUS
 10
-67.4613354473
 20
-76.3018933012
 11
-67.4633605638
 21
-76.1737788718
  0
LINE
  5
263
100
AcDbEntity
  8
RACCORDO
100
AcDbLine
 62
250
  6
CONTINUOUS
 10
-67.4633605638
 20
-76.1737788718
 11
-67.4649762513
 21
-76.0237636404
  0
LINE
  5
264
100
AcDbEntity
  8
RACCORDO
100
AcDbLine
 62
250
  6
CONTINUOUS
 10
-67.4649762513
 20
-76.0237636404
 11
-67.4662768656
 21
-75.8159971265
  0
LWPOLYLINE
  5
265
100
AcDbEntity
  8
0
100
AcDbPolyline
 62
7
  6
CONTINUOUS
 90
22
 70
0
 10
-67.8147206876
 20
44.8943995378
 10
-67.8123054106
 20
44.1090155556
 10
-67.8089158139
 20
43.3315412782
 10
-67.8045728853
 20
42.5656778333
 10
-67.7993395878
 20
41.8225286046
 10
-67.7932029504
 20
41.1024244988
 10
-67.7861759441
 20
40.405034609
 10
-67.7783604457
 20
39.7404695986
 10
-67.769744968
 20
39.1092076692
 10
-67.7603409982
 20
38.5107706192
 10
-67.7502848735
 20
37.953834507
 10
-67.7395670934
 20
37.4390039295
 10
-67.7281971585
 20
36.9656742898
 10
-67.7163399086
 20
36.5407078565
 10
-67.7039882444
 20
36.1648091975
 10
-67.6911492651
 20
35.8372737448
 10
-67.6780091087
 20
35.5628500626
 10
-67.6645633873
 20
35.3423118973
 10
-67.6508164888
 20
35.1748855026
 10
-67.6369677137
 20
35.0629982033
 10
-67.6230155778
 20
35.0074591078
 10
-67.6159885716
 20
35.0
  0
LWPOLYLINE
  5
266
100
AcDbEntity
  8
0
100
AcDbPolyline
 62
7
  6
CONTINUOUS
 90
22
 70
0
 10
-67.4172564555
 20
48.1056004622
 10
-67.4196717325
 20
48.8909844444
 10
-67.4230613292
 20
49.6684587218
 10
-67.4274042579
 20
50.4343221667
 10
-67.4326375554
 20
51.1774713954
 10
-67.4387741928
 20
51.8975755012
 10
-67.445801199
 20
52.594965391
 10
-67.4536166975
 20
53.2595304014
 10
-67.4622321751
 20
53.8907923308
 10
-67.471636145
 20
54.4892293808
 10
-67.4816922696
 20
55.046165493
 10
-67.4924100498
 20
55.5609960705
 10
-67.5037799847
 20
56.0343257102
 10
-67.5156372346
 20
56.4592921435
 10
-67.5279888988
 20
56.8351908025
 10
-67.540827878
 20
57.1627262552
 10
-67.5539680345
 20
57.4371499374
 10
-67.5674137558
 20
57.6576881027
 10
-67.5811606544
 20
57.8251144974
 10
-67.5950094295
 20
57.9370017967
 10
-67.6089615654
 20
57.9925408922
 10
-67.6159885716
 20
58.0
  0
LINE
  5
267
100
AcDbEntity
  8
ASSI
100
AcDbLine
 62
7
  6
CONTINUOUS
 10
-67.8147206876
 20
-48.1056004622
 11
-67.8166912456
 21
-46.5
  0
LINE
  5
268
100
AcDbEntity
  8
0
100
AcDbLine
 62
7
  6
CONTINUOUS
 10
-67.8166912456
 20
46.5
 11
-67.8147206876
 21
44.8943995378
  0
LINE
  5
269
100
AcDbEntity
  8
ASSI
100
AcDbLine
 62
7
  6
CONTINUOUS
 10
-67.4172564555
 20
-44.8943995378
 11
-67.4152858976
 21
-46.5
  0
LINE
  5
26A
100
AcDbEntity
  8
0
100
AcDbLine
 62
7
  6
CONTINUOUS
 10
-67.4152858976
 20
46.5
 11
-67.4172564555
 21
48.1056004622
  0
LINE
  5
26B
100
AcDbEntity
  8
DRAFT
100
AcDbLine
 62
7
  6
CONTINUOUS
 10
-68.0
 20
82.0
 11
-68.0
 21
-82.0
  0
LINE
  5
26C
100
AcDbEntity
  8
ASSI
100
AcDbLine
 62
7
  6
CONTINUOUS
 10
-68.0
 20
-82.0
 11
-68.0
 21
82.0
  0
LINE
  5
26D
100
AcDbEntity
  8
RACCORDO
100
AcDbLine
 62
250
  6
CONTINUOUS
 10
-67.4662768656
 20
-75.8159971265
 11
-67.466708541
 21
-70.3782874946
  0
LINE
  5
26E
100
AcDbEntity
  8
RACCORDO
100
AcDbLine
 62
250
  6
CONTINUOUS
 10
-67.3798882457
 20
-76.522572675
 11
-67.3798882457
 21
-82.0
  0
LINE
  5
26F
100
AcDbEntity
  8
RACCORDO
100
AcDbLine
 62
250
  6
CONTINUOUS
 10
-67.3798882457
 20
-69.4774273206
 11
-67.3798882457
 21
82.0
  0
LINE
  5
270
100
AcDbEntity
  8
RACCORDO
100
AcDbLine
 62
7
  6
CONTINUOUS
 10
-67.0
 20
-75.9
 11
-67.0
 21
-70.1
  0
LINE
  5
271
100
AcDbEntity
  8
RACCORDO
100
AcDbLine
 62
7
  6
CONTINUOUS
 10
-66.6361004336
 20
-9.1638995664
 11
-66.6361004336
 21
-12.8361004336
  0
LINE
  5
272
100
AcDbEntity
  8
DRAFT
100
AcDbLine
 62
7
  6
CONTINUOUS
 10
-66.5
 20
-12.7
 11
-66.5
 21
-9.3
  0
LINE
  5
273
100
AcDbEntity
  8
RACCORDO
100
AcDbLine
 62
7
  6
CONTINUOUS
 10
-66.3372617805
 20
-82.0
 11
-66.3372617805
 21
-80.4427382195
  0
LINE
  5
274
100
AcDbEntity
  8
RACCORDO
100
AcDbLine
 62
7
  6
CONTINUOUS
 10
-66.3372617805
 20
80.4427382195
 11
-66.3372617805
 21
82.0
  0
LINE
  5
275
100
AcDbEntity
  8
DRAFT
100
AcDbLine
 62
7
  6
CONTINUOUS
 10
-66.2
 20
-80.58
 11
-66.2
 21
-82.0
  0
LINE
  5
276
100
AcDbEntity
  8
DRAFT
100
AcDbLine
 62
7
  6
CONTINUOUS
 10
-66.2
 20
80.58
 11
-66.2
 21
82.0
  0
LINE
  5
277
100
AcDbEntity
  8
RACCORDO
100
AcDbLine
 62
250
  6
CONTINUOUS
 10
-65.880116703
 20
80.4421154889
 11
-65.880116703
 21
-9.1621154889
  0
LINE
  5
278
100
AcDbEntity
  8
RACCORDO
100
AcDbLine
 62
250
  6
CONTINUOUS
 10
-65.8801167033
 20
-12.8378845111
 11
-65.8801167057
 21
-80.4421154889
  0
LWPOLYLINE
  5
279
100
AcDbEntity
  8
ASSI
100
AcDbPolyline
 62
7
  6
CONTINUOUS
 90
23
 70
0
 10
-67.8166912456
 20
-46.5
 10
-67.8147206876
 20
-44.8943995378
 10
-67.8123054106
 20
-44.1090155556
 10
-67.8089158139
 20
-43.3315412782
 10
-67.8045728853
 20
-42.5656778333
 10
-67.7993395878
 20
-41.8225286046
 10
-67.7932029504
 20
-41.1024244988
 10
-67.7861759441
 20
-40.405034609
 10
-67.7783604457
 20
-39.7404695986
 10
-67.769744968
 20
-39.1092076692
 10
-67.7603409982
 20
-38.5107706192
 10
-67.7502848735
 20
-37.953834507
 10
-67.7395670934
 20
-37.4390039295
 10
-67.7281971585
 20
-36.9656742898
 10
-67.7163399086
 20
-36.5407078565
 10
-67.7039882444
 20
-36.1648091975
 10
-67.6911492651
 20
-35.8372737448
 10
-67.6780091087
 20
-35.5628500626
 10
-67.6645633873
 20
-35.3423118973
 10
-67.6508164888
 20
-35.1748855026
 10
-67.6369677137
 20
-35.0629982033
 10
-67.6230155778
 20
-35.0074591078
 10
-67.6159885716
 20
-35.0
  0
LWPOLYLINE
  5
27A
100
AcDbEntity
  8
ASSI
100
AcDbPolyline
 62
7
  6
CONTINUOUS
 90
23
 70
0
 10
-67.4152858976
 20
-46.5
 10
-67.4172564555
 20
-48.1056004622
 10
-67.4196717325
 20
-48.8909844444
 10
-67.4230613292
 20
-49.6684587218
 10
-67.4274042579
 20
-50.4343221667
 10
-67.4326375554
 20
-51.1774713954
 10
-67.4387741928
 20
-51.8975755012
 10
-67.445801199
 20
-52.594965391
 10
-67.4536166975
 20
-53.2595304014
 10
-67.4622321751
 20
-53.8907923308
 10
-67.471636145
 20
-54.4892293808
 10
-67.4816922696
 20
-55.046165493
 10
-67.4924100498
 20
-55.5609960705
 10
-67.5037799847
 20
-56.0343257102
 10
-67.5156372346
 20
-56.4592921435
 10
-67.5279888988
 20
-56.8351908025
 10
-67.540827878
 20
-57.1627262552
 10
-67.5539680345
 20
-57.4371499374
 10
-67.5674137558
 20
-57.6576881027
 10
-67.5811606544
 20
-57.8251144974
 10
-67.5950094295
 20
-57.9370017967
 10
-67.6089615654
 20
-57.9925408922
 10
-67.6159885716
 20
-58.0
  0
LINE
  5
27B
100
AcDbEntity
  8
RACCORDO
100
AcDbLine
 62
250
  6
CONTINUOUS
 10
-67.466708541
 20
-70.3782874946
 11
-67.4661479354
 21
-70.1543479184
  0
LINE
  5
27C
100
AcDbEntity
  8
RACCORDO
100
AcDbLine
 62
250
  6
CONTINUOUS
 10
-67.4661479354
 20
-70.1543479184
 11
-67.4647413566
 21
-69.9500780249
  0
LINE
  5
27D
100
AcDbEntity
  8
RACCORDO
100
AcDbLine
 62
250
  6
CONTINUOUS
 10
-67.4647413566
 20
-69.9500780249
 11
-67.4627309026
 21
-69.7811673401
  0
LINE
  5
27E
100
AcDbEntity
  8
RACCORDO
100
AcDbLine
 62
250
  6
CONTINUOUS
 10
-67.4627309026
 20
-69.7811673401
 11
-67.4611658322
 21
-69.6892898844
  0
LINE
  5
27F
100
AcDbEntity
  8
RACCORDO
100
AcDbLine
 62
250
  6
CONTINUOUS
 10
-67.4611658322
 20
-69.6892898844
 11
-67.4599891048
 21
-69.6342847891
  0
LINE
  5
280
100
AcDbEntity
  8
0
100
AcDbLine
 62
7
  6
CONTINUOUS
 10
1.4920063324
 20
74.4274921018
 11
1.18655621
 21
74.3339610643
  0
LINE
  5
281
100
AcDbEntity
  8
RACCORDO
100
AcDbLine
 62
250
  6
CONTINUOUS
 10
-67.4667094077
 20
-70.4
 11
-67.0
 21
-70.4
  0
LINE
  5
282
100
AcDbEntity
  8
DRAFT
100
AcDbLine
 62
250
  6
CONTINUOUS
 10
-62.0
 20
80.58
 11
-62.0
 21
80.4421154889
  0
LINE
  5
283
100
AcDbEntity
  8
DRAFT
100
AcDbLine
 62
250
  6
CONTINUOUS
 10
-62.0
 20
-80.58
 11
-62.0
 21
-80.4421154889
  0
LINE
  5
284
100
AcDbEntity
  8
DRAFT
100
AcDbLine
 62
250
  6
CONTINUOUS
 10
-62.0
 20
-12.7
 11
-62.0
 21
-12.8378845111
  0
LINE
  5
285
100
AcDbEntity
  8
DRAFT
100
AcDbLine
 62
250
  6
CONTINUOUS
 10
-62.0
 20
-9.3
 11
-62.0
 21
-9.1621154889
  0
LINE
  5
286
100
AcDbEntity
  8
RACCORDO
100
AcDbLine
 62
250
  6
CONTINUOUS
 10
-62.0
 20
-86.2
 11
-62.0
 21
-88.0
  0
LINE
  5
287
100
AcDbEntity
  8
RACCORDO
100
AcDbLine
 62
250
  6
CONTINUOUS
 10
-62.0
 20
86.2
 11
-62.0
 21
88.0
  0
LINE
  5
288
100
AcDbEntity
  8
DRAFT
100
AcDbLine
 62
7
  6
CONTINUOUS
 10
-60.58
 20
86.2
 11
-60.58
 21
82.0
  0
LINE
  5
289
100
AcDbEntity
  8
DRAFT
100
AcDbLine
 62
7
  6
CONTINUOUS
 10
-60.58
 20
-86.2
 11
-60.58
 21
-82.0
  0
LINE
  5
28A
100
AcDbEntity
  8
RACCORDO
100
AcDbLine
 62
7
  6
CONTINUOUS
 10
-60.4421154889
 20
85.8801167053
 11
-60.4421154889
 21
82.0
  0
LINE
  5
28B
100
AcDbEntity
  8
RACCORDO
100
AcDbLine
 62
7
  6
CONTINUOUS
 10
-60.4421154889
 20
-85.8801167031
 11
-60.4421154889
 21
-82.0
  0
LINE
  5
28C
100
AcDbEntity
  8
RACCORDO
100
AcDbLine
 62
250
  6
CONTINUOUS
 10
-67.4599891048
 20
-69.6342847891
 11
-67.4587161017
 21
-69.5851193319
  0
LWPOLYLINE
  5
28D
100
AcDbEntity
  8
RACCORDO
100
AcDbPolyline
 62
250
  6
CONTINUOUS
 90
12
 70
0
 10
-67.4587161017
 20
-69.5851193319
 10
-67.4573606927
 20
-69.5426842147
 10
-67.4566585011
 20
-69.5241839434
 10
-67.4559418307
 20
-69.5075994817
 10
-67.4552108641
 20
-69.4928972909
 10
-67.4544722353
 20
-69.4801889926
 10
-67.4537259561
 20
-69.4695077762
 10
-67.4529720146
 20
-69.4608204523
 10
-67.4522170096
 20
-69.4541390742
 10
-67.4514631406
 20
-69.44946766
 10
-67.4507082079
 20
-69.4468021916
 10
-67.4499522117
 20
-69.4461426692
  0
LWPOLYLINE
  5
28E
100
AcDbEntity
  8
RACCORDO
100
AcDbPolyline
 62
250
  6
CONTINUOUS
 90
7
 70
0
 10
-67.4499521428
 20
-76.5538573308
 10
-67.4436915232
 20
-76.4603601212
 10
-67.4250000682
 20
-76.3685385066
 10
-67.3942127539
 20
-76.2800380547
 10
-67.3518813306
 20
-76.196444813
 10
-67.2987644346
 20
-76.1192568856
 10
-67.2490472714
 20
-76.0629591772
  0
LINE
  5
28F
100
AcDbEntity
  8
0
100
AcDbLine
 62
7
  6
CONTINUOUS
 10
-2.368336
 20
76.7028
 11
-3.084683
 21
76.096
  0
LWPOLYLINE
  5
290
100
AcDbEntity
  8
0
100
AcDbPolyline
 62
7
  6
CONTINUOUS
 90
10
 70
0
 10
-0.4790686992
 20
76.3632687617
 10
-0.4486187402
 20
76.3872265235
 10
-0.4154874891
 20
76.4086889811
 10
-0.3796749461
 20
76.4276561345
 10
-0.3408475018
 20
76.4442455127
 10
-0.2993387655
 20
76.4583395867
 10
-0.2561495645
 20
76.4695857692
 10
-0.2116135077
 20
76.4778665312
 10
-0.1653969863
 20
76.4832994018
 10
-0.1175
 20
76.4858843809
  0
LWPOLYLINE
  5
291
100
AcDbEntity
  8
0
100
AcDbPolyline
 62
7
  6
CONTINUOUS
 90
10
 70
0
 10
2.5351606504
 20
75.384268354
 10
2.6107641123
 20
75.4332308613
 10
2.6781624786
 20
75.4871806611
 10
2.7373557494
 20
75.5461177535
 10
2.7886473574
 20
75.6102373927
 10
2.8317338698
 20
75.6793443245
 10
2.8657049883
 20
75.7528527861
 10
2.89025728
 20
75.8305675233
 10
2.9056941778
 20
75.9126837902
 10
2.9120156817
 20
75.9992015869
  0
LINE
  5
292
100
AcDbEntity
  8
0
100
AcDbLine
 62
7
  6
CONTINUOUS
 10
-51.6
 20
-63.0
 11
-51.4
 21
-63.0
  0
LINE
  5
293
100
AcDbEntity
  8
0
100
AcDbLine
 62
7
  6
CONTINUOUS
 10
-54.236926
 20
4.384036
 11
-54.266249
 21
4.748479
  0
LINE
  5
294
100
AcDbEntity
  8
0
100
AcDbLine
 62
7
  6
CONTINUOUS
 10
-55.011891
 20
-0.441692
 11
-55.011891
 21
-0.6792868258
  0
LINE
  5
295
100
AcDbEntity
  8
0
100
AcDbLine
 62
7
  6
CONTINUOUS
 10
-54.999324
 20
2.050763
 11
-54.999324
 21
1.749155
  0
LINE
  5
296
100
AcDbEntity
  8
RACCORDO
100
AcDbLine
 62
250
  6
CONTINUOUS
 10
-54.1
 20
87.4667094077
 11
-54.1
 21
87.0
  0
LINE
  5
297
100
AcDbEntity
  8
0
100
AcDbLine
 62
7
  6
CONTINUOUS
 10
-53.055628
 20
2.457096
 11
-53.055628
 21
2.050763
  0
LINE
  5
298
100
AcDbEntity
  8
0
100
AcDbLine
 62
7
  6
CONTINUOUS
 10
-53.055628
 20
1.682131
 11
-53.055628
 21
0.741504
  0
LINE
  5
299
100
AcDbEntity
  8
0
100
AcDbLine
 62
7
  6
CONTINUOUS
 10
-52.716319
 20
0.379352
 11
-52.716319
 21
1.682131
  0
LINE
  5
29A
100
AcDbEntity
  8
0
100
AcDbLine
 62
7
  6
CONTINUOUS
 10
-52.716319
 20
2.050763
 11
-52.716319
 21
2.457096
  0
LINE
  5
29B
100
AcDbEntity
  8
0
100
AcDbLine
 62
7
  6
CONTINUOUS
 10
-52.0
 20
-0.810324
 11
-52.0
 21
-0.441692
  0
LINE
  5
29C
100
AcDbEntity
  8
0
100
AcDbLine
 62
7
  6
CONTINUOUS
 10
-52.0
 20
1.682131
 11
-52.0
 21
2.050763
  0
LINE
  5
29D
100
AcDbEntity
  8
0
100
AcDbLine
 62
7
  6
CONTINUOUS
 10
-51.6
 20
63.0
 11
-51.6
 21
-63.0
  0
LINE
  5
29E
100
AcDbEntity
  8
0
100
AcDbLine
 62
7
  6
CONTINUOUS
 10
-51.4
 20
-63.0
 11
-51.4
 21
63.0
  0
LINE
  5
29F
100
AcDbEntity
  8
0
100
AcDbLine
 62
7
  6
CONTINUOUS
 10
-2.905948
 20
75.873703
 11
-2.400816
 21
76.334184
  0
LWPOLYLINE
  5
2A0
100
AcDbEntity
  8
0
100
AcDbPolyline
 62
7
  6
CONTINUOUS
 90
16
 70
0
 10
2.5343672374
 20
74.1799547295
 10
2.4687513414
 20
74.1250924698
 10
2.3970777453
 20
74.0814155789
 10
2.3193464489
 20
74.0489240569
 10
2.2330006017
 20
74.0281761933
 10
2.1405970544
 20
74.0186136986
 10
2.0498063585
 20
74.0185617042
 10
1.9611911101
 20
74.0276618605
 10
1.8741887131
 20
74.0462725171
 10
1.7947819307
 20
74.0737938546
 10
1.7248838449
 20
74.1099279495
 10
1.6625813737
 20
74.1549727252
 10
1.6081180351
 20
74.2092221332
 10
1.5615750016
 20
74.2727741571
 10
1.5228711007
 20
74.3455308133
 10
1.4920063324
 20
74.4274921018
  0
LWPOLYLINE
  5
2A1
100
AcDbEntity
  8
RACCORDO
100
AcDbPolyline
 62
250
  6
CONTINUOUS
 90
13
 70
0
 10
-67.4499522117
 20
-76.5538573308
 10
-67.4503314446
 20
-76.5539521123
 10
-67.45073647
 20
-76.5532590684
 10
-67.4511672879
 20
-76.551778199
 10
-67.4516257186
 20
-76.5496226598
 10
-67.4521099418
 20
-76.5466792952
 10
-67.4526144971
 20
-76.5426086387
 10
-67.4531396462
 20
-76.5373981913
 10
-67.4536851274
 20
-76.5310604521
 10
-67.4542446957
 20
-76.5232934514
 10
-67.4548187336
 20
-76.5140725506
 10
-67.4554068585
 20
-76.5034223882
 10
-67.4560016781
 20
-76.4911149112
  0
LINE
  5
2A2
100
AcDbEntity
  8
RACCORDO
100
AcDbLine
 62
7
  6
CONTINUOUS
 10
-66.5
 20
-9.3
 11
-66.6361004336
 21
-9.1638995664
  0
LINE
  5
2A3
100
AcDbEntity
  8
RACCORDO
100
AcDbLine
 62
250
  6
CONTINUOUS
 10
-48.9
 20
87.4667094077
 11
-48.9
 21
87.0
  0
LINE
  5
2A4
100
AcDbEntity
  8
0
100
AcDbLine
 62
7
  6
CONTINUOUS
 10
11.2249721603
 20
-47.25
 11
10.1021666421
 21
-47.25
  0
LINE
  5
2A5
100
AcDbEntity
  8
0
100
AcDbLine
 62
7
  6
CONTINUOUS
 10
-10.1021666421
 20
-47.25
 11
-11.2249721603
 21
-47.25
  0
LINE
  5
2A6
100
AcDbEntity
  8
0
100
AcDbLine
 62
7
  6
CONTINUOUS
 10
-11.2249721603
 20
-45.75
 11
-10.1021666421
 21
-45.75
  0
LINE
  5
2A7
100
AcDbEntity
  8
0
100
AcDbLine
 62
7
  6
CONTINUOUS
 10
10.1021666421
 20
-45.75
 11
11.2249721603
 21
-45.75
  0
LWPOLYLINE
  5
2A8
100
AcDbEntity
  8
0
100
AcDbPolyline
 62
7
  6
CONTINUOUS
 90
10
 70
0
 10
-53.9029187201
 20
-1.547588
 10
-53.9435191636
 20
-1.4508539259
 10
-53.9863532632
 20
-1.3577276098
 10
-54.0314210189
 20
-1.2682090518
 10
-54.0787908405
 20
-1.1821699786
 10
-54.1283943183
 20
-1.0997386635
 10
-54.1800262226
 20
-1.0212999261
 10
-54.2336181438
 20
-0.9469820397
 10
-54.2892384916
 20
-0.876656731
 10
-54.346887266
 20
-0.810324
  0
LINE
  5
2A9
100
AcDbEntity
  8
0
100
AcDbLine
 62
7
  6
CONTINUOUS
 10
-41.5
 20
73.1
 11
-41.5
 21
72.9
  0
LWPOLYLINE
  5
2AA
100
AcDbEntity
  8
0
100
AcDbPolyline
 62
7
  6
CONTINUOUS
 90
10
 70
0
 10
1.5551718517
 20
76.1648030757
 10
1.5943312321
 20
76.2235746573
 10
1.6403713742
 20
76.2774526754
 10
1.6932922781
 20
76.3264371299
 10
1.7551061406
 20
76.3717018964
 10
1.8238007649
 20
76.4120730994
 10
1.8933395602
 20
76.444029112
 10
1.9617103294
 20
76.4663960586
 10
2.0309252697
 20
76.4803478149
 10
2.1009843809
 20
76.4858843809
  0
LINE
  5
2AB
100
AcDbEntity
  8
RACCORDO
100
AcDbLine
 62
7
  6
CONTINUOUS
 10
-66.5
 20
-12.7
 11
-66.6361004336
 21
-12.8361004336
  0
LWPOLYLINE
  5
2AC
100
AcDbEntity
  8
RACCORDO
100
AcDbPolyline
 62
250
  6
CONTINUOUS
 90
10
 70
0
 10
67.3798882457
 20
76.5225726752
 10
67.3871007005
 20
76.5262346532
 10
67.3944547039
 20
76.5298528205
 10
67.4019502557
 20
76.5334271772
 10
67.4095852774
 20
76.5369612772
 10
67.4173618476
 20
76.5404515665
 10
67.4252862025
 20
76.5438873827
 10
67.4333604209
 20
76.5472651718
 10
67.441582424
 20
76.5505884879
 10
67.4499522117
 20
76.5538573308
  0
LWPOLYLINE
  5
2AD
100
AcDbEntity
  8
0
100
AcDbPolyline
 62
7
  6
CONTINUOUS
 90
6
 70
0
 10
-54.6410947783
 20
-0.9716716003
 10
-54.556035175
 20
-1.0708868051
 10
-54.4751830247
 20
-1.1782913447
 10
-54.3988873189
 20
-1.293200895
 10
-54.326799066
 20
-1.4162997801
 10
-54.258918266
 20
-1.547588
  0
LWPOLYLINE
  5
2AE
100
AcDbEntity
  8
0
100
AcDbPolyline
 62
7
  6
CONTINUOUS
 90
4
 70
0
 10
-0.65084194
 20
76.1130365845
 10
-0.6022706626
 20
76.2055107423
 10
-0.5450129156
 20
76.288921468
 10
-0.4790686992
 20
76.3632687617
  0
LINE
  5
2AF
100
AcDbEntity
  8
0
100
AcDbLine
 62
7
  6
CONTINUOUS
 10
-53.055628
 20
0.741504
 11
-54.404944
 21
1.682131
  0
LINE
  5
2B0
100
AcDbEntity
  8
0
100
AcDbLine
 62
7
  6
CONTINUOUS
 10
-54.999324
 20
1.749155
 11
-53.055628
 21
0.379352
  0
LWPOLYLINE
  5
2B1
100
AcDbEntity
  8
RACCORDO
100
AcDbPolyline
 62
250
  6
CONTINUOUS
 90
13
 70
0
 10
-55.0538573308
 20
87.4499522117
 10
-55.0539521123
 20
87.4503314446
 10
-55.0532590684
 20
87.45073647
 10
-55.051778199
 20
87.4511672879
 10
-55.0496226598
 20
87.4516257186
 10
-55.0466792952
 20
87.4521099418
 10
-55.0426086387
 20
87.4526144971
 10
-55.0373981913
 20
87.4531396462
 10
-55.0310604521
 20
87.4536851274
 10
-55.0232934514
 20
87.4542446957
 10
-55.0140725506
 20
87.4548187336
 10
-55.0034223882
 20
87.4554068585
 10
-54.9911149112
 20
87.4560016781
  0
LWPOLYLINE
  5
2B2
100
AcDbEntity
  8
0
100
AcDbPolyline
 62
7
  6
CONTINUOUS
 90
37
 70
0
 10
0.4481719356
 20
74.4612531426
 10
0.4171494586
 20
74.384492491
 10
0.3815723758
 20
74.3144826247
 10
0.3414406872
 20
74.2512235439
 10
0.2972608351
 20
74.194288952
 10
0.2485263772
 20
74.1441051454
 10
0.193717986
 20
74.1019510137
 10
0.1316037246
 20
74.067928951
 10
0.0634155299
 20
74.0419365632
 10
-0.0086701137
 20
74.0249455569
 10
-0.0867886662
 20
74.0172321805
 10
-0.1688046676
 20
74.0185201857
 10
-0.2461352533
 20
74.0289525348
 10
-0.3160970394
 20
74.0488074827
 10
-0.3813734098
 20
74.0778067744
 10
-0.4414316515
 20
74.1152586073
 10
-0.4960898306
 20
74.161345588
 10
-0.5455298812
 20
74.2158851099
 10
-0.5897648918
 20
74.2776375501
 10
-0.6285450783
 20
74.3469753493
 10
-0.6621202249
 20
74.4235260667
 10
-0.6912527729
 20
74.504932757
 10
-0.715926589
 20
74.5907783322
 10
-0.7361578064
 20
74.6814798803
 10
-0.7527572665
 20
74.77593172
 10
-0.765838857
 20
74.8738698273
 10
-0.7752886901
 20
74.9755582262
 10
-0.7815759434
 20
75.0806833083
 10
-0.7852046646
 20
75.1892051081
 10
-0.785670806
 20
75.3011635911
 10
-0.7819314023
 20
75.4163650449
 10
-0.7743147489
 20
75.5370505338
 10
-0.7624925503
 20
75.6609789934
 10
-0.7444369553
 20
75.7812335188
 10
-0.7202897044
 20
75.8973049742
 10
-0.6899090569
 20
76.0097024954
 10
-0.65084194
 20
76.1130365845
  0
LWPOLYLINE
  5
2B3
100
AcDbEntity
  8
RACCORDO
100
AcDbPolyline
 62
7
  6
CONTINUOUS
 90
13
 70
0
 10
67.0
 20
75.9
 10
67.0608785551
 20
75.938495843
 10
67.1164709865
 20
75.9803669914
 10
67.1667081681
 20
76.0256134455
 10
67.2115755738
 20
76.0748152745
 10
67.2510321183
 20
76.1273924091
 10
67.2850377169
 20
76.1816046406
 10
67.3136921432
 20
76.2374334498
 10
67.3370436116
 20
76.294897356
 10
67.3551180226
 20
76.3523117087
 10
67.3681091588
 20
76.4091149576
 10
67.3762850215
 20
76.4658686531
 10
67.3798882487
 20
76.522572795
  0
LWPOLYLINE
  5
2B4
100
AcDbEntity
  8
0
100
AcDbPolyline
 62
7
  6
CONTINUOUS
 90
5
 70
0
 10
-55.011891
 20
-0.6792868258
 10
-54.9145384749
 20
-0.7368484776
 10
-54.8203464282
 20
-0.8046524366
 10
-54.7293148598
 20
-0.8826987028
 10
-54.6410947783
 20
-0.9716716003
  0
LWPOLYLINE
  5
2B5
100
AcDbEntity
  8
RACCORDO
100
AcDbPolyline
 62
7
  6
CONTINUOUS
 90
5
 70
0
 10
54.5629591772
 20
-87.2490472714
 10
54.5498575843
 20
-87.2358139925
 10
54.4894906384
 20
-87.1641581612
 10
54.4392379052
 20
-87.0850811102
 10
54.3999999816
 20
-87.000000007
  0
LWPOLYLINE
  5
2B6
100
AcDbEntity
  8
0
100
AcDbPolyline
 62
7
  6
CONTINUOUS
 90
10
 70
0
 10
0.5395250156
 20
74.8674093965
 10
0.5344217777
 20
74.8195871693
 10
0.5280225413
 20
74.7723646274
 10
0.5203273065
 20
74.7257417709
 10
0.5112904434
 20
74.6796202621
 10
0.5009575819
 20
74.6340984387
 10
0.4894656114
 20
74.5894713137
 10
0.4768601618
 20
74.5458372248
 10
0.4630956032
 20
74.5030978345
 10
0.4481719356
 20
74.4612531426
  0
LWPOLYLINE
  5
2B7
100
AcDbEntity
  8
RACCORDO
100
AcDbPolyline
 62
7
  6
CONTINUOUS
 90
5
 70
0
 10
67.2490472714
 20
76.0629591772
 10
67.2358139925
 20
76.0498575843
 10
67.1641581612
 20
75.9894906384
 10
67.0850811102
 20
75.9392379052
 10
67.000000007
 20
75.8999999816
  0
LINE
  5
2B8
100
AcDbEntity
  8
RACCORDO
100
AcDbLine
 62
7
  6
CONTINUOUS
 10
65.880116703
 20
-12.8378845111
 11
62.0
 21
-12.8378845111
  0
LINE
  5
2B9
100
AcDbEntity
  8
RACCORDO
100
AcDbLine
 62
7
  6
CONTINUOUS
 10
-62.0
 20
-12.8378845111
 11
-65.8801167033
 21
-12.8378845111
  0
LINE
  5
2BA
100
AcDbEntity
  8
DRAFT
100
AcDbLine
 62
7
  6
CONTINUOUS
 10
66.5
 20
-12.7
 11
62.0
 21
-12.7
  0
LINE
  5
2BB
100
AcDbEntity
  8
DRAFT
100
AcDbLine
 62
7
  6
CONTINUOUS
 10
-62.0
 20
-12.7
 11
-66.5
 21
-12.7
  0
LINE
  5
2BC
100
AcDbEntity
  8
DRAFT
100
AcDbLine
 62
7
  6
CONTINUOUS
 10
-66.5
 20
-9.3
 11
-62.0
 21
-9.3
  0
LINE
  5
2BD
100
AcDbEntity
  8
DRAFT
100
AcDbLine
 62
7
  6
CONTINUOUS
 10
62.0
 20
-9.3
 11
66.5
 21
-9.3
  0
LINE
  5
2BE
100
AcDbEntity
  8
RACCORDO
100
AcDbLine
 62
7
  6
CONTINUOUS
 10
-65.880116703
 20
-9.1621154889
 11
-62.0
 21
-9.1621154889
  0
LINE
  5
2BF
100
AcDbEntity
  8
RACCORDO
100
AcDbLine
 62
7
  6
CONTINUOUS
 10
62.0
 20
-9.1621154889
 11
65.8801167032
 21
-9.1621154889
  0
LWPOLYLINE
  5
2C0
100
AcDbEntity
  8
RACCORDO
100
AcDbPolyline
 62
250
  6
CONTINUOUS
 90
10
 70
0
 10
-55.0225726765
 20
87.3798882457
 10
-55.0262347355
 20
87.3871008725
 10
-55.0298529565
 20
87.3944549914
 10
-55.0334273395
 20
87.4019506023
 10
-55.0369614292
 20
87.4095856087
 10
-55.040451681
 20
87.4173621071
 10
-55.0438874605
 20
87.4252863877
 10
-55.0472652229
 20
87.433360547
 10
-55.050588513
 20
87.4415824883
 10
-55.0538573308
 20
87.4499522117
  0
LINE
  5
2C1
100
AcDbEntity
  8
0
100
AcDbLine
 62
7
  6
CONTINUOUS
 10
-2.400816
 20
76.334184
 11
-2.400816
 21
73.8
  0
LINE
  5
2C2
100
AcDbEntity
  8
0
100
AcDbLine
 62
7
  6
CONTINUOUS
 10
-2.118684
 20
73.8
 11
-2.118684
 21
76.7028
  0
LINE
  5
2C3
100
AcDbEntity
  8
0
100
AcDbLine
 62
7
  6
CONTINUOUS
 10
-0.75
 20
57.7249721603
 11
-0.75
 21
56.6021666421
  0
LINE
  5
2C4
100
AcDbEntity
  8
0
100
AcDbLine
 62
7
  6
CONTINUOUS
 10
-0.75
 20
36.3978333579
 11
-0.75
 21
35.2750278397
  0
LINE
  5
2C5
100
AcDbEntity
  8
0
100
AcDbLine
 62
7
  6
CONTINUOUS
 10
-0.75
 20
-57.7249721603
 11
-0.75
 21
-56.6021666421
  0
LINE
  5
2C6
100
AcDbEntity
  8
0
100
AcDbLine
 62
7
  6
CONTINUOUS
 10
-0.75
 20
-36.3978333579
 11
-0.75
 21
-35.2750278397
  0
LINE
  5
2C7
100
AcDbEntity
  8
0
100
AcDbLine
 62
7
  6
CONTINUOUS
 10
0.75
 20
-35.2750278397
 11
0.75
 21
-36.3978333579
  0
LINE
  5
2C8
100
AcDbEntity
  8
0
100
AcDbLine
 62
7
  6
CONTINUOUS
 10
0.75
 20
-56.6021666421
 11
0.75
 21
-57.7249721603
  0
LINE
  5
2C9
100
AcDbEntity
  8
0
100
AcDbLine
 62
7
  6
CONTINUOUS
 10
0.75
 20
35.2750278397
 11
0.75
 21
36.3978333579
  0
LINE
  5
2CA
100
AcDbEntity
  8
0
100
AcDbLine
 62
7
  6
CONTINUOUS
 10
0.75
 20
56.6021666421
 11
0.75
 21
57.7249721603
  0
LWPOLYLINE
  5
2CB
100
AcDbEntity
  8
0
100
AcDbPolyline
 62
7
  6
CONTINUOUS
 90
16
 70
0
 10
2.6291156817
 20
75.9911297139
 10
2.6248085626
 20
75.9122494598
 10
2.612737892
 20
75.8395402756
 10
2.5929036696
 20
75.7730021614
 10
2.5651010014
 20
75.7125181276
 10
2.5295347816
 20
75.6582051637
 10
2.4868196929
 20
75.6104142386
 10
2.4365804904
 20
75.5694831361
 10
2.3791924189
 20
75.5350740722
 10
2.3163958957
 20
75.506524664
 10
2.2481601006
 20
75.4838008032
 10
2.1745158536
 20
75.4669365979
 10
2.0972960323
 20
75.4553719895
 10
2.0171115959
 20
75.4489202915
 10
1.9333515851
 20
75.4477681904
 10
1.846016
 20
75.4519156861
  0
LWPOLYLINE
  5
2CC
100
AcDbEntity
  8
0
100
AcDbPolyline
 62
7
  6
CONTINUOUS
 90
10
 70
0
 10
2.7077843809
 20
74.5925172061
 10
2.7035250997
 20
74.5354677771
 10
2.6952223943
 20
74.4808817046
 10
2.6828762647
 20
74.4287589886
 10
2.6660985755
 20
74.3786477198
 10
2.6452774621
 20
74.3309998075
 10
2.621577331
 20
74.2871709795
 10
2.5953863175
 20
74.2476131452
 10
2.5663162863
 20
74.2118743952
 10
2.5343672374
 20
74.1799547295
  0
LINE
  5
2CD
100
AcDbEntity
  8
0
100
AcDbLine
 62
7
  6
CONTINUOUS
 10
-54.258918266
 20
-1.547588
 11
-53.9029187201
 21
-1.547588
  0
LINE
  5
2CE
100
AcDbEntity
  8
0
100
AcDbLine
 62
7
  6
CONTINUOUS
 10
-54.346887266
 20
-0.810324
 11
-52.0
 21
-0.810324
  0
LINE
  5
2CF
100
AcDbEntity
  8
0
100
AcDbLine
 62
7
  6
CONTINUOUS
 10
-52.0
 20
-0.441692
 11
-55.011891
 21
-0.441692
  0
LINE
  5
2D0
100
AcDbEntity
  8
0
100
AcDbLine
 62
7
  6
CONTINUOUS
 10
-53.055628
 20
0.379352
 11
-52.716319
 21
0.379352
  0
LWPOLYLINE
  5
2D1
100
AcDbEntity
  8
0
100
AcDbPolyline
 62
7
  6
CONTINUOUS
 90
25
 70
0
 10
-52.9720443624
 20
3.240439
 10
-53.0702477884
 20
3.24695653
 10
-53.1611113741
 20
3.2630745421
 10
-53.2446351193
 20
3.2887930362
 10
-53.3211705085
 20
3.3246847632
 10
-53.3903660573
 20
3.3701769722
 10
-53.4511673126
 20
3.4235514107
 10
-53.5038682356
 20
3.4855313953
 10
-53.5481748652
 20
3.5553936094
 10
-53.5821508647
 20
3.6292498496
 10
-53.6054745276
 20
3.7074556796
 10
-53.6184675605
 20
3.7896555359
 10
-53.6201587467
 20
3.8708945245
 10
-53.6096897735
 20
3.9510141389
 10
-53.5879189536
 20
4.0301728857
 10
-53.5564500084
 20
4.1038913917
 10
-53.5151713547
 20
4.1717471905
 10
-53.4641945757
 20
4.2341627485
 10
-53.4054581419
 20
4.2879260922
 10
-53.3389537807
 20
4.3320122712
 10
-53.2646897647
 20
4.3674462357
 10
-53.1846293823
 20
4.3940908628
 10
-53.0994270629
 20
4.4119004446
 10
-53.0084283772
 20
4.4209206889
 10
-52.911633325
 20
4.4211515956
  0
LWPOLYLINE
  5
2D2
100
AcDbEntity
  8
0
100
AcDbPolyline
 62
7
  6
CONTINUOUS
 90
25
 70
0
 10
-52.911633325
 20
4.4211515956
 10
-52.8179228635
 20
4.4141446864
 10
-52.7303812479
 20
4.3989872125
 10
-52.6490084781
 20
4.3756791738
 10
-52.5733556423
 20
4.3441121704
 10
-52.5038716523
 20
4.3043946023
 10
-52.4419032442
 20
4.2568516694
 10
-52.3871354484
 20
4.2002330699
 10
-52.3398832345
 20
4.1357891056
 10
-52.3024382469
 20
4.0675958817
 10
-52.2751956549
 20
3.9955641066
 10
-52.2577602892
 20
3.9197830718
 10
-52.2512382854
 20
3.8445967579
 10
-52.2561416585
 20
3.7707398272
 10
-52.2719583937
 20
3.6974776174
 10
-52.2982585821
 20
3.6269501213
 10
-52.3350432229
 20
3.5588202665
 10
-52.382311317
 20
3.4934251255
 10
-52.4396299582
 20
3.4339159084
 10
-52.5076582932
 20
3.3800959232
 10
-52.5857371752
 20
3.3321618618
 10
-52.6714562578
 20
3.2938550102
 10
-52.7640120921
 20
3.2664224637
 10
-52.864208127
 20
3.248617127
 10
-52.9720443624
 20
3.240439
  0
LWPOLYLINE
  5
2D3
100
AcDbEntity
  8
RACCORDO
100
AcDbPolyline
 62
7
  6
CONTINUOUS
 90
13
 70
0
 10
54.4
 20
-87.0
 10
54.4384958459
 20
-87.060878558
 10
54.4803669943
 20
-87.1164709892
 10
54.5256134453
 20
-87.166708168
 10
54.574815268
 20
-87.2115755689
 10
54.6273923932
 20
-87.2510321077
 10
54.6816046132
 20
-87.2850377014
 10
54.7374334033
 20
-87.313692122
 10
54.7948972881
 20
-87.3370435873
 10
54.8523116331
 20
-87.3551180021
 10
54.9091148934
 20
-87.3681091468
 10
54.9658686139
 20
-87.3762850174
 10
55.0225727947
 20
-87.3798882487
  0
LWPOLYLINE
  5
2D4
100
AcDbEntity
  8
RACCORDO
100
AcDbPolyline
 62
7
  6
CONTINUOUS
 90
13
 70
0
 10
-54.4
 20
87.0
 10
-54.4384958461
 20
87.060878558
 10
-54.4803669948
 20
87.1164709891
 10
-54.5256134458
 20
87.1667081679
 10
-54.5748152687
 20
87.2115755688
 10
-54.627392394
 20
87.2510321077
 10
-54.6816046138
 20
87.2850377014
 10
-54.7374334032
 20
87.3136921222
 10
-54.7948972871
 20
87.3370435876
 10
-54.8523116318
 20
87.3551180024
 10
-54.9091148927
 20
87.368109147
 10
-54.9658686143
 20
87.3762850175
 10
-55.0225727968
 20
87.3798882487
  0
LWPOLYLINE
  5
2D5
100
AcDbEntity
  8
0
100
AcDbPolyline
 62
7
  6
CONTINUOUS
 90
28
 70
0
 10
2.9120156817
 20
75.9992015869
 10
2.9075944831
 20
76.0836734977
 10
2.8968789279
 20
76.163069044
 10
2.8798690161
 20
76.2373882259
 10
2.8558961136
 20
76.3069921442
 10
2.8256288544
 20
76.371519698
 10
2.7910731413
 20
76.4298875845
 10
2.752720337
 20
76.4810701106
 10
2.7100790788
 20
76.5260929693
 10
2.6636811805
 20
76.566949937
 10
2.6139747419
 20
76.6041701637
 10
2.5605116632
 20
76.6372244993
 10
2.5024794596
 20
76.6665192703
 10
2.4394128094
 20
76.6926518786
 10
2.3717770343
 20
76.7150249222
 10
2.3001556143
 20
76.7322525209
 10
2.224426241
 20
76.7443974602
 10
2.1447112229
 20
76.7513969547
 10
2.0619609645
 20
76.7516767676
 10
1.9756585189
 20
76.746278004
 10
1.8863208331
 20
76.7341595589
 10
1.7964491528
 20
76.7106238811
 10
1.7050266928
 20
76.6750554486
 10
1.6130702383
 20
76.6280697833
 10
1.5261313901
 20
76.5668159001
 10
1.4460606818
 20
76.4903434704
 10
1.3710075798
 20
76.3996028227
 10
1.3009720842
 20
76.294593957
  0
LWPOLYLINE
  5
2D6
100
AcDbEntity
  8
0
100
AcDbPolyline
 62
7
  6
CONTINUOUS
 90
10
 70
0
 10
0.5395250156
 20
75.6414765713
 10
0.5440365071
 20
75.5545153189
 10
0.5474299061
 20
75.4680360987
 10
0.5497052127
 20
75.3820389106
 10
0.5508754674
 20
75.2968485347
 10
0.5509276296
 20
75.2121401909
 10
0.5498225777
 20
75.1269395392
 10
0.5475472711
 20
75.0409217995
 10
0.5441147504
 20
74.954411752
 10
0.5395250156
 20
74.8674093965
  0
LINE
  5
2D7
100
AcDbEntity
  8
0
100
AcDbLine
 62
7
  6
CONTINUOUS
 10
1.846016
 20
75.4519156861
 11
1.846016
 21
75.1861843746
  0
LWPOLYLINE
  5
2D8
100
AcDbEntity
  8
RACCORDO
100
AcDbPolyline
 62
7
  6
CONTINUOUS
 90
5
 70
0
 10
-67.2490472714
 20
-76.0629591772
 10
-67.2358139925
 20
-76.0498575843
 10
-67.1641581612
 20
-75.9894906384
 10
-67.0850811102
 20
-75.9392379052
 10
-67.000000007
 20
-75.8999999816
  0
LINE
  5
2D9
100
AcDbEntity
  8
0
100
AcDbLine
 62
7
  6
CONTINUOUS
 10
-54.404944
 20
1.682131
 11
-53.055628
 21
1.682131
  0
LINE
  5
2DA
100
AcDbEntity
  8
0
100
AcDbLine
 62
7
  6
CONTINUOUS
 10
-52.716319
 20
1.682131
 11
-52.0
 21
1.682131
  0
LINE
  5
2DB
100
AcDbEntity
  8
0
100
AcDbLine
 62
7
  6
CONTINUOUS
 10
-52.0
 20
2.050763
 11
-52.716319
 21
2.050763
  0
LINE
  5
2DC
100
AcDbEntity
  8
0
100
AcDbLine
 62
7
  6
CONTINUOUS
 10
-53.055628
 20
2.050763
 11
-54.999324
 21
2.050763
  0
LINE
  5
2DD
100
AcDbEntity
  8
0
100
AcDbLine
 62
7
  6
CONTINUOUS
 10
-52.716319
 20
2.457096
 11
-53.055628
 21
2.457096
  0
LWPOLYLINE
  5
2DE
100
AcDbEntity
  8
0
100
AcDbPolyline
 62
7
  6
CONTINUOUS
 90
25
 70
0
 10
-53.5490137062
 20
3.181793
 10
-53.678542907
 20
3.1828095441
 10
-53.8025850239
 20
3.1904633728
 10
-53.9211400569
 20
3.2047544861
 10
-54.0349048411
 20
3.2253510241
 10
-54.1431825414
 20
3.2525848467
 10
-54.2438826524
 20
3.2874515337
 10
-54.3372015388
 20
3.3308679589
 10
-54.4229428359
 20
3.3819172485
 10
-54.4984269435
 20
3.4388443603
 10
-54.5635239368
 20
3.5014407243
 10
-54.6183637405
 20
3.5699149105
 10
-54.6606565287
 20
3.6431375875
 10
-54.6895789566
 20
3.7228124871
 10
-54.7059543689
 20
3.8072358774
 10
-54.7099629748
 20
3.890167231
 10
-54.701308785
 20
3.9713981088
 10
-54.6802877888
 20
4.0511369499
 10
-54.6479681631
 20
4.1237685445
 10
-54.6040389131
 20
4.187978175
 10
-54.5488110337
 20
4.245080559
 10
-54.4842856865
 20
4.2934046392
 10
-54.4111299254
 20
4.3323933966
 10
-54.3286766966
 20
4.3626038502
 10
-54.236926
 20
4.384036
  0
LWPOLYLINE
  5
2DF
100
AcDbEntity
  8
0
100
AcDbPolyline
 62
7
  6
CONTINUOUS
 90
25
 70
0
 10
-52.8859325982
 20
2.8583959017
 10
-52.7312346128
 20
2.8915914129
 10
-52.5882189083
 20
2.9377053929
 10
-52.457206547
 20
2.9980533903
 10
-52.3378764666
 20
3.0713198566
 10
-52.2337677876
 20
3.1566857799
 10
-52.1455363024
 20
3.2553699865
 10
-52.0725262185
 20
3.3661536501
 10
-52.0163092791
 20
3.4845612801
 10
-51.9776705773
 20
3.612828442
 10
-51.9558250201
 20
3.7487195703
 10
-51.9499890706
 20
3.8810524777
 10
-51.9602729607
 20
4.0077834923
 10
-51.9865664587
 20
4.1309562861
 10
-52.0277553329
 20
4.2455196874
 10
-52.0834825765
 20
4.3500416244
 10
-52.1541051964
 20
4.4459541689
 10
-52.239579982
 20
4.532502364
 10
-52.3413411087
 20
4.6115218056
 10
-52.4579544011
 20
4.6811768978
 10
-52.5850741217
 20
4.7352058961
 10
-52.7255415672
 20
4.7723475279
 10
-52.8765154411
 20
4.7938630659
 10
-53.0251261159
 20
4.7972745832
 10
-53.170857488
 20
4.7802851305
  0
LWPOLYLINE
  5
2E0
100
AcDbEntity
  8
RACCORDO
100
AcDbPolyline
 62
250
  6
CONTINUOUS
 90
10
 70
0
 10
55.022572675
 20
-87.3798882457
 10
55.0262346438
 20
-87.3871006807
 10
55.0298528054
 20
-87.3944546718
 10
55.0334271599
 20
-87.4019502188
 10
55.0369612629
 20
-87.4095852466
 10
55.0404515588
 20
-87.4173618303
 10
55.0438873802
 20
-87.4252861961
 10
55.0472651715
 20
-87.4333604193
 10
55.0505884884
 20
-87.4415824245
 10
55.0538573308
 20
-87.4499522117
  0
LWPOLYLINE
  5
2E1
100
AcDbEntity
  8
0
100
AcDbPolyline
 62
7
  6
CONTINUOUS
 90
18
 70
0
 10
-53.170857488
 20
4.7802851305
 10
-53.314225661
 20
4.7451916572
 10
-53.4439093191
 20
4.6964070844
 10
-53.5561390539
 20
4.6345781912
 10
-53.6546842737
 20
4.5590581985
 10
-53.7395318876
 20
4.4723196905
 10
-53.8114812123
 20
4.3730074516
 10
-53.869732931
 20
4.2624766975
 10
-53.9118760024
 20
4.1472656586
 10
-53.937433528
 20
4.0267904992
 10
-53.9468824062
 20
3.9016350551
 10
-53.9392422917
 20
3.7800890643
 10
-53.9135774526
 20
3.6634860734
 10
-53.8708236207
 20
3.5504925358
 10
-53.8128076452
 20
3.4453975499
 10
-53.7401384758
 20
3.349630815
 10
-53.6522071628
 20
3.2617626317
 10
-53.5490137062
 20
3.181793
  0
LWPOLYLINE
  5
2E2
100
AcDbEntity
  8
0
100
AcDbPolyline
 62
7
  6
CONTINUOUS
 90
29
 70
0
 10
-54.266249
 20
4.748479
 10
-54.4000013546
 20
4.7200988817
 10
-54.5211768089
 20
4.6791317621
 10
-54.6297753627
 20
4.6255776411
 10
-54.7264598615
 20
4.5584754517
 10
-54.8105674599
 20
4.4787862609
 10
-54.8801096218
 20
4.3893932697
 10
-54.9342698152
 20
4.2904448335
 10
-54.9738645721
 20
4.1817925968
 10
-54.9993549521
 20
4.0658746944
 10
-55.0116731134
 20
3.9400615486
 10
-55.0098868978
 20
3.8069827371
 10
-54.9916608903
 20
3.6769651272
 10
-54.9562689607
 20
3.5511028473
 10
-54.904437239
 20
3.428301769
 10
-54.8360087003
 20
3.3156063751
 10
-54.7503587076
 20
3.2147317369
 10
-54.6481118977
 20
3.123962783
 10
-54.5309851558
 20
3.0451987822
 10
-54.3975936636
 20
2.9793736671
 10
-54.2493222394
 20
2.9255535052
 10
-54.0920422233
 20
2.882835768
 10
-53.9248630926
 20
2.8517671672
 10
-53.7486753701
 20
2.8318009911
 10
-53.5720219644
 20
2.8203945753
 10
-53.3952019596
 20
2.8162900068
 10
-53.2179162716
 20
2.8207451986
 10
-53.0478105569
 20
2.8349912257
 10
-52.8859325982
 20
2.8583959017
  0
LWPOLYLINE
  5
2E3
100
AcDbEntity
  8
RACCORDO
100
AcDbPolyline
 62
7
  6
CONTINUOUS
 90
5
 70
0
 10
-54.5629591772
 20
87.2490472714
 10
-54.5498575843
 20
87.2358139925
 10
-54.4894906384
 20
87.1641581612
 10
-54.4392379052
 20
87.0850811102
 10
-54.3999999816
 20
87.000000007
  0
LWPOLYLINE
  5
2E4
100
AcDbEntity
  8
RACCORDO
100
AcDbPolyline
 62
7
  6
CONTINUOUS
 90
13
 70
0
 10
-67.0
 20
-75.9
 10
-67.060878558
 20
-75.9384958459
 10
-67.1164709892
 20
-75.9803669944
 10
-67.166708168
 20
-76.0256134453
 10
-67.2115755688
 20
-76.074815268
 10
-67.2510321077
 20
-76.1273923932
 10
-67.2850377013
 20
-76.1816046131
 10
-67.313692122
 20
-76.2374334032
 10
-67.3370435872
 20
-76.2948972879
 10
-67.3551180021
 20
-76.3523116329
 10
-67.3681091467
 20
-76.4091148933
 10
-67.3762850174
 20
-76.4658686139
 10
-67.3798882487
 20
-76.5225727947
  0
LWPOLYLINE
  5
2E5
100
AcDbEntity
  8
0
100
AcDbPolyline
 62
7
  6
CONTINUOUS
 90
10
 70
0
 10
0.4324996927
 20
76.0843922442
 10
0.4630763982
 20
76.0005963497
 10
0.4768227723
 20
75.9587270413
 10
0.4894110577
 20
75.9159389949
 10
0.5008818434
 20
75.8721744567
 10
0.5111945405
 20
75.8274911804
 10
0.5202273829
 20
75.7820624276
 10
0.5279397818
 20
75.735945952
 10
0.5343723261
 20
75.6890839999
 10
0.5395250156
 20
75.6414765713
  0
LWPOLYLINE
  5
2E6
100
AcDbEntity
  8
ASSI
100
AcDbPolyline
 62
7
  6
CONTINUOUS
 90
22
 70
0
 10
-45.5
 20
-87.6159885716
 10
-45.4925408922
 20
-87.6089615654
 10
-45.4370017967
 20
-87.5950094295
 10
-45.3251144974
 20
-87.5811606544
 10
-45.1576881027
 20
-87.5674137558
 10
-44.9371499374
 20
-87.5539680345
 10
-44.6627262552
 20
-87.540827878
 10
-44.3351908025
 20
-87.5279888988
 10
-43.9592921435
 20
-87.5156372346
 10
-43.5343257102
 20
-87.5037799847
 10
-43.0609960705
 20
-87.4924100498
 10
-42.546165493
 20
-87.4816922696
 10
-41.9892293808
 20
-87.471636145
 10
-41.3907923308
 20
-87.4622321751
 10
-40.7595304014
 20
-87.4536166975
 10
-40.094965391
 20
-87.445801199
 10
-39.3975755012
 20
-87.4387741928
 10
-38.6774713954
 20
-87.4326375554
 10
-37.9343221667
 20
-87.4274042579
 10
-37.1684587218
 20
-87.4230613292
 10
-36.3909844444
 20
-87.4196717325
 10
-35.6056004622
 20
-87.4172564555
  0
LWPOLYLINE
  5
2E7
100
AcDbEntity
  8
RACCORDO
100
AcDbPolyline
 62
250
  6
CONTINUOUS
 90
10
 70
0
 10
-67.3798882457
 20
-76.522572675
 10
-67.3871006842
 20
-76.5262346455
 10
-67.3944546776
 20
-76.5298528082
 10
-67.4019502259
 20
-76.5334271632
 10
-67.4095852535
 20
-76.5369612661
 10
-67.417361836
 20
-76.5404515612
 10
-67.4252862003
 20
-76.543887382
 10
-67.4333604222
 20
-76.5472651727
 10
-67.441582426
 20
-76.550588489
 10
-67.4499522117
 20
-76.5538573308
  0
LWPOLYLINE
  5
2E8
100
AcDbEntity
  8
0
100
AcDbPolyline
 62
7
  6
CONTINUOUS
 90
23
 70
0
 10
-45.5
 20
87.6159885716
 10
-45.4925408922
 20
87.6089615654
 10
-45.4370017967
 20
87.5950094295
 10
-45.3251144974
 20
87.5811606544
 10
-45.1576881027
 20
87.5674137558
 10
-44.9371499374
 20
87.5539680345
 10
-44.6627262552
 20
87.540827878
 10
-44.3351908025
 20
87.5279888988
 10
-43.9592921435
 20
87.5156372346
 10
-43.5343257102
 20
87.5037799847
 10
-43.0609960705
 20
87.4924100498
 10
-42.546165493
 20
87.4816922696
 10
-41.9892293808
 20
87.471636145
 10
-41.3907923308
 20
87.4622321751
 10
-40.7595304014
 20
87.4536166975
 10
-40.094965391
 20
87.445801199
 10
-39.3975755012
 20
87.4387741928
 10
-38.6774713954
 20
87.4326375554
 10
-37.9343221667
 20
87.4274042579
 10
-37.1684587218
 20
87.4230613292
 10
-36.3909844444
 20
87.4196717325
 10
-35.6056004622
 20
87.4172564555
 10
-34.0
 20
87.4152858976
  0
LINE
  5
2E9
100
AcDbEntity
  8
RACCORDO
100
AcDbLine
 62
7
  6
CONTINUOUS
 10
66.5
 20
-12.7
 11
66.6361004336
 21
-12.8361004336
  0
LINE
  5
2EA
100
AcDbEntity
  8
0
100
AcDbLine
 62
7
  6
CONTINUOUS
 10
1.18655621
 20
74.3339610643
 11
1.2472183109
 21
74.2123147379
  0
LWPOLYLINE
  5
2EB
100
AcDbEntity
  8
RACCORDO
100
AcDbPolyline
 62
250
  6
CONTINUOUS
 90
13
 70
0
 10
55.0538573308
 20
-87.4499522117
 10
55.0539521123
 20
-87.4503314446
 10
55.0532590684
 20
-87.45073647
 10
55.051778199
 20
-87.4511672879
 10
55.0496226598
 20
-87.4516257186
 10
55.0466792952
 20
-87.4521099418
 10
55.0426086387
 20
-87.4526144971
 10
55.0373981913
 20
-87.4531396462
 10
55.0310604521
 20
-87.4536851274
 10
55.0232934514
 20
-87.4542446957
 10
55.0140725506
 20
-87.4548187336
 10
55.0034223882
 20
-87.4554068585
 10
54.9911149112
 20
-87.4560016781
  0
LINE
  5
2EC
100
AcDbEntity
  8
0
100
AcDbLine
 62
7
  6
CONTINUOUS
 10
41.5
 20
72.9
 11
41.5
 21
73.1
  0
LINE
  5
2ED
100
AcDbEntity
  8
0
100
AcDbLine
 62
7
  6
CONTINUOUS
 10
-3.084683
 20
76.096
 11
-2.905948
 21
75.873703
  0
LWPOLYLINE
  5
2EE
100
AcDbEntity
  8
0
100
AcDbPolyline
 62
7
  6
CONTINUOUS
 90
25
 70
0
 10
1.2472183109
 20
74.2123147379
 10
1.316546404
 20
74.1050700367
 10
1.3945404893
 20
74.0122269607
 10
1.4808381838
 20
73.9340339199
 10
1.5758018704
 20
73.8702425042
 10
1.6805186984
 20
73.8201074843
 10
1.7985020038
 20
73.7833015255
 10
1.9262384505
 20
73.7601519624
 10
2.0542751792
 20
73.7508955687
 10
2.1828081971
 20
73.7563215219
 10
2.3116414971
 20
73.7756406445
 10
2.4307341988
 20
73.8067221786
 10
2.5372576708
 20
73.8501825444
 10
2.6340405446
 20
73.9054053217
 10
2.7195278335
 20
73.9684104912
 10
2.7933873615
 20
74.0373308868
 10
2.8559513046
 20
74.1140336745
 10
2.9066612048
 20
74.2001403337
 10
2.9457717948
 20
74.2983055197
 10
2.9730283419
 20
74.4058745771
 10
2.9871081895
 20
74.5165050184
 10
2.9876209642
 20
74.6319119549
 10
2.9749570393
 20
74.7503802752
 10
2.948964879
 20
74.8604221576
 10
2.9085502768
 20
74.9592147396
  0
LWPOLYLINE
  5
2EF
100
AcDbEntity
  8
0
100
AcDbPolyline
 62
7
  6
CONTINUOUS
 90
6
 70
0
 10
2.9085502768
 20
74.9592147396
 10
2.8548074391
 20
75.0495808836
 10
2.7908674486
 20
75.1285013547
 10
2.7177739997
 20
75.1949697413
 10
2.6344833979
 20
75.2499924549
 10
2.5409956434
 20
75.2935694957
  0
LINE
  5
2F0
100
AcDbEntity
  8
RACCORDO
100
AcDbLine
 62
250
  6
CONTINUOUS
 10
48.9
 20
-87.4667094077
 11
48.9
 21
-87.0
  0
LWPOLYLINE
  5
2F1
100
AcDbEntity
  8
ASSI
100
AcDbPolyline
 62
7
  6
CONTINUOUS
 90
22
 70
0
 10
-22.5
 20
-87.6159885716
 10
-22.5074591078
 20
-87.6230155778
 10
-22.5629982033
 20
-87.6369677137
 10
-22.6748855026
 20
-87.6508164888
 10
-22.8423118973
 20
-87.6645633873
 10
-23.0628500626
 20
-87.6780091087
 10
-23.3372737448
 20
-87.6911492651
 10
-23.6648091975
 20
-87.7039882444
 10
-24.0407078565
 20
-87.7163399086
 10
-24.4656742898
 20
-87.7281971585
 10
-24.9390039295
 20
-87.7395670934
 10
-25.453834507
 20
-87.7502848735
 10
-26.0107706192
 20
-87.7603409982
 10
-26.6092076692
 20
-87.769744968
 10
-27.2404695986
 20
-87.7783604457
 10
-27.905034609
 20
-87.7861759441
 10
-28.6024244988
 20
-87.7932029504
 10
-29.3225286046
 20
-87.7993395878
 10
-30.0656778333
 20
-87.8045728853
 10
-30.8315412782
 20
-87.8089158139
 10
-31.6090155556
 20
-87.8123054106
 10
-32.3943995378
 20
-87.8147206876
  0
LINE
  5
2F2
100
AcDbEntity
  8
0
100
AcDbLine
 62
7
  6
CONTINUOUS
 10
-11.2249721603
 20
45.75
 11
-10.1021666421
 21
45.75
  0
LINE
  5
2F3
100
AcDbEntity
  8
0
100
AcDbLine
 62
7
  6
CONTINUOUS
 10
10.1021666421
 20
45.75
 11
11.2249721603
 21
45.75
  0
LINE
  5
2F4
100
AcDbEntity
  8
0
100
AcDbLine
 62
7
  6
CONTINUOUS
 10
11.2249721603
 20
47.25
 11
10.1021666421
 21
47.25
  0
LINE
  5
2F5
100
AcDbEntity
  8
0
100
AcDbLine
 62
7
  6
CONTINUOUS
 10
-10.1021666421
 20
47.25
 11
-11.2249721603
 21
47.25
  0
LWPOLYLINE
  5
2F6
100
AcDbEntity
  8
0
100
AcDbPolyline
 62
7
  6
CONTINUOUS
 90
23
 70
0
 10
-22.5
 20
87.6159885716
 10
-22.5074591078
 20
87.6230155778
 10
-22.5629982033
 20
87.6369677137
 10
-22.6748855026
 20
87.6508164888
 10
-22.8423118973
 20
87.6645633873
 10
-23.0628500626
 20
87.6780091087
 10
-23.3372737448
 20
87.6911492651
 10
-23.6648091975
 20
87.7039882444
 10
-24.0407078565
 20
87.7163399086
 10
-24.4656742898
 20
87.7281971585
 10
-24.9390039295
 20
87.7395670934
 10
-25.453834507
 20
87.7502848735
 10
-26.0107706192
 20
87.7603409982
 10
-26.6092076692
 20
87.769744968
 10
-27.2404695986
 20
87.7783604457
 10
-27.905034609
 20
87.7861759441
 10
-28.6024244988
 20
87.7932029504
 10
-29.3225286046
 20
87.7993395878
 10
-30.0656778333
 20
87.8045728853
 10
-30.8315412782
 20
87.8089158139
 10
-31.6090155556
 20
87.8123054106
 10
-32.3943995378
 20
87.8147206876
 10
-34.0
 20
87.8166912456
  0
LINE
  5
2F7
100
AcDbEntity
  8
RACCORDO
100
AcDbLine
 62
250
  6
CONTINUOUS
 10
54.1
 20
-87.4667094077
 11
54.1
 21
-87.0
  0
LINE
  5
2F8
100
AcDbEntity
  8
RACCORDO
100
AcDbLine
 62
7
  6
CONTINUOUS
 10
66.5
 20
-9.3
 11
66.6361004336
 21
-9.1638995664
  0
LWPOLYLINE
  5
2F9
100
AcDbEntity
  8
ASSI
100
AcDbPolyline
 62
7
  6
CONTINUOUS
 90
22
 70
0
 10
-11.5
 20
-87.6159885716
 10
-11.4925408922
 20
-87.6089615654
 10
-11.4370017967
 20
-87.5950094295
 10
-11.3251144974
 20
-87.5811606544
 10
-11.1576881027
 20
-87.5674137558
 10
-10.9371499374
 20
-87.5539680345
 10
-10.6627262552
 20
-87.540827878
 10
-10.3351908025
 20
-87.5279888988
 10
-9.9592921435
 20
-87.5156372346
 10
-9.5343257102
 20
-87.5037799847
 10
-9.0609960705
 20
-87.4924100498
 10
-8.546165493
 20
-87.4816922696
 10
-7.9892293808
 20
-87.471636145
 10
-7.3907923308
 20
-87.4622321751
 10
-6.7595304014
 20
-87.4536166975
 10
-6.094965391
 20
-87.445801199
 10
-5.3975755012
 20
-87.4387741928
 10
-4.6774713954
 20
-87.4326375554
 10
-3.9343221667
 20
-87.4274042579
 10
-3.1684587218
 20
-87.4230613292
 10
-2.3909844444
 20
-87.4196717325
 10
-1.6056004622
 20
-87.4172564555
  0
LWPOLYLINE
  5
2FA
100
AcDbEntity
  8
RACCORDO
100
AcDbPolyline
 62
250
  6
CONTINUOUS
 90
13
 70
0
 10
67.4499522117
 20
76.5538573308
 10
67.4503314446
 20
76.5539521123
 10
67.45073647
 20
76.5532590684
 10
67.4511672879
 20
76.551778199
 10
67.4516257186
 20
76.5496226598
 10
67.4521099418
 20
76.5466792952
 10
67.4526144971
 20
76.5426086387
 10
67.4531396462
 20
76.5373981913
 10
67.4536851274
 20
76.5310604521
 10
67.4542446957
 20
76.5232934514
 10
67.4548187336
 20
76.5140725506
 10
67.4554068585
 20
76.5034223882
 10
67.4560016781
 20
76.4911149112
  0
LWPOLYLINE
  5
2FB
100
AcDbEntity
  8
0
100
AcDbPolyline
 62
7
  6
CONTINUOUS
 90
23
 70
0
 10
-11.5
 20
87.6159885716
 10
-11.4925408922
 20
87.6089615654
 10
-11.4370017967
 20
87.5950094295
 10
-11.3251144974
 20
87.5811606544
 10
-11.1576881027
 20
87.5674137558
 10
-10.9371499374
 20
87.5539680345
 10
-10.6627262552
 20
87.540827878
 10
-10.3351908025
 20
87.5279888988
 10
-9.9592921435
 20
87.5156372346
 10
-9.5343257102
 20
87.5037799847
 10
-9.0609960705
 20
87.4924100498
 10
-8.546165493
 20
87.4816922696
 10
-7.9892293808
 20
87.471636145
 10
-7.3907923308
 20
87.4622321751
 10
-6.7595304014
 20
87.4536166975
 10
-6.094965391
 20
87.445801199
 10
-5.3975755012
 20
87.4387741928
 10
-4.6774713954
 20
87.4326375554
 10
-3.9343221667
 20
87.4274042579
 10
-3.1684587218
 20
87.4230613292
 10
-2.3909844444
 20
87.4196717325
 10
-1.6056004622
 20
87.4172564555
 10
-0.0
 20
87.4152858976
  0
LWPOLYLINE
  5
2FC
100
AcDbEntity
  8
0
100
AcDbPolyline
 62
7
  6
CONTINUOUS
 90
9
 70
0
 10
0.2498984756
 20
76.3632687617
 10
0.2774805789
 20
76.3352870552
 10
0.3037755553
 20
76.3052807185
 10
0.3287834048
 20
76.2732497516
 10
0.3526385312
 20
76.2390830359
 10
0.3752065308
 20
76.2028916901
 10
0.3960841922
 20
76.1650090699
 10
0.4151371115
 20
76.1255462942
 10
0.4324996927
 20
76.0843922442
  0
LWPOLYLINE
  5
2FD
100
AcDbEntity
  8
ASSI
100
AcDbPolyline
 62
7
  6
CONTINUOUS
 90
22
 70
0
 10
67.4172564555
 20
-48.1056004622
 10
67.4196717325
 20
-48.8909844444
 10
67.4230613292
 20
-49.6684587218
 10
67.4274042579
 20
-50.4343221667
 10
67.4326375554
 20
-51.1774713954
 10
67.4387741928
 20
-51.8975755012
 10
67.445801199
 20
-52.594965391
 10
67.4536166975
 20
-53.2595304014
 10
67.4622321751
 20
-53.8907923308
 10
67.471636145
 20
-54.4892293808
 10
67.4816922696
 20
-55.046165493
 10
67.4924100498
 20
-55.5609960705
 10
67.5037799847
 20
-56.0343257102
 10
67.5156372346
 20
-56.4592921435
 10
67.5279888988
 20
-56.8351908025
 10
67.540827878
 20
-57.1627262552
 10
67.5539680345
 20
-57.4371499374
 10
67.5674137558
 20
-57.6576881027
 10
67.5811606544
 20
-57.8251144974
 10
67.5950094295
 20
-57.9370017967
 10
67.6089615654
 20
-57.9925408922
 10
67.6159885716
 20
-58.0
  0
LWPOLYLINE
  5
2FE
100
AcDbEntity
  8
ASSI
100
AcDbPolyline
 62
7
  6
CONTINUOUS
 90
22
 70
0
 10
67.8147206876
 20
-44.8943995378
 10
67.8123054106
 20
-44.1090155556
 10
67.8089158139
 20
-43.3315412782
 10
67.8045728853
 20
-42.5656778333
 10
67.7993395878
 20
-41.8225286046
 10
67.7932029504
 20
-41.1024244988
 10
67.7861759441
 20
-40.405034609
 10
67.7783604457
 20
-39.7404695986
 10
67.769744968
 20
-39.1092076692
 10
67.7603409982
 20
-38.5107706192
 10
67.7502848735
 20
-37.953834507
 10
67.7395670934
 20
-37.4390039295
 10
67.7281971585
 20
-36.9656742898
 10
67.7163399086
 20
-36.5407078565
 10
67.7039882444
 20
-36.1648091975
 10
67.6911492651
 20
-35.8372737448
 10
67.6780091087
 20
-35.5628500626
 10
67.6645633873
 20
-35.3423118973
 10
67.6508164888
 20
-35.1748855026
 10
67.6369677137
 20
-35.0629982033
 10
67.6230155778
 20
-35.0074591078
 10
67.6159885716
 20
-35.0
  0
LINE
  5
2FF
100
AcDbEntity
  8
ASSI
100
AcDbLine
 62
7
  6
CONTINUOUS
 10
67.4152858976
 20
-46.5
 11
67.4172564555
 21
-48.1056004622
  0
LINE
  5
300
100
AcDbEntity
  8
ASSI
100
AcDbLine
 62
7
  6
CONTINUOUS
 10
67.4172564555
 20
44.8943995378
 11
67.4152858976
 21
46.5
  0
LINE
  5
301
100
AcDbEntity
  8
RACCORDO
100
AcDbLine
 62
7
  6
CONTINUOUS
 10
60.4421154889
 20
85.8801167031
 11
60.4421154889
 21
82.0
  0
LINE
  5
302
100
AcDbEntity
  8
RACCORDO
100
AcDbLine
 62
7
  6
CONTINUOUS
 10
60.4421154889
 20
-85.8801167051
 11
60.4421154889
 21
-82.0
  0
LINE
  5
303
100
AcDbEntity
  8
DRAFT
100
AcDbLine
 62
7
  6
CONTINUOUS
 10
60.58
 20
86.2
 11
60.58
 21
82.0
  0
LINE
  5
304
100
AcDbEntity
  8
DRAFT
100
AcDbLine
 62
7
  6
CONTINUOUS
 10
60.58
 20
-86.2
 11
60.58
 21
-82.0
  0
LINE
  5
305
100
AcDbEntity
  8
DRAFT
100
AcDbLine
 62
250
  6
CONTINUOUS
 10
62.0
 20
80.58
 11
62.0
 21
80.4421154889
  0
LINE
  5
306
100
AcDbEntity
  8
DRAFT
100
AcDbLine
 62
250
  6
CONTINUOUS
 10
62.0
 20
-80.58
 11
62.0
 21
-80.4421154889
  0
LINE
  5
307
100
AcDbEntity
  8
DRAFT
100
AcDbLine
 62
250
  6
CONTINUOUS
 10
62.0
 20
-12.7
 11
62.0
 21
-12.8378845111
  0
LINE
  5
308
100
AcDbEntity
  8
DRAFT
100
AcDbLine
 62
250
  6
CONTINUOUS
 10
62.0
 20
-9.3
 11
62.0
 21
-9.1621154889
  0
LINE
  5
309
100
AcDbEntity
  8
RACCORDO
100
AcDbLine
 62
250
  6
CONTINUOUS
 10
62.0
 20
-86.2
 11
62.0
 21
-88.0
  0
LINE
  5
30A
100
AcDbEntity
  8
RACCORDO
100
AcDbLine
 62
250
  6
CONTINUOUS
 10
62.0
 20
86.2
 11
62.0
 21
88.0
  0
LINE
  5
30B
100
AcDbEntity
  8
RACCORDO
100
AcDbLine
 62
250
  6
CONTINUOUS
 10
65.880116703
 20
-80.4421154889
 11
65.880116703
 21
-12.8378845111
  0
LINE
  5
30C
100
AcDbEntity
  8
RACCORDO
100
AcDbLine
 62
250
  6
CONTINUOUS
 10
65.8801167032
 20
-9.1621154889
 11
65.8801167057
 21
80.4421154889
  0
LINE
  5
30D
100
AcDbEntity
  8
DRAFT
100
AcDbLine
 62
7
  6
CONTINUOUS
 10
66.2
 20
-80.58
 11
66.2
 21
-82.0
  0
LINE
  5
30E
100
AcDbEntity
  8
DRAFT
100
AcDbLine
 62
7
  6
CONTINUOUS
 10
66.2
 20
80.58
 11
66.2
 21
82.0
  0
LINE
  5
30F
100
AcDbEntity
  8
RACCORDO
100
AcDbLine
 62
7
  6
CONTINUOUS
 10
66.3372617805
 20
82.0
 11
66.3372617805
 21
80.4427382195
  0
LINE
  5
310
100
AcDbEntity
  8
RACCORDO
100
AcDbLine
 62
7
  6
CONTINUOUS
 10
66.3372617805
 20
-80.4427382195
 11
66.3372617805
 21
-82.0
  0
LINE
  5
311
100
AcDbEntity
  8
DRAFT
100
AcDbLine
 62
7
  6
CONTINUOUS
 10
66.5
 20
-9.3
 11
66.5
 21
-12.7
  0
LINE
  5
312
100
AcDbEntity
  8
RACCORDO
100
AcDbLine
 62
7
  6
CONTINUOUS
 10
66.6361004336
 20
-12.8361004336
 11
66.6361004336
 21
-9.1638995664
  0
LINE
  5
313
100
AcDbEntity
  8
RACCORDO
100
AcDbLine
 62
7
  6
CONTINUOUS
 10
67.0
 20
75.9
 11
67.0
 21
70.1
  0
LINE
  5
314
100
AcDbEntity
  8
RACCORDO
100
AcDbLine
 62
250
  6
CONTINUOUS
 10
67.3798882457
 20
69.477427321
 11
67.3798882457
 21
-82.0
  0
LINE
  5
315
100
AcDbEntity
  8
RACCORDO
100
AcDbLine
 62
250
  6
CONTINUOUS
 10
67.3798882457
 20
76.5225726752
 11
67.3798882457
 21
82.0
  0
LWPOLYLINE
  5
316
100
AcDbEntity
  8
ASSI
100
AcDbPolyline
 62
7
  6
CONTINUOUS
 90
23
 70
0
 10
67.4152858976
 20
46.5
 10
67.4172564555
 20
48.1056004622
 10
67.4196717325
 20
48.8909844444
 10
67.4230613292
 20
49.6684587218
 10
67.4274042579
 20
50.4343221667
 10
67.4326375554
 20
51.1774713954
 10
67.4387741928
 20
51.8975755012
 10
67.445801199
 20
52.594965391
 10
67.4536166975
 20
53.2595304014
 10
67.4622321751
 20
53.8907923308
 10
67.471636145
 20
54.4892293808
 10
67.4816922696
 20
55.046165493
 10
67.4924100498
 20
55.5609960705
 10
67.5037799847
 20
56.0343257102
 10
67.5156372346
 20
56.4592921435
 10
67.5279888988
 20
56.8351908025
 10
67.540827878
 20
57.1627262552
 10
67.5539680345
 20
57.4371499374
 10
67.5674137558
 20
57.6576881027
 10
67.5811606544
 20
57.8251144974
 10
67.5950094295
 20
57.9370017967
 10
67.6089615654
 20
57.9925408922
 10
67.6159885716
 20
58.0
  0
LINE
  5
317
100
AcDbEntity
  8
RACCORDO
100
AcDbLine
 62
250
  6
CONTINUOUS
 10
67.466433375
 20
75.7728650638
 11
67.4661479354
 21
70.1543479184
  0
LINE
  5
318
100
AcDbEntity
  8
RACCORDO
100
AcDbLine
 62
250
  6
CONTINUOUS
 10
67.4661479354
 20
70.1543479184
 11
67.4647413566
 21
69.9500780249
  0
LINE
  5
319
100
AcDbEntity
  8
RACCORDO
100
AcDbLine
 62
250
  6
CONTINUOUS
 10
67.4647413566
 20
69.9500780249
 11
67.4627309026
 21
69.7811673401
  0
LINE
  5
31A
100
AcDbEntity
  8
RACCORDO
100
AcDbLine
 62
250
  6
CONTINUOUS
 10
67.4627309026
 20
69.7811673401
 11
67.4611658322
 21
69.6892898844
  0
LINE
  5
31B
100
AcDbEntity
  8
RACCORDO
100
AcDbLine
 62
250
  6
CONTINUOUS
 10
67.4611658322
 20
69.6892898844
 11
67.4593627942
 21
69.6088670441
  0
LINE
  5
31C
100
AcDbEntity
  8
RACCORDO
100
AcDbLine
 62
250
  6
CONTINUOUS
 10
67.4593627942
 20
69.6088670441
 11
67.4580485882
 21
69.5630667569
  0
LWPOLYLINE
  5
31D
100
AcDbEntity
  8
RACCORDO
100
AcDbPolyline
 62
250
  6
CONTINUOUS
 90
11
 70
0
 10
67.4580485882
 20
69.5630667569
 10
67.4566585011
 20
69.5241839434
 10
67.4559418307
 20
69.5075994817
 10
67.4552108641
 20
69.4928972909
 10
67.4544722353
 20
69.4801889926
 10
67.4537259561
 20
69.4695077762
 10
67.4529720146
 20
69.4608204523
 10
67.4522170096
 20
69.4541390742
 10
67.4514631406
 20
69.44946766
 10
67.4507082079
 20
69.4468021916
 10
67.4499522117
 20
69.4461426692
  0
LWPOLYLINE
  5
31E
100
AcDbEntity
  8
RACCORDO
100
AcDbPolyline
 62
250
  6
CONTINUOUS
 90
7
 70
0
 10
67.4499521428
 20
76.5538573308
 10
67.4436915232
 20
76.4603601212
 10
67.4250000682
 20
76.3685385066
 10
67.3942127539
 20
76.2800380547
 10
67.3518813306
 20
76.196444813
 10
67.2987644346
 20
76.1192568856
 10
67.2490472714
 20
76.0629591772
  0
LINE
  5
31F
100
AcDbEntity
  8
0
100
AcDbLine
 62
7
  6
CONTINUOUS
 10
-51.4
 20
63.0
 11
-51.6
 21
63.0
  0
LWPOLYLINE
  5
320
100
AcDbEntity
  8
0
100
AcDbPolyline
 62
7
  6
CONTINUOUS
 90
10
 70
0
 10
2.4863843809
 20
75.0594046983
 10
2.5287686467
 20
75.0285229487
 10
2.5672356212
 20
74.9917614293
 10
2.6017853044
 20
74.9491201403
 10
2.63312273
 20
74.8997576013
 10
2.6605428642
 20
74.8445152925
 10
2.6819306065
 20
74.7859176546
 10
2.6965809233
 20
74.7248061676
 10
2.705198848
 20
74.6603393514
 10
2.7077843809
 20
74.5925172061
  0
LWPOLYLINE
  5
321
100
AcDbEntity
  8
RACCORDO
100
AcDbPolyline
 62
7
  6
CONTINUOUS
 90
10
 70
0
 10
67.3798882488
 20
69.4774272017
 10
67.3726906928
 20
69.5640733667
 10
67.3556175079
 20
69.6470807909
 10
67.3290196396
 20
69.7264494741
 10
67.2932140962
 20
69.8031515651
 10
67.2487054049
 20
69.8762149152
 10
67.1963751237
 20
69.9427230784
 10
67.137064359
 20
70.0017039059
 10
67.0713697109
 20
70.0541295464
 10
67.0
 20
70.1
  0
LWPOLYLINE
  5
322
100
AcDbEntity
  8
RACCORDO
100
AcDbPolyline
 62
250
  6
CONTINUOUS
 90
7
 70
0
 10
67.4499522118
 20
69.4461426692
 10
67.4436915807
 20
69.5396398787
 10
67.4250001148
 20
69.631461492
 10
67.3942127903
 20
69.719961942
 10
67.3518813575
 20
69.8035551812
 10
67.298764453
 20
69.8807431059
 10
67.2358531346
 20
69.950104677
  0
LINE
  5
323
100
AcDbEntity
  8
RACCORDO
100
AcDbLine
 62
250
  6
CONTINUOUS
 10
67.4560016781
 20
76.4911149112
 11
67.4572119715
 21
76.4614562807
  0
LINE
  5
324
100
AcDbEntity
  8
RACCORDO
100
AcDbLine
 62
250
  6
CONTINUOUS
 10
67.4572119715
 20
76.4614562807
 11
67.458424369
 21
76.4247646045
  0
LINE
  5
325
100
AcDbEntity
  8
RACCORDO
100
AcDbLine
 62
250
  6
CONTINUOUS
 10
67.458424369
 20
76.4247646045
 11
67.4596221766
 21
76.3809262377
  0
LINE
  5
326
100
AcDbEntity
  8
RACCORDO
100
AcDbLine
 62
250
  6
CONTINUOUS
 10
67.4596221766
 20
76.3809262377
 11
67.4613354473
 21
76.3018933012
  0
LINE
  5
327
100
AcDbEntity
  8
RACCORDO
100
AcDbLine
 62
250
  6
CONTINUOUS
 10
67.4613354473
 20
76.3018933012
 11
67.4633605638
 21
76.1737788718
  0
LINE
  5
328
100
AcDbEntity
  8
RACCORDO
100
AcDbLine
 62
250
  6
CONTINUOUS
 10
67.4633605638
 20
76.1737788718
 11
67.4649762513
 21
76.0237636404
  0
LWPOLYLINE
  5
329
100
AcDbEntity
  8
RACCORDO
100
AcDbPolyline
 62
250
  6
CONTINUOUS
 90
3
 70
0
 10
67.4649762513
 20
76.0237636404
 10
67.4662768656
 20
75.8159971265
 10
67.466433375
 20
75.7728650638
  0
LINE
  5
32A
100
AcDbEntity
  8
ASSI
100
AcDbLine
 62
7
  6
CONTINUOUS
 10
67.8166912456
 20
-46.5
 11
67.8147206876
 21
-44.8943995378
  0
LINE
  5
32B
100
AcDbEntity
  8
ASSI
100
AcDbLine
 62
7
  6
CONTINUOUS
 10
67.8147206876
 20
48.1056004622
 11
67.8166912456
 21
46.5
  0
LINE
  5
32C
100
AcDbEntity
  8
ASSI
100
AcDbLine
 62
7
  6
CONTINUOUS
 10
68.0
 20
82.0
 11
68.0
 21
-82.0
  0
LINE
  5
32D
100
AcDbEntity
  8
DRAFT
100
AcDbLine
 62
7
  6
CONTINUOUS
 10
68.0
 20
-82.0
 11
68.0
 21
82.0
  0
LWPOLYLINE
  5
32E
100
AcDbEntity
  8
ASSI
100
AcDbPolyline
 62
7
  6
CONTINUOUS
 90
23
 70
0
 10
67.8166912456
 20
46.5
 10
67.8147206876
 20
44.8943995378
 10
67.8123054106
 20
44.1090155556
 10
67.8089158139
 20
43.3315412782
 10
67.8045728853
 20
42.5656778333
 10
67.7993395878
 20
41.8225286046
 10
67.7932029504
 20
41.1024244988
 10
67.7861759441
 20
40.405034609
 10
67.7783604457
 20
39.7404695986
 10
67.769744968
 20
39.1092076692
 10
67.7603409982
 20
38.5107706192
 10
67.7502848735
 20
37.953834507
 10
67.7395670934
 20
37.4390039295
 10
67.7281971585
 20
36.9656742898
 10
67.7163399086
 20
36.5407078565
 10
67.7039882444
 20
36.1648091975
 10
67.6911492651
 20
35.8372737448
 10
67.6780091087
 20
35.5628500626
 10
67.6645633873
 20
35.3423118973
 10
67.6508164888
 20
35.1748855026
 10
67.6369677137
 20
35.0629982033
 10
67.6230155778
 20
35.0074591078
 10
67.6159885716
 20
35.0
  0
LWPOLYLINE
  5
32F
100
AcDbEntity
  8
ASSI
100
AcDbPolyline
 62
7
  6
CONTINUOUS
 90
23
 70
0
 10
67.6159885716
 20
-35.0
 10
67.6089615654
 20
-35.0074591078
 10
67.5950094295
 20
-35.0629982033
 10
67.5811606544
 20
-35.1748855026
 10
67.5674137558
 20
-35.3423118973
 10
67.5539680345
 20
-35.5628500626
 10
67.540827878
 20
-35.8372737448
 10
67.5279888988
 20
-36.1648091975
 10
67.5156372346
 20
-36.5407078565
 10
67.5037799847
 20
-36.9656742898
 10
67.4924100498
 20
-37.4390039295
 10
67.4816922696
 20
-37.953834507
 10
67.471636145
 20
-38.5107706192
 10
67.4622321751
 20
-39.1092076692
 10
67.4536166975
 20
-39.7404695986
 10
67.445801199
 20
-40.405034609
 10
67.4387741928
 20
-41.1024244988
 10
67.4326375554
 20
-41.8225286046
 10
67.4274042579
 20
-42.5656778333
 10
67.4230613292
 20
-43.3315412782
 10
67.4196717325
 20
-44.1090155556
 10
67.4172564555
 20
-44.8943995378
 10
67.4152858976
 20
-46.5
  0
LWPOLYLINE
  5
330
100
AcDbEntity
  8
ASSI
100
AcDbPolyline
 62
7
  6
CONTINUOUS
 90
22
 70
0
 10
11.5
 20
-87.6159885716
 10
11.4925408922
 20
-87.6230155778
 10
11.4370017967
 20
-87.6369677137
 10
11.3251144974
 20
-87.6508164888
 10
11.1576881027
 20
-87.6645633873
 10
10.9371499374
 20
-87.6780091087
 10
10.6627262552
 20
-87.6911492651
 10
10.3351908025
 20
-87.7039882444
 10
9.9592921435
 20
-87.7163399086
 10
9.5343257102
 20
-87.7281971585
 10
9.0609960705
 20
-87.7395670934
 10
8.546165493
 20
-87.7502848735
 10
7.9892293808
 20
-87.7603409982
 10
7.3907923308
 20
-87.769744968
 10
6.7595304014
 20
-87.7783604457
 10
6.094965391
 20
-87.7861759441
 10
5.3975755012
 20
-87.7932029504
 10
4.6774713954
 20
-87.7993395878
 10
3.9343221667
 20
-87.8045728853
 10
3.1684587218
 20
-87.8089158139
 10
2.3909844444
 20
-87.8123054106
 10
1.6056004622
 20
-87.8147206876
  0
LWPOLYLINE
  5
331
100
AcDbEntity
  8
0
100
AcDbPolyline
 62
7
  6
CONTINUOUS
 90
46
 70
0
 10
-0.1184608896
 20
73.7508
 10
-0.0027349425
 20
73.7581985319
 10
0.1044574681
 20
73.7766035031
 10
0.2031163422
 20
73.8060149135
 10
0.2931236042
 20
73.8478452195
 10
0.3745973296
 20
73.9006819648
 10
0.4478917453
 20
73.9602877804
 10
0.5131725499
 20
74.0272464052
 10
0.5702740448
 20
74.1009741004
 10
0.6190533601
 20
74.1754822807
 10
0.6581006682
 20
74.2495887585
 10
0.6888257967
 20
74.3244757214
 10
0.7153153595
 20
74.3977011471
 10
0.7384745971
 20
74.468506789
 10
0.7573982689
 20
74.5376508938
 10
0.7734572667
 20
74.6049661792
 10
0.7866689329
 20
74.6695228911
 10
0.7970159251
 20
74.7322507837
 10
0.8058171084
 20
74.7957718378
 10
0.8133540641
 20
74.8605394406
 10
0.8193452109
 20
74.9261002049
 10
0.8242646693
 20
74.9937159495
 10
0.828409863
 20
75.0637529911
 10
0.8314833682
 20
75.135845013
 10
0.8330670341
 20
75.210154884
 10
0.833124394
 20
75.286698962
 10
0.8316919146
 20
75.3654608891
 10
0.8284608445
 20
75.4465544607
 10
0.8238821367
 20
75.5300031701
 10
0.8175048381
 20
75.6157835241
 10
0.8076673389
 20
75.7039388382
 10
0.7946724649
 20
75.7946128023
 10
0.7782173902
 20
75.8876617266
 10
0.7557320276
 20
75.9826978572
 10
0.7275018645
 20
76.0814643449
 10
0.6932414135
 20
76.1822180389
 10
0.6495241244
 20
76.2793417332
 10
0.5942716059
 20
76.3737551039
 10
0.5295622493
 20
76.464538475
 10
0.4582046788
 20
76.543315612
 10
0.3816374734
 20
76.6071127724
 10
0.298422054
 20
76.6589036987
 10
0.2070513082
 20
76.6992333852
 10
0.1070228652
 20
76.7282834967
 10
-0.0011609042
 20
76.7458723682
 10
-0.1175
 20
76.752
  0
LWPOLYLINE
  5
332
100
AcDbEntity
  8
0
100
AcDbPolyline
 62
7
  6
CONTINUOUS
 90
10
 70
0
 10
1.846016
 20
75.1861843746
 10
1.9273915023
 20
75.1886470961
 10
2.0064766771
 20
75.187096453
 10
2.0832715244
 20
75.1815324452
 10
2.1581300941
 20
75.1721203705
 10
2.2306983364
 20
75.1586949312
 10
2.2999141012
 20
75.1407602336
 10
2.3654233385
 20
75.11815098
 10
2.4275800984
 20
75.0910324683
 10
2.4863843809
 20
75.0594046983
  0
LINE
  5
333
100
AcDbEntity
  8
RACCORDO
100
AcDbLine
 62
250
  6
CONTINUOUS
 10
67.4667094077
 20
70.4
 11
67.0
 21
70.4
  0
LINE
  5
334
100
AcDbEntity
  8
0
100
AcDbLine
 62
7
  6
CONTINUOUS
 10
-41.5
 20
72.9
 11
41.5
 21
72.9
  0
LINE
  5
335
100
AcDbEntity
  8
0
100
AcDbLine
 62
7
  6
CONTINUOUS
 10
41.5
 20
73.1
 11
-41.5
 21
73.1
  0
LINE
  5
336
100
AcDbEntity
  8
0
100
AcDbLine
 62
7
  6
CONTINUOUS
 10
-2.400816
 20
73.8
 11
-2.118684
 21
73.8
  0
LINE
  5
337
100
AcDbEntity
  8
0
100
AcDbLine
 62
7
  6
CONTINUOUS
 10
1.3009720842
 20
76.294593957
 11
1.5551718517
 21
76.1648030757
  0
LWPOLYLINE
  5
338
100
AcDbEntity
  8
0
100
AcDbPolyline
 62
7
  6
CONTINUOUS
 90
23
 70
0
 10
11.5
 20
87.6159885716
 10
11.4925408922
 20
87.6230155778
 10
11.4370017967
 20
87.6369677137
 10
11.3251144974
 20
87.6508164888
 10
11.1576881027
 20
87.6645633873
 10
10.9371499374
 20
87.6780091087
 10
10.6627262552
 20
87.6911492651
 10
10.3351908025
 20
87.7039882444
 10
9.9592921435
 20
87.7163399086
 10
9.5343257102
 20
87.7281971585
 10
9.0609960705
 20
87.7395670934
 10
8.546165493
 20
87.7502848735
 10
7.9892293808
 20
87.7603409982
 10
7.3907923308
 20
87.769744968
 10
6.7595304014
 20
87.7783604457
 10
6.094965391
 20
87.7861759441
 10
5.3975755012
 20
87.7932029504
 10
4.6774713954
 20
87.7993395878
 10
3.9343221667
 20
87.8045728853
 10
3.1684587218
 20
87.8089158139
 10
2.3909844444
 20
87.8123054106
 10
1.6056004622
 20
87.8147206876
 10
-0.0
 20
87.8166912456
  0
LWPOLYLINE
  5
339
100
AcDbEntity
  8
ASSI
100
AcDbPolyline
 62
7
  6
CONTINUOUS
 90
22
 70
0
 10
67.6159885716
 20
35.0
 10
67.6089615654
 20
35.0074591078
 10
67.5950094295
 20
35.0629982033
 10
67.5811606544
 20
35.1748855026
 10
67.5674137558
 20
35.3423118973
 10
67.5539680345
 20
35.5628500626
 10
67.540827878
 20
35.8372737448
 10
67.5279888988
 20
36.1648091975
 10
67.5156372346
 20
36.5407078565
 10
67.5037799847
 20
36.9656742898
 10
67.4924100498
 20
37.4390039295
 10
67.4816922696
 20
37.953834507
 10
67.471636145
 20
38.5107706192
 10
67.4622321751
 20
39.1092076692
 10
67.4536166975
 20
39.7404695986
 10
67.445801199
 20
40.405034609
 10
67.4387741928
 20
41.1024244988
 10
67.4326375554
 20
41.8225286046
 10
67.4274042579
 20
42.5656778333
 10
67.4230613292
 20
43.3315412782
 10
67.4196717325
 20
44.1090155556
 10
67.4172564555
 20
44.8943995378
  0
LWPOLYLINE
  5
33A
100
AcDbEntity
  8
RACCORDO
100
AcDbPolyline
 62
250
  6
CONTINUOUS
 90
10
 70
0
 10
47.9461426692
 20
-87.4499522117
 10
47.9494110455
 20
-87.4415835569
 10
47.9527339866
 20
-87.4333624355
 10
47.9561114927
 20
-87.4252888475
 10
47.9595470848
 20
-87.4173649144
 10
47.9630372418
 20
-87.4095885147
 10
47.9665714003
 20
-87.4019532844
 10
47.9701460391
 20
-87.3944571022
 10
47.9737646794
 20
-87.3871020893
 10
47.9774273211
 20
-87.3798882457
  0
LWPOLYLINE
  5
33B
100
AcDbEntity
  8
ASSI
100
AcDbPolyline
 62
7
  6
CONTINUOUS
 90
22
 70
0
 10
22.5
 20
-87.6159885716
 10
22.5074591078
 20
-87.6089615654
 10
22.5629982033
 20
-87.5950094295
 10
22.6748855026
 20
-87.5811606544
 10
22.8423118973
 20
-87.5674137558
 10
23.0628500626
 20
-87.5539680345
 10
23.3372737448
 20
-87.540827878
 10
23.6648091975
 20
-87.5279888988
 10
24.0407078565
 20
-87.5156372346
 10
24.4656742898
 20
-87.5037799847
 10
24.9390039295
 20
-87.4924100498
 10
25.453834507
 20
-87.4816922696
 10
26.0107706192
 20
-87.471636145
 10
26.6092076692
 20
-87.4622321751
 10
27.2404695986
 20
-87.4536166975
 10
27.905034609
 20
-87.445801199
 10
28.6024244988
 20
-87.4387741928
 10
29.3225286046
 20
-87.4326375554
 10
30.0656778333
 20
-87.4274042579
 10
30.8315412782
 20
-87.4230613292
 10
31.6090155556
 20
-87.4196717325
 10
32.3943995378
 20
-87.4172564555
  0
LWPOLYLINE
  5
33C
100
AcDbEntity
  8
0
100
AcDbPolyline
 62
7
  6
CONTINUOUS
 90
34
 70
0
 10
-0.1175
 20
76.752
 10
-0.2400628149
 20
76.7441106486
 10
-0.3531431428
 20
76.7238291187
 10
-0.4567409835
 20
76.6911554103
 10
-0.5502223356
 20
76.6460764756
 10
-0.6342212007
 20
76.5886053625
 10
-0.7106395829
 20
76.5187812144
 10
-0.7802084573
 20
76.4356656944
 10
-0.8421968487
 20
76.3401971395
 10
-0.8963138359
 20
76.2352297042
 10
-0.9421651827
 20
76.1207929967
 10
-0.9801451251
 20
75.9968574089
 10
-1.0111454496
 20
75.8661882711
 10
-1.0352087494
 20
75.7272027435
 10
-1.0522924313
 20
75.5814836659
 10
-1.0631605017
 20
75.4365448882
 10
-1.0676738701
 20
75.2932267359
 10
-1.0659716272
 20
75.1506888834
 10
-1.0592350512
 20
75.0139242034
 10
-1.0485832418
 20
74.8863895492
 10
-1.0328970993
 20
74.7646280676
 10
-1.0100006038
 20
74.6432620717
 10
-0.9795981496
 20
74.5177005708
 10
-0.9419853423
 20
74.3925345555
 10
-0.8958729779
 20
74.2761593112
 10
-0.8403306473
 20
74.1701047342
 10
-0.7762887595
 20
74.0728409283
 10
-0.705249338
 20
73.9881734893
 10
-0.6283281594
 20
73.9174266442
 10
-0.5444094472
 20
73.8592761662
 10
-0.4516478947
 20
73.8135549711
 10
-0.3494283999
 20
73.7802073644
 10
-0.2383660648
 20
73.7592890407
 10
-0.1184608896
 20
73.7508
  0
LINE
  5
33D
100
AcDbEntity
  8
RACCORDO
100
AcDbLine
 62
250
  6
CONTINUOUS
 10
67.4667094077
 20
75.6
 11
67.0
 21
75.6
  0
LINE
  5
33E
100
AcDbEntity
  8
0
100
AcDbLine
 62
7
  6
CONTINUOUS
 10
-2.118684
 20
76.7028
 11
-2.368336
 21
76.7028
  0
LINE
  5
33F
100
AcDbEntity
  8
RACCORDO
100
AcDbLine
 62
7
  6
CONTINUOUS
 10
62.0
 20
80.4421154889
 11
65.8801167057
 21
80.4421154889
  0
LINE
  5
340
100
AcDbEntity
  8
RACCORDO
100
AcDbLine
 62
7
  6
CONTINUOUS
 10
-62.0
 20
80.4421154889
 11
-65.880116703
 21
80.4421154889
  0
LINE
  5
341
100
AcDbEntity
  8
DRAFT
100
AcDbLine
 62
7
  6
CONTINUOUS
 10
62.0
 20
80.58
 11
66.2
 21
80.58
  0
LINE
  5
342
100
AcDbEntity
  8
DRAFT
100
AcDbLine
 62
7
  6
CONTINUOUS
 10
-62.0
 20
80.58
 11
-66.2
 21
80.58
  0
LINE
  5
343
100
AcDbEntity
  8
DRAFT
100
AcDbLine
 62
250
  6
CONTINUOUS
 10
60.58
 20
82.0
 11
60.4421154889
 21
82.0
  0
LINE
  5
344
100
AcDbEntity
  8
DRAFT
100
AcDbLine
 62
250
  6
CONTINUOUS
 10
-60.58
 20
82.0
 11
-60.4421154889
 21
82.0
  0
LINE
  5
345
100
AcDbEntity
  8
RACCORDO
100
AcDbLine
 62
250
  6
CONTINUOUS
 10
66.2
 20
82.0
 11
68.0
 21
82.0
  0
LINE
  5
346
100
AcDbEntity
  8
RACCORDO
100
AcDbLine
 62
250
  6
CONTINUOUS
 10
-66.2
 20
82.0
 11
-68.0
 21
82.0
  0
LWPOLYLINE
  5
347
100
AcDbEntity
  8
0
100
AcDbPolyline
 62
7
  6
CONTINUOUS
 90
13
 70
0
 10
2.1009843809
 20
76.4858843809
 10
2.1786312142
 20
76.4820421489
 10
2.2508017535
 20
76.4717435874
 10
2.3174959987
 20
76.4549886964
 10
2.3792257548
 20
76.4321926605
 10
2.4354792168
 20
76.4029402951
 10
2.4847209699
 20
76.3659860461
 10
2.5264665827
 20
76.3205036246
 10
2.5612004865
 20
76.2673193195
 10
2.5888405604
 20
76.2076664446
 10
2.6093594308
 20
76.1419561042
 10
2.6227844712
 20
76.069777194
 10
2.6291156817
 20
75.9911297139
  0
LWPOLYLINE
  5
348
100
AcDbEntity
  8
0
100
AcDbPolyline
 62
7
  6
CONTINUOUS
 90
10
 70
0
 10
-0.1175
 20
76.4858843809
 10
-0.0688301801
 20
76.483407273
 10
-0.0218598304
 20
76.4780721532
 10
0.0234110491
 20
76.4698790215
 10
0.0673324204
 20
76.458732812
 10
0.1095543215
 20
76.4447285907
 10
0.1490268663
 20
76.4281515552
 10
0.1854000925
 20
76.4090967715
 10
0.2190239623
 20
76.3874691737
 10
0.2498984756
 20
76.3632687617
  0
LWPOLYLINE
  5
349
100
AcDbEntity
  8
0
100
AcDbPolyline
 62
7
  6
CONTINUOUS
 90
23
 70
0
 10
22.5
 20
87.6159885716
 10
22.5074591078
 20
87.6089615654
 10
22.5629982033
 20
87.5950094295
 10
22.6748855026
 20
87.5811606544
 10
22.8423118973
 20
87.5674137558
 10
23.0628500626
 20
87.5539680345
 10
23.3372737448
 20
87.540827878
 10
23.6648091975
 20
87.5279888988
 10
24.0407078565
 20
87.5156372346
 10
24.4656742898
 20
87.5037799847
 10
24.9390039295
 20
87.4924100498
 10
25.453834507
 20
87.4816922696
 10
26.0107706192
 20
87.471636145
 10
26.6092076692
 20
87.4622321751
 10
27.2404695986
 20
87.4536166975
 10
27.905034609
 20
87.445801199
 10
28.6024244988
 20
87.4387741928
 10
29.3225286046
 20
87.4326375554
 10
30.0656778333
 20
87.4274042579
 10
30.8315412782
 20
87.4230613292
 10
31.6090155556
 20
87.4196717325
 10
32.3943995378
 20
87.4172564555
 10
34.0
 20
87.4152858976
  0
LWPOLYLINE
  5
34A
100
AcDbEntity
  8
ASSI
100
AcDbPolyline
 62
7
  6
CONTINUOUS
 90
23
 70
0
 10
67.6159885716
 20
-58.0
 10
67.6230155778
 20
-57.9925408922
 10
67.6369677137
 20
-57.9370017967
 10
67.6508164888
 20
-57.8251144974
 10
67.6645633873
 20
-57.6576881027
 10
67.6780091087
 20
-57.4371499374
 10
67.6911492651
 20
-57.1627262552
 10
67.7039882444
 20
-56.8351908025
 10
67.7163399086
 20
-56.4592921435
 10
67.7281971585
 20
-56.0343257102
 10
67.7395670934
 20
-55.5609960705
 10
67.7502848735
 20
-55.046165493
 10
67.7603409982
 20
-54.4892293808
 10
67.769744968
 20
-53.8907923308
 10
67.7783604457
 20
-53.2595304014
 10
67.7861759441
 20
-52.594965391
 10
67.7932029504
 20
-51.8975755012
 10
67.7993395878
 20
-51.1774713954
 10
67.8045728853
 20
-50.4343221667
 10
67.8089158139
 20
-49.6684587218
 10
67.8123054106
 20
-48.8909844444
 10
67.8147206876
 20
-48.1056004622
 10
67.8166912456
 20
-46.5
  0
LINE
  5
34B
100
AcDbEntity
  8
RACCORDO
100
AcDbLine
 62
250
  6
CONTINUOUS
 10
-54.9911149112
 20
87.4560016781
 11
-54.9614562807
 21
87.4572119715
  0
LINE
  5
34C
100
AcDbEntity
  8
RACCORDO
100
AcDbLine
 62
250
  6
CONTINUOUS
 10
-54.9614562807
 20
87.4572119715
 11
-54.9247646045
 21
87.458424369
  0
LINE
  5
34D
100
AcDbEntity
  8
RACCORDO
100
AcDbLine
 62
250
  6
CONTINUOUS
 10
-54.9247646045
 20
87.458424369
 11
-54.8809262377
 21
87.4596221766
  0
LINE
  5
34E
100
AcDbEntity
  8
RACCORDO
100
AcDbLine
 62
250
  6
CONTINUOUS
 10
-54.8809262377
 20
87.4596221766
 11
-54.8018933012
 21
87.4613354473
  0
LINE
  5
34F
100
AcDbEntity
  8
RACCORDO
100
AcDbLine
 62
250
  6
CONTINUOUS
 10
-54.8018933012
 20
87.4613354473
 11
-54.6737788718
 21
87.4633605638
  0
LINE
  5
350
100
AcDbEntity
  8
RACCORDO
100
AcDbLine
 62
250
  6
CONTINUOUS
 10
-54.6737788718
 20
87.4633605638
 11
-54.5237636404
 21
87.4649762513
  0
LINE
  5
351
100
AcDbEntity
  8
RACCORDO
100
AcDbLine
 62
250
  6
CONTINUOUS
 10
-54.5237636404
 20
87.4649762513
 11
-54.3159971265
 21
87.4662768656
  0
LWPOLYLINE
  5
352
100
AcDbEntity
  8
0
100
AcDbPolyline
 62
7
  6
CONTINUOUS
 90
22
 70
0
 10
35.6056004622
 20
87.4172564555
 10
36.3909844444
 20
87.4196717325
 10
37.1684587218
 20
87.4230613292
 10
37.9343221667
 20
87.4274042579
 10
38.6774713954
 20
87.4326375554
 10
39.3975755012
 20
87.4387741928
 10
40.094965391
 20
87.445801199
 10
40.7595304014
 20
87.4536166975
 10
41.3907923308
 20
87.4622321751
 10
41.9892293808
 20
87.471636145
 10
42.546165493
 20
87.4816922696
 10
43.0609960705
 20
87.4924100498
 10
43.5343257102
 20
87.5037799847
 10
43.9592921435
 20
87.5156372346
 10
44.3351908025
 20
87.5279888988
 10
44.6627262552
 20
87.540827878
 10
44.9371499374
 20
87.5539680345
 10
45.1576881027
 20
87.5674137558
 10
45.3251144974
 20
87.5811606544
 10
45.4370017967
 20
87.5950094295
 10
45.4925408922
 20
87.6089615654
 10
45.5
 20
87.6159885716
  0
LWPOLYLINE
  5
353
100
AcDbEntity
  8
0
100
AcDbPolyline
 62
7
  6
CONTINUOUS
 90
22
 70
0
 10
1.6056004622
 20
87.4172564555
 10
2.3909844444
 20
87.4196717325
 10
3.1684587218
 20
87.4230613292
 10
3.9343221667
 20
87.4274042579
 10
4.6774713954
 20
87.4326375554
 10
5.3975755012
 20
87.4387741928
 10
6.094965391
 20
87.445801199
 10
6.7595304014
 20
87.4536166975
 10
7.3907923308
 20
87.4622321751
 10
7.9892293808
 20
87.471636145
 10
8.546165493
 20
87.4816922696
 10
9.0609960705
 20
87.4924100498
 10
9.5343257102
 20
87.5037799847
 10
9.9592921435
 20
87.5156372346
 10
10.3351908025
 20
87.5279888988
 10
10.6627262552
 20
87.540827878
 10
10.9371499374
 20
87.5539680345
 10
11.1576881027
 20
87.5674137558
 10
11.3251144974
 20
87.5811606544
 10
11.4370017967
 20
87.5950094295
 10
11.4925408922
 20
87.6089615654
 10
11.5
 20
87.6159885716
  0
LWPOLYLINE
  5
354
100
AcDbEntity
  8
0
100
AcDbPolyline
 62
7
  6
CONTINUOUS
 90
22
 70
0
 10
-32.3943995378
 20
87.4172564555
 10
-31.6090155556
 20
87.4196717325
 10
-30.8315412782
 20
87.4230613292
 10
-30.0656778333
 20
87.4274042579
 10
-29.3225286046
 20
87.4326375554
 10
-28.6024244988
 20
87.4387741928
 10
-27.905034609
 20
87.445801199
 10
-27.2404695986
 20
87.4536166975
 10
-26.6092076692
 20
87.4622321751
 10
-26.0107706192
 20
87.471636145
 10
-25.453834507
 20
87.4816922696
 10
-24.9390039295
 20
87.4924100498
 10
-24.4656742898
 20
87.5037799847
 10
-24.0407078565
 20
87.5156372346
 10
-23.6648091975
 20
87.5279888988
 10
-23.3372737448
 20
87.540827878
 10
-23.0628500626
 20
87.5539680345
 10
-22.8423118973
 20
87.5674137558
 10
-22.6748855026
 20
87.5811606544
 10
-22.5629982033
 20
87.5950094295
 10
-22.5074591078
 20
87.6089615654
 10
-22.5
 20
87.6159885716
  0
LWPOLYLINE
  5
355
100
AcDbEntity
  8
0
100
AcDbPolyline
 62
7
  6
CONTINUOUS
 90
22
 70
0
 10
32.3943995378
 20
87.8147206876
 10
31.6090155556
 20
87.8123054106
 10
30.8315412782
 20
87.8089158139
 10
30.0656778333
 20
87.8045728853
 10
29.3225286046
 20
87.7993395878
 10
28.6024244988
 20
87.7932029504
 10
27.905034609
 20
87.7861759441
 10
27.2404695986
 20
87.7783604457
 10
26.6092076692
 20
87.769744968
 10
26.0107706192
 20
87.7603409982
 10
25.453834507
 20
87.7502848735
 10
24.9390039295
 20
87.7395670934
 10
24.4656742898
 20
87.7281971585
 10
24.0407078565
 20
87.7163399086
 10
23.6648091975
 20
87.7039882444
 10
23.3372737448
 20
87.6911492651
 10
23.0628500626
 20
87.6780091087
 10
22.8423118973
 20
87.6645633873
 10
22.6748855026
 20
87.6508164888
 10
22.5629982033
 20
87.6369677137
 10
22.5074591078
 20
87.6230155778
 10
22.5
 20
87.6159885716
  0
LWPOLYLINE
  5
356
100
AcDbEntity
  8
0
100
AcDbPolyline
 62
7
  6
CONTINUOUS
 90
22
 70
0
 10
-1.6056004622
 20
87.8147206876
 10
-2.3909844444
 20
87.8123054106
 10
-3.1684587218
 20
87.8089158139
 10
-3.9343221667
 20
87.8045728853
 10
-4.6774713954
 20
87.7993395878
 10
-5.3975755012
 20
87.7932029504
 10
-6.094965391
 20
87.7861759441
 10
-6.7595304014
 20
87.7783604457
 10
-7.3907923308
 20
87.769744968
 10
-7.9892293808
 20
87.7603409982
 10
-8.546165493
 20
87.7502848735
 10
-9.0609960705
 20
87.7395670934
 10
-9.5343257102
 20
87.7281971585
 10
-9.9592921435
 20
87.7163399086
 10
-10.3351908025
 20
87.7039882444
 10
-10.6627262552
 20
87.6911492651
 10
-10.9371499374
 20
87.6780091087
 10
-11.1576881027
 20
87.6645633873
 10
-11.3251144974
 20
87.6508164888
 10
-11.4370017967
 20
87.6369677137
 10
-11.4925408922
 20
87.6230155778
 10
-11.5
 20
87.6159885716
  0
LWPOLYLINE
  5
357
100
AcDbEntity
  8
0
100
AcDbPolyline
 62
7
  6
CONTINUOUS
 90
22
 70
0
 10
-35.6056004622
 20
87.8147206876
 10
-36.3909844444
 20
87.8123054106
 10
-37.1684587218
 20
87.8089158139
 10
-37.9343221667
 20
87.8045728853
 10
-38.6774713954
 20
87.7993395878
 10
-39.3975755012
 20
87.7932029504
 10
-40.094965391
 20
87.7861759441
 10
-40.7595304014
 20
87.7783604457
 10
-41.3907923308
 20
87.769744968
 10
-41.9892293808
 20
87.7603409982
 10
-42.546165493
 20
87.7502848735
 10
-43.0609960705
 20
87.7395670934
 10
-43.5343257102
 20
87.7281971585
 10
-43.9592921435
 20
87.7163399086
 10
-44.3351908025
 20
87.7039882444
 10
-44.6627262552
 20
87.6911492651
 10
-44.9371499374
 20
87.6780091087
 10
-45.1576881027
 20
87.6645633873
 10
-45.3251144974
 20
87.6508164888
 10
-45.4370017967
 20
87.6369677137
 10
-45.4925408922
 20
87.6230155778
 10
-45.5
 20
87.6159885716
  0
LINE
  5
358
100
AcDbEntity
  8
0
100
AcDbLine
 62
7
  6
CONTINUOUS
 10
34.0
 20
87.4152858976
 11
35.6056004622
 21
87.4172564555
  0
LINE
  5
359
100
AcDbEntity
  8
0
100
AcDbLine
 62
7
  6
CONTINUOUS
 10
-0.0
 20
87.4152858976
 11
1.6056004622
 21
87.4172564555
  0
LINE
  5
35A
100
AcDbEntity
  8
0
100
AcDbLine
 62
7
  6
CONTINUOUS
 10
-34.0
 20
87.4152858976
 11
-32.3943995378
 21
87.4172564555
  0
LINE
  5
35B
100
AcDbEntity
  8
0
100
AcDbLine
 62
7
  6
CONTINUOUS
 10
34.0
 20
87.8166912456
 11
32.3943995378
 21
87.8147206876
  0
LINE
  5
35C
100
AcDbEntity
  8
0
100
AcDbLine
 62
7
  6
CONTINUOUS
 10
-0.0
 20
87.8166912456
 11
-1.6056004622
 21
87.8147206876
  0
LINE
  5
35D
100
AcDbEntity
  8
0
100
AcDbLine
 62
7
  6
CONTINUOUS
 10
-34.0
 20
87.8166912456
 11
-35.6056004622
 21
87.8147206876
  0
LINE
  5
35E
100
AcDbEntity
  8
RACCORDO
100
AcDbLine
 62
250
  6
CONTINUOUS
 10
60.4421154889
 20
85.8801167031
 11
-60.4421154889
 21
85.8801167053
  0
LINE
  5
35F
100
AcDbEntity
  8
DRAFT
100
AcDbLine
 62
7
  6
CONTINUOUS
 10
-62.0
 20
86.2
 11
-60.58
 21
86.2
  0
LINE
  5
360
100
AcDbEntity
  8
DRAFT
100
AcDbLine
 62
7
  6
CONTINUOUS
 10
62.0
 20
86.2
 11
60.58
 21
86.2
  0
LINE
  5
361
100
AcDbEntity
  8
RACCORDO
100
AcDbLine
 62
7
  6
CONTINUOUS
 10
-62.0
 20
86.3372617805
 11
-60.4427382195
 21
86.3372617805
  0
LINE
  5
362
100
AcDbEntity
  8
RACCORDO
100
AcDbLine
 62
7
  6
CONTINUOUS
 10
60.4427382195
 20
86.3372617805
 11
62.0
 21
86.3372617805
  0
LINE
  5
363
100
AcDbEntity
  8
RACCORDO
100
AcDbLine
 62
7
  6
CONTINUOUS
 10
-54.4
 20
87.0
 11
-48.6
 21
87.0
  0
LINE
  5
364
100
AcDbEntity
  8
RACCORDO
100
AcDbLine
 62
250
  6
CONTINUOUS
 10
62.0
 20
87.3798882457
 11
-47.9774273214
 21
87.3798882457
  0
LINE
  5
365
100
AcDbEntity
  8
RACCORDO
100
AcDbLine
 62
250
  6
CONTINUOUS
 10
-55.0225726765
 20
87.3798882457
 11
-62.0
 21
87.3798882457
  0
LINE
  5
366
100
AcDbEntity
  8
ASSI
100
AcDbLine
 62
7
  6
CONTINUOUS
 10
-62.0
 20
88.0
 11
62.0
 21
88.0
  0
LINE
  5
367
100
AcDbEntity
  8
DRAFT
100
AcDbLine
 62
7
  6
CONTINUOUS
 10
62.0
 20
88.0
 11
-62.0
 21
88.0
  0
LINE
  5
368
100
AcDbEntity
  8
RACCORDO
100
AcDbLine
 62
250
  6
CONTINUOUS
 10
-54.3159971265
 20
87.4662768656
 11
-48.6543479184
 21
87.4661479354
  0
LINE
  5
369
100
AcDbEntity
  8
RACCORDO
100
AcDbLine
 62
250
  6
CONTINUOUS
 10
-48.6543479184
 20
87.4661479354
 11
-48.4500780249
 21
87.4647413566
  0
LINE
  5
36A
100
AcDbEntity
  8
RACCORDO
100
AcDbLine
 62
250
  6
CONTINUOUS
 10
-48.4500780249
 20
87.4647413566
 11
-48.2811673401
 21
87.4627309026
  0
LINE
  5
36B
100
AcDbEntity
  8
RACCORDO
100
AcDbLine
 62
250
  6
CONTINUOUS
 10
-48.2811673401
 20
87.4627309026
 11
-48.1892898844
 21
87.4611658322
  0
LINE
  5
36C
100
AcDbEntity
  8
RACCORDO
100
AcDbLine
 62
250
  6
CONTINUOUS
 10
-48.1892898844
 20
87.4611658322
 11
-48.1088670441
 21
87.4593627942
  0
LINE
  5
36D
100
AcDbEntity
  8
RACCORDO
100
AcDbLine
 62
250
  6
CONTINUOUS
 10
-48.1088670441
 20
87.4593627942
 11
-48.0630667569
 21
87.4580485882
  0
LWPOLYLINE
  5
36E
100
AcDbEntity
  8
RACCORDO
100
AcDbPolyline
 62
250
  6
CONTINUOUS
 90
11
 70
0
 10
-48.0630667569
 20
87.4580485882
 10
-48.0241839434
 20
87.4566585011
 10
-48.0075994817
 20
87.4559418307
 10
-47.9928972909
 20
87.4552108641
 10
-47.9801889926
 20
87.4544722353
 10
-47.9695077762
 20
87.4537259561
 10
-47.9608204523
 20
87.4529720146
 10
-47.9541390742
 20
87.4522170096
 10
-47.94946766
 20
87.4514631406
 10
-47.9468021916
 20
87.4507082079
 10
-47.9461426692
 20
87.4499522117
  0
LWPOLYLINE
  5
36F
100
AcDbEntity
  8
RACCORDO
100
AcDbPolyline
 62
250
  6
CONTINUOUS
 90
7
 70
0
 10
-55.0538573308
 20
87.4499521428
 10
-54.9603601212
 20
87.4436915232
 10
-54.8685385066
 20
87.4250000682
 10
-54.7800380547
 20
87.3942127539
 10
-54.696444813
 20
87.3518813306
 10
-54.6192568856
 20
87.2987644346
 10
-54.5629591772
 20
87.2490472714
  0
LWPOLYLINE
  5
370
100
AcDbEntity
  8
RACCORDO
100
AcDbPolyline
 62
250
  6
CONTINUOUS
 90
10
 70
0
 10
67.4499522117
 20
69.4461426692
 10
67.4415835695
 20
69.4494110404
 10
67.4333624597
 20
69.4527339767
 10
67.4252888823
 20
69.456111478
 10
67.4173649616
 20
69.4595470639
 10
67.4095885733
 20
69.4630372149
 10
67.4019533449
 20
69.4665713719
 10
67.394457152
 20
69.4701460155
 10
67.3871021189
 20
69.4737646652
 10
67.3798882457
 20
69.477427321
  0
LWPOLYLINE
  5
371
100
AcDbEntity
  8
ASSI
100
AcDbPolyline
 62
7
  6
CONTINUOUS
 90
22
 70
0
 10
67.6159885716
 20
58.0
 10
67.6230155778
 20
57.9925408922
 10
67.6369677137
 20
57.9370017967
 10
67.6508164888
 20
57.8251144974
 10
67.6645633873
 20
57.6576881027
 10
67.6780091087
 20
57.4371499374
 10
67.6911492651
 20
57.1627262552
 10
67.7039882444
 20
56.8351908025
 10
67.7163399086
 20
56.4592921435
 10
67.7281971585
 20
56.0343257102
 10
67.7395670934
 20
55.5609960705
 10
67.7502848735
 20
55.046165493
 10
67.7603409982
 20
54.4892293808
 10
67.769744968
 20
53.8907923308
 10
67.7783604457
 20
53.2595304014
 10
67.7861759441
 20
52.594965391
 10
67.7932029504
 20
51.8975755012
 10
67.7993395878
 20
51.1774713954
 10
67.8045728853
 20
50.4343221667
 10
67.8089158139
 20
49.6684587218
 10
67.8123054106
 20
48.8909844444
 10
67.8147206876
 20
48.1056004622
  0
LWPOLYLINE
  5
372
100
AcDbEntity
  8
RACCORDO
100
AcDbPolyline
 62
7
  6
CONTINUOUS
 90
4
 70
0
 10
48.450104677
 20
-87.2358531346
 10
48.5105093475
 20
-87.1641581652
 10
48.5607620783
 20
-87.0850811083
 10
48.6
 20
-87.0
  0
LWPOLYLINE
  5
373
100
AcDbEntity
  8
ASSI
100
AcDbPolyline
 62
7
  6
CONTINUOUS
 90
22
 70
0
 10
45.5
 20
-87.6159885716
 10
45.4925408922
 20
-87.6230155778
 10
45.4370017967
 20
-87.6369677137
 10
45.3251144974
 20
-87.6508164888
 10
45.1576881027
 20
-87.6645633873
 10
44.9371499374
 20
-87.6780091087
 10
44.6627262552
 20
-87.6911492651
 10
44.3351908025
 20
-87.7039882444
 10
43.9592921435
 20
-87.7163399086
 10
43.5343257102
 20
-87.7281971585
 10
43.0609960705
 20
-87.7395670934
 10
42.546165493
 20
-87.7502848735
 10
41.9892293808
 20
-87.7603409982
 10
41.3907923308
 20
-87.769744968
 10
40.7595304014
 20
-87.7783604457
 10
40.094965391
 20
-87.7861759441
 10
39.3975755012
 20
-87.7932029504
 10
38.6774713954
 20
-87.7993395878
 10
37.9343221667
 20
-87.8045728853
 10
37.1684587218
 20
-87.8089158139
 10
36.3909844444
 20
-87.8123054106
 10
35.6056004622
 20
-87.8147206876
  0
LWPOLYLINE
  5
374
100
AcDbEntity
  8
RACCORDO
100
AcDbPolyline
 62
7
  6
CONTINUOUS
 90
10
 70
0
 10
-47.9774272021
 20
87.3798882488
 10
-48.0640733232
 20
87.3726906993
 10
-48.1470807182
 20
87.3556175277
 10
-48.2264493871
 20
87.329019674
 10
-48.3031514837
 20
87.2932141394
 10
-48.3762148542
 20
87.2487054472
 10
-48.4427230373
 20
87.1963751602
 10
-48.501703879
 20
87.1370643879
 10
-48.5541295332
 20
87.0713697277
 10
-48.6
 20
87.0
  0
LWPOLYLINE
  5
375
100
AcDbEntity
  8
RACCORDO
100
AcDbPolyline
 62
250
  6
CONTINUOUS
 90
7
 70
0
 10
-47.9461426692
 20
87.4499522118
 10
-48.0396398787
 20
87.4436915807
 10
-48.131461492
 20
87.4250001148
 10
-48.219961942
 20
87.3942127903
 10
-48.3035551812
 20
87.3518813575
 10
-48.3807431059
 20
87.298764453
 10
-48.450104677
 20
87.2358531346
  0
LWPOLYLINE
  5
376
100
AcDbEntity
  8
RACCORDO
100
AcDbPolyline
 62
7
  6
CONTINUOUS
 90
4
 70
0
 10
67.2358531346
 20
69.950104677
 10
67.1641581652
 20
70.0105093475
 10
67.0850811083
 20
70.0607620783
 10
67.0
 20
70.1
  0
LWPOLYLINE
  5
377
100
AcDbEntity
  8
0
100
AcDbPolyline
 62
7
  6
CONTINUOUS
 90
23
 70
0
 10
45.5
 20
87.6159885716
 10
45.4925408922
 20
87.6230155778
 10
45.4370017967
 20
87.6369677137
 10
45.3251144974
 20
87.6508164888
 10
45.1576881027
 20
87.6645633873
 10
44.9371499374
 20
87.6780091087
 10
44.6627262552
 20
87.6911492651
 10
44.3351908025
 20
87.7039882444
 10
43.9592921435
 20
87.7163399086
 10
43.5343257102
 20
87.7281971585
 10
43.0609960705
 20
87.7395670934
 10
42.546165493
 20
87.7502848735
 10
41.9892293808
 20
87.7603409982
 10
41.3907923308
 20
87.769744968
 10
40.7595304014
 20
87.7783604457
 10
40.094965391
 20
87.7861759441
 10
39.3975755012
 20
87.7932029504
 10
38.6774713954
 20
87.7993395878
 10
37.9343221667
 20
87.8045728853
 10
37.1684587218
 20
87.8089158139
 10
36.3909844444
 20
87.8123054106
 10
35.6056004622
 20
87.8147206876
 10
34.0
 20
87.8166912456
  0
LINE
  5
378
100
AcDbEntity
  8
RACCORDO
100
AcDbLine
 62
7
  6
CONTINUOUS
 10
60.58
 20
-86.2
 11
60.4427382195
 21
-86.3372617805
  0
LINE
  5
379
100
AcDbEntity
  8
RACCORDO
100
AcDbLine
 62
7
  6
CONTINUOUS
 10
66.2
 20
-80.58
 11
66.3372617805
 21
-80.4427382195
  0
LINE
  5
37A
100
AcDbEntity
  8
RACCORDO
100
AcDbLine
 62
7
  6
CONTINUOUS
 10
66.2
 20
80.58
 11
66.3372617805
 21
80.4427382195
  0
LINE
  5
37B
100
AcDbEntity
  8
RACCORDO
100
AcDbLine
 62
7
  6
CONTINUOUS
 10
60.58
 20
86.2
 11
60.4427382195
 21
86.3372617805
  0
CIRCLE
  5
37C
100
AcDbEntity
  8
RACCORDO
100
AcDbCircle
 62
7
  6
CONTINUOUS
 10
-51.5
 20
-73.0
 40
9.5
  0
CIRCLE
  5
37D
100
AcDbEntity
  8
RACCORDO
100
AcDbCircle
 62
250
  6
CONTINUOUS
 10
-51.5
 20
-73.0
 40
8.9999936635
  0
ARC
  5
37E
100
AcDbEntity
  8
ASSI
100
AcDbCircle
 62
7
  6
CONTINUOUS
 10
-62.0
 20
-82.0
 40
6.0
100
AcDbArc
 50
185.7614255385
 51
264.2385744615
  0
ARC
  5
37F
100
AcDbEntity
  8
DRAFT
100
AcDbCircle
 62
7
  6
CONTINUOUS
 10
-62.0
 20
-82.0
 40
6.0
100
AcDbArc
 50
180.0
 51
270.0
  0
ARC
  5
380
100
AcDbEntity
  8
RACCORDO
100
AcDbCircle
 62
250
  6
CONTINUOUS
 10
-62.0
 20
-82.0
 40
5.3798882457
100
AcDbArc
 50
180.0
 51
270.0
  0
ARC
  5
381
100
AcDbEntity
  8
RACCORDO
100
AcDbCircle
 62
7
  6
CONTINUOUS
 10
-62.0
 20
-82.0
 40
4.3372617805
100
AcDbArc
 50
180.0
 51
270.0
  0
ARC
  5
382
100
AcDbEntity
  8
DRAFT
100
AcDbCircle
 62
7
  6
CONTINUOUS
 10
-62.0
 20
-82.0
 40
4.2
100
AcDbArc
 50
180.0
 51
270.0
  0
CIRCLE
  5
383
100
AcDbEntity
  8
0
100
AcDbCircle
 62
7
  6
CONTINUOUS
 10
-51.5
 20
-73.0
 40
2.25
  0
ARC
  5
384
100
AcDbEntity
  8
DRAFT
100
AcDbCircle
 62
7
  6
CONTINUOUS
 10
-62.0
 20
-11.0
 40
1.8378845111
100
AcDbArc
 50
270.0
 51
90.0
  0
CIRCLE
  5
385
100
AcDbEntity
  8
0
100
AcDbCircle
 62
7
  6
CONTINUOUS
 10
-51.5
 20
-73.0
 40
1.8
  0
ARC
  5
386
100
AcDbEntity
  8
DRAFT
100
AcDbCircle
 62
7
  6
CONTINUOUS
 10
-62.0
 20
-11.0
 40
1.7
100
AcDbArc
 50
270.0
 51
90.0
  0
ARC
  5
387
100
AcDbEntity
  8
DRAFT
100
AcDbCircle
 62
7
  6
CONTINUOUS
 10
-62.0
 20
-82.0
 40
1.5578845111
100
AcDbArc
 50
0.0
 51
90.0
  0
CIRCLE
  5
388
100
AcDbEntity
  8
0
100
AcDbCircle
 62
7
  6
CONTINUOUS
 10
-51.5
 20
-73.0
 40
1.5
  0
ARC
  5
389
100
AcDbEntity
  8
DRAFT
100
AcDbCircle
 62
7
  6
CONTINUOUS
 10
-62.0
 20
-82.0
 40
1.42
100
AcDbArc
 50
0.0
 51
90.0
  0
CIRCLE
  5
38A
100
AcDbEntity
  8
RACCORDO
100
AcDbCircle
 62
7
  6
CONTINUOUS
 10
-51.5
 20
73.0
 40
9.5
  0
CIRCLE
  5
38B
100
AcDbEntity
  8
RACCORDO
100
AcDbCircle
 62
250
  6
CONTINUOUS
 10
-51.5
 20
73.0
 40
8.9999936635
  0
ARC
  5
38C
100
AcDbEntity
  8
ASSI
100
AcDbCircle
 62
7
  6
CONTINUOUS
 10
-62.0
 20
82.0
 40
6.0
100
AcDbArc
 50
95.7614255385
 51
174.2385744615
  0
ARC
  5
38D
100
AcDbEntity
  8
DRAFT
100
AcDbCircle
 62
7
  6
CONTINUOUS
 10
-62.0
 20
82.0
 40
6.0
100
AcDbArc
 50
90.0
 51
180.0
  0
ARC
  5
38E
100
AcDbEntity
  8
RACCORDO
100
AcDbCircle
 62
250
  6
CONTINUOUS
 10
-62.0
 20
82.0
 40
5.3798882457
100
AcDbArc
 50
90.0
 51
180.0
  0
ARC
  5
38F
100
AcDbEntity
  8
RACCORDO
100
AcDbCircle
 62
7
  6
CONTINUOUS
 10
-62.0
 20
82.0
 40
4.3372617805
100
AcDbArc
 50
90.0
 51
180.0
  0
ARC
  5
390
100
AcDbEntity
  8
DRAFT
100
AcDbCircle
 62
7
  6
CONTINUOUS
 10
-62.0
 20
82.0
 40
4.2
100
AcDbArc
 50
90.0
 51
180.0
  0
CIRCLE
  5
391
100
AcDbEntity
  8
0
100
AcDbCircle
 62
7
  6
CONTINUOUS
 10
-51.5
 20
73.0
 40
2.25
  0
CIRCLE
  5
392
100
AcDbEntity
  8
0
100
AcDbCircle
 62
7
  6
CONTINUOUS
 10
-51.5
 20
73.0
 40
1.8
  0
ARC
  5
393
100
AcDbEntity
  8
DRAFT
100
AcDbCircle
 62
7
  6
CONTINUOUS
 10
-62.0
 20
82.0
 40
1.5578845111
100
AcDbArc
 50
270.0
 51
360.0
  0
CIRCLE
  5
394
100
AcDbEntity
  8
0
100
AcDbCircle
 62
7
  6
CONTINUOUS
 10
-51.5
 20
73.0
 40
1.5
  0
ARC
  5
395
100
AcDbEntity
  8
DRAFT
100
AcDbCircle
 62
7
  6
CONTINUOUS
 10
-62.0
 20
82.0
 40
1.42
100
AcDbArc
 50
270.0
 51
360.0
  0
CIRCLE
  5
396
100
AcDbEntity
  8
RACCORDO
100
AcDbCircle
 62
7
  6
CONTINUOUS
 10
-0.0
 20
-65.3
 40
4.8
  0
CIRCLE
  5
397
100
AcDbEntity
  8
RACCORDO
100
AcDbCircle
 62
250
  6
CONTINUOUS
 10
-0.0
 20
-65.3
 40
4.2999876505
  0
CIRCLE
  5
398
100
AcDbEntity
  8
0
100
AcDbCircle
 62
7
  6
CONTINUOUS
 10
-0.0
 20
-46.5
 40
11.25
  0
ARC
  5
399
100
AcDbEntity
  8
0
100
AcDbCircle
 62
7
  6
CONTINUOUS
 10
-0.0
 20
-46.5
 40
11.0
100
AcDbArc
 50
183.9095635247
 51
266.0904364753
  0
ARC
  5
39A
100
AcDbEntity
  8
0
100
AcDbCircle
 62
7
  6
CONTINUOUS
 10
-0.0
 20
-46.5
 40
11.0
100
AcDbArc
 50
273.9095635247
 51
356.0904364753
  0
ARC
  5
39B
100
AcDbEntity
  8
0
100
AcDbCircle
 62
7
  6
CONTINUOUS
 10
-0.0
 20
-46.5
 40
11.0
100
AcDbArc
 50
93.9095635247
 51
176.0904364753
  0
ARC
  5
39C
100
AcDbEntity
  8
0
100
AcDbCircle
 62
7
  6
CONTINUOUS
 10
-0.0
 20
-46.5
 40
11.0
100
AcDbArc
 50
3.9095635247
 51
86.0904364753
  0
ARC
  5
39D
100
AcDbEntity
  8
0
100
AcDbCircle
 62
7
  6
CONTINUOUS
 10
-0.0
 20
-46.5
 40
10.1299689469
100
AcDbArc
 50
4.2459351052
 51
85.7540648948
  0
ARC
  5
39E
100
AcDbEntity
  8
0
100
AcDbCircle
 62
7
  6
CONTINUOUS
 10
-0.0
 20
-46.5
 40
10.1299689469
100
AcDbArc
 50
94.2459351052
 51
175.7540648948
  0
ARC
  5
39F
100
AcDbEntity
  8
0
100
AcDbCircle
 62
7
  6
CONTINUOUS
 10
-0.0
 20
-46.5
 40
10.1299689469
100
AcDbArc
 50
184.2459351052
 51
265.7540648948
  0
ARC
  5
3A0
100
AcDbEntity
  8
0
100
AcDbCircle
 62
7
  6
CONTINUOUS
 10
-0.0
 20
-46.5
 40
10.1299689469
100
AcDbArc
 50
274.2459351052
 51
355.7540648948
  0
CIRCLE
  5
3A1
100
AcDbEntity
  8
RACCORDO
100
AcDbCircle
 62
7
  6
CONTINUOUS
 10
51.5
 20
-73.0
 40
9.5
  0
CIRCLE
  5
3A2
100
AcDbEntity
  8
RACCORDO
100
AcDbCircle
 62
250
  6
CONTINUOUS
 10
51.5
 20
-73.0
 40
8.9999936635
  0
ARC
  5
3A3
100
AcDbEntity
  8
ASSI
100
AcDbCircle
 62
7
  6
CONTINUOUS
 10
62.0
 20
-82.0
 40
6.0
100
AcDbArc
 50
275.7614255385
 51
354.2385744615
  0
ARC
  5
3A4
100
AcDbEntity
  8
DRAFT
100
AcDbCircle
 62
7
  6
CONTINUOUS
 10
62.0
 20
-82.0
 40
6.0
100
AcDbArc
 50
270.0
 51
360.0
  0
ARC
  5
3A5
100
AcDbEntity
  8
RACCORDO
100
AcDbCircle
 62
250
  6
CONTINUOUS
 10
62.0
 20
-82.0
 40
5.3798882457
100
AcDbArc
 50
270.0
 51
360.0
  0
ARC
  5
3A6
100
AcDbEntity
  8
RACCORDO
100
AcDbCircle
 62
7
  6
CONTINUOUS
 10
62.0
 20
-82.0
 40
4.3372617805
100
AcDbArc
 50
270.0
 51
360.0
  0
ARC
  5
3A7
100
AcDbEntity
  8
DRAFT
100
AcDbCircle
 62
7
  6
CONTINUOUS
 10
62.0
 20
-82.0
 40
4.2
100
AcDbArc
 50
270.0
 51
360.0
  0
CIRCLE
  5
3A8
100
AcDbEntity
  8
0
100
AcDbCircle
 62
7
  6
CONTINUOUS
 10
51.5
 20
-73.0
 40
2.25
  0
CIRCLE
  5
3A9
100
AcDbEntity
  8
0
100
AcDbCircle
 62
7
  6
CONTINUOUS
 10
51.5
 20
-73.0
 40
1.8
  0
ARC
  5
3AA
100
AcDbEntity
  8
DRAFT
100
AcDbCircle
 62
7
  6
CONTINUOUS
 10
62.0
 20
-82.0
 40
1.5578845111
100
AcDbArc
 50
90.0
 51
180.0
  0
CIRCLE
  5
3AB
100
AcDbEntity
  8
0
100
AcDbCircle
 62
7
  6
CONTINUOUS
 10
51.5
 20
-73.0
 40
1.5
  0
ARC
  5
3AC
100
AcDbEntity
  8
DRAFT
100
AcDbCircle
 62
7
  6
CONTINUOUS
 10
62.0
 20
-82.0
 40
1.42
100
AcDbArc
 50
90.0
 51
180.0
  0
ARC
  5
3AD
100
AcDbEntity
  8
DRAFT
100
AcDbCircle
 62
7
  6
CONTINUOUS
 10
62.0
 20
-11.0
 40
1.8378845111
100
AcDbArc
 50
90.0
 51
270.0
  0
ARC
  5
3AE
100
AcDbEntity
  8
DRAFT
100
AcDbCircle
 62
7
  6
CONTINUOUS
 10
62.0
 20
-11.0
 40
1.7
100
AcDbArc
 50
90.0
 51
270.0
  0
CIRCLE
  5
3AF
100
AcDbEntity
  8
ASSI
100
AcDbCircle
 62
7
  6
CONTINUOUS
 10
-0.0
 20
46.5
 40
11.25
  0
ARC
  5
3B0
100
AcDbEntity
  8
0
100
AcDbCircle
 62
7
  6
CONTINUOUS
 10
-0.0
 20
46.5
 40
11.0
100
AcDbArc
 50
93.9095635247
 51
176.0904364753
  0
ARC
  5
3B1
100
AcDbEntity
  8
0
100
AcDbCircle
 62
7
  6
CONTINUOUS
 10
-0.0
 20
46.5
 40
11.0
100
AcDbArc
 50
3.9095635247
 51
86.0904364753
  0
ARC
  5
3B2
100
AcDbEntity
  8
0
100
AcDbCircle
 62
7
  6
CONTINUOUS
 10
-0.0
 20
46.5
 40
11.0
100
AcDbArc
 50
183.9095635247
 51
266.0904364753
  0
ARC
  5
3B3
100
AcDbEntity
  8
0
100
AcDbCircle
 62
7
  6
CONTINUOUS
 10
-0.0
 20
46.5
 40
11.0
100
AcDbArc
 50
273.9095635247
 51
356.0904364753
  0
ARC
  5
3B4
100
AcDbEntity
  8
0
100
AcDbCircle
 62
7
  6
CONTINUOUS
 10
-0.0
 20
46.5
 40
10.1299689469
100
AcDbArc
 50
4.2459351052
 51
85.7540648948
  0
ARC
  5
3B5
100
AcDbEntity
  8
0
100
AcDbCircle
 62
7
  6
CONTINUOUS
 10
-0.0
 20
46.5
 40
10.1299689469
100
AcDbArc
 50
94.2459351052
 51
175.7540648948
  0
ARC
  5
3B6
100
AcDbEntity
  8
0
100
AcDbCircle
 62
7
  6
CONTINUOUS
 10
-0.0
 20
46.5
 40
10.1299689469
100
AcDbArc
 50
184.2459351052
 51
265.7540648948
  0
ARC
  5
3B7
100
AcDbEntity
  8
0
100
AcDbCircle
 62
7
  6
CONTINUOUS
 10
-0.0
 20
46.5
 40
10.1299689469
100
AcDbArc
 50
274.2459351052
 51
355.7540648948
  0
CIRCLE
  5
3B8
100
AcDbEntity
  8
RACCORDO
100
AcDbCircle
 62
7
  6
CONTINUOUS
 10
-0.0
 20
65.3
 40
4.8
  0
CIRCLE
  5
3B9
100
AcDbEntity
  8
RACCORDO
100
AcDbCircle
 62
250
  6
CONTINUOUS
 10
-0.0
 20
65.3
 40
4.2999876508
  0
ARC
  5
3BA
100
AcDbEntity
  8
0
100
AcDbCircle
 62
7
  6
CONTINUOUS
 10
2.558889799
 20
75.3402578154
 40
0.05
100
AcDbArc
 50
118.332200809
 51
249.0297526305
  0
CIRCLE
  5
3BB
100
AcDbEntity
  8
RACCORDO
100
AcDbCircle
 62
7
  6
CONTINUOUS
 10
51.5
 20
73.0
 40
9.5
  0
CIRCLE
  5
3BC
100
AcDbEntity
  8
RACCORDO
100
AcDbCircle
 62
250
  6
CONTINUOUS
 10
51.5
 20
73.0
 40
8.9999936635
  0
ARC
  5
3BD
100
AcDbEntity
  8
ASSI
100
AcDbCircle
 62
7
  6
CONTINUOUS
 10
62.0
 20
82.0
 40
6.0
100
AcDbArc
 50
5.7614255385
 51
84.2385744615
  0
ARC
  5
3BE
100
AcDbEntity
  8
DRAFT
100
AcDbCircle
 62
7
  6
CONTINUOUS
 10
62.0
 20
82.0
 40
6.0
100
AcDbArc
 50
0.0
 51
90.0
  0
ARC
  5
3BF
100
AcDbEntity
  8
RACCORDO
100
AcDbCircle
 62
250
  6
CONTINUOUS
 10
62.0
 20
82.0
 40
5.3798882457
100
AcDbArc
 50
0.0
 51
90.0
  0
ARC
  5
3C0
100
AcDbEntity
  8
RACCORDO
100
AcDbCircle
 62
7
  6
CONTINUOUS
 10
62.0
 20
82.0
 40
4.3372617805
100
AcDbArc
 50
0.0
 51
90.0
  0
ARC
  5
3C1
100
AcDbEntity
  8
DRAFT
100
AcDbCircle
 62
7
  6
CONTINUOUS
 10
62.0
 20
82.0
 40
4.2
100
AcDbArc
 50
0.0
 51
90.0
  0
CIRCLE
  5
3C2
100
AcDbEntity
  8
0
100
AcDbCircle
 62
7
  6
CONTINUOUS
 10
51.5
 20
73.0
 40
2.25
  0
CIRCLE
  5
3C3
100
AcDbEntity
  8
0
100
AcDbCircle
 62
7
  6
CONTINUOUS
 10
51.5
 20
73.0
 40
1.8
  0
ARC
  5
3C4
100
AcDbEntity
  8
DRAFT
100
AcDbCircle
 62
7
  6
CONTINUOUS
 10
62.0
 20
82.0
 40
1.5578845111
100
AcDbArc
 50
180.0
 51
270.0
  0
CIRCLE
  5
3C5
100
AcDbEntity
  8
0
100
AcDbCircle
 62
7
  6
CONTINUOUS
 10
51.5
 20
73.0
 40
1.5
  0
ARC
  5
3C6
100
AcDbEntity
  8
DRAFT
100
AcDbCircle
 62
7
  6
CONTINUOUS
 10
62.0
 20
82.0
 40
1.42
100
AcDbArc
 50
180.0
 51
270.0
  0
ELLIPSE
  5
3C7
100
AcDbEntity
  8
RACCORDO
100
AcDbEllipse
 62
7
  6
CONTINUOUS
 10
65.880116703
 20
-12.8247942094
 30
0.0
 11
1.5
 21
-0.0
 31
0.0
 40
0.0087268678
 41
-1.5707963268
 42
-1.0425851154
  0
ELLIPSE
  5
3C8
100
AcDbEntity
  8
RACCORDO
100
AcDbEllipse
 62
7
  6
CONTINUOUS
 10
65.880116703
 20
-9.1752057906
 30
0.0
 11
1.5
 21
-0.0
 31
0.0
 40
0.0087268678
 41
1.0425851154
 42
1.5707963268
  0
ELLIPSE
  5
3C9
100
AcDbEntity
  8
RACCORDO
100
AcDbEllipse
 62
7
  6
CONTINUOUS
 10
-65.880116703
 20
-9.1752057906
 30
0.0
 11
1.5
 21
0.0
 31
0.0
 40
0.0087268678
 41
1.5707963268
 42
2.0990075382
  0
ELLIPSE
  5
3CA
100
AcDbEntity
  8
RACCORDO
100
AcDbEllipse
 62
7
  6
CONTINUOUS
 10
-65.880116703
 20
-12.8247942094
 30
0.0
 11
1.5
 21
0.0
 31
0.0
 40
0.0087268678
 41
-2.0990075382
 42
-1.5707963268
  0
ELLIPSE
  5
3CB
100
AcDbEntity
  8
RACCORDO
100
AcDbEllipse
 62
7
  6
CONTINUOUS
 10
60.4552057906
 20
-85.880116703
 30
0.0
 11
-0.0
 21
1.5
 31
0.0
 40
0.0087268678
 41
-4.7123889804
 42
-4.4026989944
  0
ELLIPSE
  5
3CC
100
AcDbEntity
  8
RACCORDO
100
AcDbEllipse
 62
7
  6
CONTINUOUS
 10
65.880116703
 20
-80.4552057906
 30
0.0
 11
1.5
 21
-0.0
 31
0.0
 40
0.0087268678
 41
1.2611063408
 42
1.5707963268
  0
ELLIPSE
  5
3CD
100
AcDbEntity
  8
RACCORDO
100
AcDbEllipse
 62
7
  6
CONTINUOUS
 10
60.4552057906
 20
85.880116703
 30
0.0
 11
0.0
 21
1.5
 31
0.0
 40
0.0087268678
 41
1.2611063408
 42
1.5707963268
  0
ELLIPSE
  5
3CE
100
AcDbEntity
  8
RACCORDO
100
AcDbEllipse
 62
7
  6
CONTINUOUS
 10
65.880116703
 20
80.4552057906
 30
0.0
 11
1.5
 21
-0.0
 31
0.0
 40
0.0087268678
 41
-1.5707963268
 42
-1.2611063408
  0
ELLIPSE
  5
3CF
100
AcDbEntity
  8
RACCORDO
100
AcDbEllipse
 62
7
  6
CONTINUOUS
 10
-60.4552057906
 20
-85.880116703
 30
0.0
 11
0.0
 21
1.5
 31
0.0
 40
0.0087268678
 41
-1.8804863128
 42
-1.5707963268
  0
ELLIPSE
  5
3D0
100
AcDbEntity
  8
RACCORDO
100
AcDbEllipse
 62
7
  6
CONTINUOUS
 10
-65.880116703
 20
-80.4552057906
 30
0.0
 11
1.5
 21
0.0
 31
0.0
 40
0.0087268678
 41
1.5707963268
 42
1.8804863128
  0
ELLIPSE
  5
3D1
100
AcDbEntity
  8
RACCORDO
100
AcDbEllipse
 62
7
  6
CONTINUOUS
 10
-60.4552057906
 20
85.880116703
 30
0.0
 11
0.0
 21
1.5
 31
0.0
 40
0.0087268678
 41
-1.5707963268
 42
-1.2611063408
  0
ELLIPSE
  5
3D2
100
AcDbEntity
  8
RACCORDO
100
AcDbEllipse
 62
7
  6
CONTINUOUS
 10
-65.880116703
 20
80.4552057906
 30
0.0
 11
1.5
 21
0.0
 31
0.0
 40
0.0087268678
 41
-1.8804863128
 42
-1.5707963268
  0
ENDSEC
  0
SECTION
  2
OBJECTS
  0
DICTIONARY
  5
C
100
AcDbDictionary
280
0
281
1
  3
ACAD_GROUP
350
D
  3
ACAD_MLINESTYLE
350
17
  3
ACAD_LAYOUT
350
1A
  3
ACAD_PLOTSETTINGS
350
19
  3
ACAD_PLOTSTYLENAME
350
E
  0
DICTIONARY
  5
D
102
{ACAD_REACTORS
330
C
102
}
100
AcDbDictionary
280
0
281
1
  0
ACDBDICTIONARYWDFLT
  5
E
102
{ACAD_REACTORS
330
C
102
}
100
AcDbDictionary
281
1
  3
Normal
350
F
100
AcDbDictionaryWithDefault
340
F
  0
DICTIONARY
  5
17
102
{ACAD_REACTORS
330
C
102
}
100
AcDbDictionary
280
0
281
1
  3
Standard
350
18
  0
DICTIONARY
  5
19
102
{ACAD_REACTORS
330
C
102
}
100
AcDbDictionary
281
1
  0
DICTIONARY
  5
1A
102
{ACAD_REACTORS
330
C
102
}
100
AcDbDictionary
281
1
  3
Model
350
3D3
  3
Layout1
350
3D4
  0
ACDBPLACEHOLDER
  5
F
102
{ACAD_REACTORS
330
E
102
}
  0
MLINESTYLE
  5
18
102
{ACAD_REACTORS
330
17
102
}
100
AcDbMlineStyle
  2
STANDARD
 70
0
  3

 62
256
 51
90.0
 52
90.0
 71
2
 49
0.5
 62
256
  6
BYLAYER
 49
-0.5
 62
256
  6
BYLAYER
  0
LAYOUT
  5
3D3
102
{ACAD_REACTORS
330
1A
102
}
100
AcDbPlotSettings
  1

  2
none_device
  4
ISO_A4_(297.00_x_210.00_MM)
  6

 40
0.0
 41
0.0
 42
0.0
 43
0.0
 44
297.0
 45
210.0
 46
0.0
 47
0.0
 48
0.0
 49
0.0
140
0.0
141
0.0
142
1.0
143
1.0
 70
1024
 72
1
 73
0
 74
0
  7

 75
0
147
1.0
148
0.0
149
0.0
100
AcDbLayout
  1
Model
 70
0
 71
0
 10
0.0
 20
0.0
 11
297.0
 21
210.0
 12
0.0
 22
0.0
 32
0.0
 14
0.0
 24
0.0
 34
0.0
 15
0.0
 25
0.0
 35
0.0
146
0.0
 13
0.0
 23
0.0
 33
0.0
 16
1.0
 26
0.0
 36
0.0
 17
0.0
 27
1.0
 37
0.0
 76
0
330
218
345
0
346
0
  0
LAYOUT
  5
3D4
102
{ACAD_REACTORS
330
1A
102
}
100
AcDbPlotSettings
  1

  2
none_device
  4
ISO_A4_(297.00_x_210.00_MM)
  6

 40
0.0
 41
0.0
 42
0.0
 43
0.0
 44
297.0
 45
210.0
 46
0.0
 47
0.0
 48
0.0
 49
0.0
140
0.0
141
0.0
142
1.0
143
1.0
 70
0
 72
1
 73
0
 74
0
  7

 75
0
147
1.0
148
0.0
149
0.0
100
AcDbLayout
  1
Layout1
 70
0
 71
1
 10
0.0
 20
0.0
 11
297.0
 21
210.0
 12
0.0
 22
0.0
 32
0.0
 14
0.0
 24
0.0
 34
0.0
 15
0.0
 25
0.0
 35
0.0
146
0.0
 13
0.0
 23
0.0
 33
0.0
 16
1.0
 26
0.0
 36
0.0
 17
0.0
 27
1.0
 37
0.0
 76
0
330
219
345
0
346
0
  0
ENDSEC
  0
EOF
