  0
SECTION
  2
HEADER
  9
$ACADVER
  1
AC1015
  9
$DWGCODEPAGE
  3
ANSI_1252
  9
$EXTMAX
 10
297.0
 20
210.0
 30
0.0
  9
$EXTMIN
 10
0.0
 20
0.0
 30
0.0
  9
$LIMMIN
 10
0.0
 20
0.0
  9
$LIMMAX
 10
297.0
 20
210.0
  9
$VIEWCTR
 10
148.5
 20
105.0
  9
$VIEWSIZE
 40
210.0
  9
$CLAYER
  8
0
  9
$LTSCALE
 40
16.335
  9
$CELTYPE
  6
BYLAYER
  9
$DIMSCALE
 40
1.0
  9
$DIMASZ
 40
3.0
  9
$DIMEXO
 40
1.85625
  9
$DIMDLI
 40
11.286
  9
$DIMEXE
 40
5.346
  9
$DIMCEN
 40
2.673
  9
$DIMLFAC
 40
1.0
  9
$DIMBLK
  1
_FILLED
  9
$DIMTXT
 40
3.0
  9
$DIMTOL
 70
1
  9
$DIMLIM
 70
0
  9
$DIMTFAC
 40
1.0
  9
$DIMTP
 40
0.01
  9
$DIMTM
 40
0.01
  9
$PDMODE
 70
3
  9
$PDSIZE
 40
3.0
  9
$HANDSEED
  5
74D
  9
$TILEMODE
 70
1
  9
$MEASUREMENT
 70
1
  9
$INSUNITS
 70
4
  0
ENDSEC
  0
SECTION
  2
CLASSES
  0
CLASS
  1
ACDBDICTIONARYWDFLT
  2
AcDbDictionaryWithDefault
  3
AutoCAD 2000
 90
0
280
0
281
0
  0
CLASS
  1
ACDBPLACEHOLDER
  2
AcDbPlaceHolder
  3
AutoCAD 2000
 90
0
280
0
281
0
  0
CLASS
  1
LAYOUT
  2
AcDbLayout
  3
AutoCAD 2000
 90
0
280
0
281
0
  0
ENDSEC
  0
SECTION
  2
TABLES
  0
TABLE
  2
VPORT
  5
8
100
AcDbSymbolTable
 70
2
  0
VPORT
  5
1F4
100
AcDbSymbolTableRecord
100
AcDbViewportTableRecord
  2
*ACTIVE
 70
0
 10
0.0
 20
0.0
 11
1.0
 21
1.0
 12
148.5
 22
105.0
 13
0.0
 23
0.0
 14
1.0
 24
1.0
 15
0.0
 25
0.0
 16
0.0
 26
0.0
 36
1.0
 17
0.0
 27
0.0
 37
0.0
 40
210.0
 41
1.4142857143
 42
50.0
 43
0.0
 44
0.0
 50
0.0
 51
0.0
 71
0
 72
100
 73
1
 74
1
 75
0
 76
0
 77
0
 78
0
  0
ENDTAB
  0
TABLE
  2
LTYPE
  5
5
100
AcDbSymbolTable
 70
6
  0
LTYPE
  5
14
100
AcDbSymbolTableRecord
100
AcDbLinetypeTableRecord
  2
BYBLOCK
 70
0
  3

 72
65
 73
0
 40
0.0
  0
LTYPE
  5
15
100
AcDbSymbolTableRecord
100
AcDbLinetypeTableRecord
  2
BYLAYER
 70
0
  3

 72
65
 73
0
 40
0.0
  0
LTYPE
  5
16
100
AcDbSymbolTableRecord
100
AcDbLinetypeTableRecord
  2
CONTINUOUS
 70
64
  3
Solid line
 72
65
 73
0
 40
0.0
  0
LTYPE
  5
1F5
100
AcDbSymbolTableRecord
100
AcDbLinetypeTableRecord
  2
CENTER
 70
64
  3
____ _ ____ _ ____ _ ____ _ ____ _ ____ _ ____
 72
65
 73
4
 40
0.6
 49
0.375
 74
0
 49
-0.075
 74
0
 49
0.075
 74
0
 49
-0.075
 74
0
  0
LTYPE
  5
1F6
100
AcDbSymbolTableRecord
100
AcDbLinetypeTableRecord
  2
HIDDEN
 70
64
  3
- - - - - - - - - - - - - - - - - - - -
 72
65
 73
2
 40
0.2
 49
0.1
 74
0
 49
-0.1
 74
0
  0
LTYPE
  5
1F7
100
AcDbSymbolTableRecord
100
AcDbLinetypeTableRecord
  2
PHANTOM
 70
64
  3
_____ _ _ _____ _ _ _____ _ _ _____
 72
65
 73
6
 40
0.8
 49
0.45
 74
0
 49
-0.05
 74
0
 49
0.1
 74
0
 49
-0.05
 74
0
 49
0.1
 74
0
 49
-0.05
 74
0
  0
LTYPE
  5
1F8
100
AcDbSymbolTableRecord
100
AcDbLinetypeTableRecord
  2
DOT
 70
64
  3
. . . . . . . . . . . . . . . . . . . .
 72
65
 73
2
 40
0.2
 49
0.1
 74
0
 49
-0.1
 74
0
  0
LTYPE
  5
1F9
100
AcDbSymbolTableRecord
100
AcDbLinetypeTableRecord
  2
DASHED
 70
64
  3
- - - - - - - - - - - - - - - - - - - -
 72
65
 73
2
 40
0.2
 49
0.1
 74
0
 49
-0.1
 74
0
  0
ENDTAB
  0
TABLE
  2
LAYER
  5
2
100
AcDbSymbolTable
 70
36
  0
LAYER
  5
10
100
AcDbSymbolTableRecord
100
AcDbLayerTableRecord
  2
0
 70
0
 62
7
  6
CONTINUOUS
370
-3
390
F
  0
LAYER
  5
1FA
100
AcDbSymbolTableRecord
100
AcDbLayerTableRecord
  2
DEFAULT_1
 70
0
 62
7
  6
CENTER
370
-3
390
F
  0
LAYER
  5
1FB
100
AcDbSymbolTableRecord
100
AcDbLayerTableRecord
  2
DEFAULT_2
 70
0
 62
7
  6
HIDDEN
370
-3
390
F
  0
LAYER
  5
1FC
100
AcDbSymbolTableRecord
100
AcDbLayerTableRecord
  2
DEFAULT_3
 70
0
 62
7
  6
PHANTOM
370
-3
390
F
  0
LAYER
  5
1FD
100
AcDbSymbolTableRecord
100
AcDbLayerTableRecord
  2
ASSI
 70
0
 62
7
  6
CONTINUOUS
370
-3
390
F
  0
LAYER
  5
1FE
100
AcDbSymbolTableRecord
100
AcDbLayerTableRecord
  2
COORDINATE
 70
0
 62
7
  6
CONTINUOUS
370
-3
390
F
  0
LAYER
  5
1FF
100
AcDbSymbolTableRecord
100
AcDbLayerTableRecord
  2
COORD_ORIGINE
 70
0
 62
7
  6
CONTINUOUS
370
-3
390
F
  0
LAYER
  5
200
100
AcDbSymbolTableRecord
100
AcDbLayerTableRecord
  2
COSMETICI
 70
0
 62
7
  6
CONTINUOUS
370
-3
390
F
  0
LAYER
  5
201
100
AcDbSymbolTableRecord
100
AcDbLayerTableRecord
  2
CURVE
 70
0
 62
7
  6
CONTINUOUS
370
-3
390
F
  0
LAYER
  5
202
100
AcDbSymbolTableRecord
100
AcDbLayerTableRecord
  2
DRAFT
 70
0
 62
7
  6
CONTINUOUS
370
-3
390
F
  0
LAYER
  5
203
100
AcDbSymbolTableRecord
100
AcDbLayerTableRecord
  2
NOTE
 70
0
 62
7
  6
CONTINUOUS
370
-3
390
F
  0
LAYER
  5
204
100
AcDbSymbolTableRecord
100
AcDbLayerTableRecord
  2
PIANI
 70
0
 62
7
  6
CONTINUOUS
370
-3
390
F
  0
LAYER
  5
205
100
AcDbSymbolTableRecord
100
AcDbLayerTableRecord
  2
PIANI_ORIGINE
 70
0
 62
7
  6
CONTINUOUS
370
-3
390
F
  0
LAYER
  5
206
100
AcDbSymbolTableRecord
100
AcDbLayerTableRecord
  2
PUNTI
 70
0
 62
7
  6
CONTINUOUS
370
-3
390
F
  0
LAYER
  5
207
100
AcDbSymbolTableRecord
100
AcDbLayerTableRecord
  2
RACCORDO
 70
0
 62
7
  6
CONTINUOUS
370
-3
390
F
  0
LAYER
  5
208
100
AcDbSymbolTableRecord
100
AcDbLayerTableRecord
  2
SNAPLINE
 70
0
 62
7
  6
CONTINUOUS
370
-3
390
F
  0
LAYER
  5
209
100
AcDbSymbolTableRecord
100
AcDbLayerTableRecord
  2
TRASH
 70
0
 62
7
  6
CONTINUOUS
370
-3
390
F
  0
LAYER
  5
20A
100
AcDbSymbolTableRecord
100
AcDbLayerTableRecord
  2
XSEC_DATUMS
 70
0
 62
7
  6
CONTINUOUS
370
-3
390
F
  0
ENDTAB
  0
TABLE
  2
STYLE
  5
3
100
AcDbSymbolTable
 70
1
  0
STYLE
  5
11
100
AcDbSymbolTableRecord
100
AcDbTextStyleTableRecord
  2
STANDARD
 70
0
 40
0.0
 41
0.8
 50
0.0
 71
0
 42
0.2
  3
txt
  4

  0
STYLE
  5
20B
100
AcDbSymbolTableRecord
100
AcDbTextStyleTableRecord
  2
TEXTSTYLE_1
 70
0
 40
0.0
 41
0.8
 50
0.0
 71
0
 42
0.2
  3
gdt
  4

  0
ENDTAB
  0
TABLE
  2
VIEW
  5
6
100
AcDbSymbolTable
 70
0
  0
ENDTAB
  0
TABLE
  2
UCS
  5
7
100
AcDbSymbolTable
 70
0
  0
ENDTAB
  0
TABLE
  2
APPID
  5
9
100
AcDbSymbolTable
 70
1
  0
APPID
  5
20C
100
AcDbSymbolTableRecord
100
AcDbRegAppTableRecord
  2
ACAD
 70
0
  0
ENDTAB
  0
TABLE
  2
BLOCK_RECORD
  5
1
100
AcDbSymbolTable
 70
0
  0
BLOCK_RECORD
  5
20D
100
AcDbSymbolTableRecord
100
AcDbBlockTableRecord
  2
*Model_Space
  0
BLOCK_RECORD
  5
20E
100
AcDbSymbolTableRecord
100
AcDbBlockTableRecord
  2
*Paper_Space
  0
ENDTAB
  0
TABLE
  2
DIMSTYLE
  5
A
100
AcDbSymbolTable
 70
1
100
AcDbDimStyleTable
 71
0
  0
DIMSTYLE
105
20F
100
AcDbSymbolTableRecord
100
AcDbDimStyleTableRecord
  2
STANDARD
 70
0
  3

  4

 40
1.0
 41
3.0
 42
0.0625
 43
0.38
 44
0.18
 45
0.0
 46
0.0
 47
0.01
 48
0.01
140
3.0
141
0.09
142
0.0
143
25.4
144
1.0
145
0.0
146
1.0
147
0.09
 71
1.0
 72
0.0
 73
0
 74
0
 75
0
 76
0
 77
1
 78
8
170
0
171
2
172
0
173
0
174
0
175
0
176
0
177
0
178
0
270
2
271
2
272
2
273
2
274
2
275
0
280
0
281
0
282
0
283
1
284
8
285
0
286
0
287
3
288
0
340
11
  0
ENDTAB
  0
ENDSEC
  0
SECTION
  2
BLOCKS
  0
BLOCK
  5
20
100
AcDbEntity
  8
0
100
AcDbBlockBegin
  2
*Model_Space
 70
0
 10
0.0
 20
0.0
 30
0.0
  3
*Model_Space
  1

  0
ENDBLK
  5
21
100
AcDbEntity
  8
0
100
AcDbBlockEnd
  0
BLOCK
  5
1C
100
AcDbEntity
  8
0
100
AcDbBlockBegin
  2
*Paper_Space
 70
0
 10
0.0
 20
0.0
 30
0.0
  3
*Paper_Space
  1

  0
ENDBLK
  5
1D
100
AcDbEntity
  8
0
100
AcDbBlockEnd
  0
ENDSEC
  0
SECTION
  2
ENTITIES
  0
LWPOLYLINE
  5
210
100
AcDbEntity
  8
RACCORDO
100
AcDbPolyline
 62
7
  6
CONTINUOUS
 90
25
 70
0
 10
64.9152026989
 20
145.6599568833
 10
64.9283753251
 20
145.6600939024
 10
64.9413813466
 20
145.6604897473
 10
64.9542207634
 20
145.6611444183
 10
64.9669469761
 20
145.662062921
 10
64.9795065842
 20
145.6632402496
 10
64.9917393854
 20
145.6646613869
 10
65.0036411934
 20
145.6663294562
 10
65.0152161945
 20
145.6682413341
 10
65.0263167456
 20
145.6703726341
 10
65.0369367689
 20
145.6727261669
 10
65.0470823422
 20
145.6752991218
 10
65.0566240552
 20
145.6780586798
 10
65.0655541724
 20
145.6810072312
 10
65.0738804293
 20
145.6841423858
 10
65.0814966214
 20
145.6874241535
 10
65.0883936531
 20
145.6908544124
 10
65.0945806201
 20
145.6944312845
 10
65.0999786054
 20
145.6981091454
 10
65.1045775025
 20
145.7018892888
 10
65.108387418
 20
145.7057704212
 10
65.111359755
 20
145.7097030372
 10
65.1134783147
 20
145.7136706352
 10
65.114759296
 20
145.7176897168
 10
65.1152026989
 20
145.7217602822
  0
LWPOLYLINE
  5
211
100
AcDbEntity
  8
RACCORDO
100
AcDbPolyline
 62
7
  6
CONTINUOUS
 90
25
 70
0
 10
59.2152026989
 20
145.6599568833
 10
59.2283753251
 20
145.6600939024
 10
59.2413813466
 20
145.6604897473
 10
59.2542207634
 20
145.6611444183
 10
59.2669469761
 20
145.662062921
 10
59.2795065842
 20
145.6632402496
 10
59.2917393854
 20
145.6646613869
 10
59.3036411934
 20
145.6663294562
 10
59.3152161945
 20
145.6682413341
 10
59.3263167456
 20
145.6703726341
 10
59.3369367689
 20
145.6727261669
 10
59.3470823422
 20
145.6752991218
 10
59.3566240552
 20
145.6780586798
 10
59.3655541724
 20
145.6810072312
 10
59.3738804293
 20
145.6841423858
 10
59.3814966214
 20
145.6874241535
 10
59.3883936531
 20
145.6908544124
 10
59.3945806201
 20
145.6944312845
 10
59.3999786054
 20
145.6981091454
 10
59.4045775025
 20
145.7018892888
 10
59.408387418
 20
145.7057704212
 10
59.411359755
 20
145.7097030372
 10
59.4134783147
 20
145.7136706352
 10
59.414759296
 20
145.7176897168
 10
59.4152026989
 20
145.7217602822
  0
LINE
  5
212
100
AcDbEntity
  8
0
100
AcDbLine
 62
7
  6
CONTINUOUS
 10
66.6152026989
 20
145.1576998181
 11
54.6152026989
 21
145.1576998181
  0
LINE
  5
213
100
AcDbEntity
  8
0
100
AcDbLine
 62
253
  6
CONTINUOUS
 10
66.6152026989
 20
145.1919602567
 11
54.6152026989
 21
145.1919602567
  0
LINE
  5
214
100
AcDbEntity
  8
RACCORDO
100
AcDbLine
 62
7
  6
CONTINUOUS
 10
64.9152026989
 20
145.2795342768
 11
62.0152026989
 21
145.2795342768
  0
LINE
  5
215
100
AcDbEntity
  8
RACCORDO
100
AcDbLine
 62
7
  6
CONTINUOUS
 10
59.2152026989
 20
145.2795342768
 11
56.3152026989
 21
145.2795342768
  0
LINE
  5
216
100
AcDbEntity
  8
RACCORDO
100
AcDbLine
 62
7
  6
CONTINUOUS
 10
64.9152026989
 20
145.6599568833
 11
62.0152026989
 21
145.6599568833
  0
LINE
  5
217
100
AcDbEntity
  8
RACCORDO
100
AcDbLine
 62
7
  6
CONTINUOUS
 10
59.2152026989
 20
145.6599568833
 11
56.3152026989
 21
145.6599568833
  0
LINE
  5
218
100
AcDbEntity
  8
0
100
AcDbLine
 62
253
  6
CONTINUOUS
 10
65.1152026989
 20
145.8576998181
 11
61.8152026989
 21
145.8576998181
  0
LINE
  5
219
100
AcDbEntity
  8
0
100
AcDbLine
 62
253
  6
CONTINUOUS
 10
59.4152026989
 20
145.8576998181
 11
56.1152026989
 21
145.8576998181
  0
LINE
  5
21A
100
AcDbEntity
  8
RACCORDO
100
AcDbLine
 62
7
  6
CONTINUOUS
 10
65.1152026989
 20
146.1576998181
 11
64.5484689338
 21
146.1576998181
  0
LINE
  5
21B
100
AcDbEntity
  8
RACCORDO
100
AcDbLine
 62
7
  6
CONTINUOUS
 10
56.6819364641
 20
146.1576998181
 11
56.1152026989
 21
146.1576998181
  0
LINE
  5
21C
100
AcDbEntity
  8
RACCORDO
100
AcDbLine
 62
7
  6
CONTINUOUS
 10
72.7651646169
 20
146.2076998181
 11
71.265240781
 21
146.2076998181
  0
LINE
  5
21D
100
AcDbEntity
  8
RACCORDO
100
AcDbLine
 62
7
  6
CONTINUOUS
 10
49.9651646169
 20
146.2076998181
 11
48.465240781
 21
146.2076998181
  0
LWPOLYLINE
  5
21E
100
AcDbEntity
  8
RACCORDO
100
AcDbPolyline
 62
7
  6
CONTINUOUS
 90
25
 70
0
 10
56.3152026989
 20
145.2795342768
 10
56.3020300728
 20
145.2796712958
 10
56.2890240513
 20
145.2800671408
 10
56.2761846345
 20
145.2807218118
 10
56.2634584218
 20
145.2816403144
 10
56.2508988137
 20
145.2828176431
 10
56.2386660125
 20
145.2842387804
 10
56.2267642045
 20
145.2859068496
 10
56.2151892034
 20
145.2878187276
 10
56.2040886523
 20
145.2899500276
 10
56.193468629
 20
145.2923035604
 10
56.1833230556
 20
145.2948765153
 10
56.1737813427
 20
145.2976360732
 10
56.1648512255
 20
145.3005846247
 10
56.1565249686
 20
145.3037197793
 10
56.1489087765
 20
145.307001547
 10
56.1420117448
 20
145.3104318059
 10
56.1358247778
 20
145.3140086779
 10
56.1304267924
 20
145.3176865389
 10
56.1258278954
 20
145.3214666823
 10
56.1220179799
 20
145.3253478147
 10
56.1190456429
 20
145.3292804307
 10
56.1169270832
 20
145.3332480287
 10
56.1156461018
 20
145.3372671103
 10
56.1152026989
 20
145.3413376757
  0
LWPOLYLINE
  5
21F
100
AcDbEntity
  8
RACCORDO
100
AcDbPolyline
 62
7
  6
CONTINUOUS
 90
25
 70
0
 10
62.0152026989
 20
145.2795342768
 10
62.0020300728
 20
145.2796712958
 10
61.9890240513
 20
145.2800671408
 10
61.9761846345
 20
145.2807218118
 10
61.9634584218
 20
145.2816403144
 10
61.9508988137
 20
145.2828176431
 10
61.9386660125
 20
145.2842387804
 10
61.9267642045
 20
145.2859068496
 10
61.9151892034
 20
145.2878187276
 10
61.9040886523
 20
145.2899500276
 10
61.893468629
 20
145.2923035604
 10
61.8833230556
 20
145.2948765153
 10
61.8737813427
 20
145.2976360732
 10
61.8648512255
 20
145.3005846247
 10
61.8565249686
 20
145.3037197793
 10
61.8489087765
 20
145.307001547
 10
61.8420117448
 20
145.3104318059
 10
61.8358247778
 20
145.3140086779
 10
61.8304267924
 20
145.3176865389
 10
61.8258278954
 20
145.3214666823
 10
61.8220179799
 20
145.3253478147
 10
61.8190456429
 20
145.3292804307
 10
61.8169270832
 20
145.3332480287
 10
61.8156461018
 20
145.3372671103
 10
61.8152026989
 20
145.3413376757
  0
LINE
  5
220
100
AcDbEntity
  8
ASSI
100
AcDbLine
 62
7
  6
CONTINUOUS
 10
50.3551478513
 20
191.181095698
 11
50.2152026989
 21
191.1391160317
  0
LWPOLYLINE
  5
221
100
AcDbEntity
  8
RACCORDO
100
AcDbPolyline
 62
7
  6
CONTINUOUS
 90
23
 70
0
 10
56.6913813466
 20
147.7074838336
 10
56.7042207634
 20
147.7081385046
 10
56.7169469761
 20
147.7090570072
 10
56.7295065842
 20
147.7102343359
 10
56.7417393854
 20
147.7116554732
 10
56.7536411934
 20
147.7133235424
 10
56.7652161945
 20
147.7152354204
 10
56.7763167456
 20
147.7173667204
 10
56.7869367689
 20
147.7197202532
 10
56.7970823422
 20
147.722293208
 10
56.8066240552
 20
147.725052766
 10
56.8155541724
 20
147.7280013175
 10
56.8238804293
 20
147.731136472
 10
56.8314966214
 20
147.7344182398
 10
56.8383936531
 20
147.7378484987
 10
56.8445806201
 20
147.7414253707
 10
56.8499786054
 20
147.7451032317
 10
56.8545775025
 20
147.7488833751
 10
56.858387418
 20
147.7527645075
 10
56.861359755
 20
147.7566971235
 10
56.8634783147
 20
147.7606647215
 10
56.864759296
 20
147.7646838031
 10
56.8652026989
 20
147.7687543685
  0
LWPOLYLINE
  5
222
100
AcDbEntity
  8
RACCORDO
100
AcDbPolyline
 62
7
  6
CONTINUOUS
 90
3
 70
0
 10
56.6652026989
 20
147.7069509696
 10
56.6783753251
 20
147.7070879886
 10
56.6913813466
 20
147.7074838336
  0
LINE
  5
223
100
AcDbEntity
  8
RACCORDO
100
AcDbLine
 62
7
  6
CONTINUOUS
 10
56.3152026989
 20
146.2992903582
 11
59.2152026989
 21
146.2992903582
  0
LINE
  5
224
100
AcDbEntity
  8
RACCORDO
100
AcDbLine
 62
7
  6
CONTINUOUS
 10
62.0152026989
 20
146.2992903582
 11
64.9152026989
 21
146.2992903582
  0
LINE
  5
225
100
AcDbEntity
  8
RACCORDO
100
AcDbLine
 62
7
  6
CONTINUOUS
 10
68.7592069846
 20
146.9576998181
 11
66.8237556808
 21
146.9576998181
  0
LINE
  5
226
100
AcDbEntity
  8
RACCORDO
100
AcDbLine
 62
7
  6
CONTINUOUS
 10
52.4711984133
 20
146.9576998181
 11
54.4066497171
 21
146.9576998181
  0
LINE
  5
227
100
AcDbEntity
  8
DRAFT
100
AcDbLine
 62
7
  6
CONTINUOUS
 10
54.4066497171
 20
146.9576998181
 11
56.6367205561
 21
146.9576998181
  0
LINE
  5
228
100
AcDbEntity
  8
0
100
AcDbLine
 62
7
  6
CONTINUOUS
 10
56.6367205561
 20
146.9576998181
 11
56.6410955561
 21
146.9576998181
  0
LINE
  5
229
100
AcDbEntity
  8
0
100
AcDbLine
 62
7
  6
CONTINUOUS
 10
64.5893098418
 20
146.9576998181
 11
64.5936848418
 21
146.9576998181
  0
LINE
  5
22A
100
AcDbEntity
  8
DRAFT
100
AcDbLine
 62
7
  6
CONTINUOUS
 10
64.5936848418
 20
146.9576998181
 11
66.8237556808
 21
146.9576998181
  0
LINE
  5
22B
100
AcDbEntity
  8
RACCORDO
100
AcDbLine
 62
7
  6
CONTINUOUS
 10
64.5893098418
 20
147.3265283631
 11
64.5652026989
 21
147.3265283631
  0
LINE
  5
22C
100
AcDbEntity
  8
RACCORDO
100
AcDbLine
 62
7
  6
CONTINUOUS
 10
56.6410955561
 20
147.3265283631
 11
56.6652026989
 21
147.3265283631
  0
LINE
  5
22D
100
AcDbEntity
  8
ASSI
100
AcDbLine
 62
253
  6
CONTINUOUS
 10
66.8566343223
 20
147.6432800166
 11
64.7255825995
 21
147.6432800166
  0
LINE
  5
22E
100
AcDbEntity
  8
ASSI
100
AcDbLine
 62
253
  6
CONTINUOUS
 10
56.5048227984
 20
147.6432800166
 11
54.3737710756
 21
147.6432800166
  0
LINE
  5
22F
100
AcDbEntity
  8
RACCORDO
100
AcDbLine
 62
7
  6
CONTINUOUS
 10
64.5893098418
 20
147.7069509696
 11
64.5652026989
 21
147.7069509696
  0
LINE
  5
230
100
AcDbEntity
  8
RACCORDO
100
AcDbLine
 62
7
  6
CONTINUOUS
 10
56.6410955561
 20
147.7069509696
 11
56.6652026989
 21
147.7069509696
  0
LINE
  5
231
100
AcDbEntity
  8
RACCORDO
100
AcDbLine
 62
253
  6
CONTINUOUS
 10
68.7722982833
 20
147.7076998181
 11
66.8658223872
 21
147.7076998181
  0
LINE
  5
232
100
AcDbEntity
  8
RACCORDO
100
AcDbLine
 62
253
  6
CONTINUOUS
 10
54.3645830107
 20
147.7076998181
 11
52.4581071146
 21
147.7076998181
  0
LINE
  5
233
100
AcDbEntity
  8
ASSI
100
AcDbLine
 62
7
  6
CONTINUOUS
 10
50.2152026989
 20
147.7076998181
 11
52.4581071146
 21
147.7076998181
  0
LINE
  5
234
100
AcDbEntity
  8
ASSI
100
AcDbLine
 62
7
  6
CONTINUOUS
 10
68.7722982833
 20
147.7076998181
 11
71.0152026989
 21
147.7076998181
  0
LINE
  5
235
100
AcDbEntity
  8
0
100
AcDbLine
 62
253
  6
CONTINUOUS
 10
64.3652026989
 20
148.0017489534
 11
56.8652026989
 21
148.0017489534
  0
LWPOLYLINE
  5
236
100
AcDbEntity
  8
RACCORDO
100
AcDbPolyline
 62
7
  6
CONTINUOUS
 90
25
 70
0
 10
59.2152026989
 20
146.2992903582
 10
59.2283753251
 20
146.2991533392
 10
59.2413813466
 20
146.2987574942
 10
59.2542207634
 20
146.2981028233
 10
59.2669469761
 20
146.2971843206
 10
59.2795065842
 20
146.296006992
 10
59.2917393854
 20
146.2945858546
 10
59.3036411934
 20
146.2929177854
 10
59.3152161945
 20
146.2910059075
 10
59.3263167456
 20
146.2888746075
 10
59.3369367689
 20
146.2865210747
 10
59.3470823422
 20
146.2839481198
 10
59.3566240552
 20
146.2811885618
 10
59.3655541724
 20
146.2782400104
 10
59.3738804293
 20
146.2751048558
 10
59.3814966214
 20
146.2718230881
 10
59.3883936531
 20
146.2683928292
 10
59.3945806201
 20
146.2648159571
 10
59.3999786054
 20
146.2611380962
 10
59.4045775025
 20
146.2573579527
 10
59.408387418
 20
146.2534768204
 10
59.411359755
 20
146.2495442044
 10
59.4134783147
 20
146.2455766064
 10
59.414759296
 20
146.2415575247
 10
59.4152026989
 20
146.2374869594
  0
LWPOLYLINE
  5
237
100
AcDbEntity
  8
RACCORDO
100
AcDbPolyline
 62
7
  6
CONTINUOUS
 90
25
 70
0
 10
64.9152026989
 20
146.2992903582
 10
64.9283753251
 20
146.2991533392
 10
64.9413813466
 20
146.2987574942
 10
64.9542207634
 20
146.2981028233
 10
64.9669469761
 20
146.2971843206
 10
64.9795065842
 20
146.296006992
 10
64.9917393854
 20
146.2945858546
 10
65.0036411934
 20
146.2929177854
 10
65.0152161945
 20
146.2910059075
 10
65.0263167456
 20
146.2888746075
 10
65.0369367689
 20
146.2865210747
 10
65.0470823422
 20
146.2839481198
 10
65.0566240552
 20
146.2811885618
 10
65.0655541724
 20
146.2782400104
 10
65.0738804293
 20
146.2751048558
 10
65.0814966214
 20
146.2718230881
 10
65.0883936531
 20
146.2683928292
 10
65.0945806201
 20
146.2648159571
 10
65.0999786054
 20
146.2611380962
 10
65.1045775025
 20
146.2573579527
 10
65.108387418
 20
146.2534768204
 10
65.111359755
 20
146.2495442044
 10
65.1134783147
 20
146.2455766064
 10
65.114759296
 20
146.2415575247
 10
65.1152026989
 20
146.2374869594
  0
LWPOLYLINE
  5
238
100
AcDbEntity
  8
RACCORDO
100
AcDbPolyline
 62
7
  6
CONTINUOUS
 90
25
 70
0
 10
64.5652026989
 20
147.3265283631
 10
64.5520300728
 20
147.3266653821
 10
64.5390240513
 20
147.3270612271
 10
64.5261846345
 20
147.3277158981
 10
64.5134584218
 20
147.3286344007
 10
64.5008988137
 20
147.3298117293
 10
64.4886660125
 20
147.3312328667
 10
64.4767642045
 20
147.3329009359
 10
64.4651892034
 20
147.3348128138
 10
64.4540886523
 20
147.3369441138
 10
64.443468629
 20
147.3392976467
 10
64.4333230556
 20
147.3418706015
 10
64.4237813427
 20
147.3446301595
 10
64.4148512255
 20
147.347578711
 10
64.4065249686
 20
147.3507138655
 10
64.3989087765
 20
147.3539956332
 10
64.3920117448
 20
147.3574258922
 10
64.3858247778
 20
147.3610027642
 10
64.3804267924
 20
147.3646806251
 10
64.3758278954
 20
147.3684607686
 10
64.3720179799
 20
147.3723419009
 10
64.3690456429
 20
147.376274517
 10
64.3669270832
 20
147.3802421149
 10
64.3656461018
 20
147.3842611966
 10
64.3652026989
 20
147.3883317619
  0
LWPOLYLINE
  5
239
100
AcDbEntity
  8
RACCORDO
100
AcDbPolyline
 62
7
  6
CONTINUOUS
 90
3
 70
0
 10
64.5390240513
 20
147.7074838336
 10
64.5520300728
 20
147.7070879886
 10
64.5652026989
 20
147.7069509696
  0
LINE
  5
23A
100
AcDbEntity
  8
ASSI
100
AcDbLine
 62
7
  6
CONTINUOUS
 10
50.3551478513
 20
149.2343039382
 11
50.2152026989
 21
149.2762836045
  0
LINE
  5
23B
100
AcDbEntity
  8
ASSI
100
AcDbLine
 62
253
  6
CONTINUOUS
 10
66.2431393145
 20
148.5076998181
 11
65.6063139864
 21
148.4631686531
  0
LINE
  5
23C
100
AcDbEntity
  8
RACCORDO
100
AcDbLine
 62
7
  6
CONTINUOUS
 10
66.2152026989
 20
149.3076998181
 11
64.7851360733
 21
149.2076998181
  0
LINE
  5
23D
100
AcDbEntity
  8
ASSI
100
AcDbLine
 62
253
  6
CONTINUOUS
 10
66.8658223872
 20
148.3950341133
 11
65.6063139864
 21
148.3950341133
  0
LINE
  5
23E
100
AcDbEntity
  8
ASSI
100
AcDbLine
 62
253
  6
CONTINUOUS
 10
55.6240914115
 20
148.3950341133
 11
54.3645830107
 21
148.3950341133
  0
LINE
  5
23F
100
AcDbEntity
  8
RACCORDO
100
AcDbLine
 62
253
  6
CONTINUOUS
 10
67.6152026989
 20
148.5076998181
 11
66.2431393145
 21
148.5076998181
  0
LINE
  5
240
100
AcDbEntity
  8
RACCORDO
100
AcDbLine
 62
253
  6
CONTINUOUS
 10
54.9872660834
 20
148.5076998181
 11
53.6152026989
 21
148.5076998181
  0
LINE
  5
241
100
AcDbEntity
  8
ASSI
100
AcDbLine
 62
7
  6
CONTINUOUS
 10
64.7851360733
 20
149.2076998181
 11
64.5152026989
 21
149.2076998181
  0
LINE
  5
242
100
AcDbEntity
  8
DRAFT
100
AcDbLine
 62
7
  6
CONTINUOUS
 10
64.5152026989
 20
149.2076998181
 11
64.3652026989
 21
149.2076998181
  0
LINE
  5
243
100
AcDbEntity
  8
DRAFT
100
AcDbLine
 62
7
  6
CONTINUOUS
 10
56.8652026989
 20
149.2076998181
 11
56.7152026989
 21
149.2076998181
  0
LINE
  5
244
100
AcDbEntity
  8
ASSI
100
AcDbLine
 62
7
  6
CONTINUOUS
 10
56.7152026989
 20
149.2076998181
 11
56.4452693246
 21
149.2076998181
  0
LINE
  5
245
100
AcDbEntity
  8
RACCORDO
100
AcDbLine
 62
7
  6
CONTINUOUS
 10
69.8754098515
 20
149.229159284
 11
67.7172847207
 21
149.229159284
  0
LINE
  5
246
100
AcDbEntity
  8
RACCORDO
100
AcDbLine
 62
7
  6
CONTINUOUS
 10
53.5131206772
 20
149.229159284
 11
51.3549955464
 21
149.229159284
  0
LINE
  5
247
100
AcDbEntity
  8
DRAFT
100
AcDbLine
 62
7
  6
CONTINUOUS
 10
49.5152026989
 20
149.2762836045
 11
50.2152026989
 21
149.2762836045
  0
LINE
  5
248
100
AcDbEntity
  8
DRAFT
100
AcDbLine
 62
7
  6
CONTINUOUS
 10
71.0152026989
 20
149.2762836045
 11
71.7152026989
 21
149.2762836045
  0
LINE
  5
249
100
AcDbEntity
  8
RACCORDO
100
AcDbLine
 62
7
  6
CONTINUOUS
 10
66.8152026989
 20
149.3076998181
 11
66.2152026989
 21
149.3076998181
  0
LINE
  5
24A
100
AcDbEntity
  8
RACCORDO
100
AcDbLine
 62
7
  6
CONTINUOUS
 10
55.0152026989
 20
149.3076998181
 11
54.4152026989
 21
149.3076998181
  0
LINE
  5
24B
100
AcDbEntity
  8
DRAFT
100
AcDbLine
 62
7
  6
CONTINUOUS
 10
49.6199330885
 20
149.3076998181
 11
53.1361468414
 21
149.3076998181
  0
LINE
  5
24C
100
AcDbEntity
  8
DRAFT
100
AcDbLine
 62
7
  6
CONTINUOUS
 10
68.0942585565
 20
149.3076998181
 11
71.6104723094
 21
149.3076998181
  0
LINE
  5
24D
100
AcDbEntity
  8
0
100
AcDbLine
 62
7
  6
CONTINUOUS
 10
66.6152026989
 20
149.3576998181
 11
65.3590456697
 21
149.3576998181
  0
LINE
  5
24E
100
AcDbEntity
  8
0
100
AcDbLine
 62
7
  6
CONTINUOUS
 10
65.3477222053
 20
149.3576998181
 11
64.5652026989
 21
149.3576998181
  0
LINE
  5
24F
100
AcDbEntity
  8
0
100
AcDbLine
 62
7
  6
CONTINUOUS
 10
54.6152026989
 20
149.3576998181
 11
55.8713597282
 21
149.3576998181
  0
LINE
  5
250
100
AcDbEntity
  8
0
100
AcDbLine
 62
7
  6
CONTINUOUS
 10
55.8826831926
 20
149.3576998181
 11
56.6652026989
 21
149.3576998181
  0
LINE
  5
251
100
AcDbEntity
  8
ASSI
100
AcDbLine
 62
7
  6
CONTINUOUS
 10
64.5652026989
 20
149.7576998181
 11
56.6652026989
 21
149.7576998181
  0
LINE
  5
252
100
AcDbEntity
  8
0
100
AcDbLine
 62
7
  6
CONTINUOUS
 10
54.6152026989
 20
149.7576998181
 11
66.6152026989
 21
149.7576998181
  0
LINE
  5
253
100
AcDbEntity
  8
RACCORDO
100
AcDbLine
 62
7
  6
CONTINUOUS
 10
54.4152026989
 20
149.8076998181
 11
55.0152026989
 21
149.8076998181
  0
LINE
  5
254
100
AcDbEntity
  8
RACCORDO
100
AcDbLine
 62
7
  6
CONTINUOUS
 10
66.2152026989
 20
149.8076998181
 11
66.8152026989
 21
149.8076998181
  0
LINE
  5
255
100
AcDbEntity
  8
RACCORDO
100
AcDbLine
 62
7
  6
CONTINUOUS
 10
64.7851360733
 20
149.9076998181
 11
64.6265180893
 21
149.9076998181
  0
LINE
  5
256
100
AcDbEntity
  8
ASSI
100
AcDbLine
 62
7
  6
CONTINUOUS
 10
64.7851360733
 20
149.9076998181
 11
64.4812741275
 21
149.9076998181
  0
LINE
  5
257
100
AcDbEntity
  8
ASSI
100
AcDbLine
 62
7
  6
CONTINUOUS
 10
56.4452693246
 20
149.9076998181
 11
56.7491312704
 21
149.9076998181
  0
LWPOLYLINE
  5
258
100
AcDbEntity
  8
ASSI
100
AcDbPolyline
 62
7
  6
CONTINUOUS
 90
25
 70
0
 10
56.6652026989
 20
149.3576998181
 10
56.6856883367
 20
149.3576153696
 10
56.7046549305
 20
149.3573605129
 10
56.7221024804
 20
149.3569330176
 10
56.7379067859
 20
149.3563294316
 10
56.7521920475
 20
149.3555482605
 10
56.7653308665
 20
149.3545931847
 10
56.7773615073
 20
149.3534673378
 10
56.7882457056
 20
149.3521700504
 10
56.7982412689
 20
149.3507022581
 10
56.8073701061
 20
149.3490690373
 10
56.8156103084
 20
149.3472682262
 10
56.8231539575
 20
149.3452863611
 10
56.8300356685
 20
149.3431207717
 10
56.8362208262
 20
149.3407693526
 10
56.8417976673
 20
149.3382125465
 10
56.8467936758
 20
149.3354355669
 10
56.8511813675
 20
149.3324408002
 10
56.8549665262
 20
149.3292328005
 10
56.8581449
 20
149.3258034614
 10
56.8607207406
 20
149.3221530479
 10
56.862712587
 20
149.3183043496
 10
56.8641266186
 20
149.3142669508
 10
56.8649566559
 20
149.310032984
 10
56.8652026989
 20
149.3056030263
  0
LWPOLYLINE
  5
259
100
AcDbEntity
  8
ASSI
100
AcDbPolyline
 62
7
  6
CONTINUOUS
 90
25
 70
0
 10
56.6652026989
 20
149.7576998181
 10
56.6856883367
 20
149.7575478108
 10
56.7046549305
 20
149.7570890687
 10
56.7221024804
 20
149.7563195773
 10
56.7379067859
 20
149.7552331224
 10
56.7521920475
 20
149.7538270144
 10
56.7653308665
 20
149.752107878
 10
56.7773615073
 20
149.7500813535
 10
56.7882457056
 20
149.7477462362
 10
56.7982412689
 20
149.7451042101
 10
56.8073701061
 20
149.7421644127
 10
56.8156103084
 20
149.7389229526
 10
56.8231539575
 20
149.7353555956
 10
56.8300356685
 20
149.7314575345
 10
56.8362208262
 20
149.7272249802
 10
56.8417976673
 20
149.7226227292
 10
56.8467936758
 20
149.717624166
 10
56.8511813675
 20
149.7122335859
 10
56.8549665262
 20
149.7064591865
 10
56.8581449
 20
149.700286376
 10
56.8607207406
 20
149.6937156318
 10
56.862712587
 20
149.6867879747
 10
56.8641266186
 20
149.679520657
 10
56.8649566559
 20
149.6718995167
 10
56.8652026989
 20
149.6639255929
  0
LWPOLYLINE
  5
25A
100
AcDbEntity
  8
ASSI
100
AcDbPolyline
 62
7
  6
CONTINUOUS
 90
25
 70
0
 10
64.6265180893
 20
149.2076998181
 10
64.6298120649
 20
149.2075490705
 10
64.6333780881
 20
149.2070954471
 10
64.6372161588
 20
149.2063369601
 10
64.6413223334
 20
149.2052720473
 10
64.6457005556
 20
149.2038987947
 10
64.6503626565
 20
149.2022141561
 10
64.6553063688
 20
149.2002165287
 10
64.6605339597
 20
149.1979033692
 10
64.6660640622
 20
149.1952681937
 10
64.6718987889
 20
149.1923061826
 10
64.6780360271
 20
149.1890152918
 10
64.6844880713
 20
149.1853917111
 10
64.6912525733
 20
149.1814336082
 10
64.6983318814
 20
149.177136936
 10
64.7057453347
 20
149.1724935312
 10
64.7134912948
 20
149.1675001591
 10
64.7215714001
 20
149.1621528607
 10
64.7300099054
 20
149.1564402291
 10
64.7388080094
 20
149.1503564234
 10
64.7479645133
 20
149.1438983322
 10
64.7575000759
 20
149.1370568957
 10
64.7674215834
 20
149.1298258092
 10
64.7777221495
 20
149.1222023255
 10
64.7884017744
 20
149.1141823745
  0
LWPOLYLINE
  5
25B
100
AcDbEntity
  8
ASSI
100
AcDbPolyline
 62
7
  6
CONTINUOUS
 90
25
 70
0
 10
56.6038873086
 20
149.9076998181
 10
56.6005923797
 20
149.9078506488
 10
56.5970252981
 20
149.9083045175
 10
56.5931860637
 20
149.9090634053
 10
56.5890784127
 20
149.910128912
 10
56.584698609
 20
149.9115029227
 10
56.5800354445
 20
149.9131882778
 10
56.5750914601
 20
149.915186342
 10
56.569864115
 20
149.9174996452
 10
56.5643345782
 20
149.9201347713
 10
56.5585007722
 20
149.923096521
 10
56.5523647746
 20
149.9263868847
 10
56.5459139875
 20
149.9300098408
 10
56.5391507106
 20
149.9339672903
 10
56.5320726441
 20
149.9382632478
 10
56.5246602904
 20
149.9429059605
 10
56.5169152716
 20
149.9478987097
 10
56.5088359655
 20
149.9532454658
 10
56.5003980083
 20
149.9589576851
 10
56.4916001762
 20
149.9650412575
 10
56.4824436929
 20
149.9714993101
 10
56.4729078653
 20
149.9783409003
 10
56.4629857957
 20
149.9855723475
 10
56.4526843817
 20
149.9931964359
 10
56.4420036235
 20
150.0012172617
  0
LINE
  5
25C
100
AcDbEntity
  8
ASSI
100
AcDbLine
 62
253
  6
CONTINUOUS
 10
55.6240914115
 20
148.4631686531
 11
54.9872660834
 21
148.5076998181
  0
LINE
  5
25D
100
AcDbEntity
  8
RACCORDO
100
AcDbLine
 62
7
  6
CONTINUOUS
 10
56.4452693246
 20
149.2076998181
 11
55.0152026989
 21
149.3076998181
  0
LWPOLYLINE
  5
25E
100
AcDbEntity
  8
ASSI
100
AcDbPolyline
 62
7
  6
CONTINUOUS
 90
12
 70
0
 10
56.5048227984
 20
147.6432800166
 10
56.4941034488
 20
147.650645359
 10
56.4827820831
 20
147.6586018053
 10
56.4708587014
 20
147.667160333
 10
56.4583401179
 20
147.6763330712
 10
56.4452195184
 20
147.6861283323
 10
56.4314764595
 20
147.6965496279
 10
56.4171133078
 20
147.7076009684
 10
56.4021276967
 20
147.719292595
 10
56.3864920837
 20
147.7316361269
 10
56.3702087108
 20
147.744634841
 10
56.3532753359
 20
147.7582964375
  0
LINE
  5
25F
100
AcDbEntity
  8
RACCORDO
100
AcDbLine
 62
7
  6
CONTINUOUS
 10
53.2131247895
 20
191.1846777662
 11
53.1361468414
 21
191.1076998181
  0
LINE
  5
260
100
AcDbEntity
  8
RACCORDO
100
AcDbLine
 62
7
  6
CONTINUOUS
 10
53.6152026989
 20
189.8076998181
 11
54.4152026989
 21
190.6076998181
  0
LINE
  5
261
100
AcDbEntity
  8
ASSI
100
AcDbLine
 62
7
  6
CONTINUOUS
 10
55.6240914115
 20
192.020365523
 11
55.748243613
 21
192.1313677121
  0
LINE
  5
262
100
AcDbEntity
  8
ASSI
100
AcDbLine
 62
7
  6
CONTINUOUS
 10
55.748243613
 20
192.1313677121
 11
55.8714275266
 21
192.241148951
  0
LINE
  5
263
100
AcDbEntity
  8
ASSI
100
AcDbLine
 62
7
  6
CONTINUOUS
 10
55.8714275266
 20
192.241148951
 11
55.9596889901
 21
192.3194076081
  0
LINE
  5
264
100
AcDbEntity
  8
ASSI
100
AcDbLine
 62
7
  6
CONTINUOUS
 10
55.9596889901
 20
192.3194076081
 11
56.0428714163
 21
192.3926689577
  0
LINE
  5
265
100
AcDbEntity
  8
ASSI
100
AcDbLine
 62
7
  6
CONTINUOUS
 10
56.0428714163
 20
192.3926689577
 11
56.0952958281
 21
192.4385135648
  0
LINE
  5
266
100
AcDbEntity
  8
ASSI
100
AcDbLine
 62
7
  6
CONTINUOUS
 10
56.0952958281
 20
192.4385135648
 11
56.1452254071
 21
192.4818528906
  0
LINE
  5
267
100
AcDbEntity
  8
ASSI
100
AcDbLine
 62
7
  6
CONTINUOUS
 10
56.1452254071
 20
192.4818528906
 11
56.1925794757
 21
192.5226187009
  0
LINE
  5
268
100
AcDbEntity
  8
ASSI
100
AcDbLine
 62
7
  6
CONTINUOUS
 10
56.1925794757
 20
192.5226187009
 11
56.2370819482
 21
192.5605461672
  0
LINE
  5
269
100
AcDbEntity
  8
ASSI
100
AcDbLine
 62
7
  6
CONTINUOUS
 10
56.2370819482
 20
192.5605461672
 11
56.2786648633
 21
192.5955748483
  0
LINE
  5
26A
100
AcDbEntity
  8
ASSI
100
AcDbLine
 62
7
  6
CONTINUOUS
 10
56.2786648633
 20
192.5955748483
 11
56.3173557246
 21
192.6277293297
  0
LWPOLYLINE
  5
26B
100
AcDbEntity
  8
ASSI
100
AcDbPolyline
 62
7
  6
CONTINUOUS
 90
13
 70
0
 10
56.3173557246
 20
192.6277293297
 10
56.3532753359
 20
192.6571031987
 10
56.3702087108
 20
192.6707647952
 10
56.3864920837
 20
192.6837635093
 10
56.4021276967
 20
192.6961070413
 10
56.4171133078
 20
192.7077986678
 10
56.4314764595
 20
192.7188500083
 10
56.4452195184
 20
192.7292713039
 10
56.4583401179
 20
192.7390665651
 10
56.4708587014
 20
192.7482393032
 10
56.4827820831
 20
192.7567978309
 10
56.4941034488
 20
192.7647542772
 10
56.5048227984
 20
192.7721196196
  0
LINE
  5
26C
100
AcDbEntity
  8
ASSI
100
AcDbLine
 62
7
  6
CONTINUOUS
 10
56.1148525471
 20
190.1650738265
 11
56.1607949248
 21
190.2017293116
  0
LINE
  5
26D
100
AcDbEntity
  8
ASSI
100
AcDbLine
 62
7
  6
CONTINUOUS
 10
56.1607949248
 20
190.2017293116
 11
56.2044262912
 21
190.2362282723
  0
LINE
  5
26E
100
AcDbEntity
  8
ASSI
100
AcDbLine
 62
7
  6
CONTINUOUS
 10
56.2044262912
 20
190.2362282723
 11
56.2456594313
 21
190.2684814762
  0
LINE
  5
26F
100
AcDbEntity
  8
ASSI
100
AcDbLine
 62
7
  6
CONTINUOUS
 10
56.2456594313
 20
190.2684814762
 11
56.284360124
 21
190.2983867266
  0
LWPOLYLINE
  5
270
100
AcDbEntity
  8
ASSI
100
AcDbPolyline
 62
7
  6
CONTINUOUS
 90
10
 70
0
 10
56.284360124
 20
190.2983867266
 10
56.3205948196
 20
190.325985119
 10
56.3377919741
 20
190.3389254733
 10
56.3544017102
 20
190.3513088999
 10
56.370424228
 20
190.3631382778
 10
56.3858597143
 20
190.374416262
 10
56.4007327237
 20
190.3851553048
 10
56.4150515722
 20
190.3953614283
 10
56.4288084323
 20
190.4050355953
 10
56.4420036235
 20
190.4141823745
  0
LWPOLYLINE
  5
271
100
AcDbEntity
  8
ASSI
100
AcDbPolyline
 62
7
  6
CONTINUOUS
 90
25
 70
0
 10
56.4420036235
 20
190.4141823745
 10
56.4526843303
 20
190.4222031603
 10
56.4629857085
 20
190.4298272233
 10
56.4729077582
 20
190.4370586584
 10
56.4824435885
 20
190.443900253
 10
56.4916000903
 20
190.4503583196
 10
56.500397936
 20
190.4564419017
 10
56.5088358887
 20
190.4621541181
 10
56.5169151854
 20
190.467500869
 10
56.5246602086
 20
190.4724936237
 10
56.5320725979
 20
190.4771363617
 10
56.5391507138
 20
190.4814323497
 10
56.545914021
 20
190.4853898146
 10
56.5523647982
 20
190.4890127628
 10
56.5585007666
 20
190.4923031108
 10
56.5643345552
 20
190.4952648536
 10
56.5698641036
 20
190.4978999869
 10
56.575091472
 20
190.5002133003
 10
56.5800354704
 20
190.5022113683
 10
56.5846986278
 20
190.5038967193
 10
56.5890784152
 20
190.5052707245
 10
56.5931860547
 20
190.5063362288
 10
56.5970252872
 20
190.5070951171
 10
56.6005923718
 20
190.5075489868
 10
56.6038873086
 20
190.5076998181
  0
LWPOLYLINE
  5
272
100
AcDbEntity
  8
RACCORDO
100
AcDbPolyline
 62
253
  6
CONTINUOUS
 90
6
 70
0
 10
56.6240515883
 20
150.6843551953
 10
56.6234317402
 20
150.6842403099
 10
56.6220616429
 20
150.6841257095
 10
56.6199423023
 20
150.6840113943
 10
56.6170752797
 20
150.6838972786
 10
56.6134627085
 20
150.6837834479
  0
LINE
  5
273
100
AcDbEntity
  8
RACCORDO
100
AcDbLine
 62
7
  6
CONTINUOUS
 10
55.0152026989
 20
149.8076998181
 11
56.4452693246
 21
149.9076998181
  0
LINE
  5
274
100
AcDbEntity
  8
ASSI
100
AcDbLine
 62
253
  6
CONTINUOUS
 10
54.9872660834
 20
150.6076998181
 11
55.6240914115
 21
150.6522309831
  0
LINE
  5
275
100
AcDbEntity
  8
RACCORDO
100
AcDbLine
 62
253
  6
CONTINUOUS
 10
56.412104881
 20
150.8836674393
 11
56.4033626101
 21
150.883442486
  0
LINE
  5
276
100
AcDbEntity
  8
RACCORDO
100
AcDbLine
 62
253
  6
CONTINUOUS
 10
56.6134627085
 20
150.6837834479
 11
56.6040123401
 21
150.683557412
  0
LWPOLYLINE
  5
277
100
AcDbEntity
  8
RACCORDO
100
AcDbPolyline
 62
253
  6
CONTINUOUS
 90
37
 70
0
 10
64.8063458723
 20
150.8843524377
 10
64.7976226038
 20
150.8841616883
 10
64.7889159395
 20
150.8835906185
 10
64.7802424519
 20
150.8826403155
 10
64.7716186506
 20
150.8813125881
 10
64.7630609504
 20
150.8796099634
 10
64.7545856405
 20
150.8775356824
 10
64.7462088532
 20
150.8750936932
 10
64.7379465331
 20
150.8722886442
 10
64.7298144072
 20
150.8691258744
 10
64.7218279544
 20
150.865611404
 10
64.7140023766
 20
150.8617519227
 10
64.7063525693
 20
150.8575547767
 10
64.6988930935
 20
150.8530279549
 10
64.6916381479
 20
150.8481800741
 10
64.6846015418
 20
150.8430203617
 10
64.6777966691
 20
150.8375586391
 10
64.6712364825
 20
150.8318053023
 10
64.6649334689
 20
150.8257713024
 10
64.6588996258
 20
150.8194681248
 10
64.6531464382
 20
150.8129077673
 10
64.647684857
 20
150.8061027171
 10
64.6425252782
 20
150.7990659272
 10
64.6376775225
 20
150.7918107917
 10
64.6331508176
 20
150.7843511205
 10
64.6289537797
 20
150.7767011126
 10
64.6250943976
 20
150.7688753293
 10
64.6215800175
 20
150.7608886665
 10
64.6184173289
 20
150.7527563265
 10
64.6156123517
 20
150.7444937887
 10
64.6131704251
 20
150.7361167804
 10
64.6110961971
 20
150.7276412467
 10
64.6093936159
 20
150.7190833204
 10
64.6080659223
 20
150.710459291
 10
64.6071156435
 20
150.7017855739
 10
64.6065445883
 20
150.6930786789
 10
64.6063538437
 20
150.6843551793
  0
LINE
  5
278
100
AcDbEntity
  8
RACCORDO
100
AcDbLine
 62
253
  6
CONTINUOUS
 10
56.4033626101
 20
150.883442486
 11
56.3858745152
 21
150.8831106416
  0
LINE
  5
279
100
AcDbEntity
  8
RACCORDO
100
AcDbLine
 62
253
  6
CONTINUOUS
 10
56.6040123401
 20
150.683557412
 11
56.5843311283
 21
150.6832231832
  0
LINE
  5
27A
100
AcDbEntity
  8
RACCORDO
100
AcDbLine
 62
253
  6
CONTINUOUS
 10
56.3858745152
 20
150.8831106416
 11
56.345373106
 21
150.8825778986
  0
LINE
  5
27B
100
AcDbEntity
  8
RACCORDO
100
AcDbLine
 62
253
  6
CONTINUOUS
 10
56.5843311283
 20
150.6832231832
 11
56.5372030492
 21
150.6826847527
  0
LINE
  5
27C
100
AcDbEntity
  8
RACCORDO
100
AcDbLine
 62
253
  6
CONTINUOUS
 10
56.345373106
 20
150.8825778986
 11
56.2528557055
 21
150.8817999541
  0
LINE
  5
27D
100
AcDbEntity
  8
RACCORDO
100
AcDbLine
 62
253
  6
CONTINUOUS
 10
56.5372030492
 20
150.6826847527
 11
56.4266905069
 21
150.6818938422
  0
LINE
  5
27E
100
AcDbEntity
  8
RACCORDO
100
AcDbLine
 62
253
  6
CONTINUOUS
 10
56.2528557055
 20
150.8817999541
 11
56.1130818608
 21
150.8810746016
  0
LINE
  5
27F
100
AcDbEntity
  8
RACCORDO
100
AcDbLine
 62
253
  6
CONTINUOUS
 10
56.4266905069
 20
150.6818938422
 11
56.2567848232
 21
150.6811487238
  0
LINE
  5
280
100
AcDbEntity
  8
RACCORDO
100
AcDbLine
 62
253
  6
CONTINUOUS
 10
56.1130818608
 20
150.8810746016
 11
55.9235107915
 21
150.880505464
  0
LINE
  5
281
100
AcDbEntity
  8
RACCORDO
100
AcDbLine
 62
253
  6
CONTINUOUS
 10
56.2567848232
 20
150.6811487238
 11
55.9983628257
 21
150.6805082109
  0
LINE
  5
282
100
AcDbEntity
  8
RACCORDO
100
AcDbLine
 62
253
  6
CONTINUOUS
 10
55.9235107915
 20
150.880505464
 11
55.7115838974
 21
150.8802261382
  0
LINE
  5
283
100
AcDbEntity
  8
RACCORDO
100
AcDbLine
 62
253
  6
CONTINUOUS
 10
55.9983628257
 20
150.6805082109
 11
55.7061960312
 21
150.6802178921
  0
LINE
  5
284
100
AcDbEntity
  8
0
100
AcDbLine
 62
7
  6
CONTINUOUS
 10
57.1976596203
 20
150.1576998181
 11
64.0327457775
 21
150.1576998181
  0
LINE
  5
285
100
AcDbEntity
  8
DRAFT
100
AcDbLine
 62
7
  6
CONTINUOUS
 10
60.2361468414
 20
150.6009006299
 11
56.7491312704
 21
150.6009006299
  0
LINE
  5
286
100
AcDbEntity
  8
DRAFT
100
AcDbLine
 62
7
  6
CONTINUOUS
 10
53.1361468414
 20
150.6009006299
 11
49.6199330885
 21
150.6009006299
  0
LINE
  5
287
100
AcDbEntity
  8
DRAFT
100
AcDbLine
 62
7
  6
CONTINUOUS
 10
60.9942585565
 20
150.6009006299
 11
64.4812741275
 21
150.6009006299
  0
LINE
  5
288
100
AcDbEntity
  8
DRAFT
100
AcDbLine
 62
7
  6
CONTINUOUS
 10
68.0942585565
 20
150.6009006299
 11
71.6104723094
 21
150.6009006299
  0
LINE
  5
289
100
AcDbEntity
  8
RACCORDO
100
AcDbLine
 62
253
  6
CONTINUOUS
 10
53.6152026989
 20
150.6076998181
 11
54.9872660834
 21
150.6076998181
  0
LINE
  5
28A
100
AcDbEntity
  8
RACCORDO
100
AcDbLine
 62
253
  6
CONTINUOUS
 10
66.2431393145
 20
150.6076998181
 11
67.6152026989
 21
150.6076998181
  0
LINE
  5
28B
100
AcDbEntity
  8
RACCORDO
100
AcDbLine
 62
253
  6
CONTINUOUS
 10
55.7061960312
 20
150.6802178921
 11
53.7172847207
 21
150.6802037496
  0
LINE
  5
28C
100
AcDbEntity
  8
RACCORDO
100
AcDbLine
 62
253
  6
CONTINUOUS
 10
55.7115838974
 20
150.8802261382
 11
53.9997550109
 21
150.880201008
  0
LINE
  5
28D
100
AcDbEntity
  8
RACCORDO
100
AcDbLine
 62
7
  6
CONTINUOUS
 10
54.092976316
 20
150.9564175776
 11
56.5469461515
 21
150.9564175776
  0
LINE
  5
28E
100
AcDbEntity
  8
RACCORDO
100
AcDbLine
 62
7
  6
CONTINUOUS
 10
64.6834592464
 20
150.9564175776
 11
67.1374290819
 21
150.9564175776
  0
LINE
  5
28F
100
AcDbEntity
  8
RACCORDO
100
AcDbLine
 62
253
  6
CONTINUOUS
 10
68.0172806084
 20
151.4775017217
 11
67.2131247895
 21
151.4775017217
  0
LINE
  5
290
100
AcDbEntity
  8
RACCORDO
100
AcDbLine
 62
253
  6
CONTINUOUS
 10
54.0172806084
 20
151.4775017217
 11
53.2131247895
 21
151.4775017217
  0
LINE
  5
291
100
AcDbEntity
  8
RACCORDO
100
AcDbLine
 62
253
  6
CONTINUOUS
 10
67.7172847207
 20
151.7672794696
 11
67.5131206772
 21
151.7672794696
  0
LINE
  5
292
100
AcDbEntity
  8
RACCORDO
100
AcDbLine
 62
253
  6
CONTINUOUS
 10
53.7172847207
 20
151.7672794696
 11
53.5131206772
 21
151.7672794696
  0
LINE
  5
293
100
AcDbEntity
  8
RACCORDO
100
AcDbLine
 62
253
  6
CONTINUOUS
 10
65.5789211845
 20
150.6802053307
 11
67.5131206772
 21
150.6802037496
  0
LINE
  5
294
100
AcDbEntity
  8
RACCORDO
100
AcDbLine
 62
253
  6
CONTINUOUS
 10
65.5843728272
 20
150.8802025888
 11
67.230650387
 21
150.880201008
  0
LINE
  5
295
100
AcDbEntity
  8
RACCORDO
100
AcDbLine
 62
253
  6
CONTINUOUS
 10
65.4969353418
 20
150.6802288823
 11
65.5789211845
 21
150.6802053307
  0
LINE
  5
296
100
AcDbEntity
  8
RACCORDO
100
AcDbLine
 62
253
  6
CONTINUOUS
 10
65.4156861135
 20
150.6802805607
 11
65.4969353418
 21
150.6802288823
  0
LINE
  5
297
100
AcDbEntity
  8
RACCORDO
100
AcDbLine
 62
253
  6
CONTINUOUS
 10
65.4538210674
 20
150.8802778154
 11
65.5843728272
 21
150.8802025888
  0
LINE
  5
298
100
AcDbEntity
  8
RACCORDO
100
AcDbLine
 62
253
  6
CONTINUOUS
 10
65.3357239287
 20
150.6803600107
 11
65.4156861135
 21
150.6802805607
  0
LINE
  5
299
100
AcDbEntity
  8
RACCORDO
100
AcDbLine
 62
253
  6
CONTINUOUS
 10
65.2320424557
 20
150.6805082111
 11
65.3357239287
 21
150.6803600107
  0
LINE
  5
29A
100
AcDbEntity
  8
RACCORDO
100
AcDbLine
 62
253
  6
CONTINUOUS
 10
65.1088974355
 20
150.6807587085
 11
65.2320424557
 21
150.6805082111
  0
LINE
  5
29B
100
AcDbEntity
  8
RACCORDO
100
AcDbLine
 62
253
  6
CONTINUOUS
 10
65.0354245535
 20
150.8814553939
 11
65.4538210674
 21
150.8802778154
  0
LINE
  5
29C
100
AcDbEntity
  8
RACCORDO
100
AcDbLine
 62
253
  6
CONTINUOUS
 10
64.7574435672
 20
150.682178337
 11
65.1088974355
 21
150.6807587085
  0
LINE
  5
29D
100
AcDbEntity
  8
RACCORDO
100
AcDbLine
 62
253
  6
CONTINUOUS
 10
64.9050717895
 20
150.8823737291
 11
65.0354245535
 21
150.8814553939
  0
LINE
  5
29E
100
AcDbEntity
  8
RACCORDO
100
AcDbLine
 62
253
  6
CONTINUOUS
 10
64.6722403532
 20
150.682896858
 11
64.7574435672
 21
150.682178337
  0
LINE
  5
29F
100
AcDbEntity
  8
RACCORDO
100
AcDbLine
 62
253
  6
CONTINUOUS
 10
64.8590521122
 20
150.8828941385
 11
64.9050717895
 21
150.8823737291
  0
LINE
  5
2A0
100
AcDbEntity
  8
RACCORDO
100
AcDbLine
 62
253
  6
CONTINUOUS
 10
64.6387856192
 20
150.6833338
 11
64.6722403532
 21
150.682896858
  0
LINE
  5
2A1
100
AcDbEntity
  8
RACCORDO
100
AcDbLine
 62
253
  6
CONTINUOUS
 10
64.8381197233
 20
150.8832204703
 11
64.8590521122
 21
150.8828941385
  0
LWPOLYLINE
  5
2A2
100
AcDbEntity
  8
RACCORDO
100
AcDbPolyline
 62
7
  6
CONTINUOUS
 90
43
 70
0
 10
56.5469461515
 20
150.9564175776
 10
56.5539684093
 20
150.9562945937
 10
56.5610058836
 20
150.9559242273
 10
56.5680497169
 20
150.9553045312
 10
56.5750960077
 20
150.9544331442
 10
56.5821304484
 20
150.9533091207
 10
56.5891286271
 20
150.9519347523
 10
56.596079218
 20
150.9503116044
 10
56.6029755474
 20
150.9484405606
 10
56.6098006978
 20
150.946325873
 10
56.6165349788
 20
150.9439744182
 10
56.6231811985
 20
150.9413860121
 10
56.6297555375
 20
150.9385529564
 10
56.6362557167
 20
150.9354727482
 10
56.6426647214
 20
150.9321499142
 10
56.6489753696
 20
150.9285849181
 10
56.6551820555
 20
150.9247770761
 10
56.6612705994
 20
150.9207311295
 10
56.667221519
 20
150.916457116
 10
56.673022685
 20
150.9119618191
 10
56.6786685135
 20
150.9072475673
 10
56.6841502347
 20
150.9023193602
 10
56.6894519127
 20
150.8971898698
 10
56.6945729373
 20
150.8918579931
 10
56.699525268
 20
150.8863062358
 10
56.704306083
 20
150.8805287857
 10
56.7088958996
 20
150.8745397622
 10
56.7132798732
 20
150.8683504939
 10
56.7174492297
 20
150.8619653382
 10
56.7213927145
 20
150.8553929414
 10
56.7250940163
 20
150.8486531565
 10
56.7285401398
 20
150.8417649094
 10
56.7317290295
 20
150.8347271616
 10
56.7346604469
 20
150.8275302958
 10
56.7373263102
 20
150.8201793721
 10
56.7397158534
 20
150.8126875984
 10
56.7418221359
 20
150.8050571592
 10
56.7436368268
 20
150.7972930143
 10
56.7451491483
 20
150.7894114343
 10
56.7463490716
 20
150.7814323898
 10
56.7472289112
 20
150.7733709902
 10
56.7477822336
 20
150.7652372649
 10
56.7480025737
 20
150.7570445178
  0
LINE
  5
2A3
100
AcDbEntity
  8
RACCORDO
100
AcDbLine
 62
253
  6
CONTINUOUS
 10
64.6263928806
 20
150.6835574158
 11
64.6387856192
 21
150.6833338
  0
LWPOLYLINE
  5
2A4
100
AcDbEntity
  8
RACCORDO
100
AcDbPolyline
 62
253
  6
CONTINUOUS
 90
43
 70
0
 10
53.7172847207
 20
151.7672794696
 10
53.7284922627
 20
151.7670625081
 10
53.7396841569
 20
151.766441268
 10
53.7508447775
 20
151.7654166168
 10
53.7619585422
 20
151.7639899849
 10
53.7730099344
 20
151.7621633643
 10
53.7839835242
 20
151.7599393052
 10
53.7948639905
 20
151.7573209128
 10
53.8056361423
 20
151.7543118428
 10
53.8162849398
 20
151.7509162965
 10
53.8267955153
 20
151.7471390147
 10
53.8371531942
 20
151.742985271
 10
53.8473435153
 20
151.7384608649
 10
53.8573522511
 20
151.7335721133
 10
53.8671654276
 20
151.7283258416
 10
53.8767693438
 20
151.7227293747
 10
53.8861505911
 20
151.7167905262
 10
53.8952960715
 20
151.7105175879
 10
53.9041930162
 20
151.7039193177
 10
53.9128290036
 20
151.6970049282
 10
53.9211919762
 20
151.689784073
 10
53.929270258
 20
151.6822668338
 10
53.93705257
 20
151.6744637059
 10
53.9445280469
 20
151.6663855839
 10
53.9516862516
 20
151.6580437463
 10
53.9585171898
 20
151.6494498398
 10
53.9650113245
 20
151.640615863
 10
53.9711595886
 20
151.6315541498
 10
53.976953398
 20
151.6222773518
 10
53.9823846636
 20
151.6127984213
 10
53.9874458024
 20
151.6031305924
 10
53.9921297481
 20
151.5932873631
 10
53.996429961
 20
151.5832824765
 10
54.0003404373
 20
151.573129901
 10
54.0038557173
 20
151.5628438115
 10
54.0069708931
 20
151.5524385692
 10
54.0096816152
 20
151.5419287017
 10
54.011984099
 20
151.5313288826
 10
54.0138751299
 20
151.5206539112
 10
54.0153520677
 20
151.5099186916
 10
54.0164128502
 20
151.4991382122
 10
54.0170559964
 20
151.4883275243
 10
54.0172806084
 20
151.4775017217
  0
LINE
  5
2A5
100
AcDbEntity
  8
RACCORDO
100
AcDbLine
 62
253
  6
CONTINUOUS
 10
64.8270423666
 20
150.8834424956
 11
64.8381197233
 21
150.8832204703
  0
LWPOLYLINE
  5
2A6
100
AcDbEntity
  8
RACCORDO
100
AcDbPolyline
 62
7
  6
CONTINUOUS
 90
25
 70
0
 10
67.230650387
 20
150.880201008
 10
67.2333051328
 20
150.8800350239
 10
67.2362103374
 20
150.8796069824
 10
67.2393660008
 20
150.8789099114
 10
67.2427664008
 20
150.8779369263
 10
67.2464172596
 20
150.8766818455
 10
67.2503357433
 20
150.8751397897
 10
67.2545223437
 20
150.8733062801
 10
67.258976569
 20
150.8711764346
 10
67.2637141104
 20
150.8687458378
 10
67.2687263765
 20
150.8660154243
 10
67.2740219585
 20
150.8629784425
 10
67.2796423212
 20
150.8596155241
 10
67.2855911675
 20
150.8559174054
 10
67.2918647945
 20
150.8518817335
 10
67.2984935574
 20
150.8474946657
 10
67.3054878613
 20
150.8427452529
 10
67.3128373013
 20
150.8376342501
 10
67.3205410176
 20
150.8321662765
 10
67.3286023175
 20
150.8263415015
 10
67.3370178937
 20
150.820159479
 10
67.3457769653
 20
150.8136276709
 10
67.3548750133
 20
150.8067561326
 10
67.3643165566
 20
150.7995441099
 10
67.3741043708
 20
150.7919842172
  0
LINE
  5
2A7
100
AcDbEntity
  8
RACCORDO
100
AcDbLine
 62
7
  6
CONTINUOUS
 10
64.7851360733
 20
149.9076998181
 11
66.2152026989
 21
149.8076998181
  0
LINE
  5
2A8
100
AcDbEntity
  8
ASSI
100
AcDbLine
 62
253
  6
CONTINUOUS
 10
65.6063139864
 20
150.6522309831
 11
66.2431393145
 21
150.6076998181
  0
LWPOLYLINE
  5
2A9
100
AcDbEntity
  8
RACCORDO
100
AcDbPolyline
 62
253
  6
CONTINUOUS
 90
7
 70
0
 10
64.6063538051
 20
150.6843551974
 10
64.6069736317
 20
150.684240313
 10
64.6083436991
 20
150.6841257134
 10
64.6104630068
 20
150.6840113985
 10
64.6133300006
 20
150.6838972829
 10
64.616942551
 20
150.683783452
 10
64.6263928806
 20
150.6835574158
  0
LWPOLYLINE
  5
2AA
100
AcDbEntity
  8
ASSI
100
AcDbPolyline
 62
7
  6
CONTINUOUS
 90
8
 70
0
 10
56.4420036235
 20
150.0012172617
 10
56.4288083517
 20
150.0103640934
 10
56.4150514464
 20
150.0200382939
 10
56.4007325884
 20
150.0302444285
 10
56.3858596255
 20
150.0409834417
 10
56.370424222
 20
150.0522613655
 10
56.3544017624
 20
150.0640906976
 10
56.3377920296
 20
150.0764741198
  0
LINE
  5
2AB
100
AcDbEntity
  8
ASSI
100
AcDbLine
 62
7
  6
CONTINUOUS
 10
56.3377920296
 20
150.0764741198
 11
56.3027855834
 21
150.1029260588
  0
LINE
  5
2AC
100
AcDbEntity
  8
ASSI
100
AcDbLine
 62
7
  6
CONTINUOUS
 10
56.3027855834
 20
150.1029260588
 11
56.2653224119
 21
150.1316742912
  0
LINE
  5
2AD
100
AcDbEntity
  8
ASSI
100
AcDbLine
 62
7
  6
CONTINUOUS
 10
56.2653224119
 20
150.1316742912
 11
56.2253551859
 21
150.1627541232
  0
LINE
  5
2AE
100
AcDbEntity
  8
ASSI
100
AcDbLine
 62
7
  6
CONTINUOUS
 10
56.2253551859
 20
150.1627541232
 11
56.1829068279
 21
150.1961460226
  0
LWPOLYLINE
  5
2AF
100
AcDbEntity
  8
ASSI
100
AcDbPolyline
 62
7
  6
CONTINUOUS
 90
3
 70
0
 10
56.1829068279
 20
150.1961460226
 10
56.1380932913
 20
150.2317403971
 10
56.1148525848
 20
150.2503257795
  0
LINE
  5
2B0
100
AcDbEntity
  8
ASSI
100
AcDbLine
 62
7
  6
CONTINUOUS
 10
56.3532753359
 20
147.7582964375
 11
56.3173557246
 21
147.7876703065
  0
LINE
  5
2B1
100
AcDbEntity
  8
ASSI
100
AcDbLine
 62
7
  6
CONTINUOUS
 10
56.3173557246
 20
147.7876703065
 11
56.2786648633
 21
147.8198247879
  0
LINE
  5
2B2
100
AcDbEntity
  8
ASSI
100
AcDbLine
 62
7
  6
CONTINUOUS
 10
56.2786648633
 20
147.8198247879
 11
56.2370819482
 21
147.854853469
  0
LINE
  5
2B3
100
AcDbEntity
  8
ASSI
100
AcDbLine
 62
7
  6
CONTINUOUS
 10
56.2370819482
 20
147.854853469
 11
56.1925794757
 21
147.8927809353
  0
LINE
  5
2B4
100
AcDbEntity
  8
ASSI
100
AcDbLine
 62
7
  6
CONTINUOUS
 10
56.1925794757
 20
147.8927809353
 11
56.1452254071
 21
147.9335467456
  0
LINE
  5
2B5
100
AcDbEntity
  8
ASSI
100
AcDbLine
 62
7
  6
CONTINUOUS
 10
56.1452254071
 20
147.9335467456
 11
56.0952958281
 21
147.9768860714
  0
LINE
  5
2B6
100
AcDbEntity
  8
ASSI
100
AcDbLine
 62
7
  6
CONTINUOUS
 10
56.0952958281
 20
147.9768860714
 11
56.0157370077
 21
148.0465556121
  0
LINE
  5
2B7
100
AcDbEntity
  8
ASSI
100
AcDbLine
 62
7
  6
CONTINUOUS
 10
56.0157370077
 20
148.0465556121
 11
55.9307753812
 21
148.1215662078
  0
LINE
  5
2B8
100
AcDbEntity
  8
ASSI
100
AcDbLine
 62
7
  6
CONTINUOUS
 10
55.9307753812
 20
148.1215662078
 11
55.8409932809
 21
148.2013112634
  0
LINE
  5
2B9
100
AcDbEntity
  8
ASSI
100
AcDbLine
 62
7
  6
CONTINUOUS
 10
55.8409932809
 20
148.2013112634
 11
55.6240914115
 21
148.3950341133
  0
LINE
  5
2BA
100
AcDbEntity
  8
RACCORDO
100
AcDbLine
 62
7
  6
CONTINUOUS
 10
53.1361468414
 20
149.3076998181
 11
53.2131247895
 21
149.23072187
  0
LINE
  5
2BB
100
AcDbEntity
  8
RACCORDO
100
AcDbLine
 62
7
  6
CONTINUOUS
 10
53.6152026989
 20
150.6076998181
 11
54.4152026989
 21
149.8076998181
  0
LINE
  5
2BC
100
AcDbEntity
  8
ASSI
100
AcDbLine
 62
7
  6
CONTINUOUS
 10
55.6240914115
 20
189.7631686531
 11
55.9102089602
 21
189.9990195372
  0
LINE
  5
2BD
100
AcDbEntity
  8
ASSI
100
AcDbLine
 62
7
  6
CONTINUOUS
 10
55.9102089602
 20
189.9990195372
 11
55.9907360646
 21
190.064787732
  0
LINE
  5
2BE
100
AcDbEntity
  8
ASSI
100
AcDbLine
 62
7
  6
CONTINUOUS
 10
55.9907360646
 20
190.064787732
 11
56.0667752073
 21
190.1264206697
  0
LINE
  5
2BF
100
AcDbEntity
  8
ASSI
100
AcDbLine
 62
7
  6
CONTINUOUS
 10
56.0667752073
 20
190.1264206697
 11
56.1148525471
 21
190.1650738265
  0
LINE
  5
2C0
100
AcDbEntity
  8
DRAFT
100
AcDbLine
 62
7
  6
CONTINUOUS
 10
71.6104723094
 20
191.1076998181
 11
71.7152026989
 21
191.1391160317
  0
LWPOLYLINE
  5
2C1
100
AcDbEntity
  8
RACCORDO
100
AcDbPolyline
 62
253
  6
CONTINUOUS
 90
7
 70
0
 10
56.4240595256
 20
150.8843524377
 10
56.4235617428
 20
150.8842375713
 10
56.4224660967
 20
150.8841229849
 10
56.4207725875
 20
150.8840086784
 10
56.4184790468
 20
150.8838945648
 10
56.4155876429
 20
150.8837807312
 10
56.412104881
 20
150.8836674393
  0
LINE
  5
2C2
100
AcDbEntity
  8
RACCORDO
100
AcDbLine
 62
7
  6
CONTINUOUS
 10
71.0354155302
 20
153.7080907887
 11
70.5288275746
 21
153.618765664
  0
LINE
  5
2C3
100
AcDbEntity
  8
DRAFT
100
AcDbLine
 62
253
  6
CONTINUOUS
 10
71.5958182983
 20
153.0979161621
 11
68.0986543536
 21
153.0979161621
  0
LINE
  5
2C4
100
AcDbEntity
  8
DRAFT
100
AcDbLine
 62
253
  6
CONTINUOUS
 10
53.1317510432
 20
153.0979161984
 11
49.6345870962
 21
153.0979161279
  0
LINE
  5
2C5
100
AcDbEntity
  8
DRAFT
100
AcDbLine
 62
253
  6
CONTINUOUS
 10
54.0986543536
 20
153.0979161621
 11
60.2317510432
 21
153.0979161984
  0
LINE
  5
2C6
100
AcDbEntity
  8
DRAFT
100
AcDbLine
 62
253
  6
CONTINUOUS
 10
60.9986543536
 20
153.0979161621
 11
67.1317510432
 21
153.0979161984
  0
LINE
  5
2C7
100
AcDbEntity
  8
RACCORDO
100
AcDbLine
 62
253
  6
CONTINUOUS
 10
70.5288275746
 20
153.618765664
 11
68.1141209971
 21
153.618765664
  0
LINE
  5
2C8
100
AcDbEntity
  8
RACCORDO
100
AcDbLine
 62
253
  6
CONTINUOUS
 10
67.1162844008
 20
153.618765664
 11
61.0141209971
 21
153.618765664
  0
LINE
  5
2C9
100
AcDbEntity
  8
RACCORDO
100
AcDbLine
 62
253
  6
CONTINUOUS
 10
60.2162844008
 20
153.618765664
 11
54.1141209971
 21
153.618765664
  0
LINE
  5
2CA
100
AcDbEntity
  8
RACCORDO
100
AcDbLine
 62
253
  6
CONTINUOUS
 10
53.1162844008
 20
153.618765664
 11
50.7015778233
 21
153.618765664
  0
LWPOLYLINE
  5
2CB
100
AcDbEntity
  8
RACCORDO
100
AcDbPolyline
 62
253
  6
CONTINUOUS
 90
43
 70
0
 10
67.7172847207
 20
151.7672794696
 10
67.7284922627
 20
151.7670625081
 10
67.7396841569
 20
151.766441268
 10
67.7508447775
 20
151.7654166168
 10
67.7619585422
 20
151.7639899849
 10
67.7730099344
 20
151.7621633643
 10
67.7839835242
 20
151.7599393052
 10
67.7948639905
 20
151.7573209128
 10
67.8056361423
 20
151.7543118428
 10
67.8162849398
 20
151.7509162965
 10
67.8267955153
 20
151.7471390147
 10
67.8371531942
 20
151.742985271
 10
67.8473435153
 20
151.7384608649
 10
67.8573522511
 20
151.7335721133
 10
67.8671654276
 20
151.7283258416
 10
67.8767693438
 20
151.7227293747
 10
67.8861505911
 20
151.7167905262
 10
67.8952960715
 20
151.7105175879
 10
67.9041930162
 20
151.7039193177
 10
67.9128290036
 20
151.6970049282
 10
67.9211919762
 20
151.689784073
 10
67.929270258
 20
151.6822668338
 10
67.93705257
 20
151.6744637059
 10
67.9445280469
 20
151.6663855839
 10
67.9516862516
 20
151.6580437463
 10
67.9585171898
 20
151.6494498398
 10
67.9650113245
 20
151.640615863
 10
67.9711595886
 20
151.6315541498
 10
67.976953398
 20
151.6222773518
 10
67.9823846636
 20
151.6127984213
 10
67.9874458024
 20
151.6031305924
 10
67.9921297481
 20
151.5932873631
 10
67.996429961
 20
151.5832824765
 10
68.0003404373
 20
151.573129901
 10
68.0038557173
 20
151.5628438115
 10
68.0069708931
 20
151.5524385692
 10
68.0096816152
 20
151.5419287017
 10
68.011984099
 20
151.5313288826
 10
68.0138751299
 20
151.5206539112
 10
68.0153520677
 20
151.5099186916
 10
68.0164128502
 20
151.4991382122
 10
68.0170559964
 20
151.4883275243
 10
68.0172806084
 20
151.4775017217
  0
LINE
  5
2CC
100
AcDbEntity
  8
RACCORDO
100
AcDbLine
 62
7
  6
CONTINUOUS
 10
50.7015778233
 20
153.618765664
 11
50.1949898677
 21
153.7080907887
  0
LWPOLYLINE
  5
2CD
100
AcDbEntity
  8
RACCORDO
100
AcDbPolyline
 62
253
  6
CONTINUOUS
 90
8
 70
0
 10
64.8063458723
 20
150.8843524377
 10
64.8068435924
 20
150.8842375757
 10
64.8079391797
 20
150.8841229926
 10
64.809632634
 20
150.8840086884
 10
64.8119261256
 20
150.8838945755
 10
64.8148174842
 20
150.8837807415
 10
64.8183001994
 20
150.8836674491
 10
64.8270423666
 20
150.8834424956
  0
LINE
  5
2CE
100
AcDbEntity
  8
DRAFT
100
AcDbLine
 62
7
  6
CONTINUOUS
 10
71.7152026989
 20
149.2762836045
 11
71.6104723094
 21
149.3076998181
  0
LINE
  5
2CF
100
AcDbEntity
  8
ASSI
100
AcDbLine
 62
7
  6
CONTINUOUS
 10
56.1148525848
 20
150.2503257795
 11
56.0419491003
 21
150.3090462479
  0
LINE
  5
2D0
100
AcDbEntity
  8
ASSI
100
AcDbLine
 62
7
  6
CONTINUOUS
 10
56.0419491003
 20
150.3090462479
 11
55.9643889007
 21
150.3720877206
  0
LINE
  5
2D1
100
AcDbEntity
  8
ASSI
100
AcDbLine
 62
7
  6
CONTINUOUS
 10
55.9643889007
 20
150.3720877206
 11
55.8825003695
 21
150.4391091769
  0
LINE
  5
2D2
100
AcDbEntity
  8
ASSI
100
AcDbLine
 62
7
  6
CONTINUOUS
 10
55.8825003695
 20
150.4391091769
 11
55.7394038922
 21
150.5569392491
  0
LINE
  5
2D3
100
AcDbEntity
  8
ASSI
100
AcDbLine
 62
7
  6
CONTINUOUS
 10
55.7394038922
 20
150.5569392491
 11
55.6240914115
 21
150.6522309831
  0
LINE
  5
2D4
100
AcDbEntity
  8
RACCORDO
100
AcDbLine
 62
253
  6
CONTINUOUS
 10
64.6063538051
 20
189.7310444343
 11
64.4824028242
 21
189.6583551184
  0
LINE
  5
2D5
100
AcDbEntity
  8
0
100
AcDbLine
 62
7
  6
CONTINUOUS
 10
49.6949898677
 20
153.7080907887
 11
50.1949898677
 21
153.7080907887
  0
LINE
  5
2D6
100
AcDbEntity
  8
0
100
AcDbLine
 62
7
  6
CONTINUOUS
 10
71.0354155302
 20
153.7080907887
 11
71.5406520497
 21
153.7080907887
  0
LINE
  5
2D7
100
AcDbEntity
  8
RACCORDO
100
AcDbLine
 62
253
  6
CONTINUOUS
 10
70.7354155302
 20
153.8649676023
 11
68.1152026989
 21
153.8649676023
  0
LINE
  5
2D8
100
AcDbEntity
  8
RACCORDO
100
AcDbLine
 62
253
  6
CONTINUOUS
 10
67.1152026989
 20
153.8649676023
 11
61.0152026989
 21
153.8649676023
  0
LINE
  5
2D9
100
AcDbEntity
  8
RACCORDO
100
AcDbLine
 62
253
  6
CONTINUOUS
 10
60.2152026989
 20
153.8649676023
 11
54.1152026989
 21
153.8649676023
  0
LINE
  5
2DA
100
AcDbEntity
  8
RACCORDO
100
AcDbLine
 62
253
  6
CONTINUOUS
 10
53.1152026989
 20
153.8649676023
 11
50.4949898677
 21
153.8649676023
  0
LINE
  5
2DB
100
AcDbEntity
  8
RACCORDO
100
AcDbLine
 62
253
  6
CONTINUOUS
 10
64.4824028242
 20
150.7570445178
 11
64.6063538051
 21
150.6843552019
  0
LWPOLYLINE
  5
2DC
100
AcDbEntity
  8
ASSI
100
AcDbPolyline
 62
7
  6
CONTINUOUS
 90
8
 70
0
 10
64.7884017744
 20
149.1141823745
 10
64.8015945141
 20
149.105037283
 10
64.8153490004
 20
149.0953648266
 10
64.8296655544
 20
149.0851604145
 10
64.844536146
 20
149.0744231779
 10
64.859969296
 20
149.0631469666
 10
64.8759901757
 20
149.0513189264
 10
64.8925993472
 20
149.0389360532
  0
LINE
  5
2DD
100
AcDbEntity
  8
ASSI
100
AcDbLine
 62
7
  6
CONTINUOUS
 10
65.6063139864
 20
191.9522309831
 11
65.3202075561
 21
191.71638917
  0
LINE
  5
2DE
100
AcDbEntity
  8
ASSI
100
AcDbLine
 62
7
  6
CONTINUOUS
 10
65.3202075561
 20
191.71638917
 11
65.2396695756
 21
191.6506120625
  0
LINE
  5
2DF
100
AcDbEntity
  8
ASSI
100
AcDbLine
 62
7
  6
CONTINUOUS
 10
65.2396695756
 20
191.6506120625
 11
65.1636196946
 21
191.5889705033
  0
LINE
  5
2E0
100
AcDbEntity
  8
ASSI
100
AcDbLine
 62
7
  6
CONTINUOUS
 10
65.1636196946
 20
191.5889705033
 11
65.0923018027
 21
191.5317322148
  0
LINE
  5
2E1
100
AcDbEntity
  8
ASSI
100
AcDbLine
 62
7
  6
CONTINUOUS
 10
65.0923018027
 20
191.5317322148
 11
65.0474920114
 21
191.4961408371
  0
LINE
  5
2E2
100
AcDbEntity
  8
ASSI
100
AcDbLine
 62
7
  6
CONTINUOUS
 10
65.0474920114
 20
191.4961408371
 11
65.0050453339
 21
191.4627503305
  0
LINE
  5
2E3
100
AcDbEntity
  8
ASSI
100
AcDbLine
 62
7
  6
CONTINUOUS
 10
65.0050453339
 20
191.4627503305
 11
64.9650770243
 21
191.4316696451
  0
LINE
  5
2E4
100
AcDbEntity
  8
ASSI
100
AcDbLine
 62
7
  6
CONTINUOUS
 10
64.9650770243
 20
191.4316696451
 11
64.9276107191
 21
191.4029191309
  0
LWPOLYLINE
  5
2E5
100
AcDbEntity
  8
ASSI
100
AcDbPolyline
 62
7
  6
CONTINUOUS
 90
9
 70
0
 10
64.9276107191
 20
191.4029191309
 10
64.8926028965
 20
191.3764662446
 10
64.8759933414
 20
191.3640830589
 10
64.8599720962
 20
191.3522547307
 10
64.8445385954
 20
191.3409782449
 10
64.8296675584
 20
191.3302406599
 10
64.8153504289
 20
191.3200358103
 10
64.8015952742
 20
191.3103628702
 10
64.7884017744
 20
191.3012172617
  0
LWPOLYLINE
  5
2E6
100
AcDbEntity
  8
ASSI
100
AcDbPolyline
 62
7
  6
CONTINUOUS
 90
25
 70
0
 10
64.7884017744
 20
191.3012172617
 10
64.777722209
 20
191.293197357
 10
64.7674216842
 20
191.2855739026
 10
64.7575001999
 20
191.2783428302
 10
64.7479646348
 20
191.2715013892
 10
64.7388081102
 20
191.2650432823
 10
64.7300099907
 20
191.2589594655
 10
64.7215714893
 20
191.2532468362
 10
64.7134913929
 20
191.2478995425
 10
64.7057454277
 20
191.2429061641
 10
64.6983319374
 20
191.238262733
 10
64.6912525782
 20
191.2339660291
 10
64.6844880443
 20
191.2300079096
 10
64.6780360091
 20
191.2263843363
 10
64.6718987992
 20
191.2230934605
 10
64.6660640887
 20
191.2201314555
 10
64.6605339726
 20
191.2174962718
 10
64.655306356
 20
191.215183101
 10
64.6503626283
 20
191.2131854693
 10
64.6457005349
 20
191.2115008352
 10
64.6413223304
 20
191.2101275886
 10
64.6372161682
 20
191.2090626783
 10
64.6333780996
 20
191.2083041908
 10
64.6298120733
 20
191.2078505663
 10
64.6265180893
 20
191.2076998181
  0
LINE
  5
2E7
100
AcDbEntity
  8
RACCORDO
100
AcDbLine
 62
253
  6
CONTINUOUS
 10
64.8063458723
 20
189.5310471985
 11
64.6834592464
 21
189.4589820587
  0
LINE
  5
2E8
100
AcDbEntity
  8
0
100
AcDbLine
 62
7
  6
CONTINUOUS
 10
68.7152026989
 20
156.2076998181
 11
70.1152026989
 21
156.2076998181
  0
LINE
  5
2E9
100
AcDbEntity
  8
0
100
AcDbLine
 62
7
  6
CONTINUOUS
 10
70.1152026989
 20
156.3968348181
 11
69.5243616989
 21
156.3968348181
  0
LINE
  5
2EA
100
AcDbEntity
  8
0
100
AcDbLine
 62
7
  6
CONTINUOUS
 10
69.3625296989
 20
156.3968348181
 11
68.8770346989
 21
156.3968348181
  0
LINE
  5
2EB
100
AcDbEntity
  8
RACCORDO
100
AcDbLine
 62
7
  6
CONTINUOUS
 10
53.4148002556
 20
156.7987344743
 11
53.8156051423
 21
156.7987344743
  0
LINE
  5
2EC
100
AcDbEntity
  8
RACCORDO
100
AcDbLine
 62
7
  6
CONTINUOUS
 10
67.4148002556
 20
156.7987344743
 11
67.8156051423
 21
156.7987344743
  0
LWPOLYLINE
  5
2ED
100
AcDbEntity
  8
0
100
AcDbPolyline
 62
7
  6
CONTINUOUS
 90
46
 70
0
 10
69.1197822489
 20
157.2522471107
 10
69.1043909597
 20
157.2523399102
 10
69.0890780468
 20
157.2519114085
 10
69.0738435102
 20
157.2509616055
 10
69.05865071
 20
157.2494817963
 10
69.0435362862
 20
157.2474806858
 10
69.0286101582
 20
157.2449843887
 10
69.013880597
 20
157.2419882259
 10
68.9993393317
 20
157.2384968765
 10
68.9850714694
 20
157.2345504918
 10
68.9710639379
 20
157.2301358917
 10
68.9573298095
 20
157.2252662563
 10
68.9439934076
 20
157.2200212782
 10
68.9310497141
 20
157.2143866725
 10
68.9185037472
 20
157.2083767241
 10
68.9064948846
 20
157.2021139802
 10
68.8951095705
 20
157.1956477948
 10
68.8842613607
 20
157.1889288139
 10
68.8738303009
 20
157.1819315225
 10
68.863822952
 20
157.1746762769
 10
68.8542327531
 20
157.1671427208
 10
68.8449200668
 20
157.1592442713
 10
68.8358302878
 20
157.1509474432
 10
68.8270180214
 20
157.1422857217
 10
68.8185074463
 20
157.1332729787
 10
68.8103096731
 20
157.1239321522
 10
68.8024135911
 20
157.1142403041
 10
68.7948100471
 20
157.1041424923
 10
68.7875122514
 20
157.0936710762
 10
68.7805069937
 20
157.0827936964
 10
68.7737454894
 20
157.0713583324
 10
68.7671888525
 20
157.0593154914
 10
68.760875969
 20
157.0467146664
 10
68.7548747133
 20
157.0335523153
 10
68.749175204
 20
157.0198032896
 10
68.7437873225
 20
157.0054927378
 10
68.7388085865
 20
156.9906925635
 10
68.734247918
 20
156.9754114499
 10
68.7300963949
 20
156.9596407137
 10
68.7264247693
 20
156.9434262089
 10
68.723234835
 20
156.9267632439
 10
68.7205247981
 20
156.9096565102
 10
68.718360029
 20
156.8921659363
 10
68.7167623178
 20
156.8743114982
 10
68.7157098745
 20
156.8560732198
 10
68.7152026989
 20
156.8374511012
  0
LWPOLYLINE
  5
2EE
100
AcDbEntity
  8
0
100
AcDbPolyline
 62
7
  6
CONTINUOUS
 90
46
 70
0
 10
69.1197822489
 20
157.0573940327
 10
69.1310314678
 20
157.0572890919
 10
69.1418840453
 20
157.0569681545
 10
69.1523399814
 20
157.0564312203
 10
69.1624075058
 20
157.0556887895
 10
69.1720783888
 20
157.0547303619
 10
69.1813279413
 20
157.0535244377
 10
69.1901107223
 20
157.0520659939
 10
69.1984721727
 20
157.0503600535
 10
69.2065239263
 20
157.0483901848
 10
69.2142455591
 20
157.046157592
 10
69.221657495
 20
157.0436610709
 10
69.2289326393
 20
157.0408805778
 10
69.2361275436
 20
157.0378079688
 10
69.2431856562
 20
157.0344513878
 10
69.250110227
 20
157.0308152225
 10
69.2569336296
 20
157.0268799919
 10
69.2636234903
 20
157.0226651772
 10
69.2700859375
 20
157.0182336087
 10
69.2762970943
 20
157.0135957847
 10
69.2822808375
 20
157.0087412071
 10
69.2880149263
 20
157.0037012113
 10
69.2934725728
 20
156.9985089369
 10
69.2986805647
 20
156.9931312444
 10
69.3036970242
 20
156.9875000506
 10
69.3085297559
 20
156.9816197283
 10
69.3131709552
 20
156.9754859048
 10
69.3176553296
 20
156.9690173791
 10
69.3220096059
 20
156.9621862997
 10
69.3262070574
 20
156.955020518
 10
69.3302022113
 20
156.9475223879
 10
69.3339863216
 20
156.9397230425
 10
69.3375681344
 20
156.9315913485
 10
69.3409284159
 20
156.9230362602
 10
69.3440658166
 20
156.9140647506
 10
69.3469816861
 20
156.9046698465
 10
69.3496608395
 20
156.8947395833
 10
69.3521001321
 20
156.8842369232
 10
69.3543027087
 20
156.8731989038
 10
69.3562628188
 20
156.8616246738
 10
69.3579930079
 20
156.8495119482
 10
69.3594807305
 20
156.8368630119
 10
69.3606825996
 20
156.8236838681
 10
69.3615841528
 20
156.8099765176
 10
69.3621998526
 20
156.7957389596
 10
69.3625296989
 20
156.780971194
  0
LINE
  5
2EF
100
AcDbEntity
  8
ASSI
100
AcDbLine
 62
7
  6
CONTINUOUS
 10
51.0650956989
 20
158.3525768181
 11
52.6144116989
 21
157.8551528181
  0
LINE
  5
2F0
100
AcDbEntity
  8
ASSI
100
AcDbLine
 62
7
  6
CONTINUOUS
 10
53.3151966989
 20
158.0801638181
 11
51.0650956989
 21
158.8025988181
  0
LINE
  5
2F1
100
AcDbEntity
  8
RACCORDO
100
AcDbLine
 62
253
  6
CONTINUOUS
 10
64.6834592464
 20
150.9564175776
 11
64.8063458723
 21
150.8843524377
  0
LINE
  5
2F2
100
AcDbEntity
  8
ASSI
100
AcDbLine
 62
7
  6
CONTINUOUS
 10
64.8925993472
 20
149.0389360532
 11
64.9276062575
 21
149.0124839037
  0
LINE
  5
2F3
100
AcDbEntity
  8
ASSI
100
AcDbLine
 62
7
  6
CONTINUOUS
 10
64.9276062575
 20
149.0124839037
 11
64.9650710895
 21
148.9837345757
  0
LINE
  5
2F4
100
AcDbEntity
  8
ASSI
100
AcDbLine
 62
7
  6
CONTINUOUS
 10
64.9650710895
 20
148.9837345757
 11
65.0050375135
 21
148.9526554172
  0
LINE
  5
2F5
100
AcDbEntity
  8
ASSI
100
AcDbLine
 62
7
  6
CONTINUOUS
 10
65.0050375135
 20
148.9526554172
 11
65.0474821716
 21
148.9192665788
  0
LINE
  5
2F6
100
AcDbEntity
  8
ASSI
100
AcDbLine
 62
7
  6
CONTINUOUS
 10
65.0474821716
 20
148.9192665788
 11
65.0922907423
 21
148.8836762445
  0
LINE
  5
2F7
100
AcDbEntity
  8
ASSI
100
AcDbLine
 62
7
  6
CONTINUOUS
 10
65.0922907423
 20
148.8836762445
 11
65.1636084428
 21
148.8264382215
  0
LINE
  5
2F8
100
AcDbEntity
  8
ASSI
100
AcDbLine
 62
7
  6
CONTINUOUS
 10
65.1636084428
 20
148.8264382215
 11
65.2396574429
 21
148.7647974526
  0
LINE
  5
2F9
100
AcDbEntity
  8
ASSI
100
AcDbLine
 62
7
  6
CONTINUOUS
 10
65.2396574429
 20
148.7647974526
 11
65.3201910068
 21
148.6990240165
  0
LINE
  5
2FA
100
AcDbEntity
  8
ASSI
100
AcDbLine
 62
7
  6
CONTINUOUS
 10
65.3201910068
 20
148.6990240165
 11
65.4331533591
 21
148.6061700836
  0
LINE
  5
2FB
100
AcDbEntity
  8
ASSI
100
AcDbLine
 62
7
  6
CONTINUOUS
 10
65.4331533591
 20
148.6061700836
 11
65.6063139864
 21
148.4631686531
  0
LINE
  5
2FC
100
AcDbEntity
  8
RACCORDO
100
AcDbLine
 62
7
  6
CONTINUOUS
 10
48.2152026989
 20
193.9576998181
 11
48.2152026989
 21
146.4576998181
  0
LINE
  5
2FD
100
AcDbEntity
  8
DRAFT
100
AcDbLine
 62
7
  6
CONTINUOUS
 10
49.5152026989
 20
149.2762836045
 11
49.5152026989
 21
191.1391160317
  0
LINE
  5
2FE
100
AcDbEntity
  8
DRAFT
100
AcDbLine
 62
7
  6
CONTINUOUS
 10
49.6199330885
 20
149.3076998181
 11
49.6199330885
 21
150.6009006299
  0
LINE
  5
2FF
100
AcDbEntity
  8
DRAFT
100
AcDbLine
 62
7
  6
CONTINUOUS
 10
49.6199330885
 20
189.8144990063
 11
49.6199330885
 21
191.1076998181
  0
LWPOLYLINE
  5
300
100
AcDbEntity
  8
ASSI
100
AcDbPolyline
 62
7
  6
CONTINUOUS
 90
37
 70
0
 10
53.4081139228
 20
180.0659927727
 10
53.4012702563
 20
180.0563294122
 10
53.3976456818
 20
180.0513232749
 10
53.3938277891
 20
180.0461975302
 10
53.3898537692
 20
180.040947608
 10
53.385686431
 20
180.0355780783
 10
53.3811690122
 20
180.0300988214
 10
53.3762693172
 20
180.0244666174
 10
53.3710195414
 20
180.0187246862
 10
53.3653595095
 20
180.0130125672
 10
53.3591808874
 20
180.0072814505
 10
53.352592009
 20
180.0015801462
 10
53.3458577008
 20
179.9961946239
 10
53.3390249032
 20
179.9912015745
 10
53.3320466758
 20
179.9865243072
 10
53.325047023
 20
179.9822187196
 10
53.3181347725
 20
179.9783367482
 10
53.3112010966
 20
179.9748264565
 10
53.3040435174
 20
179.9715879319
 10
53.2966763768
 20
179.9686189411
 10
53.2890853328
 20
179.9659217175
 10
53.281024882
 20
179.9634030484
 10
53.2722784886
 20
179.961033141
 10
53.2630626883
 20
179.9588417881
 10
53.2537815843
 20
179.9568251558
 10
53.2444492221
 20
179.9549768485
 10
53.2350515562
 20
179.9533032617
 10
53.225950554
 20
179.9518197475
 10
53.2172595764
 20
179.9504955635
 10
53.2088652624
 20
179.9493614522
 10
53.2007894965
 20
179.9485249933
 10
53.1930833685
 20
179.9480191236
 10
53.1856957885
 20
179.9478109064
 10
53.1784953712
 20
179.9479091112
 10
53.1714716641
 20
179.9483235377
 10
53.1646351199
 20
179.9490443862
 10
53.157885711
 20
179.9500510276
  0
LINE
  5
301
100
AcDbEntity
  8
0
100
AcDbLine
 62
7
  6
CONTINUOUS
 10
55.8386069276
 20
181.1451996989
 11
55.7109473684
 21
181.0201998181
  0
LINE
  5
302
100
AcDbEntity
  8
RACCORDO
100
AcDbLine
 62
7
  6
CONTINUOUS
 10
67.4282928685
 20
189.666288385
 11
67.4056415201
 21
189.6481959336
  0
LINE
  5
303
100
AcDbEntity
  8
RACCORDO
100
AcDbLine
 62
7
  6
CONTINUOUS
 10
67.4056415201
 20
189.6481959336
 11
67.3843492814
 21
189.6314004077
  0
LWPOLYLINE
  5
304
100
AcDbEntity
  8
RACCORDO
100
AcDbPolyline
 62
7
  6
CONTINUOUS
 90
25
 70
0
 10
67.3843492814
 20
189.6314004077
 10
67.3644285139
 20
189.6159415344
 10
67.3549905427
 20
189.6087312719
 10
67.3458959356
 20
189.6018612603
 10
67.3371408333
 20
189.5953312492
 10
67.3287290951
 20
189.5891506569
 10
67.3206697999
 20
189.5833256279
 10
67.3129653496
 20
189.577855313
 10
67.3056133424
 20
189.5727406669
 10
67.2986156514
 20
189.5679869
 10
67.2919814661
 20
189.563593813
 10
67.285701597
 20
189.5595517659
 10
67.2797503495
 20
189.5558500921
 10
67.2741342153
 20
189.5524872522
 10
67.2688467026
 20
189.5494516226
 10
67.2638426415
 20
189.5467218953
 10
67.2591143524
 20
189.5442919808
 10
67.2546695149
 20
189.5421614096
 10
67.2504859983
 20
189.5403225618
 10
67.2465630181
 20
189.5387719058
 10
67.2429013589
 20
189.5375059534
 10
67.2394812439
 20
189.5365192422
 10
67.2362960807
 20
189.5358080884
 10
67.2333524618
 20
189.5353692648
 10
67.230650387
 20
189.5351986282
  0
LINE
  5
305
100
AcDbEntity
  8
0
100
AcDbLine
 62
7
  6
CONTINUOUS
 10
55.8705218174
 20
180.9576996989
 11
55.9662664869
 21
181.0201998181
  0
LINE
  5
306
100
AcDbEntity
  8
0
100
AcDbLine
 62
7
  6
CONTINUOUS
 10
56.5088197031
 20
181.1764499373
 11
56.4130750337
 21
181.1139498181
  0
LINE
  5
307
100
AcDbEntity
  8
0
100
AcDbLine
 62
7
  6
CONTINUOUS
 10
56.5088197031
 20
180.9889499373
 11
56.6364793071
 21
181.0514496989
  0
LINE
  5
308
100
AcDbEntity
  8
DRAFT
100
AcDbLine
 62
7
  6
CONTINUOUS
 10
55.0152026989
 20
157.7076998181
 11
66.2152026989
 21
157.7076998181
  0
LINE
  5
309
100
AcDbEntity
  8
0
100
AcDbLine
 62
7
  6
CONTINUOUS
 10
68.7152026989
 20
158.6683398181
 11
68.8828926989
 21
158.6683398181
  0
LINE
  5
30A
100
AcDbEntity
  8
ASSI
100
AcDbLine
 62
7
  6
CONTINUOUS
 10
51.0650956989
 20
159.1026088181
 11
53.3152026989
 21
159.1026028181
  0
LINE
  5
30B
100
AcDbEntity
  8
0
100
AcDbLine
 62
7
  6
CONTINUOUS
 10
68.8828926989
 20
159.1421178181
 11
70.1152026989
 21
159.1421178181
  0
LINE
  5
30C
100
AcDbEntity
  8
ASSI
100
AcDbLine
 62
7
  6
CONTINUOUS
 10
51.0650956989
 20
161.5232938181
 11
52.5304416989
 21
161.1031118181
  0
LINE
  5
30D
100
AcDbEntity
  8
RACCORDO
100
AcDbLine
 62
7
  6
CONTINUOUS
 10
67.3741043708
 20
150.7919842172
 11
67.3947332898
 21
150.7758434552
  0
LWPOLYLINE
  5
30E
100
AcDbEntity
  8
RACCORDO
100
AcDbPolyline
 62
7
  6
CONTINUOUS
 90
3
 70
0
 10
67.3947332898
 20
150.7758434552
 10
67.4167165837
 20
150.7583790326
 10
67.4282122827
 20
150.7491759862
  0
LINE
  5
30F
100
AcDbEntity
  8
0
100
AcDbLine
 62
7
  6
CONTINUOUS
 10
49.6949898677
 20
186.7073088475
 11
49.6345870996
 21
187.3174834741
  0
LINE
  5
310
100
AcDbEntity
  8
0
100
AcDbLine
 62
7
  6
CONTINUOUS
 10
49.6949898677
 20
153.7080907887
 11
49.6949898677
 21
186.7073088475
  0
LINE
  5
311
100
AcDbEntity
  8
0
100
AcDbLine
 62
7
  6
CONTINUOUS
 10
50.1949898677
 20
153.7080907887
 11
50.1949898677
 21
186.7073088475
  0
LINE
  5
312
100
AcDbEntity
  8
RACCORDO
100
AcDbLine
 62
7
  6
CONTINUOUS
 10
50.2152026989
 20
193.9576998181
 11
50.2152026989
 21
192.7076998181
  0
LINE
  5
313
100
AcDbEntity
  8
DRAFT
100
AcDbLine
 62
7
  6
CONTINUOUS
 10
50.2152026989
 20
192.7076998181
 11
50.2152026989
 21
191.1391160317
  0
LINE
  5
314
100
AcDbEntity
  8
DRAFT
100
AcDbLine
 62
7
  6
CONTINUOUS
 10
50.2152026989
 20
149.2762836045
 11
50.2152026989
 21
147.7076998181
  0
LINE
  5
315
100
AcDbEntity
  8
RACCORDO
100
AcDbLine
 62
7
  6
CONTINUOUS
 10
50.2152026989
 20
147.7076998181
 11
50.2152026989
 21
146.4576998181
  0
LINE
  5
316
100
AcDbEntity
  8
ASSI
100
AcDbLine
 62
253
  6
CONTINUOUS
 10
50.3551478513
 20
192.7076998181
 11
50.3551478513
 21
191.181095698
  0
LINE
  5
317
100
AcDbEntity
  8
ASSI
100
AcDbLine
 62
253
  6
CONTINUOUS
 10
50.3551478513
 20
149.2343039382
 11
50.3551478513
 21
147.7076998181
  0
LINE
  5
318
100
AcDbEntity
  8
RACCORDO
100
AcDbLine
 62
7
  6
CONTINUOUS
 10
50.4949898677
 20
153.8649676023
 11
50.4949898677
 21
186.5504320339
  0
LINE
  5
319
100
AcDbEntity
  8
ASSI
100
AcDbLine
 62
7
  6
CONTINUOUS
 10
51.0650896989
 20
165.7523205559
 11
51.0650896989
 21
164.6985158181
  0
LINE
  5
31A
100
AcDbEntity
  8
ASSI
100
AcDbLine
 62
7
  6
CONTINUOUS
 10
51.0650896989
 20
163.6760708181
 11
51.0650896989
 21
163.2260318181
  0
LINE
  5
31B
100
AcDbEntity
  8
ASSI
100
AcDbLine
 62
7
  6
CONTINUOUS
 10
51.0650956989
 20
162.2035978181
 11
51.0650956989
 21
161.5232938181
  0
LINE
  5
31C
100
AcDbEntity
  8
ASSI
100
AcDbLine
 62
7
  6
CONTINUOUS
 10
51.0650956989
 20
160.6829298181
 11
51.0650956989
 21
160.0026258181
  0
LINE
  5
31D
100
AcDbEntity
  8
ASSI
100
AcDbLine
 62
7
  6
CONTINUOUS
 10
51.0650956989
 20
159.5526258181
 11
51.0650956989
 21
159.1026088181
  0
LINE
  5
31E
100
AcDbEntity
  8
ASSI
100
AcDbLine
 62
7
  6
CONTINUOUS
 10
51.0650956989
 20
158.8025988181
 11
51.0650956989
 21
158.3525768181
  0
LINE
  5
31F
100
AcDbEntity
  8
ASSI
100
AcDbLine
 62
7
  6
CONTINUOUS
 10
51.0650956989
 20
157.3577228181
 11
51.0650956989
 21
156.9076998181
  0
LINE
  5
320
100
AcDbEntity
  8
ASSI
100
AcDbLine
 62
253
  6
CONTINUOUS
 10
51.3549955464
 20
192.7076998181
 11
51.3549955464
 21
191.1862403522
  0
LINE
  5
321
100
AcDbEntity
  8
ASSI
100
AcDbLine
 62
253
  6
CONTINUOUS
 10
51.3549955464
 20
149.229159284
 11
51.3549955464
 21
147.7076998181
  0
LINE
  5
322
100
AcDbEntity
  8
ASSI
100
AcDbLine
 62
7
  6
CONTINUOUS
 10
51.4813566989
 20
165.1423288181
 11
51.4813566989
 21
165.6898252861
  0
LINE
  5
323
100
AcDbEntity
  8
0
100
AcDbLine
 62
7
  6
CONTINUOUS
 10
49.6345870962
 20
153.0979161279
 11
49.6949898677
 21
153.7080907887
  0
LINE
  5
324
100
AcDbEntity
  8
0
100
AcDbLine
 62
7
  6
CONTINUOUS
 10
55.7109473684
 20
181.0201998181
 11
55.6471175888
 21
180.8951999373
  0
LINE
  5
325
100
AcDbEntity
  8
0
100
AcDbLine
 62
7
  6
CONTINUOUS
 10
55.8066920378
 20
180.8639496989
 11
55.8705218174
 21
180.9576996989
  0
LINE
  5
326
100
AcDbEntity
  8
0
100
AcDbLine
 62
7
  6
CONTINUOUS
 10
56.4449899235
 20
180.8951999373
 11
56.5088197031
 21
180.9889499373
  0
LINE
  5
327
100
AcDbEntity
  8
0
100
AcDbLine
 62
7
  6
CONTINUOUS
 10
55.8066920378
 20
179.4889497585
 11
55.8705218174
 21
179.5826997585
  0
LINE
  5
328
100
AcDbEntity
  8
RACCORDO
100
AcDbLine
 62
7
  6
CONTINUOUS
 10
67.6152026989
 20
191.9076998181
 11
66.8152026989
 21
191.1076998181
  0
LINE
  5
329
100
AcDbEntity
  8
0
100
AcDbLine
 62
7
  6
CONTINUOUS
 10
55.8386069276
 20
179.7701999373
 11
55.7109473684
 21
179.6451998777
  0
LINE
  5
32A
100
AcDbEntity
  8
0
100
AcDbLine
 62
7
  6
CONTINUOUS
 10
56.8917984479
 20
180.3326999373
 11
56.8279686459
 21
180.2701998181
  0
LINE
  5
32B
100
AcDbEntity
  8
RACCORDO
100
AcDbLine
 62
7
  6
CONTINUOUS
 10
67.5131206772
 20
189.7351958867
 11
67.4764372743
 21
189.705272228
  0
LWPOLYLINE
  5
32C
100
AcDbEntity
  8
RACCORDO
100
AcDbPolyline
 62
7
  6
CONTINUOUS
 90
3
 70
0
 10
67.4764372743
 20
189.705272228
 10
67.4400105078
 20
189.6757305339
 10
67.4282928685
 20
189.666288385
  0
LINE
  5
32D
100
AcDbEntity
  8
0
100
AcDbLine
 62
7
  6
CONTINUOUS
 10
55.8705218174
 20
178.3639497585
 11
55.7428622582
 21
178.2701997585
  0
LINE
  5
32E
100
AcDbEntity
  8
0
100
AcDbLine
 62
7
  6
CONTINUOUS
 10
55.8705218174
 20
179.5826997585
 11
55.9662664869
 21
179.6451998777
  0
LINE
  5
32F
100
AcDbEntity
  8
0
100
AcDbLine
 62
7
  6
CONTINUOUS
 10
56.8598835581
 20
180.1139496989
 11
56.9556282275
 21
180.1764498181
  0
LINE
  5
330
100
AcDbEntity
  8
0
100
AcDbLine
 62
7
  6
CONTINUOUS
 10
56.5088197031
 20
179.8014498181
 11
56.4130750337
 21
179.7389496989
  0
LINE
  5
331
100
AcDbEntity
  8
0
100
AcDbLine
 62
7
  6
CONTINUOUS
 10
55.8705218174
 20
178.1764498479
 11
55.9662664869
 21
178.2389498777
  0
LINE
  5
332
100
AcDbEntity
  8
0
100
AcDbLine
 62
7
  6
CONTINUOUS
 10
56.8598835581
 20
178.7389497585
 11
56.9556282275
 21
178.8014498777
  0
LINE
  5
333
100
AcDbEntity
  8
0
100
AcDbLine
 62
7
  6
CONTINUOUS
 10
56.8279686459
 20
180.2701998181
 11
56.7641388663
 21
180.2389499373
  0
LINE
  5
334
100
AcDbEntity
  8
0
100
AcDbLine
 62
7
  6
CONTINUOUS
 10
56.5088197031
 20
179.6139498181
 11
56.6364793071
 21
179.6764497585
  0
LINE
  5
335
100
AcDbEntity
  8
0
100
AcDbLine
 62
7
  6
CONTINUOUS
 10
56.8279686459
 20
178.8951998777
 11
56.7641388663
 21
178.8639498181
  0
LINE
  5
336
100
AcDbEntity
  8
0
100
AcDbLine
 62
7
  6
CONTINUOUS
 10
56.5407345929
 20
178.4576997585
 11
56.3811601439
 21
178.3951998181
  0
LINE
  5
337
100
AcDbEntity
  8
0
100
AcDbLine
 62
7
  6
CONTINUOUS
 10
56.7641388663
 20
180.0826998181
 11
56.8598835581
 21
180.1139496989
  0
LINE
  5
338
100
AcDbEntity
  8
0
100
AcDbLine
 62
7
  6
CONTINUOUS
 10
56.7641388663
 20
178.7076998777
 11
56.8598835581
 21
178.7389497585
  0
LINE
  5
339
100
AcDbEntity
  8
0
100
AcDbLine
 62
7
  6
CONTINUOUS
 10
55.9662664869
 20
178.3951998181
 11
55.8705218174
 21
178.3639497585
  0
LINE
  5
33A
100
AcDbEntity
  8
0
100
AcDbLine
 62
7
  6
CONTINUOUS
 10
70.1152026989
 20
159.3312528181
 11
68.8828926989
 21
159.3312528181
  0
LINE
  5
33B
100
AcDbEntity
  8
ASSI
100
AcDbLine
 62
7
  6
CONTINUOUS
 10
53.3151966989
 20
159.5526198181
 11
51.0650956989
 21
159.5526258181
  0
LINE
  5
33C
100
AcDbEntity
  8
0
100
AcDbLine
 62
7
  6
CONTINUOUS
 10
68.8828926989
 20
159.8050308181
 11
68.7152026989
 21
159.8050308181
  0
LINE
  5
33D
100
AcDbEntity
  8
0
100
AcDbLine
 62
7
  6
CONTINUOUS
 10
69.9084916989
 20
160.0020148181
 11
70.1152026989
 21
160.0020148181
  0
LINE
  5
33E
100
AcDbEntity
  8
ASSI
100
AcDbLine
 62
7
  6
CONTINUOUS
 10
51.0650956989
 20
160.0026258181
 11
53.3151966989
 21
160.0026258181
  0
LINE
  5
33F
100
AcDbEntity
  8
0
100
AcDbLine
 62
7
  6
CONTINUOUS
 10
70.1152026989
 20
160.2047468181
 11
69.9084916989
 21
160.2047468181
  0
LINE
  5
340
100
AcDbEntity
  8
ASSI
100
AcDbLine
 62
7
  6
CONTINUOUS
 10
53.3151966989
 20
160.4526428181
 11
51.8314066989
 21
160.4526428181
  0
LINE
  5
341
100
AcDbEntity
  8
0
100
AcDbLine
 62
7
  6
CONTINUOUS
 10
68.7152026989
 20
161.0840998181
 11
70.1152026989
 21
161.0840998181
  0
LINE
  5
342
100
AcDbEntity
  8
ASSI
100
AcDbLine
 62
7
  6
CONTINUOUS
 10
53.3151916989
 20
161.3281118181
 11
51.8314066989
 21
161.7535758181
  0
LINE
  5
343
100
AcDbEntity
  8
ASSI
100
AcDbLine
 62
7
  6
CONTINUOUS
 10
51.0650896989
 20
163.2260318181
 11
53.3151966989
 21
162.5036078181
  0
LINE
  5
344
100
AcDbEntity
  8
ASSI
100
AcDbLine
 62
7
  6
CONTINUOUS
 10
53.3151916989
 20
162.9536238181
 11
52.8726946989
 21
163.0956948181
  0
LINE
  5
345
100
AcDbEntity
  8
ASSI
100
AcDbLine
 62
7
  6
CONTINUOUS
 10
52.4451786989
 20
163.2329618181
 11
51.7658806989
 21
163.4510488181
  0
LINE
  5
346
100
AcDbEntity
  8
RACCORDO
100
AcDbLine
 62
7
  6
CONTINUOUS
 10
67.4282122827
 20
150.7491759862
 11
67.4641486245
 21
150.7201303013
  0
LINE
  5
347
100
AcDbEntity
  8
RACCORDO
100
AcDbLine
 62
7
  6
CONTINUOUS
 10
67.4641486245
 20
150.7201303013
 11
67.5131206772
 21
150.6802037496
  0
LINE
  5
348
100
AcDbEntity
  8
RACCORDO
100
AcDbLine
 62
7
  6
CONTINUOUS
 10
67.6152026989
 20
148.5076998181
 11
66.8152026989
 21
149.3076998181
  0
LINE
  5
349
100
AcDbEntity
  8
RACCORDO
100
AcDbLine
 62
7
  6
CONTINUOUS
 10
54.4066497171
 20
146.9576998181
 11
54.3737710756
 21
147.6432800166
  0
LINE
  5
34A
100
AcDbEntity
  8
RACCORDO
100
AcDbLine
 62
7
  6
CONTINUOUS
 10
53.1317510432
 20
153.0979161984
 11
53.1162844008
 21
153.618765664
  0
LWPOLYLINE
  5
34B
100
AcDbEntity
  8
ASSI
100
AcDbPolyline
 62
7
  6
CONTINUOUS
 90
37
 70
0
 10
51.8158586989
 20
178.461305402
 10
51.8165456481
 20
178.4379111327
 10
51.8173670838
 20
178.4151998003
 10
51.818323006
 20
178.3931714047
 10
51.819348823
 20
178.3717880264
 10
51.8205091265
 20
178.3510875849
 10
51.8219976913
 20
178.3311838391
 10
51.8238664548
 20
178.3121035358
 10
51.8260634795
 20
178.2938199281
 10
51.8286267278
 20
178.2763665344
 10
51.8315867225
 20
178.2597707179
 10
51.8349129409
 20
178.2440051153
 10
51.8385517769
 20
178.2290211558
 10
51.8425066933
 20
178.2148429106
 10
51.8467742274
 20
178.2014463084
 10
51.851290385
 20
178.1887105642
 10
51.8560558008
 20
178.1766184512
 10
51.8610698401
 20
178.1651871961
 10
51.8662666046
 20
178.1543476946
 10
51.8716059705
 20
178.1441434497
 10
51.8771280616
 20
178.1345309584
 10
51.8828873512
 20
178.1253106062
 10
51.8888628749
 20
178.1164779874
 10
51.8950755971
 20
178.1080375078
 10
51.9016428838
 20
178.0998027702
 10
51.9086011045
 20
178.091708818
 10
51.9159138898
 20
178.0838206078
 10
51.9235894972
 20
178.0761466131
 10
51.9316494034
 20
178.0686661997
 10
51.9400721318
 20
178.0614000018
 10
51.94880151
 20
178.0544183957
 10
51.9578451261
 20
178.047723743
 10
51.967195392
 20
178.0413136821
 10
51.9767733708
 20
178.0352515053
 10
51.9865527501
 20
178.02955831
 10
51.9965598422
 20
178.0242129989
 10
52.0067946472
 20
178.0192155719
  0
LINE
  5
34C
100
AcDbEntity
  8
RACCORDO
100
AcDbLine
 62
253
  6
CONTINUOUS
 10
53.1152026989
 20
156.4885725119
 11
53.2131247895
 21
151.4775017217
  0
LINE
  5
34D
100
AcDbEntity
  8
RACCORDO
100
AcDbLine
 62
253
  6
CONTINUOUS
 10
53.4148002556
 20
156.7987344743
 11
53.5131206772
 21
151.7672794696
  0
LINE
  5
34E
100
AcDbEntity
  8
ASSI
100
AcDbLine
 62
7
  6
CONTINUOUS
 10
51.8158586989
 20
180.7437402067
 11
51.8158586989
 21
180.0364964723
  0
LINE
  5
34F
100
AcDbEntity
  8
ASSI
100
AcDbLine
 62
7
  6
CONTINUOUS
 10
51.8158586989
 20
178.9166468181
 11
51.8158586989
 21
178.461305402
  0
LINE
  5
350
100
AcDbEntity
  8
ASSI
100
AcDbLine
 62
7
  6
CONTINUOUS
 10
52.0289056989
 20
165.689874882
 11
52.0289056989
 21
165.1423338181
  0
LINE
  5
351
100
AcDbEntity
  8
ASSI
100
AcDbLine
 62
7
  6
CONTINUOUS
 10
52.4451786989
 20
163.6691468181
 11
52.4451786989
 21
163.2329618181
  0
LINE
  5
352
100
AcDbEntity
  8
ASSI
100
AcDbLine
 62
7
  6
CONTINUOUS
 10
52.4451726989
 20
165.1485888181
 11
52.4451786989
 21
165.5413548181
  0
LINE
  5
353
100
AcDbEntity
  8
DRAFT
100
AcDbLine
 62
7
  6
CONTINUOUS
 10
52.4581071146
 20
192.7076998181
 11
52.4581071146
 21
193.4576998181
  0
LINE
  5
354
100
AcDbEntity
  8
ASSI
100
AcDbLine
 62
7
  6
CONTINUOUS
 10
52.8726946989
 20
163.0956948181
 11
52.8726946989
 21
163.8064188181
  0
LINE
  5
355
100
AcDbEntity
  8
RACCORDO
100
AcDbLine
 62
7
  6
CONTINUOUS
 10
53.1152026989
 20
153.8649676023
 11
53.1152026989
 21
156.4885725119
  0
LINE
  5
356
100
AcDbEntity
  8
RACCORDO
100
AcDbLine
 62
7
  6
CONTINUOUS
 10
53.1152026989
 20
183.9268271244
 11
53.1152026989
 21
186.5504320339
  0
LINE
  5
357
100
AcDbEntity
  8
DRAFT
100
AcDbLine
 62
7
  6
CONTINUOUS
 10
53.1361468414
 20
191.1076998181
 11
53.1361468414
 21
189.8144990063
  0
LINE
  5
358
100
AcDbEntity
  8
DRAFT
100
AcDbLine
 62
7
  6
CONTINUOUS
 10
53.1361468414
 20
149.3076998181
 11
53.1361468414
 21
150.6009006299
  0
LINE
  5
359
100
AcDbEntity
  8
RACCORDO
100
AcDbLine
 62
253
  6
CONTINUOUS
 10
53.2131247895
 20
149.23072187
 11
53.2131247895
 21
151.4775017217
  0
LINE
  5
35A
100
AcDbEntity
  8
RACCORDO
100
AcDbLine
 62
253
  6
CONTINUOUS
 10
53.2131247895
 20
188.9378979145
 11
53.2131247895
 21
191.1846777662
  0
LINE
  5
35B
100
AcDbEntity
  8
ASSI
100
AcDbLine
 62
7
  6
CONTINUOUS
 10
53.3152026989
 20
157.6301298181
 11
53.3151966989
 21
158.0801638181
  0
LINE
  5
35C
100
AcDbEntity
  8
ASSI
100
AcDbLine
 62
7
  6
CONTINUOUS
 10
53.3152026989
 20
159.1026028181
 11
53.3151966989
 21
159.5526198181
  0
LINE
  5
35D
100
AcDbEntity
  8
ASSI
100
AcDbLine
 62
7
  6
CONTINUOUS
 10
53.3151966989
 20
160.8781058181
 11
53.3151916989
 21
161.3281118181
  0
LINE
  5
35E
100
AcDbEntity
  8
ASSI
100
AcDbLine
 62
7
  6
CONTINUOUS
 10
53.3151966989
 20
162.5036078181
 11
53.3151916989
 21
162.9536238181
  0
LINE
  5
35F
100
AcDbEntity
  8
ASSI
100
AcDbLine
 62
7
  6
CONTINUOUS
 10
53.3151916989
 20
165.9923278181
 11
53.3151856989
 21
166.4992028181
  0
LINE
  5
360
100
AcDbEntity
  8
ASSI
100
AcDbLine
 62
7
  6
CONTINUOUS
 10
53.3151916989
 20
164.6985158181
 11
53.3151916989
 21
165.1485388181
  0
LINE
  5
361
100
AcDbEntity
  8
ASSI
100
AcDbLine
 62
7
  6
CONTINUOUS
 10
53.3151966989
 20
160.0026258181
 11
53.3151966989
 21
160.4526428181
  0
LINE
  5
362
100
AcDbEntity
  8
ASSI
100
AcDbLine
 62
7
  6
CONTINUOUS
 10
53.3151966989
 20
161.7535808181
 11
53.3151966989
 21
162.2035978181
  0
LINE
  5
363
100
AcDbEntity
  8
ASSI
100
AcDbLine
 62
7
  6
CONTINUOUS
 10
53.3151916989
 20
163.9484838181
 11
53.3151966989
 21
164.3985068181
  0
LINE
  5
364
100
AcDbEntity
  8
ASSI
100
AcDbLine
 62
7
  6
CONTINUOUS
 10
51.8158586987
 20
182.5167455822
 11
51.8157161989
 21
181.6858038181
  0
LINE
  5
365
100
AcDbEntity
  8
RACCORDO
100
AcDbLine
 62
253
  6
CONTINUOUS
 10
53.2131247895
 20
188.9378979145
 11
53.1152026989
 21
183.9268271244
  0
LINE
  5
366
100
AcDbEntity
  8
RACCORDO
100
AcDbLine
 62
253
  6
CONTINUOUS
 10
53.5131206772
 20
188.6481201666
 11
53.4148002556
 21
183.6166651619
  0
LINE
  5
367
100
AcDbEntity
  8
RACCORDO
100
AcDbLine
 62
7
  6
CONTINUOUS
 10
53.1162844008
 20
186.7966339722
 11
53.1317510443
 21
187.3174834741
  0
LINE
  5
368
100
AcDbEntity
  8
RACCORDO
100
AcDbLine
 62
7
  6
CONTINUOUS
 10
54.3737710756
 20
192.7721196196
 11
54.4066497171
 21
193.4576998181
  0
LINE
  5
369
100
AcDbEntity
  8
0
100
AcDbLine
 62
7
  6
CONTINUOUS
 10
56.4130750337
 20
181.1139498181
 11
56.349245254
 21
180.9576996989
  0
LINE
  5
36A
100
AcDbEntity
  8
0
100
AcDbLine
 62
7
  6
CONTINUOUS
 10
56.4130750337
 20
179.7389496989
 11
56.349245254
 21
179.5826997585
  0
LINE
  5
36B
100
AcDbEntity
  8
0
100
AcDbLine
 62
7
  6
CONTINUOUS
 10
55.7109473684
 20
179.6451998777
 11
55.6471175888
 21
179.5201998181
  0
LINE
  5
36C
100
AcDbEntity
  8
0
100
AcDbLine
 62
7
  6
CONTINUOUS
 10
56.9237133377
 20
180.3951996989
 11
56.8917984479
 21
180.3326999373
  0
LINE
  5
36D
100
AcDbEntity
  8
0
100
AcDbLine
 62
7
  6
CONTINUOUS
 10
57.0194580183
 20
180.2701998181
 11
57.0832878063
 21
180.3951996989
  0
LINE
  5
36E
100
AcDbEntity
  8
0
100
AcDbLine
 62
7
  6
CONTINUOUS
 10
56.9237133377
 20
179.0201997585
 11
56.8917984479
 21
178.9576998181
  0
LINE
  5
36F
100
AcDbEntity
  8
0
100
AcDbLine
 62
7
  6
CONTINUOUS
 10
55.7428622582
 20
178.2701997585
 11
55.6471175888
 21
178.1139498181
  0
LINE
  5
370
100
AcDbEntity
  8
0
100
AcDbLine
 62
7
  6
CONTINUOUS
 10
56.2854154744
 20
178.3014498181
 11
56.189670805
 21
178.1451997883
  0
LINE
  5
371
100
AcDbEntity
  8
0
100
AcDbLine
 62
7
  6
CONTINUOUS
 10
56.4449899235
 20
179.5201998181
 11
56.5088197031
 21
179.6139498181
  0
LINE
  5
372
100
AcDbEntity
  8
0
100
AcDbLine
 62
7
  6
CONTINUOUS
 10
56.9556282275
 20
180.1764498181
 11
57.0194580183
 21
180.2701998181
  0
LINE
  5
373
100
AcDbEntity
  8
0
100
AcDbLine
 62
7
  6
CONTINUOUS
 10
55.8066920378
 20
178.0826998479
 11
55.8705218174
 21
178.1764498479
  0
LINE
  5
374
100
AcDbEntity
  8
0
100
AcDbLine
 62
7
  6
CONTINUOUS
 10
56.349245254
 20
178.1139498181
 11
56.4130750337
 21
178.2076998181
  0
LINE
  5
375
100
AcDbEntity
  8
0
100
AcDbLine
 62
7
  6
CONTINUOUS
 10
56.9556282275
 20
178.8014498777
 11
57.0194580183
 21
178.8951998777
  0
LINE
  5
376
100
AcDbEntity
  8
0
100
AcDbLine
 62
7
  6
CONTINUOUS
 10
56.9237133377
 20
177.7076998479
 11
56.8598835581
 21
177.6139498479
  0
LINE
  5
377
100
AcDbEntity
  8
RACCORDO
100
AcDbLine
 62
7
  6
CONTINUOUS
 10
67.1374290819
 20
189.4589820587
 11
67.2131247895
 21
189.5346777662
  0
LINE
  5
378
100
AcDbEntity
  8
0
100
AcDbLine
 62
7
  6
CONTINUOUS
 10
56.8917984479
 20
178.9576998181
 11
56.8279686459
 21
178.8951998777
  0
LINE
  5
379
100
AcDbEntity
  8
0
100
AcDbLine
 62
7
  6
CONTINUOUS
 10
56.3811601439
 20
178.3951998181
 11
56.2854154744
 21
178.3014498181
  0
LINE
  5
37A
100
AcDbEntity
  8
0
100
AcDbLine
 62
7
  6
CONTINUOUS
 10
56.4130750337
 20
178.2076998181
 11
56.4769048133
 21
178.2701997585
  0
LINE
  5
37B
100
AcDbEntity
  8
0
100
AcDbLine
 62
7
  6
CONTINUOUS
 10
56.8598835581
 20
177.4264498032
 11
56.9875431285
 21
177.5201998479
  0
LINE
  5
37C
100
AcDbEntity
  8
0
100
AcDbLine
 62
7
  6
CONTINUOUS
 10
56.8598835581
 20
177.6139498479
 11
56.7641388663
 21
177.5514498181
  0
LINE
  5
37D
100
AcDbEntity
  8
0
100
AcDbLine
 62
7
  6
CONTINUOUS
 10
68.7152026989
 20
183.8783128181
 11
69.5516926989
 21
184.4067238181
  0
LINE
  5
37E
100
AcDbEntity
  8
0
100
AcDbLine
 62
7
  6
CONTINUOUS
 10
69.3879726989
 20
184.5003588181
 11
68.7152026989
 21
184.0986448181
  0
LINE
  5
37F
100
AcDbEntity
  8
0
100
AcDbLine
 62
7
  6
CONTINUOUS
 10
56.7003090867
 20
177.3639498181
 11
56.8598835581
 21
177.4264498032
  0
LINE
  5
380
100
AcDbEntity
  8
0
100
AcDbLine
 62
7
  6
CONTINUOUS
 10
70.1152026989
 20
182.7415558181
 11
68.7152026989
 21
182.2345108181
  0
LINE
  5
381
100
AcDbEntity
  8
0
100
AcDbLine
 62
7
  6
CONTINUOUS
 10
69.7077136989
 20
182.3963738181
 11
70.1152026989
 21
182.5348118181
  0
LINE
  5
382
100
AcDbEntity
  8
0
100
AcDbLine
 62
7
  6
CONTINUOUS
 10
68.9182706989
 20
182.1195218181
 11
69.5400306989
 21
182.3281118181
  0
LINE
  5
383
100
AcDbEntity
  8
0
100
AcDbLine
 62
7
  6
CONTINUOUS
 10
56.4769048133
 20
178.2701997585
 11
56.5726495274
 21
178.3014498181
  0
LINE
  5
384
100
AcDbEntity
  8
0
100
AcDbLine
 62
7
  6
CONTINUOUS
 10
56.7641388663
 20
177.5514498181
 11
56.6683941969
 21
177.5201998479
  0
LINE
  5
385
100
AcDbEntity
  8
0
100
AcDbLine
 62
7
  6
CONTINUOUS
 10
70.1152026989
 20
161.2732348181
 11
69.5243616989
 21
161.2732348181
  0
LINE
  5
386
100
AcDbEntity
  8
0
100
AcDbLine
 62
7
  6
CONTINUOUS
 10
69.3625296989
 20
161.2732348181
 11
68.8770346989
 21
161.2732348181
  0
LINE
  5
387
100
AcDbEntity
  8
ASSI
100
AcDbLine
 62
7
  6
CONTINUOUS
 10
51.8314066989
 20
161.7535758181
 11
53.3151966989
 21
161.7535808181
  0
LINE
  5
388
100
AcDbEntity
  8
ASSI
100
AcDbLine
 62
7
  6
CONTINUOUS
 10
53.3151966989
 20
162.2035978181
 11
51.0650956989
 21
162.2035978181
  0
LINE
  5
389
100
AcDbEntity
  8
0
100
AcDbLine
 62
7
  6
CONTINUOUS
 10
68.7152026989
 20
162.3846128181
 11
70.1152026989
 21
162.3846128181
  0
LINE
  5
38A
100
AcDbEntity
  8
0
100
AcDbLine
 62
7
  6
CONTINUOUS
 10
69.9475126989
 20
162.5737478181
 11
69.4795926989
 21
162.5737478181
  0
LINE
  5
38B
100
AcDbEntity
  8
0
100
AcDbLine
 62
7
  6
CONTINUOUS
 10
69.3119026989
 20
162.5737478181
 11
68.8828926989
 21
162.5737478181
  0
LWPOLYLINE
  5
38C
100
AcDbEntity
  8
0
100
AcDbPolyline
 62
7
  6
CONTINUOUS
 90
46
 70
0
 10
69.1197822489
 20
162.128646637
 10
69.1043909597
 20
162.1287394365
 10
69.0890780468
 20
162.1283109347
 10
69.0738435102
 20
162.1273611317
 10
69.05865071
 20
162.1258813225
 10
69.0435362862
 20
162.1238802121
 10
69.0286101582
 20
162.121383915
 10
69.013880597
 20
162.1183877522
 10
68.9993393317
 20
162.1148964027
 10
68.9850714694
 20
162.1109500181
 10
68.9710639379
 20
162.1065354179
 10
68.9573298095
 20
162.1016657825
 10
68.9439934076
 20
162.0964208044
 10
68.9310497141
 20
162.0907861987
 10
68.9185037472
 20
162.0847762503
 10
68.9064948846
 20
162.0785135064
 10
68.8951095705
 20
162.072047321
 10
68.8842613607
 20
162.0653283401
 10
68.8738303009
 20
162.0583310488
 10
68.863822952
 20
162.0510758031
 10
68.8542327531
 20
162.0435422471
 10
68.8449200668
 20
162.0356437975
 10
68.8358302878
 20
162.0273469695
 10
68.8270180214
 20
162.018685248
 10
68.8185074463
 20
162.0096725049
 10
68.8103096731
 20
162.0003316784
 10
68.8024135911
 20
161.9906398304
 10
68.7948100471
 20
161.9805420186
 10
68.7875122514
 20
161.9700706025
 10
68.7805069937
 20
161.9591932226
 10
68.7737454894
 20
161.9477578586
 10
68.7671888525
 20
161.9357150177
 10
68.760875969
 20
161.9231141926
 10
68.7548747133
 20
161.9099518415
 10
68.749175204
 20
161.8962028158
 10
68.7437873225
 20
161.8818922641
 10
68.7388085865
 20
161.8670920898
 10
68.734247918
 20
161.8518109761
 10
68.7300963949
 20
161.8360402399
 10
68.7264247693
 20
161.8198257351
 10
68.723234835
 20
161.8031627701
 10
68.7205247981
 20
161.7860560364
 10
68.718360029
 20
161.7685654625
 10
68.7167623178
 20
161.7507110244
 10
68.7157098745
 20
161.7324727461
 10
68.7152026989
 20
161.7138506274
  0
LWPOLYLINE
  5
38D
100
AcDbEntity
  8
0
100
AcDbPolyline
 62
7
  6
CONTINUOUS
 90
46
 70
0
 10
69.1197822489
 20
161.9337935589
 10
69.1310314678
 20
161.9336886182
 10
69.1418840453
 20
161.9333676807
 10
69.1523399814
 20
161.9328307466
 10
69.1624075058
 20
161.9320883157
 10
69.1720783888
 20
161.9311298882
 10
69.1813279413
 20
161.929923964
 10
69.1901107223
 20
161.9284655202
 10
69.1984721727
 20
161.9267595798
 10
69.2065239263
 20
161.9247897111
 10
69.2142455591
 20
161.9225571182
 10
69.221657495
 20
161.9200605972
 10
69.2289326393
 20
161.9172801041
 10
69.2361275436
 20
161.9142074951
 10
69.2431856562
 20
161.910850914
 10
69.250110227
 20
161.9072147487
 10
69.2569336296
 20
161.9032795182
 10
69.2636234903
 20
161.8990647034
 10
69.2700859375
 20
161.8946331349
 10
69.2762970943
 20
161.889995311
 10
69.2822808375
 20
161.8851407334
 10
69.2880149263
 20
161.8801007376
 10
69.2934725728
 20
161.8749084632
 10
69.2986805647
 20
161.8695307706
 10
69.3036970242
 20
161.8638995769
 10
69.3085297559
 20
161.8580192546
 10
69.3131709552
 20
161.8518854311
 10
69.3176553296
 20
161.8454169054
 10
69.3220096059
 20
161.8385858259
 10
69.3262070574
 20
161.8314200443
 10
69.3302022113
 20
161.8239219142
 10
69.3339863216
 20
161.8161225687
 10
69.3375681344
 20
161.8079908748
 10
69.3409284159
 20
161.7994357865
 10
69.3440658166
 20
161.7904642768
 10
69.3469816861
 20
161.7810693728
 10
69.3496608395
 20
161.7711391096
 10
69.3521001321
 20
161.7606364494
 10
69.3543027087
 20
161.7495984301
 10
69.3562628188
 20
161.7380242001
 10
69.3579930079
 20
161.7259114745
 10
69.3594807305
 20
161.7132625382
 10
69.3606825996
 20
161.7000833943
 10
69.3615841528
 20
161.6863760439
 10
69.3621998526
 20
161.6721384858
 10
69.3625296989
 20
161.6573707202
  0
LINE
  5
38E
100
AcDbEntity
  8
0
100
AcDbLine
 62
7
  6
CONTINUOUS
 10
70.1152026989
 20
157.5628198181
 11
69.7076386989
 21
157.7090658181
  0
LINE
  5
38F
100
AcDbEntity
  8
0
100
AcDbLine
 62
7
  6
CONTINUOUS
 10
69.5399476989
 20
157.7675418181
 11
68.9182606989
 21
157.9937318181
  0
LINE
  5
390
100
AcDbEntity
  8
0
100
AcDbLine
 62
7
  6
CONTINUOUS
 10
68.7152026989
 20
157.8943318181
 11
70.1152026989
 21
157.3678258181
  0
LINE
  5
391
100
AcDbEntity
  8
RACCORDO
100
AcDbLine
 62
7
  6
CONTINUOUS
 10
67.1374290819
 20
150.9564175776
 11
67.2131247895
 21
150.88072187
  0
LWPOLYLINE
  5
392
100
AcDbEntity
  8
0
100
AcDbPolyline
 62
7
  6
CONTINUOUS
 90
9
 70
0
 10
64.0327457775
 20
150.1576998181
 10
64.033717832
 20
150.1561775543
 10
64.0346899064
 20
150.1516224839
 10
64.0356620009
 20
150.1440694754
 10
64.036634128
 20
150.1335763753
 10
64.0376062752
 20
150.1202231455
 10
64.0385784041
 20
150.1041108603
 10
64.0395504962
 20
150.0853615696
 10
64.04052257
 20
150.0641181186
  0
LWPOLYLINE
  5
393
100
AcDbEntity
  8
RACCORDO
100
AcDbPolyline
 62
7
  6
CONTINUOUS
 90
25
 70
0
 10
56.1152026989
 20
145.7217602822
 10
56.1156461018
 20
145.7176897168
 10
56.1169270832
 20
145.7136706352
 10
56.1190456429
 20
145.7097030372
 10
56.1220179799
 20
145.7057704212
 10
56.1258278954
 20
145.7018892888
 10
56.1304267924
 20
145.6981091454
 10
56.1358247778
 20
145.6944312845
 10
56.1420117448
 20
145.6908544124
 10
56.1489087765
 20
145.6874241535
 10
56.1565249686
 20
145.6841423858
 10
56.1648512255
 20
145.6810072312
 10
56.1737813427
 20
145.6780586798
 10
56.1833230556
 20
145.6752991218
 10
56.193468629
 20
145.6727261669
 10
56.2040886523
 20
145.6703726341
 10
56.2151892034
 20
145.6682413341
 10
56.2267642045
 20
145.6663294562
 10
56.2386660125
 20
145.6646613869
 10
56.2508988137
 20
145.6632402496
 10
56.2634584218
 20
145.662062921
 10
56.2761846345
 20
145.6611444183
 10
56.2890240513
 20
145.6604897473
 10
56.3020300728
 20
145.6600939024
 10
56.3152026989
 20
145.6599568833
  0
LINE
  5
394
100
AcDbEntity
  8
RACCORDO
100
AcDbLine
 62
7
  6
CONTINUOUS
 10
54.9872660834
 20
150.6076998181
 11
55.0152026989
 21
149.8076998181
  0
LINE
  5
395
100
AcDbEntity
  8
RACCORDO
100
AcDbLine
 62
7
  6
CONTINUOUS
 10
54.1141209971
 20
186.7966339722
 11
54.0986543536
 21
187.3174834741
  0
LINE
  5
396
100
AcDbEntity
  8
RACCORDO
100
AcDbLine
 62
253
  6
CONTINUOUS
 10
53.8156051423
 20
183.6166651619
 11
53.7172847207
 21
188.6481201666
  0
LINE
  5
397
100
AcDbEntity
  8
RACCORDO
100
AcDbLine
 62
253
  6
CONTINUOUS
 10
54.1152026989
 20
183.9268271244
 11
54.0172806084
 21
188.9378979145
  0
LINE
  5
398
100
AcDbEntity
  8
RACCORDO
100
AcDbLine
 62
253
  6
CONTINUOUS
 10
53.5131206772
 20
149.229159284
 11
53.5131206772
 21
151.7672794696
  0
LINE
  5
399
100
AcDbEntity
  8
RACCORDO
100
AcDbLine
 62
253
  6
CONTINUOUS
 10
53.5131206772
 20
188.6481201666
 11
53.5131206772
 21
191.1862403522
  0
LINE
  5
39A
100
AcDbEntity
  8
RACCORDO
100
AcDbLine
 62
253
  6
CONTINUOUS
 10
53.6152026989
 20
148.5076998181
 11
53.6152026989
 21
150.6076998181
  0
LINE
  5
39B
100
AcDbEntity
  8
ASSI
100
AcDbLine
 62
7
  6
CONTINUOUS
 10
53.6152026989
 20
176.7076998181
 11
53.6152026989
 21
177.2819588181
  0
LINE
  5
39C
100
AcDbEntity
  8
ASSI
100
AcDbLine
 62
7
  6
CONTINUOUS
 10
53.6152026989
 20
177.9496072556
 11
53.6152026989
 21
179.0009848181
  0
LINE
  5
39D
100
AcDbEntity
  8
ASSI
100
AcDbLine
 62
7
  6
CONTINUOUS
 10
53.6152026989
 20
179.6160930189
 11
53.6152026989
 21
180.5105658181
  0
LINE
  5
39E
100
AcDbEntity
  8
ASSI
100
AcDbLine
 62
7
  6
CONTINUOUS
 10
53.6152026989
 20
181.3254463733
 11
53.6152026989
 21
182.3747988181
  0
LINE
  5
39F
100
AcDbEntity
  8
RACCORDO
100
AcDbLine
 62
253
  6
CONTINUOUS
 10
53.6152026989
 20
189.8076998181
 11
53.6152026989
 21
191.9076998181
  0
LINE
  5
3A0
100
AcDbEntity
  8
RACCORDO
100
AcDbLine
 62
253
  6
CONTINUOUS
 10
53.7172847207
 20
150.6802037496
 11
53.7172847207
 21
151.7672794696
  0
LINE
  5
3A1
100
AcDbEntity
  8
RACCORDO
100
AcDbLine
 62
253
  6
CONTINUOUS
 10
53.7172847207
 20
188.6481201666
 11
53.7172847207
 21
189.7351958867
  0
LINE
  5
3A2
100
AcDbEntity
  8
RACCORDO
100
AcDbLine
 62
7
  6
CONTINUOUS
 10
54.0152026989
 20
166.2076998181
 11
54.0152026989
 21
174.2076998181
  0
LINE
  5
3A3
100
AcDbEntity
  8
RACCORDO
100
AcDbLine
 62
253
  6
CONTINUOUS
 10
54.0172806084
 20
189.5346777662
 11
54.0172806084
 21
188.9378979145
  0
LINE
  5
3A4
100
AcDbEntity
  8
RACCORDO
100
AcDbLine
 62
253
  6
CONTINUOUS
 10
54.0172806084
 20
151.4775017217
 11
54.0172806084
 21
150.88072187
  0
LINE
  5
3A5
100
AcDbEntity
  8
RACCORDO
100
AcDbLine
 62
7
  6
CONTINUOUS
 10
54.1152026989
 20
153.8649676023
 11
54.1152026989
 21
156.4885725119
  0
LINE
  5
3A6
100
AcDbEntity
  8
RACCORDO
100
AcDbLine
 62
7
  6
CONTINUOUS
 10
54.1152026989
 20
183.9268271244
 11
54.1152026989
 21
186.5504320339
  0
LINE
  5
3A7
100
AcDbEntity
  8
RACCORDO
100
AcDbLine
 62
7
  6
CONTINUOUS
 10
54.3645830107
 20
147.7076998181
 11
54.3645830107
 21
148.3950341133
  0
LINE
  5
3A8
100
AcDbEntity
  8
RACCORDO
100
AcDbLine
 62
7
  6
CONTINUOUS
 10
54.3645830107
 20
192.020365523
 11
54.3645830107
 21
193.4576998181
  0
LINE
  5
3A9
100
AcDbEntity
  8
RACCORDO
100
AcDbLine
 62
7
  6
CONTINUOUS
 10
54.4152026989
 20
149.3076998181
 11
54.4152026989
 21
149.8076998181
  0
LINE
  5
3AA
100
AcDbEntity
  8
RACCORDO
100
AcDbLine
 62
7
  6
CONTINUOUS
 10
54.4152026989
 20
190.6076998181
 11
54.4152026989
 21
191.1076998181
  0
LINE
  5
3AB
100
AcDbEntity
  8
0
100
AcDbLine
 62
7
  6
CONTINUOUS
 10
54.6152026989
 20
195.2576998181
 11
54.6152026989
 21
193.4576998181
  0
LINE
  5
3AC
100
AcDbEntity
  8
0
100
AcDbLine
 62
7
  6
CONTINUOUS
 10
54.6152026989
 20
191.0576998181
 11
54.6152026989
 21
190.6576998181
  0
LINE
  5
3AD
100
AcDbEntity
  8
0
100
AcDbLine
 62
7
  6
CONTINUOUS
 10
54.6152026989
 20
149.7576998181
 11
54.6152026989
 21
149.3576998181
  0
LINE
  5
3AE
100
AcDbEntity
  8
0
100
AcDbLine
 62
7
  6
CONTINUOUS
 10
54.6152026989
 20
145.1576998181
 11
54.6152026989
 21
146.9576998181
  0
LINE
  5
3AF
100
AcDbEntity
  8
0
100
AcDbLine
 62
7
  6
CONTINUOUS
 10
55.0152026989
 20
182.7076998181
 11
55.0152026989
 21
174.2076998181
  0
LINE
  5
3B0
100
AcDbEntity
  8
RACCORDO
100
AcDbLine
 62
7
  6
CONTINUOUS
 10
55.0152026989
 20
174.2076998181
 11
55.0152026989
 21
166.2076998181
  0
LINE
  5
3B1
100
AcDbEntity
  8
0
100
AcDbLine
 62
7
  6
CONTINUOUS
 10
55.0152026989
 20
166.2076998181
 11
55.0152026989
 21
157.7076998181
  0
LINE
  5
3B2
100
AcDbEntity
  8
0
100
AcDbLine
 62
7
  6
CONTINUOUS
 10
55.1774911803
 20
167.1264998181
 11
55.1774911803
 21
173.2888998181
  0
LINE
  5
3B3
100
AcDbEntity
  8
RACCORDO
100
AcDbLine
 62
253
  6
CONTINUOUS
 10
53.7172847207
 20
151.7672794696
 11
53.8156051423
 21
156.7987344743
  0
LINE
  5
3B4
100
AcDbEntity
  8
RACCORDO
100
AcDbLine
 62
253
  6
CONTINUOUS
 10
54.0172806084
 20
151.4775017217
 11
54.1152026989
 21
156.4885725119
  0
LWPOLYLINE
  5
3B5
100
AcDbEntity
  8
RACCORDO
100
AcDbPolyline
 62
253
  6
CONTINUOUS
 90
43
 70
0
 10
53.2131247895
 20
151.4775017217
 10
53.2133489863
 20
151.4883171685
 10
53.2139911225
 20
151.4991201456
 10
53.2150506047
 20
151.5098955756
 10
53.2165263913
 20
151.5206292604
 10
53.2184166542
 20
151.5313053137
 10
53.2207184485
 20
151.541906236
 10
53.2234283097
 20
151.5524163251
 10
53.2265426349
 20
151.5628218213
 10
53.230057139
 20
151.57310837
 10
53.2339669829
 20
151.5832617192
 10
53.2382666891
 20
151.5932675647
 10
53.2429501871
 20
151.6031117537
 10
53.248010901
 20
151.6127804758
 10
53.2534417939
 20
151.6222602976
 10
53.2592352971
 20
151.6315380057
 10
53.2653833314
 20
151.6406006564
 10
53.2718773066
 20
151.6494355808
 10
53.2787081452
 20
151.6580304271
 10
53.285866305
 20
151.6663731888
 10
53.2933417949
 20
151.6744522214
 10
53.3011241782
 20
151.6822562448
 10
53.3092025895
 20
151.6897743625
 10
53.3175657477
 20
151.6969960748
 10
53.3262019733
 20
151.7039112956
 10
53.3350992065
 20
151.7105103681
 10
53.3442450243
 20
151.7167840779
 10
53.3536266554
 20
151.7227236639
 10
53.3632309996
 20
151.7283208321
 10
53.373044646
 20
151.7335677666
 10
53.3830538901
 20
151.7384571401
 10
53.3932447552
 20
151.7429821251
 10
53.4036030114
 20
151.7471364032
 10
53.414114194
 20
151.750914173
 10
53.4247636267
 20
151.7543101598
 10
53.4355364381
 20
151.7573196212
 10
53.4464175818
 20
151.7599383541
 10
53.4573918613
 20
151.7621627018
 10
53.4684439548
 20
151.7639895591
 10
53.4795584332
 20
151.765416376
 10
53.4907197777
 20
151.7664411603
 10
53.501912402
 20
151.7670624807
 10
53.5131206772
 20
151.7672794696
  0
LWPOLYLINE
  5
3B6
100
AcDbEntity
  8
RACCORDO
100
AcDbPolyline
 62
253
  6
CONTINUOUS
 90
43
 70
0
 10
54.0172806084
 20
188.9378979145
 10
54.0170564116
 20
188.9270824677
 10
54.0164142754
 20
188.9162794906
 10
54.0153547932
 20
188.9055040607
 10
54.0138790066
 20
188.8947703758
 10
54.0119887437
 20
188.8840943225
 10
54.0096869494
 20
188.8734934002
 10
54.0069770882
 20
188.8629833111
 10
54.003862763
 20
188.852577815
 10
54.0003482589
 20
188.8422912662
 10
53.996438415
 20
188.832137917
 10
53.9921387088
 20
188.8221320715
 10
53.9874552108
 20
188.8122878825
 10
53.9823944969
 20
188.8026191604
 10
53.976963604
 20
188.7931393386
 10
53.9711701008
 20
188.7838616305
 10
53.9650220665
 20
188.7747989798
 10
53.9585280913
 20
188.7659640555
 10
53.9516972527
 20
188.7573692091
 10
53.9445390929
 20
188.7490264474
 10
53.937063603
 20
188.7409474148
 10
53.9292812197
 20
188.7331433914
 10
53.9212028084
 20
188.7256252738
 10
53.9128396502
 20
188.7184035614
 10
53.9042034246
 20
188.7114883406
 10
53.8953061914
 20
188.7048892681
 10
53.8861603736
 20
188.6986155583
 10
53.8767787425
 20
188.6926759723
 10
53.8671743983
 20
188.6870788041
 10
53.8573607519
 20
188.6818318696
 10
53.8473515078
 20
188.6769424961
 10
53.8371606427
 20
188.6724175111
 10
53.8268023865
 20
188.6682632331
 10
53.8162912039
 20
188.6644854632
 10
53.8056417711
 20
188.6610894764
 10
53.7948689598
 20
188.658080015
 10
53.7839878161
 20
188.6554612821
 10
53.7730135366
 20
188.6532369345
 10
53.7619614431
 20
188.6514100771
 10
53.7508469647
 20
188.6499832602
 10
53.7396856202
 20
188.6489584759
 10
53.7284929959
 20
188.6483371556
 10
53.7172847207
 20
188.6481201666
  0
LINE
  5
3B7
100
AcDbEntity
  8
RACCORDO
100
AcDbLine
 62
7
  6
CONTINUOUS
 10
54.0986543536
 20
153.0979161621
 11
54.1141209971
 21
153.618765664
  0
LINE
  5
3B8
100
AcDbEntity
  8
RACCORDO
100
AcDbLine
 62
7
  6
CONTINUOUS
 10
54.9872660834
 20
189.8076998181
 11
55.0152026989
 21
190.6076998181
  0
LWPOLYLINE
  5
3B9
100
AcDbEntity
  8
RACCORDO
100
AcDbPolyline
 62
7
  6
CONTINUOUS
 90
25
 70
0
 10
56.1152026989
 20
195.0740619605
 10
56.1156461018
 20
195.0781325259
 10
56.1169270832
 20
195.0821516075
 10
56.1190456429
 20
195.0861192055
 10
56.1220179799
 20
195.0900518215
 10
56.1258278954
 20
195.0939329539
 10
56.1304267924
 20
195.0977130973
 10
56.1358247778
 20
195.1013909583
 10
56.1420117448
 20
195.1049678303
 10
56.1489087765
 20
195.1083980892
 10
56.1565249686
 20
195.1116798569
 10
56.1648512255
 20
195.1148150115
 10
56.1737813427
 20
195.117763563
 10
56.1833230556
 20
195.120523121
 10
56.193468629
 20
195.1230960758
 10
56.2040886523
 20
195.1254496086
 10
56.2151892034
 20
195.1275809086
 10
56.2267642045
 20
195.1294927866
 10
56.2386660125
 20
195.1311608558
 10
56.2508988137
 20
195.1325819931
 10
56.2634584218
 20
195.1337593218
 10
56.2761846345
 20
195.1346778244
 10
56.2890240513
 20
195.1353324954
 10
56.3020300728
 20
195.1357283404
 10
56.3152026989
 20
195.1358653594
  0
LINE
  5
3BA
100
AcDbEntity
  8
0
100
AcDbLine
 62
7
  6
CONTINUOUS
 10
55.6471175888
 20
180.8951999373
 11
55.6152026989
 21
180.6764496989
  0
LINE
  5
3BB
100
AcDbEntity
  8
0
100
AcDbLine
 62
7
  6
CONTINUOUS
 10
55.6471175888
 20
179.5201998181
 11
55.6152026989
 21
179.3014497585
  0
LINE
  5
3BC
100
AcDbEntity
  8
0
100
AcDbLine
 62
7
  6
CONTINUOUS
 10
56.4130750337
 20
180.7076999373
 11
56.4449899235
 21
180.8951999373
  0
LINE
  5
3BD
100
AcDbEntity
  8
0
100
AcDbLine
 62
7
  6
CONTINUOUS
 10
56.4130750337
 20
179.3326998181
 11
56.4449899235
 21
179.5201998181
  0
LINE
  5
3BE
100
AcDbEntity
  8
0
100
AcDbLine
 62
7
  6
CONTINUOUS
 10
55.774777148
 20
180.7076999373
 11
55.8066920378
 21
180.8639496989
  0
LINE
  5
3BF
100
AcDbEntity
  8
0
100
AcDbLine
 62
7
  6
CONTINUOUS
 10
55.774777148
 20
179.3326998181
 11
55.8066920378
 21
179.4889497585
  0
LINE
  5
3C0
100
AcDbEntity
  8
0
100
AcDbLine
 62
7
  6
CONTINUOUS
 10
55.6471175888
 20
178.1139498181
 11
55.6152026989
 21
177.9576997883
  0
LINE
  5
3C1
100
AcDbEntity
  8
0
100
AcDbLine
 62
7
  6
CONTINUOUS
 10
56.189670805
 20
178.1451997883
 11
56.1577559152
 21
177.9889498479
  0
LINE
  5
3C2
100
AcDbEntity
  8
0
100
AcDbLine
 62
7
  6
CONTINUOUS
 10
56.9556282275
 20
180.5514498181
 11
56.9237133377
 21
180.3951996989
  0
LINE
  5
3C3
100
AcDbEntity
  8
0
100
AcDbLine
 62
7
  6
CONTINUOUS
 10
56.9556282275
 20
179.1764498777
 11
56.9237133377
 21
179.0201997585
  0
LINE
  5
3C4
100
AcDbEntity
  8
0
100
AcDbLine
 62
7
  6
CONTINUOUS
 10
57.0832878063
 20
180.3951996989
 11
57.1152026989
 21
180.5201999373
  0
LINE
  5
3C5
100
AcDbEntity
  8
0
100
AcDbLine
 62
7
  6
CONTINUOUS
 10
57.0832878063
 20
179.0201997585
 11
57.1152026989
 21
179.1451998181
  0
LINE
  5
3C6
100
AcDbEntity
  8
0
100
AcDbLine
 62
7
  6
CONTINUOUS
 10
55.774777148
 20
177.9889498479
 11
55.8066920378
 21
178.0826998479
  0
LINE
  5
3C7
100
AcDbEntity
  8
0
100
AcDbLine
 62
7
  6
CONTINUOUS
 10
56.3173303642
 20
178.0201998181
 11
56.349245254
 21
178.1139498181
  0
LINE
  5
3C8
100
AcDbEntity
  8
0
100
AcDbLine
 62
7
  6
CONTINUOUS
 10
56.9556282275
 20
177.8014498479
 11
56.9237133377
 21
177.7076998479
  0
LINE
  5
3C9
100
AcDbEntity
  8
0
100
AcDbLine
 62
7
  6
CONTINUOUS
 10
57.0194580183
 20
178.8951998777
 11
57.0832878063
 21
179.0201997585
  0
LINE
  5
3CA
100
AcDbEntity
  8
0
100
AcDbLine
 62
7
  6
CONTINUOUS
 10
56.9875431285
 20
177.5201998479
 11
57.0832878063
 21
177.6764497883
  0
LINE
  5
3CB
100
AcDbEntity
  8
0
100
AcDbLine
 62
7
  6
CONTINUOUS
 10
55.1774911803
 20
173.2888998181
 11
60.6152026989
 21
176.4576998181
  0
LINE
  5
3CC
100
AcDbEntity
  8
0
100
AcDbLine
 62
7
  6
CONTINUOUS
 10
60.6152026989
 20
177.0076998181
 11
55.0152026989
 21
173.7626998181
  0
LINE
  5
3CD
100
AcDbEntity
  8
0
100
AcDbLine
 62
7
  6
CONTINUOUS
 10
69.4795926989
 20
163.3401278181
 11
69.3119026989
 21
163.3401278181
  0
LINE
  5
3CE
100
AcDbEntity
  8
0
100
AcDbLine
 62
7
  6
CONTINUOUS
 10
68.8828926989
 20
163.4044628181
 11
68.7152026989
 21
163.4044628181
  0
LINE
  5
3CF
100
AcDbEntity
  8
0
100
AcDbLine
 62
7
  6
CONTINUOUS
 10
70.1152026989
 20
163.4180588181
 11
69.9475126989
 21
163.4180588181
  0
LINE
  5
3D0
100
AcDbEntity
  8
0
100
AcDbLine
 62
7
  6
CONTINUOUS
 10
68.7152026989
 20
163.6656708181
 11
70.1152026989
 21
163.6656708181
  0
LINE
  5
3D1
100
AcDbEntity
  8
0
100
AcDbLine
 62
7
  6
CONTINUOUS
 10
70.1152026989
 20
163.8489478181
 11
68.9781116989
 21
163.8489478181
  0
LINE
  5
3D2
100
AcDbEntity
  8
0
100
AcDbLine
 62
7
  6
CONTINUOUS
 10
68.7152026989
 20
164.5937718181
 11
69.8523976989
 21
164.5937718181
  0
LINE
  5
3D3
100
AcDbEntity
  8
ASSI
100
AcDbLine
 62
7
  6
CONTINUOUS
 10
51.0650896989
 20
164.6985158181
 11
53.3151916989
 21
164.6985158181
  0
LINE
  5
3D4
100
AcDbEntity
  8
0
100
AcDbLine
 62
7
  6
CONTINUOUS
 10
70.1152026989
 20
164.7770488181
 11
68.7152026989
 21
164.7770488181
  0
LINE
  5
3D5
100
AcDbEntity
  8
0
100
AcDbLine
 62
7
  6
CONTINUOUS
 10
55.0152026989
 20
166.6526998181
 11
60.6152026989
 21
163.4076998181
  0
LINE
  5
3D6
100
AcDbEntity
  8
0
100
AcDbLine
 62
7
  6
CONTINUOUS
 10
60.6152026989
 20
163.9576998181
 11
55.1774911803
 21
167.1264998181
  0
LINE
  5
3D7
100
AcDbEntity
  8
ASSI
100
AcDbLine
 62
7
  6
CONTINUOUS
 10
50.9163886989
 20
177.9826968181
 11
51.1894676989
 21
177.3537138181
  0
LINE
  5
3D8
100
AcDbEntity
  8
ASSI
100
AcDbLine
 62
7
  6
CONTINUOUS
 10
51.7263956989
 20
177.2123768181
 11
51.4523746989
 21
177.8435298181
  0
LWPOLYLINE
  5
3D9
100
AcDbEntity
  8
ASSI
100
AcDbPolyline
 62
7
  6
CONTINUOUS
 90
31
 70
0
 10
51.8158586989
 20
180.0364964723
 10
51.8192199497
 20
180.0164641161
 10
51.8227102312
 20
179.9971816805
 10
51.8263295436
 20
179.9786491653
 10
51.8300615708
 20
179.9608681333
 10
51.8339226288
 20
179.9438370217
 10
51.8379616658
 20
179.9275511429
 10
51.8421961062
 20
179.9120137193
 10
51.8466085256
 20
179.8972215285
 10
51.8511955997
 20
179.8831602149
 10
51.8559757588
 20
179.8698446576
 10
51.8609305727
 20
179.8572599774
 10
51.8660014261
 20
179.8453471816
 10
51.8711612357
 20
179.8341213586
 10
51.8764370849
 20
179.82356742
 10
51.8818516081
 20
179.8135811074
 10
51.8874013896
 20
179.8041695924
 10
51.8930898451
 20
179.7953257034
 10
51.8989498563
 20
179.786923668
 10
51.9050265965
 20
179.7789080693
 10
51.9112748925
 20
179.7713343242
 10
51.9175921058
 20
179.7642429109
 10
51.9239148971
 20
179.7576905519
 10
51.9303066057
 20
179.7516205248
 10
51.9368546115
 20
179.7459031399
 10
51.9435750223
 20
179.7405133339
 10
51.9504517303
 20
179.73547617
 10
51.9575237919
 20
179.7307371487
 10
51.9648042257
 20
179.7262781034
 10
51.9722800131
 20
179.7221172006
 10
51.9799511541
 20
179.7182544403
  0
LINE
  5
3DA
100
AcDbEntity
  8
ASSI
100
AcDbLine
 62
7
  6
CONTINUOUS
 10
56.4420036235
 20
150.0012172617
 11
56.4452693246
 21
149.9076998181
  0
LINE
  5
3DB
100
AcDbEntity
  8
RACCORDO
100
AcDbLine
 62
7
  6
CONTINUOUS
 10
54.9872660834
 20
191.9076998181
 11
55.0152026989
 21
191.1076998181
  0
LINE
  5
3DC
100
AcDbEntity
  8
ASSI
100
AcDbLine
 62
7
  6
CONTINUOUS
 10
56.6367205561
 20
146.9576998181
 11
56.6240515542
 21
147.4741474531
  0
LWPOLYLINE
  5
3DD
100
AcDbEntity
  8
RACCORDO
100
AcDbPolyline
 62
253
  6
CONTINUOUS
 90
37
 70
0
 10
56.6240515542
 20
150.6843551793
 10
56.6238608096
 20
150.6930786785
 10
56.6232897544
 20
150.701785573
 10
56.6223394758
 20
150.7104592897
 10
56.6210117823
 20
150.7190833187
 10
56.6193092013
 20
150.7276412446
 10
56.6172349735
 20
150.7361167779
 10
56.6147930471
 20
150.7444937859
 10
56.6119880701
 20
150.7527563234
 10
56.6088253818
 20
150.7608886631
 10
56.605311002
 20
150.7688753256
 10
56.6014516203
 20
150.7767011087
 10
56.5972545826
 20
150.7843511165
 10
56.592727878
 20
150.7918107876
 10
56.5878801227
 20
150.799065923
 10
56.5827205441
 20
150.8061027129
 10
56.5772589632
 20
150.8129077631
 10
56.5715057759
 20
150.8194681207
 10
56.565471933
 20
150.8257712984
 10
56.5591689196
 20
150.8318052985
 10
56.5526087331
 20
150.8375586355
 10
56.5458038605
 20
150.8430203583
 10
56.5387672546
 20
150.8481800709
 10
56.531512309
 20
150.853027952
 10
56.5240528331
 20
150.857554774
 10
56.5164030258
 20
150.8617519203
 10
56.5085774478
 20
150.865611402
 10
56.5005909949
 20
150.8691258726
 10
56.4924588687
 20
150.8722886427
 10
56.4841965483
 20
150.8750936921
 10
56.4758197606
 20
150.8775356815
 10
56.4673444503
 20
150.8796099628
 10
56.4587867497
 20
150.8813125876
 10
56.4501629479
 20
150.8826403153
 10
56.4414894597
 20
150.8835906184
 10
56.4327827948
 20
150.8841616882
 10
56.4240595256
 20
150.8843524377
  0
LINE
  5
3DE
100
AcDbEntity
  8
0
100
AcDbLine
 62
253
  6
CONTINUOUS
 10
55.5714773056
 20
191.0576998181
 11
55.5714773056
 21
190.6576998181
  0
LINE
  5
3DF
100
AcDbEntity
  8
0
100
AcDbLine
 62
253
  6
CONTINUOUS
 10
55.5714773056
 20
149.7576998181
 11
55.5714773056
 21
149.3576998181
  0
LINE
  5
3E0
100
AcDbEntity
  8
0
100
AcDbLine
 62
7
  6
CONTINUOUS
 10
55.6152026989
 20
181.8326999373
 11
55.6152026989
 21
181.6451999373
  0
LINE
  5
3E1
100
AcDbEntity
  8
0
100
AcDbLine
 62
7
  6
CONTINUOUS
 10
55.6152026989
 20
180.6764496989
 11
55.6152026989
 21
180.6139499373
  0
LINE
  5
3E2
100
AcDbEntity
  8
0
100
AcDbLine
 62
7
  6
CONTINUOUS
 10
55.6152026989
 20
179.3014497585
 11
55.6152026989
 21
179.2389498181
  0
LINE
  5
3E3
100
AcDbEntity
  8
0
100
AcDbLine
 62
7
  6
CONTINUOUS
 10
55.6152026989
 20
177.9576997883
 11
55.6152026989
 21
177.8326998181
  0
LINE
  5
3E4
100
AcDbEntity
  8
0
100
AcDbLine
 62
7
  6
CONTINUOUS
 10
55.6152026989
 20
177.0826998181
 11
55.6152026989
 21
176.8951998181
  0
LINE
  5
3E5
100
AcDbEntity
  8
ASSI
100
AcDbLine
 62
253
  6
CONTINUOUS
 10
55.6240914115
 20
192.020365523
 11
55.6240914115
 21
191.9522309831
  0
LINE
  5
3E6
100
AcDbEntity
  8
ASSI
100
AcDbLine
 62
253
  6
CONTINUOUS
 10
55.6240914115
 20
148.4631686531
 11
55.6240914115
 21
148.3950341133
  0
LINE
  5
3E7
100
AcDbEntity
  8
RACCORDO
100
AcDbLine
 62
253
  6
CONTINUOUS
 10
55.6240914115
 20
150.6522309831
 11
55.6240914115
 21
150.880201008
  0
LINE
  5
3E8
100
AcDbEntity
  8
0
100
AcDbLine
 62
7
  6
CONTINUOUS
 10
55.774777148
 20
177.8014498479
 11
55.774777148
 21
177.9889498479
  0
LINE
  5
3E9
100
AcDbEntity
  8
0
100
AcDbLine
 62
7
  6
CONTINUOUS
 10
55.774777148
 20
179.2076997585
 11
55.774777148
 21
179.3326998181
  0
LINE
  5
3EA
100
AcDbEntity
  8
0
100
AcDbLine
 62
7
  6
CONTINUOUS
 10
55.774777148
 20
180.5826996989
 11
55.774777148
 21
180.7076999373
  0
LINE
  5
3EB
100
AcDbEntity
  8
0
100
AcDbLine
 62
7
  6
CONTINUOUS
 10
55.8714773056
 20
149.3576998181
 11
55.8714773056
 21
149.7576998181
  0
LINE
  5
3EC
100
AcDbEntity
  8
0
100
AcDbLine
 62
7
  6
CONTINUOUS
 10
55.8714773056
 20
190.6576998181
 11
55.8714773056
 21
191.0576998181
  0
LINE
  5
3ED
100
AcDbEntity
  8
0
100
AcDbLine
 62
7
  6
CONTINUOUS
 10
55.9662664869
 20
178.2389498777
 11
55.9662664869
 21
178.3951998181
  0
LINE
  5
3EE
100
AcDbEntity
  8
0
100
AcDbLine
 62
7
  6
CONTINUOUS
 10
55.9662664869
 20
178.7389497585
 11
55.9662664869
 21
178.8951998777
  0
LINE
  5
3EF
100
AcDbEntity
  8
0
100
AcDbLine
 62
7
  6
CONTINUOUS
 10
55.9662664869
 20
180.1139496989
 11
55.9662664869
 21
180.2701998181
  0
LINE
  5
3F0
100
AcDbEntity
  8
RACCORDO
100
AcDbLine
 62
7
  6
CONTINUOUS
 10
56.1152026989
 20
145.3413376757
 11
56.1152026989
 21
146.2374869594
  0
LINE
  5
3F1
100
AcDbEntity
  8
RACCORDO
100
AcDbLine
 62
7
  6
CONTINUOUS
 10
56.1152026989
 20
194.1779126768
 11
56.1152026989
 21
195.0740619605
  0
LINE
  5
3F2
100
AcDbEntity
  8
0
100
AcDbLine
 62
7
  6
CONTINUOUS
 10
56.1577559152
 20
177.9889498479
 11
56.1577559152
 21
177.8326998181
  0
LINE
  5
3F3
100
AcDbEntity
  8
0
100
AcDbLine
 62
7
  6
CONTINUOUS
 10
56.2854154744
 20
180.7076999373
 11
56.2854154744
 21
180.5826996989
  0
LINE
  5
3F4
100
AcDbEntity
  8
0
100
AcDbLine
 62
7
  6
CONTINUOUS
 10
56.2854154744
 20
179.3326998181
 11
56.2854154744
 21
179.2076997585
  0
LINE
  5
3F5
100
AcDbEntity
  8
RACCORDO
100
AcDbLine
 62
253
  6
CONTINUOUS
 10
56.3152026989
 20
195.1358653594
 11
56.3152026989
 21
194.7554427529
  0
LINE
  5
3F6
100
AcDbEntity
  8
RACCORDO
100
AcDbLine
 62
253
  6
CONTINUOUS
 10
56.3152026989
 20
145.2795342768
 11
56.3152026989
 21
145.6599568833
  0
LINE
  5
3F7
100
AcDbEntity
  8
0
100
AcDbLine
 62
7
  6
CONTINUOUS
 10
56.3173303642
 20
177.8014498479
 11
56.3173303642
 21
178.0201998181
  0
LINE
  5
3F8
100
AcDbEntity
  8
0
100
AcDbLine
 62
7
  6
CONTINUOUS
 10
56.4130750337
 20
179.2076997585
 11
56.4130750337
 21
179.3326998181
  0
LINE
  5
3F9
100
AcDbEntity
  8
0
100
AcDbLine
 62
7
  6
CONTINUOUS
 10
56.4130750337
 20
180.5826996989
 11
56.4130750337
 21
180.7076999373
  0
LINE
  5
3FA
100
AcDbEntity
  8
ASSI
100
AcDbLine
 62
253
  6
CONTINUOUS
 10
56.6240515542
 20
192.9412521831
 11
56.6240515542
 21
191.2076998181
  0
LINE
  5
3FB
100
AcDbEntity
  8
ASSI
100
AcDbLine
 62
253
  6
CONTINUOUS
 10
56.6240515542
 20
149.2076998181
 11
56.6240515542
 21
147.4741474531
  0
LINE
  5
3FC
100
AcDbEntity
  8
RACCORDO
100
AcDbLine
 62
253
  6
CONTINUOUS
 10
56.6240515542
 20
190.5076998181
 11
56.6240515878
 21
189.7310444372
  0
LINE
  5
3FD
100
AcDbEntity
  8
RACCORDO
100
AcDbLine
 62
253
  6
CONTINUOUS
 10
56.6240515883
 20
150.6843551993
 11
56.6240515542
 21
149.9076998181
  0
LINE
  5
3FE
100
AcDbEntity
  8
0
100
AcDbLine
 62
7
  6
CONTINUOUS
 10
56.6410955561
 20
193.4576998181
 11
56.6410955561
 21
192.7076998181
  0
LINE
  5
3FF
100
AcDbEntity
  8
0
100
AcDbLine
 62
7
  6
CONTINUOUS
 10
56.6410955561
 20
147.7076998181
 11
56.6410955561
 21
146.9576998181
  0
LINE
  5
400
100
AcDbEntity
  8
RACCORDO
100
AcDbLine
 62
253
  6
CONTINUOUS
 10
56.6652026989
 20
193.0888712731
 11
56.6652026989
 21
192.7084486666
  0
LINE
  5
401
100
AcDbEntity
  8
ASSI
100
AcDbLine
 62
7
  6
CONTINUOUS
 10
56.6652026989
 20
149.7576998181
 11
56.6652026989
 21
149.3576998181
  0
LINE
  5
402
100
AcDbEntity
  8
RACCORDO
100
AcDbLine
 62
253
  6
CONTINUOUS
 10
56.6652026989
 20
147.3265283631
 11
56.6652026989
 21
147.7069509696
  0
LINE
  5
403
100
AcDbEntity
  8
ASSI
100
AcDbLine
 62
7
  6
CONTINUOUS
 10
56.6652026989
 20
190.6576998181
 11
56.6652026989
 21
191.0576998181
  0
LINE
  5
404
100
AcDbEntity
  8
0
100
AcDbLine
 62
7
  6
CONTINUOUS
 10
56.7152026989
 20
147.7089311156
 11
56.7152026989
 21
149.2076998181
  0
LINE
  5
405
100
AcDbEntity
  8
0
100
AcDbLine
 62
7
  6
CONTINUOUS
 10
56.7152026989
 20
191.2076998181
 11
56.7152026989
 21
192.7064685206
  0
LINE
  5
406
100
AcDbEntity
  8
ASSI
100
AcDbLine
 62
7
  6
CONTINUOUS
 10
56.7491312704
 20
149.9076998181
 11
56.7491312704
 21
150.6009006299
  0
LINE
  5
407
100
AcDbEntity
  8
ASSI
100
AcDbLine
 62
7
  6
CONTINUOUS
 10
56.7491312704
 20
189.8144990063
 11
56.7491312704
 21
190.5076998181
  0
LINE
  5
408
100
AcDbEntity
  8
0
100
AcDbLine
 62
7
  6
CONTINUOUS
 10
56.7641388663
 20
180.2389499373
 11
56.7641388663
 21
180.0826998181
  0
LINE
  5
409
100
AcDbEntity
  8
0
100
AcDbLine
 62
7
  6
CONTINUOUS
 10
56.7641388663
 20
178.8639498181
 11
56.7641388663
 21
178.7076998777
  0
LINE
  5
40A
100
AcDbEntity
  8
ASSI
100
AcDbLine
 62
7
  6
CONTINUOUS
 10
56.8652026989
 20
149.6639255929
 11
56.8652026989
 21
148.8576998216
  0
LINE
  5
40B
100
AcDbEntity
  8
RACCORDO
100
AcDbLine
 62
7
  6
CONTINUOUS
 10
56.8652026989
 20
148.0017489534
 11
56.8652026989
 21
147.3883317619
  0
LINE
  5
40C
100
AcDbEntity
  8
0
100
AcDbLine
 62
7
  6
CONTINUOUS
 10
56.8652026989
 20
148.8576998213
 11
56.8652026989
 21
148.0017489534
  0
LINE
  5
40D
100
AcDbEntity
  8
ASSI
100
AcDbLine
 62
7
  6
CONTINUOUS
 10
56.8652026989
 20
190.7514740433
 11
56.8652026989
 21
191.5576998146
  0
LINE
  5
40E
100
AcDbEntity
  8
0
100
AcDbLine
 62
7
  6
CONTINUOUS
 10
56.8652026989
 20
191.5576998149
 11
56.8652026989
 21
192.4136506828
  0
LINE
  5
40F
100
AcDbEntity
  8
RACCORDO
100
AcDbLine
 62
7
  6
CONTINUOUS
 10
56.8652026989
 20
192.4136506828
 11
56.8652026989
 21
193.0270678743
  0
LINE
  5
410
100
AcDbEntity
  8
0
100
AcDbLine
 62
7
  6
CONTINUOUS
 10
56.9556282275
 20
180.7389498181
 11
56.9556282275
 21
180.5514498181
  0
LINE
  5
411
100
AcDbEntity
  8
0
100
AcDbLine
 62
7
  6
CONTINUOUS
 10
56.9556282275
 20
179.3639498777
 11
56.9556282275
 21
179.1764498777
  0
LINE
  5
412
100
AcDbEntity
  8
0
100
AcDbLine
 62
7
  6
CONTINUOUS
 10
56.9556282275
 20
178.0201998181
 11
56.9556282275
 21
177.8014498479
  0
LINE
  5
413
100
AcDbEntity
  8
0
100
AcDbLine
 62
7
  6
CONTINUOUS
 10
57.1152026989
 20
176.8951998181
 11
57.1152026989
 21
177.0826998181
  0
LINE
  5
414
100
AcDbEntity
  8
0
100
AcDbLine
 62
7
  6
CONTINUOUS
 10
57.1152026989
 20
177.8326998181
 11
57.1152026989
 21
177.9889498479
  0
LINE
  5
415
100
AcDbEntity
  8
0
100
AcDbLine
 62
7
  6
CONTINUOUS
 10
57.1152026989
 20
179.1451998181
 11
57.1152026989
 21
179.3951997585
  0
LINE
  5
416
100
AcDbEntity
  8
0
100
AcDbLine
 62
7
  6
CONTINUOUS
 10
57.1152026989
 20
180.5201999373
 11
57.1152026989
 21
180.7701996989
  0
LINE
  5
417
100
AcDbEntity
  8
0
100
AcDbLine
 62
7
  6
CONTINUOUS
 10
57.1152026989
 20
181.6451999373
 11
57.1152026989
 21
181.8326999373
  0
LINE
  5
418
100
AcDbEntity
  8
RACCORDO
100
AcDbLine
 62
253
  6
CONTINUOUS
 10
55.6240914115
 20
189.7631686531
 11
55.6240914115
 21
189.5351986282
  0
LINE
  5
419
100
AcDbEntity
  8
ASSI
100
AcDbLine
 62
7
  6
CONTINUOUS
 10
56.6240515542
 20
192.9412521831
 11
56.6367205561
 21
193.4576998181
  0
LWPOLYLINE
  5
41A
100
AcDbEntity
  8
RACCORDO
100
AcDbPolyline
 62
7
  6
CONTINUOUS
 90
43
 70
0
 10
56.7480025737
 20
189.6583551184
 10
56.7477822038
 20
189.6501617463
 10
56.7472287969
 20
189.642027356
 10
56.7463488132
 20
189.6339652551
 10
56.7451486685
 20
189.6259853975
 10
56.7436360513
 20
189.6181029774
 10
56.7418210469
 20
189.6103382039
 10
56.7397144554
 20
189.6027073379
 10
56.7373246332
 20
189.5952153422
 10
56.7346586384
 20
189.5878646419
 10
56.7317274308
 20
189.5806687582
 10
56.7285390234
 20
189.5736323848
 10
56.725093318
 20
189.5667451484
 10
56.7213922104
 20
189.5600058171
 10
56.7174487617
 20
189.553433551
 10
56.7132791905
 20
189.5470481388
 10
56.7088945578
 20
189.5408580531
 10
56.704303732
 20
189.5348678987
 10
56.6995219493
 20
189.5290895387
 10
56.6945688276
 20
189.523537204
 10
56.6894471038
 20
189.5182049401
 10
56.6841449496
 20
189.513075347
 10
56.6786631869
 20
189.5081474541
 10
56.6730176063
 20
189.5034337318
 10
56.6672165418
 20
189.4989388067
 10
56.6612654212
 20
189.4946649287
 10
56.6551764929
 20
189.4906190076
 10
56.6489691749
 20
189.4868110701
 10
56.6426574265
 20
189.4832457724
 10
56.6362470405
 20
189.4799225852
 10
56.629745776
 20
189.4768422662
 10
56.6231706933
 20
189.4740093172
 10
56.6165240651
 20
189.4714211889
 10
56.6097902609
 20
189.4690703255
 10
56.6029671162
 20
189.4669566272
 10
56.5960737441
 20
189.4650866511
 10
56.5891257534
 20
189.4634642664
 10
56.582129411
 20
189.4620903308
 10
56.5750964071
 20
189.4609665487
 10
56.568050965
 20
189.460095237
 10
56.5610073223
 20
189.4594755098
 10
56.5539694326
 20
189.459105078
 10
56.5469461515
 20
189.4589820587
  0
LWPOLYLINE
  5
41B
100
AcDbEntity
  8
ASSI
100
AcDbPolyline
 62
7
  6
CONTINUOUS
 90
25
 70
0
 10
56.8652026989
 20
190.7514740433
 10
56.8649566352
 20
190.7434996638
 10
56.8641264961
 20
190.7358780939
 10
56.8627122818
 20
190.728610375
 10
56.8607201605
 20
190.7216823252
 10
56.858143964
 20
190.7151112234
 10
56.8549651874
 20
190.7089381523
 10
56.8511795647
 20
190.7031635905
 10
56.846791362
 20
190.6977729266
 10
56.8417948724
 20
190.6927743726
 10
56.8362175852
 20
190.6881722198
 10
56.830032011
 20
190.6839398287
 10
56.8231499747
 20
190.6800419771
 10
56.8156061042
 20
190.6764748684
 10
56.8073657715
 20
190.6732336797
 10
56.7982369184
 20
190.6702941518
 10
56.7882414654
 20
190.6676523876
 10
56.777357492
 20
190.6653175173
 10
56.7653271783
 20
190.663291207
 10
56.7521887998
 20
190.661572251
 10
56.7379040811
 20
190.6601662891
 10
56.7221003763
 20
190.65907994
 10
56.70465347
 20
190.6583105175
 10
56.6856875775
 20
190.6578518135
 10
56.6652026989
 20
190.6576998181
  0
LINE
  5
41C
100
AcDbEntity
  8
ASSI
100
AcDbLine
 62
7
  6
CONTINUOUS
 10
56.4420036235
 20
190.4141823745
 11
56.4452693246
 21
190.5076998181
  0
LINE
  5
41D
100
AcDbEntity
  8
RACCORDO
100
AcDbLine
 62
7
  6
CONTINUOUS
 10
54.9872660834
 20
148.5076998181
 11
55.0152026989
 21
149.3076998181
  0
LWPOLYLINE
  5
41E
100
AcDbEntity
  8
ASSI
100
AcDbPolyline
 62
7
  6
CONTINUOUS
 90
25
 70
0
 10
56.8652026989
 20
191.1097966099
 10
56.8649566352
 20
191.105366399
 10
56.8641264961
 20
191.1011321935
 10
56.8627122818
 20
191.0970945719
 10
56.8607201605
 20
191.0932456554
 10
56.858143964
 20
191.0895950433
 10
56.8549651874
 20
191.0861655593
 10
56.8511795647
 20
191.0829574694
 10
56.846791362
 20
191.0799626562
 10
56.8417948724
 20
191.0771856817
 10
56.8362175852
 20
191.0746289302
 10
56.830032011
 20
191.0722776018
 10
56.8231499747
 20
191.0701121287
 10
56.8156061042
 20
191.0681304016
 10
56.8073657715
 20
191.0663297412
 10
56.7982369184
 20
191.0646966701
 10
56.7882414654
 20
191.0632290234
 10
56.777357492
 20
191.0619318732
 10
56.7653271783
 20
191.0608061453
 10
56.7521887998
 20
191.0598511697
 10
56.7379040811
 20
191.0590700797
 10
56.7221003763
 20
191.0584665525
 10
56.70465347
 20
191.0580390955
 10
56.6856875775
 20
191.05778426
 10
56.6652026989
 20
191.0576998181
  0
LWPOLYLINE
  5
41F
100
AcDbEntity
  8
RACCORDO
100
AcDbPolyline
 62
7
  6
CONTINUOUS
 90
25
 70
0
 10
59.4152026989
 20
194.1779126768
 10
59.414759296
 20
194.1738421115
 10
59.4134783147
 20
194.1698230298
 10
59.411359755
 20
194.1658554319
 10
59.408387418
 20
194.1619228158
 10
59.4045775025
 20
194.1580416835
 10
59.3999786054
 20
194.15426154
 10
59.3945806201
 20
194.1505836791
 10
59.3883936531
 20
194.147006807
 10
59.3814966214
 20
194.1435765481
 10
59.3738804293
 20
194.1402947804
 10
59.3655541724
 20
194.1371596259
 10
59.3566240552
 20
194.1342110744
 10
59.3470823422
 20
194.1314515164
 10
59.3369367689
 20
194.1288785616
 10
59.3263167456
 20
194.1265250287
 10
59.3152161945
 20
194.1243937287
 10
59.3036411934
 20
194.1224818508
 10
59.2917393854
 20
194.1208137816
 10
59.2795065842
 20
194.1193926442
 10
59.2669469761
 20
194.1182153156
 10
59.2542207634
 20
194.1172968129
 10
59.2413813466
 20
194.116642142
 10
59.2283753251
 20
194.116246297
 10
59.2152026989
 20
194.116109278
  0
LINE
  5
420
100
AcDbEntity
  8
0
100
AcDbLine
 62
7
  6
CONTINUOUS
 10
57.0832878063
 20
177.6764497883
 11
57.1152026989
 21
177.8326998181
  0
LWPOLYLINE
  5
421
100
AcDbEntity
  8
0
100
AcDbPolyline
 62
7
  6
CONTINUOUS
 90
55
 70
0
 10
56.3634147048
 20
172.0904634391
 10
56.2767528937
 20
171.8554017432
 10
56.2031609272
 20
171.6182797708
 10
56.1426388053
 20
171.379097522
 10
56.0951865692
 20
171.1372671637
 10
56.0608041777
 20
170.8933765288
 10
56.0394915068
 20
170.6491891169
 10
56.0312524478
 20
170.4048372264
 10
56.0360831093
 20
170.1601885588
 10
56.0539716937
 20
169.9166097178
 10
56.0850936352
 20
169.6735914514
 10
56.1292734996
 20
169.4316430115
 10
56.1859731862
 20
169.1936587573
 10
56.2553457895
 20
168.959919304
 10
56.3372382151
 20
168.7301440364
 10
56.4306530792
 20
168.5063854681
 10
56.535536871
 20
168.2889206812
 10
56.6519431014
 20
168.0774725935
 10
56.7790349189
 20
167.8732624726
 10
56.9171570808
 20
167.6759961361
 10
57.0659648299
 20
167.4859677664
 10
57.2235870432
 20
167.3052811783
 10
57.3897769787
 20
167.134375662
 10
57.5647813785
 20
166.9728119273
 10
57.7474693459
 20
166.8213759185
 10
57.9379383369
 20
166.6799949291
 10
58.1360908955
 20
166.5487416656
 10
58.3405037566
 20
166.4286201916
 10
58.5512475149
 20
166.3196540738
 10
58.7682515756
 20
166.2218197455
 10
58.9898808906
 20
166.1360505693
 10
59.2165249226
 20
166.0623960394
 10
59.4477942087
 20
166.0008066615
 10
59.6808853119
 20
165.952067316
 10
59.9168107966
 20
165.9166061808
 10
60.1545580984
 20
165.893995078
 10
60.3882860866
 20
165.8837343538
 10
60.617516077
 20
165.8865947564
 10
60.8427267538
 20
165.9018055377
 10
61.0595130384
 20
165.9265547998
 10
61.2663860694
 20
165.960844052
 10
61.4648347081
 20
166.0046717851
 10
61.6549204595
 20
166.0552215738
 10
61.836121313
 20
166.1120575438
 10
62.0089592792
 20
166.1756155694
 10
62.1750618945
 20
166.2443868478
 10
62.334411133
 20
166.317979135
 10
62.4870250206
 20
166.3967846751
 10
62.6345851717
 20
166.4804713976
 10
62.7773421093
 20
166.5688523485
 10
62.9150453102
 20
166.6621144818
 10
63.0486248198
 20
166.7604865896
 10
63.1783906532
 20
166.8640449357
 10
63.3040327951
 20
166.9727132562
 10
63.4255512456
 20
167.0864915511
  0
LINE
  5
422
100
AcDbEntity
  8
0
100
AcDbLine
 62
7
  6
CONTINUOUS
 10
68.7152026989
 20
165.0831358181
 11
70.1152026989
 21
165.0831358181
  0
LINE
  5
423
100
AcDbEntity
  8
ASSI
100
AcDbLine
 62
7
  6
CONTINUOUS
 10
52.0289056989
 20
165.1423338181
 11
51.4813566989
 21
165.1423288181
  0
LINE
  5
424
100
AcDbEntity
  8
0
100
AcDbLine
 62
7
  6
CONTINUOUS
 10
69.9533706989
 20
165.2722718181
 11
68.8770346989
 21
165.2722718181
  0
LINE
  5
425
100
AcDbEntity
  8
RACCORDO
100
AcDbLine
 62
7
  6
CONTINUOUS
 10
67.2152026989
 20
166.2076998181
 11
66.2152026989
 21
166.2076998181
  0
LINE
  5
426
100
AcDbEntity
  8
RACCORDO
100
AcDbLine
 62
7
  6
CONTINUOUS
 10
55.0152026989
 20
166.2076998181
 11
54.0152026989
 21
166.2076998181
  0
LINE
  5
427
100
AcDbEntity
  8
0
100
AcDbLine
 62
7
  6
CONTINUOUS
 10
69.9084916989
 20
166.5025908181
 11
70.1152026989
 21
166.5025908181
  0
LINE
  5
428
100
AcDbEntity
  8
RACCORDO
100
AcDbLine
 62
253
  6
CONTINUOUS
 10
67.2152026989
 20
166.5076998181
 11
66.2152026989
 21
166.5076998181
  0
LINE
  5
429
100
AcDbEntity
  8
RACCORDO
100
AcDbLine
 62
253
  6
CONTINUOUS
 10
55.0152026989
 20
166.5076998181
 11
54.0152026989
 21
166.5076998181
  0
LINE
  5
42A
100
AcDbEntity
  8
0
100
AcDbLine
 62
7
  6
CONTINUOUS
 10
70.1152026989
 20
166.7054338181
 11
69.9084916989
 21
166.7054338181
  0
LINE
  5
42B
100
AcDbEntity
  8
ASSI
100
AcDbLine
 62
7
  6
CONTINUOUS
 10
53.3151916989
 20
165.1485388181
 11
52.4451726989
 21
165.1485888181
  0
LWPOLYLINE
  5
42C
100
AcDbEntity
  8
0
100
AcDbPolyline
 62
7
  6
CONTINUOUS
 90
55
 70
0
 10
69.4429085839
 20
166.238702188
 10
69.387496814
 20
166.238702188
 10
69.3608137217
 20
166.2382068691
 10
69.3351534221
 20
166.2372068533
 10
69.310583137
 20
166.235715823
 10
69.2870356445
 20
166.2337200958
 10
69.2643092791
 20
166.2311786246
 10
69.2426192226
 20
166.2281138818
 10
69.2217502932
 20
166.224503395
 10
69.2008552792
 20
166.2202386989
 10
69.1796714378
 20
166.2152882755
 10
69.1584615119
 20
166.2096836428
 10
69.1371665184
 20
166.2034108897
 10
69.115427463
 20
166.1963184094
 10
69.09360334
 20
166.1885578085
 10
69.0727121492
 20
166.1805699964
 10
69.0530690868
 20
166.1724650245
 10
69.0343589567
 20
166.1641328413
 10
69.0166541707
 20
166.1556842019
 10
69.0001046352
 20
166.1471994243
 10
68.9845604438
 20
166.1385981906
 10
68.9696442896
 20
166.129750302
 10
68.9553048825
 20
166.1206439699
 10
68.9415935125
 20
166.111290983
 10
68.9282867433
 20
166.1015965081
 10
68.9152911454
 20
166.0915031629
 10
68.9027001482
 20
166.0810683297
 10
68.8905706034
 20
166.0703693223
 10
68.8789410686
 20
166.0594466721
 10
68.8677729861
 20
166.0482598477
 10
68.8570075348
 20
166.0367645686
 10
68.8466555729
 20
166.0249868695
 10
68.8367062421
 20
166.0129007157
 10
68.8270681462
 20
166.0003837231
 10
68.8177054993
 20
165.9874034729
 10
68.8086540873
 20
165.9739923839
 10
68.7999298715
 20
165.9601253283
 10
68.7915217607
 20
165.94578867
 10
68.7834408461
 20
165.930996045
 10
68.775736363
 20
165.9157632338
 10
68.7684098392
 20
165.9000916189
 10
68.761459747
 20
165.8839798177
 10
68.7549307382
 20
165.8674394638
 10
68.7488150912
 20
165.8504359405
 10
68.7431205277
 20
165.8330038644
 10
68.7379148636
 20
165.8152587189
 10
68.7331981617
 20
165.7971514947
 10
68.7289703593
 20
165.778731201
 10
68.7252990849
 20
165.7602603485
 10
68.7222028474
 20
165.7417655602
 10
68.7196631379
 20
165.7232202132
 10
68.7176920581
 20
165.7048069492
 10
68.716293642
 20
165.6865866489
 10
68.7154638556
 20
165.6684984316
 10
68.7152026989
 20
165.6505422974
  0
LWPOLYLINE
  5
42D
100
AcDbEntity
  8
0
100
AcDbPolyline
 62
7
  6
CONTINUOUS
 90
49
 70
0
 10
69.4152026989
 20
166.0441047283
 10
69.4393538016
 20
166.0437275141
 10
69.4635391559
 20
166.0428484139
 10
69.4877587618
 20
166.0414674276
 10
69.5123866257
 20
166.0395713092
 10
69.5370487412
 20
166.0371733048
 10
69.5606230896
 20
166.0343131525
 10
69.5827132019
 20
166.0309808399
 10
69.603715547
 20
166.0271863795
 10
69.6236975129
 20
166.0229995461
 10
69.6426383655
 20
166.0184137022
 10
69.6605588389
 20
166.0134354854
 10
69.6775885239
 20
166.0081545832
 10
69.6937204099
 20
166.0025814711
 10
69.7089615075
 20
165.9967056736
 10
69.7234624395
 20
165.9905854519
 10
69.7371980221
 20
165.9842525791
 10
69.7501934392
 20
165.9776752822
 10
69.7626748644
 20
165.9708165035
 10
69.7746564697
 20
165.96368848
 10
69.7861240832
 20
165.9562789747
 10
69.7972613634
 20
165.9485142193
 10
69.8081335905
 20
165.9403604064
 10
69.8186754843
 20
165.9318513434
 10
69.8288748626
 20
165.9230146841
 10
69.8387622454
 20
165.9138174873
 10
69.8483071126
 20
165.9042926941
 10
69.8574057222
 20
165.8945667817
 10
69.8660341786
 20
165.884654189
 10
69.8742163774
 20
165.8745404771
 10
69.881920263
 20
165.8643088063
 10
69.8891109314
 20
165.8540206236
 10
69.8958232866
 20
165.843614482
 10
69.9021299859
 20
165.8329892013
 10
69.9080174687
 20
165.8222062888
 10
69.9134992955
 20
165.8112042371
 10
69.9186888052
 20
165.7996973445
 10
69.923626565
 20
165.7876522553
 10
69.9282720076
 20
165.7751023252
 10
69.9326167701
 20
165.7618619185
 10
69.9367072406
 20
165.7477488355
 10
69.9404970311
 20
165.7329452759
 10
69.9438386142
 20
165.717812203
 10
69.9467128146
 20
165.7023063814
 10
69.9491388078
 20
165.6864710467
 10
69.9510265928
 20
165.6707968681
 10
69.9523461696
 20
165.6554474024
 10
69.9531275383
 20
165.6402590929
 10
69.9533706989
 20
165.6252319396
  0
LINE
  5
42E
100
AcDbEntity
  8
ASSI
100
AcDbLine
 62
7
  6
CONTINUOUS
 10
50.9163886989
 20
179.7017218181
 11
51.1826326989
 21
179.0884828181
  0
LINE
  5
42F
100
AcDbEntity
  8
ASSI
100
AcDbLine
 62
7
  6
CONTINUOUS
 10
51.8158586989
 20
177.7491528181
 11
52.0941866989
 21
177.1080808181
  0
LINE
  5
430
100
AcDbEntity
  8
0
100
AcDbLine
 62
7
  6
CONTINUOUS
 10
55.6152026989
 20
179.2389498181
 11
55.6471175888
 21
179.0201997585
  0
LINE
  5
431
100
AcDbEntity
  8
0
100
AcDbLine
 62
7
  6
CONTINUOUS
 10
57.1898828279
 20
190.3512815177
 11
57.1879386801
 21
190.4005853978
  0
LINE
  5
432
100
AcDbEntity
  8
ASSI
100
AcDbLine
 62
7
  6
CONTINUOUS
 10
56.4420036235
 20
191.3012172617
 11
56.4452693246
 21
191.2076998181
  0
LINE
  5
433
100
AcDbEntity
  8
0
100
AcDbLine
 62
7
  6
CONTINUOUS
 10
57.1879386801
 20
190.4005853978
 11
57.1850223852
 21
190.4886529693
  0
LINE
  5
434
100
AcDbEntity
  8
0
100
AcDbLine
 62
7
  6
CONTINUOUS
 10
57.1850223852
 20
190.4886529693
 11
57.1801618876
 21
190.6576998181
  0
LINE
  5
435
100
AcDbEntity
  8
0
100
AcDbLine
 62
7
  6
CONTINUOUS
 10
57.1976596203
 20
190.6576998181
 11
57.1976596203
 21
190.2576998181
  0
LINE
  5
436
100
AcDbEntity
  8
0
100
AcDbLine
 62
7
  6
CONTINUOUS
 10
57.1976596203
 20
149.7576998181
 11
57.1976596203
 21
150.1576998181
  0
LINE
  5
437
100
AcDbEntity
  8
0
100
AcDbLine
 62
7
  6
CONTINUOUS
 10
57.2763994175
 20
150.1576998181
 11
57.2763994175
 21
149.7576998181
  0
LINE
  5
438
100
AcDbEntity
  8
0
100
AcDbLine
 62
7
  6
CONTINUOUS
 10
57.2763994175
 20
190.2576998181
 11
57.2763994175
 21
190.6576998181
  0
LINE
  5
439
100
AcDbEntity
  8
0
100
AcDbLine
 62
7
  6
CONTINUOUS
 10
57.1801618876
 20
149.7576998181
 11
57.1850223852
 21
149.9267466669
  0
LINE
  5
43A
100
AcDbEntity
  8
ASSI
100
AcDbLine
 62
7
  6
CONTINUOUS
 10
56.4420036235
 20
149.1141823745
 11
56.4452693246
 21
149.2076998181
  0
LINE
  5
43B
100
AcDbEntity
  8
0
100
AcDbLine
 62
7
  6
CONTINUOUS
 10
57.1850223852
 20
149.9267466669
 11
57.1879386801
 21
150.0148142384
  0
LWPOLYLINE
  5
43C
100
AcDbEntity
  8
0
100
AcDbPolyline
 62
7
  6
CONTINUOUS
 90
10
 70
0
 10
57.1879386801
 20
150.0148142384
 10
57.1898828279
 20
150.0641181186
 10
57.1908549017
 20
150.0853615696
 10
57.1918269938
 20
150.1041108603
 10
57.1927991227
 20
150.1202231455
 10
57.1937712699
 20
150.1335763753
 10
57.194743397
 20
150.1440694754
 10
57.1957154914
 20
150.1516224839
 10
57.1966875659
 20
150.1561775543
 10
57.1976596203
 20
150.1576998181
  0
LWPOLYLINE
  5
43D
100
AcDbEntity
  8
RACCORDO
100
AcDbPolyline
 62
7
  6
CONTINUOUS
 90
25
 70
0
 10
56.1152026989
 20
146.2374869594
 10
56.1156461018
 20
146.2415575247
 10
56.1169270832
 20
146.2455766064
 10
56.1190456429
 20
146.2495442044
 10
56.1220179799
 20
146.2534768204
 10
56.1258278954
 20
146.2573579527
 10
56.1304267924
 20
146.2611380962
 10
56.1358247778
 20
146.2648159571
 10
56.1420117448
 20
146.2683928292
 10
56.1489087765
 20
146.2718230881
 10
56.1565249686
 20
146.2751048558
 10
56.1648512255
 20
146.2782400104
 10
56.1737813427
 20
146.2811885618
 10
56.1833230556
 20
146.2839481198
 10
56.193468629
 20
146.2865210747
 10
56.2040886523
 20
146.2888746075
 10
56.2151892034
 20
146.2910059075
 10
56.2267642045
 20
146.2929177854
 10
56.2386660125
 20
146.2945858546
 10
56.2508988137
 20
146.296006992
 10
56.2634584218
 20
146.2971843206
 10
56.2761846345
 20
146.2981028233
 10
56.2890240513
 20
146.2987574942
 10
56.3020300728
 20
146.2991533392
 10
56.3152026989
 20
146.2992903582
  0
LINE
  5
43E
100
AcDbEntity
  8
0
100
AcDbLine
 62
7
  6
CONTINUOUS
 10
68.9782346989
 20
178.1143548181
 11
70.1152026989
 21
178.8299798181
  0
LINE
  5
43F
100
AcDbEntity
  8
0
100
AcDbLine
 62
7
  6
CONTINUOUS
 10
69.8524006989
 20
178.8592368181
 11
68.7152026989
 21
178.1552738181
  0
LINE
  5
440
100
AcDbEntity
  8
ASSI
100
AcDbLine
 62
7
  6
CONTINUOUS
 10
52.6978416989
 20
180.3544408181
 11
52.8312076989
 21
180.0472588181
  0
LINE
  5
441
100
AcDbEntity
  8
ASSI
100
AcDbLine
 62
7
  6
CONTINUOUS
 10
53.1032014786
 20
179.9707293256
 11
52.6894986989
 21
180.9236098181
  0
LINE
  5
442
100
AcDbEntity
  8
ASSI
100
AcDbLine
 62
7
  6
CONTINUOUS
 10
52.5574236989
 20
181.2278178181
 11
52.3067865731
 21
181.8051091081
  0
LINE
  5
443
100
AcDbEntity
  8
ASSI
100
AcDbLine
 62
7
  6
CONTINUOUS
 10
53.0342126989
 20
180.8341068181
 11
53.3064424607
 21
180.2070783668
  0
LINE
  5
444
100
AcDbEntity
  8
ASSI
100
AcDbLine
 62
7
  6
CONTINUOUS
 10
52.4958136989
 20
182.0741978181
 11
52.9021376989
 21
181.1383148181
  0
LINE
  5
445
100
AcDbEntity
  8
ASSI
100
AcDbLine
 62
7
  6
CONTINUOUS
 10
52.8670186989
 20
181.7107318181
 11
52.7363286989
 21
182.0117498181
  0
LINE
  5
446
100
AcDbEntity
  8
0
100
AcDbLine
 62
7
  6
CONTINUOUS
 10
55.8066920378
 20
177.7076998479
 11
55.774777148
 21
177.8014498479
  0
LINE
  5
447
100
AcDbEntity
  8
0
100
AcDbLine
 62
7
  6
CONTINUOUS
 10
56.349245254
 20
177.7076998479
 11
56.3173303642
 21
177.8014498479
  0
LINE
  5
448
100
AcDbEntity
  8
0
100
AcDbLine
 62
7
  6
CONTINUOUS
 10
55.6152026989
 20
177.8326998181
 11
55.6471175888
 21
177.6764497883
  0
LINE
  5
449
100
AcDbEntity
  8
0
100
AcDbLine
 62
7
  6
CONTINUOUS
 10
55.8066920378
 20
179.0514498181
 11
55.774777148
 21
179.2076997585
  0
LINE
  5
44A
100
AcDbEntity
  8
0
100
AcDbLine
 62
7
  6
CONTINUOUS
 10
56.1577559152
 20
177.8326998181
 11
56.189670805
 21
177.6764497883
  0
LINE
  5
44B
100
AcDbEntity
  8
0
100
AcDbLine
 62
7
  6
CONTINUOUS
 10
55.8066920378
 20
180.4264499373
 11
55.774777148
 21
180.5826996989
  0
LINE
  5
44C
100
AcDbEntity
  8
0
100
AcDbLine
 62
7
  6
CONTINUOUS
 10
57.1152026989
 20
177.9889498479
 11
57.0832878063
 21
178.1451997883
  0
LINE
  5
44D
100
AcDbEntity
  8
0
100
AcDbLine
 62
7
  6
CONTINUOUS
 10
56.9237133377
 20
179.5201998181
 11
56.9556282275
 21
179.3639498777
  0
LINE
  5
44E
100
AcDbEntity
  8
0
100
AcDbLine
 62
7
  6
CONTINUOUS
 10
55.6152026989
 20
180.6139499373
 11
55.6471175888
 21
180.3951996989
  0
LWPOLYLINE
  5
44F
100
AcDbEntity
  8
RACCORDO
100
AcDbPolyline
 62
7
  6
CONTINUOUS
 90
25
 70
0
 10
61.8152026989
 20
145.7217602822
 10
61.8156461018
 20
145.7176897168
 10
61.8169270832
 20
145.7136706352
 10
61.8190456429
 20
145.7097030372
 10
61.8220179799
 20
145.7057704212
 10
61.8258278954
 20
145.7018892888
 10
61.8304267924
 20
145.6981091454
 10
61.8358247778
 20
145.6944312845
 10
61.8420117448
 20
145.6908544124
 10
61.8489087765
 20
145.6874241535
 10
61.8565249686
 20
145.6841423858
 10
61.8648512255
 20
145.6810072312
 10
61.8737813427
 20
145.6780586798
 10
61.8833230556
 20
145.6752991218
 10
61.893468629
 20
145.6727261669
 10
61.9040886523
 20
145.6703726341
 10
61.9151892034
 20
145.6682413341
 10
61.9267642045
 20
145.6663294562
 10
61.9386660125
 20
145.6646613869
 10
61.9508988137
 20
145.6632402496
 10
61.9634584218
 20
145.662062921
 10
61.9761846345
 20
145.6611444183
 10
61.9890240513
 20
145.6604897473
 10
62.0020300728
 20
145.6600939024
 10
62.0152026989
 20
145.6599568833
  0
LWPOLYLINE
  5
450
100
AcDbEntity
  8
RACCORDO
100
AcDbPolyline
 62
7
  6
CONTINUOUS
 90
23
 70
0
 10
56.8652026989
 20
192.6466452677
 10
56.864759296
 20
192.6507158331
 10
56.8634783147
 20
192.6547349148
 10
56.861359755
 20
192.6587025127
 10
56.858387418
 20
192.6626351288
 10
56.8545775025
 20
192.6665162611
 10
56.8499786054
 20
192.6702964046
 10
56.8445806201
 20
192.6739742655
 10
56.8383936531
 20
192.6775511375
 10
56.8314966214
 20
192.6809813965
 10
56.8238804293
 20
192.6842631642
 10
56.8155541724
 20
192.6873983187
 10
56.8066240552
 20
192.6903468702
 10
56.7970823422
 20
192.6931064282
 10
56.7869367689
 20
192.695679383
 10
56.7763167456
 20
192.6980329158
 10
56.7652161945
 20
192.7001642158
 10
56.7536411934
 20
192.7020760938
 10
56.7417393854
 20
192.703744163
 10
56.7295065842
 20
192.7051653004
 10
56.7169469761
 20
192.706342629
 10
56.7042207634
 20
192.7072611316
 10
56.6913813466
 20
192.7079158026
  0
LINE
  5
451
100
AcDbEntity
  8
RACCORDO
100
AcDbLine
 62
7
  6
CONTINUOUS
 10
60.2317510432
 20
153.0979161984
 11
60.2162844008
 21
153.618765664
  0
LINE
  5
452
100
AcDbEntity
  8
RACCORDO
100
AcDbLine
 62
253
  6
CONTINUOUS
 10
59.2152026989
 20
195.1358653594
 11
59.2152026989
 21
194.7554427529
  0
LINE
  5
453
100
AcDbEntity
  8
RACCORDO
100
AcDbLine
 62
253
  6
CONTINUOUS
 10
59.2152026989
 20
145.2795342768
 11
59.2152026989
 21
145.6599568833
  0
LINE
  5
454
100
AcDbEntity
  8
RACCORDO
100
AcDbLine
 62
7
  6
CONTINUOUS
 10
59.4152026989
 20
195.0740619605
 11
59.4152026989
 21
194.1779126768
  0
LINE
  5
455
100
AcDbEntity
  8
RACCORDO
100
AcDbLine
 62
7
  6
CONTINUOUS
 10
59.4152026989
 20
146.2374869594
 11
59.4152026989
 21
145.3413376757
  0
LINE
  5
456
100
AcDbEntity
  8
RACCORDO
100
AcDbLine
 62
7
  6
CONTINUOUS
 10
60.2152026989
 20
186.5504320339
 11
60.2152026989
 21
182.7076998181
  0
LINE
  5
457
100
AcDbEntity
  8
RACCORDO
100
AcDbLine
 62
7
  6
CONTINUOUS
 10
60.2152026989
 20
153.8649676023
 11
60.2152026989
 21
157.7076998181
  0
LINE
  5
458
100
AcDbEntity
  8
DRAFT
100
AcDbLine
 62
7
  6
CONTINUOUS
 10
60.2361468414
 20
190.2576998181
 11
60.2361468414
 21
189.8144990063
  0
LINE
  5
459
100
AcDbEntity
  8
DRAFT
100
AcDbLine
 62
7
  6
CONTINUOUS
 10
60.2361468414
 20
150.1576998181
 11
60.2361468414
 21
150.6009006299
  0
LINE
  5
45A
100
AcDbEntity
  8
DRAFT
100
AcDbLine
 62
7
  6
CONTINUOUS
 10
60.2560437767
 20
190.2576998181
 11
60.2560437767
 21
182.7076998181
  0
LINE
  5
45B
100
AcDbEntity
  8
DRAFT
100
AcDbLine
 62
7
  6
CONTINUOUS
 10
60.2560437767
 20
157.7076998181
 11
60.2560437767
 21
150.1576998181
  0
LINE
  5
45C
100
AcDbEntity
  8
RACCORDO
100
AcDbLine
 62
7
  6
CONTINUOUS
 10
60.2162844008
 20
186.7966339722
 11
60.2317510443
 21
187.3174834741
  0
LWPOLYLINE
  5
45D
100
AcDbEntity
  8
RACCORDO
100
AcDbPolyline
 62
7
  6
CONTINUOUS
 90
25
 70
0
 10
61.8152026989
 20
195.0740619605
 10
61.8156461018
 20
195.0781325259
 10
61.8169270832
 20
195.0821516075
 10
61.8190456429
 20
195.0861192055
 10
61.8220179799
 20
195.0900518215
 10
61.8258278954
 20
195.0939329539
 10
61.8304267924
 20
195.0977130973
 10
61.8358247778
 20
195.1013909583
 10
61.8420117448
 20
195.1049678303
 10
61.8489087765
 20
195.1083980892
 10
61.8565249686
 20
195.1116798569
 10
61.8648512255
 20
195.1148150115
 10
61.8737813427
 20
195.117763563
 10
61.8833230556
 20
195.120523121
 10
61.893468629
 20
195.1230960758
 10
61.9040886523
 20
195.1254496086
 10
61.9151892034
 20
195.1275809086
 10
61.9267642045
 20
195.1294927866
 10
61.9386660125
 20
195.1311608558
 10
61.9508988137
 20
195.1325819931
 10
61.9634584218
 20
195.1337593218
 10
61.9761846345
 20
195.1346778244
 10
61.9890240513
 20
195.1353324954
 10
62.0020300728
 20
195.1357283404
 10
62.0152026989
 20
195.1358653594
  0
LWPOLYLINE
  5
45E
100
AcDbEntity
  8
RACCORDO
100
AcDbPolyline
 62
7
  6
CONTINUOUS
 90
25
 70
0
 10
56.8652026989
 20
147.3883317619
 10
56.864759296
 20
147.3842611966
 10
56.8634783147
 20
147.3802421149
 10
56.861359755
 20
147.376274517
 10
56.858387418
 20
147.3723419009
 10
56.8545775025
 20
147.3684607686
 10
56.8499786054
 20
147.3646806251
 10
56.8445806201
 20
147.3610027642
 10
56.8383936531
 20
147.3574258922
 10
56.8314966214
 20
147.3539956332
 10
56.8238804293
 20
147.3507138655
 10
56.8155541724
 20
147.347578711
 10
56.8066240552
 20
147.3446301595
 10
56.7970823422
 20
147.3418706015
 10
56.7869367689
 20
147.3392976467
 10
56.7763167456
 20
147.3369441138
 10
56.7652161945
 20
147.3348128138
 10
56.7536411934
 20
147.3329009359
 10
56.7417393854
 20
147.3312328667
 10
56.7295065842
 20
147.3298117293
 10
56.7169469761
 20
147.3286344007
 10
56.7042207634
 20
147.3277158981
 10
56.6913813466
 20
147.3270612271
 10
56.6783753251
 20
147.3266653821
 10
56.6652026989
 20
147.3265283631
  0
LINE
  5
45F
100
AcDbEntity
  8
ASSI
100
AcDbLine
 62
7
  6
CONTINUOUS
 10
53.3151856989
 20
166.4992028181
 11
52.3910585144
 21
166.0201822041
  0
LINE
  5
460
100
AcDbEntity
  8
0
100
AcDbLine
 62
7
  6
CONTINUOUS
 10
70.1152026989
 20
173.9648638181
 11
68.7152026989
 21
173.4579198181
  0
LINE
  5
461
100
AcDbEntity
  8
0
100
AcDbLine
 62
7
  6
CONTINUOUS
 10
69.7077136989
 20
173.6197268181
 11
70.1152026989
 21
173.7581528181
  0
LINE
  5
462
100
AcDbEntity
  8
0
100
AcDbLine
 62
7
  6
CONTINUOUS
 10
68.9182706989
 20
173.3429538181
 11
69.5400306989
 21
173.5515328181
  0
LWPOLYLINE
  5
463
100
AcDbEntity
  8
ASSI
100
AcDbPolyline
 62
7
  6
CONTINUOUS
 90
64
 70
0
 10
52.3067865731
 20
181.8051091081
 10
52.301280023
 20
181.8127139078
 10
52.2957404356
 20
181.8198235171
 10
52.2901678108
 20
181.8264379358
 10
52.2845749445
 20
181.832520216
 10
52.2789490408
 20
181.8381073056
 10
52.2732517121
 20
181.8433100488
 10
52.2675264445
 20
181.8481178877
 10
52.2617297519
 20
181.8525413801
 10
52.2556927879
 20
181.8567230445
 10
52.2494170696
 20
181.8606670036
 10
52.2429010799
 20
181.8643691346
 10
52.2359714212
 20
181.8679595871
 10
52.228575968
 20
181.8714617447
 10
52.2207668458
 20
181.8748522237
 10
52.2125270337
 20
181.8781910225
 10
52.2038274718
 20
181.8814635548
 10
52.1946972199
 20
181.884684407
 10
52.1852064374
 20
181.8879573364
 10
52.175208268
 20
181.8913054561
 10
52.1648495679
 20
181.8947056531
 10
52.154641065
 20
181.898192346
 10
52.1446398459
 20
181.9017656297
 10
52.1347888239
 20
181.9054254093
 10
52.1254274667
 20
181.9092058189
 10
52.1166616584
 20
181.9131214221
 10
52.1083855148
 20
181.9171576554
 10
52.1006208517
 20
181.9213049612
 10
52.0933953114
 20
181.9255753689
 10
52.0866812515
 20
181.9299568492
 10
52.0804175598
 20
181.9344037571
 10
52.0746206888
 20
181.9388811537
 10
52.0692741859
 20
181.943423978
 10
52.0642675815
 20
181.9480914013
 10
52.0596183438
 20
181.9528613692
 10
52.0553090045
 20
181.9577559363
 10
52.0511766885
 20
181.9629004373
 10
52.0472337613
 20
181.9683103098
 10
52.0434678575
 20
181.9739701164
 10
52.0396790062
 20
181.9799588797
 10
52.0357835792
 20
181.9862790753
 10
52.0318652048
 20
181.9929282276
 10
52.0279747965
 20
181.9999779317
 10
52.0240936182
 20
182.0074133169
 10
52.0202404061
 20
182.0152492538
 10
52.0165222829
 20
182.02360195
 10
52.0129239212
 20
182.0326472158
 10
52.0094606485
 20
182.0422092408
 10
52.0062855692
 20
182.0518768023
 10
52.0034226227
 20
182.0614828713
 10
52.0008478697
 20
182.0711944767
 10
51.9986425969
 20
182.0811014816
 10
51.9968385972
 20
182.0912066323
 10
51.9954040776
 20
182.1015071825
 10
51.9943249464
 20
182.1120847574
 10
51.9935826779
 20
182.1231760512
 10
51.9931957979
 20
182.1345443695
 10
51.9932057912
 20
182.1455612554
 10
51.9936481512
 20
182.1560311437
 10
51.9944873845
 20
182.1661495995
 10
51.9956584971
 20
182.1758748603
 10
51.997139824
 20
182.1851930052
 10
51.99895303
 20
182.1941179551
 10
52.0010981153
 20
182.20264971
  0
LINE
  5
464
100
AcDbEntity
  8
0
100
AcDbLine
 62
7
  6
CONTINUOUS
 10
55.8705218174
 20
177.6139498479
 11
55.8066920378
 21
177.7076998479
  0
LINE
  5
465
100
AcDbEntity
  8
0
100
AcDbLine
 62
7
  6
CONTINUOUS
 10
55.6471175888
 20
177.6764497883
 11
55.7428622582
 21
177.5201998479
  0
LINE
  5
466
100
AcDbEntity
  8
0
100
AcDbLine
 62
7
  6
CONTINUOUS
 10
55.6471175888
 20
179.0201997585
 11
55.7109473684
 21
178.8951998777
  0
LINE
  5
467
100
AcDbEntity
  8
0
100
AcDbLine
 62
7
  6
CONTINUOUS
 10
55.6471175888
 20
180.3951996989
 11
55.7109473684
 21
180.2701998181
  0
LINE
  5
468
100
AcDbEntity
  8
0
100
AcDbLine
 62
7
  6
CONTINUOUS
 10
56.2215856948
 20
179.5201998181
 11
56.2854154744
 21
179.3326998181
  0
LINE
  5
469
100
AcDbEntity
  8
0
100
AcDbLine
 62
7
  6
CONTINUOUS
 10
56.9237133377
 20
178.1139498181
 11
56.9556282275
 21
178.0201998181
  0
LINE
  5
46A
100
AcDbEntity
  8
0
100
AcDbLine
 62
7
  6
CONTINUOUS
 10
56.2215856948
 20
180.8951999373
 11
56.2854154744
 21
180.7076999373
  0
LINE
  5
46B
100
AcDbEntity
  8
0
100
AcDbLine
 62
7
  6
CONTINUOUS
 10
57.1152026989
 20
179.3951997585
 11
57.0832878063
 21
179.5201998181
  0
LINE
  5
46C
100
AcDbEntity
  8
0
100
AcDbLine
 62
7
  6
CONTINUOUS
 10
57.1152026989
 20
180.7701996989
 11
57.0832878063
 21
180.8951999373
  0
LINE
  5
46D
100
AcDbEntity
  8
0
100
AcDbLine
 62
7
  6
CONTINUOUS
 10
56.9237133377
 20
180.8951999373
 11
56.9556282275
 21
180.7389498181
  0
LWPOLYLINE
  5
46E
100
AcDbEntity
  8
RACCORDO
100
AcDbPolyline
 62
7
  6
CONTINUOUS
 90
23
 70
0
 10
64.3652026989
 20
147.7687543685
 10
64.3656461018
 20
147.7646838031
 10
64.3669270832
 20
147.7606647215
 10
64.3690456429
 20
147.7566971235
 10
64.3720179799
 20
147.7527645075
 10
64.3758278954
 20
147.7488833751
 10
64.3804267924
 20
147.7451032317
 10
64.3858247778
 20
147.7414253707
 10
64.3920117448
 20
147.7378484987
 10
64.3989087765
 20
147.7344182398
 10
64.4065249686
 20
147.731136472
 10
64.4148512255
 20
147.7280013175
 10
64.4237813427
 20
147.725052766
 10
64.4333230556
 20
147.722293208
 10
64.443468629
 20
147.7197202532
 10
64.4540886523
 20
147.7173667204
 10
64.4651892034
 20
147.7152354204
 10
64.4767642045
 20
147.7133235424
 10
64.4886660125
 20
147.7116554732
 10
64.5008988137
 20
147.7102343359
 10
64.5134584218
 20
147.7090570072
 10
64.5261846345
 20
147.7081385046
 10
64.5390240513
 20
147.7074838336
  0
LWPOLYLINE
  5
46F
100
AcDbEntity
  8
RACCORDO
100
AcDbPolyline
 62
7
  6
CONTINUOUS
 90
25
 70
0
 10
59.4152026989
 20
194.693639354
 10
59.414759296
 20
194.6977099194
 10
59.4134783147
 20
194.701729001
 10
59.411359755
 20
194.705696599
 10
59.408387418
 20
194.709629215
 10
59.4045775025
 20
194.7135103474
 10
59.3999786054
 20
194.7172904908
 10
59.3945806201
 20
194.7209683518
 10
59.3883936531
 20
194.7245452238
 10
59.3814966214
 20
194.7279754827
 10
59.3738804293
 20
194.7312572504
 10
59.3655541724
 20
194.734392405
 10
59.3566240552
 20
194.7373409565
 10
59.3470823422
 20
194.7401005144
 10
59.3369367689
 20
194.7426734693
 10
59.3263167456
 20
194.7450270021
 10
59.3152161945
 20
194.7471583021
 10
59.3036411934
 20
194.7490701801
 10
59.2917393854
 20
194.7507382493
 10
59.2795065842
 20
194.7521593866
 10
59.2669469761
 20
194.7533367152
 10
59.2542207634
 20
194.7542552179
 10
59.2413813466
 20
194.7549098889
 10
59.2283753251
 20
194.7553057339
 10
59.2152026989
 20
194.7554427529
  0
LINE
  5
470
100
AcDbEntity
  8
RACCORDO
100
AcDbLine
 62
7
  6
CONTINUOUS
 10
61.0141209971
 20
186.7966339722
 11
60.9986543536
 21
187.3174834741
  0
LINE
  5
471
100
AcDbEntity
  8
DRAFT
100
AcDbLine
 62
7
  6
CONTINUOUS
 10
60.9743616212
 20
150.1576998181
 11
60.9743616212
 21
157.7076998181
  0
LINE
  5
472
100
AcDbEntity
  8
DRAFT
100
AcDbLine
 62
7
  6
CONTINUOUS
 10
60.9743616212
 20
182.7076998181
 11
60.9743616212
 21
190.2576998181
  0
LINE
  5
473
100
AcDbEntity
  8
DRAFT
100
AcDbLine
 62
7
  6
CONTINUOUS
 10
60.9942585565
 20
190.2576998181
 11
60.9942585565
 21
189.8144990063
  0
LINE
  5
474
100
AcDbEntity
  8
DRAFT
100
AcDbLine
 62
7
  6
CONTINUOUS
 10
60.9942585565
 20
150.1576998181
 11
60.9942585565
 21
150.6009006299
  0
LINE
  5
475
100
AcDbEntity
  8
RACCORDO
100
AcDbLine
 62
7
  6
CONTINUOUS
 10
61.0152026989
 20
186.5504320339
 11
61.0152026989
 21
182.7076998181
  0
LINE
  5
476
100
AcDbEntity
  8
RACCORDO
100
AcDbLine
 62
7
  6
CONTINUOUS
 10
61.0152026989
 20
153.8649676023
 11
61.0152026989
 21
157.7076998181
  0
LINE
  5
477
100
AcDbEntity
  8
RACCORDO
100
AcDbLine
 62
7
  6
CONTINUOUS
 10
61.8152026989
 20
145.3413376757
 11
61.8152026989
 21
146.2374869594
  0
LINE
  5
478
100
AcDbEntity
  8
RACCORDO
100
AcDbLine
 62
7
  6
CONTINUOUS
 10
61.8152026989
 20
194.1779126768
 11
61.8152026989
 21
195.0740619605
  0
LINE
  5
479
100
AcDbEntity
  8
RACCORDO
100
AcDbLine
 62
253
  6
CONTINUOUS
 10
62.0152026989
 20
195.1358653594
 11
62.0152026989
 21
194.7554427529
  0
LINE
  5
47A
100
AcDbEntity
  8
RACCORDO
100
AcDbLine
 62
253
  6
CONTINUOUS
 10
62.0152026989
 20
145.2795342768
 11
62.0152026989
 21
145.6599568833
  0
LINE
  5
47B
100
AcDbEntity
  8
RACCORDO
100
AcDbLine
 62
7
  6
CONTINUOUS
 10
60.9986543536
 20
153.0979161621
 11
61.0141209971
 21
153.618765664
  0
LWPOLYLINE
  5
47C
100
AcDbEntity
  8
RACCORDO
100
AcDbPolyline
 62
7
  6
CONTINUOUS
 90
25
 70
0
 10
64.3652026989
 20
193.0270678743
 10
64.3656461018
 20
193.0311384396
 10
64.3669270832
 20
193.0351575213
 10
64.3690456429
 20
193.0391251193
 10
64.3720179799
 20
193.0430577353
 10
64.3758278954
 20
193.0469388676
 10
64.3804267924
 20
193.0507190111
 10
64.3858247778
 20
193.054396872
 10
64.3920117448
 20
193.0579737441
 10
64.3989087765
 20
193.061404003
 10
64.4065249686
 20
193.0646857707
 10
64.4148512255
 20
193.0678209253
 10
64.4237813427
 20
193.0707694767
 10
64.4333230556
 20
193.0735290347
 10
64.443468629
 20
193.0761019896
 10
64.4540886523
 20
193.0784555224
 10
64.4651892034
 20
193.0805868224
 10
64.4767642045
 20
193.0824987003
 10
64.4886660125
 20
193.0841667695
 10
64.5008988137
 20
193.0855879069
 10
64.5134584218
 20
193.0867652355
 10
64.5261846345
 20
193.0876837382
 10
64.5390240513
 20
193.0883384091
 10
64.5520300728
 20
193.0887342541
 10
64.5652026989
 20
193.0888712731
  0
LWPOLYLINE
  5
47D
100
AcDbEntity
  8
RACCORDO
100
AcDbPolyline
 62
7
  6
CONTINUOUS
 90
25
 70
0
 10
59.4152026989
 20
145.3413376757
 10
59.414759296
 20
145.3372671103
 10
59.4134783147
 20
145.3332480287
 10
59.411359755
 20
145.3292804307
 10
59.408387418
 20
145.3253478147
 10
59.4045775025
 20
145.3214666823
 10
59.3999786054
 20
145.3176865389
 10
59.3945806201
 20
145.3140086779
 10
59.3883936531
 20
145.3104318059
 10
59.3814966214
 20
145.307001547
 10
59.3738804293
 20
145.3037197793
 10
59.3655541724
 20
145.3005846247
 10
59.3566240552
 20
145.2976360732
 10
59.3470823422
 20
145.2948765153
 10
59.3369367689
 20
145.2923035604
 10
59.3263167456
 20
145.2899500276
 10
59.3152161945
 20
145.2878187276
 10
59.3036411934
 20
145.2859068496
 10
59.2917393854
 20
145.2842387804
 10
59.2795065842
 20
145.2828176431
 10
59.2669469761
 20
145.2816403144
 10
59.2542207634
 20
145.2807218118
 10
59.2413813466
 20
145.2800671408
 10
59.2283753251
 20
145.2796712958
 10
59.2152026989
 20
145.2795342768
  0
LWPOLYLINE
  5
47E
100
AcDbEntity
  8
RACCORDO
100
AcDbPolyline
 62
7
  6
CONTINUOUS
 90
25
 70
0
 10
65.1152026989
 20
194.1779126768
 10
65.114759296
 20
194.1738421115
 10
65.1134783147
 20
194.1698230298
 10
65.111359755
 20
194.1658554319
 10
65.108387418
 20
194.1619228158
 10
65.1045775025
 20
194.1580416835
 10
65.0999786054
 20
194.15426154
 10
65.0945806201
 20
194.1505836791
 10
65.0883936531
 20
194.147006807
 10
65.0814966214
 20
194.1435765481
 10
65.0738804293
 20
194.1402947804
 10
65.0655541724
 20
194.1371596259
 10
65.0566240552
 20
194.1342110744
 10
65.0470823422
 20
194.1314515164
 10
65.0369367689
 20
194.1288785616
 10
65.0263167456
 20
194.1265250287
 10
65.0152161945
 20
194.1243937287
 10
65.0036411934
 20
194.1224818508
 10
64.9917393854
 20
194.1208137816
 10
64.9795065842
 20
194.1193926442
 10
64.9669469761
 20
194.1182153156
 10
64.9542207634
 20
194.1172968129
 10
64.9413813466
 20
194.116642142
 10
64.9283753251
 20
194.116246297
 10
64.9152026989
 20
194.116109278
  0
LINE
  5
47F
100
AcDbEntity
  8
ASSI
100
AcDbLine
 62
7
  6
CONTINUOUS
 10
52.4451786989
 20
165.5413548181
 11
53.3151916989
 21
165.9923278181
  0
LINE
  5
480
100
AcDbEntity
  8
0
100
AcDbLine
 62
7
  6
CONTINUOUS
 10
69.9045286989
 20
171.8804058181
 11
68.7152026989
 21
171.4787428181
  0
LINE
  5
481
100
AcDbEntity
  8
0
100
AcDbLine
 62
7
  6
CONTINUOUS
 10
68.9413086989
 20
171.3909788181
 11
70.1152026989
 21
171.7848848181
  0
LINE
  5
482
100
AcDbEntity
  8
0
100
AcDbLine
 62
7
  6
CONTINUOUS
 10
68.7152026989
 20
171.2076998181
 11
70.1152026989
 21
171.2076998181
  0
LINE
  5
483
100
AcDbEntity
  8
0
100
AcDbLine
 62
7
  6
CONTINUOUS
 10
70.1152026989
 20
171.3909788181
 11
68.9413086989
 21
171.3909788181
  0
LINE
  5
484
100
AcDbEntity
  8
0
100
AcDbLine
 62
7
  6
CONTINUOUS
 10
55.6152026989
 20
176.8951998181
 11
55.8386069276
 21
176.7076998181
  0
LINE
  5
485
100
AcDbEntity
  8
0
100
AcDbLine
 62
7
  6
CONTINUOUS
 10
56.0939261355
 20
176.7076998181
 11
55.8705218174
 21
176.8951998181
  0
LINE
  5
486
100
AcDbEntity
  8
0
100
AcDbLine
 62
7
  6
CONTINUOUS
 10
56.189670805
 20
177.6764497883
 11
56.3173303642
 21
177.4889497883
  0
LINE
  5
487
100
AcDbEntity
  8
0
100
AcDbLine
 62
7
  6
CONTINUOUS
 10
56.4130750337
 20
177.6139498479
 11
56.349245254
 21
177.7076998479
  0
LINE
  5
488
100
AcDbEntity
  8
0
100
AcDbLine
 62
7
  6
CONTINUOUS
 10
55.8705218174
 20
178.9576998181
 11
55.8066920378
 21
179.0514498181
  0
LINE
  5
489
100
AcDbEntity
  8
0
100
AcDbLine
 62
7
  6
CONTINUOUS
 10
56.8598835581
 20
178.2076998181
 11
56.9237133377
 21
178.1139498181
  0
LINE
  5
48A
100
AcDbEntity
  8
0
100
AcDbLine
 62
7
  6
CONTINUOUS
 10
55.8705218174
 20
180.3326999373
 11
55.8066920378
 21
180.4264499373
  0
LINE
  5
48B
100
AcDbEntity
  8
0
100
AcDbLine
 62
7
  6
CONTINUOUS
 10
57.0832878063
 20
178.1451997883
 11
56.9875431285
 21
178.3014498181
  0
LINE
  5
48C
100
AcDbEntity
  8
0
100
AcDbLine
 62
7
  6
CONTINUOUS
 10
56.8917984479
 20
179.5826997585
 11
56.9237133377
 21
179.5201998181
  0
LINE
  5
48D
100
AcDbEntity
  8
0
100
AcDbLine
 62
7
  6
CONTINUOUS
 10
57.0832878063
 20
179.5201998181
 11
57.0194580183
 21
179.6451998777
  0
LINE
  5
48E
100
AcDbEntity
  8
0
100
AcDbLine
 62
7
  6
CONTINUOUS
 10
56.8917984479
 20
180.9576996989
 11
56.9237133377
 21
180.8951999373
  0
LINE
  5
48F
100
AcDbEntity
  8
0
100
AcDbLine
 62
7
  6
CONTINUOUS
 10
57.0832878063
 20
180.8951999373
 11
57.0194580183
 21
181.0201998181
  0
LINE
  5
490
100
AcDbEntity
  8
0
100
AcDbLine
 62
7
  6
CONTINUOUS
 10
64.04052257
 20
150.0641181186
 11
64.0424667178
 21
150.0148142384
  0
LINE
  5
491
100
AcDbEntity
  8
ASSI
100
AcDbLine
 62
7
  6
CONTINUOUS
 10
64.7884017744
 20
149.1141823745
 11
64.7851360733
 21
149.2076998181
  0
LINE
  5
492
100
AcDbEntity
  8
0
100
AcDbLine
 62
7
  6
CONTINUOUS
 10
64.0424667178
 20
150.0148142384
 11
64.0453830127
 21
149.9267466669
  0
LINE
  5
493
100
AcDbEntity
  8
0
100
AcDbLine
 62
7
  6
CONTINUOUS
 10
64.0453830127
 20
149.9267466669
 11
64.0502435103
 21
149.7576998181
  0
LINE
  5
494
100
AcDbEntity
  8
ASSI
100
AcDbLine
 62
7
  6
CONTINUOUS
 10
63.2479426989
 20
182.3018328181
 11
63.2479426989
 21
180.8701580327
  0
LINE
  5
495
100
AcDbEntity
  8
0
100
AcDbLine
 62
7
  6
CONTINUOUS
 10
63.9540059804
 20
150.1576998181
 11
63.9540059804
 21
149.7576998181
  0
LINE
  5
496
100
AcDbEntity
  8
0
100
AcDbLine
 62
7
  6
CONTINUOUS
 10
63.9540059804
 20
190.2576998181
 11
63.9540059804
 21
190.6576998181
  0
LINE
  5
497
100
AcDbEntity
  8
ASSI
100
AcDbLine
 62
7
  6
CONTINUOUS
 10
63.9831376989
 20
180.8701618181
 11
63.9831376989
 21
182.3018328181
  0
LINE
  5
498
100
AcDbEntity
  8
0
100
AcDbLine
 62
7
  6
CONTINUOUS
 10
64.0327457775
 20
190.6576998181
 11
64.0327457775
 21
190.2576998181
  0
LINE
  5
499
100
AcDbEntity
  8
0
100
AcDbLine
 62
7
  6
CONTINUOUS
 10
64.0327457775
 20
149.7576998181
 11
64.0327457775
 21
150.1576998181
  0
LINE
  5
49A
100
AcDbEntity
  8
ASSI
100
AcDbLine
 62
7
  6
CONTINUOUS
 10
64.3652026989
 20
149.6639255929
 11
64.3652026989
 21
148.8576998216
  0
LINE
  5
49B
100
AcDbEntity
  8
RACCORDO
100
AcDbLine
 62
7
  6
CONTINUOUS
 10
64.3652026989
 20
148.0017489534
 11
64.3652026989
 21
147.3883317619
  0
LINE
  5
49C
100
AcDbEntity
  8
0
100
AcDbLine
 62
7
  6
CONTINUOUS
 10
64.3652026989
 20
148.8576998213
 11
64.3652026989
 21
148.0017489534
  0
LINE
  5
49D
100
AcDbEntity
  8
ASSI
100
AcDbLine
 62
7
  6
CONTINUOUS
 10
64.3652026989
 20
190.7514740433
 11
64.3652026989
 21
191.5576998146
  0
LINE
  5
49E
100
AcDbEntity
  8
0
100
AcDbLine
 62
7
  6
CONTINUOUS
 10
64.3652026989
 20
191.5576998149
 11
64.3652026989
 21
192.4136506828
  0
LINE
  5
49F
100
AcDbEntity
  8
RACCORDO
100
AcDbLine
 62
7
  6
CONTINUOUS
 10
64.3652026989
 20
192.4136506828
 11
64.3652026989
 21
193.0270678743
  0
LINE
  5
4A0
100
AcDbEntity
  8
ASSI
100
AcDbLine
 62
7
  6
CONTINUOUS
 10
64.4812741275
 20
149.9076998181
 11
64.4812741275
 21
150.6009006299
  0
LINE
  5
4A1
100
AcDbEntity
  8
ASSI
100
AcDbLine
 62
7
  6
CONTINUOUS
 10
64.4812741275
 20
189.8144990063
 11
64.4812741275
 21
190.5076998181
  0
LINE
  5
4A2
100
AcDbEntity
  8
0
100
AcDbLine
 62
7
  6
CONTINUOUS
 10
64.5152026989
 20
147.7089311156
 11
64.5152026989
 21
149.2076998181
  0
LINE
  5
4A3
100
AcDbEntity
  8
0
100
AcDbLine
 62
7
  6
CONTINUOUS
 10
64.5152026989
 20
191.2076998181
 11
64.5152026989
 21
192.7064685206
  0
LINE
  5
4A4
100
AcDbEntity
  8
RACCORDO
100
AcDbLine
 62
253
  6
CONTINUOUS
 10
64.5652026989
 20
193.0888712731
 11
64.5652026989
 21
192.7084486666
  0
LINE
  5
4A5
100
AcDbEntity
  8
ASSI
100
AcDbLine
 62
7
  6
CONTINUOUS
 10
64.5652026989
 20
149.7576998181
 11
64.5652026989
 21
149.3576998181
  0
LINE
  5
4A6
100
AcDbEntity
  8
RACCORDO
100
AcDbLine
 62
253
  6
CONTINUOUS
 10
64.5652026989
 20
147.3265283631
 11
64.5652026989
 21
147.7069509696
  0
LINE
  5
4A7
100
AcDbEntity
  8
ASSI
100
AcDbLine
 62
7
  6
CONTINUOUS
 10
64.5652026989
 20
190.6576998181
 11
64.5652026989
 21
191.0576998181
  0
LINE
  5
4A8
100
AcDbEntity
  8
0
100
AcDbLine
 62
7
  6
CONTINUOUS
 10
64.5893098418
 20
193.4576998181
 11
64.5893098418
 21
192.7076998181
  0
LINE
  5
4A9
100
AcDbEntity
  8
0
100
AcDbLine
 62
7
  6
CONTINUOUS
 10
64.5893098418
 20
147.7076998181
 11
64.5893098418
 21
146.9576998181
  0
LINE
  5
4AA
100
AcDbEntity
  8
0
100
AcDbLine
 62
7
  6
CONTINUOUS
 10
64.0502435103
 20
190.6576998181
 11
64.0453830127
 21
190.4886529693
  0
LINE
  5
4AB
100
AcDbEntity
  8
ASSI
100
AcDbLine
 62
7
  6
CONTINUOUS
 10
64.7851360733
 20
191.2076998181
 11
64.7884017744
 21
191.3012172617
  0
LINE
  5
4AC
100
AcDbEntity
  8
0
100
AcDbLine
 62
7
  6
CONTINUOUS
 10
64.0453830127
 20
190.4886529693
 11
64.0424667178
 21
190.4005853978
  0
LWPOLYLINE
  5
4AD
100
AcDbEntity
  8
0
100
AcDbPolyline
 62
7
  6
CONTINUOUS
 90
10
 70
0
 10
64.0424667178
 20
190.4005853978
 10
64.04052257
 20
190.3512815177
 10
64.0395504962
 20
190.3300380667
 10
64.0385784041
 20
190.3112887759
 10
64.0376062752
 20
190.2951764907
 10
64.036634128
 20
190.2818232609
 10
64.0356620009
 20
190.2713301608
 10
64.0346899064
 20
190.2637771524
 10
64.033717832
 20
190.2592220819
 10
64.0327457775
 20
190.2576998181
  0
LWPOLYLINE
  5
4AE
100
AcDbEntity
  8
RACCORDO
100
AcDbPolyline
 62
7
  6
CONTINUOUS
 90
25
 70
0
 10
61.8152026989
 20
146.2374869594
 10
61.8156461018
 20
146.2415575247
 10
61.8169270832
 20
146.2455766064
 10
61.8190456429
 20
146.2495442044
 10
61.8220179799
 20
146.2534768204
 10
61.8258278954
 20
146.2573579527
 10
61.8304267924
 20
146.2611380962
 10
61.8358247778
 20
146.2648159571
 10
61.8420117448
 20
146.2683928292
 10
61.8489087765
 20
146.2718230881
 10
61.8565249686
 20
146.2751048558
 10
61.8648512255
 20
146.2782400104
 10
61.8737813427
 20
146.2811885618
 10
61.8833230556
 20
146.2839481198
 10
61.893468629
 20
146.2865210747
 10
61.9040886523
 20
146.2888746075
 10
61.9151892034
 20
146.2910059075
 10
61.9267642045
 20
146.2929177854
 10
61.9386660125
 20
146.2945858546
 10
61.9508988137
 20
146.296006992
 10
61.9634584218
 20
146.2971843206
 10
61.9761846345
 20
146.2981028233
 10
61.9890240513
 20
146.2987574942
 10
62.0020300728
 20
146.2991533392
 10
62.0152026989
 20
146.2992903582
  0
LINE
  5
4AF
100
AcDbEntity
  8
ASSI
100
AcDbLine
 62
7
  6
CONTINUOUS
 10
53.3151966989
 20
164.3985068181
 11
51.0650896989
 21
163.6760708181
  0
LINE
  5
4B0
100
AcDbEntity
  8
ASSI
100
AcDbLine
 62
7
  6
CONTINUOUS
 10
51.7658806989
 20
163.4510488181
 11
52.4451786989
 21
163.6691468181
  0
LINE
  5
4B1
100
AcDbEntity
  8
ASSI
100
AcDbLine
 62
7
  6
CONTINUOUS
 10
52.8726946989
 20
163.8064188181
 11
53.3151916989
 21
163.9484838181
  0
LINE
  5
4B2
100
AcDbEntity
  8
0
100
AcDbLine
 62
7
  6
CONTINUOUS
 10
68.9393836989
 20
172.3659088181
 11
70.1152026989
 21
172.3659088181
  0
LINE
  5
4B3
100
AcDbEntity
  8
0
100
AcDbLine
 62
7
  6
CONTINUOUS
 10
70.1152026989
 20
172.5492618181
 11
68.7152026989
 21
172.5492618181
  0
LINE
  5
4B4
100
AcDbEntity
  8
RACCORDO
100
AcDbLine
 62
253
  6
CONTINUOUS
 10
54.0152026989
 20
173.9076998181
 11
55.0152026989
 21
173.9076998181
  0
LINE
  5
4B5
100
AcDbEntity
  8
RACCORDO
100
AcDbLine
 62
253
  6
CONTINUOUS
 10
66.2152026989
 20
173.9076998181
 11
67.2152026989
 21
173.9076998181
  0
LINE
  5
4B6
100
AcDbEntity
  8
0
100
AcDbLine
 62
7
  6
CONTINUOUS
 10
68.7152026989
 20
174.1481378181
 11
70.1152026989
 21
174.1481378181
  0
LINE
  5
4B7
100
AcDbEntity
  8
0
100
AcDbLine
 62
7
  6
CONTINUOUS
 10
55.9662664869
 20
177.5514498181
 11
55.8705218174
 21
177.6139498479
  0
LINE
  5
4B8
100
AcDbEntity
  8
0
100
AcDbLine
 62
7
  6
CONTINUOUS
 10
55.7428622582
 20
177.5201998479
 11
55.8705218174
 21
177.4264498032
  0
LINE
  5
4B9
100
AcDbEntity
  8
0
100
AcDbLine
 62
7
  6
CONTINUOUS
 10
56.4769048133
 20
177.5514498181
 11
56.4130750337
 21
177.6139498479
  0
LINE
  5
4BA
100
AcDbEntity
  8
0
100
AcDbLine
 62
7
  6
CONTINUOUS
 10
55.7109473684
 20
178.8951998777
 11
55.8386069276
 21
178.7701998181
  0
LINE
  5
4BB
100
AcDbEntity
  8
0
100
AcDbLine
 62
7
  6
CONTINUOUS
 10
56.1577559152
 20
179.5826997585
 11
56.2215856948
 21
179.5201998181
  0
LINE
  5
4BC
100
AcDbEntity
  8
0
100
AcDbLine
 62
7
  6
CONTINUOUS
 10
55.7109473684
 20
180.2701998181
 11
55.8386069276
 21
180.1451999373
  0
LINE
  5
4BD
100
AcDbEntity
  8
0
100
AcDbLine
 62
7
  6
CONTINUOUS
 10
56.349245254
 20
179.5826997585
 11
56.2535005846
 21
179.7076998181
  0
LINE
  5
4BE
100
AcDbEntity
  8
0
100
AcDbLine
 62
7
  6
CONTINUOUS
 10
56.349245254
 20
180.9576996989
 11
56.2535005846
 21
181.0826999373
  0
LINE
  5
4BF
100
AcDbEntity
  8
0
100
AcDbLine
 62
7
  6
CONTINUOUS
 10
57.0194580183
 20
179.6451998777
 11
56.9556282275
 21
179.7389496989
  0
LINE
  5
4C0
100
AcDbEntity
  8
0
100
AcDbLine
 62
7
  6
CONTINUOUS
 10
57.0194580183
 20
181.0201998181
 11
56.9556282275
 21
181.1139498181
  0
LINE
  5
4C1
100
AcDbEntity
  8
RACCORDO
100
AcDbLine
 62
7
  6
CONTINUOUS
 10
66.2431393145
 20
148.5076998181
 11
66.2152026989
 21
149.3076998181
  0
LINE
  5
4C2
100
AcDbEntity
  8
ASSI
100
AcDbLine
 62
7
  6
CONTINUOUS
 10
64.7884017744
 20
190.4141823745
 11
64.7851360733
 21
190.5076998181
  0
LINE
  5
4C3
100
AcDbEntity
  8
ASSI
100
AcDbLine
 62
7
  6
CONTINUOUS
 10
64.6063538437
 20
192.9412521831
 11
64.5936848418
 21
193.4576998181
  0
LINE
  5
4C4
100
AcDbEntity
  8
RACCORDO
100
AcDbLine
 62
253
  6
CONTINUOUS
 10
64.6063538437
 20
190.5076998181
 11
64.6063538051
 21
189.7310444343
  0
LINE
  5
4C5
100
AcDbEntity
  8
RACCORDO
100
AcDbLine
 62
253
  6
CONTINUOUS
 10
64.6063538051
 20
150.6843552019
 11
64.6063538437
 21
149.9076998181
  0
LINE
  5
4C6
100
AcDbEntity
  8
ASSI
100
AcDbLine
 62
253
  6
CONTINUOUS
 10
64.6063538437
 20
192.9412521831
 11
64.6063538437
 21
191.2076998181
  0
LINE
  5
4C7
100
AcDbEntity
  8
ASSI
100
AcDbLine
 62
253
  6
CONTINUOUS
 10
64.6063538437
 20
149.2076998181
 11
64.6063538437
 21
147.4741474531
  0
LINE
  5
4C8
100
AcDbEntity
  8
RACCORDO
100
AcDbLine
 62
253
  6
CONTINUOUS
 10
64.9152026989
 20
195.1358653594
 11
64.9152026989
 21
194.7554427529
  0
LINE
  5
4C9
100
AcDbEntity
  8
RACCORDO
100
AcDbLine
 62
253
  6
CONTINUOUS
 10
64.9152026989
 20
145.2795342768
 11
64.9152026989
 21
145.6599568833
  0
LINE
  5
4CA
100
AcDbEntity
  8
RACCORDO
100
AcDbLine
 62
7
  6
CONTINUOUS
 10
65.1152026989
 20
195.0740619605
 11
65.1152026989
 21
194.1779126768
  0
LINE
  5
4CB
100
AcDbEntity
  8
RACCORDO
100
AcDbLine
 62
7
  6
CONTINUOUS
 10
65.1152026989
 20
146.2374869594
 11
65.1152026989
 21
145.3413376757
  0
LINE
  5
4CC
100
AcDbEntity
  8
0
100
AcDbLine
 62
7
  6
CONTINUOUS
 10
65.3589280923
 20
191.0576998181
 11
65.3589280923
 21
190.6576998181
  0
LINE
  5
4CD
100
AcDbEntity
  8
0
100
AcDbLine
 62
7
  6
CONTINUOUS
 10
65.3589280923
 20
149.7576998181
 11
65.3589280923
 21
149.3576998181
  0
LINE
  5
4CE
100
AcDbEntity
  8
ASSI
100
AcDbLine
 62
253
  6
CONTINUOUS
 10
65.6063139864
 20
192.020365523
 11
65.6063139864
 21
191.9522309831
  0
LINE
  5
4CF
100
AcDbEntity
  8
ASSI
100
AcDbLine
 62
253
  6
CONTINUOUS
 10
65.6063139864
 20
148.4631686531
 11
65.6063139864
 21
148.3950341133
  0
LINE
  5
4D0
100
AcDbEntity
  8
RACCORDO
100
AcDbLine
 62
253
  6
CONTINUOUS
 10
65.6063139864
 20
189.5351986282
 11
65.6063139864
 21
189.7631686531
  0
LINE
  5
4D1
100
AcDbEntity
  8
0
100
AcDbLine
 62
253
  6
CONTINUOUS
 10
65.6589280923
 20
149.3576998181
 11
65.6589280923
 21
149.7576998181
  0
LINE
  5
4D2
100
AcDbEntity
  8
0
100
AcDbLine
 62
253
  6
CONTINUOUS
 10
65.6589280923
 20
190.6576998181
 11
65.6589280923
 21
191.0576998181
  0
LINE
  5
4D3
100
AcDbEntity
  8
0
100
AcDbLine
 62
7
  6
CONTINUOUS
 10
66.0529142176
 20
173.2888998181
 11
66.0529142176
 21
167.1264998181
  0
LINE
  5
4D4
100
AcDbEntity
  8
0
100
AcDbLine
 62
7
  6
CONTINUOUS
 10
66.2152026989
 20
157.7076998181
 11
66.2152026989
 21
166.2076998181
  0
LINE
  5
4D5
100
AcDbEntity
  8
RACCORDO
100
AcDbLine
 62
7
  6
CONTINUOUS
 10
66.2152026989
 20
166.2076998181
 11
66.2152026989
 21
174.2076998181
  0
LINE
  5
4D6
100
AcDbEntity
  8
0
100
AcDbLine
 62
7
  6
CONTINUOUS
 10
66.2152026989
 20
174.2076998181
 11
66.2152026989
 21
182.7076998181
  0
LINE
  5
4D7
100
AcDbEntity
  8
RACCORDO
100
AcDbLine
 62
253
  6
CONTINUOUS
 10
65.6063139864
 20
150.880201008
 11
65.6063139864
 21
150.6522309831
  0
LINE
  5
4D8
100
AcDbEntity
  8
ASSI
100
AcDbLine
 62
7
  6
CONTINUOUS
 10
64.5936848418
 20
146.9576998181
 11
64.6063538437
 21
147.4741474531
  0
LWPOLYLINE
  5
4D9
100
AcDbEntity
  8
RACCORDO
100
AcDbPolyline
 62
7
  6
CONTINUOUS
 90
43
 70
0
 10
64.4824028242
 20
150.7570445178
 10
64.4826231941
 20
150.7652378899
 10
64.483176601
 20
150.7733722802
 10
64.4840565847
 20
150.7814343812
 10
64.4852567294
 20
150.7894142387
 10
64.4867693466
 20
150.7972966588
 10
64.488584351
 20
150.8050614323
 10
64.4906909425
 20
150.8126922984
 10
64.4930807647
 20
150.820184294
 10
64.4957467595
 20
150.8275349943
 10
64.4986779671
 20
150.834730878
 10
64.5018663745
 20
150.8417672514
 10
64.5053120799
 20
150.8486544878
 10
64.5090131875
 20
150.8553938191
 10
64.5129566362
 20
150.8619660852
 10
64.5171262074
 20
150.8683514974
 10
64.5215108401
 20
150.8745415832
 10
64.5261016659
 20
150.8805317375
 10
64.5308834486
 20
150.8863100975
 10
64.5358365703
 20
150.8918624322
 10
64.5409582941
 20
150.8971946961
 10
64.5462604483
 20
150.9023242892
 10
64.551742211
 20
150.9072521821
 10
64.5573877916
 20
150.9119659044
 10
64.5631888561
 20
150.9164608295
 10
64.5691399767
 20
150.9207347075
 10
64.575228905
 20
150.9247806286
 10
64.581436223
 20
150.9285885661
 10
64.5877479714
 20
150.9321538638
 10
64.5941583574
 20
150.935477051
 10
64.6006596219
 20
150.9385573701
 10
64.6072347046
 20
150.941390319
 10
64.6138813328
 20
150.9439784473
 10
64.620615137
 20
150.9463293107
 10
64.6274382817
 20
150.948443009
 10
64.6343316538
 20
150.9503129851
 10
64.6412796445
 20
150.9519353698
 10
64.6482759868
 20
150.9533093054
 10
64.6553089908
 20
150.9544330875
 10
64.6623544329
 20
150.9553043992
 10
64.6693980756
 20
150.9559241264
 10
64.6764359653
 20
150.9562945582
 10
64.6834592464
 20
150.9564175776
  0
LWPOLYLINE
  5
4DA
100
AcDbEntity
  8
ASSI
100
AcDbPolyline
 62
7
  6
CONTINUOUS
 90
25
 70
0
 10
64.3652026989
 20
149.6639255929
 10
64.3654487627
 20
149.6718999724
 10
64.3662789018
 20
149.6795215423
 10
64.3676931161
 20
149.6867892612
 10
64.3696852374
 20
149.693717311
 10
64.3722614339
 20
149.7002884128
 10
64.3754402105
 20
149.7064614839
 10
64.3792258332
 20
149.7122360457
 10
64.3836140359
 20
149.7176267096
 10
64.3886105255
 20
149.7226252636
 10
64.3941878127
 20
149.7272274164
 10
64.4003733869
 20
149.7314598075
 10
64.4072554231
 20
149.7353576591
 10
64.4147992937
 20
149.7389247678
 10
64.4230396264
 20
149.7421659565
 10
64.4321684795
 20
149.7451054844
 10
64.4421639325
 20
149.7477472486
 10
64.4530479059
 20
149.750082119
 10
64.4650782196
 20
149.7521084292
 10
64.4782165981
 20
149.7538273852
 10
64.4925013168
 20
149.7552333471
 10
64.5083050216
 20
149.7563196962
 10
64.5257519279
 20
149.7570891187
 10
64.5447178204
 20
149.7575478227
 10
64.5652026989
 20
149.7576998181
  0
LINE
  5
4DB
100
AcDbEntity
  8
RACCORDO
100
AcDbLine
 62
7
  6
CONTINUOUS
 10
66.2431393145
 20
191.9076998181
 11
66.2152026989
 21
191.1076998181
  0
LINE
  5
4DC
100
AcDbEntity
  8
ASSI
100
AcDbLine
 62
7
  6
CONTINUOUS
 10
64.7884017744
 20
150.0012172617
 11
64.7851360733
 21
149.9076998181
  0
LWPOLYLINE
  5
4DD
100
AcDbEntity
  8
ASSI
100
AcDbPolyline
 62
7
  6
CONTINUOUS
 90
25
 70
0
 10
64.3652026989
 20
149.3056030263
 10
64.3654487627
 20
149.3100332372
 10
64.3662789018
 20
149.3142674427
 10
64.3676931161
 20
149.3183050643
 10
64.3696852374
 20
149.3221539808
 10
64.3722614339
 20
149.3258045929
 10
64.3754402105
 20
149.3292340769
 10
64.3792258332
 20
149.3324421668
 10
64.3836140359
 20
149.33543698
 10
64.3886105255
 20
149.3382139545
 10
64.3941878127
 20
149.340770706
 10
64.4003733869
 20
149.3431220344
 10
64.4072554231
 20
149.3452875076
 10
64.4147992937
 20
149.3472692346
 10
64.4230396264
 20
149.349069895
 10
64.4321684795
 20
149.3507029661
 10
64.4421639325
 20
149.3521706129
 10
64.4530479059
 20
149.353467763
 10
64.4650782196
 20
149.3545934909
 10
64.4782165981
 20
149.3555484665
 10
64.4925013168
 20
149.3563295565
 10
64.5083050216
 20
149.3569330837
 10
64.5257519279
 20
149.3573605407
 10
64.5447178204
 20
149.3576153762
 10
64.5652026989
 20
149.3576998181
  0
LWPOLYLINE
  5
4DE
100
AcDbEntity
  8
0
100
AcDbPolyline
 62
7
  6
CONTINUOUS
 90
58
 70
0
 10
63.4255512456
 20
167.0864915511
 10
63.5475809202
 20
167.1922489303
 10
63.6647175414
 20
167.3015679413
 10
63.7769611091
 20
167.4144485843
 10
63.8843579751
 20
167.5310873332
 10
63.9868617876
 20
167.6512877141
 10
64.084333492
 20
167.7744603044
 10
64.1764284075
 20
167.8998722023
 10
64.2634912148
 20
168.0282563098
 10
64.3464169012
 20
168.1612219103
 10
64.4254146293
 20
168.2982502366
 10
64.5002752364
 20
168.4398600559
 10
64.5712662225
 20
168.589216954
 10
64.6390556801
 20
168.7464924476
 10
64.7029755167
 20
168.91151502
 10
64.7612889541
 20
169.0869357066
 10
64.8146451979
 20
169.2744343889
 10
64.8623950426
 20
169.4723311853
 10
64.9008540936
 20
169.6782374862
 10
64.9295535108
 20
169.8934978591
 10
64.9489621343
 20
170.1167677365
 10
64.9568020906
 20
170.3416248063
 10
64.9524034517
 20
170.5668038437
 10
64.9364361455
 20
170.7935700734
 10
64.9086320819
 20
171.0192968581
 10
64.8687244715
 20
171.2439884813
 10
64.8169801037
 20
171.4676406594
 10
64.7539312564
 20
171.6876139047
 10
64.6794538438
 20
171.9036322507
 10
64.5936719518
 20
172.1159716639
 10
64.4974901158
 20
172.3228205559
 10
64.391181804
 20
172.523708199
 10
64.2744735483
 20
172.719105321
 10
64.1474494796
 20
172.9086125163
 10
64.0096965731
 20
173.0927968653
 10
63.8616278535
 20
173.2710912877
 10
63.7045665268
 20
173.4413951366
 10
63.5382418405
 20
173.6036175396
 10
63.362924547
 20
173.757849369
 10
63.1807501092
 20
173.9022625952
 10
62.991924303
 20
174.0364838654
 10
62.7962413525
 20
174.1608865323
 10
62.5952193929
 20
174.2747626253
 10
62.3889460482
 20
174.3780338886
 10
62.1773336944
 20
174.470778578
 10
61.9616375941
 20
174.5525234897
 10
61.7422497681
 20
174.6232586887
 10
61.5187781956
 20
174.6829941101
 10
61.291302077
 20
174.7312863552
 10
61.0588640837
 20
174.7682674591
 10
60.8224215443
 20
174.7938053868
 10
60.584925644
 20
174.8070606342
 10
60.3457507082
 20
174.8075303429
 10
60.1055224116
 20
174.7957173712
 10
59.8690689634
 20
174.7722907901
 10
59.6379997669
 20
174.7374736232
 10
59.4107054189
 20
174.6910428467
 10
59.1871859193
 20
174.6329984608
  0
LINE
  5
4DF
100
AcDbEntity
  8
0
100
AcDbLine
 62
7
  6
CONTINUOUS
 10
66.0529142176
 20
167.1264998181
 11
60.6152026989
 21
163.9576998181
  0
LWPOLYLINE
  5
4E0
100
AcDbEntity
  8
0
100
AcDbPolyline
 62
7
  6
CONTINUOUS
 90
49
 70
0
 10
69.4152026989
 20
175.1091786427
 10
69.4379448004
 20
175.1094443153
 10
69.4607713597
 20
175.1090414831
 10
69.4836823769
 20
175.107970146
 10
69.5069842221
 20
175.1061604245
 10
69.5303705251
 20
175.1036821983
 10
69.5529221756
 20
175.1007451059
 10
69.5743624971
 20
175.0973555738
 10
69.594968166
 20
175.0935071757
 10
69.6146501014
 20
175.0893902706
 10
69.6333653144
 20
175.0850630193
 10
69.651156794
 20
175.0804672611
 10
69.6680644265
 20
175.0756188728
 10
69.6840267426
 20
175.070536352
 10
69.6991052117
 20
175.065201201
 10
69.7135241272
 20
175.0595738046
 10
69.7272660294
 20
175.0536613756
 10
69.740348378
 20
175.0474567011
 10
69.7530478465
 20
175.0408985263
 10
69.7654677033
 20
175.033947254
 10
69.7775046799
 20
175.0266424815
 10
69.7891256447
 20
175.0190417461
 10
69.8003211733
 20
175.0111525724
 10
69.8111006901
 20
175.0029674357
 10
69.8214593369
 20
174.9945212996
 10
69.8313759357
 20
174.9858373344
 10
69.8408716644
 20
174.9768923697
 10
69.8500051994
 20
174.9676518573
 10
69.8587952964
 20
174.9581012125
 10
69.8672231997
 20
174.9482550201
 10
69.8752913184
 20
174.9381224865
 10
69.883008134
 20
174.9276985892
 10
69.890365165
 20
174.9169883506
 10
69.8973393765
 20
174.9060160447
 10
69.903923168
 20
174.8947976703
 10
69.91012414
 20
174.8833172286
 10
69.9159420584
 20
174.8715509962
 10
69.9213837185
 20
174.8594894983
 10
69.9264423249
 20
174.8471422099
 10
69.9310972577
 20
174.8345138324
 10
69.9353547657
 20
174.8215857718
 10
69.9392086001
 20
174.8083766223
 10
69.942619393
 20
174.7949468674
 10
69.9455849054
 20
174.7812832808
 10
69.9481073764
 20
174.7673990889
 10
69.9501541563
 20
174.7533944549
 10
69.9517143617
 20
174.7393027665
 10
69.9527988759
 20
174.7250906359
 10
69.9534076989
 20
174.7107580633
  0
LINE
  5
4E1
100
AcDbEntity
  8
RACCORDO
100
AcDbLine
 62
7
  6
CONTINUOUS
 10
54.0152026989
 20
174.2076998181
 11
55.0152026989
 21
174.2076998181
  0
LINE
  5
4E2
100
AcDbEntity
  8
RACCORDO
100
AcDbLine
 62
7
  6
CONTINUOUS
 10
66.2152026989
 20
174.2076998181
 11
67.2152026989
 21
174.2076998181
  0
LINE
  5
4E3
100
AcDbEntity
  8
0
100
AcDbLine
 62
7
  6
CONTINUOUS
 10
69.9534076989
 20
174.3373328181
 11
68.8769976989
 21
174.3373328181
  0
LINE
  5
4E4
100
AcDbEntity
  8
0
100
AcDbLine
 62
7
  6
CONTINUOUS
 10
68.7152026989
 20
175.5657438181
 11
70.1152026989
 21
175.5657438181
  0
LINE
  5
4E5
100
AcDbEntity
  8
0
100
AcDbLine
 62
7
  6
CONTINUOUS
 10
69.9475196989
 20
175.7549278181
 11
69.4795696989
 21
175.7549278181
  0
LINE
  5
4E6
100
AcDbEntity
  8
0
100
AcDbLine
 62
7
  6
CONTINUOUS
 10
69.3118866989
 20
175.7549278181
 11
68.8828856989
 21
175.7549278181
  0
LWPOLYLINE
  5
4E7
100
AcDbEntity
  8
0
100
AcDbPolyline
 62
7
  6
CONTINUOUS
 90
55
 70
0
 10
69.4152026989
 20
175.3037875784
 10
69.3859780737
 20
175.303915841
 10
69.3579614256
 20
175.3034323716
 10
69.3311527547
 20
175.3023371702
 10
69.3056270615
 20
175.3006019536
 10
69.2813093454
 20
175.2982550049
 10
69.2579746047
 20
175.2953811734
 10
69.2358564249
 20
175.2920500337
 10
69.2147212205
 20
175.2881920111
 10
69.1936432328
 20
175.2836832303
 10
69.1721837656
 20
175.2784117331
 10
69.1507815152
 20
175.2724894776
 10
69.1298268118
 20
175.2661284639
 10
69.1092751018
 20
175.2592891646
 10
69.0891709388
 20
175.2520111069
 10
69.0700383143
 20
175.2446248722
 10
69.0520695572
 20
175.2372349228
 10
69.0350723385
 20
175.2297367963
 10
69.0189936629
 20
175.2221476871
 10
69.0039705456
 20
175.2145511787
 10
68.9898659714
 20
175.2068636875
 10
68.9762158987
 20
175.1988516574
 10
68.9630792978
 20
175.1905941819
 10
68.9503971986
 20
175.1820121675
 10
68.9375286486
 20
175.1726347765
 10
68.9241900709
 20
175.1622680822
 10
68.9106650424
 20
175.1511060113
 10
68.8971633414
 20
175.1392595067
 10
68.8835209267
 20
175.126532684
 10
68.8699018394
 20
175.1131214275
 10
68.857007981
 20
175.099724333
 10
68.8450475974
 20
175.0865161039
 10
68.8338124428
 20
175.0733220366
 10
68.8233796813
 20
175.0603166164
 10
68.8138966944
 20
175.0477054993
 10
68.8052161007
 20
175.0352830293
 10
68.7969729201
 20
175.0226067229
 10
68.7890918517
 20
175.0096218877
 10
68.7816481964
 20
174.9963832161
 10
68.7745028769
 20
174.9826123027
 10
68.7675847344
 20
174.9682036534
 10
68.7609649278
 20
174.9532627623
 10
68.7547178564
 20
174.9378277057
 10
68.7488434124
 20
174.9218843734
 10
68.7433417036
 20
174.9054468756
 10
68.7382874535
 20
174.8885956203
 10
68.7336850605
 20
174.8713282965
 10
68.7295301261
 20
174.853647215
 10
68.7258841788
 20
174.835639716
 10
68.7227535642
 20
174.8173121632
 10
68.7201319368
 20
174.7986581928
 10
68.7180617874
 20
174.7797460536
 10
68.7165572798
 20
174.7605984952
 10
68.7156042503
 20
174.7411927681
 10
68.7152026989
 20
174.7215288722
  0
LINE
  5
4E8
100
AcDbEntity
  8
ASSI
100
AcDbLine
 62
7
  6
CONTINUOUS
 10
53.6152026989
 20
177.2819588181
 11
51.8158586989
 21
177.7491528181
  0
LINE
  5
4E9
100
AcDbEntity
  8
ASSI
100
AcDbLine
 62
7
  6
CONTINUOUS
 10
51.4523746989
 20
177.8435298181
 11
50.9163886989
 21
177.9826968181
  0
LINE
  5
4EA
100
AcDbEntity
  8
ASSI
100
AcDbLine
 62
7
  6
CONTINUOUS
 10
52.0067946472
 20
178.0192155719
 11
53.2448126989
 21
177.6977688181
  0
LINE
  5
4EB
100
AcDbEntity
  8
ASSI
100
AcDbLine
 62
7
  6
CONTINUOUS
 10
52.0941866989
 20
177.1080808181
 11
53.6152026989
 21
176.7076998181
  0
LINE
  5
4EC
100
AcDbEntity
  8
ASSI
100
AcDbLine
 62
7
  6
CONTINUOUS
 10
51.1894676989
 20
177.3537138181
 11
51.7263956989
 21
177.2123768181
  0
LINE
  5
4ED
100
AcDbEntity
  8
0
100
AcDbLine
 62
7
  6
CONTINUOUS
 10
56.0620112457
 20
177.5201998479
 11
55.9662664869
 21
177.5514498181
  0
LINE
  5
4EE
100
AcDbEntity
  8
0
100
AcDbLine
 62
7
  6
CONTINUOUS
 10
56.5726495274
 20
177.5201998479
 11
56.4769048133
 21
177.5514498181
  0
LINE
  5
4EF
100
AcDbEntity
  8
0
100
AcDbLine
 62
7
  6
CONTINUOUS
 10
70.1152026989
 20
171.9720788181
 11
68.9393836989
 21
172.3659088181
  0
LINE
  5
4F0
100
AcDbEntity
  8
0
100
AcDbLine
 62
7
  6
CONTINUOUS
 10
68.7152026989
 20
172.2801428181
 11
69.9045286989
 21
171.8804058181
  0
LINE
  5
4F1
100
AcDbEntity
  8
0
100
AcDbLine
 62
7
  6
CONTINUOUS
 10
70.1152026989
 20
172.9119258181
 11
69.7077136989
 21
173.0581868181
  0
LINE
  5
4F2
100
AcDbEntity
  8
0
100
AcDbLine
 62
7
  6
CONTINUOUS
 10
69.5400306989
 20
173.1167008181
 11
68.9182706989
 21
173.3429538181
  0
LINE
  5
4F3
100
AcDbEntity
  8
0
100
AcDbLine
 62
7
  6
CONTINUOUS
 10
68.7152026989
 20
173.2433968181
 11
70.1152026989
 21
172.7169558181
  0
LINE
  5
4F4
100
AcDbEntity
  8
0
100
AcDbLine
 62
7
  6
CONTINUOUS
 10
55.8705218174
 20
177.4264498032
 11
56.0300963559
 21
177.3639498181
  0
LINE
  5
4F5
100
AcDbEntity
  8
0
100
AcDbLine
 62
7
  6
CONTINUOUS
 10
60.6152026989
 20
176.4576998181
 11
66.0529142176
 21
173.2888998181
  0
LINE
  5
4F6
100
AcDbEntity
  8
0
100
AcDbLine
 62
7
  6
CONTINUOUS
 10
56.7641388663
 20
178.2701997585
 11
56.8598835581
 21
178.2076998181
  0
LINE
  5
4F7
100
AcDbEntity
  8
0
100
AcDbLine
 62
7
  6
CONTINUOUS
 10
55.9662664869
 20
178.8951998777
 11
55.8705218174
 21
178.9576998181
  0
LINE
  5
4F8
100
AcDbEntity
  8
0
100
AcDbLine
 62
7
  6
CONTINUOUS
 10
56.2535005846
 20
179.7076998181
 11
56.1577559152
 21
179.7701999373
  0
LINE
  5
4F9
100
AcDbEntity
  8
0
100
AcDbLine
 62
7
  6
CONTINUOUS
 10
56.9875431285
 20
178.3014498181
 11
56.8598835581
 21
178.3951998181
  0
LINE
  5
4FA
100
AcDbEntity
  8
0
100
AcDbLine
 62
7
  6
CONTINUOUS
 10
55.6152026989
 20
181.6451999373
 11
55.8386069276
 21
181.4576999373
  0
LINE
  5
4FB
100
AcDbEntity
  8
0
100
AcDbLine
 62
7
  6
CONTINUOUS
 10
56.0939261355
 20
181.4576999373
 11
55.8705218174
 21
181.6451999373
  0
LINE
  5
4FC
100
AcDbEntity
  8
0
100
AcDbLine
 62
7
  6
CONTINUOUS
 10
56.8279686459
 20
179.6451998777
 11
56.8917984479
 21
179.5826997585
  0
LINE
  5
4FD
100
AcDbEntity
  8
0
100
AcDbLine
 62
7
  6
CONTINUOUS
 10
56.1577559152
 20
180.9576996989
 11
56.2215856948
 21
180.8951999373
  0
LINE
  5
4FE
100
AcDbEntity
  8
0
100
AcDbLine
 62
7
  6
CONTINUOUS
 10
56.8279686459
 20
181.0201998181
 11
56.8917984479
 21
180.9576996989
  0
LWPOLYLINE
  5
4FF
100
AcDbEntity
  8
RACCORDO
100
AcDbPolyline
 62
7
  6
CONTINUOUS
 90
25
 70
0
 10
65.1152026989
 20
194.693639354
 10
65.114759296
 20
194.6977099194
 10
65.1134783147
 20
194.701729001
 10
65.111359755
 20
194.705696599
 10
65.108387418
 20
194.709629215
 10
65.1045775025
 20
194.7135103474
 10
65.0999786054
 20
194.7172904908
 10
65.0945806201
 20
194.7209683518
 10
65.0883936531
 20
194.7245452238
 10
65.0814966214
 20
194.7279754827
 10
65.0738804293
 20
194.7312572504
 10
65.0655541724
 20
194.734392405
 10
65.0566240552
 20
194.7373409565
 10
65.0470823422
 20
194.7401005144
 10
65.0369367689
 20
194.7426734693
 10
65.0263167456
 20
194.7450270021
 10
65.0152161945
 20
194.7471583021
 10
65.0036411934
 20
194.7490701801
 10
64.9917393854
 20
194.7507382493
 10
64.9795065842
 20
194.7521593866
 10
64.9669469761
 20
194.7533367152
 10
64.9542207634
 20
194.7542552179
 10
64.9413813466
 20
194.7549098889
 10
64.9283753251
 20
194.7553057339
 10
64.9152026989
 20
194.7554427529
  0
LINE
  5
500
100
AcDbEntity
  8
RACCORDO
100
AcDbLine
 62
7
  6
CONTINUOUS
 10
66.8566343223
 20
192.7721196196
 11
66.8237556808
 21
193.4576998181
  0
LINE
  5
501
100
AcDbEntity
  8
RACCORDO
100
AcDbLine
 62
7
  6
CONTINUOUS
 10
66.2431393145
 20
189.8076998181
 11
66.2152026989
 21
190.6076998181
  0
LINE
  5
502
100
AcDbEntity
  8
RACCORDO
100
AcDbLine
 62
7
  6
CONTINUOUS
 10
67.1317510432
 20
153.0979161984
 11
67.1162844008
 21
153.618765664
  0
LINE
  5
503
100
AcDbEntity
  8
RACCORDO
100
AcDbLine
 62
253
  6
CONTINUOUS
 10
67.1152026989
 20
156.4885725119
 11
67.2131247895
 21
151.4775017217
  0
LINE
  5
504
100
AcDbEntity
  8
RACCORDO
100
AcDbLine
 62
253
  6
CONTINUOUS
 10
67.4148002556
 20
156.7987344743
 11
67.5131206772
 21
151.7672794696
  0
LINE
  5
505
100
AcDbEntity
  8
RACCORDO
100
AcDbLine
 62
253
  6
CONTINUOUS
 10
67.8156051423
 20
183.6166651619
 11
67.7172847207
 21
188.6481201666
  0
LINE
  5
506
100
AcDbEntity
  8
0
100
AcDbLine
 62
7
  6
CONTINUOUS
 10
66.6152026989
 20
195.2576998181
 11
66.6152026989
 21
193.4576998181
  0
LINE
  5
507
100
AcDbEntity
  8
0
100
AcDbLine
 62
7
  6
CONTINUOUS
 10
66.6152026989
 20
145.1576998181
 11
66.6152026989
 21
146.9576998181
  0
LINE
  5
508
100
AcDbEntity
  8
0
100
AcDbLine
 62
7
  6
CONTINUOUS
 10
66.6152026989
 20
149.3576998181
 11
66.6152026989
 21
149.7576998181
  0
LINE
  5
509
100
AcDbEntity
  8
0
100
AcDbLine
 62
7
  6
CONTINUOUS
 10
66.6152026989
 20
190.6576998181
 11
66.6152026989
 21
191.0576998181
  0
LINE
  5
50A
100
AcDbEntity
  8
RACCORDO
100
AcDbLine
 62
7
  6
CONTINUOUS
 10
66.8152026989
 20
191.1076998181
 11
66.8152026989
 21
190.6076998181
  0
LINE
  5
50B
100
AcDbEntity
  8
RACCORDO
100
AcDbLine
 62
7
  6
CONTINUOUS
 10
66.8152026989
 20
149.8076998181
 11
66.8152026989
 21
149.3076998181
  0
LINE
  5
50C
100
AcDbEntity
  8
RACCORDO
100
AcDbLine
 62
7
  6
CONTINUOUS
 10
66.8658223872
 20
193.4576998181
 11
66.8658223872
 21
192.020365523
  0
LINE
  5
50D
100
AcDbEntity
  8
RACCORDO
100
AcDbLine
 62
7
  6
CONTINUOUS
 10
66.8658223872
 20
148.3950341133
 11
66.8658223872
 21
147.7076998181
  0
LINE
  5
50E
100
AcDbEntity
  8
RACCORDO
100
AcDbLine
 62
7
  6
CONTINUOUS
 10
67.1152026989
 20
153.8649676023
 11
67.1152026989
 21
156.4885725119
  0
LINE
  5
50F
100
AcDbEntity
  8
RACCORDO
100
AcDbLine
 62
7
  6
CONTINUOUS
 10
67.1152026989
 20
183.9268271244
 11
67.1152026989
 21
186.5504320339
  0
LINE
  5
510
100
AcDbEntity
  8
RACCORDO
100
AcDbLine
 62
253
  6
CONTINUOUS
 10
67.2131247895
 20
150.88072187
 11
67.2131247895
 21
151.4775017217
  0
LINE
  5
511
100
AcDbEntity
  8
RACCORDO
100
AcDbLine
 62
253
  6
CONTINUOUS
 10
67.2131247895
 20
188.9378979145
 11
67.2131247895
 21
189.5346777662
  0
LINE
  5
512
100
AcDbEntity
  8
RACCORDO
100
AcDbLine
 62
7
  6
CONTINUOUS
 10
67.2152026989
 20
174.2076998181
 11
67.2152026989
 21
166.2076998181
  0
LINE
  5
513
100
AcDbEntity
  8
RACCORDO
100
AcDbLine
 62
253
  6
CONTINUOUS
 10
67.5131206772
 20
189.7351958867
 11
67.5131206772
 21
188.6481201666
  0
LINE
  5
514
100
AcDbEntity
  8
RACCORDO
100
AcDbLine
 62
253
  6
CONTINUOUS
 10
67.5131206772
 20
151.7672794696
 11
67.5131206772
 21
150.6802037496
  0
LINE
  5
515
100
AcDbEntity
  8
RACCORDO
100
AcDbLine
 62
253
  6
CONTINUOUS
 10
67.6152026989
 20
191.9076998181
 11
67.6152026989
 21
189.8076998181
  0
LINE
  5
516
100
AcDbEntity
  8
RACCORDO
100
AcDbLine
 62
253
  6
CONTINUOUS
 10
67.6152026989
 20
150.6076998181
 11
67.6152026989
 21
148.5076998181
  0
LINE
  5
517
100
AcDbEntity
  8
RACCORDO
100
AcDbLine
 62
253
  6
CONTINUOUS
 10
67.7172847207
 20
149.229159284
 11
67.7172847207
 21
151.7672794696
  0
LINE
  5
518
100
AcDbEntity
  8
RACCORDO
100
AcDbLine
 62
253
  6
CONTINUOUS
 10
67.7172847207
 20
188.6481201666
 11
67.7172847207
 21
191.1862403522
  0
LINE
  5
519
100
AcDbEntity
  8
RACCORDO
100
AcDbLine
 62
253
  6
CONTINUOUS
 10
68.0172806084
 20
191.1846777662
 11
68.0172806084
 21
188.9378979145
  0
LINE
  5
51A
100
AcDbEntity
  8
RACCORDO
100
AcDbLine
 62
253
  6
CONTINUOUS
 10
68.0172806084
 20
151.4775017217
 11
68.0172806084
 21
149.23072187
  0
LINE
  5
51B
100
AcDbEntity
  8
DRAFT
100
AcDbLine
 62
7
  6
CONTINUOUS
 10
68.0942585565
 20
191.1076998181
 11
68.0942585565
 21
189.8144990063
  0
LINE
  5
51C
100
AcDbEntity
  8
DRAFT
100
AcDbLine
 62
7
  6
CONTINUOUS
 10
68.0942585565
 20
149.3076998181
 11
68.0942585565
 21
150.6009006299
  0
LINE
  5
51D
100
AcDbEntity
  8
RACCORDO
100
AcDbLine
 62
7
  6
CONTINUOUS
 10
68.1152026989
 20
153.8649676023
 11
68.1152026989
 21
156.4885725119
  0
LINE
  5
51E
100
AcDbEntity
  8
RACCORDO
100
AcDbLine
 62
7
  6
CONTINUOUS
 10
68.1152026989
 20
183.9268271244
 11
68.1152026989
 21
186.5504320339
  0
LINE
  5
51F
100
AcDbEntity
  8
RACCORDO
100
AcDbLine
 62
253
  6
CONTINUOUS
 10
67.2131247895
 20
188.9378979145
 11
67.1152026989
 21
183.9268271244
  0
LINE
  5
520
100
AcDbEntity
  8
RACCORDO
100
AcDbLine
 62
253
  6
CONTINUOUS
 10
67.5131206772
 20
188.6481201666
 11
67.4148002556
 21
183.6166651619
  0
LINE
  5
521
100
AcDbEntity
  8
RACCORDO
100
AcDbLine
 62
253
  6
CONTINUOUS
 10
67.7172847207
 20
151.7672794696
 11
67.8156051423
 21
156.7987344743
  0
LWPOLYLINE
  5
522
100
AcDbEntity
  8
RACCORDO
100
AcDbPolyline
 62
253
  6
CONTINUOUS
 90
43
 70
0
 10
67.2131247895
 20
151.4775017217
 10
67.2133489863
 20
151.4883171685
 10
67.2139911225
 20
151.4991201456
 10
67.2150506047
 20
151.5098955756
 10
67.2165263913
 20
151.5206292604
 10
67.2184166542
 20
151.5313053137
 10
67.2207184485
 20
151.541906236
 10
67.2234283097
 20
151.5524163251
 10
67.2265426349
 20
151.5628218213
 10
67.230057139
 20
151.57310837
 10
67.2339669829
 20
151.5832617192
 10
67.2382666891
 20
151.5932675647
 10
67.2429501871
 20
151.6031117537
 10
67.248010901
 20
151.6127804758
 10
67.2534417939
 20
151.6222602976
 10
67.2592352971
 20
151.6315380057
 10
67.2653833314
 20
151.6406006564
 10
67.2718773066
 20
151.6494355808
 10
67.2787081452
 20
151.6580304271
 10
67.285866305
 20
151.6663731888
 10
67.2933417949
 20
151.6744522214
 10
67.3011241782
 20
151.6822562448
 10
67.3092025895
 20
151.6897743625
 10
67.3175657477
 20
151.6969960748
 10
67.3262019733
 20
151.7039112956
 10
67.3350992065
 20
151.7105103681
 10
67.3442450243
 20
151.7167840779
 10
67.3536266554
 20
151.7227236639
 10
67.3632309996
 20
151.7283208321
 10
67.373044646
 20
151.7335677666
 10
67.3830538901
 20
151.7384571401
 10
67.3932447552
 20
151.7429821251
 10
67.4036030114
 20
151.7471364032
 10
67.414114194
 20
151.750914173
 10
67.4247636267
 20
151.7543101598
 10
67.4355364381
 20
151.7573196212
 10
67.4464175818
 20
151.7599383541
 10
67.4573918613
 20
151.7621627018
 10
67.4684439548
 20
151.7639895591
 10
67.4795584332
 20
151.765416376
 10
67.4907197777
 20
151.7664411603
 10
67.501912402
 20
151.7670624807
 10
67.5131206772
 20
151.7672794696
  0
LWPOLYLINE
  5
523
100
AcDbEntity
  8
RACCORDO
100
AcDbPolyline
 62
253
  6
CONTINUOUS
 90
43
 70
0
 10
68.0172806084
 20
188.9378979145
 10
68.0170564116
 20
188.9270824677
 10
68.0164142754
 20
188.9162794906
 10
68.0153547932
 20
188.9055040607
 10
68.0138790066
 20
188.8947703758
 10
68.0119887437
 20
188.8840943225
 10
68.0096869494
 20
188.8734934002
 10
68.0069770882
 20
188.8629833111
 10
68.003862763
 20
188.852577815
 10
68.0003482589
 20
188.8422912662
 10
67.996438415
 20
188.832137917
 10
67.9921387088
 20
188.8221320715
 10
67.9874552108
 20
188.8122878825
 10
67.9823944969
 20
188.8026191604
 10
67.976963604
 20
188.7931393386
 10
67.9711701008
 20
188.7838616305
 10
67.9650220665
 20
188.7747989798
 10
67.9585280913
 20
188.7659640555
 10
67.9516972527
 20
188.7573692091
 10
67.9445390929
 20
188.7490264474
 10
67.937063603
 20
188.7409474148
 10
67.9292812197
 20
188.7331433914
 10
67.9212028084
 20
188.7256252738
 10
67.9128396502
 20
188.7184035614
 10
67.9042034246
 20
188.7114883406
 10
67.8953061914
 20
188.7048892681
 10
67.8861603736
 20
188.6986155583
 10
67.8767787425
 20
188.6926759723
 10
67.8671743983
 20
188.6870788041
 10
67.8573607519
 20
188.6818318696
 10
67.8473515078
 20
188.6769424961
 10
67.8371606427
 20
188.6724175111
 10
67.8268023865
 20
188.6682632331
 10
67.8162912039
 20
188.6644854632
 10
67.8056417711
 20
188.6610894764
 10
67.7948689598
 20
188.658080015
 10
67.7839878161
 20
188.6554612821
 10
67.7730135366
 20
188.6532369345
 10
67.7619614431
 20
188.6514100771
 10
67.7508469647
 20
188.6499832602
 10
67.7396856202
 20
188.6489584759
 10
67.7284929959
 20
188.6483371556
 10
67.7172847207
 20
188.6481201666
  0
LINE
  5
524
100
AcDbEntity
  8
RACCORDO
100
AcDbLine
 62
7
  6
CONTINUOUS
 10
67.1162844008
 20
186.7966339722
 11
67.1317510443
 21
187.3174834741
  0
LINE
  5
525
100
AcDbEntity
  8
RACCORDO
100
AcDbLine
 62
7
  6
CONTINUOUS
 10
66.2431393145
 20
150.6076998181
 11
66.2152026989
 21
149.8076998181
  0
LINE
  5
526
100
AcDbEntity
  8
RACCORDO
100
AcDbLine
 62
7
  6
CONTINUOUS
 10
66.8237556808
 20
146.9576998181
 11
66.8566343223
 21
147.6432800166
  0
LWPOLYLINE
  5
527
100
AcDbEntity
  8
RACCORDO
100
AcDbPolyline
 62
7
  6
CONTINUOUS
 90
25
 70
0
 10
65.1152026989
 20
145.3413376757
 10
65.114759296
 20
145.3372671103
 10
65.1134783147
 20
145.3332480287
 10
65.111359755
 20
145.3292804307
 10
65.108387418
 20
145.3253478147
 10
65.1045775025
 20
145.3214666823
 10
65.0999786054
 20
145.3176865389
 10
65.0945806201
 20
145.3140086779
 10
65.0883936531
 20
145.3104318059
 10
65.0814966214
 20
145.307001547
 10
65.0738804293
 20
145.3037197793
 10
65.0655541724
 20
145.3005846247
 10
65.0566240552
 20
145.2976360732
 10
65.0470823422
 20
145.2948765153
 10
65.0369367689
 20
145.2923035604
 10
65.0263167456
 20
145.2899500276
 10
65.0152161945
 20
145.2878187276
 10
65.0036411934
 20
145.2859068496
 10
64.9917393854
 20
145.2842387804
 10
64.9795065842
 20
145.2828176431
 10
64.9669469761
 20
145.2816403144
 10
64.9542207634
 20
145.2807218118
 10
64.9413813466
 20
145.2800671408
 10
64.9283753251
 20
145.2796712958
 10
64.9152026989
 20
145.2795342768
  0
LINE
  5
528
100
AcDbEntity
  8
0
100
AcDbLine
 62
7
  6
CONTINUOUS
 10
60.6152026989
 20
163.4076998181
 11
66.2152026989
 21
166.6526998181
  0
LINE
  5
529
100
AcDbEntity
  8
ASSI
100
AcDbLine
 62
7
  6
CONTINUOUS
 10
52.5304416989
 20
161.1031118181
 11
51.0650956989
 21
160.6829298181
  0
LINE
  5
52A
100
AcDbEntity
  8
ASSI
100
AcDbLine
 62
7
  6
CONTINUOUS
 10
51.8314066989
 20
160.4526428181
 11
53.3151966989
 21
160.8781058181
  0
LINE
  5
52B
100
AcDbEntity
  8
0
100
AcDbLine
 62
7
  6
CONTINUOUS
 10
56.4769048133
 20
177.3326998032
 11
56.7003090867
 21
177.3639498181
  0
LINE
  5
52C
100
AcDbEntity
  8
0
100
AcDbLine
 62
7
  6
CONTINUOUS
 10
69.4795696989
 20
176.5212308181
 11
69.3118866989
 21
176.5212308181
  0
LINE
  5
52D
100
AcDbEntity
  8
0
100
AcDbLine
 62
7
  6
CONTINUOUS
 10
68.8828856989
 20
176.5855758181
 11
68.7152026989
 21
176.5855758181
  0
LINE
  5
52E
100
AcDbEntity
  8
0
100
AcDbLine
 62
7
  6
CONTINUOUS
 10
70.1152026989
 20
176.5992418181
 11
69.9475196989
 21
176.5992418181
  0
LINE
  5
52F
100
AcDbEntity
  8
0
100
AcDbLine
 62
7
  6
CONTINUOUS
 10
55.8386069276
 20
176.7076998181
 11
56.0939261355
 21
176.7076998181
  0
LINE
  5
530
100
AcDbEntity
  8
0
100
AcDbLine
 62
7
  6
CONTINUOUS
 10
55.8705218174
 20
176.8951998181
 11
57.1152026989
 21
176.8951998181
  0
LINE
  5
531
100
AcDbEntity
  8
0
100
AcDbLine
 62
7
  6
CONTINUOUS
 10
57.1152026989
 20
177.0826998181
 11
55.6152026989
 21
177.0826998181
  0
LINE
  5
532
100
AcDbEntity
  8
0
100
AcDbLine
 62
7
  6
CONTINUOUS
 10
56.2535005846
 20
177.3326998032
 11
56.4769048133
 21
177.3326998032
  0
LINE
  5
533
100
AcDbEntity
  8
0
100
AcDbLine
 62
7
  6
CONTINUOUS
 10
68.7152026989
 20
177.4182278181
 11
70.1152026989
 21
177.4182278181
  0
LINE
  5
534
100
AcDbEntity
  8
0
100
AcDbLine
 62
7
  6
CONTINUOUS
 10
56.3173303642
 20
177.4889497883
 11
56.2535005846
 21
177.4889497883
  0
LINE
  5
535
100
AcDbEntity
  8
0
100
AcDbLine
 62
7
  6
CONTINUOUS
 10
56.6683941969
 20
177.5201998479
 11
56.5726495274
 21
177.5201998479
  0
LINE
  5
536
100
AcDbEntity
  8
0
100
AcDbLine
 62
7
  6
CONTINUOUS
 10
70.1152026989
 20
177.6073548181
 11
68.7152026989
 21
177.6073548181
  0
LINE
  5
537
100
AcDbEntity
  8
0
100
AcDbLine
 62
7
  6
CONTINUOUS
 10
56.0300963559
 20
177.3639498181
 11
56.2535005846
 21
177.3326998032
  0
LINE
  5
538
100
AcDbEntity
  8
0
100
AcDbLine
 62
7
  6
CONTINUOUS
 10
56.2535005846
 20
177.4889497883
 11
56.0620112457
 21
177.5201998479
  0
LINE
  5
539
100
AcDbEntity
  8
0
100
AcDbLine
 62
7
  6
CONTINUOUS
 10
55.8386069276
 20
178.7701998181
 11
55.9662664869
 21
178.7389497585
  0
LINE
  5
53A
100
AcDbEntity
  8
ASSI
100
AcDbLine
 62
7
  6
CONTINUOUS
 10
53.2292366989
 20
178.2495098181
 11
52.0941859942
 21
178.5442220011
  0
LINE
  5
53B
100
AcDbEntity
  8
ASSI
100
AcDbLine
 62
7
  6
CONTINUOUS
 10
52.0045706989
 20
178.8572648181
 11
53.4253833748
 21
178.4883559023
  0
LINE
  5
53C
100
AcDbEntity
  8
ASSI
100
AcDbLine
 62
7
  6
CONTINUOUS
 10
53.6152026989
 20
179.0009848181
 11
50.9163886989
 21
179.7017218181
  0
LINE
  5
53D
100
AcDbEntity
  8
ASSI
100
AcDbLine
 62
7
  6
CONTINUOUS
 10
51.9799511541
 20
179.7182544403
 11
53.3165206989
 21
179.3712198181
  0
LINE
  5
53E
100
AcDbEntity
  8
ASSI
100
AcDbLine
 62
7
  6
CONTINUOUS
 10
52.8312076989
 20
180.0472588181
 11
52.1306680231
 21
180.2291517339
  0
LINE
  5
53F
100
AcDbEntity
  8
ASSI
100
AcDbLine
 62
7
  6
CONTINUOUS
 10
51.1826326989
 20
179.0884828181
 11
51.8158586989
 21
178.9166468181
  0
LINE
  5
540
100
AcDbEntity
  8
0
100
AcDbLine
 62
7
  6
CONTINUOUS
 10
56.6683941969
 20
178.3014498181
 11
56.7641388663
 21
178.2701997585
  0
LINE
  5
541
100
AcDbEntity
  8
0
100
AcDbLine
 62
7
  6
CONTINUOUS
 10
56.8598835581
 20
178.3951998181
 11
56.7003090867
 21
178.4576997585
  0
LWPOLYLINE
  5
542
100
AcDbEntity
  8
ASSI
100
AcDbPolyline
 62
7
  6
CONTINUOUS
 90
8
 70
0
 10
53.3064424607
 20
180.2070783668
 10
53.3104144291
 20
180.2052978868
 10
53.3146487586
 20
180.2036352211
 10
53.3191454492
 20
180.2020903697
 10
53.32392343
 20
180.2006797242
 10
53.3289637719
 20
180.199386893
 10
53.3342096881
 20
180.1981627016
 10
53.3397355587
 20
180.1970156849
  0
LINE
  5
543
100
AcDbEntity
  8
0
100
AcDbLine
 62
7
  6
CONTINUOUS
 10
56.0300963559
 20
179.6451998777
 11
56.1577559152
 21
179.5826997585
  0
LINE
  5
544
100
AcDbEntity
  8
0
100
AcDbLine
 62
7
  6
CONTINUOUS
 10
56.7641388663
 20
179.6764497585
 11
56.8279686459
 21
179.6451998777
  0
LINE
  5
545
100
AcDbEntity
  8
0
100
AcDbLine
 62
7
  6
CONTINUOUS
 10
56.0300963559
 20
181.0201998181
 11
56.1577559152
 21
180.9576996989
  0
LINE
  5
546
100
AcDbEntity
  8
0
100
AcDbLine
 62
7
  6
CONTINUOUS
 10
66.2152026989
 20
173.7626998181
 11
60.6152026989
 21
177.0076998181
  0
LINE
  5
547
100
AcDbEntity
  8
0
100
AcDbLine
 62
7
  6
CONTINUOUS
 10
55.9662664869
 20
180.2701998181
 11
55.8705218174
 21
180.3326999373
  0
LINE
  5
548
100
AcDbEntity
  8
0
100
AcDbLine
 62
7
  6
CONTINUOUS
 10
56.9556282275
 20
179.7389496989
 11
56.8598835581
 21
179.8014498181
  0
LINE
  5
549
100
AcDbEntity
  8
0
100
AcDbLine
 62
7
  6
CONTINUOUS
 10
56.2535005846
 20
181.0826999373
 11
56.1577559152
 21
181.1451996989
  0
LINE
  5
54A
100
AcDbEntity
  8
0
100
AcDbLine
 62
7
  6
CONTINUOUS
 10
56.9556282275
 20
181.1139498181
 11
56.8598835581
 21
181.1764499373
  0
LINE
  5
54B
100
AcDbEntity
  8
0
100
AcDbLine
 62
7
  6
CONTINUOUS
 10
71.5958182983
 20
153.0979161621
 11
71.5406520497
 21
153.6551926945
  0
LINE
  5
54C
100
AcDbEntity
  8
RACCORDO
100
AcDbLine
 62
7
  6
CONTINUOUS
 10
68.1141209971
 20
186.7966339722
 11
68.0986543536
 21
187.3174834741
  0
LWPOLYLINE
  5
54D
100
AcDbEntity
  8
0
100
AcDbPolyline
 62
7
  6
CONTINUOUS
 90
46
 70
0
 10
69.5243616989
 20
156.8374528321
 10
69.5238545678
 20
156.8560741814
 10
69.5228021578
 20
156.8743118828
 10
69.5212044688
 20
156.8921659363
 10
69.5190397071
 20
156.909656382
 10
69.5163296665
 20
156.9267631798
 10
69.5131397285
 20
156.9434262089
 10
69.5094681029
 20
156.9596407137
 10
69.5053165798
 20
156.9754114499
 10
69.5007559113
 20
156.9906925635
 10
69.4957771753
 20
157.0054927378
 10
69.4903892937
 20
157.0198032896
 10
69.4846897845
 20
157.0335523153
 10
69.4786885288
 20
157.0467146664
 10
69.4723756453
 20
157.0593154914
 10
69.4658190083
 20
157.0713583324
 10
69.4590575041
 20
157.0827936964
 10
69.4520522463
 20
157.0936710762
 10
69.4447544507
 20
157.1041424923
 10
69.4371509067
 20
157.1142403041
 10
69.4292548247
 20
157.1239321522
 10
69.4210570515
 20
157.1332729787
 10
69.4125464764
 20
157.1422857217
 10
69.40373421
 20
157.1509474432
 10
69.394644431
 20
157.1592442713
 10
69.3853317447
 20
157.1671427208
 10
69.3757415457
 20
157.1746762769
 10
69.3657341969
 20
157.1819315225
 10
69.3553031371
 20
157.1889288139
 10
69.3444549273
 20
157.1956477948
 10
69.3330696132
 20
157.2021139802
 10
69.3210607506
 20
157.2083767241
 10
69.3085147836
 20
157.2143866725
 10
69.2955710901
 20
157.2200212782
 10
69.2822346883
 20
157.2252662563
 10
69.2685005598
 20
157.2301358917
 10
69.2544930284
 20
157.2345504918
 10
69.2402251661
 20
157.2384968765
 10
69.2256839008
 20
157.2419882259
 10
69.2109543396
 20
157.2449843887
 10
69.1960282116
 20
157.2474806858
 10
69.1809137878
 20
157.2494817963
 10
69.1657209876
 20
157.2509616055
 10
69.150486451
 20
157.2519114085
 10
69.1351735381
 20
157.2523399102
 10
69.1197822489
 20
157.2522471107
  0
LWPOLYLINE
  5
54E
100
AcDbEntity
  8
0
100
AcDbPolyline
 62
7
  6
CONTINUOUS
 90
46
 70
0
 10
69.5243616989
 20
161.7138523583
 10
69.5238545678
 20
161.7324737077
 10
69.5228021578
 20
161.7507114091
 10
69.5212044688
 20
161.7685654625
 10
69.5190397071
 20
161.7860559082
 10
69.5163296665
 20
161.803162706
 10
69.5131397285
 20
161.8198257351
 10
69.5094681029
 20
161.83604024
 10
69.5053165798
 20
161.8518109761
 10
69.5007559113
 20
161.8670920898
 10
69.4957771753
 20
161.8818922641
 10
69.4903892937
 20
161.8962028158
 10
69.4846897845
 20
161.9099518415
 10
69.4786885288
 20
161.9231141926
 10
69.4723756453
 20
161.9357150177
 10
69.4658190083
 20
161.9477578586
 10
69.4590575041
 20
161.9591932226
 10
69.4520522463
 20
161.9700706025
 10
69.4447544507
 20
161.9805420186
 10
69.4371509067
 20
161.9906398304
 10
69.4292548247
 20
162.0003316784
 10
69.4210570515
 20
162.0096725049
 10
69.4125464764
 20
162.018685248
 10
69.40373421
 20
162.0273469695
 10
69.394644431
 20
162.0356437975
 10
69.3853317447
 20
162.0435422471
 10
69.3757415457
 20
162.0510758031
 10
69.3657341969
 20
162.0583310488
 10
69.3553031371
 20
162.0653283401
 10
69.3444549273
 20
162.072047321
 10
69.3330696132
 20
162.0785135064
 10
69.3210607506
 20
162.0847762503
 10
69.3085147836
 20
162.0907861987
 10
69.2955710901
 20
162.0964208044
 10
69.2822346883
 20
162.1016657825
 10
69.2685005598
 20
162.1065354179
 10
69.2544930284
 20
162.1109500181
 10
69.2402251661
 20
162.1148964027
 10
69.2256839008
 20
162.1183877522
 10
69.2109543396
 20
162.121383915
 10
69.1960282116
 20
162.1238802121
 10
69.1809137878
 20
162.1258813225
 10
69.1657209876
 20
162.1273611317
 10
69.150486451
 20
162.1283109347
 10
69.1351735381
 20
162.1287394365
 10
69.1197822489
 20
162.128646637
  0
LINE
  5
54F
100
AcDbEntity
  8
RACCORDO
100
AcDbLine
 62
253
  6
CONTINUOUS
 10
68.1152026989
 20
183.9268271244
 11
68.0172806084
 21
188.9378979145
  0
LWPOLYLINE
  5
550
100
AcDbEntity
  8
0
100
AcDbPolyline
 62
7
  6
CONTINUOUS
 90
54
 70
0
 10
70.1152026989
 20
165.6505422974
 10
70.1149415423
 20
165.6684984316
 10
70.1141117559
 20
165.6865866489
 10
70.1127133398
 20
165.7048069492
 10
70.11074226
 20
165.7232202132
 10
70.1082025505
 20
165.7417655602
 10
70.105106313
 20
165.7602603485
 10
70.1014350386
 20
165.778731201
 10
70.0972072362
 20
165.7971514947
 10
70.0924905343
 20
165.8152587189
 10
70.0872848702
 20
165.8330038644
 10
70.0815903067
 20
165.8504359405
 10
70.0754746597
 20
165.8674394638
 10
70.0689456509
 20
165.8839798177
 10
70.0619955587
 20
165.9000916189
 10
70.0546690349
 20
165.9157632338
 10
70.0469645518
 20
165.930996045
 10
70.0388836372
 20
165.94578867
 10
70.0304755264
 20
165.9601253283
 10
70.0217513106
 20
165.9739923839
 10
70.0126998986
 20
165.9874034729
 10
70.0033372517
 20
166.0003837231
 10
69.9936991558
 20
166.0129007157
 10
69.983749825
 20
166.0249868695
 10
69.9733978631
 20
166.0367645686
 10
69.9626324118
 20
166.0482598477
 10
69.9514643293
 20
166.0594466721
 10
69.9398347945
 20
166.0703693223
 10
69.9277052497
 20
166.0810683297
 10
69.9151142525
 20
166.0915031629
 10
69.9021186546
 20
166.1015965081
 10
69.8888118854
 20
166.111290983
 10
69.8751005154
 20
166.1206439699
 10
69.8607611083
 20
166.129750302
 10
69.8458449541
 20
166.1385981906
 10
69.8303007627
 20
166.1471994243
 10
69.8137512271
 20
166.1556842019
 10
69.7960464412
 20
166.1641328413
 10
69.7773363111
 20
166.1724650245
 10
69.7576932486
 20
166.1805699964
 10
69.7368020579
 20
166.1885578085
 10
69.7149779349
 20
166.1963184094
 10
69.6932388795
 20
166.2034108897
 10
69.671943886
 20
166.2096836428
 10
69.65073396
 20
166.2152882755
 10
69.6295501187
 20
166.2202386989
 10
69.6086551047
 20
166.224503395
 10
69.5877861753
 20
166.2281138818
 10
69.5660961188
 20
166.2311786246
 10
69.5433697534
 20
166.2337200958
 10
69.5198222609
 20
166.235715823
 10
69.4952519758
 20
166.2372068533
 10
69.4695916762
 20
166.2382068691
 10
69.4429085839
 20
166.238702188
  0
LWPOLYLINE
  5
551
100
AcDbEntity
  8
0
100
AcDbPolyline
 62
7
  6
CONTINUOUS
 90
55
 70
0
 10
70.1152026989
 20
174.7155763891
 10
70.1149801526
 20
174.7353338608
 10
70.1141977058
 20
174.7548472025
 10
70.1128553587
 20
174.7741164141
 10
70.1109393428
 20
174.7931658932
 10
70.1084634265
 20
174.8119712422
 10
70.1054689154
 20
174.8304592688
 10
70.1019493468
 20
174.8486356658
 10
70.0979111834
 20
174.8664947404
 10
70.093415119
 20
174.8839462214
 10
70.0884561192
 20
174.9009889087
 10
70.0830392185
 20
174.9176240025
 10
70.0772402134
 20
174.9337648323
 10
70.0710566214
 20
174.9494004812
 10
70.0644909252
 20
174.9645418662
 10
70.0576263686
 20
174.9791350681
 10
70.0505327518
 20
174.99307248
 10
70.0431402747
 20
175.0064617088
 10
70.0353227807
 20
175.0195716566
 10
70.0271571567
 20
175.0323444406
 10
70.0185665159
 20
175.0448379435
 10
70.0091940418
 20
175.0574947162
 10
69.9989150486
 20
175.0704986915
 10
69.9878542221
 20
175.0836659366
 10
69.9760288039
 20
175.0968872032
 10
69.9632134044
 20
175.110360146
 10
69.9496334131
 20
175.1238871104
 10
69.9359822401
 20
175.1367658839
 10
69.9223995141
 20
175.148819623
 10
69.9087456063
 20
175.1602251713
 10
69.8952950401
 20
175.1708108464
 10
69.8823592223
 20
175.1803575938
 10
69.8696267461
 20
175.1890844679
 10
69.8564379155
 20
175.1974769503
 10
69.8427332295
 20
175.2056167515
 10
69.8285721892
 20
175.2134221611
 10
69.8134736015
 20
175.2211335289
 10
69.7972936764
 20
175.2288371031
 10
69.7801762039
 20
175.2364466357
 10
69.7620713623
 20
175.2439437319
 10
69.7427797619
 20
175.2514342654
 10
69.7225007923
 20
175.2588123626
 10
69.7017828005
 20
175.265742008
 10
69.6806735852
 20
175.2721825833
 10
69.6591253475
 20
175.2781747068
 10
69.6375430376
 20
175.2835042179
 10
69.6163788281
 20
175.2880559926
 10
69.5951805463
 20
175.291945155
 10
69.572996624
 20
175.2953029157
 10
69.5495872348
 20
175.2982013411
 10
69.5251922051
 20
175.3005683648
 10
69.4995794456
 20
175.3023189992
 10
69.4726715932
 20
175.303424915
 10
69.444546011
 20
175.3039144414
 10
69.4152026989
 20
175.3037875784
  0
LINE
  5
552
100
AcDbEntity
  8
0
100
AcDbLine
 62
7
  6
CONTINUOUS
 10
68.7152026989
 20
185.1243298181
 11
68.7152026989
 21
184.9019608181
  0
LINE
  5
553
100
AcDbEntity
  8
0
100
AcDbLine
 62
7
  6
CONTINUOUS
 10
68.7152026989
 20
184.0986448181
 11
68.7152026989
 21
183.8783128181
  0
LINE
  5
554
100
AcDbEntity
  8
0
100
AcDbLine
 62
7
  6
CONTINUOUS
 10
68.7152026989
 20
183.1042088181
 11
68.7152026989
 21
182.9150138181
  0
LINE
  5
555
100
AcDbEntity
  8
0
100
AcDbLine
 62
7
  6
CONTINUOUS
 10
68.7152026989
 20
182.2345108181
 11
68.7152026989
 21
182.0200548181
  0
LINE
  5
556
100
AcDbEntity
  8
0
100
AcDbLine
 62
7
  6
CONTINUOUS
 10
68.7152026989
 20
181.4389508181
 11
68.7152026989
 21
180.3021598181
  0
LINE
  5
557
100
AcDbEntity
  8
0
100
AcDbLine
 62
7
  6
CONTINUOUS
 10
68.7152026989
 20
180.0993658181
 11
68.7152026989
 21
179.9101818181
  0
LINE
  5
558
100
AcDbEntity
  8
0
100
AcDbLine
 62
7
  6
CONTINUOUS
 10
68.7152026989
 20
179.0425108181
 11
68.7152026989
 21
178.8592368181
  0
LINE
  5
559
100
AcDbEntity
  8
0
100
AcDbLine
 62
7
  6
CONTINUOUS
 10
68.7152026989
 20
178.1552738181
 11
68.7152026989
 21
177.9309908181
  0
LINE
  5
55A
100
AcDbEntity
  8
0
100
AcDbLine
 62
7
  6
CONTINUOUS
 10
68.7152026989
 20
177.6073548181
 11
68.7152026989
 21
177.4182278181
  0
LINE
  5
55B
100
AcDbEntity
  8
0
100
AcDbLine
 62
7
  6
CONTINUOUS
 10
68.7152026989
 20
176.5855758181
 11
68.7152026989
 21
175.5657438181
  0
LINE
  5
55C
100
AcDbEntity
  8
0
100
AcDbLine
 62
7
  6
CONTINUOUS
 10
68.7152026989
 20
174.7215288722
 11
68.7152026989
 21
174.1481378181
  0
LINE
  5
55D
100
AcDbEntity
  8
0
100
AcDbLine
 62
7
  6
CONTINUOUS
 10
68.7152026989
 20
173.4579198181
 11
68.7152026989
 21
173.2433968181
  0
LINE
  5
55E
100
AcDbEntity
  8
0
100
AcDbLine
 62
7
  6
CONTINUOUS
 10
68.7152026989
 20
172.5492618181
 11
68.7152026989
 21
172.2801428181
  0
LINE
  5
55F
100
AcDbEntity
  8
0
100
AcDbLine
 62
7
  6
CONTINUOUS
 10
68.7152026989
 20
171.4787428181
 11
68.7152026989
 21
171.2076998181
  0
LINE
  5
560
100
AcDbEntity
  8
0
100
AcDbLine
 62
7
  6
CONTINUOUS
 10
68.7152026989
 20
165.6505422974
 11
68.7152026989
 21
165.0831358181
  0
LINE
  5
561
100
AcDbEntity
  8
0
100
AcDbLine
 62
7
  6
CONTINUOUS
 10
68.7152026989
 20
164.7770488181
 11
68.7152026989
 21
164.5937718181
  0
LINE
  5
562
100
AcDbEntity
  8
0
100
AcDbLine
 62
7
  6
CONTINUOUS
 10
68.7152026989
 20
163.8899578181
 11
68.7152026989
 21
163.6656708181
  0
LINE
  5
563
100
AcDbEntity
  8
0
100
AcDbLine
 62
7
  6
CONTINUOUS
 10
68.7152026989
 20
163.4044628181
 11
68.7152026989
 21
162.3846128181
  0
LINE
  5
564
100
AcDbEntity
  8
0
100
AcDbLine
 62
7
  6
CONTINUOUS
 10
68.7152026989
 20
161.7138506274
 11
68.7152026989
 21
161.0840998181
  0
LINE
  5
565
100
AcDbEntity
  8
0
100
AcDbLine
 62
7
  6
CONTINUOUS
 10
68.7152026989
 20
159.8050308181
 11
68.7152026989
 21
158.6683398181
  0
LINE
  5
566
100
AcDbEntity
  8
0
100
AcDbLine
 62
7
  6
CONTINUOUS
 10
68.7152026989
 20
158.1087818181
 11
68.7152026989
 21
157.8943318181
  0
LINE
  5
567
100
AcDbEntity
  8
0
100
AcDbLine
 62
7
  6
CONTINUOUS
 10
68.7152026989
 20
156.8374511012
 11
68.7152026989
 21
156.2076998181
  0
LINE
  5
568
100
AcDbEntity
  8
DRAFT
100
AcDbLine
 62
7
  6
CONTINUOUS
 10
68.7722982833
 20
193.4576998181
 11
68.7722982833
 21
192.7076998181
  0
LINE
  5
569
100
AcDbEntity
  8
0
100
AcDbLine
 62
7
  6
CONTINUOUS
 10
68.8769976989
 20
174.3373328181
 11
68.8769976989
 21
174.7107580633
  0
LINE
  5
56A
100
AcDbEntity
  8
0
100
AcDbLine
 62
7
  6
CONTINUOUS
 10
68.8770346989
 20
156.3968348181
 11
68.8770346989
 21
156.7809688903
  0
LINE
  5
56B
100
AcDbEntity
  8
0
100
AcDbLine
 62
7
  6
CONTINUOUS
 10
68.8770346989
 20
161.2732348181
 11
68.8770346989
 21
161.6573684165
  0
LINE
  5
56C
100
AcDbEntity
  8
0
100
AcDbLine
 62
7
  6
CONTINUOUS
 10
68.8770346989
 20
165.2722718181
 11
68.8770346989
 21
165.6252319392
  0
LINE
  5
56D
100
AcDbEntity
  8
0
100
AcDbLine
 62
7
  6
CONTINUOUS
 10
68.8828856989
 20
175.7549278181
 11
68.8828856989
 21
176.5855758181
  0
LINE
  5
56E
100
AcDbEntity
  8
0
100
AcDbLine
 62
7
  6
CONTINUOUS
 10
68.8828856989
 20
180.3021598181
 11
68.8828856989
 21
180.7759968181
  0
LINE
  5
56F
100
AcDbEntity
  8
0
100
AcDbLine
 62
7
  6
CONTINUOUS
 10
68.8828856989
 20
180.9651128181
 11
68.8828856989
 21
181.4389508181
  0
LINE
  5
570
100
AcDbEntity
  8
0
100
AcDbLine
 62
7
  6
CONTINUOUS
 10
68.8828926989
 20
158.6683398181
 11
68.8828926989
 21
159.1421178181
  0
LINE
  5
571
100
AcDbEntity
  8
0
100
AcDbLine
 62
7
  6
CONTINUOUS
 10
68.8828926989
 20
159.3312528181
 11
68.8828926989
 21
159.8050308181
  0
LINE
  5
572
100
AcDbEntity
  8
0
100
AcDbLine
 62
7
  6
CONTINUOUS
 10
68.8828926989
 20
162.5737478181
 11
68.8828926989
 21
163.4044628181
  0
LINE
  5
573
100
AcDbEntity
  8
0
100
AcDbLine
 62
7
  6
CONTINUOUS
 10
69.3118866989
 20
176.5212308181
 11
69.3118866989
 21
175.7549278181
  0
LINE
  5
574
100
AcDbEntity
  8
0
100
AcDbLine
 62
7
  6
CONTINUOUS
 10
69.3119026989
 20
163.3401278181
 11
69.3119026989
 21
162.5737478181
  0
LINE
  5
575
100
AcDbEntity
  8
0
100
AcDbLine
 62
7
  6
CONTINUOUS
 10
69.3625296989
 20
161.6573707202
 11
69.3625296989
 21
161.2732348181
  0
LINE
  5
576
100
AcDbEntity
  8
0
100
AcDbLine
 62
7
  6
CONTINUOUS
 10
69.3625296989
 20
156.780971194
 11
69.3625296989
 21
156.3968348181
  0
LINE
  5
577
100
AcDbEntity
  8
0
100
AcDbLine
 62
7
  6
CONTINUOUS
 10
69.4795696989
 20
175.7549278181
 11
69.4795696989
 21
176.5212308181
  0
LINE
  5
578
100
AcDbEntity
  8
0
100
AcDbLine
 62
7
  6
CONTINUOUS
 10
69.4795926989
 20
162.5737478181
 11
69.4795926989
 21
163.3401278181
  0
LINE
  5
579
100
AcDbEntity
  8
0
100
AcDbLine
 62
7
  6
CONTINUOUS
 10
69.5243616989
 20
156.3968348181
 11
69.5243616989
 21
156.8374528321
  0
LINE
  5
57A
100
AcDbEntity
  8
0
100
AcDbLine
 62
7
  6
CONTINUOUS
 10
69.5243616989
 20
161.2732348181
 11
69.5243616989
 21
161.7138523583
  0
LINE
  5
57B
100
AcDbEntity
  8
0
100
AcDbLine
 62
7
  6
CONTINUOUS
 10
69.5399476989
 20
158.2022988181
 11
69.5399476989
 21
157.7675418181
  0
LINE
  5
57C
100
AcDbEntity
  8
0
100
AcDbLine
 62
7
  6
CONTINUOUS
 10
69.5400306989
 20
182.3281118181
 11
69.5400306989
 21
181.8932798181
  0
LINE
  5
57D
100
AcDbEntity
  8
0
100
AcDbLine
 62
7
  6
CONTINUOUS
 10
69.5400306989
 20
173.5515328181
 11
69.5400306989
 21
173.1167008181
  0
LINE
  5
57E
100
AcDbEntity
  8
0
100
AcDbLine
 62
7
  6
CONTINUOUS
 10
69.7076386989
 20
157.7090658181
 11
69.7076386989
 21
158.2706138181
  0
LINE
  5
57F
100
AcDbEntity
  8
0
100
AcDbLine
 62
7
  6
CONTINUOUS
 10
69.7077136989
 20
173.0581868181
 11
69.7077136989
 21
173.6197268181
  0
LINE
  5
580
100
AcDbEntity
  8
0
100
AcDbLine
 62
7
  6
CONTINUOUS
 10
69.7077136989
 20
181.8347778181
 11
69.7077136989
 21
182.3963738181
  0
LINE
  5
581
100
AcDbEntity
  8
ASSI
100
AcDbLine
 62
253
  6
CONTINUOUS
 10
69.8754098515
 20
192.7076998181
 11
69.8754098515
 21
191.1862403522
  0
LINE
  5
582
100
AcDbEntity
  8
ASSI
100
AcDbLine
 62
253
  6
CONTINUOUS
 10
69.8754098515
 20
149.229159284
 11
69.8754098515
 21
147.7076998181
  0
LINE
  5
583
100
AcDbEntity
  8
0
100
AcDbLine
 62
7
  6
CONTINUOUS
 10
69.9084916989
 20
166.7054338181
 11
69.9084916989
 21
166.5025908181
  0
LINE
  5
584
100
AcDbEntity
  8
0
100
AcDbLine
 62
7
  6
CONTINUOUS
 10
69.9084916989
 20
160.2047468181
 11
69.9084916989
 21
160.0020148181
  0
LINE
  5
585
100
AcDbEntity
  8
0
100
AcDbLine
 62
7
  6
CONTINUOUS
 10
69.9475126989
 20
163.4180588181
 11
69.9475126989
 21
162.5737478181
  0
LINE
  5
586
100
AcDbEntity
  8
0
100
AcDbLine
 62
7
  6
CONTINUOUS
 10
69.9475196989
 20
183.8140028181
 11
69.9475196989
 21
183.1042088181
  0
LINE
  5
587
100
AcDbEntity
  8
0
100
AcDbLine
 62
7
  6
CONTINUOUS
 10
69.9475196989
 20
176.5992418181
 11
69.9475196989
 21
175.7549278181
  0
LINE
  5
588
100
AcDbEntity
  8
0
100
AcDbLine
 62
7
  6
CONTINUOUS
 10
69.9533706989
 20
165.6252319396
 11
69.9533706989
 21
165.2722718181
  0
LINE
  5
589
100
AcDbEntity
  8
0
100
AcDbLine
 62
7
  6
CONTINUOUS
 10
69.9534076989
 20
174.7107580633
 11
69.9534076989
 21
174.3373328181
  0
LINE
  5
58A
100
AcDbEntity
  8
0
100
AcDbLine
 62
7
  6
CONTINUOUS
 10
70.1152026989
 20
156.2076998181
 11
70.1152026989
 21
156.3968348181
  0
LINE
  5
58B
100
AcDbEntity
  8
0
100
AcDbLine
 62
7
  6
CONTINUOUS
 10
70.1152026989
 20
157.3678258181
 11
70.1152026989
 21
157.5628198181
  0
LINE
  5
58C
100
AcDbEntity
  8
0
100
AcDbLine
 62
7
  6
CONTINUOUS
 10
70.1152026989
 20
158.4091208181
 11
70.1152026989
 21
158.6157218181
  0
LINE
  5
58D
100
AcDbEntity
  8
0
100
AcDbLine
 62
7
  6
CONTINUOUS
 10
70.1152026989
 20
159.1421178181
 11
70.1152026989
 21
159.3312528181
  0
LINE
  5
58E
100
AcDbEntity
  8
0
100
AcDbLine
 62
7
  6
CONTINUOUS
 10
70.1152026989
 20
160.0020148181
 11
70.1152026989
 21
160.2047468181
  0
LINE
  5
58F
100
AcDbEntity
  8
0
100
AcDbLine
 62
7
  6
CONTINUOUS
 10
70.1152026989
 20
161.0840998181
 11
70.1152026989
 21
161.2732348181
  0
LINE
  5
590
100
AcDbEntity
  8
0
100
AcDbLine
 62
7
  6
CONTINUOUS
 10
70.1152026989
 20
162.3846128181
 11
70.1152026989
 21
163.4180588181
  0
LINE
  5
591
100
AcDbEntity
  8
0
100
AcDbLine
 62
7
  6
CONTINUOUS
 10
70.1152026989
 20
163.6656708181
 11
70.1152026989
 21
163.8489478181
  0
LINE
  5
592
100
AcDbEntity
  8
0
100
AcDbLine
 62
7
  6
CONTINUOUS
 10
70.1152026989
 20
164.5645888181
 11
70.1152026989
 21
164.7770488181
  0
LINE
  5
593
100
AcDbEntity
  8
0
100
AcDbLine
 62
7
  6
CONTINUOUS
 10
70.1152026989
 20
165.0831358181
 11
70.1152026989
 21
165.6505422974
  0
LINE
  5
594
100
AcDbEntity
  8
0
100
AcDbLine
 62
7
  6
CONTINUOUS
 10
70.1152026989
 20
166.5025908181
 11
70.1152026989
 21
166.7054338181
  0
LINE
  5
595
100
AcDbEntity
  8
0
100
AcDbLine
 62
7
  6
CONTINUOUS
 10
70.1152026989
 20
171.2076998181
 11
70.1152026989
 21
171.3909788181
  0
LINE
  5
596
100
AcDbEntity
  8
0
100
AcDbLine
 62
7
  6
CONTINUOUS
 10
70.1152026989
 20
171.7848848181
 11
70.1152026989
 21
171.9720788181
  0
LINE
  5
597
100
AcDbEntity
  8
0
100
AcDbLine
 62
7
  6
CONTINUOUS
 10
70.1152026989
 20
172.3659088181
 11
70.1152026989
 21
172.5492618181
  0
LINE
  5
598
100
AcDbEntity
  8
0
100
AcDbLine
 62
7
  6
CONTINUOUS
 10
70.1152026989
 20
172.7169558181
 11
70.1152026989
 21
172.9119258181
  0
LINE
  5
599
100
AcDbEntity
  8
0
100
AcDbLine
 62
7
  6
CONTINUOUS
 10
70.1152026989
 20
173.7581528181
 11
70.1152026989
 21
173.9648638181
  0
LINE
  5
59A
100
AcDbEntity
  8
0
100
AcDbLine
 62
7
  6
CONTINUOUS
 10
70.1152026989
 20
174.1481378181
 11
70.1152026989
 21
174.7155763891
  0
LINE
  5
59B
100
AcDbEntity
  8
0
100
AcDbLine
 62
7
  6
CONTINUOUS
 10
70.1152026989
 20
175.5657438181
 11
70.1152026989
 21
176.5992418181
  0
LINE
  5
59C
100
AcDbEntity
  8
0
100
AcDbLine
 62
7
  6
CONTINUOUS
 10
70.1152026989
 20
177.4182278181
 11
70.1152026989
 21
177.6073548181
  0
LINE
  5
59D
100
AcDbEntity
  8
0
100
AcDbLine
 62
7
  6
CONTINUOUS
 10
70.1152026989
 20
177.9309908181
 11
70.1152026989
 21
178.1143548181
  0
LINE
  5
59E
100
AcDbEntity
  8
0
100
AcDbLine
 62
7
  6
CONTINUOUS
 10
70.1152026989
 20
178.8299798181
 11
70.1152026989
 21
179.0425108181
  0
LINE
  5
59F
100
AcDbEntity
  8
0
100
AcDbLine
 62
7
  6
CONTINUOUS
 10
70.1152026989
 20
179.9101818181
 11
70.1152026989
 21
180.0993658181
  0
LINE
  5
5A0
100
AcDbEntity
  8
0
100
AcDbLine
 62
7
  6
CONTINUOUS
 10
70.1152026989
 20
180.7759968181
 11
70.1152026989
 21
180.9651128181
  0
LINE
  5
5A1
100
AcDbEntity
  8
0
100
AcDbLine
 62
7
  6
CONTINUOUS
 10
70.1152026989
 20
181.4935468181
 11
70.1152026989
 21
181.6885048181
  0
LINE
  5
5A2
100
AcDbEntity
  8
0
100
AcDbLine
 62
7
  6
CONTINUOUS
 10
70.1152026989
 20
182.5348118181
 11
70.1152026989
 21
182.7415558181
  0
LINE
  5
5A3
100
AcDbEntity
  8
0
100
AcDbLine
 62
7
  6
CONTINUOUS
 10
70.1152026989
 20
182.9150138181
 11
70.1152026989
 21
183.8140028181
  0
LINE
  5
5A4
100
AcDbEntity
  8
0
100
AcDbLine
 62
7
  6
CONTINUOUS
 10
70.1152026989
 20
184.4067238181
 11
70.1152026989
 21
184.5958058181
  0
LWPOLYLINE
  5
5A5
100
AcDbEntity
  8
0
100
AcDbPolyline
 62
7
  6
CONTINUOUS
 90
49
 70
0
 10
68.8770346989
 20
165.6252319392
 10
68.8772779285
 20
165.6402610549
 10
68.8780594967
 20
165.6554513192
 10
68.8793794034
 20
165.670802732
 10
68.8812676686
 20
165.6864789237
 10
68.8836942724
 20
165.702316264
 10
68.8865691546
 20
165.717823862
 10
68.8899114807
 20
165.7329583897
 10
68.8937020853
 20
165.7477631751
 10
68.8977934116
 20
165.761877311
 10
68.902139037
 20
165.7751185493
 10
68.9067853841
 20
165.7876691383
 10
68.9117241642
 20
165.7997149151
 10
68.9169148158
 20
165.8112225749
 10
68.9223979004
 20
165.8222254226
 10
68.9282868133
 20
165.8330092107
 10
68.9345951467
 20
165.8436355046
 10
68.9413093083
 20
165.8540427389
 10
68.9485019172
 20
165.8643319694
 10
68.9562078972
 20
165.874564641
 10
68.9643923244
 20
165.8846793088
 10
68.9730230468
 20
165.8945926939
 10
68.982123942
 20
165.9043191997
 10
68.9916711323
 20
165.9138444227
 10
69.0015608329
 20
165.9230418733
 10
69.0117624455
 20
165.9318785624
 10
69.0223065683
 20
165.9403874792
 10
69.0331812114
 20
165.9485411006
 10
69.0443210754
 20
165.9563056364
 10
69.0557914596
 20
165.9637148769
 10
69.0677762726
 20
165.9708426703
 10
69.0802614233
 20
165.9777013216
 10
69.0932610027
 20
165.984278526
 10
69.1070011923
 20
165.9906112169
 10
69.1215072046
 20
165.9967311679
 10
69.136753827
 20
166.0026066056
 10
69.152891604
 20
166.0081791427
 10
69.169927557
 20
166.0134592278
 10
69.1878546644
 20
166.0184364125
 10
69.2068024065
 20
166.0230209646
 10
69.226790494
 20
166.0272061305
 10
69.2477992161
 20
166.0309986639
 10
69.2698989205
 20
166.0343290938
 10
69.2934962331
 20
166.0371877386
 10
69.318184528
 20
166.0395842799
 10
69.3428142751
 20
166.0414782921
 10
69.3670022976
 20
166.0428562999
 10
69.3911317722
 20
166.0437317787
 10
69.4152026989
 20
166.0441047283
  0
LINE
  5
5A6
100
AcDbEntity
  8
RACCORDO
100
AcDbLine
 62
253
  6
CONTINUOUS
 10
68.0172806084
 20
151.4775017217
 11
68.1152026989
 21
156.4885725119
  0
LWPOLYLINE
  5
5A7
100
AcDbEntity
  8
0
100
AcDbPolyline
 62
7
  6
CONTINUOUS
 90
46
 70
0
 10
68.8770346989
 20
161.6573684165
 10
68.8773630354
 20
161.6721103164
 10
68.8779769356
 20
161.6863266586
 10
68.8788763996
 20
161.700017443
 10
68.8800756369
 20
161.7131847109
 10
68.881560438
 20
161.7258264211
 10
68.883288174
 20
161.7379364496
 10
68.8852466721
 20
161.7495141367
 10
68.8874481052
 20
161.7605601422
 10
68.8898863629
 20
161.771070322
 10
68.8925644688
 20
161.7810059581
 10
68.8954793994
 20
161.7904057685
 10
68.8986159738
 20
161.7993817639
 10
68.9019755346
 20
161.8079408536
 10
68.9055567392
 20
161.8160761284
 10
68.9093403794
 20
161.8238788707
 10
68.9133352208
 20
161.8313802828
 10
68.9175324976
 20
161.8385491624
 10
68.9218867052
 20
161.8453831852
 10
68.9263711527
 20
161.8518545417
 10
68.9310125309
 20
161.8579910414
 10
68.9358454069
 20
161.8638737878
 10
68.9408619012
 20
161.869507071
 10
68.9460698934
 20
161.874886601
 10
68.9515275888
 20
161.8800806111
 10
68.9572617636
 20
161.8851222593
 10
68.9632456417
 20
161.8899783875
 10
68.9694570996
 20
161.8946177554
 10
68.9759200648
 20
161.8990509116
 10
68.9826106099
 20
161.9032673074
 10
68.9894348288
 20
161.9072040566
 10
68.9963603864
 20
161.9108416794
 10
69.0034196179
 20
161.9141996555
 10
69.0106156223
 20
161.9172735377
 10
69.0178917919
 20
161.9200551586
 10
69.0253047345
 20
161.9225526857
 10
69.0330273724
 20
161.924786174
 10
69.0410800836
 20
161.9267568273
 10
69.0494424901
 20
161.9284634419
 10
69.0582263802
 20
161.9299224614
 10
69.0674772464
 20
161.9311288638
 10
69.0771495963
 20
161.9320876713
 10
69.0872187404
 20
161.9328303935
 10
69.097676449
 20
161.9333675338
 10
69.1085309518
 20
161.933688589
 10
69.1197822489
 20
161.9337935589
  0
LWPOLYLINE
  5
5A8
100
AcDbEntity
  8
0
100
AcDbPolyline
 62
7
  6
CONTINUOUS
 90
46
 70
0
 10
68.8770346989
 20
156.7809688903
 10
68.8773630354
 20
156.7957107902
 10
68.8779769356
 20
156.8099271323
 10
68.8788763996
 20
156.8236179167
 10
68.8800756369
 20
156.8367851847
 10
68.881560438
 20
156.8494268948
 10
68.883288174
 20
156.8615369234
 10
68.8852466721
 20
156.8731146104
 10
68.8874481052
 20
156.8841606159
 10
68.8898863629
 20
156.8946707958
 10
68.8925644688
 20
156.9046064318
 10
68.8954793994
 20
156.9140062422
 10
68.8986159738
 20
156.9229822376
 10
68.9019755346
 20
156.9315413274
 10
68.9055567392
 20
156.9396766021
 10
68.9093403794
 20
156.9474793444
 10
68.9133352208
 20
156.9549807565
 10
68.9175324976
 20
156.9621496362
 10
68.9218867052
 20
156.9689836589
 10
68.9263711527
 20
156.9754550155
 10
68.9310125309
 20
156.9815915151
 10
68.9358454069
 20
156.9874742615
 10
68.9408619012
 20
156.9931075448
 10
68.9460698934
 20
156.9984870747
 10
68.9515275888
 20
157.0036810848
 10
68.9572617636
 20
157.008722733
 10
68.9632456417
 20
157.0135788613
 10
68.9694570996
 20
157.0182182292
 10
68.9759200648
 20
157.0226513854
 10
68.9826106099
 20
157.0268677812
 10
68.9894348288
 20
157.0308045303
 10
68.9963603864
 20
157.0344421531
 10
69.0034196179
 20
157.0378001292
 10
69.0106156223
 20
157.0408740115
 10
69.0178917919
 20
157.0436556324
 10
69.0253047345
 20
157.0461531595
 10
69.0330273724
 20
157.0483866478
 10
69.0410800836
 20
157.0503573011
 10
69.0494424901
 20
157.0520639156
 10
69.0582263802
 20
157.0535229351
 10
69.0674772464
 20
157.0547293376
 10
69.0771495963
 20
157.055688145
 10
69.0872187404
 20
157.0564308672
 10
69.097676449
 20
157.0569680076
 10
69.1085309518
 20
157.0572890627
 10
69.1197822489
 20
157.0573940327
  0
LINE
  5
5A9
100
AcDbEntity
  8
RACCORDO
100
AcDbLine
 62
7
  6
CONTINUOUS
 10
68.0986543536
 20
153.0979161621
 11
68.1141209971
 21
153.618765664
  0
LWPOLYLINE
  5
5AA
100
AcDbEntity
  8
0
100
AcDbPolyline
 62
7
  6
CONTINUOUS
 90
49
 70
0
 10
68.8769976989
 20
174.7107580633
 10
68.877606522
 20
174.7250906359
 10
68.8786910362
 20
174.7393027665
 10
68.8802512416
 20
174.7533944549
 10
68.8822980215
 20
174.7673990889
 10
68.8848204925
 20
174.7812832808
 10
68.8877860048
 20
174.7949468674
 10
68.8911967978
 20
174.8083766223
 10
68.8950506321
 20
174.8215857718
 10
68.8993081402
 20
174.8345138324
 10
68.903963073
 20
174.8471422099
 10
68.9090216794
 20
174.8594894983
 10
68.9144633395
 20
174.8715509962
 10
68.9202812579
 20
174.8833172286
 10
68.9264822299
 20
174.8947976703
 10
68.9330660214
 20
174.9060160447
 10
68.9400402329
 20
174.9169883506
 10
68.9473972639
 20
174.9276985892
 10
68.9551140795
 20
174.9381224865
 10
68.9631821982
 20
174.9482550201
 10
68.9716101015
 20
174.9581012125
 10
68.9804001985
 20
174.9676518573
 10
68.9895337335
 20
174.9768923697
 10
68.9990294622
 20
174.9858373344
 10
69.0089460609
 20
174.9945212996
 10
69.0193047078
 20
175.0029674357
 10
69.0300842246
 20
175.0111525724
 10
69.0412797531
 20
175.0190417461
 10
69.052900718
 20
175.0266424815
 10
69.0649376946
 20
175.033947254
 10
69.0773575513
 20
175.0408985263
 10
69.0900570199
 20
175.0474567011
 10
69.1031393685
 20
175.0536613756
 10
69.1168812706
 20
175.0595738046
 10
69.1313001862
 20
175.065201201
 10
69.1463786553
 20
175.070536352
 10
69.1623409714
 20
175.0756188728
 10
69.1792486039
 20
175.0804672611
 10
69.1970400835
 20
175.0850630193
 10
69.2157552965
 20
175.0893902706
 10
69.2354372319
 20
175.0935071757
 10
69.2560429008
 20
175.0973555738
 10
69.2774832223
 20
175.1007451059
 10
69.3000348728
 20
175.1036821983
 10
69.3234211758
 20
175.1061604245
 10
69.346723021
 20
175.107970146
 10
69.3696340382
 20
175.1090414831
 10
69.3924605975
 20
175.1094443153
 10
69.4152026989
 20
175.1091786427
  0
LINE
  5
5AB
100
AcDbEntity
  8
0
100
AcDbLine
 62
7
  6
CONTINUOUS
 10
71.5406520497
 20
186.7602069417
 11
71.5958182983
 21
187.3174834741
  0
LINE
  5
5AC
100
AcDbEntity
  8
RACCORDO
100
AcDbLine
 62
7
  6
CONTINUOUS
 10
54.092976316
 20
150.9564175776
 11
54.0172806084
 21
150.88072187
  0
LINE
  5
5AD
100
AcDbEntity
  8
ASSI
100
AcDbLine
 62
7
  6
CONTINUOUS
 10
52.6144116989
 20
157.8551528181
 11
51.0650956989
 21
157.3577228181
  0
LINE
  5
5AE
100
AcDbEntity
  8
0
100
AcDbLine
 62
7
  6
CONTINUOUS
 10
68.7152026989
 20
177.9309908181
 11
70.1152026989
 21
177.9309908181
  0
LINE
  5
5AF
100
AcDbEntity
  8
0
100
AcDbLine
 62
7
  6
CONTINUOUS
 10
70.1152026989
 20
178.1143548181
 11
68.9782346989
 21
178.1143548181
  0
LINE
  5
5B0
100
AcDbEntity
  8
0
100
AcDbLine
 62
7
  6
CONTINUOUS
 10
56.5726495274
 20
178.3014498181
 11
56.6683941969
 21
178.3014498181
  0
LINE
  5
5B1
100
AcDbEntity
  8
ASSI
100
AcDbLine
 62
7
  6
CONTINUOUS
 10
66.1132807016
 20
178.3953878181
 11
65.377284701
 21
178.3953878181
  0
LINE
  5
5B2
100
AcDbEntity
  8
ASSI
100
AcDbLine
 62
7
  6
CONTINUOUS
 10
61.8537966989
 20
178.3953878181
 11
61.1178006989
 21
178.3953878181
  0
LINE
  5
5B3
100
AcDbEntity
  8
0
100
AcDbLine
 62
7
  6
CONTINUOUS
 10
56.7003090867
 20
178.4576997585
 11
56.5407345929
 21
178.4576997585
  0
LINE
  5
5B4
100
AcDbEntity
  8
0
100
AcDbLine
 62
7
  6
CONTINUOUS
 10
68.7152026989
 20
178.8592368181
 11
69.8524006989
 21
178.8592368181
  0
LINE
  5
5B5
100
AcDbEntity
  8
0
100
AcDbLine
 62
7
  6
CONTINUOUS
 10
70.1152026989
 20
179.0425108181
 11
68.7152026989
 21
179.0425108181
  0
LINE
  5
5B6
100
AcDbEntity
  8
0
100
AcDbLine
 62
7
  6
CONTINUOUS
 10
56.2854154744
 20
179.2076997585
 11
56.4130750337
 21
179.2076997585
  0
LINE
  5
5B7
100
AcDbEntity
  8
0
100
AcDbLine
 62
7
  6
CONTINUOUS
 10
55.9662664869
 20
179.6451998777
 11
56.0300963559
 21
179.6451998777
  0
LINE
  5
5B8
100
AcDbEntity
  8
0
100
AcDbLine
 62
7
  6
CONTINUOUS
 10
56.6364793071
 20
179.6764497585
 11
56.7641388663
 21
179.6764497585
  0
LINE
  5
5B9
100
AcDbEntity
  8
ASSI
100
AcDbLine
 62
7
  6
CONTINUOUS
 10
53.3397355587
 20
180.1970156849
 11
53.3511240956
 21
180.1948527923
  0
LWPOLYLINE
  5
5BA
100
AcDbEntity
  8
ASSI
100
AcDbPolyline
 62
7
  6
CONTINUOUS
 90
10
 70
0
 10
53.157885711
 20
179.9500510276
 10
53.1511655388
 20
179.9513466889
 10
53.144532502
 20
179.952928143
 10
53.1380602702
 20
179.9547650798
 10
53.1317567201
 20
179.9568607995
 10
53.1256139749
 20
179.9592120019
 10
53.1196820743
 20
179.9617784767
 10
53.1139776979
 20
179.9645468206
 10
53.108484166
 20
179.9675304369
 10
53.1032014786
 20
179.9707293256
  0
LWPOLYLINE
  5
5BB
100
AcDbEntity
  8
ASSI
100
AcDbPolyline
 62
7
  6
CONTINUOUS
 90
44
 70
0
 10
53.3511240956
 20
180.1948527923
 10
53.3621171663
 20
180.1926631197
 10
53.3673693266
 20
180.1914876336
 10
53.3723855773
 20
180.1902174902
 10
53.3771946293
 20
180.1888697665
 10
53.3817497702
 20
180.187424252
 10
53.3860389235
 20
180.1858697542
 10
53.3900741655
 20
180.1842174656
 10
53.393845013
 20
180.1824807536
 10
53.3973270766
 20
180.1806682605
 10
53.4005447456
 20
180.1787713439
 10
53.4035607048
 20
180.1767774442
 10
53.406373169
 20
180.1746985756
 10
53.4089839233
 20
180.172522724
 10
53.4114610079
 20
180.1702012877
 10
53.4138212739
 20
180.1677251641
 10
53.4160478701
 20
180.1651034558
 10
53.4181582833
 20
180.1623148686
 10
53.420170879
 20
180.159339337
 10
53.4220672917
 20
180.1561969264
 10
53.423809911
 20
180.1529265386
 10
53.4254004284
 20
180.1495078069
 10
53.4268371524
 20
180.1459610981
 10
53.4280773982
 20
180.142386414
 10
53.4291084654
 20
180.1387924711
 10
53.4299430543
 20
180.1351705531
 10
53.4305765816
 20
180.1315945129
 10
53.4310056338
 20
180.1280968911
 10
53.4312336242
 20
180.1246451471
 10
53.4312662091
 20
180.1212155122
 10
53.4311110297
 20
180.117831401
 10
53.4307604448
 20
180.1144693988
 10
53.4301971866
 20
180.1110354926
 10
53.4294294098
 20
180.1075175541
 10
53.4284489598
 20
180.1039277116
 10
53.4272141052
 20
180.1002083367
 10
53.4257126597
 20
180.09633491
 10
53.4239568096
 20
180.0923319509
 10
53.4219413818
 20
180.0882153887
 10
53.4196513419
 20
180.083988401
 10
53.4171017243
 20
180.0796478101
 10
53.4143324585
 20
180.0752000121
 10
53.4113330147
 20
180.0706499959
 10
53.4081139228
 20
180.0659927727
  0
LINE
  5
5BC
100
AcDbEntity
  8
0
100
AcDbLine
 62
7
  6
CONTINUOUS
 10
56.1577559152
 20
179.7701999373
 11
56.0300963559
 21
179.8014498181
  0
LINE
  5
5BD
100
AcDbEntity
  8
0
100
AcDbLine
 62
7
  6
CONTINUOUS
 10
55.8386069276
 20
180.1451999373
 11
55.9662664869
 21
180.1139496989
  0
LINE
  5
5BE
100
AcDbEntity
  8
0
100
AcDbLine
 62
7
  6
CONTINUOUS
 10
56.1577559152
 20
181.1451996989
 11
56.0300963559
 21
181.1764499373
  0
LINE
  5
5BF
100
AcDbEntity
  8
ASSI
100
AcDbLine
 62
7
  6
CONTINUOUS
 10
52.0728926097
 20
181.3534099745
 11
52.5574236989
 21
181.2278178181
  0
LINE
  5
5C0
100
AcDbEntity
  8
ASSI
100
AcDbLine
 62
7
  6
CONTINUOUS
 10
52.0097296989
 20
180.5331058181
 11
52.6978416989
 21
180.3544408181
  0
LINE
  5
5C1
100
AcDbEntity
  8
ASSI
100
AcDbLine
 62
7
  6
CONTINUOUS
 10
53.4006026967
 20
180.7389748187
 11
53.0342126989
 21
180.8341068181
  0
LINE
  5
5C2
100
AcDbEntity
  8
ASSI
100
AcDbLine
 62
7
  6
CONTINUOUS
 10
52.6894986989
 20
180.9236098181
 11
52.2110976989
 21
181.0478248181
  0
LINE
  5
5C3
100
AcDbEntity
  8
ASSI
100
AcDbLine
 62
7
  6
CONTINUOUS
 10
52.9021376989
 20
181.1383148181
 11
53.2548726989
 21
181.0467278181
  0
LINE
  5
5C4
100
AcDbEntity
  8
ASSI
100
AcDbLine
 62
7
  6
CONTINUOUS
 10
53.1872826989
 20
181.6275768181
 11
52.8670186989
 21
181.7107318181
  0
LINE
  5
5C5
100
AcDbEntity
  8
ASSI
100
AcDbLine
 62
7
  6
CONTINUOUS
 10
52.0010981153
 20
182.20264971
 11
52.4958136989
 21
182.0741978181
  0
LINE
  5
5C6
100
AcDbEntity
  8
ASSI
100
AcDbLine
 62
7
  6
CONTINUOUS
 10
52.7363286989
 20
182.0117498181
 11
53.4421283009
 21
181.8284909215
  0
LINE
  5
5C7
100
AcDbEntity
  8
0
100
AcDbLine
 62
7
  6
CONTINUOUS
 10
56.8598835581
 20
179.8014498181
 11
56.7641388663
 21
179.8326996989
  0
LINE
  5
5C8
100
AcDbEntity
  8
0
100
AcDbLine
 62
7
  6
CONTINUOUS
 10
56.8598835581
 20
181.1764499373
 11
56.7641388663
 21
181.2076998181
  0
LINE
  5
5C9
100
AcDbEntity
  8
0
100
AcDbLine
 62
7
  6
CONTINUOUS
 10
56.7641388663
 20
181.0514496989
 11
56.8279686459
 21
181.0201998181
  0
LINE
  5
5CA
100
AcDbEntity
  8
RACCORDO
100
AcDbLine
 62
7
  6
CONTINUOUS
 10
54.092976316
 20
189.4589820587
 11
54.0172806084
 21
189.5346777662
  0
LWPOLYLINE
  5
5CB
100
AcDbEntity
  8
0
100
AcDbPolyline
 62
7
  6
CONTINUOUS
 90
9
 70
0
 10
57.1976596203
 20
190.2576998181
 10
57.1966875659
 20
190.2592220819
 10
57.1957154914
 20
190.2637771524
 10
57.194743397
 20
190.2713301608
 10
57.1937712699
 20
190.2818232609
 10
57.1927991227
 20
190.2951764907
 10
57.1918269938
 20
190.3112887759
 10
57.1908549017
 20
190.3300380667
 10
57.1898828279
 20
190.3512815177
  0
LINE
  5
5CC
100
AcDbEntity
  8
RACCORDO
100
AcDbLine
 62
7
  6
CONTINUOUS
 10
70.7354155302
 20
153.8649676023
 11
70.7354155302
 21
186.5504320339
  0
LINE
  5
5CD
100
AcDbEntity
  8
ASSI
100
AcDbLine
 62
253
  6
CONTINUOUS
 10
70.8752575466
 20
192.7076998181
 11
70.8752575466
 21
191.181095698
  0
LINE
  5
5CE
100
AcDbEntity
  8
ASSI
100
AcDbLine
 62
253
  6
CONTINUOUS
 10
70.8752575466
 20
149.2343039382
 11
70.8752575466
 21
147.7076998181
  0
LINE
  5
5CF
100
AcDbEntity
  8
RACCORDO
100
AcDbLine
 62
7
  6
CONTINUOUS
 10
71.0152026989
 20
146.4576998181
 11
71.0152026989
 21
147.7076998181
  0
LINE
  5
5D0
100
AcDbEntity
  8
DRAFT
100
AcDbLine
 62
7
  6
CONTINUOUS
 10
71.0152026989
 20
147.7076998181
 11
71.0152026989
 21
149.2762836045
  0
LINE
  5
5D1
100
AcDbEntity
  8
DRAFT
100
AcDbLine
 62
7
  6
CONTINUOUS
 10
71.0152026989
 20
191.1391160317
 11
71.0152026989
 21
192.7076998181
  0
LINE
  5
5D2
100
AcDbEntity
  8
RACCORDO
100
AcDbLine
 62
7
  6
CONTINUOUS
 10
71.0152026989
 20
192.7076998181
 11
71.0152026989
 21
193.9576998181
  0
LINE
  5
5D3
100
AcDbEntity
  8
0
100
AcDbLine
 62
7
  6
CONTINUOUS
 10
71.0354155302
 20
153.7080907887
 11
71.0354155302
 21
186.7073088475
  0
LINE
  5
5D4
100
AcDbEntity
  8
0
100
AcDbLine
 62
7
  6
CONTINUOUS
 10
71.5406520497
 20
153.6551926945
 11
71.5406520497
 21
186.7602069417
  0
LINE
  5
5D5
100
AcDbEntity
  8
DRAFT
100
AcDbLine
 62
7
  6
CONTINUOUS
 10
71.6104723094
 20
149.3076998181
 11
71.6104723094
 21
150.6009006299
  0
LINE
  5
5D6
100
AcDbEntity
  8
DRAFT
100
AcDbLine
 62
7
  6
CONTINUOUS
 10
71.6104723094
 20
189.8144990063
 11
71.6104723094
 21
191.1076998181
  0
LINE
  5
5D7
100
AcDbEntity
  8
DRAFT
100
AcDbLine
 62
7
  6
CONTINUOUS
 10
71.7152026989
 20
191.1391160317
 11
71.7152026989
 21
149.2762836045
  0
LINE
  5
5D8
100
AcDbEntity
  8
RACCORDO
100
AcDbLine
 62
7
  6
CONTINUOUS
 10
53.6152026989
 20
148.5076998181
 11
54.4152026989
 21
149.3076998181
  0
LINE
  5
5D9
100
AcDbEntity
  8
RACCORDO
100
AcDbLine
 62
7
  6
CONTINUOUS
 10
53.7172847207
 20
150.6802037496
 11
53.7903927235
 21
150.7396673541
  0
LINE
  5
5DA
100
AcDbEntity
  8
RACCORDO
100
AcDbLine
 62
7
  6
CONTINUOUS
 10
53.7903927235
 20
150.7396673541
 11
53.813597989
 21
150.758306445
  0
LINE
  5
5DB
100
AcDbEntity
  8
RACCORDO
100
AcDbLine
 62
7
  6
CONTINUOUS
 10
53.813597989
 20
150.758306445
 11
53.8355682094
 21
150.7757614924
  0
LWPOLYLINE
  5
5DC
100
AcDbEntity
  8
RACCORDO
100
AcDbPolyline
 62
7
  6
CONTINUOUS
 90
26
 70
0
 10
53.8355682094
 20
150.7757614924
 10
53.8561871476
 20
150.7918958595
 10
53.8659709885
 20
150.7994535757
 10
53.8754091914
 20
150.8066640568
 10
53.8845041756
 20
150.8135344076
 10
53.8932598457
 20
150.820064904
 10
53.9016722971
 20
150.8262460669
 10
53.9097322349
 20
150.8320715984
 10
53.9174372182
 20
150.837542339
 10
53.9247896879
 20
150.8426573508
 10
53.9317876722
 20
150.8474113439
 10
53.9384217892
 20
150.8518043976
 10
53.9447014208
 20
150.8558463325
 10
53.9506527399
 20
150.8595481336
 10
53.9562694467
 20
150.8629113723
 10
53.9615578411
 20
150.8659475243
 10
53.9665629953
 20
150.8686778676
 10
53.9712928245
 20
150.8711085858
 10
53.9757394136
 20
150.873239899
 10
53.9799240894
 20
150.8750790357
 10
53.9838472795
 20
150.876629537
 10
53.9875085562
 20
150.8778951268
 10
53.9909279634
 20
150.8788813739
 10
53.9941121822
 20
150.8795920651
 10
53.9970545314
 20
150.8800305284
 10
53.9997550109
 20
150.880201008
  0
LINE
  5
5DD
100
AcDbEntity
  8
0
100
AcDbLine
 62
7
  6
CONTINUOUS
 10
68.9781116989
 20
163.8489478181
 11
70.1152026989
 21
164.5645888181
  0
LINE
  5
5DE
100
AcDbEntity
  8
0
100
AcDbLine
 62
7
  6
CONTINUOUS
 10
69.8523976989
 20
164.5937718181
 11
68.7152026989
 21
163.8899578181
  0
LINE
  5
5DF
100
AcDbEntity
  8
ASSI
100
AcDbLine
 62
7
  6
CONTINUOUS
 10
51.0650956989
 20
156.9076998181
 11
53.3152026989
 21
157.6301298181
  0
LINE
  5
5E0
100
AcDbEntity
  8
0
100
AcDbLine
 62
7
  6
CONTINUOUS
 10
56.6364793071
 20
179.8326996989
 11
56.5088197031
 21
179.8014498181
  0
LINE
  5
5E1
100
AcDbEntity
  8
0
100
AcDbLine
 62
7
  6
CONTINUOUS
 10
55.9662664869
 20
179.8014498181
 11
55.8386069276
 21
179.7701999373
  0
LINE
  5
5E2
100
AcDbEntity
  8
0
100
AcDbLine
 62
7
  6
CONTINUOUS
 10
56.0300963559
 20
179.8014498181
 11
55.9662664869
 21
179.8014498181
  0
LINE
  5
5E3
100
AcDbEntity
  8
0
100
AcDbLine
 62
7
  6
CONTINUOUS
 10
56.7641388663
 20
179.8326996989
 11
56.6364793071
 21
179.8326996989
  0
LINE
  5
5E4
100
AcDbEntity
  8
0
100
AcDbLine
 62
7
  6
CONTINUOUS
 10
68.7152026989
 20
179.9101818181
 11
70.1152026989
 21
179.9101818181
  0
LINE
  5
5E5
100
AcDbEntity
  8
0
100
AcDbLine
 62
7
  6
CONTINUOUS
 10
70.1152026989
 20
180.0993658181
 11
68.7152026989
 21
180.0993658181
  0
LINE
  5
5E6
100
AcDbEntity
  8
0
100
AcDbLine
 62
7
  6
CONTINUOUS
 10
68.7152026989
 20
180.3021598181
 11
68.8828856989
 21
180.3021598181
  0
LINE
  5
5E7
100
AcDbEntity
  8
0
100
AcDbLine
 62
7
  6
CONTINUOUS
 10
56.2854154744
 20
180.5826996989
 11
56.4130750337
 21
180.5826996989
  0
LINE
  5
5E8
100
AcDbEntity
  8
0
100
AcDbLine
 62
7
  6
CONTINUOUS
 10
68.8828856989
 20
180.7759968181
 11
70.1152026989
 21
180.7759968181
  0
LINE
  5
5E9
100
AcDbEntity
  8
0
100
AcDbLine
 62
7
  6
CONTINUOUS
 10
70.1152026989
 20
180.9651128181
 11
68.8828856989
 21
180.9651128181
  0
LINE
  5
5EA
100
AcDbEntity
  8
0
100
AcDbLine
 62
7
  6
CONTINUOUS
 10
55.9662664869
 20
181.0201998181
 11
56.0300963559
 21
181.0201998181
  0
LINE
  5
5EB
100
AcDbEntity
  8
0
100
AcDbLine
 62
7
  6
CONTINUOUS
 10
56.6364793071
 20
181.0514496989
 11
56.7641388663
 21
181.0514496989
  0
LINE
  5
5EC
100
AcDbEntity
  8
0
100
AcDbLine
 62
7
  6
CONTINUOUS
 10
56.0300963559
 20
181.1764499373
 11
55.9662664869
 21
181.1764499373
  0
LINE
  5
5ED
100
AcDbEntity
  8
0
100
AcDbLine
 62
7
  6
CONTINUOUS
 10
56.7641388663
 20
181.2076998181
 11
56.6364793071
 21
181.2076998181
  0
LINE
  5
5EE
100
AcDbEntity
  8
0
100
AcDbLine
 62
7
  6
CONTINUOUS
 10
68.8828856989
 20
181.4389508181
 11
68.7152026989
 21
181.4389508181
  0
LINE
  5
5EF
100
AcDbEntity
  8
0
100
AcDbLine
 62
7
  6
CONTINUOUS
 10
55.8386069276
 20
181.4576999373
 11
56.0939261355
 21
181.4576999373
  0
LINE
  5
5F0
100
AcDbEntity
  8
ASSI
100
AcDbLine
 62
7
  6
CONTINUOUS
 10
53.6152026989
 20
182.3747988181
 11
52.1355176989
 21
182.7589938181
  0
LINE
  5
5F1
100
AcDbEntity
  8
RACCORDO
100
AcDbLine
 62
7
  6
CONTINUOUS
 10
53.8563010271
 20
189.6234154191
 11
53.8356721081
 21
189.639556181
  0
LINE
  5
5F2
100
AcDbEntity
  8
RACCORDO
100
AcDbLine
 62
7
  6
CONTINUOUS
 10
53.8356721081
 20
189.639556181
 11
53.8136888142
 21
189.6570206036
  0
LINE
  5
5F3
100
AcDbEntity
  8
RACCORDO
100
AcDbLine
 62
7
  6
CONTINUOUS
 10
53.8136888142
 20
189.6570206036
 11
53.7904673835
 21
189.6756720398
  0
LWPOLYLINE
  5
5F4
100
AcDbEntity
  8
RACCORDO
100
AcDbPolyline
 62
7
  6
CONTINUOUS
 90
3
 70
0
 10
53.7904673835
 20
189.6756720398
 10
53.7540072883
 20
189.7052403411
 10
53.7172847207
 20
189.7351958867
  0
LINE
  5
5F5
100
AcDbEntity
  8
RACCORDO
100
AcDbLine
 62
7
  6
CONTINUOUS
 10
53.6152026989
 20
191.9076998181
 11
54.4152026989
 21
191.1076998181
  0
LINE
  5
5F6
100
AcDbEntity
  8
RACCORDO
100
AcDbLine
 62
7
  6
CONTINUOUS
 10
73.0152026989
 20
146.4576998181
 11
73.0152026989
 21
193.9576998181
  0
LINE
  5
5F7
100
AcDbEntity
  8
0
100
AcDbLine
 62
7
  6
CONTINUOUS
 10
56.6364793071
 20
181.2076998181
 11
56.5088197031
 21
181.1764499373
  0
LINE
  5
5F8
100
AcDbEntity
  8
0
100
AcDbLine
 62
7
  6
CONTINUOUS
 10
55.9662664869
 20
181.1764499373
 11
55.8386069276
 21
181.1451996989
  0
LINE
  5
5F9
100
AcDbEntity
  8
0
100
AcDbLine
 62
7
  6
CONTINUOUS
 10
55.8705218174
 20
181.6451999373
 11
57.1152026989
 21
181.6451999373
  0
LINE
  5
5FA
100
AcDbEntity
  8
0
100
AcDbLine
 62
7
  6
CONTINUOUS
 10
57.1152026989
 20
181.8326999373
 11
55.6152026989
 21
181.8326999373
  0
LINE
  5
5FB
100
AcDbEntity
  8
ASSI
100
AcDbLine
 62
7
  6
CONTINUOUS
 10
63.9831376989
 20
182.3018328181
 11
63.2479426989
 21
182.3018328181
  0
LINE
  5
5FC
100
AcDbEntity
  8
ASSI
100
AcDbLine
 62
7
  6
CONTINUOUS
 10
66.1132808192
 20
182.6939368181
 11
65.3772806639
 21
182.6939368181
  0
LINE
  5
5FD
100
AcDbEntity
  8
ASSI
100
AcDbLine
 62
7
  6
CONTINUOUS
 10
61.8537966989
 20
182.6939368181
 11
61.117800684
 21
182.6939368181
  0
LINE
  5
5FE
100
AcDbEntity
  8
DRAFT
100
AcDbLine
 62
7
  6
CONTINUOUS
 10
55.0152026989
 20
182.7076998181
 11
66.2152026989
 21
182.7076998181
  0
LINE
  5
5FF
100
AcDbEntity
  8
0
100
AcDbLine
 62
7
  6
CONTINUOUS
 10
68.7152026989
 20
182.9150138181
 11
70.1152026989
 21
182.9150138181
  0
LINE
  5
600
100
AcDbEntity
  8
0
100
AcDbLine
 62
7
  6
CONTINUOUS
 10
69.9475196989
 20
183.1042088181
 11
68.7152026989
 21
183.1042088181
  0
LINE
  5
601
100
AcDbEntity
  8
ASSI
100
AcDbLine
 62
7
  6
CONTINUOUS
 10
55.6240914115
 20
148.4631686531
 11
55.7972192874
 21
148.6061430931
  0
LINE
  5
602
100
AcDbEntity
  8
ASSI
100
AcDbLine
 62
7
  6
CONTINUOUS
 10
55.7972192874
 20
148.6061430931
 11
55.9102089602
 21
148.6990195372
  0
LINE
  5
603
100
AcDbEntity
  8
ASSI
100
AcDbLine
 62
7
  6
CONTINUOUS
 10
55.9102089602
 20
148.6990195372
 11
55.9907360646
 21
148.764787732
  0
LINE
  5
604
100
AcDbEntity
  8
ASSI
100
AcDbLine
 62
7
  6
CONTINUOUS
 10
55.9907360646
 20
148.764787732
 11
56.0667752073
 21
148.8264206697
  0
LINE
  5
605
100
AcDbEntity
  8
ASSI
100
AcDbLine
 62
7
  6
CONTINUOUS
 10
56.0667752073
 20
148.8264206697
 11
56.1380934834
 21
148.8836593997
  0
LINE
  5
606
100
AcDbEntity
  8
ASSI
100
AcDbLine
 62
7
  6
CONTINUOUS
 10
56.1380934834
 20
148.8836593997
 11
56.1829075077
 21
148.9192541511
  0
LINE
  5
607
100
AcDbEntity
  8
ASSI
100
AcDbLine
 62
7
  6
CONTINUOUS
 10
56.1829075077
 20
148.9192541511
 11
56.2253554018
 21
148.9526456747
  0
LINE
  5
608
100
AcDbEntity
  8
ASSI
100
AcDbLine
 62
7
  6
CONTINUOUS
 10
56.2253554018
 20
148.9526456747
 11
56.2653223458
 21
148.9837252973
  0
LINE
  5
609
100
AcDbEntity
  8
ASSI
100
AcDbLine
 62
7
  6
CONTINUOUS
 10
56.2653223458
 20
148.9837252973
 11
56.3027855675
 21
149.0124735653
  0
LWPOLYLINE
  5
60A
100
AcDbEntity
  8
ASSI
100
AcDbPolyline
 62
7
  6
CONTINUOUS
 90
9
 70
0
 10
56.3027855675
 20
149.0124735653
 10
56.3377919741
 20
149.0389254733
 10
56.3544017102
 20
149.0513088999
 10
56.370424228
 20
149.0631382778
 10
56.3858597143
 20
149.074416262
 10
56.4007327237
 20
149.0851553048
 10
56.4150515722
 20
149.0953614283
 10
56.4288084323
 20
149.1050355953
 10
56.4420036235
 20
149.1141823745
  0
LWPOLYLINE
  5
60B
100
AcDbEntity
  8
ASSI
100
AcDbPolyline
 62
7
  6
CONTINUOUS
 90
25
 70
0
 10
56.4420036235
 20
149.1141823745
 10
56.4526843303
 20
149.1222031603
 10
56.4629857085
 20
149.1298272233
 10
56.4729077582
 20
149.1370586584
 10
56.4824435885
 20
149.143900253
 10
56.4916000903
 20
149.1503583196
 10
56.500397936
 20
149.1564419017
 10
56.5088358887
 20
149.1621541181
 10
56.5169151854
 20
149.167500869
 10
56.5246602086
 20
149.1724936237
 10
56.5320725979
 20
149.1771363617
 10
56.5391507138
 20
149.1814323497
 10
56.545914021
 20
149.1853898146
 10
56.5523647982
 20
149.1890127628
 10
56.5585007666
 20
149.1923031108
 10
56.5643345552
 20
149.1952648536
 10
56.5698641036
 20
149.1978999869
 10
56.575091472
 20
149.2002133003
 10
56.5800354704
 20
149.2022113683
 10
56.5846986278
 20
149.2038967193
 10
56.5890784152
 20
149.2052707245
 10
56.5931860547
 20
149.2063362288
 10
56.5970252872
 20
149.2070951171
 10
56.6005923718
 20
149.2075489868
 10
56.6038873086
 20
149.2076998181
  0
LINE
  5
60C
100
AcDbEntity
  8
RACCORDO
100
AcDbLine
 62
253
  6
CONTINUOUS
 10
56.5469461515
 20
150.9564175776
 11
56.4240595256
 21
150.8843524377
  0
LINE
  5
60D
100
AcDbEntity
  8
RACCORDO
100
AcDbLine
 62
253
  6
CONTINUOUS
 10
56.7480025737
 20
150.7570445178
 11
56.6240515883
 21
150.6843551993
  0
LINE
  5
60E
100
AcDbEntity
  8
0
100
AcDbLine
 62
7
  6
CONTINUOUS
 10
70.1152026989
 20
158.6157218181
 11
68.7152026989
 21
158.1087818181
  0
LINE
  5
60F
100
AcDbEntity
  8
0
100
AcDbLine
 62
7
  6
CONTINUOUS
 10
69.7076386989
 20
158.2706138181
 11
70.1152026989
 21
158.4091208181
  0
LINE
  5
610
100
AcDbEntity
  8
0
100
AcDbLine
 62
7
  6
CONTINUOUS
 10
68.9182606989
 20
157.9937318181
 11
69.5399476989
 21
158.2022988181
  0
LINE
  5
611
100
AcDbEntity
  8
RACCORDO
100
AcDbLine
 62
7
  6
CONTINUOUS
 10
53.4148002556
 20
183.6166651619
 11
53.8156051423
 21
183.6166651619
  0
LINE
  5
612
100
AcDbEntity
  8
RACCORDO
100
AcDbLine
 62
7
  6
CONTINUOUS
 10
67.4148002556
 20
183.6166651619
 11
67.8156051423
 21
183.6166651619
  0
LINE
  5
613
100
AcDbEntity
  8
0
100
AcDbLine
 62
7
  6
CONTINUOUS
 10
70.1152026989
 20
183.8140028181
 11
69.9475196989
 21
183.8140028181
  0
LINE
  5
614
100
AcDbEntity
  8
0
100
AcDbLine
 62
7
  6
CONTINUOUS
 10
69.5516926989
 20
184.4067238181
 11
70.1152026989
 21
184.4067238181
  0
LINE
  5
615
100
AcDbEntity
  8
0
100
AcDbLine
 62
7
  6
CONTINUOUS
 10
70.1152026989
 20
184.5958058181
 11
69.5516926989
 21
184.5958058181
  0
LINE
  5
616
100
AcDbEntity
  8
0
100
AcDbLine
 62
7
  6
CONTINUOUS
 10
70.1152026989
 20
181.6885048181
 11
69.7077136989
 21
181.8347778181
  0
LINE
  5
617
100
AcDbEntity
  8
0
100
AcDbLine
 62
7
  6
CONTINUOUS
 10
69.5400306989
 20
181.8932798181
 11
68.9182706989
 21
182.1195218181
  0
LINE
  5
618
100
AcDbEntity
  8
0
100
AcDbLine
 62
7
  6
CONTINUOUS
 10
68.7152026989
 20
182.0200548181
 11
70.1152026989
 21
181.4935468181
  0
LINE
  5
619
100
AcDbEntity
  8
RACCORDO
100
AcDbLine
 62
253
  6
CONTINUOUS
 10
56.5469461515
 20
189.4589820587
 11
56.4240595256
 21
189.5310471985
  0
LINE
  5
61A
100
AcDbEntity
  8
RACCORDO
100
AcDbLine
 62
253
  6
CONTINUOUS
 10
56.7480025737
 20
189.6583551184
 11
56.6240515878
 21
189.7310444372
  0
LWPOLYLINE
  5
61B
100
AcDbEntity
  8
ASSI
100
AcDbPolyline
 62
7
  6
CONTINUOUS
 90
8
 70
0
 10
56.4420036235
 20
191.3012172617
 10
56.4288083517
 20
191.3103640934
 10
56.4150514464
 20
191.3200382939
 10
56.4007325884
 20
191.3302444285
 10
56.3858596255
 20
191.3409834417
 10
56.370424222
 20
191.3522613655
 10
56.3544017624
 20
191.3640906976
 10
56.3377920296
 20
191.3764741198
  0
LINE
  5
61C
100
AcDbEntity
  8
ASSI
100
AcDbLine
 62
7
  6
CONTINUOUS
 10
56.3377920296
 20
191.3764741198
 11
56.3027855834
 21
191.4029260588
  0
LINE
  5
61D
100
AcDbEntity
  8
ASSI
100
AcDbLine
 62
7
  6
CONTINUOUS
 10
56.3027855834
 20
191.4029260588
 11
56.2653224119
 21
191.4316742912
  0
LINE
  5
61E
100
AcDbEntity
  8
ASSI
100
AcDbLine
 62
7
  6
CONTINUOUS
 10
56.2653224119
 20
191.4316742912
 11
56.2253551859
 21
191.4627541232
  0
LINE
  5
61F
100
AcDbEntity
  8
ASSI
100
AcDbLine
 62
7
  6
CONTINUOUS
 10
56.2253551859
 20
191.4627541232
 11
56.1829068279
 21
191.4961460226
  0
LINE
  5
620
100
AcDbEntity
  8
ASSI
100
AcDbLine
 62
7
  6
CONTINUOUS
 10
56.1829068279
 20
191.4961460226
 11
56.1380932913
 21
191.5317403971
  0
LINE
  5
621
100
AcDbEntity
  8
ASSI
100
AcDbLine
 62
7
  6
CONTINUOUS
 10
56.1380932913
 20
191.5317403971
 11
56.0667751921
 21
191.5889789766
  0
LINE
  5
622
100
AcDbEntity
  8
ASSI
100
AcDbLine
 62
7
  6
CONTINUOUS
 10
56.0667751921
 20
191.5889789766
 11
55.9907358774
 21
191.6506120559
  0
LINE
  5
623
100
AcDbEntity
  8
ASSI
100
AcDbLine
 62
7
  6
CONTINUOUS
 10
55.9907358774
 20
191.6506120559
 11
55.9102088118
 21
191.7163802208
  0
LINE
  5
624
100
AcDbEntity
  8
ASSI
100
AcDbLine
 62
7
  6
CONTINUOUS
 10
55.9102088118
 20
191.7163802208
 11
55.7972194122
 21
191.8092564402
  0
LINE
  5
625
100
AcDbEntity
  8
ASSI
100
AcDbLine
 62
7
  6
CONTINUOUS
 10
55.7972194122
 20
191.8092564402
 11
55.6240914115
 21
191.9522309831
  0
LINE
  5
626
100
AcDbEntity
  8
DRAFT
100
AcDbLine
 62
7
  6
CONTINUOUS
 10
49.5152026989
 20
149.2762836045
 11
49.6199330885
 21
149.3076998181
  0
LINE
  5
627
100
AcDbEntity
  8
RACCORDO
100
AcDbLine
 62
253
  6
CONTINUOUS
 10
70.7354155302
 20
186.5504320339
 11
68.1152026989
 21
186.5504320339
  0
LINE
  5
628
100
AcDbEntity
  8
RACCORDO
100
AcDbLine
 62
253
  6
CONTINUOUS
 10
67.1152026989
 20
186.5504320339
 11
61.0152026989
 21
186.5504320339
  0
LINE
  5
629
100
AcDbEntity
  8
RACCORDO
100
AcDbLine
 62
253
  6
CONTINUOUS
 10
60.2152026989
 20
186.5504320339
 11
54.1152026989
 21
186.5504320339
  0
LINE
  5
62A
100
AcDbEntity
  8
RACCORDO
100
AcDbLine
 62
253
  6
CONTINUOUS
 10
53.1152026989
 20
186.5504320339
 11
50.4949898677
 21
186.5504320339
  0
LINE
  5
62B
100
AcDbEntity
  8
0
100
AcDbLine
 62
7
  6
CONTINUOUS
 10
49.6949898677
 20
186.7073088475
 11
50.1949898677
 21
186.7073088475
  0
LINE
  5
62C
100
AcDbEntity
  8
0
100
AcDbLine
 62
7
  6
CONTINUOUS
 10
71.0354155302
 20
186.7073088475
 11
71.5406520497
 21
186.7073088475
  0
LINE
  5
62D
100
AcDbEntity
  8
RACCORDO
100
AcDbLine
 62
253
  6
CONTINUOUS
 10
70.5288275746
 20
186.7966339722
 11
68.1141209971
 21
186.7966339722
  0
LINE
  5
62E
100
AcDbEntity
  8
RACCORDO
100
AcDbLine
 62
253
  6
CONTINUOUS
 10
67.1162844008
 20
186.7966339722
 11
61.0141209971
 21
186.7966339722
  0
LINE
  5
62F
100
AcDbEntity
  8
RACCORDO
100
AcDbLine
 62
253
  6
CONTINUOUS
 10
60.2162844008
 20
186.7966339722
 11
54.1141209971
 21
186.7966339722
  0
LINE
  5
630
100
AcDbEntity
  8
RACCORDO
100
AcDbLine
 62
253
  6
CONTINUOUS
 10
53.1162844008
 20
186.7966339722
 11
50.7015778233
 21
186.7966339722
  0
LINE
  5
631
100
AcDbEntity
  8
DRAFT
100
AcDbLine
 62
7
  6
CONTINUOUS
 10
49.6199330885
 20
191.1076998181
 11
49.5152026989
 21
191.1391160317
  0
LINE
  5
632
100
AcDbEntity
  8
0
100
AcDbLine
 62
7
  6
CONTINUOUS
 10
68.7152026989
 20
184.9019608181
 11
69.3879726989
 21
184.5003588181
  0
LINE
  5
633
100
AcDbEntity
  8
0
100
AcDbLine
 62
7
  6
CONTINUOUS
 10
69.5516926989
 20
184.5958058181
 11
68.7152026989
 21
185.1243298181
  0
LINE
  5
634
100
AcDbEntity
  8
RACCORDO
100
AcDbLine
 62
7
  6
CONTINUOUS
 10
67.6152026989
 20
150.6076998181
 11
66.8152026989
 21
149.8076998181
  0
LINE
  5
635
100
AcDbEntity
  8
ASSI
100
AcDbLine
 62
7
  6
CONTINUOUS
 10
65.6063139864
 20
150.6522309831
 11
65.4331535024
 21
150.5092296708
  0
LINE
  5
636
100
AcDbEntity
  8
ASSI
100
AcDbLine
 62
7
  6
CONTINUOUS
 10
65.4331535024
 20
150.5092296708
 11
65.3201909078
 21
150.4163755381
  0
LINE
  5
637
100
AcDbEntity
  8
ASSI
100
AcDbLine
 62
7
  6
CONTINUOUS
 10
65.3201909078
 20
150.4163755381
 11
65.2396572929
 21
150.3506020622
  0
LINE
  5
638
100
AcDbEntity
  8
ASSI
100
AcDbLine
 62
7
  6
CONTINUOUS
 10
65.2396572929
 20
150.3506020622
 11
65.1636084774
 21
150.2889614448
  0
LINE
  5
639
100
AcDbEntity
  8
ASSI
100
AcDbLine
 62
7
  6
CONTINUOUS
 10
65.1636084774
 20
150.2889614448
 11
65.0922906046
 21
150.2317232747
  0
LINE
  5
63A
100
AcDbEntity
  8
ASSI
100
AcDbLine
 62
7
  6
CONTINUOUS
 10
65.0922906046
 20
150.2317232747
 11
65.0474815629
 21
150.1961325761
  0
LINE
  5
63B
100
AcDbEntity
  8
ASSI
100
AcDbLine
 62
7
  6
CONTINUOUS
 10
65.0474815629
 20
150.1961325761
 11
65.0050373617
 21
150.1627441073
  0
LINE
  5
63C
100
AcDbEntity
  8
ASSI
100
AcDbLine
 62
7
  6
CONTINUOUS
 10
65.0050373617
 20
150.1627441073
 11
64.9650712152
 21
150.1316651544
  0
LINE
  5
63D
100
AcDbEntity
  8
ASSI
100
AcDbLine
 62
7
  6
CONTINUOUS
 10
64.9650712152
 20
150.1316651544
 11
64.9276063363
 21
150.1029157925
  0
LWPOLYLINE
  5
63E
100
AcDbEntity
  8
ASSI
100
AcDbPolyline
 62
7
  6
CONTINUOUS
 90
9
 70
0
 10
64.9276063363
 20
150.1029157925
 10
64.8925994775
 20
150.0764636825
 10
64.8759903056
 20
150.0640808062
 10
64.8599693655
 20
150.0522527179
 10
64.8445361268
 20
150.0409764416
 10
64.8296654782
 20
150.030239167
 10
64.8153489186
 20
150.0200347542
 10
64.8015944577
 20
150.0103623171
 10
64.7884017744
 20
150.0012172617
  0
LWPOLYLINE
  5
63F
100
AcDbEntity
  8
ASSI
100
AcDbPolyline
 62
7
  6
CONTINUOUS
 90
25
 70
0
 10
64.7884017744
 20
150.0012172617
 10
64.7777220841
 20
149.9931972657
 10
64.7674214286
 20
149.9855737162
 10
64.7574998079
 20
149.9783425466
 10
64.7479640721
 20
149.9715009848
 10
64.7388073711
 20
149.9650427607
 10
64.7300091543
 20
149.958958893
 10
64.7215706446
 20
149.9532462687
 10
64.713490619
 20
149.9478990294
 10
64.7057448578
 20
149.9429058018
 10
64.6983318024
 20
149.9382626628
 10
64.6912530112
 20
149.9339662983
 10
64.6844889403
 20
149.9300084236
 10
64.6780371556
 20
149.9263849612
 10
64.6719000911
 20
149.9230941325
 10
64.6660655043
 20
149.9201321528
 10
64.6605355507
 20
149.9174970026
 10
64.6553080748
 20
149.9151838369
 10
64.6503643677
 20
149.9131861362
 10
64.6457021105
 20
149.911501364
 10
64.6413236221
 20
149.9101279593
 10
64.6372171509
 20
149.909062904
 10
64.6333787798
 20
149.9083042998
 10
64.6298124259
 20
149.9078505957
 10
64.6265180893
 20
149.9076998181
  0
LINE
  5
640
100
AcDbEntity
  8
RACCORDO
100
AcDbLine
 62
7
  6
CONTINUOUS
 10
50.1949898677
 20
186.7073088475
 11
50.7015778233
 21
186.7966339722
  0
LINE
  5
641
100
AcDbEntity
  8
DRAFT
100
AcDbLine
 62
253
  6
CONTINUOUS
 10
67.1317510443
 20
187.3174834741
 11
60.9986543536
 21
187.3174834741
  0
LINE
  5
642
100
AcDbEntity
  8
DRAFT
100
AcDbLine
 62
253
  6
CONTINUOUS
 10
60.2317510443
 20
187.3174834741
 11
54.0986543536
 21
187.3174834741
  0
LINE
  5
643
100
AcDbEntity
  8
DRAFT
100
AcDbLine
 62
253
  6
CONTINUOUS
 10
53.1317510443
 20
187.3174834741
 11
49.6345870996
 21
187.3174834741
  0
LINE
  5
644
100
AcDbEntity
  8
DRAFT
100
AcDbLine
 62
253
  6
CONTINUOUS
 10
68.0986543536
 20
187.3174834741
 11
71.5958182983
 21
187.3174834741
  0
LINE
  5
645
100
AcDbEntity
  8
RACCORDO
100
AcDbLine
 62
253
  6
CONTINUOUS
 10
67.7172847207
 20
188.6481201666
 11
67.5131206772
 21
188.6481201666
  0
LINE
  5
646
100
AcDbEntity
  8
RACCORDO
100
AcDbLine
 62
253
  6
CONTINUOUS
 10
53.7172847207
 20
188.6481201666
 11
53.5131206772
 21
188.6481201666
  0
LINE
  5
647
100
AcDbEntity
  8
RACCORDO
100
AcDbLine
 62
253
  6
CONTINUOUS
 10
53.2131247895
 20
188.9378979145
 11
54.0172806084
 21
188.9378979145
  0
LINE
  5
648
100
AcDbEntity
  8
RACCORDO
100
AcDbLine
 62
253
  6
CONTINUOUS
 10
67.2131247895
 20
188.9378979145
 11
68.0172806084
 21
188.9378979145
  0
LWPOLYLINE
  5
649
100
AcDbEntity
  8
RACCORDO
100
AcDbPolyline
 62
253
  6
CONTINUOUS
 90
43
 70
0
 10
53.5131206772
 20
188.6481201666
 10
53.5019131352
 20
188.6483371281
 10
53.490721241
 20
188.6489583682
 10
53.4795606204
 20
188.6499830194
 10
53.4684468557
 20
188.6514096513
 10
53.4573954635
 20
188.6532362719
 10
53.4464218737
 20
188.655460331
 10
53.4355414074
 20
188.6580787234
 10
53.4247692556
 20
188.6610877934
 10
53.4141204581
 20
188.6644833397
 10
53.4036098826
 20
188.6682606215
 10
53.3932522037
 20
188.6724143652
 10
53.3830618826
 20
188.6769387713
 10
53.3730531468
 20
188.681827523
 10
53.3632399703
 20
188.6870737946
 10
53.3536360541
 20
188.6926702615
 10
53.3442548068
 20
188.69860911
 10
53.3351093264
 20
188.7048820484
 10
53.3262123817
 20
188.7114803185
 10
53.3175763943
 20
188.718394708
 10
53.3092134217
 20
188.7256155632
 10
53.3011351399
 20
188.7331328024
 10
53.2933528279
 20
188.7409359303
 10
53.285877351
 20
188.7490140523
 10
53.2787191463
 20
188.7573558899
 10
53.2718882081
 20
188.7659497964
 10
53.2653940734
 20
188.7747837732
 10
53.2592458093
 20
188.7838454864
 10
53.2534519999
 20
188.7931222844
 10
53.2480207343
 20
188.8026012149
 10
53.2429595955
 20
188.8122690438
 10
53.2382756498
 20
188.8221122731
 10
53.2339754369
 20
188.8321171597
 10
53.2300649606
 20
188.8422697352
 10
53.2265496806
 20
188.8525558247
 10
53.2234345048
 20
188.862961067
 10
53.2207237827
 20
188.8734709345
 10
53.2184212989
 20
188.8840707536
 10
53.2165302679
 20
188.894745725
 10
53.2150533302
 20
188.9054809446
 10
53.2139925477
 20
188.916261424
 10
53.2133494015
 20
188.9270721119
 10
53.2131247895
 20
188.9378979145
  0
LWPOLYLINE
  5
64A
100
AcDbEntity
  8
RACCORDO
100
AcDbPolyline
 62
253
  6
CONTINUOUS
 90
43
 70
0
 10
67.5131206772
 20
188.6481201666
 10
67.5019131352
 20
188.6483371281
 10
67.490721241
 20
188.6489583682
 10
67.4795606204
 20
188.6499830194
 10
67.4684468557
 20
188.6514096513
 10
67.4573954635
 20
188.6532362719
 10
67.4464218737
 20
188.655460331
 10
67.4355414074
 20
188.6580787234
 10
67.4247692556
 20
188.6610877934
 10
67.4141204581
 20
188.6644833397
 10
67.4036098826
 20
188.6682606215
 10
67.3932522037
 20
188.6724143652
 10
67.3830618826
 20
188.6769387713
 10
67.3730531468
 20
188.681827523
 10
67.3632399703
 20
188.6870737946
 10
67.3536360541
 20
188.6926702615
 10
67.3442548068
 20
188.69860911
 10
67.3351093264
 20
188.7048820484
 10
67.3262123817
 20
188.7114803185
 10
67.3175763943
 20
188.718394708
 10
67.3092134217
 20
188.7256155632
 10
67.3011351399
 20
188.7331328024
 10
67.2933528279
 20
188.7409359303
 10
67.285877351
 20
188.7490140523
 10
67.2787191463
 20
188.7573558899
 10
67.2718882081
 20
188.7659497964
 10
67.2653940734
 20
188.7747837732
 10
67.2592458093
 20
188.7838454864
 10
67.2534519999
 20
188.7931222844
 10
67.2480207343
 20
188.8026012149
 10
67.2429595955
 20
188.8122690438
 10
67.2382756498
 20
188.8221122731
 10
67.2339754369
 20
188.8321171597
 10
67.2300649606
 20
188.8422697352
 10
67.2265496806
 20
188.8525558247
 10
67.2234345048
 20
188.862961067
 10
67.2207237827
 20
188.8734709345
 10
67.2184212989
 20
188.8840707536
 10
67.2165302679
 20
188.894745725
 10
67.2150533302
 20
188.9054809446
 10
67.2139925477
 20
188.916261424
 10
67.2133494015
 20
188.9270721119
 10
67.2131247895
 20
188.9378979145
  0
LWPOLYLINE
  5
64B
100
AcDbEntity
  8
RACCORDO
100
AcDbPolyline
 62
7
  6
CONTINUOUS
 90
25
 70
0
 10
53.9997550109
 20
189.5351986282
 10
53.9971002651
 20
189.5353646123
 10
53.9941950605
 20
189.5357926538
 10
53.9910393971
 20
189.5364897249
 10
53.9876389971
 20
189.5374627099
 10
53.9839881383
 20
189.5387177907
 10
53.9800696546
 20
189.5402598465
 10
53.9758830542
 20
189.5420933561
 10
53.9714288289
 20
189.5442232016
 10
53.9666912875
 20
189.5466537984
 10
53.9616790214
 20
189.5493842119
 10
53.9563834394
 20
189.5524211937
 10
53.9507630767
 20
189.5557841121
 10
53.9448142304
 20
189.5594822308
 10
53.9385406034
 20
189.5635179027
 10
53.9319118405
 20
189.5679049705
 10
53.9249175365
 20
189.5726543833
 10
53.9175680966
 20
189.5777653861
 10
53.9098643803
 20
189.5832333598
 10
53.9018030804
 20
189.5890581347
 10
53.8933875041
 20
189.5952401573
 10
53.8846284326
 20
189.6017719653
 10
53.8755303846
 20
189.6086435036
 10
53.8660888412
 20
189.6158555263
 10
53.8563010271
 20
189.6234154191
  0
LINE
  5
64C
100
AcDbEntity
  8
RACCORDO
100
AcDbLine
 62
7
  6
CONTINUOUS
 10
70.5288275746
 20
186.7966339722
 11
71.0354155302
 21
186.7073088475
  0
LWPOLYLINE
  5
64D
100
AcDbEntity
  8
RACCORDO
100
AcDbPolyline
 62
253
  6
CONTINUOUS
 90
8
 70
0
 10
56.6240515878
 20
189.7310444412
 10
56.6234317361
 20
189.7311593268
 10
56.622061633
 20
189.7312739274
 10
56.6199422849
 20
189.7313882428
 10
56.6170752542
 20
189.7315023586
 10
56.613462675
 20
189.7316161893
 10
56.6091072656
 20
189.7317294785
 10
56.5981815553
 20
189.7319544307
  0
LWPOLYLINE
  5
64E
100
AcDbEntity
  8
RACCORDO
100
AcDbPolyline
 62
253
  6
CONTINUOUS
 90
8
 70
0
 10
56.4240595256
 20
189.5310471985
 10
56.4235617328
 20
189.5311620658
 10
56.4224660745
 20
189.5312766529
 10
56.4207725509
 20
189.5313909598
 10
56.418478994
 20
189.5315050738
 10
56.4155875718
 20
189.5316189076
 10
56.4121047874
 20
189.5317321998
 10
56.4033624578
 20
189.5319571537
  0
LINE
  5
64F
100
AcDbEntity
  8
ASSI
100
AcDbLine
 62
7
  6
CONTINUOUS
 10
64.8925993472
 20
190.3389360532
 11
64.9276062575
 21
190.3124839037
  0
LINE
  5
650
100
AcDbEntity
  8
ASSI
100
AcDbLine
 62
7
  6
CONTINUOUS
 10
64.9276062575
 20
190.3124839037
 11
64.9650710895
 21
190.2837345757
  0
LINE
  5
651
100
AcDbEntity
  8
ASSI
100
AcDbLine
 62
7
  6
CONTINUOUS
 10
64.9650710895
 20
190.2837345757
 11
65.0050375135
 21
190.2526554172
  0
LINE
  5
652
100
AcDbEntity
  8
ASSI
100
AcDbLine
 62
7
  6
CONTINUOUS
 10
65.0050375135
 20
190.2526554172
 11
65.0474821716
 21
190.2192665788
  0
LINE
  5
653
100
AcDbEntity
  8
ASSI
100
AcDbLine
 62
7
  6
CONTINUOUS
 10
65.0474821716
 20
190.2192665788
 11
65.0922907423
 21
190.1836762445
  0
LINE
  5
654
100
AcDbEntity
  8
ASSI
100
AcDbLine
 62
7
  6
CONTINUOUS
 10
65.0922907423
 20
190.1836762445
 11
65.1636084428
 21
190.1264382215
  0
LINE
  5
655
100
AcDbEntity
  8
ASSI
100
AcDbLine
 62
7
  6
CONTINUOUS
 10
65.1636084428
 20
190.1264382215
 11
65.2396574429
 21
190.0647974526
  0
LINE
  5
656
100
AcDbEntity
  8
ASSI
100
AcDbLine
 62
7
  6
CONTINUOUS
 10
65.2396574429
 20
190.0647974526
 11
65.3201910068
 21
189.9990240165
  0
LINE
  5
657
100
AcDbEntity
  8
ASSI
100
AcDbLine
 62
7
  6
CONTINUOUS
 10
65.3201910068
 20
189.9990240165
 11
65.4331533591
 21
189.9061700836
  0
LINE
  5
658
100
AcDbEntity
  8
ASSI
100
AcDbLine
 62
7
  6
CONTINUOUS
 10
65.4331533591
 20
189.9061700836
 11
65.6063139864
 21
189.7631686531
  0
LINE
  5
659
100
AcDbEntity
  8
RACCORDO
100
AcDbLine
 62
7
  6
CONTINUOUS
 10
67.6152026989
 20
189.8076998181
 11
66.8152026989
 21
190.6076998181
  0
LINE
  5
65A
100
AcDbEntity
  8
RACCORDO
100
AcDbLine
 62
7
  6
CONTINUOUS
 10
68.0172806084
 20
149.23072187
 11
68.0942585565
 21
149.3076998181
  0
LINE
  5
65B
100
AcDbEntity
  8
ASSI
100
AcDbLine
 62
7
  6
CONTINUOUS
 10
65.6063139864
 20
148.3950341133
 11
65.4821179395
 21
148.2839928027
  0
LINE
  5
65C
100
AcDbEntity
  8
ASSI
100
AcDbLine
 62
7
  6
CONTINUOUS
 10
65.4821179395
 20
148.2839928027
 11
65.3589694473
 21
148.1742432888
  0
LINE
  5
65D
100
AcDbEntity
  8
ASSI
100
AcDbLine
 62
7
  6
CONTINUOUS
 10
65.3589694473
 20
148.1742432888
 11
65.2707061218
 21
148.0959828958
  0
LINE
  5
65E
100
AcDbEntity
  8
ASSI
100
AcDbLine
 62
7
  6
CONTINUOUS
 10
65.2707061218
 20
148.0959828958
 11
65.187507913
 21
148.0227077466
  0
LINE
  5
65F
100
AcDbEntity
  8
ASSI
100
AcDbLine
 62
7
  6
CONTINUOUS
 10
65.187507913
 20
148.0227077466
 11
65.135079482
 21
147.9768598952
  0
LINE
  5
660
100
AcDbEntity
  8
ASSI
100
AcDbLine
 62
7
  6
CONTINUOUS
 10
65.135079482
 20
147.9768598952
 11
65.0851529025
 21
147.9335233244
  0
LINE
  5
661
100
AcDbEntity
  8
ASSI
100
AcDbLine
 62
7
  6
CONTINUOUS
 10
65.0851529025
 20
147.9335233244
 11
65.0378046402
 21
147.8927627774
  0
LINE
  5
662
100
AcDbEntity
  8
ASSI
100
AcDbLine
 62
7
  6
CONTINUOUS
 10
65.0378046402
 20
147.8927627774
 11
64.9933040772
 21
147.854836999
  0
LINE
  5
663
100
AcDbEntity
  8
ASSI
100
AcDbLine
 62
7
  6
CONTINUOUS
 10
64.9933040772
 20
147.854836999
 11
64.9517185106
 21
147.8198063557
  0
LINE
  5
664
100
AcDbEntity
  8
ASSI
100
AcDbLine
 62
7
  6
CONTINUOUS
 10
64.9517185106
 20
147.8198063557
 11
64.9130247849
 21
147.7876497162
  0
LWPOLYLINE
  5
665
100
AcDbEntity
  8
ASSI
100
AcDbPolyline
 62
7
  6
CONTINUOUS
 90
13
 70
0
 10
64.9130247849
 20
147.7876497162
 10
64.8771057874
 20
147.7582767942
 10
64.860174489
 20
147.7446170166
 10
64.8438937347
 20
147.7316205801
 10
64.8282612071
 20
147.7192796692
 10
64.8132792236
 20
147.7075909853
 10
64.7989200001
 20
147.6965427982
 10
64.7851818478
 20
147.6861254296
 10
64.7720664555
 20
147.6763341082
 10
64.7595511063
 20
147.6671635343
 10
64.7476282277
 20
147.6586050924
 10
64.7363053921
 20
147.6506474994
 10
64.7255825995
 20
147.6432800166
  0
LINE
  5
666
100
AcDbEntity
  8
ASSI
100
AcDbLine
 62
253
  6
CONTINUOUS
 10
66.2431393145
 20
189.8076998181
 11
65.6063139864
 21
189.7631686531
  0
LINE
  5
667
100
AcDbEntity
  8
RACCORDO
100
AcDbLine
 62
7
  6
CONTINUOUS
 10
66.2152026989
 20
190.6076998181
 11
64.7851360733
 21
190.5076998181
  0
LWPOLYLINE
  5
668
100
AcDbEntity
  8
RACCORDO
100
AcDbPolyline
 62
253
  6
CONTINUOUS
 90
7
 70
0
 10
64.8183001994
 20
189.5317321871
 10
64.8148174842
 20
189.5316188947
 10
64.8119261256
 20
189.5315050607
 10
64.809632634
 20
189.5313909478
 10
64.8079391797
 20
189.5312766436
 10
64.8068435924
 20
189.5311620605
 10
64.8063458723
 20
189.5310471985
  0
LWPOLYLINE
  5
669
100
AcDbEntity
  8
RACCORDO
100
AcDbPolyline
 62
253
  6
CONTINUOUS
 90
6
 70
0
 10
64.616942551
 20
189.7316161842
 10
64.6133300006
 20
189.7315023533
 10
64.6104630068
 20
189.7313882377
 10
64.6083436991
 20
189.7312739228
 10
64.6069736317
 20
189.7311593232
 10
64.6063538051
 20
189.7310444389
  0
LINE
  5
66A
100
AcDbEntity
  8
RACCORDO
100
AcDbLine
 62
253
  6
CONTINUOUS
 10
64.8270423666
 20
189.5319571406
 11
64.8183001994
 21
189.5317321871
  0
LINE
  5
66B
100
AcDbEntity
  8
RACCORDO
100
AcDbLine
 62
253
  6
CONTINUOUS
 10
64.6263928806
 20
189.7318422204
 11
64.616942551
 21
189.7316161842
  0
LWPOLYLINE
  5
66C
100
AcDbEntity
  8
RACCORDO
100
AcDbPolyline
 62
253
  6
CONTINUOUS
 90
37
 70
0
 10
56.4240595256
 20
189.5310471985
 10
56.4327827948
 20
189.531237948
 10
56.4414894599
 20
189.5318090178
 10
56.4501629481
 20
189.532759321
 10
56.45878675
 20
189.5340870486
 10
56.4673444506
 20
189.5357896735
 10
56.475819761
 20
189.5378639548
 10
56.4841965487
 20
189.5403059442
 10
56.4924588691
 20
189.5431109936
 10
56.5005909954
 20
189.5462737638
 10
56.5085774483
 20
189.5497882344
 10
56.5164030263
 20
189.5536477161
 10
56.5240528336
 20
189.5578448625
 10
56.5315123095
 20
189.5623716845
 10
56.5387672551
 20
189.5672195657
 10
56.545803861
 20
189.5723792783
 10
56.5526087336
 20
189.5778410011
 10
56.55916892
 20
189.5835943382
 10
56.5654719334
 20
189.5896283382
 10
56.5715057763
 20
189.5959315159
 10
56.5772589636
 20
189.6024918735
 10
56.5827205444
 20
189.6092969238
 10
56.587880123
 20
189.6163337137
 10
56.5927278783
 20
189.623588849
 10
56.5972545829
 20
189.6310485201
 10
56.6014516205
 20
189.6386985279
 10
56.6053110022
 20
189.646524311
 10
56.6088253819
 20
189.6545109735
 10
56.6119880703
 20
189.6626433132
 10
56.6147930472
 20
189.6709058506
 10
56.6172349736
 20
189.6792828586
 10
56.6193092014
 20
189.6877583918
 10
56.6210117823
 20
189.6963163177
 10
56.6223394758
 20
189.7049403467
 10
56.6232897544
 20
189.7136140633
 10
56.6238608096
 20
189.7223209578
 10
56.6240515542
 20
189.7310444569
  0
LINE
  5
66D
100
AcDbEntity
  8
RACCORDO
100
AcDbLine
 62
253
  6
CONTINUOUS
 10
64.8445303181
 20
189.5322889853
 11
64.8270423666
 21
189.5319571406
  0
LINE
  5
66E
100
AcDbEntity
  8
RACCORDO
100
AcDbLine
 62
253
  6
CONTINUOUS
 10
64.6460740387
 20
189.7321764495
 11
64.6263928806
 21
189.7318422204
  0
LINE
  5
66F
100
AcDbEntity
  8
RACCORDO
100
AcDbLine
 62
253
  6
CONTINUOUS
 10
64.8850315247
 20
189.5328217292
 11
64.8445303181
 21
189.5322889853
  0
LINE
  5
670
100
AcDbEntity
  8
RACCORDO
100
AcDbLine
 62
253
  6
CONTINUOUS
 10
64.693202056
 20
189.7327148806
 11
64.6460740387
 21
189.7321764495
  0
LINE
  5
671
100
AcDbEntity
  8
RACCORDO
100
AcDbLine
 62
253
  6
CONTINUOUS
 10
64.9913337113
 20
189.533688881
 11
64.8850315247
 21
189.5328217292
  0
LINE
  5
672
100
AcDbEntity
  8
RACCORDO
100
AcDbLine
 62
253
  6
CONTINUOUS
 10
64.8554061741
 20
189.733773409
 11
64.693202056
 21
189.7327148806
  0
LINE
  5
673
100
AcDbEntity
  8
RACCORDO
100
AcDbLine
 62
253
  6
CONTINUOUS
 10
65.1818100816
 20
189.7347997419
 11
64.8554061741
 21
189.733773409
  0
LINE
  5
674
100
AcDbEntity
  8
RACCORDO
100
AcDbLine
 62
253
  6
CONTINUOUS
 10
65.3479843772
 20
189.5349742284
 11
64.9913337113
 21
189.533688881
  0
LINE
  5
675
100
AcDbEntity
  8
RACCORDO
100
AcDbLine
 62
253
  6
CONTINUOUS
 10
65.2833985213
 20
189.7349714821
 11
65.1818100816
 21
189.7347997419
  0
LINE
  5
676
100
AcDbEntity
  8
RACCORDO
100
AcDbLine
 62
253
  6
CONTINUOUS
 10
65.3888620289
 20
189.7350956426
 11
65.2833985213
 21
189.7349714821
  0
LINE
  5
677
100
AcDbEntity
  8
RACCORDO
100
AcDbLine
 62
253
  6
CONTINUOUS
 10
65.5188216434
 20
189.5351734981
 11
65.3479843772
 21
189.5349742284
  0
LINE
  5
678
100
AcDbEntity
  8
RACCORDO
100
AcDbLine
 62
253
  6
CONTINUOUS
 10
65.4697430642
 20
189.7351566312
 11
65.3888620289
 21
189.7350956426
  0
LINE
  5
679
100
AcDbEntity
  8
RACCORDO
100
AcDbLine
 62
253
  6
CONTINUOUS
 10
65.5515449032
 20
189.7351895911
 11
65.4697430642
 21
189.7351566312
  0
LINE
  5
67A
100
AcDbEntity
  8
RACCORDO
100
AcDbLine
 62
7
  6
CONTINUOUS
 10
67.1374290819
 20
189.4589820587
 11
64.6834592464
 21
189.4589820587
  0
LINE
  5
67B
100
AcDbEntity
  8
RACCORDO
100
AcDbLine
 62
7
  6
CONTINUOUS
 10
54.092976316
 20
189.4589820587
 11
56.5469461515
 21
189.4589820587
  0
LINE
  5
67C
100
AcDbEntity
  8
RACCORDO
100
AcDbLine
 62
253
  6
CONTINUOUS
 10
67.230650387
 20
189.5351986282
 11
65.5188216434
 21
189.5351734981
  0
LINE
  5
67D
100
AcDbEntity
  8
RACCORDO
100
AcDbLine
 62
253
  6
CONTINUOUS
 10
67.5131206772
 20
189.7351958867
 11
65.5515449032
 21
189.7351895911
  0
LINE
  5
67E
100
AcDbEntity
  8
RACCORDO
100
AcDbLine
 62
253
  6
CONTINUOUS
 10
67.6152026989
 20
189.8076998181
 11
66.2431393145
 21
189.8076998181
  0
LINE
  5
67F
100
AcDbEntity
  8
RACCORDO
100
AcDbLine
 62
253
  6
CONTINUOUS
 10
54.9872660834
 20
189.8076998181
 11
53.6152026989
 21
189.8076998181
  0
LINE
  5
680
100
AcDbEntity
  8
DRAFT
100
AcDbLine
 62
7
  6
CONTINUOUS
 10
60.2361468414
 20
189.8144990063
 11
56.7491312704
 21
189.8144990063
  0
LINE
  5
681
100
AcDbEntity
  8
DRAFT
100
AcDbLine
 62
7
  6
CONTINUOUS
 10
49.6199330885
 20
189.8144990063
 11
53.1361468414
 21
189.8144990063
  0
LINE
  5
682
100
AcDbEntity
  8
DRAFT
100
AcDbLine
 62
7
  6
CONTINUOUS
 10
60.9942585565
 20
189.8144990063
 11
64.4812741275
 21
189.8144990063
  0
LINE
  5
683
100
AcDbEntity
  8
DRAFT
100
AcDbLine
 62
7
  6
CONTINUOUS
 10
68.0942585565
 20
189.8144990063
 11
71.6104723094
 21
189.8144990063
  0
LINE
  5
684
100
AcDbEntity
  8
0
100
AcDbLine
 62
7
  6
CONTINUOUS
 10
64.0327457775
 20
190.2576998181
 11
57.1976596203
 21
190.2576998181
  0
LINE
  5
685
100
AcDbEntity
  8
ASSI
100
AcDbLine
 62
7
  6
CONTINUOUS
 10
64.7851360733
 20
190.5076998181
 11
64.4812741275
 21
190.5076998181
  0
LINE
  5
686
100
AcDbEntity
  8
ASSI
100
AcDbLine
 62
7
  6
CONTINUOUS
 10
56.7491312704
 20
190.5076998181
 11
56.4452693246
 21
190.5076998181
  0
LINE
  5
687
100
AcDbEntity
  8
RACCORDO
100
AcDbLine
 62
7
  6
CONTINUOUS
 10
66.8152026989
 20
190.6076998181
 11
66.2152026989
 21
190.6076998181
  0
LINE
  5
688
100
AcDbEntity
  8
RACCORDO
100
AcDbLine
 62
7
  6
CONTINUOUS
 10
55.0152026989
 20
190.6076998181
 11
54.4152026989
 21
190.6076998181
  0
LINE
  5
689
100
AcDbEntity
  8
0
100
AcDbLine
 62
7
  6
CONTINUOUS
 10
54.6152026989
 20
190.6576998181
 11
66.6152026989
 21
190.6576998181
  0
LINE
  5
68A
100
AcDbEntity
  8
ASSI
100
AcDbLine
 62
7
  6
CONTINUOUS
 10
56.6652026989
 20
190.6576998181
 11
64.5652026989
 21
190.6576998181
  0
LINE
  5
68B
100
AcDbEntity
  8
RACCORDO
100
AcDbLine
 62
253
  6
CONTINUOUS
 10
56.1302392487
 20
189.5342536634
 11
53.9997550109
 21
189.5351986282
  0
LINE
  5
68C
100
AcDbEntity
  8
RACCORDO
100
AcDbLine
 62
253
  6
CONTINUOUS
 10
56.3376968915
 20
189.7339415099
 11
53.7172847207
 21
189.7351958867
  0
LWPOLYLINE
  5
68D
100
AcDbEntity
  8
ASSI
100
AcDbPolyline
 62
7
  6
CONTINUOUS
 90
25
 70
0
 10
64.5652026989
 20
190.6576998181
 10
64.5447170612
 20
190.6578518254
 10
64.5257504674
 20
190.6583105675
 10
64.5083029175
 20
190.6590800589
 10
64.492498612
 20
190.6601665139
 10
64.4782133504
 20
190.6615726218
 10
64.4650745314
 20
190.6632917582
 10
64.4530438906
 20
190.6653182827
 10
64.4421596923
 20
190.6676534
 10
64.4321641289
 20
190.6702954261
 10
64.4230352918
 20
190.6732352236
 10
64.4147950895
 20
190.6764766836
 10
64.4072514404
 20
190.6800440406
 10
64.4003697294
 20
190.6839421017
 10
64.3941845717
 20
190.688174656
 10
64.3886077306
 20
190.692776907
 10
64.3836117221
 20
190.6977754702
 10
64.3792240304
 20
190.7031660503
 10
64.3754388717
 20
190.7089404497
 10
64.3722604979
 20
190.7151132602
 10
64.3696846573
 20
190.7216840044
 10
64.3676928109
 20
190.7286116615
 10
64.3662787793
 20
190.7358789792
 10
64.365448742
 20
190.7435001195
 10
64.3652026989
 20
190.7514740433
  0
LINE
  5
68E
100
AcDbEntity
  8
RACCORDO
100
AcDbLine
 62
253
  6
CONTINUOUS
 10
56.5256895761
 20
189.7328190111
 11
56.3376968915
 21
189.7339415099
  0
LINE
  5
68F
100
AcDbEntity
  8
RACCORDO
100
AcDbLine
 62
253
  6
CONTINUOUS
 10
56.3145213221
 20
189.5331257377
 11
56.1302392487
 21
189.5342536634
  0
LINE
  5
690
100
AcDbEntity
  8
RACCORDO
100
AcDbLine
 62
253
  6
CONTINUOUS
 10
56.5763216612
 20
189.7322862727
 11
56.5256895761
 21
189.7328190111
  0
LINE
  5
691
100
AcDbEntity
  8
RACCORDO
100
AcDbLine
 62
253
  6
CONTINUOUS
 10
56.3713522746
 20
189.5325055117
 11
56.3145213221
 21
189.5331257377
  0
LINE
  5
692
100
AcDbEntity
  8
RACCORDO
100
AcDbLine
 62
253
  6
CONTINUOUS
 10
56.5981815553
 20
189.7319544307
 11
56.5763216612
 21
189.7322862727
  0
LINE
  5
693
100
AcDbEntity
  8
RACCORDO
100
AcDbLine
 62
253
  6
CONTINUOUS
 10
56.3922849307
 20
189.5321791794
 11
56.3713522746
 21
189.5325055117
  0
LWPOLYLINE
  5
694
100
AcDbEntity
  8
RACCORDO
100
AcDbPolyline
 62
7
  6
CONTINUOUS
 90
43
 70
0
 10
64.6834592464
 20
189.4589820587
 10
64.6764359653
 20
189.459105078
 10
64.6693980756
 20
189.4594755098
 10
64.6623544329
 20
189.460095237
 10
64.6553089908
 20
189.4609665487
 10
64.6482759868
 20
189.4620903308
 10
64.6412796445
 20
189.4634642664
 10
64.6343316538
 20
189.4650866511
 10
64.6274382817
 20
189.4669566272
 10
64.620615137
 20
189.4690703255
 10
64.6138813328
 20
189.4714211889
 10
64.6072347046
 20
189.4740093172
 10
64.6006596219
 20
189.4768422662
 10
64.5941583574
 20
189.4799225852
 10
64.5877479714
 20
189.4832457724
 10
64.581436223
 20
189.4868110701
 10
64.575228905
 20
189.4906190076
 10
64.5691399767
 20
189.4946649287
 10
64.5631888561
 20
189.4989388067
 10
64.5573877916
 20
189.5034337318
 10
64.551742211
 20
189.5081474541
 10
64.5462604483
 20
189.513075347
 10
64.5409582941
 20
189.5182049401
 10
64.5358365703
 20
189.523537204
 10
64.5308834486
 20
189.5290895387
 10
64.5261016659
 20
189.5348678987
 10
64.5215108401
 20
189.5408580531
 10
64.5171262074
 20
189.5470481388
 10
64.5129566362
 20
189.553433551
 10
64.5090131875
 20
189.5600058171
 10
64.5053120799
 20
189.5667451484
 10
64.5018663745
 20
189.5736323848
 10
64.4986779671
 20
189.5806687582
 10
64.4957467595
 20
189.5878646419
 10
64.4930807647
 20
189.5952153422
 10
64.4906909425
 20
189.6027073379
 10
64.488584351
 20
189.6103382039
 10
64.4867693466
 20
189.6181029774
 10
64.4852567294
 20
189.6259853975
 10
64.4840565847
 20
189.6339652551
 10
64.483176601
 20
189.642027356
 10
64.4826231941
 20
189.6501617463
 10
64.4824028242
 20
189.6583551184
  0
LINE
  5
695
100
AcDbEntity
  8
RACCORDO
100
AcDbLine
 62
253
  6
CONTINUOUS
 10
56.4033624578
 20
189.5319571537
 11
56.3922849307
 21
189.5321791794
  0
LWPOLYLINE
  5
696
100
AcDbEntity
  8
RACCORDO
100
AcDbPolyline
 62
253
  6
CONTINUOUS
 90
37
 70
0
 10
64.8063458723
 20
189.5310471985
 10
64.7976226019
 20
189.531237948
 10
64.7889159359
 20
189.531809018
 10
64.7802424467
 20
189.5327593214
 10
64.7716186439
 20
189.5340870493
 10
64.7630609425
 20
189.5357896746
 10
64.7545856315
 20
189.5378639563
 10
64.7462088431
 20
189.5403059461
 10
64.7379465222
 20
189.543110996
 10
64.7298143956
 20
189.5462737666
 10
64.7218279424
 20
189.5497882378
 10
64.7140023643
 20
189.55364772
 10
64.7063525568
 20
189.5578448668
 10
64.6988930809
 20
189.5623716893
 10
64.6916381354
 20
189.5672195709
 10
64.6846015296
 20
189.5723792839
 10
64.6777966572
 20
189.5778410071
 10
64.6712364711
 20
189.5835943444
 10
64.664933458
 20
189.5896283447
 10
64.6588996155
 20
189.5959315226
 10
64.6531464287
 20
189.6024918803
 10
64.6476848483
 20
189.6092969306
 10
64.6425252702
 20
189.6163337204
 10
64.6376775154
 20
189.6235888556
 10
64.6331508113
 20
189.6310485266
 10
64.6289537742
 20
189.6386985341
 10
64.625094393
 20
189.6465243169
 10
64.6215800137
 20
189.654510979
 10
64.6184173258
 20
189.6626433182
 10
64.6156123493
 20
189.6709058552
 10
64.6131704232
 20
189.6792828626
 10
64.6110961958
 20
189.6877583952
 10
64.6093936151
 20
189.6963163205
 10
64.6080659218
 20
189.7049403488
 10
64.6071156433
 20
189.7136140647
 10
64.6065445883
 20
189.7223209585
 10
64.6063538437
 20
189.7310444569
  0
LWPOLYLINE
  5
697
100
AcDbEntity
  8
ASSI
100
AcDbPolyline
 62
7
  6
CONTINUOUS
 90
25
 70
0
 10
64.6265180893
 20
190.5076998181
 10
64.6298120649
 20
190.5075490705
 10
64.6333780881
 20
190.5070954471
 10
64.6372161588
 20
190.5063369601
 10
64.6413223334
 20
190.5052720473
 10
64.6457005556
 20
190.5038987947
 10
64.6503626565
 20
190.5022141561
 10
64.6553063688
 20
190.5002165287
 10
64.6605339597
 20
190.4979033692
 10
64.6660640622
 20
190.4952681937
 10
64.6718987889
 20
190.4923061826
 10
64.6780360271
 20
190.4890152918
 10
64.6844880713
 20
190.4853917111
 10
64.6912525733
 20
190.4814336082
 10
64.6983318814
 20
190.477136936
 10
64.7057453347
 20
190.4724935312
 10
64.7134912948
 20
190.4675001591
 10
64.7215714001
 20
190.4621528607
 10
64.7300099054
 20
190.4564402291
 10
64.7388080094
 20
190.4503564234
 10
64.7479645133
 20
190.4438983322
 10
64.7575000759
 20
190.4370568957
 10
64.7674215834
 20
190.4298258092
 10
64.7777221495
 20
190.4222023255
 10
64.7884017744
 20
190.4141823745
  0
LINE
  5
698
100
AcDbEntity
  8
ASSI
100
AcDbLine
 62
253
  6
CONTINUOUS
 10
55.6240914115
 20
189.7631686531
 11
54.9872660834
 21
189.8076998181
  0
LINE
  5
699
100
AcDbEntity
  8
RACCORDO
100
AcDbLine
 62
7
  6
CONTINUOUS
 10
56.4452693246
 20
190.5076998181
 11
55.0152026989
 21
190.6076998181
  0
LWPOLYLINE
  5
69A
100
AcDbEntity
  8
ASSI
100
AcDbPolyline
 62
7
  6
CONTINUOUS
 90
8
 70
0
 10
64.7884017744
 20
190.4141823745
 10
64.8015945141
 20
190.405037283
 10
64.8153490004
 20
190.3953648266
 10
64.8296655544
 20
190.3851604145
 10
64.844536146
 20
190.3744231779
 10
64.859969296
 20
190.3631469666
 10
64.8759901757
 20
190.3513189264
 10
64.8925993472
 20
190.3389360532
  0
LINE
  5
69B
100
AcDbEntity
  8
ASSI
100
AcDbLine
 62
7
  6
CONTINUOUS
 10
64.8770966062
 20
192.6571302857
 11
64.9130148622
 21
192.6277581099
  0
LINE
  5
69C
100
AcDbEntity
  8
ASSI
100
AcDbLine
 62
7
  6
CONTINUOUS
 10
64.9130148622
 20
192.6277581099
 11
64.9517078443
 21
192.5956022073
  0
LINE
  5
69D
100
AcDbEntity
  8
ASSI
100
AcDbLine
 62
7
  6
CONTINUOUS
 10
64.9517078443
 20
192.5956022073
 11
64.9932918868
 21
192.5605729639
  0
LINE
  5
69E
100
AcDbEntity
  8
ASSI
100
AcDbLine
 62
7
  6
CONTINUOUS
 10
64.9932918868
 20
192.5605729639
 11
65.0377906431
 21
192.5226488423
  0
LINE
  5
69F
100
AcDbEntity
  8
ASSI
100
AcDbLine
 62
7
  6
CONTINUOUS
 10
65.0377906431
 20
192.5226488423
 11
65.0851372754
 21
192.4818898233
  0
LINE
  5
6A0
100
AcDbEntity
  8
ASSI
100
AcDbLine
 62
7
  6
CONTINUOUS
 10
65.0851372754
 20
192.4818898233
 11
65.1350638936
 21
192.4385533322
  0
LINE
  5
6A1
100
AcDbEntity
  8
ASSI
100
AcDbLine
 62
7
  6
CONTINUOUS
 10
65.1350638936
 20
192.4385533322
 11
65.2146328279
 21
192.3688753678
  0
LINE
  5
6A2
100
AcDbEntity
  8
ASSI
100
AcDbLine
 62
7
  6
CONTINUOUS
 10
65.2146328279
 20
192.3688753678
 11
65.2996086639
 21
192.2938524165
  0
LINE
  5
6A3
100
AcDbEntity
  8
ASSI
100
AcDbLine
 62
7
  6
CONTINUOUS
 10
65.2996086639
 20
192.2938524165
 11
65.3893730197
 21
192.2141230965
  0
LWPOLYLINE
  5
6A4
100
AcDbEntity
  8
ASSI
100
AcDbPolyline
 62
7
  6
CONTINUOUS
 90
3
 70
0
 10
65.3893730197
 20
192.2141230965
 10
65.5132314589
 20
192.1035984229
 10
65.6063139864
 20
192.020365523
  0
LINE
  5
6A5
100
AcDbEntity
  8
RACCORDO
100
AcDbLine
 62
7
  6
CONTINUOUS
 10
68.0942585565
 20
191.1076998181
 11
68.0172806084
 21
191.1846777662
  0
LINE
  5
6A6
100
AcDbEntity
  8
RACCORDO
100
AcDbLine
 62
7
  6
CONTINUOUS
 10
55.0152026989
 20
191.1076998181
 11
56.4452693246
 21
191.2076998181
  0
LINE
  5
6A7
100
AcDbEntity
  8
ASSI
100
AcDbLine
 62
253
  6
CONTINUOUS
 10
54.9872660834
 20
191.9076998181
 11
55.6240914115
 21
191.9522309831
  0
LWPOLYLINE
  5
6A8
100
AcDbEntity
  8
RACCORDO
100
AcDbPolyline
 62
7
  6
CONTINUOUS
 90
23
 70
0
 10
64.5390240513
 20
192.7079158026
 10
64.5261846345
 20
192.7072611316
 10
64.5134584218
 20
192.706342629
 10
64.5008988137
 20
192.7051653004
 10
64.4886660125
 20
192.703744163
 10
64.4767642045
 20
192.7020760938
 10
64.4651892034
 20
192.7001642158
 10
64.4540886523
 20
192.6980329158
 10
64.443468629
 20
192.695679383
 10
64.4333230556
 20
192.6931064282
 10
64.4237813427
 20
192.6903468702
 10
64.4148512255
 20
192.6873983187
 10
64.4065249686
 20
192.6842631642
 10
64.3989087765
 20
192.6809813965
 10
64.3920117448
 20
192.6775511375
 10
64.3858247778
 20
192.6739742655
 10
64.3804267924
 20
192.6702964046
 10
64.3758278954
 20
192.6665162611
 10
64.3720179799
 20
192.6626351288
 10
64.3690456429
 20
192.6587025127
 10
64.3669270832
 20
192.6547349148
 10
64.3656461018
 20
192.6507158331
 10
64.3652026989
 20
192.6466452677
  0
LWPOLYLINE
  5
6A9
100
AcDbEntity
  8
RACCORDO
100
AcDbPolyline
 62
7
  6
CONTINUOUS
 90
3
 70
0
 10
64.5652026989
 20
192.7084486666
 10
64.5520300728
 20
192.7083116476
 10
64.5390240513
 20
192.7079158026
  0
LINE
  5
6AA
100
AcDbEntity
  8
0
100
AcDbLine
 62
7
  6
CONTINUOUS
 10
66.6152026989
 20
191.0576998181
 11
65.3590456697
 21
191.0576998181
  0
LINE
  5
6AB
100
AcDbEntity
  8
0
100
AcDbLine
 62
7
  6
CONTINUOUS
 10
65.3477222053
 20
191.0576998181
 11
64.5652026989
 21
191.0576998181
  0
LINE
  5
6AC
100
AcDbEntity
  8
0
100
AcDbLine
 62
7
  6
CONTINUOUS
 10
54.6152026989
 20
191.0576998181
 11
55.8713597282
 21
191.0576998181
  0
LINE
  5
6AD
100
AcDbEntity
  8
0
100
AcDbLine
 62
7
  6
CONTINUOUS
 10
55.8826831926
 20
191.0576998181
 11
56.6652026989
 21
191.0576998181
  0
LINE
  5
6AE
100
AcDbEntity
  8
DRAFT
100
AcDbLine
 62
7
  6
CONTINUOUS
 10
49.6199330885
 20
191.1076998181
 11
53.1361468414
 21
191.1076998181
  0
LINE
  5
6AF
100
AcDbEntity
  8
RACCORDO
100
AcDbLine
 62
7
  6
CONTINUOUS
 10
54.4152026989
 20
191.1076998181
 11
55.0152026989
 21
191.1076998181
  0
LINE
  5
6B0
100
AcDbEntity
  8
RACCORDO
100
AcDbLine
 62
7
  6
CONTINUOUS
 10
66.2152026989
 20
191.1076998181
 11
66.8152026989
 21
191.1076998181
  0
LINE
  5
6B1
100
AcDbEntity
  8
DRAFT
100
AcDbLine
 62
7
  6
CONTINUOUS
 10
68.0942585565
 20
191.1076998181
 11
71.6104723094
 21
191.1076998181
  0
LINE
  5
6B2
100
AcDbEntity
  8
DRAFT
100
AcDbLine
 62
7
  6
CONTINUOUS
 10
71.7152026989
 20
191.1391160317
 11
71.0152026989
 21
191.1391160317
  0
LINE
  5
6B3
100
AcDbEntity
  8
DRAFT
100
AcDbLine
 62
7
  6
CONTINUOUS
 10
50.2152026989
 20
191.1391160317
 11
49.5152026989
 21
191.1391160317
  0
LINE
  5
6B4
100
AcDbEntity
  8
RACCORDO
100
AcDbLine
 62
7
  6
CONTINUOUS
 10
51.3549955464
 20
191.1862403522
 11
53.5131206772
 21
191.1862403522
  0
LINE
  5
6B5
100
AcDbEntity
  8
RACCORDO
100
AcDbLine
 62
7
  6
CONTINUOUS
 10
67.7172847207
 20
191.1862403522
 11
69.8754098515
 21
191.1862403522
  0
LINE
  5
6B6
100
AcDbEntity
  8
DRAFT
100
AcDbLine
 62
7
  6
CONTINUOUS
 10
56.7152026989
 20
191.2076998181
 11
56.8652026989
 21
191.2076998181
  0
LINE
  5
6B7
100
AcDbEntity
  8
ASSI
100
AcDbLine
 62
7
  6
CONTINUOUS
 10
56.4452693246
 20
191.2076998181
 11
56.7152026989
 21
191.2076998181
  0
LINE
  5
6B8
100
AcDbEntity
  8
DRAFT
100
AcDbLine
 62
7
  6
CONTINUOUS
 10
64.3652026989
 20
191.2076998181
 11
64.5152026989
 21
191.2076998181
  0
LINE
  5
6B9
100
AcDbEntity
  8
ASSI
100
AcDbLine
 62
7
  6
CONTINUOUS
 10
64.5152026989
 20
191.2076998181
 11
64.7851360733
 21
191.2076998181
  0
LINE
  5
6BA
100
AcDbEntity
  8
RACCORDO
100
AcDbLine
 62
253
  6
CONTINUOUS
 10
53.6152026989
 20
191.9076998181
 11
54.9872660834
 21
191.9076998181
  0
LINE
  5
6BB
100
AcDbEntity
  8
RACCORDO
100
AcDbLine
 62
253
  6
CONTINUOUS
 10
66.2431393145
 20
191.9076998181
 11
67.6152026989
 21
191.9076998181
  0
LINE
  5
6BC
100
AcDbEntity
  8
ASSI
100
AcDbLine
 62
253
  6
CONTINUOUS
 10
66.8658223872
 20
192.020365523
 11
65.6063139864
 21
192.020365523
  0
LINE
  5
6BD
100
AcDbEntity
  8
ASSI
100
AcDbLine
 62
253
  6
CONTINUOUS
 10
54.3645830107
 20
192.020365523
 11
55.6240914115
 21
192.020365523
  0
LINE
  5
6BE
100
AcDbEntity
  8
0
100
AcDbLine
 62
253
  6
CONTINUOUS
 10
56.8652026989
 20
192.4136506828
 11
64.3652026989
 21
192.4136506828
  0
LINE
  5
6BF
100
AcDbEntity
  8
ASSI
100
AcDbLine
 62
7
  6
CONTINUOUS
 10
52.4581071146
 20
192.7076998181
 11
50.2152026989
 21
192.7076998181
  0
LINE
  5
6C0
100
AcDbEntity
  8
ASSI
100
AcDbLine
 62
7
  6
CONTINUOUS
 10
68.7722982833
 20
192.7076998181
 11
71.0152026989
 21
192.7076998181
  0
LINE
  5
6C1
100
AcDbEntity
  8
RACCORDO
100
AcDbLine
 62
7
  6
CONTINUOUS
 10
64.5893098418
 20
192.7084486666
 11
64.5652026989
 21
192.7084486666
  0
LINE
  5
6C2
100
AcDbEntity
  8
RACCORDO
100
AcDbLine
 62
7
  6
CONTINUOUS
 10
56.6410955561
 20
192.7084486666
 11
56.6652026989
 21
192.7084486666
  0
LINE
  5
6C3
100
AcDbEntity
  8
ASSI
100
AcDbLine
 62
253
  6
CONTINUOUS
 10
66.8566343223
 20
192.7721196196
 11
64.7255825995
 21
192.7721196196
  0
LINE
  5
6C4
100
AcDbEntity
  8
ASSI
100
AcDbLine
 62
253
  6
CONTINUOUS
 10
54.3737710756
 20
192.7721196196
 11
56.5048227984
 21
192.7721196196
  0
LWPOLYLINE
  5
6C5
100
AcDbEntity
  8
ASSI
100
AcDbPolyline
 62
7
  6
CONTINUOUS
 90
25
 70
0
 10
64.5652026989
 20
191.0576998181
 10
64.5447170612
 20
191.0577842666
 10
64.5257504674
 20
191.0580391234
 10
64.5083029175
 20
191.0584666186
 10
64.492498612
 20
191.0590702046
 10
64.4782133504
 20
191.0598513757
 10
64.4650745314
 20
191.0608064515
 10
64.4530438906
 20
191.0619322985
 10
64.4421596923
 20
191.0632295858
 10
64.4321641289
 20
191.0646973781
 10
64.4230352918
 20
191.0663305989
 10
64.4147950895
 20
191.0681314101
 10
64.4072514404
 20
191.0701132751
 10
64.4003697294
 20
191.0722788645
 10
64.3941845717
 20
191.0746302836
 10
64.3886077306
 20
191.0771870897
 10
64.3836117221
 20
191.0799640693
 10
64.3792240304
 20
191.082958836
 10
64.3754388717
 20
191.0861668357
 10
64.3722604979
 20
191.0895961748
 10
64.3696846573
 20
191.0932465883
 10
64.3676928109
 20
191.0970952866
 10
64.3662787793
 20
191.1011326854
 10
64.365448742
 20
191.1053666522
 10
64.3652026989
 20
191.1097966099
  0
LWPOLYLINE
  5
6C6
100
AcDbEntity
  8
RACCORDO
100
AcDbPolyline
 62
7
  6
CONTINUOUS
 90
3
 70
0
 10
56.6913813466
 20
192.7079158026
 10
56.6783753251
 20
192.7083116476
 10
56.6652026989
 20
192.7084486666
  0
LWPOLYLINE
  5
6C7
100
AcDbEntity
  8
ASSI
100
AcDbPolyline
 62
7
  6
CONTINUOUS
 90
25
 70
0
 10
56.6038873086
 20
191.2076998181
 10
56.6005923797
 20
191.2078506488
 10
56.5970252981
 20
191.2083045175
 10
56.5931860637
 20
191.2090634053
 10
56.5890784127
 20
191.210128912
 10
56.584698609
 20
191.2115029227
 10
56.5800354445
 20
191.2131882778
 10
56.5750914601
 20
191.215186342
 10
56.569864115
 20
191.2174996452
 10
56.5643345782
 20
191.2201347713
 10
56.5585007722
 20
191.223096521
 10
56.5523647746
 20
191.2263868847
 10
56.5459139875
 20
191.2300098408
 10
56.5391507106
 20
191.2339672903
 10
56.5320726441
 20
191.2382632478
 10
56.5246602904
 20
191.2429059605
 10
56.5169152716
 20
191.2478987097
 10
56.5088359655
 20
191.2532454658
 10
56.5003980083
 20
191.2589576851
 10
56.4916001762
 20
191.2650412575
 10
56.4824436929
 20
191.2714993101
 10
56.4729078653
 20
191.2783409003
 10
56.4629857957
 20
191.2855723475
 10
56.4526843817
 20
191.2931964359
 10
56.4420036235
 20
191.3012172617
  0
LINE
  5
6C8
100
AcDbEntity
  8
RACCORDO
100
AcDbLine
 62
7
  6
CONTINUOUS
 10
66.2152026989
 20
191.1076998181
 11
64.7851360733
 21
191.2076998181
  0
LINE
  5
6C9
100
AcDbEntity
  8
ASSI
100
AcDbLine
 62
253
  6
CONTINUOUS
 10
66.2431393145
 20
191.9076998181
 11
65.6063139864
 21
191.9522309831
  0
LWPOLYLINE
  5
6CA
100
AcDbEntity
  8
ASSI
100
AcDbPolyline
 62
7
  6
CONTINUOUS
 90
12
 70
0
 10
64.7255825995
 20
192.7721196196
 10
64.7363049207
 20
192.7647524828
 10
64.7476270798
 20
192.7567953751
 10
64.7595490769
 20
192.7482375752
 10
64.7720632125
 20
192.7390679063
 10
64.7851771861
 20
192.7292776908
 10
64.7989140956
 20
192.7188613495
 10
64.8132724043
 20
192.7078139469
 10
64.8282536489
 20
192.6961259013
 10
64.8438855377
 20
192.6837855648
 10
64.8601657499
 20
192.67078964
 10
64.8770966062
 20
192.6571302857
  0
LINE
  5
6CB
100
AcDbEntity
  8
ASSI
100
AcDbLine
 62
7
  6
CONTINUOUS
 10
70.8752575466
 20
149.2343039382
 11
71.0152026989
 21
149.2762836045
  0
LINE
  5
6CC
100
AcDbEntity
  8
RACCORDO
100
AcDbLine
 62
7
  6
CONTINUOUS
 10
64.5893098418
 20
193.0888712731
 11
64.5652026989
 21
193.0888712731
  0
LINE
  5
6CD
100
AcDbEntity
  8
RACCORDO
100
AcDbLine
 62
7
  6
CONTINUOUS
 10
56.6410955561
 20
193.0888712731
 11
56.6652026989
 21
193.0888712731
  0
LINE
  5
6CE
100
AcDbEntity
  8
DRAFT
100
AcDbLine
 62
7
  6
CONTINUOUS
 10
52.4581071146
 20
193.4576998181
 11
56.6367205561
 21
193.4576998181
  0
LINE
  5
6CF
100
AcDbEntity
  8
0
100
AcDbLine
 62
7
  6
CONTINUOUS
 10
56.6367205561
 20
193.4576998181
 11
56.6410955561
 21
193.4576998181
  0
LINE
  5
6D0
100
AcDbEntity
  8
DRAFT
100
AcDbLine
 62
7
  6
CONTINUOUS
 10
64.5936848418
 20
193.4576998181
 11
68.7722982833
 21
193.4576998181
  0
LINE
  5
6D1
100
AcDbEntity
  8
0
100
AcDbLine
 62
7
  6
CONTINUOUS
 10
64.5893098418
 20
193.4576998181
 11
64.5936848418
 21
193.4576998181
  0
LINE
  5
6D2
100
AcDbEntity
  8
RACCORDO
100
AcDbLine
 62
7
  6
CONTINUOUS
 10
64.9152026989
 20
194.116109278
 11
62.0152026989
 21
194.116109278
  0
LINE
  5
6D3
100
AcDbEntity
  8
RACCORDO
100
AcDbLine
 62
7
  6
CONTINUOUS
 10
59.2152026989
 20
194.116109278
 11
56.3152026989
 21
194.116109278
  0
LINE
  5
6D4
100
AcDbEntity
  8
RACCORDO
100
AcDbLine
 62
7
  6
CONTINUOUS
 10
48.465240781
 20
194.2076998181
 11
49.9651646169
 21
194.2076998181
  0
LINE
  5
6D5
100
AcDbEntity
  8
RACCORDO
100
AcDbLine
 62
7
  6
CONTINUOUS
 10
71.265240781
 20
194.2076998181
 11
72.7651646169
 21
194.2076998181
  0
LINE
  5
6D6
100
AcDbEntity
  8
RACCORDO
100
AcDbLine
 62
7
  6
CONTINUOUS
 10
56.1152026989
 20
194.2576998181
 11
56.6819364641
 21
194.2576998181
  0
LINE
  5
6D7
100
AcDbEntity
  8
RACCORDO
100
AcDbLine
 62
7
  6
CONTINUOUS
 10
64.5484689338
 20
194.2576998181
 11
65.1152026989
 21
194.2576998181
  0
LINE
  5
6D8
100
AcDbEntity
  8
0
100
AcDbLine
 62
253
  6
CONTINUOUS
 10
56.1152026989
 20
194.5576998181
 11
59.4152026989
 21
194.5576998181
  0
LINE
  5
6D9
100
AcDbEntity
  8
0
100
AcDbLine
 62
253
  6
CONTINUOUS
 10
61.8152026989
 20
194.5576998181
 11
65.1152026989
 21
194.5576998181
  0
LWPOLYLINE
  5
6DA
100
AcDbEntity
  8
RACCORDO
100
AcDbPolyline
 62
7
  6
CONTINUOUS
 90
25
 70
0
 10
56.6652026989
 20
193.0888712731
 10
56.6783753251
 20
193.0887342541
 10
56.6913813466
 20
193.0883384091
 10
56.7042207634
 20
193.0876837382
 10
56.7169469761
 20
193.0867652355
 10
56.7295065842
 20
193.0855879069
 10
56.7417393854
 20
193.0841667695
 10
56.7536411934
 20
193.0824987003
 10
56.7652161945
 20
193.0805868224
 10
56.7763167456
 20
193.0784555224
 10
56.7869367689
 20
193.0761019896
 10
56.7970823422
 20
193.0735290347
 10
56.8066240552
 20
193.0707694767
 10
56.8155541724
 20
193.0678209253
 10
56.8238804293
 20
193.0646857707
 10
56.8314966214
 20
193.061404003
 10
56.8383936531
 20
193.0579737441
 10
56.8445806201
 20
193.054396872
 10
56.8499786054
 20
193.0507190111
 10
56.8545775025
 20
193.0469388676
 10
56.858387418
 20
193.0430577353
 10
56.861359755
 20
193.0391251193
 10
56.8634783147
 20
193.0351575213
 10
56.864759296
 20
193.0311384396
 10
56.8652026989
 20
193.0270678743
  0
LWPOLYLINE
  5
6DB
100
AcDbEntity
  8
RACCORDO
100
AcDbPolyline
 62
7
  6
CONTINUOUS
 90
25
 70
0
 10
56.3152026989
 20
194.116109278
 10
56.3020300728
 20
194.116246297
 10
56.2890240513
 20
194.116642142
 10
56.2761846345
 20
194.1172968129
 10
56.2634584218
 20
194.1182153156
 10
56.2508988137
 20
194.1193926442
 10
56.2386660125
 20
194.1208137816
 10
56.2267642045
 20
194.1224818508
 10
56.2151892034
 20
194.1243937287
 10
56.2040886523
 20
194.1265250287
 10
56.193468629
 20
194.1288785616
 10
56.1833230556
 20
194.1314515164
 10
56.1737813427
 20
194.1342110744
 10
56.1648512255
 20
194.1371596259
 10
56.1565249686
 20
194.1402947804
 10
56.1489087765
 20
194.1435765481
 10
56.1420117448
 20
194.147006807
 10
56.1358247778
 20
194.1505836791
 10
56.1304267924
 20
194.15426154
 10
56.1258278954
 20
194.1580416835
 10
56.1220179799
 20
194.1619228158
 10
56.1190456429
 20
194.1658554319
 10
56.1169270832
 20
194.1698230298
 10
56.1156461018
 20
194.1738421115
 10
56.1152026989
 20
194.1779126768
  0
LWPOLYLINE
  5
6DC
100
AcDbEntity
  8
RACCORDO
100
AcDbPolyline
 62
7
  6
CONTINUOUS
 90
25
 70
0
 10
62.0152026989
 20
194.116109278
 10
62.0020300728
 20
194.116246297
 10
61.9890240513
 20
194.116642142
 10
61.9761846345
 20
194.1172968129
 10
61.9634584218
 20
194.1182153156
 10
61.9508988137
 20
194.1193926442
 10
61.9386660125
 20
194.1208137816
 10
61.9267642045
 20
194.1224818508
 10
61.9151892034
 20
194.1243937287
 10
61.9040886523
 20
194.1265250287
 10
61.893468629
 20
194.1288785616
 10
61.8833230556
 20
194.1314515164
 10
61.8737813427
 20
194.1342110744
 10
61.8648512255
 20
194.1371596259
 10
61.8565249686
 20
194.1402947804
 10
61.8489087765
 20
194.1435765481
 10
61.8420117448
 20
194.147006807
 10
61.8358247778
 20
194.1505836791
 10
61.8304267924
 20
194.15426154
 10
61.8258278954
 20
194.1580416835
 10
61.8220179799
 20
194.1619228158
 10
61.8190456429
 20
194.1658554319
 10
61.8169270832
 20
194.1698230298
 10
61.8156461018
 20
194.1738421115
 10
61.8152026989
 20
194.1779126768
  0
LINE
  5
6DD
100
AcDbEntity
  8
ASSI
100
AcDbLine
 62
7
  6
CONTINUOUS
 10
70.8752575466
 20
191.181095698
 11
71.0152026989
 21
191.1391160317
  0
LWPOLYLINE
  5
6DE
100
AcDbEntity
  8
RACCORDO
100
AcDbPolyline
 62
7
  6
CONTINUOUS
 90
25
 70
0
 10
62.0152026989
 20
194.7554427529
 10
62.0020300728
 20
194.7553057339
 10
61.9890240513
 20
194.7549098889
 10
61.9761846345
 20
194.7542552179
 10
61.9634584218
 20
194.7533367152
 10
61.9508988137
 20
194.7521593866
 10
61.9386660125
 20
194.7507382493
 10
61.9267642045
 20
194.7490701801
 10
61.9151892034
 20
194.7471583021
 10
61.9040886523
 20
194.7450270021
 10
61.893468629
 20
194.7426734693
 10
61.8833230556
 20
194.7401005144
 10
61.8737813427
 20
194.7373409565
 10
61.8648512255
 20
194.734392405
 10
61.8565249686
 20
194.7312572504
 10
61.8489087765
 20
194.7279754827
 10
61.8420117448
 20
194.7245452238
 10
61.8358247778
 20
194.7209683518
 10
61.8304267924
 20
194.7172904908
 10
61.8258278954
 20
194.7135103474
 10
61.8220179799
 20
194.709629215
 10
61.8190456429
 20
194.705696599
 10
61.8169270832
 20
194.701729001
 10
61.8156461018
 20
194.6977099194
 10
61.8152026989
 20
194.693639354
  0
LWPOLYLINE
  5
6DF
100
AcDbEntity
  8
RACCORDO
100
AcDbPolyline
 62
7
  6
CONTINUOUS
 90
25
 70
0
 10
56.3152026989
 20
194.7554427529
 10
56.3020300728
 20
194.7553057339
 10
56.2890240513
 20
194.7549098889
 10
56.2761846345
 20
194.7542552179
 10
56.2634584218
 20
194.7533367152
 10
56.2508988137
 20
194.7521593866
 10
56.2386660125
 20
194.7507382493
 10
56.2267642045
 20
194.7490701801
 10
56.2151892034
 20
194.7471583021
 10
56.2040886523
 20
194.7450270021
 10
56.193468629
 20
194.7426734693
 10
56.1833230556
 20
194.7401005144
 10
56.1737813427
 20
194.7373409565
 10
56.1648512255
 20
194.734392405
 10
56.1565249686
 20
194.7312572504
 10
56.1489087765
 20
194.7279754827
 10
56.1420117448
 20
194.7245452238
 10
56.1358247778
 20
194.7209683518
 10
56.1304267924
 20
194.7172904908
 10
56.1258278954
 20
194.7135103474
 10
56.1220179799
 20
194.709629215
 10
56.1190456429
 20
194.705696599
 10
56.1169270832
 20
194.701729001
 10
56.1156461018
 20
194.6977099194
 10
56.1152026989
 20
194.693639354
  0
LINE
  5
6E0
100
AcDbEntity
  8
RACCORDO
100
AcDbLine
 62
7
  6
CONTINUOUS
 10
56.3152026989
 20
194.7554427529
 11
59.2152026989
 21
194.7554427529
  0
LINE
  5
6E1
100
AcDbEntity
  8
RACCORDO
100
AcDbLine
 62
7
  6
CONTINUOUS
 10
62.0152026989
 20
194.7554427529
 11
64.9152026989
 21
194.7554427529
  0
LINE
  5
6E2
100
AcDbEntity
  8
RACCORDO
100
AcDbLine
 62
7
  6
CONTINUOUS
 10
56.3152026989
 20
195.1358653594
 11
59.2152026989
 21
195.1358653594
  0
LINE
  5
6E3
100
AcDbEntity
  8
RACCORDO
100
AcDbLine
 62
7
  6
CONTINUOUS
 10
62.0152026989
 20
195.1358653594
 11
64.9152026989
 21
195.1358653594
  0
LINE
  5
6E4
100
AcDbEntity
  8
0
100
AcDbLine
 62
253
  6
CONTINUOUS
 10
54.6152026989
 20
195.2234393795
 11
66.6152026989
 21
195.2234393795
  0
LINE
  5
6E5
100
AcDbEntity
  8
0
100
AcDbLine
 62
7
  6
CONTINUOUS
 10
54.6152026989
 20
195.2576998181
 11
66.6152026989
 21
195.2576998181
  0
LWPOLYLINE
  5
6E6
100
AcDbEntity
  8
RACCORDO
100
AcDbPolyline
 62
7
  6
CONTINUOUS
 90
25
 70
0
 10
59.2152026989
 20
195.1358653594
 10
59.2283753251
 20
195.1357283404
 10
59.2413813466
 20
195.1353324954
 10
59.2542207634
 20
195.1346778244
 10
59.2669469761
 20
195.1337593218
 10
59.2795065842
 20
195.1325819931
 10
59.2917393854
 20
195.1311608558
 10
59.3036411934
 20
195.1294927866
 10
59.3152161945
 20
195.1275809086
 10
59.3263167456
 20
195.1254496086
 10
59.3369367689
 20
195.1230960758
 10
59.3470823422
 20
195.120523121
 10
59.3566240552
 20
195.117763563
 10
59.3655541724
 20
195.1148150115
 10
59.3738804293
 20
195.1116798569
 10
59.3814966214
 20
195.1083980892
 10
59.3883936531
 20
195.1049678303
 10
59.3945806201
 20
195.1013909583
 10
59.3999786054
 20
195.0977130973
 10
59.4045775025
 20
195.0939329539
 10
59.408387418
 20
195.0900518215
 10
59.411359755
 20
195.0861192055
 10
59.4134783147
 20
195.0821516075
 10
59.414759296
 20
195.0781325259
 10
59.4152026989
 20
195.0740619605
  0
LWPOLYLINE
  5
6E7
100
AcDbEntity
  8
RACCORDO
100
AcDbPolyline
 62
7
  6
CONTINUOUS
 90
25
 70
0
 10
64.9152026989
 20
195.1358653594
 10
64.9283753251
 20
195.1357283404
 10
64.9413813466
 20
195.1353324954
 10
64.9542207634
 20
195.1346778244
 10
64.9669469761
 20
195.1337593218
 10
64.9795065842
 20
195.1325819931
 10
64.9917393854
 20
195.1311608558
 10
65.0036411934
 20
195.1294927866
 10
65.0152161945
 20
195.1275809086
 10
65.0263167456
 20
195.1254496086
 10
65.0369367689
 20
195.1230960758
 10
65.0470823422
 20
195.120523121
 10
65.0566240552
 20
195.117763563
 10
65.0655541724
 20
195.1148150115
 10
65.0738804293
 20
195.1116798569
 10
65.0814966214
 20
195.1083980892
 10
65.0883936531
 20
195.1049678303
 10
65.0945806201
 20
195.1013909583
 10
65.0999786054
 20
195.0977130973
 10
65.1045775025
 20
195.0939329539
 10
65.108387418
 20
195.0900518215
 10
65.111359755
 20
195.0861192055
 10
65.1134783147
 20
195.0821516075
 10
65.114759296
 20
195.0781325259
 10
65.1152026989
 20
195.0740619605
  0
ARC
  5
6E8
100
AcDbEntity
  8
0
100
AcDbCircle
 62
7
  6
CONTINUOUS
 10
60.6152026989
 20
170.2076998181
 40
4.65
100
AcDbArc
 50
156.1979505538
 51
156.1154273186
  0
ARC
  5
6E9
100
AcDbEntity
  8
ASSI
100
AcDbCircle
 62
7
  6
CONTINUOUS
 10
63.6155406989
 20
182.5959108181
 40
2.4996629358
100
AcDbArc
 50
177.7525302316
 51
2.2474696737
  0
ARC
  5
6EA
100
AcDbEntity
  8
ASSI
100
AcDbCircle
 62
7
  6
CONTINUOUS
 10
63.6155406989
 20
178.2973618181
 40
2.4996628181
100
AcDbArc
 50
177.7525302182
 51
2.2474697793
  0
ARC
  5
6EB
100
AcDbEntity
  8
ASSI
100
AcDbCircle
 62
7
  6
CONTINUOUS
 10
63.6155406989
 20
182.5959108181
 40
1.7644690471
100
AcDbArc
 50
176.8152633552
 51
257.9752913592
  0
ARC
  5
6EC
100
AcDbEntity
  8
ASSI
100
AcDbCircle
 62
7
  6
CONTINUOUS
 10
63.6155406989
 20
178.2973618181
 40
1.7644690471
100
AcDbArc
 50
176.8152633552
 51
3.1847366411
  0
ARC
  5
6ED
100
AcDbEntity
  8
ASSI
100
AcDbCircle
 62
7
  6
CONTINUOUS
 10
63.6155406989
 20
182.5959108181
 40
1.7644651216
100
AcDbArc
 50
282.0247024894
 51
3.1847439241
  0
ARC
  5
6EE
100
AcDbEntity
  8
ASSI
100
AcDbCircle
 62
7
  6
CONTINUOUS
 10
51.7551326989
 20
165.7523038181
 40
0.6900438394
100
AcDbArc
 50
22.8428485337
 51
179.9986102267
  0
ARC
  5
6EF
100
AcDbEntity
  8
ASSI
100
AcDbCircle
 62
7
  6
CONTINUOUS
 10
52.1671236989
 20
182.3852608181
 40
0.3750670534
100
AcDbArc
 50
94.8339102726
 51
159.4782275302
  0
ARC
  5
6F0
100
AcDbEntity
  8
ASSI
100
AcDbCircle
 62
7
  6
CONTINUOUS
 10
53.2791676989
 20
179.7213748181
 40
0.3521416911
100
AcDbArc
 50
276.0890350925
 51
342.6039104804
  0
ARC
  5
6F1
100
AcDbEntity
  8
ASSI
100
AcDbCircle
 62
7
  6
CONTINUOUS
 10
52.1591976989
 20
181.6858038181
 40
0.343624
100
AcDbArc
 50
180.0
 51
255.4447261536
  0
ARC
  5
6F2
100
AcDbEntity
  8
ASSI
100
AcDbCircle
 62
7
  6
CONTINUOUS
 10
53.2912126989
 20
180.4211808181
 40
0.336094032
100
AcDbArc
 50
15.4235496836
 51
71.0056821787
  0
ARC
  5
6F3
100
AcDbEntity
  8
ASSI
100
AcDbCircle
 62
7
  6
CONTINUOUS
 10
53.2937216989
 20
178.0241298181
 40
0.3300054433
100
AcDbArc
 50
261.4769866375
 51
346.94877075
  0
ARC
  5
6F4
100
AcDbEntity
  8
ASSI
100
AcDbCircle
 62
7
  6
CONTINUOUS
 10
52.1304456989
 20
180.7437528181
 40
0.314586278
100
AcDbArc
 50
75.1449351016
 51
180.0022969182
  0
ARC
  5
6F5
100
AcDbEntity
  8
ASSI
100
AcDbCircle
 62
7
  6
CONTINUOUS
 10
53.3272416989
 20
181.3254468181
 40
0.2879610271
100
AcDbArc
 50
255.4446439346
 51
359.9999115008
  0
ARC
  5
6F6
100
AcDbEntity
  8
ASSI
100
AcDbCircle
 62
7
  6
CONTINUOUS
 10
51.7551326989
 20
165.6898418181
 40
0.273775
100
AcDbArc
 50
0.00691969
 51
180.0034598071
  0
ARC
  5
6F7
100
AcDbEntity
  8
ASSI
100
AcDbCircle
 62
7
  6
CONTINUOUS
 10
52.2591316989
 20
178.7607898181
 40
0.2722291835
100
AcDbArc
 50
159.244004071
 51
232.7058196969
  0
ARC
  5
6F8
100
AcDbEntity
  8
ASSI
100
AcDbCircle
 62
7
  6
CONTINUOUS
 10
52.2647256989
 20
180.4585278181
 40
0.2656780723
100
AcDbArc
 50
163.6975261887
 51
239.6960685129
  0
ARC
  5
6F9
100
AcDbEntity
  8
ASSI
100
AcDbCircle
 62
7
  6
CONTINUOUS
 10
53.2011336989
 20
181.8720918181
 40
0.2449069934
100
AcDbArc
 50
266.7578405532
 51
349.7449413551
  0
ARC
  5
6FA
100
AcDbEntity
  8
ASSI
100
AcDbCircle
 62
7
  6
CONTINUOUS
 10
53.2073126989
 20
178.4674778181
 40
0.2190678224
100
AcDbArc
 50
275.7436963765
 51
5.4688285995
  0
ARC
  5
6FB
100
AcDbEntity
  8
RACCORDO
100
AcDbCircle
 62
7
  6
CONTINUOUS
 10
64.5484689338
 20
146.3576998181
 40
0.2
100
AcDbArc
 50
196.985427259
 51
270.0
  0
ARC
  5
6FC
100
AcDbEntity
  8
RACCORDO
100
AcDbCircle
 62
7
  6
CONTINUOUS
 10
56.6819364641
 20
146.3576998181
 40
0.2
100
AcDbArc
 50
270.0
 51
343.014572741
  0
ARC
  5
6FD
100
AcDbEntity
  8
RACCORDO
100
AcDbCircle
 62
7
  6
CONTINUOUS
 10
56.6819364641
 20
194.0576998181
 40
0.2
100
AcDbArc
 50
16.985427259
 51
90.0
  0
ARC
  5
6FE
100
AcDbEntity
  8
RACCORDO
100
AcDbCircle
 62
7
  6
CONTINUOUS
 10
64.5484689338
 20
194.0576998181
 40
0.2
100
AcDbArc
 50
90.0
 51
163.014572741
  0
ELLIPSE
  5
6FF
100
AcDbEntity
  8
RACCORDO
100
AcDbEllipse
 62
7
  6
CONTINUOUS
 10
52.4711984133
 20
147.7076998181
 30
0.0
 11
0.0
 21
0.75
 31
0.0
 40
0.0174550649
 41
-4.7123889804
 42
-3.1415926536
  0
ELLIPSE
  5
700
100
AcDbEntity
  8
RACCORDO
100
AcDbEllipse
 62
7
  6
CONTINUOUS
 10
71.265240781
 20
193.9576998181
 30
0.0
 11
-0.250038082
 21
-0.0
 31
0.0
 40
0.9998476952
 41
-1.5707963268
 42
0.0
  0
ELLIPSE
  5
701
100
AcDbEntity
  8
RACCORDO
100
AcDbEllipse
 62
7
  6
CONTINUOUS
 10
48.465240781
 20
193.9576998181
 30
0.0
 11
-0.250038082
 21
-0.0
 31
0.0
 40
0.9998476952
 41
-1.5707963268
 42
-0.0
  0
ELLIPSE
  5
702
100
AcDbEntity
  8
RACCORDO
100
AcDbEllipse
 62
7
  6
CONTINUOUS
 10
48.465240781
 20
146.4576998181
 30
0.0
 11
-0.250038082
 21
-0.0
 31
0.0
 40
0.9998476952
 41
-0.0
 42
1.5707963268
  0
ELLIPSE
  5
703
100
AcDbEntity
  8
RACCORDO
100
AcDbEllipse
 62
7
  6
CONTINUOUS
 10
49.9651646169
 20
146.4576998181
 30
0.0
 11
-0.250038082
 21
-0.0
 31
0.0
 40
0.9998476952
 41
1.5707963268
 42
3.1415926536
  0
ELLIPSE
  5
704
100
AcDbEntity
  8
RACCORDO
100
AcDbEllipse
 62
7
  6
CONTINUOUS
 10
49.9651646169
 20
193.9576998181
 30
0.0
 11
-0.250038082
 21
-0.0
 31
0.0
 40
0.9998476952
 41
-3.1415926536
 42
-1.5707963268
  0
ELLIPSE
  5
705
100
AcDbEntity
  8
RACCORDO
100
AcDbEllipse
 62
7
  6
CONTINUOUS
 10
72.7651646169
 20
146.4576998181
 30
0.0
 11
0.250038082
 21
0.0
 31
0.0
 40
0.9998476952
 41
-1.5707963268
 42
0.0
  0
ELLIPSE
  5
706
100
AcDbEntity
  8
RACCORDO
100
AcDbEllipse
 62
7
  6
CONTINUOUS
 10
71.265240781
 20
146.4576998181
 30
0.0
 11
0.250038082
 21
0.0
 31
0.0
 40
0.9998476952
 41
-3.1415926536
 42
-1.5707963268
  0
ELLIPSE
  5
707
100
AcDbEntity
  8
RACCORDO
100
AcDbEllipse
 62
7
  6
CONTINUOUS
 10
72.7651646169
 20
193.9576998181
 30
0.0
 11
-0.250038082
 21
-0.0
 31
0.0
 40
0.9998476952
 41
3.1415926536
 42
4.7123889804
  0
ELLIPSE
  5
708
100
AcDbEntity
  8
RACCORDO
100
AcDbEllipse
 62
7
  6
CONTINUOUS
 10
68.7592069846
 20
147.7076998181
 30
0.0
 11
0.0
 21
0.75
 31
0.0
 40
0.0174550649
 41
-3.1415926536
 42
-1.5707963268
  0
ELLIPSE
  5
709
100
AcDbEntity
  8
ASSI
100
AcDbEllipse
 62
7
  6
CONTINUOUS
 10
69.8754098515
 20
191.1810043166
 30
0.0
 11
1.0
 21
0.0
 31
0.0
 40
0.0052360356
 41
0.0174532925
 42
1.5707963268
  0
ELLIPSE
  5
70A
100
AcDbEntity
  8
ASSI
100
AcDbEllipse
 62
7
  6
CONTINUOUS
 10
69.8754098515
 20
149.2343953196
 30
0.0
 11
1.0
 21
-0.0
 31
0.0
 40
0.0052360356
 41
-1.5707963268
 42
-0.0174532925
  0
ELLIPSE
  5
70B
100
AcDbEntity
  8
ASSI
100
AcDbEllipse
 62
7
  6
CONTINUOUS
 10
51.3549955464
 20
149.2343953196
 30
0.0
 11
1.0
 21
0.0
 31
0.0
 40
0.0052360356
 41
-3.1241393611
 42
-1.5707963268
  0
ELLIPSE
  5
70C
100
AcDbEntity
  8
RACCORDO
100
AcDbEllipse
 62
7
  6
CONTINUOUS
 10
64.4714526989
 20
188.7946951036
 30
0.0
 11
0.0
 21
1.5
 31
0.0
 40
0.0089285714
 41
-0.9572466344
 42
-0.8232119771
  0
ELLIPSE
  5
70D
100
AcDbEntity
  8
RACCORDO
100
AcDbEllipse
 62
7
  6
CONTINUOUS
 10
64.4714526989
 20
151.6207045326
 30
0.0
 11
0.0
 21
1.5
 31
0.0
 40
0.0089285714
 41
-2.3183806765
 42
-2.1843460192
  0
ELLIPSE
  5
70E
100
AcDbEntity
  8
RACCORDO
100
AcDbEllipse
 62
7
  6
CONTINUOUS
 10
56.7589526989
 20
188.7946951036
 30
0.0
 11
-0.0
 21
1.5
 31
0.0
 40
0.0089285714
 41
0.8232119771
 42
0.9572466344
  0
ELLIPSE
  5
70F
100
AcDbEntity
  8
RACCORDO
100
AcDbEllipse
 62
7
  6
CONTINUOUS
 10
56.7589526989
 20
151.6207045326
 30
0.0
 11
-0.0
 21
1.5
 31
0.0
 40
0.0089285714
 41
-4.098839288
 42
-3.9648046307
  0
ELLIPSE
  5
710
100
AcDbEntity
  8
RACCORDO
100
AcDbEllipse
 62
7
  6
CONTINUOUS
 10
66.8527310885
 20
147.7076998181
 30
0.0
 11
0.0
 21
0.75
 31
0.0
 40
0.0174550649
 41
-3.1415926536
 42
-1.5707963268
  0
ELLIPSE
  5
711
100
AcDbEntity
  8
ASSI
100
AcDbEllipse
 62
7
  6
CONTINUOUS
 10
55.6240914115
 20
147.4708978484
 30
0.0
 11
1.0
 21
-0.0
 31
0.0
 40
0.3639702343
 41
0.0089283342
 42
0.4933920756
  0
ELLIPSE
  5
712
100
AcDbEntity
  8
ASSI
100
AcDbEllipse
 62
7
  6
CONTINUOUS
 10
65.6063139864
 20
147.4708978484
 30
0.0
 11
1.0
 21
0.0
 31
0.0
 40
0.3639702343
 41
2.648200578
 42
3.1326643194
  0
ELLIPSE
  5
713
100
AcDbEntity
  8
ASSI
100
AcDbEllipse
 62
7
  6
CONTINUOUS
 10
55.6240914115
 20
192.9445017878
 30
0.0
 11
1.0
 21
-0.0
 31
0.0
 40
0.3639702343
 41
-0.4933920756
 42
-0.0089283342
  0
ELLIPSE
  5
714
100
AcDbEntity
  8
ASSI
100
AcDbEllipse
 62
7
  6
CONTINUOUS
 10
65.6063139864
 20
192.9445017878
 30
0.0
 11
1.0
 21
-0.0
 31
0.0
 40
0.3639702343
 41
-3.1326643194
 42
-2.648200578
  0
ELLIPSE
  5
715
100
AcDbEntity
  8
DRAFT
100
AcDbEllipse
 62
7
  6
CONTINUOUS
 10
60.2303872022
 20
188.7946951036
 30
0.0
 11
-0.0
 21
1.5
 31
0.0
 40
0.0052360356
 41
-2.9670597284
 42
-0.8232119771
  0
ELLIPSE
  5
716
100
AcDbEntity
  8
DRAFT
100
AcDbEllipse
 62
7
  6
CONTINUOUS
 10
67.1303872022
 20
188.7946951036
 30
0.0
 11
-0.0
 21
1.5
 31
0.0
 40
0.0052360356
 41
-2.9670597284
 42
-1.1120125601
  0
ELLIPSE
  5
717
100
AcDbEntity
  8
DRAFT
100
AcDbEllipse
 62
7
  6
CONTINUOUS
 10
61.0000181957
 20
188.7946951036
 30
0.0
 11
0.0
 21
1.5
 31
0.0
 40
0.0052360356
 41
0.8232119771
 42
2.9670597284
  0
ELLIPSE
  5
718
100
AcDbEntity
  8
DRAFT
100
AcDbEllipse
 62
7
  6
CONTINUOUS
 10
61.0000181957
 20
151.6207045326
 30
0.0
 11
0.0
 21
1.5
 31
0.0
 40
0.0052360356
 41
0.1745329252
 42
2.3183806765
  0
ELLIPSE
  5
719
100
AcDbEntity
  8
DRAFT
100
AcDbEllipse
 62
7
  6
CONTINUOUS
 10
60.2303872022
 20
151.6207045326
 30
0.0
 11
-0.0
 21
1.5
 31
0.0
 40
0.0052360356
 41
-2.3183806765
 42
-0.174532786
  0
ELLIPSE
  5
71A
100
AcDbEntity
  8
RACCORDO
100
AcDbEllipse
 62
7
  6
CONTINUOUS
 10
54.3776743094
 20
147.7076998181
 30
0.0
 11
0.0
 21
0.75
 31
0.0
 40
0.0174550649
 41
-4.7123889804
 42
-3.1415926536
  0
ELLIPSE
  5
71B
100
AcDbEntity
  8
RACCORDO
100
AcDbEllipse
 62
7
  6
CONTINUOUS
 10
68.11389369
 20
186.5504320339
 30
0.0
 11
0.0
 21
0.25
 31
0.0
 40
0.0052360356
 41
-1.5707963268
 42
-0.1745329252
  0
ELLIPSE
  5
71C
100
AcDbEntity
  8
DRAFT
100
AcDbEllipse
 62
7
  6
CONTINUOUS
 10
68.1000181957
 20
188.7946951036
 30
0.0
 11
0.0
 21
1.5
 31
0.0
 40
0.0052360356
 41
0.8232119771
 42
2.9670597284
  0
ELLIPSE
  5
71D
100
AcDbEntity
  8
RACCORDO
100
AcDbEllipse
 62
7
  6
CONTINUOUS
 10
68.11389369
 20
153.8649676023
 30
0.0
 11
0.0
 21
0.25
 31
0.0
 40
0.0052360356
 41
-2.9670597284
 42
-1.5707963268
  0
ELLIPSE
  5
71E
100
AcDbEntity
  8
DRAFT
100
AcDbEllipse
 62
7
  6
CONTINUOUS
 10
68.1000181957
 20
151.6207045326
 30
0.0
 11
0.0
 21
1.5
 31
0.0
 40
0.0052360356
 41
0.1745329252
 42
2.3183806765
  0
ELLIPSE
  5
71F
100
AcDbEntity
  8
RACCORDO
100
AcDbEllipse
 62
7
  6
CONTINUOUS
 10
53.1165117078
 20
186.5504320339
 30
0.0
 11
-0.0
 21
0.25
 31
0.0
 40
0.0052360356
 41
0.1745329252
 42
1.5707963268
  0
ELLIPSE
  5
720
100
AcDbEntity
  8
RACCORDO
100
AcDbEllipse
 62
7
  6
CONTINUOUS
 10
54.3785470626
 20
148.3950341133
 30
0.0
 11
0.0
 21
0.8
 31
0.0
 40
0.0174550649
 41
-4.7123889804
 42
-3.490658504
  0
ELLIPSE
  5
721
100
AcDbEntity
  8
RACCORDO
100
AcDbEllipse
 62
7
  6
CONTINUOUS
 10
66.8518583353
 20
148.3950341133
 30
0.0
 11
0.0
 21
0.8
 31
0.0
 40
0.0174550649
 41
-2.7925268032
 42
-1.5707963268
  0
ELLIPSE
  5
722
100
AcDbEntity
  8
RACCORDO
100
AcDbEllipse
 62
7
  6
CONTINUOUS
 10
66.8518583353
 20
192.020365523
 30
0.0
 11
0.0
 21
0.8
 31
0.0
 40
0.0174550649
 41
-1.5707963268
 42
-0.3490658504
  0
ELLIPSE
  5
723
100
AcDbEntity
  8
RACCORDO
100
AcDbEllipse
 62
7
  6
CONTINUOUS
 10
54.3785470626
 20
192.020365523
 30
0.0
 11
0.0
 21
0.8
 31
0.0
 40
0.0174550649
 41
0.3490658504
 42
1.5707963268
  0
ELLIPSE
  5
724
100
AcDbEntity
  8
DRAFT
100
AcDbEllipse
 62
7
  6
CONTINUOUS
 10
53.1303872022
 20
188.7946951036
 30
0.0
 11
-0.0
 21
1.5
 31
0.0
 40
0.0052360356
 41
-2.9670597284
 42
-0.8232119771
  0
ELLIPSE
  5
725
100
AcDbEntity
  8
RACCORDO
100
AcDbEllipse
 62
7
  6
CONTINUOUS
 10
53.1165117078
 20
153.8649676023
 30
0.0
 11
-0.0
 21
0.25
 31
0.0
 40
0.0052360356
 41
-4.7123889804
 42
-3.3161255788
  0
ELLIPSE
  5
726
100
AcDbEntity
  8
DRAFT
100
AcDbEllipse
 62
7
  6
CONTINUOUS
 10
53.1303872022
 20
151.6207045326
 30
0.0
 11
0.0
 21
1.5
 31
0.0
 40
0.0052360356
 41
-2.3183806765
 42
-0.174532786
  0
ELLIPSE
  5
727
100
AcDbEntity
  8
RACCORDO
100
AcDbEllipse
 62
7
  6
CONTINUOUS
 10
61.01389369
 20
153.8649676023
 30
0.0
 11
-0.0
 21
0.25
 31
0.0
 40
0.0052360356
 41
-2.9670597284
 42
-1.5707963268
  0
ELLIPSE
  5
728
100
AcDbEntity
  8
RACCORDO
100
AcDbEllipse
 62
7
  6
CONTINUOUS
 10
60.2165117078
 20
153.8649676023
 30
0.0
 11
-0.0
 21
0.25
 31
0.0
 40
0.0052360356
 41
-4.7123889804
 42
-3.3161255788
  0
ELLIPSE
  5
729
100
AcDbEntity
  8
RACCORDO
100
AcDbEllipse
 62
7
  6
CONTINUOUS
 10
60.2165117078
 20
186.5504320339
 30
0.0
 11
-0.0
 21
0.25
 31
0.0
 40
0.0052360356
 41
0.1745329252
 42
1.5707963268
  0
ELLIPSE
  5
72A
100
AcDbEntity
  8
DRAFT
100
AcDbEllipse
 62
7
  6
CONTINUOUS
 10
71.591271738
 20
188.7946951036
 30
0.0
 11
-0.0
 21
1.5
 31
0.0
 40
0.0174550649
 41
-2.9670597284
 42
-0.8232119771
  0
ELLIPSE
  5
72B
100
AcDbEntity
  8
RACCORDO
100
AcDbEllipse
 62
7
  6
CONTINUOUS
 10
53.7172847207
 20
189.5346695415
 30
0.0
 11
0.3
 21
0.0
 31
0.0
 40
0.0052360356
 41
0.0052359878
 42
0.3435417298
  0
ELLIPSE
  5
72C
100
AcDbEntity
  8
RACCORDO
100
AcDbEllipse
 62
7
  6
CONTINUOUS
 10
53.8151985866
 20
183.927248016
 30
0.0
 11
-0.0060680656
 21
0.3105275435
 31
0.0
 40
0.9659134726
 41
-3.1604654735
 42
-1.5910243143
  0
ELLIPSE
  5
72D
100
AcDbEntity
  8
RACCORDO
100
AcDbEllipse
 62
7
  6
CONTINUOUS
 10
53.4152068113
 20
183.927248016
 30
0.0
 11
0.0060680656
 21
0.3105275435
 31
0.0
 40
0.9659134726
 41
-4.6921609929
 42
-3.1227198337
  0
ELLIPSE
  5
72E
100
AcDbEntity
  8
RACCORDO
100
AcDbEllipse
 62
7
  6
CONTINUOUS
 10
53.5131206772
 20
191.1846695415
 30
0.0
 11
0.3
 21
0.0
 31
0.0
 40
0.0052360356
 41
1.5707963268
 42
3.1363566658
  0
ELLIPSE
  5
72F
100
AcDbEntity
  8
RACCORDO
100
AcDbEllipse
 62
7
  6
CONTINUOUS
 10
67.7172847207
 20
191.1846695415
 30
0.0
 11
0.3
 21
-0.0
 31
0.0
 40
0.0052360356
 41
0.0052359878
 42
1.5707963268
  0
ELLIPSE
  5
730
100
AcDbEntity
  8
RACCORDO
100
AcDbEllipse
 62
7
  6
CONTINUOUS
 10
67.8151985866
 20
183.927248016
 30
0.0
 11
-0.0060680656
 21
0.3105275435
 31
0.0
 40
0.9659134726
 41
-3.1604654735
 42
-1.5910243143
  0
ELLIPSE
  5
731
100
AcDbEntity
  8
RACCORDO
100
AcDbEllipse
 62
7
  6
CONTINUOUS
 10
67.4152068113
 20
183.927248016
 30
0.0
 11
0.0060680656
 21
0.3105275435
 31
0.0
 40
0.9659134726
 41
-4.6921609929
 42
-3.1227198337
  0
ELLIPSE
  5
732
100
AcDbEntity
  8
RACCORDO
100
AcDbEllipse
 62
7
  6
CONTINUOUS
 10
67.5131206772
 20
189.5346695415
 30
0.0
 11
0.3
 21
-0.0
 31
0.0
 40
0.0052360356
 41
2.7980509237
 42
3.1363566658
  0
ELLIPSE
  5
733
100
AcDbEntity
  8
RACCORDO
100
AcDbEllipse
 62
7
  6
CONTINUOUS
 10
67.8151985866
 20
156.4881516202
 30
0.0
 11
0.0060680656
 21
0.3105275435
 31
0.0
 40
0.9659134726
 41
-1.5505683393
 42
0.0188728199
  0
ELLIPSE
  5
734
100
AcDbEntity
  8
RACCORDO
100
AcDbEllipse
 62
7
  6
CONTINUOUS
 10
67.7172847207
 20
149.2307300947
 30
0.0
 11
0.3
 21
0.0
 31
0.0
 40
0.0052360356
 41
-1.5707963268
 42
-0.0052359878
  0
ELLIPSE
  5
735
100
AcDbEntity
  8
RACCORDO
100
AcDbEllipse
 62
7
  6
CONTINUOUS
 10
67.5131206772
 20
150.8807300947
 30
0.0
 11
0.3
 21
-0.0
 31
0.0
 40
0.0052360356
 41
-3.1363566658
 42
-2.7980509237
  0
ELLIPSE
  5
736
100
AcDbEntity
  8
RACCORDO
100
AcDbEllipse
 62
7
  6
CONTINUOUS
 10
67.4152068113
 20
156.4881516202
 30
0.0
 11
-0.0060680656
 21
0.3105275435
 31
0.0
 40
0.9659134726
 41
-0.0188728199
 42
1.5505683393
  0
ELLIPSE
  5
737
100
AcDbEntity
  8
RACCORDO
100
AcDbEllipse
 62
7
  6
CONTINUOUS
 10
53.5131206772
 20
149.2307300947
 30
0.0
 11
0.3
 21
-0.0
 31
0.0
 40
0.0052360356
 41
-3.1363566658
 42
-1.5707963268
  0
ELLIPSE
  5
738
100
AcDbEntity
  8
RACCORDO
100
AcDbEllipse
 62
7
  6
CONTINUOUS
 10
53.4152068113
 20
156.4881516202
 30
0.0
 11
-0.0060680656
 21
0.3105275435
 31
0.0
 40
0.9659134726
 41
-0.0188728199
 42
1.5505683393
  0
ELLIPSE
  5
739
100
AcDbEntity
  8
RACCORDO
100
AcDbEllipse
 62
7
  6
CONTINUOUS
 10
53.7172847207
 20
150.8807300947
 30
0.0
 11
0.3
 21
0.0
 31
0.0
 40
0.0052360356
 41
-0.3435417298
 42
-0.0052359877
  0
ELLIPSE
  5
73A
100
AcDbEntity
  8
RACCORDO
100
AcDbEllipse
 62
7
  6
CONTINUOUS
 10
53.8151985866
 20
156.4881516202
 30
0.0
 11
0.0060680656
 21
0.3105275435
 31
0.0
 40
0.9659134726
 41
-1.5505683393
 42
0.0188728199
  0
ELLIPSE
  5
73B
100
AcDbEntity
  8
RACCORDO
100
AcDbEllipse
 62
7
  6
CONTINUOUS
 10
50.7449898677
 20
186.5504320339
 30
0.0
 11
0.2499999904
 21
0.0000691849
 31
0.0
 40
1.0
 41
1.7450525123
 42
3.1413159139
  0
ELLIPSE
  5
73C
100
AcDbEntity
  8
RACCORDO
100
AcDbEllipse
 62
7
  6
CONTINUOUS
 10
70.4854155302
 20
186.5504320339
 30
0.0
 11
0.2499999459
 21
-0.0001644907
 31
0.0
 40
1.0
 41
0.0006579628
 42
1.3969213644
  0
ELLIPSE
  5
73D
100
AcDbEntity
  8
RACCORDO
100
AcDbEllipse
 62
7
  6
CONTINUOUS
 10
50.7449898677
 20
153.8649676023
 30
0.0
 11
0.25
 21
0.0
 31
0.0
 40
1.0
 41
3.1415926536
 42
4.5378560552
  0
ELLIPSE
  5
73E
100
AcDbEntity
  8
RACCORDO
100
AcDbEllipse
 62
7
  6
CONTINUOUS
 10
70.4854155302
 20
153.8649676023
 30
0.0
 11
0.2499999459
 21
-0.0001644907
 31
0.0
 40
1.0
 41
-1.3956054388
 42
0.0006579628
  0
ELLIPSE
  5
73F
100
AcDbEntity
  8
DRAFT
100
AcDbEllipse
 62
7
  6
CONTINUOUS
 10
71.591271738
 20
151.6207045326
 30
0.0
 11
-0.0
 21
1.5
 31
0.0
 40
0.0174550649
 41
-2.3183806765
 42
-0.1745329252
  0
ELLIPSE
  5
740
100
AcDbEntity
  8
DRAFT
100
AcDbEllipse
 62
7
  6
CONTINUOUS
 10
49.6391336599
 20
151.6207045326
 30
0.0
 11
-0.0
 21
1.5
 31
0.0
 40
0.0174550649
 41
0.1745330568
 42
2.3183806765
  0
ELLIPSE
  5
741
100
AcDbEntity
  8
DRAFT
100
AcDbEllipse
 62
7
  6
CONTINUOUS
 10
49.6391336599
 20
188.7946951036
 30
0.0
 11
0.0
 21
1.5
 31
0.0
 40
0.0174550649
 41
0.8232119771
 42
2.9670597284
  0
ELLIPSE
  5
742
100
AcDbEntity
  8
RACCORDO
100
AcDbEllipse
 62
7
  6
CONTINUOUS
 10
61.01389369
 20
186.5504320339
 30
0.0
 11
-0.0
 21
0.25
 31
0.0
 40
0.0052360356
 41
-1.5707963268
 42
-0.1745329252
  0
ELLIPSE
  5
743
100
AcDbEntity
  8
RACCORDO
100
AcDbEllipse
 62
7
  6
CONTINUOUS
 10
67.1165117078
 20
186.5504320339
 30
0.0
 11
0.0
 21
0.25
 31
0.0
 40
0.0052360356
 41
0.1745329252
 42
1.5707963268
  0
ELLIPSE
  5
744
100
AcDbEntity
  8
RACCORDO
100
AcDbEllipse
 62
7
  6
CONTINUOUS
 10
67.1165117078
 20
153.8649676023
 30
0.0
 11
0.0
 21
0.25
 31
0.0
 40
0.0052360356
 41
-4.7123889804
 42
-3.3161255788
  0
ELLIPSE
  5
745
100
AcDbEntity
  8
DRAFT
100
AcDbEllipse
 62
7
  6
CONTINUOUS
 10
67.1303872022
 20
151.6207045326
 30
0.0
 11
0.0
 21
1.5
 31
0.0
 40
0.0052360356
 41
-2.0295800935
 42
-0.174532786
  0
ELLIPSE
  5
746
100
AcDbEntity
  8
RACCORDO
100
AcDbEllipse
 62
7
  6
CONTINUOUS
 10
54.11389369
 20
186.5504320339
 30
0.0
 11
-0.0
 21
0.25
 31
0.0
 40
0.0052360356
 41
-1.5707963268
 42
-0.1745329252
  0
ELLIPSE
  5
747
100
AcDbEntity
  8
DRAFT
100
AcDbEllipse
 62
7
  6
CONTINUOUS
 10
54.1000181957
 20
188.7946951036
 30
0.0
 11
-0.0
 21
1.5
 31
0.0
 40
0.0052360356
 41
1.1120125601
 42
2.9670597284
  0
ELLIPSE
  5
748
100
AcDbEntity
  8
RACCORDO
100
AcDbEllipse
 62
7
  6
CONTINUOUS
 10
54.11389369
 20
153.8649676023
 30
0.0
 11
-0.0
 21
0.25
 31
0.0
 40
0.0052360356
 41
-2.9670597284
 42
-1.5707963268
  0
ELLIPSE
  5
749
100
AcDbEntity
  8
DRAFT
100
AcDbEllipse
 62
7
  6
CONTINUOUS
 10
54.1000181957
 20
151.6207045326
 30
0.0
 11
0.0
 21
1.5
 31
0.0
 40
0.0052360356
 41
0.1745329252
 42
2.0295800935
  0
ELLIPSE
  5
74A
100
AcDbEntity
  8
ASSI
100
AcDbEllipse
 62
7
  6
CONTINUOUS
 10
51.3549955464
 20
191.1810043166
 30
0.0
 11
1.0
 21
0.0
 31
0.0
 40
0.0052360356
 41
1.5707963268
 42
3.1241393611
  0
ENDSEC
  0
SECTION
  2
OBJECTS
  0
DICTIONARY
  5
C
100
AcDbDictionary
280
0
281
1
  3
ACAD_GROUP
350
D
  3
ACAD_MLINESTYLE
350
17
  3
ACAD_LAYOUT
350
1A
  3
ACAD_PLOTSETTINGS
350
19
  3
ACAD_PLOTSTYLENAME
350
E
  0
DICTIONARY
  5
D
102
{ACAD_REACTORS
330
C
102
}
100
AcDbDictionary
280
0
281
1
  0
ACDBDICTIONARYWDFLT
  5
E
102
{ACAD_REACTORS
330
C
102
}
100
AcDbDictionary
281
1
  3
Normal
350
F
100
AcDbDictionaryWithDefault
340
F
  0
DICTIONARY
  5
17
102
{ACAD_REACTORS
330
C
102
}
100
AcDbDictionary
280
0
281
1
  3
Standard
350
18
  0
DICTIONARY
  5
19
102
{ACAD_REACTORS
330
C
102
}
100
AcDbDictionary
281
1
  0
DICTIONARY
  5
1A
102
{ACAD_REACTORS
330
C
102
}
100
AcDbDictionary
281
1
  3
Model
350
74B
  3
Layout1
350
74C
  0
ACDBPLACEHOLDER
  5
F
102
{ACAD_REACTORS
330
E
102
}
  0
MLINESTYLE
  5
18
102
{ACAD_REACTORS
330
17
102
}
100
AcDbMlineStyle
  2
STANDARD
 70
0
  3

 62
256
 51
90.0
 52
90.0
 71
2
 49
0.5
 62
256
  6
BYLAYER
 49
-0.5
 62
256
  6
BYLAYER
  0
LAYOUT
  5
74B
102
{ACAD_REACTORS
330
1A
102
}
100
AcDbPlotSettings
  1

  2
none_device
  4
ISO_A4_(297.00_x_210.00_MM)
  6

 40
0.0
 41
0.0
 42
0.0
 43
0.0
 44
297.0
 45
210.0
 46
0.0
 47
0.0
 48
0.0
 49
0.0
140
0.0
141
0.0
142
1.0
143
1.0
 70
1024
 72
1
 73
0
 74
0
  7

 75
0
147
1.0
148
0.0
149
0.0
100
AcDbLayout
  1
Model
 70
0
 71
0
 10
0.0
 20
0.0
 11
297.0
 21
210.0
 12
0.0
 22
0.0
 32
0.0
 14
0.0
 24
0.0
 34
0.0
 15
0.0
 25
0.0
 35
0.0
146
0.0
 13
0.0
 23
0.0
 33
0.0
 16
1.0
 26
0.0
 36
0.0
 17
0.0
 27
1.0
 37
0.0
 76
0
330
20D
345
0
346
0
  0
LAYOUT
  5
74C
102
{ACAD_REACTORS
330
1A
102
}
100
AcDbPlotSettings
  1

  2
none_device
  4
ISO_A4_(297.00_x_210.00_MM)
  6

 40
0.0
 41
0.0
 42
0.0
 43
0.0
 44
297.0
 45
210.0
 46
0.0
 47
0.0
 48
0.0
 49
0.0
140
0.0
141
0.0
142
1.0
143
1.0
 70
0
 72
1
 73
0
 74
0
  7

 75
0
147
1.0
148
0.0
149
0.0
100
AcDbLayout
  1
Layout1
 70
0
 71
1
 10
0.0
 20
0.0
 11
297.0
 21
210.0
 12
0.0
 22
0.0
 32
0.0
 14
0.0
 24
0.0
 34
0.0
 15
0.0
 25
0.0
 35
0.0
146
0.0
 13
0.0
 23
0.0
 33
0.0
 16
1.0
 26
0.0
 36
0.0
 17
0.0
 27
1.0
 37
0.0
 76
0
330
20E
345
0
346
0
  0
ENDSEC
  0
EOF
