  0
SECTION
  2
HEADER
  9
$ACADVER
  1
AC1024
  9
$DWGCODEPAGE
  3
ANSI_1252
  9
$EXTMAX
 10
297.0
 20
210.0
 30
0.0
  9
$EXTMIN
 10
0.0
 20
0.0
 30
0.0
  9
$LIMMIN
 10
0.0
 20
0.0
  9
$LIMMAX
 10
297.0
 20
210.0
  9
$VIEWCTR
 10
148.5
 20
105.0
  9
$VIEWSIZE
 40
210.0
  9
$CLAYER
  8
0
  9
$LTSCALE
 40
16.335
  9
$CELTYPE
  6
BYLAYER
  9
$DIMSCALE
 40
1.0
  9
$DIMASZ
 40
3.0
  9
$DIMEXO
 40
0.5
  9
$DIMDLI
 40
11.286
  9
$DIMEXE
 40
1.5
  9
$DIMCEN
 40
2.673
  9
$DIMLFAC
 40
1.0
  9
$DIMBLK
  1
_FILLED
  9
$DIMALT
 70
0
  9
$DIMALTF
 40
0.0393700787
  9
$DIMTXT
 40
3.0
  9
$DIMTOL
 70
1
  9
$DIMLIM
 70
0
  9
$DIMTFAC
 40
1.0
  9
$DIMTP
 40
0.01
  9
$DIMTM
 40
0.01
  9
$DIMGAP
 40
0.625
  9
$DIMDSEP
 70
44
  9
$AUNITS
 70
0
  9
$PDMODE
 70
3
  9
$PDSIZE
 40
3.0
  9
$HANDSEED
  5
6C9
  9
$TILEMODE
 70
1
  9
$MEASUREMENT
 70
1
  9
$INSUNITS
 70
4
  0
ENDSEC
  0
SECTION
  2
CLASSES
  0
CLASS
  1
ACDBDICTIONARYWDFLT
  2
AcDbDictionaryWithDefault
  3
AutoCAD 2000
 90
0
 91
1
280
0
281
0
  0
CLASS
  1
ACDBPLACEHOLDER
  2
AcDbPlaceHolder
  3
AutoCAD 2000
 90
0
 91
1
280
0
281
0
  0
CLASS
  1
LAYOUT
  2
AcDbLayout
  3
AutoCAD 2000
 90
0
 91
0
280
0
281
0
  0
ENDSEC
  0
SECTION
  2
TABLES
  0
TABLE
  2
VPORT
  5
8
100
AcDbSymbolTable
 70
2
  0
VPORT
  5
1F4
100
AcDbSymbolTableRecord
100
AcDbViewportTableRecord
  2
*ACTIVE
 70
0
 10
0.0
 20
0.0
 11
1.0
 21
1.0
 12
148.5
 22
105.0
 13
0.0
 23
0.0
 14
1.0
 24
1.0
 15
0.0
 25
0.0
 16
0.0
 26
0.0
 36
1.0
 17
0.0
 27
0.0
 37
0.0
 40
210.0
 41
1.4142857143
 42
50.0
 43
0.0
 44
0.0
 50
0.0
 51
0.0
 71
0
 72
100
 73
1
 74
1
 75
0
 76
0
 77
0
 78
0
  0
ENDTAB
  0
TABLE
  2
LTYPE
  5
5
100
AcDbSymbolTable
 70
6
  0
LTYPE
  5
14
100
AcDbSymbolTableRecord
100
AcDbLinetypeTableRecord
  2
BYBLOCK
 70
0
  3

 72
65
 73
0
 40
0.0
  0
LTYPE
  5
15
100
AcDbSymbolTableRecord
100
AcDbLinetypeTableRecord
  2
BYLAYER
 70
0
  3

 72
65
 73
0
 40
0.0
  0
LTYPE
  5
16
100
AcDbSymbolTableRecord
100
AcDbLinetypeTableRecord
  2
CONTINUOUS
 70
64
  3
Solid line
 72
65
 73
0
 40
0.0
  0
LTYPE
  5
1F5
100
AcDbSymbolTableRecord
100
AcDbLinetypeTableRecord
  2
CENTER
 70
64
  3
____ _ ____ _ ____ _ ____ _ ____ _ ____ _ ____
 72
65
 73
4
 40
0.6
 49
0.375
 74
0
 49
-0.075
 74
0
 49
0.075
 74
0
 49
-0.075
 74
0
  0
LTYPE
  5
1F6
100
AcDbSymbolTableRecord
100
AcDbLinetypeTableRecord
  2
HIDDEN
 70
64
  3
- - - - - - - - - - - - - - - - - - - -
 72
65
 73
2
 40
0.2
 49
0.1
 74
0
 49
-0.1
 74
0
  0
LTYPE
  5
1F7
100
AcDbSymbolTableRecord
100
AcDbLinetypeTableRecord
  2
PHANTOM
 70
64
  3
_____ _ _ _____ _ _ _____ _ _ _____
 72
65
 73
6
 40
0.8
 49
0.45
 74
0
 49
-0.05
 74
0
 49
0.1
 74
0
 49
-0.05
 74
0
 49
0.1
 74
0
 49
-0.05
 74
0
  0
LTYPE
  5
1F8
100
AcDbSymbolTableRecord
100
AcDbLinetypeTableRecord
  2
DOT
 70
64
  3
. . . . . . . . . . . . . . . . . . . .
 72
65
 73
2
 40
0.2
 49
0.1
 74
0
 49
-0.1
 74
0
  0
LTYPE
  5
1F9
100
AcDbSymbolTableRecord
100
AcDbLinetypeTableRecord
  2
DASHED
 70
64
  3
- - - - - - - - - - - - - - - - - - - -
 72
65
 73
2
 40
0.2
 49
0.1
 74
0
 49
-0.1
 74
0
  0
ENDTAB
  0
TABLE
  2
LAYER
  5
2
100
AcDbSymbolTable
 70
36
  0
LAYER
  5
10
100
AcDbSymbolTableRecord
100
AcDbLayerTableRecord
  2
0
 70
0
 62
7
  6
CONTINUOUS
370
-3
390
F
  0
LAYER
  5
1FA
100
AcDbSymbolTableRecord
100
AcDbLayerTableRecord
  2
DEFAULT_1
 70
0
 62
7
  6
CENTER
370
-3
390
F
  0
LAYER
  5
1FB
100
AcDbSymbolTableRecord
100
AcDbLayerTableRecord
  2
DEFAULT_2
 70
0
 62
7
  6
HIDDEN
370
-3
390
F
  0
LAYER
  5
1FC
100
AcDbSymbolTableRecord
100
AcDbLayerTableRecord
  2
DEFAULT_3
 70
0
 62
7
  6
PHANTOM
370
-3
390
F
  0
LAYER
  5
1FD
100
AcDbSymbolTableRecord
100
AcDbLayerTableRecord
  2
0402_C_REF_70000
 70
0
 62
7
  6
CONTINUOUS
370
-3
390
F
  0
LAYER
  5
1FE
100
AcDbSymbolTableRecord
100
AcDbLayerTableRecord
  2
0402_C_REF_70000_1
 70
0
 62
7
  6
CONTINUOUS
370
-3
390
F
  0
LAYER
  5
1FF
100
AcDbSymbolTableRecord
100
AcDbLayerTableRecord
  2
0402_C_REF_70000_10
 70
0
 62
7
  6
CONTINUOUS
370
-3
390
F
  0
LAYER
  5
200
100
AcDbSymbolTableRecord
100
AcDbLayerTableRecord
  2
0402_C_REF_70000_11
 70
0
 62
7
  6
CONTINUOUS
370
-3
390
F
  0
LAYER
  5
201
100
AcDbSymbolTableRecord
100
AcDbLayerTableRecord
  2
0402_C_REF_70000_12
 70
0
 62
7
  6
CONTINUOUS
370
-3
390
F
  0
LAYER
  5
202
100
AcDbSymbolTableRecord
100
AcDbLayerTableRecord
  2
0402_C_REF_70000_13
 70
0
 62
7
  6
CONTINUOUS
370
-3
390
F
  0
LAYER
  5
203
100
AcDbSymbolTableRecord
100
AcDbLayerTableRecord
  2
0402_C_REF_70000_14
 70
0
 62
7
  6
CONTINUOUS
370
-3
390
F
  0
LAYER
  5
204
100
AcDbSymbolTableRecord
100
AcDbLayerTableRecord
  2
0402_C_REF_70000_15
 70
0
 62
7
  6
CONTINUOUS
370
-3
390
F
  0
LAYER
  5
205
100
AcDbSymbolTableRecord
100
AcDbLayerTableRecord
  2
0402_C_REF_70000_16
 70
0
 62
7
  6
CONTINUOUS
370
-3
390
F
  0
LAYER
  5
206
100
AcDbSymbolTableRecord
100
AcDbLayerTableRecord
  2
0402_C_REF_70000_17
 70
0
 62
7
  6
CONTINUOUS
370
-3
390
F
  0
LAYER
  5
207
100
AcDbSymbolTableRecord
100
AcDbLayerTableRecord
  2
0402_C_REF_70000_18
 70
0
 62
7
  6
CONTINUOUS
370
-3
390
F
  0
LAYER
  5
208
100
AcDbSymbolTableRecord
100
AcDbLayerTableRecord
  2
0402_C_REF_70000_19
 70
0
 62
7
  6
CONTINUOUS
370
-3
390
F
  0
LAYER
  5
209
100
AcDbSymbolTableRecord
100
AcDbLayerTableRecord
  2
0402_C_REF_70000_2
 70
0
 62
7
  6
CONTINUOUS
370
-3
390
F
  0
LAYER
  5
20A
100
AcDbSymbolTableRecord
100
AcDbLayerTableRecord
  2
0402_C_REF_70000_20
 70
0
 62
7
  6
CONTINUOUS
370
-3
390
F
  0
LAYER
  5
20B
100
AcDbSymbolTableRecord
100
AcDbLayerTableRecord
  2
0402_C_REF_70000_21
 70
0
 62
7
  6
CONTINUOUS
370
-3
390
F
  0
LAYER
  5
20C
100
AcDbSymbolTableRecord
100
AcDbLayerTableRecord
  2
0402_C_REF_70000_22
 70
0
 62
7
  6
CONTINUOUS
370
-3
390
F
  0
LAYER
  5
20D
100
AcDbSymbolTableRecord
100
AcDbLayerTableRecord
  2
0402_C_REF_70000_23
 70
0
 62
7
  6
CONTINUOUS
370
-3
390
F
  0
LAYER
  5
20E
100
AcDbSymbolTableRecord
100
AcDbLayerTableRecord
  2
0402_C_REF_70000_24
 70
0
 62
7
  6
CONTINUOUS
370
-3
390
F
  0
LAYER
  5
20F
100
AcDbSymbolTableRecord
100
AcDbLayerTableRecord
  2
0402_C_REF_70000_25
 70
0
 62
7
  6
CONTINUOUS
370
-3
390
F
  0
LAYER
  5
210
100
AcDbSymbolTableRecord
100
AcDbLayerTableRecord
  2
0402_C_REF_70000_26
 70
0
 62
7
  6
CONTINUOUS
370
-3
390
F
  0
LAYER
  5
211
100
AcDbSymbolTableRecord
100
AcDbLayerTableRecord
  2
0402_C_REF_70000_27
 70
0
 62
7
  6
CONTINUOUS
370
-3
390
F
  0
LAYER
  5
212
100
AcDbSymbolTableRecord
100
AcDbLayerTableRecord
  2
0402_C_REF_70000_28
 70
0
 62
7
  6
CONTINUOUS
370
-3
390
F
  0
LAYER
  5
213
100
AcDbSymbolTableRecord
100
AcDbLayerTableRecord
  2
0402_C_REF_70000_29
 70
0
 62
7
  6
CONTINUOUS
370
-3
390
F
  0
LAYER
  5
214
100
AcDbSymbolTableRecord
100
AcDbLayerTableRecord
  2
0402_C_REF_70000_3
 70
0
 62
7
  6
CONTINUOUS
370
-3
390
F
  0
LAYER
  5
215
100
AcDbSymbolTableRecord
100
AcDbLayerTableRecord
  2
0402_C_REF_70000_4
 70
0
 62
7
  6
CONTINUOUS
370
-3
390
F
  0
LAYER
  5
216
100
AcDbSymbolTableRecord
100
AcDbLayerTableRecord
  2
0402_C_REF_70000_5
 70
0
 62
7
  6
CONTINUOUS
370
-3
390
F
  0
LAYER
  5
217
100
AcDbSymbolTableRecord
100
AcDbLayerTableRecord
  2
0402_C_REF_70000_6
 70
0
 62
7
  6
CONTINUOUS
370
-3
390
F
  0
LAYER
  5
218
100
AcDbSymbolTableRecord
100
AcDbLayerTableRecord
  2
0402_C_REF_70000_7
 70
0
 62
7
  6
CONTINUOUS
370
-3
390
F
  0
LAYER
  5
219
100
AcDbSymbolTableRecord
100
AcDbLayerTableRecord
  2
0402_C_REF_70000_8
 70
0
 62
7
  6
CONTINUOUS
370
-3
390
F
  0
LAYER
  5
21A
100
AcDbSymbolTableRecord
100
AcDbLayerTableRecord
  2
0402_C_REF_70000_9
 70
0
 62
7
  6
CONTINUOUS
370
-3
390
F
  0
LAYER
  5
21B
100
AcDbSymbolTableRecord
100
AcDbLayerTableRecord
  2
0402_L_REF_55000
 70
0
 62
7
  6
CONTINUOUS
370
-3
390
F
  0
LAYER
  5
21C
100
AcDbSymbolTableRecord
100
AcDbLayerTableRecord
  2
0402_R_REF_30000
 70
0
 62
7
  6
CONTINUOUS
370
-3
390
F
  0
LAYER
  5
21D
100
AcDbSymbolTableRecord
100
AcDbLayerTableRecord
  2
0402_R_REF_30000_1
 70
0
 62
7
  6
CONTINUOUS
370
-3
390
F
  0
LAYER
  5
21E
100
AcDbSymbolTableRecord
100
AcDbLayerTableRecord
  2
0402_R_REF_30000_10
 70
0
 62
7
  6
CONTINUOUS
370
-3
390
F
  0
LAYER
  5
21F
100
AcDbSymbolTableRecord
100
AcDbLayerTableRecord
  2
0402_R_REF_30000_11
 70
0
 62
7
  6
CONTINUOUS
370
-3
390
F
  0
LAYER
  5
220
100
AcDbSymbolTableRecord
100
AcDbLayerTableRecord
  2
0402_R_REF_30000_12
 70
0
 62
7
  6
CONTINUOUS
370
-3
390
F
  0
LAYER
  5
221
100
AcDbSymbolTableRecord
100
AcDbLayerTableRecord
  2
0402_R_REF_30000_13
 70
0
 62
7
  6
CONTINUOUS
370
-3
390
F
  0
LAYER
  5
222
100
AcDbSymbolTableRecord
100
AcDbLayerTableRecord
  2
0402_R_REF_30000_14
 70
0
 62
7
  6
CONTINUOUS
370
-3
390
F
  0
LAYER
  5
223
100
AcDbSymbolTableRecord
100
AcDbLayerTableRecord
  2
0402_R_REF_30000_15
 70
0
 62
7
  6
CONTINUOUS
370
-3
390
F
  0
LAYER
  5
224
100
AcDbSymbolTableRecord
100
AcDbLayerTableRecord
  2
0402_R_REF_30000_16
 70
0
 62
7
  6
CONTINUOUS
370
-3
390
F
  0
LAYER
  5
225
100
AcDbSymbolTableRecord
100
AcDbLayerTableRecord
  2
0402_R_REF_30000_17
 70
0
 62
7
  6
CONTINUOUS
370
-3
390
F
  0
LAYER
  5
226
100
AcDbSymbolTableRecord
100
AcDbLayerTableRecord
  2
0402_R_REF_30000_18
 70
0
 62
7
  6
CONTINUOUS
370
-3
390
F
  0
LAYER
  5
227
100
AcDbSymbolTableRecord
100
AcDbLayerTableRecord
  2
0402_R_REF_30000_2
 70
0
 62
7
  6
CONTINUOUS
370
-3
390
F
  0
LAYER
  5
228
100
AcDbSymbolTableRecord
100
AcDbLayerTableRecord
  2
0402_R_REF_30000_3
 70
0
 62
7
  6
CONTINUOUS
370
-3
390
F
  0
LAYER
  5
229
100
AcDbSymbolTableRecord
100
AcDbLayerTableRecord
  2
0402_R_REF_30000_4
 70
0
 62
7
  6
CONTINUOUS
370
-3
390
F
  0
LAYER
  5
22A
100
AcDbSymbolTableRecord
100
AcDbLayerTableRecord
  2
0402_R_REF_30000_5
 70
0
 62
7
  6
CONTINUOUS
370
-3
390
F
  0
LAYER
  5
22B
100
AcDbSymbolTableRecord
100
AcDbLayerTableRecord
  2
0402_R_REF_30000_6
 70
0
 62
7
  6
CONTINUOUS
370
-3
390
F
  0
LAYER
  5
22C
100
AcDbSymbolTableRecord
100
AcDbLayerTableRecord
  2
0402_R_REF_30000_7
 70
0
 62
7
  6
CONTINUOUS
370
-3
390
F
  0
LAYER
  5
22D
100
AcDbSymbolTableRecord
100
AcDbLayerTableRecord
  2
0402_R_REF_30000_8
 70
0
 62
7
  6
CONTINUOUS
370
-3
390
F
  0
LAYER
  5
22E
100
AcDbSymbolTableRecord
100
AcDbLayerTableRecord
  2
0402_R_REF_30000_9
 70
0
 62
7
  6
CONTINUOUS
370
-3
390
F
  0
LAYER
  5
22F
100
AcDbSymbolTableRecord
100
AcDbLayerTableRecord
  2
0603_C_REF_90000
 70
0
 62
7
  6
CONTINUOUS
370
-3
390
F
  0
LAYER
  5
230
100
AcDbSymbolTableRecord
100
AcDbLayerTableRecord
  2
0603_C_REF_90000_1
 70
0
 62
7
  6
CONTINUOUS
370
-3
390
F
  0
LAYER
  5
231
100
AcDbSymbolTableRecord
100
AcDbLayerTableRecord
  2
0603_C_REF_90000_2
 70
0
 62
7
  6
CONTINUOUS
370
-3
390
F
  0
LAYER
  5
232
100
AcDbSymbolTableRecord
100
AcDbLayerTableRecord
  2
0603_C_REF_90000_3
 70
0
 62
7
  6
CONTINUOUS
370
-3
390
F
  0
LAYER
  5
233
100
AcDbSymbolTableRecord
100
AcDbLayerTableRecord
  2
0603_C_REF_90000_4
 70
0
 62
7
  6
CONTINUOUS
370
-3
390
F
  0
LAYER
  5
234
100
AcDbSymbolTableRecord
100
AcDbLayerTableRecord
  2
0603_R_REF_55000
 70
0
 62
7
  6
CONTINUOUS
370
-3
390
F
  0
LAYER
  5
235
100
AcDbSymbolTableRecord
100
AcDbLayerTableRecord
  2
0603_R_REF_55000_1
 70
0
 62
7
  6
CONTINUOUS
370
-3
390
F
  0
LAYER
  5
236
100
AcDbSymbolTableRecord
100
AcDbLayerTableRecord
  2
0603_R_REF_55000_2
 70
0
 62
7
  6
CONTINUOUS
370
-3
390
F
  0
LAYER
  5
237
100
AcDbSymbolTableRecord
100
AcDbLayerTableRecord
  2
0603_R_REF_55000_3
 70
0
 62
7
  6
CONTINUOUS
370
-3
390
F
  0
LAYER
  5
238
100
AcDbSymbolTableRecord
100
AcDbLayerTableRecord
  2
0603_R_REF_55000_4
 70
0
 62
7
  6
CONTINUOUS
370
-3
390
F
  0
LAYER
  5
239
100
AcDbSymbolTableRecord
100
AcDbLayerTableRecord
  2
06___PRT_ALL_SURFS
 70
0
 62
7
  6
CONTINUOUS
370
-3
390
F
  0
LAYER
  5
23A
100
AcDbSymbolTableRecord
100
AcDbLayerTableRecord
  2
06___PRT_ALL_SURFS_1
 70
0
 62
7
  6
CONTINUOUS
370
-3
390
F
  0
LAYER
  5
23B
100
AcDbSymbolTableRecord
100
AcDbLayerTableRecord
  2
06___PRT_ALL_SURFS_10
 70
0
 62
7
  6
CONTINUOUS
370
-3
390
F
  0
LAYER
  5
23C
100
AcDbSymbolTableRecord
100
AcDbLayerTableRecord
  2
06___PRT_ALL_SURFS_11
 70
0
 62
7
  6
CONTINUOUS
370
-3
390
F
  0
LAYER
  5
23D
100
AcDbSymbolTableRecord
100
AcDbLayerTableRecord
  2
06___PRT_ALL_SURFS_12
 70
0
 62
7
  6
CONTINUOUS
370
-3
390
F
  0
LAYER
  5
23E
100
AcDbSymbolTableRecord
100
AcDbLayerTableRecord
  2
06___PRT_ALL_SURFS_14
 70
0
 62
7
  6
CONTINUOUS
370
-3
390
F
  0
LAYER
  5
23F
100
AcDbSymbolTableRecord
100
AcDbLayerTableRecord
  2
06___PRT_ALL_SURFS_15
 70
0
 62
7
  6
CONTINUOUS
370
-3
390
F
  0
LAYER
  5
240
100
AcDbSymbolTableRecord
100
AcDbLayerTableRecord
  2
06___PRT_ALL_SURFS_17
 70
0
 62
7
  6
CONTINUOUS
370
-3
390
F
  0
LAYER
  5
241
100
AcDbSymbolTableRecord
100
AcDbLayerTableRecord
  2
06___PRT_ALL_SURFS_18
 70
0
 62
7
  6
CONTINUOUS
370
-3
390
F
  0
LAYER
  5
242
100
AcDbSymbolTableRecord
100
AcDbLayerTableRecord
  2
06___PRT_ALL_SURFS_2
 70
0
 62
7
  6
CONTINUOUS
370
-3
390
F
  0
LAYER
  5
243
100
AcDbSymbolTableRecord
100
AcDbLayerTableRecord
  2
06___PRT_ALL_SURFS_20
 70
0
 62
7
  6
CONTINUOUS
370
-3
390
F
  0
LAYER
  5
244
100
AcDbSymbolTableRecord
100
AcDbLayerTableRecord
  2
06___PRT_ALL_SURFS_21
 70
0
 62
7
  6
CONTINUOUS
370
-3
390
F
  0
LAYER
  5
245
100
AcDbSymbolTableRecord
100
AcDbLayerTableRecord
  2
06___PRT_ALL_SURFS_23
 70
0
 62
7
  6
CONTINUOUS
370
-3
390
F
  0
LAYER
  5
246
100
AcDbSymbolTableRecord
100
AcDbLayerTableRecord
  2
06___PRT_ALL_SURFS_24
 70
0
 62
7
  6
CONTINUOUS
370
-3
390
F
  0
LAYER
  5
247
100
AcDbSymbolTableRecord
100
AcDbLayerTableRecord
  2
06___PRT_ALL_SURFS_25
 70
0
 62
7
  6
CONTINUOUS
370
-3
390
F
  0
LAYER
  5
248
100
AcDbSymbolTableRecord
100
AcDbLayerTableRecord
  2
06___PRT_ALL_SURFS_29
 70
0
 62
7
  6
CONTINUOUS
370
-3
390
F
  0
LAYER
  5
249
100
AcDbSymbolTableRecord
100
AcDbLayerTableRecord
  2
06___PRT_ALL_SURFS_3
 70
0
 62
7
  6
CONTINUOUS
370
-3
390
F
  0
LAYER
  5
24A
100
AcDbSymbolTableRecord
100
AcDbLayerTableRecord
  2
06___PRT_ALL_SURFS_4
 70
0
 62
7
  6
CONTINUOUS
370
-3
390
F
  0
LAYER
  5
24B
100
AcDbSymbolTableRecord
100
AcDbLayerTableRecord
  2
06___PRT_ALL_SURFS_6
 70
0
 62
7
  6
CONTINUOUS
370
-3
390
F
  0
LAYER
  5
24C
100
AcDbSymbolTableRecord
100
AcDbLayerTableRecord
  2
06___PRT_ALL_SURFS_7
 70
0
 62
7
  6
CONTINUOUS
370
-3
390
F
  0
LAYER
  5
24D
100
AcDbSymbolTableRecord
100
AcDbLayerTableRecord
  2
06___PRT_ALL_SURFS_8
 70
0
 62
7
  6
CONTINUOUS
370
-3
390
F
  0
LAYER
  5
24E
100
AcDbSymbolTableRecord
100
AcDbLayerTableRecord
  2
06___PRT_ALL_SURFS_9
 70
0
 62
7
  6
CONTINUOUS
370
-3
390
F
  0
LAYER
  5
24F
100
AcDbSymbolTableRecord
100
AcDbLayerTableRecord
  2
0805_C_REF_145000
 70
0
 62
7
  6
CONTINUOUS
370
-3
390
F
  0
LAYER
  5
250
100
AcDbSymbolTableRecord
100
AcDbLayerTableRecord
  2
0805_L_REF_145000
 70
0
 62
7
  6
CONTINUOUS
370
-3
390
F
  0
LAYER
  5
251
100
AcDbSymbolTableRecord
100
AcDbLayerTableRecord
  2
0805_R_REF_60000
 70
0
 62
7
  6
CONTINUOUS
370
-3
390
F
  0
LAYER
  5
252
100
AcDbSymbolTableRecord
100
AcDbLayerTableRecord
  2
0805_R_REF_60000_1
 70
0
 62
7
  6
CONTINUOUS
370
-3
390
F
  0
LAYER
  5
253
100
AcDbSymbolTableRecord
100
AcDbLayerTableRecord
  2
0805_R_REF_60000_2
 70
0
 62
7
  6
CONTINUOUS
370
-3
390
F
  0
LAYER
  5
254
100
AcDbSymbolTableRecord
100
AcDbLayerTableRecord
  2
0805_R_REF_60000_3
 70
0
 62
7
  6
CONTINUOUS
370
-3
390
F
  0
LAYER
  5
255
100
AcDbSymbolTableRecord
100
AcDbLayerTableRecord
  2
0805_R_REF_60000_4
 70
0
 62
7
  6
CONTINUOUS
370
-3
390
F
  0
LAYER
  5
256
100
AcDbSymbolTableRecord
100
AcDbLayerTableRecord
  2
0805_R_REF_60000_5
 70
0
 62
7
  6
CONTINUOUS
370
-3
390
F
  0
LAYER
  5
257
100
AcDbSymbolTableRecord
100
AcDbLayerTableRecord
  2
0805_R_REF_60000_6
 70
0
 62
7
  6
CONTINUOUS
370
-3
390
F
  0
LAYER
  5
258
100
AcDbSymbolTableRecord
100
AcDbLayerTableRecord
  2
0805_R_REF_60000_7
 70
0
 62
7
  6
CONTINUOUS
370
-3
390
F
  0
LAYER
  5
259
100
AcDbSymbolTableRecord
100
AcDbLayerTableRecord
  2
0805_R_REF_60000_8
 70
0
 62
7
  6
CONTINUOUS
370
-3
390
F
  0
LAYER
  5
25A
100
AcDbSymbolTableRecord
100
AcDbLayerTableRecord
  2
0805_R_REF_60000_9
 70
0
 62
7
  6
CONTINUOUS
370
-3
390
F
  0
LAYER
  5
25B
100
AcDbSymbolTableRecord
100
AcDbLayerTableRecord
  2
1206_C_REF_180000
 70
0
 62
7
  6
CONTINUOUS
370
-3
390
F
  0
LAYER
  5
25C
100
AcDbSymbolTableRecord
100
AcDbLayerTableRecord
  2
1206_C_REF_180000_1
 70
0
 62
7
  6
CONTINUOUS
370
-3
390
F
  0
LAYER
  5
25D
100
AcDbSymbolTableRecord
100
AcDbLayerTableRecord
  2
1206_C_REF_180000_2
 70
0
 62
7
  6
CONTINUOUS
370
-3
390
F
  0
LAYER
  5
25E
100
AcDbSymbolTableRecord
100
AcDbLayerTableRecord
  2
2512_R_H1_REF_100000
 70
0
 62
7
  6
CONTINUOUS
370
-3
390
F
  0
LAYER
  5
25F
100
AcDbSymbolTableRecord
100
AcDbLayerTableRecord
  2
43000895A0
 70
0
 62
7
  6
CONTINUOUS
370
-3
390
F
  0
LAYER
  5
260
100
AcDbSymbolTableRecord
100
AcDbLayerTableRecord
  2
43000895E0
 70
0
 62
7
  6
CONTINUOUS
370
-3
390
F
  0
LAYER
  5
261
100
AcDbSymbolTableRecord
100
AcDbLayerTableRecord
  2
43000908A0
 70
0
 62
7
  6
CONTINUOUS
370
-3
390
F
  0
LAYER
  5
262
100
AcDbSymbolTableRecord
100
AcDbLayerTableRecord
  2
43000908B0
 70
0
 62
7
  6
CONTINUOUS
370
-3
390
F
  0
LAYER
  5
263
100
AcDbSymbolTableRecord
100
AcDbLayerTableRecord
  2
ASSI
 70
0
 62
7
  6
CONTINUOUS
370
-3
390
F
  0
LAYER
  5
264
100
AcDbSymbolTableRecord
100
AcDbLayerTableRecord
  2
BOARD_PRODUCER_TESTIMONI_14_F0_
 70
0
 62
7
  6
CONTINUOUS
370
-3
390
F
  0
LAYER
  5
265
100
AcDbSymbolTableRecord
100
AcDbLayerTableRecord
  2
BOARD_PRODUCER_TESTIMONI_14_F_1
 70
0
 62
7
  6
CONTINUOUS
370
-3
390
F
  0
LAYER
  5
266
100
AcDbSymbolTableRecord
100
AcDbLayerTableRecord
  2
BOARD_PRODUCER_TESTIMONI_14_F_2
 70
0
 62
7
  6
CONTINUOUS
370
-3
390
F
  0
LAYER
  5
267
100
AcDbSymbolTableRecord
100
AcDbLayerTableRecord
  2
BOARD_PRODUCER_TESTIMONI_14_F_3
 70
0
 62
7
  6
CONTINUOUS
370
-3
390
F
  0
LAYER
  5
268
100
AcDbSymbolTableRecord
100
AcDbLayerTableRecord
  2
CAP-E-SMD-8_3-8_3-10_5_1050000
 70
0
 62
7
  6
CONTINUOUS
370
-3
390
F
  0
LAYER
  5
269
100
AcDbSymbolTableRecord
100
AcDbLayerTableRecord
  2
CAP-E-SMD-8_3-8_3-10_5_105000_1
 70
0
 62
7
  6
CONTINUOUS
370
-3
390
F
  0
LAYER
  5
26A
100
AcDbSymbolTableRecord
100
AcDbLayerTableRecord
  2
CN_M_THT_P5_R1_P3_SET_1750000
 70
0
 62
7
  6
CONTINUOUS
370
-3
390
F
  0
LAYER
  5
26B
100
AcDbSymbolTableRecord
100
AcDbLayerTableRecord
  2
COLOR15
 70
0
 62
7
  6
CONTINUOUS
370
-3
390
F
  0
LAYER
  5
26C
100
AcDbSymbolTableRecord
100
AcDbLayerTableRecord
  2
COLOR16
 70
0
 62
7
  6
CONTINUOUS
370
-3
390
F
  0
LAYER
  5
26D
100
AcDbSymbolTableRecord
100
AcDbLayerTableRecord
  2
COLORE_MATERIALE
 70
0
 62
7
  6
CONTINUOUS
370
-3
390
F
  0
LAYER
  5
26E
100
AcDbSymbolTableRecord
100
AcDbLayerTableRecord
  2
COORDINATE
 70
0
 62
7
  6
CONTINUOUS
370
-3
390
F
  0
LAYER
  5
26F
100
AcDbSymbolTableRecord
100
AcDbLayerTableRecord
  2
COORD_ORIGINE
 70
0
 62
7
  6
CONTINUOUS
370
-3
390
F
  0
LAYER
  5
270
100
AcDbSymbolTableRecord
100
AcDbLayerTableRecord
  2
COPY_PUBLISH
 70
0
 62
7
  6
CONTINUOUS
370
-3
390
F
  0
LAYER
  5
271
100
AcDbSymbolTableRecord
100
AcDbLayerTableRecord
  2
COSMETICI
 70
0
 62
7
  6
CONTINUOUS
370
-3
390
F
  0
LAYER
  5
272
100
AcDbSymbolTableRecord
100
AcDbLayerTableRecord
  2
CURVE
 70
0
 62
7
  6
CONTINUOUS
370
-3
390
F
  0
LAYER
  5
273
100
AcDbSymbolTableRecord
100
AcDbLayerTableRecord
  2
DL_RGB_1_6-1_6-0_5MM_50000
 70
0
 62
7
  6
CONTINUOUS
370
-3
390
F
  0
LAYER
  5
274
100
AcDbSymbolTableRecord
100
AcDbLayerTableRecord
  2
DL_RGB_1_6-1_6-0_5MM_50000_1
 70
0
 62
7
  6
CONTINUOUS
370
-3
390
F
  0
LAYER
  5
275
100
AcDbSymbolTableRecord
100
AcDbLayerTableRecord
  2
DRAFT
 70
0
 62
7
  6
CONTINUOUS
370
-3
390
F
  0
LAYER
  5
276
100
AcDbSymbolTableRecord
100
AcDbLayerTableRecord
  2
E4_MARK_10000
 70
0
 62
7
  6
CONTINUOUS
370
-3
390
F
  0
LAYER
  5
277
100
AcDbSymbolTableRecord
100
AcDbLayerTableRecord
  2
FIDUCIAL_1MM_0
 70
0
 62
7
  6
CONTINUOUS
370
-3
390
F
  0
LAYER
  5
278
100
AcDbSymbolTableRecord
100
AcDbLayerTableRecord
  2
FIDUCIAL_1MM_0_1
 70
0
 62
7
  6
CONTINUOUS
370
-3
390
F
  0
LAYER
  5
279
100
AcDbSymbolTableRecord
100
AcDbLayerTableRecord
  2
FIDUCIAL_1MM_0_2
 70
0
 62
7
  6
CONTINUOUS
370
-3
390
F
  0
LAYER
  5
27A
100
AcDbSymbolTableRecord
100
AcDbLayerTableRecord
  2
FIDUCIAL_1MM_0_3
 70
0
 62
7
  6
CONTINUOUS
370
-3
390
F
  0
LAYER
  5
27B
100
AcDbSymbolTableRecord
100
AcDbLayerTableRecord
  2
FIDUCIAL_1_2_MM_RUOTATO_45_1000
 70
0
 62
7
  6
CONTINUOUS
370
-3
390
F
  0
LAYER
  5
27C
100
AcDbSymbolTableRecord
100
AcDbLayerTableRecord
  2
FIDUCIAL_1_2_MM_RUOTATO_45_10_1
 70
0
 62
7
  6
CONTINUOUS
370
-3
390
F
  0
LAYER
  5
27D
100
AcDbSymbolTableRecord
100
AcDbLayerTableRecord
  2
FIDUCIAL_1_2_MM_RUOTATO_45_10_2
 70
0
 62
7
  6
CONTINUOUS
370
-3
390
F
  0
LAYER
  5
27E
100
AcDbSymbolTableRecord
100
AcDbLayerTableRecord
  2
FIDUCIAL_1_2_MM_RUOTATO_45_10_3
 70
0
 62
7
  6
CONTINUOUS
370
-3
390
F
  0
LAYER
  5
27F
100
AcDbSymbolTableRecord
100
AcDbLayerTableRecord
  2
GEOMETRIA_SOLIDA
 70
0
 62
7
  6
CONTINUOUS
370
-3
390
F
  0
LAYER
  5
280
100
AcDbSymbolTableRecord
100
AcDbLayerTableRecord
  2
GEOMETRIA_SOLIDA_1
 70
0
 62
7
  6
CONTINUOUS
370
-3
390
F
  0
LAYER
  5
281
100
AcDbSymbolTableRecord
100
AcDbLayerTableRecord
  2
GEOMETRIA_SOLIDA_2
 70
0
 62
7
  6
CONTINUOUS
370
-3
390
F
  0
LAYER
  5
282
100
AcDbSymbolTableRecord
100
AcDbLayerTableRecord
  2
GEOMETRIA_SOLIDA_3
 70
0
 62
7
  6
CONTINUOUS
370
-3
390
F
  0
LAYER
  5
283
100
AcDbSymbolTableRecord
100
AcDbLayerTableRecord
  2
GEOMETRIA_SOLIDA_4
 70
0
 62
7
  6
CONTINUOUS
370
-3
390
F
  0
LAYER
  5
284
100
AcDbSymbolTableRecord
100
AcDbLayerTableRecord
  2
GEOMETRIA_SOLIDA_5
 70
0
 62
7
  6
CONTINUOUS
370
-3
390
F
  0
LAYER
  5
285
100
AcDbSymbolTableRecord
100
AcDbLayerTableRecord
  2
IMPORT_IGES
 70
0
 62
7
  6
CONTINUOUS
370
-3
390
F
  0
LAYER
  5
286
100
AcDbSymbolTableRecord
100
AcDbLayerTableRecord
  2
IMPORT_IGES_2
 70
0
 62
7
  6
CONTINUOUS
370
-3
390
F
  0
LAYER
  5
287
100
AcDbSymbolTableRecord
100
AcDbLayerTableRecord
  2
IMPORT_IGES_3
 70
0
 62
7
  6
CONTINUOUS
370
-3
390
F
  0
LAYER
  5
288
100
AcDbSymbolTableRecord
100
AcDbLayerTableRecord
  2
IND-CHIP-0805_H1_2_REF_140000
 70
0
 62
7
  6
CONTINUOUS
370
-3
390
F
  0
LAYER
  5
289
100
AcDbSymbolTableRecord
100
AcDbLayerTableRecord
  2
INTF_1
 70
0
 62
7
  6
CONTINUOUS
370
-3
390
F
  0
LAYER
  5
28A
100
AcDbSymbolTableRecord
100
AcDbLayerTableRecord
  2
INTF_11
 70
0
 62
7
  6
CONTINUOUS
370
-3
390
F
  0
LAYER
  5
28B
100
AcDbSymbolTableRecord
100
AcDbLayerTableRecord
  2
INTF_2
 70
0
 62
7
  6
CONTINUOUS
370
-3
390
F
  0
LAYER
  5
28C
100
AcDbSymbolTableRecord
100
AcDbLayerTableRecord
  2
INTF_24
 70
0
 62
7
  6
CONTINUOUS
370
-3
390
F
  0
LAYER
  5
28D
100
AcDbSymbolTableRecord
100
AcDbLayerTableRecord
  2
INTF_BLANK
 70
0
 62
7
  6
CONTINUOUS
370
-3
390
F
  0
LAYER
  5
28E
100
AcDbSymbolTableRecord
100
AcDbLayerTableRecord
  2
INTF_BLUE
 70
0
 62
7
  6
CONTINUOUS
370
-3
390
F
  0
LAYER
  5
28F
100
AcDbSymbolTableRecord
100
AcDbLayerTableRecord
  2
INTF_CYAN
 70
0
 62
7
  6
CONTINUOUS
370
-3
390
F
  0
LAYER
  5
290
100
AcDbSymbolTableRecord
100
AcDbLayerTableRecord
  2
INTF_GREEN
 70
0
 62
7
  6
CONTINUOUS
370
-3
390
F
  0
LAYER
  5
291
100
AcDbSymbolTableRecord
100
AcDbLayerTableRecord
  2
LOGO_RESIST-RESTYLING_10000
 70
0
 62
7
  6
CONTINUOUS
370
-3
390
F
  0
LAYER
  5
292
100
AcDbSymbolTableRecord
100
AcDbLayerTableRecord
  2
MM2-SWITCH-1-VIMAR_150000
 70
0
 62
7
  6
CONTINUOUS
370
-3
390
F
  0
LAYER
  5
293
100
AcDbSymbolTableRecord
100
AcDbLayerTableRecord
  2
NO-PB_MARK_10000
 70
0
 62
7
  6
CONTINUOUS
370
-3
390
F
  0
LAYER
  5
294
100
AcDbSymbolTableRecord
100
AcDbLayerTableRecord
  2
NOTE
 70
0
 62
7
  6
CONTINUOUS
370
-3
390
F
  0
LAYER
  5
295
100
AcDbSymbolTableRecord
100
AcDbLayerTableRecord
  2
PIANI
 70
0
 62
7
  6
CONTINUOUS
370
-3
390
F
  0
LAYER
  5
296
100
AcDbSymbolTableRecord
100
AcDbLayerTableRecord
  2
PIANI_ORIGINE
 70
0
 62
7
  6
CONTINUOUS
370
-3
390
F
  0
LAYER
  5
297
100
AcDbSymbolTableRecord
100
AcDbLayerTableRecord
  2
PIANI_RIFERIMENTO
 70
0
 62
7
  6
CONTINUOUS
370
-3
390
F
  0
LAYER
  5
298
100
AcDbSymbolTableRecord
100
AcDbLayerTableRecord
  2
PROVA_QFN
 70
0
 62
7
  6
CONTINUOUS
370
-3
390
F
  0
LAYER
  5
299
100
AcDbSymbolTableRecord
100
AcDbLayerTableRecord
  2
PUNTI
 70
0
 62
7
  6
CONTINUOUS
370
-3
390
F
  0
LAYER
  5
29A
100
AcDbSymbolTableRecord
100
AcDbLayerTableRecord
  2
RACCORDO
 70
0
 62
7
  6
CONTINUOUS
370
-3
390
F
  0
LAYER
  5
29B
100
AcDbSymbolTableRecord
100
AcDbLayerTableRecord
  2
SC88-6_REF_H1_1_110000
 70
0
 62
7
  6
CONTINUOUS
370
-3
390
F
  0
LAYER
  5
29C
100
AcDbSymbolTableRecord
100
AcDbLayerTableRecord
  2
SC88-6_REF_H1_1_110000_1
 70
0
 62
7
  6
CONTINUOUS
370
-3
390
F
  0
LAYER
  5
29D
100
AcDbSymbolTableRecord
100
AcDbLayerTableRecord
  2
SC88-6_REF_H1_1_110000_2
 70
0
 62
7
  6
CONTINUOUS
370
-3
390
F
  0
LAYER
  5
29E
100
AcDbSymbolTableRecord
100
AcDbLayerTableRecord
  2
SIMBOLI
 70
0
 62
7
  6
CONTINUOUS
370
-3
390
F
  0
LAYER
  5
29F
100
AcDbSymbolTableRecord
100
AcDbLayerTableRecord
  2
SMUSSO
 70
0
 62
7
  6
CONTINUOUS
370
-3
390
F
  0
LAYER
  5
2A0
100
AcDbSymbolTableRecord
100
AcDbLayerTableRecord
  2
SNAPLINE
 70
0
 62
7
  6
CONTINUOUS
370
-3
390
F
  0
LAYER
  5
2A1
100
AcDbSymbolTableRecord
100
AcDbLayerTableRecord
  2
SOD123_REF_140000
 70
0
 62
7
  6
CONTINUOUS
370
-3
390
F
  0
LAYER
  5
2A2
100
AcDbSymbolTableRecord
100
AcDbLayerTableRecord
  2
SOT23-5_REF_H1_5_150000
 70
0
 62
7
  6
CONTINUOUS
370
-3
390
F
  0
LAYER
  5
2A3
100
AcDbSymbolTableRecord
100
AcDbLayerTableRecord
  2
SOT323_H1_1_REF_110000
 70
0
 62
7
  6
CONTINUOUS
370
-3
390
F
  0
LAYER
  5
2A4
100
AcDbSymbolTableRecord
100
AcDbLayerTableRecord
  2
SOT89_REF_H1_6_160000
 70
0
 62
7
  6
CONTINUOUS
370
-3
390
F
  0
LAYER
  5
2A5
100
AcDbSymbolTableRecord
100
AcDbLayerTableRecord
  2
SUB_SMA_143000
 70
0
 62
7
  6
CONTINUOUS
370
-3
390
F
  0
LAYER
  5
2A6
100
AcDbSymbolTableRecord
100
AcDbLayerTableRecord
  2
SUB_SMA_143000_1
 70
0
 62
7
  6
CONTINUOUS
370
-3
390
F
  0
LAYER
  5
2A7
100
AcDbSymbolTableRecord
100
AcDbLayerTableRecord
  2
SUB_SMA_143000_2
 70
0
 62
7
  6
CONTINUOUS
370
-3
390
F
  0
LAYER
  5
2A8
100
AcDbSymbolTableRecord
100
AcDbLayerTableRecord
  2
SUPERFICI
 70
0
 62
7
  6
CONTINUOUS
370
-3
390
F
  0
LAYER
  5
2A9
100
AcDbSymbolTableRecord
100
AcDbLayerTableRecord
  2
SWITCH_SKRP_250000
 70
0
 62
7
  6
CONTINUOUS
370
-3
390
F
  0
LAYER
  5
2AA
100
AcDbSymbolTableRecord
100
AcDbLayerTableRecord
  2
SWITCH_SKRP_250000_1
 70
0
 62
7
  6
CONTINUOUS
370
-3
390
F
  0
LAYER
  5
2AB
100
AcDbSymbolTableRecord
100
AcDbLayerTableRecord
  2
SWITCH_SKRP_250000_2
 70
0
 62
7
  6
CONTINUOUS
370
-3
390
F
  0
LAYER
  5
2AC
100
AcDbSymbolTableRecord
100
AcDbLayerTableRecord
  2
TP-RND-0_8_3500
 70
0
 62
7
  6
CONTINUOUS
370
-3
390
F
  0
LAYER
  5
2AD
100
AcDbSymbolTableRecord
100
AcDbLayerTableRecord
  2
TP-RND-0_8_3500_1
 70
0
 62
7
  6
CONTINUOUS
370
-3
390
F
  0
LAYER
  5
2AE
100
AcDbSymbolTableRecord
100
AcDbLayerTableRecord
  2
TP-RND-0_8_3500_10
 70
0
 62
7
  6
CONTINUOUS
370
-3
390
F
  0
LAYER
  5
2AF
100
AcDbSymbolTableRecord
100
AcDbLayerTableRecord
  2
TP-RND-0_8_3500_11
 70
0
 62
7
  6
CONTINUOUS
370
-3
390
F
  0
LAYER
  5
2B0
100
AcDbSymbolTableRecord
100
AcDbLayerTableRecord
  2
TP-RND-0_8_3500_2
 70
0
 62
7
  6
CONTINUOUS
370
-3
390
F
  0
LAYER
  5
2B1
100
AcDbSymbolTableRecord
100
AcDbLayerTableRecord
  2
TP-RND-0_8_3500_3
 70
0
 62
7
  6
CONTINUOUS
370
-3
390
F
  0
LAYER
  5
2B2
100
AcDbSymbolTableRecord
100
AcDbLayerTableRecord
  2
TP-RND-0_8_3500_4
 70
0
 62
7
  6
CONTINUOUS
370
-3
390
F
  0
LAYER
  5
2B3
100
AcDbSymbolTableRecord
100
AcDbLayerTableRecord
  2
TP-RND-0_8_3500_5
 70
0
 62
7
  6
CONTINUOUS
370
-3
390
F
  0
LAYER
  5
2B4
100
AcDbSymbolTableRecord
100
AcDbLayerTableRecord
  2
TP-RND-0_8_3500_6
 70
0
 62
7
  6
CONTINUOUS
370
-3
390
F
  0
LAYER
  5
2B5
100
AcDbSymbolTableRecord
100
AcDbLayerTableRecord
  2
TP-RND-0_8_3500_7
 70
0
 62
7
  6
CONTINUOUS
370
-3
390
F
  0
LAYER
  5
2B6
100
AcDbSymbolTableRecord
100
AcDbLayerTableRecord
  2
TP-RND-0_8_3500_8
 70
0
 62
7
  6
CONTINUOUS
370
-3
390
F
  0
LAYER
  5
2B7
100
AcDbSymbolTableRecord
100
AcDbLayerTableRecord
  2
TP-RND-0_8_3500_9
 70
0
 62
7
  6
CONTINUOUS
370
-3
390
F
  0
LAYER
  5
2B8
100
AcDbSymbolTableRecord
100
AcDbLayerTableRecord
  2
TP-RND-1_0_3500
 70
0
 62
7
  6
CONTINUOUS
370
-3
390
F
  0
LAYER
  5
2B9
100
AcDbSymbolTableRecord
100
AcDbLayerTableRecord
  2
TP-RND-1_5_1000
 70
0
 62
7
  6
CONTINUOUS
370
-3
390
F
  0
LAYER
  5
2BA
100
AcDbSymbolTableRecord
100
AcDbLayerTableRecord
  2
TP-RND-1_5_1000_1
 70
0
 62
7
  6
CONTINUOUS
370
-3
390
F
  0
LAYER
  5
2BB
100
AcDbSymbolTableRecord
100
AcDbLayerTableRecord
  2
TP-RND-1_5_1000_2
 70
0
 62
7
  6
CONTINUOUS
370
-3
390
F
  0
LAYER
  5
2BC
100
AcDbSymbolTableRecord
100
AcDbLayerTableRecord
  2
TP-RND-1_5_1000_3
 70
0
 62
7
  6
CONTINUOUS
370
-3
390
F
  0
LAYER
  5
2BD
100
AcDbSymbolTableRecord
100
AcDbLayerTableRecord
  2
TP-RND-1_5_1000_4
 70
0
 62
7
  6
CONTINUOUS
370
-3
390
F
  0
LAYER
  5
2BE
100
AcDbSymbolTableRecord
100
AcDbLayerTableRecord
  2
TP-RND-1_5_1000_5
 70
0
 62
7
  6
CONTINUOUS
370
-3
390
F
  0
LAYER
  5
2BF
100
AcDbSymbolTableRecord
100
AcDbLayerTableRecord
  2
TP_PROGRAMMAZIONE_SWD_D1_5_1000
 70
0
 62
7
  6
CONTINUOUS
370
-3
390
F
  0
LAYER
  5
2C0
100
AcDbSymbolTableRecord
100
AcDbLayerTableRecord
  2
TRASH
 70
0
 62
7
  6
CONTINUOUS
370
-3
390
F
  0
LAYER
  5
2C1
100
AcDbSymbolTableRecord
100
AcDbLayerTableRecord
  2
VG_CN-MEZZANINE-F-SMT-P0_8-R2-P
 70
0
 62
7
  6
CONTINUOUS
370
-3
390
F
  0
LAYER
  5
2C2
100
AcDbSymbolTableRecord
100
AcDbLayerTableRecord
  2
VG_CN-MEZZANINE-M-SMT-P0_8-R2-P
 70
0
 62
7
  6
CONTINUOUS
370
-3
390
F
  0
LAYER
  5
2C3
100
AcDbSymbolTableRecord
100
AcDbLayerTableRecord
  2
VG_IND-CHIP-0402-POL-1_0-REF_10
 70
0
 62
7
  6
CONTINUOUS
370
-3
390
F
  0
LAYER
  5
2C4
100
AcDbSymbolTableRecord
100
AcDbLayerTableRecord
  2
VG_IND-CHIP-0402-POL-1_0-REF__1
 70
0
 62
7
  6
CONTINUOUS
370
-3
390
F
  0
LAYER
  5
2C5
100
AcDbSymbolTableRecord
100
AcDbLayerTableRecord
  2
VG_IND-RAD-8_8-7_5-5_0-0_6_7500
 70
0
 62
7
  6
CONTINUOUS
370
-3
390
F
  0
LAYER
  5
2C6
100
AcDbSymbolTableRecord
100
AcDbLayerTableRecord
  2
VG_IND-SMT-4_0-4_0-2_5-1_55-3_6
 70
0
 62
7
  6
CONTINUOUS
370
-3
390
F
  0
LAYER
  5
2C7
100
AcDbSymbolTableRecord
100
AcDbLayerTableRecord
  2
VG_IND-SMT-7_8-7_8-5_3-2_4-8_0-
 70
0
 62
7
  6
CONTINUOUS
370
-3
390
F
  0
LAYER
  5
2C8
100
AcDbSymbolTableRecord
100
AcDbLayerTableRecord
  2
VG_IND-SMT-8_0-8_0-6_5-4_0-6_3-
 70
0
 62
7
  6
CONTINUOUS
370
-3
390
F
  0
LAYER
  5
2C9
100
AcDbSymbolTableRecord
100
AcDbLayerTableRecord
  2
VG_K_THT_HONGFA_HF115FK-H3T_160
 70
0
 62
7
  6
CONTINUOUS
370
-3
390
F
  0
LAYER
  5
2CA
100
AcDbSymbolTableRecord
100
AcDbLayerTableRecord
  2
VG_PB-2-3_9-2_9-2_0-SMT_200000
 70
0
 62
7
  6
CONTINUOUS
370
-3
390
F
  0
LAYER
  5
2CB
100
AcDbSymbolTableRecord
100
AcDbLayerTableRecord
  2
VG_PTC-6_5-10_0-5_0-5_0-0-0_6_1
 70
0
 62
7
  6
CONTINUOUS
370
-3
390
F
  0
LAYER
  5
2CC
100
AcDbSymbolTableRecord
100
AcDbLayerTableRecord
  2
VG_QCS5F_40000
 70
0
 62
7
  6
CONTINUOUS
370
-3
390
F
  0
LAYER
  5
2CD
100
AcDbSymbolTableRecord
100
AcDbLayerTableRecord
  2
VG_QFN24-4_0-4_0-4_0-4_0-1_0-0_
 70
0
 62
7
  6
CONTINUOUS
370
-3
390
F
  0
LAYER
  5
2CE
100
AcDbSymbolTableRecord
100
AcDbLayerTableRecord
  2
VG_QFN48-6_0-6_0-6_0-6_0-1_0-0_
 70
0
 62
7
  6
CONTINUOUS
370
-3
390
F
  0
LAYER
  5
2CF
100
AcDbSymbolTableRecord
100
AcDbLayerTableRecord
  2
VG_QFN73-7_0-7_0-7_0-7_0-0_85-0
 70
0
 62
7
  6
CONTINUOUS
370
-3
390
F
  0
LAYER
  5
2D0
100
AcDbSymbolTableRecord
100
AcDbLayerTableRecord
  2
VG_VAR_S05_D7_S4_3_H8_5_850000
 70
0
 62
7
  6
CONTINUOUS
370
-3
390
F
  0
LAYER
  5
2D1
100
AcDbSymbolTableRecord
100
AcDbLayerTableRecord
  2
VG_X-SMT-2-3_2-1_5-1_0_100000
 70
0
 62
7
  6
CONTINUOUS
370
-3
390
F
  0
LAYER
  5
2D2
100
AcDbSymbolTableRecord
100
AcDbLayerTableRecord
  2
VG_X-SMT-2-5_0-3_2-1_5_150000
 70
0
 62
7
  6
CONTINUOUS
370
-3
390
F
  0
LAYER
  5
2D3
100
AcDbSymbolTableRecord
100
AcDbLayerTableRecord
  2
X-SMD-3PIN-3_2-2_5_70000
 70
0
 62
7
  6
CONTINUOUS
370
-3
390
F
  0
LAYER
  5
2D4
100
AcDbSymbolTableRecord
100
AcDbLayerTableRecord
  2
XSEC_DATUMS
 70
0
 62
7
  6
CONTINUOUS
370
-3
390
F
  0
LAYER
  5
2D5
100
AcDbSymbolTableRecord
100
AcDbLayerTableRecord
  2
___SHELL
 70
0
 62
7
  6
CONTINUOUS
370
-3
390
F
  0
ENDTAB
  0
TABLE
  2
STYLE
  5
3
100
AcDbSymbolTable
 70
1
  0
STYLE
  5
11
100
AcDbSymbolTableRecord
100
AcDbTextStyleTableRecord
  2
STANDARD
 70
0
 40
0.0
 41
0.8
 50
0.0
 71
0
 42
0.2
  3
txt
  4

  0
STYLE
  5
2D6
100
AcDbSymbolTableRecord
100
AcDbTextStyleTableRecord
  2
TEXTSTYLE_1
 70
0
 40
0.0
 41
0.8
 50
0.0
 71
0
 42
0.2
  3
gdt
  4

  0
ENDTAB
  0
TABLE
  2
VIEW
  5
6
100
AcDbSymbolTable
 70
0
  0
ENDTAB
  0
TABLE
  2
UCS
  5
7
100
AcDbSymbolTable
 70
0
  0
ENDTAB
  0
TABLE
  2
APPID
  5
9
100
AcDbSymbolTable
 70
1
  0
APPID
  5
2D7
100
AcDbSymbolTableRecord
100
AcDbRegAppTableRecord
  2
ACAD
 70
0
  0
ENDTAB
  0
TABLE
  2
BLOCK_RECORD
  5
1
100
AcDbSymbolTable
 70
0
  0
BLOCK_RECORD
  5
2D8
100
AcDbSymbolTableRecord
100
AcDbBlockTableRecord
  2
*Model_Space
  0
BLOCK_RECORD
  5
2D9
100
AcDbSymbolTableRecord
100
AcDbBlockTableRecord
  2
*Paper_Space
  0
BLOCK_RECORD
  5
2DA
100
AcDbSymbolTableRecord
100
AcDbBlockTableRecord
  2
_FILLED
  0
ENDTAB
  0
TABLE
  2
DIMSTYLE
  5
A
100
AcDbSymbolTable
 70
1
100
AcDbDimStyleTable
 71
0
  0
DIMSTYLE
105
2DB
100
AcDbSymbolTableRecord
100
AcDbDimStyleTableRecord
  2
STANDARD
 70
0
  3

  4

 40
1.0
 41
3.0
 42
0.5
 43
0.38
 44
1.5
 45
0.0
 46
0.0
 47
0.01
 48
0.01
140
3.0
141
0.09
142
0.0
143
25.4
144
1.0
145
0.0
146
1.0
147
0.625
 71
1
 72
0
 73
0
 74
0
 75
0
 76
0
 77
1
 78
8
 79
2
170
0
171
1
172
0
173
0
174
0
175
0
176
0
177
0
178
0
270
2
179
2
271
2
272
2
273
2
274
2
275
0
280
0
281
0
282
0
283
1
284
8
285
0
286
0
287
3
288
0
340
11
278
44
341
2DA
342
2DA
343
2DA
344
2DA
  0
ENDTAB
  0
ENDSEC
  0
SECTION
  2
BLOCKS
  0
BLOCK
  5
20
100
AcDbEntity
  8
0
100
AcDbBlockBegin
  2
*Model_Space
 70
0
 10
0.0
 20
0.0
 30
0.0
  3
*Model_Space
  1

  0
ENDBLK
  5
21
100
AcDbEntity
  8
0
100
AcDbBlockEnd
  0
BLOCK
  5
1C
100
AcDbEntity
  8
0
100
AcDbBlockBegin
  2
*Paper_Space
 70
0
 10
0.0
 20
0.0
 30
0.0
  3
*Paper_Space
  1

  0
ENDBLK
  5
1D
100
AcDbEntity
  8
0
100
AcDbBlockEnd
  0
BLOCK
  5
2DC
100
AcDbEntity
  8
0
100
AcDbBlockBegin
  2
_FILLED
 70
64
 10
0.0
 20
0.0
  3
_FILLED
  1

  0
SOLID
  5
2DD
100
AcDbEntity
  8
0
  6
BYBLOCK
 62
0
100
AcDbTrace
 10
0.0
 20
0.0
 11
-1.0
 21
0.3166666667
 12
-1.0
 22
-0.3166666667
 13
-1.0
 23
-0.3166666667
  0
ENDBLK
  5
2DE
100
AcDbEntity
  8
0
  6
BYBLOCK
 62
0
100
AcDbBlockEnd
  0
ENDSEC
  0
SECTION
  2
ENTITIES
  0
LWPOLYLINE
  5
2DF
100
AcDbEntity
  8
RACCORDO
100
AcDbPolyline
 62
7
  6
CONTINUOUS
 90
25
 70
0
 10
3.9410128369
 20
-24.4987203458
 10
3.9541854631
 20
-24.4985833267
 10
3.9671914845
 20
-24.4981874817
 10
3.9800309013
 20
-24.4975328108
 10
3.9927571141
 20
-24.4966143081
 10
4.0053167222
 20
-24.4954369795
 10
4.0175495234
 20
-24.4940158422
 10
4.0294513314
 20
-24.4923477729
 10
4.0410263325
 20
-24.490435895
 10
4.0521268835
 20
-24.488304595
 10
4.0627469069
 20
-24.4859510622
 10
4.0728924802
 20
-24.4833781073
 10
4.0824341931
 20
-24.4806185493
 10
4.0913643104
 20
-24.4776699979
 10
4.0996905672
 20
-24.4745348433
 10
4.1073067594
 20
-24.4712530756
 10
4.114203791
 20
-24.4678228167
 10
4.120390758
 20
-24.4642459446
 10
4.1257887434
 20
-24.4605680837
 10
4.1303876405
 20
-24.4567879402
 10
4.1341975559
 20
-24.4529068079
 10
4.137169893
 20
-24.4489741919
 10
4.1392884527
 20
-24.4450065939
 10
4.140569434
 20
-24.4409875122
 10
4.1410128369
 20
-24.4369169469
  0
LWPOLYLINE
  5
2E0
100
AcDbEntity
  8
RACCORDO
100
AcDbPolyline
 62
7
  6
CONTINUOUS
 90
25
 70
0
 10
-1.7589871631
 20
-24.4987203458
 10
-1.7458145369
 20
-24.4985833267
 10
-1.7328085155
 20
-24.4981874817
 10
-1.7199690987
 20
-24.4975328108
 10
-1.7072428859
 20
-24.4966143081
 10
-1.6946832778
 20
-24.4954369795
 10
-1.6824504766
 20
-24.4940158422
 10
-1.6705486686
 20
-24.4923477729
 10
-1.6589736675
 20
-24.490435895
 10
-1.6478731165
 20
-24.488304595
 10
-1.6372530931
 20
-24.4859510622
 10
-1.6271075198
 20
-24.4833781073
 10
-1.6175658069
 20
-24.4806185493
 10
-1.6086356896
 20
-24.4776699979
 10
-1.6003094328
 20
-24.4745348433
 10
-1.5926932406
 20
-24.4712530756
 10
-1.585796209
 20
-24.4678228167
 10
-1.579609242
 20
-24.4642459446
 10
-1.5742112566
 20
-24.4605680837
 10
-1.5696123595
 20
-24.4567879402
 10
-1.5658024441
 20
-24.4529068079
 10
-1.562830107
 20
-24.4489741919
 10
-1.5607115473
 20
-24.4450065939
 10
-1.559430566
 20
-24.4409875122
 10
-1.5589871631
 20
-24.4369169469
  0
LINE
  5
2E1
100
AcDbEntity
  8
0
100
AcDbLine
 62
7
  6
CONTINUOUS
 10
5.6410128369
 20
-25.000977411
 11
-6.3589871631
 21
-25.000977411
  0
LINE
  5
2E2
100
AcDbEntity
  8
0
100
AcDbLine
 62
250
  6
CONTINUOUS
 10
5.6410128369
 20
-24.9667169724
 11
-6.3589871631
 21
-24.9667169724
  0
LINE
  5
2E3
100
AcDbEntity
  8
RACCORDO
100
AcDbLine
 62
7
  6
CONTINUOUS
 10
3.9410128369
 20
-24.8791429523
 11
1.0410128369
 21
-24.8791429523
  0
LINE
  5
2E4
100
AcDbEntity
  8
RACCORDO
100
AcDbLine
 62
7
  6
CONTINUOUS
 10
-1.7589871631
 20
-24.8791429523
 11
-4.6589871631
 21
-24.8791429523
  0
LINE
  5
2E5
100
AcDbEntity
  8
RACCORDO
100
AcDbLine
 62
7
  6
CONTINUOUS
 10
3.9410128369
 20
-24.4987203458
 11
1.0410128369
 21
-24.4987203458
  0
LINE
  5
2E6
100
AcDbEntity
  8
RACCORDO
100
AcDbLine
 62
7
  6
CONTINUOUS
 10
-1.7589871631
 20
-24.4987203458
 11
-4.6589871631
 21
-24.4987203458
  0
LINE
  5
2E7
100
AcDbEntity
  8
0
100
AcDbLine
 62
250
  6
CONTINUOUS
 10
4.1410128369
 20
-24.300977411
 11
0.8410128369
 21
-24.300977411
  0
LINE
  5
2E8
100
AcDbEntity
  8
0
100
AcDbLine
 62
250
  6
CONTINUOUS
 10
-1.5589871631
 20
-24.300977411
 11
-4.8589871631
 21
-24.300977411
  0
LINE
  5
2E9
100
AcDbEntity
  8
RACCORDO
100
AcDbLine
 62
7
  6
CONTINUOUS
 10
4.1410128369
 20
-24.000977411
 11
3.5742790717
 21
-24.000977411
  0
LINE
  5
2EA
100
AcDbEntity
  8
RACCORDO
100
AcDbLine
 62
7
  6
CONTINUOUS
 10
-4.2922533979
 20
-24.000977411
 11
-4.8589871631
 21
-24.000977411
  0
LWPOLYLINE
  5
2EB
100
AcDbEntity
  8
RACCORDO
100
AcDbPolyline
 62
7
  6
CONTINUOUS
 90
25
 70
0
 10
-4.6589871631
 20
-24.8791429523
 10
-4.6721597893
 20
-24.8790059333
 10
-4.6851658107
 20
-24.8786100883
 10
-4.6980052275
 20
-24.8779554173
 10
-4.7107314403
 20
-24.8770369146
 10
-4.7232910484
 20
-24.875859586
 10
-4.7355238496
 20
-24.8744384487
 10
-4.7474256575
 20
-24.8727703795
 10
-4.7590006586
 20
-24.8708585015
 10
-4.7701012097
 20
-24.8687272015
 10
-4.7807212331
 20
-24.8663736687
 10
-4.7908668064
 20
-24.8638007138
 10
-4.8004085193
 20
-24.8610411559
 10
-4.8093386366
 20
-24.8580926044
 10
-4.8176648934
 20
-24.8549574498
 10
-4.8252810856
 20
-24.8516756821
 10
-4.8321781172
 20
-24.8482454232
 10
-4.8383650842
 20
-24.8446685512
 10
-4.8437630696
 20
-24.8409906902
 10
-4.8483619667
 20
-24.8372105468
 10
-4.8521718821
 20
-24.8333294144
 10
-4.8551442192
 20
-24.8293967984
 10
-4.8572627789
 20
-24.8254292004
 10
-4.8585437602
 20
-24.8214101188
 10
-4.8589871631
 20
-24.8173395534
  0
LWPOLYLINE
  5
2EC
100
AcDbEntity
  8
RACCORDO
100
AcDbPolyline
 62
7
  6
CONTINUOUS
 90
25
 70
0
 10
1.0410128369
 20
-24.8791429523
 10
1.0278402107
 20
-24.8790059333
 10
1.0148341893
 20
-24.8786100883
 10
1.0019947725
 20
-24.8779554173
 10
0.9892685597
 20
-24.8770369146
 10
0.9767089516
 20
-24.875859586
 10
0.9644761504
 20
-24.8744384487
 10
0.9525743425
 20
-24.8727703795
 10
0.9409993414
 20
-24.8708585015
 10
0.9298987903
 20
-24.8687272015
 10
0.9192787669
 20
-24.8663736687
 10
0.9091331936
 20
-24.8638007138
 10
0.8995914807
 20
-24.8610411559
 10
0.8906613634
 20
-24.8580926044
 10
0.8823351066
 20
-24.8549574498
 10
0.8747189144
 20
-24.8516756821
 10
0.8678218828
 20
-24.8482454232
 10
0.8616349158
 20
-24.8446685512
 10
0.8562369304
 20
-24.8409906902
 10
0.8516380333
 20
-24.8372105468
 10
0.8478281179
 20
-24.8333294144
 10
0.8448557808
 20
-24.8293967984
 10
0.8427372211
 20
-24.8254292004
 10
0.8414562398
 20
-24.8214101188
 10
0.8410128369
 20
-24.8173395534
  0
LWPOLYLINE
  5
2ED
100
AcDbEntity
  8
RACCORDO
100
AcDbPolyline
 62
7
  6
CONTINUOUS
 90
8
 70
0
 10
-4.3089871631
 20
-22.4517262595
 10
-4.2958145369
 20
-22.4515892405
 10
-4.2828085155
 20
-22.4511933955
 10
-4.2699690987
 20
-22.4505387245
 10
-4.2572428859
 20
-22.4496202219
 10
-4.2446832778
 20
-22.4484428932
 10
-4.2324504766
 20
-22.4470217559
 10
-4.2205486686
 20
-22.4453536867
  0
LINE
  5
2EE
100
AcDbEntity
  8
RACCORDO
100
AcDbLine
 62
7
  6
CONTINUOUS
 10
11.7909747549
 20
-23.900977411
 11
10.2910509189
 21
-23.900977411
  0
LINE
  5
2EF
100
AcDbEntity
  8
ASSI
100
AcDbLine
 62
7
  6
CONTINUOUS
 10
11.7909747549
 20
-23.900977411
 11
10.2910509189
 21
-23.900977411
  0
LINE
  5
2F0
100
AcDbEntity
  8
RACCORDO
100
AcDbLine
 62
7
  6
CONTINUOUS
 10
-11.0090252451
 20
-23.900977411
 11
-12.5089490811
 21
-23.900977411
  0
LINE
  5
2F1
100
AcDbEntity
  8
ASSI
100
AcDbLine
 62
7
  6
CONTINUOUS
 10
-11.0090252451
 20
-23.900977411
 11
-12.5089490811
 21
-23.900977411
  0
LINE
  5
2F2
100
AcDbEntity
  8
RACCORDO
100
AcDbLine
 62
7
  6
CONTINUOUS
 10
-4.6589871631
 20
-23.8593868709
 11
-1.7589871631
 21
-23.8593868709
  0
LINE
  5
2F3
100
AcDbEntity
  8
RACCORDO
100
AcDbLine
 62
7
  6
CONTINUOUS
 10
1.0410128369
 20
-23.8593868709
 11
3.9410128369
 21
-23.8593868709
  0
LINE
  5
2F4
100
AcDbEntity
  8
DRAFT
100
AcDbLine
 62
7
  6
CONTINUOUS
 10
3.6195842655
 20
-23.150977411
 11
7.7981084213
 21
-23.150977411
  0
LINE
  5
2F5
100
AcDbEntity
  8
ASSI
100
AcDbLine
 62
7
  6
CONTINUOUS
 10
3.6195842655
 20
-23.150977411
 11
7.7981084213
 21
-23.150977411
  0
LINE
  5
2F6
100
AcDbEntity
  8
DRAFT
100
AcDbLine
 62
7
  6
CONTINUOUS
 10
-4.3375585917
 20
-23.150977411
 11
-8.5160827474
 21
-23.150977411
  0
LINE
  5
2F7
100
AcDbEntity
  8
ASSI
100
AcDbLine
 62
7
  6
CONTINUOUS
 10
-4.3375585917
 20
-23.150977411
 11
-8.5160827474
 21
-23.150977411
  0
LINE
  5
2F8
100
AcDbEntity
  8
RACCORDO
100
AcDbLine
 62
7
  6
CONTINUOUS
 10
-4.3330943059
 20
-22.832148866
 11
-4.3089871631
 21
-22.832148866
  0
LINE
  5
2F9
100
AcDbEntity
  8
RACCORDO
100
AcDbLine
 62
7
  6
CONTINUOUS
 10
3.6151199798
 20
-22.832148866
 11
3.5910128369
 21
-22.832148866
  0
LINE
  5
2FA
100
AcDbEntity
  8
ASSI
100
AcDbLine
 62
250
  6
CONTINUOUS
 10
-6.6004187865
 20
-22.4690369148
 11
-4.4693670636
 21
-22.4690369148
  0
LINE
  5
2FB
100
AcDbEntity
  8
ASSI
100
AcDbLine
 62
250
  6
CONTINUOUS
 10
5.8824444603
 20
-22.4690369148
 11
3.7513927374
 21
-22.4690369148
  0
LINE
  5
2FC
100
AcDbEntity
  8
RACCORDO
100
AcDbLine
 62
7
  6
CONTINUOUS
 10
-4.3330943059
 20
-22.4517262595
 11
-4.3089871631
 21
-22.4517262595
  0
LINE
  5
2FD
100
AcDbEntity
  8
RACCORDO
100
AcDbLine
 62
7
  6
CONTINUOUS
 10
3.6151199798
 20
-22.4517262595
 11
3.5910128369
 21
-22.4517262595
  0
LINE
  5
2FE
100
AcDbEntity
  8
0
100
AcDbLine
 62
7
  6
CONTINUOUS
 10
-4.3330943059
 20
-22.400977411
 11
-4.1122947029
 21
-22.400977411
  0
LINE
  5
2FF
100
AcDbEntity
  8
ASSI
100
AcDbLine
 62
7
  6
CONTINUOUS
 10
-4.3330943059
 20
-22.400977411
 11
-4.1089871631
 21
-22.400977411
  0
LINE
  5
300
100
AcDbEntity
  8
0
100
AcDbLine
 62
7
  6
CONTINUOUS
 10
3.3943203767
 20
-22.400977411
 11
3.6151199798
 21
-22.400977411
  0
LINE
  5
301
100
AcDbEntity
  8
ASSI
100
AcDbLine
 62
7
  6
CONTINUOUS
 10
3.3910128369
 20
-22.400977411
 11
3.6151199798
 21
-22.400977411
  0
LINE
  5
302
100
AcDbEntity
  8
ASSI
100
AcDbLine
 62
7
  6
CONTINUOUS
 10
7.7981084213
 20
-22.400977411
 11
10.0410128369
 21
-22.400977411
  0
LINE
  5
303
100
AcDbEntity
  8
ASSI
100
AcDbLine
 62
7
  6
CONTINUOUS
 10
-8.5160827474
 20
-22.400977411
 11
-10.7589871631
 21
-22.400977411
  0
LINE
  5
304
100
AcDbEntity
  8
0
100
AcDbLine
 62
250
  6
CONTINUOUS
 10
3.3910128369
 20
-22.1569282757
 11
-4.1089871631
 21
-22.1569282757
  0
LWPOLYLINE
  5
305
100
AcDbEntity
  8
RACCORDO
100
AcDbPolyline
 62
7
  6
CONTINUOUS
 90
25
 70
0
 10
-1.7589871631
 20
-23.8593868709
 10
-1.7458145369
 20
-23.8595238899
 10
-1.7328085155
 20
-23.8599197349
 10
-1.7199690987
 20
-23.8605744058
 10
-1.7072428859
 20
-23.8614929085
 10
-1.6946832778
 20
-23.8626702371
 10
-1.6824504766
 20
-23.8640913745
 10
-1.6705486686
 20
-23.8657594437
 10
-1.6589736675
 20
-23.8676713216
 10
-1.6478731165
 20
-23.8698026216
 10
-1.6372530931
 20
-23.8721561544
 10
-1.6271075198
 20
-23.8747291093
 10
-1.6175658069
 20
-23.8774886673
 10
-1.6086356896
 20
-23.8804372187
 10
-1.6003094328
 20
-23.8835723733
 10
-1.5926932406
 20
-23.886854141
 10
-1.585796209
 20
-23.8902843999
 10
-1.579609242
 20
-23.893861272
 10
-1.5742112566
 20
-23.8975391329
 10
-1.5696123595
 20
-23.9013192764
 10
-1.5658024441
 20
-23.9052004087
 10
-1.562830107
 20
-23.9091330247
 10
-1.5607115473
 20
-23.9131006227
 10
-1.559430566
 20
-23.9171197044
 10
-1.5589871631
 20
-23.9211902697
  0
LWPOLYLINE
  5
306
100
AcDbEntity
  8
RACCORDO
100
AcDbPolyline
 62
7
  6
CONTINUOUS
 90
25
 70
0
 10
3.9410128369
 20
-23.8593868709
 10
3.9541854631
 20
-23.8595238899
 10
3.9671914845
 20
-23.8599197349
 10
3.9800309013
 20
-23.8605744058
 10
3.9927571141
 20
-23.8614929085
 10
4.0053167222
 20
-23.8626702371
 10
4.0175495234
 20
-23.8640913745
 10
4.0294513314
 20
-23.8657594437
 10
4.0410263325
 20
-23.8676713216
 10
4.0521268835
 20
-23.8698026216
 10
4.0627469069
 20
-23.8721561544
 10
4.0728924802
 20
-23.8747291093
 10
4.0824341931
 20
-23.8774886673
 10
4.0913643104
 20
-23.8804372187
 10
4.0996905672
 20
-23.8835723733
 10
4.1073067594
 20
-23.886854141
 10
4.114203791
 20
-23.8902843999
 10
4.120390758
 20
-23.893861272
 10
4.1257887434
 20
-23.8975391329
 10
4.1303876405
 20
-23.9013192764
 10
4.1341975559
 20
-23.9052004087
 10
4.137169893
 20
-23.9091330247
 10
4.1392884527
 20
-23.9131006227
 10
4.140569434
 20
-23.9171197044
 10
4.1410128369
 20
-23.9211902697
  0
LWPOLYLINE
  5
307
100
AcDbEntity
  8
RACCORDO
100
AcDbPolyline
 62
7
  6
CONTINUOUS
 90
25
 70
0
 10
3.5910128369
 20
-22.832148866
 10
3.5778402107
 20
-22.832011847
 10
3.5648341893
 20
-22.831616002
 10
3.5519947725
 20
-22.830961331
 10
3.5392685597
 20
-22.8300428284
 10
3.5267089516
 20
-22.8288654998
 10
3.5144761504
 20
-22.8274443624
 10
3.5025743425
 20
-22.8257762932
 10
3.4909993414
 20
-22.8238644152
 10
3.4798987903
 20
-22.8217331152
 10
3.4692787669
 20
-22.8193795824
 10
3.4591331936
 20
-22.8168066276
 10
3.4495914807
 20
-22.8140470696
 10
3.4406613634
 20
-22.8110985181
 10
3.4323351066
 20
-22.8079633636
 10
3.4247189144
 20
-22.8046815959
 10
3.4178218828
 20
-22.8012513369
 10
3.4116349158
 20
-22.7976744649
 10
3.4062369304
 20
-22.793996604
 10
3.4016380333
 20
-22.7902164605
 10
3.3978281179
 20
-22.7863353282
 10
3.3948557808
 20
-22.7824027121
 10
3.3927372211
 20
-22.7784351142
 10
3.3914562398
 20
-22.7744160325
 10
3.3910128369
 20
-22.7703454671
  0
LWPOLYLINE
  5
308
100
AcDbEntity
  8
RACCORDO
100
AcDbPolyline
 62
7
  6
CONTINUOUS
 90
4
 70
0
 10
3.5519947725
 20
-22.4505387245
 10
3.5648341893
 20
-22.4511933955
 10
3.5778402107
 20
-22.4515892405
 10
3.5910128369
 20
-22.4517262595
  0
LWPOLYLINE
  5
309
100
AcDbEntity
  8
RACCORDO
100
AcDbPolyline
 62
7
  6
CONTINUOUS
 90
18
 70
0
 10
-4.2205486686
 20
-22.4453536867
 10
-4.2089736675
 20
-22.4434418087
 10
-4.1978731165
 20
-22.4413105087
 10
-4.1872530931
 20
-22.4389569759
 10
-4.1771075198
 20
-22.4363840211
 10
-4.1675658069
 20
-22.4336244631
 10
-4.1586356896
 20
-22.4306759116
 10
-4.1503094328
 20
-22.427540757
 10
-4.1426932406
 20
-22.4242589893
 10
-4.135796209
 20
-22.4208287304
 10
-4.129609242
 20
-22.4172518584
 10
-4.1242112566
 20
-22.4135739974
 10
-4.1196123595
 20
-22.409793854
 10
-4.1158024441
 20
-22.4059127216
 10
-4.112830107
 20
-22.4019801056
 10
-4.1107115473
 20
-22.3980125076
 10
-4.109430566
 20
-22.393993426
 10
-4.1089871631
 20
-22.3899228606
  0
LINE
  5
30A
100
AcDbEntity
  8
ASSI
100
AcDbLine
 62
250
  6
CONTINUOUS
 10
5.2689494525
 20
-21.600977411
 11
4.6321241244
 21
-21.6455085759
  0
LWPOLYLINE
  5
30B
100
AcDbEntity
  8
0
100
AcDbPolyline
 62
250
  6
CONTINUOUS
 90
34
 70
0
 10
5.3231443104
 20
-20.5018715896
 10
5.3585799992
 20
-20.5008271209
 10
5.393893603
 20
-20.4989599924
 10
5.4290851219
 20
-20.496270204
 10
5.4641571119
 20
-20.4927557217
 10
5.499107017
 20
-20.4884185795
 10
5.5339271687
 20
-20.4832648799
 10
5.5686344186
 20
-20.4772928706
 10
5.603211915
 20
-20.4705043039
 10
5.637601435
 20
-20.4629105399
 10
5.6718022442
 20
-20.454510303
 10
5.7058150769
 20
-20.4453048688
 10
5.7395839134
 20
-20.4353094237
 10
5.7731084443
 20
-20.4245226374
 10
5.806388979
 20
-20.4129458402
 10
5.839370427
 20
-20.4005982102
 10
5.872052174
 20
-20.3874785294
 10
5.9044348344
 20
-20.3735880157
 10
5.9364651606
 20
-20.3589495009
 10
5.9681431517
 20
-20.3435613995
 10
5.9994688086
 20
-20.3274252971
 10
6.0303888867
 20
-20.3105687818
 10
6.0608891802
 20
-20.2930007876
 10
6.0909838949
 20
-20.2747123806
 10
6.1206624035
 20
-20.2557043473
 10
6.1499401438
 20
-20.2359674231
 10
6.1788016779
 20
-20.2155108726
 10
6.2071900645
 20
-20.194363276
 10
6.2351096208
 20
-20.1725178247
 10
6.2625560295
 20
-20.1499813273
 10
6.2894593985
 20
-20.1268027898
 10
6.3157964303
 20
-20.1029985477
 10
6.3415904223
 20
-20.0785522655
 10
6.3668413745
 20
-20.0534639433
  0
LINE
  5
30C
100
AcDbEntity
  8
0
100
AcDbLine
 62
7
  6
CONTINUOUS
 10
-0.3589871631
 20
-21.100977411
 11
5.3231443104
 21
-21.0017954372
  0
LINE
  5
30D
100
AcDbEntity
  8
0
100
AcDbLine
 62
250
  6
CONTINUOUS
 10
-0.3589871631
 20
-20.6010535634
 11
5.3231443104
 21
-20.5018715896
  0
LINE
  5
30E
100
AcDbEntity
  8
ASSI
100
AcDbLine
 62
250
  6
CONTINUOUS
 10
-6.6096068514
 20
-21.7172828182
 11
-5.3500984506
 21
-21.7172828182
  0
LINE
  5
30F
100
AcDbEntity
  8
ASSI
100
AcDbLine
 62
250
  6
CONTINUOUS
 10
5.8916325252
 20
-21.7172828182
 11
4.6321241244
 21
-21.7172828182
  0
LINE
  5
310
100
AcDbEntity
  8
RACCORDO
100
AcDbLine
 62
250
  6
CONTINUOUS
 10
6.6410128369
 20
-21.600977411
 11
5.2689494525
 21
-21.600977411
  0
LINE
  5
311
100
AcDbEntity
  8
ASSI
100
AcDbLine
 62
250
  6
CONTINUOUS
 10
6.6410128369
 20
-21.600977411
 11
5.2689494525
 21
-21.600977411
  0
LINE
  5
312
100
AcDbEntity
  8
RACCORDO
100
AcDbLine
 62
250
  6
CONTINUOUS
 10
-5.9869237787
 20
-21.600977411
 11
-7.3589871631
 21
-21.600977411
  0
LINE
  5
313
100
AcDbEntity
  8
ASSI
100
AcDbLine
 62
250
  6
CONTINUOUS
 10
-5.9869237787
 20
-21.600977411
 11
-7.3589871631
 21
-21.600977411
  0
LINE
  5
314
100
AcDbEntity
  8
0
100
AcDbLine
 62
7
  6
CONTINUOUS
 10
10.9067223953
 20
-20.800977411
 11
10.0410128369
 21
-20.800977411
  0
LINE
  5
315
100
AcDbEntity
  8
DRAFT
100
AcDbLine
 62
7
  6
CONTINUOUS
 10
8.9012199894
 20
-20.800977411
 11
6.91010982
 21
-20.800977411
  0
LINE
  5
316
100
AcDbEntity
  8
DRAFT
100
AcDbLine
 62
7
  6
CONTINUOUS
 10
-7.6280841462
 20
-20.800977411
 11
-9.6191943156
 21
-20.800977411
  0
LINE
  5
317
100
AcDbEntity
  8
ASSI
100
AcDbLine
 62
7
  6
CONTINUOUS
 10
6.91010982
 20
-20.800977411
 11
10.9067223953
 21
-20.800977411
  0
LINE
  5
318
100
AcDbEntity
  8
0
100
AcDbLine
 62
7
  6
CONTINUOUS
 10
-10.7589871631
 20
-20.800977411
 11
-11.6246967215
 21
-20.800977411
  0
LINE
  5
319
100
AcDbEntity
  8
ASSI
100
AcDbLine
 62
7
  6
CONTINUOUS
 10
-7.6280841462
 20
-20.800977411
 11
-11.6246967215
 21
-20.800977411
  0
LINE
  5
31A
100
AcDbEntity
  8
0
100
AcDbLine
 62
250
  6
CONTINUOUS
 10
-7.3589871631
 20
-20.4874433249
 11
-5.393891976
 21
-20.513168973
  0
LINE
  5
31B
100
AcDbEntity
  8
0
100
AcDbLine
 62
7
  6
CONTINUOUS
 10
-6.8677133663
 20
-20.9873671725
 11
-0.3589871631
 21
-21.100977411
  0
LINE
  5
31C
100
AcDbEntity
  8
0
100
AcDbLine
 62
250
  6
CONTINUOUS
 10
-5.393891976
 20
-20.513168973
 11
-0.3589871631
 21
-20.6010535634
  0
LINE
  5
31D
100
AcDbEntity
  8
ASSI
100
AcDbLine
 62
250
  6
CONTINUOUS
 10
-5.9869237787
 20
-21.600977411
 11
-5.3500984506
 21
-21.6455085759
  0
LWPOLYLINE
  5
31E
100
AcDbEntity
  8
ASSI
100
AcDbPolyline
 62
7
  6
CONTINUOUS
 90
12
 70
0
 10
-4.4693670636
 20
-22.4690369148
 10
-4.4800893848
 20
-22.461669778
 10
-4.491411544
 20
-22.4537126703
 10
-4.503333541
 20
-22.4451548704
 10
-4.5158476767
 20
-22.4359852015
 10
-4.5289616502
 20
-22.426194986
 10
-4.5426985597
 20
-22.4157786448
 10
-4.5570568684
 20
-22.4047312421
 10
-4.5720381131
 20
-22.3930431965
 10
-4.5876700018
 20
-22.38070286
 10
-4.603950214
 20
-22.3677069353
 10
-4.6208810703
 20
-22.3540475809
  0
LINE
  5
31F
100
AcDbEntity
  8
0
100
AcDbLine
 62
7
  6
CONTINUOUS
 10
-9.6010102278
 20
19.3569995243
 11
-11.2160939443
 21
17.7419158078
  0
LINE
  5
320
100
AcDbEntity
  8
0
100
AcDbLine
 62
250
  6
CONTINUOUS
 10
-8.9113558531
 20
18.6498927431
 11
-10.5264395695
 21
17.0348090266
  0
LINE
  5
321
100
AcDbEntity
  8
DRAFT
100
AcDbLine
 62
7
  6
CONTINUOUS
 10
-7.7589871631
 20
19.799022589
 11
-7.6280841462
 21
19.9299256059
  0
LINE
  5
322
100
AcDbEntity
  8
ASSI
100
AcDbLine
 62
7
  6
CONTINUOUS
 10
-7.7589871631
 20
19.799022589
 11
-7.6280841462
 21
19.9299256059
  0
LINE
  5
323
100
AcDbEntity
  8
DRAFT
100
AcDbLine
 62
7
  6
CONTINUOUS
 10
-7.128380492
 20
19.9296292601
 11
-7.0892160617
 21
19.9687930802
  0
LINE
  5
324
100
AcDbEntity
  8
ASSI
100
AcDbLine
 62
7
  6
CONTINUOUS
 10
-7.128380492
 20
19.9296292601
 11
-7.0892160617
 21
19.9687930802
  0
LINE
  5
325
100
AcDbEntity
  8
ASSI
100
AcDbLine
 62
7
  6
CONTINUOUS
 10
-5.3500984506
 20
21.9153279962
 11
-5.2259024037
 21
22.0263693068
  0
LINE
  5
326
100
AcDbEntity
  8
ASSI
100
AcDbLine
 62
7
  6
CONTINUOUS
 10
-5.2259024037
 20
22.0263693068
 11
-5.1027539115
 21
22.1361188207
  0
LINE
  5
327
100
AcDbEntity
  8
ASSI
100
AcDbLine
 62
7
  6
CONTINUOUS
 10
-5.1027539115
 20
22.1361188207
 11
-5.0144905859
 21
22.2143792136
  0
LINE
  5
328
100
AcDbEntity
  8
ASSI
100
AcDbLine
 62
7
  6
CONTINUOUS
 10
-5.0144905859
 20
22.2143792136
 11
-4.9312923772
 21
22.2876543629
  0
LINE
  5
329
100
AcDbEntity
  8
ASSI
100
AcDbLine
 62
7
  6
CONTINUOUS
 10
-4.9312923772
 20
22.2876543629
 11
-4.8788639461
 21
22.3335022142
  0
LINE
  5
32A
100
AcDbEntity
  8
ASSI
100
AcDbLine
 62
7
  6
CONTINUOUS
 10
-4.8788639461
 20
22.3335022142
 11
-4.8289373666
 21
22.3768387851
  0
LINE
  5
32B
100
AcDbEntity
  8
ASSI
100
AcDbLine
 62
7
  6
CONTINUOUS
 10
-4.8289373666
 20
22.3768387851
 11
-4.7815891044
 21
22.417599332
  0
LINE
  5
32C
100
AcDbEntity
  8
ASSI
100
AcDbLine
 62
7
  6
CONTINUOUS
 10
-4.7815891044
 20
22.417599332
 11
-4.7370885413
 21
22.4555251104
  0
LINE
  5
32D
100
AcDbEntity
  8
ASSI
100
AcDbLine
 62
7
  6
CONTINUOUS
 10
-4.7370885413
 20
22.4555251104
 11
-4.6955029748
 21
22.4905557538
  0
LINE
  5
32E
100
AcDbEntity
  8
ASSI
100
AcDbLine
 62
7
  6
CONTINUOUS
 10
-4.6955029748
 20
22.4905557538
 11
-4.656809249
 21
22.5227123932
  0
LWPOLYLINE
  5
32F
100
AcDbEntity
  8
ASSI
100
AcDbPolyline
 62
7
  6
CONTINUOUS
 90
13
 70
0
 10
-4.656809249
 20
22.5227123932
 10
-4.6208902515
 20
22.5520853153
 10
-4.6039589532
 20
22.5657450928
 10
-4.5876781988
 20
22.5787415294
 10
-4.5720456713
 20
22.5910824402
 10
-4.5570636877
 20
22.6027711241
 10
-4.5427044642
 20
22.6138193112
 10
-4.5289663119
 20
22.6242366798
 10
-4.5158509197
 20
22.6340280012
 10
-4.5033355705
 20
22.6431985751
 10
-4.4914126918
 20
22.6517570171
 10
-4.4800898562
 20
22.6597146101
 10
-4.4693670636
 20
22.6670820928
  0
LINE
  5
330
100
AcDbEntity
  8
0
100
AcDbLine
 62
250
  6
CONTINUOUS
 10
-5.393891976
 20
-20.188785849
 11
-0.3589871631
 21
-20.1009012586
  0
LINE
  5
331
100
AcDbEntity
  8
0
100
AcDbLine
 62
7
  6
CONTINUOUS
 10
-6.8677133663
 20
-19.7145876495
 11
8.1933815269
 21
-19.4516952602
  0
LINE
  5
332
100
AcDbEntity
  8
0
100
AcDbLine
 62
250
  6
CONTINUOUS
 10
-0.3589871631
 20
-18.6011297158
 11
8.1933815269
 21
-18.4518475651
  0
LINE
  5
333
100
AcDbEntity
  8
0
100
AcDbLine
 62
250
  6
CONTINUOUS
 10
-7.3589871631
 20
-20.214511497
 11
-5.393891976
 21
-20.188785849
  0
LINE
  5
334
100
AcDbEntity
  8
DRAFT
100
AcDbLine
 62
7
  6
CONTINUOUS
 10
-7.6280841462
 20
-19.7318804278
 11
-7.3589871631
 21
-19.7318804278
  0
LINE
  5
335
100
AcDbEntity
  8
ASSI
100
AcDbLine
 62
7
  6
CONTINUOUS
 10
-7.6280841462
 20
-19.7318804278
 11
-7.3589871631
 21
-19.7318804278
  0
LINE
  5
336
100
AcDbEntity
  8
DRAFT
100
AcDbLine
 62
7
  6
CONTINUOUS
 10
-7.128380492
 20
-19.7315840821
 11
-6.9884427413
 21
-19.7315840821
  0
LINE
  5
337
100
AcDbEntity
  8
ASSI
100
AcDbLine
 62
7
  6
CONTINUOUS
 10
-7.128380492
 20
-19.7315840821
 11
-6.9884427413
 21
-19.7315840821
  0
LINE
  5
338
100
AcDbEntity
  8
DRAFT
100
AcDbLine
 62
7
  6
CONTINUOUS
 10
-7.7589871631
 20
-19.600977411
 11
-6.3589871631
 21
-19.600977411
  0
LINE
  5
339
100
AcDbEntity
  8
ASSI
100
AcDbLine
 62
7
  6
CONTINUOUS
 10
-7.7589871631
 20
-19.600977411
 11
-6.3589871631
 21
-19.600977411
  0
LINE
  5
33A
100
AcDbEntity
  8
0
100
AcDbLine
 62
7
  6
CONTINUOUS
 10
-6.3589871631
 20
-19.6962470214
 11
-6.0879833262
 21
-19.700977411
  0
LINE
  5
33B
100
AcDbEntity
  8
0
100
AcDbLine
 62
7
  6
CONTINUOUS
 10
-8.9113558531
 20
-19.4516952602
 11
-0.3589871631
 21
-19.600977411
  0
LINE
  5
33C
100
AcDbEntity
  8
0
100
AcDbLine
 62
250
  6
CONTINUOUS
 10
-8.9113558531
 20
-18.4518475651
 11
-0.3589871631
 21
-18.6011297158
  0
LINE
  5
33D
100
AcDbEntity
  8
ASSI
100
AcDbLine
 62
7
  6
CONTINUOUS
 10
-4.6208810703
 20
-22.3540475809
 11
-4.6567993263
 21
-22.3246754051
  0
LINE
  5
33E
100
AcDbEntity
  8
ASSI
100
AcDbLine
 62
7
  6
CONTINUOUS
 10
-4.6567993263
 20
-22.3246754051
 11
-4.6954923084
 21
-22.2925195026
  0
LINE
  5
33F
100
AcDbEntity
  8
ASSI
100
AcDbLine
 62
7
  6
CONTINUOUS
 10
-4.6954923084
 20
-22.2925195026
 11
-4.737076351
 21
-22.2574902591
  0
LINE
  5
340
100
AcDbEntity
  8
ASSI
100
AcDbLine
 62
7
  6
CONTINUOUS
 10
-4.737076351
 20
-22.2574902591
 11
-4.7815751072
 21
-22.2195661375
  0
LINE
  5
341
100
AcDbEntity
  8
ASSI
100
AcDbLine
 62
7
  6
CONTINUOUS
 10
-4.7815751072
 20
-22.2195661375
 11
-4.8289217396
 21
-22.1788071185
  0
LINE
  5
342
100
AcDbEntity
  8
ASSI
100
AcDbLine
 62
7
  6
CONTINUOUS
 10
-4.8289217396
 20
-22.1788071185
 11
-4.8788483578
 21
-22.1354706274
  0
LINE
  5
343
100
AcDbEntity
  8
ASSI
100
AcDbLine
 62
7
  6
CONTINUOUS
 10
-4.8788483578
 20
-22.1354706274
 11
-4.958417292
 21
-22.065792663
  0
LINE
  5
344
100
AcDbEntity
  8
ASSI
100
AcDbLine
 62
7
  6
CONTINUOUS
 10
-4.958417292
 20
-22.065792663
 11
-5.043393128
 21
-21.9907697117
  0
LINE
  5
345
100
AcDbEntity
  8
ASSI
100
AcDbLine
 62
7
  6
CONTINUOUS
 10
-5.043393128
 20
-21.9907697117
 11
-5.1331574838
 21
-21.9110403917
  0
LINE
  5
346
100
AcDbEntity
  8
ASSI
100
AcDbLine
 62
7
  6
CONTINUOUS
 10
-5.1331574838
 20
-21.9110403917
 11
-5.3500984506
 21
-21.7172828182
  0
LINE
  5
347
100
AcDbEntity
  8
0
100
AcDbLine
 62
7
  6
CONTINUOUS
 10
-11.2160939443
 20
-17.5438706298
 11
-9.6010102278
 21
-19.1589543462
  0
LINE
  5
348
100
AcDbEntity
  8
0
100
AcDbLine
 62
250
  6
CONTINUOUS
 10
-10.5264395695
 20
-16.8367638486
 11
-8.9113558531
 21
-18.4518475651
  0
LINE
  5
349
100
AcDbEntity
  8
DRAFT
100
AcDbLine
 62
7
  6
CONTINUOUS
 10
-7.7589871631
 20
-19.600977411
 11
-7.6280841462
 21
-19.7318804278
  0
LINE
  5
34A
100
AcDbEntity
  8
ASSI
100
AcDbLine
 62
7
  6
CONTINUOUS
 10
-7.7589871631
 20
-19.600977411
 11
-7.6280841462
 21
-19.7318804278
  0
LINE
  5
34B
100
AcDbEntity
  8
DRAFT
100
AcDbLine
 62
7
  6
CONTINUOUS
 10
-7.128380492
 20
-19.7315840821
 11
-7.0892160617
 21
-19.7707479022
  0
LINE
  5
34C
100
AcDbEntity
  8
ASSI
100
AcDbLine
 62
7
  6
CONTINUOUS
 10
-7.128380492
 20
-19.7315840821
 11
-7.0892160617
 21
-19.7707479022
  0
LWPOLYLINE
  5
34D
100
AcDbEntity
  8
0
100
AcDbPolyline
 62
250
  6
CONTINUOUS
 90
12
 70
0
 10
-5.393891976
 20
21.2111379986
 10
-5.3941910506
 20
21.2108282635
 10
-5.3944791336
 20
21.2099100615
 10
-5.3947558741
 20
21.208384511
 10
-5.3950209351
 20
21.2062534698
 10
-5.3952739937
 20
21.2035195333
 10
-5.3955147418
 20
21.2001860312
 10
-5.3957428861
 20
21.1962570231
 10
-5.3959581489
 20
21.1917372941
 10
-5.3961602679
 20
21.1866323486
 10
-5.396348997
 20
21.1809484039
 10
-5.3966853827
 20
21.1678719028
  0
LINE
  5
34E
100
AcDbEntity
  8
RACCORDO
100
AcDbLine
 62
250
  6
CONTINUOUS
 10
10.7362824473
 20
-18.000977411
 11
10.0410128369
 21
-18.000977411
  0
LINE
  5
34F
100
AcDbEntity
  8
ASSI
100
AcDbLine
 62
250
  6
CONTINUOUS
 10
10.7362824473
 20
-18.000977411
 11
10.0410128369
 21
-18.000977411
  0
LINE
  5
350
100
AcDbEntity
  8
RACCORDO
100
AcDbLine
 62
250
  6
CONTINUOUS
 10
-10.7589871631
 20
-18.000977411
 11
-11.4542567735
 21
-18.000977411
  0
LINE
  5
351
100
AcDbEntity
  8
ASSI
100
AcDbLine
 62
250
  6
CONTINUOUS
 10
-10.7589871631
 20
-18.000977411
 11
-11.4542567735
 21
-18.000977411
  0
LINE
  5
352
100
AcDbEntity
  8
0
100
AcDbLine
 62
250
  6
CONTINUOUS
 10
9.8084652433
 20
-16.8367638486
 11
10.7910128369
 21
-16.8367638486
  0
LINE
  5
353
100
AcDbEntity
  8
0
100
AcDbLine
 62
250
  6
CONTINUOUS
 10
-10.5264395695
 20
-16.8367638486
 11
-11.5089871631
 21
-16.8367638486
  0
LINE
  5
354
100
AcDbEntity
  8
DRAFT
100
AcDbLine
 62
7
  6
CONTINUOUS
 10
-11.5089871631
 20
10.9744719397
 11
-11.5432776047
 21
10.9401814982
  0
LINE
  5
355
100
AcDbEntity
  8
ASSI
100
AcDbLine
 62
7
  6
CONTINUOUS
 10
-11.5089871631
 20
10.9744719397
 11
-11.5432776047
 21
10.9401814982
  0
LINE
  5
356
100
AcDbEntity
  8
CURVE
100
AcDbLine
 62
250
  6
CONTINUOUS
 10
3.6423209733
 20
-15.9724059633
 11
5.142092516
 21
-15.9724059633
  0
LINE
  5
357
100
AcDbEntity
  8
CURVE
100
AcDbLine
 62
250
  6
CONTINUOUS
 10
4.7135863418
 20
-15.5438345155
 11
4.0708271028
 21
-15.5438345155
  0
LINE
  5
358
100
AcDbEntity
  8
CURVE
100
AcDbLine
 62
250
  6
CONTINUOUS
 10
6.7846994055
 20
-14.900977411
 11
6.1419402112
 21
-14.900977411
  0
LINE
  5
359
100
AcDbEntity
  8
CURVE
100
AcDbLine
 62
250
  6
CONTINUOUS
 10
4.0708271028
 20
-14.7938346049
 11
4.7135863418
 21
-14.7938346049
  0
LINE
  5
35A
100
AcDbEntity
  8
DRAFT
100
AcDbLine
 62
7
  6
CONTINUOUS
 10
-11.5089871631
 20
-10.7764267617
 11
-11.5432776047
 21
-10.7421363201
  0
LINE
  5
35B
100
AcDbEntity
  8
ASSI
100
AcDbLine
 62
7
  6
CONTINUOUS
 10
-11.5089871631
 20
-10.7764267617
 11
-11.5432776047
 21
-10.7421363201
  0
LINE
  5
35C
100
AcDbEntity
  8
ASSI
100
AcDbLine
 62
7
  6
CONTINUOUS
 10
4.6321241244
 20
21.843553754
 11
4.3460065756
 21
21.6077028699
  0
LINE
  5
35D
100
AcDbEntity
  8
ASSI
100
AcDbLine
 62
7
  6
CONTINUOUS
 10
4.3460065756
 20
21.6077028699
 11
4.2654794713
 21
21.5419346751
  0
LINE
  5
35E
100
AcDbEntity
  8
ASSI
100
AcDbLine
 62
7
  6
CONTINUOUS
 10
4.2654794713
 20
21.5419346751
 11
4.1894403285
 21
21.4803017374
  0
LINE
  5
35F
100
AcDbEntity
  8
ASSI
100
AcDbLine
 62
7
  6
CONTINUOUS
 10
4.1894403285
 20
21.4803017374
 11
4.1181220525
 21
21.4230630074
  0
LINE
  5
360
100
AcDbEntity
  8
ASSI
100
AcDbLine
 62
7
  6
CONTINUOUS
 10
4.1181220525
 20
21.4230630074
 11
4.0733080281
 21
21.387468256
  0
LINE
  5
361
100
AcDbEntity
  8
ASSI
100
AcDbLine
 62
7
  6
CONTINUOUS
 10
4.0733080281
 20
21.387468256
 11
4.0308601341
 21
21.3540767324
  0
LINE
  5
362
100
AcDbEntity
  8
ASSI
100
AcDbLine
 62
7
  6
CONTINUOUS
 10
4.0308601341
 20
21.3540767324
 11
3.99089319
 21
21.3229971098
  0
LINE
  5
363
100
AcDbEntity
  8
ASSI
100
AcDbLine
 62
7
  6
CONTINUOUS
 10
3.99089319
 20
21.3229971098
 11
3.9534299683
 21
21.2942488418
  0
LWPOLYLINE
  5
364
100
AcDbEntity
  8
ASSI
100
AcDbPolyline
 62
7
  6
CONTINUOUS
 90
6
 70
0
 10
3.9534299683
 20
21.2942488418
 10
3.9184235617
 20
21.2677969338
 10
3.9018138257
 20
21.2554135072
 10
3.8857913079
 20
21.2435841293
 10
3.8703558216
 20
21.2323061451
 10
3.8607453109
 20
21.2253668847
  0
LINE
  5
365
100
AcDbEntity
  8
CURVE
100
AcDbLine
 62
250
  6
CONTINUOUS
 10
4.7135863418
 20
-14.3652632019
 11
4.0708271028
 21
-14.3652632019
  0
LINE
  5
366
100
AcDbEntity
  8
CURVE
100
AcDbLine
 62
250
  6
CONTINUOUS
 10
7.4274586668
 20
-14.2581202617
 11
6.9989525149
 21
-14.2581202617
  0
LINE
  5
367
100
AcDbEntity
  8
CURVE
100
AcDbLine
 62
250
  6
CONTINUOUS
 10
7.2132055797
 20
-13.829548814
 11
6.5704463407
 21
-13.829548814
  0
LINE
  5
368
100
AcDbEntity
  8
CURVE
100
AcDbLine
 62
250
  6
CONTINUOUS
 10
4.0708271028
 20
-13.6152632019
 11
4.7135863418
 21
-13.6152632019
  0
LINE
  5
369
100
AcDbEntity
  8
CURVE
100
AcDbLine
 62
250
  6
CONTINUOUS
 10
6.5704463407
 20
-13.079548814
 11
7.2132055797
 21
-13.079548814
  0
LINE
  5
36A
100
AcDbEntity
  8
CURVE
100
AcDbLine
 62
250
  6
CONTINUOUS
 10
1.642625583
 20
-15.650977411
 11
0.8927398116
 21
-15.3403172392
  0
LWPOLYLINE
  5
36B
100
AcDbEntity
  8
ASSI
100
AcDbPolyline
 62
7
  6
CONTINUOUS
 90
5
 70
0
 10
3.8607453098
 20
-21.0273217067
 10
3.8703559104
 20
-21.0342610346
 10
3.8857913138
 20
-21.0455389584
 10
3.9018137735
 20
-21.0573682905
 10
3.9184235062
 20
-21.0697517127
  0
LINE
  5
36C
100
AcDbEntity
  8
ASSI
100
AcDbLine
 62
7
  6
CONTINUOUS
 10
3.9184235062
 20
-21.0697517127
 11
3.9534299525
 21
-21.0962036517
  0
LINE
  5
36D
100
AcDbEntity
  8
ASSI
100
AcDbLine
 62
7
  6
CONTINUOUS
 10
3.9534299525
 20
-21.0962036517
 11
3.990893124
 21
-21.1249518841
  0
LINE
  5
36E
100
AcDbEntity
  8
ASSI
100
AcDbLine
 62
7
  6
CONTINUOUS
 10
3.990893124
 20
-21.1249518841
 11
4.03086035
 21
-21.1560317161
  0
LINE
  5
36F
100
AcDbEntity
  8
ASSI
100
AcDbLine
 62
7
  6
CONTINUOUS
 10
4.03086035
 20
-21.1560317161
 11
4.073308708
 21
-21.1894236155
  0
LINE
  5
370
100
AcDbEntity
  8
ASSI
100
AcDbLine
 62
7
  6
CONTINUOUS
 10
4.073308708
 20
-21.1894236155
 11
4.1181222445
 21
-21.22501799
  0
LINE
  5
371
100
AcDbEntity
  8
ASSI
100
AcDbLine
 62
7
  6
CONTINUOUS
 10
4.1181222445
 20
-21.22501799
 11
4.1894403438
 21
-21.2822565694
  0
LINE
  5
372
100
AcDbEntity
  8
ASSI
100
AcDbLine
 62
7
  6
CONTINUOUS
 10
4.1894403438
 20
-21.2822565694
 11
4.2654796585
 21
-21.3438896488
  0
LINE
  5
373
100
AcDbEntity
  8
ASSI
100
AcDbLine
 62
7
  6
CONTINUOUS
 10
4.2654796585
 20
-21.3438896488
 11
4.346006724
 21
-21.4096578137
  0
LINE
  5
374
100
AcDbEntity
  8
ASSI
100
AcDbLine
 62
7
  6
CONTINUOUS
 10
4.346006724
 20
-21.4096578137
 11
4.4589961236
 21
-21.502534033
  0
LINE
  5
375
100
AcDbEntity
  8
ASSI
100
AcDbLine
 62
7
  6
CONTINUOUS
 10
4.4589961236
 20
-21.502534033
 11
4.6321241244
 21
-21.6455085759
  0
LINE
  5
376
100
AcDbEntity
  8
RACCORDO
100
AcDbLine
 62
7
  6
CONTINUOUS
 10
-12.7589871631
 20
23.849022589
 11
-12.7589871631
 21
-23.650977411
  0
LINE
  5
377
100
AcDbEntity
  8
ASSI
100
AcDbLine
 62
7
  6
CONTINUOUS
 10
-12.7589871631
 20
23.849022589
 11
-12.7589871631
 21
-23.650977411
  0
LINE
  5
378
100
AcDbEntity
  8
0
100
AcDbLine
 62
7
  6
CONTINUOUS
 10
-11.6246967215
 20
-20.800977411
 11
-11.6246967215
 21
20.999022589
  0
LINE
  5
379
100
AcDbEntity
  8
ASSI
100
AcDbLine
 62
7
  6
CONTINUOUS
 10
-11.6246967215
 20
-20.800977411
 11
-11.6246967215
 21
20.999022589
  0
LINE
  5
37A
100
AcDbEntity
  8
0
100
AcDbLine
 62
7
  6
CONTINUOUS
 10
-11.6089871631
 20
-20.800977411
 11
-11.6089871631
 21
20.999022589
  0
LINE
  5
37B
100
AcDbEntity
  8
ASSI
100
AcDbLine
 62
7
  6
CONTINUOUS
 10
-11.6089871631
 20
-20.800977411
 11
-11.6089871631
 21
20.999022589
  0
LINE
  5
37C
100
AcDbEntity
  8
DRAFT
100
AcDbLine
 62
7
  6
CONTINUOUS
 10
-11.5432776047
 20
-20.800977411
 11
-11.5432776047
 21
-10.7421363201
  0
LINE
  5
37D
100
AcDbEntity
  8
ASSI
100
AcDbLine
 62
7
  6
CONTINUOUS
 10
-11.5432776047
 20
-20.800977411
 11
-11.5432776047
 21
-10.7421363201
  0
LINE
  5
37E
100
AcDbEntity
  8
DRAFT
100
AcDbLine
 62
7
  6
CONTINUOUS
 10
-11.5432776047
 20
-10.0598185018
 11
-11.5432776047
 21
-0.2421363201
  0
LINE
  5
37F
100
AcDbEntity
  8
ASSI
100
AcDbLine
 62
7
  6
CONTINUOUS
 10
-11.5432776047
 20
-10.0598185018
 11
-11.5432776047
 21
-0.2421363201
  0
LINE
  5
380
100
AcDbEntity
  8
DRAFT
100
AcDbLine
 62
7
  6
CONTINUOUS
 10
-11.5432776047
 20
0.4401814982
 11
-11.5432776047
 21
10.2578636799
  0
LINE
  5
381
100
AcDbEntity
  8
ASSI
100
AcDbLine
 62
7
  6
CONTINUOUS
 10
-11.5432776047
 20
0.4401814982
 11
-11.5432776047
 21
10.2578636799
  0
LINE
  5
382
100
AcDbEntity
  8
DRAFT
100
AcDbLine
 62
7
  6
CONTINUOUS
 10
-11.5432776047
 20
10.9401814982
 11
-11.5432776047
 21
20.999022589
  0
LINE
  5
383
100
AcDbEntity
  8
ASSI
100
AcDbLine
 62
7
  6
CONTINUOUS
 10
-11.5432776047
 20
10.9401814982
 11
-11.5432776047
 21
20.999022589
  0
LINE
  5
384
100
AcDbEntity
  8
0
100
AcDbLine
 62
7
  6
CONTINUOUS
 10
-11.5089871631
 20
17.0348090266
 11
-11.5089871631
 21
-16.8367638486
  0
LINE
  5
385
100
AcDbEntity
  8
RACCORDO
100
AcDbLine
 62
7
  6
CONTINUOUS
 10
-11.4542567735
 20
20.999022589
 11
-11.4542567735
 21
18.199022589
  0
LINE
  5
386
100
AcDbEntity
  8
ASSI
100
AcDbLine
 62
7
  6
CONTINUOUS
 10
-11.4542567735
 20
20.999022589
 11
-11.4542567735
 21
18.199022589
  0
LINE
  5
387
100
AcDbEntity
  8
RACCORDO
100
AcDbLine
 62
7
  6
CONTINUOUS
 10
-11.4542567735
 20
-18.000977411
 11
-11.4542567735
 21
-20.800977411
  0
LINE
  5
388
100
AcDbEntity
  8
ASSI
100
AcDbLine
 62
7
  6
CONTINUOUS
 10
-11.4542567735
 20
-18.000977411
 11
-11.4542567735
 21
-20.800977411
  0
LINE
  5
389
100
AcDbEntity
  8
IMPORT_IGES
100
AcDbLine
 62
250
  6
CONTINUOUS
 10
-3.8407668386
 20
12.4990227476
 11
-3.5821949574
 21
12.7576012323
  0
LINE
  5
38A
100
AcDbEntity
  8
CURVE
100
AcDbLine
 62
250
  6
CONTINUOUS
 10
6.8918259826
 20
-11.5081203362
 11
7.4274586668
 21
-11.5081203362
  0
LINE
  5
38B
100
AcDbEntity
  8
CURVE
100
AcDbLine
 62
250
  6
CONTINUOUS
 10
4.0708271028
 20
-11.3652630231
 11
3.8565740381
 21
-11.3652630231
  0
LINE
  5
38C
100
AcDbEntity
  8
CURVE
100
AcDbLine
 62
250
  6
CONTINUOUS
 10
2.3925113544
 20
-14.7189968956
 11
0.8927398116
 21
-14.0976765521
  0
LINE
  5
38D
100
AcDbEntity
  8
CURVE
100
AcDbLine
 62
250
  6
CONTINUOUS
 10
2.3925113544
 20
-13.4763562085
 11
0.8927398116
 21
-12.855035865
  0
LINE
  5
38E
100
AcDbEntity
  8
CURVE
100
AcDbLine
 62
250
  6
CONTINUOUS
 10
4.0708271028
 20
-15.5438345155
 11
3.8565740381
 21
-15.4366917095
  0
LINE
  5
38F
100
AcDbEntity
  8
CURVE
100
AcDbLine
 62
250
  6
CONTINUOUS
 10
4.7135863418
 20
-14.7938346049
 11
4.9278394289
 21
-14.900977411
  0
LINE
  5
390
100
AcDbEntity
  8
CURVE
100
AcDbLine
 62
250
  6
CONTINUOUS
 10
4.0708271028
 20
-14.3652632019
 11
3.8565740381
 21
-14.258120217
  0
LWPOLYLINE
  5
391
100
AcDbEntity
  8
0
100
AcDbPolyline
 62
250
  6
CONTINUOUS
 90
13
 70
0
 10
-8.9160745907
 20
-19.3974429854
 10
-8.9157676431
 20
-19.406034122
 10
-8.9154440985
 20
-19.4139009423
 10
-8.9151042026
 20
-19.4210374736
 10
-8.9147482135
 20
-19.4274382982
 10
-8.9143764014
 20
-19.4330985585
 10
-8.9139890484
 20
-19.4380139592
 10
-8.913586448
 20
-19.4421807744
 10
-8.9131689064
 20
-19.4455958335
 10
-8.9127367423
 20
-19.4482565349
 10
-8.9122902845
 20
-19.450160866
 10
-8.9118298715
 20
-19.4513073948
 10
-8.9113558531
 20
-19.4516952602
  0
LINE
  5
392
100
AcDbEntity
  8
0
100
AcDbLine
 62
250
  6
CONTINUOUS
 10
-8.9166377758
 20
-19.3781143955
 11
-8.9160745907
 21
-19.3974429854
  0
LINE
  5
393
100
AcDbEntity
  8
RACCORDO
100
AcDbLine
 62
7
  6
CONTINUOUS
 10
-10.7589871631
 20
23.849022589
 11
-10.7589871631
 21
22.599022589
  0
LINE
  5
394
100
AcDbEntity
  8
DRAFT
100
AcDbLine
 62
7
  6
CONTINUOUS
 10
-10.7589871631
 20
22.599022589
 11
-10.7589871631
 21
20.999022589
  0
LINE
  5
395
100
AcDbEntity
  8
ASSI
100
AcDbLine
 62
7
  6
CONTINUOUS
 10
-10.7589871631
 20
23.849022589
 11
-10.7589871631
 21
20.999022589
  0
LINE
  5
396
100
AcDbEntity
  8
DRAFT
100
AcDbLine
 62
7
  6
CONTINUOUS
 10
-10.7589871631
 20
-20.800977411
 11
-10.7589871631
 21
-22.400977411
  0
LINE
  5
397
100
AcDbEntity
  8
RACCORDO
100
AcDbLine
 62
7
  6
CONTINUOUS
 10
-10.7589871631
 20
-22.400977411
 11
-10.7589871631
 21
-23.650977411
  0
LINE
  5
398
100
AcDbEntity
  8
ASSI
100
AcDbLine
 62
7
  6
CONTINUOUS
 10
-10.7589871631
 20
-20.800977411
 11
-10.7589871631
 21
-23.650977411
  0
LINE
  5
399
100
AcDbEntity
  8
ASSI
100
AcDbLine
 62
250
  6
CONTINUOUS
 10
-10.6190420108
 20
-22.400977411
 11
-10.6190420108
 21
-20.800977411
  0
LINE
  5
39A
100
AcDbEntity
  8
ASSI
100
AcDbLine
 62
250
  6
CONTINUOUS
 10
-10.6190420108
 20
20.999022589
 11
-10.6190420108
 21
22.599022589
  0
LINE
  5
39B
100
AcDbEntity
  8
0
100
AcDbLine
 62
250
  6
CONTINUOUS
 10
-10.5264395695
 20
17.0348090266
 11
-10.5264395695
 21
-16.8367638486
  0
LINE
  5
39C
100
AcDbEntity
  8
ASSI
100
AcDbLine
 62
250
  6
CONTINUOUS
 10
-9.6191943156
 20
-22.400977411
 11
-9.6191943156
 21
-20.800977411
  0
LINE
  5
39D
100
AcDbEntity
  8
ASSI
100
AcDbLine
 62
250
  6
CONTINUOUS
 10
-9.6191943156
 20
20.999022589
 11
-9.6191943156
 21
22.599022589
  0
LWPOLYLINE
  5
39E
100
AcDbEntity
  8
0
100
AcDbPolyline
 62
250
  6
CONTINUOUS
 90
14
 70
0
 10
-8.9166377734
 20
19.5761596706
 10
-8.9160745878
 20
19.5954882509
 10
-8.91576764
 20
19.6040793799
 10
-8.9154440954
 20
19.6119461919
 10
-8.9151041993
 20
19.619082716
 10
-8.9147482099
 20
19.6254835359
 10
-8.9143763975
 20
19.6311437917
 10
-8.9139890442
 20
19.6360591855
 10
-8.9135864437
 20
19.6402259922
 10
-8.9131689022
 20
19.643641042
 10
-8.9127367384
 20
19.646301733
 10
-8.9122902815
 20
19.6482060542
 10
-8.9118298698
 20
19.6493525757
 10
-8.9113558531
 20
19.6497404382
  0
LINE
  5
39F
100
AcDbEntity
  8
0
100
AcDbLine
 62
250
  6
CONTINUOUS
 10
6.6810734813
 20
20.5651476934
 11
6.6907712464
 21
20.5752209648
  0
LINE
  5
3A0
100
AcDbEntity
  8
0
100
AcDbLine
 62
250
  6
CONTINUOUS
 10
6.663639794
 20
20.5472350416
 11
6.6810734813
 21
20.5651476934
  0
LINE
  5
3A1
100
AcDbEntity
  8
0
100
AcDbLine
 62
250
  6
CONTINUOUS
 10
6.635307607
 20
20.5184293299
 11
6.663639794
 21
20.5472350416
  0
LINE
  5
3A2
100
AcDbEntity
  8
0
100
AcDbLine
 62
250
  6
CONTINUOUS
 10
6.5830504599
 20
20.4658326766
 11
6.635307607
 21
20.5184293299
  0
LINE
  5
3A3
100
AcDbEntity
  8
RACCORDO
100
AcDbLine
 62
7
  6
CONTINUOUS
 10
6.6410128369
 20
21.799022589
 11
5.9346747824
 21
21.0926857506
  0
LINE
  5
3A4
100
AcDbEntity
  8
ASSI
100
AcDbLine
 62
7
  6
CONTINUOUS
 10
6.6410128369
 20
21.799022589
 11
5.9346747824
 21
21.0926857506
  0
LINE
  5
3A5
100
AcDbEntity
  8
0
100
AcDbLine
 62
250
  6
CONTINUOUS
 10
6.498773142
 20
20.381812473
 11
6.5830504599
 21
20.4658326766
  0
LWPOLYLINE
  5
3A6
100
AcDbEntity
  8
0
100
AcDbPolyline
 62
250
  6
CONTINUOUS
 90
3
 70
0
 10
6.3668413745
 20
20.2515091213
 10
6.3791807857
 20
20.2636438643
 10
6.498773142
 20
20.381812473
  0
LINE
  5
3A7
100
AcDbEntity
  8
CURVE
100
AcDbLine
 62
250
  6
CONTINUOUS
 10
2.8957680152
 20
15.411522589
 11
3.3123712339
 21
15.724022589
  0
LINE
  5
3A8
100
AcDbEntity
  8
CURVE
100
AcDbLine
 62
250
  6
CONTINUOUS
 10
7.4274586668
 20
-10.7581203362
 11
6.9989525149
 21
-10.7581203362
  0
LINE
  5
3A9
100
AcDbEntity
  8
RACCORDO
100
AcDbLine
 62
7
  6
CONTINUOUS
 10
10.8253032785
 20
-10.7421363201
 11
10.7910128369
 21
-10.7421363201
  0
LINE
  5
3AA
100
AcDbEntity
  8
ASSI
100
AcDbLine
 62
7
  6
CONTINUOUS
 10
10.8253032785
 20
-10.7421363201
 11
10.7910128369
 21
-10.7421363201
  0
LINE
  5
3AB
100
AcDbEntity
  8
RACCORDO
100
AcDbLine
 62
7
  6
CONTINUOUS
 10
-11.5089871631
 20
-10.7421363201
 11
-11.5432776047
 21
-10.7421363201
  0
LINE
  5
3AC
100
AcDbEntity
  8
ASSI
100
AcDbLine
 62
7
  6
CONTINUOUS
 10
-11.5089871631
 20
-10.7421363201
 11
-11.5432776047
 21
-10.7421363201
  0
LINE
  5
3AD
100
AcDbEntity
  8
CURVE
100
AcDbLine
 62
250
  6
CONTINUOUS
 10
5.142092516
 20
-10.4366915605
 11
4.3922067447
 21
-10.4366915605
  0
LINE
  5
3AE
100
AcDbEntity
  8
CURVE
100
AcDbLine
 62
250
  6
CONTINUOUS
 10
7.2132055797
 20
-10.3295487544
 11
6.5704463407
 21
-10.3295487544
  0
LINE
  5
3AF
100
AcDbEntity
  8
RACCORDO
100
AcDbLine
 62
7
  6
CONTINUOUS
 10
-11.5432776047
 20
-10.0598185018
 11
-11.5089871631
 21
-10.0598185018
  0
LINE
  5
3B0
100
AcDbEntity
  8
ASSI
100
AcDbLine
 62
7
  6
CONTINUOUS
 10
-11.5432776047
 20
-10.0598185018
 11
-11.5089871631
 21
-10.0598185018
  0
LINE
  5
3B1
100
AcDbEntity
  8
RACCORDO
100
AcDbLine
 62
7
  6
CONTINUOUS
 10
10.7910128369
 20
-10.0598185018
 11
10.8253032785
 21
-10.0598185018
  0
LINE
  5
3B2
100
AcDbEntity
  8
ASSI
100
AcDbLine
 62
7
  6
CONTINUOUS
 10
10.7910128369
 20
-10.0598185018
 11
10.8253032785
 21
-10.0598185018
  0
LINE
  5
3B3
100
AcDbEntity
  8
CURVE
100
AcDbLine
 62
250
  6
CONTINUOUS
 10
4.7135863418
 20
-9.7581205747
 11
4.0708271028
 21
-9.7581205747
  0
LINE
  5
3B4
100
AcDbEntity
  8
CURVE
100
AcDbLine
 62
250
  6
CONTINUOUS
 10
6.5704463407
 20
-9.5795487544
 11
7.2132055797
 21
-9.5795487544
  0
LINE
  5
3B5
100
AcDbEntity
  8
CURVE
100
AcDbLine
 62
250
  6
CONTINUOUS
 10
0.8927398116
 20
-9.4264644172
 11
2.3925113544
 21
-9.4264644172
  0
LINE
  5
3B6
100
AcDbEntity
  8
CURVE
100
AcDbLine
 62
250
  6
CONTINUOUS
 10
7.6417117539
 20
-9.1509775302
 11
6.1419402112
 21
-9.1509775302
  0
LINE
  5
3B7
100
AcDbEntity
  8
CURVE
100
AcDbLine
 62
250
  6
CONTINUOUS
 10
4.0708271028
 20
-9.0081205747
 11
4.7135863418
 21
-9.0081205747
  0
LINE
  5
3B8
100
AcDbEntity
  8
CURVE
100
AcDbLine
 62
250
  6
CONTINUOUS
 10
1.642625583
 20
-8.9978929695
 11
2.1782582672
 21
-8.9978929695
  0
LINE
  5
3B9
100
AcDbEntity
  8
CURVE
100
AcDbLine
 62
250
  6
CONTINUOUS
 10
4.8207128965
 20
-10.9366917989
 11
3.6423209733
 21
-10.6152630231
  0
LINE
  5
3BA
100
AcDbEntity
  8
CURVE
100
AcDbLine
 62
250
  6
CONTINUOUS
 10
4.7135863418
 20
-13.6152632019
 11
4.9278394289
 21
-13.722406008
  0
LINE
  5
3BB
100
AcDbEntity
  8
CURVE
100
AcDbLine
 62
250
  6
CONTINUOUS
 10
6.5704463407
 20
-13.829548814
 11
6.356193276
 21
-13.722406008
  0
LINE
  5
3BC
100
AcDbEntity
  8
0
100
AcDbLine
 62
250
  6
CONTINUOUS
 10
6.3668413745
 20
-20.0534639433
 11
6.4521720321
 21
-20.1375944911
  0
LINE
  5
3BD
100
AcDbEntity
  8
0
100
AcDbLine
 62
250
  6
CONTINUOUS
 10
6.4521720321
 20
-20.1375944911
 11
6.532002689
 21
-20.216805482
  0
LINE
  5
3BE
100
AcDbEntity
  8
RACCORDO
100
AcDbLine
 62
7
  6
CONTINUOUS
 10
6.6410128369
 20
-21.600977411
 11
5.9346747824
 21
-20.8946405726
  0
LINE
  5
3BF
100
AcDbEntity
  8
ASSI
100
AcDbLine
 62
7
  6
CONTINUOUS
 10
6.6410128369
 20
-21.600977411
 11
5.9346747824
 21
-20.8946405726
  0
LINE
  5
3C0
100
AcDbEntity
  8
0
100
AcDbLine
 62
250
  6
CONTINUOUS
 10
6.532002689
 20
-20.216805482
 11
6.592498371
 21
-20.277260446
  0
LINE
  5
3C1
100
AcDbEntity
  8
0
100
AcDbLine
 62
250
  6
CONTINUOUS
 10
6.592498371
 20
-20.277260446
 11
6.6353076102
 21
-20.320384155
  0
LINE
  5
3C2
100
AcDbEntity
  8
0
100
AcDbLine
 62
250
  6
CONTINUOUS
 10
6.6353076102
 20
-20.320384155
 11
6.6636397963
 21
-20.3491898659
  0
LINE
  5
3C3
100
AcDbEntity
  8
0
100
AcDbLine
 62
250
  6
CONTINUOUS
 10
6.6636397963
 20
-20.3491898659
 11
6.6810734829
 21
-20.367102517
  0
LINE
  5
3C4
100
AcDbEntity
  8
0
100
AcDbLine
 62
250
  6
CONTINUOUS
 10
6.6810734829
 20
-20.367102517
 11
6.6907712476
 21
-20.377175788
  0
LINE
  5
3C5
100
AcDbEntity
  8
RACCORDO
100
AcDbLine
 62
7
  6
CONTINUOUS
 10
-6.6004187865
 20
-22.4690369148
 11
-6.5677146956
 21
-23.150977411
  0
LINE
  5
3C6
100
AcDbEntity
  8
ASSI
100
AcDbLine
 62
7
  6
CONTINUOUS
 10
-6.6004187865
 20
-22.4690369148
 11
-6.5677146956
 21
-23.150977411
  0
LINE
  5
3C7
100
AcDbEntity
  8
0
100
AcDbLine
 62
250
  6
CONTINUOUS
 10
-8.9171319442
 20
-19.3559738494
 11
-8.9166377758
 21
-19.3781143955
  0
LINE
  5
3C8
100
AcDbEntity
  8
0
100
AcDbLine
 62
250
  6
CONTINUOUS
 10
-8.9175555956
 20
-19.3310885614
 11
-8.9171319442
 21
-19.3559738494
  0
LINE
  5
3C9
100
AcDbEntity
  8
0
100
AcDbLine
 62
250
  6
CONTINUOUS
 10
-8.9113558531
 20
18.6498927431
 11
-8.9135864642
 21
18.7871990031
  0
LINE
  5
3CA
100
AcDbEntity
  8
0
100
AcDbLine
 62
250
  6
CONTINUOUS
 10
-8.9135864642
 20
18.7871990031
 11
-8.9154441119
 21
18.9219035571
  0
LINE
  5
3CB
100
AcDbEntity
  8
0
100
AcDbLine
 62
250
  6
CONTINUOUS
 10
-8.9180560995
 20
-19.2887817198
 11
-8.9175555956
 21
-19.3310885614
  0
LINE
  5
3CC
100
AcDbEntity
  8
0
100
AcDbLine
 62
250
  6
CONTINUOUS
 10
-8.9154441119
 20
18.9219035571
 11
-8.9168935959
 21
19.0514539129
  0
LINE
  5
3CD
100
AcDbEntity
  8
0
100
AcDbLine
 62
250
  6
CONTINUOUS
 10
-8.9168935959
 20
19.0514539129
 11
-8.9179074504
 21
19.1733952781
  0
LINE
  5
3CE
100
AcDbEntity
  8
0
100
AcDbLine
 62
250
  6
CONTINUOUS
 10
-8.9184664616
 20
-19.2235383466
 11
-8.9180560995
 21
-19.2887817198
  0
LINE
  5
3CF
100
AcDbEntity
  8
0
100
AcDbLine
 62
250
  6
CONTINUOUS
 10
-8.9179074504
 20
19.1733952781
 11
-8.9184664644
 21
19.2854170413
  0
LINE
  5
3D0
100
AcDbEntity
  8
0
100
AcDbLine
 62
250
  6
CONTINUOUS
 10
-8.9184664644
 20
19.2854170413
 11
-8.9185787766
 21
19.3664585556
  0
LINE
  5
3D1
100
AcDbEntity
  8
DRAFT
100
AcDbLine
 62
7
  6
CONTINUOUS
 10
-8.5160827474
 20
-23.150977411
 11
-8.5160827474
 21
-22.400977411
  0
LINE
  5
3D2
100
AcDbEntity
  8
ASSI
100
AcDbLine
 62
7
  6
CONTINUOUS
 10
-8.5160827474
 20
-23.150977411
 11
-8.5160827474
 21
-22.400977411
  0
LINE
  5
3D3
100
AcDbEntity
  8
DRAFT
100
AcDbLine
 62
7
  6
CONTINUOUS
 10
-7.7589871631
 20
-20.800977411
 11
-7.7589871631
 21
-19.600977411
  0
LINE
  5
3D4
100
AcDbEntity
  8
ASSI
100
AcDbLine
 62
7
  6
CONTINUOUS
 10
-7.7589871631
 20
-20.800977411
 11
-7.7589871631
 21
-19.600977411
  0
LINE
  5
3D5
100
AcDbEntity
  8
DRAFT
100
AcDbLine
 62
7
  6
CONTINUOUS
 10
-7.7589871631
 20
19.799022589
 11
-7.7589871631
 21
20.999022589
  0
LINE
  5
3D6
100
AcDbEntity
  8
ASSI
100
AcDbLine
 62
7
  6
CONTINUOUS
 10
-7.7589871631
 20
19.799022589
 11
-7.7589871631
 21
20.999022589
  0
LINE
  5
3D7
100
AcDbEntity
  8
DRAFT
100
AcDbLine
 62
7
  6
CONTINUOUS
 10
-7.6280841462
 20
-20.800977411
 11
-7.6280841462
 21
-19.7318804278
  0
LINE
  5
3D8
100
AcDbEntity
  8
ASSI
100
AcDbLine
 62
7
  6
CONTINUOUS
 10
-7.6280841462
 20
-20.800977411
 11
-7.6280841462
 21
-19.7318804278
  0
LINE
  5
3D9
100
AcDbEntity
  8
DRAFT
100
AcDbLine
 62
7
  6
CONTINUOUS
 10
-7.6280841462
 20
19.9299256059
 11
-7.6280841462
 21
20.999022589
  0
LINE
  5
3DA
100
AcDbEntity
  8
ASSI
100
AcDbLine
 62
7
  6
CONTINUOUS
 10
-7.6280841462
 20
19.9299256059
 11
-7.6280841462
 21
20.999022589
  0
LINE
  5
3DB
100
AcDbEntity
  8
0
100
AcDbLine
 62
250
  6
CONTINUOUS
 10
-8.9185600465
 20
-19.1289202228
 11
-8.9184664616
 21
-19.2235383466
  0
LINE
  5
3DC
100
AcDbEntity
  8
0
100
AcDbLine
 62
250
  6
CONTINUOUS
 10
-8.9185787766
 20
19.3664585556
 11
-8.9183916793
 21
19.4388052851
  0
LINE
  5
3DD
100
AcDbEntity
  8
0
100
AcDbLine
 62
250
  6
CONTINUOUS
 10
-8.9180561046
 20
-18.998618815
 11
-8.9185600465
 21
-19.1289202228
  0
LINE
  5
3DE
100
AcDbEntity
  8
0
100
AcDbLine
 62
250
  6
CONTINUOUS
 10
-8.9183916793
 20
19.4388052851
 11
-8.9180560983
 21
19.4868270218
  0
LINE
  5
3DF
100
AcDbEntity
  8
0
100
AcDbLine
 62
250
  6
CONTINUOUS
 10
-8.9163647191
 20
-18.8023668835
 11
-8.9180561046
 21
-18.998618815
  0
LINE
  5
3E0
100
AcDbEntity
  8
0
100
AcDbLine
 62
250
  6
CONTINUOUS
 10
-8.9180560983
 20
19.4868270218
 11
-8.9175555939
 21
19.5291338545
  0
LINE
  5
3E1
100
AcDbEntity
  8
0
100
AcDbLine
 62
250
  6
CONTINUOUS
 10
-8.9131689234
 20
-18.561817844
 11
-8.9163647191
 21
-18.8023668835
  0
LINE
  5
3E2
100
AcDbEntity
  8
0
100
AcDbLine
 62
250
  6
CONTINUOUS
 10
-8.9113558531
 20
-18.4518475651
 11
-8.9131689234
 21
-18.561817844
  0
LINE
  5
3E3
100
AcDbEntity
  8
0
100
AcDbLine
 62
250
  6
CONTINUOUS
 10
-8.9175555939
 20
19.5291338545
 11
-8.9171319421
 21
19.5540191333
  0
LINE
  5
3E4
100
AcDbEntity
  8
0
100
AcDbLine
 62
250
  6
CONTINUOUS
 10
-8.9171319421
 20
19.5540191333
 11
-8.9166377734
 21
19.5761596706
  0
LINE
  5
3E5
100
AcDbEntity
  8
RACCORDO
100
AcDbLine
 62
7
  6
CONTINUOUS
 10
-6.5677146956
 20
23.349022589
 11
-6.6004187865
 21
22.6670820928
  0
LINE
  5
3E6
100
AcDbEntity
  8
ASSI
100
AcDbLine
 62
7
  6
CONTINUOUS
 10
-6.5677146956
 20
23.349022589
 11
-6.6004187865
 21
22.6670820928
  0
LWPOLYLINE
  5
3E7
100
AcDbEntity
  8
0
100
AcDbPolyline
 62
250
  6
CONTINUOUS
 90
10
 70
0
 10
6.6988739195
 20
20.5837420319
 10
6.702314651
 20
20.5874074242
 10
6.705342648
 20
20.590670036
 10
6.7079542797
 20
20.5935259553
 10
6.7101464143
 20
20.5959717572
 10
6.7119164233
 20
20.5980045092
 10
6.7132621842
 20
20.5996217737
 10
6.7141820834
 20
20.6008216113
 10
6.7146750176
 20
20.6016025834
 10
6.7147403959
 20
20.6019637535
  0
LINE
  5
3E8
100
AcDbEntity
  8
0
100
AcDbLine
 62
250
  6
CONTINUOUS
 10
6.6907712464
 20
20.5752209648
 11
6.6988739195
 21
20.5837420319
  0
LINE
  5
3E9
100
AcDbEntity
  8
DRAFT
100
AcDbLine
 62
7
  6
CONTINUOUS
 10
-11.5089871631
 20
0.4744719397
 11
-11.5432776047
 21
0.4401814982
  0
LINE
  5
3EA
100
AcDbEntity
  8
ASSI
100
AcDbLine
 62
7
  6
CONTINUOUS
 10
-11.5089871631
 20
0.4744719397
 11
-11.5432776047
 21
0.4401814982
  0
LINE
  5
3EB
100
AcDbEntity
  8
CURVE
100
AcDbLine
 62
250
  6
CONTINUOUS
 10
6.1419402112
 20
-8.4009771726
 11
7.6417117539
 21
-8.4009771726
  0
LINE
  5
3EC
100
AcDbEntity
  8
CURVE
100
AcDbLine
 62
250
  6
CONTINUOUS
 10
2.1782582672
 20
-8.2478930589
 11
1.7497521154
 21
-8.2478930589
  0
LINE
  5
3ED
100
AcDbEntity
  8
CURVE
100
AcDbLine
 62
250
  6
CONTINUOUS
 10
7.2132055797
 20
-13.079548814
 11
7.4274586668
 21
-13.1866916201
  0
LINE
  5
3EE
100
AcDbEntity
  8
CURVE
100
AcDbLine
 62
250
  6
CONTINUOUS
 10
1.2141194535
 20
-8.783607268
 11
1.642625583
 21
-8.9978929695
  0
LINE
  5
3EF
100
AcDbEntity
  8
CURVE
100
AcDbLine
 62
250
  6
CONTINUOUS
 10
3.6423209733
 20
-11.900977411
 11
3.9637006151
 21
-12.1152630231
  0
LINE
  5
3F0
100
AcDbEntity
  8
DRAFT
100
AcDbLine
 62
7
  6
CONTINUOUS
 10
-11.5089871631
 20
-0.2764267617
 11
-11.5432776047
 21
-0.2421363201
  0
LINE
  5
3F1
100
AcDbEntity
  8
ASSI
100
AcDbLine
 62
7
  6
CONTINUOUS
 10
-11.5089871631
 20
-0.2764267617
 11
-11.5432776047
 21
-0.2421363201
  0
LINE
  5
3F2
100
AcDbEntity
  8
CURVE
100
AcDbLine
 62
250
  6
CONTINUOUS
 10
4.0708271028
 20
-16.400977411
 11
3.6423209733
 21
-15.9724059633
  0
LINE
  5
3F3
100
AcDbEntity
  8
CURVE
100
AcDbLine
 62
250
  6
CONTINUOUS
 10
3.8565740381
 20
-15.4366917095
 11
3.6423209733
 21
-15.222406008
  0
LWPOLYLINE
  5
3F4
100
AcDbEntity
  8
0
100
AcDbPolyline
 62
250
  6
CONTINUOUS
 90
11
 70
0
 10
6.6907712476
 20
-20.377175788
 10
6.6988739203
 20
-20.3856968547
 10
6.7023146517
 20
-20.3893622468
 10
6.7053426486
 20
-20.3926248586
 10
6.7079542801
 20
-20.3954807776
 10
6.7101464146
 20
-20.3979265795
 10
6.7119164235
 20
-20.3999593314
 10
6.7132621843
 20
-20.4015765958
 10
6.7141820834
 20
-20.4027764333
 10
6.7146750176
 20
-20.4035574054
 10
6.7147403959
 20
-20.4039185755
  0
LWPOLYLINE
  5
3F5
100
AcDbEntity
  8
RACCORDO
100
AcDbPolyline
 62
7
  6
CONTINUOUS
 90
25
 70
0
 10
-4.8589871631
 20
-24.4369169469
 10
-4.8585437602
 20
-24.4409875122
 10
-4.8572627789
 20
-24.4450065939
 10
-4.8551442192
 20
-24.4489741919
 10
-4.8521718821
 20
-24.4529068079
 10
-4.8483619667
 20
-24.4567879402
 10
-4.8437630696
 20
-24.4605680837
 10
-4.8383650842
 20
-24.4642459446
 10
-4.8321781172
 20
-24.4678228167
 10
-4.8252810856
 20
-24.4712530756
 10
-4.8176648934
 20
-24.4745348433
 10
-4.8093386366
 20
-24.4776699979
 10
-4.8004085193
 20
-24.4806185493
 10
-4.7908668064
 20
-24.4833781073
 10
-4.7807212331
 20
-24.4859510622
 10
-4.7701012097
 20
-24.488304595
 10
-4.7590006586
 20
-24.490435895
 10
-4.7474256575
 20
-24.4923477729
 10
-4.7355238496
 20
-24.4940158422
 10
-4.7232910484
 20
-24.4954369795
 10
-4.7107314403
 20
-24.4966143081
 10
-4.6980052275
 20
-24.4975328108
 10
-4.6851658107
 20
-24.4981874817
 10
-4.6721597893
 20
-24.4985833267
 10
-4.6589871631
 20
-24.4987203458
  0
LWPOLYLINE
  5
3F6
100
AcDbEntity
  8
0
100
AcDbPolyline
 62
250
  6
CONTINUOUS
 90
11
 70
0
 10
-5.396348997
 20
-20.9829032259
 10
-5.3961602679
 20
-20.9885871706
 10
-5.3959581489
 20
-20.993692116
 10
-5.3957428861
 20
-20.998211845
 10
-5.3955147418
 20
-21.0021408531
 10
-5.3952739937
 20
-21.0054743553
 10
-5.3950209351
 20
-21.0082082918
 10
-5.3947558741
 20
-21.0103393329
 10
-5.3944791336
 20
-21.0118648835
 10
-5.3941910506
 20
-21.0127830854
 10
-5.393891976
 20
-21.0130928206
  0
LINE
  5
3F7
100
AcDbEntity
  8
0
100
AcDbLine
 62
250
  6
CONTINUOUS
 10
-5.3966853827
 20
-20.9698267248
 11
-5.396348997
 21
-20.9829032259
  0
LINE
  5
3F8
100
AcDbEntity
  8
0
100
AcDbLine
 62
250
  6
CONTINUOUS
 10
-5.3969656678
 20
-20.9545262954
 11
-5.3966853827
 21
-20.9698267248
  0
LINE
  5
3F9
100
AcDbEntity
  8
0
100
AcDbLine
 62
250
  6
CONTINUOUS
 10
-5.3947558741
 20
-20.1365396708
 11
-5.393891976
 21
-20.188785849
  0
LINE
  5
3FA
100
AcDbEntity
  8
DRAFT
100
AcDbLine
 62
250
  6
CONTINUOUS
 10
-7.3589871631
 20
-21.600977411
 11
-7.3589871631
 21
-20.4874433249
  0
LINE
  5
3FB
100
AcDbEntity
  8
ASSI
100
AcDbLine
 62
250
  6
CONTINUOUS
 10
-7.3589871631
 20
-21.600977411
 11
-7.3589871631
 21
-20.4874433249
  0
LINE
  5
3FC
100
AcDbEntity
  8
0
100
AcDbLine
 62
7
  6
CONTINUOUS
 10
-7.3589871631
 20
-20.4874433249
 11
-7.3589871631
 21
-20.214511497
  0
LINE
  5
3FD
100
AcDbEntity
  8
DRAFT
100
AcDbLine
 62
250
  6
CONTINUOUS
 10
-7.3589871631
 20
-20.214511497
 11
-7.3589871631
 21
-19.7318804278
  0
LINE
  5
3FE
100
AcDbEntity
  8
ASSI
100
AcDbLine
 62
250
  6
CONTINUOUS
 10
-7.3589871631
 20
-20.214511497
 11
-7.3589871631
 21
-19.7318804278
  0
LINE
  5
3FF
100
AcDbEntity
  8
DRAFT
100
AcDbLine
 62
250
  6
CONTINUOUS
 10
-7.3589871631
 20
19.9299256059
 11
-7.3589871631
 21
20.4125566751
  0
LINE
  5
400
100
AcDbEntity
  8
ASSI
100
AcDbLine
 62
250
  6
CONTINUOUS
 10
-7.3589871631
 20
19.9299256059
 11
-7.3589871631
 21
20.4125566751
  0
LINE
  5
401
100
AcDbEntity
  8
0
100
AcDbLine
 62
7
  6
CONTINUOUS
 10
-7.3589871631
 20
20.4125566751
 11
-7.3589871631
 21
20.685488503
  0
LINE
  5
402
100
AcDbEntity
  8
DRAFT
100
AcDbLine
 62
250
  6
CONTINUOUS
 10
-7.3589871631
 20
20.685488503
 11
-7.3589871631
 21
21.799022589
  0
LINE
  5
403
100
AcDbEntity
  8
ASSI
100
AcDbLine
 62
250
  6
CONTINUOUS
 10
-7.3589871631
 20
20.685488503
 11
-7.3589871631
 21
21.799022589
  0
LINE
  5
404
100
AcDbEntity
  8
0
100
AcDbLine
 62
7
  6
CONTINUOUS
 10
-6.8589871631
 20
-3.400977411
 11
-6.8589871631
 21
12.849022589
  0
LINE
  5
405
100
AcDbEntity
  8
IMPORT_IGES
100
AcDbLine
 62
7
  6
CONTINUOUS
 10
-6.6649871631
 20
-3.4043636936
 11
-6.6649871631
 21
12.8524088716
  0
LINE
  5
406
100
AcDbEntity
  8
RACCORDO
100
AcDbLine
 62
7
  6
CONTINUOUS
 10
-6.6096068514
 20
-23.150977411
 11
-6.6096068514
 21
-21.7172828182
  0
LINE
  5
407
100
AcDbEntity
  8
ASSI
100
AcDbLine
 62
7
  6
CONTINUOUS
 10
-6.6096068514
 20
-23.150977411
 11
-6.6096068514
 21
-21.7172828182
  0
LINE
  5
408
100
AcDbEntity
  8
RACCORDO
100
AcDbLine
 62
7
  6
CONTINUOUS
 10
-6.6096068514
 20
21.9153279962
 11
-6.6096068514
 21
22.599022589
  0
LINE
  5
409
100
AcDbEntity
  8
ASSI
100
AcDbLine
 62
7
  6
CONTINUOUS
 10
-6.6096068514
 20
21.9153279962
 11
-6.6096068514
 21
22.599022589
  0
LINE
  5
40A
100
AcDbEntity
  8
IMPORT_IGES
100
AcDbLine
 62
7
  6
CONTINUOUS
 10
-6.3649871631
 20
12.8576453911
 11
-6.3649871631
 21
12.499022589
  0
LINE
  5
40B
100
AcDbEntity
  8
0
100
AcDbLine
 62
7
  6
CONTINUOUS
 10
-6.3589871631
 20
25.199022589
 11
-6.3589871631
 21
23.349022589
  0
LINE
  5
40C
100
AcDbEntity
  8
0
100
AcDbLine
 62
7
  6
CONTINUOUS
 10
-6.3589871631
 20
19.8942921994
 11
-6.3589871631
 21
19.6942921994
  0
LINE
  5
40D
100
AcDbEntity
  8
0
100
AcDbLine
 62
7
  6
CONTINUOUS
 10
-6.3589871631
 20
-25.000977411
 11
-6.3589871631
 21
-23.150977411
  0
LINE
  5
40E
100
AcDbEntity
  8
0
100
AcDbLine
 62
7
  6
CONTINUOUS
 10
-6.3589871631
 20
-19.4962470214
 11
-6.3589871631
 21
-19.6962470214
  0
LINE
  5
40F
100
AcDbEntity
  8
IMPORT_IGES
100
AcDbLine
 62
7
  6
CONTINUOUS
 10
-6.3349871631
 20
12.499022589
 11
-6.3349871631
 21
12.858169043
  0
LINE
  5
410
100
AcDbEntity
  8
IMPORT_IGES
100
AcDbLine
 62
7
  6
CONTINUOUS
 10
-5.9649871631
 20
-3.200977411
 11
-5.9649871631
 21
-3.175977411
  0
LINE
  5
411
100
AcDbEntity
  8
IMPORT_IGES
100
AcDbLine
 62
7
  6
CONTINUOUS
 10
-5.7506278091
 20
-1.7993113611
 11
-5.7506278091
 21
1.7973565392
  0
LINE
  5
412
100
AcDbEntity
  8
IMPORT_IGES
100
AcDbLine
 62
7
  6
CONTINUOUS
 10
-5.7506278091
 20
3.2006886389
 11
-5.7506278091
 21
6.7973565392
  0
LINE
  5
413
100
AcDbEntity
  8
IMPORT_IGES
100
AcDbLine
 62
7
  6
CONTINUOUS
 10
-5.7506278091
 20
8.2006886389
 11
-5.7506278091
 21
11.7973565392
  0
LINE
  5
414
100
AcDbEntity
  8
0
100
AcDbLine
 62
250
  6
CONTINUOUS
 10
-5.393891976
 20
20.386831027
 11
-5.3947558741
 21
20.3345848488
  0
LINE
  5
415
100
AcDbEntity
  8
0
100
AcDbLine
 62
250
  6
CONTINUOUS
 10
-5.3966853827
 20
21.1678719028
 11
-5.3969656678
 21
21.1525714734
  0
LWPOLYLINE
  5
416
100
AcDbEntity
  8
RACCORDO
100
AcDbPolyline
 62
7
  6
CONTINUOUS
 90
25
 70
0
 10
-4.8589871631
 20
25.0153847314
 10
-4.8585437602
 20
25.0194552968
 10
-4.8572627789
 20
25.0234743784
 10
-4.8551442192
 20
25.0274419764
 10
-4.8521718821
 20
25.0313745925
 10
-4.8483619667
 20
25.0352557248
 10
-4.8437630696
 20
25.0390358683
 10
-4.8383650842
 20
25.0427137292
 10
-4.8321781172
 20
25.0462906012
 10
-4.8252810856
 20
25.0497208602
 10
-4.8176648934
 20
25.0530026279
 10
-4.8093386366
 20
25.0561377824
 10
-4.8004085193
 20
25.0590863339
 10
-4.7908668064
 20
25.0618458919
 10
-4.7807212331
 20
25.0644188467
 10
-4.7701012097
 20
25.0667723795
 10
-4.7590006586
 20
25.0689036795
 10
-4.7474256575
 20
25.0708155575
 10
-4.7355238496
 20
25.0724836267
 10
-4.7232910484
 20
25.073904764
 10
-4.7107314403
 20
25.0750820927
 10
-4.6980052275
 20
25.0760005953
 10
-4.6851658107
 20
25.0766552663
 10
-4.6721597893
 20
25.0770511113
 10
-4.6589871631
 20
25.0771881303
  0
LWPOLYLINE
  5
417
100
AcDbEntity
  8
0
100
AcDbPolyline
 62
250
  6
CONTINUOUS
 90
11
 70
0
 10
8.8591268544
 20
19.3283776385
 10
8.863861487
 20
19.3335734578
 10
8.8680818893
 20
19.3382582251
 10
8.871784906
 20
19.3424284377
 10
8.8749677683
 20
19.3460809777
 10
8.8776280992
 20
19.3492131172
 10
8.8797639076
 20
19.3518225122
 10
8.8813735938
 20
19.3539072077
 10
8.8824559582
 20
19.3554656487
 10
8.8830101975
 20
19.3564966763
 10
8.8830359017
 20
19.3569995243
  0
LINE
  5
418
100
AcDbEntity
  8
0
100
AcDbLine
 62
250
  6
CONTINUOUS
 10
8.8481294354
 20
19.3164687567
 11
8.8591268544
 21
19.3283776385
  0
LINE
  5
419
100
AcDbEntity
  8
0
100
AcDbLine
 62
250
  6
CONTINUOUS
 10
8.8351225062
 20
19.3025671782
 11
8.8481294354
 21
19.3164687567
  0
LINE
  5
41A
100
AcDbEntity
  8
0
100
AcDbLine
 62
250
  6
CONTINUOUS
 10
8.8119309552
 20
19.2780710136
 11
8.8351225062
 21
19.3025671782
  0
LINE
  5
41B
100
AcDbEntity
  8
0
100
AcDbLine
 62
250
  6
CONTINUOUS
 10
8.7743875424
 20
19.2388714152
 11
8.8119309552
 21
19.2780710136
  0
LINE
  5
41C
100
AcDbEntity
  8
0
100
AcDbLine
 62
250
  6
CONTINUOUS
 10
8.7174631187
 20
19.180038242
 11
8.7743875424
 21
19.2388714152
  0
LINE
  5
41D
100
AcDbEntity
  8
0
100
AcDbLine
 62
250
  6
CONTINUOUS
 10
8.6210671672
 20
19.0813342873
 11
8.7174631187
 21
19.180038242
  0
LINE
  5
41E
100
AcDbEntity
  8
0
100
AcDbLine
 62
250
  6
CONTINUOUS
 10
8.4561620788
 20
18.9140167665
 11
8.6210671672
 21
19.0813342873
  0
LWPOLYLINE
  5
41F
100
AcDbEntity
  8
0
100
AcDbPolyline
 62
250
  6
CONTINUOUS
 90
3
 70
0
 10
8.1933815269
 20
18.6498927431
 10
8.2127013995
 20
18.6692250269
 10
8.4561620788
 20
18.9140167665
  0
LINE
  5
420
100
AcDbEntity
  8
CURVE
100
AcDbLine
 62
250
  6
CONTINUOUS
 10
2.3925113544
 20
-7.8193216559
 11
0.8927398116
 21
-7.390750074
  0
LINE
  5
421
100
AcDbEntity
  8
CURVE
100
AcDbLine
 62
250
  6
CONTINUOUS
 10
5.142092516
 20
-8.150977411
 11
3.6423209733
 21
-7.7224061868
  0
LINE
  5
422
100
AcDbEntity
  8
CURVE
100
AcDbLine
 62
250
  6
CONTINUOUS
 10
6.463319853
 20
-11.2938347241
 11
6.8918259826
 21
-11.5081203362
  0
LINE
  5
423
100
AcDbEntity
  8
CURVE
100
AcDbLine
 62
250
  6
CONTINUOUS
 10
4.0708271028
 20
-9.7581205747
 11
3.8565740381
 21
-9.650977411
  0
LINE
  5
424
100
AcDbEntity
  8
CURVE
100
AcDbLine
 62
250
  6
CONTINUOUS
 10
6.5704463407
 20
-10.3295487544
 11
6.356193276
 21
-10.2224059484
  0
LINE
  5
425
100
AcDbEntity
  8
CURVE
100
AcDbLine
 62
250
  6
CONTINUOUS
 10
4.7135863418
 20
-9.0081205747
 11
4.9278394289
 21
-9.1152630231
  0
LINE
  5
426
100
AcDbEntity
  8
CURVE
100
AcDbLine
 62
250
  6
CONTINUOUS
 10
6.2847755877
 20
-11.7938346049
 11
7.606002907
 21
-12.650977411
  0
LINE
  5
427
100
AcDbEntity
  8
CURVE
100
AcDbLine
 62
250
  6
CONTINUOUS
 10
5.142092516
 20
-12.1152630231
 11
4.0708271028
 21
-11.3652630231
  0
LINE
  5
428
100
AcDbEntity
  8
CURVE
100
AcDbLine
 62
250
  6
CONTINUOUS
 10
3.8565740381
 20
-14.258120217
 11
3.6423209733
 21
-14.0438346049
  0
LINE
  5
429
100
AcDbEntity
  8
CURVE
100
AcDbLine
 62
250
  6
CONTINUOUS
 10
4.9278394289
 20
-14.900977411
 11
5.142092516
 21
-15.1152631125
  0
LINE
  5
42A
100
AcDbEntity
  8
CURVE
100
AcDbLine
 62
250
  6
CONTINUOUS
 10
4.9278394289
 20
-13.722406008
 11
5.142092516
 21
-13.9366916201
  0
LINE
  5
42B
100
AcDbEntity
  8
CURVE
100
AcDbLine
 62
250
  6
CONTINUOUS
 10
1.3212459411
 20
-9.855035865
 11
0.8927398116
 21
-9.4264644172
  0
LINE
  5
42C
100
AcDbEntity
  8
0
100
AcDbLine
 62
250
  6
CONTINUOUS
 10
8.1933815269
 20
-18.4518475651
 11
8.3086005845
 21
-18.5673361097
  0
LINE
  5
42D
100
AcDbEntity
  8
0
100
AcDbLine
 62
250
  6
CONTINUOUS
 10
8.3086005845
 20
-18.5673361097
 11
8.4202573237
 21
-18.679723722
  0
LINE
  5
42E
100
AcDbEntity
  8
0
100
AcDbLine
 62
250
  6
CONTINUOUS
 10
8.4202573237
 20
-18.679723722
 11
8.5253534999
 21
-18.7859925326
  0
LINE
  5
42F
100
AcDbEntity
  8
0
100
AcDbLine
 62
250
  6
CONTINUOUS
 10
8.5253534999
 20
-18.7859925326
 11
8.6210671273
 21
-18.8832890685
  0
LINE
  5
430
100
AcDbEntity
  8
0
100
AcDbLine
 62
250
  6
CONTINUOUS
 10
8.6210671273
 20
-18.8832890685
 11
8.6917978976
 21
-18.9556219753
  0
LINE
  5
431
100
AcDbEntity
  8
0
100
AcDbLine
 62
250
  6
CONTINUOUS
 10
8.6917978976
 20
-18.9556219753
 11
8.7529027546
 21
-19.0185546453
  0
LINE
  5
432
100
AcDbEntity
  8
0
100
AcDbLine
 62
250
  6
CONTINUOUS
 10
8.7529027546
 20
-19.0185546453
 11
8.7940831743
 21
-19.0613370086
  0
LINE
  5
433
100
AcDbEntity
  8
0
100
AcDbLine
 62
250
  6
CONTINUOUS
 10
8.7940831743
 20
-19.0613370086
 11
8.8201449117
 21
-19.0886692424
  0
LINE
  5
434
100
AcDbEntity
  8
0
100
AcDbLine
 62
250
  6
CONTINUOUS
 10
8.8201449117
 20
-19.0886692424
 11
8.8351224703
 21
-19.104521962
  0
LINE
  5
435
100
AcDbEntity
  8
0
100
AcDbLine
 62
250
  6
CONTINUOUS
 10
8.8351224703
 20
-19.104521962
 11
8.8481294036
 21
-19.1184235445
  0
LWPOLYLINE
  5
436
100
AcDbEntity
  8
0
100
AcDbPolyline
 62
250
  6
CONTINUOUS
 90
12
 70
0
 10
8.8481294036
 20
-19.1184235445
 10
8.8591268282
 20
-19.1303324318
 10
8.8638614633
 20
-19.1355282536
 10
8.8680818673
 20
-19.1402130225
 10
8.8717848858
 20
-19.1443832368
 10
8.8749677507
 20
-19.1480357792
 10
8.8776280846
 20
-19.1511679217
 10
8.8797638964
 20
-19.1537773202
 10
8.8813735866
 20
-19.15586202
 10
8.8824559548
 20
-19.1574204654
 10
8.8830101968
 20
-19.1584514966
 10
8.8830359017
 20
-19.1589543462
  0
LINE
  5
437
100
AcDbEntity
  8
RACCORDO
100
AcDbLine
 62
7
  6
CONTINUOUS
 10
-5.9869237787
 20
21.799022589
 11
-5.9660455159
 21
21.2011510214
  0
LINE
  5
438
100
AcDbEntity
  8
ASSI
100
AcDbLine
 62
7
  6
CONTINUOUS
 10
-5.9869237787
 20
21.799022589
 11
-5.9660455159
 21
21.2011510214
  0
LWPOLYLINE
  5
439
100
AcDbEntity
  8
0
100
AcDbPolyline
 62
250
  6
CONTINUOUS
 90
11
 70
0
 10
-5.396348997
 20
19.9170967741
 10
-5.3961602679
 20
19.9114128294
 10
-5.3959581489
 20
19.906307884
 10
-5.3957428861
 20
19.901788155
 10
-5.3955147418
 20
19.8978591469
 10
-5.3952739937
 20
19.8945256447
 10
-5.3950209351
 20
19.8917917082
 10
-5.3947558741
 20
19.8896606671
 10
-5.3944791336
 20
19.8881351165
 10
-5.3941910506
 20
19.8872169146
 10
-5.393891976
 20
19.8869071794
  0
LINE
  5
43A
100
AcDbEntity
  8
ASSI
100
AcDbLine
 62
7
  6
CONTINUOUS
 10
-4.3501383079
 20
-22.6381694783
 11
-4.3375585917
 21
-23.150977411
  0
LINE
  5
43B
100
AcDbEntity
  8
0
100
AcDbLine
 62
250
  6
CONTINUOUS
 10
-5.3966853827
 20
19.9301732752
 11
-5.396348997
 21
19.9170967741
  0
LINE
  5
43C
100
AcDbEntity
  8
0
100
AcDbLine
 62
250
  6
CONTINUOUS
 10
-5.3969656678
 20
19.9454737046
 11
-5.3966853827
 21
19.9301732752
  0
LINE
  5
43D
100
AcDbEntity
  8
0
100
AcDbLine
 62
250
  6
CONTINUOUS
 10
-5.3957428861
 20
20.8321336985
 11
-5.393891976
 21
20.711214151
  0
LINE
  5
43E
100
AcDbEntity
  8
0
100
AcDbLine
 62
250
  6
CONTINUOUS
 10
-5.3971884872
 20
-20.9370764509
 11
-5.3969656678
 21
-20.9545262954
  0
LINE
  5
43F
100
AcDbEntity
  8
0
100
AcDbLine
 62
250
  6
CONTINUOUS
 10
-5.3971884872
 20
19.9629235491
 11
-5.3969656678
 21
19.9454737046
  0
LINE
  5
440
100
AcDbEntity
  8
0
100
AcDbLine
 62
250
  6
CONTINUOUS
 10
-5.396348997
 20
-20.0178336126
 11
-5.3947558741
 21
-20.1365396708
  0
LINE
  5
441
100
AcDbEntity
  8
0
100
AcDbLine
 62
250
  6
CONTINUOUS
 10
-5.3969656678
 20
20.9458723631
 11
-5.3957428861
 21
20.8321336985
  0
LINE
  5
442
100
AcDbEntity
  8
0
100
AcDbLine
 62
250
  6
CONTINUOUS
 10
-5.3971884872
 20
-19.9239124745
 11
-5.396348997
 21
-20.0178336126
  0
LINE
  5
443
100
AcDbEntity
  8
0
100
AcDbLine
 62
250
  6
CONTINUOUS
 10
-5.3974126725
 20
-20.9070601882
 11
-5.3971884872
 21
-20.9370764509
  0
LINE
  5
444
100
AcDbEntity
  8
0
100
AcDbLine
 62
250
  6
CONTINUOUS
 10
-5.3974126725
 20
19.9929398118
 11
-5.3971884872
 21
19.9629235491
  0
LINE
  5
445
100
AcDbEntity
  8
0
100
AcDbLine
 62
250
  6
CONTINUOUS
 10
-5.3974126725
 20
21.0189473537
 11
-5.3969656678
 21
20.9458723631
  0
LINE
  5
446
100
AcDbEntity
  8
0
100
AcDbLine
 62
250
  6
CONTINUOUS
 10
-5.3974877053
 20
-19.854324297
 11
-5.3971884872
 21
-19.9239124745
  0
LINE
  5
447
100
AcDbEntity
  8
0
100
AcDbLine
 62
250
  6
CONTINUOUS
 10
-5.3975027302
 20
21.0707752209
 11
-5.3974126725
 21
21.0189473537
  0
LINE
  5
448
100
AcDbEntity
  8
0
100
AcDbLine
 62
250
  6
CONTINUOUS
 10
-5.3975027302
 20
20.0396082794
 11
-5.3974126725
 21
19.9929398118
  0
LINE
  5
449
100
AcDbEntity
  8
0
100
AcDbLine
 62
250
  6
CONTINUOUS
 10
-5.3975027302
 20
-20.8603917206
 11
-5.3974126725
 21
-20.9070601882
  0
LINE
  5
44A
100
AcDbEntity
  8
0
100
AcDbLine
 62
250
  6
CONTINUOUS
 10
-5.393891976
 20
-20.513168973
 11
-5.393891976
 21
-20.188785849
  0
LINE
  5
44B
100
AcDbEntity
  8
0
100
AcDbLine
 62
250
  6
CONTINUOUS
 10
-5.393891976
 20
20.386831027
 11
-5.393891976
 21
20.711214151
  0
LINE
  5
44C
100
AcDbEntity
  8
ASSI
100
AcDbLine
 62
250
  6
CONTINUOUS
 10
-5.3500984506
 20
-21.7172828182
 11
-5.3500984506
 21
-21.6455085759
  0
LINE
  5
44D
100
AcDbEntity
  8
ASSI
100
AcDbLine
 62
250
  6
CONTINUOUS
 10
-5.3500984506
 20
21.843553754
 11
-5.3500984506
 21
21.9153279962
  0
LINE
  5
44E
100
AcDbEntity
  8
IMPORT_IGES
100
AcDbLine
 62
7
  6
CONTINUOUS
 10
-5.2349871631
 20
12.8773696145
 11
-5.2349871631
 21
12.499022589
  0
LINE
  5
44F
100
AcDbEntity
  8
IMPORT_IGES
100
AcDbLine
 62
7
  6
CONTINUOUS
 10
-5.1589871631
 20
12.499022589
 11
-5.1589871631
 21
12.8786961994
  0
LINE
  5
450
100
AcDbEntity
  8
IMPORT_IGES
100
AcDbLine
 62
250
  6
CONTINUOUS
 10
-5.0589871631
 20
12.8804417059
 11
-5.0589871631
 21
12.499022589
  0
LINE
  5
451
100
AcDbEntity
  8
0
100
AcDbLine
 62
7
  6
CONTINUOUS
 10
-4.8589871631
 20
19.8775703812
 11
-4.8589871631
 21
19.7204747968
  0
LINE
  5
452
100
AcDbEntity
  8
RACCORDO
100
AcDbLine
 62
7
  6
CONTINUOUS
 10
-4.8589871631
 20
-24.8173395534
 11
-4.8589871631
 21
-23.9211902697
  0
LINE
  5
453
100
AcDbEntity
  8
0
100
AcDbLine
 62
7
  6
CONTINUOUS
 10
-4.8589871631
 20
-19.5224296188
 11
-4.8589871631
 21
-19.6795252032
  0
LINE
  5
454
100
AcDbEntity
  8
RACCORDO
100
AcDbLine
 62
7
  6
CONTINUOUS
 10
-4.8589871631
 20
24.1192354478
 11
-4.8589871631
 21
25.0153847314
  0
LINE
  5
455
100
AcDbEntity
  8
RACCORDO
100
AcDbLine
 62
250
  6
CONTINUOUS
 10
-4.6589871631
 20
25.0771881303
 11
-4.6589871631
 21
24.6967655238
  0
LINE
  5
456
100
AcDbEntity
  8
RACCORDO
100
AcDbLine
 62
250
  6
CONTINUOUS
 10
-4.6589871631
 20
-24.8791429523
 11
-4.6589871631
 21
-24.4987203458
  0
LINE
  5
457
100
AcDbEntity
  8
IMPORT_IGES
100
AcDbLine
 62
7
  6
CONTINUOUS
 10
-4.3749871631
 20
6.5845441906
 11
-4.3749871631
 21
3.4135009874
  0
LINE
  5
458
100
AcDbEntity
  8
IMPORT_IGES
100
AcDbLine
 62
7
  6
CONTINUOUS
 10
-4.3749871631
 20
-1.5864990126
 11
-4.3749871631
 21
1.5845441906
  0
LINE
  5
459
100
AcDbEntity
  8
IMPORT_IGES
100
AcDbLine
 62
7
  6
CONTINUOUS
 10
-4.3749871631
 20
8.4135009874
 11
-4.3749871631
 21
11.5845441906
  0
LINE
  5
45A
100
AcDbEntity
  8
IMPORT_IGES
100
AcDbLine
 62
7
  6
CONTINUOUS
 10
-4.3649871631
 20
-1.300977411
 11
-4.3649871631
 21
1.299022589
  0
LINE
  5
45B
100
AcDbEntity
  8
IMPORT_IGES
100
AcDbLine
 62
7
  6
CONTINUOUS
 10
-4.3649871631
 20
3.699022589
 11
-4.3649871631
 21
6.299022589
  0
LINE
  5
45C
100
AcDbEntity
  8
IMPORT_IGES
100
AcDbLine
 62
7
  6
CONTINUOUS
 10
-4.3649871631
 20
8.699022589
 11
-4.3649871631
 21
11.299022589
  0
LINE
  5
45D
100
AcDbEntity
  8
ASSI
100
AcDbLine
 62
250
  6
CONTINUOUS
 10
-4.3501383079
 20
-22.6381694783
 11
-4.3501383079
 21
-21.0313116086
  0
LINE
  5
45E
100
AcDbEntity
  8
ASSI
100
AcDbLine
 62
250
  6
CONTINUOUS
 10
-4.3501383079
 20
21.2293567866
 11
-4.3501383079
 21
22.8362146563
  0
LINE
  5
45F
100
AcDbEntity
  8
0
100
AcDbLine
 62
7
  6
CONTINUOUS
 10
-4.3330943059
 20
-23.150977411
 11
-4.3330943059
 21
-22.400977411
  0
LINE
  5
460
100
AcDbEntity
  8
ASSI
100
AcDbLine
 62
7
  6
CONTINUOUS
 10
-4.3330943059
 20
-23.150977411
 11
-4.3330943059
 21
-22.400977411
  0
LINE
  5
461
100
AcDbEntity
  8
0
100
AcDbLine
 62
7
  6
CONTINUOUS
 10
-4.3330943059
 20
22.599022589
 11
-4.3330943059
 21
23.349022589
  0
LINE
  5
462
100
AcDbEntity
  8
ASSI
100
AcDbLine
 62
7
  6
CONTINUOUS
 10
-4.3330943059
 20
22.599022589
 11
-4.3330943059
 21
23.349022589
  0
LINE
  5
463
100
AcDbEntity
  8
RACCORDO
100
AcDbLine
 62
250
  6
CONTINUOUS
 10
-4.3089871631
 20
23.030194044
 11
-4.3089871631
 21
22.6497714375
  0
LINE
  5
464
100
AcDbEntity
  8
RACCORDO
100
AcDbLine
 62
250
  6
CONTINUOUS
 10
-4.3089871631
 20
-22.832148866
 11
-4.3089871631
 21
-22.4517262595
  0
LINE
  5
465
100
AcDbEntity
  8
0
100
AcDbLine
 62
7
  6
CONTINUOUS
 10
-4.2589871631
 20
22.599022589
 11
-4.2589871631
 21
21.2309478358
  0
LINE
  5
466
100
AcDbEntity
  8
ASSI
100
AcDbLine
 62
7
  6
CONTINUOUS
 10
-4.2589871631
 20
22.599022589
 11
-4.2589871631
 21
21.2309478358
  0
LINE
  5
467
100
AcDbEntity
  8
0
100
AcDbLine
 62
7
  6
CONTINUOUS
 10
-4.2589871631
 20
-21.0329026578
 11
-4.2589871631
 21
-22.400977411
  0
LINE
  5
468
100
AcDbEntity
  8
ASSI
100
AcDbLine
 62
7
  6
CONTINUOUS
 10
-4.2589871631
 20
-21.0329026578
 11
-4.2589871631
 21
-22.400977411
  0
LINE
  5
469
100
AcDbEntity
  8
ASSI
100
AcDbLine
 62
7
  6
CONTINUOUS
 10
-4.1089871631
 20
-21.0355209175
 11
-4.1089871631
 21
-21.3009774075
  0
LINE
  5
46A
100
AcDbEntity
  8
RACCORDO
100
AcDbLine
 62
7
  6
CONTINUOUS
 10
-4.1089871631
 20
-22.1569282757
 11
-4.1089871631
 21
-22.7703454671
  0
LINE
  5
46B
100
AcDbEntity
  8
0
100
AcDbLine
 62
7
  6
CONTINUOUS
 10
-4.1089871631
 20
-21.3009774078
 11
-4.1089871631
 21
-22.1569282757
  0
LINE
  5
46C
100
AcDbEntity
  8
ASSI
100
AcDbLine
 62
7
  6
CONTINUOUS
 10
-4.1089871631
 20
21.2335660955
 11
-4.1089871631
 21
21.4990225855
  0
LINE
  5
46D
100
AcDbEntity
  8
0
100
AcDbLine
 62
7
  6
CONTINUOUS
 10
-4.1089871631
 20
21.4990225858
 11
-4.1089871631
 21
22.3549734537
  0
LINE
  5
46E
100
AcDbEntity
  8
RACCORDO
100
AcDbLine
 62
7
  6
CONTINUOUS
 10
-4.1089871631
 20
22.3549734537
 11
-4.1089871631
 21
22.9683906452
  0
LINE
  5
46F
100
AcDbEntity
  8
0
100
AcDbLine
 62
250
  6
CONTINUOUS
 10
-5.3974576739
 20
-19.8058763276
 11
-5.3974877053
 21
-19.854324297
  0
LINE
  5
470
100
AcDbEntity
  8
0
100
AcDbLine
 62
250
  6
CONTINUOUS
 10
-5.3974126725
 20
21.1051053662
 11
-5.3975027302
 21
21.0707752209
  0
LINE
  5
471
100
AcDbEntity
  8
0
100
AcDbLine
 62
250
  6
CONTINUOUS
 10
-5.3972779972
 20
20.1073248378
 11
-5.3975027302
 21
20.0396082794
  0
LINE
  5
472
100
AcDbEntity
  8
0
100
AcDbLine
 62
250
  6
CONTINUOUS
 10
-5.3972779972
 20
-20.7926751622
 11
-5.3975027302
 21
-20.8603917206
  0
LINE
  5
473
100
AcDbEntity
  8
0
100
AcDbLine
 62
250
  6
CONTINUOUS
 10
-5.3972779972
 20
-19.7743831653
 11
-5.3974576739
 21
-19.8058763276
  0
LINE
  5
474
100
AcDbEntity
  8
0
100
AcDbLine
 62
250
  6
CONTINUOUS
 10
-5.3971884872
 20
21.1351216289
 11
-5.3974126725
 21
21.1051053662
  0
LINE
  5
475
100
AcDbEntity
  8
0
100
AcDbLine
 62
250
  6
CONTINUOUS
 10
-5.3965241064
 20
20.1995907606
 11
-5.3972779972
 21
20.1073248378
  0
LINE
  5
476
100
AcDbEntity
  8
0
100
AcDbLine
 62
250
  6
CONTINUOUS
 10
-5.3965241064
 20
-20.7004092394
 11
-5.3972779972
 21
-20.7926751622
  0
LINE
  5
477
100
AcDbEntity
  8
0
100
AcDbLine
 62
250
  6
CONTINUOUS
 10
-5.3970843352
 20
-19.7558898425
 11
-5.3972779972
 21
-19.7743831653
  0
LINE
  5
478
100
AcDbEntity
  8
0
100
AcDbLine
 62
250
  6
CONTINUOUS
 10
-5.3969656678
 20
21.1525714734
 11
-5.3971884872
 21
21.1351216289
  0
LINE
  5
479
100
AcDbEntity
  8
0
100
AcDbLine
 62
250
  6
CONTINUOUS
 10
-5.3950209351
 20
-20.5827315249
 11
-5.3965241064
 21
-20.7004092394
  0
LWPOLYLINE
  5
47A
100
AcDbEntity
  8
0
100
AcDbPolyline
 62
250
  6
CONTINUOUS
 90
3
 70
0
 10
-5.3947558741
 20
20.3345848488
 10
-5.3950209351
 20
20.3172684751
 10
-5.3965241064
 20
20.1995907606
  0
LINE
  5
47B
100
AcDbEntity
  8
0
100
AcDbLine
 62
250
  6
CONTINUOUS
 10
-5.3968326296
 20
-19.7395047281
 11
-5.3970843352
 21
-19.7558898425
  0
LINE
  5
47C
100
AcDbEntity
  8
0
100
AcDbLine
 62
250
  6
CONTINUOUS
 10
-5.393891976
 20
-20.513168973
 11
-5.3950209351
 21
-20.5827315249
  0
LINE
  5
47D
100
AcDbEntity
  8
ASSI
100
AcDbLine
 62
7
  6
CONTINUOUS
 10
-4.3375585917
 20
23.349022589
 11
-4.3501383079
 21
22.8362146563
  0
LINE
  5
47E
100
AcDbEntity
  8
RACCORDO
100
AcDbLine
 62
7
  6
CONTINUOUS
 10
-5.9869237787
 20
-21.600977411
 11
-5.9660455159
 21
-21.0031058434
  0
LINE
  5
47F
100
AcDbEntity
  8
ASSI
100
AcDbLine
 62
7
  6
CONTINUOUS
 10
-5.9869237787
 20
-21.600977411
 11
-5.9660455159
 21
-21.0031058434
  0
LWPOLYLINE
  5
480
100
AcDbEntity
  8
RACCORDO
100
AcDbPolyline
 62
7
  6
CONTINUOUS
 90
25
 70
0
 10
-1.5589871631
 20
24.1192354478
 10
-1.559430566
 20
24.1151648824
 10
-1.5607115473
 20
24.1111458007
 10
-1.562830107
 20
24.1071782028
 10
-1.5658024441
 20
24.1032455867
 10
-1.5696123595
 20
24.0993644544
 10
-1.5742112566
 20
24.0955843109
 10
-1.579609242
 20
24.09190645
 10
-1.585796209
 20
24.088329578
 10
-1.5926932406
 20
24.084899319
 10
-1.6003094328
 20
24.0816175513
 10
-1.6086356896
 20
24.0784823968
 10
-1.6175658069
 20
24.0755338453
 10
-1.6271075198
 20
24.0727742873
 10
-1.6372530931
 20
24.0702013325
 10
-1.6478731165
 20
24.0678477997
 10
-1.6589736675
 20
24.0657164997
 10
-1.6705486686
 20
24.0638046217
 10
-1.6824504766
 20
24.0621365525
 10
-1.6946832778
 20
24.0607154151
 10
-1.7072428859
 20
24.0595380865
 10
-1.7199690987
 20
24.0586195839
 10
-1.7328085155
 20
24.0579649129
 10
-1.7458145369
 20
24.0575690679
 10
-1.7589871631
 20
24.0574320489
  0
LWPOLYLINE
  5
481
100
AcDbEntity
  8
0
100
AcDbPolyline
 62
250
  6
CONTINUOUS
 90
11
 70
0
 10
10.4742106268
 20
17.7132939831
 10
10.4789452543
 20
17.7184897975
 10
10.4831656497
 20
17.7231745578
 10
10.486868659
 20
17.7273447628
 10
10.4900515149
 20
17.7309972962
 10
10.4927118413
 20
17.7341294316
 10
10.4948476452
 20
17.7367388223
 10
10.4964573246
 20
17.7388235107
 10
10.4975396814
 20
17.740381943
 10
10.4980939153
 20
17.7414129636
 10
10.4981196181
 20
17.7419158078
  0
LINE
  5
482
100
AcDbEntity
  8
0
100
AcDbLine
 62
250
  6
CONTINUOUS
 10
10.4632132147
 20
17.7013851079
 11
10.4742106268
 21
17.7132939831
  0
LINE
  5
483
100
AcDbEntity
  8
0
100
AcDbLine
 62
250
  6
CONTINUOUS
 10
10.4502062929
 20
17.6874835365
 11
10.4632132147
 21
17.7013851079
  0
LINE
  5
484
100
AcDbEntity
  8
0
100
AcDbLine
 62
250
  6
CONTINUOUS
 10
10.4270147506
 20
17.66298738
 11
10.4502062929
 21
17.6874835365
  0
LINE
  5
485
100
AcDbEntity
  8
0
100
AcDbLine
 62
250
  6
CONTINUOUS
 10
10.3894713467
 20
17.62378779
 11
10.4270147506
 21
17.66298738
  0
LINE
  5
486
100
AcDbEntity
  8
0
100
AcDbLine
 62
250
  6
CONTINUOUS
 10
10.3325469338
 20
17.5649546271
 11
10.3894713467
 21
17.62378779
  0
LINE
  5
487
100
AcDbEntity
  8
0
100
AcDbLine
 62
250
  6
CONTINUOUS
 10
10.2361509945
 20
17.4662506839
 11
10.3325469338
 21
17.5649546271
  0
LINE
  5
488
100
AcDbEntity
  8
0
100
AcDbLine
 62
250
  6
CONTINUOUS
 10
10.071245912
 20
17.298933168
 11
10.2361509945
 21
17.4662506839
  0
LWPOLYLINE
  5
489
100
AcDbEntity
  8
0
100
AcDbPolyline
 62
250
  6
CONTINUOUS
 90
3
 70
0
 10
9.8084652433
 20
17.0348090266
 10
9.8277851339
 20
17.0541413284
 10
10.071245912
 20
17.298933168
  0
LINE
  5
48A
100
AcDbEntity
  8
CURVE
100
AcDbLine
 62
250
  6
CONTINUOUS
 10
6.7418488283
 20
9.599022589
 11
8.6415594491
 21
10.549022589
  0
LINE
  5
48B
100
AcDbEntity
  8
0
100
AcDbLine
 62
7
  6
CONTINUOUS
 10
-0.3589871631
 20
-3.5057078006
 11
5.6410128369
 21
-3.400977411
  0
LINE
  5
48C
100
AcDbEntity
  8
0
100
AcDbLine
 62
7
  6
CONTINUOUS
 10
-0.3589871631
 20
-3.514435333
 11
-6.8589871631
 21
-3.400977411
  0
LINE
  5
48D
100
AcDbEntity
  8
CURVE
100
AcDbLine
 62
250
  6
CONTINUOUS
 10
7.2132055797
 20
-9.5795487544
 11
7.4274586668
 21
-9.6866915605
  0
LINE
  5
48E
100
AcDbEntity
  8
CURVE
100
AcDbLine
 62
250
  6
CONTINUOUS
 10
0.8927398116
 20
-8.4621787604
 11
1.2141194535
 21
-8.783607268
  0
LINE
  5
48F
100
AcDbEntity
  8
CURVE
100
AcDbLine
 62
250
  6
CONTINUOUS
 10
6.356193276
 20
-13.722406008
 11
6.1419402112
 21
-13.5081203064
  0
LINE
  5
490
100
AcDbEntity
  8
CURVE
100
AcDbLine
 62
250
  6
CONTINUOUS
 10
7.6417117539
 20
-14.4724059633
 11
7.4274586668
 21
-14.2581202617
  0
LINE
  5
491
100
AcDbEntity
  8
CURVE
100
AcDbLine
 62
250
  6
CONTINUOUS
 10
2.3925113544
 20
-8.4621787604
 11
2.1782582672
 21
-8.2478930589
  0
LINE
  5
492
100
AcDbEntity
  8
CURVE
100
AcDbLine
 62
250
  6
CONTINUOUS
 10
3.8565740381
 20
-9.650977411
 11
3.6423209733
 21
-9.4366917989
  0
LINE
  5
493
100
AcDbEntity
  8
CURVE
100
AcDbLine
 62
250
  6
CONTINUOUS
 10
7.4274586668
 20
-13.1866916201
 11
7.6417117539
 21
-13.400977411
  0
LINE
  5
494
100
AcDbEntity
  8
0
100
AcDbLine
 62
250
  6
CONTINUOUS
 10
9.8084652433
 20
-16.8367638486
 11
9.9236843983
 21
-16.952252491
  0
LINE
  5
495
100
AcDbEntity
  8
0
100
AcDbLine
 62
250
  6
CONTINUOUS
 10
9.9236843983
 20
-16.952252491
 11
10.0353411923
 21
-17.064640159
  0
LINE
  5
496
100
AcDbEntity
  8
0
100
AcDbLine
 62
250
  6
CONTINUOUS
 10
10.0353411923
 20
-17.064640159
 11
10.1404374128
 21
-17.1709090152
  0
LINE
  5
497
100
AcDbEntity
  8
0
100
AcDbLine
 62
250
  6
CONTINUOUS
 10
10.1404374128
 20
-17.1709090152
 11
10.23615107
 21
-17.2682055828
  0
LINE
  5
498
100
AcDbEntity
  8
0
100
AcDbLine
 62
250
  6
CONTINUOUS
 10
10.23615107
 20
-17.2682055828
 11
10.3068818485
 21
-17.3405384995
  0
LINE
  5
499
100
AcDbEntity
  8
0
100
AcDbLine
 62
250
  6
CONTINUOUS
 10
10.3068818485
 20
-17.3405384995
 11
10.367986696
 21
-17.4034711616
  0
LINE
  5
49A
100
AcDbEntity
  8
0
100
AcDbLine
 62
250
  6
CONTINUOUS
 10
10.367986696
 20
-17.4034711616
 11
10.4091670967
 21
-17.4462535073
  0
LINE
  5
49B
100
AcDbEntity
  8
0
100
AcDbLine
 62
250
  6
CONTINUOUS
 10
10.4091670967
 20
-17.4462535073
 11
10.4352288132
 21
-17.473585721
  0
LINE
  5
49C
100
AcDbEntity
  8
0
100
AcDbLine
 62
250
  6
CONTINUOUS
 10
10.4352288132
 20
-17.473585721
 11
10.4502063557
 21
-17.4894384253
  0
LINE
  5
49D
100
AcDbEntity
  8
0
100
AcDbLine
 62
250
  6
CONTINUOUS
 10
10.4502063557
 20
-17.4894384253
 11
10.4632132709
 21
-17.5033399903
  0
LWPOLYLINE
  5
49E
100
AcDbEntity
  8
0
100
AcDbPolyline
 62
250
  6
CONTINUOUS
 90
12
 70
0
 10
10.4632132709
 20
-17.5033399903
 10
10.4742106724
 20
-17.5152488549
 10
10.4789452952
 20
-17.5204446646
 10
10.4831656874
 20
-17.5251294219
 10
10.4868686935
 20
-17.529299624
 10
10.4900515448
 20
-17.5329521529
 10
10.4927118656
 20
-17.5360842826
 10
10.4948476634
 20
-17.5386936671
 10
10.4964573361
 20
-17.5407783482
 10
10.4975396867
 20
-17.5423367734
 10
10.4980939163
 20
-17.5433677883
 10
10.4981196181
 20
-17.5438706298
  0
LINE
  5
49F
100
AcDbEntity
  8
IMPORT_IGES
100
AcDbLine
 62
250
  6
CONTINUOUS
 10
-3.4407736007
 20
12.699022589
 11
-3.4407769025
 21
12.499022589
  0
LINE
  5
4A0
100
AcDbEntity
  8
IMPORT_IGES
100
AcDbLine
 62
7
  6
CONTINUOUS
 10
-3.1649871631
 20
12.799022589
 11
-3.1649871631
 21
12.9135015989
  0
LWPOLYLINE
  5
4A1
100
AcDbEntity
  8
RACCORDO
100
AcDbPolyline
 62
7
  6
CONTINUOUS
 90
25
 70
0
 10
-4.8589871631
 20
-23.9211902697
 10
-4.8585437602
 20
-23.9171197044
 10
-4.8572627789
 20
-23.9131006227
 10
-4.8551442192
 20
-23.9091330247
 10
-4.8521718821
 20
-23.9052004087
 10
-4.8483619667
 20
-23.9013192764
 10
-4.8437630696
 20
-23.8975391329
 10
-4.8383650842
 20
-23.893861272
 10
-4.8321781172
 20
-23.8902843999
 10
-4.8252810856
 20
-23.886854141
 10
-4.8176648934
 20
-23.8835723733
 10
-4.8093386366
 20
-23.8804372187
 10
-4.8004085193
 20
-23.8774886673
 10
-4.7908668064
 20
-23.8747291093
 10
-4.7807212331
 20
-23.8721561544
 10
-4.7701012097
 20
-23.8698026216
 10
-4.7590006586
 20
-23.8676713216
 10
-4.7474256575
 20
-23.8657594437
 10
-4.7355238496
 20
-23.8640913745
 10
-4.7232910484
 20
-23.8626702371
 10
-4.7107314403
 20
-23.8614929085
 10
-4.6980052275
 20
-23.8605744058
 10
-4.6851658107
 20
-23.8599197349
 10
-4.6721597893
 20
-23.8595238899
 10
-4.6589871631
 20
-23.8593868709
  0
LINE
  5
4A2
100
AcDbEntity
  8
IMPORT_IGES
100
AcDbLine
 62
7
  6
CONTINUOUS
 10
5.6410128369
 20
-3.200977411
 11
-6.6649871631
 21
-3.200977411
  0
LINE
  5
4A3
100
AcDbEntity
  8
IMPORT_IGES
100
AcDbLine
 62
7
  6
CONTINUOUS
 10
-5.9649871631
 20
-3.175977411
 11
-6.6649871631
 21
-3.175977411
  0
LINE
  5
4A4
100
AcDbEntity
  8
IMPORT_IGES
100
AcDbLine
 62
7
  6
CONTINUOUS
 10
3.3350128369
 20
-3.100977411
 11
-6.6649871631
 21
-3.100977411
  0
LINE
  5
4A5
100
AcDbEntity
  8
IMPORT_IGES
100
AcDbLine
 62
250
  6
CONTINUOUS
 10
3.3350128369
 20
-2.950977411
 11
-6.6649871631
 21
-2.950977411
  0
LINE
  5
4A6
100
AcDbEntity
  8
IMPORT_IGES
100
AcDbLine
 62
250
  6
CONTINUOUS
 10
3.3350128369
 20
-2.650977411
 11
-6.6649871631
 21
-2.650977411
  0
LINE
  5
4A7
100
AcDbEntity
  8
IMPORT_IGES
100
AcDbLine
 62
7
  6
CONTINUOUS
 10
-6.6649871631
 20
-2.500977411
 11
5.6410128369
 21
-2.500977411
  0
LINE
  5
4A8
100
AcDbEntity
  8
IMPORT_IGES
100
AcDbLine
 62
7
  6
CONTINUOUS
 10
10.7910128369
 20
-2.500977411
 11
10.8350128369
 21
-2.500977411
  0
LINE
  5
4A9
100
AcDbEntity
  8
IMPORT_IGES
100
AcDbLine
 62
7
  6
CONTINUOUS
 10
3.3350128369
 20
-1.7993113612
 11
-5.7506278091
 21
-1.7993113612
  0
LINE
  5
4AA
100
AcDbEntity
  8
CURVE
100
AcDbLine
 62
250
  6
CONTINUOUS
 10
6.5704463407
 20
-7.329549112
 11
7.6417117539
 21
-7.9724059484
  0
LINE
  5
4AB
100
AcDbEntity
  8
CURVE
100
AcDbLine
 62
250
  6
CONTINUOUS
 10
6.1419402112
 20
-10.9724059484
 11
6.463319853
 21
-11.2938347241
  0
LINE
  5
4AC
100
AcDbEntity
  8
CURVE
100
AcDbLine
 62
250
  6
CONTINUOUS
 10
4.9278394289
 20
-9.1152630231
 11
5.142092516
 21
-9.3295486352
  0
LINE
  5
4AD
100
AcDbEntity
  8
CURVE
100
AcDbLine
 62
250
  6
CONTINUOUS
 10
6.356193276
 20
-10.2224059484
 11
6.1419402112
 21
-10.0081203362
  0
LINE
  5
4AE
100
AcDbEntity
  8
CURVE
100
AcDbLine
 62
250
  6
CONTINUOUS
 10
7.6417117539
 20
-10.9724059484
 11
7.4274586668
 21
-10.7581203362
  0
LWPOLYLINE
  5
4AF
100
AcDbEntity
  8
RACCORDO
100
AcDbPolyline
 62
7
  6
CONTINUOUS
 90
25
 70
0
 10
0.8410128369
 20
-24.4369169469
 10
0.8414562398
 20
-24.4409875122
 10
0.8427372211
 20
-24.4450065939
 10
0.8448557808
 20
-24.4489741919
 10
0.8478281179
 20
-24.4529068079
 10
0.8516380333
 20
-24.4567879402
 10
0.8562369304
 20
-24.4605680837
 10
0.8616349158
 20
-24.4642459446
 10
0.8678218828
 20
-24.4678228167
 10
0.8747189144
 20
-24.4712530756
 10
0.8823351066
 20
-24.4745348433
 10
0.8906613634
 20
-24.4776699979
 10
0.8995914807
 20
-24.4806185493
 10
0.9091331936
 20
-24.4833781073
 10
0.9192787669
 20
-24.4859510622
 10
0.9298987903
 20
-24.488304595
 10
0.9409993414
 20
-24.490435895
 10
0.9525743425
 20
-24.4923477729
 10
0.9644761504
 20
-24.4940158422
 10
0.9767089516
 20
-24.4954369795
 10
0.9892685597
 20
-24.4966143081
 10
1.0019947725
 20
-24.4975328108
 10
1.0148341893
 20
-24.4981874817
 10
1.0278402107
 20
-24.4985833267
 10
1.0410128369
 20
-24.4987203458
  0
LWPOLYLINE
  5
4B0
100
AcDbEntity
  8
RACCORDO
100
AcDbPolyline
 62
7
  6
CONTINUOUS
 90
22
 70
0
 10
-4.1089871631
 20
22.5879680387
 10
-4.109430566
 20
22.592038604
 10
-4.1107115473
 20
22.5960576857
 10
-4.112830107
 20
22.6000252836
 10
-4.1158024441
 20
22.6039578997
 10
-4.1196123595
 20
22.607839032
 10
-4.1242112566
 20
22.6116191755
 10
-4.129609242
 20
22.6152970364
 10
-4.135796209
 20
22.6188739084
 10
-4.1426932406
 20
22.6223041674
 10
-4.1503094328
 20
22.6255859351
 10
-4.1586356896
 20
22.6287210896
 10
-4.1675658069
 20
22.6316696411
 10
-4.1771075198
 20
22.6344291991
 10
-4.1872530931
 20
22.6370021539
 10
-4.1978731165
 20
22.6393556868
 10
-4.2089736675
 20
22.6414869868
 10
-4.2205486686
 20
22.6433988647
 10
-4.2324504766
 20
22.6450669339
 10
-4.2446832778
 20
22.6464880713
 10
-4.2572428859
 20
22.6476653999
 10
-4.2699690987
 20
22.6485839025
  0
LINE
  5
4B1
100
AcDbEntity
  8
RACCORDO
100
AcDbLine
 62
250
  6
CONTINUOUS
 10
-1.7589871631
 20
25.0771881303
 11
-1.7589871631
 21
24.6967655238
  0
LINE
  5
4B2
100
AcDbEntity
  8
RACCORDO
100
AcDbLine
 62
250
  6
CONTINUOUS
 10
-1.7589871631
 20
-24.8791429523
 11
-1.7589871631
 21
-24.4987203458
  0
LINE
  5
4B3
100
AcDbEntity
  8
RACCORDO
100
AcDbLine
 62
7
  6
CONTINUOUS
 10
-1.5589871631
 20
25.0153847314
 11
-1.5589871631
 21
24.1192354478
  0
LINE
  5
4B4
100
AcDbEntity
  8
RACCORDO
100
AcDbLine
 62
7
  6
CONTINUOUS
 10
-1.5589871631
 20
-23.9211902697
 11
-1.5589871631
 21
-24.8173395534
  0
LINE
  5
4B5
100
AcDbEntity
  8
0
100
AcDbLine
 62
7
  6
CONTINUOUS
 10
-0.3589871631
 20
-21.100977411
 11
-0.3589871631
 21
-3.5057078006
  0
LINE
  5
4B6
100
AcDbEntity
  8
0
100
AcDbLine
 62
7
  6
CONTINUOUS
 10
-0.3589871631
 20
12.9537529786
 11
-0.3589871631
 21
21.299022589
  0
LWPOLYLINE
  5
4B7
100
AcDbEntity
  8
RACCORDO
100
AcDbPolyline
 62
7
  6
CONTINUOUS
 90
25
 70
0
 10
0.8410128369
 20
25.0153847314
 10
0.8414562398
 20
25.0194552968
 10
0.8427372211
 20
25.0234743784
 10
0.8448557808
 20
25.0274419764
 10
0.8478281179
 20
25.0313745925
 10
0.8516380333
 20
25.0352557248
 10
0.8562369304
 20
25.0390358683
 10
0.8616349158
 20
25.0427137292
 10
0.8678218828
 20
25.0462906012
 10
0.8747189144
 20
25.0497208602
 10
0.8823351066
 20
25.0530026279
 10
0.8906613634
 20
25.0561377824
 10
0.8995914807
 20
25.0590863339
 10
0.9091331936
 20
25.0618458919
 10
0.9192787669
 20
25.0644188467
 10
0.9298987903
 20
25.0667723795
 10
0.9409993414
 20
25.0689036795
 10
0.9525743425
 20
25.0708155575
 10
0.9644761504
 20
25.0724836267
 10
0.9767089516
 20
25.073904764
 10
0.9892685597
 20
25.0750820927
 10
1.0019947725
 20
25.0760005953
 10
1.0148341893
 20
25.0766552663
 10
1.0278402107
 20
25.0770511113
 10
1.0410128369
 20
25.0771881303
  0
LWPOLYLINE
  5
4B8
100
AcDbEntity
  8
RACCORDO
100
AcDbPolyline
 62
7
  6
CONTINUOUS
 90
25
 70
0
 10
-4.1089871631
 20
-22.7703454671
 10
-4.109430566
 20
-22.7744160325
 10
-4.1107115473
 20
-22.7784351142
 10
-4.112830107
 20
-22.7824027121
 10
-4.1158024441
 20
-22.7863353282
 10
-4.1196123595
 20
-22.7902164605
 10
-4.1242112566
 20
-22.793996604
 10
-4.129609242
 20
-22.7976744649
 10
-4.135796209
 20
-22.8012513369
 10
-4.1426932406
 20
-22.8046815959
 10
-4.1503094328
 20
-22.8079633636
 10
-4.1586356896
 20
-22.8110985181
 10
-4.1675658069
 20
-22.8140470696
 10
-4.1771075198
 20
-22.8168066276
 10
-4.1872530931
 20
-22.8193795824
 10
-4.1978731165
 20
-22.8217331152
 10
-4.2089736675
 20
-22.8238644152
 10
-4.2205486686
 20
-22.8257762932
 10
-4.2324504766
 20
-22.8274443624
 10
-4.2446832778
 20
-22.8288654998
 10
-4.2572428859
 20
-22.8300428284
 10
-4.2699690987
 20
-22.830961331
 10
-4.2828085155
 20
-22.831616002
 10
-4.2958145369
 20
-22.832011847
 10
-4.3089871631
 20
-22.832148866
  0
LINE
  5
4B9
100
AcDbEntity
  8
DRAFT
100
AcDbLine
 62
7
  6
CONTINUOUS
 10
-11.5089871631
 20
-10.0255280603
 11
-11.5432776047
 21
-10.0598185018
  0
LINE
  5
4BA
100
AcDbEntity
  8
ASSI
100
AcDbLine
 62
7
  6
CONTINUOUS
 10
-11.5089871631
 20
-10.0255280603
 11
-11.5432776047
 21
-10.0598185018
  0
LINE
  5
4BB
100
AcDbEntity
  8
IMPORT_IGES
100
AcDbLine
 62
7
  6
CONTINUOUS
 10
-5.7506278091
 20
-1.7993113612
 11
-4.3749871631
 21
-1.5864990126
  0
LINE
  5
4BC
100
AcDbEntity
  8
IMPORT_IGES
100
AcDbLine
 62
7
  6
CONTINUOUS
 10
-4.3749871631
 20
-1.450977411
 11
0.5350128369
 21
-1.450977411
  0
LINE
  5
4BD
100
AcDbEntity
  8
IMPORT_IGES
100
AcDbLine
 62
7
  6
CONTINUOUS
 10
0.5350128369
 20
-1.300977411
 11
-4.3649871631
 21
-1.300977411
  0
LINE
  5
4BE
100
AcDbEntity
  8
RACCORDO
100
AcDbLine
 62
7
  6
CONTINUOUS
 10
-11.5089871631
 20
-0.2421363201
 11
-11.5432776047
 21
-0.2421363201
  0
LINE
  5
4BF
100
AcDbEntity
  8
ASSI
100
AcDbLine
 62
7
  6
CONTINUOUS
 10
-11.5089871631
 20
-0.2421363201
 11
-11.5432776047
 21
-0.2421363201
  0
LINE
  5
4C0
100
AcDbEntity
  8
CURVE
100
AcDbLine
 62
250
  6
CONTINUOUS
 10
6.7418488283
 20
0.1418797561
 11
8.6415594491
 21
0.1418797561
  0
LINE
  5
4C1
100
AcDbEntity
  8
IMPORT_IGES
100
AcDbLine
 62
7
  6
CONTINUOUS
 10
0.5350128369
 20
-1.450977411
 11
3.3350128369
 21
-1.6520083662
  0
LINE
  5
4C2
100
AcDbEntity
  8
DRAFT
100
AcDbLine
 62
7
  6
CONTINUOUS
 10
-11.5089871631
 20
10.2235732383
 11
-11.5432776047
 21
10.2578636799
  0
LINE
  5
4C3
100
AcDbEntity
  8
ASSI
100
AcDbLine
 62
7
  6
CONTINUOUS
 10
-11.5089871631
 20
10.2235732383
 11
-11.5432776047
 21
10.2578636799
  0
LINE
  5
4C4
100
AcDbEntity
  8
CURVE
100
AcDbLine
 62
250
  6
CONTINUOUS
 10
7.4274586668
 20
-9.6866915605
 11
7.6417117539
 21
-9.9009775302
  0
LWPOLYLINE
  5
4C5
100
AcDbEntity
  8
RACCORDO
100
AcDbPolyline
 62
7
  6
CONTINUOUS
 90
22
 70
0
 10
3.3910128369
 20
-22.3899228606
 10
3.3914562398
 20
-22.393993426
 10
3.3927372211
 20
-22.3980125076
 10
3.3948557808
 20
-22.4019801056
 10
3.3978281179
 20
-22.4059127216
 10
3.4016380333
 20
-22.409793854
 10
3.4062369304
 20
-22.4135739974
 10
3.4116349158
 20
-22.4172518584
 10
3.4178218828
 20
-22.4208287304
 10
3.4247189144
 20
-22.4242589893
 10
3.4323351066
 20
-22.427540757
 10
3.4406613634
 20
-22.4306759116
 10
3.4495914807
 20
-22.4336244631
 10
3.4591331936
 20
-22.4363840211
 10
3.4692787669
 20
-22.4389569759
 10
3.4798987903
 20
-22.4413105087
 10
3.4909993414
 20
-22.4434418087
 10
3.5025743425
 20
-22.4453536867
 10
3.5144761504
 20
-22.4470217559
 10
3.5267089516
 20
-22.4484428932
 10
3.5392685597
 20
-22.4496202219
 10
3.5519947725
 20
-22.4505387245
  0
LWPOLYLINE
  5
4C6
100
AcDbEntity
  8
RACCORDO
100
AcDbPolyline
 62
7
  6
CONTINUOUS
 90
25
 70
0
 10
-1.5589871631
 20
24.6349621249
 10
-1.559430566
 20
24.6390326903
 10
-1.5607115473
 20
24.6430517719
 10
-1.562830107
 20
24.6470193699
 10
-1.5658024441
 20
24.6509519859
 10
-1.5696123595
 20
24.6548331183
 10
-1.5742112566
 20
24.6586132617
 10
-1.579609242
 20
24.6622911227
 10
-1.585796209
 20
24.6658679947
 10
-1.5926932406
 20
24.6692982536
 10
-1.6003094328
 20
24.6725800213
 10
-1.6086356896
 20
24.6757151759
 10
-1.6175658069
 20
24.6786637274
 10
-1.6271075198
 20
24.6814232853
 10
-1.6372530931
 20
24.6839962402
 10
-1.6478731165
 20
24.686349773
 10
-1.6589736675
 20
24.688481073
 10
-1.6705486686
 20
24.690392951
 10
-1.6824504766
 20
24.6920610202
 10
-1.6946832778
 20
24.6934821575
 10
-1.7072428859
 20
24.6946594862
 10
-1.7199690987
 20
24.6955779888
 10
-1.7328085155
 20
24.6962326598
 10
-1.7458145369
 20
24.6966285048
 10
-1.7589871631
 20
24.6967655238
  0
LINE
  5
4C7
100
AcDbEntity
  8
IMPORT_IGES
100
AcDbLine
 62
7
  6
CONTINUOUS
 10
0.5350128369
 20
6.449022589
 11
0.5350128369
 21
3.549022589
  0
LINE
  5
4C8
100
AcDbEntity
  8
IMPORT_IGES
100
AcDbLine
 62
7
  6
CONTINUOUS
 10
0.5350128369
 20
1.449022589
 11
0.5350128369
 21
-1.450977411
  0
LINE
  5
4C9
100
AcDbEntity
  8
IMPORT_IGES
100
AcDbLine
 62
7
  6
CONTINUOUS
 10
0.5350128369
 20
8.549022589
 11
0.5350128369
 21
11.449022589
  0
LINE
  5
4CA
100
AcDbEntity
  8
RACCORDO
100
AcDbLine
 62
7
  6
CONTINUOUS
 10
0.8410128369
 20
-24.8173395534
 11
0.8410128369
 21
-23.9211902697
  0
LINE
  5
4CB
100
AcDbEntity
  8
RACCORDO
100
AcDbLine
 62
7
  6
CONTINUOUS
 10
0.8410128369
 20
24.1192354478
 11
0.8410128369
 21
25.0153847314
  0
LINE
  5
4CC
100
AcDbEntity
  8
RACCORDO
100
AcDbLine
 62
250
  6
CONTINUOUS
 10
1.0410128369
 20
25.0771881303
 11
1.0410128369
 21
24.6967655238
  0
LINE
  5
4CD
100
AcDbEntity
  8
RACCORDO
100
AcDbLine
 62
250
  6
CONTINUOUS
 10
1.0410128369
 20
-24.8791429523
 11
1.0410128369
 21
-24.4987203458
  0
LINE
  5
4CE
100
AcDbEntity
  8
CURVE
100
AcDbLine
 62
250
  6
CONTINUOUS
 10
1.5354990059
 20
-8.4621787604
 11
1.5354990059
 21
-8.9264644023
  0
LINE
  5
4CF
100
AcDbEntity
  8
CURVE
100
AcDbLine
 62
250
  6
CONTINUOUS
 10
1.642625583
 20
-16.400977411
 11
1.642625583
 21
-15.650977411
  0
LINE
  5
4D0
100
AcDbEntity
  8
CURVE
100
AcDbLine
 62
250
  6
CONTINUOUS
 10
1.642625583
 20
-12.5443756932
 11
1.642625583
 21
-11.7943756932
  0
LWPOLYLINE
  5
4D1
100
AcDbEntity
  8
RACCORDO
100
AcDbPolyline
 62
7
  6
CONTINUOUS
 90
25
 70
0
 10
3.3910128369
 20
22.9683906452
 10
3.3914562398
 20
22.9724612105
 10
3.3927372211
 20
22.9764802922
 10
3.3948557808
 20
22.9804478902
 10
3.3978281179
 20
22.9843805062
 10
3.4016380333
 20
22.9882616385
 10
3.4062369304
 20
22.992041782
 10
3.4116349158
 20
22.9957196429
 10
3.4178218828
 20
22.999296515
 10
3.4247189144
 20
23.0027267739
 10
3.4323351066
 20
23.0060085416
 10
3.4406613634
 20
23.0091436962
 10
3.4495914807
 20
23.0120922476
 10
3.4591331936
 20
23.0148518056
 10
3.4692787669
 20
23.0174247605
 10
3.4798987903
 20
23.0197782933
 10
3.4909993414
 20
23.0219095933
 10
3.5025743425
 20
23.0238214712
 10
3.5144761504
 20
23.0254895404
 10
3.5267089516
 20
23.0269106778
 10
3.5392685597
 20
23.0280880064
 10
3.5519947725
 20
23.0290065091
 10
3.5648341893
 20
23.02966118
 10
3.5778402107
 20
23.030057025
 10
3.5910128369
 20
23.030194044
  0
LWPOLYLINE
  5
4D2
100
AcDbEntity
  8
RACCORDO
100
AcDbPolyline
 62
7
  6
CONTINUOUS
 90
25
 70
0
 10
-1.5589871631
 20
-24.8173395534
 10
-1.559430566
 20
-24.8214101188
 10
-1.5607115473
 20
-24.8254292004
 10
-1.562830107
 20
-24.8293967984
 10
-1.5658024441
 20
-24.8333294144
 10
-1.5696123595
 20
-24.8372105468
 10
-1.5742112566
 20
-24.8409906902
 10
-1.579609242
 20
-24.8446685512
 10
-1.585796209
 20
-24.8482454232
 10
-1.5926932406
 20
-24.8516756821
 10
-1.6003094328
 20
-24.8549574498
 10
-1.6086356896
 20
-24.8580926044
 10
-1.6175658069
 20
-24.8610411559
 10
-1.6271075198
 20
-24.8638007138
 10
-1.6372530931
 20
-24.8663736687
 10
-1.6478731165
 20
-24.8687272015
 10
-1.6589736675
 20
-24.8708585015
 10
-1.6705486686
 20
-24.8727703795
 10
-1.6824504766
 20
-24.8744384487
 10
-1.6946832778
 20
-24.875859586
 10
-1.7072428859
 20
-24.8770369146
 10
-1.7199690987
 20
-24.8779554173
 10
-1.7328085155
 20
-24.8786100883
 10
-1.7458145369
 20
-24.8790059333
 10
-1.7589871631
 20
-24.8791429523
  0
LWPOLYLINE
  5
4D3
100
AcDbEntity
  8
RACCORDO
100
AcDbPolyline
 62
7
  6
CONTINUOUS
 90
25
 70
0
 10
4.1410128369
 20
24.1192354478
 10
4.140569434
 20
24.1151648824
 10
4.1392884527
 20
24.1111458007
 10
4.137169893
 20
24.1071782028
 10
4.1341975559
 20
24.1032455867
 10
4.1303876405
 20
24.0993644544
 10
4.1257887434
 20
24.0955843109
 10
4.120390758
 20
24.09190645
 10
4.114203791
 20
24.088329578
 10
4.1073067594
 20
24.084899319
 10
4.0996905672
 20
24.0816175513
 10
4.0913643104
 20
24.0784823968
 10
4.0824341931
 20
24.0755338453
 10
4.0728924802
 20
24.0727742873
 10
4.0627469069
 20
24.0702013325
 10
4.0521268835
 20
24.0678477997
 10
4.0410263325
 20
24.0657164997
 10
4.0294513314
 20
24.0638046217
 10
4.0175495234
 20
24.0621365525
 10
4.0053167222
 20
24.0607154151
 10
3.9927571141
 20
24.0595380865
 10
3.9800309013
 20
24.0586195839
 10
3.9671914845
 20
24.0579649129
 10
3.9541854631
 20
24.0575690679
 10
3.9410128369
 20
24.0574320489
  0
LINE
  5
4D4
100
AcDbEntity
  8
IMPORT_IGES
100
AcDbLine
 62
7
  6
CONTINUOUS
 10
3.3350128369
 20
1.6500535442
 11
0.5350128369
 21
1.449022589
  0
LINE
  5
4D5
100
AcDbEntity
  8
RACCORDO
100
AcDbLine
 62
7
  6
CONTINUOUS
 10
-11.5432776047
 20
0.4401814982
 11
-11.5089871631
 21
0.4401814982
  0
LINE
  5
4D6
100
AcDbEntity
  8
ASSI
100
AcDbLine
 62
7
  6
CONTINUOUS
 10
-11.5432776047
 20
0.4401814982
 11
-11.5089871631
 21
0.4401814982
  0
LINE
  5
4D7
100
AcDbEntity
  8
IMPORT_IGES
100
AcDbLine
 62
7
  6
CONTINUOUS
 10
-4.3649871631
 20
1.299022589
 11
0.5350128369
 21
1.299022589
  0
LINE
  5
4D8
100
AcDbEntity
  8
IMPORT_IGES
100
AcDbLine
 62
7
  6
CONTINUOUS
 10
-4.3749871631
 20
1.449022589
 11
0.5350128369
 21
1.449022589
  0
LINE
  5
4D9
100
AcDbEntity
  8
IMPORT_IGES
100
AcDbLine
 62
7
  6
CONTINUOUS
 10
-5.7506278091
 20
1.7973565392
 11
3.3350128369
 21
1.7973565392
  0
LINE
  5
4DA
100
AcDbEntity
  8
IMPORT_IGES
100
AcDbLine
 62
7
  6
CONTINUOUS
 10
-4.3749871631
 20
1.5845441906
 11
-5.7506278091
 21
1.7973565392
  0
LINE
  5
4DB
100
AcDbEntity
  8
DRAFT
100
AcDbLine
 62
7
  6
CONTINUOUS
 10
10.7910128369
 20
-10.0255280603
 11
10.8253032785
 21
-10.0598185018
  0
LINE
  5
4DC
100
AcDbEntity
  8
ASSI
100
AcDbLine
 62
7
  6
CONTINUOUS
 10
10.7910128369
 20
-10.0255280603
 11
10.8253032785
 21
-10.0598185018
  0
LINE
  5
4DD
100
AcDbEntity
  8
CURVE
100
AcDbLine
 62
250
  6
CONTINUOUS
 10
4.6778774977
 20
-7.2938342473
 11
4.5707509653
 21
-7.0438344857
  0
LINE
  5
4DE
100
AcDbEntity
  8
CURVE
100
AcDbLine
 62
250
  6
CONTINUOUS
 10
1.9640051801
 20
-7.6764645215
 11
1.9640051801
 21
-7.1050358054
  0
LINE
  5
4DF
100
AcDbEntity
  8
CURVE
100
AcDbLine
 62
250
  6
CONTINUOUS
 10
2.3925113544
 20
-8.783607268
 11
2.3925113544
 21
-8.4621787604
  0
LINE
  5
4E0
100
AcDbEntity
  8
CURVE
100
AcDbLine
 62
250
  6
CONTINUOUS
 10
3.3123712339
 20
15.724022589
 11
3.3123712339
 21
16.036522589
  0
LINE
  5
4E1
100
AcDbEntity
  8
IMPORT_IGES
100
AcDbLine
 62
7
  6
CONTINUOUS
 10
3.3350128369
 20
11.7973565392
 11
3.3350128369
 21
8.2006886389
  0
LINE
  5
4E2
100
AcDbEntity
  8
IMPORT_IGES
100
AcDbLine
 62
7
  6
CONTINUOUS
 10
3.3350128369
 20
6.7973565392
 11
3.3350128369
 21
3.2006886389
  0
LINE
  5
4E3
100
AcDbEntity
  8
IMPORT_IGES
100
AcDbLine
 62
7
  6
CONTINUOUS
 10
3.3350128369
 20
1.7973565392
 11
3.3350128369
 21
-1.7993113611
  0
LINE
  5
4E4
100
AcDbEntity
  8
IMPORT_IGES
100
AcDbLine
 62
7
  6
CONTINUOUS
 10
3.3350128369
 20
-3.100977411
 11
3.3350128369
 21
-2.500977411
  0
LINE
  5
4E5
100
AcDbEntity
  8
IMPORT_IGES
100
AcDbLine
 62
7
  6
CONTINUOUS
 10
3.3350128369
 20
12.799022589
 11
3.3350128369
 21
12.8892739687
  0
LINE
  5
4E6
100
AcDbEntity
  8
ASSI
100
AcDbLine
 62
7
  6
CONTINUOUS
 10
3.3910128369
 20
-21.0355209175
 11
3.3910128369
 21
-21.3009774075
  0
LINE
  5
4E7
100
AcDbEntity
  8
RACCORDO
100
AcDbLine
 62
7
  6
CONTINUOUS
 10
3.3910128369
 20
-22.1569282757
 11
3.3910128369
 21
-22.7703454671
  0
LINE
  5
4E8
100
AcDbEntity
  8
0
100
AcDbLine
 62
7
  6
CONTINUOUS
 10
3.3910128369
 20
-21.3009774078
 11
3.3910128369
 21
-22.1569282757
  0
LINE
  5
4E9
100
AcDbEntity
  8
ASSI
100
AcDbLine
 62
7
  6
CONTINUOUS
 10
3.3910128369
 20
21.2335660955
 11
3.3910128369
 21
21.4990225855
  0
LINE
  5
4EA
100
AcDbEntity
  8
0
100
AcDbLine
 62
7
  6
CONTINUOUS
 10
3.3910128369
 20
21.4990225858
 11
3.3910128369
 21
22.3549734537
  0
LINE
  5
4EB
100
AcDbEntity
  8
RACCORDO
100
AcDbLine
 62
7
  6
CONTINUOUS
 10
3.3910128369
 20
22.3549734537
 11
3.3910128369
 21
22.9683906452
  0
LINE
  5
4EC
100
AcDbEntity
  8
0
100
AcDbLine
 62
7
  6
CONTINUOUS
 10
3.5410128369
 20
22.599022589
 11
3.5410128369
 21
21.2309478358
  0
LINE
  5
4ED
100
AcDbEntity
  8
ASSI
100
AcDbLine
 62
7
  6
CONTINUOUS
 10
3.5410128369
 20
22.599022589
 11
3.5410128369
 21
21.2309478358
  0
LINE
  5
4EE
100
AcDbEntity
  8
0
100
AcDbLine
 62
7
  6
CONTINUOUS
 10
3.5410128369
 20
-21.0329026578
 11
3.5410128369
 21
-22.400977411
  0
LINE
  5
4EF
100
AcDbEntity
  8
ASSI
100
AcDbLine
 62
7
  6
CONTINUOUS
 10
3.5410128369
 20
-21.0329026578
 11
3.5410128369
 21
-22.400977411
  0
LINE
  5
4F0
100
AcDbEntity
  8
RACCORDO
100
AcDbLine
 62
250
  6
CONTINUOUS
 10
3.5910128369
 20
23.030194044
 11
3.5910128369
 21
22.6497714375
  0
LINE
  5
4F1
100
AcDbEntity
  8
RACCORDO
100
AcDbLine
 62
250
  6
CONTINUOUS
 10
3.5910128369
 20
-22.832148866
 11
3.5910128369
 21
-22.4517262595
  0
LINE
  5
4F2
100
AcDbEntity
  8
0
100
AcDbLine
 62
7
  6
CONTINUOUS
 10
3.6151199798
 20
-23.150977411
 11
3.6151199798
 21
-22.400977411
  0
LINE
  5
4F3
100
AcDbEntity
  8
ASSI
100
AcDbLine
 62
7
  6
CONTINUOUS
 10
3.6151199798
 20
-23.150977411
 11
3.6151199798
 21
-22.400977411
  0
LINE
  5
4F4
100
AcDbEntity
  8
0
100
AcDbLine
 62
7
  6
CONTINUOUS
 10
3.6151199798
 20
22.599022589
 11
3.6151199798
 21
23.349022589
  0
LINE
  5
4F5
100
AcDbEntity
  8
ASSI
100
AcDbLine
 62
7
  6
CONTINUOUS
 10
3.6151199798
 20
22.599022589
 11
3.6151199798
 21
23.349022589
  0
LWPOLYLINE
  5
4F6
100
AcDbEntity
  8
RACCORDO
100
AcDbPolyline
 62
7
  6
CONTINUOUS
 90
25
 70
0
 10
0.8410128369
 20
-23.9211902697
 10
0.8414562398
 20
-23.9171197044
 10
0.8427372211
 20
-23.9131006227
 10
0.8448557808
 20
-23.9091330247
 10
0.8478281179
 20
-23.9052004087
 10
0.8516380333
 20
-23.9013192764
 10
0.8562369304
 20
-23.8975391329
 10
0.8616349158
 20
-23.893861272
 10
0.8678218828
 20
-23.8902843999
 10
0.8747189144
 20
-23.886854141
 10
0.8823351066
 20
-23.8835723733
 10
0.8906613634
 20
-23.8804372187
 10
0.8995914807
 20
-23.8774886673
 10
0.9091331936
 20
-23.8747291093
 10
0.9192787669
 20
-23.8721561544
 10
0.9298987903
 20
-23.8698026216
 10
0.9409993414
 20
-23.8676713216
 10
0.9525743425
 20
-23.8657594437
 10
0.9644761504
 20
-23.8640913745
 10
0.9767089516
 20
-23.8626702371
 10
0.9892685597
 20
-23.8614929085
 10
1.0019947725
 20
-23.8605744058
 10
1.0148341893
 20
-23.8599197349
 10
1.0278402107
 20
-23.8595238899
 10
1.0410128369
 20
-23.8593868709
  0
LWPOLYLINE
  5
4F7
100
AcDbEntity
  8
0
100
AcDbPolyline
 62
250
  6
CONTINUOUS
 90
12
 70
0
 10
-11.1869396325
 20
-17.5095458206
 10
-11.1921849529
 20
-17.5152488051
 10
-11.1969195805
 20
-17.5204446195
 10
-11.2011399759
 20
-17.5251293798
 10
-11.2048429852
 20
-17.5292995848
 10
-11.2080258411
 20
-17.5329521182
 10
-11.2106861675
 20
-17.5360842536
 10
-11.2128219714
 20
-17.5386936443
 10
-11.2144316508
 20
-17.5407783327
 10
-11.2155140076
 20
-17.542336765
 10
-11.2160682415
 20
-17.5433677855
 10
-11.2160939443
 20
-17.5438706298
  0
LINE
  5
4F8
100
AcDbEntity
  8
IMPORT_IGES
100
AcDbLine
 62
7
  6
CONTINUOUS
 10
-5.7506278091
 20
3.2006886389
 11
-4.3749871631
 21
3.4135009874
  0
LINE
  5
4F9
100
AcDbEntity
  8
IMPORT_IGES
100
AcDbLine
 62
7
  6
CONTINUOUS
 10
3.3350128369
 20
3.2006886389
 11
-5.7506278091
 21
3.2006886389
  0
LINE
  5
4FA
100
AcDbEntity
  8
IMPORT_IGES
100
AcDbLine
 62
7
  6
CONTINUOUS
 10
0.5350128369
 20
3.549022589
 11
-4.3749871631
 21
3.549022589
  0
LINE
  5
4FB
100
AcDbEntity
  8
IMPORT_IGES
100
AcDbLine
 62
7
  6
CONTINUOUS
 10
0.5350128369
 20
3.699022589
 11
-4.3649871631
 21
3.699022589
  0
LINE
  5
4FC
100
AcDbEntity
  8
IMPORT_IGES
100
AcDbLine
 62
7
  6
CONTINUOUS
 10
0.5350128369
 20
3.549022589
 11
3.3350128369
 21
3.3479916338
  0
LINE
  5
4FD
100
AcDbEntity
  8
CURVE
100
AcDbLine
 62
250
  6
CONTINUOUS
 10
4.7850040524
 20
-6.7581205747
 11
4.6778774977
 21
-6.4724059484
  0
LINE
  5
4FE
100
AcDbEntity
  8
RACCORDO
100
AcDbLine
 62
7
  6
CONTINUOUS
 10
5.2689494525
 20
-21.600977411
 11
5.2480711898
 21
-21.0031058434
  0
LINE
  5
4FF
100
AcDbEntity
  8
ASSI
100
AcDbLine
 62
7
  6
CONTINUOUS
 10
5.2689494525
 20
-21.600977411
 11
5.2480711898
 21
-21.0031058434
  0
LINE
  5
500
100
AcDbEntity
  8
ASSI
100
AcDbLine
 62
7
  6
CONTINUOUS
 10
3.6195842655
 20
23.349022589
 11
3.6321639817
 21
22.8362146563
  0
LINE
  5
501
100
AcDbEntity
  8
0
100
AcDbLine
 62
250
  6
CONTINUOUS
 10
5.3231443104
 20
-20.5018715896
 11
5.3247670762
 21
-20.6057917454
  0
LINE
  5
502
100
AcDbEntity
  8
0
100
AcDbLine
 62
250
  6
CONTINUOUS
 10
5.3247670762
 20
-20.6057917454
 11
5.3257764408
 21
-20.6891118526
  0
LINE
  5
503
100
AcDbEntity
  8
0
100
AcDbLine
 62
250
  6
CONTINUOUS
 10
5.3257764408
 20
-20.6891118526
 11
5.3264408217
 21
-20.7667449604
  0
LINE
  5
504
100
AcDbEntity
  8
0
100
AcDbLine
 62
250
  6
CONTINUOUS
 10
5.3267100084
 20
21.0828262891
 11
5.3265303316
 21
21.1143194513
  0
LINE
  5
505
100
AcDbEntity
  8
0
100
AcDbLine
 62
250
  6
CONTINUOUS
 10
5.3264408217
 20
-20.7667449604
 11
5.3267400398
 21
-20.8363331382
  0
LINE
  5
506
100
AcDbEntity
  8
ASSI
100
AcDbLine
 62
250
  6
CONTINUOUS
 10
3.6321639817
 20
-22.6381694783
 11
3.6321639817
 21
-21.0313116086
  0
LINE
  5
507
100
AcDbEntity
  8
ASSI
100
AcDbLine
 62
250
  6
CONTINUOUS
 10
3.6321639817
 20
21.2293567866
 11
3.6321639817
 21
22.8362146563
  0
LINE
  5
508
100
AcDbEntity
  8
CURVE
100
AcDbLine
 62
250
  6
CONTINUOUS
 10
3.6423209733
 20
-11.5795489928
 11
3.6423209733
 21
-11.900977411
  0
LINE
  5
509
100
AcDbEntity
  8
CURVE
100
AcDbLine
 62
250
  6
CONTINUOUS
 10
3.6423209733
 20
-15.222406008
 11
3.6423209733
 21
-15.1152631125
  0
LINE
  5
50A
100
AcDbEntity
  8
CURVE
100
AcDbLine
 62
250
  6
CONTINUOUS
 10
3.6423209733
 20
-14.0438346049
 11
3.6423209733
 21
-13.9366916201
  0
LINE
  5
50B
100
AcDbEntity
  8
CURVE
100
AcDbLine
 62
250
  6
CONTINUOUS
 10
3.6423209733
 20
-9.4366917989
 11
3.6423209733
 21
-9.3295486352
  0
LINE
  5
50C
100
AcDbEntity
  8
RACCORDO
100
AcDbLine
 62
250
  6
CONTINUOUS
 10
3.9410128369
 20
25.0771881303
 11
3.9410128369
 21
24.6967655238
  0
LINE
  5
50D
100
AcDbEntity
  8
RACCORDO
100
AcDbLine
 62
250
  6
CONTINUOUS
 10
3.9410128369
 20
-24.8791429523
 11
3.9410128369
 21
-24.4987203458
  0
LINE
  5
50E
100
AcDbEntity
  8
RACCORDO
100
AcDbLine
 62
7
  6
CONTINUOUS
 10
4.1410128369
 20
25.0153847314
 11
4.1410128369
 21
24.1192354478
  0
LINE
  5
50F
100
AcDbEntity
  8
RACCORDO
100
AcDbLine
 62
7
  6
CONTINUOUS
 10
4.1410128369
 20
-23.9211902697
 11
4.1410128369
 21
-24.8173395534
  0
LINE
  5
510
100
AcDbEntity
  8
CURVE
100
AcDbLine
 62
250
  6
CONTINUOUS
 10
4.6064598094
 20
-13.1866917989
 11
4.6064598094
 21
-12.5438346049
  0
LINE
  5
511
100
AcDbEntity
  8
ASSI
100
AcDbLine
 62
250
  6
CONTINUOUS
 10
4.6321241244
 20
-21.7172828182
 11
4.6321241244
 21
-21.6455085759
  0
LINE
  5
512
100
AcDbEntity
  8
ASSI
100
AcDbLine
 62
250
  6
CONTINUOUS
 10
4.6321241244
 20
21.843553754
 11
4.6321241244
 21
21.9153279962
  0
LINE
  5
513
100
AcDbEntity
  8
CURVE
100
AcDbLine
 62
250
  6
CONTINUOUS
 10
4.8207128965
 20
-10.1866917989
 11
4.8207128965
 21
-10.9366917989
  0
LINE
  5
514
100
AcDbEntity
  8
IMPORT_IGES
100
AcDbLine
 62
7
  6
CONTINUOUS
 10
5.0410128369
 20
12.859495628
 11
5.0410128369
 21
12.499022589
  0
LINE
  5
515
100
AcDbEntity
  8
CURVE
100
AcDbLine
 62
250
  6
CONTINUOUS
 10
5.142092516
 20
-9.3295486352
 11
5.142092516
 21
-9.4366917989
  0
LINE
  5
516
100
AcDbEntity
  8
CURVE
100
AcDbLine
 62
250
  6
CONTINUOUS
 10
5.142092516
 20
-11.3652630231
 11
5.142092516
 21
-12.1152630231
  0
LINE
  5
517
100
AcDbEntity
  8
CURVE
100
AcDbLine
 62
250
  6
CONTINUOUS
 10
5.142092516
 20
-13.9366916201
 11
5.142092516
 21
-14.0438346049
  0
LINE
  5
518
100
AcDbEntity
  8
CURVE
100
AcDbLine
 62
250
  6
CONTINUOUS
 10
5.142092516
 20
-15.1152631125
 11
5.142092516
 21
-15.222406008
  0
LINE
  5
519
100
AcDbEntity
  8
IMPORT_IGES
100
AcDbLine
 62
7
  6
CONTINUOUS
 10
5.1910128369
 20
12.8568773682
 11
5.1910128369
 21
12.499022589
  0
LINE
  5
51A
100
AcDbEntity
  8
IMPORT_IGES
100
AcDbLine
 62
7
  6
CONTINUOUS
 10
5.3350128369
 20
-2.500977411
 11
5.3350128369
 21
12.499022589
  0
LINE
  5
51B
100
AcDbEntity
  8
0
100
AcDbLine
 62
250
  6
CONTINUOUS
 10
5.3267400398
 20
21.0343783196
 11
5.3267100084
 21
21.0828262891
  0
LINE
  5
51C
100
AcDbEntity
  8
0
100
AcDbLine
 62
250
  6
CONTINUOUS
 10
5.3267400398
 20
-20.8363331382
 11
5.3267100084
 21
-20.8847811083
  0
LINE
  5
51D
100
AcDbEntity
  8
0
100
AcDbLine
 62
250
  6
CONTINUOUS
 10
5.3264408217
 20
20.9647901421
 11
5.3267400398
 21
21.0343783196
  0
LINE
  5
51E
100
AcDbEntity
  8
0
100
AcDbLine
 62
250
  6
CONTINUOUS
 10
5.3267100084
 20
-20.8847811083
 11
5.3265303317
 21
-20.9162742711
  0
LINE
  5
51F
100
AcDbEntity
  8
0
100
AcDbLine
 62
250
  6
CONTINUOUS
 10
5.3256013315
 20
20.8708690041
 11
5.3264408217
 21
20.9647901421
  0
LINE
  5
520
100
AcDbEntity
  8
0
100
AcDbLine
 62
250
  6
CONTINUOUS
 10
5.3240082086
 20
20.7521629459
 11
5.3256013315
 21
20.8708690041
  0
LINE
  5
521
100
AcDbEntity
  8
0
100
AcDbLine
 62
250
  6
CONTINUOUS
 10
5.3231443104
 20
20.6999167676
 11
5.3240082086
 21
20.7521629459
  0
LINE
  5
522
100
AcDbEntity
  8
ASSI
100
AcDbLine
 62
7
  6
CONTINUOUS
 10
3.6321639817
 20
-22.6381694783
 11
3.6195842655
 21
-23.150977411
  0
LINE
  5
523
100
AcDbEntity
  8
RACCORDO
100
AcDbLine
 62
7
  6
CONTINUOUS
 10
5.2689494525
 20
21.799022589
 11
5.2480711898
 21
21.2011510214
  0
LINE
  5
524
100
AcDbEntity
  8
ASSI
100
AcDbLine
 62
7
  6
CONTINUOUS
 10
5.2689494525
 20
21.799022589
 11
5.2480711898
 21
21.2011510214
  0
LINE
  5
525
100
AcDbEntity
  8
0
100
AcDbLine
 62
250
  6
CONTINUOUS
 10
-11.1749329781
 20
-17.4966357721
 11
-11.1869396325
 21
-17.5095458206
  0
LINE
  5
526
100
AcDbEntity
  8
0
100
AcDbLine
 62
250
  6
CONTINUOUS
 10
-11.1609355114
 20
-17.481753069
 11
-11.1749329781
 21
-17.4966357721
  0
LINE
  5
527
100
AcDbEntity
  8
0
100
AcDbLine
 62
250
  6
CONTINUOUS
 10
-11.13629967
 20
-17.4558291906
 11
-11.1609355114
 21
-17.481753069
  0
LINE
  5
528
100
AcDbEntity
  8
0
100
AcDbLine
 62
250
  6
CONTINUOUS
 10
-11.0969230473
 20
-17.4148228937
 11
-11.13629967
 21
-17.4558291906
  0
LINE
  5
529
100
AcDbEntity
  8
0
100
AcDbLine
 62
250
  6
CONTINUOUS
 10
-11.0248560907
 20
-17.3405384133
 11
-11.0969230473
 21
-17.4148228937
  0
LINE
  5
52A
100
AcDbEntity
  8
0
100
AcDbLine
 62
250
  6
CONTINUOUS
 10
-10.9076087008
 20
-17.2208485571
 11
-11.0248560907
 21
-17.3405384133
  0
LINE
  5
52B
100
AcDbEntity
  8
0
100
AcDbLine
 62
250
  6
CONTINUOUS
 10
-10.7166803271
 20
-17.0277110385
 11
-10.9076087008
 21
-17.2208485571
  0
LINE
  5
52C
100
AcDbEntity
  8
0
100
AcDbLine
 62
250
  6
CONTINUOUS
 10
-10.5264395695
 20
-16.8367638486
 11
-10.7166803271
 21
-17.0277110385
  0
LINE
  5
52D
100
AcDbEntity
  8
CURVE
100
AcDbLine
 62
250
  6
CONTINUOUS
 10
6.7418488283
 20
4.599022589
 11
8.6415594491
 21
4.599022589
  0
LINE
  5
52E
100
AcDbEntity
  8
IMPORT_IGES
100
AcDbLine
 62
7
  6
CONTINUOUS
 10
-4.3749871631
 20
6.5845441906
 11
-5.7506278091
 21
6.7973565392
  0
LINE
  5
52F
100
AcDbEntity
  8
CURVE
100
AcDbLine
 62
250
  6
CONTINUOUS
 10
7.284623259
 20
-0.400977411
 11
6.7418488283
 21
0.1418797561
  0
LINE
  5
530
100
AcDbEntity
  8
0
100
AcDbLine
 62
250
  6
CONTINUOUS
 10
-10.5264395695
 20
17.0348090266
 11
-10.6416587245
 21
17.150297669
  0
LINE
  5
531
100
AcDbEntity
  8
0
100
AcDbLine
 62
250
  6
CONTINUOUS
 10
-10.6416587245
 20
17.150297669
 11
-10.7533155185
 21
17.2626853371
  0
LINE
  5
532
100
AcDbEntity
  8
0
100
AcDbLine
 62
250
  6
CONTINUOUS
 10
-10.7533155185
 20
17.2626853371
 11
-10.858411739
 21
17.3689541933
  0
LINE
  5
533
100
AcDbEntity
  8
0
100
AcDbLine
 62
250
  6
CONTINUOUS
 10
-10.858411739
 20
17.3689541933
 11
-10.9541253962
 21
17.4662507608
  0
LINE
  5
534
100
AcDbEntity
  8
0
100
AcDbLine
 62
250
  6
CONTINUOUS
 10
-10.9541253962
 20
17.4662507608
 11
-11.0248561747
 21
17.5385836775
  0
LINE
  5
535
100
AcDbEntity
  8
0
100
AcDbLine
 62
250
  6
CONTINUOUS
 10
-11.0248561747
 20
17.5385836775
 11
-11.0859610222
 21
17.6015163396
  0
LINE
  5
536
100
AcDbEntity
  8
0
100
AcDbLine
 62
250
  6
CONTINUOUS
 10
-11.0859610222
 20
17.6015163396
 11
-11.1271414229
 21
17.6442986853
  0
LINE
  5
537
100
AcDbEntity
  8
0
100
AcDbLine
 62
250
  6
CONTINUOUS
 10
-11.1271414229
 20
17.6442986853
 11
-11.1532031394
 21
17.671630899
  0
LINE
  5
538
100
AcDbEntity
  8
0
100
AcDbLine
 62
250
  6
CONTINUOUS
 10
-11.1532031394
 20
17.671630899
 11
-11.1681806819
 21
17.6874836033
  0
LWPOLYLINE
  5
539
100
AcDbEntity
  8
0
100
AcDbPolyline
 62
250
  6
CONTINUOUS
 90
14
 70
0
 10
-11.1681806819
 20
17.6874836033
 10
-11.1811875971
 20
17.7013851683
 10
-11.1869396837
 20
17.707591054
 10
-11.1921849986
 20
17.7132940329
 10
-11.1969196214
 20
17.7184898427
 10
-11.2011400136
 20
17.7231745999
 10
-11.2048430197
 20
17.7273448021
 10
-11.208025871
 20
17.730997331
 10
-11.2106861918
 20
17.7341294607
 10
-11.2128219895
 20
17.7367388451
 10
-11.2144316622
 20
17.7388235263
 10
-11.2155140129
 20
17.7403819514
 10
-11.2160682425
 20
17.7414129663
 10
-11.2160939443
 20
17.7419158078
  0
LWPOLYLINE
  5
53A
100
AcDbEntity
  8
RACCORDO
100
AcDbPolyline
 62
7
  6
CONTINUOUS
 90
25
 70
0
 10
4.1410128369
 20
24.6349621249
 10
4.140569434
 20
24.6390326903
 10
4.1392884527
 20
24.6430517719
 10
4.137169893
 20
24.6470193699
 10
4.1341975559
 20
24.6509519859
 10
4.1303876405
 20
24.6548331183
 10
4.1257887434
 20
24.6586132617
 10
4.120390758
 20
24.6622911227
 10
4.114203791
 20
24.6658679947
 10
4.1073067594
 20
24.6692982536
 10
4.0996905672
 20
24.6725800213
 10
4.0913643104
 20
24.6757151759
 10
4.0824341931
 20
24.6786637274
 10
4.0728924802
 20
24.6814232853
 10
4.0627469069
 20
24.6839962402
 10
4.0521268835
 20
24.686349773
 10
4.0410263325
 20
24.688481073
 10
4.0294513314
 20
24.690392951
 10
4.0175495234
 20
24.6920610202
 10
4.0053167222
 20
24.6934821575
 10
3.9927571141
 20
24.6946594862
 10
3.9800309013
 20
24.6955779888
 10
3.9671914845
 20
24.6962326598
 10
3.9541854631
 20
24.6966285048
 10
3.9410128369
 20
24.6967655238
  0
LINE
  5
53B
100
AcDbEntity
  8
RACCORDO
100
AcDbLine
 62
7
  6
CONTINUOUS
 10
5.8497403694
 20
23.349022589
 11
5.8824444603
 21
22.6670820928
  0
LINE
  5
53C
100
AcDbEntity
  8
ASSI
100
AcDbLine
 62
7
  6
CONTINUOUS
 10
5.8497403694
 20
23.349022589
 11
5.8824444603
 21
22.6670820928
  0
LWPOLYLINE
  5
53D
100
AcDbEntity
  8
0
100
AcDbPolyline
 62
250
  6
CONTINUOUS
 90
11
 70
0
 10
5.3256013315
 20
21.1696510205
 10
5.3254126024
 20
21.1753349652
 10
5.3252104834
 20
21.1804399107
 10
5.3249952206
 20
21.1849596397
 10
5.3247670762
 20
21.1888886478
 10
5.3245263281
 20
21.19222215
 10
5.3242732695
 20
21.1949560864
 10
5.3240082086
 20
21.1970871276
 10
5.3237314681
 20
21.1986126781
 10
5.3234433851
 20
21.1995308801
 10
5.3231443104
 20
21.1998406152
  0
LINE
  5
53E
100
AcDbEntity
  8
0
100
AcDbLine
 62
250
  6
CONTINUOUS
 10
5.3259377172
 20
21.1565745194
 11
5.3256013315
 21
21.1696510205
  0
LINE
  5
53F
100
AcDbEntity
  8
0
100
AcDbLine
 62
250
  6
CONTINUOUS
 10
5.3262180023
 20
21.14127409
 11
5.3259377172
 21
21.1565745194
  0
LWPOLYLINE
  5
540
100
AcDbEntity
  8
0
100
AcDbPolyline
 62
250
  6
CONTINUOUS
 90
3
 70
0
 10
5.3265303316
 20
21.1143194513
 10
5.3264408217
 20
21.1238242455
 10
5.3262180023
 20
21.14127409
  0
LINE
  5
541
100
AcDbEntity
  8
0
100
AcDbLine
 62
7
  6
CONTINUOUS
 10
5.6410128369
 20
25.199022589
 11
5.6410128369
 21
23.349022589
  0
LINE
  5
542
100
AcDbEntity
  8
0
100
AcDbLine
 62
7
  6
CONTINUOUS
 10
5.6410128369
 20
12.849022589
 11
5.6410128369
 21
-3.400977411
  0
LINE
  5
543
100
AcDbEntity
  8
0
100
AcDbLine
 62
7
  6
CONTINUOUS
 10
5.6410128369
 20
-25.000977411
 11
5.6410128369
 21
-23.150977411
  0
LINE
  5
544
100
AcDbEntity
  8
RACCORDO
100
AcDbLine
 62
7
  6
CONTINUOUS
 10
5.8916325252
 20
22.599022589
 11
5.8916325252
 21
21.9153279962
  0
LINE
  5
545
100
AcDbEntity
  8
ASSI
100
AcDbLine
 62
7
  6
CONTINUOUS
 10
5.8916325252
 20
22.599022589
 11
5.8916325252
 21
21.9153279962
  0
LINE
  5
546
100
AcDbEntity
  8
RACCORDO
100
AcDbLine
 62
7
  6
CONTINUOUS
 10
5.8916325252
 20
-21.7172828182
 11
5.8916325252
 21
-23.150977411
  0
LINE
  5
547
100
AcDbEntity
  8
ASSI
100
AcDbLine
 62
7
  6
CONTINUOUS
 10
5.8916325252
 20
-21.7172828182
 11
5.8916325252
 21
-23.150977411
  0
LINE
  5
548
100
AcDbEntity
  8
CURVE
100
AcDbLine
 62
250
  6
CONTINUOUS
 10
6.1419402112
 20
-14.900977411
 11
6.1419402112
 21
-14.2581202617
  0
LINE
  5
549
100
AcDbEntity
  8
CURVE
100
AcDbLine
 62
250
  6
CONTINUOUS
 10
6.1419402112
 20
-13.5081203064
 11
6.1419402112
 21
-13.400977411
  0
LINE
  5
54A
100
AcDbEntity
  8
CURVE
100
AcDbLine
 62
250
  6
CONTINUOUS
 10
6.1419402112
 20
-10.0081203362
 11
6.1419402112
 21
-9.9009775302
  0
LINE
  5
54B
100
AcDbEntity
  8
CURVE
100
AcDbLine
 62
250
  6
CONTINUOUS
 10
6.5704463407
 20
-7.9724059484
 11
6.5704463407
 21
-7.329549112
  0
LINE
  5
54C
100
AcDbEntity
  8
DRAFT
100
AcDbLine
 62
250
  6
CONTINUOUS
 10
6.6410128369
 20
21.799022589
 11
6.6410128369
 21
20.6731287531
  0
LINE
  5
54D
100
AcDbEntity
  8
ASSI
100
AcDbLine
 62
250
  6
CONTINUOUS
 10
6.6410128369
 20
21.799022589
 11
6.6410128369
 21
20.6731287531
  0
LINE
  5
54E
100
AcDbEntity
  8
DRAFT
100
AcDbLine
 62
250
  6
CONTINUOUS
 10
6.6410128369
 20
-20.4750835751
 11
6.6410128369
 21
-21.600977411
  0
LINE
  5
54F
100
AcDbEntity
  8
ASSI
100
AcDbLine
 62
250
  6
CONTINUOUS
 10
6.6410128369
 20
-20.4750835751
 11
6.6410128369
 21
-21.600977411
  0
LINE
  5
550
100
AcDbEntity
  8
CURVE
100
AcDbLine
 62
250
  6
CONTINUOUS
 10
6.7846994055
 20
-10.9724059484
 11
6.7846994055
 21
-11.4366916797
  0
LINE
  5
551
100
AcDbEntity
  8
CURVE
100
AcDbLine
 62
250
  6
CONTINUOUS
 10
6.7846994055
 20
-14.4724059633
 11
6.7846994055
 21
-14.900977411
  0
LINE
  5
552
100
AcDbEntity
  8
CURVE
100
AcDbLine
 62
250
  6
CONTINUOUS
 10
6.7846994055
 20
-9.1509775302
 11
6.7846994055
 21
-8.4009771726
  0
LINE
  5
553
100
AcDbEntity
  8
DRAFT
100
AcDbLine
 62
7
  6
CONTINUOUS
 10
6.91010982
 20
20.999022589
 11
6.91010982
 21
20.4031543831
  0
LINE
  5
554
100
AcDbEntity
  8
ASSI
100
AcDbLine
 62
7
  6
CONTINUOUS
 10
6.91010982
 20
20.999022589
 11
6.91010982
 21
20.4031543831
  0
LINE
  5
555
100
AcDbEntity
  8
DRAFT
100
AcDbLine
 62
7
  6
CONTINUOUS
 10
6.91010982
 20
-20.2051092051
 11
6.91010982
 21
-20.800977411
  0
LINE
  5
556
100
AcDbEntity
  8
ASSI
100
AcDbLine
 62
7
  6
CONTINUOUS
 10
6.91010982
 20
-20.2051092051
 11
6.91010982
 21
-20.800977411
  0
LINE
  5
557
100
AcDbEntity
  8
DRAFT
100
AcDbLine
 62
7
  6
CONTINUOUS
 10
7.0410128369
 20
20.999022589
 11
7.0410128369
 21
20.2699465054
  0
LINE
  5
558
100
AcDbEntity
  8
ASSI
100
AcDbLine
 62
7
  6
CONTINUOUS
 10
7.0410128369
 20
20.999022589
 11
7.0410128369
 21
20.2699465054
  0
LINE
  5
559
100
AcDbEntity
  8
DRAFT
100
AcDbLine
 62
7
  6
CONTINUOUS
 10
7.0410128369
 20
-20.0719013273
 11
7.0410128369
 21
-20.800977411
  0
LINE
  5
55A
100
AcDbEntity
  8
ASSI
100
AcDbLine
 62
7
  6
CONTINUOUS
 10
7.0410128369
 20
-20.0719013273
 11
7.0410128369
 21
-20.800977411
  0
LINE
  5
55B
100
AcDbEntity
  8
0
100
AcDbLine
 62
250
  6
CONTINUOUS
 10
5.3265303317
 20
-20.9162742711
 11
5.3263366697
 21
-20.9347675942
  0
LINE
  5
55C
100
AcDbEntity
  8
0
100
AcDbLine
 62
250
  6
CONTINUOUS
 10
5.3263366697
 20
-20.9347675942
 11
5.3260849642
 21
-20.9511527091
  0
LWPOLYLINE
  5
55D
100
AcDbEntity
  8
0
100
AcDbPolyline
 62
250
  6
CONTINUOUS
 90
13
 70
0
 10
5.3260849642
 20
-20.9511527091
 10
5.3257764409
 20
-20.9653498198
 10
5.3256013315
 20
-20.9716058416
 10
5.3254126024
 20
-20.9772897865
 10
5.3252104834
 20
-20.9823947321
 10
5.3249952206
 20
-20.9869144612
 10
5.3247670763
 20
-20.9908434694
 10
5.3245263282
 20
-20.9941769717
 10
5.3242732696
 20
-20.9969109082
 10
5.3240082086
 20
-20.9990419495
 10
5.3237314681
 20
-21.0005675
 10
5.3234433851
 20
-21.001485702
 10
5.3231443104
 20
-21.0017954372
  0
LINE
  5
55E
100
AcDbEntity
  8
RACCORDO
100
AcDbLine
 62
7
  6
CONTINUOUS
 10
5.8824444603
 20
-22.4690369148
 11
5.8497403694
 21
-23.150977411
  0
LINE
  5
55F
100
AcDbEntity
  8
ASSI
100
AcDbLine
 62
7
  6
CONTINUOUS
 10
5.8824444603
 20
-22.4690369148
 11
5.8497403694
 21
-23.150977411
  0
LWPOLYLINE
  5
560
100
AcDbEntity
  8
RACCORDO
100
AcDbPolyline
 62
7
  6
CONTINUOUS
 90
25
 70
0
 10
4.1410128369
 20
-24.8173395534
 10
4.140569434
 20
-24.8214101188
 10
4.1392884527
 20
-24.8254292004
 10
4.137169893
 20
-24.8293967984
 10
4.1341975559
 20
-24.8333294144
 10
4.1303876405
 20
-24.8372105468
 10
4.1257887434
 20
-24.8409906902
 10
4.120390758
 20
-24.8446685512
 10
4.114203791
 20
-24.8482454232
 10
4.1073067594
 20
-24.8516756821
 10
4.0996905672
 20
-24.8549574498
 10
4.0913643104
 20
-24.8580926044
 10
4.0824341931
 20
-24.8610411559
 10
4.0728924802
 20
-24.8638007138
 10
4.0627469069
 20
-24.8663736687
 10
4.0521268835
 20
-24.8687272015
 10
4.0410263325
 20
-24.8708585015
 10
4.0294513314
 20
-24.8727703795
 10
4.0175495234
 20
-24.8744384487
 10
4.0053167222
 20
-24.875859586
 10
3.9927571141
 20
-24.8770369146
 10
3.9800309013
 20
-24.8779554173
 10
3.9671914845
 20
-24.8786100883
 10
3.9541854631
 20
-24.8790059333
 10
3.9410128369
 20
-24.8791429523
  0
LWPOLYLINE
  5
561
100
AcDbEntity
  8
0
100
AcDbPolyline
 62
250
  6
CONTINUOUS
 90
11
 70
0
 10
-9.5771011806
 20
-19.1303324604
 10
-9.5818358132
 20
-19.1355282798
 10
-9.5860562155
 20
-19.140213047
 10
-9.5897592322
 20
-19.1443832597
 10
-9.5929420945
 20
-19.1480357997
 10
-9.5956024254
 20
-19.1511679392
 10
-9.5977382337
 20
-19.1537773342
 10
-9.59934792
 20
-19.1558620297
 10
-9.6004302843
 20
-19.1574204707
 10
-9.6009845236
 20
-19.1584514983
 10
-9.6010102278
 20
-19.1589543462
  0
LINE
  5
562
100
AcDbEntity
  8
0
100
AcDbLine
 62
250
  6
CONTINUOUS
 10
-9.5661037616
 20
-19.1184235787
 11
-9.5771011806
 21
-19.1303324604
  0
LINE
  5
563
100
AcDbEntity
  8
0
100
AcDbLine
 62
250
  6
CONTINUOUS
 10
-9.5530968324
 20
-19.1045220002
 11
-9.5661037616
 21
-19.1184235787
  0
LINE
  5
564
100
AcDbEntity
  8
0
100
AcDbLine
 62
250
  6
CONTINUOUS
 10
-9.5299052814
 20
-19.0800258355
 11
-9.5530968324
 21
-19.1045220002
  0
LINE
  5
565
100
AcDbEntity
  8
0
100
AcDbLine
 62
250
  6
CONTINUOUS
 10
-9.4923618686
 20
-19.0408262371
 11
-9.5299052814
 21
-19.0800258355
  0
LINE
  5
566
100
AcDbEntity
  8
0
100
AcDbLine
 62
250
  6
CONTINUOUS
 10
-9.4354374449
 20
-18.981993064
 11
-9.4923618686
 21
-19.0408262371
  0
LINE
  5
567
100
AcDbEntity
  8
0
100
AcDbLine
 62
250
  6
CONTINUOUS
 10
-9.3390414934
 20
-18.8832891092
 11
-9.4354374449
 21
-18.981993064
  0
LINE
  5
568
100
AcDbEntity
  8
0
100
AcDbLine
 62
250
  6
CONTINUOUS
 10
-9.174136405
 20
-18.7159715884
 11
-9.3390414934
 21
-18.8832891092
  0
LWPOLYLINE
  5
569
100
AcDbEntity
  8
0
100
AcDbPolyline
 62
250
  6
CONTINUOUS
 90
3
 70
0
 10
-8.9113558531
 20
-18.4518475651
 10
-8.9306757257
 20
-18.4711798489
 10
-9.174136405
 20
-18.7159715884
  0
LINE
  5
56A
100
AcDbEntity
  8
CURVE
100
AcDbLine
 62
250
  6
CONTINUOUS
 10
1.7497521154
 20
-8.2478930589
 11
1.5354990059
 21
-8.4621787604
  0
LINE
  5
56B
100
AcDbEntity
  8
CURVE
100
AcDbLine
 62
250
  6
CONTINUOUS
 10
0.8927398116
 20
-7.390750074
 11
2.3925113544
 21
-6.962178671
  0
LINE
  5
56C
100
AcDbEntity
  8
IMPORT_IGES
100
AcDbLine
 62
7
  6
CONTINUOUS
 10
3.3350128369
 20
6.6500535442
 11
0.5350128369
 21
6.449022589
  0
LINE
  5
56D
100
AcDbEntity
  8
IMPORT_IGES
100
AcDbLine
 62
7
  6
CONTINUOUS
 10
-4.3649871631
 20
6.299022589
 11
0.5350128369
 21
6.299022589
  0
LINE
  5
56E
100
AcDbEntity
  8
IMPORT_IGES
100
AcDbLine
 62
7
  6
CONTINUOUS
 10
-4.3749871631
 20
6.449022589
 11
0.5350128369
 21
6.449022589
  0
LINE
  5
56F
100
AcDbEntity
  8
IMPORT_IGES
100
AcDbLine
 62
7
  6
CONTINUOUS
 10
-5.7506278091
 20
6.7973565392
 11
3.3350128369
 21
6.7973565392
  0
LWPOLYLINE
  5
570
100
AcDbEntity
  8
IMPORT_IGES
100
AcDbPolyline
 62
7
  6
CONTINUOUS
 90
10
 70
0
 10
-3.5821906491
 20
12.7576008712
 10
-3.5694989001
 20
12.7459556303
 10
-3.5557278186
 20
12.7353602282
 10
-3.5410055831
 20
12.7259581476
 10
-3.5255742859
 20
12.7178918327
 10
-3.5095434831
 20
12.7112186529
 10
-3.4928769168
 20
12.7059345548
 10
-3.4756899399
 20
12.7020946377
 10
-3.4582568418
 20
12.6997889016
 10
-3.4407769025
 20
12.6990253795
  0
LINE
  5
571
100
AcDbEntity
  8
IMPORT_IGES
100
AcDbLine
 62
7
  6
CONTINUOUS
 10
-4.1721462536
 20
12.499024392
 11
-4.5622344187
 21
12.8891125573
  0
LINE
  5
572
100
AcDbEntity
  8
IMPORT_IGES
100
AcDbLine
 62
7
  6
CONTINUOUS
 10
-3.7282633024
 20
12.9036695773
 11
-3.5821949574
 21
12.7576012323
  0
LINE
  5
573
100
AcDbEntity
  8
0
100
AcDbLine
 62
250
  6
CONTINUOUS
 10
-8.9113558531
 20
18.6498927431
 11
-9.0265749107
 21
18.7653812877
  0
LINE
  5
574
100
AcDbEntity
  8
0
100
AcDbLine
 62
250
  6
CONTINUOUS
 10
-9.0265749107
 20
18.7653812877
 11
-9.1382316499
 21
18.8777689001
  0
LINE
  5
575
100
AcDbEntity
  8
0
100
AcDbLine
 62
250
  6
CONTINUOUS
 10
-9.1382316499
 20
18.8777689001
 11
-9.2433278261
 21
18.9840377106
  0
LINE
  5
576
100
AcDbEntity
  8
0
100
AcDbLine
 62
250
  6
CONTINUOUS
 10
-9.2433278261
 20
18.9840377106
 11
-9.3390414535
 21
19.0813342466
  0
LINE
  5
577
100
AcDbEntity
  8
0
100
AcDbLine
 62
250
  6
CONTINUOUS
 10
-9.3390414535
 20
19.0813342466
 11
-9.4097722237
 21
19.1536671533
  0
LINE
  5
578
100
AcDbEntity
  8
0
100
AcDbLine
 62
250
  6
CONTINUOUS
 10
-9.4097722237
 20
19.1536671533
 11
-9.4708770808
 21
19.2165998234
  0
LINE
  5
579
100
AcDbEntity
  8
0
100
AcDbLine
 62
250
  6
CONTINUOUS
 10
-9.4708770808
 20
19.2165998234
 11
-9.5120575005
 21
19.2593821867
  0
LINE
  5
57A
100
AcDbEntity
  8
0
100
AcDbLine
 62
250
  6
CONTINUOUS
 10
-9.5120575005
 20
19.2593821867
 11
-9.5381192379
 21
19.2867144204
  0
LINE
  5
57B
100
AcDbEntity
  8
0
100
AcDbLine
 62
250
  6
CONTINUOUS
 10
-9.5381192379
 20
19.2867144204
 11
-9.5530967965
 21
19.30256714
  0
LINE
  5
57C
100
AcDbEntity
  8
0
100
AcDbLine
 62
250
  6
CONTINUOUS
 10
-9.5530967965
 20
19.30256714
 11
-9.5661037298
 21
19.3164687225
  0
LWPOLYLINE
  5
57D
100
AcDbEntity
  8
0
100
AcDbPolyline
 62
250
  6
CONTINUOUS
 90
12
 70
0
 10
-9.5661037298
 20
19.3164687225
 10
-9.5771011544
 20
19.3283776099
 10
-9.5818357894
 20
19.3335734316
 10
-9.5860561935
 20
19.3382582005
 10
-9.589759212
 20
19.3424284148
 10
-9.5929420769
 20
19.3460809573
 10
-9.5956024108
 20
19.3492130998
 10
-9.5977382226
 20
19.3518224982
 10
-9.5993479128
 20
19.353907198
 10
-9.600430281
 20
19.3554656434
 10
-9.600984523
 20
19.3564966746
 10
-9.6010102278
 20
19.3569995243
  0
LWPOLYLINE
  5
57E
100
AcDbEntity
  8
0
100
AcDbPolyline
 62
250
  6
CONTINUOUS
 90
13
 70
0
 10
8.1981002645
 20
19.5954881634
 10
8.1977933169
 20
19.6040793
 10
8.1974697723
 20
19.6119461204
 10
8.1971298765
 20
19.6190826516
 10
8.1967738874
 20
19.6254834762
 10
8.1964020752
 20
19.6311437366
 10
8.1960147222
 20
19.6360591373
 10
8.1956121219
 20
19.6402259524
 10
8.1951945802
 20
19.6436410116
 10
8.1947624161
 20
19.6463017129
 10
8.1943159583
 20
19.6482060441
 10
8.1938555454
 20
19.6493525728
 10
8.1933815269
 20
19.6497404382
  0
LINE
  5
57F
100
AcDbEntity
  8
0
100
AcDbLine
 62
250
  6
CONTINUOUS
 10
8.1986634496
 20
19.5761595735
 11
8.1981002645
 21
19.5954881634
  0
LINE
  5
580
100
AcDbEntity
  8
0
100
AcDbLine
 62
250
  6
CONTINUOUS
 10
8.199157618
 20
19.5540190275
 11
8.1986634496
 21
19.5761595735
  0
LINE
  5
581
100
AcDbEntity
  8
0
100
AcDbLine
 62
250
  6
CONTINUOUS
 10
8.1995812694
 20
19.5291337395
 11
8.199157618
 21
19.5540190275
  0
LINE
  5
582
100
AcDbEntity
  8
0
100
AcDbLine
 62
250
  6
CONTINUOUS
 10
8.1933815269
 20
-18.4518475651
 11
8.195612138
 21
-18.589153825
  0
LINE
  5
583
100
AcDbEntity
  8
0
100
AcDbLine
 62
250
  6
CONTINUOUS
 10
8.195612138
 20
-18.589153825
 11
8.1974697858
 21
-18.7238583791
  0
LINE
  5
584
100
AcDbEntity
  8
0
100
AcDbLine
 62
250
  6
CONTINUOUS
 10
8.1974697858
 20
-18.7238583791
 11
8.1989192697
 21
-18.8534087348
  0
LINE
  5
585
100
AcDbEntity
  8
0
100
AcDbLine
 62
250
  6
CONTINUOUS
 10
8.2000817733
 20
19.4868268979
 11
8.1995812694
 21
19.5291337395
  0
LINE
  5
586
100
AcDbEntity
  8
0
100
AcDbLine
 62
250
  6
CONTINUOUS
 10
8.1989192697
 20
-18.8534087348
 11
8.1999331242
 21
-18.9753501
  0
LINE
  5
587
100
AcDbEntity
  8
0
100
AcDbLine
 62
250
  6
CONTINUOUS
 10
8.2004921354
 20
19.4215835246
 11
8.2000817733
 21
19.4868268979
  0
LINE
  5
588
100
AcDbEntity
  8
0
100
AcDbLine
 62
250
  6
CONTINUOUS
 10
8.1999331242
 20
-18.9753501
 11
8.2004921382
 21
-19.0873718632
  0
LINE
  5
589
100
AcDbEntity
  8
CURVE
100
AcDbLine
 62
250
  6
CONTINUOUS
 10
7.6417117539
 20
-9.9009775302
 11
7.6417117539
 21
-10.0081203362
  0
LINE
  5
58A
100
AcDbEntity
  8
CURVE
100
AcDbLine
 62
250
  6
CONTINUOUS
 10
7.6417117539
 20
-13.400977411
 11
7.6417117539
 21
-13.5081203064
  0
LINE
  5
58B
100
AcDbEntity
  8
CURVE
100
AcDbLine
 62
250
  6
CONTINUOUS
 10
7.6417117539
 20
-14.900977411
 11
7.6417117539
 21
-14.4724059633
  0
LINE
  5
58C
100
AcDbEntity
  8
CURVE
100
AcDbLine
 62
250
  6
CONTINUOUS
 10
7.6417117539
 20
-11.2938347241
 11
7.6417117539
 21
-10.9724059484
  0
LINE
  5
58D
100
AcDbEntity
  8
CURVE
100
AcDbLine
 62
250
  6
CONTINUOUS
 10
7.6417117539
 20
-7.9724059484
 11
7.6417117539
 21
-7.329549112
  0
LINE
  5
58E
100
AcDbEntity
  8
DRAFT
100
AcDbLine
 62
7
  6
CONTINUOUS
 10
7.7981084213
 20
-22.400977411
 11
7.7981084213
 21
-23.150977411
  0
LINE
  5
58F
100
AcDbEntity
  8
ASSI
100
AcDbLine
 62
7
  6
CONTINUOUS
 10
7.7981084213
 20
-22.400977411
 11
7.7981084213
 21
-23.150977411
  0
LINE
  5
590
100
AcDbEntity
  8
0
100
AcDbLine
 62
250
  6
CONTINUOUS
 10
8.2004921382
 20
-19.0873718632
 11
8.2006044505
 21
-19.1684133776
  0
LINE
  5
591
100
AcDbEntity
  8
CURVE
100
AcDbLine
 62
250
  6
CONTINUOUS
 10
8.6415594491
 20
4.599022589
 11
8.6415594491
 21
5.2775940338
  0
LINE
  5
592
100
AcDbEntity
  8
ASSI
100
AcDbLine
 62
250
  6
CONTINUOUS
 10
8.9012199894
 20
-22.400977411
 11
8.9012199894
 21
-20.800977411
  0
LINE
  5
593
100
AcDbEntity
  8
ASSI
100
AcDbLine
 62
250
  6
CONTINUOUS
 10
8.9012199894
 20
20.999022589
 11
8.9012199894
 21
22.599022589
  0
LINE
  5
594
100
AcDbEntity
  8
0
100
AcDbLine
 62
250
  6
CONTINUOUS
 10
8.2005857203
 20
19.3269654008
 11
8.2004921354
 21
19.4215835246
  0
LINE
  5
595
100
AcDbEntity
  8
0
100
AcDbLine
 62
250
  6
CONTINUOUS
 10
8.2006044505
 20
-19.1684133776
 11
8.2004173531
 21
-19.240760107
  0
LINE
  5
596
100
AcDbEntity
  8
0
100
AcDbLine
 62
250
  6
CONTINUOUS
 10
8.2000817784
 20
19.1966639931
 11
8.2005857203
 21
19.3269654008
  0
LINE
  5
597
100
AcDbEntity
  8
0
100
AcDbLine
 62
250
  6
CONTINUOUS
 10
8.2004173531
 20
-19.240760107
 11
8.2000817722
 21
-19.2887818437
  0
LINE
  5
598
100
AcDbEntity
  8
0
100
AcDbLine
 62
250
  6
CONTINUOUS
 10
8.1983903929
 20
19.0004120615
 11
8.2000817784
 21
19.1966639931
  0
LINE
  5
599
100
AcDbEntity
  8
0
100
AcDbLine
 62
250
  6
CONTINUOUS
 10
8.2000817722
 20
-19.2887818437
 11
8.1995812677
 21
-19.3310886765
  0
LINE
  5
59A
100
AcDbEntity
  8
0
100
AcDbLine
 62
250
  6
CONTINUOUS
 10
8.1951945972
 20
18.759863022
 11
8.1983903929
 21
19.0004120615
  0
LINE
  5
59B
100
AcDbEntity
  8
0
100
AcDbLine
 62
250
  6
CONTINUOUS
 10
8.1933815269
 20
18.6498927431
 11
8.1951945972
 21
18.759863022
  0
LINE
  5
59C
100
AcDbEntity
  8
0
100
AcDbLine
 62
250
  6
CONTINUOUS
 10
8.1995812677
 20
-19.3310886765
 11
8.1991576159
 21
-19.3559739553
  0
LINE
  5
59D
100
AcDbEntity
  8
0
100
AcDbLine
 62
250
  6
CONTINUOUS
 10
8.1991576159
 20
-19.3559739553
 11
8.1986634472
 21
-19.3781144926
  0
LWPOLYLINE
  5
59E
100
AcDbEntity
  8
0
100
AcDbPolyline
 62
250
  6
CONTINUOUS
 90
14
 70
0
 10
8.1986634472
 20
-19.3781144926
 10
8.1981002616
 20
-19.3974430729
 10
8.1977933139
 20
-19.4060342018
 10
8.1974697692
 20
-19.4139010138
 10
8.1971298732
 20
-19.421037538
 10
8.1967738838
 20
-19.4274383578
 10
8.1964020713
 20
-19.4330986137
 10
8.196014718
 20
-19.4380140075
 10
8.1956121176
 20
-19.4421808142
 10
8.195194576
 20
-19.445595864
 10
8.1947624122
 20
-19.448256555
 10
8.1943159553
 20
-19.4501608761
 10
8.1938555436
 20
-19.4513073976
 10
8.1933815269
 20
-19.4516952602
  0
LINE
  5
59F
100
AcDbEntity
  8
CURVE
100
AcDbLine
 62
250
  6
CONTINUOUS
 10
4.5707509653
 20
-7.0438344857
 11
4.7850040524
 21
-6.7581205747
  0
LINE
  5
5A0
100
AcDbEntity
  8
CURVE
100
AcDbLine
 62
250
  6
CONTINUOUS
 10
2.1782582672
 20
-8.9978929695
 11
2.3925113544
 21
-8.783607268
  0
LINE
  5
5A1
100
AcDbEntity
  8
CURVE
100
AcDbLine
 62
250
  6
CONTINUOUS
 10
3.6423209733
 20
-9.3295486352
 11
3.8565740381
 21
-9.1152630231
  0
LINE
  5
5A2
100
AcDbEntity
  8
CURVE
100
AcDbLine
 62
250
  6
CONTINUOUS
 10
3.6423209733
 20
-8.5795486352
 11
5.142092516
 21
-8.150977411
  0
LINE
  5
5A3
100
AcDbEntity
  8
IMPORT_IGES
100
AcDbLine
 62
7
  6
CONTINUOUS
 10
-5.7506278091
 20
8.2006886389
 11
-4.3749871631
 21
8.4135009874
  0
LINE
  5
5A4
100
AcDbEntity
  8
IMPORT_IGES
100
AcDbLine
 62
7
  6
CONTINUOUS
 10
3.3350128369
 20
8.2006886389
 11
-5.7506278091
 21
8.2006886389
  0
LINE
  5
5A5
100
AcDbEntity
  8
IMPORT_IGES
100
AcDbLine
 62
7
  6
CONTINUOUS
 10
0.5350128369
 20
8.549022589
 11
-4.3749871631
 21
8.549022589
  0
LINE
  5
5A6
100
AcDbEntity
  8
IMPORT_IGES
100
AcDbLine
 62
7
  6
CONTINUOUS
 10
0.5350128369
 20
8.699022589
 11
-4.3649871631
 21
8.699022589
  0
LINE
  5
5A7
100
AcDbEntity
  8
CURVE
100
AcDbLine
 62
250
  6
CONTINUOUS
 10
8.6415594491
 20
9.599022589
 11
6.7418488283
 21
9.599022589
  0
LINE
  5
5A8
100
AcDbEntity
  8
IMPORT_IGES
100
AcDbLine
 62
7
  6
CONTINUOUS
 10
0.5350128369
 20
8.549022589
 11
3.3350128369
 21
8.3479916338
  0
LINE
  5
5A9
100
AcDbEntity
  8
0
100
AcDbLine
 62
250
  6
CONTINUOUS
 10
9.8084652433
 20
-16.8367638486
 11
9.8084652433
 21
17.0348090266
  0
LINE
  5
5AA
100
AcDbEntity
  8
ASSI
100
AcDbLine
 62
250
  6
CONTINUOUS
 10
9.9010676846
 20
-22.400977411
 11
9.9010676846
 21
-20.800977411
  0
LINE
  5
5AB
100
AcDbEntity
  8
ASSI
100
AcDbLine
 62
250
  6
CONTINUOUS
 10
9.9010676846
 20
20.999022589
 11
9.9010676846
 21
22.599022589
  0
LINE
  5
5AC
100
AcDbEntity
  8
RACCORDO
100
AcDbLine
 62
7
  6
CONTINUOUS
 10
10.0410128369
 20
-23.650977411
 11
10.0410128369
 21
-22.400977411
  0
LINE
  5
5AD
100
AcDbEntity
  8
DRAFT
100
AcDbLine
 62
7
  6
CONTINUOUS
 10
10.0410128369
 20
-22.400977411
 11
10.0410128369
 21
-20.800977411
  0
LINE
  5
5AE
100
AcDbEntity
  8
ASSI
100
AcDbLine
 62
7
  6
CONTINUOUS
 10
10.0410128369
 20
-23.650977411
 11
10.0410128369
 21
-20.800977411
  0
LINE
  5
5AF
100
AcDbEntity
  8
DRAFT
100
AcDbLine
 62
7
  6
CONTINUOUS
 10
10.0410128369
 20
20.999022589
 11
10.0410128369
 21
22.599022589
  0
LINE
  5
5B0
100
AcDbEntity
  8
RACCORDO
100
AcDbLine
 62
7
  6
CONTINUOUS
 10
10.0410128369
 20
22.599022589
 11
10.0410128369
 21
23.849022589
  0
LINE
  5
5B1
100
AcDbEntity
  8
ASSI
100
AcDbLine
 62
7
  6
CONTINUOUS
 10
10.0410128369
 20
20.999022589
 11
10.0410128369
 21
23.849022589
  0
LINE
  5
5B2
100
AcDbEntity
  8
RACCORDO
100
AcDbLine
 62
7
  6
CONTINUOUS
 10
10.7362824473
 20
20.999022589
 11
10.7362824473
 21
18.199022589
  0
LINE
  5
5B3
100
AcDbEntity
  8
ASSI
100
AcDbLine
 62
7
  6
CONTINUOUS
 10
10.7362824473
 20
20.999022589
 11
10.7362824473
 21
18.199022589
  0
LINE
  5
5B4
100
AcDbEntity
  8
RACCORDO
100
AcDbLine
 62
7
  6
CONTINUOUS
 10
10.7362824473
 20
-18.000977411
 11
10.7362824473
 21
-20.800977411
  0
LINE
  5
5B5
100
AcDbEntity
  8
ASSI
100
AcDbLine
 62
7
  6
CONTINUOUS
 10
10.7362824473
 20
-18.000977411
 11
10.7362824473
 21
-20.800977411
  0
LINE
  5
5B6
100
AcDbEntity
  8
0
100
AcDbLine
 62
7
  6
CONTINUOUS
 10
10.7910128369
 20
-16.8367638486
 11
10.7910128369
 21
17.0348090266
  0
LINE
  5
5B7
100
AcDbEntity
  8
DRAFT
100
AcDbLine
 62
7
  6
CONTINUOUS
 10
10.8253032785
 20
20.999022589
 11
10.8253032785
 21
12.499022589
  0
LINE
  5
5B8
100
AcDbEntity
  8
ASSI
100
AcDbLine
 62
7
  6
CONTINUOUS
 10
10.8253032785
 20
20.999022589
 11
10.8253032785
 21
12.499022589
  0
LINE
  5
5B9
100
AcDbEntity
  8
DRAFT
100
AcDbLine
 62
7
  6
CONTINUOUS
 10
10.8253032785
 20
-2.500977411
 11
10.8253032785
 21
-10.0598185018
  0
LINE
  5
5BA
100
AcDbEntity
  8
ASSI
100
AcDbLine
 62
7
  6
CONTINUOUS
 10
10.8253032785
 20
-2.500977411
 11
10.8253032785
 21
-10.0598185018
  0
LINE
  5
5BB
100
AcDbEntity
  8
DRAFT
100
AcDbLine
 62
7
  6
CONTINUOUS
 10
10.8253032785
 20
-10.7421363201
 11
10.8253032785
 21
-20.800977411
  0
LINE
  5
5BC
100
AcDbEntity
  8
ASSI
100
AcDbLine
 62
7
  6
CONTINUOUS
 10
10.8253032785
 20
-10.7421363201
 11
10.8253032785
 21
-20.800977411
  0
LINE
  5
5BD
100
AcDbEntity
  8
IMPORT_IGES
100
AcDbLine
 62
7
  6
CONTINUOUS
 10
10.8350128369
 20
-2.500977411
 11
10.8350128369
 21
12.499022589
  0
LINE
  5
5BE
100
AcDbEntity
  8
0
100
AcDbLine
 62
7
  6
CONTINUOUS
 10
10.8910128369
 20
-20.800977411
 11
10.8910128369
 21
20.999022589
  0
LINE
  5
5BF
100
AcDbEntity
  8
ASSI
100
AcDbLine
 62
7
  6
CONTINUOUS
 10
10.8910128369
 20
-20.800977411
 11
10.8910128369
 21
20.999022589
  0
LINE
  5
5C0
100
AcDbEntity
  8
0
100
AcDbLine
 62
7
  6
CONTINUOUS
 10
10.9067223953
 20
-20.800977411
 11
10.9067223953
 21
20.999022589
  0
LINE
  5
5C1
100
AcDbEntity
  8
ASSI
100
AcDbLine
 62
7
  6
CONTINUOUS
 10
10.9067223953
 20
-20.800977411
 11
10.9067223953
 21
20.999022589
  0
LWPOLYLINE
  5
5C2
100
AcDbEntity
  8
0
100
AcDbPolyline
 62
250
  6
CONTINUOUS
 90
13
 70
0
 10
-5.393891976
 20
-19.6888620014
 10
-5.3941910506
 20
-19.6891717365
 10
-5.3944791336
 20
-19.6900899385
 10
-5.3947558741
 20
-19.691615489
 10
-5.3950209351
 20
-19.6937465302
 10
-5.3952739937
 20
-19.6964804667
 10
-5.3955147418
 20
-19.6998139688
 10
-5.3957428861
 20
-19.7037429769
 10
-5.3959581489
 20
-19.7082627059
 10
-5.3961602679
 20
-19.7133676514
 10
-5.396348997
 20
-19.7190515961
 10
-5.3965241064
 20
-19.7253076177
 10
-5.3968326296
 20
-19.7395047281
  0
LINE
  5
5C3
100
AcDbEntity
  8
RACCORDO
100
AcDbLine
 62
7
  6
CONTINUOUS
 10
-7.3589871631
 20
-21.600977411
 11
-6.7474762472
 21
-20.9894659192
  0
LINE
  5
5C4
100
AcDbEntity
  8
ASSI
100
AcDbLine
 62
7
  6
CONTINUOUS
 10
-7.3589871631
 20
-21.600977411
 11
-6.7474762472
 21
-20.9894659192
  0
LINE
  5
5C5
100
AcDbEntity
  8
CURVE
100
AcDbLine
 62
250
  6
CONTINUOUS
 10
5.142092516
 20
-9.4366917989
 11
4.9278394289
 21
-9.650977411
  0
LINE
  5
5C6
100
AcDbEntity
  8
CURVE
100
AcDbLine
 62
250
  6
CONTINUOUS
 10
3.8565740381
 20
-11.3652630231
 11
3.6423209733
 21
-11.5795489928
  0
LINE
  5
5C7
100
AcDbEntity
  8
CURVE
100
AcDbLine
 62
250
  6
CONTINUOUS
 10
3.8565740381
 20
-9.1152630231
 11
4.0708271028
 21
-9.0081205747
  0
LINE
  5
5C8
100
AcDbEntity
  8
CURVE
100
AcDbLine
 62
250
  6
CONTINUOUS
 10
4.9278394289
 20
-9.650977411
 11
4.7135863418
 21
-9.7581205747
  0
LINE
  5
5C9
100
AcDbEntity
  8
IMPORT_IGES
100
AcDbLine
 62
7
  6
CONTINUOUS
 10
3.3350128369
 20
11.6500535442
 11
0.5350128369
 21
11.449022589
  0
LINE
  5
5CA
100
AcDbEntity
  8
RACCORDO
100
AcDbLine
 62
7
  6
CONTINUOUS
 10
-11.5089871631
 20
10.2578636799
 11
-11.5432776047
 21
10.2578636799
  0
LINE
  5
5CB
100
AcDbEntity
  8
ASSI
100
AcDbLine
 62
7
  6
CONTINUOUS
 10
-11.5089871631
 20
10.2578636799
 11
-11.5432776047
 21
10.2578636799
  0
LINE
  5
5CC
100
AcDbEntity
  8
CURVE
100
AcDbLine
 62
250
  6
CONTINUOUS
 10
8.6415594491
 20
10.549022589
 11
6.7418488283
 21
10.549022589
  0
LINE
  5
5CD
100
AcDbEntity
  8
RACCORDO
100
AcDbLine
 62
7
  6
CONTINUOUS
 10
-11.5432776047
 20
10.9401814982
 11
-11.5089871631
 21
10.9401814982
  0
LINE
  5
5CE
100
AcDbEntity
  8
ASSI
100
AcDbLine
 62
7
  6
CONTINUOUS
 10
-11.5432776047
 20
10.9401814982
 11
-11.5089871631
 21
10.9401814982
  0
LINE
  5
5CF
100
AcDbEntity
  8
IMPORT_IGES
100
AcDbLine
 62
7
  6
CONTINUOUS
 10
-4.3649871631
 20
11.299022589
 11
0.5350128369
 21
11.299022589
  0
LINE
  5
5D0
100
AcDbEntity
  8
IMPORT_IGES
100
AcDbLine
 62
7
  6
CONTINUOUS
 10
-4.3749871631
 20
11.449022589
 11
0.5350128369
 21
11.449022589
  0
LINE
  5
5D1
100
AcDbEntity
  8
IMPORT_IGES
100
AcDbLine
 62
7
  6
CONTINUOUS
 10
-4.3749871631
 20
11.5845441906
 11
-5.7506278091
 21
11.7973565392
  0
LWPOLYLINE
  5
5D2
100
AcDbEntity
  8
IMPORT_IGES
100
AcDbPolyline
 62
7
  6
CONTINUOUS
 90
10
 70
0
 10
-1.3111515965
 20
12.499022589
 10
-1.3980870416
 20
12.5282902643
 10
-1.4816033777
 20
12.5583842948
 10
-1.5617006049
 20
12.5884669591
 10
-1.6383415193
 20
12.6178145032
 10
-1.7115633247
 20
12.644788752
 10
-1.7814776326
 20
12.6673526731
 10
-1.8481216466
 20
12.6843857681
 10
-1.9114581629
 20
12.695223319
 10
-1.9714871817
 20
12.699022534
  0
LINE
  5
5D3
100
AcDbEntity
  8
RACCORDO
100
AcDbLine
 62
7
  6
CONTINUOUS
 10
-7.3589871631
 20
21.799022589
 11
-6.7474762472
 21
21.1875110973
  0
LINE
  5
5D4
100
AcDbEntity
  8
ASSI
100
AcDbLine
 62
7
  6
CONTINUOUS
 10
-7.3589871631
 20
21.799022589
 11
-6.7474762472
 21
21.1875110973
  0
LINE
  5
5D5
100
AcDbEntity
  8
RACCORDO
100
AcDbLine
 62
7
  6
CONTINUOUS
 10
12.0410128369
 20
-23.650977411
 11
12.0410128369
 21
23.849022589
  0
LINE
  5
5D6
100
AcDbEntity
  8
ASSI
100
AcDbLine
 62
7
  6
CONTINUOUS
 10
12.0410128369
 20
-23.650977411
 11
12.0410128369
 21
23.849022589
  0
LINE
  5
5D7
100
AcDbEntity
  8
CURVE
100
AcDbLine
 62
250
  6
CONTINUOUS
 10
6.1419402112
 20
-9.9009775302
 11
6.356193276
 21
-9.6866915605
  0
LINE
  5
5D8
100
AcDbEntity
  8
0
100
AcDbLine
 62
250
  6
CONTINUOUS
 10
-3.3405299771
 20
-19.6530204344
 11
-3.2382295902
 21
-19.5507200475
  0
LINE
  5
5D9
100
AcDbEntity
  8
0
100
AcDbLine
 62
7
  6
CONTINUOUS
 10
-2.9034000553
 20
-19.6453903032
 11
-2.8160981316
 21
-19.5580883795
  0
LINE
  5
5DA
100
AcDbEntity
  8
CURVE
100
AcDbLine
 62
250
  6
CONTINUOUS
 10
3.6423209733
 20
-13.9366916201
 11
3.8565740381
 21
-13.722406008
  0
LINE
  5
5DB
100
AcDbEntity
  8
CURVE
100
AcDbLine
 62
250
  6
CONTINUOUS
 10
7.6417117539
 20
-10.0081203362
 11
7.4274586668
 21
-10.2224059484
  0
LINE
  5
5DC
100
AcDbEntity
  8
CURVE
100
AcDbLine
 62
250
  6
CONTINUOUS
 10
6.9989525149
 20
-10.7581203362
 11
6.7846994055
 21
-10.9724059484
  0
LINE
  5
5DD
100
AcDbEntity
  8
CURVE
100
AcDbLine
 62
250
  6
CONTINUOUS
 10
6.356193276
 20
-9.6866915605
 11
6.5704463407
 21
-9.5795487544
  0
LINE
  5
5DE
100
AcDbEntity
  8
CURVE
100
AcDbLine
 62
250
  6
CONTINUOUS
 10
7.4274586668
 20
-10.2224059484
 11
7.2132055797
 21
-10.3295487544
  0
LINE
  5
5DF
100
AcDbEntity
  8
CURVE
100
AcDbLine
 62
250
  6
CONTINUOUS
 10
0.8927398116
 20
-12.855035865
 11
1.642625583
 21
-12.5443756932
  0
LINE
  5
5E0
100
AcDbEntity
  8
0
100
AcDbLine
 62
7
  6
CONTINUOUS
 10
-0.3589871631
 20
12.962480511
 11
-6.8589871631
 21
12.849022589
  0
LINE
  5
5E1
100
AcDbEntity
  8
IMPORT_IGES
100
AcDbLine
 62
7
  6
CONTINUOUS
 10
-5.7506278091
 20
11.7973565392
 11
3.3350128369
 21
11.7973565392
  0
LINE
  5
5E2
100
AcDbEntity
  8
IMPORT_IGES
100
AcDbLine
 62
7
  6
CONTINUOUS
 10
10.8350128369
 20
12.499022589
 11
10.7910128369
 21
12.499022589
  0
LINE
  5
5E3
100
AcDbEntity
  8
IMPORT_IGES
100
AcDbLine
 62
7
  6
CONTINUOUS
 10
5.6410128369
 20
12.499022589
 11
-6.6649871631
 21
12.499022589
  0
LINE
  5
5E4
100
AcDbEntity
  8
IMPORT_IGES
100
AcDbLine
 62
250
  6
CONTINUOUS
 10
3.3350128369
 20
12.799022589
 11
-3.1649871625
 21
12.799022589
  0
LINE
  5
5E5
100
AcDbEntity
  8
IMPORT_IGES
100
AcDbLine
 62
7
  6
CONTINUOUS
 10
-3.4407736007
 20
12.699022589
 11
-1.9714871817
 21
12.699022534
  0
LINE
  5
5E6
100
AcDbEntity
  8
0
100
AcDbLine
 62
7
  6
CONTINUOUS
 10
-0.3589871631
 20
12.9537529786
 11
5.6410128369
 21
12.849022589
  0
LINE
  5
5E7
100
AcDbEntity
  8
IMPORT_IGES
100
AcDbLine
 62
250
  6
CONTINUOUS
 10
-3.1635175592
 20
12.7678535353
 11
-3.1891300029
 21
12.7709226594
  0
LINE
  5
5E8
100
AcDbEntity
  8
IMPORT_IGES
100
AcDbLine
 62
250
  6
CONTINUOUS
 10
-3.1891300029
 20
12.7709226594
 11
-3.7083347004
 21
12.8837409752
  0
LINE
  5
5E9
100
AcDbEntity
  8
0
100
AcDbLine
 62
250
  6
CONTINUOUS
 10
-3.2382295902
 20
19.7487652255
 11
-3.3405299771
 21
19.8510656124
  0
LINE
  5
5EA
100
AcDbEntity
  8
0
100
AcDbLine
 62
7
  6
CONTINUOUS
 10
-2.8160981316
 20
19.7561335575
 11
-2.9034000553
 21
19.8434354813
  0
LINE
  5
5EB
100
AcDbEntity
  8
CURVE
100
AcDbLine
 62
250
  6
CONTINUOUS
 10
3.6423209733
 20
-15.1152631125
 11
3.8565740381
 21
-14.900977411
  0
LINE
  5
5EC
100
AcDbEntity
  8
CURVE
100
AcDbLine
 62
250
  6
CONTINUOUS
 10
7.4274586668
 20
-11.5081203362
 11
7.6417117539
 21
-11.2938347241
  0
LINE
  5
5ED
100
AcDbEntity
  8
CURVE
100
AcDbLine
 62
250
  6
CONTINUOUS
 10
5.142092516
 20
-14.0438346049
 11
4.9278394289
 21
-14.258120217
  0
LINE
  5
5EE
100
AcDbEntity
  8
CURVE
100
AcDbLine
 62
250
  6
CONTINUOUS
 10
6.1419402112
 20
-13.400977411
 11
6.356193276
 21
-13.1866916201
  0
LINE
  5
5EF
100
AcDbEntity
  8
CURVE
100
AcDbLine
 62
250
  6
CONTINUOUS
 10
5.142092516
 20
-15.222406008
 11
4.9278394289
 21
-15.4366917095
  0
LINE
  5
5F0
100
AcDbEntity
  8
ASSI
100
AcDbLine
 62
7
  6
CONTINUOUS
 10
-5.3500984506
 20
-21.6455085759
 11
-5.1769613499
 21
-21.5025265338
  0
LINE
  5
5F1
100
AcDbEntity
  8
ASSI
100
AcDbLine
 62
7
  6
CONTINUOUS
 10
-5.1769613499
 20
-21.5025265338
 11
-5.0639920203
 21
-21.4096667629
  0
LINE
  5
5F2
100
AcDbEntity
  8
ASSI
100
AcDbLine
 62
7
  6
CONTINUOUS
 10
-5.0639920203
 20
-21.4096667629
 11
-4.9834540397
 21
-21.3438896554
  0
LINE
  5
5F3
100
AcDbEntity
  8
ASSI
100
AcDbLine
 62
7
  6
CONTINUOUS
 10
-4.9834540397
 20
-21.3438896554
 11
-4.9074041588
 21
-21.2822480961
  0
LINE
  5
5F4
100
AcDbEntity
  8
ASSI
100
AcDbLine
 62
7
  6
CONTINUOUS
 10
-4.9074041588
 20
-21.2822480961
 11
-4.8360862669
 21
-21.2250098077
  0
LINE
  5
5F5
100
AcDbEntity
  8
ASSI
100
AcDbLine
 62
7
  6
CONTINUOUS
 10
-4.8360862669
 20
-21.2250098077
 11
-4.7912764756
 21
-21.18941843
  0
LINE
  5
5F6
100
AcDbEntity
  8
ASSI
100
AcDbLine
 62
7
  6
CONTINUOUS
 10
-4.7912764756
 20
-21.18941843
 11
-4.748829798
 21
-21.1560279234
  0
LINE
  5
5F7
100
AcDbEntity
  8
ASSI
100
AcDbLine
 62
7
  6
CONTINUOUS
 10
-4.748829798
 20
-21.1560279234
 11
-4.7088614885
 21
-21.124947238
  0
LINE
  5
5F8
100
AcDbEntity
  8
ASSI
100
AcDbLine
 62
7
  6
CONTINUOUS
 10
-4.7088614885
 20
-21.124947238
 11
-4.6713951833
 21
-21.0961967238
  0
LWPOLYLINE
  5
5F9
100
AcDbEntity
  8
ASSI
100
AcDbPolyline
 62
7
  6
CONTINUOUS
 90
6
 70
0
 10
-4.6713951833
 20
-21.0961967238
 10
-4.6363873606
 20
-21.0697438375
 10
-4.6197778056
 20
-21.0573606518
 10
-4.6037565603
 20
-21.0455323236
 10
-4.5883230595
 20
-21.0342558377
 10
-4.578719623
 20
-21.0273217069
  0
LINE
  5
5FA
100
AcDbEntity
  8
CURVE
100
AcDbLine
 62
250
  6
CONTINUOUS
 10
3.8565740381
 20
-13.722406008
 11
4.0708271028
 21
-13.6152632019
  0
LINE
  5
5FB
100
AcDbEntity
  8
CURVE
100
AcDbLine
 62
250
  6
CONTINUOUS
 10
6.356193276
 20
-13.1866916201
 11
6.5704463407
 21
-13.079548814
  0
LINE
  5
5FC
100
AcDbEntity
  8
CURVE
100
AcDbLine
 62
250
  6
CONTINUOUS
 10
0.8927398116
 20
-14.0976765521
 11
2.3925113544
 21
-13.4763562085
  0
LINE
  5
5FD
100
AcDbEntity
  8
CURVE
100
AcDbLine
 62
250
  6
CONTINUOUS
 10
0.8927398116
 20
-15.3403172392
 11
2.3925113544
 21
-14.7189968956
  0
LWPOLYLINE
  5
5FE
100
AcDbEntity
  8
ASSI
100
AcDbPolyline
 62
7
  6
CONTINUOUS
 90
5
 70
0
 10
-4.578719624
 20
21.2253668849
 10
-4.5883206101
 20
21.2322992292
 10
-4.6037537601
 20
21.2435754405
 10
-4.6197746398
 20
21.2554034807
 10
-4.6363838114
 20
21.267786354
  0
LINE
  5
5FF
100
AcDbEntity
  8
CURVE
100
AcDbLine
 62
250
  6
CONTINUOUS
 10
3.3123712339
 20
16.036522589
 11
2.8957680152
 21
16.349022589
  0
LINE
  5
600
100
AcDbEntity
  8
ASSI
100
AcDbLine
 62
7
  6
CONTINUOUS
 10
-4.6363838114
 20
21.267786354
 11
-4.6713907217
 21
21.2942385034
  0
LINE
  5
601
100
AcDbEntity
  8
ASSI
100
AcDbLine
 62
7
  6
CONTINUOUS
 10
-4.6713907217
 20
21.2942385034
 11
-4.7088555536
 21
21.3229878315
  0
LINE
  5
602
100
AcDbEntity
  8
ASSI
100
AcDbLine
 62
7
  6
CONTINUOUS
 10
-4.7088555536
 20
21.3229878315
 11
-4.7488219776
 21
21.3540669899
  0
LINE
  5
603
100
AcDbEntity
  8
ASSI
100
AcDbLine
 62
7
  6
CONTINUOUS
 10
-4.7488219776
 20
21.3540669899
 11
-4.7912666358
 21
21.3874558283
  0
LINE
  5
604
100
AcDbEntity
  8
ASSI
100
AcDbLine
 62
7
  6
CONTINUOUS
 10
-4.7912666358
 20
21.3874558283
 11
-4.8360752064
 21
21.4230461627
  0
LINE
  5
605
100
AcDbEntity
  8
ASSI
100
AcDbLine
 62
7
  6
CONTINUOUS
 10
-4.8360752064
 20
21.4230461627
 11
-4.9073929069
 21
21.4802841857
  0
LINE
  5
606
100
AcDbEntity
  8
ASSI
100
AcDbLine
 62
7
  6
CONTINUOUS
 10
-4.9073929069
 20
21.4802841857
 11
-4.9834419071
 21
21.5419249545
  0
LINE
  5
607
100
AcDbEntity
  8
ASSI
100
AcDbLine
 62
7
  6
CONTINUOUS
 10
-4.9834419071
 20
21.5419249545
 11
-5.063975471
 21
21.6076983906
  0
LINE
  5
608
100
AcDbEntity
  8
ASSI
100
AcDbLine
 62
7
  6
CONTINUOUS
 10
-5.063975471
 20
21.6076983906
 11
-5.1769378232
 21
21.7005523236
  0
LINE
  5
609
100
AcDbEntity
  8
ASSI
100
AcDbLine
 62
7
  6
CONTINUOUS
 10
-5.1769378232
 20
21.7005523236
 11
-5.3500984506
 21
21.843553754
  0
LINE
  5
60A
100
AcDbEntity
  8
CURVE
100
AcDbLine
 62
250
  6
CONTINUOUS
 10
7.6417117539
 20
-13.5081203064
 11
7.4274586668
 21
-13.722406008
  0
LINE
  5
60B
100
AcDbEntity
  8
CURVE
100
AcDbLine
 62
250
  6
CONTINUOUS
 10
6.9989525149
 20
-14.2581202617
 11
6.7846994055
 21
-14.4724059633
  0
LINE
  5
60C
100
AcDbEntity
  8
DRAFT
100
AcDbLine
 62
7
  6
CONTINUOUS
 10
10.7910128369
 20
-10.7764267617
 11
10.8253032785
 21
-10.7421363201
  0
LINE
  5
60D
100
AcDbEntity
  8
ASSI
100
AcDbLine
 62
7
  6
CONTINUOUS
 10
10.7910128369
 20
-10.7764267617
 11
10.8253032785
 21
-10.7421363201
  0
LINE
  5
60E
100
AcDbEntity
  8
CURVE
100
AcDbLine
 62
250
  6
CONTINUOUS
 10
4.9278394289
 20
-14.258120217
 11
4.7135863418
 21
-14.3652632019
  0
LINE
  5
60F
100
AcDbEntity
  8
CURVE
100
AcDbLine
 62
250
  6
CONTINUOUS
 10
3.8565740381
 20
-14.900977411
 11
4.0708271028
 21
-14.7938346049
  0
LINE
  5
610
100
AcDbEntity
  8
CURVE
100
AcDbLine
 62
250
  6
CONTINUOUS
 10
7.4274586668
 20
-13.722406008
 11
7.2132055797
 21
-13.829548814
  0
LINE
  5
611
100
AcDbEntity
  8
CURVE
100
AcDbLine
 62
250
  6
CONTINUOUS
 10
4.9278394289
 20
-15.4366917095
 11
4.7135863418
 21
-15.5438345155
  0
LINE
  5
612
100
AcDbEntity
  8
CURVE
100
AcDbLine
 62
250
  6
CONTINUOUS
 10
1.645958359
 20
15.411522589
 11
2.8957680152
 21
15.411522589
  0
LINE
  5
613
100
AcDbEntity
  8
CURVE
100
AcDbLine
 62
250
  6
CONTINUOUS
 10
1.645958359
 20
16.349022589
 11
3.3123712339
 21
16.349022589
  0
LINE
  5
614
100
AcDbEntity
  8
0
100
AcDbLine
 62
250
  6
CONTINUOUS
 10
9.8084652433
 20
17.0348090266
 11
10.7910128369
 21
17.0348090266
  0
LINE
  5
615
100
AcDbEntity
  8
0
100
AcDbLine
 62
250
  6
CONTINUOUS
 10
-10.5264395695
 20
17.0348090266
 11
-11.5089871631
 21
17.0348090266
  0
LINE
  5
616
100
AcDbEntity
  8
CURVE
100
AcDbLine
 62
250
  6
CONTINUOUS
 10
2.8957680152
 20
15.411522589
 11
3.9372760434
 21
15.099022589
  0
LINE
  5
617
100
AcDbEntity
  8
0
100
AcDbLine
 62
250
  6
CONTINUOUS
 10
-0.3589871631
 20
18.7991748939
 11
-8.9113558531
 21
18.6498927431
  0
LINE
  5
618
100
AcDbEntity
  8
RACCORDO
100
AcDbLine
 62
250
  6
CONTINUOUS
 10
10.7362824473
 20
18.199022589
 11
10.0410128369
 21
18.199022589
  0
LINE
  5
619
100
AcDbEntity
  8
ASSI
100
AcDbLine
 62
250
  6
CONTINUOUS
 10
10.7362824473
 20
18.199022589
 11
10.0410128369
 21
18.199022589
  0
LINE
  5
61A
100
AcDbEntity
  8
RACCORDO
100
AcDbLine
 62
250
  6
CONTINUOUS
 10
-10.7589871631
 20
18.199022589
 11
-11.4542567735
 21
18.199022589
  0
LINE
  5
61B
100
AcDbEntity
  8
ASSI
100
AcDbLine
 62
250
  6
CONTINUOUS
 10
-10.7589871631
 20
18.199022589
 11
-11.4542567735
 21
18.199022589
  0
LINE
  5
61C
100
AcDbEntity
  8
0
100
AcDbLine
 62
250
  6
CONTINUOUS
 10
8.1933815269
 20
18.6498927431
 11
-0.3589871631
 21
18.7991748939
  0
LINE
  5
61D
100
AcDbEntity
  8
0
100
AcDbLine
 62
250
  6
CONTINUOUS
 10
6.3668413745
 20
-20.0534639433
 11
6.9366408842
 21
-19.4736317497
  0
LINE
  5
61E
100
AcDbEntity
  8
0
100
AcDbLine
 62
7
  6
CONTINUOUS
 10
6.7147403959
 20
-20.4039185755
 11
7.6410128369
 21
-19.4613368916
  0
LINE
  5
61F
100
AcDbEntity
  8
0
100
AcDbLine
 62
250
  6
CONTINUOUS
 10
8.1933815269
 20
-18.4518475651
 11
9.8084652433
 21
-16.8367638486
  0
LINE
  5
620
100
AcDbEntity
  8
0
100
AcDbLine
 62
7
  6
CONTINUOUS
 10
8.8830359017
 20
-19.1589543462
 11
10.4981196181
 21
-17.5438706298
  0
LINE
  5
621
100
AcDbEntity
  8
ASSI
100
AcDbLine
 62
7
  6
CONTINUOUS
 10
4.6321241244
 20
-21.7172828182
 11
4.5079719229
 21
-21.8282850074
  0
LINE
  5
622
100
AcDbEntity
  8
ASSI
100
AcDbLine
 62
7
  6
CONTINUOUS
 10
4.5079719229
 20
-21.8282850074
 11
4.3847880093
 21
-21.9380662462
  0
LINE
  5
623
100
AcDbEntity
  8
ASSI
100
AcDbLine
 62
7
  6
CONTINUOUS
 10
4.3847880093
 20
-21.9380662462
 11
4.2965265457
 21
-22.0163249033
  0
LINE
  5
624
100
AcDbEntity
  8
ASSI
100
AcDbLine
 62
7
  6
CONTINUOUS
 10
4.2965265457
 20
-22.0163249033
 11
4.2133441195
 21
-22.0895862529
  0
LINE
  5
625
100
AcDbEntity
  8
ASSI
100
AcDbLine
 62
7
  6
CONTINUOUS
 10
4.2133441195
 20
-22.0895862529
 11
4.1609197078
 21
-22.1354308601
  0
LINE
  5
626
100
AcDbEntity
  8
ASSI
100
AcDbLine
 62
7
  6
CONTINUOUS
 10
4.1609197078
 20
-22.1354308601
 11
4.1109901288
 21
-22.1787701859
  0
LINE
  5
627
100
AcDbEntity
  8
ASSI
100
AcDbLine
 62
7
  6
CONTINUOUS
 10
4.1109901288
 20
-22.1787701859
 11
4.0636360602
 21
-22.2195359961
  0
LINE
  5
628
100
AcDbEntity
  8
ASSI
100
AcDbLine
 62
7
  6
CONTINUOUS
 10
4.0636360602
 20
-22.2195359961
 11
4.0191335877
 21
-22.2574634624
  0
LINE
  5
629
100
AcDbEntity
  8
ASSI
100
AcDbLine
 62
7
  6
CONTINUOUS
 10
4.0191335877
 20
-22.2574634624
 11
3.9775506725
 21
-22.2924921435
  0
LINE
  5
62A
100
AcDbEntity
  8
ASSI
100
AcDbLine
 62
7
  6
CONTINUOUS
 10
3.9775506725
 20
-22.2924921435
 11
3.9388598112
 21
-22.3246466249
  0
LWPOLYLINE
  5
62B
100
AcDbEntity
  8
ASSI
100
AcDbPolyline
 62
7
  6
CONTINUOUS
 90
13
 70
0
 10
3.9388598112
 20
-22.3246466249
 10
3.9029401999
 20
-22.354020494
 10
3.8860068251
 20
-22.3676820904
 10
3.8697234521
 20
-22.3806808045
 10
3.8540878391
 20
-22.3930243365
 10
3.8391022281
 20
-22.404715963
 10
3.8247390763
 20
-22.4157673036
 10
3.8109960175
 20
-22.4261885991
 10
3.797875418
 20
-22.4359838603
 10
3.7853568345
 20
-22.4451565984
 10
3.7734334527
 20
-22.4537151261
 10
3.762112087
 20
-22.4616715724
 10
3.7513927374
 20
-22.4690369148
  0
LINE
  5
62C
100
AcDbEntity
  8
0
100
AcDbLine
 62
7
  6
CONTINUOUS
 10
-0.3589871631
 20
19.799022589
 11
-8.9113558531
 21
19.6497404382
  0
LINE
  5
62D
100
AcDbEntity
  8
0
100
AcDbLine
 62
7
  6
CONTINUOUS
 10
-6.3589871631
 20
19.8942921994
 11
-6.0879833262
 21
19.899022589
  0
LINE
  5
62E
100
AcDbEntity
  8
0
100
AcDbLine
 62
250
  6
CONTINUOUS
 10
-5.393891976
 20
20.711214151
 11
-0.3589871631
 21
20.7990987414
  0
LINE
  5
62F
100
AcDbEntity
  8
0
100
AcDbLine
 62
250
  6
CONTINUOUS
 10
-7.3589871631
 20
20.685488503
 11
-5.393891976
 21
20.711214151
  0
LINE
  5
630
100
AcDbEntity
  8
DRAFT
100
AcDbLine
 62
7
  6
CONTINUOUS
 10
-6.3589871631
 20
19.799022589
 11
-7.7589871631
 21
19.799022589
  0
LINE
  5
631
100
AcDbEntity
  8
ASSI
100
AcDbLine
 62
7
  6
CONTINUOUS
 10
-6.3589871631
 20
19.799022589
 11
-7.7589871631
 21
19.799022589
  0
LINE
  5
632
100
AcDbEntity
  8
DRAFT
100
AcDbLine
 62
7
  6
CONTINUOUS
 10
-6.9884427413
 20
19.9296292601
 11
-7.128380492
 21
19.9296292601
  0
LINE
  5
633
100
AcDbEntity
  8
ASSI
100
AcDbLine
 62
7
  6
CONTINUOUS
 10
-6.9884427413
 20
19.9296292601
 11
-7.128380492
 21
19.9296292601
  0
LINE
  5
634
100
AcDbEntity
  8
DRAFT
100
AcDbLine
 62
7
  6
CONTINUOUS
 10
-7.3589871631
 20
19.9299256059
 11
-7.6280841462
 21
19.9299256059
  0
LINE
  5
635
100
AcDbEntity
  8
ASSI
100
AcDbLine
 62
7
  6
CONTINUOUS
 10
-7.3589871631
 20
19.9299256059
 11
-7.6280841462
 21
19.9299256059
  0
LINE
  5
636
100
AcDbEntity
  8
0
100
AcDbLine
 62
250
  6
CONTINUOUS
 10
-7.3589871631
 20
20.4125566751
 11
-5.393891976
 21
20.386831027
  0
LINE
  5
637
100
AcDbEntity
  8
0
100
AcDbLine
 62
7
  6
CONTINUOUS
 10
8.1933815269
 20
19.6497404382
 11
-6.8677133663
 21
19.9126328275
  0
LINE
  5
638
100
AcDbEntity
  8
0
100
AcDbLine
 62
250
  6
CONTINUOUS
 10
-5.393891976
 20
20.386831027
 11
-0.3589871631
 21
20.2989464366
  0
LINE
  5
639
100
AcDbEntity
  8
0
100
AcDbLine
 62
250
  6
CONTINUOUS
 10
5.3231443104
 20
20.6999167676
 11
-0.3589871631
 21
20.7990987414
  0
LINE
  5
63A
100
AcDbEntity
  8
ASSI
100
AcDbLine
 62
7
  6
CONTINUOUS
 10
3.9029401999
 20
22.552065672
 11
3.9388598112
 21
22.522691803
  0
LINE
  5
63B
100
AcDbEntity
  8
ASSI
100
AcDbLine
 62
7
  6
CONTINUOUS
 10
3.9388598112
 20
22.522691803
 11
3.9775506725
 21
22.4905373215
  0
LINE
  5
63C
100
AcDbEntity
  8
ASSI
100
AcDbLine
 62
7
  6
CONTINUOUS
 10
3.9775506725
 20
22.4905373215
 11
4.0191335877
 21
22.4555086404
  0
LINE
  5
63D
100
AcDbEntity
  8
ASSI
100
AcDbLine
 62
7
  6
CONTINUOUS
 10
4.0191335877
 20
22.4555086404
 11
4.0636360602
 21
22.4175811742
  0
LINE
  5
63E
100
AcDbEntity
  8
ASSI
100
AcDbLine
 62
7
  6
CONTINUOUS
 10
4.0636360602
 20
22.4175811742
 11
4.1109901288
 21
22.3768153639
  0
LINE
  5
63F
100
AcDbEntity
  8
ASSI
100
AcDbLine
 62
7
  6
CONTINUOUS
 10
4.1109901288
 20
22.3768153639
 11
4.1609197078
 21
22.3334760381
  0
LINE
  5
640
100
AcDbEntity
  8
ASSI
100
AcDbLine
 62
7
  6
CONTINUOUS
 10
4.1609197078
 20
22.3334760381
 11
4.2404785282
 21
22.2638064974
  0
LINE
  5
641
100
AcDbEntity
  8
ASSI
100
AcDbLine
 62
7
  6
CONTINUOUS
 10
4.2404785282
 20
22.2638064974
 11
4.3254401546
 21
22.1887959016
  0
LINE
  5
642
100
AcDbEntity
  8
ASSI
100
AcDbLine
 62
7
  6
CONTINUOUS
 10
4.3254401546
 20
22.1887959016
 11
4.4152222549
 21
22.1090508461
  0
LWPOLYLINE
  5
643
100
AcDbEntity
  8
ASSI
100
AcDbPolyline
 62
7
  6
CONTINUOUS
 90
3
 70
0
 10
4.4152222549
 20
22.1090508461
 10
4.5391079265
 20
21.9985016177
 10
4.6321241244
 20
21.9153279962
  0
LWPOLYLINE
  5
644
100
AcDbEntity
  8
0
100
AcDbPolyline
 62
250
  6
CONTINUOUS
 90
34
 70
0
 10
6.3668413745
 20
20.2515091213
 10
6.3416953981
 20
20.276490549
 10
6.3160363498
 20
20.3008177069
 10
6.2898642296
 20
20.324490595
 10
6.2631758302
 20
20.3475097032
 10
6.2359743589
 20
20.3698745416
 10
6.2082694378
 20
20.3915836408
 10
6.1800480074
 20
20.4126481235
 10
6.1513231273
 20
20.4330568669
 10
6.1221435979
 20
20.4527750338
 10
6.0925092114
 20
20.471801047
 10
6.0624201755
 20
20.4901364837
 10
6.0319259136
 20
20.507751238
 10
6.0010256333
 20
20.5246442022
 10
5.969720127
 20
20.5408164839
 10
5.9380611957
 20
20.5562413006
 10
5.9060483007
 20
20.570917394
 10
5.8736819808
 20
20.5848460224
 10
5.8410156523
 20
20.5980041771
 10
5.808048503
 20
20.6103906654
 10
5.7747813453
 20
20.6220066801
 10
5.7412700322
 20
20.6328327907
 10
5.7075305912
 20
20.6428649589
 10
5.6735469949
 20
20.6521072231
 10
5.6393270146
 20
20.6605522677
 10
5.6048527787
 20
20.6682049696
 10
5.5701421587
 20
20.6750604519
 10
5.5352565415
 20
20.6810967687
 10
5.5001884767
 20
20.6863122173
 10
5.4649454145
 20
20.6907085004
 10
5.4296110931
 20
20.6942687807
 10
5.3942134249
 20
20.6969874458
 10
5.3587244973
 20
20.6988701081
 10
5.3231443104
 20
20.6999167676
  0
LINE
  5
645
100
AcDbEntity
  8
0
100
AcDbLine
 62
250
  6
CONTINUOUS
 10
9.8084652433
 20
17.0348090266
 11
8.1933815269
 21
18.6498927431
  0
LINE
  5
646
100
AcDbEntity
  8
0
100
AcDbLine
 62
7
  6
CONTINUOUS
 10
10.4981196181
 20
17.7419158078
 11
8.8830359017
 21
19.3569995243
  0
LINE
  5
647
100
AcDbEntity
  8
0
100
AcDbLine
 62
250
  6
CONTINUOUS
 10
6.9366408842
 20
19.6716769278
 11
6.3668413745
 21
20.2515091213
  0
LINE
  5
648
100
AcDbEntity
  8
0
100
AcDbLine
 62
7
  6
CONTINUOUS
 10
7.6410128369
 20
19.6593820696
 11
6.7147403959
 21
20.6019637535
  0
LWPOLYLINE
  5
649
100
AcDbEntity
  8
RACCORDO
100
AcDbPolyline
 62
7
  6
CONTINUOUS
 90
18
 70
0
 10
3.5025743425
 20
22.6433988647
 10
3.4909993414
 20
22.6414869868
 10
3.4798987903
 20
22.6393556868
 10
3.4692787669
 20
22.6370021539
 10
3.4591331936
 20
22.6344291991
 10
3.4495914807
 20
22.6316696411
 10
3.4406613634
 20
22.6287210896
 10
3.4323351066
 20
22.6255859351
 10
3.4247189144
 20
22.6223041674
 10
3.4178218828
 20
22.6188739084
 10
3.4116349158
 20
22.6152970364
 10
3.4062369304
 20
22.6116191755
 10
3.4016380333
 20
22.607839032
 10
3.3978281179
 20
22.6039578997
 10
3.3948557808
 20
22.6000252836
 10
3.3927372211
 20
22.5960576857
 10
3.3914562398
 20
22.592038604
 10
3.3910128369
 20
22.5879680387
  0
LINE
  5
64A
100
AcDbEntity
  8
ASSI
100
AcDbLine
 62
250
  6
CONTINUOUS
 10
-5.9869237787
 20
21.799022589
 11
-5.3500984506
 21
21.843553754
  0
LINE
  5
64B
100
AcDbEntity
  8
0
100
AcDbLine
 62
7
  6
CONTINUOUS
 10
-6.8677133663
 20
21.1854123505
 11
-0.3589871631
 21
21.299022589
  0
LWPOLYLINE
  5
64C
100
AcDbEntity
  8
RACCORDO
100
AcDbPolyline
 62
7
  6
CONTINUOUS
 90
8
 70
0
 10
3.5910128369
 20
22.6497714375
 10
3.5778402107
 20
22.6496344185
 10
3.5648341893
 20
22.6492385735
 10
3.5519947725
 20
22.6485839025
 10
3.5392685597
 20
22.6476653999
 10
3.5267089516
 20
22.6464880713
 10
3.5144761504
 20
22.6450669339
 10
3.5025743425
 20
22.6433988647
  0
LINE
  5
64D
100
AcDbEntity
  8
0
100
AcDbLine
 62
7
  6
CONTINUOUS
 10
-11.6246967215
 20
20.999022589
 11
-10.7589871631
 21
20.999022589
  0
LINE
  5
64E
100
AcDbEntity
  8
DRAFT
100
AcDbLine
 62
7
  6
CONTINUOUS
 10
-9.6191943156
 20
20.999022589
 11
-7.6280841462
 21
20.999022589
  0
LINE
  5
64F
100
AcDbEntity
  8
DRAFT
100
AcDbLine
 62
7
  6
CONTINUOUS
 10
6.91010982
 20
20.999022589
 11
8.9012199894
 21
20.999022589
  0
LINE
  5
650
100
AcDbEntity
  8
0
100
AcDbLine
 62
7
  6
CONTINUOUS
 10
10.0410128369
 20
20.999022589
 11
10.9067223953
 21
20.999022589
  0
LINE
  5
651
100
AcDbEntity
  8
ASSI
100
AcDbLine
 62
7
  6
CONTINUOUS
 10
6.91010982
 20
20.999022589
 11
10.9067223953
 21
20.999022589
  0
LINE
  5
652
100
AcDbEntity
  8
ASSI
100
AcDbLine
 62
7
  6
CONTINUOUS
 10
-7.6280841462
 20
20.999022589
 11
-11.6246967215
 21
20.999022589
  0
LINE
  5
653
100
AcDbEntity
  8
RACCORDO
100
AcDbLine
 62
250
  6
CONTINUOUS
 10
-7.3589871631
 20
21.799022589
 11
-5.9869237787
 21
21.799022589
  0
LINE
  5
654
100
AcDbEntity
  8
ASSI
100
AcDbLine
 62
250
  6
CONTINUOUS
 10
-7.3589871631
 20
21.799022589
 11
-5.9869237787
 21
21.799022589
  0
LINE
  5
655
100
AcDbEntity
  8
RACCORDO
100
AcDbLine
 62
250
  6
CONTINUOUS
 10
5.2689494525
 20
21.799022589
 11
6.6410128369
 21
21.799022589
  0
LINE
  5
656
100
AcDbEntity
  8
ASSI
100
AcDbLine
 62
250
  6
CONTINUOUS
 10
5.2689494525
 20
21.799022589
 11
6.6410128369
 21
21.799022589
  0
LINE
  5
657
100
AcDbEntity
  8
ASSI
100
AcDbLine
 62
250
  6
CONTINUOUS
 10
-6.6096068514
 20
21.9153279962
 11
-5.3500984506
 21
21.9153279962
  0
LINE
  5
658
100
AcDbEntity
  8
ASSI
100
AcDbLine
 62
250
  6
CONTINUOUS
 10
4.6321241244
 20
21.9153279962
 11
5.8916325252
 21
21.9153279962
  0
LINE
  5
659
100
AcDbEntity
  8
0
100
AcDbLine
 62
250
  6
CONTINUOUS
 10
-4.1089871631
 20
22.3549734537
 11
3.3910128369
 21
22.3549734537
  0
LINE
  5
65A
100
AcDbEntity
  8
RACCORDO
100
AcDbLine
 62
250
  6
CONTINUOUS
 10
-8.5160827474
 20
22.599022589
 11
-6.6096068514
 21
22.599022589
  0
LINE
  5
65B
100
AcDbEntity
  8
ASSI
100
AcDbLine
 62
250
  6
CONTINUOUS
 10
-8.5160827474
 20
22.599022589
 11
-6.6096068514
 21
22.599022589
  0
LINE
  5
65C
100
AcDbEntity
  8
0
100
AcDbLine
 62
7
  6
CONTINUOUS
 10
-4.3330943059
 20
22.599022589
 11
-4.1122947029
 21
22.599022589
  0
LINE
  5
65D
100
AcDbEntity
  8
ASSI
100
AcDbLine
 62
7
  6
CONTINUOUS
 10
-4.3330943059
 20
22.599022589
 11
-4.1089871631
 21
22.599022589
  0
LINE
  5
65E
100
AcDbEntity
  8
0
100
AcDbLine
 62
7
  6
CONTINUOUS
 10
3.3943203767
 20
22.599022589
 11
3.6151199798
 21
22.599022589
  0
LINE
  5
65F
100
AcDbEntity
  8
ASSI
100
AcDbLine
 62
7
  6
CONTINUOUS
 10
3.3910128369
 20
22.599022589
 11
3.6151199798
 21
22.599022589
  0
LINE
  5
660
100
AcDbEntity
  8
RACCORDO
100
AcDbLine
 62
250
  6
CONTINUOUS
 10
5.8916325252
 20
22.599022589
 11
7.7981084213
 21
22.599022589
  0
LINE
  5
661
100
AcDbEntity
  8
ASSI
100
AcDbLine
 62
250
  6
CONTINUOUS
 10
5.8916325252
 20
22.599022589
 11
7.7981084213
 21
22.599022589
  0
LINE
  5
662
100
AcDbEntity
  8
ASSI
100
AcDbLine
 62
7
  6
CONTINUOUS
 10
7.7981084213
 20
22.599022589
 11
10.0410128369
 21
22.599022589
  0
LINE
  5
663
100
AcDbEntity
  8
ASSI
100
AcDbLine
 62
7
  6
CONTINUOUS
 10
-8.5160827474
 20
22.599022589
 11
-10.7589871631
 21
22.599022589
  0
LINE
  5
664
100
AcDbEntity
  8
RACCORDO
100
AcDbLine
 62
7
  6
CONTINUOUS
 10
-4.3330943059
 20
22.6497714375
 11
-4.3089871631
 21
22.6497714375
  0
LINE
  5
665
100
AcDbEntity
  8
RACCORDO
100
AcDbLine
 62
7
  6
CONTINUOUS
 10
3.6151199798
 20
22.6497714375
 11
3.5910128369
 21
22.6497714375
  0
LINE
  5
666
100
AcDbEntity
  8
ASSI
100
AcDbLine
 62
250
  6
CONTINUOUS
 10
-6.6004187865
 20
22.6670820928
 11
-4.4693670636
 21
22.6670820928
  0
LINE
  5
667
100
AcDbEntity
  8
ASSI
100
AcDbLine
 62
250
  6
CONTINUOUS
 10
3.7513927374
 20
22.6670820928
 11
5.8824444603
 21
22.6670820928
  0
LINE
  5
668
100
AcDbEntity
  8
0
100
AcDbLine
 62
7
  6
CONTINUOUS
 10
5.3231443104
 20
21.1998406152
 11
-0.3589871631
 21
21.299022589
  0
LWPOLYLINE
  5
669
100
AcDbEntity
  8
RACCORDO
100
AcDbPolyline
 62
7
  6
CONTINUOUS
 90
4
 70
0
 10
-4.2699690987
 20
22.6485839025
 10
-4.2828085155
 20
22.6492385735
 10
-4.2958145369
 20
22.6496344185
 10
-4.3089871631
 20
22.6497714375
  0
LINE
  5
66A
100
AcDbEntity
  8
ASSI
100
AcDbLine
 62
250
  6
CONTINUOUS
 10
4.6321241244
 20
21.843553754
 11
5.2689494525
 21
21.799022589
  0
LWPOLYLINE
  5
66B
100
AcDbEntity
  8
ASSI
100
AcDbPolyline
 62
7
  6
CONTINUOUS
 90
12
 70
0
 10
3.7513927374
 20
22.6670820928
 10
3.762112087
 20
22.6597167504
 10
3.7734334527
 20
22.6517603041
 10
3.7853568345
 20
22.6432017765
 10
3.797875418
 20
22.6340290383
 10
3.8109960175
 20
22.6242337771
 10
3.8247390763
 20
22.6138124816
 10
3.8391022281
 20
22.602761141
 10
3.8540878391
 20
22.5910695145
 10
3.8697234521
 20
22.5787259825
 10
3.8860068251
 20
22.5657272684
 10
3.9029401999
 20
22.552065672
  0
LINE
  5
66C
100
AcDbEntity
  8
RACCORDO
100
AcDbLine
 62
7
  6
CONTINUOUS
 10
-4.3330943059
 20
23.030194044
 11
-4.3089871631
 21
23.030194044
  0
LINE
  5
66D
100
AcDbEntity
  8
RACCORDO
100
AcDbLine
 62
7
  6
CONTINUOUS
 10
3.6151199798
 20
23.030194044
 11
3.5910128369
 21
23.030194044
  0
LINE
  5
66E
100
AcDbEntity
  8
RACCORDO
100
AcDbLine
 62
7
  6
CONTINUOUS
 10
-8.5029914487
 20
23.349022589
 11
-6.5677146956
 21
23.349022589
  0
LINE
  5
66F
100
AcDbEntity
  8
DRAFT
100
AcDbLine
 62
7
  6
CONTINUOUS
 10
5.8497403694
 20
23.349022589
 11
3.6195842655
 21
23.349022589
  0
LINE
  5
670
100
AcDbEntity
  8
RACCORDO
100
AcDbLine
 62
7
  6
CONTINUOUS
 10
5.8497403694
 20
23.349022589
 11
7.7850171226
 21
23.349022589
  0
LINE
  5
671
100
AcDbEntity
  8
ASSI
100
AcDbLine
 62
7
  6
CONTINUOUS
 10
3.6195842655
 20
23.349022589
 11
7.7850171226
 21
23.349022589
  0
LINE
  5
672
100
AcDbEntity
  8
DRAFT
100
AcDbLine
 62
7
  6
CONTINUOUS
 10
-4.3375585917
 20
23.349022589
 11
-6.5677146956
 21
23.349022589
  0
LINE
  5
673
100
AcDbEntity
  8
ASSI
100
AcDbLine
 62
7
  6
CONTINUOUS
 10
-4.3375585917
 20
23.349022589
 11
-8.5029914487
 21
23.349022589
  0
LINE
  5
674
100
AcDbEntity
  8
RACCORDO
100
AcDbLine
 62
7
  6
CONTINUOUS
 10
3.9410128369
 20
24.0574320489
 11
1.0410128369
 21
24.0574320489
  0
LINE
  5
675
100
AcDbEntity
  8
RACCORDO
100
AcDbLine
 62
7
  6
CONTINUOUS
 10
-1.7589871631
 20
24.0574320489
 11
-4.6589871631
 21
24.0574320489
  0
LINE
  5
676
100
AcDbEntity
  8
RACCORDO
100
AcDbLine
 62
7
  6
CONTINUOUS
 10
-12.5089490811
 20
24.099022589
 11
-11.0090252451
 21
24.099022589
  0
LINE
  5
677
100
AcDbEntity
  8
ASSI
100
AcDbLine
 62
7
  6
CONTINUOUS
 10
-12.5089490811
 20
24.099022589
 11
-11.0090252451
 21
24.099022589
  0
LINE
  5
678
100
AcDbEntity
  8
RACCORDO
100
AcDbLine
 62
7
  6
CONTINUOUS
 10
10.2910509189
 20
24.099022589
 11
11.7909747549
 21
24.099022589
  0
LINE
  5
679
100
AcDbEntity
  8
ASSI
100
AcDbLine
 62
7
  6
CONTINUOUS
 10
10.2910509189
 20
24.099022589
 11
11.7909747549
 21
24.099022589
  0
LINE
  5
67A
100
AcDbEntity
  8
RACCORDO
100
AcDbLine
 62
7
  6
CONTINUOUS
 10
-4.8589871631
 20
24.199022589
 11
-4.2922533979
 21
24.199022589
  0
LINE
  5
67B
100
AcDbEntity
  8
RACCORDO
100
AcDbLine
 62
7
  6
CONTINUOUS
 10
3.5742790717
 20
24.199022589
 11
4.1410128369
 21
24.199022589
  0
LINE
  5
67C
100
AcDbEntity
  8
0
100
AcDbLine
 62
250
  6
CONTINUOUS
 10
-4.8589871631
 20
24.499022589
 11
-1.5589871631
 21
24.499022589
  0
LINE
  5
67D
100
AcDbEntity
  8
0
100
AcDbLine
 62
250
  6
CONTINUOUS
 10
0.8410128369
 20
24.499022589
 11
4.1410128369
 21
24.499022589
  0
LWPOLYLINE
  5
67E
100
AcDbEntity
  8
RACCORDO
100
AcDbPolyline
 62
7
  6
CONTINUOUS
 90
25
 70
0
 10
-4.3089871631
 20
23.030194044
 10
-4.2958145369
 20
23.030057025
 10
-4.2828085155
 20
23.02966118
 10
-4.2699690987
 20
23.0290065091
 10
-4.2572428859
 20
23.0280880064
 10
-4.2446832778
 20
23.0269106778
 10
-4.2324504766
 20
23.0254895404
 10
-4.2205486686
 20
23.0238214712
 10
-4.2089736675
 20
23.0219095933
 10
-4.1978731165
 20
23.0197782933
 10
-4.1872530931
 20
23.0174247605
 10
-4.1771075198
 20
23.0148518056
 10
-4.1675658069
 20
23.0120922476
 10
-4.1586356896
 20
23.0091436962
 10
-4.1503094328
 20
23.0060085416
 10
-4.1426932406
 20
23.0027267739
 10
-4.135796209
 20
22.999296515
 10
-4.129609242
 20
22.9957196429
 10
-4.1242112566
 20
22.992041782
 10
-4.1196123595
 20
22.9882616385
 10
-4.1158024441
 20
22.9843805062
 10
-4.112830107
 20
22.9804478902
 10
-4.1107115473
 20
22.9764802922
 10
-4.109430566
 20
22.9724612105
 10
-4.1089871631
 20
22.9683906452
  0
LWPOLYLINE
  5
67F
100
AcDbEntity
  8
RACCORDO
100
AcDbPolyline
 62
7
  6
CONTINUOUS
 90
25
 70
0
 10
-4.6589871631
 20
24.0574320489
 10
-4.6721597893
 20
24.0575690679
 10
-4.6851658107
 20
24.0579649129
 10
-4.6980052275
 20
24.0586195839
 10
-4.7107314403
 20
24.0595380865
 10
-4.7232910484
 20
24.0607154151
 10
-4.7355238496
 20
24.0621365525
 10
-4.7474256575
 20
24.0638046217
 10
-4.7590006586
 20
24.0657164997
 10
-4.7701012097
 20
24.0678477997
 10
-4.7807212331
 20
24.0702013325
 10
-4.7908668064
 20
24.0727742873
 10
-4.8004085193
 20
24.0755338453
 10
-4.8093386366
 20
24.0784823968
 10
-4.8176648934
 20
24.0816175513
 10
-4.8252810856
 20
24.084899319
 10
-4.8321781172
 20
24.088329578
 10
-4.8383650842
 20
24.09190645
 10
-4.8437630696
 20
24.0955843109
 10
-4.8483619667
 20
24.0993644544
 10
-4.8521718821
 20
24.1032455867
 10
-4.8551442192
 20
24.1071782028
 10
-4.8572627789
 20
24.1111458007
 10
-4.8585437602
 20
24.1151648824
 10
-4.8589871631
 20
24.1192354478
  0
LWPOLYLINE
  5
680
100
AcDbEntity
  8
RACCORDO
100
AcDbPolyline
 62
7
  6
CONTINUOUS
 90
25
 70
0
 10
1.0410128369
 20
24.0574320489
 10
1.0278402107
 20
24.0575690679
 10
1.0148341893
 20
24.0579649129
 10
1.0019947725
 20
24.0586195839
 10
0.9892685597
 20
24.0595380865
 10
0.9767089516
 20
24.0607154151
 10
0.9644761504
 20
24.0621365525
 10
0.9525743425
 20
24.0638046217
 10
0.9409993414
 20
24.0657164997
 10
0.9298987903
 20
24.0678477997
 10
0.9192787669
 20
24.0702013325
 10
0.9091331936
 20
24.0727742873
 10
0.8995914807
 20
24.0755338453
 10
0.8906613634
 20
24.0784823968
 10
0.8823351066
 20
24.0816175513
 10
0.8747189144
 20
24.084899319
 10
0.8678218828
 20
24.088329578
 10
0.8616349158
 20
24.09190645
 10
0.8562369304
 20
24.0955843109
 10
0.8516380333
 20
24.0993644544
 10
0.8478281179
 20
24.1032455867
 10
0.8448557808
 20
24.1071782028
 10
0.8427372211
 20
24.1111458007
 10
0.8414562398
 20
24.1151648824
 10
0.8410128369
 20
24.1192354478
  0
LWPOLYLINE
  5
681
100
AcDbEntity
  8
RACCORDO
100
AcDbPolyline
 62
7
  6
CONTINUOUS
 90
25
 70
0
 10
1.0410128369
 20
24.6967655238
 10
1.0278402107
 20
24.6966285048
 10
1.0148341893
 20
24.6962326598
 10
1.0019947725
 20
24.6955779888
 10
0.9892685597
 20
24.6946594862
 10
0.9767089516
 20
24.6934821575
 10
0.9644761504
 20
24.6920610202
 10
0.9525743425
 20
24.690392951
 10
0.9409993414
 20
24.688481073
 10
0.9298987903
 20
24.686349773
 10
0.9192787669
 20
24.6839962402
 10
0.9091331936
 20
24.6814232853
 10
0.8995914807
 20
24.6786637274
 10
0.8906613634
 20
24.6757151759
 10
0.8823351066
 20
24.6725800213
 10
0.8747189144
 20
24.6692982536
 10
0.8678218828
 20
24.6658679947
 10
0.8616349158
 20
24.6622911227
 10
0.8562369304
 20
24.6586132617
 10
0.8516380333
 20
24.6548331183
 10
0.8478281179
 20
24.6509519859
 10
0.8448557808
 20
24.6470193699
 10
0.8427372211
 20
24.6430517719
 10
0.8414562398
 20
24.6390326903
 10
0.8410128369
 20
24.6349621249
  0
LWPOLYLINE
  5
682
100
AcDbEntity
  8
RACCORDO
100
AcDbPolyline
 62
7
  6
CONTINUOUS
 90
25
 70
0
 10
-4.6589871631
 20
24.6967655238
 10
-4.6721597893
 20
24.6966285048
 10
-4.6851658107
 20
24.6962326598
 10
-4.6980052275
 20
24.6955779888
 10
-4.7107314403
 20
24.6946594862
 10
-4.7232910484
 20
24.6934821575
 10
-4.7355238496
 20
24.6920610202
 10
-4.7474256575
 20
24.690392951
 10
-4.7590006586
 20
24.688481073
 10
-4.7701012097
 20
24.686349773
 10
-4.7807212331
 20
24.6839962402
 10
-4.7908668064
 20
24.6814232853
 10
-4.8004085193
 20
24.6786637274
 10
-4.8093386366
 20
24.6757151759
 10
-4.8176648934
 20
24.6725800213
 10
-4.8252810856
 20
24.6692982536
 10
-4.8321781172
 20
24.6658679947
 10
-4.8383650842
 20
24.6622911227
 10
-4.8437630696
 20
24.6586132617
 10
-4.8483619667
 20
24.6548331183
 10
-4.8521718821
 20
24.6509519859
 10
-4.8551442192
 20
24.6470193699
 10
-4.8572627789
 20
24.6430517719
 10
-4.8585437602
 20
24.6390326903
 10
-4.8589871631
 20
24.6349621249
  0
LINE
  5
683
100
AcDbEntity
  8
RACCORDO
100
AcDbLine
 62
7
  6
CONTINUOUS
 10
-4.6589871631
 20
24.6967655238
 11
-1.7589871631
 21
24.6967655238
  0
LINE
  5
684
100
AcDbEntity
  8
RACCORDO
100
AcDbLine
 62
7
  6
CONTINUOUS
 10
1.0410128369
 20
24.6967655238
 11
3.9410128369
 21
24.6967655238
  0
LINE
  5
685
100
AcDbEntity
  8
RACCORDO
100
AcDbLine
 62
7
  6
CONTINUOUS
 10
-4.6589871631
 20
25.0771881303
 11
-1.7589871631
 21
25.0771881303
  0
LINE
  5
686
100
AcDbEntity
  8
RACCORDO
100
AcDbLine
 62
7
  6
CONTINUOUS
 10
1.0410128369
 20
25.0771881303
 11
3.9410128369
 21
25.0771881303
  0
LINE
  5
687
100
AcDbEntity
  8
0
100
AcDbLine
 62
250
  6
CONTINUOUS
 10
-6.3589871631
 20
25.1647621504
 11
5.6410128369
 21
25.1647621504
  0
LINE
  5
688
100
AcDbEntity
  8
0
100
AcDbLine
 62
7
  6
CONTINUOUS
 10
-6.3589871631
 20
25.199022589
 11
5.6410128369
 21
25.199022589
  0
LWPOLYLINE
  5
689
100
AcDbEntity
  8
RACCORDO
100
AcDbPolyline
 62
7
  6
CONTINUOUS
 90
25
 70
0
 10
-1.7589871631
 20
25.0771881303
 10
-1.7458145369
 20
25.0770511113
 10
-1.7328085155
 20
25.0766552663
 10
-1.7199690987
 20
25.0760005953
 10
-1.7072428859
 20
25.0750820927
 10
-1.6946832778
 20
25.073904764
 10
-1.6824504766
 20
25.0724836267
 10
-1.6705486686
 20
25.0708155575
 10
-1.6589736675
 20
25.0689036795
 10
-1.6478731165
 20
25.0667723795
 10
-1.6372530931
 20
25.0644188467
 10
-1.6271075198
 20
25.0618458919
 10
-1.6175658069
 20
25.0590863339
 10
-1.6086356896
 20
25.0561377824
 10
-1.6003094328
 20
25.0530026279
 10
-1.5926932406
 20
25.0497208602
 10
-1.585796209
 20
25.0462906012
 10
-1.579609242
 20
25.0427137292
 10
-1.5742112566
 20
25.0390358683
 10
-1.5696123595
 20
25.0352557248
 10
-1.5658024441
 20
25.0313745925
 10
-1.562830107
 20
25.0274419764
 10
-1.5607115473
 20
25.0234743784
 10
-1.559430566
 20
25.0194552968
 10
-1.5589871631
 20
25.0153847314
  0
LWPOLYLINE
  5
68A
100
AcDbEntity
  8
RACCORDO
100
AcDbPolyline
 62
7
  6
CONTINUOUS
 90
25
 70
0
 10
3.9410128369
 20
25.0771881303
 10
3.9541854631
 20
25.0770511113
 10
3.9671914845
 20
25.0766552663
 10
3.9800309013
 20
25.0760005953
 10
3.9927571141
 20
25.0750820927
 10
4.0053167222
 20
25.073904764
 10
4.0175495234
 20
25.0724836267
 10
4.0294513314
 20
25.0708155575
 10
4.0410263325
 20
25.0689036795
 10
4.0521268835
 20
25.0667723795
 10
4.0627469069
 20
25.0644188467
 10
4.0728924802
 20
25.0618458919
 10
4.0824341931
 20
25.0590863339
 10
4.0913643104
 20
25.0561377824
 10
4.0996905672
 20
25.0530026279
 10
4.1073067594
 20
25.0497208602
 10
4.114203791
 20
25.0462906012
 10
4.120390758
 20
25.0427137292
 10
4.1257887434
 20
25.0390358683
 10
4.1303876405
 20
25.0352557248
 10
4.1341975559
 20
25.0313745925
 10
4.137169893
 20
25.0274419764
 10
4.1392884527
 20
25.0234743784
 10
4.140569434
 20
25.0194552968
 10
4.1410128369
 20
25.0153847314
  0
ARC
  5
68B
100
AcDbEntity
  8
0
100
AcDbCircle
 62
7
  6
CONTINUOUS
 10
-8.8939034466
 20
-18.4518475651
 40
1.0
100
AcDbArc
 50
225.0
 51
269.0
  0
ARC
  5
68C
100
AcDbEntity
  8
0
100
AcDbCircle
 62
7
  6
CONTINUOUS
 10
-10.5089871631
 20
-16.8367638486
 40
1.0
100
AcDbArc
 50
180.0
 51
225.0
  0
ARC
  5
68D
100
AcDbEntity
  8
0
100
AcDbCircle
 62
7
  6
CONTINUOUS
 10
-6.8589871631
 20
-20.214511497
 40
0.5
100
AcDbArc
 50
91.0
 51
180.0
  0
ARC
  5
68E
100
AcDbEntity
  8
0
100
AcDbCircle
 62
7
  6
CONTINUOUS
 10
-6.8589871631
 20
-20.4874433249
 40
0.5
100
AcDbArc
 50
180.0
 51
269.0
  0
ARC
  5
68F
100
AcDbEntity
  8
RACCORDO
100
AcDbCircle
 62
7
  6
CONTINUOUS
 10
-4.2922533979
 20
-23.800977411
 40
0.2
100
AcDbArc
 50
270.0
 51
343.014572741
  0
ARC
  5
690
100
AcDbEntity
  8
0
100
AcDbCircle
 62
7
  6
CONTINUOUS
 10
-10.5089871631
 20
17.0348090266
 40
1.0
100
AcDbArc
 50
135.0
 51
180.0
  0
ARC
  5
691
100
AcDbEntity
  8
0
100
AcDbCircle
 62
7
  6
CONTINUOUS
 10
-8.8939034466
 20
18.6498927431
 40
1.0
100
AcDbArc
 50
91.0
 51
135.0
  0
ARC
  5
692
100
AcDbEntity
  8
0
100
AcDbCircle
 62
7
  6
CONTINUOUS
 10
-6.8589871631
 20
20.4125566751
 40
0.5
100
AcDbArc
 50
180.0
 51
269.0
  0
ARC
  5
693
100
AcDbEntity
  8
0
100
AcDbCircle
 62
7
  6
CONTINUOUS
 10
-6.8589871631
 20
20.685488503
 40
0.5
100
AcDbArc
 50
91.0
 51
180.0
  0
ARC
  5
694
100
AcDbEntity
  8
IMPORT_IGES
100
AcDbCircle
 62
7
  6
CONTINUOUS
 10
-2.764987163
 20
12.799022589
 40
0.4
100
AcDbArc
 50
179.9999999998
 51
194.4910807174
  0
ARC
  5
695
100
AcDbEntity
  8
RACCORDO
100
AcDbCircle
 62
7
  6
CONTINUOUS
 10
-4.2922533979
 20
23.999022589
 40
0.2
100
AcDbArc
 50
16.985427259
 51
90.0
  0
ARC
  5
696
100
AcDbEntity
  8
0
100
AcDbCircle
 62
7
  6
CONTINUOUS
 10
5.2882394976
 20
-19.0021000469
 40
2.0
100
AcDbArc
 50
271.0
 51
315.5
  0
ARC
  5
697
100
AcDbEntity
  8
0
100
AcDbCircle
 62
7
  6
CONTINUOUS
 10
9.7910128369
 20
-16.8367638486
 40
1.0
100
AcDbArc
 50
315.0
 51
360.0
  0
ARC
  5
698
100
AcDbEntity
  8
0
100
AcDbCircle
 62
7
  6
CONTINUOUS
 10
8.1759291205
 20
-18.4518475651
 40
1.0
100
AcDbArc
 50
271.0
 51
315.0
  0
ARC
  5
699
100
AcDbEntity
  8
RACCORDO
100
AcDbCircle
 62
7
  6
CONTINUOUS
 10
3.5742790717
 20
-23.800977411
 40
0.2
100
AcDbArc
 50
196.985427259
 51
270.0
  0
ARC
  5
69A
100
AcDbEntity
  8
0
100
AcDbCircle
 62
7
  6
CONTINUOUS
 10
5.2882394976
 20
19.2001452249
 40
2.0
100
AcDbArc
 50
44.5
 51
89.0
  0
ARC
  5
69B
100
AcDbEntity
  8
0
100
AcDbCircle
 62
7
  6
CONTINUOUS
 10
8.1759291205
 20
18.6498927431
 40
1.0
100
AcDbArc
 50
45.0
 51
89.0
  0
ARC
  5
69C
100
AcDbEntity
  8
0
100
AcDbCircle
 62
7
  6
CONTINUOUS
 10
9.7910128369
 20
17.0348090266
 40
1.0
100
AcDbArc
 50
0.0
 51
45.0
  0
ARC
  5
69D
100
AcDbEntity
  8
IMPORT_IGES
100
AcDbCircle
 62
7
  6
CONTINUOUS
 10
2.9350128369
 20
12.799022589
 40
0.4
100
AcDbArc
 50
311.4096221095
 51
360.0
  0
ARC
  5
69E
100
AcDbEntity
  8
RACCORDO
100
AcDbCircle
 62
7
  6
CONTINUOUS
 10
3.5742790717
 20
23.999022589
 40
0.2
100
AcDbArc
 50
90.0
 51
163.014572741
  0
ELLIPSE
  5
69F
100
AcDbEntity
  8
RACCORDO
100
AcDbEllipse
 62
7
  6
CONTINUOUS
 10
11.7909747549
 20
23.849022589
 30
0.0
 11
0.250038082
 21
-0.0
 31
0.0
 40
0.9998476952
 41
0.0
 42
1.5707963268
  0
ELLIPSE
  5
6A0
100
AcDbEntity
  8
RACCORDO
100
AcDbEllipse
 62
7
  6
CONTINUOUS
 10
10.2910509189
 20
23.849022589
 30
0.0
 11
0.250038082
 21
-0.0
 31
0.0
 40
0.9998476952
 41
1.5707963268
 42
3.1415926536
  0
ELLIPSE
  5
6A1
100
AcDbEntity
  8
RACCORDO
100
AcDbEllipse
 62
7
  6
CONTINUOUS
 10
11.7909747549
 20
-23.650977411
 30
0.0
 11
0.250038082
 21
-0.0
 31
0.0
 40
0.9998476952
 41
-1.5707963268
 42
-0.0
  0
ELLIPSE
  5
6A2
100
AcDbEntity
  8
RACCORDO
100
AcDbEllipse
 62
7
  6
CONTINUOUS
 10
10.2910509189
 20
-23.650977411
 30
0.0
 11
0.250038082
 21
-0.0
 31
0.0
 40
0.9998476952
 41
3.1415926536
 42
4.7123889804
  0
ELLIPSE
  5
6A3
100
AcDbEntity
  8
RACCORDO
100
AcDbEllipse
 62
7
  6
CONTINUOUS
 10
-12.5089490811
 20
23.849022589
 30
0.0
 11
-0.250038082
 21
0.0
 31
0.0
 40
0.9998476952
 41
-1.5707963268
 42
0.0
  0
ELLIPSE
  5
6A4
100
AcDbEntity
  8
RACCORDO
100
AcDbEllipse
 62
7
  6
CONTINUOUS
 10
-11.0090252451
 20
23.849022589
 30
0.0
 11
-0.250038082
 21
0.0
 31
0.0
 40
0.9998476952
 41
3.1415926536
 42
4.7123889804
  0
ELLIPSE
  5
6A5
100
AcDbEntity
  8
RACCORDO
100
AcDbEllipse
 62
7
  6
CONTINUOUS
 10
-11.0090252451
 20
-23.650977411
 30
0.0
 11
0.250038082
 21
-0.0
 31
0.0
 40
0.9998476952
 41
-1.5707963268
 42
0.0
  0
ELLIPSE
  5
6A6
100
AcDbEntity
  8
RACCORDO
100
AcDbEllipse
 62
7
  6
CONTINUOUS
 10
-12.5089490811
 20
-23.650977411
 30
0.0
 11
0.250038082
 21
-0.0
 31
0.0
 40
0.9998476952
 41
3.1415926536
 42
4.7123889804
  0
ELLIPSE
  5
6A7
100
AcDbEntity
  8
RACCORDO
100
AcDbEllipse
 62
7
  6
CONTINUOUS
 10
-8.5029914487
 20
22.599022589
 30
0.0
 11
0.0
 21
0.75
 31
0.0
 40
0.0174550649
 41
-0.0
 42
1.5707963268
  0
ELLIPSE
  5
6A8
100
AcDbEntity
  8
RACCORDO
100
AcDbEllipse
 62
7
  6
CONTINUOUS
 10
7.7850171226
 20
22.599022589
 30
0.0
 11
-0.0
 21
0.75
 31
0.0
 40
0.0174550649
 41
-1.5707963268
 42
-0.0
  0
ELLIPSE
  5
6A9
100
AcDbEntity
  8
RACCORDO
100
AcDbEllipse
 62
7
  6
CONTINUOUS
 10
-11.4368017086
 20
18.199022589
 30
0.0
 11
0.0
 21
1.0
 31
0.0
 40
0.0174550649
 41
1.5707963268
 42
2.5278962433
  0
ELLIPSE
  5
6AA
100
AcDbEntity
  8
RACCORDO
100
AcDbEllipse
 62
7
  6
CONTINUOUS
 10
10.7188273824
 20
18.199022589
 30
0.0
 11
0.0
 21
1.0
 31
0.0
 40
0.0174550649
 41
-2.5278962433
 42
-1.5707963268
  0
ELLIPSE
  5
6AB
100
AcDbEntity
  8
RACCORDO
100
AcDbEllipse
 62
7
  6
CONTINUOUS
 10
-11.4368017086
 20
-18.000977411
 30
0.0
 11
0.0
 21
1.0
 31
0.0
 40
0.0174550649
 41
0.6136964103
 42
1.5707963268
  0
ELLIPSE
  5
6AC
100
AcDbEntity
  8
RACCORDO
100
AcDbEllipse
 62
7
  6
CONTINUOUS
 10
10.7188273824
 20
-18.000977411
 30
0.0
 11
0.0
 21
1.0
 31
0.0
 40
0.0174550649
 41
-1.5707963268
 42
-0.6136964103
  0
ELLIPSE
  5
6AD
100
AcDbEntity
  8
RACCORDO
100
AcDbEllipse
 62
7
  6
CONTINUOUS
 10
-6.5965155527
 20
22.599022589
 30
0.0
 11
0.0
 21
0.75
 31
0.0
 40
0.0174550649
 41
0.0
 42
1.5707963268
  0
ELLIPSE
  5
6AE
100
AcDbEntity
  8
RACCORDO
100
AcDbEllipse
 62
7
  6
CONTINUOUS
 10
5.8785412265
 20
22.599022589
 30
0.0
 11
0.0
 21
0.75
 31
0.0
 40
0.0174550649
 41
-1.5707963268
 42
0.0
  0
ELLIPSE
  5
6AF
100
AcDbEntity
  8
DRAFT
100
AcDbEllipse
 62
7
  6
CONTINUOUS
 10
-7.3589871631
 20
19.9229441116
 30
0.0
 11
0.8
 21
0.0
 31
0.0
 40
0.0087268678
 41
1.2783888554
 42
1.5707963268
  0
ELLIPSE
  5
6B0
100
AcDbEntity
  8
DRAFT
100
AcDbEllipse
 62
7
  6
CONTINUOUS
 10
-7.3589871631
 20
-19.7248989336
 30
0.0
 11
0.8
 21
-0.0
 31
0.0
 40
0.0087268678
 41
-1.5707963268
 42
-1.2783888554
  0
ELLIPSE
  5
6B1
100
AcDbEntity
  8
ASSI
100
AcDbEllipse
 62
7
  6
CONTINUOUS
 10
11.7909747549
 20
23.849022589
 30
0.0
 11
0.250038082
 21
-0.0
 31
0.0
 40
0.9998476952
 41
0.0
 42
1.5707963268
  0
ELLIPSE
  5
6B2
100
AcDbEntity
  8
ASSI
100
AcDbEllipse
 62
7
  6
CONTINUOUS
 10
10.2910509189
 20
23.849022589
 30
0.0
 11
0.250038082
 21
-0.0
 31
0.0
 40
0.9998476952
 41
1.5707963268
 42
3.1415926536
  0
ELLIPSE
  5
6B3
100
AcDbEntity
  8
ASSI
100
AcDbEllipse
 62
7
  6
CONTINUOUS
 10
11.7909747549
 20
-23.650977411
 30
0.0
 11
0.250038082
 21
-0.0
 31
0.0
 40
0.9998476952
 41
-1.5707963268
 42
-0.0
  0
ELLIPSE
  5
6B4
100
AcDbEntity
  8
ASSI
100
AcDbEllipse
 62
7
  6
CONTINUOUS
 10
10.2910509189
 20
-23.650977411
 30
0.0
 11
0.250038082
 21
-0.0
 31
0.0
 40
0.9998476952
 41
3.1415926536
 42
4.7123889804
  0
ELLIPSE
  5
6B5
100
AcDbEntity
  8
ASSI
100
AcDbEllipse
 62
7
  6
CONTINUOUS
 10
-12.5089490811
 20
23.849022589
 30
0.0
 11
-0.250038082
 21
0.0
 31
0.0
 40
0.9998476952
 41
-1.5707963268
 42
0.0
  0
ELLIPSE
  5
6B6
100
AcDbEntity
  8
ASSI
100
AcDbEllipse
 62
7
  6
CONTINUOUS
 10
-11.0090252451
 20
23.849022589
 30
0.0
 11
-0.250038082
 21
0.0
 31
0.0
 40
0.9998476952
 41
3.1415926536
 42
4.7123889804
  0
ELLIPSE
  5
6B7
100
AcDbEntity
  8
ASSI
100
AcDbEllipse
 62
7
  6
CONTINUOUS
 10
-11.0090252451
 20
-23.650977411
 30
0.0
 11
0.250038082
 21
-0.0
 31
0.0
 40
0.9998476952
 41
-1.5707963268
 42
0.0
  0
ELLIPSE
  5
6B8
100
AcDbEntity
  8
ASSI
100
AcDbEllipse
 62
7
  6
CONTINUOUS
 10
-12.5089490811
 20
-23.650977411
 30
0.0
 11
0.250038082
 21
-0.0
 31
0.0
 40
0.9998476952
 41
3.1415926536
 42
4.7123889804
  0
ELLIPSE
  5
6B9
100
AcDbEntity
  8
ASSI
100
AcDbEllipse
 62
7
  6
CONTINUOUS
 10
-8.5029914487
 20
22.599022589
 30
0.0
 11
0.0
 21
0.75
 31
0.0
 40
0.0174550649
 41
-0.0
 42
1.5707963268
  0
ELLIPSE
  5
6BA
100
AcDbEntity
  8
ASSI
100
AcDbEllipse
 62
7
  6
CONTINUOUS
 10
7.7850171226
 20
22.599022589
 30
0.0
 11
-0.0
 21
0.75
 31
0.0
 40
0.0174550649
 41
-1.5707963268
 42
-0.0
  0
ELLIPSE
  5
6BB
100
AcDbEntity
  8
ASSI
100
AcDbEllipse
 62
7
  6
CONTINUOUS
 10
4.6321241244
 20
22.839464261
 30
0.0
 11
1.0
 21
-0.0
 31
0.0
 40
0.3639702343
 41
-3.1326643194
 42
-2.648200578
  0
ELLIPSE
  5
6BC
100
AcDbEntity
  8
ASSI
100
AcDbEllipse
 62
7
  6
CONTINUOUS
 10
-5.3500984506
 20
22.839464261
 30
0.0
 11
1.0
 21
0.0
 31
0.0
 40
0.3639702343
 41
-0.4933920756
 42
-0.0089283342
  0
ELLIPSE
  5
6BD
100
AcDbEntity
  8
ASSI
100
AcDbEllipse
 62
7
  6
CONTINUOUS
 10
4.6321241244
 20
-22.641419083
 30
0.0
 11
1.0
 21
0.0
 31
0.0
 40
0.3639702343
 41
2.648200578
 42
3.1326643194
  0
ELLIPSE
  5
6BE
100
AcDbEntity
  8
ASSI
100
AcDbEllipse
 62
7
  6
CONTINUOUS
 10
-5.3500984506
 20
-22.641419083
 30
0.0
 11
1.0
 21
-0.0
 31
0.0
 40
0.3639702343
 41
0.0089283342
 42
0.4933920756
  0
ELLIPSE
  5
6BF
100
AcDbEntity
  8
ASSI
100
AcDbEllipse
 62
7
  6
CONTINUOUS
 10
-11.4368017086
 20
18.199022589
 30
0.0
 11
0.0
 21
1.0
 31
0.0
 40
0.0174550649
 41
1.5707963268
 42
2.5278962433
  0
ELLIPSE
  5
6C0
100
AcDbEntity
  8
ASSI
100
AcDbEllipse
 62
7
  6
CONTINUOUS
 10
10.7188273824
 20
18.199022589
 30
0.0
 11
0.0
 21
1.0
 31
0.0
 40
0.0174550649
 41
-2.5278962433
 42
-1.5707963268
  0
ELLIPSE
  5
6C1
100
AcDbEntity
  8
ASSI
100
AcDbEllipse
 62
7
  6
CONTINUOUS
 10
-11.4368017086
 20
-18.000977411
 30
0.0
 11
0.0
 21
1.0
 31
0.0
 40
0.0174550649
 41
0.6136964103
 42
1.5707963268
  0
ELLIPSE
  5
6C2
100
AcDbEntity
  8
ASSI
100
AcDbEllipse
 62
7
  6
CONTINUOUS
 10
-6.5965155527
 20
22.599022589
 30
0.0
 11
0.0
 21
0.75
 31
0.0
 40
0.0174550649
 41
6.2831853072
 42
7.853981634
  0
ELLIPSE
  5
6C3
100
AcDbEntity
  8
ASSI
100
AcDbEllipse
 62
7
  6
CONTINUOUS
 10
5.8785412265
 20
22.599022589
 30
0.0
 11
0.0
 21
0.75
 31
0.0
 40
0.0174550649
 41
-1.5707963268
 42
0.0
  0
ELLIPSE
  5
6C4
100
AcDbEntity
  8
ASSI
100
AcDbEllipse
 62
7
  6
CONTINUOUS
 10
10.7188273824
 20
-18.000977411
 30
0.0
 11
0.0
 21
1.0
 31
0.0
 40
0.0174550649
 41
-1.5707963268
 42
-0.6136964103
  0
ELLIPSE
  5
6C5
100
AcDbEntity
  8
ASSI
100
AcDbEllipse
 62
7
  6
CONTINUOUS
 10
-7.3589871631
 20
19.9229441116
 30
0.0
 11
0.8
 21
0.0
 31
0.0
 40
0.0087268678
 41
1.2783888554
 42
1.5707963268
  0
ELLIPSE
  5
6C6
100
AcDbEntity
  8
ASSI
100
AcDbEllipse
 62
7
  6
CONTINUOUS
 10
-7.3589871631
 20
-19.7248989336
 30
0.0
 11
0.8
 21
-0.0
 31
0.0
 40
0.0087268678
 41
-1.5707963268
 42
-1.2783888554
  0
ENDSEC
  0
SECTION
  2
OBJECTS
  0
DICTIONARY
  5
C
100
AcDbDictionary
280
0
281
1
  3
ACAD_GROUP
350
D
  3
ACAD_MLINESTYLE
350
17
  3
ACAD_LAYOUT
350
1A
  3
ACAD_PLOTSETTINGS
350
19
  3
ACAD_PLOTSTYLENAME
350
E
  0
DICTIONARY
  5
D
102
{ACAD_REACTORS
330
C
102
}
100
AcDbDictionary
280
0
281
1
  0
ACDBDICTIONARYWDFLT
  5
E
102
{ACAD_REACTORS
330
C
102
}
100
AcDbDictionary
281
1
  3
Normal
350
F
100
AcDbDictionaryWithDefault
340
F
  0
DICTIONARY
  5
17
102
{ACAD_REACTORS
330
C
102
}
100
AcDbDictionary
280
0
281
1
  3
Standard
350
18
  0
DICTIONARY
  5
19
102
{ACAD_REACTORS
330
C
102
}
100
AcDbDictionary
281
1
  0
DICTIONARY
  5
1A
102
{ACAD_REACTORS
330
C
102
}
100
AcDbDictionary
281
1
  3
Model
350
6C7
  3
Layout1
350
6C8
  0
ACDBPLACEHOLDER
  5
F
102
{ACAD_REACTORS
330
E
102
}
  0
MLINESTYLE
  5
18
102
{ACAD_REACTORS
330
17
102
}
100
AcDbMlineStyle
  2
STANDARD
 70
0
  3

 62
256
 51
90.0
 52
90.0
 71
2
 49
0.5
 62
256
  6
BYLAYER
 49
-0.5
 62
256
  6
BYLAYER
  0
LAYOUT
  5
6C7
102
{ACAD_REACTORS
330
1A
102
}
100
AcDbPlotSettings
  1

  2
none_device
  4
ISO_A4_(297.00_x_210.00_MM)
  6

 40
0.0
 41
0.0
 42
0.0
 43
0.0
 44
297.0
 45
210.0
 46
0.0
 47
0.0
 48
0.0
 49
0.0
140
0.0
141
0.0
142
1.0
143
1.0
 70
1024
 72
1
 73
0
 74
0
  7

 75
0
147
1.0
148
0.0
149
0.0
100
AcDbLayout
  1
Model
 70
0
 71
0
 10
0.0
 20
0.0
 11
297.0
 21
210.0
 12
0.0
 22
0.0
 32
0.0
 14
0.0
 24
0.0
 34
0.0
 15
0.0
 25
0.0
 35
0.0
146
0.0
 13
0.0
 23
0.0
 33
0.0
 16
1.0
 26
0.0
 36
0.0
 17
0.0
 27
1.0
 37
0.0
 76
0
330
2D8
345
0
346
0
  0
LAYOUT
  5
6C8
102
{ACAD_REACTORS
330
1A
102
}
100
AcDbPlotSettings
  1

  2
none_device
  4
ISO_A4_(297.00_x_210.00_MM)
  6

 40
0.0
 41
0.0
 42
0.0
 43
0.0
 44
297.0
 45
210.0
 46
0.0
 47
0.0
 48
0.0
 49
0.0
140
0.0
141
0.0
142
1.0
143
1.0
 70
0
 72
1
 73
0
 74
0
  7

 75
0
147
1.0
148
0.0
149
0.0
100
AcDbLayout
  1
Layout1
 70
0
 71
1
 10
0.0
 20
0.0
 11
297.0
 21
210.0
 12
0.0
 22
0.0
 32
0.0
 14
0.0
 24
0.0
 34
0.0
 15
0.0
 25
0.0
 35
0.0
146
0.0
 13
0.0
 23
0.0
 33
0.0
 16
1.0
 26
0.0
 36
0.0
 17
0.0
 27
1.0
 37
0.0
 76
0
330
2D9
345
0
346
0
  0
ENDSEC
  0
EOF
