  0
SECTION
  2
HEADER
  9
$ACADVER
  1
AC1015
  9
$DWGCODEPAGE
  3
ANSI_1252
  9
$EXTMAX
 10
297.0
 20
210.0
 30
0.0
  9
$EXTMIN
 10
0.0
 20
0.0
 30
0.0
  9
$LIMMIN
 10
0.0
 20
0.0
  9
$LIMMAX
 10
297.0
 20
210.0
  9
$VIEWCTR
 10
148.5
 20
105.0
  9
$VIEWSIZE
 40
210.0
  9
$CLAYER
  8
0
  9
$LTSCALE
 40
16.335
  9
$CELTYPE
  6
BYLAYER
  9
$DIMSCALE
 40
1.0
  9
$DIMASZ
 40
3.0
  9
$DIMEXO
 40
1.85625
  9
$DIMDLI
 40
11.286
  9
$DIMEXE
 40
5.346
  9
$DIMCEN
 40
2.673
  9
$DIMLFAC
 40
1.0
  9
$DIMBLK
  1
_FILLED
  9
$DIMTXT
 40
3.0
  9
$DIMTOL
 70
1
  9
$DIMLIM
 70
0
  9
$DIMTFAC
 40
1.0
  9
$DIMTP
 40
0.01
  9
$DIMTM
 40
0.01
  9
$PDMODE
 70
3
  9
$PDSIZE
 40
3.0
  9
$HANDSEED
  5
421
  9
$TILEMODE
 70
1
  9
$MEASUREMENT
 70
1
  9
$INSUNITS
 70
4
  0
ENDSEC
  0
SECTION
  2
CLASSES
  0
CLASS
  1
ACDBDICTIONARYWDFLT
  2
AcDbDictionaryWithDefault
  3
AutoCAD 2000
 90
0
280
0
281
0
  0
CLASS
  1
ACDBPLACEHOLDER
  2
AcDbPlaceHolder
  3
AutoCAD 2000
 90
0
280
0
281
0
  0
CLASS
  1
LAYOUT
  2
AcDbLayout
  3
AutoCAD 2000
 90
0
280
0
281
0
  0
ENDSEC
  0
SECTION
  2
TABLES
  0
TABLE
  2
VPORT
  5
8
100
AcDbSymbolTable
 70
2
  0
VPORT
  5
1F4
100
AcDbSymbolTableRecord
100
AcDbViewportTableRecord
  2
*ACTIVE
 70
0
 10
0.0
 20
0.0
 11
1.0
 21
1.0
 12
148.5
 22
105.0
 13
0.0
 23
0.0
 14
1.0
 24
1.0
 15
0.0
 25
0.0
 16
0.0
 26
0.0
 36
1.0
 17
0.0
 27
0.0
 37
0.0
 40
210.0
 41
1.4142857143
 42
50.0
 43
0.0
 44
0.0
 50
0.0
 51
0.0
 71
0
 72
100
 73
1
 74
1
 75
0
 76
0
 77
0
 78
0
  0
ENDTAB
  0
TABLE
  2
LTYPE
  5
5
100
AcDbSymbolTable
 70
6
  0
LTYPE
  5
14
100
AcDbSymbolTableRecord
100
AcDbLinetypeTableRecord
  2
BYBLOCK
 70
0
  3

 72
65
 73
0
 40
0.0
  0
LTYPE
  5
15
100
AcDbSymbolTableRecord
100
AcDbLinetypeTableRecord
  2
BYLAYER
 70
0
  3

 72
65
 73
0
 40
0.0
  0
LTYPE
  5
16
100
AcDbSymbolTableRecord
100
AcDbLinetypeTableRecord
  2
CONTINUOUS
 70
64
  3
Solid line
 72
65
 73
0
 40
0.0
  0
LTYPE
  5
1F5
100
AcDbSymbolTableRecord
100
AcDbLinetypeTableRecord
  2
CENTER
 70
64
  3
____ _ ____ _ ____ _ ____ _ ____ _ ____ _ ____
 72
65
 73
4
 40
0.6
 49
0.375
 74
0
 49
-0.075
 74
0
 49
0.075
 74
0
 49
-0.075
 74
0
  0
LTYPE
  5
1F6
100
AcDbSymbolTableRecord
100
AcDbLinetypeTableRecord
  2
HIDDEN
 70
64
  3
- - - - - - - - - - - - - - - - - - - -
 72
65
 73
2
 40
0.2
 49
0.1
 74
0
 49
-0.1
 74
0
  0
LTYPE
  5
1F7
100
AcDbSymbolTableRecord
100
AcDbLinetypeTableRecord
  2
PHANTOM
 70
64
  3
_____ _ _ _____ _ _ _____ _ _ _____
 72
65
 73
6
 40
0.8
 49
0.45
 74
0
 49
-0.05
 74
0
 49
0.1
 74
0
 49
-0.05
 74
0
 49
0.1
 74
0
 49
-0.05
 74
0
  0
LTYPE
  5
1F8
100
AcDbSymbolTableRecord
100
AcDbLinetypeTableRecord
  2
DOT
 70
64
  3
. . . . . . . . . . . . . . . . . . . .
 72
65
 73
2
 40
0.2
 49
0.1
 74
0
 49
-0.1
 74
0
  0
LTYPE
  5
1F9
100
AcDbSymbolTableRecord
100
AcDbLinetypeTableRecord
  2
DASHED
 70
64
  3
- - - - - - - - - - - - - - - - - - - -
 72
65
 73
2
 40
0.2
 49
0.1
 74
0
 49
-0.1
 74
0
  0
ENDTAB
  0
TABLE
  2
LAYER
  5
2
100
AcDbSymbolTable
 70
36
  0
LAYER
  5
10
100
AcDbSymbolTableRecord
100
AcDbLayerTableRecord
  2
0
 70
0
 62
7
  6
CONTINUOUS
370
-3
390
F
  0
LAYER
  5
1FA
100
AcDbSymbolTableRecord
100
AcDbLayerTableRecord
  2
DEFAULT_1
 70
0
 62
7
  6
CENTER
370
-3
390
F
  0
LAYER
  5
1FB
100
AcDbSymbolTableRecord
100
AcDbLayerTableRecord
  2
DEFAULT_2
 70
0
 62
7
  6
HIDDEN
370
-3
390
F
  0
LAYER
  5
1FC
100
AcDbSymbolTableRecord
100
AcDbLayerTableRecord
  2
DEFAULT_3
 70
0
 62
7
  6
PHANTOM
370
-3
390
F
  0
LAYER
  5
1FD
100
AcDbSymbolTableRecord
100
AcDbLayerTableRecord
  2
ASSI
 70
0
 62
7
  6
CONTINUOUS
370
-3
390
F
  0
LAYER
  5
1FE
100
AcDbSymbolTableRecord
100
AcDbLayerTableRecord
  2
COORDINATE
 70
0
 62
7
  6
CONTINUOUS
370
-3
390
F
  0
LAYER
  5
1FF
100
AcDbSymbolTableRecord
100
AcDbLayerTableRecord
  2
COPY_PUBLISH
 70
0
 62
7
  6
CONTINUOUS
370
-3
390
F
  0
LAYER
  5
200
100
AcDbSymbolTableRecord
100
AcDbLayerTableRecord
  2
COSMETIC
 70
0
 62
7
  6
CONTINUOUS
370
-3
390
F
  0
LAYER
  5
201
100
AcDbSymbolTableRecord
100
AcDbLayerTableRecord
  2
COSMETICI
 70
0
 62
7
  6
CONTINUOUS
370
-3
390
F
  0
LAYER
  5
202
100
AcDbSymbolTableRecord
100
AcDbLayerTableRecord
  2
CURVE
 70
0
 62
7
  6
CONTINUOUS
370
-3
390
F
  0
LAYER
  5
203
100
AcDbSymbolTableRecord
100
AcDbLayerTableRecord
  2
DRAFT
 70
0
 62
7
  6
CONTINUOUS
370
-3
390
F
  0
LAYER
  5
204
100
AcDbSymbolTableRecord
100
AcDbLayerTableRecord
  2
IMPORT_IGES
 70
0
 62
7
  6
CONTINUOUS
370
-3
390
F
  0
LAYER
  5
205
100
AcDbSymbolTableRecord
100
AcDbLayerTableRecord
  2
INTFCLR_11
 70
0
 62
7
  6
CONTINUOUS
370
-3
390
F
  0
LAYER
  5
206
100
AcDbSymbolTableRecord
100
AcDbLayerTableRecord
  2
INTF_1
 70
0
 62
7
  6
CONTINUOUS
370
-3
390
F
  0
LAYER
  5
207
100
AcDbSymbolTableRecord
100
AcDbLayerTableRecord
  2
INTF_3
 70
0
 62
7
  6
CONTINUOUS
370
-3
390
F
  0
LAYER
  5
208
100
AcDbSymbolTableRecord
100
AcDbLayerTableRecord
  2
NOTE
 70
0
 62
7
  6
CONTINUOUS
370
-3
390
F
  0
LAYER
  5
209
100
AcDbSymbolTableRecord
100
AcDbLayerTableRecord
  2
PIANI
 70
0
 62
7
  6
CONTINUOUS
370
-3
390
F
  0
LAYER
  5
20A
100
AcDbSymbolTableRecord
100
AcDbLayerTableRecord
  2
PUNTI
 70
0
 62
7
  6
CONTINUOUS
370
-3
390
F
  0
LAYER
  5
20B
100
AcDbSymbolTableRecord
100
AcDbLayerTableRecord
  2
RACCORDO
 70
0
 62
7
  6
CONTINUOUS
370
-3
390
F
  0
LAYER
  5
20C
100
AcDbSymbolTableRecord
100
AcDbLayerTableRecord
  2
SIMBOLI
 70
0
 62
7
  6
CONTINUOUS
370
-3
390
F
  0
LAYER
  5
20D
100
AcDbSymbolTableRecord
100
AcDbLayerTableRecord
  2
SMUSSO
 70
0
 62
7
  6
CONTINUOUS
370
-3
390
F
  0
LAYER
  5
20E
100
AcDbSymbolTableRecord
100
AcDbLayerTableRecord
  2
SNAPLINE
 70
0
 62
7
  6
CONTINUOUS
370
-3
390
F
  0
LAYER
  5
20F
100
AcDbSymbolTableRecord
100
AcDbLayerTableRecord
  2
SUPERFICI
 70
0
 62
7
  6
CONTINUOUS
370
-3
390
F
  0
LAYER
  5
210
100
AcDbSymbolTableRecord
100
AcDbLayerTableRecord
  2
TRASH
 70
0
 62
7
  6
CONTINUOUS
370
-3
390
F
  0
LAYER
  5
211
100
AcDbSymbolTableRecord
100
AcDbLayerTableRecord
  2
XSEC_DATUMS
 70
0
 62
7
  6
CONTINUOUS
370
-3
390
F
  0
LAYER
  5
212
100
AcDbSymbolTableRecord
100
AcDbLayerTableRecord
  2
___SHELL
 70
0
 62
7
  6
CONTINUOUS
370
-3
390
F
  0
ENDTAB
  0
TABLE
  2
STYLE
  5
3
100
AcDbSymbolTable
 70
1
  0
STYLE
  5
11
100
AcDbSymbolTableRecord
100
AcDbTextStyleTableRecord
  2
STANDARD
 70
0
 40
0.0
 41
0.8
 50
0.0
 71
0
 42
0.2
  3
txt
  4

  0
STYLE
  5
213
100
AcDbSymbolTableRecord
100
AcDbTextStyleTableRecord
  2
TEXTSTYLE_1
 70
0
 40
0.0
 41
0.8
 50
0.0
 71
0
 42
0.2
  3
gdt
  4

  0
ENDTAB
  0
TABLE
  2
VIEW
  5
6
100
AcDbSymbolTable
 70
0
  0
ENDTAB
  0
TABLE
  2
UCS
  5
7
100
AcDbSymbolTable
 70
0
  0
ENDTAB
  0
TABLE
  2
APPID
  5
9
100
AcDbSymbolTable
 70
1
  0
APPID
  5
214
100
AcDbSymbolTableRecord
100
AcDbRegAppTableRecord
  2
ACAD
 70
0
  0
ENDTAB
  0
TABLE
  2
BLOCK_RECORD
  5
1
100
AcDbSymbolTable
 70
0
  0
BLOCK_RECORD
  5
215
100
AcDbSymbolTableRecord
100
AcDbBlockTableRecord
  2
*Model_Space
  0
BLOCK_RECORD
  5
216
100
AcDbSymbolTableRecord
100
AcDbBlockTableRecord
  2
*Paper_Space
  0
ENDTAB
  0
TABLE
  2
DIMSTYLE
  5
A
100
AcDbSymbolTable
 70
1
100
AcDbDimStyleTable
 71
0
  0
DIMSTYLE
105
217
100
AcDbSymbolTableRecord
100
AcDbDimStyleTableRecord
  2
STANDARD
 70
0
  3

  4

 40
1.0
 41
3.0
 42
0.0625
 43
0.38
 44
0.18
 45
0.0
 46
0.0
 47
0.01
 48
0.01
140
3.0
141
0.09
142
0.0
143
25.4
144
1.0
145
0.0
146
1.0
147
0.09
 71
1.0
 72
0.0
 73
0
 74
0
 75
0
 76
0
 77
1
 78
8
170
0
171
2
172
0
173
0
174
0
175
0
176
0
177
0
178
0
270
2
271
2
272
2
273
2
274
2
275
0
280
0
281
0
282
0
283
1
284
8
285
0
286
0
287
3
288
0
340
11
  0
ENDTAB
  0
ENDSEC
  0
SECTION
  2
BLOCKS
  0
BLOCK
  5
20
100
AcDbEntity
  8
0
100
AcDbBlockBegin
  2
*Model_Space
 70
0
 10
0.0
 20
0.0
 30
0.0
  3
*Model_Space
  1

  0
ENDBLK
  5
21
100
AcDbEntity
  8
0
100
AcDbBlockEnd
  0
BLOCK
  5
1C
100
AcDbEntity
  8
0
100
AcDbBlockBegin
  2
*Paper_Space
 70
0
 10
0.0
 20
0.0
 30
0.0
  3
*Paper_Space
  1

  0
ENDBLK
  5
1D
100
AcDbEntity
  8
0
100
AcDbBlockEnd
  0
ENDSEC
  0
SECTION
  2
ENTITIES
  0
LINE
  5
218
100
AcDbEntity
  8
RACCORDO
100
AcDbLine
 62
7
  6
CONTINUOUS
 10
-10.5001713375
 20
-22.1
 11
10.5001713375
 21
-22.1
  0
LINE
  5
219
100
AcDbEntity
  8
0
100
AcDbLine
 62
7
  6
CONTINUOUS
 10
9.600068535
 20
-20.9
 11
8.9999390815
 21
-20.9
  0
LINE
  5
21A
100
AcDbEntity
  8
0
100
AcDbLine
 62
7
  6
CONTINUOUS
 10
6.9301797403
 20
-20.9
 11
-6.9301797403
 21
-20.9
  0
LINE
  5
21B
100
AcDbEntity
  8
DRAFT
100
AcDbLine
 62
7
  6
CONTINUOUS
 10
8.0
 20
-20.9
 11
-8.0
 21
-20.9
  0
LINE
  5
21C
100
AcDbEntity
  8
0
100
AcDbLine
 62
7
  6
CONTINUOUS
 10
-8.9999390815
 20
-20.9
 11
-9.600068535
 21
-20.9
  0
LINE
  5
21D
100
AcDbEntity
  8
0
100
AcDbLine
 62
253
  6
CONTINUOUS
 10
-8.9999390815
 20
20.9
 11
-9.0750148561
 21
20.7873720406
  0
LINE
  5
21E
100
AcDbEntity
  8
0
100
AcDbLine
 62
253
  6
CONTINUOUS
 10
-8.8
 20
20.700022843
 11
-8.8750453171
 21
20.5874405756
  0
LINE
  5
21F
100
AcDbEntity
  8
0
100
AcDbLine
 62
7
  6
CONTINUOUS
 10
-8.8
 20
20.575
 11
-8.8751421748
 21
20.4622724276
  0
LINE
  5
220
100
AcDbEntity
  8
0
100
AcDbLine
 62
7
  6
CONTINUOUS
 10
-6.3042956314
 20
-19.996096559
 11
-4.3
 21
-19.75
  0
LINE
  5
221
100
AcDbEntity
  8
DRAFT
100
AcDbLine
 62
7
  6
CONTINUOUS
 10
8.8
 20
-20.575
 11
8.0
 21
-20.575
  0
LINE
  5
222
100
AcDbEntity
  8
DRAFT
100
AcDbLine
 62
7
  6
CONTINUOUS
 10
-8.0
 20
-20.575
 11
-8.8
 21
-20.575
  0
LINE
  5
223
100
AcDbEntity
  8
0
100
AcDbLine
 62
7
  6
CONTINUOUS
 10
6.9301797403
 20
-20.1997600453
 11
-6.9301797403
 21
-20.1997600453
  0
LINE
  5
224
100
AcDbEntity
  8
0
100
AcDbLine
 62
7
  6
CONTINUOUS
 10
0.5685199647
 20
-20.1421510178
 11
-0.5685199647
 21
-20.1421510178
  0
LINE
  5
225
100
AcDbEntity
  8
0
100
AcDbLine
 62
253
  6
CONTINUOUS
 10
6.9835738333
 20
-20.1196587373
 11
6.3064524173
 21
-20.1196587373
  0
LINE
  5
226
100
AcDbEntity
  8
0
100
AcDbLine
 62
253
  6
CONTINUOUS
 10
3.6935475827
 20
-20.1196587373
 11
0.5835129148
 21
-20.1196587373
  0
LINE
  5
227
100
AcDbEntity
  8
0
100
AcDbLine
 62
253
  6
CONTINUOUS
 10
-0.5835129148
 20
-20.1196587373
 11
-3.6935475827
 21
-20.1196587373
  0
LINE
  5
228
100
AcDbEntity
  8
0
100
AcDbLine
 62
253
  6
CONTINUOUS
 10
-6.3064524173
 20
-20.1196587373
 11
-6.9835738333
 21
-20.1196587373
  0
LINE
  5
229
100
AcDbEntity
  8
0
100
AcDbLine
 62
7
  6
CONTINUOUS
 10
3.7
 20
-19.75
 11
4.3
 21
-19.75
  0
LINE
  5
22A
100
AcDbEntity
  8
0
100
AcDbLine
 62
7
  6
CONTINUOUS
 10
-3.7
 20
-19.75
 11
-4.3
 21
-19.75
  0
LINE
  5
22B
100
AcDbEntity
  8
0
100
AcDbLine
 62
253
  6
CONTINUOUS
 10
6.9971549266
 20
-19.3598829709
 11
0.5936987348
 21
-19.3598829709
  0
LINE
  5
22C
100
AcDbEntity
  8
0
100
AcDbLine
 62
253
  6
CONTINUOUS
 10
-0.5936987348
 20
-19.3598829709
 11
-6.9971549266
 21
-19.3598829709
  0
LINE
  5
22D
100
AcDbEntity
  8
0
100
AcDbLine
 62
7
  6
CONTINUOUS
 10
0.3685808831
 20
-18.9
 11
-0.3685808831
 21
-18.9
  0
LINE
  5
22E
100
AcDbEntity
  8
0
100
AcDbLine
 62
7
  6
CONTINUOUS
 10
4.3
 20
-19.75
 11
6.3042956314
 21
-19.996096559
  0
LINE
  5
22F
100
AcDbEntity
  8
0
100
AcDbLine
 62
253
  6
CONTINUOUS
 10
-9.0750148561
 20
-20.7873720406
 11
-8.9999390815
 21
-20.9
  0
LINE
  5
230
100
AcDbEntity
  8
0
100
AcDbLine
 62
253
  6
CONTINUOUS
 10
-8.8750453171
 20
-20.5874405756
 11
-8.8
 21
-20.700022843
  0
LINE
  5
231
100
AcDbEntity
  8
0
100
AcDbLine
 62
7
  6
CONTINUOUS
 10
-8.8
 20
-20.575
 11
-8.8751421748
 21
-20.4622724276
  0
LINE
  5
232
100
AcDbEntity
  8
0
100
AcDbLine
 62
7
  6
CONTINUOUS
 10
-7.0031200289
 20
20.7905756762
 11
-6.9301797403
 21
20.9
  0
LINE
  5
233
100
AcDbEntity
  8
0
100
AcDbLine
 62
7
  6
CONTINUOUS
 10
-6.9301797403
 20
20.1997600453
 11
-6.9835738333
 21
20.1196587373
  0
LINE
  5
234
100
AcDbEntity
  8
0
100
AcDbLine
 62
7
  6
CONTINUOUS
 10
0.1798897567
 20
-18.2608368832
 11
-0.1798897567
 21
-18.2608368832
  0
LINE
  5
235
100
AcDbEntity
  8
0
100
AcDbLine
 62
253
  6
CONTINUOUS
 10
0.1951821865
 20
-18.2149647581
 11
-0.195180006
 21
-18.2149647581
  0
LINE
  5
236
100
AcDbEntity
  8
0
100
AcDbLine
 62
253
  6
CONTINUOUS
 10
0.1951680404
 20
-18.0252263746
 11
-0.1951680404
 21
-18.0252263746
  0
LINE
  5
237
100
AcDbEntity
  8
0
100
AcDbLine
 62
7
  6
CONTINUOUS
 10
-7.0031200246
 20
-20.7905756826
 11
-6.9301797403
 21
-20.9
  0
LINE
  5
238
100
AcDbEntity
  8
0
100
AcDbLine
 62
7
  6
CONTINUOUS
 10
-6.9835738333
 20
-20.1196587373
 11
-6.9301797403
 21
-20.1997600453
  0
LINE
  5
239
100
AcDbEntity
  8
0
100
AcDbLine
 62
7
  6
CONTINUOUS
 10
-7.0
 20
-16.1
 11
7.0
 21
-16.1
  0
LINE
  5
23A
100
AcDbEntity
  8
RACCORDO
100
AcDbLine
 62
7
  6
CONTINUOUS
 10
-11.0
 20
21.6001713375
 11
-11.0
 21
-21.6001713375
  0
LINE
  5
23B
100
AcDbEntity
  8
SMUSSO
100
AcDbLine
 62
7
  6
CONTINUOUS
 10
-10.4
 20
-5.239274759
 11
-10.4
 21
5.239274759
  0
LINE
  5
23C
100
AcDbEntity
  8
0
100
AcDbLine
 62
253
  6
CONTINUOUS
 10
-0.5835129148
 20
-20.1196587373
 11
-0.5685199647
 21
-20.1421510178
  0
LINE
  5
23D
100
AcDbEntity
  8
0
100
AcDbLine
 62
253
  6
CONTINUOUS
 10
-0.3835433758
 20
-19.9197272723
 11
-0.3685808831
 21
-19.9421738608
  0
LINE
  5
23E
100
AcDbEntity
  8
SMUSSO
100
AcDbLine
 62
7
  6
CONTINUOUS
 10
-9.9892439749
 20
-5.1598517273
 11
-9.9892439749
 21
5.1598517273
  0
LINE
  5
23F
100
AcDbEntity
  8
0
100
AcDbLine
 62
7
  6
CONTINUOUS
 10
-9.8
 20
-20.700068535
 11
-9.8
 21
-5.3903805167
  0
LINE
  5
240
100
AcDbEntity
  8
0
100
AcDbLine
 62
7
  6
CONTINUOUS
 10
-9.8
 20
5.3903805167
 11
-9.8
 21
20.700068535
  0
LINE
  5
241
100
AcDbEntity
  8
0
100
AcDbLine
 62
7
  6
CONTINUOUS
 10
-8.8
 20
20.700022843
 11
-8.8
 21
20.575
  0
LINE
  5
242
100
AcDbEntity
  8
0
100
AcDbLine
 62
7
  6
CONTINUOUS
 10
-8.8
 20
-20.575
 11
-8.8
 21
-20.700022843
  0
LINE
  5
243
100
AcDbEntity
  8
0
100
AcDbLine
 62
7
  6
CONTINUOUS
 10
-6.9971549266
 20
-19.3598829709
 11
-7.0
 21
-16.1
  0
LINE
  5
244
100
AcDbEntity
  8
DRAFT
100
AcDbLine
 62
7
  6
CONTINUOUS
 10
-8.0
 20
-20.9
 11
-8.0
 21
-20.575
  0
LINE
  5
245
100
AcDbEntity
  8
DRAFT
100
AcDbLine
 62
7
  6
CONTINUOUS
 10
-8.0
 20
20.575
 11
-8.0
 21
20.9
  0
LINE
  5
246
100
AcDbEntity
  8
0
100
AcDbLine
 62
7
  6
CONTINUOUS
 10
-7.0
 20
-16.1
 11
-7.0
 21
16.1
  0
LINE
  5
247
100
AcDbEntity
  8
0
100
AcDbLine
 62
7
  6
CONTINUOUS
 10
-6.9301797403
 20
20.9
 11
-6.9301797403
 21
20.1997600453
  0
LINE
  5
248
100
AcDbEntity
  8
0
100
AcDbLine
 62
7
  6
CONTINUOUS
 10
-6.9301797403
 20
-20.1997600453
 11
-6.9301797403
 21
-20.9
  0
LINE
  5
249
100
AcDbEntity
  8
0
100
AcDbLine
 62
7
  6
CONTINUOUS
 10
-6.9971549266
 20
19.3598829709
 11
-7.0
 21
16.1
  0
LINE
  5
24A
100
AcDbEntity
  8
0
100
AcDbLine
 62
253
  6
CONTINUOUS
 10
9.600068535
 20
20.9
 11
9.4881049055
 21
20.7880363705
  0
LINE
  5
24B
100
AcDbEntity
  8
0
100
AcDbLine
 62
253
  6
CONTINUOUS
 10
9.8
 20
20.700068535
 11
9.6880363705
 21
20.5881049055
  0
LINE
  5
24C
100
AcDbEntity
  8
0
100
AcDbLine
 62
253
  6
CONTINUOUS
 10
9.4881049055
 20
-20.7880363705
 11
9.600068535
 21
-20.9
  0
LINE
  5
24D
100
AcDbEntity
  8
0
100
AcDbLine
 62
253
  6
CONTINUOUS
 10
9.6880363705
 20
-20.5881049055
 11
9.8
 21
-20.700068535
  0
LINE
  5
24E
100
AcDbEntity
  8
0
100
AcDbLine
 62
253
  6
CONTINUOUS
 10
-0.3760517428
 20
-18.4719947382
 11
-0.3945440094
 21
-18.4162825589
  0
LINE
  5
24F
100
AcDbEntity
  8
0
100
AcDbLine
 62
7
  6
CONTINUOUS
 10
-6.3042956314
 20
19.996096559
 11
-6.3078505908
 21
20.1997600453
  0
LINE
  5
250
100
AcDbEntity
  8
0
100
AcDbLine
 62
7
  6
CONTINUOUS
 10
-3.6921494092
 20
-20.1997600453
 11
-3.7
 21
-19.75
  0
LINE
  5
251
100
AcDbEntity
  8
0
100
AcDbLine
 62
7
  6
CONTINUOUS
 10
-5.918494
 20
-2.150432
 11
-5.918494
 21
-1.732461
  0
LINE
  5
252
100
AcDbEntity
  8
0
100
AcDbLine
 62
7
  6
CONTINUOUS
 10
-5.918494
 20
-0.980233
 11
-5.918494
 21
-0.587963
  0
LINE
  5
253
100
AcDbEntity
  8
0
100
AcDbLine
 62
7
  6
CONTINUOUS
 10
-5.918494
 20
-0.525691
 11
-5.918494
 21
-0.137738
  0
LINE
  5
254
100
AcDbEntity
  8
0
100
AcDbLine
 62
7
  6
CONTINUOUS
 10
-5.918494
 20
0.415264
 11
-5.918494
 21
0.470883
  0
LINE
  5
255
100
AcDbEntity
  8
0
100
AcDbLine
 62
7
  6
CONTINUOUS
 10
-5.918494
 20
1.021691
 11
-5.918494
 21
1.401081
  0
LINE
  5
256
100
AcDbEntity
  8
0
100
AcDbLine
 62
7
  6
CONTINUOUS
 10
-5.918494
 20
1.614569
 11
-5.918494
 21
2.011141
  0
LINE
  5
257
100
AcDbEntity
  8
0
100
AcDbLine
 62
7
  6
CONTINUOUS
 10
-5.918494
 20
2.768996
 11
-5.918494
 21
3.118476
  0
LINE
  5
258
100
AcDbEntity
  8
0
100
AcDbLine
 62
7
  6
CONTINUOUS
 10
-5.918493746
 20
-3.6506135504
 11
-5.918493746
 21
-3.2691570653
  0
LINE
  5
259
100
AcDbEntity
  8
0
100
AcDbLine
 62
7
  6
CONTINUOUS
 10
-5.918493746
 20
-2.6618612449
 11
-5.918493746
 21
-2.2668846027
  0
LINE
  5
25A
100
AcDbEntity
  8
0
100
AcDbLine
 62
7
  6
CONTINUOUS
 10
-5.539217
 20
-1.629728
 11
-5.539217
 21
-1.089662
  0
LINE
  5
25B
100
AcDbEntity
  8
0
100
AcDbLine
 62
7
  6
CONTINUOUS
 10
-5.245734
 20
-1.170783
 11
-5.245734
 21
-1.550473
  0
LINE
  5
25C
100
AcDbEntity
  8
0
100
AcDbLine
 62
7
  6
CONTINUOUS
 10
-5.1749990835
 20
-2.8744938515
 11
-5.1749990835
 21
-2.6618612449
  0
LINE
  5
25D
100
AcDbEntity
  8
0
100
AcDbLine
 62
7
  6
CONTINUOUS
 10
-4.8638502642
 20
-2.6487115031
 11
-4.8638502642
 21
-2.8753486559
  0
LINE
  5
25E
100
AcDbEntity
  8
0
100
AcDbLine
 62
7
  6
CONTINUOUS
 10
-4.018648
 20
3.720764
 11
-4.018648
 21
3.289964
  0
LINE
  5
25F
100
AcDbEntity
  8
0
100
AcDbLine
 62
7
  6
CONTINUOUS
 10
-4.018648
 20
2.554611
 11
-4.018648
 21
2.15831
  0
LINE
  5
260
100
AcDbEntity
  8
0
100
AcDbLine
 62
7
  6
CONTINUOUS
 10
-4.018648
 20
1.229536
 11
-4.018648
 21
0.833292
  0
LINE
  5
261
100
AcDbEntity
  8
0
100
AcDbLine
 62
7
  6
CONTINUOUS
 10
-4.018648
 20
0.044336
 11
-4.018648
 21
-0.348034
  0
LINE
  5
262
100
AcDbEntity
  8
0
100
AcDbLine
 62
7
  6
CONTINUOUS
 10
-4.018648
 20
-1.183876
 11
-4.018648
 21
-1.567512
  0
LINE
  5
263
100
AcDbEntity
  8
0
100
AcDbLine
 62
7
  6
CONTINUOUS
 10
-4.018534
 20
2.011141
 11
-4.018534
 21
1.614569
  0
LINE
  5
264
100
AcDbEntity
  8
0
100
AcDbLine
 62
7
  6
CONTINUOUS
 10
-6.3078505908
 20
-20.1997600453
 11
-6.3042956314
 21
-19.996096559
  0
LINE
  5
265
100
AcDbEntity
  8
0
100
AcDbLine
 62
7
  6
CONTINUOUS
 10
-3.7
 20
19.75
 11
-3.6921494092
 21
20.1997600453
  0
LINE
  5
266
100
AcDbEntity
  8
0
100
AcDbLine
 62
7
  6
CONTINUOUS
 10
8.0
 20
20.9
 11
7.9278627373
 21
20.791780368
  0
LINE
  5
267
100
AcDbEntity
  8
0
100
AcDbLine
 62
7
  6
CONTINUOUS
 10
8.0
 20
20.575
 11
7.9235336933
 21
20.4602859775
  0
LINE
  5
268
100
AcDbEntity
  8
0
100
AcDbLine
 62
7
  6
CONTINUOUS
 10
-5.918494
 20
3.118476
 11
-4.018648
 21
3.720764
  0
LINE
  5
269
100
AcDbEntity
  8
RACCORDO
100
AcDbLine
 62
7
  6
CONTINUOUS
 10
10.4
 20
-5.239274759
 11
9.9494585403
 21
-5.2392747569
  0
LINE
  5
26A
100
AcDbEntity
  8
RACCORDO
100
AcDbLine
 62
7
  6
CONTINUOUS
 10
-9.9494585334
 20
-5.2392747583
 11
-10.4
 21
-5.239274759
  0
LINE
  5
26B
100
AcDbEntity
  8
0
100
AcDbLine
 62
7
  6
CONTINUOUS
 10
8.0
 20
-20.9
 11
7.9278627373
 21
-20.791780368
  0
LINE
  5
26C
100
AcDbEntity
  8
0
100
AcDbLine
 62
7
  6
CONTINUOUS
 10
8.0
 20
-20.575
 11
7.9235336933
 21
-20.4602859775
  0
LINE
  5
26D
100
AcDbEntity
  8
0
100
AcDbLine
 62
253
  6
CONTINUOUS
 10
-0.1798897567
 20
-18.2608368832
 11
-0.195180006
 21
-18.2149647581
  0
LINE
  5
26E
100
AcDbEntity
  8
0
100
AcDbLine
 62
7
  6
CONTINUOUS
 10
-5.918494
 20
0.470883
 11
-4.67793
 21
0.93611
  0
LINE
  5
26F
100
AcDbEntity
  8
0
100
AcDbLine
 62
7
  6
CONTINUOUS
 10
-4.018648
 20
0.833292
 11
-5.073448
 21
0.440908
  0
LINE
  5
270
100
AcDbEntity
  8
0
100
AcDbLine
 62
7
  6
CONTINUOUS
 10
5.6489362121
 20
-1.9
 11
5.7765957713
 21
-1.8687501192
  0
LINE
  5
271
100
AcDbEntity
  8
0
100
AcDbLine
 62
7
  6
CONTINUOUS
 10
-0.6854
 20
-3.50487
 11
-0.927877
 21
-3.50487
  0
LINE
  5
272
100
AcDbEntity
  8
0
100
AcDbLine
 62
7
  6
CONTINUOUS
 10
0.969516
 20
-3.489727
 11
0.727039
 21
-3.489727
  0
LINE
  5
273
100
AcDbEntity
  8
0
100
AcDbLine
 62
7
  6
CONTINUOUS
 10
0.120891
 20
-3.455943
 11
-0.120891
 21
-3.455943
  0
LINE
  5
274
100
AcDbEntity
  8
0
100
AcDbLine
 62
7
  6
CONTINUOUS
 10
-5.0204361925
 20
-3.2864526086
 11
-5.0316626242
 21
-3.2864526086
  0
LINE
  5
275
100
AcDbEntity
  8
0
100
AcDbLine
 62
7
  6
CONTINUOUS
 10
-0.120891
 20
-2.723163
 11
0.120891
 21
-2.723163
  0
LINE
  5
276
100
AcDbEntity
  8
0
100
AcDbLine
 62
7
  6
CONTINUOUS
 10
-5.1749990835
 20
-2.6618612449
 11
-5.918493746
 21
-2.6618612449
  0
LINE
  5
277
100
AcDbEntity
  8
0
100
AcDbLine
 62
7
  6
CONTINUOUS
 10
-4.3423055768
 20
-2.6487115031
 11
-4.8638502642
 21
-2.6487115031
  0
LINE
  5
278
100
AcDbEntity
  8
0
100
AcDbLine
 62
7
  6
CONTINUOUS
 10
4.5
 20
-2.5250001192
 11
6.0
 21
-2.5250001192
  0
LINE
  5
279
100
AcDbEntity
  8
0
100
AcDbLine
 62
7
  6
CONTINUOUS
 10
0.727039
 20
-2.449627
 11
-0.6854
 21
-2.449627
  0
LINE
  5
27A
100
AcDbEntity
  8
0
100
AcDbLine
 62
7
  6
CONTINUOUS
 10
5.7446808815
 20
-2.3375001192
 11
4.5
 21
-2.3375001192
  0
LINE
  5
27B
100
AcDbEntity
  8
0
100
AcDbLine
 62
7
  6
CONTINUOUS
 10
-5.918493746
 20
-2.2668846027
 11
-4.0408445413
 21
-2.2668846027
  0
LINE
  5
27C
100
AcDbEntity
  8
0
100
AcDbLine
 62
7
  6
CONTINUOUS
 10
-0.927877
 20
-2.207148
 11
0.969516
 21
-2.207148
  0
LINE
  5
27D
100
AcDbEntity
  8
0
100
AcDbLine
 62
7
  6
CONTINUOUS
 10
5.7765957713
 20
-2.1500001192
 11
5.5212765634
 21
-2.1500001192
  0
LINE
  5
27E
100
AcDbEntity
  8
0
100
AcDbLine
 62
7
  6
CONTINUOUS
 10
4.5
 20
-1.9
 11
4.6595744714
 21
-1.9
  0
LINE
  5
27F
100
AcDbEntity
  8
0
100
AcDbLine
 62
7
  6
CONTINUOUS
 10
5.585106343
 20
-1.9
 11
5.6489362121
 21
-1.9
  0
LINE
  5
280
100
AcDbEntity
  8
0
100
AcDbLine
 62
7
  6
CONTINUOUS
 10
-4.540677
 20
-1.368243
 11
-5.245734
 21
-1.170783
  0
LINE
  5
281
100
AcDbEntity
  8
0
100
AcDbLine
 62
7
  6
CONTINUOUS
 10
-5.539217
 20
-1.089662
 11
-5.918494
 21
-0.980233
  0
LINE
  5
282
100
AcDbEntity
  8
0
100
AcDbLine
 62
7
  6
CONTINUOUS
 10
-5.918494
 20
-0.587963
 11
-4.018648
 21
-1.183876
  0
LINE
  5
283
100
AcDbEntity
  8
0
100
AcDbLine
 62
7
  6
CONTINUOUS
 10
-0.3685808831
 20
-18.9
 11
-0.3760517428
 21
-18.4719947382
  0
LINE
  5
284
100
AcDbEntity
  8
0
100
AcDbLine
 62
253
  6
CONTINUOUS
 10
-0.594513382
 20
-18.4264608466
 11
-0.5936987348
 21
-19.3598829709
  0
LINE
  5
285
100
AcDbEntity
  8
0
100
AcDbLine
 62
253
  6
CONTINUOUS
 10
-0.3945440094
 20
-18.4162825589
 11
-0.3937291957
 21
-19.3498954475
  0
LINE
  5
286
100
AcDbEntity
  8
0
100
AcDbLine
 62
7
  6
CONTINUOUS
 10
-0.937372
 20
1.601074
 11
-0.937372
 21
1.843552
  0
LINE
  5
287
100
AcDbEntity
  8
0
100
AcDbLine
 62
7
  6
CONTINUOUS
 10
-0.937372
 20
3.135808
 11
-0.937372
 21
3.455943
  0
LINE
  5
288
100
AcDbEntity
  8
0
100
AcDbLine
 62
7
  6
CONTINUOUS
 10
-0.927877
 20
-3.50487
 11
-0.927877
 21
-2.207148
  0
LINE
  5
289
100
AcDbEntity
  8
0
100
AcDbLine
 62
7
  6
CONTINUOUS
 10
-0.927877
 20
-1.957148
 11
-0.927877
 21
-1.614259
  0
LINE
  5
28A
100
AcDbEntity
  8
0
100
AcDbLine
 62
7
  6
CONTINUOUS
 10
-0.927877
 20
-0.56116
 11
-0.927877
 21
-0.318682
  0
LINE
  5
28B
100
AcDbEntity
  8
0
100
AcDbLine
 62
7
  6
CONTINUOUS
 10
-0.9278770333
 20
-0.0061819667
 11
-0.9278770333
 21
0.2676599667
  0
LINE
  5
28C
100
AcDbEntity
  8
0
100
AcDbLine
 62
7
  6
CONTINUOUS
 10
-0.6854
 20
-2.449627
 11
-0.6854
 21
-3.50487
  0
LINE
  5
28D
100
AcDbEntity
  8
0
100
AcDbLine
 62
7
  6
CONTINUOUS
 10
-0.3685808831
 20
-18.9
 11
-0.3685808831
 21
-19.9421738608
  0
LINE
  5
28E
100
AcDbEntity
  8
0
100
AcDbLine
 62
253
  6
CONTINUOUS
 10
-0.1951680404
 20
-18.0252263746
 11
-0.1951680404
 21
-18.2149647581
  0
LINE
  5
28F
100
AcDbEntity
  8
0
100
AcDbLine
 62
7
  6
CONTINUOUS
 10
-0.126552
 20
1.843552
 11
-0.126552
 21
2.098644
  0
LINE
  5
290
100
AcDbEntity
  8
0
100
AcDbLine
 62
7
  6
CONTINUOUS
 10
-0.120891
 20
-3.455943
 11
-0.120891
 21
-2.723163
  0
LINE
  5
291
100
AcDbEntity
  8
0
100
AcDbLine
 62
7
  6
CONTINUOUS
 10
0.115925
 20
2.098644
 11
0.115925
 21
1.843552
  0
LINE
  5
292
100
AcDbEntity
  8
0
100
AcDbLine
 62
7
  6
CONTINUOUS
 10
0.120891
 20
-2.723163
 11
0.120891
 21
-3.455943
  0
LINE
  5
293
100
AcDbEntity
  8
0
100
AcDbLine
 62
253
  6
CONTINUOUS
 10
0.1951680404
 20
-18.0252263746
 11
0.1951680404
 21
-18.2149647581
  0
LINE
  5
294
100
AcDbEntity
  8
0
100
AcDbLine
 62
7
  6
CONTINUOUS
 10
-0.9278770333
 20
0.2676599667
 11
0.1112507
 21
0.8129238667
  0
LINE
  5
295
100
AcDbEntity
  8
0
100
AcDbLine
 62
7
  6
CONTINUOUS
 10
-0.1092227667
 20
0.4234004333
 11
-0.9278770333
 21
-0.0061819667
  0
LINE
  5
296
100
AcDbEntity
  8
0
100
AcDbLine
 62
7
  6
CONTINUOUS
 10
5.4574467838
 20
1.9750000149
 11
5.2978723347
 21
1.9124999851
  0
LINE
  5
297
100
AcDbEntity
  8
0
100
AcDbLine
 62
7
  6
CONTINUOUS
 10
4.8510638326
 20
1.9124999851
 11
4.7553191409
 21
1.8812500149
  0
LINE
  5
298
100
AcDbEntity
  8
0
100
AcDbLine
 62
7
  6
CONTINUOUS
 10
5.3936170042
 20
1.7874999702
 11
5.4893616736
 21
1.8187500298
  0
LINE
  5
299
100
AcDbEntity
  8
0
100
AcDbLine
 62
7
  6
CONTINUOUS
 10
-5.918494
 20
-1.732461
 11
-5.539217
 21
-1.629728
  0
LINE
  5
29A
100
AcDbEntity
  8
0
100
AcDbLine
 62
7
  6
CONTINUOUS
 10
-5.245734
 20
-1.550473
 11
-4.540677
 21
-1.368243
  0
LINE
  5
29B
100
AcDbEntity
  8
0
100
AcDbLine
 62
7
  6
CONTINUOUS
 10
5.3936170042
 20
-0.5249998808
 11
5.5531914532
 21
-0.49375
  0
LINE
  5
29C
100
AcDbEntity
  8
0
100
AcDbLine
 62
7
  6
CONTINUOUS
 10
5.1063829958
 20
0.5999999404
 11
4.9468085021
 21
0.5687500596
  0
LINE
  5
29D
100
AcDbEntity
  8
0
100
AcDbLine
 62
7
  6
CONTINUOUS
 10
5.5531914532
 20
-0.3375000596
 11
5.3617021143
 21
-0.3687499404
  0
LINE
  5
29E
100
AcDbEntity
  8
0
100
AcDbLine
 62
7
  6
CONTINUOUS
 10
4.9468085021
 20
0.4124999404
 11
5.1382978857
 21
0.44375
  0
LINE
  5
29F
100
AcDbEntity
  8
0
100
AcDbLine
 62
7
  6
CONTINUOUS
 10
5.3617021143
 20
0.8500000596
 11
5.585106343
 21
0.8812499404
  0
LINE
  5
2A0
100
AcDbEntity
  8
0
100
AcDbLine
 62
7
  6
CONTINUOUS
 10
-4.018648
 20
-0.348034
 11
-5.918494
 21
-0.525691
  0
LINE
  5
2A1
100
AcDbEntity
  8
0
100
AcDbLine
 62
7
  6
CONTINUOUS
 10
-5.918494
 20
-0.137738
 11
-4.683102
 21
-0.056261
  0
LINE
  5
2A2
100
AcDbEntity
  8
0
100
AcDbLine
 62
7
  6
CONTINUOUS
 10
5.6489362121
 20
-1.7125
 11
5.585106343
 21
-1.7125
  0
LINE
  5
2A3
100
AcDbEntity
  8
0
100
AcDbLine
 62
7
  6
CONTINUOUS
 10
4.6595744714
 20
-0.775
 11
4.5
 21
-0.775
  0
LINE
  5
2A4
100
AcDbEntity
  8
0
100
AcDbLine
 62
7
  6
CONTINUOUS
 10
0.972683
 20
-0.56116
 11
-0.927877
 21
-0.56116
  0
LINE
  5
2A5
100
AcDbEntity
  8
0
100
AcDbLine
 62
7
  6
CONTINUOUS
 10
5.1063829958
 20
-0.5249998808
 11
5.3936170042
 21
-0.5249998808
  0
LINE
  5
2A6
100
AcDbEntity
  8
0
100
AcDbLine
 62
7
  6
CONTINUOUS
 10
5.3617021143
 20
-0.3687499404
 11
5.1382978857
 21
-0.3687499404
  0
LINE
  5
2A7
100
AcDbEntity
  8
0
100
AcDbLine
 62
7
  6
CONTINUOUS
 10
-0.927877
 20
-0.318682
 11
0.972683
 21
-0.318682
  0
LINE
  5
2A8
100
AcDbEntity
  8
0
100
AcDbLine
 62
7
  6
CONTINUOUS
 10
5.4574467838
 20
-1.8687501192
 11
5.585106343
 21
-1.9
  0
LINE
  5
2A9
100
AcDbEntity
  8
0
100
AcDbLine
 62
7
  6
CONTINUOUS
 10
-5.073448
 20
0.440908
 11
-4.018648
 21
0.044336
  0
LINE
  5
2AA
100
AcDbEntity
  8
0
100
AcDbLine
 62
7
  6
CONTINUOUS
 10
-4.683102
 20
-0.056261
 11
-5.918494
 21
0.415264
  0
LINE
  5
2AB
100
AcDbEntity
  8
0
100
AcDbLine
 62
7
  6
CONTINUOUS
 10
1.572601
 20
-3.394241
 11
1.142698
 21
-2.964352
  0
LINE
  5
2AC
100
AcDbEntity
  8
0
100
AcDbLine
 62
7
  6
CONTINUOUS
 10
1.142698
 20
-2.621449
 11
1.572601
 21
-3.051353
  0
LINE
  5
2AD
100
AcDbEntity
  8
0
100
AcDbLine
 62
7
  6
CONTINUOUS
 10
0.976282
 20
-1.959297
 11
0.023128
 21
-1.006173
  0
LINE
  5
2AE
100
AcDbEntity
  8
0
100
AcDbLine
 62
7
  6
CONTINUOUS
 10
0.023129
 20
-0.663255
 11
0.976282
 21
-1.616408
  0
LINE
  5
2AF
100
AcDbEntity
  8
0
100
AcDbLine
 62
7
  6
CONTINUOUS
 10
0.3685808831
 20
-18.9
 11
0.3685808831
 21
-19.9421738608
  0
LINE
  5
2B0
100
AcDbEntity
  8
0
100
AcDbLine
 62
7
  6
CONTINUOUS
 10
0.727039
 20
-3.489727
 11
0.727039
 21
-2.449627
  0
LINE
  5
2B1
100
AcDbEntity
  8
0
100
AcDbLine
 62
7
  6
CONTINUOUS
 10
0.9667877667
 20
1.3510748
 11
0.9667877667
 21
0.5880987667
  0
LINE
  5
2B2
100
AcDbEntity
  8
0
100
AcDbLine
 62
7
  6
CONTINUOUS
 10
0.966788
 20
1.814668
 11
0.966788
 21
1.601074
  0
LINE
  5
2B3
100
AcDbEntity
  8
0
100
AcDbLine
 62
7
  6
CONTINUOUS
 10
0.969516
 20
-2.207148
 11
0.969516
 21
-3.489727
  0
LINE
  5
2B4
100
AcDbEntity
  8
0
100
AcDbLine
 62
7
  6
CONTINUOUS
 10
0.972683
 20
-0.318682
 11
0.972683
 21
-0.56116
  0
LINE
  5
2B5
100
AcDbEntity
  8
0
100
AcDbLine
 62
7
  6
CONTINUOUS
 10
0.976282
 20
-1.616408
 11
0.976282
 21
-1.959297
  0
LINE
  5
2B6
100
AcDbEntity
  8
0
100
AcDbLine
 62
7
  6
CONTINUOUS
 10
1.142698
 20
-2.964352
 11
1.142698
 21
-2.621449
  0
LINE
  5
2B7
100
AcDbEntity
  8
0
100
AcDbLine
 62
7
  6
CONTINUOUS
 10
1.572601
 20
-3.051353
 11
1.572601
 21
-3.394241
  0
LINE
  5
2B8
100
AcDbEntity
  8
0
100
AcDbLine
 62
253
  6
CONTINUOUS
 10
0.3937291957
 20
-19.3498954475
 11
0.3945438429
 21
-18.4164733232
  0
LINE
  5
2B9
100
AcDbEntity
  8
0
100
AcDbLine
 62
253
  6
CONTINUOUS
 10
0.5936987348
 20
-19.3598829709
 11
0.594513382
 21
-18.4264608466
  0
LINE
  5
2BA
100
AcDbEntity
  8
0
100
AcDbLine
 62
7
  6
CONTINUOUS
 10
0.3760517428
 20
-18.4719947382
 11
0.3685808831
 21
-18.9
  0
LINE
  5
2BB
100
AcDbEntity
  8
0
100
AcDbLine
 62
7
  6
CONTINUOUS
 10
-0.927877
 20
-1.614259
 11
0.023129
 21
-0.663255
  0
LINE
  5
2BC
100
AcDbEntity
  8
0
100
AcDbLine
 62
7
  6
CONTINUOUS
 10
0.023128
 20
-1.006173
 11
-0.927877
 21
-1.957148
  0
LINE
  5
2BD
100
AcDbEntity
  8
0
100
AcDbLine
 62
7
  6
CONTINUOUS
 10
4.7553191409
 20
1.8812500149
 11
4.6276595704
 21
1.7874999702
  0
LINE
  5
2BE
100
AcDbEntity
  8
0
100
AcDbLine
 62
7
  6
CONTINUOUS
 10
5.2978723347
 20
1.9124999851
 11
5.1702127755
 21
1.8187500298
  0
LINE
  5
2BF
100
AcDbEntity
  8
0
100
AcDbLine
 62
7
  6
CONTINUOUS
 10
4.7553191409
 20
1.6937499702
 11
4.8510638326
 21
1.75625
  0
LINE
  5
2C0
100
AcDbEntity
  8
0
100
AcDbLine
 62
7
  6
CONTINUOUS
 10
5.2978723347
 20
1.7250000298
 11
5.3936170042
 21
1.7874999702
  0
LINE
  5
2C1
100
AcDbEntity
  8
0
100
AcDbLine
 62
7
  6
CONTINUOUS
 10
5.7446808815
 20
1.1312499702
 11
5.6489362121
 21
1.0687499404
  0
LINE
  5
2C2
100
AcDbEntity
  8
0
100
AcDbLine
 62
7
  6
CONTINUOUS
 10
4.7553191409
 20
0.2875000596
 11
4.9468085021
 21
0.4124999404
  0
LINE
  5
2C3
100
AcDbEntity
  8
0
100
AcDbLine
 62
7
  6
CONTINUOUS
 10
4.8510638326
 20
0.5375
 11
4.723404251
 21
0.4750000596
  0
LINE
  5
2C4
100
AcDbEntity
  8
0
100
AcDbLine
 62
7
  6
CONTINUOUS
 10
5.585106343
 20
0.8812499404
 11
5.7446808815
 21
0.9437500596
  0
LINE
  5
2C5
100
AcDbEntity
  8
0
100
AcDbLine
 62
7
  6
CONTINUOUS
 10
5.6489362121
 20
1.0687499404
 11
5.5531914532
 21
1.0375000596
  0
LINE
  5
2C6
100
AcDbEntity
  8
0
100
AcDbLine
 62
7
  6
CONTINUOUS
 10
4.9468085021
 20
0.5687500596
 11
4.8510638326
 21
0.5375
  0
LINE
  5
2C7
100
AcDbEntity
  8
0
100
AcDbLine
 62
7
  6
CONTINUOUS
 10
5.5531914532
 20
-0.49375
 11
5.6489362121
 21
-0.4625001192
  0
LINE
  5
2C8
100
AcDbEntity
  8
0
100
AcDbLine
 62
7
  6
CONTINUOUS
 10
-4.018648
 20
-1.567512
 11
-5.918494
 21
-2.150432
  0
LINE
  5
2C9
100
AcDbEntity
  8
0
100
AcDbLine
 62
7
  6
CONTINUOUS
 10
5.1382978857
 20
0.44375
 11
5.3617021143
 21
0.44375
  0
LINE
  5
2CA
100
AcDbEntity
  8
0
100
AcDbLine
 62
7
  6
CONTINUOUS
 10
5.3936170042
 20
0.5999999404
 11
5.1063829958
 21
0.5999999404
  0
LINE
  5
2CB
100
AcDbEntity
  8
0
100
AcDbLine
 62
7
  6
CONTINUOUS
 10
5.1382978857
 20
0.8500000596
 11
5.3617021143
 21
0.8500000596
  0
LINE
  5
2CC
100
AcDbEntity
  8
0
100
AcDbLine
 62
7
  6
CONTINUOUS
 10
5.2021276653
 20
1.00625
 11
5.1382978857
 21
1.00625
  0
LINE
  5
2CD
100
AcDbEntity
  8
0
100
AcDbLine
 62
7
  6
CONTINUOUS
 10
5.5531914532
 20
1.0375000596
 11
5.4893616736
 21
1.0375000596
  0
LINE
  5
2CE
100
AcDbEntity
  8
0
100
AcDbLine
 62
7
  6
CONTINUOUS
 10
0.7243104
 20
1.3510748
 11
0.9667877667
 21
1.3510748
  0
LINE
  5
2CF
100
AcDbEntity
  8
0
100
AcDbLine
 62
7
  6
CONTINUOUS
 10
0.966788
 20
1.601074
 11
-0.937372
 21
1.601074
  0
LINE
  5
2D0
100
AcDbEntity
  8
0
100
AcDbLine
 62
7
  6
CONTINUOUS
 10
-4.018534
 20
1.614569
 11
-5.918494
 21
1.614569
  0
LINE
  5
2D1
100
AcDbEntity
  8
0
100
AcDbLine
 62
7
  6
CONTINUOUS
 10
5.4893616736
 20
1.8187500298
 11
5.5531914532
 21
1.8187500298
  0
LINE
  5
2D2
100
AcDbEntity
  8
0
100
AcDbLine
 62
7
  6
CONTINUOUS
 10
-0.937372
 20
1.843552
 11
-0.126552
 21
1.843552
  0
LINE
  5
2D3
100
AcDbEntity
  8
0
100
AcDbLine
 62
7
  6
CONTINUOUS
 10
0.115925
 20
1.843552
 11
0.561884
 21
1.843552
  0
LINE
  5
2D4
100
AcDbEntity
  8
0
100
AcDbLine
 62
7
  6
CONTINUOUS
 10
5.585106343
 20
1.9750000149
 11
5.4574467838
 21
1.9750000149
  0
LINE
  5
2D5
100
AcDbEntity
  8
0
100
AcDbLine
 62
7
  6
CONTINUOUS
 10
-5.918494
 20
2.011141
 11
-4.018534
 21
2.011141
  0
LINE
  5
2D6
100
AcDbEntity
  8
0
100
AcDbLine
 62
7
  6
CONTINUOUS
 10
-0.126552
 20
2.098644
 11
0.115925
 21
2.098644
  0
LINE
  5
2D7
100
AcDbEntity
  8
0
100
AcDbLine
 62
7
  6
CONTINUOUS
 10
4.5
 20
2.225
 11
6.0
 21
2.225
  0
LINE
  5
2D8
100
AcDbEntity
  8
0
100
AcDbLine
 62
7
  6
CONTINUOUS
 10
-4.67793
 20
0.93611
 11
-5.918494
 21
1.021691
  0
LINE
  5
2D9
100
AcDbEntity
  8
0
100
AcDbLine
 62
7
  6
CONTINUOUS
 10
-5.918494
 20
1.401081
 11
-4.018648
 21
1.229536
  0
LINE
  5
2DA
100
AcDbEntity
  8
0
100
AcDbLine
 62
7
  6
CONTINUOUS
 10
4.9148936123
 20
0.8812499404
 11
5.1382978857
 21
0.8500000596
  0
LINE
  5
2DB
100
AcDbEntity
  8
0
100
AcDbLine
 62
7
  6
CONTINUOUS
 10
5.1382978857
 20
-0.3687499404
 11
4.9468085021
 21
-0.3375000596
  0
LINE
  5
2DC
100
AcDbEntity
  8
0
100
AcDbLine
 62
7
  6
CONTINUOUS
 10
5.3617021143
 20
0.44375
 11
5.5531914532
 21
0.4124999404
  0
LINE
  5
2DD
100
AcDbEntity
  8
0
100
AcDbLine
 62
7
  6
CONTINUOUS
 10
5.1382978857
 20
1.00625
 11
4.9468085021
 21
1.0375000596
  0
LINE
  5
2DE
100
AcDbEntity
  8
0
100
AcDbLine
 62
7
  6
CONTINUOUS
 10
4.9468085021
 20
-0.49375
 11
5.1063829958
 21
-0.5249998808
  0
LINE
  5
2DF
100
AcDbEntity
  8
0
100
AcDbLine
 62
7
  6
CONTINUOUS
 10
5.5531914532
 20
0.5687500596
 11
5.3936170042
 21
0.5999999404
  0
LINE
  5
2E0
100
AcDbEntity
  8
0
100
AcDbLine
 62
7
  6
CONTINUOUS
 10
5.7765957713
 20
-0.8375001192
 11
5.6489362121
 21
-0.8062498808
  0
LINE
  5
2E1
100
AcDbEntity
  8
0
100
AcDbLine
 62
7
  6
CONTINUOUS
 10
-5.326371
 20
2.927819
 11
-4.018648
 21
2.554611
  0
LINE
  5
2E2
100
AcDbEntity
  8
0
100
AcDbLine
 62
7
  6
CONTINUOUS
 10
-4.018648
 20
2.15831
 11
-5.918494
 21
2.768996
  0
LINE
  5
2E3
100
AcDbEntity
  8
0
100
AcDbLine
 62
7
  6
CONTINUOUS
 10
4.8510638326
 20
-0.4625001192
 11
4.9468085021
 21
-0.49375
  0
LINE
  5
2E4
100
AcDbEntity
  8
0
100
AcDbLine
 62
7
  6
CONTINUOUS
 10
5.6489362121
 20
0.5375
 11
5.5531914532
 21
0.5687500596
  0
LINE
  5
2E5
100
AcDbEntity
  8
0
100
AcDbLine
 62
7
  6
CONTINUOUS
 10
5.585106343
 20
-1.7125
 11
5.4574467838
 21
-1.6499998808
  0
LINE
  5
2E6
100
AcDbEntity
  8
0
100
AcDbLine
 62
7
  6
CONTINUOUS
 10
4.723404251
 20
-0.4
 11
4.8510638326
 21
-0.4625001192
  0
LINE
  5
2E7
100
AcDbEntity
  8
0
100
AcDbLine
 62
7
  6
CONTINUOUS
 10
5.3617021143
 20
-1.80625
 11
5.4574467838
 21
-1.8687501192
  0
LINE
  5
2E8
100
AcDbEntity
  8
0
100
AcDbLine
 62
7
  6
CONTINUOUS
 10
5.6489362121
 20
-0.9625
 11
5.7446808815
 21
-1.0250001192
  0
LINE
  5
2E9
100
AcDbEntity
  8
0
100
AcDbLine
 62
7
  6
CONTINUOUS
 10
5.5212765634
 20
-2.1500001192
 11
5.7446808815
 21
-2.3375001192
  0
LINE
  5
2EA
100
AcDbEntity
  8
0
100
AcDbLine
 62
7
  6
CONTINUOUS
 10
6.0
 20
-2.3375001192
 11
5.7765957713
 21
-2.1500001192
  0
LINE
  5
2EB
100
AcDbEntity
  8
0
100
AcDbLine
 62
7
  6
CONTINUOUS
 10
0.561884
 20
1.843552
 11
-0.937372
 21
3.135808
  0
LINE
  5
2EC
100
AcDbEntity
  8
0
100
AcDbLine
 62
7
  6
CONTINUOUS
 10
-0.937372
 20
3.455943
 11
0.966788
 21
1.814668
  0
LINE
  5
2ED
100
AcDbEntity
  8
0
100
AcDbLine
 62
7
  6
CONTINUOUS
 10
3.6921494092
 20
20.1997600453
 11
3.7
 21
19.75
  0
LINE
  5
2EE
100
AcDbEntity
  8
0
100
AcDbLine
 62
7
  6
CONTINUOUS
 10
3.7
 20
-19.75
 11
3.6921494092
 21
-20.1997600453
  0
LINE
  5
2EF
100
AcDbEntity
  8
0
100
AcDbLine
 62
7
  6
CONTINUOUS
 10
4.5319148926
 20
0.2249999404
 11
4.5
 21
0.0374999404
  0
LINE
  5
2F0
100
AcDbEntity
  8
0
100
AcDbLine
 62
7
  6
CONTINUOUS
 10
4.5319148926
 20
1.6312500298
 11
4.5
 21
1.475
  0
LINE
  5
2F1
100
AcDbEntity
  8
0
100
AcDbLine
 62
7
  6
CONTINUOUS
 10
4.6595744714
 20
1.5062499702
 11
4.6914893612
 21
1.5999999702
  0
LINE
  5
2F2
100
AcDbEntity
  8
0
100
AcDbLine
 62
7
  6
CONTINUOUS
 10
5.2021276653
 20
1.5375000298
 11
5.2340425551
 21
1.6312500298
  0
LINE
  5
2F3
100
AcDbEntity
  8
0
100
AcDbLine
 62
7
  6
CONTINUOUS
 10
4.6276595704
 20
1.7874999702
 11
4.5319148926
 21
1.6312500298
  0
LINE
  5
2F4
100
AcDbEntity
  8
0
100
AcDbLine
 62
7
  6
CONTINUOUS
 10
5.1702127755
 20
1.8187500298
 11
5.074468106
 21
1.6625
  0
LINE
  5
2F5
100
AcDbEntity
  8
0
100
AcDbLine
 62
7
  6
CONTINUOUS
 10
4.6276595704
 20
0.3812500596
 11
4.5319148926
 21
0.2249999404
  0
LINE
  5
2F6
100
AcDbEntity
  8
0
100
AcDbLine
 62
7
  6
CONTINUOUS
 10
5.8723404407
 20
1.0375000596
 11
5.9680851102
 21
1.19375
  0
LINE
  5
2F7
100
AcDbEntity
  8
0
100
AcDbLine
 62
7
  6
CONTINUOUS
 10
4.6914893612
 20
1.5999999702
 11
4.7553191409
 21
1.6937499702
  0
LINE
  5
2F8
100
AcDbEntity
  8
0
100
AcDbLine
 62
7
  6
CONTINUOUS
 10
5.2340425551
 20
1.6312500298
 11
5.2978723347
 21
1.7250000298
  0
LINE
  5
2F9
100
AcDbEntity
  8
0
100
AcDbLine
 62
7
  6
CONTINUOUS
 10
4.6914893612
 20
0.1937500596
 11
4.7553191409
 21
0.2875000596
  0
LINE
  5
2FA
100
AcDbEntity
  8
0
100
AcDbLine
 62
7
  6
CONTINUOUS
 10
5.8085106611
 20
1.2249999702
 11
5.7446808815
 21
1.1312499702
  0
LINE
  5
2FB
100
AcDbEntity
  8
0
100
AcDbLine
 62
7
  6
CONTINUOUS
 10
4.723404251
 20
0.4750000596
 11
4.6276595704
 21
0.3812500596
  0
LINE
  5
2FC
100
AcDbEntity
  8
0
100
AcDbLine
 62
7
  6
CONTINUOUS
 10
5.7765957713
 20
-0.4
 11
5.8723404407
 21
-0.30625
  0
LINE
  5
2FD
100
AcDbEntity
  8
0
100
AcDbLine
 62
7
  6
CONTINUOUS
 10
5.7446808815
 20
0.9437500596
 11
5.8723404407
 21
1.0375000596
  0
LINE
  5
2FE
100
AcDbEntity
  8
0
100
AcDbLine
 62
7
  6
CONTINUOUS
 10
5.7446808815
 20
-0.2125
 11
5.5531914532
 21
-0.3375000596
  0
LINE
  5
2FF
100
AcDbEntity
  8
0
100
AcDbLine
 62
7
  6
CONTINUOUS
 10
5.6489362121
 20
-0.4625001192
 11
5.7765957713
 21
-0.4
  0
LINE
  5
300
100
AcDbEntity
  8
0
100
AcDbLine
 62
7
  6
CONTINUOUS
 10
-4.018648
 20
3.289964
 11
-5.326371
 21
2.927819
  0
LINE
  5
301
100
AcDbEntity
  8
0
100
AcDbLine
 62
7
  6
CONTINUOUS
 10
5.7446808815
 20
2.4125
 11
4.5
 21
2.4125
  0
LINE
  5
302
100
AcDbEntity
  8
0
100
AcDbLine
 62
7
  6
CONTINUOUS
 10
5.7765957713
 20
2.6
 11
5.5212765634
 21
2.6
  0
LINE
  5
303
100
AcDbEntity
  8
0
100
AcDbLine
 62
7
  6
CONTINUOUS
 10
4.9468085021
 20
1.0375000596
 11
4.8510638326
 21
1.0687499404
  0
LINE
  5
304
100
AcDbEntity
  8
0
100
AcDbLine
 62
7
  6
CONTINUOUS
 10
5.4893616736
 20
1.0375000596
 11
5.3936170042
 21
1.0687499404
  0
LINE
  5
305
100
AcDbEntity
  8
0
100
AcDbLine
 62
7
  6
CONTINUOUS
 10
5.5531914532
 20
1.8187500298
 11
5.6489362121
 21
1.7874999702
  0
LINE
  5
306
100
AcDbEntity
  8
0
100
AcDbLine
 62
7
  6
CONTINUOUS
 10
4.7553191409
 20
0.9437500596
 11
4.9148936123
 21
0.8812499404
  0
LINE
  5
307
100
AcDbEntity
  8
0
100
AcDbLine
 62
7
  6
CONTINUOUS
 10
5.7446808815
 20
1.9124999851
 11
5.585106343
 21
1.9750000149
  0
LINE
  5
308
100
AcDbEntity
  8
0
100
AcDbLine
 62
7
  6
CONTINUOUS
 10
5.7765957713
 20
0.4750000596
 11
5.6489362121
 21
0.5375
  0
LINE
  5
309
100
AcDbEntity
  8
0
100
AcDbLine
 62
7
  6
CONTINUOUS
 10
4.9468085021
 20
-0.3375000596
 11
4.7553191409
 21
-0.2125
  0
LINE
  5
30A
100
AcDbEntity
  8
0
100
AcDbLine
 62
7
  6
CONTINUOUS
 10
5.5531914532
 20
0.4124999404
 11
5.7446808815
 21
0.2875000596
  0
LINE
  5
30B
100
AcDbEntity
  8
0
100
AcDbLine
 62
7
  6
CONTINUOUS
 10
4.8510638326
 20
1.0687499404
 11
4.7553191409
 21
1.1312499702
  0
LINE
  5
30C
100
AcDbEntity
  8
0
100
AcDbLine
 62
7
  6
CONTINUOUS
 10
5.3936170042
 20
1.0687499404
 11
5.2978723347
 21
1.1312499702
  0
LINE
  5
30D
100
AcDbEntity
  8
0
100
AcDbLine
 62
7
  6
CONTINUOUS
 10
4.6276595704
 20
1.0375000596
 11
4.7553191409
 21
0.9437500596
  0
LINE
  5
30E
100
AcDbEntity
  8
0
100
AcDbLine
 62
7
  6
CONTINUOUS
 10
4.6276595704
 20
-0.30625
 11
4.723404251
 21
-0.4
  0
LINE
  5
30F
100
AcDbEntity
  8
0
100
AcDbLine
 62
7
  6
CONTINUOUS
 10
5.9042553306
 20
-0.9625
 11
5.7765957713
 21
-0.8375001192
  0
LINE
  5
310
100
AcDbEntity
  8
0
100
AcDbLine
 62
7
  6
CONTINUOUS
 10
5.8723404407
 20
0.3812500596
 11
5.7765957713
 21
0.4750000596
  0
LINE
  5
311
100
AcDbEntity
  8
0
100
AcDbLine
 62
7
  6
CONTINUOUS
 10
5.4574467838
 20
-1.6499998808
 11
4.6595744714
 21
-0.775
  0
LINE
  5
312
100
AcDbEntity
  8
0
100
AcDbLine
 62
7
  6
CONTINUOUS
 10
4.6595744714
 20
-1.0250001192
 11
5.3617021143
 21
-1.80625
  0
LINE
  5
313
100
AcDbEntity
  8
0
100
AcDbLine
 62
7
  6
CONTINUOUS
 10
4.7553191409
 20
-0.2125
 11
4.6914893612
 21
-0.11875
  0
LINE
  5
314
100
AcDbEntity
  8
0
100
AcDbLine
 62
7
  6
CONTINUOUS
 10
5.7446808815
 20
-1.0250001192
 11
5.8085106611
 21
-1.1187501192
  0
LINE
  5
315
100
AcDbEntity
  8
0
100
AcDbLine
 62
7
  6
CONTINUOUS
 10
4.5319148926
 20
-0.1500000596
 11
4.6276595704
 21
-0.30625
  0
LINE
  5
316
100
AcDbEntity
  8
0
100
AcDbLine
 62
7
  6
CONTINUOUS
 10
4.5
 20
0.0374999404
 11
4.5319148926
 21
-0.1500000596
  0
LINE
  5
317
100
AcDbEntity
  8
0
100
AcDbLine
 62
7
  6
CONTINUOUS
 10
6.3042956314
 20
-19.996096559
 11
6.3078505908
 21
-20.1997600453
  0
LINE
  5
318
100
AcDbEntity
  8
0
100
AcDbLine
 62
7
  6
CONTINUOUS
 10
4.5
 20
2.4125
 11
4.5
 21
2.225
  0
LINE
  5
319
100
AcDbEntity
  8
0
100
AcDbLine
 62
7
  6
CONTINUOUS
 10
4.5
 20
1.475
 11
4.5
 21
1.3500000298
  0
LINE
  5
31A
100
AcDbEntity
  8
0
100
AcDbLine
 62
7
  6
CONTINUOUS
 10
4.5
 20
-0.775
 11
4.5
 21
-1.9
  0
LINE
  5
31B
100
AcDbEntity
  8
0
100
AcDbLine
 62
7
  6
CONTINUOUS
 10
4.5
 20
-2.3375001192
 11
4.5
 21
-2.5250001192
  0
LINE
  5
31C
100
AcDbEntity
  8
0
100
AcDbLine
 62
7
  6
CONTINUOUS
 10
4.6595744714
 20
-1.9
 11
4.6595744714
 21
-1.0250001192
  0
LINE
  5
31D
100
AcDbEntity
  8
0
100
AcDbLine
 62
7
  6
CONTINUOUS
 10
4.6595744714
 20
1.3187499702
 11
4.6595744714
 21
1.5062499702
  0
LINE
  5
31E
100
AcDbEntity
  8
0
100
AcDbLine
 62
7
  6
CONTINUOUS
 10
4.8510638326
 20
1.75625
 11
4.8510638326
 21
1.9124999851
  0
LINE
  5
31F
100
AcDbEntity
  8
0
100
AcDbLine
 62
7
  6
CONTINUOUS
 10
5.0425531715
 20
1.5062499702
 11
5.0425531715
 21
1.3500000298
  0
LINE
  5
320
100
AcDbEntity
  8
0
100
AcDbLine
 62
7
  6
CONTINUOUS
 10
5.2021276653
 20
1.3187499702
 11
5.2021276653
 21
1.5375000298
  0
LINE
  5
321
100
AcDbEntity
  8
0
100
AcDbLine
 62
7
  6
CONTINUOUS
 10
5.6489362121
 20
-0.8062498808
 11
5.6489362121
 21
-0.9625
  0
LINE
  5
322
100
AcDbEntity
  8
0
100
AcDbLine
 62
7
  6
CONTINUOUS
 10
5.8404255509
 20
1.5375000298
 11
5.8404255509
 21
1.3187499702
  0
LINE
  5
323
100
AcDbEntity
  8
0
100
AcDbLine
 62
7
  6
CONTINUOUS
 10
5.8404255509
 20
-1.2749998808
 11
5.8404255509
 21
-1.4000001192
  0
LINE
  5
324
100
AcDbEntity
  8
0
100
AcDbLine
 62
7
  6
CONTINUOUS
 10
6.0
 20
-2.5250001192
 11
6.0
 21
-2.3375001192
  0
LINE
  5
325
100
AcDbEntity
  8
0
100
AcDbLine
 62
7
  6
CONTINUOUS
 10
6.0
 20
-1.43125
 11
6.0
 21
-1.3062501192
  0
LINE
  5
326
100
AcDbEntity
  8
0
100
AcDbLine
 62
7
  6
CONTINUOUS
 10
6.0
 20
1.3500000298
 11
6.0
 21
1.5062499702
  0
LINE
  5
327
100
AcDbEntity
  8
0
100
AcDbLine
 62
7
  6
CONTINUOUS
 10
6.0
 20
2.225
 11
6.0
 21
2.4125
  0
LINE
  5
328
100
AcDbEntity
  8
0
100
AcDbLine
 62
7
  6
CONTINUOUS
 10
6.3078505908
 20
20.1997600453
 11
6.3042956314
 21
19.996096559
  0
LINE
  5
329
100
AcDbEntity
  8
0
100
AcDbLine
 62
7
  6
CONTINUOUS
 10
5.9680851102
 20
-0.1500000596
 11
6.0
 21
0.0374999404
  0
LINE
  5
32A
100
AcDbEntity
  8
0
100
AcDbLine
 62
7
  6
CONTINUOUS
 10
5.9680851102
 20
-1.61875
 11
6.0
 21
-1.43125
  0
LINE
  5
32B
100
AcDbEntity
  8
0
100
AcDbLine
 62
7
  6
CONTINUOUS
 10
4.6595744714
 20
0.0374999404
 11
4.6914893612
 21
0.1937500596
  0
LINE
  5
32C
100
AcDbEntity
  8
0
100
AcDbLine
 62
7
  6
CONTINUOUS
 10
5.074468106
 20
1.6625
 11
5.0425531715
 21
1.5062499702
  0
LINE
  5
32D
100
AcDbEntity
  8
0
100
AcDbLine
 62
7
  6
CONTINUOUS
 10
5.9680851102
 20
1.19375
 11
6.0
 21
1.3500000298
  0
LINE
  5
32E
100
AcDbEntity
  8
0
100
AcDbLine
 62
7
  6
CONTINUOUS
 10
5.8404255509
 20
0.0374999404
 11
5.8085106611
 21
-0.11875
  0
LINE
  5
32F
100
AcDbEntity
  8
0
100
AcDbLine
 62
7
  6
CONTINUOUS
 10
5.8404255509
 20
-1.4000001192
 11
5.8085106611
 21
-1.5562498808
  0
LINE
  5
330
100
AcDbEntity
  8
0
100
AcDbLine
 62
253
  6
CONTINUOUS
 10
0.3945438429
 20
-18.4164733232
 11
0.3760517428
 21
-18.4719947382
  0
LINE
  5
331
100
AcDbEntity
  8
0
100
AcDbLine
 62
253
  6
CONTINUOUS
 10
0.1951821865
 20
-18.2149647581
 11
0.1798897567
 21
-18.2608368832
  0
LINE
  5
332
100
AcDbEntity
  8
0
100
AcDbLine
 62
7
  6
CONTINUOUS
 10
5.8404255509
 20
1.3187499702
 11
5.8085106611
 21
1.2249999702
  0
LINE
  5
333
100
AcDbEntity
  8
0
100
AcDbLine
 62
7
  6
CONTINUOUS
 10
5.9042553306
 20
-1.7437498808
 11
5.9680851102
 21
-1.61875
  0
LINE
  5
334
100
AcDbEntity
  8
0
100
AcDbLine
 62
7
  6
CONTINUOUS
 10
5.8723404407
 20
-0.30625
 11
5.9680851102
 21
-0.1500000596
  0
LINE
  5
335
100
AcDbEntity
  8
0
100
AcDbLine
 62
7
  6
CONTINUOUS
 10
-8.0
 20
-20.575
 11
-7.9235336933
 21
-20.4602859775
  0
LINE
  5
336
100
AcDbEntity
  8
0
100
AcDbLine
 62
7
  6
CONTINUOUS
 10
-8.0
 20
-20.9
 11
-7.9278627373
 21
-20.791780368
  0
LINE
  5
337
100
AcDbEntity
  8
0
100
AcDbLine
 62
7
  6
CONTINUOUS
 10
5.8085106611
 20
-0.11875
 11
5.7446808815
 21
-0.2125
  0
LINE
  5
338
100
AcDbEntity
  8
0
100
AcDbLine
 62
7
  6
CONTINUOUS
 10
5.8085106611
 20
-1.5562498808
 11
5.7446808815
 21
-1.6499998808
  0
LINE
  5
339
100
AcDbEntity
  8
0
100
AcDbLine
 62
7
  6
CONTINUOUS
 10
5.7765957713
 20
-1.8687501192
 11
5.9042553306
 21
-1.7437498808
  0
LINE
  5
33A
100
AcDbEntity
  8
0
100
AcDbLine
 62
7
  6
CONTINUOUS
 10
5.7446808815
 20
-1.6499998808
 11
5.6489362121
 21
-1.7125
  0
LINE
  5
33B
100
AcDbEntity
  8
RACCORDO
100
AcDbLine
 62
7
  6
CONTINUOUS
 10
-10.4
 20
5.239274759
 11
-9.94945853
 21
5.239274759
  0
LINE
  5
33C
100
AcDbEntity
  8
RACCORDO
100
AcDbLine
 62
7
  6
CONTINUOUS
 10
9.9494585363
 20
5.2392747577
 11
10.4
 21
5.239274759
  0
LINE
  5
33D
100
AcDbEntity
  8
0
100
AcDbLine
 62
7
  6
CONTINUOUS
 10
5.6489362121
 20
1.7874999702
 11
5.7446808815
 21
1.7250000298
  0
LINE
  5
33E
100
AcDbEntity
  8
0
100
AcDbLine
 62
7
  6
CONTINUOUS
 10
5.8723404407
 20
1.8187500298
 11
5.7446808815
 21
1.9124999851
  0
LINE
  5
33F
100
AcDbEntity
  8
0
100
AcDbLine
 62
7
  6
CONTINUOUS
 10
5.5212765634
 20
2.6
 11
5.7446808815
 21
2.4125
  0
LINE
  5
340
100
AcDbEntity
  8
0
100
AcDbLine
 62
7
  6
CONTINUOUS
 10
6.0
 20
2.4125
 11
5.7765957713
 21
2.6
  0
LINE
  5
341
100
AcDbEntity
  8
0
100
AcDbLine
 62
7
  6
CONTINUOUS
 10
4.7553191409
 20
1.1312499702
 11
4.6914893612
 21
1.2249999702
  0
LINE
  5
342
100
AcDbEntity
  8
0
100
AcDbLine
 62
7
  6
CONTINUOUS
 10
5.074468106
 20
1.19375
 11
5.2021276653
 21
1.00625
  0
LINE
  5
343
100
AcDbEntity
  8
0
100
AcDbLine
 62
7
  6
CONTINUOUS
 10
5.7446808815
 20
0.2875000596
 11
5.8085106611
 21
0.1937500596
  0
LINE
  5
344
100
AcDbEntity
  8
0
100
AcDbLine
 62
7
  6
CONTINUOUS
 10
5.2978723347
 20
1.1312499702
 11
5.2340425551
 21
1.2249999702
  0
LINE
  5
345
100
AcDbEntity
  8
0
100
AcDbLine
 62
7
  6
CONTINUOUS
 10
5.7446808815
 20
1.7250000298
 11
5.8085106611
 21
1.6312500298
  0
LINE
  5
346
100
AcDbEntity
  8
0
100
AcDbLine
 62
7
  6
CONTINUOUS
 10
-8.0
 20
20.575
 11
-7.9235336933
 21
20.4602859775
  0
LINE
  5
347
100
AcDbEntity
  8
0
100
AcDbLine
 62
7
  6
CONTINUOUS
 10
-8.0
 20
20.9
 11
-7.9278627373
 21
20.791780368
  0
LINE
  5
348
100
AcDbEntity
  8
0
100
AcDbLine
 62
7
  6
CONTINUOUS
 10
4.5319148926
 20
1.19375
 11
4.6276595704
 21
1.0375000596
  0
LINE
  5
349
100
AcDbEntity
  8
0
100
AcDbLine
 62
7
  6
CONTINUOUS
 10
5.9680851102
 20
0.2249999404
 11
5.8723404407
 21
0.3812500596
  0
LINE
  5
34A
100
AcDbEntity
  8
0
100
AcDbLine
 62
7
  6
CONTINUOUS
 10
5.9680851102
 20
1.6625
 11
5.8723404407
 21
1.8187500298
  0
LINE
  5
34B
100
AcDbEntity
  8
0
100
AcDbLine
 62
7
  6
CONTINUOUS
 10
5.9680851102
 20
-1.0874998808
 11
5.9042553306
 21
-0.9625
  0
LINE
  5
34C
100
AcDbEntity
  8
0
100
AcDbLine
 62
7
  6
CONTINUOUS
 10
4.6914893612
 20
1.2249999702
 11
4.6595744714
 21
1.3187499702
  0
LINE
  5
34D
100
AcDbEntity
  8
0
100
AcDbLine
 62
7
  6
CONTINUOUS
 10
5.2340425551
 20
1.2249999702
 11
5.2021276653
 21
1.3187499702
  0
LINE
  5
34E
100
AcDbEntity
  8
0
100
AcDbLine
 62
7
  6
CONTINUOUS
 10
5.8085106611
 20
1.6312500298
 11
5.8404255509
 21
1.5375000298
  0
LINE
  5
34F
100
AcDbEntity
  8
0
100
AcDbLine
 62
7
  6
CONTINUOUS
 10
4.6914893612
 20
-0.11875
 11
4.6595744714
 21
0.0374999404
  0
LINE
  5
350
100
AcDbEntity
  8
0
100
AcDbLine
 62
7
  6
CONTINUOUS
 10
4.5
 20
1.3500000298
 11
4.5319148926
 21
1.19375
  0
LINE
  5
351
100
AcDbEntity
  8
0
100
AcDbLine
 62
7
  6
CONTINUOUS
 10
5.0425531715
 20
1.3500000298
 11
5.074468106
 21
1.19375
  0
LINE
  5
352
100
AcDbEntity
  8
0
100
AcDbLine
 62
7
  6
CONTINUOUS
 10
5.8085106611
 20
-1.1187501192
 11
5.8404255509
 21
-1.2749998808
  0
LINE
  5
353
100
AcDbEntity
  8
0
100
AcDbLine
 62
7
  6
CONTINUOUS
 10
5.8085106611
 20
0.1937500596
 11
5.8404255509
 21
0.0374999404
  0
LINE
  5
354
100
AcDbEntity
  8
0
100
AcDbLine
 62
7
  6
CONTINUOUS
 10
6.0
 20
1.5062499702
 11
5.9680851102
 21
1.6625
  0
LINE
  5
355
100
AcDbEntity
  8
0
100
AcDbLine
 62
7
  6
CONTINUOUS
 10
6.0
 20
0.0374999404
 11
5.9680851102
 21
0.2249999404
  0
LINE
  5
356
100
AcDbEntity
  8
0
100
AcDbLine
 62
7
  6
CONTINUOUS
 10
6.0
 20
-1.3062501192
 11
5.9680851102
 21
-1.0874998808
  0
LINE
  5
357
100
AcDbEntity
  8
0
100
AcDbLine
 62
7
  6
CONTINUOUS
 10
6.9971549266
 20
19.3598829709
 11
7.0
 21
16.1
  0
LINE
  5
358
100
AcDbEntity
  8
0
100
AcDbLine
 62
7
  6
CONTINUOUS
 10
6.9301797403
 20
20.9
 11
6.9301797403
 21
20.1997600453
  0
LINE
  5
359
100
AcDbEntity
  8
0
100
AcDbLine
 62
7
  6
CONTINUOUS
 10
6.9301797403
 20
-20.1997600453
 11
6.9301797403
 21
-20.9
  0
LINE
  5
35A
100
AcDbEntity
  8
0
100
AcDbLine
 62
7
  6
CONTINUOUS
 10
7.0
 20
-16.1
 11
7.0
 21
16.1
  0
LINE
  5
35B
100
AcDbEntity
  8
DRAFT
100
AcDbLine
 62
7
  6
CONTINUOUS
 10
8.0
 20
20.9
 11
8.0
 21
20.575
  0
LINE
  5
35C
100
AcDbEntity
  8
DRAFT
100
AcDbLine
 62
7
  6
CONTINUOUS
 10
8.0
 20
-20.575
 11
8.0
 21
-20.9
  0
LINE
  5
35D
100
AcDbEntity
  8
0
100
AcDbLine
 62
7
  6
CONTINUOUS
 10
6.9971549266
 20
-19.3598829709
 11
7.0
 21
-16.1
  0
LINE
  5
35E
100
AcDbEntity
  8
0
100
AcDbLine
 62
253
  6
CONTINUOUS
 10
-9.8
 20
-20.700068535
 11
-9.6880363705
 21
-20.5881049055
  0
LINE
  5
35F
100
AcDbEntity
  8
0
100
AcDbLine
 62
253
  6
CONTINUOUS
 10
-9.600068535
 20
-20.9
 11
-9.4881049055
 21
-20.7880363705
  0
LINE
  5
360
100
AcDbEntity
  8
0
100
AcDbLine
 62
253
  6
CONTINUOUS
 10
-9.6880363705
 20
20.5881049055
 11
-9.8
 21
20.700068535
  0
LINE
  5
361
100
AcDbEntity
  8
0
100
AcDbLine
 62
253
  6
CONTINUOUS
 10
-9.4881049055
 20
20.7880363705
 11
-9.600068535
 21
20.9
  0
LINE
  5
362
100
AcDbEntity
  8
0
100
AcDbLine
 62
7
  6
CONTINUOUS
 10
8.8
 20
-20.700022843
 11
8.8
 21
-20.575
  0
LINE
  5
363
100
AcDbEntity
  8
0
100
AcDbLine
 62
7
  6
CONTINUOUS
 10
8.8
 20
20.575
 11
8.8
 21
20.700022843
  0
LINE
  5
364
100
AcDbEntity
  8
0
100
AcDbLine
 62
7
  6
CONTINUOUS
 10
9.8
 20
20.700068535
 11
9.8
 21
5.3903805167
  0
LINE
  5
365
100
AcDbEntity
  8
0
100
AcDbLine
 62
7
  6
CONTINUOUS
 10
9.8
 20
-5.3903805167
 11
9.8
 21
-20.700068535
  0
LINE
  5
366
100
AcDbEntity
  8
SMUSSO
100
AcDbLine
 62
7
  6
CONTINUOUS
 10
9.9892439749
 20
5.1598517273
 11
9.9892439749
 21
-5.1598517273
  0
LINE
  5
367
100
AcDbEntity
  8
SMUSSO
100
AcDbLine
 62
7
  6
CONTINUOUS
 10
10.4
 20
5.239274759
 11
10.4
 21
-5.239274759
  0
LINE
  5
368
100
AcDbEntity
  8
RACCORDO
100
AcDbLine
 62
7
  6
CONTINUOUS
 10
11.0
 20
21.6001713375
 11
11.0
 21
-21.6001713375
  0
LINE
  5
369
100
AcDbEntity
  8
0
100
AcDbLine
 62
253
  6
CONTINUOUS
 10
0.3685808831
 20
-19.9421738608
 11
0.3835433758
 21
-19.9197272723
  0
LINE
  5
36A
100
AcDbEntity
  8
0
100
AcDbLine
 62
253
  6
CONTINUOUS
 10
0.5685199647
 20
-20.1421510178
 11
0.5835129148
 21
-20.1196587373
  0
LINE
  5
36B
100
AcDbEntity
  8
0
100
AcDbLine
 62
7
  6
CONTINUOUS
 10
6.9835738333
 20
-20.1196587373
 11
6.9301797403
 21
-20.1997600453
  0
LINE
  5
36C
100
AcDbEntity
  8
0
100
AcDbLine
 62
7
  6
CONTINUOUS
 10
-7.0
 20
16.1
 11
7.0
 21
16.1
  0
LINE
  5
36D
100
AcDbEntity
  8
0
100
AcDbLine
 62
7
  6
CONTINUOUS
 10
6.9301797403
 20
20.1997600453
 11
6.9835738333
 21
20.1196587373
  0
LINE
  5
36E
100
AcDbEntity
  8
0
100
AcDbLine
 62
7
  6
CONTINUOUS
 10
6.9301797403
 20
-20.9
 11
7.0031200288
 21
-20.7905756763
  0
LINE
  5
36F
100
AcDbEntity
  8
0
100
AcDbLine
 62
7
  6
CONTINUOUS
 10
8.8
 20
-20.575
 11
8.8751421748
 21
-20.4622724276
  0
LINE
  5
370
100
AcDbEntity
  8
0
100
AcDbLine
 62
253
  6
CONTINUOUS
 10
8.8
 20
-20.700022843
 11
8.8750453171
 21
-20.5874405756
  0
LINE
  5
371
100
AcDbEntity
  8
0
100
AcDbLine
 62
253
  6
CONTINUOUS
 10
8.9999390815
 20
-20.9
 11
9.0750148561
 21
-20.7873720406
  0
LINE
  5
372
100
AcDbEntity
  8
0
100
AcDbLine
 62
7
  6
CONTINUOUS
 10
6.3042956314
 20
19.996096559
 11
4.3
 21
19.75
  0
LINE
  5
373
100
AcDbEntity
  8
0
100
AcDbLine
 62
7
  6
CONTINUOUS
 10
-4.3
 20
19.75
 11
-6.3042956314
 21
19.996096559
  0
LINE
  5
374
100
AcDbEntity
  8
0
100
AcDbLine
 62
7
  6
CONTINUOUS
 10
6.9301797403
 20
20.9
 11
7.0031200247
 21
20.7905756825
  0
LINE
  5
375
100
AcDbEntity
  8
0
100
AcDbLine
 62
7
  6
CONTINUOUS
 10
8.8
 20
20.575
 11
8.8751421748
 21
20.4622724276
  0
LINE
  5
376
100
AcDbEntity
  8
0
100
AcDbLine
 62
253
  6
CONTINUOUS
 10
8.8750453171
 20
20.5874405756
 11
8.8
 21
20.700022843
  0
LINE
  5
377
100
AcDbEntity
  8
0
100
AcDbLine
 62
253
  6
CONTINUOUS
 10
9.0750148561
 20
20.7873720406
 11
8.9999390815
 21
20.9
  0
LINE
  5
378
100
AcDbEntity
  8
0
100
AcDbLine
 62
253
  6
CONTINUOUS
 10
-6.9971549266
 20
19.3598829709
 11
6.9971549266
 21
19.3598829709
  0
LINE
  5
379
100
AcDbEntity
  8
0
100
AcDbLine
 62
7
  6
CONTINUOUS
 10
3.7
 20
19.75
 11
4.3
 21
19.75
  0
LINE
  5
37A
100
AcDbEntity
  8
0
100
AcDbLine
 62
7
  6
CONTINUOUS
 10
-3.7
 20
19.75
 11
-4.3
 21
19.75
  0
LINE
  5
37B
100
AcDbEntity
  8
0
100
AcDbLine
 62
253
  6
CONTINUOUS
 10
-6.9835738333
 20
20.1196587373
 11
-6.3064524173
 21
20.1196587373
  0
LINE
  5
37C
100
AcDbEntity
  8
0
100
AcDbLine
 62
253
  6
CONTINUOUS
 10
-3.6935475827
 20
20.1196587373
 11
3.6935475827
 21
20.1196587373
  0
LINE
  5
37D
100
AcDbEntity
  8
0
100
AcDbLine
 62
253
  6
CONTINUOUS
 10
6.3064524173
 20
20.1196587373
 11
6.9835738333
 21
20.1196587373
  0
LINE
  5
37E
100
AcDbEntity
  8
0
100
AcDbLine
 62
7
  6
CONTINUOUS
 10
6.9301797403
 20
20.1997600453
 11
-6.9301797403
 21
20.1997600453
  0
LINE
  5
37F
100
AcDbEntity
  8
DRAFT
100
AcDbLine
 62
7
  6
CONTINUOUS
 10
-8.8
 20
20.575
 11
-8.0
 21
20.575
  0
LINE
  5
380
100
AcDbEntity
  8
DRAFT
100
AcDbLine
 62
7
  6
CONTINUOUS
 10
8.0
 20
20.575
 11
8.8
 21
20.575
  0
LINE
  5
381
100
AcDbEntity
  8
0
100
AcDbLine
 62
7
  6
CONTINUOUS
 10
-9.600068535
 20
20.9
 11
-8.9999390815
 21
20.9
  0
LINE
  5
382
100
AcDbEntity
  8
0
100
AcDbLine
 62
7
  6
CONTINUOUS
 10
6.9301797403
 20
20.9
 11
-6.9301797403
 21
20.9
  0
LINE
  5
383
100
AcDbEntity
  8
DRAFT
100
AcDbLine
 62
7
  6
CONTINUOUS
 10
-8.0
 20
20.9
 11
8.0
 21
20.9
  0
LINE
  5
384
100
AcDbEntity
  8
0
100
AcDbLine
 62
7
  6
CONTINUOUS
 10
8.9999390815
 20
20.9
 11
9.600068535
 21
20.9
  0
LINE
  5
385
100
AcDbEntity
  8
RACCORDO
100
AcDbLine
 62
7
  6
CONTINUOUS
 10
-10.5001713375
 20
22.1
 11
10.5001713375
 21
22.1
  0
ARC
  5
386
100
AcDbEntity
  8
0
100
AcDbCircle
 62
253
  6
CONTINUOUS
 10
-17919.9813417655
 20
0.0
 40
17910.3051385324
100
AcDbArc
 50
359.9341378179
 51
0.0658621821
  0
ARC
  5
387
100
AcDbEntity
  8
0
100
AcDbCircle
 62
253
  6
CONTINUOUS
 10
17919.9813417513
 20
-0.0
 40
17910.3051385182
100
AcDbArc
 50
179.9341378179
 51
180.0658621821
  0
CIRCLE
  5
388
100
AcDbEntity
  8
0
100
AcDbCircle
 62
7
  6
CONTINUOUS
 10
-0.0
 20
-14.0
 40
0.6874886635
  0
CIRCLE
  5
389
100
AcDbEntity
  8
0
100
AcDbCircle
 62
7
  6
CONTINUOUS
 10
-0.0
 20
-14.0
 40
0.6
  0
ARC
  5
38A
100
AcDbEntity
  8
0
100
AcDbCircle
 62
253
  6
CONTINUOUS
 10
9.4879402466
 20
20.5879402466
 40
0.2000969867
100
AcDbArc
 50
0.0471486263
 51
89.9528513737
  0
ARC
  5
38B
100
AcDbEntity
  8
0
100
AcDbCircle
 62
253
  6
CONTINUOUS
 10
-9.4879402466
 20
20.5879402466
 40
0.2000969867
100
AcDbArc
 50
90.0471486243
 51
179.9528513757
  0
ARC
  5
38C
100
AcDbEntity
  8
0
100
AcDbCircle
 62
253
  6
CONTINUOUS
 10
-9.4879425403
 20
-20.5879425403
 40
0.2000941966
100
AcDbArc
 50
180.0464923627
 51
269.9535076373
  0
ARC
  5
38D
100
AcDbEntity
  8
0
100
AcDbCircle
 62
253
  6
CONTINUOUS
 10
9.4879425403
 20
-20.5879425403
 40
0.2000941966
100
AcDbArc
 50
270.0464923556
 51
359.9535076444
  0
ARC
  5
38E
100
AcDbEntity
  8
0
100
AcDbCircle
 62
253
  6
CONTINUOUS
 10
-9.0751042393
 20
-20.5873104317
 40
0.200060837
100
AcDbArc
 50
270.0255985044
 51
359.9627275118
  0
ARC
  5
38F
100
AcDbEntity
  8
0
100
AcDbCircle
 62
253
  6
CONTINUOUS
 10
9.0751042525
 20
-20.5873104449
 40
0.200060837
100
AcDbArc
 50
180.0372687216
 51
269.974397711
  0
ARC
  5
390
100
AcDbEntity
  8
0
100
AcDbCircle
 62
253
  6
CONTINUOUS
 10
9.0751042726
 20
20.5873104246
 40
0.200060837
100
AcDbArc
 50
90.0256080424
 51
179.9627254728
  0
ARC
  5
391
100
AcDbEntity
  8
0
100
AcDbCircle
 62
253
  6
CONTINUOUS
 10
-9.0751042663
 20
20.5873104851
 40
0.200060837
100
AcDbArc
 50
0.0372571963
 51
89.9743937334
  0
ARC
  5
392
100
AcDbEntity
  8
0
100
AcDbCircle
 62
253
  6
CONTINUOUS
 10
0.5836023098
 20
-19.9195971411
 40
0.2000608366
100
AcDbArc
 50
180.0372688638
 51
269.9743981202
  0
ARC
  5
393
100
AcDbEntity
  8
0
100
AcDbCircle
 62
253
  6
CONTINUOUS
 10
-0.5836022974
 20
-19.9195971285
 40
0.2000608367
100
AcDbArc
 50
270.0255983448
 51
359.9627275437
  0
SPLINE
  5
394
100
AcDbEntity
  8
0
100
AcDbSpline
 62
7
  6
CONTINUOUS
 70
0
 71
3
 72
18
 73
14
 74
12
 42
0.0000001
 43
0.0000001
 44
0.0000000001
 12
0.0003509099
 22
-0.429012073
 32
0.0
 13
0.2379522452
 23
-0.3569736838
 33
0.0
 40
0.0
 40
0.0
 40
0.0
 40
0.0
 40
0.1940638492
 40
0.3799561132
 40
0.5506226635
 40
0.7003180419
 40
0.8238912408
 40
0.8744418726
 40
0.9169332285
 40
0.9509798472
 40
0.9762658222
 40
0.9926316392
 40
1.0
 40
1.0
 40
1.0
 40
1.0
 10
-7.0107629571
 20
-20.361772252
 30
0.0
 10
-7.0107402575
 20
-20.3895241635
 30
0.0
 10
-7.0106079093
 20
-20.4438594325
 30
0.0
 10
-7.0101498975
 20
-20.522599364
 30
0.0
 10
-7.0094520105
 20
-20.594993196
 30
0.0
 10
-7.0085358973
 20
-20.6584696974
 30
0.0
 10
-7.0075904727
 20
-20.7047721023
 30
0.0
 10
-7.0066960619
 20
-20.7357299109
 30
0.0
 10
-7.0060713983
 20
-20.7539073597
 30
0.0
 10
-7.0053488032
 20
-20.768414587
 30
0.0
 10
-7.0048183007
 20
-20.7793137118
 30
0.0
 10
-7.003903837
 20
-20.7861123573
 30
0.0
 10
-7.0037044639
 20
-20.7896989123
 30
0.0
 10
-7.0031200246
 20
-20.7905756826
 30
0.0
 11
-7.0107629571
 21
-20.361772252
 31
0.0
 11
-7.0105571408
 21
-20.4450277597
 31
0.0
 11
-7.0100842468
 21
-20.5247764099
 31
0.0
 11
-7.0093608133
 21
-20.5979908709
 31
0.0
 11
-7.008411798
 21
-20.6622050046
 31
0.0
 11
-7.0072712113
 21
-20.7152071455
 31
0.0
 11
-7.0066411935
 21
-20.736884831
 31
0.0
 11
-7.0059784337
 21
-20.7551020898
 31
0.0
 11
-7.0052883604
 21
-20.769692195
 31
0.0
 11
-7.0045770026
 21
-20.7805168383
 31
0.0
 11
-7.0038517138
 21
-20.7875004119
 31
0.0
 11
-7.0031200246
 21
-20.7905756826
 31
0.0
  0
SPLINE
  5
395
100
AcDbEntity
  8
0
100
AcDbSpline
 62
7
  6
CONTINUOUS
 70
0
 71
3
 72
9
 73
5
 74
3
 42
0.0000001
 43
0.0000001
 44
0.0000000001
 12
-0.0333097626
 22
-40.7235334077
 32
0.0
 13
0.0333097627
 23
-40.7235334077
 33
0.0
 40
0.0
 40
0.0
 40
0.0
 40
0.0
 40
0.2499315046
 40
1.0
 40
1.0
 40
1.0
 40
1.0
 10
-7.0107629572
 20
20.3617722283
 30
0.0
 10
-7.0135380102
 20
16.9690742365
 30
0.0
 10
-7.021854378
 20
3.3945609661
 30
0.0
 10
-7.0190911583
 20
-10.1799591079
 30
0.0
 10
-7.0107629571
 20
-20.361772252
 30
0.0
 11
-7.0107629572
 21
20.3617722283
 31
0.0
 11
-7.01700296
 21
10.183676761
 31
0.0
 11
-7.0107629571
 21
-20.361772252
 31
0.0
  0
SPLINE
  5
396
100
AcDbEntity
  8
0
100
AcDbSpline
 62
7
  6
CONTINUOUS
 70
0
 71
3
 72
18
 73
14
 74
12
 42
0.0000001
 43
0.0000001
 44
0.0000000001
 12
-0.2379522548
 22
-0.3569736983
 32
0.0
 13
-0.0003509099
 23
-0.4290120904
 33
0.0
 40
0.0
 40
0.0
 40
0.0
 40
0.0
 40
0.0073683602
 40
0.0237341752
 40
0.0490201462
 40
0.0830667591
 40
0.125558109
 40
0.176108734
 40
0.2996819188
 40
0.4493772678
 40
0.6200437821
 40
0.8059360933
 40
1.0
 40
1.0
 40
1.0
 40
1.0
 10
-7.0031200289
 20
20.7905756762
 30
0.0
 10
-7.0037044682
 20
20.7896989059
 30
0.0
 10
-7.0039038412
 20
20.7861123512
 30
0.0
 10
-7.004818305
 20
20.7793137063
 30
0.0
 10
-7.0053488075
 20
20.7684145828
 30
0.0
 10
-7.0060714027
 20
20.7539073571
 30
0.0
 10
-7.0066960663
 20
20.7357299103
 30
0.0
 10
-7.0075904772
 20
20.7047721042
 30
0.0
 10
-7.0085359014
 20
20.6584697047
 30
0.0
 10
-7.009452015
 20
20.5949932121
 30
0.0
 10
-7.0101499036
 20
20.5225993798
 30
0.0
 10
-7.0106079121
 20
20.4438594353
 30
0.0
 10
-7.0107402575
 20
20.389524149
 30
0.0
 10
-7.0107629572
 20
20.3617722283
 30
0.0
 11
-7.0031200289
 21
20.7905756762
 31
0.0
 11
-7.0038517181
 21
20.7875004056
 31
0.0
 11
-7.0045770069
 21
20.7805168326
 31
0.0
 11
-7.0052883647
 21
20.7696921906
 31
0.0
 11
-7.0059784381
 21
20.7551020873
 31
0.0
 11
-7.0066411979
 21
20.7368848303
 31
0.0
 11
-7.0072712157
 21
20.7152071469
 31
0.0
 11
-7.0084118023
 21
20.6622050099
 31
0.0
 11
-7.009360818
 21
20.5979908861
 31
0.0
 11
-7.0100842521
 21
20.5247764377
 31
0.0
 11
-7.0105571435
 21
20.445027764
 31
0.0
 11
-7.0107629572
 21
20.3617722283
 31
0.0
  0
SPLINE
  5
397
100
AcDbEntity
  8
0
100
AcDbSpline
 62
7
  6
CONTINUOUS
 70
0
 71
3
 72
9
 73
5
 74
3
 42
0.0000001
 43
0.0000001
 44
0.0000000001
 12
0.0333097627
 22
-40.7235334074
 32
0.0
 13
-0.0333097626
 23
-40.7235334074
 33
0.0
 40
0.0
 40
0.0
 40
0.0
 40
0.0
 40
0.2499315046
 40
1.0
 40
1.0
 40
1.0
 40
1.0
 10
7.0107629571
 20
20.3617722516
 30
0.0
 10
7.0135380102
 20
16.9690742598
 30
0.0
 10
7.021854378
 20
3.3945609895
 30
0.0
 10
7.0190911583
 20
-10.1799590844
 30
0.0
 10
7.0107629572
 20
-20.3617722285
 30
0.0
 11
7.0107629571
 21
20.3617722516
 31
0.0
 11
7.01700296
 21
10.1836767844
 31
0.0
 11
7.0107629572
 21
-20.3617722285
 31
0.0
  0
SPLINE
  5
398
100
AcDbEntity
  8
0
100
AcDbSpline
 62
7
  6
CONTINUOUS
 70
0
 71
3
 72
18
 73
14
 74
12
 42
0.0000001
 43
0.0000001
 44
0.0000000001
 12
0.2379522453
 22
-0.3569736841
 32
0.0
 13
0.0003509099
 23
-0.4290120733
 33
0.0
 40
0.0
 40
0.0
 40
0.0
 40
0.0
 40
0.0073683589
 40
0.0237341701
 40
0.0490201353
 40
0.0830667358
 40
0.1255580677
 40
0.1761086912
 40
0.299681943
 40
0.4493773653
 40
0.6200439111
 40
0.8059361555
 40
1.0
 40
1.0
 40
1.0
 40
1.0
 10
7.0031200247
 20
20.7905756825
 30
0.0
 10
7.0037044639
 20
20.7896989124
 30
0.0
 10
7.0039038371
 20
20.7861123586
 30
0.0
 10
7.0048183006
 20
20.7793137155
 30
0.0
 10
7.0053488029
 20
20.7684145956
 30
0.0
 10
7.0060713978
 20
20.7539073756
 30
0.0
 10
7.0066960614
 20
20.7357299341
 30
0.0
 10
7.0075904724
 20
20.7047721224
 30
0.0
 10
7.0085358969
 20
20.6584697049
 30
0.0
 10
7.0094520108
 20
20.5949931903
 30
0.0
 10
7.0101498977
 20
20.5225993554
 30
0.0
 10
7.0106079094
 20
20.443859428
 30
0.0
 10
7.0107402575
 20
20.3895241623
 30
0.0
 10
7.0107629571
 20
20.3617722516
 30
0.0
 11
7.0031200247
 21
20.7905756825
 31
0.0
 11
7.0038517139
 21
20.7875004125
 31
0.0
 11
7.0045770026
 21
20.7805168415
 31
0.0
 11
7.0052883602
 21
20.7696922023
 31
0.0
 11
7.0059784332
 21
20.7551021049
 31
0.0
 11
7.0066411929
 21
20.7368848563
 31
0.0
 11
7.0072712107
 21
20.7152071745
 31
0.0
 11
7.0084117978
 21
20.6622050109
 31
0.0
 11
7.0093608136
 21
20.5979908582
 31
0.0
 11
7.0100842471
 21
20.5247763991
 31
0.0
 11
7.0105571409
 21
20.4450277573
 31
0.0
 11
7.0107629571
 21
20.3617722516
 31
0.0
  0
SPLINE
  5
399
100
AcDbEntity
  8
0
100
AcDbSpline
 62
7
  6
CONTINUOUS
 70
0
 71
3
 72
18
 73
14
 74
12
 42
0.0000001
 43
0.0000001
 44
0.0000000001
 12
-0.0003509099
 22
-0.4290120903
 32
0.0
 13
-0.2379522547
 23
-0.3569736982
 33
0.0
 40
0.0
 40
0.0
 40
0.0
 40
0.0
 40
0.1940639065
 40
0.3799562128
 40
0.5506227311
 40
0.7003181218
 40
0.8238913542
 40
0.8744419661
 40
0.9169332861
 40
0.9509798772
 40
0.9762658357
 40
0.9926316426
 40
1.0
 40
1.0
 40
1.0
 40
1.0
 10
7.0107629572
 20
-20.3617722285
 30
0.0
 10
7.0107402575
 20
-20.3895241492
 30
0.0
 10
7.010607912
 20
-20.4438594347
 30
0.0
 10
7.0101499036
 20
-20.522599379
 30
0.0
 10
7.0094520151
 20
-20.5949932172
 30
0.0
 10
7.0085359007
 20
-20.6584697231
 30
0.0
 10
7.0075904765
 20
-20.7047721335
 30
0.0
 10
7.0066960655
 20
-20.7357299402
 30
0.0
 10
7.0060714018
 20
-20.7539073777
 30
0.0
 10
7.005348807
 20
-20.7684145943
 30
0.0
 10
7.0048183046
 20
-20.7793137117
 30
0.0
 10
7.0039038413
 20
-20.7861123533
 30
0.0
 10
7.0037044679
 20
-20.7896989063
 30
0.0
 10
7.0031200288
 20
-20.7905756763
 30
0.0
 11
7.0107629572
 21
-20.3617722285
 31
0.0
 11
7.0105571435
 21
-20.4450277641
 31
0.0
 11
7.0100842521
 21
-20.5247764356
 31
0.0
 11
7.009360818
 21
-20.5979908858
 31
0.0
 11
7.0084118018
 21
-20.6622050274
 31
0.0
 11
7.0072712147
 21
-20.7152071848
 31
0.0
 11
7.006641197
 21
-20.7368848626
 31
0.0
 11
7.0059784373
 21
-20.7551021068
 31
0.0
 11
7.0052883642
 21
-20.7696922007
 31
0.0
 11
7.0045770066
 21
-20.7805168374
 31
0.0
 11
7.003851718
 21
-20.7875004069
 31
0.0
 11
7.0031200288
 21
-20.7905756763
 31
0.0
  0
SPLINE
  5
39A
100
AcDbEntity
  8
0
100
AcDbSpline
 62
7
  6
CONTINUOUS
 70
0
 71
3
 72
59
 73
55
 74
53
 42
0.0000001
 43
0.0000001
 44
0.0000000001
 12
-0.0000332064
 22
-1.6690878043
 32
0.0
 13
-0.3786413433
 23
1.6255721555
 33
0.0
 40
0.0
 40
0.0
 40
0.0
 40
0.0
 40
0.0227109248
 40
0.0464749909
 40
0.069626123
 40
0.0921838043
 40
0.1141869201
 40
0.1356795432
 40
0.1567060381
 40
0.1773150221
 40
0.1975543294
 40
0.2174745893
 40
0.2371268431
 40
0.2565636759
 40
0.2758370802
 40
0.2950015042
 40
0.3140803048
 40
0.3330658187
 40
0.3519819404
 40
0.37085011
 40
0.3896933837
 40
0.4085321791
 40
0.4273856827
 40
0.4457906445
 40
0.4491876868
 40
0.4676560242
 40
0.4866806763
 40
0.5057969194
 40
0.5250249491
 40
0.5443875196
 40
0.563821819
 40
0.5828283711
 40
0.5858899393
 40
0.6049248683
 40
0.6244436176
 40
0.6439636536
 40
0.6634809439
 40
0.6829897278
 40
0.7024932338
 40
0.7219942459
 40
0.7415005996
 40
0.7610239628
 40
0.7805781818
 40
0.8001823727
 40
0.8198582133
 40
0.8396315591
 40
0.8595306293
 40
0.8795849025
 40
0.8998312922
 40
0.9203037633
 40
0.9410410519
 40
0.9620843943
 40
0.9834762431
 40
1.0
 40
1.0
 40
1.0
 40
1.0
 10
0.9667877667
 20
0.5880987667
 30
0.0
 10
0.9667875153
 20
0.5754632575
 30
0.0
 10
0.9662487155
 20
0.5496028399
 30
0.0
 10
0.9637125455
 20
0.51093484
 30
0.0
 10
0.9593574821
 20
0.4725137187
 30
0.0
 10
0.9532833409
 20
0.435318522
 30
0.0
 10
0.945534769
 20
0.3993785963
 30
0.0
 10
0.9361518985
 20
0.3647115673
 30
0.0
 10
0.9251738542
 20
0.3313311431
 30
0.0
 10
0.9126343082
 20
0.2992524166
 30
0.0
 10
0.8985709543
 20
0.2684867675
 30
0.0
 10
0.8830107857
 20
0.2390506198
 30
0.0
 10
0.8659879508
 20
0.2109557355
 30
0.0
 10
0.8475270657
 20
0.1842198423
 30
0.0
 10
0.8276543189
 20
0.1588595933
 30
0.0
 10
0.8064061046
 20
0.1349056416
 30
0.0
 10
0.7838457545
 20
0.1124091048
 30
0.0
 10
0.7600393565
 20
0.091443604
 30
0.0
 10
0.7350681952
 20
0.072070408
 30
0.0
 10
0.7090019263
 20
0.0543380673
 30
0.0
 10
0.6819141654
 20
0.0382930169
 30
0.0
 10
0.6538789242
 20
0.0239862204
 30
0.0
 10
0.6252312035
 20
0.0115492378
 30
0.0
 10
0.6039362618
 20
0.0038754429
 30
0.0
 10
0.5826091953
 20
-0.002989147
 30
0.0
 10
0.5607101394
 20
-0.0092114257
 30
0.0
 10
0.5299107942
 20
-0.0158918658
 30
0.0
 10
0.4983422876
 20
-0.0207347007
 30
0.0
 10
0.4663486533
 20
-0.0236498691
 30
0.0
 10
0.4340607119
 20
-0.0246126858
 30
0.0
 10
0.4018958591
 20
-0.0236577119
 30
0.0
 10
0.3788857768
 20
-0.0215565206
 30
0.0
 10
0.3561920974
 20
-0.018739292
 30
0.0
 10
0.3333049179
 20
-0.0151397873
 30
0.0
 10
0.3017336987
 20
-0.0081794713
 30
0.0
 10
0.2703724733
 20
0.0007128665
 30
0.0
 10
0.2396031873
 20
0.0114604156
 30
0.0
 10
0.2095384717
 20
0.02402078
 30
0.0
 10
0.1802838668
 20
0.0383465415
 30
0.0
 10
0.1519357044
 20
0.0543886962
 30
0.0
 10
0.1245833808
 20
0.0720957171
 30
0.0
 10
0.0983093167
 20
0.0914164715
 30
0.0
 10
0.0731874629
 20
0.1122984345
 30
0.0
 10
0.0492827686
 20
0.1346876318
 30
0.0
 10
0.0266580293
 20
0.1585377426
 30
0.0
 10
0.0053657645
 20
0.183799332
 30
0.0
 10
-0.0145441784
 20
0.2104272969
 30
0.0
 10
-0.0330276362
 20
0.2383803354
 30
0.0
 10
-0.050041153
 20
0.2676211344
 30
0.0
 10
-0.0655469704
 20
0.298114884
 30
0.0
 10
-0.0795143543
 20
0.3298288624
 30
0.0
 10
-0.0918822074
 20
0.3627449711
 30
0.0
 10
-0.1018240656
 20
0.3940220528
 30
0.0
 10
-0.1071372408
 20
0.4144469136
 30
0.0
 10
-0.1092227667
 20
0.4234004333
 30
0.0
 11
0.9667877667
 21
0.5880987667
 31
0.0
 11
0.9659853333
 21
0.5502007333
 31
0.0
 11
0.9633741
 21
0.5106224667
 31
0.0
 11
0.9590034667
 21
0.4722291667
 31
0.0
 11
0.9529184
 21
0.4350734
 31
0.0
 11
0.9451619667
 21
0.3991767
 31
0.0
 11
0.9357747
 21
0.3645536333
 31
0.0
 11
0.9247958667
 21
0.3312200333
 31
0.0
 11
0.9122603
 21
0.2991873
 31
0.0
 11
0.8982041
 21
0.2684693667
 31
0.0
 11
0.8826570333
 21
0.2390795333
 31
0.0
 11
0.8656507667
 21
0.2110311
 31
0.0
 11
0.8472112667
 21
0.1843392667
 31
0.0
 11
0.8273651333
 21
0.1590217667
 31
0.0
 11
0.8061364333
 21
0.1350944333
 31
0.0
 11
0.7835834333
 21
0.112613
 31
0.0
 11
0.7598005
 21
0.0916718333
 31
0.0
 11
0.7348535
 21
0.0723203333
 31
0.0
 11
0.708814
 21
0.0546079
 31
0.0
 11
0.6817529333
 21
0.0385807667
 31
0.0
 11
0.6537469333
 21
0.0242851667
 31
0.0
 11
0.6248770667
 21
0.0117641667
 31
0.0
 11
0.5959850333
 21
0.0013268333
 31
0.0
 11
0.5905877667
 21
-0.0004104
 31
0.0
 11
0.5609306667
 21
-0.008816
 31
0.0
 11
0.5299017667
 21
-0.0155622667
 31
0.0
 11
0.4983643
 21
-0.0204022
 31
0.0
 11
0.4664037667
 21
-0.0233180667
 31
0.0
 11
0.4341006
 21
-0.0242915
 31
0.0
 11
0.4016777333
 21
-0.0233155333
 31
0.0
 11
0.3700832667
 21
-0.0204560333
 31
0.0
 11
0.3650121667
 21
-0.0198265
 31
0.0
 11
0.3336305
 21
-0.0148681333
 31
0.0
 11
0.3018131
 21
-0.0078672667
 31
0.0
 11
0.2704688
 21
0.0010228333
 31
0.0
 11
0.2397147667
 21
0.0117648
 31
0.0
 11
0.2096694333
 21
0.0243168333
 31
0.0
 11
0.1804335
 21
0.0386333333
 31
0.0
 11
0.1521057667
 21
0.0546636333
 31
0.0
 11
0.1247749
 21
0.0723564333
 31
0.0
 11
0.0985219667
 21
0.0916604333
 31
0.0
 11
0.0734217
 21
0.1125218
 31
0.0
 11
0.0495387
 21
0.1348886
 31
0.0
 11
0.0269344
 21
0.1587120667
 31
0.0
 11
0.0056613667
 21
0.1839447
 31
0.0
 11
-0.0142316333
 21
0.2105415333
 31
0.0
 11
-0.0326983667
 21
0.2384588667
 31
0.0
 11
-0.0496995667
 21
0.2676637667
 31
0.0
 11
-0.0651959667
 21
0.2981182333
 31
0.0
 11
-0.0791514667
 21
0.3297925
 31
0.0
 11
-0.0915306
 21
0.3626618667
 31
0.0
 11
-0.1023010667
 21
0.3967035333
 31
0.0
 11
-0.1092227667
 21
0.4234004333
 31
0.0
  0
SPLINE
  5
39B
100
AcDbEntity
  8
0
100
AcDbSpline
 62
7
  6
CONTINUOUS
 70
0
 71
3
 72
9
 73
5
 74
3
 42
0.0000001
 43
0.0000001
 44
0.0000000001
 12
0.0072628196
 22
0.7745306315
 32
0.0
 13
0.0
 23
0.7745646827
 33
0.0
 40
0.0
 40
0.0
 40
0.0
 40
0.0
 40
0.016132394
 40
1.0
 40
1.0
 40
1.0
 40
1.0
 10
0.7241932333
 20
0.5765106667
 30
0.0
 10
0.7242322889
 20
0.5806756778
 30
0.0
 10
0.7266922843
 20
0.8388523718
 30
0.0
 10
0.7243104
 20
1.0970517667
 30
0.0
 10
0.7243104
 20
1.3510748
 30
0.0
 11
0.7241932333
 21
0.5765106667
 31
0.0
 11
0.7243104
 21
0.5890057
 31
0.0
 11
0.7243104
 21
1.3510748
 31
0.0
  0
SPLINE
  5
39C
100
AcDbEntity
  8
0
100
AcDbSpline
 62
7
  6
CONTINUOUS
 70
0
 71
3
 72
29
 73
25
 74
23
 42
0.0000001
 43
0.0000001
 44
0.0000000001
 12
0.4681331535
 22
0.0844689
 32
0.0
 13
0.0090238675
 23
0.4756072059
 33
0.0
 40
0.0
 40
0.0
 40
0.0
 40
0.0
 40
0.0433899341
 40
0.0474173934
 40
0.0902946141
 40
0.1310006426
 40
0.1714942383
 40
0.2118857818
 40
0.2522981235
 40
0.2928458163
 40
0.3336592233
 40
0.3748875917
 40
0.4168474427
 40
0.4597501972
 40
0.5038916515
 40
0.549563725
 40
0.5970406649
 40
0.6465719063
 40
0.6984049613
 40
0.7527564101
 40
0.8098269493
 40
0.8697998134
 40
0.9328331069
 40
1.0
 40
1.0
 40
1.0
 40
1.0
 10
0.4743223333
 20
0.2210954
 30
0.0
 10
0.4810930889
 20
0.2223171
 30
0.0
 10
0.4885478614
 20
0.2233774217
 30
0.0
 10
0.5025124003
 20
0.2265401628
 30
0.0
 10
0.5159319279
 20
0.2301892798
 30
0.0
 10
0.5345138237
 20
0.2367021958
 30
0.0
 10
0.5522010706
 20
0.2444208549
 30
0.0
 10
0.5692322049
 20
0.2533945373
 30
0.0
 10
0.5855626122
 20
0.2636047442
 30
0.0
 10
0.601151558
 20
0.2750278552
 30
0.0
 10
0.6159614298
 20
0.2876449856
 30
0.0
 10
0.6299689998
 20
0.3014678438
 30
0.0
 10
0.6431635059
 20
0.3165119731
 30
0.0
 10
0.6555383924
 20
0.3328207816
 30
0.0
 10
0.6670689478
 20
0.3504445999
 30
0.0
 10
0.6777312548
 20
0.3694427637
 30
0.0
 10
0.6874818781
 20
0.3898754724
 30
0.0
 10
0.696265919
 20
0.4117976243
 30
0.0
 10
0.7040183323
 20
0.435255989
 30
0.0
 10
0.7106630196
 20
0.4602904233
 30
0.0
 10
0.716116906
 20
0.4869292887
 30
0.0
 10
0.7202934271
 20
0.5151901848
 30
0.0
 10
0.7231127675
 20
0.5452257965
 30
0.0
 10
0.7239911983
 20
0.5658623139
 30
0.0
 10
0.7241932333
 20
0.5765106667
 30
0.0
 11
0.4743223333
 21
0.2210954
 31
0.0
 11
0.4946346
 21
0.2247605
 31
0.0
 11
0.4965035667
 21
0.2251816667
 31
0.0
 11
0.5161894667
 21
0.2305181333
 31
0.0
 11
0.5344579667
 21
0.2369376
 31
0.0
 11
0.5521134
 21
0.2446402
 31
0.0
 11
0.5691114333
 21
0.2535980667
 31
0.0
 11
0.5854121667
 21
0.2637884
 31
0.0
 11
0.6009719
 21
0.2751871333
 31
0.0
 11
0.615752
 21
0.2877759
 31
0.0
 11
0.6297163667
 21
0.3015464667
 31
0.0
 11
0.642884
 21
0.3165469667
 31
0.0
 11
0.6552283
 21
0.3327989333
 31
0.0
 11
0.6667359667
 21
0.3503625333
 31
0.0
 11
0.6773823
 21
0.3693011
 31
0.0
 11
0.6871248667
 21
0.3896760667
 31
0.0
 11
0.6959066667
 21
0.41154
 31
0.0
 11
0.7036631
 21
0.4349448333
 31
0.0
 11
0.7103169
 21
0.4599285667
 31
0.0
 11
0.7157844667
 21
0.4865203333
 31
0.0
 11
0.7199777667
 21
0.5147391333
 31
0.0
 11
0.7228049667
 21
0.5445900333
 31
0.0
 11
0.7241932333
 21
0.5765106667
 31
0.0
  0
SPLINE
  5
39D
100
AcDbEntity
  8
0
100
AcDbSpline
 62
7
  6
CONTINUOUS
 70
0
 71
3
 72
35
 73
31
 74
29
 42
0.0000001
 43
0.0000001
 44
0.0000000001
 12
0.0933265162
 22
-0.8045136777
 32
0.0
 13
0.8017095332
 23
0.1149518184
 33
0.0
 40
0.0
 40
0.0
 40
0.0
 40
0.0
 40
0.2466728257
 40
0.2859047616
 40
0.3226624349
 40
0.3579780601
 40
0.3919653481
 40
0.424743089
 40
0.4564247387
 40
0.4871190186
 40
0.5169385272
 40
0.5459889475
 40
0.5743682581
 40
0.6021768786
 40
0.6295029001
 40
0.6564270792
 40
0.6830277074
 40
0.7093648475
 40
0.7354965102
 40
0.7614661822
 40
0.7873093093
 40
0.8130456776
 40
0.8386924474
 40
0.8642531614
 40
0.8905144061
 40
0.8988574498
 40
0.924981196
 40
0.9501829336
 40
0.975280567
 40
1.0
 40
1.0
 40
1.0
 40
1.0
 10
0.1112507
 20
0.8129238667
 30
0.0
 10
0.1189244052
 20
0.7467733126
 30
0.0
 10
0.1098036335
 20
0.669121546
 30
0.0
 10
0.1117371549
 20
0.5820334353
 30
0.0
 10
0.1140486135
 20
0.5520552631
 30
0.0
 10
0.1177630932
 20
0.5236510479
 30
0.0
 10
0.1228499682
 20
0.4965507272
 30
0.0
 10
0.1292411903
 20
0.4707378707
 30
0.0
 10
0.1368670796
 20
0.4461914528
 30
0.0
 10
0.1456751976
 20
0.4228956663
 30
0.0
 10
0.1556075786
 20
0.4008331198
 30
0.0
 10
0.1666154502
 20
0.3799910388
 30
0.0
 10
0.1786490877
 20
0.3603577234
 30
0.0
 10
0.1916654085
 20
0.341928507
 30
0.0
 10
0.2056207858
 20
0.3247023911
 30
0.0
 10
0.2204707743
 20
0.308683006
 30
0.0
 10
0.2361714435
 20
0.2938828343
 30
0.0
 10
0.2526751394
 20
0.2803181551
 30
0.0
 10
0.2699284607
 20
0.2680117541
 30
0.0
 10
0.2878712568
 20
0.2569869014
 30
0.0
 10
0.306437861
 20
0.2472762217
 30
0.0
 10
0.3255518816
 20
0.238909033
 30
0.0
 10
0.3451278916
 20
0.2319089448
 30
0.0
 10
0.3652830208
 20
0.2262680594
 30
0.0
 10
0.381202522
 20
0.2229634091
 30
0.0
 10
0.397402846
 20
0.2204412324
 30
0.0
 10
0.4134382536
 20
0.2187468229
 30
0.0
 10
0.4340728612
 20
0.218009469
 30
0.0
 10
0.4543298628
 20
0.2187196764
 30
0.0
 10
0.4677163983
 20
0.2201482187
 30
0.0
 10
0.4743223333
 20
0.2210954
 30
0.0
 11
0.1112507
 21
0.8129238667
 31
0.0
 11
0.1112507
 21
0.6131414
 31
0.0
 11
0.1120512333
 21
0.5813772
 31
0.0
 11
0.1143458
 21
0.5516954
 31
0.0
 11
0.1180761333
 21
0.5233372667
 31
0.0
 11
0.1231713
 21
0.4962863333
 31
0.0
 11
0.1295660667
 21
0.4705210667
 31
0.0
 11
0.1371939333
 21
0.4460218333
 31
0.0
 11
0.1459979
 21
0.4227734333
 31
0.0
 11
0.1559235
 21
0.4007562333
 31
0.0
 11
0.1669207
 21
0.3799563
 31
0.0
 11
0.1789401
 21
0.3603647667
 31
0.0
 11
0.1919399
 21
0.3419727667
 31
0.0
 11
0.2058764
 21
0.3247803
 31
0.0
 11
0.2207052667
 21
0.3087924333
 31
0.0
 11
0.2363853333
 21
0.2940180333
 31
0.0
 11
0.2528665667
 21
0.2804767333
 31
0.0
 11
0.2700983
 21
0.2681888
 31
0.0
 11
0.2880203667
 21
0.2571802
 31
0.0
 11
0.3065681667
 21
0.2474813333
 31
0.0
 11
0.3256631667
 21
0.2391232333
 31
0.0
 11
0.3452236667
 21
0.2321344
 31
0.0
 11
0.3651565667
 21
0.2265446
 31
0.0
 11
0.3859869
 21
0.2222461667
 31
0.0
 11
0.3926635
 21
0.2212062333
 31
0.0
 11
0.4137028333
 21
0.2189699333
 31
0.0
 11
0.4341012333
 21
0.2182498333
 31
0.0
 11
0.4544154
 21
0.2189661333
 31
0.0
 11
0.4743223333
 21
0.2210954
 31
0.0
  0
SPLINE
  5
39E
100
AcDbEntity
  8
0
100
AcDbSpline
 62
7
  6
CONTINUOUS
 70
0
 71
3
 72
9
 73
5
 74
3
 42
0.0000001
 43
0.0000001
 44
0.0000000001
 12
0.0359193897
 22
0.3094561555
 32
0.0
 13
-0.0524010141
 23
0.3070951782
 33
0.0
 40
0.0
 40
0.0
 40
0.0
 40
0.0
 40
0.7296046301
 40
1.0
 40
1.0
 40
1.0
 40
1.0
 10
-4.3311218852
 20
-2.9593901799
 30
0.0
 10
-4.3223862342
 20
-2.8841299653
 30
0.0
 10
-4.3220490182
 20
-2.7790758713
 30
0.0
 10
-4.3375825796
 20
-2.6763905412
 30
0.0
 10
-4.3423055768
 20
-2.6487115031
 30
0.0
 11
-4.3311218852
 21
-2.9593901799
 31
0.0
 11
-4.330342544
 21
-2.7320950058
 31
0.0
 11
-4.3423055768
 21
-2.6487115031
 31
0.0
  0
SPLINE
  5
39F
100
AcDbEntity
  8
0
100
AcDbSpline
 62
7
  6
CONTINUOUS
 70
0
 71
3
 72
9
 73
5
 74
3
 42
0.0000001
 43
0.0000001
 44
0.0000000001
 12
0.3500868714
 22
0.0054755299
 32
0.0
 13
0.0403787526
 23
0.3477935526
 33
0.0
 40
0.0
 40
0.0
 40
0.0
 40
0.0
 40
0.4986489615
 40
1.0
 40
1.0
 40
1.0
 40
1.0
 10
-4.5686150545
 20
-3.1834059324
 30
0.0
 10
-4.5104249029
 20
-3.18249581
 30
0.0
 10
-4.3890549213
 20
-3.1350713783
 30
0.0
 10
-4.3378698617
 20
-3.0175123995
 30
0.0
 10
-4.3311218852
 20
-2.9593901799
 30
0.0
 11
-4.5686150545
 21
-3.1834059324
 31
0.0
 11
-4.4068344084
 21
-3.1177605124
 31
0.0
 11
-4.3311218852
 21
-2.9593901799
 31
0.0
  0
SPLINE
  5
3A0
100
AcDbEntity
  8
0
100
AcDbSpline
 62
7
  6
CONTINUOUS
 70
0
 71
3
 72
9
 73
5
 74
3
 42
0.0000001
 43
0.0000001
 44
0.0000000001
 12
0.010569453
 22
-0.4732083381
 32
0.0
 13
0.4732700235
 23
0.007302701
 33
0.0
 40
0.0
 40
0.0
 40
0.0
 40
0.0
 40
0.4793791278
 40
1.0
 40
1.0
 40
1.0
 40
1.0
 10
-4.8638502642
 20
-2.8753486559
 30
0.0
 10
-4.8621613392
 20
-2.950964056
 30
0.0
 10
-4.8301617455
 20
-3.1266513854
 30
0.0
 10
-4.650746472
 20
-3.1846732452
 30
0.0
 10
-4.5686150545
 20
-3.1834059324
 30
0.0
 11
-4.8638502642
 21
-2.8753486559
 31
0.0
 11
-4.7976047003
 21
-3.0923656969
 31
0.0
 11
-4.5686150545
 21
-3.1834059324
 31
0.0
  0
SPLINE
  5
3A1
100
AcDbEntity
  8
0
100
AcDbSpline
 62
7
  6
CONTINUOUS
 70
0
 71
3
 72
9
 73
5
 74
3
 42
0.0000001
 43
0.0000001
 44
0.0000000001
 12
0.2727201758
 22
0.1023485726
 32
0.0
 13
0.0
 23
0.2912928502
 33
0.0
 40
0.0
 40
0.0
 40
0.0
 40
0.0
 40
0.6440858369
 40
1.0
 40
1.0
 40
1.0
 40
1.0
 10
-5.342398288
 20
-3.0957457362
 30
0.0
 10
-5.2838465538
 20
-3.0737719808
 30
0.0
 10
-5.1959253013
 20
-3.0084675667
 30
0.0
 10
-5.1749990835
 20
-2.9090522684
 30
0.0
 10
-5.1749990835
 20
-2.8744938515
 30
0.0
 11
-5.342398288
 21
-3.0957457362
 31
0.0
 11
-5.1983815468
 21
-2.9754979012
 31
0.0
 11
-5.1749990835
 21
-2.8744938515
 31
0.0
  0
SPLINE
  5
3A2
100
AcDbEntity
  8
0
100
AcDbSpline
 62
7
  6
CONTINUOUS
 70
0
 71
3
 72
9
 73
5
 74
3
 42
0.0000001
 43
0.0000001
 44
0.0000000001
 12
0.5782246948
 22
0.1662419216
 32
0.0
 13
0.5632133136
 23
0.2115914402
 33
0.0
 40
0.0
 40
0.0
 40
0.0
 40
0.0
 40
0.4413785828
 40
1.0
 40
1.0
 40
1.0
 40
1.0
 10
-5.918493746
 20
-3.2691570653
 30
0.0
 10
-5.8334217472
 20
-3.2446985241
 30
0.0
 10
-5.6414703019
 20
-3.186959861
 30
0.0
 10
-5.4472726278
 20
-3.1351455729
 30
0.0
 10
-5.342398288
 20
-3.0957457362
 30
0.0
 11
-5.918493746
 21
-3.2691570653
 31
0.0
 11
-5.6635376342
 21
-3.1948834629
 31
0.0
 11
-5.342398288
 21
-3.0957457362
 31
0.0
  0
SPLINE
  5
3A3
100
AcDbEntity
  8
0
100
AcDbSpline
 62
7
  6
CONTINUOUS
 70
0
 71
3
 72
9
 73
5
 74
3
 42
0.0000001
 43
0.0000001
 44
0.0000000001
 12
-0.5130783543
 22
-0.1397854835
 32
0.0
 13
-0.5131885061
 23
-0.1393805447
 33
0.0
 40
0.0
 40
0.0
 40
0.0
 40
0.0
 40
0.8019858277
 40
1.0
 40
1.0
 40
1.0
 40
1.0
 10
-5.40428613
 20
-3.5150415649
 30
0.0
 10
-5.5414466529
 20
-3.5524102238
 30
0.0
 10
-5.7131735407
 20
-3.5963850026
 30
0.0
 10
-5.8846208803
 20
-3.641413776
 30
0.0
 10
-5.918493746
 20
-3.6506135504
 30
0.0
 11
-5.40428613
 21
-3.5150415649
 31
0.0
 11
-5.8167119132
 21
-3.6236224322
 31
0.0
 11
-5.918493746
 21
-3.6506135504
 31
0.0
  0
SPLINE
  5
3A4
100
AcDbEntity
  8
0
100
AcDbSpline
 62
7
  6
CONTINUOUS
 70
0
 71
3
 72
9
 73
5
 74
3
 42
0.0000001
 43
0.0000001
 44
0.0000000001
 12
-0.1638490447
 22
-0.4109066951
 32
0.0
 13
-0.4268143195
 23
-0.1162770751
 33
0.0
 40
0.0
 40
0.0
 40
0.0
 40
0.0
 40
0.7573413784
 40
1.0
 40
1.0
 40
1.0
 40
1.0
 10
-5.0316626242
 20
-3.2864526086
 30
0.0
 10
-5.0730258447
 20
-3.3901848229
 30
0.0
 10
-5.2303488705
 20
-3.4697098966
 30
0.0
 10
-5.3697627386
 20
-3.5056363533
 30
0.0
 10
-5.40428613
 20
-3.5150415649
 30
0.0
 11
-5.0316626242
 21
-3.2864526086
 31
0.0
 11
-5.3010482358
 21
-3.485633398
 31
0.0
 11
-5.40428613
 21
-3.5150415649
 31
0.0
  0
SPLINE
  5
3A5
100
AcDbEntity
  8
0
100
AcDbSpline
 62
7
  6
CONTINUOUS
 70
0
 71
3
 72
17
 73
13
 74
11
 42
0.0000001
 43
0.0000001
 44
0.0000000001
 12
-0.4016598264
 22
-1.1133912506
 32
0.0
 13
-0.1514702125
 23
1.1738941467
 33
0.0
 40
0.0
 40
0.0
 40
0.0
 40
0.0
 40
0.0799595168
 40
0.1896577306
 40
0.3223977561
 40
0.3986068941
 40
0.483386777
 40
0.5877249163
 40
0.678993766
 40
0.8312459613
 40
0.9440219048
 40
1.0
 40
1.0
 40
1.0
 40
1.0
 10
-4.0608469654
 20
-3.2455644625
 30
0.0
 10
-4.0715524739
 20
-3.2752398713
 30
0.0
 10
-4.108101302
 20
-3.3415072354
 30
0.0
 10
-4.1928441822
 20
-3.4378874056
 30
0.0
 10
-4.3012073966
 20
-3.5061490782
 30
0.0
 10
-4.4117796454
 20
-3.5424931863
 30
0.0
 10
-4.515840004
 20
-3.5574887542
 30
0.0
 10
-4.6272546319
 20
-3.5546433555
 30
0.0
 10
-4.7614924994
 20
-3.5243564008
 30
0.0
 10
-4.8901681867
 20
-3.4563687178
 30
0.0
 10
-4.9737593952
 20
-3.3640341674
 30
0.0
 10
-5.0176098545
 20
-3.3083567281
 30
0.0
 10
-5.0204361925
 20
-3.2864526086
 30
0.0
 11
-4.0608469654
 21
-3.2455644625
 31
0.0
 11
-4.1047349408
 21
-3.3294154364
 31
0.0
 11
-4.1906205274
 21
-3.4267936907
 31
0.0
 11
-4.3234989885
 21
-3.5106286369
 31
0.0
 11
-4.4091215668
 21
-3.5390078107
 31
0.0
 11
-4.5083655876
 21
-3.5538496869
 31
0.0
 11
-4.6318098681
 21
-3.550229846
 31
0.0
 11
-4.7371125937
 21
-3.5261170703
 31
0.0
 11
-4.8956133729
 21
-3.440367273
 31
0.0
 11
-4.9885079107
 21
-3.3445094131
 31
0.0
 11
-5.0204361925
 21
-3.2864526086
 31
0.0
  0
SPLINE
  5
3A6
100
AcDbEntity
  8
0
100
AcDbSpline
 62
7
  6
CONTINUOUS
 70
0
 71
3
 72
9
 73
5
 74
3
 42
0.0000001
 43
0.0000001
 44
0.0000000001
 12
0.1430856721
 22
-0.9725976253
 32
0.0
 13
-0.3340288657
 23
-0.92457794
 33
0.0
 40
0.0
 40
0.0
 40
0.0
 40
0.0
 40
0.891795385
 40
1.0
 40
1.0
 40
1.0
 40
1.0
 10
-4.0408445413
 20
-2.2668846027
 30
0.0
 10
-3.9983101606
 20
-2.5560039607
 30
0.0
 10
-3.9586468667
 20
-2.8960792807
 30
0.0
 10
-4.0487991438
 20
-3.2122165959
 30
0.0
 10
-4.0608469654
 20
-3.2455644625
 30
0.0
 11
-4.0408445413
 21
-2.2668846027
 31
0.0
 11
-4.0308092706
 21
-3.1435212911
 31
0.0
 11
-4.0608469654
 21
-3.2455644625
 31
0.0
  0
SPLINE
  5
3A7
100
AcDbEntity
  8
0
100
AcDbSpline
 62
253
  6
CONTINUOUS
 70
0
 71
3
 72
17
 73
13
 74
11
 42
0.0000001
 43
0.0000001
 44
0.0000000001
 12
-0.2007511099
 22
0.0001747693
 32
0.0
 13
-0.0661485079
 23
0.1895400052
 33
0.0
 40
0.0
 40
0.0
 40
0.0
 40
0.0
 40
0.1918453076
 40
0.377262943
 40
0.5482217308
 40
0.6985111217
 40
0.8226439105
 40
0.9161933524
 40
0.9502831507
 40
0.9755696947
 40
0.9919981163
 40
1.0
 40
1.0
 40
1.0
 40
1.0
 10
0.5936987348
 20
-19.3598829709
 30
0.0
 10
0.5808610153
 20
-19.3598717946
 30
0.0
 10
0.5556158063
 20
-19.359726966
 30
0.0
 10
0.5189334732
 20
-19.3591608476
 30
0.0
 10
0.4850423284
 20
-19.3582565435
 30
0.0
 10
0.4552545963
 20
-19.3570682034
 30
0.0
 10
0.4306896152
 20
-19.355632726
 30
0.0
 10
0.4138575509
 20
-19.3542163009
 30
0.0
 10
0.4037606123
 20
-19.3529010618
 30
0.0
 10
0.3986700456
 20
-19.3520030092
 30
0.0
 10
0.3956366657
 20
-19.3511574454
 30
0.0
 10
0.3939056333
 20
-19.3504010065
 30
0.0
 10
0.3937291957
 20
-19.3498954475
 30
0.0
 11
0.5936987348
 21
-19.3598829709
 31
0.0
 11
0.5551862002
 21
-19.3596612082
 31
0.0
 11
0.5179680323
 21
-19.3590733549
 31
0.0
 11
0.4836605661
 21
-19.3581392879
 31
0.0
 11
0.4535153819
 21
-19.3568969364
 31
0.0
 11
0.4286411019
 21
-19.3553913284
 31
0.0
 11
0.4099392731
 21
-19.3536778344
 31
0.0
 11
0.4031572884
 21
-19.3527618106
 31
0.0
 11
0.3981693128
 21
-19.3518189646
 31
0.0
 11
0.395013798
 21
-19.3508599568
 31
0.0
 11
0.3937291957
 21
-19.3498954475
 31
0.0
  0
SPLINE
  5
3A8
100
AcDbEntity
  8
0
100
AcDbSpline
 62
253
  6
CONTINUOUS
 70
0
 71
3
 72
17
 73
13
 74
11
 42
0.0000001
 43
0.0000001
 44
0.0000000001
 12
-0.200751109
 22
0.0001747775
 32
0.0
 13
-0.0661485559
 23
0.1895399875
 33
0.0
 40
0.0
 40
0.0
 40
0.0
 40
0.0
 40
0.1918453043
 40
0.3772629308
 40
0.548221715
 40
0.698511109
 40
0.8226439037
 40
0.9161933508
 40
0.9502831502
 40
0.9755696956
 40
0.9919981179
 40
1.0
 40
1.0
 40
1.0
 40
1.0
 10
0.594513382
 20
-18.4264608466
 30
0.0
 10
0.5816756628
 20
-18.4264496698
 30
0.0
 10
0.5564304547
 20
-18.4263048403
 30
0.0
 10
0.5197481229
 20
-18.425738721
 30
0.0
 10
0.4858569788
 20
-18.4248344163
 30
0.0
 10
0.4560692465
 20
-18.423646076
 30
0.0
 10
0.4315042646
 20
-18.4222105988
 30
0.0
 10
0.4146721994
 20
-18.4207941742
 30
0.0
 10
0.4045752604
 20
-18.4194789355
 30
0.0
 10
0.3994846933
 20
-18.4185808835
 30
0.0
 10
0.3964513134
 20
-18.4177353201
 30
0.0
 10
0.3947202806
 20
-18.4169788821
 30
0.0
 10
0.3945438429
 20
-18.4164733232
 30
0.0
 11
0.594513382
 21
-18.4264608466
 31
0.0
 11
0.5560008482
 21
-18.4262390826
 31
0.0
 11
0.5187826822
 21
-18.4256512283
 31
0.0
 11
0.484475217
 21
-18.4247171608
 31
0.0
 11
0.4543300322
 21
-18.4234748091
 31
0.0
 11
0.4294557512
 21
-18.4219692014
 31
0.0
 11
0.4107539213
 21
-18.4202557078
 31
0.0
 11
0.4039719364
 21
-18.4193396845
 31
0.0
 11
0.3989839605
 21
-18.418396839
 31
0.0
 11
0.3958284454
 21
-18.4174378318
 31
0.0
 11
0.3945438429
 21
-18.4164733232
 31
0.0
  0
SPLINE
  5
3A9
100
AcDbEntity
  8
0
100
AcDbSpline
 62
253
  6
CONTINUOUS
 70
0
 71
3
 72
17
 73
13
 74
11
 42
0.0000001
 43
0.0000001
 44
0.0000000001
 12
0.2007511099
 22
0.0001747693
 32
0.0
 13
0.0661485079
 23
0.1895400052
 33
0.0
 40
0.0
 40
0.0
 40
0.0
 40
0.0
 40
0.1918453076
 40
0.377262943
 40
0.5482217308
 40
0.6985111217
 40
0.8226439105
 40
0.9161933524
 40
0.9502831507
 40
0.9755696947
 40
0.9919981163
 40
1.0
 40
1.0
 40
1.0
 40
1.0
 10
-0.594513382
 20
-18.4264608466
 30
0.0
 10
-0.5816756625
 20
-18.4264496704
 30
0.0
 10
-0.5564304535
 20
-18.4263048417
 30
0.0
 10
-0.5197481204
 20
-18.4257387234
 30
0.0
 10
-0.4858569756
 20
-18.4248344193
 30
0.0
 10
-0.4560692435
 20
-18.4236460791
 30
0.0
 10
-0.4315042624
 20
-18.4222106018
 30
0.0
 10
-0.4146721981
 20
-18.4207941766
 30
0.0
 10
-0.4045752595
 20
-18.4194789375
 30
0.0
 10
-0.3994846928
 20
-18.4185808849
 30
0.0
 10
-0.3964513129
 20
-18.4177353211
 30
0.0
 10
-0.3947202805
 20
-18.4169788822
 30
0.0
 10
-0.3945438429
 20
-18.4164733232
 30
0.0
 11
-0.594513382
 21
-18.4264608466
 31
0.0
 11
-0.5560008474
 21
-18.426239084
 31
0.0
 11
-0.5187826794
 21
-18.4256512307
 31
0.0
 11
-0.4844752133
 21
-18.4247171636
 31
0.0
 11
-0.4543300291
 21
-18.4234748121
 31
0.0
 11
-0.4294557491
 21
-18.4219692042
 31
0.0
 11
-0.4107539203
 21
-18.4202557101
 31
0.0
 11
-0.4039719356
 21
-18.4193396863
 31
0.0
 11
-0.39898396
 21
-18.4183968404
 31
0.0
 11
-0.3958284452
 21
-18.4174378326
 31
0.0
 11
-0.3945438429
 21
-18.4164733232
 31
0.0
  0
SPLINE
  5
3AA
100
AcDbEntity
  8
0
100
AcDbSpline
 62
253
  6
CONTINUOUS
 70
0
 71
3
 72
17
 73
13
 74
11
 42
0.0000001
 43
0.0000001
 44
0.0000000001
 12
0.2007511086
 22
0.0001748113
 32
0.0
 13
0.0661485919
 23
0.1895399746
 33
0.0
 40
0.0
 40
0.0
 40
0.0
 40
0.0
 40
0.191845355
 40
0.3772631114
 40
0.5482219736
 40
0.6985113604
 40
0.8226440835
 40
0.9161934554
 40
0.9502832329
 40
0.9755697425
 40
0.9919981318
 40
1.0
 40
1.0
 40
1.0
 40
1.0
 10
-0.5936987348
 20
-19.3598829709
 30
0.0
 10
-0.5808610122
 20
-19.3598717919
 30
0.0
 10
-0.5556157921
 20
-19.3597269583
 30
0.0
 10
-0.5189334431
 20
-19.3591608361
 30
0.0
 10
-0.4850422857
 20
-19.3582565315
 30
0.0
 10
-0.4552545534
 20
-19.3570681925
 30
0.0
 10
-0.4306895817
 20
-19.3556327165
 30
0.0
 10
-0.4138575281
 20
-19.3542162923
 30
0.0
 10
-0.4037605974
 20
-19.3529010568
 30
0.0
 10
-0.3986700368
 20
-19.3520030058
 30
0.0
 10
-0.3956366612
 20
-19.3511574437
 30
0.0
 10
-0.3939056332
 20
-19.3504010054
 30
0.0
 10
-0.3937291957
 20
-19.3498954475
 30
0.0
 11
-0.5936987348
 21
-19.3598829709
 31
0.0
 11
-0.555186191
 21
-19.3596612011
 31
0.0
 11
-0.517967999
 21
-19.3590733438
 31
0.0
 11
-0.4836605181
 21
-19.3581392759
 31
0.0
 11
-0.4535153348
 21
-19.3568969254
 31
0.0
 11
-0.4286410682
 21
-19.3553913189
 31
0.0
 11
-0.4099392533
 21
-19.3536778274
 31
0.0
 11
-0.4031572727
 21
-19.3527618055
 31
0.0
 11
-0.3981693038
 21
-19.3518189614
 31
0.0
 11
-0.3950137953
 21
-19.3508599553
 31
0.0
 11
-0.3937291957
 21
-19.3498954475
 31
0.0
  0
SPLINE
  5
3AB
100
AcDbEntity
  8
0
100
AcDbSpline
 62
253
  6
CONTINUOUS
 70
0
 71
3
 72
11
 73
7
 74
5
 42
0.0000001
 43
0.0000001
 44
0.0000000001
 12
-0.3128425903
 22
0.0002951276
 32
0.0
 13
0.0006592911
 23
-0.3128420348
 33
0.0
 40
0.0
 40
0.0
 40
0.0
 40
0.0
 40
0.2511771467
 40
0.5017392639
 40
0.751273669
 40
1.0
 40
1.0
 40
1.0
 40
1.0
 10
-0.195180004
 20
-18.2149647645
 30
0.0
 10
-0.2213729737
 20
-18.2149400548
 30
0.0
 10
-0.2742986455
 20
-18.22554896
 30
0.0
 10
-0.3406875993
 20
-18.2708377075
 30
0.0
 10
-0.3845106963
 20
-18.3378140252
 30
0.0
 10
-0.3945988969
 20
-18.3903442543
 30
0.0
 10
-0.3945442359
 20
-18.4162816048
 30
0.0
 11
-0.195180004
 21
-18.2149647645
 31
0.0
 11
-0.272211328
 21
-18.2304833208
 31
0.0
 11
-0.3370316085
 21
-18.274560303
 31
0.0
 11
-0.3797746752
 21
-18.3398839456
 31
0.0
 11
-0.3945442359
 21
-18.4162816048
 31
0.0
  0
SPLINE
  5
3AC
100
AcDbEntity
  8
0
100
AcDbSpline
 62
253
  6
CONTINUOUS
 70
0
 71
3
 72
11
 73
7
 74
5
 42
0.0000001
 43
0.0000001
 44
0.0000000001
 12
0.0008104219
 22
0.3130279533
 32
0.0
 13
-0.3130288615
 23
-0.0002970534
 33
0.0
 40
0.0
 40
0.0
 40
0.0
 40
0.0
 40
0.2487278458
 40
0.4982623572
 40
0.7488242012
 40
1.0
 40
1.0
 40
1.0
 40
1.0
 10
0.3945438429
 20
-18.4164733232
 30
0.0
 10
0.3946110344
 20
-18.3905204004
 30
0.0
 10
0.3845791291
 20
-18.3379482059
 30
0.0
 10
0.3407598598
 20
-18.2709045592
 30
0.0
 10
0.2743487552
 20
-18.2255629216
 30
0.0
 10
0.2213906089
 20
-18.2149398949
 30
0.0
 10
0.1951821841
 20
-18.2149647658
 30
0.0
 11
0.3945438429
 21
-18.4164733232
 31
0.0
 11
0.3798295571
 21
-18.3400173342
 31
0.0
 11
0.3370994941
 21
-18.2746296115
 31
0.0
 11
0.2722569288
 21
-18.2305025601
 31
0.0
 11
0.1951821841
 21
-18.2149647658
 31
0.0
  0
SPLINE
  5
3AD
100
AcDbEntity
  8
0
100
AcDbSpline
 62
253
  6
CONTINUOUS
 70
0
 71
3
 72
18
 73
14
 74
12
 42
0.0000001
 43
0.0000001
 44
0.0000000001
 12
0.0005013505
 22
-0.7599850303
 32
0.0
 13
0.3384512383
 23
-0.6804617968
 33
0.0
 40
0.0
 40
0.0
 40
0.0
 40
0.0
 40
0.1943192984
 40
0.3801823325
 40
0.5508671735
 40
0.7005980791
 40
0.8241053541
 40
0.8746527689
 40
0.9171100596
 40
0.9511333844
 40
0.9764001669
 40
0.9927157567
 40
1.0
 40
1.0
 40
1.0
 40
1.0
 10
-0.5936987348
 20
-19.3598829709
 30
0.0
 10
-0.5936662608
 20
-19.4091095568
 30
0.0
 10
-0.5934874797
 20
-19.5054205359
 30
0.0
 10
-0.5928731973
 20
-19.6449694394
 30
0.0
 10
-0.5919410711
 20
-19.7732217067
 30
0.0
 10
-0.5907214931
 20
-19.8856717366
 30
0.0
 10
-0.5894617009
 20
-19.9676913438
 30
0.0
 10
-0.5882693725
 20
-20.0225199248
 30
0.0
 10
-0.5874433617
 20
-20.0547052191
 30
0.0
 10
-0.5864668728
 20
-20.080420698
 30
0.0
 10
-0.5857998653
 20
-20.0996621682
 30
0.0
 10
-0.5845135558
 20
-20.1118026292
 30
0.0
 10
-0.5843347019
 20
-20.1180065209
 30
0.0
 10
-0.5835129148
 20
-20.1196587373
 30
0.0
 11
-0.5936987348
 21
-19.3598829709
 31
0.0
 11
-0.5934194544
 21
-19.5075624968
 31
0.0
 11
-0.5927859301
 21
-19.6488142305
 31
0.0
 11
-0.5918201026
 21
-19.7785285871
 31
0.0
 11
-0.5905556208
 21
-19.892314833
 31
0.0
 11
-0.5890361875
 21
-19.9861662347
 31
0.0
 11
-0.588197469
 21
-20.0245723647
 31
0.0
 11
-0.5873155804
 21
-20.0568272233
 31
0.0
 11
-0.5863979659
 21
-20.0826681593
 31
0.0
 11
-0.5854522099
 21
-20.1018472356
 31
0.0
 11
-0.584487254
 21
-20.1142092382
 31
0.0
 11
-0.5835129148
 21
-20.1196587373
 31
0.0
  0
SPLINE
  5
3AE
100
AcDbEntity
  8
0
100
AcDbSpline
 62
253
  6
CONTINUOUS
 70
0
 71
3
 72
18
 73
14
 74
12
 42
0.0000001
 43
0.0000001
 44
0.0000000001
 12
0.3384512437
 22
0.6804617941
 32
0.0
 13
0.0005013504
 23
0.7599850303
 33
0.0
 40
0.0
 40
0.0
 40
0.0
 40
0.0
 40
0.0072842433
 40
0.023599833
 40
0.0488666156
 40
0.0828899404
 40
0.1253472311
 40
0.1758946459
 40
0.2994019209
 40
0.4491328265
 40
0.6198176675
 40
0.8056807016
 40
1.0
 40
1.0
 40
1.0
 40
1.0
 10
0.5835129148
 20
-20.1196587373
 30
0.0
 10
0.5843347019
 20
-20.1180065209
 30
0.0
 10
0.5845135558
 20
-20.1118026292
 30
0.0
 10
0.5857998653
 20
-20.0996621682
 30
0.0
 10
0.5864668728
 20
-20.080420698
 30
0.0
 10
0.5874433617
 20
-20.0547052191
 30
0.0
 10
0.5882693725
 20
-20.0225199248
 30
0.0
 10
0.5894617009
 20
-19.9676913438
 30
0.0
 10
0.5907214931
 20
-19.8856717366
 30
0.0
 10
0.5919410711
 20
-19.7732217067
 30
0.0
 10
0.5928731973
 20
-19.6449694394
 30
0.0
 10
0.5934874797
 20
-19.5054205359
 30
0.0
 10
0.5936662608
 20
-19.4091095568
 30
0.0
 10
0.5936987348
 20
-19.3598829709
 30
0.0
 11
0.5835129148
 21
-20.1196587373
 31
0.0
 11
0.584487254
 21
-20.1142092382
 31
0.0
 11
0.5854522099
 21
-20.1018472357
 31
0.0
 11
0.5863979659
 21
-20.0826681593
 31
0.0
 11
0.5873155804
 21
-20.0568272233
 31
0.0
 11
0.588197469
 21
-20.0245723647
 31
0.0
 11
0.5890361875
 21
-19.9861662347
 31
0.0
 11
0.5905556208
 21
-19.892314833
 31
0.0
 11
0.5918201026
 21
-19.7785285871
 31
0.0
 11
0.5927859301
 21
-19.6488142305
 31
0.0
 11
0.5934194544
 21
-19.5075624968
 31
0.0
 11
0.5936987348
 21
-19.3598829709
 31
0.0
  0
SPLINE
  5
3AF
100
AcDbEntity
  8
0
100
AcDbSpline
 62
253
  6
CONTINUOUS
 70
0
 71
3
 72
18
 73
14
 74
12
 42
0.0000001
 43
0.0000001
 44
0.0000000001
 12
0.3137998257
 22
0.4759782844
 32
0.0
 13
0.000500072
 23
0.5701099962
 33
0.0
 40
0.0
 40
0.0
 40
0.0
 40
0.0
 40
0.0073741864
 40
0.0237179553
 40
0.0489977206
 40
0.0830305533
 40
0.1254929581
 40
0.1760386054
 40
0.2995270805
 40
0.449237423
 40
0.6198944618
 40
0.8057191039
 40
1.0
 40
1.0
 40
1.0
 40
1.0
 10
0.3835433758
 20
-19.9197272723
 30
0.0
 10
0.3843147153
 20
-19.9185572881
 30
0.0
 10
0.3845933472
 20
-19.9138028495
 30
0.0
 10
0.3858006992
 20
-19.9047657816
 30
0.0
 10
0.3865098977
 20
-19.8902934236
 30
0.0
 10
0.3874689254
 20
-19.8710228384
 30
0.0
 10
0.3883014554
 20
-19.8468766638
 30
0.0
 10
0.3894907631
 20
-19.8057594804
 30
0.0
 10
0.390752377
 20
-19.7442431209
 30
0.0
 10
0.3919711968
 20
-19.6599048281
 30
0.0
 10
0.3929036084
 20
-19.5637132493
 30
0.0
 10
0.3935179622
 20
-19.459049945
 30
0.0
 10
0.3936968109
 20
-19.3868159411
 30
0.0
 10
0.3937291957
 20
-19.3498954475
 30
0.0
 11
0.3835433758
 21
-19.9197272723
 31
0.0
 11
0.3845175357
 21
-19.9156375949
 31
0.0
 11
0.3854825313
 21
-19.9063699501
 31
0.0
 11
0.3864283757
 21
-19.891988768
 31
0.0
 11
0.3873460414
 21
-19.8726080156
 31
0.0
 11
0.3882279382
 21
-19.8484158338
 31
0.0
 11
0.3890666203
 21
-19.8196114511
 31
0.0
 11
0.3905859475
 21
-19.7492258059
 31
0.0
 11
0.391850435
 21
-19.6638837775
 31
0.0
 11
0.3928163117
 21
-19.5665952508
 31
0.0
 11
0.3934499402
 21
-19.460656619
 31
0.0
 11
0.3937291957
 21
-19.3498954475
 31
0.0
  0
SPLINE
  5
3B0
100
AcDbEntity
  8
0
100
AcDbSpline
 62
253
  6
CONTINUOUS
 70
0
 71
3
 72
18
 73
14
 74
12
 42
0.0000001
 43
0.0000001
 44
0.0000000001
 12
0.000500072
 22
-0.5701099962
 32
0.0
 13
0.313799818
 23
-0.4759782895
 33
0.0
 40
0.0
 40
0.0
 40
0.0
 40
0.0
 40
0.1942808961
 40
0.3801055382
 40
0.550762577
 40
0.7004729195
 40
0.8239613946
 40
0.8745070419
 40
0.9169694467
 40
0.9510022795
 40
0.9762820447
 40
0.9926258136
 40
1.0
 40
1.0
 40
1.0
 40
1.0
 10
-0.3937291957
 20
-19.3498954475
 30
0.0
 10
-0.3936968109
 20
-19.3868159411
 30
0.0
 10
-0.3935179622
 20
-19.459049945
 30
0.0
 10
-0.3929036084
 20
-19.5637132493
 30
0.0
 10
-0.3919711968
 20
-19.6599048281
 30
0.0
 10
-0.390752377
 20
-19.7442431209
 30
0.0
 10
-0.3894907631
 20
-19.8057594804
 30
0.0
 10
-0.3883014554
 20
-19.8468766638
 30
0.0
 10
-0.3874689254
 20
-19.8710228384
 30
0.0
 10
-0.3865098977
 20
-19.8902934236
 30
0.0
 10
-0.3858006992
 20
-19.9047657816
 30
0.0
 10
-0.3845933472
 20
-19.9138028495
 30
0.0
 10
-0.3843147152
 20
-19.9185572881
 30
0.0
 10
-0.3835433758
 20
-19.9197272723
 30
0.0
 11
-0.3937291957
 21
-19.3498954475
 31
0.0
 11
-0.3934499402
 21
-19.460656619
 31
0.0
 11
-0.3928163117
 21
-19.5665952508
 31
0.0
 11
-0.391850435
 21
-19.6638837775
 31
0.0
 11
-0.3905859475
 21
-19.7492258059
 31
0.0
 11
-0.3890666203
 21
-19.8196114511
 31
0.0
 11
-0.3882279382
 21
-19.8484158338
 31
0.0
 11
-0.3873460414
 21
-19.8726080156
 31
0.0
 11
-0.3864283757
 21
-19.891988768
 31
0.0
 11
-0.3854825313
 21
-19.9063699501
 31
0.0
 11
-0.3845175357
 21
-19.9156375949
 31
0.0
 11
-0.3835433758
 21
-19.9197272723
 31
0.0
  0
SPLINE
  5
3B1
100
AcDbEntity
  8
0
100
AcDbSpline
 62
253
  6
CONTINUOUS
 70
0
 71
3
 72
11
 73
7
 74
5
 42
0.0000001
 43
0.0000001
 44
0.0000000001
 12
0.0004976929
 22
0.6248536844
 32
0.0
 13
-0.6248538785
 23
-0.0000721517
 33
0.0
 40
0.0
 40
0.0
 40
0.0
 40
0.0
 40
0.2499024629
 40
0.4998290646
 40
0.7498559379
 40
1.0
 40
1.0
 40
1.0
 40
1.0
 10
0.594513382
 20
-18.4264608466
 30
0.0
 10
0.5945548402
 20
-18.3744100217
 30
0.0
 10
0.5739890143
 20
-18.2691547935
 30
0.0
 10
0.4854288148
 20
-18.1357617991
 30
0.0
 10
0.3525972816
 20
-18.0462174144
 30
0.0
 10
0.2472692029
 20
-18.0252203585
 30
0.0
 10
0.1951680404
 20
-18.0252263746
 30
0.0
 11
0.594513382
 21
-18.4264608466
 31
0.0
 11
0.5643745708
 21
-18.2732444542
 31
0.0
 11
0.4780714589
 21
-18.143090336
 31
0.0
 11
0.3484312547
 21
-18.0559048305
 31
0.0
 11
0.1951680404
 21
-18.0252263746
 31
0.0
  0
SPLINE
  5
3B2
100
AcDbEntity
  8
0
100
AcDbSpline
 62
253
  6
CONTINUOUS
 70
0
 71
3
 72
11
 73
7
 74
5
 42
0.0000001
 43
0.0000001
 44
0.0000000001
 12
-0.6248540175
 22
0.0000608372
 32
0.0
 13
0.0004860174
 23
-0.6248538315
 33
0.0
 40
0.0
 40
0.0
 40
0.0
 40
0.0
 40
0.250145133
 40
0.5001707326
 40
0.750096902
 40
1.0
 40
1.0
 40
1.0
 40
1.0
 10
-0.1951680404
 20
-18.0252263746
 30
0.0
 10
-0.2472694376
 20
-18.0252213019
 30
0.0
 10
-0.352597529
 20
-18.0462172876
 30
0.0
 10
-0.4854286297
 20
-18.1357620908
 30
0.0
 10
-0.5739901675
 20
-18.2691543473
 30
0.0
 10
-0.5945538677
 20
-18.3744098772
 30
0.0
 10
-0.594513382
 20
-18.4264608466
 30
0.0
 11
-0.1951680404
 21
-18.0252263746
 31
0.0
 11
-0.348431891
 21
-18.0559052367
 31
0.0
 11
-0.4780714723
 21
-18.1430903041
 31
0.0
 11
-0.5643748575
 21
-18.2732439583
 31
0.0
 11
-0.594513382
 21
-18.4264608466
 31
0.0
  0
SPLINE
  5
3B3
100
AcDbEntity
  8
RACCORDO
100
AcDbSpline
 62
7
  6
CONTINUOUS
 70
0
 71
3
 72
11
 73
7
 74
5
 42
0.0000001
 43
0.0000001
 44
0.0000000001
 12
-0.2345875648
 22
-0.0000000187
 32
0.0
 13
0.0000006378
 23
-0.2345875648
 33
0.0
 40
0.0
 40
0.0
 40
0.0
 40
0.0
 40
0.2499743774
 40
0.4999763815
 40
0.7499925301
 40
1.0
 40
1.0
 40
1.0
 40
1.0
 10
9.9494585403
 20
-5.2392747569
 30
0.0
 10
9.9299115801
 20
-5.2392747585
 30
0.0
 10
9.8903742151
 20
-5.2472107323
 30
0.0
 10
9.8406609357
 20
-5.2810723094
 30
0.0
 10
9.8076566769
 20
-5.331313073
 30
0.0
 10
9.7999999469
 20
-5.3708309688
 30
0.0
 10
9.8
 20
-5.3903805167
 30
0.0
 11
9.9494585403
 21
-5.2392747569
 31
0.0
 11
9.8919753266
 21
-5.2508692817
 31
0.0
 11
9.843446924
 21
-5.2838011376
 31
0.0
 11
9.8112430187
 21
-5.3328196105
 31
0.0
 11
9.8
 21
-5.3903805167
 31
0.0
  0
SPLINE
  5
3B4
100
AcDbEntity
  8
RACCORDO
100
AcDbSpline
 62
7
  6
CONTINUOUS
 70
0
 71
3
 72
11
 73
7
 74
5
 42
0.0000001
 43
0.0000001
 44
0.0000000001
 12
-0.0000003105
 22
-0.2345874454
 32
0.0
 13
0.2345874454
 23
0.0000000033
 33
0.0
 40
0.0
 40
0.0
 40
0.0
 40
0.0
 40
0.2500074714
 40
0.5000236218
 40
0.750025623
 40
1.0
 40
1.0
 40
1.0
 40
1.0
 10
9.8
 20
5.3903805167
 30
0.0
 10
9.7999999741
 20
5.3708309787
 30
0.0
 10
9.8076567288
 20
5.3313131164
 30
0.0
 10
9.8406610009
 20
5.2810723794
 30
0.0
 10
9.890374281
 20
5.2472109189
 30
0.0
 10
9.9299115861
 20
5.2392747575
 30
0.0
 10
9.9494585363
 20
5.2392747577
 30
0.0
 11
9.8
 21
5.3903805167
 31
0.0
 11
9.8112430667
 21
5.3328196499
 31
0.0
 11
9.8434469874
 21
5.2838012223
 31
0.0
 11
9.8919753773
 21
5.2508694021
 31
0.0
 11
9.9494585363
 21
5.2392747577
 31
0.0
  0
SPLINE
  5
3B5
100
AcDbEntity
  8
0
100
AcDbSpline
 62
7
  6
CONTINUOUS
 70
0
 71
3
 72
16
 73
12
 74
10
 42
0.0000001
 43
0.0000001
 44
0.0000000001
 12
-0.1059175681
 22
0.1588965265
 32
0.0
 13
-0.000151854
 23
0.1909623374
 33
0.0
 40
0.0
 40
0.0
 40
0.0
 40
0.0
 40
0.0073677683
 40
0.0237264521
 40
0.0489756858
 40
0.0829525744
 40
0.1759862177
 40
0.2993855451
 40
0.44904187
 40
0.6198569511
 40
1.0
 40
1.0
 40
1.0
 40
1.0
 10
7.9235336933
 20
-20.4602859775
 30
0.0
 10
7.9232735679
 20
-20.4598957399
 30
0.0
 10
7.9231855809
 20
-20.458299632
 30
0.0
 10
7.9227783635
 20
-20.4552762631
 30
0.0
 10
7.9225412865
 20
-20.4504324388
 30
0.0
 10
7.9220632437
 20
-20.4407738249
 30
0.0
 10
7.9216120007
 20
-20.4248240334
 30
0.0
 10
7.9211154575
 20
-20.401533439
 30
0.0
 10
7.9207147297
 20
-20.3732792483
 30
0.0
 10
7.9202818068
 20
-20.3286853837
 30
0.0
 10
7.9201489102
 20
-20.2936140049
 30
0.0
 10
7.9201296682
 20
-20.2694163365
 30
0.0
 11
7.9235336933
 21
-20.4602859775
 31
0.0
 11
7.923208384
 21
-20.4589171353
 31
0.0
 11
7.9228855893
 21
-20.4558099639
 31
0.0
 11
7.9225686282
 21
-20.450998739
 31
0.0
 11
7.9222608195
 21
-20.4445177363
 31
0.0
 11
7.9216845429
 21
-20.4267611575
 31
0.0
 11
7.9211763635
 21
-20.4032020063
 31
0.0
 11
7.9207537418
 21
-20.3746264006
 31
0.0
 11
7.9204311044
 21
-20.3420087388
 31
0.0
 11
7.9201296682
 21
-20.2694163365
 31
0.0
  0
SPLINE
  5
3B6
100
AcDbEntity
  8
0
100
AcDbSpline
 62
253
  6
CONTINUOUS
 70
0
 71
3
 72
15
 73
11
 74
9
 42
0.0000001
 43
0.0000001
 44
0.0000000001
 12
-0.2124704791
 22
-0.0089694806
 32
0.0
 13
-0.0407183774
 23
-0.2087251058
 33
0.0
 40
0.0
 40
0.0
 40
0.0
 40
0.0
 40
0.1887259472
 40
0.3729722202
 40
0.5440290323
 40
0.6952459336
 40
0.820663258
 40
0.9153025717
 40
0.9750321077
 40
1.0
 40
1.0
 40
1.0
 40
1.0
 10
9.0869762264
 20
20.5963187592
 30
0.0
 10
9.0736099956
 20
20.5957545013
 30
0.0
 10
9.0471649947
 20
20.5955159383
 30
0.0
 10
9.0085918718
 20
20.5959319353
 30
0.0
 10
8.9727265967
 20
20.595324126
 30
0.0
 10
8.9408899052
 20
20.5940260594
 30
0.0
 10
8.9149678583
 20
20.5925210727
 30
0.0
 10
8.8943263939
 20
20.5910250129
 30
0.0
 10
8.8832789733
 20
20.5903432215
 30
0.0
 10
8.8753842011
 20
20.5891777176
 30
0.0
 10
8.8750453171
 20
20.5874405756
 30
0.0
 11
9.0869762264
 21
20.5963187592
 31
0.0
 11
9.0468474388
 21
20.5956471772
 31
0.0
 11
9.0076658246
 21
20.5957543142
 31
0.0
 11
8.9712940174
 21
20.5951460149
 31
0.0
 11
8.9391621645
 21
20.5938558557
 31
0.0
 11
8.9125361458
 21
20.5923038477
 31
0.0
 11
8.892457258
 21
20.5909280112
 31
0.0
 11
8.8798061317
 21
20.5897915724
 31
0.0
 11
8.8750453171
 21
20.5874405756
 31
0.0
  0
SPLINE
  5
3B7
100
AcDbEntity
  8
0
100
AcDbSpline
 62
253
  6
CONTINUOUS
 70
0
 71
3
 72
16
 73
12
 74
10
 42
0.0000001
 43
0.0000001
 44
0.0000000001
 12
0.0073441034
 22
0.1918280563
 32
0.0
 13
-0.136904443
 23
0.1345701027
 33
0.0
 40
0.0
 40
0.0
 40
0.0
 40
0.0
 40
0.3781138702
 40
0.5482856579
 40
0.6974865685
 40
0.8207557336
 40
0.9141713547
 40
0.9486849513
 40
0.9746880893
 40
0.9918930714
 40
1.0
 40
1.0
 40
1.0
 40
1.0
 10
9.0869762264
 20
20.5963187592
 30
0.0
 10
9.0879018621
 20
20.6204963754
 30
0.0
 10
9.0863349356
 20
20.6556106452
 30
0.0
 10
9.0845942575
 20
20.700194008
 30
0.0
 10
9.0833777558
 20
20.7284995217
 30
0.0
 10
9.081848928
 20
20.7518525669
 30
0.0
 10
9.0801835734
 20
20.7678748422
 30
0.0
 10
9.0782932253
 20
20.7775292249
 30
0.0
 10
9.0770805775
 20
20.782388154
 30
0.0
 10
9.0759581989
 20
20.7854198505
 30
0.0
 10
9.0753848142
 20
20.7870083905
 30
0.0
 10
9.0750148561
 20
20.7873720406
 30
0.0
 11
9.0869762264
 21
20.5963187592
 31
0.0
 11
9.0858351174
 21
20.6688957751
 31
0.0
 11
9.0845190148
 21
20.7015368909
 31
0.0
 11
9.083189644
 21
20.7301479121
 31
0.0
 11
9.081552293
 21
20.7537550058
 31
0.0
 11
9.0794076182
 21
20.7715591631
 31
0.0
 11
9.0781233237
 21
20.7780590237
 31
0.0
 11
9.0768451877
 21
20.7828844038
 31
0.0
 11
9.0757500764
 21
20.7860003829
 31
0.0
 11
9.0750148561
 21
20.7873720406
 31
0.0
  0
SPLINE
  5
3B8
100
AcDbEntity
  8
0
100
AcDbSpline
 62
253
  6
CONTINUOUS
 70
0
 71
3
 72
14
 73
10
 74
8
 42
0.0000001
 43
0.0000001
 44
0.0000000001
 12
-0.0084285234
 22
0.1922156867
 32
0.0
 13
-0.1863708928
 23
0.0477891259
 33
0.0
 40
0.0
 40
0.0
 40
0.0
 40
0.0
 40
0.3774912904
 40
0.5473527092
 40
0.6964395938
 40
0.8196810303
 40
0.912845034
 40
0.9724984945
 40
1.0
 40
1.0
 40
1.0
 40
1.0
 10
9.5006110984
 20
20.5968478537
 30
0.0
 10
9.4995505337
 20
20.6210344362
 30
0.0
 10
9.4999875946
 20
20.656172986
 30
0.0
 10
9.4985824527
 20
20.7007896941
 30
0.0
 10
9.4968616286
 20
20.729174471
 30
0.0
 10
9.4949633121
 20
20.75232953
 30
0.0
 10
9.4928704359
 20
20.7704322441
 30
0.0
 10
9.4917673295
 20
20.780925857
 30
0.0
 10
9.4898133988
 20
20.7875982795
 30
0.0
 10
9.4881049055
 20
20.7880363705
 30
0.0
 11
9.5006110984
 21
20.5968478537
 31
0.0
 11
9.499420232
 21
20.6694675617
 31
0.0
 11
9.4983710118
 21
20.7021321183
 31
0.0
 11
9.4966547602
 21
20.7307651034
 31
0.0
 11
9.4946395336
 21
20.754391013
 31
0.0
 11
9.4926995191
 21
20.7722105098
 31
0.0
 11
9.4909050486
 21
20.7835467092
 31
0.0
 11
9.4881049055
 21
20.7880363705
 31
0.0
  0
SPLINE
  5
3B9
100
AcDbEntity
  8
0
100
AcDbSpline
 62
253
  6
CONTINUOUS
 70
0
 71
3
 72
14
 73
10
 74
8
 42
0.0000001
 43
0.0000001
 44
0.0000000001
 12
0.1878980221
 22
-0.0081019691
 32
0.0
 13
0.0577588234
 23
-0.1789838734
 33
0.0
 40
0.0
 40
0.0
 40
0.0
 40
0.0
 40
0.3798239315
 40
0.5501018045
 40
0.6992359367
 40
0.8222641065
 40
0.9150638774
 40
0.9742293298
 40
1.0
 40
1.0
 40
1.0
 40
1.0
 10
9.5006110984
 20
20.5968478537
 30
0.0
 10
9.5244004869
 20
20.5958220798
 30
0.0
 10
9.5589247724
 20
20.5963827609
 30
0.0
 10
9.6027137074
 20
20.5954332764
 30
0.0
 10
9.6305155097
 20
20.5941941176
 30
0.0
 10
9.6530991767
 20
20.5927662375
 30
0.0
 10
9.6709048027
 20
20.5914583752
 30
0.0
 10
9.6808215146
 20
20.590565392
 30
0.0
 10
9.6875402093
 20
20.5896424167
 30
0.0
 10
9.6880363705
 20
20.5881049053
 30
0.0
 11
9.5006110984
 21
20.5968478537
 31
0.0
 11
9.5720402203
 21
20.5959729283
 31
0.0
 11
9.6040571884
 21
20.5952735913
 31
0.0
 11
9.632077659
 21
20.5940301565
 31
0.0
 11
9.6551709523
 21
20.5925888125
 31
0.0
 11
9.6725751458
 21
20.5912832103
 31
0.0
 11
9.6836453897
 21
20.5901568177
 31
0.0
 11
9.6880363705
 21
20.5881049053
 31
0.0
  0
SPLINE
  5
3BA
100
AcDbEntity
  8
0
100
AcDbSpline
 62
253
  6
CONTINUOUS
 70
0
 71
3
 72
14
 73
10
 74
8
 42
0.0000001
 43
0.0000001
 44
0.0000000001
 12
0.1878980227
 22
0.0081019696
 32
0.0
 13
0.0577587101
 23
0.1789839106
 33
0.0
 40
0.0
 40
0.0
 40
0.0
 40
0.0
 40
0.3798239277
 40
0.5501017991
 40
0.699235931
 40
0.8222641014
 40
0.9150638725
 40
0.9742293241
 40
1.0
 40
1.0
 40
1.0
 40
1.0
 10
9.5006110984
 20
-20.5968478537
 30
0.0
 10
9.5244004868
 20
-20.5958220797
 30
0.0
 10
9.558924772
 20
-20.5963827615
 30
0.0
 10
9.6027137068
 20
-20.5954332759
 30
0.0
 10
9.6305155091
 20
-20.5941941166
 30
0.0
 10
9.6530991762
 20
-20.5927662367
 30
0.0
 10
9.6709048023
 20
-20.5914583734
 30
0.0
 10
9.6808215149
 20
-20.5905653965
 30
0.0
 10
9.6875402101
 20
-20.5896424176
 30
0.0
 10
9.6880363705
 20
-20.5881049055
 30
0.0
 11
9.5006110984
 21
-20.5968478537
 31
0.0
 11
9.5720402199
 21
-20.5959729285
 31
0.0
 11
9.6040571878
 21
-20.5952735908
 31
0.0
 11
9.6320776583
 21
-20.5940301556
 31
0.0
 11
9.6551709519
 21
-20.5925888114
 31
0.0
 11
9.6725751455
 21
-20.5912832106
 31
0.0
 11
9.6836453896
 21
-20.5901568203
 31
0.0
 11
9.6880363705
 21
-20.5881049055
 31
0.0
  0
SPLINE
  5
3BB
100
AcDbEntity
  8
0
100
AcDbSpline
 62
253
  6
CONTINUOUS
 70
0
 71
3
 72
14
 73
10
 74
8
 42
0.0000001
 43
0.0000001
 44
0.0000000001
 12
-0.0084285281
 22
-0.1922156853
 32
0.0
 13
-0.1863708709
 23
-0.0477892061
 33
0.0
 40
0.0
 40
0.0
 40
0.0
 40
0.0
 40
0.3774912948
 40
0.5473527157
 40
0.696439601
 40
0.8196810373
 40
0.9128450412
 40
0.9724985027
 40
1.0
 40
1.0
 40
1.0
 40
1.0
 10
9.5006110984
 20
-20.5968478537
 30
0.0
 10
9.4995505331
 20
-20.6210344364
 30
0.0
 10
9.499987593
 20
-20.6561729863
 30
0.0
 10
9.4985824516
 20
-20.7007896946
 30
0.0
 10
9.4968616278
 20
-20.7291744715
 30
0.0
 10
9.4949633112
 20
-20.7523295303
 30
0.0
 10
9.4928704363
 20
-20.7704322449
 30
0.0
 10
9.4917673246
 20
-20.780925856
 30
0.0
 10
9.4898133982
 20
-20.7875982789
 30
0.0
 10
9.4881049055
 20
-20.7880363705
 30
0.0
 11
9.5006110984
 21
-20.5968478537
 31
0.0
 11
9.4994202306
 21
-20.6694675621
 31
0.0
 11
9.4983710108
 21
-20.7021321189
 31
0.0
 11
9.4966547594
 21
-20.730765104
 31
0.0
 11
9.4946395331
 21
-20.7543910134
 31
0.0
 11
9.4926995177
 21
-20.77221051
 31
0.0
 11
9.4909050458
 21
-20.7835467093
 31
0.0
 11
9.4881049055
 21
-20.7880363705
 31
0.0
  0
SPLINE
  5
3BC
100
AcDbEntity
  8
0
100
AcDbSpline
 62
253
  6
CONTINUOUS
 70
0
 71
3
 72
16
 73
12
 74
10
 42
0.0000001
 43
0.0000001
 44
0.0000000001
 12
0.0073441076
 22
-0.1918280549
 32
0.0
 13
-0.1369031213
 23
-0.1345714454
 33
0.0
 40
0.0
 40
0.0
 40
0.0
 40
0.0
 40
0.378113867
 40
0.5482856527
 40
0.6974865641
 40
0.8207557321
 40
0.9141713587
 40
0.9486849605
 40
0.9746881036
 40
0.991893086
 40
1.0
 40
1.0
 40
1.0
 40
1.0
 10
9.0869762264
 20
-20.5963187592
 30
0.0
 10
9.0879018627
 20
-20.620496375
 30
0.0
 10
9.0863349346
 20
-20.6556106443
 30
0.0
 10
9.0845942599
 20
-20.7001940066
 30
0.0
 10
9.083377759
 20
-20.7284995202
 30
0.0
 10
9.0818489329
 20
-20.751852566
 30
0.0
 10
9.0801835767
 20
-20.7678748418
 30
0.0
 10
9.078293222
 20
-20.7775292248
 30
0.0
 10
9.0770805709
 20
-20.7823881527
 30
0.0
 10
9.075958192
 20
-20.7854198506
 30
0.0
 10
9.07538481
 20
-20.7870083876
 30
0.0
 10
9.0750148561
 20
-20.7873720406
 30
0.0
 11
9.0869762264
 21
-20.5963187592
 31
0.0
 11
9.0858351178
 21
-20.668895774
 31
0.0
 11
9.0845190171
 21
-20.7015368893
 31
0.0
 11
9.0831896475
 21
-20.7301479105
 31
0.0
 11
9.0815522973
 21
-20.7537550047
 31
0.0
 11
9.0794076187
 21
-20.7715591624
 31
0.0
 11
9.07812332
 21
-20.7780590232
 31
0.0
 11
9.0768451811
 21
-20.7828844035
 31
0.0
 11
9.0757500703
 21
-20.7860003828
 31
0.0
 11
9.0750148561
 21
-20.7873720406
 31
0.0
  0
SPLINE
  5
3BD
100
AcDbEntity
  8
0
100
AcDbSpline
 62
253
  6
CONTINUOUS
 70
0
 71
3
 72
15
 73
11
 74
9
 42
0.0000001
 43
0.0000001
 44
0.0000000001
 12
-0.2124704782
 22
0.0089694834
 32
0.0
 13
-0.0407184353
 23
0.2087250938
 33
0.0
 40
0.0
 40
0.0
 40
0.0
 40
0.0
 40
0.1887259484
 40
0.3729722239
 40
0.5440290374
 40
0.6952459391
 40
0.8206632629
 40
0.9153025762
 40
0.9750321124
 40
1.0
 40
1.0
 40
1.0
 40
1.0
 10
9.0869762264
 20
-20.5963187592
 30
0.0
 10
9.0736099955
 20
-20.5957545011
 30
0.0
 10
9.0471649945
 20
-20.5955159375
 30
0.0
 10
9.0085918713
 20
-20.5959319346
 30
0.0
 10
8.9727265961
 20
-20.595324126
 30
0.0
 10
8.9408899046
 20
-20.5940260598
 30
0.0
 10
8.9149678579
 20
-20.5925210728
 30
0.0
 10
8.8943263933
 20
-20.591025014
 30
0.0
 10
8.883278974
 20
-20.5903432173
 30
0.0
 10
8.8753842015
 20
-20.589177717
 30
0.0
 10
8.8750453171
 20
-20.5874405754
 30
0.0
 11
9.0869762264
 21
-20.5963187592
 31
0.0
 11
9.0468474386
 21
-20.5956471765
 31
0.0
 11
9.0076658241
 21
-20.5957543137
 31
0.0
 11
8.9712940167
 21
-20.5951460149
 31
0.0
 11
8.9391621638
 21
-20.593855856
 31
0.0
 11
8.9125361454
 21
-20.5923038481
 31
0.0
 11
8.8924572578
 21
-20.5909280105
 31
0.0
 11
8.8798061316
 21
-20.5897915701
 31
0.0
 11
8.8750453171
 21
-20.5874405754
 31
0.0
  0
SPLINE
  5
3BE
100
AcDbEntity
  8
0
100
AcDbSpline
 62
7
  6
CONTINUOUS
 70
0
 71
3
 72
16
 73
12
 74
10
 42
0.0000001
 43
0.0000001
 44
0.0000000001
 12
0.2790882074
 22
0.0561065228
 32
0.0
 13
0.2014867
 23
0.2011001719
 33
0.0
 40
0.0
 40
0.0
 40
0.0
 40
0.0
 40
0.0164183926
 40
0.0443761637
 40
0.0826435189
 40
0.1297856625
 40
0.2447584789
 40
0.3790370585
 40
0.5257198638
 40
0.6801625247
 40
1.0
 40
1.0
 40
1.0
 40
1.0
 10
8.8767940404
 20
-20.4616848872
 30
0.0
 10
8.8783214337
 20
-20.4613778275
 30
0.0
 10
8.8820668488
 20
-20.4592330119
 30
0.0
 10
8.8885456266
 20
-20.4549199119
 30
0.0
 10
8.8971054871
 20
-20.4483503262
 30
0.0
 10
8.911838536
 20
-20.4363504412
 30
0.0
 10
8.9330678319
 20
-20.4178801187
 30
0.0
 10
8.9609092526
 20
-20.3926574817
 30
0.0
 10
8.9911135793
 20
-20.3644633809
 30
0.0
 10
9.0337360642
 20
-20.323777505
 30
0.0
 10
9.0658487362
 20
-20.2922417539
 30
0.0
 10
9.0873297353
 20
-20.2708019634
 30
0.0
 11
8.8767940404
 21
-20.4616848872
 31
0.0
 11
8.8810564168
 21
-20.4597673131
 31
0.0
 11
8.8877033199
 21
-20.4553899729
 31
0.0
 11
8.896401428
 21
-20.4488314335
 31
0.0
 11
8.9068252691
 21
-20.4403791391
 31
0.0
 11
8.931615731
 21
-20.4190096238
 31
0.0
 11
8.9599762024
 21
-20.393380313
 31
0.0
 11
8.9905230079
 21
-20.364911077
 31
0.0
 11
9.0223366468
 21
-20.3345654316
 31
0.0
 11
9.0873297353
 21
-20.2708019634
 31
0.0
  0
LINE
  5
3BF
100
AcDbEntity
  8
0
100
AcDbLine
 62
253
  6
CONTINUOUS
 10
-7.9202038675
 20
20.362417761
 11
-7.0108635463
 21
20.3617720219
  0
LINE
  5
3C0
100
AcDbEntity
  8
0
100
AcDbLine
 62
253
  6
CONTINUOUS
 10
7.0108980249
 20
20.3617720841
 11
7.9202038439
 21
20.362417761
  0
LINE
  5
3C1
100
AcDbEntity
  8
0
100
AcDbLine
 62
253
  6
CONTINUOUS
 10
9.0873275633
 20
20.2712593162
 11
7.9201316349
 21
20.2689516393
  0
LINE
  5
3C2
100
AcDbEntity
  8
0
100
AcDbLine
 62
253
  6
CONTINUOUS
 10
9.0867953396
 20
20.2708045364
 11
9.0875061445
 21
20.5963161789
  0
LINE
  5
3C3
100
AcDbEntity
  8
0
100
AcDbLine
 62
253
  6
CONTINUOUS
 10
9.0869771442
 20
20.5961282617
 11
9.5006101257
 21
20.5970426316
  0
SPLINE
  5
3C4
100
AcDbEntity
  8
0
100
AcDbSpline
 62
253
  6
CONTINUOUS
 70
0
 71
3
 72
9
 73
5
 74
3
 42
0.0000001
 43
0.0000001
 44
0.0000000001
 12
-0.0337324291
 22
-41.1936844837
 32
0.0
 13
0.0337324631
 23
-41.1936844837
 33
0.0
 40
0.0
 40
0.0
 40
0.0
 40
0.0
 40
0.2499398719
 40
1.0
 40
1.0
 40
1.0
 40
1.0
 10
9.5006110984
 20
20.5968478537
 30
0.0
 10
9.4978007388
 20
17.1648664456
 30
0.0
 10
9.489372185
 20
3.433636124
 30
0.0
 10
9.4921773066
 20
-10.2976011006
 30
0.0
 10
9.5006110984
 20
-20.5968478537
 30
0.0
 11
9.5006110984
 21
20.5968478537
 31
0.0
 11
9.4942892425
 21
10.3009021183
 31
0.0
 11
9.5006110984
 21
-20.5968478537
 31
0.0
  0
LINE
  5
3C5
100
AcDbEntity
  8
0
100
AcDbLine
 62
253
  6
CONTINUOUS
 10
9.5006101257
 20
-20.5970426286
 11
9.0869771442
 21
-20.5961282587
  0
LINE
  5
3C6
100
AcDbEntity
  8
0
100
AcDbLine
 62
253
  6
CONTINUOUS
 10
9.0875170447
 20
-20.5963161258
 11
9.0868062389
 21
-20.2708044839
  0
LINE
  5
3C7
100
AcDbEntity
  8
0
100
AcDbLine
 62
253
  6
CONTINUOUS
 10
7.9201314852
 20
-20.2689869935
 11
9.0873273954
 21
-20.2712946761
  0
LINE
  5
3C8
100
AcDbEntity
  8
0
100
AcDbLine
 62
253
  6
CONTINUOUS
 10
7.9202038675
 20
-20.362417761
 11
7.010863547
 21
-20.361772022
  0
LINE
  5
3C9
100
AcDbEntity
  8
0
100
AcDbLine
 62
253
  6
CONTINUOUS
 10
-7.0108980245
 20
-20.3617720841
 11
-7.9202038441
 21
-20.362417761
  0
LINE
  5
3CA
100
AcDbEntity
  8
0
100
AcDbLine
 62
253
  6
CONTINUOUS
 10
-9.0873275633
 20
-20.2712593163
 11
-7.9201316349
 21
-20.2689516394
  0
LINE
  5
3CB
100
AcDbEntity
  8
0
100
AcDbLine
 62
253
  6
CONTINUOUS
 10
-9.0867953457
 20
-20.2708045364
 11
-9.0875061506
 21
-20.5963161789
  0
LINE
  5
3CC
100
AcDbEntity
  8
0
100
AcDbLine
 62
253
  6
CONTINUOUS
 10
-9.0869771442
 20
-20.5961282617
 11
-9.5006101257
 21
-20.5970426316
  0
SPLINE
  5
3CD
100
AcDbEntity
  8
0
100
AcDbSpline
 62
253
  6
CONTINUOUS
 70
0
 71
3
 72
9
 73
5
 74
3
 42
0.0000001
 43
0.0000001
 44
0.0000000001
 12
0.0337324291
 22
41.1936844837
 32
0.0
 13
-0.0337324631
 23
41.1936844837
 33
0.0
 40
0.0
 40
0.0
 40
0.0
 40
0.0
 40
0.2499398719
 40
1.0
 40
1.0
 40
1.0
 40
1.0
 10
-9.5006110984
 20
-20.5968478537
 30
0.0
 10
-9.4978007388
 20
-17.1648664456
 30
0.0
 10
-9.489372185
 20
-3.4336361241
 30
0.0
 10
-9.4921773066
 20
10.2976011006
 30
0.0
 10
-9.5006110984
 20
20.5968478537
 30
0.0
 11
-9.5006110984
 21
-20.5968478537
 31
0.0
 11
-9.4942892425
 21
-10.3009021183
 31
0.0
 11
-9.5006110984
 21
20.5968478537
 31
0.0
  0
LINE
  5
3CE
100
AcDbEntity
  8
0
100
AcDbLine
 62
253
  6
CONTINUOUS
 10
-9.5006101257
 20
20.5970426286
 11
-9.0869771442
 21
20.5961282587
  0
LINE
  5
3CF
100
AcDbEntity
  8
0
100
AcDbLine
 62
253
  6
CONTINUOUS
 10
-9.087517044
 20
20.5963161258
 11
-9.0868062382
 21
20.2708044839
  0
LINE
  5
3D0
100
AcDbEntity
  8
0
100
AcDbLine
 62
253
  6
CONTINUOUS
 10
-7.9201314852
 20
20.2689869935
 11
-9.0873273954
 21
20.2712946761
  0
SPLINE
  5
3D1
100
AcDbEntity
  8
0
100
AcDbSpline
 62
7
  6
CONTINUOUS
 70
0
 71
3
 72
16
 73
12
 74
10
 42
0.0000001
 43
0.0000001
 44
0.0000000001
 12
0.000151854
 22
0.1909623375
 32
0.0
 13
0.1059175719
 23
0.158896524
 33
0.0
 40
0.0
 40
0.0
 40
0.0
 40
0.0
 40
0.3801430494
 40
0.5509581306
 40
0.7006144555
 40
0.8240137829
 40
0.917047426
 40
0.9510243145
 40
0.9762735481
 40
0.9926322318
 40
1.0
 40
1.0
 40
1.0
 40
1.0
 10
7.9201296682
 20
20.2694163365
 30
0.0
 10
7.9201489102
 20
20.2936140049
 30
0.0
 10
7.9202818068
 20
20.3286853838
 30
0.0
 10
7.9207147297
 20
20.3732792484
 30
0.0
 10
7.9211154575
 20
20.4015334391
 30
0.0
 10
7.9216120007
 20
20.4248240335
 30
0.0
 10
7.9220632437
 20
20.440773825
 30
0.0
 10
7.9225412865
 20
20.4504324388
 30
0.0
 10
7.9227783635
 20
20.4552762631
 30
0.0
 10
7.923185581
 20
20.458299632
 30
0.0
 10
7.9232735679
 20
20.45989574
 30
0.0
 10
7.9235336933
 20
20.4602859775
 30
0.0
 11
7.9201296682
 21
20.2694163365
 31
0.0
 11
7.9204311044
 21
20.3420087389
 31
0.0
 11
7.9207537418
 21
20.3746264007
 31
0.0
 11
7.9211763635
 21
20.4032020064
 31
0.0
 11
7.9216845429
 21
20.4267611576
 31
0.0
 11
7.9222608195
 21
20.4445177364
 31
0.0
 11
7.9225686282
 21
20.450998739
 31
0.0
 11
7.9228855893
 21
20.4558099639
 31
0.0
 11
7.923208384
 21
20.4589171353
 31
0.0
 11
7.9235336933
 21
20.4602859775
 31
0.0
  0
SPLINE
  5
3D2
100
AcDbEntity
  8
0
100
AcDbSpline
 62
7
  6
CONTINUOUS
 70
0
 71
3
 72
16
 73
12
 74
10
 42
0.0000001
 43
0.0000001
 44
0.0000000001
 12
0.2790882074
 22
-0.0561065229
 32
0.0
 13
0.2014867
 23
-0.2011001719
 33
0.0
 40
0.0
 40
0.0
 40
0.0
 40
0.0
 40
0.0164183926
 40
0.0443761637
 40
0.0826435189
 40
0.1297856625
 40
0.2447584789
 40
0.3790370585
 40
0.5257198638
 40
0.6801625247
 40
1.0
 40
1.0
 40
1.0
 40
1.0
 10
8.8767940404
 20
20.4616848872
 30
0.0
 10
8.8783214337
 20
20.4613778275
 30
0.0
 10
8.8820668488
 20
20.4592330119
 30
0.0
 10
8.8885456266
 20
20.4549199119
 30
0.0
 10
8.8971054871
 20
20.4483503262
 30
0.0
 10
8.911838536
 20
20.4363504412
 30
0.0
 10
8.9330678319
 20
20.4178801187
 30
0.0
 10
8.9609092526
 20
20.3926574817
 30
0.0
 10
8.9911135793
 20
20.3644633809
 30
0.0
 10
9.0337360643
 20
20.3237775051
 30
0.0
 10
9.0658487362
 20
20.2922417539
 30
0.0
 10
9.0873297353
 20
20.2708019634
 30
0.0
 11
8.8767940404
 21
20.4616848872
 31
0.0
 11
8.8810564168
 21
20.4597673131
 31
0.0
 11
8.8877033199
 21
20.4553899729
 31
0.0
 11
8.896401428
 21
20.4488314335
 31
0.0
 11
8.9068252691
 21
20.4403791391
 31
0.0
 11
8.931615731
 21
20.4190096238
 31
0.0
 11
8.9599762024
 21
20.393380313
 31
0.0
 11
8.9905230079
 21
20.364911077
 31
0.0
 11
9.0223366468
 21
20.3345654316
 31
0.0
 11
9.0873297353
 21
20.2708019634
 31
0.0
  0
SPLINE
  5
3D3
100
AcDbEntity
  8
0
100
AcDbSpline
 62
7
  6
CONTINUOUS
 70
0
 71
3
 72
16
 73
12
 74
10
 42
0.0000001
 43
0.0000001
 44
0.0000000001
 12
0.1059175681
 22
-0.1588965265
 32
0.0
 13
0.000151854
 23
-0.1909623374
 33
0.0
 40
0.0
 40
0.0
 40
0.0
 40
0.0
 40
0.0073677683
 40
0.0237264521
 40
0.0489756858
 40
0.0829525744
 40
0.1759862177
 40
0.2993855451
 40
0.44904187
 40
0.6198569511
 40
1.0
 40
1.0
 40
1.0
 40
1.0
 10
-7.9235336933
 20
20.4602859775
 30
0.0
 10
-7.9232735679
 20
20.4598957399
 30
0.0
 10
-7.923185581
 20
20.458299632
 30
0.0
 10
-7.9227783635
 20
20.4552762631
 30
0.0
 10
-7.9225412865
 20
20.4504324388
 30
0.0
 10
-7.9220632437
 20
20.4407738249
 30
0.0
 10
-7.9216120007
 20
20.4248240334
 30
0.0
 10
-7.9211154575
 20
20.401533439
 30
0.0
 10
-7.9207147297
 20
20.3732792483
 30
0.0
 10
-7.9202818068
 20
20.3286853837
 30
0.0
 10
-7.9201489102
 20
20.2936140049
 30
0.0
 10
-7.9201296682
 20
20.2694163365
 30
0.0
 11
-7.9235336933
 21
20.4602859775
 31
0.0
 11
-7.923208384
 21
20.4589171353
 31
0.0
 11
-7.9228855893
 21
20.4558099639
 31
0.0
 11
-7.9225686282
 21
20.450998739
 31
0.0
 11
-7.9222608195
 21
20.4445177363
 31
0.0
 11
-7.9216845429
 21
20.4267611575
 31
0.0
 11
-7.9211763635
 21
20.4032020063
 31
0.0
 11
-7.9207537418
 21
20.3746264006
 31
0.0
 11
-7.9204311044
 21
20.3420087388
 31
0.0
 11
-7.9201296682
 21
20.2694163365
 31
0.0
  0
SPLINE
  5
3D4
100
AcDbEntity
  8
0
100
AcDbSpline
 62
253
  6
CONTINUOUS
 70
0
 71
3
 72
15
 73
11
 74
9
 42
0.0000001
 43
0.0000001
 44
0.0000000001
 12
0.2124704791
 22
0.0089694806
 32
0.0
 13
0.0407183774
 23
0.2087251058
 33
0.0
 40
0.0
 40
0.0
 40
0.0
 40
0.0
 40
0.1887259472
 40
0.3729722202
 40
0.5440290323
 40
0.6952459336
 40
0.820663258
 40
0.9153025717
 40
0.9750321077
 40
1.0
 40
1.0
 40
1.0
 40
1.0
 10
-9.0869762264
 20
-20.5963187592
 30
0.0
 10
-9.0736099956
 20
-20.5957545013
 30
0.0
 10
-9.0471649947
 20
-20.5955159383
 30
0.0
 10
-9.0085918718
 20
-20.5959319353
 30
0.0
 10
-8.9727265967
 20
-20.595324126
 30
0.0
 10
-8.9408899052
 20
-20.5940260594
 30
0.0
 10
-8.9149678583
 20
-20.5925210727
 30
0.0
 10
-8.8943263939
 20
-20.5910250129
 30
0.0
 10
-8.8832789733
 20
-20.5903432215
 30
0.0
 10
-8.8753842011
 20
-20.5891777176
 30
0.0
 10
-8.8750453171
 20
-20.5874405756
 30
0.0
 11
-9.0869762264
 21
-20.5963187592
 31
0.0
 11
-9.0468474388
 21
-20.5956471772
 31
0.0
 11
-9.0076658246
 21
-20.5957543142
 31
0.0
 11
-8.9712940174
 21
-20.5951460149
 31
0.0
 11
-8.9391621645
 21
-20.5938558557
 31
0.0
 11
-8.9125361458
 21
-20.5923038477
 31
0.0
 11
-8.892457258
 21
-20.5909280112
 31
0.0
 11
-8.8798061317
 21
-20.5897915724
 31
0.0
 11
-8.8750453171
 21
-20.5874405756
 31
0.0
  0
SPLINE
  5
3D5
100
AcDbEntity
  8
RACCORDO
100
AcDbSpline
 62
7
  6
CONTINUOUS
 70
0
 71
3
 72
11
 73
7
 74
5
 42
0.0000001
 43
0.0000001
 44
0.0000000001
 12
0.2345872736
 22
-0.0000000023
 32
0.0
 13
-0.0000000029
 23
0.2345872736
 33
0.0
 40
0.0
 40
0.0
 40
0.0
 40
0.0
 40
0.2499743785
 40
0.4999763766
 40
0.7499925286
 40
1.0
 40
1.0
 40
1.0
 40
1.0
 10
-9.94945853
 20
5.239274759
 30
0.0
 10
-9.929911594
 20
5.2392747588
 30
0.0
 10
-9.890374382
 20
5.2472112138
 30
0.0
 10
-9.8406610874
 20
5.281072479
 30
0.0
 10
-9.8076567865
 20
5.331313175
 30
0.0
 10
-9.7999999998
 20
5.370830993
 30
0.0
 10
-9.8
 20
5.3903805167
 30
0.0
 11
-9.94945853
 21
5.239274759
 31
0.0
 11
-9.8919754523
 21
5.2508695911
 31
0.0
 11
-9.8434470718
 21
5.2838013474
 31
0.0
 11
-9.8112431211
 21
5.3328197043
 31
0.0
 11
-9.8
 21
5.3903805167
 31
0.0
  0
SPLINE
  5
3D6
100
AcDbEntity
  8
0
100
AcDbSpline
 62
253
  6
CONTINUOUS
 70
0
 71
3
 72
16
 73
12
 74
10
 42
0.0000001
 43
0.0000001
 44
0.0000000001
 12
-0.0073441034
 22
-0.1918280563
 32
0.0
 13
0.136904443
 23
-0.1345701027
 33
0.0
 40
0.0
 40
0.0
 40
0.0
 40
0.0
 40
0.3781138702
 40
0.5482856579
 40
0.6974865685
 40
0.8207557336
 40
0.9141713547
 40
0.9486849513
 40
0.9746880893
 40
0.9918930714
 40
1.0
 40
1.0
 40
1.0
 40
1.0
 10
-9.0869762264
 20
-20.5963187592
 30
0.0
 10
-9.0879018621
 20
-20.6204963754
 30
0.0
 10
-9.0863349356
 20
-20.6556106452
 30
0.0
 10
-9.0845942575
 20
-20.700194008
 30
0.0
 10
-9.0833777558
 20
-20.7284995217
 30
0.0
 10
-9.081848928
 20
-20.7518525669
 30
0.0
 10
-9.0801835734
 20
-20.7678748422
 30
0.0
 10
-9.0782932253
 20
-20.7775292249
 30
0.0
 10
-9.0770805775
 20
-20.782388154
 30
0.0
 10
-9.0759581989
 20
-20.7854198505
 30
0.0
 10
-9.0753848142
 20
-20.7870083905
 30
0.0
 10
-9.0750148561
 20
-20.7873720406
 30
0.0
 11
-9.0869762264
 21
-20.5963187592
 31
0.0
 11
-9.0858351174
 21
-20.6688957751
 31
0.0
 11
-9.0845190148
 21
-20.7015368909
 31
0.0
 11
-9.083189644
 21
-20.7301479121
 31
0.0
 11
-9.081552293
 21
-20.7537550058
 31
0.0
 11
-9.0794076182
 21
-20.7715591631
 31
0.0
 11
-9.0781233237
 21
-20.7780590237
 31
0.0
 11
-9.0768451877
 21
-20.7828844038
 31
0.0
 11
-9.0757500764
 21
-20.7860003829
 31
0.0
 11
-9.0750148561
 21
-20.7873720406
 31
0.0
  0
SPLINE
  5
3D7
100
AcDbEntity
  8
RACCORDO
100
AcDbSpline
 62
7
  6
CONTINUOUS
 70
0
 71
3
 72
11
 73
7
 74
5
 42
0.0000001
 43
0.0000001
 44
0.0000000001
 12
0.0000001009
 22
0.2345873608
 32
0.0
 13
-0.2345873608
 23
-0.0000000164
 33
0.0
 40
0.0
 40
0.0
 40
0.0
 40
0.0
 40
0.250007472
 40
0.5000236237
 40
0.7500256231
 40
1.0
 40
1.0
 40
1.0
 40
1.0
 10
-9.8
 20
-5.3903805167
 30
0.0
 10
-9.7999999916
 20
-5.3708309857
 30
0.0
 10
-9.8076567638
 20
-5.3313131467
 30
0.0
 10
-9.8406610465
 20
-5.2810724292
 30
0.0
 10
-9.8903743282
 20
-5.2472110538
 30
0.0
 10
-9.9299115903
 20
-5.2392747569
 30
0.0
 10
-9.9494585334
 20
-5.2392747583
 30
0.0
 11
-9.8
 21
-5.3903805167
 31
0.0
 11
-9.8112430991
 21
-5.3328196777
 31
0.0
 11
-9.8434470317
 21
-5.2838012829
 31
0.0
 11
-9.8919754134
 21
-5.250869489
 31
0.0
 11
-9.9494585334
 21
-5.2392747583
 31
0.0
  0
SPLINE
  5
3D8
100
AcDbEntity
  8
0
100
AcDbSpline
 62
253
  6
CONTINUOUS
 70
0
 71
3
 72
14
 73
10
 74
8
 42
0.0000001
 43
0.0000001
 44
0.0000000001
 12
0.0084285234
 22
-0.1922156867
 32
0.0
 13
0.1863708928
 23
-0.0477891259
 33
0.0
 40
0.0
 40
0.0
 40
0.0
 40
0.0
 40
0.3774912904
 40
0.5473527092
 40
0.6964395938
 40
0.8196810303
 40
0.912845034
 40
0.9724984945
 40
1.0
 40
1.0
 40
1.0
 40
1.0
 10
-9.5006110984
 20
-20.5968478537
 30
0.0
 10
-9.4995505337
 20
-20.6210344363
 30
0.0
 10
-9.4999875946
 20
-20.656172986
 30
0.0
 10
-9.4985824527
 20
-20.7007896941
 30
0.0
 10
-9.4968616286
 20
-20.729174471
 30
0.0
 10
-9.4949633121
 20
-20.75232953
 30
0.0
 10
-9.4928704359
 20
-20.7704322441
 30
0.0
 10
-9.4917673295
 20
-20.780925857
 30
0.0
 10
-9.4898133988
 20
-20.7875982795
 30
0.0
 10
-9.4881049055
 20
-20.7880363705
 30
0.0
 11
-9.5006110984
 21
-20.5968478537
 31
0.0
 11
-9.499420232
 21
-20.6694675617
 31
0.0
 11
-9.4983710119
 21
-20.7021321183
 31
0.0
 11
-9.4966547603
 21
-20.7307651035
 31
0.0
 11
-9.4946395336
 21
-20.754391013
 31
0.0
 11
-9.4926995191
 21
-20.7722105098
 31
0.0
 11
-9.4909050486
 21
-20.7835467092
 31
0.0
 11
-9.4881049055
 21
-20.7880363705
 31
0.0
  0
SPLINE
  5
3D9
100
AcDbEntity
  8
RACCORDO
100
AcDbSpline
 62
253
  6
CONTINUOUS
 70
0
 71
3
 72
17
 73
13
 74
11
 42
0.0000001
 43
0.0000001
 44
0.0000000001
 12
-0.0000613023
 22
5.2446203261
 32
0.0
 13
0.9108201106
 23
5.1649248876
 33
0.0
 40
0.0
 40
0.0
 40
0.0
 40
0.0
 40
0.17844848
 40
0.3512955225
 40
0.5131164498
 40
0.6588373998
 40
0.7838906992
 40
0.8843645768
 40
0.9243739477
 40
0.9571344796
 40
0.9824002302
 40
1.0
 40
1.0
 40
1.0
 40
1.0
 10
9.828286898
 20
-0.0023339417
 30
0.0
 10
9.8282832516
 20
0.3096309001
 30
0.0
 10
9.8297250112
 20
0.9237691431
 30
0.0
 10
9.8361912025
 20
1.820783319
 30
0.0
 10
9.8467313609
 20
2.6605403743
 30
0.0
 10
9.8609444193
 20
3.416680455
 30
0.0
 10
9.8783661927
 20
4.0654693042
 30
0.0
 10
9.8958842964
 20
4.5293759796
 30
0.0
 10
9.9119199456
 20
4.831818482
 30
0.0
 10
9.9233269335
 20
5.0028430513
 30
0.0
 10
9.9349900339
 20
5.134527898
 30
0.0
 10
9.9441151218
 20
5.2089742613
 30
0.0
 10
9.9494585299
 20
5.2392747577
 30
0.0
 11
9.828286898
 21
-0.0023339417
 31
0.0
 11
9.8305182887
 21
0.9335579238
 31
0.0
 11
9.8371638596
 21
1.8400506767
 31
0.0
 11
9.848013932
 21
2.688670642
 31
0.0
 11
9.8627270317
 21
3.4527800595
 31
0.0
 11
9.880840242
 21
4.108386966
 31
0.0
 11
9.9017839302
 21
4.6349179355
 31
0.0
 11
9.9131143203
 21
4.8444457687
 31
0.0
 11
9.9248993456
 21
5.0158576719
 31
0.0
 11
9.9370458048
 21
5.1478090641
 31
0.0
 11
9.9494585299
 21
5.2392747577
 31
0.0
  0
SPLINE
  5
3DA
100
AcDbEntity
  8
RACCORDO
100
AcDbSpline
 62
253
  6
CONTINUOUS
 70
0
 71
3
 72
17
 73
13
 74
11
 42
0.0000001
 43
0.0000001
 44
0.0000000001
 12
-0.9100198767
 22
5.1603261384
 32
0.0
 13
-0.0000618841
 23
5.2399524833
 33
0.0
 40
0.0
 40
0.0
 40
0.0
 40
0.0
 40
0.0176033694
 40
0.0428710835
 40
0.0756307279
 40
0.1156361211
 40
0.2160964543
 40
0.3411325585
 40
0.4868385802
 40
0.6486557797
 40
0.821517144
 40
1.0
 40
1.0
 40
1.0
 40
1.0
 10
9.9494585297
 20
-5.2392747569
 30
0.0
 10
9.9441187244
 20
-5.2089950479
 30
0.0
 10
9.9349986761
 20
-5.1346055695
 30
0.0
 10
9.9233417883
 20
-5.0030300702
 30
0.0
 10
9.911940863
 20
-4.8321630797
 30
0.0
 10
9.8959138105
 20
-4.5300222529
 30
0.0
 10
9.8784031693
 20
-4.0665894564
 30
0.0
 10
9.8609856764
 20
-3.4184581389
 30
0.0
 10
9.8467714622
 20
-2.6630539325
 30
0.0
 10
9.836224224
 20
-1.8240520601
 30
0.0
 10
9.829744866
 20
-0.9277578381
 30
0.0
 10
9.8282905798
 20
-0.3140811699
 30
0.0
 10
9.828286898
 20
-0.0023339417
 30
0.0
 11
9.9494585297
 21
-5.2392747569
 31
0.0
 11
9.9370527178
 21
-5.1478719969
 31
0.0
 11
9.9249127647
 21
-5.0160281087
 31
0.0
 11
9.913134185
 21
-4.8447737057
 31
0.0
 11
9.9018098994
 21
-4.635453446
 31
0.0
 11
9.8808757712
 21
-4.1094624916
 31
0.0
 11
9.8627675051
 21
-3.4545295375
 31
0.0
 11
9.8480537209
 21
-2.6911787
 31
0.0
 11
9.8371966328
 21
-1.8433337755
 31
0.0
 11
9.8305376582
 21
-0.9375729178
 31
0.0
 11
9.828286898
 21
-0.0023339417
 31
0.0
  0
SPLINE
  5
3DB
100
AcDbEntity
  8
RACCORDO
100
AcDbSpline
 62
253
  6
CONTINUOUS
 70
0
 71
3
 72
17
 73
13
 74
11
 42
0.0000001
 43
0.0000001
 44
0.0000000001
 12
-0.0000735438
 22
-5.2395728316
 32
0.0
 13
-0.9099372057
 23
-5.1599552076
 33
0.0
 40
0.0
 40
0.0
 40
0.0
 40
0.0
 40
0.178487117
 40
0.3513474682
 40
0.5131644249
 40
0.658871627
 40
0.7839078945
 40
0.8843670456
 40
0.9243720726
 40
0.9571310277
 40
0.9823973936
 40
1.0
 40
1.0
 40
1.0
 40
1.0
 10
-9.828286903
 20
-0.0027135989
 30
0.0
 10
-9.8282912785
 20
-0.3144456819
 30
0.0
 10
-9.8297464512
 20
-0.9280835571
 30
0.0
 10
-9.8362269125
 20
-1.8243180769
 30
0.0
 10
-9.8467747143
 20
-2.6632590121
 30
0.0
 10
-9.8609891491
 20
-3.4186103864
 30
0.0
 10
-9.8784065735
 20
-4.0666949968
 30
0.0
 10
-9.8959169394
 20
-4.5300917568
 30
0.0
 10
-9.9119434786
 20
-4.832206749
 30
0.0
 10
-9.92334402
 20
-5.003057116
 30
0.0
 10
-9.9349999832
 20
-5.1346181934
 30
0.0
 10
-9.9441194411
 20
-5.2089985381
 30
0.0
 10
-9.94945853
 20
-5.2392747583
 30
0.0
 11
-9.828286903
 21
-0.0027135989
 31
0.0
 11
-9.8305392718
 21
-0.9379071356
 31
0.0
 11
-9.8371992476
 21
-1.8435970489
 31
0.0
 11
-9.8480568912
 21
-2.6913792541
 31
0.0
 11
-9.8627709829
 21
-3.4546809438
 31
0.0
 11
-9.8808792091
 21
-4.1095672674
 31
0.0
 11
-9.9018128315
 21
-4.6355138729
 31
0.0
 11
-9.9131368312
 21
-4.8448170165
 31
0.0
 11
-9.9249149593
 21
-5.0160553633
 31
0.0
 11
-9.9370538825
 21
-5.1478826189
 31
0.0
 11
-9.94945853
 21
-5.2392747583
 31
0.0
  0
SPLINE
  5
3DC
100
AcDbEntity
  8
RACCORDO
100
AcDbSpline
 62
253
  6
CONTINUOUS
 70
0
 71
3
 72
17
 73
13
 74
11
 42
0.0000001
 43
0.0000001
 44
0.0000000001
 12
0.9108868578
 22
-5.1652986316
 32
0.0
 13
-0.000070903
 23
-5.2449999825
 33
0.0
 40
0.0
 40
0.0
 40
0.0
 40
0.0
 40
0.0175999448
 40
0.0428666825
 40
0.075628349
 40
0.1156384325
 40
0.2161129502
 40
0.3411658437
 40
0.4868852836
 40
0.6487059564
 40
0.8215538813
 40
1.0
 40
1.0
 40
1.0
 40
1.0
 10
-9.9494585301
 20
5.239274759
 30
0.0
 10
-9.9441146773
 20
5.2089717687
 30
0.0
 10
-9.9349889183
 20
5.1345179624
 30
0.0
 10
-9.9233250761
 20
5.0028195471
 30
0.0
 10
-9.9119174402
 20
4.8317776176
 30
0.0
 10
-9.8958812405
 20
4.5293088352
 30
0.0
 10
-9.8783628065
 20
4.0653668871
 30
0.0
 10
-9.8609410259
 20
3.4165332705
 30
0.0
 10
-9.8467282058
 20
2.6603422252
 30
0.0
 10
-9.8361886196
 20
1.8205259057
 30
0.0
 10
-9.829723378
 20
0.9234498152
 30
0.0
 10
-9.8282826855
 20
0.3092696976
 30
0.0
 10
-9.828286903
 20
-0.0027135989
 30
0.0
 11
-9.9494585301
 21
5.239274759
 31
0.0
 11
-9.9370449692
 21
5.1478015095
 31
0.0
 11
-9.9248975873
 21
5.0158353701
 31
0.0
 11
-9.9131118253
 21
4.8444050856
 31
0.0
 11
-9.9017809968
 21
4.6348583207
 31
0.0
 11
-9.8808368587
 21
4.1082858333
 31
0.0
 11
-9.8627236235
 21
3.4526335622
 31
0.0
 11
-9.8480108535
 21
2.6884767263
 31
0.0
 11
-9.8371613368
 21
1.8397966474
 31
0.0
 11
-9.830516718
 21
0.9332336344
 31
0.0
 11
-9.828286903
 21
-0.0027135989
 31
0.0
  0
LINE
  5
3DD
100
AcDbEntity
  8
0
100
AcDbLine
 62
253
  6
CONTINUOUS
 10
-9.0750148561
 20
-20.7873720406
 11
-9.4881049055
 21
-20.7880363705
  0
LINE
  5
3DE
100
AcDbEntity
  8
0
100
AcDbLine
 62
253
  6
CONTINUOUS
 10
9.4881049055
 20
-20.7880363705
 11
9.0750148561
 21
-20.7873720406
  0
LINE
  5
3DF
100
AcDbEntity
  8
0
100
AcDbLine
 62
253
  6
CONTINUOUS
 10
7.9278627373
 20
-20.791780368
 11
7.003166264
 21
-20.7905756482
  0
LINE
  5
3E0
100
AcDbEntity
  8
0
100
AcDbLine
 62
253
  6
CONTINUOUS
 10
-7.0032918522
 20
-20.7905758283
 11
-7.9278627373
 21
-20.791780368
  0
LINE
  5
3E1
100
AcDbEntity
  8
0
100
AcDbLine
 62
253
  6
CONTINUOUS
 10
-9.4881049055
 20
20.7880363705
 11
-9.0750148561
 21
20.7873720406
  0
LINE
  5
3E2
100
AcDbEntity
  8
0
100
AcDbLine
 62
253
  6
CONTINUOUS
 10
9.0750148561
 20
20.7873720406
 11
9.4881049055
 21
20.7880363705
  0
LINE
  5
3E3
100
AcDbEntity
  8
0
100
AcDbLine
 62
253
  6
CONTINUOUS
 10
-7.9278627373
 20
20.791780368
 11
-7.0031662611
 21
20.7905756482
  0
LINE
  5
3E4
100
AcDbEntity
  8
0
100
AcDbLine
 62
253
  6
CONTINUOUS
 10
7.0032918534
 20
20.7905758282
 11
7.9278627373
 21
20.791780368
  0
SPLINE
  5
3E5
100
AcDbEntity
  8
RACCORDO
100
AcDbSpline
 62
253
  6
CONTINUOUS
 70
0
 71
3
 72
18
 73
14
 74
12
 42
0.0000001
 43
0.0000001
 44
0.0000000001
 12
-0.0000604238
 22
5.395754263
 32
0.0
 13
0.9330949246
 23
5.3144612081
 33
0.0
 40
0.0
 40
0.0
 40
0.0
 40
0.0
 40
0.1787895472
 40
0.3519395398
 40
0.5139892399
 40
0.6598325773
 40
0.7848751899
 40
0.8383383875
 40
0.8851864221
 40
0.9250529306
 40
0.9576288109
 40
0.9826680644
 40
1.0
 40
1.0
 40
1.0
 40
1.0
 10
9.6783382993
 20
-0.0024000807
 30
0.0
 10
9.6783346982
 20
0.319168073
 30
0.0
 10
9.6797825813
 20
0.9521622502
 30
0.0
 10
9.6862817307
 20
1.8765960548
 30
0.0
 10
9.6968612281
 20
2.7417329728
 30
0.0
 10
9.7111636234
 20
3.520277806
 30
0.0
 10
9.7263768803
 20
4.1034595575
 30
0.0
 10
9.7405420629
 20
4.5085320109
 30
0.0
 10
9.7511891239
 20
4.7604329823
 30
0.0
 10
9.7623280374
 20
4.9746978239
 30
0.0
 10
9.7737632343
 20
5.149672313
 30
0.0
 10
9.7854599045
 20
5.283951228
 30
0.0
 10
9.7946092196
 20
5.3596772168
 30
0.0
 10
9.8
 20
5.3903805167
 30
0.0
 11
9.6783382993
 21
-0.0024000807
 31
0.0
 11
9.6805805856
 21
0.9623017747
 31
0.0
 11
9.6872582194
 21
1.8965527217
 31
0.0
 11
9.6981595074
 21
2.7708651232
 31
0.0
 11
9.7129397328
 21
3.5576611196
 31
0.0
 11
9.7311316399
 21
4.232115031
 31
0.0
 11
9.7413310529
 21
4.5204089437
 31
0.0
 11
9.7521603589
 21
4.7729573519
 31
0.0
 11
9.7635338128
 21
4.9877663513
 31
0.0
 11
9.775361223
 21
5.1631394203
 31
0.0
 11
9.7875485974
 21
5.2976942674
 31
0.0
 11
9.8
 21
5.3903805167
 31
0.0
  0
SPLINE
  5
3E6
100
AcDbEntity
  8
RACCORDO
100
AcDbSpline
 62
253
  6
CONTINUOUS
 70
0
 71
3
 72
18
 73
14
 74
12
 42
0.0000001
 43
0.0000001
 44
0.0000000001
 12
-0.9322886393
 22
5.3097292187
 32
0.0
 13
-0.0000616606
 23
5.3909541344
 33
0.0
 40
0.0
 40
0.0
 40
0.0
 40
0.0
 40
0.0173355597
 40
0.0423767761
 40
0.0749517592
 40
0.1148143104
 40
0.1616562858
 40
0.2151119552
 40
0.3401372918
 40
0.4859655953
 40
0.6480115218
 40
0.8211758955
 40
1.0
 40
1.0
 40
1.0
 40
1.0
 10
9.8
 20
-5.3903805167
 30
0.0
 10
9.7946127515
 20
-5.3596981407
 30
0.0
 10
9.7854686748
 20
-5.2840297859
 30
0.0
 10
9.7737780775
 20
-5.1498622274
 30
0.0
 10
9.7623489573
 20
-4.975048879
 30
0.0
 10
9.7512158459
 20
-4.7609944979
 30
0.0
 10
9.7405738861
 20
-4.5093493618
 30
0.0
 10
9.7264145074
 20
-4.1046929976
 30
0.0
 10
9.7112049216
 20
-3.5221019207
 30
0.0
 10
9.696901406
 20
-2.7443147972
 30
0.0
 10
9.6863148087
 20
-1.8799556728
 30
0.0
 10
9.679802515
 20
-0.9562632282
 30
0.0
 10
9.6783419748
 20
-0.3237442625
 30
0.0
 10
9.6783382993
 20
-0.0024000807
 30
0.0
 11
9.8
 21
-5.3903805167
 31
0.0
 11
9.7875555239
 21
-5.2977575671
 31
0.0
 11
9.7753746466
 21
-5.1633121898
 31
0.0
 11
9.7635536742
 21
-4.9881002584
 31
0.0
 11
9.7521863361
 21
-4.7735039305
 31
0.0
 11
9.7413623384
 21
-4.5212130729
 31
0.0
 11
9.731167205
 21
-4.2332164097
 31
0.0
 11
9.7129802657
 21
-3.5594559711
 31
0.0
 11
9.6981993688
 21
-2.7734412394
 31
0.0
 11
9.6872910618
 21
-1.89992719
 31
0.0
 11
9.6806000017
 21
-0.966429973
 31
0.0
 11
9.6783382993
 21
-0.0024000807
 31
0.0
  0
SPLINE
  5
3E7
100
AcDbEntity
  8
RACCORDO
100
AcDbSpline
 62
253
  6
CONTINUOUS
 70
0
 71
3
 72
18
 73
14
 74
12
 42
0.0000001
 43
0.0000001
 44
0.0000000001
 12
-0.0000749263
 22
-5.3905637442
 32
0.0
 13
-0.9321888875
 23
-5.3093503712
 33
0.0
 40
0.0
 40
0.0
 40
0.0
 40
0.0
 40
0.1788284282
 40
0.3519918318
 40
0.5140375804
 40
0.6598671369
 40
0.7848926702
 40
0.8383479311
 40
0.8851891289
 40
0.9250512898
 40
0.9576255531
 40
0.9826653401
 40
1.0
 40
1.0
 40
1.0
 40
1.0
 10
-9.6783383042
 20
-0.0027904829
 30
0.0
 10
-9.6783427705
 20
-0.3241191634
 30
0.0
 10
-9.6798040556
 20
-0.9565983481
 30
0.0
 10
-9.6863175198
 20
-1.8802295983
 30
0.0
 10
-9.6969046743
 20
-2.7445263015
 30
0.0
 10
-9.71120841
 20
-3.5222593637
 30
0.0
 10
-9.7264179901
 20
-4.104810095
 30
0.0
 10
-9.7405771582
 20
-4.5094353494
 30
0.0
 10
-9.751218868
 20
-4.7610594036
 30
0.0
 10
-9.7623515811
 20
-4.975094872
 30
0.0
 10
-9.7737803621
 20
-5.1498909434
 30
0.0
 10
-9.7854698425
 20
-5.2840433374
 30
0.0
 10
-9.7946136076
 20
-5.3597019223
 30
0.0
 10
-9.8
 20
-5.3903805167
 30
0.0
 11
-9.6783383042
 21
-0.0027904829
 31
0.0
 11
-9.6806016171
 21
-0.9667738674
 31
0.0
 11
-9.6872936873
 21
-1.9001982445
 31
0.0
 11
-9.6982025556
 21
-2.7736480616
 31
0.0
 11
-9.712983765
 21
-3.5596126031
 31
0.0
 11
-9.7311706671
 21
-4.2333252763
 31
0.0
 11
-9.7413656203
 21
-4.5212988615
 31
0.0
 11
-9.7521892901
 21
-4.773567234
 31
0.0
 11
-9.7635563445
 21
-4.9881458864
 31
0.0
 11
-9.7753768565
 21
-5.1633412139
 31
0.0
 11
-9.787556684
 21
-5.2977691337
 31
0.0
 11
-9.8
 21
-5.3903805167
 31
0.0
  0
SPLINE
  5
3E8
100
AcDbEntity
  8
RACCORDO
100
AcDbSpline
 62
253
  6
CONTINUOUS
 70
0
 71
3
 72
18
 73
14
 74
12
 42
0.0000001
 43
0.0000001
 44
0.0000000001
 12
0.9331765838
 22
-5.3148432445
 32
0.0
 13
-0.0000694943
 23
-5.3961446649
 33
0.0
 40
0.0
 40
0.0
 40
0.0
 40
0.0
 40
0.0173320458
 40
0.0423722732
 40
0.0749493359
 40
0.1148166086
 40
0.1616650718
 40
0.2151285488
 40
0.340170772
 40
0.4860125704
 40
0.648061977
 40
0.8212128397
 40
1.0
 40
1.0
 40
1.0
 40
1.0
 10
-9.8
 20
5.3903805167
 30
0.0
 10
-9.7946087136
 20
5.3596748144
 30
0.0
 10
-9.7854588218
 20
5.2839413574
 30
0.0
 10
-9.7737613515
 20
5.1496486402
 30
0.0
 10
-9.7623255327
 20
4.974656209
 30
0.0
 10
-9.7511861824
 20
4.760371569
 30
0.0
 10
-9.7405388395
 20
4.5084497002
 30
0.0
 10
-9.7263734606
 20
4.1033473363
 30
0.0
 10
-9.7111602216
 20
3.5201263283
 30
0.0
 10
-9.6968580621
 20
2.7415291387
 30
0.0
 10
-9.6862791454
 20
1.87633134
 30
0.0
 10
-9.6797809253
 20
0.9518338952
 30
0.0
 10
-9.6783341627
 20
0.3187966441
 30
0.0
 10
-9.6783383042
 20
-0.0027904829
 30
0.0
 11
-9.8
 21
5.3903805167
 31
0.0
 11
-9.7875477731
 21
5.2976869509
 31
0.0
 11
-9.7753594682
 21
5.1631170957
 31
0.0
 11
-9.7635313115
 21
4.9877249362
 31
0.0
 11
-9.7521574173
 21
4.7728962442
 31
0.0
 11
-9.7413278389
 21
4.5203272264
 31
0.0
 11
-9.7311282466
 21
4.2320109263
 31
0.0
 11
-9.7129363138
 21
3.557510283
 31
0.0
 11
-9.6981564193
 21
2.7706656392
 31
0.0
 11
-9.6872556899
 21
1.896291545
 31
0.0
 11
-9.6805790084
 21
0.9619682962
 31
0.0
 11
-9.6783383042
 21
-0.0027904829
 31
0.0
  0
SPLINE
  5
3E9
100
AcDbEntity
  8
0
100
AcDbSpline
 62
253
  6
CONTINUOUS
 70
0
 71
3
 72
14
 73
10
 74
8
 42
0.0000001
 43
0.0000001
 44
0.0000000001
 12
-0.1878980221
 22
0.0081019691
 32
0.0
 13
-0.0577588234
 23
0.1789838734
 33
0.0
 40
0.0
 40
0.0
 40
0.0
 40
0.0
 40
0.3798239315
 40
0.5501018045
 40
0.6992359367
 40
0.8222641065
 40
0.9150638774
 40
0.9742293298
 40
1.0
 40
1.0
 40
1.0
 40
1.0
 10
-9.5006110984
 20
-20.5968478537
 30
0.0
 10
-9.5244004869
 20
-20.5958220798
 30
0.0
 10
-9.5589247724
 20
-20.5963827609
 30
0.0
 10
-9.6027137074
 20
-20.5954332764
 30
0.0
 10
-9.6305155097
 20
-20.5941941176
 30
0.0
 10
-9.6530991767
 20
-20.5927662375
 30
0.0
 10
-9.6709048027
 20
-20.5914583752
 30
0.0
 10
-9.6808215146
 20
-20.590565392
 30
0.0
 10
-9.6875402093
 20
-20.5896424167
 30
0.0
 10
-9.6880363705
 20
-20.5881049053
 30
0.0
 11
-9.5006110984
 21
-20.5968478537
 31
0.0
 11
-9.5720402203
 21
-20.5959729284
 31
0.0
 11
-9.6040571884
 21
-20.5952735913
 31
0.0
 11
-9.632077659
 21
-20.5940301565
 31
0.0
 11
-9.6551709523
 21
-20.5925888125
 31
0.0
 11
-9.6725751458
 21
-20.5912832103
 31
0.0
 11
-9.6836453897
 21
-20.5901568177
 31
0.0
 11
-9.6880363705
 21
-20.5881049053
 31
0.0
  0
SPLINE
  5
3EA
100
AcDbEntity
  8
0
100
AcDbSpline
 62
253
  6
CONTINUOUS
 70
0
 71
3
 72
14
 73
10
 74
8
 42
0.0000001
 43
0.0000001
 44
0.0000000001
 12
-0.1878980227
 22
-0.0081019696
 32
0.0
 13
-0.0577587101
 23
-0.1789839106
 33
0.0
 40
0.0
 40
0.0
 40
0.0
 40
0.0
 40
0.3798239277
 40
0.5501017991
 40
0.699235931
 40
0.8222641014
 40
0.9150638725
 40
0.9742293241
 40
1.0
 40
1.0
 40
1.0
 40
1.0
 10
-9.5006110984
 20
20.5968478537
 30
0.0
 10
-9.5244004868
 20
20.5958220797
 30
0.0
 10
-9.558924772
 20
20.5963827615
 30
0.0
 10
-9.6027137068
 20
20.5954332759
 30
0.0
 10
-9.6305155091
 20
20.5941941166
 30
0.0
 10
-9.6530991762
 20
20.5927662367
 30
0.0
 10
-9.6709048023
 20
20.5914583734
 30
0.0
 10
-9.6808215149
 20
20.5905653965
 30
0.0
 10
-9.6875402101
 20
20.5896424176
 30
0.0
 10
-9.6880363705
 20
20.5881049055
 30
0.0
 11
-9.5006110984
 21
20.5968478537
 31
0.0
 11
-9.5720402199
 21
20.5959729285
 31
0.0
 11
-9.6040571878
 21
20.5952735908
 31
0.0
 11
-9.6320776583
 21
20.5940301556
 31
0.0
 11
-9.6551709519
 21
20.5925888114
 31
0.0
 11
-9.6725751455
 21
20.5912832106
 31
0.0
 11
-9.6836453896
 21
20.5901568203
 31
0.0
 11
-9.6880363705
 21
20.5881049055
 31
0.0
  0
SPLINE
  5
3EB
100
AcDbEntity
  8
0
100
AcDbSpline
 62
253
  6
CONTINUOUS
 70
0
 71
3
 72
14
 73
10
 74
8
 42
0.0000001
 43
0.0000001
 44
0.0000000001
 12
0.0084285281
 22
0.1922156853
 32
0.0
 13
0.1863708709
 23
0.0477892061
 33
0.0
 40
0.0
 40
0.0
 40
0.0
 40
0.0
 40
0.3774912948
 40
0.5473527157
 40
0.696439601
 40
0.8196810373
 40
0.9128450412
 40
0.9724985027
 40
1.0
 40
1.0
 40
1.0
 40
1.0
 10
-9.5006110984
 20
20.5968478537
 30
0.0
 10
-9.4995505331
 20
20.6210344364
 30
0.0
 10
-9.499987593
 20
20.6561729863
 30
0.0
 10
-9.4985824516
 20
20.7007896946
 30
0.0
 10
-9.4968616278
 20
20.7291744715
 30
0.0
 10
-9.4949633112
 20
20.7523295303
 30
0.0
 10
-9.4928704363
 20
20.7704322449
 30
0.0
 10
-9.4917673246
 20
20.780925856
 30
0.0
 10
-9.4898133982
 20
20.7875982789
 30
0.0
 10
-9.4881049055
 20
20.7880363705
 30
0.0
 11
-9.5006110984
 21
20.5968478537
 31
0.0
 11
-9.4994202306
 21
20.6694675621
 31
0.0
 11
-9.4983710108
 21
20.7021321189
 31
0.0
 11
-9.4966547594
 21
20.730765104
 31
0.0
 11
-9.4946395331
 21
20.7543910134
 31
0.0
 11
-9.4926995177
 21
20.77221051
 31
0.0
 11
-9.4909050458
 21
20.7835467093
 31
0.0
 11
-9.4881049055
 21
20.7880363705
 31
0.0
  0
SPLINE
  5
3EC
100
AcDbEntity
  8
0
100
AcDbSpline
 62
253
  6
CONTINUOUS
 70
0
 71
3
 72
16
 73
12
 74
10
 42
0.0000001
 43
0.0000001
 44
0.0000000001
 12
-0.0073441076
 22
0.1918280549
 32
0.0
 13
0.1369031213
 23
0.1345714454
 33
0.0
 40
0.0
 40
0.0
 40
0.0
 40
0.0
 40
0.378113867
 40
0.5482856527
 40
0.6974865641
 40
0.8207557321
 40
0.9141713587
 40
0.9486849605
 40
0.9746881036
 40
0.991893086
 40
1.0
 40
1.0
 40
1.0
 40
1.0
 10
-9.0869762264
 20
20.5963187592
 30
0.0
 10
-9.0879018627
 20
20.620496375
 30
0.0
 10
-9.0863349346
 20
20.6556106443
 30
0.0
 10
-9.0845942599
 20
20.7001940066
 30
0.0
 10
-9.083377759
 20
20.7284995202
 30
0.0
 10
-9.0818489329
 20
20.751852566
 30
0.0
 10
-9.0801835767
 20
20.7678748418
 30
0.0
 10
-9.078293222
 20
20.7775292248
 30
0.0
 10
-9.0770805709
 20
20.7823881527
 30
0.0
 10
-9.075958192
 20
20.7854198506
 30
0.0
 10
-9.07538481
 20
20.7870083876
 30
0.0
 10
-9.0750148561
 20
20.7873720406
 30
0.0
 11
-9.0869762264
 21
20.5963187592
 31
0.0
 11
-9.0858351178
 21
20.668895774
 31
0.0
 11
-9.0845190171
 21
20.7015368893
 31
0.0
 11
-9.0831896475
 21
20.7301479105
 31
0.0
 11
-9.0815522973
 21
20.7537550047
 31
0.0
 11
-9.0794076187
 21
20.7715591624
 31
0.0
 11
-9.07812332
 21
20.7780590232
 31
0.0
 11
-9.0768451811
 21
20.7828844035
 31
0.0
 11
-9.0757500703
 21
20.7860003828
 31
0.0
 11
-9.0750148561
 21
20.7873720406
 31
0.0
  0
SPLINE
  5
3ED
100
AcDbEntity
  8
0
100
AcDbSpline
 62
253
  6
CONTINUOUS
 70
0
 71
3
 72
15
 73
11
 74
9
 42
0.0000001
 43
0.0000001
 44
0.0000000001
 12
0.2124704782
 22
-0.0089694834
 32
0.0
 13
0.0407184353
 23
-0.2087250938
 33
0.0
 40
0.0
 40
0.0
 40
0.0
 40
0.0
 40
0.1887259484
 40
0.3729722239
 40
0.5440290374
 40
0.6952459391
 40
0.8206632629
 40
0.9153025762
 40
0.9750321124
 40
1.0
 40
1.0
 40
1.0
 40
1.0
 10
-9.0869762264
 20
20.5963187592
 30
0.0
 10
-9.0736099955
 20
20.5957545011
 30
0.0
 10
-9.0471649945
 20
20.5955159375
 30
0.0
 10
-9.0085918713
 20
20.5959319346
 30
0.0
 10
-8.9727265961
 20
20.595324126
 30
0.0
 10
-8.9408899046
 20
20.5940260598
 30
0.0
 10
-8.9149678579
 20
20.5925210728
 30
0.0
 10
-8.8943263933
 20
20.591025014
 30
0.0
 10
-8.883278974
 20
20.5903432173
 30
0.0
 10
-8.8753842015
 20
20.589177717
 30
0.0
 10
-8.8750453171
 20
20.5874405754
 30
0.0
 11
-9.0869762264
 21
20.5963187592
 31
0.0
 11
-9.0468474386
 21
20.5956471765
 31
0.0
 11
-9.0076658241
 21
20.5957543137
 31
0.0
 11
-8.9712940167
 21
20.5951460149
 31
0.0
 11
-8.9391621638
 21
20.593855856
 31
0.0
 11
-8.9125361454
 21
20.5923038481
 31
0.0
 11
-8.8924572578
 21
20.5909280105
 31
0.0
 11
-8.8798061316
 21
20.5897915701
 31
0.0
 11
-8.8750453171
 21
20.5874405754
 31
0.0
  0
SPLINE
  5
3EE
100
AcDbEntity
  8
0
100
AcDbSpline
 62
7
  6
CONTINUOUS
 70
0
 71
3
 72
16
 73
12
 74
10
 42
0.0000001
 43
0.0000001
 44
0.0000000001
 12
-0.2790882074
 22
-0.0561065228
 32
0.0
 13
-0.2014867
 23
-0.2011001719
 33
0.0
 40
0.0
 40
0.0
 40
0.0
 40
0.0
 40
0.0164183926
 40
0.0443761637
 40
0.0826435189
 40
0.1297856625
 40
0.2447584789
 40
0.3790370585
 40
0.5257198638
 40
0.6801625247
 40
1.0
 40
1.0
 40
1.0
 40
1.0
 10
-8.8767940404
 20
20.4616848872
 30
0.0
 10
-8.8783214337
 20
20.4613778275
 30
0.0
 10
-8.8820668488
 20
20.4592330119
 30
0.0
 10
-8.8885456266
 20
20.4549199119
 30
0.0
 10
-8.8971054871
 20
20.4483503262
 30
0.0
 10
-8.911838536
 20
20.4363504412
 30
0.0
 10
-8.9330678319
 20
20.4178801187
 30
0.0
 10
-8.9609092526
 20
20.3926574817
 30
0.0
 10
-8.9911135793
 20
20.3644633809
 30
0.0
 10
-9.0337360642
 20
20.323777505
 30
0.0
 10
-9.0658487362
 20
20.2922417539
 30
0.0
 10
-9.0873297353
 20
20.2708019634
 30
0.0
 11
-8.8767940404
 21
20.4616848872
 31
0.0
 11
-8.8810564168
 21
20.4597673131
 31
0.0
 11
-8.8877033199
 21
20.4553899729
 31
0.0
 11
-8.896401428
 21
20.4488314335
 31
0.0
 11
-8.9068252691
 21
20.4403791391
 31
0.0
 11
-8.931615731
 21
20.4190096238
 31
0.0
 11
-8.9599762024
 21
20.393380313
 31
0.0
 11
-8.9905230079
 21
20.364911077
 31
0.0
 11
-9.0223366468
 21
20.3345654316
 31
0.0
 11
-9.0873297353
 21
20.2708019634
 31
0.0
  0
SPLINE
  5
3EF
100
AcDbEntity
  8
0
100
AcDbSpline
 62
7
  6
CONTINUOUS
 70
0
 71
3
 72
16
 73
12
 74
10
 42
0.0000001
 43
0.0000001
 44
0.0000000001
 12
-0.000151854
 22
-0.1909623375
 32
0.0
 13
-0.1059175719
 23
-0.158896524
 33
0.0
 40
0.0
 40
0.0
 40
0.0
 40
0.0
 40
0.3801430494
 40
0.5509581306
 40
0.7006144555
 40
0.8240137829
 40
0.917047426
 40
0.9510243145
 40
0.9762735481
 40
0.9926322318
 40
1.0
 40
1.0
 40
1.0
 40
1.0
 10
-7.9201296682
 20
-20.2694163365
 30
0.0
 10
-7.9201489102
 20
-20.2936140049
 30
0.0
 10
-7.9202818068
 20
-20.3286853838
 30
0.0
 10
-7.9207147297
 20
-20.3732792484
 30
0.0
 10
-7.9211154575
 20
-20.4015334391
 30
0.0
 10
-7.9216120007
 20
-20.4248240335
 30
0.0
 10
-7.9220632437
 20
-20.440773825
 30
0.0
 10
-7.9225412865
 20
-20.4504324388
 30
0.0
 10
-7.9227783635
 20
-20.4552762631
 30
0.0
 10
-7.923185581
 20
-20.458299632
 30
0.0
 10
-7.9232735679
 20
-20.45989574
 30
0.0
 10
-7.9235336933
 20
-20.4602859775
 30
0.0
 11
-7.9201296682
 21
-20.2694163365
 31
0.0
 11
-7.9204311044
 21
-20.3420087389
 31
0.0
 11
-7.9207537418
 21
-20.3746264007
 31
0.0
 11
-7.9211763635
 21
-20.4032020064
 31
0.0
 11
-7.9216845429
 21
-20.4267611576
 31
0.0
 11
-7.9222608195
 21
-20.4445177364
 31
0.0
 11
-7.9225686282
 21
-20.450998739
 31
0.0
 11
-7.9228855893
 21
-20.4558099639
 31
0.0
 11
-7.923208384
 21
-20.4589171353
 31
0.0
 11
-7.9235336933
 21
-20.4602859775
 31
0.0
  0
SPLINE
  5
3F0
100
AcDbEntity
  8
0
100
AcDbSpline
 62
7
  6
CONTINUOUS
 70
0
 71
3
 72
16
 73
12
 74
10
 42
0.0000001
 43
0.0000001
 44
0.0000000001
 12
-0.2790882074
 22
0.0561065229
 32
0.0
 13
-0.2014867
 23
0.2011001719
 33
0.0
 40
0.0
 40
0.0
 40
0.0
 40
0.0
 40
0.0164183926
 40
0.0443761637
 40
0.0826435189
 40
0.1297856625
 40
0.2447584789
 40
0.3790370585
 40
0.5257198638
 40
0.6801625247
 40
1.0
 40
1.0
 40
1.0
 40
1.0
 10
-8.8767940404
 20
-20.4616848872
 30
0.0
 10
-8.8783214337
 20
-20.4613778275
 30
0.0
 10
-8.8820668488
 20
-20.4592330119
 30
0.0
 10
-8.8885456266
 20
-20.4549199119
 30
0.0
 10
-8.8971054871
 20
-20.4483503262
 30
0.0
 10
-8.911838536
 20
-20.4363504412
 30
0.0
 10
-8.9330678319
 20
-20.4178801187
 30
0.0
 10
-8.9609092526
 20
-20.3926574817
 30
0.0
 10
-8.9911135793
 20
-20.3644633809
 30
0.0
 10
-9.0337360643
 20
-20.3237775051
 30
0.0
 10
-9.0658487362
 20
-20.2922417539
 30
0.0
 10
-9.0873297353
 20
-20.2708019634
 30
0.0
 11
-8.8767940404
 21
-20.4616848872
 31
0.0
 11
-8.8810564168
 21
-20.4597673131
 31
0.0
 11
-8.8877033199
 21
-20.4553899729
 31
0.0
 11
-8.896401428
 21
-20.4488314335
 31
0.0
 11
-8.9068252691
 21
-20.4403791391
 31
0.0
 11
-8.931615731
 21
-20.4190096238
 31
0.0
 11
-8.9599762024
 21
-20.393380313
 31
0.0
 11
-8.9905230079
 21
-20.364911077
 31
0.0
 11
-9.0223366468
 21
-20.3345654316
 31
0.0
 11
-9.0873297353
 21
-20.2708019634
 31
0.0
  0
SPLINE
  5
3F1
100
AcDbEntity
  8
0
100
AcDbSpline
 62
7
  6
CONTINUOUS
 70
0
 71
3
 72
9
 73
5
 74
3
 42
0.0000001
 43
0.0000001
 44
0.0000000001
 12
0.0009815083
 22
0.0014724494
 32
0.0
 13
0.0017348843
 23
0.0003487726
 33
0.0
 40
0.0
 40
0.0
 40
0.0
 40
0.0
 40
0.1301384303
 40
1.0
 40
1.0
 40
1.0
 40
1.0
 10
8.8751421748
 20
-20.4622724276
 30
0.0
 10
8.8751847521
 20
-20.4622085536
 30
0.0
 10
8.8756958542
 20
-20.4618717262
 30
0.0
 10
8.8762911611
 20
-20.4617859782
 30
0.0
 10
8.8767941975
 20
-20.4616848502
 30
0.0
 11
8.8751421748
 21
-20.4622724276
 31
0.0
 11
8.8753192062
 21
-20.4621251375
 31
0.0
 11
8.8767941975
 21
-20.4616848502
 31
0.0
  0
LINE
  5
3F2
100
AcDbEntity
  8
0
100
AcDbLine
 62
253
  6
CONTINUOUS
 10
7.9235336933
 20
-20.4602859775
 11
8.8767941975
 21
-20.4616848502
  0
LINE
  5
3F3
100
AcDbEntity
  8
0
100
AcDbLine
 62
253
  6
CONTINUOUS
 10
-8.8767941805
 20
-20.4616848542
 11
-7.9235336933
 21
-20.4602859775
  0
SPLINE
  5
3F4
100
AcDbEntity
  8
0
100
AcDbSpline
 62
7
  6
CONTINUOUS
 70
0
 71
3
 72
9
 73
5
 74
3
 42
0.0000001
 43
0.0000001
 44
0.0000000001
 12
0.0017264905
 22
-0.0003470852
 32
0.0
 13
0.0009767595
 23
-0.0014653253
 33
0.0
 40
0.0
 40
0.0
 40
0.0
 40
0.0
 40
0.3775912585
 40
1.0
 40
1.0
 40
1.0
 40
1.0
 10
-8.8767941805
 20
-20.4616848542
 30
0.0
 10
-8.8765768779
 20
-20.4617285397
 30
0.0
 10
-8.8760329244
 20
-20.4618742628
 30
0.0
 10
-8.8753448226
 20
-20.4619684172
 30
0.0
 10
-8.8751421748
 20
-20.4622724276
 30
0.0
 11
-8.8767941805
 21
-20.4616848542
 31
0.0
 11
-8.8761455418
 21
-20.4618312348
 31
0.0
 11
-8.8751421748
 21
-20.4622724276
 31
0.0
  0
LINE
  5
3F5
100
AcDbEntity
  8
0
100
AcDbLine
 62
253
  6
CONTINUOUS
 10
8.8767941805
 20
20.4616848542
 11
7.9235336933
 21
20.4602859775
  0
SPLINE
  5
3F6
100
AcDbEntity
  8
0
100
AcDbSpline
 62
7
  6
CONTINUOUS
 70
0
 71
3
 72
9
 73
5
 74
3
 42
0.0000001
 43
0.0000001
 44
0.0000000001
 12
-0.0017264905
 22
0.0003470852
 32
0.0
 13
-0.0009767595
 23
0.0014653253
 33
0.0
 40
0.0
 40
0.0
 40
0.0
 40
0.0
 40
0.3775912585
 40
1.0
 40
1.0
 40
1.0
 40
1.0
 10
8.8767941805
 20
20.4616848542
 30
0.0
 10
8.8765768779
 20
20.4617285396
 30
0.0
 10
8.8760329244
 20
20.4618742628
 30
0.0
 10
8.8753448226
 20
20.4619684172
 30
0.0
 10
8.8751421748
 20
20.4622724276
 30
0.0
 11
8.8767941805
 21
20.4616848542
 31
0.0
 11
8.8761455418
 21
20.4618312348
 31
0.0
 11
8.8751421748
 21
20.4622724276
 31
0.0
  0
SPLINE
  5
3F7
100
AcDbEntity
  8
0
100
AcDbSpline
 62
7
  6
CONTINUOUS
 70
0
 71
3
 72
9
 73
5
 74
3
 42
0.0000001
 43
0.0000001
 44
0.0000000001
 12
-0.0009815083
 22
-0.0014724494
 32
0.0
 13
-0.0017348843
 23
-0.0003487726
 33
0.0
 40
0.0
 40
0.0
 40
0.0
 40
0.0
 40
0.1301384303
 40
1.0
 40
1.0
 40
1.0
 40
1.0
 10
-8.8751421748
 20
20.4622724276
 30
0.0
 10
-8.8751847521
 20
20.4622085536
 30
0.0
 10
-8.8756958542
 20
20.4618717262
 30
0.0
 10
-8.8762911611
 20
20.4617859782
 30
0.0
 10
-8.8767941975
 20
20.4616848502
 30
0.0
 11
-8.8751421748
 21
20.4622724276
 31
0.0
 11
-8.8753192062
 21
20.4621251375
 31
0.0
 11
-8.8767941975
 21
20.4616848502
 31
0.0
  0
LINE
  5
3F8
100
AcDbEntity
  8
0
100
AcDbLine
 62
253
  6
CONTINUOUS
 10
-7.9235336933
 20
20.4602859775
 11
-8.8767941975
 21
20.4616848502
  0
LINE
  5
3F9
100
AcDbEntity
  8
0
100
AcDbLine
 62
253
  6
CONTINUOUS
 10
8.8750453171
 20
-20.5874405756
 11
8.8751421748
 21
-20.4622724276
  0
SPLINE
  5
3FA
100
AcDbEntity
  8
0
100
AcDbSpline
 62
7
  6
CONTINUOUS
 70
0
 71
3
 72
18
 73
14
 74
12
 42
0.0000001
 43
0.0000001
 44
0.0000000001
 12
0.0003431631
 22
-0.4295719949
 32
0.0
 13
0.2382037731
 23
-0.3574789211
 33
0.0
 40
0.0
 40
0.0
 40
0.0
 40
0.0
 40
0.1941823144
 40
0.3801772663
 40
0.5509043661
 40
0.7005809219
 40
0.8240769619
 40
0.8745838816
 40
0.9170335061
 40
0.9510423717
 40
0.9762957328
 40
0.9926387066
 40
1.0
 40
1.0
 40
1.0
 40
1.0
 10
7.9202037934
 20
-20.3624177952
 30
0.0
 10
7.9202260055
 20
-20.3902228899
 30
0.0
 10
7.9203578578
 20
-20.4446607431
 30
0.0
 10
7.9208166101
 20
-20.5235437785
 30
0.0
 10
7.9215162939
 20
-20.5960527653
 30
0.0
 10
7.9224348074
 20
-20.6596070249
 30
0.0
 10
7.9233828641
 20
-20.7059498165
 30
0.0
 10
7.9242795127
 20
-20.7369247256
 30
0.0
 10
7.9249057491
 20
-20.7551081748
 30
0.0
 10
7.9256295275
 20
-20.7696183832
 30
0.0
 10
7.9261618636
 20
-20.7805179832
 30
0.0
 10
7.9270765561
 20
-20.7873171787
 30
0.0
 10
7.9272782413
 20
-20.7909031989
 30
0.0
 10
7.9278627373
 20
-20.791780368
 30
0.0
 11
7.9202037934
 21
-20.3624177952
 31
0.0
 11
7.9204088907
 21
-20.4458328538
 31
0.0
 11
7.920882561
 21
-20.5257296978
 31
0.0
 11
7.9216079228
 21
-20.5990657148
 31
0.0
 11
7.9225594932
 21
-20.6633555502
 31
0.0
 11
7.9237030094
 21
-20.7163936816
 31
0.0
 11
7.9243345657
 21
-20.7380808528
 31
0.0
 11
7.9249988455
 21
-20.7563039252
 31
0.0
 11
7.9256903682
 21
-20.7708968104
 31
0.0
 11
7.9264030958
 21
-20.781721512
 31
0.0
 11
7.9271297155
 21
-20.7887042943
 31
0.0
 11
7.9278627373
 21
-20.791780368
 31
0.0
  0
LINE
  5
3FB
100
AcDbEntity
  8
0
100
AcDbLine
 62
7
  6
CONTINUOUS
 10
7.9202037934
 20
-20.3624177952
 11
7.9201296682
 21
-20.2694163365
  0
SPLINE
  5
3FC
100
AcDbEntity
  8
0
100
AcDbSpline
 62
7
  6
CONTINUOUS
 70
0
 71
3
 72
18
 73
14
 74
12
 42
0.0000001
 43
0.0000001
 44
0.0000000001
 12
0.2382232743
 22
0.3574659449
 32
0.0
 13
0.0003431647
 23
0.4295720108
 33
0.0
 40
0.0
 40
0.0
 40
0.0
 40
0.0
 40
0.0073610193
 40
0.0237037453
 40
0.0489568908
 40
0.0829655748
 40
0.1254150546
 40
0.1759218708
 40
0.2994178291
 40
0.4490943681
 40
0.6198215447
 40
0.8058170575
 40
1.0
 40
1.0
 40
1.0
 40
1.0
 10
-7.9278627373
 20
-20.791780368
 30
0.0
 10
-7.9272782152
 20
-20.7909032634
 30
0.0
 10
-7.9270765752
 20
-20.7873172712
 30
0.0
 10
-7.9261618438
 20
-20.7805182219
 30
0.0
 10
-7.9256295286
 20
-20.7696186924
 30
0.0
 10
-7.9249057394
 20
-20.7551085703
 30
0.0
 10
-7.9242795048
 20
-20.7369251786
 30
0.0
 10
-7.9233828518
 20
-20.7059503174
 30
0.0
 10
-7.9224347952
 20
-20.659607552
 30
0.0
 10
-7.9215162764
 20
-20.5960532937
 30
0.0
 10
-7.920816583
 20
-20.5235442152
 30
0.0
 10
-7.9203578454
 20
-20.4446609955
 30
0.0
 10
-7.9202260056
 20
-20.39022297
 30
0.0
 10
-7.9202037934
 20
-20.3624177844
 30
0.0
 11
-7.9278627373
 21
-20.791780368
 31
0.0
 11
-7.9271297142
 21
-20.7887044155
 31
0.0
 11
-7.926403093
 21
-20.7817217402
 31
0.0
 11
-7.9256903638
 21
-20.7708971311
 31
0.0
 11
-7.9249988392
 21
-20.7563043235
 31
0.0
 11
-7.9243345575
 21
-20.7380813127
 31
0.0
 11
-7.9237029995
 21
-20.7163941852
 31
0.0
 11
-7.9225594806
 21
-20.663356087
 31
0.0
 11
-7.9216079054
 21
-20.5990662566
 31
0.0
 11
-7.9208825385
 21
-20.5257302039
 31
0.0
 11
-7.9204088787
 21
-20.4458331159
 31
0.0
 11
-7.9202037934
 21
-20.3624177844
 31
0.0
  0
LINE
  5
3FD
100
AcDbEntity
  8
0
100
AcDbLine
 62
7
  6
CONTINUOUS
 10
-7.9201296682
 20
-20.2694163365
 11
-7.9202037934
 21
-20.3624177844
  0
LINE
  5
3FE
100
AcDbEntity
  8
0
100
AcDbLine
 62
253
  6
CONTINUOUS
 10
-8.8751421748
 20
-20.4622724276
 11
-8.8750453171
 21
-20.5874405756
  0
SPLINE
  5
3FF
100
AcDbEntity
  8
0
100
AcDbSpline
 62
7
  6
CONTINUOUS
 70
0
 71
3
 72
18
 73
14
 74
12
 42
0.0000001
 43
0.0000001
 44
0.0000000001
 12
-0.2382233767
 22
-0.3574658768
 32
0.0
 13
-0.0003431647
 23
-0.4295720109
 33
0.0
 40
0.0
 40
0.0
 40
0.0
 40
0.0
 40
0.0073610179
 40
0.0237037425
 40
0.0489568869
 40
0.0829655699
 40
0.1254150489
 40
0.1759218646
 40
0.2994178224
 40
0.4490943613
 40
0.6198215382
 40
0.8058170541
 40
1.0
 40
1.0
 40
1.0
 40
1.0
 10
7.9278627373
 20
20.791780368
 30
0.0
 10
7.9272782151
 20
20.7909032637
 30
0.0
 10
7.9270765752
 20
20.7873172717
 30
0.0
 10
7.9261618437
 20
20.7805182231
 30
0.0
 10
7.9256295286
 20
20.769618694
 30
0.0
 10
7.9249057394
 20
20.7551085724
 30
0.0
 10
7.9242795048
 20
20.7369251811
 30
0.0
 10
7.9233828518
 20
20.7059503201
 30
0.0
 10
7.9224347951
 20
20.6596075548
 30
0.0
 10
7.9215162763
 20
20.5960532965
 30
0.0
 10
7.9208165828
 20
20.5235442176
 30
0.0
 10
7.9203578454
 20
20.4446609969
 30
0.0
 10
7.9202260056
 20
20.3902229705
 30
0.0
 10
7.9202037934
 20
20.3624177843
 30
0.0
 11
7.9278627373
 21
20.791780368
 31
0.0
 11
7.9271297142
 21
20.7887044162
 31
0.0
 11
7.926403093
 21
20.7817217414
 31
0.0
 11
7.9256903638
 21
20.7708971328
 31
0.0
 11
7.9249988392
 21
20.7563043256
 31
0.0
 11
7.9243345574
 21
20.7380813152
 31
0.0
 11
7.9237029994
 21
20.7163941878
 31
0.0
 11
7.9225594806
 21
20.6633560899
 31
0.0
 11
7.9216079053
 21
20.5990662595
 31
0.0
 11
7.9208825384
 21
20.5257302066
 31
0.0
 11
7.9204088787
 21
20.4458331174
 31
0.0
 11
7.9202037934
 21
20.3624177843
 31
0.0
  0
LINE
  5
400
100
AcDbEntity
  8
0
100
AcDbLine
 62
7
  6
CONTINUOUS
 10
7.9201296682
 20
20.2694163365
 11
7.9202037934
 21
20.3624177843
  0
LINE
  5
401
100
AcDbEntity
  8
0
100
AcDbLine
 62
253
  6
CONTINUOUS
 10
8.8751421748
 20
20.4622724276
 11
8.8750453171
 21
20.5874405756
  0
LINE
  5
402
100
AcDbEntity
  8
0
100
AcDbLine
 62
253
  6
CONTINUOUS
 10
-8.8750453171
 20
20.5874405756
 11
-8.8751421748
 21
20.4622724276
  0
SPLINE
  5
403
100
AcDbEntity
  8
0
100
AcDbSpline
 62
7
  6
CONTINUOUS
 70
0
 71
3
 72
18
 73
14
 74
12
 42
0.0000001
 43
0.0000001
 44
0.0000000001
 12
-0.0003431631
 22
0.4295719949
 32
0.0
 13
-0.2382037756
 23
0.3574789194
 33
0.0
 40
0.0
 40
0.0
 40
0.0
 40
0.0
 40
0.1941823145
 40
0.3801772666
 40
0.5509043663
 40
0.7005809221
 40
0.8240769621
 40
0.8745838817
 40
0.9170335063
 40
0.9510423718
 40
0.9762957328
 40
0.9926387066
 40
1.0
 40
1.0
 40
1.0
 40
1.0
 10
-7.9202037934
 20
20.3624177952
 30
0.0
 10
-7.9202260055
 20
20.3902228899
 30
0.0
 10
-7.9203578578
 20
20.4446607431
 30
0.0
 10
-7.9208166101
 20
20.5235437786
 30
0.0
 10
-7.9215162939
 20
20.5960527654
 30
0.0
 10
-7.9224348074
 20
20.659607025
 30
0.0
 10
-7.9233828641
 20
20.7059498166
 30
0.0
 10
-7.9242795127
 20
20.7369247256
 30
0.0
 10
-7.9249057491
 20
20.7551081748
 30
0.0
 10
-7.9256295275
 20
20.7696183832
 30
0.0
 10
-7.9261618636
 20
20.7805179833
 30
0.0
 10
-7.9270765561
 20
20.7873171787
 30
0.0
 10
-7.9272782413
 20
20.7909031989
 30
0.0
 10
-7.9278627373
 20
20.791780368
 30
0.0
 11
-7.9202037934
 21
20.3624177952
 31
0.0
 11
-7.9204088907
 21
20.4458328539
 31
0.0
 11
-7.920882561
 21
20.5257296979
 31
0.0
 11
-7.9216079228
 21
20.5990657149
 31
0.0
 11
-7.9225594932
 21
20.6633555503
 31
0.0
 11
-7.9237030094
 21
20.7163936816
 31
0.0
 11
-7.9243345657
 21
20.7380808529
 31
0.0
 11
-7.9249988455
 21
20.7563039252
 31
0.0
 11
-7.9256903682
 21
20.7708968105
 31
0.0
 11
-7.9264030958
 21
20.781721512
 31
0.0
 11
-7.9271297155
 21
20.7887042943
 31
0.0
 11
-7.9278627373
 21
20.791780368
 31
0.0
  0
LINE
  5
404
100
AcDbEntity
  8
0
100
AcDbLine
 62
7
  6
CONTINUOUS
 10
-7.9202037934
 20
20.3624177952
 11
-7.9201296682
 21
20.2694163365
  0
ELLIPSE
  5
405
100
AcDbEntity
  8
0
100
AcDbEllipse
 62
7
  6
CONTINUOUS
 10
0.5686113487
 20
-19.9420824593
 30
0.0
 11
0.1109852068
 21
0.1664989464
 31
0.0
 40
0.9995051766
 41
-4.1242165221
 42
-2.5538770461
  0
ELLIPSE
  5
406
100
AcDbEntity
  8
0
100
AcDbEllipse
 62
7
  6
CONTINUOUS
 10
-0.5686113487
 20
-19.9420824593
 30
0.0
 11
-0.1109852068
 21
0.1664989464
 31
0.0
 40
0.9995051766
 41
-3.7293082611
 42
-2.1589687851
  0
ELLIPSE
  5
407
100
AcDbEntity
  8
0
100
AcDbEllipse
 62
7
  6
CONTINUOUS
 10
6.983208297
 20
19.3199328773
 30
0.0
 11
0.0
 21
0.8
 31
0.0
 40
0.0174550649
 41
-1.5208379311
 42
-0.0261799388
  0
ELLIPSE
  5
408
100
AcDbEntity
  8
0
100
AcDbEllipse
 62
7
  6
CONTINUOUS
 10
-6.983208297
 20
19.3199328773
 30
0.0
 11
-0.0
 21
0.8
 31
0.0
 40
0.0174550649
 41
0.0261799388
 42
1.5208379311
  0
ELLIPSE
  5
409
100
AcDbEntity
  8
0
100
AcDbEllipse
 62
7
  6
CONTINUOUS
 10
-6.983208297
 20
-19.3199328773
 30
0.0
 11
0.0
 21
0.8
 31
0.0
 40
0.0174550649
 41
-4.6624305847
 42
-3.1677725924
  0
ELLIPSE
  5
40A
100
AcDbEntity
  8
0
100
AcDbEllipse
 62
7
  6
CONTINUOUS
 10
6.983208297
 20
-19.3199328773
 30
0.0
 11
-0.0
 21
0.8
 31
0.0
 40
0.0174550649
 41
-3.1154127148
 42
-1.6207547225
  0
ELLIPSE
  5
40B
100
AcDbEntity
  8
0
100
AcDbEllipse
 62
7
  6
CONTINUOUS
 10
-0.1760179075
 20
-18.4721877837
 30
0.0
 11
-0.0357043579
 21
0.208649069
 31
0.0
 40
0.9434796476
 41
-0.160068481
 42
1.4098144573
  0
ELLIPSE
  5
40C
100
AcDbEntity
  8
0
100
AcDbEllipse
 62
7
  6
CONTINUOUS
 10
0.1760179075
 20
-18.4721877837
 30
0.0
 11
0.0357043579
 21
0.208649069
 31
0.0
 40
0.9434796476
 41
-1.4098144573
 42
0.160068481
  0
ELLIPSE
  5
40D
100
AcDbEntity
  8
RACCORDO
100
AcDbEllipse
 62
7
  6
CONTINUOUS
 10
-10.4998286038
 20
21.5998286038
 30
0.0
 11
0.35379574
 21
-0.35379574
 31
0.0
 40
0.999315002
 41
2.3565371065
 42
3.9266482006
  0
ELLIPSE
  5
40E
100
AcDbEntity
  8
RACCORDO
100
AcDbEllipse
 62
7
  6
CONTINUOUS
 10
10.4998286038
 20
21.5998286038
 30
0.0
 11
0.35379574
 21
0.35379574
 31
0.0
 40
0.999315002
 41
-0.7850555471
 42
0.7850555471
  0
ELLIPSE
  5
40F
100
AcDbEntity
  8
RACCORDO
100
AcDbEllipse
 62
7
  6
CONTINUOUS
 10
10.4998286038
 20
-21.5998286038
 30
0.0
 11
-0.35379574
 21
0.35379574
 31
0.0
 40
0.999315002
 41
2.3565371065
 42
3.9266482006
  0
ELLIPSE
  5
410
100
AcDbEntity
  8
RACCORDO
100
AcDbEllipse
 62
7
  6
CONTINUOUS
 10
-10.4998286038
 20
-21.5998286038
 30
0.0
 11
-0.35379574
 21
-0.35379574
 31
0.0
 40
0.999315002
 41
-0.7850555471
 42
0.7850555471
  0
ELLIPSE
  5
411
100
AcDbEntity
  8
SMUSSO
100
AcDbEllipse
 62
7
  6
CONTINUOUS
 10
10.0209487373
 20
-0.0
 30
0.0
 11
0.0
 21
5.3
 31
0.0
 40
0.0261859216
 41
0.2304796671
 42
2.9111129865
  0
ELLIPSE
  5
412
100
AcDbEntity
  8
SMUSSO
100
AcDbEllipse
 62
7
  6
CONTINUOUS
 10
-10.0209487373
 20
-0.0
 30
0.0
 11
0.0
 21
5.3
 31
0.0
 40
0.0261859216
 41
-2.9111129865
 42
-0.2304796671
  0
ELLIPSE
  5
413
100
AcDbEntity
  8
0
100
AcDbEllipse
 62
7
  6
CONTINUOUS
 10
-9.5999314415
 20
-20.6999314415
 30
0.0
 11
0.141518296
 21
0.141518296
 31
0.0
 40
0.999315002
 41
-3.9266482006
 42
-2.3565371065
  0
ELLIPSE
  5
414
100
AcDbEntity
  8
0
100
AcDbEllipse
 62
7
  6
CONTINUOUS
 10
-9.0000304656
 20
-20.6999314415
 30
0.0
 11
-0.1109852068
 21
0.1664989464
 31
0.0
 40
0.9995051766
 41
-3.7293082611
 42
-2.1589687851
  0
ELLIPSE
  5
415
100
AcDbEntity
  8
0
100
AcDbEllipse
 62
7
  6
CONTINUOUS
 10
9.5999314415
 20
-20.6999314415
 30
0.0
 11
0.141518296
 21
-0.141518296
 31
0.0
 40
0.999315002
 41
-0.7850555471
 42
0.7850555471
  0
ELLIPSE
  5
416
100
AcDbEntity
  8
0
100
AcDbEllipse
 62
7
  6
CONTINUOUS
 10
9.0000304656
 20
-20.6999314415
 30
0.0
 11
0.1109852068
 21
0.1664989464
 31
0.0
 40
0.9995051766
 41
-4.1242165221
 42
-2.553877046
  0
ELLIPSE
  5
417
100
AcDbEntity
  8
SMUSSO
100
AcDbEllipse
 62
7
  6
CONTINUOUS
 10
11.2
 20
-0.0
 30
0.0
 11
5.2978134474
 21
-0.1522257437
 31
0.0
 40
1.0
 41
1.7510446496
 42
1.8300017828
  0
ELLIPSE
  5
418
100
AcDbEntity
  8
SMUSSO
100
AcDbEllipse
 62
7
  6
CONTINUOUS
 10
11.2
 20
-0.0
 30
0.0
 11
5.2874441685
 21
0.3646013778
 31
0.0
 40
1.0
 41
-1.8701230821
 42
-1.791165949
  0
ELLIPSE
  5
419
100
AcDbEntity
  8
SMUSSO
100
AcDbEllipse
 62
7
  6
CONTINUOUS
 10
-11.2
 20
-0.0
 30
0.0
 11
-0.088651077
 21
5.2992585318
 31
0.0
 40
1.0
 41
-3.006797518
 42
-2.9278403849
  0
ELLIPSE
  5
41A
100
AcDbEntity
  8
SMUSSO
100
AcDbEllipse
 62
7
  6
CONTINUOUS
 10
-11.2
 20
-0.0
 30
0.0
 11
-0.197427563
 21
5.2963215874
 31
0.0
 40
1.0
 41
-0.2677387709
 42
-0.1887816377
  0
ELLIPSE
  5
41B
100
AcDbEntity
  8
0
100
AcDbEllipse
 62
7
  6
CONTINUOUS
 10
9.5999314415
 20
20.6999314415
 30
0.0
 11
0.141518296
 21
0.141518296
 31
0.0
 40
0.999315002
 41
-0.785055547
 42
0.7850555471
  0
ELLIPSE
  5
41C
100
AcDbEntity
  8
0
100
AcDbEllipse
 62
7
  6
CONTINUOUS
 10
9.0000304656
 20
20.6999314415
 30
0.0
 11
-0.1109852068
 21
0.1664989464
 31
0.0
 40
0.9995051766
 41
-0.5877156075
 42
0.9826238685
  0
ELLIPSE
  5
41D
100
AcDbEntity
  8
0
100
AcDbEllipse
 62
7
  6
CONTINUOUS
 10
-9.0000304656
 20
20.6999314415
 30
0.0
 11
0.1109852068
 21
0.1664989464
 31
0.0
 40
0.9995051766
 41
-0.9826238685
 42
0.5877156076
  0
ELLIPSE
  5
41E
100
AcDbEntity
  8
0
100
AcDbEllipse
 62
7
  6
CONTINUOUS
 10
-9.5999314415
 20
20.6999314415
 30
0.0
 11
-0.141518296
 21
0.141518296
 31
0.0
 40
0.999315002
 41
-0.7850555471
 42
0.7850555471
  0
ENDSEC
  0
SECTION
  2
OBJECTS
  0
DICTIONARY
  5
C
100
AcDbDictionary
280
0
281
1
  3
ACAD_GROUP
350
D
  3
ACAD_MLINESTYLE
350
17
  3
ACAD_LAYOUT
350
1A
  3
ACAD_PLOTSETTINGS
350
19
  3
ACAD_PLOTSTYLENAME
350
E
  0
DICTIONARY
  5
D
102
{ACAD_REACTORS
330
C
102
}
100
AcDbDictionary
280
0
281
1
  0
ACDBDICTIONARYWDFLT
  5
E
102
{ACAD_REACTORS
330
C
102
}
100
AcDbDictionary
281
1
  3
Normal
350
F
100
AcDbDictionaryWithDefault
340
F
  0
DICTIONARY
  5
17
102
{ACAD_REACTORS
330
C
102
}
100
AcDbDictionary
280
0
281
1
  3
Standard
350
18
  0
DICTIONARY
  5
19
102
{ACAD_REACTORS
330
C
102
}
100
AcDbDictionary
281
1
  0
DICTIONARY
  5
1A
102
{ACAD_REACTORS
330
C
102
}
100
AcDbDictionary
281
1
  3
Model
350
41F
  3
Layout1
350
420
  0
ACDBPLACEHOLDER
  5
F
102
{ACAD_REACTORS
330
E
102
}
  0
MLINESTYLE
  5
18
102
{ACAD_REACTORS
330
17
102
}
100
AcDbMlineStyle
  2
STANDARD
 70
0
  3

 62
256
 51
90.0
 52
90.0
 71
2
 49
0.5
 62
256
  6
BYLAYER
 49
-0.5
 62
256
  6
BYLAYER
  0
LAYOUT
  5
41F
102
{ACAD_REACTORS
330
1A
102
}
100
AcDbPlotSettings
  1

  2
none_device
  4
ISO_A4_(297.00_x_210.00_MM)
  6

 40
0.0
 41
0.0
 42
0.0
 43
0.0
 44
297.0
 45
210.0
 46
0.0
 47
0.0
 48
0.0
 49
0.0
140
0.0
141
0.0
142
1.0
143
1.0
 70
1024
 72
1
 73
0
 74
0
  7

 75
0
147
1.0
148
0.0
149
0.0
100
AcDbLayout
  1
Model
 70
0
 71
0
 10
0.0
 20
0.0
 11
297.0
 21
210.0
 12
0.0
 22
0.0
 32
0.0
 14
0.0
 24
0.0
 34
0.0
 15
0.0
 25
0.0
 35
0.0
146
0.0
 13
0.0
 23
0.0
 33
0.0
 16
1.0
 26
0.0
 36
0.0
 17
0.0
 27
1.0
 37
0.0
 76
0
330
215
345
0
346
0
  0
LAYOUT
  5
420
102
{ACAD_REACTORS
330
1A
102
}
100
AcDbPlotSettings
  1

  2
none_device
  4
ISO_A4_(297.00_x_210.00_MM)
  6

 40
0.0
 41
0.0
 42
0.0
 43
0.0
 44
297.0
 45
210.0
 46
0.0
 47
0.0
 48
0.0
 49
0.0
140
0.0
141
0.0
142
1.0
143
1.0
 70
0
 72
1
 73
0
 74
0
  7

 75
0
147
1.0
148
0.0
149
0.0
100
AcDbLayout
  1
Layout1
 70
0
 71
1
 10
0.0
 20
0.0
 11
297.0
 21
210.0
 12
0.0
 22
0.0
 32
0.0
 14
0.0
 24
0.0
 34
0.0
 15
0.0
 25
0.0
 35
0.0
146
0.0
 13
0.0
 23
0.0
 33
0.0
 16
1.0
 26
0.0
 36
0.0
 17
0.0
 27
1.0
 37
0.0
 76
0
330
216
345
0
346
0
  0
ENDSEC
  0
EOF
