  0
SECTION
  2
HEADER
  9
$ACADVER
  1
AC1024
  9
$DWGCODEPAGE
  3
ANSI_1252
  9
$EXTMAX
 10
210.0
 20
297.0
 30
0.0
  9
$EXTMIN
 10
0.0
 20
0.0
 30
0.0
  9
$LIMMIN
 10
0.0
 20
0.0
  9
$LIMMAX
 10
210.0
 20
297.0
  9
$VIEWCTR
 10
105.0
 20
148.5
  9
$VIEWSIZE
 40
297.0
  9
$CLAYER
  8
0
  9
$LTSCALE
 40
19.36
  9
$CELTYPE
  6
BYLAYER
  9
$DIMSCALE
 40
1.0
  9
$DIMASZ
 40
3.0
  9
$DIMEXO
 40
0.5
  9
$DIMDLI
 40
13.376
  9
$DIMEXE
 40
1.5
  9
$DIMCEN
 40
3.168
  9
$DIMLFAC
 40
1.0
  9
$DIMBLK
  1
_FILLED
  9
$DIMALT
 70
0
  9
$DIMALTF
 40
0.0393700787
  9
$DIMTXT
 40
3.0
  9
$DIMTOL
 70
1
  9
$DIMLIM
 70
0
  9
$DIMTFAC
 40
1.0
  9
$DIMTP
 40
0.01
  9
$DIMTM
 40
0.01
  9
$DIMGAP
 40
0.625
  9
$DIMDSEP
 70
44
  9
$AUNITS
 70
0
  9
$PDMODE
 70
3
  9
$PDSIZE
 40
3.0
  9
$HANDSEED
  5
583
  9
$TILEMODE
 70
1
  9
$MEASUREMENT
 70
1
  9
$INSUNITS
 70
4
  0
ENDSEC
  0
SECTION
  2
CLASSES
  0
CLASS
  1
ACDBDICTIONARYWDFLT
  2
AcDbDictionaryWithDefault
  3
AutoCAD 2000
 90
0
 91
1
280
0
281
0
  0
CLASS
  1
ACDBPLACEHOLDER
  2
AcDbPlaceHolder
  3
AutoCAD 2000
 90
0
 91
1
280
0
281
0
  0
CLASS
  1
LAYOUT
  2
AcDbLayout
  3
AutoCAD 2000
 90
0
 91
0
280
0
281
0
  0
ENDSEC
  0
SECTION
  2
TABLES
  0
TABLE
  2
VPORT
  5
8
100
AcDbSymbolTable
 70
2
  0
VPORT
  5
1F4
100
AcDbSymbolTableRecord
100
AcDbViewportTableRecord
  2
*ACTIVE
 70
0
 10
0.0
 20
0.0
 11
1.0
 21
1.0
 12
105.0
 22
148.5
 13
0.0
 23
0.0
 14
1.0
 24
1.0
 15
0.0
 25
0.0
 16
0.0
 26
0.0
 36
1.0
 17
0.0
 27
0.0
 37
0.0
 40
297.0
 41
0.7070707071
 42
50.0
 43
0.0
 44
0.0
 50
0.0
 51
0.0
 71
0
 72
100
 73
1
 74
1
 75
0
 76
0
 77
0
 78
0
  0
ENDTAB
  0
TABLE
  2
LTYPE
  5
5
100
AcDbSymbolTable
 70
6
  0
LTYPE
  5
14
100
AcDbSymbolTableRecord
100
AcDbLinetypeTableRecord
  2
BYBLOCK
 70
0
  3

 72
65
 73
0
 40
0.0
  0
LTYPE
  5
15
100
AcDbSymbolTableRecord
100
AcDbLinetypeTableRecord
  2
BYLAYER
 70
0
  3

 72
65
 73
0
 40
0.0
  0
LTYPE
  5
16
100
AcDbSymbolTableRecord
100
AcDbLinetypeTableRecord
  2
CONTINUOUS
 70
64
  3
Solid line
 72
65
 73
0
 40
0.0
  0
LTYPE
  5
1F5
100
AcDbSymbolTableRecord
100
AcDbLinetypeTableRecord
  2
CENTER
 70
64
  3
____ _ ____ _ ____ _ ____ _ ____ _ ____ _ ____
 72
65
 73
4
 40
0.6
 49
0.375
 74
0
 49
-0.075
 74
0
 49
0.075
 74
0
 49
-0.075
 74
0
  0
LTYPE
  5
1F6
100
AcDbSymbolTableRecord
100
AcDbLinetypeTableRecord
  2
HIDDEN
 70
64
  3
- - - - - - - - - - - - - - - - - - - -
 72
65
 73
2
 40
0.2
 49
0.1
 74
0
 49
-0.1
 74
0
  0
LTYPE
  5
1F7
100
AcDbSymbolTableRecord
100
AcDbLinetypeTableRecord
  2
PHANTOM
 70
64
  3
_____ _ _ _____ _ _ _____ _ _ _____
 72
65
 73
6
 40
0.8
 49
0.45
 74
0
 49
-0.05
 74
0
 49
0.1
 74
0
 49
-0.05
 74
0
 49
0.1
 74
0
 49
-0.05
 74
0
  0
LTYPE
  5
1F8
100
AcDbSymbolTableRecord
100
AcDbLinetypeTableRecord
  2
DOT
 70
64
  3
. . . . . . . . . . . . . . . . . . . .
 72
65
 73
2
 40
0.2
 49
0.1
 74
0
 49
-0.1
 74
0
  0
LTYPE
  5
1F9
100
AcDbSymbolTableRecord
100
AcDbLinetypeTableRecord
  2
DASHED
 70
64
  3
- - - - - - - - - - - - - - - - - - - -
 72
65
 73
2
 40
0.2
 49
0.1
 74
0
 49
-0.1
 74
0
  0
ENDTAB
  0
TABLE
  2
LAYER
  5
2
100
AcDbSymbolTable
 70
36
  0
LAYER
  5
10
100
AcDbSymbolTableRecord
100
AcDbLayerTableRecord
  2
0
 70
0
 62
7
  6
CONTINUOUS
370
-3
390
F
  0
LAYER
  5
1FA
100
AcDbSymbolTableRecord
100
AcDbLayerTableRecord
  2
DEFAULT_1
 70
0
 62
7
  6
CENTER
370
-3
390
F
  0
LAYER
  5
1FB
100
AcDbSymbolTableRecord
100
AcDbLayerTableRecord
  2
DEFAULT_2
 70
0
 62
7
  6
HIDDEN
370
-3
390
F
  0
LAYER
  5
1FC
100
AcDbSymbolTableRecord
100
AcDbLayerTableRecord
  2
DEFAULT_3
 70
0
 62
7
  6
PHANTOM
370
-3
390
F
  0
LAYER
  5
1FD
100
AcDbSymbolTableRecord
100
AcDbLayerTableRecord
  2
ASSI
 70
0
 62
7
  6
CONTINUOUS
370
-3
390
F
  0
LAYER
  5
1FE
100
AcDbSymbolTableRecord
100
AcDbLayerTableRecord
  2
COORDINATE
 70
0
 62
7
  6
CONTINUOUS
370
-3
390
F
  0
LAYER
  5
1FF
100
AcDbSymbolTableRecord
100
AcDbLayerTableRecord
  2
COPY_PUBLISH
 70
0
 62
7
  6
CONTINUOUS
370
-3
390
F
  0
LAYER
  5
200
100
AcDbSymbolTableRecord
100
AcDbLayerTableRecord
  2
COSMETICI
 70
0
 62
7
  6
CONTINUOUS
370
-3
390
F
  0
LAYER
  5
201
100
AcDbSymbolTableRecord
100
AcDbLayerTableRecord
  2
CURVE
 70
0
 62
7
  6
CONTINUOUS
370
-3
390
F
  0
LAYER
  5
202
100
AcDbSymbolTableRecord
100
AcDbLayerTableRecord
  2
DRAFT
 70
0
 62
7
  6
CONTINUOUS
370
-3
390
F
  0
LAYER
  5
203
100
AcDbSymbolTableRecord
100
AcDbLayerTableRecord
  2
IMPORT_IGES
 70
0
 62
7
  6
CONTINUOUS
370
-3
390
F
  0
LAYER
  5
204
100
AcDbSymbolTableRecord
100
AcDbLayerTableRecord
  2
INTFCLR_1
 70
0
 62
7
  6
CONTINUOUS
370
-3
390
F
  0
LAYER
  5
205
100
AcDbSymbolTableRecord
100
AcDbLayerTableRecord
  2
INTF_2
 70
0
 62
7
  6
CONTINUOUS
370
-3
390
F
  0
LAYER
  5
206
100
AcDbSymbolTableRecord
100
AcDbLayerTableRecord
  2
INTF_5
 70
0
 62
7
  6
CONTINUOUS
370
-3
390
F
  0
LAYER
  5
207
100
AcDbSymbolTableRecord
100
AcDbLayerTableRecord
  2
INTF_9
 70
0
 62
7
  6
CONTINUOUS
370
-3
390
F
  0
LAYER
  5
208
100
AcDbSymbolTableRecord
100
AcDbLayerTableRecord
  2
NOTE
 70
0
 62
7
  6
CONTINUOUS
370
-3
390
F
  0
LAYER
  5
209
100
AcDbSymbolTableRecord
100
AcDbLayerTableRecord
  2
PIANI
 70
0
 62
7
  6
CONTINUOUS
370
-3
390
F
  0
LAYER
  5
20A
100
AcDbSymbolTableRecord
100
AcDbLayerTableRecord
  2
PUNTI
 70
0
 62
7
  6
CONTINUOUS
370
-3
390
F
  0
LAYER
  5
20B
100
AcDbSymbolTableRecord
100
AcDbLayerTableRecord
  2
RACCORDO
 70
0
 62
7
  6
CONTINUOUS
370
-3
390
F
  0
LAYER
  5
20C
100
AcDbSymbolTableRecord
100
AcDbLayerTableRecord
  2
SIMBOLI
 70
0
 62
7
  6
CONTINUOUS
370
-3
390
F
  0
LAYER
  5
20D
100
AcDbSymbolTableRecord
100
AcDbLayerTableRecord
  2
SMUSSO
 70
0
 62
7
  6
CONTINUOUS
370
-3
390
F
  0
LAYER
  5
20E
100
AcDbSymbolTableRecord
100
AcDbLayerTableRecord
  2
SNAPLINE
 70
0
 62
7
  6
CONTINUOUS
370
-3
390
F
  0
LAYER
  5
20F
100
AcDbSymbolTableRecord
100
AcDbLayerTableRecord
  2
SUPERFICI
 70
0
 62
7
  6
CONTINUOUS
370
-3
390
F
  0
LAYER
  5
210
100
AcDbSymbolTableRecord
100
AcDbLayerTableRecord
  2
TRASH
 70
0
 62
7
  6
CONTINUOUS
370
-3
390
F
  0
ENDTAB
  0
TABLE
  2
STYLE
  5
3
100
AcDbSymbolTable
 70
1
  0
STYLE
  5
11
100
AcDbSymbolTableRecord
100
AcDbTextStyleTableRecord
  2
STANDARD
 70
0
 40
0.0
 41
0.8
 50
0.0
 71
0
 42
0.2
  3
txt
  4

  0
STYLE
  5
211
100
AcDbSymbolTableRecord
100
AcDbTextStyleTableRecord
  2
TEXTSTYLE_1
 70
0
 40
0.0
 41
0.8
 50
0.0
 71
0
 42
0.2
  3
gdt
  4

  0
ENDTAB
  0
TABLE
  2
VIEW
  5
6
100
AcDbSymbolTable
 70
0
  0
ENDTAB
  0
TABLE
  2
UCS
  5
7
100
AcDbSymbolTable
 70
0
  0
ENDTAB
  0
TABLE
  2
APPID
  5
9
100
AcDbSymbolTable
 70
1
  0
APPID
  5
212
100
AcDbSymbolTableRecord
100
AcDbRegAppTableRecord
  2
ACAD
 70
0
  0
ENDTAB
  0
TABLE
  2
BLOCK_RECORD
  5
1
100
AcDbSymbolTable
 70
0
  0
BLOCK_RECORD
  5
213
100
AcDbSymbolTableRecord
100
AcDbBlockTableRecord
  2
*Model_Space
  0
BLOCK_RECORD
  5
214
100
AcDbSymbolTableRecord
100
AcDbBlockTableRecord
  2
*Paper_Space
  0
BLOCK_RECORD
  5
215
100
AcDbSymbolTableRecord
100
AcDbBlockTableRecord
  2
_FILLED
  0
ENDTAB
  0
TABLE
  2
DIMSTYLE
  5
A
100
AcDbSymbolTable
 70
1
100
AcDbDimStyleTable
 71
0
  0
DIMSTYLE
105
216
100
AcDbSymbolTableRecord
100
AcDbDimStyleTableRecord
  2
STANDARD
 70
0
  3

  4

 40
1.0
 41
3.0
 42
0.5
 43
0.38
 44
1.5
 45
0.0
 46
0.0
 47
0.01
 48
0.01
140
3.0
141
0.09
142
0.0
143
25.4
144
1.0
145
0.0
146
1.0
147
0.625
 71
1
 72
0
 73
0
 74
0
 75
0
 76
0
 77
1
 78
8
 79
2
170
0
171
1
172
0
173
0
174
0
175
0
176
0
177
0
178
0
270
2
179
2
271
2
272
2
273
2
274
2
275
0
280
0
281
0
282
0
283
1
284
8
285
0
286
0
287
3
288
0
340
11
278
44
341
215
342
215
343
215
344
215
  0
ENDTAB
  0
ENDSEC
  0
SECTION
  2
BLOCKS
  0
BLOCK
  5
20
100
AcDbEntity
  8
0
100
AcDbBlockBegin
  2
*Model_Space
 70
0
 10
0.0
 20
0.0
 30
0.0
  3
*Model_Space
  1

  0
ENDBLK
  5
21
100
AcDbEntity
  8
0
100
AcDbBlockEnd
  0
BLOCK
  5
1C
100
AcDbEntity
  8
0
100
AcDbBlockBegin
  2
*Paper_Space
 70
0
 10
0.0
 20
0.0
 30
0.0
  3
*Paper_Space
  1

  0
ENDBLK
  5
1D
100
AcDbEntity
  8
0
100
AcDbBlockEnd
  0
BLOCK
  5
217
100
AcDbEntity
  8
0
100
AcDbBlockBegin
  2
_FILLED
 70
64
 10
0.0
 20
0.0
  3
_FILLED
  1

  0
SOLID
  5
218
100
AcDbEntity
  8
0
  6
BYBLOCK
 62
0
100
AcDbTrace
 10
0.0
 20
0.0
 11
-1.0
 21
0.3166666667
 12
-1.0
 22
-0.3166666667
 13
-1.0
 23
-0.3166666667
  0
ENDBLK
  5
219
100
AcDbEntity
  8
0
  6
BYBLOCK
 62
0
100
AcDbBlockEnd
  0
ENDSEC
  0
SECTION
  2
ENTITIES
  0
LINE
  5
21A
100
AcDbEntity
  8
DRAFT
100
AcDbLine
 62
7
  6
CONTINUOUS
 10
3.3889488197
 20
-21.768986637
 11
2.9805238267
 21
-21.8060605729
  0
LINE
  5
21B
100
AcDbEntity
  8
RACCORDO
100
AcDbLine
 62
7
  6
CONTINUOUS
 10
-10.9908103914
 20
-21.8060605729
 11
-8.2194761733
 21
-21.8060605729
  0
LINE
  5
21C
100
AcDbEntity
  8
DRAFT
100
AcDbLine
 62
7
  6
CONTINUOUS
 10
-3.8026261873
 20
-21.8060605729
 11
2.9805238267
 21
-21.8060605729
  0
LINE
  5
21D
100
AcDbEntity
  8
RACCORDO
100
AcDbLine
 62
7
  6
CONTINUOUS
 10
7.3973738127
 20
-21.8060605729
 11
10.1687080308
 21
-21.8060605729
  0
LINE
  5
21E
100
AcDbEntity
  8
DRAFT
100
AcDbLine
 62
7
  6
CONTINUOUS
 10
-7.8110511803
 20
-21.768986637
 11
-4.2110511803
 21
-21.768986637
  0
LINE
  5
21F
100
AcDbEntity
  8
DRAFT
100
AcDbLine
 62
7
  6
CONTINUOUS
 10
3.3889488197
 20
-21.768986637
 11
6.9889488197
 21
-21.768986637
  0
LINE
  5
220
100
AcDbEntity
  8
DRAFT
100
AcDbLine
 62
7
  6
CONTINUOUS
 10
-4.2110511803
 20
-21.768986637
 11
-3.8026261873
 21
-21.8060605729
  0
LINE
  5
221
100
AcDbEntity
  8
DRAFT
100
AcDbLine
 62
7
  6
CONTINUOUS
 10
3.3889488197
 20
-20.2225710258
 11
2.9057300905
 21
-20.325336717
  0
LINE
  5
222
100
AcDbEntity
  8
DRAFT
100
AcDbLine
 62
7
  6
CONTINUOUS
 10
-7.8110511803
 20
-21.768986637
 11
-8.2194761733
 21
-21.8060605729
  0
LINE
  5
223
100
AcDbEntity
  8
DRAFT
100
AcDbLine
 62
7
  6
CONTINUOUS
 10
-6.4138786475
 20
-19.9939479556
 11
-10.2558802813
 21
-20.018657955
  0
LINE
  5
224
100
AcDbEntity
  8
DRAFT
100
AcDbLine
 62
7
  6
CONTINUOUS
 10
-3.2979375635
 20
-19.9827073655
 11
-5.6077028563
 21
-19.9902840805
  0
LINE
  5
225
100
AcDbEntity
  8
DRAFT
100
AcDbLine
 62
7
  6
CONTINUOUS
 10
-0.9883936673
 20
-19.9794602019
 11
-3.2979375635
 21
-19.9827073655
  0
LINE
  5
226
100
AcDbEntity
  8
DRAFT
100
AcDbLine
 62
7
  6
CONTINUOUS
 10
-10.2994777634
 20
-20.325336717
 11
-8.2942699095
 21
-20.325336717
  0
LINE
  5
227
100
AcDbEntity
  8
DRAFT
100
AcDbLine
 62
7
  6
CONTINUOUS
 10
-3.7278324511
 20
-20.325336717
 11
2.9057300905
 21
-20.325336717
  0
LINE
  5
228
100
AcDbEntity
  8
DRAFT
100
AcDbLine
 62
7
  6
CONTINUOUS
 10
7.4721675489
 20
-20.325336717
 11
9.4773754028
 21
-20.325336717
  0
LINE
  5
229
100
AcDbEntity
  8
DRAFT
100
AcDbLine
 62
7
  6
CONTINUOUS
 10
-7.8110511803
 20
-20.2225710258
 11
-6.3813775699
 21
-20.2225710258
  0
LINE
  5
22A
100
AcDbEntity
  8
DRAFT
100
AcDbLine
 62
7
  6
CONTINUOUS
 10
-5.6407247907
 20
-20.2225710258
 11
-4.2110511803
 21
-20.2225710258
  0
LINE
  5
22B
100
AcDbEntity
  8
DRAFT
100
AcDbLine
 62
7
  6
CONTINUOUS
 10
3.3889488197
 20
-20.2225710258
 11
4.8186224301
 21
-20.2225710258
  0
LINE
  5
22C
100
AcDbEntity
  8
DRAFT
100
AcDbLine
 62
7
  6
CONTINUOUS
 10
5.5592752093
 20
-20.2225710258
 11
6.9889488197
 21
-20.2225710258
  0
LINE
  5
22D
100
AcDbEntity
  8
RACCORDO
100
AcDbLine
 62
7
  6
CONTINUOUS
 10
-5.8868079574
 20
-20.0057054797
 11
-6.1352944032
 21
-20.0057054797
  0
LINE
  5
22E
100
AcDbEntity
  8
RACCORDO
100
AcDbLine
 62
7
  6
CONTINUOUS
 10
5.0647055968
 20
-20.0057054797
 11
5.3131920426
 21
-20.0057054797
  0
LINE
  5
22F
100
AcDbEntity
  8
DRAFT
100
AcDbLine
 62
7
  6
CONTINUOUS
 10
1.3210237168
 20
-19.9805425898
 11
-0.9883936673
 21
-19.9794602019
  0
LWPOLYLINE
  5
230
100
AcDbEntity
  8
DRAFT
100
AcDbPolyline
 62
7
  6
CONTINUOUS
 90
3
 70
0
 10
4.7856004957
 20
-19.9902840805
 10
3.630694127
 20
-19.9859545291
 10
1.3210237168
 20
-19.9805425898
  0
LINE
  5
231
100
AcDbEntity
  8
DRAFT
100
AcDbLine
 62
7
  6
CONTINUOUS
 10
9.4337779206
 20
-20.018657955
 11
5.5917762869
 21
-19.9939479556
  0
LINE
  5
232
100
AcDbEntity
  8
DRAFT
100
AcDbLine
 62
7
  6
CONTINUOUS
 10
6.9889488197
 20
-21.768986637
 11
7.3973738127
 21
-21.8060605729
  0
LINE
  5
233
100
AcDbEntity
  8
DRAFT
100
AcDbLine
 62
7
  6
CONTINUOUS
 10
-4.2110511803
 20
-20.2225710258
 11
-3.7278324511
 21
-20.325336717
  0
LINE
  5
234
100
AcDbEntity
  8
DRAFT
100
AcDbLine
 62
7
  6
CONTINUOUS
 10
-7.8110511803
 20
-20.2225710258
 11
-8.2942699095
 21
-20.325336717
  0
LINE
  5
235
100
AcDbEntity
  8
DRAFT
100
AcDbLine
 62
7
  6
CONTINUOUS
 10
6.9889488197
 20
-20.2225710258
 11
7.4721675489
 21
-20.325336717
  0
LINE
  5
236
100
AcDbEntity
  8
RACCORDO
100
AcDbLine
 62
250
  6
CONTINUOUS
 10
-5.9055179071
 20
-17.7070250159
 11
-6.1165844529
 21
-17.7070249469
  0
LINE
  5
237
100
AcDbEntity
  8
RACCORDO
100
AcDbLine
 62
250
  6
CONTINUOUS
 10
5.2944820929
 20
-17.7070250159
 11
5.0834155471
 21
-17.7070249469
  0
LINE
  5
238
100
AcDbEntity
  8
RACCORDO
100
AcDbLine
 62
250
  6
CONTINUOUS
 10
-6.3664646065
 20
-17.5802394684
 11
-5.6556377541
 21
-17.5802394684
  0
LINE
  5
239
100
AcDbEntity
  8
RACCORDO
100
AcDbLine
 62
250
  6
CONTINUOUS
 10
4.8335353935
 20
-17.5802394684
 11
5.5443622459
 21
-17.5802394684
  0
LINE
  5
23A
100
AcDbEntity
  8
RACCORDO
100
AcDbLine
 62
250
  6
CONTINUOUS
 10
-6.3664646065
 20
-17.2982336237
 11
-5.6556377541
 21
-17.2982336237
  0
LINE
  5
23B
100
AcDbEntity
  8
RACCORDO
100
AcDbLine
 62
250
  6
CONTINUOUS
 10
4.8335353935
 20
-17.2982336237
 11
5.5443622459
 21
-17.2982336237
  0
LINE
  5
23C
100
AcDbEntity
  8
RACCORDO
100
AcDbLine
 62
250
  6
CONTINUOUS
 10
5.2951214172
 20
-17.0027923702
 11
5.0827762222
 21
-17.0027923702
  0
LINE
  5
23D
100
AcDbEntity
  8
RACCORDO
100
AcDbLine
 62
250
  6
CONTINUOUS
 10
-5.9048785828
 20
-17.0027923702
 11
-6.1172237778
 21
-17.0027923702
  0
LINE
  5
23E
100
AcDbEntity
  8
RACCORDO
100
AcDbLine
 62
7
  6
CONTINUOUS
 10
-5.8795320737
 20
-16.7467478672
 11
-6.1425702869
 21
-16.7467478672
  0
LINE
  5
23F
100
AcDbEntity
  8
RACCORDO
100
AcDbLine
 62
7
  6
CONTINUOUS
 10
5.0574297131
 20
-16.7467478672
 11
5.3204679263
 21
-16.7467478672
  0
LINE
  5
240
100
AcDbEntity
  8
RACCORDO
100
AcDbLine
 62
250
  6
CONTINUOUS
 10
-6.4172346304
 20
16.1970306065
 11
-6.3969957385
 21
16.2172694984
  0
LINE
  5
241
100
AcDbEntity
  8
RACCORDO
100
AcDbLine
 62
250
  6
CONTINUOUS
 10
-6.1676214537
 20
15.9467199356
 11
-6.147036514
 21
15.9673048754
  0
LINE
  5
242
100
AcDbEntity
  8
RACCORDO
100
AcDbLine
 62
7
  6
CONTINUOUS
 10
-5.8542576725
 20
-15.2399924355
 11
-6.1676214537
 21
-15.2402156699
  0
LINE
  5
243
100
AcDbEntity
  8
RACCORDO
100
AcDbLine
 62
250
  6
CONTINUOUS
 10
-6.3961382169
 20
-15.5607576175
 11
-5.6259641437
 21
-15.5607576175
  0
LINE
  5
244
100
AcDbEntity
  8
RACCORDO
100
AcDbLine
 62
250
  6
CONTINUOUS
 10
4.8038617831
 20
-15.5607576175
 11
5.5740358563
 21
-15.5607576175
  0
LINE
  5
245
100
AcDbEntity
  8
RACCORDO
100
AcDbLine
 62
250
  6
CONTINUOUS
 10
5.3249341534
 20
-15.2608006097
 11
5.0529634786
 21
-15.2608006023
  0
LINE
  5
246
100
AcDbEntity
  8
RACCORDO
100
AcDbLine
 62
250
  6
CONTINUOUS
 10
-5.8750658466
 20
-15.2608006097
 11
-6.1470365214
 21
-15.2608006023
  0
LINE
  5
247
100
AcDbEntity
  8
RACCORDO
100
AcDbLine
 62
7
  6
CONTINUOUS
 10
5.3455190931
 20
-15.2402156699
 11
5.0321553119
 21
-15.2399924355
  0
LWPOLYLINE
  5
248
100
AcDbEntity
  8
RACCORDO
100
AcDbPolyline
 62
7
  6
CONTINUOUS
 90
16
 70
0
 10
-5.8542576725
 20
-15.2399924355
 10
-5.8280790144
 20
-15.241347318
 10
-5.8021841418
 20
-15.2454358659
 10
-5.7768575663
 20
-15.2522150589
 10
-5.7523635843
 20
-15.2616185197
 10
-5.7289878202
 20
-15.2735414454
 10
-5.707026795
 20
-15.2878270866
 10
-5.6867396426
 20
-15.3042857783
 10
-5.6683109532
 20
-15.3227446656
 10
-5.6519011631
 20
-15.3430370878
 10
-5.6376819111
 20
-15.3649629727
 10
-5.6258261211
 20
-15.388269305
 10
-5.616470013
 20
-15.4126932756
 10
-5.6097176188
 20
-15.4379648285
 10
-5.6056427475
 20
-15.4638111548
 10
-5.604291225
 20
-15.4899498356
  0
LWPOLYLINE
  5
249
100
AcDbEntity
  8
RACCORDO
100
AcDbPolyline
 62
7
  6
CONTINUOUS
 90
16
 70
0
 10
5.3455190931
 20
-15.2402156699
 10
5.3716460018
 20
-15.2416070151
 10
5.3974928241
 20
-15.2457283561
 10
5.4227753286
 20
-15.2525373944
 10
5.4472290758
 20
-15.2619689138
 10
5.470568698
 20
-15.273918449
 10
5.4924983828
 20
-15.2882286409
 10
5.5127587998
 20
-15.3047102141
 10
5.5311650109
 20
-15.3231909924
 10
5.5475569515
 20
-15.3435039611
 10
5.5617623982
 20
-15.3654490183
 10
5.5736080181
 20
-15.38877374
 10
5.5829578505
 20
-15.4132158914
 10
5.5897071772
 20
-15.4385056757
 10
5.5937809082
 20
-15.4643700601
 10
5.5951322698
 20
-15.4905263408
  0
LINE
  5
24A
100
AcDbEntity
  8
RACCORDO
100
AcDbLine
 62
250
  6
CONTINUOUS
 10
-6.3969957385
 20
-15.5107652327
 11
-6.4172346304
 21
-15.4905263408
  0
LINE
  5
24B
100
AcDbEntity
  8
RACCORDO
100
AcDbLine
 62
250
  6
CONTINUOUS
 10
-6.1470365214
 20
-15.2608006023
 11
-6.1676214537
 21
-15.2402156699
  0
LINE
  5
24C
100
AcDbEntity
  8
DRAFT
100
AcDbLine
 62
7
  6
CONTINUOUS
 10
-10.2941742813
 20
-13.5967478672
 11
-9.9110511803
 21
-13.5967478672
  0
LINE
  5
24D
100
AcDbEntity
  8
DRAFT
100
AcDbLine
 62
7
  6
CONTINUOUS
 10
9.0889488197
 20
-13.5967478672
 11
9.4720719206
 21
-13.5967478672
  0
LINE
  5
24E
100
AcDbEntity
  8
DRAFT
100
AcDbLine
 62
7
  6
CONTINUOUS
 10
-11.5110511803
 20
-12.7467478672
 11
-10.3110511803
 21
-12.7467478672
  0
LINE
  5
24F
100
AcDbEntity
  8
DRAFT
100
AcDbLine
 62
7
  6
CONTINUOUS
 10
9.4889488197
 20
-12.7467478672
 11
10.6889488197
 21
-12.7467478672
  0
LINE
  5
250
100
AcDbEntity
  8
RACCORDO
100
AcDbLine
 62
7
  6
CONTINUOUS
 10
-11.4914368131
 20
-21.3083424186
 11
-11.5110511803
 21
-12.7467478672
  0
LINE
  5
251
100
AcDbEntity
  8
DRAFT
100
AcDbLine
 62
7
  6
CONTINUOUS
 10
-10.2994777634
 20
-20.325336717
 11
-10.3110511803
 21
-12.7467478672
  0
LINE
  5
252
100
AcDbEntity
  8
DRAFT
100
AcDbLine
 62
7
  6
CONTINUOUS
 10
-10.2518261086
 20
14.3032723826
 11
-10.2558802813
 21
20.7251622207
  0
LINE
  5
253
100
AcDbEntity
  8
RACCORDO
100
AcDbLine
 62
7
  6
CONTINUOUS
 10
-11.5110511803
 20
13.4532521328
 11
-11.5110511803
 21
0.8861226969
  0
LINE
  5
254
100
AcDbEntity
  8
RACCORDO
100
AcDbLine
 62
7
  6
CONTINUOUS
 10
-11.5110511803
 20
-0.1796184312
 11
-11.5110511803
 21
-12.7467478672
  0
LINE
  5
255
100
AcDbEntity
  8
DRAFT
100
AcDbLine
 62
7
  6
CONTINUOUS
 10
-10.3110511803
 20
0.220305423
 11
-10.3110511803
 21
-12.7467478672
  0
LINE
  5
256
100
AcDbEntity
  8
DRAFT
100
AcDbLine
 62
7
  6
CONTINUOUS
 10
-10.3110511803
 20
0.4861988427
 11
-10.3110511803
 21
13.4532521328
  0
LINE
  5
257
100
AcDbEntity
  8
DRAFT
100
AcDbLine
 62
7
  6
CONTINUOUS
 10
-10.2941742813
 20
14.3032521328
 11
-10.2941742813
 21
10.8032521328
  0
LINE
  5
258
100
AcDbEntity
  8
DRAFT
100
AcDbLine
 62
7
  6
CONTINUOUS
 10
-10.2941742813
 20
-13.5967478672
 11
-10.2941742813
 21
-10.0967478672
  0
LINE
  5
259
100
AcDbEntity
  8
DRAFT
100
AcDbLine
 62
7
  6
CONTINUOUS
 10
-10.256940479
 20
1.7307071978
 11
-10.256940479
 21
0.5132521328
  0
LINE
  5
25A
100
AcDbEntity
  8
DRAFT
100
AcDbLine
 62
7
  6
CONTINUOUS
 10
-10.256940479
 20
-1.0242029321
 11
-10.256940479
 21
0.1932521328
  0
LINE
  5
25B
100
AcDbEntity
  8
DRAFT
100
AcDbLine
 62
7
  6
CONTINUOUS
 10
-10.2482773771
 20
1.7393702997
 11
-10.250268019
 21
10.8032697165
  0
LINE
  5
25C
100
AcDbEntity
  8
DRAFT
100
AcDbLine
 62
7
  6
CONTINUOUS
 10
-10.250268019
 20
-10.0967654508
 11
-10.2482773771
 21
-1.032866034
  0
LINE
  5
25D
100
AcDbEntity
  8
DRAFT
100
AcDbLine
 62
7
  6
CONTINUOUS
 10
-10.2558802813
 20
-20.018657955
 11
-10.2518261086
 21
-13.5967681169
  0
LINE
  5
25E
100
AcDbEntity
  8
DRAFT
100
AcDbLine
 62
7
  6
CONTINUOUS
 10
-10.2994777634
 20
21.0318409827
 11
-10.3110511803
 21
13.4532521328
  0
LINE
  5
25F
100
AcDbEntity
  8
RACCORDO
100
AcDbLine
 62
7
  6
CONTINUOUS
 10
-11.4914368131
 20
22.0148466843
 11
-11.5110511803
 21
13.4532521328
  0
LINE
  5
260
100
AcDbEntity
  8
DRAFT
100
AcDbLine
 62
7
  6
CONTINUOUS
 10
-10.2941742813
 20
-10.0967478672
 11
-9.9110511803
 21
-10.0967478672
  0
LINE
  5
261
100
AcDbEntity
  8
DRAFT
100
AcDbLine
 62
7
  6
CONTINUOUS
 10
9.0889488197
 20
-10.0967478672
 11
9.4720719206
 21
-10.0967478672
  0
LINE
  5
262
100
AcDbEntity
  8
DRAFT
100
AcDbLine
 62
7
  6
CONTINUOUS
 10
-8.2194761733
 20
-21.8060605729
 11
-8.2942699095
 21
-20.325336717
  0
LINE
  5
263
100
AcDbEntity
  8
0
100
AcDbLine
 62
7
  6
CONTINUOUS
 10
-9.9110511803
 20
14.3032521328
 11
-9.9110511803
 21
10.8032521328
  0
LINE
  5
264
100
AcDbEntity
  8
0
100
AcDbLine
 62
7
  6
CONTINUOUS
 10
-9.9110511803
 20
-13.5967478672
 11
-9.9110511803
 21
-10.0967478672
  0
LINE
  5
265
100
AcDbEntity
  8
DRAFT
100
AcDbLine
 62
7
  6
CONTINUOUS
 10
-8.2942699095
 20
21.0318409827
 11
-8.2194761733
 21
22.5125648386
  0
LINE
  5
266
100
AcDbEntity
  8
DRAFT
100
AcDbLine
 62
7
  6
CONTINUOUS
 10
-6.4138786475
 20
20.7004522213
 11
-6.3813775699
 21
20.9290752915
  0
LWPOLYLINE
  5
267
100
AcDbEntity
  8
RACCORDO
100
AcDbPolyline
 62
250
  6
CONTINUOUS
 90
13
 70
0
 10
-6.3665463767
 20
18.3078746471
 10
-6.3639397503
 20
18.3215289534
 10
-6.3571854971
 20
18.3349543057
 10
-6.3463968717
 20
18.3479255893
 10
-6.3317547766
 20
18.360225303
 10
-6.3135047289
 20
18.3716472066
 10
-6.2919527434
 20
18.3819997789
 10
-6.2674602015
 20
18.391109429
 10
-6.2404377914
 20
18.3988234073
 10
-6.2113386219
 20
18.4050123666
 10
-6.1806506249
 20
18.4095725313
 10
-6.1488883732
 20
18.4124274368
 10
-6.1165844529
 20
18.4135292126
  0
LWPOLYLINE
  5
268
100
AcDbEntity
  8
RACCORDO
100
AcDbPolyline
 62
250
  6
CONTINUOUS
 90
8
 70
0
 10
-6.3969957385
 20
16.2172694984
 10
-6.396903671
 20
16.217657373
 10
-6.3968146824
 20
16.2185501213
 10
-6.3967287726
 20
16.2199477433
 10
-6.3966451052
 20
16.2218766429
 10
-6.3965645166
 20
16.2243104162
 10
-6.3964895163
 20
16.2271698517
 10
-6.39635664
 20
16.2341913702
  0
LINE
  5
269
100
AcDbEntity
  8
RACCORDO
100
AcDbLine
 62
250
  6
CONTINUOUS
 10
-7.4514053158
 20
6.5628523059
 11
-7.4716308443
 21
6.5426267774
  0
LINE
  5
26A
100
AcDbEntity
  8
RACCORDO
100
AcDbLine
 62
250
  6
CONTINUOUS
 10
-7.1510834828
 20
6.2632655218
 11
-7.1716765357
 21
6.2426724689
  0
LINE
  5
26B
100
AcDbEntity
  8
RACCORDO
100
AcDbLine
 62
250
  6
CONTINUOUS
 10
-7.4716308443
 20
-5.8361225117
 11
-7.4514053158
 21
-5.8563480402
  0
LINE
  5
26C
100
AcDbEntity
  8
RACCORDO
100
AcDbLine
 62
250
  6
CONTINUOUS
 10
-7.1716765357
 20
-5.5361682032
 11
-7.1510834828
 21
-5.5567612561
  0
LWPOLYLINE
  5
26D
100
AcDbEntity
  8
RACCORDO
100
AcDbPolyline
 62
250
  6
CONTINUOUS
 90
13
 70
0
 10
-6.3665463767
 20
-17.6013703814
 10
-6.3639397496
 20
-17.6150246892
 10
-6.3571854947
 20
-17.6284500427
 10
-6.346396867
 20
-17.6414213271
 10
-6.3317547693
 20
-17.6537210412
 10
-6.3135047191
 20
-17.6651429448
 10
-6.2919527317
 20
-17.6754955166
 10
-6.2674601889
 20
-17.684605166
 10
-6.2404377791
 20
-17.6923191434
 10
-6.2113386112
 20
-17.6985081019
 10
-6.1806506167
 20
-17.7030682658
 10
-6.1488883686
 20
-17.705923171
 10
-6.1165844529
 20
-17.7070249469
  0
LINE
  5
26E
100
AcDbEntity
  8
DRAFT
100
AcDbLine
 62
7
  6
CONTINUOUS
 10
-6.4138786475
 20
-19.9939479556
 11
-6.3813775699
 21
-20.2225710258
  0
LINE
  5
26F
100
AcDbEntity
  8
RACCORDO
100
AcDbLine
 62
250
  6
CONTINUOUS
 10
-6.3671858078
 20
-17.2489932361
 11
-6.3961382169
 21
-16.9565227749
  0
LINE
  5
270
100
AcDbEntity
  8
RACCORDO
100
AcDbLine
 62
250
  6
CONTINUOUS
 10
-6.1172237778
 20
-17.0027923702
 11
-6.1425702869
 21
-16.7467478672
  0
LWPOLYLINE
  5
271
100
AcDbEntity
  8
RACCORDO
100
AcDbPolyline
 62
250
  6
CONTINUOUS
 90
13
 70
0
 10
-7.9602615878
 20
4.087671009
 10
-7.9573840564
 20
4.0539453483
 10
-7.9494796988
 20
4.0207903584
 10
-7.9366822646
 20
3.9887670537
 10
-7.9192082986
 20
3.9584172994
 10
-7.8973534772
 20
3.9302546428
 10
-7.8714876051
 20
3.9047556232
 10
-7.8420483578
 20
3.8823517087
 10
-7.809533876
 20
3.8634219951
 10
-7.7744943359
 20
3.8482867914
 10
-7.7375226405
 20
3.8372022
 10
-7.6992443867
 20
3.8303557828
 10
-7.6603072793
 20
3.8278633879
  0
LWPOLYLINE
  5
272
100
AcDbEntity
  8
RACCORDO
100
AcDbPolyline
 62
250
  6
CONTINUOUS
 90
13
 70
0
 10
-7.948741245
 20
4.4687221867
 10
-7.9458638108
 20
4.4349971239
 10
-7.937959693
 20
4.4018425882
 10
-7.9251625813
 20
4.3698195787
 10
-7.9076889587
 20
4.3394699558
 10
-7.885834445
 20
4.3113072799
 10
-7.8599688011
 20
4.2858081192
 10
-7.8305296565
 20
4.2634039679
 10
-7.7980151249
 20
4.2444739635
 10
-7.7629753906
 20
4.2293384685
 10
-7.7260033632
 20
4.2182536252
 10
-7.6877246376
 20
4.2114070297
 10
-7.6487869364
 20
4.2089145673
  0
LWPOLYLINE
  5
273
100
AcDbEntity
  8
RACCORDO
100
AcDbPolyline
 62
250
  6
CONTINUOUS
 90
13
 70
0
 10
-7.1733611156
 20
-3.762217921
 10
-7.1762385498
 20
-3.7284928582
 10
-7.1841426676
 20
-3.6953383225
 10
-7.1969397793
 20
-3.663315313
 10
-7.214413402
 20
-3.6329656901
 10
-7.2362679156
 20
-3.6048030142
 10
-7.2621335596
 20
-3.5793038535
 10
-7.2915727041
 20
-3.5568997022
 10
-7.3240872358
 20
-3.5379696978
 10
-7.35912697
 20
-3.5228342028
 10
-7.3960989974
 20
-3.5117493595
 10
-7.434377723
 20
-3.504902764
 10
-7.4733154242
 20
-3.5024103016
  0
LWPOLYLINE
  5
274
100
AcDbEntity
  8
RACCORDO
100
AcDbPolyline
 62
250
  6
CONTINUOUS
 90
13
 70
0
 10
-7.1618407728
 20
-3.3811667433
 10
-7.1647183042
 20
-3.3474410826
 10
-7.1726226618
 20
-3.3142860927
 10
-7.185420096
 20
-3.282262788
 10
-7.2028940621
 20
-3.2519130337
 10
-7.2247488835
 20
-3.2237503771
 10
-7.2506147556
 20
-3.1982513575
 10
-7.2800540028
 20
-3.175847443
 10
-7.3125684847
 20
-3.1569177294
 10
-7.3476080247
 20
-3.1417825257
 10
-7.3845797201
 20
-3.1306979343
 10
-7.422857974
 20
-3.1238515171
 10
-7.4617950813
 20
-3.1213591222
  0
LWPOLYLINE
  5
275
100
AcDbEntity
  8
RACCORDO
100
AcDbPolyline
 62
7
  6
CONTINUOUS
 90
16
 70
0
 10
-5.6259641437
 20
-16.9565227749
 10
-5.6273384484
 20
-16.9379937349
 10
-5.6307486786
 20
-16.9191752404
 10
-5.636290539
 20
-16.9002641387
 10
-5.6440373539
 20
-16.88152907
 10
-5.6540439019
 20
-16.8631499435
 10
-5.6663600109
 20
-16.8452234475
 10
-5.6809761576
 20
-16.8280593821
 10
-5.6978916371
 20
-16.8119026309
 10
-5.71717592
 20
-16.7968144583
 10
-5.7386966653
 20
-16.7832023322
 10
-5.7624029018
 20
-16.7713466504
 10
-5.7885247707
 20
-16.7612899698
 10
-5.8170212434
 20
-16.7534422255
 10
-5.8474861386
 20
-16.7484302989
 10
-5.8795320737
 20
-16.7467478672
  0
LWPOLYLINE
  5
276
100
AcDbEntity
  8
RACCORDO
100
AcDbPolyline
 62
250
  6
CONTINUOUS
 90
13
 70
0
 10
-5.6549165529
 20
-17.2489932361
 10
-5.6571454901
 20
-17.2169187776
 10
-5.6635969252
 20
-17.1853910408
 10
-5.6741608859
 20
-17.1549473998
 10
-5.6886573057
 20
-17.1261067461
 10
-5.7068390899
 20
-17.0993606522
 10
-5.7283963248
 20
-17.0751649913
 10
-5.7529615638
 20
-17.0539321594
 10
-5.780116102
 20
-17.0360240415
 10
-5.8093971106
 20
-17.0217458543
 10
-5.8403055137
 20
-17.0113409504
 10
-5.872314493
 20
-17.0049866667
 10
-5.9048784767
 20
-17.0027912978
  0
LWPOLYLINE
  5
277
100
AcDbEntity
  8
RACCORDO
100
AcDbPolyline
 62
250
  6
CONTINUOUS
 90
13
 70
0
 10
-7.9504258249
 20
-5.5361682032
 10
-7.9478491404
 20
-5.5753095571
 10
-7.940186854
 20
-5.6137820746
 10
-7.9275697961
 20
-5.6509277771
 10
-7.9102135595
 20
-5.6861113056
 10
-7.8884147809
 20
-5.7187308742
 10
-7.8625460408
 20
-5.7482285442
 10
-7.8330495168
 20
-5.7740997034
 10
-7.8004296186
 20
-5.7959015836
 10
-7.7652443541
 20
-5.813260986
 10
-7.7280955617
 20
-5.8258808122
 10
-7.6896185684
 20
-5.8335450754
 10
-7.6504715164
 20
-5.8361225118
  0
LWPOLYLINE
  5
278
100
AcDbEntity
  8
RACCORDO
100
AcDbPolyline
 62
250
  6
CONTINUOUS
 90
4
 70
0
 10
-7.6603074559
 20
-3.1213551255
 10
-7.6613465772
 20
-3.0979082496
 10
-7.6623107767
 20
-3.0713453596
 10
-7.6632000544
 20
-3.0418698143
  0
LWPOLYLINE
  5
279
100
AcDbEntity
  8
RACCORDO
100
AcDbPolyline
 62
250
  6
CONTINUOUS
 90
4
 70
0
 10
-7.4617949047
 20
3.8278593912
 10
-7.4607557834
 20
3.8044125153
 10
-7.4597915839
 20
3.7778496253
 10
-7.4589023062
 20
3.74837408
  0
LINE
  5
27A
100
AcDbEntity
  8
RACCORDO
100
AcDbLine
 62
250
  6
CONTINUOUS
 10
-7.6487869364
 20
-3.5024102999
 11
-7.6603074001
 21
-3.1213551256
  0
LINE
  5
27B
100
AcDbEntity
  8
RACCORDO
100
AcDbLine
 62
250
  6
CONTINUOUS
 10
-7.4733154242
 20
4.2089145656
 11
-7.4617949605
 21
3.8278593913
  0
LINE
  5
27C
100
AcDbEntity
  8
RACCORDO
100
AcDbLine
 62
250
  6
CONTINUOUS
 10
-7.948481594
 20
-3.7717344944
 11
-7.9612961937
 21
-3.3432986593
  0
LINE
  5
27D
100
AcDbEntity
  8
RACCORDO
100
AcDbLine
 62
250
  6
CONTINUOUS
 10
-7.1736207666
 20
4.4782387601
 11
-7.1608061669
 21
4.049802925
  0
LWPOLYLINE
  5
27E
100
AcDbEntity
  8
RACCORDO
100
AcDbPolyline
 62
250
  6
CONTINUOUS
 90
7
 70
0
 10
-7.9484077334
 20
6.2033606287
 10
-7.9487088578
 20
6.2147682985
 10
-7.9490321861
 20
6.224460304
 10
-7.9493666535
 20
6.2321276258
 10
-7.9497085716
 20
6.2376672572
 10
-7.9500616287
 20
6.241182205
 10
-7.9504258249
 20
6.2426724689
  0
LWPOLYLINE
  5
27F
100
AcDbEntity
  8
RACCORDO
100
AcDbPolyline
 62
250
  6
CONTINUOUS
 90
7
 70
0
 10
-7.1736946273
 20
-5.496856363
 10
-7.1733935028
 20
-5.5082640328
 10
-7.1730701745
 20
-5.5179560383
 10
-7.1727357071
 20
-5.5256233601
 10
-7.172393789
 20
-5.5311629915
 10
-7.1720407319
 20
-5.5346779393
 10
-7.1716765357
 20
-5.5361682032
  0
LWPOLYLINE
  5
280
100
AcDbEntity
  8
RACCORDO
100
AcDbPolyline
 62
250
  6
CONTINUOUS
 90
4
 70
0
 10
-7.4726946832
 20
-5.8095228119
 10
-7.4723520356
 20
-5.8236438929
 10
-7.4719974226
 20
-5.8325422421
 10
-7.4716308443
 20
-5.8361225117
  0
LWPOLYLINE
  5
281
100
AcDbEntity
  8
RACCORDO
100
AcDbPolyline
 62
250
  6
CONTINUOUS
 90
4
 70
0
 10
-7.6494076774
 20
6.5160270776
 10
-7.649750325
 20
6.5301481586
 10
-7.650104938
 20
6.5390465078
 10
-7.6504715164
 20
6.5426267774
  0
LINE
  5
282
100
AcDbEntity
  8
RACCORDO
100
AcDbLine
 62
250
  6
CONTINUOUS
 10
-7.6632000544
 20
-3.0418698143
 11
-7.6647648753
 21
-2.975104833
  0
LINE
  5
283
100
AcDbEntity
  8
RACCORDO
100
AcDbLine
 62
250
  6
CONTINUOUS
 10
-7.4589023062
 20
3.74837408
 11
-7.4573374853
 21
3.6816090987
  0
LINE
  5
284
100
AcDbEntity
  8
RACCORDO
100
AcDbLine
 62
250
  6
CONTINUOUS
 10
-7.9612961937
 20
-3.3432986593
 11
-7.963145449
 21
-3.2544983648
  0
LINE
  5
285
100
AcDbEntity
  8
RACCORDO
100
AcDbLine
 62
250
  6
CONTINUOUS
 10
-7.948018161
 20
-3.7940059571
 11
-7.948481594
 21
-3.7717344944
  0
LINE
  5
286
100
AcDbEntity
  8
RACCORDO
100
AcDbLine
 62
250
  6
CONTINUOUS
 10
-7.1740841996
 20
4.5005102228
 11
-7.1736207666
 21
4.4782387601
  0
LINE
  5
287
100
AcDbEntity
  8
RACCORDO
100
AcDbLine
 62
250
  6
CONTINUOUS
 10
-7.1608061669
 20
4.049802925
 11
-7.1589569116
 21
3.9610026305
  0
LINE
  5
288
100
AcDbEntity
  8
RACCORDO
100
AcDbLine
 62
250
  6
CONTINUOUS
 10
-7.9478740679
 20
6.1752898613
 11
-7.9484077334
 21
6.2033606287
  0
LINE
  5
289
100
AcDbEntity
  8
RACCORDO
100
AcDbLine
 62
250
  6
CONTINUOUS
 10
-7.1742282927
 20
-5.4687855956
 11
-7.1736946273
 21
-5.496856363
  0
LINE
  5
28A
100
AcDbEntity
  8
RACCORDO
100
AcDbLine
 62
250
  6
CONTINUOUS
 10
-7.6647648753
 20
-2.975104833
 11
-7.6659784237
 21
-2.8996333412
  0
LINE
  5
28B
100
AcDbEntity
  8
RACCORDO
100
AcDbLine
 62
250
  6
CONTINUOUS
 10
-7.4573374853
 20
3.6816090987
 11
-7.4561239369
 21
3.6061376069
  0
LINE
  5
28C
100
AcDbEntity
  8
RACCORDO
100
AcDbLine
 62
250
  6
CONTINUOUS
 10
-7.963145449
 20
-3.2544983648
 11
-7.9647137224
 21
-3.1474012343
  0
LINE
  5
28D
100
AcDbEntity
  8
RACCORDO
100
AcDbLine
 62
250
  6
CONTINUOUS
 10
-7.1589569116
 20
3.9610026305
 11
-7.1573886382
 21
3.8539055
  0
LINE
  5
28E
100
AcDbEntity
  8
RACCORDO
100
AcDbLine
 62
250
  6
CONTINUOUS
 10
-7.9476263255
 20
-3.8208095353
 11
-7.948018161
 21
-3.7940059571
  0
LINE
  5
28F
100
AcDbEntity
  8
RACCORDO
100
AcDbLine
 62
250
  6
CONTINUOUS
 10
-7.6487514995
 20
6.4727762574
 11
-7.6494076774
 21
6.5160270776
  0
LINE
  5
290
100
AcDbEntity
  8
RACCORDO
100
AcDbLine
 62
250
  6
CONTINUOUS
 10
-7.4733508612
 20
-5.7662719917
 11
-7.4726946832
 21
-5.8095228119
  0
LINE
  5
291
100
AcDbEntity
  8
RACCORDO
100
AcDbLine
 62
250
  6
CONTINUOUS
 10
-7.1744760351
 20
4.527313801
 11
-7.1740841996
 21
4.5005102228
  0
LINE
  5
292
100
AcDbEntity
  8
RACCORDO
100
AcDbLine
 62
250
  6
CONTINUOUS
 10
-7.9474545038
 20
6.1417229718
 11
-7.9478740679
 21
6.1752898613
  0
LINE
  5
293
100
AcDbEntity
  8
RACCORDO
100
AcDbLine
 62
250
  6
CONTINUOUS
 10
-7.1746478568
 20
-5.4352187061
 11
-7.1742282927
 21
-5.4687855956
  0
LINE
  5
294
100
AcDbEntity
  8
RACCORDO
100
AcDbLine
 62
250
  6
CONTINUOUS
 10
-7.6659784237
 20
-2.8996333412
 11
-7.666813447
 21
-2.8177519709
  0
LINE
  5
295
100
AcDbEntity
  8
RACCORDO
100
AcDbLine
 62
250
  6
CONTINUOUS
 10
-7.4561239369
 20
3.6061376069
 11
-7.4552889136
 21
3.5242562366
  0
LINE
  5
296
100
AcDbEntity
  8
RACCORDO
100
AcDbLine
 62
250
  6
CONTINUOUS
 10
-7.6480637948
 20
-3.5818701616
 11
-7.6487869364
 21
-3.5024102999
  0
LINE
  5
297
100
AcDbEntity
  8
RACCORDO
100
AcDbLine
 62
250
  6
CONTINUOUS
 10
-7.4740385658
 20
4.2883744273
 11
-7.4733154242
 21
4.2089145656
  0
LINE
  5
298
100
AcDbEntity
  8
RACCORDO
100
AcDbLine
 62
250
  6
CONTINUOUS
 10
-7.9647137224
 20
-3.1474012343
 11
-7.9664004466
 21
-2.9618790512
  0
LINE
  5
299
100
AcDbEntity
  8
RACCORDO
100
AcDbLine
 62
250
  6
CONTINUOUS
 10
-7.9472054118
 20
-3.8672304212
 11
-7.9476263255
 21
-3.8208095353
  0
LINE
  5
29A
100
AcDbEntity
  8
RACCORDO
100
AcDbLine
 62
250
  6
CONTINUOUS
 10
-7.1748969488
 20
4.5737346869
 11
-7.1744760351
 21
4.527313801
  0
LINE
  5
29B
100
AcDbEntity
  8
RACCORDO
100
AcDbLine
 62
250
  6
CONTINUOUS
 10
-7.1573886382
 20
3.8539055
 11
-7.155701914
 21
3.6683833169
  0
LINE
  5
29C
100
AcDbEntity
  8
RACCORDO
100
AcDbLine
 62
250
  6
CONTINUOUS
 10
-7.6479194394
 20
6.3742283291
 11
-7.6487514995
 21
6.4727762574
  0
LINE
  5
29D
100
AcDbEntity
  8
RACCORDO
100
AcDbLine
 62
250
  6
CONTINUOUS
 10
-7.4741829212
 20
-5.6677240634
 11
-7.4733508612
 21
-5.7662719917
  0
LINE
  5
29E
100
AcDbEntity
  8
RACCORDO
100
AcDbLine
 62
250
  6
CONTINUOUS
 10
-7.947071298
 20
6.0840270193
 11
-7.9474545038
 21
6.1417229718
  0
LINE
  5
29F
100
AcDbEntity
  8
RACCORDO
100
AcDbLine
 62
250
  6
CONTINUOUS
 10
-7.1750310627
 20
-5.3775227536
 11
-7.1746478568
 21
-5.4352187061
  0
LINE
  5
2A0
100
AcDbEntity
  8
RACCORDO
100
AcDbLine
 62
250
  6
CONTINUOUS
 10
-7.666813447
 20
-2.8177519709
 11
-7.6672326356
 21
-2.7319765459
  0
LINE
  5
2A1
100
AcDbEntity
  8
RACCORDO
100
AcDbLine
 62
250
  6
CONTINUOUS
 10
-7.4552889136
 20
3.5242562366
 11
-7.454869725
 21
3.4384808116
  0
LINE
  5
2A2
100
AcDbEntity
  8
RACCORDO
100
AcDbLine
 62
250
  6
CONTINUOUS
 10
-7.9664004466
 20
-2.9618790512
 11
-7.9671874074
 21
-2.7589202117
  0
LINE
  5
2A3
100
AcDbEntity
  8
RACCORDO
100
AcDbLine
 62
250
  6
CONTINUOUS
 10
-7.9470094931
 20
-3.9178634486
 11
-7.9472054118
 21
-3.8672304212
  0
LINE
  5
2A4
100
AcDbEntity
  8
RACCORDO
100
AcDbLine
 62
250
  6
CONTINUOUS
 10
-7.1750928675
 20
4.6243677143
 11
-7.1748969488
 21
4.5737346869
  0
LINE
  5
2A5
100
AcDbEntity
  8
RACCORDO
100
AcDbLine
 62
250
  6
CONTINUOUS
 10
-7.155701914
 20
3.6683833169
 11
-7.1549149532
 21
3.4654244774
  0
LINE
  5
2A6
100
AcDbEntity
  8
RACCORDO
100
AcDbLine
 62
250
  6
CONTINUOUS
 10
-7.6471603964
 20
-3.8060150529
 11
-7.6480637948
 21
-3.5818701616
  0
LINE
  5
2A7
100
AcDbEntity
  8
RACCORDO
100
AcDbLine
 62
250
  6
CONTINUOUS
 10
-7.4749419643
 20
4.5125193186
 11
-7.4740385658
 21
4.2883744273
  0
LINE
  5
2A8
100
AcDbEntity
  8
RACCORDO
100
AcDbLine
 62
250
  6
CONTINUOUS
 10
-7.6471175699
 20
6.1455188321
 11
-7.6479194394
 21
6.3742283291
  0
LINE
  5
2A9
100
AcDbEntity
  8
RACCORDO
100
AcDbLine
 62
250
  6
CONTINUOUS
 10
-7.4749847908
 20
-5.4390145664
 11
-7.4741829212
 21
-5.6677240634
  0
LINE
  5
2AA
100
AcDbEntity
  8
DRAFT
100
AcDbLine
 62
7
  6
CONTINUOUS
 10
-8.5110511803
 20
-0.4067478672
 11
-8.5110511803
 21
0.1932521328
  0
LINE
  5
2AB
100
AcDbEntity
  8
RACCORDO
100
AcDbLine
 62
7
  6
CONTINUOUS
 10
-8.5110511803
 20
-0.4067478672
 11
-8.5110511803
 21
-1.0242029321
  0
LINE
  5
2AC
100
AcDbEntity
  8
DRAFT
100
AcDbLine
 62
7
  6
CONTINUOUS
 10
-8.5110511803
 20
0.5132521328
 11
-8.5110511803
 21
1.1132521328
  0
LINE
  5
2AD
100
AcDbEntity
  8
RACCORDO
100
AcDbLine
 62
7
  6
CONTINUOUS
 10
-8.5110511803
 20
1.1132521328
 11
-8.5110511803
 21
1.7307071978
  0
LINE
  5
2AE
100
AcDbEntity
  8
RACCORDO
100
AcDbLine
 62
7
  6
CONTINUOUS
 10
-7.9708382471
 20
-1.0357355054
 11
-7.9701853345
 21
-5.5559277128
  0
LINE
  5
2AF
100
AcDbEntity
  8
RACCORDO
100
AcDbLine
 62
250
  6
CONTINUOUS
 10
-7.9671874074
 20
-2.7589202117
 11
-7.9672436138
 21
-1.0321408721
  0
LINE
  5
2B0
100
AcDbEntity
  8
DRAFT
100
AcDbLine
 62
7
  6
CONTINUOUS
 10
-7.8110511803
 20
22.4754909026
 11
-7.8110511803
 21
20.9290752915
  0
LINE
  5
2B1
100
AcDbEntity
  8
DRAFT
100
AcDbLine
 62
7
  6
CONTINUOUS
 10
-7.8110511803
 20
-20.2225710258
 11
-7.8110511803
 21
-21.768986637
  0
LINE
  5
2B2
100
AcDbEntity
  8
RACCORDO
100
AcDbLine
 62
250
  6
CONTINUOUS
 10
-7.6672326356
 20
-2.7319765459
 11
-7.6672893053
 21
-1.0269957425
  0
LINE
  5
2B3
100
AcDbEntity
  8
RACCORDO
100
AcDbLine
 62
250
  6
CONTINUOUS
 10
-7.454869725
 20
3.4384808116
 11
-7.4548130553
 21
1.7335000082
  0
LINE
  5
2B4
100
AcDbEntity
  8
RACCORDO
100
AcDbLine
 62
250
  6
CONTINUOUS
 10
-7.1549149532
 20
3.4654244774
 11
-7.1548587468
 21
1.7386451378
  0
LINE
  5
2B5
100
AcDbEntity
  8
RACCORDO
100
AcDbLine
 62
7
  6
CONTINUOUS
 10
-7.1504149549
 20
1.7430889296
 11
-7.1510834828
 21
6.2632655218
  0
LINE
  5
2B6
100
AcDbEntity
  8
RACCORDO
100
AcDbLine
 62
7
  6
CONTINUOUS
 10
-7.9701853345
 20
6.2624319785
 11
-7.9708382471
 21
1.7422397711
  0
LINE
  5
2B7
100
AcDbEntity
  8
RACCORDO
100
AcDbLine
 62
7
  6
CONTINUOUS
 10
-7.1510834828
 20
-5.5567612561
 11
-7.1504149549
 21
-1.0365846639
  0
LINE
  5
2B8
100
AcDbEntity
  8
RACCORDO
100
AcDbLine
 62
250
  6
CONTINUOUS
 10
-7.9470094931
 20
4.6243677143
 11
-7.947071298
 21
6.0840270193
  0
LINE
  5
2B9
100
AcDbEntity
  8
RACCORDO
100
AcDbLine
 62
250
  6
CONTINUOUS
 10
-7.1750928675
 20
-3.9178634486
 11
-7.1750310627
 21
-5.3775227536
  0
LINE
  5
2BA
100
AcDbEntity
  8
RACCORDO
100
AcDbLine
 62
250
  6
CONTINUOUS
 10
-7.6473370455
 20
-5.5374364309
 11
-7.6471603964
 21
-3.8060150529
  0
LINE
  5
2BB
100
AcDbEntity
  8
RACCORDO
100
AcDbLine
 62
250
  6
CONTINUOUS
 10
-7.4747653151
 20
6.2439406966
 11
-7.4749419643
 21
4.5125193186
  0
LINE
  5
2BC
100
AcDbEntity
  8
RACCORDO
100
AcDbLine
 62
250
  6
CONTINUOUS
 10
-7.947071298
 20
-5.3775227536
 11
-7.9470094931
 21
-3.9178634486
  0
LINE
  5
2BD
100
AcDbEntity
  8
RACCORDO
100
AcDbLine
 62
250
  6
CONTINUOUS
 10
-7.1750310627
 20
6.0840270193
 11
-7.1750928675
 21
4.6243677143
  0
LINE
  5
2BE
100
AcDbEntity
  8
RACCORDO
100
AcDbLine
 62
250
  6
CONTINUOUS
 10
-7.6473691844
 20
4.4306199294
 11
-7.6471175699
 21
6.1455188321
  0
LINE
  5
2BF
100
AcDbEntity
  8
RACCORDO
100
AcDbLine
 62
250
  6
CONTINUOUS
 10
-7.4747331762
 20
-3.7241156637
 11
-7.4749847908
 21
-5.4390145664
  0
LINE
  5
2C0
100
AcDbEntity
  8
RACCORDO
100
AcDbLine
 62
250
  6
CONTINUOUS
 10
-7.6672893053
 20
1.7335000082
 11
-7.6670735052
 21
3.4817904814
  0
LINE
  5
2C1
100
AcDbEntity
  8
RACCORDO
100
AcDbLine
 62
250
  6
CONTINUOUS
 10
-7.4548130553
 20
-1.0269957425
 11
-7.4550288554
 21
-2.7752862157
  0
LINE
  5
2C2
100
AcDbEntity
  8
RACCORDO
100
AcDbLine
 62
250
  6
CONTINUOUS
 10
-7.9672436138
 20
1.7386451378
 11
-7.9667668546
 21
3.6021040926
  0
LINE
  5
2C3
100
AcDbEntity
  8
RACCORDO
100
AcDbLine
 62
250
  6
CONTINUOUS
 10
-7.1548587468
 20
-1.0321408721
 11
-7.155335506
 21
-2.8955998269
  0
LINE
  5
2C4
100
AcDbEntity
  8
RACCORDO
100
AcDbLine
 62
250
  6
CONTINUOUS
 10
-7.9472054118
 20
4.5737346869
 11
-7.9470094931
 21
4.6243677143
  0
LINE
  5
2C5
100
AcDbEntity
  8
RACCORDO
100
AcDbLine
 62
250
  6
CONTINUOUS
 10
-7.1748969488
 20
-3.8672304212
 11
-7.1750928675
 21
-3.9178634486
  0
LINE
  5
2C6
100
AcDbEntity
  8
RACCORDO
100
AcDbLine
 62
250
  6
CONTINUOUS
 10
-7.6481744163
 20
-5.7046386686
 11
-7.6473370455
 21
-5.5374364309
  0
LINE
  5
2C7
100
AcDbEntity
  8
RACCORDO
100
AcDbLine
 62
250
  6
CONTINUOUS
 10
-7.4739279443
 20
6.4111429343
 11
-7.4747653151
 21
6.2439406966
  0
LINE
  5
2C8
100
AcDbEntity
  8
RACCORDO
100
AcDbLine
 62
250
  6
CONTINUOUS
 10
-7.6482861134
 20
4.2589053536
 11
-7.6473691844
 21
4.4306199294
  0
LINE
  5
2C9
100
AcDbEntity
  8
RACCORDO
100
AcDbLine
 62
250
  6
CONTINUOUS
 10
-7.4738162473
 20
-3.5524010879
 11
-7.4747331762
 21
-3.7241156637
  0
LINE
  5
2CA
100
AcDbEntity
  8
RACCORDO
100
AcDbLine
 62
250
  6
CONTINUOUS
 10
-7.9474545038
 20
-5.4352187061
 11
-7.947071298
 21
-5.3775227536
  0
LINE
  5
2CB
100
AcDbEntity
  8
RACCORDO
100
AcDbLine
 62
250
  6
CONTINUOUS
 10
-7.1746478568
 20
6.1417229718
 11
-7.1750310627
 21
6.0840270193
  0
LINE
  5
2CC
100
AcDbEntity
  8
RACCORDO
100
AcDbLine
 62
250
  6
CONTINUOUS
 10
-7.6670735052
 20
3.4817904814
 11
-7.6664461404
 21
3.5659502665
  0
LINE
  5
2CD
100
AcDbEntity
  8
RACCORDO
100
AcDbLine
 62
250
  6
CONTINUOUS
 10
-7.4550288554
 20
-2.7752862157
 11
-7.4556562202
 21
-2.8594460008
  0
LINE
  5
2CE
100
AcDbEntity
  8
RACCORDO
100
AcDbLine
 62
250
  6
CONTINUOUS
 10
-7.9667668546
 20
3.6021040926
 11
-7.9653682819
 21
3.7952565064
  0
LINE
  5
2CF
100
AcDbEntity
  8
RACCORDO
100
AcDbLine
 62
250
  6
CONTINUOUS
 10
-7.155335506
 20
-2.8955998269
 11
-7.1567340787
 21
-3.0887522407
  0
LINE
  5
2D0
100
AcDbEntity
  8
RACCORDO
100
AcDbLine
 62
250
  6
CONTINUOUS
 10
-7.6487514995
 20
-5.7662719917
 11
-7.6481744163
 21
-5.7046386686
  0
LINE
  5
2D1
100
AcDbEntity
  8
RACCORDO
100
AcDbLine
 62
250
  6
CONTINUOUS
 10
-7.4733508612
 20
6.4727762574
 11
-7.4739279443
 21
6.4111429343
  0
LINE
  5
2D2
100
AcDbEntity
  8
RACCORDO
100
AcDbLine
 62
250
  6
CONTINUOUS
 10
-7.9476263255
 20
4.527313801
 11
-7.9472054118
 21
4.5737346869
  0
LINE
  5
2D3
100
AcDbEntity
  8
RACCORDO
100
AcDbLine
 62
250
  6
CONTINUOUS
 10
-7.6487869364
 20
4.2089145656
 11
-7.6482861134
 21
4.2589053536
  0
LINE
  5
2D4
100
AcDbEntity
  8
RACCORDO
100
AcDbLine
 62
250
  6
CONTINUOUS
 10
-7.4733154242
 20
-3.5024102999
 11
-7.4738162473
 21
-3.5524010879
  0
LINE
  5
2D5
100
AcDbEntity
  8
RACCORDO
100
AcDbLine
 62
250
  6
CONTINUOUS
 10
-7.1744760351
 20
-3.8208095353
 11
-7.1748969488
 21
-3.8672304212
  0
LINE
  5
2D6
100
AcDbEntity
  8
RACCORDO
100
AcDbLine
 62
250
  6
CONTINUOUS
 10
-7.9653682819
 20
3.7952565064
 11
-7.9639615987
 21
3.909907962
  0
LINE
  5
2D7
100
AcDbEntity
  8
RACCORDO
100
AcDbLine
 62
250
  6
CONTINUOUS
 10
-7.1567340787
 20
-3.0887522407
 11
-7.1581407619
 21
-3.2034036963
  0
LINE
  5
2D8
100
AcDbEntity
  8
RACCORDO
100
AcDbLine
 62
250
  6
CONTINUOUS
 10
-7.9478740679
 20
-5.4687855956
 11
-7.9474545038
 21
-5.4352187061
  0
LINE
  5
2D9
100
AcDbEntity
  8
RACCORDO
100
AcDbLine
 62
250
  6
CONTINUOUS
 10
-7.1742282927
 20
6.1752898613
 11
-7.1746478568
 21
6.1417229718
  0
LINE
  5
2DA
100
AcDbEntity
  8
RACCORDO
100
AcDbLine
 62
250
  6
CONTINUOUS
 10
-7.6664461404
 20
3.5659502665
 11
-7.6654170733
 21
3.6449051764
  0
LINE
  5
2DB
100
AcDbEntity
  8
RACCORDO
100
AcDbLine
 62
250
  6
CONTINUOUS
 10
-7.4556562202
 20
-2.8594460008
 11
-7.4566852873
 21
-2.9384009107
  0
LINE
  5
2DC
100
AcDbEntity
  8
RACCORDO
100
AcDbLine
 62
250
  6
CONTINUOUS
 10
-7.948018161
 20
4.5005102228
 11
-7.9476263255
 21
4.527313801
  0
LINE
  5
2DD
100
AcDbEntity
  8
RACCORDO
100
AcDbLine
 62
250
  6
CONTINUOUS
 10
-7.1740841996
 20
-3.7940059571
 11
-7.1744760351
 21
-3.8208095353
  0
LWPOLYLINE
  5
2DE
100
AcDbEntity
  8
RACCORDO
100
AcDbPolyline
 62
250
  6
CONTINUOUS
 90
3
 70
0
 10
-7.9639615987
 20
3.909907962
 10
-7.9622527092
 20
4.0078466453
 10
-7.9612932597
 20
4.0499647193
  0
LWPOLYLINE
  5
2DF
100
AcDbEntity
  8
RACCORDO
100
AcDbPolyline
 62
250
  6
CONTINUOUS
 90
3
 70
0
 10
-7.1581407619
 20
-3.2034036963
 10
-7.1598496515
 20
-3.3013423796
 10
-7.1608091009
 20
-3.3434604536
  0
LWPOLYLINE
  5
2E0
100
AcDbEntity
  8
RACCORDO
100
AcDbPolyline
 62
250
  6
CONTINUOUS
 90
6
 70
0
 10
-7.6654170733
 20
3.6449051764
 10
-7.6640150334
 20
3.716406734
 10
-7.6631942781
 20
3.7485807797
 10
-7.6623057957
 20
3.7780097381
 10
-7.661343538
 20
3.804499081
 10
-7.660307505
 20
3.8278582818
  0
LWPOLYLINE
  5
2E1
100
AcDbEntity
  8
RACCORDO
100
AcDbPolyline
 62
250
  6
CONTINUOUS
 90
6
 70
0
 10
-7.4566852873
 20
-2.9384009107
 10
-7.4580873272
 20
-3.0099024683
 10
-7.4589080825
 20
-3.042076514
 10
-7.4597965649
 20
-3.0715054724
 10
-7.4607588226
 20
-3.0979948153
 10
-7.4617948557
 20
-3.1213540161
  0
LINE
  5
2E2
100
AcDbEntity
  8
RACCORDO
100
AcDbLine
 62
250
  6
CONTINUOUS
 10
-7.948481594
 20
4.4782387602
 11
-7.948018161
 21
4.5005102228
  0
LINE
  5
2E3
100
AcDbEntity
  8
RACCORDO
100
AcDbLine
 62
250
  6
CONTINUOUS
 10
-7.1736207666
 20
-3.7717344945
 11
-7.1740841996
 21
-3.7940059571
  0
LINE
  5
2E4
100
AcDbEntity
  8
RACCORDO
100
AcDbLine
 62
250
  6
CONTINUOUS
 10
-7.9612932597
 20
4.0499647193
 11
-7.948481594
 21
4.4782387602
  0
LINE
  5
2E5
100
AcDbEntity
  8
RACCORDO
100
AcDbLine
 62
250
  6
CONTINUOUS
 10
-7.6603074337
 20
3.8278582818
 11
-7.6487869364
 21
4.2089145656
  0
LINE
  5
2E6
100
AcDbEntity
  8
RACCORDO
100
AcDbLine
 62
250
  6
CONTINUOUS
 10
-7.4617949269
 20
-3.1213540161
 11
-7.4733154242
 21
-3.5024102999
  0
LINE
  5
2E7
100
AcDbEntity
  8
RACCORDO
100
AcDbLine
 62
250
  6
CONTINUOUS
 10
-7.1608091009
 20
-3.3434604536
 11
-7.1736207666
 21
-3.7717344945
  0
LWPOLYLINE
  5
2E8
100
AcDbEntity
  8
RACCORDO
100
AcDbPolyline
 62
7
  6
CONTINUOUS
 90
16
 70
0
 10
-7.9701853345
 20
6.2624319785
 10
-7.9685408066
 20
6.2937458175
 10
-7.9636370694
 20
6.3247304776
 10
-7.9555244421
 20
6.3550467273
 10
-7.9442822751
 20
6.38437656
 10
-7.93003381
 20
6.4123819548
 10
-7.9129595591
 20
6.4387158733
 10
-7.8932897938
 20
6.4630589507
 10
-7.8712221881
 20
6.4851972767
 10
-7.8469193976
 20
6.504959671
 10
-7.8205754254
 20
6.5221478266
 10
-7.7925180637
 20
6.536510107
 10
-7.7631380883
 20
6.5478385059
 10
-7.7327937974
 20
6.5560094678
 10
-7.7017920857
 20
6.5609550621
 10
-7.6704745223
 20
6.5626297834
  0
LWPOLYLINE
  5
2E9
100
AcDbEntity
  8
RACCORDO
100
AcDbPolyline
 62
250
  6
CONTINUOUS
 90
13
 70
0
 10
-7.9504258249
 20
6.2426724689
 10
-7.9478487451
 20
6.2818168159
 10
-7.9401854287
 20
6.3202916515
 10
-7.9275669466
 20
6.3574389156
 10
-7.9102091208
 20
6.3926232544
 10
-7.8884088336
 20
6.4252428871
 10
-7.8625389494
 20
6.4547398992
 10
-7.8330419376
 20
6.4806097839
 10
-7.8004223047
 20
6.5024100718
 10
-7.7652379656
 20
6.5197678982
 10
-7.7280907009
 20
6.5323863808
 10
-7.6896158644
 20
6.5400496975
 10
-7.6504715164
 20
6.5426267774
  0
LWPOLYLINE
  5
2EA
100
AcDbEntity
  8
RACCORDO
100
AcDbPolyline
 62
250
  6
CONTINUOUS
 90
13
 70
0
 10
-5.6549165529
 20
17.9554975018
 10
-5.6571454681
 20
17.9234232
 10
-5.6635968467
 20
17.8918955858
 10
-5.6741607289
 20
17.8614520289
 10
-5.6886570595
 20
17.8326114218
 10
-5.706838757
 20
17.8058653357
 10
-5.7283959251
 20
17.7816696419
 10
-5.7529611345
 20
17.7604367418
 10
-5.7801156857
 20
17.7425285376
 10
-5.8093967454
 20
17.7282502642
 10
-5.840305235
 20
17.7178452864
 10
-5.8723143375
 20
17.7114909508
 10
-5.9048784767
 20
17.7092955635
  0
LWPOLYLINE
  5
2EB
100
AcDbEntity
  8
RACCORDO
100
AcDbPolyline
 62
7
  6
CONTINUOUS
 90
16
 70
0
 10
-5.6259641437
 20
17.6630270406
 10
-5.627363188
 20
17.643907787
 10
-5.6308370086
 20
17.6250012096
 10
-5.6364537485
 20
17.6063073085
 10
-5.6442483447
 20
17.5876455721
 10
-5.654254495
 20
17.5691965119
 10
-5.6665335376
 20
17.551501663
 10
-5.6810580587
 20
17.5345284838
 10
-5.6978191499
 20
17.5183095159
 10
-5.7169416503
 20
17.5034839186
 10
-5.7384001201
 20
17.4899616825
 10
-5.7620594026
 20
17.4778328171
 10
-5.7878796259
 20
17.4680065106
 10
-5.8156907311
 20
17.4607858258
 10
-5.84516245
 20
17.4558676999
 10
-5.8759260675
 20
17.4532521328
  0
LWPOLYLINE
  5
2EC
100
AcDbEntity
  8
RACCORDO
100
AcDbPolyline
 62
250
  6
CONTINUOUS
 90
7
 70
0
 10
-6.3671858078
 20
17.9554975018
 10
-6.3671051592
 20
17.9565511963
 10
-6.367027881
 20
17.95799216
 10
-6.3669539733
 20
17.9598203928
 10
-6.3668828669
 20
17.9620590686
 10
-6.3668151309
 20
17.9646850136
 10
-6.366695029
 20
17.9708974457
  0
LWPOLYLINE
  5
2ED
100
AcDbEntity
  8
RACCORDO
100
AcDbPolyline
 62
250
  6
CONTINUOUS
 90
13
 70
0
 10
-7.9602615878
 20
-3.3811667433
 10
-7.957383662
 20
-3.3474386363
 10
-7.9494783399
 20
-3.3142818142
 10
-7.936679625
 20
-3.2822573492
 10
-7.9192043345
 20
-3.2519071361
 10
-7.897348377
 20
-3.2237446419
 10
-7.8714816987
 20
-3.1982462416
 10
-7.8420421473
 20
-3.1758432993
 10
-7.8095279629
 20
-3.1569147473
 10
-7.7744892287
 20
-3.1417806657
 10
-7.7375187896
 20
-3.1306970162
 10
-7.6992422605
 20
-3.1238512594
 10
-7.6603072793
 20
-3.1213591217
  0
LWPOLYLINE
  5
2EE
100
AcDbEntity
  8
RACCORDO
100
AcDbPolyline
 62
250
  6
CONTINUOUS
 90
13
 70
0
 10
-7.948741245
 20
-3.762217921
 10
-7.9458637135
 20
-3.7284922603
 10
-7.937959356
 20
-3.6953372703
 10
-7.9251619217
 20
-3.6633139656
 10
-7.9076879557
 20
-3.6329642114
 10
-7.8858331343
 20
-3.6048015548
 10
-7.8599672622
 20
-3.5793025352
 10
-7.830528015
 20
-3.5568986207
 10
-7.7980135331
 20
-3.537968907
 10
-7.7629739931
 20
-3.5228337034
 10
-7.7260022977
 20
-3.511749112
 10
-7.6877240438
 20
-3.5049026948
 10
-7.6487869364
 20
-3.5024102999
  0
LWPOLYLINE
  5
2EF
100
AcDbEntity
  8
RACCORDO
100
AcDbPolyline
 62
250
  6
CONTINUOUS
 90
13
 70
0
 10
-7.1733611156
 20
4.4687221867
 10
-7.1762386471
 20
4.434996526
 10
-7.1841430046
 20
4.401841536
 10
-7.1969404389
 20
4.3698182313
 10
-7.2144144049
 20
4.3394684771
 10
-7.2362692263
 20
4.3113058205
 10
-7.2621350984
 20
4.2858068009
 10
-7.2915743456
 20
4.2634028864
 10
-7.3240888275
 20
4.2444731727
 10
-7.3591283676
 20
4.2293379691
 10
-7.3961000629
 20
4.2182533777
 10
-7.4343783168
 20
4.2114069605
 10
-7.4733154242
 20
4.2089145656
  0
LWPOLYLINE
  5
2F0
100
AcDbEntity
  8
RACCORDO
100
AcDbPolyline
 62
250
  6
CONTINUOUS
 90
13
 70
0
 10
-7.1618407728
 20
4.087671009
 10
-7.1647186986
 20
4.053942902
 10
-7.1726240207
 20
4.0207860799
 10
-7.1854227356
 20
3.9887616149
 10
-7.2028980261
 20
3.9584114018
 10
-7.2247539837
 20
3.9302489076
 10
-7.2506206619
 20
3.9047505073
 10
-7.2800602134
 20
3.882347565
 10
-7.3125743977
 20
3.863419013
 10
-7.3476131319
 20
3.8482849314
 10
-7.384583571
 20
3.8372012819
 10
-7.4228601001
 20
3.8303555251
 10
-7.4617950813
 20
3.8278633874
  0
LINE
  5
2F1
100
AcDbEntity
  8
RACCORDO
100
AcDbLine
 62
250
  6
CONTINUOUS
 10
-6.3961382169
 20
17.6630270406
 11
-6.3671858078
 21
17.9554975018
  0
LINE
  5
2F2
100
AcDbEntity
  8
RACCORDO
100
AcDbLine
 62
250
  6
CONTINUOUS
 10
-6.1425702869
 20
17.4532521328
 11
-6.1172237778
 21
17.7092966359
  0
LWPOLYLINE
  5
2F3
100
AcDbEntity
  8
RACCORDO
100
AcDbPolyline
 62
250
  6
CONTINUOUS
 90
5
 70
0
 10
-7.4716308443
 20
6.5426267774
 10
-7.4719974226
 20
6.5390465078
 10
-7.4723520356
 20
6.5301481586
 10
-7.4726946832
 20
6.5160270776
 10
-7.4733508612
 20
6.4727762574
  0
LWPOLYLINE
  5
2F4
100
AcDbEntity
  8
RACCORDO
100
AcDbPolyline
 62
250
  6
CONTINUOUS
 90
5
 70
0
 10
-7.6504715164
 20
-5.8361225117
 10
-7.650104938
 20
-5.8325422421
 10
-7.649750325
 20
-5.8236438929
 10
-7.6494076774
 20
-5.8095228119
 10
-7.6487514995
 20
-5.7662719917
  0
LINE
  5
2F5
100
AcDbEntity
  8
DRAFT
100
AcDbLine
 62
7
  6
CONTINUOUS
 10
-10.2558802813
 20
-20.018657955
 11
-10.2994777634
 21
-20.325336717
  0
LWPOLYLINE
  5
2F6
100
AcDbEntity
  8
RACCORDO
100
AcDbPolyline
 62
250
  6
CONTINUOUS
 90
8
 70
0
 10
-7.1716765357
 20
6.2426724689
 10
-7.1720407319
 20
6.2411822049
 10
-7.172393789
 20
6.2376672572
 10
-7.1727357071
 20
6.2321276258
 10
-7.1730701745
 20
6.224460304
 10
-7.1733935028
 20
6.2147682985
 10
-7.1736946273
 20
6.2033606287
 10
-7.1742282927
 20
6.1752898613
  0
LINE
  5
2F7
100
AcDbEntity
  8
DRAFT
100
AcDbLine
 62
7
  6
CONTINUOUS
 10
-10.256940479
 20
1.7307071978
 11
-10.2482773771
 21
1.7393702997
  0
LINE
  5
2F8
100
AcDbEntity
  8
RACCORDO
100
AcDbLine
 62
250
  6
CONTINUOUS
 10
4.7821888644
 20
16.1964541013
 11
4.8030042615
 21
16.2172694984
  0
LINE
  5
2F9
100
AcDbEntity
  8
RACCORDO
100
AcDbLine
 62
250
  6
CONTINUOUS
 10
5.0321553119
 20
15.9464967012
 11
5.052963486
 21
15.9673048754
  0
LWPOLYLINE
  5
2FA
100
AcDbEntity
  8
RACCORDO
100
AcDbPolyline
 62
7
  6
CONTINUOUS
 90
16
 70
0
 10
-7.6704745223
 20
-5.8561255177
 10
-7.7017920857
 20
-5.8544507964
 10
-7.7327937974
 20
-5.8495052021
 10
-7.7631380883
 20
-5.8413342402
 10
-7.7925180637
 20
-5.8300058413
 10
-7.8205754254
 20
-5.8156435609
 10
-7.8469193976
 20
-5.7984554054
 10
-7.8712221881
 20
-5.778693011
 10
-7.8932897938
 20
-5.756554685
 10
-7.9129595591
 20
-5.7322116076
 10
-7.93003381
 20
-5.7058776891
 10
-7.9442822751
 20
-5.6778722943
 10
-7.9555244421
 20
-5.6485424616
 10
-7.9636370694
 20
-5.6182262119
 10
-7.9685408066
 20
-5.5872415518
 10
-7.9701853345
 20
-5.5559277128
  0
LINE
  5
2FB
100
AcDbEntity
  8
DRAFT
100
AcDbLine
 62
7
  6
CONTINUOUS
 10
-10.256940479
 20
-1.0242029321
 11
-10.2482773771
 21
-1.032866034
  0
LINE
  5
2FC
100
AcDbEntity
  8
RACCORDO
100
AcDbLine
 62
250
  6
CONTINUOUS
 10
4.8030042615
 20
-15.5107652327
 11
4.7821888644
 21
-15.4899498356
  0
LINE
  5
2FD
100
AcDbEntity
  8
RACCORDO
100
AcDbLine
 62
250
  6
CONTINUOUS
 10
5.0529634786
 20
-15.2608006023
 11
5.0321553119
 21
-15.2399924355
  0
LINE
  5
2FE
100
AcDbEntity
  8
DRAFT
100
AcDbLine
 62
7
  6
CONTINUOUS
 10
-10.2558802813
 20
20.7251622207
 11
-10.2994777634
 21
21.0318409827
  0
LWPOLYLINE
  5
2FF
100
AcDbEntity
  8
RACCORDO
100
AcDbPolyline
 62
250
  6
CONTINUOUS
 90
13
 70
0
 10
-7.1716765357
 20
6.2426724689
 10
-7.1742532203
 20
6.2818138228
 10
-7.1819155066
 20
6.3202863403
 10
-7.1945325646
 20
6.3574320428
 10
-7.2118888011
 20
6.3926155713
 10
-7.2336875797
 20
6.4252351399
 10
-7.2595563199
 20
6.4547328099
 10
-7.2890528438
 20
6.4806039691
 10
-7.321672742
 20
6.5024058493
 10
-7.3568580065
 20
6.5197652517
 10
-7.3940067989
 20
6.5323850779
 10
-7.4324837922
 20
6.5400493411
 10
-7.4716308442
 20
6.5426267775
  0
LWPOLYLINE
  5
300
100
AcDbEntity
  8
RACCORDO
100
AcDbPolyline
 62
250
  6
CONTINUOUS
 90
13
 70
0
 10
-5.6251066221
 20
-15.5107652327
 10
-5.6272541918
 20
-15.47814492
 10
-5.633640297
 20
-15.4460825384
 10
-5.6441557103
 20
-15.4151264721
 10
-5.6586205783
 20
-15.3858061825
 10
-5.6767874973
 20
-15.3586231538
 10
-5.6983457442
 20
-15.3340423152
 10
-5.722926592
 20
-15.3124840882
 10
-5.7501096176
 20
-15.2943171947
 10
-5.7794298928
 20
-15.2798523525
 10
-5.8103859339
 20
-15.2693369617
 10
-5.8424482792
 20
-15.2629508726
 10
-5.8750685459
 20
-15.260803309
  0
LWPOLYLINE
  5
301
100
AcDbEntity
  8
RACCORDO
100
AcDbPolyline
 62
250
  6
CONTINUOUS
 90
13
 70
0
 10
-6.3969957385
 20
16.2172694984
 10
-6.3948481688
 20
16.1846491857
 10
-6.3884620636
 20
16.1525868041
 10
-6.3779466503
 20
16.1216307378
 10
-6.3634817823
 20
16.0923104482
 10
-6.3453148634
 20
16.0651274195
 10
-6.3237566164
 20
16.0405465809
 10
-6.2991757687
 20
16.0189883539
 10
-6.271992743
 20
16.0008214604
 10
-6.2426724679
 20
15.9863566182
 10
-6.2117164267
 20
15.9758412274
 10
-6.1796540814
 20
15.9694551382
 10
-6.1470338147
 20
15.9673075747
  0
LWPOLYLINE
  5
302
100
AcDbEntity
  8
RACCORDO
100
AcDbPolyline
 62
250
  6
CONTINUOUS
 90
7
 70
0
 10
-6.3964895172
 20
-15.5206655468
 10
-6.3965645164
 20
-15.5178061357
 10
-6.3966451033
 20
-15.5153724059
 10
-6.3967287698
 20
-15.5134435332
 10
-6.3968146798
 20
-15.5120459093
 10
-6.3969036694
 20
-15.5111531425
 10
-6.3969957385
 20
-15.5107652327
  0
LWPOLYLINE
  5
303
100
AcDbEntity
  8
RACCORDO
100
AcDbPolyline
 62
250
  6
CONTINUOUS
 90
7
 70
0
 10
-5.6256128434
 20
16.2271698125
 10
-5.6255378442
 20
16.2243104014
 10
-5.6254572573
 20
16.2218766716
 10
-5.6253735908
 20
16.2199477989
 10
-5.6252876808
 20
16.218550175
 10
-5.6251986912
 20
16.2176574082
 10
-5.6251066221
 20
16.2172694984
  0
LWPOLYLINE
  5
304
100
AcDbEntity
  8
RACCORDO
100
AcDbPolyline
 62
250
  6
CONTINUOUS
 90
6
 70
0
 10
-6.3668151309
 20
-17.2581807479
 10
-6.3668828669
 20
-17.2555548029
 10
-6.3669539733
 20
-17.2533161271
 10
-6.367027881
 20
-17.2514878943
 10
-6.3671051592
 20
-17.2500469306
 10
-6.3671858078
 20
-17.2489932361
  0
LWPOLYLINE
  5
305
100
AcDbEntity
  8
RACCORDO
100
AcDbPolyline
 62
250
  6
CONTINUOUS
 90
6
 70
0
 10
-5.6552872297
 20
17.9646850136
 10
-5.6552194937
 20
17.9620590686
 10
-5.6551483874
 20
17.9598203928
 10
-5.6550744796
 20
17.95799216
 10
-5.6549972014
 20
17.9565511963
 10
-5.6549165529
 20
17.9554975018
  0
LINE
  5
306
100
AcDbEntity
  8
RACCORDO
100
AcDbLine
 62
250
  6
CONTINUOUS
 10
-6.366695029
 20
-17.26439318
 11
-6.3668151309
 21
-17.2581807479
  0
LINE
  5
307
100
AcDbEntity
  8
RACCORDO
100
AcDbLine
 62
250
  6
CONTINUOUS
 10
-5.6554073316
 20
17.9708974457
 11
-5.6552872297
 21
17.9646850136
  0
LINE
  5
308
100
AcDbEntity
  8
RACCORDO
100
AcDbLine
 62
250
  6
CONTINUOUS
 10
-6.39635664
 20
-15.5276871139
 11
-6.3964895172
 21
-15.5206655468
  0
LINE
  5
309
100
AcDbEntity
  8
RACCORDO
100
AcDbLine
 62
250
  6
CONTINUOUS
 10
-5.6257457206
 20
16.2341913796
 11
-5.6256128434
 21
16.2271698125
  0
LWPOLYLINE
  5
30A
100
AcDbEntity
  8
RACCORDO
100
AcDbPolyline
 62
250
  6
CONTINUOUS
 90
3
 70
0
 10
-6.1468532493
 20
-15.268282792
 10
-6.1469422368
 20
-15.2629410849
 10
-6.1470342582
 20
-15.2608006424
  0
LWPOLYLINE
  5
30B
100
AcDbEntity
  8
RACCORDO
100
AcDbPolyline
 62
250
  6
CONTINUOUS
 90
3
 70
0
 10
-5.8752491113
 20
15.9747870577
 10
-5.8751601238
 20
15.9694453506
 10
-5.8750681024
 20
15.9673049081
  0
LINE
  5
30C
100
AcDbEntity
  8
RACCORDO
100
AcDbLine
 62
250
  6
CONTINUOUS
 10
-6.3665966674
 20
-17.2717924815
 11
-6.366695029
 21
-17.26439318
  0
LINE
  5
30D
100
AcDbEntity
  8
RACCORDO
100
AcDbLine
 62
250
  6
CONTINUOUS
 10
-5.6555056932
 20
17.9782967472
 11
-5.6554073316
 21
17.9708974457
  0
LINE
  5
30E
100
AcDbEntity
  8
RACCORDO
100
AcDbLine
 62
250
  6
CONTINUOUS
 10
-6.3962522552
 20
-15.536070172
 11
-6.39635664
 21
-15.5276871139
  0
LINE
  5
30F
100
AcDbEntity
  8
RACCORDO
100
AcDbLine
 62
250
  6
CONTINUOUS
 10
-5.6258501054
 20
16.2425744377
 11
-5.6257457206
 21
16.2341913796
  0
LINE
  5
310
100
AcDbEntity
  8
RACCORDO
100
AcDbLine
 62
250
  6
CONTINUOUS
 10
-6.1170665052
 20
-17.0175391508
 11
-6.1172238669
 21
-17.0027923703
  0
LINE
  5
311
100
AcDbEntity
  8
RACCORDO
100
AcDbLine
 62
250
  6
CONTINUOUS
 10
-5.9050358554
 20
17.7240434165
 11
-5.9048784937
 21
17.709296636
  0
LINE
  5
312
100
AcDbEntity
  8
RACCORDO
100
AcDbLine
 62
250
  6
CONTINUOUS
 10
-5.9055179071
 20
-17.7070250159
 11
-5.8868079574
 21
-20.0057054797
  0
LINE
  5
313
100
AcDbEntity
  8
RACCORDO
100
AcDbLine
 62
250
  6
CONTINUOUS
 10
-6.1165844535
 20
18.4135292816
 11
-6.1352944032
 21
20.7122097454
  0
LINE
  5
314
100
AcDbEntity
  8
RACCORDO
100
AcDbLine
 62
250
  6
CONTINUOUS
 10
-6.1466834776
 20
-15.2882831565
 11
-6.1468532493
 21
-15.268282792
  0
LINE
  5
315
100
AcDbEntity
  8
RACCORDO
100
AcDbLine
 62
250
  6
CONTINUOUS
 10
-5.875418883
 20
15.9947874222
 11
-5.8752491113
 21
15.9747870577
  0
LINE
  5
316
100
AcDbEntity
  8
RACCORDO
100
AcDbLine
 62
250
  6
CONTINUOUS
 10
-6.3664981951
 20
-17.2844974678
 11
-6.3665966674
 21
-17.2717924815
  0
LINE
  5
317
100
AcDbEntity
  8
RACCORDO
100
AcDbLine
 62
250
  6
CONTINUOUS
 10
-5.6556041655
 20
17.9910017335
 11
-5.6555056932
 21
17.9782967472
  0
LINE
  5
318
100
AcDbEntity
  8
RACCORDO
100
AcDbLine
 62
250
  6
CONTINUOUS
 10
-6.3961569762
 20
-15.5504604376
 11
-6.3962522552
 21
-15.536070172
  0
LINE
  5
319
100
AcDbEntity
  8
RACCORDO
100
AcDbLine
 62
250
  6
CONTINUOUS
 10
-5.6259453844
 20
16.2569647033
 11
-5.6258501054
 21
16.2425744377
  0
LINE
  5
31A
100
AcDbEntity
  8
RACCORDO
100
AcDbLine
 62
250
  6
CONTINUOUS
 10
-6.3664646065
 20
18.2867437341
 11
-6.3813775699
 21
20.1300160512
  0
LINE
  5
31B
100
AcDbEntity
  8
RACCORDO
100
AcDbLine
 62
250
  6
CONTINUOUS
 10
-5.6556377541
 20
-17.5802394684
 11
-5.6407247907
 21
-19.4235117855
  0
LINE
  5
31C
100
AcDbEntity
  8
RACCORDO
100
AcDbLine
 62
250
  6
CONTINUOUS
 10
-6.116681246
 20
-17.1162986018
 11
-6.1170665052
 21
-17.0175391508
  0
LINE
  5
31D
100
AcDbEntity
  8
RACCORDO
100
AcDbLine
 62
250
  6
CONTINUOUS
 10
-5.9054211147
 20
17.8228028674
 11
-5.9050358554
 21
17.7240434165
  0
LINE
  5
31E
100
AcDbEntity
  8
RACCORDO
100
AcDbLine
 62
250
  6
CONTINUOUS
 10
-6.1462503432
 20
-15.4400140596
 11
-6.1466834776
 21
-15.2882831565
  0
LINE
  5
31F
100
AcDbEntity
  8
RACCORDO
100
AcDbLine
 62
250
  6
CONTINUOUS
 10
-5.8758520174
 20
16.1465183253
 11
-5.875418883
 21
15.9947874222
  0
LINE
  5
320
100
AcDbEntity
  8
RACCORDO
100
AcDbLine
 62
7
  6
CONTINUOUS
 10
-6.4172346304
 20
-15.4905263408
 11
-6.4138786475
 21
-19.9939479556
  0
LINE
  5
321
100
AcDbEntity
  8
RACCORDO
100
AcDbLine
 62
7
  6
CONTINUOUS
 10
-5.604291225
 20
16.1964541013
 11
-5.6077028563
 21
20.6967883462
  0
LINE
  5
322
100
AcDbEntity
  8
RACCORDO
100
AcDbLine
 62
250
  6
CONTINUOUS
 10
-6.3961382169
 20
-16.9565227749
 11
-6.3961569762
 21
-15.5504604376
  0
LINE
  5
323
100
AcDbEntity
  8
RACCORDO
100
AcDbLine
 62
7
  6
CONTINUOUS
 10
-6.3813775699
 20
-20.2225710258
 11
-6.3813775699
 21
-19.4235117855
  0
LINE
  5
324
100
AcDbEntity
  8
RACCORDO
100
AcDbLine
 62
7
  6
CONTINUOUS
 10
-6.3813775699
 20
20.1300160512
 11
-6.3813775699
 21
20.9290752915
  0
LINE
  5
325
100
AcDbEntity
  8
RACCORDO
100
AcDbLine
 62
250
  6
CONTINUOUS
 10
-6.3664646065
 20
-17.5802394684
 11
-6.3664981951
 21
-17.2844974678
  0
LINE
  5
326
100
AcDbEntity
  8
RACCORDO
100
AcDbLine
 62
250
  6
CONTINUOUS
 10
-6.1461762931
 20
-16.7467478672
 11
-6.1462503432
 21
-15.4400140596
  0
LINE
  5
327
100
AcDbEntity
  8
RACCORDO
100
AcDbLine
 62
250
  6
CONTINUOUS
 10
-5.9657136142
 20
1.7166822193
 11
-5.9657136133
 21
1.5167126803
  0
LINE
  5
328
100
AcDbEntity
  8
RACCORDO
100
AcDbLine
 62
250
  6
CONTINUOUS
 10
-5.9657136142
 20
-1.0101779536
 11
-5.9657136142
 21
-0.8102084145
  0
LINE
  5
329
100
AcDbEntity
  8
RACCORDO
100
AcDbLine
 62
250
  6
CONTINUOUS
 10
-5.8759260675
 20
17.4532521328
 11
-5.8758520174
 21
16.1465183253
  0
LINE
  5
32A
100
AcDbEntity
  8
RACCORDO
100
AcDbLine
 62
250
  6
CONTINUOUS
 10
-5.6556377541
 20
18.2867437341
 11
-5.6556041655
 21
17.9910017335
  0
LINE
  5
32B
100
AcDbEntity
  8
RACCORDO
100
AcDbLine
 62
7
  6
CONTINUOUS
 10
-5.6407247907
 20
20.9290752915
 11
-5.6407247907
 21
20.1300160512
  0
LINE
  5
32C
100
AcDbEntity
  8
RACCORDO
100
AcDbLine
 62
7
  6
CONTINUOUS
 10
-5.6407247907
 20
-19.4235117855
 11
-5.6407247907
 21
-20.2225710258
  0
LINE
  5
32D
100
AcDbEntity
  8
RACCORDO
100
AcDbLine
 62
250
  6
CONTINUOUS
 10
-5.6259641437
 20
17.6630270406
 11
-5.6259453844
 21
16.2569647033
  0
LINE
  5
32E
100
AcDbEntity
  8
RACCORDO
100
AcDbLine
 62
250
  6
CONTINUOUS
 10
-6.1165844529
 20
-17.7070249469
 11
-6.116681246
 21
-17.1162986018
  0
LINE
  5
32F
100
AcDbEntity
  8
RACCORDO
100
AcDbLine
 62
250
  6
CONTINUOUS
 10
-5.9055179077
 20
18.4135292126
 11
-5.9054211147
 21
17.8228028674
  0
LINE
  5
330
100
AcDbEntity
  8
RACCORDO
100
AcDbLine
 62
7
  6
CONTINUOUS
 10
-6.4138786475
 20
20.7004522213
 11
-6.4172346304
 21
16.1970306065
  0
LINE
  5
331
100
AcDbEntity
  8
RACCORDO
100
AcDbLine
 62
7
  6
CONTINUOUS
 10
-5.6077028563
 20
-19.9902840805
 11
-5.604291225
 21
-15.4899498356
  0
LINE
  5
332
100
AcDbEntity
  8
RACCORDO
100
AcDbLine
 62
250
  6
CONTINUOUS
 10
-6.3961569765
 20
16.2569646454
 11
-6.3961382169
 21
17.6630270406
  0
LINE
  5
333
100
AcDbEntity
  8
RACCORDO
100
AcDbLine
 62
250
  6
CONTINUOUS
 10
-5.6259453841
 20
-15.5504603797
 11
-5.6259641437
 21
-16.9565227749
  0
LINE
  5
334
100
AcDbEntity
  8
RACCORDO
100
AcDbLine
 62
250
  6
CONTINUOUS
 10
-6.1465276373
 20
16.0264169564
 11
-6.1461762931
 21
17.4532521328
  0
LINE
  5
335
100
AcDbEntity
  8
RACCORDO
100
AcDbLine
 62
250
  6
CONTINUOUS
 10
-5.8755747233
 20
-15.3199126907
 11
-5.8759260675
 21
-16.7467478672
  0
LINE
  5
336
100
AcDbEntity
  8
RACCORDO
100
AcDbLine
 62
250
  6
CONTINUOUS
 10
-6.1168534393
 20
17.7641007587
 11
-6.116584453
 21
18.4135292816
  0
LINE
  5
337
100
AcDbEntity
  8
RACCORDO
100
AcDbLine
 62
250
  6
CONTINUOUS
 10
-5.9052489214
 20
-17.057596493
 11
-5.9055179076
 21
-17.7070250159
  0
LINE
  5
338
100
AcDbEntity
  8
RACCORDO
100
AcDbLine
 62
250
  6
CONTINUOUS
 10
-6.3664981951
 20
17.9910017335
 11
-6.3664646065
 21
18.2867437341
  0
LINE
  5
339
100
AcDbEntity
  8
RACCORDO
100
AcDbLine
 62
250
  6
CONTINUOUS
 10
-5.6556041655
 20
-17.2844974678
 11
-5.6556377541
 21
-17.5802394684
  0
LINE
  5
33A
100
AcDbEntity
  8
RACCORDO
100
AcDbLine
 62
250
  6
CONTINUOUS
 10
-6.1170665052
 20
17.7240434165
 11
-6.1168534393
 21
17.7641007587
  0
LINE
  5
33B
100
AcDbEntity
  8
RACCORDO
100
AcDbLine
 62
250
  6
CONTINUOUS
 10
-5.9050358554
 20
-17.0175391508
 11
-5.9052489214
 21
-17.057596493
  0
LINE
  5
33C
100
AcDbEntity
  8
RACCORDO
100
AcDbLine
 62
250
  6
CONTINUOUS
 10
-6.3813775699
 20
-19.4235117855
 11
-6.3664646065
 21
-17.5802394684
  0
LINE
  5
33D
100
AcDbEntity
  8
RACCORDO
100
AcDbLine
 62
250
  6
CONTINUOUS
 10
-5.8868079574
 20
20.7122097454
 11
-5.9055179077
 21
18.4135292126
  0
LINE
  5
33E
100
AcDbEntity
  8
RACCORDO
100
AcDbLine
 62
250
  6
CONTINUOUS
 10
-6.1352944032
 20
-20.0057054797
 11
-6.1165844529
 21
-17.7070249469
  0
LINE
  5
33F
100
AcDbEntity
  8
RACCORDO
100
AcDbLine
 62
250
  6
CONTINUOUS
 10
-5.6407247907
 20
20.1300160512
 11
-5.6556377541
 21
18.2867437341
  0
LINE
  5
340
100
AcDbEntity
  8
RACCORDO
100
AcDbLine
 62
250
  6
CONTINUOUS
 10
-6.3962522558
 20
16.2425743818
 11
-6.3961569765
 21
16.2569646454
  0
LINE
  5
341
100
AcDbEntity
  8
RACCORDO
100
AcDbLine
 62
250
  6
CONTINUOUS
 10
-5.6258501049
 20
-15.5360701161
 11
-5.6259453841
 21
-15.5504603797
  0
LINE
  5
342
100
AcDbEntity
  8
RACCORDO
100
AcDbLine
 62
250
  6
CONTINUOUS
 10
-6.3665966674
 20
17.9782967472
 11
-6.3664981951
 21
17.9910017335
  0
LINE
  5
343
100
AcDbEntity
  8
RACCORDO
100
AcDbLine
 62
250
  6
CONTINUOUS
 10
-5.6555056932
 20
-17.2717924815
 11
-5.6556041655
 21
-17.2844974678
  0
LINE
  5
344
100
AcDbEntity
  8
RACCORDO
100
AcDbLine
 62
250
  6
CONTINUOUS
 10
-6.1172238669
 20
17.709296636
 11
-6.1170665052
 21
17.7240434165
  0
LINE
  5
345
100
AcDbEntity
  8
RACCORDO
100
AcDbLine
 62
250
  6
CONTINUOUS
 10
-5.9048784937
 20
-17.0027923703
 11
-5.9050358554
 21
-17.0175391508
  0
LINE
  5
346
100
AcDbEntity
  8
RACCORDO
100
AcDbLine
 62
250
  6
CONTINUOUS
 10
-6.39635664
 20
16.2341913702
 11
-6.3962522558
 21
16.2425743818
  0
LINE
  5
347
100
AcDbEntity
  8
RACCORDO
100
AcDbLine
 62
250
  6
CONTINUOUS
 10
-5.6257457207
 20
-15.5276871045
 11
-5.6258501049
 21
-15.5360701161
  0
LINE
  5
348
100
AcDbEntity
  8
RACCORDO
100
AcDbLine
 62
250
  6
CONTINUOUS
 10
-6.366695029
 20
17.9708974457
 11
-6.3665966674
 21
17.9782967472
  0
LINE
  5
349
100
AcDbEntity
  8
RACCORDO
100
AcDbLine
 62
250
  6
CONTINUOUS
 10
-5.6554073316
 20
-17.26439318
 11
-5.6555056932
 21
-17.2717924815
  0
LWPOLYLINE
  5
34A
100
AcDbEntity
  8
RACCORDO
100
AcDbPolyline
 62
250
  6
CONTINUOUS
 90
5
 70
0
 10
-6.147034257
 20
15.9673049152
 10
-6.1469422379
 20
15.9694453064
 10
-6.1468532519
 20
15.9747868706
 10
-6.1467672988
 20
15.9832669838
 10
-6.1465276373
 20
16.0264169564
  0
LWPOLYLINE
  5
34B
100
AcDbEntity
  8
RACCORDO
100
AcDbPolyline
 62
250
  6
CONTINUOUS
 90
5
 70
0
 10
-5.8750681036
 20
-15.2608006495
 10
-5.8751601227
 20
-15.2629410407
 10
-5.8752491087
 20
-15.2682826049
 10
-5.8753350618
 20
-15.2767627181
 10
-5.8755747233
 20
-15.3199126907
  0
LWPOLYLINE
  5
34C
100
AcDbEntity
  8
RACCORDO
100
AcDbPolyline
 62
7
  6
CONTINUOUS
 90
16
 70
0
 10
-5.604291225
 20
16.1964541013
 10
-5.6056427475
 20
16.1703154205
 10
-5.6097176188
 20
16.1444690942
 10
-5.616470013
 20
16.1191975413
 10
-5.6258261211
 20
16.0947735707
 10
-5.6376819111
 20
16.0714672384
 10
-5.6519011631
 20
16.0495413535
 10
-5.6683109532
 20
16.0292489313
 10
-5.6867396426
 20
16.010790044
 10
-5.707026795
 20
15.9943313523
 10
-5.7289878202
 20
15.9800457111
 10
-5.7523635843
 20
15.9681227854
 10
-5.7768575663
 20
15.9587193246
 10
-5.8021841418
 20
15.9519401316
 10
-5.8280790144
 20
15.9478515837
 10
-5.8542576725
 20
15.9464967012
  0
LWPOLYLINE
  5
34D
100
AcDbEntity
  8
RACCORDO
100
AcDbPolyline
 62
7
  6
CONTINUOUS
 90
16
 70
0
 10
-6.4172346304
 20
-15.4905263408
 10
-6.4158832688
 20
-15.4643700601
 10
-6.4118095378
 20
-15.4385056757
 10
-6.4050602111
 20
-15.4132158914
 10
-6.3957103787
 20
-15.38877374
 10
-6.3838647588
 20
-15.3654490183
 10
-6.3696593121
 20
-15.3435039611
 10
-6.3532673715
 20
-15.3231909924
 10
-6.3348611604
 20
-15.3047102141
 10
-6.3146007434
 20
-15.2882286409
 10
-6.2926710586
 20
-15.273918449
 10
-6.2693314364
 20
-15.2619689138
 10
-6.2448776892
 20
-15.2525373944
 10
-6.2195951847
 20
-15.2457283561
 10
-6.1937483624
 20
-15.2416070151
 10
-6.1676214537
 20
-15.2402156699
  0
LWPOLYLINE
  5
34E
100
AcDbEntity
  8
RACCORDO
100
AcDbPolyline
 62
7
  6
CONTINUOUS
 90
16
 70
0
 10
-7.1510834828
 20
-5.5567612561
 10
-7.1527308013
 20
-5.5880616369
 10
-7.1576414969
 20
-5.6190262617
 10
-7.1657651314
 20
-5.6493162599
 10
-7.1770224563
 20
-5.6786132971
 10
-7.1912899816
 20
-5.7065805156
 10
-7.208386991
 20
-5.7328733201
 10
-7.2280831808
 20
-5.7571717778
 10
-7.2501816764
 20
-5.7792629502
 10
-7.2745220808
 20
-5.7989792895
 10
-7.3009116067
 20
-5.8161211851
 10
-7.3290232647
 20
-5.8304361039
 10
-7.3584690309
 20
-5.8417179524
 10
-7.3888920451
 20
-5.8498413357
 10
-7.4199848367
 20
-5.8547341727
 10
-7.4514053158
 20
-5.8563480402
  0
LWPOLYLINE
  5
34F
100
AcDbEntity
  8
RACCORDO
100
AcDbPolyline
 62
250
  6
CONTINUOUS
 90
13
 70
0
 10
-7.1716765357
 20
-5.5361682032
 10
-7.1742536155
 20
-5.5753125502
 10
-7.1819169319
 20
-5.6137873858
 10
-7.194535414
 20
-5.6509346499
 10
-7.2118932398
 20
-5.6861189887
 10
-7.233693527
 20
-5.7187386214
 10
-7.2595634112
 20
-5.7482356335
 10
-7.289060423
 20
-5.7741055182
 10
-7.3216800559
 20
-5.7959058061
 10
-7.356864395
 20
-5.8132636325
 10
-7.3940116598
 20
-5.8258821151
 10
-7.4324864962
 20
-5.8335454318
 10
-7.4716308443
 20
-5.8361225117
  0
LWPOLYLINE
  5
350
100
AcDbEntity
  8
RACCORDO
100
AcDbPolyline
 62
250
  6
CONTINUOUS
 90
13
 70
0
 10
-5.6251066221
 20
16.2172694984
 10
-5.6272541887
 20
16.1846492091
 10
-5.6336402857
 20
16.1525868459
 10
-5.6441556876
 20
16.1216307922
 10
-5.6586205427
 20
16.0923105097
 10
-5.676787449
 20
16.0651274822
 10
-5.6983456862
 20
16.0405466387
 10
-5.7229265296
 20
16.0189884016
 10
-5.7501095571
 20
16.0008214952
 10
-5.7794298397
 20
15.9863566402
 10
-5.8103858934
 20
15.9758412382
 10
-5.8424482566
 20
15.9694551412
 10
-5.8750685459
 20
15.9673075747
  0
LWPOLYLINE
  5
351
100
AcDbEntity
  8
RACCORDO
100
AcDbPolyline
 62
250
  6
CONTINUOUS
 90
13
 70
0
 10
-6.3969957385
 20
-15.5107652327
 10
-6.3948481719
 20
-15.4781449434
 10
-6.3884620749
 20
-15.4460825802
 10
-6.377946673
 20
-15.4151265265
 10
-6.3634818179
 20
-15.385806244
 10
-6.3453149116
 20
-15.3586232165
 10
-6.3237566744
 20
-15.334042373
 10
-6.299175831
 20
-15.3124841359
 10
-6.2719928035
 20
-15.2943172295
 10
-6.2426725209
 20
-15.2798523745
 10
-6.2117164673
 20
-15.2693369725
 10
-6.179654104
 20
-15.2629508755
 10
-6.1470338147
 20
-15.260803309
  0
LWPOLYLINE
  5
352
100
AcDbEntity
  8
RACCORDO
100
AcDbPolyline
 62
250
  6
CONTINUOUS
 90
8
 70
0
 10
-7.9504258249
 20
-5.5361682032
 10
-7.9500616287
 20
-5.5346779392
 10
-7.9497085716
 20
-5.5311629915
 10
-7.9493666535
 20
-5.5256233601
 10
-7.9490321861
 20
-5.5179560383
 10
-7.9487088578
 20
-5.5082640328
 10
-7.9484077334
 20
-5.496856363
 10
-7.9478740679
 20
-5.4687855956
  0
LINE
  5
353
100
AcDbEntity
  8
RACCORDO
100
AcDbLine
 62
7
  6
CONTINUOUS
 10
-7.1504149549
 20
1.7430889296
 11
-7.1548587468
 21
1.7386451378
  0
LINE
  5
354
100
AcDbEntity
  8
RACCORDO
100
AcDbLine
 62
7
  6
CONTINUOUS
 10
6.6293029552
 20
-5.8563480402
 11
6.8483721617
 21
-5.8561255177
  0
LINE
  5
355
100
AcDbEntity
  8
RACCORDO
100
AcDbLine
 62
250
  6
CONTINUOUS
 10
6.8283691557
 20
-5.8361225117
 11
6.6495284836
 21
-5.8361225117
  0
LINE
  5
356
100
AcDbEntity
  8
RACCORDO
100
AcDbLine
 62
250
  6
CONTINUOUS
 10
-7.4716308443
 20
-5.8361225117
 11
-7.6504715164
 21
-5.8361225117
  0
LINE
  5
357
100
AcDbEntity
  8
RACCORDO
100
AcDbLine
 62
250
  6
CONTINUOUS
 10
-7.9469957385
 20
-5.3361986642
 11
-7.1751066221
 21
-5.3361986642
  0
LINE
  5
358
100
AcDbEntity
  8
RACCORDO
100
AcDbLine
 62
250
  6
CONTINUOUS
 10
6.3530042615
 20
-5.3361986642
 11
7.1248933779
 21
-5.3361986642
  0
LINE
  5
359
100
AcDbEntity
  8
RACCORDO
100
AcDbLine
 62
7
  6
CONTINUOUS
 10
-7.6704745223
 20
-5.8561255177
 11
-7.4514053158
 21
-5.8563480402
  0
LWPOLYLINE
  5
35A
100
AcDbEntity
  8
RACCORDO
100
AcDbPolyline
 62
7
  6
CONTINUOUS
 90
16
 70
0
 10
6.6293029552
 20
-5.8563480402
 10
6.5978824761
 20
-5.8547341727
 10
6.5667896845
 20
-5.8498413357
 10
6.5363666702
 20
-5.8417179524
 10
6.5069209041
 20
-5.8304361039
 10
6.4788092461
 20
-5.8161211851
 10
6.4524197201
 20
-5.7989792895
 10
6.4280793157
 20
-5.7792629502
 10
6.4059808202
 20
-5.7571717778
 10
6.3862846304
 20
-5.7328733201
 10
6.369187621
 20
-5.7065805156
 10
6.3549200957
 20
-5.6786132971
 10
6.3436627707
 20
-5.6493162599
 10
6.3355391363
 20
-5.6190262617
 10
6.3306284407
 20
-5.5880616369
 10
6.3289811222
 20
-5.5567612561
  0
LINE
  5
35B
100
AcDbEntity
  8
RACCORDO
100
AcDbLine
 62
7
  6
CONTINUOUS
 10
-7.1504149549
 20
-1.0365846639
 11
-7.1548587468
 21
-1.0321408721
  0
LWPOLYLINE
  5
35C
100
AcDbEntity
  8
RACCORDO
100
AcDbPolyline
 62
7
  6
CONTINUOUS
 90
10
 70
0
 10
-5.7350712858
 20
-1.1647114375
 10
-5.755202569
 20
-1.1393508523
 10
-5.777354354
 20
-1.1166710351
 10
-5.8015266029
 20
-1.0966719909
 10
-5.8280531179
 20
-1.0791814047
 10
-5.856600014
 20
-1.0643716051
 10
-5.8861657381
 20
-1.0527595677
 10
-5.9164164328
 20
-1.0445176283
 10
-5.9476859162
 20
-1.0394734796
 10
-5.9799741686
 20
-1.0376271368
  0
LWPOLYLINE
  5
35D
100
AcDbEntity
  8
RACCORDO
100
AcDbPolyline
 62
250
  6
CONTINUOUS
 90
13
 70
0
 10
-5.5559676633
 20
-1.0237197815
 10
-5.5805026882
 20
-0.9915713192
 10
-5.6071287831
 20
-0.9618264838
 10
-5.635845948
 20
-0.9344852754
 10
-5.6668585659
 20
-0.9094104443
 10
-5.6999622538
 20
-0.8867392402
 10
-5.7345438627
 20
-0.8668834119
 10
-5.7706260445
 20
-0.8498871131
 10
-5.8081861473
 20
-0.8357061901
 10
-5.8465430662
 20
-0.8246199301
 10
-5.8854697661
 20
-0.8167214286
 10
-5.9251932822
 20
-0.8119175901
 10
-5.9657136142
 20
-0.8102084145
  0
LWPOLYLINE
  5
35E
100
AcDbEntity
  8
RACCORDO
100
AcDbPolyline
 62
250
  6
CONTINUOUS
 90
13
 70
0
 10
-5.7198660437
 20
-1.1382847737
 10
-5.7344142942
 20
-1.1191486564
 10
-5.7504389186
 20
-1.1012488078
 10
-5.7678348432
 20
-1.0846979221
 10
-5.7864841561
 20
-1.0696029818
 10
-5.8062694003
 20
-1.0560542489
 10
-5.8270768197
 20
-1.0441282638
 10
-5.8487783101
 20
-1.0339000615
 10
-5.8712313106
 20
-1.0254383425
 10
-5.8942940834
 20
-1.0187975725
 10
-5.9178199198
 20
-1.0140213235
 10
-5.9416579206
 20
-1.0111415618
 10
-5.9656555563
 20
-1.0101779567
  0
LWPOLYLINE
  5
35F
100
AcDbEntity
  8
RACCORDO
100
AcDbPolyline
 62
7
  6
CONTINUOUS
 90
16
 70
0
 10
-5.7350712858
 20
-1.1647114375
 10
-5.634068106
 20
-1.2985624691
 10
-5.5247711904
 20
-1.4256830618
 10
-5.4076293626
 20
-1.5455623484
 10
-5.2831652617
 20
-1.657684214
 10
-5.1518499677
 20
-1.7616402879
 10
-5.0140793581
 20
-1.8571039238
 10
-4.8702683025
 20
-1.9437405898
 10
-4.7211088806
 20
-2.0210881959
 10
-4.5674575997
 20
-2.0887033386
 10
-4.4101157091
 20
-2.1462832776
 10
-4.249574946
 20
-2.1936967613
 10
-4.0862590609
 20
-2.2308238455
 10
-3.9207472882
 20
-2.2575079434
 10
-3.7537857362
 20
-2.2736051414
 10
-3.5860511803
 20
-2.2790338822
  0
LWPOLYLINE
  5
360
100
AcDbEntity
  8
RACCORDO
100
AcDbPolyline
 62
7
  6
CONTINUOUS
 90
13
 70
0
 10
-5.487020821
 20
-0.5964527759
 10
-5.5033447048
 20
-0.5673317707
 10
-5.5216213206
 20
-0.5404922568
 10
-5.5418506684
 20
-0.5159342342
 10
-5.5642332109
 20
-0.4935502311
 10
-5.5885684854
 20
-0.4734477193
 10
-5.6142551038
 20
-0.4559491141
 10
-5.6411553001
 20
-0.4411447215
 10
-5.6694068403
 20
-0.4289442356
 10
-5.6988216342
 20
-0.4193991537
 10
-5.7293369851
 20
-0.4125266417
 10
-5.7610155895
 20
-0.4083095337
 10
-5.7938574477
 20
-0.4067478298
  0
LINE
  5
361
100
AcDbEntity
  8
RACCORDO
100
AcDbLine
 62
250
  6
CONTINUOUS
 10
-5.9048785828
 20
17.7092966359
 11
-5.8795320737
 21
17.4532521328
  0
LINE
  5
362
100
AcDbEntity
  8
RACCORDO
100
AcDbLine
 62
250
  6
CONTINUOUS
 10
-5.6549165529
 20
17.9554975018
 11
-5.6259641437
 21
17.6630270406
  0
LWPOLYLINE
  5
363
100
AcDbEntity
  8
RACCORDO
100
AcDbPolyline
 62
7
  6
CONTINUOUS
 90
16
 70
0
 10
-6.3961382169
 20
17.6630270406
 10
-6.3947639122
 20
17.6444980006
 10
-6.391353682
 20
17.6256795061
 10
-6.3858118216
 20
17.6067684044
 10
-6.3780650067
 20
17.5880333357
 10
-6.3680584587
 20
17.5696542092
 10
-6.3557423497
 20
17.5517277132
 10
-6.341126203
 20
17.5345636478
 10
-6.3242107235
 20
17.5184068966
 10
-6.3049264406
 20
17.503318724
 10
-6.2834056953
 20
17.4897065979
 10
-6.2596994588
 20
17.4778509161
 10
-6.2335775899
 20
17.4677942355
 10
-6.2050811172
 20
17.4599464912
 10
-6.174616222
 20
17.4549345646
 10
-6.1425702869
 20
17.4532521328
  0
LWPOLYLINE
  5
364
100
AcDbEntity
  8
RACCORDO
100
AcDbPolyline
 62
250
  6
CONTINUOUS
 90
13
 70
0
 10
-6.3671858078
 20
17.9554975018
 10
-6.3649568706
 20
17.9234230433
 10
-6.3585054354
 20
17.8918953065
 10
-6.3479414747
 20
17.8614516655
 10
-6.3334450549
 20
17.8326110118
 10
-6.3152632707
 20
17.8058649179
 10
-6.2937060358
 20
17.781669257
 10
-6.2691407969
 20
17.7604364251
 10
-6.2419862586
 20
17.7425283072
 10
-6.21270525
 20
17.72825012
 10
-6.1817968469
 20
17.7178452161
 10
-6.1497878676
 20
17.7114909324
 10
-6.117223884
 20
17.7092955635
  0
LINE
  5
365
100
AcDbEntity
  8
DRAFT
100
AcDbLine
 62
7
  6
CONTINUOUS
 10
-4.2110511803
 20
-21.768986637
 11
-4.2110511803
 21
-20.2225710258
  0
LINE
  5
366
100
AcDbEntity
  8
DRAFT
100
AcDbLine
 62
7
  6
CONTINUOUS
 10
-4.2110511803
 20
20.9290752915
 11
-4.2110511803
 21
22.4754909026
  0
LINE
  5
367
100
AcDbEntity
  8
DRAFT
100
AcDbLine
 62
250
  6
CONTINUOUS
 10
-3.5860511803
 20
-1.1717478672
 11
-3.5860511803
 21
-1.7717478672
  0
LINE
  5
368
100
AcDbEntity
  8
RACCORDO
100
AcDbLine
 62
250
  6
CONTINUOUS
 10
-3.5860511803
 20
-2.0502084145
 11
-3.5860511803
 21
-2.2790338822
  0
LINE
  5
369
100
AcDbEntity
  8
RACCORDO
100
AcDbLine
 62
250
  6
CONTINUOUS
 10
-3.5860511803
 20
2.7567126802
 11
-3.5860511803
 21
2.9855381479
  0
LINE
  5
36A
100
AcDbEntity
  8
DRAFT
100
AcDbLine
 62
250
  6
CONTINUOUS
 10
-3.5860508685
 20
1.8782521328
 11
-3.5860511803
 21
2.4782521328
  0
LWPOLYLINE
  5
36B
100
AcDbEntity
  8
RACCORDO
100
AcDbPolyline
 62
250
  6
CONTINUOUS
 90
13
 70
0
 10
-6.3671858078
 20
-17.2489932361
 10
-6.3649568926
 20
-17.2169189343
 10
-6.3585055139
 20
-17.1853913201
 10
-6.3479416317
 20
-17.1549477632
 10
-6.3334453011
 20
-17.1261071561
 10
-6.3152636036
 20
-17.09936107
 10
-6.2937064355
 20
-17.0751653762
 10
-6.2691412261
 20
-17.0539324761
 10
-6.2419866749
 20
-17.0360242719
 10
-6.2127056153
 20
-17.0217459985
 10
-6.1817971257
 20
-17.0113410207
 10
-6.1497880231
 20
-17.0049866851
 10
-6.117223884
 20
-17.0027912978
  0
LWPOLYLINE
  5
36C
100
AcDbEntity
  8
RACCORDO
100
AcDbPolyline
 62
7
  6
CONTINUOUS
 90
16
 70
0
 10
-6.3961382169
 20
-16.9565227749
 10
-6.3947391727
 20
-16.9374035213
 10
-6.391265352
 20
-16.9184969439
 10
-6.3856486121
 20
-16.8998030428
 10
-6.377854016
 20
-16.8811413064
 10
-6.3678478657
 20
-16.8626922462
 10
-6.355568823
 20
-16.8449973973
 10
-6.3410443019
 20
-16.8280242181
 10
-6.3242832107
 20
-16.8118052502
 10
-6.3051607103
 20
-16.7969796529
 10
-6.2837022405
 20
-16.7834574168
 10
-6.260042958
 20
-16.7713285514
 10
-6.2342227348
 20
-16.7615022449
 10
-6.2064116295
 20
-16.7542815601
 10
-6.1769399106
 20
-16.7493634342
 10
-6.1461762931
 20
-16.7467478672
  0
LWPOLYLINE
  5
36D
100
AcDbEntity
  8
RACCORDO
100
AcDbPolyline
 62
250
  6
CONTINUOUS
 90
7
 70
0
 10
-5.6549165529
 20
-17.2489932361
 10
-5.6549972014
 20
-17.2500469306
 10
-5.6550744796
 20
-17.2514878943
 10
-5.6551483874
 20
-17.2533161271
 10
-5.6552194937
 20
-17.2555548029
 10
-5.6552872297
 20
-17.2581807479
 10
-5.6554073316
 20
-17.26439318
  0
LINE
  5
36E
100
AcDbEntity
  8
RACCORDO
100
AcDbLine
 62
250
  6
CONTINUOUS
 10
-5.8795320737
 20
-16.7467478672
 11
-5.9048785828
 21
-17.0027923702
  0
LINE
  5
36F
100
AcDbEntity
  8
RACCORDO
100
AcDbLine
 62
250
  6
CONTINUOUS
 10
-5.6259641437
 20
-16.9565227749
 11
-5.6549165529
 21
-17.2489932361
  0
LWPOLYLINE
  5
370
100
AcDbEntity
  8
RACCORDO
100
AcDbPolyline
 62
7
  6
CONTINUOUS
 90
10
 70
0
 10
-5.0561002866
 20
0.7653868731
 10
-5.0547386162
 20
0.7688745869
 10
-5.0534122588
 20
0.7723638757
 10
-5.0521211828
 20
0.7758550422
 10
-5.0508659063
 20
0.7793475786
 10
-5.0496458485
 20
0.7828425976
 10
-5.0484593114
 20
0.7863428179
 10
-5.0473056848
 20
0.7898493298
 10
-5.0461854659
 20
0.7933616095
 10
-5.0450985984
 20
0.7968799405
  0
LWPOLYLINE
  5
371
100
AcDbEntity
  8
RACCORDO
100
AcDbPolyline
 62
7
  6
CONTINUOUS
 90
13
 70
0
 10
-5.0561002979
 20
0.7653868763
 10
-5.0711190499
 20
0.7319696061
 10
-5.089077669
 20
0.7002014821
 10
-5.1097875441
 20
0.6703160434
 10
-5.13301473
 20
0.6425610142
 10
-5.1585653551
 20
0.617106383
 10
-5.1863095514
 20
0.5940634977
 10
-5.2160270779
 20
0.5736276075
 10
-5.2474759718
 20
0.5559634822
 10
-5.2805070153
 20
0.541154708
 10
-5.3149041151
 20
0.5293424859
 10
-5.3503720963
 20
0.5206968737
 10
-5.3866371288
 20
0.5153414792
  0
LINE
  5
372
100
AcDbEntity
  8
RACCORDO
100
AcDbLine
 62
250
  6
CONTINUOUS
 10
-5.9702333314
 20
-1.0188599012
 11
-5.9799741686
 21
-1.0376271368
  0
LINE
  5
373
100
AcDbEntity
  8
RACCORDO
100
AcDbLine
 62
250
  6
CONTINUOUS
 10
-5.9656555576
 20
-1.0101779536
 11
-5.9702333314
 21
-1.0188599012
  0
LINE
  5
374
100
AcDbEntity
  8
RACCORDO
100
AcDbLine
 62
250
  6
CONTINUOUS
 10
-5.7198660437
 20
-1.1382847737
 11
-5.7350712858
 21
-1.1647114375
  0
LWPOLYLINE
  5
375
100
AcDbEntity
  8
RACCORDO
100
AcDbPolyline
 62
250
  6
CONTINUOUS
 90
10
 70
0
 10
-5.7938571432
 20
-0.4067478298
 10
-5.7506360085
 20
-0.3374009543
 10
-5.7066666679
 20
-0.2684069962
 10
-5.6619491213
 20
-0.1997659554
 10
-5.6161609344
 20
-0.1309775932
 10
-5.5696245416
 20
-0.0625421484
 10
-5.5233072458
 20
0.0040396627
 10
-5.4775314814
 20
0.0682676012
 10
-5.431974814
 20
0.130641906
 10
-5.3866372436
 20
0.1911625771
  0
LWPOLYLINE
  5
376
100
AcDbEntity
  8
RACCORDO
100
AcDbPolyline
 62
250
  6
CONTINUOUS
 90
9
 70
0
 10
-5.4870208468
 20
-0.5964527814
 10
-5.4409011067
 20
-0.5327607778
 10
-5.3942402099
 20
-0.4694577442
 10
-5.3469279809
 20
-0.4066993004
 10
-5.2984781796
 20
-0.3442630683
 10
-5.2491602963
 20
-0.2827255039
 10
-5.2001091156
 20
-0.2233065371
 10
-5.1517617098
 20
-0.1663647073
 10
-5.1037484892
 20
-0.1115523107
  0
LINE
  5
377
100
AcDbEntity
  8
RACCORDO
100
AcDbLine
 62
250
  6
CONTINUOUS
 10
-5.1037484892
 20
-0.1115523107
 11
-5.0561002621
 21
-0.0588825805
  0
LINE
  5
378
100
AcDbEntity
  8
RACCORDO
100
AcDbLine
 62
7
  6
CONTINUOUS
 10
-7.9708382471
 20
-1.0357355054
 11
-7.9672436138
 21
-1.0321408721
  0
LINE
  5
379
100
AcDbEntity
  8
DRAFT
100
AcDbLine
 62
7
  6
CONTINUOUS
 10
-10.256940479
 20
0.5132521328
 11
-10.3110511803
 21
0.4861988427
  0
LINE
  5
37A
100
AcDbEntity
  8
RACCORDO
100
AcDbLine
 62
250
  6
CONTINUOUS
 10
-7.9469957385
 20
-3.9354230017
 11
-7.1751066221
 21
-3.9354230017
  0
LINE
  5
37B
100
AcDbEntity
  8
RACCORDO
100
AcDbLine
 62
250
  6
CONTINUOUS
 10
6.3530042615
 20
-3.9354230017
 11
7.1248933779
 21
-3.9354230017
  0
LINE
  5
37C
100
AcDbEntity
  8
RACCORDO
100
AcDbLine
 62
250
  6
CONTINUOUS
 10
6.8266845758
 20
-3.5024102999
 11
6.6512130636
 21
-3.5024102999
  0
LINE
  5
37D
100
AcDbEntity
  8
RACCORDO
100
AcDbLine
 62
250
  6
CONTINUOUS
 10
-7.4733154242
 20
-3.5024102999
 11
-7.6487869364
 21
-3.5024102999
  0
LINE
  5
37E
100
AcDbEntity
  8
RACCORDO
100
AcDbLine
 62
250
  6
CONTINUOUS
 10
6.6396925999
 20
-3.1213551256
 11
6.8382050731
 21
-3.1213540161
  0
LINE
  5
37F
100
AcDbEntity
  8
RACCORDO
100
AcDbLine
 62
250
  6
CONTINUOUS
 10
-7.6603074001
 20
-3.1213551256
 11
-7.4617949269
 21
-3.1213540161
  0
LINE
  5
380
100
AcDbEntity
  8
DRAFT
100
AcDbLine
 62
7
  6
CONTINUOUS
 10
-10.3110511803
 20
0.220305423
 11
-10.256940479
 21
0.1932521328
  0
LINE
  5
381
100
AcDbEntity
  8
RACCORDO
100
AcDbLine
 62
7
  6
CONTINUOUS
 10
-7.9708382471
 20
1.7422397711
 11
-7.9672436138
 21
1.7386451378
  0
LINE
  5
382
100
AcDbEntity
  8
RACCORDO
100
AcDbLine
 62
250
  6
CONTINUOUS
 10
-5.1034640506
 20
0.8177553819
 11
-5.0561002866
 21
0.7653868731
  0
LWPOLYLINE
  5
383
100
AcDbEntity
  8
RACCORDO
100
AcDbPolyline
 62
250
  6
CONTINUOUS
 90
9
 70
0
 10
-5.4870208479
 20
1.3029570487
 10
-5.4406090806
 20
1.2388407957
 10
-5.393719331
 20
1.1752465947
 10
-5.3462502997
 20
1.1123206735
 10
-5.2977382498
 20
1.0498349771
 10
-5.2484480588
 20
0.9883499059
 10
-5.1994818564
 20
0.9290614571
 10
-5.1512702302
 20
0.8723145
 10
-5.1034640506
 20
0.8177553819
  0
LWPOLYLINE
  5
384
100
AcDbEntity
  8
RACCORDO
100
AcDbPolyline
 62
250
  6
CONTINUOUS
 90
10
 70
0
 10
-5.7938571413
 20
1.1132520925
 10
-5.7503459732
 20
1.0434574811
 10
-5.7061629473
 20
0.9741386155
 10
-5.6613080634
 20
0.9052954957
 10
-5.6154640112
 20
0.8364424131
 10
-5.5689481011
 20
0.7680650762
 10
-5.5227122646
 20
0.701620611
 10
-5.4770738124
 20
0.6375947261
 10
-5.4317154337
 20
0.5755017129
 10
-5.3866371288
 20
0.5153415713
  0
LINE
  5
385
100
AcDbEntity
  8
RACCORDO
100
AcDbLine
 62
250
  6
CONTINUOUS
 10
-5.7350712858
 20
1.8712157032
 11
-5.7198986914
 21
1.8447423321
  0
LINE
  5
386
100
AcDbEntity
  8
RACCORDO
100
AcDbLine
 62
250
  6
CONTINUOUS
 10
-5.970740203
 20
1.7263388464
 11
-5.9656517971
 21
1.7166822193
  0
LINE
  5
387
100
AcDbEntity
  8
RACCORDO
100
AcDbLine
 62
250
  6
CONTINUOUS
 10
-5.9799741686
 20
1.7441314025
 11
-5.970740203
 21
1.7263388464
  0
LWPOLYLINE
  5
388
100
AcDbEntity
  8
RACCORDO
100
AcDbPolyline
 62
7
  6
CONTINUOUS
 90
10
 70
0
 10
-5.0450985984
 20
-0.0903756749
 10
-5.0461854662
 20
-0.0868573429
 10
-5.0473056854
 20
-0.0833450623
 10
-5.0484593123
 20
-0.0798385495
 10
-5.0496458508
 20
-0.076338329
 10
-5.0508659099
 20
-0.0728433098
 10
-5.0521211848
 20
-0.0693507711
 10
-5.053412255
 20
-0.0658595995
 10
-5.0547386036
 20
-0.0623703036
 10
-5.0561002621
 20
-0.0588825805
  0
LINE
  5
389
100
AcDbEntity
  8
DRAFT
100
AcDbLine
 62
7
  6
CONTINUOUS
 10
-3.8026261873
 20
22.5125648386
 11
-3.7278324511
 21
21.0318409827
  0
LINE
  5
38A
100
AcDbEntity
  8
DRAFT
100
AcDbLine
 62
7
  6
CONTINUOUS
 10
-3.7278324511
 20
-20.325336717
 11
-3.8026261873
 21
-21.8060605729
  0
LINE
  5
38B
100
AcDbEntity
  8
DRAFT
100
AcDbLine
 62
7
  6
CONTINUOUS
 10
-5.6077028563
 20
-19.9902840805
 11
-5.6407247907
 21
-20.2225710258
  0
LWPOLYLINE
  5
38C
100
AcDbEntity
  8
RACCORDO
100
AcDbPolyline
 62
250
  6
CONTINUOUS
 90
13
 70
0
 10
-5.6555559839
 20
-17.6013703814
 10
-5.6581626104
 20
-17.6150246877
 10
-5.6649168636
 20
-17.62845004
 10
-5.6757054889
 20
-17.6414213236
 10
-5.690347584
 20
-17.6537210373
 10
-5.7085976317
 20
-17.6651429409
 10
-5.7301496172
 20
-17.6754955132
 10
-5.7546421591
 20
-17.6846051633
 10
-5.7816645692
 20
-17.6923191416
 10
-5.8107637387
 20
-17.6985081009
 10
-5.8414517357
 20
-17.7030682656
 10
-5.8732139874
 20
-17.7059231711
 10
-5.9055179077
 20
-17.7070249469
  0
LINE
  5
38D
100
AcDbEntity
  8
RACCORDO
100
AcDbLine
 62
250
  6
CONTINUOUS
 10
-5.7198660437
 20
-1.1382847737
 11
-5.5559676649
 21
-1.0237197798
  0
LWPOLYLINE
  5
38E
100
AcDbEntity
  8
RACCORDO
100
AcDbPolyline
 62
7
  6
CONTINUOUS
 90
10
 70
0
 10
5.157871808
 20
-1.0376271368
 10
5.1255835556
 20
-1.0394734796
 10
5.0943140722
 20
-1.0445176283
 10
5.0640633775
 20
-1.0527595677
 10
5.0344976533
 20
-1.0643716051
 10
5.0059507573
 20
-1.0791814047
 10
4.9794242423
 20
-1.0966719909
 10
4.9552519934
 20
-1.1166710351
 10
4.9331002084
 20
-1.1393508523
 10
4.9129689252
 20
-1.1647114375
  0
LWPOLYLINE
  5
38F
100
AcDbEntity
  8
RACCORDO
100
AcDbPolyline
 62
250
  6
CONTINUOUS
 90
13
 70
0
 10
5.1435494351
 20
-1.0101779573
 10
5.1195537198
 20
-1.0111417105
 10
5.0957203668
 20
-1.0140208703
 10
5.0722017365
 20
-1.0187951186
 10
5.0491532106
 20
-1.0254302921
 10
5.0267160909
 20
-1.0338830713
 10
5.0050182367
 20
-1.0441054522
 10
4.984190959
 20
-1.0560392428
 10
4.9643776733
 20
-1.0696060575
 10
4.9457160623
 20
-1.0847123384
 10
4.9283280309
 20
-1.1012575945
 10
4.9123208679
 20
-1.1191378318
 10
4.8977963344
 20
-1.1382380675
  0
LWPOLYLINE
  5
390
100
AcDbEntity
  8
RACCORDO
100
AcDbPolyline
 62
7
  6
CONTINUOUS
 90
16
 70
0
 10
2.7639488197
 20
-2.2790338822
 10
2.9317010061
 20
-2.2736040069
 10
3.0986799031
 20
-2.2575034418
 10
3.2642085243
 20
-2.2308137864
 10
3.4275430593
 20
-2.1936783624
 10
3.588101477
 20
-2.1462541707
 10
3.7454526009
 20
-2.0886641487
 10
3.8991011238
 20
-2.021042908
 10
4.0482505709
 20
-1.9436932158
 10
4.1920497402
 20
-1.8570568734
 10
4.329807872
 20
-1.7615956219
 10
4.4611094516
 20
-1.6576448887
 10
4.5855603394
 20
-1.5455303366
 10
4.7026900871
 20
-1.4256598739
 10
4.8119758165
 20
-1.2985499709
 10
4.9129689252
 20
-1.1647114375
  0
LINE
  5
391
100
AcDbEntity
  8
RACCORDO
100
AcDbLine
 62
250
  6
CONTINUOUS
 10
6.3327563862
 20
-2.6883464203
 11
7.1451412532
 21
-2.6883464203
  0
LINE
  5
392
100
AcDbEntity
  8
RACCORDO
100
AcDbLine
 62
250
  6
CONTINUOUS
 10
-7.1548587468
 20
-2.6883464203
 11
-7.9672436138
 21
-2.6883464203
  0
LINE
  5
393
100
AcDbEntity
  8
RACCORDO
100
AcDbLine
 62
250
  6
CONTINUOUS
 10
2.7639488197
 20
-2.2501779536
 11
-3.5860511803
 21
-2.2501779536
  0
LINE
  5
394
100
AcDbEntity
  8
RACCORDO
100
AcDbLine
 62
250
  6
CONTINUOUS
 10
2.7639488197
 20
-2.0502084145
 11
-3.5860511803
 21
-2.0502084145
  0
LINE
  5
395
100
AcDbEntity
  8
SMUSSO
100
AcDbLine
 62
7
  6
CONTINUOUS
 10
-3.5860511803
 20
-1.7717478672
 11
2.7639488197
 21
-1.7717478672
  0
LINE
  5
396
100
AcDbEntity
  8
DRAFT
100
AcDbLine
 62
7
  6
CONTINUOUS
 10
-3.5860511803
 20
-1.1717478672
 11
2.7639485079
 21
-1.1717478672
  0
LINE
  5
397
100
AcDbEntity
  8
DRAFT
100
AcDbLine
 62
7
  6
CONTINUOUS
 10
-3.5860511803
 20
-2.2790338822
 11
2.7639488197
 21
-2.2790338822
  0
LINE
  5
398
100
AcDbEntity
  8
RACCORDO
100
AcDbLine
 62
250
  6
CONTINUOUS
 10
-5.7198660437
 20
1.8447890394
 11
-5.5559676633
 21
1.7302240472
  0
LWPOLYLINE
  5
399
100
AcDbEntity
  8
RACCORDO
100
AcDbPolyline
 62
250
  6
CONTINUOUS
 90
13
 70
0
 10
-5.6555559839
 20
18.3078746471
 10
-5.6581626111
 20
18.3215289549
 10
-5.6649168659
 20
18.3349543084
 10
-5.6757054936
 20
18.3479255928
 10
-5.6903475913
 20
18.3602253069
 10
-5.7085976415
 20
18.3716472105
 10
-5.730149629
 20
18.3819997823
 10
-5.7546421718
 20
18.3911094317
 10
-5.7816645815
 20
18.3988234091
 10
-5.8107637494
 20
18.4050123676
 10
-5.8414517439
 20
18.4095725315
 10
-5.873213992
 20
18.4124274367
 10
-5.9055179077
 20
18.4135292126
  0
LINE
  5
39A
100
AcDbEntity
  8
DRAFT
100
AcDbLine
 62
7
  6
CONTINUOUS
 10
-5.6077028563
 20
20.6967883462
 11
-5.6407247907
 21
20.9290752915
  0
LWPOLYLINE
  5
39B
100
AcDbEntity
  8
RACCORDO
100
AcDbPolyline
 62
250
  6
CONTINUOUS
 90
8
 70
0
 10
-5.6251066221
 20
-15.5107652327
 10
-5.6251986896
 20
-15.5111531073
 10
-5.6252876782
 20
-15.5120458556
 10
-5.625373588
 20
-15.5134434776
 10
-5.6254572554
 20
-15.5153723772
 10
-5.625537844
 20
-15.5178061505
 10
-5.6256128443
 20
-15.520665586
 10
-5.6257457207
 20
-15.5276871045
  0
LINE
  5
39C
100
AcDbEntity
  8
RACCORDO
100
AcDbLine
 62
250
  6
CONTINUOUS
 10
-7.9701853345
 20
-5.5559277128
 11
-7.9504258249
 21
-5.5361682032
  0
LINE
  5
39D
100
AcDbEntity
  8
RACCORDO
100
AcDbLine
 62
250
  6
CONTINUOUS
 10
-7.6704745223
 20
-5.8561255177
 11
-7.6504715164
 21
-5.8361225117
  0
LWPOLYLINE
  5
39E
100
AcDbEntity
  8
RACCORDO
100
AcDbPolyline
 62
7
  6
CONTINUOUS
 90
13
 70
0
 10
4.9717551085
 20
-0.4067478268
 10
4.9387704583
 20
-0.4083386915
 10
4.9069876792
 20
-0.4125846084
 10
4.876406771
 20
-0.4194855774
 10
4.8469682443
 20
-0.4290687699
 10
4.8187315885
 20
-0.4413070146
 10
4.7918752722
 20
-0.4561187978
 10
4.7662796358
 20
-0.473566504
 10
4.7420643389
 20
-0.4935877487
 10
4.7197668286
 20
-0.5159138643
 10
4.699566254
 20
-0.5404552951
 10
4.6812834661
 20
-0.5673015968
 10
4.6649184648
 20
-0.5964527695
  0
LWPOLYLINE
  5
39F
100
AcDbEntity
  8
RACCORDO
100
AcDbPolyline
 62
250
  6
CONTINUOUS
 90
13
 70
0
 10
5.1436112536
 20
-0.8102084145
 10
5.1031037518
 20
-0.8119171793
 10
5.0633941894
 20
-0.8167175135
 10
5.0244825663
 20
-0.8246094171
 10
4.9861478156
 20
-0.8356815373
 10
4.9486110043
 20
-0.8498452269
 10
4.9125353333
 20
-0.8668345444
 10
4.8779280306
 20
-0.8867036935
 10
4.8447818682
 20
-0.9093984705
 10
4.8137383625
 20
-0.934490323
 10
4.7850113525
 20
-0.9618364003
 10
4.7583869992
 20
-0.9915795531
 10
4.7338653027
 20
-1.0237197815
  0
LWPOLYLINE
  5
3A0
100
AcDbEntity
  8
RACCORDO
100
AcDbPolyline
 62
7
  6
CONTINUOUS
 90
10
 70
0
 10
4.6056826279
 20
0.1932521329
 10
4.6011358303
 20
0.1932270134
 10
4.5965837432
 20
0.1931504274
 10
4.5920263665
 20
0.1930223749
 10
4.5874650434
 20
0.192843247
 10
4.5828984307
 20
0.1926126526
 10
4.5783224998
 20
0.1923294175
 10
4.5737359075
 20
0.1919931505
 10
4.569139997
 20
0.1916042427
 10
4.5645347682
 20
0.1911626944
  0
LWPOLYLINE
  5
3A1
100
AcDbEntity
  8
RACCORDO
100
AcDbPolyline
 62
7
  6
CONTINUOUS
 90
10
 70
0
 10
-5.4277849885
 20
0.5132521328
 10
-5.4232381909
 20
0.5132772523
 10
-5.4186861038
 20
0.5133538383
 10
-5.4141287272
 20
0.5134818908
 10
-5.409567404
 20
0.5136610187
 10
-5.4050007913
 20
0.5138916131
 10
-5.4004248604
 20
0.5141748482
 10
-5.3958382682
 20
0.5145111152
 10
-5.3912423576
 20
0.514900023
 10
-5.3866371288
 20
0.5153415713
  0
LINE
  5
3A2
100
AcDbEntity
  8
DRAFT
100
AcDbLine
 62
7
  6
CONTINUOUS
 10
9.4261750165
 20
-1.032866034
 11
7.1487358865
 21
-1.0357355054
  0
LINE
  5
3A3
100
AcDbEntity
  8
RACCORDO
100
AcDbLine
 62
7
  6
CONTINUOUS
 10
6.3283125943
 20
-1.0365846639
 11
5.157871808
 21
-1.0376271368
  0
LINE
  5
3A4
100
AcDbEntity
  8
RACCORDO
100
AcDbLine
 62
7
  6
CONTINUOUS
 10
-7.4548130553
 20
-1.0269957425
 11
-7.6672893053
 21
-1.0269957425
  0
LINE
  5
3A5
100
AcDbEntity
  8
RACCORDO
100
AcDbLine
 62
7
  6
CONTINUOUS
 10
6.6327106947
 20
-1.0269957425
 11
6.8451869447
 21
-1.0269957425
  0
LINE
  5
3A6
100
AcDbEntity
  8
DRAFT
100
AcDbLine
 62
7
  6
CONTINUOUS
 10
9.4348381184
 20
-1.0242029321
 11
7.6889488197
 21
-1.0242029321
  0
LINE
  5
3A7
100
AcDbEntity
  8
DRAFT
100
AcDbLine
 62
7
  6
CONTINUOUS
 10
-8.5110511803
 20
-1.0242029321
 11
-10.256940479
 21
-1.0242029321
  0
LINE
  5
3A8
100
AcDbEntity
  8
RACCORDO
100
AcDbLine
 62
250
  6
CONTINUOUS
 10
7.6889488197
 20
-1.0101779536
 11
5.1435494365
 21
-1.0101779536
  0
LINE
  5
3A9
100
AcDbEntity
  8
RACCORDO
100
AcDbLine
 62
250
  6
CONTINUOUS
 10
-5.9656555576
 20
-1.0101779536
 11
-8.5110511803
 21
-1.0101779536
  0
LINE
  5
3AA
100
AcDbEntity
  8
RACCORDO
100
AcDbLine
 62
250
  6
CONTINUOUS
 10
7.6889488197
 20
-0.8102084145
 11
5.1436112536
 21
-0.8102084145
  0
LINE
  5
3AB
100
AcDbEntity
  8
RACCORDO
100
AcDbLine
 62
250
  6
CONTINUOUS
 10
-5.9657136142
 20
-0.8102084145
 11
-8.5110511803
 21
-0.8102084145
  0
LINE
  5
3AC
100
AcDbEntity
  8
RACCORDO
100
AcDbLine
 62
7
  6
CONTINUOUS
 10
-8.5110511803
 20
-0.4067478672
 11
-5.7938574477
 21
-0.4067478298
  0
LINE
  5
3AD
100
AcDbEntity
  8
RACCORDO
100
AcDbLine
 62
7
  6
CONTINUOUS
 10
4.9717551085
 20
-0.4067478268
 11
7.6889488197
 21
-0.4067478672
  0
LINE
  5
3AE
100
AcDbEntity
  8
DRAFT
100
AcDbLine
 62
7
  6
CONTINUOUS
 10
-10.256940479
 20
0.1932521328
 11
-8.5110511803
 21
0.1932521328
  0
LINE
  5
3AF
100
AcDbEntity
  8
RACCORDO
100
AcDbLine
 62
7
  6
CONTINUOUS
 10
-8.5110511803
 20
0.1932521328
 11
-5.4277849884
 21
0.1932521328
  0
LINE
  5
3B0
100
AcDbEntity
  8
RACCORDO
100
AcDbLine
 62
7
  6
CONTINUOUS
 10
4.6056826278
 20
0.1932521328
 11
7.6889488197
 21
0.1932521328
  0
LINE
  5
3B1
100
AcDbEntity
  8
DRAFT
100
AcDbLine
 62
7
  6
CONTINUOUS
 10
7.6889488197
 20
0.1932521328
 11
9.4348381184
 21
0.1932521328
  0
LINE
  5
3B2
100
AcDbEntity
  8
RACCORDO
100
AcDbLine
 62
7
  6
CONTINUOUS
 10
10.2889031076
 20
0.220305423
 11
9.4889488197
 21
0.220305423
  0
LINE
  5
3B3
100
AcDbEntity
  8
RACCORDO
100
AcDbLine
 62
7
  6
CONTINUOUS
 10
-10.3110511803
 20
0.220305423
 11
-11.1110054683
 21
0.220305423
  0
LINE
  5
3B4
100
AcDbEntity
  8
RACCORDO
100
AcDbLine
 62
7
  6
CONTINUOUS
 10
-11.1110054683
 20
0.4861988427
 11
-10.3110511803
 21
0.4861988427
  0
LINE
  5
3B5
100
AcDbEntity
  8
RACCORDO
100
AcDbLine
 62
7
  6
CONTINUOUS
 10
9.4889488197
 20
0.4861988427
 11
10.2889031076
 21
0.4861988427
  0
LINE
  5
3B6
100
AcDbEntity
  8
DRAFT
100
AcDbLine
 62
7
  6
CONTINUOUS
 10
9.4348381184
 20
0.5132521328
 11
7.6889488197
 21
0.5132521328
  0
LINE
  5
3B7
100
AcDbEntity
  8
RACCORDO
100
AcDbLine
 62
7
  6
CONTINUOUS
 10
7.6889488197
 20
0.5132521328
 11
4.6056826278
 21
0.5132521328
  0
LINE
  5
3B8
100
AcDbEntity
  8
RACCORDO
100
AcDbLine
 62
7
  6
CONTINUOUS
 10
-5.4277849884
 20
0.5132521328
 11
-8.5110511803
 21
0.5132521328
  0
LINE
  5
3B9
100
AcDbEntity
  8
DRAFT
100
AcDbLine
 62
7
  6
CONTINUOUS
 10
-8.5110511803
 20
0.5132521328
 11
-10.256940479
 21
0.5132521328
  0
LINE
  5
3BA
100
AcDbEntity
  8
RACCORDO
100
AcDbLine
 62
7
  6
CONTINUOUS
 10
-5.9799741686
 20
-1.0376271368
 11
-7.1504149549
 21
-1.0365846639
  0
LINE
  5
3BB
100
AcDbEntity
  8
DRAFT
100
AcDbLine
 62
7
  6
CONTINUOUS
 10
-7.9708382471
 20
-1.0357355054
 11
-10.2482773771
 21
-1.032866034
  0
LWPOLYLINE
  5
3BC
100
AcDbEntity
  8
RACCORDO
100
AcDbPolyline
 62
7
  6
CONTINUOUS
 90
10
 70
0
 10
-5.3866372436
 20
0.1911625771
 10
-5.391242446
 20
0.1916041794
 10
-5.3958383347
 20
0.1919931273
 10
-5.4004249096
 20
0.1923294208
 10
-5.4050008293
 20
0.1926126641
 10
-5.4095674352
 20
0.1928432531
 10
-5.4141287517
 20
0.1930223757
 10
-5.4186861201
 20
0.1931504278
 10
-5.423238199
 20
0.1932270135
 10
-5.4277849885
 20
0.1932521329
  0
LWPOLYLINE
  5
3BD
100
AcDbEntity
  8
RACCORDO
100
AcDbPolyline
 62
7
  6
CONTINUOUS
 90
13
 70
0
 10
-5.3866372436
 20
0.1911628009
 10
-5.3503722321
 20
0.1858074243
 10
-5.3149042601
 20
0.1771618269
 10
-5.2805071607
 20
0.1653496172
 10
-5.2474761107
 20
0.1505408542
 10
-5.2160272052
 20
0.1328767385
 10
-5.1863096636
 20
0.1124408538
 10
-5.1585654489
 20
0.0893979683
 10
-5.1330148036
 20
0.0639433318
 10
-5.1097875987
 20
0.0361882935
 10
-5.0890777066
 20
0.0063028421
 10
-5.0711190719
 20
-0.0254652996
 10
-5.0561003057
 20
-0.0588825928
  0
LINE
  5
3BE
100
AcDbEntity
  8
RACCORDO
100
AcDbLine
 62
250
  6
CONTINUOUS
 10
-7.9504258249
 20
6.2426724689
 11
-7.9701853345
 21
6.2624319785
  0
LINE
  5
3BF
100
AcDbEntity
  8
RACCORDO
100
AcDbLine
 62
250
  6
CONTINUOUS
 10
-7.6504715164
 20
6.5426267774
 11
-7.6704745223
 21
6.5626297834
  0
LWPOLYLINE
  5
3C0
100
AcDbEntity
  8
RACCORDO
100
AcDbPolyline
 62
250
  6
CONTINUOUS
 90
13
 70
0
 10
4.8334536233
 20
18.3078746471
 10
4.8360602497
 20
18.3215289534
 10
4.8428145029
 20
18.3349543057
 10
4.8536031283
 20
18.3479255893
 10
4.8682452234
 20
18.360225303
 10
4.8864952711
 20
18.3716472066
 10
4.9080472566
 20
18.3819997789
 10
4.9325397985
 20
18.391109429
 10
4.9595622086
 20
18.3988234073
 10
4.9886613781
 20
18.4050123666
 10
5.0193493751
 20
18.4095725313
 10
5.0511116268
 20
18.4124274368
 10
5.0834155471
 20
18.4135292126
  0
LWPOLYLINE
  5
3C1
100
AcDbEntity
  8
RACCORDO
100
AcDbPolyline
 62
250
  6
CONTINUOUS
 90
8
 70
0
 10
4.8030042615
 20
16.2172694984
 10
4.803096329
 20
16.217657373
 10
4.8031853176
 20
16.2185501213
 10
4.8032712274
 20
16.2199477433
 10
4.8033548948
 20
16.2218766429
 10
4.8034354834
 20
16.2243104162
 10
4.8035104837
 20
16.2271698517
 10
4.80364336
 20
16.2341913702
  0
LINE
  5
3C2
100
AcDbEntity
  8
RACCORDO
100
AcDbLine
 62
250
  6
CONTINUOUS
 10
6.8483721617
 20
6.5626297834
 11
6.8283691557
 21
6.5426267774
  0
LINE
  5
3C3
100
AcDbEntity
  8
RACCORDO
100
AcDbLine
 62
250
  6
CONTINUOUS
 10
7.1480829739
 20
6.2624319785
 11
7.1283234643
 21
6.2426724689
  0
LINE
  5
3C4
100
AcDbEntity
  8
RACCORDO
100
AcDbLine
 62
250
  6
CONTINUOUS
 10
4.8977636831
 20
1.8447890394
 11
4.7338653043
 21
1.7302240455
  0
LWPOLYLINE
  5
3C5
100
AcDbEntity
  8
RACCORDO
100
AcDbPolyline
 62
7
  6
CONTINUOUS
 90
10
 70
0
 10
-5.9799741686
 20
1.7441314025
 10
-5.9476859162
 20
1.7459777453
 10
-5.9164164328
 20
1.751021894
 10
-5.8861657381
 20
1.7592638334
 10
-5.8566000139
 20
1.7708758708
 10
-5.8280531179
 20
1.7856856704
 10
-5.8015266029
 20
1.8031762566
 10
-5.777354354
 20
1.8231753008
 10
-5.755202569
 20
1.845855118
 10
-5.7350712858
 20
1.8712157032
  0
LWPOLYLINE
  5
3C6
100
AcDbEntity
  8
RACCORDO
100
AcDbPolyline
 62
7
  6
CONTINUOUS
 90
13
 70
0
 10
-5.7938574691
 20
1.1132520925
 10
-5.760872819
 20
1.1148429572
 10
-5.7290900398
 20
1.1190888741
 10
-5.6985091316
 20
1.1259898431
 10
-5.6690706049
 20
1.1355730356
 10
-5.6408339491
 20
1.1478112803
 10
-5.6139776328
 20
1.1626230635
 10
-5.5883819965
 20
1.1800707697
 10
-5.5641666995
 20
1.2000920144
 10
-5.5418691892
 20
1.22241813
 10
-5.5216686146
 20
1.2469595608
 10
-5.5033858267
 20
1.2738058625
 10
-5.4870208254
 20
1.3029570352
  0
LWPOLYLINE
  5
3C7
100
AcDbEntity
  8
RACCORDO
100
AcDbPolyline
 62
250
  6
CONTINUOUS
 90
13
 70
0
 10
-5.9657136142
 20
1.5167126802
 10
-5.9252061124
 20
1.518421445
 10
-5.88549655
 20
1.5232217792
 10
-5.8465849269
 20
1.5311136828
 10
-5.8082501762
 20
1.542185803
 10
-5.770713365
 20
1.5563494926
 10
-5.7346376939
 20
1.5733388101
 10
-5.7000303912
 20
1.5932079592
 10
-5.6668842288
 20
1.6159027362
 10
-5.6358407231
 20
1.6409945887
 10
-5.6071137131
 20
1.668340666
 10
-5.5804893598
 20
1.6980838188
 10
-5.5559676633
 20
1.7302240472
  0
LWPOLYLINE
  5
3C8
100
AcDbEntity
  8
RACCORDO
100
AcDbPolyline
 62
250
  6
CONTINUOUS
 90
13
 70
0
 10
-5.9656517957
 20
1.716682223
 10
-5.9416560805
 20
1.7176459762
 10
-5.9178227274
 20
1.720525136
 10
-5.8943040971
 20
1.7252993843
 10
-5.8712555712
 20
1.7319345578
 10
-5.8488184515
 20
1.740387337
 10
-5.8271205973
 20
1.7506097179
 10
-5.8062933196
 20
1.7625435085
 10
-5.7864800339
 20
1.7761103232
 10
-5.7678184229
 20
1.7912166041
 10
-5.7504303915
 20
1.8077618602
 10
-5.7344232285
 20
1.8256420975
 10
-5.719898695
 20
1.8447423332
  0
LINE
  5
3C9
100
AcDbEntity
  8
DRAFT
100
AcDbLine
 62
7
  6
CONTINUOUS
 10
-10.2482773771
 20
1.7393702997
 11
-7.9708382471
 21
1.7422397711
  0
LINE
  5
3CA
100
AcDbEntity
  8
RACCORDO
100
AcDbLine
 62
7
  6
CONTINUOUS
 10
-7.1504149549
 20
1.7430889296
 11
-5.9799741686
 21
1.7441314025
  0
LINE
  5
3CB
100
AcDbEntity
  8
RACCORDO
100
AcDbLine
 62
7
  6
CONTINUOUS
 10
7.6889488197
 20
1.1132521328
 11
4.9717550871
 21
1.1132520955
  0
LINE
  5
3CC
100
AcDbEntity
  8
RACCORDO
100
AcDbLine
 62
7
  6
CONTINUOUS
 10
-5.7938574691
 20
1.1132520925
 11
-8.5110511803
 21
1.1132521328
  0
LINE
  5
3CD
100
AcDbEntity
  8
RACCORDO
100
AcDbLine
 62
250
  6
CONTINUOUS
 10
-8.5110511803
 20
1.5167126802
 11
-5.9657136142
 21
1.5167126802
  0
LINE
  5
3CE
100
AcDbEntity
  8
RACCORDO
100
AcDbLine
 62
250
  6
CONTINUOUS
 10
5.1436112536
 20
1.5167126802
 11
7.6889488197
 21
1.5167126802
  0
LINE
  5
3CF
100
AcDbEntity
  8
RACCORDO
100
AcDbLine
 62
250
  6
CONTINUOUS
 10
-8.5110511803
 20
1.7166822193
 11
-5.9656517971
 21
1.7166822193
  0
LINE
  5
3D0
100
AcDbEntity
  8
RACCORDO
100
AcDbLine
 62
250
  6
CONTINUOUS
 10
5.143553197
 20
1.7166822193
 11
7.6889488197
 21
1.7166822193
  0
LINE
  5
3D1
100
AcDbEntity
  8
DRAFT
100
AcDbLine
 62
7
  6
CONTINUOUS
 10
-10.256940479
 20
1.7307071978
 11
-8.5110511803
 21
1.7307071978
  0
LINE
  5
3D2
100
AcDbEntity
  8
DRAFT
100
AcDbLine
 62
7
  6
CONTINUOUS
 10
7.6889488197
 20
1.7307071978
 11
9.4348381184
 21
1.7307071978
  0
LINE
  5
3D3
100
AcDbEntity
  8
RACCORDO
100
AcDbLine
 62
7
  6
CONTINUOUS
 10
-7.4548130553
 20
1.7335000082
 11
-7.6672893053
 21
1.7335000082
  0
LINE
  5
3D4
100
AcDbEntity
  8
RACCORDO
100
AcDbLine
 62
7
  6
CONTINUOUS
 10
6.6327106947
 20
1.7335000082
 11
6.8451869447
 21
1.7335000082
  0
LINE
  5
3D5
100
AcDbEntity
  8
DRAFT
100
AcDbLine
 62
7
  6
CONTINUOUS
 10
2.7639488197
 20
1.8782521328
 11
-3.5860508685
 21
1.8782521328
  0
LINE
  5
3D6
100
AcDbEntity
  8
RACCORDO
100
AcDbLine
 62
7
  6
CONTINUOUS
 10
5.157871808
 20
1.7441314025
 11
6.3283125943
 21
1.7430889296
  0
LINE
  5
3D7
100
AcDbEntity
  8
DRAFT
100
AcDbLine
 62
7
  6
CONTINUOUS
 10
7.1487358865
 20
1.7422397711
 11
9.4261750165
 21
1.7393702997
  0
LWPOLYLINE
  5
3D8
100
AcDbEntity
  8
RACCORDO
100
AcDbPolyline
 62
7
  6
CONTINUOUS
 90
10
 70
0
 10
4.564534883
 20
0.5153416886
 10
4.5691400854
 20
0.5149000863
 10
4.5737359741
 20
0.5145111384
 10
4.578322549
 20
0.5141748449
 10
4.5828984687
 20
0.5138916016
 10
4.5874650746
 20
0.5136610126
 10
4.592026391
 20
0.51348189
 10
4.5965837595
 20
0.5133538379
 10
4.6011358384
 20
0.5132772522
 10
4.6056826278
 20
0.5132521328
  0
LWPOLYLINE
  5
3D9
100
AcDbEntity
  8
RACCORDO
100
AcDbPolyline
 62
7
  6
CONTINUOUS
 90
13
 70
0
 10
4.564534883
 20
0.5153414648
 10
4.5282698715
 20
0.5206968414
 10
4.4928018994
 20
0.5293424388
 10
4.4584048001
 20
0.5411546485
 10
4.4253737501
 20
0.5559634115
 10
4.3939248446
 20
0.5736275272
 10
4.364207303
 20
0.5940634119
 10
4.3364630882
 20
0.6171062974
 10
4.310912443
 20
0.6425609339
 10
4.2876852381
 20
0.6703159722
 10
4.266975346
 20
0.7002014236
 10
4.2490167112
 20
0.7319695653
 10
4.2339979451
 20
0.7653868585
  0
LINE
  5
3DA
100
AcDbEntity
  8
RACCORDO
100
AcDbLine
 62
250
  6
CONTINUOUS
 10
4.8977636831
 20
-1.1382847737
 11
4.7338653027
 21
-1.0237197815
  0
LINE
  5
3DB
100
AcDbEntity
  8
RACCORDO
100
AcDbLine
 62
250
  6
CONTINUOUS
 10
6.8283691557
 20
-5.8361225117
 11
6.8483721617
 21
-5.8561255177
  0
LINE
  5
3DC
100
AcDbEntity
  8
RACCORDO
100
AcDbLine
 62
250
  6
CONTINUOUS
 10
7.1283234643
 20
-5.5361682032
 11
7.1480829739
 21
-5.5559277128
  0
LWPOLYLINE
  5
3DD
100
AcDbEntity
  8
RACCORDO
100
AcDbPolyline
 62
250
  6
CONTINUOUS
 90
13
 70
0
 10
4.8334536233
 20
-17.6013703814
 10
4.8360602504
 20
-17.6150246892
 10
4.8428145053
 20
-17.6284500427
 10
4.853603133
 20
-17.6414213271
 10
4.8682452307
 20
-17.6537210412
 10
4.8864952809
 20
-17.6651429448
 10
4.9080472683
 20
-17.6754955166
 10
4.9325398111
 20
-17.684605166
 10
4.9595622209
 20
-17.6923191434
 10
4.9886613888
 20
-17.6985081019
 10
5.0193493833
 20
-17.7030682658
 10
5.0511116314
 20
-17.705923171
 10
5.0834155471
 20
-17.7070249469
  0
LINE
  5
3DE
100
AcDbEntity
  8
RACCORDO
100
AcDbLine
 62
250
  6
CONTINUOUS
 10
4.8328141922
 20
-17.2489932361
 11
4.8038617831
 21
-16.9565227749
  0
LINE
  5
3DF
100
AcDbEntity
  8
DRAFT
100
AcDbLine
 62
7
  6
CONTINUOUS
 10
2.9805238267
 20
-21.8060605729
 11
2.9057300905
 21
-20.325336717
  0
LINE
  5
3E0
100
AcDbEntity
  8
DRAFT
100
AcDbLine
 62
250
  6
CONTINUOUS
 10
2.7639485079
 20
-1.1717478672
 11
2.7639488197
 21
-1.7717478672
  0
LINE
  5
3E1
100
AcDbEntity
  8
RACCORDO
100
AcDbLine
 62
250
  6
CONTINUOUS
 10
2.7639488197
 20
-2.0502084145
 11
2.7639488197
 21
-2.2790338822
  0
LINE
  5
3E2
100
AcDbEntity
  8
DRAFT
100
AcDbLine
 62
250
  6
CONTINUOUS
 10
2.7639488197
 20
1.8782521328
 11
2.7639488197
 21
2.4782521328
  0
LINE
  5
3E3
100
AcDbEntity
  8
RACCORDO
100
AcDbLine
 62
250
  6
CONTINUOUS
 10
2.7639488197
 20
2.7567126802
 11
2.7639488197
 21
2.9855381479
  0
LINE
  5
3E4
100
AcDbEntity
  8
DRAFT
100
AcDbLine
 62
7
  6
CONTINUOUS
 10
2.9057300905
 20
21.0318409827
 11
2.9805238267
 21
22.5125648386
  0
LINE
  5
3E5
100
AcDbEntity
  8
RACCORDO
100
AcDbLine
 62
250
  6
CONTINUOUS
 10
4.8038617831
 20
17.6630270406
 11
4.8328141922
 21
17.9554975018
  0
LINE
  5
3E6
100
AcDbEntity
  8
DRAFT
100
AcDbLine
 62
7
  6
CONTINUOUS
 10
4.7856004957
 20
20.6967883462
 11
4.8186224301
 21
20.9290752915
  0
LWPOLYLINE
  5
3E7
100
AcDbEntity
  8
RACCORDO
100
AcDbPolyline
 62
250
  6
CONTINUOUS
 90
9
 70
0
 10
4.6649184862
 20
1.3029570471
 10
4.618798746
 20
1.2392650435
 10
4.5721378493
 20
1.1759620099
 10
4.5248256203
 20
1.1132035661
 10
4.476375819
 20
1.050767334
 10
4.4270579357
 20
0.9892297696
 10
4.378006755
 20
0.9298108028
 10
4.3296593492
 20
0.872868973
 10
4.2816461286
 20
0.8180565764
  0
LINE
  5
3E8
100
AcDbEntity
  8
RACCORDO
100
AcDbLine
 62
250
  6
CONTINUOUS
 10
4.2816461286
 20
0.8180565764
 11
4.2339979015
 21
0.7653868462
  0
LWPOLYLINE
  5
3E9
100
AcDbEntity
  8
RACCORDO
100
AcDbPolyline
 62
7
  6
CONTINUOUS
 90
16
 70
0
 10
-3.5860511803
 20
2.9855381479
 10
-3.7538033668
 20
2.9801082726
 10
-3.9207822638
 20
2.9640077075
 10
-4.086310885
 20
2.9373180521
 10
-4.2496454199
 20
2.9001826281
 10
-4.4102038376
 20
2.8527584364
 10
-4.5675549615
 20
2.7951684144
 10
-4.7212034844
 20
2.7275471737
 10
-4.8703529315
 20
2.6501974815
 10
-5.0141521009
 20
2.5635611391
 10
-5.1519102326
 20
2.4680998876
 10
-5.2832118122
 20
2.3641491544
 10
-5.4076627
 20
2.2520346023
 10
-5.5247924477
 20
2.1321641396
 10
-5.6340781772
 20
2.0050542366
 10
-5.7350712858
 20
1.8712157032
  0
LINE
  5
3EA
100
AcDbEntity
  8
SMUSSO
100
AcDbLine
 62
7
  6
CONTINUOUS
 10
2.7639488197
 20
2.4782521328
 11
-3.5860511803
 21
2.4782521328
  0
LINE
  5
3EB
100
AcDbEntity
  8
RACCORDO
100
AcDbLine
 62
250
  6
CONTINUOUS
 10
-3.5860511803
 20
2.7567126802
 11
2.7639488197
 21
2.7567126802
  0
LINE
  5
3EC
100
AcDbEntity
  8
RACCORDO
100
AcDbLine
 62
250
  6
CONTINUOUS
 10
-3.5860511803
 20
2.9566822193
 11
2.7639488197
 21
2.9566822193
  0
LINE
  5
3ED
100
AcDbEntity
  8
RACCORDO
100
AcDbLine
 62
250
  6
CONTINUOUS
 10
-7.1548587468
 20
3.394850686
 11
-7.9672436138
 21
3.394850686
  0
LINE
  5
3EE
100
AcDbEntity
  8
RACCORDO
100
AcDbLine
 62
250
  6
CONTINUOUS
 10
7.1451412532
 20
3.394850686
 11
6.3327563862
 21
3.394850686
  0
LINE
  5
3EF
100
AcDbEntity
  8
RACCORDO
100
AcDbLine
 62
250
  6
CONTINUOUS
 10
6.8382050395
 20
3.8278593913
 11
6.6396925663
 21
3.8278582818
  0
LINE
  5
3F0
100
AcDbEntity
  8
RACCORDO
100
AcDbLine
 62
250
  6
CONTINUOUS
 10
-7.4617949605
 20
3.8278593913
 11
-7.6603074337
 21
3.8278582818
  0
LINE
  5
3F1
100
AcDbEntity
  8
DRAFT
100
AcDbLine
 62
7
  6
CONTINUOUS
 10
2.7639488197
 20
2.9855381479
 11
-3.5860511803
 21
2.9855381479
  0
LINE
  5
3F2
100
AcDbEntity
  8
RACCORDO
100
AcDbLine
 62
250
  6
CONTINUOUS
 10
4.28136169
 20
-0.1112511162
 11
4.233997926
 21
-0.0588826074
  0
LWPOLYLINE
  5
3F3
100
AcDbEntity
  8
RACCORDO
100
AcDbPolyline
 62
250
  6
CONTINUOUS
 90
9
 70
0
 10
4.6649184873
 20
-0.596452783
 10
4.61850672
 20
-0.53233653
 10
4.5716169704
 20
-0.468742329
 10
4.5241479391
 20
-0.4058164078
 10
4.4756358891
 20
-0.3433307114
 10
4.4263456982
 20
-0.2818456402
 10
4.3773794957
 20
-0.2225571914
 10
4.3291678696
 20
-0.1658102343
 10
4.28136169
 20
-0.1112511162
  0
LINE
  5
3F4
100
AcDbEntity
  8
DRAFT
100
AcDbLine
 62
7
  6
CONTINUOUS
 10
4.7856004957
 20
-19.9902840805
 11
4.8186224301
 21
-20.2225710258
  0
LINE
  5
3F5
100
AcDbEntity
  8
RACCORDO
100
AcDbLine
 62
250
  6
CONTINUOUS
 10
5.0827762222
 20
-17.0027923702
 11
5.0574297131
 21
-16.7467478672
  0
LWPOLYLINE
  5
3F6
100
AcDbEntity
  8
RACCORDO
100
AcDbPolyline
 62
7
  6
CONTINUOUS
 90
16
 70
0
 10
5.5740358563
 20
-16.9565227749
 10
5.5726615516
 20
-16.9379937349
 10
5.5692513214
 20
-16.9191752404
 10
5.563709461
 20
-16.9002641387
 10
5.5559626461
 20
-16.88152907
 10
5.5459560981
 20
-16.8631499435
 10
5.5336399891
 20
-16.8452234475
 10
5.5190238424
 20
-16.8280593821
 10
5.5021083629
 20
-16.8119026309
 10
5.48282408
 20
-16.7968144583
 10
5.4613033347
 20
-16.7832023322
 10
5.4375970982
 20
-16.7713466504
 10
5.4114752293
 20
-16.7612899698
 10
5.3829787566
 20
-16.7534422255
 10
5.3525138614
 20
-16.7484302989
 10
5.3204679263
 20
-16.7467478672
  0
LWPOLYLINE
  5
3F7
100
AcDbEntity
  8
RACCORDO
100
AcDbPolyline
 62
250
  6
CONTINUOUS
 90
13
 70
0
 10
5.5450834471
 20
-17.2489932361
 10
5.5428545099
 20
-17.2169187776
 10
5.5364030748
 20
-17.1853910408
 10
5.5258391141
 20
-17.1549473998
 10
5.5113426943
 20
-17.1261067461
 10
5.4931609101
 20
-17.0993606522
 10
5.4716036752
 20
-17.0751649913
 10
5.4470384362
 20
-17.0539321594
 10
5.419883898
 20
-17.0360240415
 10
5.3906028894
 20
-17.0217458543
 10
5.3596944863
 20
-17.0113409504
 10
5.327685507
 20
-17.0049866667
 10
5.2951215233
 20
-17.0027912978
  0
LWPOLYLINE
  5
3F8
100
AcDbEntity
  8
RACCORDO
100
AcDbPolyline
 62
250
  6
CONTINUOUS
 90
13
 70
0
 10
5.5748933779
 20
-15.5107652327
 10
5.5727458082
 20
-15.47814492
 10
5.566359703
 20
-15.4460825384
 10
5.5558442897
 20
-15.4151264721
 10
5.5413794217
 20
-15.3858061825
 10
5.5232125027
 20
-15.3586231538
 10
5.5016542558
 20
-15.3340423152
 10
5.477073408
 20
-15.3124840882
 10
5.4498903824
 20
-15.2943171947
 10
5.4205701072
 20
-15.2798523525
 10
5.3896140661
 20
-15.2693369617
 10
5.3575517208
 20
-15.2629508726
 10
5.3249314541
 20
-15.260803309
  0
LWPOLYLINE
  5
3F9
100
AcDbEntity
  8
RACCORDO
100
AcDbPolyline
 62
250
  6
CONTINUOUS
 90
7
 70
0
 10
4.8035104828
 20
-15.5206655468
 10
4.8034354836
 20
-15.5178061357
 10
4.8033548967
 20
-15.5153724059
 10
4.8032712302
 20
-15.5134435332
 10
4.8031853202
 20
-15.5120459093
 10
4.8030963306
 20
-15.5111531425
 10
4.8030042615
 20
-15.5107652327
  0
LWPOLYLINE
  5
3FA
100
AcDbEntity
  8
RACCORDO
100
AcDbPolyline
 62
250
  6
CONTINUOUS
 90
6
 70
0
 10
4.8331848691
 20
-17.2581807479
 10
4.8331171331
 20
-17.2555548029
 10
4.8330460267
 20
-17.2533161271
 10
4.832972119
 20
-17.2514878943
 10
4.8328948408
 20
-17.2500469306
 10
4.8328141922
 20
-17.2489932361
  0
LINE
  5
3FB
100
AcDbEntity
  8
RACCORDO
100
AcDbLine
 62
250
  6
CONTINUOUS
 10
4.833304971
 20
-17.26439318
 11
4.8331848691
 21
-17.2581807479
  0
LINE
  5
3FC
100
AcDbEntity
  8
RACCORDO
100
AcDbLine
 62
250
  6
CONTINUOUS
 10
4.80364336
 20
-15.5276871139
 11
4.8035104828
 21
-15.5206655468
  0
LWPOLYLINE
  5
3FD
100
AcDbEntity
  8
RACCORDO
100
AcDbPolyline
 62
250
  6
CONTINUOUS
 90
3
 70
0
 10
5.0531467507
 20
-15.268282792
 10
5.0530577632
 20
-15.2629410849
 10
5.0529657418
 20
-15.2608006424
  0
LINE
  5
3FE
100
AcDbEntity
  8
RACCORDO
100
AcDbLine
 62
250
  6
CONTINUOUS
 10
4.8334033326
 20
-17.2717924815
 11
4.833304971
 21
-17.26439318
  0
LINE
  5
3FF
100
AcDbEntity
  8
RACCORDO
100
AcDbLine
 62
250
  6
CONTINUOUS
 10
4.8037477448
 20
-15.536070172
 11
4.80364336
 21
-15.5276871139
  0
LINE
  5
400
100
AcDbEntity
  8
RACCORDO
100
AcDbLine
 62
250
  6
CONTINUOUS
 10
4.8335018049
 20
-17.2844974678
 11
4.8334033326
 21
-17.2717924815
  0
LINE
  5
401
100
AcDbEntity
  8
RACCORDO
100
AcDbLine
 62
250
  6
CONTINUOUS
 10
4.8038430238
 20
-15.5504604376
 11
4.8037477448
 21
-15.536070172
  0
LINE
  5
402
100
AcDbEntity
  8
RACCORDO
100
AcDbLine
 62
250
  6
CONTINUOUS
 10
4.8335314066
 20
-17.2935403307
 11
4.8335018049
 21
-17.2844974678
  0
LINE
  5
403
100
AcDbEntity
  8
RACCORDO
100
AcDbLine
 62
7
  6
CONTINUOUS
 10
4.7821888644
 20
-15.4899498356
 11
4.7856004957
 21
-19.9902840805
  0
LINE
  5
404
100
AcDbEntity
  8
DRAFT
100
AcDbLine
 62
7
  6
CONTINUOUS
 10
3.3889488197
 20
22.4754909026
 11
3.3889488197
 21
20.9290752915
  0
LINE
  5
405
100
AcDbEntity
  8
DRAFT
100
AcDbLine
 62
7
  6
CONTINUOUS
 10
3.3889488197
 20
-20.2225710258
 11
3.3889488197
 21
-21.768986637
  0
LINE
  5
406
100
AcDbEntity
  8
RACCORDO
100
AcDbLine
 62
250
  6
CONTINUOUS
 10
4.8038617831
 20
-16.9565227749
 11
4.8038430238
 21
-15.5504604376
  0
LINE
  5
407
100
AcDbEntity
  8
RACCORDO
100
AcDbLine
 62
7
  6
CONTINUOUS
 10
4.7856004957
 20
20.6967883462
 11
4.7821888644
 21
16.1964541013
  0
LINE
  5
408
100
AcDbEntity
  8
RACCORDO
100
AcDbLine
 62
250
  6
CONTINUOUS
 10
4.8038430235
 20
16.2569646454
 11
4.8038617831
 21
17.6630270406
  0
LINE
  5
409
100
AcDbEntity
  8
RACCORDO
100
AcDbLine
 62
250
  6
CONTINUOUS
 10
4.8334759104
 20
17.9866149127
 11
4.8335314066
 21
18.0000445964
  0
LINE
  5
40A
100
AcDbEntity
  8
RACCORDO
100
AcDbLine
 62
250
  6
CONTINUOUS
 10
4.8037477442
 20
16.2425743818
 11
4.8038430235
 21
16.2569646454
  0
LINE
  5
40B
100
AcDbEntity
  8
RACCORDO
100
AcDbLine
 62
250
  6
CONTINUOUS
 10
4.833357337
 20
17.9744839328
 11
4.8334759104
 21
17.9866149127
  0
LINE
  5
40C
100
AcDbEntity
  8
RACCORDO
100
AcDbLine
 62
250
  6
CONTINUOUS
 10
4.80364336
 20
16.2341913702
 11
4.8037477442
 21
16.2425743818
  0
LWPOLYLINE
  5
40D
100
AcDbEntity
  8
RACCORDO
100
AcDbPolyline
 62
250
  6
CONTINUOUS
 90
5
 70
0
 10
5.052965743
 20
15.9673049152
 10
5.0530577621
 20
15.9694453064
 10
5.0531467481
 20
15.9747868706
 10
5.0532327012
 20
15.9832669838
 10
5.0534723627
 20
16.0264169564
  0
LWPOLYLINE
  5
40E
100
AcDbEntity
  8
RACCORDO
100
AcDbPolyline
 62
7
  6
CONTINUOUS
 90
16
 70
0
 10
5.5951322698
 20
16.1970306065
 10
5.5937809082
 20
16.1708743258
 10
5.5897071772
 20
16.1450099414
 10
5.5829578505
 20
16.1197201571
 10
5.5736080181
 20
16.0952780057
 10
5.5617623982
 20
16.071953284
 10
5.5475569515
 20
16.0500082268
 10
5.5311650109
 20
16.0296952581
 10
5.5127587998
 20
16.0112144798
 10
5.4924983828
 20
15.9947329066
 10
5.470568698
 20
15.9804227147
 10
5.4472290758
 20
15.9684731795
 10
5.4227753286
 20
15.9590416601
 10
5.3974928241
 20
15.9522326218
 10
5.3716460018
 20
15.9481112808
 10
5.3455190931
 20
15.9467199356
  0
LWPOLYLINE
  5
40F
100
AcDbEntity
  8
RACCORDO
100
AcDbPolyline
 62
250
  6
CONTINUOUS
 90
13
 70
0
 10
5.5748933779
 20
16.2172694984
 10
5.5727458113
 20
16.1846492091
 10
5.5663597143
 20
16.1525868459
 10
5.5558443124
 20
16.1216307922
 10
5.5413794573
 20
16.0923105097
 10
5.523212551
 20
16.0651274822
 10
5.5016543138
 20
16.0405466387
 10
5.4770734704
 20
16.0189884016
 10
5.4498904429
 20
16.0008214952
 10
5.4205701603
 20
15.9863566402
 10
5.3896141066
 20
15.9758412382
 10
5.3575517434
 20
15.9694551412
 10
5.3249314541
 20
15.9673075747
  0
LWPOLYLINE
  5
410
100
AcDbEntity
  8
RACCORDO
100
AcDbPolyline
 62
250
  6
CONTINUOUS
 90
13
 70
0
 10
5.5450834471
 20
17.9554975018
 10
5.5428545319
 20
17.9234232
 10
5.5364031533
 20
17.8918955858
 10
5.5258392711
 20
17.8614520289
 10
5.5113429405
 20
17.8326114218
 10
5.493161243
 20
17.8058653357
 10
5.4716040749
 20
17.7816696419
 10
5.4470388655
 20
17.7604367418
 10
5.4198843143
 20
17.7425285376
 10
5.3906032546
 20
17.7282502642
 10
5.359694765
 20
17.7178452864
 10
5.3276856625
 20
17.7114909508
 10
5.2951215233
 20
17.7092955635
  0
LWPOLYLINE
  5
411
100
AcDbEntity
  8
RACCORDO
100
AcDbPolyline
 62
7
  6
CONTINUOUS
 90
16
 70
0
 10
5.5740358563
 20
17.6630270406
 10
5.572636812
 20
17.643907787
 10
5.5691629914
 20
17.6250012096
 10
5.5635462515
 20
17.6063073085
 10
5.5557516553
 20
17.5876455721
 10
5.545745505
 20
17.5691965119
 10
5.5334664624
 20
17.551501663
 10
5.5189419413
 20
17.5345284838
 10
5.5021808501
 20
17.5183095159
 10
5.4830583497
 20
17.5034839186
 10
5.4615998799
 20
17.4899616825
 10
5.4379405974
 20
17.4778328171
 10
5.4121203741
 20
17.4680065106
 10
5.3843092689
 20
17.4607858258
 10
5.35483755
 20
17.4558676999
 10
5.3240739325
 20
17.4532521328
  0
LWPOLYLINE
  5
412
100
AcDbEntity
  8
RACCORDO
100
AcDbPolyline
 62
250
  6
CONTINUOUS
 90
8
 70
0
 10
4.8328141922
 20
17.9554975018
 10
4.8328948408
 20
17.9565511963
 10
4.832972119
 20
17.95799216
 10
4.8330460267
 20
17.9598203928
 10
4.8331171331
 20
17.9620590686
 10
4.8331848691
 20
17.9646850136
 10
4.8332475277
 20
17.9676287061
 10
4.833357337
 20
17.9744839328
  0
LINE
  5
413
100
AcDbEntity
  8
RACCORDO
100
AcDbLine
 62
250
  6
CONTINUOUS
 10
5.0574297131
 20
17.4532521328
 11
5.0827762222
 21
17.7092966359
  0
LWPOLYLINE
  5
414
100
AcDbEntity
  8
RACCORDO
100
AcDbPolyline
 62
7
  6
CONTINUOUS
 90
10
 70
0
 10
4.233997926
 20
-0.0588826074
 10
4.2326362556
 20
-0.0623703212
 10
4.2313098981
 20
-0.06585961
 10
4.2300188222
 20
-0.0693507765
 10
4.2287635456
 20
-0.0728433129
 10
4.2275434879
 20
-0.0763383319
 10
4.2263569508
 20
-0.0798385522
 10
4.2252033242
 20
-0.0833450641
 10
4.2240831053
 20
-0.0868573438
 10
4.2229962378
 20
-0.0903756748
  0
LWPOLYLINE
  5
415
100
AcDbEntity
  8
RACCORDO
100
AcDbPolyline
 62
7
  6
CONTINUOUS
 90
13
 70
0
 10
4.2339979373
 20
-0.0588826106
 10
4.2490166893
 20
-0.0254653405
 10
4.2669753084
 20
0.0063027836
 10
4.2876851835
 20
0.0361882223
 10
4.3109123694
 20
0.0639432515
 10
4.3364629945
 20
0.0893978827
 10
4.3642071908
 20
0.112440768
 10
4.3939247173
 20
0.1328766582
 10
4.4253736112
 20
0.1505407834
 10
4.4584046547
 20
0.1653495577
 10
4.4928017544
 20
0.1771617798
 10
4.5282697357
 20
0.185807392
 10
4.5645347682
 20
0.1911627865
  0
LINE
  5
416
100
AcDbEntity
  8
RACCORDO
100
AcDbLine
 62
250
  6
CONTINUOUS
 10
5.1481309708
 20
1.7253641669
 11
5.157871808
 21
1.7441314025
  0
LINE
  5
417
100
AcDbEntity
  8
RACCORDO
100
AcDbLine
 62
250
  6
CONTINUOUS
 10
5.143553197
 20
1.7166822193
 11
5.1481309708
 21
1.7253641669
  0
LINE
  5
418
100
AcDbEntity
  8
RACCORDO
100
AcDbLine
 62
250
  6
CONTINUOUS
 10
4.897763683
 20
1.8447890394
 11
4.9129689252
 21
1.8712157032
  0
LWPOLYLINE
  5
419
100
AcDbEntity
  8
RACCORDO
100
AcDbPolyline
 62
250
  6
CONTINUOUS
 90
10
 70
0
 10
4.9717547826
 20
1.1132520955
 10
4.9285336479
 20
1.04390522
 10
4.8845643073
 20
0.9749112619
 10
4.8398467607
 20
0.9062702211
 10
4.7940585738
 20
0.8374818589
 10
4.747522181
 20
0.7690464141
 10
4.7012048852
 20
0.702464603
 10
4.6554291207
 20
0.6382366645
 10
4.6098724533
 20
0.5758623597
 10
4.564534883
 20
0.5153416886
  0
LINE
  5
41A
100
AcDbEntity
  8
RACCORDO
100
AcDbLine
 62
7
  6
CONTINUOUS
 10
7.1487358865
 20
1.7422397711
 11
7.1451412532
 21
1.7386451378
  0
LINE
  5
41B
100
AcDbEntity
  8
DRAFT
100
AcDbLine
 62
7
  6
CONTINUOUS
 10
9.4348381184
 20
0.1932521328
 11
9.4889488197
 21
0.220305423
  0
LINE
  5
41C
100
AcDbEntity
  8
RACCORDO
100
AcDbLine
 62
250
  6
CONTINUOUS
 10
-7.6487869364
 20
4.2089145656
 11
-7.4733154242
 21
4.2089145656
  0
LINE
  5
41D
100
AcDbEntity
  8
RACCORDO
100
AcDbLine
 62
250
  6
CONTINUOUS
 10
6.6512130636
 20
4.2089145656
 11
6.8266845758
 21
4.2089145656
  0
LINE
  5
41E
100
AcDbEntity
  8
RACCORDO
100
AcDbLine
 62
250
  6
CONTINUOUS
 10
-7.9469957385
 20
4.6419272674
 11
-7.1751066221
 21
4.6419272674
  0
LINE
  5
41F
100
AcDbEntity
  8
RACCORDO
100
AcDbLine
 62
250
  6
CONTINUOUS
 10
6.3530042615
 20
4.6419272674
 11
7.1248933779
 21
4.6419272674
  0
LINE
  5
420
100
AcDbEntity
  8
DRAFT
100
AcDbLine
 62
7
  6
CONTINUOUS
 10
9.4889488197
 20
0.4861988427
 11
9.4348381184
 21
0.5132521328
  0
LINE
  5
421
100
AcDbEntity
  8
RACCORDO
100
AcDbLine
 62
7
  6
CONTINUOUS
 10
7.1487358865
 20
-1.0357355054
 11
7.1451412532
 21
-1.0321408721
  0
LWPOLYLINE
  5
422
100
AcDbEntity
  8
RACCORDO
100
AcDbPolyline
 62
7
  6
CONTINUOUS
 90
10
 70
0
 10
4.9129689252
 20
1.8712157032
 10
4.9331002084
 20
1.845855118
 10
4.9552519934
 20
1.8231753008
 10
4.9794242423
 20
1.8031762566
 10
5.0059507573
 20
1.7856856704
 10
5.0344976533
 20
1.7708758708
 10
5.0640633775
 20
1.7592638334
 10
5.0943140722
 20
1.751021894
 10
5.1255835556
 20
1.7459777453
 10
5.157871808
 20
1.7441314025
  0
LWPOLYLINE
  5
423
100
AcDbEntity
  8
RACCORDO
100
AcDbPolyline
 62
250
  6
CONTINUOUS
 90
13
 70
0
 10
4.7338653027
 20
1.7302240472
 10
4.7584003276
 20
1.6980755849
 10
4.7850264225
 20
1.6683307495
 10
4.8137435874
 20
1.6409895411
 10
4.8447562053
 20
1.61591471
 10
4.8778598932
 20
1.5932435059
 10
4.912441502
 20
1.5733876776
 10
4.9485236839
 20
1.5563913788
 10
4.9860837867
 20
1.5422104558
 10
5.0244407056
 20
1.5311241958
 10
5.0633674055
 20
1.5232256943
 10
5.1030909215
 20
1.5184218558
 10
5.1436112536
 20
1.5167126802
  0
LWPOLYLINE
  5
424
100
AcDbEntity
  8
RACCORDO
100
AcDbPolyline
 62
250
  6
CONTINUOUS
 90
13
 70
0
 10
4.8977636831
 20
1.8447890394
 10
4.9123119336
 20
1.8256529221
 10
4.928336558
 20
1.8077530735
 10
4.9457324826
 20
1.7912021878
 10
4.9643817955
 20
1.7761072475
 10
4.9841670397
 20
1.7625585146
 10
5.0049744591
 20
1.7506325295
 10
5.0266759495
 20
1.7404043272
 10
5.04912895
 20
1.7319426082
 10
5.0721917228
 20
1.7253018382
 10
5.0957175592
 20
1.7205255892
 10
5.11955556
 20
1.7176458275
 10
5.1435531957
 20
1.7166822224
  0
LWPOLYLINE
  5
425
100
AcDbEntity
  8
RACCORDO
100
AcDbPolyline
 62
7
  6
CONTINUOUS
 90
16
 70
0
 10
4.9129689252
 20
1.8712157032
 10
4.8119657453
 20
2.0050667348
 10
4.7026688298
 20
2.1321873275
 10
4.585527002
 20
2.2520666141
 10
4.461062901
 20
2.3641884797
 10
4.3297476071
 20
2.4681445536
 10
4.1919769975
 20
2.5636081895
 10
4.0481659419
 20
2.6502448555
 10
3.8990065199
 20
2.7275924616
 10
3.745355239
 20
2.7952076043
 10
3.5880133485
 20
2.8527875433
 10
3.4274725853
 20
2.900201027
 10
3.2641567003
 20
2.9373281112
 10
3.0986449276
 20
2.9640122091
 10
2.9316833756
 20
2.9801094071
 10
2.7639488197
 20
2.9855381479
  0
LWPOLYLINE
  5
426
100
AcDbEntity
  8
RACCORDO
100
AcDbPolyline
 62
250
  6
CONTINUOUS
 90
10
 70
0
 10
4.9717547807
 20
-0.4067478268
 10
4.9282436126
 20
-0.3369532154
 10
4.8840605866
 20
-0.2676343498
 10
4.8392057028
 20
-0.19879123
 10
4.7933616506
 20
-0.1299381474
 10
4.7468457405
 20
-0.0615608105
 10
4.700609904
 20
0.0048836547
 10
4.6549714517
 20
0.0689095396
 10
4.6096130731
 20
0.1310025528
 10
4.5645347682
 20
0.1911626944
  0
LINE
  5
427
100
AcDbEntity
  8
RACCORDO
100
AcDbLine
 62
250
  6
CONTINUOUS
 10
4.9129689252
 20
-1.1647114375
 11
4.8977963308
 21
-1.1382380664
  0
LWPOLYLINE
  5
428
100
AcDbEntity
  8
RACCORDO
100
AcDbPolyline
 62
7
  6
CONTINUOUS
 90
13
 70
0
 10
4.6649184604
 20
1.3029570416
 10
4.6812423442
 20
1.2738360364
 10
4.69951896
 20
1.2469965225
 10
4.7197483078
 20
1.2224384999
 10
4.7421308503
 20
1.2000544968
 10
4.7664661248
 20
1.179951985
 10
4.7921527432
 20
1.1624533798
 10
4.8190529395
 20
1.1476489872
 10
4.8473044797
 20
1.1354485013
 10
4.8767192736
 20
1.1259034194
 10
4.9072346244
 20
1.1190309074
 10
4.9389132289
 20
1.1148137994
 10
4.9717550871
 20
1.1132520955
  0
LINE
  5
429
100
AcDbEntity
  8
RACCORDO
100
AcDbLine
 62
250
  6
CONTINUOUS
 10
5.1486378424
 20
-1.0198345807
 11
5.1435494365
 21
-1.0101779536
  0
LINE
  5
42A
100
AcDbEntity
  8
RACCORDO
100
AcDbLine
 62
250
  6
CONTINUOUS
 10
5.157871808
 20
-1.0376271368
 11
5.1486378424
 21
-1.0198345807
  0
LWPOLYLINE
  5
42B
100
AcDbEntity
  8
RACCORDO
100
AcDbPolyline
 62
7
  6
CONTINUOUS
 90
10
 70
0
 10
4.2229962378
 20
0.7968799406
 10
4.2240831056
 20
0.7933616086
 10
4.2252033248
 20
0.789849328
 10
4.2263569517
 20
0.7863428152
 10
4.2275434902
 20
0.7828425947
 10
4.2287635493
 20
0.7793475755
 10
4.2300188241
 20
0.7758550368
 10
4.2313098943
 20
0.7723638652
 10
4.232636243
 20
0.7688745693
 10
4.2339979015
 20
0.7653868462
  0
LWPOLYLINE
  5
42C
100
AcDbEntity
  8
RACCORDO
100
AcDbPolyline
 62
7
  6
CONTINUOUS
 90
16
 70
0
 10
4.8038617831
 20
17.6630270406
 10
4.8052360878
 20
17.6444980006
 10
4.808646318
 20
17.6256795061
 10
4.8141881784
 20
17.6067684044
 10
4.8219349933
 20
17.5880333357
 10
4.8319415413
 20
17.5696542092
 10
4.8442576503
 20
17.5517277132
 10
4.858873797
 20
17.5345636478
 10
4.8757892765
 20
17.5184068966
 10
4.8950735594
 20
17.503318724
 10
4.9165943047
 20
17.4897065979
 10
4.9403005412
 20
17.4778509161
 10
4.9664224101
 20
17.4677942355
 10
4.9949188828
 20
17.4599464912
 10
5.025383778
 20
17.4549345646
 10
5.0574297131
 20
17.4532521328
  0
LWPOLYLINE
  5
42D
100
AcDbEntity
  8
RACCORDO
100
AcDbPolyline
 62
250
  6
CONTINUOUS
 90
13
 70
0
 10
4.8328141922
 20
17.9554975018
 10
4.8350431294
 20
17.9234230433
 10
4.8414945646
 20
17.8918953065
 10
4.8520585253
 20
17.8614516655
 10
4.8665549451
 20
17.8326110118
 10
4.8847367293
 20
17.8058649179
 10
4.9062939642
 20
17.781669257
 10
4.9308592031
 20
17.7604364251
 10
4.9580137414
 20
17.7425283072
 10
4.98729475
 20
17.72825012
 10
5.0182031531
 20
17.7178452161
 10
5.0502121324
 20
17.7114909324
 10
5.082776116
 20
17.7092955635
  0
LWPOLYLINE
  5
42E
100
AcDbEntity
  8
RACCORDO
100
AcDbPolyline
 62
250
  6
CONTINUOUS
 90
13
 70
0
 10
4.8030042615
 20
16.2172694984
 10
4.8051518312
 20
16.1846491857
 10
4.8115379364
 20
16.1525868041
 10
4.8220533497
 20
16.1216307378
 10
4.8365182177
 20
16.0923104482
 10
4.8546851366
 20
16.0651274195
 10
4.8762433836
 20
16.0405465809
 10
4.9008242313
 20
16.0189883539
 10
4.928007257
 20
16.0008214604
 10
4.9573275321
 20
15.9863566182
 10
4.9882835733
 20
15.9758412274
 10
5.0203459186
 20
15.9694551382
 10
5.0529661853
 20
15.9673075747
  0
LWPOLYLINE
  5
42F
100
AcDbEntity
  8
RACCORDO
100
AcDbPolyline
 62
250
  6
CONTINUOUS
 90
13
 70
0
 10
6.3495741751
 20
-5.5361682032
 10
6.3521508596
 20
-5.5753095571
 10
6.359813146
 20
-5.6137820746
 10
6.3724302039
 20
-5.6509277771
 10
6.3897864405
 20
-5.6861113056
 10
6.4115852191
 20
-5.7187308742
 10
6.4374539592
 20
-5.7482285442
 10
6.4669504832
 20
-5.7740997034
 10
6.4995703814
 20
-5.7959015836
 10
6.5347556459
 20
-5.813260986
 10
6.5719044383
 20
-5.8258808122
 10
6.6103814316
 20
-5.8335450754
 10
6.6495284836
 20
-5.8361225118
  0
LWPOLYLINE
  5
430
100
AcDbEntity
  8
RACCORDO
100
AcDbPolyline
 62
250
  6
CONTINUOUS
 90
4
 70
0
 10
6.6396925441
 20
-3.1213551255
 10
6.6386534228
 20
-3.0979082496
 10
6.6376892233
 20
-3.0713453596
 10
6.6367999456
 20
-3.0418698143
  0
LINE
  5
431
100
AcDbEntity
  8
RACCORDO
100
AcDbLine
 62
250
  6
CONTINUOUS
 10
6.351518406
 20
-3.7717344944
 11
6.3387038063
 21
-3.3432986593
  0
LWPOLYLINE
  5
432
100
AcDbEntity
  8
RACCORDO
100
AcDbPolyline
 62
250
  6
CONTINUOUS
 90
7
 70
0
 10
5.5743871566
 20
16.2271698125
 10
5.5744621558
 20
16.2243104014
 10
5.5745427427
 20
16.2218766716
 10
5.5746264092
 20
16.2199477989
 10
5.5747123192
 20
16.218550175
 10
5.5748013088
 20
16.2176574082
 10
5.5748933779
 20
16.2172694984
  0
LWPOLYLINE
  5
433
100
AcDbEntity
  8
RACCORDO
100
AcDbPolyline
 62
250
  6
CONTINUOUS
 90
6
 70
0
 10
5.5447127703
 20
17.9646850136
 10
5.5447805063
 20
17.9620590686
 10
5.5448516126
 20
17.9598203928
 10
5.5449255204
 20
17.95799216
 10
5.5450027986
 20
17.9565511963
 10
5.5450834471
 20
17.9554975018
  0
LINE
  5
434
100
AcDbEntity
  8
RACCORDO
100
AcDbLine
 62
250
  6
CONTINUOUS
 10
6.3387038063
 20
-3.3432986593
 11
6.336854551
 21
-3.2544983648
  0
LINE
  5
435
100
AcDbEntity
  8
RACCORDO
100
AcDbLine
 62
250
  6
CONTINUOUS
 10
6.351981839
 20
-3.7940059571
 11
6.351518406
 21
-3.7717344944
  0
LINE
  5
436
100
AcDbEntity
  8
RACCORDO
100
AcDbLine
 62
250
  6
CONTINUOUS
 10
5.5445926684
 20
17.9708974457
 11
5.5447127703
 21
17.9646850136
  0
LINE
  5
437
100
AcDbEntity
  8
RACCORDO
100
AcDbLine
 62
250
  6
CONTINUOUS
 10
5.5742542794
 20
16.2341913796
 11
5.5743871566
 21
16.2271698125
  0
LINE
  5
438
100
AcDbEntity
  8
RACCORDO
100
AcDbLine
 62
250
  6
CONTINUOUS
 10
6.3521259321
 20
6.1752898613
 11
6.3515922666
 21
6.2033606287
  0
LWPOLYLINE
  5
439
100
AcDbEntity
  8
RACCORDO
100
AcDbPolyline
 62
250
  6
CONTINUOUS
 90
3
 70
0
 10
5.3247508887
 20
15.9747870577
 10
5.3248398762
 20
15.9694453506
 10
5.3249318976
 20
15.9673049081
  0
LINE
  5
43A
100
AcDbEntity
  8
RACCORDO
100
AcDbLine
 62
250
  6
CONTINUOUS
 10
6.336854551
 20
-3.2544983648
 11
6.3352862776
 21
-3.1474012343
  0
LINE
  5
43B
100
AcDbEntity
  8
RACCORDO
100
AcDbLine
 62
250
  6
CONTINUOUS
 10
6.3523736745
 20
-3.8208095353
 11
6.351981839
 21
-3.7940059571
  0
LINE
  5
43C
100
AcDbEntity
  8
RACCORDO
100
AcDbLine
 62
250
  6
CONTINUOUS
 10
5.5444943068
 20
17.9782967472
 11
5.5445926684
 21
17.9708974457
  0
LINE
  5
43D
100
AcDbEntity
  8
RACCORDO
100
AcDbLine
 62
250
  6
CONTINUOUS
 10
6.3525454962
 20
6.1417229718
 11
6.3521259321
 21
6.1752898613
  0
LINE
  5
43E
100
AcDbEntity
  8
RACCORDO
100
AcDbLine
 62
250
  6
CONTINUOUS
 10
5.5741498946
 20
16.2425744377
 11
5.5742542794
 21
16.2341913796
  0
LINE
  5
43F
100
AcDbEntity
  8
RACCORDO
100
AcDbLine
 62
250
  6
CONTINUOUS
 10
5.0829334948
 20
-17.0175391508
 11
5.0827761331
 21
-17.0027923703
  0
LINE
  5
440
100
AcDbEntity
  8
RACCORDO
100
AcDbLine
 62
250
  6
CONTINUOUS
 10
5.2949641446
 20
17.7240434165
 11
5.2951215063
 21
17.709296636
  0
LINE
  5
441
100
AcDbEntity
  8
RACCORDO
100
AcDbLine
 62
250
  6
CONTINUOUS
 10
5.2944820929
 20
-17.7070250159
 11
5.3131920426
 21
-20.0057054797
  0
LINE
  5
442
100
AcDbEntity
  8
RACCORDO
100
AcDbLine
 62
250
  6
CONTINUOUS
 10
5.0834155465
 20
18.4135292816
 11
5.0647055968
 21
20.7122097454
  0
LINE
  5
443
100
AcDbEntity
  8
RACCORDO
100
AcDbLine
 62
250
  6
CONTINUOUS
 10
5.0533165224
 20
-15.2882831565
 11
5.0531467507
 21
-15.268282792
  0
LINE
  5
444
100
AcDbEntity
  8
RACCORDO
100
AcDbLine
 62
250
  6
CONTINUOUS
 10
5.324581117
 20
15.9947874222
 11
5.3247508887
 21
15.9747870577
  0
LINE
  5
445
100
AcDbEntity
  8
RACCORDO
100
AcDbLine
 62
250
  6
CONTINUOUS
 10
6.3352862776
 20
-3.1474012343
 11
6.3335995534
 21
-2.9618790512
  0
LINE
  5
446
100
AcDbEntity
  8
RACCORDO
100
AcDbLine
 62
250
  6
CONTINUOUS
 10
6.3527945882
 20
-3.8672304212
 11
6.3523736745
 21
-3.8208095353
  0
LINE
  5
447
100
AcDbEntity
  8
RACCORDO
100
AcDbLine
 62
250
  6
CONTINUOUS
 10
5.5443958345
 20
17.9910017335
 11
5.5444943068
 21
17.9782967472
  0
LINE
  5
448
100
AcDbEntity
  8
RACCORDO
100
AcDbLine
 62
250
  6
CONTINUOUS
 10
5.5740546156
 20
16.2569647033
 11
5.5741498946
 21
16.2425744377
  0
LINE
  5
449
100
AcDbEntity
  8
RACCORDO
100
AcDbLine
 62
250
  6
CONTINUOUS
 10
6.352928702
 20
6.0840270193
 11
6.3525454962
 21
6.1417229718
  0
LINE
  5
44A
100
AcDbEntity
  8
RACCORDO
100
AcDbLine
 62
250
  6
CONTINUOUS
 10
4.8335353935
 20
18.2867437341
 11
4.8186224301
 21
20.1300160512
  0
LINE
  5
44B
100
AcDbEntity
  8
RACCORDO
100
AcDbLine
 62
250
  6
CONTINUOUS
 10
5.5443622459
 20
-17.5802394684
 11
5.5592752093
 21
-19.4235117855
  0
LINE
  5
44C
100
AcDbEntity
  8
RACCORDO
100
AcDbLine
 62
250
  6
CONTINUOUS
 10
5.083318754
 20
-17.1162986018
 11
5.0829334948
 21
-17.0175391508
  0
LINE
  5
44D
100
AcDbEntity
  8
RACCORDO
100
AcDbLine
 62
250
  6
CONTINUOUS
 10
5.2945788853
 20
17.8228028674
 11
5.2949641446
 21
17.7240434165
  0
LINE
  5
44E
100
AcDbEntity
  8
RACCORDO
100
AcDbLine
 62
250
  6
CONTINUOUS
 10
6.3335995534
 20
-2.9618790512
 11
6.3328125926
 21
-2.7589202117
  0
LINE
  5
44F
100
AcDbEntity
  8
RACCORDO
100
AcDbLine
 62
250
  6
CONTINUOUS
 10
6.3529905069
 20
-3.9178634486
 11
6.3527945882
 21
-3.8672304212
  0
LINE
  5
450
100
AcDbEntity
  8
RACCORDO
100
AcDbLine
 62
250
  6
CONTINUOUS
 10
5.0537496568
 20
-15.4400140596
 11
5.0533165224
 21
-15.2882831565
  0
LINE
  5
451
100
AcDbEntity
  8
RACCORDO
100
AcDbLine
 62
250
  6
CONTINUOUS
 10
5.3241479826
 20
16.1465183253
 11
5.324581117
 21
15.9947874222
  0
LINE
  5
452
100
AcDbEntity
  8
RACCORDO
100
AcDbLine
 62
7
  6
CONTINUOUS
 10
5.5951322698
 20
16.1970306065
 11
5.5917762869
 21
20.7004522213
  0
LINE
  5
453
100
AcDbEntity
  8
RACCORDO
100
AcDbLine
 62
7
  6
CONTINUOUS
 10
4.8186224301
 20
-20.2225710258
 11
4.8186224301
 21
-19.4235117855
  0
LINE
  5
454
100
AcDbEntity
  8
RACCORDO
100
AcDbLine
 62
7
  6
CONTINUOUS
 10
4.8186224301
 20
20.1300160512
 11
4.8186224301
 21
20.9290752915
  0
LINE
  5
455
100
AcDbEntity
  8
RACCORDO
100
AcDbLine
 62
250
  6
CONTINUOUS
 10
4.8335353935
 20
-17.5802394684
 11
4.8335314066
 21
-17.2935403307
  0
LINE
  5
456
100
AcDbEntity
  8
RACCORDO
100
AcDbLine
 62
250
  6
CONTINUOUS
 10
5.0538237069
 20
-16.7467478672
 11
5.0537496568
 21
-15.4400140596
  0
LINE
  5
457
100
AcDbEntity
  8
RACCORDO
100
AcDbLine
 62
250
  6
CONTINUOUS
 10
5.1436112536
 20
1.7166822193
 11
5.1436112536
 21
1.5167126802
  0
LINE
  5
458
100
AcDbEntity
  8
RACCORDO
100
AcDbLine
 62
250
  6
CONTINUOUS
 10
5.1436112536
 20
-1.0101779536
 11
5.1436112526
 21
-0.8102084146
  0
LINE
  5
459
100
AcDbEntity
  8
RACCORDO
100
AcDbLine
 62
250
  6
CONTINUOUS
 10
5.3240739325
 20
17.4532521328
 11
5.3241479826
 21
16.1465183253
  0
LINE
  5
45A
100
AcDbEntity
  8
RACCORDO
100
AcDbLine
 62
250
  6
CONTINUOUS
 10
5.5443622459
 20
18.2867437341
 11
5.5443958345
 21
17.9910017335
  0
LINE
  5
45B
100
AcDbEntity
  8
RACCORDO
100
AcDbLine
 62
7
  6
CONTINUOUS
 10
5.5592752093
 20
20.9290752915
 11
5.5592752093
 21
20.1300160512
  0
LINE
  5
45C
100
AcDbEntity
  8
RACCORDO
100
AcDbLine
 62
7
  6
CONTINUOUS
 10
5.5592752093
 20
-19.4235117855
 11
5.5592752093
 21
-20.2225710258
  0
LINE
  5
45D
100
AcDbEntity
  8
RACCORDO
100
AcDbLine
 62
250
  6
CONTINUOUS
 10
5.5740358563
 20
17.6630270406
 11
5.5740546156
 21
16.2569647033
  0
LINE
  5
45E
100
AcDbEntity
  8
RACCORDO
100
AcDbLine
 62
7
  6
CONTINUOUS
 10
6.3283125943
 20
-1.0365846639
 11
6.3289811222
 21
-5.5567612561
  0
LINE
  5
45F
100
AcDbEntity
  8
RACCORDO
100
AcDbLine
 62
250
  6
CONTINUOUS
 10
6.3328125926
 20
-2.7589202117
 11
6.3327563862
 21
-1.0321408721
  0
LINE
  5
460
100
AcDbEntity
  8
RACCORDO
100
AcDbLine
 62
7
  6
CONTINUOUS
 10
6.3289811222
 20
6.2632655218
 11
6.3283125943
 21
1.7430889296
  0
LINE
  5
461
100
AcDbEntity
  8
RACCORDO
100
AcDbLine
 62
250
  6
CONTINUOUS
 10
5.0834155471
 20
-17.7070249469
 11
5.083318754
 21
-17.1162986018
  0
LINE
  5
462
100
AcDbEntity
  8
RACCORDO
100
AcDbLine
 62
250
  6
CONTINUOUS
 10
5.2944820923
 20
18.4135292126
 11
5.2945788853
 21
17.8228028674
  0
LINE
  5
463
100
AcDbEntity
  8
RACCORDO
100
AcDbLine
 62
250
  6
CONTINUOUS
 10
4.8335314066
 20
18.0000445964
 11
4.8335353935
 21
18.2867437341
  0
LINE
  5
464
100
AcDbEntity
  8
RACCORDO
100
AcDbLine
 62
7
  6
CONTINUOUS
 10
5.5917762869
 20
-19.9939479556
 11
5.5951322698
 21
-15.4905263408
  0
LINE
  5
465
100
AcDbEntity
  8
RACCORDO
100
AcDbLine
 62
250
  6
CONTINUOUS
 10
6.3529905069
 20
4.6243677143
 11
6.352928702
 21
6.0840270193
  0
LINE
  5
466
100
AcDbEntity
  8
RACCORDO
100
AcDbLine
 62
250
  6
CONTINUOUS
 10
5.5740546159
 20
-15.5504603797
 11
5.5740358563
 21
-16.9565227749
  0
LINE
  5
467
100
AcDbEntity
  8
RACCORDO
100
AcDbLine
 62
250
  6
CONTINUOUS
 10
6.352928702
 20
-5.3775227536
 11
6.3529905069
 21
-3.9178634486
  0
LINE
  5
468
100
AcDbEntity
  8
RACCORDO
100
AcDbLine
 62
250
  6
CONTINUOUS
 10
5.0534723627
 20
16.0264169564
 11
5.0538237069
 21
17.4532521328
  0
LINE
  5
469
100
AcDbEntity
  8
RACCORDO
100
AcDbLine
 62
250
  6
CONTINUOUS
 10
5.3244252767
 20
-15.3199126907
 11
5.3240739325
 21
-16.7467478672
  0
LINE
  5
46A
100
AcDbEntity
  8
RACCORDO
100
AcDbLine
 62
250
  6
CONTINUOUS
 10
5.0831465607
 20
17.7641007587
 11
5.083415547
 21
18.4135292816
  0
LINE
  5
46B
100
AcDbEntity
  8
RACCORDO
100
AcDbLine
 62
250
  6
CONTINUOUS
 10
5.2947510786
 20
-17.057596493
 11
5.2944820924
 21
-17.7070250159
  0
LINE
  5
46C
100
AcDbEntity
  8
RACCORDO
100
AcDbLine
 62
250
  6
CONTINUOUS
 10
6.3327563862
 20
1.7386451378
 11
6.3332331454
 21
3.6021040926
  0
LINE
  5
46D
100
AcDbEntity
  8
RACCORDO
100
AcDbLine
 62
250
  6
CONTINUOUS
 10
5.5443958345
 20
-17.2844974678
 11
5.5443622459
 21
-17.5802394684
  0
LINE
  5
46E
100
AcDbEntity
  8
RACCORDO
100
AcDbLine
 62
250
  6
CONTINUOUS
 10
6.3527945882
 20
4.5737346869
 11
6.3529905069
 21
4.6243677143
  0
LINE
  5
46F
100
AcDbEntity
  8
RACCORDO
100
AcDbLine
 62
250
  6
CONTINUOUS
 10
5.0829334948
 20
17.7240434165
 11
5.0831465607
 21
17.7641007587
  0
LINE
  5
470
100
AcDbEntity
  8
RACCORDO
100
AcDbLine
 62
250
  6
CONTINUOUS
 10
5.2949641446
 20
-17.0175391508
 11
5.2947510786
 21
-17.057596493
  0
LINE
  5
471
100
AcDbEntity
  8
RACCORDO
100
AcDbLine
 62
250
  6
CONTINUOUS
 10
4.8186224301
 20
-19.4235117855
 11
4.8335353935
 21
-17.5802394684
  0
LINE
  5
472
100
AcDbEntity
  8
RACCORDO
100
AcDbLine
 62
250
  6
CONTINUOUS
 10
5.3131920426
 20
20.7122097454
 11
5.2944820923
 21
18.4135292126
  0
LINE
  5
473
100
AcDbEntity
  8
RACCORDO
100
AcDbLine
 62
250
  6
CONTINUOUS
 10
5.0647055968
 20
-20.0057054797
 11
5.0834155471
 21
-17.7070249469
  0
LINE
  5
474
100
AcDbEntity
  8
RACCORDO
100
AcDbLine
 62
250
  6
CONTINUOUS
 10
5.5592752093
 20
20.1300160512
 11
5.5443622459
 21
18.2867437341
  0
LINE
  5
475
100
AcDbEntity
  8
RACCORDO
100
AcDbLine
 62
250
  6
CONTINUOUS
 10
5.5741498951
 20
-15.5360701161
 11
5.5740546159
 21
-15.5504603797
  0
LINE
  5
476
100
AcDbEntity
  8
RACCORDO
100
AcDbLine
 62
250
  6
CONTINUOUS
 10
6.3525454962
 20
-5.4352187061
 11
6.352928702
 21
-5.3775227536
  0
LINE
  5
477
100
AcDbEntity
  8
RACCORDO
100
AcDbLine
 62
250
  6
CONTINUOUS
 10
6.3332331454
 20
3.6021040926
 11
6.3346317181
 21
3.7952565064
  0
LINE
  5
478
100
AcDbEntity
  8
RACCORDO
100
AcDbLine
 62
250
  6
CONTINUOUS
 10
5.5444943068
 20
-17.2717924815
 11
5.5443958345
 21
-17.2844974678
  0
LINE
  5
479
100
AcDbEntity
  8
RACCORDO
100
AcDbLine
 62
250
  6
CONTINUOUS
 10
6.3523736745
 20
4.527313801
 11
6.3527945882
 21
4.5737346869
  0
LINE
  5
47A
100
AcDbEntity
  8
RACCORDO
100
AcDbLine
 62
250
  6
CONTINUOUS
 10
5.0827761331
 20
17.709296636
 11
5.0829334948
 21
17.7240434165
  0
LINE
  5
47B
100
AcDbEntity
  8
RACCORDO
100
AcDbLine
 62
250
  6
CONTINUOUS
 10
5.2951215063
 20
-17.0027923703
 11
5.2949641446
 21
-17.0175391508
  0
LINE
  5
47C
100
AcDbEntity
  8
RACCORDO
100
AcDbLine
 62
250
  6
CONTINUOUS
 10
6.3346317181
 20
3.7952565064
 11
6.3360384013
 21
3.909907962
  0
LINE
  5
47D
100
AcDbEntity
  8
RACCORDO
100
AcDbLine
 62
250
  6
CONTINUOUS
 10
5.5742542793
 20
-15.5276871045
 11
5.5741498951
 21
-15.5360701161
  0
LINE
  5
47E
100
AcDbEntity
  8
RACCORDO
100
AcDbLine
 62
250
  6
CONTINUOUS
 10
6.3521259321
 20
-5.4687855956
 11
6.3525454962
 21
-5.4352187061
  0
LINE
  5
47F
100
AcDbEntity
  8
RACCORDO
100
AcDbLine
 62
250
  6
CONTINUOUS
 10
5.5445926684
 20
-17.26439318
 11
5.5444943068
 21
-17.2717924815
  0
LINE
  5
480
100
AcDbEntity
  8
RACCORDO
100
AcDbLine
 62
250
  6
CONTINUOUS
 10
6.351981839
 20
4.5005102228
 11
6.3523736745
 21
4.527313801
  0
LWPOLYLINE
  5
481
100
AcDbEntity
  8
RACCORDO
100
AcDbPolyline
 62
250
  6
CONTINUOUS
 90
3
 70
0
 10
6.3360384013
 20
3.909907962
 10
6.3377472908
 20
4.0078466453
 10
6.3387067403
 20
4.0499647193
  0
LINE
  5
482
100
AcDbEntity
  8
RACCORDO
100
AcDbLine
 62
250
  6
CONTINUOUS
 10
6.351518406
 20
4.4782387602
 11
6.351981839
 21
4.5005102228
  0
LINE
  5
483
100
AcDbEntity
  8
RACCORDO
100
AcDbLine
 62
250
  6
CONTINUOUS
 10
6.3387067403
 20
4.0499647193
 11
6.351518406
 21
4.4782387602
  0
LWPOLYLINE
  5
484
100
AcDbEntity
  8
RACCORDO
100
AcDbPolyline
 62
250
  6
CONTINUOUS
 90
5
 70
0
 10
5.3249318964
 20
-15.2608006495
 10
5.3248398773
 20
-15.2629410407
 10
5.3247508913
 20
-15.2682826049
 10
5.3246649382
 20
-15.2767627181
 10
5.3244252767
 20
-15.3199126907
  0
LWPOLYLINE
  5
485
100
AcDbEntity
  8
RACCORDO
100
AcDbPolyline
 62
7
  6
CONTINUOUS
 90
16
 70
0
 10
4.7821888644
 20
-15.4899498356
 10
4.7835403869
 20
-15.4638111548
 10
4.7876152582
 20
-15.4379648285
 10
4.7943676524
 20
-15.4126932756
 10
4.8037237605
 20
-15.388269305
 10
4.8155795505
 20
-15.3649629727
 10
4.8297988025
 20
-15.3430370878
 10
4.8462085926
 20
-15.3227446656
 10
4.864637282
 20
-15.3042857783
 10
4.8849244343
 20
-15.2878270866
 10
4.9068854596
 20
-15.2735414454
 10
4.9302612237
 20
-15.2616185197
 10
4.9547552057
 20
-15.2522150589
 10
4.9800817812
 20
-15.2454358659
 10
5.0059766538
 20
-15.241347318
 10
5.0321553119
 20
-15.2399924355
  0
LWPOLYLINE
  5
486
100
AcDbEntity
  8
RACCORDO
100
AcDbPolyline
 62
7
  6
CONTINUOUS
 90
16
 70
0
 10
6.3289811222
 20
6.2632655218
 10
6.3306284407
 20
6.2945659026
 10
6.3355391363
 20
6.3255305274
 10
6.3436627707
 20
6.3558205256
 10
6.3549200957
 20
6.3851175628
 10
6.369187621
 20
6.4130847813
 10
6.3862846304
 20
6.4393775858
 10
6.4059808202
 20
6.4636760435
 10
6.4280793157
 20
6.4857672159
 10
6.4524197201
 20
6.5054835552
 10
6.4788092461
 20
6.5226254508
 10
6.5069209041
 20
6.5369403696
 10
6.5363666702
 20
6.5482222181
 10
6.5667896845
 20
6.5563456014
 10
6.5978824761
 20
6.5612384384
 10
6.6293029552
 20
6.5628523059
  0
LWPOLYLINE
  5
487
100
AcDbEntity
  8
RACCORDO
100
AcDbPolyline
 62
250
  6
CONTINUOUS
 90
13
 70
0
 10
4.8030042615
 20
-15.5107652327
 10
4.8051518281
 20
-15.4781449434
 10
4.8115379251
 20
-15.4460825802
 10
4.822053327
 20
-15.4151265265
 10
4.8365181821
 20
-15.385806244
 10
4.8546850884
 20
-15.3586232165
 10
4.8762433256
 20
-15.334042373
 10
4.900824169
 20
-15.3124841359
 10
4.9280071965
 20
-15.2943172295
 10
4.9573274791
 20
-15.2798523745
 10
4.9882835327
 20
-15.2693369725
 10
5.020345896
 20
-15.2629508755
 10
5.0529661853
 20
-15.260803309
  0
LWPOLYLINE
  5
488
100
AcDbEntity
  8
RACCORDO
100
AcDbPolyline
 62
250
  6
CONTINUOUS
 90
13
 70
0
 10
6.3495741751
 20
6.2426724689
 10
6.3521512549
 20
6.2818168159
 10
6.3598145713
 20
6.3202916515
 10
6.3724330534
 20
6.3574389156
 10
6.3897908792
 20
6.3926232544
 10
6.4115911664
 20
6.4252428871
 10
6.4374610506
 20
6.4547398992
 10
6.4669580624
 20
6.4806097839
 10
6.4995776953
 20
6.5024100718
 10
6.5347620344
 20
6.5197678982
 10
6.5719092991
 20
6.5323863808
 10
6.6103841356
 20
6.5400496975
 10
6.6495284836
 20
6.5426267774
  0
LWPOLYLINE
  5
489
100
AcDbEntity
  8
RACCORDO
100
AcDbPolyline
 62
250
  6
CONTINUOUS
 90
13
 70
0
 10
4.8328141922
 20
-17.2489932361
 10
4.8350431074
 20
-17.2169189343
 10
4.8414944861
 20
-17.1853913201
 10
4.8520583683
 20
-17.1549477632
 10
4.8665546989
 20
-17.1261071561
 10
4.8847363964
 20
-17.09936107
 10
4.9062935645
 20
-17.0751653762
 10
4.9308587739
 20
-17.0539324761
 10
4.9580133251
 20
-17.0360242719
 10
4.9872943847
 20
-17.0217459985
 10
5.0182028743
 20
-17.0113410207
 10
5.0502119769
 20
-17.0049866851
 10
5.082776116
 20
-17.0027912978
  0
LWPOLYLINE
  5
48A
100
AcDbEntity
  8
RACCORDO
100
AcDbPolyline
 62
7
  6
CONTINUOUS
 90
16
 70
0
 10
4.8038617831
 20
-16.9565227749
 10
4.8052608273
 20
-16.9374035213
 10
4.808734648
 20
-16.9184969439
 10
4.8143513879
 20
-16.8998030428
 10
4.822145984
 20
-16.8811413064
 10
4.8321521343
 20
-16.8626922462
 10
4.844431177
 20
-16.8449973973
 10
4.8589556981
 20
-16.8280242181
 10
4.8757167893
 20
-16.8118052502
 10
4.8948392897
 20
-16.7969796529
 10
4.9162977595
 20
-16.7834574168
 10
4.939957042
 20
-16.7713285514
 10
4.9657772652
 20
-16.7615022449
 10
4.9935883705
 20
-16.7542815601
 10
5.0230600894
 20
-16.7493634342
 10
5.0538237069
 20
-16.7467478672
  0
LWPOLYLINE
  5
48B
100
AcDbEntity
  8
RACCORDO
100
AcDbPolyline
 62
250
  6
CONTINUOUS
 90
5
 70
0
 10
6.8283691557
 20
6.5426267774
 10
6.8280025774
 20
6.5390465078
 10
6.8276479644
 20
6.5301481586
 10
6.8273053168
 20
6.5160270776
 10
6.8266491388
 20
6.4727762574
  0
LINE
  5
48C
100
AcDbEntity
  8
DRAFT
100
AcDbLine
 62
7
  6
CONTINUOUS
 10
9.4337779206
 20
20.7251622207
 11
9.4773754028
 21
21.0318409827
  0
LWPOLYLINE
  5
48D
100
AcDbEntity
  8
RACCORDO
100
AcDbPolyline
 62
250
  6
CONTINUOUS
 90
8
 70
0
 10
7.1283234643
 20
6.2426724689
 10
7.1279592681
 20
6.2411822049
 10
7.127606211
 20
6.2376672572
 10
7.1272642929
 20
6.2321276258
 10
7.1269298255
 20
6.224460304
 10
7.1266064972
 20
6.2147682985
 10
7.1263053727
 20
6.2033606287
 10
7.1257717073
 20
6.1752898613
  0
LINE
  5
48E
100
AcDbEntity
  8
RACCORDO
100
AcDbLine
 62
7
  6
CONTINUOUS
 10
6.3283125943
 20
-1.0365846639
 11
6.3327563862
 21
-1.0321408721
  0
LINE
  5
48F
100
AcDbEntity
  8
RACCORDO
100
AcDbLine
 62
7
  6
CONTINUOUS
 10
-7.4514053158
 20
6.5628523059
 11
-7.6704745223
 21
6.5626297834
  0
LINE
  5
490
100
AcDbEntity
  8
RACCORDO
100
AcDbLine
 62
250
  6
CONTINUOUS
 10
6.3530042615
 20
6.0427029299
 11
7.1248933779
 21
6.0427029299
  0
LINE
  5
491
100
AcDbEntity
  8
RACCORDO
100
AcDbLine
 62
250
  6
CONTINUOUS
 10
-7.9469957385
 20
6.0427029299
 11
-7.1751066221
 21
6.0427029299
  0
LINE
  5
492
100
AcDbEntity
  8
RACCORDO
100
AcDbLine
 62
250
  6
CONTINUOUS
 10
-7.6504715164
 20
6.5426267774
 11
-7.4716308443
 21
6.5426267774
  0
LINE
  5
493
100
AcDbEntity
  8
RACCORDO
100
AcDbLine
 62
250
  6
CONTINUOUS
 10
6.6495284836
 20
6.5426267774
 11
6.8283691557
 21
6.5426267774
  0
LINE
  5
494
100
AcDbEntity
  8
RACCORDO
100
AcDbLine
 62
7
  6
CONTINUOUS
 10
6.8483721617
 20
6.5626297834
 11
6.6293029552
 21
6.5628523059
  0
LWPOLYLINE
  5
495
100
AcDbEntity
  8
RACCORDO
100
AcDbPolyline
 62
7
  6
CONTINUOUS
 90
16
 70
0
 10
-7.4514053158
 20
6.5628523059
 10
-7.4199848367
 20
6.5612384384
 10
-7.3888920451
 20
6.5563456014
 10
-7.3584690309
 20
6.5482222181
 10
-7.3290232647
 20
6.5369403696
 10
-7.3009116067
 20
6.5226254508
 10
-7.2745220808
 20
6.5054835552
 10
-7.2501816764
 20
6.4857672159
 10
-7.2280831808
 20
6.4636760435
 10
-7.208386991
 20
6.4393775858
 10
-7.1912899816
 20
6.4130847813
 10
-7.1770224563
 20
6.3851175628
 10
-7.1657651314
 20
6.3558205256
 10
-7.1576414969
 20
6.3255305274
 10
-7.1527308013
 20
6.2945659026
 10
-7.1510834828
 20
6.2632655218
  0
LWPOLYLINE
  5
496
100
AcDbEntity
  8
RACCORDO
100
AcDbPolyline
 62
7
  6
CONTINUOUS
 90
16
 70
0
 10
6.8483721617
 20
6.5626297834
 10
6.8796897251
 20
6.5609550621
 10
6.9106914368
 20
6.5560094678
 10
6.9410357277
 20
6.5478385059
 10
6.9704157031
 20
6.536510107
 10
6.9984730648
 20
6.5221478266
 10
7.024817037
 20
6.504959671
 10
7.0491198275
 20
6.4851972767
 10
7.0711874332
 20
6.4630589507
 10
7.0908571985
 20
6.4387158733
 10
7.1079314494
 20
6.4123819548
 10
7.1221799145
 20
6.38437656
 10
7.1334220815
 20
6.3550467273
 10
7.1415347088
 20
6.3247304776
 10
7.146438446
 20
6.2937458175
 10
7.1480829739
 20
6.2624319785
  0
LINE
  5
497
100
AcDbEntity
  8
RACCORDO
100
AcDbLine
 62
7
  6
CONTINUOUS
 10
6.3283125943
 20
1.7430889296
 11
6.3327563862
 21
1.7386451378
  0
LINE
  5
498
100
AcDbEntity
  8
DRAFT
100
AcDbLine
 62
7
  6
CONTINUOUS
 10
9.4337779206
 20
-20.018657955
 11
9.4773754028
 21
-20.325336717
  0
LINE
  5
499
100
AcDbEntity
  8
RACCORDO
100
AcDbLine
 62
250
  6
CONTINUOUS
 10
5.2951214172
 20
17.7092966359
 11
5.3204679263
 21
17.4532521328
  0
LINE
  5
49A
100
AcDbEntity
  8
RACCORDO
100
AcDbLine
 62
250
  6
CONTINUOUS
 10
5.5450834471
 20
17.9554975018
 11
5.5740358563
 21
17.6630270406
  0
LWPOLYLINE
  5
49B
100
AcDbEntity
  8
RACCORDO
100
AcDbPolyline
 62
250
  6
CONTINUOUS
 90
13
 70
0
 10
6.3397384122
 20
4.087671009
 10
6.3426159436
 20
4.0539453483
 10
6.3505203012
 20
4.0207903584
 10
6.3633177354
 20
3.9887670537
 10
6.3807917014
 20
3.9584172994
 10
6.4026465228
 20
3.9302546428
 10
6.4285123949
 20
3.9047556232
 10
6.4579516422
 20
3.8823517087
 10
6.490466124
 20
3.8634219951
 10
6.5255056641
 20
3.8482867914
 10
6.5624773595
 20
3.8372022
 10
6.6007556133
 20
3.8303557828
 10
6.6396927207
 20
3.8278633879
  0
LWPOLYLINE
  5
49C
100
AcDbEntity
  8
RACCORDO
100
AcDbPolyline
 62
250
  6
CONTINUOUS
 90
13
 70
0
 10
6.351258755
 20
4.4687221867
 10
6.3541361892
 20
4.4349971239
 10
6.362040307
 20
4.4018425882
 10
6.3748374187
 20
4.3698195787
 10
6.3923110413
 20
4.3394699558
 10
6.414165555
 20
4.3113072799
 10
6.4400311989
 20
4.2858081192
 10
6.4694703435
 20
4.2634039679
 10
6.5019848751
 20
4.2444739635
 10
6.5370246094
 20
4.2293384685
 10
6.5739966368
 20
4.2182536252
 10
6.6122753624
 20
4.2114070297
 10
6.6512130636
 20
4.2089145673
  0
LWPOLYLINE
  5
49D
100
AcDbEntity
  8
RACCORDO
100
AcDbPolyline
 62
250
  6
CONTINUOUS
 90
13
 70
0
 10
7.1266388844
 20
-3.762217921
 10
7.1237614502
 20
-3.7284928582
 10
7.1158573324
 20
-3.6953383225
 10
7.1030602207
 20
-3.663315313
 10
7.085586598
 20
-3.6329656901
 10
7.0637320844
 20
-3.6048030142
 10
7.0378664404
 20
-3.5793038535
 10
7.0084272959
 20
-3.5568997022
 10
6.9759127642
 20
-3.5379696978
 10
6.94087303
 20
-3.5228342028
 10
6.9039010026
 20
-3.5117493595
 10
6.865622277
 20
-3.504902764
 10
6.8266845758
 20
-3.5024103016
  0
LWPOLYLINE
  5
49E
100
AcDbEntity
  8
RACCORDO
100
AcDbPolyline
 62
250
  6
CONTINUOUS
 90
13
 70
0
 10
7.1381592272
 20
-3.3811667433
 10
7.1352816958
 20
-3.3474410826
 10
7.1273773382
 20
-3.3142860927
 10
7.114579904
 20
-3.282262788
 10
7.0971059379
 20
-3.2519130337
 10
7.0752511165
 20
-3.2237503771
 10
7.0493852444
 20
-3.1982513575
 10
7.0199459972
 20
-3.175847443
 10
6.9874315153
 20
-3.1569177294
 10
6.9523919753
 20
-3.1417825257
 10
6.9154202799
 20
-3.1306979343
 10
6.877142026
 20
-3.1238515171
 10
6.8382049187
 20
-3.1213591222
  0
LWPOLYLINE
  5
49F
100
AcDbEntity
  8
RACCORDO
100
AcDbPolyline
 62
250
  6
CONTINUOUS
 90
13
 70
0
 10
7.1283234643
 20
6.2426724689
 10
7.1257467797
 20
6.2818138228
 10
7.1180844934
 20
6.3202863403
 10
7.1054674354
 20
6.3574320428
 10
7.0881111989
 20
6.3926155713
 10
7.0663124203
 20
6.4252351399
 10
7.0404436801
 20
6.4547328099
 10
7.0109471562
 20
6.4806039691
 10
6.978327258
 20
6.5024058493
 10
6.9431419935
 20
6.5197652517
 10
6.9059932011
 20
6.5323850779
 10
6.8675162078
 20
6.5400493411
 10
6.8283691558
 20
6.5426267775
  0
LWPOLYLINE
  5
4A0
100
AcDbEntity
  8
RACCORDO
100
AcDbPolyline
 62
250
  6
CONTINUOUS
 90
4
 70
0
 10
6.8382050953
 20
3.8278593912
 10
6.8392442166
 20
3.8044125153
 10
6.8402084161
 20
3.7778496253
 10
6.8410976938
 20
3.74837408
  0
LINE
  5
4A1
100
AcDbEntity
  8
RACCORDO
100
AcDbLine
 62
250
  6
CONTINUOUS
 10
6.6512130636
 20
-3.5024102999
 11
6.6396925999
 21
-3.1213551256
  0
LINE
  5
4A2
100
AcDbEntity
  8
RACCORDO
100
AcDbLine
 62
250
  6
CONTINUOUS
 10
6.8266845758
 20
4.2089145656
 11
6.8382050395
 21
3.8278593913
  0
LINE
  5
4A3
100
AcDbEntity
  8
RACCORDO
100
AcDbLine
 62
250
  6
CONTINUOUS
 10
7.1263792334
 20
4.4782387601
 11
7.1391938331
 21
4.049802925
  0
LWPOLYLINE
  5
4A4
100
AcDbEntity
  8
RACCORDO
100
AcDbPolyline
 62
250
  6
CONTINUOUS
 90
7
 70
0
 10
6.3515922666
 20
6.2033606287
 10
6.3512911422
 20
6.2147682985
 10
6.3509678139
 20
6.224460304
 10
6.3506333465
 20
6.2321276258
 10
6.3502914284
 20
6.2376672572
 10
6.3499383713
 20
6.241182205
 10
6.3495741751
 20
6.2426724689
  0
LWPOLYLINE
  5
4A5
100
AcDbEntity
  8
RACCORDO
100
AcDbPolyline
 62
250
  6
CONTINUOUS
 90
7
 70
0
 10
7.1263053727
 20
-5.496856363
 10
7.1266064972
 20
-5.5082640328
 10
7.1269298255
 20
-5.5179560383
 10
7.1272642929
 20
-5.5256233601
 10
7.127606211
 20
-5.5311629915
 10
7.1279592681
 20
-5.5346779393
 10
7.1283234643
 20
-5.5361682032
  0
LWPOLYLINE
  5
4A6
100
AcDbEntity
  8
RACCORDO
100
AcDbPolyline
 62
250
  6
CONTINUOUS
 90
4
 70
0
 10
6.8273053168
 20
-5.8095228119
 10
6.8276479644
 20
-5.8236438929
 10
6.8280025774
 20
-5.8325422421
 10
6.8283691557
 20
-5.8361225117
  0
LWPOLYLINE
  5
4A7
100
AcDbEntity
  8
RACCORDO
100
AcDbPolyline
 62
250
  6
CONTINUOUS
 90
4
 70
0
 10
6.6505923226
 20
6.5160270776
 10
6.650249675
 20
6.5301481586
 10
6.649895062
 20
6.5390465078
 10
6.6495284836
 20
6.5426267774
  0
LINE
  5
4A8
100
AcDbEntity
  8
RACCORDO
100
AcDbLine
 62
250
  6
CONTINUOUS
 10
6.6367999456
 20
-3.0418698143
 11
6.6352351247
 21
-2.975104833
  0
LINE
  5
4A9
100
AcDbEntity
  8
RACCORDO
100
AcDbLine
 62
250
  6
CONTINUOUS
 10
6.8410976938
 20
3.74837408
 11
6.8426625147
 21
3.6816090987
  0
LINE
  5
4AA
100
AcDbEntity
  8
RACCORDO
100
AcDbLine
 62
250
  6
CONTINUOUS
 10
7.1259158004
 20
4.5005102228
 11
7.1263792334
 21
4.4782387601
  0
LINE
  5
4AB
100
AcDbEntity
  8
RACCORDO
100
AcDbLine
 62
250
  6
CONTINUOUS
 10
7.1391938331
 20
4.049802925
 11
7.1410430884
 21
3.9610026305
  0
LINE
  5
4AC
100
AcDbEntity
  8
RACCORDO
100
AcDbLine
 62
250
  6
CONTINUOUS
 10
7.1257717073
 20
-5.4687855956
 11
7.1263053727
 21
-5.496856363
  0
LINE
  5
4AD
100
AcDbEntity
  8
RACCORDO
100
AcDbLine
 62
250
  6
CONTINUOUS
 10
6.6352351247
 20
-2.975104833
 11
6.6340215763
 21
-2.8996333412
  0
LINE
  5
4AE
100
AcDbEntity
  8
RACCORDO
100
AcDbLine
 62
250
  6
CONTINUOUS
 10
6.8426625147
 20
3.6816090987
 11
6.8438760631
 21
3.6061376069
  0
LINE
  5
4AF
100
AcDbEntity
  8
RACCORDO
100
AcDbLine
 62
250
  6
CONTINUOUS
 10
7.1410430884
 20
3.9610026305
 11
7.1426113618
 21
3.8539055
  0
LINE
  5
4B0
100
AcDbEntity
  8
RACCORDO
100
AcDbLine
 62
250
  6
CONTINUOUS
 10
6.6512485005
 20
6.4727762574
 11
6.6505923226
 21
6.5160270776
  0
LINE
  5
4B1
100
AcDbEntity
  8
RACCORDO
100
AcDbLine
 62
250
  6
CONTINUOUS
 10
6.8266491388
 20
-5.7662719917
 11
6.8273053168
 21
-5.8095228119
  0
LINE
  5
4B2
100
AcDbEntity
  8
RACCORDO
100
AcDbLine
 62
250
  6
CONTINUOUS
 10
7.1255239649
 20
4.527313801
 11
7.1259158004
 21
4.5005102228
  0
LINE
  5
4B3
100
AcDbEntity
  8
RACCORDO
100
AcDbLine
 62
250
  6
CONTINUOUS
 10
7.1253521432
 20
-5.4352187061
 11
7.1257717073
 21
-5.4687855956
  0
LINE
  5
4B4
100
AcDbEntity
  8
RACCORDO
100
AcDbLine
 62
250
  6
CONTINUOUS
 10
6.6340215763
 20
-2.8996333412
 11
6.633186553
 21
-2.8177519709
  0
LINE
  5
4B5
100
AcDbEntity
  8
RACCORDO
100
AcDbLine
 62
250
  6
CONTINUOUS
 10
6.8438760631
 20
3.6061376069
 11
6.8447110864
 21
3.5242562366
  0
LINE
  5
4B6
100
AcDbEntity
  8
RACCORDO
100
AcDbLine
 62
250
  6
CONTINUOUS
 10
6.6519362052
 20
-3.5818701616
 11
6.6512130636
 21
-3.5024102999
  0
LINE
  5
4B7
100
AcDbEntity
  8
RACCORDO
100
AcDbLine
 62
250
  6
CONTINUOUS
 10
6.8259614342
 20
4.2883744273
 11
6.8266845758
 21
4.2089145656
  0
LINE
  5
4B8
100
AcDbEntity
  8
RACCORDO
100
AcDbLine
 62
250
  6
CONTINUOUS
 10
7.1251030512
 20
4.5737346869
 11
7.1255239649
 21
4.527313801
  0
LINE
  5
4B9
100
AcDbEntity
  8
RACCORDO
100
AcDbLine
 62
250
  6
CONTINUOUS
 10
7.1426113618
 20
3.8539055
 11
7.144298086
 21
3.6683833169
  0
LINE
  5
4BA
100
AcDbEntity
  8
RACCORDO
100
AcDbLine
 62
250
  6
CONTINUOUS
 10
6.6520805606
 20
6.3742283291
 11
6.6512485005
 21
6.4727762574
  0
LINE
  5
4BB
100
AcDbEntity
  8
RACCORDO
100
AcDbLine
 62
250
  6
CONTINUOUS
 10
6.8258170788
 20
-5.6677240634
 11
6.8266491388
 21
-5.7662719917
  0
LINE
  5
4BC
100
AcDbEntity
  8
RACCORDO
100
AcDbLine
 62
250
  6
CONTINUOUS
 10
7.1249689373
 20
-5.3775227536
 11
7.1253521432
 21
-5.4352187061
  0
LINE
  5
4BD
100
AcDbEntity
  8
RACCORDO
100
AcDbLine
 62
250
  6
CONTINUOUS
 10
6.633186553
 20
-2.8177519709
 11
6.6327673644
 21
-2.7319765459
  0
LINE
  5
4BE
100
AcDbEntity
  8
RACCORDO
100
AcDbLine
 62
250
  6
CONTINUOUS
 10
6.8447110864
 20
3.5242562366
 11
6.845130275
 21
3.4384808116
  0
LINE
  5
4BF
100
AcDbEntity
  8
RACCORDO
100
AcDbLine
 62
250
  6
CONTINUOUS
 10
7.1249071325
 20
4.6243677143
 11
7.1251030512
 21
4.5737346869
  0
LINE
  5
4C0
100
AcDbEntity
  8
RACCORDO
100
AcDbLine
 62
250
  6
CONTINUOUS
 10
7.144298086
 20
3.6683833169
 11
7.1450850468
 21
3.4654244774
  0
LINE
  5
4C1
100
AcDbEntity
  8
RACCORDO
100
AcDbLine
 62
250
  6
CONTINUOUS
 10
6.6528396036
 20
-3.8060150529
 11
6.6519362052
 21
-3.5818701616
  0
LINE
  5
4C2
100
AcDbEntity
  8
RACCORDO
100
AcDbLine
 62
250
  6
CONTINUOUS
 10
6.8250580357
 20
4.5125193186
 11
6.8259614342
 21
4.2883744273
  0
LINE
  5
4C3
100
AcDbEntity
  8
RACCORDO
100
AcDbLine
 62
250
  6
CONTINUOUS
 10
6.6528824301
 20
6.1455188321
 11
6.6520805606
 21
6.3742283291
  0
LINE
  5
4C4
100
AcDbEntity
  8
RACCORDO
100
AcDbLine
 62
250
  6
CONTINUOUS
 10
6.8250152092
 20
-5.4390145664
 11
6.8258170788
 21
-5.6677240634
  0
LINE
  5
4C5
100
AcDbEntity
  8
RACCORDO
100
AcDbLine
 62
250
  6
CONTINUOUS
 10
6.6327673644
 20
-2.7319765459
 11
6.6327106947
 21
-1.0269957425
  0
LINE
  5
4C6
100
AcDbEntity
  8
RACCORDO
100
AcDbLine
 62
250
  6
CONTINUOUS
 10
6.845130275
 20
3.4384808116
 11
6.8451869447
 21
1.7335000082
  0
LINE
  5
4C7
100
AcDbEntity
  8
DRAFT
100
AcDbLine
 62
7
  6
CONTINUOUS
 10
6.9889488197
 20
-21.768986637
 11
6.9889488197
 21
-20.2225710258
  0
LINE
  5
4C8
100
AcDbEntity
  8
DRAFT
100
AcDbLine
 62
7
  6
CONTINUOUS
 10
6.9889488197
 20
20.9290752915
 11
6.9889488197
 21
22.4754909026
  0
LINE
  5
4C9
100
AcDbEntity
  8
RACCORDO
100
AcDbLine
 62
250
  6
CONTINUOUS
 10
7.1450850468
 20
3.4654244774
 11
7.1451412532
 21
1.7386451378
  0
LINE
  5
4CA
100
AcDbEntity
  8
RACCORDO
100
AcDbLine
 62
7
  6
CONTINUOUS
 10
7.1487358865
 20
1.7422397711
 11
7.1480829739
 21
6.2624319785
  0
LINE
  5
4CB
100
AcDbEntity
  8
DRAFT
100
AcDbLine
 62
7
  6
CONTINUOUS
 10
7.6889488197
 20
1.1132521328
 11
7.6889488197
 21
0.5132521328
  0
LINE
  5
4CC
100
AcDbEntity
  8
DRAFT
100
AcDbLine
 62
7
  6
CONTINUOUS
 10
7.6889488197
 20
0.1932521328
 11
7.6889488197
 21
-0.4067478672
  0
LINE
  5
4CD
100
AcDbEntity
  8
RACCORDO
100
AcDbLine
 62
7
  6
CONTINUOUS
 10
7.6889488197
 20
-0.4067478672
 11
7.6889488197
 21
-1.0242029321
  0
LINE
  5
4CE
100
AcDbEntity
  8
RACCORDO
100
AcDbLine
 62
7
  6
CONTINUOUS
 10
7.6889488197
 20
1.1132521328
 11
7.6889488197
 21
1.7307071978
  0
LINE
  5
4CF
100
AcDbEntity
  8
RACCORDO
100
AcDbLine
 62
7
  6
CONTINUOUS
 10
7.1480829739
 20
-5.5559277128
 11
7.1487358865
 21
-1.0357355054
  0
LINE
  5
4D0
100
AcDbEntity
  8
RACCORDO
100
AcDbLine
 62
250
  6
CONTINUOUS
 10
7.1249071325
 20
-3.9178634486
 11
7.1249689373
 21
-5.3775227536
  0
LINE
  5
4D1
100
AcDbEntity
  8
RACCORDO
100
AcDbLine
 62
250
  6
CONTINUOUS
 10
6.6526629545
 20
-5.5374364309
 11
6.6528396036
 21
-3.8060150529
  0
LINE
  5
4D2
100
AcDbEntity
  8
RACCORDO
100
AcDbLine
 62
250
  6
CONTINUOUS
 10
6.8252346849
 20
6.2439406966
 11
6.8250580357
 21
4.5125193186
  0
LINE
  5
4D3
100
AcDbEntity
  8
RACCORDO
100
AcDbLine
 62
250
  6
CONTINUOUS
 10
7.1249689373
 20
6.0840270193
 11
7.1249071325
 21
4.6243677143
  0
LINE
  5
4D4
100
AcDbEntity
  8
RACCORDO
100
AcDbLine
 62
250
  6
CONTINUOUS
 10
6.6526308156
 20
4.4306199294
 11
6.6528824301
 21
6.1455188321
  0
LINE
  5
4D5
100
AcDbEntity
  8
RACCORDO
100
AcDbLine
 62
250
  6
CONTINUOUS
 10
6.8252668238
 20
-3.7241156637
 11
6.8250152092
 21
-5.4390145664
  0
LINE
  5
4D6
100
AcDbEntity
  8
RACCORDO
100
AcDbLine
 62
250
  6
CONTINUOUS
 10
6.6327106947
 20
1.7335000082
 11
6.6329264948
 21
3.4817904814
  0
LINE
  5
4D7
100
AcDbEntity
  8
RACCORDO
100
AcDbLine
 62
250
  6
CONTINUOUS
 10
6.8451869447
 20
-1.0269957425
 11
6.8449711446
 21
-2.7752862157
  0
LINE
  5
4D8
100
AcDbEntity
  8
RACCORDO
100
AcDbLine
 62
250
  6
CONTINUOUS
 10
7.1451412532
 20
-1.0321408721
 11
7.144664494
 21
-2.8955998269
  0
LINE
  5
4D9
100
AcDbEntity
  8
RACCORDO
100
AcDbLine
 62
250
  6
CONTINUOUS
 10
7.1251030512
 20
-3.8672304212
 11
7.1249071325
 21
-3.9178634486
  0
LINE
  5
4DA
100
AcDbEntity
  8
RACCORDO
100
AcDbLine
 62
250
  6
CONTINUOUS
 10
6.6518255837
 20
-5.7046386686
 11
6.6526629545
 21
-5.5374364309
  0
LINE
  5
4DB
100
AcDbEntity
  8
RACCORDO
100
AcDbLine
 62
250
  6
CONTINUOUS
 10
6.8260720557
 20
6.4111429343
 11
6.8252346849
 21
6.2439406966
  0
LINE
  5
4DC
100
AcDbEntity
  8
RACCORDO
100
AcDbLine
 62
250
  6
CONTINUOUS
 10
6.6517138866
 20
4.2589053536
 11
6.6526308156
 21
4.4306199294
  0
LINE
  5
4DD
100
AcDbEntity
  8
RACCORDO
100
AcDbLine
 62
250
  6
CONTINUOUS
 10
6.8261837527
 20
-3.5524010879
 11
6.8252668238
 21
-3.7241156637
  0
LINE
  5
4DE
100
AcDbEntity
  8
RACCORDO
100
AcDbLine
 62
250
  6
CONTINUOUS
 10
7.1253521432
 20
6.1417229718
 11
7.1249689373
 21
6.0840270193
  0
LINE
  5
4DF
100
AcDbEntity
  8
RACCORDO
100
AcDbLine
 62
250
  6
CONTINUOUS
 10
6.6329264948
 20
3.4817904814
 11
6.6335538596
 21
3.5659502665
  0
LINE
  5
4E0
100
AcDbEntity
  8
RACCORDO
100
AcDbLine
 62
250
  6
CONTINUOUS
 10
6.8449711446
 20
-2.7752862157
 11
6.8443437798
 21
-2.8594460008
  0
LINE
  5
4E1
100
AcDbEntity
  8
RACCORDO
100
AcDbLine
 62
250
  6
CONTINUOUS
 10
7.144664494
 20
-2.8955998269
 11
7.1432659213
 21
-3.0887522407
  0
LINE
  5
4E2
100
AcDbEntity
  8
RACCORDO
100
AcDbLine
 62
250
  6
CONTINUOUS
 10
6.6512485005
 20
-5.7662719917
 11
6.6518255837
 21
-5.7046386686
  0
LINE
  5
4E3
100
AcDbEntity
  8
RACCORDO
100
AcDbLine
 62
250
  6
CONTINUOUS
 10
6.8266491388
 20
6.4727762574
 11
6.8260720557
 21
6.4111429343
  0
LINE
  5
4E4
100
AcDbEntity
  8
RACCORDO
100
AcDbLine
 62
250
  6
CONTINUOUS
 10
6.6512130636
 20
4.2089145656
 11
6.6517138866
 21
4.2589053536
  0
LINE
  5
4E5
100
AcDbEntity
  8
RACCORDO
100
AcDbLine
 62
250
  6
CONTINUOUS
 10
6.8266845758
 20
-3.5024102999
 11
6.8261837527
 21
-3.5524010879
  0
LINE
  5
4E6
100
AcDbEntity
  8
RACCORDO
100
AcDbLine
 62
250
  6
CONTINUOUS
 10
7.1255239649
 20
-3.8208095353
 11
7.1251030512
 21
-3.8672304212
  0
LINE
  5
4E7
100
AcDbEntity
  8
RACCORDO
100
AcDbLine
 62
250
  6
CONTINUOUS
 10
7.1432659213
 20
-3.0887522407
 11
7.1418592381
 21
-3.2034036963
  0
LINE
  5
4E8
100
AcDbEntity
  8
RACCORDO
100
AcDbLine
 62
250
  6
CONTINUOUS
 10
7.1257717073
 20
6.1752898613
 11
7.1253521432
 21
6.1417229718
  0
LINE
  5
4E9
100
AcDbEntity
  8
RACCORDO
100
AcDbLine
 62
250
  6
CONTINUOUS
 10
6.6335538596
 20
3.5659502665
 11
6.6345829267
 21
3.6449051764
  0
LINE
  5
4EA
100
AcDbEntity
  8
RACCORDO
100
AcDbLine
 62
250
  6
CONTINUOUS
 10
6.8443437798
 20
-2.8594460008
 11
6.8433147127
 21
-2.9384009107
  0
LINE
  5
4EB
100
AcDbEntity
  8
RACCORDO
100
AcDbLine
 62
250
  6
CONTINUOUS
 10
7.1259158004
 20
-3.7940059571
 11
7.1255239649
 21
-3.8208095353
  0
LWPOLYLINE
  5
4EC
100
AcDbEntity
  8
RACCORDO
100
AcDbPolyline
 62
250
  6
CONTINUOUS
 90
3
 70
0
 10
7.1418592381
 20
-3.2034036963
 10
7.1401503485
 20
-3.3013423796
 10
7.1391908991
 20
-3.3434604536
  0
LWPOLYLINE
  5
4ED
100
AcDbEntity
  8
RACCORDO
100
AcDbPolyline
 62
250
  6
CONTINUOUS
 90
6
 70
0
 10
6.6345829267
 20
3.6449051764
 10
6.6359849666
 20
3.716406734
 10
6.6368057219
 20
3.7485807797
 10
6.6376942043
 20
3.7780097381
 10
6.638656462
 20
3.804499081
 10
6.639692495
 20
3.8278582818
  0
LWPOLYLINE
  5
4EE
100
AcDbEntity
  8
RACCORDO
100
AcDbPolyline
 62
250
  6
CONTINUOUS
 90
6
 70
0
 10
6.8433147127
 20
-2.9384009107
 10
6.8419126728
 20
-3.0099024683
 10
6.8410919175
 20
-3.042076514
 10
6.8402034351
 20
-3.0715054724
 10
6.8392411774
 20
-3.0979948153
 10
6.8382051443
 20
-3.1213540161
  0
LINE
  5
4EF
100
AcDbEntity
  8
RACCORDO
100
AcDbLine
 62
250
  6
CONTINUOUS
 10
7.1263792334
 20
-3.7717344945
 11
7.1259158004
 21
-3.7940059571
  0
LINE
  5
4F0
100
AcDbEntity
  8
RACCORDO
100
AcDbLine
 62
250
  6
CONTINUOUS
 10
6.6396925663
 20
3.8278582818
 11
6.6512130636
 21
4.2089145656
  0
LINE
  5
4F1
100
AcDbEntity
  8
RACCORDO
100
AcDbLine
 62
250
  6
CONTINUOUS
 10
6.8382050731
 20
-3.1213540161
 11
6.8266845758
 21
-3.5024102999
  0
LINE
  5
4F2
100
AcDbEntity
  8
RACCORDO
100
AcDbLine
 62
250
  6
CONTINUOUS
 10
7.1391908991
 20
-3.3434604536
 11
7.1263792334
 21
-3.7717344945
  0
LWPOLYLINE
  5
4F3
100
AcDbEntity
  8
RACCORDO
100
AcDbPolyline
 62
7
  6
CONTINUOUS
 90
16
 70
0
 10
7.1480829739
 20
-5.5559277128
 10
7.146438446
 20
-5.5872415518
 10
7.1415347088
 20
-5.6182262119
 10
7.1334220815
 20
-5.6485424616
 10
7.1221799145
 20
-5.6778722943
 10
7.1079314494
 20
-5.7058776891
 10
7.0908571985
 20
-5.7322116076
 10
7.0711874332
 20
-5.756554685
 10
7.0491198275
 20
-5.778693011
 10
7.024817037
 20
-5.7984554054
 10
6.9984730648
 20
-5.8156435609
 10
6.9704157031
 20
-5.8300058413
 10
6.9410357277
 20
-5.8413342402
 10
6.9106914368
 20
-5.8495052021
 10
6.8796897251
 20
-5.8544507964
 10
6.8483721617
 20
-5.8561255177
  0
LWPOLYLINE
  5
4F4
100
AcDbEntity
  8
RACCORDO
100
AcDbPolyline
 62
250
  6
CONTINUOUS
 90
13
 70
0
 10
7.1283234643
 20
-5.5361682032
 10
7.1257463845
 20
-5.5753125502
 10
7.1180830681
 20
-5.6137873858
 10
7.105464586
 20
-5.6509346499
 10
7.0881067602
 20
-5.6861189887
 10
7.066306473
 20
-5.7187386214
 10
7.0404365888
 20
-5.7482356335
 10
7.010939577
 20
-5.7741055182
 10
6.9783199441
 20
-5.7959058061
 10
6.943135605
 20
-5.8132636325
 10
6.9059883402
 20
-5.8258821151
 10
6.8675135038
 20
-5.8335454318
 10
6.8283691557
 20
-5.8361225117
  0
LWPOLYLINE
  5
4F5
100
AcDbEntity
  8
RACCORDO
100
AcDbPolyline
 62
250
  6
CONTINUOUS
 90
7
 70
0
 10
5.5450834471
 20
-17.2489932361
 10
5.5450027986
 20
-17.2500469306
 10
5.5449255204
 20
-17.2514878943
 10
5.5448516126
 20
-17.2533161271
 10
5.5447805063
 20
-17.2555548029
 10
5.5447127703
 20
-17.2581807479
 10
5.5445926684
 20
-17.26439318
  0
LWPOLYLINE
  5
4F6
100
AcDbEntity
  8
RACCORDO
100
AcDbPolyline
 62
250
  6
CONTINUOUS
 90
13
 70
0
 10
6.3397384122
 20
-3.3811667433
 10
6.342616338
 20
-3.3474386363
 10
6.3505216601
 20
-3.3142818142
 10
6.363320375
 20
-3.2822573492
 10
6.3807956655
 20
-3.2519071361
 10
6.402651623
 20
-3.2237446419
 10
6.4285183013
 20
-3.1982462416
 10
6.4579578527
 20
-3.1758432993
 10
6.4904720371
 20
-3.1569147473
 10
6.5255107713
 20
-3.1417806657
 10
6.5624812104
 20
-3.1306970162
 10
6.6007577395
 20
-3.1238512594
 10
6.6396927207
 20
-3.1213591217
  0
LWPOLYLINE
  5
4F7
100
AcDbEntity
  8
RACCORDO
100
AcDbPolyline
 62
250
  6
CONTINUOUS
 90
13
 70
0
 10
6.351258755
 20
-3.762217921
 10
6.3541362865
 20
-3.7284922603
 10
6.362040644
 20
-3.6953372703
 10
6.3748380783
 20
-3.6633139656
 10
6.3923120443
 20
-3.6329642114
 10
6.4141668657
 20
-3.6048015548
 10
6.4400327378
 20
-3.5793025352
 10
6.469471985
 20
-3.5568986207
 10
6.5019864669
 20
-3.537968907
 10
6.5370260069
 20
-3.5228337034
 10
6.5739977023
 20
-3.511749112
 10
6.6122759562
 20
-3.5049026948
 10
6.6512130636
 20
-3.5024102999
  0
LWPOLYLINE
  5
4F8
100
AcDbEntity
  8
RACCORDO
100
AcDbPolyline
 62
250
  6
CONTINUOUS
 90
13
 70
0
 10
7.1266388844
 20
4.4687221867
 10
7.1237613529
 20
4.434996526
 10
7.1158569954
 20
4.401841536
 10
7.1030595611
 20
4.3698182313
 10
7.0855855951
 20
4.3394684771
 10
7.0637307737
 20
4.3113058205
 10
7.0378649016
 20
4.2858068009
 10
7.0084256544
 20
4.2634028864
 10
6.9759111725
 20
4.2444731727
 10
6.9408716324
 20
4.2293379691
 10
6.9038999371
 20
4.2182533777
 10
6.8656216832
 20
4.2114069605
 10
6.8266845758
 20
4.2089145656
  0
LWPOLYLINE
  5
4F9
100
AcDbEntity
  8
RACCORDO
100
AcDbPolyline
 62
250
  6
CONTINUOUS
 90
13
 70
0
 10
7.1381592272
 20
4.087671009
 10
7.1352813014
 20
4.053942902
 10
7.1273759793
 20
4.0207860799
 10
7.1145772644
 20
3.9887616149
 10
7.0971019739
 20
3.9584114018
 10
7.0752460163
 20
3.9302489076
 10
7.0493793381
 20
3.9047505073
 10
7.0199397866
 20
3.882347565
 10
6.9874256023
 20
3.863419013
 10
6.9523868681
 20
3.8482849314
 10
6.915416429
 20
3.8372012819
 10
6.8771398999
 20
3.8303555251
 10
6.8382049187
 20
3.8278633874
  0
LINE
  5
4FA
100
AcDbEntity
  8
RACCORDO
100
AcDbLine
 62
250
  6
CONTINUOUS
 10
5.3204679263
 20
-16.7467478672
 11
5.2951214172
 21
-17.0027923702
  0
LINE
  5
4FB
100
AcDbEntity
  8
RACCORDO
100
AcDbLine
 62
250
  6
CONTINUOUS
 10
5.5740358563
 20
-16.9565227749
 11
5.5450834471
 21
-17.2489932361
  0
LWPOLYLINE
  5
4FC
100
AcDbEntity
  8
RACCORDO
100
AcDbPolyline
 62
250
  6
CONTINUOUS
 90
5
 70
0
 10
6.6495284836
 20
-5.8361225117
 10
6.649895062
 20
-5.8325422421
 10
6.650249675
 20
-5.8236438929
 10
6.6505923226
 20
-5.8095228119
 10
6.6512485005
 20
-5.7662719917
  0
LWPOLYLINE
  5
4FD
100
AcDbEntity
  8
RACCORDO
100
AcDbPolyline
 62
250
  6
CONTINUOUS
 90
8
 70
0
 10
6.3495741751
 20
-5.5361682032
 10
6.3499383713
 20
-5.5346779392
 10
6.3502914284
 20
-5.5311629915
 10
6.3506333465
 20
-5.5256233601
 10
6.3509678139
 20
-5.5179560383
 10
6.3512911422
 20
-5.5082640328
 10
6.3515922666
 20
-5.496856363
 10
6.3521259321
 20
-5.4687855956
  0
LINE
  5
4FE
100
AcDbEntity
  8
RACCORDO
100
AcDbLine
 62
250
  6
CONTINUOUS
 10
-5.8542576725
 20
-15.2399924355
 11
-5.8750658466
 21
-15.2608006097
  0
LINE
  5
4FF
100
AcDbEntity
  8
RACCORDO
100
AcDbLine
 62
250
  6
CONTINUOUS
 10
-5.604291225
 20
-15.4899498356
 11
-5.6251066221
 21
-15.5107652327
  0
LINE
  5
500
100
AcDbEntity
  8
DRAFT
100
AcDbLine
 62
7
  6
CONTINUOUS
 10
9.4348381184
 20
-1.0242029321
 11
9.4261750165
 21
-1.032866034
  0
LINE
  5
501
100
AcDbEntity
  8
RACCORDO
100
AcDbLine
 62
250
  6
CONTINUOUS
 10
-5.8750658393
 20
15.967304868
 11
-5.8542576725
 21
15.9464967012
  0
LINE
  5
502
100
AcDbEntity
  8
RACCORDO
100
AcDbLine
 62
250
  6
CONTINUOUS
 10
-5.6251066221
 20
16.2172694984
 11
-5.604291225
 21
16.1964541013
  0
LINE
  5
503
100
AcDbEntity
  8
DRAFT
100
AcDbLine
 62
7
  6
CONTINUOUS
 10
9.4348381184
 20
1.7307071978
 11
9.4261750165
 21
1.7393702997
  0
LINE
  5
504
100
AcDbEntity
  8
DRAFT
100
AcDbLine
 62
7
  6
CONTINUOUS
 10
7.3973738127
 20
22.5125648386
 11
7.4721675489
 21
21.0318409827
  0
LINE
  5
505
100
AcDbEntity
  8
DRAFT
100
AcDbLine
 62
7
  6
CONTINUOUS
 10
9.4773754028
 20
21.0318409827
 11
9.4889488197
 21
13.4532521328
  0
LINE
  5
506
100
AcDbEntity
  8
DRAFT
100
AcDbLine
 62
7
  6
CONTINUOUS
 10
9.4297237479
 20
-13.5967681169
 11
9.4337779206
 21
-20.018657955
  0
LINE
  5
507
100
AcDbEntity
  8
0
100
AcDbLine
 62
7
  6
CONTINUOUS
 10
9.0889488197
 20
14.3032521328
 11
9.0889488197
 21
10.8032521328
  0
LINE
  5
508
100
AcDbEntity
  8
0
100
AcDbLine
 62
7
  6
CONTINUOUS
 10
9.0889488197
 20
-13.5967478672
 11
9.0889488197
 21
-10.0967478672
  0
LINE
  5
509
100
AcDbEntity
  8
DRAFT
100
AcDbLine
 62
7
  6
CONTINUOUS
 10
9.4261750165
 20
-1.032866034
 11
9.4281656584
 21
-10.0967654508
  0
LINE
  5
50A
100
AcDbEntity
  8
DRAFT
100
AcDbLine
 62
7
  6
CONTINUOUS
 10
9.4348381184
 20
1.7307071978
 11
9.4348381184
 21
0.5132521328
  0
LINE
  5
50B
100
AcDbEntity
  8
DRAFT
100
AcDbLine
 62
7
  6
CONTINUOUS
 10
9.4348381184
 20
-1.0242029321
 11
9.4348381184
 21
0.1932521328
  0
LINE
  5
50C
100
AcDbEntity
  8
DRAFT
100
AcDbLine
 62
7
  6
CONTINUOUS
 10
9.4720719206
 20
14.3032521328
 11
9.4720719206
 21
10.8032521328
  0
LINE
  5
50D
100
AcDbEntity
  8
DRAFT
100
AcDbLine
 62
7
  6
CONTINUOUS
 10
9.4720719206
 20
-13.5967478672
 11
9.4720719206
 21
-10.0967478672
  0
LINE
  5
50E
100
AcDbEntity
  8
DRAFT
100
AcDbLine
 62
7
  6
CONTINUOUS
 10
9.4889488197
 20
0.220305423
 11
9.4889488197
 21
-12.7467478672
  0
LINE
  5
50F
100
AcDbEntity
  8
DRAFT
100
AcDbLine
 62
7
  6
CONTINUOUS
 10
9.4889488197
 20
0.4861988427
 11
9.4889488197
 21
13.4532521328
  0
LINE
  5
510
100
AcDbEntity
  8
DRAFT
100
AcDbLine
 62
7
  6
CONTINUOUS
 10
9.4281656584
 20
10.8032697165
 11
9.4261750165
 21
1.7393702997
  0
LINE
  5
511
100
AcDbEntity
  8
DRAFT
100
AcDbLine
 62
7
  6
CONTINUOUS
 10
9.4337779206
 20
20.7251622207
 11
9.4297237479
 21
14.3032723826
  0
LINE
  5
512
100
AcDbEntity
  8
DRAFT
100
AcDbLine
 62
7
  6
CONTINUOUS
 10
9.4773754028
 20
-20.325336717
 11
9.4889488197
 21
-12.7467478672
  0
LINE
  5
513
100
AcDbEntity
  8
DRAFT
100
AcDbLine
 62
7
  6
CONTINUOUS
 10
7.4721675489
 20
-20.325336717
 11
7.3973738127
 21
-21.8060605729
  0
LINE
  5
514
100
AcDbEntity
  8
DRAFT
100
AcDbLine
 62
7
  6
CONTINUOUS
 10
5.5917762869
 20
-19.9939479556
 11
5.5592752093
 21
-20.2225710258
  0
LWPOLYLINE
  5
515
100
AcDbEntity
  8
RACCORDO
100
AcDbPolyline
 62
250
  6
CONTINUOUS
 90
13
 70
0
 10
5.5444440161
 20
-17.6013703814
 10
5.5418373896
 20
-17.6150246877
 10
5.5350831364
 20
-17.62845004
 10
5.5242945111
 20
-17.6414213236
 10
5.509652416
 20
-17.6537210373
 10
5.4914023683
 20
-17.6651429409
 10
5.4698503828
 20
-17.6754955132
 10
5.4453578409
 20
-17.6846051633
 10
5.4183354308
 20
-17.6923191416
 10
5.3892362613
 20
-17.6985081009
 10
5.3585482643
 20
-17.7030682656
 10
5.3267860126
 20
-17.7059231711
 10
5.2944820923
 20
-17.7070249469
  0
LWPOLYLINE
  5
516
100
AcDbEntity
  8
RACCORDO
100
AcDbPolyline
 62
250
  6
CONTINUOUS
 90
8
 70
0
 10
5.5748933779
 20
-15.5107652327
 10
5.5748013104
 20
-15.5111531073
 10
5.5747123218
 20
-15.5120458556
 10
5.574626412
 20
-15.5134434776
 10
5.5745427446
 20
-15.5153723772
 10
5.574462156
 20
-15.5178061505
 10
5.5743871557
 20
-15.520665586
 10
5.5742542793
 20
-15.5276871045
  0
LINE
  5
517
100
AcDbEntity
  8
RACCORDO
100
AcDbLine
 62
250
  6
CONTINUOUS
 10
6.3289811222
 20
-5.5567612561
 11
6.3495741751
 21
-5.5361682032
  0
LINE
  5
518
100
AcDbEntity
  8
RACCORDO
100
AcDbLine
 62
250
  6
CONTINUOUS
 10
6.6293029552
 20
-5.8563480402
 11
6.6495284836
 21
-5.8361225117
  0
LINE
  5
519
100
AcDbEntity
  8
RACCORDO
100
AcDbLine
 62
250
  6
CONTINUOUS
 10
6.3495741751
 20
6.2426724689
 11
6.3289811222
 21
6.2632655218
  0
LINE
  5
51A
100
AcDbEntity
  8
RACCORDO
100
AcDbLine
 62
250
  6
CONTINUOUS
 10
6.6495284836
 20
6.5426267774
 11
6.6293029552
 21
6.5628523059
  0
LWPOLYLINE
  5
51B
100
AcDbEntity
  8
RACCORDO
100
AcDbPolyline
 62
250
  6
CONTINUOUS
 90
13
 70
0
 10
5.5444440161
 20
18.3078746471
 10
5.5418373889
 20
18.3215289549
 10
5.5350831341
 20
18.3349543084
 10
5.5242945064
 20
18.3479255928
 10
5.5096524087
 20
18.3602253069
 10
5.4914023585
 20
18.3716472105
 10
5.469850371
 20
18.3819997823
 10
5.4453578282
 20
18.3911094317
 10
5.4183354185
 20
18.3988234091
 10
5.3892362506
 20
18.4050123676
 10
5.3585482561
 20
18.4095725315
 10
5.326786008
 20
18.4124274367
 10
5.2944820923
 20
18.4135292126
  0
LINE
  5
51C
100
AcDbEntity
  8
DRAFT
100
AcDbLine
 62
7
  6
CONTINUOUS
 10
5.5917762869
 20
20.7004522213
 11
5.5592752093
 21
20.9290752915
  0
LINE
  5
51D
100
AcDbEntity
  8
RACCORDO
100
AcDbLine
 62
7
  6
CONTINUOUS
 10
10.6693344525
 20
22.0148466843
 11
10.6889488197
 21
13.4532521328
  0
LINE
  5
51E
100
AcDbEntity
  8
RACCORDO
100
AcDbLine
 62
7
  6
CONTINUOUS
 10
10.6889488197
 20
-12.7467478672
 11
10.6889488197
 21
-0.1796184312
  0
LINE
  5
51F
100
AcDbEntity
  8
RACCORDO
100
AcDbLine
 62
7
  6
CONTINUOUS
 10
10.6889488197
 20
0.8861226969
 11
10.6889488197
 21
13.4532521328
  0
LINE
  5
520
100
AcDbEntity
  8
RACCORDO
100
AcDbLine
 62
7
  6
CONTINUOUS
 10
10.6693344525
 20
-21.3083424186
 11
10.6889488197
 21
-12.7467478672
  0
LINE
  5
521
100
AcDbEntity
  8
DRAFT
100
AcDbLine
 62
7
  6
CONTINUOUS
 10
9.4720719206
 20
10.8032521328
 11
9.0889488197
 21
10.8032521328
  0
LINE
  5
522
100
AcDbEntity
  8
DRAFT
100
AcDbLine
 62
7
  6
CONTINUOUS
 10
-9.9110511803
 20
10.8032521328
 11
-10.2941742813
 21
10.8032521328
  0
LINE
  5
523
100
AcDbEntity
  8
DRAFT
100
AcDbLine
 62
7
  6
CONTINUOUS
 10
10.6889488197
 20
13.4532521328
 11
9.4889488197
 21
13.4532521328
  0
LINE
  5
524
100
AcDbEntity
  8
DRAFT
100
AcDbLine
 62
7
  6
CONTINUOUS
 10
-10.3110511803
 20
13.4532521328
 11
-11.5110511803
 21
13.4532521328
  0
LINE
  5
525
100
AcDbEntity
  8
RACCORDO
100
AcDbLine
 62
250
  6
CONTINUOUS
 10
5.3455190931
 20
-15.2402156699
 11
5.3249341534
 21
-15.2608006097
  0
LINE
  5
526
100
AcDbEntity
  8
DRAFT
100
AcDbLine
 62
7
  6
CONTINUOUS
 10
9.4720719206
 20
14.3032521328
 11
9.0889488197
 21
14.3032521328
  0
LINE
  5
527
100
AcDbEntity
  8
DRAFT
100
AcDbLine
 62
7
  6
CONTINUOUS
 10
-9.9110511803
 20
14.3032521328
 11
-10.2941742813
 21
14.3032521328
  0
LINE
  5
528
100
AcDbEntity
  8
RACCORDO
100
AcDbLine
 62
250
  6
CONTINUOUS
 10
5.3249341607
 20
15.967304868
 11
5.3455190931
 21
15.9467199356
  0
LINE
  5
529
100
AcDbEntity
  8
RACCORDO
100
AcDbLine
 62
250
  6
CONTINUOUS
 10
5.5951322698
 20
-15.4905263408
 11
5.5748933779
 21
-15.5107652327
  0
LINE
  5
52A
100
AcDbEntity
  8
RACCORDO
100
AcDbLine
 62
7
  6
CONTINUOUS
 10
5.0321553119
 20
15.9464967012
 11
5.3455190931
 21
15.9467199356
  0
LINE
  5
52B
100
AcDbEntity
  8
RACCORDO
100
AcDbLine
 62
250
  6
CONTINUOUS
 10
-6.147036514
 20
15.9673048754
 11
-5.8750658393
 21
15.967304868
  0
LINE
  5
52C
100
AcDbEntity
  8
RACCORDO
100
AcDbLine
 62
250
  6
CONTINUOUS
 10
5.052963486
 20
15.9673048754
 11
5.3249341607
 21
15.967304868
  0
LINE
  5
52D
100
AcDbEntity
  8
RACCORDO
100
AcDbLine
 62
250
  6
CONTINUOUS
 10
-6.3961382169
 20
16.2672618832
 11
-5.6259641437
 21
16.2672618832
  0
LINE
  5
52E
100
AcDbEntity
  8
RACCORDO
100
AcDbLine
 62
250
  6
CONTINUOUS
 10
4.8038617831
 20
16.2672618832
 11
5.5740358563
 21
16.2672618832
  0
LINE
  5
52F
100
AcDbEntity
  8
RACCORDO
100
AcDbLine
 62
7
  6
CONTINUOUS
 10
-6.1676214537
 20
15.9467199356
 11
-5.8542576725
 21
15.9464967012
  0
LWPOLYLINE
  5
530
100
AcDbEntity
  8
RACCORDO
100
AcDbPolyline
 62
7
  6
CONTINUOUS
 90
16
 70
0
 10
5.0321553119
 20
15.9464967012
 10
5.0059766538
 20
15.9478515837
 10
4.9800817812
 20
15.9519401316
 10
4.9547552057
 20
15.9587193246
 10
4.9302612237
 20
15.9681227854
 10
4.9068854596
 20
15.9800457111
 10
4.8849244343
 20
15.9943313523
 10
4.864637282
 20
16.010790044
 10
4.8462085926
 20
16.0292489313
 10
4.8297988025
 20
16.0495413535
 10
4.8155795505
 20
16.0714672384
 10
4.8037237605
 20
16.0947735707
 10
4.7943676524
 20
16.1191975413
 10
4.7876152582
 20
16.1444690942
 10
4.7835403869
 20
16.1703154205
 10
4.7821888644
 20
16.1964541013
  0
LWPOLYLINE
  5
531
100
AcDbEntity
  8
RACCORDO
100
AcDbPolyline
 62
7
  6
CONTINUOUS
 90
16
 70
0
 10
-6.1676214537
 20
15.9467199356
 10
-6.1937483624
 20
15.9481112808
 10
-6.2195951847
 20
15.9522326218
 10
-6.2448776892
 20
15.9590416601
 10
-6.2693314364
 20
15.9684731795
 10
-6.2926710586
 20
15.9804227147
 10
-6.3146007434
 20
15.9947329066
 10
-6.3348611604
 20
16.0112144798
 10
-6.3532673715
 20
16.0296952581
 10
-6.3696593121
 20
16.0500082268
 10
-6.3838647588
 20
16.071953284
 10
-6.3957103787
 20
16.0952780057
 10
-6.4050602111
 20
16.1197201571
 10
-6.4118095378
 20
16.1450099414
 10
-6.4158832688
 20
16.1708743258
 10
-6.4172346304
 20
16.1970306065
  0
LINE
  5
532
100
AcDbEntity
  8
RACCORDO
100
AcDbLine
 62
250
  6
CONTINUOUS
 10
5.5748933779
 20
16.2172694984
 11
5.5951322698
 21
16.1970306065
  0
LINE
  5
533
100
AcDbEntity
  8
RACCORDO
100
AcDbLine
 62
7
  6
CONTINUOUS
 10
-5.8795320737
 20
17.4532521328
 11
-6.1425702869
 21
17.4532521328
  0
LINE
  5
534
100
AcDbEntity
  8
RACCORDO
100
AcDbLine
 62
7
  6
CONTINUOUS
 10
5.0574297131
 20
17.4532521328
 11
5.3204679263
 21
17.4532521328
  0
LINE
  5
535
100
AcDbEntity
  8
RACCORDO
100
AcDbLine
 62
250
  6
CONTINUOUS
 10
-6.1172237778
 20
17.7092966359
 11
-5.9048785828
 21
17.7092966359
  0
LINE
  5
536
100
AcDbEntity
  8
RACCORDO
100
AcDbLine
 62
250
  6
CONTINUOUS
 10
5.0827762222
 20
17.7092966359
 11
5.2951214172
 21
17.7092966359
  0
LINE
  5
537
100
AcDbEntity
  8
RACCORDO
100
AcDbLine
 62
250
  6
CONTINUOUS
 10
-6.3664646065
 20
18.0047378894
 11
-5.6556377541
 21
18.0047378894
  0
LINE
  5
538
100
AcDbEntity
  8
RACCORDO
100
AcDbLine
 62
250
  6
CONTINUOUS
 10
4.8335353935
 20
18.0047378894
 11
5.5443622459
 21
18.0047378894
  0
LINE
  5
539
100
AcDbEntity
  8
RACCORDO
100
AcDbLine
 62
250
  6
CONTINUOUS
 10
-6.3664646065
 20
18.2867437341
 11
-5.6556377541
 21
18.2867437341
  0
LINE
  5
53A
100
AcDbEntity
  8
RACCORDO
100
AcDbLine
 62
250
  6
CONTINUOUS
 10
4.8335353935
 20
18.2867437341
 11
5.5443622459
 21
18.2867437341
  0
LINE
  5
53B
100
AcDbEntity
  8
RACCORDO
100
AcDbLine
 62
250
  6
CONTINUOUS
 10
-6.1165844535
 20
18.4135292816
 11
-5.9055179077
 21
18.4135292126
  0
LINE
  5
53C
100
AcDbEntity
  8
RACCORDO
100
AcDbLine
 62
250
  6
CONTINUOUS
 10
5.0834155465
 20
18.4135292816
 11
5.2944820923
 21
18.4135292126
  0
LINE
  5
53D
100
AcDbEntity
  8
DRAFT
100
AcDbLine
 62
7
  6
CONTINUOUS
 10
6.9889488197
 20
20.9290752915
 11
7.4721675489
 21
21.0318409827
  0
LINE
  5
53E
100
AcDbEntity
  8
DRAFT
100
AcDbLine
 62
7
  6
CONTINUOUS
 10
-7.8110511803
 20
20.9290752915
 11
-8.2942699095
 21
21.0318409827
  0
LINE
  5
53F
100
AcDbEntity
  8
DRAFT
100
AcDbLine
 62
7
  6
CONTINUOUS
 10
-4.2110511803
 20
20.9290752915
 11
-3.7278324511
 21
21.0318409827
  0
LINE
  5
540
100
AcDbEntity
  8
DRAFT
100
AcDbLine
 62
7
  6
CONTINUOUS
 10
6.9889488197
 20
22.4754909026
 11
7.3973738127
 21
22.5125648386
  0
LINE
  5
541
100
AcDbEntity
  8
DRAFT
100
AcDbLine
 62
7
  6
CONTINUOUS
 10
5.5917762869
 20
20.7004522213
 11
9.4337779206
 21
20.7251622207
  0
LINE
  5
542
100
AcDbEntity
  8
DRAFT
100
AcDbLine
 62
7
  6
CONTINUOUS
 10
2.4758352029
 20
20.6892116312
 11
4.7856004957
 21
20.6967883462
  0
LINE
  5
543
100
AcDbEntity
  8
DRAFT
100
AcDbLine
 62
7
  6
CONTINUOUS
 10
0.1662913067
 20
20.6859644676
 11
2.4758352029
 21
20.6892116312
  0
LINE
  5
544
100
AcDbEntity
  8
RACCORDO
100
AcDbLine
 62
7
  6
CONTINUOUS
 10
-5.8868079574
 20
20.7122097454
 11
-6.1352944032
 21
20.7122097454
  0
LINE
  5
545
100
AcDbEntity
  8
RACCORDO
100
AcDbLine
 62
7
  6
CONTINUOUS
 10
5.0647055968
 20
20.7122097454
 11
5.3131920426
 21
20.7122097454
  0
LINE
  5
546
100
AcDbEntity
  8
DRAFT
100
AcDbLine
 62
7
  6
CONTINUOUS
 10
6.9889488197
 20
20.9290752915
 11
5.5592752093
 21
20.9290752915
  0
LINE
  5
547
100
AcDbEntity
  8
DRAFT
100
AcDbLine
 62
7
  6
CONTINUOUS
 10
4.8186224301
 20
20.9290752915
 11
3.3889488197
 21
20.9290752915
  0
LINE
  5
548
100
AcDbEntity
  8
DRAFT
100
AcDbLine
 62
7
  6
CONTINUOUS
 10
-4.2110511803
 20
20.9290752915
 11
-5.6407247907
 21
20.9290752915
  0
LINE
  5
549
100
AcDbEntity
  8
DRAFT
100
AcDbLine
 62
7
  6
CONTINUOUS
 10
-6.3813775699
 20
20.9290752915
 11
-7.8110511803
 21
20.9290752915
  0
LINE
  5
54A
100
AcDbEntity
  8
DRAFT
100
AcDbLine
 62
7
  6
CONTINUOUS
 10
9.4773754028
 20
21.0318409827
 11
7.4721675489
 21
21.0318409827
  0
LINE
  5
54B
100
AcDbEntity
  8
DRAFT
100
AcDbLine
 62
7
  6
CONTINUOUS
 10
2.9057300905
 20
21.0318409827
 11
-3.7278324511
 21
21.0318409827
  0
LINE
  5
54C
100
AcDbEntity
  8
DRAFT
100
AcDbLine
 62
7
  6
CONTINUOUS
 10
-8.2942699095
 20
21.0318409827
 11
-10.2994777634
 21
21.0318409827
  0
LINE
  5
54D
100
AcDbEntity
  8
DRAFT
100
AcDbLine
 62
7
  6
CONTINUOUS
 10
-2.1431260774
 20
20.6870468555
 11
0.1662913067
 21
20.6859644676
  0
LWPOLYLINE
  5
54E
100
AcDbEntity
  8
DRAFT
100
AcDbPolyline
 62
7
  6
CONTINUOUS
 90
3
 70
0
 10
-5.6077028563
 20
20.6967883462
 10
-4.4527964876
 20
20.6924587948
 10
-2.1431260774
 20
20.6870468555
  0
LINE
  5
54F
100
AcDbEntity
  8
DRAFT
100
AcDbLine
 62
7
  6
CONTINUOUS
 10
-10.2558802813
 20
20.7251622207
 11
-6.4138786475
 21
20.7004522213
  0
LINE
  5
550
100
AcDbEntity
  8
DRAFT
100
AcDbLine
 62
7
  6
CONTINUOUS
 10
-7.8110511803
 20
22.4754909026
 11
-8.2194761733
 21
22.5125648386
  0
LINE
  5
551
100
AcDbEntity
  8
DRAFT
100
AcDbLine
 62
7
  6
CONTINUOUS
 10
3.3889488197
 20
20.9290752915
 11
2.9057300905
 21
21.0318409827
  0
LINE
  5
552
100
AcDbEntity
  8
DRAFT
100
AcDbLine
 62
7
  6
CONTINUOUS
 10
-4.2110511803
 20
22.4754909026
 11
-3.8026261873
 21
22.5125648386
  0
LINE
  5
553
100
AcDbEntity
  8
DRAFT
100
AcDbLine
 62
7
  6
CONTINUOUS
 10
6.9889488197
 20
22.4754909026
 11
3.3889488197
 21
22.4754909026
  0
LINE
  5
554
100
AcDbEntity
  8
DRAFT
100
AcDbLine
 62
7
  6
CONTINUOUS
 10
-4.2110511803
 20
22.4754909026
 11
-7.8110511803
 21
22.4754909026
  0
LINE
  5
555
100
AcDbEntity
  8
RACCORDO
100
AcDbLine
 62
7
  6
CONTINUOUS
 10
10.1687080308
 20
22.5125648386
 11
7.3973738127
 21
22.5125648386
  0
LINE
  5
556
100
AcDbEntity
  8
DRAFT
100
AcDbLine
 62
7
  6
CONTINUOUS
 10
2.9805238267
 20
22.5125648386
 11
-3.8026261873
 21
22.5125648386
  0
LINE
  5
557
100
AcDbEntity
  8
RACCORDO
100
AcDbLine
 62
7
  6
CONTINUOUS
 10
-8.2194761733
 20
22.5125648386
 11
-10.9908103914
 21
22.5125648386
  0
LINE
  5
558
100
AcDbEntity
  8
DRAFT
100
AcDbLine
 62
7
  6
CONTINUOUS
 10
3.3889488197
 20
22.4754909026
 11
2.9805238267
 21
22.5125648386
  0
ARC
  5
559
100
AcDbEntity
  8
RACCORDO
100
AcDbCircle
 62
250
  6
CONTINUOUS
 10
2.7639488197
 20
0.3532521328
 40
2.6034300864
100
AcDbArc
 50
270.0
 51
325.0476998388
  0
ARC
  5
55A
100
AcDbEntity
  8
RACCORDO
100
AcDbCircle
 62
250
  6
CONTINUOUS
 10
-3.5860511803
 20
0.3532521328
 40
2.6034300864
100
AcDbArc
 50
214.9535543071
 51
270.0
  0
ARC
  5
55B
100
AcDbEntity
  8
RACCORDO
100
AcDbCircle
 62
250
  6
CONTINUOUS
 10
-3.5860511803
 20
0.3532521328
 40
2.6034300864
100
AcDbArc
 50
90.0
 51
145.0476998388
  0
ARC
  5
55C
100
AcDbEntity
  8
RACCORDO
100
AcDbCircle
 62
250
  6
CONTINUOUS
 10
2.7639488197
 20
0.3532521328
 40
2.6034300864
100
AcDbArc
 50
34.9535543071
 51
90.0
  0
ARC
  5
55D
100
AcDbEntity
  8
RACCORDO
100
AcDbCircle
 62
250
  6
CONTINUOUS
 10
2.7639488197
 20
0.3532521328
 40
2.4034605474
100
AcDbArc
 50
270.0
 51
325.0464456931
  0
ARC
  5
55E
100
AcDbEntity
  8
RACCORDO
100
AcDbCircle
 62
250
  6
CONTINUOUS
 10
-3.5860511803
 20
0.3532521328
 40
2.4034605474
100
AcDbArc
 50
214.9535543069
 51
270.0
  0
ARC
  5
55F
100
AcDbEntity
  8
RACCORDO
100
AcDbCircle
 62
250
  6
CONTINUOUS
 10
-3.5860511803
 20
0.3532521328
 40
2.4034605474
100
AcDbArc
 50
90.0
 51
145.0464456931
  0
ARC
  5
560
100
AcDbEntity
  8
RACCORDO
100
AcDbCircle
 62
250
  6
CONTINUOUS
 10
2.7639488197
 20
0.3532521328
 40
2.4034605474
100
AcDbArc
 50
34.9535543069
 51
90.0
  0
ARC
  5
561
100
AcDbEntity
  8
RACCORDO
100
AcDbCircle
 62
7
  6
CONTINUOUS
 10
2.7639488197
 20
0.3532521328
 40
2.125
100
AcDbArc
 50
270.0
 51
333.4537575263
  0
ARC
  5
562
100
AcDbEntity
  8
RACCORDO
100
AcDbCircle
 62
7
  6
CONTINUOUS
 10
-3.5860511803
 20
0.3532521328
 40
2.125
100
AcDbArc
 50
206.54624268
 51
270.0
  0
ARC
  5
563
100
AcDbEntity
  8
RACCORDO
100
AcDbCircle
 62
7
  6
CONTINUOUS
 10
-3.5860511803
 20
0.3532521328
 40
2.125
100
AcDbArc
 50
90.0
 51
153.4537575263
  0
ARC
  5
564
100
AcDbEntity
  8
RACCORDO
100
AcDbCircle
 62
7
  6
CONTINUOUS
 10
2.7639488197
 20
0.3532521328
 40
2.125
100
AcDbArc
 50
26.54624268
 51
90.0
  0
ARC
  5
565
100
AcDbEntity
  8
RACCORDO
100
AcDbCircle
 62
7
  6
CONTINUOUS
 10
2.7639488197
 20
0.3532521328
 40
1.525
100
AcDbArc
 50
269.9999882847
 51
343.0879461817
  0
ARC
  5
566
100
AcDbEntity
  8
RACCORDO
100
AcDbCircle
 62
7
  6
CONTINUOUS
 10
-3.5860511803
 20
0.3532521328
 40
1.525
100
AcDbArc
 50
196.9120538183
 51
270.0
  0
ARC
  5
567
100
AcDbEntity
  8
RACCORDO
100
AcDbCircle
 62
7
  6
CONTINUOUS
 10
-3.5860511803
 20
0.3532521328
 40
1.525
100
AcDbArc
 50
89.9999882847
 51
163.0879461817
  0
ARC
  5
568
100
AcDbEntity
  8
RACCORDO
100
AcDbCircle
 62
7
  6
CONTINUOUS
 10
2.7639488197
 20
0.3532521328
 40
1.525
100
AcDbArc
 50
16.9120538183
 51
90.0
  0
ELLIPSE
  5
569
100
AcDbEntity
  8
RACCORDO
100
AcDbEllipse
 62
7
  6
CONTINUOUS
 10
10.1691646205
 20
-21.3076596114
 30
0.0
 11
0.4962344879
 21
0.0628595572
 31
0.0
 40
0.9963456432
 41
-1.6972555761
 42
-0.1278292453
  0
ELLIPSE
  5
56A
100
AcDbEntity
  8
RACCORDO
100
AcDbEllipse
 62
7
  6
CONTINUOUS
 10
-10.9912669811
 20
-21.3076596114
 30
0.0
 11
0.4962344879
 21
-0.0628595572
 31
0.0
 40
0.9963456432
 41
-3.0137634083
 42
-1.4443370775
  0
ELLIPSE
  5
56B
100
AcDbEntity
  8
RACCORDO
100
AcDbEllipse
 62
7
  6
CONTINUOUS
 10
-11.1109140633
 20
-0.1797098084
 30
0.0
 11
-0.3796255539
 21
0.1265161514
 31
0.0
 40
0.9996192872
 41
-1.2489924673
 42
0.3215754254
  0
ELLIPSE
  5
56C
100
AcDbEntity
  8
RACCORDO
100
AcDbEllipse
 62
7
  6
CONTINUOUS
 10
10.2888117027
 20
-0.1797098084
 30
0.0
 11
-0.3796255539
 21
-0.1265161514
 31
0.0
 40
0.9996192872
 41
2.8200172282
 42
4.3905851209
  0
ELLIPSE
  5
56D
100
AcDbEntity
  8
RACCORDO
100
AcDbEllipse
 62
7
  6
CONTINUOUS
 10
-5.8907628727
 20
-19.4141550839
 30
0.0
 11
-0.0048148548
 21
0.5915468962
 31
0.0
 40
0.4226067633
 41
-3.1450324184
 42
-1.5900540031
  0
ELLIPSE
  5
56E
100
AcDbEntity
  8
RACCORDO
100
AcDbEllipse
 62
7
  6
CONTINUOUS
 10
5.0686605121
 20
-19.4141550839
 30
0.0
 11
0.0048148548
 21
0.5915468962
 31
0.0
 40
0.4226067633
 41
-4.6931313041
 42
-3.1381528888
  0
ELLIPSE
  5
56F
100
AcDbEntity
  8
RACCORDO
100
AcDbEllipse
 62
7
  6
CONTINUOUS
 10
5.3092371273
 20
-19.4141550839
 30
0.0
 11
-0.0048148548
 21
0.5915468962
 31
0.0
 40
0.4226067633
 41
-3.1450324184
 42
-1.5900540031
  0
ELLIPSE
  5
570
100
AcDbEntity
  8
RACCORDO
100
AcDbEllipse
 62
7
  6
CONTINUOUS
 10
-6.1313394879
 20
-19.4141550839
 30
0.0
 11
0.0048148548
 21
0.5915468962
 31
0.0
 40
0.4226067633
 41
-4.6931313041
 42
-3.1381528888
  0
ELLIPSE
  5
571
100
AcDbEntity
  8
RACCORDO
100
AcDbEllipse
 62
7
  6
CONTINUOUS
 10
-7.6672893053
 20
-1.0322322619
 30
0.0
 11
0.3
 21
-0.0
 31
0.0
 40
0.0174550649
 41
1.5707963268
 42
3.1241393611
  0
ELLIPSE
  5
572
100
AcDbEntity
  8
RACCORDO
100
AcDbEllipse
 62
7
  6
CONTINUOUS
 10
-7.4548130553
 20
-1.0322322619
 30
0.0
 11
0.3
 21
-0.0
 31
0.0
 40
0.0174550649
 41
0.0174532925
 42
1.5707963268
  0
ELLIPSE
  5
573
100
AcDbEntity
  8
RACCORDO
100
AcDbEllipse
 62
7
  6
CONTINUOUS
 10
6.6327106947
 20
-1.0322322619
 30
0.0
 11
0.3
 21
-0.0
 31
0.0
 40
0.0174550649
 41
1.5707963268
 42
3.1241393611
  0
ELLIPSE
  5
574
100
AcDbEntity
  8
RACCORDO
100
AcDbEllipse
 62
7
  6
CONTINUOUS
 10
6.8451869447
 20
-1.0322322619
 30
0.0
 11
0.3
 21
-0.0
 31
0.0
 40
0.0174550649
 41
0.0174532925
 42
1.5707963268
  0
ELLIPSE
  5
575
100
AcDbEntity
  8
RACCORDO
100
AcDbEllipse
 62
7
  6
CONTINUOUS
 10
-10.9912669811
 20
22.0141638771
 30
0.0
 11
0.4962344879
 21
0.0628595572
 31
0.0
 40
0.9963456432
 41
1.4443370775
 42
3.0137634083
  0
ELLIPSE
  5
576
100
AcDbEntity
  8
RACCORDO
100
AcDbEllipse
 62
7
  6
CONTINUOUS
 10
10.1691646205
 20
22.0141638771
 30
0.0
 11
0.4962344879
 21
-0.0628595572
 31
0.0
 40
0.9963456432
 41
0.1278292453
 42
1.6972555761
  0
ELLIPSE
  5
577
100
AcDbEntity
  8
RACCORDO
100
AcDbEllipse
 62
7
  6
CONTINUOUS
 10
10.2888117027
 20
0.8862140741
 30
0.0
 11
0.3796255539
 21
-0.1265161514
 31
0.0
 40
0.9996192872
 41
-1.2489924673
 42
0.3215754254
  0
ELLIPSE
  5
578
100
AcDbEntity
  8
RACCORDO
100
AcDbEllipse
 62
7
  6
CONTINUOUS
 10
-11.1109140633
 20
0.8862140741
 30
0.0
 11
0.3796255539
 21
0.1265161514
 31
0.0
 40
0.9996192872
 41
2.8200172282
 42
4.3905851209
  0
ELLIPSE
  5
579
100
AcDbEntity
  8
RACCORDO
100
AcDbEllipse
 62
7
  6
CONTINUOUS
 10
5.0686605121
 20
20.1206593496
 30
0.0
 11
-0.0048148548
 21
0.5915468962
 31
0.0
 40
0.4226067633
 41
-0.0034397648
 42
1.5515386505
  0
ELLIPSE
  5
57A
100
AcDbEntity
  8
RACCORDO
100
AcDbEllipse
 62
7
  6
CONTINUOUS
 10
-5.8907628727
 20
20.1206593496
 30
0.0
 11
0.0048148548
 21
0.5915468962
 31
0.0
 40
0.4226067633
 41
-1.5515386505
 42
0.0034397648
  0
ELLIPSE
  5
57B
100
AcDbEntity
  8
RACCORDO
100
AcDbEllipse
 62
7
  6
CONTINUOUS
 10
-6.1313394879
 20
20.1206593496
 30
0.0
 11
-0.0048148548
 21
0.5915468962
 31
0.0
 40
0.4226067633
 41
-0.0034397648
 42
1.5515386505
  0
ELLIPSE
  5
57C
100
AcDbEntity
  8
RACCORDO
100
AcDbEllipse
 62
7
  6
CONTINUOUS
 10
5.3092371273
 20
20.1206593496
 30
0.0
 11
0.0048148548
 21
0.5915468962
 31
0.0
 40
0.4226067633
 41
-1.5515386505
 42
0.0034397648
  0
ELLIPSE
  5
57D
100
AcDbEntity
  8
RACCORDO
100
AcDbEllipse
 62
7
  6
CONTINUOUS
 10
6.8451869447
 20
1.7387365276
 30
0.0
 11
0.3
 21
-0.0
 31
0.0
 40
0.0174550649
 41
-1.5707963268
 42
-0.0174532925
  0
ELLIPSE
  5
57E
100
AcDbEntity
  8
RACCORDO
100
AcDbEllipse
 62
7
  6
CONTINUOUS
 10
6.6327106947
 20
1.7387365276
 30
0.0
 11
0.3
 21
-0.0
 31
0.0
 40
0.0174550649
 41
-3.1241393611
 42
-1.5707963268
  0
ELLIPSE
  5
57F
100
AcDbEntity
  8
RACCORDO
100
AcDbEllipse
 62
7
  6
CONTINUOUS
 10
-7.4548130553
 20
1.7387365276
 30
0.0
 11
0.3
 21
-0.0
 31
0.0
 40
0.0174550649
 41
-1.5707963268
 42
-0.0174532925
  0
ELLIPSE
  5
580
100
AcDbEntity
  8
RACCORDO
100
AcDbEllipse
 62
7
  6
CONTINUOUS
 10
-7.6672893053
 20
1.7387365276
 30
0.0
 11
0.3
 21
0.0
 31
0.0
 40
0.0174550649
 41
-3.1241393611
 42
-1.5707963268
  0
ENDSEC
  0
SECTION
  2
OBJECTS
  0
DICTIONARY
  5
C
100
AcDbDictionary
280
0
281
1
  3
ACAD_GROUP
350
D
  3
ACAD_MLINESTYLE
350
17
  3
ACAD_LAYOUT
350
1A
  3
ACAD_PLOTSETTINGS
350
19
  3
ACAD_PLOTSTYLENAME
350
E
  0
DICTIONARY
  5
D
102
{ACAD_REACTORS
330
C
102
}
100
AcDbDictionary
280
0
281
1
  0
ACDBDICTIONARYWDFLT
  5
E
102
{ACAD_REACTORS
330
C
102
}
100
AcDbDictionary
281
1
  3
Normal
350
F
100
AcDbDictionaryWithDefault
340
F
  0
DICTIONARY
  5
17
102
{ACAD_REACTORS
330
C
102
}
100
AcDbDictionary
280
0
281
1
  3
Standard
350
18
  0
DICTIONARY
  5
19
102
{ACAD_REACTORS
330
C
102
}
100
AcDbDictionary
281
1
  0
DICTIONARY
  5
1A
102
{ACAD_REACTORS
330
C
102
}
100
AcDbDictionary
281
1
  3
Model
350
581
  3
Layout1
350
582
  0
ACDBPLACEHOLDER
  5
F
102
{ACAD_REACTORS
330
E
102
}
  0
MLINESTYLE
  5
18
102
{ACAD_REACTORS
330
17
102
}
100
AcDbMlineStyle
  2
STANDARD
 70
0
  3

 62
256
 51
90.0
 52
90.0
 71
2
 49
0.5
 62
256
  6
BYLAYER
 49
-0.5
 62
256
  6
BYLAYER
  0
LAYOUT
  5
581
102
{ACAD_REACTORS
330
1A
102
}
100
AcDbPlotSettings
  1

  2
none_device
  4

  6

 40
0.0
 41
0.0
 42
0.0
 43
0.0
 44
210.0
 45
297.0
 46
0.0
 47
0.0
 48
0.0
 49
0.0
140
0.0
141
0.0
142
1.0
143
1.0
 70
1024
 72
1
 73
0
 74
0
  7

 75
0
147
1.0
148
0.0
149
0.0
100
AcDbLayout
  1
Model
 70
0
 71
0
 10
0.0
 20
0.0
 11
210.0
 21
297.0
 12
0.0
 22
0.0
 32
0.0
 14
0.0
 24
0.0
 34
0.0
 15
0.0
 25
0.0
 35
0.0
146
0.0
 13
0.0
 23
0.0
 33
0.0
 16
1.0
 26
0.0
 36
0.0
 17
0.0
 27
1.0
 37
0.0
 76
0
330
213
345
0
346
0
  0
LAYOUT
  5
582
102
{ACAD_REACTORS
330
1A
102
}
100
AcDbPlotSettings
  1

  2
none_device
  4

  6

 40
0.0
 41
0.0
 42
0.0
 43
0.0
 44
210.0
 45
297.0
 46
0.0
 47
0.0
 48
0.0
 49
0.0
140
0.0
141
0.0
142
1.0
143
1.0
 70
0
 72
1
 73
0
 74
0
  7

 75
0
147
1.0
148
0.0
149
0.0
100
AcDbLayout
  1
Layout1
 70
0
 71
1
 10
0.0
 20
0.0
 11
210.0
 21
297.0
 12
0.0
 22
0.0
 32
0.0
 14
0.0
 24
0.0
 34
0.0
 15
0.0
 25
0.0
 35
0.0
146
0.0
 13
0.0
 23
0.0
 33
0.0
 16
1.0
 26
0.0
 36
0.0
 17
0.0
 27
1.0
 37
0.0
 76
0
330
214
345
0
346
0
  0
ENDSEC
  0
EOF
