  0
SECTION
  2
HEADER
  9
$ACADVER
  1
AC1021
  9
$DWGCODEPAGE
  3
ANSI_1252
  9
$EXTMAX
 10
297.0
 20
210.0
 30
0.0
  9
$EXTMIN
 10
0.0
 20
0.0
 30
0.0
  9
$LIMMIN
 10
0.0
 20
0.0
  9
$LIMMAX
 10
297.0
 20
210.0
  9
$VIEWCTR
 10
148.5
 20
105.0
  9
$VIEWSIZE
 40
210.0
  9
$CLAYER
  8
0
  9
$LTSCALE
 40
16.335
  9
$CELTYPE
  6
BYLAYER
  9
$DIMSCALE
 40
1.0
  9
$DIMASZ
 40
3.0
  9
$DIMEXO
 40
1.85625
  9
$DIMDLI
 40
11.286
  9
$DIMEXE
 40
5.346
  9
$DIMCEN
 40
2.673
  9
$DIMLFAC
 40
1.0
  9
$DIMBLK
  1
_FILLED
  9
$DIMTXT
 40
3.0
  9
$DIMTOL
 70
1
  9
$DIMLIM
 70
0
  9
$DIMTFAC
 40
1.0
  9
$DIMTP
 40
0.01
  9
$DIMTM
 40
0.01
  9
$PDMODE
 70
3
  9
$PDSIZE
 40
3.0
  9
$HANDSEED
  5
3B1
  9
$TILEMODE
 70
1
  9
$MEASUREMENT
 70
1
  9
$INSUNITS
 70
4
  0
ENDSEC
  0
SECTION
  2
CLASSES
  0
CLASS
  1
ACDBDICTIONARYWDFLT
  2
AcDbDictionaryWithDefault
  3
AutoCAD 2000
 90
0
 91
1
280
0
281
0
  0
CLASS
  1
ACDBPLACEHOLDER
  2
AcDbPlaceHolder
  3
AutoCAD 2000
 90
0
 91
1
280
0
281
0
  0
CLASS
  1
LAYOUT
  2
AcDbLayout
  3
AutoCAD 2000
 90
0
 91
0
280
0
281
0
  0
ENDSEC
  0
SECTION
  2
TABLES
  0
TABLE
  2
VPORT
  5
8
100
AcDbSymbolTable
 70
2
  0
VPORT
  5
1F4
100
AcDbSymbolTableRecord
100
AcDbViewportTableRecord
  2
*ACTIVE
 70
0
 10
0.0
 20
0.0
 11
1.0
 21
1.0
 12
148.5
 22
105.0
 13
0.0
 23
0.0
 14
1.0
 24
1.0
 15
0.0
 25
0.0
 16
0.0
 26
0.0
 36
1.0
 17
0.0
 27
0.0
 37
0.0
 40
210.0
 41
1.4142857143
 42
50.0
 43
0.0
 44
0.0
 50
0.0
 51
0.0
 71
0
 72
100
 73
1
 74
1
 75
0
 76
0
 77
0
 78
0
  0
ENDTAB
  0
TABLE
  2
LTYPE
  5
5
100
AcDbSymbolTable
 70
6
  0
LTYPE
  5
14
100
AcDbSymbolTableRecord
100
AcDbLinetypeTableRecord
  2
BYBLOCK
 70
0
  3

 72
65
 73
0
 40
0.0
  0
LTYPE
  5
15
100
AcDbSymbolTableRecord
100
AcDbLinetypeTableRecord
  2
BYLAYER
 70
0
  3

 72
65
 73
0
 40
0.0
  0
LTYPE
  5
16
100
AcDbSymbolTableRecord
100
AcDbLinetypeTableRecord
  2
CONTINUOUS
 70
64
  3
Solid line
 72
65
 73
0
 40
0.0
  0
LTYPE
  5
1F5
100
AcDbSymbolTableRecord
100
AcDbLinetypeTableRecord
  2
CENTER
 70
64
  3
____ _ ____ _ ____ _ ____ _ ____ _ ____ _ ____
 72
65
 73
4
 40
0.6
 49
0.375
 74
0
 49
-0.075
 74
0
 49
0.075
 74
0
 49
-0.075
 74
0
  0
LTYPE
  5
1F6
100
AcDbSymbolTableRecord
100
AcDbLinetypeTableRecord
  2
HIDDEN
 70
64
  3
- - - - - - - - - - - - - - - - - - - -
 72
65
 73
2
 40
0.2
 49
0.1
 74
0
 49
-0.1
 74
0
  0
LTYPE
  5
1F7
100
AcDbSymbolTableRecord
100
AcDbLinetypeTableRecord
  2
PHANTOM
 70
64
  3
_____ _ _ _____ _ _ _____ _ _ _____
 72
65
 73
6
 40
0.8
 49
0.45
 74
0
 49
-0.05
 74
0
 49
0.1
 74
0
 49
-0.05
 74
0
 49
0.1
 74
0
 49
-0.05
 74
0
  0
LTYPE
  5
1F8
100
AcDbSymbolTableRecord
100
AcDbLinetypeTableRecord
  2
DOT
 70
64
  3
. . . . . . . . . . . . . . . . . . . .
 72
65
 73
2
 40
0.2
 49
0.1
 74
0
 49
-0.1
 74
0
  0
LTYPE
  5
1F9
100
AcDbSymbolTableRecord
100
AcDbLinetypeTableRecord
  2
DASHED
 70
64
  3
- - - - - - - - - - - - - - - - - - - -
 72
65
 73
2
 40
0.2
 49
0.1
 74
0
 49
-0.1
 74
0
  0
ENDTAB
  0
TABLE
  2
LAYER
  5
2
100
AcDbSymbolTable
 70
36
  0
LAYER
  5
10
100
AcDbSymbolTableRecord
100
AcDbLayerTableRecord
  2
0
 70
0
 62
7
  6
CONTINUOUS
370
-3
390
F
  0
LAYER
  5
1FA
100
AcDbSymbolTableRecord
100
AcDbLayerTableRecord
  2
DEFAULT_1
 70
0
 62
7
  6
CENTER
370
-3
390
F
  0
LAYER
  5
1FB
100
AcDbSymbolTableRecord
100
AcDbLayerTableRecord
  2
DEFAULT_2
 70
0
 62
7
  6
HIDDEN
370
-3
390
F
  0
LAYER
  5
1FC
100
AcDbSymbolTableRecord
100
AcDbLayerTableRecord
  2
DEFAULT_3
 70
0
 62
7
  6
PHANTOM
370
-3
390
F
  0
LAYER
  5
1FD
100
AcDbSymbolTableRecord
100
AcDbLayerTableRecord
  2
ASSI
 70
0
 62
7
  6
CONTINUOUS
370
-3
390
F
  0
LAYER
  5
1FE
100
AcDbSymbolTableRecord
100
AcDbLayerTableRecord
  2
COLOR5
 70
0
 62
7
  6
CONTINUOUS
370
-3
390
F
  0
LAYER
  5
1FF
100
AcDbSymbolTableRecord
100
AcDbLayerTableRecord
  2
COORDINATE
 70
0
 62
7
  6
CONTINUOUS
370
-3
390
F
  0
LAYER
  5
200
100
AcDbSymbolTableRecord
100
AcDbLayerTableRecord
  2
COORD_ORIGINE
 70
0
 62
7
  6
CONTINUOUS
370
-3
390
F
  0
LAYER
  5
201
100
AcDbSymbolTableRecord
100
AcDbLayerTableRecord
  2
COPY_PUBLISH
 70
0
 62
7
  6
CONTINUOUS
370
-3
390
F
  0
LAYER
  5
202
100
AcDbSymbolTableRecord
100
AcDbLayerTableRecord
  2
COSMETICI
 70
0
 62
7
  6
CONTINUOUS
370
-3
390
F
  0
LAYER
  5
203
100
AcDbSymbolTableRecord
100
AcDbLayerTableRecord
  2
CURVE
 70
0
 62
7
  6
CONTINUOUS
370
-3
390
F
  0
LAYER
  5
204
100
AcDbSymbolTableRecord
100
AcDbLayerTableRecord
  2
DRAFT
 70
0
 62
7
  6
CONTINUOUS
370
-3
390
F
  0
LAYER
  5
205
100
AcDbSymbolTableRecord
100
AcDbLayerTableRecord
  2
IMPORT_IGES
 70
0
 62
7
  6
CONTINUOUS
370
-3
390
F
  0
LAYER
  5
206
100
AcDbSymbolTableRecord
100
AcDbLayerTableRecord
  2
IMPORT_SCRITTE
 70
0
 62
7
  6
CONTINUOUS
370
-3
390
F
  0
LAYER
  5
207
100
AcDbSymbolTableRecord
100
AcDbLayerTableRecord
  2
INTFCLR_1
 70
0
 62
7
  6
CONTINUOUS
370
-3
390
F
  0
LAYER
  5
208
100
AcDbSymbolTableRecord
100
AcDbLayerTableRecord
  2
INTFCLR_12603
 70
0
 62
7
  6
CONTINUOUS
370
-3
390
F
  0
LAYER
  5
209
100
AcDbSymbolTableRecord
100
AcDbLayerTableRecord
  2
INTFCLR_1391
 70
0
 62
7
  6
CONTINUOUS
370
-3
390
F
  0
LAYER
  5
20A
100
AcDbSymbolTableRecord
100
AcDbLayerTableRecord
  2
INTFCLR_35371
 70
0
 62
7
  6
CONTINUOUS
370
-3
390
F
  0
LAYER
  5
20B
100
AcDbSymbolTableRecord
100
AcDbLayerTableRecord
  2
INTF_1
 70
0
 62
7
  6
CONTINUOUS
370
-3
390
F
  0
LAYER
  5
20C
100
AcDbSymbolTableRecord
100
AcDbLayerTableRecord
  2
INTF_10
 70
0
 62
7
  6
CONTINUOUS
370
-3
390
F
  0
LAYER
  5
20D
100
AcDbSymbolTableRecord
100
AcDbLayerTableRecord
  2
INTF_15
 70
0
 62
7
  6
CONTINUOUS
370
-3
390
F
  0
LAYER
  5
20E
100
AcDbSymbolTableRecord
100
AcDbLayerTableRecord
  2
INTF_18
 70
0
 62
7
  6
CONTINUOUS
370
-3
390
F
  0
LAYER
  5
20F
100
AcDbSymbolTableRecord
100
AcDbLayerTableRecord
  2
INTF_20
 70
0
 62
7
  6
CONTINUOUS
370
-3
390
F
  0
LAYER
  5
210
100
AcDbSymbolTableRecord
100
AcDbLayerTableRecord
  2
INTF_22
 70
0
 62
7
  6
CONTINUOUS
370
-3
390
F
  0
LAYER
  5
211
100
AcDbSymbolTableRecord
100
AcDbLayerTableRecord
  2
INTF_4
 70
0
 62
7
  6
CONTINUOUS
370
-3
390
F
  0
LAYER
  5
212
100
AcDbSymbolTableRecord
100
AcDbLayerTableRecord
  2
INTF_8
 70
0
 62
7
  6
CONTINUOUS
370
-3
390
F
  0
LAYER
  5
213
100
AcDbSymbolTableRecord
100
AcDbLayerTableRecord
  2
NOTE
 70
0
 62
7
  6
CONTINUOUS
370
-3
390
F
  0
LAYER
  5
214
100
AcDbSymbolTableRecord
100
AcDbLayerTableRecord
  2
PIANI
 70
0
 62
7
  6
CONTINUOUS
370
-3
390
F
  0
LAYER
  5
215
100
AcDbSymbolTableRecord
100
AcDbLayerTableRecord
  2
PIANI_ORIGINE
 70
0
 62
7
  6
CONTINUOUS
370
-3
390
F
  0
LAYER
  5
216
100
AcDbSymbolTableRecord
100
AcDbLayerTableRecord
  2
PUNTI
 70
0
 62
7
  6
CONTINUOUS
370
-3
390
F
  0
LAYER
  5
217
100
AcDbSymbolTableRecord
100
AcDbLayerTableRecord
  2
RACCORDO
 70
0
 62
7
  6
CONTINUOUS
370
-3
390
F
  0
LAYER
  5
218
100
AcDbSymbolTableRecord
100
AcDbLayerTableRecord
  2
SIMBOLI
 70
0
 62
7
  6
CONTINUOUS
370
-3
390
F
  0
LAYER
  5
219
100
AcDbSymbolTableRecord
100
AcDbLayerTableRecord
  2
SMUSSO
 70
0
 62
7
  6
CONTINUOUS
370
-3
390
F
  0
LAYER
  5
21A
100
AcDbSymbolTableRecord
100
AcDbLayerTableRecord
  2
SNAPLINE
 70
0
 62
7
  6
CONTINUOUS
370
-3
390
F
  0
LAYER
  5
21B
100
AcDbSymbolTableRecord
100
AcDbLayerTableRecord
  2
SUPERFICI
 70
0
 62
7
  6
CONTINUOUS
370
-3
390
F
  0
LAYER
  5
21C
100
AcDbSymbolTableRecord
100
AcDbLayerTableRecord
  2
TRASH
 70
0
 62
7
  6
CONTINUOUS
370
-3
390
F
  0
LAYER
  5
21D
100
AcDbSymbolTableRecord
100
AcDbLayerTableRecord
  2
XSEC_DATUMS
 70
0
 62
7
  6
CONTINUOUS
370
-3
390
F
  0
ENDTAB
  0
TABLE
  2
STYLE
  5
3
100
AcDbSymbolTable
 70
1
  0
STYLE
  5
11
100
AcDbSymbolTableRecord
100
AcDbTextStyleTableRecord
  2
STANDARD
 70
0
 40
0.0
 41
0.8
 50
0.0
 71
0
 42
0.2
  3
txt
  4

  0
STYLE
  5
21E
100
AcDbSymbolTableRecord
100
AcDbTextStyleTableRecord
  2
TEXTSTYLE_1
 70
0
 40
0.0
 41
0.8
 50
0.0
 71
0
 42
0.2
  3
gdt
  4

  0
ENDTAB
  0
TABLE
  2
VIEW
  5
6
100
AcDbSymbolTable
 70
0
  0
ENDTAB
  0
TABLE
  2
UCS
  5
7
100
AcDbSymbolTable
 70
0
  0
ENDTAB
  0
TABLE
  2
APPID
  5
9
100
AcDbSymbolTable
 70
1
  0
APPID
  5
21F
100
AcDbSymbolTableRecord
100
AcDbRegAppTableRecord
  2
ACAD
 70
0
  0
ENDTAB
  0
TABLE
  2
BLOCK_RECORD
  5
1
100
AcDbSymbolTable
 70
0
  0
BLOCK_RECORD
  5
220
100
AcDbSymbolTableRecord
100
AcDbBlockTableRecord
  2
*Model_Space
  0
BLOCK_RECORD
  5
221
100
AcDbSymbolTableRecord
100
AcDbBlockTableRecord
  2
*Paper_Space
  0
ENDTAB
  0
TABLE
  2
DIMSTYLE
  5
A
100
AcDbSymbolTable
 70
1
100
AcDbDimStyleTable
 71
0
  0
DIMSTYLE
105
222
100
AcDbSymbolTableRecord
100
AcDbDimStyleTableRecord
  2
STANDARD
 70
0
  3

  4

 40
1.0
 41
3.0
 42
0.0625
 43
0.38
 44
0.18
 45
0.0
 46
0.0
 47
0.01
 48
0.01
140
3.0
141
0.09
142
0.0
143
25.4
144
1.0
145
0.0
146
1.0
147
0.09
 71
1.0
 72
0.0
 73
0
 74
0
 75
0
 76
0
 77
1
 78
8
170
0
171
2
172
0
173
0
174
0
175
0
176
0
177
0
178
0
270
2
271
2
272
2
273
2
274
2
275
0
280
0
281
0
282
0
283
1
284
8
285
0
286
0
287
3
288
0
340
11
  0
ENDTAB
  0
ENDSEC
  0
SECTION
  2
BLOCKS
  0
BLOCK
  5
20
100
AcDbEntity
  8
0
100
AcDbBlockBegin
  2
*Model_Space
 70
0
 10
0.0
 20
0.0
 30
0.0
  3
*Model_Space
  1

  0
ENDBLK
  5
21
100
AcDbEntity
  8
0
100
AcDbBlockEnd
  0
BLOCK
  5
1C
100
AcDbEntity
  8
0
100
AcDbBlockBegin
  2
*Paper_Space
 70
0
 10
0.0
 20
0.0
 30
0.0
  3
*Paper_Space
  1

  0
ENDBLK
  5
1D
100
AcDbEntity
  8
0
100
AcDbBlockEnd
  0
ENDSEC
  0
SECTION
  2
ENTITIES
  0
LWPOLYLINE
  5
223
100
AcDbEntity
  8
RACCORDO
100
AcDbPolyline
 62
7
  6
CONTINUOUS
 90
16
 70
0
 10
74.2081910881
 20
152.3699623374
 10
74.028439277
 20
152.1862246876
 10
73.7012153323
 20
151.8287444032
 10
73.3967514777
 20
151.4648923197
 10
73.1150336048
 20
151.095488457
 10
72.8553833824
 20
150.7205444903
 10
72.6166962705
 20
150.3391734213
 10
72.3988569651
 20
149.9517467358
 10
72.2017561471
 20
149.5586846426
 10
72.0247046047
 20
149.1590567769
 10
71.8677640492
 20
148.7532326377
 10
71.7309846192
 20
148.3416126874
 10
71.6140389545
 20
147.9231931468
 10
71.5170454149
 20
147.4978438886
 10
71.4403459587
 20
147.0664004505
 10
71.3899487839
 20
146.6834976697
  0
LINE
  5
224
100
AcDbEntity
  8
RACCORDO
100
AcDbLine
 62
7
  6
CONTINUOUS
 10
74.2087483264
 20
152.3705191647
 11
74.2081886692
 21
152.3699599201
  0
LINE
  5
225
100
AcDbEntity
  8
0
100
AcDbLine
 62
7
  6
CONTINUOUS
 10
71.3808673191
 20
64.608732962
 11
71.3808710603
 21
146.2611287091
  0
LINE
  5
226
100
AcDbEntity
  8
RACCORDO
100
AcDbLine
 62
7
  6
CONTINUOUS
 10
71.3808710806
 20
146.2611287091
 11
71.3808710823
 21
146.5186938221
  0
LINE
  5
227
100
AcDbEntity
  8
0
100
AcDbLine
 62
253
  6
CONTINUOUS
 10
73.3449367422
 20
62.6118255535
 11
73.344936743
 21
62.6061855626
  0
LINE
  5
228
100
AcDbEntity
  8
0
100
AcDbLine
 62
253
  6
CONTINUOUS
 10
74.4516734603
 20
134.5536593983
 11
74.4516734603
 21
133.7724745385
  0
LINE
  5
229
100
AcDbEntity
  8
0
100
AcDbLine
 62
253
  6
CONTINUOUS
 10
74.6840078683
 20
92.5127821831
 11
74.6840078683
 21
92.9397289421
  0
LINE
  5
22A
100
AcDbEntity
  8
0
100
AcDbLine
 62
253
  6
CONTINUOUS
 10
75.1742541163
 20
66.4708326829
 11
75.1742541163
 21
66.2077442611
  0
LINE
  5
22B
100
AcDbEntity
  8
RACCORDO
100
AcDbLine
 62
253
  6
CONTINUOUS
 10
75.7373095788
 20
152.9155654755
 11
75.7373091488
 21
152.9691499927
  0
LINE
  5
22C
100
AcDbEntity
  8
RACCORDO
100
AcDbLine
 62
253
  6
CONTINUOUS
 10
76.4936074392
 20
72.1382108763
 11
76.493608221
 21
71.1857755029
  0
LINE
  5
22D
100
AcDbEntity
  8
RACCORDO
100
AcDbLine
 62
7
  6
CONTINUOUS
 10
86.6808722931
 20
91.6801108167
 11
86.6808723022
 21
83.7571864711
  0
LINE
  5
22E
100
AcDbEntity
  8
0
100
AcDbLine
 62
7
  6
CONTINUOUS
 10
86.7058937328
 20
83.103300409
 11
86.7058937328
 21
91.428955724
  0
LINE
  5
22F
100
AcDbEntity
  8
0
100
AcDbLine
 62
7
  6
CONTINUOUS
 10
86.8808710602
 20
83.8118255679
 11
86.8808710602
 21
81.8726633149
  0
LINE
  5
230
100
AcDbEntity
  8
0
100
AcDbLine
 62
7
  6
CONTINUOUS
 10
87.0296018008
 20
92.9397289488
 11
87.0296018008
 21
83.8118255644
  0
LINE
  5
231
100
AcDbEntity
  8
0
100
AcDbLine
 62
7
  6
CONTINUOUS
 10
104.3321403557
 20
83.8118255644
 11
104.3321403557
 21
87.9605562766
  0
LINE
  5
232
100
AcDbEntity
  8
0
100
AcDbLine
 62
7
  6
CONTINUOUS
 10
218.0168057743
 20
62.6061855714
 11
217.9814121784
 21
62.6061855714
  0
LINE
  5
233
100
AcDbEntity
  8
0
100
AcDbLine
 62
7
  6
CONTINUOUS
 10
73.3803220051
 20
62.6061855626
 11
73.344936743
 21
62.6061855626
  0
LINE
  5
234
100
AcDbEntity
  8
0
100
AcDbLine
 62
7
  6
CONTINUOUS
 10
217.9814121799
 20
62.6118255591
 11
73.3803220036
 21
62.6118255591
  0
LINE
  5
235
100
AcDbEntity
  8
0
100
AcDbLine
 62
253
  6
CONTINUOUS
 10
216.1874880133
 20
66.2077442611
 11
75.1742541163
 21
66.2077442611
  0
LINE
  5
236
100
AcDbEntity
  8
RACCORDO
100
AcDbLine
 62
7
  6
CONTINUOUS
 10
75.3933301147
 20
66.4578252254
 11
215.968458036
 21
66.4578252254
  0
LINE
  5
237
100
AcDbEntity
  8
0
100
AcDbLine
 62
7
  6
CONTINUOUS
 10
104.4808710551
 20
87.8118255591
 11
104.3321403323
 21
87.9605562871
  0
LINE
  5
238
100
AcDbEntity
  8
0
100
AcDbLine
 62
7
  6
CONTINUOUS
 10
105.7808710603
 20
131.0572258312
 11
105.8157811902
 21
130.3292853617
  0
LINE
  5
239
100
AcDbEntity
  8
0
100
AcDbLine
 62
7
  6
CONTINUOUS
 10
108.7808710603
 20
118.359715552
 11
108.6074544219
 21
124.3292853661
  0
LINE
  5
23A
100
AcDbEntity
  8
0
100
AcDbLine
 62
7
  6
CONTINUOUS
 10
104.4808710603
 20
87.8118255573
 11
104.4808710603
 21
83.8118255591
  0
LINE
  5
23B
100
AcDbEntity
  8
RACCORDO
100
AcDbLine
 62
7
  6
CONTINUOUS
 10
104.6808723022
 20
83.7571864711
 11
104.6808722987
 21
86.7571849913
  0
LINE
  5
23C
100
AcDbEntity
  8
0
100
AcDbLine
 62
7
  6
CONTINUOUS
 10
105.7808711068
 20
118.3597155316
 11
105.7808711068
 21
131.0572258184
  0
LINE
  5
23D
100
AcDbEntity
  8
0
100
AcDbLine
 62
7
  6
CONTINUOUS
 10
107.7189907956
 20
105.3618253786
 11
107.7189907956
 21
107.8618253922
  0
LINE
  5
23E
100
AcDbEntity
  8
0
100
AcDbLine
 62
7
  6
CONTINUOUS
 10
108.1808710603
 20
105.3618254611
 11
108.1808710603
 21
107.8618254041
  0
LINE
  5
23F
100
AcDbEntity
  8
0
100
AcDbLine
 62
7
  6
CONTINUOUS
 10
108.6808710603
 20
107.8618255585
 11
108.6808710603
 21
105.3618256508
  0
LINE
  5
240
100
AcDbEntity
  8
0
100
AcDbLine
 62
7
  6
CONTINUOUS
 10
108.7459609303
 20
119.5614367919
 11
108.7459609303
 21
130.3292853617
  0
LINE
  5
241
100
AcDbEntity
  8
0
100
AcDbLine
 62
7
  6
CONTINUOUS
 10
108.780871124
 20
131.0572258184
 11
108.780871124
 21
118.3597155316
  0
LINE
  5
242
100
AcDbEntity
  8
0
100
AcDbLine
 62
7
  6
CONTINUOUS
 10
109.1427512753
 20
105.3618256511
 11
109.1427512753
 21
107.8618255641
  0
LINE
  5
243
100
AcDbEntity
  8
0
100
AcDbLine
 62
7
  6
CONTINUOUS
 10
110.1808710955
 20
87.5571845967
 11
110.1808710955
 21
87.8118255591
  0
LINE
  5
244
100
AcDbEntity
  8
DRAFT
100
AcDbLine
 62
7
  6
CONTINUOUS
 10
110.1821869197
 20
84.0571863231
 11
110.1821869233
 21
80.9259548724
  0
LINE
  5
245
100
AcDbEntity
  8
DRAFT
100
AcDbLine
 62
7
  6
CONTINUOUS
 10
110.3134216415
 20
84.0586761944
 11
110.3134216449
 21
81.0586776742
  0
LINE
  5
246
100
AcDbEntity
  8
0
100
AcDbLine
 62
7
  6
CONTINUOUS
 10
105.9542876984
 20
124.3292853661
 11
105.7808710603
 21
118.359715552
  0
LINE
  5
247
100
AcDbEntity
  8
0
100
AcDbLine
 62
7
  6
CONTINUOUS
 10
108.7459609303
 20
130.3292853617
 11
108.7808710603
 21
131.0572258312
  0
LINE
  5
248
100
AcDbEntity
  8
0
100
AcDbLine
 62
253
  6
CONTINUOUS
 10
73.1906462786
 20
68.1681862303
 11
73.4378204972
 21
68.1732789573
  0
LINE
  5
249
100
AcDbEntity
  8
RACCORDO
100
AcDbLine
 62
253
  6
CONTINUOUS
 10
130.2841442567
 20
67.8493550247
 11
161.0776295358
 21
67.8493550247
  0
LINE
  5
24A
100
AcDbEntity
  8
RACCORDO
100
AcDbLine
 62
253
  6
CONTINUOUS
 10
130.2841433762
 20
68.8203444305
 11
161.0776286554
 21
68.8203444305
  0
LINE
  5
24B
100
AcDbEntity
  8
RACCORDO
100
AcDbLine
 62
253
  6
CONTINUOUS
 10
76.4936082233
 20
71.1857755029
 11
127.4936562825
 21
71.1857754651
  0
LINE
  5
24C
100
AcDbEntity
  8
RACCORDO
100
AcDbLine
 62
253
  6
CONTINUOUS
 10
163.8680899565
 20
71.1857754648
 11
214.8681380153
 21
71.1857755025
  0
LINE
  5
24D
100
AcDbEntity
  8
RACCORDO
100
AcDbLine
 62
253
  6
CONTINUOUS
 10
76.4936074392
 20
72.1382108763
 11
127.4949931523
 21
72.1382100168
  0
LINE
  5
24E
100
AcDbEntity
  8
RACCORDO
100
AcDbLine
 62
253
  6
CONTINUOUS
 10
163.866751481
 20
72.1382100144
 11
214.8681371917
 21
72.1382108743
  0
LINE
  5
24F
100
AcDbEntity
  8
RACCORDO
100
AcDbLine
 62
253
  6
CONTINUOUS
 10
157.1397953891
 20
72.7581757499
 11
134.2219766335
 21
72.7581757499
  0
LINE
  5
250
100
AcDbEntity
  8
0
100
AcDbLine
 62
253
  6
CONTINUOUS
 10
217.9239674845
 20
68.1732780163
 11
218.1710960991
 21
68.1681862304
  0
LINE
  5
251
100
AcDbEntity
  8
RACCORDO
100
AcDbLine
 62
253
  6
CONTINUOUS
 10
127.4949916536
 20
72.1382085181
 11
128.1841443054
 21
71.4498279408
  0
LINE
  5
252
100
AcDbEntity
  8
DRAFT
100
AcDbLine
 62
7
  6
CONTINUOUS
 10
119.1795576875
 20
80.9259548724
 11
119.0483264185
 21
81.0586776742
  0
LINE
  5
253
100
AcDbEntity
  8
0
100
AcDbLine
 62
7
  6
CONTINUOUS
 10
112.2189908453
 20
107.8618255591
 11
112.2189908453
 21
105.3618255591
  0
LINE
  5
254
100
AcDbEntity
  8
0
100
AcDbLine
 62
7
  6
CONTINUOUS
 10
112.6808710603
 20
105.3618255597
 11
112.6808710603
 21
107.8618255585
  0
LINE
  5
255
100
AcDbEntity
  8
0
100
AcDbLine
 62
7
  6
CONTINUOUS
 10
113.1808710603
 20
107.8618255591
 11
113.1808710603
 21
105.3618255591
  0
LINE
  5
256
100
AcDbEntity
  8
0
100
AcDbLine
 62
7
  6
CONTINUOUS
 10
113.6427512403
 20
107.8618255691
 11
113.6427512403
 21
105.3618255555
  0
LINE
  5
257
100
AcDbEntity
  8
RACCORDO
100
AcDbLine
 62
253
  6
CONTINUOUS
 10
75.5112264102
 20
73.1343344124
 11
74.5143489335
 21
73.1050745135
  0
LINE
  5
258
100
AcDbEntity
  8
RACCORDO
100
AcDbLine
 62
253
  6
CONTINUOUS
 10
157.1397949771
 20
73.5238650148
 11
134.2219762215
 21
73.5238650148
  0
LINE
  5
259
100
AcDbEntity
  8
RACCORDO
100
AcDbLine
 62
253
  6
CONTINUOUS
 10
215.8505182183
 20
73.1343344079
 11
216.8474225874
 21
73.1050736926
  0
LINE
  5
25A
100
AcDbEntity
  8
RACCORDO
100
AcDbLine
 62
253
  6
CONTINUOUS
 10
134.2219766335
 20
72.7581757499
 11
133.5328239817
 21
73.4465563272
  0
LINE
  5
25B
100
AcDbEntity
  8
DRAFT
100
AcDbLine
 62
7
  6
CONTINUOUS
 10
119.0483264185
 20
81.0586776742
 11
119.0483264151
 21
84.0586761944
  0
LINE
  5
25C
100
AcDbEntity
  8
DRAFT
100
AcDbLine
 62
7
  6
CONTINUOUS
 10
119.1795576875
 20
80.9259548724
 11
119.1795576839
 21
84.0571863231
  0
LINE
  5
25D
100
AcDbEntity
  8
0
100
AcDbLine
 62
7
  6
CONTINUOUS
 10
119.1808710667
 20
87.8118255591
 11
119.1808710667
 21
87.5571845967
  0
LINE
  5
25E
100
AcDbEntity
  8
DRAFT
100
AcDbLine
 62
7
  6
CONTINUOUS
 10
110.1821869233
 20
80.9259548724
 11
119.1795576875
 21
80.9259548724
  0
LINE
  5
25F
100
AcDbEntity
  8
DRAFT
100
AcDbLine
 62
7
  6
CONTINUOUS
 10
172.1821869232
 20
80.9259548724
 11
181.1795576874
 21
80.9259548724
  0
LINE
  5
260
100
AcDbEntity
  8
DRAFT
100
AcDbLine
 62
7
  6
CONTINUOUS
 10
110.3134216449
 20
81.0586776742
 11
119.0483264185
 21
81.0586776742
  0
LINE
  5
261
100
AcDbEntity
  8
DRAFT
100
AcDbLine
 62
7
  6
CONTINUOUS
 10
172.3134216448
 20
81.0586776742
 11
181.0483264185
 21
81.0586776742
  0
LINE
  5
262
100
AcDbEntity
  8
RACCORDO
100
AcDbLine
 62
253
  6
CONTINUOUS
 10
139.9733616751
 20
82.8985623815
 11
151.3883837534
 21
82.8985623815
  0
LINE
  5
263
100
AcDbEntity
  8
RACCORDO
100
AcDbLine
 62
253
  6
CONTINUOUS
 10
139.9733612631
 20
83.6642516464
 11
151.3883833414
 21
83.6642516464
  0
LINE
  5
264
100
AcDbEntity
  8
0
100
AcDbLine
 62
7
  6
CONTINUOUS
 10
181.0483264153
 20
83.8118255559
 11
172.3134216417
 21
83.8118255559
  0
LINE
  5
265
100
AcDbEntity
  8
0
100
AcDbLine
 62
7
  6
CONTINUOUS
 10
119.0483264154
 20
83.8118255559
 11
110.3134216417
 21
83.8118255559
  0
LINE
  5
266
100
AcDbEntity
  8
0
100
AcDbLine
 62
253
  6
CONTINUOUS
 10
86.8808710602
 20
83.8118255679
 11
87.0296017883
 21
83.8118255679
  0
LINE
  5
267
100
AcDbEntity
  8
0
100
AcDbLine
 62
253
  6
CONTINUOUS
 10
104.3321403323
 20
83.8118255591
 11
104.4808710603
 21
83.8118255591
  0
LINE
  5
268
100
AcDbEntity
  8
0
100
AcDbLine
 62
253
  6
CONTINUOUS
 10
186.8808710603
 20
83.8118255591
 11
187.0296017883
 21
83.8118255591
  0
LINE
  5
269
100
AcDbEntity
  8
0
100
AcDbLine
 62
253
  6
CONTINUOUS
 10
204.3321403323
 20
83.8118255679
 11
204.4808710604
 21
83.8118255679
  0
LINE
  5
26A
100
AcDbEntity
  8
DRAFT
100
AcDbLine
 62
7
  6
CONTINUOUS
 10
181.1795576839
 20
84.0571863231
 11
172.1821869197
 21
84.0571863231
  0
LINE
  5
26B
100
AcDbEntity
  8
DRAFT
100
AcDbLine
 62
7
  6
CONTINUOUS
 10
119.1795576839
 20
84.0571863231
 11
110.1821869197
 21
84.0571863231
  0
LINE
  5
26C
100
AcDbEntity
  8
RACCORDO
100
AcDbLine
 62
253
  6
CONTINUOUS
 10
127.4949916536
 20
72.1382100168
 11
127.4949924574
 21
71.1857754651
  0
LINE
  5
26D
100
AcDbEntity
  8
RACCORDO
100
AcDbLine
 62
253
  6
CONTINUOUS
 10
75.1306172471
 20
85.2628593504
 11
74.1334076761
 21
85.2312581832
  0
LINE
  5
26E
100
AcDbEntity
  8
0
100
AcDbLine
 62
253
  6
CONTINUOUS
 10
72.8127600614
 20
85.1699961952
 11
73.0377845742
 21
85.17536903
  0
LINE
  5
26F
100
AcDbEntity
  8
RACCORDO
100
AcDbLine
 62
7
  6
CONTINUOUS
 10
105.4808722978
 20
87.5571845967
 11
185.8808722978
 21
87.5571845967
  0
LINE
  5
270
100
AcDbEntity
  8
0
100
AcDbLine
 62
7
  6
CONTINUOUS
 10
186.8808710654
 20
87.8118255591
 11
104.4808710551
 21
87.8118255591
  0
LINE
  5
271
100
AcDbEntity
  8
0
100
AcDbLine
 62
7
  6
CONTINUOUS
 10
104.3321403557
 20
87.9605562766
 11
187.0296017885
 21
87.9605562766
  0
LINE
  5
272
100
AcDbEntity
  8
0
100
AcDbLine
 62
253
  6
CONTINUOUS
 10
218.3240034039
 20
85.1753679388
 11
218.5489820542
 21
85.1699961987
  0
LINE
  5
273
100
AcDbEntity
  8
RACCORDO
100
AcDbLine
 62
253
  6
CONTINUOUS
 10
216.2311273537
 20
85.2628593504
 11
217.2283390707
 21
85.2312581833
  0
LINE
  5
274
100
AcDbEntity
  8
RACCORDO
100
AcDbLine
 62
253
  6
CONTINUOUS
 10
138.1643100588
 20
82.8075216726
 11
138.8534627106
 21
82.1191410954
  0
LINE
  5
275
100
AcDbEntity
  8
RACCORDO
100
AcDbLine
 62
253
  6
CONTINUOUS
 10
130.2841433762
 20
68.8203444305
 11
130.2841442567
 21
67.8493550247
  0
LINE
  5
276
100
AcDbEntity
  8
RACCORDO
100
AcDbLine
 62
253
  6
CONTINUOUS
 10
134.2219762215
 20
73.5238650148
 11
134.2219766335
 21
72.7581757499
  0
LINE
  5
277
100
AcDbEntity
  8
0
100
AcDbLine
 62
253
  6
CONTINUOUS
 10
205.1939360035
 20
92.4634213791
 11
204.3625785931
 21
92.4634213791
  0
LINE
  5
278
100
AcDbEntity
  8
0
100
AcDbLine
 62
253
  6
CONTINUOUS
 10
86.9991635275
 20
92.4634213791
 11
86.1678845364
 21
92.4634213791
  0
LINE
  5
279
100
AcDbEntity
  8
RACCORDO
100
AcDbLine
 62
7
  6
CONTINUOUS
 10
216.4660288814
 20
92.5202581164
 11
205.4808722921
 21
92.5202581164
  0
LINE
  5
27A
100
AcDbEntity
  8
RACCORDO
100
AcDbLine
 62
7
  6
CONTINUOUS
 10
85.8808722921
 20
92.5202581164
 11
74.8957157028
 21
92.5202581164
  0
LINE
  5
27B
100
AcDbEntity
  8
0
100
AcDbLine
 62
253
  6
CONTINUOUS
 10
74.6840078288
 20
92.9397289488
 11
87.0296018008
 21
92.9397289488
  0
LINE
  5
27C
100
AcDbEntity
  8
0
100
AcDbLine
 62
253
  6
CONTINUOUS
 10
204.3321403434
 20
92.9397289488
 11
216.6777343154
 21
92.9397289488
  0
LINE
  5
27D
100
AcDbEntity
  8
RACCORDO
100
AcDbLine
 62
253
  6
CONTINUOUS
 10
157.1397953891
 20
72.7581757499
 11
161.0776286554
 21
68.8203444305
  0
LINE
  5
27E
100
AcDbEntity
  8
RACCORDO
100
AcDbLine
 62
253
  6
CONTINUOUS
 10
157.8289462528
 20
73.4465563272
 11
162.7607364788
 21
68.5147685395
  0
LINE
  5
27F
100
AcDbEntity
  8
RACCORDO
100
AcDbLine
 62
253
  6
CONTINUOUS
 10
152.5082836839
 20
82.1191410953
 11
163.1789320814
 21
71.4484979735
  0
LINE
  5
280
100
AcDbEntity
  8
RACCORDO
100
AcDbLine
 62
253
  6
CONTINUOUS
 10
153.1974345477
 20
82.8075216726
 11
163.866751481
 21
72.1382100144
  0
LINE
  5
281
100
AcDbEntity
  8
0
100
AcDbLine
 62
7
  6
CONTINUOUS
 10
137.7189908211
 20
104.1118255782
 11
137.7189908211
 21
107.1118255709
  0
LINE
  5
282
100
AcDbEntity
  8
0
100
AcDbLine
 62
7
  6
CONTINUOUS
 10
138.1808710603
 20
104.1118255591
 11
138.1808710603
 21
107.1118255591
  0
LINE
  5
283
100
AcDbEntity
  8
0
100
AcDbLine
 62
7
  6
CONTINUOUS
 10
138.6808710553
 20
107.1118255583
 11
138.6808710553
 21
104.1118255598
  0
LINE
  5
284
100
AcDbEntity
  8
0
100
AcDbLine
 62
7
  6
CONTINUOUS
 10
139.1427512753
 20
104.1118255591
 11
139.1427512753
 21
107.1118255591
  0
LINE
  5
285
100
AcDbEntity
  8
RACCORDO
100
AcDbLine
 62
253
  6
CONTINUOUS
 10
139.9733612631
 20
83.6642516464
 11
139.9733616751
 21
82.8985623815
  0
LINE
  5
286
100
AcDbEntity
  8
ASSI
100
AcDbLine
 62
7
  6
CONTINUOUS
 10
140.1808806716
 20
77.1090887638
 11
140.1808784655
 21
78.714154816
  0
LINE
  5
287
100
AcDbEntity
  8
DRAFT
100
AcDbLine
 62
7
  6
CONTINUOUS
 10
110.1821869233
 20
80.9259548724
 11
110.3134216449
 21
81.0586776742
  0
LINE
  5
288
100
AcDbEntity
  8
RACCORDO
100
AcDbLine
 62
253
  6
CONTINUOUS
 10
151.3883837534
 20
82.8985623815
 11
157.1397949771
 21
73.5238650148
  0
LINE
  5
289
100
AcDbEntity
  8
RACCORDO
100
AcDbLine
 62
253
  6
CONTINUOUS
 10
152.5082836839
 20
82.1191410953
 11
157.8289462528
 21
73.4465563272
  0
LINE
  5
28A
100
AcDbEntity
  8
0
100
AcDbLine
 62
7
  6
CONTINUOUS
 10
142.0808710603
 20
75.822463989
 11
142.0808710603
 21
75.5933418579
  0
LINE
  5
28B
100
AcDbEntity
  8
0
100
AcDbLine
 62
253
  6
CONTINUOUS
 10
153.6427512753
 20
104.1118255591
 11
153.1808710603
 21
104.1118255591
  0
LINE
  5
28C
100
AcDbEntity
  8
0
100
AcDbLine
 62
253
  6
CONTINUOUS
 10
138.1808710603
 20
104.1118255591
 11
137.7189908453
 21
104.1118255591
  0
LINE
  5
28D
100
AcDbEntity
  8
0
100
AcDbLine
 62
253
  6
CONTINUOUS
 10
138.6808710603
 20
104.1118255591
 11
139.1427512753
 21
104.1118255591
  0
LINE
  5
28E
100
AcDbEntity
  8
0
100
AcDbLine
 62
253
  6
CONTINUOUS
 10
152.2189908453
 20
104.1118255591
 11
152.6808710603
 21
104.1118255591
  0
LINE
  5
28F
100
AcDbEntity
  8
0
100
AcDbLine
 62
253
  6
CONTINUOUS
 10
183.6427512753
 20
105.3618255591
 11
183.1808710603
 21
105.3618255591
  0
LINE
  5
290
100
AcDbEntity
  8
0
100
AcDbLine
 62
253
  6
CONTINUOUS
 10
178.1808710603
 20
105.3618254301
 11
177.7189908453
 21
105.3618254301
  0
LINE
  5
291
100
AcDbEntity
  8
0
100
AcDbLine
 62
253
  6
CONTINUOUS
 10
113.6427512753
 20
105.3618255591
 11
113.1808710603
 21
105.3618255591
  0
LINE
  5
292
100
AcDbEntity
  8
0
100
AcDbLine
 62
253
  6
CONTINUOUS
 10
108.1808710603
 20
105.3618254611
 11
107.7189908453
 21
105.3618254611
  0
LINE
  5
293
100
AcDbEntity
  8
0
100
AcDbLine
 62
253
  6
CONTINUOUS
 10
108.6808710603
 20
105.3618256511
 11
109.1427512753
 21
105.3618256511
  0
LINE
  5
294
100
AcDbEntity
  8
0
100
AcDbLine
 62
253
  6
CONTINUOUS
 10
112.2189908453
 20
105.3618255591
 11
112.6808710603
 21
105.3618255591
  0
LINE
  5
295
100
AcDbEntity
  8
0
100
AcDbLine
 62
253
  6
CONTINUOUS
 10
182.2189908453
 20
105.3618255591
 11
182.6808710603
 21
105.3618255591
  0
LINE
  5
296
100
AcDbEntity
  8
0
100
AcDbLine
 62
253
  6
CONTINUOUS
 10
178.6808710603
 20
105.3618256971
 11
179.1427512753
 21
105.3618256971
  0
LINE
  5
297
100
AcDbEntity
  8
0
100
AcDbLine
 62
253
  6
CONTINUOUS
 10
152.6808710603
 20
107.1118255591
 11
152.2189908453
 21
107.1118255591
  0
LINE
  5
298
100
AcDbEntity
  8
0
100
AcDbLine
 62
253
  6
CONTINUOUS
 10
139.1427512753
 20
107.1118255591
 11
138.6808710603
 21
107.1118255591
  0
LINE
  5
299
100
AcDbEntity
  8
0
100
AcDbLine
 62
253
  6
CONTINUOUS
 10
137.7189908453
 20
107.1118255591
 11
138.1808710603
 21
107.1118255591
  0
LINE
  5
29A
100
AcDbEntity
  8
0
100
AcDbLine
 62
253
  6
CONTINUOUS
 10
153.1808710603
 20
107.1118255591
 11
153.6427512753
 21
107.1118255591
  0
LINE
  5
29B
100
AcDbEntity
  8
0
100
AcDbLine
 62
253
  6
CONTINUOUS
 10
177.7189908453
 20
107.8618253551
 11
178.1808710603
 21
107.8618253551
  0
LINE
  5
29C
100
AcDbEntity
  8
0
100
AcDbLine
 62
253
  6
CONTINUOUS
 10
107.7189908453
 20
107.8618254041
 11
108.1808710603
 21
107.8618254041
  0
LINE
  5
29D
100
AcDbEntity
  8
0
100
AcDbLine
 62
253
  6
CONTINUOUS
 10
182.6808710603
 20
107.8618255591
 11
182.2189908453
 21
107.8618255591
  0
LINE
  5
29E
100
AcDbEntity
  8
0
100
AcDbLine
 62
253
  6
CONTINUOUS
 10
179.1427512753
 20
107.8618255661
 11
178.6808710603
 21
107.8618255661
  0
LINE
  5
29F
100
AcDbEntity
  8
0
100
AcDbLine
 62
253
  6
CONTINUOUS
 10
112.6808710603
 20
107.8618255591
 11
112.2189908453
 21
107.8618255591
  0
LINE
  5
2A0
100
AcDbEntity
  8
0
100
AcDbLine
 62
253
  6
CONTINUOUS
 10
109.1427512753
 20
107.8618255641
 11
108.6808710603
 21
107.8618255641
  0
LINE
  5
2A1
100
AcDbEntity
  8
0
100
AcDbLine
 62
253
  6
CONTINUOUS
 10
113.1808710603
 20
107.8618255591
 11
113.6427512753
 21
107.8618255591
  0
LINE
  5
2A2
100
AcDbEntity
  8
0
100
AcDbLine
 62
253
  6
CONTINUOUS
 10
183.1808710603
 20
107.8618255591
 11
183.6427512753
 21
107.8618255591
  0
LINE
  5
2A3
100
AcDbEntity
  8
0
100
AcDbLine
 62
7
  6
CONTINUOUS
 10
149.2808710603
 20
75.822463989
 11
149.2808710603
 21
75.593325494
  0
LINE
  5
2A4
100
AcDbEntity
  8
ASSI
100
AcDbLine
 62
7
  6
CONTINUOUS
 10
151.1808784655
 20
78.714154816
 11
151.1808806716
 21
77.1090887638
  0
LINE
  5
2A5
100
AcDbEntity
  8
RACCORDO
100
AcDbLine
 62
253
  6
CONTINUOUS
 10
151.3883833414
 20
83.6642516464
 11
151.3883837534
 21
82.8985623815
  0
LINE
  5
2A6
100
AcDbEntity
  8
0
100
AcDbLine
 62
7
  6
CONTINUOUS
 10
152.2189908453
 20
107.1118255591
 11
152.2189908453
 21
104.1118255591
  0
LINE
  5
2A7
100
AcDbEntity
  8
DRAFT
100
AcDbLine
 62
7
  6
CONTINUOUS
 10
181.1795576874
 20
80.9259548724
 11
181.0483264185
 21
81.0586776742
  0
LINE
  5
2A8
100
AcDbEntity
  8
0
100
AcDbLine
 62
7
  6
CONTINUOUS
 10
152.6808710653
 20
104.1118255598
 11
152.6808710653
 21
107.1118255583
  0
LINE
  5
2A9
100
AcDbEntity
  8
0
100
AcDbLine
 62
7
  6
CONTINUOUS
 10
153.1808710603
 20
107.1118255591
 11
153.1808710603
 21
104.1118255591
  0
LINE
  5
2AA
100
AcDbEntity
  8
0
100
AcDbLine
 62
7
  6
CONTINUOUS
 10
153.6427513231
 20
107.1118255709
 11
153.6427513231
 21
104.1118255782
  0
LINE
  5
2AB
100
AcDbEntity
  8
RACCORDO
100
AcDbLine
 62
253
  6
CONTINUOUS
 10
157.1397953891
 20
72.7581757499
 11
157.1397949771
 21
73.5238650148
  0
LINE
  5
2AC
100
AcDbEntity
  8
RACCORDO
100
AcDbLine
 62
253
  6
CONTINUOUS
 10
133.5328239817
 20
73.4465563272
 11
138.8534627106
 21
82.1191410953
  0
LINE
  5
2AD
100
AcDbEntity
  8
RACCORDO
100
AcDbLine
 62
253
  6
CONTINUOUS
 10
134.2219762215
 20
73.5238650148
 11
139.9733616751
 21
82.8985623815
  0
LINE
  5
2AE
100
AcDbEntity
  8
RACCORDO
100
AcDbLine
 62
253
  6
CONTINUOUS
 10
127.4949931523
 20
72.1382100168
 11
138.1643100588
 21
82.8075216726
  0
LINE
  5
2AF
100
AcDbEntity
  8
0
100
AcDbLine
 62
7
  6
CONTINUOUS
 10
185.5808710374
 20
118.3597155316
 11
182.5808710202
 21
118.3597155316
  0
LINE
  5
2B0
100
AcDbEntity
  8
0
100
AcDbLine
 62
7
  6
CONTINUOUS
 10
108.780871124
 20
118.3597155316
 11
105.7808711068
 21
118.3597155316
  0
LINE
  5
2B1
100
AcDbEntity
  8
RACCORDO
100
AcDbLine
 62
253
  6
CONTINUOUS
 10
161.0776286554
 20
68.8203444305
 11
161.0776295369
 21
67.8493550249
  0
LINE
  5
2B2
100
AcDbEntity
  8
RACCORDO
100
AcDbLine
 62
253
  6
CONTINUOUS
 10
163.8667529773
 20
72.1382100144
 11
163.8667537811
 21
71.1857754648
  0
LINE
  5
2B3
100
AcDbEntity
  8
RACCORDO
100
AcDbLine
 62
253
  6
CONTINUOUS
 10
128.182814338
 20
71.4484979741
 11
138.8534627106
 21
82.1191410953
  0
LINE
  5
2B4
100
AcDbEntity
  8
RACCORDO
100
AcDbLine
 62
253
  6
CONTINUOUS
 10
128.601033767
 20
68.5147685395
 11
133.5328239817
 21
73.4465563272
  0
LINE
  5
2B5
100
AcDbEntity
  8
RACCORDO
100
AcDbLine
 62
253
  6
CONTINUOUS
 10
130.2841433762
 20
68.8203444305
 11
134.2219766335
 21
72.7581757499
  0
LINE
  5
2B6
100
AcDbEntity
  8
RACCORDO
100
AcDbLine
 62
7
  6
CONTINUOUS
 10
185.4413072686
 20
124.3292853661
 11
182.6157811903
 21
124.3292853661
  0
LINE
  5
2B7
100
AcDbEntity
  8
RACCORDO
100
AcDbLine
 62
7
  6
CONTINUOUS
 10
108.7459609303
 20
124.3292853661
 11
105.9206892571
 21
124.3292853661
  0
LINE
  5
2B8
100
AcDbEntity
  8
0
100
AcDbLine
 62
7
  6
CONTINUOUS
 10
105.9206892571
 20
124.3292853661
 11
108.7459609303
 21
124.3292853661
  0
LINE
  5
2B9
100
AcDbEntity
  8
0
100
AcDbLine
 62
7
  6
CONTINUOUS
 10
182.6157811903
 20
124.3292853661
 11
185.4413072686
 21
124.3292853661
  0
LINE
  5
2BA
100
AcDbEntity
  8
RACCORDO
100
AcDbLine
 62
253
  6
CONTINUOUS
 10
153.1974345477
 20
82.8075216726
 11
152.5082836839
 21
82.1191410953
  0
LINE
  5
2BB
100
AcDbEntity
  8
0
100
AcDbLine
 62
7
  6
CONTINUOUS
 10
105.8157811901
 20
130.3292853661
 11
108.7459609304
 21
130.3292853661
  0
LINE
  5
2BC
100
AcDbEntity
  8
0
100
AcDbLine
 62
7
  6
CONTINUOUS
 10
182.6157811901
 20
130.3292853661
 11
185.5459609304
 21
130.3292853661
  0
LINE
  5
2BD
100
AcDbEntity
  8
0
100
AcDbLine
 62
7
  6
CONTINUOUS
 10
105.7808711068
 20
131.0572258184
 11
108.780871124
 21
131.0572258184
  0
LINE
  5
2BE
100
AcDbEntity
  8
0
100
AcDbLine
 62
7
  6
CONTINUOUS
 10
182.5808710202
 20
131.0572258184
 11
185.5808710374
 21
131.0572258184
  0
LINE
  5
2BF
100
AcDbEntity
  8
0
100
AcDbLine
 62
7
  6
CONTINUOUS
 10
172.1808710539
 20
87.5571845967
 11
172.1808710539
 21
87.8118255591
  0
LINE
  5
2C0
100
AcDbEntity
  8
DRAFT
100
AcDbLine
 62
7
  6
CONTINUOUS
 10
172.1821869197
 20
84.0571863231
 11
172.1821869232
 21
80.9259548724
  0
LINE
  5
2C1
100
AcDbEntity
  8
DRAFT
100
AcDbLine
 62
7
  6
CONTINUOUS
 10
172.3134216414
 20
84.0586761944
 11
172.3134216448
 21
81.0586776742
  0
LINE
  5
2C2
100
AcDbEntity
  8
0
100
AcDbLine
 62
253
  6
CONTINUOUS
 10
73.4953533396
 20
132.5041391505
 11
72.4970652304
 21
132.4766534462
  0
LINE
  5
2C3
100
AcDbEntity
  8
0
100
AcDbLine
 62
253
  6
CONTINUOUS
 10
216.9100686167
 20
133.7724745391
 11
74.4516735275
 21
133.7724745391
  0
LINE
  5
2C4
100
AcDbEntity
  8
0
100
AcDbLine
 62
253
  6
CONTINUOUS
 10
74.4516734603
 20
134.5536593983
 11
216.9100686583
 21
134.5536593983
  0
LINE
  5
2C5
100
AcDbEntity
  8
0
100
AcDbLine
 62
253
  6
CONTINUOUS
 10
217.8663887814
 20
132.5041391415
 11
218.8646917251
 21
132.4766520268
  0
LINE
  5
2C6
100
AcDbEntity
  8
0
100
AcDbLine
 62
7
  6
CONTINUOUS
 10
177.7189909039
 20
105.3618253786
 11
177.7189909039
 21
107.8618253332
  0
LINE
  5
2C7
100
AcDbEntity
  8
0
100
AcDbLine
 62
7
  6
CONTINUOUS
 10
178.1808710603
 20
105.3618254301
 11
178.1808710603
 21
107.8618253551
  0
LINE
  5
2C8
100
AcDbEntity
  8
0
100
AcDbLine
 62
7
  6
CONTINUOUS
 10
178.6808710603
 20
107.8618255585
 11
178.6808710603
 21
105.3618256963
  0
LINE
  5
2C9
100
AcDbEntity
  8
0
100
AcDbLine
 62
7
  6
CONTINUOUS
 10
179.1427512753
 20
105.3618256971
 11
179.1427512753
 21
107.8618255661
  0
LINE
  5
2CA
100
AcDbEntity
  8
DRAFT
100
AcDbLine
 62
7
  6
CONTINUOUS
 10
181.0483264185
 20
81.0586776742
 11
181.048326415
 21
84.0586761944
  0
LINE
  5
2CB
100
AcDbEntity
  8
DRAFT
100
AcDbLine
 62
7
  6
CONTINUOUS
 10
181.1795576874
 20
80.9259548724
 11
181.1795576839
 21
84.0571863231
  0
LINE
  5
2CC
100
AcDbEntity
  8
0
100
AcDbLine
 62
7
  6
CONTINUOUS
 10
181.1808710251
 20
87.8118255591
 11
181.1808710251
 21
87.5571845967
  0
LINE
  5
2CD
100
AcDbEntity
  8
0
100
AcDbLine
 62
7
  6
CONTINUOUS
 10
182.2189908453
 20
107.8618255591
 11
182.2189908453
 21
105.3618255591
  0
LINE
  5
2CE
100
AcDbEntity
  8
0
100
AcDbLine
 62
7
  6
CONTINUOUS
 10
182.7542876987
 20
124.3292853661
 11
182.5808710603
 21
118.359715552
  0
LINE
  5
2CF
100
AcDbEntity
  8
RACCORDO
100
AcDbLine
 62
253
  6
CONTINUOUS
 10
157.1397953891
 20
72.7581757499
 11
157.8289462528
 21
73.4465563272
  0
LINE
  5
2D0
100
AcDbEntity
  8
0
100
AcDbLine
 62
7
  6
CONTINUOUS
 10
182.5808710603
 20
131.0572258312
 11
182.6157811903
 21
130.3292853617
  0
LINE
  5
2D1
100
AcDbEntity
  8
0
100
AcDbLine
 62
7
  6
CONTINUOUS
 10
185.4074544222
 20
124.3292853661
 11
185.5808710603
 21
118.359715552
  0
LINE
  5
2D2
100
AcDbEntity
  8
0
100
AcDbLine
 62
7
  6
CONTINUOUS
 10
182.5808710202
 20
118.3597155316
 11
182.5808710202
 21
131.0572258184
  0
LINE
  5
2D3
100
AcDbEntity
  8
0
100
AcDbLine
 62
7
  6
CONTINUOUS
 10
182.6157811903
 20
130.3292853617
 11
182.6157811903
 21
119.5614367919
  0
LINE
  5
2D4
100
AcDbEntity
  8
0
100
AcDbLine
 62
7
  6
CONTINUOUS
 10
182.6808710603
 20
105.3618255597
 11
182.6808710603
 21
107.8618255585
  0
LINE
  5
2D5
100
AcDbEntity
  8
0
100
AcDbLine
 62
7
  6
CONTINUOUS
 10
183.1808710603
 20
107.8618255591
 11
183.1808710603
 21
105.3618255591
  0
LINE
  5
2D6
100
AcDbEntity
  8
0
100
AcDbLine
 62
7
  6
CONTINUOUS
 10
183.6427512025
 20
107.8618255691
 11
183.6427512025
 21
105.3618255555
  0
LINE
  5
2D7
100
AcDbEntity
  8
0
100
AcDbLine
 62
7
  6
CONTINUOUS
 10
185.5808710374
 20
131.0572258184
 11
185.5808710374
 21
118.3597155316
  0
LINE
  5
2D8
100
AcDbEntity
  8
RACCORDO
100
AcDbLine
 62
7
  6
CONTINUOUS
 10
186.6808722987
 20
86.7571849913
 11
186.6808723021
 21
83.7571864711
  0
LINE
  5
2D9
100
AcDbEntity
  8
0
100
AcDbLine
 62
7
  6
CONTINUOUS
 10
186.8808710603
 20
83.8118255591
 11
186.8808710603
 21
87.8118255573
  0
LINE
  5
2DA
100
AcDbEntity
  8
0
100
AcDbLine
 62
7
  6
CONTINUOUS
 10
187.0296017885
 20
87.9605562766
 11
187.0296017885
 21
83.8118255644
  0
LINE
  5
2DB
100
AcDbEntity
  8
0
100
AcDbLine
 62
7
  6
CONTINUOUS
 10
185.5808710603
 20
131.0572258312
 11
185.5459609304
 21
130.3292853617
  0
LINE
  5
2DC
100
AcDbEntity
  8
DRAFT
100
AcDbLine
 62
7
  6
CONTINUOUS
 10
172.1821869232
 20
80.9259548724
 11
172.3134216448
 21
81.0586776742
  0
LINE
  5
2DD
100
AcDbEntity
  8
RACCORDO
100
AcDbLine
 62
253
  6
CONTINUOUS
 10
163.1776021135
 20
71.4498279408
 11
163.8667529773
 21
72.1382085181
  0
LINE
  5
2DE
100
AcDbEntity
  8
0
100
AcDbLine
 62
7
  6
CONTINUOUS
 10
73.3807363621
 20
147.9922915427
 11
217.9810261236
 21
147.9922915427
  0
LINE
  5
2DF
100
AcDbEntity
  8
RACCORDO
100
AcDbLine
 62
7
  6
CONTINUOUS
 10
217.9817793025
 20
148.2486609235
 11
73.3799597133
 21
148.2486607132
  0
LINE
  5
2E0
100
AcDbEntity
  8
0
100
AcDbLine
 62
7
  6
CONTINUOUS
 10
186.8808710603
 20
87.8118255573
 11
187.0296017883
 21
87.9605562855
  0
LWPOLYLINE
  5
2E1
100
AcDbEntity
  8
RACCORDO
100
AcDbPolyline
 62
7
  6
CONTINUOUS
 90
17
 70
0
 10
75.7071721982
 20
152.968957995
 10
75.593712995
 20
152.9648686154
 10
75.4815396581
 20
152.9555161293
 10
75.3709049342
 20
152.9409966938
 10
75.2620560119
 20
152.9214196923
 10
75.1552436459
 20
152.8968983246
 10
75.0506778556
 20
152.8675398799
 10
74.948586993
 20
152.8334687067
 10
74.8492245168
 20
152.7948180427
 10
74.7528223228
 20
152.7517212204
 10
74.6595777502
 20
152.7043231353
 10
74.5696762761
 20
152.6527600288
 10
74.4833354101
 20
152.5971867164
 10
74.4007456241
 20
152.5377780385
 10
74.3220530445
 20
152.474677918
 10
74.2474553736
 20
152.4080626443
 10
74.2087836006
 20
152.3705458989
  0
LINE
  5
2E2
100
AcDbEntity
  8
RACCORDO
100
AcDbLine
 62
7
  6
CONTINUOUS
 10
75.7373091622
 20
152.969146835
 11
75.7071721982
 21
152.968957995
  0
LINE
  5
2E3
100
AcDbEntity
  8
RACCORDO
100
AcDbLine
 62
253
  6
CONTINUOUS
 10
215.6244315022
 20
152.9155655998
 11
75.7373111855
 21
152.9155654755
  0
LINE
  5
2E4
100
AcDbEntity
  8
RACCORDO
100
AcDbLine
 62
7
  6
CONTINUOUS
 10
215.624432431
 20
152.9691499927
 11
75.7373091715
 21
152.9691499927
  0
LINE
  5
2E5
100
AcDbEntity
  8
RACCORDO
100
AcDbLine
 62
7
  6
CONTINUOUS
 10
215.6612899162
 20
152.9688648479
 11
215.6244324308
 21
152.9691469888
  0
LINE
  5
2E6
100
AcDbEntity
  8
0
100
AcDbLine
 62
7
  6
CONTINUOUS
 10
204.3321403434
 20
83.8118255644
 11
204.3321403434
 21
92.9397289488
  0
LINE
  5
2E7
100
AcDbEntity
  8
0
100
AcDbLine
 62
7
  6
CONTINUOUS
 10
204.4808710604
 20
81.8726533553
 11
204.4808710604
 21
83.8118255679
  0
LINE
  5
2E8
100
AcDbEntity
  8
0
100
AcDbLine
 62
7
  6
CONTINUOUS
 10
204.6558483878
 20
91.428955724
 11
204.6558483878
 21
83.1032767642
  0
LINE
  5
2E9
100
AcDbEntity
  8
RACCORDO
100
AcDbLine
 62
7
  6
CONTINUOUS
 10
204.680872293
 20
91.6801108167
 11
204.6808723021
 21
83.7571864711
  0
LINE
  5
2EA
100
AcDbEntity
  8
RACCORDO
100
AcDbLine
 62
253
  6
CONTINUOUS
 10
214.8681371917
 20
72.1382108743
 11
214.8681380478
 21
71.1857755025
  0
LINE
  5
2EB
100
AcDbEntity
  8
RACCORDO
100
AcDbLine
 62
253
  6
CONTINUOUS
 10
215.6244324845
 20
152.9155655998
 11
215.624432431
 21
152.9691499927
  0
LINE
  5
2EC
100
AcDbEntity
  8
0
100
AcDbLine
 62
253
  6
CONTINUOUS
 10
216.1874880133
 20
66.470825482
 11
216.1874880133
 21
66.2077442611
  0
LINE
  5
2ED
100
AcDbEntity
  8
0
100
AcDbLine
 62
253
  6
CONTINUOUS
 10
216.6777342523
 20
92.9397289421
 11
216.6777342523
 21
92.5127811289
  0
LINE
  5
2EE
100
AcDbEntity
  8
0
100
AcDbLine
 62
253
  6
CONTINUOUS
 10
216.9100686583
 20
133.7724745385
 11
216.9100686583
 21
134.5536593983
  0
LINE
  5
2EF
100
AcDbEntity
  8
0
100
AcDbLine
 62
7
  6
CONTINUOUS
 10
218.0168057743
 20
62.6118255591
 11
218.0168057743
 21
62.6061855714
  0
LINE
  5
2F0
100
AcDbEntity
  8
RACCORDO
100
AcDbLine
 62
7
  6
CONTINUOUS
 10
219.9808710607
 20
146.5186935747
 11
219.9808710607
 21
146.2611221699
  0
LINE
  5
2F1
100
AcDbEntity
  8
0
100
AcDbLine
 62
7
  6
CONTINUOUS
 10
219.9808710603
 20
146.2611221699
 11
219.9808748019
 21
64.6088032109
  0
LWPOLYLINE
  5
2F2
100
AcDbEntity
  8
RACCORDO
100
AcDbPolyline
 62
7
  6
CONTINUOUS
 90
16
 70
0
 10
219.9717942319
 20
146.6834904847
 10
219.9208239083
 20
147.0701307791
 10
219.8439508462
 20
147.5015124477
 10
219.7467883525
 20
147.9267960717
 10
219.6296805538
 20
148.3451346545
 10
219.4927456972
 20
148.7566594782
 10
219.3356533063
 20
149.1623921202
 10
219.158454377
 20
149.5619294373
 10
218.9612115756
 20
149.9548939237
 10
218.743229259
 20
150.3422315468
 10
218.5043965022
 20
150.7235235025
 10
218.2445985036
 20
151.0983897769
 10
217.9627236601
 20
151.4677276312
 10
217.6580890742
 20
151.8315298093
 10
217.3306797326
 20
152.188968064
 10
217.1535522317
 20
152.369961865
  0
LWPOLYLINE
  5
2F3
100
AcDbEntity
  8
RACCORDO
100
AcDbPolyline
 62
7
  6
CONTINUOUS
 90
17
 70
0
 10
217.152956279
 20
152.3705488649
 10
217.1164728451
 20
152.4060000639
 10
217.0421616703
 20
152.4725825502
 10
216.9637658684
 20
152.5356710684
 10
216.8814813912
 20
152.595090027
 10
216.7954520376
 20
152.6506974037
 10
216.705866775
 20
152.7023180795
 10
216.6129415434
 20
152.7497970893
 10
216.5168591457
 20
152.7929996384
 10
216.4178154567
 20
152.8317805806
 10
216.3160410289
 20
152.8660059872
 10
216.2117864829
 20
152.8955435304
 10
216.1052790286
 20
152.9202686546
 10
215.996728249
 20
152.9400734814
 10
215.8863826051
 20
152.9548453362
 10
215.7744864995
 20
152.9644746092
 10
215.6612899162
 20
152.9688648479
  0
LINE
  5
2F4
100
AcDbEntity
  8
RACCORDO
100
AcDbLine
 62
7
  6
CONTINUOUS
 10
217.1535546504
 20
152.369959448
 11
217.1529915512
 21
152.3705221317
  0
ARC
  5
2F5
100
AcDbEntity
  8
RACCORDO
100
AcDbCircle
 62
7
  6
CONTINUOUS
 10
-5133.2457347726
 20
-40.2060890125
 40
5207.793012709
100
AcDbArc
 50
1.1953180947
 51
1.3792487466
  0
ARC
  5
2F6
100
AcDbEntity
  8
0
100
AcDbCircle
 62
253
  6
CONTINUOUS
 10
-5122.3122509774
 20
-38.8002301724
 40
5196.6039394137
100
AcDbArc
 50
1.1794763963
 51
1.3666553193
  0
ARC
  5
2F7
100
AcDbEntity
  8
RACCORDO
100
AcDbCircle
 62
253
  6
CONTINUOUS
 10
-5110.7583911055
 20
-83.7094541411
 40
5187.6433888007
100
AcDbArc
 50
1.7322276861
 51
1.8662234146
  0
ARC
  5
2F8
100
AcDbEntity
  8
RACCORDO
100
AcDbCircle
 62
253
  6
CONTINUOUS
 10
-5106.4193151798
 20
-83.4112691441
 40
5184.2946158428
100
AcDbArc
 50
1.730373497
 51
1.8644815266
  0
ARC
  5
2F9
100
AcDbEntity
  8
RACCORDO
100
AcDbCircle
 62
253
  6
CONTINUOUS
 10
-60.2341190888
 20
127.4266488933
 40
280.6525729173
100
AcDbArc
 50
351.35293932
 51
352.3067681132
  0
ARC
  5
2FA
100
AcDbEntity
  8
0
100
AcDbCircle
 62
253
  6
CONTINUOUS
 10
-56.3403966847
 20
127.0527918695
 40
276.935935275
100
AcDbArc
 50
352.3608463953
 51
356.1818897067
  0
ARC
  5
2FB
100
AcDbEntity
  8
0
100
AcDbCircle
 62
253
  6
CONTINUOUS
 10
-51.7830178876
 20
114.5582717064
 40
127.3507154592
100
AcDbArc
 50
348.9908581886
 51
350.151225596
  0
ARC
  5
2FC
100
AcDbEntity
  8
RACCORDO
100
AcDbCircle
 62
7
  6
CONTINUOUS
 10
-42.5794290956
 20
112.5220412796
 40
118.2416890733
100
AcDbArc
 50
348.9483966134
 51
350.1150167275
  0
ARC
  5
2FD
100
AcDbEntity
  8
ASSI
100
AcDbCircle
 62
7
  6
CONTINUOUS
 10
95.6808723022
 20
83.7571864711
 40
9.0
100
AcDbArc
 50
180.0
 51
360.0
  0
ARC
  5
2FE
100
AcDbEntity
  8
0
100
AcDbCircle
 62
7
  6
CONTINUOUS
 10
95.6808710603
 20
83.8118255591
 40
8.8
100
AcDbArc
 50
180.0000000208
 51
359.9999999792
  0
ARC
  5
2FF
100
AcDbEntity
  8
0
100
AcDbCircle
 62
7
  6
CONTINUOUS
 10
95.6808710603
 20
83.8118255591
 40
8.651269272
100
AcDbArc
 50
179.9999999651
 51
360.0
  0
CIRCLE
  5
300
100
AcDbEntity
  8
0
100
AcDbCircle
 62
7
  6
CONTINUOUS
 10
95.6808710603
 20
83.8118255591
 40
6.866025404
  0
CIRCLE
  5
301
100
AcDbEntity
  8
0
100
AcDbCircle
 62
7
  6
CONTINUOUS
 10
87.6808710603
 20
125.6118255591
 40
6.866025404
  0
CIRCLE
  5
302
100
AcDbEntity
  8
0
100
AcDbCircle
 62
7
  6
CONTINUOUS
 10
87.6808710603
 20
125.6118255591
 40
6.0
  0
CIRCLE
  5
303
100
AcDbEntity
  8
0
100
AcDbCircle
 62
7
  6
CONTINUOUS
 10
95.6808710603
 20
83.8118255591
 40
6.0
  0
CIRCLE
  5
304
100
AcDbEntity
  8
0
100
AcDbCircle
 62
7
  6
CONTINUOUS
 10
87.6808710603
 20
125.6118255591
 40
4.048134511
  0
CIRCLE
  5
305
100
AcDbEntity
  8
0
100
AcDbCircle
 62
7
  6
CONTINUOUS
 10
95.6808710603
 20
83.8118255591
 40
4.048134511
  0
ARC
  5
306
100
AcDbEntity
  8
0
100
AcDbCircle
 62
7
  6
CONTINUOUS
 10
110.6808710603
 20
105.3618255591
 40
2.961880215
100
AcDbArc
 50
180.0000034917
 51
359.9999999301
  0
ARC
  5
307
100
AcDbEntity
  8
0
100
AcDbCircle
 62
7
  6
CONTINUOUS
 10
110.6808710603
 20
107.8618255591
 40
2.961880215
100
AcDbArc
 50
0.0000001934
 51
180.0000032285
  0
ARC
  5
308
100
AcDbEntity
  8
0
100
AcDbCircle
 62
7
  6
CONTINUOUS
 10
110.6808710603
 20
107.8618255591
 40
2.5
100
AcDbArc
 50
0.0
 51
180.0000034932
  0
ARC
  5
309
100
AcDbEntity
  8
0
100
AcDbCircle
 62
7
  6
CONTINUOUS
 10
110.6808710603
 20
105.3618255591
 40
2.5
100
AcDbArc
 50
179.9999999858
 51
360.0
  0
ARC
  5
30A
100
AcDbEntity
  8
0
100
AcDbCircle
 62
7
  6
CONTINUOUS
 10
110.6808710603
 20
105.3618255591
 40
2.0
100
AcDbArc
 50
179.999997373
 51
360.0
  0
ARC
  5
30B
100
AcDbEntity
  8
0
100
AcDbCircle
 62
7
  6
CONTINUOUS
 10
110.6808710603
 20
107.8618255591
 40
2.0
100
AcDbArc
 50
0.0
 51
180.0000000178
  0
ARC
  5
30C
100
AcDbEntity
  8
0
100
AcDbCircle
 62
7
  6
CONTINUOUS
 10
73.3450732237
 20
64.3211168995
 40
1.714931311
100
AcDbArc
 50
264.3718920302
 51
269.9954404814
  0
ARC
  5
30D
100
AcDbEntity
  8
0
100
AcDbCircle
 62
7
  6
CONTINUOUS
 10
110.6808710603
 20
105.3618255591
 40
1.538119785
100
AcDbArc
 50
179.9999966481
 51
359.9999999886
  0
ARC
  5
30E
100
AcDbEntity
  8
0
100
AcDbCircle
 62
7
  6
CONTINUOUS
 10
110.6808710603
 20
107.8618255591
 40
1.538119785
100
AcDbArc
 50
0.0000000114
 51
179.9999999886
  0
ARC
  5
30F
100
AcDbEntity
  8
RACCORDO
100
AcDbCircle
 62
7
  6
CONTINUOUS
 10
72.8839578995
 20
146.518492444
 40
1.5030868308
100
AcDbArc
 50
173.6975267738
 51
179.9923237211
  0
ARC
  5
310
100
AcDbEntity
  8
RACCORDO
100
AcDbCircle
 62
7
  6
CONTINUOUS
 10
105.4808722987
 20
86.7571849913
 40
0.8
100
AcDbArc
 50
90.0000000655
 51
180.0
  0
ARC
  5
311
100
AcDbEntity
  8
0
100
AcDbCircle
 62
253
  6
CONTINUOUS
 10
74.1953825859
 20
92.8324943636
 40
0.5176543035
100
AcDbArc
 50
233.6203224636
 51
249.4509899172
  0
ARC
  5
312
100
AcDbEntity
  8
0
100
AcDbCircle
 62
253
  6
CONTINUOUS
 10
73.3811204865
 20
88.6206433335
 40
0.5080057296
100
AcDbArc
 50
225.6143262191
 51
239.0617636286
  0
ARC
  5
313
100
AcDbEntity
  8
0
100
AcDbCircle
 62
253
  6
CONTINUOUS
 10
-8588.552146491
 20
377.2799738109
 40
8809.8196706115
100
AcDbArc
 50
358.1504359468
 51
358.4078644231
  0
ARC
  5
314
100
AcDbEntity
  8
0
100
AcDbCircle
 62
253
  6
CONTINUOUS
 10
-8544.0369274458
 20
376.111412241
 40
8766.2878539712
100
AcDbArc
 50
358.1478135202
 51
358.4074169814
  0
ARC
  5
315
100
AcDbEntity
  8
0
100
AcDbCircle
 62
253
  6
CONTINUOUS
 10
158.3524672671
 20
86.6356214816
 40
60.2143541959
100
AcDbArc
 50
358.6052743154
 51
359.6952629207
  0
ARC
  5
316
100
AcDbEntity
  8
ASSI
100
AcDbCircle
 62
7
  6
CONTINUOUS
 10
195.6808723021
 20
83.7571864711
 40
9.0
100
AcDbArc
 50
180.0
 51
360.0
  0
ARC
  5
317
100
AcDbEntity
  8
0
100
AcDbCircle
 62
7
  6
CONTINUOUS
 10
195.6808710603
 20
83.8118255591
 40
8.8
100
AcDbArc
 50
180.0000000208
 51
359.9999999792
  0
ARC
  5
318
100
AcDbEntity
  8
0
100
AcDbCircle
 62
7
  6
CONTINUOUS
 10
195.6808710603
 20
83.8118255591
 40
8.651269272
100
AcDbArc
 50
179.9999999651
 51
360.0
  0
ARC
  5
319
100
AcDbEntity
  8
0
100
AcDbCircle
 62
7
  6
CONTINUOUS
 10
145.6808710603
 20
104.1118255591
 40
7.961880215
100
AcDbArc
 50
179.9999998628
 51
0.0000001372
  0
ARC
  5
31A
100
AcDbEntity
  8
0
100
AcDbCircle
 62
7
  6
CONTINUOUS
 10
145.6808710603
 20
104.1118255591
 40
7.5
100
AcDbArc
 50
179.9999999943
 51
360.0
  0
ARC
  5
31B
100
AcDbEntity
  8
0
100
AcDbCircle
 62
7
  6
CONTINUOUS
 10
145.6808710603
 20
104.1118255591
 40
7.0
100
AcDbArc
 50
179.9999999939
 51
360.0
  0
CIRCLE
  5
31C
100
AcDbEntity
  8
0
100
AcDbCircle
 62
7
  6
CONTINUOUS
 10
195.6808710603
 20
83.8118255591
 40
6.866025404
  0
ARC
  5
31D
100
AcDbEntity
  8
0
100
AcDbCircle
 62
7
  6
CONTINUOUS
 10
145.6808710603
 20
104.1118255591
 40
6.538119785
100
AcDbArc
 50
179.9999999855
 51
360.0
  0
CIRCLE
  5
31E
100
AcDbEntity
  8
0
100
AcDbCircle
 62
7
  6
CONTINUOUS
 10
195.6808710603
 20
83.8118255591
 40
6.0
  0
ARC
  5
31F
100
AcDbEntity
  8
ASSI
100
AcDbCircle
 62
7
  6
CONTINUOUS
 10
144.8754505809
 20
79.472296124
 40
5.7566414775
100
AcDbArc
 50
242.3393730012
 51
242.5976308865
  0
ARC
  5
320
100
AcDbEntity
  8
ASSI
100
AcDbCircle
 62
7
  6
CONTINUOUS
 10
146.4863171281
 20
79.4722910295
 40
5.7566375009
100
AcDbArc
 50
297.4021643447
 51
297.6606607102
  0
ARC
  5
321
100
AcDbEntity
  8
ASSI
100
AcDbCircle
 62
7
  6
CONTINUOUS
 10
146.5380377242
 20
80.5244575865
 40
5.6459542046
100
AcDbArc
 50
297.6568048995
 51
299.0993636645
  0
ARC
  5
322
100
AcDbEntity
  8
ASSI
100
AcDbCircle
 62
7
  6
CONTINUOUS
 10
144.8237289074
 20
80.5244567042
 40
5.6459513583
100
AcDbArc
 50
240.9003322489
 51
242.3432309274
  0
CIRCLE
  5
323
100
AcDbEntity
  8
0
100
AcDbCircle
 62
7
  6
CONTINUOUS
 10
195.6808710603
 20
83.8118255591
 40
4.048134511
  0
ARC
  5
324
100
AcDbEntity
  8
0
100
AcDbCircle
 62
7
  6
CONTINUOUS
 10
180.6808710603
 20
105.3618255591
 40
2.961880215
100
AcDbArc
 50
180.0000034917
 51
359.9999999301
  0
ARC
  5
325
100
AcDbEntity
  8
ASSI
100
AcDbCircle
 62
7
  6
CONTINUOUS
 10
148.5325365862
 20
78.3723358466
 40
2.6666583303
100
AcDbArc
 50
332.5145843073
 51
338.9415373663
  0
ARC
  5
326
100
AcDbEntity
  8
ASSI
100
AcDbCircle
 62
7
  6
CONTINUOUS
 10
142.7935248932
 20
78.3562421418
 40
2.6275565879
100
AcDbArc
 50
201.0107177667
 51
207.5334223321
  0
ARC
  5
327
100
AcDbEntity
  8
0
100
AcDbCircle
 62
7
  6
CONTINUOUS
 10
180.6808710603
 20
105.3618255591
 40
2.5
100
AcDbArc
 50
179.9999999858
 51
360.0
  0
ARC
  5
328
100
AcDbEntity
  8
0
100
AcDbCircle
 62
7
  6
CONTINUOUS
 10
180.6808710603
 20
105.3618255591
 40
2.0
100
AcDbArc
 50
179.9999960684
 51
360.0
  0
ARC
  5
329
100
AcDbEntity
  8
0
100
AcDbCircle
 62
7
  6
CONTINUOUS
 10
218.0164958386
 20
64.3232008188
 40
1.7170210173
100
AcDbArc
 50
272.8735986951
 51
275.7326207546
  0
ARC
  5
32A
100
AcDbEntity
  8
0
100
AcDbCircle
 62
7
  6
CONTINUOUS
 10
218.0167637157
 20
64.3175037709
 40
1.7113177037
100
AcDbArc
 50
270.001394341
 51
272.8742036291
  0
ARC
  5
32B
100
AcDbEntity
  8
0
100
AcDbCircle
 62
7
  6
CONTINUOUS
 10
180.6808710603
 20
105.3618255591
 40
1.538119785
100
AcDbArc
 50
179.9999949664
 51
359.9999999886
  0
ARC
  5
32C
100
AcDbEntity
  8
RACCORDO
100
AcDbCircle
 62
7
  6
CONTINUOUS
 10
185.8808722987
 20
86.7571849913
 40
0.8
100
AcDbArc
 50
0.0
 51
90.0000000655
  0
ARC
  5
32D
100
AcDbEntity
  8
0
100
AcDbCircle
 62
7
  6
CONTINUOUS
 10
145.6808710603
 20
107.1118255591
 40
7.961880215
100
AcDbArc
 50
0.000000085
 51
179.999999915
  0
ARC
  5
32E
100
AcDbEntity
  8
0
100
AcDbCircle
 62
7
  6
CONTINUOUS
 10
145.6808710603
 20
107.1118255591
 40
7.5
100
AcDbArc
 50
0.0
 51
180.0000000057
  0
ARC
  5
32F
100
AcDbEntity
  8
0
100
AcDbCircle
 62
7
  6
CONTINUOUS
 10
145.6808710603
 20
107.1118255591
 40
7.0
100
AcDbArc
 50
0.0
 51
180.0000000061
  0
CIRCLE
  5
330
100
AcDbEntity
  8
0
100
AcDbCircle
 62
7
  6
CONTINUOUS
 10
203.6808710603
 20
125.6118255591
 40
6.866025404
  0
ARC
  5
331
100
AcDbEntity
  8
0
100
AcDbCircle
 62
7
  6
CONTINUOUS
 10
145.6808710603
 20
107.1118255591
 40
6.538119785
100
AcDbArc
 50
0.0
 51
180.0000000145
  0
CIRCLE
  5
332
100
AcDbEntity
  8
0
100
AcDbCircle
 62
7
  6
CONTINUOUS
 10
203.6808710603
 20
125.6118255591
 40
6.0
  0
CIRCLE
  5
333
100
AcDbEntity
  8
0
100
AcDbCircle
 62
7
  6
CONTINUOUS
 10
203.6808710603
 20
125.6118255591
 40
4.048134511
  0
ARC
  5
334
100
AcDbEntity
  8
0
100
AcDbCircle
 62
7
  6
CONTINUOUS
 10
180.6808710603
 20
107.8618255591
 40
2.961880215
100
AcDbArc
 50
0.0000001934
 51
180.0000043691
  0
ARC
  5
335
100
AcDbEntity
  8
0
100
AcDbCircle
 62
7
  6
CONTINUOUS
 10
180.6808710603
 20
107.8618255591
 40
2.5
100
AcDbArc
 50
0.0
 51
180.0000047109
  0
ARC
  5
336
100
AcDbEntity
  8
0
100
AcDbCircle
 62
7
  6
CONTINUOUS
 10
180.6808710603
 20
107.8618255591
 40
2.0
100
AcDbArc
 50
0.0
 51
180.0000000178
  0
ARC
  5
337
100
AcDbEntity
  8
0
100
AcDbCircle
 62
7
  6
CONTINUOUS
 10
180.6808710603
 20
107.8618255591
 40
1.538119785
100
AcDbArc
 50
0.0000000114
 51
179.9999999886
  0
ARC
  5
338
100
AcDbEntity
  8
RACCORDO
100
AcDbCircle
 62
7
  6
CONTINUOUS
 10
218.4777771555
 20
146.5184924418
 40
1.5030939187
100
AcDbArc
 50
0.0076668943
 51
6.3021678079
  0
ARC
  5
339
100
AcDbEntity
  8
RACCORDO
100
AcDbCircle
 62
253
  6
CONTINUOUS
 10
351.5955619088
 20
127.4254701845
 40
280.6520952302
100
AcDbArc
 50
187.6930022387
 51
188.6468321078
  0
ARC
  5
33A
100
AcDbEntity
  8
0
100
AcDbCircle
 62
253
  6
CONTINUOUS
 10
347.7021388051
 20
127.0527918695
 40
276.9359352748
100
AcDbArc
 50
183.8181102933
 51
187.6391536047
  0
ARC
  5
33B
100
AcDbEntity
  8
0
100
AcDbCircle
 62
253
  6
CONTINUOUS
 10
343.1571266501
 20
114.5605478652
 40
127.3632891826
100
AcDbArc
 50
189.8488316808
 51
191.0090845291
  0
ARC
  5
33C
100
AcDbEntity
  8
RACCORDO
100
AcDbCircle
 62
7
  6
CONTINUOUS
 10
342.4382240091
 20
114.0930064109
 40
126.8823132599
100
AcDbArc
 50
189.9251488274
 51
191.0123217544
  0
ARC
  5
33D
100
AcDbEntity
  8
RACCORDO
100
AcDbCircle
 62
7
  6
CONTINUOUS
 10
5424.6787544224
 20
-40.2076777612
 40
5207.8642618545
100
AcDbArc
 50
178.6207526425
 51
178.804680778
  0
ARC
  5
33E
100
AcDbEntity
  8
0
100
AcDbCircle
 62
253
  6
CONTINUOUS
 10
5413.6735216134
 20
-38.8002198265
 40
5196.6034678159
100
AcDbArc
 50
178.6333446587
 51
178.8205236107
  0
ARC
  5
33F
100
AcDbEntity
  8
RACCORDO
100
AcDbCircle
 62
253
  6
CONTINUOUS
 10
5402.1201644977
 20
-83.7094484572
 40
5187.6434152455
100
AcDbArc
 50
178.1337766578
 51
178.2677723856
  0
ARC
  5
340
100
AcDbEntity
  8
RACCORDO
100
AcDbCircle
 62
253
  6
CONTINUOUS
 10
5397.7812039122
 20
-83.4112617586
 40
5184.2947596578
100
AcDbArc
 50
178.1355186068
 51
178.2696266328
  0
ARC
  5
341
100
AcDbEntity
  8
0
100
AcDbCircle
 62
253
  6
CONTINUOUS
 10
8837.6857600014
 20
376.1801848482
 40
8768.5759722932
100
AcDbArc
 50
181.5926168766
 51
181.8521526022
  0
ARC
  5
342
100
AcDbEntity
  8
0
100
AcDbCircle
 62
253
  6
CONTINUOUS
 10
8800.4368194268
 20
374.8922021339
 40
8730.3069434153
100
AcDbArc
 50
181.5909632885
 51
181.8507363416
  0
SPLINE
  5
343
100
AcDbEntity
  8
RACCORDO
100
AcDbSpline
 62
7
  6
CONTINUOUS
 70
0
 71
3
 72
11
 73
7
 74
5
 42
0.0000001
 43
0.0000001
 44
0.0000000001
 12
-0.0000000015
 22
1.2800565716
 32
0.0
 13
-1.2800565716
 23
-0.0
 33
0.0
 40
0.0
 40
0.0
 40
0.0
 40
0.0
 40
0.2501041098
 40
0.5001775809
 40
0.7501232149
 40
1.0
 40
1.0
 40
1.0
 40
1.0
 10
86.6808722931
 20
91.6801108167
 30
0.0
 10
86.680872293
 20
91.7868266198
 30
0.0
 10
86.641429243
 20
92.002312287
 30
0.0
 10
86.4691636037
 20
92.280967241
 30
0.0
 10
86.2033619254
 20
92.4739378678
 30
0.0
 10
85.9874910991
 20
92.5202581164
 30
0.0
 10
85.8808722921
 20
92.5202581164
 30
0.0
 11
86.6808722931
 21
91.6801108167
 31
0.0
 11
86.6225688601
 21
91.9949045164
 31
0.0
 11
86.4535254655
 21
92.26673826
 31
0.0
 11
86.1936578432
 21
92.4533751662
 31
0.0
 11
85.8808722921
 21
92.5202581164
 31
0.0
  0
SPLINE
  5
344
100
AcDbEntity
  8
RACCORDO
100
AcDbSpline
 62
7
  6
CONTINUOUS
 70
0
 71
3
 72
11
 73
7
 74
5
 42
0.0000001
 43
0.0000001
 44
0.0000000001
 12
-1.2800566046
 22
0.0
 32
0.0
 13
0.0000000015
 23
-1.2800566046
 33
0.0
 40
0.0
 40
0.0
 40
0.0
 40
0.0
 40
0.2498814017
 40
0.4998301022
 40
0.7499004776
 40
1.0
 40
1.0
 40
1.0
 40
1.0
 10
205.4808722921
 20
92.5202581164
 30
0.0
 10
205.3742515125
 20
92.5202581164
 30
0.0
 10
205.1583772834
 20
92.4739360228
 30
0.0
 10
204.8925759097
 20
92.2809614479
 30
0.0
 10
204.7203133326
 20
92.0023071133
 30
0.0
 10
204.6808722929
 20
91.7868246651
 30
0.0
 10
204.680872293
 20
91.6801108167
 30
0.0
 11
205.4808722921
 21
92.5202581164
 31
0.0
 11
205.1680812476
 21
92.453372556
 31
0.0
 11
204.9082122587
 21
92.2667308095
 31
0.0
 11
204.739173213
 21
91.9948990182
 31
0.0
 11
204.680872293
 21
91.6801108167
 31
0.0
  0
SPLINE
  5
345
100
AcDbEntity
  8
RACCORDO
100
AcDbSpline
 62
7
  6
CONTINUOUS
 70
0
 71
3
 72
11
 73
7
 74
5
 42
0.0000001
 43
0.0000001
 44
0.0000000001
 12
-3.078659907
 22
0.0000090576
 32
0.0
 13
-0.0643158249
 23
3.0779880276
 33
0.0
 40
0.0
 40
0.0
 40
0.0
 40
0.0
 40
0.2499742007
 40
0.4999145898
 40
0.7499074464
 40
1.0
 40
1.0
 40
1.0
 40
1.0
 10
75.3933301147
 20
66.4578252254
 30
0.0
 10
75.1368015981
 20
66.4578259802
 30
0.0
 10
74.6179671574
 20
66.5610257504
 30
0.0
 10
73.9644393445
 20
67.003269252
 30
0.0
 10
73.5271761614
 20
67.6592590165
 30
0.0
 10
73.4193792328
 20
68.175644885
 30
0.0
 10
73.4140175965
 20
68.4322388469
 30
0.0
 11
75.3933301147
 21
66.4578252254
 31
0.0
 11
74.638727352
 21
66.6089430229
 31
0.0
 11
74.0005327418
 21
67.0388376018
 31
0.0
 11
73.5731538767
 21
67.6789138705
 31
0.0
 11
73.4140175965
 21
68.4322388469
 31
0.0
  0
SPLINE
  5
346
100
AcDbEntity
  8
RACCORDO
100
AcDbSpline
 62
7
  6
CONTINUOUS
 70
0
 71
3
 72
11
 73
7
 74
5
 42
0.0000001
 43
0.0000001
 44
0.0000000001
 12
-0.0643156062
 22
-3.0779880276
 32
0.0
 13
-3.0786599025
 23
-0.0000108338
 33
0.0
 40
0.0
 40
0.0
 40
0.0
 40
0.0
 40
0.2500925536
 40
0.5000854083
 40
0.7500258004
 40
1.0
 40
1.0
 40
1.0
 40
1.0
 10
217.9477705496
 20
68.4322388469
 30
0.0
 10
217.9424089316
 20
68.175644885
 30
0.0
 10
217.8346119745
 20
67.6592590134
 30
0.0
 10
217.3973487981
 20
67.0032692801
 30
0.0
 10
216.7438209971
 20
66.561025668
 30
0.0
 10
216.224986551
 20
66.4578261282
 30
0.0
 10
215.968458036
 20
66.4578252254
 30
0.0
 11
217.9477705496
 21
68.4322388469
 31
0.0
 11
217.7886342671
 21
67.6789138721
 31
0.0
 11
217.361255405
 21
67.0388376098
 31
0.0
 11
216.7230607956
 21
66.6089430151
 31
0.0
 11
215.968458036
 21
66.4578252254
 31
0.0
  0
SPLINE
  5
347
100
AcDbEntity
  8
ASSI
100
AcDbSpline
 62
7
  6
CONTINUOUS
 70
0
 71
3
 72
9
 73
5
 74
3
 42
0.0000001
 43
0.0000001
 44
0.0000000001
 12
0.00000089
 22
0.8626834979
 32
0.0
 13
0.3089746123
 23
0.8054548445
 33
0.0
 40
0.0
 40
0.0
 40
0.0
 40
0.0
 40
0.2470173771
 40
1.0
 40
1.0
 40
1.0
 40
1.0
 10
140.1808784655
 20
78.714160218
 30
0.0
 10
140.1808785388
 20
78.785192823
 30
0.0
 10
140.1944327401
 20
79.0726670428
 30
0.0
 10
140.2631092029
 20
79.356951622
 30
0.0
 10
140.3406600409
 20
79.5591161225
 30
0.0
 11
140.1808784655
 21
78.714160218
 31
0.0
 11
140.1909382126
 21
78.9270204544
 31
0.0
 11
140.3406600409
 21
79.5591161225
 31
0.0
  0
SPLINE
  5
348
100
AcDbEntity
  8
ASSI
100
AcDbSpline
 62
7
  6
CONTINUOUS
 70
0
 71
3
 72
19
 73
15
 74
13
 42
0.0000001
 43
0.0000001
 44
0.0000000001
 12
4.8198635196
 22
12.5647294858
 32
0.0
 13
0.0000184966
 23
-13.4574704681
 33
0.0
 40
0.0
 40
0.0
 40
0.0
 40
0.0
 40
0.0509721617
 40
0.1060295557
 40
0.1658114473
 40
0.2302595087
 40
0.3701150674
 40
0.5172963433
 40
0.6607516597
 40
0.7905821199
 40
0.8487667407
 40
0.9023502745
 40
0.9522430565
 40
1.0
 40
1.0
 40
1.0
 40
1.0
 10
140.3406600409
 20
79.5591161225
 30
0.0
 10
140.4225529952
 20
79.7725999304
 30
0.0
 10
140.6540115589
 20
80.1946809729
 30
0.0
 10
141.1533387156
 20
80.7526947989
 30
0.0
 10
141.7972779176
 20
81.2417135059
 30
0.0
 10
142.8485628547
 20
81.7967841638
 30
0.0
 10
144.3868589665
 20
82.2226209694
 30
0.0
 10
146.332577885
 20
82.2950087146
 30
0.0
 10
148.2010020601
 20
81.9365499863
 30
0.0
 10
149.5649262022
 20
81.2836917171
 30
0.0
 10
150.3917720535
 20
80.5738660218
 30
0.0
 10
150.8389260126
 20
79.9952711325
 30
0.0
 10
151.1170459991
 20
79.3686538283
 30
0.0
 10
151.1808781711
 20
78.9283840351
 30
0.0
 10
151.1808784655
 20
78.714154816
 30
0.0
 11
140.3406600409
 21
79.5591161225
 31
0.0
 11
140.6653941582
 21
80.1633378391
 31
0.0
 11
141.1544275219
 21
80.7199602024
 31
0.0
 11
141.7917149374
 21
81.210985641
 31
0.0
 11
142.5564218528
 21
81.6201876666
 31
0.0
 11
144.3645549591
 21
82.142646086
 31
0.0
 11
146.3437487091
 21
82.219560083
 31
0.0
 11
148.2367778934
 21
81.8408159161
 31
0.0
 11
149.7976594758
 21
81.0557553272
 31
0.0
 11
150.3876365975
 21
80.5409311851
 31
0.0
 11
150.8234132246
 21
79.9664033397
 31
0.0
 11
151.0907574114
 21
79.3504924782
 31
0.0
 11
151.1808784655
 21
78.714154816
 31
0.0
  0
SPLINE
  5
349
100
AcDbEntity
  8
RACCORDO
100
AcDbSpline
 62
7
  6
CONTINUOUS
 70
0
 71
3
 72
12
 73
8
 74
6
 42
0.0000001
 43
0.0000001
 44
0.0000000001
 12
1.072539254
 22
0.0
 32
0.0
 13
0.1851989766
 23
-1.056428791
 33
0.0
 40
0.0
 40
0.0
 40
0.0
 40
0.0
 40
0.3493930851
 40
0.6495704518
 40
0.7701134789
 40
0.8678988773
 40
1.0
 40
1.0
 40
1.0
 40
1.0
 10
216.4660298172
 20
92.5202581164
 30
0.0
 10
216.5909424168
 20
92.5202581164
 30
0.0
 10
216.8234792669
 20
92.5064387217
 30
0.0
 10
217.094839788
 20
92.455417687
 30
0.0
 10
217.2705720797
 20
92.3917932664
 30
0.0
 10
217.3795677579
 20
92.3347931066
 30
0.0
 10
217.4467060854
 20
92.2699018948
 30
0.0
 10
217.4548610829
 20
92.2233834183
 30
0.0
 11
216.4660298172
 21
92.5202581164
 31
0.0
 11
216.840041369
 21
92.4969390898
 31
0.0
 11
217.1552572525
 21
92.4314254055
 31
0.0
 11
217.2764291785
 21
92.3863418616
 31
0.0
 11
217.3681047301
 21
92.3353994394
 31
0.0
 11
217.4548610829
 21
92.2233834183
 31
0.0
  0
SPLINE
  5
34A
100
AcDbEntity
  8
RACCORDO
100
AcDbSpline
 62
7
  6
CONTINUOUS
 70
0
 71
3
 72
9
 73
5
 74
3
 42
0.0000001
 43
0.0000001
 44
0.0000000001
 12
0.3497290286
 22
-1.7868911242
 32
0.0
 13
0.4028110331
 23
-1.7756783365
 33
0.0
 40
0.0
 40
0.0
 40
0.0
 40
0.0
 40
0.2659018785
 40
1.0
 40
1.0
 40
1.0
 40
1.0
 10
217.8923056423
 20
89.8559348811
 30
0.0
 10
217.9233035109
 20
89.6975556456
 30
0.0
 10
218.0417811241
 20
89.1023021252
 30
0.0
 10
218.1680461763
 20
88.5085748257
 30
0.0
 10
218.2666137839
 20
88.0740674486
 30
0.0
 11
217.8923056423
 21
89.8559348811
 31
0.0
 11
217.9868609523
 21
89.3811054967
 31
0.0
 11
218.2666137839
 21
88.0740674486
 31
0.0
  0
SPLINE
  5
34B
100
AcDbEntity
  8
RACCORDO
100
AcDbSpline
 62
7
  6
CONTINUOUS
 70
0
 71
3
 72
12
 73
8
 74
6
 42
0.0000001
 43
0.0000001
 44
0.0000000001
 12
0.1851911731
 22
1.0564283926
 32
0.0
 13
1.0725375142
 23
-0.0
 33
0.0
 40
0.0
 40
0.0
 40
0.0
 40
0.0
 40
0.1320992405
 40
0.2298846152
 40
0.3504296023
 40
0.6506091781
 40
1.0
 40
1.0
 40
1.0
 40
1.0
 10
73.906885654
 20
92.2233834183
 30
0.0
 10
73.9150401918
 20
92.2699012144
 30
0.0
 10
73.9821772623
 20
92.334792321
 30
0.0
 10
74.0911725114
 20
92.3917929984
 30
0.0
 10
74.2669060071
 20
92.4554176878
 30
0.0
 10
74.5382667059
 20
92.506438909
 30
0.0
 10
74.7708031792
 20
92.5202581164
 30
0.0
 10
74.895714767
 20
92.5202581164
 30
0.0
 11
73.906885654
 21
92.2233834183
 31
0.0
 11
73.9936397483
 21
92.3353983446
 31
0.0
 11
74.0853148519
 21
92.3863411704
 31
0.0
 11
74.2064885295
 21
92.4314254334
 31
0.0
 11
74.5217062353
 21
92.4969394266
 31
0.0
 11
74.895714767
 21
92.5202581164
 31
0.0
  0
SPLINE
  5
34C
100
AcDbEntity
  8
RACCORDO
100
AcDbSpline
 62
7
  6
CONTINUOUS
 70
0
 71
3
 72
9
 73
5
 74
3
 42
0.0000001
 43
0.0000001
 44
0.0000000001
 12
0.4027929895
 22
1.7756813533
 32
0.0
 13
0.3497137665
 23
1.7868930417
 33
0.0
 40
0.0
 40
0.0
 40
0.0
 40
0.0
 40
0.2340844217
 40
1.0
 40
1.0
 40
1.0
 40
1.0
 10
73.0951688908
 20
88.0740674486
 30
0.0
 10
73.1265980788
 20
88.2126205628
 30
0.0
 10
73.2582555943
 20
88.8051051736
 30
0.0
 10
73.3801762393
 20
89.3997318086
 30
0.0
 10
73.4694599799
 20
89.8559348811
 30
0.0
 11
73.0951688908
 21
88.0740674486
 31
0.0
 11
73.1877024887
 21
88.4901207711
 31
0.0
 11
73.4694599799
 21
89.8559348811
 31
0.0
  0
SPLINE
  5
34D
100
AcDbEntity
  8
ASSI
100
AcDbSpline
 62
7
  6
CONTINUOUS
 70
0
 71
3
 72
9
 73
5
 74
3
 42
0.0000001
 43
0.0000001
 44
0.0000000001
 12
0.0000011857
 22
-0.8626892876
 32
0.0
 13
0.308978616
 23
-0.8054595097
 33
0.0
 40
0.0
 40
0.0
 40
0.0
 40
0.0
 40
0.2470172944
 40
1.0
 40
1.0
 40
1.0
 40
1.0
 10
140.18088178
 20
78.2591125325
 30
0.0
 10
140.1808818777
 20
78.1880794746
 30
0.0
 10
140.1944363593
 20
77.9006033298
 30
0.0
 10
140.2631138267
 20
77.6163169196
 30
0.0
 10
140.3406656781
 20
77.4141512259
 30
0.0
 11
140.18088178
 21
78.2591125325
 31
0.0
 11
140.1909417296
 21
78.0462509454
 31
0.0
 11
140.3406656781
 21
77.4141512259
 31
0.0
  0
SPLINE
  5
34E
100
AcDbEntity
  8
ASSI
100
AcDbSpline
 62
7
  6
CONTINUOUS
 70
0
 71
3
 72
9
 73
5
 74
3
 42
0.0000001
 43
0.0000001
 44
0.0000000001
 12
1.0430830172
 22
-2.0070483552
 32
0.0
 13
1.9763284131
 23
-1.1001778421
 33
0.0
 40
0.0
 40
0.0
 40
0.0
 40
0.0
 40
0.4698695124
 40
1.0
 40
1.0
 40
1.0
 40
1.0
 10
140.4635618683
 20
77.1416121878
 30
0.0
 10
140.6269328378
 20
76.8272619105
 30
0.0
 10
141.1051592714
 20
76.2241039344
 30
0.0
 10
141.7286942979
 20
75.7855779174
 30
0.0
 10
142.077931613
 20
75.5911653121
 30
0.0
 11
140.4635618683
 21
77.1416121878
 31
0.0
 11
141.1084217275
 21
76.2967978313
 31
0.0
 11
142.077931613
 21
75.5911653121
 31
0.0
  0
SPLINE
  5
34F
100
AcDbEntity
  8
ASSI
100
AcDbSpline
 62
7
  6
CONTINUOUS
 70
0
 71
3
 72
11
 73
7
 74
5
 42
0.0000001
 43
0.0000001
 44
0.0000000001
 12
6.364433132
 22
-3.3358428276
 32
0.0
 13
6.3644311557
 23
3.3358465981
 33
0.0
 40
0.0
 40
0.0
 40
0.0
 40
0.0
 40
0.2415189645
 40
0.5000001452
 40
0.758481248
 40
1.0
 40
1.0
 40
1.0
 40
1.0
 10
142.2030258467
 20
75.5235885587
 30
0.0
 10
142.7154029465
 20
75.2550321236
 30
0.0
 10
143.8611647619
 20
74.8560765902
 30
0.0
 10
145.6808864441
 20
74.6617881894
 30
0.0
 10
147.5006076307
 20
74.8560764719
 30
0.0
 10
148.6463687431
 20
75.2550320563
 30
0.0
 10
149.158745233
 20
75.5235885587
 30
0.0
 11
142.2030258467
 21
75.5235885587
 31
0.0
 11
143.8348532764
 21
74.9328137275
 31
0.0
 11
145.6808866334
 21
74.7279992916
 31
0.0
 11
147.5269194273
 21
74.9328137275
 31
0.0
 11
149.158745233
 21
75.5235885587
 31
0.0
  0
SPLINE
  5
350
100
AcDbEntity
  8
ASSI
100
AcDbSpline
 62
7
  6
CONTINUOUS
 70
0
 71
3
 72
9
 73
5
 74
3
 42
0.0000001
 43
0.0000001
 44
0.0000000001
 12
1.9763605024
 22
1.1001818789
 32
0.0
 13
1.0430925083
 23
2.0070772335
 33
0.0
 40
0.0
 40
0.0
 40
0.0
 40
0.0
 40
0.5301308682
 40
1.0
 40
1.0
 40
1.0
 40
1.0
 10
149.2838102202
 20
75.5911491347
 30
0.0
 10
149.6330534566
 20
75.785562593
 30
0.0
 10
150.2565988623
 20
76.2240917251
 30
0.0
 10
150.7348324399
 20
76.8272576421
 30
0.0
 10
150.8982047637
 20
77.1416121878
 30
0.0
 11
149.2838102202
 21
75.5911491347
 31
0.0
 11
150.2533365385
 21
76.2967875662
 31
0.0
 11
150.8982047637
 21
77.1416121878
 31
0.0
  0
SPLINE
  5
351
100
AcDbEntity
  8
ASSI
100
AcDbSpline
 62
7
  6
CONTINUOUS
 70
0
 71
3
 72
9
 73
5
 74
3
 42
0.0000001
 43
0.0000001
 44
0.0000000001
 12
0.308955339
 22
0.8054046016
 32
0.0
 13
0.0000008899
 23
0.8626296852
 33
0.0
 40
0.0
 40
0.0
 40
0.0
 40
0.0
 40
0.2550668463
 40
1.0
 40
1.0
 40
1.0
 40
1.0
 10
151.0211002046
 20
77.4141512259
 30
0.0
 10
151.0473682926
 20
77.4826285632
 30
0.0
 10
151.1387599129
 20
77.7553628609
 30
0.0
 10
151.180881559
 20
78.0449066465
 30
0.0
 10
151.18088178
 20
78.2591071304
 30
0.0
 11
151.0211002046
 21
77.4141512259
 31
0.0
 11
151.0907847774
 21
77.6228531277
 31
0.0
 11
151.18088178
 21
78.2591071304
 31
0.0
  0
SPLINE
  5
352
100
AcDbEntity
  8
RACCORDO
100
AcDbSpline
 62
7
  6
CONTINUOUS
 70
0
 71
3
 72
13
 73
9
 74
7
 42
0.0000001
 43
0.0000001
 44
0.0000000001
 12
-0.6484243166
 22
-2.8585278246
 32
0.0
 13
0.0706423925
 23
-2.9302977785
 33
0.0
 40
0.0
 40
0.0
 40
0.0
 40
0.0
 40
0.051633336
 40
0.1301130781
 40
0.2333473397
 40
0.3585038189
 40
0.6598456922
 40
1.0
 40
1.0
 40
1.0
 40
1.0
 10
73.0951688908
 20
88.0740674486
 30
0.0
 10
73.0840087873
 20
88.0248690061
 30
0.0
 10
73.0681473716
 20
87.8983838128
 30
0.0
 10
73.0504334724
 20
87.6711897846
 30
0.0
 10
73.0369013268
 20
87.3715689727
 30
0.0
 10
73.0234972783
 20
86.8541788062
 30
0.0
 10
73.020902266
 20
86.105023811
 30
0.0
 10
73.0304299407
 20
85.4782970518
 30
0.0
 10
73.0384397121
 20
85.1460459143
 30
0.0
 11
73.0951688908
 21
88.0740674486
 31
0.0
 11
73.0723624637
 21
87.9244506754
 31
0.0
 11
73.0533909853
 21
87.6951984862
 31
0.0
 11
73.038745006
 21
87.3929581164
 31
0.0
 11
73.0287603821
 21
87.0262417079
 31
0.0
 11
73.0236151958
 21
86.1429787139
 31
0.0
 11
73.0384397121
 21
85.1460459143
 31
0.0
  0
SPLINE
  5
353
100
AcDbEntity
  8
RACCORDO
100
AcDbSpline
 62
7
  6
CONTINUOUS
 70
0
 71
3
 72
13
 73
9
 74
7
 42
0.0000001
 43
0.0000001
 44
0.0000000001
 12
0.0706423937
 22
2.9302981039
 32
0.0
 13
-0.6484530618
 23
2.8585216375
 33
0.0
 40
0.0
 40
0.0
 40
0.0
 40
0.0
 40
0.3401568806
 40
0.6414998959
 40
0.7666569877
 40
0.8698897888
 40
0.9483668991
 40
1.0
 40
1.0
 40
1.0
 40
1.0
 10
218.3233483958
 20
85.1460459143
 30
0.0
 10
218.3313582279
 20
85.4782996018
 30
0.0
 10
218.3408855998
 20
86.105030064
 30
0.0
 10
218.33828977
 20
86.8541893867
 30
0.0
 10
218.324883963
 20
87.3715798475
 30
0.0
 10
218.3113512261
 20
87.6711972725
 30
0.0
 10
218.2936362444
 20
87.898386998
 30
0.0
 10
218.2777743313
 20
88.0248693366
 30
0.0
 10
218.2666137839
 20
88.0740674486
 30
0.0
 11
218.3233483958
 21
85.1460459143
 31
0.0
 11
218.3381725506
 21
86.1429863722
 31
0.0
 11
218.3330259829
 21
87.0262528037
 31
0.0
 11
218.3230402018
 21
87.3929710174
 31
0.0
 11
218.3083934
 21
87.695207095
 31
0.0
 11
218.2894212481
 21
87.9244515136
 31
0.0
 11
218.2666137839
 21
88.0740674486
 31
0.0
  0
SPLINE
  5
354
100
AcDbEntity
  8
RACCORDO
100
AcDbSpline
 62
253
  6
CONTINUOUS
 70
0
 71
3
 72
9
 73
5
 74
3
 42
0.0000001
 43
0.0000001
 44
0.0000000001
 12
1.4418579056
 22
1.441582224
 32
0.0
 13
2.0389000681
 23
0.0002023563
 33
0.0
 40
0.0
 40
0.0
 40
0.0
 40
0.0
 40
0.5011154229
 40
1.0
 40
1.0
 40
1.0
 40
1.0
 10
138.1643100588
 20
82.8075216726
 30
0.0
 10
138.4051558035
 20
83.0483213679
 30
0.0
 10
138.9533656137
 20
83.4666801153
 30
0.0
 10
139.6343026636
 20
83.6642179956
 30
0.0
 10
139.9733612631
 20
83.6642516464
 30
0.0
 11
138.1643100588
 21
82.8075216726
 31
0.0
 11
138.9879186073
 21
83.4121616089
 31
0.0
 11
139.9733612631
 21
83.6642516464
 31
0.0
  0
SPLINE
  5
355
100
AcDbEntity
  8
RACCORDO
100
AcDbSpline
 62
253
  6
CONTINUOUS
 70
0
 71
3
 72
11
 73
7
 74
5
 42
0.0000001
 43
0.0000001
 44
0.0000000001
 12
0.0460823119
 22
-1.5384639967
 32
0.0
 13
1.5391539634
 23
0.0003541004
 33
0.0
 40
0.0
 40
0.0
 40
0.0
 40
0.0
 40
0.2501847813
 40
0.5002326299
 40
0.7501703021
 40
1.0
 40
1.0
 40
1.0
 40
1.0
 10
75.5112264102
 20
73.1343344124
 30
0.0
 10
75.5150694413
 20
73.0060343196
 30
0.0
 10
75.5687990578
 20
72.7484380345
 30
0.0
 10
75.78248152
 20
72.417598456
 30
0.0
 10
76.1059841925
 20
72.1914756974
 30
0.0
 10
76.3654319826
 20
72.138181388
 30
0.0
 10
76.4936074392
 20
72.1382108763
 30
0.0
 11
75.5112264102
 21
73.1343344124
 31
0.0
 11
75.5910157362
 21
72.757618594
 31
0.0
 11
75.8008451897
 21
72.4349880422
 31
0.0
 11
76.1169921521
 21
72.2158089584
 31
0.0
 11
76.4936074392
 21
72.1382108763
 31
0.0
  0
SPLINE
  5
356
100
AcDbEntity
  8
RACCORDO
100
AcDbSpline
 62
253
  6
CONTINUOUS
 70
0
 71
3
 72
8
 73
4
 74
2
 42
0.0000001
 43
0.0000001
 44
0.0000000001
 12
0.2329641665
 22
-7.2574612146
 32
0.0
 13
0.2367250429
 23
-7.2573395152
 33
0.0
 40
0.0
 40
0.0
 40
0.0
 40
0.0
 40
1.0
 40
1.0
 40
1.0
 40
1.0
 10
74.8957157028
 20
92.5202581164
 30
0.0
 10
74.973370425
 20
90.1011043782
 30
0.0
 10
75.0517088995
 20
87.6819725221
 30
0.0
 10
75.1306172471
 20
85.2628593504
 30
0.0
 11
74.8957157028
 21
92.5202581164
 31
0.0
 11
75.1306172471
 21
85.2628593504
 31
0.0
  0
SPLINE
  5
357
100
AcDbEntity
  8
ASSI
100
AcDbSpline
 62
7
  6
CONTINUOUS
 70
0
 71
3
 72
11
 73
7
 74
5
 42
0.0000001
 43
0.0000001
 44
0.0000000001
 12
-0.0000036779
 22
-3.5650230401
 32
0.0
 13
-3.1575821077
 23
-1.6550119365
 33
0.0
 40
0.0
 40
0.0
 40
0.0
 40
0.0
 40
0.2208874704
 40
0.4559428751
 40
0.7145548948
 40
1.0
 40
1.0
 40
1.0
 40
1.0
 10
151.1808806716
 20
77.1090833618
 30
0.0
 10
151.1808804008
 20
76.8465937214
 30
0.0
 10
151.0830979365
 20
76.3009382596
 30
0.0
 10
150.6647723108
 20
75.5478284069
 30
0.0
 10
150.0076396402
 20
74.8827279545
 30
0.0
 10
149.4591829102
 20
74.5310364755
 30
0.0
 10
149.1587441246
 20
74.37356479
 30
0.0
 11
151.1808806716
 21
77.1090833618
 31
0.0
 11
151.0464379105
 21
76.3331758636
 31
0.0
 11
150.6496876922
 21
75.5950726991
 31
0.0
 11
150.0100315708
 21
74.9311101643
 31
0.0
 11
149.1587441246
 21
74.37356479
 31
0.0
  0
SPLINE
  5
358
100
AcDbEntity
  8
ASSI
100
AcDbSpline
 62
7
  6
CONTINUOUS
 70
0
 71
3
 72
11
 73
7
 74
5
 42
0.0000001
 43
0.0000001
 44
0.0000000001
 12
-6.333715638
 22
-3.283407519
 32
0.0
 13
-6.3337039167
 23
3.2834301294
 33
0.0
 40
0.0
 40
0.0
 40
0.0
 40
0.0
 40
0.2416495853
 40
0.5000000947
 40
0.7583505534
 40
1.0
 40
1.0
 40
1.0
 40
1.0
 10
149.1357135265
 20
74.3615597667
 30
0.0
 10
148.6255336074
 20
74.0970817449
 30
0.0
 10
147.4872037418
 20
73.7041938896
 30
0.0
 10
145.6808718664
 20
73.5127569013
 30
0.0
 10
143.8745409212
 20
73.7041995771
 30
0.0
 10
142.7362127693
 20
74.0970911082
 30
0.0
 10
142.2260340871
 20
74.3615707995
 30
0.0
 11
149.1357135265
 21
74.3615597667
 31
0.0
 11
147.5129325267
 21
73.7796049642
 31
0.0
 11
145.6808718478
 21
73.577975523
 31
0.0
 11
143.8488121766
 21
73.7796108127
 31
0.0
 11
142.2260340871
 21
74.3615707995
 31
0.0
  0
SPLINE
  5
359
100
AcDbEntity
  8
ASSI
100
AcDbSpline
 62
7
  6
CONTINUOUS
 70
0
 71
3
 72
11
 73
7
 74
5
 42
0.0000001
 43
0.0000001
 44
0.0000000001
 12
-3.1575912453
 22
1.6550143414
 32
0.0
 13
-0.0000049
 23
3.5650322498
 33
0.0
 40
0.0
 40
0.0
 40
0.0
 40
0.0
 40
0.2854451964
 40
0.5440572807
 40
0.7791126676
 40
1.0
 40
1.0
 40
1.0
 40
1.0
 10
142.2030247383
 20
74.37356479
 30
0.0
 10
141.9025849873
 20
74.5310367546
 30
0.0
 10
141.3541264655
 20
74.88272889
 30
0.0
 10
140.6969914565
 20
75.5478306447
 30
0.0
 10
140.2786641236
 20
76.3009419657
 30
0.0
 10
140.1808810324
 20
76.8465986093
 30
0.0
 10
140.1808806716
 20
77.1090887638
 30
0.0
 11
142.2030247383
 21
74.37356479
 31
0.0
 11
141.351734459
 21
74.9311112301
 31
0.0
 11
140.7120760051
 21
75.5950751447
 31
0.0
 11
140.315324176
 21
76.333179829
 31
0.0
 11
140.1808806716
 21
77.1090887638
 31
0.0
  0
SPLINE
  5
35A
100
AcDbEntity
  8
RACCORDO
100
AcDbSpline
 62
253
  6
CONTINUOUS
 70
0
 71
3
 72
9
 73
5
 74
3
 42
0.0000001
 43
0.0000001
 44
0.0000000001
 12
-0.5554311143
 22
-0.5048769849
 32
0.0
 13
-0.7506010313
 23
-0.0016076263
 33
0.0
 40
0.0
 40
0.0
 40
0.0
 40
0.0
 40
0.497192544
 40
1.0
 40
1.0
 40
1.0
 40
1.0
 10
128.1841443054
 20
71.4498279407
 30
0.0
 10
128.0920922358
 20
71.3661542499
 30
0.0
 10
127.8730425315
 20
71.2321592006
 30
0.0
 10
127.6207950557
 20
71.1860448413
 30
0.0
 10
127.4949924574
 20
71.1857753992
 30
0.0
 11
128.1841443054
 21
71.4498279407
 31
0.0
 11
127.866065973
 21
71.254635715
 31
0.0
 11
127.4949924574
 21
71.1857753992
 31
0.0
  0
SPLINE
  5
35B
100
AcDbEntity
  8
RACCORDO
100
AcDbSpline
 62
253
  6
CONTINUOUS
 70
0
 71
3
 72
9
 73
5
 74
3
 42
0.0000001
 43
0.0000001
 44
0.0000000001
 12
-0.5498202176
 22
-0.520217558
 32
0.0
 13
-0.7568094366
 23
-0.0129636426
 33
0.0
 40
0.0
 40
0.0
 40
0.0
 40
0.0
 40
0.4993534467
 40
1.0
 40
1.0
 40
1.0
 40
1.0
 10
128.6010352544
 20
68.5147670516
 30
0.0
 10
128.5095170475
 20
68.4281762414
 30
0.0
 10
128.2917999812
 20
68.288074184
 30
0.0
 10
128.0381799978
 20
68.2364696206
 30
0.0
 10
127.9118819858
 20
68.2343062196
 30
0.0
 11
128.6010352544
 21
68.5147670516
 31
0.0
 11
128.2831289815
 21
68.3103225431
 31
0.0
 11
127.9118819858
 21
68.2343062196
 31
0.0
  0
SPLINE
  5
35C
100
AcDbEntity
  8
RACCORDO
100
AcDbSpline
 62
253
  6
CONTINUOUS
 70
0
 71
3
 72
9
 73
5
 74
3
 42
0.0000001
 43
0.0000001
 44
0.0000000001
 12
0.5498193588
 22
-0.5202194964
 32
0.0
 13
0.7568099429
 23
-0.0129754365
 33
0.0
 40
0.0
 40
0.0
 40
0.0
 40
0.0
 40
0.4993532991
 40
1.0
 40
1.0
 40
1.0
 40
1.0
 10
162.7607364788
 20
68.5147685395
 30
0.0
 10
162.8522545157
 20
68.4281774323
 30
0.0
 10
163.0699707548
 20
68.288074124
 30
0.0
 10
163.3235900792
 20
68.2364662193
 30
0.0
 10
163.449888213
 20
68.2343008494
 30
0.0
 11
162.7607364788
 21
68.5147685395
 31
0.0
 11
163.078641728
 21
68.3103219917
 31
0.0
 11
163.449888213
 21
68.2343008494
 31
0.0
  0
SPLINE
  5
35D
100
AcDbEntity
  8
RACCORDO
100
AcDbSpline
 62
253
  6
CONTINUOUS
 70
0
 71
3
 72
9
 73
5
 74
3
 42
0.0000001
 43
0.0000001
 44
0.0000000001
 12
0.5540823798
 22
-0.506348399
 32
0.0
 13
0.7505908905
 23
-0.0030495796
 33
0.0
 40
0.0
 40
0.0
 40
0.0
 40
0.0
 40
0.4971897447
 40
1.0
 40
1.0
 40
1.0
 40
1.0
 10
163.1776021135
 20
71.4498279407
 30
0.0
 10
163.2694301392
 20
71.3659108637
 30
0.0
 10
163.4888260786
 20
71.2321914502
 30
0.0
 10
163.740952182
 20
71.1862865191
 30
0.0
 10
163.8667537811
 20
71.1857753992
 30
0.0
 11
163.1776021135
 21
71.4498279407
 31
0.0
 11
163.4956837807
 21
71.2546505546
 31
0.0
 11
163.8667537811
 21
71.1857753992
 31
0.0
  0
SPLINE
  5
35E
100
AcDbEntity
  8
RACCORDO
100
AcDbSpline
 62
253
  6
CONTINUOUS
 70
0
 71
3
 72
11
 73
7
 74
5
 42
0.0000001
 43
0.0000001
 44
0.0000000001
 12
3.0233797613
 22
0.0267533786
 32
0.0
 13
0.1241260356
 23
3.0209491309
 33
0.0
 40
0.0
 40
0.0
 40
0.0
 40
0.0
 40
0.2509765246
 40
0.5016027984
 40
0.7512745575
 40
1.0
 40
1.0
 40
1.0
 40
1.0
 10
214.8681380394
 20
71.1857796733
 30
0.0
 10
215.1210704878
 20
71.18801783
 30
0.0
 10
215.6309368603
 20
71.2910892083
 30
0.0
 10
216.2780137064
 20
71.7178551561
 30
0.0
 10
216.719913001
 20
72.3516353494
 30
0.0
 10
216.837133796
 20
72.8546113899
 30
0.0
 10
216.847424897
 20
73.1050736929
 30
0.0
 11
214.8681380394
 21
71.1857796733
 31
0.0
 11
215.6118074064
 21
71.3366914601
 31
0.0
 11
216.2447687214
 21
71.7533116961
 31
0.0
 11
216.6760989706
 21
72.3728286007
 31
0.0
 11
216.847424897
 21
73.1050736929
 31
0.0
  0
SPLINE
  5
35F
100
AcDbEntity
  8
RACCORDO
100
AcDbSpline
 62
253
  6
CONTINUOUS
 70
0
 71
3
 72
11
 73
7
 74
5
 42
0.0000001
 43
0.0000001
 44
0.0000000001
 12
0.124125608
 22
-3.0209489042
 32
0.0
 13
3.0233795069
 23
-0.0267545426
 33
0.0
 40
0.0
 40
0.0
 40
0.0
 40
0.0
 40
0.2487254463
 40
0.4983971894
 40
0.7490234576
 40
1.0
 40
1.0
 40
1.0
 40
1.0
 10
74.5143218666
 20
73.1050736976
 30
0.0
 10
74.5246129323
 20
72.8546114094
 30
0.0
 10
74.6418334509
 20
72.3516353604
 30
0.0
 10
75.0837326514
 20
71.717855178
 30
0.0
 10
75.7308093982
 20
71.2910891433
 30
0.0
 10
76.2406757542
 20
71.1880179317
 30
0.0
 10
76.4936081992
 20
71.1857796775
 30
0.0
 11
74.5143218666
 21
73.1050736976
 31
0.0
 11
74.6856475432
 21
72.3728285972
 31
0.0
 11
75.1169776256
 21
71.7533117097
 31
0.0
 11
75.7499388393
 21
71.3366914624
 31
0.0
 11
76.4936081992
 21
71.1857796775
 31
0.0
  0
SPLINE
  5
360
100
AcDbEntity
  8
RACCORDO
100
AcDbSpline
 62
253
  6
CONTINUOUS
 70
0
 71
3
 72
20
 73
16
 74
14
 42
0.0000001
 43
0.0000001
 44
0.0000000001
 12
-0.091050086
 22
-1.7585870517
 32
0.0
 13
1.6706508436
 23
0.5566365919
 33
0.0
 40
0.0
 40
0.0
 40
0.0
 40
0.0
 40
0.0112375878
 40
0.0229454925
 40
0.0372176048
 40
0.0549476044
 40
0.1001264895
 40
0.1552940912
 40
0.216680133
 40
0.2820670903
 40
0.3499970133
 40
0.4196743252
 40
0.5622115347
 40
0.7071837751
 40
1.0
 40
1.0
 40
1.0
 40
1.0
 10
128.601033767
 20
68.5147685395
 30
0.0
 10
128.6006927059
 20
68.5081811141
 30
0.0
 10
128.6029351026
 20
68.4942433395
 30
0.0
 10
128.6173033404
 20
68.4767246715
 30
0.0
 10
128.6403437369
 20
68.4645751994
 30
0.0
 10
128.6841929674
 20
68.4525278389
 30
0.0
 10
128.7539188882
 20
68.4484182061
 30
0.0
 10
128.8487084846
 20
68.4534101804
 30
0.0
 10
128.9548141784
 20
68.4663011281
 30
0.0
 10
129.067561167
 20
68.4850763726
 30
0.0
 10
129.184446676
 20
68.5083071002
 30
0.0
 10
129.3449207481
 20
68.544248748
 30
0.0
 10
129.5481744637
 20
68.5958570378
 30
0.0
 10
129.876019743
 20
68.6884224339
 30
0.0
 10
130.1210788185
 20
68.7660136886
 30
0.0
 10
130.2841433762
 20
68.8203444305
 30
0.0
 11
128.601033767
 21
68.5147685395
 31
0.0
 11
128.6044760173
 21
68.4952814827
 31
0.0
 11
128.6170576539
 21
68.4789486651
 31
0.0
 11
128.638782082
 21
68.4663120038
 31
0.0
 11
128.6687101241
 21
68.4574184671
 31
0.0
 11
128.7479303691
 21
68.4501016538
 31
0.0
 11
128.8449882029
 21
68.4542623874
 31
0.0
 11
128.9523585218
 21
68.4667779341
 31
0.0
 11
129.0659839076
 21
68.4854087366
 31
0.0
 11
129.1833405538
 21
68.5085717871
 31
0.0
 11
129.3030980834
 21
68.5352714072
 31
0.0
 11
129.5464985985
 21
68.5965666347
 31
0.0
 11
129.7922496899
 21
68.6656915393
 31
0.0
 11
130.2841433762
 21
68.8203444305
 31
0.0
  0
SPLINE
  5
361
100
AcDbEntity
  8
RACCORDO
100
AcDbSpline
 62
253
  6
CONTINUOUS
 70
0
 71
3
 72
9
 73
5
 74
3
 42
0.0000001
 43
0.0000001
 44
0.0000000001
 12
-0.6864980016
 22
0.1736045561
 32
0.0
 13
-0.5922037233
 23
-0.3882174625
 33
0.0
 40
0.0
 40
0.0
 40
0.0
 40
0.0
 40
0.5338791418
 40
1.0
 40
1.0
 40
1.0
 40
1.0
 10
134.2219762215
 20
73.5238650148
 30
0.0
 10
134.0998072335
 20
73.5547596319
 30
0.0
 10
133.8600361274
 20
73.5795922536
 30
0.0
 10
133.6248368176
 20
73.5068750794
 30
0.0
 10
133.5328239817
 20
73.4465563272
 30
0.0
 11
134.2219762215
 21
73.5238650148
 31
0.0
 11
133.8450927339
 21
73.5534705498
 31
0.0
 11
133.5328239817
 21
73.4465563272
 31
0.0
  0
SPLINE
  5
362
100
AcDbEntity
  8
RACCORDO
100
AcDbSpline
 62
253
  6
CONTINUOUS
 70
0
 71
3
 72
10
 73
6
 74
4
 42
0.0000001
 43
0.0000001
 44
0.0000000001
 12
0.9020448095
 22
1.0504705583
 32
0.0
 13
1.3594710235
 23
0.2627009105
 33
0.0
 40
0.0
 40
0.0
 40
0.0
 40
0.0
 40
0.4970395791
 40
0.7474111192
 40
1.0
 40
1.0
 40
1.0
 40
1.0
 10
138.8534627106
 20
82.1191410953
 30
0.0
 10
139.0029133681
 20
82.29318291
 30
0.0
 10
139.2516599403
 20
82.537678581
 30
0.0
 10
139.6391785019
 20
82.790332426
 30
0.0
 10
139.8588992537
 20
82.8764439385
 30
0.0
 10
139.9733616751
 20
82.8985623815
 30
0.0
 11
138.8534627106
 21
82.1191410953
 31
0.0
 11
139.3518367543
 21
82.5937543939
 31
0.0
 11
139.6444682273
 21
82.7796214596
 31
0.0
 11
139.9733616751
 21
82.8985623815
 31
0.0
  0
SPLINE
  5
363
100
AcDbEntity
  8
RACCORDO
100
AcDbSpline
 62
253
  6
CONTINUOUS
 70
0
 71
3
 72
9
 73
5
 74
3
 42
0.0000001
 43
0.0000001
 44
0.0000000001
 12
0.6864969727
 22
0.1736044166
 32
0.0
 13
0.5922024251
 23
-0.3882175611
 33
0.0
 40
0.0
 40
0.0
 40
0.0
 40
0.0
 40
0.5338797327
 40
1.0
 40
1.0
 40
1.0
 40
1.0
 10
157.1397949771
 20
73.5238650148
 30
0.0
 10
157.2619639172
 20
73.5547596413
 30
0.0
 10
157.5017346762
 20
73.5795917801
 30
0.0
 10
157.7369337353
 20
73.5068750183
 30
0.0
 10
157.8289462528
 20
73.4465563272
 30
0.0
 11
157.1397949771
 21
73.5238650148
 31
0.0
 11
157.5166783541
 21
73.5534702665
 31
0.0
 11
157.8289462528
 21
73.4465563272
 31
0.0
  0
SPLINE
  5
364
100
AcDbEntity
  8
RACCORDO
100
AcDbSpline
 62
253
  6
CONTINUOUS
 70
0
 71
3
 72
10
 73
6
 74
4
 42
0.0000001
 43
0.0000001
 44
0.0000000001
 12
1.3594717485
 22
-0.2627011963
 32
0.0
 13
0.902046057
 23
-1.0504704968
 33
0.0
 40
0.0
 40
0.0
 40
0.0
 40
0.0
 40
0.2525888838
 40
0.5029604316
 40
1.0
 40
1.0
 40
1.0
 40
1.0
 10
151.3883837534
 20
82.8985623815
 30
0.0
 10
151.5028462373
 20
82.8764439141
 30
0.0
 10
151.7225671071
 20
82.790332369
 30
0.0
 10
152.1100860377
 20
82.5376786226
 30
0.0
 10
152.358832823
 20
82.2931828961
 30
0.0
 10
152.5082836839
 20
82.1191410953
 30
0.0
 11
151.3883837534
 21
82.8985623815
 31
0.0
 11
151.7172773985
 21
82.7796214234
 31
0.0
 11
152.0099091325
 21
82.5937543915
 31
0.0
 11
152.5082836839
 21
82.1191410953
 31
0.0
  0
SPLINE
  5
365
100
AcDbEntity
  8
RACCORDO
100
AcDbSpline
 62
253
  6
CONTINUOUS
 70
0
 71
3
 72
20
 73
16
 74
14
 42
0.0000001
 43
0.0000001
 44
0.0000000001
 12
1.6706491794
 22
-0.5566365921
 32
0.0
 13
-0.0910599624
 23
1.7585849595
 33
0.0
 40
0.0
 40
0.0
 40
0.0
 40
0.0
 40
0.2928164515
 40
0.4377887721
 40
0.5803260319
 40
0.6500033546
 40
0.7179332758
 40
0.7833202152
 40
0.8447062198
 40
0.8998737604
 40
0.9450525537
 40
0.9627824973
 40
0.9770545538
 40
0.9887624197
 40
1.0
 40
1.0
 40
1.0
 40
1.0
 10
161.0776286554
 20
68.8203444305
 30
0.0
 10
161.2406931769
 20
68.7660136466
 30
0.0
 10
161.4857522231
 20
68.6884224639
 30
0.0
 10
161.8135973949
 20
68.5958570426
 30
0.0
 10
162.016851002
 20
68.5442487523
 30
0.0
 10
162.177324958
 20
68.5083071019
 30
0.0
 10
162.2942103529
 20
68.4850763742
 30
0.0
 10
162.4069572038
 20
68.4663011316
 30
0.0
 10
162.5130627332
 20
68.4534101859
 30
0.0
 10
162.6078521305
 20
68.4484182059
 30
0.0
 10
162.6775778712
 20
68.452527828
 30
0.0
 10
162.7214269339
 20
68.4645751945
 30
0.0
 10
162.7444672066
 20
68.4767246771
 30
0.0
 10
162.758835289
 20
68.4942433774
 30
0.0
 10
162.7610775767
 20
68.5081811263
 30
0.0
 10
162.7607364788
 20
68.5147685395
 30
0.0
 11
161.0776286554
 21
68.8203444305
 31
0.0
 11
161.5695222767
 21
68.6656915432
 31
0.0
 11
161.8152732761
 21
68.5965666357
 31
0.0
 11
162.0586736502
 21
68.5352714069
 31
0.0
 11
162.1784310865
 21
68.5085717865
 31
0.0
 11
162.2957876201
 21
68.485408736
 31
0.0
 11
162.4094128698
 21
68.4667779351
 31
0.0
 11
162.5167830251
 21
68.4542623894
 31
0.0
 11
162.6138406639
 21
68.4501016519
 31
0.0
 11
162.6930606751
 21
68.4574184642
 31
0.0
 11
162.7229885841
 21
68.4663120041
 31
0.0
 11
162.7447128696
 21
68.4789486703
 31
0.0
 11
162.7572943601
 21
68.4952814909
 31
0.0
 11
162.7607364788
 21
68.5147685395
 31
0.0
  0
SPLINE
  5
366
100
AcDbEntity
  8
RACCORDO
100
AcDbSpline
 62
253
  6
CONTINUOUS
 70
0
 71
3
 72
9
 73
5
 74
3
 42
0.0000001
 43
0.0000001
 44
0.0000000001
 12
0.0700586572
 22
-2.9685632203
 32
0.0
 13
0.8233734675
 23
-2.8529514439
 33
0.0
 40
0.0
 40
0.0
 40
0.0
 40
0.0
 40
0.5219622038
 40
1.0
 40
1.0
 40
1.0
 40
1.0
 10
128.182814338
 20
71.4484979741
 30
0.0
 10
128.1950036617
 20
70.9320053739
 30
0.0
 10
128.2710744971
 20
69.9427815754
 30
0.0
 10
128.4698325544
 20
68.9693747465
 30
0.0
 10
128.601033767
 20
68.5147685395
 30
0.0
 11
128.182814338
 21
71.4484979741
 31
0.0
 11
128.3078413275
 21
69.9036397532
 31
0.0
 11
128.601033767
 21
68.5147685395
 31
0.0
  0
SPLINE
  5
367
100
AcDbEntity
  8
RACCORDO
100
AcDbSpline
 62
253
  6
CONTINUOUS
 70
0
 71
3
 72
9
 73
5
 74
3
 42
0.0000001
 43
0.0000001
 44
0.0000000001
 12
0.8233483502
 22
2.852955125
 32
0.0
 13
0.0700369414
 23
2.9685603039
 33
0.0
 40
0.0
 40
0.0
 40
0.0
 40
0.0
 40
0.4780375168
 40
1.0
 40
1.0
 40
1.0
 40
1.0
 10
162.7607364788
 20
68.5147685395
 30
0.0
 10
162.8919336124
 20
68.9693750674
 30
0.0
 10
163.090683353
 20
69.9427823966
 30
0.0
 10
163.1667465295
 20
70.9320056043
 30
0.0
 10
163.1789320814
 20
71.4484979735
 30
0.0
 11
162.7607364788
 21
68.5147685395
 31
0.0
 11
163.0539169599
 21
69.9036397548
 31
0.0
 11
163.1789320814
 21
71.4484979735
 31
0.0
  0
SPLINE
  5
368
100
AcDbEntity
  8
RACCORDO
100
AcDbSpline
 62
253
  6
CONTINUOUS
 70
0
 71
3
 72
8
 73
4
 74
2
 42
0.0000001
 43
0.0000001
 44
0.0000000001
 12
0.2367250263
 22
7.2573395151
 32
0.0
 13
0.2329641499
 23
7.2574612145
 33
0.0
 40
0.0
 40
0.0
 40
0.0
 40
0.0
 40
1.0
 40
1.0
 40
1.0
 40
1.0
 10
216.2311273537
 20
85.2628593504
 30
0.0
 10
216.3100356958
 20
87.6819725222
 30
0.0
 10
216.3883741647
 20
90.1011043782
 30
0.0
 10
216.4660288814
 20
92.5202581164
 30
0.0
 11
216.2311273537
 21
85.2628593504
 31
0.0
 11
216.4660288814
 21
92.5202581164
 31
0.0
  0
SPLINE
  5
369
100
AcDbEntity
  8
RACCORDO
100
AcDbSpline
 62
253
  6
CONTINUOUS
 70
0
 71
3
 72
11
 73
7
 74
5
 42
0.0000001
 43
0.0000001
 44
0.0000000001
 12
1.5391539856
 22
-0.000352579
 32
0.0
 13
0.0460826824
 23
1.5384640074
 33
0.0
 40
0.0
 40
0.0
 40
0.0
 40
0.0
 40
0.2498296699
 40
0.4997673648
 40
0.7498152287
 40
1.0
 40
1.0
 40
1.0
 40
1.0
 10
214.8681371917
 20
72.1382108743
 30
0.0
 10
214.9963126358
 20
72.1381815127
 30
0.0
 10
215.255760419
 20
72.1914756263
 30
0.0
 10
215.5792631543
 20
72.4175984036
 30
0.0
 10
215.7929455734
 20
72.7484380332
 30
0.0
 10
215.8466751565
 20
73.0060343192
 30
0.0
 10
215.8505182183
 20
73.1343344079
 30
0.0
 11
214.8681371917
 21
72.1382108743
 31
0.0
 11
215.2447524462
 21
72.2158089282
 31
0.0
 11
215.5608994676
 21
72.4349879977
 31
0.0
 11
215.7707288998
 21
72.757618598
 31
0.0
 11
215.8505182183
 21
73.1343344079
 31
0.0
  0
SPLINE
  5
36A
100
AcDbEntity
  8
RACCORDO
100
AcDbSpline
 62
253
  6
CONTINUOUS
 70
0
 71
3
 72
9
 73
5
 74
3
 42
0.0000001
 43
0.0000001
 44
0.0000000001
 12
-0.9398265651
 22
-4.7076385768
 32
0.0
 13
-1.3263001693
 23
-4.6136821307
 33
0.0
 40
0.0
 40
0.0
 40
0.0
 40
0.0
 40
0.5479982509
 40
1.0
 40
1.0
 40
1.0
 40
1.0
 10
74.5143243085
 20
73.1050737282
 30
0.0
 10
74.3426498706
 20
72.2451478263
 30
0.0
 10
74.0087551056
 20
70.6799205743
 30
0.0
 10
73.6138236872
 20
69.1284837858
 30
0.0
 10
73.4139936884
 20
68.4333529881
 30
0.0
 11
74.5143243085
 21
73.1050737282
 31
0.0
 11
73.9583729421
 21
70.5338055386
 31
0.0
 11
73.4139936884
 21
68.4333529881
 31
0.0
  0
SPLINE
  5
36B
100
AcDbEntity
  8
RACCORDO
100
AcDbSpline
 62
253
  6
CONTINUOUS
 70
0
 71
3
 72
8
 73
4
 74
2
 42
0.0000001
 43
0.0000001
 44
0.0000000001
 12
0.2247314226
 22
-6.9921830482
 32
0.0
 13
0.2282090331
 23
-6.9920704108
 33
0.0
 40
0.0
 40
0.0
 40
0.0
 40
0.0
 40
1.0
 40
1.0
 40
1.0
 40
1.0
 10
73.9068856601
 20
92.2233834515
 30
0.0
 10
73.9817961343
 20
89.8926557688
 30
0.0
 10
74.0573379998
 20
87.5619483202
 30
0.0
 10
74.1334076775
 20
85.2312581833
 30
0.0
 11
73.9068856601
 21
92.2233834515
 31
0.0
 11
74.1334076775
 21
85.2312581833
 31
0.0
  0
SPLINE
  5
36C
100
AcDbEntity
  8
RACCORDO
100
AcDbSpline
 62
253
  6
CONTINUOUS
 70
0
 71
3
 72
9
 73
5
 74
3
 42
0.0000001
 43
0.0000001
 44
0.0000000001
 12
-1.3262828581
 22
4.6134469535
 32
0.0
 13
-0.9398143096
 23
4.7074056629
 33
0.0
 40
0.0
 40
0.0
 40
0.0
 40
0.0
 40
0.451969878
 40
1.0
 40
1.0
 40
1.0
 40
1.0
 10
217.9477998233
 20
68.433603026
 30
0.0
 10
217.7479865228
 20
69.1286493783
 30
0.0
 10
217.3529389446
 20
70.6799767598
 30
0.0
 10
217.0191046384
 20
72.2451403572
 30
0.0
 10
216.8474224548
 20
73.1050737238
 30
0.0
 11
217.9477998233
 21
68.433603026
 31
0.0
 11
217.4033917608
 21
70.5337822907
 31
0.0
 11
216.8474224548
 21
73.1050737238
 31
0.0
  0
SPLINE
  5
36D
100
AcDbEntity
  8
RACCORDO
100
AcDbSpline
 62
253
  6
CONTINUOUS
 70
0
 71
3
 72
9
 73
5
 74
3
 42
0.0000001
 43
0.0000001
 44
0.0000000001
 12
2.0389000777
 22
-0.0002099409
 32
0.0
 13
1.4418584999
 23
-1.4415816443
 33
0.0
 40
0.0
 40
0.0
 40
0.0
 40
0.0
 40
0.4988845808
 40
1.0
 40
1.0
 40
1.0
 40
1.0
 10
151.3883833414
 20
83.6642516464
 30
0.0
 10
151.7274419449
 20
83.6642167343
 30
0.0
 10
152.4083790622
 20
83.4666808368
 30
0.0
 10
152.9565887055
 20
83.0483212693
 30
0.0
 10
153.1974345477
 20
82.8075216726
 30
0.0
 11
151.3883833414
 21
83.6642516464
 31
0.0
 11
152.3738260146
 21
83.4121616262
 31
0.0
 11
153.1974345477
 21
82.8075216726
 31
0.0
  0
SPLINE
  5
36E
100
AcDbEntity
  8
RACCORDO
100
AcDbSpline
 62
253
  6
CONTINUOUS
 70
0
 71
3
 72
8
 73
4
 74
2
 42
0.0000001
 43
0.0000001
 44
0.0000000001
 12
0.2282090218
 22
6.9920704108
 32
0.0
 13
0.2247314115
 23
6.9921830482
 33
0.0
 40
0.0
 40
0.0
 40
0.0
 40
0.0
 40
1.0
 40
1.0
 40
1.0
 40
1.0
 10
217.2283390707
 20
85.2312581833
 30
0.0
 10
217.3044087446
 20
87.5619483202
 30
0.0
 10
217.3799506064
 20
89.8926557688
 30
0.0
 10
217.4548610769
 20
92.2233834515
 30
0.0
 11
217.2283390707
 21
85.2312581833
 31
0.0
 11
217.4548610769
 21
92.2233834515
 31
0.0
  0
SPLINE
  5
36F
100
AcDbEntity
  8
RACCORDO
100
AcDbSpline
 62
253
  6
CONTINUOUS
 70
0
 71
3
 72
9
 73
5
 74
3
 42
0.0000001
 43
0.0000001
 44
0.0000000001
 12
0.8239604864
 22
2.8710409673
 32
0.0
 13
0.0700592583
 23
2.9861143346
 33
0.0
 40
0.0
 40
0.0
 40
0.0
 40
0.0
 40
0.4777446499
 40
1.0
 40
1.0
 40
1.0
 40
1.0
 10
163.449888213
 20
68.2343006769
 30
0.0
 10
163.581102451
 20
68.6915088309
 30
0.0
 10
163.7800100136
 20
69.6708432257
 30
0.0
 10
163.8558936823
 20
70.6659374024
 30
0.0
 10
163.8680899565
 20
71.1857754648
 30
0.0
 11
163.449888213
 21
68.2343006769
 31
0.0
 11
163.7430775313
 21
69.630849378
 31
0.0
 11
163.8680899565
 21
71.1857754648
 31
0.0
  0
SPLINE
  5
370
100
AcDbEntity
  8
RACCORDO
100
AcDbSpline
 62
253
  6
CONTINUOUS
 70
0
 71
3
 72
14
 73
10
 74
8
 42
0.0000001
 43
0.0000001
 44
0.0000000001
 12
2.4487745075
 22
0.0000629846
 32
0.0
 13
0.672235537
 23
2.3546965782
 33
0.0
 40
0.0
 40
0.0
 40
0.0
 40
0.0
 40
0.3191154826
 40
0.6199160473
 40
0.7532375877
 40
0.8657917041
 40
0.9115613551
 40
0.949110106
 40
1.0
 40
1.0
 40
1.0
 40
1.0
 10
161.0776295358
 20
67.8493550247
 30
0.0
 10
161.3381101554
 20
67.8493617245
 30
0.0
 10
161.8441625404
 20
67.8613127824
 30
0.0
 10
162.4576904256
 20
67.9107589385
 30
0.0
 10
162.8986658798
 20
67.9816196261
 30
0.0
 10
163.1302085568
 20
68.0373533045
 30
0.0
 10
163.281074339
 20
68.0935494931
 30
0.0
 10
163.3769687698
 20
68.1424323929
 30
0.0
 10
163.4384848812
 20
68.1943572572
 30
0.0
 10
163.449888213
 20
68.2343006769
 30
0.0
 11
161.0776295358
 21
67.8493550247
 31
0.0
 11
161.858817268
 21
67.8692825436
 31
0.0
 11
162.5924647579
 21
67.9350871563
 31
0.0
 11
162.9144976521
 21
67.9887559751
 31
0.0
 11
163.1813340655
 21
68.0577814819
 31
0.0
 11
163.2860056961
 21
68.0978523733
 31
0.0
 11
163.3671343207
 21
68.1411266026
 31
0.0
 11
163.449888213
 21
68.2343006769
 31
0.0
  0
SPLINE
  5
371
100
AcDbEntity
  8
RACCORDO
100
AcDbSpline
 62
253
  6
CONTINUOUS
 70
0
 71
3
 72
14
 73
10
 74
8
 42
0.0000001
 43
0.0000001
 44
0.0000000001
 12
0.6722545849
 22
-2.3546944728
 32
0.0
 13
2.4487777121
 23
-0.0000631075
 33
0.0
 40
0.0
 40
0.0
 40
0.0
 40
0.0
 40
0.0508900581
 40
0.0884389075
 40
0.1342086401
 40
0.2467628624
 40
0.3800844332
 40
0.6808848563
 40
1.0
 40
1.0
 40
1.0
 40
1.0
 10
127.9118819857
 20
68.2343006769
 30
0.0
 10
127.9232856773
 20
68.1943571641
 30
0.0
 10
127.9848022332
 20
68.1424324453
 30
0.0
 10
128.0806971245
 20
68.0935495029
 30
0.0
 10
128.2315633815
 20
68.0373533367
 30
0.0
 10
128.4631065548
 20
67.9816196407
 30
0.0
 10
128.9040825982
 20
67.9107589694
 30
0.0
 10
129.517610917
 20
67.8613127854
 30
0.0
 10
130.0236635728
 20
67.8493617376
 30
0.0
 10
130.2841442567
 20
67.8493550247
 30
0.0
 11
127.9118819857
 21
68.2343006769
 31
0.0
 11
127.9946367294
 21
68.1411266033
 31
0.0
 11
128.0757657643
 21
68.0978523744
 31
0.0
 11
128.1804377655
 21
68.0577814825
 31
0.0
 11
128.4472748191
 21
67.988755975
 31
0.0
 11
128.7693082221
 21
67.9350871577
 31
0.0
 11
129.5029563317
 21
67.8692825452
 31
0.0
 11
130.2841442567
 21
67.8493550247
 31
0.0
  0
SPLINE
  5
372
100
AcDbEntity
  8
RACCORDO
100
AcDbSpline
 62
253
  6
CONTINUOUS
 70
0
 71
3
 72
9
 73
5
 74
3
 42
0.0000001
 43
0.0000001
 44
0.0000000001
 12
0.0700811014
 22
-2.9861172506
 32
0.0
 13
0.8239857663
 23
-2.8710372781
 33
0.0
 40
0.0
 40
0.0
 40
0.0
 40
0.0
 40
0.522255071
 40
1.0
 40
1.0
 40
1.0
 40
1.0
 10
127.4936562825
 20
71.1857754651
 30
0.0
 10
127.5058563527
 20
70.6659371728
 30
0.0
 10
127.581747707
 20
69.6708424024
 30
0.0
 10
127.7806636452
 20
68.6915085104
 30
0.0
 10
127.9118819857
 20
68.2343006769
 30
0.0
 11
127.4936562825
 21
71.1857754651
 31
0.0
 11
127.6186806414
 21
69.6308493781
 31
0.0
 11
127.9118819857
 21
68.2343006769
 31
0.0
  0
SPLINE
  5
373
100
AcDbEntity
  8
RACCORDO
100
AcDbSpline
 62
253
  6
CONTINUOUS
 70
0
 71
3
 72
9
 73
5
 74
3
 42
0.0000001
 43
0.0000001
 44
0.0000000001
 12
-0.9395817391
 22
-4.7634119143
 32
0.0
 13
-1.3273866178
 23
-4.6702196605
 33
0.0
 40
0.0
 40
0.0
 40
0.0
 40
0.0
 40
0.5480544044
 40
1.0
 40
1.0
 40
1.0
 40
1.0
 10
76.4936082233
 20
71.1857755029
 30
0.0
 10
76.3219609198
 20
70.3155725431
 30
0.0
 10
75.9876437961
 20
68.7318284897
 30
0.0
 10
75.5935526132
 20
67.1613869608
 30
0.0
 10
75.393583768
 20
66.4578252254
 30
0.0
 11
76.4936082233
 21
71.1857755029
 31
0.0
 11
75.9375590222
 21
68.5836123298
 31
0.0
 11
75.393583768
 21
66.4578252254
 31
0.0
  0
SPLINE
  5
374
100
AcDbEntity
  8
RACCORDO
100
AcDbSpline
 62
253
  6
CONTINUOUS
 70
0
 71
3
 72
9
 73
5
 74
3
 42
0.0000001
 43
0.0000001
 44
0.0000000001
 12
-1.3274323346
 22
4.6701955692
 32
0.0
 13
-0.9396130385
 23
4.7633948603
 33
0.0
 40
0.0
 40
0.0
 40
0.0
 40
0.0
 40
0.4519432187
 40
1.0
 40
1.0
 40
1.0
 40
1.0
 10
215.9681242469
 20
66.4578252254
 30
0.0
 10
215.7681495663
 20
67.1613796312
 30
0.0
 10
215.3741848059
 20
68.731849801
 30
0.0
 10
215.0397917812
 20
70.3155718841
 30
0.0
 10
214.8681380153
 20
71.1857755025
 30
0.0
 11
215.9681242469
 21
66.4578252254
 31
0.0
 11
215.4242178488
 21
68.5836130566
 31
0.0
 11
214.8681380153
 21
71.1857755025
 31
0.0
  0
SPLINE
  5
375
100
AcDbEntity
  8
0
100
AcDbSpline
 62
7
  6
CONTINUOUS
 70
0
 71
3
 72
9
 73
5
 74
3
 42
0.0000001
 43
0.0000001
 44
0.0000000001
 12
0.5451140327
 22
0.0547226311
 32
0.0
 13
0.5015897443
 23
0.2203442837
 33
0.0
 40
0.0
 40
0.0
 40
0.0
 40
0.0
 40
0.5000362229
 40
1.0
 40
1.0
 40
1.0
 40
1.0
 10
218.1880026431
 20
62.6147668605
 30
0.0
 10
218.2788615638
 20
62.6238879597
 30
0.0
 10
218.4593885435
 20
62.6567690182
 30
0.0
 10
218.6324386167
 20
62.7176156159
 30
0.0
 10
218.7160308511
 20
62.7543370026
 30
0.0
 11
218.1880026431
 21
62.6147668605
 31
0.0
 11
218.4575321245
 21
62.6637637981
 31
0.0
 11
218.7160308511
 21
62.7543370026
 31
0.0
  0
SPLINE
  5
376
100
AcDbEntity
  8
0
100
AcDbSpline
 62
7
  6
CONTINUOUS
 70
0
 71
3
 72
9
 73
5
 74
3
 42
0.0000001
 43
0.0000001
 44
0.0000000001
 12
0.5115557276
 22
-0.2277630952
 32
0.0
 13
0.5572707559
 23
-0.0549053239
 33
0.0
 40
0.0
 40
0.0
 40
0.0
 40
0.0
 40
0.4999698611
 40
1.0
 40
1.0
 40
1.0
 40
1.0
 10
72.6374907392
 20
62.7579732788
 30
0.0
 10
72.7227448879
 20
62.7200150511
 30
0.0
 10
72.8994433758
 20
62.6572106097
 30
0.0
 10
73.0840039259
 20
62.6236040111
 30
0.0
 10
73.1768879837
 20
62.6144525722
 30
0.0
 11
72.6374907392
 21
62.7579732788
 31
0.0
 11
72.9013980034
 21
62.6645129762
 31
0.0
 11
73.1768879837
 21
62.6144525722
 31
0.0
  0
SPLINE
  5
377
100
AcDbEntity
  8
RACCORDO
100
AcDbSpline
 62
253
  6
CONTINUOUS
 70
0
 71
3
 72
11
 73
7
 74
5
 42
0.0000001
 43
0.0000001
 44
0.0000000001
 12
0.5880181865
 22
5.2962907693
 32
0.0
 13
3.7992913988
 23
3.7365553881
 33
0.0
 40
0.0
 40
0.0
 40
0.0
 40
0.0
 40
0.245457748
 40
0.4896846568
 40
0.7391593015
 40
1.0
 40
1.0
 40
1.0
 40
1.0
 10
73.379962823
 20
148.2486609317
 30
0.0
 10
73.4280740296
 20
148.6819994667
 30
0.0
 10
73.6004543381
 20
149.5402278843
 30
0.0
 10
74.0910281878
 20
150.7655527136
 30
0.0
 10
74.8044810245
 20
151.907770288
 30
0.0
 10
75.4069745781
 20
152.5906835697
 30
0.0
 10
75.7373111855
 20
152.9155654755
 30
0.0
 11
73.379962823
 21
148.2486609317
 31
0.0
 11
73.6392344962
 21
149.5307104497
 31
0.0
 11
74.1215974233
 21
150.7394633487
 31
0.0
 11
74.8224047959
 21
151.8691520581
 31
0.0
 11
75.7373111855
 21
152.9155654755
 31
0.0
  0
SPLINE
  5
378
100
AcDbEntity
  8
RACCORDO
100
AcDbSpline
 62
7
  6
CONTINUOUS
 70
0
 71
3
 72
14
 73
10
 74
8
 42
0.0000001
 43
0.0000001
 44
0.0000000001
 12
-2.7614873622
 22
0.0000001548
 32
0.0
 13
-0.3030098019
 23
-2.7448128373
 33
0.0
 40
0.0
 40
0.0
 40
0.0
 40
0.0
 40
0.2643194229
 40
0.3942708347
 40
0.5213900143
 40
0.6452792218
 40
0.7659547352
 40
0.8838934572
 40
1.0
 40
1.0
 40
1.0
 40
1.0
 10
73.3799597133
 20
148.2486607132
 30
0.0
 10
73.136654798
 20
148.2486607269
 30
0.0
 10
72.7699742529
 20
148.1905831342
 30
0.0
 10
72.3272607347
 20
148.0011036469
 30
0.0
 10
72.0313650283
 20
147.8093659204
 30
0.0
 10
71.7808208552
 20
147.5735673561
 30
0.0
 10
71.5841409029
 20
147.301342978
 30
0.0
 10
71.4484263571
 20
147.0019767295
 30
0.0
 10
71.4016825385
 20
146.7897273752
 30
0.0
 10
71.3899553983
 20
146.6834971321
 30
0.0
 11
73.3799597133
 21
148.2486607132
 31
0.0
 11
72.65934799
 21
148.1324958278
 31
0.0
 11
72.3296113777
 21
147.9908848164
 31
0.0
 11
72.0354634928
 21
147.7993000965
 31
0.0
 11
71.7869084809
 21
147.564214025
 31
0.0
 11
71.5924186495
 21
147.2936124623
 31
0.0
 11
71.4585937656
 21
146.9966908226
 31
0.0
 11
71.3899553983
 21
146.6834971321
 31
0.0
  0
SPLINE
  5
379
100
AcDbEntity
  8
RACCORDO
100
AcDbSpline
 62
253
  6
CONTINUOUS
 70
0
 71
3
 72
11
 73
7
 74
5
 42
0.0000001
 43
0.0000001
 44
0.0000000001
 12
-1.6652360483
 22
0.0796768804
 32
0.0
 13
-1.1795826229
 23
-1.1781104946
 33
0.0
 40
0.0
 40
0.0
 40
0.0
 40
0.0
 40
0.2585591008
 40
0.5122103422
 40
0.7595174091
 40
1.0
 40
1.0
 40
1.0
 40
1.0
 10
75.7373107978
 20
152.9155642503
 30
0.0
 10
75.5937901527
 20
152.9224313111
 30
0.0
 10
75.3074576522
 20
152.9100579
 30
0.0
 10
74.8944253697
 20
152.8108401291
 30
0.0
 10
74.5191005967
 20
152.633717517
 30
0.0
 10
74.3033070293
 20
152.4649552933
 30
0.0
 10
74.2087506675
 20
152.3705169386
 30
0.0
 11
75.7373107978
 21
152.9155642503
 31
0.0
 11
75.3066985794
 21
152.8960423099
 31
0.0
 11
74.8958042407
 21
152.7961077271
 31
0.0
 11
74.5236478739
 21
152.6186606973
 31
0.0
 11
74.2087506675
 21
152.3705169386
 31
0.0
  0
SPLINE
  5
37A
100
AcDbEntity
  8
RACCORDO
100
AcDbSpline
 62
253
  6
CONTINUOUS
 70
0
 71
3
 72
11
 73
7
 74
5
 42
0.0000001
 43
0.0000001
 44
0.0000000001
 12
-1.1795821653
 22
1.1781059193
 32
0.0
 13
-1.6652324518
 23
-0.0796776222
 33
0.0
 40
0.0
 40
0.0
 40
0.0
 40
0.0
 40
0.2404826637
 40
0.4877897558
 40
0.7414409822
 40
1.0
 40
1.0
 40
1.0
 40
1.0
 10
217.1529892102
 20
152.3705199054
 30
0.0
 10
217.0584328565
 20
152.464957922
 30
0.0
 10
216.8426394742
 20
152.6337195058
 30
0.0
 10
216.4673152898
 20
152.81084136
 30
0.0
 10
216.0542838771
 20
152.9100587048
 30
0.0
 10
215.76795203
 20
152.922431813
 30
0.0
 10
215.624431741
 20
152.9155646904
 30
0.0
 11
217.1529892102
 21
152.3705199054
 31
0.0
 11
216.838092215
 21
152.6186627462
 31
0.0
 11
216.4659364217
 21
152.796109033
 31
0.0
 11
216.055042917
 21
152.8960431205
 31
0.0
 11
215.624431741
 21
152.9155646904
 31
0.0
  0
SPLINE
  5
37B
100
AcDbEntity
  8
RACCORDO
100
AcDbSpline
 62
7
  6
CONTINUOUS
 70
0
 71
3
 72
14
 73
10
 74
8
 42
0.0000001
 43
0.0000001
 44
0.0000000001
 12
-0.302996536
 22
2.7448248412
 32
0.0
 13
-2.7614978381
 23
-0.0000004185
 33
0.0
 40
0.0
 40
0.0
 40
0.0
 40
0.0
 40
0.1161065316
 40
0.2340452314
 40
0.3547207227
 40
0.4786099186
 40
0.6057291014
 40
0.7356805298
 40
1.0
 40
1.0
 40
1.0
 40
1.0
 10
219.9717875813
 20
146.6834899441
 30
0.0
 10
219.9600609557
 20
146.7897206415
 30
0.0
 10
219.9133179082
 20
147.0019710017
 30
0.0
 10
219.7776038949
 20
147.3013388246
 30
0.0
 10
219.58092391
 20
147.5735647112
 30
0.0
 10
219.3303791865
 20
147.8093645824
 30
0.0
 10
219.0344825064
 20
148.0011032981
 30
0.0
 10
218.5917672652
 20
148.190583658
 30
0.0
 10
218.2250851843
 20
148.2486609603
 30
0.0
 10
217.9817793025
 20
148.2486609235
 30
0.0
 11
219.9717875813
 21
146.6834899441
 31
0.0
 11
219.9031503869
 21
146.9966851051
 31
0.0
 11
219.7693260522
 21
147.2936082802
 31
0.0
 11
219.5748362111
 21
147.564211318
 31
0.0
 11
219.3262806766
 21
147.7992986788
 31
0.0
 11
219.0321318399
 21
147.9908843935
 31
0.0
 11
218.7023939597
 21
148.1324960187
 31
0.0
 11
217.9817793025
 21
148.2486609235
 31
0.0
  0
SPLINE
  5
37C
100
AcDbEntity
  8
RACCORDO
100
AcDbSpline
 62
253
  6
CONTINUOUS
 70
0
 71
3
 72
11
 73
7
 74
5
 42
0.0000001
 43
0.0000001
 44
0.0000000001
 12
3.7992954332
 22
-3.7365509194
 32
0.0
 13
0.5880210371
 23
-5.2962901943
 33
0.0
 40
0.0
 40
0.0
 40
0.0
 40
0.0
 40
0.260826766
 40
0.5102975506
 40
0.7545300499
 40
1.0
 40
1.0
 40
1.0
 40
1.0
 10
215.6244315022
 20
152.9155655998
 30
0.0
 10
215.9547508158
 20
152.5907014357
 30
0.0
 10
216.5572224899
 20
151.9078122629
 30
0.0
 10
217.270681675
 20
150.7656246848
 30
0.0
 10
217.7612733172
 20
149.5402796784
 30
0.0
 10
217.9336654668
 20
148.6820209573
 30
0.0
 10
217.9817792983
 20
148.2486609274
 30
0.0
 11
215.6244315022
 21
152.9155655998
 31
0.0
 11
216.539292451
 21
151.8692111615
 31
0.0
 11
217.240103321
 21
150.7395489036
 31
0.0
 11
217.7224883773
 21
149.5307728279
 31
0.0
 11
217.9817792983
 21
148.2486609274
 31
0.0
  0
SPLINE
  5
37D
100
AcDbEntity
  8
0
100
AcDbSpline
 62
7
  6
CONTINUOUS
 70
0
 71
3
 72
11
 73
7
 74
5
 42
0.0000001
 43
0.0000001
 44
0.0000000001
 12
0.0003394609
 22
-3.1183869527
 32
0.0
 13
3.1183869711
 23
-0.0000260596
 33
0.0
 40
0.0
 40
0.0
 40
0.0
 40
0.0
 40
0.2499455415
 40
0.4998867341
 40
0.7498810026
 40
1.0
 40
1.0
 40
1.0
 40
1.0
 10
71.3808673191
 20
64.608732962
 30
0.0
 10
71.3808956013
 20
64.3489239902
 30
0.0
 10
71.4861299019
 20
63.824066059
 30
0.0
 10
71.9293413775
 20
63.1589681988
 30
0.0
 10
72.595246772
 20
62.7167199949
 30
0.0
 10
73.1203327499
 20
62.6118276919
 30
0.0
 10
73.3803220241
 20
62.6118255192
 30
0.0
 11
71.3808673191
 21
64.608732962
 31
0.0
 11
71.5336866348
 21
63.8444342113
 31
0.0
 11
71.966393217
 21
63.1961671385
 31
0.0
 11
72.6153961075
 21
62.764266152
 31
0.0
 11
73.3803220241
 21
62.6118255192
 31
0.0
  0
SPLINE
  5
37E
100
AcDbEntity
  8
0
100
AcDbSpline
 62
7
  6
CONTINUOUS
 70
0
 71
3
 72
11
 73
7
 74
5
 42
0.0000001
 43
0.0000001
 44
0.0000000001
 12
3.1184639075
 22
0.0000136962
 32
0.0
 13
0.0002297478
 23
3.1184638991
 33
0.0
 40
0.0
 40
0.0
 40
0.0
 40
0.0
 40
0.2500854932
 40
0.5000621103
 40
0.7500211877
 40
1.0
 40
1.0
 40
1.0
 40
1.0
 10
217.9814122217
 20
62.6118255192
 30
0.0
 10
218.2413730832
 20
62.6118266609
 30
0.0
 10
218.7664191373
 20
62.7166920534
 30
0.0
 10
219.4323299553
 20
63.1589000581
 30
0.0
 10
219.8756108772
 20
63.8240220167
 30
0.0
 10
219.9808556579
 20
64.3489532437
 30
0.0
 10
219.9808748019
 20
64.6088032109
 30
0.0
 11
217.9814122217
 21
62.6118255192
 31
0.0
 11
218.7462589012
 21
62.7642276269
 31
0.0
 11
219.3952542714
 21
63.1960752723
 31
0.0
 11
219.8280347645
 21
63.8443831854
 31
0.0
 11
219.9808748019
 21
64.6088032109
 31
0.0
  0
SPLINE
  5
37F
100
AcDbEntity
  8
0
100
AcDbSpline
 62
7
  6
CONTINUOUS
 70
0
 71
3
 72
9
 73
5
 74
3
 42
0.0000001
 43
0.0000001
 44
0.0000000001
 12
3.2598736273
 22
-1.8141503013
 32
0.0
 13
3.7306725106
 23
0.0
 33
0.0
 40
0.0
 40
0.0
 40
0.0
 40
0.0
 40
0.4816394485
 40
1.0
 40
1.0
 40
1.0
 40
1.0
 10
142.0808710546
 20
75.8224639885
 30
0.0
 10
142.6042322999
 20
75.5312085383
 30
0.0
 10
143.7888031584
 20
75.0983139904
 30
0.0
 10
145.0362599069
 20
74.959923095
 30
0.0
 10
145.6808710603
 20
74.959923095
 30
0.0
 11
142.0808710546
 21
75.8224639885
 31
0.0
 11
143.7598924622
 21
75.1825282994
 31
0.0
 11
145.6808710603
 21
74.959923095
 31
0.0
  0
SPLINE
  5
380
100
AcDbEntity
  8
0
100
AcDbSpline
 62
7
  6
CONTINUOUS
 70
0
 71
3
 72
9
 73
5
 74
3
 42
0.0000001
 43
0.0000001
 44
0.0000000001
 12
3.7307028935
 22
0.0
 32
0.0
 13
3.2599001762
 23
1.8141650753
 33
0.0
 40
0.0
 40
0.0
 40
0.0
 40
0.0
 40
0.5183981401
 40
1.0
 40
1.0
 40
1.0
 40
1.0
 10
145.6808710603
 20
74.959923095
 30
0.0
 10
146.3255342073
 20
74.959923095
 30
0.0
 10
147.5730464623
 20
75.098088543
 30
0.0
 10
148.7575464033
 20
75.5312288971
 30
0.0
 10
149.280871066
 20
75.8224639885
 30
0.0
 11
145.6808710603
 21
74.959923095
 31
0.0
 11
147.6020165558
 21
75.1824430802
 31
0.0
 11
149.280871066
 21
75.8224639885
 31
0.0
  0
SPLINE
  5
381
100
AcDbEntity
  8
0
100
AcDbSpline
 62
7
  6
CONTINUOUS
 70
0
 71
3
 72
11
 73
7
 74
5
 42
0.0000001
 43
0.0000001
 44
0.0000000001
 12
-2.9153764131
 22
0.0000508664
 32
0.0
 13
-0.0000640474
 23
-2.9153764128
 33
0.0
 40
0.0
 40
0.0
 40
0.0
 40
0.0
 40
0.2663586965
 40
0.5234002895
 40
0.7667572601
 40
1.0
 40
1.0
 40
1.0
 40
1.0
 10
73.3807363621
 20
147.9922915427
 30
0.0
 10
73.121891075
 20
147.9922960589
 30
0.0
 10
72.6087706395
 20
147.9061987042
 30
0.0
 10
71.9465292326
 20
147.5307291097
 30
0.0
 10
71.4909882747
 20
146.9568542853
 30
0.0
 10
71.3808760398
 20
146.48779217
 30
0.0
 10
71.3808710603
 20
146.2611287091
 30
0.0
 11
73.3807363621
 21
147.9922915427
 31
0.0
 11
72.6154509404
 21
147.8605866931
 31
0.0
 11
71.9667628385
 21
147.4854018908
 31
0.0
 11
71.5331565716
 21
146.9238473852
 31
0.0
 11
71.3808710603
 21
146.2611287091
 31
0.0
  0
SPLINE
  5
382
100
AcDbEntity
  8
0
100
AcDbSpline
 62
7
  6
CONTINUOUS
 70
0
 71
3
 72
11
 73
7
 74
5
 42
0.0000001
 43
0.0000001
 44
0.0000000001
 12
-0.0000513735
 22
2.9153628714
 32
0.0
 13
-2.9153628717
 23
-0.0000252011
 33
0.0
 40
0.0
 40
0.0
 40
0.0
 40
0.0
 40
0.2332407777
 40
0.4765981009
 40
0.733639101
 40
1.0
 40
1.0
 40
1.0
 40
1.0
 10
219.9808710603
 20
146.2611221699
 30
0.0
 10
219.9808670662
 20
146.487782671
 30
0.0
 10
219.8707602812
 20
146.9568416353
 30
0.0
 10
219.4152274558
 20
147.530716258
 30
0.0
 10
218.7529911775
 20
147.9061908558
 30
0.0
 10
218.2398723488
 20
147.9922937802
 30
0.0
 10
217.9810261236
 20
147.9922915427
 30
0.0
 11
219.9808710603
 21
146.2611221699
 31
0.0
 11
219.8285928462
 21
146.923833412
 31
0.0
 11
219.3949930014
 21
147.485390012
 31
0.0
 11
218.746312966
 21
147.8605783562
 31
0.0
 11
217.9810261236
 21
147.9922915427
 31
0.0
  0
SPLINE
  5
383
100
AcDbEntity
  8
0
100
AcDbSpline
 62
7
  6
CONTINUOUS
 70
0
 71
3
 72
11
 73
7
 74
5
 42
0.0000001
 43
0.0000001
 44
0.0000000001
 12
0.0
 22
-0.4779474359
 32
0.0
 13
-0.1262996892
 23
-0.4609578505
 33
0.0
 40
0.0
 40
0.0
 40
0.0
 40
0.0
 40
0.3246986765
 40
0.6179119509
 40
0.850221678
 40
1.0
 40
1.0
 40
1.0
 40
1.0
 10
87.0296017883
 20
92.9397289364
 30
0.0
 10
87.0296017883
 20
92.8879993032
 30
0.0
 10
87.0282445954
 20
92.7895688825
 30
0.0
 10
87.0226900573
 20
92.6541413444
 30
0.0
 10
87.0136381154
 20
92.5470487044
 30
0.0
 10
87.005469184
 20
92.4864351992
 30
0.0
 10
86.9991635321
 20
92.4634213681
 30
0.0
 11
87.0296017883
 21
92.9397289364
 31
0.0
 11
87.027435517
 21
92.7845551567
 31
0.0
 11
87.0211680546
 21
92.6445548431
 31
0.0
 11
87.0114053576
 21
92.5339530399
 31
0.0
 11
86.9991635321
 21
92.4634213681
 31
0.0
  0
SPLINE
  5
384
100
AcDbEntity
  8
0
100
AcDbSpline
 62
253
  6
CONTINUOUS
 70
0
 71
3
 72
12
 73
8
 74
6
 42
0.0000001
 43
0.0000001
 44
0.0000000001
 12
0.0041738966
 22
1.7589105067
 32
0.0
 13
-1.7589154235
 23
-0.0003537103
 33
0.0
 40
0.0
 40
0.0
 40
0.0
 40
0.0
 40
0.2501373139
 40
0.5000362675
 40
0.7492516539
 40
0.8746987207
 40
1.0
 40
1.0
 40
1.0
 40
1.0
 10
217.8663888416
 20
132.504139126
 30
0.0
 10
217.8667368573
 20
132.6507955091
 30
0.0
 10
217.8413584071
 20
132.9467515921
 30
0.0
 10
217.6656695574
 20
133.3577986302
 30
0.0
 10
217.4020449315
 20
133.6302695419
 30
0.0
 10
217.1313415575
 20
133.7510856144
 30
0.0
 10
216.9835334009
 20
133.7724893125
 30
0.0
 10
216.9100686167
 20
133.7724745391
 30
0.0
 11
217.8663888416
 21
132.504139126
 31
0.0
 11
217.8183561725
 21
132.9414797315
 31
0.0
 11
217.6420354146
 21
133.344116278
 31
0.0
 11
217.3300179855
 21
133.6520039048
 31
0.0
 11
217.1282487545
 21
133.7413120585
 31
0.0
 11
216.9100686167
 21
133.7724745391
 31
0.0
  0
SPLINE
  5
385
100
AcDbEntity
  8
0
100
AcDbSpline
 62
253
  6
CONTINUOUS
 70
0
 71
3
 72
11
 73
7
 74
5
 42
0.0000001
 43
0.0000001
 44
0.0000000001
 12
-1.7545335151
 22
0.0232215144
 32
0.0
 13
0.0068251273
 23
-1.7546739047
 33
0.0
 40
0.0
 40
0.0
 40
0.0
 40
0.0
 40
0.2489508845
 40
0.4987284961
 40
0.7492555116
 40
1.0
 40
1.0
 40
1.0
 40
1.0
 10
74.4516735275
 20
133.7724745391
 30
0.0
 10
74.3060759707
 20
133.7744015446
 30
0.0
 10
74.0091933587
 20
133.6826810247
 30
0.0
 10
73.6966527535
 20
133.3581610066
 30
0.0
 10
73.5203140053
 20
132.946673023
 30
0.0
 10
73.4947828483
 20
132.6507973961
 30
0.0
 10
73.4953533026
 20
132.504139126
 30
0.0
 11
74.4516735275
 21
133.7724745391
 31
0.0
 11
74.0318233053
 21
133.6518633951
 31
0.0
 11
73.7197040908
 21
133.3441747007
 31
0.0
 11
73.5433856606
 21
132.9414875628
 31
0.0
 11
73.4953533026
 21
132.504139126
 31
0.0
  0
SPLINE
  5
386
100
AcDbEntity
  8
0
100
AcDbSpline
 62
253
  6
CONTINUOUS
 70
0
 71
3
 72
13
 73
9
 74
7
 42
0.0000001
 43
0.0000001
 44
0.0000000001
 12
1.0207548419
 22
-0.0155795459
 32
0.0
 13
0.3765417284
 23
-0.9488938277
 33
0.0
 40
0.0
 40
0.0
 40
0.0
 40
0.0
 40
0.3617936128
 40
0.6729263705
 40
0.7959921248
 40
0.8923902256
 40
0.9599755368
 40
1.0
 40
1.0
 40
1.0
 40
1.0
 10
216.6777342534
 20
92.939728942
 30
0.0
 10
216.8008351141
 20
92.9378500819
 30
0.0
 10
217.0296791155
 20
92.9278103329
 30
0.0
 10
217.2994731559
 20
92.8981309771
 30
0.0
 10
217.4766814004
 20
92.8646215225
 30
0.0
 10
217.5716878644
 20
92.8388148492
 30
0.0
 10
217.6346285961
 20
92.8120052291
 30
0.0
 10
217.6658330804
 20
92.7878093397
 30
0.0
 10
217.6708567073
 20
92.7751496843
 30
0.0
 11
216.6777342534
 21
92.939728942
 31
0.0
 11
217.046687252
 21
92.9227038738
 31
0.0
 11
217.3621105713
 21
92.8853514318
 31
0.0
 11
217.4853806095
 21
92.8610913978
 31
0.0
 11
217.5799517261
 21
92.8338721253
 31
0.0
 11
217.6423445965
 21
92.8044172917
 31
0.0
 11
217.6708567073
 21
92.7751496843
 31
0.0
  0
SPLINE
  5
387
100
AcDbEntity
  8
0
100
AcDbSpline
 62
253
  6
CONTINUOUS
 70
0
 71
3
 72
8
 73
4
 74
2
 42
0.0000001
 43
0.0000001
 44
0.0000000001
 12
-0.0097745397
 22
-0.1862074644
 32
0.0
 13
-0.0820468171
 23
-0.16744277
 33
0.0
 40
0.0
 40
0.0
 40
0.0
 40
0.0
 40
1.0
 40
1.0
 40
1.0
 40
1.0
 10
217.6708567073
 20
92.7751496843
 30
0.0
 10
217.6675985274
 20
92.7130805295
 30
0.0
 10
217.6510362668
 20
92.6505649081
 30
0.0
 10
217.6236873278
 20
92.5947506515
 30
0.0
 11
217.6708567073
 21
92.7751496843
 31
0.0
 11
217.6236873278
 21
92.5947506515
 31
0.0
  0
SPLINE
  5
388
100
AcDbEntity
  8
0
100
AcDbSpline
 62
253
  6
CONTINUOUS
 70
0
 71
3
 72
9
 73
5
 74
3
 42
0.0000001
 43
0.0000001
 44
0.0000000001
 12
-0.1656429176
 22
-0.3380473481
 32
0.0
 13
-0.3524632442
 23
-0.1322242307
 33
0.0
 40
0.0
 40
0.0
 40
0.0
 40
0.0
 40
0.4959386767
 40
1.0
 40
1.0
 40
1.0
 40
1.0
 10
217.6236873278
 20
92.5947506515
 30
0.0
 10
217.596304418
 20
92.5388670666
 30
0.0
 10
217.5179798319
 20
92.436349839
 30
0.0
 10
217.4075944365
 20
92.3701036334
 30
0.0
 10
217.3483734067
 20
92.3478872598
 30
0.0
 11
217.6236873278
 21
92.5947506515
 31
0.0
 11
217.510730513
 21
92.4461035956
 31
0.0
 11
217.3483734067
 21
92.3478872598
 31
0.0
  0
SPLINE
  5
389
100
AcDbEntity
  8
0
100
AcDbSpline
 62
253
  6
CONTINUOUS
 70
0
 71
3
 72
9
 73
5
 74
3
 42
0.0000001
 43
0.0000001
 44
0.0000000001
 12
-0.9295418143
 22
-13.7985142436
 32
0.0
 13
-1.2629297338
 23
-13.7720024617
 33
0.0
 40
0.0
 40
0.0
 40
0.0
 40
0.0
 40
0.2317259708
 40
1.0
 40
1.0
 40
1.0
 40
1.0
 10
219.9808710602
 20
146.2611237791
 30
0.0
 10
219.9090714005
 20
145.1952990765
 30
0.0
 10
219.5808907736
 20
140.5970274195
 30
0.0
 10
219.1881202344
 20
136.003542546
 30
0.0
 10
218.8646948626
 20
132.4766519387
 30
0.0
 11
219.9808710602
 21
146.2611237791
 31
0.0
 11
219.7535071721
 21
143.0644781851
 31
0.0
 11
218.8646948626
 21
132.4766519387
 31
0.0
  0
SPLINE
  5
38A
100
AcDbEntity
  8
0
100
AcDbSpline
 62
253
  6
CONTINUOUS
 70
0
 71
3
 72
11
 73
7
 74
5
 42
0.0000001
 43
0.0000001
 44
0.0000000001
 12
0.0386967377
 22
3.1453050734
 32
0.0
 13
-3.1450305714
 23
0.056781571
 33
0.0
 40
0.0
 40
0.0
 40
0.0
 40
0.0
 40
0.2448228
 40
0.4928011715
 40
0.7450133038
 40
1.0
 40
1.0
 40
1.0
 40
1.0
 10
218.8646701457
 20
132.4766526169
 30
0.0
 10
218.8678280936
 20
132.7333334152
 30
0.0
 10
218.7787047087
 20
133.2561762595
 30
0.0
 10
218.3657657512
 20
133.9408420967
 30
0.0
 10
217.713698127
 20
134.4260585245
 30
0.0
 10
217.177382303
 20
134.5488444183
 30
0.0
 10
216.9100686514
 20
134.5536706001
 30
0.0
 11
218.8646701457
 21
132.4766526169
 31
0.0
 11
218.7338572343
 21
133.2355617194
 31
0.0
 11
218.3301003671
 21
133.9029611337
 31
0.0
 11
217.6917700885
 21
134.3740549369
 31
0.0
 11
216.9100686514
 21
134.5536706001
 31
0.0
  0
SPLINE
  5
38B
100
AcDbEntity
  8
0
100
AcDbSpline
 62
253
  6
CONTINUOUS
 70
0
 71
3
 72
9
 73
5
 74
3
 42
0.0000001
 43
0.0000001
 44
0.0000000001
 12
-0.8961860001
 22
-13.4516410574
 32
0.0
 13
-1.2090272923
 23
-13.4271385444
 33
0.0
 40
0.0
 40
0.0
 40
0.0
 40
0.0
 40
0.4764719207
 40
1.0
 40
1.0
 40
1.0
 40
1.0
 10
217.9810314959
 20
147.9922915315
 30
0.0
 10
217.8386956743
 20
145.8558484477
 30
0.0
 10
217.5050551052
 20
141.3742775998
 30
0.0
 10
217.1210552484
 20
136.8968207956
 30
0.0
 10
216.9100686696
 20
134.5536594448
 30
0.0
 11
217.9810314959
 21
147.9922915315
 31
0.0
 11
217.5093221067
 21
141.5860971009
 31
0.0
 11
216.9100686696
 21
134.5536594448
 31
0.0
  0
SPLINE
  5
38C
100
AcDbEntity
  8
0
100
AcDbSpline
 62
253
  6
CONTINUOUS
 70
0
 71
3
 72
9
 73
5
 74
3
 42
0.0000001
 43
0.0000001
 44
0.0000000001
 12
-1.2090271441
 22
13.4271369439
 32
0.0
 13
-0.8961858527
 23
13.4516394563
 33
0.0
 40
0.0
 40
0.0
 40
0.0
 40
0.0
 40
0.5235280894
 40
1.0
 40
1.0
 40
1.0
 40
1.0
 10
74.4516734623
 20
134.5536594448
 30
0.0
 10
74.2406869054
 20
136.8968205617
 30
0.0
 10
73.8566957191
 20
141.374277633
 30
0.0
 10
73.5230667719
 20
145.8558487475
 30
0.0
 10
73.3807309767
 20
147.9922915315
 30
0.0
 11
74.4516734623
 21
134.5536594448
 31
0.0
 11
73.8524299273
 21
141.5860972375
 31
0.0
 11
73.3807309767
 21
147.9922915315
 31
0.0
  0
SPLINE
  5
38D
100
AcDbEntity
  8
0
100
AcDbSpline
 62
253
  6
CONTINUOUS
 70
0
 71
3
 72
11
 73
7
 74
5
 42
0.0000001
 43
0.0000001
 44
0.0000000001
 12
-3.1450798637
 22
-0.0539487184
 32
0.0
 13
0.0386521351
 23
-3.1453050449
 33
0.0
 40
0.0
 40
0.0
 40
0.0
 40
0.0
 40
0.2550411225
 40
0.5072649766
 40
0.7552073674
 40
1.0
 40
1.0
 40
1.0
 40
1.0
 10
74.4516734679
 20
134.5536706102
 30
0.0
 10
74.1842985683
 20
134.5490842297
 30
0.0
 10
73.6479456699
 20
134.4258393389
 30
0.0
 10
72.9958062551
 20
133.9407974658
 30
0.0
 10
72.5830402251
 20
133.2560491459
 30
0.0
 10
72.4939180313
 20
132.733302814
 30
0.0
 10
72.4970719506
 20
132.4766536467
 30
0.0
 11
74.4516734679
 21
134.5536706102
 31
0.0
 11
73.66982003
 21
134.3739526424
 31
0.0
 11
73.0314678312
 21
133.9028266932
 31
0.0
 11
72.6278576212
 21
133.2354710089
 31
0.0
 11
72.4970719506
 21
132.4766536467
 31
0.0
  0
SPLINE
  5
38E
100
AcDbEntity
  8
0
100
AcDbSpline
 62
253
  6
CONTINUOUS
 70
0
 71
3
 72
13
 73
9
 74
7
 42
0.0000001
 43
0.0000001
 44
0.0000000001
 12
0.3714577238
 22
0.9509223534
 32
0.0
 13
1.0208432358
 23
0.0106419334
 33
0.0
 40
0.0
 40
0.0
 40
0.0
 40
0.0
 40
0.0401174903
 40
0.1076438889
 40
0.2039478802
 40
0.3269029683
 40
0.6379593072
 40
1.0
 40
1.0
 40
1.0
 40
1.0
 10
73.6908854123
 20
92.7751496914
 30
0.0
 10
73.6958527295
 20
92.7878658975
 30
0.0
 10
73.7270882336
 20
92.8121359005
 30
0.0
 10
73.7900773872
 20
92.8387346168
 30
0.0
 10
73.8849735144
 20
92.8645915746
 30
0.0
 10
74.062097681
 20
92.898104835
 30
0.0
 10
74.331913182
 20
92.9275632094
 30
0.0
 10
74.5608122703
 20
92.9384446712
 30
0.0
 10
74.6840078677
 20
92.9397289422
 30
0.0
 11
73.6908854123
 21
92.7751496914
 31
0.0
 11
73.7194140819
 21
92.8045350662
 31
0.0
 11
73.7818030613
 21
92.8338609884
 31
0.0
 11
73.8762859847
 21
92.8610480239
 31
0.0
 11
73.9994445058
 21
92.885305528
 31
0.0
 11
74.3147943718
 21
92.9226809018
 31
0.0
 11
74.6840078677
 21
92.9397289422
 31
0.0
  0
SPLINE
  5
38F
100
AcDbEntity
  8
0
100
AcDbSpline
 62
253
  6
CONTINUOUS
 70
0
 71
3
 72
9
 73
5
 74
3
 42
0.0000001
 43
0.0000001
 44
0.0000000001
 12
-0.1952491747
 22
0.1440649827
 32
0.0
 13
-0.1032101532
 23
0.2196010559
 33
0.0
 40
0.0
 40
0.0
 40
0.0
 40
0.0
 40
0.2530959616
 40
1.0
 40
1.0
 40
1.0
 40
1.0
 10
73.8883445504
 20
92.4157286948
 30
0.0
 10
73.8718722911
 20
92.4278827833
 30
0.0
 10
73.80969882
 20
92.4797177937
 30
0.0
 10
73.7603940999
 20
92.5470611683
 30
0.0
 10
73.7346980732
 20
92.6017348068
 30
0.0
 11
73.8883445504
 21
92.4157286948
 31
0.0
 11
73.8412249231
 21
92.4551146749
 31
0.0
 11
73.7346980732
 21
92.6017348068
 31
0.0
  0
SPLINE
  5
390
100
AcDbEntity
  8
0
100
AcDbSpline
 62
253
  6
CONTINUOUS
 70
0
 71
3
 72
8
 73
4
 74
2
 42
0.0000001
 43
0.0000001
 44
0.0000000001
 12
-0.07608031
 22
0.1618766748
 32
0.0
 13
-0.0093761458
 23
0.1786179143
 33
0.0
 40
0.0
 40
0.0
 40
0.0
 40
0.0
 40
1.0
 40
1.0
 40
1.0
 40
1.0
 10
73.7346980732
 20
92.6017348068
 30
0.0
 10
73.7093379699
 20
92.6556936985
 30
0.0
 10
73.6940107942
 20
92.7156103866
 30
0.0
 10
73.6908854123
 20
92.7751496914
 30
0.0
 11
73.7346980732
 21
92.6017348068
 31
0.0
 11
73.6908854123
 21
92.7751496914
 31
0.0
  0
SPLINE
  5
391
100
AcDbEntity
  8
0
100
AcDbSpline
 62
253
  6
CONTINUOUS
 70
0
 71
3
 72
9
 73
5
 74
3
 42
0.0000001
 43
0.0000001
 44
0.0000000001
 12
0.9293445398
 22
-13.7985331273
 32
0.0
 13
1.2626584747
 23
-13.7720329405
 33
0.0
 40
0.0
 40
0.0
 40
0.0
 40
0.0
 40
0.2317296068
 40
1.0
 40
1.0
 40
1.0
 40
1.0
 10
71.3808710603
 20
146.2611303537
 30
0.0
 10
71.4526566086
 20
145.1952874681
 30
0.0
 10
71.7808545858
 20
140.5970148014
 30
0.0
 10
72.1736928595
 20
136.0035346915
 30
0.0
 10
72.4970472338
 20
132.4766529708
 30
0.0
 11
71.3808710603
 21
146.2611303537
 31
0.0
 11
71.6082340792
 21
143.0644329874
 31
0.0
 11
72.4970472338
 21
132.4766529708
 31
0.0
  0
SPLINE
  5
392
100
AcDbEntity
  8
0
100
AcDbSpline
 62
253
  6
CONTINUOUS
 70
0
 71
3
 72
11
 73
7
 74
5
 42
0.0000001
 43
0.0000001
 44
0.0000000001
 12
3.0681688765
 22
0.0090872795
 32
0.0
 13
0.071625347
 23
3.067346189
 33
0.0
 40
0.0
 40
0.0
 40
0.0
 40
0.0
 40
0.2500805608
 40
0.5000765116
 40
0.7500361336
 40
1.0
 40
1.0
 40
1.0
 40
1.0
 10
216.1874880126
 20
66.2077446492
 30
0.0
 10
216.4432511437
 20
66.2085021665
 30
0.0
 10
216.9599605814
 20
66.3115419372
 30
0.0
 10
217.6135035457
 20
66.7483820803
 30
0.0
 10
218.0543785124
 20
67.3984861916
 30
0.0
 10
218.1651371155
 20
67.9126108122
 30
0.0
 10
218.1711050317
 20
68.1681860499
 30
0.0
 11
216.1874880126
 21
66.2077446492
 31
0.0
 11
216.9397990429
 21
66.3586296758
 31
0.0
 11
217.5781016748
 21
66.7839643889
 31
0.0
 11
218.0085906359
 21
67.4186675816
 31
0.0
 11
218.1711050317
 21
68.1681860499
 31
0.0
  0
SPLINE
  5
393
100
AcDbEntity
  8
0
100
AcDbSpline
 62
253
  6
CONTINUOUS
 70
0
 71
3
 72
16
 73
12
 74
10
 42
0.0000001
 43
0.0000001
 44
0.0000000001
 12
-1.1368909569
 22
-3.9685666184
 32
0.0
 13
-4.1282008252
 23
-0.0000035951
 33
0.0
 40
0.0
 40
0.0
 40
0.0
 40
0.0
 40
0.2126682872
 40
0.3993454747
 40
0.5600990935
 40
0.6951392258
 40
0.8049014215
 40
0.8903066823
 40
0.9245160912
 40
0.9536456771
 40
1.0
 40
1.0
 40
1.0
 40
1.0
 10
75.1742540634
 20
66.2077442604
 30
0.0
 10
75.0936605126
 20
65.9264148386
 30
0.0
 10
74.9354649193
 20
65.4000516156
 30
0.0
 10
74.6887024181
 20
64.6696900337
 30
0.0
 10
74.4492228604
 20
64.0502207937
 30
0.0
 10
74.2186156054
 20
63.5415007768
 30
0.0
 10
73.9982874455
 20
63.1435522087
 30
0.0
 10
73.8134572478
 20
62.885874291
 30
0.0
 10
73.6677641236
 20
62.7409130115
 30
0.0
 10
73.5472691273
 20
62.6505730108
 30
0.0
 10
73.4441086564
 20
62.6118256146
 30
0.0
 10
73.3803220051
 20
62.6118255591
 30
0.0
 11
75.1742540634
 21
66.2077442604
 31
0.0
 11
74.92013672
 21
65.3673881144
 31
0.0
 11
74.6716852578
 21
64.6378956214
 31
0.0
 11
74.4301468206
 21
64.0197896726
 31
0.0
 11
74.1968955578
 21
63.5134599823
 31
0.0
 11
73.9734826811
 21
63.1192458634
 31
0.0
 11
73.761612165
 21
62.8374364648
 31
0.0
 11
73.6605900876
 21
62.7387523057
 31
0.0
 11
73.5631752968
 21
62.6682463505
 31
0.0
 11
73.3803220051
 21
62.6118255591
 31
0.0
  0
SPLINE
  5
394
100
AcDbEntity
  8
0
100
AcDbSpline
 62
253
  6
CONTINUOUS
 70
0
 71
3
 72
11
 73
7
 74
5
 42
0.0000001
 43
0.0000001
 44
0.0000000001
 12
0.0717933638
 22
-3.0673399663
 32
0.0
 13
3.0681678044
 23
-0.0086648665
 33
0.0
 40
0.0
 40
0.0
 40
0.0
 40
0.0
 40
0.2498469934
 40
0.4997621916
 40
0.7498407293
 40
1.0
 40
1.0
 40
1.0
 40
1.0
 10
73.1906370874
 20
68.1681860466
 30
0.0
 10
73.1966162061
 20
67.9127308238
 30
0.0
 10
73.3072640291
 20
67.3987759375
 30
0.0
 10
73.7479627673
 20
66.7486488367
 30
0.0
 10
74.4015323834
 20
66.3116321365
 30
0.0
 10
74.9184105639
 20
66.2084671914
 30
0.0
 10
75.174254104
 20
66.2077446592
 30
0.0
 11
73.1906370874
 21
68.1681860466
 31
0.0
 11
73.3530049307
 21
67.4190033119
 31
0.0
 11
73.7832838339
 21
66.7843230542
 31
0.0
 11
74.4217172014
 21
66.3587286382
 31
0.0
 11
75.174254104
 21
66.2077446592
 31
0.0
  0
SPLINE
  5
395
100
AcDbEntity
  8
0
100
AcDbSpline
 62
253
  6
CONTINUOUS
 70
0
 71
3
 72
16
 73
12
 74
10
 42
0.0000001
 43
0.0000001
 44
0.0000000001
 12
-4.1281936948
 22
0.0000042722
 32
0.0
 13
-1.1368890126
 23
3.9685597582
 33
0.0
 40
0.0
 40
0.0
 40
0.0
 40
0.0
 40
0.0463533695
 40
0.0754824236
 40
0.1096916487
 40
0.1950971566
 40
0.304859605
 40
0.4398999419
 40
0.6006538361
 40
0.7873313467
 40
1.0
 40
1.0
 40
1.0
 40
1.0
 10
217.9814121785
 20
62.6118255591
 30
0.0
 10
217.9176269493
 20
62.6118256251
 30
0.0
 10
217.8144686452
 20
62.6505730241
 30
0.0
 10
217.6939773597
 20
62.7409136447
 30
0.0
 10
217.5482858957
 20
62.8858750246
 30
0.0
 10
217.3634546407
 20
63.1435519284
 30
0.0
 10
217.143126159
 20
63.5415006596
 30
0.0
 10
216.9125193343
 20
64.0502208843
 30
0.0
 10
216.6730396783
 20
64.6696900432
 30
0.0
 10
216.4262771538
 20
65.4000516145
 30
0.0
 10
216.2680815741
 20
65.9264148406
 30
0.0
 10
216.1874880223
 20
66.2077442604
 30
0.0
 11
217.9814121785
 21
62.6118255591
 31
0.0
 11
217.798563355
 21
62.6682463614
 31
0.0
 11
217.7011515295
 21
62.7387523157
 31
0.0
 11
217.6001308549
 21
62.8374364751
 31
0.0
 11
217.388259659
 21
63.1192458776
 31
0.0
 11
217.1648462571
 21
63.5134599981
 31
0.0
 11
216.9315952767
 21
64.0197896879
 31
0.0
 11
216.6900568603
 21
64.637895635
 31
0.0
 11
216.4416053602
 21
65.3673881182
 31
0.0
 11
216.1874880223
 21
66.2077442604
 31
0.0
  0
SPLINE
  5
396
100
AcDbEntity
  8
0
100
AcDbSpline
 62
253
  6
CONTINUOUS
 70
0
 71
3
 72
8
 73
4
 74
2
 42
0.0000001
 43
0.0000001
 44
0.0000000001
 12
-0.1748582581
 22
0.1714462561
 32
0.0
 13
-0.0706322109
 23
0.2344788262
 33
0.0
 40
0.0
 40
0.0
 40
0.0
 40
0.0
 40
1.0
 40
1.0
 40
1.0
 40
1.0
 10
73.0257782653
 20
88.2575982576
 30
0.0
 10
72.9674921793
 20
88.3147470096
 30
0.0
 10
72.9222640466
 20
88.388783867
 30
0.0
 10
72.8987199764
 20
88.4669434757
 30
0.0
 11
73.0257782653
 21
88.2575982576
 31
0.0
 11
72.8987199764
 21
88.4669434757
 31
0.0
  0
SPLINE
  5
397
100
AcDbEntity
  8
0
100
AcDbSpline
 62
253
  6
CONTINUOUS
 70
0
 71
3
 72
8
 73
4
 74
2
 42
0.0000001
 43
0.0000001
 44
0.0000000001
 12
-0.03532837
 22
0.117280128
 32
0.0
 13
-0.0046323773
 23
0.1223979706
 33
0.0
 40
0.0
 40
0.0
 40
0.0
 40
0.0
 40
1.0
 40
1.0
 40
1.0
 40
1.0
 10
72.8987199764
 20
88.4669434757
 30
0.0
 10
72.886943853
 20
88.5060368517
 30
0.0
 10
72.8800011441
 20
88.5469420606
 30
0.0
 10
72.8784570184
 20
88.5877413841
 30
0.0
 11
72.8987199764
 21
88.4669434757
 31
0.0
 11
72.8784570184
 21
88.5877413841
 31
0.0
  0
SPLINE
  5
398
100
AcDbEntity
  8
0
100
AcDbSpline
 62
253
  6
CONTINUOUS
 70
0
 71
3
 72
9
 73
5
 74
3
 42
0.0000001
 43
0.0000001
 44
0.0000000001
 12
0.0214812105
 22
-0.4793356845
 32
0.0
 13
0.4127111864
 23
-0.2447317256
 33
0.0
 40
0.0
 40
0.0
 40
0.0
 40
0.0
 40
0.4962018063
 40
1.0
 40
1.0
 40
1.0
 40
1.0
 10
73.2240335402
 20
90.2386640235
 30
0.0
 10
73.2275865454
 20
90.1593816127
 30
0.0
 10
73.2769409409
 20
89.9990270286
 30
0.0
 10
73.3970424343
 20
89.8827027822
 30
0.0
 10
73.466350151
 20
89.8416043151
 30
0.0
 11
73.2240335402
 21
90.2386640235
 31
0.0
 11
73.2939851097
 21
90.011086128
 31
0.0
 11
73.466350151
 21
89.8416043151
 31
0.0
  0
SPLINE
  5
399
100
AcDbEntity
  8
0
100
AcDbSpline
 62
253
  6
CONTINUOUS
 70
0
 71
3
 72
8
 73
4
 74
2
 42
0.0000001
 43
0.0000001
 44
0.0000000001
 12
0.2051776253
 22
0.121642372
 32
0.0
 13
0.1257694643
 23
0.2026740399
 33
0.0
 40
0.0
 40
0.0
 40
0.0
 40
0.0
 40
1.0
 40
1.0
 40
1.0
 40
1.0
 10
217.8953018336
 20
89.841552683
 30
0.0
 10
217.9636943754
 20
89.8821001404
 30
0.0
 10
218.0240477729
 20
89.9406283546
 30
0.0
 10
218.0659709277
 20
90.0081863679
 30
0.0
 11
217.8953018336
 21
89.841552683
 31
0.0
 11
218.0659709277
 21
90.0081863679
 31
0.0
  0
SPLINE
  5
39A
100
AcDbEntity
  8
0
100
AcDbSpline
 62
253
  6
CONTINUOUS
 70
0
 71
3
 72
9
 73
5
 74
3
 42
0.0000001
 43
0.0000001
 44
0.0000000001
 12
0.1280567668
 22
0.2063599651
 32
0.0
 13
0.0108729312
 23
0.2426205888
 33
0.0
 40
0.0
 40
0.0
 40
0.0
 40
0.0
 40
0.2525278759
 40
1.0
 40
1.0
 40
1.0
 40
1.0
 10
218.0659709277
 20
90.0081863679
 30
0.0
 10
218.0767502288
 20
90.0255569158
 30
0.0
 10
218.1151251856
 20
90.0969317588
 30
0.0
 10
218.1349995091
 20
90.1782133157
 30
0.0
 10
218.1377085801
 20
90.2386640246
 30
0.0
 11
218.0659709277
 21
90.0081863679
 31
0.0
 11
218.09495193
 21
90.0622369452
 31
0.0
 11
218.1377085801
 21
90.2386640246
 31
0.0
  0
SPLINE
  5
39B
100
AcDbEntity
  8
0
100
AcDbSpline
 62
253
  6
CONTINUOUS
 70
0
 71
3
 72
8
 73
4
 74
2
 42
0.0000001
 43
0.0000001
 44
0.0000000001
 12
-0.0048396942
 22
-0.1278757572
 32
0.0
 13
-0.038294974
 23
-0.1221029356
 33
0.0
 40
0.0
 40
0.0
 40
0.0
 40
0.0
 40
1.0
 40
1.0
 40
1.0
 40
1.0
 10
218.4832851023
 20
88.5877413848
 30
0.0
 10
218.4816718709
 20
88.5451161324
 30
0.0
 10
218.4741509175
 20
88.5023627933
 30
0.0
 10
218.4613859261
 20
88.4616618147
 30
0.0
 11
218.4832851023
 21
88.5877413848
 31
0.0
 11
218.4613859261
 21
88.4616618147
 31
0.0
  0
SPLINE
  5
39C
100
AcDbEntity
  8
0
100
AcDbSpline
 62
253
  6
CONTINUOUS
 70
0
 71
3
 72
9
 73
5
 74
3
 42
0.0000001
 43
0.0000001
 44
0.0000000001
 12
-0.1074433707
 22
-0.3425815352
 32
0.0
 13
-0.3079050054
 23
-0.1846637318
 33
0.0
 40
0.0
 40
0.0
 40
0.0
 40
0.0
 40
0.4983062567
 40
1.0
 40
1.0
 40
1.0
 40
1.0
 10
218.4613859261
 20
88.4616618147
 30
0.0
 10
218.4435393582
 20
88.4047583072
 30
0.0
 10
218.3858918697
 20
88.2963787296
 30
0.0
 10
218.2934247485
 20
88.2158787162
 30
0.0
 10
218.2419334102
 20
88.18499717
 30
0.0
 11
218.4613859261
 21
88.4616618147
 31
0.0
 11
218.3774411173
 21
88.3036686142
 31
0.0
 11
218.2419334102
 21
88.18499717
 31
0.0
  0
LINE
  5
39D
100
AcDbEntity
  8
0
100
AcDbLine
 62
253
  6
CONTINUOUS
 10
218.548982035
 20
85.1699949865
 11
218.5482828498
 21
85.1407148046
  0
SPLINE
  5
39E
100
AcDbEntity
  8
0
100
AcDbSpline
 62
253
  6
CONTINUOUS
 70
0
 71
3
 72
18
 73
14
 74
12
 42
0.0000001
 43
0.0000001
 44
0.0000000001
 12
1.1977839221
 22
-3.9337031229
 32
0.0
 13
4.0709442519
 23
0.5797581227
 33
0.0
 40
0.0
 40
0.0
 40
0.0
 40
0.0
 40
0.2094423531
 40
0.398565937
 40
0.5608640108
 40
0.6952150785
 40
0.8038286749
 40
0.8491963551
 40
0.8889831875
 40
0.9235544536
 40
0.9531110015
 40
0.9780648289
 40
1.0
 40
1.0
 40
1.0
 40
1.0
 10
218.1711049216
 20
68.1681860951
 30
0.0
 10
218.2547271493
 20
67.8935580823
 30
0.0
 10
218.4165869781
 20
67.3717606408
 30
0.0
 10
218.6608632639
 20
66.6427157037
 30
0.0
 10
218.9007978864
 20
66.0212015074
 30
0.0
 10
219.1349042977
 20
65.5169984241
 30
0.0
 10
219.3313328451
 20
65.1731128629
 30
0.0
 10
219.4848747578
 20
64.9561424289
 30
0.0
 10
219.5899556515
 20
64.8298339474
 30
0.0
 10
219.6912817032
 20
64.7293388125
 30
0.0
 10
219.7890496162
 20
64.6553098636
 30
0.0
 10
219.8850552158
 20
64.6104359969
 30
0.0
 10
219.9511091823
 20
64.604564211
 30
0.0
 10
219.9808748019
 20
64.6088032422
 30
0.0
 11
218.1711049216
 21
68.1681860951
 31
0.0
 11
218.42807762
 21
67.3461860744
 31
0.0
 11
218.678489461
 21
66.6099252776
 31
0.0
 11
218.9220373736
 21
65.9885791694
 31
0.0
 11
219.1574679325
 21
65.4888010726
 31
0.0
 11
219.3829345472
 21
65.1032685166
 31
0.0
 11
219.4913582694
 21
64.9514586261
 31
0.0
 11
219.5966069754
 21
64.8262026574
 31
0.0
 11
219.6984530831
 21
64.7270250869
 31
0.0
 11
219.7966390392
 21
64.6553955754
 31
0.0
 11
219.8908762782
 21
64.6147965055
 31
0.0
 11
219.9808748019
 21
64.6088032422
 31
0.0
  0
SPLINE
  5
39F
100
AcDbEntity
  8
0
100
AcDbSpline
 62
253
  6
CONTINUOUS
 70
0
 71
3
 72
9
 73
5
 74
3
 42
0.0000001
 43
0.0000001
 44
0.0000000001
 12
0.3242798608
 22
-1.6552673758
 32
0.0
 13
0.3699272513
 23
-1.6456674458
 33
0.0
 40
0.0
 40
0.0
 40
0.0
 40
0.0
 40
0.2648679315
 40
1.0
 40
1.0
 40
1.0
 40
1.0
 10
218.1377085785
 20
90.2386640352
 30
0.0
 10
218.1663390238
 20
90.0925216199
 30
0.0
 10
218.27609957
 20
89.5410960373
 30
0.0
 10
218.3926366567
 20
88.9910021753
 30
0.0
 10
218.4832851185
 20
88.5877412041
 30
0.0
 11
218.1377085785
 21
90.2386640352
 31
0.0
 11
218.2249585298
 21
89.8005051399
 31
0.0
 11
218.4832851185
 21
88.5877412041
 31
0.0
  0
SPLINE
  5
3A0
100
AcDbEntity
  8
0
100
AcDbSpline
 62
253
  6
CONTINUOUS
 70
0
 71
3
 72
13
 73
9
 74
7
 42
0.0000001
 43
0.0000001
 44
0.0000000001
 12
0.5094490331
 22
-2.218149639
 32
0.0
 13
-0.0115412644
 23
-2.2758719071
 33
0.0
 40
0.0
 40
0.0
 40
0.0
 40
0.0
 40
0.0545027433
 40
0.1327488371
 40
0.2330466521
 40
0.3537208919
 40
0.6489843068
 40
1.0
 40
1.0
 40
1.0
 40
1.0
 10
218.4832851185
 20
88.5877412041
 30
0.0
 10
218.4925405752
 20
88.5474427906
 30
0.0
 10
218.5070311061
 20
88.4475735397
 30
0.0
 10
218.5239064318
 20
88.2716229177
 30
0.0
 10
218.5382857406
 20
88.0450253507
 30
0.0
 10
218.5551765297
 20
87.6537537067
 30
0.0
 10
218.5667080393
 20
87.0719537226
 30
0.0
 10
218.5673201754
 20
86.5816519084
 30
0.0
 10
218.5659697871
 20
86.3153629901
 30
0.0
 11
218.4832851185
 21
88.5877412041
 31
0.0
 11
218.5036170749
 21
88.4653760048
 31
0.0
 11
218.5214744518
 21
88.2881932331
 31
0.0
 11
218.5366083104
 21
88.0604275483
 31
0.0
 11
218.548845001
 21
87.7860576427
 31
0.0
 11
218.5639693205
 21
87.1142375124
 31
0.0
 11
218.5659697871
 21
86.3153629901
 31
0.0
  0
SPLINE
  5
3A1
100
AcDbEntity
  8
0
100
AcDbSpline
 62
7
  6
CONTINUOUS
 70
0
 71
3
 72
11
 73
7
 74
5
 42
0.0000001
 43
0.0000001
 44
0.0000000001
 12
-0.126299716
 22
0.4609579481
 32
0.0
 13
0.0
 23
0.477947537
 33
0.0
 40
0.0
 40
0.0
 40
0.0
 40
0.0
 40
0.1497253218
 40
0.3819296626
 40
0.6752069996
 40
1.0
 40
1.0
 40
1.0
 40
1.0
 10
204.3625785884
 20
92.4634213681
 30
0.0
 10
204.3562751666
 20
92.4864270605
 30
0.0
 10
204.3481060249
 20
92.5470147892
 30
0.0
 10
204.3390540222
 20
92.6540926073
 30
0.0
 10
204.3335011671
 20
92.7895286379
 30
0.0
 10
204.3321403323
 20
92.8879842649
 30
0.0
 10
204.3321403323
 20
92.9397289364
 30
0.0
 11
204.3625785884
 21
92.4634213681
 31
0.0
 11
204.3503387397
 21
92.5339276882
 31
0.0
 11
204.3405782778
 21
92.6444791474
 31
0.0
 11
204.3343094032
 21
92.7845100767
 31
0.0
 11
204.3321403323
 21
92.9397289364
 31
0.0
  0
SPLINE
  5
3A2
100
AcDbEntity
  8
0
100
AcDbSpline
 62
253
  6
CONTINUOUS
 70
0
 71
3
 72
9
 73
5
 74
3
 42
0.0000001
 43
0.0000001
 44
0.0000000001
 12
-0.3242798899
 22
-1.6552675243
 32
0.0
 13
-0.3699272718
 23
-1.6456675963
 33
0.0
 40
0.0
 40
0.0
 40
0.0
 40
0.0
 40
0.2648679321
 40
1.0
 40
1.0
 40
1.0
 40
1.0
 10
73.2240335423
 20
90.2386640351
 30
0.0
 10
73.1954030943
 20
90.0925216064
 30
0.0
 10
73.0856425386
 20
89.5410959742
 30
0.0
 10
72.9691054373
 20
88.9910020637
 30
0.0
 10
72.8784569705
 20
88.587741056
 30
0.0
 11
73.2240335423
 21
90.2386640351
 31
0.0
 11
73.1367835828
 21
89.8005050996
 31
0.0
 11
72.8784569705
 21
88.587741056
 31
0.0
  0
SPLINE
  5
3A3
100
AcDbEntity
  8
0
100
AcDbSpline
 62
253
  6
CONTINUOUS
 70
0
 71
3
 72
18
 73
14
 74
12
 42
0.0000001
 43
0.0000001
 44
0.0000000001
 12
-1.1977390358
 22
-3.9337745257
 32
0.0
 13
-4.070985024
 23
0.5798635623
 33
0.0
 40
0.0
 40
0.0
 40
0.0
 40
0.0
 40
0.2094447565
 40
0.3985639894
 40
0.5608560076
 40
0.6952055217
 40
0.8038221947
 40
0.8491922625
 40
0.8889813974
 40
0.9235543667
 40
0.9531114631
 40
0.978065124
 40
1.0
 40
1.0
 40
1.0
 40
1.0
 10
73.1906371992
 20
68.1681860956
 30
0.0
 10
73.1070171457
 20
67.8935499464
 30
0.0
 10
72.9451603259
 20
67.3717466509
 30
0.0
 10
72.7008816322
 20
66.6427030508
 30
0.0
 10
72.4609408976
 20
66.0211992175
 30
0.0
 10
72.2268328983
 20
65.516995737
 30
0.0
 10
72.0304069394
 20
65.173096928
 30
0.0
 10
71.8768672806
 20
64.9561075666
 30
0.0
 10
71.7717870646
 20
64.8297843467
 30
0.0
 10
71.6704622814
 20
64.7292762586
 30
0.0
 10
71.5726939648
 20
64.6552400628
 30
0.0
 10
71.4766873781
 20
64.6103638602
 30
0.0
 10
71.4106328363
 20
64.6044932592
 30
0.0
 10
71.3808673191
 20
64.6087330044
 30
0.0
 11
73.1906371992
 21
68.1681860956
 31
0.0
 11
72.9336651949
 21
67.3461633835
 31
0.0
 11
72.6832530593
 21
66.6099105514
 31
0.0
 11
72.4397045822
 21
65.9885817821
 31
0.0
 11
72.2042740217
 21
65.4888025453
 31
0.0
 11
71.9788076686
 21
65.1032482312
 31
0.0
 11
71.8703840612
 21
64.951423115
 31
0.0
 11
71.7651354116
 21
64.8261518618
 31
0.0
 11
71.6632892769
 21
64.7269615443
 31
0.0
 11
71.5651032548
 21
64.6553255262
 31
0.0
 11
71.470865932
 21
64.6147248978
 31
0.0
 11
71.3808673191
 21
64.6087330044
 31
0.0
  0
LINE
  5
3A4
100
AcDbEntity
  8
0
100
AcDbLine
 62
253
  6
CONTINUOUS
 10
72.8127600677
 20
85.1699957595
 11
72.8134592974
 21
85.1407137153
  0
SPLINE
  5
3A5
100
AcDbEntity
  8
0
100
AcDbSpline
 62
253
  6
CONTINUOUS
 70
0
 71
3
 72
10
 73
6
 74
4
 42
0.0000001
 43
0.0000001
 44
0.0000000001
 12
-0.0723528859
 22
2.9862309833
 32
0.0
 13
0.1870771625
 23
2.9812434589
 33
0.0
 40
0.0
 40
0.0
 40
0.0
 40
0.0
 40
0.5734757303
 40
0.8133185472
 40
1.0
 40
1.0
 40
1.0
 40
1.0
 10
72.8127600677
 20
85.1699957595
 30
0.0
 10
72.798929193
 20
85.7408394242
 30
0.0
 10
72.7895467211
 20
86.5507818461
 30
0.0
 10
72.8029080376
 20
87.5464210928
 30
0.0
 10
72.8192195038
 20
87.9709050183
 30
0.0
 10
72.8308607827
 20
88.1564193049
 30
0.0
 11
72.8127600677
 21
85.1699957595
 31
0.0
 11
72.7957654416
 21
86.8829450366
 31
0.0
 11
72.8069740602
 21
87.5992935976
 31
0.0
 11
72.8308607827
 21
88.1564193049
 31
0.0
  0
SPLINE
  5
3A6
100
AcDbEntity
  8
0
100
AcDbSpline
 62
253
  6
CONTINUOUS
 70
0
 71
3
 72
9
 73
5
 74
3
 42
0.0000001
 43
0.0000001
 44
0.0000000001
 12
0.0275679952
 22
0.4333120829
 32
0.0
 13
0.0934722999
 23
0.4240074111
 33
0.0
 40
0.0
 40
0.0
 40
0.0
 40
0.0
 40
0.6036615661
 40
1.0
 40
1.0
 40
1.0
 40
1.0
 10
72.8308607827
 20
88.1564193049
 30
0.0
 10
72.8364080291
 20
88.2436105885
 30
0.0
 10
72.8473386783
 20
88.3878694649
 30
0.0
 10
72.8661080822
 20
88.5317242449
 30
0.0
 10
72.8784569705
 20
88.587741056
 30
0.0
 11
72.8308607827
 21
88.1564193049
 31
0.0
 11
72.8524613541
 21
88.4176304113
 31
0.0
 11
72.8784569705
 21
88.587741056
 31
0.0
  0
ELLIPSE
  5
3A7
100
AcDbEntity
  8
DRAFT
100
AcDbEllipse
 62
7
  6
CONTINUOUS
 10
172.5933890478
 20
84.0618545864
 30
0.0
 11
0.0000875682
 21
1.0
 31
0.0
 40
0.0874897707
 41
-4.7113880714
 42
-4.4594420686
  0
ELLIPSE
  5
3A8
100
AcDbEntity
  8
DRAFT
100
AcDbEllipse
 62
7
  6
CONTINUOUS
 10
180.7683663749
 20
84.0618545864
 30
0.0
 11
-0.0000875681
 21
1.0
 31
0.0
 40
0.0874874687
 41
-1.8237432532
 42
-1.5717972356
  0
ELLIPSE
  5
3A9
100
AcDbEntity
  8
DRAFT
100
AcDbEllipse
 62
7
  6
CONTINUOUS
 10
110.5933890479
 20
84.0618545864
 30
0.0
 11
0.0000875682
 21
1.0
 31
0.0
 40
0.0874897707
 41
-4.7113880714
 42
-4.4594420686
  0
ELLIPSE
  5
3AA
100
AcDbEntity
  8
DRAFT
100
AcDbEllipse
 62
7
  6
CONTINUOUS
 10
118.7683663749
 20
84.0618545864
 30
0.0
 11
-0.0000875681
 21
1.0
 31
0.0
 40
0.0874874687
 41
-1.8237432532
 42
-1.5717972356
  0
ELLIPSE
  5
3AB
100
AcDbEntity
  8
0
100
AcDbEllipse
 62
7
  6
CONTINUOUS
 10
105.9205115796
 20
130.3292853661
 30
0.0
 11
-0.0
 21
6.0
 31
0.0
 40
0.0174550649
 41
-4.7123889796
 42
-3.1398959308
  0
ELLIPSE
  5
3AC
100
AcDbEntity
  8
0
100
AcDbEllipse
 62
7
  6
CONTINUOUS
 10
82.208976427
 20
263.9341440561
 30
0.0
 11
0.0
 21
180.0
 31
0.0
 40
0.0874886635
 41
-2.8520065828
 42
-2.8325169445
  0
ELLIPSE
  5
3AD
100
AcDbEntity
  8
0
100
AcDbEllipse
 62
7
  6
CONTINUOUS
 10
209.1527656936
 20
263.9341440561
 30
0.0
 11
0.0
 21
180.0
 31
0.0
 40
0.0874886635
 41
-3.4506683627
 42
-3.4311787244
  0
ELLIPSE
  5
3AE
100
AcDbEntity
  8
0
100
AcDbEllipse
 62
7
  6
CONTINUOUS
 10
185.441230541
 20
130.3292853661
 30
0.0
 11
0.0
 21
6.0
 31
0.0
 40
0.0174550649
 41
-3.1458829496
 42
-1.5707963275
  0
ENDSEC
  0
SECTION
  2
OBJECTS
  0
DICTIONARY
  5
C
100
AcDbDictionary
280
0
281
1
  3
ACAD_GROUP
350
D
  3
ACAD_MLINESTYLE
350
17
  3
ACAD_LAYOUT
350
1A
  3
ACAD_PLOTSETTINGS
350
19
  3
ACAD_PLOTSTYLENAME
350
E
  0
DICTIONARY
  5
D
102
{ACAD_REACTORS
330
C
102
}
100
AcDbDictionary
280
0
281
1
  0
ACDBDICTIONARYWDFLT
  5
E
102
{ACAD_REACTORS
330
C
102
}
100
AcDbDictionary
281
1
  3
Normal
350
F
100
AcDbDictionaryWithDefault
340
F
  0
DICTIONARY
  5
17
102
{ACAD_REACTORS
330
C
102
}
100
AcDbDictionary
280
0
281
1
  3
Standard
350
18
  0
DICTIONARY
  5
19
102
{ACAD_REACTORS
330
C
102
}
100
AcDbDictionary
281
1
  0
DICTIONARY
  5
1A
102
{ACAD_REACTORS
330
C
102
}
100
AcDbDictionary
281
1
  3
Model
350
3AF
  3
Layout1
350
3B0
  0
ACDBPLACEHOLDER
  5
F
102
{ACAD_REACTORS
330
E
102
}
  0
MLINESTYLE
  5
18
102
{ACAD_REACTORS
330
17
102
}
100
AcDbMlineStyle
  2
STANDARD
 70
0
  3

 62
256
 51
90.0
 52
90.0
 71
2
 49
0.5
 62
256
  6
BYLAYER
 49
-0.5
 62
256
  6
BYLAYER
  0
LAYOUT
  5
3AF
102
{ACAD_REACTORS
330
1A
102
}
100
AcDbPlotSettings
  1

  2
none_device
  4
ISO_A4_(297.00_x_210.00_MM)
  6

 40
0.0
 41
0.0
 42
0.0
 43
0.0
 44
297.0
 45
210.0
 46
0.0
 47
0.0
 48
0.0
 49
0.0
140
0.0
141
0.0
142
1.0
143
1.0
 70
1024
 72
1
 73
0
 74
0
  7

 75
0
147
1.0
148
0.0
149
0.0
100
AcDbLayout
  1
Model
 70
0
 71
0
 10
0.0
 20
0.0
 11
297.0
 21
210.0
 12
0.0
 22
0.0
 32
0.0
 14
0.0
 24
0.0
 34
0.0
 15
0.0
 25
0.0
 35
0.0
146
0.0
 13
0.0
 23
0.0
 33
0.0
 16
1.0
 26
0.0
 36
0.0
 17
0.0
 27
1.0
 37
0.0
 76
0
330
220
345
0
346
0
  0
LAYOUT
  5
3B0
102
{ACAD_REACTORS
330
1A
102
}
100
AcDbPlotSettings
  1

  2
none_device
  4
ISO_A4_(297.00_x_210.00_MM)
  6

 40
0.0
 41
0.0
 42
0.0
 43
0.0
 44
297.0
 45
210.0
 46
0.0
 47
0.0
 48
0.0
 49
0.0
140
0.0
141
0.0
142
1.0
143
1.0
 70
0
 72
1
 73
0
 74
0
  7

 75
0
147
1.0
148
0.0
149
0.0
100
AcDbLayout
  1
Layout1
 70
0
 71
1
 10
0.0
 20
0.0
 11
297.0
 21
210.0
 12
0.0
 22
0.0
 32
0.0
 14
0.0
 24
0.0
 34
0.0
 15
0.0
 25
0.0
 35
0.0
146
0.0
 13
0.0
 23
0.0
 33
0.0
 16
1.0
 26
0.0
 36
0.0
 17
0.0
 27
1.0
 37
0.0
 76
0
330
221
345
0
346
0
  0
ENDSEC
  0
EOF
