  0
SECTION
  2
HEADER
  9
$ACADVER
  1
AC1015
  9
$DWGCODEPAGE
  3
ANSI_1252
  9
$EXTMAX
 10
297.0
 20
210.0
 30
0.0
  9
$EXTMIN
 10
0.0
 20
0.0
 30
0.0
  9
$LIMMIN
 10
0.0
 20
0.0
  9
$LIMMAX
 10
297.0
 20
210.0
  9
$VIEWCTR
 10
148.5
 20
105.0
  9
$VIEWSIZE
 40
210.0
  9
$CLAYER
  8
0
  9
$LTSCALE
 40
16.335
  9
$CELTYPE
  6
BYLAYER
  9
$DIMSCALE
 40
1.0
  9
$DIMASZ
 40
3.0
  9
$DIMEXO
 40
1.85625
  9
$DIMDLI
 40
11.286
  9
$DIMEXE
 40
5.346
  9
$DIMCEN
 40
2.673
  9
$DIMLFAC
 40
1.0
  9
$DIMBLK
  1
_FILLED
  9
$DIMTXT
 40
3.0
  9
$DIMTOL
 70
1
  9
$DIMLIM
 70
0
  9
$DIMTFAC
 40
1.0
  9
$DIMTP
 40
0.01
  9
$DIMTM
 40
0.01
  9
$PDMODE
 70
3
  9
$PDSIZE
 40
3.0
  9
$HANDSEED
  5
702
  9
$TILEMODE
 70
1
  9
$MEASUREMENT
 70
1
  9
$INSUNITS
 70
4
  0
ENDSEC
  0
SECTION
  2
CLASSES
  0
CLASS
  1
ACDBDICTIONARYWDFLT
  2
AcDbDictionaryWithDefault
  3
AutoCAD 2000
 90
0
280
0
281
0
  0
CLASS
  1
ACDBPLACEHOLDER
  2
AcDbPlaceHolder
  3
AutoCAD 2000
 90
0
280
0
281
0
  0
CLASS
  1
LAYOUT
  2
AcDbLayout
  3
AutoCAD 2000
 90
0
280
0
281
0
  0
ENDSEC
  0
SECTION
  2
TABLES
  0
TABLE
  2
VPORT
  5
8
100
AcDbSymbolTable
 70
2
  0
VPORT
  5
1F4
100
AcDbSymbolTableRecord
100
AcDbViewportTableRecord
  2
*ACTIVE
 70
0
 10
0.0
 20
0.0
 11
1.0
 21
1.0
 12
148.5
 22
105.0
 13
0.0
 23
0.0
 14
1.0
 24
1.0
 15
0.0
 25
0.0
 16
0.0
 26
0.0
 36
1.0
 17
0.0
 27
0.0
 37
0.0
 40
210.0
 41
1.4142857143
 42
50.0
 43
0.0
 44
0.0
 50
0.0
 51
0.0
 71
0
 72
100
 73
1
 74
1
 75
0
 76
0
 77
0
 78
0
  0
ENDTAB
  0
TABLE
  2
LTYPE
  5
5
100
AcDbSymbolTable
 70
6
  0
LTYPE
  5
14
100
AcDbSymbolTableRecord
100
AcDbLinetypeTableRecord
  2
BYBLOCK
 70
0
  3

 72
65
 73
0
 40
0.0
  0
LTYPE
  5
15
100
AcDbSymbolTableRecord
100
AcDbLinetypeTableRecord
  2
BYLAYER
 70
0
  3

 72
65
 73
0
 40
0.0
  0
LTYPE
  5
16
100
AcDbSymbolTableRecord
100
AcDbLinetypeTableRecord
  2
CONTINUOUS
 70
64
  3
Solid line
 72
65
 73
0
 40
0.0
  0
LTYPE
  5
1F5
100
AcDbSymbolTableRecord
100
AcDbLinetypeTableRecord
  2
CENTER
 70
64
  3
____ _ ____ _ ____ _ ____ _ ____ _ ____ _ ____
 72
65
 73
4
 40
0.6
 49
0.375
 74
0
 49
-0.075
 74
0
 49
0.075
 74
0
 49
-0.075
 74
0
  0
LTYPE
  5
1F6
100
AcDbSymbolTableRecord
100
AcDbLinetypeTableRecord
  2
HIDDEN
 70
64
  3
- - - - - - - - - - - - - - - - - - - -
 72
65
 73
2
 40
0.2
 49
0.1
 74
0
 49
-0.1
 74
0
  0
LTYPE
  5
1F7
100
AcDbSymbolTableRecord
100
AcDbLinetypeTableRecord
  2
PHANTOM
 70
64
  3
_____ _ _ _____ _ _ _____ _ _ _____
 72
65
 73
6
 40
0.8
 49
0.45
 74
0
 49
-0.05
 74
0
 49
0.1
 74
0
 49
-0.05
 74
0
 49
0.1
 74
0
 49
-0.05
 74
0
  0
LTYPE
  5
1F8
100
AcDbSymbolTableRecord
100
AcDbLinetypeTableRecord
  2
DOT
 70
64
  3
. . . . . . . . . . . . . . . . . . . .
 72
65
 73
2
 40
0.2
 49
0.1
 74
0
 49
-0.1
 74
0
  0
LTYPE
  5
1F9
100
AcDbSymbolTableRecord
100
AcDbLinetypeTableRecord
  2
DASHED
 70
64
  3
- - - - - - - - - - - - - - - - - - - -
 72
65
 73
2
 40
0.2
 49
0.1
 74
0
 49
-0.1
 74
0
  0
ENDTAB
  0
TABLE
  2
LAYER
  5
2
100
AcDbSymbolTable
 70
36
  0
LAYER
  5
10
100
AcDbSymbolTableRecord
100
AcDbLayerTableRecord
  2
0
 70
0
 62
7
  6
CONTINUOUS
370
-3
390
F
  0
LAYER
  5
1FA
100
AcDbSymbolTableRecord
100
AcDbLayerTableRecord
  2
DEFAULT_1
 70
0
 62
7
  6
CENTER
370
-3
390
F
  0
LAYER
  5
1FB
100
AcDbSymbolTableRecord
100
AcDbLayerTableRecord
  2
DEFAULT_2
 70
0
 62
7
  6
HIDDEN
370
-3
390
F
  0
LAYER
  5
1FC
100
AcDbSymbolTableRecord
100
AcDbLayerTableRecord
  2
DEFAULT_3
 70
0
 62
7
  6
PHANTOM
370
-3
390
F
  0
LAYER
  5
1FD
100
AcDbSymbolTableRecord
100
AcDbLayerTableRecord
  2
ASSI
 70
0
 62
7
  6
CONTINUOUS
370
-3
390
F
  0
LAYER
  5
1FE
100
AcDbSymbolTableRecord
100
AcDbLayerTableRecord
  2
CN-MRT4P5_3SQV01-VIMAR_1600000
 70
0
 62
7
  6
CONTINUOUS
370
-3
390
F
  0
LAYER
  5
1FF
100
AcDbSymbolTableRecord
100
AcDbLayerTableRecord
  2
COLOR5
 70
0
 62
7
  6
CONTINUOUS
370
-3
390
F
  0
LAYER
  5
200
100
AcDbSymbolTableRecord
100
AcDbLayerTableRecord
  2
COLORE_MATERIALE
 70
0
 62
7
  6
CONTINUOUS
370
-3
390
F
  0
LAYER
  5
201
100
AcDbSymbolTableRecord
100
AcDbLayerTableRecord
  2
COORDINATE
 70
0
 62
7
  6
CONTINUOUS
370
-3
390
F
  0
LAYER
  5
202
100
AcDbSymbolTableRecord
100
AcDbLayerTableRecord
  2
COORD_ORIGINE
 70
0
 62
7
  6
CONTINUOUS
370
-3
390
F
  0
LAYER
  5
203
100
AcDbSymbolTableRecord
100
AcDbLayerTableRecord
  2
COPY_PUBLISH
 70
0
 62
7
  6
CONTINUOUS
370
-3
390
F
  0
LAYER
  5
204
100
AcDbSymbolTableRecord
100
AcDbLayerTableRecord
  2
COSMETIC
 70
0
 62
7
  6
CONTINUOUS
370
-3
390
F
  0
LAYER
  5
205
100
AcDbSymbolTableRecord
100
AcDbLayerTableRecord
  2
CURVE
 70
0
 62
7
  6
CONTINUOUS
370
-3
390
F
  0
LAYER
  5
206
100
AcDbSymbolTableRecord
100
AcDbLayerTableRecord
  2
DRAFT
 70
0
 62
7
  6
CONTINUOUS
370
-3
390
F
  0
LAYER
  5
207
100
AcDbSymbolTableRecord
100
AcDbLayerTableRecord
  2
IMPORT_IGES
 70
0
 62
7
  6
CONTINUOUS
370
-3
390
F
  0
LAYER
  5
208
100
AcDbSymbolTableRecord
100
AcDbLayerTableRecord
  2
INCISIONI
 70
0
 62
7
  6
CONTINUOUS
370
-3
390
F
  0
LAYER
  5
209
100
AcDbSymbolTableRecord
100
AcDbLayerTableRecord
  2
INTF_1
 70
0
 62
7
  6
CONTINUOUS
370
-3
390
F
  0
LAYER
  5
20A
100
AcDbSymbolTableRecord
100
AcDbLayerTableRecord
  2
INTF_RED
 70
0
 62
7
  6
CONTINUOUS
370
-3
390
F
  0
LAYER
  5
20B
100
AcDbSymbolTableRecord
100
AcDbLayerTableRecord
  2
NOTE
 70
0
 62
7
  6
CONTINUOUS
370
-3
390
F
  0
LAYER
  5
20C
100
AcDbSymbolTableRecord
100
AcDbLayerTableRecord
  2
PIANI
 70
0
 62
7
  6
CONTINUOUS
370
-3
390
F
  0
LAYER
  5
20D
100
AcDbSymbolTableRecord
100
AcDbLayerTableRecord
  2
PIANI_DI_RIFERIMENTO
 70
0
 62
7
  6
CONTINUOUS
370
-3
390
F
  0
LAYER
  5
20E
100
AcDbSymbolTableRecord
100
AcDbLayerTableRecord
  2
PIANI_ORIGINE
 70
0
 62
7
  6
CONTINUOUS
370
-3
390
F
  0
LAYER
  5
20F
100
AcDbSymbolTableRecord
100
AcDbLayerTableRecord
  2
PIANI_RIFERIMENTO
 70
0
 62
7
  6
CONTINUOUS
370
-3
390
F
  0
LAYER
  5
210
100
AcDbSymbolTableRecord
100
AcDbLayerTableRecord
  2
PUBLISHED_GEOMETRY
 70
0
 62
7
  6
CONTINUOUS
370
-3
390
F
  0
LAYER
  5
211
100
AcDbSymbolTableRecord
100
AcDbLayerTableRecord
  2
PUNTI
 70
0
 62
7
  6
CONTINUOUS
370
-3
390
F
  0
LAYER
  5
212
100
AcDbSymbolTableRecord
100
AcDbLayerTableRecord
  2
RACCORDO
 70
0
 62
7
  6
CONTINUOUS
370
-3
390
F
  0
LAYER
  5
213
100
AcDbSymbolTableRecord
100
AcDbLayerTableRecord
  2
SKEL
 70
0
 62
7
  6
CONTINUOUS
370
-3
390
F
  0
LAYER
  5
214
100
AcDbSymbolTableRecord
100
AcDbLayerTableRecord
  2
SMUSSO
 70
0
 62
7
  6
CONTINUOUS
370
-3
390
F
  0
LAYER
  5
215
100
AcDbSymbolTableRecord
100
AcDbLayerTableRecord
  2
SNAPLINE
 70
0
 62
7
  6
CONTINUOUS
370
-3
390
F
  0
LAYER
  5
216
100
AcDbSymbolTableRecord
100
AcDbLayerTableRecord
  2
SUPERFICI
 70
0
 62
7
  6
CONTINUOUS
370
-3
390
F
  0
LAYER
  5
217
100
AcDbSymbolTableRecord
100
AcDbLayerTableRecord
  2
TRASH
 70
0
 62
7
  6
CONTINUOUS
370
-3
390
F
  0
LAYER
  5
218
100
AcDbSymbolTableRecord
100
AcDbLayerTableRecord
  2
XSEC_DATUMS
 70
0
 62
7
  6
CONTINUOUS
370
-3
390
F
  0
LAYER
  5
219
100
AcDbSymbolTableRecord
100
AcDbLayerTableRecord
  2
___SHELL
 70
0
 62
7
  6
CONTINUOUS
370
-3
390
F
  0
ENDTAB
  0
TABLE
  2
STYLE
  5
3
100
AcDbSymbolTable
 70
1
  0
STYLE
  5
11
100
AcDbSymbolTableRecord
100
AcDbTextStyleTableRecord
  2
STANDARD
 70
0
 40
0.0
 41
0.8
 50
0.0
 71
0
 42
0.2
  3
txt
  4

  0
STYLE
  5
21A
100
AcDbSymbolTableRecord
100
AcDbTextStyleTableRecord
  2
TEXTSTYLE_1
 70
0
 40
0.0
 41
0.8
 50
0.0
 71
0
 42
0.2
  3
gdt
  4

  0
ENDTAB
  0
TABLE
  2
VIEW
  5
6
100
AcDbSymbolTable
 70
0
  0
ENDTAB
  0
TABLE
  2
UCS
  5
7
100
AcDbSymbolTable
 70
0
  0
ENDTAB
  0
TABLE
  2
APPID
  5
9
100
AcDbSymbolTable
 70
1
  0
APPID
  5
21B
100
AcDbSymbolTableRecord
100
AcDbRegAppTableRecord
  2
ACAD
 70
0
  0
ENDTAB
  0
TABLE
  2
BLOCK_RECORD
  5
1
100
AcDbSymbolTable
 70
0
  0
BLOCK_RECORD
  5
21C
100
AcDbSymbolTableRecord
100
AcDbBlockTableRecord
  2
*Model_Space
  0
BLOCK_RECORD
  5
21D
100
AcDbSymbolTableRecord
100
AcDbBlockTableRecord
  2
*Paper_Space
  0
ENDTAB
  0
TABLE
  2
DIMSTYLE
  5
A
100
AcDbSymbolTable
 70
1
100
AcDbDimStyleTable
 71
0
  0
DIMSTYLE
105
21E
100
AcDbSymbolTableRecord
100
AcDbDimStyleTableRecord
  2
STANDARD
 70
0
  3

  4

 40
1.0
 41
3.0
 42
0.0625
 43
0.38
 44
0.18
 45
0.0
 46
0.0
 47
0.01
 48
0.01
140
3.0
141
0.09
142
0.0
143
25.4
144
1.0
145
0.0
146
1.0
147
0.09
 71
1.0
 72
0.0
 73
0
 74
0
 75
0
 76
0
 77
1
 78
8
170
0
171
2
172
0
173
0
174
0
175
0
176
0
177
0
178
0
270
2
271
2
272
2
273
2
274
2
275
0
280
0
281
0
282
0
283
1
284
8
285
0
286
0
287
3
288
0
340
11
  0
ENDTAB
  0
ENDSEC
  0
SECTION
  2
BLOCKS
  0
BLOCK
  5
20
100
AcDbEntity
  8
0
100
AcDbBlockBegin
  2
*Model_Space
 70
0
 10
0.0
 20
0.0
 30
0.0
  3
*Model_Space
  1

  0
ENDBLK
  5
21
100
AcDbEntity
  8
0
100
AcDbBlockEnd
  0
BLOCK
  5
1C
100
AcDbEntity
  8
0
100
AcDbBlockBegin
  2
*Paper_Space
 70
0
 10
0.0
 20
0.0
 30
0.0
  3
*Paper_Space
  1

  0
ENDBLK
  5
1D
100
AcDbEntity
  8
0
100
AcDbBlockEnd
  0
ENDSEC
  0
SECTION
  2
ENTITIES
  0
LINE
  5
21F
100
AcDbEntity
  8
SUPERFICI
100
AcDbLine
 62
7
  6
CONTINUOUS
 10
-55.1285127591
 20
-23.3565768886
 11
-52.7372479655
 21
-23.3565768886
  0
LINE
  5
220
100
AcDbEntity
  8
SUPERFICI
100
AcDbLine
 62
7
  6
CONTINUOUS
 10
-37.7285127591
 20
-23.3565768886
 11
-35.3372479655
 21
-23.3565768886
  0
LINE
  5
221
100
AcDbEntity
  8
SUPERFICI
100
AcDbLine
 62
253
  6
CONTINUOUS
 10
-35.0872521963
 20
-23.1065811194
 11
-37.9785085283
 21
-23.1065811194
  0
LINE
  5
222
100
AcDbEntity
  8
SUPERFICI
100
AcDbLine
 62
253
  6
CONTINUOUS
 10
-52.4872521963
 20
-23.1065811194
 11
-55.3785085283
 21
-23.1065811194
  0
LINE
  5
223
100
AcDbEntity
  8
SUPERFICI
100
AcDbLine
 62
7
  6
CONTINUOUS
 10
-49.6828803623
 20
-22.8609487226
 11
-46.4328778238
 21
-22.8609487226
  0
LINE
  5
224
100
AcDbEntity
  8
SUPERFICI
100
AcDbLine
 62
7
  6
CONTINUOUS
 10
-44.0328829007
 20
-22.8609487226
 11
-40.7828803623
 21
-22.8609487226
  0
LINE
  5
225
100
AcDbEntity
  8
SUPERFICI
100
AcDbLine
 62
7
  6
CONTINUOUS
 10
-48.7677380786
 20
-22.8552473777
 11
-46.4414299619
 21
-22.8552473777
  0
LINE
  5
226
100
AcDbEntity
  8
SUPERFICI
100
AcDbLine
 62
7
  6
CONTINUOUS
 10
-44.0243307626
 20
-22.8552473777
 11
-41.698022646
 21
-22.8552473777
  0
LINE
  5
227
100
AcDbEntity
  8
SUPERFICI
100
AcDbLine
 62
7
  6
CONTINUOUS
 10
-49.6392297154
 20
-22.8172980758
 11
-48.7674069
 21
-22.8172980758
  0
LINE
  5
228
100
AcDbEntity
  8
SUPERFICI
100
AcDbLine
 62
7
  6
CONTINUOUS
 10
-41.6983538245
 20
-22.8172980758
 11
-40.8265310091
 21
-22.8172980758
  0
LINE
  5
229
100
AcDbEntity
  8
SUPERFICI
100
AcDbLine
 62
253
  6
CONTINUOUS
 10
-35.0872521963
 20
-22.7052862899
 11
-37.9785085283
 21
-22.7052862899
  0
LINE
  5
22A
100
AcDbEntity
  8
SUPERFICI
100
AcDbLine
 62
253
  6
CONTINUOUS
 10
-52.4872521963
 20
-22.7052862899
 11
-55.3785085283
 21
-22.7052862899
  0
LINE
  5
22B
100
AcDbEntity
  8
SUPERFICI
100
AcDbLine
 62
253
  6
CONTINUOUS
 10
-35.3372479655
 20
-22.488779939
 11
-37.7285127591
 21
-22.488779939
  0
LINE
  5
22C
100
AcDbEntity
  8
SUPERFICI
100
AcDbLine
 62
253
  6
CONTINUOUS
 10
-52.7372479655
 20
-22.488779939
 11
-55.1285127591
 21
-22.488779939
  0
LINE
  5
22D
100
AcDbEntity
  8
SUPERFICI
100
AcDbLine
 62
7
  6
CONTINUOUS
 10
-54.8828803623
 20
21.3380909276
 11
-54.1827740247
 21
22.0390512774
  0
LINE
  5
22E
100
AcDbEntity
  8
SUPERFICI
100
AcDbLine
 62
7
  6
CONTINUOUS
 10
-52.4886981921
 20
23.5332334475
 11
-53.4828803623
 21
22.5390512774
  0
LINE
  5
22F
100
AcDbEntity
  8
RACCORDO
100
AcDbLine
 62
7
  6
CONTINUOUS
 10
-54.0328803623
 20
21.9890512774
 11
-55.7971831428
 21
20.2247484969
  0
LINE
  5
230
100
AcDbEntity
  8
ASSI
100
AcDbLine
 62
7
  6
CONTINUOUS
 10
-54.0328803623
 20
21.9890512774
 11
-55.7971831428
 21
20.2247484969
  0
LINE
  5
231
100
AcDbEntity
  8
DRAFT
100
AcDbLine
 62
7
  6
CONTINUOUS
 10
-55.7971831428
 20
20.2247484969
 11
-56.3741534945
 21
19.6477781451
  0
LINE
  5
232
100
AcDbEntity
  8
DRAFT
100
AcDbLine
 62
7
  6
CONTINUOUS
 10
-55.9711300822
 20
20.0261163679
 11
-56.3654266267
 21
19.6318198234
  0
LINE
  5
233
100
AcDbEntity
  8
RACCORDO
100
AcDbLine
 62
7
  6
CONTINUOUS
 10
-55.3178979076
 20
20.4571818365
 11
-53.7860284667
 21
21.9890512774
  0
LINE
  5
234
100
AcDbEntity
  8
ASSI
100
AcDbLine
 62
7
  6
CONTINUOUS
 10
-55.3178979076
 20
20.4571818365
 11
-53.7860284667
 21
21.9890512774
  0
LINE
  5
235
100
AcDbEntity
  8
RACCORDO
100
AcDbLine
 62
253
  6
CONTINUOUS
 10
-55.2281181792
 20
20.2404343985
 11
-55.4058830021
 21
20.0626695756
  0
LINE
  5
236
100
AcDbEntity
  8
ASSI
100
AcDbLine
 62
253
  6
CONTINUOUS
 10
-55.2281181792
 20
20.2404343985
 11
-55.4058830021
 21
20.0626695756
  0
LINE
  5
237
100
AcDbEntity
  8
SUPERFICI
100
AcDbLine
 62
253
  6
CONTINUOUS
 10
-46.4414299619
 20
25.1333499324
 11
-46.4328778238
 21
25.1390512774
  0
LINE
  5
238
100
AcDbEntity
  8
SUPERFICI
100
AcDbLine
 62
253
  6
CONTINUOUS
 10
-46.2414477323
 20
24.9333465471
 11
-46.2328803623
 21
24.9390580466
  0
LINE
  5
239
100
AcDbEntity
  8
SUPERFICI
100
AcDbLine
 62
7
  6
CONTINUOUS
 10
-53.2994498641
 20
22.1307595416
 11
-53.4828803623
 21
22.0390512774
  0
LINE
  5
23A
100
AcDbEntity
  8
SUPERFICI
100
AcDbLine
 62
7
  6
CONTINUOUS
 10
-53.2994498641
 20
22.5927867045
 11
-53.4828803623
 21
22.5390512774
  0
LINE
  5
23B
100
AcDbEntity
  8
SUPERFICI
100
AcDbLine
 62
7
  6
CONTINUOUS
 10
-55.1336033601
 20
-21.9835984535
 11
-52.7321573644
 21
-21.9835984535
  0
LINE
  5
23C
100
AcDbEntity
  8
SUPERFICI
100
AcDbLine
 62
7
  6
CONTINUOUS
 10
-35.3321573644
 20
-21.9835984535
 11
-37.7336033601
 21
-21.9835984535
  0
LINE
  5
23D
100
AcDbEntity
  8
SUPERFICI
100
AcDbLine
 62
7
  6
CONTINUOUS
 10
-34.5824997625
 20
-21.2609487226
 11
-40.7828803623
 21
-21.2609487226
  0
LINE
  5
23E
100
AcDbEntity
  8
SUPERFICI
100
AcDbLine
 62
7
  6
CONTINUOUS
 10
-44.2328803623
 20
-21.2609487226
 11
-46.2328803623
 21
-21.2609487226
  0
LINE
  5
23F
100
AcDbEntity
  8
SUPERFICI
100
AcDbLine
 62
7
  6
CONTINUOUS
 10
-49.6828803623
 20
-21.2609487226
 11
-55.883260962
 21
-21.2609487226
  0
LINE
  5
240
100
AcDbEntity
  8
SUPERFICI
100
AcDbLine
 62
7
  6
CONTINUOUS
 10
-46.2415543157
 20
-21.2557444352
 11
-44.2242064089
 21
-21.2557444352
  0
LINE
  5
241
100
AcDbEntity
  8
SUPERFICI
100
AcDbLine
 62
7
  6
CONTINUOUS
 10
-55.8741598406
 20
-21.2551308928
 11
-52.4886981921
 21
-21.2551308928
  0
LINE
  5
242
100
AcDbEntity
  8
SUPERFICI
100
AcDbLine
 62
7
  6
CONTINUOUS
 10
-37.9770625325
 20
-21.2551308928
 11
-34.591600884
 21
-21.2551308928
  0
LINE
  5
243
100
AcDbEntity
  8
SUPERFICI
100
AcDbLine
 62
253
  6
CONTINUOUS
 10
-52.4234219885
 20
-21.1969187481
 11
-48.2384303886
 21
-21.1969187481
  0
LINE
  5
244
100
AcDbEntity
  8
SUPERFICI
100
AcDbLine
 62
253
  6
CONTINUOUS
 10
-42.2273303359
 20
-21.1969187481
 11
-38.0423387361
 21
-21.1969187481
  0
LINE
  5
245
100
AcDbEntity
  8
SUPERFICI
100
AcDbLine
 62
7
  6
CONTINUOUS
 10
-48.2328803623
 20
-20.5609487226
 11
-42.2328803623
 21
-20.5609487226
  0
LINE
  5
246
100
AcDbEntity
  8
SUPERFICI
100
AcDbLine
 62
253
  6
CONTINUOUS
 10
-52.7995260165
 20
-20.1969356713
 11
-48.2297036685
 21
-20.1969356713
  0
LINE
  5
247
100
AcDbEntity
  8
SUPERFICI
100
AcDbLine
 62
253
  6
CONTINUOUS
 10
-42.236057056
 20
-20.1969356713
 11
-37.666234708
 21
-20.1969356713
  0
LINE
  5
248
100
AcDbEntity
  8
DRAFT
100
AcDbLine
 62
7
  6
CONTINUOUS
 10
-37.666234708
 20
-19.8569442683
 11
-38.028875908
 21
-19.8569442683
  0
LINE
  5
249
100
AcDbEntity
  8
DRAFT
100
AcDbLine
 62
7
  6
CONTINUOUS
 10
-52.4368848166
 20
-19.8569442683
 11
-52.7995260165
 21
-19.8569442683
  0
LINE
  5
24A
100
AcDbEntity
  8
SUPERFICI
100
AcDbLine
 62
7
  6
CONTINUOUS
 10
-54.1827740247
 20
-19.7609487226
 11
-53.4828803623
 21
-19.7609487226
  0
LINE
  5
24B
100
AcDbEntity
  8
DRAFT
100
AcDbLine
 62
7
  6
CONTINUOUS
 10
-53.4828803623
 20
-19.7609487226
 11
-52.5328803623
 21
-19.7609487226
  0
LINE
  5
24C
100
AcDbEntity
  8
DRAFT
100
AcDbLine
 62
7
  6
CONTINUOUS
 10
-37.9328803623
 20
-19.7609487226
 11
-36.9828803623
 21
-19.7609487226
  0
LINE
  5
24D
100
AcDbEntity
  8
SUPERFICI
100
AcDbLine
 62
7
  6
CONTINUOUS
 10
-36.9828803623
 20
-19.7609487226
 11
-36.2829866999
 21
-19.7609487226
  0
LINE
  5
24E
100
AcDbEntity
  8
DRAFT
100
AcDbLine
 62
7
  6
CONTINUOUS
 10
-36.4328803623
 20
-19.7109487226
 11
-37.8328803623
 21
-19.7109487226
  0
LINE
  5
24F
100
AcDbEntity
  8
ASSI
100
AcDbLine
 62
7
  6
CONTINUOUS
 10
-36.4328803623
 20
-19.7109487226
 11
-37.8328803623
 21
-19.7109487226
  0
LINE
  5
250
100
AcDbEntity
  8
DRAFT
100
AcDbLine
 62
7
  6
CONTINUOUS
 10
-52.6328803623
 20
-19.7109487226
 11
-54.0328803623
 21
-19.7109487226
  0
LINE
  5
251
100
AcDbEntity
  8
ASSI
100
AcDbLine
 62
7
  6
CONTINUOUS
 10
-52.6328803623
 20
-19.7109487226
 11
-54.0328803623
 21
-19.7109487226
  0
LINE
  5
252
100
AcDbEntity
  8
SUPERFICI
100
AcDbLine
 62
7
  6
CONTINUOUS
 10
-48.2250261813
 20
-19.6609487226
 11
-42.2407345433
 21
-19.6609487226
  0
LINE
  5
253
100
AcDbEntity
  8
DRAFT
100
AcDbLine
 62
7
  6
CONTINUOUS
 10
-37.8328803623
 20
-19.3885603211
 11
-37.8708707829
 21
-19.3885603211
  0
LINE
  5
254
100
AcDbEntity
  8
DRAFT
100
AcDbLine
 62
7
  6
CONTINUOUS
 10
-52.5948899416
 20
-19.3885603211
 11
-52.6328803623
 21
-19.3885603211
  0
LINE
  5
255
100
AcDbEntity
  8
DRAFT
100
AcDbLine
 62
7
  6
CONTINUOUS
 10
-38.6368848166
 20
-18.9569442683
 11
-51.828875908
 21
-18.9569442683
  0
LINE
  5
256
100
AcDbEntity
  8
DRAFT
100
AcDbLine
 62
7
  6
CONTINUOUS
 10
-47.7328803623
 20
-18.9229142031
 11
-47.6741471839
 21
-18.9229142031
  0
LINE
  5
257
100
AcDbEntity
  8
DRAFT
100
AcDbLine
 62
7
  6
CONTINUOUS
 10
-42.7916135407
 20
-18.9229142031
 11
-42.7328803623
 21
-18.9229142031
  0
LINE
  5
258
100
AcDbEntity
  8
SUPERFICI
100
AcDbLine
 62
7
  6
CONTINUOUS
 10
-53.2994498641
 20
-20.3146841498
 11
-53.4828803623
 21
-20.2609487226
  0
LINE
  5
259
100
AcDbEntity
  8
SUPERFICI
100
AcDbLine
 62
7
  6
CONTINUOUS
 10
-53.2994498641
 20
-19.8526569869
 11
-53.4828803623
 21
-19.7609487226
  0
LINE
  5
25A
100
AcDbEntity
  8
SUPERFICI
100
AcDbLine
 62
253
  6
CONTINUOUS
 10
-46.4328778238
 20
-22.8609487226
 11
-46.4414299619
 21
-22.8552473777
  0
LINE
  5
25B
100
AcDbEntity
  8
SUPERFICI
100
AcDbLine
 62
253
  6
CONTINUOUS
 10
-46.2328803623
 20
-22.6609554919
 11
-46.2414477323
 21
-22.6552439924
  0
LINE
  5
25C
100
AcDbEntity
  8
DRAFT
100
AcDbLine
 62
7
  6
CONTINUOUS
 10
-56.3741534945
 20
-17.3696755904
 11
-55.7971831428
 21
-17.9466459422
  0
LINE
  5
25D
100
AcDbEntity
  8
RACCORDO
100
AcDbLine
 62
7
  6
CONTINUOUS
 10
-55.7971831428
 20
-17.9466459422
 11
-54.0328803623
 21
-19.7109487226
  0
LINE
  5
25E
100
AcDbEntity
  8
ASSI
100
AcDbLine
 62
7
  6
CONTINUOUS
 10
-55.7971831428
 20
-17.9466459422
 11
-54.0328803623
 21
-19.7109487226
  0
LINE
  5
25F
100
AcDbEntity
  8
SUPERFICI
100
AcDbLine
 62
7
  6
CONTINUOUS
 10
-52.4886981921
 20
-21.2551308928
 11
-53.4828803623
 21
-20.2609487226
  0
LINE
  5
260
100
AcDbEntity
  8
DRAFT
100
AcDbLine
 62
7
  6
CONTINUOUS
 10
-56.3654266267
 20
-17.3537172687
 11
-55.9711300822
 21
-17.7480138132
  0
LINE
  5
261
100
AcDbEntity
  8
RACCORDO
100
AcDbLine
 62
7
  6
CONTINUOUS
 10
-53.7860284667
 20
-19.7109487226
 11
-55.3178979076
 21
-18.1790792817
  0
LINE
  5
262
100
AcDbEntity
  8
ASSI
100
AcDbLine
 62
7
  6
CONTINUOUS
 10
-53.7860284667
 20
-19.7109487226
 11
-55.3178979076
 21
-18.1790792817
  0
LINE
  5
263
100
AcDbEntity
  8
RACCORDO
100
AcDbLine
 62
253
  6
CONTINUOUS
 10
-55.4058830021
 20
-17.7845670209
 11
-55.2281181792
 21
-17.9623318438
  0
LINE
  5
264
100
AcDbEntity
  8
ASSI
100
AcDbLine
 62
253
  6
CONTINUOUS
 10
-55.4058830021
 20
-17.7845670209
 11
-55.2281181792
 21
-17.9623318438
  0
LINE
  5
265
100
AcDbEntity
  8
SUPERFICI
100
AcDbLine
 62
7
  6
CONTINUOUS
 10
-54.8828803623
 20
-19.0599883728
 11
-54.1827740247
 21
-19.7609487226
  0
LINE
  5
266
100
AcDbEntity
  8
DRAFT
100
AcDbLine
 62
7
  6
CONTINUOUS
 10
-52.4368848166
 20
22.1350468231
 11
-52.5328803623
 21
22.0390512774
  0
LINE
  5
267
100
AcDbEntity
  8
RACCORDO
100
AcDbLine
 62
253
  6
CONTINUOUS
 10
-54.5211190938
 20
19.5334353131
 11
-54.6988859701
 21
19.3556684368
  0
LINE
  5
268
100
AcDbEntity
  8
ASSI
100
AcDbLine
 62
253
  6
CONTINUOUS
 10
-54.5211190938
 20
19.5334353131
 11
-54.6988859701
 21
19.3556684368
  0
LINE
  5
269
100
AcDbEntity
  8
DRAFT
100
AcDbLine
 62
7
  6
CONTINUOUS
 10
-52.6328803623
 20
20.8390512774
 11
-52.7219011934
 21
20.7500304462
  0
LINE
  5
26A
100
AcDbEntity
  8
ASSI
100
AcDbLine
 62
7
  6
CONTINUOUS
 10
-52.6328803623
 20
20.8390512774
 11
-52.7219011934
 21
20.7500304462
  0
LINE
  5
26B
100
AcDbEntity
  8
DRAFT
100
AcDbLine
 62
7
  6
CONTINUOUS
 10
-52.4368848166
 20
20.9350468231
 11
-52.5328803623
 21
20.8390512774
  0
LINE
  5
26C
100
AcDbEntity
  8
SUPERFICI
100
AcDbLine
 62
7
  6
CONTINUOUS
 10
-46.2415543157
 20
23.5338469899
 11
-46.2328803623
 21
23.5390512774
  0
LINE
  5
26D
100
AcDbEntity
  8
DRAFT
100
AcDbLine
 62
7
  6
CONTINUOUS
 10
-48.7329576445
 20
-18.869804385
 11
-47.7328803623
 21
-18.869804385
  0
LINE
  5
26E
100
AcDbEntity
  8
DRAFT
100
AcDbLine
 62
7
  6
CONTINUOUS
 10
-42.7328803623
 20
-18.869804385
 11
-41.7328030801
 21
-18.869804385
  0
LINE
  5
26F
100
AcDbEntity
  8
DRAFT
100
AcDbLine
 62
7
  6
CONTINUOUS
 10
-41.1858771686
 20
-18.8400042399
 11
-42.7328803623
 21
-18.8400042399
  0
LINE
  5
270
100
AcDbEntity
  8
DRAFT
100
AcDbLine
 62
7
  6
CONTINUOUS
 10
-47.7328803623
 20
-18.8400042399
 11
-49.2798835559
 21
-18.8400042399
  0
LINE
  5
271
100
AcDbEntity
  8
DRAFT
100
AcDbLine
 62
7
  6
CONTINUOUS
 10
-51.6701400329
 20
-18.7982083932
 11
-49.9596373469
 21
-18.7982083932
  0
LINE
  5
272
100
AcDbEntity
  8
DRAFT
100
AcDbLine
 62
7
  6
CONTINUOUS
 10
-40.5061233777
 20
-18.7982083932
 11
-38.7956206917
 21
-18.7982083932
  0
LINE
  5
273
100
AcDbEntity
  8
DRAFT
100
AcDbLine
 62
7
  6
CONTINUOUS
 10
-48.7328803623
 20
-18.7609487226
 11
-47.7328803623
 21
-18.7609487226
  0
LINE
  5
274
100
AcDbEntity
  8
ASSI
100
AcDbLine
 62
7
  6
CONTINUOUS
 10
-48.7328803623
 20
-18.7609487226
 11
-47.7328803623
 21
-18.7609487226
  0
LINE
  5
275
100
AcDbEntity
  8
DRAFT
100
AcDbLine
 62
7
  6
CONTINUOUS
 10
-42.7328803623
 20
-18.7609487226
 11
-41.7328803623
 21
-18.7609487226
  0
LINE
  5
276
100
AcDbEntity
  8
ASSI
100
AcDbLine
 62
7
  6
CONTINUOUS
 10
-42.7328803623
 20
-18.7609487226
 11
-41.7328803623
 21
-18.7609487226
  0
LINE
  5
277
100
AcDbEntity
  8
RACCORDO
100
AcDbLine
 62
7
  6
CONTINUOUS
 10
-46.8309977605
 20
-18.7434936577
 11
-43.634762964
 21
-18.7434936577
  0
LINE
  5
278
100
AcDbEntity
  8
ASSI
100
AcDbLine
 62
7
  6
CONTINUOUS
 10
-46.8309977605
 20
-18.7434936577
 11
-43.634762964
 21
-18.7434936577
  0
LINE
  5
279
100
AcDbEntity
  8
DRAFT
100
AcDbLine
 62
7
  6
CONTINUOUS
 10
-48.6438595311
 20
-18.6719278915
 11
-41.8219011934
 21
-18.6719278915
  0
LINE
  5
27A
100
AcDbEntity
  8
ASSI
100
AcDbLine
 62
7
  6
CONTINUOUS
 10
-48.6438595311
 20
-18.6719278915
 11
-41.8219011934
 21
-18.6719278915
  0
LINE
  5
27B
100
AcDbEntity
  8
DRAFT
100
AcDbLine
 62
7
  6
CONTINUOUS
 10
-38.028875908
 20
-18.6569442683
 11
-38.6368848166
 21
-18.6569442683
  0
LINE
  5
27C
100
AcDbEntity
  8
DRAFT
100
AcDbLine
 62
7
  6
CONTINUOUS
 10
-51.828875908
 20
-18.6569442683
 11
-52.4368848166
 21
-18.6569442683
  0
LINE
  5
27D
100
AcDbEntity
  8
DRAFT
100
AcDbLine
 62
7
  6
CONTINUOUS
 10
-52.6328803623
 20
-18.5609487226
 11
-48.7328803623
 21
-18.5609487226
  0
LINE
  5
27E
100
AcDbEntity
  8
ASSI
100
AcDbLine
 62
7
  6
CONTINUOUS
 10
-52.6328803623
 20
-18.5609487226
 11
-48.7328803623
 21
-18.5609487226
  0
LINE
  5
27F
100
AcDbEntity
  8
DRAFT
100
AcDbLine
 62
7
  6
CONTINUOUS
 10
-41.7328803623
 20
-18.5609487226
 11
-37.8328803623
 21
-18.5609487226
  0
LINE
  5
280
100
AcDbEntity
  8
ASSI
100
AcDbLine
 62
7
  6
CONTINUOUS
 10
-41.7328803623
 20
-18.5609487226
 11
-37.8328803623
 21
-18.5609487226
  0
LINE
  5
281
100
AcDbEntity
  8
DRAFT
100
AcDbLine
 62
7
  6
CONTINUOUS
 10
-48.6438595311
 20
-18.4719278915
 11
-41.8219011934
 21
-18.4719278915
  0
LINE
  5
282
100
AcDbEntity
  8
ASSI
100
AcDbLine
 62
7
  6
CONTINUOUS
 10
-48.6438595311
 20
-18.4719278915
 11
-41.8219011934
 21
-18.4719278915
  0
LINE
  5
283
100
AcDbEntity
  8
RACCORDO
100
AcDbLine
 62
7
  6
CONTINUOUS
 10
-35.8548619023
 20
-18.4719278915
 11
-37.7438595311
 21
-18.4719278915
  0
LINE
  5
284
100
AcDbEntity
  8
ASSI
100
AcDbLine
 62
7
  6
CONTINUOUS
 10
-35.8548619023
 20
-18.4719278915
 11
-37.7438595311
 21
-18.4719278915
  0
LINE
  5
285
100
AcDbEntity
  8
RACCORDO
100
AcDbLine
 62
7
  6
CONTINUOUS
 10
-52.7219011934
 20
-18.4719278915
 11
-54.6108988222
 21
-18.4719278915
  0
LINE
  5
286
100
AcDbEntity
  8
ASSI
100
AcDbLine
 62
7
  6
CONTINUOUS
 10
-52.7219011934
 20
-18.4719278915
 11
-54.6108988222
 21
-18.4719278915
  0
LINE
  5
287
100
AcDbEntity
  8
RACCORDO
100
AcDbLine
 62
253
  6
CONTINUOUS
 10
-54.5211190938
 20
-18.2551804535
 11
-35.9446416307
 21
-18.2551804535
  0
LINE
  5
288
100
AcDbEntity
  8
ASSI
100
AcDbLine
 62
253
  6
CONTINUOUS
 10
-54.5211190938
 20
-18.2551804535
 11
-35.9446416307
 21
-18.2551804535
  0
LINE
  5
289
100
AcDbEntity
  8
RACCORDO
100
AcDbLine
 62
253
  6
CONTINUOUS
 10
-54.5211190938
 20
-17.2553327584
 11
-35.9446416307
 21
-17.2553327584
  0
LINE
  5
28A
100
AcDbEntity
  8
ASSI
100
AcDbLine
 62
253
  6
CONTINUOUS
 10
-54.5211190938
 20
-17.2553327584
 11
-35.9446416307
 21
-17.2553327584
  0
LINE
  5
28B
100
AcDbEntity
  8
SUPERFICI
100
AcDbLine
 62
7
  6
CONTINUOUS
 10
-56.4177904921
 20
-17.0082947612
 11
-56.3654266267
 21
-17.0082947612
  0
LINE
  5
28C
100
AcDbEntity
  8
SUPERFICI
100
AcDbLine
 62
7
  6
CONTINUOUS
 10
-34.0479702324
 20
-17.0082947612
 11
-34.1003340979
 21
-17.0082947612
  0
LINE
  5
28D
100
AcDbEntity
  8
RACCORDO
100
AcDbLine
 62
253
  6
CONTINUOUS
 10
-35.4740261447
 20
-16.3705667967
 11
-34.4741784496
 21
-16.3705667967
  0
LINE
  5
28E
100
AcDbEntity
  8
ASSI
100
AcDbLine
 62
253
  6
CONTINUOUS
 10
-35.4740261447
 20
-16.3705667967
 11
-34.4741784496
 21
-16.3705667967
  0
LINE
  5
28F
100
AcDbEntity
  8
RACCORDO
100
AcDbLine
 62
253
  6
CONTINUOUS
 10
-54.9917345798
 20
-16.3705667967
 11
-55.991582275
 21
-16.3705667967
  0
LINE
  5
290
100
AcDbEntity
  8
ASSI
100
AcDbLine
 62
253
  6
CONTINUOUS
 10
-54.9917345798
 20
-16.3705667967
 11
-55.991582275
 21
-16.3705667967
  0
LINE
  5
291
100
AcDbEntity
  8
SUPERFICI
100
AcDbLine
 62
7
  6
CONTINUOUS
 10
-46.2328803623
 20
-21.2609487226
 11
-46.2415543157
 21
-21.2557444352
  0
LINE
  5
292
100
AcDbEntity
  8
DRAFT
100
AcDbLine
 62
7
  6
CONTINUOUS
 10
-52.4368848166
 20
-19.8569442683
 11
-52.5328803623
 21
-19.7609487226
  0
LINE
  5
293
100
AcDbEntity
  8
RACCORDO
100
AcDbLine
 62
253
  6
CONTINUOUS
 10
-54.6988859701
 20
-17.0775658821
 11
-54.5211190938
 21
-17.2553327584
  0
LINE
  5
294
100
AcDbEntity
  8
ASSI
100
AcDbLine
 62
253
  6
CONTINUOUS
 10
-54.6988859701
 20
-17.0775658821
 11
-54.5211190938
 21
-17.2553327584
  0
LINE
  5
295
100
AcDbEntity
  8
DRAFT
100
AcDbLine
 62
7
  6
CONTINUOUS
 10
-52.6328803623
 20
-18.5609487226
 11
-52.7219011934
 21
-18.4719278915
  0
LINE
  5
296
100
AcDbEntity
  8
ASSI
100
AcDbLine
 62
7
  6
CONTINUOUS
 10
-52.6328803623
 20
-18.5609487226
 11
-52.7219011934
 21
-18.4719278915
  0
LINE
  5
297
100
AcDbEntity
  8
DRAFT
100
AcDbLine
 62
7
  6
CONTINUOUS
 10
-52.4368848166
 20
-18.6569442683
 11
-52.5328803623
 21
-18.5609487226
  0
LINE
  5
298
100
AcDbEntity
  8
SMUSSO
100
AcDbLine
 62
7
  6
CONTINUOUS
 10
-52.2328803623
 20
14.4890512774
 11
-52.8102306315
 21
13.9117010082
  0
LINE
  5
299
100
AcDbEntity
  8
ASSI
100
AcDbLine
 62
7
  6
CONTINUOUS
 10
-52.2328803623
 20
14.4890512774
 11
-52.8102306315
 21
13.9117010082
  0
LINE
  5
29A
100
AcDbEntity
  8
SUPERFICI
100
AcDbLine
 62
7
  6
CONTINUOUS
 10
-40.8265310091
 20
25.0954006305
 11
-40.7828803623
 21
25.1390512774
  0
LINE
  5
29B
100
AcDbEntity
  8
RACCORDO
100
AcDbLine
 62
253
  6
CONTINUOUS
 10
-34.6685775818
 20
20.2247484969
 11
-35.0598777225
 21
20.0626695756
  0
LINE
  5
29C
100
AcDbEntity
  8
ASSI
100
AcDbLine
 62
253
  6
CONTINUOUS
 10
-34.6685775818
 20
20.2247484969
 11
-35.0598777225
 21
20.0626695756
  0
LINE
  5
29D
100
AcDbEntity
  8
INCISIONI
100
AcDbLine
 62
253
  6
CONTINUOUS
 10
-34.2282568387
 20
-14.8752345016
 11
-34.2187826753
 21
-14.8752345016
  0
LINE
  5
29E
100
AcDbEntity
  8
INCISIONI
100
AcDbLine
 62
253
  6
CONTINUOUS
 10
-34.128283521
 20
-14.8623857226
 11
-34.1788719817
 21
-14.8623857226
  0
LINE
  5
29F
100
AcDbEntity
  8
INCISIONI
100
AcDbLine
 62
253
  6
CONTINUOUS
 10
-34.2140455928
 20
-14.0609487226
 11
-34.1998343484
 21
-14.0609487226
  0
LINE
  5
2A0
100
AcDbEntity
  8
INCISIONI
100
AcDbLine
 62
253
  6
CONTINUOUS
 10
-34.2306253797
 20
-13.5180913856
 11
-34.2187826753
 21
-13.5180913856
  0
LINE
  5
2A1
100
AcDbEntity
  8
INCISIONI
100
AcDbLine
 62
253
  6
CONTINUOUS
 10
-34.2116770531
 20
-13.472853463
 11
-34.2045714299
 21
-13.472853463
  0
LINE
  5
2A2
100
AcDbEntity
  8
INCISIONI
100
AcDbLine
 62
253
  6
CONTINUOUS
 10
-34.1788719817
 20
-12.5211587226
 11
-34.128283521
 21
-12.5211587226
  0
LINE
  5
2A3
100
AcDbEntity
  8
INCISIONI
100
AcDbLine
 62
253
  6
CONTINUOUS
 10
-34.2306253797
 20
-12.1609487226
 11
-34.2187826753
 21
-12.1609487226
  0
LINE
  5
2A4
100
AcDbEntity
  8
INCISIONI
100
AcDbLine
 62
253
  6
CONTINUOUS
 10
-34.2116770531
 20
-12.1157105735
 11
-34.2045714299
 21
-12.1157105735
  0
LINE
  5
2A5
100
AcDbEntity
  8
INCISIONI
100
AcDbLine
 62
253
  6
CONTINUOUS
 10
-34.164013172
 20
-14.3639477226
 11
-34.128283521
 21
-14.3639577226
  0
LINE
  5
2A6
100
AcDbEntity
  8
RACCORDO
100
AcDbLine
 62
253
  6
CONTINUOUS
 10
-35.0598777225
 20
-17.7845670209
 11
-34.6685775818
 21
-17.9466459422
  0
LINE
  5
2A7
100
AcDbEntity
  8
ASSI
100
AcDbLine
 62
253
  6
CONTINUOUS
 10
-35.0598777225
 20
-17.7845670209
 11
-34.6685775818
 21
-17.9466459422
  0
LINE
  5
2A8
100
AcDbEntity
  8
SUPERFICI
100
AcDbLine
 62
7
  6
CONTINUOUS
 10
-40.7828803623
 20
-22.8609487226
 11
-40.8265310091
 21
-22.8172980758
  0
LINE
  5
2A9
100
AcDbEntity
  8
SUPERFICI
100
AcDbLine
 62
7
  6
CONTINUOUS
 10
-56.4177904921
 20
-17.0082947612
 11
-56.3828803623
 21
-17.3609487226
  0
LINE
  5
2AA
100
AcDbEntity
  8
SUPERFICI
100
AcDbLine
 62
7
  6
CONTINUOUS
 10
-56.3828803623
 20
19.6390512774
 11
-56.3654266267
 21
19.2863973159
  0
LINE
  5
2AB
100
AcDbEntity
  8
SUPERFICI
100
AcDbLine
 62
253
  6
CONTINUOUS
 10
-55.3785085283
 20
-22.7052862899
 11
-55.3828803623
 21
-22.2714338709
  0
LINE
  5
2AC
100
AcDbEntity
  8
SUPERFICI
100
AcDbLine
 62
253
  6
CONTINUOUS
 10
-55.1285127591
 20
-22.488779939
 11
-55.1336033601
 21
-21.9835984535
  0
LINE
  5
2AD
100
AcDbEntity
  8
SUPERFICI
100
AcDbLine
 62
7
  6
CONTINUOUS
 10
-56.4177904921
 20
19.2863973159
 11
-56.4177904921
 21
-17.0082947612
  0
LINE
  5
2AE
100
AcDbEntity
  8
SUPERFICI
100
AcDbLine
 62
7
  6
CONTINUOUS
 10
-56.3828803623
 20
23.0390682004
 11
-56.3828803623
 21
19.6390512774
  0
LINE
  5
2AF
100
AcDbEntity
  8
RACCORDO
100
AcDbLine
 62
7
  6
CONTINUOUS
 10
-56.3828803623
 20
18.8107503261
 11
-56.3828803623
 21
-16.5326477714
  0
LINE
  5
2B0
100
AcDbEntity
  8
ASSI
100
AcDbLine
 62
7
  6
CONTINUOUS
 10
-56.3828803623
 20
18.8107503261
 11
-56.3828803623
 21
-16.5326477714
  0
LINE
  5
2B1
100
AcDbEntity
  8
SUPERFICI
100
AcDbLine
 62
7
  6
CONTINUOUS
 10
-56.3828803623
 20
-20.7609656457
 11
-56.3828803623
 21
-17.3609487226
  0
LINE
  5
2B2
100
AcDbEntity
  8
DRAFT
100
AcDbLine
 62
7
  6
CONTINUOUS
 10
-56.3741534945
 20
23.0332503706
 11
-56.3741534945
 21
19.6477781451
  0
LINE
  5
2B3
100
AcDbEntity
  8
DRAFT
100
AcDbLine
 62
7
  6
CONTINUOUS
 10
-56.3741534945
 20
-17.3696755904
 11
-56.3741534945
 21
-20.7551478159
  0
LINE
  5
2B4
100
AcDbEntity
  8
DRAFT
100
AcDbLine
 62
7
  6
CONTINUOUS
 10
-56.3654266267
 20
19.6318198234
 11
-56.3654266267
 21
19.2863973159
  0
LINE
  5
2B5
100
AcDbEntity
  8
DRAFT
100
AcDbLine
 62
7
  6
CONTINUOUS
 10
-56.3654266267
 20
-17.0082947612
 11
-56.3654266267
 21
-17.3537172687
  0
LINE
  5
2B6
100
AcDbEntity
  8
RACCORDO
100
AcDbLine
 62
253
  6
CONTINUOUS
 10
-55.991582275
 20
18.648667004
 11
-55.991582275
 21
-16.3705644493
  0
LINE
  5
2B7
100
AcDbEntity
  8
ASSI
100
AcDbLine
 62
253
  6
CONTINUOUS
 10
-55.991582275
 20
18.648667004
 11
-55.991582275
 21
-16.3705644493
  0
LINE
  5
2B8
100
AcDbEntity
  8
SUPERFICI
100
AcDbLine
 62
7
  6
CONTINUOUS
 10
-55.3828803623
 20
-21.2609487226
 11
-55.3828803623
 21
-22.7052862899
  0
LINE
  5
2B9
100
AcDbEntity
  8
SUPERFICI
100
AcDbLine
 62
7
  6
CONTINUOUS
 10
-55.3828803623
 20
23.5390512774
 11
-55.3828803623
 21
24.9833888447
  0
LINE
  5
2BA
100
AcDbEntity
  8
SUPERFICI
100
AcDbLine
 62
7
  6
CONTINUOUS
 10
-55.3785085283
 20
25.3846836741
 11
-55.3785085283
 21
24.9833888447
  0
LINE
  5
2BB
100
AcDbEntity
  8
SUPERFICI
100
AcDbLine
 62
7
  6
CONTINUOUS
 10
-55.3785085283
 20
-22.7052862899
 11
-55.3785085283
 21
-23.1065811194
  0
LINE
  5
2BC
100
AcDbEntity
  8
SUPERFICI
100
AcDbLine
 62
253
  6
CONTINUOUS
 10
-55.1285127591
 20
-22.488779939
 11
-55.1285127591
 21
-23.3565768886
  0
LINE
  5
2BD
100
AcDbEntity
  8
SUPERFICI
100
AcDbLine
 62
253
  6
CONTINUOUS
 10
-55.1285127591
 20
24.7668824937
 11
-55.1285127591
 21
25.6346794434
  0
LINE
  5
2BE
100
AcDbEntity
  8
SUPERFICI
100
AcDbLine
 62
253
  6
CONTINUOUS
 10
-55.3828803623
 20
24.5495364256
 11
-55.3785085283
 21
24.9833888447
  0
LINE
  5
2BF
100
AcDbEntity
  8
SUPERFICI
100
AcDbLine
 62
253
  6
CONTINUOUS
 10
-55.1336033601
 20
24.2617010082
 11
-55.1285127591
 21
24.7668824937
  0
LINE
  5
2C0
100
AcDbEntity
  8
SUPERFICI
100
AcDbLine
 62
7
  6
CONTINUOUS
 10
-56.3654266267
 20
-17.0082947612
 11
-56.3828803623
 21
-17.3609487226
  0
LINE
  5
2C1
100
AcDbEntity
  8
SUPERFICI
100
AcDbLine
 62
7
  6
CONTINUOUS
 10
-56.3828803623
 20
19.6390512774
 11
-56.4177904921
 21
19.2863973159
  0
LINE
  5
2C2
100
AcDbEntity
  8
DRAFT
100
AcDbLine
 62
7
  6
CONTINUOUS
 10
-52.5948899416
 20
21.6666628758
 11
-52.5328803623
 21
22.0390512774
  0
LINE
  5
2C3
100
AcDbEntity
  8
SUPERFICI
100
AcDbLine
 62
7
  6
CONTINUOUS
 10
-40.7828803623
 20
23.5390512774
 11
-40.8268026093
 21
23.4951290303
  0
LINE
  5
2C4
100
AcDbEntity
  8
RACCORDO
100
AcDbLine
 62
7
  6
CONTINUOUS
 10
-42.7328803623
 20
21.0390512774
 11
-42.7349000384
 21
21.0370316013
  0
LINE
  5
2C5
100
AcDbEntity
  8
ASSI
100
AcDbLine
 62
7
  6
CONTINUOUS
 10
-42.7328803623
 20
21.0390512774
 11
-42.7349000384
 21
21.0370316013
  0
LINE
  5
2C6
100
AcDbEntity
  8
SMUSSO
100
AcDbLine
 62
7
  6
CONTINUOUS
 10
-45.2328803623
 20
17.7890512774
 11
-44.6555300931
 21
18.3664015465
  0
LINE
  5
2C7
100
AcDbEntity
  8
ASSI
100
AcDbLine
 62
7
  6
CONTINUOUS
 10
-45.2328803623
 20
17.7890512774
 11
-44.6555300931
 21
18.3664015465
  0
LINE
  5
2C8
100
AcDbEntity
  8
DRAFT
100
AcDbLine
 62
7
  6
CONTINUOUS
 10
-41.7328803623
 20
21.0390512774
 11
-41.8219011934
 21
20.9500304462
  0
LINE
  5
2C9
100
AcDbEntity
  8
ASSI
100
AcDbLine
 62
7
  6
CONTINUOUS
 10
-41.7328803623
 20
21.0390512774
 11
-41.8219011934
 21
20.9500304462
  0
LINE
  5
2CA
100
AcDbEntity
  8
DRAFT
100
AcDbLine
 62
7
  6
CONTINUOUS
 10
-41.7328803623
 20
20.8390512774
 11
-41.8219011934
 21
20.7500304462
  0
LINE
  5
2CB
100
AcDbEntity
  8
ASSI
100
AcDbLine
 62
7
  6
CONTINUOUS
 10
-41.7328803623
 20
20.8390512774
 11
-41.8219011934
 21
20.7500304462
  0
LINE
  5
2CC
100
AcDbEntity
  8
SMUSSO
100
AcDbLine
 62
7
  6
CONTINUOUS
 10
-52.2328803623
 20
9.4890512774
 11
-52.8102306315
 21
8.9117010082
  0
LINE
  5
2CD
100
AcDbEntity
  8
ASSI
100
AcDbLine
 62
7
  6
CONTINUOUS
 10
-52.2328803623
 20
9.4890512774
 11
-52.8102306315
 21
8.9117010082
  0
LINE
  5
2CE
100
AcDbEntity
  8
SUPERFICI
100
AcDbLine
 62
7
  6
CONTINUOUS
 10
-38.0423387361
 20
23.4750213029
 11
-37.9770625325
 21
23.5332334475
  0
LINE
  5
2CF
100
AcDbEntity
  8
SUPERFICI
100
AcDbLine
 62
253
  6
CONTINUOUS
 10
-34.5828740162
 20
23.5390512774
 11
-34.591600884
 21
23.5332334475
  0
LINE
  5
2D0
100
AcDbEntity
  8
SUPERFICI
100
AcDbLine
 62
253
  6
CONTINUOUS
 10
-34.0828803623
 20
23.0390682004
 11
-34.0916072301
 21
23.0332503706
  0
LINE
  5
2D1
100
AcDbEntity
  8
RACCORDO
100
AcDbLine
 62
253
  6
CONTINUOUS
 10
-34.0828803623
 20
18.8107503261
 11
-34.4741784496
 21
18.648667004
  0
LINE
  5
2D2
100
AcDbEntity
  8
ASSI
100
AcDbLine
 62
253
  6
CONTINUOUS
 10
-34.0828803623
 20
18.8107503261
 11
-34.4741784496
 21
18.648667004
  0
LINE
  5
2D3
100
AcDbEntity
  8
SMUSSO
100
AcDbLine
 62
7
  6
CONTINUOUS
 10
-44.6555300931
 20
-11.0882989918
 11
-52.8102306315
 21
-11.0882989918
  0
LINE
  5
2D4
100
AcDbEntity
  8
ASSI
100
AcDbLine
 62
7
  6
CONTINUOUS
 10
-44.6555300931
 20
-11.0882989918
 11
-52.8102306315
 21
-11.0882989918
  0
LINE
  5
2D5
100
AcDbEntity
  8
ASSI
100
AcDbLine
 62
7
  6
CONTINUOUS
 10
-34.3604158946
 20
-10.9609487226
 11
-35.8828803623
 21
-10.9609487226
  0
LINE
  5
2D6
100
AcDbEntity
  8
RACCORDO
100
AcDbLine
 62
7
  6
CONTINUOUS
 10
-35.7328803623
 20
-10.8906200731
 11
-35.5654252973
 21
-10.8906200731
  0
LINE
  5
2D7
100
AcDbEntity
  8
DRAFT
100
AcDbLine
 62
7
  6
CONTINUOUS
 10
-35.7328803623
 20
-10.8129509498
 11
-35.7207753752
 21
-10.8129509498
  0
LINE
  5
2D8
100
AcDbEntity
  8
INCISIONI
100
AcDbLine
 62
253
  6
CONTINUOUS
 10
-34.2093085114
 20
-10.8038058331
 11
-34.2235197567
 21
-10.8038058331
  0
LINE
  5
2D9
100
AcDbEntity
  8
SMUSSO
100
AcDbLine
 62
7
  6
CONTINUOUS
 10
-45.2328803623
 20
-10.5109487226
 11
-52.2328803623
 21
-10.5109487226
  0
LINE
  5
2DA
100
AcDbEntity
  8
ASSI
100
AcDbLine
 62
7
  6
CONTINUOUS
 10
-45.2328803623
 20
-10.5109487226
 11
-52.2328803623
 21
-10.5109487226
  0
LINE
  5
2DB
100
AcDbEntity
  8
0
100
AcDbLine
 62
7
  6
CONTINUOUS
 10
-45.2328803623
 20
-10.3729487226
 11
-52.2328803623
 21
-10.3729487226
  0
LINE
  5
2DC
100
AcDbEntity
  8
INCISIONI
100
AcDbLine
 62
253
  6
CONTINUOUS
 10
-34.2235197567
 20
-9.8538058331
 11
-34.2093085114
 21
-9.8538058331
  0
LINE
  5
2DD
100
AcDbEntity
  8
INCISIONI
100
AcDbLine
 62
253
  6
CONTINUOUS
 10
-34.2093085114
 20
-9.3109487226
 11
-34.2045714299
 21
-9.3109487226
  0
LINE
  5
2DE
100
AcDbEntity
  8
0
100
AcDbLine
 62
253
  6
CONTINUOUS
 10
-42.2328803623
 20
-8.8609487226
 11
-43.9828803623
 21
-8.8609487226
  0
LINE
  5
2DF
100
AcDbEntity
  8
INCISIONI
100
AcDbLine
 62
253
  6
CONTINUOUS
 10
-34.1435322977
 20
-13.0266047226
 11
-34.1788719817
 21
-13.0195807226
  0
LINE
  5
2E0
100
AcDbEntity
  8
RACCORDO
100
AcDbLine
 62
253
  6
CONTINUOUS
 10
-34.4741784496
 20
-16.3705644493
 11
-34.0828803623
 21
-16.5326477714
  0
LINE
  5
2E1
100
AcDbEntity
  8
ASSI
100
AcDbLine
 62
253
  6
CONTINUOUS
 10
-34.4741784496
 20
-16.3705644493
 11
-34.0828803623
 21
-16.5326477714
  0
LINE
  5
2E2
100
AcDbEntity
  8
SUPERFICI
100
AcDbLine
 62
253
  6
CONTINUOUS
 10
-34.591600884
 20
-21.2551308928
 11
-34.5828740162
 21
-21.2609487226
  0
LINE
  5
2E3
100
AcDbEntity
  8
SUPERFICI
100
AcDbLine
 62
253
  6
CONTINUOUS
 10
-34.0916072301
 20
-20.7551478159
 11
-34.0828803623
 21
-20.7609656457
  0
LINE
  5
2E4
100
AcDbEntity
  8
SUPERFICI
100
AcDbLine
 62
7
  6
CONTINUOUS
 10
-38.0423387361
 20
-21.1969187481
 11
-37.9770625325
 21
-21.2551308928
  0
LINE
  5
2E5
100
AcDbEntity
  8
SUPERFICI
100
AcDbLine
 62
7
  6
CONTINUOUS
 10
-40.7828803623
 20
-21.2609487226
 11
-40.8268026093
 21
-21.2170264756
  0
LINE
  5
2E6
100
AcDbEntity
  8
RACCORDO
100
AcDbLine
 62
7
  6
CONTINUOUS
 10
-42.7328803623
 20
-18.7609487226
 11
-42.7349000384
 21
-18.7589290465
  0
LINE
  5
2E7
100
AcDbEntity
  8
ASSI
100
AcDbLine
 62
7
  6
CONTINUOUS
 10
-42.7328803623
 20
-18.7609487226
 11
-42.7349000384
 21
-18.7589290465
  0
LINE
  5
2E8
100
AcDbEntity
  8
DRAFT
100
AcDbLine
 62
7
  6
CONTINUOUS
 10
-41.8219011934
 20
-18.6719278915
 11
-41.7328803623
 21
-18.7609487226
  0
LINE
  5
2E9
100
AcDbEntity
  8
ASSI
100
AcDbLine
 62
7
  6
CONTINUOUS
 10
-41.8219011934
 20
-18.6719278915
 11
-41.7328803623
 21
-18.7609487226
  0
LINE
  5
2EA
100
AcDbEntity
  8
DRAFT
100
AcDbLine
 62
7
  6
CONTINUOUS
 10
-41.7328803623
 20
-18.5609487226
 11
-41.8219011934
 21
-18.4719278915
  0
LINE
  5
2EB
100
AcDbEntity
  8
ASSI
100
AcDbLine
 62
7
  6
CONTINUOUS
 10
-41.7328803623
 20
-18.5609487226
 11
-41.8219011934
 21
-18.4719278915
  0
LINE
  5
2EC
100
AcDbEntity
  8
SMUSSO
100
AcDbLine
 62
7
  6
CONTINUOUS
 10
-52.2328803623
 20
-7.2109487226
 11
-52.8102306315
 21
-6.6335984535
  0
LINE
  5
2ED
100
AcDbEntity
  8
ASSI
100
AcDbLine
 62
7
  6
CONTINUOUS
 10
-52.2328803623
 20
-7.2109487226
 11
-52.8102306315
 21
-6.6335984535
  0
LINE
  5
2EE
100
AcDbEntity
  8
DRAFT
100
AcDbLine
 62
7
  6
CONTINUOUS
 10
-52.5328803623
 20
-19.7609487226
 11
-52.5948899416
 21
-19.3885603211
  0
LINE
  5
2EF
100
AcDbEntity
  8
SUPERFICI
100
AcDbLine
 62
253
  6
CONTINUOUS
 10
-52.7372479655
 20
24.7668824937
 11
-52.7321573644
 21
24.2617010082
  0
LINE
  5
2F0
100
AcDbEntity
  8
SUPERFICI
100
AcDbLine
 62
253
  6
CONTINUOUS
 10
-52.4872521963
 20
24.9833888447
 11
-52.4828803623
 21
24.5495364256
  0
LINE
  5
2F1
100
AcDbEntity
  8
RACCORDO
100
AcDbLine
 62
253
  6
CONTINUOUS
 10
-54.9917345798
 20
18.6486693514
 11
-54.9917345798
 21
-16.3705667967
  0
LINE
  5
2F2
100
AcDbEntity
  8
ASSI
100
AcDbLine
 62
253
  6
CONTINUOUS
 10
-54.9917345798
 20
18.6486693514
 11
-54.9917345798
 21
-16.3705667967
  0
LINE
  5
2F3
100
AcDbEntity
  8
DRAFT
100
AcDbLine
 62
7
  6
CONTINUOUS
 10
-54.8828803623
 20
21.3380909276
 11
-54.8828803623
 21
21.1390512774
  0
LINE
  5
2F4
100
AcDbEntity
  8
DRAFT
100
AcDbLine
 62
7
  6
CONTINUOUS
 10
-54.8828803623
 20
-18.8609487226
 11
-54.8828803623
 21
-19.0599883728
  0
LINE
  5
2F5
100
AcDbEntity
  8
RACCORDO
100
AcDbLine
 62
253
  6
CONTINUOUS
 10
-54.5211190938
 20
-17.2553327584
 11
-54.5211190938
 21
-18.2551804535
  0
LINE
  5
2F6
100
AcDbEntity
  8
ASSI
100
AcDbLine
 62
253
  6
CONTINUOUS
 10
-54.5211190938
 20
-17.2553327584
 11
-54.5211190938
 21
-18.2551804535
  0
LINE
  5
2F7
100
AcDbEntity
  8
RACCORDO
100
AcDbLine
 62
253
  6
CONTINUOUS
 10
-54.5211190938
 20
19.5334353131
 11
-54.5211190938
 21
20.5332830082
  0
LINE
  5
2F8
100
AcDbEntity
  8
ASSI
100
AcDbLine
 62
253
  6
CONTINUOUS
 10
-54.5211190938
 20
19.5334353131
 11
-54.5211190938
 21
20.5332830082
  0
LINE
  5
2F9
100
AcDbEntity
  8
SUPERFICI
100
AcDbLine
 62
7
  6
CONTINUOUS
 10
-53.4828803623
 20
-20.2609487226
 11
-53.4828803623
 21
-19.7609487226
  0
LINE
  5
2FA
100
AcDbEntity
  8
SUPERFICI
100
AcDbLine
 62
7
  6
CONTINUOUS
 10
-53.4828803623
 20
22.0390512774
 11
-53.4828803623
 21
22.5390512774
  0
LINE
  5
2FB
100
AcDbEntity
  8
SUPERFICI
100
AcDbLine
 62
253
  6
CONTINUOUS
 10
-53.2994498641
 20
22.5927867045
 11
-53.2994498641
 21
22.1307595416
  0
LINE
  5
2FC
100
AcDbEntity
  8
SUPERFICI
100
AcDbLine
 62
253
  6
CONTINUOUS
 10
-53.2994498641
 20
-19.8526569869
 11
-53.2994498641
 21
-20.3146841498
  0
LINE
  5
2FD
100
AcDbEntity
  8
SMUSSO
100
AcDbLine
 62
7
  6
CONTINUOUS
 10
-52.8102306315
 20
-11.0882989918
 11
-52.8102306315
 21
-6.6335984535
  0
LINE
  5
2FE
100
AcDbEntity
  8
ASSI
100
AcDbLine
 62
7
  6
CONTINUOUS
 10
-52.8102306315
 20
-11.0882989918
 11
-52.8102306315
 21
-6.6335984535
  0
LINE
  5
2FF
100
AcDbEntity
  8
SMUSSO
100
AcDbLine
 62
7
  6
CONTINUOUS
 10
-52.8102306315
 20
-6.0882989918
 11
-52.8102306315
 21
-1.6335984535
  0
LINE
  5
300
100
AcDbEntity
  8
ASSI
100
AcDbLine
 62
7
  6
CONTINUOUS
 10
-52.8102306315
 20
-6.0882989918
 11
-52.8102306315
 21
-1.6335984535
  0
LINE
  5
301
100
AcDbEntity
  8
SMUSSO
100
AcDbLine
 62
7
  6
CONTINUOUS
 10
-52.8102306315
 20
-1.0882989918
 11
-52.8102306315
 21
3.3664015465
  0
LINE
  5
302
100
AcDbEntity
  8
ASSI
100
AcDbLine
 62
7
  6
CONTINUOUS
 10
-52.8102306315
 20
-1.0882989918
 11
-52.8102306315
 21
3.3664015465
  0
LINE
  5
303
100
AcDbEntity
  8
SMUSSO
100
AcDbLine
 62
7
  6
CONTINUOUS
 10
-52.8102306315
 20
3.9117010082
 11
-52.8102306315
 21
8.3664015465
  0
LINE
  5
304
100
AcDbEntity
  8
ASSI
100
AcDbLine
 62
7
  6
CONTINUOUS
 10
-52.8102306315
 20
3.9117010082
 11
-52.8102306315
 21
8.3664015465
  0
LINE
  5
305
100
AcDbEntity
  8
SMUSSO
100
AcDbLine
 62
7
  6
CONTINUOUS
 10
-52.8102306315
 20
8.9117010082
 11
-52.8102306315
 21
13.3664015465
  0
LINE
  5
306
100
AcDbEntity
  8
ASSI
100
AcDbLine
 62
7
  6
CONTINUOUS
 10
-52.8102306315
 20
8.9117010082
 11
-52.8102306315
 21
13.3664015465
  0
LINE
  5
307
100
AcDbEntity
  8
SMUSSO
100
AcDbLine
 62
7
  6
CONTINUOUS
 10
-52.8102306315
 20
13.9117010082
 11
-52.8102306315
 21
18.3664015465
  0
LINE
  5
308
100
AcDbEntity
  8
ASSI
100
AcDbLine
 62
7
  6
CONTINUOUS
 10
-52.8102306315
 20
13.9117010082
 11
-52.8102306315
 21
18.3664015465
  0
LINE
  5
309
100
AcDbEntity
  8
SUPERFICI
100
AcDbLine
 62
253
  6
CONTINUOUS
 10
-52.7995260165
 20
22.475038226
 11
-52.7995260165
 21
22.1350468231
  0
LINE
  5
30A
100
AcDbEntity
  8
SUPERFICI
100
AcDbLine
 62
253
  6
CONTINUOUS
 10
-52.7995260165
 20
-19.8569442683
 11
-52.7995260165
 21
-20.1969356713
  0
LINE
  5
30B
100
AcDbEntity
  8
SUPERFICI
100
AcDbLine
 62
253
  6
CONTINUOUS
 10
-52.7372479655
 20
-22.488779939
 11
-52.7372479655
 21
-23.3565768886
  0
LINE
  5
30C
100
AcDbEntity
  8
SUPERFICI
100
AcDbLine
 62
253
  6
CONTINUOUS
 10
-52.7372479655
 20
24.7668824937
 11
-52.7372479655
 21
25.6346794434
  0
LINE
  5
30D
100
AcDbEntity
  8
DRAFT
100
AcDbLine
 62
7
  6
CONTINUOUS
 10
-52.7219011934
 20
-19.7109487226
 11
-52.7219011934
 21
-18.4719278915
  0
LINE
  5
30E
100
AcDbEntity
  8
ASSI
100
AcDbLine
 62
7
  6
CONTINUOUS
 10
-52.7219011934
 20
-19.7109487226
 11
-52.7219011934
 21
-18.4719278915
  0
LINE
  5
30F
100
AcDbEntity
  8
DRAFT
100
AcDbLine
 62
7
  6
CONTINUOUS
 10
-52.7219011934
 20
20.7500304462
 11
-52.7219011934
 21
21.9890512774
  0
LINE
  5
310
100
AcDbEntity
  8
ASSI
100
AcDbLine
 62
7
  6
CONTINUOUS
 10
-52.7219011934
 20
20.7500304462
 11
-52.7219011934
 21
21.9890512774
  0
LINE
  5
311
100
AcDbEntity
  8
DRAFT
100
AcDbLine
 62
7
  6
CONTINUOUS
 10
-52.6328803623
 20
-19.7109487226
 11
-52.6328803623
 21
-18.5609487226
  0
LINE
  5
312
100
AcDbEntity
  8
ASSI
100
AcDbLine
 62
7
  6
CONTINUOUS
 10
-52.6328803623
 20
-19.7109487226
 11
-52.6328803623
 21
-18.5609487226
  0
LINE
  5
313
100
AcDbEntity
  8
DRAFT
100
AcDbLine
 62
7
  6
CONTINUOUS
 10
-52.6328803623
 20
20.8390512774
 11
-52.6328803623
 21
21.9890512774
  0
LINE
  5
314
100
AcDbEntity
  8
ASSI
100
AcDbLine
 62
7
  6
CONTINUOUS
 10
-52.6328803623
 20
20.8390512774
 11
-52.6328803623
 21
21.9890512774
  0
LINE
  5
315
100
AcDbEntity
  8
SUPERFICI
100
AcDbLine
 62
7
  6
CONTINUOUS
 10
-52.4872521963
 20
-23.1065811194
 11
-52.4872521963
 21
-22.7052862899
  0
LINE
  5
316
100
AcDbEntity
  8
SUPERFICI
100
AcDbLine
 62
7
  6
CONTINUOUS
 10
-52.4872521963
 20
24.9833888447
 11
-52.4872521963
 21
25.3846836741
  0
LINE
  5
317
100
AcDbEntity
  8
SUPERFICI
100
AcDbLine
 62
7
  6
CONTINUOUS
 10
-52.4828803623
 20
-21.2609487226
 11
-52.4828803623
 21
-22.7052862899
  0
LINE
  5
318
100
AcDbEntity
  8
SUPERFICI
100
AcDbLine
 62
7
  6
CONTINUOUS
 10
-52.4828803623
 20
23.5390512774
 11
-52.4828803623
 21
24.9833888447
  0
LINE
  5
319
100
AcDbEntity
  8
DRAFT
100
AcDbLine
 62
7
  6
CONTINUOUS
 10
-52.4368848166
 20
22.1350468231
 11
-52.4368848166
 21
20.9350468231
  0
LINE
  5
31A
100
AcDbEntity
  8
DRAFT
100
AcDbLine
 62
7
  6
CONTINUOUS
 10
-52.4368848166
 20
-18.6569442683
 11
-52.4368848166
 21
-19.8569442683
  0
LINE
  5
31B
100
AcDbEntity
  8
SMUSSO
100
AcDbLine
 62
7
  6
CONTINUOUS
 10
-52.2328803623
 20
-10.5109487226
 11
-52.2328803623
 21
-7.2109487226
  0
LINE
  5
31C
100
AcDbEntity
  8
ASSI
100
AcDbLine
 62
7
  6
CONTINUOUS
 10
-52.2328803623
 20
-10.5109487226
 11
-52.2328803623
 21
-7.2109487226
  0
LINE
  5
31D
100
AcDbEntity
  8
SMUSSO
100
AcDbLine
 62
7
  6
CONTINUOUS
 10
-52.2328803623
 20
-5.5109487226
 11
-52.2328803623
 21
-2.2109487226
  0
LINE
  5
31E
100
AcDbEntity
  8
ASSI
100
AcDbLine
 62
7
  6
CONTINUOUS
 10
-52.2328803623
 20
-5.5109487226
 11
-52.2328803623
 21
-2.2109487226
  0
LINE
  5
31F
100
AcDbEntity
  8
SMUSSO
100
AcDbLine
 62
7
  6
CONTINUOUS
 10
-52.2328803623
 20
-0.5109487226
 11
-52.2328803623
 21
2.7890512774
  0
LINE
  5
320
100
AcDbEntity
  8
ASSI
100
AcDbLine
 62
7
  6
CONTINUOUS
 10
-52.2328803623
 20
-0.5109487226
 11
-52.2328803623
 21
2.7890512774
  0
LINE
  5
321
100
AcDbEntity
  8
SMUSSO
100
AcDbLine
 62
7
  6
CONTINUOUS
 10
-52.2328803623
 20
4.4890512774
 11
-52.2328803623
 21
7.7890512774
  0
LINE
  5
322
100
AcDbEntity
  8
ASSI
100
AcDbLine
 62
7
  6
CONTINUOUS
 10
-52.2328803623
 20
4.4890512774
 11
-52.2328803623
 21
7.7890512774
  0
LINE
  5
323
100
AcDbEntity
  8
SMUSSO
100
AcDbLine
 62
7
  6
CONTINUOUS
 10
-52.2328803623
 20
9.4890512774
 11
-52.2328803623
 21
12.7890512774
  0
LINE
  5
324
100
AcDbEntity
  8
ASSI
100
AcDbLine
 62
7
  6
CONTINUOUS
 10
-52.2328803623
 20
9.4890512774
 11
-52.2328803623
 21
12.7890512774
  0
LINE
  5
325
100
AcDbEntity
  8
SMUSSO
100
AcDbLine
 62
7
  6
CONTINUOUS
 10
-52.2328803623
 20
14.4890512774
 11
-52.2328803623
 21
17.7890512774
  0
LINE
  5
326
100
AcDbEntity
  8
ASSI
100
AcDbLine
 62
7
  6
CONTINUOUS
 10
-52.2328803623
 20
14.4890512774
 11
-52.2328803623
 21
17.7890512774
  0
LINE
  5
327
100
AcDbEntity
  8
0
100
AcDbLine
 62
7
  6
CONTINUOUS
 10
-52.1108803623
 20
-10.3729487226
 11
-52.1108803623
 21
-7.3729487226
  0
LINE
  5
328
100
AcDbEntity
  8
0
100
AcDbLine
 62
7
  6
CONTINUOUS
 10
-52.1108803623
 20
-5.3729487226
 11
-52.1108803623
 21
-2.3729487227
  0
LINE
  5
329
100
AcDbEntity
  8
0
100
AcDbLine
 62
7
  6
CONTINUOUS
 10
-52.1108803623
 20
-0.3729487226
 11
-52.1108803623
 21
2.6270512774
  0
LINE
  5
32A
100
AcDbEntity
  8
0
100
AcDbLine
 62
7
  6
CONTINUOUS
 10
-52.1108803623
 20
4.6270512774
 11
-52.1108803623
 21
7.6270512774
  0
LINE
  5
32B
100
AcDbEntity
  8
0
100
AcDbLine
 62
7
  6
CONTINUOUS
 10
-52.1108803623
 20
9.6270512774
 11
-52.1108803623
 21
12.6270512773
  0
LINE
  5
32C
100
AcDbEntity
  8
0
100
AcDbLine
 62
7
  6
CONTINUOUS
 10
-52.1108803623
 20
14.6270512774
 11
-52.1108803623
 21
17.6270512774
  0
LINE
  5
32D
100
AcDbEntity
  8
DRAFT
100
AcDbLine
 62
7
  6
CONTINUOUS
 10
-51.828875908
 20
-18.9569442683
 11
-51.828875908
 21
-18.6569442683
  0
LINE
  5
32E
100
AcDbEntity
  8
DRAFT
100
AcDbLine
 62
7
  6
CONTINUOUS
 10
-51.828875908
 20
20.9350468231
 11
-51.828875908
 21
21.2350468231
  0
LINE
  5
32F
100
AcDbEntity
  8
SUPERFICI
100
AcDbLine
 62
253
  6
CONTINUOUS
 10
-52.7321573644
 20
-21.9835984535
 11
-52.7372479655
 21
-22.488779939
  0
LINE
  5
330
100
AcDbEntity
  8
SUPERFICI
100
AcDbLine
 62
253
  6
CONTINUOUS
 10
-52.4828803623
 20
-22.2714338709
 11
-52.4872521963
 21
-22.7052862899
  0
LINE
  5
331
100
AcDbEntity
  8
DRAFT
100
AcDbLine
 62
7
  6
CONTINUOUS
 10
-38.7956206917
 20
21.0763109479
 11
-38.6368848166
 21
21.2350468231
  0
LINE
  5
332
100
AcDbEntity
  8
DRAFT
100
AcDbLine
 62
7
  6
CONTINUOUS
 10
-38.6368848166
 20
20.9350468231
 11
-38.7328803623
 21
20.8390512774
  0
LINE
  5
333
100
AcDbEntity
  8
SMUSSO
100
AcDbLine
 62
7
  6
CONTINUOUS
 10
-45.2328803623
 20
12.7890512774
 11
-44.6555300931
 21
13.3664015465
  0
LINE
  5
334
100
AcDbEntity
  8
ASSI
100
AcDbLine
 62
7
  6
CONTINUOUS
 10
-45.2328803623
 20
12.7890512774
 11
-44.6555300931
 21
13.3664015465
  0
LINE
  5
335
100
AcDbEntity
  8
SMUSSO
100
AcDbLine
 62
7
  6
CONTINUOUS
 10
-52.2328803623
 20
4.4890512774
 11
-52.8102306315
 21
3.9117010082
  0
LINE
  5
336
100
AcDbEntity
  8
ASSI
100
AcDbLine
 62
7
  6
CONTINUOUS
 10
-52.2328803623
 20
4.4890512774
 11
-52.8102306315
 21
3.9117010082
  0
LINE
  5
337
100
AcDbEntity
  8
RACCORDO
100
AcDbLine
 62
253
  6
CONTINUOUS
 10
-35.9446416307
 20
19.5334353131
 11
-35.2376425453
 21
20.2404343985
  0
LINE
  5
338
100
AcDbEntity
  8
ASSI
100
AcDbLine
 62
253
  6
CONTINUOUS
 10
-35.9446416307
 20
19.5334353131
 11
-35.2376425453
 21
20.2404343985
  0
LINE
  5
339
100
AcDbEntity
  8
DRAFT
100
AcDbLine
 62
7
  6
CONTINUOUS
 10
-35.7207753752
 20
13.0910535045
 11
-35.5654252973
 21
13.1687226278
  0
LINE
  5
33A
100
AcDbEntity
  8
INCISIONI
100
AcDbLine
 62
253
  6
CONTINUOUS
 10
-34.1613396437
 20
-7.2325237226
 11
-34.1788719817
 21
-7.2325337226
  0
LINE
  5
33B
100
AcDbEntity
  8
0
100
AcDbLine
 62
253
  6
CONTINUOUS
 10
-37.2328803623
 20
-7.908567827
 11
-39.2328803623
 21
-7.908567827
  0
LINE
  5
33C
100
AcDbEntity
  8
0
100
AcDbLine
 62
7
  6
CONTINUOUS
 10
-52.2328803623
 20
-7.3729487226
 11
-45.2328803623
 21
-7.3729487226
  0
LINE
  5
33D
100
AcDbEntity
  8
SMUSSO
100
AcDbLine
 62
7
  6
CONTINUOUS
 10
-52.2328803623
 20
-7.2109487226
 11
-45.2328803623
 21
-7.2109487226
  0
LINE
  5
33E
100
AcDbEntity
  8
ASSI
100
AcDbLine
 62
7
  6
CONTINUOUS
 10
-52.2328803623
 20
-7.2109487226
 11
-45.2328803623
 21
-7.2109487226
  0
LINE
  5
33F
100
AcDbEntity
  8
0
100
AcDbLine
 62
253
  6
CONTINUOUS
 10
-37.2328803623
 20
-7.0038060358
 11
-39.2328803623
 21
-7.0038060358
  0
LINE
  5
340
100
AcDbEntity
  8
ASSI
100
AcDbLine
 62
7
  6
CONTINUOUS
 10
-34.3604158946
 20
-6.7609487226
 11
-35.8828803623
 21
-6.7609487226
  0
LINE
  5
341
100
AcDbEntity
  8
INCISIONI
100
AcDbLine
 62
253
  6
CONTINUOUS
 10
-34.1788719817
 20
-6.7147867226
 11
-34.128283521
 21
-6.7147867226
  0
LINE
  5
342
100
AcDbEntity
  8
SMUSSO
100
AcDbLine
 62
7
  6
CONTINUOUS
 10
-52.8102306315
 20
-6.6335984535
 11
-44.6555300931
 21
-6.6335984535
  0
LINE
  5
343
100
AcDbEntity
  8
ASSI
100
AcDbLine
 62
7
  6
CONTINUOUS
 10
-52.8102306315
 20
-6.6335984535
 11
-44.6555300931
 21
-6.6335984535
  0
LINE
  5
344
100
AcDbEntity
  8
INCISIONI
100
AcDbLine
 62
253
  6
CONTINUOUS
 10
-34.128283521
 20
-6.0990557226
 11
-34.1788719817
 21
-6.0990557226
  0
LINE
  5
345
100
AcDbEntity
  8
SMUSSO
100
AcDbLine
 62
7
  6
CONTINUOUS
 10
-44.6555300931
 20
-6.0882989918
 11
-52.8102306315
 21
-6.0882989918
  0
LINE
  5
346
100
AcDbEntity
  8
ASSI
100
AcDbLine
 62
7
  6
CONTINUOUS
 10
-44.6555300931
 20
-6.0882989918
 11
-52.8102306315
 21
-6.0882989918
  0
LINE
  5
347
100
AcDbEntity
  8
0
100
AcDbLine
 62
253
  6
CONTINUOUS
 10
-38.9471660936
 20
-6.0038060358
 11
-37.5185946608
 21
-6.0038060358
  0
LINE
  5
348
100
AcDbEntity
  8
ASSI
100
AcDbLine
 62
7
  6
CONTINUOUS
 10
-34.3604158946
 20
-5.9609487226
 11
-35.8828803623
 21
-5.9609487226
  0
LINE
  5
349
100
AcDbEntity
  8
INCISIONI
100
AcDbLine
 62
253
  6
CONTINUOUS
 10
-34.1788719817
 20
-5.5812867226
 11
-34.128283521
 21
-5.5812867226
  0
LINE
  5
34A
100
AcDbEntity
  8
SMUSSO
100
AcDbLine
 62
7
  6
CONTINUOUS
 10
-45.2328803623
 20
-5.5109487226
 11
-52.2328803623
 21
-5.5109487226
  0
LINE
  5
34B
100
AcDbEntity
  8
ASSI
100
AcDbLine
 62
7
  6
CONTINUOUS
 10
-45.2328803623
 20
-5.5109487226
 11
-52.2328803623
 21
-5.5109487226
  0
LINE
  5
34C
100
AcDbEntity
  8
0
100
AcDbLine
 62
7
  6
CONTINUOUS
 10
-45.2328803623
 20
-5.3729487226
 11
-52.2328803623
 21
-5.3729487226
  0
LINE
  5
34D
100
AcDbEntity
  8
INCISIONI
100
AcDbLine
 62
253
  6
CONTINUOUS
 10
-34.128283521
 20
-7.2325337226
 11
-34.1503401774
 21
-7.2325237226
  0
LINE
  5
34E
100
AcDbEntity
  8
0
100
AcDbLine
 62
253
  6
CONTINUOUS
 10
-37.2328803623
 20
-9.3847583344
 11
-39.2328803623
 21
-8.8133297375
  0
LINE
  5
34F
100
AcDbEntity
  8
DRAFT
100
AcDbLine
 62
7
  6
CONTINUOUS
 10
-35.5654252973
 20
-10.8906200731
 11
-35.7207753752
 21
-10.8129509498
  0
LINE
  5
350
100
AcDbEntity
  8
DRAFT
100
AcDbLine
 62
7
  6
CONTINUOUS
 10
-38.6368848166
 20
-18.9569442683
 11
-38.7956206917
 21
-18.7982083932
  0
LINE
  5
351
100
AcDbEntity
  8
DRAFT
100
AcDbLine
 62
7
  6
CONTINUOUS
 10
-38.6368848166
 20
-18.6569442683
 11
-38.7328803623
 21
-18.5609487226
  0
LINE
  5
352
100
AcDbEntity
  8
SMUSSO
100
AcDbLine
 62
7
  6
CONTINUOUS
 10
-45.2328803623
 20
-10.5109487226
 11
-44.6555300931
 21
-11.0882989918
  0
LINE
  5
353
100
AcDbEntity
  8
ASSI
100
AcDbLine
 62
7
  6
CONTINUOUS
 10
-45.2328803623
 20
-10.5109487226
 11
-44.6555300931
 21
-11.0882989918
  0
LINE
  5
354
100
AcDbEntity
  8
SMUSSO
100
AcDbLine
 62
7
  6
CONTINUOUS
 10
-52.2328803623
 20
-2.2109487226
 11
-52.8102306315
 21
-1.6335984535
  0
LINE
  5
355
100
AcDbEntity
  8
ASSI
100
AcDbLine
 62
7
  6
CONTINUOUS
 10
-52.2328803623
 20
-2.2109487226
 11
-52.8102306315
 21
-1.6335984535
  0
LINE
  5
356
100
AcDbEntity
  8
RACCORDO
100
AcDbLine
 62
253
  6
CONTINUOUS
 10
-35.9446416307
 20
-17.2553327584
 11
-35.2376425453
 21
-17.9623318438
  0
LINE
  5
357
100
AcDbEntity
  8
ASSI
100
AcDbLine
 62
253
  6
CONTINUOUS
 10
-35.9446416307
 20
-17.2553327584
 11
-35.2376425453
 21
-17.9623318438
  0
LINE
  5
358
100
AcDbEntity
  8
DRAFT
100
AcDbLine
 62
7
  6
CONTINUOUS
 10
-48.7333449274
 20
21.1922851709
 11
-48.7329576445
 21
21.1479069397
  0
LINE
  5
359
100
AcDbEntity
  8
SUPERFICI
100
AcDbLine
 62
7
  6
CONTINUOUS
 10
-48.7534348254
 20
23.4943594613
 11
-48.7677380786
 21
25.1333499324
  0
LINE
  5
35A
100
AcDbEntity
  8
SUPERFICI
100
AcDbLine
 62
7
  6
CONTINUOUS
 10
-49.6828803623
 20
25.1390512774
 11
-49.6828803623
 21
24.5069962245
  0
LINE
  5
35B
100
AcDbEntity
  8
SUPERFICI
100
AcDbLine
 62
7
  6
CONTINUOUS
 10
-49.6828803623
 20
24.0711063302
 11
-49.6828803623
 21
23.5390512774
  0
LINE
  5
35C
100
AcDbEntity
  8
SUPERFICI
100
AcDbLine
 62
7
  6
CONTINUOUS
 10
-49.6828803623
 20
-21.2609487226
 11
-49.6828803623
 21
-21.7930037755
  0
LINE
  5
35D
100
AcDbEntity
  8
SUPERFICI
100
AcDbLine
 62
7
  6
CONTINUOUS
 10
-49.6828803623
 20
-22.2288936698
 11
-49.6828803623
 21
-22.8609487226
  0
LINE
  5
35E
100
AcDbEntity
  8
SUPERFICI
100
AcDbLine
 62
7
  6
CONTINUOUS
 10
-49.6389581152
 20
-22.8148409957
 11
-49.6389581152
 21
-21.2170264756
  0
LINE
  5
35F
100
AcDbEntity
  8
SUPERFICI
100
AcDbLine
 62
7
  6
CONTINUOUS
 10
-49.6389581152
 20
23.4951290303
 11
-49.6389581152
 21
25.0929435504
  0
LINE
  5
360
100
AcDbEntity
  8
DRAFT
100
AcDbLine
 62
7
  6
CONTINUOUS
 10
-48.7328803623
 20
21.0390512774
 11
-48.7328803623
 21
20.8390512774
  0
LINE
  5
361
100
AcDbEntity
  8
ASSI
100
AcDbLine
 62
7
  6
CONTINUOUS
 10
-48.7328803623
 20
21.0390512774
 11
-48.7328803623
 21
20.8390512774
  0
LINE
  5
362
100
AcDbEntity
  8
DRAFT
100
AcDbLine
 62
7
  6
CONTINUOUS
 10
-48.7328803623
 20
-18.5609487226
 11
-48.7328803623
 21
-18.7609487226
  0
LINE
  5
363
100
AcDbEntity
  8
ASSI
100
AcDbLine
 62
7
  6
CONTINUOUS
 10
-48.7328803623
 20
-18.5609487226
 11
-48.7328803623
 21
-18.7609487226
  0
LINE
  5
364
100
AcDbEntity
  8
DRAFT
100
AcDbLine
 62
7
  6
CONTINUOUS
 10
-48.6438595311
 20
20.9500304462
 11
-48.6438595311
 21
20.7500304462
  0
LINE
  5
365
100
AcDbEntity
  8
ASSI
100
AcDbLine
 62
7
  6
CONTINUOUS
 10
-48.6438595311
 20
20.9500304462
 11
-48.6438595311
 21
20.7500304462
  0
LINE
  5
366
100
AcDbEntity
  8
DRAFT
100
AcDbLine
 62
7
  6
CONTINUOUS
 10
-48.6438595311
 20
-18.4719278915
 11
-48.6438595311
 21
-18.6719278915
  0
LINE
  5
367
100
AcDbEntity
  8
ASSI
100
AcDbLine
 62
7
  6
CONTINUOUS
 10
-48.6438595311
 20
-18.4719278915
 11
-48.6438595311
 21
-18.6719278915
  0
LINE
  5
368
100
AcDbEntity
  8
DRAFT
100
AcDbLine
 62
7
  6
CONTINUOUS
 10
-48.7333449274
 20
-18.9141826162
 11
-48.7329576445
 21
-18.869804385
  0
LINE
  5
369
100
AcDbEntity
  8
SUPERFICI
100
AcDbLine
 62
7
  6
CONTINUOUS
 10
-48.7534348254
 20
-21.2162569066
 11
-48.7677380786
 21
-22.8552473777
  0
LINE
  5
36A
100
AcDbEntity
  8
RACCORDO
100
AcDbLine
 62
253
  6
CONTINUOUS
 10
-35.7668747545
 20
19.3556684368
 11
-35.0598756691
 21
20.0626675222
  0
LINE
  5
36B
100
AcDbEntity
  8
ASSI
100
AcDbLine
 62
253
  6
CONTINUOUS
 10
-35.7668747545
 20
19.3556684368
 11
-35.0598756691
 21
20.0626675222
  0
LINE
  5
36C
100
AcDbEntity
  8
SMUSSO
100
AcDbLine
 62
7
  6
CONTINUOUS
 10
-45.2328803623
 20
7.7890512774
 11
-44.6555300931
 21
8.3664015465
  0
LINE
  5
36D
100
AcDbEntity
  8
ASSI
100
AcDbLine
 62
7
  6
CONTINUOUS
 10
-45.2328803623
 20
7.7890512774
 11
-44.6555300931
 21
8.3664015465
  0
LINE
  5
36E
100
AcDbEntity
  8
SMUSSO
100
AcDbLine
 62
7
  6
CONTINUOUS
 10
-52.2328803623
 20
-0.5109487226
 11
-52.8102306315
 21
-1.0882989918
  0
LINE
  5
36F
100
AcDbEntity
  8
ASSI
100
AcDbLine
 62
7
  6
CONTINUOUS
 10
-52.2328803623
 20
-0.5109487226
 11
-52.8102306315
 21
-1.0882989918
  0
LINE
  5
370
100
AcDbEntity
  8
0
100
AcDbLine
 62
253
  6
CONTINUOUS
 10
-38.0900232279
 20
10.4961941728
 11
-37.2328803623
 21
11.06762274
  0
LINE
  5
371
100
AcDbEntity
  8
0
100
AcDbLine
 62
253
  6
CONTINUOUS
 10
-37.2328803623
 20
-5.1942822149
 11
-39.2328803623
 21
-5.1942822149
  0
LINE
  5
372
100
AcDbEntity
  8
INCISIONI
100
AcDbLine
 62
253
  6
CONTINUOUS
 10
-34.1708430035
 20
-4.9586147226
 11
-34.1788719817
 21
-4.9586147226
  0
LINE
  5
373
100
AcDbEntity
  8
INCISIONI
100
AcDbLine
 62
253
  6
CONTINUOUS
 10
-34.128283521
 20
-4.9469617226
 11
-34.1363124992
 21
-4.9469617226
  0
LINE
  5
374
100
AcDbEntity
  8
INCISIONI
100
AcDbLine
 62
253
  6
CONTINUOUS
 10
-34.1488915691
 20
-4.8430757226
 11
-34.1569207218
 21
-4.8430757226
  0
LINE
  5
375
100
AcDbEntity
  8
0
100
AcDbLine
 62
253
  6
CONTINUOUS
 10
-40.9828803623
 20
-3.8609487226
 11
-43.4828803623
 21
-3.8609487226
  0
LINE
  5
376
100
AcDbEntity
  8
0
100
AcDbLine
 62
253
  6
CONTINUOUS
 10
-37.5185946608
 20
-3.7657105139
 11
-38.9471660936
 21
-3.7657105139
  0
LINE
  5
377
100
AcDbEntity
  8
INCISIONI
100
AcDbLine
 62
253
  6
CONTINUOUS
 10
-34.1363123945
 20
-3.4157807226
 11
-34.1488913946
 21
-3.4157807226
  0
LINE
  5
378
100
AcDbEntity
  8
INCISIONI
100
AcDbLine
 62
253
  6
CONTINUOUS
 10
-34.1569208963
 20
-3.4157807226
 11
-34.1708432827
 21
-3.4157807226
  0
LINE
  5
379
100
AcDbEntity
  8
INCISIONI
100
AcDbLine
 62
253
  6
CONTINUOUS
 10
-34.1788719817
 20
-2.8980427226
 11
-34.128283521
 21
-2.8980427226
  0
LINE
  5
37A
100
AcDbEntity
  8
0
100
AcDbLine
 62
253
  6
CONTINUOUS
 10
-38.9471660936
 20
-2.7657105139
 11
-37.5185946608
 21
-2.7657105139
  0
LINE
  5
37B
100
AcDbEntity
  8
0
100
AcDbLine
 62
7
  6
CONTINUOUS
 10
-52.2328803623
 20
-2.3729487227
 11
-45.2328803623
 21
-2.3729487227
  0
LINE
  5
37C
100
AcDbEntity
  8
SMUSSO
100
AcDbLine
 62
7
  6
CONTINUOUS
 10
-52.2328803623
 20
-2.2109487226
 11
-45.2328803623
 21
-2.2109487226
  0
LINE
  5
37D
100
AcDbEntity
  8
ASSI
100
AcDbLine
 62
7
  6
CONTINUOUS
 10
-52.2328803623
 20
-2.2109487226
 11
-45.2328803623
 21
-2.2109487226
  0
LINE
  5
37E
100
AcDbEntity
  8
RACCORDO
100
AcDbLine
 62
253
  6
CONTINUOUS
 10
-35.7668747545
 20
-17.0775658821
 11
-35.0598756691
 21
-17.7845649675
  0
LINE
  5
37F
100
AcDbEntity
  8
ASSI
100
AcDbLine
 62
253
  6
CONTINUOUS
 10
-35.7668747545
 20
-17.0775658821
 11
-35.0598756691
 21
-17.7845649675
  0
LINE
  5
380
100
AcDbEntity
  8
SMUSSO
100
AcDbLine
 62
7
  6
CONTINUOUS
 10
-45.2328803623
 20
-5.5109487226
 11
-44.6555300931
 21
-6.0882989918
  0
LINE
  5
381
100
AcDbEntity
  8
ASSI
100
AcDbLine
 62
7
  6
CONTINUOUS
 10
-45.2328803623
 20
-5.5109487226
 11
-44.6555300931
 21
-6.0882989918
  0
LINE
  5
382
100
AcDbEntity
  8
SMUSSO
100
AcDbLine
 62
7
  6
CONTINUOUS
 10
-52.2328803623
 20
2.7890512774
 11
-52.8102306315
 21
3.3664015465
  0
LINE
  5
383
100
AcDbEntity
  8
ASSI
100
AcDbLine
 62
7
  6
CONTINUOUS
 10
-52.2328803623
 20
2.7890512774
 11
-52.8102306315
 21
3.3664015465
  0
LINE
  5
384
100
AcDbEntity
  8
SUPERFICI
100
AcDbLine
 62
7
  6
CONTINUOUS
 10
-48.2250261813
 20
21.9390512774
 11
-48.2385836871
 21
23.4925875676
  0
LINE
  5
385
100
AcDbEntity
  8
RACCORDO
100
AcDbLine
 62
7
  6
CONTINUOUS
 10
-47.7328803623
 20
21.2010167579
 11
-47.7328803623
 21
21.0390512774
  0
LINE
  5
386
100
AcDbEntity
  8
ASSI
100
AcDbLine
 62
7
  6
CONTINUOUS
 10
-47.7328803623
 20
21.2010167579
 11
-47.7328803623
 21
21.0390512774
  0
LINE
  5
387
100
AcDbEntity
  8
RACCORDO
100
AcDbLine
 62
7
  6
CONTINUOUS
 10
-47.7328803623
 20
-18.7609487226
 11
-47.7328803623
 21
-18.9229142031
  0
LINE
  5
388
100
AcDbEntity
  8
ASSI
100
AcDbLine
 62
7
  6
CONTINUOUS
 10
-47.7328803623
 20
-18.7609487226
 11
-47.7328803623
 21
-18.9229142031
  0
LINE
  5
389
100
AcDbEntity
  8
RACCORDO
100
AcDbLine
 62
253
  6
CONTINUOUS
 10
-47.7308606862
 20
-18.9229142031
 11
-47.7308606862
 21
-18.7589290465
  0
LINE
  5
38A
100
AcDbEntity
  8
ASSI
100
AcDbLine
 62
253
  6
CONTINUOUS
 10
-47.7308606862
 20
-18.9229142031
 11
-47.7308606862
 21
-18.7589290465
  0
LINE
  5
38B
100
AcDbEntity
  8
RACCORDO
100
AcDbLine
 62
253
  6
CONTINUOUS
 10
-47.7308606862
 20
21.0370316013
 11
-47.7308606862
 21
21.2010167579
  0
LINE
  5
38C
100
AcDbEntity
  8
ASSI
100
AcDbLine
 62
253
  6
CONTINUOUS
 10
-47.7308606862
 20
21.0370316013
 11
-47.7308606862
 21
21.2010167579
  0
LINE
  5
38D
100
AcDbEntity
  8
0
100
AcDbLine
 62
7
  6
CONTINUOUS
 10
-47.2108803623
 20
17.6270512774
 11
-47.2108803623
 21
14.6270512774
  0
LINE
  5
38E
100
AcDbEntity
  8
0
100
AcDbLine
 62
7
  6
CONTINUOUS
 10
-47.2108803623
 20
12.6270512773
 11
-47.2108803623
 21
9.6270512774
  0
LINE
  5
38F
100
AcDbEntity
  8
0
100
AcDbLine
 62
7
  6
CONTINUOUS
 10
-47.2108803623
 20
7.6270512774
 11
-47.2108803623
 21
4.6270512774
  0
LINE
  5
390
100
AcDbEntity
  8
0
100
AcDbLine
 62
7
  6
CONTINUOUS
 10
-47.2108803623
 20
2.6270512774
 11
-47.2108803623
 21
-0.3729487226
  0
LINE
  5
391
100
AcDbEntity
  8
0
100
AcDbLine
 62
7
  6
CONTINUOUS
 10
-47.2108803623
 20
-2.3729487227
 11
-47.2108803623
 21
-5.3729487226
  0
LINE
  5
392
100
AcDbEntity
  8
0
100
AcDbLine
 62
7
  6
CONTINUOUS
 10
-47.2108803623
 20
-7.3729487226
 11
-47.2108803623
 21
-10.3729487226
  0
LINE
  5
393
100
AcDbEntity
  8
RACCORDO
100
AcDbLine
 62
253
  6
CONTINUOUS
 10
-46.8309977605
 20
-18.9219356182
 11
-46.8309977605
 21
-18.7434936577
  0
LINE
  5
394
100
AcDbEntity
  8
ASSI
100
AcDbLine
 62
253
  6
CONTINUOUS
 10
-46.8309977605
 20
-18.9219356182
 11
-46.8309977605
 21
-18.7434936577
  0
LINE
  5
395
100
AcDbEntity
  8
RACCORDO
100
AcDbLine
 62
253
  6
CONTINUOUS
 10
-46.8309977605
 20
21.0215962124
 11
-46.8309977605
 21
21.2000381729
  0
LINE
  5
396
100
AcDbEntity
  8
ASSI
100
AcDbLine
 62
253
  6
CONTINUOUS
 10
-46.8309977605
 20
21.0215962124
 11
-46.8309977605
 21
21.2000381729
  0
LINE
  5
397
100
AcDbEntity
  8
SUPERFICI
100
AcDbLine
 62
7
  6
CONTINUOUS
 10
-46.2415543157
 20
-21.2557444352
 11
-46.2414477323
 21
-22.6552439924
  0
LINE
  5
398
100
AcDbEntity
  8
SUPERFICI
100
AcDbLine
 62
7
  6
CONTINUOUS
 10
-46.2328803623
 20
24.9390580466
 11
-46.2328803623
 21
23.5390512774
  0
LINE
  5
399
100
AcDbEntity
  8
SUPERFICI
100
AcDbLine
 62
7
  6
CONTINUOUS
 10
-46.2328803623
 20
-21.2609487226
 11
-46.2328803623
 21
-22.6609554919
  0
LINE
  5
39A
100
AcDbEntity
  8
SMUSSO
100
AcDbLine
 62
7
  6
CONTINUOUS
 10
-45.2328803623
 20
17.7890512774
 11
-45.2328803623
 21
14.4890512774
  0
LINE
  5
39B
100
AcDbEntity
  8
ASSI
100
AcDbLine
 62
7
  6
CONTINUOUS
 10
-45.2328803623
 20
17.7890512774
 11
-45.2328803623
 21
14.4890512774
  0
LINE
  5
39C
100
AcDbEntity
  8
SMUSSO
100
AcDbLine
 62
7
  6
CONTINUOUS
 10
-45.2328803623
 20
12.7890512774
 11
-45.2328803623
 21
9.4890512774
  0
LINE
  5
39D
100
AcDbEntity
  8
ASSI
100
AcDbLine
 62
7
  6
CONTINUOUS
 10
-45.2328803623
 20
12.7890512774
 11
-45.2328803623
 21
9.4890512774
  0
LINE
  5
39E
100
AcDbEntity
  8
SMUSSO
100
AcDbLine
 62
7
  6
CONTINUOUS
 10
-45.2328803623
 20
7.7890512774
 11
-45.2328803623
 21
4.4890512774
  0
LINE
  5
39F
100
AcDbEntity
  8
ASSI
100
AcDbLine
 62
7
  6
CONTINUOUS
 10
-45.2328803623
 20
7.7890512774
 11
-45.2328803623
 21
4.4890512774
  0
LINE
  5
3A0
100
AcDbEntity
  8
SMUSSO
100
AcDbLine
 62
7
  6
CONTINUOUS
 10
-45.2328803623
 20
2.7890512774
 11
-45.2328803623
 21
-0.5109487226
  0
LINE
  5
3A1
100
AcDbEntity
  8
ASSI
100
AcDbLine
 62
7
  6
CONTINUOUS
 10
-45.2328803623
 20
2.7890512774
 11
-45.2328803623
 21
-0.5109487226
  0
LINE
  5
3A2
100
AcDbEntity
  8
SMUSSO
100
AcDbLine
 62
7
  6
CONTINUOUS
 10
-45.2328803623
 20
-2.2109487226
 11
-45.2328803623
 21
-5.5109487226
  0
LINE
  5
3A3
100
AcDbEntity
  8
ASSI
100
AcDbLine
 62
7
  6
CONTINUOUS
 10
-45.2328803623
 20
-2.2109487226
 11
-45.2328803623
 21
-5.5109487226
  0
LINE
  5
3A4
100
AcDbEntity
  8
SMUSSO
100
AcDbLine
 62
7
  6
CONTINUOUS
 10
-45.2328803623
 20
-7.2109487226
 11
-45.2328803623
 21
-10.5109487226
  0
LINE
  5
3A5
100
AcDbEntity
  8
ASSI
100
AcDbLine
 62
7
  6
CONTINUOUS
 10
-45.2328803623
 20
-7.2109487226
 11
-45.2328803623
 21
-10.5109487226
  0
LINE
  5
3A6
100
AcDbEntity
  8
SUPERFICI
100
AcDbLine
 62
7
  6
CONTINUOUS
 10
-46.2415543157
 20
23.5338469899
 11
-46.2414477323
 21
24.9333465471
  0
LINE
  5
3A7
100
AcDbEntity
  8
SUPERFICI
100
AcDbLine
 62
7
  6
CONTINUOUS
 10
-48.2250261813
 20
-19.6609487226
 11
-48.2385836871
 21
-21.2144850129
  0
LINE
  5
3A8
100
AcDbEntity
  8
SUPERFICI
100
AcDbLine
 62
7
  6
CONTINUOUS
 10
-54.8828803623
 20
-19.0599883728
 11
-54.8331507806
 21
-18.9106783043
  0
LINE
  5
3A9
100
AcDbEntity
  8
SUPERFICI
100
AcDbLine
 62
7
  6
CONTINUOUS
 10
-54.1827740247
 20
-19.7609487226
 11
-54.1328310701
 21
-19.6109980148
  0
LINE
  5
3AA
100
AcDbEntity
  8
RACCORDO
100
AcDbLine
 62
253
  6
CONTINUOUS
 10
-55.2281181792
 20
-17.9623318438
 11
-55.3178979076
 21
-18.1790792817
  0
LINE
  5
3AB
100
AcDbEntity
  8
ASSI
100
AcDbLine
 62
253
  6
CONTINUOUS
 10
-55.2281181792
 20
-17.9623318438
 11
-55.3178979076
 21
-18.1790792817
  0
LINE
  5
3AC
100
AcDbEntity
  8
RACCORDO
100
AcDbLine
 62
253
  6
CONTINUOUS
 10
-54.5211190938
 20
-18.2551804535
 11
-54.6108988222
 21
-18.4719278915
  0
LINE
  5
3AD
100
AcDbEntity
  8
ASSI
100
AcDbLine
 62
253
  6
CONTINUOUS
 10
-54.5211190938
 20
-18.2551804535
 11
-54.6108988222
 21
-18.4719278915
  0
LINE
  5
3AE
100
AcDbEntity
  8
DRAFT
100
AcDbLine
 62
7
  6
CONTINUOUS
 10
-56.3741534945
 20
-17.3696755904
 11
-56.3654266267
 21
-17.3537172687
  0
LINE
  5
3AF
100
AcDbEntity
  8
0
100
AcDbLine
 62
253
  6
CONTINUOUS
 10
-37.2328803623
 20
13.2104798147
 11
-37.5185946608
 21
12.9247656653
  0
LINE
  5
3B0
100
AcDbEntity
  8
0
100
AcDbLine
 62
253
  6
CONTINUOUS
 10
-39.2328803623
 20
10.7819084713
 11
-38.9471660936
 21
11.06762274
  0
LINE
  5
3B1
100
AcDbEntity
  8
SMUSSO
100
AcDbLine
 62
7
  6
CONTINUOUS
 10
-45.2328803623
 20
2.7890512774
 11
-44.6555300931
 21
3.3664015465
  0
LINE
  5
3B2
100
AcDbEntity
  8
ASSI
100
AcDbLine
 62
7
  6
CONTINUOUS
 10
-45.2328803623
 20
2.7890512774
 11
-44.6555300931
 21
3.3664015465
  0
LINE
  5
3B3
100
AcDbEntity
  8
SMUSSO
100
AcDbLine
 62
7
  6
CONTINUOUS
 10
-52.2328803623
 20
-5.5109487226
 11
-52.8102306315
 21
-6.0882989918
  0
LINE
  5
3B4
100
AcDbEntity
  8
ASSI
100
AcDbLine
 62
7
  6
CONTINUOUS
 10
-52.2328803623
 20
-5.5109487226
 11
-52.8102306315
 21
-6.0882989918
  0
LINE
  5
3B5
100
AcDbEntity
  8
ASSI
100
AcDbLine
 62
7
  6
CONTINUOUS
 10
-34.3604158946
 20
-1.7609487226
 11
-35.8828803623
 21
-1.7609487226
  0
LINE
  5
3B6
100
AcDbEntity
  8
SMUSSO
100
AcDbLine
 62
7
  6
CONTINUOUS
 10
-52.8102306315
 20
-1.6335984535
 11
-44.6555300931
 21
-1.6335984535
  0
LINE
  5
3B7
100
AcDbEntity
  8
ASSI
100
AcDbLine
 62
7
  6
CONTINUOUS
 10
-52.8102306315
 20
-1.6335984535
 11
-44.6555300931
 21
-1.6335984535
  0
LINE
  5
3B8
100
AcDbEntity
  8
0
100
AcDbLine
 62
253
  6
CONTINUOUS
 10
-36.7328803623
 20
-1.3609487226
 11
-43.7328803623
 21
-1.3609487226
  0
LINE
  5
3B9
100
AcDbEntity
  8
SMUSSO
100
AcDbLine
 62
7
  6
CONTINUOUS
 10
-44.6555300931
 20
-1.0882989918
 11
-52.8102306315
 21
-1.0882989918
  0
LINE
  5
3BA
100
AcDbEntity
  8
ASSI
100
AcDbLine
 62
7
  6
CONTINUOUS
 10
-44.6555300931
 20
-1.0882989918
 11
-52.8102306315
 21
-1.0882989918
  0
LINE
  5
3BB
100
AcDbEntity
  8
ASSI
100
AcDbLine
 62
7
  6
CONTINUOUS
 10
-34.3604158946
 20
-0.9609487226
 11
-35.8828803623
 21
-0.9609487226
  0
LINE
  5
3BC
100
AcDbEntity
  8
SMUSSO
100
AcDbLine
 62
7
  6
CONTINUOUS
 10
-45.2328803623
 20
-0.5109487226
 11
-52.2328803623
 21
-0.5109487226
  0
LINE
  5
3BD
100
AcDbEntity
  8
ASSI
100
AcDbLine
 62
7
  6
CONTINUOUS
 10
-45.2328803623
 20
-0.5109487226
 11
-52.2328803623
 21
-0.5109487226
  0
LINE
  5
3BE
100
AcDbEntity
  8
0
100
AcDbLine
 62
7
  6
CONTINUOUS
 10
-45.2328803623
 20
-0.3729487226
 11
-52.2328803623
 21
-0.3729487226
  0
LINE
  5
3BF
100
AcDbEntity
  8
0
100
AcDbLine
 62
253
  6
CONTINUOUS
 10
-39.2328803623
 20
0.9961940834
 11
-37.2328803623
 21
0.9961940834
  0
LINE
  5
3C0
100
AcDbEntity
  8
0
100
AcDbLine
 62
253
  6
CONTINUOUS
 10
-42.2328803623
 20
1.1390512774
 11
-43.9828803623
 21
1.1390512774
  0
LINE
  5
3C1
100
AcDbEntity
  8
SMUSSO
100
AcDbLine
 62
7
  6
CONTINUOUS
 10
-45.2328803623
 20
-0.5109487226
 11
-44.6555300931
 21
-1.0882989918
  0
LINE
  5
3C2
100
AcDbEntity
  8
ASSI
100
AcDbLine
 62
7
  6
CONTINUOUS
 10
-45.2328803623
 20
-0.5109487226
 11
-44.6555300931
 21
-1.0882989918
  0
LINE
  5
3C3
100
AcDbEntity
  8
SMUSSO
100
AcDbLine
 62
7
  6
CONTINUOUS
 10
-52.2328803623
 20
7.7890512774
 11
-52.8102306315
 21
8.3664015465
  0
LINE
  5
3C4
100
AcDbEntity
  8
ASSI
100
AcDbLine
 62
7
  6
CONTINUOUS
 10
-52.2328803623
 20
7.7890512774
 11
-52.8102306315
 21
8.3664015465
  0
LINE
  5
3C5
100
AcDbEntity
  8
0
100
AcDbLine
 62
253
  6
CONTINUOUS
 10
-37.5185946608
 20
-6.0038060358
 11
-37.2328803623
 21
-6.2895201853
  0
LINE
  5
3C6
100
AcDbEntity
  8
DRAFT
100
AcDbLine
 62
7
  6
CONTINUOUS
 10
-56.3741534945
 20
19.6477781451
 11
-56.3654266267
 21
19.6318198234
  0
LINE
  5
3C7
100
AcDbEntity
  8
RACCORDO
100
AcDbLine
 62
253
  6
CONTINUOUS
 10
-55.3178979076
 20
20.4571818365
 11
-55.2281181792
 21
20.2404343985
  0
LINE
  5
3C8
100
AcDbEntity
  8
ASSI
100
AcDbLine
 62
253
  6
CONTINUOUS
 10
-55.3178979076
 20
20.4571818365
 11
-55.2281181792
 21
20.2404343985
  0
LINE
  5
3C9
100
AcDbEntity
  8
RACCORDO
100
AcDbLine
 62
253
  6
CONTINUOUS
 10
-54.6108988222
 20
20.7500304462
 11
-54.5211190938
 21
20.5332830082
  0
LINE
  5
3CA
100
AcDbEntity
  8
ASSI
100
AcDbLine
 62
253
  6
CONTINUOUS
 10
-54.6108988222
 20
20.7500304462
 11
-54.5211190938
 21
20.5332830082
  0
LINE
  5
3CB
100
AcDbEntity
  8
SUPERFICI
100
AcDbLine
 62
7
  6
CONTINUOUS
 10
-54.8331507806
 20
21.188780859
 11
-54.8828803623
 21
21.3380909276
  0
LINE
  5
3CC
100
AcDbEntity
  8
SUPERFICI
100
AcDbLine
 62
7
  6
CONTINUOUS
 10
-54.1328310701
 20
21.8891005695
 11
-54.1827740247
 21
22.0390512774
  0
LINE
  5
3CD
100
AcDbEntity
  8
SUPERFICI
100
AcDbLine
 62
7
  6
CONTINUOUS
 10
-42.2271770375
 20
-21.2144850129
 11
-42.2407345433
 21
-19.6609487226
  0
LINE
  5
3CE
100
AcDbEntity
  8
DRAFT
100
AcDbLine
 62
7
  6
CONTINUOUS
 10
-41.7324157971
 20
-18.9141826162
 11
-41.7328030801
 21
-18.869804385
  0
LINE
  5
3CF
100
AcDbEntity
  8
SUPERFICI
100
AcDbLine
 62
7
  6
CONTINUOUS
 10
-41.7123258991
 20
-21.2162569066
 11
-41.698022646
 21
-22.8552473777
  0
LINE
  5
3D0
100
AcDbEntity
  8
SMUSSO
100
AcDbLine
 62
7
  6
CONTINUOUS
 10
-44.6555300931
 20
18.3664015465
 11
-44.6555300931
 21
13.9117010082
  0
LINE
  5
3D1
100
AcDbEntity
  8
ASSI
100
AcDbLine
 62
7
  6
CONTINUOUS
 10
-44.6555300931
 20
18.3664015465
 11
-44.6555300931
 21
13.9117010082
  0
LINE
  5
3D2
100
AcDbEntity
  8
SMUSSO
100
AcDbLine
 62
7
  6
CONTINUOUS
 10
-44.6555300931
 20
13.3664015465
 11
-44.6555300931
 21
8.9117010082
  0
LINE
  5
3D3
100
AcDbEntity
  8
ASSI
100
AcDbLine
 62
7
  6
CONTINUOUS
 10
-44.6555300931
 20
13.3664015465
 11
-44.6555300931
 21
8.9117010082
  0
LINE
  5
3D4
100
AcDbEntity
  8
SMUSSO
100
AcDbLine
 62
7
  6
CONTINUOUS
 10
-44.6555300931
 20
8.3664015465
 11
-44.6555300931
 21
3.9117010082
  0
LINE
  5
3D5
100
AcDbEntity
  8
ASSI
100
AcDbLine
 62
7
  6
CONTINUOUS
 10
-44.6555300931
 20
8.3664015465
 11
-44.6555300931
 21
3.9117010082
  0
LINE
  5
3D6
100
AcDbEntity
  8
SMUSSO
100
AcDbLine
 62
7
  6
CONTINUOUS
 10
-44.6555300931
 20
3.3664015465
 11
-44.6555300931
 21
-1.0882989918
  0
LINE
  5
3D7
100
AcDbEntity
  8
ASSI
100
AcDbLine
 62
7
  6
CONTINUOUS
 10
-44.6555300931
 20
3.3664015465
 11
-44.6555300931
 21
-1.0882989918
  0
LINE
  5
3D8
100
AcDbEntity
  8
SMUSSO
100
AcDbLine
 62
7
  6
CONTINUOUS
 10
-44.6555300931
 20
-1.6335984535
 11
-44.6555300931
 21
-6.0882989918
  0
LINE
  5
3D9
100
AcDbEntity
  8
ASSI
100
AcDbLine
 62
7
  6
CONTINUOUS
 10
-44.6555300931
 20
-1.6335984535
 11
-44.6555300931
 21
-6.0882989918
  0
LINE
  5
3DA
100
AcDbEntity
  8
SMUSSO
100
AcDbLine
 62
7
  6
CONTINUOUS
 10
-44.6555300931
 20
-6.6335984535
 11
-44.6555300931
 21
-11.0882989918
  0
LINE
  5
3DB
100
AcDbEntity
  8
ASSI
100
AcDbLine
 62
7
  6
CONTINUOUS
 10
-44.6555300931
 20
-6.6335984535
 11
-44.6555300931
 21
-11.0882989918
  0
LINE
  5
3DC
100
AcDbEntity
  8
SUPERFICI
100
AcDbLine
 62
7
  6
CONTINUOUS
 10
-44.2328803623
 20
24.9390580466
 11
-44.2328803623
 21
23.5390512774
  0
LINE
  5
3DD
100
AcDbEntity
  8
SUPERFICI
100
AcDbLine
 62
7
  6
CONTINUOUS
 10
-44.2328803623
 20
-21.2609487226
 11
-44.2328803623
 21
-22.6609554919
  0
LINE
  5
3DE
100
AcDbEntity
  8
SUPERFICI
100
AcDbLine
 62
7
  6
CONTINUOUS
 10
-44.2242064089
 20
23.5338469899
 11
-44.2243129923
 21
24.9333465471
  0
LINE
  5
3DF
100
AcDbEntity
  8
RACCORDO
100
AcDbLine
 62
253
  6
CONTINUOUS
 10
-43.634762964
 20
21.2000381729
 11
-43.634762964
 21
21.0215962124
  0
LINE
  5
3E0
100
AcDbEntity
  8
ASSI
100
AcDbLine
 62
253
  6
CONTINUOUS
 10
-43.634762964
 20
21.2000381729
 11
-43.634762964
 21
21.0215962124
  0
LINE
  5
3E1
100
AcDbEntity
  8
RACCORDO
100
AcDbLine
 62
253
  6
CONTINUOUS
 10
-43.634762964
 20
-18.7434936577
 11
-43.634762964
 21
-18.9219356182
  0
LINE
  5
3E2
100
AcDbEntity
  8
ASSI
100
AcDbLine
 62
253
  6
CONTINUOUS
 10
-43.634762964
 20
-18.7434936577
 11
-43.634762964
 21
-18.9219356182
  0
LINE
  5
3E3
100
AcDbEntity
  8
RACCORDO
100
AcDbLine
 62
253
  6
CONTINUOUS
 10
-42.7349000384
 20
21.2010167579
 11
-42.7349000384
 21
21.0370316013
  0
LINE
  5
3E4
100
AcDbEntity
  8
ASSI
100
AcDbLine
 62
253
  6
CONTINUOUS
 10
-42.7349000384
 20
21.2010167579
 11
-42.7349000384
 21
21.0370316013
  0
LINE
  5
3E5
100
AcDbEntity
  8
RACCORDO
100
AcDbLine
 62
253
  6
CONTINUOUS
 10
-42.7349000384
 20
-18.7589290465
 11
-42.7349000384
 21
-18.9229142031
  0
LINE
  5
3E6
100
AcDbEntity
  8
ASSI
100
AcDbLine
 62
253
  6
CONTINUOUS
 10
-42.7349000384
 20
-18.7589290465
 11
-42.7349000384
 21
-18.9229142031
  0
LINE
  5
3E7
100
AcDbEntity
  8
RACCORDO
100
AcDbLine
 62
7
  6
CONTINUOUS
 10
-42.7328803623
 20
21.2010167579
 11
-42.7328803623
 21
21.0390512774
  0
LINE
  5
3E8
100
AcDbEntity
  8
ASSI
100
AcDbLine
 62
7
  6
CONTINUOUS
 10
-42.7328803623
 20
21.2010167579
 11
-42.7328803623
 21
21.0390512774
  0
LINE
  5
3E9
100
AcDbEntity
  8
RACCORDO
100
AcDbLine
 62
7
  6
CONTINUOUS
 10
-42.7328803623
 20
-18.7609487226
 11
-42.7328803623
 21
-18.9229142031
  0
LINE
  5
3EA
100
AcDbEntity
  8
ASSI
100
AcDbLine
 62
7
  6
CONTINUOUS
 10
-42.7328803623
 20
-18.7609487226
 11
-42.7328803623
 21
-18.9229142031
  0
LINE
  5
3EB
100
AcDbEntity
  8
0
100
AcDbLine
 62
253
  6
CONTINUOUS
 10
-42.2328803623
 20
17.8890512774
 11
-42.2328803623
 21
14.3890512774
  0
LINE
  5
3EC
100
AcDbEntity
  8
0
100
AcDbLine
 62
253
  6
CONTINUOUS
 10
-42.2328803623
 20
12.3890512774
 11
-42.2328803623
 21
9.8890512774
  0
LINE
  5
3ED
100
AcDbEntity
  8
0
100
AcDbLine
 62
253
  6
CONTINUOUS
 10
-42.2328803623
 20
7.3890512774
 11
-42.2328803623
 21
4.8890512774
  0
LINE
  5
3EE
100
AcDbEntity
  8
0
100
AcDbLine
 62
253
  6
CONTINUOUS
 10
-42.2328803623
 20
-10.6109487226
 11
-42.2328803623
 21
-7.1109487226
  0
LINE
  5
3EF
100
AcDbEntity
  8
0
100
AcDbLine
 62
253
  6
CONTINUOUS
 10
-42.2328803623
 20
-5.1109487226
 11
-42.2328803623
 21
-2.6109487226
  0
LINE
  5
3F0
100
AcDbEntity
  8
0
100
AcDbLine
 62
253
  6
CONTINUOUS
 10
-42.2328803623
 20
-0.6109487226
 11
-42.2328803623
 21
2.8890512774
  0
LINE
  5
3F1
100
AcDbEntity
  8
DRAFT
100
AcDbLine
 62
7
  6
CONTINUOUS
 10
-41.8219011934
 20
20.9500304462
 11
-41.8219011934
 21
20.7500304462
  0
LINE
  5
3F2
100
AcDbEntity
  8
ASSI
100
AcDbLine
 62
7
  6
CONTINUOUS
 10
-41.8219011934
 20
20.9500304462
 11
-41.8219011934
 21
20.7500304462
  0
LINE
  5
3F3
100
AcDbEntity
  8
DRAFT
100
AcDbLine
 62
7
  6
CONTINUOUS
 10
-41.8219011934
 20
-18.4719278915
 11
-41.8219011934
 21
-18.6719278915
  0
LINE
  5
3F4
100
AcDbEntity
  8
ASSI
100
AcDbLine
 62
7
  6
CONTINUOUS
 10
-41.8219011934
 20
-18.4719278915
 11
-41.8219011934
 21
-18.6719278915
  0
LINE
  5
3F5
100
AcDbEntity
  8
DRAFT
100
AcDbLine
 62
7
  6
CONTINUOUS
 10
-41.7328803623
 20
21.0390512774
 11
-41.7328803623
 21
20.8390512774
  0
LINE
  5
3F6
100
AcDbEntity
  8
ASSI
100
AcDbLine
 62
7
  6
CONTINUOUS
 10
-41.7328803623
 20
21.0390512774
 11
-41.7328803623
 21
20.8390512774
  0
LINE
  5
3F7
100
AcDbEntity
  8
DRAFT
100
AcDbLine
 62
7
  6
CONTINUOUS
 10
-41.7328803623
 20
-18.5609487226
 11
-41.7328803623
 21
-18.7609487226
  0
LINE
  5
3F8
100
AcDbEntity
  8
ASSI
100
AcDbLine
 62
7
  6
CONTINUOUS
 10
-41.7328803623
 20
-18.5609487226
 11
-41.7328803623
 21
-18.7609487226
  0
LINE
  5
3F9
100
AcDbEntity
  8
0
100
AcDbLine
 62
253
  6
CONTINUOUS
 10
-41.4828803623
 20
17.7201902774
 11
-41.4828803623
 21
14.5579122774
  0
LINE
  5
3FA
100
AcDbEntity
  8
0
100
AcDbLine
 62
253
  6
CONTINUOUS
 10
-41.4828803623
 20
-10.4420877226
 11
-41.4828803623
 21
-7.2798097226
  0
LINE
  5
3FB
100
AcDbEntity
  8
0
100
AcDbLine
 62
253
  6
CONTINUOUS
 10
-41.4828803623
 20
-0.4420877226
 11
-41.4828803623
 21
2.7201902774
  0
LINE
  5
3FC
100
AcDbEntity
  8
SUPERFICI
100
AcDbLine
 62
7
  6
CONTINUOUS
 10
-44.2242064089
 20
-21.2557444352
 11
-44.2243129923
 21
-22.6552439924
  0
LINE
  5
3FD
100
AcDbEntity
  8
SUPERFICI
100
AcDbLine
 62
7
  6
CONTINUOUS
 10
-42.2407345433
 20
21.9390512774
 11
-42.2271770375
 21
23.4925875676
  0
LINE
  5
3FE
100
AcDbEntity
  8
DRAFT
100
AcDbLine
 62
7
  6
CONTINUOUS
 10
-41.7324157971
 20
21.1922851709
 11
-41.7328030801
 21
21.1479069397
  0
LINE
  5
3FF
100
AcDbEntity
  8
SUPERFICI
100
AcDbLine
 62
7
  6
CONTINUOUS
 10
-41.7123258991
 20
23.4943594613
 11
-41.698022646
 21
25.1333499324
  0
LINE
  5
400
100
AcDbEntity
  8
SUPERFICI
100
AcDbLine
 62
7
  6
CONTINUOUS
 10
-36.3329296545
 20
21.8891005695
 11
-36.2829866999
 21
22.0390512774
  0
LINE
  5
401
100
AcDbEntity
  8
SUPERFICI
100
AcDbLine
 62
7
  6
CONTINUOUS
 10
-35.632609944
 20
21.188780859
 11
-35.5828803623
 21
21.3380909276
  0
LINE
  5
402
100
AcDbEntity
  8
RACCORDO
100
AcDbLine
 62
253
  6
CONTINUOUS
 10
-35.9446416307
 20
20.5332830082
 11
-35.8548619023
 21
20.7500304462
  0
LINE
  5
403
100
AcDbEntity
  8
ASSI
100
AcDbLine
 62
253
  6
CONTINUOUS
 10
-35.9446416307
 20
20.5332830082
 11
-35.8548619023
 21
20.7500304462
  0
LINE
  5
404
100
AcDbEntity
  8
RACCORDO
100
AcDbLine
 62
253
  6
CONTINUOUS
 10
-35.2376425453
 20
20.2404343985
 11
-35.1478628169
 21
20.4571818365
  0
LINE
  5
405
100
AcDbEntity
  8
ASSI
100
AcDbLine
 62
253
  6
CONTINUOUS
 10
-35.2376425453
 20
20.2404343985
 11
-35.1478628169
 21
20.4571818365
  0
LINE
  5
406
100
AcDbEntity
  8
DRAFT
100
AcDbLine
 62
7
  6
CONTINUOUS
 10
-34.0916072301
 20
19.6477781451
 11
-34.1003340979
 21
19.6318198234
  0
LINE
  5
407
100
AcDbEntity
  8
SMUSSO
100
AcDbLine
 62
7
  6
CONTINUOUS
 10
-45.2328803623
 20
-2.2109487226
 11
-44.6555300931
 21
-1.6335984535
  0
LINE
  5
408
100
AcDbEntity
  8
ASSI
100
AcDbLine
 62
7
  6
CONTINUOUS
 10
-45.2328803623
 20
-2.2109487226
 11
-44.6555300931
 21
-1.6335984535
  0
LINE
  5
409
100
AcDbEntity
  8
SMUSSO
100
AcDbLine
 62
7
  6
CONTINUOUS
 10
-52.2328803623
 20
-10.5109487226
 11
-52.8102306315
 21
-11.0882989918
  0
LINE
  5
40A
100
AcDbEntity
  8
ASSI
100
AcDbLine
 62
7
  6
CONTINUOUS
 10
-52.2328803623
 20
-10.5109487226
 11
-52.8102306315
 21
-11.0882989918
  0
LINE
  5
40B
100
AcDbEntity
  8
0
100
AcDbLine
 62
253
  6
CONTINUOUS
 10
-37.2328803623
 20
2.2819083521
 11
-39.2328803623
 21
2.2819083521
  0
LINE
  5
40C
100
AcDbEntity
  8
0
100
AcDbLine
 62
7
  6
CONTINUOUS
 10
-52.2328803623
 20
2.6270512774
 11
-45.2328803623
 21
2.6270512774
  0
LINE
  5
40D
100
AcDbEntity
  8
0
100
AcDbLine
 62
253
  6
CONTINUOUS
 10
-34.2180347145
 20
2.71048053
 11
-34.2329939207
 21
2.71048053
  0
LINE
  5
40E
100
AcDbEntity
  8
SMUSSO
100
AcDbLine
 62
7
  6
CONTINUOUS
 10
-52.2328803623
 20
2.7890512774
 11
-45.2328803623
 21
2.7890512774
  0
LINE
  5
40F
100
AcDbEntity
  8
ASSI
100
AcDbLine
 62
7
  6
CONTINUOUS
 10
-52.2328803623
 20
2.7890512774
 11
-45.2328803623
 21
2.7890512774
  0
LINE
  5
410
100
AcDbEntity
  8
ASSI
100
AcDbLine
 62
7
  6
CONTINUOUS
 10
-34.3604158946
 20
3.2390512774
 11
-35.8828803623
 21
3.2390512774
  0
LINE
  5
411
100
AcDbEntity
  8
SMUSSO
100
AcDbLine
 62
7
  6
CONTINUOUS
 10
-52.8102306315
 20
3.3664015465
 11
-44.6555300931
 21
3.3664015465
  0
LINE
  5
412
100
AcDbEntity
  8
ASSI
100
AcDbLine
 62
7
  6
CONTINUOUS
 10
-52.8102306315
 20
3.3664015465
 11
-44.6555300931
 21
3.3664015465
  0
LINE
  5
413
100
AcDbEntity
  8
0
100
AcDbLine
 62
253
  6
CONTINUOUS
 10
-37.2328803623
 20
3.7104796955
 11
-39.2328803623
 21
3.7104796955
  0
LINE
  5
414
100
AcDbEntity
  8
SMUSSO
100
AcDbLine
 62
7
  6
CONTINUOUS
 10
-44.6555300931
 20
3.9117010082
 11
-52.8102306315
 21
3.9117010082
  0
LINE
  5
415
100
AcDbEntity
  8
ASSI
100
AcDbLine
 62
7
  6
CONTINUOUS
 10
-44.6555300931
 20
3.9117010082
 11
-52.8102306315
 21
3.9117010082
  0
LINE
  5
416
100
AcDbEntity
  8
ASSI
100
AcDbLine
 62
7
  6
CONTINUOUS
 10
-34.3604158946
 20
4.0390512774
 11
-35.8828803623
 21
4.0390512774
  0
LINE
  5
417
100
AcDbEntity
  8
0
100
AcDbLine
 62
253
  6
CONTINUOUS
 10
-34.206815311
 20
4.103336651
 11
-34.2329939207
 21
4.103336651
  0
LINE
  5
418
100
AcDbEntity
  8
SMUSSO
100
AcDbLine
 62
7
  6
CONTINUOUS
 10
-45.2328803623
 20
4.4890512774
 11
-52.2328803623
 21
4.4890512774
  0
LINE
  5
419
100
AcDbEntity
  8
ASSI
100
AcDbLine
 62
7
  6
CONTINUOUS
 10
-45.2328803623
 20
4.4890512774
 11
-52.2328803623
 21
4.4890512774
  0
LINE
  5
41A
100
AcDbEntity
  8
0
100
AcDbLine
 62
7
  6
CONTINUOUS
 10
-45.2328803623
 20
4.6270512774
 11
-52.2328803623
 21
4.6270512774
  0
LINE
  5
41B
100
AcDbEntity
  8
0
100
AcDbLine
 62
253
  6
CONTINUOUS
 10
-38.9471660936
 20
-3.7657105139
 11
-39.2328803623
 21
-3.4799963644
  0
LINE
  5
41C
100
AcDbEntity
  8
SMUSSO
100
AcDbLine
 62
7
  6
CONTINUOUS
 10
-45.2328803623
 20
4.4890512774
 11
-44.6555300931
 21
3.9117010082
  0
LINE
  5
41D
100
AcDbEntity
  8
ASSI
100
AcDbLine
 62
7
  6
CONTINUOUS
 10
-45.2328803623
 20
4.4890512774
 11
-44.6555300931
 21
3.9117010082
  0
LINE
  5
41E
100
AcDbEntity
  8
0
100
AcDbLine
 62
253
  6
CONTINUOUS
 10
-37.5185946608
 20
-2.7657105139
 11
-37.2328803623
 21
-3.0514251402
  0
LINE
  5
41F
100
AcDbEntity
  8
SMUSSO
100
AcDbLine
 62
7
  6
CONTINUOUS
 10
-52.2328803623
 20
12.7890512774
 11
-52.8102306315
 21
13.3664015465
  0
LINE
  5
420
100
AcDbEntity
  8
ASSI
100
AcDbLine
 62
7
  6
CONTINUOUS
 10
-52.2328803623
 20
12.7890512774
 11
-52.8102306315
 21
13.3664015465
  0
LINE
  5
421
100
AcDbEntity
  8
DRAFT
100
AcDbLine
 62
7
  6
CONTINUOUS
 10
-34.0916072301
 20
-17.3696755904
 11
-34.1003340979
 21
-17.3537172687
  0
LINE
  5
422
100
AcDbEntity
  8
RACCORDO
100
AcDbLine
 62
253
  6
CONTINUOUS
 10
-35.8548619023
 20
-18.4719278915
 11
-35.9446416307
 21
-18.2551804535
  0
LINE
  5
423
100
AcDbEntity
  8
ASSI
100
AcDbLine
 62
253
  6
CONTINUOUS
 10
-35.8548619023
 20
-18.4719278915
 11
-35.9446416307
 21
-18.2551804535
  0
LINE
  5
424
100
AcDbEntity
  8
RACCORDO
100
AcDbLine
 62
253
  6
CONTINUOUS
 10
-35.1478628169
 20
-18.1790792817
 11
-35.2376425453
 21
-17.9623318438
  0
LINE
  5
425
100
AcDbEntity
  8
ASSI
100
AcDbLine
 62
253
  6
CONTINUOUS
 10
-35.1478628169
 20
-18.1790792817
 11
-35.2376425453
 21
-17.9623318438
  0
LINE
  5
426
100
AcDbEntity
  8
SUPERFICI
100
AcDbLine
 62
7
  6
CONTINUOUS
 10
-36.2829866999
 20
-19.7609487226
 11
-36.3329296545
 21
-19.6109980148
  0
LINE
  5
427
100
AcDbEntity
  8
SUPERFICI
100
AcDbLine
 62
7
  6
CONTINUOUS
 10
-35.5828803623
 20
-19.0599883728
 11
-35.632609944
 21
-18.9106783043
  0
LINE
  5
428
100
AcDbEntity
  8
SUPERFICI
100
AcDbLine
 62
253
  6
CONTINUOUS
 10
-37.9785085283
 20
-22.7052862899
 11
-37.9828803623
 21
-22.2714338709
  0
LINE
  5
429
100
AcDbEntity
  8
SUPERFICI
100
AcDbLine
 62
253
  6
CONTINUOUS
 10
-37.7285127591
 20
-22.488779939
 11
-37.7336033601
 21
-21.9835984535
  0
LINE
  5
42A
100
AcDbEntity
  8
SUPERFICI
100
AcDbLine
 62
7
  6
CONTINUOUS
 10
-40.8268026093
 20
-22.8148409957
 11
-40.8268026093
 21
-21.2170264756
  0
LINE
  5
42B
100
AcDbEntity
  8
SUPERFICI
100
AcDbLine
 62
7
  6
CONTINUOUS
 10
-40.8268026093
 20
23.4951290303
 11
-40.8268026093
 21
25.0929435504
  0
LINE
  5
42C
100
AcDbEntity
  8
SUPERFICI
100
AcDbLine
 62
7
  6
CONTINUOUS
 10
-40.7828803623
 20
-22.8609487226
 11
-40.7828803623
 21
-22.2288936698
  0
LINE
  5
42D
100
AcDbEntity
  8
SUPERFICI
100
AcDbLine
 62
7
  6
CONTINUOUS
 10
-40.7828803623
 20
-21.7930037755
 11
-40.7828803623
 21
-21.2609487226
  0
LINE
  5
42E
100
AcDbEntity
  8
SUPERFICI
100
AcDbLine
 62
7
  6
CONTINUOUS
 10
-40.7828803623
 20
23.5390512774
 11
-40.7828803623
 21
24.0711063302
  0
LINE
  5
42F
100
AcDbEntity
  8
SUPERFICI
100
AcDbLine
 62
7
  6
CONTINUOUS
 10
-40.7828803623
 20
24.5069962245
 11
-40.7828803623
 21
25.1390512774
  0
LINE
  5
430
100
AcDbEntity
  8
0
100
AcDbLine
 62
253
  6
CONTINUOUS
 10
-40.7328803623
 20
17.0404392774
 11
-40.7328803623
 21
15.2376632774
  0
LINE
  5
431
100
AcDbEntity
  8
0
100
AcDbLine
 62
253
  6
CONTINUOUS
 10
-40.7328803623
 20
-9.7623367226
 11
-40.7328803623
 21
-7.9595607226
  0
LINE
  5
432
100
AcDbEntity
  8
0
100
AcDbLine
 62
253
  6
CONTINUOUS
 10
-40.7328803623
 20
0.2376632774
 11
-40.7328803623
 21
2.0404392774
  0
LINE
  5
433
100
AcDbEntity
  8
0
100
AcDbLine
 62
253
  6
CONTINUOUS
 10
-39.2328803623
 20
-7.0038060358
 11
-39.2328803623
 21
-6.2895201853
  0
LINE
  5
434
100
AcDbEntity
  8
0
100
AcDbLine
 62
253
  6
CONTINUOUS
 10
-39.2328803623
 20
-5.1942822149
 11
-39.2328803623
 21
-4.3371392897
  0
LINE
  5
435
100
AcDbEntity
  8
0
100
AcDbLine
 62
253
  6
CONTINUOUS
 10
-39.2328803623
 20
-3.4799963644
 11
-39.2328803623
 21
-3.0514251402
  0
LINE
  5
436
100
AcDbEntity
  8
0
100
AcDbLine
 62
253
  6
CONTINUOUS
 10
-39.2328803623
 20
2.2819083521
 11
-39.2328803623
 21
3.1390511581
  0
LINE
  5
437
100
AcDbEntity
  8
0
100
AcDbLine
 62
253
  6
CONTINUOUS
 10
-39.2328803623
 20
3.7104796955
 11
-39.2328803623
 21
4.5676226208
  0
LINE
  5
438
100
AcDbEntity
  8
0
100
AcDbLine
 62
253
  6
CONTINUOUS
 10
-39.2328803623
 20
5.1390511581
 11
-39.2328803623
 21
6.2819082329
  0
LINE
  5
439
100
AcDbEntity
  8
0
100
AcDbLine
 62
253
  6
CONTINUOUS
 10
-39.2328803623
 20
10.06762274
 11
-39.2328803623
 21
10.7819084713
  0
LINE
  5
43A
100
AcDbEntity
  8
0
100
AcDbLine
 62
253
  6
CONTINUOUS
 10
-39.2328803623
 20
13.2104798147
 11
-39.2328803623
 21
13.9247656653
  0
LINE
  5
43B
100
AcDbEntity
  8
0
100
AcDbLine
 62
253
  6
CONTINUOUS
 10
-39.2328803623
 20
16.06762274
 11
-39.2328803623
 21
17.2104798147
  0
LINE
  5
43C
100
AcDbEntity
  8
DRAFT
100
AcDbLine
 62
7
  6
CONTINUOUS
 10
-38.6368848166
 20
21.2350468231
 11
-38.6368848166
 21
20.9350468231
  0
LINE
  5
43D
100
AcDbEntity
  8
DRAFT
100
AcDbLine
 62
7
  6
CONTINUOUS
 10
-38.6368848166
 20
-18.6569442683
 11
-38.6368848166
 21
-18.9569442683
  0
LINE
  5
43E
100
AcDbEntity
  8
0
100
AcDbLine
 62
253
  6
CONTINUOUS
 10
-38.3757375562
 20
4.5676226208
 11
-38.3757375562
 21
3.7104796955
  0
LINE
  5
43F
100
AcDbEntity
  8
0
100
AcDbLine
 62
253
  6
CONTINUOUS
 10
-38.3757375562
 20
2.8533368895
 11
-38.3757375562
 21
2.2819083521
  0
LINE
  5
440
100
AcDbEntity
  8
0
100
AcDbLine
 62
253
  6
CONTINUOUS
 10
-38.3757375562
 20
-4.6228534391
 11
-38.3757375562
 21
-5.1942822149
  0
LINE
  5
441
100
AcDbEntity
  8
0
100
AcDbLine
 62
253
  6
CONTINUOUS
 10
-38.3757375562
 20
13.4961942026
 11
-38.3757375562
 21
13.9247656653
  0
LINE
  5
442
100
AcDbEntity
  8
0
100
AcDbLine
 62
253
  6
CONTINUOUS
 10
-38.3757375562
 20
14.4961939642
 11
-38.3757375562
 21
15.4961939642
  0
LINE
  5
443
100
AcDbEntity
  8
0
100
AcDbLine
 62
253
  6
CONTINUOUS
 10
-38.0900232279
 20
10.7819084713
 11
-38.0900232279
 21
10.06762274
  0
LINE
  5
444
100
AcDbEntity
  8
DRAFT
100
AcDbLine
 62
7
  6
CONTINUOUS
 10
-38.028875908
 20
-19.8569442683
 11
-38.028875908
 21
-18.6569442683
  0
LINE
  5
445
100
AcDbEntity
  8
DRAFT
100
AcDbLine
 62
7
  6
CONTINUOUS
 10
-38.028875908
 20
20.9350468231
 11
-38.028875908
 21
22.1350468231
  0
LINE
  5
446
100
AcDbEntity
  8
SUPERFICI
100
AcDbLine
 62
7
  6
CONTINUOUS
 10
-37.9828803623
 20
-21.2609487226
 11
-37.9828803623
 21
-22.7052862899
  0
LINE
  5
447
100
AcDbEntity
  8
SUPERFICI
100
AcDbLine
 62
7
  6
CONTINUOUS
 10
-37.9828803623
 20
23.5390512774
 11
-37.9828803623
 21
24.9833888447
  0
LINE
  5
448
100
AcDbEntity
  8
SUPERFICI
100
AcDbLine
 62
7
  6
CONTINUOUS
 10
-37.9785085283
 20
25.3846836741
 11
-37.9785085283
 21
24.9833888447
  0
LINE
  5
449
100
AcDbEntity
  8
SUPERFICI
100
AcDbLine
 62
7
  6
CONTINUOUS
 10
-37.9785085283
 20
-22.7052862899
 11
-37.9785085283
 21
-23.1065811194
  0
LINE
  5
44A
100
AcDbEntity
  8
SUPERFICI
100
AcDbLine
 62
253
  6
CONTINUOUS
 10
-37.9828803623
 20
24.5495364256
 11
-37.9785085283
 21
24.9833888447
  0
LINE
  5
44B
100
AcDbEntity
  8
SUPERFICI
100
AcDbLine
 62
253
  6
CONTINUOUS
 10
-37.7336033601
 20
24.2617010082
 11
-37.7285127591
 21
24.7668824937
  0
LINE
  5
44C
100
AcDbEntity
  8
SMUSSO
100
AcDbLine
 62
7
  6
CONTINUOUS
 10
-45.2328803623
 20
-7.2109487226
 11
-44.6555300931
 21
-6.6335984535
  0
LINE
  5
44D
100
AcDbEntity
  8
ASSI
100
AcDbLine
 62
7
  6
CONTINUOUS
 10
-45.2328803623
 20
-7.2109487226
 11
-44.6555300931
 21
-6.6335984535
  0
LINE
  5
44E
100
AcDbEntity
  8
RACCORDO
100
AcDbLine
 62
253
  6
CONTINUOUS
 10
-54.6988859701
 20
-17.0775658821
 11
-55.4058850555
 21
-17.7845649675
  0
LINE
  5
44F
100
AcDbEntity
  8
ASSI
100
AcDbLine
 62
253
  6
CONTINUOUS
 10
-54.6988859701
 20
-17.0775658821
 11
-55.4058850555
 21
-17.7845649675
  0
LINE
  5
450
100
AcDbEntity
  8
RACCORDO
100
AcDbLine
 62
253
  6
CONTINUOUS
 10
-54.5211190938
 20
-17.2553327584
 11
-55.2281181792
 21
-17.9623318438
  0
LINE
  5
451
100
AcDbEntity
  8
ASSI
100
AcDbLine
 62
253
  6
CONTINUOUS
 10
-54.5211190938
 20
-17.2553327584
 11
-55.2281181792
 21
-17.9623318438
  0
LINE
  5
452
100
AcDbEntity
  8
0
100
AcDbLine
 62
253
  6
CONTINUOUS
 10
-39.2328803623
 20
-3.0514251402
 11
-38.9471660936
 21
-2.7657105139
  0
LINE
  5
453
100
AcDbEntity
  8
0
100
AcDbLine
 62
253
  6
CONTINUOUS
 10
-37.2328803623
 20
5.7104799339
 11
-39.2328803623
 21
5.7104799339
  0
LINE
  5
454
100
AcDbEntity
  8
0
100
AcDbLine
 62
253
  6
CONTINUOUS
 10
-40.9828803623
 20
6.1390512774
 11
-43.4828803623
 21
6.1390512774
  0
LINE
  5
455
100
AcDbEntity
  8
0
100
AcDbLine
 62
253
  6
CONTINUOUS
 10
-34.2329939207
 20
6.2461942026
 11
-34.206815311
 21
6.2461942026
  0
LINE
  5
456
100
AcDbEntity
  8
INCISIONI
100
AcDbLine
 62
253
  6
CONTINUOUS
 10
-34.1551247576
 20
6.4444955674
 11
-34.1548257662
 21
6.4444955674
  0
LINE
  5
457
100
AcDbEntity
  8
0
100
AcDbLine
 62
253
  6
CONTINUOUS
 10
-34.2329939207
 20
7.3533371279
 11
-34.206815311
 21
7.3533371279
  0
LINE
  5
458
100
AcDbEntity
  8
INCISIONI
100
AcDbLine
 62
253
  6
CONTINUOUS
 10
-34.1787435577
 20
7.3977826606
 11
-34.1589422095
 21
7.3977826606
  0
LINE
  5
459
100
AcDbEntity
  8
INCISIONI
100
AcDbLine
 62
253
  6
CONTINUOUS
 10
-34.1506554437
 20
7.4178525492
 11
-34.1367652459
 21
7.4178525492
  0
LINE
  5
45A
100
AcDbEntity
  8
0
100
AcDbLine
 62
7
  6
CONTINUOUS
 10
-52.2328803623
 20
7.6270512774
 11
-45.2328803623
 21
7.6270512774
  0
LINE
  5
45B
100
AcDbEntity
  8
SMUSSO
100
AcDbLine
 62
7
  6
CONTINUOUS
 10
-52.2328803623
 20
7.7890512774
 11
-45.2328803623
 21
7.7890512774
  0
LINE
  5
45C
100
AcDbEntity
  8
ASSI
100
AcDbLine
 62
7
  6
CONTINUOUS
 10
-52.2328803623
 20
7.7890512774
 11
-45.2328803623
 21
7.7890512774
  0
LINE
  5
45D
100
AcDbEntity
  8
INCISIONI
100
AcDbLine
 62
253
  6
CONTINUOUS
 10
-34.128736493
 20
8.0006186217
 11
-34.1787435577
 21
8.0006186217
  0
LINE
  5
45E
100
AcDbEntity
  8
ASSI
100
AcDbLine
 62
7
  6
CONTINUOUS
 10
-34.3604158946
 20
8.2390512774
 11
-35.8828803623
 21
8.2390512774
  0
LINE
  5
45F
100
AcDbEntity
  8
SMUSSO
100
AcDbLine
 62
7
  6
CONTINUOUS
 10
-52.8102306315
 20
8.3664015465
 11
-44.6555300931
 21
8.3664015465
  0
LINE
  5
460
100
AcDbEntity
  8
ASSI
100
AcDbLine
 62
7
  6
CONTINUOUS
 10
-52.8102306315
 20
8.3664015465
 11
-44.6555300931
 21
8.3664015465
  0
LINE
  5
461
100
AcDbEntity
  8
SMUSSO
100
AcDbLine
 62
7
  6
CONTINUOUS
 10
-45.2328803623
 20
9.4890512774
 11
-44.6555300931
 21
8.9117010082
  0
LINE
  5
462
100
AcDbEntity
  8
ASSI
100
AcDbLine
 62
7
  6
CONTINUOUS
 10
-45.2328803623
 20
9.4890512774
 11
-44.6555300931
 21
8.9117010082
  0
LINE
  5
463
100
AcDbEntity
  8
RACCORDO
100
AcDbLine
 62
253
  6
CONTINUOUS
 10
-54.6988859701
 20
19.3556684368
 11
-55.4058850555
 21
20.0626675222
  0
LINE
  5
464
100
AcDbEntity
  8
ASSI
100
AcDbLine
 62
253
  6
CONTINUOUS
 10
-54.6988859701
 20
19.3556684368
 11
-55.4058850555
 21
20.0626675222
  0
LINE
  5
465
100
AcDbEntity
  8
RACCORDO
100
AcDbLine
 62
253
  6
CONTINUOUS
 10
-54.5211190938
 20
19.5334353131
 11
-55.2281181792
 21
20.2404343985
  0
LINE
  5
466
100
AcDbEntity
  8
ASSI
100
AcDbLine
 62
253
  6
CONTINUOUS
 10
-54.5211190938
 20
19.5334353131
 11
-55.2281181792
 21
20.2404343985
  0
LINE
  5
467
100
AcDbEntity
  8
SMUSSO
100
AcDbLine
 62
7
  6
CONTINUOUS
 10
-52.2328803623
 20
17.7890512774
 11
-52.8102306315
 21
18.3664015465
  0
LINE
  5
468
100
AcDbEntity
  8
ASSI
100
AcDbLine
 62
7
  6
CONTINUOUS
 10
-52.2328803623
 20
17.7890512774
 11
-52.8102306315
 21
18.3664015465
  0
LINE
  5
469
100
AcDbEntity
  8
SUPERFICI
100
AcDbLine
 62
7
  6
CONTINUOUS
 10
-34.1003340979
 20
-17.0082947612
 11
-34.0828803623
 21
-17.3609487226
  0
LINE
  5
46A
100
AcDbEntity
  8
INCISIONI
100
AcDbLine
 62
253
  6
CONTINUOUS
 10
-34.2235197567
 20
-10.8038058331
 11
-34.2282568387
 21
-10.6680916121
  0
LINE
  5
46B
100
AcDbEntity
  8
INCISIONI
100
AcDbLine
 62
253
  6
CONTINUOUS
 10
-34.2093085114
 20
-9.8538058331
 11
-34.2045714299
 21
-9.9895201674
  0
LINE
  5
46C
100
AcDbEntity
  8
SUPERFICI
100
AcDbLine
 62
253
  6
CONTINUOUS
 10
-35.3372479655
 20
24.7668824937
 11
-35.3321573644
 21
24.2617010082
  0
LINE
  5
46D
100
AcDbEntity
  8
SUPERFICI
100
AcDbLine
 62
253
  6
CONTINUOUS
 10
-35.0872521963
 20
24.9833888447
 11
-35.0828803623
 21
24.5495364256
  0
LINE
  5
46E
100
AcDbEntity
  8
DRAFT
100
AcDbLine
 62
7
  6
CONTINUOUS
 10
-37.8328803623
 20
21.9890512774
 11
-37.8328803623
 21
20.8390512774
  0
LINE
  5
46F
100
AcDbEntity
  8
ASSI
100
AcDbLine
 62
7
  6
CONTINUOUS
 10
-37.8328803623
 20
21.9890512774
 11
-37.8328803623
 21
20.8390512774
  0
LINE
  5
470
100
AcDbEntity
  8
DRAFT
100
AcDbLine
 62
7
  6
CONTINUOUS
 10
-37.8328803623
 20
-18.5609487226
 11
-37.8328803623
 21
-19.7109487226
  0
LINE
  5
471
100
AcDbEntity
  8
ASSI
100
AcDbLine
 62
7
  6
CONTINUOUS
 10
-37.8328803623
 20
-18.5609487226
 11
-37.8328803623
 21
-19.7109487226
  0
LINE
  5
472
100
AcDbEntity
  8
DRAFT
100
AcDbLine
 62
7
  6
CONTINUOUS
 10
-37.7438595311
 20
21.9890512774
 11
-37.7438595311
 21
20.7500304462
  0
LINE
  5
473
100
AcDbEntity
  8
ASSI
100
AcDbLine
 62
7
  6
CONTINUOUS
 10
-37.7438595311
 20
21.9890512774
 11
-37.7438595311
 21
20.7500304462
  0
LINE
  5
474
100
AcDbEntity
  8
DRAFT
100
AcDbLine
 62
7
  6
CONTINUOUS
 10
-37.7438595311
 20
-18.4719278915
 11
-37.7438595311
 21
-19.7109487226
  0
LINE
  5
475
100
AcDbEntity
  8
ASSI
100
AcDbLine
 62
7
  6
CONTINUOUS
 10
-37.7438595311
 20
-18.4719278915
 11
-37.7438595311
 21
-19.7109487226
  0
LINE
  5
476
100
AcDbEntity
  8
SUPERFICI
100
AcDbLine
 62
253
  6
CONTINUOUS
 10
-37.7285127591
 20
-22.488779939
 11
-37.7285127591
 21
-23.3565768886
  0
LINE
  5
477
100
AcDbEntity
  8
SUPERFICI
100
AcDbLine
 62
253
  6
CONTINUOUS
 10
-37.7285127591
 20
24.7668824937
 11
-37.7285127591
 21
25.6346794434
  0
LINE
  5
478
100
AcDbEntity
  8
SUPERFICI
100
AcDbLine
 62
253
  6
CONTINUOUS
 10
-37.666234708
 20
22.475038226
 11
-37.666234708
 21
22.1350468231
  0
LINE
  5
479
100
AcDbEntity
  8
SUPERFICI
100
AcDbLine
 62
253
  6
CONTINUOUS
 10
-37.666234708
 20
-19.8569442683
 11
-37.666234708
 21
-20.1969356713
  0
LINE
  5
47A
100
AcDbEntity
  8
0
100
AcDbLine
 62
253
  6
CONTINUOUS
 10
-37.2328803623
 20
13.9247656653
 11
-37.2328803623
 21
13.2104798147
  0
LINE
  5
47B
100
AcDbEntity
  8
0
100
AcDbLine
 62
253
  6
CONTINUOUS
 10
-37.2328803623
 20
-3.0514251402
 11
-37.2328803623
 21
-3.4799963644
  0
LINE
  5
47C
100
AcDbEntity
  8
0
100
AcDbLine
 62
253
  6
CONTINUOUS
 10
-37.2328803623
 20
-6.2895201853
 11
-37.2328803623
 21
-7.0038060358
  0
LINE
  5
47D
100
AcDbEntity
  8
0
100
AcDbLine
 62
253
  6
CONTINUOUS
 10
-37.2328803623
 20
-5.1942822149
 11
-37.2328803623
 21
-4.3371392897
  0
LINE
  5
47E
100
AcDbEntity
  8
0
100
AcDbLine
 62
253
  6
CONTINUOUS
 10
-37.2328803623
 20
0.9961940834
 11
-37.2328803623
 21
1.7104798147
  0
LINE
  5
47F
100
AcDbEntity
  8
0
100
AcDbLine
 62
253
  6
CONTINUOUS
 10
-37.2328803623
 20
2.2819083521
 11
-37.2328803623
 21
3.1390511581
  0
LINE
  5
480
100
AcDbEntity
  8
SUPERFICI
100
AcDbLine
 62
253
  6
CONTINUOUS
 10
-37.1663108605
 20
22.5927867045
 11
-37.1663108605
 21
22.1307595416
  0
LINE
  5
481
100
AcDbEntity
  8
SUPERFICI
100
AcDbLine
 62
253
  6
CONTINUOUS
 10
-37.1663108605
 20
-19.8526569869
 11
-37.1663108605
 21
-20.3146841498
  0
LINE
  5
482
100
AcDbEntity
  8
SUPERFICI
100
AcDbLine
 62
7
  6
CONTINUOUS
 10
-36.9828803623
 20
22.5390512774
 11
-36.9828803623
 21
22.0390512774
  0
LINE
  5
483
100
AcDbEntity
  8
SUPERFICI
100
AcDbLine
 62
7
  6
CONTINUOUS
 10
-36.9828803623
 20
-19.7609487226
 11
-36.9828803623
 21
-20.2609487226
  0
LINE
  5
484
100
AcDbEntity
  8
RACCORDO
100
AcDbLine
 62
253
  6
CONTINUOUS
 10
-35.9446416307
 20
-17.2553327584
 11
-35.9446416307
 21
-18.2551804535
  0
LINE
  5
485
100
AcDbEntity
  8
ASSI
100
AcDbLine
 62
253
  6
CONTINUOUS
 10
-35.9446416307
 20
-17.2553327584
 11
-35.9446416307
 21
-18.2551804535
  0
LINE
  5
486
100
AcDbEntity
  8
RACCORDO
100
AcDbLine
 62
253
  6
CONTINUOUS
 10
-35.9446416307
 20
19.5334353131
 11
-35.9446416307
 21
20.5332830082
  0
LINE
  5
487
100
AcDbEntity
  8
ASSI
100
AcDbLine
 62
253
  6
CONTINUOUS
 10
-35.9446416307
 20
19.5334353131
 11
-35.9446416307
 21
20.5332830082
  0
LINE
  5
488
100
AcDbEntity
  8
ASSI
100
AcDbLine
 62
7
  6
CONTINUOUS
 10
-35.8828803623
 20
18.2390512774
 11
-35.8828803623
 21
14.0390512774
  0
LINE
  5
489
100
AcDbEntity
  8
ASSI
100
AcDbLine
 62
7
  6
CONTINUOUS
 10
-35.8828803623
 20
13.2390512774
 11
-35.8828803623
 21
9.0390512774
  0
LINE
  5
48A
100
AcDbEntity
  8
ASSI
100
AcDbLine
 62
7
  6
CONTINUOUS
 10
-35.8828803623
 20
8.2390512774
 11
-35.8828803623
 21
4.0390512774
  0
LINE
  5
48B
100
AcDbEntity
  8
ASSI
100
AcDbLine
 62
7
  6
CONTINUOUS
 10
-35.8828803623
 20
3.2390512774
 11
-35.8828803623
 21
-0.9609487226
  0
LINE
  5
48C
100
AcDbEntity
  8
ASSI
100
AcDbLine
 62
7
  6
CONTINUOUS
 10
-35.8828803623
 20
-1.7609487226
 11
-35.8828803623
 21
-5.9609487226
  0
LINE
  5
48D
100
AcDbEntity
  8
ASSI
100
AcDbLine
 62
7
  6
CONTINUOUS
 10
-35.8828803623
 20
-6.7609487226
 11
-35.8828803623
 21
-10.9609487226
  0
LINE
  5
48E
100
AcDbEntity
  8
ASSI
100
AcDbLine
 62
7
  6
CONTINUOUS
 10
-35.7328803623
 20
18.2390512774
 11
-35.7328803623
 21
14.0390512774
  0
LINE
  5
48F
100
AcDbEntity
  8
ASSI
100
AcDbLine
 62
7
  6
CONTINUOUS
 10
-35.7328803623
 20
13.2390512774
 11
-35.7328803623
 21
9.0390512774
  0
LINE
  5
490
100
AcDbEntity
  8
ASSI
100
AcDbLine
 62
7
  6
CONTINUOUS
 10
-35.7328803623
 20
8.2390512774
 11
-35.7328803623
 21
4.0390512774
  0
LINE
  5
491
100
AcDbEntity
  8
ASSI
100
AcDbLine
 62
7
  6
CONTINUOUS
 10
-35.7328803623
 20
3.2390512774
 11
-35.7328803623
 21
-0.9609487226
  0
LINE
  5
492
100
AcDbEntity
  8
ASSI
100
AcDbLine
 62
7
  6
CONTINUOUS
 10
-35.7328803623
 20
-1.7609487226
 11
-35.7328803623
 21
-5.9609487226
  0
LINE
  5
493
100
AcDbEntity
  8
ASSI
100
AcDbLine
 62
7
  6
CONTINUOUS
 10
-35.7328803623
 20
-6.7609487226
 11
-35.7328803623
 21
-10.9609487226
  0
LINE
  5
494
100
AcDbEntity
  8
DRAFT
100
AcDbLine
 62
7
  6
CONTINUOUS
 10
-35.7207753752
 20
-10.8129509498
 11
-35.7207753752
 21
-6.7609487226
  0
LINE
  5
495
100
AcDbEntity
  8
DRAFT
100
AcDbLine
 62
7
  6
CONTINUOUS
 10
-35.7207753752
 20
-5.9609487226
 11
-35.7207753752
 21
-1.7609487226
  0
LINE
  5
496
100
AcDbEntity
  8
DRAFT
100
AcDbLine
 62
7
  6
CONTINUOUS
 10
-35.7207753752
 20
-0.9609487226
 11
-35.7207753752
 21
3.2390512774
  0
LINE
  5
497
100
AcDbEntity
  8
DRAFT
100
AcDbLine
 62
7
  6
CONTINUOUS
 10
-35.7207753752
 20
4.0390512774
 11
-35.7207753752
 21
8.2390512774
  0
LINE
  5
498
100
AcDbEntity
  8
DRAFT
100
AcDbLine
 62
7
  6
CONTINUOUS
 10
-35.7207753752
 20
9.0390512774
 11
-35.7207753752
 21
13.0910535045
  0
LINE
  5
499
100
AcDbEntity
  8
DRAFT
100
AcDbLine
 62
7
  6
CONTINUOUS
 10
-35.5828803623
 20
21.3380909276
 11
-35.5828803623
 21
21.1390512774
  0
LINE
  5
49A
100
AcDbEntity
  8
DRAFT
100
AcDbLine
 62
7
  6
CONTINUOUS
 10
-35.5828803623
 20
-18.8609487226
 11
-35.5828803623
 21
-19.0599883728
  0
LINE
  5
49B
100
AcDbEntity
  8
DRAFT
100
AcDbLine
 62
7
  6
CONTINUOUS
 10
-35.5654252973
 20
18.2390512774
 11
-35.5654252973
 21
14.1093799269
  0
LINE
  5
49C
100
AcDbEntity
  8
DRAFT
100
AcDbLine
 62
7
  6
CONTINUOUS
 10
-35.5654252973
 20
13.1687226278
 11
-35.5654252973
 21
9.0390512774
  0
LINE
  5
49D
100
AcDbEntity
  8
DRAFT
100
AcDbLine
 62
7
  6
CONTINUOUS
 10
-35.5654252973
 20
8.2390512774
 11
-35.5654252973
 21
4.0390512774
  0
LINE
  5
49E
100
AcDbEntity
  8
DRAFT
100
AcDbLine
 62
7
  6
CONTINUOUS
 10
-35.5654252973
 20
3.2390512774
 11
-35.5654252973
 21
-0.9609487226
  0
LINE
  5
49F
100
AcDbEntity
  8
DRAFT
100
AcDbLine
 62
7
  6
CONTINUOUS
 10
-35.5654252973
 20
-1.7609487226
 11
-35.5654252973
 21
-5.9609487226
  0
LINE
  5
4A0
100
AcDbEntity
  8
DRAFT
100
AcDbLine
 62
7
  6
CONTINUOUS
 10
-35.5654252973
 20
-6.7609487226
 11
-35.5654252973
 21
-10.8906200731
  0
LINE
  5
4A1
100
AcDbEntity
  8
ASSI
100
AcDbLine
 62
253
  6
CONTINUOUS
 10
-35.4740261447
 20
-16.3705667967
 11
-35.4740261447
 21
-10.9609487226
  0
LINE
  5
4A2
100
AcDbEntity
  8
ASSI
100
AcDbLine
 62
253
  6
CONTINUOUS
 10
-35.4740261447
 20
-6.7609487226
 11
-35.4740261447
 21
-5.9609487226
  0
LINE
  5
4A3
100
AcDbEntity
  8
ASSI
100
AcDbLine
 62
253
  6
CONTINUOUS
 10
-35.4740261447
 20
-1.7609487226
 11
-35.4740261447
 21
-0.9609487226
  0
LINE
  5
4A4
100
AcDbEntity
  8
ASSI
100
AcDbLine
 62
253
  6
CONTINUOUS
 10
-35.4740261447
 20
3.2390512774
 11
-35.4740261447
 21
4.0390512774
  0
LINE
  5
4A5
100
AcDbEntity
  8
ASSI
100
AcDbLine
 62
253
  6
CONTINUOUS
 10
-35.4740261447
 20
8.2390512774
 11
-35.4740261447
 21
9.0390512774
  0
LINE
  5
4A6
100
AcDbEntity
  8
ASSI
100
AcDbLine
 62
253
  6
CONTINUOUS
 10
-35.4740261447
 20
13.2390512774
 11
-35.4740261447
 21
14.0390512774
  0
LINE
  5
4A7
100
AcDbEntity
  8
ASSI
100
AcDbLine
 62
253
  6
CONTINUOUS
 10
-35.4740261447
 20
18.2390512774
 11
-35.4740261447
 21
18.6486693514
  0
LINE
  5
4A8
100
AcDbEntity
  8
SUPERFICI
100
AcDbLine
 62
253
  6
CONTINUOUS
 10
-35.3372479655
 20
-22.488779939
 11
-35.3372479655
 21
-23.3565768886
  0
LINE
  5
4A9
100
AcDbEntity
  8
SUPERFICI
100
AcDbLine
 62
253
  6
CONTINUOUS
 10
-35.3372479655
 20
24.7668824937
 11
-35.3372479655
 21
25.6346794434
  0
LINE
  5
4AA
100
AcDbEntity
  8
SUPERFICI
100
AcDbLine
 62
7
  6
CONTINUOUS
 10
-35.0872521963
 20
-23.1065811194
 11
-35.0872521963
 21
-22.7052862899
  0
LINE
  5
4AB
100
AcDbEntity
  8
SUPERFICI
100
AcDbLine
 62
7
  6
CONTINUOUS
 10
-35.0872521963
 20
24.9833888447
 11
-35.0872521963
 21
25.3846836741
  0
LINE
  5
4AC
100
AcDbEntity
  8
SUPERFICI
100
AcDbLine
 62
7
  6
CONTINUOUS
 10
-35.0828803623
 20
-21.2609487226
 11
-35.0828803623
 21
-22.7052862899
  0
LINE
  5
4AD
100
AcDbEntity
  8
SUPERFICI
100
AcDbLine
 62
7
  6
CONTINUOUS
 10
-35.0828803623
 20
23.5390512774
 11
-35.0828803623
 21
24.9833888447
  0
LINE
  5
4AE
100
AcDbEntity
  8
SUPERFICI
100
AcDbLine
 62
253
  6
CONTINUOUS
 10
-35.3321573644
 20
-21.9835984535
 11
-35.3372479655
 21
-22.488779939
  0
LINE
  5
4AF
100
AcDbEntity
  8
SUPERFICI
100
AcDbLine
 62
253
  6
CONTINUOUS
 10
-35.0828803623
 20
-22.2714338709
 11
-35.0872521963
 21
-22.7052862899
  0
LINE
  5
4B0
100
AcDbEntity
  8
0
100
AcDbLine
 62
253
  6
CONTINUOUS
 10
-34.206815311
 20
17.1390512774
 11
-34.2217745164
 21
16.7104798296
  0
LINE
  5
4B1
100
AcDbEntity
  8
INCISIONI
100
AcDbLine
 62
253
  6
CONTINUOUS
 10
-34.1787435516
 20
12.1791562774
 11
-34.1457038665
 21
12.8892132774
  0
LINE
  5
4B2
100
AcDbEntity
  8
INCISIONI
100
AcDbLine
 62
253
  6
CONTINUOUS
 10
-34.1281453364
 20
12.7322852774
 11
-34.1562376165
 21
12.1334062774
  0
LINE
  5
4B3
100
AcDbEntity
  8
SUPERFICI
100
AcDbLine
 62
7
  6
CONTINUOUS
 10
-34.0828803623
 20
19.6390512774
 11
-34.1003340979
 21
19.2863973159
  0
LINE
  5
4B4
100
AcDbEntity
  8
INCISIONI
100
AcDbLine
 62
253
  6
CONTINUOUS
 10
-34.1787435516
 20
16.2200642774
 11
-34.1281453364
 21
17.1393112774
  0
LINE
  5
4B5
100
AcDbEntity
  8
INCISIONI
100
AcDbLine
 62
253
  6
CONTINUOUS
 10
-34.1281453364
 20
9.0680412774
 11
-34.1787435516
 21
8.1783552774
  0
LINE
  5
4B6
100
AcDbEntity
  8
0
100
AcDbLine
 62
253
  6
CONTINUOUS
 10
-34.206815311
 20
15.4247654864
 11
-34.2329939207
 21
14.9961940834
  0
LINE
  5
4B7
100
AcDbEntity
  8
INCISIONI
100
AcDbLine
 62
253
  6
CONTINUOUS
 10
-34.1281453364
 20
16.4817992774
 11
-34.1629736556
 21
15.9290722774
  0
LINE
  5
4B8
100
AcDbEntity
  8
INCISIONI
100
AcDbLine
 62
253
  6
CONTINUOUS
 10
-34.1787435516
 20
8.8162862774
 11
-34.168642346
 21
8.9730842774
  0
LINE
  5
4B9
100
AcDbEntity
  8
INCISIONI
100
AcDbLine
 62
253
  6
CONTINUOUS
 10
-34.1608260802
 20
9.0940472774
 11
-34.1420484409
 21
9.3721772774
  0
LINE
  5
4BA
100
AcDbEntity
  8
DRAFT
100
AcDbLine
 62
7
  6
CONTINUOUS
 10
-37.9328803623
 20
-19.7609487226
 11
-37.8708707829
 21
-19.3885603211
  0
LINE
  5
4BB
100
AcDbEntity
  8
INCISIONI
100
AcDbLine
 62
253
  6
CONTINUOUS
 10
-34.1281453364
 20
10.9292782774
 11
-34.1787435516
 21
10.6581282774
  0
LINE
  5
4BC
100
AcDbEntity
  8
INCISIONI
100
AcDbLine
 62
253
  6
CONTINUOUS
 10
-34.1787435516
 20
11.2502442774
 11
-34.1458415974
 21
11.3745992774
  0
LINE
  5
4BD
100
AcDbEntity
  8
0
100
AcDbLine
 62
253
  6
CONTINUOUS
 10
-37.2328803623
 20
-3.4799963644
 11
-37.5185946608
 21
-3.7657105139
  0
LINE
  5
4BE
100
AcDbEntity
  8
DRAFT
100
AcDbLine
 62
7
  6
CONTINUOUS
 10
-51.828875908
 20
-18.6569442683
 11
-51.7328803623
 21
-18.5609487226
  0
LINE
  5
4BF
100
AcDbEntity
  8
0
100
AcDbLine
 62
253
  6
CONTINUOUS
 10
-39.2328803623
 20
-6.2895201853
 11
-38.9471660936
 21
-6.0038060358
  0
LINE
  5
4C0
100
AcDbEntity
  8
DRAFT
100
AcDbLine
 62
7
  6
CONTINUOUS
 10
-51.6701400329
 20
-18.7982083932
 11
-51.828875908
 21
-18.9569442683
  0
LINE
  5
4C1
100
AcDbEntity
  8
0
100
AcDbLine
 62
253
  6
CONTINUOUS
 10
-43.7328803623
 20
8.6390512774
 11
-36.7328803623
 21
8.6390512774
  0
LINE
  5
4C2
100
AcDbEntity
  8
SMUSSO
100
AcDbLine
 62
7
  6
CONTINUOUS
 10
-44.6555300931
 20
8.9117010082
 11
-52.8102306315
 21
8.9117010082
  0
LINE
  5
4C3
100
AcDbEntity
  8
ASSI
100
AcDbLine
 62
7
  6
CONTINUOUS
 10
-44.6555300931
 20
8.9117010082
 11
-52.8102306315
 21
8.9117010082
  0
LINE
  5
4C4
100
AcDbEntity
  8
ASSI
100
AcDbLine
 62
7
  6
CONTINUOUS
 10
-34.3604158946
 20
9.0390512774
 11
-35.8828803623
 21
9.0390512774
  0
LINE
  5
4C5
100
AcDbEntity
  8
0
100
AcDbLine
 62
253
  6
CONTINUOUS
 10
-34.2329939207
 20
9.2461942026
 11
-34.206815311
 21
9.2461942026
  0
LINE
  5
4C6
100
AcDbEntity
  8
SMUSSO
100
AcDbLine
 62
7
  6
CONTINUOUS
 10
-45.2328803623
 20
9.4890512774
 11
-52.2328803623
 21
9.4890512774
  0
LINE
  5
4C7
100
AcDbEntity
  8
ASSI
100
AcDbLine
 62
7
  6
CONTINUOUS
 10
-45.2328803623
 20
9.4890512774
 11
-52.2328803623
 21
9.4890512774
  0
LINE
  5
4C8
100
AcDbEntity
  8
0
100
AcDbLine
 62
7
  6
CONTINUOUS
 10
-45.2328803623
 20
9.6270512774
 11
-52.2328803623
 21
9.6270512774
  0
LINE
  5
4C9
100
AcDbEntity
  8
0
100
AcDbLine
 62
253
  6
CONTINUOUS
 10
-34.2329939207
 20
9.9961942026
 11
-34.206815311
 21
9.9961942026
  0
LINE
  5
4CA
100
AcDbEntity
  8
0
100
AcDbLine
 62
253
  6
CONTINUOUS
 10
-37.2328803623
 20
10.06762274
 11
-39.2328803623
 21
10.06762274
  0
LINE
  5
4CB
100
AcDbEntity
  8
0
100
AcDbLine
 62
253
  6
CONTINUOUS
 10
-34.2329939207
 20
10.6747659037
 11
-34.206815311
 21
10.6747659037
  0
LINE
  5
4CC
100
AcDbEntity
  8
0
100
AcDbLine
 62
253
  6
CONTINUOUS
 10
-38.9471660936
 20
11.06762274
 11
-38.3757375562
 21
11.06762274
  0
LINE
  5
4CD
100
AcDbEntity
  8
0
100
AcDbLine
 62
253
  6
CONTINUOUS
 10
-43.4828803623
 20
11.1390512774
 11
-40.9828803623
 21
11.1390512774
  0
LINE
  5
4CE
100
AcDbEntity
  8
DRAFT
100
AcDbLine
 62
7
  6
CONTINUOUS
 10
-51.828875908
 20
20.9350468231
 11
-51.7328803623
 21
20.8390512774
  0
LINE
  5
4CF
100
AcDbEntity
  8
SMUSSO
100
AcDbLine
 62
7
  6
CONTINUOUS
 10
-45.2328803623
 20
14.4890512774
 11
-44.6555300931
 21
13.9117010082
  0
LINE
  5
4D0
100
AcDbEntity
  8
ASSI
100
AcDbLine
 62
7
  6
CONTINUOUS
 10
-45.2328803623
 20
14.4890512774
 11
-44.6555300931
 21
13.9117010082
  0
LINE
  5
4D1
100
AcDbEntity
  8
DRAFT
100
AcDbLine
 62
7
  6
CONTINUOUS
 10
-51.828875908
 20
21.2350468231
 11
-51.6701400329
 21
21.0763109479
  0
LINE
  5
4D2
100
AcDbEntity
  8
DRAFT
100
AcDbLine
 62
7
  6
CONTINUOUS
 10
-37.8708707829
 20
21.6666628758
 11
-37.9328803623
 21
22.0390512774
  0
LINE
  5
4D3
100
AcDbEntity
  8
SUPERFICI
100
AcDbLine
 62
7
  6
CONTINUOUS
 10
-34.0828803623
 20
19.6390512774
 11
-34.0479702324
 21
19.2863973159
  0
LINE
  5
4D4
100
AcDbEntity
  8
INCISIONI
100
AcDbLine
 62
253
  6
CONTINUOUS
 10
-34.1420484409
 20
9.3721772774
 11
-34.1608260802
 21
9.6735512774
  0
LINE
  5
4D5
100
AcDbEntity
  8
INCISIONI
100
AcDbLine
 62
253
  6
CONTINUOUS
 10
-34.1629736556
 20
15.9290722774
 11
-34.1281453364
 21
15.3594612774
  0
LINE
  5
4D6
100
AcDbEntity
  8
0
100
AcDbLine
 62
253
  6
CONTINUOUS
 10
-34.2329939207
 20
5.3890510389
 11
-34.206815311
 21
4.96048053
  0
LINE
  5
4D7
100
AcDbEntity
  8
0
100
AcDbLine
 62
253
  6
CONTINUOUS
 10
-34.2329939207
 20
15.8533369789
 11
-34.206815311
 21
15.4247654864
  0
LINE
  5
4D8
100
AcDbEntity
  8
INCISIONI
100
AcDbLine
 62
253
  6
CONTINUOUS
 10
-34.168642346
 20
9.7973632774
 11
-34.1787435516
 21
9.9643802774
  0
LINE
  5
4D9
100
AcDbEntity
  8
INCISIONI
100
AcDbLine
 62
253
  6
CONTINUOUS
 10
-34.1787435516
 20
10.5630842774
 11
-34.1281453364
 21
9.6535682774
  0
LINE
  5
4DA
100
AcDbEntity
  8
INCISIONI
100
AcDbLine
 62
253
  6
CONTINUOUS
 10
-34.1281453364
 20
14.7546032774
 11
-34.1787435516
 21
15.6866682774
  0
LINE
  5
4DB
100
AcDbEntity
  8
INCISIONI
100
AcDbLine
 62
253
  6
CONTINUOUS
 10
-34.1562376165
 20
12.1334062774
 11
-34.1281453364
 21
11.5281352774
  0
LINE
  5
4DC
100
AcDbEntity
  8
INCISIONI
100
AcDbLine
 62
253
  6
CONTINUOUS
 10
-34.1458415974
 20
11.3745992774
 11
-34.1787435516
 21
12.0942672774
  0
LINE
  5
4DD
100
AcDbEntity
  8
0
100
AcDbLine
 62
253
  6
CONTINUOUS
 10
-34.2217745164
 20
16.7104798296
 11
-34.206815311
 21
16.2819083819
  0
LINE
  5
4DE
100
AcDbEntity
  8
INCISIONI
100
AcDbLine
 62
253
  6
CONTINUOUS
 10
-34.1998343484
 20
-8.6323773062
 11
-34.2069399716
 21
-8.3609487226
  0
LINE
  5
4DF
100
AcDbEntity
  8
0
100
AcDbLine
 62
253
  6
CONTINUOUS
 10
-34.2180347145
 20
2.71048053
 11
-34.206815311
 21
2.2819078753
  0
LINE
  5
4E0
100
AcDbEntity
  8
INCISIONI
100
AcDbLine
 62
253
  6
CONTINUOUS
 10
-34.2329939207
 20
-8.3609487226
 11
-34.2093085114
 21
-9.3109487226
  0
LINE
  5
4E1
100
AcDbEntity
  8
INCISIONI
100
AcDbLine
 62
253
  6
CONTINUOUS
 10
-34.2329939207
 20
-14.6038060596
 11
-34.2282568387
 21
-14.8752345016
  0
LINE
  5
4E2
100
AcDbEntity
  8
INCISIONI
100
AcDbLine
 62
253
  6
CONTINUOUS
 10
-34.2329939207
 20
-13.3823771646
 11
-34.2306253797
 21
-13.5180913856
  0
LINE
  5
4E3
100
AcDbEntity
  8
INCISIONI
100
AcDbLine
 62
253
  6
CONTINUOUS
 10
-34.2329939207
 20
-12.0252345016
 11
-34.2306253797
 21
-12.1609487226
  0
LINE
  5
4E4
100
AcDbEntity
  8
INCISIONI
100
AcDbLine
 62
253
  6
CONTINUOUS
 10
-34.2282568387
 20
-10.6680916121
 11
-34.2329939207
 21
-10.3966629436
  0
LINE
  5
4E5
100
AcDbEntity
  8
INCISIONI
100
AcDbLine
 62
253
  6
CONTINUOUS
 10
-34.2045714299
 20
-9.9895201674
 11
-34.1998343484
 21
-10.2609487226
  0
LINE
  5
4E6
100
AcDbEntity
  8
0
100
AcDbLine
 62
253
  6
CONTINUOUS
 10
-34.2292541191
 20
13.8176228592
 11
-34.2329939207
 21
14.0319084713
  0
LINE
  5
4E7
100
AcDbEntity
  8
INCISIONI
100
AcDbLine
 62
253
  6
CONTINUOUS
 10
-34.1503401774
 20
-7.2325237226
 11
-34.128283521
 21
-8.5177847226
  0
LINE
  5
4E8
100
AcDbEntity
  8
INCISIONI
100
AcDbLine
 62
253
  6
CONTINUOUS
 10
-34.128283521
 20
-9.2119987226
 11
-34.1491001983
 21
-7.9651687226
  0
LINE
  5
4E9
100
AcDbEntity
  8
INCISIONI
100
AcDbLine
 62
253
  6
CONTINUOUS
 10
-34.1553143154
 20
-7.6027677226
 11
-34.1613396437
 21
-7.2325237226
  0
LINE
  5
4EA
100
AcDbEntity
  8
INCISIONI
100
AcDbLine
 62
253
  6
CONTINUOUS
 10
-34.2140455928
 20
-13.2466629436
 11
-34.2116770531
 21
-13.472853463
  0
LINE
  5
4EB
100
AcDbEntity
  8
INCISIONI
100
AcDbLine
 62
253
  6
CONTINUOUS
 10
-34.2140455928
 20
-11.8895200541
 11
-34.2116770531
 21
-12.1157105735
  0
LINE
  5
4EC
100
AcDbEntity
  8
ASSI
100
AcDbLine
 62
253
  6
CONTINUOUS
 10
-34.4741784496
 20
-16.3705644493
 11
-34.4741784496
 21
-10.9609487226
  0
LINE
  5
4ED
100
AcDbEntity
  8
ASSI
100
AcDbLine
 62
253
  6
CONTINUOUS
 10
-34.4741784496
 20
-6.7609487226
 11
-34.4741784496
 21
-5.9609487226
  0
LINE
  5
4EE
100
AcDbEntity
  8
ASSI
100
AcDbLine
 62
253
  6
CONTINUOUS
 10
-34.4741784496
 20
-1.7609487226
 11
-34.4741784496
 21
-0.9609487226
  0
LINE
  5
4EF
100
AcDbEntity
  8
ASSI
100
AcDbLine
 62
253
  6
CONTINUOUS
 10
-34.4741784496
 20
3.2390512774
 11
-34.4741784496
 21
4.0390512774
  0
LINE
  5
4F0
100
AcDbEntity
  8
ASSI
100
AcDbLine
 62
253
  6
CONTINUOUS
 10
-34.4741784496
 20
8.2390512774
 11
-34.4741784496
 21
9.0390512774
  0
LINE
  5
4F1
100
AcDbEntity
  8
ASSI
100
AcDbLine
 62
253
  6
CONTINUOUS
 10
-34.4741784496
 20
13.2390512774
 11
-34.4741784496
 21
14.0390512774
  0
LINE
  5
4F2
100
AcDbEntity
  8
ASSI
100
AcDbLine
 62
253
  6
CONTINUOUS
 10
-34.4741784496
 20
18.2390512774
 11
-34.4741784496
 21
18.648667004
  0
LINE
  5
4F3
100
AcDbEntity
  8
0
100
AcDbLine
 62
253
  6
CONTINUOUS
 10
-34.2329939207
 20
13.2104798147
 11
-34.2329939207
 21
12.5676226208
  0
LINE
  5
4F4
100
AcDbEntity
  8
0
100
AcDbLine
 62
253
  6
CONTINUOUS
 10
-34.2329939207
 20
4.103336651
 11
-34.2329939207
 21
3.5676229784
  0
LINE
  5
4F5
100
AcDbEntity
  8
INCISIONI
100
AcDbLine
 62
253
  6
CONTINUOUS
 10
-34.2329939207
 20
-11.3466629436
 11
-34.2329939207
 21
-12.0252345016
  0
LINE
  5
4F6
100
AcDbEntity
  8
INCISIONI
100
AcDbLine
 62
253
  6
CONTINUOUS
 10
-34.2329939207
 20
-12.7038060596
 11
-34.2329939207
 21
-13.3823771646
  0
LINE
  5
4F7
100
AcDbEntity
  8
INCISIONI
100
AcDbLine
 62
253
  6
CONTINUOUS
 10
-34.2329939207
 20
-14.0609487226
 11
-34.2329939207
 21
-14.6038060596
  0
LINE
  5
4F8
100
AcDbEntity
  8
INCISIONI
100
AcDbLine
 62
253
  6
CONTINUOUS
 10
-34.2329939207
 20
-10.3966629436
 11
-34.2329939207
 21
-10.2609487226
  0
LINE
  5
4F9
100
AcDbEntity
  8
INCISIONI
100
AcDbLine
 62
253
  6
CONTINUOUS
 10
-34.2329939207
 20
-9.3109487226
 11
-34.2329939207
 21
-8.3609487226
  0
LINE
  5
4FA
100
AcDbEntity
  8
0
100
AcDbLine
 62
253
  6
CONTINUOUS
 10
-34.2329939207
 20
14.0319084713
 11
-34.2329939207
 21
14.5676226804
  0
LINE
  5
4FB
100
AcDbEntity
  8
0
100
AcDbLine
 62
253
  6
CONTINUOUS
 10
-34.2255143176
 20
15.7104798445
 11
-34.2255143176
 21
15.1390512178
  0
LINE
  5
4FC
100
AcDbEntity
  8
0
100
AcDbLine
 62
253
  6
CONTINUOUS
 10
-34.2255143176
 20
5.246194441
 11
-34.2255143176
 21
4.6747659037
  0
LINE
  5
4FD
100
AcDbEntity
  8
0
100
AcDbLine
 62
253
  6
CONTINUOUS
 10
-34.2180347145
 20
12.7819085905
 11
-34.2180347145
 21
13.2104798147
  0
LINE
  5
4FE
100
AcDbEntity
  8
INCISIONI
100
AcDbLine
 62
253
  6
CONTINUOUS
 10
-34.2140455928
 20
-14.6038060596
 11
-34.2140455928
 21
-14.0609487226
  0
LINE
  5
4FF
100
AcDbEntity
  8
INCISIONI
100
AcDbLine
 62
253
  6
CONTINUOUS
 10
-34.2140455928
 20
-13.2466629436
 11
-34.2140455928
 21
-12.9752345016
  0
LINE
  5
500
100
AcDbEntity
  8
INCISIONI
100
AcDbLine
 62
253
  6
CONTINUOUS
 10
-34.2140455928
 20
-11.8895200541
 11
-34.2140455928
 21
-11.6180916121
  0
LINE
  5
501
100
AcDbEntity
  8
0
100
AcDbLine
 62
253
  6
CONTINUOUS
 10
-34.206815311
 20
14.5676226804
 11
-34.206815311
 21
14.0319084713
  0
LINE
  5
502
100
AcDbEntity
  8
0
100
AcDbLine
 62
253
  6
CONTINUOUS
 10
-34.206815311
 20
13.2104798147
 11
-34.206815311
 21
12.5676226208
  0
LINE
  5
503
100
AcDbEntity
  8
0
100
AcDbLine
 62
253
  6
CONTINUOUS
 10
-34.206815311
 20
6.6747654268
 11
-34.206815311
 21
5.8176229784
  0
LINE
  5
504
100
AcDbEntity
  8
INCISIONI
100
AcDbLine
 62
253
  6
CONTINUOUS
 10
-34.1998343484
 20
-10.2609487226
 11
-34.1998343484
 21
-10.3966629436
  0
LINE
  5
505
100
AcDbEntity
  8
INCISIONI
100
AcDbLine
 62
253
  6
CONTINUOUS
 10
-34.1998343484
 20
-14.0609487226
 11
-34.1998343484
 21
-14.8752345016
  0
LINE
  5
506
100
AcDbEntity
  8
INCISIONI
100
AcDbLine
 62
253
  6
CONTINUOUS
 10
-34.1998343484
 20
-13.2466629436
 11
-34.1998343484
 21
-12.7038060596
  0
LINE
  5
507
100
AcDbEntity
  8
INCISIONI
100
AcDbLine
 62
253
  6
CONTINUOUS
 10
-34.1998343484
 20
-11.8895200541
 11
-34.1998343484
 21
-11.3466629436
  0
LINE
  5
508
100
AcDbEntity
  8
INCISIONI
100
AcDbLine
 62
253
  6
CONTINUOUS
 10
-34.1998343484
 20
-9.0395201674
 11
-34.1998343484
 21
-8.6323773062
  0
LINE
  5
509
100
AcDbEntity
  8
INCISIONI
100
AcDbLine
 62
253
  6
CONTINUOUS
 10
-34.1788719817
 20
-14.8623857226
 11
-34.1788719817
 21
-14.3450267226
  0
LINE
  5
50A
100
AcDbEntity
  8
INCISIONI
100
AcDbLine
 62
253
  6
CONTINUOUS
 10
-34.1788719817
 20
-13.0195807226
 11
-34.1788719817
 21
-12.5211587226
  0
LINE
  5
50B
100
AcDbEntity
  8
INCISIONI
100
AcDbLine
 62
253
  6
CONTINUOUS
 10
-34.1788719817
 20
-9.2188327226
 11
-34.1788719817
 21
-8.5675297226
  0
LINE
  5
50C
100
AcDbEntity
  8
INCISIONI
100
AcDbLine
 62
253
  6
CONTINUOUS
 10
-34.1788719817
 20
-7.2325337226
 11
-34.1788719817
 21
-6.7147867226
  0
LINE
  5
50D
100
AcDbEntity
  8
INCISIONI
100
AcDbLine
 62
253
  6
CONTINUOUS
 10
-34.1788719817
 20
-6.0990557226
 11
-34.1788719817
 21
-5.5812867226
  0
LINE
  5
50E
100
AcDbEntity
  8
INCISIONI
100
AcDbLine
 62
253
  6
CONTINUOUS
 10
-34.1788719817
 20
-4.9586147226
 11
-34.1788719817
 21
-2.8980427226
  0
LINE
  5
50F
100
AcDbEntity
  8
INCISIONI
100
AcDbLine
 62
253
  6
CONTINUOUS
 10
-34.1787435516
 20
14.5299862774
 11
-34.1787435516
 21
13.9247152774
  0
LINE
  5
510
100
AcDbEntity
  8
INCISIONI
100
AcDbLine
 62
253
  6
CONTINUOUS
 10
-34.1787435577
 20
8.0006186217
 11
-34.1787435577
 21
7.3977826606
  0
LINE
  5
511
100
AcDbEntity
  8
INCISIONI
100
AcDbLine
 62
253
  6
CONTINUOUS
 10
-34.1787435577
 20
6.4708930157
 11
-34.1787435577
 21
5.8886922922
  0
LINE
  5
512
100
AcDbEntity
  8
INCISIONI
100
AcDbLine
 62
253
  6
CONTINUOUS
 10
-34.1787435516
 20
8.1783552774
 11
-34.1787435516
 21
8.8162862774
  0
LINE
  5
513
100
AcDbEntity
  8
INCISIONI
100
AcDbLine
 62
253
  6
CONTINUOUS
 10
-34.1787435516
 20
9.9643802774
 11
-34.1787435516
 21
10.5630842774
  0
LINE
  5
514
100
AcDbEntity
  8
INCISIONI
100
AcDbLine
 62
253
  6
CONTINUOUS
 10
-34.1787435516
 20
10.6581282774
 11
-34.1787435516
 21
11.2502442774
  0
LINE
  5
515
100
AcDbEntity
  8
INCISIONI
100
AcDbLine
 62
253
  6
CONTINUOUS
 10
-34.1787435516
 20
12.0942672774
 11
-34.1787435516
 21
12.1791562774
  0
LINE
  5
516
100
AcDbEntity
  8
INCISIONI
100
AcDbLine
 62
253
  6
CONTINUOUS
 10
-34.1787435516
 20
13.0198302774
 11
-34.1787435516
 21
13.5988782774
  0
LINE
  5
517
100
AcDbEntity
  8
INCISIONI
100
AcDbLine
 62
253
  6
CONTINUOUS
 10
-34.1787435516
 20
15.6866682774
 11
-34.1787435516
 21
16.2200642774
  0
LINE
  5
518
100
AcDbEntity
  8
INCISIONI
100
AcDbLine
 62
253
  6
CONTINUOUS
 10
-34.1708432827
 20
-3.4157807226
 11
-34.1708430035
 21
-4.9586147226
  0
LINE
  5
519
100
AcDbEntity
  8
INCISIONI
100
AcDbLine
 62
253
  6
CONTINUOUS
 10
-34.168642346
 20
8.9730842774
 11
-34.168642346
 21
9.7973632774
  0
LINE
  5
51A
100
AcDbEntity
  8
INCISIONI
100
AcDbLine
 62
253
  6
CONTINUOUS
 10
-34.1608260802
 20
9.6735512774
 11
-34.1608260802
 21
9.0940472774
  0
LINE
  5
51B
100
AcDbEntity
  8
INCISIONI
100
AcDbLine
 62
253
  6
CONTINUOUS
 10
-34.1589422095
 20
7.3977826606
 11
-34.1589422095
 21
7.0732506046
  0
LINE
  5
51C
100
AcDbEntity
  8
INCISIONI
100
AcDbLine
 62
253
  6
CONTINUOUS
 10
-34.1569207218
 20
-4.8430757226
 11
-34.1569208963
 21
-3.4157807226
  0
LINE
  5
51D
100
AcDbEntity
  8
INCISIONI
100
AcDbLine
 62
253
  6
CONTINUOUS
 10
-34.1506554437
 20
7.0719459531
 11
-34.1506554437
 21
7.4178525492
  0
LINE
  5
51E
100
AcDbEntity
  8
INCISIONI
100
AcDbLine
 62
253
  6
CONTINUOUS
 10
-34.1488913946
 20
-3.4157807226
 11
-34.1488915691
 21
-4.8430757226
  0
LINE
  5
51F
100
AcDbEntity
  8
INCISIONI
100
AcDbLine
 62
253
  6
CONTINUOUS
 10
-34.1363124992
 20
-4.9469617226
 11
-34.1363123945
 21
-3.4157807226
  0
LINE
  5
520
100
AcDbEntity
  8
INCISIONI
100
AcDbLine
 62
253
  6
CONTINUOUS
 10
-34.128283521
 20
-2.8980427226
 11
-34.128283521
 21
-4.9469617226
  0
LINE
  5
521
100
AcDbEntity
  8
INCISIONI
100
AcDbLine
 62
253
  6
CONTINUOUS
 10
-34.128283521
 20
-5.5812867226
 11
-34.128283521
 21
-6.0990557226
  0
LINE
  5
522
100
AcDbEntity
  8
INCISIONI
100
AcDbLine
 62
253
  6
CONTINUOUS
 10
-34.128283521
 20
-6.7147867226
 11
-34.128283521
 21
-7.2325337226
  0
LINE
  5
523
100
AcDbEntity
  8
INCISIONI
100
AcDbLine
 62
253
  6
CONTINUOUS
 10
-34.128283521
 20
-8.5177847226
 11
-34.128283521
 21
-9.2119987226
  0
LINE
  5
524
100
AcDbEntity
  8
INCISIONI
100
AcDbLine
 62
253
  6
CONTINUOUS
 10
-34.128283521
 20
-12.5211587226
 11
-34.128283521
 21
-13.0270497226
  0
LINE
  5
525
100
AcDbEntity
  8
INCISIONI
100
AcDbLine
 62
253
  6
CONTINUOUS
 10
-34.128283521
 20
-14.3639577226
 11
-34.128283521
 21
-14.8623857226
  0
LINE
  5
526
100
AcDbEntity
  8
INCISIONI
100
AcDbLine
 62
253
  6
CONTINUOUS
 10
-34.1281453364
 20
17.1393112774
 11
-34.1281453364
 21
16.4817992774
  0
LINE
  5
527
100
AcDbEntity
  8
INCISIONI
100
AcDbLine
 62
253
  6
CONTINUOUS
 10
-34.1281453364
 20
15.3594612774
 11
-34.1281453364
 21
14.7546032774
  0
LINE
  5
528
100
AcDbEntity
  8
INCISIONI
100
AcDbLine
 62
253
  6
CONTINUOUS
 10
-34.1281453364
 20
13.3370562774
 11
-34.1281453364
 21
12.7322852774
  0
LINE
  5
529
100
AcDbEntity
  8
INCISIONI
100
AcDbLine
 62
253
  6
CONTINUOUS
 10
-34.1281453364
 20
11.5281352774
 11
-34.1281453364
 21
10.9292782774
  0
LINE
  5
52A
100
AcDbEntity
  8
INCISIONI
100
AcDbLine
 62
253
  6
CONTINUOUS
 10
-34.1281453364
 20
9.6535682774
 11
-34.1281453364
 21
9.0680412774
  0
LINE
  5
52B
100
AcDbEntity
  8
INCISIONI
100
AcDbLine
 62
253
  6
CONTINUOUS
 10
-34.1281423002
 20
13.9247152774
 11
-34.1281423002
 21
14.5299862774
  0
LINE
  5
52C
100
AcDbEntity
  8
DRAFT
100
AcDbLine
 62
7
  6
CONTINUOUS
 10
-34.1003340979
 20
-17.3537172687
 11
-34.1003340979
 21
-17.0082947612
  0
LINE
  5
52D
100
AcDbEntity
  8
DRAFT
100
AcDbLine
 62
7
  6
CONTINUOUS
 10
-34.1003340979
 20
19.2863973159
 11
-34.1003340979
 21
19.6318198234
  0
LINE
  5
52E
100
AcDbEntity
  8
DRAFT
100
AcDbLine
 62
7
  6
CONTINUOUS
 10
-34.0916072301
 20
23.0332503706
 11
-34.0916072301
 21
19.6477781451
  0
LINE
  5
52F
100
AcDbEntity
  8
DRAFT
100
AcDbLine
 62
7
  6
CONTINUOUS
 10
-34.0916072301
 20
-17.3696755904
 11
-34.0916072301
 21
-20.7551478159
  0
LINE
  5
530
100
AcDbEntity
  8
SUPERFICI
100
AcDbLine
 62
7
  6
CONTINUOUS
 10
-34.0828803623
 20
23.0390682004
 11
-34.0828803623
 21
19.6390512774
  0
LINE
  5
531
100
AcDbEntity
  8
SUPERFICI
100
AcDbLine
 62
7
  6
CONTINUOUS
 10
-34.0828803623
 20
-20.7609656457
 11
-34.0828803623
 21
-17.3609487226
  0
LINE
  5
532
100
AcDbEntity
  8
RACCORDO
100
AcDbLine
 62
7
  6
CONTINUOUS
 10
-34.0828803623
 20
-16.5326477714
 11
-34.0828803623
 21
18.8107503261
  0
LINE
  5
533
100
AcDbEntity
  8
ASSI
100
AcDbLine
 62
7
  6
CONTINUOUS
 10
-34.0828803623
 20
-16.5326477714
 11
-34.0828803623
 21
18.8107503261
  0
LINE
  5
534
100
AcDbEntity
  8
SUPERFICI
100
AcDbLine
 62
7
  6
CONTINUOUS
 10
-34.0479702324
 20
-17.0082947612
 11
-34.0479702324
 21
19.2863973159
  0
LINE
  5
535
100
AcDbEntity
  8
0
100
AcDbLine
 62
253
  6
CONTINUOUS
 10
-34.206815311
 20
14.0319084713
 11
-34.2105551122
 21
13.8176228592
  0
LINE
  5
536
100
AcDbEntity
  8
INCISIONI
100
AcDbLine
 62
253
  6
CONTINUOUS
 10
-34.2329939207
 20
-10.2609487226
 11
-34.2282568387
 21
-9.9895201674
  0
LINE
  5
537
100
AcDbEntity
  8
INCISIONI
100
AcDbLine
 62
253
  6
CONTINUOUS
 10
-34.2045714299
 20
-9.3109487226
 11
-34.1998343484
 21
-9.0395201674
  0
LINE
  5
538
100
AcDbEntity
  8
INCISIONI
100
AcDbLine
 62
253
  6
CONTINUOUS
 10
-34.1998343484
 20
-10.3966629436
 11
-34.2045714299
 21
-10.6680916121
  0
LINE
  5
539
100
AcDbEntity
  8
INCISIONI
100
AcDbLine
 62
253
  6
CONTINUOUS
 10
-34.2187826753
 20
-12.1609487226
 11
-34.2140455928
 21
-11.8895200541
  0
LINE
  5
53A
100
AcDbEntity
  8
INCISIONI
100
AcDbLine
 62
253
  6
CONTINUOUS
 10
-34.2187826753
 20
-13.5180913856
 11
-34.2140455928
 21
-13.2466629436
  0
LINE
  5
53B
100
AcDbEntity
  8
INCISIONI
100
AcDbLine
 62
253
  6
CONTINUOUS
 10
-34.2187826753
 20
-14.8752345016
 11
-34.2140455928
 21
-14.6038060596
  0
LINE
  5
53C
100
AcDbEntity
  8
INCISIONI
100
AcDbLine
 62
253
  6
CONTINUOUS
 10
-34.2045714299
 20
-12.1157105735
 11
-34.1998343484
 21
-11.8895200541
  0
LINE
  5
53D
100
AcDbEntity
  8
INCISIONI
100
AcDbLine
 62
253
  6
CONTINUOUS
 10
-34.2045714299
 20
-13.472853463
 11
-34.1998343484
 21
-13.2466629436
  0
LINE
  5
53E
100
AcDbEntity
  8
INCISIONI
100
AcDbLine
 62
253
  6
CONTINUOUS
 10
-34.1491001983
 20
-7.9651687226
 11
-34.1788719817
 21
-9.2188327226
  0
LINE
  5
53F
100
AcDbEntity
  8
INCISIONI
100
AcDbLine
 62
253
  6
CONTINUOUS
 10
-34.1788719817
 20
-8.5675297226
 11
-34.1553143154
 21
-7.6027677226
  0
LINE
  5
540
100
AcDbEntity
  8
0
100
AcDbLine
 62
253
  6
CONTINUOUS
 10
-34.206815311
 20
3.1390517542
 11
-34.2180347145
 21
2.71048053
  0
LINE
  5
541
100
AcDbEntity
  8
INCISIONI
100
AcDbLine
 62
253
  6
CONTINUOUS
 10
-34.128283521
 20
-13.0270497226
 11
-34.164013172
 21
-14.3639477226
  0
LINE
  5
542
100
AcDbEntity
  8
INCISIONI
100
AcDbLine
 62
253
  6
CONTINUOUS
 10
-34.1788719817
 20
-14.3450267226
 11
-34.1435322977
 21
-13.0266047226
  0
LINE
  5
543
100
AcDbEntity
  8
0
100
AcDbLine
 62
253
  6
CONTINUOUS
 10
-34.206815311
 20
9.9961942026
 11
-34.2329939207
 21
9.2461942026
  0
LINE
  5
544
100
AcDbEntity
  8
INCISIONI
100
AcDbLine
 62
253
  6
CONTINUOUS
 10
-34.2282568387
 20
-9.9895201674
 11
-34.2235197567
 21
-9.8538058331
  0
LINE
  5
545
100
AcDbEntity
  8
INCISIONI
100
AcDbLine
 62
253
  6
CONTINUOUS
 10
-34.2045714299
 20
-10.6680916121
 11
-34.2093085114
 21
-10.8038058331
  0
LINE
  5
546
100
AcDbEntity
  8
0
100
AcDbLine
 62
253
  6
CONTINUOUS
 10
-34.206815311
 20
4.96048053
 11
-34.2329939207
 21
4.5319078753
  0
LINE
  5
547
100
AcDbEntity
  8
SUPERFICI
100
AcDbLine
 62
7
  6
CONTINUOUS
 10
-34.0479702324
 20
-17.0082947612
 11
-34.0828803623
 21
-17.3609487226
  0
LINE
  5
548
100
AcDbEntity
  8
INCISIONI
100
AcDbLine
 62
7
  6
CONTINUOUS
 10
-34.1788719817
 20
-3.2331327627
 11
-34.128283521
 21
-3.182544302
  0
LINE
  5
549
100
AcDbEntity
  8
DRAFT
100
AcDbLine
 62
7
  6
CONTINUOUS
 10
-48.7328803623
 20
-18.5609487226
 11
-48.6438595311
 21
-18.4719278915
  0
LINE
  5
54A
100
AcDbEntity
  8
ASSI
100
AcDbLine
 62
7
  6
CONTINUOUS
 10
-48.7328803623
 20
-18.5609487226
 11
-48.6438595311
 21
-18.4719278915
  0
LINE
  5
54B
100
AcDbEntity
  8
INCISIONI
100
AcDbLine
 62
7
  6
CONTINUOUS
 10
-34.1788719817
 20
-4.0731756188
 11
-34.1708431652
 21
-4.0651468022
  0
LINE
  5
54C
100
AcDbEntity
  8
INCISIONI
100
AcDbLine
 62
7
  6
CONTINUOUS
 10
-34.1569208186
 20
-4.0512244556
 11
-34.1488914713
 21
-4.0431951083
  0
LINE
  5
54D
100
AcDbEntity
  8
INCISIONI
100
AcDbLine
 62
7
  6
CONTINUOUS
 10
-34.1363124365
 20
-4.0306160736
 11
-34.128283521
 21
-4.022587158
  0
LINE
  5
54E
100
AcDbEntity
  8
DRAFT
100
AcDbLine
 62
7
  6
CONTINUOUS
 10
-48.6438595311
 20
-18.6719278915
 11
-48.7328803623
 21
-18.7609487226
  0
LINE
  5
54F
100
AcDbEntity
  8
ASSI
100
AcDbLine
 62
7
  6
CONTINUOUS
 10
-48.6438595311
 20
-18.6719278915
 11
-48.7328803623
 21
-18.7609487226
  0
LINE
  5
550
100
AcDbEntity
  8
INCISIONI
100
AcDbLine
 62
7
  6
CONTINUOUS
 10
-34.1788719817
 20
-4.9132184748
 11
-34.1708430132
 21
-4.9051895063
  0
LINE
  5
551
100
AcDbEntity
  8
INCISIONI
100
AcDbLine
 62
7
  6
CONTINUOUS
 10
-34.136312494
 20
-4.8706589871
 11
-34.128283521
 21
-4.8626300141
  0
LINE
  5
552
100
AcDbEntity
  8
RACCORDO
100
AcDbLine
 62
7
  6
CONTINUOUS
 10
-47.7328803623
 20
-18.7609487226
 11
-47.7308606862
 21
-18.7589290465
  0
LINE
  5
553
100
AcDbEntity
  8
ASSI
100
AcDbLine
 62
7
  6
CONTINUOUS
 10
-47.7328803623
 20
-18.7609487226
 11
-47.7308606862
 21
-18.7589290465
  0
LINE
  5
554
100
AcDbEntity
  8
INCISIONI
100
AcDbLine
 62
7
  6
CONTINUOUS
 10
-34.1788719817
 20
-5.7532613309
 11
-34.128283521
 21
-5.7026728701
  0
LINE
  5
555
100
AcDbEntity
  8
SUPERFICI
100
AcDbLine
 62
7
  6
CONTINUOUS
 10
-49.6828803623
 20
-21.2609487226
 11
-49.6389581152
 21
-21.2170264756
  0
LINE
  5
556
100
AcDbEntity
  8
SUPERFICI
100
AcDbLine
 62
7
  6
CONTINUOUS
 10
-49.6392297154
 20
-22.8172980758
 11
-49.6828803623
 21
-22.8609487226
  0
LINE
  5
557
100
AcDbEntity
  8
INCISIONI
100
AcDbLine
 62
7
  6
CONTINUOUS
 10
-34.1584045431
 20
-7.4128796043
 11
-34.1474333286
 21
-7.4019083898
  0
LINE
  5
558
100
AcDbEntity
  8
SUPERFICI
100
AcDbLine
 62
7
  6
CONTINUOUS
 10
-52.4234219885
 20
-21.1969187481
 11
-52.4886981921
 21
-21.2551308928
  0
LINE
  5
559
100
AcDbEntity
  8
SUPERFICI
100
AcDbLine
 62
253
  6
CONTINUOUS
 10
-56.3828803623
 20
-20.7609656457
 11
-56.3741534945
 21
-20.7551478159
  0
LINE
  5
55A
100
AcDbEntity
  8
SUPERFICI
100
AcDbLine
 62
253
  6
CONTINUOUS
 10
-55.8828867084
 20
-21.2609487226
 11
-55.8741598406
 21
-21.2551308928
  0
LINE
  5
55B
100
AcDbEntity
  8
RACCORDO
100
AcDbLine
 62
253
  6
CONTINUOUS
 10
-56.3828803623
 20
-16.5326477714
 11
-55.991582275
 21
-16.3705644493
  0
LINE
  5
55C
100
AcDbEntity
  8
ASSI
100
AcDbLine
 62
253
  6
CONTINUOUS
 10
-56.3828803623
 20
-16.5326477714
 11
-55.991582275
 21
-16.3705644493
  0
LINE
  5
55D
100
AcDbEntity
  8
RACCORDO
100
AcDbLine
 62
253
  6
CONTINUOUS
 10
-55.7971831428
 20
-17.9466459422
 11
-55.4058830021
 21
-17.7845670209
  0
LINE
  5
55E
100
AcDbEntity
  8
ASSI
100
AcDbLine
 62
253
  6
CONTINUOUS
 10
-55.7971831428
 20
-17.9466459422
 11
-55.4058830021
 21
-17.7845670209
  0
LINE
  5
55F
100
AcDbEntity
  8
0
100
AcDbLine
 62
253
  6
CONTINUOUS
 10
-39.2328803623
 20
-9.9561869314
 11
-37.2328803623
 21
-9.3847583344
  0
LINE
  5
560
100
AcDbEntity
  8
0
100
AcDbLine
 62
253
  6
CONTINUOUS
 10
-37.2328803623
 20
12.0200036356
 11
-39.2328803623
 21
12.0200036356
  0
LINE
  5
561
100
AcDbEntity
  8
0
100
AcDbLine
 62
7
  6
CONTINUOUS
 10
-52.2328803623
 20
12.6270512773
 11
-45.2328803623
 21
12.6270512773
  0
LINE
  5
562
100
AcDbEntity
  8
SMUSSO
100
AcDbLine
 62
7
  6
CONTINUOUS
 10
-52.2328803623
 20
12.7890512774
 11
-45.2328803623
 21
12.7890512774
  0
LINE
  5
563
100
AcDbEntity
  8
ASSI
100
AcDbLine
 62
7
  6
CONTINUOUS
 10
-52.2328803623
 20
12.7890512774
 11
-45.2328803623
 21
12.7890512774
  0
LINE
  5
564
100
AcDbEntity
  8
0
100
AcDbLine
 62
253
  6
CONTINUOUS
 10
-37.5185946608
 20
12.9247656653
 11
-38.9471660936
 21
12.9247656653
  0
LINE
  5
565
100
AcDbEntity
  8
DRAFT
100
AcDbLine
 62
7
  6
CONTINUOUS
 10
-35.7328803623
 20
13.0910535045
 11
-35.7207753752
 21
13.0910535045
  0
LINE
  5
566
100
AcDbEntity
  8
RACCORDO
100
AcDbLine
 62
7
  6
CONTINUOUS
 10
-35.5654252973
 20
13.1687226278
 11
-35.7328803623
 21
13.1687226278
  0
LINE
  5
567
100
AcDbEntity
  8
0
100
AcDbLine
 62
253
  6
CONTINUOUS
 10
-34.2329939207
 20
13.2104798147
 11
-34.206815311
 21
13.2104798147
  0
LINE
  5
568
100
AcDbEntity
  8
ASSI
100
AcDbLine
 62
7
  6
CONTINUOUS
 10
-34.3604158946
 20
13.2390512774
 11
-35.8828803623
 21
13.2390512774
  0
LINE
  5
569
100
AcDbEntity
  8
SMUSSO
100
AcDbLine
 62
7
  6
CONTINUOUS
 10
-52.8102306315
 20
13.3664015465
 11
-44.6555300931
 21
13.3664015465
  0
LINE
  5
56A
100
AcDbEntity
  8
ASSI
100
AcDbLine
 62
7
  6
CONTINUOUS
 10
-52.8102306315
 20
13.3664015465
 11
-44.6555300931
 21
13.3664015465
  0
LINE
  5
56B
100
AcDbEntity
  8
0
100
AcDbLine
 62
253
  6
CONTINUOUS
 10
-34.2105551122
 20
13.8176228592
 11
-34.2292541191
 21
13.8176228592
  0
LINE
  5
56C
100
AcDbEntity
  8
SMUSSO
100
AcDbLine
 62
7
  6
CONTINUOUS
 10
-44.6555300931
 20
13.9117010082
 11
-52.8102306315
 21
13.9117010082
  0
LINE
  5
56D
100
AcDbEntity
  8
ASSI
100
AcDbLine
 62
7
  6
CONTINUOUS
 10
-44.6555300931
 20
13.9117010082
 11
-52.8102306315
 21
13.9117010082
  0
LINE
  5
56E
100
AcDbEntity
  8
INCISIONI
100
AcDbLine
 62
253
  6
CONTINUOUS
 10
-34.1787435516
 20
13.9247152774
 11
-34.1281423002
 21
13.9247152774
  0
LINE
  5
56F
100
AcDbEntity
  8
0
100
AcDbLine
 62
253
  6
CONTINUOUS
 10
-38.3757375562
 20
13.9247656653
 11
-37.2328803623
 21
13.9247656653
  0
LINE
  5
570
100
AcDbEntity
  8
ASSI
100
AcDbLine
 62
7
  6
CONTINUOUS
 10
-34.3604158946
 20
14.0390512774
 11
-35.8828803623
 21
14.0390512774
  0
LINE
  5
571
100
AcDbEntity
  8
RACCORDO
100
AcDbLine
 62
7
  6
CONTINUOUS
 10
-35.7328803623
 20
14.1093799269
 11
-35.5654252973
 21
14.1093799269
  0
LINE
  5
572
100
AcDbEntity
  8
DRAFT
100
AcDbLine
 62
7
  6
CONTINUOUS
 10
-35.7328803623
 20
14.1867859133
 11
-35.7202490613
 21
14.1867859133
  0
LINE
  5
573
100
AcDbEntity
  8
SMUSSO
100
AcDbLine
 62
7
  6
CONTINUOUS
 10
-45.2328803623
 20
14.4890512774
 11
-52.2328803623
 21
14.4890512774
  0
LINE
  5
574
100
AcDbEntity
  8
ASSI
100
AcDbLine
 62
7
  6
CONTINUOUS
 10
-45.2328803623
 20
14.4890512774
 11
-52.2328803623
 21
14.4890512774
  0
LINE
  5
575
100
AcDbEntity
  8
0
100
AcDbLine
 62
253
  6
CONTINUOUS
 10
-37.2328803623
 20
14.4961939642
 11
-39.2328803623
 21
14.4961939642
  0
LINE
  5
576
100
AcDbEntity
  8
INCISIONI
100
AcDbLine
 62
253
  6
CONTINUOUS
 10
-34.1281423002
 20
14.5299862774
 11
-34.1787435516
 21
14.5299862774
  0
LINE
  5
577
100
AcDbEntity
  8
0
100
AcDbLine
 62
253
  6
CONTINUOUS
 10
-34.2329939207
 20
14.5676226804
 11
-34.206815311
 21
14.5676226804
  0
LINE
  5
578
100
AcDbEntity
  8
0
100
AcDbLine
 62
7
  6
CONTINUOUS
 10
-45.2328803623
 20
14.6270512774
 11
-52.2328803623
 21
14.6270512774
  0
LINE
  5
579
100
AcDbEntity
  8
RACCORDO
100
AcDbLine
 62
253
  6
CONTINUOUS
 10
-55.991582275
 20
18.648667004
 11
-56.3828803623
 21
18.8107503261
  0
LINE
  5
57A
100
AcDbEntity
  8
ASSI
100
AcDbLine
 62
253
  6
CONTINUOUS
 10
-55.991582275
 20
18.648667004
 11
-56.3828803623
 21
18.8107503261
  0
LINE
  5
57B
100
AcDbEntity
  8
RACCORDO
100
AcDbLine
 62
253
  6
CONTINUOUS
 10
-55.4058830021
 20
20.0626695756
 11
-55.7971831428
 21
20.2247484969
  0
LINE
  5
57C
100
AcDbEntity
  8
ASSI
100
AcDbLine
 62
253
  6
CONTINUOUS
 10
-55.4058830021
 20
20.0626695756
 11
-55.7971831428
 21
20.2247484969
  0
LINE
  5
57D
100
AcDbEntity
  8
SUPERFICI
100
AcDbLine
 62
253
  6
CONTINUOUS
 10
-56.3741534945
 20
23.0332503706
 11
-56.3828803623
 21
23.0390682004
  0
LINE
  5
57E
100
AcDbEntity
  8
SUPERFICI
100
AcDbLine
 62
253
  6
CONTINUOUS
 10
-55.8741598406
 20
23.5332334475
 11
-55.8828867084
 21
23.5390512774
  0
LINE
  5
57F
100
AcDbEntity
  8
SUPERFICI
100
AcDbLine
 62
7
  6
CONTINUOUS
 10
-52.4234219885
 20
23.4750213029
 11
-52.4886981921
 21
23.5332334475
  0
LINE
  5
580
100
AcDbEntity
  8
DRAFT
100
AcDbLine
 62
7
  6
CONTINUOUS
 10
-48.7328803623
 20
20.8390512774
 11
-48.6438595311
 21
20.7500304462
  0
LINE
  5
581
100
AcDbEntity
  8
ASSI
100
AcDbLine
 62
7
  6
CONTINUOUS
 10
-48.7328803623
 20
20.8390512774
 11
-48.6438595311
 21
20.7500304462
  0
LINE
  5
582
100
AcDbEntity
  8
DRAFT
100
AcDbLine
 62
7
  6
CONTINUOUS
 10
-48.7328803623
 20
21.0390512774
 11
-48.6438595311
 21
20.9500304462
  0
LINE
  5
583
100
AcDbEntity
  8
ASSI
100
AcDbLine
 62
7
  6
CONTINUOUS
 10
-48.7328803623
 20
21.0390512774
 11
-48.6438595311
 21
20.9500304462
  0
LINE
  5
584
100
AcDbEntity
  8
0
100
AcDbLine
 62
253
  6
CONTINUOUS
 10
-38.3757375562
 20
11.06762274
 11
-38.0900232279
 21
10.7819084713
  0
LINE
  5
585
100
AcDbEntity
  8
RACCORDO
100
AcDbLine
 62
7
  6
CONTINUOUS
 10
-47.7328803623
 20
21.0390512774
 11
-47.7308606862
 21
21.0370316013
  0
LINE
  5
586
100
AcDbEntity
  8
ASSI
100
AcDbLine
 62
7
  6
CONTINUOUS
 10
-47.7328803623
 20
21.0390512774
 11
-47.7308606862
 21
21.0370316013
  0
LINE
  5
587
100
AcDbEntity
  8
SUPERFICI
100
AcDbLine
 62
7
  6
CONTINUOUS
 10
-49.6828803623
 20
23.5390512774
 11
-49.6389581152
 21
23.4951290303
  0
LINE
  5
588
100
AcDbEntity
  8
0
100
AcDbLine
 62
253
  6
CONTINUOUS
 10
-38.9471660936
 20
12.9247656653
 11
-39.2328803623
 21
13.2104798147
  0
LINE
  5
589
100
AcDbEntity
  8
SUPERFICI
100
AcDbLine
 62
7
  6
CONTINUOUS
 10
-49.6392297154
 20
25.0954006305
 11
-49.6828803623
 21
25.1390512774
  0
LINE
  5
58A
100
AcDbEntity
  8
INCISIONI
100
AcDbLine
 62
253
  6
CONTINUOUS
 10
-34.1457038665
 20
12.8892132774
 11
-34.1787435516
 21
13.0198302774
  0
LINE
  5
58B
100
AcDbEntity
  8
INCISIONI
100
AcDbLine
 62
253
  6
CONTINUOUS
 10
-34.1787435516
 20
13.5988782774
 11
-34.1281453364
 21
13.3370562774
  0
LINE
  5
58C
100
AcDbEntity
  8
INCISIONI
100
AcDbLine
 62
7
  6
CONTINUOUS
 10
-34.1715098739
 20
-8.2660277912
 11
-34.1558736175
 21
-8.2503915348
  0
LINE
  5
58D
100
AcDbEntity
  8
INCISIONI
100
AcDbLine
 62
7
  6
CONTINUOUS
 10
-34.1445276378
 20
-8.239045555
 11
-34.1332603871
 21
-8.2277783044
  0
LINE
  5
58E
100
AcDbEntity
  8
INCISIONI
100
AcDbLine
 62
7
  6
CONTINUOUS
 10
-34.1788719817
 20
-9.1134327551
 11
-34.1763080754
 21
-9.1108688487
  0
LINE
  5
58F
100
AcDbEntity
  8
INCISIONI
100
AcDbLine
 62
7
  6
CONTINUOUS
 10
-34.1307328625
 20
-9.0652936358
 11
-34.128283521
 21
-9.0628442943
  0
LINE
  5
590
100
AcDbEntity
  8
INCISIONI
100
AcDbLine
 62
7
  6
CONTINUOUS
 10
-34.1772747956
 20
-9.951878425
 11
-34.1659691727
 21
-9.9405728021
  0
LINE
  5
591
100
AcDbEntity
  8
INCISIONI
100
AcDbLine
 62
7
  6
CONTINUOUS
 10
-34.1418360639
 20
-9.9164396932
 11
-34.1303303113
 21
-9.9049339406
  0
LINE
  5
592
100
AcDbEntity
  8
INCISIONI
100
AcDbLine
 62
7
  6
CONTINUOUS
 10
-34.1798192254
 20
-10.7944657109
 11
-34.1716886306
 21
-10.786335116
  0
LINE
  5
593
100
AcDbEntity
  8
INCISIONI
100
AcDbLine
 62
7
  6
CONTINUOUS
 10
-34.1353592273
 20
-10.7500057127
 11
-34.1272442857
 21
-10.7418907711
  0
LINE
  5
594
100
AcDbEntity
  8
INCISIONI
100
AcDbLine
 62
7
  6
CONTINUOUS
 10
-34.1726223133
 20
-11.6273116547
 11
-34.1337906881
 21
-11.5884800296
  0
LINE
  5
595
100
AcDbEntity
  8
0
100
AcDbLine
 62
253
  6
CONTINUOUS
 10
-39.2328803623
 20
15.4961939642
 11
-37.2328803623
 21
15.4961939642
  0
LINE
  5
596
100
AcDbEntity
  8
0
100
AcDbLine
 62
253
  6
CONTINUOUS
 10
-42.2328803623
 20
16.1390512774
 11
-43.9828803623
 21
16.1390512774
  0
LINE
  5
597
100
AcDbEntity
  8
0
100
AcDbLine
 62
253
  6
CONTINUOUS
 10
-34.206815311
 20
16.2819083819
 11
-34.2329939207
 21
16.2819083819
  0
LINE
  5
598
100
AcDbEntity
  8
0
100
AcDbLine
 62
253
  6
CONTINUOUS
 10
-37.2328803623
 20
16.6390515158
 11
-39.2328803623
 21
16.6390515158
  0
LINE
  5
599
100
AcDbEntity
  8
0
100
AcDbLine
 62
253
  6
CONTINUOUS
 10
-34.2329939207
 20
17.1390512774
 11
-34.206815311
 21
17.1390512774
  0
LINE
  5
59A
100
AcDbEntity
  8
0
100
AcDbLine
 62
7
  6
CONTINUOUS
 10
-52.2328803623
 20
17.6270512774
 11
-45.2328803623
 21
17.6270512774
  0
LINE
  5
59B
100
AcDbEntity
  8
SMUSSO
100
AcDbLine
 62
7
  6
CONTINUOUS
 10
-52.2328803623
 20
17.7890512774
 11
-45.2328803623
 21
17.7890512774
  0
LINE
  5
59C
100
AcDbEntity
  8
ASSI
100
AcDbLine
 62
7
  6
CONTINUOUS
 10
-52.2328803623
 20
17.7890512774
 11
-45.2328803623
 21
17.7890512774
  0
LINE
  5
59D
100
AcDbEntity
  8
ASSI
100
AcDbLine
 62
7
  6
CONTINUOUS
 10
-34.3604158946
 20
18.2390512774
 11
-35.8828803623
 21
18.2390512774
  0
LINE
  5
59E
100
AcDbEntity
  8
SMUSSO
100
AcDbLine
 62
7
  6
CONTINUOUS
 10
-52.8102306315
 20
18.3664015465
 11
-44.6555300931
 21
18.3664015465
  0
LINE
  5
59F
100
AcDbEntity
  8
ASSI
100
AcDbLine
 62
7
  6
CONTINUOUS
 10
-52.8102306315
 20
18.3664015465
 11
-44.6555300931
 21
18.3664015465
  0
LINE
  5
5A0
100
AcDbEntity
  8
RACCORDO
100
AcDbLine
 62
253
  6
CONTINUOUS
 10
-35.4740261447
 20
18.6486693514
 11
-34.4741784496
 21
18.6486693514
  0
LINE
  5
5A1
100
AcDbEntity
  8
ASSI
100
AcDbLine
 62
253
  6
CONTINUOUS
 10
-35.4740261447
 20
18.6486693514
 11
-34.4741784496
 21
18.6486693514
  0
LINE
  5
5A2
100
AcDbEntity
  8
RACCORDO
100
AcDbLine
 62
253
  6
CONTINUOUS
 10
-54.9917345798
 20
18.6486693514
 11
-55.991582275
 21
18.6486693514
  0
LINE
  5
5A3
100
AcDbEntity
  8
ASSI
100
AcDbLine
 62
253
  6
CONTINUOUS
 10
-54.9917345798
 20
18.6486693514
 11
-55.991582275
 21
18.6486693514
  0
LINE
  5
5A4
100
AcDbEntity
  8
DRAFT
100
AcDbLine
 62
7
  6
CONTINUOUS
 10
-35.5654252973
 20
14.1093799269
 11
-35.7202490613
 21
14.1867859133
  0
LINE
  5
5A5
100
AcDbEntity
  8
INCISIONI
100
AcDbLine
 62
7
  6
CONTINUOUS
 10
-34.1504648937
 20
-13.2852399473
 11
-34.1347642457
 21
-13.2695392993
  0
LINE
  5
5A6
100
AcDbEntity
  8
INCISIONI
100
AcDbLine
 62
7
  6
CONTINUOUS
 10
-34.173602029
 20
-14.1484199386
 11
-34.1578315438
 21
-14.1326494534
  0
LINE
  5
5A7
100
AcDbEntity
  8
DRAFT
100
AcDbLine
 62
7
  6
CONTINUOUS
 10
-38.028875908
 20
-18.6569442683
 11
-37.9328803623
 21
-18.5609487226
  0
LINE
  5
5A8
100
AcDbEntity
  8
DRAFT
100
AcDbLine
 62
7
  6
CONTINUOUS
 10
-37.8328803623
 20
-18.5609487226
 11
-37.7438595311
 21
-18.4719278915
  0
LINE
  5
5A9
100
AcDbEntity
  8
ASSI
100
AcDbLine
 62
7
  6
CONTINUOUS
 10
-37.8328803623
 20
-18.5609487226
 11
-37.7438595311
 21
-18.4719278915
  0
LINE
  5
5AA
100
AcDbEntity
  8
RACCORDO
100
AcDbLine
 62
253
  6
CONTINUOUS
 10
-35.9446416307
 20
-17.2553327584
 11
-35.7668747545
 21
-17.0775658821
  0
LINE
  5
5AB
100
AcDbEntity
  8
ASSI
100
AcDbLine
 62
253
  6
CONTINUOUS
 10
-35.9446416307
 20
-17.2553327584
 11
-35.7668747545
 21
-17.0775658821
  0
LINE
  5
5AC
100
AcDbEntity
  8
DRAFT
100
AcDbLine
 62
7
  6
CONTINUOUS
 10
-38.028875908
 20
-19.8569442683
 11
-37.9328803623
 21
-19.7609487226
  0
LINE
  5
5AD
100
AcDbEntity
  8
RACCORDO
100
AcDbLine
 62
253
  6
CONTINUOUS
 10
-35.2376425453
 20
-17.9623318438
 11
-35.0598777225
 21
-17.7845670209
  0
LINE
  5
5AE
100
AcDbEntity
  8
ASSI
100
AcDbLine
 62
253
  6
CONTINUOUS
 10
-35.2376425453
 20
-17.9623318438
 11
-35.0598777225
 21
-17.7845670209
  0
LINE
  5
5AF
100
AcDbEntity
  8
RACCORDO
100
AcDbLine
 62
7
  6
CONTINUOUS
 10
-35.1478628169
 20
-18.1790792817
 11
-36.6797322578
 21
-19.7109487226
  0
LINE
  5
5B0
100
AcDbEntity
  8
ASSI
100
AcDbLine
 62
7
  6
CONTINUOUS
 10
-35.1478628169
 20
-18.1790792817
 11
-36.6797322578
 21
-19.7109487226
  0
LINE
  5
5B1
100
AcDbEntity
  8
DRAFT
100
AcDbLine
 62
7
  6
CONTINUOUS
 10
-34.4946306423
 20
-17.7480138132
 11
-34.1003340979
 21
-17.3537172687
  0
LINE
  5
5B2
100
AcDbEntity
  8
SUPERFICI
100
AcDbLine
 62
253
  6
CONTINUOUS
 10
-44.2243129923
 20
-22.6552439924
 11
-44.2328803623
 21
-22.6609554919
  0
LINE
  5
5B3
100
AcDbEntity
  8
SUPERFICI
100
AcDbLine
 62
253
  6
CONTINUOUS
 10
-44.0243307626
 20
-22.8552473777
 11
-44.0328829007
 21
-22.8609487226
  0
LINE
  5
5B4
100
AcDbEntity
  8
SUPERFICI
100
AcDbLine
 62
7
  6
CONTINUOUS
 10
-44.2328803623
 20
-21.2609487226
 11
-44.2242064089
 21
-21.2557444352
  0
LINE
  5
5B5
100
AcDbEntity
  8
SUPERFICI
100
AcDbLine
 62
7
  6
CONTINUOUS
 10
-56.4177904921
 20
19.2863973159
 11
-56.3654266267
 21
19.2863973159
  0
LINE
  5
5B6
100
AcDbEntity
  8
SUPERFICI
100
AcDbLine
 62
7
  6
CONTINUOUS
 10
-34.0479702324
 20
19.2863973159
 11
-34.1003340979
 21
19.2863973159
  0
LINE
  5
5B7
100
AcDbEntity
  8
RACCORDO
100
AcDbLine
 62
253
  6
CONTINUOUS
 10
-35.9446416307
 20
19.5334353131
 11
-54.5211190938
 21
19.5334353131
  0
LINE
  5
5B8
100
AcDbEntity
  8
ASSI
100
AcDbLine
 62
253
  6
CONTINUOUS
 10
-35.9446416307
 20
19.5334353131
 11
-54.5211190938
 21
19.5334353131
  0
LINE
  5
5B9
100
AcDbEntity
  8
RACCORDO
100
AcDbLine
 62
253
  6
CONTINUOUS
 10
-35.9446416307
 20
20.5332830082
 11
-54.5211190938
 21
20.5332830082
  0
LINE
  5
5BA
100
AcDbEntity
  8
ASSI
100
AcDbLine
 62
253
  6
CONTINUOUS
 10
-35.9446416307
 20
20.5332830082
 11
-54.5211190938
 21
20.5332830082
  0
LINE
  5
5BB
100
AcDbEntity
  8
DRAFT
100
AcDbLine
 62
7
  6
CONTINUOUS
 10
-48.6438595311
 20
20.7500304462
 11
-41.8219011934
 21
20.7500304462
  0
LINE
  5
5BC
100
AcDbEntity
  8
ASSI
100
AcDbLine
 62
7
  6
CONTINUOUS
 10
-48.6438595311
 20
20.7500304462
 11
-41.8219011934
 21
20.7500304462
  0
LINE
  5
5BD
100
AcDbEntity
  8
RACCORDO
100
AcDbLine
 62
7
  6
CONTINUOUS
 10
-35.8548619023
 20
20.7500304462
 11
-37.7438595311
 21
20.7500304462
  0
LINE
  5
5BE
100
AcDbEntity
  8
ASSI
100
AcDbLine
 62
7
  6
CONTINUOUS
 10
-35.8548619023
 20
20.7500304462
 11
-37.7438595311
 21
20.7500304462
  0
LINE
  5
5BF
100
AcDbEntity
  8
RACCORDO
100
AcDbLine
 62
7
  6
CONTINUOUS
 10
-52.7219011934
 20
20.7500304462
 11
-54.6108988222
 21
20.7500304462
  0
LINE
  5
5C0
100
AcDbEntity
  8
ASSI
100
AcDbLine
 62
7
  6
CONTINUOUS
 10
-52.7219011934
 20
20.7500304462
 11
-54.6108988222
 21
20.7500304462
  0
LINE
  5
5C1
100
AcDbEntity
  8
DRAFT
100
AcDbLine
 62
7
  6
CONTINUOUS
 10
-37.8328803623
 20
20.8390512774
 11
-41.7328803623
 21
20.8390512774
  0
LINE
  5
5C2
100
AcDbEntity
  8
ASSI
100
AcDbLine
 62
7
  6
CONTINUOUS
 10
-37.8328803623
 20
20.8390512774
 11
-41.7328803623
 21
20.8390512774
  0
LINE
  5
5C3
100
AcDbEntity
  8
DRAFT
100
AcDbLine
 62
7
  6
CONTINUOUS
 10
-48.7328803623
 20
20.8390512774
 11
-52.6328803623
 21
20.8390512774
  0
LINE
  5
5C4
100
AcDbEntity
  8
ASSI
100
AcDbLine
 62
7
  6
CONTINUOUS
 10
-48.7328803623
 20
20.8390512774
 11
-52.6328803623
 21
20.8390512774
  0
LINE
  5
5C5
100
AcDbEntity
  8
DRAFT
100
AcDbLine
 62
7
  6
CONTINUOUS
 10
-52.4368848166
 20
20.9350468231
 11
-51.828875908
 21
20.9350468231
  0
LINE
  5
5C6
100
AcDbEntity
  8
DRAFT
100
AcDbLine
 62
7
  6
CONTINUOUS
 10
-38.6368848166
 20
20.9350468231
 11
-38.028875908
 21
20.9350468231
  0
LINE
  5
5C7
100
AcDbEntity
  8
DRAFT
100
AcDbLine
 62
7
  6
CONTINUOUS
 10
-48.6438595311
 20
20.9500304462
 11
-41.8219011934
 21
20.9500304462
  0
LINE
  5
5C8
100
AcDbEntity
  8
ASSI
100
AcDbLine
 62
7
  6
CONTINUOUS
 10
-48.6438595311
 20
20.9500304462
 11
-41.8219011934
 21
20.9500304462
  0
LINE
  5
5C9
100
AcDbEntity
  8
RACCORDO
100
AcDbLine
 62
7
  6
CONTINUOUS
 10
-46.8309977605
 20
21.0215962124
 11
-43.634762964
 21
21.0215962124
  0
LINE
  5
5CA
100
AcDbEntity
  8
ASSI
100
AcDbLine
 62
7
  6
CONTINUOUS
 10
-46.8309977605
 20
21.0215962124
 11
-43.634762964
 21
21.0215962124
  0
LINE
  5
5CB
100
AcDbEntity
  8
DRAFT
100
AcDbLine
 62
7
  6
CONTINUOUS
 10
-48.7328803623
 20
21.0390512774
 11
-47.7328803623
 21
21.0390512774
  0
LINE
  5
5CC
100
AcDbEntity
  8
ASSI
100
AcDbLine
 62
7
  6
CONTINUOUS
 10
-48.7328803623
 20
21.0390512774
 11
-47.7328803623
 21
21.0390512774
  0
LINE
  5
5CD
100
AcDbEntity
  8
DRAFT
100
AcDbLine
 62
7
  6
CONTINUOUS
 10
-42.7328803623
 20
21.0390512774
 11
-41.7328803623
 21
21.0390512774
  0
LINE
  5
5CE
100
AcDbEntity
  8
ASSI
100
AcDbLine
 62
7
  6
CONTINUOUS
 10
-42.7328803623
 20
21.0390512774
 11
-41.7328803623
 21
21.0390512774
  0
LINE
  5
5CF
100
AcDbEntity
  8
DRAFT
100
AcDbLine
 62
7
  6
CONTINUOUS
 10
-51.6701400329
 20
21.0763109479
 11
-49.9596373469
 21
21.0763109479
  0
LINE
  5
5D0
100
AcDbEntity
  8
DRAFT
100
AcDbLine
 62
7
  6
CONTINUOUS
 10
-40.5061233777
 20
21.0763109479
 11
-38.7956206917
 21
21.0763109479
  0
LINE
  5
5D1
100
AcDbEntity
  8
DRAFT
100
AcDbLine
 62
7
  6
CONTINUOUS
 10
-49.2798835559
 20
21.1181067947
 11
-47.7328803623
 21
21.1181067947
  0
LINE
  5
5D2
100
AcDbEntity
  8
DRAFT
100
AcDbLine
 62
7
  6
CONTINUOUS
 10
-42.7328803623
 20
21.1181067947
 11
-41.1858771686
 21
21.1181067947
  0
LINE
  5
5D3
100
AcDbEntity
  8
DRAFT
100
AcDbLine
 62
7
  6
CONTINUOUS
 10
-41.7328030801
 20
21.1479069397
 11
-42.7328803623
 21
21.1479069397
  0
LINE
  5
5D4
100
AcDbEntity
  8
DRAFT
100
AcDbLine
 62
7
  6
CONTINUOUS
 10
-47.7328803623
 20
21.1479069397
 11
-48.7329576445
 21
21.1479069397
  0
LINE
  5
5D5
100
AcDbEntity
  8
DRAFT
100
AcDbLine
 62
7
  6
CONTINUOUS
 10
-42.7328803623
 20
21.2010167579
 11
-42.7916135407
 21
21.2010167579
  0
LINE
  5
5D6
100
AcDbEntity
  8
DRAFT
100
AcDbLine
 62
7
  6
CONTINUOUS
 10
-47.6741471839
 20
21.2010167579
 11
-47.7328803623
 21
21.2010167579
  0
LINE
  5
5D7
100
AcDbEntity
  8
DRAFT
100
AcDbLine
 62
7
  6
CONTINUOUS
 10
-51.828875908
 20
21.2350468231
 11
-38.6368848166
 21
21.2350468231
  0
LINE
  5
5D8
100
AcDbEntity
  8
DRAFT
100
AcDbLine
 62
7
  6
CONTINUOUS
 10
-37.8328803623
 20
21.6666628758
 11
-37.8708707829
 21
21.6666628758
  0
LINE
  5
5D9
100
AcDbEntity
  8
DRAFT
100
AcDbLine
 62
7
  6
CONTINUOUS
 10
-52.5948899416
 20
21.6666628758
 11
-52.6328803623
 21
21.6666628758
  0
LINE
  5
5DA
100
AcDbEntity
  8
SUPERFICI
100
AcDbLine
 62
7
  6
CONTINUOUS
 10
-48.2250261813
 20
21.9390512774
 11
-42.2407345433
 21
21.9390512774
  0
LINE
  5
5DB
100
AcDbEntity
  8
DRAFT
100
AcDbLine
 62
7
  6
CONTINUOUS
 10
-36.4328803623
 20
21.9890512774
 11
-37.8328803623
 21
21.9890512774
  0
LINE
  5
5DC
100
AcDbEntity
  8
ASSI
100
AcDbLine
 62
7
  6
CONTINUOUS
 10
-36.4328803623
 20
21.9890512774
 11
-37.8328803623
 21
21.9890512774
  0
LINE
  5
5DD
100
AcDbEntity
  8
DRAFT
100
AcDbLine
 62
7
  6
CONTINUOUS
 10
-52.6328803623
 20
21.9890512774
 11
-54.0328803623
 21
21.9890512774
  0
LINE
  5
5DE
100
AcDbEntity
  8
ASSI
100
AcDbLine
 62
7
  6
CONTINUOUS
 10
-52.6328803623
 20
21.9890512774
 11
-54.0328803623
 21
21.9890512774
  0
LINE
  5
5DF
100
AcDbEntity
  8
SUPERFICI
100
AcDbLine
 62
7
  6
CONTINUOUS
 10
-54.1827740247
 20
22.0390512774
 11
-53.4828803623
 21
22.0390512774
  0
LINE
  5
5E0
100
AcDbEntity
  8
SUPERFICI
100
AcDbLine
 62
7
  6
CONTINUOUS
 10
-36.9828803623
 20
22.0390512774
 11
-36.2829866999
 21
22.0390512774
  0
LINE
  5
5E1
100
AcDbEntity
  8
DRAFT
100
AcDbLine
 62
7
  6
CONTINUOUS
 10
-36.9828803623
 20
22.0390512774
 11
-37.9328803623
 21
22.0390512774
  0
LINE
  5
5E2
100
AcDbEntity
  8
DRAFT
100
AcDbLine
 62
7
  6
CONTINUOUS
 10
-52.5328803623
 20
22.0390512774
 11
-53.4828803623
 21
22.0390512774
  0
LINE
  5
5E3
100
AcDbEntity
  8
SUPERFICI
100
AcDbLine
 62
7
  6
CONTINUOUS
 10
-44.2242064089
 20
23.5338469899
 11
-44.2328803623
 21
23.5390512774
  0
LINE
  5
5E4
100
AcDbEntity
  8
SUPERFICI
100
AcDbLine
 62
253
  6
CONTINUOUS
 10
-44.2328803623
 20
24.9390580466
 11
-44.2243129923
 21
24.9333465471
  0
LINE
  5
5E5
100
AcDbEntity
  8
SUPERFICI
100
AcDbLine
 62
253
  6
CONTINUOUS
 10
-44.0328829007
 20
25.1390512774
 11
-44.0243307626
 21
25.1333499324
  0
LINE
  5
5E6
100
AcDbEntity
  8
DRAFT
100
AcDbLine
 62
7
  6
CONTINUOUS
 10
-38.028875908
 20
20.9350468231
 11
-37.9328803623
 21
20.8390512774
  0
LINE
  5
5E7
100
AcDbEntity
  8
DRAFT
100
AcDbLine
 62
7
  6
CONTINUOUS
 10
-37.8328803623
 20
20.8390512774
 11
-37.7438595311
 21
20.7500304462
  0
LINE
  5
5E8
100
AcDbEntity
  8
ASSI
100
AcDbLine
 62
7
  6
CONTINUOUS
 10
-37.8328803623
 20
20.8390512774
 11
-37.7438595311
 21
20.7500304462
  0
LINE
  5
5E9
100
AcDbEntity
  8
RACCORDO
100
AcDbLine
 62
253
  6
CONTINUOUS
 10
-35.7668747545
 20
19.3556684368
 11
-35.9446416307
 21
19.5334353131
  0
LINE
  5
5EA
100
AcDbEntity
  8
ASSI
100
AcDbLine
 62
253
  6
CONTINUOUS
 10
-35.7668747545
 20
19.3556684368
 11
-35.9446416307
 21
19.5334353131
  0
LINE
  5
5EB
100
AcDbEntity
  8
DRAFT
100
AcDbLine
 62
7
  6
CONTINUOUS
 10
-38.028875908
 20
22.1350468231
 11
-37.9328803623
 21
22.0390512774
  0
LINE
  5
5EC
100
AcDbEntity
  8
RACCORDO
100
AcDbLine
 62
253
  6
CONTINUOUS
 10
-35.0598777225
 20
20.0626695756
 11
-35.2376425453
 21
20.2404343985
  0
LINE
  5
5ED
100
AcDbEntity
  8
ASSI
100
AcDbLine
 62
253
  6
CONTINUOUS
 10
-35.0598777225
 20
20.0626695756
 11
-35.2376425453
 21
20.2404343985
  0
LINE
  5
5EE
100
AcDbEntity
  8
RACCORDO
100
AcDbLine
 62
7
  6
CONTINUOUS
 10
-36.6797322578
 20
21.9890512774
 11
-35.1478628169
 21
20.4571818365
  0
LINE
  5
5EF
100
AcDbEntity
  8
ASSI
100
AcDbLine
 62
7
  6
CONTINUOUS
 10
-36.6797322578
 20
21.9890512774
 11
-35.1478628169
 21
20.4571818365
  0
LINE
  5
5F0
100
AcDbEntity
  8
DRAFT
100
AcDbLine
 62
7
  6
CONTINUOUS
 10
-34.1003340979
 20
19.6318198234
 11
-34.4946306423
 21
20.0261163679
  0
LINE
  5
5F1
100
AcDbEntity
  8
SUPERFICI
100
AcDbLine
 62
7
  6
CONTINUOUS
 10
-35.5828803623
 20
-19.0599883728
 11
-36.2829866999
 21
-19.7609487226
  0
LINE
  5
5F2
100
AcDbEntity
  8
SUPERFICI
100
AcDbLine
 62
7
  6
CONTINUOUS
 10
-37.9770625325
 20
-21.2551308928
 11
-36.9828803623
 21
-20.2609487226
  0
LINE
  5
5F3
100
AcDbEntity
  8
RACCORDO
100
AcDbLine
 62
7
  6
CONTINUOUS
 10
-36.4328803623
 20
-19.7109487226
 11
-34.6685775818
 21
-17.9466459422
  0
LINE
  5
5F4
100
AcDbEntity
  8
ASSI
100
AcDbLine
 62
7
  6
CONTINUOUS
 10
-36.4328803623
 20
-19.7109487226
 11
-34.6685775818
 21
-17.9466459422
  0
LINE
  5
5F5
100
AcDbEntity
  8
DRAFT
100
AcDbLine
 62
7
  6
CONTINUOUS
 10
-34.6685775818
 20
-17.9466459422
 11
-34.0916072301
 21
-17.3696755904
  0
LINE
  5
5F6
100
AcDbEntity
  8
SUPERFICI
100
AcDbLine
 62
7
  6
CONTINUOUS
 10
-37.1663108605
 20
-19.8526569869
 11
-36.9828803623
 21
-19.7609487226
  0
LINE
  5
5F7
100
AcDbEntity
  8
SUPERFICI
100
AcDbLine
 62
7
  6
CONTINUOUS
 10
-37.1663108605
 20
-20.3146841498
 11
-36.9828803623
 21
-20.2609487226
  0
LINE
  5
5F8
100
AcDbEntity
  8
DRAFT
100
AcDbLine
 62
7
  6
CONTINUOUS
 10
-52.7995260165
 20
22.1350468231
 11
-52.4368848166
 21
22.1350468231
  0
LINE
  5
5F9
100
AcDbEntity
  8
DRAFT
100
AcDbLine
 62
7
  6
CONTINUOUS
 10
-38.028875908
 20
22.1350468231
 11
-37.666234708
 21
22.1350468231
  0
LINE
  5
5FA
100
AcDbEntity
  8
SUPERFICI
100
AcDbLine
 62
253
  6
CONTINUOUS
 10
-37.666234708
 20
22.475038226
 11
-42.236057056
 21
22.475038226
  0
LINE
  5
5FB
100
AcDbEntity
  8
SUPERFICI
100
AcDbLine
 62
253
  6
CONTINUOUS
 10
-48.2297036685
 20
22.475038226
 11
-52.7995260165
 21
22.475038226
  0
LINE
  5
5FC
100
AcDbEntity
  8
SUPERFICI
100
AcDbLine
 62
7
  6
CONTINUOUS
 10
-42.2328803623
 20
22.8390512774
 11
-48.2328803623
 21
22.8390512774
  0
LINE
  5
5FD
100
AcDbEntity
  8
SUPERFICI
100
AcDbLine
 62
253
  6
CONTINUOUS
 10
-38.0423387361
 20
23.4750213029
 11
-42.2273303359
 21
23.4750213029
  0
LINE
  5
5FE
100
AcDbEntity
  8
SUPERFICI
100
AcDbLine
 62
253
  6
CONTINUOUS
 10
-48.2384303886
 20
23.4750213029
 11
-52.4234219885
 21
23.4750213029
  0
LINE
  5
5FF
100
AcDbEntity
  8
SUPERFICI
100
AcDbLine
 62
7
  6
CONTINUOUS
 10
-55.8741598406
 20
23.5332334475
 11
-52.4886981921
 21
23.5332334475
  0
LINE
  5
600
100
AcDbEntity
  8
SUPERFICI
100
AcDbLine
 62
7
  6
CONTINUOUS
 10
-37.9770625325
 20
23.5332334475
 11
-34.591600884
 21
23.5332334475
  0
LINE
  5
601
100
AcDbEntity
  8
SUPERFICI
100
AcDbLine
 62
7
  6
CONTINUOUS
 10
-46.2415543157
 20
23.5338469899
 11
-44.2242064089
 21
23.5338469899
  0
LINE
  5
602
100
AcDbEntity
  8
SUPERFICI
100
AcDbLine
 62
7
  6
CONTINUOUS
 10
-34.5828740162
 20
23.5390512774
 11
-40.7828803623
 21
23.5390512774
  0
LINE
  5
603
100
AcDbEntity
  8
SUPERFICI
100
AcDbLine
 62
7
  6
CONTINUOUS
 10
-44.2328803623
 20
23.5390512774
 11
-46.2328803623
 21
23.5390512774
  0
LINE
  5
604
100
AcDbEntity
  8
SUPERFICI
100
AcDbLine
 62
7
  6
CONTINUOUS
 10
-49.6828803623
 20
23.5390512774
 11
-55.8828867084
 21
23.5390512774
  0
LINE
  5
605
100
AcDbEntity
  8
SUPERFICI
100
AcDbLine
 62
7
  6
CONTINUOUS
 10
-55.1336033601
 20
24.2617010082
 11
-52.7321573644
 21
24.2617010082
  0
LINE
  5
606
100
AcDbEntity
  8
SUPERFICI
100
AcDbLine
 62
7
  6
CONTINUOUS
 10
-35.3321573644
 20
24.2617010082
 11
-37.7336033601
 21
24.2617010082
  0
LINE
  5
607
100
AcDbEntity
  8
SUPERFICI
100
AcDbLine
 62
253
  6
CONTINUOUS
 10
-55.1285127591
 20
24.7668824937
 11
-52.7372479655
 21
24.7668824937
  0
LINE
  5
608
100
AcDbEntity
  8
SUPERFICI
100
AcDbLine
 62
253
  6
CONTINUOUS
 10
-37.7285127591
 20
24.7668824937
 11
-35.3372479655
 21
24.7668824937
  0
LINE
  5
609
100
AcDbEntity
  8
SUPERFICI
100
AcDbLine
 62
253
  6
CONTINUOUS
 10
-35.0872521963
 20
24.9833888447
 11
-37.9785085283
 21
24.9833888447
  0
LINE
  5
60A
100
AcDbEntity
  8
SUPERFICI
100
AcDbLine
 62
253
  6
CONTINUOUS
 10
-52.4872521963
 20
24.9833888447
 11
-55.3785085283
 21
24.9833888447
  0
LINE
  5
60B
100
AcDbEntity
  8
SUPERFICI
100
AcDbLine
 62
7
  6
CONTINUOUS
 10
-49.6392297154
 20
25.0954006305
 11
-48.7674069
 21
25.0954006305
  0
LINE
  5
60C
100
AcDbEntity
  8
SUPERFICI
100
AcDbLine
 62
7
  6
CONTINUOUS
 10
-41.6983538245
 20
25.0954006305
 11
-40.8265310091
 21
25.0954006305
  0
LINE
  5
60D
100
AcDbEntity
  8
SUPERFICI
100
AcDbLine
 62
7
  6
CONTINUOUS
 10
-41.698022646
 20
25.1333499324
 11
-44.0243307626
 21
25.1333499324
  0
LINE
  5
60E
100
AcDbEntity
  8
SUPERFICI
100
AcDbLine
 62
7
  6
CONTINUOUS
 10
-46.4414299619
 20
25.1333499324
 11
-48.7677380786
 21
25.1333499324
  0
LINE
  5
60F
100
AcDbEntity
  8
SUPERFICI
100
AcDbLine
 62
7
  6
CONTINUOUS
 10
-40.7828803623
 20
25.1390512774
 11
-44.0328829007
 21
25.1390512774
  0
LINE
  5
610
100
AcDbEntity
  8
SUPERFICI
100
AcDbLine
 62
7
  6
CONTINUOUS
 10
-46.4328778238
 20
25.1390512774
 11
-49.6828803623
 21
25.1390512774
  0
LINE
  5
611
100
AcDbEntity
  8
SUPERFICI
100
AcDbLine
 62
253
  6
CONTINUOUS
 10
-35.0872521963
 20
25.3846836741
 11
-37.9785085283
 21
25.3846836741
  0
LINE
  5
612
100
AcDbEntity
  8
SUPERFICI
100
AcDbLine
 62
253
  6
CONTINUOUS
 10
-52.4872521963
 20
25.3846836741
 11
-55.3785085283
 21
25.3846836741
  0
LINE
  5
613
100
AcDbEntity
  8
SUPERFICI
100
AcDbLine
 62
7
  6
CONTINUOUS
 10
-37.1663108605
 20
22.5927867045
 11
-36.9828803623
 21
22.5390512774
  0
LINE
  5
614
100
AcDbEntity
  8
SUPERFICI
100
AcDbLine
 62
7
  6
CONTINUOUS
 10
-37.1663108605
 20
22.1307595416
 11
-36.9828803623
 21
22.0390512774
  0
LINE
  5
615
100
AcDbEntity
  8
SUPERFICI
100
AcDbLine
 62
7
  6
CONTINUOUS
 10
-37.9770625325
 20
23.5332334475
 11
-36.9828803623
 21
22.5390512774
  0
LINE
  5
616
100
AcDbEntity
  8
DRAFT
100
AcDbLine
 62
7
  6
CONTINUOUS
 10
-34.0916072301
 20
19.6477781451
 11
-34.6685775818
 21
20.2247484969
  0
LINE
  5
617
100
AcDbEntity
  8
RACCORDO
100
AcDbLine
 62
7
  6
CONTINUOUS
 10
-34.6685775818
 20
20.2247484969
 11
-36.4328803623
 21
21.9890512774
  0
LINE
  5
618
100
AcDbEntity
  8
ASSI
100
AcDbLine
 62
7
  6
CONTINUOUS
 10
-34.6685775818
 20
20.2247484969
 11
-36.4328803623
 21
21.9890512774
  0
LINE
  5
619
100
AcDbEntity
  8
SUPERFICI
100
AcDbLine
 62
7
  6
CONTINUOUS
 10
-35.5828803623
 20
21.3380909276
 11
-36.2829866999
 21
22.0390512774
  0
LINE
  5
61A
100
AcDbEntity
  8
SUPERFICI
100
AcDbLine
 62
7
  6
CONTINUOUS
 10
-35.3372479655
 20
25.6346794434
 11
-37.7285127591
 21
25.6346794434
  0
LINE
  5
61B
100
AcDbEntity
  8
SUPERFICI
100
AcDbLine
 62
7
  6
CONTINUOUS
 10
-52.7372479655
 20
25.6346794434
 11
-55.1285127591
 21
25.6346794434
  0
ARC
  5
61C
100
AcDbEntity
  8
INCISIONI
100
AcDbCircle
 62
253
  6
CONTINUOUS
 10
-124.9418893027
 20
7.1237254873
 40
90.8056004093
100
AcDbArc
 50
359.8863943748
 51
0.1855862268
  0
ARC
  5
61D
100
AcDbEntity
  8
RACCORDO
100
AcDbCircle
 62
253
  6
CONTINUOUS
 10
-53.9915823082
 20
-16.370440637
 40
1.9999999708
100
AcDbArc
 50
180.0035469634
 51
224.9964689797
  0
ARC
  5
61E
100
AcDbEntity
  8
ASSI
100
AcDbCircle
 62
253
  6
CONTINUOUS
 10
-53.9915823082
 20
-16.370440637
 40
1.9999999708
100
AcDbArc
 50
180.0035469634
 51
224.9964689797
  0
ARC
  5
61F
100
AcDbEntity
  8
RACCORDO
100
AcDbCircle
 62
253
  6
CONTINUOUS
 10
-54.5209877143
 20
-17.2550155801
 40
1.0001648821
100
AcDbArc
 50
225.0075262522
 51
269.9924737478
  0
ARC
  5
620
100
AcDbEntity
  8
ASSI
100
AcDbCircle
 62
253
  6
CONTINUOUS
 10
-54.5209877143
 20
-17.2550155801
 40
1.0001648821
100
AcDbArc
 50
225.0075262522
 51
269.9924737478
  0
ARC
  5
621
100
AcDbEntity
  8
RACCORDO
100
AcDbCircle
 62
253
  6
CONTINUOUS
 10
-53.9918994289
 20
-16.3705719927
 40
0.9998351509
100
AcDbArc
 50
179.9997022418
 51
225.0002977582
  0
ARC
  5
622
100
AcDbEntity
  8
ASSI
100
AcDbCircle
 62
253
  6
CONTINUOUS
 10
-53.9918994289
 20
-16.3705719927
 40
0.9998351509
100
AcDbArc
 50
179.9997022418
 51
225.0002977582
  0
ARC
  5
623
100
AcDbEntity
  8
SUPERFICI
100
AcDbCircle
 62
7
  6
CONTINUOUS
 10
-49.2328803623
 20
-22.0109487226
 40
0.5
100
AcDbArc
 50
144.3637748935
 51
215.6362251065
  0
ARC
  5
624
100
AcDbEntity
  8
SUPERFICI
100
AcDbCircle
 62
7
  6
CONTINUOUS
 10
-55.8829188176
 20
-20.7609926908
 40
0.4999576362
100
AcDbArc
 50
179.9687347088
 51
269.9607896942
  0
ARC
  5
625
100
AcDbEntity
  8
SUPERFICI
100
AcDbCircle
 62
7
  6
CONTINUOUS
 10
-55.1320335009
 20
-23.1107249042
 40
0.250870749
100
AcDbArc
 50
188.2057126837
 51
201.7942999602
  0
ARC
  5
626
100
AcDbEntity
  8
SUPERFICI
100
AcDbCircle
 62
7
  6
CONTINUOUS
 10
-52.7331041808
 20
-23.1101018612
 40
0.250870749
100
AcDbArc
 50
278.2057126838
 51
291.7942999602
  0
ARC
  5
627
100
AcDbEntity
  8
SUPERFICI
100
AcDbCircle
 62
7
  6
CONTINUOUS
 10
-55.1325034864
 20
-23.1109262159
 40
0.2503768773
100
AcDbArc
 50
180.0061185554
 51
188.1754669505
  0
ARC
  5
628
100
AcDbEntity
  8
SUPERFICI
100
AcDbCircle
 62
7
  6
CONTINUOUS
 10
-52.732902869
 20
-23.1105718468
 40
0.2503768773
100
AcDbArc
 50
270.0061185554
 51
278.1754669505
  0
ARC
  5
629
100
AcDbEntity
  8
SUPERFICI
100
AcDbCircle
 62
7
  6
CONTINUOUS
 10
-55.1285019103
 20
-23.1065702707
 40
0.2500066182
100
AcDbArc
 50
180.0024862874
 51
269.9975137126
  0
ARC
  5
62A
100
AcDbEntity
  8
SUPERFICI
100
AcDbCircle
 62
7
  6
CONTINUOUS
 10
-52.7372588138
 20
-23.1065702711
 40
0.2500066177
100
AcDbArc
 50
270.0024861811
 51
359.9975138189
  0
ARC
  5
62B
100
AcDbEntity
  8
SUPERFICI
100
AcDbCircle
 62
7
  6
CONTINUOUS
 10
-55.1328880008
 20
-23.1109563612
 40
0.249991413
100
AcDbArc
 50
201.8177557666
 51
248.1822442334
  0
ARC
  5
62C
100
AcDbEntity
  8
SUPERFICI
100
AcDbCircle
 62
7
  6
CONTINUOUS
 10
-52.7328727237
 20
-23.1109563612
 40
0.249991413
100
AcDbArc
 50
291.8177557666
 51
338.1822442334
  0
ARC
  5
62D
100
AcDbEntity
  8
SUPERFICI
100
AcDbCircle
 62
7
  6
CONTINUOUS
 10
-46.4328736057
 20
-22.6609554792
 40
0.1999932435
100
AcDbArc
 50
269.9987915599
 51
359.9999963837
  0
ARC
  5
62E
100
AcDbEntity
  8
DRAFT
100
AcDbCircle
 62
7
  6
CONTINUOUS
 10
-46.3400823322
 20
-4.3537984758
 40
26.0907175522
100
AcDbArc
 50
77.0792653429
 51
77.4703018509
  0
ARC
  5
62F
100
AcDbEntity
  8
DRAFT
100
AcDbCircle
 62
7
  6
CONTINUOUS
 10
-45.2376844615
 20
-13.0490522267
 40
7.4397335758
100
AcDbArc
 50
227.8120707324
 51
230.6027210084
  0
ARC
  5
630
100
AcDbEntity
  8
RACCORDO
100
AcDbCircle
 62
253
  6
CONTINUOUS
 10
-36.4741784163
 20
-16.370440637
 40
1.9999999708
100
AcDbArc
 50
315.0035310201
 51
359.9964530363
  0
ARC
  5
631
100
AcDbEntity
  8
ASSI
100
AcDbCircle
 62
253
  6
CONTINUOUS
 10
-36.4741784163
 20
-16.370440637
 40
1.9999999708
100
AcDbArc
 50
315.0035310201
 51
359.9964530363
  0
ARC
  5
632
100
AcDbEntity
  8
RACCORDO
100
AcDbCircle
 62
253
  6
CONTINUOUS
 10
-35.9447730103
 20
-17.2550155801
 40
1.0001648821
100
AcDbArc
 50
270.0075262522
 51
314.9924737478
  0
ARC
  5
633
100
AcDbEntity
  8
ASSI
100
AcDbCircle
 62
253
  6
CONTINUOUS
 10
-35.9447730103
 20
-17.2550155801
 40
1.0001648821
100
AcDbArc
 50
270.0075262522
 51
314.9924737478
  0
ARC
  5
634
100
AcDbEntity
  8
RACCORDO
100
AcDbCircle
 62
253
  6
CONTINUOUS
 10
-36.4738612956
 20
-16.3705719927
 40
0.9998351509
100
AcDbArc
 50
314.9997022418
 51
0.0002977582
  0
ARC
  5
635
100
AcDbEntity
  8
ASSI
100
AcDbCircle
 62
253
  6
CONTINUOUS
 10
-36.4738612956
 20
-16.3705719927
 40
0.9998351509
100
AcDbArc
 50
314.9997022418
 51
0.0002977582
  0
ARC
  5
636
100
AcDbEntity
  8
SUPERFICI
100
AcDbCircle
 62
7
  6
CONTINUOUS
 10
-41.2328803623
 20
-22.0109487226
 40
0.5
100
AcDbArc
 50
324.3637748935
 51
35.6362251065
  0
ARC
  5
637
100
AcDbEntity
  8
SUPERFICI
100
AcDbCircle
 62
7
  6
CONTINUOUS
 10
-34.5828421329
 20
-20.7609924651
 40
0.4999579139
100
AcDbArc
 50
270.0392361788
 51
0.0312394202
  0
ARC
  5
638
100
AcDbEntity
  8
SUPERFICI
100
AcDbCircle
 62
7
  6
CONTINUOUS
 10
-35.3331041808
 20
-23.1101018612
 40
0.250870749
100
AcDbArc
 50
278.2057126838
 51
291.7942999602
  0
ARC
  5
639
100
AcDbEntity
  8
SUPERFICI
100
AcDbCircle
 62
7
  6
CONTINUOUS
 10
-37.7320335009
 20
-23.1107249042
 40
0.250870749
100
AcDbArc
 50
188.2057126838
 51
201.7942999602
  0
ARC
  5
63A
100
AcDbEntity
  8
SUPERFICI
100
AcDbCircle
 62
7
  6
CONTINUOUS
 10
-35.332902869
 20
-23.1105718468
 40
0.2503768773
100
AcDbArc
 50
270.0061185554
 51
278.1754669505
  0
ARC
  5
63B
100
AcDbEntity
  8
SUPERFICI
100
AcDbCircle
 62
7
  6
CONTINUOUS
 10
-37.7325034864
 20
-23.1109262159
 40
0.2503768773
100
AcDbArc
 50
180.0061185554
 51
188.1754669505
  0
ARC
  5
63C
100
AcDbEntity
  8
SUPERFICI
100
AcDbCircle
 62
7
  6
CONTINUOUS
 10
-35.3372588143
 20
-23.1065702707
 40
0.2500066182
100
AcDbArc
 50
270.0024862874
 51
359.9975137126
  0
ARC
  5
63D
100
AcDbEntity
  8
SUPERFICI
100
AcDbCircle
 62
7
  6
CONTINUOUS
 10
-37.7285019108
 20
-23.1065702711
 40
0.2500066177
100
AcDbArc
 50
180.0024861811
 51
269.9975138189
  0
ARC
  5
63E
100
AcDbEntity
  8
SUPERFICI
100
AcDbCircle
 62
7
  6
CONTINUOUS
 10
-35.3328727237
 20
-23.1109563612
 40
0.249991413
100
AcDbArc
 50
291.8177557666
 51
338.1822442334
  0
ARC
  5
63F
100
AcDbEntity
  8
SUPERFICI
100
AcDbCircle
 62
7
  6
CONTINUOUS
 10
-37.7328880008
 20
-23.1109563612
 40
0.249991413
100
AcDbArc
 50
201.8177557666
 51
248.1822442334
  0
ARC
  5
640
100
AcDbEntity
  8
SUPERFICI
100
AcDbCircle
 62
7
  6
CONTINUOUS
 10
-44.0328871188
 20
-22.6609554792
 40
0.1999932435
100
AcDbArc
 50
180.0000036163
 51
270.0012084401
  0
ARC
  5
641
100
AcDbEntity
  8
DRAFT
100
AcDbCircle
 62
7
  6
CONTINUOUS
 10
-44.1047586652
 20
-4.4464365047
 40
26.1856877303
100
AcDbArc
 50
102.5304072569
 51
102.9200255493
  0
ARC
  5
642
100
AcDbEntity
  8
DRAFT
100
AcDbCircle
 62
7
  6
CONTINUOUS
 10
-45.2280733459
 20
-13.0490558442
 40
7.4397289289
100
AcDbArc
 50
309.3972793131
 51
312.187939654
  0
ARC
  5
643
100
AcDbEntity
  8
DRAFT
100
AcDbCircle
 62
253
  6
CONTINUOUS
 10
-45.2328803623
 20
-13.0609487226
 40
7.3551451296
100
AcDbArc
 50
228.3990072261
 51
231.754569637
  0
ARC
  5
644
100
AcDbEntity
  8
DRAFT
100
AcDbCircle
 62
253
  6
CONTINUOUS
 10
-45.2328803623
 20
-13.0609487226
 40
7.3551451296
100
AcDbArc
 50
308.245430363
 51
311.5994821895
  0
ARC
  5
645
100
AcDbEntity
  8
DRAFT
100
AcDbCircle
 62
253
  6
CONTINUOUS
 10
-45.2328803623
 20
-13.0609487226
 40
7.0551908211
100
AcDbArc
 50
305.0030930783
 51
308.7737836475
  0
ARC
  5
646
100
AcDbEntity
  8
DRAFT
100
AcDbCircle
 62
253
  6
CONTINUOUS
 10
-45.2328803623
 20
-13.0609487226
 40
7.0551908211
100
AcDbArc
 50
231.2272282145
 51
234.9969069217
  0
ARC
  5
647
100
AcDbEntity
  8
DRAFT
100
AcDbCircle
 62
7
  6
CONTINUOUS
 10
-46.3610020593
 20
6.7245390594
 40
26.1856877303
100
AcDbArc
 50
282.5304072569
 51
282.9200255493
  0
ARC
  5
648
100
AcDbEntity
  8
DRAFT
100
AcDbCircle
 62
7
  6
CONTINUOUS
 10
-45.2376872158
 20
15.3271581984
 40
7.4397291871
100
AcDbArc
 50
129.3972793021
 51
132.1879348991
  0
ARC
  5
649
100
AcDbEntity
  8
RACCORDO
100
AcDbCircle
 62
253
  6
CONTINUOUS
 10
-53.9915823082
 20
18.6485431917
 40
1.9999999708
100
AcDbArc
 50
135.0035310201
 51
179.9964530363
  0
ARC
  5
64A
100
AcDbEntity
  8
ASSI
100
AcDbCircle
 62
253
  6
CONTINUOUS
 10
-53.9915823082
 20
18.6485431917
 40
1.9999999708
100
AcDbArc
 50
135.0035310201
 51
179.9964530363
  0
ARC
  5
64B
100
AcDbEntity
  8
RACCORDO
100
AcDbCircle
 62
253
  6
CONTINUOUS
 10
-54.5209877143
 20
19.5331181348
 40
1.0001648821
100
AcDbArc
 50
90.0075262522
 51
134.9924737478
  0
ARC
  5
64C
100
AcDbEntity
  8
ASSI
100
AcDbCircle
 62
253
  6
CONTINUOUS
 10
-54.5209877143
 20
19.5331181348
 40
1.0001648821
100
AcDbArc
 50
90.0075262522
 51
134.9924737478
  0
ARC
  5
64D
100
AcDbEntity
  8
RACCORDO
100
AcDbCircle
 62
253
  6
CONTINUOUS
 10
-53.9918994289
 20
18.6486745474
 40
0.9998351509
100
AcDbArc
 50
134.9997022418
 51
180.0002977582
  0
ARC
  5
64E
100
AcDbEntity
  8
ASSI
100
AcDbCircle
 62
253
  6
CONTINUOUS
 10
-53.9918994289
 20
18.6486745474
 40
0.9998351509
100
AcDbArc
 50
134.9997022418
 51
180.0002977582
  0
ARC
  5
64F
100
AcDbEntity
  8
SUPERFICI
100
AcDbCircle
 62
7
  6
CONTINUOUS
 10
-49.2328803623
 20
24.2890512774
 40
0.5
100
AcDbArc
 50
144.3637748935
 51
215.6362251065
  0
ARC
  5
650
100
AcDbEntity
  8
SUPERFICI
100
AcDbCircle
 62
7
  6
CONTINUOUS
 10
-55.8829187755
 20
23.0390952875
 40
0.4999576362
100
AcDbArc
 50
90.039215127
 51
180.0312701107
  0
ARC
  5
651
100
AcDbEntity
  8
SUPERFICI
100
AcDbCircle
 62
7
  6
CONTINUOUS
 10
-55.1326565438
 20
25.3882044159
 40
0.250870749
100
AcDbArc
 50
98.2057126837
 51
111.7942999603
  0
ARC
  5
652
100
AcDbEntity
  8
SUPERFICI
100
AcDbCircle
 62
7
  6
CONTINUOUS
 10
-52.7337272237
 20
25.3888274589
 40
0.250870749
100
AcDbArc
 50
8.2057126837
 51
21.7942999603
  0
ARC
  5
653
100
AcDbEntity
  8
SUPERFICI
100
AcDbCircle
 62
7
  6
CONTINUOUS
 10
-55.1328578556
 20
25.3886744015
 40
0.2503768773
100
AcDbArc
 50
90.0061185554
 51
98.1754669505
  0
ARC
  5
654
100
AcDbEntity
  8
SUPERFICI
100
AcDbCircle
 62
7
  6
CONTINUOUS
 10
-52.7332572382
 20
25.3890287707
 40
0.2503768773
100
AcDbArc
 50
0.0061185554
 51
8.1754669505
  0
ARC
  5
655
100
AcDbEntity
  8
SUPERFICI
100
AcDbCircle
 62
7
  6
CONTINUOUS
 10
-55.1285019103
 20
25.3846728254
 40
0.2500066182
100
AcDbArc
 50
90.0024862874
 51
179.9975137126
  0
ARC
  5
656
100
AcDbEntity
  8
SUPERFICI
100
AcDbCircle
 62
7
  6
CONTINUOUS
 10
-52.7372588138
 20
25.3846728258
 40
0.2500066177
100
AcDbArc
 50
0.0024861811
 51
89.9975138189
  0
ARC
  5
657
100
AcDbEntity
  8
SUPERFICI
100
AcDbCircle
 62
7
  6
CONTINUOUS
 10
-55.1328880008
 20
25.3890589159
 40
0.249991413
100
AcDbArc
 50
111.8177557666
 51
158.1822442334
  0
ARC
  5
658
100
AcDbEntity
  8
SUPERFICI
100
AcDbCircle
 62
7
  6
CONTINUOUS
 10
-52.7328727237
 20
25.3890589159
 40
0.249991413
100
AcDbArc
 50
21.8177557666
 51
68.1822442334
  0
ARC
  5
659
100
AcDbEntity
  8
SUPERFICI
100
AcDbCircle
 62
7
  6
CONTINUOUS
 10
-46.4328736057
 20
24.9390580339
 40
0.1999932435
100
AcDbArc
 50
0.0000036163
 51
90.0012084401
  0
ARC
  5
65A
100
AcDbEntity
  8
DRAFT
100
AcDbCircle
 62
7
  6
CONTINUOUS
 10
-44.1256783925
 20
6.6319010301
 40
26.0907175517
100
AcDbArc
 50
257.0792653429
 51
257.4703018509
  0
ARC
  5
65B
100
AcDbEntity
  8
DRAFT
100
AcDbCircle
 62
7
  6
CONTINUOUS
 10
-45.2280763496
 20
15.3271546756
 40
7.4397337125
100
AcDbArc
 50
47.8120757096
 51
50.6027210102
  0
ARC
  5
65C
100
AcDbEntity
  8
DRAFT
100
AcDbCircle
 62
253
  6
CONTINUOUS
 10
-45.2328803623
 20
15.3390512774
 40
7.3551451296
100
AcDbArc
 50
48.3990072261
 51
51.754569637
  0
ARC
  5
65D
100
AcDbEntity
  8
DRAFT
100
AcDbCircle
 62
253
  6
CONTINUOUS
 10
-45.2328803623
 20
15.3390512774
 40
7.3551451296
100
AcDbArc
 50
128.245430363
 51
131.5994821895
  0
ARC
  5
65E
100
AcDbEntity
  8
DRAFT
100
AcDbCircle
 62
253
  6
CONTINUOUS
 10
-45.2328803623
 20
15.3390512774
 40
7.0551908211
100
AcDbArc
 50
125.0030930783
 51
128.7737836475
  0
ARC
  5
65F
100
AcDbEntity
  8
DRAFT
100
AcDbCircle
 62
253
  6
CONTINUOUS
 10
-45.2328803623
 20
15.3390512774
 40
7.0551908211
100
AcDbArc
 50
51.2272282145
 51
54.9969069217
  0
ARC
  5
660
100
AcDbEntity
  8
RACCORDO
100
AcDbCircle
 62
253
  6
CONTINUOUS
 10
-36.4741784163
 20
18.6485431917
 40
1.9999999708
100
AcDbArc
 50
0.0035469634
 51
44.9964689797
  0
ARC
  5
661
100
AcDbEntity
  8
ASSI
100
AcDbCircle
 62
253
  6
CONTINUOUS
 10
-36.4741784163
 20
18.6485431917
 40
1.9999999708
100
AcDbArc
 50
0.0035469634
 51
44.9964689797
  0
ARC
  5
662
100
AcDbEntity
  8
RACCORDO
100
AcDbCircle
 62
253
  6
CONTINUOUS
 10
-35.9447730103
 20
19.5331181348
 40
1.0001648821
100
AcDbArc
 50
45.0075262522
 51
89.9924737478
  0
ARC
  5
663
100
AcDbEntity
  8
ASSI
100
AcDbCircle
 62
253
  6
CONTINUOUS
 10
-35.9447730103
 20
19.5331181348
 40
1.0001648821
100
AcDbArc
 50
45.0075262522
 51
89.9924737478
  0
ARC
  5
664
100
AcDbEntity
  8
RACCORDO
100
AcDbCircle
 62
253
  6
CONTINUOUS
 10
-36.4738612956
 20
18.6486745474
 40
0.9998351509
100
AcDbArc
 50
359.9997022418
 51
45.0002977582
  0
ARC
  5
665
100
AcDbEntity
  8
ASSI
100
AcDbCircle
 62
253
  6
CONTINUOUS
 10
-36.4738612956
 20
18.6486745474
 40
0.9998351509
100
AcDbArc
 50
359.9997022418
 51
45.0002977582
  0
ARC
  5
666
100
AcDbEntity
  8
SUPERFICI
100
AcDbCircle
 62
7
  6
CONTINUOUS
 10
-41.2328803623
 20
24.2890512774
 40
0.5
100
AcDbArc
 50
324.3637748935
 51
35.6362251065
  0
ARC
  5
667
100
AcDbEntity
  8
SUPERFICI
100
AcDbCircle
 62
7
  6
CONTINUOUS
 10
-34.582842175
 20
23.039095062
 40
0.4999579139
100
AcDbArc
 50
359.9687557524
 51
89.9607589951
  0
ARC
  5
668
100
AcDbEntity
  8
SUPERFICI
100
AcDbCircle
 62
7
  6
CONTINUOUS
 10
-37.7326565438
 20
25.3882044159
 40
0.250870749
100
AcDbArc
 50
98.2057126837
 51
111.7942999603
  0
ARC
  5
669
100
AcDbEntity
  8
SUPERFICI
100
AcDbCircle
 62
7
  6
CONTINUOUS
 10
-35.3337272237
 20
25.3888274589
 40
0.250870749
100
AcDbArc
 50
8.2057126837
 51
21.7942999602
  0
ARC
  5
66A
100
AcDbEntity
  8
SUPERFICI
100
AcDbCircle
 62
7
  6
CONTINUOUS
 10
-37.7328578556
 20
25.3886744015
 40
0.2503768773
100
AcDbArc
 50
90.0061185554
 51
98.1754669505
  0
ARC
  5
66B
100
AcDbEntity
  8
SUPERFICI
100
AcDbCircle
 62
7
  6
CONTINUOUS
 10
-35.3332572382
 20
25.3890287707
 40
0.2503768773
100
AcDbArc
 50
0.0061185554
 51
8.1754669505
  0
ARC
  5
66C
100
AcDbEntity
  8
SUPERFICI
100
AcDbCircle
 62
7
  6
CONTINUOUS
 10
-37.7285019103
 20
25.3846728254
 40
0.2500066182
100
AcDbArc
 50
90.0024862874
 51
179.9975137126
  0
ARC
  5
66D
100
AcDbEntity
  8
SUPERFICI
100
AcDbCircle
 62
7
  6
CONTINUOUS
 10
-35.3372588143
 20
25.3846728254
 40
0.2500066182
100
AcDbArc
 50
0.0024862874
 51
89.9975137126
  0
ARC
  5
66E
100
AcDbEntity
  8
SUPERFICI
100
AcDbCircle
 62
7
  6
CONTINUOUS
 10
-37.7328880008
 20
25.3890589159
 40
0.249991413
100
AcDbArc
 50
111.8177557666
 51
158.1822442334
  0
ARC
  5
66F
100
AcDbEntity
  8
SUPERFICI
100
AcDbCircle
 62
7
  6
CONTINUOUS
 10
-35.3328727237
 20
25.3890589159
 40
0.249991413
100
AcDbArc
 50
21.8177557666
 51
68.1822442334
  0
ARC
  5
670
100
AcDbEntity
  8
SUPERFICI
100
AcDbCircle
 62
7
  6
CONTINUOUS
 10
-44.0328871188
 20
24.9390580339
 40
0.1999932435
100
AcDbArc
 50
89.9987915599
 51
179.9999963837
  0
SPLINE
  5
671
100
AcDbEntity
  8
SUPERFICI
100
AcDbSpline
 62
7
  6
CONTINUOUS
 70
0
 71
3
 72
8
 73
4
 74
2
 42
0.0000001
 43
0.0000001
 44
0.0000000001
 12
0.0878470164
 22
-0.0351655621
 32
0.0
 13
0.0946240723
 23
0.0
 33
0.0
 40
0.0
 40
0.0
 40
0.0
 40
0.0
 40
1.0
 40
1.0
 40
1.0
 40
1.0
 10
-55.2257986975
 20
-23.3430410634
 30
0.0
 10
-55.1965163587
 20
-23.3547629174
 30
0.0
 10
-55.1644259505
 20
-23.3609487226
 30
0.0
 10
-55.1328845931
 20
-23.3609487226
 30
0.0
 11
-55.2257986975
 21
-23.3430410634
 31
0.0
 11
-55.1328845931
 21
-23.3609487226
 31
0.0
  0
SPLINE
  5
672
100
AcDbEntity
  8
SUPERFICI
100
AcDbSpline
 62
7
  6
CONTINUOUS
 70
0
 71
3
 72
8
 73
4
 74
2
 42
0.0000001
 43
0.0000001
 44
0.0000000001
 12
0.0351655621
 22
0.0878470164
 32
0.0
 13
0.0
 23
0.0946240723
 33
0.0
 40
0.0
 40
0.0
 40
0.0
 40
0.0
 40
1.0
 40
1.0
 40
1.0
 40
1.0
 10
-52.5007880215
 20
-23.2038670578
 30
0.0
 10
-52.4890661675
 20
-23.174584719
 30
0.0
 10
-52.4828803623
 20
-23.1424943109
 30
0.0
 10
-52.4828803623
 20
-23.1109529534
 30
0.0
 11
-52.5007880215
 21
-23.2038670578
 31
0.0
 11
-52.4828803623
 21
-23.1109529534
 31
0.0
  0
SPLINE
  5
673
100
AcDbEntity
  8
SUPERFICI
100
AcDbSpline
 62
7
  6
CONTINUOUS
 70
0
 71
3
 72
8
 73
4
 74
2
 42
0.0000001
 43
0.0000001
 44
0.0000000001
 12
0.0351655621
 22
0.0878470164
 32
0.0
 13
0.0
 23
0.0946240723
 33
0.0
 40
0.0
 40
0.0
 40
0.0
 40
0.0
 40
1.0
 40
1.0
 40
1.0
 40
1.0
 10
-35.1007880215
 20
-23.2038670578
 30
0.0
 10
-35.0890661675
 20
-23.174584719
 30
0.0
 10
-35.0828803623
 20
-23.1424943109
 30
0.0
 10
-35.0828803623
 20
-23.1109529534
 30
0.0
 11
-35.1007880215
 21
-23.2038670578
 31
0.0
 11
-35.0828803623
 21
-23.1109529534
 31
0.0
  0
SPLINE
  5
674
100
AcDbEntity
  8
SUPERFICI
100
AcDbSpline
 62
7
  6
CONTINUOUS
 70
0
 71
3
 72
8
 73
4
 74
2
 42
0.0000001
 43
0.0000001
 44
0.0000000001
 12
0.0878470164
 22
-0.0351655621
 32
0.0
 13
0.0946240723
 23
0.0
 33
0.0
 40
0.0
 40
0.0
 40
0.0
 40
0.0
 40
1.0
 40
1.0
 40
1.0
 40
1.0
 10
-37.8257986975
 20
-23.3430410634
 30
0.0
 10
-37.7965163587
 20
-23.3547629174
 30
0.0
 10
-37.7644259505
 20
-23.3609487226
 30
0.0
 10
-37.7328845931
 20
-23.3609487226
 30
0.0
 11
-37.8257986975
 21
-23.3430410634
 31
0.0
 11
-37.7328845931
 21
-23.3609487226
 31
0.0
  0
SPLINE
  5
675
100
AcDbEntity
  8
SUPERFICI
100
AcDbSpline
 62
7
  6
CONTINUOUS
 70
0
 71
3
 72
8
 73
4
 74
2
 42
0.0000001
 43
0.0000001
 44
0.0000000001
 12
-0.0351655621
 22
-0.0878470164
 32
0.0
 13
0.0
 23
-0.0946240723
 33
0.0
 40
0.0
 40
0.0
 40
0.0
 40
0.0
 40
1.0
 40
1.0
 40
1.0
 40
1.0
 10
-55.364972703
 20
25.4819696126
 30
0.0
 10
-55.3766945571
 20
25.4526872737
 30
0.0
 10
-55.3828803623
 20
25.4205968656
 30
0.0
 10
-55.3828803623
 20
25.3890555081
 30
0.0
 11
-55.364972703
 21
25.4819696126
 31
0.0
 11
-55.3828803623
 21
25.3890555081
 31
0.0
  0
SPLINE
  5
676
100
AcDbEntity
  8
SUPERFICI
100
AcDbSpline
 62
7
  6
CONTINUOUS
 70
0
 71
3
 72
8
 73
4
 74
2
 42
0.0000001
 43
0.0000001
 44
0.0000000001
 12
-0.0878470164
 22
0.0351655621
 32
0.0
 13
-0.0946240723
 23
0.0
 33
0.0
 40
0.0
 40
0.0
 40
0.0
 40
0.0
 40
1.0
 40
1.0
 40
1.0
 40
1.0
 10
-52.6399620271
 20
25.6211436181
 30
0.0
 10
-52.6692443659
 20
25.6328654722
 30
0.0
 10
-52.7013347741
 20
25.6390512774
 30
0.0
 10
-52.7328761315
 20
25.6390512774
 30
0.0
 11
-52.6399620271
 21
25.6211436181
 31
0.0
 11
-52.7328761315
 21
25.6390512774
 31
0.0
  0
SPLINE
  5
677
100
AcDbEntity
  8
SUPERFICI
100
AcDbSpline
 62
7
  6
CONTINUOUS
 70
0
 71
3
 72
8
 73
4
 74
2
 42
0.0000001
 43
0.0000001
 44
0.0000000001
 12
-0.0351655621
 22
-0.0878470164
 32
0.0
 13
0.0
 23
-0.0946240723
 33
0.0
 40
0.0
 40
0.0
 40
0.0
 40
0.0
 40
1.0
 40
1.0
 40
1.0
 40
1.0
 10
-37.964972703
 20
25.4819696126
 30
0.0
 10
-37.9766945571
 20
25.4526872737
 30
0.0
 10
-37.9828803623
 20
25.4205968656
 30
0.0
 10
-37.9828803623
 20
25.3890555081
 30
0.0
 11
-37.964972703
 21
25.4819696126
 31
0.0
 11
-37.9828803623
 21
25.3890555081
 31
0.0
  0
SPLINE
  5
678
100
AcDbEntity
  8
SUPERFICI
100
AcDbSpline
 62
7
  6
CONTINUOUS
 70
0
 71
3
 72
8
 73
4
 74
2
 42
0.0000001
 43
0.0000001
 44
0.0000000001
 12
-0.0878470164
 22
0.0351655621
 32
0.0
 13
-0.0946240723
 23
0.0
 33
0.0
 40
0.0
 40
0.0
 40
0.0
 40
0.0
 40
1.0
 40
1.0
 40
1.0
 40
1.0
 10
-35.2399620271
 20
25.6211436181
 30
0.0
 10
-35.2692443659
 20
25.6328654722
 30
0.0
 10
-35.3013347741
 20
25.6390512774
 30
0.0
 10
-35.3328761315
 20
25.6390512774
 30
0.0
 11
-35.2399620271
 21
25.6211436181
 31
0.0
 11
-35.3328761315
 21
25.6390512774
 31
0.0
  0
SPLINE
  5
679
100
AcDbEntity
  8
DRAFT
100
AcDbSpline
 62
7
  6
CONTINUOUS
 70
0
 71
3
 72
9
 73
5
 74
3
 42
0.0000001
 43
0.0000001
 44
0.0000000001
 12
0.0042048781
 22
4.0522941252
 32
0.0
 13
0.0074739455
 23
4.0522894144
 33
0.0
 40
0.0
 40
0.0
 40
0.0
 40
0.0
 40
0.2503377726
 40
1.0
 40
1.0
 40
1.0
 40
1.0
 10
-35.7202490613
 20
14.1867859133
 30
0.0
 10
-35.7198981814
 20
14.5249333418
 30
0.0
 10
-35.7183608486
 20
15.8756979058
 30
0.0
 10
-35.7162803874
 20
17.2264618527
 30
0.0
 10
-35.7144127425
 20
18.2390779555
 30
0.0
 11
-35.7202490613
 21
14.1867859133
 31
0.0
 11
-35.7190944391
 21
15.2012280877
 31
0.0
 11
-35.7144127425
 21
18.2390779555
 31
0.0
  0
SPLINE
  5
67A
100
AcDbEntity
  8
SUPERFICI
100
AcDbSpline
 62
7
  6
CONTINUOUS
 70
0
 71
3
 72
18
 73
14
 74
12
 42
0.0000001
 43
0.0000001
 44
0.0000000001
 12
0.4645026774
 22
-0.4879818291
 32
0.0
 13
0.0392554892
 23
-0.6725682191
 33
0.0
 40
0.0
 40
0.0
 40
0.0
 40
0.0
 40
0.1636809462
 40
0.3250686682
 40
0.4815234555
 40
0.6295752314
 40
0.7642664833
 40
0.8244098295
 40
0.8781868014
 40
0.9241536491
 40
0.9607162283
 40
0.9863263319
 40
1.0
 40
1.0
 40
1.0
 40
1.0
 10
-41.2798376523
 20
-22.3173065373
 30
0.0
 10
-41.2544942398
 20
-22.3439309798
 30
0.0
 10
-41.2041622571
 20
-22.3968066895
 30
0.0
 10
-41.1296849971
 20
-22.4752065684
 30
0.0
 10
-41.0577930804
 20
-22.551222225
 30
0.0
 10
-40.9903169895
 20
-22.6231578839
 30
0.0
 10
-40.9380236422
 20
-22.67968935
 30
0.0
 10
-40.900573518
 20
-22.7210856964
 30
0.0
 10
-40.8767420255
 20
-22.7479735962
 30
0.0
 10
-40.856910435
 20
-22.771209538
 30
0.0
 10
-40.8414297775
 20
-22.7901426482
 30
0.0
 10
-40.8318956358
 20
-22.803858496
 30
0.0
 10
-40.8269815315
 20
-22.8117755042
 30
0.0
 10
-40.8268026093
 20
-22.8148409957
 30
0.0
 11
-41.2798376523
 21
-22.3173065373
 31
0.0
 11
-41.203820774
 21
-22.3971925793
 31
0.0
 11
-41.1289515656
 21
-22.4760379543
 31
0.0
 11
-41.0565506487
 21
-22.5526437494
 31
0.0
 11
-40.9883516075
 21
-22.6254299628
 31
0.0
 11
-40.9268287203
 21
-22.6921327934
 31
0.0
 11
-40.8996648379
 21
-22.7221984021
 31
0.0
 11
-40.8756811067
 21
-22.7493537092
 31
0.0
 11
-40.8556020474
 21
-22.7729307454
 31
0.0
 11
-40.8402371111
 21
-22.7921839953
 31
0.0
 11
-40.830405385
 21
-22.8063625954
 31
0.0
 11
-40.8268026093
 21
-22.8148409957
 31
0.0
  0
SPLINE
  5
67B
100
AcDbEntity
  8
SUPERFICI
100
AcDbSpline
 62
7
  6
CONTINUOUS
 70
0
 71
3
 72
11
 73
7
 74
5
 42
0.0000001
 43
0.0000001
 44
0.0000000001
 12
0.3959562182
 22
0.4697683484
 32
0.0
 13
0.423595118
 23
0.4450065211
 33
0.0
 40
0.0
 40
0.0
 40
0.0
 40
0.0
 40
0.1944974834
 40
0.4421487185
 40
0.7157345637
 40
1.0
 40
1.0
 40
1.0
 40
1.0
 10
-41.6987960846
 20
-22.766620095
 30
0.0
 10
-41.6731252553
 20
-22.7361638412
 30
0.0
 10
-41.6121747045
 20
-22.6691515519
 30
0.0
 10
-41.5121983694
 20
-22.5619794752
 30
0.0
 10
-41.3987366012
 20
-22.4422268305
 30
0.0
 10
-41.3199754694
 20
-22.359473195
 30
0.0
 10
-41.2798376523
 20
-22.3173065373
 30
0.0
 11
-41.6987960846
 21
-22.766620095
 31
0.0
 11
-41.6193451856
 21
-22.6773635628
 31
0.0
 11
-41.5156827717
 21
-22.5659886268
 31
0.0
 11
-41.4001968689
 21
-22.443858113
 31
0.0
 11
-41.2798376523
 21
-22.3173065373
 31
0.0
  0
SPLINE
  5
67C
100
AcDbEntity
  8
SUPERFICI
100
AcDbSpline
 62
7
  6
CONTINUOUS
 70
0
 71
3
 72
11
 73
7
 74
5
 42
0.0000001
 43
0.0000001
 44
0.0000000001
 12
0.423595118
 22
-0.4450065211
 32
0.0
 13
0.3959562182
 23
-0.4697683484
 33
0.0
 40
0.0
 40
0.0
 40
0.0
 40
0.0
 40
0.2842655446
 40
0.5578513225
 40
0.8055025744
 40
1.0
 40
1.0
 40
1.0
 40
1.0
 10
-49.1859230722
 20
-22.3173065373
 30
0.0
 10
-49.1457852399
 20
-22.359473211
 30
0.0
 10
-49.0670241022
 20
-22.4422268525
 30
0.0
 10
-48.953562326
 20
-22.5619795061
 30
0.0
 10
-48.8535860065
 20
-22.6691515669
 30
0.0
 10
-48.7926354617
 20
-22.7361638502
 30
0.0
 10
-48.76696464
 20
-22.766620095
 30
0.0
 11
-49.1859230722
 21
-22.3173065373
 31
0.0
 11
-49.0655638097
 21
-22.4438581612
 31
0.0
 11
-48.9500779356
 21
-22.5659886451
 31
0.0
 11
-48.8464155151
 21
-22.6773635891
 31
0.0
 11
-48.76696464
 21
-22.766620095
 31
0.0
  0
SPLINE
  5
67D
100
AcDbEntity
  8
SUPERFICI
100
AcDbSpline
 62
7
  6
CONTINUOUS
 70
0
 71
3
 72
18
 73
14
 74
12
 42
0.0000001
 43
0.0000001
 44
0.0000000001
 12
0.0392554892
 22
0.6725682191
 32
0.0
 13
0.4645026773
 23
0.4879818291
 33
0.0
 40
0.0
 40
0.0
 40
0.0
 40
0.0
 40
0.0136736815
 40
0.0392838055
 40
0.0758463948
 40
0.1218132406
 40
0.1755902092
 40
0.2357335554
 40
0.370424812
 40
0.5184765738
 40
0.6749313379
 40
0.8363190669
 40
1.0
 40
1.0
 40
1.0
 40
1.0
 10
-49.6389581152
 20
-22.8148409957
 30
0.0
 10
-49.6387791929
 20
-22.8117755011
 30
0.0
 10
-49.6338650828
 20
-22.8038584867
 30
0.0
 10
-49.6243309347
 20
-22.7901426319
 30
0.0
 10
-49.6088502723
 20
-22.7712095173
 30
0.0
 10
-49.5890186806
 20
-22.7479735752
 30
0.0
 10
-49.5651871887
 20
-22.7210856764
 30
0.0
 10
-49.5277370639
 20
-22.67968933
 30
0.0
 10
-49.4754437181
 20
-22.6231578655
 30
0.0
 10
-49.4079676319
 20
-22.5512222123
 30
0.0
 10
-49.33607572
 20
-22.4752065604
 30
0.0
 10
-49.2615984645
 20
-22.3968066863
 30
0.0
 10
-49.2112664828
 20
-22.3439309777
 30
0.0
 10
-49.1859230722
 20
-22.3173065373
 30
0.0
 11
-49.6389581152
 21
-22.8148409957
 31
0.0
 11
-49.6353553351
 21
-22.8063625875
 31
0.0
 11
-49.6255235997
 21
-22.792183977
 31
0.0
 11
-49.6101586583
 21
-22.7729307226
 31
0.0
 11
-49.5900795993
 21
-22.7493536878
 31
0.0
 11
-49.5660958692
 21
-22.7221983826
 31
0.0
 11
-49.5389319866
 21
-22.6921327742
 31
0.0
 11
-49.4774090972
 21
-22.6254299414
 31
0.0
 11
-49.4092100622
 21
-22.5526437351
 31
0.0
 11
-49.3368091561
 21
-22.4760379513
 31
0.0
 11
-49.2619399445
 21
-22.3971925729
 31
0.0
 11
-49.1859230722
 21
-22.3173065373
 31
0.0
  0
SPLINE
  5
67E
100
AcDbEntity
  8
SUPERFICI
100
AcDbSpline
 62
7
  6
CONTINUOUS
 70
0
 71
3
 72
11
 73
7
 74
5
 42
0.0000001
 43
0.0000001
 44
0.0000000001
 12
-0.423595118
 22
0.4450065211
 32
0.0
 13
-0.3959562182
 23
0.4697683484
 33
0.0
 40
0.0
 40
0.0
 40
0.0
 40
0.0
 40
0.284265502
 40
0.5578513232
 40
0.8055026207
 40
1.0
 40
1.0
 40
1.0
 40
1.0
 10
-41.2798376523
 20
24.5954090921
 30
0.0
 10
-41.3199754786
 20
24.6375757594
 30
0.0
 10
-41.3987366165
 20
24.7203294009
 30
0.0
 10
-41.5121983991
 20
24.8400820615
 30
0.0
 10
-41.6121747246
 20
24.9472541287
 30
0.0
 10
-41.673125269
 20
25.0142664122
 30
0.0
 10
-41.6987960846
 20
25.0447226497
 30
0.0
 11
-41.2798376523
 21
24.5954090921
 31
0.0
 11
-41.4001968968
 21
24.7219606969
 31
0.0
 11
-41.5156827892
 21
24.8440912002
 31
0.0
 11
-41.6193452287
 21
24.9554661648
 31
0.0
 11
-41.6987960846
 21
25.0447226497
 31
0.0
  0
SPLINE
  5
67F
100
AcDbEntity
  8
SUPERFICI
100
AcDbSpline
 62
7
  6
CONTINUOUS
 70
0
 71
3
 72
18
 73
14
 74
12
 42
0.0000001
 43
0.0000001
 44
0.0000000001
 12
-0.0392554892
 22
-0.6725682189
 32
0.0
 13
-0.4645026772
 23
-0.4879818289
 33
0.0
 40
0.0
 40
0.0
 40
0.0
 40
0.0
 40
0.0136737074
 40
0.039283942
 40
0.0758466504
 40
0.1218135185
 40
0.1755904583
 40
0.2357337802
 40
0.370425014
 40
0.5184767384
 40
0.6749313802
 40
0.8363191201
 40
1.0
 40
1.0
 40
1.0
 40
1.0
 10
-40.8268026093
 20
25.0929435504
 30
0.0
 10
-40.826981532
 20
25.0898780501
 30
0.0
 10
-40.8318956629
 20
25.0819610098
 30
0.0
 10
-40.8414298458
 20
25.0682451117
 30
0.0
 10
-40.8569105484
 20
25.0493119559
 30
0.0
 10
-40.8767421599
 20
25.0260759975
 30
0.0
 10
-40.9005736489
 20
24.9991881055
 30
0.0
 10
-40.9380237639
 20
24.9577917733
 30
0.0
 10
-40.9903170966
 20
24.9012603225
 30
0.0
 10
-41.0577931564
 20
24.8293247008
 30
0.0
 10
-41.1296850447
 20
24.7533090726
 30
0.0
 10
-41.2041622748
 20
24.6749092254
 30
0.0
 10
-41.25449425
 20
24.6220335238
 30
0.0
 10
-41.2798376523
 20
24.5954090921
 30
0.0
 11
-40.8268026093
 21
25.0929435504
 31
0.0
 11
-40.8304053986
 21
25.0844651272
 31
0.0
 11
-40.8402371803
 21
25.0702864581
 31
0.0
 11
-40.8556021758
 21
25.0510331442
 31
0.0
 11
-40.8756812482
 21
25.0274561011
 31
0.0
 11
-40.8996649675
 21
25.0003008123
 31
0.0
 11
-40.9268288403
 21
24.970235217
 31
0.0
 11
-40.9883517201
 21
24.9035323963
 31
0.0
 11
-41.0565507387
 21
24.8307462093
 31
0.0
 11
-41.1289515881
 21
24.7541404853
 31
0.0
 11
-41.2038208047
 21
24.6752951016
 31
0.0
 11
-41.2798376523
 21
24.5954090921
 31
0.0
  0
SPLINE
  5
680
100
AcDbEntity
  8
SUPERFICI
100
AcDbSpline
 62
7
  6
CONTINUOUS
 70
0
 71
3
 72
18
 73
14
 74
12
 42
0.0000001
 43
0.0000001
 44
0.0000000001
 12
-0.4645026772
 22
0.4879818289
 32
0.0
 13
-0.0392554892
 23
0.6725682189
 33
0.0
 40
0.0
 40
0.0
 40
0.0
 40
0.0
 40
0.1636808643
 40
0.3250686094
 40
0.4815232246
 40
0.6295749336
 40
0.7642661706
 40
0.8244094933
 40
0.8781864304
 40
0.9241532992
 40
0.9607160206
 40
0.9863262778
 40
1.0
 40
1.0
 40
1.0
 40
1.0
 10
-49.1859230722
 20
24.5954090921
 30
0.0
 10
-49.2112664721
 20
24.6220335212
 30
0.0
 10
-49.2615984457
 20
24.6749092212
 30
0.0
 10
-49.3360756701
 20
24.7533090623
 30
0.0
 10
-49.4079675525
 20
24.8293246846
 30
0.0
 10
-49.4754436068
 20
24.9012602996
 30
0.0
 10
-49.5277369377
 20
24.9577917486
 30
0.0
 10
-49.5651870533
 20
24.9991880806
 30
0.0
 10
-49.5890185425
 20
25.0260759722
 30
0.0
 10
-49.6088501561
 20
25.049311932
 30
0.0
 10
-49.6243308648
 20
25.0682450934
 30
0.0
 10
-49.6338650551
 20
25.0819609996
 30
0.0
 10
-49.6387791923
 20
25.0898780467
 30
0.0
 10
-49.6389581152
 20
25.0929435504
 30
0.0
 11
-49.1859230722
 21
24.5954090921
 31
0.0
 11
-49.2619399126
 21
24.675295094
 31
0.0
 11
-49.3368091316
 21
24.7541404802
 31
0.0
 11
-49.4092099687
 21
24.8307461912
 31
0.0
 11
-49.4774089804
 21
24.9035323704
 31
0.0
 11
-49.5389318619
 21
24.9702351926
 31
0.0
 11
-49.5660957353
 21
25.000300788
 31
0.0
 11
-49.5900794538
 21
25.0274560751
 31
0.0
 11
-49.6101585271
 21
25.0510331181
 31
0.0
 11
-49.6255235291
 21
25.0702864379
 31
0.0
 11
-49.635355321
 21
25.0844651185
 31
0.0
 11
-49.6389581152
 21
25.0929435504
 31
0.0
  0
SPLINE
  5
681
100
AcDbEntity
  8
SUPERFICI
100
AcDbSpline
 62
7
  6
CONTINUOUS
 70
0
 71
3
 72
11
 73
7
 74
5
 42
0.0000001
 43
0.0000001
 44
0.0000000001
 12
-0.3959562182
 22
-0.4697683484
 32
0.0
 13
-0.4235951181
 23
-0.4450065211
 33
0.0
 40
0.0
 40
0.0
 40
0.0
 40
0.0
 40
0.1944971801
 40
0.4421469387
 40
0.7157330912
 40
1.0
 40
1.0
 40
1.0
 40
1.0
 10
-48.76696464
 20
25.0447226497
 30
0.0
 10
-48.7926354293
 20
25.0142664434
 30
0.0
 10
-48.8535857343
 20
24.9472544237
 30
0.0
 10
-48.9535618516
 20
24.840082556
 30
0.0
 10
-49.0670236638
 20
24.7203298673
 30
0.0
 10
-49.1457850473
 20
24.6375759681
 30
0.0
 10
-49.1859230722
 20
24.5954090921
 30
0.0
 11
-48.76696464
 21
25.0447226497
 31
0.0
 11
-48.8464154138
 21
24.9554662556
 31
0.0
 11
-48.9500772014
 21
24.8440919759
 31
0.0
 11
-49.0655632317
 21
24.721961323
 31
0.0
 11
-49.1859230722
 21
24.5954090921
 31
0.0
  0
SPLINE
  5
682
100
AcDbEntity
  8
DRAFT
100
AcDbSpline
 62
7
  6
CONTINUOUS
 70
0
 71
3
 72
17
 73
13
 74
11
 42
0.0000001
 43
0.0000001
 44
0.0000000001
 12
-0.4940305542
 22
-0.109789387
 32
0.0
 13
-0.5060828963
 23
-0.0
 33
0.0
 40
0.0
 40
0.0
 40
0.0
 40
0.0
 40
0.0116184716
 40
0.0385825462
 40
0.0783754469
 40
0.1283088187
 40
0.1857056774
 40
0.2486967816
 40
0.3863024126
 40
0.5336958085
 40
0.6866444681
 40
1.0
 40
1.0
 40
1.0
 40
1.0
 10
-40.6798152064
 20
-18.8374318711
 30
0.0
 10
-40.6817284997
 20
-18.837857066
 30
0.0
 10
-40.6883145878
 20
-18.8376429245
 30
0.0
 10
-40.7014677523
 20
-18.8382942059
 30
0.0
 10
-40.7211827078
 20
-18.8383921331
 30
0.0
 10
-40.7459881329
 20
-18.8387174523
 30
0.0
 10
-40.7747234651
 20
-18.8389271962
 30
0.0
 10
-40.8182430482
 20
-18.8392181091
 30
0.0
 10
-40.8769472438
 20
-18.8394892316
 30
0.0
 10
-40.9508258568
 20
-18.8397290686
 30
0.0
 10
-41.0543530331
 20
-18.8399463291
 30
0.0
 10
-41.1330158769
 20
-18.8400042399
 30
0.0
 10
-41.1858771686
 20
-18.8400042399
 30
0.0
 11
-40.6798152064
 21
-18.8374318711
 31
0.0
 11
-40.6856850027
 21
-18.8377765879
 31
0.0
 11
-40.6993270774
 21
-18.8381062383
 31
0.0
 11
-40.7194633253
 21
-18.8384078359
 31
0.0
 11
-40.7447323046
 21
-18.838678189
 31
0.0
 11
-40.7737788875
 21
-18.8389174649
 31
0.0
 11
-40.8056569188
 21
-18.8391270808
 31
0.0
 11
-40.8752959493
 21
-18.8394662269
 31
0.0
 11
-40.949888821
 21
-18.8397120211
 31
0.0
 11
-41.0272933437
 21
-18.8398780122
 31
0.0
 11
-41.1858771686
 21
-18.8400042399
 31
0.0
  0
SPLINE
  5
683
100
AcDbEntity
  8
DRAFT
100
AcDbSpline
 62
7
  6
CONTINUOUS
 70
0
 71
3
 72
17
 73
13
 74
11
 42
0.0000001
 43
0.0000001
 44
0.0000000001
 12
-0.5060829013
 22
0.0
 32
0.0
 13
-0.494030559
 23
0.1097893881
 33
0.0
 40
0.0
 40
0.0
 40
0.0
 40
0.0
 40
0.3133696515
 40
0.4663258022
 40
0.6137266727
 40
0.7513311235
 40
0.8143266008
 40
0.8717091418
 40
0.9216368631
 40
0.9614306885
 40
0.9883875326
 40
1.0
 40
1.0
 40
1.0
 40
1.0
 10
-49.2798835559
 20
-18.8400042399
 30
0.0
 10
-49.3327472301
 20
-18.8400042399
 30
0.0
 10
-49.4114137202
 20
-18.8399463257
 30
0.0
 10
-49.514945804
 20
-18.8397290386
 30
0.0
 10
-49.5888267433
 20
-18.8394892052
 30
0.0
 10
-49.6475327386
 20
-18.8392179983
 30
0.0
 10
-49.6910504458
 20
-18.8389271264
 30
0.0
 10
-49.7197831458
 20
-18.8387173235
 30
0.0
 10
-49.7445853605
 20
-18.8383919815
 30
0.0
 10
-49.7642982963
 20
-18.8382941127
 30
0.0
 10
-49.7774494102
 20
-18.8376431704
 30
0.0
 10
-49.7840332136
 20
-18.8378568463
 30
0.0
 10
-49.7859455182
 20
-18.8374318711
 30
0.0
 11
-49.2798835559
 21
-18.8400042399
 31
0.0
 11
-49.4384745281
 21
-18.8398780003
 31
0.0
 11
-49.5158828426
 21
-18.8397119943
 31
0.0
 11
-49.5904794978
 21
-18.839466176
 31
0.0
 11
-49.6601179314
 21
-18.8391269901
 31
0.0
 11
-49.6919981761
 21
-18.8389173551
 31
0.0
 11
-49.7210375131
 21
-18.8386780774
 31
0.0
 11
-49.7463036327
 21
-18.8384077116
 31
0.0
 11
-49.7664403499
 21
-18.8381061805
 31
0.0
 11
-49.7800787658
 21
-18.8377765914
 31
0.0
 11
-49.7859455182
 21
-18.8374318711
 31
0.0
  0
SPLINE
  5
684
100
AcDbEntity
  8
DRAFT
100
AcDbSpline
 62
7
  6
CONTINUOUS
 70
0
 71
3
 72
17
 73
13
 74
11
 42
0.0000001
 43
0.0000001
 44
0.0000000001
 12
0.4940305542
 22
0.109789387
 32
0.0
 13
0.5060828963
 23
0.0
 33
0.0
 40
0.0
 40
0.0
 40
0.0
 40
0.0
 40
0.0116184716
 40
0.0385825462
 40
0.0783754469
 40
0.1283088187
 40
0.1857056774
 40
0.2486967816
 40
0.3863024126
 40
0.5336958085
 40
0.6866444681
 40
1.0
 40
1.0
 40
1.0
 40
1.0
 10
-49.7859455182
 20
21.1155344258
 30
0.0
 10
-49.7840322248
 20
21.1159596207
 30
0.0
 10
-49.7774461367
 20
21.1157454792
 30
0.0
 10
-49.7642929723
 20
21.1163967606
 30
0.0
 10
-49.7445780168
 20
21.1164946878
 30
0.0
 10
-49.7197725917
 20
21.116820007
 30
0.0
 10
-49.6910372595
 20
21.1170297509
 30
0.0
 10
-49.6475176764
 20
21.1173206639
 30
0.0
 10
-49.5888134807
 20
21.1175917863
 30
0.0
 10
-49.5149348678
 20
21.1178316234
 30
0.0
 10
-49.4114076914
 20
21.1180488838
 30
0.0
 10
-49.3327448477
 20
21.1181067947
 30
0.0
 10
-49.2798835559
 20
21.1181067947
 30
0.0
 11
-49.7859455182
 21
21.1155344258
 31
0.0
 11
-49.7800757218
 21
21.1158791426
 31
0.0
 11
-49.7664336471
 21
21.116208793
 31
0.0
 11
-49.7462973992
 21
21.1165103907
 31
0.0
 11
-49.72102842
 21
21.1167807437
 31
0.0
 11
-49.691981837
 21
21.1170200196
 31
0.0
 11
-49.6601038058
 21
21.1172296355
 31
0.0
 11
-49.5904647753
 21
21.1175687817
 31
0.0
 11
-49.5158719035
 21
21.1178145759
 31
0.0
 11
-49.4384673809
 21
21.1179805669
 31
0.0
 11
-49.2798835559
 21
21.1181067947
 31
0.0
  0
SPLINE
  5
685
100
AcDbEntity
  8
DRAFT
100
AcDbSpline
 62
7
  6
CONTINUOUS
 70
0
 71
3
 72
17
 73
13
 74
11
 42
0.0000001
 43
0.0000001
 44
0.0000000001
 12
0.5060829013
 22
0.0
 32
0.0
 13
0.494030559
 23
-0.1097893881
 33
0.0
 40
0.0
 40
0.0
 40
0.0
 40
0.0
 40
0.3133696515
 40
0.4663258022
 40
0.6137266727
 40
0.7513311235
 40
0.8143266008
 40
0.8717091418
 40
0.9216368631
 40
0.9614306885
 40
0.9883875326
 40
1.0
 40
1.0
 40
1.0
 40
1.0
 10
-41.1858771686
 20
21.1181067947
 30
0.0
 10
-41.1330134945
 20
21.1181067947
 30
0.0
 10
-41.0543470043
 20
21.1180488804
 30
0.0
 10
-40.9508149205
 20
21.1178315934
 30
0.0
 10
-40.8769339813
 20
21.1175917599
 30
0.0
 10
-40.8182279859
 20
21.117320553
 30
0.0
 10
-40.7747102788
 20
21.1170296811
 30
0.0
 10
-40.7459775787
 20
21.1168198782
 30
0.0
 10
-40.7211753641
 20
21.1164945363
 30
0.0
 10
-40.7014624282
 20
21.1163966674
 30
0.0
 10
-40.6883113144
 20
21.1157457252
 30
0.0
 10
-40.681727511
 20
21.115959401
 30
0.0
 10
-40.6798152064
 20
21.1155344258
 30
0.0
 11
-41.1858771686
 21
21.1181067947
 31
0.0
 11
-41.0272861965
 21
21.117980555
 31
0.0
 11
-40.949877882
 21
21.117814549
 31
0.0
 11
-40.8752812268
 21
21.1175687307
 31
0.0
 11
-40.8056427931
 21
21.1172295448
 31
0.0
 11
-40.7737625484
 21
21.1170199098
 31
0.0
 11
-40.7447232114
 21
21.1167806321
 31
0.0
 11
-40.7194570918
 21
21.1165102663
 31
0.0
 11
-40.6993203747
 21
21.1162087352
 31
0.0
 11
-40.6856819587
 21
21.1158791461
 31
0.0
 11
-40.6798152064
 21
21.1155344258
 31
0.0
  0
SPLINE
  5
686
100
AcDbEntity
  8
SUPERFICI
100
AcDbSpline
 62
7
  6
CONTINUOUS
 70
0
 71
3
 72
9
 73
5
 74
3
 42
0.0000001
 43
0.0000001
 44
0.0000000001
 12
-0.2540586046
 22
0.3592931243
 32
0.0
 13
-0.2443352963
 23
0.3659748444
 33
0.0
 40
0.0
 40
0.0
 40
0.0
 40
0.0
 40
0.2536987259
 40
1.0
 40
1.0
 40
1.0
 40
1.0
 10
-52.7995260165
 20
22.475038226
 30
0.0
 10
-52.8210107979
 20
22.5054222953
 30
0.0
 10
-52.9056801322
 20
22.6251945344
 30
0.0
 10
-52.9897844892
 20
22.745398042
 30
0.0
 10
-53.0505670701
 20
22.8364405396
 30
0.0
 11
-52.7995260165
 21
22.475038226
 31
0.0
 11
-52.8639354387
 21
22.566222182
 31
0.0
 11
-53.0505670701
 21
22.8364405396
 31
0.0
  0
SPLINE
  5
687
100
AcDbEntity
  8
SUPERFICI
100
AcDbSpline
 62
7
  6
CONTINUOUS
 70
0
 71
3
 72
9
 73
5
 74
3
 42
0.0000001
 43
0.0000001
 44
0.0000000001
 12
-0.2443381483
 22
-0.3659791164
 32
0.0
 13
-0.2540615702
 23
-0.3592973182
 33
0.0
 40
0.0
 40
0.0
 40
0.0
 40
0.0
 40
0.2446707048
 40
1.0
 40
1.0
 40
1.0
 40
1.0
 10
-37.4151936544
 20
22.8364405396
 30
0.0
 10
-37.4351211167
 20
22.8065924168
 30
0.0
 10
-37.5175058899
 20
22.6852253139
 30
0.0
 10
-37.6022679925
 20
22.5655008227
 30
0.0
 10
-37.666234708
 20
22.475038226
 30
0.0
 11
-37.4151936544
 21
22.8364405396
 31
0.0
 11
-37.4755777136
 21
22.7473008005
 31
0.0
 11
-37.666234708
 21
22.475038226
 31
0.0
  0
SPLINE
  5
688
100
AcDbEntity
  8
SUPERFICI
100
AcDbSpline
 62
7
  6
CONTINUOUS
 70
0
 71
3
 72
9
 73
5
 74
3
 42
0.0000001
 43
0.0000001
 44
0.0000000001
 12
0.2540586046
 22
-0.3592931243
 32
0.0
 13
0.2443352963
 23
-0.3659748444
 33
0.0
 40
0.0
 40
0.0
 40
0.0
 40
0.0
 40
0.2536987259
 40
1.0
 40
1.0
 40
1.0
 40
1.0
 10
-37.666234708
 20
-20.1969356713
 30
0.0
 10
-37.6447499266
 20
-20.2273197406
 30
0.0
 10
-37.5600805923
 20
-20.3470919797
 30
0.0
 10
-37.4759762354
 20
-20.4672954873
 30
0.0
 10
-37.4151936544
 20
-20.5583379848
 30
0.0
 11
-37.666234708
 21
-20.1969356713
 31
0.0
 11
-37.6018252858
 21
-20.2881196273
 31
0.0
 11
-37.4151936544
 21
-20.5583379848
 31
0.0
  0
SPLINE
  5
689
100
AcDbEntity
  8
SUPERFICI
100
AcDbSpline
 62
7
  6
CONTINUOUS
 70
0
 71
3
 72
9
 73
5
 74
3
 42
0.0000001
 43
0.0000001
 44
0.0000000001
 12
0.2443381483
 22
0.3659791164
 32
0.0
 13
0.2540615702
 23
0.3592973182
 33
0.0
 40
0.0
 40
0.0
 40
0.0
 40
0.0
 40
0.2446707048
 40
1.0
 40
1.0
 40
1.0
 40
1.0
 10
-53.0505670701
 20
-20.5583379848
 30
0.0
 10
-53.0306396078
 20
-20.5284898621
 30
0.0
 10
-52.9482548347
 20
-20.4071227591
 30
0.0
 10
-52.8634927321
 20
-20.287398268
 30
0.0
 10
-52.7995260165
 20
-20.1969356713
 30
0.0
 11
-53.0505670701
 21
-20.5583379848
 31
0.0
 11
-52.9901830109
 21
-20.4691982457
 31
0.0
 11
-52.7995260165
 21
-20.1969356713
 31
0.0
  0
SPLINE
  5
68A
100
AcDbEntity
  8
SUPERFICI
100
AcDbSpline
 62
253
  6
CONTINUOUS
 70
0
 71
3
 72
11
 73
7
 74
5
 42
0.0000001
 43
0.0000001
 44
0.0000000001
 12
-0.0012232482
 22
-0.3641907438
 32
0.0
 13
-0.3641916425
 23
-0.0009174695
 33
0.0
 40
0.0
 40
0.0
 40
0.0
 40
0.0
 40
0.2331623084
 40
0.476670585
 40
0.7338116789
 40
1.0
 40
1.0
 40
1.0
 40
1.0
 10
-35.0872521963
 20
24.9833888447
 30
0.0
 10
-35.0873472681
 20
24.9550836598
 30
0.0
 10
-35.1012771258
 20
24.8965405206
 30
0.0
 10
-35.1582095499
 20
24.8248794059
 30
0.0
 10
-35.2408775901
 20
24.7778812087
 30
0.0
 10
-35.3049334449
 20
24.7669639003
 30
0.0
 10
-35.3372479655
 20
24.7668824937
 30
0.0
 11
-35.0872521963
 21
24.9833888447
 31
0.0
 11
-35.1064904257
 21
24.9006807841
 31
0.0
 11
-35.1607309919
 21
24.8305180742
 31
0.0
 11
-35.2417465397
 21
24.7835435711
 31
0.0
 11
-35.3372479655
 21
24.7668824937
 31
0.0
  0
SPLINE
  5
68B
100
AcDbEntity
  8
SUPERFICI
100
AcDbSpline
 62
253
  6
CONTINUOUS
 70
0
 71
3
 72
11
 73
7
 74
5
 42
0.0000001
 43
0.0000001
 44
0.0000000001
 12
0.0012232482
 22
-0.3641907438
 32
0.0
 13
0.3641916425
 23
-0.0009174695
 33
0.0
 40
0.0
 40
0.0
 40
0.0
 40
0.0
 40
0.2331623084
 40
0.476670585
 40
0.7338116789
 40
1.0
 40
1.0
 40
1.0
 40
1.0
 10
-37.9785085283
 20
24.9833888447
 30
0.0
 10
-37.9784134565
 20
24.9550836598
 30
0.0
 10
-37.9644835987
 20
24.8965405206
 30
0.0
 10
-37.9075511746
 20
24.8248794059
 30
0.0
 10
-37.8248831344
 20
24.7778812087
 30
0.0
 10
-37.7608272797
 20
24.7669639003
 30
0.0
 10
-37.7285127591
 20
24.7668824937
 30
0.0
 11
-37.9785085283
 21
24.9833888447
 31
0.0
 11
-37.9592702988
 21
24.9006807841
 31
0.0
 11
-37.9050297327
 21
24.8305180742
 31
0.0
 11
-37.8240141849
 21
24.7835435711
 31
0.0
 11
-37.7285127591
 21
24.7668824937
 31
0.0
  0
SPLINE
  5
68C
100
AcDbEntity
  8
SUPERFICI
100
AcDbSpline
 62
253
  6
CONTINUOUS
 70
0
 71
3
 72
11
 73
7
 74
5
 42
0.0000001
 43
0.0000001
 44
0.0000000001
 12
-0.0012232482
 22
-0.3641907438
 32
0.0
 13
-0.3641916425
 23
-0.0009174695
 33
0.0
 40
0.0
 40
0.0
 40
0.0
 40
0.0
 40
0.2331623084
 40
0.476670585
 40
0.7338116789
 40
1.0
 40
1.0
 40
1.0
 40
1.0
 10
-52.4872521963
 20
24.9833888447
 30
0.0
 10
-52.4873472681
 20
24.9550836598
 30
0.0
 10
-52.5012771258
 20
24.8965405206
 30
0.0
 10
-52.5582095499
 20
24.8248794059
 30
0.0
 10
-52.6408775901
 20
24.7778812087
 30
0.0
 10
-52.7049334449
 20
24.7669639003
 30
0.0
 10
-52.7372479655
 20
24.7668824937
 30
0.0
 11
-52.4872521963
 21
24.9833888447
 31
0.0
 11
-52.5064904257
 21
24.9006807841
 31
0.0
 11
-52.5607309919
 21
24.8305180742
 31
0.0
 11
-52.6417465397
 21
24.7835435711
 31
0.0
 11
-52.7372479655
 21
24.7668824937
 31
0.0
  0
SPLINE
  5
68D
100
AcDbEntity
  8
SUPERFICI
100
AcDbSpline
 62
253
  6
CONTINUOUS
 70
0
 71
3
 72
11
 73
7
 74
5
 42
0.0000001
 43
0.0000001
 44
0.0000000001
 12
0.0012232482
 22
-0.3641907438
 32
0.0
 13
0.3641916425
 23
-0.0009174695
 33
0.0
 40
0.0
 40
0.0
 40
0.0
 40
0.0
 40
0.2331623084
 40
0.476670585
 40
0.7338116789
 40
1.0
 40
1.0
 40
1.0
 40
1.0
 10
-55.3785085283
 20
24.9833888447
 30
0.0
 10
-55.3784134565
 20
24.9550836598
 30
0.0
 10
-55.3644835987
 20
24.8965405206
 30
0.0
 10
-55.3075511746
 20
24.8248794059
 30
0.0
 10
-55.2248831344
 20
24.7778812087
 30
0.0
 10
-55.1608272797
 20
24.7669639003
 30
0.0
 10
-55.1285127591
 20
24.7668824937
 30
0.0
 11
-55.3785085283
 21
24.9833888447
 31
0.0
 11
-55.3592702988
 21
24.9006807841
 31
0.0
 11
-55.3050297327
 21
24.8305180742
 31
0.0
 11
-55.2240141849
 21
24.7835435711
 31
0.0
 11
-55.1285127591
 21
24.7668824937
 31
0.0
  0
SPLINE
  5
68E
100
AcDbEntity
  8
SUPERFICI
100
AcDbSpline
 62
253
  6
CONTINUOUS
 70
0
 71
3
 72
11
 73
7
 74
5
 42
0.0000001
 43
0.0000001
 44
0.0000000001
 12
-0.0012232482
 22
0.3641907438
 32
0.0
 13
-0.3641916425
 23
0.0009174695
 33
0.0
 40
0.0
 40
0.0
 40
0.0
 40
0.0
 40
0.2331623162
 40
0.4766706026
 40
0.7338117062
 40
1.0
 40
1.0
 40
1.0
 40
1.0
 10
-35.0872521963
 20
-22.7052862899
 30
0.0
 10
-35.0873472681
 20
-22.6769811041
 30
0.0
 10
-35.101277127
 20
-22.6184379627
 30
0.0
 10
-35.1582095549
 20
-22.5467768466
 30
0.0
 10
-35.2408775956
 20
-22.4997786521
 30
0.0
 10
-35.3049334482
 20
-22.4888613455
 30
0.0
 10
-35.3372479655
 20
-22.488779939
 30
0.0
 11
-35.0872521963
 21
-22.7052862899
 31
0.0
 11
-35.106490427
 21
-22.6225782268
 31
0.0
 11
-35.1607309969
 21
-22.5524155152
 31
0.0
 11
-35.2417465491
 21
-22.5054410127
 31
0.0
 11
-35.3372479655
 21
-22.488779939
 31
0.0
  0
SPLINE
  5
68F
100
AcDbEntity
  8
SUPERFICI
100
AcDbSpline
 62
253
  6
CONTINUOUS
 70
0
 71
3
 72
11
 73
7
 74
5
 42
0.0000001
 43
0.0000001
 44
0.0000000001
 12
0.0012232482
 22
0.3641907442
 32
0.0
 13
0.3641916429
 23
0.0009174695
 33
0.0
 40
0.0
 40
0.0
 40
0.0
 40
0.0
 40
0.2331622206
 40
0.4766705204
 40
0.7338116472
 40
1.0
 40
1.0
 40
1.0
 40
1.0
 10
-37.9785085283
 20
-22.7052862899
 30
0.0
 10
-37.9784134565
 20
-22.6769811157
 30
0.0
 10
-37.9644836081
 20
-22.6184379843
 30
0.0
 10
-37.9075511932
 20
-22.5467768655
 30
0.0
 10
-37.8248831465
 20
-22.4997786571
 30
0.0
 10
-37.7608272836
 20
-22.4888613456
 30
0.0
 10
-37.7285127591
 20
-22.488779939
 30
0.0
 11
-37.9785085283
 21
-22.7052862899
 31
0.0
 11
-37.959270314
 21
-22.6225782586
 31
0.0
 11
-37.905029751
 21
-22.5524155355
 31
0.0
 11
-37.824014196
 21
-22.5054410206
 31
0.0
 11
-37.7285127591
 21
-22.488779939
 31
0.0
  0
SPLINE
  5
690
100
AcDbEntity
  8
SUPERFICI
100
AcDbSpline
 62
253
  6
CONTINUOUS
 70
0
 71
3
 72
11
 73
7
 74
5
 42
0.0000001
 43
0.0000001
 44
0.0000000001
 12
0.0012232482
 22
0.3641907438
 32
0.0
 13
0.3641916425
 23
0.0009174695
 33
0.0
 40
0.0
 40
0.0
 40
0.0
 40
0.0
 40
0.2331623162
 40
0.4766706026
 40
0.7338117062
 40
1.0
 40
1.0
 40
1.0
 40
1.0
 10
-55.3785085283
 20
-22.7052862899
 30
0.0
 10
-55.3784134565
 20
-22.6769811041
 30
0.0
 10
-55.3644835976
 20
-22.6184379627
 30
0.0
 10
-55.3075511697
 20
-22.5467768466
 30
0.0
 10
-55.2248831289
 20
-22.4997786521
 30
0.0
 10
-55.1608272764
 20
-22.4888613455
 30
0.0
 10
-55.1285127591
 20
-22.488779939
 30
0.0
 11
-55.3785085283
 21
-22.7052862899
 31
0.0
 11
-55.3592702975
 21
-22.6225782268
 31
0.0
 11
-55.3050297277
 21
-22.5524155152
 31
0.0
 11
-55.2240141754
 21
-22.5054410127
 31
0.0
 11
-55.1285127591
 21
-22.488779939
 31
0.0
  0
SPLINE
  5
691
100
AcDbEntity
  8
SUPERFICI
100
AcDbSpline
 62
253
  6
CONTINUOUS
 70
0
 71
3
 72
11
 73
7
 74
5
 42
0.0000001
 43
0.0000001
 44
0.0000000001
 12
-0.0012232482
 22
0.3641907442
 32
0.0
 13
-0.3641916429
 23
0.0009174695
 33
0.0
 40
0.0
 40
0.0
 40
0.0
 40
0.0
 40
0.2331622206
 40
0.4766705204
 40
0.7338116472
 40
1.0
 40
1.0
 40
1.0
 40
1.0
 10
-52.4872521963
 20
-22.7052862899
 30
0.0
 10
-52.487347268
 20
-22.6769811157
 30
0.0
 10
-52.5012771165
 20
-22.6184379843
 30
0.0
 10
-52.5582095314
 20
-22.5467768655
 30
0.0
 10
-52.6408775781
 20
-22.4997786571
 30
0.0
 10
-52.704933441
 20
-22.4888613456
 30
0.0
 10
-52.7372479655
 20
-22.488779939
 30
0.0
 11
-52.4872521963
 21
-22.7052862899
 31
0.0
 11
-52.5064904106
 21
-22.6225782586
 31
0.0
 11
-52.5607309736
 21
-22.5524155355
 31
0.0
 11
-52.6417465286
 21
-22.5054410206
 31
0.0
 11
-52.7372479655
 21
-22.488779939
 31
0.0
  0
SPLINE
  5
692
100
AcDbEntity
  8
INCISIONI
100
AcDbSpline
 62
253
  6
CONTINUOUS
 70
0
 71
3
 72
9
 73
5
 74
3
 42
0.0000001
 43
0.0000001
 44
0.0000000001
 12
-0.0151363035
 22
0.7385080985
 32
0.0
 13
-0.0198803268
 23
0.0
 33
0.0
 40
0.0
 40
0.0
 40
0.0
 40
0.0
 40
0.7499778947
 40
1.0
 40
1.0
 40
1.0
 40
1.0
 10
-34.1349390312
 20
-9.5855673076
 30
0.0
 10
-34.1387229955
 20
-9.4009457246
 30
0.0
 10
-34.1453197042
 20
-9.2531898737
 30
0.0
 10
-34.151915816
 20
-9.2232726437
 30
0.0
 10
-34.1535726564
 20
-9.2232726437
 30
0.0
 11
-34.1349390312
 21
-9.5855673076
 31
0.0
 11
-34.1486174312
 21
-9.2455987977
 31
0.0
 11
-34.1535726564
 21
-9.2232726437
 31
0.0
  0
SPLINE
  5
693
100
AcDbEntity
  8
INCISIONI
100
AcDbSpline
 62
253
  6
CONTINUOUS
 70
0
 71
3
 72
9
 73
5
 74
3
 42
0.0000001
 43
0.0000001
 44
0.0000000001
 12
0.0
 22
1.1518927052
 32
0.0
 13
-0.0153064231
 23
0.7467671714
 33
0.0
 40
0.0
 40
0.0
 40
0.0
 40
0.0
 40
0.5000575813
 40
1.0
 40
1.0
 40
1.0
 40
1.0
 10
-34.1271515154
 20
-10.6175490229
 30
0.0
 10
-34.1271515154
 20
-10.4255447962
 30
0.0
 10
-34.1283078045
 20
-10.0358669836
 30
0.0
 10
-34.1323882544
 20
-9.7100141695
 30
0.0
 10
-34.1349390312
 20
-9.5855673076
 30
0.0
 11
-34.1271515154
 21
-10.6175490229
 31
0.0
 11
-34.1290391463
 21
-10.0517820323
 31
0.0
 11
-34.1349390312
 21
-9.5855673076
 31
0.0
  0
SPLINE
  5
694
100
AcDbEntity
  8
INCISIONI
100
AcDbSpline
 62
253
  6
CONTINUOUS
 70
0
 71
3
 72
9
 73
5
 74
3
 42
0.0000001
 43
0.0000001
 44
0.0000000001
 12
0.0153043231
 22
0.746694301
 32
0.0
 13
0.0
 23
1.1517538486
 33
0.0
 40
0.0
 40
0.0
 40
0.0
 40
0.0
 40
0.4999423617
 40
1.0
 40
1.0
 40
1.0
 40
1.0
 10
-34.1349390312
 20
-11.6493772798
 30
0.0
 10
-34.1323886047
 20
-11.5249425757
 30
0.0
 10
-34.128307825
 20
-11.1991698023
 30
0.0
 10
-34.1271515154
 20
-10.809530126
 30
0.0
 10
-34.1271515154
 20
-10.6175490229
 30
0.0
 11
-34.1349390312
 21
-11.6493772798
 31
0.0
 11
-34.1290392444
 21
-11.1832443115
 31
0.0
 11
-34.1271515154
 21
-10.6175490229
 31
0.0
  0
SPLINE
  5
695
100
AcDbEntity
  8
INCISIONI
100
AcDbSpline
 62
253
  6
CONTINUOUS
 70
0
 71
3
 72
9
 73
5
 74
3
 42
0.0000001
 43
0.0000001
 44
0.0000000001
 12
0.019912147
 22
0.0
 32
0.0
 13
0.0151606292
 23
0.7396835099
 33
0.0
 40
0.0
 40
0.0
 40
0.0
 40
0.0
 40
0.750054758
 40
1.0
 40
1.0
 40
1.0
 40
1.0
 10
-34.1535726564
 20
-12.0116565979
 30
0.0
 10
-34.1485942562
 20
-12.0116565979
 30
0.0
 10
-34.1417640736
 20
-11.922618135
 30
0.0
 10
-34.1362021402
 20
-11.7110040711
 30
0.0
 10
-34.1349390312
 20
-11.6493772798
 30
0.0
 11
-34.1535726564
 21
-12.0116565979
 31
0.0
 11
-34.1390617287
 21
-11.8091303085
 31
0.0
 11
-34.1349390312
 21
-11.6493772798
 31
0.0
  0
SPLINE
  5
696
100
AcDbEntity
  8
INCISIONI
100
AcDbSpline
 62
253
  6
CONTINUOUS
 70
0
 71
3
 72
9
 73
5
 74
3
 42
0.0000001
 43
0.0000001
 44
0.0000000001
 12
0.0151368023
 22
-0.7384580574
 32
0.0
 13
0.0198801404
 23
0.0
 33
0.0
 40
0.0
 40
0.0
 40
0.0
 40
0.0
 40
0.7499778839
 40
1.0
 40
1.0
 40
1.0
 40
1.0
 10
-34.1722061924
 20
-11.6493772798
 30
0.0
 10
-34.1684221034
 20
-11.8339863502
 30
0.0
 10
-34.1618255468
 20
-11.9817416108
 30
0.0
 10
-34.1552294814
 20
-12.0116565979
 30
0.0
 10
-34.1535726564
 20
-12.0116565979
 30
0.0
 11
-34.1722061924
 21
-11.6493772798
 31
0.0
 11
-34.1585278365
 21
-11.9893314609
 31
0.0
 11
-34.1535726564
 21
-12.0116565979
 31
0.0
  0
SPLINE
  5
697
100
AcDbEntity
  8
INCISIONI
100
AcDbSpline
 62
253
  6
CONTINUOUS
 70
0
 71
3
 72
9
 73
5
 74
3
 42
0.0000001
 43
0.0000001
 44
0.0000000001
 12
0.0
 22
-1.1517571284
 32
0.0
 13
0.0153049149
 23
-0.746659532
 33
0.0
 40
0.0
 40
0.0
 40
0.0
 40
0.0
 40
0.5000576434
 40
1.0
 40
1.0
 40
1.0
 40
1.0
 10
-34.1799937974
 20
-10.6175490229
 30
0.0
 10
-34.1799937974
 20
-10.8095306747
 30
0.0
 10
-34.1788374823
 20
-11.1991699631
 30
0.0
 10
-34.1747567175
 20
-11.5249483712
 30
0.0
 10
-34.1722061924
 20
-11.6493772798
 30
0.0
 11
-34.1799937974
 21
-10.6175490229
 31
0.0
 11
-34.178106068
 21
-11.1832459819
 31
0.0
 11
-34.1722061924
 21
-11.6493772798
 31
0.0
  0
SPLINE
  5
698
100
AcDbEntity
  8
INCISIONI
100
AcDbSpline
 62
253
  6
CONTINUOUS
 70
0
 71
3
 72
9
 73
5
 74
3
 42
0.0000001
 43
0.0000001
 44
0.0000000001
 12
-0.0153058037
 22
-0.7468061142
 32
0.0
 13
0.0
 23
-1.1518909321
 33
0.0
 40
0.0
 40
0.0
 40
0.0
 40
0.0
 40
0.4999424868
 40
1.0
 40
1.0
 40
1.0
 40
1.0
 10
-34.1722061924
 20
-9.5855673076
 30
0.0
 10
-34.1747568663
 20
-9.7100206762
 30
0.0
 10
-34.1788372318
 20
-10.0358695106
 30
0.0
 10
-34.1799937974
 20
-10.4255451179
 30
0.0
 10
-34.1799937974
 20
-10.6175490229
 30
0.0
 11
-34.1722061924
 21
-9.5855673076
 31
0.0
 11
-34.1781059806
 21
-10.051785052
 31
0.0
 11
-34.1799937974
 21
-10.6175490229
 31
0.0
  0
SPLINE
  5
699
100
AcDbEntity
  8
INCISIONI
100
AcDbSpline
 62
253
  6
CONTINUOUS
 70
0
 71
3
 72
9
 73
5
 74
3
 42
0.0000001
 43
0.0000001
 44
0.0000000001
 12
-0.0199121426
 22
0.0
 32
0.0
 13
-0.0151602881
 23
-0.7397060674
 33
0.0
 40
0.0
 40
0.0
 40
0.0
 40
0.0
 40
0.7500547609
 40
1.0
 40
1.0
 40
1.0
 40
1.0
 10
-34.1535726564
 20
-9.2232726437
 30
0.0
 10
-34.1585510556
 20
-9.2232726437
 30
0.0
 10
-34.1653811765
 20
-9.3123250289
 30
0.0
 10
-34.1709431118
 20
-9.5239386376
 30
0.0
 10
-34.1722061924
 20
-9.5855673076
 30
0.0
 11
-34.1535726564
 21
-9.2232726437
 31
0.0
 11
-34.1680835264
 21
-9.4258117306
 31
0.0
 11
-34.1722061924
 21
-9.5855673076
 31
0.0
  0
SPLINE
  5
69A
100
AcDbEntity
  8
INCISIONI
100
AcDbSpline
 62
253
  6
CONTINUOUS
 70
0
 71
3
 72
8
 73
4
 74
2
 42
0.0000001
 43
0.0000001
 44
0.0000000001
 12
0.0
 22
0.651743576
 32
0.0
 13
0.0083868107
 23
0.4402706656
 33
0.0
 40
0.0
 40
0.0
 40
0.0
 40
0.0
 40
1.0
 40
1.0
 40
1.0
 40
1.0
 10
-34.1719843806
 20
-10.6188994562
 30
0.0
 10
-34.1719843806
 20
-10.4016515975
 30
0.0
 10
-34.1704571073
 20
-10.1628157434
 30
0.0
 10
-34.1676615038
 20
-10.0160588548
 30
0.0
 11
-34.1719843806
 21
-10.6188994562
 31
0.0
 11
-34.1676615038
 21
-10.0160588548
 31
0.0
  0
SPLINE
  5
69B
100
AcDbEntity
  8
INCISIONI
100
AcDbSpline
 62
253
  6
CONTINUOUS
 70
0
 71
3
 72
8
 73
4
 74
2
 42
0.0000001
 43
0.0000001
 44
0.0000000001
 12
-0.0083522649
 22
0.4385102618
 32
0.0
 13
0.0
 23
0.6490948727
 33
0.0
 40
0.0
 40
0.0
 40
0.0
 40
0.0
 40
1.0
 40
1.0
 40
1.0
 40
1.0
 10
-34.1676615038
 20
-11.218875502
 30
0.0
 10
-34.170445592
 20
-11.0727054148
 30
0.0
 10
-34.1719843806
 20
-10.8352644138
 30
0.0
 10
-34.1719843806
 20
-10.6188994562
 30
0.0
 11
-34.1676615038
 21
-11.218875502
 31
0.0
 11
-34.1719843806
 21
-10.6188994562
 31
0.0
  0
SPLINE
  5
69C
100
AcDbEntity
  8
INCISIONI
100
AcDbSpline
 62
253
  6
CONTINUOUS
 70
0
 71
3
 72
9
 73
5
 74
3
 42
0.0000001
 43
0.0000001
 44
0.0000000001
 12
-0.0150663779
 22
0.0
 32
0.0
 13
-0.0111083516
 23
0.5832102119
 33
0.0
 40
0.0
 40
0.0
 40
0.0
 40
0.0
 40
0.7501681637
 40
1.0
 40
1.0
 40
1.0
 40
1.0
 10
-34.1535775658
 20
-11.4906706715
 30
0.0
 10
-34.1573450048
 20
-11.4906706715
 30
0.0
 10
-34.1625513311
 20
-11.4314685113
 30
0.0
 10
-34.1667364305
 20
-11.2674436614
 30
0.0
 10
-34.1676615038
 20
-11.218875502
 30
0.0
 11
-34.1535775658
 21
-11.4906706715
 31
0.0
 11
-34.1645815475
 21
-11.3428583129
 31
0.0
 11
-34.1676615038
 21
-11.218875502
 31
0.0
  0
SPLINE
  5
69D
100
AcDbEntity
  8
INCISIONI
100
AcDbSpline
 62
253
  6
CONTINUOUS
 70
0
 71
3
 72
9
 73
5
 74
3
 42
0.0000001
 43
0.0000001
 44
0.0000000001
 12
-0.011075379
 22
-0.5814597384
 32
0.0
 13
-0.0150214287
 23
0.0
 33
0.0
 40
0.0
 40
0.0
 40
0.0
 40
0.0
 40
0.7499573393
 40
1.0
 40
1.0
 40
1.0
 40
1.0
 10
-34.13949336
 20
-11.218875502
 30
0.0
 10
-34.1422620472
 20
-11.3642321681
 30
0.0
 10
-34.1473518954
 20
-11.4710139859
 30
0.0
 10
-34.1523255664
 20
-11.4906706715
 30
0.0
 10
-34.1535775658
 20
-11.4906706715
 30
0.0
 11
-34.13949336
 21
-11.218875502
 31
0.0
 11
-34.149831043
 21
-11.4753934722
 31
0.0
 11
-34.1535775658
 21
-11.4906706715
 31
0.0
  0
SPLINE
  5
69E
100
AcDbEntity
  8
INCISIONI
100
AcDbSpline
 62
253
  6
CONTINUOUS
 70
0
 71
3
 72
8
 73
4
 74
2
 42
0.0000001
 43
0.0000001
 44
0.0000000001
 12
0.0
 22
-0.6490948727
 32
0.0
 13
-0.0083523917
 23
-0.4385023289
 33
0.0
 40
0.0
 40
0.0
 40
0.0
 40
0.0
 40
1.0
 40
1.0
 40
1.0
 40
1.0
 10
-34.1351704831
 20
-10.6188994562
 30
0.0
 10
-34.1351704831
 20
-10.8352644138
 30
0.0
 10
-34.1367092294
 20
-11.0727080591
 30
0.0
 10
-34.13949336
 20
-11.218875502
 30
0.0
 11
-34.1351704831
 21
-10.6188994562
 31
0.0
 11
-34.13949336
 21
-11.218875502
 31
0.0
  0
SPLINE
  5
69F
100
AcDbEntity
  8
INCISIONI
100
AcDbSpline
 62
253
  6
CONTINUOUS
 70
0
 71
3
 72
8
 73
4
 74
2
 42
0.0000001
 43
0.0000001
 44
0.0000000001
 12
0.0083866923
 22
-0.4402780709
 32
0.0
 13
0.0
 23
-0.651743576
 33
0.0
 40
0.0
 40
0.0
 40
0.0
 40
0.0
 40
1.0
 40
1.0
 40
1.0
 40
1.0
 10
-34.13949336
 20
-10.0160588548
 30
0.0
 10
-34.1366977959
 20
-10.1628182118
 30
0.0
 10
-34.1351704831
 20
-10.4016515975
 30
0.0
 10
-34.1351704831
 20
-10.6188994562
 30
0.0
 11
-34.13949336
 21
-10.0160588548
 31
0.0
 11
-34.1351704831
 21
-10.6188994562
 31
0.0
  0
SPLINE
  5
6A0
100
AcDbEntity
  8
INCISIONI
100
AcDbSpline
 62
253
  6
CONTINUOUS
 70
0
 71
3
 72
9
 73
5
 74
3
 42
0.0000001
 43
0.0000001
 44
0.0000000001
 12
0.0150666641
 22
0.0
 32
0.0
 13
0.0111086872
 23
-0.5832135014
 33
0.0
 40
0.0
 40
0.0
 40
0.0
 40
0.0
 40
0.7501681644
 40
1.0
 40
1.0
 40
1.0
 40
1.0
 10
-34.1535775658
 20
-9.7442585701
 30
0.0
 10
-34.1498100552
 20
-9.7442585701
 30
0.0
 10
-34.1446036141
 20
-9.8034608275
 30
0.0
 10
-34.1404184612
 20
-9.9674904216
 30
0.0
 10
-34.13949336
 20
-10.0160588548
 30
0.0
 11
-34.1535775658
 21
-9.7442585701
 31
0.0
 11
-34.1425733747
 21
-9.8920736898
 31
0.0
 11
-34.13949336
 21
-10.0160588548
 31
0.0
  0
SPLINE
  5
6A1
100
AcDbEntity
  8
INCISIONI
100
AcDbSpline
 62
253
  6
CONTINUOUS
 70
0
 71
3
 72
9
 73
5
 74
3
 42
0.0000001
 43
0.0000001
 44
0.0000000001
 12
0.0110756524
 22
0.5814230277
 32
0.0
 13
0.0150211975
 23
0.0
 33
0.0
 40
0.0
 40
0.0
 40
0.0
 40
0.0
 40
0.7499573136
 40
1.0
 40
1.0
 40
1.0
 40
1.0
 10
-34.1676615038
 20
-10.0160588548
 30
0.0
 10
-34.1648927482
 20
-9.8707113708
 30
0.0
 10
-34.1598031572
 20
-9.763920407
 30
0.0
 10
-34.1548295459
 20
-9.7442585701
 30
0.0
 10
-34.1535775658
 20
-9.7442585701
 30
0.0
 11
-34.1676615038
 21
-10.0160588548
 31
0.0
 11
-34.1573240274
 21
-9.7595385973
 31
0.0
 11
-34.1535775658
 21
-9.7442585701
 31
0.0
  0
SPLINE
  5
6A2
100
AcDbEntity
  8
INCISIONI
100
AcDbSpline
 62
253
  6
CONTINUOUS
 70
0
 71
3
 72
11
 73
7
 74
5
 42
0.0000001
 43
0.0000001
 44
0.0000000001
 12
-0.0128702777
 22
-0.0113808125
 32
0.0
 13
-0.0002873858
 23
0.7373539953
 33
0.0
 40
0.0
 40
0.0
 40
0.0
 40
0.0
 40
0.2491315025
 40
0.4973515609
 40
0.7462289133
 40
1.0
 40
1.0
 40
1.0
 40
1.0
 10
-34.142792502
 20
6.6017713035
 30
0.0
 10
-34.1438612992
 20
6.6008261972
 30
0.0
 10
-34.1460336531
 20
6.6122895971
 30
0.0
 10
-34.1488899197
 20
6.7140505895
 30
0.0
 10
-34.1503780325
 20
6.8856010194
 30
0.0
 10
-34.1506311337
 20
7.0095729116
 30
0.0
 10
-34.1506554437
 20
7.0719459531
 30
0.0
 11
-34.142792502
 21
6.6017713035
 31
0.0
 11
-34.1459702151
 21
6.6264520279
 31
0.0
 11
-34.1486586312
 21
6.7253766667
 31
0.0
 11
-34.1501861646
 21
6.8867217466
 31
0.0
 11
-34.1506554437
 21
7.0719459531
 31
0.0
  0
SPLINE
  5
6A3
100
AcDbEntity
  8
INCISIONI
100
AcDbSpline
 62
253
  6
CONTINUOUS
 70
0
 71
3
 72
9
 73
5
 74
3
 42
0.0000001
 43
0.0000001
 44
0.0000000001
 12
-0.0010753083
 22
-0.5307774627
 32
0.0
 13
-0.0093244064
 23
-0.0083576149
 33
0.0
 40
0.0
 40
0.0
 40
0.0
 40
0.0
 40
0.5000882298
 40
1.0
 40
1.0
 40
1.0
 40
1.0
 10
-34.1364673928
 20
6.9436769683
 30
0.0
 10
-34.1366466425
 20
6.8551984478
 30
0.0
 10
-34.1380055469
 20
6.6758100562
 30
0.0
 10
-34.1412387085
 20
6.6031639935
 30
0.0
 10
-34.142792502
 20
6.6017713035
 30
0.0
 11
-34.1364673928
 21
6.9436769683
 31
0.0
 11
-34.1384745163
 21
6.7024734023
 31
0.0
 11
-34.142792502
 21
6.6017713035
 31
0.0
  0
SPLINE
  5
6A4
100
AcDbEntity
  8
INCISIONI
100
AcDbSpline
 62
253
  6
CONTINUOUS
 70
0
 71
3
 72
11
 73
7
 74
5
 42
0.0000001
 43
0.0000001
 44
0.0000000001
 12
0.008931429
 22
1.4167437705
 32
0.0
 13
-0.0038258405
 23
1.4903036133
 33
0.0
 40
0.0
 40
0.0
 40
0.0
 40
0.0
 40
0.249614251
 40
0.499888924
 40
0.7499637517
 40
1.0
 40
1.0
 40
1.0
 40
1.0
 10
-34.1292692136
 20
6.5069013966
 30
0.0
 10
-34.1285260763
 20
6.6247812083
 30
0.0
 10
-34.127697385
 20
6.8740657514
 30
0.0
 10
-34.127445914
 20
7.2506944247
 30
0.0
 10
-34.1278500978
 20
7.6273263058
 30
0.0
 10
-34.1284176267
 20
7.8764086469
 30
0.0
 10
-34.128736493
 20
8.0006186217
 30
0.0
 11
-34.1292692136
 21
6.5069013966
 31
0.0
 11
-34.1278633117
 21
6.8741746503
 31
0.0
 11
-34.1275552539
 21
7.2507599656
 31
0.0
 11
-34.127924668
 21
7.6268625314
 31
0.0
 11
-34.128736493
 21
8.0006186217
 31
0.0
  0
SPLINE
  5
6A5
100
AcDbEntity
  8
INCISIONI
100
AcDbSpline
 62
253
  6
CONTINUOUS
 70
0
 71
3
 72
18
 73
14
 74
12
 42
0.0000001
 43
0.0000001
 44
0.0000000001
 12
0.0040338679
 22
-1.7915717583
 32
0.0
 13
0.0106969353
 23
1.6992591149
 33
0.0
 40
0.0
 40
0.0
 40
0.0
 40
0.0
 40
0.0626155709
 40
0.1255750725
 40
0.1873779143
 40
0.2500548274
 40
0.3131302752
 40
0.3757850613
 40
0.5005898481
 40
0.6254073429
 40
0.7503252015
 40
0.8752611255
 40
1.0
 40
1.0
 40
1.0
 40
1.0
 10
-34.1548257662
 20
6.4444955674
 30
0.0
 10
-34.1547415719
 20
6.4071021379
 30
0.0
 10
-34.1538169347
 20
6.3447936343
 30
0.0
 10
-34.1525597982
 20
6.2610454148
 30
0.0
 10
-34.1510595481
 20
6.1861065217
 30
0.0
 10
-34.1493765574
 20
6.1268010082
 30
0.0
 10
-34.1475546118
 20
6.0813750732
 30
0.0
 10
-34.1450120621
 20
6.0405943567
 30
0.0
 10
-34.1417061361
 20
6.0264109853
 30
0.0
 10
-34.1377757741
 20
6.0597570721
 30
0.0
 10
-34.1341354926
 20
6.1549025459
 30
0.0
 10
-34.13116659
 20
6.3066075745
 30
0.0
 10
-34.1297139882
 20
6.4362468401
 30
0.0
 10
-34.1292692136
 20
6.5069013966
 30
0.0
 11
-34.1548257662
 21
6.4444955674
 31
0.0
 11
-34.1538398903
 21
6.3465015703
 31
0.0
 11
-34.1525108993
 21
6.262026306
 31
0.0
 11
-34.1510367992
 21
6.1890212173
 31
0.0
 11
-34.1493583615
 21
6.1292730172
 31
0.0
 11
-34.1475354113
 21
6.0837522849
 31
0.0
 11
-34.1456336172
 21
6.0531683504
 31
0.0
 11
-34.1417120539
 21
6.0348012163
 31
0.0
 11
-34.1378253555
 21
6.0700359387
 31
0.0
 11
-34.1342474772
 21
6.1643312471
 31
0.0
 11
-34.1312967964
 21
6.3138297132
 31
0.0
 11
-34.1292692136
 21
6.5069013966
 31
0.0
  0
SPLINE
  5
6A6
100
AcDbEntity
  8
INCISIONI
100
AcDbSpline
 62
253
  6
CONTINUOUS
 70
0
 71
3
 72
11
 73
7
 74
5
 42
0.0000001
 43
0.0000001
 44
0.0000000001
 12
0.0116058544
 22
0.181193689
 32
0.0
 13
0.0044548137
 23
0.6402353954
 33
0.0
 40
0.0
 40
0.0
 40
0.0
 40
0.0
 40
0.2450440156
 40
0.5033055314
 40
0.7579591626
 40
1.0
 40
1.0
 40
1.0
 40
1.0
 10
-34.1650487667
 20
6.0956100171
 30
0.0
 10
-34.1641007849
 20
6.1104101601
 30
0.0
 10
-34.1621464911
 20
6.1395726692
 30
0.0
 10
-34.1593116502
 20
6.2042122945
 30
0.0
 10
-34.1567346406
 20
6.2982091563
 30
0.0
 10
-34.1554841732
 20
6.392841197
 30
0.0
 10
-34.1551247576
 20
6.4444955674
 30
0.0
 11
-34.1650487667
 21
6.0956100171
 31
0.0
 11
-34.1622148527
 21
6.1420685067
 31
0.0
 11
-34.1593406324
 21
6.2096207966
 31
0.0
 11
-34.1568085533
 21
6.3083987454
 31
0.0
 11
-34.1551247576
 21
6.4444955674
 31
0.0
  0
LINE
  5
6A7
100
AcDbEntity
  8
INCISIONI
100
AcDbLine
 62
253
  6
CONTINUOUS
 10
-34.1787435577
 20
5.8886922922
 11
-34.1650487667
 21
6.0956100171
  0
SPLINE
  5
6A8
100
AcDbEntity
  8
INCISIONI
100
AcDbSpline
 62
253
  6
CONTINUOUS
 70
0
 71
3
 72
9
 73
5
 74
3
 42
0.0000001
 43
0.0000001
 44
0.0000000001
 12
-0.0150000908
 22
-0.3229459945
 32
0.0
 13
-0.0154000008
 23
-0.2537321442
 33
0.0
 40
0.0
 40
0.0
 40
0.0
 40
0.0
 40
0.499968398
 40
1.0
 40
1.0
 40
1.0
 40
1.0
 10
-34.1634005198
 20
6.7355633129
 30
0.0
 10
-34.165900377
 20
6.6817423824
 30
0.0
 10
-34.1710604556
 20
6.6004822028
 30
0.0
 10
-34.1761767287
 20
6.5131843792
 30
0.0
 10
-34.1787435577
 20
6.4708930157
 30
0.0
 11
-34.1634005198
 21
6.7355633129
 31
0.0
 11
-34.1710491794
 21
6.5989781186
 31
0.0
 11
-34.1787435577
 21
6.4708930157
 31
0.0
  0
SPLINE
  5
6A9
100
AcDbEntity
  8
INCISIONI
100
AcDbSpline
 62
253
  6
CONTINUOUS
 70
0
 71
3
 72
11
 73
7
 74
5
 42
0.0000001
 43
0.0000001
 44
0.0000000001
 12
0.0
 22
-0.4505958664
 32
0.0
 13
-0.0073624405
 23
-0.1583423737
 33
0.0
 40
0.0
 40
0.0
 40
0.0
 40
0.0
 40
0.2477795725
 40
0.4960551195
 40
0.7486644071
 40
1.0
 40
1.0
 40
1.0
 40
1.0
 10
-34.1589422095
 20
7.0732506046
 30
0.0
 10
-34.1589422095
 20
7.0360344542
 30
0.0
 10
-34.1591322641
 20
6.9607093736
 30
0.0
 10
-34.1601046222
 20
6.8601967632
 30
0.0
 10
-34.1615998225
 20
6.7841425843
 30
0.0
 10
-34.1627837054
 20
6.7488290043
 30
0.0
 10
-34.1634005198
 20
6.7355633129
 30
0.0
 11
-34.1589422095
 21
7.0732506046
 31
0.0
 11
-34.1592454014
 21
6.9629620151
 31
0.0
 11
-34.1601837753
 21
6.8648581131
 31
0.0
 11
-34.1616481307
 21
6.7879431914
 31
0.0
 11
-34.1634005198
 21
6.7355633129
 31
0.0
  0
ELLIPSE
  5
6AA
100
AcDbEntity
  8
DRAFT
100
AcDbEllipse
 62
7
  6
CONTINUOUS
 10
-42.7328803623
 20
-18.9141832811
 30
0.0
 11
1.0004645681
 21
0.0
 31
0.0
 40
0.0087268678
 41
-1.5707963268
 42
0.0000761582
  0
ELLIPSE
  5
6AB
100
AcDbEntity
  8
DRAFT
100
AcDbEllipse
 62
7
  6
CONTINUOUS
 10
-42.7328803623
 20
21.1922858358
 30
0.0
 11
1.0004645681
 21
0.0
 31
0.0
 40
0.0087268678
 41
-0.0000761582
 42
1.5707963268
  0
ELLIPSE
  5
6AC
100
AcDbEntity
  8
SUPERFICI
100
AcDbEllipse
 62
7
  6
CONTINUOUS
 10
-42.7328803623
 20
23.4977449872
 30
0.0
 11
1.0205840068
 21
-0.0
 31
0.0
 40
0.0058178298
 41
-1.0523815008
 42
-0.0000507714
  0
ELLIPSE
  5
6AD
100
AcDbEntity
  8
SUPERFICI
100
AcDbEllipse
 62
7
  6
CONTINUOUS
 10
-42.7328803623
 20
-21.2196424324
 30
0.0
 11
1.0205840068
 21
0.0
 31
0.0
 40
0.0058178298
 41
0.0000507714
 42
1.0523815008
  0
ELLIPSE
  5
6AE
100
AcDbEntity
  8
SUPERFICI
100
AcDbEllipse
 62
7
  6
CONTINUOUS
 10
-47.7328803623
 20
-21.2196424324
 30
0.0
 11
1.0205840068
 21
0.0
 31
0.0
 40
0.0058178298
 41
8.37239646
 42
9.4247271893
  0
ELLIPSE
  5
6AF
100
AcDbEntity
  8
SUPERFICI
100
AcDbEllipse
 62
7
  6
CONTINUOUS
 10
-47.7328803623
 20
23.4977449872
 30
0.0
 11
1.0205840068
 21
-0.0
 31
0.0
 40
0.0058178298
 41
-3.1415418822
 42
-2.0892111528
  0
ELLIPSE
  5
6B0
100
AcDbEntity
  8
DRAFT
100
AcDbEllipse
 62
7
  6
CONTINUOUS
 10
-47.7328803623
 20
21.1922858358
 30
0.0
 11
1.0004645681
 21
-0.0
 31
0.0
 40
0.0087268678
 41
1.5707963268
 42
3.1416688118
  0
ELLIPSE
  5
6B1
100
AcDbEntity
  8
DRAFT
100
AcDbEllipse
 62
7
  6
CONTINUOUS
 10
-45.2328803623
 20
21.3301597137
 30
0.0
 11
14.9983321784
 21
0.0
 31
0.0
 40
0.0087268678
 41
-1.7342929824
 42
-1.4072996712
  0
ELLIPSE
  5
6B2
100
AcDbEntity
  8
DRAFT
100
AcDbEllipse
 62
7
  6
CONTINUOUS
 10
-47.7328803623
 20
-18.9141832811
 30
0.0
 11
1.0004645681
 21
0.0
 31
0.0
 40
0.0087268678
 41
3.1415164954
 42
4.7123889804
  0
ELLIPSE
  5
6B3
100
AcDbEntity
  8
DRAFT
100
AcDbEllipse
 62
7
  6
CONTINUOUS
 10
-45.2328803623
 20
-19.052057159
 30
0.0
 11
14.9983321784
 21
0.0
 31
0.0
 40
0.0087268678
 41
1.4072996712
 42
1.7342929824
  0
ELLIPSE
  5
6B4
100
AcDbEntity
  8
SUPERFICI
100
AcDbEllipse
 62
7
  6
CONTINUOUS
 10
-41.2798376523
 20
-21.2170418095
 30
0.0
 11
0.4530427099
 21
0.0
 31
0.0
 40
0.0058178298
 41
0.0058177642
 42
2.8392117832
  0
ELLIPSE
  5
6B5
100
AcDbEntity
  8
SUPERFICI
100
AcDbEllipse
 62
7
  6
CONTINUOUS
 10
-49.1859230722
 20
-21.2170418095
 30
0.0
 11
0.4530427099
 21
0.0
 31
0.0
 40
0.0058178298
 41
0.3023808704
 42
3.1357748894
  0
ELLIPSE
  5
6B6
100
AcDbEntity
  8
SUPERFICI
100
AcDbEllipse
 62
7
  6
CONTINUOUS
 10
-49.1859230722
 20
23.4951443643
 30
0.0
 11
0.4530427099
 21
0.0
 31
0.0
 40
0.0058178298
 41
-3.1357748894
 42
-0.3023808704
  0
ELLIPSE
  5
6B7
100
AcDbEntity
  8
SUPERFICI
100
AcDbEllipse
 62
7
  6
CONTINUOUS
 10
-41.2798376523
 20
23.4951443643
 30
0.0
 11
0.4530427099
 21
-0.0
 31
0.0
 40
0.0058178298
 41
-2.8392117832
 42
-0.0058177642
  0
ELLIPSE
  5
6B8
100
AcDbEntity
  8
SUPERFICI
100
AcDbEllipse
 62
7
  6
CONTINUOUS
 10
-53.4234768658
 20
22.475038226
 30
0.0
 11
1.0000571192
 21
0.9999809595
 31
0.0
 40
0.0061705924
 41
-1.1948539202
 42
0.0003532199
  0
ELLIPSE
  5
6B9
100
AcDbEntity
  8
SUPERFICI
100
AcDbEllipse
 62
7
  6
CONTINUOUS
 10
-37.0422838588
 20
22.475038226
 30
0.0
 11
1.0000571192
 21
-0.9999809595
 31
0.0
 40
0.0061705924
 41
3.1412394337
 42
4.3364465738
  0
ELLIPSE
  5
6BA
100
AcDbEntity
  8
SUPERFICI
100
AcDbEllipse
 62
7
  6
CONTINUOUS
 10
-37.0422838588
 20
-20.1969356713
 30
0.0
 11
1.0000571192
 21
0.9999809595
 31
0.0
 40
0.0061705924
 41
1.9467387334
 42
3.1419458735
  0
ELLIPSE
  5
6BB
100
AcDbEntity
  8
SUPERFICI
100
AcDbEllipse
 62
7
  6
CONTINUOUS
 10
-53.4234768658
 20
-20.1969356713
 30
0.0
 11
1.0000571192
 21
-0.9999809595
 31
0.0
 40
0.0061705924
 41
-0.0003532199
 42
1.1948539202
  0
ELLIPSE
  5
6BC
100
AcDbEntity
  8
SUPERFICI
100
AcDbEllipse
 62
7
  6
CONTINUOUS
 10
-35.3328845931
 20
24.5503761428
 30
0.0
 11
-0.0029088041
 21
0.2886641433
 31
0.0
 40
0.8660144118
 41
-3.150319066
 42
-1.582431609
  0
ELLIPSE
  5
6BD
100
AcDbEntity
  8
SUPERFICI
100
AcDbEllipse
 62
7
  6
CONTINUOUS
 10
-37.7328761314
 20
24.5503761428
 30
0.0
 11
0.0029088041
 21
0.2886641433
 31
0.0
 40
0.8660144118
 41
-4.7007536982
 42
-3.1328662412
  0
ELLIPSE
  5
6BE
100
AcDbEntity
  8
SUPERFICI
100
AcDbEllipse
 62
7
  6
CONTINUOUS
 10
-52.7328845931
 20
24.5503761428
 30
0.0
 11
-0.0029088041
 21
0.2886641433
 31
0.0
 40
0.8660144118
 41
-3.150319066
 42
-1.582431609
  0
ELLIPSE
  5
6BF
100
AcDbEntity
  8
SUPERFICI
100
AcDbEllipse
 62
7
  6
CONTINUOUS
 10
-55.1328761314
 20
24.5503761428
 30
0.0
 11
0.0029088041
 21
0.2886641433
 31
0.0
 40
0.8660144118
 41
-4.7007536982
 42
-3.1328662412
  0
ELLIPSE
  5
6C0
100
AcDbEntity
  8
SUPERFICI
100
AcDbEllipse
 62
7
  6
CONTINUOUS
 10
-35.3328845931
 20
-22.272273588
 30
0.0
 11
0.0029088041
 21
0.2886641433
 31
0.0
 40
0.8660144118
 41
-1.5591610446
 42
0.0087264124
  0
ELLIPSE
  5
6C1
100
AcDbEntity
  8
SUPERFICI
100
AcDbEllipse
 62
7
  6
CONTINUOUS
 10
-37.7328761314
 20
-22.272273588
 30
0.0
 11
-0.0029088041
 21
0.2886641433
 31
0.0
 40
0.8660144118
 41
-0.0087264124
 42
1.5591610446
  0
ELLIPSE
  5
6C2
100
AcDbEntity
  8
SUPERFICI
100
AcDbEllipse
 62
7
  6
CONTINUOUS
 10
-55.1328761314
 20
-22.272273588
 30
0.0
 11
-0.0029088041
 21
0.2886641433
 31
0.0
 40
0.8660144118
 41
-0.0087264124
 42
1.5591610446
  0
ELLIPSE
  5
6C3
100
AcDbEntity
  8
SUPERFICI
100
AcDbEllipse
 62
7
  6
CONTINUOUS
 10
-52.7328845931
 20
-22.272273588
 30
0.0
 11
0.0029088041
 21
0.2886641433
 31
0.0
 40
0.8660144118
 41
-1.5591610446
 42
0.0087264124
  0
ELLIPSE
  5
6C4
100
AcDbEntity
  8
DRAFT
100
AcDbEllipse
 62
7
  6
CONTINUOUS
 10
-52.4360391096
 20
-6.6509487226
 30
0.0
 11
-0.0
 21
88.6
 31
0.0
 40
0.0087268678
 41
-1.7083317739
 42
-1.7056288775
  0
ELLIPSE
  5
6C5
100
AcDbEntity
  8
DRAFT
100
AcDbEllipse
 62
7
  6
CONTINUOUS
 10
-51.829721615
 20
-6.6509487226
 30
0.0
 11
-0.0
 21
88.6
 31
0.0
 40
0.0087268678
 41
-4.5775568855
 42
-4.5681237136
  0
ELLIPSE
  5
6C6
100
AcDbEntity
  8
DRAFT
100
AcDbEllipse
 62
7
  6
CONTINUOUS
 10
-38.6360391096
 20
-6.6509487226
 30
0.0
 11
-0.0
 21
88.6
 31
0.0
 40
0.0087268678
 41
4.5681237136
 42
4.5775568855
  0
ELLIPSE
  5
6C7
100
AcDbEntity
  8
DRAFT
100
AcDbEllipse
 62
7
  6
CONTINUOUS
 10
-38.029721615
 20
-6.6509487226
 30
0.0
 11
-0.0
 21
88.6
 31
0.0
 40
0.0087268678
 41
-4.5775564296
 42
-4.5748535333
  0
ELLIPSE
  5
6C8
100
AcDbEntity
  8
DRAFT
100
AcDbEllipse
 62
7
  6
CONTINUOUS
 10
-51.829721615
 20
8.9290512774
 30
0.0
 11
-0.0
 21
88.6
 31
0.0
 40
0.0087268678
 41
1.42653106
 42
1.4359642319
  0
ELLIPSE
  5
6C9
100
AcDbEntity
  8
DRAFT
100
AcDbEllipse
 62
7
  6
CONTINUOUS
 10
-52.4360391096
 20
8.9290512774
 30
0.0
 11
-0.0
 21
88.6
 31
0.0
 40
0.0087268678
 41
-1.435963776
 42
-1.4332608797
  0
ELLIPSE
  5
6CA
100
AcDbEntity
  8
DRAFT
100
AcDbEllipse
 62
7
  6
CONTINUOUS
 10
-38.029721615
 20
8.9290512774
 30
0.0
 11
-0.0
 21
88.6
 31
0.0
 40
0.0087268678
 41
1.4332608797
 42
1.435963776
  0
ELLIPSE
  5
6CB
100
AcDbEntity
  8
DRAFT
100
AcDbEllipse
 62
7
  6
CONTINUOUS
 10
-38.6360391096
 20
8.9290512774
 30
0.0
 11
-0.0
 21
88.6
 31
0.0
 40
0.0087268678
 41
4.8472210753
 42
4.8566542472
  0
ELLIPSE
  5
6CC
100
AcDbEntity
  8
SUPERFICI
100
AcDbEllipse
 62
7
  6
CONTINUOUS
 10
-34.5916262693
 20
23.0332249858
 30
0.0
 11
-0.4160498344
 21
-0.2773626446
 31
0.0
 40
0.9999450019
 41
2.5536219432
 42
4.1243675013
  0
ELLIPSE
  5
6CD
100
AcDbEntity
  8
SUPERFICI
100
AcDbEllipse
 62
7
  6
CONTINUOUS
 10
-34.5916262693
 20
-20.7551224311
 30
0.0
 11
0.4160498344
 21
-0.2773626446
 31
0.0
 40
0.9999450019
 41
-0.9827748477
 42
0.5879707104
  0
ELLIPSE
  5
6CE
100
AcDbEntity
  8
SUPERFICI
100
AcDbEllipse
 62
7
  6
CONTINUOUS
 10
-55.8741344553
 20
-20.7551224311
 30
0.0
 11
0.4160498344
 21
0.2773626446
 31
0.0
 40
0.9999450019
 41
2.5536219432
 42
4.1243675013
  0
ELLIPSE
  5
6CF
100
AcDbEntity
  8
SUPERFICI
100
AcDbEllipse
 62
7
  6
CONTINUOUS
 10
-55.8741344553
 20
23.0332249858
 30
0.0
 11
-0.4160498344
 21
0.2773626446
 31
0.0
 40
0.9999450019
 41
-0.9827748477
 42
0.5879707104
  0
ELLIPSE
  5
6D0
100
AcDbEntity
  8
SUPERFICI
100
AcDbEllipse
 62
7
  6
CONTINUOUS
 10
-37.666234708
 20
-20.8147156931
 30
0.0
 11
0.4999904798
 21
0.5000285596
 31
0.0
 40
0.0061705924
 41
0.0112823085
 42
1.0386206835
  0
ELLIPSE
  5
6D1
100
AcDbEntity
  8
SUPERFICI
100
AcDbEllipse
 62
7
  6
CONTINUOUS
 10
-52.7995260165
 20
-20.8147156931
 30
0.0
 11
-0.4999904798
 21
0.5000285596
 31
0.0
 40
0.0061705924
 41
-1.0386206835
 42
-0.0112823085
  0
ELLIPSE
  5
6D2
100
AcDbEntity
  8
SUPERFICI
100
AcDbEllipse
 62
7
  6
CONTINUOUS
 10
-52.7995260165
 20
23.0928182479
 30
0.0
 11
0.4999904798
 21
0.5000285596
 31
0.0
 40
0.0061705924
 41
-3.1303103451
 42
-2.1029719701
  0
ELLIPSE
  5
6D3
100
AcDbEntity
  8
SUPERFICI
100
AcDbEllipse
 62
7
  6
CONTINUOUS
 10
-37.666234708
 20
23.0928182479
 30
0.0
 11
-0.4999904798
 21
0.5000285596
 31
0.0
 40
0.0061705924
 41
-4.1802133371
 42
-3.1528749621
  0
ELLIPSE
  5
6D4
100
AcDbEntity
  8
SUPERFICI
100
AcDbEllipse
 62
7
  6
CONTINUOUS
 10
-37.666234708
 20
-19.8525808344
 30
0.0
 11
0.5
 21
0.0
 31
0.0
 40
0.0087268678
 41
-1.5707963268
 42
-0.0174532925
  0
ELLIPSE
  5
6D5
100
AcDbEntity
  8
SUPERFICI
100
AcDbEllipse
 62
7
  6
CONTINUOUS
 10
-52.7995260165
 20
-19.8525808344
 30
0.0
 11
0.5
 21
0.0
 31
0.0
 40
0.0087268678
 41
-3.1241393611
 42
-1.5707963268
  0
ELLIPSE
  5
6D6
100
AcDbEntity
  8
SUPERFICI
100
AcDbEllipse
 62
7
  6
CONTINUOUS
 10
-52.7995260165
 20
22.1306833892
 30
0.0
 11
0.5
 21
0.0
 31
0.0
 40
0.0087268678
 41
1.5707963268
 42
3.1241393611
  0
ELLIPSE
  5
6D7
100
AcDbEntity
  8
SUPERFICI
100
AcDbEllipse
 62
7
  6
CONTINUOUS
 10
-37.666234708
 20
22.1306833892
 30
0.0
 11
0.5
 21
0.0
 31
0.0
 40
0.0087268678
 41
0.0174532925
 42
1.5707963268
  0
ELLIPSE
  5
6D8
100
AcDbEntity
  8
SUPERFICI
100
AcDbEllipse
 62
7
  6
CONTINUOUS
 10
-46.4414553487
 20
24.9333363927
 30
0.0
 11
0.1243375101
 21
0.1566832126
 31
0.0
 40
0.9998696711
 41
-0.900007342
 42
0.6707382162
  0
ELLIPSE
  5
6D9
100
AcDbEntity
  8
SUPERFICI
100
AcDbEllipse
 62
7
  6
CONTINUOUS
 10
-44.0243053758
 20
24.9333363927
 30
0.0
 11
-0.1243375101
 21
0.1566832125
 31
0.0
 40
0.9998696711
 41
-0.6707382162
 42
0.9000073419
  0
ELLIPSE
  5
6DA
100
AcDbEntity
  8
SUPERFICI
100
AcDbEllipse
 62
7
  6
CONTINUOUS
 10
-44.0243053758
 20
-22.655233838
 30
0.0
 11
0.1243375101
 21
0.1566832125
 31
0.0
 40
0.9998696711
 41
-4.0415999955
 42
-2.4708544374
  0
ELLIPSE
  5
6DB
100
AcDbEntity
  8
SUPERFICI
100
AcDbEllipse
 62
7
  6
CONTINUOUS
 10
-46.4414553487
 20
-22.655233838
 30
0.0
 11
-0.1243375101
 21
0.1566832125
 31
0.0
 40
0.9998696711
 41
-3.8123308698
 42
-2.2415853117
  0
ELLIPSE
  5
6DC
100
AcDbEntity
  8
RACCORDO
100
AcDbEllipse
 62
7
  6
CONTINUOUS
 10
-36.0831850184
 20
18.8104979599
 30
0.0
 11
1.8480888181
 21
0.7655034529
 31
0.0
 40
0.9998215708
 41
-0.3926359958
 42
0.3926359958
  0
ELLIPSE
  5
6DD
100
AcDbEntity
  8
RACCORDO
100
AcDbEllipse
 62
7
  6
CONTINUOUS
 10
-36.0831850184
 20
-16.5323954052
 30
0.0
 11
1.8480888181
 21
-0.7655034529
 31
0.0
 40
0.9998215708
 41
-0.3926359958
 42
0.3926359958
  0
ELLIPSE
  5
6DE
100
AcDbEntity
  8
RACCORDO
100
AcDbEllipse
 62
7
  6
CONTINUOUS
 10
-54.3825757062
 20
-16.5323954052
 30
0.0
 11
1.8480888181
 21
0.7655034529
 31
0.0
 40
0.9998215708
 41
2.7489566578
 42
3.5342286494
  0
ELLIPSE
  5
6DF
100
AcDbEntity
  8
RACCORDO
100
AcDbEllipse
 62
7
  6
CONTINUOUS
 10
-54.3825757062
 20
18.8104979599
 30
0.0
 11
1.8480888181
 21
-0.7655034529
 31
0.0
 40
0.9998215708
 41
2.7489566578
 42
3.5342286494
  0
ELLIPSE
  5
6E0
100
AcDbEntity
  8
RACCORDO
100
AcDbEllipse
 62
7
  6
CONTINUOUS
 10
-54.6107726392
 20
19.7498781182
 30
0.0
 11
-0.3827517265
 21
0.924044409
 31
0.0
 40
0.9998215708
 41
-0.3926359958
 42
0.3926359958
  0
ELLIPSE
  5
6E1
100
AcDbEntity
  8
RACCORDO
100
AcDbEllipse
 62
7
  6
CONTINUOUS
 10
-54.6107726392
 20
-17.4717755635
 30
0.0
 11
0.3827517265
 21
0.924044409
 31
0.0
 40
0.9998215708
 41
-3.5342286494
 42
-2.7489566578
  0
ELLIPSE
  5
6E2
100
AcDbEntity
  8
RACCORDO
100
AcDbEllipse
 62
7
  6
CONTINUOUS
 10
-35.8549880854
 20
-17.4717755635
 30
0.0
 11
-0.3827517265
 21
0.924044409
 31
0.0
 40
0.9998215708
 41
-3.5342286494
 42
-2.7489566578
  0
ELLIPSE
  5
6E3
100
AcDbEntity
  8
RACCORDO
100
AcDbEllipse
 62
7
  6
CONTINUOUS
 10
-35.8549880854
 20
19.7498781182
 30
0.0
 11
0.3827517264
 21
0.9240444091
 31
0.0
 40
0.9998215708
 41
-0.3926359958
 42
0.3926359958
  0
ELLIPSE
  5
6E4
100
AcDbEntity
  8
RACCORDO
100
AcDbEllipse
 62
7
  6
CONTINUOUS
 10
-46.8309977605
 20
21.0373057709
 30
0.0
 11
0.9
 21
-0.0
 31
0.0
 40
0.0174550649
 41
-3.1241393611
 42
-1.5707963268
  0
ELLIPSE
  5
6E5
100
AcDbEntity
  8
RACCORDO
100
AcDbEllipse
 62
7
  6
CONTINUOUS
 10
-43.634762964
 20
21.0373057709
 30
0.0
 11
0.9
 21
0.0
 31
0.0
 40
0.0174550649
 41
-1.5707963268
 42
-0.0174532925
  0
ELLIPSE
  5
6E6
100
AcDbEntity
  8
RACCORDO
100
AcDbEllipse
 62
7
  6
CONTINUOUS
 10
-46.8309977605
 20
-18.7592032161
 30
0.0
 11
0.9
 21
0.0
 31
0.0
 40
0.0174550649
 41
1.5707963268
 42
3.1241393611
  0
ELLIPSE
  5
6E7
100
AcDbEntity
  8
RACCORDO
100
AcDbEllipse
 62
7
  6
CONTINUOUS
 10
-43.634762964
 20
-18.7592032161
 30
0.0
 11
0.9
 21
-0.0
 31
0.0
 40
0.0174550649
 41
0.0174532925
 42
1.5707963268
  0
ELLIPSE
  5
6E8
100
AcDbEntity
  8
ASSI
100
AcDbEllipse
 62
7
  6
CONTINUOUS
 10
-54.3825757062
 20
18.8104979599
 30
0.0
 11
1.8480888181
 21
-0.7655034529
 31
0.0
 40
0.9998215708
 41
2.7489566578
 42
3.5342286494
  0
ELLIPSE
  5
6E9
100
AcDbEntity
  8
ASSI
100
AcDbEllipse
 62
7
  6
CONTINUOUS
 10
-54.3825757062
 20
-16.5323954052
 30
0.0
 11
1.8480888181
 21
0.7655034529
 31
0.0
 40
0.9998215708
 41
2.7489566578
 42
3.5342286494
  0
ELLIPSE
  5
6EA
100
AcDbEntity
  8
ASSI
100
AcDbEllipse
 62
7
  6
CONTINUOUS
 10
-36.0831850184
 20
-16.5323954052
 30
0.0
 11
1.8480888181
 21
-0.7655034529
 31
0.0
 40
0.9998215708
 41
-0.3926359958
 42
0.3926359958
  0
ELLIPSE
  5
6EB
100
AcDbEntity
  8
ASSI
100
AcDbEllipse
 62
7
  6
CONTINUOUS
 10
-36.0831850184
 20
18.8104979599
 30
0.0
 11
1.8480888181
 21
0.7655034529
 31
0.0
 40
0.9998215708
 41
-0.3926359958
 42
0.3926359958
  0
ELLIPSE
  5
6EC
100
AcDbEntity
  8
ASSI
100
AcDbEllipse
 62
7
  6
CONTINUOUS
 10
-35.5466375601
 20
-8.8609487226
 30
0.0
 11
0.0
 21
2.1
 31
0.0
 40
0.0087268678
 41
3.1415926536
 42
6.2831853072
  0
ELLIPSE
  5
6ED
100
AcDbEntity
  8
ASSI
100
AcDbEllipse
 62
7
  6
CONTINUOUS
 10
-35.5466375601
 20
-3.8609487226
 30
0.0
 11
0.0
 21
2.1
 31
0.0
 40
0.0087268678
 41
3.1415926536
 42
6.2831853072
  0
ELLIPSE
  5
6EE
100
AcDbEntity
  8
ASSI
100
AcDbEllipse
 62
7
  6
CONTINUOUS
 10
-35.5466375601
 20
1.1390512774
 30
0.0
 11
0.0
 21
2.1
 31
0.0
 40
0.0087268678
 41
3.1415926536
 42
6.2831853072
  0
ELLIPSE
  5
6EF
100
AcDbEntity
  8
ASSI
100
AcDbEllipse
 62
7
  6
CONTINUOUS
 10
-35.5466375601
 20
6.1390512774
 30
0.0
 11
0.0
 21
2.1
 31
0.0
 40
0.0087268678
 41
3.1415926536
 42
6.2831853072
  0
ELLIPSE
  5
6F0
100
AcDbEntity
  8
ASSI
100
AcDbEllipse
 62
7
  6
CONTINUOUS
 10
-35.5466375601
 20
11.1390512774
 30
0.0
 11
0.0
 21
2.1
 31
0.0
 40
0.0087268678
 41
3.1415926536
 42
6.2831853072
  0
ELLIPSE
  5
6F1
100
AcDbEntity
  8
ASSI
100
AcDbEllipse
 62
7
  6
CONTINUOUS
 10
-35.5466375601
 20
16.1390512774
 30
0.0
 11
0.0
 21
2.1
 31
0.0
 40
0.0087268678
 41
3.1415926536
 42
6.2831853072
  0
ELLIPSE
  5
6F2
100
AcDbEntity
  8
ASSI
100
AcDbEllipse
 62
7
  6
CONTINUOUS
 10
-43.634762964
 20
-18.7592032161
 30
0.0
 11
0.9
 21
-0.0
 31
0.0
 40
0.0174550649
 41
0.0174532925
 42
1.5707963268
  0
ELLIPSE
  5
6F3
100
AcDbEntity
  8
ASSI
100
AcDbEllipse
 62
7
  6
CONTINUOUS
 10
-46.8309977605
 20
-18.7592032161
 30
0.0
 11
0.9
 21
0.0
 31
0.0
 40
0.0174550649
 41
1.5707963268
 42
3.1241393611
  0
ELLIPSE
  5
6F4
100
AcDbEntity
  8
ASSI
100
AcDbEllipse
 62
7
  6
CONTINUOUS
 10
-43.634762964
 20
21.0373057709
 30
0.0
 11
0.9
 21
0.0
 31
0.0
 40
0.0174550649
 41
-1.5707963268
 42
-0.0174532925
  0
ELLIPSE
  5
6F5
100
AcDbEntity
  8
ASSI
100
AcDbEllipse
 62
7
  6
CONTINUOUS
 10
-46.8309977605
 20
21.0373057709
 30
0.0
 11
0.9
 21
-0.0
 31
0.0
 40
0.0174550649
 41
-3.1241393611
 42
-1.5707963268
  0
ELLIPSE
  5
6F6
100
AcDbEntity
  8
ASSI
100
AcDbEllipse
 62
7
  6
CONTINUOUS
 10
-35.8549880854
 20
19.7498781182
 30
0.0
 11
0.3827517264
 21
0.9240444091
 31
0.0
 40
0.9998215708
 41
-0.3926359958
 42
0.3926359958
  0
ELLIPSE
  5
6F7
100
AcDbEntity
  8
ASSI
100
AcDbEllipse
 62
7
  6
CONTINUOUS
 10
-35.8549880854
 20
-17.4717755635
 30
0.0
 11
-0.3827517265
 21
0.924044409
 31
0.0
 40
0.9998215708
 41
-3.5342286494
 42
-2.7489566578
  0
ELLIPSE
  5
6F8
100
AcDbEntity
  8
ASSI
100
AcDbEllipse
 62
7
  6
CONTINUOUS
 10
-54.6107726392
 20
-17.4717755635
 30
0.0
 11
0.3827517265
 21
0.924044409
 31
0.0
 40
0.9998215708
 41
-3.5342286494
 42
-2.7489566578
  0
ELLIPSE
  5
6F9
100
AcDbEntity
  8
ASSI
100
AcDbEllipse
 62
7
  6
CONTINUOUS
 10
-54.6107726392
 20
19.7498781182
 30
0.0
 11
-0.3827517265
 21
0.924044409
 31
0.0
 40
0.9998215708
 41
-0.3926359958
 42
0.3926359958
  0
ELLIPSE
  5
6FA
100
AcDbEntity
  8
ASSI
100
AcDbEllipse
 62
7
  6
CONTINUOUS
 10
-34.3604158946
 20
-8.8609487226
 30
0.0
 11
-0.0
 21
2.1
 31
0.0
 40
0.0174550649
 41
-3.1415926536
 42
-0.0
  0
ELLIPSE
  5
6FB
100
AcDbEntity
  8
ASSI
100
AcDbEllipse
 62
7
  6
CONTINUOUS
 10
-34.3604158946
 20
-3.8609487226
 30
0.0
 11
-0.0
 21
2.1
 31
0.0
 40
0.0174550649
 41
-3.1415926536
 42
-0.0
  0
ELLIPSE
  5
6FC
100
AcDbEntity
  8
ASSI
100
AcDbEllipse
 62
7
  6
CONTINUOUS
 10
-34.3604158946
 20
1.1390512774
 30
0.0
 11
-0.0
 21
2.1
 31
0.0
 40
0.0174550649
 41
-3.1415926536
 42
-0.0
  0
ELLIPSE
  5
6FD
100
AcDbEntity
  8
ASSI
100
AcDbEllipse
 62
7
  6
CONTINUOUS
 10
-34.3604158946
 20
6.1390512774
 30
0.0
 11
-0.0
 21
2.1
 31
0.0
 40
0.0174550649
 41
-3.1415926536
 42
-0.0
  0
ELLIPSE
  5
6FE
100
AcDbEntity
  8
ASSI
100
AcDbEllipse
 62
7
  6
CONTINUOUS
 10
-34.3604158946
 20
11.1390512774
 30
0.0
 11
-0.0
 21
2.1
 31
0.0
 40
0.0174550649
 41
-3.1415926536
 42
-0.0
  0
ELLIPSE
  5
6FF
100
AcDbEntity
  8
ASSI
100
AcDbEllipse
 62
7
  6
CONTINUOUS
 10
-34.3604158946
 20
16.1390512774
 30
0.0
 11
0.0
 21
2.1
 31
0.0
 40
0.0174550649
 41
-3.1415926536
 42
-0.0
  0
ENDSEC
  0
SECTION
  2
OBJECTS
  0
DICTIONARY
  5
C
100
AcDbDictionary
280
0
281
1
  3
ACAD_GROUP
350
D
  3
ACAD_MLINESTYLE
350
17
  3
ACAD_LAYOUT
350
1A
  3
ACAD_PLOTSETTINGS
350
19
  3
ACAD_PLOTSTYLENAME
350
E
  0
DICTIONARY
  5
D
102
{ACAD_REACTORS
330
C
102
}
100
AcDbDictionary
280
0
281
1
  0
ACDBDICTIONARYWDFLT
  5
E
102
{ACAD_REACTORS
330
C
102
}
100
AcDbDictionary
281
1
  3
Normal
350
F
100
AcDbDictionaryWithDefault
340
F
  0
DICTIONARY
  5
17
102
{ACAD_REACTORS
330
C
102
}
100
AcDbDictionary
280
0
281
1
  3
Standard
350
18
  0
DICTIONARY
  5
19
102
{ACAD_REACTORS
330
C
102
}
100
AcDbDictionary
281
1
  0
DICTIONARY
  5
1A
102
{ACAD_REACTORS
330
C
102
}
100
AcDbDictionary
281
1
  3
Model
350
700
  3
Layout1
350
701
  0
ACDBPLACEHOLDER
  5
F
102
{ACAD_REACTORS
330
E
102
}
  0
MLINESTYLE
  5
18
102
{ACAD_REACTORS
330
17
102
}
100
AcDbMlineStyle
  2
STANDARD
 70
0
  3

 62
256
 51
90.0
 52
90.0
 71
2
 49
0.5
 62
256
  6
BYLAYER
 49
-0.5
 62
256
  6
BYLAYER
  0
LAYOUT
  5
700
102
{ACAD_REACTORS
330
1A
102
}
100
AcDbPlotSettings
  1

  2
none_device
  4
ISO_A4_(297.00_x_210.00_MM)
  6

 40
0.0
 41
0.0
 42
0.0
 43
0.0
 44
297.0
 45
210.0
 46
0.0
 47
0.0
 48
0.0
 49
0.0
140
0.0
141
0.0
142
1.0
143
1.0
 70
1024
 72
1
 73
0
 74
0
  7

 75
0
147
1.0
148
0.0
149
0.0
100
AcDbLayout
  1
Model
 70
0
 71
0
 10
0.0
 20
0.0
 11
297.0
 21
210.0
 12
0.0
 22
0.0
 32
0.0
 14
0.0
 24
0.0
 34
0.0
 15
0.0
 25
0.0
 35
0.0
146
0.0
 13
0.0
 23
0.0
 33
0.0
 16
1.0
 26
0.0
 36
0.0
 17
0.0
 27
1.0
 37
0.0
 76
0
330
21C
345
0
346
0
  0
LAYOUT
  5
701
102
{ACAD_REACTORS
330
1A
102
}
100
AcDbPlotSettings
  1

  2
none_device
  4
ISO_A4_(297.00_x_210.00_MM)
  6

 40
0.0
 41
0.0
 42
0.0
 43
0.0
 44
297.0
 45
210.0
 46
0.0
 47
0.0
 48
0.0
 49
0.0
140
0.0
141
0.0
142
1.0
143
1.0
 70
0
 72
1
 73
0
 74
0
  7

 75
0
147
1.0
148
0.0
149
0.0
100
AcDbLayout
  1
Layout1
 70
0
 71
1
 10
0.0
 20
0.0
 11
297.0
 21
210.0
 12
0.0
 22
0.0
 32
0.0
 14
0.0
 24
0.0
 34
0.0
 15
0.0
 25
0.0
 35
0.0
146
0.0
 13
0.0
 23
0.0
 33
0.0
 16
1.0
 26
0.0
 36
0.0
 17
0.0
 27
1.0
 37
0.0
 76
0
330
21D
345
0
346
0
  0
ENDSEC
  0
EOF
