  0
SECTION
  2
HEADER
  9
$ACADVER
  1
AC1024
  9
$DWGCODEPAGE
  3
ANSI_1252
  9
$EXTMAX
 10
297.0
 20
210.0
 30
0.0
  9
$EXTMIN
 10
0.0
 20
0.0
 30
0.0
  9
$LIMMIN
 10
0.0
 20
0.0
  9
$LIMMAX
 10
297.0
 20
210.0
  9
$VIEWCTR
 10
148.5
 20
105.0
  9
$VIEWSIZE
 40
210.0
  9
$CLAYER
  8
0
  9
$LTSCALE
 40
16.335
  9
$CELTYPE
  6
BYLAYER
  9
$DIMSCALE
 40
1.0
  9
$DIMASZ
 40
3.0
  9
$DIMEXO
 40
0.5
  9
$DIMDLI
 40
11.286
  9
$DIMEXE
 40
1.5
  9
$DIMCEN
 40
2.673
  9
$DIMLFAC
 40
1.0
  9
$DIMBLK
  1
_FILLED
  9
$DIMALT
 70
0
  9
$DIMALTF
 40
0.0393700787
  9
$DIMTXT
 40
3.0
  9
$DIMTOL
 70
1
  9
$DIMLIM
 70
0
  9
$DIMTFAC
 40
1.0
  9
$DIMTP
 40
0.01
  9
$DIMTM
 40
0.01
  9
$DIMGAP
 40
0.625
  9
$DIMDSEP
 70
44
  9
$AUNITS
 70
0
  9
$PDMODE
 70
3
  9
$PDSIZE
 40
3.0
  9
$HANDSEED
  5
544
  9
$TILEMODE
 70
1
  9
$MEASUREMENT
 70
1
  9
$INSUNITS
 70
4
  0
ENDSEC
  0
SECTION
  2
CLASSES
  0
CLASS
  1
ACDBDICTIONARYWDFLT
  2
AcDbDictionaryWithDefault
  3
AutoCAD 2000
 90
0
 91
1
280
0
281
0
  0
CLASS
  1
ACDBPLACEHOLDER
  2
AcDbPlaceHolder
  3
AutoCAD 2000
 90
0
 91
1
280
0
281
0
  0
CLASS
  1
LAYOUT
  2
AcDbLayout
  3
AutoCAD 2000
 90
0
 91
0
280
0
281
0
  0
ENDSEC
  0
SECTION
  2
TABLES
  0
TABLE
  2
VPORT
  5
8
100
AcDbSymbolTable
 70
2
  0
VPORT
  5
1F4
100
AcDbSymbolTableRecord
100
AcDbViewportTableRecord
  2
*ACTIVE
 70
0
 10
0.0
 20
0.0
 11
1.0
 21
1.0
 12
148.5
 22
105.0
 13
0.0
 23
0.0
 14
1.0
 24
1.0
 15
0.0
 25
0.0
 16
0.0
 26
0.0
 36
1.0
 17
0.0
 27
0.0
 37
0.0
 40
210.0
 41
1.4142857143
 42
50.0
 43
0.0
 44
0.0
 50
0.0
 51
0.0
 71
0
 72
100
 73
1
 74
1
 75
0
 76
0
 77
0
 78
0
  0
ENDTAB
  0
TABLE
  2
LTYPE
  5
5
100
AcDbSymbolTable
 70
6
  0
LTYPE
  5
14
100
AcDbSymbolTableRecord
100
AcDbLinetypeTableRecord
  2
BYBLOCK
 70
0
  3

 72
65
 73
0
 40
0.0
  0
LTYPE
  5
15
100
AcDbSymbolTableRecord
100
AcDbLinetypeTableRecord
  2
BYLAYER
 70
0
  3

 72
65
 73
0
 40
0.0
  0
LTYPE
  5
16
100
AcDbSymbolTableRecord
100
AcDbLinetypeTableRecord
  2
CONTINUOUS
 70
64
  3
Solid line
 72
65
 73
0
 40
0.0
  0
LTYPE
  5
1F5
100
AcDbSymbolTableRecord
100
AcDbLinetypeTableRecord
  2
CENTER
 70
64
  3
____ _ ____ _ ____ _ ____ _ ____ _ ____ _ ____
 72
65
 73
4
 40
0.6
 49
0.375
 74
0
 49
-0.075
 74
0
 49
0.075
 74
0
 49
-0.075
 74
0
  0
LTYPE
  5
1F6
100
AcDbSymbolTableRecord
100
AcDbLinetypeTableRecord
  2
HIDDEN
 70
64
  3
- - - - - - - - - - - - - - - - - - - -
 72
65
 73
2
 40
0.2
 49
0.1
 74
0
 49
-0.1
 74
0
  0
LTYPE
  5
1F7
100
AcDbSymbolTableRecord
100
AcDbLinetypeTableRecord
  2
PHANTOM
 70
64
  3
_____ _ _ _____ _ _ _____ _ _ _____
 72
65
 73
6
 40
0.8
 49
0.45
 74
0
 49
-0.05
 74
0
 49
0.1
 74
0
 49
-0.05
 74
0
 49
0.1
 74
0
 49
-0.05
 74
0
  0
LTYPE
  5
1F8
100
AcDbSymbolTableRecord
100
AcDbLinetypeTableRecord
  2
DOT
 70
64
  3
. . . . . . . . . . . . . . . . . . . .
 72
65
 73
2
 40
0.2
 49
0.1
 74
0
 49
-0.1
 74
0
  0
LTYPE
  5
1F9
100
AcDbSymbolTableRecord
100
AcDbLinetypeTableRecord
  2
DASHED
 70
64
  3
- - - - - - - - - - - - - - - - - - - -
 72
65
 73
2
 40
0.2
 49
0.1
 74
0
 49
-0.1
 74
0
  0
ENDTAB
  0
TABLE
  2
LAYER
  5
2
100
AcDbSymbolTable
 70
36
  0
LAYER
  5
10
100
AcDbSymbolTableRecord
100
AcDbLayerTableRecord
  2
0
 70
0
 62
7
  6
CONTINUOUS
370
-3
390
F
  0
LAYER
  5
1FA
100
AcDbSymbolTableRecord
100
AcDbLayerTableRecord
  2
DEFAULT_1
 70
0
 62
7
  6
CENTER
370
-3
390
F
  0
LAYER
  5
1FB
100
AcDbSymbolTableRecord
100
AcDbLayerTableRecord
  2
DEFAULT_2
 70
0
 62
7
  6
HIDDEN
370
-3
390
F
  0
LAYER
  5
1FC
100
AcDbSymbolTableRecord
100
AcDbLayerTableRecord
  2
DEFAULT_3
 70
0
 62
7
  6
PHANTOM
370
-3
390
F
  0
LAYER
  5
1FD
100
AcDbSymbolTableRecord
100
AcDbLayerTableRecord
  2
ASSI
 70
0
 62
7
  6
CONTINUOUS
370
-3
390
F
  0
LAYER
  5
1FE
100
AcDbSymbolTableRecord
100
AcDbLayerTableRecord
  2
COORDINATE
 70
0
 62
7
  6
CONTINUOUS
370
-3
390
F
  0
LAYER
  5
1FF
100
AcDbSymbolTableRecord
100
AcDbLayerTableRecord
  2
COPY_PUBLISH
 70
0
 62
7
  6
CONTINUOUS
370
-3
390
F
  0
LAYER
  5
200
100
AcDbSymbolTableRecord
100
AcDbLayerTableRecord
  2
COSMETICI
 70
0
 62
7
  6
CONTINUOUS
370
-3
390
F
  0
LAYER
  5
201
100
AcDbSymbolTableRecord
100
AcDbLayerTableRecord
  2
CURVE
 70
0
 62
7
  6
CONTINUOUS
370
-3
390
F
  0
LAYER
  5
202
100
AcDbSymbolTableRecord
100
AcDbLayerTableRecord
  2
DRAFT
 70
0
 62
7
  6
CONTINUOUS
370
-3
390
F
  0
LAYER
  5
203
100
AcDbSymbolTableRecord
100
AcDbLayerTableRecord
  2
IMPORT_IGES
 70
0
 62
7
  6
CONTINUOUS
370
-3
390
F
  0
LAYER
  5
204
100
AcDbSymbolTableRecord
100
AcDbLayerTableRecord
  2
INTF_1
 70
0
 62
7
  6
CONTINUOUS
370
-3
390
F
  0
LAYER
  5
205
100
AcDbSymbolTableRecord
100
AcDbLayerTableRecord
  2
INTF_10
 70
0
 62
7
  6
CONTINUOUS
370
-3
390
F
  0
LAYER
  5
206
100
AcDbSymbolTableRecord
100
AcDbLayerTableRecord
  2
INTF_11
 70
0
 62
7
  6
CONTINUOUS
370
-3
390
F
  0
LAYER
  5
207
100
AcDbSymbolTableRecord
100
AcDbLayerTableRecord
  2
INTF_2
 70
0
 62
7
  6
CONTINUOUS
370
-3
390
F
  0
LAYER
  5
208
100
AcDbSymbolTableRecord
100
AcDbLayerTableRecord
  2
INTF_3
 70
0
 62
7
  6
CONTINUOUS
370
-3
390
F
  0
LAYER
  5
209
100
AcDbSymbolTableRecord
100
AcDbLayerTableRecord
  2
INTF_4
 70
0
 62
7
  6
CONTINUOUS
370
-3
390
F
  0
LAYER
  5
20A
100
AcDbSymbolTableRecord
100
AcDbLayerTableRecord
  2
INTF_5
 70
0
 62
7
  6
CONTINUOUS
370
-3
390
F
  0
LAYER
  5
20B
100
AcDbSymbolTableRecord
100
AcDbLayerTableRecord
  2
INTF_6
 70
0
 62
7
  6
CONTINUOUS
370
-3
390
F
  0
LAYER
  5
20C
100
AcDbSymbolTableRecord
100
AcDbLayerTableRecord
  2
INTF_7
 70
0
 62
7
  6
CONTINUOUS
370
-3
390
F
  0
LAYER
  5
20D
100
AcDbSymbolTableRecord
100
AcDbLayerTableRecord
  2
INTF_9
 70
0
 62
7
  6
CONTINUOUS
370
-3
390
F
  0
LAYER
  5
20E
100
AcDbSymbolTableRecord
100
AcDbLayerTableRecord
  2
INTF_BLANK
 70
0
 62
7
  6
CONTINUOUS
370
-3
390
F
  0
LAYER
  5
20F
100
AcDbSymbolTableRecord
100
AcDbLayerTableRecord
  2
INTF_RED
 70
0
 62
7
  6
CONTINUOUS
370
-3
390
F
  0
LAYER
  5
210
100
AcDbSymbolTableRecord
100
AcDbLayerTableRecord
  2
NOTE
 70
0
 62
7
  6
CONTINUOUS
370
-3
390
F
  0
LAYER
  5
211
100
AcDbSymbolTableRecord
100
AcDbLayerTableRecord
  2
PIANI
 70
0
 62
7
  6
CONTINUOUS
370
-3
390
F
  0
LAYER
  5
212
100
AcDbSymbolTableRecord
100
AcDbLayerTableRecord
  2
PUNTI
 70
0
 62
7
  6
CONTINUOUS
370
-3
390
F
  0
LAYER
  5
213
100
AcDbSymbolTableRecord
100
AcDbLayerTableRecord
  2
RACCORDO
 70
0
 62
7
  6
CONTINUOUS
370
-3
390
F
  0
LAYER
  5
214
100
AcDbSymbolTableRecord
100
AcDbLayerTableRecord
  2
RGB____0____0____0__
 70
0
 62
7
  6
CONTINUOUS
370
-3
390
F
  0
LAYER
  5
215
100
AcDbSymbolTableRecord
100
AcDbLayerTableRecord
  2
SIMBOLI
 70
0
 62
7
  6
CONTINUOUS
370
-3
390
F
  0
LAYER
  5
216
100
AcDbSymbolTableRecord
100
AcDbLayerTableRecord
  2
SMUSSO
 70
0
 62
7
  6
CONTINUOUS
370
-3
390
F
  0
LAYER
  5
217
100
AcDbSymbolTableRecord
100
AcDbLayerTableRecord
  2
SNAPLINE
 70
0
 62
7
  6
CONTINUOUS
370
-3
390
F
  0
LAYER
  5
218
100
AcDbSymbolTableRecord
100
AcDbLayerTableRecord
  2
SUPERFICI
 70
0
 62
7
  6
CONTINUOUS
370
-3
390
F
  0
LAYER
  5
219
100
AcDbSymbolTableRecord
100
AcDbLayerTableRecord
  2
TRASH
 70
0
 62
7
  6
CONTINUOUS
370
-3
390
F
  0
ENDTAB
  0
TABLE
  2
STYLE
  5
3
100
AcDbSymbolTable
 70
1
  0
STYLE
  5
11
100
AcDbSymbolTableRecord
100
AcDbTextStyleTableRecord
  2
STANDARD
 70
0
 40
0.0
 41
0.8
 50
0.0
 71
0
 42
0.2
  3
txt
  4

  0
STYLE
  5
21A
100
AcDbSymbolTableRecord
100
AcDbTextStyleTableRecord
  2
TEXTSTYLE_1
 70
0
 40
0.0
 41
0.8
 50
0.0
 71
0
 42
0.2
  3
gdt
  4

  0
ENDTAB
  0
TABLE
  2
VIEW
  5
6
100
AcDbSymbolTable
 70
0
  0
ENDTAB
  0
TABLE
  2
UCS
  5
7
100
AcDbSymbolTable
 70
0
  0
ENDTAB
  0
TABLE
  2
APPID
  5
9
100
AcDbSymbolTable
 70
1
  0
APPID
  5
21B
100
AcDbSymbolTableRecord
100
AcDbRegAppTableRecord
  2
ACAD
 70
0
  0
ENDTAB
  0
TABLE
  2
BLOCK_RECORD
  5
1
100
AcDbSymbolTable
 70
0
  0
BLOCK_RECORD
  5
21C
100
AcDbSymbolTableRecord
100
AcDbBlockTableRecord
  2
*Model_Space
  0
BLOCK_RECORD
  5
21D
100
AcDbSymbolTableRecord
100
AcDbBlockTableRecord
  2
*Paper_Space
  0
BLOCK_RECORD
  5
21E
100
AcDbSymbolTableRecord
100
AcDbBlockTableRecord
  2
_FILLED
  0
ENDTAB
  0
TABLE
  2
DIMSTYLE
  5
A
100
AcDbSymbolTable
 70
1
100
AcDbDimStyleTable
 71
0
  0
DIMSTYLE
105
21F
100
AcDbSymbolTableRecord
100
AcDbDimStyleTableRecord
  2
STANDARD
 70
0
  3

  4

 40
1.0
 41
3.0
 42
0.5
 43
0.38
 44
1.5
 45
0.0
 46
0.0
 47
0.01
 48
0.01
140
3.0
141
0.09
142
0.0
143
25.4
144
1.0
145
0.0
146
1.0
147
0.625
 71
1
 72
0
 73
0
 74
0
 75
0
 76
0
 77
1
 78
8
 79
2
170
0
171
1
172
0
173
0
174
0
175
0
176
0
177
0
178
0
270
2
179
2
271
2
272
2
273
2
274
2
275
0
280
0
281
0
282
0
283
1
284
8
285
0
286
0
287
3
288
0
340
11
278
44
341
21E
342
21E
343
21E
344
21E
  0
ENDTAB
  0
ENDSEC
  0
SECTION
  2
BLOCKS
  0
BLOCK
  5
20
100
AcDbEntity
  8
0
100
AcDbBlockBegin
  2
*Model_Space
 70
0
 10
0.0
 20
0.0
 30
0.0
  3
*Model_Space
  1

  0
ENDBLK
  5
21
100
AcDbEntity
  8
0
100
AcDbBlockEnd
  0
BLOCK
  5
1C
100
AcDbEntity
  8
0
100
AcDbBlockBegin
  2
*Paper_Space
 70
0
 10
0.0
 20
0.0
 30
0.0
  3
*Paper_Space
  1

  0
ENDBLK
  5
1D
100
AcDbEntity
  8
0
100
AcDbBlockEnd
  0
BLOCK
  5
220
100
AcDbEntity
  8
0
100
AcDbBlockBegin
  2
_FILLED
 70
64
 10
0.0
 20
0.0
  3
_FILLED
  1

  0
SOLID
  5
221
100
AcDbEntity
  8
0
  6
BYBLOCK
 62
0
100
AcDbTrace
 10
0.0
 20
0.0
 11
-1.0
 21
0.3166666667
 12
-1.0
 22
-0.3166666667
 13
-1.0
 23
-0.3166666667
  0
ENDBLK
  5
222
100
AcDbEntity
  8
0
  6
BYBLOCK
 62
0
100
AcDbBlockEnd
  0
ENDSEC
  0
SECTION
  2
ENTITIES
  0
LINE
  5
223
100
AcDbEntity
  8
RACCORDO
100
AcDbLine
 62
7
  6
CONTINUOUS
 10
10.5530366787
 20
-26.3528653412
 11
-10.5530366787
 21
-26.3528653412
  0
LINE
  5
224
100
AcDbEntity
  8
DRAFT
100
AcDbLine
 62
7
  6
CONTINUOUS
 10
10.0
 20
-25.1524539902
 11
-10.0
 21
-25.1524539902
  0
LINE
  5
225
100
AcDbEntity
  8
DRAFT
100
AcDbLine
 62
7
  6
CONTINUOUS
 10
9.9792140383
 20
-25.1212710891
 11
-9.9792140383
 21
-25.1212710891
  0
LINE
  5
226
100
AcDbEntity
  8
ASSI
100
AcDbLine
 62
7
  6
CONTINUOUS
 10
9.9525363335
 20
-24.7967854951
 11
-9.9525363335
 21
-24.7967854951
  0
LINE
  5
227
100
AcDbEntity
  8
RACCORDO
100
AcDbLine
 62
7
  6
CONTINUOUS
 10
-8.0
 20
22.2
 11
-7.9871975793
 21
22.2128024207
  0
LINE
  5
228
100
AcDbEntity
  8
RACCORDO
100
AcDbLine
 62
7
  6
CONTINUOUS
 10
-4.75
 20
-21.0
 11
4.75
 21
-21.0
  0
LWPOLYLINE
  5
229
100
AcDbEntity
  8
0
100
AcDbPolyline
 62
7
  6
CONTINUOUS
 90
7
 70
0
 10
-2.8853389038
 20
-20.1849930823
 10
-2.835242146
 20
-20.1840518242
 10
-2.787157352
 20
-20.1803058798
 10
-2.7410845217
 20
-20.1737552492
 10
-2.6970236552
 20
-20.1643999322
 10
-2.6549747525
 20
-20.1522399291
 10
-2.6149378134
 20
-20.1372752396
  0
LWPOLYLINE
  5
22A
100
AcDbEntity
  8
0
100
AcDbPolyline
 62
7
  6
CONTINUOUS
 90
19
 70
0
 10
2.8885198789
 20
-20.1881742737
 10
2.9061532085
 20
-20.1880506154
 10
2.923753522
 20
-20.1875436768
 10
2.9413208193
 20
-20.1866534579
 10
2.9588612334
 20
-20.1854004721
 10
2.9763686314
 20
-20.183764206
 10
2.9938246147
 20
-20.18168312
 10
3.0112335633
 20
-20.1791610682
 10
3.0285910973
 20
-20.1761941964
 10
3.0458656778
 20
-20.1727094033
 10
3.0630774994
 20
-20.1687085693
 10
3.0802063676
 20
-20.164189814
 10
3.0971601597
 20
-20.1590743939
 10
3.1139492059
 20
-20.1533615248
 10
3.130563176
 20
-20.147051991
 10
3.1468789569
 20
-20.1400694018
 10
3.1628555109
 20
-20.1323882939
 10
3.1785338755
 20
-20.1240341307
 10
3.1939140509
 20
-20.1150069122
  0
LWPOLYLINE
  5
22B
100
AcDbEntity
  8
0
100
AcDbPolyline
 62
7
  6
CONTINUOUS
 90
19
 70
0
 10
1.4506223159
 20
-20.1881742737
 10
1.4682556455
 20
-20.1880506154
 10
1.485855959
 20
-20.1875436768
 10
1.5034232564
 20
-20.1866534579
 10
1.5209636705
 20
-20.1854004721
 10
1.5384710684
 20
-20.183764206
 10
1.5559270517
 20
-20.18168312
 10
1.5733360003
 20
-20.1791610682
 10
1.5906935343
 20
-20.1761941964
 10
1.6079681148
 20
-20.1727094033
 10
1.6251799365
 20
-20.1687085693
 10
1.6423088046
 20
-20.164189814
 10
1.6592625967
 20
-20.1590743939
 10
1.6760516429
 20
-20.1533615248
 10
1.6926656131
 20
-20.1470519909
 10
1.708981394
 20
-20.1400694018
 10
1.7249579479
 20
-20.1323882939
 10
1.7406363126
 20
-20.1240341307
 10
1.756016488
 20
-20.1150069122
  0
LWPOLYLINE
  5
22C
100
AcDbEntity
  8
0
100
AcDbPolyline
 62
7
  6
CONTINUOUS
 90
19
 70
0
 10
0.0127247529
 20
-20.1881742737
 10
0.0303580825
 20
-20.1880506154
 10
0.047958396
 20
-20.1875436768
 10
0.0655256934
 20
-20.1866534579
 10
0.0830661075
 20
-20.1854004721
 10
0.1005735054
 20
-20.183764206
 10
0.1180294887
 20
-20.18168312
 10
0.1354384373
 20
-20.1791610682
 10
0.1527959713
 20
-20.1761941964
 10
0.1700705518
 20
-20.1727094033
 10
0.1872823734
 20
-20.1687085693
 10
0.2044112416
 20
-20.164189814
 10
0.2213650337
 20
-20.1590743939
 10
0.2381540799
 20
-20.1533615248
 10
0.2547680501
 20
-20.147051991
 10
0.271083831
 20
-20.1400694018
 10
0.2870603849
 20
-20.1323882939
 10
0.3027387496
 20
-20.1240341307
 10
0.318118925
 20
-20.1150069122
  0
LINE
  5
22D
100
AcDbEntity
  8
0
100
AcDbLine
 62
7
  6
CONTINUOUS
 10
-1.44426
 20
-20.15
 11
-1.180221
 21
-20.15
  0
LINE
  5
22E
100
AcDbEntity
  8
0
100
AcDbLine
 62
7
  6
CONTINUOUS
 10
-3.1939143
 20
-19.580567
 11
-3.4547718482
 21
-19.580567
  0
LWPOLYLINE
  5
22F
100
AcDbEntity
  8
0
100
AcDbPolyline
 62
7
  6
CONTINUOUS
 90
13
 70
0
 10
-2.8948824717
 20
-19.9845781372
 10
-2.9072942713
 20
-19.984495803
 10
-2.919692144
 20
-19.9840571283
 10
-2.9320760898
 20
-19.9832621131
 10
-2.9444544734
 20
-19.9821476999
 10
-2.95681893
 20
-19.9806769462
 10
-2.9691443657
 20
-19.9787390246
 10
-2.9814598286
 20
-19.9763389144
 10
-2.9937362706
 20
-19.9734716363
 10
-3.0058614535
 20
-19.970011425
 10
-3.0177979648
 20
-19.9659163588
 10
-3.029583217
 20
-19.9612283593
 10
-3.0412172103
 20
-19.9559474266
  0
LWPOLYLINE
  5
230
100
AcDbEntity
  8
0
100
AcDbPolyline
 62
7
  6
CONTINUOUS
 90
7
 70
0
 10
-3.031674
 20
-19.0588519999
 10
-2.9940385832
 20
-19.0595477743
 10
-2.9572479951
 20
-19.061449794
 10
-2.9213022355
 20
-19.0645580589
 10
-2.8862013046
 20
-19.068872569
 10
-2.8519452022
 20
-19.0743933244
 10
-2.8185339285
 20
-19.081120325
  0
LWPOLYLINE
  5
231
100
AcDbEntity
  8
0
100
AcDbPolyline
 62
7
  6
CONTINUOUS
 90
10
 70
0
 10
0.0127247529
 20
-19.9877593265
 10
-0.0089592168
 20
-19.9873168037
 10
-0.029802935
 20
-19.9856364054
 10
-0.0498064017
 20
-19.9827181317
 10
-0.0690163351
 20
-19.9785844248
 10
-0.087386017
 20
-19.9732128425
 10
-0.1047752928
 20
-19.9665360579
 10
-0.1211374442
 20
-19.9585316285
 10
-0.1365191895
 20
-19.9492219968
 10
-0.1509205287
 20
-19.9386071628
  0
LWPOLYLINE
  5
232
100
AcDbEntity
  8
0
100
AcDbPolyline
 62
7
  6
CONTINUOUS
 90
10
 70
0
 10
1.4506223159
 20
-19.9877593265
 10
1.4289383442
 20
-19.9873167944
 10
1.4080946249
 20
-19.9856363898
 10
1.3880911579
 20
-19.9827181129
 10
1.3688812255
 20
-19.9785844067
 10
1.3505115454
 20
-19.9732128282
 10
1.3331222709
 20
-19.9665360475
 10
1.3167601198
 20
-19.9585316214
 10
1.3013783743
 20
-19.9492219932
 10
1.2869770343
 20
-19.9386071628
  0
LWPOLYLINE
  5
233
100
AcDbEntity
  8
0
100
AcDbPolyline
 62
7
  6
CONTINUOUS
 90
10
 70
0
 10
2.8885198789
 20
-19.9877593265
 10
2.8668359072
 20
-19.9873167944
 10
2.8459921879
 20
-19.9856363898
 10
2.8259887209
 20
-19.9827181129
 10
2.8067787885
 20
-19.9785844067
 10
2.7884091084
 20
-19.9732128282
 10
2.7710198339
 20
-19.9665360475
 10
2.7546576828
 20
-19.9585316214
 10
2.7392759373
 20
-19.9492219932
 10
2.7248745973
 20
-19.9386071628
  0
LWPOLYLINE
  5
234
100
AcDbEntity
  8
0
100
AcDbPolyline
 62
7
  6
CONTINUOUS
 90
13
 70
0
 10
-2.8185339285
 20
-19.081120325
 10
-2.8054182787
 20
-19.0843283274
 10
-2.7924966449
 20
-19.0880776228
 10
-2.7797690271
 20
-19.0923682112
 10
-2.7672121165
 20
-19.0971957093
 10
-2.7548492219
 20
-19.1025645003
 10
-2.7427502702
 20
-19.1084877341
 10
-2.7308953719
 20
-19.1149643504
 10
-2.7193044166
 20
-19.1219954096
 10
-2.7081069989
 20
-19.1295972423
 10
-2.6973463171
 20
-19.1377752919
 10
-2.686979173
 20
-19.1465241151
 10
-2.6770055665
 20
-19.1558437117
  0
LWPOLYLINE
  5
235
100
AcDbEntity
  8
0
100
AcDbPolyline
 62
7
  6
CONTINUOUS
 90
13
 70
0
 10
-3.0412172103
 20
-19.9559474266
 10
-3.0505069742
 20
-19.9510088695
 10
-3.0595280595
 20
-19.9456954582
 10
-3.0682804664
 20
-19.9400071926
 10
-3.0767763194
 20
-19.9339314459
 10
-3.085003494
 20
-19.9274808449
 10
-3.0929256159
 20
-19.9206932703
 10
-3.1005493676
 20
-19.9135713724
 10
-3.1078680668
 20
-19.9061125008
 10
-3.1148252917
 20
-19.8983465857
 10
-3.1214022352
 20
-19.8902836038
 10
-3.1276177044
 20
-19.8819135783
 10
-3.1334716994
 20
-19.8732365093
  0
LINE
  5
236
100
AcDbEntity
  8
RACCORDO
100
AcDbLine
 62
7
  6
CONTINUOUS
 10
4.65
 20
20.3883708899
 11
4.6368868517
 21
20.3842539975
  0
LWPOLYLINE
  5
237
100
AcDbEntity
  8
0
100
AcDbPolyline
 62
7
  6
CONTINUOUS
 90
7
 70
0
 10
-2.6658368422
 20
-18.9538726845
 10
-2.6366071152
 20
-18.9466404754
 10
-2.6084653147
 20
-18.9374233264
 10
-2.5814114406
 20
-18.9262212374
 10
-2.555445493
 20
-18.9130342085
 10
-2.5305674719
 20
-18.8978622395
 10
-2.5067773773
 20
-18.8807053307
  0
LWPOLYLINE
  5
238
100
AcDbEntity
  8
0
100
AcDbPolyline
 62
7
  6
CONTINUOUS
 90
7
 70
0
 10
-2.8312586857
 20
-18.8393498697
 10
-2.8625847876
 20
-18.845375545
 10
-2.8947414697
 20
-18.8502634259
 10
-2.927728732
 20
-18.8540135123
 10
-2.9615465745
 20
-18.8566258044
 10
-2.9961949972
 20
-18.8581003022
 10
-3.031674
 20
-18.8584370055
  0
LWPOLYLINE
  5
239
100
AcDbEntity
  8
0
100
AcDbPolyline
 62
7
  6
CONTINUOUS
 90
19
 70
0
 10
2.8917009311
 20
-17.8118257263
 10
2.8742976829
 20
-17.8119432628
 10
2.8569239182
 20
-17.8124358798
 10
2.8395796369
 20
-17.8133035772
 10
2.8222577634
 20
-17.8145267677
 10
2.8049653734
 20
-17.8161250387
 10
2.7877236938
 20
-17.8181571517
 10
2.770529479
 20
-17.8206238606
 10
2.7533859746
 20
-17.8235244115
 10
2.7363241441
 20
-17.8269153043
 10
2.7193288992
 20
-17.830795424
 10
2.7024153283
 20
-17.8351658855
 10
2.6856596595
 20
-17.8400865335
 10
2.6690541797
 20
-17.8455577656
 10
2.652606602
 20
-17.8515791841
 10
2.6364162944
 20
-17.8582094407
 10
2.6205163793
 20
-17.865468086
 10
2.6048737341
 20
-17.8733355694
 10
2.589488359
 20
-17.8818118908
  0
LWPOLYLINE
  5
23A
100
AcDbEntity
  8
0
100
AcDbPolyline
 62
7
  6
CONTINUOUS
 90
19
 70
0
 10
1.4538033681
 20
-17.8118257263
 10
1.4364001199
 20
-17.8119432628
 10
1.4190263552
 20
-17.8124358798
 10
1.4016820739
 20
-17.8133035772
 10
1.3843602005
 20
-17.8145267677
 10
1.3670678104
 20
-17.8161250387
 10
1.3498261308
 20
-17.8181571517
 10
1.332631916
 20
-17.8206238606
 10
1.3154884116
 20
-17.8235244115
 10
1.2984265811
 20
-17.8269153043
 10
1.2814313363
 20
-17.830795424
 10
1.2645177653
 20
-17.8351658855
 10
1.2477620965
 20
-17.8400865335
 10
1.2311566167
 20
-17.8455577656
 10
1.214709039
 20
-17.8515791841
 10
1.1985187314
 20
-17.8582094407
 10
1.1826188163
 20
-17.865468086
 10
1.1669761712
 20
-17.8733355694
 10
1.151590796
 20
-17.8818118908
  0
LWPOLYLINE
  5
23B
100
AcDbEntity
  8
0
100
AcDbPolyline
 62
7
  6
CONTINUOUS
 90
19
 70
0
 10
0.0159058051
 20
-17.8118257263
 10
-0.0014974575
 20
-17.811943264
 10
-0.0188712365
 20
-17.8124358818
 10
-0.0362155321
 20
-17.8133035797
 10
-0.0535374196
 20
-17.8145267708
 10
-0.0708298235
 20
-17.816125042
 10
-0.0880715174
 20
-17.8181571543
 10
-0.1052657467
 20
-17.8206238612
 10
-0.122409266
 20
-17.8235244093
 10
-0.1394711118
 20
-17.8269152992
 10
-0.1564663726
 20
-17.8307954159
 10
-0.17337996
 20
-17.8351658743
 10
-0.1901356453
 20
-17.8400865201
 10
-0.2067411418
 20
-17.8455577508
 10
-0.2231887363
 20
-17.8515791687
 10
-0.2393790603
 20
-17.8582094265
 10
-0.255278991
 20
-17.8654680748
 10
-0.2709216513
 20
-17.8733355629
 10
-0.2863070412
 20
-17.8818118908
  0
LWPOLYLINE
  5
23C
100
AcDbEntity
  8
0
100
AcDbPolyline
 62
7
  6
CONTINUOUS
 90
19
 70
0
 10
-2.8694329573
 20
-17.8118257263
 10
-2.8947861682
 20
-17.8119424246
 10
-2.9200415437
 20
-17.8127945779
 10
-2.9451990839
 20
-17.8143821863
 10
-2.970278073
 20
-17.8166478591
 10
-2.9952592268
 20
-17.8196489869
 10
-3.0200846918
 20
-17.8235577415
 10
-3.044766839
 20
-17.828386307
 10
-3.0692932973
 20
-17.8341224992
 10
-3.0935691013
 20
-17.8409019378
 10
-3.1176578477
 20
-17.8487180904
 10
-3.1414959396
 20
-17.8575774894
 10
-3.1647976208
 20
-17.8676353518
 10
-3.1875943642
 20
-17.8788871742
 10
-3.2098546968
 20
-17.89133746
 10
-3.2311984427
 20
-17.9051549368
 10
-3.2514988764
 20
-17.9203958471
 10
-3.2708827234
 20
-17.9370039483
 10
-3.2893499836
 20
-17.9549792404
  0
LINE
  5
23D
100
AcDbEntity
  8
0
100
AcDbLine
 62
7
  6
CONTINUOUS
 10
-3.42296
 20
-18.393983
 11
-3.1684647856
 21
-18.393983
  0
LINE
  5
23E
100
AcDbEntity
  8
0
100
AcDbLine
 62
7
  6
CONTINUOUS
 10
-1.180221
 20
-17.85
 11
-1.415629381
 21
-17.85
  0
LWPOLYLINE
  5
23F
100
AcDbEntity
  8
0
100
AcDbPolyline
 62
7
  6
CONTINUOUS
 90
13
 70
0
 10
-2.8757953359
 20
-18.0122406521
 10
-2.8637821685
 20
-18.0124487697
 10
-2.8518128404
 20
-18.0131006899
 10
-2.8398873514
 20
-18.0141964126
 10
-2.8279906956
 20
-18.0157253404
 10
-2.816137879
 20
-18.0176980707
 10
-2.8043739193
 20
-18.0201463956
 10
-2.7926855848
 20
-18.0230666768
 10
-2.7810861071
 20
-18.0264625525
 10
-2.7696601984
 20
-18.0303767298
 10
-2.7584360962
 20
-18.0348234441
 10
-2.747385563
 20
-18.03978846
 10
-2.7365085988
 20
-18.0452717773
  0
LWPOLYLINE
  5
240
100
AcDbEntity
  8
0
100
AcDbPolyline
 62
7
  6
CONTINUOUS
 90
13
 70
0
 10
0.0159058051
 20
-18.0122406521
 10
0.0302369624
 20
-18.0125810154
 10
0.0444760008
 20
-18.013607067
 10
0.0586229205
 20
-18.0153188068
 10
0.0727072906
 20
-18.0176966118
 10
0.086699542
 20
-18.0207601051
 10
0.1005109666
 20
-18.0245681559
 10
0.1141818708
 20
-18.0291129983
 10
0.1276719483
 20
-18.0344023982
 10
0.1407715718
 20
-18.0405185223
 10
0.1534108659
 20
-18.0474887596
 10
0.165659706
 20
-18.0552857211
 10
0.1775180923
 20
-18.0639094067
  0
LWPOLYLINE
  5
241
100
AcDbEntity
  8
0
100
AcDbPolyline
 62
7
  6
CONTINUOUS
 90
13
 70
0
 10
1.4538033681
 20
-18.0122406521
 10
1.4681345232
 20
-18.01258101
 10
1.4823735611
 20
-18.0136070534
 10
1.4965204818
 20
-18.0153187824
 10
1.5106048544
 20
-18.0176965722
 10
1.5245971097
 20
-18.0207600474
 10
1.5384085402
 20
-18.0245680824
 10
1.5520794535
 20
-18.0291129112
 10
1.5655695418
 20
-18.0344022996
 10
1.5786691745
 20
-18.0405184197
 10
1.5913084745
 20
-18.047488662
 10
1.6035573188
 20
-18.0552856359
 10
1.6154157074
 20
-18.0639093415
  0
LWPOLYLINE
  5
242
100
AcDbEntity
  8
0
100
AcDbPolyline
 62
7
  6
CONTINUOUS
 90
13
 70
0
 10
2.8917009311
 20
-18.0122406521
 10
2.9060320862
 20
-18.01258101
 10
2.9202711241
 20
-18.0136070534
 10
2.9344180448
 20
-18.0153187824
 10
2.9485024174
 20
-18.0176965722
 10
2.9624946727
 20
-18.0207600474
 10
2.9763061032
 20
-18.0245680824
 10
2.9899770164
 20
-18.0291129112
 10
3.0034671048
 20
-18.0344022996
 10
3.0165667375
 20
-18.0405184197
 10
3.0292060375
 20
-18.047488662
 10
3.0414548818
 20
-18.0552856359
 10
3.0533132704
 20
-18.0639093415
  0
LWPOLYLINE
  5
243
100
AcDbEntity
  8
DRAFT
100
AcDbPolyline
 62
7
  6
CONTINUOUS
 90
5
 70
0
 10
-9.5227038285
 20
-14.7585181502
 10
-9.5309592614
 20
-14.7550115191
 10
-9.5391646355
 20
-14.7515910179
 10
-9.547293354
 20
-14.7482583795
 10
-9.5553454168
 20
-14.7450136038
  0
LINE
  5
244
100
AcDbEntity
  8
DRAFT
100
AcDbLine
 62
7
  6
CONTINUOUS
 10
-9.4972239062
 20
-14.7695805612
 11
-9.5227038285
 21
-14.7585181502
  0
LINE
  5
245
100
AcDbEntity
  8
DRAFT
100
AcDbLine
 62
7
  6
CONTINUOUS
 10
-9.451175551
 20
-14.7899438485
 11
-9.4972239062
 21
-14.7695805612
  0
LINE
  5
246
100
AcDbEntity
  8
DRAFT
100
AcDbLine
 62
7
  6
CONTINUOUS
 10
-9.3171572875
 20
-14.85
 11
-9.451175551
 21
-14.7899438485
  0
LWPOLYLINE
  5
247
100
AcDbEntity
  8
0
100
AcDbPolyline
 62
7
  6
CONTINUOUS
 90
19
 70
0
 10
-0.2951557111
 20
-20.1170174235
 10
-0.2794846514
 20
-20.1258998608
 10
-0.2635379249
 20
-20.1341115217
 10
-0.2473155316
 20
-20.1416524062
 10
-0.2307814882
 20
-20.1484971115
 10
-0.2139717781
 20
-20.1546710405
 10
-0.1969943508
 20
-20.1602504009
 10
-0.1798515638
 20
-20.1652353354
 10
-0.1625410595
 20
-20.1696257014
 10
-0.1451637147
 20
-20.1734972792
 10
-0.1277397889
 20
-20.1768470984
 10
-0.1102490225
 20
-20.1796781295
 10
-0.0927315143
 20
-20.182075064
 10
-0.0751958098
 20
-20.1840415311
 10
-0.0576333635
 20
-20.1855739017
 10
-0.0400586379
 20
-20.1867459808
 10
-0.0224764536
 20
-20.1875823699
 10
-0.00488199
 20
-20.1880584676
 10
0.0127247529
 20
-20.1881742737
  0
LWPOLYLINE
  5
248
100
AcDbEntity
  8
0
100
AcDbPolyline
 62
7
  6
CONTINUOUS
 90
10
 70
0
 10
-2.488197055
 20
-19.0214251301
 10
-2.5048791544
 20
-19.0107321974
 10
-2.5223701729
 20
-19.0008476054
 10
-2.5406701104
 20
-18.9917713541
 10
-2.5598389742
 20
-18.9835188626
 10
-2.579816757
 20
-18.9760747118
 10
-2.6004234374
 20
-18.9693926444
 10
-2.6215990081
 20
-18.9634572411
 10
-2.6434034764
 20
-18.9582839211
 10
-2.6658368422
 20
-18.9538726845
  0
LINE
  5
249
100
AcDbEntity
  8
RACCORDO
100
AcDbLine
 62
7
  6
CONTINUOUS
 10
-9.1
 20
-14.85
 11
-9.4290614477
 21
-14.6012191724
  0
LINE
  5
24A
100
AcDbEntity
  8
DRAFT
100
AcDbLine
 62
7
  6
CONTINUOUS
 10
-4.65
 20
20.3883708899
 11
-4.8408975231
 21
20.114313247
  0
LINE
  5
24B
100
AcDbEntity
  8
RACCORDO
100
AcDbLine
 62
7
  6
CONTINUOUS
 10
-4.8290726925
 20
20.106076546
 11
-4.5959457463
 21
20.4407598898
  0
LINE
  5
24C
100
AcDbEntity
  8
RACCORDO
100
AcDbLine
 62
250
  6
CONTINUOUS
 10
-4.7059939892
 20
20.0203448752
 11
-4.3368982748
 21
20.5502286569
  0
LWPOLYLINE
  5
24D
100
AcDbEntity
  8
RACCORDO
100
AcDbPolyline
 62
7
  6
CONTINUOUS
 90
10
 70
0
 10
-4.5959457463
 20
20.4407598898
 10
-4.5786769912
 20
20.4610271908
 10
-4.557753566
 20
20.4785905708
 10
-4.5334536211
 20
20.4936437782
 10
-4.5063009829
 20
20.5063686256
 10
-4.4766175904
 20
20.5171724265
 10
-4.4443845052
 20
20.5265911802
 10
-4.4098951672
 20
20.5350123489
 10
-4.3738641531
 20
20.5427506142
 10
-4.3368982748
 20
20.5502286569
  0
LINE
  5
24E
100
AcDbEntity
  8
DRAFT
100
AcDbLine
 62
7
  6
CONTINUOUS
 10
10.1
 20
-14.6618993734
 11
10.6
 21
-14.6366435717
  0
LINE
  5
24F
100
AcDbEntity
  8
RACCORDO
100
AcDbLine
 62
7
  6
CONTINUOUS
 10
4.75
 20
-17.0
 11
-4.75
 21
-17.0
  0
LINE
  5
250
100
AcDbEntity
  8
0
100
AcDbLine
 62
7
  6
CONTINUOUS
 10
-10.1
 20
-16.25
 11
-9.1
 21
-16.25
  0
LINE
  5
251
100
AcDbEntity
  8
0
100
AcDbLine
 62
7
  6
CONTINUOUS
 10
9.1
 20
-16.25
 11
10.1
 21
-16.25
  0
LINE
  5
252
100
AcDbEntity
  8
DRAFT
100
AcDbLine
 62
7
  6
CONTINUOUS
 10
-10.6
 20
-14.6366435717
 11
-10.1
 21
-14.6618993734
  0
LINE
  5
253
100
AcDbEntity
  8
RACCORDO
100
AcDbLine
 62
250
  6
CONTINUOUS
 10
-8.4938267808
 20
-13.5649587304
 11
-8.1250220438
 21
-13.6745746109
  0
LINE
  5
254
100
AcDbEntity
  8
RACCORDO
100
AcDbLine
 62
250
  6
CONTINUOUS
 10
-8.3461056179
 20
-13.4151643002
 11
-7.9764310987
 21
-13.5250386967
  0
LINE
  5
255
100
AcDbEntity
  8
RACCORDO
100
AcDbLine
 62
7
  6
CONTINUOUS
 10
-9.1
 20
-13.6
 11
-9.2108433288
 21
-13.549801188
  0
LWPOLYLINE
  5
256
100
AcDbEntity
  8
0
100
AcDbPolyline
 62
7
  6
CONTINUOUS
 90
19
 70
0
 10
0.3145242193
 20
-17.879331912
 10
0.2992892315
 20
-17.8708089798
 10
0.2837898175
 20
-17.8629384427
 10
0.2680259772
 20
-17.8557203007
 10
0.2519622859
 20
-17.8491787966
 10
0.2356341683
 20
-17.8432896877
 10
0.2191478991
 20
-17.8379802453
 10
0.2025057459
 20
-17.8332526657
 10
0.185705441
 20
-17.8291047526
 10
0.1688464565
 20
-17.8254571877
 10
0.1519492374
 20
-17.822312954
 10
0.1349933388
 20
-17.8196690685
 10
0.1180168976
 20
-17.8174372633
 10
0.1010288232
 20
-17.8156139623
 10
0.0840202062
 20
-17.8142027417
 10
0.067002455
 20
-17.8131260617
 10
0.0499793725
 20
-17.8123580759
 10
0.0329471559
 20
-17.8119246307
 10
0.0159058051
 20
-17.8118257263
  0
LWPOLYLINE
  5
257
100
AcDbEntity
  8
0
100
AcDbPolyline
 62
7
  6
CONTINUOUS
 90
19
 70
0
 10
1.1427421261
 20
-20.1170174235
 10
1.1584131715
 20
-20.1258998534
 10
1.1743598832
 20
-20.1341115082
 10
1.1905822614
 20
-20.1416523879
 10
1.207116289
 20
-20.14849709
 10
1.2239259829
 20
-20.1546710171
 10
1.2409033941
 20
-20.1602503767
 10
1.2580461648
 20
-20.1652353115
 10
1.2753566527
 20
-20.1696256789
 10
1.2927339814
 20
-20.1734972587
 10
1.3101578916
 20
-20.1768470803
 10
1.3276486426
 20
-20.1796781144
 10
1.3451661356
 20
-20.182075052
 10
1.3627018253
 20
-20.184041522
 10
1.380264257
 20
-20.1855738955
 10
1.3978389682
 20
-20.186745977
 10
1.4154211379
 20
-20.187582368
 10
1.4330155872
 20
-20.1880584669
 10
1.4506223159
 20
-20.1881742737
  0
LWPOLYLINE
  5
258
100
AcDbEntity
  8
0
100
AcDbPolyline
 62
7
  6
CONTINUOUS
 90
19
 70
0
 10
2.580639689
 20
-20.1170174235
 10
2.5963107344
 20
-20.1258998533
 10
2.6122574462
 20
-20.1341115081
 10
2.6284798243
 20
-20.1416523879
 10
2.6450138519
 20
-20.14849709
 10
2.6618235459
 20
-20.1546710171
 10
2.6788009571
 20
-20.1602503767
 10
2.6959437278
 20
-20.1652353115
 10
2.7132542157
 20
-20.1696256789
 10
2.7306315444
 20
-20.1734972587
 10
2.7480554546
 20
-20.1768470803
 10
2.7655462056
 20
-20.1796781144
 10
2.7830636986
 20
-20.182075052
 10
2.8005993882
 20
-20.184041522
 10
2.81816182
 20
-20.1855738955
 10
2.8357365311
 20
-20.186745977
 10
2.8533187009
 20
-20.187582368
 10
2.8709131502
 20
-20.1880584669
 10
2.8885198789
 20
-20.1881742737
  0
LWPOLYLINE
  5
259
100
AcDbEntity
  8
0
100
AcDbPolyline
 62
7
  6
CONTINUOUS
 90
13
 70
0
 10
-2.7365085988
 20
-18.0452717773
 10
-2.727627965
 20
-18.0503644281
 10
-2.7190208275
 20
-18.055826237
 10
-2.7106871864
 20
-18.0616572039
 10
-2.7026119187
 20
-18.0678649437
 10
-2.6948101473
 20
-18.0744418415
 10
-2.6873272416
 20
-18.0813650529
 10
-2.6801518739
 20
-18.0886338723
 10
-2.6732953719
 20
-18.0962490052
 10
-2.6668370878
 20
-18.1041897229
 10
-2.6608034725
 20
-18.1124491158
 10
-2.6551680751
 20
-18.1210340936
 10
-2.6499308957
 20
-18.1299446561
  0
LWPOLYLINE
  5
25A
100
AcDbEntity
  8
0
100
AcDbPolyline
 62
7
  6
CONTINUOUS
 90
19
 70
0
 10
-3.3275242625
 20
-20.0386583594
 10
-3.3084528733
 20
-20.0583430083
 10
-3.288274654
 20
-20.0764175103
 10
-3.2669896047
 20
-20.0928818654
 10
-3.2444332645
 20
-20.1076884427
 10
-3.2207700942
 20
-20.1208848731
 10
-3.1964934762
 20
-20.1326140492
 10
-3.17162585
 20
-20.1428335618
 10
-3.146144776
 20
-20.1515858202
 10
-3.1204763183
 20
-20.1591409439
 10
-3.0947266677
 20
-20.1654815144
 10
-3.0687896334
 20
-20.1706249502
 10
-3.0427727079
 20
-20.1748936264
 10
-3.016706889
 20
-20.178313053
 10
-2.9905611788
 20
-20.1808577198
 10
-2.9643500754
 20
-20.1827734717
 10
-2.9380784114
 20
-20.1841422569
 10
-2.9117413542
 20
-20.1848821271
 10
-2.8853389038
 20
-20.1849930823
  0
LINE
  5
25B
100
AcDbEntity
  8
DRAFT
100
AcDbLine
 62
7
  6
CONTINUOUS
 10
-4.3244793474
 20
19.8059500315
 11
-4.3189501702
 21
19.8138878678
  0
LINE
  5
25C
100
AcDbEntity
  8
RACCORDO
100
AcDbLine
 62
250
  6
CONTINUOUS
 10
4.7059939892
 20
20.0203448752
 11
4.8408975231
 21
20.114313247
  0
LWPOLYLINE
  5
25D
100
AcDbEntity
  8
RACCORDO
100
AcDbPolyline
 62
250
  6
CONTINUOUS
 90
12
 70
0
 10
8.4938267808
 20
-13.5649587304
 10
8.501326656
 20
-13.5632860067
 10
8.5110469148
 20
-13.5617015063
 10
8.5229875574
 20
-13.5602052293
 10
8.5374992635
 20
-13.5587874701
 10
8.5542313532
 20
-13.5574579343
 10
8.5721317868
 20
-13.5562457384
 10
8.5911564843
 20
-13.5551624338
 10
8.6113495256
 20
-13.554196469
 10
8.6317911108
 20
-13.553342307
 10
8.6520786292
 20
-13.55260886
 10
8.6726146915
 20
-13.5519872157
  0
LWPOLYLINE
  5
25E
100
AcDbEntity
  8
RACCORDO
100
AcDbPolyline
 62
250
  6
CONTINUOUS
 90
9
 70
0
 10
8.3461056179
 20
-13.415164484
 10
8.3562526689
 20
-13.4134914327
 10
8.3702485393
 20
-13.41190673
 10
8.387763864
 20
-13.410410376
 10
8.4085529966
 20
-13.4089927317
 10
8.4321966105
 20
-13.407663436
 10
8.457969914
 20
-13.4064514062
 10
8.4853201957
 20
-13.4053680972
 10
8.5139028155
 20
-13.4044020542
  0
LINE
  5
25F
100
AcDbEntity
  8
RACCORDO
100
AcDbLine
 62
7
  6
CONTINUOUS
 10
-10.4450972632
 20
-14.6012191724
 11
-10.6
 21
-14.6147714058
  0
LWPOLYLINE
  5
260
100
AcDbEntity
  8
RACCORDO
100
AcDbPolyline
 62
250
  6
CONTINUOUS
 90
19
 70
0
 10
-8.1250226141
 20
-13.8086897717
 10
-8.0954029666
 20
-13.8070990547
 10
-8.0668059326
 20
-13.8029899856
 10
-8.0392315122
 20
-13.7963625642
 10
-8.0123510543
 20
-13.7869178223
 10
-7.9864932099
 20
-13.7749547282
 10
-7.9626439322
 20
-13.7613701863
 10
-7.9411381237
 20
-13.7462179695
 10
-7.9216408818
 20
-13.7294443049
 10
-7.9041334523
 20
-13.7117847781
 10
-7.8887212611
 20
-13.6935047178
 10
-7.8752988823
 20
-13.6743387953
 10
-7.8635312832
 20
-13.6542266104
 10
-7.8532436775
 20
-13.6333036505
 10
-7.8446108516
 20
-13.6114344283
 10
-7.8378221318
 20
-13.5881520811
 10
-7.832940627
 20
-13.5633009881
 10
-7.8299032283
 20
-13.5370367701
 10
-7.8287099358
 20
-13.5093594272
  0
LWPOLYLINE
  5
261
100
AcDbEntity
  8
RACCORDO
100
AcDbPolyline
 62
250
  6
CONTINUOUS
 90
19
 70
0
 10
-8.1250227781
 20
-13.6745743927
 10
-8.1099813555
 20
-13.6740028984
 10
-8.0952668067
 20
-13.6720438872
 10
-8.0810024984
 20
-13.6687455501
 10
-8.0672120431
 20
-13.6641297768
 10
-8.0541027543
 20
-13.65828549
 10
-8.0420269979
 20
-13.6514515314
 10
-8.0311291032
 20
-13.6438489598
 10
-8.0213223469
 20
-13.6355708239
 10
-8.0125579363
 20
-13.6267224467
 10
-8.004895845
 20
-13.6175086492
 10
-7.9982520787
 20
-13.6079699621
 10
-7.9924196408
 20
-13.5978950523
 10
-7.9874390695
 20
-13.5873657814
 10
-7.9833427563
 20
-13.5764223157
 10
-7.9800650187
 20
-13.564708382
 10
-7.9777121178
 20
-13.5521246503
 10
-7.9764576105
 20
-13.5388728674
 10
-7.9764314711
 20
-13.525038586
  0
LWPOLYLINE
  5
262
100
AcDbEntity
  8
RACCORDO
100
AcDbPolyline
 62
250
  6
CONTINUOUS
 90
10
 70
0
 10
-7.8287099358
 20
-13.5093594272
 10
-7.8518997202
 20
-13.5099730716
 10
-7.8745317098
 20
-13.5109490966
 10
-7.8960615263
 20
-13.5122640255
 10
-7.9159713029
 20
-13.5138862296
 10
-7.9337821401
 20
-13.5157766894
 10
-7.9490656254
 20
-13.5178899327
 10
-7.9614541379
 20
-13.5201751286
 10
-7.9706496906
 20
-13.5225773102
 10
-7.9764310987
 20
-13.5250386967
  0
LINE
  5
263
100
AcDbEntity
  8
RACCORDO
100
AcDbLine
 62
250
  6
CONTINUOUS
 10
8.5139028155
 20
-13.4044020542
 11
8.572400589
 21
-13.4028143663
  0
LWPOLYLINE
  5
264
100
AcDbEntity
  8
RACCORDO
100
AcDbPolyline
 62
250
  6
CONTINUOUS
 90
3
 70
0
 10
8.6726146915
 20
-13.5519872157
 10
8.715150252
 20
-13.5509716339
 10
8.7371497504
 20
-13.5505776964
  0
LINE
  5
265
100
AcDbEntity
  8
RACCORDO
100
AcDbLine
 62
250
  6
CONTINUOUS
 10
8.572400589
 20
-13.4028143663
 11
8.6316206871
 21
-13.4016506196
  0
LINE
  5
266
100
AcDbEntity
  8
RACCORDO
100
AcDbLine
 62
250
  6
CONTINUOUS
 10
8.6316206871
 20
-13.4016506196
 11
8.6937039705
 21
-13.4007833122
  0
LINE
  5
267
100
AcDbEntity
  8
RACCORDO
100
AcDbLine
 62
250
  6
CONTINUOUS
 10
8.7371497504
 20
-13.5505776964
 11
8.7851815025
 21
-13.5500296059
  0
LINE
  5
268
100
AcDbEntity
  8
RACCORDO
100
AcDbLine
 62
250
  6
CONTINUOUS
 10
8.6937039705
 20
-13.4007833122
 11
8.7624929859
 21
-13.4002352508
  0
LINE
  5
269
100
AcDbEntity
  8
RACCORDO
100
AcDbLine
 62
250
  6
CONTINUOUS
 10
8.7851815025
 20
-13.5500296059
 11
8.8385094944
 21
-13.549801188
  0
LINE
  5
26A
100
AcDbEntity
  8
DRAFT
100
AcDbLine
 62
7
  6
CONTINUOUS
 10
10.1
 20
-14.85
 11
9.8828427125
 21
-14.85
  0
LINE
  5
26B
100
AcDbEntity
  8
DRAFT
100
AcDbLine
 62
7
  6
CONTINUOUS
 10
9.3171572875
 20
-14.85
 11
9.1
 21
-14.85
  0
LINE
  5
26C
100
AcDbEntity
  8
DRAFT
100
AcDbLine
 62
7
  6
CONTINUOUS
 10
-9.1
 20
-14.85
 11
-9.3171572875
 21
-14.85
  0
LINE
  5
26D
100
AcDbEntity
  8
DRAFT
100
AcDbLine
 62
7
  6
CONTINUOUS
 10
-9.8828427125
 20
-14.85
 11
-10.1
 21
-14.85
  0
LINE
  5
26E
100
AcDbEntity
  8
DRAFT
100
AcDbLine
 62
7
  6
CONTINUOUS
 10
9.6446545832
 20
-14.7450136038
 11
9.5553454168
 21
-14.7450136038
  0
LINE
  5
26F
100
AcDbEntity
  8
DRAFT
100
AcDbLine
 62
7
  6
CONTINUOUS
 10
-9.5553454168
 20
-14.7450136038
 11
-9.6446545832
 21
-14.7450136038
  0
LINE
  5
270
100
AcDbEntity
  8
RACCORDO
100
AcDbLine
 62
250
  6
CONTINUOUS
 10
10.4450972632
 20
-14.6012191724
 11
9.4290614477
 21
-14.6012191724
  0
LINE
  5
271
100
AcDbEntity
  8
RACCORDO
100
AcDbLine
 62
250
  6
CONTINUOUS
 10
-9.4290614477
 20
-14.6012191724
 11
-10.4450972632
 21
-14.6012191724
  0
LINE
  5
272
100
AcDbEntity
  8
RACCORDO
100
AcDbLine
 62
7
  6
CONTINUOUS
 10
-4.75
 20
-14.5
 11
4.75
 21
-14.5
  0
LINE
  5
273
100
AcDbEntity
  8
RACCORDO
100
AcDbLine
 62
250
  6
CONTINUOUS
 10
9.9886751346
 20
-14.1031218234
 11
9.4818790363
 21
-14.1031218234
  0
LINE
  5
274
100
AcDbEntity
  8
RACCORDO
100
AcDbLine
 62
250
  6
CONTINUOUS
 10
-9.4818790363
 20
-14.1031218234
 11
-9.9886751346
 21
-14.1031218234
  0
LINE
  5
275
100
AcDbEntity
  8
RACCORDO
100
AcDbLine
 62
250
  6
CONTINUOUS
 10
-9.1
 20
-13.8086897717
 11
-8.1250226141
 21
-13.8086897717
  0
LINE
  5
276
100
AcDbEntity
  8
RACCORDO
100
AcDbLine
 62
250
  6
CONTINUOUS
 10
8.1250225998
 20
-13.8086897717
 11
9.1
 21
-13.8086897717
  0
LINE
  5
277
100
AcDbEntity
  8
RACCORDO
100
AcDbLine
 62
250
  6
CONTINUOUS
 10
-9.1
 20
-13.6745746109
 11
-8.1250220438
 21
-13.6745746109
  0
LINE
  5
278
100
AcDbEntity
  8
RACCORDO
100
AcDbLine
 62
250
  6
CONTINUOUS
 10
8.1250220438
 20
-13.6745746109
 11
9.1
 21
-13.6745746109
  0
LINE
  5
279
100
AcDbEntity
  8
0
100
AcDbLine
 62
7
  6
CONTINUOUS
 10
1.710806
 20
-13.65
 11
1.981206
 21
-13.65
  0
LINE
  5
27A
100
AcDbEntity
  8
0
100
AcDbLine
 62
7
  6
CONTINUOUS
 10
3.104146
 20
-13.65
 11
3.384112
 21
-13.65
  0
LINE
  5
27B
100
AcDbEntity
  8
0
100
AcDbLine
 62
7
  6
CONTINUOUS
 10
-3.39
 20
-13.649994
 11
-2.397469
 21
-13.649994
  0
LINE
  5
27C
100
AcDbEntity
  8
0
100
AcDbLine
 62
7
  6
CONTINUOUS
 10
-1.385532
 20
-13.649994
 11
-1.134218
 21
-13.649994
  0
LINE
  5
27D
100
AcDbEntity
  8
0
100
AcDbLine
 62
7
  6
CONTINUOUS
 10
-0.361189
 20
-13.649994
 11
0.05875
 21
-13.649994
  0
LINE
  5
27E
100
AcDbEntity
  8
0
100
AcDbLine
 62
7
  6
CONTINUOUS
 10
0.479694
 20
-13.649994
 11
1.561298
 21
-13.649994
  0
LINE
  5
27F
100
AcDbEntity
  8
0
100
AcDbLine
 62
7
  6
CONTINUOUS
 10
-2.080077
 20
-13.649989
 11
-1.809675
 21
-13.649989
  0
LINE
  5
280
100
AcDbEntity
  8
RACCORDO
100
AcDbLine
 62
250
  6
CONTINUOUS
 10
8.8385094944
 20
-13.549801188
 11
9.2108433288
 21
-13.549801188
  0
LINE
  5
281
100
AcDbEntity
  8
0
100
AcDbLine
 62
7
  6
CONTINUOUS
 10
1.561298
 20
-13.433673
 11
0.750095
 21
-13.433673
  0
LINE
  5
282
100
AcDbEntity
  8
0
100
AcDbLine
 62
7
  6
CONTINUOUS
 10
-2.397469
 20
-13.433673
 11
-3.119599
 21
-13.433673
  0
LINE
  5
283
100
AcDbEntity
  8
RACCORDO
100
AcDbLine
 62
250
  6
CONTINUOUS
 10
8.7624929859
 20
-13.4002352508
 11
9.2272930121
 21
-13.4000067578
  0
LINE
  5
284
100
AcDbEntity
  8
RACCORDO
100
AcDbLine
 62
250
  6
CONTINUOUS
 10
-9.2272930121
 20
-13.4000067578
 11
-8.7934869494
 21
-13.4000950208
  0
LWPOLYLINE
  5
285
100
AcDbEntity
  8
RACCORDO
100
AcDbPolyline
 62
250
  6
CONTINUOUS
 90
19
 70
0
 10
-9.2108433288
 20
-13.549801188
 10
-8.8066488933
 20
-13.5498893799
 10
-8.7758704052
 20
-13.5501059883
 10
-8.7461740302
 20
-13.5504510133
 10
-8.7172854768
 20
-13.550939498
 10
-8.6894790363
 20
-13.5515563994
 10
-8.6635775835
 20
-13.5522565872
 10
-8.6398110511
 20
-13.5530410994
 10
-8.6179495062
 20
-13.5539088981
 10
-8.598126025
 20
-13.5548117397
 10
-8.580597435
 20
-13.555730346
 10
-8.5651069086
 20
-13.5566839952
 10
-8.55101704
 20
-13.5576822772
 10
-8.5381446214
 20
-13.5587161555
 10
-8.5266728604
 20
-13.5597946667
 10
-8.5165139742
 20
-13.5609545098
 10
-8.5076387017
 20
-13.562207918
 10
-8.5000763039
 20
-13.5635426582
 10
-8.4938267808
 20
-13.5649587304
  0
LINE
  5
286
100
AcDbEntity
  8
RACCORDO
100
AcDbLine
 62
250
  6
CONTINUOUS
 10
-8.7934869494
 20
-13.4000950208
 11
-8.7066016895
 21
-13.4006566976
  0
LINE
  5
287
100
AcDbEntity
  8
RACCORDO
100
AcDbLine
 62
250
  6
CONTINUOUS
 10
-8.7066016895
 20
-13.4006566976
 11
-8.6255488443
 21
-13.401761958
  0
LINE
  5
288
100
AcDbEntity
  8
RACCORDO
100
AcDbLine
 62
250
  6
CONTINUOUS
 10
-8.6255488443
 20
-13.401761958
 11
-8.5545573765
 21
-13.4032466301
  0
LWPOLYLINE
  5
289
100
AcDbEntity
  8
RACCORDO
100
AcDbPolyline
 62
250
  6
CONTINUOUS
 90
10
 70
0
 10
7.8287099358
 20
-13.5093594272
 10
7.8519002145
 20
-13.5099731896
 10
7.8745325347
 20
-13.510949316
 10
7.8960625073
 20
-13.5122643221
 10
7.915972265
 20
-13.5138865717
 10
7.933782949
 20
-13.5157770398
 10
7.9490662139
 20
-13.5178902537
 10
7.9614544885
 20
-13.5201753818
 10
7.9706498274
 20
-13.522577456
 10
7.9764310987
 20
-13.5250386967
  0
LWPOLYLINE
  5
28A
100
AcDbEntity
  8
RACCORDO
100
AcDbPolyline
 62
250
  6
CONTINUOUS
 90
11
 70
0
 10
-8.5545573765
 20
-13.4032466301
 10
-8.4951045392
 20
-13.4050173645
 10
-8.4701821604
 20
-13.405936009
 10
-8.4480496563
 20
-13.4068896889
 10
-8.4278059899
 20
-13.4078879495
 10
-8.4095425571
 20
-13.4089216948
 10
-8.3932907538
 20
-13.4100000208
 10
-8.3785158899
 20
-13.411159761
 10
-8.3653827663
 20
-13.4124131932
 10
-8.3544611342
 20
-13.4137480396
 10
-8.3461056179
 20
-13.4151643002
  0
LINE
  5
28B
100
AcDbEntity
  8
RACCORDO
100
AcDbLine
 62
7
  6
CONTINUOUS
 10
10.6
 20
-14.6147714058
 11
10.4450972632
 21
-14.6012191724
  0
LWPOLYLINE
  5
28C
100
AcDbEntity
  8
DRAFT
100
AcDbPolyline
 62
7
  6
CONTINUOUS
 90
5
 70
0
 10
-9.6772961715
 20
-11.7414818498
 10
-9.6690407386
 20
-11.7449884809
 10
-9.6608353645
 20
-11.7484089821
 10
-9.652706646
 20
-11.7517416205
 10
-9.6446545832
 20
-11.7549863962
  0
LINE
  5
28D
100
AcDbEntity
  8
DRAFT
100
AcDbLine
 62
7
  6
CONTINUOUS
 10
-9.7027760938
 20
-11.7304194388
 11
-9.6772961715
 21
-11.7414818498
  0
LINE
  5
28E
100
AcDbEntity
  8
DRAFT
100
AcDbLine
 62
7
  6
CONTINUOUS
 10
-9.748824449
 20
-11.7100561515
 11
-9.7027760938
 21
-11.7304194388
  0
LINE
  5
28F
100
AcDbEntity
  8
DRAFT
100
AcDbLine
 62
7
  6
CONTINUOUS
 10
-9.8828427125
 20
-11.65
 11
-9.748824449
 21
-11.7100561515
  0
LWPOLYLINE
  5
290
100
AcDbEntity
  8
0
100
AcDbPolyline
 62
7
  6
CONTINUOUS
 90
19
 70
0
 10
1.7524220565
 20
-17.879331912
 10
1.7371870518
 20
-17.8708089751
 10
1.7216876211
 20
-17.8629384347
 10
1.7059237644
 20
-17.855720291
 10
1.6898600567
 20
-17.8491787872
 10
1.6735319229
 20
-17.84328968
 10
1.6570456379
 20
-17.8379802391
 10
1.640403469
 20
-17.8332526606
 10
1.6236031489
 20
-17.8291047484
 10
1.6067441494
 20
-17.8254571842
 10
1.5898469155
 20
-17.8223129513
 10
1.5728910023
 20
-17.8196690664
 10
1.5559145465
 20
-17.8174372617
 10
1.5389264578
 20
-17.8156139612
 10
1.5219178265
 20
-17.814202741
 10
1.504900061
 20
-17.8131260613
 10
1.4878769642
 20
-17.8123580757
 10
1.4708447332
 20
-17.8119246307
 10
1.4538033681
 20
-17.8118257263
  0
LWPOLYLINE
  5
291
100
AcDbEntity
  8
0
100
AcDbPolyline
 62
7
  6
CONTINUOUS
 90
19
 70
0
 10
3.1903196195
 20
-17.8793319121
 10
3.1750846148
 20
-17.8708089751
 10
3.1595851841
 20
-17.8629384347
 10
3.1438213274
 20
-17.855720291
 10
3.1277576197
 20
-17.8491787872
 10
3.1114294859
 20
-17.84328968
 10
3.0949432009
 20
-17.8379802391
 10
3.078301032
 20
-17.8332526606
 10
3.0615007119
 20
-17.8291047484
 10
3.0446417124
 20
-17.8254571842
 10
3.0277444785
 20
-17.8223129513
 10
3.0107885653
 20
-17.8196690664
 10
2.9938121095
 20
-17.8174372617
 10
2.9768240207
 20
-17.8156139612
 10
2.9598153894
 20
-17.814202741
 10
2.942797624
 20
-17.8131260613
 10
2.9257745272
 20
-17.8123580757
 10
2.9087422962
 20
-17.8119246307
 10
2.8917009311
 20
-17.8118257263
  0
LWPOLYLINE
  5
292
100
AcDbEntity
  8
0
100
AcDbPolyline
 62
7
  6
CONTINUOUS
 90
16
 70
0
 10
0.1775180923
 20
-18.0639094067
 10
0.1865624563
 20
-18.0717109486
 10
0.1951284208
 20
-18.0798851018
 10
0.2032159859
 20
-18.0884318666
 10
0.2108090046
 20
-18.097395108
 10
0.2179236238
 20
-18.1067309609
 10
0.2246082841
 20
-18.1163078295
 10
0.2308656435
 20
-18.1261220597
 10
0.2366930441
 20
-18.1361773057
 10
0.2421309518
 20
-18.1463529345
 10
0.2471721177
 20
-18.1566168498
 10
0.2518237907
 20
-18.1670011479
 10
0.2561481839
 20
-18.1774814852
 10
0.2601660348
 20
-18.1880497471
 10
0.2638566057
 20
-18.1987140483
 10
0.2672198968
 20
-18.2094743886
  0
LWPOLYLINE
  5
293
100
AcDbEntity
  8
0
100
AcDbPolyline
 62
7
  6
CONTINUOUS
 90
16
 70
0
 10
-0.1509205287
 20
-19.9386071628
 10
-0.159902406
 20
-19.9305544545
 10
-0.1684477066
 20
-19.9221622778
 10
-0.1765564305
 20
-19.9134306326
 10
-0.1842157056
 20
-19.9043233593
 10
-0.191438404
 20
-19.8948766176
 10
-0.198263142
 20
-19.8851988862
 10
-0.2046922516
 20
-19.8752924305
 10
-0.2107234007
 20
-19.8651549853
 10
-0.2163882099
 20
-19.8548882333
 10
-0.2216803055
 20
-19.8445174152
 10
-0.2266060612
 20
-19.8340172903
 10
-0.2312162186
 20
-19.82341382
 10
-0.2355276917
 20
-19.812715658
 10
-0.2395235666
 20
-19.8019141504
 10
-0.2432038432
 20
-19.7910092974
  0
LWPOLYLINE
  5
294
100
AcDbEntity
  8
0
100
AcDbPolyline
 62
7
  6
CONTINUOUS
 90
16
 70
0
 10
1.2869770343
 20
-19.9386071628
 10
1.2779951562
 20
-19.9305544467
 10
1.2694498585
 20
-19.9221622608
 10
1.2613411413
 20
-19.913430605
 10
1.2536818773
 20
-19.9043233187
 10
1.2464591938
 20
-19.8948765625
 10
1.2396344719
 20
-19.8851988182
 10
1.2332053797
 20
-19.8752923514
 10
1.2271742491
 20
-19.8651548965
 10
1.2215094566
 20
-19.8548881392
 10
1.2162173764
 20
-19.844517321
 10
1.2112916344
 20
-19.8340172002
 10
1.2066814848
 20
-19.8234137374
 10
1.2023700123
 20
-19.812715586
 10
1.1983741323
 20
-19.8019140924
 10
1.1946938447
 20
-19.7910092568
  0
LWPOLYLINE
  5
295
100
AcDbEntity
  8
0
100
AcDbPolyline
 62
7
  6
CONTINUOUS
 90
19
 70
0
 10
-2.4567414409
 20
-17.9525941521
 10
-2.4747409164
 20
-17.934530595
 10
-2.4936956924
 20
-17.9178439291
 10
-2.5136057687
 20
-17.9025341543
 10
-2.5345990429
 20
-17.8886271775
 10
-2.5565476176
 20
-17.8760970918
 10
-2.5790678003
 20
-17.8648661763
 10
-2.6021522651
 20
-17.8549755526
 10
-2.6258083379
 20
-17.846384099
 10
-2.6496743041
 20
-17.8388907301
 10
-2.6736674244
 20
-17.8325115265
 10
-2.6978704382
 20
-17.8272304075
 10
-2.7221698485
 20
-17.8227980449
 10
-2.7465400707
 20
-17.819194417
 10
-2.7710066895
 20
-17.8164395455
 10
-2.7955329619
 20
-17.814344167
 10
-2.8201066402
 20
-17.8128451937
 10
-2.844739972
 20
-17.8120057135
 10
-2.8694329573
 20
-17.8118257263
  0
LWPOLYLINE
  5
296
100
AcDbEntity
  8
0
100
AcDbPolyline
 62
7
  6
CONTINUOUS
 90
13
 70
0
 10
-2.6770055665
 20
-19.1558437117
 10
-2.667373548
 20
-19.1662170945
 10
-2.6583656096
 20
-19.1769803383
 10
-2.6499817514
 20
-19.1881334433
 10
-2.642237813
 20
-19.1997289161
 10
-2.6351179548
 20
-19.2117142499
 10
-2.6285746576
 20
-19.2239319252
 10
-2.6226080365
 20
-19.2363582546
 10
-2.6172179765
 20
-19.2490169254
 10
-2.6123566139
 20
-19.2618214795
 10
-2.6080079938
 20
-19.2747430975
 10
-2.6041880711
 20
-19.2878105988
 10
-2.6008968456
 20
-19.3010239835
  0
LINE
  5
297
100
AcDbEntity
  8
RACCORDO
100
AcDbLine
 62
250
  6
CONTINUOUS
 10
4.3500114231
 20
21.6
 11
4.3404736535
 21
21.5904622304
  0
LINE
  5
298
100
AcDbEntity
  8
RACCORDO
100
AcDbLine
 62
250
  6
CONTINUOUS
 10
4.65
 20
21.3000114231
 11
4.6404622304
 21
21.2904736535
  0
LWPOLYLINE
  5
299
100
AcDbEntity
  8
RACCORDO
100
AcDbPolyline
 62
250
  6
CONTINUOUS
 90
9
 70
0
 10
-8.3461056179
 20
-13.084835516
 10
-8.3562526689
 20
-13.0865085673
 10
-8.3702485393
 20
-13.08809327
 10
-8.387763864
 20
-13.089589624
 10
-8.4085529966
 20
-13.0910072683
 10
-8.4321966105
 20
-13.092336564
 10
-8.457969914
 20
-13.0935485938
 10
-8.4853201957
 20
-13.0946319028
 10
-8.5139028155
 20
-13.0955979458
  0
LINE
  5
29A
100
AcDbEntity
  8
RACCORDO
100
AcDbLine
 62
7
  6
CONTINUOUS
 10
10.6
 20
-11.8852285942
 11
10.4450972632
 21
-11.8987808276
  0
LWPOLYLINE
  5
29B
100
AcDbEntity
  8
RACCORDO
100
AcDbPolyline
 62
250
  6
CONTINUOUS
 90
19
 70
0
 10
8.1461953767
 20
-12.6662445968
 10
8.1149074931
 20
-12.6681601078
 10
8.0849564922
 20
-12.6725788125
 10
8.0563423742
 20
-12.6795007109
 10
8.0288003572
 20
-12.6892794936
 10
8.002595223
 20
-12.70156147
 10
7.9785213168
 20
-12.7152855682
 10
7.9569127083
 20
-12.7303197426
 10
7.9374353279
 20
-12.7467960388
 10
7.9198813119
 20
-12.7640495219
 10
7.9043166126
 20
-12.7817936372
 10
7.8906752778
 20
-12.8003149395
 10
7.8785515866
 20
-12.8198081575
 10
7.8677369653
 20
-12.84016308
 10
7.8584399877
 20
-12.8614899182
 10
7.8508806539
 20
-12.8843140346
 10
7.8451322974
 20
-12.90881055
 10
7.8411215847
 20
-12.9348043436
 10
7.8388485158
 20
-12.9622954153
  0
LINE
  5
29C
100
AcDbEntity
  8
DRAFT
100
AcDbLine
 62
7
  6
CONTINUOUS
 10
-10.6
 20
-11.8633564283
 11
-10.1
 21
-11.8381006266
  0
LWPOLYLINE
  5
29D
100
AcDbEntity
  8
RACCORDO
100
AcDbPolyline
 62
250
  6
CONTINUOUS
 90
19
 70
0
 10
8.1461953756
 20
-12.8317185116
 10
8.1302623803
 20
-12.8323429651
 10
8.1147728403
 20
-12.8344475626
 10
8.0998587841
 20
-12.837926088
 10
8.0855555939
 20
-12.8426891992
 10
8.072043033
 20
-12.8486021105
 10
8.0596161938
 20
-12.8554242906
 10
8.0484074387
 20
-12.8629067604
 10
8.038303726
 20
-12.8709404125
 10
8.0291954412
 20
-12.8794786416
 10
8.0211379067
 20
-12.888329391
 10
8.0140407301
 20
-12.8974469511
 10
8.0076584717
 20
-12.9070984167
 10
8.0020346552
 20
-12.9172267469
 10
7.9972136211
 20
-12.9277849656
 10
7.9931174085
 20
-12.939142742
 10
7.989857027
 20
-12.9514075223
 10
7.9876261748
 20
-12.9643793955
 10
7.9865695327
 20
-12.9779746414
  0
LWPOLYLINE
  5
29E
100
AcDbEntity
  8
RACCORDO
100
AcDbPolyline
 62
250
  6
CONTINUOUS
 90
10
 70
0
 10
-7.8388485158
 20
-12.9622954153
 10
-7.8620391089
 20
-12.9629091206
 10
-7.8846716402
 20
-12.9638852124
 10
-7.906201714
 20
-12.9652002016
 10
-7.9261114631
 20
-12.9668224472
 10
-7.9439220529
 20
-12.968712921
 10
-7.9592051781
 20
-12.9708261494
 10
-7.971593299
 20
-12.9731113004
 10
-7.9807884983
 20
-12.9755134052
 10
-7.9865696787
 20
-12.9779746848
  0
LINE
  5
29F
100
AcDbEntity
  8
RACCORDO
100
AcDbLine
 62
250
  6
CONTINUOUS
 10
-8.5139028155
 20
-13.0955979458
 11
-8.572400589
 21
-13.0971856337
  0
LWPOLYLINE
  5
2A0
100
AcDbEntity
  8
RACCORDO
100
AcDbPolyline
 62
250
  6
CONTINUOUS
 90
3
 70
0
 10
-8.6726146915
 20
-12.9480127843
 10
-8.715150252
 20
-12.9490283661
 10
-8.7371497504
 20
-12.9494223036
  0
LINE
  5
2A1
100
AcDbEntity
  8
RACCORDO
100
AcDbLine
 62
250
  6
CONTINUOUS
 10
-8.572400589
 20
-13.0971856337
 11
-8.6316206871
 21
-13.0983493804
  0
LINE
  5
2A2
100
AcDbEntity
  8
RACCORDO
100
AcDbLine
 62
250
  6
CONTINUOUS
 10
-8.6316206871
 20
-13.0983493804
 11
-8.6937039705
 21
-13.0992166878
  0
LINE
  5
2A3
100
AcDbEntity
  8
RACCORDO
100
AcDbLine
 62
250
  6
CONTINUOUS
 10
-8.7371497504
 20
-12.9494223036
 11
-8.7851815025
 21
-12.9499703941
  0
LINE
  5
2A4
100
AcDbEntity
  8
RACCORDO
100
AcDbLine
 62
250
  6
CONTINUOUS
 10
-8.6937039705
 20
-13.0992166878
 11
-8.7624929859
 21
-13.0997647492
  0
LINE
  5
2A5
100
AcDbEntity
  8
RACCORDO
100
AcDbLine
 62
250
  6
CONTINUOUS
 10
-8.7851815025
 20
-12.9499703941
 11
-8.8385094944
 21
-12.950198812
  0
LINE
  5
2A6
100
AcDbEntity
  8
RACCORDO
100
AcDbLine
 62
250
  6
CONTINUOUS
 10
-8.7624929859
 20
-13.0997647492
 11
-9.2272930121
 21
-13.0999932422
  0
LINE
  5
2A7
100
AcDbEntity
  8
0
100
AcDbLine
 62
7
  6
CONTINUOUS
 10
2.143447
 20
-13.067821
 11
2.941927
 21
-13.067821
  0
LINE
  5
2A8
100
AcDbEntity
  8
RACCORDO
100
AcDbLine
 62
250
  6
CONTINUOUS
 10
-8.8385094944
 20
-12.950198812
 11
-9.2108433288
 21
-12.950198812
  0
LINE
  5
2A9
100
AcDbEntity
  8
0
100
AcDbLine
 62
7
  6
CONTINUOUS
 10
2.878303
 20
-12.8515
 11
2.210253
 21
-12.8515
  0
LINE
  5
2AA
100
AcDbEntity
  8
RACCORDO
100
AcDbLine
 62
250
  6
CONTINUOUS
 10
9.1
 20
-12.8317182965
 11
8.1461946517
 21
-12.8317182965
  0
LINE
  5
2AB
100
AcDbEntity
  8
RACCORDO
100
AcDbLine
 62
250
  6
CONTINUOUS
 10
-8.1461946517
 20
-12.8317182965
 11
-9.1
 21
-12.8317182965
  0
LINE
  5
2AC
100
AcDbEntity
  8
RACCORDO
100
AcDbLine
 62
250
  6
CONTINUOUS
 10
9.1
 20
-12.6662445968
 11
8.1461953767
 21
-12.6662445968
  0
LINE
  5
2AD
100
AcDbEntity
  8
RACCORDO
100
AcDbLine
 62
250
  6
CONTINUOUS
 10
-8.1461951383
 20
-12.6662445968
 11
-9.1
 21
-12.6662445968
  0
LINE
  5
2AE
100
AcDbEntity
  8
0
100
AcDbLine
 62
7
  6
CONTINUOUS
 10
0.750095
 20
-12.571571
 11
1.497674
 21
-12.571571
  0
LINE
  5
2AF
100
AcDbEntity
  8
RACCORDO
100
AcDbLine
 62
250
  6
CONTINUOUS
 10
-9.9886751346
 20
-12.3968781766
 11
-9.4818790363
 21
-12.3968781766
  0
LINE
  5
2B0
100
AcDbEntity
  8
RACCORDO
100
AcDbLine
 62
250
  6
CONTINUOUS
 10
9.4818790363
 20
-12.3968781766
 11
9.9886751346
 21
-12.3968781766
  0
LINE
  5
2B1
100
AcDbEntity
  8
0
100
AcDbLine
 62
7
  6
CONTINUOUS
 10
1.497674
 20
-12.355249
 11
0.750095
 21
-12.355249
  0
LINE
  5
2B2
100
AcDbEntity
  8
RACCORDO
100
AcDbLine
 62
250
  6
CONTINUOUS
 10
-10.4450972632
 20
-11.8987808276
 11
-9.4290614477
 21
-11.8987808276
  0
LINE
  5
2B3
100
AcDbEntity
  8
RACCORDO
100
AcDbLine
 62
250
  6
CONTINUOUS
 10
9.4290614477
 20
-11.8987808276
 11
10.4450972632
 21
-11.8987808276
  0
LINE
  5
2B4
100
AcDbEntity
  8
DRAFT
100
AcDbLine
 62
7
  6
CONTINUOUS
 10
9.6446545832
 20
-11.7549863962
 11
9.5553454168
 21
-11.7549863962
  0
LINE
  5
2B5
100
AcDbEntity
  8
DRAFT
100
AcDbLine
 62
7
  6
CONTINUOUS
 10
-9.5553454168
 20
-11.7549863962
 11
-9.6446545832
 21
-11.7549863962
  0
LINE
  5
2B6
100
AcDbEntity
  8
DRAFT
100
AcDbLine
 62
7
  6
CONTINUOUS
 10
10.1
 20
-11.65
 11
9.8828427125
 21
-11.65
  0
LINE
  5
2B7
100
AcDbEntity
  8
DRAFT
100
AcDbLine
 62
7
  6
CONTINUOUS
 10
9.3171572875
 20
-11.65
 11
9.1
 21
-11.65
  0
LINE
  5
2B8
100
AcDbEntity
  8
DRAFT
100
AcDbLine
 62
7
  6
CONTINUOUS
 10
-9.1
 20
-11.65
 11
-9.3171572875
 21
-11.65
  0
LINE
  5
2B9
100
AcDbEntity
  8
DRAFT
100
AcDbLine
 62
7
  6
CONTINUOUS
 10
-9.8828427125
 20
-11.65
 11
-10.1
 21
-11.65
  0
LINE
  5
2BA
100
AcDbEntity
  8
0
100
AcDbLine
 62
7
  6
CONTINUOUS
 10
0.750095
 20
-11.566314
 11
1.53903
 21
-11.566314
  0
LINE
  5
2BB
100
AcDbEntity
  8
0
100
AcDbLine
 62
7
  6
CONTINUOUS
 10
1.53903
 20
-11.349993
 11
0.479694
 21
-11.349993
  0
LINE
  5
2BC
100
AcDbEntity
  8
0
100
AcDbLine
 62
7
  6
CONTINUOUS
 10
0.05875
 20
-11.349993
 11
-0.192586
 21
-11.349993
  0
LINE
  5
2BD
100
AcDbEntity
  8
0
100
AcDbLine
 62
7
  6
CONTINUOUS
 10
-0.965615
 20
-11.349993
 11
-1.385532
 21
-11.349993
  0
LINE
  5
2BE
100
AcDbEntity
  8
0
100
AcDbLine
 62
7
  6
CONTINUOUS
 10
-3.119599
 20
-11.349993
 11
-3.39
 21
-11.349993
  0
LINE
  5
2BF
100
AcDbEntity
  8
0
100
AcDbLine
 62
7
  6
CONTINUOUS
 10
-1.809675
 20
-11.349989
 11
-2.080077
 21
-11.349989
  0
LINE
  5
2C0
100
AcDbEntity
  8
0
100
AcDbLine
 62
7
  6
CONTINUOUS
 10
2.719243
 20
-11.349978
 11
2.385218
 21
-11.349978
  0
LINE
  5
2C1
100
AcDbEntity
  8
RACCORDO
100
AcDbLine
 62
250
  6
CONTINUOUS
 10
9.2272930121
 20
-13.0999932422
 11
8.7934869494
 21
-13.0999049792
  0
LWPOLYLINE
  5
2C2
100
AcDbEntity
  8
RACCORDO
100
AcDbPolyline
 62
250
  6
CONTINUOUS
 90
19
 70
0
 10
9.2108433288
 20
-12.950198812
 10
8.8066488933
 20
-12.9501106201
 10
8.7758704052
 20
-12.9498940117
 10
8.7461740302
 20
-12.9495489867
 10
8.7172854768
 20
-12.949060502
 10
8.6894790363
 20
-12.9484436006
 10
8.6635775835
 20
-12.9477434128
 10
8.6398110511
 20
-12.9469589006
 10
8.6179495062
 20
-12.9460911019
 10
8.598126025
 20
-12.9451882603
 10
8.580597435
 20
-12.944269654
 10
8.5651069086
 20
-12.9433160048
 10
8.55101704
 20
-12.9423177228
 10
8.5381446214
 20
-12.9412838445
 10
8.5266728604
 20
-12.9402053333
 10
8.5165139742
 20
-12.9390454902
 10
8.5076387017
 20
-12.937792082
 10
8.5000763039
 20
-12.9364573418
 10
8.4938267808
 20
-12.9350412696
  0
LINE
  5
2C3
100
AcDbEntity
  8
RACCORDO
100
AcDbLine
 62
250
  6
CONTINUOUS
 10
8.7934869494
 20
-13.0999049792
 11
8.7066016895
 21
-13.0993433024
  0
LINE
  5
2C4
100
AcDbEntity
  8
RACCORDO
100
AcDbLine
 62
250
  6
CONTINUOUS
 10
8.7066016895
 20
-13.0993433024
 11
8.6255488443
 21
-13.098238042
  0
LINE
  5
2C5
100
AcDbEntity
  8
RACCORDO
100
AcDbLine
 62
250
  6
CONTINUOUS
 10
8.6255488443
 20
-13.098238042
 11
8.5545573765
 21
-13.0967533699
  0
LWPOLYLINE
  5
2C6
100
AcDbEntity
  8
RACCORDO
100
AcDbPolyline
 62
250
  6
CONTINUOUS
 90
10
 70
0
 10
7.8388485158
 20
-12.9622954153
 10
7.8620383003
 20
-12.9629090596
 10
7.8846702898
 20
-12.9638850846
 10
7.9062001063
 20
-12.9652000135
 10
7.9261098829
 20
-12.9668222177
 10
7.9439207201
 20
-12.9687126775
 10
7.9592042054
 20
-12.9708259207
 10
7.9715927179
 20
-12.9731111166
 10
7.9807882707
 20
-12.9755132983
 10
7.9865696787
 20
-12.9779746848
  0
LWPOLYLINE
  5
2C7
100
AcDbEntity
  8
RACCORDO
100
AcDbPolyline
 62
250
  6
CONTINUOUS
 90
11
 70
0
 10
8.5545573765
 20
-13.0967533699
 10
8.4951045392
 20
-13.0949826355
 10
8.4701821604
 20
-13.094063991
 10
8.4480496563
 20
-13.0931103111
 10
8.4278059899
 20
-13.0921120505
 10
8.4095425571
 20
-13.0910783052
 10
8.3932907538
 20
-13.0899999792
 10
8.3785158899
 20
-13.088840239
 10
8.3653827663
 20
-13.0875868068
 10
8.3544611342
 20
-13.0862519604
 10
8.3461056179
 20
-13.0848356998
  0
LINE
  5
2C8
100
AcDbEntity
  8
DRAFT
100
AcDbLine
 62
7
  6
CONTINUOUS
 10
10.1
 20
-11.8381006266
 11
10.6
 21
-11.8633564283
  0
LINE
  5
2C9
100
AcDbEntity
  8
RACCORDO
100
AcDbLine
 62
7
  6
CONTINUOUS
 10
-10.4450972632
 20
-11.8987808276
 11
-10.6
 21
-11.8852285942
  0
LWPOLYLINE
  5
2CA
100
AcDbEntity
  8
0
100
AcDbPolyline
 62
7
  6
CONTINUOUS
 90
16
 70
0
 10
1.6154157074
 20
-18.0639093415
 10
1.6244600591
 20
-18.0717108882
 10
1.6330260174
 20
-18.0798850427
 10
1.6411135825
 20
-18.0884318047
 10
1.6487066083
 20
-18.0973950382
 10
1.6558212409
 20
-18.1067308793
 10
1.6625059179
 20
-18.1163077367
 10
1.6687632977
 20
-18.1261219564
 10
1.6745907221
 20
-18.1361771923
 10
1.680028654
 20
-18.146352815
 10
1.685069845
 20
-18.1566167295
 10
1.6897215435
 20
-18.1670010308
 10
1.6940459585
 20
-18.1774813742
 10
1.6980638263
 20
-18.188049645
 10
1.7017544105
 20
-18.198713958
 10
1.7051177113
 20
-18.2094743131
  0
LWPOLYLINE
  5
2CB
100
AcDbEntity
  8
0
100
AcDbPolyline
 62
7
  6
CONTINUOUS
 90
16
 70
0
 10
3.0533132704
 20
-18.0639093415
 10
3.0623576221
 20
-18.0717108882
 10
3.0709235804
 20
-18.0798850427
 10
3.0790111455
 20
-18.0884318047
 10
3.0866041713
 20
-18.0973950382
 10
3.0937188038
 20
-18.1067308793
 10
3.1004034809
 20
-18.1163077367
 10
3.1066608607
 20
-18.1261219564
 10
3.1124882851
 20
-18.1361771923
 10
3.117926217
 20
-18.146352815
 10
3.122967408
 20
-18.1566167295
 10
3.1276191065
 20
-18.1670010308
 10
3.1319435215
 20
-18.1774813742
 10
3.1359613892
 20
-18.188049645
 10
3.1396519735
 20
-18.198713958
 10
3.1430152743
 20
-18.2094743132
  0
LWPOLYLINE
  5
2CC
100
AcDbEntity
  8
0
100
AcDbPolyline
 62
7
  6
CONTINUOUS
 90
16
 70
0
 10
2.7248745973
 20
-19.9386071628
 10
2.7158927192
 20
-19.9305544467
 10
2.7073474215
 20
-19.9221622608
 10
2.6992387042
 20
-19.913430605
 10
2.6915794403
 20
-19.9043233187
 10
2.6843567568
 20
-19.8948765625
 10
2.6775320349
 20
-19.8851988182
 10
2.6711029427
 20
-19.8752923514
 10
2.6650718121
 20
-19.8651548966
 10
2.6594070196
 20
-19.8548881392
 10
2.6541149394
 20
-19.844517321
 10
2.6491891974
 20
-19.8340172002
 10
2.6445790478
 20
-19.8234137374
 10
2.6402675753
 20
-19.812715586
 10
2.6362716953
 20
-19.8019140925
 10
2.6325914077
 20
-19.7910092568
  0
LWPOLYLINE
  5
2CD
100
AcDbEntity
  8
0
100
AcDbPolyline
 62
7
  6
CONTINUOUS
 90
7
 70
0
 10
-2.3795297368
 20
-19.1415629216
 10
-2.3935283904
 20
-19.1181608691
 10
-2.4091720705
 20
-19.0961104514
 10
-2.426460777
 20
-19.0754116687
 10
-2.4453945099
 20
-19.0560645209
 10
-2.4659732693
 20
-19.038069008
 10
-2.488197055
 20
-19.0214251301
  0
LWPOLYLINE
  5
2CE
100
AcDbEntity
  8
0
100
AcDbPolyline
 62
7
  6
CONTINUOUS
 90
7
 70
0
 10
-3.1334716994
 20
-19.8732365093
 10
-3.1442081143
 20
-19.854813533
 10
-3.1538311528
 20
-19.8352765747
 10
-3.1623408149
 20
-19.8146256346
 10
-3.1697371006
 20
-19.7928607125
 10
-3.1760200099
 20
-19.7699818085
 10
-3.1811895428
 20
-19.7459889226
  0
LINE
  5
2CF
100
AcDbEntity
  8
0
100
AcDbLine
 62
7
  6
CONTINUOUS
 10
-9.9525363335
 20
-24.7967854951
 11
-9.9682162764
 21
-16.2500000026
  0
LINE
  5
2D0
100
AcDbEntity
  8
0
100
AcDbLine
 62
7
  6
CONTINUOUS
 10
-9.9792233056
 20
-10.25
 11
-9.9907645137
 21
-3.0867702871
  0
LINE
  5
2D1
100
AcDbEntity
  8
0
100
AcDbLine
 62
7
  6
CONTINUOUS
 10
-9.9907645137
 20
-3.0867702871
 11
-9.9951496114
 21
1.0515062566
  0
LINE
  5
2D2
100
AcDbEntity
  8
RACCORDO
100
AcDbLine
 62
7
  6
CONTINUOUS
 10
-11.0528653412
 20
25.8530366787
 11
-11.0528653412
 21
-25.8530366787
  0
LINE
  5
2D3
100
AcDbEntity
  8
RACCORDO
100
AcDbLine
 62
7
  6
CONTINUOUS
 10
-11.0428653412
 20
-2.0
 11
-11.0428653412
 21
2.0
  0
LINE
  5
2D4
100
AcDbEntity
  8
DRAFT
100
AcDbLine
 62
7
  6
CONTINUOUS
 10
-10.6
 20
-14.6366435717
 11
-10.6
 21
-11.8633564283
  0
LINE
  5
2D5
100
AcDbEntity
  8
DRAFT
100
AcDbLine
 62
7
  6
CONTINUOUS
 10
-10.1
 20
-14.6618993734
 11
-10.1
 21
-16.25
  0
LINE
  5
2D6
100
AcDbEntity
  8
0
100
AcDbLine
 62
7
  6
CONTINUOUS
 10
-10.1
 20
-16.25
 11
-10.1
 21
-14.85
  0
LINE
  5
2D7
100
AcDbEntity
  8
DRAFT
100
AcDbLine
 62
7
  6
CONTINUOUS
 10
-10.1
 20
-11.8381006266
 11
-10.1
 21
-10.25
  0
LINE
  5
2D8
100
AcDbEntity
  8
0
100
AcDbLine
 62
7
  6
CONTINUOUS
 10
-10.1
 20
-11.65
 11
-10.1
 21
-10.25
  0
LINE
  5
2D9
100
AcDbEntity
  8
RACCORDO
100
AcDbLine
 62
7
  6
CONTINUOUS
 10
-10.0428653412
 20
-2.0
 11
-10.0428653412
 21
2.0
  0
LINE
  5
2DA
100
AcDbEntity
  8
0
100
AcDbLine
 62
7
  6
CONTINUOUS
 10
-10.0
 20
-25.1524539902
 11
-10.0
 21
-16.25
  0
LINE
  5
2DB
100
AcDbEntity
  8
0
100
AcDbLine
 62
7
  6
CONTINUOUS
 10
-10.0
 20
-10.25
 11
-10.0
 21
25.1524539902
  0
LINE
  5
2DC
100
AcDbEntity
  8
RACCORDO
100
AcDbLine
 62
7
  6
CONTINUOUS
 10
-9.9886751346
 20
-12.3968781766
 11
-9.9886751346
 21
-14.1031218234
  0
LINE
  5
2DD
100
AcDbEntity
  8
RACCORDO
100
AcDbLine
 62
7
  6
CONTINUOUS
 10
-9.4818790363
 20
-12.3968781766
 11
-9.4818790363
 21
-14.1031218234
  0
LWPOLYLINE
  5
2DE
100
AcDbEntity
  8
RACCORDO
100
AcDbPolyline
 62
250
  6
CONTINUOUS
 90
13
 70
0
 10
-7.9781986766
 20
23.0416442642
 10
-7.9764155445
 20
23.0673037053
 10
-7.9712544417
 20
23.0925257963
 10
-7.9628033361
 20
23.1168806416
 10
-7.9512062719
 20
23.1399531271
 10
-7.9366609142
 20
23.1613499958
 10
-7.9194151799
 20
23.1807065509
 10
-7.8997630126
 20
23.1976928711
 10
-7.8780393716
 20
23.2120194347
 10
-7.8546145238
 20
23.2234420536
 10
-7.8298877319
 20
23.2317660362
 10
-7.8042804495
 20
23.2368495048
 10
-7.7782291376
 20
23.2386058148
  0
LWPOLYLINE
  5
2DF
100
AcDbEntity
  8
RACCORDO
100
AcDbPolyline
 62
250
  6
CONTINUOUS
 90
8
 70
0
 10
-7.9781986766
 20
21.9583557358
 10
-7.9773233776
 20
21.9699089134
 10
-7.9764879475
 20
21.9853526144
 10
-7.9756923865
 20
22.0046868388
 10
-7.9749333266
 20
22.0280904627
 10
-7.9742141357
 20
22.05538461
 10
-7.9735449172
 20
22.086032653
 10
-7.9723534011
 20
22.1576551814
  0
LINE
  5
2E0
100
AcDbEntity
  8
RACCORDO
100
AcDbLine
 62
250
  6
CONTINUOUS
 10
-8.0
 20
21.7381238696
 11
-7.9781986766
 21
21.9583557358
  0
LINE
  5
2E1
100
AcDbEntity
  8
RACCORDO
100
AcDbLine
 62
250
  6
CONTINUOUS
 10
-7.8005757424
 20
21.5356540133
 11
-7.7782291376
 21
21.7613941852
  0
LINE
  5
2E2
100
AcDbEntity
  8
RACCORDO
100
AcDbLine
 62
250
  6
CONTINUOUS
 10
-7.5994242576
 20
23.4643459867
 11
-7.6217708624
 21
23.2386058148
  0
LINE
  5
2E3
100
AcDbEntity
  8
RACCORDO
100
AcDbLine
 62
250
  6
CONTINUOUS
 10
-7.4
 20
23.2618761304
 11
-7.4218013234
 21
23.0416442642
  0
LINE
  5
2E4
100
AcDbEntity
  8
RACCORDO
100
AcDbLine
 62
7
  6
CONTINUOUS
 10
8.0
 20
22.8
 11
7.9871975793
 21
22.7871975793
  0
LWPOLYLINE
  5
2E5
100
AcDbEntity
  8
0
100
AcDbPolyline
 62
7
  6
CONTINUOUS
 90
6
 70
0
 10
4.0407988352
 20
-9.5508816732
 10
4.0532062536
 20
-9.5476308754
 10
4.0653610204
 20
-9.5430831334
 10
4.0772631356
 20
-9.5372384307
 10
4.0887887519
 20
-9.5298365156
 10
4.1000617166
 20
-9.5211375888
  0
LWPOLYLINE
  5
2E6
100
AcDbEntity
  8
RACCORDO
100
AcDbPolyline
 62
250
  6
CONTINUOUS
 90
12
 70
0
 10
-8.4938267808
 20
-12.9350412696
 10
-8.501326656
 20
-12.9367139933
 10
-8.5110469148
 20
-12.9382984937
 10
-8.5229875574
 20
-12.9397947707
 10
-8.5374992635
 20
-12.9412125299
 10
-8.5542313532
 20
-12.9425420657
 10
-8.5721317868
 20
-12.9437542616
 10
-8.5911564843
 20
-12.9448375662
 10
-8.6113495256
 20
-12.945803531
 10
-8.6317911108
 20
-12.946657693
 10
-8.6520786292
 20
-12.94739114
 10
-8.6726146915
 20
-12.9480127843
  0
LINE
  5
2E7
100
AcDbEntity
  8
0
100
AcDbLine
 62
7
  6
CONTINUOUS
 10
-3.712456
 20
-10.637993
 11
-3.289406
 21
-10.637993
  0
LINE
  5
2E8
100
AcDbEntity
  8
0
100
AcDbLine
 62
7
  6
CONTINUOUS
 10
-2.372012
 20
-10.637993
 11
-1.891956
 21
-10.637993
  0
LINE
  5
2E9
100
AcDbEntity
  8
0
100
AcDbLine
 62
7
  6
CONTINUOUS
 10
-1.633526
 20
-10.637993
 11
-1.174268
 21
-10.637993
  0
LINE
  5
2EA
100
AcDbEntity
  8
0
100
AcDbLine
 62
7
  6
CONTINUOUS
 10
-0.507508
 20
-10.637993
 11
-0.44018
 21
-10.637993
  0
LINE
  5
2EB
100
AcDbEntity
  8
0
100
AcDbLine
 62
7
  6
CONTINUOUS
 10
0.229236
 20
-10.637993
 11
0.698858
 21
-10.637993
  0
LINE
  5
2EC
100
AcDbEntity
  8
0
100
AcDbLine
 62
7
  6
CONTINUOUS
 10
0.77424
 20
-10.637993
 11
1.249088
 21
-10.637993
  0
LINE
  5
2ED
100
AcDbEntity
  8
0
100
AcDbLine
 62
7
  6
CONTINUOUS
 10
2.15967
 20
-10.637993
 11
2.66563
 21
-10.637993
  0
LINE
  5
2EE
100
AcDbEntity
  8
0
100
AcDbLine
 62
7
  6
CONTINUOUS
 10
2.8065975821
 20
-10.6379928336
 11
3.2847223015
 21
-10.6379928336
  0
LINE
  5
2EF
100
AcDbEntity
  8
0
100
AcDbLine
 62
7
  6
CONTINUOUS
 10
4.0198623394
 20
-10.6379928336
 11
4.4816207207
 21
-10.6379928336
  0
LINE
  5
2F0
100
AcDbEntity
  8
0
100
AcDbLine
 62
250
  6
CONTINUOUS
 10
4.439821869
 20
-10.4798205497
 11
3.9737046586
 21
-10.4798205504
  0
LINE
  5
2F1
100
AcDbEntity
  8
0
100
AcDbLine
 62
250
  6
CONTINUOUS
 10
3.2847223015
 20
-10.4798205515
 11
2.8065975821
 21
-10.4798205523
  0
LINE
  5
2F2
100
AcDbEntity
  8
0
100
AcDbLine
 62
250
  6
CONTINUOUS
 10
2.6170987434
 20
-10.4798205526
 11
2.1168264613
 21
-10.4798205533
  0
LINE
  5
2F3
100
AcDbEntity
  8
0
100
AcDbLine
 62
250
  6
CONTINUOUS
 10
1.2947238098
 20
-10.4798205546
 11
0.8238529102
 21
-10.4798205554
  0
LINE
  5
2F4
100
AcDbEntity
  8
0
100
AcDbLine
 62
250
  6
CONTINUOUS
 10
0.6840671134
 20
-10.4798205556
 11
0.2188040536
 21
-10.4798205563
  0
LINE
  5
2F5
100
AcDbEntity
  8
0
100
AcDbLine
 62
250
  6
CONTINUOUS
 10
-0.3798088257
 20
-10.4798205573
 11
-0.5668247066
 21
-10.4798205576
  0
LINE
  5
2F6
100
AcDbEntity
  8
0
100
AcDbLine
 62
250
  6
CONTINUOUS
 10
-1.1633564831
 20
-10.4798205585
 11
-1.619243994
 21
-10.4798205592
  0
LINE
  5
2F7
100
AcDbEntity
  8
0
100
AcDbLine
 62
250
  6
CONTINUOUS
 10
-1.891956
 20
-10.4798205596
 11
-2.372012
 21
-10.4798205604
  0
LINE
  5
2F8
100
AcDbEntity
  8
0
100
AcDbLine
 62
250
  6
CONTINUOUS
 10
-3.2385630857
 20
-10.4798205618
 11
-3.762599728
 21
-10.4798205626
  0
LINE
  5
2F9
100
AcDbEntity
  8
0
100
AcDbLine
 62
250
  6
CONTINUOUS
 10
9.1
 20
-10.4745941335
 11
5.25
 21
-10.4745941335
  0
LINE
  5
2FA
100
AcDbEntity
  8
0
100
AcDbLine
 62
250
  6
CONTINUOUS
 10
-5.25
 20
-10.4745941335
 11
-9.1
 21
-10.4745941335
  0
LINE
  5
2FB
100
AcDbEntity
  8
0
100
AcDbLine
 62
250
  6
CONTINUOUS
 10
5.25
 20
-10.4693677186
 11
4.4370975456
 21
-10.4693677186
  0
LINE
  5
2FC
100
AcDbEntity
  8
0
100
AcDbLine
 62
250
  6
CONTINUOUS
 10
3.9706356846
 20
-10.4693677186
 11
3.2847223015
 21
-10.4693677186
  0
LINE
  5
2FD
100
AcDbEntity
  8
0
100
AcDbLine
 62
250
  6
CONTINUOUS
 10
2.8065975821
 20
-10.4693677186
 11
2.6138915529
 21
-10.4693677186
  0
LINE
  5
2FE
100
AcDbEntity
  8
0
100
AcDbLine
 62
250
  6
CONTINUOUS
 10
2.1139951438
 20
-10.4693677186
 11
1.2977396551
 21
-10.4693677186
  0
LINE
  5
2FF
100
AcDbEntity
  8
0
100
AcDbLine
 62
250
  6
CONTINUOUS
 10
0.8271315827
 20
-10.4693677186
 11
0.6830896566
 21
-10.4693677186
  0
LINE
  5
300
100
AcDbEntity
  8
0
100
AcDbLine
 62
250
  6
CONTINUOUS
 10
0.2181146577
 20
-10.4693677186
 11
-0.3758191918
 21
-10.4693677186
  0
LINE
  5
301
100
AcDbEntity
  8
0
100
AcDbLine
 62
250
  6
CONTINUOUS
 10
-0.5707446561
 20
-10.4693677186
 11
-1.1626353945
 21
-10.4693677186
  0
LINE
  5
302
100
AcDbEntity
  8
0
100
AcDbLine
 62
250
  6
CONTINUOUS
 10
-1.6183001663
 20
-10.4693677186
 11
-1.891956
 21
-10.4693677186
  0
LINE
  5
303
100
AcDbEntity
  8
0
100
AcDbLine
 62
250
  6
CONTINUOUS
 10
-2.372012
 20
-10.4693677186
 11
-3.235203126
 21
-10.4693677186
  0
LINE
  5
304
100
AcDbEntity
  8
0
100
AcDbLine
 62
250
  6
CONTINUOUS
 10
-3.7659134822
 20
-10.4693677186
 11
-5.25
 21
-10.4693677186
  0
LINE
  5
305
100
AcDbEntity
  8
0
100
AcDbLine
 62
7
  6
CONTINUOUS
 10
10.1
 20
-10.25
 11
9.1
 21
-10.25
  0
LINE
  5
306
100
AcDbEntity
  8
0
100
AcDbLine
 62
7
  6
CONTINUOUS
 10
-9.1
 20
-10.25
 11
-10.1
 21
-10.25
  0
LINE
  5
307
100
AcDbEntity
  8
0
100
AcDbLine
 62
7
  6
CONTINUOUS
 10
2.03531
 20
-10.178873
 11
1.381553
 21
-10.178873
  0
LINE
  5
308
100
AcDbEntity
  8
0
100
AcDbLine
 62
7
  6
CONTINUOUS
 10
1.939371
 20
-9.823608
 11
1.479751
 21
-9.823608
  0
LINE
  5
309
100
AcDbEntity
  8
0
100
AcDbLine
 62
7
  6
CONTINUOUS
 10
3.5421170294
 20
-9.7379822027
 11
3.2847223015
 21
-9.7379822027
  0
LINE
  5
30A
100
AcDbEntity
  8
0
100
AcDbLine
 62
7
  6
CONTINUOUS
 10
3.543151782
 20
-9.361332229
 11
3.2688043561
 21
-9.361332229
  0
LWPOLYLINE
  5
30B
100
AcDbEntity
  8
0
100
AcDbPolyline
 62
7
  6
CONTINUOUS
 90
19
 70
0
 10
3.5421170294
 20
-9.7379822027
 10
3.5623713939
 20
-9.738623702
 10
3.5823191712
 20
-9.7407187018
 10
3.6019603613
 20
-9.7442671942
 10
3.6214392672
 20
-9.7492683239
 10
3.6406115859
 20
-9.7557229136
 10
3.6590444082
 20
-9.7636334638
 10
3.676666515
 20
-9.7731293363
 10
3.6935491254
 20
-9.7840811014
 10
3.7094729869
 20
-9.7961030754
 10
3.7243548398
 20
-9.8091780856
 10
3.7382779439
 20
-9.8233232365
 10
3.7512728256
 20
-9.8382042798
 10
3.7633466769
 20
-9.8537763834
 10
3.7744923058
 20
-9.8700843249
 10
3.7847186637
 20
-9.8869282892
 10
3.7940287342
 20
-9.9042416603
 10
3.8024195337
 20
-9.9220910123
 10
3.8098910621
 20
-9.9404763226
  0
LINE
  5
30C
100
AcDbEntity
  8
RACCORDO
100
AcDbLine
 62
250
  6
CONTINUOUS
 10
8.3461056179
 20
-13.0848356998
 11
7.9865696787
 21
-12.9779746848
  0
LINE
  5
30D
100
AcDbEntity
  8
RACCORDO
100
AcDbLine
 62
250
  6
CONTINUOUS
 10
8.4938267808
 20
-12.9350412696
 11
8.1461946517
 21
-12.8317182965
  0
LWPOLYLINE
  5
30E
100
AcDbEntity
  8
DRAFT
100
AcDbPolyline
 62
7
  6
CONTINUOUS
 90
5
 70
0
 10
9.6772961715
 20
-14.7585181502
 10
9.6690407386
 20
-14.7550115191
 10
9.6608353645
 20
-14.7515910179
 10
9.652706646
 20
-14.7482583795
 10
9.6446545832
 20
-14.7450136038
  0
LINE
  5
30F
100
AcDbEntity
  8
DRAFT
100
AcDbLine
 62
7
  6
CONTINUOUS
 10
9.7027760938
 20
-14.7695805612
 11
9.6772961715
 21
-14.7585181502
  0
LINE
  5
310
100
AcDbEntity
  8
DRAFT
100
AcDbLine
 62
7
  6
CONTINUOUS
 10
9.748824449
 20
-14.7899438485
 11
9.7027760938
 21
-14.7695805612
  0
LINE
  5
311
100
AcDbEntity
  8
DRAFT
100
AcDbLine
 62
7
  6
CONTINUOUS
 10
9.8828427125
 20
-14.85
 11
9.748824449
 21
-14.7899438485
  0
LWPOLYLINE
  5
312
100
AcDbEntity
  8
0
100
AcDbPolyline
 62
7
  6
CONTINUOUS
 90
7
 70
0
 10
-2.6499308957
 20
-18.1299446561
 10
-2.6398286954
 20
-18.1498611789
 10
-2.6309017193
 20
-18.1700976985
 10
-2.6231499672
 20
-18.1906542152
 10
-2.6165734392
 20
-18.2115307289
 10
-2.6111721353
 20
-18.2327272395
 10
-2.6069460554
 20
-18.2542437471
  0
LWPOLYLINE
  5
313
100
AcDbEntity
  8
RACCORDO
100
AcDbPolyline
 62
250
  6
CONTINUOUS
 90
16
 70
0
 10
-7.9865694181
 20
-12.9779746073
 10
-7.987859447
 20
-12.9625558492
 10
-7.9908059597
 20
-12.9473558827
 10
-7.9953736146
 20
-12.9325378629
 10
-8.0015242126
 20
-12.918250455
 10
-8.0091798423
 20
-12.9046549929
 10
-8.0182123057
 20
-12.8919180744
 10
-8.0284582106
 20
-12.8802283674
 10
-8.0398499939
 20
-12.8696236108
 10
-8.0524232798
 20
-12.8600657941
 10
-8.0661589663
 20
-12.8516531439
 10
-8.0808806357
 20
-12.8445715024
 10
-8.0964050136
 20
-12.8389424547
 10
-8.112566244
 20
-12.8348680305
 10
-8.1292209002
 20
-12.8324362076
 10
-8.1461954471
 20
-12.8317185329
  0
LWPOLYLINE
  5
314
100
AcDbEntity
  8
RACCORDO
100
AcDbPolyline
 62
250
  6
CONTINUOUS
 90
16
 70
0
 10
-7.8388485158
 20
-12.9622954153
 10
-7.8412435241
 20
-12.9308267542
 10
-7.8466756752
 20
-12.9004048959
 10
-7.855144969
 20
-12.8710298404
 10
-7.8668403891
 20
-12.8424069841
 10
-7.881572952
 20
-12.8148309307
 10
-7.898775707
 20
-12.7891854911
 10
-7.9183736698
 20
-12.7656180103
 10
-7.9404418247
 20
-12.7439811434
 10
-7.964638173
 20
-12.7247166664
 10
-7.9911312777
 20
-12.7077343916
 10
-8.0197525759
 20
-12.6931245068
 10
-8.0496543797
 20
-12.681599351
 10
-8.0805541268
 20
-12.6733963706
 10
-8.1127343797
 20
-12.6682781192
 10
-8.1461951383
 20
-12.6662445968
  0
LWPOLYLINE
  5
315
100
AcDbEntity
  8
RACCORDO
100
AcDbPolyline
 62
250
  6
CONTINUOUS
 90
13
 70
0
 10
-8.3461056179
 20
-13.0848356998
 10
-8.3475291953
 20
-13.0653943112
 10
-8.3514273356
 20
-13.0462819058
 10
-8.3577340508
 20
-13.0278217515
 10
-8.3663426292
 20
-13.0103260501
 10
-8.3771074093
 20
-12.9940907277
 10
-8.3898462178
 20
-12.9793904121
 10
-8.4043435255
 20
-12.966473689
 10
-8.4203540894
 20
-12.9555589486
 10
-8.4376070397
 20
-12.9468307369
 10
-8.4558105307
 20
-12.9404365808
 10
-8.474656689
 20
-12.9364845134
 10
-8.4938267808
 20
-12.9350412696
  0
LINE
  5
316
100
AcDbEntity
  8
RACCORDO
100
AcDbLine
 62
250
  6
CONTINUOUS
 10
-7.9732690056
 20
22.9000174393
 11
-7.9743159674
 21
22.9487870945
  0
LINE
  5
317
100
AcDbEntity
  8
RACCORDO
100
AcDbLine
 62
250
  6
CONTINUOUS
 10
-7.9764310987
 20
-13.5250386967
 11
-7.9865696787
 21
-12.9779746848
  0
LINE
  5
318
100
AcDbEntity
  8
RACCORDO
100
AcDbLine
 62
250
  6
CONTINUOUS
 10
-7.8287099358
 20
-13.5093594272
 11
-7.8388485158
 21
-12.9622954153
  0
LINE
  5
319
100
AcDbEntity
  8
RACCORDO
100
AcDbLine
 62
250
  6
CONTINUOUS
 10
-7.9718297011
 20
22.8009533073
 11
-7.9732690056
 21
22.9000174393
  0
LINE
  5
31A
100
AcDbEntity
  8
RACCORDO
100
AcDbLine
 62
250
  6
CONTINUOUS
 10
-7.7723236703
 20
22.960677035
 11
-7.7738118214
 21
23.0802243149
  0
LINE
  5
31B
100
AcDbEntity
  8
RACCORDO
100
AcDbLine
 62
250
  6
CONTINUOUS
 10
-7.9707474845
 20
22.6714318569
 11
-7.9718297011
 21
22.8009533073
  0
LINE
  5
31C
100
AcDbEntity
  8
RACCORDO
100
AcDbLine
 62
250
  6
CONTINUOUS
 10
-7.7707779487
 20
22.7340907483
 11
-7.7723236703
 21
22.960677035
  0
LINE
  5
31D
100
AcDbEntity
  8
RACCORDO
100
AcDbLine
 62
250
  6
CONTINUOUS
 10
-7.62936916
 20
22.3040290736
 11
-7.6279754859
 21
22.0711518347
  0
LINE
  5
31E
100
AcDbEntity
  8
RACCORDO
100
AcDbLine
 62
250
  6
CONTINUOUS
 10
-7.9702775285
 20
22.5257480019
 11
-7.9707474845
 21
22.6714318569
  0
LINE
  5
31F
100
AcDbEntity
  8
RACCORDO
100
AcDbLine
 62
7
  6
CONTINUOUS
 10
-9.2272930121
 20
-13.4000067578
 11
-9.2272930121
 21
-13.0999932422
  0
LINE
  5
320
100
AcDbEntity
  8
DRAFT
100
AcDbLine
 62
7
  6
CONTINUOUS
 10
-9.1
 20
-16.25
 11
-9.1
 21
-13.6
  0
LINE
  5
321
100
AcDbEntity
  8
DRAFT
100
AcDbLine
 62
7
  6
CONTINUOUS
 10
-9.1
 20
-12.9
 11
-9.1
 21
-10.25
  0
LINE
  5
322
100
AcDbEntity
  8
RACCORDO
100
AcDbLine
 62
7
  6
CONTINUOUS
 10
-9.0
 20
22.6024380533
 11
-9.0
 21
22.3975619467
  0
LINE
  5
323
100
AcDbEntity
  8
RACCORDO
100
AcDbLine
 62
250
  6
CONTINUOUS
 10
-8.8385094944
 20
-13.549801188
 11
-8.8385094944
 21
-12.950198812
  0
LINE
  5
324
100
AcDbEntity
  8
RACCORDO
100
AcDbLine
 62
250
  6
CONTINUOUS
 10
-8.3461056179
 20
-13.4151643002
 11
-8.3461056179
 21
-13.0848356998
  0
LINE
  5
325
100
AcDbEntity
  8
RACCORDO
100
AcDbLine
 62
250
  6
CONTINUOUS
 10
-8.1461946517
 20
-12.6662445968
 11
-8.146194652
 21
-12.8317182965
  0
LINE
  5
326
100
AcDbEntity
  8
RACCORDO
100
AcDbLine
 62
250
  6
CONTINUOUS
 10
-8.1250220438
 20
-13.8086897717
 11
-8.1250220438
 21
-13.6745746109
  0
LINE
  5
327
100
AcDbEntity
  8
RACCORDO
100
AcDbLine
 62
7
  6
CONTINUOUS
 10
-8.0
 20
21.7381238696
 11
-8.0
 21
22.2
  0
LINE
  5
328
100
AcDbEntity
  8
RACCORDO
100
AcDbLine
 62
7
  6
CONTINUOUS
 10
-8.0
 20
22.8
 11
-8.0
 21
23.2618761304
  0
LINE
  5
329
100
AcDbEntity
  8
RACCORDO
100
AcDbLine
 62
7
  6
CONTINUOUS
 10
-7.9822348431
 20
22.5846728965
 11
-7.9822348431
 21
22.4153271035
  0
LINE
  5
32A
100
AcDbEntity
  8
RACCORDO
100
AcDbLine
 62
250
  6
CONTINUOUS
 10
-7.7703048137
 20
22.4677311977
 11
-7.7707779487
 21
22.7340907483
  0
LINE
  5
32B
100
AcDbEntity
  8
RACCORDO
100
AcDbLine
 62
250
  6
CONTINUOUS
 10
-7.6296696406
 20
22.5634672468
 11
-7.62936916
 21
22.3040290736
  0
LINE
  5
32C
100
AcDbEntity
  8
RACCORDO
100
AcDbLine
 62
250
  6
CONTINUOUS
 10
-7.9705039045
 20
22.3783849083
 11
-7.9702775285
 21
22.5257480019
  0
LINE
  5
32D
100
AcDbEntity
  8
RACCORDO
100
AcDbLine
 62
250
  6
CONTINUOUS
 10
-7.4294127027
 20
22.6410275991
 11
-7.4297336456
 21
22.4987570562
  0
LINE
  5
32E
100
AcDbEntity
  8
RACCORDO
100
AcDbLine
 62
250
  6
CONTINUOUS
 10
-7.7710628255
 20
22.2062565705
 11
-7.7703048137
 21
22.4677311977
  0
LINE
  5
32F
100
AcDbEntity
  8
RACCORDO
100
AcDbLine
 62
250
  6
CONTINUOUS
 10
-7.6288164558
 20
22.815005596
 11
-7.6296696406
 21
22.5634672468
  0
LINE
  5
330
100
AcDbEntity
  8
RACCORDO
100
AcDbLine
 62
250
  6
CONTINUOUS
 10
-7.9714075002
 20
22.2399375196
 11
-7.9705039045
 21
22.3783849083
  0
LINE
  5
331
100
AcDbEntity
  8
RACCORDO
100
AcDbLine
 62
250
  6
CONTINUOUS
 10
-7.4284609756
 20
22.773657725
 11
-7.4294127027
 21
22.6410275991
  0
LINE
  5
332
100
AcDbEntity
  8
RACCORDO
100
AcDbLine
 62
250
  6
CONTINUOUS
 10
-7.7723838773
 20
22.0329665069
 11
-7.7710628255
 21
22.2062565705
  0
LINE
  5
333
100
AcDbEntity
  8
RACCORDO
100
AcDbLine
 62
250
  6
CONTINUOUS
 10
-7.627477408
 20
22.9803330204
 11
-7.6288164558
 21
22.815005596
  0
LINE
  5
334
100
AcDbEntity
  8
RACCORDO
100
AcDbLine
 62
250
  6
CONTINUOUS
 10
-7.9723534011
 20
22.1576551814
 11
-7.9714075002
 21
22.2399375196
  0
LINE
  5
335
100
AcDbEntity
  8
RACCORDO
100
AcDbLine
 62
250
  6
CONTINUOUS
 10
-7.7735754518
 20
21.9354990727
 11
-7.7723838773
 21
22.0329665069
  0
LINE
  5
336
100
AcDbEntity
  8
RACCORDO
100
AcDbLine
 62
250
  6
CONTINUOUS
 10
-7.4275078819
 20
22.8521100273
 11
-7.4284609756
 21
22.773657725
  0
LINE
  5
337
100
AcDbEntity
  8
RACCORDO
100
AcDbLine
 62
250
  6
CONTINUOUS
 10
-7.6262971552
 20
23.0730546079
 11
-7.627477408
 21
22.9803330204
  0
LWPOLYLINE
  5
338
100
AcDbEntity
  8
RACCORDO
100
AcDbPolyline
 62
250
  6
CONTINUOUS
 90
6
 70
0
 10
-7.7782292099
 20
21.7613941852
 10
-7.7773537727
 20
21.7765654179
 10
-7.7765182598
 20
21.7977293786
 10
-7.7757226713
 20
21.8245729611
 10
-7.7749636705
 20
21.8566425464
 10
-7.7735754518
 20
21.9354990727
  0
LWPOLYLINE
  5
339
100
AcDbEntity
  8
RACCORDO
100
AcDbPolyline
 62
250
  6
CONTINUOUS
 90
6
 70
0
 10
-7.6217707968
 20
23.2386058148
 10
-7.6226156952
 20
23.2240663726
 10
-7.6234243914
 20
23.2039169182
 10
-7.6241968856
 20
23.1784240356
 10
-7.6249363925
 20
23.1479763579
 10
-7.6262971552
 20
23.0730546079
  0
LWPOLYLINE
  5
33A
100
AcDbEntity
  8
RACCORDO
100
AcDbPolyline
 62
250
  6
CONTINUOUS
 90
13
 70
0
 10
-7.4218013234
 20
21.9583557358
 10
-7.4235844555
 20
21.9326962946
 10
-7.4287455583
 20
21.9074742035
 10
-7.437196664
 20
21.8831193581
 10
-7.4487937282
 20
21.8600468725
 10
-7.463339086
 20
21.8386500036
 10
-7.4805848203
 20
21.8192934484
 10
-7.5002369877
 20
21.802307128
 10
-7.5219606286
 20
21.7879805644
 10
-7.5453854764
 20
21.7765579455
 10
-7.5701122683
 20
21.7682339632
 10
-7.5957195507
 20
21.7631504948
 10
-7.6217708624
 20
21.7613941852
  0
LWPOLYLINE
  5
33B
100
AcDbEntity
  8
RACCORDO
100
AcDbPolyline
 62
250
  6
CONTINUOUS
 90
8
 70
0
 10
-7.4218013234
 20
23.0416442642
 10
-7.4226460972
 20
23.0306151188
 10
-7.4234547189
 20
23.015904017
 10
-7.4242271884
 20
22.9975109589
 10
-7.4249667489
 20
22.9752785976
 10
-7.4256701572
 20
22.9493642799
 10
-7.4263276837
 20
22.9202400461
 10
-7.4275078819
 20
22.8521100273
  0
LINE
  5
33C
100
AcDbEntity
  8
DRAFT
100
AcDbLine
 62
7
  6
CONTINUOUS
 10
-9.9525363335
 20
-24.7967854951
 11
-9.9792140383
 21
-25.1212710891
  0
LWPOLYLINE
  5
33D
100
AcDbEntity
  8
0
100
AcDbPolyline
 62
7
  6
CONTINUOUS
 90
10
 70
0
 10
3.2688043561
 20
-8.7299951302
 10
3.3116083407
 20
-8.7228869395
 10
3.3542096218
 20
-8.7171850819
 10
3.3966081994
 20
-8.7128895845
 10
3.4388733277
 20
-8.7100076949
 10
3.4809357525
 20
-8.7085321996
 10
3.5225877112
 20
-8.7084414236
 10
3.5637599494
 20
-8.70972814
 10
3.6045217216
 20
-8.71239957
 10
3.6448730275
 20
-8.7164557013
  0
LINE
  5
33E
100
AcDbEntity
  8
0
100
AcDbLine
 62
7
  6
CONTINUOUS
 10
1.959997
 20
-8.338203
 11
1.4956
 21
-8.338203
  0
LINE
  5
33F
100
AcDbEntity
  8
0
100
AcDbLine
 62
7
  6
CONTINUOUS
 10
0.483802
 20
-8.338203
 11
0.008833
 21
-8.338203
  0
LINE
  5
340
100
AcDbEntity
  8
0
100
AcDbLine
 62
7
  6
CONTINUOUS
 10
-0.946209
 20
-8.338203
 11
-1.425869
 21
-8.338203
  0
LINE
  5
341
100
AcDbEntity
  8
0
100
AcDbLine
 62
7
  6
CONTINUOUS
 10
-2.550162
 20
-8.338203
 11
-3.02989
 21
-8.338203
  0
LINE
  5
342
100
AcDbEntity
  8
0
100
AcDbLine
 62
7
  6
CONTINUOUS
 10
-3.920045
 20
-8.338203
 11
-4.441534
 21
-8.338203
  0
LINE
  5
343
100
AcDbEntity
  8
0
100
AcDbLine
 62
7
  6
CONTINUOUS
 10
-1.891956
 20
-8.338065
 11
-2.372012
 21
-8.338065
  0
LINE
  5
344
100
AcDbEntity
  8
RACCORDO
100
AcDbLine
 62
7
  6
CONTINUOUS
 10
4.75
 20
-7.5
 11
-4.75
 21
-7.5
  0
LWPOLYLINE
  5
345
100
AcDbEntity
  8
0
100
AcDbPolyline
 62
7
  6
CONTINUOUS
 90
19
 70
0
 10
3.6448730275
 20
-8.7164557013
 10
3.6687568164
 20
-8.7200940217
 10
3.6920953072
 20
-8.7253584575
 10
3.7148884999
 20
-8.7322489801
 10
3.7372958436
 20
-8.7407790174
 10
3.7591578893
 20
-8.7509350573
 10
3.7799962898
 20
-8.7626766485
 10
3.7998191564
 20
-8.7760553087
 10
3.8186183779
 20
-8.7910193868
 10
3.8358912739
 20
-8.8073736781
 10
3.8515109192
 20
-8.8251721121
 10
3.8656042389
 20
-8.8443606027
 10
3.8780493282
 20
-8.864581945
 10
3.8888722532
 20
-8.885818776
 10
3.8980469479
 20
-8.9080883239
 10
3.9053733087
 20
-8.9310853108
 10
3.9107846345
 20
-8.9547079527
 10
3.9143476265
 20
-8.9790579356
 10
3.9160622846
 20
-9.0041352065
  0
LINE
  5
346
100
AcDbEntity
  8
RACCORDO
100
AcDbLine
 62
7
  6
CONTINUOUS
 10
9.1
 20
-12.9
 11
9.2108433288
 21
-12.950198812
  0
LWPOLYLINE
  5
347
100
AcDbEntity
  8
0
100
AcDbPolyline
 62
7
  6
CONTINUOUS
 90
16
 70
0
 10
0.4835407691
 20
-18.0663208702
 10
0.4759537734
 20
-18.0508810799
 10
0.4677843807
 20
-18.0358295262
 10
0.4590325912
 20
-18.0211662091
 10
0.4496734772
 20
-18.0068790758
 10
0.4397319663
 20
-17.992980179
 10
0.4292828414
 20
-17.9795056771
 10
0.4183320075
 20
-17.9664512265
 10
0.4068735596
 20
-17.9538211707
 10
0.3949645656
 20
-17.9416646985
 10
0.3826106794
 20
-17.9299773758
 10
0.3698062471
 20
-17.9187636367
 10
0.3565913743
 20
-17.9080859718
 10
0.3429794297
 20
-17.8979652111
 10
0.3289570447
 20
-17.8883805245
 10
0.3145242193
 20
-17.879331912
  0
LWPOLYLINE
  5
348
100
AcDbEntity
  8
0
100
AcDbPolyline
 62
7
  6
CONTINUOUS
 90
16
 70
0
 10
-0.4650375299
 20
-19.914844482
 10
-0.4575619013
 20
-19.9311407763
 10
-0.4495297449
 20
-19.9471026733
 10
-0.4409410605
 20
-19.962730173
 10
-0.4317915453
 20
-19.9780440448
 10
-0.4220855021
 20
-19.9930235193
 10
-0.4118358403
 20
-20.0076062882
 10
-0.4010489799
 20
-20.0218018381
 10
-0.3897185007
 20
-20.0356006825
 10
-0.3778380525
 20
-20.0489120522
 10
-0.3653995034
 20
-20.0617554815
 10
-0.3524109851
 20
-20.0741114362
 10
-0.3388905423
 20
-20.0858305449
 10
-0.3248441898
 20
-20.0968630171
 10
-0.3102659128
 20
-20.1072586433
 10
-0.2951557111
 20
-20.1170174235
  0
LINE
  5
349
100
AcDbEntity
  8
RACCORDO
100
AcDbLine
 62
250
  6
CONTINUOUS
 10
-7.9781986766
 20
23.0416442642
 11
-8.0
 21
23.2618761304
  0
LWPOLYLINE
  5
34A
100
AcDbEntity
  8
RACCORDO
100
AcDbPolyline
 62
250
  6
CONTINUOUS
 90
13
 70
0
 10
-7.9781986766
 20
21.9583557358
 10
-7.9764157478
 20
21.9326977843
 10
-7.9712551567
 20
21.9074768075
 10
-7.9628047343
 20
21.8831226658
 10
-7.951208378
 20
21.8600504551
 10
-7.9366636276
 20
21.8386534821
 10
-7.9194183244
 20
21.8192965457
 10
-7.8997663193
 20
21.8023096308
 10
-7.8780425185
 20
21.7879823593
 10
-7.8546172401
 20
21.7765590595
 10
-7.8298897792
 20
21.7682345084
 10
-7.8042815793
 20
21.763150644
 10
-7.7782291377
 20
21.7613941844
  0
LWPOLYLINE
  5
34B
100
AcDbEntity
  8
RACCORDO
100
AcDbPolyline
 62
250
  6
CONTINUOUS
 90
13
 70
0
 10
-7.4218013234
 20
23.0416442642
 10
-7.4235842202
 20
23.0673019831
 10
-7.428744731
 20
23.0925227853
 10
-7.4371950456
 20
23.1168768159
 10
-7.4487912894
 20
23.1399489818
 10
-7.4633359421
 20
23.161345969
 10
-7.480581175
 20
23.1807029639
 10
-7.5002331521
 20
23.1976899716
 10
-7.5219569759
 20
23.2120173543
 10
-7.5453823213
 20
23.2234407621
 10
-7.5701098892
 20
23.2317654041
 10
-7.5957182372
 20
23.2368493318
 10
-7.6217708624
 20
23.2386058147
  0
LWPOLYLINE
  5
34C
100
AcDbEntity
  8
RACCORDO
100
AcDbPolyline
 62
250
  6
CONTINUOUS
 90
4
 70
0
 10
-7.7760868411
 20
23.1884343904
 10
-7.7767562802
 20
23.2088059985
 10
-7.777470379
 20
23.2257194815
 10
-7.7782291376
 20
23.2386058148
  0
LWPOLYLINE
  5
34D
100
AcDbEntity
  8
RACCORDO
100
AcDbPolyline
 62
250
  6
CONTINUOUS
 90
4
 70
0
 10
-7.6240787698
 20
21.8173024282
 10
-7.6233610932
 20
21.7944186823
 10
-7.6225917907
 20
21.7755504161
 10
-7.6217708624
 20
21.7613941852
  0
LWPOLYLINE
  5
34E
100
AcDbEntity
  8
RACCORDO
100
AcDbPolyline
 62
250
  6
CONTINUOUS
 90
6
 70
0
 10
-7.4253747
 20
22.0388734053
 10
-7.4247676663
 20
22.0178829337
 10
-7.4241090535
 20
21.9993551147
 10
-7.4233913891
 20
21.9832260024
 10
-7.4226221458
 20
21.9695595428
 10
-7.4218013234
 20
21.9583557358
  0
LWPOLYLINE
  5
34F
100
AcDbEntity
  8
RACCORDO
100
AcDbPolyline
 62
250
  6
CONTINUOUS
 90
7
 70
0
 10
-7.9743159674
 20
22.9487870945
 10
-7.9748663715
 20
22.9698068212
 10
-7.9754391346
 20
22.9884000431
 10
-7.9760565203
 20
23.0048518858
 10
-7.9767259498
 20
23.0192573911
 10
-7.9774400019
 20
23.0315215173
 10
-7.9781986766
 20
23.0416442642
  0
LINE
  5
350
100
AcDbEntity
  8
RACCORDO
100
AcDbLine
 62
250
  6
CONTINUOUS
 10
-7.774896827
 20
23.1404067006
 11
-7.7760868411
 21
23.1884343904
  0
LINE
  5
351
100
AcDbEntity
  8
RACCORDO
100
AcDbLine
 62
250
  6
CONTINUOUS
 10
-7.6253442464
 20
21.8714426077
 11
-7.6240787698
 21
21.8173024282
  0
LINE
  5
352
100
AcDbEntity
  8
RACCORDO
100
AcDbLine
 62
250
  6
CONTINUOUS
 10
-7.4265096872
 20
22.0886569723
 11
-7.4253747
 21
22.0388734053
  0
LINE
  5
353
100
AcDbEntity
  8
RACCORDO
100
AcDbLine
 62
250
  6
CONTINUOUS
 10
-7.7738118214
 20
23.0802243149
 11
-7.774896827
 21
23.1404067006
  0
LINE
  5
354
100
AcDbEntity
  8
RACCORDO
100
AcDbLine
 62
250
  6
CONTINUOUS
 10
-7.6264791598
 20
21.9392120687
 11
-7.6253442464
 21
21.8714426077
  0
LINE
  5
355
100
AcDbEntity
  8
RACCORDO
100
AcDbLine
 62
250
  6
CONTINUOUS
 10
-7.4275336392
 20
22.149572032
 11
-7.4265096872
 21
22.0886569723
  0
LINE
  5
356
100
AcDbEntity
  8
RACCORDO
100
AcDbLine
 62
250
  6
CONTINUOUS
 10
-7.6279754859
 20
22.0711518347
 11
-7.6264791598
 21
21.9392120687
  0
LINE
  5
357
100
AcDbEntity
  8
RACCORDO
100
AcDbLine
 62
250
  6
CONTINUOUS
 10
-7.4288271133
 20
22.2665855154
 11
-7.4275336392
 21
22.149572032
  0
LINE
  5
358
100
AcDbEntity
  8
RACCORDO
100
AcDbLine
 62
250
  6
CONTINUOUS
 10
-7.4295847429
 20
22.4032207558
 11
-7.4288271133
 21
22.2665855154
  0
LINE
  5
359
100
AcDbEntity
  8
RACCORDO
100
AcDbLine
 62
250
  6
CONTINUOUS
 10
-7.4297336456
 20
22.4987570562
 11
-7.4295847429
 21
22.4032207558
  0
LINE
  5
35A
100
AcDbEntity
  8
RACCORDO
100
AcDbLine
 62
7
  6
CONTINUOUS
 10
-7.4
 20
21.7381238696
 11
-7.4
 21
23.2618761304
  0
LINE
  5
35B
100
AcDbEntity
  8
0
100
AcDbLine
 62
7
  6
CONTINUOUS
 10
-5.75
 20
-5.75
 11
-5.75
 21
5.75
  0
LWPOLYLINE
  5
35C
100
AcDbEntity
  8
RACCORDO
100
AcDbPolyline
 62
250
  6
CONTINUOUS
 90
13
 70
0
 10
-4.6404622304
 20
21.2904736535
 10
-4.6378930533
 20
21.3296281327
 10
-4.6302354406
 20
21.3681127328
 10
-4.6176204034
 20
21.4052690354
 10
-4.6002637676
 20
21.4404613473
 10
-4.5784624813
 20
21.4730875766
 10
-4.5525895345
 20
21.5025895337
 10
-4.5230875775
 20
21.5284624806
 10
-4.4904613481
 20
21.5502637671
 10
-4.4552690361
 20
21.5676204031
 10
-4.4181127334
 20
21.5802354404
 10
-4.379628133
 20
21.5878930533
 10
-4.3404736535
 20
21.5904622304
  0
LWPOLYLINE
  5
35D
100
AcDbEntity
  8
RACCORDO
100
AcDbPolyline
 62
250
  6
CONTINUOUS
 90
13
 70
0
 10
-8.3461056179
 20
-13.4151643002
 10
-8.3475290622
 20
-13.4346047185
 10
-8.3514268603
 20
-13.4537163383
 10
-8.3577330879
 20
-13.472175922
 10
-8.3663410871
 20
-13.4896712601
 10
-8.3771052694
 20
-13.5059064517
 10
-8.3898435788
 20
-13.5206069085
 10
-8.4043405705
 20
-13.5335239999
 10
-8.4203510547
 20
-13.5444392572
 10
-8.437604244
 20
-13.5531680693
 10
-8.4558083329
 20
-13.5595628046
 10
-8.474655433
 20
-13.5635153081
 10
-8.4938267808
 20
-13.5649587304
  0
LWPOLYLINE
  5
35E
100
AcDbEntity
  8
RACCORDO
100
AcDbPolyline
 62
250
  6
CONTINUOUS
 90
13
 70
0
 10
-4.639232573
 20
21.2306631217
 10
-4.6364437422
 20
21.2580010652
 10
-4.6286100635
 20
21.2848750663
 10
-4.6158644532
 20
21.3108289413
 10
-4.5984232073
 20
21.3354221195
 10
-4.5765823375
 20
21.358237114
 10
-4.5507125532
 20
21.3788866115
 10
-4.5212529514
 20
21.397020063
 10
-4.4887035852
 20
21.4123296168
 10
-4.4536169931
 20
21.424555347
 10
-4.416588779
 20
21.433489689
 10
-4.3782474935
 20
21.4389809554
 10
-4.3392439961
 20
21.440935901
  0
LWPOLYLINE
  5
35F
100
AcDbEntity
  8
RACCORDO
100
AcDbPolyline
 62
250
  6
CONTINUOUS
 90
13
 70
0
 10
-4.6373873368
 20
21.0154970351
 10
-4.6345984011
 20
21.0428355334
 10
-4.62676446
 20
21.069709957
 10
-4.6140184958
 20
21.0956641086
 10
-4.5965768731
 20
21.120257413
 10
-4.5747356656
 20
21.1430723954
 10
-4.5488656312
 20
21.1637217682
 10
-4.519405917
 20
21.1818550055
 10
-4.486856606
 20
21.197164293
 10
-4.4517702272
 20
21.2093897535
 10
-4.4147423768
 20
21.2183238581
 10
-4.3764016078
 20
21.2238149491
 10
-4.3373987599
 20
21.2257698144
  0
LINE
  5
360
100
AcDbEntity
  8
0
100
AcDbLine
 62
7
  6
CONTINUOUS
 10
-3.6973821272
 20
10.2175256378
 11
-3.2128480867
 21
11.3942378508
  0
LINE
  5
361
100
AcDbEntity
  8
DRAFT
100
AcDbLine
 62
7
  6
CONTINUOUS
 10
10.0
 20
25.1524539902
 11
9.9982544935
 21
25.149835398
  0
LINE
  5
362
100
AcDbEntity
  8
0
100
AcDbLine
 62
7
  6
CONTINUOUS
 10
5.75
 20
-5.75
 11
-5.75
 21
-5.75
  0
LWPOLYLINE
  5
363
100
AcDbEntity
  8
0
100
AcDbPolyline
 62
7
  6
CONTINUOUS
 90
22
 70
0
 10
3.9913031656
 20
-8.3892855661
 10
3.9366561741
 20
-8.3719096221
 10
3.8814133943
 20
-8.3569187588
 10
3.8255748262
 20
-8.3443131032
 10
3.7689619213
 20
-8.3343549231
 10
3.7117532282
 20
-8.3267821496
 10
3.6544843919
 20
-8.3208083521
 10
3.5972795102
 20
-8.3162941517
 10
3.5400144855
 20
-8.3133789857
 10
3.4828526694
 20
-8.3116946082
 10
3.4258246159
 20
-8.3111991416
 10
3.368899771
 20
-8.311934473
 10
3.3121498248
 20
-8.3136579922
 10
3.2556225946
 20
-8.3163634385
 10
3.1992702631
 20
-8.3200570569
 10
3.1430210682
 20
-8.3245149937
 10
3.0868862988
 20
-8.329729014
 10
3.0308546661
 20
-8.3357073263
 10
2.974820541
 20
-8.3422507464
 10
2.9187487138
 20
-8.3492928724
 10
2.8626743941
 20
-8.3569000798
 10
2.8065975821
 20
-8.3650723535
  0
LWPOLYLINE
  5
364
100
AcDbEntity
  8
DRAFT
100
AcDbPolyline
 62
7
  6
CONTINUOUS
 90
5
 70
0
 10
9.5227038285
 20
-11.7414818498
 10
9.5309592614
 20
-11.7449884809
 10
9.5391646355
 20
-11.7484089821
 10
9.547293354
 20
-11.7517416205
 10
9.5553454168
 20
-11.7549863962
  0
LINE
  5
365
100
AcDbEntity
  8
DRAFT
100
AcDbLine
 62
7
  6
CONTINUOUS
 10
9.4972239062
 20
-11.7304194388
 11
9.5227038285
 21
-11.7414818498
  0
LINE
  5
366
100
AcDbEntity
  8
DRAFT
100
AcDbLine
 62
7
  6
CONTINUOUS
 10
9.451175551
 20
-11.7100561515
 11
9.4972239062
 21
-11.7304194388
  0
LINE
  5
367
100
AcDbEntity
  8
DRAFT
100
AcDbLine
 62
7
  6
CONTINUOUS
 10
9.3171572875
 20
-11.65
 11
9.451175551
 21
-11.7100561515
  0
LINE
  5
368
100
AcDbEntity
  8
DRAFT
100
AcDbLine
 62
7
  6
CONTINUOUS
 10
9.9792140383
 20
-25.1212710891
 11
10.0
 21
-25.1524539902
  0
LWPOLYLINE
  5
369
100
AcDbEntity
  8
0
100
AcDbPolyline
 62
7
  6
CONTINUOUS
 90
16
 70
0
 10
1.9214383321
 20
-18.0663208702
 10
1.9138513473
 20
-18.050881093
 10
1.9056819685
 20
-18.0358295496
 10
1.8969301959
 20
-18.0211662399
 10
1.8875711025
 20
-18.0068791108
 10
1.8776296152
 20
-17.9929802154
 10
1.8671805144
 20
-17.9795057129
 10
1.8562297051
 20
-17.9664512595
 10
1.8447712823
 20
-17.9538211989
 10
1.8328623116
 20
-17.9416647211
 10
1.8205084464
 20
-17.9299773917
 10
1.8077040333
 20
-17.9187636452
 10
1.7944891773
 20
-17.9080859746
 10
1.7808772466
 20
-17.8979652111
 10
1.766854873
 20
-17.8883805236
 10
1.7524220565
 20
-17.879331912
  0
LWPOLYLINE
  5
36A
100
AcDbEntity
  8
0
100
AcDbPolyline
 62
7
  6
CONTINUOUS
 90
16
 70
0
 10
0.9728600331
 20
-19.914844482
 10
0.980335672
 20
-19.931140789
 10
0.9883678418
 20
-19.9471026961
 10
0.9969565425
 20
-19.9627302032
 10
1.0061060781
 20
-19.9780440795
 10
1.0158121447
 20
-19.9930235559
 10
1.0260618306
 20
-20.0076063246
 10
1.0368487159
 20
-20.0218018722
 10
1.0481792205
 20
-20.0356007121
 10
1.0600596925
 20
-20.0489120765
 10
1.0724982631
 20
-20.061755499
 10
1.0854868011
 20
-20.0741114459
 10
1.0990072609
 20
-20.0858305487
 10
1.1130536274
 20
-20.0968630178
 10
1.1276319158
 20
-20.1072586428
 10
1.1427421261
 20
-20.1170174235
  0
LWPOLYLINE
  5
36B
100
AcDbEntity
  8
0
100
AcDbPolyline
 62
7
  6
CONTINUOUS
 90
16
 70
0
 10
2.4107578703
 20
-19.914844482
 10
2.4182334988
 20
-19.9311407763
 10
2.4262656553
 20
-19.9471026733
 10
2.4348543396
 20
-19.962730173
 10
2.4440038549
 20
-19.9780440448
 10
2.453709898
 20
-19.9930235193
 10
2.4639595598
 20
-20.0076062881
 10
2.4747464203
 20
-20.0218018381
 10
2.4860768994
 20
-20.0356006824
 10
2.4979573477
 20
-20.0489120522
 10
2.5103958968
 20
-20.0617554815
 10
2.523384415
 20
-20.0741114362
 10
2.5369048578
 20
-20.0858305449
 10
2.5509512103
 20
-20.0968630171
 10
2.5655294874
 20
-20.1072586433
 10
2.580639689
 20
-20.1170174235
  0
LINE
  5
36C
100
AcDbEntity
  8
0
100
AcDbLine
 62
7
  6
CONTINUOUS
 10
-4.441534
 20
-8.338203
 11
-3.712456
 21
-10.637993
  0
LWPOLYLINE
  5
36D
100
AcDbEntity
  8
0
100
AcDbPolyline
 62
7
  6
CONTINUOUS
 90
7
 70
0
 10
-0.2432038432
 20
-19.7910092974
 10
-0.25345567
 20
-19.754889991
 10
-0.2622753986
 20
-19.7174927787
 10
-0.2696630288
 20
-19.6788176605
 10
-0.2756185607
 20
-19.6388646364
 10
-0.2801419942
 20
-19.5976337064
 10
-0.2832333294
 20
-19.5551248705
  0
LINE
  5
36E
100
AcDbEntity
  8
0
100
AcDbLine
 62
7
  6
CONTINUOUS
 10
-3.481663
 20
-9.92122
 11
-3.920045
 21
-8.338203
  0
LWPOLYLINE
  5
36F
100
AcDbEntity
  8
0
100
AcDbPolyline
 62
7
  6
CONTINUOUS
 90
7
 70
0
 10
-2.6008968456
 20
-19.3010239835
 10
-2.5933867639
 20
-19.3377226585
 10
-2.5872718279
 20
-19.3754089576
 10
-2.5825520377
 20
-19.4140828807
 10
-2.5792273933
 20
-19.453744428
 10
-2.5772978947
 20
-19.4943935993
 10
-2.5767635418
 20
-19.5360303947
  0
LWPOLYLINE
  5
370
100
AcDbEntity
  8
0
100
AcDbPolyline
 62
7
  6
CONTINUOUS
 90
7
 70
0
 10
-2.3254495187
 20
-19.3069847652
 10
-2.3308731516
 20
-19.2771935983
 10
-2.3377326792
 20
-19.2482907752
 10
-2.3460281015
 20
-19.2202762961
 10
-2.3557594186
 20
-19.1931501607
 10
-2.3669266303
 20
-19.1669123693
 10
-2.3795297368
 20
-19.1415629216
  0
LWPOLYLINE
  5
371
100
AcDbEntity
  8
0
100
AcDbPolyline
 62
7
  6
CONTINUOUS
 90
7
 70
0
 10
-2.6069460554
 20
-18.2542437471
 10
-2.6027608149
 20
-18.2799095423
 10
-2.5992978995
 20
-18.305261232
 10
-2.5965573091
 20
-18.3302988162
 10
-2.5945390437
 20
-18.3550222949
 10
-2.5932431035
 20
-18.3794316681
 10
-2.5926694883
 20
-18.4035269358
  0
LWPOLYLINE
  5
372
100
AcDbEntity
  8
0
100
AcDbPolyline
 62
7
  6
CONTINUOUS
 90
7
 70
0
 10
-3.1811895428
 20
-19.7459889226
 10
-3.1853465124
 20
-19.7198562862
 10
-3.1886890112
 20
-19.6931485762
 10
-3.1912170394
 20
-19.6658657925
 10
-3.1929305969
 20
-19.6380079353
 10
-3.1938296838
 20
-19.6095750044
 10
-3.1939143
 20
-19.580567
  0
LINE
  5
373
100
AcDbEntity
  8
RACCORDO
100
AcDbLine
 62
250
  6
CONTINUOUS
 10
-7.7782291376
 20
23.2386058148
 11
-7.8005757424
 21
23.4643459867
  0
LINE
  5
374
100
AcDbEntity
  8
RACCORDO
100
AcDbLine
 62
250
  6
CONTINUOUS
 10
-7.6217708624
 20
21.7613941852
 11
-7.5994242576
 21
21.5356540133
  0
LINE
  5
375
100
AcDbEntity
  8
RACCORDO
100
AcDbLine
 62
250
  6
CONTINUOUS
 10
-7.4218013234
 20
21.9583557358
 11
-7.4
 21
21.7381238696
  0
LWPOLYLINE
  5
376
100
AcDbEntity
  8
RACCORDO
100
AcDbPolyline
 62
250
  6
CONTINUOUS
 90
6
 70
0
 10
-4.6398879617
 20
21.2787711898
 10
-4.6399907745
 20
21.2826271347
 10
-4.6400993336
 20
21.2857313228
 10
-4.6402145528
 20
21.2880638566
 10
-4.6403355184
 20
21.2896446335
 10
-4.6404622304
 20
21.2904736535
  0
LINE
  5
377
100
AcDbEntity
  8
RACCORDO
100
AcDbLine
 62
250
  6
CONTINUOUS
 10
-4.6396909708
 20
21.2690718204
 11
-4.6398879617
 21
21.2787711898
  0
LWPOLYLINE
  5
378
100
AcDbEntity
  8
RACCORDO
100
AcDbPolyline
 62
250
  6
CONTINUOUS
 90
4
 70
0
 10
-4.3401106086
 20
21.5786064039
 10
-4.3402258434
 20
21.5847962164
 10
-4.3403468584
 20
21.5888395581
 10
-4.3404736535
 20
21.5904622304
  0
LINE
  5
379
100
AcDbEntity
  8
RACCORDO
100
AcDbLine
 62
250
  6
CONTINUOUS
 10
-4.639412131
 20
21.2487771925
 11
-4.6396909708
 21
21.2690718204
  0
LINE
  5
37A
100
AcDbEntity
  8
RACCORDO
100
AcDbLine
 62
250
  6
CONTINUOUS
 10
-4.3398993337
 20
21.5611172537
 11
-4.3401106086
 21
21.5786064039
  0
LINE
  5
37B
100
AcDbEntity
  8
RACCORDO
100
AcDbLine
 62
250
  6
CONTINUOUS
 10
-4.3373987599
 20
21.2257698144
 11
-4.3392439961
 21
21.440935901
  0
LINE
  5
37C
100
AcDbEntity
  8
RACCORDO
100
AcDbLine
 62
250
  6
CONTINUOUS
 10
-4.6371853831
 20
20.9869471023
 11
-4.639412131
 21
21.2487771925
  0
LINE
  5
37D
100
AcDbEntity
  8
RACCORDO
100
AcDbLine
 62
250
  6
CONTINUOUS
 10
-4.3394236438
 20
21.4863141497
 11
-4.3398993337
 21
21.5611172537
  0
LINE
  5
37E
100
AcDbEntity
  8
RACCORDO
100
AcDbLine
 62
250
  6
CONTINUOUS
 10
-4.3392439961
 20
21.440935901
 11
-4.3394236438
 21
21.4863141497
  0
LWPOLYLINE
  5
37F
100
AcDbEntity
  8
RACCORDO
100
AcDbPolyline
 62
250
  6
CONTINUOUS
 90
3
 70
0
 10
-4.6368868517
 20
20.8753151822
 10
-4.6368921473
 20
20.8917497934
 10
-4.6371853831
 20
20.9869471023
  0
LINE
  5
380
100
AcDbEntity
  8
RACCORDO
100
AcDbLine
 62
7
  6
CONTINUOUS
 10
-5.25
 20
-17.5
 11
-5.25
 21
-20.5
  0
LINE
  5
381
100
AcDbEntity
  8
RACCORDO
100
AcDbLine
 62
7
  6
CONTINUOUS
 10
-5.25
 20
-14.0
 11
-5.25
 21
-8.0
  0
LINE
  5
382
100
AcDbEntity
  8
RACCORDO
100
AcDbLine
 62
7
  6
CONTINUOUS
 10
-5.25
 20
8.0
 11
-5.25
 21
12.0
  0
LINE
  5
383
100
AcDbEntity
  8
RACCORDO
100
AcDbLine
 62
250
  6
CONTINUOUS
 10
-4.6767863365
 20
19.8
 11
-4.6767863365
 21
19.9644050436
  0
LINE
  5
384
100
AcDbEntity
  8
RACCORDO
100
AcDbLine
 62
7
  6
CONTINUOUS
 10
-4.65
 20
20.3883708899
 11
-4.65
 21
21.3000114231
  0
LINE
  5
385
100
AcDbEntity
  8
RACCORDO
100
AcDbLine
 62
7
  6
CONTINUOUS
 10
-4.6368868517
 20
20.3842539975
 11
-4.6368868517
 21
20.8753151822
  0
LINE
  5
386
100
AcDbEntity
  8
RACCORDO
100
AcDbLine
 62
250
  6
CONTINUOUS
 10
-4.3373987599
 20
21.2257698144
 11
-4.3368982748
 21
20.5502286569
  0
LINE
  5
387
100
AcDbEntity
  8
RACCORDO
100
AcDbLine
 62
7
  6
CONTINUOUS
 10
9.4290614477
 20
-11.8987808276
 11
9.1
 21
-11.65
  0
LWPOLYLINE
  5
388
100
AcDbEntity
  8
0
100
AcDbPolyline
 62
7
  6
CONTINUOUS
 90
16
 70
0
 10
3.3593358951
 20
-18.0663208702
 10
3.3517489103
 20
-18.050881093
 10
3.3435795315
 20
-18.0358295496
 10
3.3348277589
 20
-18.0211662399
 10
3.3254686655
 20
-18.0068791108
 10
3.3155271782
 20
-17.9929802155
 10
3.3050780774
 20
-17.9795057129
 10
3.2941272681
 20
-17.9664512595
 10
3.2826688453
 20
-17.9538211989
 10
3.2707598746
 20
-17.9416647211
 10
3.2584060094
 20
-17.9299773917
 10
3.2456015963
 20
-17.9187636452
 10
3.2323867403
 20
-17.9080859746
 10
3.2187748096
 20
-17.8979652111
 10
3.204752436
 20
-17.8883805236
 10
3.1903196195
 20
-17.8793319121
  0
LINE
  5
389
100
AcDbEntity
  8
0
100
AcDbLine
 62
7
  6
CONTINUOUS
 10
-1.070672
 20
-9.136274
 11
-0.507508
 21
-10.637993
  0
LINE
  5
38A
100
AcDbEntity
  8
0
100
AcDbLine
 62
7
  6
CONTINUOUS
 10
-1.134218
 20
-11.58222
 11
-0.361189
 21
-13.649994
  0
LINE
  5
38B
100
AcDbEntity
  8
0
100
AcDbLine
 62
7
  6
CONTINUOUS
 10
-0.192586
 20
-13.417767
 11
-0.965615
 21
-11.349993
  0
LINE
  5
38C
100
AcDbEntity
  8
0
100
AcDbLine
 62
7
  6
CONTINUOUS
 10
-0.471223
 20
-9.615054
 11
-0.946209
 21
-8.338203
  0
LWPOLYLINE
  5
38D
100
AcDbEntity
  8
0
100
AcDbPolyline
 62
7
  6
CONTINUOUS
 90
7
 70
0
 10
1.1946938447
 20
-19.7910092568
 10
1.1844419729
 20
-19.7548899914
 10
1.1756222092
 20
-19.7174928077
 10
1.1682345535
 20
-19.6788177056
 10
1.1622790059
 20
-19.6388646852
 10
1.1577555663
 20
-19.5976337465
 10
1.1546642349
 20
-19.5551248893
  0
LWPOLYLINE
  5
38E
100
AcDbEntity
  8
0
100
AcDbPolyline
 62
7
  6
CONTINUOUS
 90
7
 70
0
 10
0.2672198968
 20
-18.2094743886
 10
0.2774481873
 20
-18.2464484814
 10
0.2863421832
 20
-18.2845388836
 10
0.2939018844
 20
-18.3237455951
 10
0.3001272911
 20
-18.364068616
 10
0.3050184031
 20
-18.4055079463
 10
0.3085752206
 20
-18.448063586
  0
LWPOLYLINE
  5
38F
100
AcDbEntity
  8
0
100
AcDbPolyline
 62
7
  6
CONTINUOUS
 90
7
 70
0
 10
-2.3095435722
 20
-19.507399691
 10
-2.310024348
 20
-19.4750681366
 10
-2.3113732099
 20
-19.4423082089
 10
-2.313590158
 20
-19.4091199079
 10
-2.3166751921
 20
-19.3755032336
 10
-2.3206283123
 20
-19.341458186
 10
-2.3254495187
 20
-19.3069847652
  0
LWPOLYLINE
  5
390
100
AcDbEntity
  8
0
100
AcDbPolyline
 62
7
  6
CONTINUOUS
 90
19
 70
0
 10
-2.328630708
 20
-18.3844398
 10
-2.3287782753
 20
-18.3588432683
 10
-2.3295520172
 20
-18.3333386865
 10
-2.3309519338
 20
-18.3079260546
 10
-2.3329314686
 20
-18.2825995952
 10
-2.335537178
 20
-18.2573650857
 10
-2.3389087315
 20
-18.2322398588
 10
-2.3430336452
 20
-18.2072090349
 10
-2.3479244029
 20
-18.1822874936
 10
-2.353758126
 20
-18.1575372057
 10
-2.3605255844
 20
-18.1328946674
 10
-2.3682360081
 20
-18.1084233826
 10
-2.3770942081
 20
-18.0843758331
 10
-2.3870949321
 20
-18.0607213571
 10
-2.3982434323
 20
-18.0374906165
 10
-2.4107602765
 20
-18.0150280789
 10
-2.4247189873
 20
-17.9934485669
 10
-2.4400460421
 20
-17.972637258
 10
-2.4567414409
 20
-17.9525941521
  0
LWPOLYLINE
  5
391
100
AcDbEntity
  8
0
100
AcDbPolyline
 62
7
  6
CONTINUOUS
 90
19
 70
0
 10
-3.4547718482
 20
-19.580567
 10
-3.4546322723
 20
-19.6075328186
 10
-3.4538985775
 20
-19.6344060039
 10
-3.4525707636
 20
-19.661186556
 10
-3.4506975828
 20
-19.6878743441
 10
-3.448230283
 20
-19.7144694988
 10
-3.4450226083
 20
-19.7409724124
 10
-3.4410972027
 20
-19.767400044
 10
-3.4364314222
 20
-19.7937354345
 10
-3.4308110794
 20
-19.8199280978
 10
-3.4242476577
 20
-19.8460492128
 10
-3.4167296737
 20
-19.8720276006
 10
-3.4080084901
 20
-19.8975992399
 10
-3.3980898448
 20
-19.9227983809
 10
-3.386968
 20
-19.9475907733
 10
-3.3743771045
 20
-19.9716096446
 10
-3.3602285412
 20
-19.9947327373
 10
-3.3446109272
 20
-20.0170823089
 10
-3.3275242625
 20
-20.0386583594
  0
LINE
  5
392
100
AcDbEntity
  8
0
100
AcDbLine
 62
7
  6
CONTINUOUS
 10
-3.42296
 20
-18.3653540962
 11
-3.42296
 21
-18.393983
  0
LINE
  5
393
100
AcDbEntity
  8
0
100
AcDbLine
 62
7
  6
CONTINUOUS
 10
-3.39
 20
-11.349993
 11
-3.39
 21
-13.649994
  0
LINE
  5
394
100
AcDbEntity
  8
0
100
AcDbLine
 62
7
  6
CONTINUOUS
 10
-3.3155517821
 20
8.4965397575
 11
-3.3155517821
 21
10.2175256378
  0
LINE
  5
395
100
AcDbEntity
  8
0
100
AcDbLine
 62
7
  6
CONTINUOUS
 10
-3.119599
 20
-13.433673
 11
-3.119599
 21
-11.349993
  0
LINE
  5
396
100
AcDbEntity
  8
0
100
AcDbLine
 62
7
  6
CONTINUOUS
 10
-3.1099579961
 20
8.4965397575
 11
-3.1099579961
 21
10.2175256378
  0
LINE
  5
397
100
AcDbEntity
  8
0
100
AcDbLine
 62
7
  6
CONTINUOUS
 10
-3.031674
 20
-18.8584370055
 11
-3.031674
 21
-19.0588519999
  0
LINE
  5
398
100
AcDbEntity
  8
0
100
AcDbLine
 62
7
  6
CONTINUOUS
 10
-2.397469
 20
-13.649994
 11
-2.397469
 21
-13.433673
  0
LINE
  5
399
100
AcDbEntity
  8
0
100
AcDbLine
 62
7
  6
CONTINUOUS
 10
-2.372012
 20
-10.637993
 11
-2.372012
 21
-8.338065
  0
LINE
  5
39A
100
AcDbEntity
  8
0
100
AcDbLine
 62
7
  6
CONTINUOUS
 10
-2.080077
 20
-11.349989
 11
-2.080077
 21
-13.649989
  0
LINE
  5
39B
100
AcDbEntity
  8
0
100
AcDbLine
 62
7
  6
CONTINUOUS
 10
-1.891956
 20
-10.637993
 11
-1.891956
 21
-8.338065
  0
LINE
  5
39C
100
AcDbEntity
  8
0
100
AcDbLine
 62
7
  6
CONTINUOUS
 10
-1.8282293375
 20
9.5295633461
 11
-1.8282293375
 21
11.453414866
  0
LINE
  5
39D
100
AcDbEntity
  8
0
100
AcDbLine
 62
7
  6
CONTINUOUS
 10
-1.813278
 20
-18.1967496044
 11
-1.813278
 21
-18.467151
  0
LINE
  5
39E
100
AcDbEntity
  8
0
100
AcDbLine
 62
7
  6
CONTINUOUS
 10
-1.809675
 20
-13.649989
 11
-1.809675
 21
-11.349989
  0
LWPOLYLINE
  5
39F
100
AcDbEntity
  8
0
100
AcDbPolyline
 62
7
  6
CONTINUOUS
 90
7
 70
0
 10
-3.1684647856
 20
-18.393983
 10
-3.1682243581
 20
-18.3685159072
 10
-3.1673172198
 20
-18.343466564
 10
-3.1657433708
 20
-18.3188349706
 10
-3.1635028112
 20
-18.2946211268
 10
-3.1605955409
 20
-18.2708250328
 10
-3.1570215599
 20
-18.2474466884
  0
LWPOLYLINE
  5
3A0
100
AcDbEntity
  8
0
100
AcDbPolyline
 62
7
  6
CONTINUOUS
 90
7
 70
0
 10
-2.5926694883
 20
-18.4035269358
 10
-2.5931258542
 20
-18.4434580088
 10
-2.5950695757
 20
-18.4822693325
 10
-2.5985006527
 20
-18.5199609069
 10
-2.6034190853
 20
-18.5565327319
 10
-2.6098248733
 20
-18.5919848077
 10
-2.6177180169
 20
-18.626317134
  0
LWPOLYLINE
  5
3A1
100
AcDbEntity
  8
0
100
AcDbPolyline
 62
7
  6
CONTINUOUS
 90
7
 70
0
 10
-2.5767635418
 20
-19.5360303947
 10
-2.5771770604
 20
-19.5657770615
 10
-2.5784679018
 20
-19.5957165697
 10
-2.5806360658
 20
-19.6258489191
 10
-2.5836815526
 20
-19.6561741099
 10
-2.5876043621
 20
-19.686692142
 10
-2.5924044943
 20
-19.7174030153
  0
LINE
  5
3A2
100
AcDbEntity
  8
DRAFT
100
AcDbLine
 62
7
  6
CONTINUOUS
 10
11.0428653412
 20
-2.0
 11
10.0428653412
 21
-2.0
  0
LINE
  5
3A3
100
AcDbEntity
  8
DRAFT
100
AcDbLine
 62
7
  6
CONTINUOUS
 10
-10.0428653412
 20
-2.0
 11
-11.0428653412
 21
-2.0
  0
LWPOLYLINE
  5
3A4
100
AcDbEntity
  8
0
100
AcDbPolyline
 62
7
  6
CONTINUOUS
 90
7
 70
0
 10
2.6325914077
 20
-19.7910092568
 10
2.6223395359
 20
-19.7548899914
 10
2.6135197722
 20
-19.7174928077
 10
2.6061321165
 20
-19.6788177056
 10
2.6001765689
 20
-19.6388646852
 10
2.5956531293
 20
-19.5976337464
 10
2.5925617978
 20
-19.5551248893
  0
LWPOLYLINE
  5
3A5
100
AcDbEntity
  8
0
100
AcDbPolyline
 62
7
  6
CONTINUOUS
 90
7
 70
0
 10
1.7051177113
 20
-18.2094743131
 10
1.7153460072
 20
-18.2464484176
 10
1.7242400077
 20
-18.2845388306
 10
1.7317997129
 20
-18.3237455521
 10
1.7380251228
 20
-18.3640685821
 10
1.7429162373
 20
-18.4055079207
 10
1.7464730565
 20
-18.4480635678
  0
LWPOLYLINE
  5
3A6
100
AcDbEntity
  8
0
100
AcDbPolyline
 62
7
  6
CONTINUOUS
 90
7
 70
0
 10
3.1430152743
 20
-18.2094743132
 10
3.1532435702
 20
-18.2464484176
 10
3.1621375707
 20
-18.2845388306
 10
3.1696972759
 20
-18.3237455521
 10
3.1759226858
 20
-18.3640685822
 10
3.1808138003
 20
-18.4055079207
 10
3.1843706195
 20
-18.4480635678
  0
LWPOLYLINE
  5
3A7
100
AcDbEntity
  8
0
100
AcDbPolyline
 62
7
  6
CONTINUOUS
 90
7
 70
0
 10
0.5597170833
 20
-18.3621904804
 10
0.5527186331
 20
-18.3076269743
 10
0.543441142
 20
-18.2551642299
 10
0.53188461
 20
-18.2048022473
 10
0.5180490372
 20
-18.1565410265
 10
0.5019344236
 20
-18.1103805674
 10
0.4835407691
 20
-18.0663208702
  0
LWPOLYLINE
  5
3A8
100
AcDbEntity
  8
0
100
AcDbPolyline
 62
7
  6
CONTINUOUS
 90
7
 70
0
 10
-0.5391992264
 20
-19.6029703683
 10
-0.5327993352
 20
-19.6603885067
 10
-0.5240152874
 20
-19.7156309973
 10
-0.512847083
 20
-19.7686978402
 10
-0.4992947219
 20
-19.8195890352
 10
-0.4833582042
 20
-19.8683045825
 10
-0.4650375299
 20
-19.914844482
  0
LINE
  5
3A9
100
AcDbEntity
  8
0
100
AcDbLine
 62
7
  6
CONTINUOUS
 10
0.698858
 20
-10.637993
 11
0.483802
 21
-8.338203
  0
LINE
  5
3AA
100
AcDbEntity
  8
0
100
AcDbLine
 62
7
  6
CONTINUOUS
 10
0.130606
 20
-9.142534
 11
0.229236
 21
-10.637993
  0
LWPOLYLINE
  5
3AB
100
AcDbEntity
  8
0
100
AcDbPolyline
 62
7
  6
CONTINUOUS
 90
6
 70
0
 10
-0.2832333294
 20
-19.5551248705
 10
-0.286249761
 20
-19.5034747658
 10
-0.2886886787
 20
-19.4512762849
 10
-0.2905500824
 20
-19.398529428
 10
-0.2918339722
 20
-19.345234195
 10
-0.292540348
 20
-19.2913905858
  0
LWPOLYLINE
  5
3AC
100
AcDbEntity
  8
0
100
AcDbPolyline
 62
7
  6
CONTINUOUS
 90
6
 70
0
 10
1.1546642349
 20
-19.5551248893
 10
1.1516478421
 20
-19.5034759941
 10
1.1492089242
 20
-19.45127751
 10
1.147347481
 20
-19.398529437
 10
1.1460635125
 20
-19.3452317751
 10
1.1453570189
 20
-19.2913845242
  0
LWPOLYLINE
  5
3AD
100
AcDbEntity
  8
0
100
AcDbPolyline
 62
7
  6
CONTINUOUS
 90
6
 70
0
 10
0.3085752206
 20
-18.448063586
 10
0.3116286134
 20
-18.5017174921
 10
0.3140969011
 20
-18.5559664715
 10
0.3159800835
 20
-18.6108105242
 10
0.3172781609
 20
-18.6662496501
 10
0.317991133
 20
-18.7222838494
  0
LWPOLYLINE
  5
3AE
100
AcDbEntity
  8
0
100
AcDbPolyline
 62
7
  6
CONTINUOUS
 90
45
 70
0
 10
-1.3771701371
 20
9.5171633499
 10
-1.376472903
 20
9.4705036287
 10
-1.3750996718
 20
9.4235477996
 10
-1.3728522326
 20
9.375954967
 10
-1.3695470412
 20
9.3280117074
 10
-1.3650844155
 20
9.2806402427
 10
-1.3592084258
 20
9.2341494615
 10
-1.3514604395
 20
9.1886409599
 10
-1.3415251898
 20
9.1447680979
 10
-1.3291834271
 20
9.1029787011
 10
-1.3141592395
 20
9.0632201669
 10
-1.2961560292
 20
9.0254044504
 10
-1.2752528104
 20
8.9901369015
 10
-1.2513910724
 20
8.9576622302
 10
-1.2240234589
 20
8.9276953088
 10
-1.1931818465
 20
8.9007317834
 10
-1.1591608052
 20
8.8774934432
 10
-1.1218851686
 20
8.8581310441
 10
-1.0816407379
 20
8.8427640198
 10
-1.0393463497
 20
8.8317195033
 10
-0.9958562798
 20
8.8248336989
 10
-0.9513914058
 20
8.8214225164
 10
-0.9063139115
 20
8.8207659505
 10
-0.8615201895
 20
8.8225428677
 10
-0.8173518586
 20
8.8273966091
 10
-0.7740606806
 20
8.8360882776
 10
-0.7324360443
 20
8.8490866322
 10
-0.6933381065
 20
8.8662264976
 10
-0.6570985248
 20
8.8873971686
 10
-0.6238686684
 20
8.9125627673
 10
-0.5940212376
 20
8.9410657713
 10
-0.5676146101
 20
8.972419516
 10
-0.5442296395
 20
9.0068323223
 10
-0.5238850054
 20
9.0440429597
 10
-0.5067587688
 20
9.0834304522
 10
-0.4925860298
 20
9.1249983601
 10
-0.4810645791
 20
9.1687646257
 10
-0.4719684116
 20
9.2142461356
 10
-0.46497622
 20
9.2607455995
 10
-0.4596060772
 20
9.308098614
 10
-0.4555726005
 20
9.355969328
 10
-0.4527757777
 20
9.4034706835
 10
-0.4510233807
 20
9.450325024
 10
-0.4501046632
 20
9.4968537186
 10
-0.4498376355
 20
9.5430769902
  0
LWPOLYLINE
  5
3AF
100
AcDbEntity
  8
0
100
AcDbPolyline
 62
7
  6
CONTINUOUS
 90
9
 70
0
 10
-0.5534946574
 20
-19.2426877512
 10
-0.5531200041
 20
-19.2893003258
 10
-0.55240304
 20
-19.335473678
 10
-0.5514072284
 20
-19.3812196503
 10
-0.5500691061
 20
-19.4265264002
 10
-0.5481982837
 20
-19.4713583997
 10
-0.545731298
 20
-19.5157038062
 10
-0.5427316122
 20
-19.5595744624
 10
-0.5391992264
 20
-19.6029703683
  0
LINE
  5
3B0
100
AcDbEntity
  8
0
100
AcDbLine
 62
7
  6
CONTINUOUS
 10
-1.44426
 20
-18.1713000341
 11
-1.44426
 21
-20.15
  0
LINE
  5
3B1
100
AcDbEntity
  8
0
100
AcDbLine
 62
7
  6
CONTINUOUS
 10
-1.385532
 20
-11.349993
 11
-1.385532
 21
-13.649994
  0
LINE
  5
3B2
100
AcDbEntity
  8
0
100
AcDbLine
 62
7
  6
CONTINUOUS
 10
-1.3771701371
 20
9.5171633499
 11
-1.3773650285
 21
11.453414866
  0
LINE
  5
3B3
100
AcDbEntity
  8
0
100
AcDbLine
 62
7
  6
CONTINUOUS
 10
-1.180221
 20
-20.15
 11
-1.180221
 21
-17.85
  0
LINE
  5
3B4
100
AcDbEntity
  8
0
100
AcDbLine
 62
7
  6
CONTINUOUS
 10
-1.134218
 20
-13.649994
 11
-1.134218
 21
-11.58222
  0
LINE
  5
3B5
100
AcDbEntity
  8
0
100
AcDbLine
 62
7
  6
CONTINUOUS
 10
-0.553527
 20
-18.7661864718
 11
-0.5534946574
 21
-19.2426877512
  0
LINE
  5
3B6
100
AcDbEntity
  8
0
100
AcDbLine
 62
7
  6
CONTINUOUS
 10
-0.4498376355
 20
9.5430769902
 11
-0.4498376355
 21
11.453414866
  0
LINE
  5
3B7
100
AcDbEntity
  8
0
100
AcDbLine
 62
7
  6
CONTINUOUS
 10
-0.292540348
 20
-19.2913905858
 11
-0.2926692099
 21
-18.7789072731
  0
LINE
  5
3B8
100
AcDbEntity
  8
0
100
AcDbLine
 62
7
  6
CONTINUOUS
 10
-0.192586
 20
-11.349993
 11
-0.192586
 21
-13.417767
  0
LINE
  5
3B9
100
AcDbEntity
  8
0
100
AcDbLine
 62
7
  6
CONTINUOUS
 10
-0.0100299444
 20
9.4935269617
 11
-0.0100299444
 21
11.453414866
  0
LINE
  5
3BA
100
AcDbEntity
  8
0
100
AcDbLine
 62
7
  6
CONTINUOUS
 10
0.05875
 20
-13.649994
 11
0.05875
 21
-11.349993
  0
LWPOLYLINE
  5
3BB
100
AcDbEntity
  8
0
100
AcDbPolyline
 62
7
  6
CONTINUOUS
 90
7
 70
0
 10
-0.2926692099
 20
-18.7789072731
 10
-0.2925437359
 20
-18.7222860868
 10
-0.2918322369
 20
-18.6662571292
 10
-0.2905347126
 20
-18.6108204003
 10
-0.2886511632
 20
-18.5559759002
 10
-0.2861815887
 20
-18.5017236287
 10
-0.283125989
 20
-18.448063586
  0
LWPOLYLINE
  5
3BC
100
AcDbEntity
  8
0
100
AcDbPolyline
 62
7
  6
CONTINUOUS
 90
58
 70
0
 10
-0.0100299444
 20
9.4935269617
 10
-0.0105313947
 20
9.4362817318
 10
-0.0121985101
 20
9.3792604633
 10
-0.0152705677
 20
9.3225282288
 10
-0.0199792909
 20
9.2661596293
 10
-0.026551467
 20
9.2102051682
 10
-0.0352130154
 20
9.1546916738
 10
-0.0461755759
 20
9.0997078926
 10
-0.0596557175
 20
9.0452822953
 10
-0.0758933585
 20
8.9914727969
 10
-0.0950636694
 20
8.9387727548
 10
-0.1173831359
 20
8.8875631878
 10
-0.1432155291
 20
8.8379950083
 10
-0.1729558357
 20
8.7903627041
 10
-0.2067727886
 20
8.745389073
 10
-0.2445867281
 20
8.7038191158
 10
-0.2858699395
 20
8.6660029908
 10
-0.3302123889
 20
8.6319593727
 10
-0.3772738933
 20
8.6017190994
 10
-0.4267946696
 20
8.5752239043
 10
-0.478243711
 20
8.552536135
 10
-0.5309418536
 20
8.533690477
 10
-0.5844140549
 20
8.5184175229
 10
-0.6384898582
 20
8.506283076
 10
-0.6929873117
 20
8.4968957013
 10
-0.747698901
 20
8.4899307161
 10
-0.8025148943
 20
8.4851523453
 10
-0.8574147021
 20
8.4823340754
 10
-0.9122992059
 20
8.4812577202
 10
-0.9671377515
 20
8.481748688
 10
-1.0220025815
 20
8.4839400296
 10
-1.0768425366
 20
8.4880964953
 10
-1.1315429397
 20
8.4944822001
 10
-1.1860725615
 20
8.5033746091
 10
-1.2402437414
 20
8.5150560503
 10
-1.2937778309
 20
8.5298334581
 10
-1.3464673256
 20
8.5480571358
 10
-1.3981022427
 20
8.5701092881
 10
-1.4481770518
 20
8.5961169049
 10
-1.4960391823
 20
8.6259617706
 10
-1.5412021652
 20
8.6595421476
 10
-1.5833586658
 20
8.6968104127
 10
-1.6221100537
 20
8.7376098102
 10
-1.6570949009
 20
8.7818824716
 10
-1.6879661322
 20
8.8291765344
 10
-1.7147171235
 20
8.8785945619
 10
-1.7375854044
 20
8.9293606403
 10
-1.7570570153
 20
8.9812620016
 10
-1.7735580872
 20
9.0342212506
 10
-1.7873554488
 20
9.087871133
 10
-1.7986841606
 20
9.1417896147
 10
-1.8078141968
 20
9.1960772046
 10
-1.8149539049
 20
9.2507206176
 10
-1.8203095153
 20
9.3056649081
 10
-1.8241041829
 20
9.3610405947
 10
-1.8265463606
 20
9.4168677293
 10
-1.8278468899
 20
9.4730546145
 10
-1.8282293375
 20
9.5295633461
  0
LINE
  5
3BD
100
AcDbEntity
  8
0
100
AcDbLine
 62
7
  6
CONTINUOUS
 10
-1.174268
 20
-10.637993
 11
-1.070672
 21
-9.136274
  0
LINE
  5
3BE
100
AcDbEntity
  8
0
100
AcDbLine
 62
7
  6
CONTINUOUS
 10
-1.425869
 20
-8.338203
 11
-1.633526
 21
-10.637993
  0
LINE
  5
3BF
100
AcDbEntity
  8
0
100
AcDbLine
 62
7
  6
CONTINUOUS
 10
-3.02989
 20
-8.338203
 11
-3.481663
 21
-9.92122
  0
LINE
  5
3C0
100
AcDbEntity
  8
0
100
AcDbLine
 62
7
  6
CONTINUOUS
 10
-3.289406
 20
-10.637993
 11
-2.550162
 21
-8.338203
  0
LINE
  5
3C1
100
AcDbEntity
  8
0
100
AcDbLine
 62
7
  6
CONTINUOUS
 10
3.12209863
 20
10.2209858803
 11
3.606725868
 21
11.3976980933
  0
LINE
  5
3C2
100
AcDbEntity
  8
RACCORDO
100
AcDbLine
 62
250
  6
CONTINUOUS
 10
-11.0428653412
 20
-1.5438731188
 11
-10.0428653412
 21
-1.5438731188
  0
LINE
  5
3C3
100
AcDbEntity
  8
RACCORDO
100
AcDbLine
 62
250
  6
CONTINUOUS
 10
10.0428653412
 20
-1.5438731188
 11
11.0428653412
 21
-1.5438731188
  0
LINE
  5
3C4
100
AcDbEntity
  8
RACCORDO
100
AcDbLine
 62
250
  6
CONTINUOUS
 10
-11.0428653412
 20
-1.0514692423
 11
-10.0428653412
 21
-1.0514692423
  0
LINE
  5
3C5
100
AcDbEntity
  8
RACCORDO
100
AcDbLine
 62
250
  6
CONTINUOUS
 10
10.0428653412
 20
-1.0514692423
 11
11.0428653412
 21
-1.0514692423
  0
LINE
  5
3C6
100
AcDbEntity
  8
0
100
AcDbLine
 62
7
  6
CONTINUOUS
 10
2.66563
 20
-10.637993
 11
1.959997
 21
-8.338203
  0
LINE
  5
3C7
100
AcDbEntity
  8
0
100
AcDbLine
 62
7
  6
CONTINUOUS
 10
3.384112
 20
-13.65
 11
2.719243
 21
-11.349978
  0
LINE
  5
3C8
100
AcDbEntity
  8
0
100
AcDbLine
 62
7
  6
CONTINUOUS
 10
2.941927
 20
-13.067821
 11
3.104146
 21
-13.65
  0
LINE
  5
3C9
100
AcDbEntity
  8
0
100
AcDbLine
 62
7
  6
CONTINUOUS
 10
2.03531
 20
-10.178873
 11
2.15967
 21
-10.637993
  0
LINE
  5
3CA
100
AcDbEntity
  8
0
100
AcDbLine
 62
7
  6
CONTINUOUS
 10
2.544278
 20
-11.601313
 11
2.878303
 21
-12.8515
  0
LINE
  5
3CB
100
AcDbEntity
  8
0
100
AcDbLine
 62
7
  6
CONTINUOUS
 10
1.718779
 20
-8.970127
 11
1.939371
 21
-9.823608
  0
LWPOLYLINE
  5
3CC
100
AcDbEntity
  8
0
100
AcDbPolyline
 62
7
  6
CONTINUOUS
 90
7
 70
0
 10
1.9976146463
 20
-18.3621904804
 10
1.9906161961
 20
-18.3076269743
 10
1.981338705
 20
-18.2551642299
 10
1.969782173
 20
-18.2048022473
 10
1.9559466002
 20
-18.1565410265
 10
1.9398319866
 20
-18.1103805674
 10
1.9214383321
 20
-18.0663208702
  0
LWPOLYLINE
  5
3CD
100
AcDbEntity
  8
0
100
AcDbPolyline
 62
7
  6
CONTINUOUS
 90
7
 70
0
 10
0.8986983366
 20
-19.6029703683
 10
0.9050982278
 20
-19.6603885067
 10
0.9138822756
 20
-19.7156309973
 10
0.92505048
 20
-19.7686978402
 10
0.9386028411
 20
-19.8195890352
 10
0.9545393588
 20
-19.8683045825
 10
0.9728600331
 20
-19.914844482
  0
LWPOLYLINE
  5
3CE
100
AcDbEntity
  8
0
100
AcDbPolyline
 62
7
  6
CONTINUOUS
 90
7
 70
0
 10
2.3365961737
 20
-19.6029703683
 10
2.3429960649
 20
-19.6603885067
 10
2.3517801127
 20
-19.7156309973
 10
2.3629483172
 20
-19.7686978402
 10
2.3765006782
 20
-19.8195890352
 10
2.392437196
 20
-19.8683045825
 10
2.4107578703
 20
-19.914844482
  0
LWPOLYLINE
  5
3CF
100
AcDbEntity
  8
0
100
AcDbPolyline
 62
7
  6
CONTINUOUS
 90
6
 70
0
 10
2.5925617978
 20
-19.5551248893
 10
2.5895453565
 20
-19.5034722931
 10
2.5871064386
 20
-19.451273809
 10
2.5852450439
 20
-19.398529437
 10
2.5839611726
 20
-19.345239177
 10
2.5832548246
 20
-19.291403029
  0
LWPOLYLINE
  5
3D0
100
AcDbEntity
  8
0
100
AcDbPolyline
 62
7
  6
CONTINUOUS
 90
6
 70
0
 10
1.7464730565
 20
-18.4480635678
 10
1.7495264353
 20
-18.5017180975
 10
1.751994675
 20
-18.5559670624
 10
1.7538777758
 20
-18.6108104624
 10
1.7551757376
 20
-18.6662482975
 10
1.7558885604
 20
-18.7222805677
  0
LWPOLYLINE
  5
3D1
100
AcDbEntity
  8
0
100
AcDbPolyline
 62
7
  6
CONTINUOUS
 90
6
 70
0
 10
3.1843706195
 20
-18.4480635678
 10
3.1874239768
 20
-18.5017185477
 10
3.1898922166
 20
-18.5559675125
 10
3.1917753388
 20
-18.6108104624
 10
3.1930733434
 20
-18.6662473973
 10
3.1937862305
 20
-18.7222783172
  0
LWPOLYLINE
  5
3D2
100
AcDbEntity
  8
0
100
AcDbPolyline
 62
7
  6
CONTINUOUS
 90
9
 70
0
 10
0.5787880363
 20
-18.7082104608
 10
0.5781275174
 20
-18.6634203123
 10
0.5769944433
 20
-18.6190569284
 10
0.5754093791
 20
-18.5751072794
 10
0.5733517598
 20
-18.5315843951
 10
0.57075989
 20
-18.4885273641
 10
0.5676132048
 20
-18.4459492162
 10
0.5639322693
 20
-18.4038369216
 10
0.5597170833
 20
-18.3621904804
  0
LWPOLYLINE
  5
3D3
100
AcDbEntity
  8
0
100
AcDbPolyline
 62
7
  6
CONTINUOUS
 90
9
 70
0
 10
2.0166859491
 20
-18.7082166141
 10
2.0160253537
 20
-18.6634227979
 10
2.0148922138
 20
-18.6190569693
 10
2.013307096
 20
-18.5751065082
 10
2.0112494338
 20
-18.5315840347
 10
2.0086575276
 20
-18.4885274091
 10
2.0055108111
 20
-18.4459492516
 10
2.0018298506
 20
-18.403836942
 10
1.9976146463
 20
-18.3621904804
  0
LWPOLYLINE
  5
3D4
100
AcDbEntity
  8
0
100
AcDbPolyline
 62
7
  6
CONTINUOUS
 90
9
 70
0
 10
0.884403043
 20
-19.2426917432
 10
0.8847776139
 20
-19.2893019226
 10
0.885494523
 20
-19.335473678
 10
0.8864903162
 20
-19.381219118
 10
0.8878284477
 20
-19.426526134
 10
0.8896992793
 20
-19.4713583997
 10
0.892166265
 20
-19.5157038062
 10
0.8951659507
 20
-19.5595744624
 10
0.8986983366
 20
-19.6029703683
  0
LWPOLYLINE
  5
3D5
100
AcDbEntity
  8
0
100
AcDbPolyline
 62
7
  6
CONTINUOUS
 90
9
 70
0
 10
2.3223006477
 20
-19.2426917432
 10
2.322675358
 20
-19.2893019226
 10
2.3233923601
 20
-19.335473678
 10
2.3243881844
 20
-19.381219118
 10
2.3257263004
 20
-19.426526134
 10
2.3275971165
 20
-19.4713583997
 10
2.3300641021
 20
-19.5157038062
 10
2.3330637879
 20
-19.5595744624
 10
2.3365961737
 20
-19.6029703683
  0
LWPOLYLINE
  5
3D6
100
AcDbEntity
  8
0
100
AcDbPolyline
 62
7
  6
CONTINUOUS
 90
7
 70
0
 10
1.7758186036
 20
10.6409582003
 10
1.7757489149
 20
10.6574394161
 10
1.7755191545
 20
10.6737598317
 10
1.7751001661
 20
10.6899041448
 10
1.7744652457
 20
10.7058580819
 10
1.7735900654
 20
10.7216083677
 10
1.7724525978
 20
10.7371426949
  0
LINE
  5
3D7
100
AcDbEntity
  8
0
100
AcDbLine
 62
7
  6
CONTINUOUS
 10
0.317991133
 20
-18.7222838494
 11
0.318119
 21
-19.2401740459
  0
LINE
  5
3D8
100
AcDbEntity
  8
0
100
AcDbLine
 62
7
  6
CONTINUOUS
 10
0.479694
 20
-11.349993
 11
0.479694
 21
-13.649994
  0
LINE
  5
3D9
100
AcDbEntity
  8
0
100
AcDbLine
 62
7
  6
CONTINUOUS
 10
0.5780183277
 20
8.5381532716
 11
0.5780183277
 21
11.4530053617
  0
LINE
  5
3DA
100
AcDbEntity
  8
0
100
AcDbLine
 62
7
  6
CONTINUOUS
 10
0.578976224
 20
-19.1892807611
 11
0.5787880363
 21
-18.7082104608
  0
LINE
  5
3DB
100
AcDbEntity
  8
0
100
AcDbLine
 62
7
  6
CONTINUOUS
 10
0.750095
 20
-13.433673
 11
0.750095
 21
-12.571571
  0
LINE
  5
3DC
100
AcDbEntity
  8
0
100
AcDbLine
 62
7
  6
CONTINUOUS
 10
0.750095
 20
-12.355249
 11
0.750095
 21
-11.566314
  0
LINE
  5
3DD
100
AcDbEntity
  8
0
100
AcDbLine
 62
7
  6
CONTINUOUS
 10
0.884371
 20
-18.7661565372
 11
0.884403043
 21
-19.2426917432
  0
LINE
  5
3DE
100
AcDbEntity
  8
0
100
AcDbLine
 62
7
  6
CONTINUOUS
 10
1.0297016454
 20
8.5381532716
 11
1.0297016454
 21
9.8002457332
  0
LINE
  5
3DF
100
AcDbEntity
  8
0
100
AcDbLine
 62
7
  6
CONTINUOUS
 10
1.0297016454
 20
10.1389058454
 11
1.0297016454
 21
11.1147547539
  0
LINE
  5
3E0
100
AcDbEntity
  8
0
100
AcDbLine
 62
7
  6
CONTINUOUS
 10
1.1453570189
 20
-19.2913845242
 11
1.145228
 21
-18.7789185504
  0
LINE
  5
3E1
100
AcDbEntity
  8
0
100
AcDbLine
 62
7
  6
CONTINUOUS
 10
1.497674
 20
-12.571571
 11
1.497674
 21
-12.355249
  0
LINE
  5
3E2
100
AcDbEntity
  8
0
100
AcDbLine
 62
7
  6
CONTINUOUS
 10
1.53903
 20
-11.566314
 11
1.53903
 21
-11.349993
  0
LINE
  5
3E3
100
AcDbEntity
  8
0
100
AcDbLine
 62
7
  6
CONTINUOUS
 10
1.561298
 20
-13.649994
 11
1.561298
 21
-13.433673
  0
LINE
  5
3E4
100
AcDbEntity
  8
0
100
AcDbLine
 62
7
  6
CONTINUOUS
 10
1.7558885604
 20
-18.7222805677
 11
1.7560162443
 21
-19.2401797899
  0
LINE
  5
3E5
100
AcDbEntity
  8
0
100
AcDbLine
 62
7
  6
CONTINUOUS
 10
2.016874
 20
-19.189301894
 11
2.0166859491
 21
-18.7082166141
  0
LWPOLYLINE
  5
3E6
100
AcDbEntity
  8
0
100
AcDbPolyline
 62
7
  6
CONTINUOUS
 90
7
 70
0
 10
0.318119
 20
-19.2401740459
 10
0.3179923056
 20
-19.2951766993
 10
0.3172871936
 20
-19.3495991634
 10
0.316003664
 20
-19.4034414382
 10
0.3141417167
 20
-19.4567035236
 10
0.3117013518
 20
-19.5093854196
 10
0.3086825694
 20
-19.5614871263
  0
LWPOLYLINE
  5
3E7
100
AcDbEntity
  8
0
100
AcDbPolyline
 62
7
  6
CONTINUOUS
 90
7
 70
0
 10
1.145228
 20
-18.7789185504
 10
1.1453536309
 20
-18.7222923491
 10
1.1460652479
 20
-18.6662596294
 10
1.1473628507
 20
-18.6108203914
 10
1.1492464396
 20
-18.5559746352
 10
1.1517160144
 20
-18.5017223606
 10
1.1547715752
 20
-18.4480635678
  0
LWPOLYLINE
  5
3E8
100
AcDbEntity
  8
0
100
AcDbPolyline
 62
7
  6
CONTINUOUS
 90
7
 70
0
 10
1.7560162443
 20
-19.2401797899
 10
1.7558897331
 20
-19.2951799293
 10
1.7551847704
 20
-19.3496005032
 10
1.7539013563
 20
-19.4034415117
 10
1.7520394908
 20
-19.4567029547
 10
1.7495991738
 20
-19.5093848323
 10
1.7465804053
 20
-19.5614871445
  0
LWPOLYLINE
  5
3E9
100
AcDbEntity
  8
0
100
AcDbPolyline
 62
7
  6
CONTINUOUS
 90
33
 70
0
 10
2.2275019212
 20
10.6466912615
 10
2.2271895732
 20
10.6003766345
 10
2.226085466
 20
10.5540029741
 10
2.2239418878
 20
10.5076916229
 10
2.2205159803
 20
10.4615735132
 10
2.2155674492
 20
10.4157548302
 10
2.2088544306
 20
10.3703176222
 10
2.200128578
 20
10.3253260273
 10
2.189161129
 20
10.2809462034
 10
2.1757589464
 20
10.2374071609
 10
2.1597488209
 20
10.194896191
 10
2.1409537559
 20
10.153469737
 10
2.1193565138
 20
10.1133173299
 10
2.095054326
 20
10.0748271147
 10
2.0681230236
 20
10.0383482691
 10
2.038507433
 20
10.0040964028
 10
2.0061795016
 20
9.9724020609
 10
1.9712570974
 20
9.9437586973
 10
1.9339146867
 20
9.9185752136
 10
1.8943794755
 20
9.8967263593
 10
1.8530292762
 20
9.8779612572
 10
1.8104478446
 20
9.8620811325
 10
1.7671328659
 20
9.848803323
 10
1.7232970181
 20
9.8377634618
 10
1.6791016674
 20
9.8286274715
 10
1.6348763183
 20
9.8211289381
 10
1.5907154196
 20
9.8150661765
 10
1.5463780195
 20
9.8102651427
 10
1.5017757383
 20
9.806587083
 10
1.4569818885
 20
9.8039043903
 10
1.4119961317
 20
9.8020760668
 10
1.3668129475
 20
9.8009568306
 10
1.3214216264
 20
9.8003976015
  0
LWPOLYLINE
  5
3EA
100
AcDbEntity
  8
0
100
AcDbPolyline
 62
7
  6
CONTINUOUS
 90
7
 70
0
 10
-0.283125989
 20
-18.448063586
 10
-0.2800834359
 20
-18.4050580305
 10
-0.2755971324
 20
-18.363318671
 10
-0.2696670787
 20
-18.3228455077
 10
-0.2622932747
 20
-18.2836385405
 10
-0.2534757203
 20
-18.2456977694
 10
-0.2432144156
 20
-18.2090231944
  0
LWPOLYLINE
  5
3EB
100
AcDbEntity
  8
0
100
AcDbPolyline
 62
7
  6
CONTINUOUS
 90
7
 70
0
 10
0.3086825694
 20
-19.5614871263
 10
0.3051713314
 20
-19.6034906376
 10
0.3002048469
 20
-19.6443538845
 10
0.293783116
 20
-19.6840768668
 10
0.2859061387
 20
-19.7226595847
 10
0.2765739149
 20
-19.760102038
 10
0.2657864446
 20
-19.7964042269
  0
LWPOLYLINE
  5
3EC
100
AcDbEntity
  8
0
100
AcDbPolyline
 62
7
  6
CONTINUOUS
 90
10
 70
0
 10
-0.5344398065
 20
-18.3748962321
 10
-0.5385967376
 20
-18.4165836799
 10
-0.5422326114
 20
-18.4587253977
 10
-0.5453474278
 20
-18.5013213853
 10
-0.5479251543
 20
-18.544380921
 10
-0.5499818234
 20
-18.5878947266
 10
-0.5515655328
 20
-18.631834968
 10
-0.5526923149
 20
-18.6761923669
 10
-0.5533461373
 20
-18.7209762015
 10
-0.553527
 20
-18.7661864718
  0
LWPOLYLINE
  5
3ED
100
AcDbEntity
  8
0
100
AcDbPolyline
 62
7
  6
CONTINUOUS
 90
7
 70
0
 10
-2.3458034075
 20
-18.581459871
 10
-2.3406182518
 20
-18.5500231386
 10
-2.3363623117
 20
-18.5180264278
 10
-2.3330355873
 20
-18.4854697386
 10
-2.3306380785
 20
-18.4523530709
 10
-2.3291697854
 20
-18.4186764247
 10
-2.328630708
 20
-18.3844398
  0
LWPOLYLINE
  5
3EE
100
AcDbEntity
  8
0
100
AcDbPolyline
 62
7
  6
CONTINUOUS
 90
13
 70
0
 10
-2.5924044943
 20
-19.7174030153
 10
-2.5946051473
 20
-19.7298257795
 10
-2.5971232157
 20
-19.7421870727
 10
-2.5999586995
 20
-19.7544868949
 10
-2.6030764096
 20
-19.7667369149
 10
-2.606511535
 20
-19.778925464
 10
-2.6103696427
 20
-19.7910175363
 10
-2.6146504971
 20
-19.8030371005
 10
-2.6193543338
 20
-19.814960188
 10
-2.6245874264
 20
-19.8266798869
 10
-2.6303851994
 20
-19.8381605599
 10
-2.6367122283
 20
-19.8494378443
 10
-2.6435685131
 20
-19.86051174
  0
LWPOLYLINE
  5
3EF
100
AcDbEntity
  8
RACCORDO
100
AcDbPolyline
 62
250
  6
CONTINUOUS
 90
8
 70
0
 10
4.6404622304
 20
21.2904736535
 10
4.6403164666
 20
21.289689604
 10
4.6401722431
 20
21.2874595958
 10
4.6400295599
 20
21.2837836288
 10
4.6398874255
 20
21.278687613
 10
4.6397468314
 20
21.2721456384
 10
4.6396107517
 20
21.264079975
 10
4.6393541182
 20
21.2433257616
  0
LWPOLYLINE
  5
3F0
100
AcDbEntity
  8
0
100
AcDbPolyline
 62
7
  6
CONTINUOUS
 90
7
 70
0
 10
-2.338174274
 20
-19.7905255733
 10
-2.3292650562
 20
-19.7465714558
 10
-2.3220108121
 20
-19.7013239265
 10
-2.3164115416
 20
-19.6547829853
 10
-2.3124672448
 20
-19.6069486324
 10
-2.3101779216
 20
-19.5578208676
 10
-2.3095435722
 20
-19.507399691
  0
LWPOLYLINE
  5
3F1
100
AcDbEntity
  8
0
100
AcDbPolyline
 62
7
  6
CONTINUOUS
 90
7
 70
0
 10
-3.1570215599
 20
-18.2474466884
 10
-3.1523950178
 20
-18.2253229276
 10
-3.1465645471
 20
-18.204003123
 10
-3.1395301478
 20
-18.1834872746
 10
-3.1312918199
 20
-18.1637753825
 10
-3.1218495634
 20
-18.1448674466
 10
-3.1112033783
 20
-18.1267634669
  0
LINE
  5
3F2
100
AcDbEntity
  8
RACCORDO
100
AcDbLine
 62
250
  6
CONTINUOUS
 10
11.0428653412
 20
1.0514692423
 11
10.0428653412
 21
1.0514692423
  0
LINE
  5
3F3
100
AcDbEntity
  8
RACCORDO
100
AcDbLine
 62
250
  6
CONTINUOUS
 10
-10.0428653412
 20
1.0514692423
 11
-11.0428653412
 21
1.0514692423
  0
LINE
  5
3F4
100
AcDbEntity
  8
RACCORDO
100
AcDbLine
 62
250
  6
CONTINUOUS
 10
11.0428653412
 20
1.5438731188
 11
10.0428653412
 21
1.5438731188
  0
LINE
  5
3F5
100
AcDbEntity
  8
RACCORDO
100
AcDbLine
 62
250
  6
CONTINUOUS
 10
-10.0428653412
 20
1.5438731188
 11
-11.0428653412
 21
1.5438731188
  0
LINE
  5
3F6
100
AcDbEntity
  8
DRAFT
100
AcDbLine
 62
7
  6
CONTINUOUS
 10
-11.0428653412
 20
2.0
 11
-10.0428653412
 21
2.0
  0
LINE
  5
3F7
100
AcDbEntity
  8
DRAFT
100
AcDbLine
 62
7
  6
CONTINUOUS
 10
10.0428653412
 20
2.0
 11
11.0428653412
 21
2.0
  0
LINE
  5
3F8
100
AcDbEntity
  8
0
100
AcDbLine
 62
7
  6
CONTINUOUS
 10
-3.2128480867
 20
11.3942378508
 11
-2.7282208486
 21
10.2175256378
  0
LWPOLYLINE
  5
3F9
100
AcDbEntity
  8
0
100
AcDbPolyline
 62
7
  6
CONTINUOUS
 90
6
 70
0
 10
3.8098910621
 20
-9.9404763226
 10
3.8296039023
 20
-9.99656557
 10
3.8487358771
 20
-10.0536832636
 10
3.8672869864
 20
-10.1118293062
 10
3.8849865216
 20
-10.171095189
 10
3.9194551215
 20
-10.2924365963
  0
LINE
  5
3FA
100
AcDbEntity
  8
0
100
AcDbLine
 62
7
  6
CONTINUOUS
 10
3.9553901795
 20
-10.4166077654
 11
4.0122772486
 21
-10.6117683153
  0
LINE
  5
3FB
100
AcDbEntity
  8
0
100
AcDbLine
 62
7
  6
CONTINUOUS
 10
3.9194551215
 20
-10.2924365963
 11
3.9553901795
 21
-10.4166077654
  0
LINE
  5
3FC
100
AcDbEntity
  8
0
100
AcDbLine
 62
7
  6
CONTINUOUS
 10
4.0198623394
 20
-10.6379928336
 11
4.0122772486
 21
-10.6117683153
  0
LINE
  5
3FD
100
AcDbEntity
  8
0
100
AcDbLine
 62
7
  6
CONTINUOUS
 10
4.3584861086
 20
-10.1683849692
 11
4.3175223708
 21
-10.0155866371
  0
LINE
  5
3FE
100
AcDbEntity
  8
0
100
AcDbLine
 62
7
  6
CONTINUOUS
 10
4.4606110974
 20
-10.5592781953
 11
4.4816207207
 21
-10.6379928336
  0
LWPOLYLINE
  5
3FF
100
AcDbEntity
  8
0
100
AcDbPolyline
 62
7
  6
CONTINUOUS
 90
22
 70
0
 10
4.3175223708
 20
-10.0155866371
 10
4.3110661311
 20
-9.9908115427
 10
4.3043131379
 20
-9.9661051787
 10
4.2972633911
 20
-9.9414675454
 10
4.2900085061
 20
-9.9168527347
 10
4.2824568676
 20
-9.8923066541
 10
4.274333629
 20
-9.8679670368
 10
4.2656020277
 20
-9.8438395908
 10
4.2562988264
 20
-9.8199186267
 10
4.2462594665
 20
-9.7963247972
 10
4.235509925
 20
-9.7730400126
 10
4.2240242249
 20
-9.7500823954
 10
4.2115598777
 20
-9.7276269341
 10
4.198154699
 20
-9.7056135704
 10
4.1837708731
 20
-9.6841024138
 10
4.1680524642
 20
-9.6634487349
 10
4.1510365699
 20
-9.643540467
 10
4.1326860925
 20
-9.624489762
 10
4.1125338033
 20
-9.6069882722
 10
4.0904239591
 20
-9.5912666098
 10
4.0665123031
 20
-9.5770943076
 10
4.0407988352
 20
-9.564471425
  0
LINE
  5
400
100
AcDbEntity
  8
0
100
AcDbLine
 62
7
  6
CONTINUOUS
 10
4.4606110974
 20
-10.5592781953
 11
4.3584861086
 21
-10.1683849692
  0
LWPOLYLINE
  5
401
100
AcDbEntity
  8
0
100
AcDbPolyline
 62
7
  6
CONTINUOUS
 90
7
 70
0
 10
3.4355122093
 20
-18.3621904804
 10
3.428513759
 20
-18.3076269743
 10
3.4192362679
 20
-18.2551642299
 10
3.407679736
 20
-18.2048022473
 10
3.3938441632
 20
-18.1565410265
 10
3.3777295496
 20
-18.1103805674
 10
3.3593358951
 20
-18.0663208702
  0
LWPOLYLINE
  5
402
100
AcDbEntity
  8
0
100
AcDbPolyline
 62
7
  6
CONTINUOUS
 90
22
 70
0
 10
2.2258583343
 20
10.7371426949
 10
2.2220913831
 20
10.8057623277
 10
2.2145905296
 20
10.8713320143
 10
2.203355774
 20
10.9338517548
 10
2.1884786189
 20
10.9933858927
 10
2.1698675616
 20
11.0498700844
 10
2.147248094
 20
11.1031112996
 10
2.1206043779
 20
11.1533664839
 10
2.0899522515
 20
11.2003786917
 10
2.0550647215
 20
11.2431840553
 10
2.0157325648
 20
11.2814483486
 10
1.9721650043
 20
11.3155057977
 10
1.9247627155
 20
11.3453952136
 10
1.8733200258
 20
11.3708807389
 10
1.8180426078
 20
11.3921982309
 10
1.7599481545
 20
11.4100940726
 10
1.6992934137
 20
11.424598609
 10
1.6358216378
 20
11.4356814951
 10
1.5697802765
 20
11.4439980786
 10
1.5012518133
 20
11.4497668089
 10
1.4301537647
 20
11.4527692366
 10
0.5780183277
 20
11.4530053617
  0
LWPOLYLINE
  5
403
100
AcDbEntity
  8
0
100
AcDbPolyline
 62
7
  6
CONTINUOUS
 90
7
 70
0
 10
2.2258583343
 20
10.7371426949
 10
2.2263915563
 20
10.722291147
 10
2.2268116024
 20
10.7073450887
 10
2.2271253082
 20
10.6923081883
 10
2.2273398524
 20
10.6771842563
 10
2.2274627627
 20
10.6619772471
 10
2.2275019212
 20
10.6466912615
  0
LWPOLYLINE
  5
404
100
AcDbEntity
  8
0
100
AcDbPolyline
 62
7
  6
CONTINUOUS
 90
9
 70
0
 10
3.4545837548
 20
-18.7082330772
 10
3.4539230138
 20
-18.6634293832
 10
3.4527897768
 20
-18.6190569693
 10
3.4512046266
 20
-18.5751043131
 10
3.4491469806
 20
-18.5315829371
 10
3.4465550906
 20
-18.4885274091
 10
3.4434083741
 20
-18.4459492516
 10
3.4397274136
 20
-18.403836942
 10
3.4355122093
 20
-18.3621904804
  0
LINE
  5
405
100
AcDbEntity
  8
0
100
AcDbLine
 62
7
  6
CONTINUOUS
 10
2.322268
 20
-18.7662138797
 11
2.3223006477
 21
-19.2426917432
  0
LINE
  5
406
100
AcDbEntity
  8
0
100
AcDbLine
 62
7
  6
CONTINUOUS
 10
2.5832548246
 20
-19.291403029
 11
2.583126
 21
-18.7788841395
  0
LINE
  5
407
100
AcDbEntity
  8
0
100
AcDbLine
 62
7
  6
CONTINUOUS
 10
2.8065975821
 20
-10.6379928336
 11
2.8065975821
 21
-8.3650723535
  0
LINE
  5
408
100
AcDbEntity
  8
0
100
AcDbLine
 62
7
  6
CONTINUOUS
 10
3.1937862305
 20
-18.7222783172
 11
3.193914
 21
-19.2401837681
  0
LINE
  5
409
100
AcDbEntity
  8
0
100
AcDbLine
 62
7
  6
CONTINUOUS
 10
3.2688043561
 20
-9.361332229
 11
3.2688043561
 21
-8.7299951302
  0
LINE
  5
40A
100
AcDbEntity
  8
0
100
AcDbLine
 62
7
  6
CONTINUOUS
 10
3.2847223015
 20
-10.6379928336
 11
3.2847223015
 21
-9.7379822027
  0
LINE
  5
40B
100
AcDbEntity
  8
0
100
AcDbLine
 62
7
  6
CONTINUOUS
 10
3.454772
 20
-19.1892695147
 11
3.4545837548
 21
-18.7082330772
  0
LINE
  5
40C
100
AcDbEntity
  8
0
100
AcDbLine
 62
7
  6
CONTINUOUS
 10
3.5040221726
 20
8.5
 11
3.5040221726
 21
10.2209858803
  0
LINE
  5
40D
100
AcDbEntity
  8
0
100
AcDbLine
 62
7
  6
CONTINUOUS
 10
3.7094295635
 20
8.5
 11
3.7094295635
 21
10.2209858803
  0
LINE
  5
40E
100
AcDbEntity
  8
0
100
AcDbLine
 62
7
  6
CONTINUOUS
 10
4.0407988352
 20
-9.564471425
 11
4.0407988352
 21
-9.5508816732
  0
LWPOLYLINE
  5
40F
100
AcDbEntity
  8
0
100
AcDbPolyline
 62
7
  6
CONTINUOUS
 90
7
 70
0
 10
2.583126
 20
-18.7788841395
 10
2.5832514367
 20
-18.7222732318
 10
2.583962908
 20
-18.6662519825
 10
2.5852604137
 20
-18.6108203914
 10
2.587143954
 20
-18.5559784586
 10
2.5896135289
 20
-18.501726184
 10
2.5926691382
 20
-18.4480635678
  0
LWPOLYLINE
  5
410
100
AcDbEntity
  8
0
100
AcDbPolyline
 62
7
  6
CONTINUOUS
 90
7
 70
0
 10
3.193914
 20
-19.2401837681
 10
3.1937874031
 20
-19.2951821394
 10
3.1930823763
 20
-19.3496013873
 10
3.1917989193
 20
-19.4034415117
 10
3.1899370323
 20
-19.4567025127
 10
3.1874967153
 20
-19.5093843903
 10
3.1844779683
 20
-19.5614871445
  0
LWPOLYLINE
  5
411
100
AcDbEntity
  8
0
100
AcDbPolyline
 62
7
  6
CONTINUOUS
 90
7
 70
0
 10
1.1547715752
 20
-18.4480635678
 10
1.1578141231
 20
-18.405058
 10
1.1623004318
 20
-18.3633186368
 10
1.1682305012
 20
-18.3228454781
 10
1.1756043314
 20
-18.283638524
 10
1.1844219224
 20
-18.2456977744
 10
1.1946832741
 20
-18.2090232293
  0
LWPOLYLINE
  5
412
100
AcDbEntity
  8
RACCORDO
100
AcDbPolyline
 62
250
  6
CONTINUOUS
 90
7
 70
0
 10
4.3404736535
 20
21.5904622304
 10
4.3403276859
 20
21.5883992353
 10
4.3401833639
 20
21.5828541115
 10
4.3400406875
 20
21.5737371689
 10
4.3398987376
 20
21.5610170984
 10
4.3397584333
 20
21.544644131
 10
4.3392439961
 20
21.440935901
  0
LWPOLYLINE
  5
413
100
AcDbEntity
  8
0
100
AcDbPolyline
 62
7
  6
CONTINUOUS
 90
7
 70
0
 10
2.5926691382
 20
-18.4480635678
 10
2.5957116861
 20
-18.405058
 10
2.6001979948
 20
-18.3633186368
 10
2.6061280642
 20
-18.3228454781
 10
2.6135018944
 20
-18.283638524
 10
2.6223194854
 20
-18.2456977744
 10
2.6325808371
 20
-18.2090232293
  0
LWPOLYLINE
  5
414
100
AcDbEntity
  8
0
100
AcDbPolyline
 62
7
  6
CONTINUOUS
 90
7
 70
0
 10
1.7465804053
 20
-19.5614871445
 10
1.7430691693
 20
-19.603490685
 10
1.7381026762
 20
-19.6443539509
 10
1.7316809259
 20
-19.684076942
 10
1.7238039186
 20
-19.7226596585
 10
1.7144716541
 20
-19.7601021003
 10
1.7036841325
 20
-19.7964042675
  0
LWPOLYLINE
  5
415
100
AcDbEntity
  8
0
100
AcDbPolyline
 62
7
  6
CONTINUOUS
 90
10
 70
0
 10
0.5614922678
 20
-19.5963380613
 10
0.5652220987
 20
-19.5527501479
 10
0.5685002706
 20
-19.5087470598
 10
0.5713267835
 20
-19.464328797
 10
0.5736951486
 20
-19.4194886851
 10
0.5756118546
 20
-19.3742333985
 10
0.5770963685
 20
-19.3285829604
 10
0.5781551792
 20
-19.2825440454
 10
0.5787817977
 20
-19.236109979
 10
0.578976224
 20
-19.1892807611
  0
LWPOLYLINE
  5
416
100
AcDbEntity
  8
0
100
AcDbPolyline
 62
7
  6
CONTINUOUS
 90
10
 70
0
 10
1.9993898308
 20
-19.5963380613
 10
2.0031196823
 20
-19.5527501272
 10
2.0063978803
 20
-19.5087470237
 10
2.0092244248
 20
-19.4643287508
 10
2.0115928332
 20
-19.4194878516
 10
2.0135095881
 20
-19.3742317829
 10
2.0149941374
 20
-19.3285829157
 10
2.0160529639
 20
-19.282548707
 10
2.0166795847
 20
-19.2361216998
 10
2.016874
 20
-19.189301894
  0
LWPOLYLINE
  5
417
100
AcDbEntity
  8
0
100
AcDbPolyline
 62
7
  6
CONTINUOUS
 90
10
 70
0
 10
0.9034577565
 20
-18.3748962321
 10
0.8993008254
 20
-18.4165836799
 10
0.8956649516
 20
-18.4587253977
 10
0.8925501352
 20
-18.5013213853
 10
0.8899723925
 20
-18.5443820297
 10
0.8879157072
 20
-18.587896944
 10
0.8863320302
 20
-18.631834968
 10
0.8852053452
 20
-18.6761857147
 10
0.8845516684
 20
-18.7209595711
 10
0.884371
 20
-18.7661565372
  0
LINE
  5
418
100
AcDbEntity
  8
0
100
AcDbLine
 62
7
  6
CONTINUOUS
 10
1.479751
 20
-9.823608
 11
1.718779
 21
-8.970127
  0
LWPOLYLINE
  5
419
100
AcDbEntity
  8
0
100
AcDbPolyline
 62
7
  6
CONTINUOUS
 90
13
 70
0
 10
-2.6177180169
 20
-18.626317134
 10
-2.6213267683
 20
-18.6391385299
 10
-2.6253708407
 20
-18.6518158545
 10
-2.6298502341
 20
-18.6643491079
 10
-2.6347280159
 20
-18.6767627342
 10
-2.6400411187
 20
-18.6890322892
 10
-2.645900341
 20
-18.7010844404
 10
-2.6523086285
 20
-18.712956953
 10
-2.6592630355
 20
-18.7246120617
 10
-2.6668655232
 20
-18.7358631383
 10
-2.6751500787
 20
-18.7466479734
 10
-2.684082715
 20
-18.7570287764
 10
-2.6936634321
 20
-18.7670055474
  0
LINE
  5
41A
100
AcDbEntity
  8
0
100
AcDbLine
 62
7
  6
CONTINUOUS
 10
1.4956
 20
-8.338203
 11
0.77424
 21
-10.637993
  0
LINE
  5
41B
100
AcDbEntity
  8
0
100
AcDbLine
 62
7
  6
CONTINUOUS
 10
0.008833
 20
-8.338203
 11
-0.471223
 21
-9.615054
  0
LINE
  5
41C
100
AcDbEntity
  8
0
100
AcDbLine
 62
7
  6
CONTINUOUS
 10
-0.44018
 20
-10.637993
 11
0.130606
 21
-9.142534
  0
LINE
  5
41D
100
AcDbEntity
  8
RACCORDO
100
AcDbLine
 62
7
  6
CONTINUOUS
 10
-9.1
 20
-11.65
 11
-9.4290614477
 21
-11.8987808276
  0
LINE
  5
41E
100
AcDbEntity
  8
RACCORDO
100
AcDbLine
 62
7
  6
CONTINUOUS
 10
4.6368868517
 20
20.8753151822
 11
4.6368868517
 21
20.3842539975
  0
LINE
  5
41F
100
AcDbEntity
  8
RACCORDO
100
AcDbLine
 62
7
  6
CONTINUOUS
 10
4.65
 20
21.3000114231
 11
4.65
 21
20.3883708899
  0
LINE
  5
420
100
AcDbEntity
  8
RACCORDO
100
AcDbLine
 62
250
  6
CONTINUOUS
 10
4.6767863365
 20
19.8
 11
4.6767863365
 21
19.9644050436
  0
LINE
  5
421
100
AcDbEntity
  8
RACCORDO
100
AcDbLine
 62
7
  6
CONTINUOUS
 10
5.25
 20
-20.5
 11
5.25
 21
-17.5
  0
LINE
  5
422
100
AcDbEntity
  8
RACCORDO
100
AcDbLine
 62
7
  6
CONTINUOUS
 10
5.25
 20
-14.0
 11
5.25
 21
-8.0
  0
LINE
  5
423
100
AcDbEntity
  8
RACCORDO
100
AcDbLine
 62
7
  6
CONTINUOUS
 10
5.25
 20
8.0
 11
5.25
 21
12.0
  0
LINE
  5
424
100
AcDbEntity
  8
0
100
AcDbLine
 62
7
  6
CONTINUOUS
 10
5.75
 20
-5.75
 11
5.75
 21
5.75
  0
LINE
  5
425
100
AcDbEntity
  8
RACCORDO
100
AcDbLine
 62
250
  6
CONTINUOUS
 10
4.3373987599
 20
21.2257698144
 11
4.3368982748
 21
20.5502286569
  0
LINE
  5
426
100
AcDbEntity
  8
RACCORDO
100
AcDbLine
 62
250
  6
CONTINUOUS
 10
4.6371121027
 20
20.9737173462
 11
4.6368868517
 21
20.8753151822
  0
LINE
  5
427
100
AcDbEntity
  8
RACCORDO
100
AcDbLine
 62
250
  6
CONTINUOUS
 10
4.3392439961
 20
21.440935901
 11
4.3373987599
 21
21.2257698144
  0
LINE
  5
428
100
AcDbEntity
  8
RACCORDO
100
AcDbLine
 62
250
  6
CONTINUOUS
 10
4.6393541182
 20
21.2433257616
 11
4.6371121027
 21
20.9737173462
  0
LWPOLYLINE
  5
429
100
AcDbEntity
  8
0
100
AcDbPolyline
 62
7
  6
CONTINUOUS
 90
19
 70
0
 10
3.9160622846
 20
-9.0041352065
 10
3.9149868145
 20
-9.0383086604
 10
3.9113795352
 20
-9.071614313
 10
3.9052404468
 20
-9.1040522634
 10
3.8965503698
 20
-9.1359313097
 10
3.8853284836
 20
-9.1669428219
 10
3.8716323265
 20
-9.1961608392
 10
3.8554243116
 20
-9.2236124079
 10
3.8367420258
 20
-9.2492707985
 10
3.8157557676
 20
-9.272129533
 10
3.7923103173
 20
-9.2917635116
 10
3.7665608947
 20
-9.3085982101
 10
3.7391434574
 20
-9.3229030401
 10
3.7101859413
 20
-9.3345758498
 10
3.6795604104
 20
-9.3437189875
 10
3.6475190142
 20
-9.3509085559
 10
3.6141458022
 20
-9.3563366067
 10
3.5793567248
 20
-9.3598111578
 10
3.543151782
 20
-9.361332229
  0
LWPOLYLINE
  5
42A
100
AcDbEntity
  8
RACCORDO
100
AcDbPolyline
 62
250
  6
CONTINUOUS
 90
13
 70
0
 10
7.4218013234
 20
23.0416442642
 10
7.4235844555
 20
23.0673037053
 10
7.4287455583
 20
23.0925257963
 10
7.4371966639
 20
23.1168806416
 10
7.4487937281
 20
23.1399531271
 10
7.4633390858
 20
23.1613499958
 10
7.4805848201
 20
23.1807065509
 10
7.5002369874
 20
23.1976928711
 10
7.5219606284
 20
23.2120194347
 10
7.5453854762
 20
23.2234420536
 10
7.5701122681
 20
23.2317660362
 10
7.5957195505
 20
23.2368495048
 10
7.6217708624
 20
23.2386058148
  0
LWPOLYLINE
  5
42B
100
AcDbEntity
  8
RACCORDO
100
AcDbPolyline
 62
250
  6
CONTINUOUS
 90
7
 70
0
 10
7.4218013234
 20
21.9583557358
 10
7.4226766224
 20
21.9699089134
 10
7.4235120525
 20
21.9853526144
 10
7.4243076135
 20
22.0046868388
 10
7.4250666734
 20
22.0280904627
 10
7.4257858643
 20
22.05538461
 10
7.427075827
 20
22.1201669694
  0
LWPOLYLINE
  5
42C
100
AcDbEntity
  8
0
100
AcDbPolyline
 62
7
  6
CONTINUOUS
 90
7
 70
0
 10
3.1844779683
 20
-19.5614871445
 10
3.1809667323
 20
-19.603490685
 10
3.1760002392
 20
-19.6443539509
 10
3.1695784889
 20
-19.6840769421
 10
3.1617014816
 20
-19.7226596585
 10
3.1523692171
 20
-19.7601021004
 10
3.1415816955
 20
-19.7964042675
  0
LWPOLYLINE
  5
42D
100
AcDbEntity
  8
0
100
AcDbPolyline
 62
7
  6
CONTINUOUS
 90
10
 70
0
 10
3.4372876693
 20
-19.5963380434
 10
3.4410174426
 20
-19.5527500677
 10
3.4442955759
 20
-19.5087469338
 10
3.4471220693
 20
-19.4643286417
 10
3.4494904262
 20
-19.4194889341
 10
3.4514071431
 20
-19.3742340683
 10
3.4528917099
 20
-19.3285828163
 10
3.4539506234
 20
-19.2825414354
 10
3.4545773867
 20
-19.2361036682
 10
3.454772
 20
-19.1892695147
  0
LINE
  5
42E
100
AcDbEntity
  8
RACCORDO
100
AcDbLine
 62
250
  6
CONTINUOUS
 10
7.4
 20
21.7381238696
 11
7.4218013234
 21
21.9583557358
  0
LINE
  5
42F
100
AcDbEntity
  8
RACCORDO
100
AcDbLine
 62
250
  6
CONTINUOUS
 10
7.5994242576
 20
21.5356540133
 11
7.6217708624
 21
21.7613941852
  0
LINE
  5
430
100
AcDbEntity
  8
RACCORDO
100
AcDbLine
 62
250
  6
CONTINUOUS
 10
7.8005757424
 20
23.4643459867
 11
7.7782291376
 21
23.2386058148
  0
LINE
  5
431
100
AcDbEntity
  8
RACCORDO
100
AcDbLine
 62
250
  6
CONTINUOUS
 10
8.0
 20
23.2618761304
 11
7.9781986766
 21
23.0416442642
  0
LWPOLYLINE
  5
432
100
AcDbEntity
  8
0
100
AcDbPolyline
 62
7
  6
CONTINUOUS
 90
10
 70
0
 10
2.3413553195
 20
-18.3748962322
 10
2.3371984083
 20
-18.4165836636
 10
2.3335625601
 20
-18.4587253692
 10
2.330447775
 20
-18.501321349
 10
2.3278701044
 20
-18.5443798661
 10
2.3258134968
 20
-18.5878926574
 10
2.3242297981
 20
-18.6318349334
 10
2.3231029566
 20
-18.6761984308
 10
2.3224490239
 20
-18.7209914129
 10
2.322268
 20
-18.7662138797
  0
LINE
  5
433
100
AcDbEntity
  8
0
100
AcDbLine
 62
7
  6
CONTINUOUS
 10
2.210253
 20
-12.8515
 11
2.544278
 21
-11.601313
  0
LINE
  5
434
100
AcDbEntity
  8
0
100
AcDbLine
 62
7
  6
CONTINUOUS
 10
1.981206
 20
-13.65
 11
2.143447
 21
-13.067821
  0
LINE
  5
435
100
AcDbEntity
  8
0
100
AcDbLine
 62
7
  6
CONTINUOUS
 10
1.249088
 20
-10.637993
 11
1.381553
 21
-10.178873
  0
LINE
  5
436
100
AcDbEntity
  8
0
100
AcDbLine
 62
7
  6
CONTINUOUS
 10
2.385218
 20
-11.349978
 11
1.710806
 21
-13.65
  0
LWPOLYLINE
  5
437
100
AcDbEntity
  8
0
100
AcDbPolyline
 62
7
  6
CONTINUOUS
 90
13
 70
0
 10
-0.2432144156
 20
-18.2090231944
 10
-0.2385613145
 20
-18.1953116455
 10
-0.2333935262
 20
-18.1818085429
 10
-0.2277110509
 20
-18.1685138864
 10
-0.2215518518
 20
-18.155394614
 10
-0.2148779655
 20
-18.1424837877
 10
-0.207575502
 20
-18.1298805943
 10
-0.199636751
 20
-18.1175358868
 10
-0.1910694228
 20
-18.1054988121
 10
-0.1817827582
 20
-18.094015998
 10
-0.1717465043
 20
-18.0831696538
 10
-0.160990914
 20
-18.0728775701
 10
-0.1495159874
 20
-18.0631397471
  0
LWPOLYLINE
  5
438
100
AcDbEntity
  8
0
100
AcDbPolyline
 62
7
  6
CONTINUOUS
 90
7
 70
0
 10
-2.4017980618
 20
-18.7502765694
 10
-2.3891199063
 20
-18.7232379844
 10
-2.3777800361
 20
-18.6957603868
 10
-2.3677784511
 20
-18.6678437767
 10
-2.3591151513
 20
-18.639488154
 10
-2.3517901368
 20
-18.6106935188
 10
-2.3458034075
 20
-18.581459871
  0
LINE
  5
439
100
AcDbEntity
  8
DRAFT
100
AcDbLine
 62
7
  6
CONTINUOUS
 10
-9.9792140383
 20
-25.1212710891
 11
-10.0
 21
-25.1524539902
  0
LINE
  5
43A
100
AcDbEntity
  8
0
100
AcDbLine
 62
7
  6
CONTINUOUS
 10
5.75
 20
5.75
 11
-5.75
 21
5.75
  0
LINE
  5
43B
100
AcDbEntity
  8
DRAFT
100
AcDbLine
 62
7
  6
CONTINUOUS
 10
-10.0
 20
25.1524539902
 11
-9.9982544935
 21
25.149835398
  0
LINE
  5
43C
100
AcDbEntity
  8
DRAFT
100
AcDbLine
 62
7
  6
CONTINUOUS
 10
-4.3286238999
 20
19.8
 11
-4.3358751198
 21
19.8138878678
  0
LWPOLYLINE
  5
43D
100
AcDbEntity
  8
RACCORDO
100
AcDbPolyline
 62
250
  6
CONTINUOUS
 90
13
 70
0
 10
4.6373873368
 20
21.0154970351
 10
4.6345985006
 20
21.0428350436
 10
4.6267648079
 20
21.0697090963
 10
4.6140191785
 20
21.0956630088
 10
4.5965779123
 20
21.12025621
 10
4.5747370242
 20
21.1430712138
 10
4.5488672263
 20
21.1637207075
 10
4.5194076184
 20
21.1818541432
 10
4.486858255
 20
21.1971636714
 10
4.4517716744
 20
21.2093893702
 10
4.4147434798
 20
21.2183236773
 10
4.3764022223
 20
21.2238149065
 10
4.3373987599
 20
21.2257698144
  0
LWPOLYLINE
  5
43E
100
AcDbEntity
  8
RACCORDO
100
AcDbPolyline
 62
250
  6
CONTINUOUS
 90
13
 70
0
 10
4.639232573
 20
21.2306631217
 10
4.6364436373
 20
21.2580016201
 10
4.6286096962
 20
21.2848760437
 10
4.615863732
 20
21.3108301953
 10
4.5984221092
 20
21.3354234997
 10
4.5765809018
 20
21.358238482
 10
4.5507108673
 20
21.3788878548
 10
4.5212511532
 20
21.3970210921
 10
4.4887018422
 20
21.4123303797
 10
4.4536154634
 20
21.4245558402
 10
4.416587613
 20
21.4334899448
 10
4.3782468439
 20
21.4389810357
 10
4.3392439961
 20
21.440935901
  0
LINE
  5
43F
100
AcDbEntity
  8
DRAFT
100
AcDbLine
 62
7
  6
CONTINUOUS
 10
9.9525363335
 20
-24.7967854951
 11
9.9792140383
 21
-25.1212710891
  0
LWPOLYLINE
  5
440
100
AcDbEntity
  8
RACCORDO
100
AcDbPolyline
 62
250
  6
CONTINUOUS
 90
13
 70
0
 10
8.3461056179
 20
-13.4151643002
 10
8.3475291953
 20
-13.4346056888
 10
8.3514273356
 20
-13.4537180942
 10
8.3577340508
 20
-13.4721782485
 10
8.3663426292
 20
-13.4896739499
 10
8.3771074093
 20
-13.5059092723
 10
8.3898462178
 20
-13.5206095879
 10
8.4043435255
 20
-13.533526311
 10
8.4203540894
 20
-13.5444410514
 10
8.4376070397
 20
-13.5531692631
 10
8.4558105307
 20
-13.5595634192
 10
8.474656689
 20
-13.5635154866
 10
8.4938267808
 20
-13.5649587304
  0
LWPOLYLINE
  5
441
100
AcDbEntity
  8
RACCORDO
100
AcDbPolyline
 62
250
  6
CONTINUOUS
 90
13
 70
0
 10
4.6404622304
 20
21.2904736535
 10
4.6378932163
 20
21.3296268976
 10
4.6302360231
 20
21.3681105612
 10
4.6176215551
 20
21.4052662571
 10
4.6002655264
 20
21.440458303
 10
4.5784647838
 20
21.4730845778
 10
4.5525922398
 20
21.5025868299
 10
4.5230904632
 20
21.5284602676
 10
4.4904641437
 20
21.550262154
 10
4.4552714882
 20
21.5676193881
 10
4.4181146016
 20
21.5802349403
 10
4.3796291735
 20
21.5878929165
 10
4.3404736535
 20
21.5904622304
  0
LWPOLYLINE
  5
442
100
AcDbEntity
  8
RACCORDO
100
AcDbPolyline
 62
250
  6
CONTINUOUS
 90
16
 70
0
 10
7.8287099447
 20
-13.5093589444
 10
7.8299611044
 20
-13.5412374429
 10
7.8342658975
 20
-13.5720176027
 10
7.841624324
 20
-13.601699424
 10
7.8521831176
 20
-13.6305397707
 10
7.8657955446
 20
-13.6582817787
 10
7.8820214037
 20
-13.6841548562
 10
7.9008337695
 20
-13.7080902194
 10
7.9222595674
 20
-13.730156652
 10
7.9459393722
 20
-13.749789913
 10
7.9721093348
 20
-13.7670491299
 10
8.0005333043
 20
-13.7818751752
 10
8.0301434033
 20
-13.7935264245
 10
8.0605836726
 20
-13.8017556696
 10
8.0922100715
 20
-13.8068101186
 10
8.1250225998
 20
-13.8086897717
  0
LINE
  5
443
100
AcDbEntity
  8
RACCORDO
100
AcDbLine
 62
250
  6
CONTINUOUS
 10
7.4272233554
 20
22.8708837603
 11
7.426218693
 21
22.9256155193
  0
LINE
  5
444
100
AcDbEntity
  8
RACCORDO
100
AcDbLine
 62
250
  6
CONTINUOUS
 10
7.4285832138
 20
22.7611600352
 11
7.4272233554
 21
22.8708837603
  0
LINE
  5
445
100
AcDbEntity
  8
RACCORDO
100
AcDbLine
 62
250
  6
CONTINUOUS
 10
7.6281398241
 20
22.9106011202
 11
7.6267005069
 21
23.0452932266
  0
LWPOLYLINE
  5
446
100
AcDbEntity
  8
RACCORDO
100
AcDbPolyline
 62
250
  6
CONTINUOUS
 90
16
 70
0
 10
7.9764318494
 20
-13.5250384736
 10
7.9765507998
 20
-13.5408407804
 10
7.9783681397
 20
-13.5563884857
 10
7.981841383
 20
-13.5715192103
 10
7.9869042742
 20
-13.5860654343
 10
7.9934892006
 20
-13.5998929621
 10
8.0015407021
 20
-13.6128959854
 10
8.0109427827
 20
-13.6249083636
 10
8.0216141042
 20
-13.6358438023
 10
8.0335791663
 20
-13.645689754
 10
8.0468345784
 20
-13.6543540916
 10
8.0611857318
 20
-13.6616322828
 10
8.07635988
 20
-13.6673568794
 10
8.0921475842
 20
-13.6714465435
 10
8.1084261864
 20
-13.6738645433
 10
8.1250229594
 20
-13.6745743388
  0
LINE
  5
447
100
AcDbEntity
  8
RACCORDO
100
AcDbLine
 62
250
  6
CONTINUOUS
 10
7.4294877926
 20
22.6238940954
 11
7.4285832138
 21
22.7611600352
  0
LINE
  5
448
100
AcDbEntity
  8
RACCORDO
100
AcDbLine
 62
250
  6
CONTINUOUS
 10
7.6294573346
 20
22.6689464937
 11
7.6281398241
 21
22.9106011202
  0
LINE
  5
449
100
AcDbEntity
  8
RACCORDO
100
AcDbLine
 62
250
  6
CONTINUOUS
 10
7.7704457171
 20
22.3680283034
 11
7.7715841642
 21
22.1247481261
  0
LINE
  5
44A
100
AcDbEntity
  8
RACCORDO
100
AcDbLine
 62
7
  6
CONTINUOUS
 10
7.4
 20
21.7381238696
 11
7.4
 21
23.2618761304
  0
LINE
  5
44B
100
AcDbEntity
  8
RACCORDO
100
AcDbLine
 62
250
  6
CONTINUOUS
 10
7.429725647
 20
22.4763362117
 11
7.4294877926
 21
22.6238940954
  0
LINE
  5
44C
100
AcDbEntity
  8
RACCORDO
100
AcDbLine
 62
250
  6
CONTINUOUS
 10
7.6296189702
 20
22.4005968348
 11
7.6294573346
 21
22.6689464937
  0
LINE
  5
44D
100
AcDbEntity
  8
RACCORDO
100
AcDbLine
 62
250
  6
CONTINUOUS
 10
7.7704379038
 20
22.6283057838
 11
7.7704457171
 21
22.3680283034
  0
LINE
  5
44E
100
AcDbEntity
  8
RACCORDO
100
AcDbLine
 62
250
  6
CONTINUOUS
 10
7.4292693881
 20
22.330875608
 11
7.429725647
 21
22.4763362117
  0
LINE
  5
44F
100
AcDbEntity
  8
RACCORDO
100
AcDbLine
 62
250
  6
CONTINUOUS
 10
7.970835367
 20
22.6866781847
 11
7.9702998989
 21
22.5465426477
  0
LINE
  5
450
100
AcDbEntity
  8
RACCORDO
100
AcDbLine
 62
250
  6
CONTINUOUS
 10
7.6285620587
 20
22.1454980424
 11
7.6296189702
 21
22.4005968348
  0
LINE
  5
451
100
AcDbEntity
  8
RACCORDO
100
AcDbLine
 62
250
  6
CONTINUOUS
 10
7.7715694667
 20
22.8730530926
 11
7.7704379038
 21
22.6283057838
  0
LINE
  5
452
100
AcDbEntity
  8
RACCORDO
100
AcDbLine
 62
250
  6
CONTINUOUS
 10
7.4281528007
 20
22.1975635274
 11
7.4292693881
 21
22.330875608
  0
LINE
  5
453
100
AcDbEntity
  8
RACCORDO
100
AcDbLine
 62
250
  6
CONTINUOUS
 10
7.9719847565
 20
22.8140798882
 11
7.970835367
 21
22.6866781847
  0
LINE
  5
454
100
AcDbEntity
  8
RACCORDO
100
AcDbLine
 62
250
  6
CONTINUOUS
 10
7.6270453026
 20
21.9821118428
 11
7.6285620587
 21
22.1454980424
  0
LINE
  5
455
100
AcDbEntity
  8
RACCORDO
100
AcDbLine
 62
250
  6
CONTINUOUS
 10
7.7730897949
 20
23.0287367881
 11
7.7715694667
 21
22.8730530926
  0
LINE
  5
456
100
AcDbEntity
  8
RACCORDO
100
AcDbLine
 62
250
  6
CONTINUOUS
 10
7.427075827
 20
22.1201669694
 11
7.4281528007
 21
22.1975635274
  0
LINE
  5
457
100
AcDbEntity
  8
RACCORDO
100
AcDbLine
 62
250
  6
CONTINUOUS
 10
7.9730592763
 20
22.8877799948
 11
7.9719847565
 21
22.8140798882
  0
LINE
  5
458
100
AcDbEntity
  8
RACCORDO
100
AcDbLine
 62
250
  6
CONTINUOUS
 10
7.625755406
 20
21.8936247104
 11
7.6270453026
 21
21.9821118428
  0
LINE
  5
459
100
AcDbEntity
  8
RACCORDO
100
AcDbLine
 62
250
  6
CONTINUOUS
 10
7.7743603026
 20
23.1128452089
 11
7.7730897949
 21
23.0287367881
  0
LWPOLYLINE
  5
45A
100
AcDbEntity
  8
RACCORDO
100
AcDbPolyline
 62
250
  6
CONTINUOUS
 90
5
 70
0
 10
7.6217707901
 20
21.7613941852
 10
7.6226462273
 20
21.7765654179
 10
7.6234817402
 20
21.7977293786
 10
7.6242773287
 20
21.8245729611
 10
7.625755406
 20
21.8936247104
  0
LWPOLYLINE
  5
45B
100
AcDbEntity
  8
RACCORDO
100
AcDbPolyline
 62
250
  6
CONTINUOUS
 90
5
 70
0
 10
7.7782292032
 20
23.2386058148
 10
7.7773843048
 20
23.2240663726
 10
7.7765756086
 20
23.2039169182
 10
7.7758031144
 20
23.1784240356
 10
7.7743603026
 20
23.1128452089
  0
LWPOLYLINE
  5
45C
100
AcDbEntity
  8
RACCORDO
100
AcDbPolyline
 62
250
  6
CONTINUOUS
 90
13
 70
0
 10
7.9781986766
 20
21.9583557358
 10
7.9764155445
 20
21.9326962946
 10
7.9712544417
 20
21.9074742035
 10
7.962803336
 20
21.8831193581
 10
7.9512062718
 20
21.8600468725
 10
7.936660914
 20
21.8386500036
 10
7.9194151797
 20
21.8192934484
 10
7.8997630123
 20
21.802307128
 10
7.8780393714
 20
21.7879805644
 10
7.8546145236
 20
21.7765579455
 10
7.8298877317
 20
21.7682339632
 10
7.8042804493
 20
21.7631504948
 10
7.7782291376
 20
21.7613941852
  0
LWPOLYLINE
  5
45D
100
AcDbEntity
  8
RACCORDO
100
AcDbPolyline
 62
250
  6
CONTINUOUS
 90
7
 70
0
 10
7.9781986766
 20
23.0416442642
 10
7.9773539028
 20
23.0306151188
 10
7.9765452811
 20
23.015904017
 10
7.9757728116
 20
22.9975109589
 10
7.9750332511
 20
22.9752785976
 10
7.9743298428
 20
22.9493642799
 10
7.9730592763
 20
22.8877799948
  0
LWPOLYLINE
  5
45E
100
AcDbEntity
  8
0
100
AcDbPolyline
 62
7
  6
CONTINUOUS
 90
13
 70
0
 10
0.2657864446
 20
-19.7964042269
 10
0.2612052562
 20
-19.8099432446
 10
0.2561084078
 20
-19.8232489275
 10
0.2504958995
 20
-19.8363212756
 10
0.2443922537
 20
-19.8491906463
 10
0.237772948
 20
-19.8618266823
 10
0.230564415
 20
-19.8741383114
 10
0.2227584417
 20
-19.8861601279
 10
0.2143632411
 20
-19.8978575377
 10
0.2053298858
 20
-19.9090356862
 10
0.1956420666
 20
-19.9196296219
 10
0.1853160926
 20
-19.9297042965
 10
0.1743519639
 20
-19.9392597097
  0
LWPOLYLINE
  5
45F
100
AcDbEntity
  8
0
100
AcDbPolyline
 62
7
  6
CONTINUOUS
 90
13
 70
0
 10
1.1946832741
 20
-18.2090232293
 10
1.1993363865
 20
-18.1953117004
 10
1.2045041786
 20
-18.1818086133
 10
1.2101866505
 20
-18.168513968
 10
1.2163458362
 20
-18.155394702
 10
1.2230197015
 20
-18.1424838778
 10
1.2303221446
 20
-18.1298806832
 10
1.238260876
 20
-18.1175359692
 10
1.246828185
 20
-18.1054988848
 10
1.256114838
 20
-18.0940160636
 10
1.2661510903
 20
-18.0831697169
 10
1.2769066864
 20
-18.0728776335
 10
1.2883816265
 20
-18.0631398134
  0
LWPOLYLINE
  5
460
100
AcDbEntity
  8
0
100
AcDbPolyline
 62
7
  6
CONTINUOUS
 90
7
 70
0
 10
0.4899031446
 20
-19.911410782
 10
0.5077461744
 20
-19.8644508849
 10
0.5232246005
 20
-19.8152700986
 10
0.5363384229
 20
-19.7638684231
 10
0.5470876416
 20
-19.7102458584
 10
0.5554722565
 20
-19.6544024044
 10
0.5614922678
 20
-19.5963380613
  0
LWPOLYLINE
  5
461
100
AcDbEntity
  8
0
100
AcDbPolyline
 62
7
  6
CONTINUOUS
 90
7
 70
0
 10
-0.4580912633
 20
-18.0726832488
 10
-0.4765584338
 20
-18.1173598498
 10
-0.492728639
 20
-18.1643133426
 10
-0.5066018788
 20
-18.2135437272
 10
-0.5181781534
 20
-18.2650510037
 10
-0.5274574626
 20
-18.318835172
 10
-0.5344398065
 20
-18.3748962321
  0
LWPOLYLINE
  5
462
100
AcDbEntity
  8
0
100
AcDbPolyline
 62
7
  6
CONTINUOUS
 90
7
 70
0
 10
0.9798062997
 20
-18.0726832488
 10
0.9613391292
 20
-18.1173598498
 10
0.945168924
 20
-18.1643133426
 10
0.9312956841
 20
-18.2135437272
 10
0.9197194096
 20
-18.2650510037
 10
0.9104401004
 20
-18.318835172
 10
0.9034577565
 20
-18.3748962321
  0
LWPOLYLINE
  5
463
100
AcDbEntity
  8
0
100
AcDbPolyline
 62
7
  6
CONTINUOUS
 90
13
 70
0
 10
-3.1112033783
 20
-18.1267634669
 10
-3.1055496876
 20
-18.1182619862
 10
-3.0995710888
 20
-18.1100218666
 10
-3.0932675821
 20
-18.1020431081
 10
-3.0866375113
 20
-18.094309689
 10
-3.0796825325
 20
-18.0868376311
 10
-3.072407614
 20
-18.0796749996
 10
-3.0648114206
 20
-18.0728096959
 10
-3.0568952874
 20
-18.0662538187
 10
-3.0486681888
 20
-18.0600917296
 10
-3.0401331161
 20
-18.054351549
 10
-3.031287078
 20
-18.0490051564
 10
-3.0221300745
 20
-18.0440525519
  0
LINE
  5
464
100
AcDbEntity
  8
DRAFT
100
AcDbLine
 62
7
  6
CONTINUOUS
 10
-9.459557593
 20
-11.7137835057
 11
-9.3171572875
 21
-11.65
  0
LINE
  5
465
100
AcDbEntity
  8
DRAFT
100
AcDbLine
 62
7
  6
CONTINUOUS
 10
-9.4918749397
 20
-11.7280699156
 11
-9.459557593
 21
-11.7137835057
  0
LINE
  5
466
100
AcDbEntity
  8
DRAFT
100
AcDbLine
 62
7
  6
CONTINUOUS
 10
-9.5141752913
 20
-11.7377998025
 11
-9.4918749397
 21
-11.7280699156
  0
LWPOLYLINE
  5
467
100
AcDbEntity
  8
DRAFT
100
AcDbPolyline
 62
7
  6
CONTINUOUS
 90
6
 70
0
 10
-9.5553454168
 20
-11.7549863962
 10
-9.5486993898
 20
-11.7523225482
 10
-9.5419670985
 20
-11.7495784664
 10
-9.5351485431
 20
-11.746754151
 10
-9.5282641205
 20
-11.7438515809
 10
-9.5141752913
 20
-11.7377998025
  0
LINE
  5
468
100
AcDbEntity
  8
RACCORDO
100
AcDbLine
 62
7
  6
CONTINUOUS
 10
4.75
 20
7.5
 11
-4.75
 21
7.5
  0
LINE
  5
469
100
AcDbEntity
  8
0
100
AcDbLine
 62
7
  6
CONTINUOUS
 10
3.606725868
 20
11.3976980933
 11
4.0913531061
 21
10.2209858803
  0
LINE
  5
46A
100
AcDbEntity
  8
RACCORDO
100
AcDbLine
 62
250
  6
CONTINUOUS
 10
7.4218013234
 20
23.0416442642
 11
7.4
 21
23.2618761304
  0
LWPOLYLINE
  5
46B
100
AcDbEntity
  8
RACCORDO
100
AcDbPolyline
 62
250
  6
CONTINUOUS
 90
13
 70
0
 10
7.4218013234
 20
21.9583557358
 10
7.4235842522
 20
21.9326977843
 10
7.4287448433
 20
21.9074768075
 10
7.4371952657
 20
21.8831226658
 10
7.448791622
 20
21.8600504551
 10
7.4633363724
 20
21.8386534821
 10
7.4805816756
 20
21.8192965457
 10
7.5002336807
 20
21.8023096308
 10
7.5219574815
 20
21.7879823593
 10
7.5453827599
 20
21.7765590595
 10
7.5701102208
 20
21.7682345084
 10
7.5957184207
 20
21.763150644
 10
7.6217708623
 20
21.7613941844
  0
LWPOLYLINE
  5
46C
100
AcDbEntity
  8
RACCORDO
100
AcDbPolyline
 62
250
  6
CONTINUOUS
 90
13
 70
0
 10
7.9781986766
 20
23.0416442642
 10
7.9764157798
 20
23.0673019831
 10
7.971255269
 20
23.0925227853
 10
7.9628049544
 20
23.1168768159
 10
7.9512087106
 20
23.1399489818
 10
7.9366640579
 20
23.161345969
 10
7.919418825
 20
23.1807029639
 10
7.8997668479
 20
23.1976899716
 10
7.8780430241
 20
23.2120173543
 10
7.8546176787
 20
23.2234407621
 10
7.8298901108
 20
23.2317654041
 10
7.8042817628
 20
23.2368493318
 10
7.7782291376
 20
23.2386058147
  0
LWPOLYLINE
  5
46D
100
AcDbEntity
  8
RACCORDO
100
AcDbPolyline
 62
250
  6
CONTINUOUS
 90
4
 70
0
 10
7.6239131589
 20
23.1884343904
 10
7.6232437198
 20
23.2088059985
 10
7.622529621
 20
23.2257194815
 10
7.6217708624
 20
23.2386058148
  0
LWPOLYLINE
  5
46E
100
AcDbEntity
  8
RACCORDO
100
AcDbPolyline
 62
250
  6
CONTINUOUS
 90
4
 70
0
 10
7.7759212302
 20
21.8173024282
 10
7.7766389068
 20
21.7944186823
 10
7.7774082093
 20
21.7755504161
 10
7.7782291376
 20
21.7613941852
  0
LWPOLYLINE
  5
46F
100
AcDbEntity
  8
RACCORDO
100
AcDbPolyline
 62
250
  6
CONTINUOUS
 90
6
 70
0
 10
7.4251336285
 20
22.9698068212
 10
7.4245608654
 20
22.9884000431
 10
7.4239434797
 20
23.0048518858
 10
7.4232740502
 20
23.0192573911
 10
7.4225599981
 20
23.0315215173
 10
7.4218013234
 20
23.0416442642
  0
LWPOLYLINE
  5
470
100
AcDbEntity
  8
RACCORDO
100
AcDbPolyline
 62
250
  6
CONTINUOUS
 90
6
 70
0
 10
7.9746253
 20
22.0388734053
 10
7.9752323337
 20
22.0178829337
 10
7.9758909465
 20
21.9993551147
 10
7.9766086109
 20
21.9832260024
 10
7.9773778542
 20
21.9695595428
 10
7.9781986766
 20
21.9583557358
  0
LINE
  5
471
100
AcDbEntity
  8
RACCORDO
100
AcDbLine
 62
250
  6
CONTINUOUS
 10
7.426218693
 20
22.9256155193
 11
7.4251336285
 21
22.9698068212
  0
LINE
  5
472
100
AcDbEntity
  8
RACCORDO
100
AcDbLine
 62
250
  6
CONTINUOUS
 10
7.625103173
 20
23.1404067006
 11
7.6239131589
 21
23.1884343904
  0
LINE
  5
473
100
AcDbEntity
  8
RACCORDO
100
AcDbLine
 62
250
  6
CONTINUOUS
 10
7.7746557536
 20
21.8714426077
 11
7.7759212302
 21
21.8173024282
  0
LINE
  5
474
100
AcDbEntity
  8
RACCORDO
100
AcDbLine
 62
250
  6
CONTINUOUS
 10
7.9734903128
 20
22.0886569723
 11
7.9746253
 21
22.0388734053
  0
LINE
  5
475
100
AcDbEntity
  8
RACCORDO
100
AcDbLine
 62
250
  6
CONTINUOUS
 10
7.7735208402
 20
21.9392120687
 11
7.7746557536
 21
21.8714426077
  0
LINE
  5
476
100
AcDbEntity
  8
RACCORDO
100
AcDbLine
 62
250
  6
CONTINUOUS
 10
7.9724663608
 20
22.149572032
 11
7.9734903128
 21
22.0886569723
  0
LWPOLYLINE
  5
477
100
AcDbEntity
  8
RACCORDO
100
AcDbPolyline
 62
250
  6
CONTINUOUS
 90
3
 70
0
 10
7.6267005069
 20
23.0452932266
 10
7.6261881786
 20
23.0802243149
 10
7.625103173
 20
23.1404067006
  0
LINE
  5
478
100
AcDbEntity
  8
RACCORDO
100
AcDbLine
 62
250
  6
CONTINUOUS
 10
7.9711728867
 20
22.2665855154
 11
7.9724663608
 21
22.149572032
  0
LWPOLYLINE
  5
479
100
AcDbEntity
  8
RACCORDO
100
AcDbPolyline
 62
250
  6
CONTINUOUS
 90
3
 70
0
 10
7.7715841642
 20
22.1247481261
 10
7.7720245141
 20
22.0711518347
 10
7.7735208402
 20
21.9392120687
  0
LINE
  5
47A
100
AcDbEntity
  8
RACCORDO
100
AcDbLine
 62
250
  6
CONTINUOUS
 10
7.9704152571
 20
22.4032207558
 11
7.9711728867
 21
22.2665855154
  0
LINE
  5
47B
100
AcDbEntity
  8
RACCORDO
100
AcDbLine
 62
7
  6
CONTINUOUS
 10
7.9822348431
 20
22.5846728965
 11
7.9822348431
 21
22.4153271035
  0
LINE
  5
47C
100
AcDbEntity
  8
RACCORDO
100
AcDbLine
 62
7
  6
CONTINUOUS
 10
8.0
 20
21.7381238696
 11
8.0
 21
22.2
  0
LINE
  5
47D
100
AcDbEntity
  8
RACCORDO
100
AcDbLine
 62
7
  6
CONTINUOUS
 10
8.0
 20
22.8
 11
8.0
 21
23.2618761304
  0
LINE
  5
47E
100
AcDbEntity
  8
RACCORDO
100
AcDbLine
 62
250
  6
CONTINUOUS
 10
8.1250220438
 20
-13.8086897717
 11
8.1250220441
 21
-13.6745746109
  0
LINE
  5
47F
100
AcDbEntity
  8
RACCORDO
100
AcDbLine
 62
250
  6
CONTINUOUS
 10
8.1461946517
 20
-12.6662445968
 11
8.1461946517
 21
-12.8317182965
  0
LINE
  5
480
100
AcDbEntity
  8
RACCORDO
100
AcDbLine
 62
250
  6
CONTINUOUS
 10
8.3461056179
 20
-13.0848356998
 11
8.3461056179
 21
-13.4151643002
  0
LINE
  5
481
100
AcDbEntity
  8
RACCORDO
100
AcDbLine
 62
250
  6
CONTINUOUS
 10
8.8385094944
 20
-13.549801188
 11
8.8385094944
 21
-12.950198812
  0
LINE
  5
482
100
AcDbEntity
  8
RACCORDO
100
AcDbLine
 62
7
  6
CONTINUOUS
 10
9.0
 20
22.6024380533
 11
9.0
 21
22.3975619467
  0
LINE
  5
483
100
AcDbEntity
  8
DRAFT
100
AcDbLine
 62
7
  6
CONTINUOUS
 10
9.1
 20
-10.25
 11
9.1
 21
-12.9
  0
LINE
  5
484
100
AcDbEntity
  8
DRAFT
100
AcDbLine
 62
7
  6
CONTINUOUS
 10
9.1
 20
-13.6
 11
9.1
 21
-16.25
  0
LINE
  5
485
100
AcDbEntity
  8
RACCORDO
100
AcDbLine
 62
7
  6
CONTINUOUS
 10
9.2272930121
 20
-13.4000067578
 11
9.2272930121
 21
-13.0999932422
  0
LINE
  5
486
100
AcDbEntity
  8
RACCORDO
100
AcDbLine
 62
7
  6
CONTINUOUS
 10
9.4818790363
 20
-12.3968781766
 11
9.4818790363
 21
-14.1031218234
  0
LINE
  5
487
100
AcDbEntity
  8
RACCORDO
100
AcDbLine
 62
250
  6
CONTINUOUS
 10
7.9702998989
 20
22.5465426477
 11
7.9704152571
 21
22.4032207558
  0
LINE
  5
488
100
AcDbEntity
  8
RACCORDO
100
AcDbLine
 62
250
  6
CONTINUOUS
 10
7.8388485158
 20
-12.9622954153
 11
7.8287099447
 21
-13.5093589444
  0
LINE
  5
489
100
AcDbEntity
  8
RACCORDO
100
AcDbLine
 62
250
  6
CONTINUOUS
 10
7.9865696787
 20
-12.9779746848
 11
7.9764310987
 21
-13.5250386967
  0
LWPOLYLINE
  5
48A
100
AcDbEntity
  8
RACCORDO
100
AcDbPolyline
 62
250
  6
CONTINUOUS
 90
13
 70
0
 10
8.3461056179
 20
-13.0848356998
 10
8.3475290622
 20
-13.0653952815
 10
8.3514268603
 20
-13.0462836617
 10
8.3577330879
 20
-13.027824078
 10
8.3663410871
 20
-13.0103287399
 10
8.3771052694
 20
-12.9940935483
 10
8.3898435788
 20
-12.9793930915
 10
8.4043405705
 20
-12.9664760001
 10
8.4203510547
 20
-12.9555607428
 10
8.437604244
 20
-12.9468319307
 10
8.4558083329
 20
-12.9404371954
 10
8.474655433
 20
-12.9364846919
 10
8.4938267808
 20
-12.9350412696
  0
LWPOLYLINE
  5
48B
100
AcDbEntity
  8
0
100
AcDbPolyline
 62
7
  6
CONTINUOUS
 90
13
 70
0
 10
1.7036841325
 20
-19.7964042675
 10
1.6991029319
 20
-19.8099432592
 10
1.6940060794
 20
-19.8232489209
 10
1.6883935748
 20
-19.8363212526
 10
1.6822899429
 20
-19.8491906114
 10
1.6756706589
 20
-19.8618266402
 10
1.6684621492
 20
-19.8741382671
 10
1.6606562001
 20
-19.8861600879
 10
1.6522610253
 20
-19.8978575068
 10
1.6432276913
 20
-19.9090356643
 10
1.633539887
 20
-19.9196296074
 10
1.6232139236
 20
-19.9297042892
 10
1.612249801
 20
-19.9392597097
  0
LWPOLYLINE
  5
48C
100
AcDbEntity
  8
0
100
AcDbPolyline
 62
7
  6
CONTINUOUS
 90
13
 70
0
 10
3.1415816955
 20
-19.7964042675
 10
3.1370004949
 20
-19.8099432592
 10
3.1319036423
 20
-19.823248921
 10
3.1262911378
 20
-19.8363212526
 10
3.1201875058
 20
-19.8491906115
 10
3.1135682219
 20
-19.8618266402
 10
3.1063597122
 20
-19.8741382671
 10
3.0985537631
 20
-19.8861600879
 10
3.0901585883
 20
-19.8978575068
 10
3.0811252542
 20
-19.9090356643
 10
3.07143745
 20
-19.9196296074
 10
3.0611114866
 20
-19.9297042892
 10
3.050147364
 20
-19.9392597097
  0
LWPOLYLINE
  5
48D
100
AcDbEntity
  8
0
100
AcDbPolyline
 62
7
  6
CONTINUOUS
 90
13
 70
0
 10
2.6325808371
 20
-18.2090232293
 10
2.6372339495
 20
-18.1953117003
 10
2.6424017416
 20
-18.1818086132
 10
2.6480842135
 20
-18.168513968
 10
2.6542433991
 20
-18.155394702
 10
2.6609172645
 20
-18.1424838778
 10
2.6682197076
 20
-18.1298806832
 10
2.676158439
 20
-18.1175359692
 10
2.684725748
 20
-18.1054988848
 10
2.694012401
 20
-18.0940160636
 10
2.7040486533
 20
-18.0831697169
 10
2.7148042494
 20
-18.0728776335
 10
2.7262791895
 20
-18.0631398134
  0
LWPOLYLINE
  5
48E
100
AcDbEntity
  8
0
100
AcDbPolyline
 62
7
  6
CONTINUOUS
 90
7
 70
0
 10
1.9278009818
 20
-19.911410782
 10
1.9456439655
 20
-19.8644508901
 10
1.9611223457
 20
-19.8152701069
 10
1.9742361223
 20
-19.7638684325
 10
1.9849852954
 20
-19.7102458667
 10
1.9933698649
 20
-19.6544024097
 10
1.9993898308
 20
-19.5963380613
  0
LWPOLYLINE
  5
48F
100
AcDbEntity
  8
0
100
AcDbPolyline
 62
7
  6
CONTINUOUS
 90
7
 70
0
 10
2.4177038627
 20
-18.0726832488
 10
2.3992366922
 20
-18.1173598498
 10
2.383066487
 20
-18.1643133426
 10
2.3691932471
 20
-18.2135437272
 10
2.3576169726
 20
-18.2650510037
 10
2.3483376634
 20
-18.318835172
 10
2.3413553195
 20
-18.3748962322
  0
LWPOLYLINE
  5
490
100
AcDbEntity
  8
0
100
AcDbPolyline
 62
7
  6
CONTINUOUS
 90
13
 70
0
 10
-2.6435685131
 20
-19.86051174
 10
-2.6498666724
 20
-19.8696461119
 10
-2.6564677075
 20
-19.8785385478
 10
-2.6633716183
 20
-19.8871890479
 10
-2.6705753324
 20
-19.8956139423
 10
-2.6780819222
 20
-19.9037969009
 10
-2.6859006055
 20
-19.9116889326
 10
-2.6940347062
 20
-19.9193014353
 10
-2.7024809004
 20
-19.9266230111
 10
-2.7112384336
 20
-19.9335704756
 10
-2.7203070545
 20
-19.9401161007
 10
-2.7296870145
 20
-19.9462876145
 10
-2.7393783136
 20
-19.952085017
  0
LWPOLYLINE
  5
491
100
AcDbEntity
  8
0
100
AcDbPolyline
 62
7
  6
CONTINUOUS
 90
7
 70
0
 10
-2.4367911893
 20
-20.0036652912
 10
-2.4150187293
 20
-19.973347874
 10
-2.3953807922
 20
-19.9409481092
 10
-2.3778773782
 20
-19.9064659967
 10
-2.3625084872
 20
-19.8699015365
 10
-2.3492741191
 20
-19.8312547287
 10
-2.338174274
 20
-19.7905255733
  0
LWPOLYLINE
  5
492
100
AcDbEntity
  8
0
100
AcDbPolyline
 62
7
  6
CONTINUOUS
 90
19
 70
0
 10
-3.2893499836
 20
-17.9549792404
 10
-3.3058069551
 20
-17.9738061313
 10
-3.3210843581
 20
-17.9933755751
 10
-3.3351821925
 20
-18.0136875719
 10
-3.348086124
 20
-18.0348330687
 10
-3.3598104871
 20
-18.0567211185
 10
-3.3703982847
 20
-18.0790788798
 10
-3.3798148946
 20
-18.1019049132
 10
-3.3880949391
 20
-18.1252006581
 10
-3.3953852887
 20
-18.1486975915
 10
-3.4016753688
 20
-18.1723393235
 10
-3.406975754
 20
-18.196182244
 10
-3.4114650388
 20
-18.2201270002
 10
-3.4151570072
 20
-18.244154596
 10
-3.4180378752
 20
-18.2682840275
 10
-3.4202448843
 20
-18.2924729297
 10
-3.4218237817
 20
-18.3167071811
 10
-3.4227288203
 20
-18.3410009033
 10
-3.42296
 20
-18.3653540962
  0
LINE
  5
493
100
AcDbEntity
  8
RACCORDO
100
AcDbLine
 62
7
  6
CONTINUOUS
 10
-9.1
 20
-12.9
 11
-9.2108433288
 21
-12.950198812
  0
LINE
  5
494
100
AcDbEntity
  8
DRAFT
100
AcDbLine
 62
7
  6
CONTINUOUS
 10
-9.740442407
 20
-14.7862164943
 11
-9.8828427125
 21
-14.85
  0
LINE
  5
495
100
AcDbEntity
  8
DRAFT
100
AcDbLine
 62
7
  6
CONTINUOUS
 10
-9.7081250603
 20
-14.7719300844
 11
-9.740442407
 21
-14.7862164943
  0
LINE
  5
496
100
AcDbEntity
  8
DRAFT
100
AcDbLine
 62
7
  6
CONTINUOUS
 10
-9.6858247087
 20
-14.7622001975
 11
-9.7081250603
 21
-14.7719300844
  0
LINE
  5
497
100
AcDbEntity
  8
0
100
AcDbLine
 62
7
  6
CONTINUOUS
 10
-3.1099579961
 20
8.4965397575
 11
-3.3155517821
 21
8.4965397575
  0
LINE
  5
498
100
AcDbEntity
  8
0
100
AcDbLine
 62
7
  6
CONTINUOUS
 10
3.7094295635
 20
8.5
 11
3.5040221726
 21
8.5
  0
LINE
  5
499
100
AcDbEntity
  8
0
100
AcDbLine
 62
7
  6
CONTINUOUS
 10
1.0297016454
 20
8.5381532716
 11
0.5780183277
 21
8.5381532716
  0
LINE
  5
49A
100
AcDbEntity
  8
0
100
AcDbLine
 62
7
  6
CONTINUOUS
 10
1.3214216264
 20
9.8003976015
 11
1.0297016454
 21
9.8002457332
  0
LINE
  5
49B
100
AcDbEntity
  8
RACCORDO
100
AcDbLine
 62
250
  6
CONTINUOUS
 10
7.6217708624
 20
23.2386058148
 11
7.5994242576
 21
23.4643459867
  0
LINE
  5
49C
100
AcDbEntity
  8
RACCORDO
100
AcDbLine
 62
250
  6
CONTINUOUS
 10
7.7782291376
 20
21.7613941852
 11
7.8005757424
 21
21.5356540133
  0
LINE
  5
49D
100
AcDbEntity
  8
RACCORDO
100
AcDbLine
 62
250
  6
CONTINUOUS
 10
7.9781986766
 20
21.9583557358
 11
8.0
 21
21.7381238696
  0
LINE
  5
49E
100
AcDbEntity
  8
RACCORDO
100
AcDbLine
 62
7
  6
CONTINUOUS
 10
9.9886751346
 20
-12.3968781766
 11
9.9886751346
 21
-14.1031218234
  0
LINE
  5
49F
100
AcDbEntity
  8
0
100
AcDbLine
 62
7
  6
CONTINUOUS
 10
10.0
 20
-25.1524539902
 11
10.0
 21
-16.25
  0
LINE
  5
4A0
100
AcDbEntity
  8
0
100
AcDbLine
 62
7
  6
CONTINUOUS
 10
10.0
 20
-10.25
 11
10.0
 21
25.1524539902
  0
LINE
  5
4A1
100
AcDbEntity
  8
RACCORDO
100
AcDbLine
 62
7
  6
CONTINUOUS
 10
10.0428653412
 20
-2.0
 11
10.0428653412
 21
2.0
  0
LINE
  5
4A2
100
AcDbEntity
  8
DRAFT
100
AcDbLine
 62
7
  6
CONTINUOUS
 10
10.1
 20
-16.25
 11
10.1
 21
-14.6618993734
  0
LINE
  5
4A3
100
AcDbEntity
  8
0
100
AcDbLine
 62
7
  6
CONTINUOUS
 10
10.1
 20
-16.25
 11
10.1
 21
-14.85
  0
LINE
  5
4A4
100
AcDbEntity
  8
DRAFT
100
AcDbLine
 62
7
  6
CONTINUOUS
 10
10.1
 20
-11.8381006266
 11
10.1
 21
-10.25
  0
LINE
  5
4A5
100
AcDbEntity
  8
0
100
AcDbLine
 62
7
  6
CONTINUOUS
 10
10.1
 20
-11.65
 11
10.1
 21
-10.25
  0
LINE
  5
4A6
100
AcDbEntity
  8
DRAFT
100
AcDbLine
 62
7
  6
CONTINUOUS
 10
10.6
 20
-14.6366435717
 11
10.6
 21
-11.8633564283
  0
LINE
  5
4A7
100
AcDbEntity
  8
RACCORDO
100
AcDbLine
 62
7
  6
CONTINUOUS
 10
11.0428653412
 20
-2.0
 11
11.0428653412
 21
2.0
  0
LINE
  5
4A8
100
AcDbEntity
  8
RACCORDO
100
AcDbLine
 62
7
  6
CONTINUOUS
 10
11.0528653412
 20
25.8530366787
 11
11.0528653412
 21
-25.8530366787
  0
LINE
  5
4A9
100
AcDbEntity
  8
0
100
AcDbLine
 62
7
  6
CONTINUOUS
 10
9.9792233056
 20
-10.25
 11
9.9951496114
 21
1.0515062566
  0
LINE
  5
4AA
100
AcDbEntity
  8
0
100
AcDbLine
 62
7
  6
CONTINUOUS
 10
9.9682162764
 20
-16.2500000026
 11
9.9525363335
 21
-24.7967854951
  0
LWPOLYLINE
  5
4AB
100
AcDbEntity
  8
0
100
AcDbPolyline
 62
7
  6
CONTINUOUS
 90
7
 70
0
 10
3.3656985447
 20
-19.911410782
 10
3.3835416268
 20
-19.8644508947
 10
3.3990200843
 20
-19.8152701131
 10
3.4121339173
 20
-19.7638684372
 10
3.4228831258
 20
-19.7102458669
 10
3.4312677098
 20
-19.6544024023
 10
3.4372876693
 20
-19.5963380434
  0
LWPOLYLINE
  5
4AC
100
AcDbEntity
  8
0
100
AcDbPolyline
 62
7
  6
CONTINUOUS
 90
7
 70
0
 10
-1.415629381
 20
-17.85
 10
-1.4427382274
 20
-17.8823853659
 10
-1.4715162131
 20
-17.9143292632
 10
-1.501963338
 20
-17.9458316919
 10
-1.534079602
 20
-17.976892652
 10
-1.5678650054
 20
-18.0075121435
 10
-1.6033195479
 20
-18.0376901665
  0
LWPOLYLINE
  5
4AD
100
AcDbEntity
  8
0
100
AcDbPolyline
 62
7
  6
CONTINUOUS
 90
47
 70
0
 10
4.1000617166
 20
-9.5211375888
 10
4.1114535717
 20
-9.5119223242
 10
4.1230761633
 20
-9.5024339162
 10
4.1348176453
 20
-9.4924291471
 10
4.1467140215
 20
-9.4819590921
 10
4.1588163177
 20
-9.4710979657
 10
4.1710735081
 20
-9.4597715262
 10
4.1833685196
 20
-9.4478081595
 10
4.1957188424
 20
-9.43521546
 10
4.2081069862
 20
-9.4219857881
 10
4.2203634075
 20
-9.4079246632
 10
4.2324726368
 20
-9.3930114127
 10
4.2444501437
 20
-9.3772666381
 10
4.2561727931
 20
-9.3605577534
 10
4.2676483494
 20
-9.342865119
 10
4.2788690482
 20
-9.3242082751
 10
4.2896884615
 20
-9.3045133898
 10
4.3001300785
 20
-9.2837711377
 10
4.3101704099
 20
-9.2619907162
 10
4.3195925598
 20
-9.239126065
 10
4.3284119484
 20
-9.2151786518
 10
4.3366131554
 20
-9.1901468508
 10
4.3439330233
 20
-9.1639799489
 10
4.3503775423
 20
-9.136667836
 10
4.3559407222
 20
-9.1082204275
 10
4.360341435
 20
-9.0786170348
 10
4.3635924101
 20
-9.0478509117
 10
4.3656809181
 20
-9.0159285737
 10
4.3662876433
 20
-8.9828492148
 10
4.3655208239
 20
-8.948587577
 10
4.3632722218
 20
-8.9131686504
 10
4.3588978067
 20
-8.8766670002
 10
4.3524977618
 20
-8.8389173267
 10
4.3439719039
 20
-8.8000846298
 10
4.3323756533
 20
-8.7607389978
 10
4.317444092
 20
-8.7205446899
 10
4.299442138
 20
-8.6798372506
 10
4.2782199655
 20
-8.640193982
 10
4.2532678705
 20
-8.6015365697
 10
4.225095557
 20
-8.5639435842
 10
4.1950823112
 20
-8.5292281029
 10
4.1632359938
 20
-8.4978363388
 10
4.1295487441
 20
-8.4693227615
 10
4.0953762661
 20
-8.4441630754
 10
4.0611704609
 20
-8.4225160522
 10
4.0264794275
 20
-8.404223477
 10
3.9913031656
 20
-8.3892855661
  0
LWPOLYLINE
  5
4AE
100
AcDbEntity
  8
DRAFT
100
AcDbPolyline
 62
7
  6
CONTINUOUS
 90
6
 70
0
 10
-9.6446545832
 20
-14.7450136038
 10
-9.6513006102
 20
-14.7476774518
 10
-9.6580329015
 20
-14.7504215336
 10
-9.6648514569
 20
-14.753245849
 10
-9.6717358795
 20
-14.7561484191
 10
-9.6858247087
 20
-14.7622001975
  0
LINE
  5
4AF
100
AcDbEntity
  8
RACCORDO
100
AcDbLine
 62
250
  6
CONTINUOUS
 10
-8.1461946517
 20
-12.8317182965
 11
-8.4938267808
 21
-12.9350412696
  0
LINE
  5
4B0
100
AcDbEntity
  8
RACCORDO
100
AcDbLine
 62
250
  6
CONTINUOUS
 10
-7.9865696787
 20
-12.9779746848
 11
-8.3461056179
 21
-13.0848356998
  0
LWPOLYLINE
  5
4B1
100
AcDbEntity
  8
0
100
AcDbPolyline
 62
7
  6
CONTINUOUS
 90
34
 70
0
 10
1.2405963948
 20
10.1389058454
 10
1.2672769994
 20
10.1390275631
 10
1.2938767274
 20
10.1394608234
 10
1.3203891014
 20
10.1403065512
 10
1.3468346774
 20
10.1416657132
 10
1.3731801895
 20
10.143635642
 10
1.3993388837
 20
10.1463032627
 10
1.4252476539
 20
10.1497468092
 10
1.4509587076
 20
10.1540541955
 10
1.476558347
 20
10.1593256943
 10
1.5020183562
 20
10.1656489666
 10
1.5271948126
 20
10.1731323752
 10
1.5519748046
 20
10.1819352706
 10
1.5761651514
 20
10.1922116303
 10
1.5994816452
 20
10.2040839519
 10
1.6216664768
 20
10.2176810172
 10
1.6424976097
 20
10.2331568105
 10
1.6617155538
 20
10.2506212735
 10
1.6791739855
 20
10.2699103874
 10
1.6949094848
 20
10.2907417811
 10
1.708993462
 20
10.3128731031
 10
1.7214681266
 20
10.3360259544
 10
1.7323739223
 20
10.359907068
 10
1.7417864188
 20
10.3843013968
 10
1.7497901538
 20
10.4090645689
 10
1.7564693478
 20
10.4340867139
 10
1.7619336202
 20
10.459323444
 10
1.7663070511
 20
10.4848071097
 10
1.7697007412
 20
10.5105368744
 10
1.7722189749
 20
10.5364497468
 10
1.7739726508
 20
10.5624850419
 10
1.7750779701
 20
10.5885997873
 10
1.7756535164
 20
10.6147690271
 10
1.7758186036
 20
10.6409582003
  0
LINE
  5
4B2
100
AcDbEntity
  8
0
100
AcDbLine
 62
7
  6
CONTINUOUS
 10
1.2405963948
 20
10.1389058454
 11
1.0297016454
 21
10.1389058454
  0
LINE
  5
4B3
100
AcDbEntity
  8
0
100
AcDbLine
 62
7
  6
CONTINUOUS
 10
-2.7282208486
 20
10.2175256378
 11
-3.1099579961
 21
10.2175256378
  0
LINE
  5
4B4
100
AcDbEntity
  8
0
100
AcDbLine
 62
7
  6
CONTINUOUS
 10
-3.3155517821
 20
10.2175256378
 11
-3.6973821272
 21
10.2175256378
  0
LINE
  5
4B5
100
AcDbEntity
  8
0
100
AcDbLine
 62
7
  6
CONTINUOUS
 10
4.0913531061
 20
10.2209858803
 11
3.7094295635
 21
10.2209858803
  0
LINE
  5
4B6
100
AcDbEntity
  8
0
100
AcDbLine
 62
7
  6
CONTINUOUS
 10
3.5040221726
 20
10.2209858803
 11
3.12209863
 21
10.2209858803
  0
LINE
  5
4B7
100
AcDbEntity
  8
0
100
AcDbLine
 62
250
  6
CONTINUOUS
 10
9.9982544935
 20
10.7371426949
 11
-9.9982544935
 21
10.7371426949
  0
LINE
  5
4B8
100
AcDbEntity
  8
0
100
AcDbLine
 62
7
  6
CONTINUOUS
 10
-0.0100299444
 20
11.453414866
 11
-0.4498376355
 21
11.453414866
  0
LINE
  5
4B9
100
AcDbEntity
  8
0
100
AcDbLine
 62
7
  6
CONTINUOUS
 10
-1.3773650285
 20
11.453414866
 11
-1.8282293375
 21
11.453414866
  0
LWPOLYLINE
  5
4BA
100
AcDbEntity
  8
0
100
AcDbPolyline
 62
7
  6
CONTINUOUS
 90
22
 70
0
 10
1.0297016454
 20
11.1147547539
 10
1.3010244779
 20
11.114665016
 10
1.3397892167
 20
11.1133441085
 10
1.3773658296
 20
11.1107920316
 10
1.4137760581
 20
11.1071629095
 10
1.4489981607
 20
11.1023026179
 10
1.4829669126
 20
11.0957487835
 10
1.5158173997
 20
11.0875834492
 10
1.5474145361
 20
11.0777245721
 10
1.5772878395
 20
11.0654636495
 10
1.6054333077
 20
11.0506190665
 10
1.6318549428
 20
11.0333724379
 10
1.6560942691
 20
11.0135601053
 10
1.6780253007
 20
10.9909526858
 10
1.6977740235
 20
10.9657795623
 10
1.7152599192
 20
10.9385652248
 10
1.7304577147
 20
10.9093482066
 10
1.743392683
 20
10.8780899745
 10
1.7540601254
 20
10.8451994182
 10
1.7624584755
 20
10.8108128346
 10
1.7685892996
 20
10.7747939268
 10
1.7724525978
 20
10.7371426949
  0
LINE
  5
4BB
100
AcDbEntity
  8
RACCORDO
100
AcDbLine
 62
7
  6
CONTINUOUS
 10
-8.0
 20
22.8
 11
-7.9871975793
 21
22.7871975793
  0
LINE
  5
4BC
100
AcDbEntity
  8
RACCORDO
100
AcDbLine
 62
250
  6
CONTINUOUS
 10
-4.6404622304
 20
21.2904736535
 11
-4.65
 21
21.3000114231
  0
LWPOLYLINE
  5
4BD
100
AcDbEntity
  8
0
100
AcDbPolyline
 62
7
  6
CONTINUOUS
 90
13
 70
0
 10
-2.6936634321
 20
-18.7670055474
 10
-2.7035395225
 20
-18.7758995763
 10
-2.7137525074
 20
-18.7842756986
 10
-2.7243023867
 20
-18.7921339142
 10
-2.7352203511
 20
-18.7994749368
 10
-2.74647521
 20
-18.8062980529
 10
-2.7579733916
 20
-18.812601121
 10
-2.7697069065
 20
-18.8183887743
 10
-2.7816837441
 20
-18.8236563798
 10
-2.7938343012
 20
-18.8283878961
 10
-2.8061353766
 20
-18.8325779764
 10
-2.8186101714
 20
-18.8362319676
 10
-2.8312586857
 20
-18.8393498697
  0
LWPOLYLINE
  5
4BE
100
AcDbEntity
  8
0
100
AcDbPolyline
 62
7
  6
CONTINUOUS
 90
7
 70
0
 10
-2.5067773773
 20
-18.8807053307
 10
-2.4857947436
 20
-18.862752399
 10
-2.4662065424
 20
-18.8432853892
 10
-2.4480127736
 20
-18.8223043014
 10
-2.4312134373
 20
-18.7998091355
 10
-2.4158085333
 20
-18.7757998915
 10
-2.4017980618
 20
-18.7502765694
  0
LWPOLYLINE
  5
4BF
100
AcDbEntity
  8
0
100
AcDbPolyline
 62
7
  6
CONTINUOUS
 90
7
 70
0
 10
-1.6033195479
 20
-18.0376901665
 10
-1.6384479302
 20
-18.0669582656
 10
-1.6735221897
 20
-18.0951230876
 10
-1.7085423264
 20
-18.1221846324
 10
-1.7435083404
 20
-18.1481429002
 10
-1.7784202316
 20
-18.1729978908
 10
-1.813278
 20
-18.1967496044
  0
LWPOLYLINE
  5
4C0
100
AcDbEntity
  8
0
100
AcDbPolyline
 62
7
  6
CONTINUOUS
 90
7
 70
0
 10
-1.618698004
 20
-18.3302664648
 10
-1.5893477392
 20
-18.3060414368
 10
-1.56010838
 20
-18.280908658
 10
-1.5309799266
 20
-18.2548681284
 10
-1.5019623787
 20
-18.2279198478
 10
-1.4730557365
 20
-18.2000638164
 10
-1.44426
 20
-18.1713000341
  0
LINE
  5
4C1
100
AcDbEntity
  8
RACCORDO
100
AcDbLine
 62
7
  6
CONTINUOUS
 10
4.75
 20
12.5
 11
-4.75
 21
12.5
  0
LINE
  5
4C2
100
AcDbEntity
  8
RACCORDO
100
AcDbLine
 62
250
  6
CONTINUOUS
 10
-4.3404736535
 20
21.5904622304
 11
-4.3500114231
 21
21.6
  0
LWPOLYLINE
  5
4C3
100
AcDbEntity
  8
0
100
AcDbPolyline
 62
7
  6
CONTINUOUS
 90
13
 70
0
 10
-0.1495159874
 20
-18.0631397471
 10
-0.1373124977
 20
-18.0545419762
 10
-0.1247222758
 20
-18.0467635083
 10
-0.1117453217
 20
-18.0398043435
 10
-0.0983140218
 20
-18.0336786375
 10
-0.0844959898
 20
-18.0283722344
 10
-0.0704940664
 20
-18.0238426676
 10
-0.0563363206
 20
-18.0200999754
 10
-0.0419946835
 20
-18.0171341193
 10
-0.027587789
 20
-18.0148725172
 10
-0.0131551817
 20
-18.0132909749
 10
0.001342683
 20
-18.0124136865
 10
0.0159058051
 20
-18.0122406521
  0
LWPOLYLINE
  5
4C4
100
AcDbEntity
  8
0
100
AcDbPolyline
 62
7
  6
CONTINUOUS
 90
13
 70
0
 10
1.2883816265
 20
-18.0631398134
 10
1.3005851166
 20
-18.0545420588
 10
1.3131753363
 20
-18.0467636006
 10
1.3261522855
 20
-18.0398044388
 10
1.3395835766
 20
-18.0336787274
 10
1.3534015972
 20
-18.0283723123
 10
1.3674035109
 20
-18.0238427319
 10
1.3815612498
 20
-18.0201000247
 10
1.3959028816
 20
-18.017134152
 10
1.4103097727
 20
-18.0148725362
 10
1.4247423786
 20
-18.0132909847
 10
1.4392402437
 20
-18.01241369
 10
1.4538033681
 20
-18.0122406521
  0
LWPOLYLINE
  5
4C5
100
AcDbEntity
  8
0
100
AcDbPolyline
 62
7
  6
CONTINUOUS
 90
16
 70
0
 10
-0.2863070412
 20
-17.8818118908
 10
-0.3012375036
 20
-17.8910415961
 10
-0.3156994463
 20
-17.9008400369
 10
-0.3296928691
 20
-17.9112072134
 10
-0.3432264158
 20
-17.922173091
 10
-0.3562914427
 20
-17.9337077041
 10
-0.3688620185
 20
-17.945721156
 10
-0.38094307
 20
-17.9582077308
 10
-0.3925296704
 20
-17.9711731443
 10
-0.4035811077
 20
-17.9845446469
 10
-0.4141015376
 20
-17.9983154991
 10
-0.4240868044
 20
-18.0124924404
 10
-0.4334837284
 20
-18.0270229391
 10
-0.4422745829
 20
-18.0418894849
 10
-0.4504770945
 20
-18.0571095881
 10
-0.4580912633
 20
-18.0726832488
  0
LINE
  5
4C6
100
AcDbEntity
  8
DRAFT
100
AcDbLine
 62
7
  6
CONTINUOUS
 10
9.740442407
 20
-11.7137835057
 11
9.8828427125
 21
-11.65
  0
LWPOLYLINE
  5
4C7
100
AcDbEntity
  8
0
100
AcDbPolyline
 62
7
  6
CONTINUOUS
 90
7
 70
0
 10
-3.0221300745
 20
-18.0440525519
 10
-3.0000997399
 20
-18.0343014914
 10
-2.9771258899
 20
-18.0263300618
 10
-2.9532085245
 20
-18.020138263
 10
-2.9283476437
 20
-18.0157260952
 10
-2.9025432475
 20
-18.0130935582
 10
-2.8757953359
 20
-18.0122406521
  0
LINE
  5
4C8
100
AcDbEntity
  8
DRAFT
100
AcDbLine
 62
7
  6
CONTINUOUS
 10
9.7081250603
 20
-11.7280699156
 11
9.740442407
 21
-11.7137835057
  0
LINE
  5
4C9
100
AcDbEntity
  8
DRAFT
100
AcDbLine
 62
7
  6
CONTINUOUS
 10
9.6858247087
 20
-11.7377998025
 11
9.7081250603
 21
-11.7280699156
  0
LWPOLYLINE
  5
4CA
100
AcDbEntity
  8
DRAFT
100
AcDbPolyline
 62
7
  6
CONTINUOUS
 90
6
 70
0
 10
9.6446545832
 20
-11.7549863962
 10
9.6513006102
 20
-11.7523225482
 10
9.6580329015
 20
-11.7495784664
 10
9.6648514569
 20
-11.746754151
 10
9.6717358795
 20
-11.7438515809
 10
9.6858247087
 20
-11.7377998025
  0
LINE
  5
4CB
100
AcDbEntity
  8
RACCORDO
100
AcDbLine
 62
250
  6
CONTINUOUS
 10
7.9764310987
 20
-13.5250386967
 11
8.3461056179
 21
-13.4151643002
  0
LINE
  5
4CC
100
AcDbEntity
  8
RACCORDO
100
AcDbLine
 62
250
  6
CONTINUOUS
 10
8.1250220438
 20
-13.6745746109
 11
8.4938267808
 21
-13.5649587304
  0
LINE
  5
4CD
100
AcDbEntity
  8
RACCORDO
100
AcDbLine
 62
250
  6
CONTINUOUS
 10
-4.8408975231
 20
20.114313247
 11
-4.7059939892
 21
20.0203448752
  0
LINE
  5
4CE
100
AcDbEntity
  8
DRAFT
100
AcDbLine
 62
7
  6
CONTINUOUS
 10
4.3189501702
 20
19.8138878678
 11
4.3286238999
 21
19.8
  0
LINE
  5
4CF
100
AcDbEntity
  8
RACCORDO
100
AcDbLine
 62
250
  6
CONTINUOUS
 10
4.3368982748
 20
20.5502286569
 11
4.7059939892
 21
20.0203448752
  0
LINE
  5
4D0
100
AcDbEntity
  8
RACCORDO
100
AcDbLine
 62
7
  6
CONTINUOUS
 10
4.5959457463
 20
20.4407598898
 11
4.8290726925
 21
20.106076546
  0
LINE
  5
4D1
100
AcDbEntity
  8
DRAFT
100
AcDbLine
 62
7
  6
CONTINUOUS
 10
4.8408975231
 20
20.114313247
 11
4.65
 21
20.3883708899
  0
LINE
  5
4D2
100
AcDbEntity
  8
RACCORDO
100
AcDbLine
 62
7
  6
CONTINUOUS
 10
9.4290614477
 20
-14.6012191724
 11
9.1
 21
-14.85
  0
LWPOLYLINE
  5
4D3
100
AcDbEntity
  8
0
100
AcDbPolyline
 62
7
  6
CONTINUOUS
 90
13
 70
0
 10
2.7262791895
 20
-18.0631398134
 10
2.7384826796
 20
-18.0545420588
 10
2.7510728992
 20
-18.0467636006
 10
2.7640498485
 20
-18.0398044388
 10
2.7774811396
 20
-18.0336787274
 10
2.7912991602
 20
-18.0283723123
 10
2.8053010738
 20
-18.0238427319
 10
2.8194588127
 20
-18.0201000247
 10
2.8338004446
 20
-18.017134152
 10
2.8482073357
 20
-18.0148725362
 10
2.8626399416
 20
-18.0132909847
 10
2.8771378067
 20
-18.01241369
 10
2.8917009311
 20
-18.0122406521
  0
LWPOLYLINE
  5
4D4
100
AcDbEntity
  8
0
100
AcDbPolyline
 62
7
  6
CONTINUOUS
 90
10
 70
0
 10
0.1743519639
 20
-19.9392597097
 10
0.1594220299
 20
-19.9497575299
 10
0.1436045268
 20
-19.9589532863
 10
0.1268994544
 20
-19.9668469791
 10
0.1091329356
 20
-19.9734055144
 10
0.0904788475
 20
-19.978661986
 10
0.071458822
 20
-19.982715675
 10
0.0522467364
 20
-19.9855996748
 10
0.0326687134
 20
-19.987280892
 10
0.0127247529
 20
-19.9877593265
  0
LWPOLYLINE
  5
4D5
100
AcDbEntity
  8
0
100
AcDbPolyline
 62
7
  6
CONTINUOUS
 90
10
 70
0
 10
1.612249801
 20
-19.9392597097
 10
1.597319867
 20
-19.9497575298
 10
1.5815023573
 20
-19.958953286
 10
1.5647972721
 20
-19.9668469785
 10
1.5470307355
 20
-19.9734055135
 10
1.5283766234
 20
-19.9786619847
 10
1.5093565627
 20
-19.9827156734
 10
1.490144429
 20
-19.9855996735
 10
1.4705663467
 20
-19.9872808912
 10
1.4506223159
 20
-19.9877593265
  0
LWPOLYLINE
  5
4D6
100
AcDbEntity
  8
0
100
AcDbPolyline
 62
7
  6
CONTINUOUS
 90
16
 70
0
 10
0.318118925
 20
-20.1150069122
 10
0.3333063919
 20
-20.1049501279
 10
0.3479826151
 20
-20.0943122577
 10
0.3621475946
 20
-20.0830933017
 10
0.3758079182
 20
-20.0712592881
 10
0.3889569981
 20
-20.0588441886
 10
0.4015750712
 20
-20.0459499188
 10
0.413666617
 20
-20.0325825981
 10
0.425227156
 20
-20.0187361071
 10
0.4362234867
 20
-20.0044940032
 10
0.4466587475
 20
-19.9898652439
 10
0.4565298001
 20
-19.9748408717
 10
0.4657940277
 20
-19.959477571
 10
0.4744372249
 20
-19.9437942365
 10
0.4824735972
 20
-19.9277719735
 10
0.4899031446
 20
-19.911410782
  0
LWPOLYLINE
  5
4D7
100
AcDbEntity
  8
0
100
AcDbPolyline
 62
7
  6
CONTINUOUS
 90
16
 70
0
 10
1.151590796
 20
-17.8818118908
 10
1.1366603244
 20
-17.891041597
 10
1.12219837
 20
-17.9008400369
 10
1.1082049329
 20
-17.9112072105
 10
1.0946713689
 20
-17.9221730828
 10
1.0816063222
 20
-17.9337076888
 10
1.0690357252
 20
-17.9457211339
 10
1.056954651
 20
-17.9582077024
 10
1.0453680264
 20
-17.97117311
 10
1.0343165653
 20
-17.9845446091
 10
1.0237961114
 20
-17.9983154609
 10
1.0138108208
 20
-18.0124924042
 10
1.0044138761
 20
-18.0270229077
 10
0.9956230048
 20
-18.0418894611
 10
0.9874204793
 20
-18.0571095748
 10
0.9798062997
 20
-18.0726832488
  0
LWPOLYLINE
  5
4D8
100
AcDbEntity
  8
0
100
AcDbPolyline
 62
7
  6
CONTINUOUS
 90
16
 70
0
 10
2.589488359
 20
-17.8818118908
 10
2.5745578873
 20
-17.891041597
 10
2.560095933
 20
-17.9008400369
 10
2.5461024959
 20
-17.9112072105
 10
2.5325689319
 20
-17.9221730828
 10
2.5195038852
 20
-17.9337076888
 10
2.5069332882
 20
-17.9457211339
 10
2.4948522139
 20
-17.9582077024
 10
2.4832655894
 20
-17.97117311
 10
2.4722141283
 20
-17.9845446091
 10
2.4616936743
 20
-17.9983154609
 10
2.4517083838
 20
-18.0124924042
 10
2.4423114391
 20
-18.0270229077
 10
2.4335205678
 20
-18.0418894611
 10
2.4253180423
 20
-18.0571095748
 10
2.4177038627
 20
-18.0726832488
  0
LWPOLYLINE
  5
4D9
100
AcDbEntity
  8
0
100
AcDbPolyline
 62
7
  6
CONTINUOUS
 90
13
 70
0
 10
-2.7393783136
 20
-19.952085017
 10
-2.7515599119
 20
-19.9582163327
 10
-2.7639616995
 20
-19.9636393793
 10
-2.7765836766
 20
-19.9683541568
 10
-2.7894830532
 20
-19.9723073632
 10
-2.8026026193
 20
-19.9755523004
 10
-2.8157707441
 20
-19.9782488748
 10
-2.8289514581
 20
-19.9804005503
 10
-2.842180731
 20
-19.9820038629
 10
-2.8553948409
 20
-19.9832083265
 10
-2.8685725474
 20
-19.9840637791
 10
-2.881735091
 20
-19.9845203827
 10
-2.8948824717
 20
-19.9845781372
  0
LWPOLYLINE
  5
4DA
100
AcDbEntity
  8
0
100
AcDbPolyline
 62
7
  6
CONTINUOUS
 90
10
 70
0
 10
-2.6149378134
 20
-20.1372752396
 10
-2.5903971432
 20
-20.1257471631
 10
-2.5670196098
 20
-20.11335508
 10
-2.544805213
 20
-20.1000989902
 10
-2.5237226018
 20
-20.0859327093
 10
-2.5038031272
 20
-20.0709024217
 10
-2.4851408433
 20
-20.0551466808
 10
-2.4677671014
 20
-20.038711671
 10
-2.45165055
 20
-20.0215512078
 10
-2.4367911893
 20
-20.0036652912
  0
LINE
  5
4DB
100
AcDbEntity
  8
RACCORDO
100
AcDbLine
 62
7
  6
CONTINUOUS
 10
9.1
 20
-13.6
 11
9.2108433288
 21
-13.549801188
  0
LINE
  5
4DC
100
AcDbEntity
  8
DRAFT
100
AcDbLine
 62
7
  6
CONTINUOUS
 10
9.459557593
 20
-14.7862164943
 11
9.3171572875
 21
-14.85
  0
LINE
  5
4DD
100
AcDbEntity
  8
DRAFT
100
AcDbLine
 62
7
  6
CONTINUOUS
 10
9.4918749397
 20
-14.7719300844
 11
9.459557593
 21
-14.7862164943
  0
LINE
  5
4DE
100
AcDbEntity
  8
DRAFT
100
AcDbLine
 62
7
  6
CONTINUOUS
 10
9.5141752913
 20
-14.7622001975
 11
9.4918749397
 21
-14.7719300844
  0
LWPOLYLINE
  5
4DF
100
AcDbEntity
  8
DRAFT
100
AcDbPolyline
 62
7
  6
CONTINUOUS
 90
6
 70
0
 10
9.5553454168
 20
-14.7450136038
 10
9.5486993898
 20
-14.7476774518
 10
9.5419670985
 20
-14.7504215336
 10
9.5351485431
 20
-14.753245849
 10
9.5282641205
 20
-14.7561484191
 10
9.5141752913
 20
-14.7622001975
  0
LWPOLYLINE
  5
4E0
100
AcDbEntity
  8
0
100
AcDbPolyline
 62
7
  6
CONTINUOUS
 90
10
 70
0
 10
3.050147364
 20
-19.9392597097
 10
3.03521743
 20
-19.9497575298
 10
3.0193999203
 20
-19.958953286
 10
3.0026948351
 20
-19.9668469785
 10
2.9849282985
 20
-19.9734055135
 10
2.9662741864
 20
-19.9786619847
 10
2.9472541256
 20
-19.9827156734
 10
2.928041992
 20
-19.9855996735
 10
2.9084639097
 20
-19.9872808912
 10
2.8885198789
 20
-19.9877593265
  0
LWPOLYLINE
  5
4E1
100
AcDbEntity
  8
0
100
AcDbPolyline
 62
7
  6
CONTINUOUS
 90
16
 70
0
 10
1.756016488
 20
-20.1150069122
 10
1.7712039638
 20
-20.1049501269
 10
1.7858801986
 20
-20.0943122577
 10
1.8000451925
 20
-20.0830933045
 10
1.8137055335
 20
-20.0712592962
 10
1.8268546335
 20
-20.0588442039
 10
1.8394727281
 20
-20.0459499408
 10
1.8515642969
 20
-20.0325826264
 10
1.8631248603
 20
-20.0187361412
 10
1.8741212151
 20
-20.0044940406
 10
1.8845565001
 20
-19.9898652817
 10
1.8944275763
 20
-19.9748409074
 10
1.9036918246
 20
-19.9594776019
 10
1.9123350384
 20
-19.9437942598
 10
1.9203714241
 20
-19.9277719865
 10
1.9278009818
 20
-19.911410782
  0
LWPOLYLINE
  5
4E2
100
AcDbEntity
  8
0
100
AcDbPolyline
 62
7
  6
CONTINUOUS
 90
16
 70
0
 10
3.1939140509
 20
-20.1150069122
 10
3.2091015267
 20
-20.104950127
 10
3.2237777616
 20
-20.0943122577
 10
3.2379427554
 20
-20.0830933045
 10
3.2516030964
 20
-20.0712592962
 10
3.2647521964
 20
-20.0588442039
 10
3.277370291
 20
-20.0459499409
 10
3.2894618599
 20
-20.0325826264
 10
3.3010224233
 20
-20.0187361412
 10
3.3120187781
 20
-20.0044940406
 10
3.322454063
 20
-19.9898652817
 10
3.3323251393
 20
-19.9748409074
 10
3.3415893876
 20
-19.9594776019
 10
3.3502326013
 20
-19.9437942599
 10
3.358268987
 20
-19.9277719866
 10
3.3656985447
 20
-19.911410782
  0
LINE
  5
4E3
100
AcDbEntity
  8
RACCORDO
100
AcDbLine
 62
7
  6
CONTINUOUS
 10
-4.65
 20
20.3883708899
 11
-4.6368868517
 21
20.3842539975
  0
LINE
  5
4E4
100
AcDbEntity
  8
DRAFT
100
AcDbLine
 62
7
  6
CONTINUOUS
 10
-4.6767863365
 20
19.8
 11
-4.3286238999
 21
19.8
  0
LINE
  5
4E5
100
AcDbEntity
  8
DRAFT
100
AcDbLine
 62
7
  6
CONTINUOUS
 10
4.3286238999
 20
19.8
 11
4.6767863365
 21
19.8
  0
LINE
  5
4E6
100
AcDbEntity
  8
RACCORDO
100
AcDbLine
 62
7
  6
CONTINUOUS
 10
4.6767863365
 20
19.8144107552
 11
-4.6767863365
 21
19.8144107552
  0
LINE
  5
4E7
100
AcDbEntity
  8
RACCORDO
100
AcDbLine
 62
250
  6
CONTINUOUS
 10
4.6767863365
 20
19.9644050436
 11
-4.6767863365
 21
19.9644050436
  0
LINE
  5
4E8
100
AcDbEntity
  8
RACCORDO
100
AcDbLine
 62
250
  6
CONTINUOUS
 10
4.6368868517
 20
20.8753151822
 11
-4.6368868517
 21
20.8753151822
  0
LINE
  5
4E9
100
AcDbEntity
  8
RACCORDO
100
AcDbLine
 62
250
  6
CONTINUOUS
 10
4.3373987599
 20
21.2257698144
 11
-4.3373987599
 21
21.2257698144
  0
LWPOLYLINE
  5
4EA
100
AcDbEntity
  8
RACCORDO
100
AcDbPolyline
 62
7
  6
CONTINUOUS
 90
10
 70
0
 10
4.3368982748
 20
20.5502286569
 10
4.3738641531
 20
20.5427506142
 10
4.4098951672
 20
20.5350123489
 10
4.4443845052
 20
20.5265911802
 10
4.4766175904
 20
20.5171724265
 10
4.5063009829
 20
20.5063686256
 10
4.5334536211
 20
20.4936437782
 10
4.557753566
 20
20.4785905708
 10
4.5786769912
 20
20.4610271908
 10
4.5959457463
 20
20.4407598898
  0
LINE
  5
4EB
100
AcDbEntity
  8
RACCORDO
100
AcDbLine
 62
7
  6
CONTINUOUS
 10
8.0
 20
22.2
 11
7.9871975793
 21
22.2128024207
  0
LINE
  5
4EC
100
AcDbEntity
  8
RACCORDO
100
AcDbLine
 62
250
  6
CONTINUOUS
 10
-7.9871975793
 20
22.2128024207
 11
-8.7206477688
 21
22.2
  0
LINE
  5
4ED
100
AcDbEntity
  8
RACCORDO
100
AcDbLine
 62
250
  6
CONTINUOUS
 10
7.9822348431
 20
22.5846728965
 11
9.0
 21
22.6024380533
  0
LINE
  5
4EE
100
AcDbEntity
  8
RACCORDO
100
AcDbLine
 62
250
  6
CONTINUOUS
 10
-7.9822348431
 20
22.4153271035
 11
-9.0
 21
22.3975619467
  0
LINE
  5
4EF
100
AcDbEntity
  8
RACCORDO
100
AcDbLine
 62
250
  6
CONTINUOUS
 10
7.9871975793
 20
22.7871975793
 11
8.7206477688
 21
22.8
  0
LINE
  5
4F0
100
AcDbEntity
  8
RACCORDO
100
AcDbLine
 62
250
  6
CONTINUOUS
 10
-4.3392439961
 20
21.440935901
 11
4.3392439961
 21
21.440935901
  0
LINE
  5
4F1
100
AcDbEntity
  8
RACCORDO
100
AcDbLine
 62
7
  6
CONTINUOUS
 10
7.5994242576
 20
21.5356540133
 11
7.8005757424
 21
21.5356540133
  0
LINE
  5
4F2
100
AcDbEntity
  8
RACCORDO
100
AcDbLine
 62
7
  6
CONTINUOUS
 10
-7.5994242576
 20
21.5356540133
 11
-7.8005757424
 21
21.5356540133
  0
LINE
  5
4F3
100
AcDbEntity
  8
RACCORDO
100
AcDbLine
 62
7
  6
CONTINUOUS
 10
-4.3404736535
 20
21.5904622304
 11
4.3404736535
 21
21.5904622304
  0
LINE
  5
4F4
100
AcDbEntity
  8
RACCORDO
100
AcDbLine
 62
7
  6
CONTINUOUS
 10
4.3500114231
 20
21.6
 11
-4.3500114231
 21
21.6
  0
LINE
  5
4F5
100
AcDbEntity
  8
RACCORDO
100
AcDbLine
 62
250
  6
CONTINUOUS
 10
7.6217708624
 20
21.7613941852
 11
7.7782291376
 21
21.7613941852
  0
LINE
  5
4F6
100
AcDbEntity
  8
RACCORDO
100
AcDbLine
 62
250
  6
CONTINUOUS
 10
-7.6217708624
 20
21.7613941852
 11
-7.7782291376
 21
21.7613941852
  0
LINE
  5
4F7
100
AcDbEntity
  8
RACCORDO
100
AcDbLine
 62
7
  6
CONTINUOUS
 10
-8.7206477688
 20
22.2
 11
-8.0
 21
22.2
  0
LINE
  5
4F8
100
AcDbEntity
  8
RACCORDO
100
AcDbLine
 62
7
  6
CONTINUOUS
 10
8.0
 20
22.2
 11
8.7206477688
 21
22.2
  0
LINE
  5
4F9
100
AcDbEntity
  8
RACCORDO
100
AcDbLine
 62
7
  6
CONTINUOUS
 10
-8.7206477688
 20
22.8
 11
-8.0
 21
22.8
  0
LINE
  5
4FA
100
AcDbEntity
  8
RACCORDO
100
AcDbLine
 62
7
  6
CONTINUOUS
 10
8.0
 20
22.8
 11
8.7206477688
 21
22.8
  0
LINE
  5
4FB
100
AcDbEntity
  8
RACCORDO
100
AcDbLine
 62
250
  6
CONTINUOUS
 10
7.6217708624
 20
23.2386058148
 11
7.7782291376
 21
23.2386058148
  0
LINE
  5
4FC
100
AcDbEntity
  8
RACCORDO
100
AcDbLine
 62
250
  6
CONTINUOUS
 10
-7.6217708624
 20
23.2386058148
 11
-7.7782291376
 21
23.2386058148
  0
LINE
  5
4FD
100
AcDbEntity
  8
RACCORDO
100
AcDbLine
 62
250
  6
CONTINUOUS
 10
8.7206477688
 20
22.2
 11
7.9871975793
 21
22.2128024207
  0
LINE
  5
4FE
100
AcDbEntity
  8
RACCORDO
100
AcDbLine
 62
250
  6
CONTINUOUS
 10
-9.0
 20
22.6024380533
 11
-7.9822348431
 21
22.5846728965
  0
LINE
  5
4FF
100
AcDbEntity
  8
RACCORDO
100
AcDbLine
 62
250
  6
CONTINUOUS
 10
9.0
 20
22.3975619467
 11
7.9822348431
 21
22.4153271035
  0
LINE
  5
500
100
AcDbEntity
  8
RACCORDO
100
AcDbLine
 62
250
  6
CONTINUOUS
 10
-8.7206477688
 20
22.8
 11
-7.9871975793
 21
22.7871975793
  0
LINE
  5
501
100
AcDbEntity
  8
RACCORDO
100
AcDbLine
 62
7
  6
CONTINUOUS
 10
7.5994242576
 20
23.4643459867
 11
7.8005757424
 21
23.4643459867
  0
LINE
  5
502
100
AcDbEntity
  8
RACCORDO
100
AcDbLine
 62
7
  6
CONTINUOUS
 10
-7.5994242576
 20
23.4643459867
 11
-7.8005757424
 21
23.4643459867
  0
LINE
  5
503
100
AcDbEntity
  8
DRAFT
100
AcDbLine
 62
7
  6
CONTINUOUS
 10
10.0
 20
25.1524539902
 11
-10.0
 21
25.1524539902
  0
LINE
  5
504
100
AcDbEntity
  8
RACCORDO
100
AcDbLine
 62
7
  6
CONTINUOUS
 10
10.5530366787
 20
26.3528653412
 11
-10.5530366787
 21
26.3528653412
  0
ARC
  5
505
100
AcDbEntity
  8
0
100
AcDbCircle
 62
7
  6
CONTINUOUS
 10
-2.867405
 20
-16.761981
 40
2.0046916125
100
AcDbArc
 50
301.7241355833
 51
308.527655523
  0
ARC
  5
506
100
AcDbEntity
  8
RACCORDO
100
AcDbCircle
 62
7
  6
CONTINUOUS
 10
4.75
 20
12.0
 40
0.5
100
AcDbArc
 50
0.0
 51
90.0
  0
ARC
  5
507
100
AcDbEntity
  8
RACCORDO
100
AcDbCircle
 62
7
  6
CONTINUOUS
 10
4.75
 20
8.0
 40
0.5
100
AcDbArc
 50
270.0
 51
360.0
  0
ARC
  5
508
100
AcDbEntity
  8
RACCORDO
100
AcDbCircle
 62
7
  6
CONTINUOUS
 10
-4.75
 20
8.0
 40
0.5
100
AcDbArc
 50
180.0
 51
270.0
  0
ARC
  5
509
100
AcDbEntity
  8
RACCORDO
100
AcDbCircle
 62
7
  6
CONTINUOUS
 10
-4.75
 20
12.0
 40
0.5
100
AcDbArc
 50
90.0
 51
180.0
  0
ARC
  5
50A
100
AcDbEntity
  8
RACCORDO
100
AcDbCircle
 62
7
  6
CONTINUOUS
 10
-4.75
 20
-14.0
 40
0.5
100
AcDbArc
 50
180.0
 51
270.0
  0
ARC
  5
50B
100
AcDbEntity
  8
RACCORDO
100
AcDbCircle
 62
7
  6
CONTINUOUS
 10
-4.75
 20
-8.0
 40
0.5
100
AcDbArc
 50
90.0
 51
180.0
  0
ARC
  5
50C
100
AcDbEntity
  8
RACCORDO
100
AcDbCircle
 62
7
  6
CONTINUOUS
 10
4.75
 20
-8.0
 40
0.5
100
AcDbArc
 50
0.0
 51
90.0
  0
ARC
  5
50D
100
AcDbEntity
  8
RACCORDO
100
AcDbCircle
 62
7
  6
CONTINUOUS
 10
4.75
 20
-14.0
 40
0.5
100
AcDbArc
 50
270.0
 51
360.0
  0
ARC
  5
50E
100
AcDbEntity
  8
RACCORDO
100
AcDbCircle
 62
7
  6
CONTINUOUS
 10
4.75
 20
-20.5
 40
0.5
100
AcDbArc
 50
270.0
 51
360.0
  0
ARC
  5
50F
100
AcDbEntity
  8
RACCORDO
100
AcDbCircle
 62
7
  6
CONTINUOUS
 10
4.75
 20
-17.5
 40
0.5
100
AcDbArc
 50
0.0
 51
90.0
  0
ARC
  5
510
100
AcDbEntity
  8
RACCORDO
100
AcDbCircle
 62
7
  6
CONTINUOUS
 10
-4.75
 20
-17.5
 40
0.5
100
AcDbArc
 50
90.0
 51
180.0
  0
ARC
  5
511
100
AcDbEntity
  8
RACCORDO
100
AcDbCircle
 62
7
  6
CONTINUOUS
 10
-4.75
 20
-20.5
 40
0.5
100
AcDbArc
 50
180.0
 51
270.0
  0
ARC
  5
512
100
AcDbEntity
  8
DRAFT
100
AcDbCircle
 62
7
  6
CONTINUOUS
 10
-9.6
 20
-14.75
 40
0.3
100
AcDbArc
 50
199.4712206345
 51
340.5287793655
  0
ARC
  5
513
100
AcDbEntity
  8
DRAFT
100
AcDbCircle
 62
7
  6
CONTINUOUS
 10
-9.6
 20
-11.75
 40
0.3
100
AcDbArc
 50
19.4712206345
 51
160.5287793655
  0
ARC
  5
514
100
AcDbEntity
  8
DRAFT
100
AcDbCircle
 62
7
  6
CONTINUOUS
 10
9.6
 20
-14.75
 40
0.3
100
AcDbArc
 50
199.4712206345
 51
340.5287793655
  0
ARC
  5
515
100
AcDbEntity
  8
DRAFT
100
AcDbCircle
 62
7
  6
CONTINUOUS
 10
9.6
 20
-11.75
 40
0.3
100
AcDbArc
 50
19.4712206345
 51
160.5287793655
  0
ARC
  5
516
100
AcDbEntity
  8
DRAFT
100
AcDbCircle
 62
7
  6
CONTINUOUS
 10
4.6767863365
 20
20.0
 40
0.2
100
AcDbArc
 50
270.0
 51
34.8595164659
  0
ARC
  5
517
100
AcDbEntity
  8
DRAFT
100
AcDbCircle
 62
7
  6
CONTINUOUS
 10
-4.6767863365
 20
20.0
 40
0.2
100
AcDbArc
 50
145.1404835341
 51
270.0
  0
ARC
  5
518
100
AcDbEntity
  8
RACCORDO
100
AcDbCircle
 62
7
  6
CONTINUOUS
 10
4.6767863365
 20
20.0
 40
0.1855892448
100
AcDbArc
 50
270.0
 51
34.8595164659
  0
ARC
  5
519
100
AcDbEntity
  8
RACCORDO
100
AcDbCircle
 62
7
  6
CONTINUOUS
 10
-4.6767863365
 20
20.0
 40
0.1855892448
100
AcDbArc
 50
145.1404835341
 51
270.0
  0
ARC
  5
51A
100
AcDbEntity
  8
DRAFT
100
AcDbCircle
 62
7
  6
CONTINUOUS
 10
-9.6
 20
-14.75
 40
0.044932126
100
AcDbArc
 50
173.6284082058
 51
6.3715917942
  0
ARC
  5
51B
100
AcDbEntity
  8
DRAFT
100
AcDbCircle
 62
7
  6
CONTINUOUS
 10
-9.6
 20
-11.75
 40
0.044932126
100
AcDbArc
 50
353.6284082058
 51
186.3715917942
  0
ARC
  5
51C
100
AcDbEntity
  8
DRAFT
100
AcDbCircle
 62
7
  6
CONTINUOUS
 10
9.6
 20
-14.75
 40
0.044932126
100
AcDbArc
 50
173.6284082058
 51
6.3715917942
  0
ARC
  5
51D
100
AcDbEntity
  8
DRAFT
100
AcDbCircle
 62
7
  6
CONTINUOUS
 10
9.6
 20
-11.75
 40
0.044932126
100
AcDbArc
 50
353.6284082058
 51
186.3715917942
  0
ARC
  5
51E
100
AcDbEntity
  8
RACCORDO
100
AcDbCircle
 62
250
  6
CONTINUOUS
 10
-4.6767863365
 20
20.0
 40
0.0355949564
100
AcDbArc
 50
145.1404835341
 51
270.0
  0
ARC
  5
51F
100
AcDbEntity
  8
RACCORDO
100
AcDbCircle
 62
250
  6
CONTINUOUS
 10
4.6767863365
 20
20.0
 40
0.0355949564
100
AcDbArc
 50
270.0
 51
34.8595164659
  0
ELLIPSE
  5
520
100
AcDbEntity
  8
RACCORDO
100
AcDbEllipse
 62
7
  6
CONTINUOUS
 10
4.3499885765
 20
21.2999885765
 30
0.0
 11
0.2121481893
 21
0.2121481893
 31
0.0
 40
0.9999238505
 41
-0.7853600872
 42
0.7853600872
  0
ELLIPSE
  5
521
100
AcDbEntity
  8
RACCORDO
100
AcDbEllipse
 62
7
  6
CONTINUOUS
 10
8.7171572875
 20
22.5999695344
 30
0.0
 11
0.2828211741
 21
0.004936662
 31
0.0
 40
0.7070529271
 41
-0.0123410282
 42
1.5461142704
  0
ELLIPSE
  5
522
100
AcDbEntity
  8
RACCORDO
100
AcDbEllipse
 62
7
  6
CONTINUOUS
 10
7.9872595883
 20
22.5872291227
 30
0.0
 11
0.0000642523
 21
0.2000315672
 31
0.0
 40
0.0251177072
 41
0.0251285582
 42
1.5835838568
  0
ELLIPSE
  5
523
100
AcDbEntity
  8
RACCORDO
100
AcDbEllipse
 62
7
  6
CONTINUOUS
 10
7.7999695344
 20
23.2612606644
 30
0.0
 11
0.0200091116
 21
0.2021273628
 31
0.0
 40
0.9846622838
 41
-1.4705984321
 42
0.0971673115
  0
ELLIPSE
  5
524
100
AcDbEntity
  8
RACCORDO
100
AcDbEllipse
 62
7
  6
CONTINUOUS
 10
7.7999695344
 20
21.7387393356
 30
0.0
 11
-0.0200091116
 21
0.2021273628
 31
0.0
 40
0.9846622838
 41
-3.2387599651
 42
-1.6709942215
  0
ELLIPSE
  5
525
100
AcDbEntity
  8
RACCORDO
100
AcDbEllipse
 62
7
  6
CONTINUOUS
 10
7.6000304656
 20
21.7387393356
 30
0.0
 11
0.0200091116
 21
0.2021273628
 31
0.0
 40
0.9846622838
 41
-4.6121910857
 42
-3.0444253421
  0
ELLIPSE
  5
526
100
AcDbEntity
  8
RACCORDO
100
AcDbEllipse
 62
7
  6
CONTINUOUS
 10
-4.3499885765
 20
21.2999885765
 30
0.0
 11
0.2121481893
 21
-0.2121481893
 31
0.0
 40
0.9999238505
 41
2.3562325664
 42
3.9269527408
  0
ELLIPSE
  5
527
100
AcDbEntity
  8
RACCORDO
100
AcDbEllipse
 62
7
  6
CONTINUOUS
 10
7.6000304656
 20
23.2612606644
 30
0.0
 11
-0.0200091116
 21
0.2021273628
 31
0.0
 40
0.9846622838
 41
-0.0971673115
 42
1.4705984321
  0
ELLIPSE
  5
528
100
AcDbEntity
  8
RACCORDO
100
AcDbEllipse
 62
7
  6
CONTINUOUS
 10
-9.4240185763
 20
-14.1031218234
 30
0.0
 11
0.0
 21
0.5
 31
0.0
 40
0.1157209201
 41
1.5707963268
 42
3.054326191
  0
ELLIPSE
  5
529
100
AcDbEntity
  8
RACCORDO
100
AcDbEllipse
 62
7
  6
CONTINUOUS
 10
-9.4240185763
 20
-12.3968781766
 30
0.0
 11
0.0
 21
0.5
 31
0.0
 40
0.1157209201
 41
0.0872664626
 42
1.5707963268
  0
ELLIPSE
  5
52A
100
AcDbEntity
  8
RACCORDO
100
AcDbEllipse
 62
7
  6
CONTINUOUS
 10
-10.4886751346
 20
-14.1031218234
 30
0.0
 11
0.0
 21
0.5
 31
0.0
 40
1.0
 41
-3.054326191
 42
-1.5707963268
  0
ELLIPSE
  5
52B
100
AcDbEntity
  8
RACCORDO
100
AcDbEllipse
 62
7
  6
CONTINUOUS
 10
-10.4886751346
 20
-12.3968781766
 30
0.0
 11
0.5
 21
-0.0
 31
0.0
 40
1.0
 41
0.0
 42
1.4835298642
  0
ELLIPSE
  5
52C
100
AcDbEntity
  8
RACCORDO
100
AcDbEllipse
 62
7
  6
CONTINUOUS
 10
7.9872595883
 20
22.4127708773
 30
0.0
 11
-0.0000642523
 21
0.2000315672
 31
0.0
 40
0.0251177072
 41
1.5580087968
 42
3.1164640954
  0
ELLIPSE
  5
52D
100
AcDbEntity
  8
RACCORDO
100
AcDbEllipse
 62
7
  6
CONTINUOUS
 10
10.4886751346
 20
-14.1031218234
 30
0.0
 11
-0.0
 21
0.5
 31
0.0
 40
1.0
 41
1.5707963268
 42
3.054326191
  0
ELLIPSE
  5
52E
100
AcDbEntity
  8
RACCORDO
100
AcDbEllipse
 62
7
  6
CONTINUOUS
 10
10.4886751346
 20
-12.3968781766
 30
0.0
 11
0.0
 21
0.5
 31
0.0
 40
1.0
 41
0.0872664626
 42
1.5707963268
  0
ELLIPSE
  5
52F
100
AcDbEntity
  8
RACCORDO
100
AcDbEllipse
 62
7
  6
CONTINUOUS
 10
9.4240185763
 20
-12.3968781766
 30
0.0
 11
-0.0
 21
0.5
 31
0.0
 40
0.1157209201
 41
-1.5707963268
 42
-0.0872664626
  0
ELLIPSE
  5
530
100
AcDbEntity
  8
RACCORDO
100
AcDbEllipse
 62
7
  6
CONTINUOUS
 10
9.4240185763
 20
-14.1031218234
 30
0.0
 11
0.0
 21
0.5
 31
0.0
 40
0.1157209201
 41
-3.054326191
 42
-1.5707963268
  0
ELLIPSE
  5
531
100
AcDbEntity
  8
RACCORDO
100
AcDbEllipse
 62
7
  6
CONTINUOUS
 10
8.7171572875
 20
22.4000304656
 30
0.0
 11
0.2828211741
 21
-0.004936662
 31
0.0
 40
0.7070529271
 41
-1.5461142704
 42
0.0123410282
  0
ELLIPSE
  5
532
100
AcDbEntity
  8
RACCORDO
100
AcDbEllipse
 62
7
  6
CONTINUOUS
 10
-9.2099348741
 20
-13.4000067578
 30
0.0
 11
-0.0
 21
0.15
 31
0.0
 40
0.1157209201
 41
-4.7123889804
 42
-3.1939525311
  0
ELLIPSE
  5
533
100
AcDbEntity
  8
RACCORDO
100
AcDbEllipse
 62
7
  6
CONTINUOUS
 10
-9.2099348741
 20
-13.0999932422
 30
0.0
 11
0.0
 21
0.15
 31
0.0
 40
0.1157209201
 41
0.0523598776
 42
1.5707963268
  0
ELLIPSE
  5
534
100
AcDbEntity
  8
RACCORDO
100
AcDbEllipse
 62
7
  6
CONTINUOUS
 10
9.2099348741
 20
-13.0999932422
 30
0.0
 11
-0.0
 21
0.15
 31
0.0
 40
0.1157209201
 41
-1.5707963268
 42
-0.0523598776
  0
ELLIPSE
  5
535
100
AcDbEntity
  8
RACCORDO
100
AcDbEllipse
 62
7
  6
CONTINUOUS
 10
9.2099348741
 20
-13.4000067578
 30
0.0
 11
0.0
 21
0.15
 31
0.0
 40
0.1157209201
 41
-3.089232776
 42
-1.5707963268
  0
ELLIPSE
  5
536
100
AcDbEntity
  8
RACCORDO
100
AcDbEllipse
 62
7
  6
CONTINUOUS
 10
-7.6000304656
 20
23.2612606644
 30
0.0
 11
0.0200091116
 21
0.2021273628
 31
0.0
 40
0.9846622838
 41
-1.4705984321
 42
0.0971673115
  0
ELLIPSE
  5
537
100
AcDbEntity
  8
RACCORDO
100
AcDbEllipse
 62
7
  6
CONTINUOUS
 10
-7.6000304656
 20
21.7387393356
 30
0.0
 11
-0.0200091116
 21
0.2021273628
 31
0.0
 40
0.9846622838
 41
-3.2387599651
 42
-1.6709942215
  0
ELLIPSE
  5
538
100
AcDbEntity
  8
RACCORDO
100
AcDbEllipse
 62
7
  6
CONTINUOUS
 10
-7.7999695344
 20
21.7387393356
 30
0.0
 11
0.0200091116
 21
0.2021273628
 31
0.0
 40
0.9846622838
 41
-4.6121910857
 42
-3.0444253421
  0
ELLIPSE
  5
539
100
AcDbEntity
  8
RACCORDO
100
AcDbEllipse
 62
7
  6
CONTINUOUS
 10
-7.7999695344
 20
23.2612606644
 30
0.0
 11
-0.0200091116
 21
0.2021273628
 31
0.0
 40
0.9846622838
 41
-0.0971673115
 42
1.4705984321
  0
ELLIPSE
  5
53A
100
AcDbEntity
  8
RACCORDO
100
AcDbEllipse
 62
7
  6
CONTINUOUS
 10
-8.7171572875
 20
22.4000304656
 30
0.0
 11
0.2828211741
 21
0.004936662
 31
0.0
 40
0.7070529271
 41
3.1292516254
 42
4.687706924
  0
ELLIPSE
  5
53B
100
AcDbEntity
  8
RACCORDO
100
AcDbEllipse
 62
7
  6
CONTINUOUS
 10
-7.9872595883
 20
22.4127708773
 30
0.0
 11
0.0000642523
 21
0.2000315672
 31
0.0
 40
0.0251177072
 41
-3.1164640954
 42
-1.5580087968
  0
ELLIPSE
  5
53C
100
AcDbEntity
  8
RACCORDO
100
AcDbEllipse
 62
7
  6
CONTINUOUS
 10
-7.9872595883
 20
22.5872291227
 30
0.0
 11
-0.0000642523
 21
0.2000315672
 31
0.0
 40
0.0251177072
 41
-1.5835838568
 42
-0.0251285582
  0
ELLIPSE
  5
53D
100
AcDbEntity
  8
RACCORDO
100
AcDbEllipse
 62
7
  6
CONTINUOUS
 10
-8.7171572875
 20
22.5999695344
 30
0.0
 11
0.2828211741
 21
-0.004936662
 31
0.0
 40
0.7070529271
 41
1.5954783832
 42
3.1539336818
  0
ELLIPSE
  5
53E
100
AcDbEntity
  8
RACCORDO
100
AcDbEllipse
 62
7
  6
CONTINUOUS
 10
-10.5526939449
 20
-25.8526939449
 30
0.0
 11
0.35379574
 21
0.35379574
 31
0.0
 40
0.999315002
 41
2.3565371065
 42
3.9266482006
  0
ELLIPSE
  5
53F
100
AcDbEntity
  8
RACCORDO
100
AcDbEllipse
 62
7
  6
CONTINUOUS
 10
-10.5526939449
 20
25.8526939449
 30
0.0
 11
-0.35379574
 21
0.35379574
 31
0.0
 40
0.999315002
 41
-0.7850555471
 42
0.7850555471
  0
ELLIPSE
  5
540
100
AcDbEntity
  8
RACCORDO
100
AcDbEllipse
 62
7
  6
CONTINUOUS
 10
10.5526939449
 20
25.8526939449
 30
0.0
 11
-0.35379574
 21
-0.35379574
 31
0.0
 40
0.999315002
 41
2.3565371065
 42
3.9266482006
  0
ELLIPSE
  5
541
100
AcDbEntity
  8
RACCORDO
100
AcDbEllipse
 62
7
  6
CONTINUOUS
 10
10.5526939449
 20
-25.8526939449
 30
0.0
 11
0.35379574
 21
-0.35379574
 31
0.0
 40
0.999315002
 41
-0.7850555471
 42
0.7850555471
  0
ENDSEC
  0
SECTION
  2
OBJECTS
  0
DICTIONARY
  5
C
100
AcDbDictionary
280
0
281
1
  3
ACAD_GROUP
350
D
  3
ACAD_MLINESTYLE
350
17
  3
ACAD_LAYOUT
350
1A
  3
ACAD_PLOTSETTINGS
350
19
  3
ACAD_PLOTSTYLENAME
350
E
  0
DICTIONARY
  5
D
102
{ACAD_REACTORS
330
C
102
}
100
AcDbDictionary
280
0
281
1
  0
ACDBDICTIONARYWDFLT
  5
E
102
{ACAD_REACTORS
330
C
102
}
100
AcDbDictionary
281
1
  3
Normal
350
F
100
AcDbDictionaryWithDefault
340
F
  0
DICTIONARY
  5
17
102
{ACAD_REACTORS
330
C
102
}
100
AcDbDictionary
280
0
281
1
  3
Standard
350
18
  0
DICTIONARY
  5
19
102
{ACAD_REACTORS
330
C
102
}
100
AcDbDictionary
281
1
  0
DICTIONARY
  5
1A
102
{ACAD_REACTORS
330
C
102
}
100
AcDbDictionary
281
1
  3
Model
350
542
  3
Layout1
350
543
  0
ACDBPLACEHOLDER
  5
F
102
{ACAD_REACTORS
330
E
102
}
  0
MLINESTYLE
  5
18
102
{ACAD_REACTORS
330
17
102
}
100
AcDbMlineStyle
  2
STANDARD
 70
0
  3

 62
256
 51
90.0
 52
90.0
 71
2
 49
0.5
 62
256
  6
BYLAYER
 49
-0.5
 62
256
  6
BYLAYER
  0
LAYOUT
  5
542
102
{ACAD_REACTORS
330
1A
102
}
100
AcDbPlotSettings
  1

  2
none_device
  4
ISO_A4_(297.00_x_210.00_MM)
  6

 40
0.0
 41
0.0
 42
0.0
 43
0.0
 44
297.0
 45
210.0
 46
0.0
 47
0.0
 48
0.0
 49
0.0
140
0.0
141
0.0
142
1.0
143
1.0
 70
1024
 72
1
 73
0
 74
0
  7

 75
0
147
1.0
148
0.0
149
0.0
100
AcDbLayout
  1
Model
 70
0
 71
0
 10
0.0
 20
0.0
 11
297.0
 21
210.0
 12
0.0
 22
0.0
 32
0.0
 14
0.0
 24
0.0
 34
0.0
 15
0.0
 25
0.0
 35
0.0
146
0.0
 13
0.0
 23
0.0
 33
0.0
 16
1.0
 26
0.0
 36
0.0
 17
0.0
 27
1.0
 37
0.0
 76
0
330
21C
345
0
346
0
  0
LAYOUT
  5
543
102
{ACAD_REACTORS
330
1A
102
}
100
AcDbPlotSettings
  1

  2
none_device
  4
ISO_A4_(297.00_x_210.00_MM)
  6

 40
0.0
 41
0.0
 42
0.0
 43
0.0
 44
297.0
 45
210.0
 46
0.0
 47
0.0
 48
0.0
 49
0.0
140
0.0
141
0.0
142
1.0
143
1.0
 70
0
 72
1
 73
0
 74
0
  7

 75
0
147
1.0
148
0.0
149
0.0
100
AcDbLayout
  1
Layout1
 70
0
 71
1
 10
0.0
 20
0.0
 11
297.0
 21
210.0
 12
0.0
 22
0.0
 32
0.0
 14
0.0
 24
0.0
 34
0.0
 15
0.0
 25
0.0
 35
0.0
146
0.0
 13
0.0
 23
0.0
 33
0.0
 16
1.0
 26
0.0
 36
0.0
 17
0.0
 27
1.0
 37
0.0
 76
0
330
21D
345
0
346
0
  0
ENDSEC
  0
EOF
