  0
SECTION
  2
HEADER
  9
$ACADVER
  1
AC1024
  9
$DWGCODEPAGE
  3
ANSI_1252
  9
$EXTMAX
 10
297.0
 20
210.0
 30
0.0
  9
$EXTMIN
 10
0.0
 20
0.0
 30
0.0
  9
$LIMMIN
 10
0.0
 20
0.0
  9
$LIMMAX
 10
297.0
 20
210.0
  9
$VIEWCTR
 10
148.5
 20
105.0
  9
$VIEWSIZE
 40
210.0
  9
$CLAYER
  8
0
  9
$LTSCALE
 40
16.335
  9
$CELTYPE
  6
BYLAYER
  9
$DIMSCALE
 40
1.0
  9
$DIMASZ
 40
3.0
  9
$DIMEXO
 40
0.5
  9
$DIMDLI
 40
11.286
  9
$DIMEXE
 40
1.5
  9
$DIMCEN
 40
2.673
  9
$DIMLFAC
 40
1.0
  9
$DIMBLK
  1
_FILLED
  9
$DIMALT
 70
0
  9
$DIMALTF
 40
0.0393700787
  9
$DIMTXT
 40
3.0
  9
$DIMTOL
 70
1
  9
$DIMLIM
 70
0
  9
$DIMTFAC
 40
1.0
  9
$DIMTP
 40
0.01
  9
$DIMTM
 40
0.01
  9
$DIMGAP
 40
0.625
  9
$DIMDSEP
 70
44
  9
$AUNITS
 70
0
  9
$PDMODE
 70
3
  9
$PDSIZE
 40
3.0
  9
$HANDSEED
  5
6C9
  9
$TILEMODE
 70
1
  9
$MEASUREMENT
 70
1
  9
$INSUNITS
 70
4
  0
ENDSEC
  0
SECTION
  2
CLASSES
  0
CLASS
  1
ACDBDICTIONARYWDFLT
  2
AcDbDictionaryWithDefault
  3
AutoCAD 2000
 90
0
 91
1
280
0
281
0
  0
CLASS
  1
ACDBPLACEHOLDER
  2
AcDbPlaceHolder
  3
AutoCAD 2000
 90
0
 91
1
280
0
281
0
  0
CLASS
  1
LAYOUT
  2
AcDbLayout
  3
AutoCAD 2000
 90
0
 91
0
280
0
281
0
  0
ENDSEC
  0
SECTION
  2
TABLES
  0
TABLE
  2
VPORT
  5
8
100
AcDbSymbolTable
 70
2
  0
VPORT
  5
1F4
100
AcDbSymbolTableRecord
100
AcDbViewportTableRecord
  2
*ACTIVE
 70
0
 10
0.0
 20
0.0
 11
1.0
 21
1.0
 12
148.5
 22
105.0
 13
0.0
 23
0.0
 14
1.0
 24
1.0
 15
0.0
 25
0.0
 16
0.0
 26
0.0
 36
1.0
 17
0.0
 27
0.0
 37
0.0
 40
210.0
 41
1.4142857143
 42
50.0
 43
0.0
 44
0.0
 50
0.0
 51
0.0
 71
0
 72
100
 73
1
 74
1
 75
0
 76
0
 77
0
 78
0
  0
ENDTAB
  0
TABLE
  2
LTYPE
  5
5
100
AcDbSymbolTable
 70
6
  0
LTYPE
  5
14
100
AcDbSymbolTableRecord
100
AcDbLinetypeTableRecord
  2
BYBLOCK
 70
0
  3

 72
65
 73
0
 40
0.0
  0
LTYPE
  5
15
100
AcDbSymbolTableRecord
100
AcDbLinetypeTableRecord
  2
BYLAYER
 70
0
  3

 72
65
 73
0
 40
0.0
  0
LTYPE
  5
16
100
AcDbSymbolTableRecord
100
AcDbLinetypeTableRecord
  2
CONTINUOUS
 70
64
  3
Solid line
 72
65
 73
0
 40
0.0
  0
LTYPE
  5
1F5
100
AcDbSymbolTableRecord
100
AcDbLinetypeTableRecord
  2
CENTER
 70
64
  3
____ _ ____ _ ____ _ ____ _ ____ _ ____ _ ____
 72
65
 73
4
 40
0.6
 49
0.375
 74
0
 49
-0.075
 74
0
 49
0.075
 74
0
 49
-0.075
 74
0
  0
LTYPE
  5
1F6
100
AcDbSymbolTableRecord
100
AcDbLinetypeTableRecord
  2
HIDDEN
 70
64
  3
- - - - - - - - - - - - - - - - - - - -
 72
65
 73
2
 40
0.2
 49
0.1
 74
0
 49
-0.1
 74
0
  0
LTYPE
  5
1F7
100
AcDbSymbolTableRecord
100
AcDbLinetypeTableRecord
  2
PHANTOM
 70
64
  3
_____ _ _ _____ _ _ _____ _ _ _____
 72
65
 73
6
 40
0.8
 49
0.45
 74
0
 49
-0.05
 74
0
 49
0.1
 74
0
 49
-0.05
 74
0
 49
0.1
 74
0
 49
-0.05
 74
0
  0
LTYPE
  5
1F8
100
AcDbSymbolTableRecord
100
AcDbLinetypeTableRecord
  2
DOT
 70
64
  3
. . . . . . . . . . . . . . . . . . . .
 72
65
 73
2
 40
0.2
 49
0.1
 74
0
 49
-0.1
 74
0
  0
LTYPE
  5
1F9
100
AcDbSymbolTableRecord
100
AcDbLinetypeTableRecord
  2
DASHED
 70
64
  3
- - - - - - - - - - - - - - - - - - - -
 72
65
 73
2
 40
0.2
 49
0.1
 74
0
 49
-0.1
 74
0
  0
ENDTAB
  0
TABLE
  2
LAYER
  5
2
100
AcDbSymbolTable
 70
36
  0
LAYER
  5
10
100
AcDbSymbolTableRecord
100
AcDbLayerTableRecord
  2
0
 70
0
 62
7
  6
CONTINUOUS
370
-3
390
F
  0
LAYER
  5
1FA
100
AcDbSymbolTableRecord
100
AcDbLayerTableRecord
  2
DEFAULT_1
 70
0
 62
7
  6
CENTER
370
-3
390
F
  0
LAYER
  5
1FB
100
AcDbSymbolTableRecord
100
AcDbLayerTableRecord
  2
DEFAULT_2
 70
0
 62
7
  6
HIDDEN
370
-3
390
F
  0
LAYER
  5
1FC
100
AcDbSymbolTableRecord
100
AcDbLayerTableRecord
  2
DEFAULT_3
 70
0
 62
7
  6
PHANTOM
370
-3
390
F
  0
LAYER
  5
1FD
100
AcDbSymbolTableRecord
100
AcDbLayerTableRecord
  2
ASSI
 70
0
 62
7
  6
CONTINUOUS
370
-3
390
F
  0
LAYER
  5
1FE
100
AcDbSymbolTableRecord
100
AcDbLayerTableRecord
  2
COORDINATE
 70
0
 62
7
  6
CONTINUOUS
370
-3
390
F
  0
LAYER
  5
1FF
100
AcDbSymbolTableRecord
100
AcDbLayerTableRecord
  2
COPY_PUBLISH
 70
0
 62
7
  6
CONTINUOUS
370
-3
390
F
  0
LAYER
  5
200
100
AcDbSymbolTableRecord
100
AcDbLayerTableRecord
  2
COSMETICI
 70
0
 62
7
  6
CONTINUOUS
370
-3
390
F
  0
LAYER
  5
201
100
AcDbSymbolTableRecord
100
AcDbLayerTableRecord
  2
CURVE
 70
0
 62
7
  6
CONTINUOUS
370
-3
390
F
  0
LAYER
  5
202
100
AcDbSymbolTableRecord
100
AcDbLayerTableRecord
  2
DRAFT
 70
0
 62
7
  6
CONTINUOUS
370
-3
390
F
  0
LAYER
  5
203
100
AcDbSymbolTableRecord
100
AcDbLayerTableRecord
  2
IMPORT_IGES
 70
0
 62
7
  6
CONTINUOUS
370
-3
390
F
  0
LAYER
  5
204
100
AcDbSymbolTableRecord
100
AcDbLayerTableRecord
  2
INTF_2
 70
0
 62
7
  6
CONTINUOUS
370
-3
390
F
  0
LAYER
  5
205
100
AcDbSymbolTableRecord
100
AcDbLayerTableRecord
  2
INTF_3
 70
0
 62
7
  6
CONTINUOUS
370
-3
390
F
  0
LAYER
  5
206
100
AcDbSymbolTableRecord
100
AcDbLayerTableRecord
  2
INTF_4
 70
0
 62
7
  6
CONTINUOUS
370
-3
390
F
  0
LAYER
  5
207
100
AcDbSymbolTableRecord
100
AcDbLayerTableRecord
  2
INTF_5
 70
0
 62
7
  6
CONTINUOUS
370
-3
390
F
  0
LAYER
  5
208
100
AcDbSymbolTableRecord
100
AcDbLayerTableRecord
  2
INTF_6
 70
0
 62
7
  6
CONTINUOUS
370
-3
390
F
  0
LAYER
  5
209
100
AcDbSymbolTableRecord
100
AcDbLayerTableRecord
  2
INTF_7
 70
0
 62
7
  6
CONTINUOUS
370
-3
390
F
  0
LAYER
  5
20A
100
AcDbSymbolTableRecord
100
AcDbLayerTableRecord
  2
INTF_9
 70
0
 62
7
  6
CONTINUOUS
370
-3
390
F
  0
LAYER
  5
20B
100
AcDbSymbolTableRecord
100
AcDbLayerTableRecord
  2
INTF_BLANK
 70
0
 62
7
  6
CONTINUOUS
370
-3
390
F
  0
LAYER
  5
20C
100
AcDbSymbolTableRecord
100
AcDbLayerTableRecord
  2
INTF_RED
 70
0
 62
7
  6
CONTINUOUS
370
-3
390
F
  0
LAYER
  5
20D
100
AcDbSymbolTableRecord
100
AcDbLayerTableRecord
  2
NOTE
 70
0
 62
7
  6
CONTINUOUS
370
-3
390
F
  0
LAYER
  5
20E
100
AcDbSymbolTableRecord
100
AcDbLayerTableRecord
  2
PIANI
 70
0
 62
7
  6
CONTINUOUS
370
-3
390
F
  0
LAYER
  5
20F
100
AcDbSymbolTableRecord
100
AcDbLayerTableRecord
  2
PUNTI
 70
0
 62
7
  6
CONTINUOUS
370
-3
390
F
  0
LAYER
  5
210
100
AcDbSymbolTableRecord
100
AcDbLayerTableRecord
  2
RACCORDO
 70
0
 62
7
  6
CONTINUOUS
370
-3
390
F
  0
LAYER
  5
211
100
AcDbSymbolTableRecord
100
AcDbLayerTableRecord
  2
RGB____0____0____0__
 70
0
 62
7
  6
CONTINUOUS
370
-3
390
F
  0
LAYER
  5
212
100
AcDbSymbolTableRecord
100
AcDbLayerTableRecord
  2
SIMBOLI
 70
0
 62
7
  6
CONTINUOUS
370
-3
390
F
  0
LAYER
  5
213
100
AcDbSymbolTableRecord
100
AcDbLayerTableRecord
  2
SMUSSO
 70
0
 62
7
  6
CONTINUOUS
370
-3
390
F
  0
LAYER
  5
214
100
AcDbSymbolTableRecord
100
AcDbLayerTableRecord
  2
SNAPLINE
 70
0
 62
7
  6
CONTINUOUS
370
-3
390
F
  0
LAYER
  5
215
100
AcDbSymbolTableRecord
100
AcDbLayerTableRecord
  2
SUPERFICI
 70
0
 62
7
  6
CONTINUOUS
370
-3
390
F
  0
LAYER
  5
216
100
AcDbSymbolTableRecord
100
AcDbLayerTableRecord
  2
TRASH
 70
0
 62
7
  6
CONTINUOUS
370
-3
390
F
  0
ENDTAB
  0
TABLE
  2
STYLE
  5
3
100
AcDbSymbolTable
 70
1
  0
STYLE
  5
11
100
AcDbSymbolTableRecord
100
AcDbTextStyleTableRecord
  2
STANDARD
 70
0
 40
0.0
 41
0.8
 50
0.0
 71
0
 42
0.2
  3
txt
  4

  0
STYLE
  5
217
100
AcDbSymbolTableRecord
100
AcDbTextStyleTableRecord
  2
TEXTSTYLE_1
 70
0
 40
0.0
 41
0.8
 50
0.0
 71
0
 42
0.2
  3
gdt
  4

  0
ENDTAB
  0
TABLE
  2
VIEW
  5
6
100
AcDbSymbolTable
 70
0
  0
ENDTAB
  0
TABLE
  2
UCS
  5
7
100
AcDbSymbolTable
 70
0
  0
ENDTAB
  0
TABLE
  2
APPID
  5
9
100
AcDbSymbolTable
 70
1
  0
APPID
  5
218
100
AcDbSymbolTableRecord
100
AcDbRegAppTableRecord
  2
ACAD
 70
0
  0
ENDTAB
  0
TABLE
  2
BLOCK_RECORD
  5
1
100
AcDbSymbolTable
 70
0
  0
BLOCK_RECORD
  5
219
100
AcDbSymbolTableRecord
100
AcDbBlockTableRecord
  2
*Model_Space
  0
BLOCK_RECORD
  5
21A
100
AcDbSymbolTableRecord
100
AcDbBlockTableRecord
  2
*Paper_Space
  0
BLOCK_RECORD
  5
21B
100
AcDbSymbolTableRecord
100
AcDbBlockTableRecord
  2
_FILLED
  0
ENDTAB
  0
TABLE
  2
DIMSTYLE
  5
A
100
AcDbSymbolTable
 70
1
100
AcDbDimStyleTable
 71
0
  0
DIMSTYLE
105
21C
100
AcDbSymbolTableRecord
100
AcDbDimStyleTableRecord
  2
STANDARD
 70
0
  3

  4

 40
1.0
 41
3.0
 42
0.5
 43
0.38
 44
1.5
 45
0.0
 46
0.0
 47
0.01
 48
0.01
140
3.0
141
0.09
142
0.0
143
25.4
144
1.0
145
0.0
146
1.0
147
0.625
 71
1
 72
0
 73
0
 74
0
 75
0
 76
0
 77
1
 78
8
 79
2
170
0
171
1
172
0
173
0
174
0
175
0
176
0
177
0
178
0
270
2
179
2
271
2
272
2
273
2
274
2
275
0
280
0
281
0
282
0
283
1
284
8
285
0
286
0
287
3
288
0
340
11
278
44
341
21B
342
21B
343
21B
344
21B
  0
ENDTAB
  0
ENDSEC
  0
SECTION
  2
BLOCKS
  0
BLOCK
  5
20
100
AcDbEntity
  8
0
100
AcDbBlockBegin
  2
*Model_Space
 70
0
 10
0.0
 20
0.0
 30
0.0
  3
*Model_Space
  1

  0
ENDBLK
  5
21
100
AcDbEntity
  8
0
100
AcDbBlockEnd
  0
BLOCK
  5
1C
100
AcDbEntity
  8
0
100
AcDbBlockBegin
  2
*Paper_Space
 70
0
 10
0.0
 20
0.0
 30
0.0
  3
*Paper_Space
  1

  0
ENDBLK
  5
1D
100
AcDbEntity
  8
0
100
AcDbBlockEnd
  0
BLOCK
  5
21D
100
AcDbEntity
  8
0
100
AcDbBlockBegin
  2
_FILLED
 70
64
 10
0.0
 20
0.0
  3
_FILLED
  1

  0
SOLID
  5
21E
100
AcDbEntity
  8
0
  6
BYBLOCK
 62
0
100
AcDbTrace
 10
0.0
 20
0.0
 11
-1.0
 21
0.3166666667
 12
-1.0
 22
-0.3166666667
 13
-1.0
 23
-0.3166666667
  0
ENDBLK
  5
21F
100
AcDbEntity
  8
0
  6
BYBLOCK
 62
0
100
AcDbBlockEnd
  0
ENDSEC
  0
SECTION
  2
ENTITIES
  0
LINE
  5
220
100
AcDbEntity
  8
0
100
AcDbLine
 62
7
  6
CONTINUOUS
 10
10.5347065336
 20
-26.3345351961
 11
-10.5347065336
 21
-26.3345351961
  0
LINE
  5
221
100
AcDbEntity
  8
RACCORDO
100
AcDbLine
 62
7
  6
CONTINUOUS
 10
10.5337380986
 20
-26.2828653412
 11
-10.5337380986
 21
-26.2828653412
  0
LINE
  5
222
100
AcDbEntity
  8
RACCORDO
100
AcDbLine
 62
7
  6
CONTINUOUS
 10
10.5154079535
 20
-26.2216232767
 11
-10.5154079535
 21
-26.2216232767
  0
LINE
  5
223
100
AcDbEntity
  8
RACCORDO
100
AcDbLine
 62
7
  6
CONTINUOUS
 10
-9.75
 20
-25.5
 11
9.75
 21
-25.5
  0
LINE
  5
224
100
AcDbEntity
  8
RACCORDO
100
AcDbLine
 62
7
  6
CONTINUOUS
 10
-9.4948015567
 20
-24.9947634805
 11
9.4948015567
 21
-24.9947634805
  0
LINE
  5
225
100
AcDbEntity
  8
0
100
AcDbLine
 62
7
  6
CONTINUOUS
 10
-9.4948015567
 20
-24.9947634805
 11
9.4948015567
 21
-24.9947634805
  0
LWPOLYLINE
  5
226
100
AcDbEntity
  8
RACCORDO
100
AcDbPolyline
 62
250
  6
CONTINUOUS
 90
16
 70
0
 10
-9.5840895643
 20
14.6969203156
 10
-9.5886122961
 20
14.692733669
 10
-9.5929541211
 20
14.6845384944
 10
-9.5971150394
 20
14.6725031754
 10
-9.6011178734
 20
14.6568929535
 10
-9.6049398007
 20
14.6379036969
 10
-9.6085123539
 20
14.6155354306
 10
-9.6118443111
 20
14.5899180043
 10
-9.6149268942
 20
14.5613146171
 10
-9.6176653018
 20
14.5298295834
 10
-9.6200580639
 20
14.4956550218
 10
-9.6221066505
 20
14.4591460069
 10
-9.6237206707
 20
14.4206772051
 10
-9.624869994
 20
14.3806380064
 10
-9.6255847509
 20
14.3394235326
 10
-9.6258649414
 20
14.2974685017
  0
LWPOLYLINE
  5
227
100
AcDbEntity
  8
RACCORDO
100
AcDbPolyline
 62
7
  6
CONTINUOUS
 90
19
 70
0
 10
-9.1802601072
 20
14.8400670064
 10
-9.1774845027
 20
14.8422343273
 10
-9.1754822891
 20
14.8464663749
 10
-9.1742534667
 20
14.8526342414
 10
-9.1736332837
 20
14.860603352
 10
-9.1737864918
 20
14.8702116394
 10
-9.1752073455
 20
14.8812540958
 10
-9.1778671297
 20
14.8935361589
 10
-9.1817945595
 20
14.9068789666
 10
-9.1875700353
 20
14.9210784506
 10
-9.1952982725
 20
14.9360997696
 10
-9.2048745558
 20
14.951635037
 10
-9.2165651395
 20
14.9670079484
 10
-9.2305457234
 20
14.9820555769
 10
-9.2466406078
 20
14.9965746249
 10
-9.2645889478
 20
15.0097730404
 10
-9.2843037952
 20
15.0213110527
 10
-9.3058720981
 20
15.0313317579
 10
-9.3292938566
 20
15.0397929133
  0
LINE
  5
228
100
AcDbEntity
  8
DRAFT
100
AcDbLine
 62
7
  6
CONTINUOUS
 10
-9.9473059106
 20
14.8517623275
 11
-10.1
 21
14.7373232745
  0
LWPOLYLINE
  5
229
100
AcDbEntity
  8
RACCORDO
100
AcDbPolyline
 62
250
  6
CONTINUOUS
 90
16
 70
0
 10
-9.4363690968
 20
14.5471258854
 10
-9.4408900589
 20
14.5442994053
 10
-9.4452308803
 20
14.5392124838
 10
-9.4493915608
 20
14.5318651209
 10
-9.4533954078
 20
14.5221690767
 10
-9.457219114
 20
14.5102125912
 10
-9.4607927576
 20
14.4962603841
 10
-9.4641242519
 20
14.4802781942
 10
-9.4672056836
 20
14.4623002828
 10
-9.4699433901
 20
14.4426941534
 10
-9.4723365317
 20
14.4213649482
 10
-9.4743859482
 20
14.3984075251
 10
-9.4760004958
 20
14.3744739611
 10
-9.4771497933
 20
14.3497816154
 10
-9.477864222
 20
14.324113129
 10
-9.4781437817
 20
14.2974685017
  0
LINE
  5
22A
100
AcDbEntity
  8
RACCORDO
100
AcDbLine
 62
7
  6
CONTINUOUS
 10
-9.2228681569
 20
14.8234013503
 11
-9.1802601072
 21
14.8400670064
  0
LWPOLYLINE
  5
22B
100
AcDbEntity
  8
RACCORDO
100
AcDbPolyline
 62
7
  6
CONTINUOUS
 90
3
 70
0
 10
-9.2642147691
 20
14.8074861241
 10
-9.2505281279
 20
14.8127055877
 10
-9.2228681569
 20
14.8234013503
  0
LWPOLYLINE
  5
22C
100
AcDbEntity
  8
RACCORDO
100
AcDbPolyline
 62
7
  6
CONTINUOUS
 90
3
 70
0
 10
-9.3049020021
 20
14.7923514428
 10
-9.2914128555
 20
14.7973096094
 10
-9.2642147691
 20
14.8074861241
  0
LINE
  5
22D
100
AcDbEntity
  8
RACCORDO
100
AcDbLine
 62
250
  6
CONTINUOUS
 10
-10.25
 20
-17.2881634904
 11
-9.7447634805
 21
-17.2881634904
  0
LINE
  5
22E
100
AcDbEntity
  8
0
100
AcDbLine
 62
250
  6
CONTINUOUS
 10
-9.7447634805
 20
-17.2881634904
 11
9.7447634805
 21
-17.2881634904
  0
LINE
  5
22F
100
AcDbEntity
  8
RACCORDO
100
AcDbLine
 62
250
  6
CONTINUOUS
 10
9.7447634805
 20
-17.2881634904
 11
10.25
 21
-17.2881634904
  0
LINE
  5
230
100
AcDbEntity
  8
RACCORDO
100
AcDbLine
 62
250
  6
CONTINUOUS
 10
-10.25
 20
-17.1171534187
 11
-9.7452898151
 21
-17.1171534187
  0
LINE
  5
231
100
AcDbEntity
  8
0
100
AcDbLine
 62
250
  6
CONTINUOUS
 10
-9.7452898151
 20
-17.1171534187
 11
9.7452898151
 21
-17.1171534187
  0
LINE
  5
232
100
AcDbEntity
  8
RACCORDO
100
AcDbLine
 62
250
  6
CONTINUOUS
 10
9.7452898151
 20
-17.1171534187
 11
10.25
 21
-17.1171534187
  0
LWPOLYLINE
  5
233
100
AcDbEntity
  8
RACCORDO
100
AcDbPolyline
 62
7
  6
CONTINUOUS
 90
3
 70
0
 10
-9.3049020021
 20
-14.7923514428
 10
-9.2778504445
 20
-14.8023545032
 10
-9.2642147691
 20
-14.8074861241
  0
LINE
  5
234
100
AcDbEntity
  8
RACCORDO
100
AcDbLine
 62
7
  6
CONTINUOUS
 10
-9.2642147691
 20
-14.8074861241
 11
-9.2367682223
 21
-14.8180117785
  0
LWPOLYLINE
  5
235
100
AcDbEntity
  8
RACCORDO
100
AcDbPolyline
 62
7
  6
CONTINUOUS
 90
3
 70
0
 10
-9.2367682223
 20
-14.8180117785
 10
-9.1946029502
 20
-14.8344284066
 10
-9.1802601072
 20
-14.8400670064
  0
LINE
  5
236
100
AcDbEntity
  8
DRAFT
100
AcDbLine
 62
7
  6
CONTINUOUS
 10
-9.9473059106
 20
-14.8517623275
 11
-10.1
 21
-14.7373232745
  0
LWPOLYLINE
  5
237
100
AcDbEntity
  8
RACCORDO
100
AcDbPolyline
 62
250
  6
CONTINUOUS
 90
19
 70
0
 10
-9.0838070901
 20
13.6995956624
 10
-9.089181964
 20
13.6960118268
 10
-9.0942764955
 20
13.6901457446
 10
-9.0990906848
 20
13.6819974156
 10
-9.1036531134
 20
13.6712223626
 10
-9.1079351998
 20
13.6581650628
 10
-9.1118511986
 20
13.6438589489
 10
-9.1153564975
 20
13.628459822
 10
-9.1184957087
 20
13.611811881
 10
-9.1213169238
 20
13.5944811543
 10
-9.1238152213
 20
13.5767174881
 10
-9.1259955225
 20
13.5582710362
 10
-9.1279206837
 20
13.5389582888
 10
-9.1296228628
 20
13.5188853288
 10
-9.1310699019
 20
13.4979460734
 10
-9.1322281829
 20
13.4756387644
 10
-9.1330865001
 20
13.4517961491
 10
-9.1336560594
 20
13.4265854802
 10
-9.1339368607
 20
13.4000067578
  0
LINE
  5
238
100
AcDbEntity
  8
RACCORDO
100
AcDbLine
 62
250
  6
CONTINUOUS
 10
-9.5840902598
 20
14.6969203156
 11
-9.1024704672
 21
14.8400670064
  0
LINE
  5
239
100
AcDbEntity
  8
RACCORDO
100
AcDbLine
 62
250
  6
CONTINUOUS
 10
-8.9909750246
 20
14.6795055934
 11
-9.4363690968
 21
14.5471258854
  0
LINE
  5
23A
100
AcDbEntity
  8
RACCORDO
100
AcDbLine
 62
250
  6
CONTINUOUS
 10
-8.9909750246
 20
13.7271871426
 11
-9.0838070901
 21
13.6995956624
  0
LINE
  5
23B
100
AcDbEntity
  8
RACCORDO
100
AcDbLine
 62
250
  6
CONTINUOUS
 10
-8.8432538616
 20
13.5773927124
 11
-8.9360860759
 21
13.549801188
  0
LINE
  5
23C
100
AcDbEntity
  8
RACCORDO
100
AcDbLine
 62
250
  6
CONTINUOUS
 10
-8.4009945665
 20
13.5925502548
 11
-8.508397593
 21
13.560628004
  0
LINE
  5
23D
100
AcDbEntity
  8
RACCORDO
100
AcDbLine
 62
250
  6
CONTINUOUS
 10
-8.2468562183
 20
13.4446631358
 11
-8.36067643
 21
13.4108335738
  0
LWPOLYLINE
  5
23E
100
AcDbEntity
  8
RACCORDO
100
AcDbPolyline
 62
250
  6
CONTINUOUS
 90
19
 70
0
 10
-8.9360820793
 20
13.549801188
 10
-8.9414616458
 20
13.5482437333
 10
-8.9465591612
 20
13.5452654197
 10
-8.9513746257
 20
13.5410027492
 10
-8.9559357586
 20
13.535579622
 10
-8.9602148406
 20
13.5291507904
 10
-8.9641287127
 20
13.521932599
 10
-8.9676339462
 20
13.5141532324
 10
-8.9707739698
 20
13.5059176895
 10
-8.9735959112
 20
13.4972439827
 10
-8.9760946081
 20
13.4882984565
 10
-8.9782752227
 20
13.4791276302
 10
-8.980200369
 20
13.4694826444
 10
-8.981901877
 20
13.4594216294
 10
-8.9833479168
 20
13.4489853586
 10
-8.9845056129
 20
13.4378226686
 10
-8.9853640069
 20
13.4258320481
 10
-8.9859340571
 20
13.4132014899
 10
-8.9862157637
 20
13.4000067578
  0
LINE
  5
23F
100
AcDbEntity
  8
DRAFT
100
AcDbLine
 62
7
  6
CONTINUOUS
 10
10.6
 20
-14.7221944518
 11
10.1
 21
-14.7373232745
  0
LINE
  5
240
100
AcDbEntity
  8
RACCORDO
100
AcDbLine
 62
250
  6
CONTINUOUS
 10
9.0700240957
 20
-15.0403625912
 11
9.048757155
 21
-15.0410089964
  0
LWPOLYLINE
  5
241
100
AcDbEntity
  8
RACCORDO
100
AcDbPolyline
 62
250
  6
CONTINUOUS
 90
56
 70
0
 10
9.048757155
 20
-15.0410089964
 10
9.0381829051
 20
-15.041305233
 10
9.0276614324
 20
-15.0415437402
 10
9.017165559
 20
-15.0417345612
 10
9.0065721084
 20
-15.0418186989
 10
8.9958837266
 20
-15.0417966916
 10
8.9850977677
 20
-15.041668001
 10
8.9740831172
 20
-15.0413720155
 10
8.9628394485
 20
-15.0409160991
 10
8.9513670882
 20
-15.0402928876
 10
8.9395359014
 20
-15.0394196775
 10
8.9273280454
 20
-15.0383057812
 10
8.9147613631
 20
-15.0369418862
 10
8.9017592481
 20
-15.0352173513
 10
8.8882796638
 20
-15.0331332067
 10
8.8743646468
 20
-15.0306884222
 10
8.860063702
 20
-15.0277692649
 10
8.8453210839
 20
-15.0243564605
 10
8.8301925378
 20
-15.0204692832
 10
8.8148948046
 20
-15.0160518235
 10
8.7993914609
 20
-15.0110660534
 10
8.7837189301
 20
-15.0055500009
 10
8.768203223
 20
-14.9995618392
 10
8.7528973482
 20
-14.9930949113
 10
8.7377482971
 20
-14.9861558743
 10
8.7229230554
 20
-14.9788228727
 10
8.7084527828
 20
-14.9710995148
 10
8.6943063196
 20
-14.9629821924
 10
8.6805571715
 20
-14.9545382258
 10
8.6671984482
 20
-14.9457549912
 10
8.65423704
 20
-14.9366451124
 10
8.6417671243
 20
-14.927313781
 10
8.6298006168
 20
-14.9177604082
 10
8.6183256018
 20
-14.9079855829
 10
8.6074005091
 20
-14.8980962631
 10
8.5970430473
 20
-14.8881038454
 10
8.5872355078
 20
-14.8779969332
 10
8.5779831952
 20
-14.8678482952
 10
8.5692924505
 20
-14.8576641716
 10
8.5611569327
 20
-14.8474383223
 10
8.5535629234
 20
-14.8372247949
 10
8.546522272
 20
-14.8270467968
 10
8.5400231291
 20
-14.8168811206
 10
8.5340162281
 20
-14.806712192
 10
8.5284997564
 20
-14.7965618626
 10
8.5234755266
 20
-14.7864082808
 10
8.5188997111
 20
-14.7761703174
 10
8.5147526729
 20
-14.7658351608
 10
8.5110540489
 20
-14.7554156227
 10
8.5078189213
 20
-14.7448690083
 10
8.5050375244
 20
-14.7341562614
 10
8.502719624
 20
-14.7233164382
 10
8.5009095982
 20
-14.7124240125
 10
8.4996222401
 20
-14.7015038087
 10
8.4988427567
 20
-14.6905310024
 10
8.4985711481
 20
-14.6795055934
  0
LWPOLYLINE
  5
242
100
AcDbEntity
  8
RACCORDO
100
AcDbPolyline
 62
250
  6
CONTINUOUS
 90
3
 70
0
 10
9.1024704672
 20
-15.0397929133
 10
9.0915877677
 20
-15.0399413655
 10
9.0700240957
 20
-15.0403625912
  0
LINE
  5
243
100
AcDbEntity
  8
RACCORDO
100
AcDbLine
 62
250
  6
CONTINUOUS
 10
-10.25
 20
-16.4586033555
 11
-9.7494736654
 21
-16.4586033555
  0
LINE
  5
244
100
AcDbEntity
  8
0
100
AcDbLine
 62
250
  6
CONTINUOUS
 10
-9.7494736654
 20
-16.4586033555
 11
9.7494736654
 21
-16.4586033555
  0
LINE
  5
245
100
AcDbEntity
  8
RACCORDO
100
AcDbLine
 62
250
  6
CONTINUOUS
 10
9.7494736654
 20
-16.4586033555
 11
10.25
 21
-16.4586033555
  0
LINE
  5
246
100
AcDbEntity
  8
RACCORDO
100
AcDbLine
 62
250
  6
CONTINUOUS
 10
-10.25
 20
-16.2875932838
 11
-9.75
 21
-16.2875932838
  0
LINE
  5
247
100
AcDbEntity
  8
0
100
AcDbLine
 62
250
  6
CONTINUOUS
 10
-9.75
 20
-16.2875932838
 11
9.75
 21
-16.2875932838
  0
LINE
  5
248
100
AcDbEntity
  8
RACCORDO
100
AcDbLine
 62
250
  6
CONTINUOUS
 10
9.75
 20
-16.2875932838
 11
10.25
 21
-16.2875932838
  0
LINE
  5
249
100
AcDbEntity
  8
RACCORDO
100
AcDbLine
 62
7
  6
CONTINUOUS
 10
10.9645351961
 20
-15.75
 11
10.85
 21
-15.75
  0
LINE
  5
24A
100
AcDbEntity
  8
RACCORDO
100
AcDbLine
 62
7
  6
CONTINUOUS
 10
-10.9645351961
 20
-15.75
 11
-10.85
 21
-15.75
  0
LINE
  5
24B
100
AcDbEntity
  8
DRAFT
100
AcDbLine
 62
7
  6
CONTINUOUS
 10
10.9828653412
 20
-15.75
 11
10.9645351961
 21
-15.75
  0
LINE
  5
24C
100
AcDbEntity
  8
DRAFT
100
AcDbLine
 62
7
  6
CONTINUOUS
 10
-10.9828653412
 20
-15.75
 11
-10.9645351961
 21
-15.75
  0
LINE
  5
24D
100
AcDbEntity
  8
RACCORDO
100
AcDbLine
 62
7
  6
CONTINUOUS
 10
-4.75
 20
-15.3
 11
4.75
 21
-15.3
  0
LINE
  5
24E
100
AcDbEntity
  8
RACCORDO
100
AcDbLine
 62
250
  6
CONTINUOUS
 10
9.3292938566
 20
-15.0397929133
 11
9.1024704672
 21
-15.0397929133
  0
LINE
  5
24F
100
AcDbEntity
  8
RACCORDO
100
AcDbLine
 62
250
  6
CONTINUOUS
 10
-9.1024704672
 20
-15.0397929133
 11
-9.3292938566
 21
-15.0397929133
  0
LWPOLYLINE
  5
250
100
AcDbEntity
  8
RACCORDO
100
AcDbPolyline
 62
250
  6
CONTINUOUS
 90
3
 70
0
 10
-9.0700370915
 20
-15.0403622029
 10
-9.0807810107
 20
-15.0401309886
 10
-9.1024704672
 20
-15.0397929133
  0
LINE
  5
251
100
AcDbEntity
  8
DRAFT
100
AcDbLine
 62
7
  6
CONTINUOUS
 10
-10.1
 20
-14.7373232745
 11
-10.6
 21
-14.7221944518
  0
LWPOLYLINE
  5
252
100
AcDbEntity
  8
RACCORDO
100
AcDbPolyline
 62
250
  6
CONTINUOUS
 90
14
 70
0
 10
-8.8432538616
 20
-13.5773927124
 10
-8.8360491027
 20
-13.5790240162
 10
-8.8266179375
 20
-13.5805767241
 10
-8.8149603659
 20
-13.582050836
 10
-8.8007436089
 20
-13.5834578867
 10
-8.7843004455
 20
-13.5847863414
 10
-8.7666292135
 20
-13.5860015967
 10
-8.7477538929
 20
-13.5870914683
 10
-8.7276505037
 20
-13.5880681404
 10
-8.7072454435
 20
-13.5889335621
 10
-8.6869452917
 20
-13.5896779501
 10
-8.666343469
 20
-13.5903110877
 10
-8.6451466352
 20
-13.5908642733
 10
-8.6012399716
 20
-13.591752894
  0
LINE
  5
253
100
AcDbEntity
  8
RACCORDO
100
AcDbLine
 62
250
  6
CONTINUOUS
 10
-9.1024704672
 20
-14.8400670064
 11
-9.5840902598
 21
-14.6969203156
  0
LINE
  5
254
100
AcDbEntity
  8
RACCORDO
100
AcDbLine
 62
250
  6
CONTINUOUS
 10
-9.4363690968
 20
-14.5471258854
 11
-8.9909750246
 21
-14.6795055934
  0
LINE
  5
255
100
AcDbEntity
  8
RACCORDO
100
AcDbLine
 62
250
  6
CONTINUOUS
 10
-9.0838071307
 20
-13.6995956503
 11
-8.9909750246
 21
-13.7271871426
  0
LINE
  5
256
100
AcDbEntity
  8
RACCORDO
100
AcDbLine
 62
250
  6
CONTINUOUS
 10
-8.508397593
 20
-13.560628004
 11
-8.4009945665
 21
-13.5925502548
  0
LINE
  5
257
100
AcDbEntity
  8
RACCORDO
100
AcDbLine
 62
250
  6
CONTINUOUS
 10
-8.36067643
 20
-13.4108335738
 11
-8.2468562183
 21
-13.4446631358
  0
LINE
  5
258
100
AcDbEntity
  8
DRAFT
100
AcDbLine
 62
7
  6
CONTINUOUS
 10
-9.5765776706
 20
11.6768171738
 11
-9.6449489743
 21
11.65
  0
LINE
  5
259
100
AcDbEntity
  8
DRAFT
100
AcDbLine
 62
7
  6
CONTINUOUS
 10
-9.5436394679
 20
11.6895195314
 11
-9.5765776706
 21
11.6768171738
  0
LWPOLYLINE
  5
25A
100
AcDbEntity
  8
DRAFT
100
AcDbPolyline
 62
7
  6
CONTINUOUS
 90
3
 70
0
 10
-9.4950979979
 20
11.7076485572
 10
-9.511151302
 20
11.7017281103
 10
-9.5436394679
 20
11.6895195314
  0
LWPOLYLINE
  5
25B
100
AcDbEntity
  8
RACCORDO
100
AcDbPolyline
 62
7
  6
CONTINUOUS
 90
19
 70
0
 10
-9.3292938566
 20
11.4602070867
 10
-9.3058694462
 20
11.4686691316
 10
-9.2842986861
 20
11.4786914729
 10
-9.2645815765
 20
11.4902318421
 10
-9.246630867
 20
11.503433686
 10
-9.2305338079
 20
11.517956718
 10
-9.2165521501
 20
11.5330075872
 10
-9.2048621684
 20
11.5483828438
 10
-9.1952875879
 20
11.5639196153
 10
-9.1875613345
 20
11.5789408594
 10
-9.1817881011
 20
11.5931382964
 10
-9.1778631948
 20
11.6064780191
 10
-9.1752054627
 20
11.6187571719
 10
-9.1737859025
 20
11.6297973526
 10
-9.1736335165
 20
11.6394035112
 10
-9.1742541585
 20
11.6473703729
 10
-9.1754831133
 20
11.6535360793
 10
-9.1774850962
 20
11.6577664855
 10
-9.1802601072
 20
11.6599329936
  0
LWPOLYLINE
  5
25C
100
AcDbEntity
  8
RACCORDO
100
AcDbPolyline
 62
250
  6
CONTINUOUS
 90
19
 70
0
 10
8.4009953734
 20
-12.757655315
 10
8.3699155515
 20
-12.7595461437
 10
8.3401799265
 20
-12.7639485691
 10
8.3117884983
 20
-12.7708625913
 10
8.284483017
 20
-12.7806308853
 10
8.2585217325
 20
-12.7929107761
 10
8.2346793942
 20
-12.8066742378
 10
8.2132727726
 20
-12.8218045263
 10
8.1939850972
 20
-12.8384183858
 10
8.1766408058
 20
-12.8558380232
 10
8.1613076829
 20
-12.8737872007
 10
8.1479179441
 20
-12.8925421563
 10
8.136092674
 20
-12.9122538106
 10
8.1256352719
 20
-12.9328087444
 10
8.1167423387
 20
-12.9543203771
 10
8.1096247616
 20
-12.9772798875
 10
8.1043528366
 20
-13.001851002
 10
8.1008562679
 20
-13.0278699942
 10
8.0991350553
 20
-13.0553368642
  0
LWPOLYLINE
  5
25D
100
AcDbEntity
  8
RACCORDO
100
AcDbPolyline
 62
250
  6
CONTINUOUS
 90
19
 70
0
 10
-8.4009953734
 20
-13.742344685
 10
-8.3699155515
 20
-13.7404538563
 10
-8.3401799265
 20
-13.7360514309
 10
-8.3117884983
 20
-13.7291374087
 10
-8.284483017
 20
-13.7193691147
 10
-8.2585217325
 20
-13.7070892239
 10
-8.2346793942
 20
-13.6933257622
 10
-8.2132727726
 20
-13.6781954737
 10
-8.1939850972
 20
-13.6615816142
 10
-8.1766408058
 20
-13.6441619768
 10
-8.1613076829
 20
-13.6262127993
 10
-8.1479179441
 20
-13.6074578437
 10
-8.136092674
 20
-13.5877461894
 10
-8.1256352719
 20
-13.5671912556
 10
-8.1167423387
 20
-13.5456796229
 10
-8.1096247616
 20
-13.5227201125
 10
-8.1043528366
 20
-13.498148998
 10
-8.1008562679
 20
-13.4721300058
 10
-8.0991350553
 20
-13.4446631358
  0
LINE
  5
25E
100
AcDbEntity
  8
RACCORDO
100
AcDbLine
 62
7
  6
CONTINUOUS
 10
-10.6
 20
-14.6986109511
 11
-10.5677407521
 21
-14.6969203156
  0
LWPOLYLINE
  5
25F
100
AcDbEntity
  8
RACCORDO
100
AcDbPolyline
 62
250
  6
CONTINUOUS
 90
19
 70
0
 10
-8.4009953086
 20
-13.5925500343
 10
-8.3851860576
 20
-13.5919228902
 10
-8.3698472127
 20
-13.5898154699
 10
-8.3551096622
 20
-13.5863284375
 10
-8.3410174851
 20
-13.5815450133
 10
-8.3277422836
 20
-13.5755961668
 10
-8.3155552091
 20
-13.568718749
 10
-8.3045830451
 20
-13.5611513913
 10
-8.2947270935
 20
-13.5530022854
 10
-8.2858829147
 20
-13.5443311939
 10
-8.2781017341
 20
-13.5353305035
 10
-8.2713008677
 20
-13.5260460213
 10
-8.2652512205
 20
-13.5162296077
 10
-8.2599933982
 20
-13.5059445625
 10
-8.2555689394
 20
-13.495236969
 10
-8.2519097883
 20
-13.4837484711
 10
-8.2491244404
 20
-13.4713770803
 10
-8.2473944551
 20
-13.458320789
 10
-8.2468563352
 20
-13.4446631011
  0
LWPOLYLINE
  5
260
100
AcDbEntity
  8
RACCORDO
100
AcDbPolyline
 62
250
  6
CONTINUOUS
 90
19
 70
0
 10
8.4009953086
 20
-12.9074499657
 10
8.3851860576
 20
-12.9080771098
 10
8.3698472127
 20
-12.9101845301
 10
8.3551096622
 20
-12.9136715625
 10
8.3410174851
 20
-12.9184549867
 10
8.3277422836
 20
-12.9244038332
 10
8.3155552091
 20
-12.931281251
 10
8.3045830451
 20
-12.9388486087
 10
8.2947270935
 20
-12.9469977146
 10
8.2858829147
 20
-12.9556688061
 10
8.2781017341
 20
-12.9646694965
 10
8.2713008677
 20
-12.9739539787
 10
8.2652512205
 20
-12.9837703923
 10
8.2599933982
 20
-12.9940554375
 10
8.2555689394
 20
-13.004763031
 10
8.2519097883
 20
-13.0162515289
 10
8.2491244404
 20
-13.0286229197
 10
8.2473944551
 20
-13.041679211
 10
8.2468563352
 20
-13.0553368989
  0
LWPOLYLINE
  5
261
100
AcDbEntity
  8
RACCORDO
100
AcDbPolyline
 62
250
  6
CONTINUOUS
 90
10
 70
0
 10
8.8446593206
 20
-13.7372403674
 10
8.8692688688
 20
-13.7363201419
 10
8.8910661109
 20
-13.7353677725
 10
8.9109575915
 20
-13.7343740146
 10
8.9288620058
 20
-13.7333482561
 10
8.944765059
 20
-13.732281109
 10
8.9592178966
 20
-13.7311351649
 10
8.9720710768
 20
-13.7298979544
 10
8.9827695463
 20
-13.728581947
 10
8.9909750246
 20
-13.7271871426
  0
LWPOLYLINE
  5
262
100
AcDbEntity
  8
0
100
AcDbPolyline
 62
7
  6
CONTINUOUS
 90
10
 70
0
 10
1.9580219671
 20
-14.4381742759
 10
2.0038153355
 20
-14.4366815635
 10
2.0465093443
 20
-14.4334025839
 10
2.0861039934
 20
-14.4283373371
 10
2.1224203643
 20
-14.4213164651
 10
2.1556373756
 20
-14.4125093258
 10
2.1862917832
 20
-14.4024239937
 10
2.2145625056
 20
-14.3912298268
 10
2.2402706242
 20
-14.3787574671
 10
2.2634161391
 20
-14.3650069144
  0
LWPOLYLINE
  5
263
100
AcDbEntity
  8
0
100
AcDbPolyline
 62
7
  6
CONTINUOUS
 90
10
 70
0
 10
0.5201244041
 20
-14.4381742759
 10
0.5659177725
 20
-14.4366815635
 10
0.6086117813
 20
-14.4334025839
 10
0.6482064304
 20
-14.4283373371
 10
0.6845228014
 20
-14.4213164651
 10
0.7177398127
 20
-14.4125093258
 10
0.7483942202
 20
-14.4024239937
 10
0.7766649426
 20
-14.3912298268
 10
0.8023730612
 20
-14.3787574671
 10
0.8255185761
 20
-14.3650069144
  0
LWPOLYLINE
  5
264
100
AcDbEntity
  8
0
100
AcDbPolyline
 62
7
  6
CONTINUOUS
 90
10
 70
0
 10
-0.9177731588
 20
-14.4381742759
 10
-0.8719797905
 20
-14.4366815635
 10
-0.8292857817
 20
-14.4334025839
 10
-0.7896911325
 20
-14.4283373371
 10
-0.7533747616
 20
-14.4213164651
 10
-0.7201577503
 20
-14.4125093258
 10
-0.6895033428
 20
-14.4024239937
 10
-0.6612326204
 20
-14.3912298268
 10
-0.6355245018
 20
-14.3787574671
 10
-0.6123789869
 20
-14.3650069144
  0
LINE
  5
265
100
AcDbEntity
  8
RACCORDO
100
AcDbLine
 62
250
  6
CONTINUOUS
 10
8.7857576356
 20
-13.7390230608
 11
8.8446593206
 21
-13.7372403674
  0
LWPOLYLINE
  5
266
100
AcDbEntity
  8
RACCORDO
100
AcDbPolyline
 62
250
  6
CONTINUOUS
 90
9
 70
0
 10
8.5200377993
 20
-13.40249435
 10
8.4918775401
 20
-13.4032299124
 10
8.4653683606
 20
-13.4040585918
 10
8.4407655668
 20
-13.4049859218
 10
8.4185486316
 20
-13.4060063689
 10
8.3990849786
 20
-13.4071030651
 10
8.382728952
 20
-13.408270388
 10
8.3698188601
 20
-13.40951396
 10
8.36067643
 20
-13.4108337813
  0
LWPOLYLINE
  5
267
100
AcDbEntity
  8
0
100
AcDbPolyline
 62
7
  6
CONTINUOUS
 90
10
 70
0
 10
-3.8158368155
 20
-14.4349930844
 10
-3.7776347351
 20
-14.4341581469
 10
-3.7415613023
 20
-14.4321494976
 10
-3.707616517
 20
-14.4289671364
 10
-3.6759194044
 20
-14.4245351292
 10
-3.6463509394
 20
-14.4189294101
 10
-3.6185540466
 20
-14.4123777816
 10
-3.5924097007
 20
-14.4049561778
 10
-3.5680369268
 20
-14.3965886645
 10
-3.5454357252
 20
-14.3872752417
  0
LINE
  5
268
100
AcDbEntity
  8
RACCORDO
100
AcDbLine
 62
250
  6
CONTINUOUS
 10
8.7148962215
 20
-13.7405310061
 11
8.7857576356
 21
-13.7390230608
  0
LINE
  5
269
100
AcDbEntity
  8
RACCORDO
100
AcDbLine
 62
250
  6
CONTINUOUS
 10
8.581186988
 20
-13.4013017618
 11
8.5200377993
 21
-13.40249435
  0
LINE
  5
26A
100
AcDbEntity
  8
RACCORDO
100
AcDbLine
 62
250
  6
CONTINUOUS
 10
8.6332809061
 20
-13.741666294
 11
8.7148962215
 21
-13.7405310061
  0
LWPOLYLINE
  5
26B
100
AcDbEntity
  8
RACCORDO
100
AcDbPolyline
 62
250
  6
CONTINUOUS
 90
17
 70
0
 10
8.5626917846
 20
-13.5922281702
 10
8.5928679796
 20
-13.5918719943
 10
8.6220367796
 20
-13.5913693245
 10
8.6499494974
 20
-13.5907365656
 10
8.6758600714
 20
-13.5900229319
 10
8.6995399892
 20
-13.5892285876
 10
8.7212177632
 20
-13.5883533684
 10
8.7408328696
 20
-13.5874459963
 10
8.7581452291
 20
-13.5865258067
 10
8.7733949211
 20
-13.5855734642
 10
8.7872416596
 20
-13.5845796838
 10
8.7998655583
 20
-13.5835537971
 10
8.8110865036
 20
-13.5824864724
 10
8.8210238692
 20
-13.5813404296
 10
8.8297174464
 20
-13.580103242
 10
8.8371274439
 20
-13.5787873363
 10
8.8432538616
 20
-13.5773927124
  0
LINE
  5
26C
100
AcDbEntity
  8
RACCORDO
100
AcDbLine
 62
250
  6
CONTINUOUS
 10
8.6473986727
 20
-13.400486211
 11
8.581186988
 21
-13.4013017618
  0
LWPOLYLINE
  5
26D
100
AcDbEntity
  8
RACCORDO
100
AcDbPolyline
 62
250
  6
CONTINUOUS
 90
15
 70
0
 10
8.7315922987
 20
-13.5498623924
 10
8.7092587862
 20
-13.5500221562
 10
8.6875989938
 20
-13.5502804792
 10
8.6665373034
 20
-13.5506391176
 10
8.6461493329
 20
-13.5510963153
 10
8.6266619367
 20
-13.5516468041
 10
8.6080285245
 20
-13.5522888311
 10
8.5902956865
 20
-13.5530241493
 10
8.5738300468
 20
-13.5538527488
 10
8.5585309627
 20
-13.5547803761
 10
8.544499077
 20
-13.5558012848
 10
8.5324029419
 20
-13.5568982268
 10
8.5224654083
 20
-13.5580654526
 10
8.5144636253
 20
-13.5593087116
 10
8.508397593
 20
-13.560628004
  0
LINE
  5
26E
100
AcDbEntity
  8
RACCORDO
100
AcDbLine
 62
250
  6
CONTINUOUS
 10
8.5447709414
 20
-13.7422486064
 11
8.6332809061
 21
-13.741666294
  0
LINE
  5
26F
100
AcDbEntity
  8
RACCORDO
100
AcDbLine
 62
250
  6
CONTINUOUS
 10
8.7182332549
 20
-13.4000680749
 11
8.6473986727
 21
-13.400486211
  0
LINE
  5
270
100
AcDbEntity
  8
RACCORDO
100
AcDbLine
 62
250
  6
CONTINUOUS
 10
8.4985711481
 20
-13.5925502548
 11
8.5626917846
 21
-13.5922281702
  0
LINE
  5
271
100
AcDbEntity
  8
DRAFT
100
AcDbLine
 62
7
  6
CONTINUOUS
 10
9.9496573543
 20
-14.8529366156
 11
9.75
 21
-14.8529366156
  0
LINE
  5
272
100
AcDbEntity
  8
DRAFT
100
AcDbLine
 62
7
  6
CONTINUOUS
 10
-9.75
 20
-14.8529366156
 11
-9.9496573543
 21
-14.8529366156
  0
LINE
  5
273
100
AcDbEntity
  8
DRAFT
100
AcDbLine
 62
7
  6
CONTINUOUS
 10
-9.75
 20
-14.85
 11
-9.6449489743
 21
-14.85
  0
LINE
  5
274
100
AcDbEntity
  8
DRAFT
100
AcDbLine
 62
7
  6
CONTINUOUS
 10
9.6449489743
 20
-14.85
 11
9.75
 21
-14.85
  0
LINE
  5
275
100
AcDbEntity
  8
RACCORDO
100
AcDbLine
 62
250
  6
CONTINUOUS
 10
9.1024704672
 20
-14.8400670064
 11
9.1802601072
 21
-14.8400670064
  0
LINE
  5
276
100
AcDbEntity
  8
RACCORDO
100
AcDbLine
 62
250
  6
CONTINUOUS
 10
-9.1024704672
 20
-14.8400670064
 11
-9.1802601072
 21
-14.8400670064
  0
LINE
  5
277
100
AcDbEntity
  8
DRAFT
100
AcDbLine
 62
7
  6
CONTINUOUS
 10
9.4950979979
 20
-14.7923514428
 11
9.3049020021
 21
-14.7923514428
  0
LINE
  5
278
100
AcDbEntity
  8
DRAFT
100
AcDbLine
 62
7
  6
CONTINUOUS
 10
-9.3049020021
 20
-14.7923514428
 11
-9.4950979979
 21
-14.7923514428
  0
LINE
  5
279
100
AcDbEntity
  8
RACCORDO
100
AcDbLine
 62
250
  6
CONTINUOUS
 10
10.5677407521
 20
-14.6969203156
 11
9.5840902598
 21
-14.6969203156
  0
LINE
  5
27A
100
AcDbEntity
  8
RACCORDO
100
AcDbLine
 62
250
  6
CONTINUOUS
 10
-9.5840902598
 20
-14.6969203156
 11
-10.5677407521
 21
-14.6969203156
  0
LINE
  5
27B
100
AcDbEntity
  8
RACCORDO
100
AcDbLine
 62
250
  6
CONTINUOUS
 10
-8.9909750246
 20
-14.6795055804
 11
-8.4985711481
 21
-14.6795055934
  0
LINE
  5
27C
100
AcDbEntity
  8
RACCORDO
100
AcDbLine
 62
250
  6
CONTINUOUS
 10
8.9909750246
 20
-14.679505581
 11
8.4985711481
 21
-14.6795055934
  0
LINE
  5
27D
100
AcDbEntity
  8
0
100
AcDbLine
 62
7
  6
CONTINUOUS
 10
-2.3747579947
 20
-14.4
 11
-2.1107192829
 21
-14.4
  0
LINE
  5
27E
100
AcDbEntity
  8
0
100
AcDbLine
 62
7
  6
CONTINUOUS
 10
2.7119642422
 20
-14.4
 11
2.9823651955
 21
-14.4
  0
LINE
  5
27F
100
AcDbEntity
  8
0
100
AcDbLine
 62
7
  6
CONTINUOUS
 10
4.1053248808
 20
-14.4
 11
4.3852695391
 21
-14.4
  0
LINE
  5
280
100
AcDbEntity
  8
RACCORDO
100
AcDbLine
 62
250
  6
CONTINUOUS
 10
9.4781437817
 20
-14.2974685017
 11
10.1886751346
 21
-14.2974685017
  0
LINE
  5
281
100
AcDbEntity
  8
RACCORDO
100
AcDbLine
 62
250
  6
CONTINUOUS
 10
-9.4781437817
 20
-14.2974685017
 11
-10.1886751346
 21
-14.2974685017
  0
LINE
  5
282
100
AcDbEntity
  8
0
100
AcDbLine
 62
7
  6
CONTINUOUS
 10
-4.1244122118
 20
-13.8305670813
 11
-4.38526976
 21
-13.8305670813
  0
LINE
  5
283
100
AcDbEntity
  8
0
100
AcDbLine
 62
7
  6
CONTINUOUS
 10
3.1446059868
 20
-13.8178422898
 11
3.9430840895
 21
-13.8178422898
  0
LINE
  5
284
100
AcDbEntity
  8
RACCORDO
100
AcDbLine
 62
250
  6
CONTINUOUS
 10
8.4009945665
 20
-13.742344685
 11
8.5447709414
 21
-13.7422486064
  0
LINE
  5
285
100
AcDbEntity
  8
0
100
AcDbLine
 62
7
  6
CONTINUOUS
 10
3.8794603035
 20
-13.6015214175
 11
3.211410825
 21
-13.6015214175
  0
LINE
  5
286
100
AcDbEntity
  8
RACCORDO
100
AcDbLine
 62
250
  6
CONTINUOUS
 10
8.4009945665
 20
-13.5925502548
 11
8.4985711481
 21
-13.5925502548
  0
LINE
  5
287
100
AcDbEntity
  8
RACCORDO
100
AcDbLine
 62
250
  6
CONTINUOUS
 10
8.9360860759
 20
-13.549801188
 11
8.7315922987
 21
-13.5498623924
  0
LINE
  5
288
100
AcDbEntity
  8
RACCORDO
100
AcDbLine
 62
250
  6
CONTINUOUS
 10
-8.0991350553
 20
-13.4446631358
 11
-8.2468562183
 21
-13.4446631358
  0
LINE
  5
289
100
AcDbEntity
  8
RACCORDO
100
AcDbLine
 62
250
  6
CONTINUOUS
 10
8.0991350553
 20
-13.4446631358
 11
8.2468562183
 21
-13.4446631358
  0
LINE
  5
28A
100
AcDbEntity
  8
RACCORDO
100
AcDbLine
 62
250
  6
CONTINUOUS
 10
9.1339368607
 20
-13.4000067578
 11
8.7182332549
 21
-13.4000680749
  0
LINE
  5
28B
100
AcDbEntity
  8
CURVE
100
AcDbLine
 62
7
  6
CONTINUOUS
 10
-8.9181209637
 20
-13.25
 11
-10.6
 21
-13.25
  0
LINE
  5
28C
100
AcDbEntity
  8
RACCORDO
100
AcDbLine
 62
250
  6
CONTINUOUS
 10
-8.9360860759
 20
-13.549801188
 11
-8.7379124197
 21
-13.5498402176
  0
LINE
  5
28D
100
AcDbEntity
  8
RACCORDO
100
AcDbLine
 62
250
  6
CONTINUOUS
 10
-8.5262414153
 20
-13.5924737871
 11
-8.4009945665
 21
-13.5925502548
  0
LINE
  5
28E
100
AcDbEntity
  8
RACCORDO
100
AcDbLine
 62
250
  6
CONTINUOUS
 10
-9.1339368607
 20
-13.4000067578
 11
-8.7024601593
 21
-13.4001265887
  0
LINE
  5
28F
100
AcDbEntity
  8
RACCORDO
100
AcDbLine
 62
250
  6
CONTINUOUS
 10
-8.5756049155
 20
-13.742109859
 11
-8.4009953734
 21
-13.742344685
  0
LWPOLYLINE
  5
290
100
AcDbEntity
  8
RACCORDO
100
AcDbPolyline
 62
250
  6
CONTINUOUS
 90
50
 70
0
 10
9.1024704672
 20
-14.8400670064
 10
9.097640329
 20
-14.840034153
 10
9.0929174914
 20
-14.8398412412
 10
9.0883060419
 20
-14.8394918284
 10
9.0838131433
 20
-14.8389874491
 10
9.0794392149
 20
-14.8383337805
 10
9.075177825
 20
-14.8375414295
 10
9.0710431709
 20
-14.8366191447
 10
9.0670269153
 20
-14.835568151
 10
9.0630890683
 20
-14.8343854567
 10
9.0592315554
 20
-14.8330738593
 10
9.0554589104
 20
-14.8316339258
 10
9.0517367128
 20
-14.8300530586
 10
9.0480664318
 20
-14.8283299685
 10
9.0444553906
 20
-14.8264632073
 10
9.040880451
 20
-14.8244338187
 10
9.0373407556
 20
-14.8222345766
 10
9.0338499985
 20
-14.8198645762
 10
9.0304092624
 20
-14.8173103972
 10
9.0270169133
 20
-14.8145597183
 10
9.0236912875
 20
-14.8116153351
 10
9.0204633697
 20
-14.8084877332
 10
9.0173336553
 20
-14.8051651873
 10
9.0143179408
 20
-14.8016557899
 10
9.0114648761
 20
-14.7980076028
 10
9.0087782568
 20
-14.7942198144
 10
9.0062619092
 20
-14.7903021194
 10
9.0039539126
 20
-14.7863298747
 10
9.0018620745
 20
-14.7823294142
 10
8.9999710624
 20
-14.7782954852
 10
8.9982757492
 20
-14.7742629709
 10
8.996774099
 20
-14.770250903
 10
8.9954553364
 20
-14.7662604635
 10
8.9942992831
 20
-14.7623001192
 10
8.9932991675
 20
-14.7583752331
 10
8.9924490068
 20
-14.7544961631
 10
8.9917296311
 20
-14.7506779733
 10
8.9911343929
 20
-14.7469294537
 10
8.9906558981
 20
-14.7432547311
 10
8.9902736803
 20
-14.7396611812
 10
8.9899807354
 20
-14.7361580672
 10
8.9897703879
 20
-14.7327460032
 10
8.9896237593
 20
-14.729418335
 10
8.989534347
 20
-14.726179337
 10
8.9894972908
 20
-14.723031605
 10
8.9894980242
 20
-14.719964897
 10
8.9895312201
 20
-14.7169864318
 10
8.9895929276
 20
-14.7140937335
 10
8.9896731226
 20
-14.7112610593
 10
8.9897689607
 20
-14.7084932357
  0
LINE
  5
291
100
AcDbEntity
  8
RACCORDO
100
AcDbLine
 62
250
  6
CONTINUOUS
 10
-8.7024601593
 20
-13.4001265887
 11
-8.6548422977
 21
-13.40041815
  0
LINE
  5
292
100
AcDbEntity
  8
RACCORDO
100
AcDbLine
 62
250
  6
CONTINUOUS
 10
-8.7379124197
 20
-13.5498402176
 11
-8.7067456454
 21
-13.5500434549
  0
LINE
  5
293
100
AcDbEntity
  8
RACCORDO
100
AcDbLine
 62
250
  6
CONTINUOUS
 10
-8.6452498655
 20
-13.7415472758
 11
-8.5756049155
 21
-13.742109859
  0
LINE
  5
294
100
AcDbEntity
  8
RACCORDO
100
AcDbLine
 62
250
  6
CONTINUOUS
 10
-8.6548422977
 20
-13.40041815
 11
-8.592375468
 21
-13.4011306033
  0
LWPOLYLINE
  5
295
100
AcDbEntity
  8
RACCORDO
100
AcDbPolyline
 62
250
  6
CONTINUOUS
 90
3
 70
0
 10
-8.6012399716
 20
-13.591752894
 10
-8.5776927264
 20
-13.5920754167
 10
-8.5262414153
 20
-13.5924737871
  0
LWPOLYLINE
  5
296
100
AcDbEntity
  8
0
100
AcDbPolyline
 62
7
  6
CONTINUOUS
 90
10
 70
0
 10
-3.9621715575
 20
-13.308852002
 10
-3.9361809126
 20
-13.3092083017
 10
-3.9106979864
 20
-13.3101205414
 10
-3.8857227791
 20
-13.3115887213
 10
-3.8611627644
 20
-13.3136481084
 10
-3.8371104685
 20
-13.3162634357
 10
-3.8138434702
 20
-13.3193289013
 10
-3.7914542959
 20
-13.3228092382
 10
-3.7698504193
 20
-13.3267397134
 10
-3.7490318403
 20
-13.3311203271
  0
LINE
  5
297
100
AcDbEntity
  8
RACCORDO
100
AcDbLine
 62
250
  6
CONTINUOUS
 10
-8.7067456454
 20
-13.5500434549
 11
-8.6785351685
 21
-13.5504233773
  0
LINE
  5
298
100
AcDbEntity
  8
RACCORDO
100
AcDbLine
 62
250
  6
CONTINUOUS
 10
-8.7079647018
 20
-13.7406587553
 11
-8.6452498655
 21
-13.7415472758
  0
LINE
  5
299
100
AcDbEntity
  8
RACCORDO
100
AcDbLine
 62
250
  6
CONTINUOUS
 10
-8.592375468
 20
-13.4011306033
 11
-8.5400347042
 21
-13.4020496699
  0
LINE
  5
29A
100
AcDbEntity
  8
RACCORDO
100
AcDbLine
 62
250
  6
CONTINUOUS
 10
-8.6785351685
 20
-13.5504233773
 11
-8.6532180397
 21
-13.5509250507
  0
LINE
  5
29B
100
AcDbEntity
  8
RACCORDO
100
AcDbLine
 62
250
  6
CONTINUOUS
 10
-8.7674573572
 20
-13.7394724422
 11
-8.7079647018
 21
-13.7406587553
  0
LWPOLYLINE
  5
29C
100
AcDbEntity
  8
0
100
AcDbPolyline
 62
7
  6
CONTINUOUS
 90
10
 70
0
 10
-3.8253803834
 20
-14.2345781393
 10
-3.8465114001
 20
-14.2340865109
 10
-3.8663647869
 20
-14.2328899908
 10
-3.8849405438
 20
-14.2309885791
 10
-3.9021590313
 20
-14.2283389407
 10
-3.9180998888
 20
-14.2249844106
 10
-3.9330020348
 20
-14.2210549939
 10
-3.9469451088
 20
-14.2165940255
 10
-3.9598494712
 20
-14.2115581705
 10
-3.971715122
 20
-14.2059474288
  0
LINE
  5
29D
100
AcDbEntity
  8
RACCORDO
100
AcDbLine
 62
250
  6
CONTINUOUS
 10
-8.5400347042
 20
-13.4020496699
 11
-8.4970683255
 21
-13.4030821518
  0
LINE
  5
29E
100
AcDbEntity
  8
RACCORDO
100
AcDbLine
 62
250
  6
CONTINUOUS
 10
-8.6532180397
 20
-13.5509250507
 11
-8.6307289759
 21
-13.5515225467
  0
LINE
  5
29F
100
AcDbEntity
  8
RACCORDO
100
AcDbLine
 62
250
  6
CONTINUOUS
 10
-8.4970683255
 20
-13.4030821518
 11
-8.4730981382
 21
-13.4038005082
  0
LINE
  5
2A0
100
AcDbEntity
  8
RACCORDO
100
AcDbLine
 62
250
  6
CONTINUOUS
 10
-8.6307289759
 20
-13.5515225467
 11
-8.6109361435
 21
-13.5521814105
  0
LWPOLYLINE
  5
2A1
100
AcDbEntity
  8
0
100
AcDbPolyline
 62
7
  6
CONTINUOUS
 90
10
 70
0
 10
-0.9177731588
 20
-14.2377593286
 10
-0.9427161085
 20
-14.2368726415
 10
-0.9658661917
 20
-14.2347899907
 10
-0.9872234084
 20
-14.2315113764
 10
-1.0066506503
 20
-14.2269670684
 10
-1.0242850257
 20
-14.2212267969
 10
-1.0405378599
 20
-14.2144997518
 10
-1.0555462613
 20
-14.2068556631
 10
-1.0691731215
 20
-14.1982248008
 10
-1.0814184404
 20
-14.1886071649
  0
LWPOLYLINE
  5
2A2
100
AcDbEntity
  8
0
100
AcDbPolyline
 62
7
  6
CONTINUOUS
 90
10
 70
0
 10
0.5201244041
 20
-14.2377593286
 10
0.4951814864
 20
-14.2368726389
 10
0.4720314185
 20
-14.2347899832
 10
0.4506742007
 20
-14.2315113615
 10
0.4312469299
 20
-14.2269670397
 10
0.413612509
 20
-14.221226752
 10
0.3973596469
 20
-14.2144997004
 10
0.3823512467
 20
-14.2068556191
 10
0.3687244052
 20
-14.1982247739
 10
0.3564791226
 20
-14.1886071649
  0
LWPOLYLINE
  5
2A3
100
AcDbEntity
  8
0
100
AcDbPolyline
 62
7
  6
CONTINUOUS
 90
10
 70
0
 10
1.9580219671
 20
-14.2377593286
 10
1.9330790493
 20
-14.2368726389
 10
1.9099289815
 20
-14.2347899832
 10
1.8885717637
 20
-14.2315113615
 10
1.8691444928
 20
-14.2269670397
 10
1.851510072
 20
-14.221226752
 10
1.8352572099
 20
-14.2144997004
 10
1.8202488097
 20
-14.2068556191
 10
1.8066219682
 20
-14.1982247739
 10
1.7943766855
 20
-14.1886071649
  0
LINE
  5
2A4
100
AcDbEntity
  8
RACCORDO
100
AcDbLine
 62
250
  6
CONTINUOUS
 10
-8.4730981382
 20
-13.4038005082
 11
-8.4523396218
 21
-13.4045273586
  0
LINE
  5
2A5
100
AcDbEntity
  8
RACCORDO
100
AcDbLine
 62
250
  6
CONTINUOUS
 10
-8.6109361435
 20
-13.5521814105
 11
-8.5936368192
 21
-13.5528765813
  0
LINE
  5
2A6
100
AcDbEntity
  8
RACCORDO
100
AcDbLine
 62
250
  6
CONTINUOUS
 10
-8.4523396218
 20
-13.4045273586
 11
-8.4342949794
 21
-13.4052601907
  0
LINE
  5
2A7
100
AcDbEntity
  8
RACCORDO
100
AcDbLine
 62
250
  6
CONTINUOUS
 10
-8.4342949794
 20
-13.4052601907
 11
-8.418627389
 21
-13.405998357
  0
LWPOLYLINE
  5
2A8
100
AcDbEntity
  8
RACCORDO
100
AcDbPolyline
 62
250
  6
CONTINUOUS
 90
3
 70
0
 10
-8.5936368192
 20
-13.5528765813
 10
-8.5786611605
 20
-13.5535949314
 10
-8.5719244146
 20
-13.5539570236
  0
LINE
  5
2A9
100
AcDbEntity
  8
RACCORDO
100
AcDbLine
 62
7
  6
CONTINUOUS
 10
10.5677407521
 20
-14.6969203156
 11
10.6
 21
-14.6986109511
  0
LWPOLYLINE
  5
2AA
100
AcDbEntity
  8
RACCORDO
100
AcDbPolyline
 62
250
  6
CONTINUOUS
 90
12
 70
0
 10
-8.418627389
 20
-13.405998357
 10
-8.4049740697
 20
-13.40674364
 10
-8.3988074456
 20
-13.4071214536
 10
-8.3930546698
 20
-13.4075031036
 10
-8.387714784
 20
-13.4078889153
 10
-8.3827320294
 20
-13.408282006
 10
-8.3781183323
 20
-13.408682158
 10
-8.3738846461
 20
-13.409089589
 10
-8.3700005885
 20
-13.4095080691
 10
-8.3664795076
 20
-13.4099388549
 10
-8.3633627519
 20
-13.4103806898
 10
-8.36067643
 20
-13.4108335738
  0
LWPOLYLINE
  5
2AB
100
AcDbEntity
  8
RACCORDO
100
AcDbPolyline
 62
250
  6
CONTINUOUS
 90
17
 70
0
 10
-8.5719244146
 20
-13.5539570236
 10
-8.5598498946
 20
-13.5546878763
 10
-8.5544017951
 20
-13.5550546186
 10
-8.5493512861
 20
-13.5554226899
 10
-8.5446169423
 20
-13.5557927833
 10
-8.5401903317
 20
-13.5561644176
 10
-8.5360798865
 20
-13.5565380739
 10
-8.5322294778
 20
-13.5569158888
 10
-8.5286296681
 20
-13.5572975319
 10
-8.525289895
 20
-13.5576833336
 10
-8.5221823425
 20
-13.5580764218
 10
-8.5192962731
 20
-13.5584765877
 10
-8.5166424242
 20
-13.5588840401
 10
-8.5142251922
 20
-13.5593025326
 10
-8.5120460423
 20
-13.5597333163
 10
-8.5101035093
 20
-13.5601751401
 10
-8.508397593
 20
-13.560628004
  0
LWPOLYLINE
  5
2AC
100
AcDbEntity
  8
RACCORDO
100
AcDbPolyline
 62
250
  6
CONTINUOUS
 90
10
 70
0
 10
-8.9909750246
 20
-13.7271869658
 10
-8.9811400222
 20
-13.7288185699
 10
-8.9675805424
 20
-13.7303714637
 10
-8.9505557504
 20
-13.7318456472
 10
-8.9302281697
 20
-13.7332525944
 10
-8.9069679534
 20
-13.7345808313
 10
-8.8815112399
 20
-13.7357959361
 10
-8.8543927672
 20
-13.7368858127
 10
-8.8259289687
 20
-13.7378625572
 10
-8.7674573572
 20
-13.7394724422
  0
LWPOLYLINE
  5
2AD
100
AcDbEntity
  8
0
100
AcDbPolyline
 62
7
  6
CONTINUOUS
 90
10
 70
0
 10
-3.7490318403
 20
-13.3311203271
 10
-3.7291535572
 20
-13.3362804643
 10
-3.7103636065
 20
-13.3422445121
 10
-3.692661988
 20
-13.3490124705
 10
-3.6761155083
 20
-13.3566087334
 10
-3.6606573609
 20
-13.3650089069
 10
-3.6460871261
 20
-13.3741398098
 10
-3.6323379975
 20
-13.3839770484
 10
-3.6194767816
 20
-13.3945450164
 10
-3.6075034783
 20
-13.4058437138
  0
LWPOLYLINE
  5
2AE
100
AcDbEntity
  8
DRAFT
100
AcDbPolyline
 62
7
  6
CONTINUOUS
 90
3
 70
0
 10
-9.4950979979
 20
-11.7076485572
 10
-9.527331792
 20
-11.6956851017
 10
-9.5436394679
 20
-11.6895195314
  0
LINE
  5
2AF
100
AcDbEntity
  8
DRAFT
100
AcDbLine
 62
7
  6
CONTINUOUS
 10
-9.5436394679
 20
-11.6895195314
 11
-9.5765776706
 21
-11.6768171738
  0
LINE
  5
2B0
100
AcDbEntity
  8
DRAFT
100
AcDbLine
 62
7
  6
CONTINUOUS
 10
-9.5765776706
 20
-11.6768171738
 11
-9.6449489743
 21
-11.65
  0
LWPOLYLINE
  5
2B1
100
AcDbEntity
  8
0
100
AcDbPolyline
 62
7
  6
CONTINUOUS
 90
10
 70
0
 10
-3.971715122
 20
-14.2059474288
 10
-3.9843217963
 20
-14.19914185
 10
-3.9963621306
 20
-14.1917121296
 10
-4.0078361248
 20
-14.1836582677
 10
-4.0187740507
 20
-14.1749429166
 10
-4.0291456366
 20
-14.1656034239
 10
-4.0388600672
 20
-14.1557518328
 10
-4.0478870705
 20
-14.1454254908
 10
-4.0562569186
 20
-14.1345870504
 10
-4.0639696112
 20
-14.1232365114
  0
LWPOLYLINE
  5
2B2
100
AcDbEntity
  8
0
100
AcDbPolyline
 62
7
  6
CONTINUOUS
 90
10
 70
0
 10
-3.5963347539
 20
-13.2038726866
 10
-3.576163304
 20
-13.1992612289
 10
-3.5567050534
 20
-13.1937989276
 10
-3.5379600021
 20
-13.1874857828
 10
-3.5200463572
 20
-13.1803600858
 10
-3.5028459117
 20
-13.1723835453
 10
-3.4860040442
 20
-13.1634412871
 10
-3.4694025477
 20
-13.15349502
 10
-3.4531596293
 20
-13.1425830352
 10
-3.437275289
 20
-13.1307053328
  0
LWPOLYLINE
  5
2B3
100
AcDbEntity
  8
0
100
AcDbPolyline
 62
7
  6
CONTINUOUS
 90
10
 70
0
 10
-3.7617565975
 20
-13.0893498719
 10
-3.7801201409
 20
-13.0931882571
 10
-3.7994384865
 20
-13.0966110518
 10
-3.8197116345
 20
-13.0996182558
 10
-3.8409110593
 20
-13.1022282792
 10
-3.8630652863
 20
-13.1044227121
 10
-3.886259892
 20
-13.1061463243
 10
-3.9105234019
 20
-13.107380706
 10
-3.9358272904
 20
-13.1081442671
 10
-3.9621715575
 20
-13.1084370077
  0
LWPOLYLINE
  5
2B4
100
AcDbEntity
  8
RACCORDO
100
AcDbPolyline
 62
250
  6
CONTINUOUS
 90
9
 70
0
 10
-8.36067643
 20
-13.0891664262
 10
-8.3661718269
 20
-13.09002203
 10
-8.3731110225
 20
-13.0908324424
 10
-8.3812943599
 20
-13.0915976632
 10
-8.3905098091
 20
-13.0923165178
 10
-8.4005866682
 20
-13.092990181
 10
-8.4114203108
 20
-13.0936221771
 10
-8.4228730551
 20
-13.0942122481
 10
-8.4347989296
 20
-13.0947606522
  0
LINE
  5
2B5
100
AcDbEntity
  8
RACCORDO
100
AcDbLine
 62
7
  6
CONTINUOUS
 10
10.5677407521
 20
-11.8030796844
 11
10.6
 21
-11.8013890489
  0
LINE
  5
2B6
100
AcDbEntity
  8
RACCORDO
100
AcDbLine
 62
250
  6
CONTINUOUS
 10
-8.5702869209
 20
-12.9459507183
 11
-8.5864089109
 21
-12.9467904528
  0
LWPOLYLINE
  5
2B7
100
AcDbEntity
  8
0
100
AcDbPolyline
 62
7
  6
CONTINUOUS
 90
10
 70
0
 10
-3.799930869
 20
-12.0618257284
 10
-3.8702351063
 20
-12.0650088669
 10
-3.9341726952
 20
-12.0716069276
 10
-3.9917436358
 20
-12.0816199105
 10
-4.0423413271
 20
-12.0953601094
 10
-4.0865723701
 20
-12.1125152305
 10
-4.126256568
 20
-12.1321483926
 10
-4.1620005221
 20
-12.1539473017
 10
-4.1931976312
 20
-12.1782242517
 10
-4.2198478953
 20
-12.2049792426
  0
LINE
  5
2B8
100
AcDbEntity
  8
RACCORDO
100
AcDbLine
 62
250
  6
CONTINUOUS
 10
-8.5864089109
 20
-12.9467904528
 11
-8.6026176703
 21
-12.9474992151
  0
LINE
  5
2B9
100
AcDbEntity
  8
RACCORDO
100
AcDbLine
 62
250
  6
CONTINUOUS
 10
-8.4347989296
 20
-13.0947606522
 11
-8.4597469391
 21
-13.0957451808
  0
LWPOLYLINE
  5
2BA
100
AcDbEntity
  8
RACCORDO
100
AcDbPolyline
 62
250
  6
CONTINUOUS
 90
10
 70
0
 10
-8.8446593206
 20
-12.7627596326
 10
-8.8692688688
 20
-12.7636798581
 10
-8.8910661109
 20
-12.7646322275
 10
-8.9109575915
 20
-12.7656259854
 10
-8.9288620058
 20
-12.7666517439
 10
-8.944765059
 20
-12.767718891
 10
-8.9592178966
 20
-12.7688648351
 10
-8.9720710768
 20
-12.7701020456
 10
-8.9827695463
 20
-12.771418053
 10
-8.9909750246
 20
-12.7728128574
  0
LINE
  5
2BB
100
AcDbEntity
  8
RACCORDO
100
AcDbLine
 62
250
  6
CONTINUOUS
 10
-8.6026176703
 20
-12.9474992151
 11
-8.6187187007
 21
-12.9480957422
  0
LWPOLYLINE
  5
2BC
100
AcDbEntity
  8
0
100
AcDbPolyline
 62
7
  6
CONTINUOUS
 90
10
 70
0
 10
1.9612030193
 20
-12.0618257284
 10
1.9162067325
 20
-12.0633018653
 10
1.8742727768
 20
-12.0664584234
 10
1.8354011522
 20
-12.0712954028
 10
1.7998692628
 20
-12.0779533306
 10
1.7673997046
 20
-12.0862916796
 10
1.7371602651
 20
-12.0958888685
 10
1.7088735404
 20
-12.1066043701
 10
1.6828169344
 20
-12.1185787116
 10
1.6589904472
 20
-12.131811893
  0
LWPOLYLINE
  5
2BD
100
AcDbEntity
  8
0
100
AcDbPolyline
 62
7
  6
CONTINUOUS
 90
10
 70
0
 10
0.5233054563
 20
-12.0618257284
 10
0.4783091695
 20
-12.0633018653
 10
0.4363752138
 20
-12.0664584234
 10
0.3975035892
 20
-12.0712954028
 10
0.3619716998
 20
-12.0779533306
 10
0.3295021416
 20
-12.0862916796
 10
0.2992627022
 20
-12.0958888685
 10
0.2709759774
 20
-12.1066043701
 10
0.2449193714
 20
-12.1185787116
 10
0.2210928842
 20
-12.131811893
  0
LWPOLYLINE
  5
2BE
100
AcDbEntity
  8
0
100
AcDbPolyline
 62
7
  6
CONTINUOUS
 90
10
 70
0
 10
-0.9145921066
 20
-12.0618257284
 10
-0.9595884435
 20
-12.0633018676
 10
-1.0015224508
 20
-12.0664584297
 10
-1.0403941285
 20
-12.0712954149
 10
-1.0759260811
 20
-12.0779533532
 10
-1.1083957041
 20
-12.0862917145
 10
-1.1386351842
 20
-12.0958889082
 10
-1.1669219167
 20
-12.106604404
 10
-1.1929785063
 20
-12.1185787323
 10
-1.2168049529
 20
-12.131811893
  0
LINE
  5
2BF
100
AcDbEntity
  8
RACCORDO
100
AcDbLine
 62
250
  6
CONTINUOUS
 10
-8.4597469391
 20
-13.0957451808
 11
-8.4854945387
 21
-13.0965848831
  0
LINE
  5
2C0
100
AcDbEntity
  8
DRAFT
100
AcDbLine
 62
7
  6
CONTINUOUS
 10
-10.1
 20
-11.7626767255
 11
-10.6
 21
-11.7778055482
  0
LINE
  5
2C1
100
AcDbEntity
  8
RACCORDO
100
AcDbLine
 62
250
  6
CONTINUOUS
 10
-8.6187187007
 20
-12.9480957422
 11
-8.6346273054
 21
-12.9485915868
  0
LINE
  5
2C2
100
AcDbEntity
  8
RACCORDO
100
AcDbLine
 62
250
  6
CONTINUOUS
 10
-8.7857576356
 20
-12.7609769392
 11
-8.8446593206
 21
-12.7627596326
  0
LWPOLYLINE
  5
2C3
100
AcDbEntity
  8
RACCORDO
100
AcDbPolyline
 62
250
  6
CONTINUOUS
 90
56
 70
0
 10
-9.048757155
 20
-11.4589910036
 10
-9.0381829051
 20
-11.458694767
 10
-9.0276614324
 20
-11.4584562598
 10
-9.017165559
 20
-11.4582654388
 10
-9.0065721084
 20
-11.4581813011
 10
-8.9958837266
 20
-11.4582033084
 10
-8.9850977677
 20
-11.458331999
 10
-8.9740831172
 20
-11.4586279845
 10
-8.9628394485
 20
-11.4590839009
 10
-8.9513670882
 20
-11.4597071124
 10
-8.9395359014
 20
-11.4605803225
 10
-8.9273280454
 20
-11.4616942188
 10
-8.9147613631
 20
-11.4630581138
 10
-8.9017592481
 20
-11.4647826487
 10
-8.8882796638
 20
-11.4668667933
 10
-8.8743646468
 20
-11.4693115778
 10
-8.860063702
 20
-11.4722307351
 10
-8.8453210839
 20
-11.4756435395
 10
-8.8301925378
 20
-11.4795307168
 10
-8.8148948046
 20
-11.4839481765
 10
-8.7993914609
 20
-11.4889339466
 10
-8.7837189301
 20
-11.4944499991
 10
-8.768203223
 20
-11.5004381608
 10
-8.7528973482
 20
-11.5069050887
 10
-8.7377482971
 20
-11.5138441257
 10
-8.7229230554
 20
-11.5211771273
 10
-8.7084527828
 20
-11.5289004852
 10
-8.6943063196
 20
-11.5370178076
 10
-8.6805571715
 20
-11.5454617742
 10
-8.6671984482
 20
-11.5542450088
 10
-8.65423704
 20
-11.5633548876
 10
-8.6417671243
 20
-11.572686219
 10
-8.6298006168
 20
-11.5822395918
 10
-8.6183256018
 20
-11.5920144171
 10
-8.6074005091
 20
-11.6019037369
 10
-8.5970430473
 20
-11.6118961546
 10
-8.5872355078
 20
-11.6220030668
 10
-8.5779831952
 20
-11.6321517048
 10
-8.5692924505
 20
-11.6423358284
 10
-8.5611569327
 20
-11.6525616777
 10
-8.5535629234
 20
-11.6627752051
 10
-8.546522272
 20
-11.6729532032
 10
-8.5400231291
 20
-11.6831188794
 10
-8.5340162281
 20
-11.693287808
 10
-8.5284997564
 20
-11.7034381374
 10
-8.5234755266
 20
-11.7135917192
 10
-8.5188997111
 20
-11.7238296826
 10
-8.5147526729
 20
-11.7341648392
 10
-8.5110540489
 20
-11.7445843773
 10
-8.5078189213
 20
-11.7551309917
 10
-8.5050375244
 20
-11.7658437386
 10
-8.502719624
 20
-11.7766835618
 10
-8.5009095982
 20
-11.7875759875
 10
-8.4996222401
 20
-11.7984961913
 10
-8.4988427567
 20
-11.8094689976
 10
-8.4985711481
 20
-11.8204944066
  0
LINE
  5
2C4
100
AcDbEntity
  8
RACCORDO
100
AcDbLine
 62
250
  6
CONTINUOUS
 10
-8.4854945387
 20
-13.0965848831
 11
-8.5114209971
 21
-13.0972936483
  0
LINE
  5
2C5
100
AcDbEntity
  8
RACCORDO
100
AcDbLine
 62
250
  6
CONTINUOUS
 10
-8.6346273054
 20
-12.9485915868
 11
-8.6503112255
 21
-12.9490043961
  0
LINE
  5
2C6
100
AcDbEntity
  8
RACCORDO
100
AcDbLine
 62
250
  6
CONTINUOUS
 10
-8.5114209971
 20
-13.0972936483
 11
-8.549954197
 21
-13.0981485968
  0
LINE
  5
2C7
100
AcDbEntity
  8
RACCORDO
100
AcDbLine
 62
250
  6
CONTINUOUS
 10
-8.7148962215
 20
-12.7594689939
 11
-8.7857576356
 21
-12.7609769392
  0
LINE
  5
2C8
100
AcDbEntity
  8
RACCORDO
100
AcDbLine
 62
250
  6
CONTINUOUS
 10
-8.6503112255
 20
-12.9490043961
 11
-8.6735940174
 21
-12.9494921085
  0
LINE
  5
2C9
100
AcDbEntity
  8
RACCORDO
100
AcDbLine
 62
250
  6
CONTINUOUS
 10
-8.549954197
 20
-13.0981485968
 11
-8.6002045196
 21
-13.0989778957
  0
LWPOLYLINE
  5
2CA
100
AcDbEntity
  8
RACCORDO
100
AcDbPolyline
 62
250
  6
CONTINUOUS
 90
3
 70
0
 10
-9.1024704672
 20
-11.4602070867
 10
-9.0915877677
 20
-11.4600586345
 10
-9.0700240957
 20
-11.4596374088
  0
LINE
  5
2CB
100
AcDbEntity
  8
RACCORDO
100
AcDbLine
 62
250
  6
CONTINUOUS
 10
-8.6735940174
 20
-12.9494921085
 11
-8.6969193901
 21
-12.9498456218
  0
LINE
  5
2CC
100
AcDbEntity
  8
RACCORDO
100
AcDbLine
 62
250
  6
CONTINUOUS
 10
-8.6332809061
 20
-12.758333706
 11
-8.7148962215
 21
-12.7594689939
  0
LWPOLYLINE
  5
2CD
100
AcDbEntity
  8
RACCORDO
100
AcDbPolyline
 62
250
  6
CONTINUOUS
 90
17
 70
0
 10
-8.5626917846
 20
-12.9077718298
 10
-8.5928679796
 20
-12.9081280057
 10
-8.6220367796
 20
-12.9086306755
 10
-8.6499494974
 20
-12.9092634344
 10
-8.6758600714
 20
-12.9099770681
 10
-8.6995399892
 20
-12.9107714124
 10
-8.7212177632
 20
-12.9116466316
 10
-8.7408328696
 20
-12.9125540037
 10
-8.7581452291
 20
-12.9134741933
 10
-8.7733949211
 20
-12.9144265358
 10
-8.7872416596
 20
-12.9154203162
 10
-8.7998655583
 20
-12.9164462029
 10
-8.8110865036
 20
-12.9175135276
 10
-8.8210238692
 20
-12.9186595704
 10
-8.8297174464
 20
-12.919896758
 10
-8.8371274439
 20
-12.9212126637
 10
-8.8432538616
 20
-12.9226072876
  0
LINE
  5
2CE
100
AcDbEntity
  8
RACCORDO
100
AcDbLine
 62
250
  6
CONTINUOUS
 10
-8.6002045196
 20
-13.0989778957
 11
-8.6498446975
 21
-13.0995362469
  0
LINE
  5
2CF
100
AcDbEntity
  8
RACCORDO
100
AcDbLine
 62
250
  6
CONTINUOUS
 10
-8.6969193901
 20
-12.9498456218
 11
-8.7208110072
 21
-12.9500790679
  0
LINE
  5
2D0
100
AcDbEntity
  8
RACCORDO
100
AcDbLine
 62
250
  6
CONTINUOUS
 10
-8.6498446975
 20
-13.0995362469
 11
-8.7005338039
 21
-13.0998734965
  0
LINE
  5
2D1
100
AcDbEntity
  8
RACCORDO
100
AcDbLine
 62
250
  6
CONTINUOUS
 10
-8.5447709414
 20
-12.7577513936
 11
-8.6332809061
 21
-12.758333706
  0
LINE
  5
2D2
100
AcDbEntity
  8
RACCORDO
100
AcDbLine
 62
250
  6
CONTINUOUS
 10
-8.4985711481
 20
-12.9074497452
 11
-8.5626917846
 21
-12.9077718298
  0
LINE
  5
2D3
100
AcDbEntity
  8
RACCORDO
100
AcDbLine
 62
250
  6
CONTINUOUS
 10
-8.7208110072
 20
-12.9500790679
 11
-8.7459173086
 21
-12.9501897602
  0
LINE
  5
2D4
100
AcDbEntity
  8
RACCORDO
100
AcDbLine
 62
250
  6
CONTINUOUS
 10
-8.7005338039
 20
-13.0998734965
 11
-9.1339368607
 21
-13.0999932422
  0
LINE
  5
2D5
100
AcDbEntity
  8
RACCORDO
100
AcDbLine
 62
250
  6
CONTINUOUS
 10
-8.0991350553
 20
-13.0553368642
 11
-8.2468562183
 21
-13.0553368642
  0
LINE
  5
2D6
100
AcDbEntity
  8
RACCORDO
100
AcDbLine
 62
250
  6
CONTINUOUS
 10
8.0991350553
 20
-13.0553368642
 11
8.2468562183
 21
-13.0553368642
  0
LINE
  5
2D7
100
AcDbEntity
  8
RACCORDO
100
AcDbLine
 62
250
  6
CONTINUOUS
 10
-8.7459173086
 20
-12.9501897602
 11
-8.9360860759
 21
-12.950198812
  0
LINE
  5
2D8
100
AcDbEntity
  8
RACCORDO
100
AcDbLine
 62
250
  6
CONTINUOUS
 10
-8.4009945665
 20
-12.9074497452
 11
-8.4985711481
 21
-12.9074497452
  0
LINE
  5
2D9
100
AcDbEntity
  8
RACCORDO
100
AcDbLine
 62
250
  6
CONTINUOUS
 10
-8.4009951737
 20
-12.757655315
 11
-8.5447709414
 21
-12.7577513936
  0
LINE
  5
2DA
100
AcDbEntity
  8
0
100
AcDbLine
 62
7
  6
CONTINUOUS
 10
-4.3534578584
 20
-12.6439833701
 11
-4.0989626974
 21
-12.6439833701
  0
LINE
  5
2DB
100
AcDbEntity
  8
RACCORDO
100
AcDbLine
 62
250
  6
CONTINUOUS
 10
-9.4781437817
 20
-12.2025314983
 11
-10.1886751346
 21
-12.2025314983
  0
LINE
  5
2DC
100
AcDbEntity
  8
RACCORDO
100
AcDbLine
 62
250
  6
CONTINUOUS
 10
9.4781437817
 20
-12.2025314983
 11
10.1886751346
 21
-12.2025314983
  0
LINE
  5
2DD
100
AcDbEntity
  8
0
100
AcDbLine
 62
7
  6
CONTINUOUS
 10
3.7204011127
 20
-12.1
 11
3.3863763735
 21
-12.1
  0
LINE
  5
2DE
100
AcDbEntity
  8
0
100
AcDbLine
 62
7
  6
CONTINUOUS
 10
-2.1107192829
 20
-12.1
 11
-2.346127291
 21
-12.1
  0
LINE
  5
2DF
100
AcDbEntity
  8
RACCORDO
100
AcDbLine
 62
250
  6
CONTINUOUS
 10
-8.9909750246
 20
-11.820494419
 11
-8.4985711481
 21
-11.8204944066
  0
LINE
  5
2E0
100
AcDbEntity
  8
RACCORDO
100
AcDbLine
 62
250
  6
CONTINUOUS
 10
8.9909750246
 20
-11.8204944196
 11
8.4985711481
 21
-11.8204944066
  0
LINE
  5
2E1
100
AcDbEntity
  8
RACCORDO
100
AcDbLine
 62
250
  6
CONTINUOUS
 10
-10.5677407521
 20
-11.8030796844
 11
-9.5840902598
 21
-11.8030796844
  0
LINE
  5
2E2
100
AcDbEntity
  8
RACCORDO
100
AcDbLine
 62
250
  6
CONTINUOUS
 10
9.5840902598
 20
-11.8030796844
 11
10.5677407521
 21
-11.8030796844
  0
LINE
  5
2E3
100
AcDbEntity
  8
DRAFT
100
AcDbLine
 62
7
  6
CONTINUOUS
 10
9.4950979979
 20
-11.7076485572
 11
9.3049020021
 21
-11.7076485572
  0
LINE
  5
2E4
100
AcDbEntity
  8
DRAFT
100
AcDbLine
 62
7
  6
CONTINUOUS
 10
-9.3049020021
 20
-11.7076485572
 11
-9.4950979979
 21
-11.7076485572
  0
LINE
  5
2E5
100
AcDbEntity
  8
RACCORDO
100
AcDbLine
 62
250
  6
CONTINUOUS
 10
9.1802601072
 20
-11.6599329936
 11
9.1024704672
 21
-11.6599329936
  0
LINE
  5
2E6
100
AcDbEntity
  8
RACCORDO
100
AcDbLine
 62
250
  6
CONTINUOUS
 10
-9.1024704672
 20
-11.6599329936
 11
-9.1802601072
 21
-11.6599329936
  0
LINE
  5
2E7
100
AcDbEntity
  8
DRAFT
100
AcDbLine
 62
7
  6
CONTINUOUS
 10
-9.75
 20
-11.65
 11
-9.6449489743
 21
-11.65
  0
LINE
  5
2E8
100
AcDbEntity
  8
DRAFT
100
AcDbLine
 62
7
  6
CONTINUOUS
 10
9.6449489743
 20
-11.65
 11
9.75
 21
-11.65
  0
LINE
  5
2E9
100
AcDbEntity
  8
DRAFT
100
AcDbLine
 62
7
  6
CONTINUOUS
 10
-9.9496573543
 20
-11.6470633844
 11
-9.75
 21
-11.6470633844
  0
LINE
  5
2EA
100
AcDbEntity
  8
DRAFT
100
AcDbLine
 62
7
  6
CONTINUOUS
 10
9.75
 20
-11.6470633844
 11
9.9496573543
 21
-11.6470633844
  0
LINE
  5
2EB
100
AcDbEntity
  8
RACCORDO
100
AcDbLine
 62
250
  6
CONTINUOUS
 10
-9.3292938566
 20
-11.4602070867
 11
-9.1024704672
 21
-11.4602070867
  0
LINE
  5
2EC
100
AcDbEntity
  8
RACCORDO
100
AcDbLine
 62
250
  6
CONTINUOUS
 10
9.1024704672
 20
-11.4602070867
 11
9.3292938566
 21
-11.4602070867
  0
LINE
  5
2ED
100
AcDbEntity
  8
RACCORDO
100
AcDbLine
 62
7
  6
CONTINUOUS
 10
4.75
 20
-11.3
 11
-4.75
 21
-11.3
  0
LINE
  5
2EE
100
AcDbEntity
  8
RACCORDO
100
AcDbLine
 62
250
  6
CONTINUOUS
 10
8.9360860759
 20
-12.950198812
 11
8.7379124197
 21
-12.9501597824
  0
LINE
  5
2EF
100
AcDbEntity
  8
RACCORDO
100
AcDbLine
 62
250
  6
CONTINUOUS
 10
8.5262414153
 20
-12.9075262129
 11
8.4009945665
 21
-12.9074497452
  0
LINE
  5
2F0
100
AcDbEntity
  8
RACCORDO
100
AcDbLine
 62
250
  6
CONTINUOUS
 10
9.1339368607
 20
-13.0999932422
 11
8.7024601593
 21
-13.0998734113
  0
LINE
  5
2F1
100
AcDbEntity
  8
RACCORDO
100
AcDbLine
 62
250
  6
CONTINUOUS
 10
8.5756049155
 20
-12.757890141
 11
8.4009953734
 21
-12.757655315
  0
LWPOLYLINE
  5
2F2
100
AcDbEntity
  8
RACCORDO
100
AcDbPolyline
 62
250
  6
CONTINUOUS
 90
50
 70
0
 10
-9.1024704672
 20
-11.6599329936
 10
-9.097640329
 20
-11.659965847
 10
-9.0929174914
 20
-11.6601587588
 10
-9.0883060419
 20
-11.6605081716
 10
-9.0838131433
 20
-11.6610125509
 10
-9.0794392149
 20
-11.6616662195
 10
-9.075177825
 20
-11.6624585705
 10
-9.0710431709
 20
-11.6633808553
 10
-9.0670269153
 20
-11.664431849
 10
-9.0630890683
 20
-11.6656145433
 10
-9.0592315554
 20
-11.6669261407
 10
-9.0554589104
 20
-11.6683660742
 10
-9.0517367128
 20
-11.6699469414
 10
-9.0480664318
 20
-11.6716700315
 10
-9.0444553906
 20
-11.6735367927
 10
-9.040880451
 20
-11.6755661813
 10
-9.0373407556
 20
-11.6777654234
 10
-9.0338499985
 20
-11.6801354238
 10
-9.0304092624
 20
-11.6826896028
 10
-9.0270169133
 20
-11.6854402817
 10
-9.0236912875
 20
-11.6883846649
 10
-9.0204633697
 20
-11.6915122668
 10
-9.0173336553
 20
-11.6948348127
 10
-9.0143179408
 20
-11.6983442101
 10
-9.0114648761
 20
-11.7019923972
 10
-9.0087782568
 20
-11.7057801856
 10
-9.0062619092
 20
-11.7096978806
 10
-9.0039539126
 20
-11.7136701253
 10
-9.0018620745
 20
-11.7176705858
 10
-8.9999710624
 20
-11.7217045148
 10
-8.9982757492
 20
-11.7257370291
 10
-8.996774099
 20
-11.729749097
 10
-8.9954553364
 20
-11.7337395365
 10
-8.9942992831
 20
-11.7376998808
 10
-8.9932991675
 20
-11.7416247669
 10
-8.9924490068
 20
-11.7455038369
 10
-8.9917296311
 20
-11.7493220267
 10
-8.9911343929
 20
-11.7530705463
 10
-8.9906558981
 20
-11.7567452689
 10
-8.9902736803
 20
-11.7603388188
 10
-8.9899807354
 20
-11.7638419328
 10
-8.989770388
 20
-11.7672539968
 10
-8.9896237593
 20
-11.770581665
 10
-8.989534347
 20
-11.773820663
 10
-8.9894972908
 20
-11.776968395
 10
-8.9894980242
 20
-11.780035103
 10
-8.9895312201
 20
-11.7830135682
 10
-8.9895929276
 20
-11.7859062665
 10
-8.9896731226
 20
-11.7887389407
 10
-8.9897689607
 20
-11.7915067643
  0
LINE
  5
2F3
100
AcDbEntity
  8
RACCORDO
100
AcDbLine
 62
250
  6
CONTINUOUS
 10
8.7024601593
 20
-13.0998734113
 11
8.6548422977
 21
-13.09958185
  0
LINE
  5
2F4
100
AcDbEntity
  8
RACCORDO
100
AcDbLine
 62
250
  6
CONTINUOUS
 10
8.7379124197
 20
-12.9501597824
 11
8.7067456454
 21
-12.9499565451
  0
LINE
  5
2F5
100
AcDbEntity
  8
RACCORDO
100
AcDbLine
 62
250
  6
CONTINUOUS
 10
8.6452498655
 20
-12.7584527242
 11
8.5756049155
 21
-12.757890141
  0
LINE
  5
2F6
100
AcDbEntity
  8
RACCORDO
100
AcDbLine
 62
250
  6
CONTINUOUS
 10
8.6548422977
 20
-13.09958185
 11
8.592375468
 21
-13.0988693967
  0
LWPOLYLINE
  5
2F7
100
AcDbEntity
  8
RACCORDO
100
AcDbPolyline
 62
250
  6
CONTINUOUS
 90
3
 70
0
 10
8.6012399716
 20
-12.908247106
 10
8.5776927264
 20
-12.9079245833
 10
8.5262414153
 20
-12.9075262129
  0
LINE
  5
2F8
100
AcDbEntity
  8
RACCORDO
100
AcDbLine
 62
250
  6
CONTINUOUS
 10
8.7067456454
 20
-12.9499565451
 11
8.6785351685
 21
-12.9495766227
  0
LINE
  5
2F9
100
AcDbEntity
  8
RACCORDO
100
AcDbLine
 62
250
  6
CONTINUOUS
 10
8.7079647018
 20
-12.7593412447
 11
8.6452498655
 21
-12.7584527242
  0
LINE
  5
2FA
100
AcDbEntity
  8
RACCORDO
100
AcDbLine
 62
250
  6
CONTINUOUS
 10
8.592375468
 20
-13.0988693967
 11
8.5400347042
 21
-13.0979503301
  0
LINE
  5
2FB
100
AcDbEntity
  8
RACCORDO
100
AcDbLine
 62
250
  6
CONTINUOUS
 10
8.6785351685
 20
-12.9495766227
 11
8.6532180397
 21
-12.9490749493
  0
LINE
  5
2FC
100
AcDbEntity
  8
RACCORDO
100
AcDbLine
 62
250
  6
CONTINUOUS
 10
8.7674573572
 20
-12.7605275578
 11
8.7079647018
 21
-12.7593412447
  0
LWPOLYLINE
  5
2FD
100
AcDbEntity
  8
RACCORDO
100
AcDbPolyline
 62
250
  6
CONTINUOUS
 90
3
 70
0
 10
9.0700370915
 20
-11.4596377971
 10
9.0807810107
 20
-11.4598690114
 10
9.1024704672
 20
-11.4602070867
  0
LINE
  5
2FE
100
AcDbEntity
  8
RACCORDO
100
AcDbLine
 62
250
  6
CONTINUOUS
 10
8.5400347042
 20
-13.0979503301
 11
8.4970683255
 21
-13.0969178482
  0
LINE
  5
2FF
100
AcDbEntity
  8
RACCORDO
100
AcDbLine
 62
250
  6
CONTINUOUS
 10
8.6532180397
 20
-12.9490749493
 11
8.6307289759
 21
-12.9484774533
  0
LINE
  5
300
100
AcDbEntity
  8
DRAFT
100
AcDbLine
 62
7
  6
CONTINUOUS
 10
10.6
 20
-11.7778055482
 11
10.1
 21
-11.7626767255
  0
LINE
  5
301
100
AcDbEntity
  8
RACCORDO
100
AcDbLine
 62
250
  6
CONTINUOUS
 10
8.4970683255
 20
-13.0969178482
 11
8.4730981382
 21
-13.0961994918
  0
LWPOLYLINE
  5
302
100
AcDbEntity
  8
0
100
AcDbPolyline
 62
7
  6
CONTINUOUS
 90
10
 70
0
 10
-3.8062932476
 20
-12.2622406542
 10
-3.7875017108
 20
-12.2628261452
 10
-3.7696480758
 20
-12.2641942334
 10
-3.7527323428
 20
-12.2663449187
 10
-3.7368999698
 20
-12.2692934529
 10
-3.7220054988
 20
-12.2730245843
 10
-3.7076125548
 20
-12.2774925581
 10
-3.6935756797
 20
-12.2826821228
 10
-3.6800403316
 20
-12.2886085299
 10
-3.6670065106
 20
-12.2952717795
  0
LINE
  5
303
100
AcDbEntity
  8
RACCORDO
100
AcDbLine
 62
250
  6
CONTINUOUS
 10
8.6307289759
 20
-12.9484774533
 11
8.6109361435
 21
-12.9478185895
  0
LINE
  5
304
100
AcDbEntity
  8
RACCORDO
100
AcDbLine
 62
250
  6
CONTINUOUS
 10
8.4730981382
 20
-13.0961994918
 11
8.4523396218
 21
-13.0954726414
  0
LINE
  5
305
100
AcDbEntity
  8
RACCORDO
100
AcDbLine
 62
250
  6
CONTINUOUS
 10
8.4523396218
 20
-13.0954726414
 11
8.4342949794
 21
-13.0947398093
  0
LINE
  5
306
100
AcDbEntity
  8
RACCORDO
100
AcDbLine
 62
250
  6
CONTINUOUS
 10
8.6109361435
 20
-12.9478185895
 11
8.5936368192
 21
-12.9471234187
  0
LWPOLYLINE
  5
307
100
AcDbEntity
  8
0
100
AcDbPolyline
 62
7
  6
CONTINUOUS
 90
10
 70
0
 10
-0.9145921066
 20
-12.2622406542
 10
-0.8915112287
 20
-12.2632436624
 10
-0.8697938269
 20
-12.2654807872
 10
-0.8494399013
 20
-12.2689520287
 10
-0.8305594343
 20
-12.2737235543
 10
-0.8130424435
 20
-12.2797291965
 10
-0.7965589814
 20
-12.2867704533
 10
-0.7809990655
 20
-12.2947811572
 10
-0.7664726781
 20
-12.3038274758
 10
-0.7529798195
 20
-12.3139094089
  0
LWPOLYLINE
  5
308
100
AcDbEntity
  8
0
100
AcDbPolyline
 62
7
  6
CONTINUOUS
 90
10
 70
0
 10
0.5233054563
 20
-12.2622406542
 10
0.5463864879
 20
-12.2632436749
 10
0.5681040032
 20
-12.2654808099
 10
0.5884580023
 20
-12.2689520591
 10
0.6073384986
 20
-12.2737235932
 10
0.6248554787
 20
-12.2797292415
 10
0.6413389024
 20
-12.286770492
 10
0.6568987565
 20
-12.2947811738
 10
0.6714250542
 20
-12.3038274577
 10
0.6849177957
 20
-12.3139093436
  0
LWPOLYLINE
  5
309
100
AcDbEntity
  8
0
100
AcDbPolyline
 62
7
  6
CONTINUOUS
 90
10
 70
0
 10
1.9612030193
 20
-12.2622406542
 10
1.9842840509
 20
-12.2632436749
 10
2.0060015662
 20
-12.2654808099
 10
2.0263555653
 20
-12.2689520591
 10
2.0452360616
 20
-12.2737235932
 10
2.0627530416
 20
-12.2797292415
 10
2.0792364654
 20
-12.286770492
 10
2.0947963195
 20
-12.2947811738
 10
2.1093226172
 20
-12.3038274577
 10
2.1228153587
 20
-12.3139093436
  0
LINE
  5
30A
100
AcDbEntity
  8
RACCORDO
100
AcDbLine
 62
250
  6
CONTINUOUS
 10
8.4342949794
 20
-13.0947398093
 11
8.418627389
 21
-13.094001643
  0
LWPOLYLINE
  5
30B
100
AcDbEntity
  8
RACCORDO
100
AcDbPolyline
 62
250
  6
CONTINUOUS
 90
3
 70
0
 10
8.5936368192
 20
-12.9471234187
 10
8.5786611605
 20
-12.9464050686
 10
8.5719244146
 20
-12.9460429764
  0
LINE
  5
30C
100
AcDbEntity
  8
RACCORDO
100
AcDbLine
 62
7
  6
CONTINUOUS
 10
-10.6
 20
-11.8013890489
 11
-10.5677407521
 21
-11.8030796844
  0
LWPOLYLINE
  5
30D
100
AcDbEntity
  8
RACCORDO
100
AcDbPolyline
 62
250
  6
CONTINUOUS
 90
12
 70
0
 10
8.418627389
 20
-13.094001643
 10
8.4049740697
 20
-13.09325636
 10
8.3988074456
 20
-13.0928785464
 10
8.3930546698
 20
-13.0924968964
 10
8.387714784
 20
-13.0921110847
 10
8.3827320294
 20
-13.091717994
 10
8.3781183323
 20
-13.091317842
 10
8.3738846461
 20
-13.090910411
 10
8.3700005885
 20
-13.0904919309
 10
8.3664795076
 20
-13.0900611451
 10
8.3633627519
 20
-13.0896193102
 10
8.36067643
 20
-13.0891664262
  0
LWPOLYLINE
  5
30E
100
AcDbEntity
  8
RACCORDO
100
AcDbPolyline
 62
250
  6
CONTINUOUS
 90
17
 70
0
 10
8.5719244146
 20
-12.9460429764
 10
8.5598498946
 20
-12.9453121237
 10
8.5544017951
 20
-12.9449453814
 10
8.5493512861
 20
-12.9445773101
 10
8.5446169423
 20
-12.9442072167
 10
8.5401903317
 20
-12.9438355824
 10
8.5360798865
 20
-12.9434619261
 10
8.5322294778
 20
-12.9430841112
 10
8.5286296681
 20
-12.9427024681
 10
8.525289895
 20
-12.9423166664
 10
8.5221823425
 20
-12.9419235782
 10
8.5192962731
 20
-12.9415234123
 10
8.5166424242
 20
-12.9411159599
 10
8.5142251922
 20
-12.9406974674
 10
8.5120460423
 20
-12.9402666837
 10
8.5101035093
 20
-12.9398248599
 10
8.508397593
 20
-12.939371996
  0
LWPOLYLINE
  5
30F
100
AcDbEntity
  8
RACCORDO
100
AcDbPolyline
 62
250
  6
CONTINUOUS
 90
13
 70
0
 10
8.508397593
 20
-13.560628004
 10
8.489226245
 20
-13.5591845816
 10
8.4703791447
 20
-13.5552320781
 10
8.4521750557
 20
-13.5488373427
 10
8.4349218663
 20
-13.5401085304
 10
8.4189113821
 20
-13.5291932729
 10
8.4044143905
 20
-13.5162761813
 10
8.3916760813
 20
-13.5015757244
 10
8.3809118991
 20
-13.4853405328
 10
8.3723039001
 20
-13.4678451947
 10
8.3659976726
 20
-13.4493856112
 10
8.3620998745
 20
-13.4302739917
 10
8.36067643
 20
-13.4108335738
  0
LWPOLYLINE
  5
310
100
AcDbEntity
  8
0
100
AcDbPolyline
 62
7
  6
CONTINUOUS
 90
10
 70
0
 10
-1.2256536228
 20
-14.3670174257
 10
-1.2026420077
 20
-14.3802751944
 10
-1.1769882911
 20
-14.3923265928
 10
-1.1486924732
 20
-14.4031716207
 10
-1.1179641937
 20
-14.4129856016
 10
-1.0845938128
 20
-14.421593212
 10
-1.0479524109
 20
-14.4284684817
 10
-1.0078303479
 20
-14.4334360872
 10
-0.9644372639
 20
-14.4366713519
 10
-0.9177731588
 20
-14.4381742759
  0
LWPOLYLINE
  5
311
100
AcDbEntity
  8
0
100
AcDbPolyline
 62
7
  6
CONTINUOUS
 90
10
 70
0
 10
0.2122442143
 20
-14.3670174257
 10
0.235255825
 20
-14.3802751913
 10
0.2609095333
 20
-14.3923265877
 10
0.2892053394
 20
-14.4031716147
 10
0.3199336069
 20
-14.4129855963
 10
0.3533039721
 20
-14.4215932086
 10
0.3899453435
 20
-14.4284684799
 10
0.4300673575
 20
-14.4334360863
 10
0.4734603777
 20
-14.4366713516
 10
0.5201244041
 20
-14.4381742759
  0
LWPOLYLINE
  5
312
100
AcDbEntity
  8
0
100
AcDbPolyline
 62
7
  6
CONTINUOUS
 90
10
 70
0
 10
1.6501417773
 20
-14.3670174257
 10
1.673153388
 20
-14.3802751913
 10
1.6988070963
 20
-14.3923265877
 10
1.7271029024
 20
-14.4031716147
 10
1.7578311699
 20
-14.4129855963
 10
1.7912015351
 20
-14.4215932086
 10
1.8278429065
 20
-14.4284684799
 10
1.8679649205
 20
-14.4334360863
 10
1.9113579407
 20
-14.4366713516
 10
1.9580219671
 20
-14.4381742759
  0
LWPOLYLINE
  5
313
100
AcDbEntity
  8
0
100
AcDbPolyline
 62
7
  6
CONTINUOUS
 90
10
 70
0
 10
-3.6670065106
 20
-12.2952717795
 10
-3.6540805557
 20
-12.3028675321
 10
-3.6420258812
 20
-12.3108975878
 10
-3.6308424872
 20
-12.3193619465
 10
-3.620590011
 20
-12.328235564
 10
-3.6112088151
 20
-12.3375434846
 10
-3.602519988
 20
-12.3473608411
 10
-3.5944638924
 20
-12.3577126776
 10
-3.5871001656
 20
-12.36857395
 10
-3.5804288074
 20
-12.3799446583
  0
LWPOLYLINE
  5
314
100
AcDbEntity
  8
0
100
AcDbPolyline
 62
7
  6
CONTINUOUS
 90
10
 70
0
 10
-3.4186949668
 20
-13.2714251322
 10
-3.4334948
 20
-13.2617248336
 10
-3.4495087407
 20
-13.2525446251
 10
-3.4667367888
 20
-13.2438845067
 10
-3.4851517808
 20
-13.2357064414
 10
-3.5047808803
 20
-13.2280484663
 10
-3.5257055782
 20
-13.2210246921
 10
-3.5479530383
 20
-13.2146731559
 10
-3.5714960969
 20
-13.2089558208
 10
-3.5963347539
 20
-13.2038726866
  0
LWPOLYLINE
  5
315
100
AcDbEntity
  8
0
100
AcDbPolyline
 62
7
  6
CONTINUOUS
 90
10
 70
0
 10
-1.0814184404
 20
-14.1886071649
 10
-1.0933100054
 20
-14.1780584766
 10
-1.1048470843
 20
-14.1660828111
 10
-1.1160296772
 20
-14.1526801683
 10
-1.1269310905
 20
-14.1378982703
 10
-1.1374780178
 20
-14.121689395
 10
-1.1474505399
 20
-14.1039103769
 10
-1.1567753502
 20
-14.084513494
 10
-1.1655257552
 20
-14.0635464682
 10
-1.1737017549
 20
-14.0410092996
  0
LWPOLYLINE
  5
316
100
AcDbEntity
  8
0
100
AcDbPolyline
 62
7
  6
CONTINUOUS
 90
10
 70
0
 10
-3.6075034783
 20
-13.4058437138
 10
-3.5962803467
 20
-13.4176939379
 10
-3.58574219
 20
-13.4305207443
 10
-3.5758890083
 20
-13.444324133
 10
-3.5667118989
 20
-13.4589792412
 10
-3.5582197645
 20
-13.4746109317
 10
-3.5504393124
 20
-13.4915937926
 10
-3.5433794451
 20
-13.5100526866
 10
-3.5370312601
 20
-13.5298627509
 10
-3.5313947574
 20
-13.5510239856
  0
LWPOLYLINE
  5
317
100
AcDbEntity
  8
0
100
AcDbPolyline
 62
7
  6
CONTINUOUS
 90
10
 70
0
 10
-4.2580221743
 20
-14.2886583615
 10
-4.2326779576
 20
-14.3159033032
 10
-4.2019376741
 20
-14.3406578699
 10
-4.165801324
 20
-14.3629220615
 10
-4.1250033148
 20
-14.3830372208
 10
-4.0788092389
 20
-14.4006620051
 10
-4.0250158733
 20
-14.4147723865
 10
-3.9628888104
 20
-14.4250270221
 10
-3.8931624578
 20
-14.4317672548
 10
-3.8158368155
 20
-14.4349930844
  0
LWPOLYLINE
  5
318
100
AcDbEntity
  8
RACCORDO
100
AcDbPolyline
 62
250
  6
CONTINUOUS
 90
6
 70
0
 10
-10.4808434758
 20
-1.7202000995
 10
-10.4817997298
 20
-1.7100597736
 10
-10.4827053289
 20
-1.6960726073
 10
-10.4835602733
 20
-1.6785659216
 10
-10.4843699304
 20
-1.6577825653
 10
-10.4851289328
 20
-1.6341408059
  0
LWPOLYLINE
  5
319
100
AcDbEntity
  8
RACCORDO
100
AcDbPolyline
 62
250
  6
CONTINUOUS
 90
13
 70
0
 10
-9.4363690968
 20
-11.9528741146
 10
-9.4377923113
 20
-11.9334353095
 10
-9.4416895585
 20
-11.9143249009
 10
-9.4479950565
 20
-11.8958660877
 10
-9.4566022987
 20
-11.8783710611
 10
-9.4673658275
 20
-11.8621357719
 10
-9.4801036701
 20
-11.8474349114
 10
-9.4946004804
 20
-11.8345171791
 10
-9.5106111257
 20
-11.8236011524
 10
-9.5278647715
 20
-11.8148715922
 10
-9.5460695822
 20
-11.8084762257
 10
-9.5649176789
 20
-11.8045232788
 10
-9.5840902598
 20
-11.8030796844
  0
LWPOLYLINE
  5
31A
100
AcDbEntity
  8
RACCORDO
100
AcDbPolyline
 62
250
  6
CONTINUOUS
 90
13
 70
0
 10
-9.0838072388
 20
-12.8004043818
 10
-9.0823837615
 20
-12.819845039
 10
-9.0784858829
 20
-12.8389568381
 10
-9.0721795481
 20
-12.8574165359
 10
-9.0635714375
 20
-12.8749119201
 10
-9.052807159
 20
-12.8911470972
 10
-9.0400687807
 20
-12.9058474944
 10
-9.0255717622
 20
-12.918764491
 10
-9.0095613016
 20
-12.9296796345
 10
-8.9923081792
 20
-12.9384083359
 10
-8.9741041963
 20
-12.9448029778
 10
-8.9552572426
 20
-12.9487554154
 10
-8.9360860759
 20
-12.950198812
  0
LWPOLYLINE
  5
31B
100
AcDbEntity
  8
RACCORDO
100
AcDbPolyline
 62
250
  6
CONTINUOUS
 90
13
 70
0
 10
-8.9909750246
 20
-12.7728128574
 10
-8.9895515803
 20
-12.7922532753
 10
-8.9856537824
 20
-12.8113648948
 10
-8.9793475549
 20
-12.8298244783
 10
-8.9707395559
 20
-12.8473198164
 10
-8.9599753737
 20
-12.8635550079
 10
-8.9472370644
 20
-12.8782554649
 10
-8.9327400728
 20
-12.8911725565
 10
-8.9167295885
 20
-12.902087814
 10
-8.899476399
 20
-12.9108166263
 10
-8.88127231
 20
-12.9172113617
 10
-8.8624252096
 20
-12.9211638652
 10
-8.8432538616
 20
-12.9226072876
  0
LWPOLYLINE
  5
31C
100
AcDbEntity
  8
RACCORDO
100
AcDbPolyline
 62
250
  6
CONTINUOUS
 90
13
 70
0
 10
-8.36067643
 20
-13.0891664262
 10
-8.3620999909
 20
-13.0697251537
 10
-8.3659980887
 20
-13.0506128456
 10
-8.3723047419
 20
-13.0321527658
 10
-8.3809132431
 20
-13.0146571181
 10
-8.3916779392
 20
-12.9984218223
 10
-8.4044166749
 20
-12.9837214956
 10
-8.4189139327
 20
-12.9708047294
 10
-8.434924477
 20
-12.9598899239
 10
-8.4521774544
 20
-12.9511616315
 10
-8.4703810274
 20
-12.9447673945
 10
-8.4892273195
 20
-12.9408152652
 10
-8.508397593
 20
-12.939371996
  0
LWPOLYLINE
  5
31D
100
AcDbEntity
  8
RACCORDO
100
AcDbPolyline
 62
7
  6
CONTINUOUS
 90
10
 70
0
 10
-9.5
 20
2.2500380762
 10
-9.5014928615
 20
2.2766302445
 10
-9.5055710128
 20
2.3023809738
 10
-9.5122344538
 20
2.3272902641
 10
-9.5216119163
 20
2.3516104249
 10
-9.5335746687
 20
2.3750891468
 10
-9.5477365155
 20
2.3969695013
 10
-9.5641689654
 20
2.4171994208
 10
-9.5828005098
 20
2.435830973
 10
-9.6030304277
 20
2.4522634329
  0
LINE
  5
31E
100
AcDbEntity
  8
RACCORDO
100
AcDbLine
 62
250
  6
CONTINUOUS
 10
-8.9905906613
 20
-14.6899757155
 11
-8.9899910986
 21
-14.7031184187
  0
LWPOLYLINE
  5
31F
100
AcDbEntity
  8
RACCORDO
100
AcDbPolyline
 62
250
  6
CONTINUOUS
 90
51
 70
0
 10
-8.9899910986
 20
-14.7031184187
 10
-8.9897678518
 20
-14.7085203782
 10
-8.9896719265
 20
-14.7112984317
 10
-8.989591756
 20
-14.7141406104
 10
-8.9895302657
 20
-14.7170423444
 10
-8.9894976448
 20
-14.7200270268
 10
-8.9894977188
 20
-14.7230958601
 10
-8.9895356188
 20
-14.7262429723
 10
-8.9896259346
 20
-14.7294801961
 10
-8.9897734928
 20
-14.7328047317
 10
-8.9899846864
 20
-14.7362125573
 10
-8.9902785168
 20
-14.7397125329
 10
-8.9906618139
 20
-14.7433048492
 10
-8.9911415929
 20
-14.7469793689
 10
-8.9917383427
 20
-14.7507283565
 10
-8.992459593
 20
-14.7545480328
 10
-8.9933119765
 20
-14.7584291839
 10
-8.9943143345
 20
-14.7623552915
 10
-8.9954724522
 20
-14.7663154875
 10
-8.9967931609
 20
-14.7703049863
 10
-8.9982966032
 20
-14.7743155537
 10
-8.9999934667
 20
-14.7783459436
 10
-9.001885783
 20
-14.7823772508
 10
-9.0039788219
 20
-14.7863750753
 10
-9.0062880398
 20
-14.7903448823
 10
-9.0088055101
 20
-14.7942601237
 10
-9.0114929562
 20
-14.7980452754
 10
-9.014346473
 20
-14.8016905941
 10
-9.0173623057
 20
-14.8051970001
 10
-9.0204917805
 20
-14.8085165164
 10
-9.0237190086
 20
-14.8116410122
 10
-9.0270435738
 20
-14.814582306
 10
-9.0304347549
 20
-14.8173301571
 10
-9.0338743043
 20
-14.8198818243
 10
-9.0373638064
 20
-14.8222495502
 10
-9.0409022565
 20
-14.824446763
 10
-9.0444760222
 20
-14.8264743782
 10
-9.048085931
 20
-14.8283395782
 10
-9.0517550564
 20
-14.8300612518
 10
-9.0554760744
 20
-14.8316408356
 10
-9.0592475313
 20
-14.8330796198
 10
-9.0631037987
 20
-14.8343901703
 10
-9.0670403428
 20
-14.8355719173
 10
-9.0710552462
 20
-14.8366220678
 10
-9.0751884591
 20
-14.8375436043
 10
-9.0794483154
 20
-14.8383353029
 10
-9.0838206275
 20
-14.8389884249
 10
-9.088311806
 20
-14.8394923728
 10
-9.0929214275
 20
-14.8398414765
 10
-9.097642342
 20
-14.840034205
 10
-9.1024704672
 20
-14.8400670064
  0
LINE
  5
320
100
AcDbEntity
  8
RACCORDO
100
AcDbLine
 62
250
  6
CONTINUOUS
 10
-8.9907999727
 20
-14.6847424798
 11
-8.9905906613
 21
-14.6899757155
  0
LINE
  5
321
100
AcDbEntity
  8
RACCORDO
100
AcDbLine
 62
250
  6
CONTINUOUS
 10
-8.990983984
 20
-14.6795029305
 11
-8.9907999727
 21
-14.6847424798
  0
LINE
  5
322
100
AcDbEntity
  8
RACCORDO
100
AcDbLine
 62
250
  6
CONTINUOUS
 10
-10.4851289328
 20
-1.6341408059
 11
-10.4864403703
 21
-1.5810157707
  0
LWPOLYLINE
  5
323
100
AcDbEntity
  8
RACCORDO
100
AcDbPolyline
 62
250
  6
CONTINUOUS
 90
3
 70
0
 10
-10.1886667009
 20
-1.3226007976
 10
-10.1892471392
 20
-1.2982922763
 10
-10.1894722918
 20
-1.2857194553
  0
LINE
  5
324
100
AcDbEntity
  8
RACCORDO
100
AcDbLine
 62
250
  6
CONTINUOUS
 10
-10.4864403703
 20
-1.5810157707
 11
-10.4874812663
 21
-1.5231313013
  0
LWPOLYLINE
  5
325
100
AcDbEntity
  8
RACCORDO
100
AcDbPolyline
 62
250
  6
CONTINUOUS
 90
19
 70
0
 10
-9.4781437817
 20
-14.2974685017
 10
-9.4778747519
 20
-14.3227316736
 10
-9.4772400017
 20
-14.3469600801
 10
-9.476239531
 20
-14.3701537213
 10
-9.4748213423
 20
-14.3925499803
 10
-9.4730374332
 20
-14.413911474
 10
-9.4710437961
 20
-14.433526053
 10
-9.4688530121
 20
-14.4511181493
 10
-9.4664525002
 20
-14.4669633309
 10
-9.46396051
 20
-14.4811761533
 10
-9.4614244577
 20
-14.4936515909
 10
-9.4587969273
 20
-14.5044946692
 10
-9.4560539204
 20
-14.5141350196
 10
-9.4532153556
 20
-14.5227326383
 10
-9.4502613143
 20
-14.5301275291
 10
-9.4471080432
 20
-14.536269335
 10
-9.4437276243
 20
-14.5411412701
 10
-9.4401479755
 20
-14.5447601202
 10
-9.4363690968
 20
-14.5471258854
  0
LWPOLYLINE
  5
326
100
AcDbEntity
  8
RACCORDO
100
AcDbPolyline
 62
250
  6
CONTINUOUS
 90
19
 70
0
 10
-9.4781437817
 20
12.2025314983
 10
-9.4778747519
 20
12.1772683264
 10
-9.4772400017
 20
12.1530399199
 10
-9.476239531
 20
12.1298462787
 10
-9.4748213423
 20
12.1074500197
 10
-9.4730374332
 20
12.086088526
 10
-9.4710437961
 20
12.066473947
 10
-9.4688530121
 20
12.0488818507
 10
-9.4664525002
 20
12.0330366691
 10
-9.46396051
 20
12.0188238467
 10
-9.4614244577
 20
12.0063484091
 10
-9.4587969273
 20
11.9955053308
 10
-9.4560539204
 20
11.9858649804
 10
-9.4532153556
 20
11.9772673617
 10
-9.4502613143
 20
11.9698724709
 10
-9.4471080432
 20
11.963730665
 10
-9.4437276243
 20
11.9588587299
 10
-9.4401479755
 20
11.9552398798
 10
-9.4363690968
 20
11.9528741146
  0
LINE
  5
327
100
AcDbEntity
  8
RACCORDO
100
AcDbLine
 62
250
  6
CONTINUOUS
 10
-10.4874812663
 20
-1.5231313013
 11
-10.4885655868
 21
-1.4347013617
  0
LINE
  5
328
100
AcDbEntity
  8
RACCORDO
100
AcDbLine
 62
250
  6
CONTINUOUS
 10
-10.1894722918
 20
-1.2857194553
 11
-10.1897855398
 21
-1.2582703993
  0
LWPOLYLINE
  5
329
100
AcDbEntity
  8
RACCORDO
100
AcDbPolyline
 62
250
  6
CONTINUOUS
 90
19
 70
0
 10
-10.38468937
 20
-2.1258649447
 10
-10.3847991754
 20
-2.112534455
 10
-10.3850709059
 20
-2.0994702374
 10
-10.3855045614
 20
-2.0867674931
 10
-10.3861193151
 20
-2.0744434179
 10
-10.3868959939
 20
-2.0626493872
 10
-10.3877770781
 20
-2.0516469299
 10
-10.3887605758
 20
-2.0415291847
 10
-10.3898484789
 20
-2.0322442133
 10
-10.3909892432
 20
-2.0237926391
 10
-10.3921621772
 20
-2.0162515327
 10
-10.3933879725
 20
-2.0095034881
 10
-10.3946771589
 20
-2.0033019684
 10
-10.3960179472
 20
-1.9976806288
 10
-10.3974221267
 20
-1.9926592752
 10
-10.3989355958
 20
-1.9880988974
 10
-10.4005736539
 20
-1.984056226
 10
-10.4023210015
 20
-1.9807011361
 10
-10.4041776388
 20
-1.9781437817
  0
LWPOLYLINE
  5
32A
100
AcDbEntity
  8
RACCORDO
100
AcDbPolyline
 62
250
  6
CONTINUOUS
 90
19
 70
0
 10
-9.6258649393
 20
-14.2974685017
 10
-9.6255954733
 20
-14.3373812515
 10
-9.6249604718
 20
-14.3762625646
 10
-9.6239599349
 20
-14.41376483
 10
-9.622541977
 20
-14.449802065
 10
-9.6207584837
 20
-14.4838741511
 10
-9.6187651114
 20
-14.5151605914
 10
-9.6165742734
 20
-14.5433603726
 10
-9.6141735565
 20
-14.5687229276
 10
-9.6116813778
 20
-14.5914007281
 10
-9.609145122
 20
-14.6112480263
 10
-9.6065174045
 20
-14.6285963947
 10
-9.6037744879
 20
-14.644134902
 10
-9.6009366107
 20
-14.657778896
 10
-9.5979835344
 20
-14.6694802698
 10
-9.5948308064
 20
-14.6795498848
 10
-9.5914502759
 20
-14.6877691781
 10
-9.5878700937
 20
-14.6936673783
 10
-9.5840902598
 20
-14.6969203156
  0
LWPOLYLINE
  5
32B
100
AcDbEntity
  8
RACCORDO
100
AcDbPolyline
 62
250
  6
CONTINUOUS
 90
19
 70
0
 10
-9.6258649393
 20
12.2025314983
 10
-9.6255954733
 20
12.1626187485
 10
-9.6249604718
 20
12.1237374354
 10
-9.6239599349
 20
12.08623517
 10
-9.622541977
 20
12.050197935
 10
-9.6207584837
 20
12.0161258489
 10
-9.6187651114
 20
11.9848394086
 10
-9.6165742734
 20
11.9566396274
 10
-9.6141735565
 20
11.9312770724
 10
-9.6116813778
 20
11.9085992719
 10
-9.609145122
 20
11.8887519737
 10
-9.6065174045
 20
11.8714036053
 10
-9.6037744879
 20
11.855865098
 10
-9.6009366107
 20
11.842221104
 10
-9.5979835344
 20
11.8305197302
 10
-9.5948308064
 20
11.8204501152
 10
-9.5914502759
 20
11.8122308219
 10
-9.5878700937
 20
11.8063326217
 10
-9.5840902598
 20
11.8030796844
  0
LINE
  5
32C
100
AcDbEntity
  8
0
100
AcDbLine
 62
7
  6
CONTINUOUS
 10
-9.7494736654
 20
-16.4586033555
 11
-9.7452898151
 21
-17.1171534187
  0
LINE
  5
32D
100
AcDbEntity
  8
RACCORDO
100
AcDbLine
 62
7
  6
CONTINUOUS
 10
-9.7452898151
 20
-17.1171534187
 11
-9.7494736654
 21
-16.4586033555
  0
LINE
  5
32E
100
AcDbEntity
  8
RACCORDO
100
AcDbLine
 62
250
  6
CONTINUOUS
 10
-10.4885655868
 20
-1.4347013617
 11
-10.4892403586
 21
-1.3393679847
  0
LINE
  5
32F
100
AcDbEntity
  8
RACCORDO
100
AcDbLine
 62
250
  6
CONTINUOUS
 10
-10.1897855398
 20
-1.2582703993
 11
-10.1899160682
 21
-1.227796223
  0
LINE
  5
330
100
AcDbEntity
  8
0
100
AcDbLine
 62
7
  6
CONTINUOUS
 10
-11.0345351961
 20
-25.8347065336
 11
-11.0345351961
 21
25.8347065336
  0
LINE
  5
331
100
AcDbEntity
  8
RACCORDO
100
AcDbLine
 62
7
  6
CONTINUOUS
 10
-10.9828653412
 20
-25.8321769981
 11
-10.9828653412
 21
-15.75
  0
LINE
  5
332
100
AcDbEntity
  8
DRAFT
100
AcDbLine
 62
7
  6
CONTINUOUS
 10
-10.9828653412
 20
-10.75
 11
-10.9828653412
 21
10.75
  0
LINE
  5
333
100
AcDbEntity
  8
RACCORDO
100
AcDbLine
 62
7
  6
CONTINUOUS
 10
-10.9828653412
 20
15.75
 11
-10.9828653412
 21
25.8321769981
  0
LINE
  5
334
100
AcDbEntity
  8
RACCORDO
100
AcDbLine
 62
7
  6
CONTINUOUS
 10
-10.9645351961
 20
-25.7709349336
 11
-10.9645351961
 21
-15.75
  0
LINE
  5
335
100
AcDbEntity
  8
RACCORDO
100
AcDbLine
 62
7
  6
CONTINUOUS
 10
-10.9645351961
 20
-10.75
 11
-10.9645351961
 21
-2.1258649447
  0
LINE
  5
336
100
AcDbEntity
  8
RACCORDO
100
AcDbLine
 62
7
  6
CONTINUOUS
 10
-10.9645351961
 20
2.1258649447
 11
-10.9645351961
 21
10.75
  0
LINE
  5
337
100
AcDbEntity
  8
RACCORDO
100
AcDbLine
 62
7
  6
CONTINUOUS
 10
-10.9645351961
 20
15.75
 11
-10.9645351961
 21
25.7709349336
  0
LINE
  5
338
100
AcDbEntity
  8
RACCORDO
100
AcDbLine
 62
7
  6
CONTINUOUS
 10
-10.9121633529
 20
1.227796223
 11
-10.9121633529
 21
-1.227796223
  0
LINE
  5
339
100
AcDbEntity
  8
RACCORDO
100
AcDbLine
 62
7
  6
CONTINUOUS
 10
-10.65
 20
-15.55
 11
-10.65
 21
-10.95
  0
LINE
  5
33A
100
AcDbEntity
  8
RACCORDO
100
AcDbLine
 62
7
  6
CONTINUOUS
 10
-10.65
 20
10.95
 11
-10.65
 21
15.55
  0
LINE
  5
33B
100
AcDbEntity
  8
DRAFT
100
AcDbLine
 62
7
  6
CONTINUOUS
 10
-10.6
 20
-14.7221944518
 11
-10.6
 21
-11.7778055482
  0
LINE
  5
33C
100
AcDbEntity
  8
DRAFT
100
AcDbLine
 62
7
  6
CONTINUOUS
 10
-10.6
 20
11.7778055482
 11
-10.6
 21
14.7221944518
  0
LINE
  5
33D
100
AcDbEntity
  8
RACCORDO
100
AcDbLine
 62
250
  6
CONTINUOUS
 10
-10.4892403586
 20
-1.3393679847
 11
-10.4895049286
 21
1.227796223
  0
LINE
  5
33E
100
AcDbEntity
  8
RACCORDO
100
AcDbLine
 62
7
  6
CONTINUOUS
 10
-10.25
 20
-25.0
 11
-10.25
 21
-16.2875932838
  0
LINE
  5
33F
100
AcDbEntity
  8
RACCORDO
100
AcDbLine
 62
7
  6
CONTINUOUS
 10
-10.25
 20
16.2875932838
 11
-10.25
 21
25.0
  0
LINE
  5
340
100
AcDbEntity
  8
RACCORDO
100
AcDbLine
 62
7
  6
CONTINUOUS
 10
-10.1886751346
 20
14.2974685017
 11
-10.1886751346
 21
12.2025314983
  0
LINE
  5
341
100
AcDbEntity
  8
RACCORDO
100
AcDbLine
 62
7
  6
CONTINUOUS
 10
-10.1886751346
 20
-14.2974685017
 11
-10.1886751346
 21
-12.2025314983
  0
LINE
  5
342
100
AcDbEntity
  8
RACCORDO
100
AcDbLine
 62
7
  6
CONTINUOUS
 10
-10.1000000276
 20
1.7074830638
 11
-10.1000000116
 21
-1.7074831665
  0
LINE
  5
343
100
AcDbEntity
  8
RACCORDO
100
AcDbLine
 62
7
  6
CONTINUOUS
 10
-9.75
 20
16.2875932838
 11
-9.75
 21
14.8529366156
  0
LINE
  5
344
100
AcDbEntity
  8
DRAFT
100
AcDbLine
 62
7
  6
CONTINUOUS
 10
-9.75
 20
16.2875932838
 11
-9.75
 21
14.85
  0
LINE
  5
345
100
AcDbEntity
  8
RACCORDO
100
AcDbLine
 62
7
  6
CONTINUOUS
 10
-9.75
 20
11.6470633844
 11
-9.75
 21
2.5000060301
  0
LINE
  5
346
100
AcDbEntity
  8
DRAFT
100
AcDbLine
 62
7
  6
CONTINUOUS
 10
-9.75
 20
11.65
 11
-9.75
 21
2.4999999971
  0
LINE
  5
347
100
AcDbEntity
  8
RACCORDO
100
AcDbLine
 62
7
  6
CONTINUOUS
 10
-9.75
 20
-2.5000060301
 11
-9.75
 21
-11.6470633844
  0
LINE
  5
348
100
AcDbEntity
  8
DRAFT
100
AcDbLine
 62
7
  6
CONTINUOUS
 10
-9.75
 20
-2.4999999971
 11
-9.75
 21
-11.65
  0
LINE
  5
349
100
AcDbEntity
  8
RACCORDO
100
AcDbLine
 62
7
  6
CONTINUOUS
 10
-9.75
 20
-14.8529366156
 11
-9.75
 21
-16.2875932838
  0
LINE
  5
34A
100
AcDbEntity
  8
DRAFT
100
AcDbLine
 62
7
  6
CONTINUOUS
 10
-9.75
 20
-14.85
 11
-9.75
 21
-16.2875932838
  0
LINE
  5
34B
100
AcDbEntity
  8
RACCORDO
100
AcDbLine
 62
7
  6
CONTINUOUS
 10
-9.7447634805
 20
-17.2881634904
 11
-9.7447634805
 21
-24.7448015567
  0
LINE
  5
34C
100
AcDbEntity
  8
0
100
AcDbLine
 62
7
  6
CONTINUOUS
 10
-9.7447634805
 20
-17.2881634904
 11
-9.7447634805
 21
-24.7448015567
  0
LINE
  5
34D
100
AcDbEntity
  8
RACCORDO
100
AcDbLine
 62
7
  6
CONTINUOUS
 10
-9.7447634805
 20
17.2881634904
 11
-9.7447634805
 21
24.7448015567
  0
LINE
  5
34E
100
AcDbEntity
  8
0
100
AcDbLine
 62
7
  6
CONTINUOUS
 10
-9.7447634805
 20
17.2881634904
 11
-9.7447634805
 21
24.7448015567
  0
LINE
  5
34F
100
AcDbEntity
  8
RACCORDO
100
AcDbLine
 62
250
  6
CONTINUOUS
 10
-9.6258649447
 20
14.2974685017
 11
-9.6258649447
 21
12.2025314983
  0
LINE
  5
350
100
AcDbEntity
  8
RACCORDO
100
AcDbLine
 62
250
  6
CONTINUOUS
 10
-9.6258649447
 20
-12.2025314983
 11
-9.6258649447
 21
-14.2974685017
  0
LINE
  5
351
100
AcDbEntity
  8
RACCORDO
100
AcDbLine
 62
7
  6
CONTINUOUS
 10
-9.5
 20
-2.2500380762
 11
-9.5
 21
2.2500380762
  0
LINE
  5
352
100
AcDbEntity
  8
0
100
AcDbLine
 62
7
  6
CONTINUOUS
 10
-9.5
 20
-2.2500380762
 11
-9.5
 21
2.2500380762
  0
LINE
  5
353
100
AcDbEntity
  8
RACCORDO
100
AcDbLine
 62
250
  6
CONTINUOUS
 10
-9.4781437817
 20
14.2974685017
 11
-9.4781437817
 21
12.2025314983
  0
LINE
  5
354
100
AcDbEntity
  8
RACCORDO
100
AcDbLine
 62
250
  6
CONTINUOUS
 10
-9.4781437817
 20
-12.2025314983
 11
-9.4781437817
 21
-14.2974685017
  0
LWPOLYLINE
  5
355
100
AcDbEntity
  8
RACCORDO
100
AcDbPolyline
 62
250
  6
CONTINUOUS
 90
19
 70
0
 10
-10.1899160682
 20
-1.227796223
 10
-10.1898656152
 20
1.2460084826
 10
-10.1897417687
 20
1.2636010933
 10
-10.1895445286
 20
1.2805740552
 10
-10.1892652834
 20
1.2970840191
 10
-10.1889126447
 20
1.312974334
 10
-10.1885124466
 20
1.3277750479
 10
-10.1880641165
 20
1.3413544837
 10
-10.1875682271
 20
1.3538443183
 10
-10.18705233
 20
1.3651696303
 10
-10.1865274395
 20
1.3751839945
 10
-10.1859825414
 20
1.384033836
 10
-10.1854121446
 20
1.3920835087
 10
-10.1848214071
 20
1.3994377579
 10
-10.1842051708
 20
1.4059918383
 10
-10.1835424701
 20
1.4117958683
 10
-10.1828263163
 20
1.4168665538
 10
-10.1820636981
 20
1.421187189
 10
-10.1812546154
 20
1.4247577736
  0
LINE
  5
356
100
AcDbEntity
  8
RACCORDO
100
AcDbLine
 62
250
  6
CONTINUOUS
 10
-10.4895049286
 20
1.227796223
 11
-10.4891329734
 21
1.3597408014
  0
LINE
  5
357
100
AcDbEntity
  8
0
100
AcDbLine
 62
7
  6
CONTINUOUS
 10
-9.7452898151
 20
17.1171534187
 11
-9.7494736654
 21
16.4586033555
  0
LINE
  5
358
100
AcDbEntity
  8
RACCORDO
100
AcDbLine
 62
7
  6
CONTINUOUS
 10
-9.7494736654
 20
16.4586033555
 11
-9.7452898151
 21
17.1171534187
  0
LINE
  5
359
100
AcDbEntity
  8
RACCORDO
100
AcDbLine
 62
250
  6
CONTINUOUS
 10
-10.4891329734
 20
1.3597408014
 11
-10.4881015185
 21
1.4777432871
  0
LINE
  5
35A
100
AcDbEntity
  8
RACCORDO
100
AcDbLine
 62
250
  6
CONTINUOUS
 10
-10.4881015185
 20
1.4777432871
 11
-10.487157035
 21
1.5430120231
  0
LINE
  5
35B
100
AcDbEntity
  8
RACCORDO
100
AcDbLine
 62
250
  6
CONTINUOUS
 10
-10.487157035
 20
1.5430120231
 11
-10.4861159398
 21
1.5961471211
  0
LWPOLYLINE
  5
35C
100
AcDbEntity
  8
RACCORDO
100
AcDbPolyline
 62
250
  6
CONTINUOUS
 90
8
 70
0
 10
-10.4861159398
 20
1.5961471211
 10
-10.4850006092
 20
1.6385144335
 10
-10.4844103792
 20
1.6567743791
 10
-10.483794849
 20
1.673023196
 10
-10.4831325412
 20
1.6877953453
 10
-10.4824162969
 20
1.7009260718
 10
-10.4816532751
 20
1.7118458251
 10
-10.4808434758
 20
1.7202000995
  0
LINE
  5
35D
100
AcDbEntity
  8
RACCORDO
100
AcDbLine
 62
250
  6
CONTINUOUS
 10
-8.9906997542
 20
14.6873557619
 11
-8.9909837821
 21
14.6795029905
  0
LWPOLYLINE
  5
35E
100
AcDbEntity
  8
RACCORDO
100
AcDbPolyline
 62
7
  6
CONTINUOUS
 90
22
 70
0
 10
-10.1000000116
 20
-1.7074833515
 10
-10.1009968002
 20
-1.7325943244
 10
-10.1036259175
 20
-1.7573624899
 10
-10.1078873634
 20
-1.7817878481
 10
-10.1138852888
 20
-1.8059913954
 10
-10.1215155429
 20
-1.8298521353
 10
-10.1304656731
 20
-1.8530070783
 10
-10.1407617073
 20
-1.8753883615
 10
-10.1523776177
 20
-1.8970638478
 10
-10.164922868
 20
-1.9178741365
 10
-10.1783267826
 20
-1.9377011923
 10
-10.1926600372
 20
-1.9566630506
 10
-10.2077441229
 20
-1.9749544164
 10
-10.2234539627
 20
-1.9924931009
 10
-10.2399146337
 20
-2.0093612931
 10
-10.2573228585
 20
-2.0260002646
 10
-10.2756469859
 20
-2.0424103678
 10
-10.2949186672
 20
-2.0585912503
 10
-10.3154295785
 20
-2.0749831278
 10
-10.3372769455
 20
-2.0917327385
 10
-10.3603635427
 20
-2.1086933442
 10
-10.38468937
 20
-2.1258649447
  0
LINE
  5
35F
100
AcDbEntity
  8
RACCORDO
100
AcDbLine
 62
250
  6
CONTINUOUS
 10
-8.9897689607
 20
14.7084932357
 11
-8.9899914861
 21
14.7031099107
  0
LINE
  5
360
100
AcDbEntity
  8
RACCORDO
100
AcDbLine
 62
250
  6
CONTINUOUS
 10
-8.9903559485
 20
14.6952031602
 11
-8.9906997542
 21
14.6873557619
  0
LINE
  5
361
100
AcDbEntity
  8
RACCORDO
100
AcDbLine
 62
250
  6
CONTINUOUS
 10
-8.9899914861
 20
14.7031099107
 11
-8.9903559485
 21
14.6952031602
  0
LWPOLYLINE
  5
362
100
AcDbEntity
  8
RACCORDO
100
AcDbPolyline
 62
250
  6
CONTINUOUS
 90
13
 70
0
 10
-9.4363690968
 20
11.9528741146
 10
-9.4377925411
 20
11.9334336967
 10
-9.441690339
 20
11.9143220772
 10
-9.4479965665
 20
11.8958624937
 10
-9.4566045655
 20
11.8783671556
 10
-9.4673687477
 20
11.862131964
 10
-9.480107057
 20
11.8474315071
 10
-9.4946040486
 20
11.8345144155
 10
-9.5106145329
 20
11.823599158
 10
-9.5278677224
 20
11.8148703457
 10
-9.5460718115
 20
11.8084756103
 10
-9.5649189118
 20
11.8045231068
 10
-9.5840902598
 20
11.8030796844
  0
LWPOLYLINE
  5
363
100
AcDbEntity
  8
RACCORDO
100
AcDbPolyline
 62
250
  6
CONTINUOUS
 90
13
 70
0
 10
-9.0838072388
 20
12.8004043818
 10
-9.0823837946
 20
12.8198447998
 10
-9.0784859967
 20
12.8389564192
 10
-9.0721797692
 20
12.8574160028
 10
-9.0635717702
 20
12.8749113408
 10
-9.052807588
 20
12.8911465324
 10
-9.0400692787
 20
12.9058469894
 10
-9.0255722871
 20
12.9187640809
 10
-9.0095618027
 20
12.9296793385
 10
-8.9923086133
 20
12.9384081507
 10
-8.9741045242
 20
12.9448028862
 10
-8.9552574239
 20
12.9487553897
 10
-8.9360860759
 20
12.950198812
  0
LWPOLYLINE
  5
364
100
AcDbEntity
  8
RACCORDO
100
AcDbPolyline
 62
250
  6
CONTINUOUS
 90
13
 70
0
 10
-8.9909750246
 20
12.7728128574
 10
-8.9895514496
 20
12.7922542289
 10
-8.9856533155
 20
12.8113666203
 10
-8.9793466092
 20
12.8298267642
 10
-8.9707380414
 20
12.8473224588
 10
-8.9599732725
 20
12.8635577786
 10
-8.9472344734
 20
12.8782580964
 10
-8.9327371717
 20
12.891174826
 10
-8.9167266096
 20
12.9020895756
 10
-8.8994736551
 20
12.9108177983
 10
-8.881270153
 20
12.9172119651
 10
-8.8624239771
 20
12.9211640406
 10
-8.8432538616
 20
12.9226072876
  0
LWPOLYLINE
  5
365
100
AcDbEntity
  8
RACCORDO
100
AcDbPolyline
 62
250
  6
CONTINUOUS
 90
13
 70
0
 10
-8.36067643
 20
13.0891664262
 10
-8.3620998746
 20
13.069726008
 10
-8.3659976728
 20
13.0506143884
 10
-8.3723039005
 20
13.0321548047
 10
-8.3809118996
 20
13.0146594666
 10
-8.3916760818
 20
12.9984242751
 10
-8.4044143911
 20
12.9837238181
 10
-8.4189113826
 20
12.9708067267
 10
-8.4349218668
 20
12.9598914693
 10
-8.4521750561
 20
12.9511626571
 10
-8.470379145
 20
12.9447679218
 10
-8.4892262452
 20
12.9408154184
 10
-8.508397593
 20
12.939371996
  0
LINE
  5
366
100
AcDbEntity
  8
RACCORDO
100
AcDbLine
 62
7
  6
CONTINUOUS
 10
-10.9612893785
 20
-1.9781437817
 11
-10.9229827449
 21
-1.7202000995
  0
LWPOLYLINE
  5
367
100
AcDbEntity
  8
RACCORDO
100
AcDbPolyline
 62
250
  6
CONTINUOUS
 90
7
 70
0
 10
-10.1045887783
 20
1.6827014558
 10
-10.1037908956
 20
1.6856892143
 10
-10.1030062492
 20
1.6891339766
 10
-10.1022348392
 20
1.6930357427
 10
-10.1014766656
 20
1.6973945126
 10
-10.1007317284
 20
1.7022102863
 10
-10.1000000276
 20
1.7074830638
  0
LINE
  5
368
100
AcDbEntity
  8
RACCORDO
100
AcDbLine
 62
250
  6
CONTINUOUS
 10
-10.4808434758
 20
1.7202000995
 11
-10.4041776388
 21
1.9781437817
  0
LINE
  5
369
100
AcDbEntity
  8
RACCORDO
100
AcDbLine
 62
250
  6
CONTINUOUS
 10
-10.1812546154
 20
1.4247577736
 11
-10.1045887783
 21
1.6827014558
  0
LWPOLYLINE
  5
36A
100
AcDbEntity
  8
RACCORDO
100
AcDbPolyline
 62
250
  6
CONTINUOUS
 90
16
 70
0
 10
-10.4041776388
 20
1.9781437817
 10
-10.4019696155
 20
1.981264272
 10
-10.3998637845
 20
1.9856516134
 10
-10.3978601458
 20
1.9912474513
 10
-10.3959488356
 20
1.9979681752
 10
-10.3941397177
 20
2.0057487924
 10
-10.3924623834
 20
2.0145671493
 10
-10.3909129848
 20
2.0243794477
 10
-10.3894953699
 20
2.0350818981
 10
-10.3882506735
 20
2.0465660248
 10
-10.3871854474
 20
2.058726021
 10
-10.3862931398
 20
2.0714614538
 10
-10.3855952303
 20
2.0846590161
 10
-10.3850988788
 20
2.0982033026
 10
-10.3847969254
 20
2.11197819
 10
-10.38468937
 20
2.1258649447
  0
LINE
  5
36B
100
AcDbEntity
  8
DRAFT
100
AcDbLine
 62
7
  6
CONTINUOUS
 10
9.5765776706
 20
14.8231828262
 11
9.6449489743
 21
14.85
  0
LINE
  5
36C
100
AcDbEntity
  8
DRAFT
100
AcDbLine
 62
7
  6
CONTINUOUS
 10
9.5436394679
 20
14.8104804686
 11
9.5765776706
 21
14.8231828262
  0
LWPOLYLINE
  5
36D
100
AcDbEntity
  8
DRAFT
100
AcDbPolyline
 62
7
  6
CONTINUOUS
 90
3
 70
0
 10
9.4950979979
 20
14.7923514428
 10
9.511151302
 20
14.7982718897
 10
9.5436394679
 20
14.8104804686
  0
LWPOLYLINE
  5
36E
100
AcDbEntity
  8
RACCORDO
100
AcDbPolyline
 62
7
  6
CONTINUOUS
 90
19
 70
0
 10
9.3292938566
 20
15.0397929133
 10
9.3058694462
 20
15.0313308684
 10
9.2842986861
 20
15.0213085271
 10
9.2645815765
 20
15.0097681579
 10
9.246630867
 20
14.996566314
 10
9.2305338079
 20
14.982043282
 10
9.2165521501
 20
14.9669924128
 10
9.2048621684
 20
14.9516171562
 10
9.1952875879
 20
14.9360803847
 10
9.1875613345
 20
14.9210591406
 10
9.1817881011
 20
14.9068617036
 10
9.1778631948
 20
14.8935219809
 10
9.1752054627
 20
14.8812428281
 10
9.1737859025
 20
14.8702026474
 10
9.1736335165
 20
14.8605964888
 10
9.1742541585
 20
14.8526296271
 10
9.1754831133
 20
14.8464639207
 10
9.1774850962
 20
14.8422335145
 10
9.1802601072
 20
14.8400670064
  0
LINE
  5
36F
100
AcDbEntity
  8
RACCORDO
100
AcDbLine
 62
250
  6
CONTINUOUS
 10
8.36067643
 20
13.0891664262
 11
8.2468562183
 21
13.0553368642
  0
LINE
  5
370
100
AcDbEntity
  8
RACCORDO
100
AcDbLine
 62
250
  6
CONTINUOUS
 10
8.508397593
 20
12.939371996
 11
8.4009945665
 21
12.9074497452
  0
LINE
  5
371
100
AcDbEntity
  8
RACCORDO
100
AcDbLine
 62
250
  6
CONTINUOUS
 10
8.9417590189
 20
12.9518893877
 11
8.8432538616
 21
12.9226072876
  0
LINE
  5
372
100
AcDbEntity
  8
RACCORDO
100
AcDbLine
 62
250
  6
CONTINUOUS
 10
9.0838072388
 20
12.8004043818
 11
8.9909750246
 21
12.7728128574
  0
LWPOLYLINE
  5
373
100
AcDbEntity
  8
RACCORDO
100
AcDbPolyline
 62
250
  6
CONTINUOUS
 90
11
 70
0
 10
-8.508397593
 20
-12.939371996
 10
-8.5120327167
 20
-12.9402274668
 10
-8.5163281193
 20
-12.9410378038
 10
-8.5212838007
 20
-12.9418030069
 10
-8.5269907096
 20
-12.9425219354
 10
-8.5333578974
 20
-12.94319573
 10
-8.5401125179
 20
-12.9438278138
 10
-8.5472310939
 20
-12.9444178749
 10
-8.5547371026
 20
-12.9449662251
 10
-8.5624281301
 20
-12.9454772222
 10
-8.5702869209
 20
-12.9459507183
  0
LINE
  5
374
100
AcDbEntity
  8
RACCORDO
100
AcDbLine
 62
250
  6
CONTINUOUS
 10
-9.0700240957
 20
-11.4596374088
 11
-9.048757155
 21
-11.4589910036
  0
LINE
  5
375
100
AcDbEntity
  8
RACCORDO
100
AcDbLine
 62
7
  6
CONTINUOUS
 10
-10.9645351961
 20
-10.75
 11
-10.85
 21
-10.75
  0
LINE
  5
376
100
AcDbEntity
  8
RACCORDO
100
AcDbLine
 62
7
  6
CONTINUOUS
 10
10.9645351961
 20
-10.75
 11
10.85
 21
-10.75
  0
LINE
  5
377
100
AcDbEntity
  8
DRAFT
100
AcDbLine
 62
7
  6
CONTINUOUS
 10
10.9828653412
 20
-10.75
 11
10.9645351961
 21
-10.75
  0
LINE
  5
378
100
AcDbEntity
  8
DRAFT
100
AcDbLine
 62
7
  6
CONTINUOUS
 10
-10.9828653412
 20
-10.75
 11
-10.9645351961
 21
-10.75
  0
LWPOLYLINE
  5
379
100
AcDbEntity
  8
RACCORDO
100
AcDbPolyline
 62
250
  6
CONTINUOUS
 90
10
 70
0
 10
8.9909750246
 20
-12.7728130342
 10
8.9811400222
 20
-12.7711814301
 10
8.9675805424
 20
-12.7696285363
 10
8.9505557504
 20
-12.7681543528
 10
8.9302281697
 20
-12.7667474056
 10
8.9069679534
 20
-12.7654191687
 10
8.8815112399
 20
-12.7642040639
 10
8.8543927672
 20
-12.7631141873
 10
8.8259289687
 20
-12.7621374428
 10
8.7674573572
 20
-12.7605275578
  0
LWPOLYLINE
  5
37A
100
AcDbEntity
  8
RACCORDO
100
AcDbPolyline
 62
250
  6
CONTINUOUS
 90
14
 70
0
 10
8.8432538616
 20
-12.9226072876
 10
8.8360491027
 20
-12.9209759838
 10
8.8266179375
 20
-12.9194232759
 10
8.8149603659
 20
-12.917949164
 10
8.8007436089
 20
-12.9165421133
 10
8.7843004455
 20
-12.9152136586
 10
8.7666292135
 20
-12.9139984033
 10
8.7477538929
 20
-12.9129085317
 10
8.7276505037
 20
-12.9119318596
 10
8.7072454435
 20
-12.9110664379
 10
8.6869452917
 20
-12.9103220499
 10
8.666343469
 20
-12.9096889123
 10
8.6451466352
 20
-12.9091357267
 10
8.6012399716
 20
-12.908247106
  0
LINE
  5
37B
100
AcDbEntity
  8
RACCORDO
100
AcDbLine
 62
250
  6
CONTINUOUS
 10
8.36067643
 20
-13.0891664262
 11
8.2468562183
 21
-13.0553368642
  0
LINE
  5
37C
100
AcDbEntity
  8
RACCORDO
100
AcDbLine
 62
250
  6
CONTINUOUS
 10
8.508397593
 20
-12.939371996
 11
8.4009945665
 21
-12.9074497452
  0
LINE
  5
37D
100
AcDbEntity
  8
RACCORDO
100
AcDbLine
 62
250
  6
CONTINUOUS
 10
9.0838071307
 20
-12.8004043497
 11
8.9909750246
 21
-12.7728128574
  0
LWPOLYLINE
  5
37E
100
AcDbEntity
  8
DRAFT
100
AcDbPolyline
 62
7
  6
CONTINUOUS
 90
3
 70
0
 10
9.4950979979
 20
-14.7923514428
 10
9.527331792
 20
-14.8043148983
 10
9.5436394679
 20
-14.8104804686
  0
LINE
  5
37F
100
AcDbEntity
  8
DRAFT
100
AcDbLine
 62
7
  6
CONTINUOUS
 10
9.5436394679
 20
-14.8104804686
 11
9.5765776706
 21
-14.8231828262
  0
LINE
  5
380
100
AcDbEntity
  8
DRAFT
100
AcDbLine
 62
7
  6
CONTINUOUS
 10
9.5765776706
 20
-14.8231828262
 11
9.6449489743
 21
-14.85
  0
LWPOLYLINE
  5
381
100
AcDbEntity
  8
0
100
AcDbPolyline
 62
7
  6
CONTINUOUS
 90
10
 70
0
 10
-0.6159736925
 20
-12.1293319142
 10
-0.6389794511
 20
-12.1163496932
 10
-0.6643919147
 20
-12.1046419308
 10
-0.6922110831
 20
-12.0942086272
 10
-0.7222545411
 20
-12.0849218824
 10
-0.754704704
 20
-12.0769095964
 10
-0.7901088174
 20
-12.070555468
 10
-0.8286492966
 20
-12.0659873971
 10
-0.8701437264
 20
-12.0630774839
 10
-0.9145921066
 20
-12.0618257284
  0
LWPOLYLINE
  5
382
100
AcDbEntity
  8
0
100
AcDbPolyline
 62
7
  6
CONTINUOUS
 90
10
 70
0
 10
0.8219241447
 20
-12.1293319142
 10
0.7989183777
 20
-12.116349695
 10
0.7735058971
 20
-12.1046419338
 10
0.745686703
 20
-12.0942086307
 10
0.7156432065
 20
-12.0849218859
 10
0.6831929966
 20
-12.0769095991
 10
0.6477888399
 20
-12.07055547
 10
0.6092483254
 20
-12.0659873985
 10
0.5677538642
 20
-12.0630774846
 10
0.5233054563
 20
-12.0618257284
  0
LWPOLYLINE
  5
383
100
AcDbEntity
  8
0
100
AcDbPolyline
 62
7
  6
CONTINUOUS
 90
10
 70
0
 10
2.2598217077
 20
-12.1293319142
 10
2.2368159406
 20
-12.116349695
 10
2.2114034601
 20
-12.1046419338
 10
2.183584266
 20
-12.0942086307
 10
2.1535407695
 20
-12.0849218859
 10
2.1210905595
 20
-12.0769095991
 10
2.0856864028
 20
-12.07055547
 10
2.0471458884
 20
-12.0659873985
 10
2.0056514272
 20
-12.0630774846
 10
1.9612030193
 20
-12.0618257284
  0
LWPOLYLINE
  5
384
100
AcDbEntity
  8
0
100
AcDbPolyline
 62
7
  6
CONTINUOUS
 90
10
 70
0
 10
-0.7529798195
 20
-12.3139094089
 10
-0.7414447762
 20
-12.3237048066
 10
-0.7302287347
 20
-12.3350597324
 10
-0.719331695
 20
-12.3479741864
 10
-0.7086562674
 20
-12.3624013762
 10
-0.6982998417
 20
-12.3783880942
 10
-0.6885545867
 20
-12.396074717
 10
-0.6795178921
 20
-12.4155080367
 10
-0.6710923682
 20
-12.4366412613
 10
-0.663278015
 20
-12.4594743907
  0
LWPOLYLINE
  5
385
100
AcDbEntity
  8
0
100
AcDbPolyline
 62
7
  6
CONTINUOUS
 90
10
 70
0
 10
0.3564791226
 20
-14.1886071649
 10
0.3445875742
 20
-14.1780584792
 10
0.3330505154
 20
-14.1660828143
 10
0.3218679462
 20
-14.1526801703
 10
0.3109665658
 20
-14.1378982688
 10
0.300419675
 20
-14.1216893882
 10
0.2904471761
 20
-14.1039103635
 10
0.2811223698
 20
-14.0845134728
 10
0.2723719555
 20
-14.063546438
 10
0.264195933
 20
-14.0410092589
  0
LWPOLYLINE
  5
386
100
AcDbEntity
  8
0
100
AcDbPolyline
 62
7
  6
CONTINUOUS
 90
10
 70
0
 10
1.7943766855
 20
-14.1886071649
 10
1.7824851372
 20
-14.1780584792
 10
1.7709480784
 20
-14.1660828143
 10
1.7597655092
 20
-14.1526801703
 10
1.7488641288
 20
-14.1378982688
 10
1.738317238
 20
-14.1216893882
 10
1.7283447391
 20
-14.1039103635
 10
1.7190199328
 20
-14.0845134728
 10
1.7102695185
 20
-14.063546438
 10
1.702093496
 20
-14.0410092589
  0
LWPOLYLINE
  5
387
100
AcDbEntity
  8
0
100
AcDbPolyline
 62
7
  6
CONTINUOUS
 90
10
 70
0
 10
-3.3872393527
 20
-12.2025941542
 10
-3.4126820588
 20
-12.1764732065
 10
-3.4427475129
 20
-12.1527287822
 10
-3.4774357149
 20
-12.1313608814
 10
-3.5161063599
 20
-12.1120448646
 10
-3.5593997528
 20
-12.0951053713
 10
-3.6092368086
 20
-12.0815163192
 10
-3.6662578325
 20
-12.0716023477
 10
-3.7298225193
 20
-12.0650388174
 10
-3.799930869
 20
-12.0618257284
  0
LWPOLYLINE
  5
388
100
AcDbEntity
  8
0
100
AcDbPolyline
 62
7
  6
CONTINUOUS
 90
10
 70
0
 10
-4.0639696112
 20
-14.1232365114
 10
-4.0708363999
 20
-14.112001256
 10
-4.0773180016
 20
-14.1001015262
 10
-4.0834144161
 20
-14.0875373221
 10
-4.0891336629
 20
-14.0743904661
 10
-4.0944677226
 20
-14.0605791357
 10
-4.0993925374
 20
-14.0458578631
 10
-4.103900088
 20
-14.0301448258
 10
-4.1079983937
 20
-14.0135218464
 10
-4.1116874546
 20
-13.9959889248
  0
LWPOLYLINE
  5
389
100
AcDbEntity
  8
0
100
AcDbPolyline
 62
7
  6
CONTINUOUS
 90
10
 70
0
 10
-3.3100276485
 20
-13.3915629238
 10
-3.3184493729
 20
-13.3766861558
 10
-3.3278196139
 20
-13.3621274694
 10
-3.3381383715
 20
-13.3478868644
 10
-3.3494528604
 20
-13.3338790748
 10
-3.3617158659
 20
-13.3201893666
 10
-3.3747857437
 20
-13.3070735385
 10
-3.3886152791
 20
-13.2946168564
 10
-3.4032516868
 20
-13.2827340543
 10
-3.4186949668
 20
-13.2714251322
  0
LINE
  5
38A
100
AcDbEntity
  8
RACCORDO
100
AcDbLine
 62
250
  6
CONTINUOUS
 10
-10.4041776388
 20
-1.9781437817
 11
-10.4808434758
 21
-1.7202000995
  0
LINE
  5
38B
100
AcDbEntity
  8
RACCORDO
100
AcDbLine
 62
250
  6
CONTINUOUS
 10
-10.1045887783
 20
-1.6827014558
 11
-10.1812546154
 21
-1.4247577736
  0
LWPOLYLINE
  5
38C
100
AcDbEntity
  8
RACCORDO
100
AcDbPolyline
 62
250
  6
CONTINUOUS
 90
12
 70
0
 10
-10.1812546154
 20
-1.4247577736
 10
-10.1822099603
 20
-1.4204760699
 10
-10.1831150388
 20
-1.4149248445
 10
-10.1839698509
 20
-1.4081040973
 10
-10.1847799859
 20
-1.3998134359
 10
-10.1855398545
 20
-1.3902532528
 10
-10.1862326888
 20
-1.3800247253
 10
-10.1868518586
 20
-1.3691527793
 10
-10.1874039941
 20
-1.3576124888
 10
-10.1878922172
 20
-1.3459302535
 10
-10.1883114152
 20
-1.334336498
 10
-10.1886667009
 20
-1.3226007976
  0
LINE
  5
38D
100
AcDbEntity
  8
RACCORDO
100
AcDbLine
 62
7
  6
CONTINUOUS
 10
-10.9612893785
 20
1.9781437817
 11
-10.9229827449
 21
1.7202000995
  0
LWPOLYLINE
  5
38E
100
AcDbEntity
  8
RACCORDO
100
AcDbPolyline
 62
250
  6
CONTINUOUS
 90
7
 70
0
 10
-10.1000000116
 20
-1.7074831665
 10
-10.1007130295
 20
-1.7023086079
 10
-10.1014467581
 20
-1.6975517588
 10
-10.1022011972
 20
-1.693212619
 10
-10.102976347
 20
-1.6892911885
 10
-10.1037722073
 20
-1.6857874675
 10
-10.1045887783
 20
-1.6827014558
  0
LWPOLYLINE
  5
38F
100
AcDbEntity
  8
RACCORDO
100
AcDbPolyline
 62
250
  6
CONTINUOUS
 90
13
 70
0
 10
-9.4363690968
 20
14.5471258854
 10
-9.4377923113
 20
14.5665646905
 10
-9.4416895585
 20
14.5856750991
 10
-9.4479950565
 20
14.6041339123
 10
-9.4566022987
 20
14.6216289389
 10
-9.4673658275
 20
14.6378642281
 10
-9.4801036701
 20
14.6525650886
 10
-9.4946004804
 20
14.6654828209
 10
-9.5106111257
 20
14.6763988476
 10
-9.5278647715
 20
14.6851284078
 10
-9.5460695822
 20
14.6915237743
 10
-9.5649176789
 20
14.6954767212
 10
-9.5840902598
 20
14.6969203156
  0
LWPOLYLINE
  5
390
100
AcDbEntity
  8
RACCORDO
100
AcDbPolyline
 62
250
  6
CONTINUOUS
 90
13
 70
0
 10
-9.0838072388
 20
13.6995956182
 10
-9.0823837615
 20
13.680154961
 10
-9.0784858829
 20
13.6610431619
 10
-9.0721795481
 20
13.6425834641
 10
-9.0635714375
 20
13.6250880799
 10
-9.052807159
 20
13.6088529028
 10
-9.0400687807
 20
13.5941525056
 10
-9.0255717622
 20
13.581235509
 10
-9.0095613016
 20
13.5703203655
 10
-8.9923081792
 20
13.5615916641
 10
-8.9741041963
 20
13.5551970222
 10
-8.9552572426
 20
13.5512445846
 10
-8.9360860759
 20
13.549801188
  0
LWPOLYLINE
  5
391
100
AcDbEntity
  8
RACCORDO
100
AcDbPolyline
 62
250
  6
CONTINUOUS
 90
13
 70
0
 10
-8.9909750246
 20
13.7271871426
 10
-8.9895515803
 20
13.7077467247
 10
-8.9856537824
 20
13.6886351052
 10
-8.9793475549
 20
13.6701755217
 10
-8.9707395559
 20
13.6526801836
 10
-8.9599753737
 20
13.6364449921
 10
-8.9472370644
 20
13.6217445351
 10
-8.9327400728
 20
13.6088274435
 10
-8.9167295885
 20
13.597912186
 10
-8.899476399
 20
13.5891833737
 10
-8.88127231
 20
13.5827886383
 10
-8.8624252096
 20
13.5788361348
 10
-8.8432538616
 20
13.5773927124
  0
LWPOLYLINE
  5
392
100
AcDbEntity
  8
RACCORDO
100
AcDbPolyline
 62
250
  6
CONTINUOUS
 90
16
 70
0
 10
-8.0991350553
 20
-13.0553371311
 10
-8.1009520314
 20
-13.0238374403
 10
-8.105767304
 20
-12.9934108485
 10
-8.113580873
 20
-12.9640573556
 10
-8.1245391072
 20
-12.935526975
 10
-8.1384956379
 20
-12.9080696933
 10
-8.1550113586
 20
-12.8824354709
 10
-8.174038613
 20
-12.858695637
 10
-8.1956250574
 20
-12.8367788623
 10
-8.2194745541
 20
-12.8172211199
 10
-8.2458035086
 20
-12.7999355476
 10
-8.2743955155
 20
-12.7850090075
 10
-8.3043052208
 20
-12.7732380583
 10
-8.3352175066
 20
-12.7648882196
 10
-8.3674474909
 20
-12.7596939719
 10
-8.4009951737
 20
-12.757655315
  0
LWPOLYLINE
  5
393
100
AcDbEntity
  8
RACCORDO
100
AcDbPolyline
 62
250
  6
CONTINUOUS
 90
16
 70
0
 10
-8.2468564568
 20
-13.0553369351
 10
-8.2475570855
 20
-13.0398071943
 10
-8.2499149242
 20
-13.0245218867
 10
-8.2538884129
 20
-13.0096404273
 10
-8.259416835
 20
-12.9953296492
 10
-8.2664298657
 20
-12.9817190455
 10
-8.2748617044
 20
-12.9689060363
 10
-8.2845917641
 20
-12.9570615822
 10
-8.2955477388
 20
-12.9462631195
 10
-8.3077713262
 20
-12.9365010455
 10
-8.3212609711
 20
-12.9278775576
 10
-8.3358350442
 20
-12.920600716
 10
-8.351266185
 20
-12.9148288619
 10
-8.367366362
 20
-12.9106656
 10
-8.38400181
 20
-12.9081841409
 10
-8.4009954307
 20
-12.907450002
  0
LWPOLYLINE
  5
394
100
AcDbEntity
  8
RACCORDO
100
AcDbPolyline
 62
250
  6
CONTINUOUS
 90
16
 70
0
 10
-8.2468564568
 20
13.4446630649
 10
-8.2475570855
 20
13.4601928057
 10
-8.2499149242
 20
13.4754781133
 10
-8.2538884129
 20
13.4903595727
 10
-8.259416835
 20
13.5046703508
 10
-8.2664298657
 20
13.5182809545
 10
-8.2748617044
 20
13.5310939637
 10
-8.2845917641
 20
13.5429384178
 10
-8.2955477388
 20
13.5537368805
 10
-8.3077713262
 20
13.5634989545
 10
-8.3212609711
 20
13.5721224424
 10
-8.3358350442
 20
13.579399284
 10
-8.351266185
 20
13.5851711381
 10
-8.367366362
 20
13.5893344
 10
-8.38400181
 20
13.5918158591
 10
-8.4009954307
 20
13.592549998
  0
LINE
  5
395
100
AcDbEntity
  8
RACCORDO
100
AcDbLine
 62
250
  6
CONTINUOUS
 10
-8.9905906613
 20
11.8100242845
 11
-8.9899910986
 21
11.7968815813
  0
LWPOLYLINE
  5
396
100
AcDbEntity
  8
RACCORDO
100
AcDbPolyline
 62
250
  6
CONTINUOUS
 90
51
 70
0
 10
-8.9899910986
 20
11.7968815813
 10
-8.9897678518
 20
11.7914796218
 10
-8.9896719265
 20
11.7887015683
 10
-8.989591756
 20
11.7858593896
 10
-8.9895302657
 20
11.7829576556
 10
-8.9894976448
 20
11.7799729732
 10
-8.9894977188
 20
11.7769041399
 10
-8.9895356188
 20
11.7737570277
 10
-8.9896259346
 20
11.7705198039
 10
-8.9897734928
 20
11.7671952683
 10
-8.9899846864
 20
11.7637874427
 10
-8.9902785168
 20
11.7602874671
 10
-8.9906618139
 20
11.7566951508
 10
-8.9911415929
 20
11.7530206311
 10
-8.9917383427
 20
11.7492716435
 10
-8.992459593
 20
11.7454519673
 10
-8.9933119765
 20
11.7415708161
 10
-8.9943143345
 20
11.7376447085
 10
-8.9954724522
 20
11.7336845125
 10
-8.9967931609
 20
11.7296950137
 10
-8.9982966032
 20
11.7256844463
 10
-8.9999934667
 20
11.7216540564
 10
-9.001885783
 20
11.7176227492
 10
-9.0039788219
 20
11.7136249247
 10
-9.0062880398
 20
11.7096551177
 10
-9.0088055101
 20
11.7057398763
 10
-9.0114929562
 20
11.7019547246
 10
-9.014346473
 20
11.6983094059
 10
-9.0173623057
 20
11.6948029999
 10
-9.0204917805
 20
11.6914834836
 10
-9.0237190086
 20
11.6883589878
 10
-9.0270435738
 20
11.685417694
 10
-9.0304347549
 20
11.6826698429
 10
-9.0338743043
 20
11.6801181757
 10
-9.0373638064
 20
11.6777504498
 10
-9.0409022565
 20
11.675553237
 10
-9.0444760222
 20
11.6735256218
 10
-9.048085931
 20
11.6716604218
 10
-9.0517550564
 20
11.6699387482
 10
-9.0554760744
 20
11.6683591644
 10
-9.0592475313
 20
11.6669203802
 10
-9.0631037987
 20
11.6656098297
 10
-9.0670403428
 20
11.6644280827
 10
-9.0710552462
 20
11.6633779322
 10
-9.0751884591
 20
11.6624563957
 10
-9.0794483154
 20
11.6616646971
 10
-9.0838206275
 20
11.6610115751
 10
-9.088311806
 20
11.6605076272
 10
-9.0929214275
 20
11.6601585235
 10
-9.097642342
 20
11.659965795
 10
-9.1024704672
 20
11.6599329936
  0
LINE
  5
397
100
AcDbEntity
  8
RACCORDO
100
AcDbLine
 62
250
  6
CONTINUOUS
 10
-8.9907999727
 20
11.8152575202
 11
-8.9905906613
 21
11.8100242845
  0
LINE
  5
398
100
AcDbEntity
  8
RACCORDO
100
AcDbLine
 62
250
  6
CONTINUOUS
 10
-8.990983984
 20
11.8204970695
 11
-8.9907999727
 21
11.8152575202
  0
LWPOLYLINE
  5
399
100
AcDbEntity
  8
RACCORDO
100
AcDbPolyline
 62
250
  6
CONTINUOUS
 90
16
 70
0
 10
-8.986215751
 20
-13.4000067578
 10
-8.9859023649
 20
-13.4152318014
 10
-8.9850978961
 20
-13.4302040727
 10
-8.9838023447
 20
-13.4447753467
 10
-8.9819893133
 20
-13.4587924853
 10
-8.9796851992
 20
-13.4721411612
 10
-8.9769691943
 20
-13.4847403512
 10
-8.9738556224
 20
-13.4964258518
 10
-8.9703301597
 20
-13.507152285
 10
-8.9664290273
 20
-13.5169787483
 10
-8.9621318496
 20
-13.5258051531
 10
-8.9574590021
 20
-13.5334492448
 10
-8.9525078324
 20
-13.5397957903
 10
-8.9473107897
 20
-13.5447175183
 10
-8.9418354248
 20
-13.5480884603
 10
-8.8432538616
 20
-13.5773927124
  0
LWPOLYLINE
  5
39A
100
AcDbEntity
  8
RACCORDO
100
AcDbPolyline
 62
250
  6
CONTINUOUS
 90
16
 70
0
 10
-8.986215751
 20
13.0999932422
 10
-8.9859023649
 20
13.0847681986
 10
-8.9850978961
 20
13.0697959273
 10
-8.9838023447
 20
13.0552246533
 10
-8.9819893133
 20
13.0412075147
 10
-8.9796851992
 20
13.0278588388
 10
-8.9769691943
 20
13.0152596488
 10
-8.9738556224
 20
13.0035741482
 10
-8.9703301597
 20
12.992847715
 10
-8.9664290273
 20
12.9830212517
 10
-8.9621318496
 20
12.9741948469
 10
-8.9574590021
 20
12.9665507552
 10
-8.9525078324
 20
12.9602042097
 10
-8.9473107897
 20
12.9552824817
 10
-8.9418354248
 20
12.9519115397
 10
-8.8432538616
 20
12.9226072876
  0
LWPOLYLINE
  5
39B
100
AcDbEntity
  8
RACCORDO
100
AcDbPolyline
 62
250
  6
CONTINUOUS
 90
16
 70
0
 10
-9.1339368607
 20
-13.4000067578
 10
-9.1336250232
 20
-13.4309202662
 10
-9.1328213658
 20
-13.4607661443
 10
-9.1315258884
 20
-13.489544392
 10
-9.1297116066
 20
-13.5174713703
 10
-9.1274055048
 20
-13.5443307183
 10
-9.1246885366
 20
-13.5694733533
 10
-9.1215764911
 20
-13.5928087234
 10
-9.1180535792
 20
-13.6144273805
 10
-9.1141533878
 20
-13.6339518986
 10
-9.1098533869
 20
-13.6515072685
 10
-9.1051761064
 20
-13.6669684994
 10
-9.1002227229
 20
-13.6795831928
 10
-9.0950269619
 20
-13.6891005494
 10
-9.0895550978
 20
-13.6957713686
 10
-9.0838071307
 20
-13.6995956503
  0
LWPOLYLINE
  5
39C
100
AcDbEntity
  8
RACCORDO
100
AcDbPolyline
 62
250
  6
CONTINUOUS
 90
16
 70
0
 10
-9.1339368607
 20
13.0999932422
 10
-9.1336250232
 20
13.0690797338
 10
-9.1328213658
 20
13.0392338557
 10
-9.1315258884
 20
13.010455608
 10
-9.1297116066
 20
12.9825286297
 10
-9.1274055048
 20
12.9556692817
 10
-9.1246885366
 20
12.9305266467
 10
-9.1215764911
 20
12.9071912766
 10
-9.1180535792
 20
12.8855726195
 10
-9.1141533878
 20
12.8660481014
 10
-9.1098533869
 20
12.8484927315
 10
-9.1051761064
 20
12.8330315006
 10
-9.1002227229
 20
12.8204168072
 10
-9.0950269619
 20
12.8108994506
 10
-9.0895550978
 20
12.8042286314
 10
-9.0838071307
 20
12.8004043497
  0
LINE
  5
39D
100
AcDbEntity
  8
RACCORDO
100
AcDbLine
 62
250
  6
CONTINUOUS
 10
-9.1339368607
 20
13.4000067578
 11
-9.1339368607
 21
13.0999932422
  0
LINE
  5
39E
100
AcDbEntity
  8
RACCORDO
100
AcDbLine
 62
250
  6
CONTINUOUS
 10
-9.1339368607
 20
-13.0999932422
 11
-9.1339368607
 21
-13.4000067578
  0
LINE
  5
39F
100
AcDbEntity
  8
RACCORDO
100
AcDbLine
 62
250
  6
CONTINUOUS
 10
-9.1024704365
 20
11.6599329936
 11
-9.1024704671
 21
11.4602070867
  0
LINE
  5
3A0
100
AcDbEntity
  8
RACCORDO
100
AcDbLine
 62
250
  6
CONTINUOUS
 10
-9.1024704394
 20
-11.6599329936
 11
-9.1024704671
 21
-11.4602070867
  0
LINE
  5
3A1
100
AcDbEntity
  8
RACCORDO
100
AcDbLine
 62
250
  6
CONTINUOUS
 10
-9.1024704365
 20
-14.8400670064
 11
-9.1024704671
 21
-15.0397929133
  0
LINE
  5
3A2
100
AcDbEntity
  8
RACCORDO
100
AcDbLine
 62
250
  6
CONTINUOUS
 10
-9.1024704394
 20
14.8400670064
 11
-9.1024704671
 21
15.0397929133
  0
LINE
  5
3A3
100
AcDbEntity
  8
RACCORDO
100
AcDbLine
 62
250
  6
CONTINUOUS
 10
-8.9909750246
 20
14.6795055934
 11
-8.9909750246
 21
13.7271871426
  0
LINE
  5
3A4
100
AcDbEntity
  8
RACCORDO
100
AcDbLine
 62
250
  6
CONTINUOUS
 10
-8.9909750246
 20
12.7728128574
 11
-8.9909750246
 21
11.8204944066
  0
LINE
  5
3A5
100
AcDbEntity
  8
RACCORDO
100
AcDbLine
 62
250
  6
CONTINUOUS
 10
-8.9909750246
 20
-11.8204944066
 11
-8.9909750246
 21
-12.7728128574
  0
LINE
  5
3A6
100
AcDbEntity
  8
RACCORDO
100
AcDbLine
 62
250
  6
CONTINUOUS
 10
-8.9909750246
 20
-13.7271871426
 11
-8.9909750246
 21
-14.6795055934
  0
LINE
  5
3A7
100
AcDbEntity
  8
RACCORDO
100
AcDbLine
 62
250
  6
CONTINUOUS
 10
-8.9862156978
 20
13.4000067578
 11
-8.9862156978
 21
13.0999932422
  0
LINE
  5
3A8
100
AcDbEntity
  8
RACCORDO
100
AcDbLine
 62
250
  6
CONTINUOUS
 10
-8.9862156978
 20
-13.0999932422
 11
-8.9862156978
 21
-13.4000067578
  0
LINE
  5
3A9
100
AcDbEntity
  8
RACCORDO
100
AcDbLine
 62
250
  6
CONTINUOUS
 10
-8.7545995313
 20
-13.549801188
 11
-8.7545995313
 21
-12.950198812
  0
LINE
  5
3AA
100
AcDbEntity
  8
RACCORDO
100
AcDbLine
 62
250
  6
CONTINUOUS
 10
-8.7545995313
 20
12.950198812
 11
-8.7545995313
 21
13.549801188
  0
LINE
  5
3AB
100
AcDbEntity
  8
RACCORDO
100
AcDbLine
 62
250
  6
CONTINUOUS
 10
-8.4985711481
 20
14.6795055934
 11
-8.4985711481
 21
13.5925502548
  0
LINE
  5
3AC
100
AcDbEntity
  8
RACCORDO
100
AcDbLine
 62
250
  6
CONTINUOUS
 10
-8.4985711481
 20
-11.8204944066
 11
-8.4985711481
 21
-12.9074497452
  0
LINE
  5
3AD
100
AcDbEntity
  8
RACCORDO
100
AcDbLine
 62
250
  6
CONTINUOUS
 10
-8.4985711481
 20
-14.6795055934
 11
-8.4985711481
 21
-13.5925502548
  0
LINE
  5
3AE
100
AcDbEntity
  8
RACCORDO
100
AcDbLine
 62
250
  6
CONTINUOUS
 10
-8.4985711481
 20
11.8204944066
 11
-8.4985711481
 21
12.9074497452
  0
LINE
  5
3AF
100
AcDbEntity
  8
RACCORDO
100
AcDbLine
 62
250
  6
CONTINUOUS
 10
-8.4009945665
 20
13.742344685
 11
-8.4009945665
 21
13.5925502548
  0
LINE
  5
3B0
100
AcDbEntity
  8
RACCORDO
100
AcDbLine
 62
250
  6
CONTINUOUS
 10
-8.4009945665
 20
-12.757655315
 11
-8.4009945665
 21
-12.9074497452
  0
LINE
  5
3B1
100
AcDbEntity
  8
RACCORDO
100
AcDbLine
 62
250
  6
CONTINUOUS
 10
-8.4009945665
 20
-13.742344685
 11
-8.4009945665
 21
-13.5925502548
  0
LINE
  5
3B2
100
AcDbEntity
  8
RACCORDO
100
AcDbLine
 62
250
  6
CONTINUOUS
 10
-8.4009945665
 20
12.757655315
 11
-8.4009945665
 21
12.9074497452
  0
LINE
  5
3B3
100
AcDbEntity
  8
RACCORDO
100
AcDbLine
 62
250
  6
CONTINUOUS
 10
-8.36067643
 20
-13.4108335738
 11
-8.36067643
 21
-13.0891664262
  0
LINE
  5
3B4
100
AcDbEntity
  8
RACCORDO
100
AcDbLine
 62
250
  6
CONTINUOUS
 10
-8.36067643
 20
13.0891664262
 11
-8.36067643
 21
13.4108335738
  0
LINE
  5
3B5
100
AcDbEntity
  8
RACCORDO
100
AcDbLine
 62
250
  6
CONTINUOUS
 10
-8.2468562183
 20
-13.4446631358
 11
-8.2468562183
 21
-13.0553368642
  0
LINE
  5
3B6
100
AcDbEntity
  8
RACCORDO
100
AcDbLine
 62
250
  6
CONTINUOUS
 10
-8.2468562183
 20
13.0553368642
 11
-8.2468562183
 21
13.4446631358
  0
LINE
  5
3B7
100
AcDbEntity
  8
RACCORDO
100
AcDbLine
 62
250
  6
CONTINUOUS
 10
-8.0991350553
 20
-13.4446631358
 11
-8.0991350553
 21
-13.0553371311
  0
LINE
  5
3B8
100
AcDbEntity
  8
RACCORDO
100
AcDbLine
 62
250
  6
CONTINUOUS
 10
-8.0991350553
 20
13.0553368642
 11
-8.0991350553
 21
13.4446628689
  0
LWPOLYLINE
  5
3B9
100
AcDbEntity
  8
RACCORDO
100
AcDbPolyline
 62
250
  6
CONTINUOUS
 90
57
 70
0
 10
-8.4985711481
 20
11.8204944066
 10
-8.4988435987
 20
11.8094621186
 10
-8.4996237594
 20
11.7984845831
 10
-8.5009116301
 20
11.7875618001
 10
-8.5027216939
 20
11.7766703941
 10
-8.5050394678
 20
11.7658337406
 10
-8.5078215022
 20
11.755121966
 10
-8.5110565884
 20
11.7445752121
 10
-8.5147559352
 20
11.7341533371
 10
-8.5189097198
 20
11.7238060419
 10
-8.5235016479
 20
11.7135393102
 10
-8.5285480136
 20
11.7033471584
 10
-8.5340878771
 20
11.693161336
 10
-8.5401202676
 20
11.6829619139
 10
-8.5466461557
 20
11.6727688214
 10
-8.5537075136
 20
11.6625735953
 10
-8.5613130133
 20
11.6523576658
 10
-8.5694539827
 20
11.6421396027
 10
-8.578146378
 20
11.6319666532
 10
-8.5873951464
 20
11.6218325241
 10
-8.5971953406
 20
11.6117435086
 10
-8.6075480756
 20
11.601765733
 10
-8.6184733737
 20
11.591884997
 10
-8.6299512126
 20
11.5821155008
 10
-8.6419226402
 20
11.5725659715
 10
-8.6544010142
 20
11.5632364748
 10
-8.6673729768
 20
11.5541269449
 10
-8.680739503
 20
11.5453459114
 10
-8.6944918514
 20
11.5369075109
 10
-8.7086387634
 20
11.5287976068
 10
-8.7231074374
 20
11.5210823193
 10
-8.7379286448
 20
11.5137580287
 10
-8.7530716143
 20
11.5068283547
 10
-8.7683712301
 20
11.5003702759
 10
-8.7838813423
 20
11.4943900243
 10
-8.7995481007
 20
11.4888813679
 10
-8.8150448391
 20
11.4839025902
 10
-8.830334802
 20
11.4794918134
 10
-8.8454547447
 20
11.4756109152
 10
-8.8601882677
 20
11.4722038124
 10
-8.8744793603
 20
11.4692897421
 10
-8.8883840331
 20
11.4668494672
 10
-8.9018539174
 20
11.4647691927
 10
-8.9148473299
 20
11.4630477915
 10
-8.927405954
 20
11.4616863906
 10
-8.9396064715
 20
11.4605745766
 10
-8.951431184
 20
11.459703054
 10
-8.96289779
 20
11.4590811183
 10
-8.974136067
 20
11.4586262422
 10
-8.9851456373
 20
11.458331092
 10
-8.9959268787
 20
11.4582030014
 10
-9.0066107016
 20
11.4581814443
 10
-9.0171997273
 20
11.4582658918
 10
-9.0276913345
 20
11.4584568727
 10
-9.0382085698
 20
11.4586954477
 10
-9.0487785896
 20
11.4589916518
 10
-9.0700370915
 20
11.4596377971
  0
LWPOLYLINE
  5
3BA
100
AcDbEntity
  8
RACCORDO
100
AcDbPolyline
 62
250
  6
CONTINUOUS
 90
57
 70
0
 10
-8.4985711481
 20
-14.6795055934
 10
-8.4988435987
 20
-14.6905378814
 10
-8.4996237594
 20
-14.7015154169
 10
-8.5009116301
 20
-14.7124381999
 10
-8.5027216939
 20
-14.7233296059
 10
-8.5050394678
 20
-14.7341662594
 10
-8.5078215022
 20
-14.744878034
 10
-8.5110565884
 20
-14.7554247879
 10
-8.5147559352
 20
-14.7658466629
 10
-8.5189097198
 20
-14.7761939581
 10
-8.5235016479
 20
-14.7864606898
 10
-8.5285480137
 20
-14.7966528416
 10
-8.5340878771
 20
-14.806838664
 10
-8.5401202676
 20
-14.8170380861
 10
-8.5466461557
 20
-14.8272311786
 10
-8.5537075136
 20
-14.8374264047
 10
-8.5613130133
 20
-14.8476423342
 10
-8.5694539827
 20
-14.8578603973
 10
-8.578146378
 20
-14.8680333468
 10
-8.5873951464
 20
-14.8781674759
 10
-8.5971953406
 20
-14.8882564914
 10
-8.6075480756
 20
-14.898234267
 10
-8.6184733737
 20
-14.908115003
 10
-8.6299512126
 20
-14.9178844992
 10
-8.6419226402
 20
-14.9274340285
 10
-8.6544010142
 20
-14.9367635252
 10
-8.6673729768
 20
-14.9458730551
 10
-8.680739503
 20
-14.9546540886
 10
-8.6944918514
 20
-14.9630924891
 10
-8.7086387634
 20
-14.9712023932
 10
-8.7231074374
 20
-14.9789176807
 10
-8.7379286448
 20
-14.9862419713
 10
-8.7530716143
 20
-14.9931716453
 10
-8.7683712301
 20
-14.9996297241
 10
-8.7838813423
 20
-15.0056099757
 10
-8.7995481007
 20
-15.0111186321
 10
-8.8150448391
 20
-15.0160974098
 10
-8.830334802
 20
-15.0205081866
 10
-8.8454547447
 20
-15.0243890848
 10
-8.8601882677
 20
-15.0277961876
 10
-8.8744793603
 20
-15.0307102579
 10
-8.8883840331
 20
-15.0331505328
 10
-8.9018539174
 20
-15.0352308073
 10
-8.9148473299
 20
-15.0369522085
 10
-8.927405954
 20
-15.0383136094
 10
-8.9396064715
 20
-15.0394254234
 10
-8.951431184
 20
-15.040296946
 10
-8.96289779
 20
-15.0409188817
 10
-8.974136067
 20
-15.0413737578
 10
-8.9851456373
 20
-15.041668908
 10
-8.9959268787
 20
-15.0417969986
 10
-9.0066107016
 20
-15.0418185557
 10
-9.0171997273
 20
-15.0417341082
 10
-9.0276913345
 20
-15.0415431273
 10
-9.0382085698
 20
-15.0413045523
 10
-9.0487785896
 20
-15.0410083482
 10
-9.0700370915
 20
-15.0403622029
  0
LINE
  5
3BB
100
AcDbEntity
  8
RACCORDO
100
AcDbLine
 62
250
  6
CONTINUOUS
 10
-8.9906997542
 20
-11.8126442381
 11
-8.9909837821
 21
-11.8204970095
  0
LINE
  5
3BC
100
AcDbEntity
  8
RACCORDO
100
AcDbLine
 62
250
  6
CONTINUOUS
 10
-8.9897689607
 20
-11.7915067643
 11
-8.9899914861
 21
-11.7968900893
  0
LINE
  5
3BD
100
AcDbEntity
  8
RACCORDO
100
AcDbLine
 62
250
  6
CONTINUOUS
 10
-8.9903559485
 20
-11.8047968398
 11
-8.9906997542
 21
-11.8126442381
  0
LINE
  5
3BE
100
AcDbEntity
  8
RACCORDO
100
AcDbLine
 62
250
  6
CONTINUOUS
 10
-8.9899914861
 20
-11.7968900893
 11
-8.9903559485
 21
-11.8047968398
  0
LWPOLYLINE
  5
3BF
100
AcDbEntity
  8
RACCORDO
100
AcDbPolyline
 62
250
  6
CONTINUOUS
 90
13
 70
0
 10
-9.4363690968
 20
-14.5471258854
 10
-9.4377925411
 20
-14.5665663033
 10
-9.441690339
 20
-14.5856779228
 10
-9.4479965665
 20
-14.6041375063
 10
-9.4566045655
 20
-14.6216328444
 10
-9.4673687477
 20
-14.637868036
 10
-9.480107057
 20
-14.6525684929
 10
-9.4946040486
 20
-14.6654855845
 10
-9.5106145329
 20
-14.676400842
 10
-9.5278677224
 20
-14.6851296543
 10
-9.5460718115
 20
-14.6915243897
 10
-9.5649189118
 20
-14.6954768932
 10
-9.5840902598
 20
-14.6969203156
  0
LWPOLYLINE
  5
3C0
100
AcDbEntity
  8
RACCORDO
100
AcDbPolyline
 62
250
  6
CONTINUOUS
 90
13
 70
0
 10
-9.0838072388
 20
-13.6995956182
 10
-9.0823837946
 20
-13.6801552002
 10
-9.0784859967
 20
-13.6610435808
 10
-9.0721797692
 20
-13.6425839972
 10
-9.0635717702
 20
-13.6250886592
 10
-9.052807588
 20
-13.6088534676
 10
-9.0400692787
 20
-13.5941530106
 10
-9.0255722871
 20
-13.5812359191
 10
-9.0095618027
 20
-13.5703206615
 10
-8.9923086133
 20
-13.5615918493
 10
-8.9741045242
 20
-13.5551971138
 10
-8.9552574239
 20
-13.5512446103
 10
-8.9360860759
 20
-13.549801188
  0
LWPOLYLINE
  5
3C1
100
AcDbEntity
  8
RACCORDO
100
AcDbPolyline
 62
250
  6
CONTINUOUS
 90
13
 70
0
 10
-8.9909750246
 20
-13.7271871426
 10
-8.9895514496
 20
-13.7077457711
 10
-8.9856533155
 20
-13.6886333797
 10
-8.9793466092
 20
-13.6701732358
 10
-8.9707380414
 20
-13.6526775412
 10
-8.9599732725
 20
-13.6364422214
 10
-8.9472344734
 20
-13.6217419036
 10
-8.9327371717
 20
-13.608825174
 10
-8.9167266096
 20
-13.5979104244
 10
-8.8994736551
 20
-13.5891822017
 10
-8.881270153
 20
-13.5827880349
 10
-8.8624239771
 20
-13.5788359594
 10
-8.8432538616
 20
-13.5773927124
  0
LWPOLYLINE
  5
3C2
100
AcDbEntity
  8
0
100
AcDbPolyline
 62
7
  6
CONTINUOUS
 90
7
 70
0
 10
4.1268322326
 20
13.2507390291
 10
4.1022226498
 20
13.2305790289
 10
4.0900610994
 20
13.2211007006
 10
4.0778508982
 20
13.2131166344
 10
4.0655488614
 20
13.2069562697
 10
4.0531981737
 20
13.2022901672
 10
4.0407988352
 20
13.1991183268
  0
LINE
  5
3C3
100
AcDbEntity
  8
RACCORDO
100
AcDbLine
 62
7
  6
CONTINUOUS
 10
9.2228681569
 20
11.6765986497
 11
9.1802601072
 21
11.6599329936
  0
LWPOLYLINE
  5
3C4
100
AcDbEntity
  8
RACCORDO
100
AcDbPolyline
 62
7
  6
CONTINUOUS
 90
3
 70
0
 10
9.2642147691
 20
11.6925138759
 10
9.2505281279
 20
11.6872944123
 10
9.2228681569
 20
11.6765986497
  0
LWPOLYLINE
  5
3C5
100
AcDbEntity
  8
RACCORDO
100
AcDbPolyline
 62
7
  6
CONTINUOUS
 90
3
 70
0
 10
9.3049020021
 20
11.7076485572
 10
9.2914128555
 20
11.7026903906
 10
9.2642147691
 20
11.6925138759
  0
LINE
  5
3C6
100
AcDbEntity
  8
RACCORDO
100
AcDbLine
 62
250
  6
CONTINUOUS
 10
8.9909750246
 20
11.8204944066
 11
9.4363690968
 21
11.9528741146
  0
LINE
  5
3C7
100
AcDbEntity
  8
RACCORDO
100
AcDbLine
 62
250
  6
CONTINUOUS
 10
9.5840902598
 20
11.8030796844
 11
9.1024704672
 21
11.6599329936
  0
LINE
  5
3C8
100
AcDbEntity
  8
RACCORDO
100
AcDbLine
 62
250
  6
CONTINUOUS
 10
9.4363690968
 20
-11.9528741146
 11
8.9909750246
 21
-11.8204944066
  0
LINE
  5
3C9
100
AcDbEntity
  8
RACCORDO
100
AcDbLine
 62
250
  6
CONTINUOUS
 10
9.1024704672
 20
-11.6599329936
 11
9.5840902598
 21
-11.8030796844
  0
LWPOLYLINE
  5
3CA
100
AcDbEntity
  8
RACCORDO
100
AcDbPolyline
 62
7
  6
CONTINUOUS
 90
3
 70
0
 10
9.3049020021
 20
-11.7076485572
 10
9.2778504445
 20
-11.6976454968
 10
9.2642147691
 20
-11.6925138759
  0
LINE
  5
3CB
100
AcDbEntity
  8
RACCORDO
100
AcDbLine
 62
7
  6
CONTINUOUS
 10
9.2642147691
 20
-11.6925138759
 11
9.2367682223
 21
-11.6819882215
  0
LWPOLYLINE
  5
3CC
100
AcDbEntity
  8
RACCORDO
100
AcDbPolyline
 62
7
  6
CONTINUOUS
 90
3
 70
0
 10
9.2367682223
 20
-11.6819882215
 10
9.1946029502
 20
-11.6655715934
 10
9.1802601072
 20
-11.6599329936
  0
LWPOLYLINE
  5
3CD
100
AcDbEntity
  8
0
100
AcDbPolyline
 62
7
  6
CONTINUOUS
 90
10
 70
0
 10
0.6849177957
 20
-12.3139093436
 10
0.6964528442
 20
-12.3237047665
 10
0.7076688985
 20
-12.3350597111
 10
0.7185659586
 20
-12.3479741776
 10
0.7292414184
 20
-12.3624013741
 10
0.739597884
 20
-12.3783880923
 10
0.7493431732
 20
-12.396074708
 10
0.7583798918
 20
-12.415508013
 10
0.7668054339
 20
-12.4366412154
 10
0.7746197996
 20
-12.4594743153
  0
LWPOLYLINE
  5
3CE
100
AcDbEntity
  8
0
100
AcDbPolyline
 62
7
  6
CONTINUOUS
 90
10
 70
0
 10
2.1228153587
 20
-12.3139093436
 10
2.1343504072
 20
-12.3237047665
 10
2.1455664615
 20
-12.3350597111
 10
2.1564635216
 20
-12.3479741776
 10
2.1671389814
 20
-12.3624013741
 10
2.177495447
 20
-12.3783880923
 10
2.1872407361
 20
-12.396074708
 10
2.1962774547
 20
-12.415508013
 10
2.2047029969
 20
-12.4366412154
 10
2.2125173625
 20
-12.4594743153
  0
LWPOLYLINE
  5
3CF
100
AcDbEntity
  8
0
100
AcDbPolyline
 62
7
  6
CONTINUOUS
 90
10
 70
0
 10
-3.5804288074
 20
-12.3799446583
 10
-3.573761726
 20
-12.3926485347
 10
-3.5675533601
 20
-12.405642976
 10
-3.5618037097
 20
-12.4189279822
 10
-3.5564940663
 20
-12.4325219286
 10
-3.5516431384
 20
-12.4464064398
 10
-3.547307052
 20
-12.4605263901
 10
-3.5435045156
 20
-12.4748634041
 10
-3.5402168207
 20
-12.4894358571
 10
-3.5374439672
 20
-12.5042437492
  0
LWPOLYLINE
  5
3D0
100
AcDbEntity
  8
RACCORDO
100
AcDbPolyline
 62
250
  6
CONTINUOUS
 90
13
 70
0
 10
-8.36067643
 20
13.4108335738
 10
-8.3620999909
 20
13.4302748463
 10
-8.3659980887
 20
13.4493871544
 10
-8.3723047419
 20
13.4678472342
 10
-8.3809132431
 20
13.4853428819
 10
-8.3916779392
 20
13.5015781777
 10
-8.4044166749
 20
13.5162785044
 10
-8.4189139327
 20
13.5291952706
 10
-8.434924477
 20
13.5401100761
 10
-8.4521774544
 20
13.5488383685
 10
-8.4703810274
 20
13.5552326055
 10
-8.4892273195
 20
13.5591847348
 10
-8.508397593
 20
13.560628004
  0
LWPOLYLINE
  5
3D1
100
AcDbEntity
  8
RACCORDO
100
AcDbPolyline
 62
250
  6
CONTINUOUS
 90
16
 70
0
 10
-8.0991350553
 20
13.4446628689
 10
-8.1009520314
 20
13.4761625597
 10
-8.105767304
 20
13.5065891515
 10
-8.113580873
 20
13.5359426444
 10
-8.1245391072
 20
13.564473025
 10
-8.1384956379
 20
13.5919303067
 10
-8.1550113586
 20
13.6175645291
 10
-8.174038613
 20
13.641304363
 10
-8.1956250574
 20
13.6632211377
 10
-8.2194745541
 20
13.6827788801
 10
-8.2458035086
 20
13.7000644524
 10
-8.2743955155
 20
13.7149909925
 10
-8.3043052208
 20
13.7267619417
 10
-8.3352175066
 20
13.7351117804
 10
-8.3674474909
 20
13.7403060281
 10
-8.4009951737
 20
13.742344685
  0
LWPOLYLINE
  5
3D2
100
AcDbEntity
  8
RACCORDO
100
AcDbPolyline
 62
250
  6
CONTINUOUS
 90
13
 70
0
 10
-8.36067643
 20
-13.4108335738
 10
-8.3620998746
 20
-13.430273992
 10
-8.3659976728
 20
-13.4493856116
 10
-8.3723039005
 20
-13.4678451953
 10
-8.3809118996
 20
-13.4853405334
 10
-8.3916760818
 20
-13.5015757249
 10
-8.4044143911
 20
-13.5162761819
 10
-8.4189113826
 20
-13.5291932733
 10
-8.4349218668
 20
-13.5401085307
 10
-8.4521750561
 20
-13.5488373429
 10
-8.470379145
 20
-13.5552320782
 10
-8.4892262452
 20
-13.5591845816
 10
-8.508397593
 20
-13.560628004
  0
LINE
  5
3D3
100
AcDbEntity
  8
0
100
AcDbLine
 62
7
  6
CONTINUOUS
 10
-3.481663
 20
12.82878
 11
-3.02989
 21
14.411797
  0
LINE
  5
3D4
100
AcDbEntity
  8
0
100
AcDbLine
 62
7
  6
CONTINUOUS
 10
-2.550162
 20
14.411797
 11
-3.289406
 21
12.112007
  0
LWPOLYLINE
  5
3D5
100
AcDbEntity
  8
0
100
AcDbPolyline
 62
7
  6
CONTINUOUS
 90
10
 70
0
 10
-0.4469571427
 20
-12.3163208723
 10
-0.4602030467
 20
-12.2900593894
 10
-0.4747327811
 20
-12.265276163
 10
-0.490546346
 20
-12.2419711933
 10
-0.5075109442
 20
-12.2202871782
 10
-0.5257593729
 20
-12.2000814197
 10
-0.5456900229
 20
-12.1809258234
 10
-0.5674356914
 20
-12.1626776914
 10
-0.5908635812
 20
-12.1454797216
 10
-0.6159736925
 20
-12.1293319142
  0
LWPOLYLINE
  5
3D6
100
AcDbEntity
  8
0
100
AcDbPolyline
 62
7
  6
CONTINUOUS
 90
10
 70
0
 10
-1.3955354416
 20
-14.1648444841
 10
-1.3807018474
 20
-14.1958980412
 10
-1.3649331481
 20
-14.2246297856
 10
-1.3482293437
 20
-14.2510397174
 10
-1.3306910151
 20
-14.2748953854
 10
-1.3122175815
 20
-14.2964292407
 10
-1.2925072998
 20
-14.316338637
 10
-1.2714595889
 20
-14.3348560255
 10
-1.24917503
 20
-14.3517489551
 10
-1.2256536228
 20
-14.3670174257
  0
LWPOLYLINE
  5
3D7
100
AcDbEntity
  8
0
100
AcDbPolyline
 62
7
  6
CONTINUOUS
 90
10
 70
0
 10
0.0423621214
 20
-14.1648444841
 10
0.0571956886
 20
-14.1958979636
 10
0.0729643757
 20
-14.2246296521
 10
0.0896681826
 20
-14.2510395496
 10
0.1072065289
 20
-14.2748952079
 10
0.1256799951
 20
-14.2964290753
 10
0.1453903226
 20
-14.3163384963
 10
0.1664380919
 20
-14.3348559192
 10
0.1887227224
 20
-14.3517488956
 10
0.2122442143
 20
-14.3670174257
  0
LWPOLYLINE
  5
3D8
100
AcDbEntity
  8
0
100
AcDbPolyline
 62
7
  6
CONTINUOUS
 90
10
 70
0
 10
-3.5313947574
 20
-13.5510239856
 10
-3.5267209974
 20
-13.5722180471
 10
-3.5225170024
 20
-13.5945336607
 10
-3.5187827722
 20
-13.6179708265
 10
-3.5154805662
 20
-13.6423856934
 10
-3.512648125
 20
-13.6679221124
 10
-3.510398671
 20
-13.6950116369
 10
-3.5087699447
 20
-13.7237981181
 10
-3.5077242056
 20
-13.7541377047
 10
-3.5072614536
 20
-13.7860303968
  0
LWPOLYLINE
  5
3D9
100
AcDbEntity
  8
0
100
AcDbPolyline
 62
7
  6
CONTINUOUS
 90
10
 70
0
 10
-4.1116874546
 20
-13.9959889248
 10
-4.114493945
 20
-13.9797509967
 10
-4.1169419238
 20
-13.9630034235
 10
-4.1190313911
 20
-13.9457462049
 10
-4.1207485409
 20
-13.9280139065
 10
-4.1221071791
 20
-13.9097719628
 10
-4.1231487235
 20
-13.890916678
 10
-4.1238869801
 20
-13.8714134869
 10
-4.1243081428
 20
-13.8512969546
 10
-4.1244122118
 20
-13.8305670813
  0
LWPOLYLINE
  5
3DA
100
AcDbEntity
  8
0
100
AcDbPolyline
 62
7
  6
CONTINUOUS
 90
10
 70
0
 10
-3.2559474304
 20
-13.5569847673
 10
-3.2594195974
 20
-13.536628794
 10
-3.2635206177
 20
-13.5168189332
 10
-3.2682504913
 20
-13.497555185
 10
-3.2736021072
 20
-13.4789071099
 10
-3.2795825764
 20
-13.4608051473
 10
-3.2862132319
 20
-13.4430406156
 10
-3.2935011845
 20
-13.4255439542
 10
-3.3014393234
 20
-13.4083847236
 10
-3.3100276485
 20
-13.3915629238
  0
LWPOLYLINE
  5
3DB
100
AcDbEntity
  8
0
100
AcDbPolyline
 62
7
  6
CONTINUOUS
 90
10
 70
0
 10
-3.5374439672
 20
-12.5042437492
 10
-3.5347077975
 20
-12.520916015
 10
-3.5322360662
 20
-12.5375940844
 10
-3.5300287732
 20
-12.5542779576
 10
-3.5280552082
 20
-12.5710037877
 10
-3.5263460815
 20
-12.5877354214
 10
-3.5249935243
 20
-12.6043643993
 10
-3.5240282468
 20
-12.6208545681
 10
-3.5234195387
 20
-12.637242081
 10
-3.5231674001
 20
-12.653526938
  0
LWPOLYLINE
  5
3DC
100
AcDbEntity
  8
0
100
AcDbPolyline
 62
7
  6
CONTINUOUS
 90
10
 70
0
 10
-3.2591286197
 20
-12.6344398022
 10
-3.2620491307
 20
-12.562353967
 10
-3.2680648182
 20
-12.4966847149
 10
-3.2771756822
 20
-12.4374320459
 10
-3.2897372866
 20
-12.3851170757
 10
-3.3053940675
 20
-12.3392186886
 10
-3.3230793337
 20
-12.2981735376
 10
-3.3424375215
 20
-12.261460507
 10
-3.3638241944
 20
-12.2296007125
 10
-3.3872393527
 20
-12.2025941542
  0
LWPOLYLINE
  5
3DD
100
AcDbEntity
  8
0
100
AcDbPolyline
 62
7
  6
CONTINUOUS
 90
10
 70
0
 10
-4.38526976
 20
-13.8305670813
 10
-4.3826362152
 20
-13.9064688777
 10
-4.3768871506
 20
-13.9757541003
 10
-4.3680225661
 20
-14.038422749
 10
-4.3557234606
 20
-14.0939869806
 10
-4.3403088352
 20
-14.1429346383
 10
-4.3227356935
 20
-14.1867292523
 10
-4.3033230368
 20
-14.2258586658
 10
-4.2817518637
 20
-14.2598350355
 10
-4.2580221743
 20
-14.2886583615
  0
LINE
  5
3DE
100
AcDbEntity
  8
RACCORDO
100
AcDbLine
 62
7
  6
CONTINUOUS
 10
-5.25
 20
14.7
 11
-5.25
 21
8.7
  0
LINE
  5
3DF
100
AcDbEntity
  8
RACCORDO
100
AcDbLine
 62
7
  6
CONTINUOUS
 10
-5.25
 20
-11.8
 11
-5.25
 21
-14.8
  0
LINE
  5
3E0
100
AcDbEntity
  8
0
100
AcDbLine
 62
7
  6
CONTINUOUS
 10
-4.3534578584
 20
-12.6153526664
 11
-4.3534578584
 21
-12.6439833701
  0
LINE
  5
3E1
100
AcDbEntity
  8
0
100
AcDbLine
 62
7
  6
CONTINUOUS
 10
-3.9621715575
 20
-13.1084370077
 11
-3.9621715575
 21
-13.308852002
  0
LWPOLYLINE
  5
3E2
100
AcDbEntity
  8
0
100
AcDbPolyline
 62
7
  6
CONTINUOUS
 90
10
 70
0
 10
-4.0989626974
 20
-12.6439833701
 10
-4.098846124
 20
-12.626521525
 10
-4.0984455851
 20
-12.6093771725
 10
-4.0977610808
 20
-12.5925503127
 10
-4.0967989557
 20
-12.5760709384
 10
-4.0955528652
 20
-12.5599090567
 10
-4.094003775
 20
-12.543974689
 10
-4.0921453403
 20
-12.5282378423
 10
-4.0899839058
 20
-12.5127285094
 10
-4.0875194717
 20
-12.4974466906
  0
LINE
  5
3E3
100
AcDbEntity
  8
0
100
AcDbLine
 62
7
  6
CONTINUOUS
 10
-0.471223
 20
13.134946
 11
0.008833
 21
14.411797
  0
LINE
  5
3E4
100
AcDbEntity
  8
0
100
AcDbLine
 62
7
  6
CONTINUOUS
 10
0.130606
 20
13.607466
 11
-0.44018
 21
12.112007
  0
LWPOLYLINE
  5
3E5
100
AcDbEntity
  8
RACCORDO
100
AcDbPolyline
 62
7
  6
CONTINUOUS
 90
10
 70
0
 10
-9.6030304987
 20
-2.4522634845
 10
-9.5828005792
 20
-2.4358310346
 10
-9.564169027
 20
-2.4171994902
 10
-9.5477365671
 20
-2.3969695723
 10
-9.5335747073
 20
-2.3750892098
 10
-9.5216119398
 20
-2.3516104739
 10
-9.5122344652
 20
-2.3272902992
 10
-9.5055710171
 20
-2.3023809971
 10
-9.5014928621
 20
-2.2766302561
 10
-9.5
 20
-2.2500380762
  0
LWPOLYLINE
  5
3E6
100
AcDbEntity
  8
RACCORDO
100
AcDbPolyline
 62
250
  6
CONTINUOUS
 90
16
 70
0
 10
9.4363690968
 20
11.9528741146
 10
9.4408900589
 20
11.9557005947
 10
9.4452308803
 20
11.9607875162
 10
9.4493915608
 20
11.9681348791
 10
9.4533954078
 20
11.9778309233
 10
9.457219114
 20
11.9897874088
 10
9.4607927576
 20
12.0037396159
 10
9.4641242519
 20
12.0197218058
 10
9.4672056836
 20
12.0376997172
 10
9.4699433901
 20
12.0573058466
 10
9.4723365317
 20
12.0786350518
 10
9.4743859482
 20
12.1015924749
 10
9.4760004958
 20
12.1255260389
 10
9.4771497933
 20
12.1502183846
 10
9.477864222
 20
12.175886871
 10
9.4781437817
 20
12.2025314983
  0
LWPOLYLINE
  5
3E7
100
AcDbEntity
  8
RACCORDO
100
AcDbPolyline
 62
7
  6
CONTINUOUS
 90
22
 70
0
 10
-10.38468937
 20
2.1258649447
 10
-10.3611365498
 20
2.1092644373
 10
-10.3386299423
 20
2.0927535009
 10
-10.3171695477
 20
2.0763321354
 10
-10.2968116479
 20
2.0601279085
 10
-10.2774999609
 20
2.0440132525
 10
-10.2590656403
 20
2.0276054648
 10
-10.241491634
 20
2.0109061471
 10
-10.224794994
 20
1.9939136977
 10
-10.2088580307
 20
1.9762406089
 10
-10.1935763951
 20
1.957815059
 10
-10.1790544362
 20
1.9387088697
 10
-10.1654875102
 20
1.9187499985
 10
-10.1528138795
 20
1.8978311057
 10
-10.1410952819
 20
1.8760595309
 10
-10.1307122862
 20
1.8535852512
 10
-10.1216888993
 20
1.8303397116
 10
-10.1140011144
 20
1.8063914671
 10
-10.1079574799
 20
1.7820961595
 10
-10.1036608454
 20
1.7575723361
 10
-10.1010083613
 20
1.7327014497
 10
-10.1000000276
 20
1.7074835003
  0
LWPOLYLINE
  5
3E8
100
AcDbEntity
  8
0
100
AcDbPolyline
 62
7
  6
CONTINUOUS
 90
10
 70
0
 10
0.9909404203
 20
-12.3163208723
 10
0.977694451
 20
-12.2900592689
 10
0.9631646787
 20
-12.2652759595
 10
0.9473511033
 20
-12.2419709441
 10
0.9303865266
 20
-12.2202869303
 10
0.9121381469
 20
-12.2000812106
 10
0.8922075594
 20
-12.1809256614
 10
0.8704619623
 20
-12.1626775751
 10
0.8470341575
 20
-12.1454796593
 10
0.8219241447
 20
-12.1293319142
  0
LWPOLYLINE
  5
3E9
100
AcDbEntity
  8
0
100
AcDbPolyline
 62
7
  6
CONTINUOUS
 90
10
 70
0
 10
1.4802599585
 20
-14.1648444841
 10
1.4950935528
 20
-14.1958980412
 10
1.5108622521
 20
-14.2246297856
 10
1.5275660565
 20
-14.2510397174
 10
1.545104385
 20
-14.2748953854
 10
1.5635778186
 20
-14.2964292407
 10
1.5832881003
 20
-14.316338637
 10
1.6043358112
 20
-14.3348560255
 10
1.6266203702
 20
-14.3517489551
 10
1.6501417773
 20
-14.3670174257
  0
LWPOLYLINE
  5
3EA
100
AcDbEntity
  8
0
100
AcDbPolyline
 62
7
  6
CONTINUOUS
 90
10
 70
0
 10
-1.1737017549
 20
-14.0410092996
 10
-1.1799818688
 20
-14.0206856647
 10
-1.1858104207
 20
-13.9989733281
 10
-1.1911874108
 20
-13.9758722898
 10
-1.1961215542
 20
-13.9514928628
 10
-1.2006041357
 20
-13.9257247341
 10
-1.2046090098
 20
-13.8982369647
 10
-1.2081274611
 20
-13.8689192415
 10
-1.2111682049
 20
-13.8378818774
 10
-1.2137312411
 20
-13.8051248727
  0
LWPOLYLINE
  5
3EB
100
AcDbEntity
  8
0
100
AcDbPolyline
 62
7
  6
CONTINUOUS
 90
10
 70
0
 10
0.264195933
 20
-14.0410092589
 10
0.2579157874
 20
-14.0206856449
 10
0.2520872087
 20
-13.9989733253
 10
0.2467101968
 20
-13.9758723004
 10
0.2417760372
 20
-13.9514928828
 10
0.2372934444
 20
-13.9257247598
 10
0.2332885622
 20
-13.898236993
 10
0.2297701052
 20
-13.8689192697
 10
0.2267293588
 20
-13.8378819025
 10
0.2241663231
 20
-13.8051248915
  0
LWPOLYLINE
  5
3EC
100
AcDbEntity
  8
0
100
AcDbPolyline
 62
7
  6
CONTINUOUS
 90
10
 70
0
 10
-0.663278015
 20
-12.4594743907
 10
-0.6567847992
 20
-12.481980149
 10
-0.6507354402
 20
-12.5055008568
 10
-0.6451299377
 20
-12.5300365143
 10
-0.6399273743
 20
-12.5556056699
 10
-0.6351686675
 20
-12.5821897751
 10
-0.6309765705
 20
-12.6097331841
 10
-0.627392001
 20
-12.6382173483
 10
-0.6243740412
 20
-12.6676608163
 10
-0.6219226912
 20
-12.6980635881
  0
LWPOLYLINE
  5
3ED
100
AcDbEntity
  8
0
100
AcDbPolyline
 62
7
  6
CONTINUOUS
 90
9
 70
0
 10
-1.2137312411
 20
-13.8051248727
 10
-1.2157710676
 20
-13.7725150685
 10
-1.2175580427
 20
-13.7392175536
 10
-1.2190921665
 20
-13.7052323282
 10
-1.2203667612
 20
-13.6705549644
 10
-1.2213885045
 20
-13.63518989
 10
-1.2221774299
 20
-13.5991503883
 10
-1.2227402151
 20
-13.5624408871
 10
-1.2230701823
 20
-13.5250569586
  0
LWPOLYLINE
  5
3EE
100
AcDbEntity
  8
0
100
AcDbPolyline
 62
7
  6
CONTINUOUS
 90
10
 70
0
 10
-3.2400414839
 20
-13.7573996931
 10
-3.2402760532
 20
-13.7350957714
 10
-3.2409056424
 20
-13.7127944195
 10
-3.2419302516
 20
-13.6904956375
 10
-3.2433656548
 20
-13.6681909862
 10
-3.245196078
 20
-13.6458889047
 10
-3.2473741993
 20
-13.6236147104
 10
-3.2498842448
 20
-13.6013768422
 10
-3.2527419885
 20
-13.5791668612
 10
-3.2559474304
 20
-13.5569847673
  0
LINE
  5
3EF
100
AcDbEntity
  8
0
100
AcDbLine
 62
7
  6
CONTINUOUS
 10
-3.39
 20
8.810006
 11
-3.39
 21
11.110007
  0
LINE
  5
3F0
100
AcDbEntity
  8
0
100
AcDbLine
 62
7
  6
CONTINUOUS
 10
-3.119599
 20
11.110007
 11
-3.119599
 21
9.026327
  0
LINE
  5
3F1
100
AcDbEntity
  8
0
100
AcDbLine
 62
7
  6
CONTINUOUS
 10
-2.7437759534
 20
-12.4467496336
 11
-2.7437759534
 21
-12.7171507239
  0
LINE
  5
3F2
100
AcDbEntity
  8
0
100
AcDbLine
 62
7
  6
CONTINUOUS
 10
-2.397469
 20
9.026327
 11
-2.397469
 21
8.810006
  0
LINE
  5
3F3
100
AcDbEntity
  8
0
100
AcDbLine
 62
7
  6
CONTINUOUS
 10
-2.3747579947
 20
-14.4
 11
-2.3747579947
 21
-12.4213001192
  0
LINE
  5
3F4
100
AcDbEntity
  8
0
100
AcDbLine
 62
7
  6
CONTINUOUS
 10
-2.372012
 20
12.112007
 11
-2.372012
 21
14.411935
  0
LINE
  5
3F5
100
AcDbEntity
  8
0
100
AcDbLine
 62
7
  6
CONTINUOUS
 10
-2.1107192829
 20
-14.4
 11
-2.1107192829
 21
-12.1
  0
LINE
  5
3F6
100
AcDbEntity
  8
0
100
AcDbLine
 62
7
  6
CONTINUOUS
 10
-2.080077
 20
8.810011
 11
-2.080077
 21
11.110011
  0
LINE
  5
3F7
100
AcDbEntity
  8
0
100
AcDbLine
 62
7
  6
CONTINUOUS
 10
-1.891956
 20
14.411935
 11
-1.891956
 21
12.112007
  0
LINE
  5
3F8
100
AcDbEntity
  8
0
100
AcDbLine
 62
7
  6
CONTINUOUS
 10
-1.809675
 20
11.110011
 11
-1.809675
 21
8.810011
  0
LWPOLYLINE
  5
3F9
100
AcDbEntity
  8
0
100
AcDbPolyline
 62
7
  6
CONTINUOUS
 90
10
 70
0
 10
-3.5072614536
 20
-13.7860303968
 10
-3.5074974718
 20
-13.8071753914
 10
-3.5081221153
 20
-13.8280829898
 10
-3.509135384
 20
-13.8487531919
 10
-3.5105548233
 20
-13.8692002966
 10
-3.5123628877
 20
-13.8894100051
 10
-3.5145069418
 20
-13.909339421
 10
-3.5169694403
 20
-13.9289742457
 10
-3.5197679284
 20
-13.9483287778
 10
-3.5229024061
 20
-13.9674030175
  0
LWPOLYLINE
  5
3FA
100
AcDbEntity
  8
0
100
AcDbPolyline
 62
7
  6
CONTINUOUS
 90
10
 70
0
 10
-3.5231674001
 20
-12.653526938
 10
-3.523666029
 20
-12.6845442777
 10
-3.5247774858
 20
-12.7139897615
 10
-3.5265017703
 20
-12.7418633894
 10
-3.5288944727
 20
-12.7681569781
 10
-3.5319000028
 20
-12.7928787109
 10
-3.5353515905
 20
-12.816053138
 10
-3.5391936456
 20
-12.837688443
 10
-3.5434817584
 20
-12.8577764424
 10
-3.5482159287
 20
-12.8763171362
  0
LINE
  5
3FB
100
AcDbEntity
  8
0
100
AcDbLine
 62
7
  6
CONTINUOUS
 10
-1.070672
 20
13.613726
 11
-1.174268
 21
12.112007
  0
LINE
  5
3FC
100
AcDbEntity
  8
0
100
AcDbLine
 62
7
  6
CONTINUOUS
 10
-1.633526
 20
12.112007
 11
-1.425869
 21
14.411797
  0
LINE
  5
3FD
100
AcDbEntity
  8
0
100
AcDbLine
 62
7
  6
CONTINUOUS
 10
1.718779
 20
13.779873
 11
1.479751
 21
12.926392
  0
LINE
  5
3FE
100
AcDbEntity
  8
0
100
AcDbLine
 62
7
  6
CONTINUOUS
 10
1.381553
 20
12.571127
 11
1.249088
 21
12.112007
  0
LINE
  5
3FF
100
AcDbEntity
  8
RACCORDO
100
AcDbLine
 62
250
  6
CONTINUOUS
 10
-10.9645351961
 20
-25.7709349336
 11
-10.9828653412
 21
-25.8321769981
  0
LINE
  5
400
100
AcDbEntity
  8
RACCORDO
100
AcDbLine
 62
250
  6
CONTINUOUS
 10
-10.5154079535
 20
-26.2216232767
 11
-10.5337380986
 21
-26.2828653412
  0
LINE
  5
401
100
AcDbEntity
  8
0
100
AcDbLine
 62
7
  6
CONTINUOUS
 10
0.77424
 20
12.112007
 11
1.4956
 21
14.411797
  0
LWPOLYLINE
  5
402
100
AcDbEntity
  8
RACCORDO
100
AcDbPolyline
 62
250
  6
CONTINUOUS
 90
16
 70
0
 10
9.5840895643
 20
11.8030796844
 10
9.5886122961
 20
11.807266331
 10
9.5929541211
 20
11.8154615056
 10
9.5971150394
 20
11.8274968246
 10
9.6011178734
 20
11.8431070465
 10
9.6049398007
 20
11.8620963031
 10
9.6085123539
 20
11.8844645694
 10
9.6118443111
 20
11.9100819957
 10
9.6149268942
 20
11.9386853829
 10
9.6176653018
 20
11.9701704166
 10
9.6200580639
 20
12.0043449782
 10
9.6221066505
 20
12.0408539931
 10
9.6237206707
 20
12.0793227949
 10
9.624869994
 20
12.1193619936
 10
9.6255847509
 20
12.1605764674
 10
9.6258649414
 20
12.2025314983
  0
LWPOLYLINE
  5
403
100
AcDbEntity
  8
RACCORDO
100
AcDbPolyline
 62
7
  6
CONTINUOUS
 90
19
 70
0
 10
9.1802601072
 20
11.6599329936
 10
9.1774231867
 20
11.6577116958
 10
9.1754017127
 20
11.6533488912
 10
9.1741956854
 20
11.6469697445
 10
9.1736592228
 20
11.6386594933
 10
9.1739382068
 20
11.6286096208
 10
9.1754702828
 20
11.6172258839
 10
9.1782345767
 20
11.6049108993
 10
9.1822519626
 20
11.5917976537
 10
9.1880227083
 20
11.5779249799
 10
9.1955769658
 20
11.5633022826
 10
9.2048845831
 20
11.5482465768
 10
9.2163553717
 20
11.5332433068
 10
9.2302049156
 20
11.5183255342
 10
9.2462176307
 20
11.5037783218
 10
9.2641565765
 20
11.4905140286
 10
9.2839427726
 20
11.4789161035
 10
9.3056551993
 20
11.4687994704
 10
9.3292938566
 20
11.4602070867
  0
LINE
  5
404
100
AcDbEntity
  8
DRAFT
100
AcDbLine
 62
7
  6
CONTINUOUS
 10
10.1
 20
11.7626767255
 11
9.9473059106
 21
11.6482376725
  0
LWPOLYLINE
  5
405
100
AcDbEntity
  8
RACCORDO
100
AcDbPolyline
 62
7
  6
CONTINUOUS
 90
4
 70
0
 10
-9.75
 20
-2.5000060301
 10
-9.723390909
 20
-2.4985104886
 10
-9.6976274876
 20
-2.4944303273
 10
-9.6727097359
 20
-2.4877655462
  0
LINE
  5
406
100
AcDbEntity
  8
RACCORDO
100
AcDbLine
 62
250
  6
CONTINUOUS
 10
-10.9645351961
 20
-2.1258649447
 11
-10.38468937
 21
-2.1258649447
  0
LINE
  5
407
100
AcDbEntity
  8
RACCORDO
100
AcDbLine
 62
250
  6
CONTINUOUS
 10
10.38468937
 20
-2.1258649447
 11
10.9645351961
 21
-2.1258649447
  0
LINE
  5
408
100
AcDbEntity
  8
RACCORDO
100
AcDbLine
 62
250
  6
CONTINUOUS
 10
-10.9612893785
 20
-1.9781437817
 11
-10.4041776388
 21
-1.9781437817
  0
LINE
  5
409
100
AcDbEntity
  8
RACCORDO
100
AcDbLine
 62
250
  6
CONTINUOUS
 10
10.4041776388
 20
-1.9781437817
 11
10.9612893785
 21
-1.9781437817
  0
LINE
  5
40A
100
AcDbEntity
  8
RACCORDO
100
AcDbLine
 62
250
  6
CONTINUOUS
 10
-10.9229827449
 20
-1.7202000995
 11
-10.4808434758
 21
-1.7202000995
  0
LINE
  5
40B
100
AcDbEntity
  8
RACCORDO
100
AcDbLine
 62
250
  6
CONTINUOUS
 10
10.4808434758
 20
-1.7202000995
 11
10.9229827449
 21
-1.7202000995
  0
LWPOLYLINE
  5
40C
100
AcDbEntity
  8
RACCORDO
100
AcDbPolyline
 62
7
  6
CONTINUOUS
 90
4
 70
0
 10
-9.6030304277
 20
2.4522634329
 10
-9.6249093799
 20
2.4664250694
 10
-9.6483867056
 20
2.4783876136
 10
-9.6727097008
 20
2.4877655348
  0
LINE
  5
40D
100
AcDbEntity
  8
DRAFT
100
AcDbLine
 62
7
  6
CONTINUOUS
 10
10.1
 20
-11.7626767255
 11
9.9473059106
 21
-11.6482376725
  0
LWPOLYLINE
  5
40E
100
AcDbEntity
  8
0
100
AcDbPolyline
 62
7
  6
CONTINUOUS
 90
10
 70
0
 10
2.4288379833
 20
-12.3163208723
 10
2.415592014
 20
-12.2900592689
 10
2.4010622416
 20
-12.2652759595
 10
2.3852486663
 20
-12.2419709441
 10
2.3682840896
 20
-12.2202869303
 10
2.3500357099
 20
-12.2000812106
 10
2.3301051224
 20
-12.1809256614
 10
2.3083595253
 20
-12.1626775751
 10
2.2849317204
 20
-12.1454796593
 10
2.2598217077
 20
-12.1293319142
  0
LWPOLYLINE
  5
40F
100
AcDbEntity
  8
0
100
AcDbPolyline
 62
7
  6
CONTINUOUS
 90
10
 70
0
 10
1.702093496
 20
-14.0410092589
 10
1.6958133504
 20
-14.0206856449
 10
1.6899847717
 20
-13.9989733253
 10
1.6846077598
 20
-13.9758723004
 10
1.6796736002
 20
-13.9514928828
 10
1.6751910074
 20
-13.9257247598
 10
1.6711861252
 20
-13.898236993
 10
1.6676676682
 20
-13.8689192697
 10
1.6646269218
 20
-13.8378819025
 10
1.6620638861
 20
-13.8051248915
  0
LINE
  5
410
100
AcDbEntity
  8
RACCORDO
100
AcDbLine
 62
250
  6
CONTINUOUS
 10
-10.9645351961
 20
25.7709349336
 11
-10.9828653412
 21
25.8321769981
  0
LINE
  5
411
100
AcDbEntity
  8
RACCORDO
100
AcDbLine
 62
250
  6
CONTINUOUS
 10
-10.5154079535
 20
26.2216232767
 11
-10.5337380986
 21
26.2828653412
  0
LWPOLYLINE
  5
412
100
AcDbEntity
  8
0
100
AcDbPolyline
 62
7
  6
CONTINUOUS
 90
10
 70
0
 10
0.7746197996
 20
-12.4594743153
 10
0.7811130242
 20
-12.4819801059
 10
0.7871623902
 20
-12.5055008384
 10
0.7927678974
 20
-12.5300365128
 10
0.7979704632
 20
-12.555605676
 10
0.8027291702
 20
-12.5821897811
 10
0.806921267
 20
-12.6097331872
 10
0.8105058365
 20
-12.6382173471
 10
0.8135237957
 20
-12.6676608081
 10
0.8159751448
 20
-12.6980635699
  0
LWPOLYLINE
  5
413
100
AcDbEntity
  8
0
100
AcDbPolyline
 62
7
  6
CONTINUOUS
 90
10
 70
0
 10
-0.3707808284
 20
-12.6121904825
 10
-0.3759357205
 20
-12.5718942274
 10
-0.381957807
 20
-12.5335096171
 10
-0.3888470879
 20
-12.4970366517
 10
-0.3966567749
 20
-12.4625502397
 10
-0.4053336564
 20
-12.4299754726
 10
-0.4147180973
 20
-12.3990876249
 10
-0.4247568862
 20
-12.369811788
 10
-0.4355032347
 20
-12.3422228705
 10
-0.4469571427
 20
-12.3163208723
  0
LWPOLYLINE
  5
414
100
AcDbEntity
  8
0
100
AcDbPolyline
 62
7
  6
CONTINUOUS
 90
10
 70
0
 10
-1.4696971382
 20
-13.8529703704
 10
-1.4649568762
 20
-13.8955573064
 10
-1.4592881402
 20
-13.936116983
 10
-1.4526909301
 20
-13.9746494003
 10
-1.4450939226
 20
-14.0110962979
 10
-1.4365684409
 20
-14.0455159361
 10
-1.427328455
 20
-14.0780830957
 10
-1.4174452881
 20
-14.1088560371
 10
-1.406847617
 20
-14.1377764999
 10
-1.3955354416
 20
-14.1648444841
  0
LWPOLYLINE
  5
415
100
AcDbEntity
  8
0
100
AcDbPolyline
 62
7
  6
CONTINUOUS
 90
9
 70
0
 10
0.2241663231
 20
-13.8051248915
 10
0.2221264963
 20
-13.7725150822
 10
0.2203395209
 20
-13.7392175631
 10
0.2188053969
 20
-13.7052323343
 10
0.217530802
 20
-13.6705549682
 10
0.2165090586
 20
-13.6351898924
 10
0.2157201331
 20
-13.5991503896
 10
0.2151573479
 20
-13.5624408876
 10
0.2148273807
 20
-13.5250569586
  0
LWPOLYLINE
  5
416
100
AcDbEntity
  8
0
100
AcDbPolyline
 62
7
  6
CONTINUOUS
 90
9
 70
0
 10
-0.6219226912
 20
-12.6980635881
 10
-0.6199865346
 20
-12.7290741388
 10
-0.6182638823
 20
-12.7615109364
 10
-0.6167547343
 20
-12.7953739808
 10
-0.6154518478
 20
-12.830648315
 10
-0.6143624655
 20
-12.8673488961
 10
-0.6135083154
 20
-12.9055205955
 10
-0.6128966401
 20
-12.9451783704
 10
-0.6125201971
 20
-12.9863072636
  0
LWPOLYLINE
  5
417
100
AcDbEntity
  8
0
100
AcDbPolyline
 62
7
  6
CONTINUOUS
 90
9
 70
0
 10
0.8159751448
 20
-12.6980635699
 10
0.817911287
 20
-12.7290741394
 10
0.8196339175
 20
-12.7615109505
 10
0.8211430364
 20
-12.7953740032
 10
0.8224458816
 20
-12.8306483391
 10
0.8235352152
 20
-12.8673489166
 10
0.8243893229
 20
-12.9055206114
 10
0.8250009667
 20
-12.945178382
 10
0.8253773847
 20
-12.98630727
  0
LWPOLYLINE
  5
418
100
AcDbEntity
  8
0
100
AcDbPolyline
 62
7
  6
CONTINUOUS
 90
9
 70
0
 10
-1.4839403783
 20
-13.497109107
 10
-1.4834986873
 20
-13.5470125344
 10
-1.482699781
 20
-13.5953534242
 10
-1.48156987
 20
-13.6421175208
 10
-1.4800827438
 20
-13.6873190797
 10
-1.4781597707
 20
-13.7310008675
 10
-1.4757747401
 20
-13.7731771396
 10
-1.4729538626
 20
-13.8138336406
 10
-1.4696971382
 20
-13.8529703704
  0
LWPOLYLINE
  5
419
100
AcDbEntity
  8
0
100
AcDbPolyline
 62
7
  6
CONTINUOUS
 90
9
 70
0
 10
-0.0460428153
 20
-13.497109107
 10
-0.0456011243
 20
-13.5470125344
 10
-0.044802218
 20
-13.5953534242
 10
-0.043672307
 20
-13.6421175208
 10
-0.0421851808
 20
-13.6873190797
 10
-0.0402622077
 20
-13.7310008675
 10
-0.0378771771
 20
-13.7731771396
 10
-0.0350562996
 20
-13.8138336406
 10
-0.0317995752
 20
-13.8529703704
  0
LWPOLYLINE
  5
41A
100
AcDbEntity
  8
0
100
AcDbPolyline
 62
7
  6
CONTINUOUS
 90
10
 70
0
 10
-0.3515214637
 20
-13.0034577608
 10
-0.3517437974
 20
-12.9565960761
 10
-0.352445062
 20
-12.9105393586
 10
-0.3536252576
 20
-12.8652876085
 10
-0.3552837601
 20
-12.8207849345
 10
-0.3574211936
 20
-12.7770872278
 10
-0.36003943
 20
-12.734362162
 10
-0.3631390933
 20
-12.692665628
 10
-0.3667195594
 20
-12.6519417349
 10
-0.3707808284
 20
-12.6121904825
  0
LINE
  5
41B
100
AcDbEntity
  8
0
100
AcDbLine
 62
7
  6
CONTINUOUS
 10
-1.484024854
 20
-13.016182518
 11
-1.4839403783
 21
-13.497109107
  0
LINE
  5
41C
100
AcDbEntity
  8
0
100
AcDbLine
 62
7
  6
CONTINUOUS
 10
-1.385532
 20
8.810006
 11
-1.385532
 21
11.110007
  0
LINE
  5
41D
100
AcDbEntity
  8
0
100
AcDbLine
 62
7
  6
CONTINUOUS
 10
-1.2230701823
 20
-13.5250569586
 11
-1.2231673315
 21
-13.0289072752
  0
LINE
  5
41E
100
AcDbEntity
  8
0
100
AcDbLine
 62
7
  6
CONTINUOUS
 10
-1.134218
 20
10.87778
 11
-1.134218
 21
8.810006
  0
LINE
  5
41F
100
AcDbEntity
  8
0
100
AcDbLine
 62
7
  6
CONTINUOUS
 10
-0.6125201971
 20
-12.9863072636
 11
-0.6123789862
 21
-13.490179792
  0
LINE
  5
420
100
AcDbEntity
  8
0
100
AcDbLine
 62
7
  6
CONTINUOUS
 10
-0.3515214637
 20
-13.4392807633
 11
-0.3515214637
 21
-13.0034577608
  0
LINE
  5
421
100
AcDbEntity
  8
0
100
AcDbLine
 62
7
  6
CONTINUOUS
 10
-0.192586
 20
9.042233
 11
-0.192586
 21
11.110007
  0
LINE
  5
422
100
AcDbEntity
  8
0
100
AcDbLine
 62
7
  6
CONTINUOUS
 10
-0.046127291
 20
-13.016182518
 11
-0.0460428153
 21
-13.497109107
  0
LINE
  5
423
100
AcDbEntity
  8
0
100
AcDbLine
 62
7
  6
CONTINUOUS
 10
0.05875
 20
11.110007
 11
0.05875
 21
8.810006
  0
LINE
  5
424
100
AcDbEntity
  8
0
100
AcDbLine
 62
7
  6
CONTINUOUS
 10
0.2148273807
 20
-13.5250569586
 11
0.2147302315
 21
-13.0289072752
  0
LWPOLYLINE
  5
425
100
AcDbEntity
  8
0
100
AcDbPolyline
 62
7
  6
CONTINUOUS
 90
10
 70
0
 10
-1.2231673315
 20
-13.0289072752
 10
-1.2230261394
 20
-12.9863072681
 10
-1.2226497214
 20
-12.945178379
 10
-1.2220380776
 20
-12.9055206078
 10
-1.2211839698
 20
-12.8673489128
 10
-1.2200946363
 20
-12.8306483358
 10
-1.2187917912
 20
-12.7953740022
 10
-1.2172826726
 20
-12.761510954
 10
-1.2155600424
 20
-12.7290741493
 10
-1.2136239007
 20
-12.6980635881
  0
LWPOLYLINE
  5
426
100
AcDbEntity
  8
0
100
AcDbPolyline
 62
7
  6
CONTINUOUS
 90
10
 70
0
 10
-0.6123789862
 20
-13.490179792
 10
-0.6125214707
 20
-13.531673833
 10
-0.6128964568
 20
-13.5717084978
 10
-0.6135039444
 20
-13.6102837865
 10
-0.6143519356
 20
-13.6473849393
 10
-0.6154324284
 20
-13.6830267159
 10
-0.6167214161
 20
-13.7172533952
 10
-0.6182108966
 20
-13.7500797369
 10
-0.619908872
 20
-13.7814909813
 10
-0.6218153424
 20
-13.8114871284
  0
LWPOLYLINE
  5
427
100
AcDbEntity
  8
0
100
AcDbPolyline
 62
7
  6
CONTINUOUS
 90
10
 70
0
 10
-1.2136239007
 20
-12.6980635881
 10
-1.2110889046
 20
-12.6650461248
 10
-1.2080709184
 20
-12.6336857078
 10
-1.2045699422
 20
-12.603982337
 10
-1.2005751971
 20
-12.5759929342
 10
-1.1960974619
 20
-12.5496605777
 10
-1.1911690736
 20
-12.5248145022
 10
-1.1858008113
 20
-12.501397786
 10
-1.1799818958
 20
-12.4794673507
 10
-1.1737123273
 20
-12.4590231965
  0
LWPOLYLINE
  5
428
100
AcDbEntity
  8
0
100
AcDbPolyline
 62
7
  6
CONTINUOUS
 90
10
 70
0
 10
-1.4649377182
 20
-12.6248962343
 10
-1.4689773073
 20
-12.6650358823
 10
-1.4725345503
 20
-12.7060211772
 10
-1.4756094474
 20
-12.747852119
 10
-1.4781984691
 20
-12.7905440347
 10
-1.4803051448
 20
-12.8340815973
 10
-1.4819400624
 20
-12.8784188251
 10
-1.4831067511
 20
-12.9235403909
 10
-1.4838016816
 20
-12.9694616219
 10
-1.484024854
 20
-13.016182518
  0
LWPOLYLINE
  5
429
100
AcDbEntity
  8
0
100
AcDbPolyline
 62
7
  6
CONTINUOUS
 90
10
 70
0
 10
-3.2763013193
 20
-12.8314598731
 10
-3.2728052946
 20
-12.8108733197
 10
-3.2696952703
 20
-12.7899021021
 10
-3.2669712463
 20
-12.7685462201
 10
-3.2646185742
 20
-12.7467276433
 10
-3.2626519025
 20
-12.7245244022
 10
-3.2611151767
 20
-12.7021705884
 10
-3.2600230452
 20
-12.6797442324
 10
-3.2593608595
 20
-12.6571673036
 10
-3.2591286197
 20
-12.6344398022
  0
LWPOLYLINE
  5
42A
100
AcDbEntity
  8
0
100
AcDbPolyline
 62
7
  6
CONTINUOUS
 90
10
 70
0
 10
-3.5229024061
 20
-13.9674030175
 10
-3.5266995816
 20
-13.9874992169
 10
-3.5309732358
 20
-14.0065155648
 10
-3.5357233686
 20
-14.0244520612
 10
-3.5409560464
 20
-14.041267314
 10
-3.5466652028
 20
-14.0570027153
 10
-3.5528326388
 20
-14.0717824411
 10
-3.559452288
 20
-14.0856478836
 10
-3.5665302167
 20
-14.0985576506
 10
-3.5740664249
 20
-14.1105117422
  0
LWPOLYLINE
  5
42B
100
AcDbEntity
  8
0
100
AcDbPolyline
 62
7
  6
CONTINUOUS
 90
10
 70
0
 10
-4.0875194717
 20
-12.4974466906
 10
-4.0845781005
 20
-12.4824871114
 10
-4.0810727387
 20
-12.4678785359
 10
-4.0770033863
 20
-12.4536209641
 10
-4.0723345687
 20
-12.4396656233
 10
-4.0671017604
 20
-12.4260612861
 10
-4.061411386
 20
-12.4129542703
 10
-4.0552989202
 20
-12.4003933485
 10
-4.0487288882
 20
-12.388329748
 10
-4.04170129
 20
-12.376763469
  0
LWPOLYLINE
  5
42C
100
AcDbEntity
  8
0
100
AcDbPolyline
 62
7
  6
CONTINUOUS
 90
10
 70
0
 10
-3.2686721857
 20
-14.0405255754
 10
-3.2629425275
 20
-14.0141584694
 10
-3.2578271031
 20
-13.9865285985
 10
-3.2533259126
 20
-13.9576359625
 10
-3.2494084447
 20
-13.9274939833
 10
-3.2461052107
 20
-13.8960892391
 10
-3.2435077442
 20
-13.8633814646
 10
-3.2416465565
 20
-13.8293572378
 10
-3.2404911364
 20
-13.7940299807
 10
-3.2400414839
 20
-13.7573996931
  0
LINE
  5
42D
100
AcDbEntity
  8
0
100
AcDbLine
 62
7
  6
CONTINUOUS
 10
2.544278
 20
10.858687
 11
2.210253
 21
9.6085
  0
LINE
  5
42E
100
AcDbEntity
  8
0
100
AcDbLine
 62
7
  6
CONTINUOUS
 10
2.143447
 20
9.392179
 11
1.981206
 21
8.81
  0
LINE
  5
42F
100
AcDbEntity
  8
0
100
AcDbLine
 62
7
  6
CONTINUOUS
 10
1.710806
 20
8.81
 11
2.385218
 21
11.110022
  0
LWPOLYLINE
  5
430
100
AcDbEntity
  8
RACCORDO
100
AcDbPolyline
 62
7
  6
CONTINUOUS
 90
4
 70
0
 10
-9.6727097359
 20
-2.4877655462
 10
-9.6483867546
 20
-2.478387637
 10
-9.624909443
 20
-2.466425108
 10
-9.6030304987
 20
-2.4522634845
  0
LWPOLYLINE
  5
431
100
AcDbEntity
  8
RACCORDO
100
AcDbPolyline
 62
250
  6
CONTINUOUS
 90
13
 70
0
 10
-10.4041776388
 20
-1.9781437817
 10
-10.3652968029
 20
-1.9752968931
 10
-10.3270735639
 20
-1.9675012974
 10
-10.2901543969
 20
-1.9548888424
 10
-10.2551637207
 20
-1.9376728444
 10
-10.2226933376
 20
-1.91614448
 10
-10.1932924236
 20
-1.8906678614
 10
-10.1674582406
 20
-1.8616738781
 10
-10.1456277255
 20
-1.8296529095
 10
-10.1281701009
 20
-1.7951465306
 10
-10.11538063
 20
-1.7587383525
 10
-10.107475623
 20
-1.7210441518
 10
-10.1045887783
 20
-1.6827014558
  0
LWPOLYLINE
  5
432
100
AcDbEntity
  8
RACCORDO
100
AcDbPolyline
 62
250
  6
CONTINUOUS
 90
13
 70
0
 10
-10.4808434758
 20
-1.7202000995
 10
-10.441961686
 20
-1.7173530811
 10
-10.4037376885
 20
-1.7095571536
 10
-10.3668179865
 20
-1.696944233
 10
-10.3318269959
 20
-1.6797276971
 10
-10.29935653
 20
-1.6581987958
 10
-10.2699557794
 20
-1.6327217401
 10
-10.2441219624
 20
-1.6037274964
 10
-10.2222919422
 20
-1.5717064917
 10
-10.2048348712
 20
-1.5372003551
 10
-10.1920459214
 20
-1.5007927232
 10
-10.1841413022
 20
-1.4630993628
 10
-10.1812546154
 20
-1.4247577736
  0
LINE
  5
433
100
AcDbEntity
  8
RACCORDO
100
AcDbLine
 62
250
  6
CONTINUOUS
 10
-10.9121633529
 20
-1.227796223
 11
-10.1899160682
 21
-1.227796223
  0
LINE
  5
434
100
AcDbEntity
  8
RACCORDO
100
AcDbLine
 62
250
  6
CONTINUOUS
 10
10.1899160682
 20
-1.227796223
 11
10.9121633529
 21
-1.227796223
  0
LWPOLYLINE
  5
435
100
AcDbEntity
  8
RACCORDO
100
AcDbPolyline
 62
250
  6
CONTINUOUS
 90
13
 70
0
 10
10.4041776388
 20
-1.9781437817
 10
10.3652970448
 20
-1.9752969266
 10
10.3270739992
 20
-1.9675014157
 10
10.2901549697
 20
-1.9548890802
 10
10.2551643765
 20
-1.9376732213
 10
10.2226940177
 20
-1.916144997
 10
10.1932930641
 20
-1.8906684934
 10
10.1674587885
 20
-1.8616745799
 10
10.1456281468
 20
-1.8296536234
 10
10.1281703791
 20
-1.7951471833
 10
10.1153807726
 20
-1.7587388632
 10
10.1074756643
 20
-1.7210444426
 10
10.1045887783
 20
-1.6827014558
  0
LWPOLYLINE
  5
436
100
AcDbEntity
  8
RACCORDO
100
AcDbPolyline
 62
250
  6
CONTINUOUS
 90
13
 70
0
 10
10.4808434758
 20
-1.7202000995
 10
10.4419626399
 20
-1.7173532109
 10
10.4037394009
 20
-1.7095576151
 10
10.3668202339
 20
-1.6969451602
 10
10.3318295577
 20
-1.6797291622
 10
10.2993591746
 20
-1.6582007978
 10
10.2699582607
 20
-1.6327241792
 10
10.2441240776
 20
-1.6037301959
 10
10.2222935625
 20
-1.5717092273
 10
10.2048359379
 20
-1.5372028483
 10
10.1920464671
 20
-1.5007946702
 10
10.1841414601
 20
-1.4631004696
 10
10.1812546154
 20
-1.4247577736
  0
LWPOLYLINE
  5
437
100
AcDbEntity
  8
RACCORDO
100
AcDbPolyline
 62
7
  6
CONTINUOUS
 90
4
 70
0
 10
-9.6727097008
 20
2.4877655348
 10
-9.6976274643
 20
2.4944303229
 10
-9.7233908974
 20
2.498510488
 10
-9.75
 20
2.5000060301
  0
LWPOLYLINE
  5
438
100
AcDbEntity
  8
RACCORDO
100
AcDbPolyline
 62
7
  6
CONTINUOUS
 90
4
 70
0
 10
9.6727097008
 20
-2.4877655348
 10
9.6976274643
 20
-2.4944303229
 10
9.7233908974
 20
-2.498510488
 10
9.75
 20
-2.5000060301
  0
LINE
  5
439
100
AcDbEntity
  8
0
100
AcDbLine
 62
7
  6
CONTINUOUS
 10
-3.712456
 20
12.112007
 11
-4.441534
 21
14.411797
  0
LINE
  5
43A
100
AcDbEntity
  8
0
100
AcDbLine
 62
7
  6
CONTINUOUS
 10
4.3852695391
 20
-14.4
 11
3.7204011127
 21
-12.1
  0
LWPOLYLINE
  5
43B
100
AcDbEntity
  8
0
100
AcDbPolyline
 62
7
  6
CONTINUOUS
 90
10
 70
0
 10
2.2125173625
 20
-12.4594743153
 10
2.2190105872
 20
-12.4819801059
 10
2.2250599531
 20
-12.5055008384
 10
2.2306654604
 20
-12.5300365128
 10
2.2358680261
 20
-12.555605676
 10
2.2406267332
 20
-12.5821897811
 10
2.24481883
 20
-12.6097331872
 10
2.2484033995
 20
-12.6382173471
 10
2.2514213587
 20
-12.6676608081
 10
2.2538727078
 20
-12.6980635699
  0
LINE
  5
43C
100
AcDbEntity
  8
0
100
AcDbLine
 62
7
  6
CONTINUOUS
 10
3.9430840895
 20
-13.8178422898
 11
4.1053248808
 21
-14.4
  0
LINE
  5
43D
100
AcDbEntity
  8
0
100
AcDbLine
 62
7
  6
CONTINUOUS
 10
-3.920045
 20
14.411797
 11
-3.481663
 21
12.82878
  0
LINE
  5
43E
100
AcDbEntity
  8
0
100
AcDbLine
 62
7
  6
CONTINUOUS
 10
3.5454355642
 20
-12.3513139546
 11
3.8794603035
 21
-13.6015214175
  0
LWPOLYLINE
  5
43F
100
AcDbEntity
  8
0
100
AcDbPolyline
 62
7
  6
CONTINUOUS
 90
10
 70
0
 10
1.0671167345
 20
-12.6121904825
 10
1.0619618425
 20
-12.5718942274
 10
1.055939756
 20
-12.5335096171
 10
1.049050475
 20
-12.4970366517
 10
1.041240788
 20
-12.4625502397
 10
1.0325639066
 20
-12.4299754726
 10
1.0231794656
 20
-12.3990876249
 10
1.0131406767
 20
-12.369811788
 10
1.0023943283
 20
-12.3422228705
 10
0.9909404203
 20
-12.3163208723
  0
LWPOLYLINE
  5
440
100
AcDbEntity
  8
0
100
AcDbPolyline
 62
7
  6
CONTINUOUS
 90
10
 70
0
 10
-0.0317995752
 20
-13.8529703704
 10
-0.0270593133
 20
-13.8955573064
 10
-0.0213905773
 20
-13.936116983
 10
-0.0147933671
 20
-13.9746494003
 10
-0.0071963596
 20
-14.0110962979
 10
0.0013291221
 20
-14.0455159361
 10
0.010569108
 20
-14.0780830957
 10
0.0204522749
 20
-14.1088560371
 10
0.031049946
 20
-14.1377764999
 10
0.0423621214
 20
-14.1648444841
  0
LWPOLYLINE
  5
441
100
AcDbEntity
  8
0
100
AcDbPolyline
 62
7
  6
CONTINUOUS
 90
10
 70
0
 10
1.406098262
 20
-13.8529703704
 10
1.4108385239
 20
-13.8955573064
 10
1.4165072599
 20
-13.936116983
 10
1.42310447
 20
-13.9746494003
 10
1.4307014776
 20
-14.0110962979
 10
1.4392269592
 20
-14.0455159361
 10
1.4484669451
 20
-14.0780830957
 10
1.458350112
 20
-14.1088560371
 10
1.4689477831
 20
-14.1377764999
 10
1.4802599585
 20
-14.1648444841
  0
LINE
  5
442
100
AcDbEntity
  8
0
100
AcDbLine
 62
7
  6
CONTINUOUS
 10
0.483802
 20
14.411797
 11
0.698858
 21
12.112007
  0
LINE
  5
443
100
AcDbEntity
  8
0
100
AcDbLine
 62
7
  6
CONTINUOUS
 10
0.229236
 20
12.112007
 11
0.130606
 21
13.607466
  0
LWPOLYLINE
  5
444
100
AcDbEntity
  8
0
100
AcDbPolyline
 62
7
  6
CONTINUOUS
 90
9
 70
0
 10
1.6620638861
 20
-13.8051248915
 10
1.6600240593
 20
-13.7725150822
 10
1.6582370839
 20
-13.7392175631
 10
1.6567029599
 20
-13.7052323343
 10
1.655428365
 20
-13.6705549682
 10
1.6544066216
 20
-13.6351898924
 10
1.6536176961
 20
-13.5991503896
 10
1.6530549109
 20
-13.5624408876
 10
1.6527249437
 20
-13.5250569586
  0
LWPOLYLINE
  5
445
100
AcDbEntity
  8
0
100
AcDbPolyline
 62
7
  6
CONTINUOUS
 90
9
 70
0
 10
2.2538727078
 20
-12.6980635699
 10
2.25580885
 20
-12.7290741394
 10
2.2575314805
 20
-12.7615109505
 10
2.2590405994
 20
-12.7953740032
 10
2.2603434446
 20
-12.8306483391
 10
2.2614327781
 20
-12.8673489166
 10
2.2622868859
 20
-12.9055206114
 10
2.2628985297
 20
-12.945178382
 10
2.2632749476
 20
-12.98630727
  0
LWPOLYLINE
  5
446
100
AcDbEntity
  8
0
100
AcDbPolyline
 62
7
  6
CONTINUOUS
 90
9
 70
0
 10
1.3918550219
 20
-13.497109107
 10
1.3922967129
 20
-13.5470125344
 10
1.3930956191
 20
-13.5953534242
 10
1.3942255301
 20
-13.6421175208
 10
1.3957126563
 20
-13.6873190797
 10
1.3976356295
 20
-13.7310008675
 10
1.4000206601
 20
-13.7731771396
 10
1.4028415376
 20
-13.8138336406
 10
1.406098262
 20
-13.8529703704
  0
LWPOLYLINE
  5
447
100
AcDbEntity
  8
0
100
AcDbPolyline
 62
7
  6
CONTINUOUS
 90
10
 70
0
 10
1.0863763735
 20
-13.0034577608
 10
1.0861540251
 20
-12.956596276
 10
1.0854527431
 20
-12.9105397511
 10
1.0842725273
 20
-12.8652881859
 10
1.0826140035
 20
-12.8207857461
 10
1.080476546
 20
-12.7770882661
 10
1.077858278
 20
-12.7343632494
 10
1.074758574
 20
-12.6926665305
 10
1.0711780595
 20
-12.6519422749
 10
1.0671167345
 20
-12.6121904825
  0
LINE
  5
448
100
AcDbEntity
  8
0
100
AcDbLine
 62
7
  6
CONTINUOUS
 10
0.479694
 20
8.810006
 11
0.479694
 21
11.110007
  0
LINE
  5
449
100
AcDbEntity
  8
0
100
AcDbLine
 62
7
  6
CONTINUOUS
 10
0.750095
 20
10.893686
 11
0.750095
 21
10.104751
  0
LINE
  5
44A
100
AcDbEntity
  8
0
100
AcDbLine
 62
7
  6
CONTINUOUS
 10
0.750095
 20
9.888429
 11
0.750095
 21
9.026327
  0
LINE
  5
44B
100
AcDbEntity
  8
0
100
AcDbLine
 62
7
  6
CONTINUOUS
 10
0.8253773847
 20
-12.98630727
 11
0.8255185768
 21
-13.490179792
  0
LINE
  5
44C
100
AcDbEntity
  8
0
100
AcDbLine
 62
7
  6
CONTINUOUS
 10
1.0863763735
 20
-13.4392807633
 11
1.0863763735
 21
-13.0034577608
  0
LINE
  5
44D
100
AcDbEntity
  8
0
100
AcDbLine
 62
7
  6
CONTINUOUS
 10
1.3917705461
 20
-13.016182518
 11
1.3918550219
 21
-13.497109107
  0
LINE
  5
44E
100
AcDbEntity
  8
0
100
AcDbLine
 62
7
  6
CONTINUOUS
 10
1.497674
 20
10.104751
 11
1.497674
 21
9.888429
  0
LINE
  5
44F
100
AcDbEntity
  8
0
100
AcDbLine
 62
7
  6
CONTINUOUS
 10
1.53903
 20
11.110007
 11
1.53903
 21
10.893686
  0
LINE
  5
450
100
AcDbEntity
  8
0
100
AcDbLine
 62
7
  6
CONTINUOUS
 10
1.561298
 20
9.026327
 11
1.561298
 21
8.810006
  0
LINE
  5
451
100
AcDbEntity
  8
0
100
AcDbLine
 62
7
  6
CONTINUOUS
 10
1.6527249437
 20
-13.5250569586
 11
1.6526277944
 21
-13.0289072752
  0
LWPOLYLINE
  5
452
100
AcDbEntity
  8
0
100
AcDbPolyline
 62
7
  6
CONTINUOUS
 90
10
 70
0
 10
0.2147302315
 20
-13.0289072752
 10
0.2148714236
 20
-12.98630727
 10
0.2152478416
 20
-12.945178382
 10
0.2158594854
 20
-12.9055206114
 10
0.2167135931
 20
-12.8673489166
 10
0.2178029267
 20
-12.8306483391
 10
0.2191057719
 20
-12.7953740032
 10
0.2206148907
 20
-12.7615109505
 10
0.2223375213
 20
-12.7290741394
 10
0.2242736635
 20
-12.6980635699
  0
LWPOLYLINE
  5
453
100
AcDbEntity
  8
0
100
AcDbPolyline
 62
7
  6
CONTINUOUS
 90
10
 70
0
 10
1.6526277944
 20
-13.0289072752
 10
1.6527689866
 20
-12.98630727
 10
1.6531454046
 20
-12.945178382
 10
1.6537570484
 20
-12.9055206114
 10
1.6546111561
 20
-12.8673489166
 10
1.6557004896
 20
-12.8306483391
 10
1.6570033349
 20
-12.7953740032
 10
1.6585124537
 20
-12.7615109505
 10
1.6602350843
 20
-12.7290741394
 10
1.6621712265
 20
-12.6980635699
  0
LWPOLYLINE
  5
454
100
AcDbEntity
  8
0
100
AcDbPolyline
 62
7
  6
CONTINUOUS
 90
10
 70
0
 10
0.8255185768
 20
-13.490179792
 10
0.825376111
 20
-13.5316738268
 10
0.82500115
 20
-13.5717084864
 10
0.8243936939
 20
-13.6102837708
 10
0.823545745
 20
-13.6473849192
 10
0.8224653009
 20
-13.6830266923
 10
0.8211763545
 20
-13.7172533734
 10
0.8196869032
 20
-13.7500797232
 10
0.8179889496
 20
-13.781490981
 10
0.8160824935
 20
-13.8114871466
  0
LWPOLYLINE
  5
455
100
AcDbEntity
  8
0
100
AcDbPolyline
 62
7
  6
CONTINUOUS
 90
10
 70
0
 10
0.2242736635
 20
-12.6980635699
 10
0.2268086591
 20
-12.6650461001
 10
0.2298266478
 20
-12.6336856794
 10
0.2333276298
 20
-12.603982308
 10
0.2373223833
 20
-12.5759929074
 10
0.2418001299
 20
-12.5496605561
 10
0.2467285346
 20
-12.5248144893
 10
0.2520968191
 20
-12.5013977854
 10
0.2579157617
 20
-12.4794673662
 10
0.2641853624
 20
-12.4590232314
  0
LWPOLYLINE
  5
456
100
AcDbEntity
  8
0
100
AcDbPolyline
 62
7
  6
CONTINUOUS
 90
10
 70
0
 10
-0.6218153424
 20
-13.8114871284
 10
-0.6244374863
 20
-13.8428947742
 10
-0.6276151271
 20
-13.872875401
 10
-0.6313482648
 20
-13.9014290087
 10
-0.6356628646
 20
-13.9284214871
 10
-0.6405329613
 20
-13.9539869466
 10
-0.6458806595
 20
-13.9785277174
 10
-0.6516799939
 20
-14.0021779099
 10
-0.6579569298
 20
-14.0248034137
 10
-0.6647114671
 20
-14.046404229
  0
LWPOLYLINE
  5
457
100
AcDbEntity
  8
0
100
AcDbPolyline
 62
7
  6
CONTINUOUS
 90
10
 70
0
 10
0.8160824935
 20
-13.8114871466
 10
0.8134603323
 20
-13.8428949382
 10
0.8102826735
 20
-13.8728756726
 10
0.8065495171
 20
-13.9014293497
 10
0.8022348966
 20
-13.9284218561
 10
0.7973647786
 20
-13.9539873053
 10
0.792017062
 20
-13.9785280372
 10
0.7862177134
 20
-14.0021781653
 10
0.7799407663
 20
-14.0248035761
 10
0.7731862208
 20
-14.0464042696
  0
LWPOLYLINE
  5
458
100
AcDbEntity
  8
0
100
AcDbPolyline
 62
7
  6
CONTINUOUS
 90
10
 70
0
 10
-0.369005644
 20
-13.8463380635
 10
-0.3655760993
 20
-13.8072278967
 10
-0.3624989551
 20
-13.7666000059
 10
-0.3597742113
 20
-13.724454391
 10
-0.3573761156
 20
-13.6808068938
 10
-0.3553304204
 20
-13.6356416725
 10
-0.3537143819
 20
-13.5889112014
 10
-0.3525537524
 20
-13.5405996385
 10
-0.3518227797
 20
-13.4907228258
 10
-0.3515214637
 20
-13.4392807633
  0
LWPOLYLINE
  5
459
100
AcDbEntity
  8
0
100
AcDbPolyline
 62
7
  6
CONTINUOUS
 90
10
 70
0
 10
-0.0270401552
 20
-12.6248962343
 10
-0.0310797443
 20
-12.6650358823
 10
-0.0346369874
 20
-12.7060211772
 10
-0.0377118844
 20
-12.747852119
 10
-0.0403009061
 20
-12.7905440347
 10
-0.0424075818
 20
-12.8340815973
 10
-0.0440424994
 20
-12.8784188251
 10
-0.0452091881
 20
-12.9235403909
 10
-0.0459041186
 20
-12.9694616219
 10
-0.046127291
 20
-13.016182518
  0
LWPOLYLINE
  5
45A
100
AcDbEntity
  8
0
100
AcDbPolyline
 62
7
  6
CONTINUOUS
 90
10
 70
0
 10
-3.5482159287
 20
-12.8763171362
 10
-3.5546719892
 20
-12.8977105828
 10
-3.5616593916
 20
-12.9176199582
 10
-3.5691781358
 20
-12.9360452621
 10
-3.5772759047
 20
-12.9529281999
 10
-3.5859050154
 20
-12.9683270663
 10
-3.5949224195
 20
-12.982416746
 10
-3.6042804342
 20
-12.9952555339
 10
-3.6140267423
 20
-13.006785135
 10
-3.6241613438
 20
-13.0170055495
  0
LWPOLYLINE
  5
45B
100
AcDbEntity
  8
RACCORDO
100
AcDbPolyline
 62
250
  6
CONTINUOUS
 90
16
 70
0
 10
-9.5840895643
 20
-11.8030796844
 10
-9.5886122961
 20
-11.807266331
 10
-9.5929541211
 20
-11.8154615056
 10
-9.5971150394
 20
-11.8274968246
 10
-9.6011178734
 20
-11.8431070465
 10
-9.6049398007
 20
-11.8620963031
 10
-9.6085123539
 20
-11.8844645694
 10
-9.6118443111
 20
-11.9100819957
 10
-9.6149268942
 20
-11.9386853829
 10
-9.6176653018
 20
-11.9701704166
 10
-9.6200580639
 20
-12.0043449782
 10
-9.6221066505
 20
-12.0408539931
 10
-9.6237206707
 20
-12.0793227949
 10
-9.624869994
 20
-12.1193619936
 10
-9.6255847509
 20
-12.1605764674
 10
-9.6258649414
 20
-12.2025314983
  0
LWPOLYLINE
  5
45C
100
AcDbEntity
  8
RACCORDO
100
AcDbPolyline
 62
7
  6
CONTINUOUS
 90
4
 70
0
 10
9.6727097359
 20
2.4877655462
 10
9.6483867546
 20
2.478387637
 10
9.624909443
 20
2.466425108
 10
9.6030304987
 20
2.4522634845
  0
LWPOLYLINE
  5
45D
100
AcDbEntity
  8
RACCORDO
100
AcDbPolyline
 62
250
  6
CONTINUOUS
 90
13
 70
0
 10
10.4808434758
 20
1.7202000995
 10
10.441961686
 20
1.7173530811
 10
10.4037376885
 20
1.7095571536
 10
10.3668179865
 20
1.696944233
 10
10.3318269959
 20
1.6797276971
 10
10.29935653
 20
1.6581987958
 10
10.2699557794
 20
1.6327217401
 10
10.2441219624
 20
1.6037274964
 10
10.2222919422
 20
1.5717064917
 10
10.2048348712
 20
1.5372003551
 10
10.1920459214
 20
1.5007927232
 10
10.1841413022
 20
1.4630993628
 10
10.1812546154
 20
1.4247577736
  0
LWPOLYLINE
  5
45E
100
AcDbEntity
  8
RACCORDO
100
AcDbPolyline
 62
250
  6
CONTINUOUS
 90
13
 70
0
 10
10.4041776388
 20
1.9781437817
 10
10.3652968029
 20
1.9752968931
 10
10.3270735639
 20
1.9675012974
 10
10.2901543969
 20
1.9548888424
 10
10.2551637207
 20
1.9376728444
 10
10.2226933376
 20
1.91614448
 10
10.1932924236
 20
1.8906678614
 10
10.1674582406
 20
1.8616738781
 10
10.1456277255
 20
1.8296529095
 10
10.1281701009
 20
1.7951465306
 10
10.11538063
 20
1.7587383525
 10
10.107475623
 20
1.7210441518
 10
10.1045887783
 20
1.6827014558
  0
LWPOLYLINE
  5
45F
100
AcDbEntity
  8
RACCORDO
100
AcDbPolyline
 62
7
  6
CONTINUOUS
 90
4
 70
0
 10
9.75
 20
2.5000060301
 10
9.723390909
 20
2.4985104886
 10
9.6976274876
 20
2.4944303273
 10
9.6727097359
 20
2.4877655462
  0
LINE
  5
460
100
AcDbEntity
  8
RACCORDO
100
AcDbLine
 62
250
  6
CONTINUOUS
 10
10.9121633529
 20
1.227796223
 11
10.1899160682
 21
1.227796223
  0
LINE
  5
461
100
AcDbEntity
  8
RACCORDO
100
AcDbLine
 62
250
  6
CONTINUOUS
 10
-10.1899160682
 20
1.227796223
 11
-10.9121633529
 21
1.227796223
  0
LINE
  5
462
100
AcDbEntity
  8
RACCORDO
100
AcDbLine
 62
250
  6
CONTINUOUS
 10
10.9229827449
 20
1.7202000995
 11
10.4808434758
 21
1.7202000995
  0
LINE
  5
463
100
AcDbEntity
  8
RACCORDO
100
AcDbLine
 62
250
  6
CONTINUOUS
 10
-10.4808434758
 20
1.7202000995
 11
-10.9229827449
 21
1.7202000995
  0
LINE
  5
464
100
AcDbEntity
  8
RACCORDO
100
AcDbLine
 62
250
  6
CONTINUOUS
 10
10.9612893785
 20
1.9781437817
 11
10.4041776388
 21
1.9781437817
  0
LINE
  5
465
100
AcDbEntity
  8
RACCORDO
100
AcDbLine
 62
250
  6
CONTINUOUS
 10
-10.4041776388
 20
1.9781437817
 11
-10.9612893785
 21
1.9781437817
  0
LINE
  5
466
100
AcDbEntity
  8
RACCORDO
100
AcDbLine
 62
250
  6
CONTINUOUS
 10
10.9645351961
 20
2.1258649447
 11
10.38468937
 21
2.1258649447
  0
LINE
  5
467
100
AcDbEntity
  8
RACCORDO
100
AcDbLine
 62
250
  6
CONTINUOUS
 10
-10.38468937
 20
2.1258649447
 11
-10.9645351961
 21
2.1258649447
  0
LWPOLYLINE
  5
468
100
AcDbEntity
  8
RACCORDO
100
AcDbPolyline
 62
250
  6
CONTINUOUS
 90
13
 70
0
 10
-10.4808434758
 20
1.7202000995
 10
-10.4419626399
 20
1.7173532109
 10
-10.4037394009
 20
1.7095576151
 10
-10.3668202339
 20
1.6969451602
 10
-10.3318295577
 20
1.6797291622
 10
-10.2993591746
 20
1.6582007978
 10
-10.2699582607
 20
1.6327241792
 10
-10.2441240776
 20
1.6037301959
 10
-10.2222935625
 20
1.5717092273
 10
-10.2048359379
 20
1.5372028483
 10
-10.1920464671
 20
1.5007946702
 10
-10.1841414601
 20
1.4631004696
 10
-10.1812546154
 20
1.4247577736
  0
LWPOLYLINE
  5
469
100
AcDbEntity
  8
RACCORDO
100
AcDbPolyline
 62
250
  6
CONTINUOUS
 90
13
 70
0
 10
-10.4041776388
 20
1.9781437817
 10
-10.3652970448
 20
1.9752969266
 10
-10.3270739992
 20
1.9675014157
 10
-10.2901549697
 20
1.9548890802
 10
-10.2551643765
 20
1.9376732213
 10
-10.2226940177
 20
1.916144997
 10
-10.1932930641
 20
1.8906684934
 10
-10.1674587885
 20
1.8616745799
 10
-10.1456281468
 20
1.8296536234
 10
-10.1281703791
 20
1.7951471833
 10
-10.1153807726
 20
1.7587388632
 10
-10.1074756643
 20
1.7210444426
 10
-10.1045887783
 20
1.6827014558
  0
LWPOLYLINE
  5
46A
100
AcDbEntity
  8
0
100
AcDbPolyline
 62
7
  6
CONTINUOUS
 90
10
 70
0
 10
2.5050142975
 20
-12.6121904825
 10
2.4998594055
 20
-12.5718942274
 10
2.493837319
 20
-12.5335096171
 10
2.486948038
 20
-12.4970366517
 10
2.479138351
 20
-12.4625502397
 10
2.4704614696
 20
-12.4299754726
 10
2.4610770286
 20
-12.3990876249
 10
2.4510382397
 20
-12.369811788
 10
2.4402918913
 20
-12.3422228705
 10
2.4288379833
 20
-12.3163208723
  0
LWPOLYLINE
  5
46B
100
AcDbEntity
  8
0
100
AcDbPolyline
 62
7
  6
CONTINUOUS
 90
10
 70
0
 10
2.5242739365
 20
-13.0034577608
 10
2.5240515881
 20
-12.956596276
 10
2.523350306
 20
-12.9105397511
 10
2.5221700903
 20
-12.8652881859
 10
2.5205115665
 20
-12.8207857461
 10
2.5183741089
 20
-12.7770882661
 10
2.515755841
 20
-12.7343632494
 10
2.5126561369
 20
-12.6926665305
 10
2.5090756225
 20
-12.6519422749
 10
2.5050142975
 20
-12.6121904825
  0
LINE
  5
46C
100
AcDbEntity
  8
0
100
AcDbLine
 62
7
  6
CONTINUOUS
 10
2.2632749476
 20
-12.98630727
 11
2.2634161398
 21
-13.490179792
  0
LINE
  5
46D
100
AcDbEntity
  8
0
100
AcDbLine
 62
7
  6
CONTINUOUS
 10
2.5242739365
 20
-13.4392807633
 11
2.5242739365
 21
-13.0034577608
  0
LINE
  5
46E
100
AcDbEntity
  8
0
100
AcDbLine
 62
7
  6
CONTINUOUS
 10
2.8065975821
 20
12.1120071664
 11
2.8065975821
 21
14.3849276465
  0
LINE
  5
46F
100
AcDbEntity
  8
0
100
AcDbLine
 62
7
  6
CONTINUOUS
 10
3.2688043561
 20
14.0200048698
 11
3.2688043561
 21
13.388667771
  0
LINE
  5
470
100
AcDbEntity
  8
0
100
AcDbLine
 62
7
  6
CONTINUOUS
 10
3.2847223015
 20
13.0120177973
 11
3.2847223015
 21
12.1120071664
  0
LINE
  5
471
100
AcDbEntity
  8
0
100
AcDbLine
 62
7
  6
CONTINUOUS
 10
4.0407988352
 20
13.1991183268
 11
4.0407988352
 21
13.185528575
  0
LWPOLYLINE
  5
472
100
AcDbEntity
  8
0
100
AcDbPolyline
 62
7
  6
CONTINUOUS
 90
10
 70
0
 10
2.2634161398
 20
-13.490179792
 10
2.263273674
 20
-13.5316738268
 10
2.262898713
 20
-13.5717084864
 10
2.2622912569
 20
-13.6102837708
 10
2.261443308
 20
-13.6473849192
 10
2.2603628639
 20
-13.6830266923
 10
2.2590739175
 20
-13.7172533734
 10
2.2575844662
 20
-13.7500797232
 10
2.2558865126
 20
-13.781490981
 10
2.2539800565
 20
-13.8114871466
  0
LWPOLYLINE
  5
473
100
AcDbEntity
  8
0
100
AcDbPolyline
 62
7
  6
CONTINUOUS
 90
10
 70
0
 10
1.6621712265
 20
-12.6980635699
 10
1.6647062221
 20
-12.6650461001
 10
1.6677242108
 20
-12.6336856794
 10
1.6712251928
 20
-12.603982308
 10
1.6752199462
 20
-12.5759929074
 10
1.6796976929
 20
-12.5496605561
 10
1.6846260976
 20
-12.5248144893
 10
1.6899943821
 20
-12.5013977854
 10
1.6958133247
 20
-12.4794673662
 10
1.7020829254
 20
-12.4590232314
  0
LWPOLYLINE
  5
474
100
AcDbEntity
  8
0
100
AcDbPolyline
 62
7
  6
CONTINUOUS
 90
10
 70
0
 10
2.2539800565
 20
-13.8114871466
 10
2.2513578953
 20
-13.8428949382
 10
2.2481802365
 20
-13.8728756726
 10
2.2444470801
 20
-13.9014293497
 10
2.2401324596
 20
-13.9284218561
 10
2.2352623416
 20
-13.9539873053
 10
2.229914625
 20
-13.9785280372
 10
2.2241152764
 20
-14.0021781653
 10
2.2178383293
 20
-14.0248035761
 10
2.2110837838
 20
-14.0464042696
  0
LWPOLYLINE
  5
475
100
AcDbEntity
  8
0
100
AcDbPolyline
 62
7
  6
CONTINUOUS
 90
10
 70
0
 10
1.068891919
 20
-13.8463380635
 10
1.0723214778
 20
-13.8072279145
 10
1.0753986437
 20
-13.7666000356
 10
1.0781234169
 20
-13.7244544269
 10
1.080521554
 20
-13.6808069285
 10
1.0825672984
 20
-13.6356417003
 10
1.0841833796
 20
-13.5889112217
 10
1.0853440408
 20
-13.5405996526
 10
1.0860750387
 20
-13.4907228331
 10
1.0863763735
 20
-13.4392807633
  0
LWPOLYLINE
  5
476
100
AcDbEntity
  8
0
100
AcDbPolyline
 62
7
  6
CONTINUOUS
 90
10
 70
0
 10
2.5067897575
 20
-13.8463380455
 10
2.5102192388
 20
-13.8072279209
 10
2.5132963406
 20
-13.7666000594
 10
2.516021063
 20
-13.7244544611
 10
2.5184191648
 20
-13.6808069642
 10
2.5204648871
 20
-13.6356417304
 10
2.5220809531
 20
-13.5889112449
 10
2.5232416039
 20
-13.5405996694
 10
2.5239725983
 20
-13.4907228422
 10
2.5242739365
 20
-13.4392807633
  0
LWPOLYLINE
  5
477
100
AcDbEntity
  8
0
100
AcDbPolyline
 62
7
  6
CONTINUOUS
 90
10
 70
0
 10
1.4108574077
 20
-12.6248962343
 10
1.406817875
 20
-12.6650353346
 10
1.4032606805
 20
-12.7060202621
 10
1.4001858244
 20
-12.7478510171
 10
1.3975968342
 20
-12.7905429846
 10
1.3954901823
 20
-12.8340807794
 10
1.3938552858
 20
-12.8784182457
 10
1.3926886172
 20
-12.9235399983
 10
1.3919937039
 20
-12.9694614224
 10
1.3917705461
 20
-13.016182518
  0
LINE
  5
478
100
AcDbEntity
  8
RACCORDO
100
AcDbLine
 62
250
  6
CONTINUOUS
 10
10.5154079535
 20
26.2216232767
 11
10.5337380986
 21
26.2828653412
  0
LINE
  5
479
100
AcDbEntity
  8
RACCORDO
100
AcDbLine
 62
250
  6
CONTINUOUS
 10
10.9645351961
 20
25.7709349336
 11
10.9828653412
 21
25.8321769981
  0
LWPOLYLINE
  5
47A
100
AcDbEntity
  8
0
100
AcDbPolyline
 62
7
  6
CONTINUOUS
 90
10
 70
0
 10
-1.1737123273
 20
-12.4590231965
 10
-1.1654939197
 20
-12.4363409896
 10
-1.1566752268
 20
-12.4153095619
 10
-1.1472562487
 20
-12.3959289132
 10
-1.137167448
 20
-12.3782424377
 10
-1.1264783621
 20
-12.3622067412
 10
-1.1153976031
 20
-12.3476916423
 10
-1.1039947082
 20
-12.3346537471
 10
-1.0922001403
 20
-12.3231364494
 10
-1.0800138992
 20
-12.3131397493
  0
LWPOLYLINE
  5
47B
100
AcDbEntity
  8
0
100
AcDbPolyline
 62
7
  6
CONTINUOUS
 90
10
 70
0
 10
-1.388589175
 20
-12.3226832509
 10
-1.4000202053
 20
-12.3486472783
 10
-1.4107540343
 20
-12.3764729662
 10
-1.4207906622
 20
-12.4061603147
 10
-1.4301831068
 20
-12.43765314
 10
-1.4388783502
 20
-12.4710076259
 10
-1.4467173385
 20
-12.5063923232
 10
-1.4536470536
 20
-12.5438634155
 10
-1.4597205135
 20
-12.5833647192
 10
-1.4649377182
 20
-12.6248962343
  0
LWPOLYLINE
  5
47C
100
AcDbEntity
  8
0
100
AcDbPolyline
 62
7
  6
CONTINUOUS
 90
10
 70
0
 10
-3.3322959736
 20
-13.0002765715
 10
-3.3237056134
 20
-12.9824730392
 10
-3.3157257305
 20
-12.9645100959
 10
-3.3083563249
 20
-12.9463877418
 10
-3.3016217889
 20
-12.9282113885
 10
-3.2954977302
 20
-12.9098756244
 10
-3.2899109717
 20
-12.8910642142
 10
-3.2848371208
 20
-12.8716717465
 10
-3.28030057
 20
-12.8518036328
 10
-3.2763013193
 20
-12.8314598731
  0
LWPOLYLINE
  5
47D
100
AcDbEntity
  8
0
100
AcDbPolyline
 62
7
  6
CONTINUOUS
 90
10
 70
0
 10
-4.04170129
 20
-12.376763469
 10
-4.0333853577
 20
-12.3644500837
 10
-4.0246862931
 20
-12.3529382067
 10
-4.0156040961
 20
-12.3422278381
 10
-4.0061549577
 20
-12.332346561
 10
-3.9963226869
 20
-12.3232667923
 10
-3.9860587116
 20
-12.3149057822
 10
-3.975346841
 20
-12.3072359475
 10
-3.9642032659
 20
-12.3002848715
 10
-3.9526279862
 20
-12.2940525541
  0
LWPOLYLINE
  5
47E
100
AcDbEntity
  8
RACCORDO
100
AcDbPolyline
 62
7
  6
CONTINUOUS
 90
19
 70
0
 10
-9.1802601072
 20
-11.6599329936
 10
-9.1774231867
 20
-11.6577116958
 10
-9.1754017127
 20
-11.6533488912
 10
-9.1741956854
 20
-11.6469697445
 10
-9.1736592228
 20
-11.6386594933
 10
-9.1739382068
 20
-11.6286096208
 10
-9.1754702828
 20
-11.6172258839
 10
-9.1782345767
 20
-11.6049108993
 10
-9.1822519626
 20
-11.5917976537
 10
-9.1880227083
 20
-11.5779249799
 10
-9.1955769658
 20
-11.5633022826
 10
-9.2048845831
 20
-11.5482465768
 10
-9.2163553717
 20
-11.5332433068
 10
-9.2302049156
 20
-11.5183255342
 10
-9.2462176307
 20
-11.5037783218
 10
-9.2641565765
 20
-11.4905140286
 10
-9.2839427726
 20
-11.4789161035
 10
-9.3056551993
 20
-11.4687994704
 10
-9.3292938566
 20
-11.4602070867
  0
LINE
  5
47F
100
AcDbEntity
  8
DRAFT
100
AcDbLine
 62
7
  6
CONTINUOUS
 10
-9.9473059106
 20
-11.6482376725
 11
-10.1
 21
-11.7626767255
  0
LWPOLYLINE
  5
480
100
AcDbEntity
  8
RACCORDO
100
AcDbPolyline
 62
7
  6
CONTINUOUS
 90
4
 70
0
 10
9.6030304277
 20
-2.4522634329
 10
9.6249093799
 20
-2.4664250694
 10
9.6483867056
 20
-2.4783876136
 10
9.6727097008
 20
-2.4877655348
  0
LINE
  5
481
100
AcDbEntity
  8
DRAFT
100
AcDbLine
 62
7
  6
CONTINUOUS
 10
-9.9473059106
 20
11.6482376725
 11
-10.1
 21
11.7626767255
  0
LINE
  5
482
100
AcDbEntity
  8
0
100
AcDbLine
 62
7
  6
CONTINUOUS
 10
-0.507508
 20
12.112007
 11
-1.070672
 21
13.613726
  0
LINE
  5
483
100
AcDbEntity
  8
0
100
AcDbLine
 62
7
  6
CONTINUOUS
 10
-0.361189
 20
8.810006
 11
-1.134218
 21
10.87778
  0
LINE
  5
484
100
AcDbEntity
  8
0
100
AcDbLine
 62
7
  6
CONTINUOUS
 10
-0.965615
 20
11.110007
 11
-0.192586
 21
9.042233
  0
LINE
  5
485
100
AcDbEntity
  8
RACCORDO
100
AcDbLine
 62
250
  6
CONTINUOUS
 10
10.5154079535
 20
-26.2216232767
 11
10.5337380986
 21
-26.2828653412
  0
LINE
  5
486
100
AcDbEntity
  8
RACCORDO
100
AcDbLine
 62
250
  6
CONTINUOUS
 10
10.9645351961
 20
-25.7709349336
 11
10.9828653412
 21
-25.8321769981
  0
LWPOLYLINE
  5
487
100
AcDbEntity
  8
0
100
AcDbPolyline
 62
7
  6
CONTINUOUS
 90
13
 70
0
 10
3.9160594002
 20
13.7460540991
 10
3.9130168185
 20
13.7817032797
 10
3.9061544422
 20
13.8158691711
 10
3.8954722712
 20
13.8485517733
 10
3.8808104567
 20
13.8802180903
 10
3.8623288476
 20
13.9104011182
 10
3.8405069904
 20
13.9376998448
 10
3.8153382349
 20
13.9618167836
 10
3.7868292314
 20
13.9830494211
 10
3.755479478
 20
14.0008892052
 10
3.7214554739
 20
14.0151666183
 10
3.6845907199
 20
14.0260511778
 10
3.6448852159
 20
14.0335428839
  0
LINE
  5
488
100
AcDbEntity
  8
RACCORDO
100
AcDbLine
 62
7
  6
CONTINUOUS
 10
5.25
 20
-14.8
 11
5.25
 21
-11.8
  0
LINE
  5
489
100
AcDbEntity
  8
RACCORDO
100
AcDbLine
 62
7
  6
CONTINUOUS
 10
5.25
 20
8.7
 11
5.25
 21
14.7
  0
LWPOLYLINE
  5
48A
100
AcDbEntity
  8
0
100
AcDbPolyline
 62
7
  6
CONTINUOUS
 90
10
 70
0
 10
0.2641853624
 20
-12.4590232314
 10
0.2724037933
 20
-12.4363410114
 10
0.2812224972
 20
-12.4153095743
 10
0.290641474
 20
-12.3959289202
 10
0.3007302554
 20
-12.3782424425
 10
0.3114193098
 20
-12.3622067477
 10
0.3225000423
 20
-12.3476916557
 10
0.3339029216
 20
-12.3346537729
 10
0.345697479
 20
-12.3231364929
 10
0.3578837147
 20
-12.3131398155
  0
LWPOLYLINE
  5
48B
100
AcDbEntity
  8
0
100
AcDbPolyline
 62
7
  6
CONTINUOUS
 90
10
 70
0
 10
1.7020829254
 20
-12.4590232314
 10
1.7103013563
 20
-12.4363410114
 10
1.7191200601
 20
-12.4153095743
 10
1.728539037
 20
-12.3959289202
 10
1.7386278184
 20
-12.3782424425
 10
1.7493168727
 20
-12.3622067477
 10
1.7603976053
 20
-12.3476916557
 10
1.7718004846
 20
-12.3346537729
 10
1.783595042
 20
-12.3231364929
 10
1.7957812777
 20
-12.3131398155
  0
LWPOLYLINE
  5
48C
100
AcDbEntity
  8
0
100
AcDbPolyline
 62
7
  6
CONTINUOUS
 90
10
 70
0
 10
-0.6647114671
 20
-14.046404229
 10
-0.6729802449
 20
-14.0689773148
 10
-0.6817706987
 20
-14.0897964404
 10
-0.6910828286
 20
-14.1088616058
 10
-0.7009819996
 20
-14.1260676156
 10
-0.7114028466
 20
-14.1415196651
 10
-0.7221492745
 20
-14.1555333409
 10
-0.7331559181
 20
-14.1682138383
 10
-0.7444881426
 20
-14.179455962
 10
-0.7561459479
 20
-14.1892597119
  0
LWPOLYLINE
  5
48D
100
AcDbEntity
  8
0
100
AcDbPolyline
 62
7
  6
CONTINUOUS
 90
10
 70
0
 10
0.7731862208
 20
-14.0464042696
 10
0.7649174198
 20
-14.0689773602
 10
0.7561269538
 20
-14.0897964912
 10
0.7468148229
 20
-14.1088616626
 10
0.7369156634
 20
-14.1260676827
 10
0.726494839
 20
-14.1415197432
 10
0.7157484403
 20
-14.1555334189
 10
0.7047418309
 20
-14.1682139014
 10
0.6934096472
 20
-14.179455999
 10
0.6817518893
 20
-14.1892597119
  0
LWPOLYLINE
  5
48E
100
AcDbEntity
  8
0
100
AcDbPolyline
 62
7
  6
CONTINUOUS
 90
10
 70
0
 10
-0.4405947672
 20
-14.1614107841
 10
-0.4293022235
 20
-14.1336067984
 10
-0.4188305837
 20
-14.1040549192
 10
-0.4091798477
 20
-14.0727551464
 10
-0.4003318217
 20
-14.0397783201
 10
-0.3923046995
 20
-14.0050536004
 10
-0.3851530624
 20
-13.9683684668
 10
-0.3788951044
 20
-13.9296520795
 10
-0.3735126316
 20
-13.8889752783
 10
-0.369005644
 20
-13.8463380635
  0
LWPOLYLINE
  5
48F
100
AcDbEntity
  8
0
100
AcDbPolyline
 62
7
  6
CONTINUOUS
 90
10
 70
0
 10
0.0493083879
 20
-12.3226832509
 10
0.0378773577
 20
-12.3486472783
 10
0.0271435287
 20
-12.3764729662
 10
0.0171069008
 20
-12.4061603147
 10
0.0077144562
 20
-12.43765314
 10
-0.0009807872
 20
-12.4710076259
 10
-0.0088197755
 20
-12.5063923232
 10
-0.0157494906
 20
-12.5438634155
 10
-0.0218229505
 20
-12.5833647192
 10
-0.0270401552
 20
-12.6248962343
  0
LWPOLYLINE
  5
490
100
AcDbEntity
  8
0
100
AcDbPolyline
 62
7
  6
CONTINUOUS
 90
10
 70
0
 10
-3.5740664249
 20
-14.1105117422
 10
-3.5835668655
 20
-14.1239963162
 10
-3.5933709328
 20
-14.1366468478
 10
-3.603478627
 20
-14.1484633371
 10
-3.613913086
 20
-14.1594369825
 10
-3.6246511718
 20
-14.1695765856
 10
-3.6356234701
 20
-14.1789085504
 10
-3.6468068427
 20
-14.1874416783
 10
-3.6582244278
 20
-14.1951671679
 10
-3.6698762254
 20
-14.2020850192
  0
LWPOLYLINE
  5
491
100
AcDbEntity
  8
0
100
AcDbPolyline
 62
7
  6
CONTINUOUS
 90
10
 70
0
 10
-3.367289101
 20
-14.2536652934
 10
-3.353187523
 20
-14.2347024603
 10
-3.3397955875
 20
-14.2144881572
 10
-3.3271132943
 20
-14.1930223841
 10
-3.3150387857
 20
-14.1702096334
 10
-3.3036739194
 20
-14.1461454127
 10
-3.293324269
 20
-14.1211162444
 10
-3.2840916921
 20
-14.0952176357
 10
-3.275874331
 20
-14.0683540794
 10
-3.2686721857
 20
-14.0405255754
  0
LWPOLYLINE
  5
492
100
AcDbEntity
  8
0
100
AcDbPolyline
 62
7
  6
CONTINUOUS
 90
10
 70
0
 10
-2.346127291
 20
-12.1
 10
-2.3624658644
 20
-12.1200021356
 10
-2.379863481
 20
-12.140173662
 10
-2.398320141
 20
-12.1605145792
 10
-2.4177426054
 20
-12.1809666325
 10
-2.4382241132
 20
-12.2015880767
 10
-2.4600443808
 20
-12.222553676
 10
-2.4832966472
 20
-12.2439216851
 10
-2.5078876735
 20
-12.2656338493
 10
-2.5338174596
 20
-12.2876901686
  0
LWPOLYLINE
  5
493
100
AcDbEntity
  8
0
100
AcDbPolyline
 62
7
  6
CONTINUOUS
 90
10
 70
0
 10
-4.2198478953
 20
-12.2049792426
 10
-4.2453050845
 20
-12.2341011057
 10
-4.2682881573
 20
-12.2669757072
 10
-4.2887971137
 20
-12.3036030471
 10
-4.3070703443
 20
-12.3434950485
 10
-4.3228694585
 20
-12.3871397883
 10
-4.3354792842
 20
-12.436001497
 10
-4.3446614308
 20
-12.4905682513
 10
-4.3506542888
 20
-12.5503519744
 10
-4.3534578584
 20
-12.6153526664
  0
LWPOLYLINE
  5
494
100
AcDbEntity
  8
RACCORDO
100
AcDbPolyline
 62
7
  6
CONTINUOUS
 90
10
 70
0
 10
9.6030304987
 20
2.4522634845
 10
9.5828005792
 20
2.4358310346
 10
9.564169027
 20
2.4171994902
 10
9.5477365671
 20
2.3969695723
 10
9.5335747073
 20
2.3750892098
 10
9.5216119398
 20
2.3516104739
 10
9.5122344652
 20
2.3272902992
 10
9.5055710171
 20
2.3023809971
 10
9.5014928621
 20
2.2766302561
 10
9.5
 20
2.2500380762
  0
LWPOLYLINE
  5
495
100
AcDbEntity
  8
RACCORDO
100
AcDbPolyline
 62
250
  6
CONTINUOUS
 90
19
 70
0
 10
-9.0838070901
 20
-12.8004043376
 10
-9.089181964
 20
-12.8039881732
 10
-9.0942764955
 20
-12.8098542554
 10
-9.0990906848
 20
-12.8180025844
 10
-9.1036531134
 20
-12.8287776374
 10
-9.1079351998
 20
-12.8418349372
 10
-9.1118511986
 20
-12.8561410511
 10
-9.1153564975
 20
-12.871540178
 10
-9.1184957087
 20
-12.888188119
 10
-9.1213169238
 20
-12.9055188457
 10
-9.1238152213
 20
-12.9232825119
 10
-9.1259955225
 20
-12.9417289638
 10
-9.1279206837
 20
-12.9610417112
 10
-9.1296228628
 20
-12.9811146712
 10
-9.1310699019
 20
-13.0020539266
 10
-9.1322281829
 20
-13.0243612356
 10
-9.1330865001
 20
-13.0482038509
 10
-9.1336560594
 20
-13.0734145198
 10
-9.1339368607
 20
-13.0999932422
  0
LWPOLYLINE
  5
496
100
AcDbEntity
  8
RACCORDO
100
AcDbPolyline
 62
250
  6
CONTINUOUS
 90
16
 70
0
 10
-9.4363690968
 20
-11.9528741146
 10
-9.4408900589
 20
-11.9557005947
 10
-9.4452308803
 20
-11.9607875162
 10
-9.4493915608
 20
-11.9681348791
 10
-9.4533954078
 20
-11.9778309233
 10
-9.457219114
 20
-11.9897874088
 10
-9.4607927576
 20
-12.0037396159
 10
-9.4641242519
 20
-12.0197218058
 10
-9.4672056836
 20
-12.0376997172
 10
-9.4699433901
 20
-12.0573058466
 10
-9.4723365317
 20
-12.0786350518
 10
-9.4743859482
 20
-12.1015924749
 10
-9.4760004958
 20
-12.1255260389
 10
-9.4771497933
 20
-12.1502183846
 10
-9.477864222
 20
-12.175886871
 10
-9.4781437817
 20
-12.2025314983
  0
LWPOLYLINE
  5
497
100
AcDbEntity
  8
RACCORDO
100
AcDbPolyline
 62
7
  6
CONTINUOUS
 90
22
 70
0
 10
10.38468937
 20
-2.1258649447
 10
10.3611343782
 20
-2.1092628313
 10
10.338626147
 20
-2.0927506368
 10
10.3171646766
 20
-2.0763283612
 10
10.2968063655
 20
-2.0601236269
 10
10.2774948151
 20
-2.0440088116
 10
10.2590608297
 20
-2.0276010476
 10
10.2414873178
 20
-2.0109019345
 10
10.2247913708
 20
-1.9939098728
 10
10.2088550673
 20
-1.976237196
 10
10.1935739972
 20
-1.9578120528
 10
10.1790525706
 20
-1.9387062946
 10
10.1654860963
 20
-1.9187478084
 10
10.1528128086
 20
-1.8978292219
 10
10.1410944732
 20
-1.8760579074
 10
10.1307116962
 20
-1.8535838689
 10
10.1216884922
 20
-1.8303385501
 10
10.1140008466
 20
-1.8063905073
 10
10.1079573211
 20
-1.7820954137
 10
10.1036607698
 20
-1.7575718268
 10
10.1010083386
 20
-1.732701189
 10
10.1000000276
 20
-1.7074835003
  0
LINE
  5
498
100
AcDbEntity
  8
0
100
AcDbLine
 62
7
  6
CONTINUOUS
 10
-0.946209
 20
14.411797
 11
-0.471223
 21
13.134946
  0
LINE
  5
499
100
AcDbEntity
  8
0
100
AcDbLine
 62
7
  6
CONTINUOUS
 10
2.719243
 20
11.110022
 11
3.384112
 21
8.81
  0
LINE
  5
49A
100
AcDbEntity
  8
0
100
AcDbLine
 62
7
  6
CONTINUOUS
 10
3.104146
 20
8.81
 11
2.941927
 21
9.392179
  0
LINE
  5
49B
100
AcDbEntity
  8
0
100
AcDbLine
 62
7
  6
CONTINUOUS
 10
2.15967
 20
12.112007
 11
2.03531
 21
12.571127
  0
LINE
  5
49C
100
AcDbEntity
  8
0
100
AcDbLine
 62
7
  6
CONTINUOUS
 10
2.878303
 20
9.6085
 11
2.544278
 21
10.858687
  0
LINE
  5
49D
100
AcDbEntity
  8
0
100
AcDbLine
 62
7
  6
CONTINUOUS
 10
1.939371
 20
12.926392
 11
1.718779
 21
13.779873
  0
LWPOLYLINE
  5
49E
100
AcDbEntity
  8
RACCORDO
100
AcDbPolyline
 62
250
  6
CONTINUOUS
 90
16
 70
0
 10
8.0991350553
 20
-13.4446623596
 10
8.1016114964
 20
-13.4799059648
 10
8.1075051251
 20
-13.5134706814
 10
8.1168159416
 20
-13.5453565095
 10
8.13006685
 20
-13.5759697643
 10
8.1467349462
 20
-13.6049041305
 10
8.1652515173
 20
-13.6309406622
 10
8.185282122
 20
-13.6535339432
 10
8.2071612017
 20
-13.6732293896
 10
8.2303233681
 20
-13.6904443038
 10
8.2543622267
 20
-13.705322695
 10
8.2796841719
 20
-13.7177205539
 10
8.3069429989
 20
-13.7276231549
 10
8.3363566396
 20
-13.7350255895
 10
8.3677071621
 20
-13.7399327662
 10
8.4009945665
 20
-13.742344685
  0
LWPOLYLINE
  5
49F
100
AcDbEntity
  8
RACCORDO
100
AcDbPolyline
 62
250
  6
CONTINUOUS
 90
16
 70
0
 10
8.2468565535
 20
-13.4446630362
 10
8.2477568952
 20
-13.46201449
 10
8.2506799301
 20
-13.4788836725
 10
8.2555125108
 20
-13.4950645493
 10
8.2621884374
 20
-13.5104790155
 10
8.2705178761
 20
-13.5248473047
 10
8.2800760582
 20
-13.5377539608
 10
8.2904266219
 20
-13.5489789195
 10
8.3014793309
 20
-13.5587370574
 10
8.3133244999
 20
-13.5672932506
 10
8.3257189519
 20
-13.5745618503
 10
8.3386276603
 20
-13.5805882558
 10
8.3526210613
 20
-13.5855915191
 10
8.3678692798
 20
-13.5894319779
 10
8.3840411081
 20
-13.5918160713
 10
8.4009950917
 20
-13.5925500987
  0
LWPOLYLINE
  5
4A0
100
AcDbEntity
  8
RACCORDO
100
AcDbPolyline
 62
250
  6
CONTINUOUS
 90
19
 70
0
 10
8.2468564456
 20
13.4446630682
 10
8.2474884475
 20
13.4594596662
 10
8.2496056313
 20
13.4739563319
 10
8.2531486718
 20
13.488021105
 10
8.2580843362
 20
13.5016046868
 10
8.2643092167
 20
13.5145164942
 10
8.2715828751
 20
13.5264576968
 10
8.2797285358
 20
13.537337241
 10
8.2886217192
 20
13.5471701219
 10
8.2980265669
 20
13.5558911849
 10
8.307655834
 20
13.563422441
 10
8.3175043035
 20
13.5699211618
 10
8.3278131396
 20
13.5756344628
 10
8.338490332
 20
13.5805310126
 10
8.3494980231
 20
13.5846032253
 10
8.3612511269
 20
13.5879605862
 10
8.3738723374
 20
13.5905121633
 10
8.3871461537
 20
13.5920826886
 10
8.4009949328
 20
13.5925501459
  0
LWPOLYLINE
  5
4A1
100
AcDbEntity
  8
RACCORDO
100
AcDbPolyline
 62
250
  6
CONTINUOUS
 90
19
 70
0
 10
8.0991350553
 20
13.4446627232
 10
8.1008479376
 20
13.4745976434
 10
8.1051709449
 20
13.5034650382
 10
8.1121040772
 20
13.5312649075
 10
8.1219471329
 20
13.5583014408
 10
8.1344003137
 20
13.5842704487
 10
8.1485642239
 20
13.6082593625
 10
8.1644751028
 20
13.6300177678
 10
8.1820967112
 20
13.6497960792
 10
8.200420936
 20
13.6674329718
 10
8.2190881458
 20
13.6827066
 10
8.238457972
 20
13.6958388095
 10
8.258601196
 20
13.7073338133
 10
8.2793506299
 20
13.7173813958
 10
8.3008734617
 20
13.7257917727
 10
8.3237420367
 20
13.7324998041
 10
8.3481471367
 20
13.7374837766
 10
8.37389798
 20
13.7407654036
 10
8.4009945665
 20
13.742344685
  0
LWPOLYLINE
  5
4A2
100
AcDbEntity
  8
RACCORDO
100
AcDbPolyline
 62
250
  6
CONTINUOUS
 90
13
 70
0
 10
8.36067643
 20
13.4108335738
 10
8.3620998746
 20
13.430273992
 10
8.3659976728
 20
13.4493856116
 10
8.3723039005
 20
13.4678451953
 10
8.3809118996
 20
13.4853405334
 10
8.3916760818
 20
13.5015757249
 10
8.4044143911
 20
13.5162761819
 10
8.4189113826
 20
13.5291932733
 10
8.4349218668
 20
13.5401085307
 10
8.4521750561
 20
13.5488373429
 10
8.470379145
 20
13.5552320782
 10
8.4892262452
 20
13.5591845816
 10
8.508397593
 20
13.560628004
  0
LINE
  5
4A3
100
AcDbEntity
  8
0
100
AcDbLine
 62
7
  6
CONTINUOUS
 10
3.211410825
 20
-13.6015214175
 11
3.5454355642
 21
-12.3513139546
  0
LINE
  5
4A4
100
AcDbEntity
  8
0
100
AcDbLine
 62
7
  6
CONTINUOUS
 10
2.9823651955
 20
-14.4
 11
3.1446059868
 21
-13.8178422898
  0
LINE
  5
4A5
100
AcDbEntity
  8
0
100
AcDbLine
 62
7
  6
CONTINUOUS
 10
3.3863763735
 20
-12.1
 11
2.7119642422
 21
-14.4
  0
LWPOLYLINE
  5
4A6
100
AcDbEntity
  8
0
100
AcDbPolyline
 62
7
  6
CONTINUOUS
 90
10
 70
0
 10
2.2110837838
 20
-14.0464042696
 10
2.2028149827
 20
-14.0689773602
 10
2.1940245168
 20
-14.0897964912
 10
2.1847123858
 20
-14.1088616626
 10
2.1748132264
 20
-14.1260676827
 10
2.164392402
 20
-14.1415197432
 10
2.1536460033
 20
-14.1555334189
 10
2.1426393939
 20
-14.1682139014
 10
2.1313072102
 20
-14.179455999
 10
2.1196494523
 20
-14.1892597119
  0
LWPOLYLINE
  5
4A7
100
AcDbEntity
  8
0
100
AcDbPolyline
 62
7
  6
CONTINUOUS
 90
10
 70
0
 10
0.99730307
 20
-14.1614107841
 10
1.0085955969
 20
-14.1336068075
 10
1.0190672135
 20
-14.1040549347
 10
1.0287179197
 20
-14.0727551656
 10
1.0375659053
 20
-14.0397783397
 10
1.0455929804
 20
-14.0050536175
 10
1.0527445763
 20
-13.9683684807
 10
1.0590025032
 20
-13.9296520896
 10
1.0643849508
 20
-13.8889752839
 10
1.068891919
 20
-13.8463380635
  0
LWPOLYLINE
  5
4A8
100
AcDbEntity
  8
0
100
AcDbPolyline
 62
7
  6
CONTINUOUS
 90
10
 70
0
 10
2.435200633
 20
-14.1614107841
 10
2.4464931946
 20
-14.1336067963
 10
2.4569648532
 20
-14.1040549161
 10
2.4666156088
 20
-14.0727551435
 10
2.4754636623
 20
-14.0397783203
 10
2.4834908128
 20
-14.0050536047
 10
2.4906424579
 20
-13.9683684719
 10
2.4969003966
 20
-13.9296520803
 10
2.5022828298
 20
-13.8889752715
 10
2.5067897575
 20
-13.8463380455
  0
LWPOLYLINE
  5
4A9
100
AcDbEntity
  8
0
100
AcDbPolyline
 62
7
  6
CONTINUOUS
 90
10
 70
0
 10
1.4872059509
 20
-12.3226832509
 10
1.4757749207
 20
-12.3486472783
 10
1.4650410916
 20
-12.3764729662
 10
1.4550044638
 20
-12.4061603147
 10
1.4456120192
 20
-12.43765314
 10
1.4369167757
 20
-12.4710076259
 10
1.4290777875
 20
-12.5063923232
 10
1.4221480724
 20
-12.5438634155
 10
1.4160746125
 20
-12.5833647192
 10
1.4108574077
 20
-12.6248962343
  0
LWPOLYLINE
  5
4AA
100
AcDbEntity
  8
0
100
AcDbPolyline
 62
7
  6
CONTINUOUS
 90
10
 70
0
 10
-2.3747579947
 20
-12.4213001192
 10
-2.3944741196
 20
-12.4409520788
 10
-2.4141042045
 20
-12.4601297093
 10
-2.4336482496
 20
-12.4788330108
 10
-2.45308925
 20
-12.4970816911
 10
-2.4724442106
 20
-12.5148560424
 10
-2.4917641451
 20
-12.5320969407
 10
-2.5110660583
 20
-12.5487846779
 10
-2.5303329454
 20
-12.5649389622
 10
-2.5495648064
 20
-12.5805597935
  0
LWPOLYLINE
  5
4AB
100
AcDbEntity
  8
0
100
AcDbPolyline
 62
7
  6
CONTINUOUS
 90
10
 70
0
 10
-3.6241613438
 20
-13.0170055495
 10
-3.6369526824
 20
-13.0285216934
 10
-3.6502911396
 20
-13.0391479107
 10
-3.6641767153
 20
-13.0488842013
 10
-3.6785065602
 20
-13.0577032917
 10
-3.6933835236
 20
-13.0656324555
 10
-3.7091161542
 20
-13.0727535133
 10
-3.7258073015
 20
-13.0790937387
 10
-3.7433541159
 20
-13.0846258583
 10
-3.7617565975
 20
-13.0893498719
  0
LWPOLYLINE
  5
4AC
100
AcDbEntity
  8
0
100
AcDbPolyline
 62
7
  6
CONTINUOUS
 90
10
 70
0
 10
-2.5338174596
 20
-12.2876901686
 10
-2.5600666335
 20
-12.3094143967
 10
-2.5855723108
 20
-12.330124273
 10
-2.6103344916
 20
-12.3498197975
 10
-2.6343353313
 20
-12.368498819
 10
-2.6575926746
 20
-12.3861634886
 10
-2.680160055
 20
-12.4028202596
 10
-2.7020553173
 20
-12.4184712829
 10
-2.7232606167
 20
-12.4331144076
 10
-2.7437759534
 20
-12.4467496336
  0
LINE
  5
4AD
100
AcDbEntity
  8
RACCORDO
100
AcDbLine
 62
7
  6
CONTINUOUS
 10
-9.2228681569
 20
-11.6765986497
 11
-9.1802601072
 21
-11.6599329936
  0
LWPOLYLINE
  5
4AE
100
AcDbEntity
  8
RACCORDO
100
AcDbPolyline
 62
7
  6
CONTINUOUS
 90
3
 70
0
 10
-9.2642147691
 20
-11.6925138759
 10
-9.2505281279
 20
-11.6872944123
 10
-9.2228681569
 20
-11.6765986497
  0
LWPOLYLINE
  5
4AF
100
AcDbEntity
  8
RACCORDO
100
AcDbPolyline
 62
7
  6
CONTINUOUS
 90
3
 70
0
 10
-9.3049020021
 20
-11.7076485572
 10
-9.2914128555
 20
-11.7026903906
 10
-9.2642147691
 20
-11.6925138759
  0
LWPOLYLINE
  5
4B0
100
AcDbEntity
  8
RACCORDO
100
AcDbPolyline
 62
7
  6
CONTINUOUS
 90
3
 70
0
 10
-9.3049020021
 20
11.7076485572
 10
-9.2778504445
 20
11.6976454968
 10
-9.2642147691
 20
11.6925138759
  0
LINE
  5
4B1
100
AcDbEntity
  8
RACCORDO
100
AcDbLine
 62
7
  6
CONTINUOUS
 10
-9.2642147691
 20
11.6925138759
 11
-9.2367682223
 21
11.6819882215
  0
LWPOLYLINE
  5
4B2
100
AcDbEntity
  8
RACCORDO
100
AcDbPolyline
 62
7
  6
CONTINUOUS
 90
3
 70
0
 10
-9.2367682223
 20
11.6819882215
 10
-9.1946029502
 20
11.6655715934
 10
-9.1802601072
 20
11.6599329936
  0
LINE
  5
4B3
100
AcDbEntity
  8
0
100
AcDbLine
 62
7
  6
CONTINUOUS
 10
1.959997
 20
14.411797
 11
2.66563
 21
12.112007
  0
LINE
  5
4B4
100
AcDbEntity
  8
0
100
AcDbLine
 62
7
  6
CONTINUOUS
 10
4.0198623394
 20
12.1120071664
 11
3.9487462215
 21
12.3554833372
  0
LWPOLYLINE
  5
4B5
100
AcDbEntity
  8
0
100
AcDbPolyline
 62
7
  6
CONTINUOUS
 90
6
 70
0
 10
3.9487462215
 20
12.3554833372
 10
3.9044036762
 20
12.5125634427
 10
3.8819017444
 20
12.5890775022
 10
3.8584843067
 20
12.6639882382
 10
3.8344988964
 20
12.7374219814
 10
3.8099455134
 20
12.8093787318
  0
LINE
  5
4B6
100
AcDbEntity
  8
0
100
AcDbLine
 62
7
  6
CONTINUOUS
 10
4.3175089464
 20
12.7344626381
 11
4.3737684033
 21
12.5235939684
  0
LINE
  5
4B7
100
AcDbEntity
  8
0
100
AcDbLine
 62
7
  6
CONTINUOUS
 10
4.3737684033
 20
12.5235939684
 11
4.4816207207
 21
12.1120071664
  0
LWPOLYLINE
  5
4B8
100
AcDbEntity
  8
RACCORDO
100
AcDbPolyline
 62
250
  6
CONTINUOUS
 90
13
 70
0
 10
8.9909750246
 20
-13.7271871426
 10
8.9895515803
 20
-13.7077467247
 10
8.9856537824
 20
-13.6886351052
 10
8.9793475549
 20
-13.6701755217
 10
8.9707395559
 20
-13.6526801836
 10
8.9599753737
 20
-13.6364449921
 10
8.9472370644
 20
-13.6217445351
 10
8.9327400728
 20
-13.6088274435
 10
8.9167295885
 20
-13.597912186
 10
8.899476399
 20
-13.5891833737
 10
8.88127231
 20
-13.5827886383
 10
8.8624252096
 20
-13.5788361348
 10
8.8432538616
 20
-13.5773927124
  0
LWPOLYLINE
  5
4B9
100
AcDbEntity
  8
RACCORDO
100
AcDbPolyline
 62
250
  6
CONTINUOUS
 90
13
 70
0
 10
9.0838072388
 20
-13.6995956182
 10
9.082383798
 20
-13.6801552245
 10
9.078486009
 20
-13.6610436253
 10
9.0721797944
 20
-13.6425840571
 10
9.0635718113
 20
-13.62508873
 10
9.0528076462
 20
-13.6088535436
 10
9.0400693517
 20
-13.5941530842
 10
9.0255723701
 20
-13.5812359836
 10
9.0095618896
 20
-13.5703207125
 10
8.9923086944
 20
-13.5615918836
 10
8.9741045885
 20
-13.5551971317
 10
8.9552574609
 20
-13.5512446155
 10
8.9360860759
 20
-13.549801188
  0
LWPOLYLINE
  5
4BA
100
AcDbEntity
  8
RACCORDO
100
AcDbPolyline
 62
250
  6
CONTINUOUS
 90
13
 70
0
 10
9.4363690968
 20
-14.5471258854
 10
9.4377923113
 20
-14.5665646905
 10
9.4416895585
 20
-14.5856750991
 10
9.4479950565
 20
-14.6041339123
 10
9.4566022987
 20
-14.6216289389
 10
9.4673658275
 20
-14.6378642281
 10
9.4801036701
 20
-14.6525650886
 10
9.4946004804
 20
-14.6654828209
 10
9.5106111257
 20
-14.6763988476
 10
9.5278647715
 20
-14.6851284078
 10
9.5460695822
 20
-14.6915237743
 10
9.5649176789
 20
-14.6954767212
 10
9.5840902598
 20
-14.6969203156
  0
LWPOLYLINE
  5
4BB
100
AcDbEntity
  8
RACCORDO
100
AcDbPolyline
 62
7
  6
CONTINUOUS
 90
10
 70
0
 10
9.5
 20
-2.2500380762
 10
9.5014928615
 20
-2.2766302445
 10
9.5055710128
 20
-2.3023809738
 10
9.5122344538
 20
-2.3272902641
 10
9.5216119163
 20
-2.3516104249
 10
9.5335746687
 20
-2.3750891468
 10
9.5477365155
 20
-2.3969695013
 10
9.5641689654
 20
-2.4171994208
 10
9.5828005098
 20
-2.435830973
 10
9.6030304277
 20
-2.4522634329
  0
LINE
  5
4BC
100
AcDbEntity
  8
RACCORDO
100
AcDbLine
 62
250
  6
CONTINUOUS
 10
8.9905906613
 20
-11.8100242845
 11
8.9899910986
 21
-11.7968815813
  0
LINE
  5
4BD
100
AcDbEntity
  8
RACCORDO
100
AcDbLine
 62
250
  6
CONTINUOUS
 10
8.9905906613
 20
14.6899757155
 11
8.9899910986
 21
14.7031184187
  0
LWPOLYLINE
  5
4BE
100
AcDbEntity
  8
RACCORDO
100
AcDbPolyline
 62
250
  6
CONTINUOUS
 90
51
 70
0
 10
8.9899910986
 20
-11.7968815813
 10
8.9897678518
 20
-11.7914796218
 10
8.9896719265
 20
-11.7887015683
 10
8.989591756
 20
-11.7858593896
 10
8.9895302657
 20
-11.7829576556
 10
8.9894976448
 20
-11.7799729732
 10
8.9894977188
 20
-11.7769041399
 10
8.9895356188
 20
-11.7737570277
 10
8.9896259346
 20
-11.7705198039
 10
8.9897734928
 20
-11.7671952683
 10
8.9899846864
 20
-11.7637874427
 10
8.9902785168
 20
-11.7602874671
 10
8.9906618139
 20
-11.7566951508
 10
8.9911415929
 20
-11.7530206311
 10
8.9917383427
 20
-11.7492716435
 10
8.992459593
 20
-11.7454519672
 10
8.9933119765
 20
-11.7415708161
 10
8.9943143345
 20
-11.7376447085
 10
8.9954724522
 20
-11.7336845125
 10
8.9967931609
 20
-11.7296950137
 10
8.9982966032
 20
-11.7256844463
 10
8.9999934667
 20
-11.7216540564
 10
9.001885783
 20
-11.7176227492
 10
9.0039788219
 20
-11.7136249247
 10
9.0062880398
 20
-11.7096551177
 10
9.0088055101
 20
-11.7057398762
 10
9.0114929562
 20
-11.7019547246
 10
9.014346473
 20
-11.6983094059
 10
9.0173623057
 20
-11.6948029999
 10
9.0204917805
 20
-11.6914834836
 10
9.0237190086
 20
-11.6883589878
 10
9.0270435738
 20
-11.685417694
 10
9.0304347549
 20
-11.6826698429
 10
9.0338743043
 20
-11.6801181757
 10
9.0373638064
 20
-11.6777504498
 10
9.0409022565
 20
-11.675553237
 10
9.0444760222
 20
-11.6735256218
 10
9.048085931
 20
-11.6716604218
 10
9.0517550564
 20
-11.6699387482
 10
9.0554760744
 20
-11.6683591644
 10
9.0592475313
 20
-11.6669203802
 10
9.0631037987
 20
-11.6656098297
 10
9.0670403428
 20
-11.6644280827
 10
9.0710552462
 20
-11.6633779322
 10
9.0751884591
 20
-11.6624563957
 10
9.0794483154
 20
-11.6616646971
 10
9.0838206275
 20
-11.6610115751
 10
9.088311806
 20
-11.6605076272
 10
9.0929214275
 20
-11.6601585235
 10
9.097642342
 20
-11.659965795
 10
9.1024704672
 20
-11.6599329936
  0
LWPOLYLINE
  5
4BF
100
AcDbEntity
  8
RACCORDO
100
AcDbPolyline
 62
250
  6
CONTINUOUS
 90
51
 70
0
 10
8.9899910986
 20
14.7031184187
 10
8.9897678518
 20
14.7085203782
 10
8.9896719265
 20
14.7112984317
 10
8.989591756
 20
14.7141406104
 10
8.9895302657
 20
14.7170423444
 10
8.9894976448
 20
14.7200270268
 10
8.9894977188
 20
14.7230958601
 10
8.9895356188
 20
14.7262429723
 10
8.9896259346
 20
14.7294801961
 10
8.9897734928
 20
14.7328047317
 10
8.9899846864
 20
14.7362125573
 10
8.9902785168
 20
14.7397125329
 10
8.9906618139
 20
14.7433048492
 10
8.9911415929
 20
14.7469793689
 10
8.9917383427
 20
14.7507283565
 10
8.992459593
 20
14.7545480328
 10
8.9933119765
 20
14.7584291839
 10
8.9943143345
 20
14.7623552915
 10
8.9954724522
 20
14.7663154875
 10
8.9967931609
 20
14.7703049863
 10
8.9982966032
 20
14.7743155537
 10
8.9999934667
 20
14.7783459436
 10
9.001885783
 20
14.7823772508
 10
9.0039788219
 20
14.7863750753
 10
9.0062880398
 20
14.7903448823
 10
9.0088055101
 20
14.7942601238
 10
9.0114929562
 20
14.7980452754
 10
9.014346473
 20
14.8016905941
 10
9.0173623057
 20
14.8051970001
 10
9.0204917805
 20
14.8085165164
 10
9.0237190086
 20
14.8116410122
 10
9.0270435738
 20
14.814582306
 10
9.0304347549
 20
14.8173301571
 10
9.0338743043
 20
14.8198818243
 10
9.0373638064
 20
14.8222495502
 10
9.0409022565
 20
14.824446763
 10
9.0444760222
 20
14.8264743782
 10
9.048085931
 20
14.8283395782
 10
9.0517550564
 20
14.8300612518
 10
9.0554760744
 20
14.8316408356
 10
9.0592475313
 20
14.8330796198
 10
9.0631037987
 20
14.8343901703
 10
9.0670403428
 20
14.8355719173
 10
9.0710552462
 20
14.8366220678
 10
9.0751884591
 20
14.8375436043
 10
9.0794483154
 20
14.8383353029
 10
9.0838206275
 20
14.8389884249
 10
9.088311806
 20
14.8394923728
 10
9.0929214275
 20
14.8398414765
 10
9.097642342
 20
14.840034205
 10
9.1024704672
 20
14.8400670064
  0
LINE
  5
4C0
100
AcDbEntity
  8
RACCORDO
100
AcDbLine
 62
250
  6
CONTINUOUS
 10
8.9907999727
 20
-11.8152575202
 11
8.9905906613
 21
-11.8100242845
  0
LINE
  5
4C1
100
AcDbEntity
  8
RACCORDO
100
AcDbLine
 62
250
  6
CONTINUOUS
 10
8.9907999727
 20
14.6847424798
 11
8.9905906613
 21
14.6899757155
  0
LINE
  5
4C2
100
AcDbEntity
  8
RACCORDO
100
AcDbLine
 62
250
  6
CONTINUOUS
 10
8.990983984
 20
-11.8204970695
 11
8.9907999727
 21
-11.8152575202
  0
LINE
  5
4C3
100
AcDbEntity
  8
RACCORDO
100
AcDbLine
 62
250
  6
CONTINUOUS
 10
8.990983984
 20
14.6795029305
 11
8.9907999727
 21
14.6847424798
  0
LWPOLYLINE
  5
4C4
100
AcDbEntity
  8
RACCORDO
100
AcDbPolyline
 62
250
  6
CONTINUOUS
 90
16
 70
0
 10
8.986215751
 20
-13.0999932422
 10
8.9859023649
 20
-13.0847681986
 10
8.9850978961
 20
-13.0697959273
 10
8.9838023447
 20
-13.0552246533
 10
8.9819893133
 20
-13.0412075147
 10
8.9796851992
 20
-13.0278588388
 10
8.9769691943
 20
-13.0152596488
 10
8.9738556224
 20
-13.0035741482
 10
8.9703301597
 20
-12.992847715
 10
8.9664290273
 20
-12.9830212517
 10
8.9621318496
 20
-12.9741948469
 10
8.9574590021
 20
-12.9665507552
 10
8.9525078324
 20
-12.9602042097
 10
8.9473107897
 20
-12.9552824817
 10
8.9418354248
 20
-12.9519115397
 10
8.8432538616
 20
-12.9226072876
  0
LWPOLYLINE
  5
4C5
100
AcDbEntity
  8
RACCORDO
100
AcDbPolyline
 62
250
  6
CONTINUOUS
 90
19
 70
0
 10
9.4781437817
 20
-12.2025314983
 10
9.4778747519
 20
-12.1772683264
 10
9.4772400017
 20
-12.1530399199
 10
9.476239531
 20
-12.1298462787
 10
9.4748213423
 20
-12.1074500197
 10
9.4730374332
 20
-12.086088526
 10
9.4710437961
 20
-12.066473947
 10
9.4688530121
 20
-12.0488818507
 10
9.4664525002
 20
-12.0330366691
 10
9.46396051
 20
-12.0188238467
 10
9.4614244577
 20
-12.0063484091
 10
9.4587969273
 20
-11.9955053308
 10
9.4560539204
 20
-11.9858649804
 10
9.4532153556
 20
-11.9772673617
 10
9.4502613143
 20
-11.9698724709
 10
9.4471080432
 20
-11.963730665
 10
9.4437276243
 20
-11.9588587299
 10
9.4401479755
 20
-11.9552398798
 10
9.4363690968
 20
-11.9528741146
  0
LWPOLYLINE
  5
4C6
100
AcDbEntity
  8
RACCORDO
100
AcDbPolyline
 62
250
  6
CONTINUOUS
 90
19
 70
0
 10
9.4781437817
 20
14.2974685017
 10
9.4778747519
 20
14.3227316736
 10
9.4772400017
 20
14.3469600801
 10
9.476239531
 20
14.3701537213
 10
9.4748213423
 20
14.3925499803
 10
9.4730374332
 20
14.413911474
 10
9.4710437961
 20
14.433526053
 10
9.4688530121
 20
14.4511181493
 10
9.4664525002
 20
14.4669633309
 10
9.46396051
 20
14.4811761533
 10
9.4614244577
 20
14.4936515909
 10
9.4587969273
 20
14.5044946692
 10
9.4560539204
 20
14.5141350196
 10
9.4532153556
 20
14.5227326383
 10
9.4502613143
 20
14.5301275291
 10
9.4471080432
 20
14.536269335
 10
9.4437276243
 20
14.5411412701
 10
9.4401479755
 20
14.5447601202
 10
9.4363690968
 20
14.5471258854
  0
LWPOLYLINE
  5
4C7
100
AcDbEntity
  8
RACCORDO
100
AcDbPolyline
 62
250
  6
CONTINUOUS
 90
16
 70
0
 10
9.1339368607
 20
-13.0999932422
 10
9.1336250232
 20
-13.0690797338
 10
9.1328213658
 20
-13.0392338557
 10
9.1315258884
 20
-13.010455608
 10
9.1297116066
 20
-12.9825286297
 10
9.1274055048
 20
-12.9556692817
 10
9.1246885366
 20
-12.9305266467
 10
9.1215764911
 20
-12.9071912766
 10
9.1180535792
 20
-12.8855726195
 10
9.1141533878
 20
-12.8660481014
 10
9.1098533869
 20
-12.8484927315
 10
9.1051761064
 20
-12.8330315006
 10
9.1002227229
 20
-12.8204168072
 10
9.0950269619
 20
-12.8108994506
 10
9.0895550978
 20
-12.8042286314
 10
9.0838071307
 20
-12.8004043497
  0
LWPOLYLINE
  5
4C8
100
AcDbEntity
  8
RACCORDO
100
AcDbPolyline
 62
250
  6
CONTINUOUS
 90
19
 70
0
 10
9.6258649393
 20
-12.2025314983
 10
9.6255954733
 20
-12.1626187485
 10
9.6249604718
 20
-12.1237374354
 10
9.6239599349
 20
-12.08623517
 10
9.622541977
 20
-12.050197935
 10
9.6207584837
 20
-12.0161258489
 10
9.6187651114
 20
-11.9848394086
 10
9.6165742734
 20
-11.9566396274
 10
9.6141735565
 20
-11.9312770724
 10
9.6116813778
 20
-11.9085992719
 10
9.609145122
 20
-11.8887519737
 10
9.6065174045
 20
-11.8714036053
 10
9.6037744879
 20
-11.855865098
 10
9.6009366107
 20
-11.842221104
 10
9.5979835344
 20
-11.8305197302
 10
9.5948308064
 20
-11.8204501152
 10
9.5914502759
 20
-11.8122308219
 10
9.5878700937
 20
-11.8063326217
 10
9.5840902598
 20
-11.8030796844
  0
LWPOLYLINE
  5
4C9
100
AcDbEntity
  8
RACCORDO
100
AcDbPolyline
 62
250
  6
CONTINUOUS
 90
19
 70
0
 10
9.6258649393
 20
14.2974685017
 10
9.6255954733
 20
14.3373812515
 10
9.6249604718
 20
14.3762625646
 10
9.6239599349
 20
14.41376483
 10
9.622541977
 20
14.449802065
 10
9.6207584837
 20
14.4838741511
 10
9.6187651114
 20
14.5151605914
 10
9.6165742734
 20
14.5433603726
 10
9.6141735565
 20
14.5687229276
 10
9.6116813778
 20
14.5914007281
 10
9.609145122
 20
14.6112480263
 10
9.6065174045
 20
14.6285963947
 10
9.6037744879
 20
14.644134902
 10
9.6009366107
 20
14.657778896
 10
9.5979835344
 20
14.6694802698
 10
9.5948308064
 20
14.6795498848
 10
9.5914502759
 20
14.6877691781
 10
9.5878700937
 20
14.6936673783
 10
9.5840902598
 20
14.6969203156
  0
LINE
  5
4CA
100
AcDbEntity
  8
RACCORDO
100
AcDbLine
 62
250
  6
CONTINUOUS
 10
8.0991350553
 20
-13.0553368642
 11
8.0991350553
 21
-13.4446623596
  0
LINE
  5
4CB
100
AcDbEntity
  8
RACCORDO
100
AcDbLine
 62
250
  6
CONTINUOUS
 10
8.0991350553
 20
13.0553368642
 11
8.0991350553
 21
13.4446627232
  0
LINE
  5
4CC
100
AcDbEntity
  8
RACCORDO
100
AcDbLine
 62
250
  6
CONTINUOUS
 10
8.2468562183
 20
-13.0553368642
 11
8.2468562183
 21
-13.4446631358
  0
LINE
  5
4CD
100
AcDbEntity
  8
RACCORDO
100
AcDbLine
 62
250
  6
CONTINUOUS
 10
8.2468562183
 20
13.0553368642
 11
8.2468562183
 21
13.4446631358
  0
LINE
  5
4CE
100
AcDbEntity
  8
RACCORDO
100
AcDbLine
 62
250
  6
CONTINUOUS
 10
8.36067643
 20
13.4108335738
 11
8.36067643
 21
13.0891664262
  0
LINE
  5
4CF
100
AcDbEntity
  8
RACCORDO
100
AcDbLine
 62
250
  6
CONTINUOUS
 10
8.36067643
 20
-13.0891664262
 11
8.36067643
 21
-13.4108335738
  0
LINE
  5
4D0
100
AcDbEntity
  8
RACCORDO
100
AcDbLine
 62
250
  6
CONTINUOUS
 10
8.4009945665
 20
12.9074497452
 11
8.4009945665
 21
12.757655315
  0
LINE
  5
4D1
100
AcDbEntity
  8
RACCORDO
100
AcDbLine
 62
250
  6
CONTINUOUS
 10
8.4009945665
 20
-12.757655315
 11
8.4009945665
 21
-12.9074497452
  0
LINE
  5
4D2
100
AcDbEntity
  8
RACCORDO
100
AcDbLine
 62
250
  6
CONTINUOUS
 10
8.4009945665
 20
-13.742344685
 11
8.4009945665
 21
-13.5925502548
  0
LINE
  5
4D3
100
AcDbEntity
  8
RACCORDO
100
AcDbLine
 62
250
  6
CONTINUOUS
 10
8.4009945665
 20
13.5925502548
 11
8.4009945665
 21
13.742344685
  0
LINE
  5
4D4
100
AcDbEntity
  8
RACCORDO
100
AcDbLine
 62
250
  6
CONTINUOUS
 10
8.4985711481
 20
-14.6795055934
 11
8.4985711481
 21
-13.5925502548
  0
LINE
  5
4D5
100
AcDbEntity
  8
RACCORDO
100
AcDbLine
 62
250
  6
CONTINUOUS
 10
8.4985711481
 20
-12.9074497452
 11
8.4985711481
 21
-11.8204944066
  0
LINE
  5
4D6
100
AcDbEntity
  8
RACCORDO
100
AcDbLine
 62
250
  6
CONTINUOUS
 10
8.4985711481
 20
11.8204944066
 11
8.4985711481
 21
12.9074497452
  0
LINE
  5
4D7
100
AcDbEntity
  8
RACCORDO
100
AcDbLine
 62
250
  6
CONTINUOUS
 10
8.4985711481
 20
13.5925502548
 11
8.4985711481
 21
14.6795055934
  0
LINE
  5
4D8
100
AcDbEntity
  8
RACCORDO
100
AcDbLine
 62
250
  6
CONTINUOUS
 10
8.7545995313
 20
-13.549801188
 11
8.7545995313
 21
-12.950198812
  0
LINE
  5
4D9
100
AcDbEntity
  8
RACCORDO
100
AcDbLine
 62
250
  6
CONTINUOUS
 10
8.7545995313
 20
12.950198812
 11
8.7545995313
 21
13.549801188
  0
LINE
  5
4DA
100
AcDbEntity
  8
RACCORDO
100
AcDbLine
 62
250
  6
CONTINUOUS
 10
8.9862156978
 20
13.4000067578
 11
8.9862156978
 21
13.0999932422
  0
LINE
  5
4DB
100
AcDbEntity
  8
RACCORDO
100
AcDbLine
 62
250
  6
CONTINUOUS
 10
8.9862156978
 20
-13.4000067578
 11
8.9862156978
 21
-13.0999932422
  0
LINE
  5
4DC
100
AcDbEntity
  8
RACCORDO
100
AcDbLine
 62
250
  6
CONTINUOUS
 10
8.9909750246
 20
-14.6795055934
 11
8.9909750246
 21
-13.7271871426
  0
LINE
  5
4DD
100
AcDbEntity
  8
RACCORDO
100
AcDbLine
 62
250
  6
CONTINUOUS
 10
8.9909750246
 20
-12.7728128574
 11
8.9909750246
 21
-11.8204944066
  0
LINE
  5
4DE
100
AcDbEntity
  8
RACCORDO
100
AcDbLine
 62
250
  6
CONTINUOUS
 10
8.9909750246
 20
11.8204944066
 11
8.9909750246
 21
12.7728128574
  0
LINE
  5
4DF
100
AcDbEntity
  8
RACCORDO
100
AcDbLine
 62
250
  6
CONTINUOUS
 10
8.9909750246
 20
13.7271871426
 11
8.9909750246
 21
14.6795055934
  0
LINE
  5
4E0
100
AcDbEntity
  8
RACCORDO
100
AcDbLine
 62
250
  6
CONTINUOUS
 10
9.1024704394
 20
-14.8400670064
 11
9.1024704671
 21
-15.0397929133
  0
LINE
  5
4E1
100
AcDbEntity
  8
RACCORDO
100
AcDbLine
 62
250
  6
CONTINUOUS
 10
9.1024704365
 20
14.8400670064
 11
9.1024704671
 21
15.0397929133
  0
LINE
  5
4E2
100
AcDbEntity
  8
RACCORDO
100
AcDbLine
 62
250
  6
CONTINUOUS
 10
9.1024704394
 20
11.6599329936
 11
9.1024704671
 21
11.4602070867
  0
LINE
  5
4E3
100
AcDbEntity
  8
RACCORDO
100
AcDbLine
 62
250
  6
CONTINUOUS
 10
9.1024704365
 20
-11.6599329936
 11
9.1024704671
 21
-11.4602070867
  0
LINE
  5
4E4
100
AcDbEntity
  8
RACCORDO
100
AcDbLine
 62
250
  6
CONTINUOUS
 10
9.1339368607
 20
13.4000067578
 11
9.1339368607
 21
13.0999938355
  0
LINE
  5
4E5
100
AcDbEntity
  8
RACCORDO
100
AcDbLine
 62
250
  6
CONTINUOUS
 10
9.1339368607
 20
-13.4000067578
 11
9.1339368607
 21
-13.0999932422
  0
LINE
  5
4E6
100
AcDbEntity
  8
RACCORDO
100
AcDbLine
 62
250
  6
CONTINUOUS
 10
9.4781437817
 20
-14.2974685017
 11
9.4781437817
 21
-12.2025314983
  0
LINE
  5
4E7
100
AcDbEntity
  8
RACCORDO
100
AcDbLine
 62
250
  6
CONTINUOUS
 10
9.4781437817
 20
12.2025314983
 11
9.4781437817
 21
14.2974685017
  0
LINE
  5
4E8
100
AcDbEntity
  8
RACCORDO
100
AcDbLine
 62
7
  6
CONTINUOUS
 10
9.5
 20
2.2500380762
 11
9.5
 21
-2.2500380762
  0
LINE
  5
4E9
100
AcDbEntity
  8
0
100
AcDbLine
 62
7
  6
CONTINUOUS
 10
9.5
 20
2.2500380762
 11
9.5
 21
-2.2500380762
  0
LINE
  5
4EA
100
AcDbEntity
  8
RACCORDO
100
AcDbLine
 62
250
  6
CONTINUOUS
 10
9.6258649447
 20
-14.2974685017
 11
9.6258649447
 21
-12.2025314983
  0
LINE
  5
4EB
100
AcDbEntity
  8
RACCORDO
100
AcDbLine
 62
250
  6
CONTINUOUS
 10
9.6258649447
 20
12.2025314983
 11
9.6258649447
 21
14.2974685017
  0
LINE
  5
4EC
100
AcDbEntity
  8
0
100
AcDbLine
 62
7
  6
CONTINUOUS
 10
9.7447634805
 20
-17.2881634904
 11
9.7447634805
 21
-24.7448015567
  0
LINE
  5
4ED
100
AcDbEntity
  8
RACCORDO
100
AcDbLine
 62
7
  6
CONTINUOUS
 10
9.7447634805
 20
-24.7448015567
 11
9.7447634805
 21
-17.2881634904
  0
LINE
  5
4EE
100
AcDbEntity
  8
RACCORDO
100
AcDbLine
 62
7
  6
CONTINUOUS
 10
9.7447634805
 20
17.2881634904
 11
9.7447634805
 21
24.7448015567
  0
LINE
  5
4EF
100
AcDbEntity
  8
0
100
AcDbLine
 62
7
  6
CONTINUOUS
 10
9.7447634805
 20
17.2881634904
 11
9.7447634805
 21
24.7448015567
  0
LINE
  5
4F0
100
AcDbEntity
  8
RACCORDO
100
AcDbLine
 62
7
  6
CONTINUOUS
 10
9.75
 20
-16.2875932838
 11
9.75
 21
-14.8529366156
  0
LINE
  5
4F1
100
AcDbEntity
  8
DRAFT
100
AcDbLine
 62
7
  6
CONTINUOUS
 10
9.75
 20
-16.2875932838
 11
9.75
 21
-14.85
  0
LINE
  5
4F2
100
AcDbEntity
  8
RACCORDO
100
AcDbLine
 62
7
  6
CONTINUOUS
 10
9.75
 20
-11.6470633844
 11
9.75
 21
-2.5000060301
  0
LINE
  5
4F3
100
AcDbEntity
  8
DRAFT
100
AcDbLine
 62
7
  6
CONTINUOUS
 10
9.75
 20
-11.65
 11
9.75
 21
-2.4999999971
  0
LINE
  5
4F4
100
AcDbEntity
  8
RACCORDO
100
AcDbLine
 62
7
  6
CONTINUOUS
 10
9.75
 20
2.5000060301
 11
9.75
 21
11.6470633844
  0
LINE
  5
4F5
100
AcDbEntity
  8
DRAFT
100
AcDbLine
 62
7
  6
CONTINUOUS
 10
9.75
 20
2.4999999971
 11
9.75
 21
11.65
  0
LINE
  5
4F6
100
AcDbEntity
  8
RACCORDO
100
AcDbLine
 62
7
  6
CONTINUOUS
 10
9.75
 20
14.8529366156
 11
9.75
 21
16.2875932838
  0
LINE
  5
4F7
100
AcDbEntity
  8
DRAFT
100
AcDbLine
 62
7
  6
CONTINUOUS
 10
9.75
 20
14.85
 11
9.75
 21
16.2875932838
  0
LWPOLYLINE
  5
4F8
100
AcDbEntity
  8
RACCORDO
100
AcDbPolyline
 62
250
  6
CONTINUOUS
 90
16
 70
0
 10
9.1339368607
 20
13.0999938355
 10
9.1335202682
 20
13.0656723777
 10
9.1325510244
 20
13.0329744628
 10
9.1310291294
 20
13.0019000907
 10
9.1288711917
 20
12.9720990556
 10
9.1261606027
 20
12.9439215634
 10
9.123147537
 20
12.9184182319
 10
9.1198952712
 20
12.8960965121
 10
9.1163405286
 20
12.8764489531
 10
9.1125436541
 20
12.8590038199
 10
9.1085614696
 20
12.8435755753
 10
9.1043371533
 20
12.8303497564
 10
9.0997605841
 20
12.81941124
 10
9.0947950551
 20
12.8107883182
 10
9.0894772734
 20
12.8044526988
 10
9.0838072388
 20
12.8004043818
  0
LWPOLYLINE
  5
4F9
100
AcDbEntity
  8
RACCORDO
100
AcDbPolyline
 62
250
  6
CONTINUOUS
 90
57
 70
0
 10
8.4985711481
 20
14.6795055934
 10
8.4988435987
 20
14.6905378814
 10
8.4996237594
 20
14.7015154169
 10
8.5009116301
 20
14.7124381999
 10
8.5027216939
 20
14.7233296059
 10
8.5050394678
 20
14.7341662594
 10
8.5078215022
 20
14.744878034
 10
8.5110565884
 20
14.7554247879
 10
8.5147559352
 20
14.7658466629
 10
8.5189097198
 20
14.7761939581
 10
8.5235016479
 20
14.7864606898
 10
8.5285480136
 20
14.7966528416
 10
8.5340878771
 20
14.806838664
 10
8.5401202676
 20
14.8170380861
 10
8.5466461557
 20
14.8272311786
 10
8.5537075136
 20
14.8374264047
 10
8.5613130133
 20
14.8476423342
 10
8.5694539827
 20
14.8578603973
 10
8.578146378
 20
14.8680333468
 10
8.5873951464
 20
14.8781674759
 10
8.5971953406
 20
14.8882564914
 10
8.6075480756
 20
14.898234267
 10
8.6184733737
 20
14.908115003
 10
8.6299512126
 20
14.9178844992
 10
8.6419226402
 20
14.9274340285
 10
8.6544010142
 20
14.9367635252
 10
8.6673729768
 20
14.9458730551
 10
8.680739503
 20
14.9546540886
 10
8.6944918514
 20
14.9630924891
 10
8.7086387634
 20
14.9712023932
 10
8.7231074374
 20
14.9789176807
 10
8.7379286448
 20
14.9862419713
 10
8.7530716143
 20
14.9931716453
 10
8.7683712301
 20
14.9996297241
 10
8.7838813423
 20
15.0056099757
 10
8.7995481007
 20
15.0111186321
 10
8.8150448391
 20
15.0160974098
 10
8.830334802
 20
15.0205081866
 10
8.8454547447
 20
15.0243890848
 10
8.8601882677
 20
15.0277961876
 10
8.8744793603
 20
15.0307102579
 10
8.8883840331
 20
15.0331505328
 10
8.9018539174
 20
15.0352308073
 10
8.9148473299
 20
15.0369522085
 10
8.927405954
 20
15.0383136094
 10
8.9396064715
 20
15.0394254234
 10
8.951431184
 20
15.040296946
 10
8.96289779
 20
15.0409188817
 10
8.974136067
 20
15.0413737578
 10
8.9851456373
 20
15.041668908
 10
8.9959268787
 20
15.0417969986
 10
9.0066107016
 20
15.0418185557
 10
9.0171997273
 20
15.0417341082
 10
9.0276913345
 20
15.0415431273
 10
9.0382085698
 20
15.0413045523
 10
9.0487785896
 20
15.0410083482
 10
9.0700370915
 20
15.0403622029
  0
LWPOLYLINE
  5
4FA
100
AcDbEntity
  8
RACCORDO
100
AcDbPolyline
 62
250
  6
CONTINUOUS
 90
15
 70
0
 10
8.986215842
 20
13.0999932422
 10
8.9857971667
 20
13.0831054141
 10
8.9848267499
 20
13.0666942412
 10
8.9833045913
 20
13.0509469937
 10
8.9811479661
 20
13.0359362649
 10
8.9784395992
 20
13.0219029352
 10
8.9754276656
 20
13.0092055391
 10
8.9721738062
 20
12.9980661064
 10
8.9686163801
 20
12.9882654696
 10
8.9648186398
 20
12.979499161
 10
8.9608397776
 20
12.9718531708
 10
8.9566206011
 20
12.9653228907
 10
8.9520467853
 20
12.9597011934
 10
8.9470802218
 20
12.9551238075
 10
8.9417590189
 20
12.9518893877
  0
LWPOLYLINE
  5
4FB
100
AcDbEntity
  8
RACCORDO
100
AcDbPolyline
 62
250
  6
CONTINUOUS
 90
57
 70
0
 10
8.4985711481
 20
-11.8204944066
 10
8.4988435987
 20
-11.8094621186
 10
8.4996237594
 20
-11.7984845831
 10
8.5009116301
 20
-11.7875618001
 10
8.5027216939
 20
-11.7766703941
 10
8.5050394678
 20
-11.7658337406
 10
8.5078215022
 20
-11.755121966
 10
8.5110565884
 20
-11.7445752121
 10
8.5147559352
 20
-11.7341533371
 10
8.5189097198
 20
-11.7238060419
 10
8.5235016479
 20
-11.7135393102
 10
8.5285480136
 20
-11.7033471584
 10
8.5340878771
 20
-11.693161336
 10
8.5401202676
 20
-11.6829619139
 10
8.5466461557
 20
-11.6727688214
 10
8.5537075136
 20
-11.6625735953
 10
8.5613130133
 20
-11.6523576658
 10
8.5694539827
 20
-11.6421396027
 10
8.578146378
 20
-11.6319666532
 10
8.5873951464
 20
-11.6218325241
 10
8.5971953406
 20
-11.6117435086
 10
8.6075480756
 20
-11.601765733
 10
8.6184733737
 20
-11.591884997
 10
8.6299512126
 20
-11.5821155008
 10
8.6419226402
 20
-11.5725659715
 10
8.6544010142
 20
-11.5632364748
 10
8.6673729768
 20
-11.5541269449
 10
8.680739503
 20
-11.5453459114
 10
8.6944918514
 20
-11.5369075109
 10
8.7086387634
 20
-11.5287976068
 10
8.7231074374
 20
-11.5210823193
 10
8.7379286448
 20
-11.5137580287
 10
8.7530716143
 20
-11.5068283547
 10
8.7683712301
 20
-11.5003702759
 10
8.7838813423
 20
-11.4943900243
 10
8.7995481007
 20
-11.4888813679
 10
8.8150448391
 20
-11.4839025902
 10
8.830334802
 20
-11.4794918134
 10
8.8454547447
 20
-11.4756109152
 10
8.8601882677
 20
-11.4722038124
 10
8.8744793603
 20
-11.4692897421
 10
8.8883840331
 20
-11.4668494672
 10
8.9018539174
 20
-11.4647691927
 10
8.9148473299
 20
-11.4630477915
 10
8.927405954
 20
-11.4616863906
 10
8.9396064715
 20
-11.4605745766
 10
8.951431184
 20
-11.459703054
 10
8.96289779
 20
-11.4590811183
 10
8.974136067
 20
-11.4586262422
 10
8.9851456373
 20
-11.458331092
 10
8.9959268787
 20
-11.4582030014
 10
9.0066107016
 20
-11.4581814443
 10
9.0171997273
 20
-11.4582658918
 10
9.0276913345
 20
-11.4584568727
 10
9.0382085698
 20
-11.4586954477
 10
9.0487785896
 20
-11.4589916518
 10
9.0700370915
 20
-11.4596377971
  0
LINE
  5
4FC
100
AcDbEntity
  8
RACCORDO
100
AcDbLine
 62
250
  6
CONTINUOUS
 10
8.9906997542
 20
11.8126442381
 11
8.9909837821
 21
11.8204970095
  0
LINE
  5
4FD
100
AcDbEntity
  8
RACCORDO
100
AcDbLine
 62
250
  6
CONTINUOUS
 10
8.9906997542
 20
-14.6873557619
 11
8.9909837821
 21
-14.6795029905
  0
LINE
  5
4FE
100
AcDbEntity
  8
RACCORDO
100
AcDbLine
 62
250
  6
CONTINUOUS
 10
8.9897689607
 20
11.7915067643
 11
8.9899914861
 21
11.7968900893
  0
LINE
  5
4FF
100
AcDbEntity
  8
RACCORDO
100
AcDbLine
 62
250
  6
CONTINUOUS
 10
8.9897689607
 20
-14.7084932357
 11
8.9899914861
 21
-14.7031099107
  0
LINE
  5
500
100
AcDbEntity
  8
RACCORDO
100
AcDbLine
 62
250
  6
CONTINUOUS
 10
8.9903559485
 20
11.8047968398
 11
8.9906997542
 21
11.8126442381
  0
LINE
  5
501
100
AcDbEntity
  8
RACCORDO
100
AcDbLine
 62
250
  6
CONTINUOUS
 10
8.9903559485
 20
-14.6952031602
 11
8.9906997542
 21
-14.6873557619
  0
LINE
  5
502
100
AcDbEntity
  8
RACCORDO
100
AcDbLine
 62
250
  6
CONTINUOUS
 10
8.9899914861
 20
11.7968900893
 11
8.9903559485
 21
11.8047968398
  0
LINE
  5
503
100
AcDbEntity
  8
RACCORDO
100
AcDbLine
 62
250
  6
CONTINUOUS
 10
8.9899914861
 20
-14.7031099107
 11
8.9903559485
 21
-14.6952031602
  0
LWPOLYLINE
  5
504
100
AcDbEntity
  8
RACCORDO
100
AcDbPolyline
 62
250
  6
CONTINUOUS
 90
13
 70
0
 10
9.4363690968
 20
14.5471258854
 10
9.4377925411
 20
14.5665663033
 10
9.441690339
 20
14.5856779228
 10
9.4479965665
 20
14.6041375063
 10
9.4566045655
 20
14.6216328444
 10
9.4673687477
 20
14.637868036
 10
9.480107057
 20
14.6525684929
 10
9.4946040486
 20
14.6654855845
 10
9.5106145329
 20
14.676400842
 10
9.5278677224
 20
14.6851296543
 10
9.5460718115
 20
14.6915243897
 10
9.5649189118
 20
14.6954768932
 10
9.5840902598
 20
14.6969203156
  0
LWPOLYLINE
  5
505
100
AcDbEntity
  8
RACCORDO
100
AcDbPolyline
 62
250
  6
CONTINUOUS
 90
13
 70
0
 10
8.36067643
 20
-13.0891664262
 10
8.3620998746
 20
-13.069726008
 10
8.3659976728
 20
-13.0506143884
 10
8.3723039005
 20
-13.0321548047
 10
8.3809118996
 20
-13.0146594666
 10
8.3916760818
 20
-12.9984242751
 10
8.4044143911
 20
-12.9837238181
 10
8.4189113826
 20
-12.9708067267
 10
8.4349218668
 20
-12.9598914693
 10
8.4521750561
 20
-12.9511626571
 10
8.470379145
 20
-12.9447679218
 10
8.4892262452
 20
-12.9408154184
 10
8.508397593
 20
-12.939371996
  0
LWPOLYLINE
  5
506
100
AcDbEntity
  8
RACCORDO
100
AcDbPolyline
 62
250
  6
CONTINUOUS
 90
16
 70
0
 10
10.4041776388
 20
-1.9781437817
 10
10.4019696155
 20
-1.981264272
 10
10.3998637845
 20
-1.9856516134
 10
10.3978601458
 20
-1.9912474513
 10
10.3959488356
 20
-1.9979681752
 10
10.3941397177
 20
-2.0057487924
 10
10.3924623834
 20
-2.0145671493
 10
10.3909129848
 20
-2.0243794477
 10
10.3894953699
 20
-2.0350818981
 10
10.3882506735
 20
-2.0465660248
 10
10.3871854474
 20
-2.058726021
 10
10.3862931398
 20
-2.0714614538
 10
10.3855952303
 20
-2.0846590161
 10
10.3850988788
 20
-2.0982033026
 10
10.3847969254
 20
-2.11197819
 10
10.38468937
 20
-2.1258649447
  0
LWPOLYLINE
  5
507
100
AcDbEntity
  8
0
100
AcDbPolyline
 62
7
  6
CONTINUOUS
 90
10
 70
0
 10
-3.437275289
 20
-13.1307053328
 10
-3.4234694373
 20
-13.1193217467
 10
-3.4101898274
 20
-13.1071759943
 10
-3.3974364593
 20
-13.0942680758
 10
-3.3851971609
 20
-13.0806179354
 10
-3.3734841042
 20
-13.0662056289
 10
-3.3623338056
 20
-13.0509713226
 10
-3.3517584369
 20
-13.034895072
 10
-3.3417458263
 20
-13.0179968216
 10
-3.3322959736
 20
-13.0002765715
  0
LWPOLYLINE
  5
508
100
AcDbEntity
  8
0
100
AcDbPolyline
 62
7
  6
CONTINUOUS
 90
10
 70
0
 10
-1.0800138992
 20
-12.3131397493
 10
-1.0661233619
 20
-12.303140687
 10
-1.0512358195
 20
-12.2941882357
 10
-1.0353512719
 20
-12.2862823951
 10
-1.0186369329
 20
-12.2793707776
 10
-1.0009255888
 20
-12.2735057709
 10
-0.9817155983
 20
-12.2688445388
 10
-0.9608397475
 20
-12.2654394693
 10
-0.9384652503
 20
-12.2632381744
 10
-0.9145921066
 20
-12.2622406542
  0
LWPOLYLINE
  5
509
100
AcDbEntity
  8
0
100
AcDbPolyline
 62
7
  6
CONTINUOUS
 90
10
 70
0
 10
-1.2168049529
 20
-12.131811893
 10
-1.2415285249
 20
-12.1474032684
 10
-1.2647742883
 20
-12.1642950107
 10
-1.2865422434
 20
-12.1824871199
 10
-1.3067407907
 20
-12.201841234
 10
-1.3254615295
 20
-12.222495715
 10
-1.3429792576
 20
-12.2448656487
 10
-1.3593855742
 20
-12.2690893968
 10
-1.37458888
 20
-12.2950285976
 10
-1.388589175
 20
-12.3226832509
  0
LWPOLYLINE
  5
50A
100
AcDbEntity
  8
0
100
AcDbPolyline
 62
7
  6
CONTINUOUS
 90
10
 70
0
 10
-2.7437759534
 20
-12.7171507239
 10
-2.7212747089
 20
-12.7030227582
 10
-2.699060153
 20
-12.6886732021
 10
-2.6771322857
 20
-12.6741020555
 10
-2.655565949
 20
-12.6593634661
 10
-2.6342863008
 20
-12.6444032863
 10
-2.613068815
 20
-12.6290590733
 10
-2.5918386497
 20
-12.6132766798
 10
-2.5706706468
 20
-12.5971102532
 10
-2.5495648064
 20
-12.5805597935
  0
LWPOLYLINE
  5
50B
100
AcDbEntity
  8
0
100
AcDbPolyline
 62
7
  6
CONTINUOUS
 90
10
 70
0
 10
-3.9526279862
 20
-12.2940525541
 10
-3.93933786
 20
-12.287772133
 10
-3.9253764174
 20
-12.2821521897
 10
-3.9107436585
 20
-12.277192724
 10
-3.895534258
 20
-12.2728591176
 10
-3.8796535411
 20
-12.2691859889
 10
-3.862817484
 20
-12.2662771928
 10
-3.8449314121
 20
-12.2641673474
 10
-3.82609
 20
-12.2628218346
 10
-3.8062932476
 20
-12.2622406542
  0
LINE
  5
50C
100
AcDbEntity
  8
RACCORDO
100
AcDbLine
 62
250
  6
CONTINUOUS
 10
-9.5840902598
 20
-11.8030796844
 11
-9.1024704672
 21
-11.6599329936
  0
LINE
  5
50D
100
AcDbEntity
  8
RACCORDO
100
AcDbLine
 62
250
  6
CONTINUOUS
 10
-8.9909750246
 20
-11.8204944066
 11
-9.4363690968
 21
-11.9528741146
  0
LINE
  5
50E
100
AcDbEntity
  8
RACCORDO
100
AcDbLine
 62
250
  6
CONTINUOUS
 10
-8.9909750246
 20
-12.7728128574
 11
-9.0838070901
 21
-12.8004043376
  0
LINE
  5
50F
100
AcDbEntity
  8
RACCORDO
100
AcDbLine
 62
7
  6
CONTINUOUS
 10
-4.75
 20
8.2
 11
4.75
 21
8.2
  0
LINE
  5
510
100
AcDbEntity
  8
0
100
AcDbLine
 62
7
  6
CONTINUOUS
 10
3.384112
 20
8.81
 11
3.104146
 21
8.81
  0
LINE
  5
511
100
AcDbEntity
  8
0
100
AcDbLine
 62
7
  6
CONTINUOUS
 10
1.981206
 20
8.81
 11
1.710806
 21
8.81
  0
LINE
  5
512
100
AcDbEntity
  8
0
100
AcDbLine
 62
7
  6
CONTINUOUS
 10
1.561298
 20
8.810006
 11
0.479694
 21
8.810006
  0
LINE
  5
513
100
AcDbEntity
  8
0
100
AcDbLine
 62
7
  6
CONTINUOUS
 10
0.05875
 20
8.810006
 11
-0.361189
 21
8.810006
  0
LINE
  5
514
100
AcDbEntity
  8
0
100
AcDbLine
 62
7
  6
CONTINUOUS
 10
-1.134218
 20
8.810006
 11
-1.385532
 21
8.810006
  0
LINE
  5
515
100
AcDbEntity
  8
0
100
AcDbLine
 62
7
  6
CONTINUOUS
 10
-2.397469
 20
8.810006
 11
-3.39
 21
8.810006
  0
LINE
  5
516
100
AcDbEntity
  8
0
100
AcDbLine
 62
7
  6
CONTINUOUS
 10
-1.809675
 20
8.810011
 11
-2.080077
 21
8.810011
  0
LINE
  5
517
100
AcDbEntity
  8
0
100
AcDbLine
 62
7
  6
CONTINUOUS
 10
-3.119599
 20
9.026327
 11
-2.397469
 21
9.026327
  0
LINE
  5
518
100
AcDbEntity
  8
0
100
AcDbLine
 62
7
  6
CONTINUOUS
 10
0.750095
 20
9.026327
 11
1.561298
 21
9.026327
  0
LINE
  5
519
100
AcDbEntity
  8
0
100
AcDbLine
 62
7
  6
CONTINUOUS
 10
2.941927
 20
9.392179
 11
2.143447
 21
9.392179
  0
LINE
  5
51A
100
AcDbEntity
  8
0
100
AcDbLine
 62
7
  6
CONTINUOUS
 10
2.210253
 20
9.6085
 11
2.878303
 21
9.6085
  0
LINE
  5
51B
100
AcDbEntity
  8
RACCORDO
100
AcDbLine
 62
250
  6
CONTINUOUS
 10
-9.1024704672
 20
11.6599329936
 11
-9.5840902598
 21
11.8030796844
  0
LINE
  5
51C
100
AcDbEntity
  8
RACCORDO
100
AcDbLine
 62
250
  6
CONTINUOUS
 10
-9.4363690968
 20
11.9528741146
 11
-8.9909750246
 21
11.8204944066
  0
LINE
  5
51D
100
AcDbEntity
  8
RACCORDO
100
AcDbLine
 62
250
  6
CONTINUOUS
 10
-9.0838071307
 20
12.8004043497
 11
-8.9909750246
 21
12.7728128574
  0
LWPOLYLINE
  5
51E
100
AcDbEntity
  8
0
100
AcDbPolyline
 62
7
  6
CONTINUOUS
 90
13
 70
0
 10
3.8099455134
 20
12.8093787318
 10
3.7957948905
 20
12.8413788668
 10
3.7799593679
 20
12.8707214906
 10
3.7624389456
 20
12.897406603
 10
3.7430683187
 20
12.921524545
 10
3.7220127921
 20
12.9429849756
 10
3.6997682807
 20
12.9615168724
 10
3.6765077685
 20
12.976979865
 10
3.6520582715
 20
12.9895143238
 10
3.6263967528
 20
12.9992703375
 10
3.5995155334
 20
13.0062979358
 10
3.5714222923
 20
13.0105470891
 10
3.5421170294
 20
13.0120177973
  0
LWPOLYLINE
  5
51F
100
AcDbEntity
  8
RACCORDO
100
AcDbPolyline
 62
250
  6
CONTINUOUS
 90
6
 70
0
 10
10.4808434758
 20
1.7202000995
 10
10.4817997298
 20
1.7100597736
 10
10.4827053289
 20
1.6960726073
 10
10.4835602733
 20
1.6785659216
 10
10.4843699304
 20
1.6577825653
 10
10.4851289328
 20
1.6341408059
  0
LWPOLYLINE
  5
520
100
AcDbEntity
  8
RACCORDO
100
AcDbPolyline
 62
250
  6
CONTINUOUS
 90
13
 70
0
 10
9.4363690968
 20
11.9528741146
 10
9.4377923113
 20
11.9334353095
 10
9.4416895585
 20
11.9143249009
 10
9.4479950565
 20
11.8958660877
 10
9.4566022987
 20
11.8783710611
 10
9.4673658275
 20
11.8621357719
 10
9.4801036701
 20
11.8474349114
 10
9.4946004804
 20
11.8345171791
 10
9.5106111257
 20
11.8236011524
 10
9.5278647715
 20
11.8148715922
 10
9.5460695822
 20
11.8084762257
 10
9.5649176789
 20
11.8045232788
 10
9.5840902598
 20
11.8030796844
  0
LINE
  5
521
100
AcDbEntity
  8
RACCORDO
100
AcDbLine
 62
250
  6
CONTINUOUS
 10
10.4851289328
 20
1.6341408059
 11
10.4864403703
 21
1.5810157707
  0
LWPOLYLINE
  5
522
100
AcDbEntity
  8
RACCORDO
100
AcDbPolyline
 62
250
  6
CONTINUOUS
 90
3
 70
0
 10
10.1886667009
 20
1.3226007976
 10
10.1892471392
 20
1.2982922763
 10
10.1894722918
 20
1.2857194553
  0
LINE
  5
523
100
AcDbEntity
  8
RACCORDO
100
AcDbLine
 62
250
  6
CONTINUOUS
 10
10.4864403703
 20
1.5810157707
 11
10.4874812663
 21
1.5231313013
  0
LINE
  5
524
100
AcDbEntity
  8
RACCORDO
100
AcDbLine
 62
250
  6
CONTINUOUS
 10
10.4874812663
 20
1.5231313013
 11
10.4885655868
 21
1.4347013617
  0
LINE
  5
525
100
AcDbEntity
  8
RACCORDO
100
AcDbLine
 62
250
  6
CONTINUOUS
 10
10.1894722918
 20
1.2857194553
 11
10.1897855398
 21
1.2582703993
  0
LWPOLYLINE
  5
526
100
AcDbEntity
  8
RACCORDO
100
AcDbPolyline
 62
250
  6
CONTINUOUS
 90
19
 70
0
 10
10.38468937
 20
2.1258649447
 10
10.3847991754
 20
2.112534455
 10
10.3850709059
 20
2.0994702374
 10
10.3855045614
 20
2.0867674931
 10
10.3861193151
 20
2.0744434179
 10
10.3868959939
 20
2.0626493872
 10
10.3877770781
 20
2.0516469299
 10
10.3887605758
 20
2.0415291847
 10
10.3898484789
 20
2.0322442133
 10
10.3909892432
 20
2.0237926391
 10
10.3921621772
 20
2.0162515327
 10
10.3933879725
 20
2.0095034881
 10
10.3946771589
 20
2.0033019684
 10
10.3960179472
 20
1.9976806288
 10
10.3974221267
 20
1.9926592752
 10
10.3989355958
 20
1.9880988974
 10
10.4005736539
 20
1.984056226
 10
10.4023210015
 20
1.9807011361
 10
10.4041776388
 20
1.9781437817
  0
LINE
  5
527
100
AcDbEntity
  8
0
100
AcDbLine
 62
7
  6
CONTINUOUS
 10
9.7452898151
 20
17.1171534187
 11
9.7494736654
 21
16.4586033555
  0
LINE
  5
528
100
AcDbEntity
  8
RACCORDO
100
AcDbLine
 62
7
  6
CONTINUOUS
 10
9.7494736654
 20
16.4586033555
 11
9.7452898151
 21
17.1171534187
  0
LINE
  5
529
100
AcDbEntity
  8
RACCORDO
100
AcDbLine
 62
250
  6
CONTINUOUS
 10
10.4885655868
 20
1.4347013617
 11
10.4892403586
 21
1.3393679847
  0
LINE
  5
52A
100
AcDbEntity
  8
RACCORDO
100
AcDbLine
 62
250
  6
CONTINUOUS
 10
10.1897855398
 20
1.2582703993
 11
10.1899160682
 21
1.227796223
  0
LINE
  5
52B
100
AcDbEntity
  8
RACCORDO
100
AcDbLine
 62
7
  6
CONTINUOUS
 10
10.1000000276
 20
-1.7074830638
 11
10.1000000116
 21
1.7074831665
  0
LINE
  5
52C
100
AcDbEntity
  8
RACCORDO
100
AcDbLine
 62
7
  6
CONTINUOUS
 10
10.1886751346
 20
14.2974685017
 11
10.1886751346
 21
12.2025314983
  0
LINE
  5
52D
100
AcDbEntity
  8
RACCORDO
100
AcDbLine
 62
7
  6
CONTINUOUS
 10
10.1886751346
 20
-14.2974685017
 11
10.1886751346
 21
-12.2025314983
  0
LINE
  5
52E
100
AcDbEntity
  8
RACCORDO
100
AcDbLine
 62
7
  6
CONTINUOUS
 10
10.25
 20
25.0
 11
10.25
 21
16.2875932838
  0
LINE
  5
52F
100
AcDbEntity
  8
RACCORDO
100
AcDbLine
 62
7
  6
CONTINUOUS
 10
10.25
 20
-16.2875932838
 11
10.25
 21
-25.0
  0
LINE
  5
530
100
AcDbEntity
  8
RACCORDO
100
AcDbLine
 62
250
  6
CONTINUOUS
 10
10.4892403586
 20
1.3393679847
 11
10.4895049286
 21
-1.227796223
  0
LINE
  5
531
100
AcDbEntity
  8
DRAFT
100
AcDbLine
 62
7
  6
CONTINUOUS
 10
10.6
 20
-14.7221944518
 11
10.6
 21
-11.7778055482
  0
LINE
  5
532
100
AcDbEntity
  8
DRAFT
100
AcDbLine
 62
7
  6
CONTINUOUS
 10
10.6
 20
11.7778055482
 11
10.6
 21
14.7221944518
  0
LINE
  5
533
100
AcDbEntity
  8
RACCORDO
100
AcDbLine
 62
7
  6
CONTINUOUS
 10
10.65
 20
15.55
 11
10.65
 21
10.95
  0
LINE
  5
534
100
AcDbEntity
  8
RACCORDO
100
AcDbLine
 62
7
  6
CONTINUOUS
 10
10.65
 20
-10.95
 11
10.65
 21
-15.55
  0
LINE
  5
535
100
AcDbEntity
  8
RACCORDO
100
AcDbLine
 62
7
  6
CONTINUOUS
 10
10.9121633529
 20
-1.227796223
 11
10.9121633529
 21
1.227796223
  0
LINE
  5
536
100
AcDbEntity
  8
RACCORDO
100
AcDbLine
 62
7
  6
CONTINUOUS
 10
10.9645351961
 20
25.7709349336
 11
10.9645351961
 21
15.75
  0
LINE
  5
537
100
AcDbEntity
  8
RACCORDO
100
AcDbLine
 62
7
  6
CONTINUOUS
 10
10.9645351961
 20
10.75
 11
10.9645351961
 21
2.1258649447
  0
LINE
  5
538
100
AcDbEntity
  8
RACCORDO
100
AcDbLine
 62
7
  6
CONTINUOUS
 10
10.9645351961
 20
-2.1258649447
 11
10.9645351961
 21
-10.75
  0
LINE
  5
539
100
AcDbEntity
  8
RACCORDO
100
AcDbLine
 62
7
  6
CONTINUOUS
 10
10.9645351961
 20
-15.75
 11
10.9645351961
 21
-25.7709349336
  0
LINE
  5
53A
100
AcDbEntity
  8
RACCORDO
100
AcDbLine
 62
7
  6
CONTINUOUS
 10
10.9828653412
 20
25.8321769981
 11
10.9828653412
 21
15.75
  0
LINE
  5
53B
100
AcDbEntity
  8
DRAFT
100
AcDbLine
 62
7
  6
CONTINUOUS
 10
10.9828653412
 20
10.75
 11
10.9828653412
 21
-10.75
  0
LINE
  5
53C
100
AcDbEntity
  8
RACCORDO
100
AcDbLine
 62
7
  6
CONTINUOUS
 10
10.9828653412
 20
-15.75
 11
10.9828653412
 21
-25.8321769981
  0
LINE
  5
53D
100
AcDbEntity
  8
0
100
AcDbLine
 62
7
  6
CONTINUOUS
 10
11.0345351961
 20
25.8347065336
 11
11.0345351961
 21
-25.8347065336
  0
LWPOLYLINE
  5
53E
100
AcDbEntity
  8
RACCORDO
100
AcDbPolyline
 62
250
  6
CONTINUOUS
 90
19
 70
0
 10
10.1899160682
 20
1.227796223
 10
10.1898656152
 20
-1.2460084826
 10
10.1897417687
 20
-1.2636010933
 10
10.1895445286
 20
-1.2805740552
 10
10.1892652834
 20
-1.2970840191
 10
10.1889126447
 20
-1.312974334
 10
10.1885124466
 20
-1.3277750479
 10
10.1880641165
 20
-1.3413544837
 10
10.1875682271
 20
-1.3538443183
 10
10.18705233
 20
-1.3651696303
 10
10.1865274395
 20
-1.3751839945
 10
10.1859825414
 20
-1.384033836
 10
10.1854121446
 20
-1.3920835087
 10
10.1848214071
 20
-1.3994377579
 10
10.1842051708
 20
-1.4059918383
 10
10.1835424701
 20
-1.4117958683
 10
10.1828263163
 20
-1.4168665538
 10
10.1820636981
 20
-1.421187189
 10
10.1812546154
 20
-1.4247577736
  0
LINE
  5
53F
100
AcDbEntity
  8
RACCORDO
100
AcDbLine
 62
250
  6
CONTINUOUS
 10
10.4895049286
 20
-1.227796223
 11
10.4891329734
 21
-1.3597408014
  0
LINE
  5
540
100
AcDbEntity
  8
0
100
AcDbLine
 62
7
  6
CONTINUOUS
 10
9.7494736654
 20
-16.4586033555
 11
9.7452898151
 21
-17.1171534187
  0
LINE
  5
541
100
AcDbEntity
  8
RACCORDO
100
AcDbLine
 62
7
  6
CONTINUOUS
 10
9.7452898151
 20
-17.1171534187
 11
9.7494736654
 21
-16.4586033555
  0
LINE
  5
542
100
AcDbEntity
  8
RACCORDO
100
AcDbLine
 62
250
  6
CONTINUOUS
 10
10.4891329734
 20
-1.3597408014
 11
10.4881015185
 21
-1.4777432871
  0
LINE
  5
543
100
AcDbEntity
  8
RACCORDO
100
AcDbLine
 62
250
  6
CONTINUOUS
 10
10.4881015185
 20
-1.4777432871
 11
10.487157035
 21
-1.5430120231
  0
LINE
  5
544
100
AcDbEntity
  8
RACCORDO
100
AcDbLine
 62
250
  6
CONTINUOUS
 10
10.487157035
 20
-1.5430120231
 11
10.4861159398
 21
-1.5961471211
  0
LWPOLYLINE
  5
545
100
AcDbEntity
  8
RACCORDO
100
AcDbPolyline
 62
250
  6
CONTINUOUS
 90
8
 70
0
 10
10.4861159398
 20
-1.5961471211
 10
10.4850006092
 20
-1.6385144335
 10
10.4844103792
 20
-1.6567743791
 10
10.483794849
 20
-1.673023196
 10
10.4831325412
 20
-1.6877953453
 10
10.4824162969
 20
-1.7009260718
 10
10.4816532751
 20
-1.7118458251
 10
10.4808434758
 20
-1.7202000995
  0
LWPOLYLINE
  5
546
100
AcDbEntity
  8
RACCORDO
100
AcDbPolyline
 62
7
  6
CONTINUOUS
 90
22
 70
0
 10
10.1000000116
 20
1.7074833515
 10
10.1009967855
 20
1.7325942919
 10
10.1036259033
 20
1.7573624602
 10
10.1078873651
 20
1.7817878562
 10
10.1138853805
 20
1.8059915799
 10
10.1215157399
 20
1.8298525313
 10
10.1304658145
 20
1.853007411
 10
10.1407616788
 20
1.8753883047
 10
10.1523772584
 20
1.8970631266
 10
10.1649217008
 20
1.9178723198
 10
10.1783241793
 20
1.9376976676
 10
10.1926555206
 20
1.9566573868
 10
10.2077373529
 20
1.9749465701
 10
10.2234442998
 20
1.9924828919
 10
10.2399017378
 20
2.0093486779
 10
10.2573074243
 20
2.0259859984
 10
10.2756295347
 20
2.0423952227
 10
10.2948998938
 20
2.0585759816
 10
10.3154117336
 20
2.074969237
 10
10.3372627983
 20
2.0917219763
 10
10.3603553438
 20
2.1086872122
 10
10.38468937
 20
2.1258649447
  0
LWPOLYLINE
  5
547
100
AcDbEntity
  8
RACCORDO
100
AcDbPolyline
 62
250
  6
CONTINUOUS
 90
13
 70
0
 10
8.9909750246
 20
-12.7728128574
 10
8.9895514496
 20
-12.7922542289
 10
8.9856533155
 20
-12.8113666203
 10
8.9793466092
 20
-12.8298267642
 10
8.9707380414
 20
-12.8473224588
 10
8.9599732725
 20
-12.8635577786
 10
8.9472344734
 20
-12.8782580964
 10
8.9327371717
 20
-12.891174826
 10
8.9167266096
 20
-12.9020895756
 10
8.8994736551
 20
-12.9108177983
 10
8.881270153
 20
-12.9172119651
 10
8.8624239771
 20
-12.9211640406
 10
8.8432538616
 20
-12.9226072876
  0
LWPOLYLINE
  5
548
100
AcDbEntity
  8
RACCORDO
100
AcDbPolyline
 62
250
  6
CONTINUOUS
 90
13
 70
0
 10
9.0838072388
 20
-12.8004043818
 10
9.0823837946
 20
-12.8198447998
 10
9.0784859967
 20
-12.8389564192
 10
9.0721797692
 20
-12.8574160028
 10
9.0635717702
 20
-12.8749113408
 10
9.052807588
 20
-12.8911465324
 10
9.0400692787
 20
-12.9058469894
 10
9.0255722871
 20
-12.9187640809
 10
9.0095618027
 20
-12.9296793385
 10
8.9923086133
 20
-12.9384081507
 10
8.9741045242
 20
-12.9448028862
 10
8.9552574239
 20
-12.9487553897
 10
8.9360860759
 20
-12.950198812
  0
LWPOLYLINE
  5
549
100
AcDbEntity
  8
RACCORDO
100
AcDbPolyline
 62
250
  6
CONTINUOUS
 90
13
 70
0
 10
9.4363690968
 20
-11.9528741146
 10
9.4377925411
 20
-11.9334336967
 10
9.441690339
 20
-11.9143220772
 10
9.4479965665
 20
-11.8958624937
 10
9.4566045655
 20
-11.8783671556
 10
9.4673687477
 20
-11.862131964
 10
9.480107057
 20
-11.8474315071
 10
9.4946040486
 20
-11.8345144155
 10
9.5106145329
 20
-11.823599158
 10
9.5278677224
 20
-11.8148703457
 10
9.5460718115
 20
-11.8084756103
 10
9.5649189118
 20
-11.8045231068
 10
9.5840902598
 20
-11.8030796844
  0
LINE
  5
54A
100
AcDbEntity
  8
RACCORDO
100
AcDbLine
 62
7
  6
CONTINUOUS
 10
10.9612893785
 20
1.9781437817
 11
10.9229827449
 21
1.7202000995
  0
LWPOLYLINE
  5
54B
100
AcDbEntity
  8
RACCORDO
100
AcDbPolyline
 62
250
  6
CONTINUOUS
 90
7
 70
0
 10
10.1045887783
 20
-1.6827014558
 10
10.1037908956
 20
-1.6856892143
 10
10.1030062492
 20
-1.6891339766
 10
10.1022348392
 20
-1.6930357427
 10
10.1014766656
 20
-1.6973945126
 10
10.1007317284
 20
-1.7022102863
 10
10.1000000276
 20
-1.7074830638
  0
LINE
  5
54C
100
AcDbEntity
  8
RACCORDO
100
AcDbLine
 62
250
  6
CONTINUOUS
 10
10.1812546154
 20
-1.4247577736
 11
10.1045887783
 21
-1.6827014558
  0
LINE
  5
54D
100
AcDbEntity
  8
RACCORDO
100
AcDbLine
 62
250
  6
CONTINUOUS
 10
10.4808434758
 20
-1.7202000995
 11
10.4041776388
 21
-1.9781437817
  0
LWPOLYLINE
  5
54E
100
AcDbEntity
  8
0
100
AcDbPolyline
 62
7
  6
CONTINUOUS
 90
10
 70
0
 10
-0.7561459479
 20
-14.1892597119
 10
-0.7688019797
 20
-14.1987351403
 10
-0.7827029749
 20
-14.2072410855
 10
-0.7978489333
 20
-14.2147775475
 10
-0.8141322906
 20
-14.221414076
 10
-0.8316606111
 20
-14.2270811213
 10
-0.8507565888
 20
-14.2315700342
 10
-0.8715277883
 20
-14.2348112648
 10
-0.893866645
 20
-14.2368743629
 10
-0.9177731588
 20
-14.2377593286
  0
LWPOLYLINE
  5
54F
100
AcDbEntity
  8
0
100
AcDbPolyline
 62
7
  6
CONTINUOUS
 90
10
 70
0
 10
0.3578837147
 20
-12.3131398155
 10
0.3717743672
 20
-12.3031407091
 10
0.3866619953
 20
-12.2941882254
 10
0.402546599
 20
-12.2862823645
 10
0.4192609656
 20
-12.279370742
 10
0.4369723078
 20
-12.2735057422
 10
0.4561822641
 20
-12.2688445182
 10
0.4770580474
 20
-12.2654394544
 10
0.4994324448
 20
-12.2632381664
 10
0.5233054563
 20
-12.2622406542
  0
LWPOLYLINE
  5
550
100
AcDbEntity
  8
0
100
AcDbPolyline
 62
7
  6
CONTINUOUS
 90
10
 70
0
 10
1.7957812777
 20
-12.3131398155
 10
1.8096719301
 20
-12.3031407091
 10
1.8245595582
 20
-12.2941882254
 10
1.840444162
 20
-12.2862823645
 10
1.8571585286
 20
-12.279370742
 10
1.8748698708
 20
-12.2735057422
 10
1.8940798271
 20
-12.2688445182
 10
1.9149556104
 20
-12.2654394544
 10
1.9373300078
 20
-12.2632381664
 10
1.9612030193
 20
-12.2622406542
  0
LWPOLYLINE
  5
551
100
AcDbEntity
  8
0
100
AcDbPolyline
 62
7
  6
CONTINUOUS
 90
10
 70
0
 10
-0.6123789869
 20
-14.3650069144
 10
-0.5875737584
 20
-14.3483095971
 10
-0.5642836571
 20
-14.3302804716
 10
-0.5425086832
 20
-14.310919538
 10
-0.5223629754
 20
-14.2904258771
 10
-0.5037323949
 20
-14.2686004081
 10
-0.4862745255
 20
-14.2448458885
 10
-0.4698752283
 20
-14.2189632376
 10
-0.4546486422
 20
-14.1911515361
 10
-0.4405947672
 20
-14.1614107841
  0
LWPOLYLINE
  5
552
100
AcDbEntity
  8
0
100
AcDbPolyline
 62
7
  6
CONTINUOUS
 90
10
 70
0
 10
0.2210928842
 20
-12.131811893
 10
0.1963691988
 20
-12.1474033445
 10
0.1731233399
 20
-12.1642951513
 10
0.1513553077
 20
-12.1824873135
 10
0.1311566979
 20
-12.2018414792
 10
0.1124359147
 20
-12.2224960003
 10
0.0949181708
 20
-12.2448659324
 10
0.0785118705
 20
-12.2690896275
 10
0.0633086096
 20
-12.2950287337
 10
0.0493083879
 20
-12.3226832509
  0
LWPOLYLINE
  5
553
100
AcDbEntity
  8
0
100
AcDbPolyline
 62
7
  6
CONTINUOUS
 90
10
 70
0
 10
1.6589904472
 20
-12.131811893
 10
1.6342667617
 20
-12.1474033445
 10
1.6110209029
 20
-12.1642951513
 10
1.5892528707
 20
-12.1824873135
 10
1.5690542609
 20
-12.2018414792
 10
1.5503334777
 20
-12.2224960003
 10
1.5328157338
 20
-12.2448659324
 10
1.5164094335
 20
-12.2690896275
 10
1.5012061726
 20
-12.2950287337
 10
1.4872059509
 20
-12.3226832509
  0
LWPOLYLINE
  5
554
100
AcDbEntity
  8
0
100
AcDbPolyline
 62
7
  6
CONTINUOUS
 90
10
 70
0
 10
-3.6698762254
 20
-14.2020850192
 10
-3.6824784824
 20
-14.2086850211
 10
-3.6961891227
 20
-14.2145574793
 10
-3.7110081464
 20
-14.2197023938
 10
-3.7268547369
 20
-14.2241462582
 10
-3.7438097108
 20
-14.2278625789
 10
-3.7621155174
 20
-14.2307718754
 10
-3.7818529733
 20
-14.2328476542
 10
-3.802941262
 20
-14.2341164089
 10
-3.8253803834
 20
-14.2345781393
  0
LWPOLYLINE
  5
555
100
AcDbEntity
  8
0
100
AcDbPolyline
 62
7
  6
CONTINUOUS
 90
10
 70
0
 10
-3.5454357252
 20
-14.3872752417
 10
-3.519542296
 20
-14.3750662168
 10
-3.4952348654
 20
-14.3621795466
 10
-3.4725134333
 20
-14.348615231
 10
-3.4514595446
 20
-14.3343485848
 10
-3.4319916544
 20
-14.3194042933
 10
-3.4138651284
 20
-14.3038564128
 10
-3.3969984217
 20
-14.2877296287
 10
-3.3814730793
 20
-14.2709992555
 10
-3.367289101
 20
-14.2536652934
  0
LINE
  5
556
100
AcDbEntity
  8
DRAFT
100
AcDbLine
 62
7
  6
CONTINUOUS
 10
-9.5765776706
 20
-14.8231828262
 11
-9.6449489743
 21
-14.85
  0
LINE
  5
557
100
AcDbEntity
  8
DRAFT
100
AcDbLine
 62
7
  6
CONTINUOUS
 10
-9.5436394679
 20
-14.8104804686
 11
-9.5765776706
 21
-14.8231828262
  0
LWPOLYLINE
  5
558
100
AcDbEntity
  8
DRAFT
100
AcDbPolyline
 62
7
  6
CONTINUOUS
 90
3
 70
0
 10
-9.4950979979
 20
-14.7923514428
 10
-9.511151302
 20
-14.7982718897
 10
-9.5436394679
 20
-14.8104804686
  0
LWPOLYLINE
  5
559
100
AcDbEntity
  8
RACCORDO
100
AcDbPolyline
 62
7
  6
CONTINUOUS
 90
19
 70
0
 10
-9.3292938566
 20
-15.0397929133
 10
-9.3058694462
 20
-15.0313308684
 10
-9.2842986861
 20
-15.0213085271
 10
-9.2645815765
 20
-15.0097681579
 10
-9.246630867
 20
-14.996566314
 10
-9.2305338079
 20
-14.982043282
 10
-9.2165521501
 20
-14.9669924128
 10
-9.2048621684
 20
-14.9516171562
 10
-9.1952875879
 20
-14.9360803847
 10
-9.1875613345
 20
-14.9210591406
 10
-9.1817881011
 20
-14.9068617036
 10
-9.1778631948
 20
-14.8935219809
 10
-9.1752054627
 20
-14.8812428281
 10
-9.1737859025
 20
-14.8702026474
 10
-9.1736335165
 20
-14.8605964888
 10
-9.1742541585
 20
-14.8526296271
 10
-9.1754831133
 20
-14.8464639207
 10
-9.1774850962
 20
-14.8422335145
 10
-9.1802601072
 20
-14.8400670064
  0
LINE
  5
55A
100
AcDbEntity
  8
RACCORDO
100
AcDbLine
 62
250
  6
CONTINUOUS
 10
-8.8432538616
 20
-12.9226072876
 11
-8.9360860759
 21
-12.950198812
  0
LINE
  5
55B
100
AcDbEntity
  8
RACCORDO
100
AcDbLine
 62
250
  6
CONTINUOUS
 10
-8.4009945665
 20
-12.9074497452
 11
-8.508397593
 21
-12.939371996
  0
LINE
  5
55C
100
AcDbEntity
  8
RACCORDO
100
AcDbLine
 62
250
  6
CONTINUOUS
 10
-8.2468562183
 20
-13.0553368642
 11
-8.36067643
 21
-13.0891664262
  0
LWPOLYLINE
  5
55D
100
AcDbEntity
  8
RACCORDO
100
AcDbPolyline
 62
250
  6
CONTINUOUS
 90
19
 70
0
 10
-8.9360820793
 20
-12.950198812
 10
-8.9414616458
 20
-12.9517562667
 10
-8.9465591612
 20
-12.9547345803
 10
-8.9513746257
 20
-12.9589972508
 10
-8.9559357586
 20
-12.964420378
 10
-8.9602148406
 20
-12.9708492096
 10
-8.9641287127
 20
-12.978067401
 10
-8.9676339462
 20
-12.9858467676
 10
-8.9707739698
 20
-12.9940823105
 10
-8.9735959112
 20
-13.0027560173
 10
-8.9760946081
 20
-13.0117015435
 10
-8.9782752227
 20
-13.0208723698
 10
-8.980200369
 20
-13.0305173556
 10
-8.981901877
 20
-13.0405783706
 10
-8.9833479168
 20
-13.0510146414
 10
-8.9845056129
 20
-13.0621773314
 10
-8.9853640069
 20
-13.0741679519
 10
-8.9859340571
 20
-13.0867985101
 10
-8.9862157637
 20
-13.0999932422
  0
LWPOLYLINE
  5
55E
100
AcDbEntity
  8
RACCORDO
100
AcDbPolyline
 62
250
  6
CONTINUOUS
 90
15
 70
0
 10
8.8432538616
 20
12.9226072876
 10
8.8359575497
 20
12.920947923
 10
8.8262489239
 20
12.9193646929
 10
8.8141279841
 20
12.9178575973
 10
8.7995363108
 20
12.9164228301
 10
8.7825323235
 20
12.9150641974
 10
8.7632912811
 20
12.9137931176
 10
8.7418386463
 20
12.9126044121
 10
8.7181489564
 20
12.9115032596
 10
8.6923210826
 20
12.910516615
 10
8.6641686699
 20
12.9096388547
 10
8.6338780733
 20
12.9088756023
 10
8.6021072292
 20
12.9082706827
 10
8.5690754497
 20
12.9078387041
 10
8.5345634226
 20
12.9075650583
  0
LWPOLYLINE
  5
55F
100
AcDbEntity
  8
RACCORDO
100
AcDbPolyline
 62
250
  6
CONTINUOUS
 90
10
 70
0
 10
8.9909750246
 20
12.7728129913
 10
8.9809513063
 20
12.771153288
 10
8.9670093829
 20
12.7695698626
 10
8.9493666346
 20
12.7680627152
 10
8.9283819424
 20
12.766628129
 10
8.9042330144
 20
12.7652698208
 10
8.8767427621
 20
12.7639989407
 10
8.8460326334
 20
12.7628101498
 10
8.8123172817
 20
12.7617087871
 10
8.7753567716
 20
12.7607220195
  0
LINE
  5
560
100
AcDbEntity
  8
DRAFT
100
AcDbLine
 62
7
  6
CONTINUOUS
 10
10.6
 20
11.7778055482
 11
10.1
 21
11.7626767255
  0
LINE
  5
561
100
AcDbEntity
  8
RACCORDO
100
AcDbLine
 62
250
  6
CONTINUOUS
 10
9.0700240957
 20
11.4596374088
 11
9.048757155
 21
11.4589910036
  0
LWPOLYLINE
  5
562
100
AcDbEntity
  8
RACCORDO
100
AcDbPolyline
 62
250
  6
CONTINUOUS
 90
56
 70
0
 10
9.048757155
 20
11.4589910036
 10
9.0381829051
 20
11.458694767
 10
9.0276614324
 20
11.4584562598
 10
9.017165559
 20
11.4582654388
 10
9.0065721084
 20
11.4581813011
 10
8.9958837266
 20
11.4582033084
 10
8.9850977677
 20
11.458331999
 10
8.9740831172
 20
11.4586279845
 10
8.9628394485
 20
11.4590839009
 10
8.9513670882
 20
11.4597071124
 10
8.9395359014
 20
11.4605803225
 10
8.9273280454
 20
11.4616942188
 10
8.9147613631
 20
11.4630581138
 10
8.9017592481
 20
11.4647826487
 10
8.8882796638
 20
11.4668667933
 10
8.8743646468
 20
11.4693115778
 10
8.860063702
 20
11.4722307351
 10
8.8453210839
 20
11.4756435395
 10
8.8301925378
 20
11.4795307168
 10
8.8148948046
 20
11.4839481765
 10
8.7993914609
 20
11.4889339466
 10
8.7837189301
 20
11.4944499991
 10
8.768203223
 20
11.5004381608
 10
8.7528973482
 20
11.5069050887
 10
8.7377482971
 20
11.5138441257
 10
8.7229230554
 20
11.5211771273
 10
8.7084527828
 20
11.5289004852
 10
8.6943063196
 20
11.5370178076
 10
8.6805571715
 20
11.5454617742
 10
8.6671984482
 20
11.5542450088
 10
8.65423704
 20
11.5633548876
 10
8.6417671243
 20
11.572686219
 10
8.6298006168
 20
11.5822395918
 10
8.6183256018
 20
11.5920144171
 10
8.6074005091
 20
11.6019037369
 10
8.5970430473
 20
11.6118961546
 10
8.5872355078
 20
11.6220030668
 10
8.5779831952
 20
11.6321517048
 10
8.5692924505
 20
11.6423358284
 10
8.5611569327
 20
11.6525616777
 10
8.5535629234
 20
11.6627752051
 10
8.546522272
 20
11.6729532032
 10
8.5400231291
 20
11.6831188794
 10
8.5340162281
 20
11.693287808
 10
8.5284997564
 20
11.7034381374
 10
8.5234755266
 20
11.7135917192
 10
8.5188997111
 20
11.7238296826
 10
8.5147526729
 20
11.7341648392
 10
8.5110540489
 20
11.7445843773
 10
8.5078189213
 20
11.7551309917
 10
8.5050375244
 20
11.7658437386
 10
8.502719624
 20
11.7766835618
 10
8.5009095982
 20
11.7875759875
 10
8.4996222401
 20
11.7984961913
 10
8.4988427567
 20
11.8094689976
 10
8.4985711481
 20
11.8204944066
  0
LWPOLYLINE
  5
563
100
AcDbEntity
  8
RACCORDO
100
AcDbPolyline
 62
250
  6
CONTINUOUS
 90
3
 70
0
 10
9.1024704672
 20
11.4602070867
 10
9.0915877677
 20
11.4600586345
 10
9.0700240957
 20
11.4596374088
  0
LINE
  5
564
100
AcDbEntity
  8
0
100
AcDbLine
 62
7
  6
CONTINUOUS
 10
1.497674
 20
9.888429
 11
0.750095
 21
9.888429
  0
LINE
  5
565
100
AcDbEntity
  8
0
100
AcDbLine
 62
7
  6
CONTINUOUS
 10
0.750095
 20
10.104751
 11
1.497674
 21
10.104751
  0
LINE
  5
566
100
AcDbEntity
  8
RACCORDO
100
AcDbLine
 62
7
  6
CONTINUOUS
 10
-10.9645351961
 20
10.75
 11
-10.85
 21
10.75
  0
LINE
  5
567
100
AcDbEntity
  8
RACCORDO
100
AcDbLine
 62
7
  6
CONTINUOUS
 10
10.9645351961
 20
10.75
 11
10.85
 21
10.75
  0
LINE
  5
568
100
AcDbEntity
  8
DRAFT
100
AcDbLine
 62
7
  6
CONTINUOUS
 10
10.9828653412
 20
10.75
 11
10.9645351961
 21
10.75
  0
LINE
  5
569
100
AcDbEntity
  8
DRAFT
100
AcDbLine
 62
7
  6
CONTINUOUS
 10
-10.9828653412
 20
10.75
 11
-10.9645351961
 21
10.75
  0
LINE
  5
56A
100
AcDbEntity
  8
0
100
AcDbLine
 62
7
  6
CONTINUOUS
 10
1.53903
 20
10.893686
 11
0.750095
 21
10.893686
  0
LINE
  5
56B
100
AcDbEntity
  8
0
100
AcDbLine
 62
7
  6
CONTINUOUS
 10
-3.39
 20
11.110007
 11
-3.119599
 21
11.110007
  0
LINE
  5
56C
100
AcDbEntity
  8
0
100
AcDbLine
 62
7
  6
CONTINUOUS
 10
-1.385532
 20
11.110007
 11
-0.965615
 21
11.110007
  0
LINE
  5
56D
100
AcDbEntity
  8
0
100
AcDbLine
 62
7
  6
CONTINUOUS
 10
-0.192586
 20
11.110007
 11
0.05875
 21
11.110007
  0
LINE
  5
56E
100
AcDbEntity
  8
0
100
AcDbLine
 62
7
  6
CONTINUOUS
 10
0.479694
 20
11.110007
 11
1.53903
 21
11.110007
  0
LINE
  5
56F
100
AcDbEntity
  8
0
100
AcDbLine
 62
7
  6
CONTINUOUS
 10
-2.080077
 20
11.110011
 11
-1.809675
 21
11.110011
  0
LINE
  5
570
100
AcDbEntity
  8
0
100
AcDbLine
 62
7
  6
CONTINUOUS
 10
2.385218
 20
11.110022
 11
2.719243
 21
11.110022
  0
LINE
  5
571
100
AcDbEntity
  8
RACCORDO
100
AcDbLine
 62
250
  6
CONTINUOUS
 10
9.3292938566
 20
11.4602070867
 11
9.1024704672
 21
11.4602070867
  0
LINE
  5
572
100
AcDbEntity
  8
RACCORDO
100
AcDbLine
 62
250
  6
CONTINUOUS
 10
-9.1024704672
 20
11.4602070867
 11
-9.3292938566
 21
11.4602070867
  0
LINE
  5
573
100
AcDbEntity
  8
DRAFT
100
AcDbLine
 62
7
  6
CONTINUOUS
 10
9.9496573543
 20
11.6470633844
 11
9.75
 21
11.6470633844
  0
LINE
  5
574
100
AcDbEntity
  8
DRAFT
100
AcDbLine
 62
7
  6
CONTINUOUS
 10
-9.75
 20
11.6470633844
 11
-9.9496573543
 21
11.6470633844
  0
LINE
  5
575
100
AcDbEntity
  8
DRAFT
100
AcDbLine
 62
7
  6
CONTINUOUS
 10
-9.75
 20
11.65
 11
-9.6449489743
 21
11.65
  0
LINE
  5
576
100
AcDbEntity
  8
DRAFT
100
AcDbLine
 62
7
  6
CONTINUOUS
 10
9.6449489743
 20
11.65
 11
9.75
 21
11.65
  0
LINE
  5
577
100
AcDbEntity
  8
RACCORDO
100
AcDbLine
 62
250
  6
CONTINUOUS
 10
9.1024704672
 20
11.6599329936
 11
9.1802601072
 21
11.6599329936
  0
LINE
  5
578
100
AcDbEntity
  8
RACCORDO
100
AcDbLine
 62
250
  6
CONTINUOUS
 10
-9.1024704672
 20
11.6599329936
 11
-9.1802601072
 21
11.6599329936
  0
LINE
  5
579
100
AcDbEntity
  8
DRAFT
100
AcDbLine
 62
7
  6
CONTINUOUS
 10
-9.4950979979
 20
11.7076485572
 11
-9.3049020021
 21
11.7076485572
  0
LINE
  5
57A
100
AcDbEntity
  8
DRAFT
100
AcDbLine
 62
7
  6
CONTINUOUS
 10
9.3049020021
 20
11.7076485572
 11
9.4950979979
 21
11.7076485572
  0
LWPOLYLINE
  5
57B
100
AcDbEntity
  8
RACCORDO
100
AcDbPolyline
 62
250
  6
CONTINUOUS
 90
3
 70
0
 10
-9.0700370915
 20
11.4596377971
 10
-9.0807810107
 20
11.4598690114
 10
-9.1024704672
 20
11.4602070867
  0
LINE
  5
57C
100
AcDbEntity
  8
DRAFT
100
AcDbLine
 62
7
  6
CONTINUOUS
 10
-10.1
 20
11.7626767255
 11
-10.6
 21
11.7778055482
  0
LWPOLYLINE
  5
57D
100
AcDbEntity
  8
RACCORDO
100
AcDbPolyline
 62
250
  6
CONTINUOUS
 90
10
 70
0
 10
-8.9909750246
 20
12.7728130342
 10
-8.9811400222
 20
12.7711814301
 10
-8.9675805424
 20
12.7696285363
 10
-8.9505557504
 20
12.7681543528
 10
-8.9302281697
 20
12.7667474056
 10
-8.9069679534
 20
12.7654191687
 10
-8.8815112399
 20
12.7642040639
 10
-8.8543927672
 20
12.7631141873
 10
-8.8259289687
 20
12.7621374428
 10
-8.7674573572
 20
12.7605275578
  0
LWPOLYLINE
  5
57E
100
AcDbEntity
  8
RACCORDO
100
AcDbPolyline
 62
250
  6
CONTINUOUS
 90
14
 70
0
 10
-8.8432538616
 20
12.9226072876
 10
-8.8360491027
 20
12.9209759838
 10
-8.8266179375
 20
12.9194232759
 10
-8.8149603659
 20
12.917949164
 10
-8.8007436089
 20
12.9165421133
 10
-8.7843004455
 20
12.9152136586
 10
-8.7666292135
 20
12.9139984033
 10
-8.7477538929
 20
12.9129085317
 10
-8.7276505037
 20
12.9119318596
 10
-8.7072454435
 20
12.9110664379
 10
-8.6869452917
 20
12.9103220499
 10
-8.666343469
 20
12.9096889123
 10
-8.6451466352
 20
12.9091357267
 10
-8.6012399716
 20
12.908247106
  0
LINE
  5
57F
100
AcDbEntity
  8
RACCORDO
100
AcDbLine
 62
250
  6
CONTINUOUS
 10
-8.508397593
 20
12.939371996
 11
-8.4009945665
 21
12.9074497452
  0
LINE
  5
580
100
AcDbEntity
  8
RACCORDO
100
AcDbLine
 62
250
  6
CONTINUOUS
 10
-8.36067643
 20
13.0891664262
 11
-8.2468562183
 21
13.0553368642
  0
LWPOLYLINE
  5
581
100
AcDbEntity
  8
DRAFT
100
AcDbPolyline
 62
7
  6
CONTINUOUS
 90
3
 70
0
 10
-9.4950979979
 20
14.7923514428
 10
-9.527331792
 20
14.8043148983
 10
-9.5436394679
 20
14.8104804686
  0
LINE
  5
582
100
AcDbEntity
  8
DRAFT
100
AcDbLine
 62
7
  6
CONTINUOUS
 10
-9.5436394679
 20
14.8104804686
 11
-9.5765776706
 21
14.8231828262
  0
LINE
  5
583
100
AcDbEntity
  8
DRAFT
100
AcDbLine
 62
7
  6
CONTINUOUS
 10
-9.5765776706
 20
14.8231828262
 11
-9.6449489743
 21
14.85
  0
LINE
  5
584
100
AcDbEntity
  8
RACCORDO
100
AcDbLine
 62
250
  6
CONTINUOUS
 10
10.1045887783
 20
1.6827014558
 11
10.1812546154
 21
1.4247577736
  0
LINE
  5
585
100
AcDbEntity
  8
RACCORDO
100
AcDbLine
 62
250
  6
CONTINUOUS
 10
10.4041776388
 20
1.9781437817
 11
10.4808434758
 21
1.7202000995
  0
LWPOLYLINE
  5
586
100
AcDbEntity
  8
RACCORDO
100
AcDbPolyline
 62
250
  6
CONTINUOUS
 90
12
 70
0
 10
10.1812546154
 20
1.4247577736
 10
10.1822099603
 20
1.4204760699
 10
10.1831150388
 20
1.4149248445
 10
10.1839698509
 20
1.4081040973
 10
10.1847799859
 20
1.3998134359
 10
10.1855398545
 20
1.3902532528
 10
10.1862326888
 20
1.3800247253
 10
10.1868518586
 20
1.3691527793
 10
10.1874039941
 20
1.3576124888
 10
10.1878922172
 20
1.3459302535
 10
10.1883114152
 20
1.334336498
 10
10.1886667009
 20
1.3226007976
  0
LINE
  5
587
100
AcDbEntity
  8
RACCORDO
100
AcDbLine
 62
7
  6
CONTINUOUS
 10
10.9612893785
 20
-1.9781437817
 11
10.9229827449
 21
-1.7202000995
  0
LWPOLYLINE
  5
588
100
AcDbEntity
  8
RACCORDO
100
AcDbPolyline
 62
250
  6
CONTINUOUS
 90
7
 70
0
 10
10.1000000116
 20
1.7074831665
 10
10.1007130295
 20
1.7023086079
 10
10.1014467581
 20
1.6975517588
 10
10.1022011972
 20
1.693212619
 10
10.102976347
 20
1.6892911885
 10
10.1037722073
 20
1.6857874675
 10
10.1045887783
 20
1.6827014558
  0
LWPOLYLINE
  5
589
100
AcDbEntity
  8
0
100
AcDbPolyline
 62
7
  6
CONTINUOUS
 90
10
 70
0
 10
0.6817518893
 20
-14.1892597119
 10
0.6690958907
 20
-14.1987351172
 10
0.6551949069
 20
-14.2072410477
 10
0.6400489378
 20
-14.2147775034
 10
0.6237655401
 20
-14.2214140374
 10
0.6062371572
 20
-14.2270810966
 10
0.5871411191
 20
-14.2315700213
 10
0.5663698692
 20
-14.2348112583
 10
0.5440309642
 20
-14.2368743607
 10
0.5201244041
 20
-14.2377593286
  0
LWPOLYLINE
  5
58A
100
AcDbEntity
  8
0
100
AcDbPolyline
 62
7
  6
CONTINUOUS
 90
10
 70
0
 10
2.1196494523
 20
-14.1892597119
 10
2.1069934537
 20
-14.1987351172
 10
2.0930924699
 20
-14.2072410477
 10
2.0779465008
 20
-14.2147775034
 10
2.0616631031
 20
-14.2214140374
 10
2.0441347201
 20
-14.2270810966
 10
2.025038682
 20
-14.2315700213
 10
2.0042674322
 20
-14.2348112583
 10
1.9819285272
 20
-14.2368743607
 10
1.9580219671
 20
-14.2377593286
  0
LWPOLYLINE
  5
58B
100
AcDbEntity
  8
0
100
AcDbPolyline
 62
7
  6
CONTINUOUS
 90
10
 70
0
 10
0.8255185761
 20
-14.3650069144
 10
0.8503239193
 20
-14.3483095152
 10
0.8736141164
 20
-14.3302803208
 10
0.8953891672
 20
-14.3109193312
 10
0.9155349361
 20
-14.2904256171
 10
0.9341655588
 20
-14.2686001079
 10
0.9516234428
 20
-14.2448455912
 10
0.9680227239
 20
-14.2189629963
 10
0.9832492663
 20
-14.1911513939
 10
0.99730307
 20
-14.1614107841
  0
LWPOLYLINE
  5
58C
100
AcDbEntity
  8
0
100
AcDbPolyline
 62
7
  6
CONTINUOUS
 90
10
 70
0
 10
2.2634161391
 20
-14.3650069144
 10
2.2882214823
 20
-14.3483095152
 10
2.3115116793
 20
-14.3302803208
 10
2.3332867302
 20
-14.3109193312
 10
2.3534324991
 20
-14.2904256171
 10
2.3720631218
 20
-14.2686001079
 10
2.3895210058
 20
-14.2448455912
 10
2.4059202869
 20
-14.2189629963
 10
2.4211468293
 20
-14.1911513939
 10
2.435200633
 20
-14.1614107841
  0
LWPOLYLINE
  5
58D
100
AcDbEntity
  8
RACCORDO
100
AcDbPolyline
 62
250
  6
CONTINUOUS
 90
13
 70
0
 10
8.9360860759
 20
13.549801188
 10
8.9552575938
 20
13.5512446343
 10
8.9741048289
 20
13.5551971987
 10
8.9923090126
 20
13.5615920192
 10
9.0095622571
 20
13.5703209293
 10
9.0255727551
 20
13.5812362839
 10
9.0400697171
 20
13.5941534542
 10
9.0528079612
 20
13.6088539576
 10
9.0635720556
 20
13.6250891546
 10
9.0721799568
 20
13.642584448
 10
9.0784860927
 20
13.6610439324
 10
9.0823838224
 20
13.6801554
 10
9.0838072388
 20
13.6995956182
  0
LWPOLYLINE
  5
58E
100
AcDbEntity
  8
RACCORDO
100
AcDbPolyline
 62
250
  6
CONTINUOUS
 90
13
 70
0
 10
8.8432538616
 20
13.5773927124
 10
8.8624252096
 20
13.5788361348
 10
8.88127231
 20
13.5827886383
 10
8.899476399
 20
13.5891833737
 10
8.9167295885
 20
13.597912186
 10
8.9327400728
 20
13.6088274435
 10
8.9472370644
 20
13.6217445351
 10
8.9599753737
 20
13.6364449921
 10
8.9707395559
 20
13.6526801836
 10
8.9793475549
 20
13.6701755217
 10
8.9856537824
 20
13.6886351052
 10
8.9895515803
 20
13.7077467247
 10
8.9909750246
 20
13.7271871426
  0
LWPOLYLINE
  5
58F
100
AcDbEntity
  8
RACCORDO
100
AcDbPolyline
 62
250
  6
CONTINUOUS
 90
19
 70
0
 10
-8.4009953734
 20
12.757655315
 10
-8.3699155515
 20
12.7595461437
 10
-8.3401799265
 20
12.7639485691
 10
-8.3117884983
 20
12.7708625913
 10
-8.284483017
 20
12.7806308853
 10
-8.2585217325
 20
12.7929107761
 10
-8.2346793942
 20
12.8066742378
 10
-8.2132727726
 20
12.8218045263
 10
-8.1939850972
 20
12.8384183858
 10
-8.1766408058
 20
12.8558380232
 10
-8.1613076829
 20
12.8737872007
 10
-8.1479179441
 20
12.8925421563
 10
-8.136092674
 20
12.9122538106
 10
-8.1256352719
 20
12.9328087444
 10
-8.1167423387
 20
12.9543203771
 10
-8.1096247616
 20
12.9772798875
 10
-8.1043528366
 20
13.001851002
 10
-8.1008562679
 20
13.0278699942
 10
-8.0991350553
 20
13.0553368642
  0
LINE
  5
590
100
AcDbEntity
  8
RACCORDO
100
AcDbLine
 62
7
  6
CONTINUOUS
 10
-10.6
 20
11.8013890489
 11
-10.5677407521
 21
11.8030796844
  0
LWPOLYLINE
  5
591
100
AcDbEntity
  8
0
100
AcDbPolyline
 62
7
  6
CONTINUOUS
 90
16
 70
0
 10
3.543151782
 20
13.388667771
 10
3.5870188707
 20
13.390738163
 10
3.628484542
 20
13.3956249089
 10
3.6675487957
 20
13.4033280088
 10
3.7043859968
 20
13.4136645376
 10
3.7388217805
 20
13.4268174204
 10
3.770333052
 20
13.4433354321
 10
3.7987143714
 20
13.463256961
 10
3.8241711786
 20
13.4865436187
 10
3.8467966986
 20
13.5136290152
 10
3.8668894077
 20
13.5450550217
 10
3.8841508297
 20
13.580279767
 10
3.8977787603
 20
13.6181112477
 10
3.9075057982
 20
13.6581521294
 10
3.9135993449
 20
13.7007997465
 10
3.9160594002
 20
13.7460540991
  0
LWPOLYLINE
  5
592
100
AcDbEntity
  8
RACCORDO
100
AcDbPolyline
 62
250
  6
CONTINUOUS
 90
19
 70
0
 10
-8.4009953086
 20
12.9074499657
 10
-8.3851860576
 20
12.9080771098
 10
-8.3698472127
 20
12.9101845301
 10
-8.3551096622
 20
12.9136715625
 10
-8.3410174851
 20
12.9184549867
 10
-8.3277422836
 20
12.9244038332
 10
-8.3155552091
 20
12.931281251
 10
-8.3045830451
 20
12.9388486087
 10
-8.2947270935
 20
12.9469977146
 10
-8.2858829147
 20
12.9556688061
 10
-8.2781017341
 20
12.9646694965
 10
-8.2713008677
 20
12.9739539787
 10
-8.2652512205
 20
12.9837703923
 10
-8.2599933982
 20
12.9940554375
 10
-8.2555689394
 20
13.004763031
 10
-8.2519097883
 20
13.0162515289
 10
-8.2491244404
 20
13.0286229197
 10
-8.2473944551
 20
13.041679211
 10
-8.2468563352
 20
13.0553368989
  0
LWPOLYLINE
  5
593
100
AcDbEntity
  8
RACCORDO
100
AcDbPolyline
 62
250
  6
CONTINUOUS
 90
9
 70
0
 10
8.5200377993
 20
13.09750565
 10
8.4918775401
 20
13.0967700876
 10
8.4653683606
 20
13.0959414082
 10
8.4407655668
 20
13.0950140782
 10
8.4185486316
 20
13.0939936311
 10
8.3990849786
 20
13.0928969349
 10
8.382728952
 20
13.091729612
 10
8.3698188601
 20
13.09048604
 10
8.36067643
 20
13.0891662187
  0
LINE
  5
594
100
AcDbEntity
  8
RACCORDO
100
AcDbLine
 62
250
  6
CONTINUOUS
 10
-8.49847235
 20
13.4030444609
 11
-8.5372179958
 21
13.4021098229
  0
LINE
  5
595
100
AcDbEntity
  8
RACCORDO
100
AcDbLine
 62
250
  6
CONTINUOUS
 10
8.7753567716
 20
12.7607220195
 11
8.6920625608
 21
12.7590812641
  0
LINE
  5
596
100
AcDbEntity
  8
RACCORDO
100
AcDbLine
 62
250
  6
CONTINUOUS
 10
8.581186988
 20
13.0986982382
 11
8.5200377993
 21
13.09750565
  0
LINE
  5
597
100
AcDbEntity
  8
RACCORDO
100
AcDbLine
 62
250
  6
CONTINUOUS
 10
-8.5372179958
 20
13.4021098229
 11
-8.5752496203
 21
13.4013970778
  0
LINE
  5
598
100
AcDbEntity
  8
RACCORDO
100
AcDbLine
 62
250
  6
CONTINUOUS
 10
-8.5752496203
 20
13.4013970778
 11
-8.624989162
 21
13.4007134622
  0
LINE
  5
599
100
AcDbEntity
  8
RACCORDO
100
AcDbLine
 62
250
  6
CONTINUOUS
 10
8.6473986727
 20
13.099513789
 11
8.581186988
 21
13.0986982382
  0
LINE
  5
59A
100
AcDbEntity
  8
RACCORDO
100
AcDbLine
 62
250
  6
CONTINUOUS
 10
8.6920625608
 20
12.7590812641
 11
8.5987682367
 21
12.7580444719
  0
LWPOLYLINE
  5
59B
100
AcDbEntity
  8
RACCORDO
100
AcDbPolyline
 62
250
  6
CONTINUOUS
 90
15
 70
0
 10
8.7315922987
 20
12.9501376076
 10
8.7092587862
 20
12.9499778438
 10
8.6875989938
 20
12.9497195208
 10
8.6665373034
 20
12.9493608824
 10
8.6461493329
 20
12.9489036847
 10
8.6266619367
 20
12.9483531959
 10
8.6080285245
 20
12.9477111689
 10
8.5902956865
 20
12.9469758507
 10
8.5738300468
 20
12.9461472512
 10
8.5585309627
 20
12.9452196239
 10
8.544499077
 20
12.9441987152
 10
8.5324029419
 20
12.9431017732
 10
8.5224654083
 20
12.9419345474
 10
8.5144636253
 20
12.9406912884
 10
8.508397593
 20
12.939371996
  0
LINE
  5
59C
100
AcDbEntity
  8
RACCORDO
100
AcDbLine
 62
250
  6
CONTINUOUS
 10
-8.624989162
 20
13.4007134622
 11
-8.6749204966
 21
13.4002693263
  0
LINE
  5
59D
100
AcDbEntity
  8
RACCORDO
100
AcDbLine
 62
250
  6
CONTINUOUS
 10
8.7182332549
 20
13.0999319251
 11
8.6473986727
 21
13.099513789
  0
LINE
  5
59E
100
AcDbEntity
  8
RACCORDO
100
AcDbLine
 62
250
  6
CONTINUOUS
 10
-8.7127632925
 20
13.5499857528
 11
-8.7373880152
 21
13.5498331757
  0
LINE
  5
59F
100
AcDbEntity
  8
RACCORDO
100
AcDbLine
 62
250
  6
CONTINUOUS
 10
-8.6749204966
 20
13.4002693263
 11
-8.7270786443
 21
13.4000387489
  0
LINE
  5
5A0
100
AcDbEntity
  8
RACCORDO
100
AcDbLine
 62
250
  6
CONTINUOUS
 10
8.5987682367
 20
12.7580444719
 11
8.4985711481
 21
12.7576553177
  0
LINE
  5
5A1
100
AcDbEntity
  8
RACCORDO
100
AcDbLine
 62
250
  6
CONTINUOUS
 10
10.5677407521
 20
11.8030796844
 11
9.5840902598
 21
11.8030796844
  0
LINE
  5
5A2
100
AcDbEntity
  8
RACCORDO
100
AcDbLine
 62
250
  6
CONTINUOUS
 10
-9.5840902598
 20
11.8030796844
 11
-10.5677407521
 21
11.8030796844
  0
LINE
  5
5A3
100
AcDbEntity
  8
RACCORDO
100
AcDbLine
 62
250
  6
CONTINUOUS
 10
-8.9909750246
 20
11.8204944196
 11
-8.4985711481
 21
11.8204944066
  0
LINE
  5
5A4
100
AcDbEntity
  8
RACCORDO
100
AcDbLine
 62
250
  6
CONTINUOUS
 10
8.9909750246
 20
11.820494419
 11
8.4985711481
 21
11.8204944066
  0
LINE
  5
5A5
100
AcDbEntity
  8
0
100
AcDbLine
 62
7
  6
CONTINUOUS
 10
4.4816207207
 20
12.1120071664
 11
4.0198623394
 21
12.1120071664
  0
LINE
  5
5A6
100
AcDbEntity
  8
0
100
AcDbLine
 62
7
  6
CONTINUOUS
 10
3.2847223015
 20
12.1120071664
 11
2.8065975821
 21
12.1120071664
  0
LINE
  5
5A7
100
AcDbEntity
  8
0
100
AcDbLine
 62
7
  6
CONTINUOUS
 10
2.66563
 20
12.112007
 11
2.15967
 21
12.112007
  0
LINE
  5
5A8
100
AcDbEntity
  8
0
100
AcDbLine
 62
7
  6
CONTINUOUS
 10
1.249088
 20
12.112007
 11
0.77424
 21
12.112007
  0
LINE
  5
5A9
100
AcDbEntity
  8
0
100
AcDbLine
 62
7
  6
CONTINUOUS
 10
0.698858
 20
12.112007
 11
0.229236
 21
12.112007
  0
LINE
  5
5AA
100
AcDbEntity
  8
0
100
AcDbLine
 62
7
  6
CONTINUOUS
 10
-0.44018
 20
12.112007
 11
-0.507508
 21
12.112007
  0
LINE
  5
5AB
100
AcDbEntity
  8
0
100
AcDbLine
 62
7
  6
CONTINUOUS
 10
-1.174268
 20
12.112007
 11
-1.633526
 21
12.112007
  0
LINE
  5
5AC
100
AcDbEntity
  8
0
100
AcDbLine
 62
7
  6
CONTINUOUS
 10
-1.891956
 20
12.112007
 11
-2.372012
 21
12.112007
  0
LINE
  5
5AD
100
AcDbEntity
  8
0
100
AcDbLine
 62
7
  6
CONTINUOUS
 10
-3.289406
 20
12.112007
 11
-3.712456
 21
12.112007
  0
LINE
  5
5AE
100
AcDbEntity
  8
RACCORDO
100
AcDbLine
 62
250
  6
CONTINUOUS
 10
9.4781437817
 20
12.2025314983
 11
10.1886751346
 21
12.2025314983
  0
LINE
  5
5AF
100
AcDbEntity
  8
RACCORDO
100
AcDbLine
 62
250
  6
CONTINUOUS
 10
-9.4781437817
 20
12.2025314983
 11
-10.1886751346
 21
12.2025314983
  0
LINE
  5
5B0
100
AcDbEntity
  8
0
100
AcDbLine
 62
7
  6
CONTINUOUS
 10
2.03531
 20
12.571127
 11
1.381553
 21
12.571127
  0
LINE
  5
5B1
100
AcDbEntity
  8
RACCORDO
100
AcDbLine
 62
250
  6
CONTINUOUS
 10
8.4985711481
 20
12.757655315
 11
8.4009953969
 21
12.757655315
  0
LINE
  5
5B2
100
AcDbEntity
  8
RACCORDO
100
AcDbLine
 62
250
  6
CONTINUOUS
 10
8.5345634226
 20
12.9075650583
 11
8.4009945665
 21
12.9074497452
  0
LINE
  5
5B3
100
AcDbEntity
  8
0
100
AcDbLine
 62
7
  6
CONTINUOUS
 10
1.479751
 20
12.926392
 11
1.939371
 21
12.926392
  0
LINE
  5
5B4
100
AcDbEntity
  8
RACCORDO
100
AcDbLine
 62
250
  6
CONTINUOUS
 10
8.9360860759
 20
12.950198812
 11
8.7315922987
 21
12.9501376076
  0
LINE
  5
5B5
100
AcDbEntity
  8
0
100
AcDbLine
 62
7
  6
CONTINUOUS
 10
3.5421170294
 20
13.0120177973
 11
3.2847223015
 21
13.0120177973
  0
LINE
  5
5B6
100
AcDbEntity
  8
RACCORDO
100
AcDbLine
 62
250
  6
CONTINUOUS
 10
8.2468562183
 20
13.0553368642
 11
8.0991350553
 21
13.0553368642
  0
LINE
  5
5B7
100
AcDbEntity
  8
RACCORDO
100
AcDbLine
 62
250
  6
CONTINUOUS
 10
-8.0991350553
 20
13.0553368642
 11
-8.2468562183
 21
13.0553368642
  0
LINE
  5
5B8
100
AcDbEntity
  8
RACCORDO
100
AcDbLine
 62
250
  6
CONTINUOUS
 10
8.7182332549
 20
13.0999319251
 11
9.1339368607
 21
13.0999932422
  0
LINE
  5
5B9
100
AcDbEntity
  8
0
100
AcDbLine
 62
7
  6
CONTINUOUS
 10
3.2688043561
 20
13.388667771
 11
3.543151782
 21
13.388667771
  0
LINE
  5
5BA
100
AcDbEntity
  8
RACCORDO
100
AcDbLine
 62
250
  6
CONTINUOUS
 10
-8.7270786443
 20
13.4000387489
 11
-9.1339368607
 21
13.4000067578
  0
LINE
  5
5BB
100
AcDbEntity
  8
RACCORDO
100
AcDbLine
 62
250
  6
CONTINUOUS
 10
8.2468562183
 20
13.4446631358
 11
8.0991350553
 21
13.4446631358
  0
LINE
  5
5BC
100
AcDbEntity
  8
RACCORDO
100
AcDbLine
 62
250
  6
CONTINUOUS
 10
-8.0991350553
 20
13.4446631358
 11
-8.2468562183
 21
13.4446631358
  0
LINE
  5
5BD
100
AcDbEntity
  8
RACCORDO
100
AcDbLine
 62
250
  6
CONTINUOUS
 10
-8.7373880152
 20
13.5498331757
 11
-8.9360860759
 21
13.549801188
  0
LINE
  5
5BE
100
AcDbEntity
  8
RACCORDO
100
AcDbLine
 62
250
  6
CONTINUOUS
 10
-8.4009945665
 20
13.5925502548
 11
-8.5312595074
 21
13.592454257
  0
LINE
  5
5BF
100
AcDbEntity
  8
RACCORDO
100
AcDbLine
 62
250
  6
CONTINUOUS
 10
-8.9360860759
 20
12.950198812
 11
-8.7379124197
 21
12.9501597824
  0
LINE
  5
5C0
100
AcDbEntity
  8
RACCORDO
100
AcDbLine
 62
250
  6
CONTINUOUS
 10
8.9360860759
 20
13.549801188
 11
8.7379124197
 21
13.5498402176
  0
LINE
  5
5C1
100
AcDbEntity
  8
RACCORDO
100
AcDbLine
 62
250
  6
CONTINUOUS
 10
-8.5262414153
 20
12.9075262129
 11
-8.4009945665
 21
12.9074497452
  0
LWPOLYLINE
  5
5C2
100
AcDbEntity
  8
RACCORDO
100
AcDbPolyline
 62
250
  6
CONTINUOUS
 90
19
 70
0
 10
8.4009945665
 20
13.5925502548
 10
8.5303179115
 20
13.5924631649
 10
8.5610081966
 20
13.5922478188
 10
8.5906420034
 20
13.5919042165
 10
8.6195200054
 20
13.5914164077
 10
8.6473415291
 20
13.5908003426
 10
8.6732045541
 20
13.5901038727
 10
8.6968105486
 20
13.5893286004
 10
8.7184580443
 20
13.5884729232
 10
8.7381406174
 20
13.587579885
 10
8.7556579591
 20
13.5866673438
 10
8.771210378
 20
13.5857174415
 10
8.7853923758
 20
13.5847196473
 10
8.7983888106
 20
13.5836820576
 10
8.8100148242
 20
13.582596576
 10
8.8203103435
 20
13.5814283827
 10
8.8292886773
 20
13.580165871
 10
8.8369365167
 20
13.5788206476
 10
8.8432538616
 20
13.5773927124
  0
LINE
  5
5C3
100
AcDbEntity
  8
RACCORDO
100
AcDbLine
 62
250
  6
CONTINUOUS
 10
-9.1339368607
 20
13.0999932422
 11
-8.7024601593
 21
13.0998734113
  0
LINE
  5
5C4
100
AcDbEntity
  8
RACCORDO
100
AcDbLine
 62
250
  6
CONTINUOUS
 10
9.1339368607
 20
13.4000067578
 11
8.7024601593
 21
13.4001265887
  0
LINE
  5
5C5
100
AcDbEntity
  8
RACCORDO
100
AcDbLine
 62
250
  6
CONTINUOUS
 10
-8.5756049155
 20
12.757890141
 11
-8.4009953734
 21
12.757655315
  0
LWPOLYLINE
  5
5C6
100
AcDbEntity
  8
RACCORDO
100
AcDbPolyline
 62
250
  6
CONTINUOUS
 90
50
 70
0
 10
9.1024704672
 20
11.6599329936
 10
9.097640329
 20
11.659965847
 10
9.0929174914
 20
11.6601587588
 10
9.0883060419
 20
11.6605081716
 10
9.0838131433
 20
11.6610125509
 10
9.0794392149
 20
11.6616662195
 10
9.075177825
 20
11.6624585705
 10
9.0710431709
 20
11.6633808553
 10
9.0670269153
 20
11.664431849
 10
9.0630890683
 20
11.6656145433
 10
9.0592315554
 20
11.6669261407
 10
9.0554589104
 20
11.6683660742
 10
9.0517367128
 20
11.6699469414
 10
9.0480664318
 20
11.6716700315
 10
9.0444553906
 20
11.6735367927
 10
9.040880451
 20
11.6755661813
 10
9.0373407556
 20
11.6777654234
 10
9.0338499985
 20
11.6801354238
 10
9.0304092624
 20
11.6826896028
 10
9.0270169133
 20
11.6854402817
 10
9.0236912875
 20
11.6883846649
 10
9.0204633697
 20
11.6915122668
 10
9.0173336553
 20
11.6948348127
 10
9.0143179408
 20
11.6983442101
 10
9.0114648761
 20
11.7019923972
 10
9.0087782568
 20
11.7057801856
 10
9.0062619092
 20
11.7096978806
 10
9.0039539126
 20
11.7136701253
 10
9.0018620745
 20
11.7176705858
 10
8.9999710624
 20
11.7217045148
 10
8.9982757492
 20
11.7257370291
 10
8.996774099
 20
11.729749097
 10
8.9954553364
 20
11.7337395365
 10
8.9942992831
 20
11.7376998808
 10
8.9932991675
 20
11.7416247669
 10
8.9924490068
 20
11.7455038369
 10
8.9917296311
 20
11.7493220267
 10
8.9911343929
 20
11.7530705463
 10
8.9906558981
 20
11.7567452689
 10
8.9902736803
 20
11.7603388188
 10
8.9899807354
 20
11.7638419328
 10
8.989770388
 20
11.7672539968
 10
8.9896237593
 20
11.770581665
 10
8.989534347
 20
11.773820663
 10
8.9894972908
 20
11.776968395
 10
8.9894980242
 20
11.780035103
 10
8.9895312201
 20
11.7830135682
 10
8.9895929276
 20
11.7859062665
 10
8.9896731226
 20
11.7887389407
 10
8.9897689607
 20
11.7915067643
  0
LINE
  5
5C7
100
AcDbEntity
  8
RACCORDO
100
AcDbLine
 62
250
  6
CONTINUOUS
 10
-8.7024601593
 20
13.0998734113
 11
-8.6548422977
 21
13.09958185
  0
LINE
  5
5C8
100
AcDbEntity
  8
RACCORDO
100
AcDbLine
 62
250
  6
CONTINUOUS
 10
8.7024601593
 20
13.4001265887
 11
8.6548422977
 21
13.40041815
  0
LINE
  5
5C9
100
AcDbEntity
  8
RACCORDO
100
AcDbLine
 62
250
  6
CONTINUOUS
 10
-8.7379124197
 20
12.9501597824
 11
-8.7067456454
 21
12.9499565451
  0
LINE
  5
5CA
100
AcDbEntity
  8
RACCORDO
100
AcDbLine
 62
250
  6
CONTINUOUS
 10
8.7379124197
 20
13.5498402176
 11
8.7067456454
 21
13.5500434549
  0
LINE
  5
5CB
100
AcDbEntity
  8
RACCORDO
100
AcDbLine
 62
250
  6
CONTINUOUS
 10
-8.6452498655
 20
12.7584527242
 11
-8.5756049155
 21
12.757890141
  0
LINE
  5
5CC
100
AcDbEntity
  8
RACCORDO
100
AcDbLine
 62
250
  6
CONTINUOUS
 10
-8.6548422977
 20
13.09958185
 11
-8.592375468
 21
13.0988693967
  0
LINE
  5
5CD
100
AcDbEntity
  8
RACCORDO
100
AcDbLine
 62
250
  6
CONTINUOUS
 10
8.6548422977
 20
13.40041815
 11
8.592375468
 21
13.4011306033
  0
LWPOLYLINE
  5
5CE
100
AcDbEntity
  8
RACCORDO
100
AcDbPolyline
 62
250
  6
CONTINUOUS
 90
3
 70
0
 10
-8.6012399716
 20
12.908247106
 10
-8.5776927264
 20
12.9079245833
 10
-8.5262414153
 20
12.9075262129
  0
LINE
  5
5CF
100
AcDbEntity
  8
RACCORDO
100
AcDbLine
 62
250
  6
CONTINUOUS
 10
-8.7067456454
 20
12.9499565451
 11
-8.6785351685
 21
12.9495766227
  0
LINE
  5
5D0
100
AcDbEntity
  8
RACCORDO
100
AcDbLine
 62
250
  6
CONTINUOUS
 10
-8.7079647018
 20
12.7593412447
 11
-8.6452498655
 21
12.7584527242
  0
LINE
  5
5D1
100
AcDbEntity
  8
RACCORDO
100
AcDbLine
 62
250
  6
CONTINUOUS
 10
-8.592375468
 20
13.0988693967
 11
-8.5400347042
 21
13.0979503301
  0
LINE
  5
5D2
100
AcDbEntity
  8
RACCORDO
100
AcDbLine
 62
250
  6
CONTINUOUS
 10
8.592375468
 20
13.4011306033
 11
8.5400347042
 21
13.4020496699
  0
LINE
  5
5D3
100
AcDbEntity
  8
RACCORDO
100
AcDbLine
 62
250
  6
CONTINUOUS
 10
-8.6785351685
 20
12.9495766227
 11
-8.6532180397
 21
12.9490749493
  0
LINE
  5
5D4
100
AcDbEntity
  8
RACCORDO
100
AcDbLine
 62
250
  6
CONTINUOUS
 10
-8.7674573572
 20
12.7605275578
 11
-8.7079647018
 21
12.7593412447
  0
LINE
  5
5D5
100
AcDbEntity
  8
RACCORDO
100
AcDbLine
 62
250
  6
CONTINUOUS
 10
8.5400347042
 20
13.4020496699
 11
8.5104061113
 21
13.4027315835
  0
LINE
  5
5D6
100
AcDbEntity
  8
RACCORDO
100
AcDbLine
 62
250
  6
CONTINUOUS
 10
-8.5400347042
 20
13.0979503301
 11
-8.4970683255
 21
13.0969178482
  0
LINE
  5
5D7
100
AcDbEntity
  8
RACCORDO
100
AcDbLine
 62
250
  6
CONTINUOUS
 10
-8.6532180397
 20
12.9490749493
 11
-8.6307289759
 21
12.9484774533
  0
LINE
  5
5D8
100
AcDbEntity
  8
RACCORDO
100
AcDbLine
 62
250
  6
CONTINUOUS
 10
-8.4970683255
 20
13.0969178482
 11
-8.4730981382
 21
13.0961994918
  0
LINE
  5
5D9
100
AcDbEntity
  8
RACCORDO
100
AcDbLine
 62
250
  6
CONTINUOUS
 10
-8.6307289759
 20
12.9484774533
 11
-8.6109361435
 21
12.9478185895
  0
LINE
  5
5DA
100
AcDbEntity
  8
RACCORDO
100
AcDbLine
 62
250
  6
CONTINUOUS
 10
-8.4730981382
 20
13.0961994918
 11
-8.4523396218
 21
13.0954726414
  0
LWPOLYLINE
  5
5DB
100
AcDbEntity
  8
RACCORDO
100
AcDbPolyline
 62
250
  6
CONTINUOUS
 90
19
 70
0
 10
8.4009953335
 20
12.9074499732
 10
8.384885432
 20
12.9081038893
 10
8.3692648327
 20
12.9102942326
 10
8.354271779
 20
12.9139147868
 10
8.3399631699
 20
12.918873835
 10
8.3265083705
 20
12.925034935
 10
8.3141631261
 20
12.9321641686
 10
8.3030173109
 20
12.9400515574
 10
8.293022853
 20
12.9485606186
 10
8.2841700165
 20
12.9575275266
 10
8.2765226619
 20
12.9666900233
 10
8.2699338177
 20
12.9760230433
 10
8.2641353545
 20
12.9857911982
 10
8.2591507151
 20
12.995915765
 10
8.2549974841
 20
13.0063522052
 10
8.2515721732
 20
13.0175101183
 10
8.248966436
 20
13.0295117222
 10
8.247353665
 20
13.0421460308
 10
8.2468563265
 20
13.0553368963
  0
LINE
  5
5DC
100
AcDbEntity
  8
RACCORDO
100
AcDbLine
 62
250
  6
CONTINUOUS
 10
-8.6109361435
 20
12.9478185895
 11
-8.5936368192
 21
12.9471234187
  0
LINE
  5
5DD
100
AcDbEntity
  8
RACCORDO
100
AcDbLine
 62
250
  6
CONTINUOUS
 10
-8.4523396218
 20
13.0954726414
 11
-8.4342949794
 21
13.0947398093
  0
LINE
  5
5DE
100
AcDbEntity
  8
RACCORDO
100
AcDbLine
 62
250
  6
CONTINUOUS
 10
-8.4342949794
 20
13.0947398093
 11
-8.418627389
 21
13.094001643
  0
LWPOLYLINE
  5
5DF
100
AcDbEntity
  8
RACCORDO
100
AcDbPolyline
 62
250
  6
CONTINUOUS
 90
3
 70
0
 10
-8.5936368192
 20
12.9471234187
 10
-8.5786611605
 20
12.9464050686
 10
-8.5719244146
 20
12.9460429764
  0
LINE
  5
5E0
100
AcDbEntity
  8
RACCORDO
100
AcDbLine
 62
7
  6
CONTINUOUS
 10
10.5677407521
 20
11.8030796844
 11
10.6
 21
11.8013890489
  0
LWPOLYLINE
  5
5E1
100
AcDbEntity
  8
RACCORDO
100
AcDbPolyline
 62
250
  6
CONTINUOUS
 90
12
 70
0
 10
-8.418627389
 20
13.094001643
 10
-8.4049740697
 20
13.09325636
 10
-8.3988074456
 20
13.0928785464
 10
-8.3930546698
 20
13.0924968964
 10
-8.387714784
 20
13.0921110847
 10
-8.3827320294
 20
13.091717994
 10
-8.3781183323
 20
13.091317842
 10
-8.3738846461
 20
13.090910411
 10
-8.3700005885
 20
13.0904919309
 10
-8.3664795076
 20
13.0900611451
 10
-8.3633627519
 20
13.0896193102
 10
-8.36067643
 20
13.0891664262
  0
LWPOLYLINE
  5
5E2
100
AcDbEntity
  8
RACCORDO
100
AcDbPolyline
 62
250
  6
CONTINUOUS
 90
19
 70
0
 10
8.4009953969
 20
12.757655315
 10
8.3693113671
 20
12.7596254588
 10
8.3390319903
 20
12.7641944913
 10
8.3101572665
 20
12.7713624125
 10
8.2824325285
 20
12.781476295
 10
8.2561124435
 20
12.7941890662
 10
8.2319610126
 20
12.8084595085
 10
8.2102414666
 20
12.8242519008
 10
8.1906905749
 20
12.8416019643
 10
8.1732826464
 20
12.8595756445
 10
8.1581883229
 20
12.8778189658
 10
8.1452369627
 20
12.8966859038
 10
8.1338909499
 20
12.9163043314
 10
8.1239457786
 20
12.9365211342
 10
8.1156059548
 20
12.9574894266
 10
8.1089473803
 20
12.9797964242
 10
8.1039953559
 20
13.0036378656
 10
8.1007245809
 20
13.0288180123
 10
8.0991350553
 20
13.0553368642
  0
LWPOLYLINE
  5
5E3
100
AcDbEntity
  8
RACCORDO
100
AcDbPolyline
 62
250
  6
CONTINUOUS
 90
17
 70
0
 10
-8.5719244146
 20
12.9460429764
 10
-8.5598498946
 20
12.9453121237
 10
-8.5544017951
 20
12.9449453814
 10
-8.5493512861
 20
12.9445773101
 10
-8.5446169423
 20
12.9442072167
 10
-8.5401903317
 20
12.9438355824
 10
-8.5360798865
 20
12.9434619261
 10
-8.5322294778
 20
12.9430841112
 10
-8.5286296681
 20
12.9427024681
 10
-8.525289895
 20
12.9423166664
 10
-8.5221823425
 20
12.9419235782
 10
-8.5192962731
 20
12.9415234123
 10
-8.5166424242
 20
12.9411159599
 10
-8.5142251922
 20
12.9406974674
 10
-8.5120460423
 20
12.9402666837
 10
-8.5101035093
 20
12.9398248599
 10
-8.508397593
 20
12.939371996
  0
LWPOLYLINE
  5
5E4
100
AcDbEntity
  8
RACCORDO
100
AcDbPolyline
 62
250
  6
CONTINUOUS
 90
13
 70
0
 10
8.508397593
 20
12.939371996
 10
8.489226245
 20
12.9408154184
 10
8.4703791447
 20
12.9447679219
 10
8.4521750557
 20
12.9511626573
 10
8.4349218663
 20
12.9598914696
 10
8.4189113821
 20
12.9708067271
 10
8.4044143905
 20
12.9837238187
 10
8.3916760813
 20
12.9984242756
 10
8.3809118991
 20
13.0146594672
 10
8.3723039001
 20
13.0321548053
 10
8.3659976726
 20
13.0506143888
 10
8.3620998745
 20
13.0697260083
 10
8.36067643
 20
13.0891664262
  0
LWPOLYLINE
  5
5E5
100
AcDbEntity
  8
RACCORDO
100
AcDbPolyline
 62
250
  6
CONTINUOUS
 90
13
 70
0
 10
8.8432538616
 20
12.9226072876
 10
8.8624237558
 20
12.921164072
 10
8.8812697659
 20
12.9172120732
 10
8.8994731628
 20
12.9108180083
 10
8.9167260754
 20
12.9020898911
 10
8.9327366518
 20
12.8911752321
 10
8.9472340092
 20
12.878258567
 10
8.9599728963
 20
12.8635582737
 10
8.9707377705
 20
12.8473229307
 10
8.9793464401
 20
12.8298271721
 10
8.985653232
 20
12.8113669281
 10
8.9895514262
 20
12.7922543989
 10
8.9909750246
 20
12.7728128574
  0
LWPOLYLINE
  5
5E6
100
AcDbEntity
  8
RACCORDO
100
AcDbPolyline
 62
250
  6
CONTINUOUS
 90
13
 70
0
 10
8.9360860759
 20
12.950198812
 10
8.9552574239
 20
12.9487553897
 10
8.9741045242
 20
12.9448028862
 10
8.9923086133
 20
12.9384081507
 10
9.0095618027
 20
12.9296793385
 10
9.0255722871
 20
12.9187640809
 10
9.0400692787
 20
12.9058469894
 10
9.052807588
 20
12.8911465324
 10
9.0635717702
 20
12.8749113408
 10
9.0721797692
 20
12.8574160028
 10
9.0784859967
 20
12.8389564192
 10
9.0823837946
 20
12.8198447998
 10
9.0838072388
 20
12.8004043818
  0
LINE
  5
5E7
100
AcDbEntity
  8
DRAFT
100
AcDbLine
 62
7
  6
CONTINUOUS
 10
9.5765776706
 20
-11.6768171738
 11
9.6449489743
 21
-11.65
  0
LINE
  5
5E8
100
AcDbEntity
  8
DRAFT
100
AcDbLine
 62
7
  6
CONTINUOUS
 10
9.5436394679
 20
-11.6895195314
 11
9.5765776706
 21
-11.6768171738
  0
LWPOLYLINE
  5
5E9
100
AcDbEntity
  8
DRAFT
100
AcDbPolyline
 62
7
  6
CONTINUOUS
 90
3
 70
0
 10
9.4950979979
 20
-11.7076485572
 10
9.511151302
 20
-11.7017281103
 10
9.5436394679
 20
-11.6895195314
  0
LWPOLYLINE
  5
5EA
100
AcDbEntity
  8
RACCORDO
100
AcDbPolyline
 62
7
  6
CONTINUOUS
 90
19
 70
0
 10
9.3292938566
 20
-11.4602070867
 10
9.3058694462
 20
-11.4686691316
 10
9.2842986861
 20
-11.4786914729
 10
9.2645815765
 20
-11.4902318421
 10
9.246630867
 20
-11.503433686
 10
9.2305338079
 20
-11.517956718
 10
9.2165521501
 20
-11.5330075872
 10
9.2048621684
 20
-11.5483828438
 10
9.1952875879
 20
-11.5639196153
 10
9.1875613345
 20
-11.5789408594
 10
9.1817881011
 20
-11.5931382964
 10
9.1778631948
 20
-11.6064780191
 10
9.1752054627
 20
-11.6187571719
 10
9.1737859025
 20
-11.6297973526
 10
9.1736335165
 20
-11.6394035112
 10
9.1742541585
 20
-11.6473703729
 10
9.1754831133
 20
-11.6535360793
 10
9.1774850962
 20
-11.6577664855
 10
9.1802601072
 20
-11.6599329936
  0
LINE
  5
5EB
100
AcDbEntity
  8
RACCORDO
100
AcDbLine
 62
250
  6
CONTINUOUS
 10
8.36067643
 20
-13.4108335738
 11
8.2468562183
 21
-13.4446631358
  0
LINE
  5
5EC
100
AcDbEntity
  8
RACCORDO
100
AcDbLine
 62
250
  6
CONTINUOUS
 10
8.508397593
 20
-13.560628004
 11
8.4009945665
 21
-13.5925502548
  0
LWPOLYLINE
  5
5ED
100
AcDbEntity
  8
RACCORDO
100
AcDbPolyline
 62
250
  6
CONTINUOUS
 90
16
 70
0
 10
8.9360818415
 20
-13.549801188
 10
8.9417257327
 20
-13.5481369924
 10
8.9471080004
 20
-13.5448713774
 10
8.9522286448
 20
-13.5401008056
 10
8.957120955
 20
-13.5339374301
 10
8.9617516419
 20
-13.5264986522
 10
8.9660208379
 20
-13.5178988114
 10
8.9699042341
 20
-13.508333535
 10
8.9734261394
 20
-13.4978799965
 10
8.9765596139
 20
-13.4864134275
 10
8.9793302604
 20
-13.4739695809
 10
8.9817124761
 20
-13.4606891024
 10
8.9836025128
 20
-13.4465430968
 10
8.9849657877
 20
-13.4315968124
 10
8.9858368837
 20
-13.4160320809
 10
8.9862158006
 20
-13.4000067578
  0
LWPOLYLINE
  5
5EE
100
AcDbEntity
  8
RACCORDO
100
AcDbPolyline
 62
250
  6
CONTINUOUS
 90
11
 70
0
 10
-8.508397593
 20
13.560628004
 10
-8.5120327167
 20
13.5597725332
 10
-8.5163281193
 20
13.5589621962
 10
-8.5212838007
 20
13.5581969931
 10
-8.5269907096
 20
13.5574780646
 10
-8.5333578974
 20
13.55680427
 10
-8.5401125179
 20
13.5561721862
 10
-8.5472310939
 20
13.5555821251
 10
-8.5547371026
 20
13.5550337749
 10
-8.5624281301
 20
13.5545227778
 10
-8.5702869209
 20
13.5540492817
  0
LWPOLYLINE
  5
5EF
100
AcDbEntity
  8
RACCORDO
100
AcDbPolyline
 62
250
  6
CONTINUOUS
 90
9
 70
0
 10
-8.36067643
 20
13.4108335738
 10
-8.3661718269
 20
13.40997797
 10
-8.3731110225
 20
13.4091675576
 10
-8.3812943599
 20
13.4084023368
 10
-8.3905098091
 20
13.4076834822
 10
-8.4005866682
 20
13.407009819
 10
-8.4114203108
 20
13.4063778229
 10
-8.4228730551
 20
13.4057877519
 10
-8.4347989296
 20
13.4052393478
  0
LWPOLYLINE
  5
5F0
100
AcDbEntity
  8
0
100
AcDbPolyline
 62
7
  6
CONTINUOUS
 90
13
 70
0
 10
2.8065975821
 20
14.3849276465
 10
2.9235314501
 20
14.4017300978
 10
3.037324036
 20
14.4153913948
 10
3.1479753398
 20
14.4259115373
 10
3.2555461506
 20
14.4334375006
 10
3.3599756793
 20
14.4378223095
 10
3.4610815584
 20
14.4386250387
 10
3.5590345652
 20
14.4359439524
 10
3.6536639223
 20
14.4296807864
 10
3.7442749308
 20
14.4190998233
 10
3.8306360244
 20
14.4039558239
 10
3.9129787693
 20
14.3844940275
 10
3.9913031656
 20
14.3607144339
  0
LINE
  5
5F1
100
AcDbEntity
  8
RACCORDO
100
AcDbLine
 62
7
  6
CONTINUOUS
 10
10.5677407521
 20
14.6969203156
 11
10.6
 21
14.6986109511
  0
LINE
  5
5F2
100
AcDbEntity
  8
RACCORDO
100
AcDbLine
 62
250
  6
CONTINUOUS
 10
-8.5702869209
 20
13.5540492817
 11
-8.5864089109
 21
13.5532095472
  0
LINE
  5
5F3
100
AcDbEntity
  8
RACCORDO
100
AcDbLine
 62
250
  6
CONTINUOUS
 10
-8.5864089109
 20
13.5532095472
 11
-8.6026176703
 21
13.5525007849
  0
LINE
  5
5F4
100
AcDbEntity
  8
RACCORDO
100
AcDbLine
 62
250
  6
CONTINUOUS
 10
-8.4347989296
 20
13.4052393478
 11
-8.4597469391
 21
13.4042548192
  0
LWPOLYLINE
  5
5F5
100
AcDbEntity
  8
RACCORDO
100
AcDbPolyline
 62
250
  6
CONTINUOUS
 90
10
 70
0
 10
-8.8446593206
 20
13.7372403674
 10
-8.8692688688
 20
13.7363201419
 10
-8.8910661109
 20
13.7353677725
 10
-8.9109575915
 20
13.7343740146
 10
-8.9288620058
 20
13.7333482561
 10
-8.944765059
 20
13.732281109
 10
-8.9592178966
 20
13.7311351649
 10
-8.9720710768
 20
13.7298979544
 10
-8.9827695463
 20
13.728581947
 10
-8.9909750246
 20
13.7271871426
  0
LINE
  5
5F6
100
AcDbEntity
  8
RACCORDO
100
AcDbLine
 62
250
  6
CONTINUOUS
 10
-8.6026176703
 20
13.5525007849
 11
-8.6187187007
 21
13.5519042578
  0
LWPOLYLINE
  5
5F7
100
AcDbEntity
  8
RACCORDO
100
AcDbPolyline
 62
250
  6
CONTINUOUS
 90
3
 70
0
 10
-8.4597469391
 20
13.4042548192
 10
-8.4854945387
 20
13.4034151169
 10
-8.49847235
 20
13.4030444609
  0
LINE
  5
5F8
100
AcDbEntity
  8
DRAFT
100
AcDbLine
 62
7
  6
CONTINUOUS
 10
-10.1
 20
14.7373232745
 11
-10.6
 21
14.7221944518
  0
LINE
  5
5F9
100
AcDbEntity
  8
RACCORDO
100
AcDbLine
 62
250
  6
CONTINUOUS
 10
-8.6187187007
 20
13.5519042578
 11
-8.6346273054
 21
13.5514084132
  0
LINE
  5
5FA
100
AcDbEntity
  8
RACCORDO
100
AcDbLine
 62
250
  6
CONTINUOUS
 10
-8.7857576356
 20
13.7390230608
 11
-8.8446593206
 21
13.7372403674
  0
LINE
  5
5FB
100
AcDbEntity
  8
RACCORDO
100
AcDbLine
 62
250
  6
CONTINUOUS
 10
-9.0700240957
 20
15.0403625912
 11
-9.048757155
 21
15.0410089964
  0
LWPOLYLINE
  5
5FC
100
AcDbEntity
  8
RACCORDO
100
AcDbPolyline
 62
250
  6
CONTINUOUS
 90
56
 70
0
 10
-9.048757155
 20
15.0410089964
 10
-9.0381829051
 20
15.041305233
 10
-9.0276614324
 20
15.0415437402
 10
-9.017165559
 20
15.0417345612
 10
-9.0065721084
 20
15.0418186989
 10
-8.9958837266
 20
15.0417966916
 10
-8.9850977677
 20
15.041668001
 10
-8.9740831172
 20
15.0413720155
 10
-8.9628394485
 20
15.0409160991
 10
-8.9513670882
 20
15.0402928876
 10
-8.9395359014
 20
15.0394196775
 10
-8.9273280454
 20
15.0383057812
 10
-8.9147613631
 20
15.0369418862
 10
-8.9017592481
 20
15.0352173513
 10
-8.8882796638
 20
15.0331332067
 10
-8.8743646468
 20
15.0306884222
 10
-8.860063702
 20
15.0277692649
 10
-8.8453210839
 20
15.0243564605
 10
-8.8301925378
 20
15.0204692832
 10
-8.8148948046
 20
15.0160518235
 10
-8.7993914609
 20
15.0110660534
 10
-8.7837189301
 20
15.0055500009
 10
-8.768203223
 20
14.9995618392
 10
-8.7528973482
 20
14.9930949113
 10
-8.7377482971
 20
14.9861558743
 10
-8.7229230554
 20
14.9788228727
 10
-8.7084527828
 20
14.9710995148
 10
-8.6943063196
 20
14.9629821924
 10
-8.6805571715
 20
14.9545382258
 10
-8.6671984482
 20
14.9457549912
 10
-8.65423704
 20
14.9366451124
 10
-8.6417671243
 20
14.927313781
 10
-8.6298006168
 20
14.9177604082
 10
-8.6183256018
 20
14.9079855829
 10
-8.6074005091
 20
14.8980962631
 10
-8.5970430473
 20
14.8881038454
 10
-8.5872355078
 20
14.8779969332
 10
-8.5779831952
 20
14.8678482952
 10
-8.5692924505
 20
14.8576641716
 10
-8.5611569327
 20
14.8474383223
 10
-8.5535629234
 20
14.8372247949
 10
-8.546522272
 20
14.8270467968
 10
-8.5400231291
 20
14.8168811206
 10
-8.5340162281
 20
14.806712192
 10
-8.5284997564
 20
14.7965618626
 10
-8.5234755266
 20
14.7864082808
 10
-8.5188997111
 20
14.7761703174
 10
-8.5147526729
 20
14.7658351608
 10
-8.5110540489
 20
14.7554156227
 10
-8.5078189213
 20
14.7448690083
 10
-8.5050375244
 20
14.7341562614
 10
-8.502719624
 20
14.7233164382
 10
-8.5009095982
 20
14.7124240125
 10
-8.4996222401
 20
14.7015038087
 10
-8.4988427567
 20
14.6905310024
 10
-8.4985711481
 20
14.6795055934
  0
LINE
  5
5FD
100
AcDbEntity
  8
RACCORDO
100
AcDbLine
 62
250
  6
CONTINUOUS
 10
-8.6346273054
 20
13.5514084132
 11
-8.6503112255
 21
13.5509956039
  0
LINE
  5
5FE
100
AcDbEntity
  8
RACCORDO
100
AcDbLine
 62
250
  6
CONTINUOUS
 10
-8.7148962215
 20
13.7405310061
 11
-8.7857576356
 21
13.7390230608
  0
LINE
  5
5FF
100
AcDbEntity
  8
RACCORDO
100
AcDbLine
 62
250
  6
CONTINUOUS
 10
-8.6503112255
 20
13.5509956039
 11
-8.6735940174
 21
13.5505078915
  0
LWPOLYLINE
  5
600
100
AcDbEntity
  8
RACCORDO
100
AcDbPolyline
 62
250
  6
CONTINUOUS
 90
3
 70
0
 10
-9.1024704672
 20
15.0397929133
 10
-9.0915877677
 20
15.0399413655
 10
-9.0700240957
 20
15.0403625912
  0
LINE
  5
601
100
AcDbEntity
  8
RACCORDO
100
AcDbLine
 62
250
  6
CONTINUOUS
 10
-8.6735940174
 20
13.5505078915
 11
-8.6969193901
 21
13.5501543782
  0
LINE
  5
602
100
AcDbEntity
  8
RACCORDO
100
AcDbLine
 62
250
  6
CONTINUOUS
 10
-8.6332809061
 20
13.741666294
 11
-8.7148962215
 21
13.7405310061
  0
LINE
  5
603
100
AcDbEntity
  8
RACCORDO
100
AcDbLine
 62
250
  6
CONTINUOUS
 10
-8.6969193901
 20
13.5501543782
 11
-8.7127632925
 21
13.5499857528
  0
LWPOLYLINE
  5
604
100
AcDbEntity
  8
RACCORDO
100
AcDbPolyline
 62
250
  6
CONTINUOUS
 90
18
 70
0
 10
-8.5312595074
 20
13.592454257
 10
-8.5626917846
 20
13.5922281702
 10
-8.5928679796
 20
13.5918719943
 10
-8.6220367796
 20
13.5913693245
 10
-8.6499494974
 20
13.5907365656
 10
-8.6758600714
 20
13.5900229319
 10
-8.6995399892
 20
13.5892285876
 10
-8.7212177632
 20
13.5883533684
 10
-8.7408328696
 20
13.5874459963
 10
-8.7581452291
 20
13.5865258067
 10
-8.7733949211
 20
13.5855734642
 10
-8.7872416596
 20
13.5845796838
 10
-8.7998655583
 20
13.5835537971
 10
-8.8110865036
 20
13.5824864724
 10
-8.8210238692
 20
13.5813404296
 10
-8.8297174464
 20
13.580103242
 10
-8.8371274439
 20
13.5787873363
 10
-8.8432538616
 20
13.5773927124
  0
LINE
  5
605
100
AcDbEntity
  8
RACCORDO
100
AcDbLine
 62
250
  6
CONTINUOUS
 10
-8.5447709414
 20
13.7422486064
 11
-8.6332809061
 21
13.741666294
  0
LINE
  5
606
100
AcDbEntity
  8
RACCORDO
100
AcDbLine
 62
250
  6
CONTINUOUS
 10
-8.4009951737
 20
13.742344685
 11
-8.5447709414
 21
13.7422486064
  0
LINE
  5
607
100
AcDbEntity
  8
RACCORDO
100
AcDbLine
 62
250
  6
CONTINUOUS
 10
-9.4781437817
 20
14.2974685017
 11
-10.1886751346
 21
14.2974685017
  0
LINE
  5
608
100
AcDbEntity
  8
RACCORDO
100
AcDbLine
 62
250
  6
CONTINUOUS
 10
9.4781437817
 20
14.2974685017
 11
10.1886751346
 21
14.2974685017
  0
LINE
  5
609
100
AcDbEntity
  8
0
100
AcDbLine
 62
7
  6
CONTINUOUS
 10
-4.441534
 20
14.411797
 11
-3.920045
 21
14.411797
  0
LINE
  5
60A
100
AcDbEntity
  8
0
100
AcDbLine
 62
7
  6
CONTINUOUS
 10
-3.02989
 20
14.411797
 11
-2.550162
 21
14.411797
  0
LINE
  5
60B
100
AcDbEntity
  8
0
100
AcDbLine
 62
7
  6
CONTINUOUS
 10
-1.425869
 20
14.411797
 11
-0.946209
 21
14.411797
  0
LINE
  5
60C
100
AcDbEntity
  8
0
100
AcDbLine
 62
7
  6
CONTINUOUS
 10
0.008833
 20
14.411797
 11
0.483802
 21
14.411797
  0
LINE
  5
60D
100
AcDbEntity
  8
0
100
AcDbLine
 62
7
  6
CONTINUOUS
 10
1.4956
 20
14.411797
 11
1.959997
 21
14.411797
  0
LINE
  5
60E
100
AcDbEntity
  8
0
100
AcDbLine
 62
7
  6
CONTINUOUS
 10
-2.372012
 20
14.411935
 11
-1.891956
 21
14.411935
  0
LINE
  5
60F
100
AcDbEntity
  8
RACCORDO
100
AcDbLine
 62
250
  6
CONTINUOUS
 10
-8.9909750246
 20
14.679505581
 11
-8.4985711481
 21
14.6795055934
  0
LINE
  5
610
100
AcDbEntity
  8
RACCORDO
100
AcDbLine
 62
250
  6
CONTINUOUS
 10
8.9909750246
 20
14.6795055804
 11
8.4985711481
 21
14.6795055934
  0
LINE
  5
611
100
AcDbEntity
  8
RACCORDO
100
AcDbLine
 62
250
  6
CONTINUOUS
 10
-10.5677407521
 20
14.6969203156
 11
-9.5840902598
 21
14.6969203156
  0
LINE
  5
612
100
AcDbEntity
  8
RACCORDO
100
AcDbLine
 62
250
  6
CONTINUOUS
 10
9.5840902598
 20
14.6969203156
 11
10.5677407521
 21
14.6969203156
  0
LINE
  5
613
100
AcDbEntity
  8
DRAFT
100
AcDbLine
 62
7
  6
CONTINUOUS
 10
-9.4950979979
 20
14.7923514428
 11
-9.3049020021
 21
14.7923514428
  0
LINE
  5
614
100
AcDbEntity
  8
DRAFT
100
AcDbLine
 62
7
  6
CONTINUOUS
 10
9.3049020021
 20
14.7923514428
 11
9.4950979979
 21
14.7923514428
  0
LINE
  5
615
100
AcDbEntity
  8
RACCORDO
100
AcDbLine
 62
250
  6
CONTINUOUS
 10
9.1802601072
 20
14.8400670064
 11
9.1024704672
 21
14.8400670064
  0
LINE
  5
616
100
AcDbEntity
  8
RACCORDO
100
AcDbLine
 62
250
  6
CONTINUOUS
 10
-9.1024704672
 20
14.8400670064
 11
-9.1802601072
 21
14.8400670064
  0
LINE
  5
617
100
AcDbEntity
  8
DRAFT
100
AcDbLine
 62
7
  6
CONTINUOUS
 10
-9.75
 20
14.85
 11
-9.6449489743
 21
14.85
  0
LINE
  5
618
100
AcDbEntity
  8
DRAFT
100
AcDbLine
 62
7
  6
CONTINUOUS
 10
9.6449489743
 20
14.85
 11
9.75
 21
14.85
  0
LINE
  5
619
100
AcDbEntity
  8
DRAFT
100
AcDbLine
 62
7
  6
CONTINUOUS
 10
-9.9496573543
 20
14.8529366156
 11
-9.75
 21
14.8529366156
  0
LINE
  5
61A
100
AcDbEntity
  8
DRAFT
100
AcDbLine
 62
7
  6
CONTINUOUS
 10
9.75
 20
14.8529366156
 11
9.9496573543
 21
14.8529366156
  0
LINE
  5
61B
100
AcDbEntity
  8
RACCORDO
100
AcDbLine
 62
250
  6
CONTINUOUS
 10
-9.3292938566
 20
15.0397929133
 11
-9.1024704672
 21
15.0397929133
  0
LINE
  5
61C
100
AcDbEntity
  8
RACCORDO
100
AcDbLine
 62
250
  6
CONTINUOUS
 10
9.1024704672
 20
15.0397929133
 11
9.3292938566
 21
15.0397929133
  0
LINE
  5
61D
100
AcDbEntity
  8
RACCORDO
100
AcDbLine
 62
7
  6
CONTINUOUS
 10
4.75
 20
15.2
 11
-4.75
 21
15.2
  0
LINE
  5
61E
100
AcDbEntity
  8
RACCORDO
100
AcDbLine
 62
250
  6
CONTINUOUS
 10
8.4009945665
 20
13.742344685
 11
8.5434313452
 21
13.7422575277
  0
LWPOLYLINE
  5
61F
100
AcDbEntity
  8
RACCORDO
100
AcDbPolyline
 62
250
  6
CONTINUOUS
 90
50
 70
0
 10
-9.1024704672
 20
14.8400670064
 10
-9.097640329
 20
14.840034153
 10
-9.0929174914
 20
14.8398412412
 10
-9.0883060419
 20
14.8394918284
 10
-9.0838131433
 20
14.8389874491
 10
-9.0794392149
 20
14.8383337805
 10
-9.075177825
 20
14.8375414295
 10
-9.0710431709
 20
14.8366191447
 10
-9.0670269153
 20
14.835568151
 10
-9.0630890683
 20
14.8343854567
 10
-9.0592315554
 20
14.8330738593
 10
-9.0554589104
 20
14.8316339258
 10
-9.0517367128
 20
14.8300530586
 10
-9.0480664318
 20
14.8283299685
 10
-9.0444553906
 20
14.8264632073
 10
-9.040880451
 20
14.8244338187
 10
-9.0373407556
 20
14.8222345766
 10
-9.0338499985
 20
14.8198645762
 10
-9.0304092624
 20
14.8173103972
 10
-9.0270169133
 20
14.8145597183
 10
-9.0236912875
 20
14.8116153351
 10
-9.0204633697
 20
14.8084877332
 10
-9.0173336553
 20
14.8051651873
 10
-9.0143179408
 20
14.8016557899
 10
-9.0114648761
 20
14.7980076028
 10
-9.0087782568
 20
14.7942198144
 10
-9.0062619092
 20
14.7903021194
 10
-9.0039539126
 20
14.7863298747
 10
-9.0018620745
 20
14.7823294142
 10
-8.9999710624
 20
14.7782954852
 10
-8.9982757492
 20
14.7742629709
 10
-8.996774099
 20
14.770250903
 10
-8.9954553364
 20
14.7662604635
 10
-8.9942992831
 20
14.7623001192
 10
-8.9932991675
 20
14.7583752331
 10
-8.9924490068
 20
14.7544961631
 10
-8.9917296311
 20
14.7506779733
 10
-8.9911343929
 20
14.7469294537
 10
-8.9906558981
 20
14.7432547311
 10
-8.9902736803
 20
14.7396611812
 10
-8.9899807354
 20
14.7361580672
 10
-8.989770388
 20
14.7327460032
 10
-8.9896237593
 20
14.729418335
 10
-8.989534347
 20
14.726179337
 10
-8.9894972908
 20
14.723031605
 10
-8.9894980242
 20
14.719964897
 10
-8.9895312201
 20
14.7169864318
 10
-8.9895929276
 20
14.7140937335
 10
-8.9896731226
 20
14.7112610593
 10
-8.9897689607
 20
14.7084932357
  0
LINE
  5
620
100
AcDbEntity
  8
RACCORDO
100
AcDbLine
 62
250
  6
CONTINUOUS
 10
8.5434313452
 20
13.7422575277
 11
8.6301009404
 21
13.7416985365
  0
LINE
  5
621
100
AcDbEntity
  8
RACCORDO
100
AcDbLine
 62
250
  6
CONTINUOUS
 10
8.7067456454
 20
13.5500434549
 11
8.6785351685
 21
13.5504233773
  0
LINE
  5
622
100
AcDbEntity
  8
RACCORDO
100
AcDbLine
 62
250
  6
CONTINUOUS
 10
8.6301009404
 20
13.7416985365
 11
8.7111742518
 21
13.740594776
  0
LINE
  5
623
100
AcDbEntity
  8
RACCORDO
100
AcDbLine
 62
250
  6
CONTINUOUS
 10
8.6785351685
 20
13.5504233773
 11
8.6532180397
 21
13.5509250507
  0
LWPOLYLINE
  5
624
100
AcDbEntity
  8
RACCORDO
100
AcDbPolyline
 62
250
  6
CONTINUOUS
 90
3
 70
0
 10
9.0700370915
 20
15.0403622029
 10
9.0807810107
 20
15.0401309886
 10
9.1024704672
 20
15.0397929133
  0
LINE
  5
625
100
AcDbEntity
  8
RACCORDO
100
AcDbLine
 62
250
  6
CONTINUOUS
 10
8.7111742518
 20
13.740594776
 11
8.7818445097
 21
13.7391230648
  0
LINE
  5
626
100
AcDbEntity
  8
RACCORDO
100
AcDbLine
 62
250
  6
CONTINUOUS
 10
8.6532180397
 20
13.5509250507
 11
8.6307289759
 21
13.5515225467
  0
LINE
  5
627
100
AcDbEntity
  8
RACCORDO
100
AcDbLine
 62
250
  6
CONTINUOUS
 10
8.5104061113
 20
13.4027315835
 11
8.4846708518
 21
13.4034399959
  0
LINE
  5
628
100
AcDbEntity
  8
DRAFT
100
AcDbLine
 62
7
  6
CONTINUOUS
 10
10.6
 20
14.7221944518
 11
10.1
 21
14.7373232745
  0
LWPOLYLINE
  5
629
100
AcDbEntity
  8
RACCORDO
100
AcDbPolyline
 62
250
  6
CONTINUOUS
 90
11
 70
0
 10
8.7818445097
 20
13.7391230648
 10
8.8408132463
 20
13.7373742716
 10
8.8657259481
 20
13.7364616894
 10
8.8879356736
 20
13.7355117494
 10
8.9083157572
 20
13.7345139722
 10
8.9267671138
 20
13.7334765178
 10
8.9432310674
 20
13.7323912262
 10
8.9581985744
 20
13.7312231388
 10
8.9714897573
 20
13.7299606026
 10
8.982536326
 20
13.7286152705
 10
8.9909750246
 20
13.7271871426
  0
LINE
  5
62A
100
AcDbEntity
  8
RACCORDO
100
AcDbLine
 62
250
  6
CONTINUOUS
 10
8.4846708518
 20
13.4034399959
 11
8.4623321402
 21
13.4041625993
  0
LINE
  5
62B
100
AcDbEntity
  8
RACCORDO
100
AcDbLine
 62
250
  6
CONTINUOUS
 10
8.6307289759
 20
13.5515225467
 11
8.6109361435
 21
13.5521814105
  0
LINE
  5
62C
100
AcDbEntity
  8
RACCORDO
100
AcDbLine
 62
250
  6
CONTINUOUS
 10
8.4623321402
 20
13.4041625993
 11
8.4430001126
 21
13.4048934479
  0
LINE
  5
62D
100
AcDbEntity
  8
RACCORDO
100
AcDbLine
 62
250
  6
CONTINUOUS
 10
8.6109361435
 20
13.5521814105
 11
8.5936368192
 21
13.5528765813
  0
LINE
  5
62E
100
AcDbEntity
  8
RACCORDO
100
AcDbLine
 62
250
  6
CONTINUOUS
 10
8.4430001126
 20
13.4048934479
 11
8.4262042115
 21
13.4056282634
  0
LWPOLYLINE
  5
62F
100
AcDbEntity
  8
RACCORDO
100
AcDbPolyline
 62
250
  6
CONTINUOUS
 90
3
 70
0
 10
8.5936368192
 20
13.5528765813
 10
8.5786611605
 20
13.5535949314
 10
8.5719244146
 20
13.5539570236
  0
LINE
  5
630
100
AcDbEntity
  8
RACCORDO
100
AcDbLine
 62
7
  6
CONTINUOUS
 10
-10.6
 20
14.6986109511
 11
-10.5677407521
 21
14.6969203156
  0
LWPOLYLINE
  5
631
100
AcDbEntity
  8
RACCORDO
100
AcDbPolyline
 62
250
  6
CONTINUOUS
 90
13
 70
0
 10
8.4262042115
 20
13.4056282634
 10
8.4115544314
 20
13.4063699881
 10
8.4049740697
 20
13.40674364
 10
8.3988074456
 20
13.4071214536
 10
8.3930546698
 20
13.4075031036
 10
8.387714784
 20
13.4078889153
 10
8.3827320294
 20
13.408282006
 10
8.3781183323
 20
13.408682158
 10
8.3738846461
 20
13.409089589
 10
8.3700005885
 20
13.4095080691
 10
8.3664795076
 20
13.4099388549
 10
8.3633627519
 20
13.4103806898
 10
8.36067643
 20
13.4108335738
  0
LWPOLYLINE
  5
632
100
AcDbEntity
  8
RACCORDO
100
AcDbPolyline
 62
250
  6
CONTINUOUS
 90
17
 70
0
 10
8.5719244146
 20
13.5539570236
 10
8.5598498946
 20
13.5546878763
 10
8.5544017951
 20
13.5550546186
 10
8.5493512861
 20
13.5554226899
 10
8.5446169423
 20
13.5557927833
 10
8.5401903317
 20
13.5561644176
 10
8.5360798865
 20
13.5565380739
 10
8.5322294778
 20
13.5569158888
 10
8.5286296681
 20
13.5572975319
 10
8.525289895
 20
13.5576833336
 10
8.5221823425
 20
13.5580764218
 10
8.5192962731
 20
13.5584765877
 10
8.5166424242
 20
13.5588840401
 10
8.5142251922
 20
13.5593025326
 10
8.5120460423
 20
13.5597333163
 10
8.5101035093
 20
13.5601751401
 10
8.508397593
 20
13.560628004
  0
LWPOLYLINE
  5
633
100
AcDbEntity
  8
0
100
AcDbPolyline
 62
7
  6
CONTINUOUS
 90
10
 70
0
 10
3.6448852159
 20
14.0335428839
 10
3.6034874587
 20
14.0376307315
 10
3.5620047959
 20
14.0403132397
 10
3.5204372275
 20
14.0415904083
 10
3.4788012144
 20
14.0414524753
 10
3.4370802957
 20
14.0399092027
 10
3.3952250888
 20
14.0369898773
 10
3.3532191328
 20
14.032704261
 10
3.3110788886
 20
14.0270425919
 10
3.2688043561
 20
14.0200048698
  0
LINE
  5
634
100
AcDbEntity
  8
RACCORDO
100
AcDbLine
 62
250
  6
CONTINUOUS
 10
8.36067643
 20
13.4108335738
 11
8.2468562183
 21
13.4446631358
  0
LINE
  5
635
100
AcDbEntity
  8
RACCORDO
100
AcDbLine
 62
250
  6
CONTINUOUS
 10
8.508397593
 20
13.560628004
 11
8.4009945665
 21
13.5925502548
  0
LWPOLYLINE
  5
636
100
AcDbEntity
  8
DRAFT
100
AcDbPolyline
 62
7
  6
CONTINUOUS
 90
3
 70
0
 10
9.4950979979
 20
11.7076485572
 10
9.527331792
 20
11.6956851017
 10
9.5436394679
 20
11.6895195314
  0
LINE
  5
637
100
AcDbEntity
  8
DRAFT
100
AcDbLine
 62
7
  6
CONTINUOUS
 10
9.5436394679
 20
11.6895195314
 11
9.5765776706
 21
11.6768171738
  0
LINE
  5
638
100
AcDbEntity
  8
DRAFT
100
AcDbLine
 62
7
  6
CONTINUOUS
 10
9.5765776706
 20
11.6768171738
 11
9.6449489743
 21
11.65
  0
LWPOLYLINE
  5
639
100
AcDbEntity
  8
0
100
AcDbPolyline
 62
7
  6
CONTINUOUS
 90
42
 70
0
 10
3.9913031656
 20
14.3607144339
 10
4.0310019846
 20
14.3437572152
 10
4.0700611124
 20
14.3223910003
 10
4.108480549
 20
14.2966157891
 10
4.1471313319
 20
14.2658532491
 10
4.1851424236
 20
14.2306817129
 10
4.2199007121
 20
14.1928361781
 10
4.2508454009
 20
14.1519332305
 10
4.2785372865
 20
14.1083562842
 10
4.3020456473
 20
14.0649905789
 10
4.3206559699
 20
14.0225481351
 10
4.3350827677
 20
13.9803169322
 10
4.3465388597
 20
13.9390461483
 10
4.3550842097
 20
13.8989029927
 10
4.3606588538
 20
13.8597202562
 10
4.3642957192
 20
13.8217454883
 10
4.3661745842
 20
13.7850300704
 10
4.3661156704
 20
13.7495226212
 10
4.3646125692
 20
13.715316547
 10
4.3617170973
 20
13.6824537916
 10
4.357377438
 20
13.6508924111
 10
4.351931732
 20
13.6205999806
 10
4.3453919518
 20
13.591591122
 10
4.3377461248
 20
13.5638512134
 10
4.3292964742
 20
13.5373039638
 10
4.3200456647
 20
13.5119257531
 10
4.3099910315
 20
13.4877402014
 10
4.2994268035
 20
13.4647418772
 10
4.288376099
 20
13.442944576
 10
4.2768157998
 20
13.4223345024
 10
4.2649707796
 20
13.402864838
 10
4.2528607817
 20
13.3845639916
 10
4.2404660628
 20
13.3674035545
 10
4.2279522682
 20
13.3512514818
 10
4.215333604
 20
13.3361632826
 10
4.2025958639
 20
13.3220834479
 10
4.189862075
 20
13.3087134055
 10
4.1771481818
 20
13.296036533
 10
4.1644382396
 20
13.2840694529
 10
4.1518074414
 20
13.2725634601
 10
4.139280265
 20
13.2614207009
 10
4.1268322326
 20
13.2507390291
  0
LWPOLYLINE
  5
63A
100
AcDbEntity
  8
0
100
AcDbPolyline
 62
7
  6
CONTINUOUS
 90
16
 70
0
 10
4.0407988352
 20
13.185528575
 10
4.0659888802
 20
13.1740239774
 10
4.0904252031
 20
13.1594244819
 10
4.1141078038
 20
13.1417300884
 10
4.1371407799
 20
13.1208628609
 10
4.1594200339
 20
13.0969007354
 10
4.1806332733
 20
13.0700775202
 10
4.2007627443
 20
13.0401799639
 10
4.2198262007
 20
13.0074213179
 10
4.2375646116
 20
12.9726751453
 10
4.2538228228
 20
12.9358528018
 10
4.2687559885
 20
12.8970429316
 10
4.2825705405
 20
12.8573850306
 10
4.2953352895
 20
12.8172589306
 10
4.3069814248
 20
12.7762847998
 10
4.3175089464
 20
12.7344626381
  0
LWPOLYLINE
  5
63B
100
AcDbEntity
  8
RACCORDO
100
AcDbPolyline
 62
250
  6
CONTINUOUS
 90
16
 70
0
 10
9.5840895643
 20
-14.6969203156
 10
9.5886122961
 20
-14.692733669
 10
9.5929541211
 20
-14.6845384944
 10
9.5971150394
 20
-14.6725031754
 10
9.6011178734
 20
-14.6568929535
 10
9.6049398007
 20
-14.6379036969
 10
9.6085123539
 20
-14.6155354306
 10
9.6118443111
 20
-14.5899180043
 10
9.6149268942
 20
-14.5613146171
 10
9.6176653018
 20
-14.5298295834
 10
9.6200580639
 20
-14.4956550218
 10
9.6221066505
 20
-14.4591460069
 10
9.6237206707
 20
-14.4206772051
 10
9.624869994
 20
-14.3806380064
 10
9.6255847509
 20
-14.3394235326
 10
9.6258649414
 20
-14.2974685017
  0
LWPOLYLINE
  5
63C
100
AcDbEntity
  8
RACCORDO
100
AcDbPolyline
 62
7
  6
CONTINUOUS
 90
19
 70
0
 10
9.1802601072
 20
-14.8400670064
 10
9.1774845027
 20
-14.8422343273
 10
9.1754822891
 20
-14.8464663749
 10
9.1742534667
 20
-14.8526342414
 10
9.1736332837
 20
-14.860603352
 10
9.1737864918
 20
-14.8702116394
 10
9.1752073455
 20
-14.8812540958
 10
9.1778671297
 20
-14.8935361589
 10
9.1817945595
 20
-14.9068789666
 10
9.1875700353
 20
-14.9210784506
 10
9.1952982725
 20
-14.9360997696
 10
9.2048745558
 20
-14.951635037
 10
9.2165651395
 20
-14.9670079484
 10
9.2305457234
 20
-14.9820555769
 10
9.2466406078
 20
-14.9965746249
 10
9.2645889478
 20
-15.0097730404
 10
9.2843037952
 20
-15.0213110527
 10
9.3058720981
 20
-15.0313317579
 10
9.3292938566
 20
-15.0397929133
  0
LWPOLYLINE
  5
63D
100
AcDbEntity
  8
RACCORDO
100
AcDbPolyline
 62
250
  6
CONTINUOUS
 90
16
 70
0
 10
9.0838071397
 20
-13.6995956477
 10
9.089445587
 20
-13.695905894
 10
9.0948245197
 20
-13.6894384642
 10
9.0999439378
 20
-13.6801933582
 10
9.1048383565
 20
-13.6679325052
 10
9.1094732606
 20
-13.6528939761
 10
9.1137451043
 20
-13.6357919834
 10
9.1176274517
 20
-13.6167977735
 10
9.1211467387
 20
-13.5957401001
 10
9.1242787274
 20
-13.5728194369
 10
9.1270505999
 20
-13.5479754553
 10
9.1294351741
 20
-13.5212684839
 10
9.1313266657
 20
-13.4930799825
 10
9.1326898133
 20
-13.4635371043
 10
9.1335598783
 20
-13.4325126961
 10
9.1339368607
 20
-13.4000067578
  0
LWPOLYLINE
  5
63E
100
AcDbEntity
  8
RACCORDO
100
AcDbPolyline
 62
250
  6
CONTINUOUS
 90
16
 70
0
 10
9.4363690968
 20
-14.5471258854
 10
9.4408900589
 20
-14.5442994053
 10
9.4452308803
 20
-14.5392124838
 10
9.4493915608
 20
-14.5318651209
 10
9.4533954078
 20
-14.5221690767
 10
9.457219114
 20
-14.5102125912
 10
9.4607927576
 20
-14.4962603841
 10
9.4641242519
 20
-14.4802781942
 10
9.4672056836
 20
-14.4623002828
 10
9.4699433901
 20
-14.4426941534
 10
9.4723365317
 20
-14.4213649482
 10
9.4743859482
 20
-14.3984075251
 10
9.4760004958
 20
-14.3744739611
 10
9.4771497933
 20
-14.3497816154
 10
9.477864222
 20
-14.324113129
 10
9.4781437817
 20
-14.2974685017
  0
LINE
  5
63F
100
AcDbEntity
  8
RACCORDO
100
AcDbLine
 62
7
  6
CONTINUOUS
 10
9.2228681569
 20
-14.8234013503
 11
9.1802601072
 21
-14.8400670064
  0
LWPOLYLINE
  5
640
100
AcDbEntity
  8
RACCORDO
100
AcDbPolyline
 62
7
  6
CONTINUOUS
 90
3
 70
0
 10
9.2642147691
 20
-14.8074861241
 10
9.2505281279
 20
-14.8127055877
 10
9.2228681569
 20
-14.8234013503
  0
LWPOLYLINE
  5
641
100
AcDbEntity
  8
RACCORDO
100
AcDbPolyline
 62
7
  6
CONTINUOUS
 90
3
 70
0
 10
9.3049020021
 20
-14.7923514428
 10
9.2914128555
 20
-14.7973096094
 10
9.2642147691
 20
-14.8074861241
  0
LINE
  5
642
100
AcDbEntity
  8
RACCORDO
100
AcDbLine
 62
250
  6
CONTINUOUS
 10
8.8432538616
 20
-13.5773927124
 11
8.9360860759
 21
-13.549801188
  0
LINE
  5
643
100
AcDbEntity
  8
RACCORDO
100
AcDbLine
 62
250
  6
CONTINUOUS
 10
8.9909750246
 20
-13.7271871426
 11
9.0838071397
 21
-13.6995956477
  0
LINE
  5
644
100
AcDbEntity
  8
RACCORDO
100
AcDbLine
 62
250
  6
CONTINUOUS
 10
8.9909750246
 20
-14.6795055934
 11
9.4363690968
 21
-14.5471258854
  0
LINE
  5
645
100
AcDbEntity
  8
RACCORDO
100
AcDbLine
 62
250
  6
CONTINUOUS
 10
9.5840902598
 20
-14.6969203156
 11
9.1024704672
 21
-14.8400670064
  0
LINE
  5
646
100
AcDbEntity
  8
RACCORDO
100
AcDbLine
 62
7
  6
CONTINUOUS
 10
-10.9645351961
 20
15.75
 11
-10.85
 21
15.75
  0
LINE
  5
647
100
AcDbEntity
  8
RACCORDO
100
AcDbLine
 62
7
  6
CONTINUOUS
 10
10.9645351961
 20
15.75
 11
10.85
 21
15.75
  0
LINE
  5
648
100
AcDbEntity
  8
DRAFT
100
AcDbLine
 62
7
  6
CONTINUOUS
 10
10.9828653412
 20
15.75
 11
10.9645351961
 21
15.75
  0
LINE
  5
649
100
AcDbEntity
  8
DRAFT
100
AcDbLine
 62
7
  6
CONTINUOUS
 10
-10.9828653412
 20
15.75
 11
-10.9645351961
 21
15.75
  0
LINE
  5
64A
100
AcDbEntity
  8
RACCORDO
100
AcDbLine
 62
250
  6
CONTINUOUS
 10
10.25
 20
16.2875932838
 11
9.75
 21
16.2875932838
  0
LINE
  5
64B
100
AcDbEntity
  8
0
100
AcDbLine
 62
250
  6
CONTINUOUS
 10
-9.75
 20
16.2875932838
 11
9.75
 21
16.2875932838
  0
LINE
  5
64C
100
AcDbEntity
  8
RACCORDO
100
AcDbLine
 62
250
  6
CONTINUOUS
 10
-9.75
 20
16.2875932838
 11
-10.25
 21
16.2875932838
  0
LINE
  5
64D
100
AcDbEntity
  8
RACCORDO
100
AcDbLine
 62
250
  6
CONTINUOUS
 10
10.25
 20
16.4586033555
 11
9.7494736654
 21
16.4586033555
  0
LINE
  5
64E
100
AcDbEntity
  8
0
100
AcDbLine
 62
250
  6
CONTINUOUS
 10
-9.7494736654
 20
16.4586033555
 11
9.7494736654
 21
16.4586033555
  0
LINE
  5
64F
100
AcDbEntity
  8
RACCORDO
100
AcDbLine
 62
250
  6
CONTINUOUS
 10
-9.7494736654
 20
16.4586033555
 11
-10.25
 21
16.4586033555
  0
LINE
  5
650
100
AcDbEntity
  8
RACCORDO
100
AcDbLine
 62
250
  6
CONTINUOUS
 10
10.25
 20
17.1171534187
 11
9.7452898151
 21
17.1171534187
  0
LINE
  5
651
100
AcDbEntity
  8
0
100
AcDbLine
 62
250
  6
CONTINUOUS
 10
-9.7452898151
 20
17.1171534187
 11
9.7452898151
 21
17.1171534187
  0
LINE
  5
652
100
AcDbEntity
  8
RACCORDO
100
AcDbLine
 62
250
  6
CONTINUOUS
 10
-9.7452898151
 20
17.1171534187
 11
-10.25
 21
17.1171534187
  0
LINE
  5
653
100
AcDbEntity
  8
RACCORDO
100
AcDbLine
 62
250
  6
CONTINUOUS
 10
10.25
 20
17.2881634904
 11
9.7447634805
 21
17.2881634904
  0
LINE
  5
654
100
AcDbEntity
  8
0
100
AcDbLine
 62
250
  6
CONTINUOUS
 10
-9.7447634805
 20
17.2881634904
 11
9.7447634805
 21
17.2881634904
  0
LINE
  5
655
100
AcDbEntity
  8
RACCORDO
100
AcDbLine
 62
250
  6
CONTINUOUS
 10
-9.7447634805
 20
17.2881634904
 11
-10.25
 21
17.2881634904
  0
LINE
  5
656
100
AcDbEntity
  8
RACCORDO
100
AcDbLine
 62
250
  6
CONTINUOUS
 10
8.8432538616
 20
13.5773927124
 11
8.9360860759
 21
13.549801188
  0
LINE
  5
657
100
AcDbEntity
  8
RACCORDO
100
AcDbLine
 62
250
  6
CONTINUOUS
 10
8.9909750246
 20
13.7271871426
 11
9.0838069991
 21
13.6995956895
  0
LINE
  5
658
100
AcDbEntity
  8
RACCORDO
100
AcDbLine
 62
250
  6
CONTINUOUS
 10
9.4363690968
 20
14.5471258854
 11
8.9909750246
 21
14.6795055934
  0
LINE
  5
659
100
AcDbEntity
  8
RACCORDO
100
AcDbLine
 62
250
  6
CONTINUOUS
 10
9.1024704672
 20
14.8400670064
 11
9.5840902598
 21
14.6969203156
  0
LWPOLYLINE
  5
65A
100
AcDbEntity
  8
RACCORDO
100
AcDbPolyline
 62
250
  6
CONTINUOUS
 90
16
 70
0
 10
8.9360802244
 20
13.549801188
 10
8.9423883067
 20
13.5478271374
 10
8.9482941796
 20
13.5439271033
 10
8.9537978429
 20
13.5383191602
 10
8.9589299036
 20
13.5312090294
 10
8.9636597547
 20
13.5228380619
 10
8.967895576
 20
13.5135158042
 10
8.971570788
 20
13.5036494341
 10
8.9747519702
 20
13.4933296445
 10
8.9775470408
 20
13.4822997578
 10
8.9799997188
 20
13.4706996044
 10
8.9820662853
 20
13.4586020144
 10
8.9837235018
 20
13.4454767214
 10
8.984963622
 20
13.4311635383
 10
8.9857943921
 20
13.4159628598
 10
8.9862158122
 20
13.4000067578
  0
LWPOLYLINE
  5
65B
100
AcDbEntity
  8
RACCORDO
100
AcDbPolyline
 62
7
  6
CONTINUOUS
 90
3
 70
0
 10
9.3049020021
 20
14.7923514428
 10
9.2778504445
 20
14.8023545032
 10
9.2642147691
 20
14.8074861241
  0
LINE
  5
65C
100
AcDbEntity
  8
RACCORDO
100
AcDbLine
 62
7
  6
CONTINUOUS
 10
9.2642147691
 20
14.8074861241
 11
9.2367682223
 21
14.8180117785
  0
LWPOLYLINE
  5
65D
100
AcDbEntity
  8
RACCORDO
100
AcDbPolyline
 62
7
  6
CONTINUOUS
 90
3
 70
0
 10
9.2367682223
 20
14.8180117785
 10
9.1946029502
 20
14.8344284066
 10
9.1802601072
 20
14.8400670064
  0
LWPOLYLINE
  5
65E
100
AcDbEntity
  8
RACCORDO
100
AcDbPolyline
 62
250
  6
CONTINUOUS
 90
16
 70
0
 10
9.0838069991
 20
13.6995956895
 10
9.0901076922
 20
13.6948997827
 10
9.0960089555
 20
13.6872442638
 10
9.101510789
 20
13.6766291327
 10
9.1066453518
 20
13.6625430796
 10
9.1113804847
 20
13.6454974143
 10
9.1156197105
 20
13.6270260663
 10
9.1192938433
 20
13.6075803209
 10
9.1224720689
 20
13.5867088927
 10
9.1252654682
 20
13.5645918548
 10
9.1277195794
 20
13.5415146101
 10
9.1297888642
 20
13.5171917558
 10
9.1314477881
 20
13.4909471569
 10
9.1326878398
 20
13.4625554351
 10
9.1335175307
 20
13.4322419687
 10
9.1339368607
 20
13.4000067578
  0
LINE
  5
65F
100
AcDbEntity
  8
DRAFT
100
AcDbLine
 62
7
  6
CONTINUOUS
 10
10.1
 20
-14.7373232745
 11
9.9473059106
 21
-14.8517623275
  0
LINE
  5
660
100
AcDbEntity
  8
DRAFT
100
AcDbLine
 62
7
  6
CONTINUOUS
 10
10.1
 20
14.7373232745
 11
9.9473059106
 21
14.8517623275
  0
LINE
  5
661
100
AcDbEntity
  8
RACCORDO
100
AcDbLine
 62
7
  6
CONTINUOUS
 10
9.4948015567
 20
24.9947634805
 11
-9.4948015567
 21
24.9947634805
  0
LINE
  5
662
100
AcDbEntity
  8
0
100
AcDbLine
 62
7
  6
CONTINUOUS
 10
9.4948015567
 20
24.9947634805
 11
-9.4948015567
 21
24.9947634805
  0
LINE
  5
663
100
AcDbEntity
  8
RACCORDO
100
AcDbLine
 62
7
  6
CONTINUOUS
 10
9.75
 20
25.5
 11
-9.75
 21
25.5
  0
LINE
  5
664
100
AcDbEntity
  8
RACCORDO
100
AcDbLine
 62
7
  6
CONTINUOUS
 10
-10.5154079535
 20
26.2216232767
 11
10.5154079535
 21
26.2216232767
  0
LINE
  5
665
100
AcDbEntity
  8
RACCORDO
100
AcDbLine
 62
7
  6
CONTINUOUS
 10
-10.5337380986
 20
26.2828653412
 11
10.5337380986
 21
26.2828653412
  0
LINE
  5
666
100
AcDbEntity
  8
0
100
AcDbLine
 62
7
  6
CONTINUOUS
 10
-10.5347065336
 20
26.3345351961
 11
10.5347065336
 21
26.3345351961
  0
ARC
  5
667
100
AcDbEntity
  8
RACCORDO
100
AcDbCircle
 62
7
  6
CONTINUOUS
 10
-9.75
 20
-25.0
 40
0.5
100
AcDbArc
 50
180.0
 51
270.0
  0
ARC
  5
668
100
AcDbEntity
  8
RACCORDO
100
AcDbCircle
 62
7
  6
CONTINUOUS
 10
-4.75
 20
-14.8
 40
0.5
100
AcDbArc
 50
180.0
 51
270.0
  0
ARC
  5
669
100
AcDbEntity
  8
RACCORDO
100
AcDbCircle
 62
7
  6
CONTINUOUS
 10
-4.75
 20
-11.8
 40
0.5
100
AcDbArc
 50
90.0
 51
180.0
  0
ARC
  5
66A
100
AcDbEntity
  8
RACCORDO
100
AcDbCircle
 62
7
  6
CONTINUOUS
 10
-9.4
 20
-11.7
 40
0.25
100
AcDbArc
 50
73.5711433396
 51
168.4630409672
  0
ARC
  5
66B
100
AcDbEntity
  8
RACCORDO
100
AcDbCircle
 62
7
  6
CONTINUOUS
 10
-9.4
 20
-14.8
 40
0.25
100
AcDbArc
 50
191.5369590328
 51
286.4288566604
  0
ARC
  5
66C
100
AcDbEntity
  8
RACCORDO
100
AcDbCircle
 62
7
  6
CONTINUOUS
 10
-10.85
 20
-10.95
 40
0.2
100
AcDbArc
 50
0.0
 51
90.0
  0
ARC
  5
66D
100
AcDbEntity
  8
RACCORDO
100
AcDbCircle
 62
7
  6
CONTINUOUS
 10
-10.85
 20
-15.55
 40
0.2
100
AcDbArc
 50
270.0
 51
360.0
  0
ARC
  5
66E
100
AcDbEntity
  8
DRAFT
100
AcDbCircle
 62
7
  6
CONTINUOUS
 10
-9.4
 20
-11.7
 40
0.0954050818
100
AcDbArc
 50
355.4017036847
 51
184.5982963153
  0
ARC
  5
66F
100
AcDbEntity
  8
DRAFT
100
AcDbCircle
 62
7
  6
CONTINUOUS
 10
-9.4
 20
-14.8
 40
0.0954050818
100
AcDbArc
 50
175.4017036847
 51
4.5982963153
  0
CIRCLE
  5
670
100
AcDbEntity
  8
ASSI
100
AcDbCircle
 62
7
  6
CONTINUOUS
 10
-7.0
 20
22.4
 40
2.0
  0
CIRCLE
  5
671
100
AcDbEntity
  8
ASSI
100
AcDbCircle
 62
7
  6
CONTINUOUS
 10
-7.0
 20
22.4
 40
1.7
  0
ARC
  5
672
100
AcDbEntity
  8
RACCORDO
100
AcDbCircle
 62
7
  6
CONTINUOUS
 10
-9.75
 20
25.0
 40
0.5
100
AcDbArc
 50
90.0
 51
180.0
  0
ARC
  5
673
100
AcDbEntity
  8
RACCORDO
100
AcDbCircle
 62
7
  6
CONTINUOUS
 10
-4.75
 20
8.7
 40
0.5
100
AcDbArc
 50
180.0
 51
270.0
  0
ARC
  5
674
100
AcDbEntity
  8
RACCORDO
100
AcDbCircle
 62
7
  6
CONTINUOUS
 10
-4.75
 20
14.7
 40
0.5
100
AcDbArc
 50
90.0
 51
180.0
  0
ARC
  5
675
100
AcDbEntity
  8
RACCORDO
100
AcDbCircle
 62
7
  6
CONTINUOUS
 10
-9.4
 20
11.7
 40
0.25
100
AcDbArc
 50
191.5369590328
 51
286.4288566604
  0
ARC
  5
676
100
AcDbEntity
  8
RACCORDO
100
AcDbCircle
 62
7
  6
CONTINUOUS
 10
-9.4
 20
14.8
 40
0.25
100
AcDbArc
 50
73.5711433396
 51
168.4630409672
  0
ARC
  5
677
100
AcDbEntity
  8
RACCORDO
100
AcDbCircle
 62
7
  6
CONTINUOUS
 10
-10.85
 20
15.55
 40
0.2
100
AcDbArc
 50
0.0
 51
90.0
  0
ARC
  5
678
100
AcDbEntity
  8
RACCORDO
100
AcDbCircle
 62
7
  6
CONTINUOUS
 10
-10.85
 20
10.95
 40
0.2
100
AcDbArc
 50
270.0
 51
360.0
  0
ARC
  5
679
100
AcDbEntity
  8
DRAFT
100
AcDbCircle
 62
7
  6
CONTINUOUS
 10
-9.4
 20
11.7
 40
0.0954050818
100
AcDbArc
 50
175.4017036847
 51
4.5982963153
  0
ARC
  5
67A
100
AcDbEntity
  8
DRAFT
100
AcDbCircle
 62
7
  6
CONTINUOUS
 10
-9.4
 20
14.8
 40
0.0954050818
100
AcDbArc
 50
355.4017036847
 51
184.5982963153
  0
CIRCLE
  5
67B
100
AcDbEntity
  8
ASSI
100
AcDbCircle
 62
7
  6
CONTINUOUS
 10
7.0
 20
-22.4
 40
2.0
  0
CIRCLE
  5
67C
100
AcDbEntity
  8
ASSI
100
AcDbCircle
 62
7
  6
CONTINUOUS
 10
7.0
 20
-22.4
 40
1.7
  0
ARC
  5
67D
100
AcDbEntity
  8
RACCORDO
100
AcDbCircle
 62
7
  6
CONTINUOUS
 10
9.75
 20
-25.0
 40
0.5
100
AcDbArc
 50
270.0
 51
360.0
  0
ARC
  5
67E
100
AcDbEntity
  8
RACCORDO
100
AcDbCircle
 62
7
  6
CONTINUOUS
 10
4.75
 20
-14.8
 40
0.5
100
AcDbArc
 50
270.0
 51
360.0
  0
ARC
  5
67F
100
AcDbEntity
  8
RACCORDO
100
AcDbCircle
 62
7
  6
CONTINUOUS
 10
4.75
 20
-11.8
 40
0.5
100
AcDbArc
 50
0.0
 51
90.0
  0
ARC
  5
680
100
AcDbEntity
  8
RACCORDO
100
AcDbCircle
 62
7
  6
CONTINUOUS
 10
9.4
 20
-11.7
 40
0.25
100
AcDbArc
 50
11.5369590328
 51
106.4288566604
  0
ARC
  5
681
100
AcDbEntity
  8
RACCORDO
100
AcDbCircle
 62
7
  6
CONTINUOUS
 10
9.4
 20
-14.8
 40
0.25
100
AcDbArc
 50
253.5711433396
 51
348.4630409672
  0
ARC
  5
682
100
AcDbEntity
  8
RACCORDO
100
AcDbCircle
 62
7
  6
CONTINUOUS
 10
10.85
 20
-15.55
 40
0.2
100
AcDbArc
 50
180.0
 51
270.0
  0
ARC
  5
683
100
AcDbEntity
  8
RACCORDO
100
AcDbCircle
 62
7
  6
CONTINUOUS
 10
10.85
 20
-10.95
 40
0.2
100
AcDbArc
 50
90.0
 51
180.0
  0
ARC
  5
684
100
AcDbEntity
  8
DRAFT
100
AcDbCircle
 62
7
  6
CONTINUOUS
 10
9.4
 20
-11.7
 40
0.0954050818
100
AcDbArc
 50
355.4017036847
 51
184.5982963153
  0
ARC
  5
685
100
AcDbEntity
  8
DRAFT
100
AcDbCircle
 62
7
  6
CONTINUOUS
 10
9.4
 20
-14.8
 40
0.0954050818
100
AcDbArc
 50
175.4017036847
 51
4.5982963153
  0
ARC
  5
686
100
AcDbEntity
  8
RACCORDO
100
AcDbCircle
 62
7
  6
CONTINUOUS
 10
9.75
 20
25.0
 40
0.5
100
AcDbArc
 50
0.0
 51
90.0
  0
ARC
  5
687
100
AcDbEntity
  8
RACCORDO
100
AcDbCircle
 62
7
  6
CONTINUOUS
 10
4.75
 20
8.7
 40
0.5
100
AcDbArc
 50
270.0
 51
360.0
  0
ARC
  5
688
100
AcDbEntity
  8
RACCORDO
100
AcDbCircle
 62
7
  6
CONTINUOUS
 10
4.75
 20
14.7
 40
0.5
100
AcDbArc
 50
0.0
 51
90.0
  0
ARC
  5
689
100
AcDbEntity
  8
RACCORDO
100
AcDbCircle
 62
7
  6
CONTINUOUS
 10
9.4
 20
11.7
 40
0.25
100
AcDbArc
 50
253.5711433396
 51
348.4630409672
  0
ARC
  5
68A
100
AcDbEntity
  8
RACCORDO
100
AcDbCircle
 62
7
  6
CONTINUOUS
 10
9.4
 20
14.8
 40
0.25
100
AcDbArc
 50
11.5369590328
 51
106.4288566604
  0
ARC
  5
68B
100
AcDbEntity
  8
RACCORDO
100
AcDbCircle
 62
7
  6
CONTINUOUS
 10
10.85
 20
10.95
 40
0.2
100
AcDbArc
 50
180.0
 51
270.0
  0
ARC
  5
68C
100
AcDbEntity
  8
RACCORDO
100
AcDbCircle
 62
7
  6
CONTINUOUS
 10
10.85
 20
15.55
 40
0.2
100
AcDbArc
 50
90.0
 51
180.0
  0
ARC
  5
68D
100
AcDbEntity
  8
DRAFT
100
AcDbCircle
 62
7
  6
CONTINUOUS
 10
9.4
 20
11.7
 40
0.0954050818
100
AcDbArc
 50
175.4017036847
 51
4.5982963153
  0
ARC
  5
68E
100
AcDbEntity
  8
DRAFT
100
AcDbCircle
 62
7
  6
CONTINUOUS
 10
9.4
 20
14.8
 40
0.0954050818
100
AcDbArc
 50
355.4017036847
 51
184.5982963153
  0
ELLIPSE
  5
68F
100
AcDbEntity
  8
RACCORDO
100
AcDbEllipse
 62
7
  6
CONTINUOUS
 10
10.5343637998
 20
25.8343637998
 30
0.0
 11
0.35379574
 21
0.35379574
 31
0.0
 40
0.999315002
 41
-0.7850555471
 42
0.7850555471
  0
ELLIPSE
  5
690
100
AcDbEntity
  8
RACCORDO
100
AcDbEllipse
 62
7
  6
CONTINUOUS
 10
10.5343637998
 20
-25.8343637998
 30
0.0
 11
0.35379574
 21
-0.35379574
 31
0.0
 40
0.999315002
 41
-0.7850555471
 42
0.7850555471
  0
ELLIPSE
  5
691
100
AcDbEntity
  8
RACCORDO
100
AcDbEllipse
 62
7
  6
CONTINUOUS
 10
-10.5343637998
 20
-25.8343637998
 30
0.0
 11
0.35379574
 21
0.35379574
 31
0.0
 40
0.999315002
 41
-3.9266482006
 42
-2.3565371065
  0
ELLIPSE
  5
692
100
AcDbEntity
  8
RACCORDO
100
AcDbEllipse
 62
7
  6
CONTINUOUS
 10
-10.5343637998
 20
25.8343637998
 30
0.0
 11
-0.35379574
 21
0.35379574
 31
0.0
 40
0.999315002
 41
-0.7850555471
 42
0.7850555471
  0
ELLIPSE
  5
693
100
AcDbEntity
  8
RACCORDO
100
AcDbEllipse
 62
7
  6
CONTINUOUS
 10
-10.5143809395
 20
25.7699043498
 30
0.0
 11
0.1295691639
 21
-0.4328979966
 31
0.0
 40
0.9958559188
 41
2.8519110196
 42
4.4204258731
  0
ELLIPSE
  5
694
100
AcDbEntity
  8
RACCORDO
100
AcDbEllipse
 62
7
  6
CONTINUOUS
 10
10.5143809395
 20
25.7699043498
 30
0.0
 11
-0.1295691639
 21
-0.4328979966
 31
0.0
 40
0.9958559188
 41
1.8627594341
 42
3.4312742875
  0
ELLIPSE
  5
695
100
AcDbEntity
  8
RACCORDO
100
AcDbEllipse
 62
7
  6
CONTINUOUS
 10
9.753491013
 20
-17.2881634904
 30
0.0
 11
0.0
 21
0.5
 31
0.0
 40
0.0174550649
 41
1.2217304764
 42
1.5707963268
  0
ELLIPSE
  5
696
100
AcDbEntity
  8
RACCORDO
100
AcDbEllipse
 62
7
  6
CONTINUOUS
 10
-9.753491013
 20
-17.2881634904
 30
0.0
 11
0.0
 21
0.5
 31
0.0
 40
0.0174550649
 41
-1.5707963268
 42
-1.2606130151
  0
ELLIPSE
  5
697
100
AcDbEntity
  8
RACCORDO
100
AcDbEllipse
 62
7
  6
CONTINUOUS
 10
9.753491013
 20
17.2881634904
 30
0.0
 11
0.0
 21
0.5
 31
0.0
 40
0.0174550649
 41
-4.7123889804
 42
-4.36332313
  0
ELLIPSE
  5
698
100
AcDbEntity
  8
RACCORDO
100
AcDbEllipse
 62
7
  6
CONTINUOUS
 10
-9.753491013
 20
17.2881634904
 30
0.0
 11
-0.0
 21
0.5
 31
0.0
 40
0.0174550649
 41
-1.9198621772
 42
-1.6096780974
  0
ELLIPSE
  5
699
100
AcDbEntity
  8
RACCORDO
100
AcDbEllipse
 62
7
  6
CONTINUOUS
 10
-10.5327110846
 20
25.8311464143
 30
0.0
 11
-0.1295691639
 21
0.4328979966
 31
0.0
 40
0.9958559188
 41
-0.289681634
 42
1.2788332195
  0
ELLIPSE
  5
69A
100
AcDbEntity
  8
RACCORDO
100
AcDbEllipse
 62
7
  6
CONTINUOUS
 10
10.5143809395
 20
-25.7699043498
 30
0.0
 11
-0.1295691639
 21
0.4328979966
 31
0.0
 40
0.9958559188
 41
2.8519110196
 42
4.4204258731
  0
ELLIPSE
  5
69B
100
AcDbEntity
  8
RACCORDO
100
AcDbEllipse
 62
7
  6
CONTINUOUS
 10
-10.5143809395
 20
-25.7699043498
 30
0.0
 11
0.1295691639
 21
0.4328979966
 31
0.0
 40
0.9958559188
 41
1.8627594341
 42
3.4312742875
  0
ELLIPSE
  5
69C
100
AcDbEntity
  8
RACCORDO
100
AcDbEllipse
 62
7
  6
CONTINUOUS
 10
10.5327110846
 20
25.8311464143
 30
0.0
 11
0.1295691639
 21
0.4328979966
 31
0.0
 40
0.9958559188
 41
-1.2788332195
 42
0.289681634
  0
ELLIPSE
  5
69D
100
AcDbEntity
  8
RACCORDO
100
AcDbEllipse
 62
7
  6
CONTINUOUS
 10
10.5327110846
 20
-25.8311464143
 30
0.0
 11
-0.1295691639
 21
0.4328979966
 31
0.0
 40
0.9958559188
 41
-3.4312742875
 42
-1.8627594341
  0
ELLIPSE
  5
69E
100
AcDbEntity
  8
RACCORDO
100
AcDbEllipse
 62
7
  6
CONTINUOUS
 10
-10.5327110846
 20
-25.8311464143
 30
0.0
 11
0.1295691639
 21
0.4328979966
 31
0.0
 40
0.9958559188
 41
-4.4204258731
 42
-2.8519110196
  0
ELLIPSE
  5
69F
100
AcDbEntity
  8
RACCORDO
100
AcDbEllipse
 62
7
  6
CONTINUOUS
 10
-10.9606073078
 20
2.1258649447
 30
0.0
 11
-0.0
 21
0.15
 31
0.0
 40
0.0261859216
 41
1.5707963268
 42
2.9670597284
  0
ELLIPSE
  5
6A0
100
AcDbEntity
  8
RACCORDO
100
AcDbEllipse
 62
7
  6
CONTINUOUS
 10
-10.9606073078
 20
-2.1258649447
 30
0.0
 11
0.0
 21
0.15
 31
0.0
 40
0.0261859216
 41
0.1745329252
 42
1.5707963268
  0
ELLIPSE
  5
6A1
100
AcDbEntity
  8
RACCORDO
100
AcDbEllipse
 62
7
  6
CONTINUOUS
 10
10.9606073078
 20
-2.1258649447
 30
0.0
 11
-0.0
 21
0.15
 31
0.0
 40
0.0261859216
 41
-1.5707963268
 42
-0.1745329252
  0
ELLIPSE
  5
6A2
100
AcDbEntity
  8
RACCORDO
100
AcDbEllipse
 62
7
  6
CONTINUOUS
 10
10.9606073078
 20
2.1258649447
 30
0.0
 11
0.0
 21
0.15
 31
0.0
 40
0.0261859216
 41
-2.9670597284
 42
-1.5707963268
  0
ELLIPSE
  5
6A3
100
AcDbEntity
  8
RACCORDO
100
AcDbEllipse
 62
7
  6
CONTINUOUS
 10
-9.7412724675
 20
-16.2875932838
 30
0.0
 11
0.0
 21
0.5
 31
0.0
 40
0.0174550649
 41
-4.7123889804
 42
-4.36332313
  0
ELLIPSE
  5
6A4
100
AcDbEntity
  8
RACCORDO
100
AcDbEllipse
 62
7
  6
CONTINUOUS
 10
-9.7412724675
 20
16.2875932838
 30
0.0
 11
0.0
 21
0.5
 31
0.0
 40
0.0174550649
 41
1.2217304764
 42
1.5707963268
  0
ELLIPSE
  5
6A5
100
AcDbEntity
  8
RACCORDO
100
AcDbEllipse
 62
7
  6
CONTINUOUS
 10
9.7412724675
 20
16.2875932838
 30
0.0
 11
-0.0
 21
0.5
 31
0.0
 40
0.0174550649
 41
-1.5707963268
 42
-1.2217304764
  0
ELLIPSE
  5
6A6
100
AcDbEntity
  8
RACCORDO
100
AcDbEllipse
 62
7
  6
CONTINUOUS
 10
9.7412724675
 20
-16.2875932838
 30
0.0
 11
0.0
 21
0.5
 31
0.0
 40
0.0174550649
 41
-1.9198621772
 42
-1.5707963268
  0
ELLIPSE
  5
6A7
100
AcDbEntity
  8
RACCORDO
100
AcDbEllipse
 62
7
  6
CONTINUOUS
 10
10.9252563137
 20
-1.227796223
 30
0.0
 11
0.0
 21
0.5
 31
0.0
 40
0.0261859216
 41
-4.7123889804
 42
-3.3161255788
  0
ELLIPSE
  5
6A8
100
AcDbEntity
  8
RACCORDO
100
AcDbEllipse
 62
7
  6
CONTINUOUS
 10
10.9252563137
 20
1.227796223
 30
0.0
 11
0.0
 21
0.5
 31
0.0
 40
0.0261859216
 41
0.1745329252
 42
1.5707963268
  0
ELLIPSE
  5
6A9
100
AcDbEntity
  8
RACCORDO
100
AcDbEllipse
 62
7
  6
CONTINUOUS
 10
-10.9252563137
 20
1.227796223
 30
0.0
 11
0.0
 21
0.5
 31
0.0
 40
0.0261859216
 41
-1.5707963268
 42
-0.1745329252
  0
ELLIPSE
  5
6AA
100
AcDbEntity
  8
RACCORDO
100
AcDbEllipse
 62
7
  6
CONTINUOUS
 10
-10.9252563137
 20
-1.227796223
 30
0.0
 11
0.0
 21
0.5
 31
0.0
 40
0.0261859216
 41
-2.9670597284
 42
-1.5707963268
  0
ELLIPSE
  5
6AB
100
AcDbEntity
  8
RACCORDO
100
AcDbEllipse
 62
7
  6
CONTINUOUS
 10
9.4947253985
 20
24.7447253985
 30
0.0
 11
0.1768305473
 21
0.1768305473
 31
0.0
 40
0.9996954599
 41
-0.7852458701
 42
0.7852458701
  0
ELLIPSE
  5
6AC
100
AcDbEntity
  8
RACCORDO
100
AcDbEllipse
 62
7
  6
CONTINUOUS
 10
9.4947253985
 20
-24.7447253985
 30
0.0
 11
0.1768305473
 21
-0.1768305473
 31
0.0
 40
0.9996954599
 41
-0.7852458701
 42
0.7852458701
  0
ELLIPSE
  5
6AD
100
AcDbEntity
  8
RACCORDO
100
AcDbEllipse
 62
7
  6
CONTINUOUS
 10
-9.4947253985
 20
-24.7447253985
 30
0.0
 11
0.1768305473
 21
0.1768305473
 31
0.0
 40
0.9996954599
 41
-3.9268385237
 42
-2.3563467834
  0
ELLIPSE
  5
6AE
100
AcDbEntity
  8
RACCORDO
100
AcDbEllipse
 62
7
  6
CONTINUOUS
 10
-9.4947253985
 20
24.7447253985
 30
0.0
 11
-0.1768305473
 21
0.1768305473
 31
0.0
 40
0.9996954599
 41
-0.7852458701
 42
0.7852458701
  0
ELLIPSE
  5
6AF
100
AcDbEntity
  8
0
100
AcDbEllipse
 62
7
  6
CONTINUOUS
 10
9.4947253985
 20
-24.7447253985
 30
0.0
 11
0.1768305473
 21
-0.1768305473
 31
0.0
 40
0.9996954599
 41
-0.7852458701
 42
0.7852458701
  0
ELLIPSE
  5
6B0
100
AcDbEntity
  8
0
100
AcDbEllipse
 62
7
  6
CONTINUOUS
 10
-9.4947253985
 20
-24.7447253985
 30
0.0
 11
0.1768305473
 21
0.1768305473
 31
0.0
 40
0.9996954599
 41
-3.9268385237
 42
-2.3563467834
  0
ELLIPSE
  5
6B1
100
AcDbEntity
  8
0
100
AcDbEllipse
 62
7
  6
CONTINUOUS
 10
-9.753491013
 20
-17.2881634904
 30
0.0
 11
0.0
 21
0.5
 31
0.0
 40
0.0174550649
 41
-1.5707963268
 42
-1.2217304764
  0
ELLIPSE
  5
6B2
100
AcDbEntity
  8
0
100
AcDbEllipse
 62
7
  6
CONTINUOUS
 10
9.753491013
 20
-17.2881634904
 30
0.0
 11
0.0
 21
0.5
 31
0.0
 40
0.0174550649
 41
1.2217304764
 42
1.5707963268
  0
ELLIPSE
  5
6B3
100
AcDbEntity
  8
0
100
AcDbEllipse
 62
7
  6
CONTINUOUS
 10
9.7412724675
 20
-16.2875932838
 30
0.0
 11
-0.0
 21
0.5
 31
0.0
 40
0.0174550649
 41
-1.9198621772
 42
-1.5707963268
  0
ELLIPSE
  5
6B4
100
AcDbEntity
  8
0
100
AcDbEllipse
 62
7
  6
CONTINUOUS
 10
-9.7412724675
 20
-16.2875932838
 30
0.0
 11
-0.0
 21
0.5
 31
0.0
 40
0.0174550649
 41
-4.7123889804
 42
-4.36332313
  0
ELLIPSE
  5
6B5
100
AcDbEntity
  8
0
100
AcDbEllipse
 62
7
  6
CONTINUOUS
 10
-9.7412724675
 20
16.2875932838
 30
0.0
 11
0.0
 21
0.5
 31
0.0
 40
0.0174550649
 41
1.2217304764
 42
1.5707963268
  0
ELLIPSE
  5
6B6
100
AcDbEntity
  8
0
100
AcDbEllipse
 62
7
  6
CONTINUOUS
 10
9.7412724675
 20
16.2875932838
 30
0.0
 11
-0.0
 21
0.5
 31
0.0
 40
0.0174550649
 41
-1.5707963268
 42
-1.2217304764
  0
ELLIPSE
  5
6B7
100
AcDbEntity
  8
0
100
AcDbEllipse
 62
7
  6
CONTINUOUS
 10
-9.753491013
 20
17.2881634904
 30
0.0
 11
-0.0
 21
0.5
 31
0.0
 40
0.0174550649
 41
-1.9198621772
 42
-1.5707963268
  0
ELLIPSE
  5
6B8
100
AcDbEntity
  8
0
100
AcDbEllipse
 62
7
  6
CONTINUOUS
 10
9.753491013
 20
17.2881634904
 30
0.0
 11
0.0
 21
0.5
 31
0.0
 40
0.0174550649
 41
-4.7123889804
 42
-4.36332313
  0
ELLIPSE
  5
6B9
100
AcDbEntity
  8
0
100
AcDbEllipse
 62
7
  6
CONTINUOUS
 10
9.4947253985
 20
24.7447253985
 30
0.0
 11
0.1768305473
 21
0.1768305473
 31
0.0
 40
0.9996954599
 41
-0.7852458701
 42
0.7852458701
  0
ELLIPSE
  5
6BA
100
AcDbEntity
  8
0
100
AcDbEllipse
 62
7
  6
CONTINUOUS
 10
-9.4947253985
 20
24.7447253985
 30
0.0
 11
-0.1768305473
 21
0.1768305473
 31
0.0
 40
0.9996954599
 41
-0.7852458701
 42
0.7852458701
  0
ELLIPSE
  5
6BB
100
AcDbEntity
  8
0
100
AcDbEllipse
 62
7
  6
CONTINUOUS
 10
-9.750038082
 20
-2.249961918
 30
0.0
 11
0.1768305473
 21
-0.1768305473
 31
0.0
 40
0.9996954599
 41
-0.7853981518
 42
0.7852458701
  0
ELLIPSE
  5
6BC
100
AcDbEntity
  8
0
100
AcDbEllipse
 62
7
  6
CONTINUOUS
 10
-9.750038082
 20
2.249961918
 30
0.0
 11
0.1768305473
 21
0.1768305473
 31
0.0
 40
0.9996954599
 41
-0.7852458701
 42
0.7853981518
  0
ELLIPSE
  5
6BD
100
AcDbEntity
  8
0
100
AcDbEllipse
 62
7
  6
CONTINUOUS
 10
9.750038082
 20
2.249961918
 30
0.0
 11
-0.1768305473
 21
0.1768305473
 31
0.0
 40
0.9996954599
 41
-0.7853981518
 42
0.7852458701
  0
ELLIPSE
  5
6BE
100
AcDbEntity
  8
0
100
AcDbEllipse
 62
7
  6
CONTINUOUS
 10
9.750038082
 20
-2.249961918
 30
0.0
 11
-0.1768305473
 21
-0.1768305473
 31
0.0
 40
0.9996954599
 41
-0.7852458701
 42
0.7853981518
  0
ELLIPSE
  5
6BF
100
AcDbEntity
  8
RACCORDO
100
AcDbEllipse
 62
7
  6
CONTINUOUS
 10
-10.5886751346
 20
-14.2974685017
 30
0.0
 11
-0.0
 21
0.4
 31
0.0
 40
1.0
 41
-3.089232776
 42
-1.5707963268
  0
ELLIPSE
  5
6C0
100
AcDbEntity
  8
RACCORDO
100
AcDbEllipse
 62
7
  6
CONTINUOUS
 10
-10.5886751346
 20
-12.2025314983
 30
0.0
 11
0.0
 21
0.4
 31
0.0
 40
1.0
 41
-1.5707963268
 42
-0.0523598776
  0
ELLIPSE
  5
6C1
100
AcDbEntity
  8
RACCORDO
100
AcDbEllipse
 62
7
  6
CONTINUOUS
 10
10.5886751346
 20
-14.2974685017
 30
0.0
 11
-0.0
 21
0.4
 31
0.0
 40
1.0
 41
-4.7123889804
 42
-3.1939525311
  0
ELLIPSE
  5
6C2
100
AcDbEntity
  8
RACCORDO
100
AcDbEllipse
 62
7
  6
CONTINUOUS
 10
10.5886751346
 20
-12.2025314983
 30
0.0
 11
0.0
 21
0.4
 31
0.0
 40
1.0
 41
0.0523598776
 42
1.5707963268
  0
ELLIPSE
  5
6C3
100
AcDbEntity
  8
RACCORDO
100
AcDbEllipse
 62
7
  6
CONTINUOUS
 10
-10.5886751346
 20
12.2025314983
 30
0.0
 11
-0.0
 21
0.4
 31
0.0
 40
1.0
 41
-3.089232776
 42
-1.5707963268
  0
ELLIPSE
  5
6C4
100
AcDbEntity
  8
RACCORDO
100
AcDbEllipse
 62
7
  6
CONTINUOUS
 10
-10.5886751346
 20
14.2974685017
 30
0.0
 11
-0.0
 21
0.4
 31
0.0
 40
1.0
 41
-1.5707963268
 42
-0.0523598776
  0
ELLIPSE
  5
6C5
100
AcDbEntity
  8
RACCORDO
100
AcDbEllipse
 62
7
  6
CONTINUOUS
 10
10.5886751346
 20
12.2025314983
 30
0.0
 11
-0.0
 21
0.4
 31
0.0
 40
1.0
 41
-4.7123889804
 42
-3.1939525311
  0
ELLIPSE
  5
6C6
100
AcDbEntity
  8
RACCORDO
100
AcDbEllipse
 62
7
  6
CONTINUOUS
 10
10.5886751346
 20
14.2974685017
 30
0.0
 11
-0.0
 21
0.4
 31
0.0
 40
1.0
 41
0.0523598776
 42
1.5707963268
  0
ENDSEC
  0
SECTION
  2
OBJECTS
  0
DICTIONARY
  5
C
100
AcDbDictionary
280
0
281
1
  3
ACAD_GROUP
350
D
  3
ACAD_MLINESTYLE
350
17
  3
ACAD_LAYOUT
350
1A
  3
ACAD_PLOTSETTINGS
350
19
  3
ACAD_PLOTSTYLENAME
350
E
  0
DICTIONARY
  5
D
102
{ACAD_REACTORS
330
C
102
}
100
AcDbDictionary
280
0
281
1
  0
ACDBDICTIONARYWDFLT
  5
E
102
{ACAD_REACTORS
330
C
102
}
100
AcDbDictionary
281
1
  3
Normal
350
F
100
AcDbDictionaryWithDefault
340
F
  0
DICTIONARY
  5
17
102
{ACAD_REACTORS
330
C
102
}
100
AcDbDictionary
280
0
281
1
  3
Standard
350
18
  0
DICTIONARY
  5
19
102
{ACAD_REACTORS
330
C
102
}
100
AcDbDictionary
281
1
  0
DICTIONARY
  5
1A
102
{ACAD_REACTORS
330
C
102
}
100
AcDbDictionary
281
1
  3
Model
350
6C7
  3
Layout1
350
6C8
  0
ACDBPLACEHOLDER
  5
F
102
{ACAD_REACTORS
330
E
102
}
  0
MLINESTYLE
  5
18
102
{ACAD_REACTORS
330
17
102
}
100
AcDbMlineStyle
  2
STANDARD
 70
0
  3

 62
256
 51
90.0
 52
90.0
 71
2
 49
0.5
 62
256
  6
BYLAYER
 49
-0.5
 62
256
  6
BYLAYER
  0
LAYOUT
  5
6C7
102
{ACAD_REACTORS
330
1A
102
}
100
AcDbPlotSettings
  1

  2
none_device
  4
ISO_A4_(297.00_x_210.00_MM)
  6

 40
0.0
 41
0.0
 42
0.0
 43
0.0
 44
297.0
 45
210.0
 46
0.0
 47
0.0
 48
0.0
 49
0.0
140
0.0
141
0.0
142
1.0
143
1.0
 70
1024
 72
1
 73
0
 74
0
  7

 75
0
147
1.0
148
0.0
149
0.0
100
AcDbLayout
  1
Model
 70
0
 71
0
 10
0.0
 20
0.0
 11
297.0
 21
210.0
 12
0.0
 22
0.0
 32
0.0
 14
0.0
 24
0.0
 34
0.0
 15
0.0
 25
0.0
 35
0.0
146
0.0
 13
0.0
 23
0.0
 33
0.0
 16
1.0
 26
0.0
 36
0.0
 17
0.0
 27
1.0
 37
0.0
 76
0
330
219
345
0
346
0
  0
LAYOUT
  5
6C8
102
{ACAD_REACTORS
330
1A
102
}
100
AcDbPlotSettings
  1

  2
none_device
  4
ISO_A4_(297.00_x_210.00_MM)
  6

 40
0.0
 41
0.0
 42
0.0
 43
0.0
 44
297.0
 45
210.0
 46
0.0
 47
0.0
 48
0.0
 49
0.0
140
0.0
141
0.0
142
1.0
143
1.0
 70
0
 72
1
 73
0
 74
0
  7

 75
0
147
1.0
148
0.0
149
0.0
100
AcDbLayout
  1
Layout1
 70
0
 71
1
 10
0.0
 20
0.0
 11
297.0
 21
210.0
 12
0.0
 22
0.0
 32
0.0
 14
0.0
 24
0.0
 34
0.0
 15
0.0
 25
0.0
 35
0.0
146
0.0
 13
0.0
 23
0.0
 33
0.0
 16
1.0
 26
0.0
 36
0.0
 17
0.0
 27
1.0
 37
0.0
 76
0
330
21A
345
0
346
0
  0
ENDSEC
  0
EOF
