  0
SECTION
  2
HEADER
  9
$ACADVER
  1
AC1024
  9
$DWGCODEPAGE
  3
ANSI_1252
  9
$EXTMAX
 10
297.0
 20
210.0
 30
0.0
  9
$EXTMIN
 10
0.0
 20
0.0
 30
0.0
  9
$LIMMIN
 10
0.0
 20
0.0
  9
$LIMMAX
 10
297.0
 20
210.0
  9
$VIEWCTR
 10
148.5
 20
105.0
  9
$VIEWSIZE
 40
210.0
  9
$CLAYER
  8
0
  9
$LTSCALE
 40
16.335
  9
$CELTYPE
  6
BYLAYER
  9
$DIMSCALE
 40
1.0
  9
$DIMASZ
 40
3.0
  9
$DIMEXO
 40
0.5
  9
$DIMDLI
 40
11.286
  9
$DIMEXE
 40
1.5
  9
$DIMCEN
 40
2.673
  9
$DIMLFAC
 40
1.0
  9
$DIMBLK
  1
_FILLED
  9
$DIMALT
 70
0
  9
$DIMALTF
 40
0.0393700787
  9
$DIMTXT
 40
3.0
  9
$DIMTOL
 70
1
  9
$DIMLIM
 70
0
  9
$DIMTFAC
 40
1.0
  9
$DIMTP
 40
0.01
  9
$DIMTM
 40
0.01
  9
$DIMGAP
 40
0.625
  9
$DIMDSEP
 70
44
  9
$AUNITS
 70
0
  9
$PDMODE
 70
3
  9
$PDSIZE
 40
3.0
  9
$HANDSEED
  5
6C1
  9
$TILEMODE
 70
1
  9
$MEASUREMENT
 70
1
  9
$INSUNITS
 70
4
  0
ENDSEC
  0
SECTION
  2
CLASSES
  0
CLASS
  1
ACDBDICTIONARYWDFLT
  2
AcDbDictionaryWithDefault
  3
AutoCAD 2000
 90
0
 91
1
280
0
281
0
  0
CLASS
  1
ACDBPLACEHOLDER
  2
AcDbPlaceHolder
  3
AutoCAD 2000
 90
0
 91
1
280
0
281
0
  0
CLASS
  1
LAYOUT
  2
AcDbLayout
  3
AutoCAD 2000
 90
0
 91
0
280
0
281
0
  0
ENDSEC
  0
SECTION
  2
TABLES
  0
TABLE
  2
VPORT
  5
8
100
AcDbSymbolTable
 70
2
  0
VPORT
  5
1F4
100
AcDbSymbolTableRecord
100
AcDbViewportTableRecord
  2
*ACTIVE
 70
0
 10
0.0
 20
0.0
 11
1.0
 21
1.0
 12
148.5
 22
105.0
 13
0.0
 23
0.0
 14
1.0
 24
1.0
 15
0.0
 25
0.0
 16
0.0
 26
0.0
 36
1.0
 17
0.0
 27
0.0
 37
0.0
 40
210.0
 41
1.4142857143
 42
50.0
 43
0.0
 44
0.0
 50
0.0
 51
0.0
 71
0
 72
100
 73
1
 74
1
 75
0
 76
0
 77
0
 78
0
  0
ENDTAB
  0
TABLE
  2
LTYPE
  5
5
100
AcDbSymbolTable
 70
6
  0
LTYPE
  5
14
100
AcDbSymbolTableRecord
100
AcDbLinetypeTableRecord
  2
BYBLOCK
 70
0
  3

 72
65
 73
0
 40
0.0
  0
LTYPE
  5
15
100
AcDbSymbolTableRecord
100
AcDbLinetypeTableRecord
  2
BYLAYER
 70
0
  3

 72
65
 73
0
 40
0.0
  0
LTYPE
  5
16
100
AcDbSymbolTableRecord
100
AcDbLinetypeTableRecord
  2
CONTINUOUS
 70
64
  3
Solid line
 72
65
 73
0
 40
0.0
  0
LTYPE
  5
1F5
100
AcDbSymbolTableRecord
100
AcDbLinetypeTableRecord
  2
CENTER
 70
64
  3
____ _ ____ _ ____ _ ____ _ ____ _ ____ _ ____
 72
65
 73
4
 40
0.6
 49
0.375
 74
0
 49
-0.075
 74
0
 49
0.075
 74
0
 49
-0.075
 74
0
  0
LTYPE
  5
1F6
100
AcDbSymbolTableRecord
100
AcDbLinetypeTableRecord
  2
HIDDEN
 70
64
  3
- - - - - - - - - - - - - - - - - - - -
 72
65
 73
2
 40
0.2
 49
0.1
 74
0
 49
-0.1
 74
0
  0
LTYPE
  5
1F7
100
AcDbSymbolTableRecord
100
AcDbLinetypeTableRecord
  2
PHANTOM
 70
64
  3
_____ _ _ _____ _ _ _____ _ _ _____
 72
65
 73
6
 40
0.8
 49
0.45
 74
0
 49
-0.05
 74
0
 49
0.1
 74
0
 49
-0.05
 74
0
 49
0.1
 74
0
 49
-0.05
 74
0
  0
LTYPE
  5
1F8
100
AcDbSymbolTableRecord
100
AcDbLinetypeTableRecord
  2
DOT
 70
64
  3
. . . . . . . . . . . . . . . . . . . .
 72
65
 73
2
 40
0.2
 49
0.1
 74
0
 49
-0.1
 74
0
  0
LTYPE
  5
1F9
100
AcDbSymbolTableRecord
100
AcDbLinetypeTableRecord
  2
DASHED
 70
64
  3
- - - - - - - - - - - - - - - - - - - -
 72
65
 73
2
 40
0.2
 49
0.1
 74
0
 49
-0.1
 74
0
  0
ENDTAB
  0
TABLE
  2
LAYER
  5
2
100
AcDbSymbolTable
 70
36
  0
LAYER
  5
10
100
AcDbSymbolTableRecord
100
AcDbLayerTableRecord
  2
0
 70
0
 62
7
  6
CONTINUOUS
370
-3
390
F
  0
LAYER
  5
1FA
100
AcDbSymbolTableRecord
100
AcDbLayerTableRecord
  2
DEFAULT_1
 70
0
 62
7
  6
CENTER
370
-3
390
F
  0
LAYER
  5
1FB
100
AcDbSymbolTableRecord
100
AcDbLayerTableRecord
  2
DEFAULT_2
 70
0
 62
7
  6
HIDDEN
370
-3
390
F
  0
LAYER
  5
1FC
100
AcDbSymbolTableRecord
100
AcDbLayerTableRecord
  2
DEFAULT_3
 70
0
 62
7
  6
PHANTOM
370
-3
390
F
  0
LAYER
  5
1FD
100
AcDbSymbolTableRecord
100
AcDbLayerTableRecord
  2
ASSI
 70
0
 62
7
  6
CONTINUOUS
370
-3
390
F
  0
LAYER
  5
1FE
100
AcDbSymbolTableRecord
100
AcDbLayerTableRecord
  2
COORDINATE
 70
0
 62
7
  6
CONTINUOUS
370
-3
390
F
  0
LAYER
  5
1FF
100
AcDbSymbolTableRecord
100
AcDbLayerTableRecord
  2
COPY_PUBLISH
 70
0
 62
7
  6
CONTINUOUS
370
-3
390
F
  0
LAYER
  5
200
100
AcDbSymbolTableRecord
100
AcDbLayerTableRecord
  2
COSMETICI
 70
0
 62
7
  6
CONTINUOUS
370
-3
390
F
  0
LAYER
  5
201
100
AcDbSymbolTableRecord
100
AcDbLayerTableRecord
  2
CURVE
 70
0
 62
7
  6
CONTINUOUS
370
-3
390
F
  0
LAYER
  5
202
100
AcDbSymbolTableRecord
100
AcDbLayerTableRecord
  2
DRAFT
 70
0
 62
7
  6
CONTINUOUS
370
-3
390
F
  0
LAYER
  5
203
100
AcDbSymbolTableRecord
100
AcDbLayerTableRecord
  2
IMPORT_IGES
 70
0
 62
7
  6
CONTINUOUS
370
-3
390
F
  0
LAYER
  5
204
100
AcDbSymbolTableRecord
100
AcDbLayerTableRecord
  2
INTF_2
 70
0
 62
7
  6
CONTINUOUS
370
-3
390
F
  0
LAYER
  5
205
100
AcDbSymbolTableRecord
100
AcDbLayerTableRecord
  2
INTF_3
 70
0
 62
7
  6
CONTINUOUS
370
-3
390
F
  0
LAYER
  5
206
100
AcDbSymbolTableRecord
100
AcDbLayerTableRecord
  2
INTF_4
 70
0
 62
7
  6
CONTINUOUS
370
-3
390
F
  0
LAYER
  5
207
100
AcDbSymbolTableRecord
100
AcDbLayerTableRecord
  2
INTF_5
 70
0
 62
7
  6
CONTINUOUS
370
-3
390
F
  0
LAYER
  5
208
100
AcDbSymbolTableRecord
100
AcDbLayerTableRecord
  2
INTF_6
 70
0
 62
7
  6
CONTINUOUS
370
-3
390
F
  0
LAYER
  5
209
100
AcDbSymbolTableRecord
100
AcDbLayerTableRecord
  2
INTF_7
 70
0
 62
7
  6
CONTINUOUS
370
-3
390
F
  0
LAYER
  5
20A
100
AcDbSymbolTableRecord
100
AcDbLayerTableRecord
  2
INTF_9
 70
0
 62
7
  6
CONTINUOUS
370
-3
390
F
  0
LAYER
  5
20B
100
AcDbSymbolTableRecord
100
AcDbLayerTableRecord
  2
INTF_BLANK
 70
0
 62
7
  6
CONTINUOUS
370
-3
390
F
  0
LAYER
  5
20C
100
AcDbSymbolTableRecord
100
AcDbLayerTableRecord
  2
INTF_RED
 70
0
 62
7
  6
CONTINUOUS
370
-3
390
F
  0
LAYER
  5
20D
100
AcDbSymbolTableRecord
100
AcDbLayerTableRecord
  2
NOTE
 70
0
 62
7
  6
CONTINUOUS
370
-3
390
F
  0
LAYER
  5
20E
100
AcDbSymbolTableRecord
100
AcDbLayerTableRecord
  2
PIANI
 70
0
 62
7
  6
CONTINUOUS
370
-3
390
F
  0
LAYER
  5
20F
100
AcDbSymbolTableRecord
100
AcDbLayerTableRecord
  2
PUNTI
 70
0
 62
7
  6
CONTINUOUS
370
-3
390
F
  0
LAYER
  5
210
100
AcDbSymbolTableRecord
100
AcDbLayerTableRecord
  2
RACCORDO
 70
0
 62
7
  6
CONTINUOUS
370
-3
390
F
  0
LAYER
  5
211
100
AcDbSymbolTableRecord
100
AcDbLayerTableRecord
  2
RGB____0____0____0__
 70
0
 62
7
  6
CONTINUOUS
370
-3
390
F
  0
LAYER
  5
212
100
AcDbSymbolTableRecord
100
AcDbLayerTableRecord
  2
SIMBOLI
 70
0
 62
7
  6
CONTINUOUS
370
-3
390
F
  0
LAYER
  5
213
100
AcDbSymbolTableRecord
100
AcDbLayerTableRecord
  2
SMUSSO
 70
0
 62
7
  6
CONTINUOUS
370
-3
390
F
  0
LAYER
  5
214
100
AcDbSymbolTableRecord
100
AcDbLayerTableRecord
  2
SNAPLINE
 70
0
 62
7
  6
CONTINUOUS
370
-3
390
F
  0
LAYER
  5
215
100
AcDbSymbolTableRecord
100
AcDbLayerTableRecord
  2
SUPERFICI
 70
0
 62
7
  6
CONTINUOUS
370
-3
390
F
  0
LAYER
  5
216
100
AcDbSymbolTableRecord
100
AcDbLayerTableRecord
  2
TRASH
 70
0
 62
7
  6
CONTINUOUS
370
-3
390
F
  0
ENDTAB
  0
TABLE
  2
STYLE
  5
3
100
AcDbSymbolTable
 70
1
  0
STYLE
  5
11
100
AcDbSymbolTableRecord
100
AcDbTextStyleTableRecord
  2
STANDARD
 70
0
 40
0.0
 41
0.8
 50
0.0
 71
0
 42
0.2
  3
txt
  4

  0
STYLE
  5
217
100
AcDbSymbolTableRecord
100
AcDbTextStyleTableRecord
  2
TEXTSTYLE_1
 70
0
 40
0.0
 41
0.8
 50
0.0
 71
0
 42
0.2
  3
gdt
  4

  0
ENDTAB
  0
TABLE
  2
VIEW
  5
6
100
AcDbSymbolTable
 70
0
  0
ENDTAB
  0
TABLE
  2
UCS
  5
7
100
AcDbSymbolTable
 70
0
  0
ENDTAB
  0
TABLE
  2
APPID
  5
9
100
AcDbSymbolTable
 70
1
  0
APPID
  5
218
100
AcDbSymbolTableRecord
100
AcDbRegAppTableRecord
  2
ACAD
 70
0
  0
ENDTAB
  0
TABLE
  2
BLOCK_RECORD
  5
1
100
AcDbSymbolTable
 70
0
  0
BLOCK_RECORD
  5
219
100
AcDbSymbolTableRecord
100
AcDbBlockTableRecord
  2
*Model_Space
  0
BLOCK_RECORD
  5
21A
100
AcDbSymbolTableRecord
100
AcDbBlockTableRecord
  2
*Paper_Space
  0
BLOCK_RECORD
  5
21B
100
AcDbSymbolTableRecord
100
AcDbBlockTableRecord
  2
_FILLED
  0
ENDTAB
  0
TABLE
  2
DIMSTYLE
  5
A
100
AcDbSymbolTable
 70
1
100
AcDbDimStyleTable
 71
0
  0
DIMSTYLE
105
21C
100
AcDbSymbolTableRecord
100
AcDbDimStyleTableRecord
  2
STANDARD
 70
0
  3

  4

 40
1.0
 41
3.0
 42
0.5
 43
0.38
 44
1.5
 45
0.0
 46
0.0
 47
0.01
 48
0.01
140
3.0
141
0.09
142
0.0
143
25.4
144
1.0
145
0.0
146
1.0
147
0.625
 71
1
 72
0
 73
0
 74
0
 75
0
 76
0
 77
1
 78
8
 79
2
170
0
171
1
172
0
173
0
174
0
175
0
176
0
177
0
178
0
270
2
179
2
271
2
272
2
273
2
274
2
275
0
280
0
281
0
282
0
283
1
284
8
285
0
286
0
287
3
288
0
340
11
278
44
341
21B
342
21B
343
21B
344
21B
  0
ENDTAB
  0
ENDSEC
  0
SECTION
  2
BLOCKS
  0
BLOCK
  5
20
100
AcDbEntity
  8
0
100
AcDbBlockBegin
  2
*Model_Space
 70
0
 10
0.0
 20
0.0
 30
0.0
  3
*Model_Space
  1

  0
ENDBLK
  5
21
100
AcDbEntity
  8
0
100
AcDbBlockEnd
  0
BLOCK
  5
1C
100
AcDbEntity
  8
0
100
AcDbBlockBegin
  2
*Paper_Space
 70
0
 10
0.0
 20
0.0
 30
0.0
  3
*Paper_Space
  1

  0
ENDBLK
  5
1D
100
AcDbEntity
  8
0
100
AcDbBlockEnd
  0
BLOCK
  5
21D
100
AcDbEntity
  8
0
100
AcDbBlockBegin
  2
_FILLED
 70
64
 10
0.0
 20
0.0
  3
_FILLED
  1

  0
SOLID
  5
21E
100
AcDbEntity
  8
0
  6
BYBLOCK
 62
0
100
AcDbTrace
 10
0.0
 20
0.0
 11
-1.0
 21
0.3166666667
 12
-1.0
 22
-0.3166666667
 13
-1.0
 23
-0.3166666667
  0
ENDBLK
  5
21F
100
AcDbEntity
  8
0
  6
BYBLOCK
 62
0
100
AcDbBlockEnd
  0
ENDSEC
  0
SECTION
  2
ENTITIES
  0
LINE
  5
220
100
AcDbEntity
  8
0
100
AcDbLine
 62
7
  6
CONTINUOUS
 10
2.7287774385
 20
-40.1897406565
 11
-18.3406356287
 21
-40.1897406565
  0
LINE
  5
221
100
AcDbEntity
  8
RACCORDO
100
AcDbLine
 62
7
  6
CONTINUOUS
 10
2.7278090035
 20
-40.1380708016
 11
-18.3396671937
 21
-40.1380708016
  0
LINE
  5
222
100
AcDbEntity
  8
RACCORDO
100
AcDbLine
 62
7
  6
CONTINUOUS
 10
2.7094788584
 20
-40.0768287371
 11
-18.3213370486
 21
-40.0768287371
  0
LINE
  5
223
100
AcDbEntity
  8
RACCORDO
100
AcDbLine
 62
7
  6
CONTINUOUS
 10
-17.5559290951
 20
-39.3552054604
 11
1.9440709049
 21
-39.3552054604
  0
LINE
  5
224
100
AcDbEntity
  8
RACCORDO
100
AcDbLine
 62
7
  6
CONTINUOUS
 10
-17.3007306518
 20
-38.8499689409
 11
1.6888724617
 21
-38.8499689409
  0
LINE
  5
225
100
AcDbEntity
  8
0
100
AcDbLine
 62
7
  6
CONTINUOUS
 10
-17.3007306518
 20
-38.8499689409
 11
1.6888724617
 21
-38.8499689409
  0
LWPOLYLINE
  5
226
100
AcDbEntity
  8
RACCORDO
100
AcDbPolyline
 62
250
  6
CONTINUOUS
 90
16
 70
0
 10
-17.3900186594
 20
0.8417148552
 10
-17.3945413912
 20
0.8375282086
 10
-17.3988832162
 20
0.829333034
 10
-17.4030441345
 20
0.817297715
 10
-17.4070469685
 20
0.8016874931
 10
-17.4108688958
 20
0.7826982365
 10
-17.414441449
 20
0.7603299702
 10
-17.4177734061
 20
0.7347125439
 10
-17.4208559893
 20
0.7061091567
 10
-17.4235943969
 20
0.674624123
 10
-17.425987159
 20
0.6404495614
 10
-17.4280357456
 20
0.6039405465
 10
-17.4296497657
 20
0.5654717447
 10
-17.4307990891
 20
0.525432546
 10
-17.431513846
 20
0.4842180722
 10
-17.4317940364
 20
0.4422630413
  0
LWPOLYLINE
  5
227
100
AcDbEntity
  8
RACCORDO
100
AcDbPolyline
 62
7
  6
CONTINUOUS
 90
19
 70
0
 10
-16.9861892023
 20
0.984861546
 10
-16.9834135977
 20
0.9870288669
 10
-16.9814113842
 20
0.9912609145
 10
-16.9801825617
 20
0.997428781
 10
-16.9795623788
 20
1.0053978916
 10
-16.9797155868
 20
1.015006179
 10
-16.9811364406
 20
1.0260486354
 10
-16.9837962247
 20
1.0383306985
 10
-16.9877236545
 20
1.0516735062
 10
-16.9934991304
 20
1.0658729902
 10
-17.0012273676
 20
1.0808943092
 10
-17.0108036508
 20
1.0964295766
 10
-17.0224942345
 20
1.111802488
 10
-17.0364748185
 20
1.1268501165
 10
-17.0525697029
 20
1.1413691645
 10
-17.0705180429
 20
1.15456758
 10
-17.0902328902
 20
1.1661055923
 10
-17.1118011932
 20
1.1761262975
 10
-17.1352229517
 20
1.1845874529
  0
LINE
  5
228
100
AcDbEntity
  8
DRAFT
100
AcDbLine
 62
7
  6
CONTINUOUS
 10
-17.7555864494
 20
0.9947945396
 11
-17.9059290951
 21
0.8821178141
  0
LWPOLYLINE
  5
229
100
AcDbEntity
  8
RACCORDO
100
AcDbPolyline
 62
250
  6
CONTINUOUS
 90
16
 70
0
 10
-17.2422981919
 20
0.691920425
 10
-17.246819154
 20
0.6890939449
 10
-17.2511599753
 20
0.6840070234
 10
-17.2553206558
 20
0.6766596605
 10
-17.2593245029
 20
0.6669636163
 10
-17.2631482091
 20
0.6550071308
 10
-17.2667218526
 20
0.6410549237
 10
-17.270053347
 20
0.6250727338
 10
-17.2731347787
 20
0.6070948224
 10
-17.2758724851
 20
0.587488693
 10
-17.2782656268
 20
0.5661594878
 10
-17.2803150433
 20
0.5432020647
 10
-17.2819295909
 20
0.5192685007
 10
-17.2830788884
 20
0.494576155
 10
-17.283793317
 20
0.4689076686
 10
-17.2840728768
 20
0.4422630413
  0
LINE
  5
22A
100
AcDbEntity
  8
RACCORDO
100
AcDbLine
 62
7
  6
CONTINUOUS
 10
-17.028797252
 20
0.9681958899
 11
-16.9861892023
 21
0.984861546
  0
LWPOLYLINE
  5
22B
100
AcDbEntity
  8
RACCORDO
100
AcDbPolyline
 62
7
  6
CONTINUOUS
 90
3
 70
0
 10
-17.0701438642
 20
0.9522806637
 10
-17.056457223
 20
0.9575001273
 10
-17.028797252
 20
0.9681958899
  0
LWPOLYLINE
  5
22C
100
AcDbEntity
  8
RACCORDO
100
AcDbPolyline
 62
7
  6
CONTINUOUS
 90
3
 70
0
 10
-17.1108310971
 20
0.9371459824
 10
-17.0973419505
 20
0.942104149
 10
-17.0701438642
 20
0.9522806637
  0
LINE
  5
22D
100
AcDbEntity
  8
RACCORDO
100
AcDbLine
 62
250
  6
CONTINUOUS
 10
-18.0559290951
 20
-31.1433689508
 11
-17.5506925756
 21
-31.1433689508
  0
LINE
  5
22E
100
AcDbEntity
  8
0
100
AcDbLine
 62
250
  6
CONTINUOUS
 10
-17.5506925756
 20
-31.1433689508
 11
1.9388343855
 21
-31.1433689508
  0
LINE
  5
22F
100
AcDbEntity
  8
RACCORDO
100
AcDbLine
 62
250
  6
CONTINUOUS
 10
1.9388343855
 20
-31.1433689508
 11
2.4440709049
 21
-31.1433689508
  0
LINE
  5
230
100
AcDbEntity
  8
RACCORDO
100
AcDbLine
 62
250
  6
CONTINUOUS
 10
-18.0559290951
 20
-30.9723588791
 11
-17.5512189102
 21
-30.9723588791
  0
LINE
  5
231
100
AcDbEntity
  8
0
100
AcDbLine
 62
250
  6
CONTINUOUS
 10
-17.5512189102
 20
-30.9723588791
 11
1.9393607201
 21
-30.9723588791
  0
LINE
  5
232
100
AcDbEntity
  8
RACCORDO
100
AcDbLine
 62
250
  6
CONTINUOUS
 10
1.9393607201
 20
-30.9723588791
 11
2.4440709049
 21
-30.9723588791
  0
LWPOLYLINE
  5
233
100
AcDbEntity
  8
RACCORDO
100
AcDbPolyline
 62
7
  6
CONTINUOUS
 90
3
 70
0
 10
-17.1108310971
 20
-28.6475569032
 10
-17.0837795395
 20
-28.6575599636
 10
-17.0701438642
 20
-28.6626915845
  0
LINE
  5
234
100
AcDbEntity
  8
RACCORDO
100
AcDbLine
 62
7
  6
CONTINUOUS
 10
-17.0701438642
 20
-28.6626915845
 11
-17.0426973173
 21
-28.6732172389
  0
LWPOLYLINE
  5
235
100
AcDbEntity
  8
RACCORDO
100
AcDbPolyline
 62
7
  6
CONTINUOUS
 90
3
 70
0
 10
-17.0426973173
 20
-28.6732172389
 10
-17.0005320452
 20
-28.689633867
 10
-16.9861892023
 20
-28.6952724668
  0
LINE
  5
236
100
AcDbEntity
  8
DRAFT
100
AcDbLine
 62
7
  6
CONTINUOUS
 10
-17.7555864494
 20
-28.7052054604
 11
-17.9059290951
 21
-28.5925287349
  0
LWPOLYLINE
  5
237
100
AcDbEntity
  8
RACCORDO
100
AcDbPolyline
 62
250
  6
CONTINUOUS
 90
10
 70
0
 10
-16.210342349
 20
-0.9467396154
 10
-16.21646176
 20
-0.950150417
 10
-16.2224072282
 20
-0.9577261133
 10
-16.2280095742
 20
-0.9692514853
 10
-16.2331093744
 20
-0.9843989503
 10
-16.2375614516
 20
-1.0027377315
 10
-16.2412390302
 20
-1.0237460098
 10
-16.2440374051
 20
-1.0468259995
 10
-16.245876903
 20
-1.0713210357
 10
-16.2467051211
 20
-1.0965340648
  0
LWPOLYLINE
  5
238
100
AcDbEntity
  8
RACCORDO
100
AcDbPolyline
 62
250
  6
CONTINUOUS
 90
10
 70
0
 10
-16.1277145905
 20
-0.9276249001
 10
-16.1358852596
 20
-0.9318773476
 10
-16.1443184219
 20
-0.9355932859
 10
-16.1529802078
 20
-0.93877221
 10
-16.1617534141
 20
-0.9413964843
 10
-16.1706879727
 20
-0.9434977119
 10
-16.1800124844
 20
-0.9451144873
 10
-16.1897908874
 20
-0.9462218137
 10
-16.1999109158
 20
-0.9467734924
 10
-16.210342349
 20
-0.9467396154
  0
LWPOLYLINE
  5
239
100
AcDbEntity
  8
RACCORDO
100
AcDbPolyline
 62
250
  6
CONTINUOUS
 90
10
 70
0
 10
-16.0527703538
 20
-1.0560214066
 10
-16.0724622162
 20
-1.0646499265
 10
-16.0925483797
 20
-1.0722388831
 10
-16.1130150175
 20
-1.0787882764
 10
-16.1336993484
 20
-1.0842877265
 10
-16.1547325816
 20
-1.0887476134
 10
-16.1765353497
 20
-1.0921990763
 10
-16.199226808
 20
-1.0946524951
 10
-16.2226287929
 20
-1.09609749
 10
-16.2467053635
 20
-1.096534061
  0
LINE
  5
23A
100
AcDbEntity
  8
RACCORDO
100
AcDbLine
 62
250
  6
CONTINUOUS
 10
-17.3900193549
 20
0.8417148552
 11
-16.9083995623
 21
0.984861546
  0
LINE
  5
23B
100
AcDbEntity
  8
RACCORDO
100
AcDbLine
 62
250
  6
CONTINUOUS
 10
-16.8406165562
 20
0.8113079539
 11
-17.2422981919
 21
0.691920425
  0
LINE
  5
23C
100
AcDbEntity
  8
RACCORDO
100
AcDbLine
 62
250
  6
CONTINUOUS
 10
-16.8897363339
 20
-0.1556098422
 11
-16.8406165562
 21
-0.1410104969
  0
LINE
  5
23D
100
AcDbEntity
  8
RACCORDO
100
AcDbLine
 62
250
  6
CONTINUOUS
 10
-16.7477107685
 20
-0.3071014497
 11
-16.6928953932
 21
-0.2908049272
  0
LINE
  5
23E
100
AcDbEntity
  8
RACCORDO
100
AcDbLine
 62
250
  6
CONTINUOUS
 10
-16.210342349
 20
-0.2636713054
 11
-16.3143266881
 21
-0.2945774564
  0
LINE
  5
23F
100
AcDbEntity
  8
RACCORDO
100
AcDbLine
 62
250
  6
CONTINUOUS
 10
-16.0527853133
 20
-0.4105423246
 11
-16.1666055251
 21
-0.4443718866
  0
LWPOLYLINE
  5
240
100
AcDbEntity
  8
RACCORDO
100
AcDbPolyline
 62
250
  6
CONTINUOUS
 90
13
 70
0
 10
1.0810372031
 20
-27.4196059937
 10
1.0664043502
 20
-27.4227430449
 10
1.0485291489
 20
-27.4256663518
 10
1.027411599
 20
-27.4283759143
 10
1.0024768281
 20
-27.4308681409
 10
0.9742997087
 20
-27.4331466232
 10
0.9446048585
 20
-27.4352221363
 10
0.914001296
 20
-27.4370768125
 10
0.8818800028
 20
-27.4387285195
 10
0.8481385414
 20
-27.4402416354
 10
0.8132234032
 20
-27.441630177
 10
0.7766880968
 20
-27.4428801274
 10
0.7370907103
 20
-27.4440138137
  0
LWPOLYLINE
  5
241
100
AcDbEntity
  8
RACCORDO
100
AcDbPolyline
 62
250
  6
CONTINUOUS
 90
10
 70
0
 10
1.2287583661
 20
-27.5694003101
 10
1.2122369951
 20
-27.5725376024
 10
1.1899270661
 20
-27.5754610551
 10
1.1627576279
 20
-27.5781706681
 10
1.1316815957
 20
-27.5806627953
 10
1.0975124728
 20
-27.5829410829
 10
1.0608416322
 20
-27.585016469
 10
1.0227533218
 20
-27.5868711774
 10
0.983530603
 20
-27.5885229843
 10
0.9421138612
 20
-27.5900361563
  0
LINE
  5
242
100
AcDbEntity
  8
DRAFT
100
AcDbLine
 62
7
  6
CONTINUOUS
 10
2.7940709049
 20
-28.5773999122
 11
2.2940709049
 21
-28.5925287349
  0
LINE
  5
243
100
AcDbEntity
  8
RACCORDO
100
AcDbLine
 62
250
  6
CONTINUOUS
 10
-18.0559290951
 20
-30.3138088159
 11
-17.5554027605
 21
-30.3138088159
  0
LINE
  5
244
100
AcDbEntity
  8
0
100
AcDbLine
 62
250
  6
CONTINUOUS
 10
-17.5554027605
 20
-30.3138088159
 11
1.9435445703
 21
-30.3138088159
  0
LINE
  5
245
100
AcDbEntity
  8
RACCORDO
100
AcDbLine
 62
250
  6
CONTINUOUS
 10
1.9435445703
 20
-30.3138088159
 11
2.4440709049
 21
-30.3138088159
  0
LINE
  5
246
100
AcDbEntity
  8
RACCORDO
100
AcDbLine
 62
250
  6
CONTINUOUS
 10
-18.0559290951
 20
-30.1427987442
 11
-17.5559290951
 21
-30.1427987442
  0
LINE
  5
247
100
AcDbEntity
  8
0
100
AcDbLine
 62
250
  6
CONTINUOUS
 10
-17.5559290951
 20
-30.1427987442
 11
1.9440709049
 21
-30.1427987442
  0
LINE
  5
248
100
AcDbEntity
  8
RACCORDO
100
AcDbLine
 62
250
  6
CONTINUOUS
 10
1.9440709049
 20
-30.1427987442
 11
2.4440709049
 21
-30.1427987442
  0
LINE
  5
249
100
AcDbEntity
  8
RACCORDO
100
AcDbLine
 62
7
  6
CONTINUOUS
 10
-18.7704642911
 20
-29.6052054604
 11
-18.6559290951
 21
-29.6052054604
  0
LINE
  5
24A
100
AcDbEntity
  8
DRAFT
100
AcDbLine
 62
7
  6
CONTINUOUS
 10
-18.7887944362
 20
-29.6052054604
 11
-18.7704642911
 21
-29.6052054604
  0
LINE
  5
24B
100
AcDbEntity
  8
RACCORDO
100
AcDbLine
 62
7
  6
CONTINUOUS
 10
3.158606101
 20
-29.6052054604
 11
3.0440709049
 21
-29.6052054604
  0
LINE
  5
24C
100
AcDbEntity
  8
DRAFT
100
AcDbLine
 62
7
  6
CONTINUOUS
 10
3.1769362461
 20
-29.6052054604
 11
3.158606101
 21
-29.6052054604
  0
LINE
  5
24D
100
AcDbEntity
  8
RACCORDO
100
AcDbLine
 62
7
  6
CONTINUOUS
 10
-12.5559290951
 20
-29.1552054604
 11
-3.0559290951
 21
-29.1552054604
  0
LINE
  5
24E
100
AcDbEntity
  8
RACCORDO
100
AcDbLine
 62
250
  6
CONTINUOUS
 10
1.5233647616
 20
-28.8949983737
 11
1.2965413715
 21
-28.8949983737
  0
LINE
  5
24F
100
AcDbEntity
  8
RACCORDO
100
AcDbLine
 62
250
  6
CONTINUOUS
 10
-16.9083995621
 20
-28.8949983737
 11
-17.1352229517
 21
-28.8949983737
  0
LINE
  5
250
100
AcDbEntity
  8
DRAFT
100
AcDbLine
 62
7
  6
CONTINUOUS
 10
-17.9059290951
 20
-28.5925287349
 11
-18.4059290951
 21
-28.5773999122
  0
LWPOLYLINE
  5
251
100
AcDbEntity
  8
RACCORDO
100
AcDbPolyline
 62
250
  6
CONTINUOUS
 90
25
 70
0
 10
-16.9083995621
 20
-28.8949983737
 10
-16.8630548008
 20
-28.8993457841
 10
-16.8158819161
 20
-28.9023125889
 10
-16.7668809078
 20
-28.9038987881
 10
-16.7154171552
 20
-28.9046472089
 10
-16.662125279
 20
-28.904015024
 10
-16.6089091422
 20
-28.900373752
 10
-16.5555348675
 20
-28.8927949559
 10
-16.5022363321
 20
-28.8822070727
 10
-16.4516190308
 20
-28.8697669312
 10
-16.4046190911
 20
-28.8556649121
 10
-16.3603003856
 20
-28.8397106348
 10
-16.3184600261
 20
-28.8224897863
 10
-16.2789233538
 20
-28.804237417
 10
-16.2418650275
 20
-28.7847184765
 10
-16.2076061362
 20
-28.7638135001
 10
-16.1759503192
 20
-28.7414324252
 10
-16.147093937
 20
-28.7176653143
 10
-16.1219471606
 20
-28.6926628913
 10
-16.1007399808
 20
-28.6663009296
 10
-16.0832424068
 20
-28.6387036556
 10
-16.0696746372
 20
-28.6103944728
 10
-16.0601100716
 20
-28.5815478489
 10
-16.0544753105
 20
-28.5519893162
 10
-16.0527703538
 20
-28.5217188747
  0
LINE
  5
252
100
AcDbEntity
  8
RACCORDO
100
AcDbLine
 62
250
  6
CONTINUOUS
 10
-16.9083995623
 20
-28.6952724668
 11
-17.3900193549
 21
-28.552125776
  0
LINE
  5
253
100
AcDbEntity
  8
RACCORDO
100
AcDbLine
 62
250
  6
CONTINUOUS
 10
-17.2422981919
 20
-28.4023313458
 11
-16.8406165562
 21
-28.5217188747
  0
LINE
  5
254
100
AcDbEntity
  8
RACCORDO
100
AcDbLine
 62
250
  6
CONTINUOUS
 10
-16.8406165562
 20
-27.5694004239
 11
-16.8897360942
 21
-27.5548011499
  0
LINE
  5
255
100
AcDbEntity
  8
RACCORDO
100
AcDbLine
 62
250
  6
CONTINUOUS
 10
-16.6928953932
 20
-27.4196059937
 11
-16.742015171
 21
-27.4050066484
  0
LINE
  5
256
100
AcDbEntity
  8
RACCORDO
100
AcDbLine
 62
250
  6
CONTINUOUS
 10
-16.3143266881
 20
-27.4158334644
 11
-16.210342349
 21
-27.4467396154
  0
LINE
  5
257
100
AcDbEntity
  8
RACCORDO
100
AcDbLine
 62
250
  6
CONTINUOUS
 10
-16.1666055251
 20
-27.2660390342
 11
-16.0527853133
 21
-27.2998685962
  0
LWPOLYLINE
  5
258
100
AcDbEntity
  8
RACCORDO
100
AcDbPolyline
 62
250
  6
CONTINUOUS
 90
16
 70
0
 10
-16.7420093195
 20
-27.4050066484
 10
-16.7483174018
 20
-27.4030325978
 10
-16.7542232746
 20
-27.3991325638
 10
-16.759726938
 20
-27.3935246206
 10
-16.7648589986
 20
-27.3864144898
 10
-16.7695888498
 20
-27.3780435223
 10
-16.7738246711
 20
-27.3687212646
 10
-16.7774998831
 20
-27.3588548946
 10
-16.7806810652
 20
-27.348535105
 10
-16.7834761358
 20
-27.3375052182
 10
-16.7859288139
 20
-27.3259050648
 10
-16.7879953804
 20
-27.3138074748
 10
-16.7896525968
 20
-27.3006821818
 10
-16.790892717
 20
-27.2863689987
 10
-16.7917234872
 20
-27.2711683202
 10
-16.7921449073
 20
-27.2552122182
  0
LWPOLYLINE
  5
259
100
AcDbEntity
  8
RACCORDO
100
AcDbPolyline
 62
250
  6
CONTINUOUS
 90
10
 70
0
 10
-16.2103423494
 20
-26.7636713054
 10
-16.2164554202
 20
-26.7602613422
 10
-16.2223955731
 20
-26.752687456
 10
-16.2279939376
 20
-26.7411642833
 10
-16.2330919066
 20
-26.7260188865
 10
-16.2375445107
 20
-26.7076815226
 10
-16.2412241353
 20
-26.6866734655
 10
-16.2440257381
 20
-26.6635921623
 10
-16.2458701879
 20
-26.6390942402
 10
-16.2467051418
 20
-26.6138768762
  0
LWPOLYLINE
  5
25A
100
AcDbEntity
  8
RACCORDO
100
AcDbPolyline
 62
250
  6
CONTINUOUS
 90
28
 70
0
 10
-16.1277146379
 20
-26.7827857936
 10
-16.1209231121
 20
-26.7868417796
 10
-16.1145745437
 20
-26.7910860377
 10
-16.1086628655
 20
-26.7954771224
 10
-16.1031921625
 20
-26.7999664755
 10
-16.0981377039
 20
-26.8045262909
 10
-16.0934508405
 20
-26.8091544268
 10
-16.089120334
 20
-26.8138239553
 10
-16.0851354353
 20
-26.818508831
 10
-16.0814543313
 20
-26.8232187537
 10
-16.0780671986
 20
-26.8279343735
 10
-16.0749638716
 20
-26.8326382106
 10
-16.0721089116
 20
-26.8373506464
 10
-16.0694947533
 20
-26.8420581435
 10
-16.067113627
 20
-26.8467490683
 10
-16.0649373044
 20
-26.8514526032
 10
-16.062961191
 20
-26.8561593511
 10
-16.0611807075
 20
-26.8608615346
 10
-16.0595756547
 20
-26.8655951359
 10
-16.0581449228
 20
-26.8703532859
 10
-16.0568875498
 20
-26.875130647
 10
-16.0557920786
 20
-26.8799685146
 10
-16.054861359
 20
-26.8848609749
 10
-16.0540984857
 20
-26.8898040553
 10
-16.0535016716
 20
-26.8948437108
 10
-16.0530776988
 20
-26.8999921642
 10
-16.0528363659
 20
-26.9052270156
 10
-16.0527853133
 20
-26.9105423246
  0
LWPOLYLINE
  5
25B
100
AcDbEntity
  8
RACCORDO
100
AcDbPolyline
 62
250
  6
CONTINUOUS
 90
28
 70
0
 10
-16.0527703538
 20
-26.6543895142
 10
-16.0395392904
 20
-26.6627275391
 10
-16.0271347515
 20
-26.6712766646
 10
-16.0155567372
 20
-26.6800368908
 10
-16.0048497501
 20
-26.6890520381
 10
-15.9949692875
 20
-26.698278286
 10
-15.9857818411
 20
-26.7075841733
 10
-15.9772833005
 20
-26.7169491377
 10
-15.969477776
 20
-26.7263937415
 10
-15.9622440907
 20
-26.7358482108
 10
-15.9555761113
 20
-26.7452961805
 10
-15.9494799709
 20
-26.7547540156
 10
-15.9438528928
 20
-26.7642010373
 10
-15.9386868313
 20
-26.7736249108
 10
-15.933989832
 20
-26.7830379707
 10
-15.929683254
 20
-26.7924565426
 10
-15.9257576819
 20
-26.8018718616
 10
-15.9222225311
 20
-26.8112926926
 10
-15.9190274072
 20
-26.8207616556
 10
-15.9161617904
 20
-26.8302728827
 10
-15.9136362005
 20
-26.8398322419
 10
-15.9114318019
 20
-26.8494999571
 10
-15.9095367088
 20
-26.8592723939
 10
-15.9079628071
 20
-26.8691531868
 10
-15.9067269182
 20
-26.8792134635
 10
-15.9058346494
 20
-26.8894769334
 10
-15.9052803934
 20
-26.8999198871
 10
-15.9050641504
 20
-26.9105423246
  0
LWPOLYLINE
  5
25C
100
AcDbEntity
  8
RACCORDO
100
AcDbPolyline
 62
250
  6
CONTINUOUS
 90
16
 70
0
 10
-16.8897360942
 20
-27.5548011499
 10
-16.8960367873
 20
-27.5501052431
 10
-16.9019380506
 20
-27.5424497242
 10
-16.9074398841
 20
-27.5318345931
 10
-16.9125744468
 20
-27.51774854
 10
-16.9173095798
 20
-27.5007028747
 10
-16.9215488056
 20
-27.4822315267
 10
-16.9252229383
 20
-27.4627857813
 10
-16.928401164
 20
-27.4419143531
 10
-16.9311945632
 20
-27.4197973152
 10
-16.9336486744
 20
-27.3967200705
 10
-16.9357179592
 20
-27.3723972162
 10
-16.9373768832
 20
-27.3461526173
 10
-16.9386169349
 20
-27.3177608955
 10
-16.9394466257
 20
-27.2874474292
 10
-16.9398659558
 20
-27.2552122182
  0
LWPOLYLINE
  5
25D
100
AcDbEntity
  8
RACCORDO
100
AcDbPolyline
 62
250
  6
CONTINUOUS
 90
20
 70
0
 10
-16.8316062788
 20
0.8472012994
 10
-16.8324277595
 20
0.8451349137
 10
-16.8332123222
 20
0.84311281
 10
-16.8339585985
 20
0.8411377361
 10
-16.8346666113
 20
0.8391942312
 10
-16.8353359553
 20
0.8372820702
 10
-16.835965989
 20
0.8354020759
 10
-16.8365573063
 20
0.8335401762
 10
-16.837109875
 20
0.8316995434
 10
-16.8376234713
 20
0.8298774291
 10
-16.838099538
 20
0.8280507202
 10
-16.8385411488
 20
0.826214605
 10
-16.8389465479
 20
0.8243741566
 10
-16.8393109768
 20
0.822520991
 10
-16.8396357547
 20
0.8206457352
 10
-16.8399217263
 20
0.8187580651
 10
-16.8401631504
 20
0.8168782064
 10
-16.8403580894
 20
0.8150130751
 10
-16.840509099
 20
0.8131562402
 10
-16.8406165562
 20
0.8113079539
  0
LINE
  5
25E
100
AcDbEntity
  8
RACCORDO
100
AcDbLine
 62
250
  6
CONTINUOUS
 10
-16.8298547091
 20
0.8514944921
 11
-16.8316062788
 21
0.8472012994
  0
LWPOLYLINE
  5
25F
100
AcDbEntity
  8
RACCORDO
100
AcDbPolyline
 62
250
  6
CONTINUOUS
 90
3
 70
0
 10
-16.8259570868
 20
0.8609582296
 10
-16.8279655499
 20
0.8560523051
 10
-16.8298547091
 20
0.8514944921
  0
LINE
  5
260
100
AcDbEntity
  8
RACCORDO
100
AcDbLine
 62
250
  6
CONTINUOUS
 10
-16.1277146381
 20
-0.2827857935
 11
-16.0527703542
 21
-0.1543895139
  0
LINE
  5
261
100
AcDbEntity
  8
DRAFT
100
AcDbLine
 62
7
  6
CONTINUOUS
 10
-17.3825067656
 20
-2.1783882866
 11
-17.4508780693
 21
-2.2052054604
  0
LINE
  5
262
100
AcDbEntity
  8
DRAFT
100
AcDbLine
 62
7
  6
CONTINUOUS
 10
-17.349568563
 20
-2.165685929
 11
-17.3825067656
 21
-2.1783882866
  0
LWPOLYLINE
  5
263
100
AcDbEntity
  8
DRAFT
100
AcDbPolyline
 62
7
  6
CONTINUOUS
 90
3
 70
0
 10
-17.301027093
 20
-2.1475569032
 10
-17.317080397
 20
-2.1534773501
 10
-17.349568563
 20
-2.165685929
  0
LWPOLYLINE
  5
264
100
AcDbEntity
  8
RACCORDO
100
AcDbPolyline
 62
7
  6
CONTINUOUS
 90
19
 70
0
 10
-17.1352229517
 20
-2.3949983737
 10
-17.1117985412
 20
-2.3865363288
 10
-17.0902277812
 20
-2.3765139875
 10
-17.0705106716
 20
-2.3649736183
 10
-17.0525599621
 20
-2.3517717744
 10
-17.036462903
 20
-2.3372487424
 10
-17.0224812451
 20
-2.3221978732
 10
-17.0107912634
 20
-2.3068226166
 10
-17.001216683
 20
-2.2912858451
 10
-16.9934904296
 20
-2.276264601
 10
-16.9877171962
 20
-2.262067164
 10
-16.9837922898
 20
-2.2487274413
 10
-16.9811345577
 20
-2.2364482885
 10
-16.9797149975
 20
-2.2254081078
 10
-16.9795626115
 20
-2.2158019492
 10
-16.9801832536
 20
-2.2078350875
 10
-16.9814122084
 20
-2.2016693811
 10
-16.9834141913
 20
-2.1974389749
 10
-16.9861892023
 20
-2.1952724668
  0
LWPOLYLINE
  5
265
100
AcDbEntity
  8
RACCORDO
100
AcDbPolyline
 62
250
  6
CONTINUOUS
 90
13
 70
0
 10
1.1301569808
 20
-26.8054042724
 10
1.1493284987
 20
-26.8039608261
 10
1.1681757338
 20
-26.8000082617
 10
1.1863799175
 20
-26.7936134412
 10
1.203633162
 20
-26.7848845312
 10
1.21964366
 20
-26.7739691765
 10
1.234140622
 20
-26.7610520062
 10
1.2468788661
 20
-26.7463515028
 10
1.2576429605
 20
-26.7301163058
 10
1.2662508618
 20
-26.7126210124
 10
1.2725569976
 20
-26.694161528
 10
1.2764547273
 20
-26.6750500604
 10
1.2778781438
 20
-26.6556098422
  0
LWPOLYLINE
  5
266
100
AcDbEntity
  8
RACCORDO
100
AcDbPolyline
 62
250
  6
CONTINUOUS
 90
13
 70
0
 10
1.0810372031
 20
-26.7908049272
 10
1.1002085511
 20
-26.7893615048
 10
1.1190556514
 20
-26.7854090013
 10
1.1372597405
 20
-26.7790142659
 10
1.15451293
 20
-26.7702854536
 10
1.1705234143
 20
-26.7593701961
 10
1.1850204059
 20
-26.7464531045
 10
1.1977587152
 20
-26.7317526475
 10
1.2085228974
 20
-26.715517456
 10
1.2171308964
 20
-26.6980221179
 10
1.2234371239
 20
-26.6795625344
 10
1.2273349218
 20
-26.6604509149
 10
1.2287583661
 20
-26.6410104969
  0
LINE
  5
267
100
AcDbEntity
  8
RACCORDO
100
AcDbLine
 62
7
  6
CONTINUOUS
 10
-18.4059290951
 20
-28.5538164115
 11
-18.3736698472
 21
-28.552125776
  0
LWPOLYLINE
  5
268
100
AcDbEntity
  8
0
100
AcDbPolyline
 62
7
  6
CONTINUOUS
 90
10
 70
0
 10
-5.847907128
 20
-28.2933797363
 10
-5.8021137596
 20
-28.2918870239
 10
-5.7594197508
 20
-28.2886080443
 10
-5.7198251016
 20
-28.2835427975
 10
-5.6835087307
 20
-28.2765219255
 10
-5.6502917194
 20
-28.2677147862
 10
-5.6196373119
 20
-28.2576294541
 10
-5.5913665895
 20
-28.2464352872
 10
-5.5656584709
 20
-28.2339629275
 10
-5.542512956
 20
-28.2202123748
  0
LWPOLYLINE
  5
269
100
AcDbEntity
  8
0
100
AcDbPolyline
 62
7
  6
CONTINUOUS
 90
10
 70
0
 10
-7.2858046909
 20
-28.2933797363
 10
-7.2400113225
 20
-28.2918870239
 10
-7.1973173138
 20
-28.2886080443
 10
-7.1577226646
 20
-28.2835427975
 10
-7.1214062937
 20
-28.2765219255
 10
-7.0881892824
 20
-28.2677147862
 10
-7.0575348749
 20
-28.2576294541
 10
-7.0292641525
 20
-28.2464352872
 10
-7.0035560339
 20
-28.2339629275
 10
-6.980410519
 20
-28.2202123748
  0
LWPOLYLINE
  5
26A
100
AcDbEntity
  8
0
100
AcDbPolyline
 62
7
  6
CONTINUOUS
 90
10
 70
0
 10
-8.7237022539
 20
-28.2933797363
 10
-8.6779088855
 20
-28.2918870239
 10
-8.6352148768
 20
-28.2886080443
 10
-8.5956202276
 20
-28.2835427975
 10
-8.5593038567
 20
-28.2765219255
 10
-8.5260868454
 20
-28.2677147862
 10
-8.4954324379
 20
-28.2576294541
 10
-8.4671617155
 20
-28.2464352872
 10
-8.4414535968
 20
-28.2339629275
 10
-8.418308082
 20
-28.2202123748
  0
LINE
  5
26B
100
AcDbEntity
  8
RACCORDO
100
AcDbLine
 62
250
  6
CONTINUOUS
 10
0.9421138612
 20
-27.5900361563
 11
0.8540642782
 21
-27.5926745018
  0
LWPOLYLINE
  5
26C
100
AcDbEntity
  8
RACCORDO
100
AcDbPolyline
 62
250
  6
CONTINUOUS
 90
9
 70
0
 10
0.7141087042
 20
-27.2576998105
 10
0.685948445
 20
-27.2584353728
 10
0.6594392655
 20
-27.2592640522
 10
0.6348364717
 20
-27.2601913822
 10
0.6126195365
 20
-27.2612118293
 10
0.5931558835
 20
-27.2623085255
 10
0.5767998569
 20
-27.2634758484
 10
0.563889765
 20
-27.2647194204
 10
0.554747335
 20
-27.2660392417
  0
LWPOLYLINE
  5
26D
100
AcDbEntity
  8
0
100
AcDbPolyline
 62
7
  6
CONTINUOUS
 90
10
 70
0
 10
-11.6217659106
 20
-28.2901985448
 10
-11.5835638302
 20
-28.2893636073
 10
-11.5474903973
 20
-28.287354958
 10
-11.5135456121
 20
-28.2841725968
 10
-11.4818484995
 20
-28.2797405896
 10
-11.4522800345
 20
-28.2741348705
 10
-11.4244831416
 20
-28.267583242
 10
-11.3983387957
 20
-28.2601616382
 10
-11.3739660219
 20
-28.2517941249
 10
-11.3513648202
 20
-28.2424807021
  0
LWPOLYLINE
  5
26E
100
AcDbEntity
  8
RACCORDO
100
AcDbPolyline
 62
250
  6
CONTINUOUS
 90
3
 70
0
 10
0.7370907103
 20
-27.4440138137
 10
0.6477484227
 20
-27.4459472789
 10
0.5984841588
 20
-27.4467396154
  0
LINE
  5
26F
100
AcDbEntity
  8
RACCORDO
100
AcDbLine
 62
250
  6
CONTINUOUS
 10
0.8540642782
 20
-27.5926745018
 11
0.7522470874
 21
-27.5948329961
  0
LINE
  5
270
100
AcDbEntity
  8
RACCORDO
100
AcDbLine
 62
250
  6
CONTINUOUS
 10
0.7752578929
 20
-27.2565072222
 11
0.7141087042
 21
-27.2576998105
  0
LINE
  5
271
100
AcDbEntity
  8
RACCORDO
100
AcDbLine
 62
250
  6
CONTINUOUS
 10
0.7522470874
 20
-27.5948329961
 11
0.634846927
 21
-27.5965340456
  0
LINE
  5
272
100
AcDbEntity
  8
RACCORDO
100
AcDbLine
 62
250
  6
CONTINUOUS
 10
0.8414695776
 20
-27.2556916714
 11
0.7752578929
 21
-27.2565072222
  0
LWPOLYLINE
  5
273
100
AcDbEntity
  8
RACCORDO
100
AcDbPolyline
 62
250
  6
CONTINUOUS
 90
10
 70
0
 10
0.5984841588
 20
-27.4467396154
 10
0.5899499911
 20
-27.4468207748
 10
0.5812120897
 20
-27.4464743752
 10
0.5722947374
 20
-27.4456564405
 10
0.5632774456
 20
-27.4443371045
 10
0.5541428255
 20
-27.4424652772
 10
0.5447846873
 20
-27.4399370949
 10
0.5352121942
 20
-27.4366579041
 10
0.5255428954
 20
-27.4325757823
 10
0.5158563993
 20
-27.4276248879
  0
LWPOLYLINE
  5
274
100
AcDbEntity
  8
RACCORDO
100
AcDbPolyline
 62
250
  6
CONTINUOUS
 90
15
 70
0
 10
0.9256632037
 20
-27.4050678528
 10
0.9033296912
 20
-27.4052276166
 10
0.8816698987
 20
-27.4054859396
 10
0.8606082083
 20
-27.405844578
 10
0.8402202379
 20
-27.4063017757
 10
0.8207328416
 20
-27.4068522645
 10
0.8020994294
 20
-27.4074942915
 10
0.7843665914
 20
-27.4082296097
 10
0.7679009517
 20
-27.4090582092
 10
0.7526018676
 20
-27.4099858365
 10
0.7385699819
 20
-27.4110067452
 10
0.7264738468
 20
-27.4121036872
 10
0.7165363132
 20
-27.413270913
 10
0.7085345302
 20
-27.4145141721
 10
0.7024684979
 20
-27.4158334644
  0
LINE
  5
275
100
AcDbEntity
  8
RACCORDO
100
AcDbLine
 62
250
  6
CONTINUOUS
 10
0.9123041598
 20
-27.2552735353
 11
0.8414695776
 21
-27.2556916714
  0
LINE
  5
276
100
AcDbEntity
  8
DRAFT
100
AcDbLine
 62
7
  6
CONTINUOUS
 10
2.1437282593
 20
-28.7221103838
 11
1.9440709049
 21
-28.7221103838
  0
LINE
  5
277
100
AcDbEntity
  8
0
100
AcDbLine
 62
7
  6
CONTINUOUS
 10
2.1437282593
 20
-28.7221103838
 11
1.9440709049
 21
-28.7221103838
  0
LINE
  5
278
100
AcDbEntity
  8
DRAFT
100
AcDbLine
 62
7
  6
CONTINUOUS
 10
-17.5559290951
 20
-28.7221103838
 11
-17.7555864494
 21
-28.7221103838
  0
LINE
  5
279
100
AcDbEntity
  8
0
100
AcDbLine
 62
7
  6
CONTINUOUS
 10
-17.5559290951
 20
-28.7221103838
 11
-17.7555864494
 21
-28.7221103838
  0
LINE
  5
27A
100
AcDbEntity
  8
DRAFT
100
AcDbLine
 62
7
  6
CONTINUOUS
 10
-17.7555864494
 20
-28.7052054604
 11
-17.4508780693
 21
-28.7052054604
  0
LINE
  5
27B
100
AcDbEntity
  8
DRAFT
100
AcDbLine
 62
7
  6
CONTINUOUS
 10
1.8390198792
 20
-28.7052054604
 11
2.1437282593
 21
-28.7052054604
  0
LINE
  5
27C
100
AcDbEntity
  8
RACCORDO
100
AcDbLine
 62
250
  6
CONTINUOUS
 10
1.2965413721
 20
-28.6952724668
 11
1.3743310122
 21
-28.6952724668
  0
LINE
  5
27D
100
AcDbEntity
  8
RACCORDO
100
AcDbLine
 62
250
  6
CONTINUOUS
 10
-16.9083995623
 20
-28.6952724668
 11
-16.9861892023
 21
-28.6952724668
  0
LINE
  5
27E
100
AcDbEntity
  8
DRAFT
100
AcDbLine
 62
7
  6
CONTINUOUS
 10
1.6891689029
 20
-28.6475569032
 11
1.498972907
 21
-28.6475569032
  0
LINE
  5
27F
100
AcDbEntity
  8
DRAFT
100
AcDbLine
 62
7
  6
CONTINUOUS
 10
-17.1108310971
 20
-28.6475569032
 11
-17.301027093
 21
-28.6475569032
  0
LINE
  5
280
100
AcDbEntity
  8
RACCORDO
100
AcDbLine
 62
250
  6
CONTINUOUS
 10
2.761811657
 20
-28.552125776
 11
1.7781611647
 21
-28.552125776
  0
LINE
  5
281
100
AcDbEntity
  8
RACCORDO
100
AcDbLine
 62
250
  6
CONTINUOUS
 10
-17.3900193549
 20
-28.552125776
 11
-18.3736698472
 21
-28.552125776
  0
LINE
  5
282
100
AcDbEntity
  8
RACCORDO
100
AcDbLine
 62
250
  6
CONTINUOUS
 10
-16.8406165562
 20
-28.5217186895
 11
-16.0527703538
 21
-28.5217188747
  0
LINE
  5
283
100
AcDbEntity
  8
RACCORDO
100
AcDbLine
 62
250
  6
CONTINUOUS
 10
1.2287583661
 20
-28.5217187425
 11
0.4409121637
 21
-28.5217188747
  0
LINE
  5
284
100
AcDbEntity
  8
0
100
AcDbLine
 62
7
  6
CONTINUOUS
 10
-10.1806870898
 20
-28.2552054604
 11
-9.916648378
 21
-28.2552054604
  0
LINE
  5
285
100
AcDbEntity
  8
0
100
AcDbLine
 62
7
  6
CONTINUOUS
 10
-5.0939648529
 20
-28.2552054604
 11
-4.8235638996
 21
-28.2552054604
  0
LINE
  5
286
100
AcDbEntity
  8
0
100
AcDbLine
 62
7
  6
CONTINUOUS
 10
-3.7006042143
 20
-28.2552054604
 11
-3.420659556
 21
-28.2552054604
  0
LINE
  5
287
100
AcDbEntity
  8
RACCORDO
100
AcDbLine
 62
250
  6
CONTINUOUS
 10
1.6722146867
 20
-28.1526739621
 11
2.3827460395
 21
-28.1526739621
  0
LINE
  5
288
100
AcDbEntity
  8
RACCORDO
100
AcDbLine
 62
250
  6
CONTINUOUS
 10
-17.2840728768
 20
-28.1526739621
 11
-17.9946042297
 21
-28.1526739621
  0
LINE
  5
289
100
AcDbEntity
  8
0
100
AcDbLine
 62
7
  6
CONTINUOUS
 10
-11.9303413068
 20
-27.6857725417
 11
-12.191198855
 21
-27.6857725417
  0
LINE
  5
28A
100
AcDbEntity
  8
0
100
AcDbLine
 62
7
  6
CONTINUOUS
 10
-4.6613231083
 20
-27.6730477502
 11
-3.8628450056
 21
-27.6730477502
  0
LINE
  5
28B
100
AcDbEntity
  8
0
100
AcDbLine
 62
7
  6
CONTINUOUS
 10
-3.9264687916
 20
-27.4567268779
 11
-4.5945182701
 21
-27.4567268779
  0
LINE
  5
28C
100
AcDbEntity
  8
RACCORDO
100
AcDbLine
 62
250
  6
CONTINUOUS
 10
1.1301569808
 20
-27.4050066484
 11
0.9256632037
 21
-27.4050678528
  0
LINE
  5
28D
100
AcDbEntity
  8
RACCORDO
100
AcDbLine
 62
250
  6
CONTINUOUS
 10
-16.0527853133
 20
-27.2998685962
 11
-15.9050641504
 21
-27.2998685962
  0
LINE
  5
28E
100
AcDbEntity
  8
RACCORDO
100
AcDbLine
 62
250
  6
CONTINUOUS
 10
0.4409271232
 20
-27.2998685962
 11
0.2932059603
 21
-27.2998685962
  0
LINE
  5
28F
100
AcDbEntity
  8
RACCORDO
100
AcDbLine
 62
250
  6
CONTINUOUS
 10
0.9123041598
 20
-27.2552735353
 11
1.3280077657
 21
-27.2552122182
  0
LINE
  5
290
100
AcDbEntity
  8
CURVE
100
AcDbLine
 62
7
  6
CONTINUOUS
 10
-16.7240500587
 20
-27.1052054604
 11
-18.4059290951
 21
-27.1052054604
  0
LWPOLYLINE
  5
291
100
AcDbEntity
  8
RACCORDO
100
AcDbPolyline
 62
250
  6
CONTINUOUS
 90
10
 70
0
 10
0.634846927
 20
-27.5965340456
 10
0.6151306358
 20
-27.5965043787
 10
0.5949539562
 20
-27.5954646449
 10
0.5743246577
 20
-27.5934148442
 10
0.5532794073
 20
-27.5904987997
 10
0.531801508
 20
-27.5865726883
 10
0.5098200053
 20
-27.5812050402
 10
0.4873203096
 20
-27.5742520323
 10
0.4643452474
 20
-27.5658574878
 10
0.4409121637
 20
-27.5560214066
  0
LINE
  5
292
100
AcDbEntity
  8
RACCORDO
100
AcDbLine
 62
250
  6
CONTINUOUS
 10
-16.742015171
 20
-27.4050066484
 11
-16.5438415148
 21
-27.405045678
  0
LINE
  5
293
100
AcDbEntity
  8
RACCORDO
100
AcDbLine
 62
250
  6
CONTINUOUS
 10
-16.9398659558
 20
-27.2552122182
 11
-16.5083892544
 21
-27.2553320491
  0
LINE
  5
294
100
AcDbEntity
  8
RACCORDO
100
AcDbLine
 62
250
  6
CONTINUOUS
 10
-16.5083892544
 20
-27.2553320491
 11
-16.4607713928
 21
-27.2556236104
  0
LINE
  5
295
100
AcDbEntity
  8
RACCORDO
100
AcDbLine
 62
250
  6
CONTINUOUS
 10
-16.5438415148
 20
-27.405045678
 11
-16.5126747405
 21
-27.4052489153
  0
LWPOLYLINE
  5
296
100
AcDbEntity
  8
RACCORDO
100
AcDbPolyline
 62
250
  6
CONTINUOUS
 90
48
 70
0
 10
1.2965413721
 20
-28.6952724668
 10
1.2915557005
 20
-28.695231373
 10
1.2867148996
 20
-28.6950153666
 10
1.282023387
 20
-28.6946297832
 10
1.2774852973
 20
-28.6940766766
 10
1.2731044503
 20
-28.6933643707
 10
1.2688840251
 20
-28.6925098159
 10
1.2648383632
 20
-28.6915253045
 10
1.2609580925
 20
-28.6904145056
 10
1.2572104062
 20
-28.689181382
 10
1.2535970036
 20
-28.6878330943
 10
1.2501202701
 20
-28.6863731576
 10
1.2467493814
 20
-28.6847953067
 10
1.2434846975
 20
-28.6831031881
 10
1.2403306052
 20
-28.6812984351
 10
1.237264127
 20
-28.6793665014
 10
1.2342834829
 20
-28.677306184
 10
1.231397313
 20
-28.6751188242
 10
1.2286003301
 20
-28.6727894414
 10
1.2258903433
 20
-28.6703126142
 10
1.2232788354
 20
-28.6676910229
 10
1.2207821189
 20
-28.6649203406
 10
1.2184014741
 20
-28.6619964964
 10
1.2161456435
 20
-28.6589219619
 10
1.2140414769
 20
-28.6557035893
 10
1.2120925539
 20
-28.6523410956
 10
1.2103040035
 20
-28.6488365695
 10
1.2087029981
 20
-28.6452030875
 10
1.2072933599
 20
-28.6414443364
 10
1.2060773013
 20
-28.6375620171
 10
1.205077202
 20
-28.6335686719
 10
1.2042959004
 20
-28.6294504385
 10
1.2037347519
 20
-28.6252281751
 10
1.203407766
 20
-28.6209712184
 10
1.2033226236
 20
-28.6166756686
 10
1.203464536
 20
-28.6123593267
 10
1.2038020457
 20
-28.6081313775
 10
1.2043317829
 20
-28.6040226091
 10
1.2050350673
 20
-28.6000212921
 10
1.2058494615
 20
-28.5961764389
 10
1.2067594541
 20
-28.5925156208
 10
1.2077572421
 20
-28.589026241
 10
1.2087925828
 20
-28.5856958704
 10
1.2098502647
 20
-28.5825365221
 10
1.2109284644
 20
-28.5795451911
 10
1.2120013171
 20
-28.5766846131
 10
1.2130587229
 20
-28.5739584302
 10
1.2141000037
 20
-28.5713679461
  0
LINE
  5
297
100
AcDbEntity
  8
RACCORDO
100
AcDbLine
 62
250
  6
CONTINUOUS
 10
-16.4607713928
 20
-27.2556236104
 11
-16.3983045631
 21
-27.2563360637
  0
LWPOLYLINE
  5
298
100
AcDbEntity
  8
0
100
AcDbPolyline
 62
7
  6
CONTINUOUS
 90
10
 70
0
 10
-11.7681006526
 20
-27.1640574624
 10
-11.7421100076
 20
-27.1644137621
 10
-11.7166270815
 20
-27.1653260018
 10
-11.6916518742
 20
-27.1667941817
 10
-11.6670918594
 20
-27.1688535688
 10
-11.6430395636
 20
-27.1714688961
 10
-11.6197725653
 20
-27.1745343617
 10
-11.597383391
 20
-27.1780146986
 10
-11.5757795143
 20
-27.1819451738
 10
-11.5549609353
 20
-27.1863257875
  0
LINE
  5
299
100
AcDbEntity
  8
RACCORDO
100
AcDbLine
 62
250
  6
CONTINUOUS
 10
-16.5126747405
 20
-27.4052489153
 11
-16.4844642635
 21
-27.4056288377
  0
LWPOLYLINE
  5
29A
100
AcDbEntity
  8
RACCORDO
100
AcDbPolyline
 62
250
  6
CONTINUOUS
 90
15
 70
0
 10
-16.2467053635
 20
-27.596534061
 10
-16.3727703033
 20
-27.5946794682
 10
-16.4309496224
 20
-27.5935034542
 10
-16.4856181331
 20
-27.5921393699
 10
-16.5365178472
 20
-27.5906094739
 10
-16.5833395465
 20
-27.5889805418
 10
-16.6256281012
 20
-27.5872757652
 10
-16.6638596078
 20
-27.5854719525
 10
-16.69898531
 20
-27.5835663049
 10
-16.7306879979
 20
-27.5815796624
 10
-16.758989781
 20
-27.579491185
 10
-16.7847026429
 20
-27.5772355544
 10
-16.8074881215
 20
-27.5747909975
 10
-16.8263438907
 20
-27.5721792873
 10
-16.8406165562
 20
-27.5694004239
  0
LINE
  5
29B
100
AcDbEntity
  8
RACCORDO
100
AcDbLine
 62
250
  6
CONTINUOUS
 10
-16.3983045631
 20
-27.2563360637
 11
-16.3459637992
 21
-27.2572551303
  0
LWPOLYLINE
  5
29C
100
AcDbEntity
  8
RACCORDO
100
AcDbPolyline
 62
250
  6
CONTINUOUS
 90
15
 70
0
 10
-16.210342349
 20
-27.4467396154
 10
-16.3130172185
 20
-27.4448851494
 10
-16.3600410113
 20
-27.443709144
 10
-16.4043361824
 20
-27.4423450054
 10
-16.4457555923
 20
-27.4408150185
 10
-16.4838578216
 20
-27.4391860385
 10
-16.5182906283
 20
-27.4374813184
 10
-16.5494062546
 20
-27.4356776051
 10
-16.5778200076
 20
-27.4337719945
 10
-16.6037332275
 20
-27.4317852474
 10
-16.6269445743
 20
-27.4296966028
 10
-16.6474653355
 20
-27.4274408739
 10
-16.6652992736
 20
-27.4249963316
 10
-16.6804426262
 20
-27.4223847048
 10
-16.6928953932
 20
-27.4196059937
  0
LINE
  5
29D
100
AcDbEntity
  8
RACCORDO
100
AcDbLine
 62
250
  6
CONTINUOUS
 10
-16.4844642635
 20
-27.4056288377
 11
-16.4591471348
 21
-27.4061305111
  0
LWPOLYLINE
  5
29E
100
AcDbEntity
  8
0
100
AcDbPolyline
 62
7
  6
CONTINUOUS
 90
10
 70
0
 10
-11.6313094785
 20
-28.0897835997
 10
-11.6524404952
 20
-28.0892919713
 10
-11.672293882
 20
-28.0880954512
 10
-11.6908696389
 20
-28.0861940395
 10
-11.7080881263
 20
-28.0835444011
 10
-11.7240289839
 20
-28.080189871
 10
-11.7389311299
 20
-28.0762604543
 10
-11.7528742038
 20
-28.0717994859
 10
-11.7657785662
 20
-28.0667636309
 10
-11.7776442171
 20
-28.0611528892
  0
LINE
  5
29F
100
AcDbEntity
  8
RACCORDO
100
AcDbLine
 62
250
  6
CONTINUOUS
 10
-16.3459637992
 20
-27.2572551303
 11
-16.3029974205
 21
-27.2582876123
  0
LINE
  5
2A0
100
AcDbEntity
  8
RACCORDO
100
AcDbLine
 62
250
  6
CONTINUOUS
 10
-16.4591471348
 20
-27.4061305111
 11
-16.4366580709
 21
-27.4067280071
  0
LINE
  5
2A1
100
AcDbEntity
  8
RACCORDO
100
AcDbLine
 62
250
  6
CONTINUOUS
 10
-16.3029974205
 20
-27.2582876123
 11
-16.2790272333
 21
-27.2590059686
  0
LINE
  5
2A2
100
AcDbEntity
  8
RACCORDO
100
AcDbLine
 62
250
  6
CONTINUOUS
 10
-16.4366580709
 20
-27.4067280071
 11
-16.4168652386
 21
-27.4073868709
  0
LWPOLYLINE
  5
2A3
100
AcDbEntity
  8
0
100
AcDbPolyline
 62
7
  6
CONTINUOUS
 90
10
 70
0
 10
-8.7237022539
 20
-28.092964789
 10
-8.7486452036
 20
-28.0920781019
 10
-8.7717952867
 20
-28.0899954511
 10
-8.7931525035
 20
-28.0867168368
 10
-8.8125797453
 20
-28.0821725288
 10
-8.8302141208
 20
-28.0764322573
 10
-8.846466955
 20
-28.0697052122
 10
-8.8614753563
 20
-28.0620611235
 10
-8.8751022165
 20
-28.0534302612
 10
-8.8873475355
 20
-28.0438126253
  0
LWPOLYLINE
  5
2A4
100
AcDbEntity
  8
0
100
AcDbPolyline
 62
7
  6
CONTINUOUS
 90
10
 70
0
 10
-7.2858046909
 20
-28.092964789
 10
-7.3107476087
 20
-28.0920780993
 10
-7.3338976765
 20
-28.0899954436
 10
-7.3552548944
 20
-28.0867168219
 10
-7.3746821652
 20
-28.0821725001
 10
-7.3923165861
 20
-28.0764322124
 10
-7.4085694481
 20
-28.0697051608
 10
-7.4235778484
 20
-28.0620610795
 10
-7.4372046899
 20
-28.0534302343
 10
-7.4494499725
 20
-28.0438126253
  0
LWPOLYLINE
  5
2A5
100
AcDbEntity
  8
0
100
AcDbPolyline
 62
7
  6
CONTINUOUS
 90
10
 70
0
 10
-5.847907128
 20
-28.092964789
 10
-5.8728500457
 20
-28.0920780993
 10
-5.8960001135
 20
-28.0899954436
 10
-5.9173573314
 20
-28.0867168219
 10
-5.9367846022
 20
-28.0821725001
 10
-5.9544190231
 20
-28.0764322124
 10
-5.9706718851
 20
-28.0697051608
 10
-5.9856802854
 20
-28.0620610795
 10
-5.9993071269
 20
-28.0534302343
 10
-6.0115524095
 20
-28.0438126253
  0
LINE
  5
2A6
100
AcDbEntity
  8
RACCORDO
100
AcDbLine
 62
250
  6
CONTINUOUS
 10
-16.2790272333
 20
-27.2590059686
 11
-16.2582687169
 21
-27.259732819
  0
LINE
  5
2A7
100
AcDbEntity
  8
RACCORDO
100
AcDbLine
 62
250
  6
CONTINUOUS
 10
-16.4168652386
 20
-27.4073868709
 11
-16.3995659142
 21
-27.4080820417
  0
LINE
  5
2A8
100
AcDbEntity
  8
RACCORDO
100
AcDbLine
 62
250
  6
CONTINUOUS
 10
-16.2582687169
 20
-27.259732819
 11
-16.2402240744
 21
-27.2604656511
  0
LINE
  5
2A9
100
AcDbEntity
  8
RACCORDO
100
AcDbLine
 62
250
  6
CONTINUOUS
 10
-16.2402240744
 20
-27.2604656511
 11
-16.2245564841
 21
-27.2612038174
  0
LWPOLYLINE
  5
2AA
100
AcDbEntity
  8
RACCORDO
100
AcDbPolyline
 62
250
  6
CONTINUOUS
 90
3
 70
0
 10
-16.3995659142
 20
-27.4080820417
 10
-16.3845902556
 20
-27.4088003918
 10
-16.3778535096
 20
-27.409162484
  0
LINE
  5
2AB
100
AcDbEntity
  8
RACCORDO
100
AcDbLine
 62
7
  6
CONTINUOUS
 10
2.761811657
 20
-28.552125776
 11
2.7940709049
 21
-28.5538164115
  0
LWPOLYLINE
  5
2AC
100
AcDbEntity
  8
RACCORDO
100
AcDbPolyline
 62
250
  6
CONTINUOUS
 90
12
 70
0
 10
-16.2245564841
 20
-27.2612038174
 10
-16.2109031648
 20
-27.2619491004
 10
-16.2047365407
 20
-27.262326914
 10
-16.1989837649
 20
-27.262708564
 10
-16.193643879
 20
-27.2630943757
 10
-16.1886611245
 20
-27.2634874664
 10
-16.1840474273
 20
-27.2638876184
 10
-16.1798137412
 20
-27.2642950494
 10
-16.1759296835
 20
-27.2647135295
 10
-16.1724086027
 20
-27.2651443153
 10
-16.169291847
 20
-27.2655861502
 10
-16.1666055251
 20
-27.2660390342
  0
LWPOLYLINE
  5
2AD
100
AcDbEntity
  8
RACCORDO
100
AcDbPolyline
 62
250
  6
CONTINUOUS
 90
17
 70
0
 10
-16.3778535096
 20
-27.409162484
 10
-16.3657789897
 20
-27.4098933367
 10
-16.3603308902
 20
-27.410260079
 10
-16.3552803811
 20
-27.4106281503
 10
-16.3505460374
 20
-27.4109982437
 10
-16.3461194268
 20
-27.411369878
 10
-16.3420089815
 20
-27.4117435343
 10
-16.3381585728
 20
-27.4121213492
 10
-16.3345587632
 20
-27.4125029923
 10
-16.3312189901
 20
-27.412888794
 10
-16.3281114376
 20
-27.4132818822
 10
-16.3252253682
 20
-27.4136820481
 10
-16.3225715193
 20
-27.4140895005
 10
-16.3201542873
 20
-27.414507993
 10
-16.3179751374
 20
-27.4149387767
 10
-16.3160326043
 20
-27.4153806005
 10
-16.3143266881
 20
-27.4158334644
  0
LWPOLYLINE
  5
2AE
100
AcDbEntity
  8
RACCORDO
100
AcDbPolyline
 62
250
  6
CONTINUOUS
 90
13
 70
0
 10
-16.742015171
 20
-26.8054042724
 10
-16.761186519
 20
-26.8039608501
 10
-16.7800336193
 20
-26.8000083466
 10
-16.7982377083
 20
-26.7936136111
 10
-16.8154908978
 20
-26.7848847989
 10
-16.8315013821
 20
-26.7739695413
 10
-16.8459983738
 20
-26.7610524498
 10
-16.8587366831
 20
-26.7463519928
 10
-16.8695008653
 20
-26.7301168012
 10
-16.8781088642
 20
-26.7126214632
 10
-16.8844150917
 20
-26.6941618796
 10
-16.8883128896
 20
-26.6750502602
 10
-16.8897363339
 20
-26.6556098422
  0
LWPOLYLINE
  5
2AF
100
AcDbEntity
  8
RACCORDO
100
AcDbPolyline
 62
250
  6
CONTINUOUS
 90
13
 70
0
 10
-16.6928953932
 20
-26.7908049272
 10
-16.7120651019
 20
-26.7893617372
 10
-16.7309109782
 20
-26.7854098003
 10
-16.7491142967
 20
-26.7790158147
 10
-16.7663671902
 20
-26.7702877728
 10
-16.7823777957
 20
-26.7593731693
 10
-16.7968752088
 20
-26.7464565368
 10
-16.8096141708
 20
-26.7317562442
 10
-16.820379128
 20
-26.7155208652
 10
-16.828987869
 20
-26.6980250506
 10
-16.8352947144
 20
-26.6795647396
 10
-16.8391929439
 20
-26.6604521295
 10
-16.8406165562
 20
-26.6410104969
  0
LWPOLYLINE
  5
2B0
100
AcDbEntity
  8
0
100
AcDbPolyline
 62
7
  6
CONTINUOUS
 90
10
 70
0
 10
-11.5549609353
 20
-27.1863257875
 10
-11.5350826523
 20
-27.1914859247
 10
-11.5162927016
 20
-27.1974499725
 10
-11.4985910831
 20
-27.2042179309
 10
-11.4820446034
 20
-27.2118141938
 10
-11.466586456
 20
-27.2202143673
 10
-11.4520162212
 20
-27.2293452702
 10
-11.4382670926
 20
-27.2391825088
 10
-11.4254058766
 20
-27.2497504768
 10
-11.4134325734
 20
-27.2610491742
  0
LWPOLYLINE
  5
2B1
100
AcDbEntity
  8
DRAFT
100
AcDbPolyline
 62
7
  6
CONTINUOUS
 90
3
 70
0
 10
-17.301027093
 20
-25.5628540176
 10
-17.333260887
 20
-25.5508905621
 10
-17.349568563
 20
-25.5447249918
  0
LINE
  5
2B2
100
AcDbEntity
  8
DRAFT
100
AcDbLine
 62
7
  6
CONTINUOUS
 10
-17.349568563
 20
-25.5447249918
 11
-17.3825067656
 21
-25.5320226342
  0
LINE
  5
2B3
100
AcDbEntity
  8
DRAFT
100
AcDbLine
 62
7
  6
CONTINUOUS
 10
-17.3825067656
 20
-25.5320226342
 11
-17.4508780693
 21
-25.5052054604
  0
LWPOLYLINE
  5
2B4
100
AcDbEntity
  8
0
100
AcDbPolyline
 62
7
  6
CONTINUOUS
 90
10
 70
0
 10
-11.7776442171
 20
-28.0611528892
 10
-11.7902508914
 20
-28.0543473104
 10
-11.8022912256
 20
-28.04691759
 10
-11.8137652198
 20
-28.0388637281
 10
-11.8247031458
 20
-28.030148377
 10
-11.8350747317
 20
-28.0208088844
 10
-11.8447891622
 20
-28.0109572932
 10
-11.8538161656
 20
-28.0006309512
 10
-11.8621860136
 20
-27.9897925108
 10
-11.8698987063
 20
-27.9784419718
  0
LINE
  5
2B5
100
AcDbEntity
  8
RACCORDO
100
AcDbLine
 62
250
  6
CONTINUOUS
 10
-16.1277146377
 20
-27.4276251271
 11
-16.0527703491
 21
-27.5560214043
  0
LWPOLYLINE
  5
2B6
100
AcDbEntity
  8
RACCORDO
100
AcDbPolyline
 62
250
  6
CONTINUOUS
 90
50
 70
0
 10
-16.8298462301
 20
-28.5619260576
 10
-16.8269629358
 20
-28.5689007256
 10
-16.8259435135
 20
-28.5714028426
 10
-16.824900482
 20
-28.5739984653
 10
-16.8238423311
 20
-28.5767277286
 10
-16.8227700594
 20
-28.5795884913
 10
-16.8216932826
 20
-28.5825779995
 10
-16.8206375667
 20
-28.585733735
 10
-16.8196045557
 20
-28.5890596253
 10
-16.8186094892
 20
-28.5925427989
 10
-16.8177024801
 20
-28.5961932984
 10
-16.816891554
 20
-28.6000206705
 10
-16.8161913345
 20
-28.6040007526
 10
-16.815662724
 20
-28.6080917129
 10
-16.8153238895
 20
-28.6123071514
 10
-16.8151790803
 20
-28.6166142804
 10
-16.8152608703
 20
-28.620904972
 10
-16.8155846438
 20
-28.6251629739
 10
-16.8161427852
 20
-28.6293902092
 10
-16.8169214287
 20
-28.6335132156
 10
-16.8179190676
 20
-28.6375096764
 10
-16.8191329272
 20
-28.6413949683
 10
-16.8205408428
 20
-28.6451570637
 10
-16.8221408078
 20
-28.6487945855
 10
-16.8239288745
 20
-28.6523034222
 10
-16.8258775789
 20
-28.6556698975
 10
-16.827981588
 20
-28.6588916299
 10
-16.8302374752
 20
-28.6619692278
 10
-16.832618615
 20
-28.6648961829
 10
-16.8351165653
 20
-28.6676703009
 10
-16.8377297745
 20
-28.6702953
 10
-16.8404412768
 20
-28.6727749408
 10
-16.8432392877
 20
-28.6751063554
 10
-16.8461262182
 20
-28.6772952641
 10
-16.849107458
 20
-28.6793568594
 10
-16.852174206
 20
-28.6812897657
 10
-16.8553283689
 20
-28.6830952799
 10
-16.8585934964
 20
-28.6847882749
 10
-16.8619656601
 20
-28.6863672819
 10
-16.8654440686
 20
-28.6878283998
 10
-16.8690587838
 20
-28.6891776017
 10
-16.8728075515
 20
-28.6904114131
 10
-16.8766885149
 20
-28.6915227035
 10
-16.8807332436
 20
-28.6925073694
 10
-16.8849487678
 20
-28.6933615287
 10
-16.8893230241
 20
-28.6940735323
 10
-16.8938585903
 20
-28.694627154
 10
-16.8985536197
 20
-28.69501382
 10
-16.9034020843
 20
-28.695230837
 10
-16.9083995623
 20
-28.6952724668
  0
LWPOLYLINE
  5
2B7
100
AcDbEntity
  8
0
100
AcDbPolyline
 62
7
  6
CONTINUOUS
 90
10
 70
0
 10
-11.402263849
 20
-27.059078147
 10
-11.3820923991
 20
-27.0544666893
 10
-11.3626341485
 20
-27.049004388
 10
-11.3438890972
 20
-27.0426912432
 10
-11.3259754523
 20
-27.0355655462
 10
-11.3087750067
 20
-27.0275890057
 10
-11.2919331393
 20
-27.0186467475
 10
-11.2753316428
 20
-27.0087004804
 10
-11.2590887244
 20
-26.9977884956
 10
-11.2432043841
 20
-26.9859107932
  0
LWPOLYLINE
  5
2B8
100
AcDbEntity
  8
0
100
AcDbPolyline
 62
7
  6
CONTINUOUS
 90
10
 70
0
 10
-11.5676856925
 20
-26.9445553323
 10
-11.5860492359
 20
-26.9483937175
 10
-11.6053675816
 20
-26.9518165122
 10
-11.6256407295
 20
-26.9548237162
 10
-11.6468401543
 20
-26.9574337396
 10
-11.6689943814
 20
-26.9596281725
 10
-11.6921889871
 20
-26.9613517847
 10
-11.7164524969
 20
-26.9625861664
 10
-11.7417563854
 20
-26.9633497275
 10
-11.7681006526
 20
-26.9636424681
  0
LWPOLYLINE
  5
2B9
100
AcDbEntity
  8
RACCORDO
100
AcDbPolyline
 62
250
  6
CONTINUOUS
 90
9
 70
0
 10
-16.1666055251
 20
-26.9443718866
 10
-16.172100922
 20
-26.9452274904
 10
-16.1790401175
 20
-26.9460379028
 10
-16.1872234549
 20
-26.9468031236
 10
-16.1964389042
 20
-26.9475219782
 10
-16.2065157633
 20
-26.9481956414
 10
-16.2173494059
 20
-26.9488276375
 10
-16.2288021502
 20
-26.9494177085
 10
-16.2407280247
 20
-26.9499661126
  0
LWPOLYLINE
  5
2BA
100
AcDbEntity
  8
RACCORDO
100
AcDbPolyline
 62
250
  6
CONTINUOUS
 90
13
 70
0
 10
-16.6928953932
 20
-27.4196059937
 10
-16.7120667412
 20
-27.421049416
 10
-16.7309138416
 20
-27.4250019195
 10
-16.7491179306
 20
-27.4313966549
 10
-16.7663711201
 20
-27.4401254672
 10
-16.7823816044
 20
-27.4510407248
 10
-16.796878596
 20
-27.4639578163
 10
-16.8096169053
 20
-27.4786582733
 10
-16.8203810875
 20
-27.4948934648
 10
-16.8289890865
 20
-27.5123888029
 10
-16.835295314
 20
-27.5308483864
 10
-16.8391931119
 20
-27.5499600059
 10
-16.8406165562
 20
-27.5694004239
  0
LWPOLYLINE
  5
2BB
100
AcDbEntity
  8
RACCORDO
100
AcDbPolyline
 62
250
  6
CONTINUOUS
 90
13
 70
0
 10
-16.742015171
 20
-27.4050066484
 10
-16.7611866888
 20
-27.4064500947
 10
-16.7800339239
 20
-27.4104026591
 10
-16.7982381077
 20
-27.4167974796
 10
-16.8154913522
 20
-27.4255263897
 10
-16.8315018502
 20
-27.4364417443
 10
-16.8459988122
 20
-27.4493589146
 10
-16.8587370562
 20
-27.464059418
 10
-16.8695011506
 20
-27.480294615
 10
-16.8781090519
 20
-27.4977899084
 10
-16.8844151877
 20
-27.5162493928
 10
-16.8883129174
 20
-27.5353608604
 10
-16.8897363339
 20
-27.5548010786
  0
LINE
  5
2BC
100
AcDbEntity
  8
RACCORDO
100
AcDbLine
 62
7
  6
CONTINUOUS
 10
2.761811657
 20
-25.6582851448
 11
2.7940709049
 21
-25.6565945093
  0
LINE
  5
2BD
100
AcDbEntity
  8
RACCORDO
100
AcDbLine
 62
250
  6
CONTINUOUS
 10
-16.376216016
 20
-26.8011561787
 11
-16.392338006
 21
-26.8019959132
  0
LWPOLYLINE
  5
2BE
100
AcDbEntity
  8
0
100
AcDbPolyline
 62
7
  6
CONTINUOUS
 90
10
 70
0
 10
-11.6058599641
 20
-25.9170311888
 10
-11.6761642013
 20
-25.9202143273
 10
-11.7401017902
 20
-25.926812388
 10
-11.7976727309
 20
-25.9368253709
 10
-11.8482704221
 20
-25.9505655698
 10
-11.8925014651
 20
-25.9677206909
 10
-11.9321856631
 20
-25.987353853
 10
-11.9679296172
 20
-26.0091527621
 10
-11.9991267263
 20
-26.0334297121
 10
-12.0257769904
 20
-26.060184703
  0
LINE
  5
2BF
100
AcDbEntity
  8
RACCORDO
100
AcDbLine
 62
250
  6
CONTINUOUS
 10
-16.392338006
 20
-26.8019959132
 11
-16.4085467654
 21
-26.8027046755
  0
LINE
  5
2C0
100
AcDbEntity
  8
RACCORDO
100
AcDbLine
 62
250
  6
CONTINUOUS
 10
-16.2407280247
 20
-26.9499661126
 11
-16.2656760341
 21
-26.9509506412
  0
LINE
  5
2C1
100
AcDbEntity
  8
RACCORDO
100
AcDbLine
 62
250
  6
CONTINUOUS
 10
-16.4085467654
 20
-26.8027046755
 11
-16.4246477958
 21
-26.8033012026
  0
LWPOLYLINE
  5
2C2
100
AcDbEntity
  8
0
100
AcDbPolyline
 62
7
  6
CONTINUOUS
 90
10
 70
0
 10
-5.8447260757
 20
-25.9170311888
 10
-5.8897223626
 20
-25.9185073257
 10
-5.9316563183
 20
-25.9216638838
 10
-5.9705279429
 20
-25.9265008632
 10
-6.0060598323
 20
-25.933158791
 10
-6.0385293905
 20
-25.94149714
 10
-6.0687688299
 20
-25.9510943289
 10
-6.0970555547
 20
-25.9618098305
 10
-6.1231121607
 20
-25.973784172
 10
-6.1469386478
 20
-25.9870173534
  0
LWPOLYLINE
  5
2C3
100
AcDbEntity
  8
0
100
AcDbPolyline
 62
7
  6
CONTINUOUS
 90
10
 70
0
 10
-7.2826236387
 20
-25.9170311888
 10
-7.3276199256
 20
-25.9185073257
 10
-7.3695538813
 20
-25.9216638838
 10
-7.4084255059
 20
-25.9265008632
 10
-7.4439573952
 20
-25.933158791
 10
-7.4764269535
 20
-25.94149714
 10
-7.5066663929
 20
-25.9510943289
 10
-7.5349531177
 20
-25.9618098305
 10
-7.5610097236
 20
-25.973784172
 10
-7.5848362108
 20
-25.9870173534
  0
LWPOLYLINE
  5
2C4
100
AcDbEntity
  8
0
100
AcDbPolyline
 62
7
  6
CONTINUOUS
 90
10
 70
0
 10
-8.7205212017
 20
-25.9170311888
 10
-8.7655175386
 20
-25.918507328
 10
-8.8074515459
 20
-25.9216638901
 10
-8.8463232236
 20
-25.9265008753
 10
-8.8818551762
 20
-25.9331588136
 10
-8.9143247992
 20
-25.9414971749
 10
-8.9445642792
 20
-25.9510943686
 10
-8.9728510118
 20
-25.9618098645
 10
-8.9989076014
 20
-25.9737841927
 10
-9.022734048
 20
-25.9870173534
  0
LINE
  5
2C5
100
AcDbEntity
  8
RACCORDO
100
AcDbLine
 62
250
  6
CONTINUOUS
 10
-16.2656760341
 20
-26.9509506412
 11
-16.2914236338
 21
-26.9517903435
  0
LINE
  5
2C6
100
AcDbEntity
  8
DRAFT
100
AcDbLine
 62
7
  6
CONTINUOUS
 10
-17.9059290951
 20
-25.6178821859
 11
-18.4059290951
 21
-25.6330110086
  0
LINE
  5
2C7
100
AcDbEntity
  8
RACCORDO
100
AcDbLine
 62
250
  6
CONTINUOUS
 10
-16.4246477958
 20
-26.8033012026
 11
-16.4405564005
 21
-26.8037970472
  0
LINE
  5
2C8
100
AcDbEntity
  8
RACCORDO
100
AcDbLine
 62
250
  6
CONTINUOUS
 10
-16.5539720513
 20
-26.6203747645
 11
-16.4659224683
 21
-26.617736419
  0
LINE
  5
2C9
100
AcDbEntity
  8
RACCORDO
100
AcDbLine
 62
250
  6
CONTINUOUS
 10
-16.2914236338
 20
-26.9517903435
 11
-16.3173500922
 21
-26.9524991087
  0
LINE
  5
2CA
100
AcDbEntity
  8
RACCORDO
100
AcDbLine
 62
250
  6
CONTINUOUS
 10
-16.4405564005
 20
-26.8037970472
 11
-16.4562403206
 21
-26.8042098565
  0
LINE
  5
2CB
100
AcDbEntity
  8
RACCORDO
100
AcDbLine
 62
250
  6
CONTINUOUS
 10
-16.3173500922
 20
-26.9524991087
 11
-16.3558832921
 21
-26.9533540572
  0
LWPOLYLINE
  5
2CC
100
AcDbEntity
  8
RACCORDO
100
AcDbPolyline
 62
250
  6
CONTINUOUS
 90
3
 70
0
 10
-16.3489489004
 20
-26.7663971071
 10
-16.2596066128
 20
-26.7644636419
 10
-16.210342349
 20
-26.7636713054
  0
LINE
  5
2CD
100
AcDbEntity
  8
RACCORDO
100
AcDbLine
 62
250
  6
CONTINUOUS
 10
-16.4659224683
 20
-26.617736419
 11
-16.3641052776
 21
-26.6155779247
  0
LINE
  5
2CE
100
AcDbEntity
  8
RACCORDO
100
AcDbLine
 62
250
  6
CONTINUOUS
 10
-16.4562403206
 20
-26.8042098565
 11
-16.4795231125
 21
-26.8046975689
  0
LINE
  5
2CF
100
AcDbEntity
  8
RACCORDO
100
AcDbLine
 62
250
  6
CONTINUOUS
 10
-16.3558832921
 20
-26.9533540572
 11
-16.4061336147
 21
-26.9541833561
  0
LINE
  5
2D0
100
AcDbEntity
  8
RACCORDO
100
AcDbLine
 62
250
  6
CONTINUOUS
 10
-16.4795231125
 20
-26.8046975689
 11
-16.5028484852
 21
-26.8050510822
  0
LINE
  5
2D1
100
AcDbEntity
  8
RACCORDO
100
AcDbLine
 62
250
  6
CONTINUOUS
 10
-16.3641052776
 20
-26.6155779247
 11
-16.2467051171
 21
-26.6138768752
  0
LINE
  5
2D2
100
AcDbEntity
  8
RACCORDO
100
AcDbLine
 62
250
  6
CONTINUOUS
 10
-16.4061336147
 20
-26.9541833561
 11
-16.4557737926
 21
-26.9547417073
  0
LINE
  5
2D3
100
AcDbEntity
  8
RACCORDO
100
AcDbLine
 62
250
  6
CONTINUOUS
 10
-16.5028484852
 20
-26.8050510822
 11
-16.5267401023
 21
-26.8052845283
  0
LWPOLYLINE
  5
2D4
100
AcDbEntity
  8
RACCORDO
100
AcDbPolyline
 62
250
  6
CONTINUOUS
 90
10
 70
0
 10
-16.210342349
 20
-26.7636713054
 10
-16.2012655708
 20
-26.763601959
 10
-16.1921648688
 20
-26.7640003582
 10
-16.1830655673
 20
-26.7648865007
 10
-16.1740988468
 20
-26.7662563976
 10
-16.1651882239
 20
-26.7681385816
 10
-16.1560638082
 20
-26.7706511748
 10
-16.1466807837
 20
-26.7739010356
 10
-16.1372059294
 20
-26.7779251665
 10
-16.1277146379
 20
-26.7827857936
  0
LINE
  5
2D5
100
AcDbEntity
  8
RACCORDO
100
AcDbLine
 62
250
  6
CONTINUOUS
 10
-16.4557737926
 20
-26.9547417073
 11
-16.506462899
 21
-26.9550789569
  0
LINE
  5
2D6
100
AcDbEntity
  8
RACCORDO
100
AcDbLine
 62
250
  6
CONTINUOUS
 10
-16.5267401023
 20
-26.8052845283
 11
-16.5518464037
 21
-26.8053952206
  0
LINE
  5
2D7
100
AcDbEntity
  8
RACCORDO
100
AcDbLine
 62
250
  6
CONTINUOUS
 10
-16.506462899
 20
-26.9550789569
 11
-16.9398659558
 21
-26.9551987026
  0
LINE
  5
2D8
100
AcDbEntity
  8
RACCORDO
100
AcDbLine
 62
250
  6
CONTINUOUS
 10
-16.0527853133
 20
-26.9105423246
 11
-15.9050641504
 21
-26.9105423246
  0
LINE
  5
2D9
100
AcDbEntity
  8
RACCORDO
100
AcDbLine
 62
250
  6
CONTINUOUS
 10
0.4409271232
 20
-26.9105423246
 11
0.2932059603
 21
-26.9105423246
  0
LINE
  5
2DA
100
AcDbEntity
  8
RACCORDO
100
AcDbLine
 62
250
  6
CONTINUOUS
 10
-16.5518464037
 20
-26.8053952206
 11
-16.742015171
 21
-26.8054042724
  0
LINE
  5
2DB
100
AcDbEntity
  8
0
100
AcDbLine
 62
7
  6
CONTINUOUS
 10
-12.1593869535
 20
-26.4991888305
 11
-11.9048917925
 21
-26.4991888305
  0
LINE
  5
2DC
100
AcDbEntity
  8
RACCORDO
100
AcDbLine
 62
250
  6
CONTINUOUS
 10
1.6722146867
 20
-26.0577369587
 11
2.3827460395
 21
-26.0577369587
  0
LINE
  5
2DD
100
AcDbEntity
  8
RACCORDO
100
AcDbLine
 62
250
  6
CONTINUOUS
 10
-17.2840728768
 20
-26.0577369587
 11
-17.9946042297
 21
-26.0577369587
  0
LINE
  5
2DE
100
AcDbEntity
  8
0
100
AcDbLine
 62
7
  6
CONTINUOUS
 10
-4.0855279823
 20
-25.9552054604
 11
-4.4195527216
 21
-25.9552054604
  0
LINE
  5
2DF
100
AcDbEntity
  8
0
100
AcDbLine
 62
7
  6
CONTINUOUS
 10
-9.916648378
 20
-25.9552054604
 11
-10.1520563861
 21
-25.9552054604
  0
LINE
  5
2E0
100
AcDbEntity
  8
RACCORDO
100
AcDbLine
 62
250
  6
CONTINUOUS
 10
-16.8406165562
 20
-25.6886922333
 11
-16.0527703538
 21
-25.6886920461
  0
LINE
  5
2E1
100
AcDbEntity
  8
RACCORDO
100
AcDbLine
 62
250
  6
CONTINUOUS
 10
1.2287583661
 20
-25.6886921759
 11
0.4409121637
 21
-25.6886920461
  0
LINE
  5
2E2
100
AcDbEntity
  8
RACCORDO
100
AcDbLine
 62
250
  6
CONTINUOUS
 10
-18.3736698472
 20
-25.6582851448
 11
-17.3900193549
 21
-25.6582851448
  0
LINE
  5
2E3
100
AcDbEntity
  8
RACCORDO
100
AcDbLine
 62
250
  6
CONTINUOUS
 10
1.7781611647
 20
-25.6582851448
 11
2.761811657
 21
-25.6582851448
  0
LINE
  5
2E4
100
AcDbEntity
  8
DRAFT
100
AcDbLine
 62
7
  6
CONTINUOUS
 10
1.6891689029
 20
-25.5628540176
 11
1.498972907
 21
-25.5628540176
  0
LINE
  5
2E5
100
AcDbEntity
  8
DRAFT
100
AcDbLine
 62
7
  6
CONTINUOUS
 10
-17.1108310971
 20
-25.5628540176
 11
-17.301027093
 21
-25.5628540176
  0
LINE
  5
2E6
100
AcDbEntity
  8
RACCORDO
100
AcDbLine
 62
250
  6
CONTINUOUS
 10
1.3743310122
 20
-25.515138454
 11
1.2965413721
 21
-25.515138454
  0
LINE
  5
2E7
100
AcDbEntity
  8
RACCORDO
100
AcDbLine
 62
250
  6
CONTINUOUS
 10
-16.9083995623
 20
-25.515138454
 11
-16.9861892023
 21
-25.515138454
  0
LINE
  5
2E8
100
AcDbEntity
  8
DRAFT
100
AcDbLine
 62
7
  6
CONTINUOUS
 10
-17.7555864494
 20
-25.5052054604
 11
-17.4508780693
 21
-25.5052054604
  0
LINE
  5
2E9
100
AcDbEntity
  8
DRAFT
100
AcDbLine
 62
7
  6
CONTINUOUS
 10
1.8390198792
 20
-25.5052054604
 11
2.1437282593
 21
-25.5052054604
  0
LINE
  5
2EA
100
AcDbEntity
  8
DRAFT
100
AcDbLine
 62
7
  6
CONTINUOUS
 10
-17.7555864494
 20
-25.488300537
 11
-17.5559290951
 21
-25.488300537
  0
LINE
  5
2EB
100
AcDbEntity
  8
0
100
AcDbLine
 62
7
  6
CONTINUOUS
 10
-17.7555864494
 20
-25.488300537
 11
-17.5559290951
 21
-25.488300537
  0
LINE
  5
2EC
100
AcDbEntity
  8
DRAFT
100
AcDbLine
 62
7
  6
CONTINUOUS
 10
1.9440709049
 20
-25.488300537
 11
2.1437282593
 21
-25.488300537
  0
LINE
  5
2ED
100
AcDbEntity
  8
0
100
AcDbLine
 62
7
  6
CONTINUOUS
 10
1.9440709049
 20
-25.488300537
 11
2.1437282593
 21
-25.488300537
  0
LINE
  5
2EE
100
AcDbEntity
  8
RACCORDO
100
AcDbLine
 62
250
  6
CONTINUOUS
 10
1.2965413716
 20
-25.3154125471
 11
1.5233647616
 21
-25.3154125471
  0
LINE
  5
2EF
100
AcDbEntity
  8
RACCORDO
100
AcDbLine
 62
250
  6
CONTINUOUS
 10
-17.1352229517
 20
-25.3154125471
 11
-16.9083712888
 21
-25.3154107714
  0
LINE
  5
2F0
100
AcDbEntity
  8
RACCORDO
100
AcDbLine
 62
7
  6
CONTINUOUS
 10
-3.0559290951
 20
-25.1552054604
 11
-12.5559290951
 21
-25.1552054604
  0
LINE
  5
2F1
100
AcDbEntity
  8
RACCORDO
100
AcDbLine
 62
250
  6
CONTINUOUS
 10
1.1301569808
 20
-26.8054042724
 11
0.9319833246
 21
-26.8053652428
  0
LINE
  5
2F2
100
AcDbEntity
  8
RACCORDO
100
AcDbLine
 62
250
  6
CONTINUOUS
 10
1.3280077657
 20
-26.9551987026
 11
0.8965310642
 21
-26.9550788717
  0
LINE
  5
2F3
100
AcDbEntity
  8
RACCORDO
100
AcDbLine
 62
250
  6
CONTINUOUS
 10
0.8965310642
 20
-26.9550788717
 11
0.8489132027
 21
-26.9547873104
  0
LWPOLYLINE
  5
2F4
100
AcDbEntity
  8
RACCORDO
100
AcDbPolyline
 62
250
  6
CONTINUOUS
 90
10
 70
0
 10
-16.2467051171
 20
-26.6138768752
 10
-16.2257456502
 20
-26.6140318701
 10
-16.2047222498
 20
-26.6151713732
 10
-16.1836510816
 20
-26.6172953846
 10
-16.1627070015
 20
-26.6202677787
 10
-16.1417479635
 20
-26.624224681
 10
-16.1203097301
 20
-26.629574468
 10
-16.0982444082
 20
-26.6364532653
 10
-16.0757258258
 20
-26.6447249474
 10
-16.0527703538
 20
-26.6543895142
  0
LINE
  5
2F5
100
AcDbEntity
  8
RACCORDO
100
AcDbLine
 62
250
  6
CONTINUOUS
 10
0.9319833246
 20
-26.8053652428
 11
0.9008165503
 21
-26.8051620055
  0
LWPOLYLINE
  5
2F6
100
AcDbEntity
  8
RACCORDO
100
AcDbPolyline
 62
250
  6
CONTINUOUS
 90
48
 70
0
 10
-16.9083995623
 20
-25.515138454
 10
-16.9034025308
 20
-25.5151800788
 10
-16.8985548846
 20
-25.5153970226
 10
-16.893861041
 20
-25.5157835085
 10
-16.8893271636
 20
-25.5163367889
 10
-16.8849549474
 20
-25.5170482625
 10
-16.8807413825
 20
-25.5179017452
 10
-16.8766984257
 20
-25.5188856095
 10
-16.8728191451
 20
-25.519995966
 10
-16.8690718539
 20
-25.5212287582
 10
-16.8654582985
 20
-25.5225769163
 10
-16.8619808452
 20
-25.5240369415
 10
-16.8586096452
 20
-25.5256147166
 10
-16.8553455664
 20
-25.5273062966
 10
-16.8521924455
 20
-25.5291102378
 10
-16.8491266852
 20
-25.5310414046
 10
-16.8461463666
 20
-25.5331010926
 10
-16.8432602865
 20
-25.5352879171
 10
-16.8404630172
 20
-25.5376170507
 10
-16.8377521699
 20
-25.5400941721
 10
-16.8351394835
 20
-25.5427164415
 10
-16.8326417898
 20
-25.5454877159
 10
-16.8302606118
 20
-25.5484117402
 10
-16.828004414
 20
-25.5514863108
 10
-16.8258997765
 20
-25.5547049795
 10
-16.8239500187
 20
-25.5580686341
 10
-16.8221605992
 20
-25.5615746555
 10
-16.8205592363
 20
-25.5652085963
 10
-16.8191501792
 20
-25.5689649473
 10
-16.8179349544
 20
-25.5728435792
 10
-16.8169349973
 20
-25.5768358297
 10
-16.8161528125
 20
-25.5809582071
 10
-16.8155906288
 20
-25.5851876446
 10
-16.8152633526
 20
-25.5894514418
 10
-16.8151790099
 20
-25.5937531944
 10
-16.8153223495
 20
-25.5980752861
 10
-16.8156611329
 20
-25.602305584
 10
-16.8161912829
 20
-25.6064103768
 10
-16.8168942578
 20
-25.610404001
 10
-16.8177082672
 20
-25.614242879
 10
-16.8186184307
 20
-25.617902257
 10
-16.8196166473
 20
-25.621392088
 10
-16.8206521102
 20
-25.6247221396
 10
-16.8217091206
 20
-25.6278788791
 10
-16.8227862372
 20
-25.6308667927
 10
-16.8238582779
 20
-25.6337249555
 10
-16.8249155555
 20
-25.6364506918
 10
-16.8259570868
 20
-25.6390417704
  0
LINE
  5
2F7
100
AcDbEntity
  8
RACCORDO
100
AcDbLine
 62
250
  6
CONTINUOUS
 10
0.8489132027
 20
-26.9547873104
 11
0.7864463729
 21
-26.9540748571
  0
LINE
  5
2F8
100
AcDbEntity
  8
RACCORDO
100
AcDbLine
 62
250
  6
CONTINUOUS
 10
0.9008165503
 20
-26.8051620055
 11
0.8726060734
 21
-26.8047820831
  0
LWPOLYLINE
  5
2F9
100
AcDbEntity
  8
RACCORDO
100
AcDbPolyline
 62
250
  6
CONTINUOUS
 90
15
 70
0
 10
0.6348471733
 20
-26.6138768598
 10
0.7609121132
 20
-26.6157314526
 10
0.8190914323
 20
-26.6169074666
 10
0.8737599429
 20
-26.6182715509
 10
0.9246596571
 20
-26.6198014469
 10
0.9714813564
 20
-26.621430379
 10
1.0137699111
 20
-26.6231351556
 10
1.0520014177
 20
-26.6249389683
 10
1.0871271198
 20
-26.6268446159
 10
1.1188298078
 20
-26.6288312584
 10
1.1471315909
 20
-26.6309197358
 10
1.1728444528
 20
-26.6331753665
 10
1.1956299314
 20
-26.6356199233
 10
1.2144857005
 20
-26.6382316335
 10
1.2287583661
 20
-26.6410104969
  0
LINE
  5
2FA
100
AcDbEntity
  8
RACCORDO
100
AcDbLine
 62
250
  6
CONTINUOUS
 10
0.7864463729
 20
-26.9540748571
 11
0.7341056091
 21
-26.9531557905
  0
LWPOLYLINE
  5
2FB
100
AcDbEntity
  8
RACCORDO
100
AcDbPolyline
 62
250
  6
CONTINUOUS
 90
15
 70
0
 10
0.5984841588
 20
-26.7636713054
 10
0.7011590284
 20
-26.7655257715
 10
0.7481828211
 20
-26.7667017768
 10
0.7924779923
 20
-26.7680659154
 10
0.8338974021
 20
-26.7695959023
 10
0.8719996315
 20
-26.7712248823
 10
0.9064324382
 20
-26.7729296024
 10
0.9375480644
 20
-26.7747333157
 10
0.9659618175
 20
-26.7766389263
 10
0.9918750374
 20
-26.7786256735
 10
1.0150863842
 20
-26.780714318
 10
1.0356071454
 20
-26.7829700469
 10
1.0534410835
 20
-26.7854145892
 10
1.0685844361
 20
-26.788026216
 10
1.0810372031
 20
-26.7908049272
  0
LINE
  5
2FC
100
AcDbEntity
  8
RACCORDO
100
AcDbLine
 62
250
  6
CONTINUOUS
 10
0.8726060734
 20
-26.8047820831
 11
0.8472889446
 21
-26.8042804097
  0
LINE
  5
2FD
100
AcDbEntity
  8
RACCORDO
100
AcDbLine
 62
250
  6
CONTINUOUS
 10
0.7341056091
 20
-26.9531557905
 11
0.6911392304
 21
-26.9521233086
  0
LINE
  5
2FE
100
AcDbEntity
  8
RACCORDO
100
AcDbLine
 62
250
  6
CONTINUOUS
 10
0.8472889446
 20
-26.8042804097
 11
0.8247998808
 21
-26.8036829137
  0
LINE
  5
2FF
100
AcDbEntity
  8
DRAFT
100
AcDbLine
 62
7
  6
CONTINUOUS
 10
2.7940709049
 20
-25.6330110086
 11
2.2940709049
 21
-25.6178821859
  0
LINE
  5
300
100
AcDbEntity
  8
RACCORDO
100
AcDbLine
 62
250
  6
CONTINUOUS
 10
0.6911392304
 20
-26.9521233086
 11
0.6671690432
 21
-26.9514049522
  0
LWPOLYLINE
  5
301
100
AcDbEntity
  8
0
100
AcDbPolyline
 62
7
  6
CONTINUOUS
 90
10
 70
0
 10
-11.6122223427
 20
-26.1174461146
 10
-11.5934308059
 20
-26.1180316056
 10
-11.5755771709
 20
-26.1193996938
 10
-11.5586614378
 20
-26.1215503792
 10
-11.5428290649
 20
-26.1244989133
 10
-11.5279345939
 20
-26.1282300447
 10
-11.5135416499
 20
-26.1326980185
 10
-11.4995047748
 20
-26.1378875832
 10
-11.4859694267
 20
-26.1438139903
 10
-11.4729356057
 20
-26.1504772399
  0
LINE
  5
302
100
AcDbEntity
  8
RACCORDO
100
AcDbLine
 62
250
  6
CONTINUOUS
 10
0.8247998808
 20
-26.8036829137
 11
0.8050070485
 21
-26.8030240499
  0
LINE
  5
303
100
AcDbEntity
  8
RACCORDO
100
AcDbLine
 62
250
  6
CONTINUOUS
 10
0.6671690432
 20
-26.9514049522
 11
0.6464105268
 21
-26.9506781018
  0
LINE
  5
304
100
AcDbEntity
  8
RACCORDO
100
AcDbLine
 62
250
  6
CONTINUOUS
 10
0.6464105268
 20
-26.9506781018
 11
0.6283658843
 21
-26.9499452697
  0
LINE
  5
305
100
AcDbEntity
  8
RACCORDO
100
AcDbLine
 62
250
  6
CONTINUOUS
 10
0.8050070485
 20
-26.8030240499
 11
0.7877077241
 21
-26.8023288791
  0
LWPOLYLINE
  5
306
100
AcDbEntity
  8
0
100
AcDbPolyline
 62
7
  6
CONTINUOUS
 90
10
 70
0
 10
-8.7205212017
 20
-26.1174461146
 10
-8.6974403237
 20
-26.1184491228
 10
-8.6757229219
 20
-26.1206862476
 10
-8.6553689963
 20
-26.1241574891
 10
-8.6364885294
 20
-26.1289290147
 10
-8.6189715386
 20
-26.1349346569
 10
-8.6024880765
 20
-26.1419759137
 10
-8.5869281605
 20
-26.1499866176
 10
-8.5724017732
 20
-26.1590329362
 10
-8.5589089146
 20
-26.1691148693
  0
LWPOLYLINE
  5
307
100
AcDbEntity
  8
0
100
AcDbPolyline
 62
7
  6
CONTINUOUS
 90
10
 70
0
 10
-7.2826236387
 20
-26.1174461146
 10
-7.2595426072
 20
-26.1184491353
 10
-7.2378250919
 20
-26.1206862703
 10
-7.2174710927
 20
-26.1241575195
 10
-7.1985905965
 20
-26.1289290536
 10
-7.1810736164
 20
-26.1349347019
 10
-7.1645901927
 20
-26.1419759524
 10
-7.1490303386
 20
-26.1499866342
 10
-7.1345040408
 20
-26.1590329181
 10
-7.1210112994
 20
-26.169114804
  0
LWPOLYLINE
  5
308
100
AcDbEntity
  8
0
100
AcDbPolyline
 62
7
  6
CONTINUOUS
 90
10
 70
0
 10
-5.8447260757
 20
-26.1174461146
 10
-5.8216450442
 20
-26.1184491353
 10
-5.7999275289
 20
-26.1206862703
 10
-5.7795735298
 20
-26.1241575195
 10
-5.7606930335
 20
-26.1289290536
 10
-5.7431760534
 20
-26.1349347019
 10
-5.7266926297
 20
-26.1419759524
 10
-5.7111327756
 20
-26.1499866342
 10
-5.6966064778
 20
-26.1590329181
 10
-5.6831137364
 20
-26.169114804
  0
LINE
  5
309
100
AcDbEntity
  8
RACCORDO
100
AcDbLine
 62
250
  6
CONTINUOUS
 10
0.6283658843
 20
-26.9499452697
 11
0.612698294
 21
-26.9492071034
  0
LWPOLYLINE
  5
30A
100
AcDbEntity
  8
RACCORDO
100
AcDbPolyline
 62
250
  6
CONTINUOUS
 90
3
 70
0
 10
0.7877077241
 20
-26.8023288791
 10
0.7727320655
 20
-26.801610529
 10
0.7659953195
 20
-26.8012484368
  0
LINE
  5
30B
100
AcDbEntity
  8
RACCORDO
100
AcDbLine
 62
7
  6
CONTINUOUS
 10
-18.4059290951
 20
-25.6565945093
 11
-18.3736698472
 21
-25.6582851448
  0
LWPOLYLINE
  5
30C
100
AcDbEntity
  8
RACCORDO
100
AcDbPolyline
 62
250
  6
CONTINUOUS
 90
12
 70
0
 10
0.612698294
 20
-26.9492071034
 10
0.5990449747
 20
-26.9484618205
 10
0.5928783506
 20
-26.9480840068
 10
0.5871255748
 20
-26.9477023568
 10
0.5817856889
 20
-26.9473165451
 10
0.5768029343
 20
-26.9469234544
 10
0.5721892372
 20
-26.9465233024
 10
0.567955551
 20
-26.9461158714
 10
0.5640714934
 20
-26.9456973913
 10
0.5605504126
 20
-26.9452666055
 10
0.5574336569
 20
-26.9448247706
 10
0.554747335
 20
-26.9443718866
  0
LWPOLYLINE
  5
30D
100
AcDbEntity
  8
RACCORDO
100
AcDbPolyline
 62
250
  6
CONTINUOUS
 90
17
 70
0
 10
0.7659953195
 20
-26.8012484368
 10
0.7539207995
 20
-26.8005175841
 10
0.7484727001
 20
-26.8001508419
 10
0.743422191
 20
-26.7997827705
 10
0.7386878473
 20
-26.7994126771
 10
0.7342612367
 20
-26.7990410428
 10
0.7301507914
 20
-26.7986673865
 10
0.7263003827
 20
-26.7982895716
 10
0.722700573
 20
-26.7979079285
 10
0.7193608
 20
-26.7975221268
 10
0.7162532474
 20
-26.7971290386
 10
0.713367178
 20
-26.7967288727
 10
0.7107133292
 20
-26.7963214203
 10
0.7082960971
 20
-26.7959029278
 10
0.7061169473
 20
-26.7954721441
 10
0.7041744142
 20
-26.7950303203
 10
0.7024684979
 20
-26.7945774564
  0
LWPOLYLINE
  5
30E
100
AcDbEntity
  8
RACCORDO
100
AcDbPolyline
 62
250
  6
CONTINUOUS
 90
13
 70
0
 10
0.7024684979
 20
-27.4158334644
 10
0.68329715
 20
-27.414390042
 10
0.6644500497
 20
-27.4104375385
 10
0.6462459607
 20
-27.4040428031
 10
0.6289927713
 20
-27.3953139908
 10
0.612982287
 20
-27.3843987333
 10
0.5984852954
 20
-27.3714816417
 10
0.5857469862
 20
-27.3567811848
 10
0.5749828041
 20
-27.3405459932
 10
0.5663748051
 20
-27.3230506551
 10
0.5600685775
 20
-27.3045910716
 10
0.5561707795
 20
-27.2854794521
 10
0.554747335
 20
-27.2660390342
  0
LWPOLYLINE
  5
30F
100
AcDbEntity
  8
RACCORDO
100
AcDbPolyline
 62
250
  6
CONTINUOUS
 90
13
 70
0
 10
1.0810372031
 20
-27.4196059937
 10
1.1002069118
 20
-27.4210491836
 10
1.1190527881
 20
-27.4250011205
 10
1.1372561065
 20
-27.4313951061
 10
1.154509
 20
-27.440123148
 10
1.1705196056
 20
-27.4510377515
 10
1.1850170187
 20
-27.463954384
 10
1.1977559807
 20
-27.4786546766
 10
1.2085209379
 20
-27.4948900556
 10
1.2171296789
 20
-27.5123858702
 10
1.2234365243
 20
-27.5308461812
 10
1.2273347538
 20
-27.5499587913
 10
1.2287583661
 20
-27.5694004239
  0
LWPOLYLINE
  5
310
100
AcDbEntity
  8
RACCORDO
100
AcDbPolyline
 62
250
  6
CONTINUOUS
 90
13
 70
0
 10
1.1301569808
 20
-27.4050066484
 10
1.1493283288
 20
-27.4064500707
 10
1.1681754292
 20
-27.4104025742
 10
1.1863795182
 20
-27.4167973097
 10
1.2036327077
 20
-27.4255261219
 10
1.219643192
 20
-27.4364413795
 10
1.2341401836
 20
-27.449358471
 10
1.2468784929
 20
-27.464058928
 10
1.2576426751
 20
-27.4802941196
 10
1.2662506741
 20
-27.4977894577
 10
1.2725569016
 20
-27.5162490412
 10
1.2764546995
 20
-27.5353606607
 10
1.2778781438
 20
-27.5548010786
  0
LWPOLYLINE
  5
311
100
AcDbEntity
  8
0
100
AcDbPolyline
 62
7
  6
CONTINUOUS
 90
10
 70
0
 10
-9.0315827179
 20
-28.2222228861
 10
-9.0085711027
 20
-28.2354806548
 10
-8.9829173862
 20
-28.2475320532
 10
-8.9546215682
 20
-28.2583770811
 10
-8.9238932888
 20
-28.268191062
 10
-8.8905229079
 20
-28.2767986724
 10
-8.8538815059
 20
-28.2836739421
 10
-8.813759443
 20
-28.2886415476
 10
-8.770366359
 20
-28.2918768123
 10
-8.7237022539
 20
-28.2933797363
  0
LWPOLYLINE
  5
312
100
AcDbEntity
  8
0
100
AcDbPolyline
 62
7
  6
CONTINUOUS
 90
10
 70
0
 10
-7.5936848807
 20
-28.2222228861
 10
-7.5706732701
 20
-28.2354806517
 10
-7.5450195617
 20
-28.2475320481
 10
-7.5167237557
 20
-28.2583770751
 10
-7.4859954882
 20
-28.2681910567
 10
-7.452625123
 20
-28.276798669
 10
-7.4159837515
 20
-28.2836739403
 10
-7.3758617376
 20
-28.2886415467
 10
-7.3324687174
 20
-28.291876812
 10
-7.2858046909
 20
-28.2933797363
  0
LWPOLYLINE
  5
313
100
AcDbEntity
  8
0
100
AcDbPolyline
 62
7
  6
CONTINUOUS
 90
10
 70
0
 10
-6.1557873178
 20
-28.2222228861
 10
-6.1327757071
 20
-28.2354806517
 10
-6.1071219987
 20
-28.2475320481
 10
-6.0788261927
 20
-28.2583770751
 10
-6.0480979252
 20
-28.2681910567
 10
-6.01472756
 20
-28.276798669
 10
-5.9780861885
 20
-28.2836739403
 10
-5.9379641746
 20
-28.2886415467
 10
-5.8945711544
 20
-28.291876812
 10
-5.847907128
 20
-28.2933797363
  0
LWPOLYLINE
  5
314
100
AcDbEntity
  8
0
100
AcDbPolyline
 62
7
  6
CONTINUOUS
 90
10
 70
0
 10
-11.4729356057
 20
-26.1504772399
 10
-11.4600096507
 20
-26.1580729925
 10
-11.4479549763
 20
-26.1661030482
 10
-11.4367715823
 20
-26.1745674069
 10
-11.426519106
 20
-26.1834410244
 10
-11.4171379102
 20
-26.192748945
 10
-11.4084490831
 20
-26.2025663015
 10
-11.4003929875
 20
-26.212918138
 10
-11.3930292606
 20
-26.2237794104
 10
-11.3863579025
 20
-26.2351501187
  0
LWPOLYLINE
  5
315
100
AcDbEntity
  8
0
100
AcDbPolyline
 62
7
  6
CONTINUOUS
 90
10
 70
0
 10
-11.2246240619
 20
-27.1266305926
 10
-11.2394238951
 20
-27.116930294
 10
-11.2554378357
 20
-27.1077500855
 10
-11.2726658839
 20
-27.0990899671
 10
-11.2910808759
 20
-27.0909119018
 10
-11.3107099753
 20
-27.0832539267
 10
-11.3316346733
 20
-27.0762301525
 10
-11.3538821334
 20
-27.0698786163
 10
-11.3774251919
 20
-27.0641612812
 10
-11.402263849
 20
-27.059078147
  0
LWPOLYLINE
  5
316
100
AcDbEntity
  8
0
100
AcDbPolyline
 62
7
  6
CONTINUOUS
 90
10
 70
0
 10
-8.8873475355
 20
-28.0438126253
 10
-8.8992391004
 20
-28.033263937
 10
-8.9107761794
 20
-28.0212882715
 10
-8.9219587723
 20
-28.0078856287
 10
-8.9328601856
 20
-27.9931037307
 10
-8.9434071129
 20
-27.9768948554
 10
-8.9533796349
 20
-27.9591158373
 10
-8.9627044452
 20
-27.9397189544
 10
-8.9714548503
 20
-27.9187519286
 10
-8.97963085
 20
-27.89621476
  0
LWPOLYLINE
  5
317
100
AcDbEntity
  8
0
100
AcDbPolyline
 62
7
  6
CONTINUOUS
 90
10
 70
0
 10
-11.4134325734
 20
-27.2610491742
 10
-11.4022094418
 20
-27.2728993983
 10
-11.3916712851
 20
-27.2857262047
 10
-11.3818181033
 20
-27.2995295934
 10
-11.372640994
 20
-27.3141847016
 10
-11.3641488596
 20
-27.3298163921
 10
-11.3563684075
 20
-27.346799253
 10
-11.3493085401
 20
-27.365258147
 10
-11.3429603551
 20
-27.3850682113
 10
-11.3373238525
 20
-27.406229446
  0
LWPOLYLINE
  5
318
100
AcDbEntity
  8
0
100
AcDbPolyline
 62
7
  6
CONTINUOUS
 90
10
 70
0
 10
-12.0639512694
 20
-28.1438638219
 10
-12.0386070526
 20
-28.1711087636
 10
-12.0078667692
 20
-28.1958633303
 10
-11.971730419
 20
-28.2181275219
 10
-11.9309324098
 20
-28.2382426812
 10
-11.8847383339
 20
-28.2558674655
 10
-11.8309449683
 20
-28.2699778469
 10
-11.7688179054
 20
-28.2802324825
 10
-11.6990915529
 20
-28.2869727152
 10
-11.6217659106
 20
-28.2901985448
  0
LWPOLYLINE
  5
319
100
AcDbEntity
  8
RACCORDO
100
AcDbPolyline
 62
250
  6
CONTINUOUS
 90
6
 70
0
 10
-18.2867725709
 20
-15.5754055599
 10
-18.2877288248
 20
-15.565265234
 10
-18.288634424
 20
-15.5512780677
 10
-18.2894893684
 20
-15.533771382
 10
-18.2902990255
 20
-15.5129880257
 10
-18.2910580278
 20
-15.4893462663
  0
LWPOLYLINE
  5
31A
100
AcDbEntity
  8
RACCORDO
100
AcDbPolyline
 62
250
  6
CONTINUOUS
 90
13
 70
0
 10
-17.2422981919
 20
-25.808079575
 10
-17.2437214064
 20
-25.7886407699
 10
-17.2476186535
 20
-25.7695303613
 10
-17.2539241516
 20
-25.7510715481
 10
-17.2625313938
 20
-25.7335765215
 10
-17.2732949225
 20
-25.7173412323
 10
-17.2860327652
 20
-25.7026403718
 10
-17.3005295755
 20
-25.6897226395
 10
-17.3165402208
 20
-25.6788066128
 10
-17.3337938665
 20
-25.6700770527
 10
-17.3519986772
 20
-25.6636816861
 10
-17.370846774
 20
-25.6597287392
 10
-17.3900193549
 20
-25.6582851448
  0
LWPOLYLINE
  5
31B
100
AcDbEntity
  8
RACCORDO
100
AcDbPolyline
 62
250
  6
CONTINUOUS
 90
13
 70
0
 10
-16.1666055251
 20
-26.9443718866
 10
-16.168029086
 20
-26.9249306141
 10
-16.1719271838
 20
-26.905818306
 10
-16.178233837
 20
-26.8873582263
 10
-16.1868423381
 20
-26.8698625785
 10
-16.1976070342
 20
-26.8536272827
 10
-16.2103457699
 20
-26.8389269561
 10
-16.2248430277
 20
-26.8260101898
 10
-16.2408535721
 20
-26.8150953843
 10
-16.2581065495
 20
-26.8063670919
 10
-16.2763101224
 20
-26.7999728549
 10
-16.2951564146
 20
-26.7960207256
 10
-16.3143266881
 20
-26.7945774564
  0
LWPOLYLINE
  5
31C
100
AcDbEntity
  8
RACCORDO
100
AcDbPolyline
 62
250
  6
CONTINUOUS
 90
21
 70
0
 10
-16.8406165562
 20
-28.5217188747
 10
-16.8405090224
 20
-28.523568039
 10
-16.8403578945
 20
-28.5254257794
 10
-16.8401627955
 20
-28.5272918433
 10
-16.8399211599
 20
-28.5291726999
 10
-16.8396349364
 20
-28.5310613942
 10
-16.8393098937
 20
-28.5329375847
 10
-16.8389452072
 20
-28.5347914863
 10
-16.8385395281
 20
-28.5366325813
 10
-16.8380975709
 20
-28.5384694663
 10
-16.8376210719
 20
-28.5402971771
 10
-16.8371069848
 20
-28.542120415
 10
-16.8365538969
 20
-28.5439621765
 10
-16.8359620212
 20
-28.5458252031
 10
-16.8353314003
 20
-28.5477063287
 10
-16.8346614967
 20
-28.5496195291
 10
-16.8339529931
 20
-28.5515638693
 10
-16.8332062469
 20
-28.553539687
 10
-16.8324211634
 20
-28.5555626835
 10
-16.8315991543
 20
-28.5576300468
 10
-16.8298462301
 20
-28.5619260576
  0
LWPOLYLINE
  5
31D
100
AcDbEntity
  8
RACCORDO
100
AcDbPolyline
 62
7
  6
CONTINUOUS
 90
10
 70
0
 10
-17.3059290951
 20
-11.6051673842
 10
-17.3074219566
 20
-11.5785752159
 10
-17.3115001078
 20
-11.5528244866
 10
-17.3181635489
 20
-11.5279151963
 10
-17.3275410114
 20
-11.5035950355
 10
-17.3395037637
 20
-11.4801163136
 10
-17.3536656105
 20
-11.4582359591
 10
-17.3700980605
 20
-11.4380060396
 10
-17.3887296049
 20
-11.4193744874
 10
-17.4089595228
 20
-11.4029420275
  0
LINE
  5
31E
100
AcDbEntity
  8
RACCORDO
100
AcDbLine
 62
250
  6
CONTINUOUS
 10
-18.2910580278
 20
-15.4893462663
 11
-18.2923694653
 21
-15.4362212311
  0
LWPOLYLINE
  5
31F
100
AcDbEntity
  8
RACCORDO
100
AcDbPolyline
 62
250
  6
CONTINUOUS
 90
3
 70
0
 10
-17.994595796
 20
-15.177806258
 10
-17.9951762343
 20
-15.1534977367
 10
-17.9954013869
 20
-15.1409249157
  0
LINE
  5
320
100
AcDbEntity
  8
RACCORDO
100
AcDbLine
 62
250
  6
CONTINUOUS
 10
-18.2923694653
 20
-15.4362212311
 11
-18.2934103614
 21
-15.3783367617
  0
LWPOLYLINE
  5
321
100
AcDbEntity
  8
RACCORDO
100
AcDbPolyline
 62
250
  6
CONTINUOUS
 90
19
 70
0
 10
-17.2840728768
 20
-28.1526739621
 10
-17.283803847
 20
-28.177937134
 10
-17.2831690968
 20
-28.2021655405
 10
-17.2821686261
 20
-28.2253591817
 10
-17.2807504374
 20
-28.2477554407
 10
-17.2789665283
 20
-28.2691169344
 10
-17.2769728912
 20
-28.2887315134
 10
-17.2747821072
 20
-28.3063236097
 10
-17.2723815952
 20
-28.3221687913
 10
-17.2698896051
 20
-28.3363816137
 10
-17.2673535528
 20
-28.3488570513
 10
-17.2647260224
 20
-28.3597001296
 10
-17.2619830155
 20
-28.36934048
 10
-17.2591444507
 20
-28.3779380987
 10
-17.2561904094
 20
-28.3853329895
 10
-17.2530371382
 20
-28.3914747954
 10
-17.2496567193
 20
-28.3963467305
 10
-17.2460770706
 20
-28.3999655806
 10
-17.2422981919
 20
-28.4023313458
  0
LWPOLYLINE
  5
322
100
AcDbEntity
  8
RACCORDO
100
AcDbPolyline
 62
250
  6
CONTINUOUS
 90
19
 70
0
 10
-17.2840728768
 20
-1.6526739621
 10
-17.283803847
 20
-1.677937134
 10
-17.2831690968
 20
-1.7021655405
 10
-17.2821686261
 20
-1.7253591817
 10
-17.2807504374
 20
-1.7477554407
 10
-17.2789665283
 20
-1.7691169344
 10
-17.2769728912
 20
-1.7887315134
 10
-17.2747821072
 20
-1.8063236097
 10
-17.2723815952
 20
-1.8221687913
 10
-17.2698896051
 20
-1.8363816137
 10
-17.2673535528
 20
-1.8488570513
 10
-17.2647260224
 20
-1.8597001296
 10
-17.2619830155
 20
-1.86934048
 10
-17.2591444507
 20
-1.8779380987
 10
-17.2561904094
 20
-1.8853329895
 10
-17.2530371382
 20
-1.8914747954
 10
-17.2496567193
 20
-1.8963467305
 10
-17.2460770706
 20
-1.8999655806
 10
-17.2422981919
 20
-1.9023313458
  0
LINE
  5
323
100
AcDbEntity
  8
RACCORDO
100
AcDbLine
 62
250
  6
CONTINUOUS
 10
-18.2934103614
 20
-15.3783367617
 11
-18.2944946819
 21
-15.2899068221
  0
LINE
  5
324
100
AcDbEntity
  8
RACCORDO
100
AcDbLine
 62
250
  6
CONTINUOUS
 10
-17.9954013869
 20
-15.1409249157
 11
-17.9957146348
 21
-15.1134758597
  0
LWPOLYLINE
  5
325
100
AcDbEntity
  8
RACCORDO
100
AcDbPolyline
 62
250
  6
CONTINUOUS
 90
19
 70
0
 10
-18.1906184651
 20
-15.9810704051
 10
-18.1907282705
 20
-15.9677399155
 10
-18.191000001
 20
-15.9546756978
 10
-18.1914336565
 20
-15.9419729535
 10
-18.1920484102
 20
-15.9296488783
 10
-18.192825089
 20
-15.9178548476
 10
-18.1937061731
 20
-15.9068523903
 10
-18.1946896708
 20
-15.8967346451
 10
-18.195777574
 20
-15.8874496737
 10
-18.1969183382
 20
-15.8789980995
 10
-18.1980912723
 20
-15.8714569931
 10
-18.1993170675
 20
-15.8647089485
 10
-18.200606254
 20
-15.8585074288
 10
-18.2019470423
 20
-15.8528860892
 10
-18.2033512218
 20
-15.8478647356
 10
-18.2048646908
 20
-15.8433043578
 10
-18.2065027489
 20
-15.8392616864
 10
-18.2082500966
 20
-15.8359065965
 10
-18.2101067338
 20
-15.8333492421
  0
LWPOLYLINE
  5
326
100
AcDbEntity
  8
RACCORDO
100
AcDbPolyline
 62
250
  6
CONTINUOUS
 90
19
 70
0
 10
-17.4317940344
 20
-28.1526739621
 10
-17.4315245683
 20
-28.1925867119
 10
-17.4308895669
 20
-28.231468025
 10
-17.4298890299
 20
-28.2689702904
 10
-17.4284710721
 20
-28.3050075254
 10
-17.4266875787
 20
-28.3390796115
 10
-17.4246942065
 20
-28.3703660518
 10
-17.4225033685
 20
-28.398565833
 10
-17.4201026516
 20
-28.423928388
 10
-17.4176104728
 20
-28.4466061885
 10
-17.4150742171
 20
-28.4664534867
 10
-17.4124464996
 20
-28.4838018551
 10
-17.409703583
 20
-28.4993403624
 10
-17.4068657057
 20
-28.5129843564
 10
-17.4039126294
 20
-28.5246857302
 10
-17.4007599015
 20
-28.5347553452
 10
-17.3973793709
 20
-28.5429746385
 10
-17.3937991887
 20
-28.5488728387
 10
-17.3900193549
 20
-28.552125776
  0
LWPOLYLINE
  5
327
100
AcDbEntity
  8
RACCORDO
100
AcDbPolyline
 62
250
  6
CONTINUOUS
 90
19
 70
0
 10
-17.4317940344
 20
-1.6526739621
 10
-17.4315245683
 20
-1.6925867119
 10
-17.4308895669
 20
-1.731468025
 10
-17.4298890299
 20
-1.7689702904
 10
-17.4284710721
 20
-1.8050075254
 10
-17.4266875787
 20
-1.8390796115
 10
-17.4246942065
 20
-1.8703660518
 10
-17.4225033685
 20
-1.898565833
 10
-17.4201026516
 20
-1.923928388
 10
-17.4176104728
 20
-1.9466061885
 10
-17.4150742171
 20
-1.9664534867
 10
-17.4124464996
 20
-1.9838018551
 10
-17.409703583
 20
-1.9993403624
 10
-17.4068657057
 20
-2.0129843564
 10
-17.4039126294
 20
-2.0246857302
 10
-17.4007599015
 20
-2.0347553452
 10
-17.3973793709
 20
-2.0429746385
 10
-17.3937991887
 20
-2.0488728387
 10
-17.3900193549
 20
-2.052125776
  0
LINE
  5
328
100
AcDbEntity
  8
RACCORDO
100
AcDbLine
 62
7
  6
CONTINUOUS
 10
-17.5512189102
 20
-30.9723588791
 11
-17.5554027605
 21
-30.3138088159
  0
LINE
  5
329
100
AcDbEntity
  8
0
100
AcDbLine
 62
7
  6
CONTINUOUS
 10
-17.5554027605
 20
-30.3138088159
 11
-17.5512189102
 21
-30.9723588791
  0
LINE
  5
32A
100
AcDbEntity
  8
RACCORDO
100
AcDbLine
 62
250
  6
CONTINUOUS
 10
-18.2944946819
 20
-15.2899068221
 11
-18.2951694536
 21
-15.1945734451
  0
LINE
  5
32B
100
AcDbEntity
  8
RACCORDO
100
AcDbLine
 62
250
  6
CONTINUOUS
 10
-17.9957146348
 20
-15.1134758597
 11
-17.9958451632
 21
-15.0830016834
  0
LINE
  5
32C
100
AcDbEntity
  8
0
100
AcDbLine
 62
7
  6
CONTINUOUS
 10
-18.8404642911
 20
-39.689911994
 11
-18.8404642911
 21
11.9795010732
  0
LINE
  5
32D
100
AcDbEntity
  8
RACCORDO
100
AcDbLine
 62
7
  6
CONTINUOUS
 10
-18.7887944362
 20
-39.6873824585
 11
-18.7887944362
 21
-29.6052054604
  0
LINE
  5
32E
100
AcDbEntity
  8
DRAFT
100
AcDbLine
 62
7
  6
CONTINUOUS
 10
-18.7887944362
 20
-24.6052054604
 11
-18.7887944362
 21
-3.1052054604
  0
LINE
  5
32F
100
AcDbEntity
  8
RACCORDO
100
AcDbLine
 62
7
  6
CONTINUOUS
 10
-18.7887944362
 20
1.8947945396
 11
-18.7887944362
 21
11.9769715377
  0
LINE
  5
330
100
AcDbEntity
  8
RACCORDO
100
AcDbLine
 62
7
  6
CONTINUOUS
 10
-18.7704642911
 20
-39.626140394
 11
-18.7704642911
 21
-29.6052054604
  0
LINE
  5
331
100
AcDbEntity
  8
RACCORDO
100
AcDbLine
 62
7
  6
CONTINUOUS
 10
-18.7704642911
 20
-24.6052054604
 11
-18.7704642911
 21
-15.9810704051
  0
LINE
  5
332
100
AcDbEntity
  8
RACCORDO
100
AcDbLine
 62
7
  6
CONTINUOUS
 10
-18.7704642911
 20
-11.7293405157
 11
-18.7704642911
 21
-3.1052054604
  0
LINE
  5
333
100
AcDbEntity
  8
RACCORDO
100
AcDbLine
 62
7
  6
CONTINUOUS
 10
-18.7704642911
 20
1.8947945396
 11
-18.7704642911
 21
11.9157294732
  0
LINE
  5
334
100
AcDbEntity
  8
RACCORDO
100
AcDbLine
 62
7
  6
CONTINUOUS
 10
-18.718092448
 20
-12.6274092374
 11
-18.718092448
 21
-15.0830016834
  0
LINE
  5
335
100
AcDbEntity
  8
RACCORDO
100
AcDbLine
 62
7
  6
CONTINUOUS
 10
-18.4559290951
 20
-29.4052054604
 11
-18.4559290951
 21
-24.8052054604
  0
LINE
  5
336
100
AcDbEntity
  8
RACCORDO
100
AcDbLine
 62
7
  6
CONTINUOUS
 10
-18.4559290951
 20
-2.9052054604
 11
-18.4559290951
 21
1.6947945396
  0
LINE
  5
337
100
AcDbEntity
  8
DRAFT
100
AcDbLine
 62
7
  6
CONTINUOUS
 10
-18.4059290951
 20
-25.6330110086
 11
-18.4059290951
 21
-28.5773999122
  0
LINE
  5
338
100
AcDbEntity
  8
DRAFT
100
AcDbLine
 62
7
  6
CONTINUOUS
 10
-18.4059290951
 20
-2.0773999122
 11
-18.4059290951
 21
0.8669889914
  0
LINE
  5
339
100
AcDbEntity
  8
RACCORDO
100
AcDbLine
 62
250
  6
CONTINUOUS
 10
-18.2951694536
 20
-15.1945734451
 11
-18.2954340236
 21
-12.6274092374
  0
LINE
  5
33A
100
AcDbEntity
  8
RACCORDO
100
AcDbLine
 62
7
  6
CONTINUOUS
 10
-18.0559290951
 20
-38.8552054604
 11
-18.0559290951
 21
-30.1427987442
  0
LINE
  5
33B
100
AcDbEntity
  8
RACCORDO
100
AcDbLine
 62
7
  6
CONTINUOUS
 10
-18.0559290951
 20
2.4323878234
 11
-18.0559290951
 21
11.1447945396
  0
LINE
  5
33C
100
AcDbEntity
  8
RACCORDO
100
AcDbLine
 62
7
  6
CONTINUOUS
 10
-17.9946042297
 20
0.4422630413
 11
-17.9946042297
 21
-1.6526739621
  0
LINE
  5
33D
100
AcDbEntity
  8
RACCORDO
100
AcDbLine
 62
7
  6
CONTINUOUS
 10
-17.9946042297
 20
-28.1526739621
 11
-17.9946042297
 21
-26.0577369587
  0
LINE
  5
33E
100
AcDbEntity
  8
RACCORDO
100
AcDbLine
 62
7
  6
CONTINUOUS
 10
-17.9059291226
 20
-12.1477223967
 11
-17.9059291067
 21
-15.5626886269
  0
LINE
  5
33F
100
AcDbEntity
  8
DRAFT
100
AcDbLine
 62
7
  6
CONTINUOUS
 10
-17.7555864494
 20
-25.488300537
 11
-17.7555864494
 21
-25.5052054604
  0
LINE
  5
340
100
AcDbEntity
  8
DRAFT
100
AcDbLine
 62
7
  6
CONTINUOUS
 10
-17.7555864494
 20
-28.7052054604
 11
-17.7555864494
 21
-28.7221103838
  0
LINE
  5
341
100
AcDbEntity
  8
DRAFT
100
AcDbLine
 62
7
  6
CONTINUOUS
 10
-17.7555864494
 20
-2.2221103838
 11
-17.7555864494
 21
-2.2052054604
  0
LINE
  5
342
100
AcDbEntity
  8
DRAFT
100
AcDbLine
 62
7
  6
CONTINUOUS
 10
-17.7555864494
 20
0.9947945396
 11
-17.7555864494
 21
1.011699463
  0
LINE
  5
343
100
AcDbEntity
  8
RACCORDO
100
AcDbLine
 62
7
  6
CONTINUOUS
 10
-17.5559290951
 20
2.4323878234
 11
-17.5559290951
 21
1.011699463
  0
LINE
  5
344
100
AcDbEntity
  8
0
100
AcDbLine
 62
7
  6
CONTINUOUS
 10
-17.5559290951
 20
2.4323878234
 11
-17.5559290951
 21
1.011699463
  0
LINE
  5
345
100
AcDbEntity
  8
RACCORDO
100
AcDbLine
 62
7
  6
CONTINUOUS
 10
-17.5559290951
 20
-2.2221103838
 11
-17.5559290951
 21
-11.3551994303
  0
LINE
  5
346
100
AcDbEntity
  8
0
100
AcDbLine
 62
7
  6
CONTINUOUS
 10
-17.5559290951
 20
-2.2221103838
 11
-17.5559290951
 21
-11.3552054633
  0
LINE
  5
347
100
AcDbEntity
  8
RACCORDO
100
AcDbLine
 62
7
  6
CONTINUOUS
 10
-17.5559290951
 20
-16.3552114905
 11
-17.5559290951
 21
-25.488300537
  0
LINE
  5
348
100
AcDbEntity
  8
0
100
AcDbLine
 62
7
  6
CONTINUOUS
 10
-17.5559290951
 20
-16.3552054575
 11
-17.5559290951
 21
-25.488300537
  0
LINE
  5
349
100
AcDbEntity
  8
RACCORDO
100
AcDbLine
 62
7
  6
CONTINUOUS
 10
-17.5559290951
 20
-28.7221103838
 11
-17.5559290951
 21
-30.1427987442
  0
LINE
  5
34A
100
AcDbEntity
  8
0
100
AcDbLine
 62
7
  6
CONTINUOUS
 10
-17.5559290951
 20
-28.7221103838
 11
-17.5559290951
 21
-30.1427987442
  0
LINE
  5
34B
100
AcDbEntity
  8
RACCORDO
100
AcDbLine
 62
7
  6
CONTINUOUS
 10
-17.5506925756
 20
-31.1433689508
 11
-17.5506925756
 21
-38.6000070171
  0
LINE
  5
34C
100
AcDbEntity
  8
0
100
AcDbLine
 62
7
  6
CONTINUOUS
 10
-17.5506925756
 20
-31.1433689508
 11
-17.5506925756
 21
-38.6000070171
  0
LINE
  5
34D
100
AcDbEntity
  8
RACCORDO
100
AcDbLine
 62
7
  6
CONTINUOUS
 10
-17.5506925756
 20
3.43295803
 11
-17.5506925756
 21
10.8895960963
  0
LINE
  5
34E
100
AcDbEntity
  8
0
100
AcDbLine
 62
7
  6
CONTINUOUS
 10
-17.5506925756
 20
3.43295803
 11
-17.5506925756
 21
10.8895960963
  0
LINE
  5
34F
100
AcDbEntity
  8
RACCORDO
100
AcDbLine
 62
250
  6
CONTINUOUS
 10
-17.4317940397
 20
0.4422630413
 11
-17.4317940397
 21
-1.6526739621
  0
LINE
  5
350
100
AcDbEntity
  8
RACCORDO
100
AcDbLine
 62
250
  6
CONTINUOUS
 10
-17.4317940397
 20
-26.0577369587
 11
-17.4317940397
 21
-28.1526739621
  0
LINE
  5
351
100
AcDbEntity
  8
RACCORDO
100
AcDbLine
 62
7
  6
CONTINUOUS
 10
-17.3059290951
 20
-16.1052435366
 11
-17.3059290951
 21
-11.6051673842
  0
LINE
  5
352
100
AcDbEntity
  8
0
100
AcDbLine
 62
7
  6
CONTINUOUS
 10
-17.3059290951
 20
-16.1052435366
 11
-17.3059290951
 21
-11.6051673842
  0
LINE
  5
353
100
AcDbEntity
  8
RACCORDO
100
AcDbLine
 62
250
  6
CONTINUOUS
 10
-17.2840728768
 20
0.4422630413
 11
-17.2840728768
 21
-1.6526739621
  0
LINE
  5
354
100
AcDbEntity
  8
RACCORDO
100
AcDbLine
 62
250
  6
CONTINUOUS
 10
-17.2840728768
 20
-26.0577369587
 11
-17.2840728768
 21
-28.1526739621
  0
LWPOLYLINE
  5
355
100
AcDbEntity
  8
RACCORDO
100
AcDbPolyline
 62
250
  6
CONTINUOUS
 90
19
 70
0
 10
-17.9958451632
 20
-15.0830016834
 10
-17.9957947103
 20
-12.6091969778
 10
-17.9956708638
 20
-12.5916043671
 10
-17.9954736236
 20
-12.5746314052
 10
-17.9951943785
 20
-12.5581214413
 10
-17.9948417398
 20
-12.5422311264
 10
-17.9944415416
 20
-12.5274304125
 10
-17.9939932116
 20
-12.5138509768
 10
-17.9934973221
 20
-12.5013611421
 10
-17.992981425
 20
-12.4900358301
 10
-17.9924565346
 20
-12.4800214659
 10
-17.9919116365
 20
-12.4711716244
 10
-17.9913412396
 20
-12.4631219517
 10
-17.9907505022
 20
-12.4557677025
 10
-17.9901342659
 20
-12.4492136221
 10
-17.9894715652
 20
-12.4434095921
 10
-17.9887554114
 20
-12.4383389066
 10
-17.9879927932
 20
-12.4340182714
 10
-17.9871837104
 20
-12.4304476868
  0
LINE
  5
356
100
AcDbEntity
  8
RACCORDO
100
AcDbLine
 62
250
  6
CONTINUOUS
 10
-18.2954340236
 20
-12.6274092374
 11
-18.2950620685
 21
-12.495464659
  0
LINE
  5
357
100
AcDbEntity
  8
0
100
AcDbLine
 62
7
  6
CONTINUOUS
 10
-17.5512189102
 20
3.2619479583
 11
-17.5554027605
 21
2.6033978951
  0
LINE
  5
358
100
AcDbEntity
  8
RACCORDO
100
AcDbLine
 62
7
  6
CONTINUOUS
 10
-17.5554027605
 20
2.6033978951
 11
-17.5512189102
 21
3.2619479583
  0
LINE
  5
359
100
AcDbEntity
  8
RACCORDO
100
AcDbLine
 62
250
  6
CONTINUOUS
 10
-18.2950620685
 20
-12.495464659
 11
-18.2940306135
 21
-12.3774621733
  0
LINE
  5
35A
100
AcDbEntity
  8
RACCORDO
100
AcDbLine
 62
250
  6
CONTINUOUS
 10
-18.2940306135
 20
-12.3774621733
 11
-18.29308613
 21
-12.3121934373
  0
LINE
  5
35B
100
AcDbEntity
  8
RACCORDO
100
AcDbLine
 62
250
  6
CONTINUOUS
 10
-18.29308613
 20
-12.3121934373
 11
-18.2920450348
 21
-12.2590583393
  0
LWPOLYLINE
  5
35C
100
AcDbEntity
  8
RACCORDO
100
AcDbPolyline
 62
250
  6
CONTINUOUS
 90
8
 70
0
 10
-18.2920450348
 20
-12.2590583393
 10
-18.2909297042
 20
-12.2166910269
 10
-18.2903394743
 20
-12.1984310813
 10
-18.289723944
 20
-12.1821822644
 10
-18.2890616363
 20
-12.1674101151
 10
-18.288345392
 20
-12.1542793886
 10
-18.2875823702
 20
-12.1433596353
 10
-18.2867725709
 20
-12.1350053609
  0
LWPOLYLINE
  5
35D
100
AcDbEntity
  8
RACCORDO
100
AcDbPolyline
 62
7
  6
CONTINUOUS
 90
22
 70
0
 10
-17.9059291067
 20
-15.5626888119
 10
-17.9069258953
 20
-15.5877997848
 10
-17.9095550125
 20
-15.6125679503
 10
-17.9138164585
 20
-15.6369933085
 10
-17.9198143839
 20
-15.6611968558
 10
-17.9274446379
 20
-15.6850575957
 10
-17.9363947681
 20
-15.7082125387
 10
-17.9466908024
 20
-15.7305938219
 10
-17.9583067127
 20
-15.7522693082
 10
-17.9708519631
 20
-15.7730795969
 10
-17.9842558777
 20
-15.7929066527
 10
-17.9985891323
 20
-15.811868511
 10
-18.013673218
 20
-15.8301598768
 10
-18.0293830578
 20
-15.8476985613
 10
-18.0458437288
 20
-15.8645667535
 10
-18.0632519536
 20
-15.881205725
 10
-18.081576081
 20
-15.8976158282
 10
-18.1008477622
 20
-15.9137967107
 10
-18.1213586736
 20
-15.9301885882
 10
-18.1432060406
 20
-15.9469381989
 10
-18.1662926378
 20
-15.9638988046
 10
-18.1906184651
 20
-15.9810704051
  0
LWPOLYLINE
  5
35E
100
AcDbEntity
  8
RACCORDO
100
AcDbPolyline
 62
250
  6
CONTINUOUS
 90
13
 70
0
 10
-17.2422981919
 20
-1.9023313458
 10
-17.2437216362
 20
-1.9217717637
 10
-17.2476194341
 20
-1.9408833832
 10
-17.2539256616
 20
-1.9593429667
 10
-17.2625336605
 20
-1.9768383048
 10
-17.2732978427
 20
-1.9930734964
 10
-17.2860361521
 20
-2.0077739533
 10
-17.3005331437
 20
-2.0206910449
 10
-17.316543628
 20
-2.0316063024
 10
-17.3337968175
 20
-2.0403351147
 10
-17.3520009065
 20
-2.0467298501
 10
-17.3708480069
 20
-2.0506823536
 10
-17.3900193549
 20
-2.052125776
  0
LWPOLYLINE
  5
35F
100
AcDbEntity
  8
RACCORDO
100
AcDbPolyline
 62
250
  6
CONTINUOUS
 90
13
 70
0
 10
-16.1666055251
 20
-0.7660390342
 10
-16.1680289697
 20
-0.7854794524
 10
-16.1719267678
 20
-0.804591072
 10
-16.1782329955
 20
-0.8230506557
 10
-16.1868409946
 20
-0.8405459938
 10
-16.1976051768
 20
-0.8567811853
 10
-16.2103434861
 20
-0.8714816423
 10
-16.2248404777
 20
-0.8843987337
 10
-16.2408509619
 20
-0.8953139911
 10
-16.2581041512
 20
-0.9040428033
 10
-16.2763082401
 20
-0.9104375386
 10
-16.2951553402
 20
-0.9143900421
 10
-16.3143266881
 20
-0.9158334644
  0
LINE
  5
360
100
AcDbEntity
  8
RACCORDO
100
AcDbLine
 62
7
  6
CONTINUOUS
 10
-18.7672184735
 20
-15.8333492421
 11
-18.72891184
 21
-15.5754055599
  0
LWPOLYLINE
  5
361
100
AcDbEntity
  8
RACCORDO
100
AcDbPolyline
 62
250
  6
CONTINUOUS
 90
7
 70
0
 10
-17.9105178734
 20
-12.1725040046
 10
-17.9097199907
 20
-12.1695162461
 10
-17.9089353443
 20
-12.1660714838
 10
-17.9081639343
 20
-12.1621697177
 10
-17.9074057607
 20
-12.1578109478
 10
-17.9066608235
 20
-12.1529951741
 10
-17.9059291226
 20
-12.1477223967
  0
LINE
  5
362
100
AcDbEntity
  8
RACCORDO
100
AcDbLine
 62
250
  6
CONTINUOUS
 10
-18.2867725709
 20
-12.1350053609
 11
-18.2101067338
 21
-11.8770616787
  0
LINE
  5
363
100
AcDbEntity
  8
RACCORDO
100
AcDbLine
 62
250
  6
CONTINUOUS
 10
-17.9871837104
 20
-12.4304476868
 11
-17.9105178734
 21
-12.1725040046
  0
LWPOLYLINE
  5
364
100
AcDbEntity
  8
RACCORDO
100
AcDbPolyline
 62
250
  6
CONTINUOUS
 90
16
 70
0
 10
-18.2101067338
 20
-11.8770616787
 10
-18.2078987106
 20
-11.8739411884
 10
-18.2057928796
 20
-11.869553847
 10
-18.2037892409
 20
-11.8639580091
 10
-18.2018779307
 20
-11.8572372852
 10
-18.2000688127
 20
-11.849456668
 10
-18.1983914784
 20
-11.8406383112
 10
-18.1968420799
 20
-11.8308260127
 10
-18.1954244649
 20
-11.8201235623
 10
-18.1941797685
 20
-11.8086394356
 10
-18.1931145424
 20
-11.7964794394
 10
-18.1922222349
 20
-11.7837440066
 10
-18.1915243254
 20
-11.7705464443
 10
-18.1910279739
 20
-11.7570021578
 10
-18.1907260204
 20
-11.7432272705
 10
-18.1906184651
 20
-11.7293405157
  0
LINE
  5
365
100
AcDbEntity
  8
DRAFT
100
AcDbLine
 62
7
  6
CONTINUOUS
 10
1.7706485755
 20
0.9679773658
 11
1.8390198792
 21
0.9947945396
  0
LINE
  5
366
100
AcDbEntity
  8
DRAFT
100
AcDbLine
 62
7
  6
CONTINUOUS
 10
1.7377103729
 20
0.9552750082
 11
1.7706485755
 21
0.9679773658
  0
LWPOLYLINE
  5
367
100
AcDbEntity
  8
DRAFT
100
AcDbPolyline
 62
7
  6
CONTINUOUS
 90
3
 70
0
 10
1.6891689029
 20
0.9371459824
 10
1.7052222069
 20
0.9430664293
 10
1.7377103729
 20
0.9552750082
  0
LWPOLYLINE
  5
368
100
AcDbEntity
  8
RACCORDO
100
AcDbPolyline
 62
7
  6
CONTINUOUS
 90
19
 70
0
 10
1.5233647616
 20
1.1845874529
 10
1.4999403511
 20
1.176125408
 10
1.4783695911
 20
1.1661030667
 10
1.4586524814
 20
1.1545626975
 10
1.440701772
 20
1.1413608535
 10
1.4246047129
 20
1.1268378216
 10
1.410623055
 20
1.1117869524
 10
1.3989330733
 20
1.0964116958
 10
1.3893584928
 20
1.0808749243
 10
1.3816322394
 20
1.0658536802
 10
1.375859006
 20
1.0516562432
 10
1.3719340997
 20
1.0383165205
 10
1.3692763676
 20
1.0260373677
 10
1.3678568074
 20
1.014997187
 10
1.3677044214
 20
1.0053910284
 10
1.3683250635
 20
0.9974241667
 10
1.3695540183
 20
0.9912584603
 10
1.3715560012
 20
0.9870280541
 10
1.3743310122
 20
0.984861546
  0
LINE
  5
369
100
AcDbEntity
  8
RACCORDO
100
AcDbLine
 62
250
  6
CONTINUOUS
 10
0.554747335
 20
-0.7660390342
 11
0.4409271232
 21
-0.7998685962
  0
LINE
  5
36A
100
AcDbEntity
  8
RACCORDO
100
AcDbLine
 62
250
  6
CONTINUOUS
 10
0.7024684979
 20
-0.9158334644
 11
0.5984841588
 21
-0.9467396154
  0
LINE
  5
36B
100
AcDbEntity
  8
RACCORDO
100
AcDbLine
 62
250
  6
CONTINUOUS
 10
1.1358299238
 20
-0.9033160727
 11
1.0810372031
 21
-0.9196059937
  0
LINE
  5
36C
100
AcDbEntity
  8
RACCORDO
100
AcDbLine
 62
250
  6
CONTINUOUS
 10
1.2778781438
 20
-1.0548010786
 11
1.2287583661
 21
-1.0694004239
  0
LWPOLYLINE
  5
36D
100
AcDbEntity
  8
RACCORDO
100
AcDbPolyline
 62
250
  6
CONTINUOUS
 90
11
 70
0
 10
-16.3143266881
 20
-26.7945774564
 10
-16.3179618118
 20
-26.7954329272
 10
-16.3222572144
 20
-26.7962432642
 10
-16.3272128958
 20
-26.7970084673
 10
-16.3329198047
 20
-26.7977273958
 10
-16.3392869924
 20
-26.7984011905
 10
-16.3460416129
 20
-26.7990332742
 10
-16.3531601889
 20
-26.7996233353
 10
-16.3606661977
 20
-26.8001716855
 10
-16.3683572252
 20
-26.8006826826
 10
-16.376216016
 20
-26.8011561787
  0
LWPOLYLINE
  5
36E
100
AcDbEntity
  8
RACCORDO
100
AcDbPolyline
 62
250
  6
CONTINUOUS
 90
13
 70
0
 10
-16.6928953932
 20
-26.7908049272
 10
-16.6782625404
 20
-26.787667876
 10
-16.660387339
 20
-26.7847445691
 10
-16.6392697891
 20
-26.7820350065
 10
-16.6143350182
 20
-26.7795427799
 10
-16.5861578988
 20
-26.7772642976
 10
-16.5564630486
 20
-26.7751887845
 10
-16.5258594862
 20
-26.7733341083
 10
-16.4937381929
 20
-26.7716824013
 10
-16.4599967315
 20
-26.7701692854
 10
-16.4250815933
 20
-26.7687807438
 10
-16.3885462869
 20
-26.7675307934
 10
-16.3489489004
 20
-26.7663971071
  0
LWPOLYLINE
  5
36F
100
AcDbEntity
  8
RACCORDO
100
AcDbPolyline
 62
250
  6
CONTINUOUS
 90
10
 70
0
 10
-16.8406165562
 20
-26.6410106107
 10
-16.8240951853
 20
-26.6378733184
 10
-16.8017852562
 20
-26.6349498657
 10
-16.774615818
 20
-26.6322402527
 10
-16.7435397858
 20
-26.6297481255
 10
-16.7093706629
 20
-26.6274698379
 10
-16.6726998223
 20
-26.6253944518
 10
-16.6346115119
 20
-26.6235397434
 10
-16.5953887931
 20
-26.6218879365
 10
-16.5539720513
 20
-26.6203747645
  0
LINE
  5
370
100
AcDbEntity
  8
RACCORDO
100
AcDbLine
 62
7
  6
CONTINUOUS
 10
-18.7704642911
 20
-24.6052054604
 11
-18.6559290951
 21
-24.6052054604
  0
LINE
  5
371
100
AcDbEntity
  8
DRAFT
100
AcDbLine
 62
7
  6
CONTINUOUS
 10
-18.7887944362
 20
-24.6052054604
 11
-18.7704642911
 21
-24.6052054604
  0
LINE
  5
372
100
AcDbEntity
  8
RACCORDO
100
AcDbLine
 62
7
  6
CONTINUOUS
 10
3.158606101
 20
-24.6052054604
 11
3.0440709049
 21
-24.6052054604
  0
LINE
  5
373
100
AcDbEntity
  8
DRAFT
100
AcDbLine
 62
7
  6
CONTINUOUS
 10
3.1769362461
 20
-24.6052054604
 11
3.158606101
 21
-24.6052054604
  0
LWPOLYLINE
  5
374
100
AcDbEntity
  8
RACCORDO
100
AcDbPolyline
 62
250
  6
CONTINUOUS
 90
25
 70
0
 10
1.2965413716
 20
-25.3154125471
 10
1.251300335
 20
-25.3110821047
 10
1.204234409
 20
-25.3081203448
 10
1.1553435936
 20
-25.3065272674
 10
1.1040139875
 20
-25.3057544564
 10
1.050859492
 20
-25.3063503279
 10
0.9977218108
 20
-25.3099601295
 10
0.9443271095
 20
-25.3175178465
 10
0.8909492226
 20
-25.3280894935
 10
0.8402513571
 20
-25.3405183626
 10
0.7931866675
 20
-25.354614975
 10
0.7488019994
 20
-25.3705688094
 10
0.7069010968
 20
-25.3877915941
 10
0.6673118127
 20
-25.406047218
 10
0.630206294
 20
-25.4255717922
 10
0.5959047258
 20
-25.4464853784
 10
0.56421006
 20
-25.4688785182
 10
0.5353193448
 20
-25.4926606699
 10
0.5101439092
 20
-25.5176802702
 10
0.4889142952
 20
-25.5440641728
 10
0.4713999609
 20
-25.5716855238
 10
0.4578206103
 20
-25.6000121992
 10
0.4482494778
 20
-25.6288668239
 10
0.4426133289
 20
-25.6584267729
 10
0.4409121637
 20
-25.6886920461
  0
LINE
  5
375
100
AcDbEntity
  8
RACCORDO
100
AcDbLine
 62
250
  6
CONTINUOUS
 10
0.554747335
 20
-26.9443718866
 11
0.4409271232
 21
-26.9105423246
  0
LINE
  5
376
100
AcDbEntity
  8
RACCORDO
100
AcDbLine
 62
250
  6
CONTINUOUS
 10
0.7024684979
 20
-26.7945774564
 11
0.5984841588
 21
-26.7636713054
  0
LINE
  5
377
100
AcDbEntity
  8
RACCORDO
100
AcDbLine
 62
250
  6
CONTINUOUS
 10
1.0810372031
 20
-26.7908049272
 11
1.1301569808
 21
-26.8054042724
  0
LINE
  5
378
100
AcDbEntity
  8
RACCORDO
100
AcDbLine
 62
250
  6
CONTINUOUS
 10
1.2287583661
 20
-26.6410104969
 11
1.277877904
 21
-26.6556097709
  0
LWPOLYLINE
  5
379
100
AcDbEntity
  8
RACCORDO
100
AcDbPolyline
 62
250
  6
CONTINUOUS
 90
16
 70
0
 10
1.1301511293
 20
-26.8054042724
 10
1.1364592117
 20
-26.807378323
 10
1.1423650845
 20
-26.8112783571
 10
1.1478687479
 20
-26.8168863002
 10
1.1530008085
 20
-26.823996431
 10
1.1577306596
 20
-26.8323673985
 10
1.161966481
 20
-26.8416896562
 10
1.1656416929
 20
-26.8515560263
 10
1.1688228751
 20
-26.8618758159
 10
1.1716179457
 20
-26.8729057026
 10
1.1740706238
 20
-26.884505856
 10
1.1761371903
 20
-26.896603446
 10
1.1777944067
 20
-26.909728739
 10
1.1790345269
 20
-26.9240419221
 10
1.1798652971
 20
-26.9392426006
 10
1.1802867171
 20
-26.9551987026
  0
LWPOLYLINE
  5
37A
100
AcDbEntity
  8
DRAFT
100
AcDbPolyline
 62
7
  6
CONTINUOUS
 90
3
 70
0
 10
1.6891689029
 20
-28.6475569032
 10
1.7214026969
 20
-28.6595203587
 10
1.7377103729
 20
-28.665685929
  0
LINE
  5
37B
100
AcDbEntity
  8
DRAFT
100
AcDbLine
 62
7
  6
CONTINUOUS
 10
1.7377103729
 20
-28.665685929
 11
1.7706485755
 21
-28.6783882866
  0
LINE
  5
37C
100
AcDbEntity
  8
DRAFT
100
AcDbLine
 62
7
  6
CONTINUOUS
 10
1.7706485755
 20
-28.6783882866
 11
1.8390198792
 21
-28.7052054604
  0
LWPOLYLINE
  5
37D
100
AcDbEntity
  8
0
100
AcDbPolyline
 62
7
  6
CONTINUOUS
 90
10
 70
0
 10
-8.4219027875
 20
-25.9845373746
 10
-8.4449085462
 20
-25.9715551536
 10
-8.4703210098
 20
-25.9598473912
 10
-8.4981401782
 20
-25.9494140876
 10
-8.5281836362
 20
-25.9401273428
 10
-8.5606337991
 20
-25.9321150568
 10
-8.5960379125
 20
-25.9257609284
 10
-8.6345783917
 20
-25.9211928575
 10
-8.6760728214
 20
-25.9182829443
 10
-8.7205212017
 20
-25.9170311888
  0
LWPOLYLINE
  5
37E
100
AcDbEntity
  8
0
100
AcDbPolyline
 62
7
  6
CONTINUOUS
 90
10
 70
0
 10
-6.9840049504
 20
-25.9845373746
 10
-7.0070107174
 20
-25.9715551554
 10
-7.032423198
 20
-25.9598473942
 10
-7.060242392
 20
-25.9494140912
 10
-7.0902858885
 20
-25.9401273463
 10
-7.1227360985
 20
-25.9321150595
 10
-7.1581402552
 20
-25.9257609304
 10
-7.1966807697
 20
-25.9211928589
 10
-7.2381752308
 20
-25.918282945
 10
-7.2826236387
 20
-25.9170311888
  0
LWPOLYLINE
  5
37F
100
AcDbEntity
  8
0
100
AcDbPolyline
 62
7
  6
CONTINUOUS
 90
10
 70
0
 10
-5.5461073874
 20
-25.9845373746
 10
-5.5691131544
 20
-25.9715551554
 10
-5.594525635
 20
-25.9598473942
 10
-5.622344829
 20
-25.9494140912
 10
-5.6523883255
 20
-25.9401273463
 10
-5.6848385355
 20
-25.9321150595
 10
-5.7202426922
 20
-25.9257609304
 10
-5.7587832067
 20
-25.9211928589
 10
-5.8002776679
 20
-25.918282945
 10
-5.8447260757
 20
-25.9170311888
  0
LWPOLYLINE
  5
380
100
AcDbEntity
  8
0
100
AcDbPolyline
 62
7
  6
CONTINUOUS
 90
10
 70
0
 10
-8.5589089146
 20
-26.1691148693
 10
-8.5473738712
 20
-26.178910267
 10
-8.5361578297
 20
-26.1902651928
 10
-8.52526079
 20
-26.2031796468
 10
-8.5145853625
 20
-26.2176068366
 10
-8.5042289368
 20
-26.2335935546
 10
-8.4944836818
 20
-26.2512801774
 10
-8.4854469871
 20
-26.2707134972
 10
-8.4770214632
 20
-26.2918467217
 10
-8.46920711
 20
-26.3146798511
  0
LWPOLYLINE
  5
381
100
AcDbEntity
  8
0
100
AcDbPolyline
 62
7
  6
CONTINUOUS
 90
10
 70
0
 10
-7.4494499725
 20
-28.0438126253
 10
-7.4613415209
 20
-28.0332639396
 10
-7.4728785797
 20
-28.0212882747
 10
-7.4840611489
 20
-28.0078856307
 10
-7.4949625293
 20
-27.9931037292
 10
-7.5055094201
 20
-27.9768948487
 10
-7.515481919
 20
-27.9591158239
 10
-7.5248067252
 20
-27.9397189332
 10
-7.5335571396
 20
-27.9187518984
 10
-7.5417331621
 20
-27.8962147194
  0
LWPOLYLINE
  5
382
100
AcDbEntity
  8
0
100
AcDbPolyline
 62
7
  6
CONTINUOUS
 90
10
 70
0
 10
-6.0115524095
 20
-28.0438126253
 10
-6.0234439579
 20
-28.0332639396
 10
-6.0349810167
 20
-28.0212882747
 10
-6.0461635859
 20
-28.0078856307
 10
-6.0570649663
 20
-27.9931037292
 10
-6.0676118571
 20
-27.9768948487
 10
-6.077584356
 20
-27.9591158239
 10
-6.0869091622
 20
-27.9397189332
 10
-6.0956595766
 20
-27.9187518984
 10
-6.1038355991
 20
-27.8962147194
  0
LWPOLYLINE
  5
383
100
AcDbEntity
  8
0
100
AcDbPolyline
 62
7
  6
CONTINUOUS
 90
10
 70
0
 10
-11.1931684478
 20
-26.0577996146
 10
-11.2186111539
 20
-26.0316786669
 10
-11.248676608
 20
-26.0079342426
 10
-11.28336481
 20
-25.9865663418
 10
-11.3220354549
 20
-25.967250325
 10
-11.3653288478
 20
-25.9503108317
 10
-11.4151659037
 20
-25.9367217796
 10
-11.4721869275
 20
-25.9268078081
 10
-11.5357516143
 20
-25.9202442778
 10
-11.6058599641
 20
-25.9170311888
  0
LWPOLYLINE
  5
384
100
AcDbEntity
  8
0
100
AcDbPolyline
 62
7
  6
CONTINUOUS
 90
10
 70
0
 10
-11.8698987063
 20
-27.9784419718
 10
-11.876765495
 20
-27.9672067164
 10
-11.8832470966
 20
-27.9553069866
 10
-11.8893435112
 20
-27.9427427825
 10
-11.895062758
 20
-27.9295959265
 10
-11.9003968177
 20
-27.9157845961
 10
-11.9053216325
 20
-27.9010633235
 10
-11.9098291831
 20
-27.8853502862
 10
-11.9139274888
 20
-27.8687273068
 10
-11.9176165496
 20
-27.8511943852
  0
LWPOLYLINE
  5
385
100
AcDbEntity
  8
0
100
AcDbPolyline
 62
7
  6
CONTINUOUS
 90
10
 70
0
 10
-11.1159567436
 20
-27.2467683842
 10
-11.124378468
 20
-27.2318916162
 10
-11.1337487089
 20
-27.2173329298
 10
-11.1440674665
 20
-27.2030923248
 10
-11.1553819554
 20
-27.1890845352
 10
-11.167644961
 20
-27.175394827
 10
-11.1807148388
 20
-27.1622789989
 10
-11.1945443742
 20
-27.1498223168
 10
-11.2091807819
 20
-27.1379395147
 10
-11.2246240619
 20
-27.1266305926
  0
LINE
  5
386
100
AcDbEntity
  8
RACCORDO
100
AcDbLine
 62
250
  6
CONTINUOUS
 10
-18.2101067338
 20
-15.8333492421
 11
-18.2867725709
 21
-15.5754055599
  0
LINE
  5
387
100
AcDbEntity
  8
RACCORDO
100
AcDbLine
 62
250
  6
CONTINUOUS
 10
-17.9105178734
 20
-15.5379069162
 11
-17.9871837104
 21
-15.279963234
  0
LWPOLYLINE
  5
388
100
AcDbEntity
  8
RACCORDO
100
AcDbPolyline
 62
250
  6
CONTINUOUS
 90
12
 70
0
 10
-17.9871837104
 20
-15.279963234
 10
-17.9881390553
 20
-15.2756815303
 10
-17.9890441339
 20
-15.2701303049
 10
-17.989898946
 20
-15.2633095577
 10
-17.990709081
 20
-15.2550188963
 10
-17.9914689496
 20
-15.2454587132
 10
-17.9921617838
 20
-15.2352301857
 10
-17.9927809537
 20
-15.2243582397
 10
-17.9933330891
 20
-15.2128179492
 10
-17.9938213122
 20
-15.201135714
 10
-17.9942405103
 20
-15.1895419584
 10
-17.994595796
 20
-15.177806258
  0
LINE
  5
389
100
AcDbEntity
  8
RACCORDO
100
AcDbLine
 62
7
  6
CONTINUOUS
 10
-18.7672184735
 20
-11.8770616787
 11
-18.72891184
 21
-12.1350053609
  0
LWPOLYLINE
  5
38A
100
AcDbEntity
  8
RACCORDO
100
AcDbPolyline
 62
250
  6
CONTINUOUS
 90
7
 70
0
 10
-17.9059291067
 20
-15.5626886269
 10
-17.9066421246
 20
-15.5575140683
 10
-17.9073758531
 20
-15.5527572192
 10
-17.9081302923
 20
-15.5484180794
 10
-17.908905442
 20
-15.544496649
 10
-17.9097013024
 20
-15.5409929279
 10
-17.9105178734
 20
-15.5379069162
  0
LWPOLYLINE
  5
38B
100
AcDbEntity
  8
RACCORDO
100
AcDbPolyline
 62
250
  6
CONTINUOUS
 90
13
 70
0
 10
-17.2422981919
 20
0.691920425
 10
-17.2437214064
 20
0.7113592301
 10
-17.2476186535
 20
0.7304696387
 10
-17.2539241516
 20
0.7489284519
 10
-17.2625313938
 20
0.7664234785
 10
-17.2732949225
 20
0.7826587677
 10
-17.2860327652
 20
0.7973596282
 10
-17.3005295755
 20
0.8102773605
 10
-17.3165402208
 20
0.8211933872
 10
-17.3337938665
 20
0.8299229473
 10
-17.3519986772
 20
0.8363183139
 10
-17.370846774
 20
0.8402712608
 10
-17.3900193549
 20
0.8417148552
  0
LWPOLYLINE
  5
38C
100
AcDbEntity
  8
RACCORDO
100
AcDbPolyline
 62
250
  6
CONTINUOUS
 90
21
 70
0
 10
-16.8406165562
 20
-2.0217188747
 10
-16.8405090224
 20
-2.023568039
 10
-16.8403578945
 20
-2.0254257794
 10
-16.8401627955
 20
-2.0272918433
 10
-16.8399211599
 20
-2.0291726999
 10
-16.8396349364
 20
-2.0310613942
 10
-16.8393098937
 20
-2.0329375847
 10
-16.8389452072
 20
-2.0347914863
 10
-16.8385395281
 20
-2.0366325813
 10
-16.8380975709
 20
-2.0384694663
 10
-16.8376210719
 20
-2.0402971771
 10
-16.8371069848
 20
-2.042120415
 10
-16.8365538969
 20
-2.0439621765
 10
-16.8359620212
 20
-2.0458252031
 10
-16.8353314003
 20
-2.0477063287
 10
-16.8346614967
 20
-2.0496195291
 10
-16.8339529931
 20
-2.0515638693
 10
-16.8332062469
 20
-2.053539687
 10
-16.8324211634
 20
-2.0555626835
 10
-16.8315991543
 20
-2.0576300468
 10
-16.8298462301
 20
-2.0619260576
  0
LWPOLYLINE
  5
38D
100
AcDbEntity
  8
RACCORDO
100
AcDbPolyline
 62
250
  6
CONTINUOUS
 90
25
 70
0
 10
-16.0527703538
 20
-25.6886920461
 10
-16.0544786129
 20
-25.6583908515
 10
-16.0601248727
 20
-25.6288033542
 10
-16.069709133
 20
-25.5999295543
 10
-16.0833056037
 20
-25.5715944016
 10
-16.1008400749
 20
-25.5439729464
 10
-16.1220899177
 20
-25.5175903389
 10
-16.1472914371
 20
-25.4925690399
 10
-16.1762083281
 20
-25.4687865886
 10
-16.2079090456
 20
-25.4464007538
 10
-16.2422393916
 20
-25.4254926421
 10
-16.2793535642
 20
-25.4059811469
 10
-16.3187826128
 20
-25.3877807171
 10
-16.3603436598
 20
-25.3706897178
 10
-16.4042195828
 20
-25.3549097839
 10
-16.4504900645
 20
-25.3409602694
 10
-16.4996641193
 20
-25.3286550622
 10
-16.5512327328
 20
-25.3181802743
 10
-16.6037485445
 20
-25.3106135964
 10
-16.657746455
 20
-25.3067967938
 10
-16.7126915637
 20
-25.3058881012
 10
-16.7655318077
 20
-25.3064399131
 10
-16.8152498327
 20
-25.3079696946
 10
-16.8628629931
 20
-25.3109599807
 10
-16.9083712888
 20
-25.3154107714
  0
LWPOLYLINE
  5
38E
100
AcDbEntity
  8
RACCORDO
100
AcDbPolyline
 62
250
  6
CONTINUOUS
 90
25
 70
0
 10
-16.0527703538
 20
0.8113079539
 10
-16.0544786129
 20
0.8416091485
 10
-16.0601248727
 20
0.8711966458
 10
-16.069709133
 20
0.9000704457
 10
-16.0833056037
 20
0.9284055984
 10
-16.1008400749
 20
0.9560270536
 10
-16.1220899177
 20
0.9824096611
 10
-16.1472914371
 20
1.0074309601
 10
-16.1762083281
 20
1.0312134114
 10
-16.2079090456
 20
1.0535992462
 10
-16.2422393916
 20
1.0745073579
 10
-16.2793535642
 20
1.0940188531
 10
-16.3187826128
 20
1.1122192829
 10
-16.3603436598
 20
1.1293102822
 10
-16.4042195828
 20
1.1450902161
 10
-16.4504900645
 20
1.1590397306
 10
-16.4996641193
 20
1.1713449378
 10
-16.5512327328
 20
1.1818197257
 10
-16.6037485445
 20
1.1893864036
 10
-16.657746455
 20
1.1932032062
 10
-16.7126915637
 20
1.1941118988
 10
-16.7655318077
 20
1.1935600869
 10
-16.8152498327
 20
1.1920303054
 10
-16.8628629931
 20
1.1890400193
 10
-16.9083712888
 20
1.1845892286
  0
LINE
  5
38F
100
AcDbEntity
  8
RACCORDO
100
AcDbLine
 62
250
  6
CONTINUOUS
 10
-16.9398659558
 20
-27.2552122182
 11
-16.9398659558
 21
-26.9551990662
  0
LINE
  5
390
100
AcDbEntity
  8
RACCORDO
100
AcDbLine
 62
250
  6
CONTINUOUS
 10
-16.9398659558
 20
-0.7552122182
 11
-16.9398659558
 21
-0.4551990662
  0
LINE
  5
391
100
AcDbEntity
  8
RACCORDO
100
AcDbLine
 62
250
  6
CONTINUOUS
 10
-16.9083993524
 20
-2.1952724668
 11
-16.9083995621
 21
-2.3949983737
  0
LINE
  5
392
100
AcDbEntity
  8
RACCORDO
100
AcDbLine
 62
250
  6
CONTINUOUS
 10
-16.9083994026
 20
-25.515138454
 11
-16.9083995621
 21
-25.3154107716
  0
LINE
  5
393
100
AcDbEntity
  8
RACCORDO
100
AcDbLine
 62
250
  6
CONTINUOUS
 10
-16.9083994026
 20
0.984861546
 11
-16.9083995621
 21
1.1845892284
  0
LINE
  5
394
100
AcDbEntity
  8
RACCORDO
100
AcDbLine
 62
250
  6
CONTINUOUS
 10
-16.9083993524
 20
-28.6952724668
 11
-16.9083995621
 21
-28.8949983737
  0
LINE
  5
395
100
AcDbEntity
  8
RACCORDO
100
AcDbLine
 62
250
  6
CONTINUOUS
 10
-16.8406165562
 20
0.8113079539
 11
-16.8406165562
 21
-0.1410104969
  0
LINE
  5
396
100
AcDbEntity
  8
RACCORDO
100
AcDbLine
 62
250
  6
CONTINUOUS
 10
-16.8406165562
 20
-1.0694004239
 11
-16.8406165562
 21
-2.0217188747
  0
LINE
  5
397
100
AcDbEntity
  8
RACCORDO
100
AcDbLine
 62
250
  6
CONTINUOUS
 10
-16.8406165562
 20
-25.6886920461
 11
-16.8406165562
 21
-26.6410104969
  0
LINE
  5
398
100
AcDbEntity
  8
RACCORDO
100
AcDbLine
 62
250
  6
CONTINUOUS
 10
-16.8406165562
 20
-27.5694004239
 11
-16.8406165562
 21
-28.5217188747
  0
LINE
  5
399
100
AcDbEntity
  8
RACCORDO
100
AcDbLine
 62
250
  6
CONTINUOUS
 10
-16.7921447928
 20
-27.2552122182
 11
-16.7921447928
 21
-26.9551987026
  0
LINE
  5
39A
100
AcDbEntity
  8
RACCORDO
100
AcDbLine
 62
250
  6
CONTINUOUS
 10
-16.7921447928
 20
-0.7552122182
 11
-16.7921447928
 21
-0.4551987026
  0
LINE
  5
39B
100
AcDbEntity
  8
RACCORDO
100
AcDbLine
 62
250
  6
CONTINUOUS
 10
-16.5605286263
 20
-26.8054042724
 11
-16.5605286263
 21
-27.4050066484
  0
LINE
  5
39C
100
AcDbEntity
  8
RACCORDO
100
AcDbLine
 62
250
  6
CONTINUOUS
 10
-16.5605286263
 20
-0.9050066484
 11
-16.5605286263
 21
-0.3054042724
  0
LINE
  5
39D
100
AcDbEntity
  8
RACCORDO
100
AcDbLine
 62
250
  6
CONTINUOUS
 10
-16.1666055251
 20
-27.2660390342
 11
-16.1666055251
 21
-26.9443718866
  0
LINE
  5
39E
100
AcDbEntity
  8
RACCORDO
100
AcDbLine
 62
250
  6
CONTINUOUS
 10
-16.1666055251
 20
-0.7660390342
 11
-16.1666055251
 21
-0.4443718866
  0
LINE
  5
39F
100
AcDbEntity
  8
RACCORDO
100
AcDbLine
 62
250
  6
CONTINUOUS
 10
-16.0527853133
 20
-0.4105423246
 11
-16.0527853133
 21
-0.7998685962
  0
LINE
  5
3A0
100
AcDbEntity
  8
RACCORDO
100
AcDbLine
 62
250
  6
CONTINUOUS
 10
-16.0527853133
 20
-26.9105423246
 11
-16.0527853133
 21
-27.2998685962
  0
LINE
  5
3A1
100
AcDbEntity
  8
RACCORDO
100
AcDbLine
 62
250
  6
CONTINUOUS
 10
-16.0527703538
 20
0.8113079539
 11
-16.0527703538
 21
-0.1543895142
  0
LINE
  5
3A2
100
AcDbEntity
  8
RACCORDO
100
AcDbLine
 62
250
  6
CONTINUOUS
 10
-16.0527703538
 20
-1.0560212652
 11
-16.0527703538
 21
-2.0217188747
  0
LINE
  5
3A3
100
AcDbEntity
  8
RACCORDO
100
AcDbLine
 62
250
  6
CONTINUOUS
 10
-16.0527703538
 20
-25.6886920461
 11
-16.0527703538
 21
-26.6543895142
  0
LINE
  5
3A4
100
AcDbEntity
  8
RACCORDO
100
AcDbLine
 62
250
  6
CONTINUOUS
 10
-16.0527703538
 20
-27.5560212652
 11
-16.0527703538
 21
-28.5217188747
  0
LINE
  5
3A5
100
AcDbEntity
  8
RACCORDO
100
AcDbLine
 62
250
  6
CONTINUOUS
 10
-15.9050641504
 20
-0.4105423246
 11
-15.9050641504
 21
-0.7998682059
  0
LINE
  5
3A6
100
AcDbEntity
  8
RACCORDO
100
AcDbLine
 62
250
  6
CONTINUOUS
 10
-15.9050641504
 20
-26.9105423246
 11
-15.9050641504
 21
-27.2998682059
  0
LWPOLYLINE
  5
3A7
100
AcDbEntity
  8
RACCORDO
100
AcDbPolyline
 62
250
  6
CONTINUOUS
 90
16
 70
0
 10
-16.9398659558
 20
-0.4551990662
 10
-16.939512747
 20
-0.4224866754
 10
-16.9386174514
 20
-0.391026914
 10
-16.9371800688
 20
-0.360819782
 10
-16.9351339679
 20
-0.3314783177
 10
-16.93254578
 20
-0.3033894828
 10
-16.9296153998
 20
-0.2777141625
 10
-16.9263878313
 20
-0.2549040227
 10
-16.9228180704
 20
-0.2345073976
 10
-16.9189709999
 20
-0.2163301747
 10
-16.9148852291
 20
-0.2002289913
 10
-16.9105221487
 20
-0.1863472101
 10
-16.9058308135
 20
-0.1749208071
 10
-16.9007942418
 20
-0.1660284407
 10
-16.8954294152
 20
-0.1595914524
 10
-16.8897363339
 20
-0.1556098422
  0
LWPOLYLINE
  5
3A8
100
AcDbEntity
  8
RACCORDO
100
AcDbPolyline
 62
250
  6
CONTINUOUS
 90
16
 70
0
 10
-16.9398659558
 20
-26.9551990662
 10
-16.939512747
 20
-26.9224866754
 10
-16.9386174514
 20
-26.891026914
 10
-16.9371800688
 20
-26.860819782
 10
-16.9351339679
 20
-26.8314783177
 10
-16.93254578
 20
-26.8033894828
 10
-16.9296153998
 20
-26.7777141625
 10
-16.9263878313
 20
-26.7549040227
 10
-16.9228180704
 20
-26.7345073976
 10
-16.9189709999
 20
-26.7163301747
 10
-16.9148852291
 20
-26.7002289913
 10
-16.9105221487
 20
-26.6863472101
 10
-16.9058308135
 20
-26.6749208071
 10
-16.9007942418
 20
-26.6660284407
 10
-16.8954294152
 20
-26.6595914524
 10
-16.8897363339
 20
-26.6556098422
  0
LWPOLYLINE
  5
3A9
100
AcDbEntity
  8
RACCORDO
100
AcDbPolyline
 62
250
  6
CONTINUOUS
 90
15
 70
0
 10
-16.7921448731
 20
-0.4551987026
 10
-16.7917899674
 20
-0.4391116144
 10
-16.7908937296
 20
-0.4233240339
 10
-16.7894561595
 20
-0.4080095165
 10
-16.7874112058
 20
-0.3932384888
 10
-16.7848249199
 20
-0.3792607977
 10
-16.7818954561
 20
-0.3664562422
 10
-16.7786663286
 20
-0.3550552481
 10
-16.7750940231
 20
-0.3448969623
 10
-16.7712461517
 20
-0.3357650563
 10
-16.7671635995
 20
-0.3277537655
 10
-16.7628054814
 20
-0.3208947557
 10
-16.7581167528
 20
-0.3150587717
 10
-16.7530790658
 20
-0.31037718
 10
-16.7477107685
 20
-0.3071014497
  0
LWPOLYLINE
  5
3AA
100
AcDbEntity
  8
RACCORDO
100
AcDbPolyline
 62
250
  6
CONTINUOUS
 90
15
 70
0
 10
-16.7921448731
 20
-26.9551987026
 10
-16.7917899674
 20
-26.9391116144
 10
-16.7908937296
 20
-26.9233240339
 10
-16.7894561595
 20
-26.9080095165
 10
-16.7874112058
 20
-26.8932384888
 10
-16.7848249199
 20
-26.8792607977
 10
-16.7818954561
 20
-26.8664562422
 10
-16.7786663286
 20
-26.8550552481
 10
-16.7750940231
 20
-26.8448969623
 10
-16.7712461517
 20
-26.8357650563
 10
-16.7671635995
 20
-26.8277537655
 10
-16.7628054814
 20
-26.8208947557
 10
-16.7581167528
 20
-26.8150587717
 10
-16.7530790658
 20
-26.81037718
 10
-16.7477107685
 20
-26.8071014497
  0
LWPOLYLINE
  5
3AB
100
AcDbEntity
  8
RACCORDO
100
AcDbPolyline
 62
250
  6
CONTINUOUS
 90
13
 70
0
 10
-16.0527854958
 20
-0.799868542
 10
-16.0532482087
 20
-0.8127296976
 10
-16.0548261992
 20
-0.825326462
 10
-16.0574693943
 20
-0.8375740247
 10
-16.0610855503
 20
-0.8492925235
 10
-16.0656346235
 20
-0.8605216118
 10
-16.0712102987
 20
-0.8714881503
 10
-16.077835132
 20
-0.8821383754
 10
-16.0854855588
 20
-0.8923333216
 10
-16.0942835242
 20
-0.9021100506
 10
-16.1042857996
 20
-0.911373478
 10
-16.115439162
 20
-0.9199290583
 10
-16.1277145905
 20
-0.9276249001
  0
LWPOLYLINE
  5
3AC
100
AcDbEntity
  8
RACCORDO
100
AcDbPolyline
 62
250
  6
CONTINUOUS
 90
13
 70
0
 10
-16.0527854958
 20
-27.299868542
 10
-16.0532482087
 20
-27.3127296976
 10
-16.0548261992
 20
-27.325326462
 10
-16.0574693943
 20
-27.3375740247
 10
-16.0610855503
 20
-27.3492925235
 10
-16.0656346235
 20
-27.3605216118
 10
-16.0712102987
 20
-27.3714881503
 10
-16.077835132
 20
-27.3821383754
 10
-16.0854855588
 20
-27.3923333216
 10
-16.0942835242
 20
-27.4021100506
 10
-16.1042857996
 20
-27.411373478
 10
-16.115439162
 20
-27.4199290583
 10
-16.1277145905
 20
-27.4276249001
  0
LWPOLYLINE
  5
3AD
100
AcDbEntity
  8
RACCORDO
100
AcDbPolyline
 62
250
  6
CONTINUOUS
 90
13
 70
0
 10
-15.9050641504
 20
-0.7998682059
 10
-15.9063668314
 20
-0.8257906055
 10
-15.9096162156
 20
-0.850890043
 10
-15.914812303
 20
-0.8751665184
 10
-15.9219349346
 20
-0.8985830056
 10
-15.9310042693
 20
-0.9211765307
 10
-15.9420807846
 20
-0.9430581721
 10
-15.9551120942
 20
-0.9643982652
 10
-15.9701505843
 20
-0.9850264747
 10
-15.9874138916
 20
-1.0045428722
 10
-16.0069745618
 20
-1.0228141484
 10
-16.0287600492
 20
-1.0399736128
 10
-16.0527703538
 20
-1.0560212652
  0
LWPOLYLINE
  5
3AE
100
AcDbEntity
  8
RACCORDO
100
AcDbPolyline
 62
250
  6
CONTINUOUS
 90
13
 70
0
 10
-15.9050641504
 20
-27.2998682059
 10
-15.9063668314
 20
-27.3257906055
 10
-15.9096162156
 20
-27.350890043
 10
-15.914812303
 20
-27.3751665184
 10
-15.9219349346
 20
-27.3985830056
 10
-15.9310042693
 20
-27.4211765307
 10
-15.9420807846
 20
-27.4430581721
 10
-15.9551120942
 20
-27.4643982652
 10
-15.9701505843
 20
-27.4850264747
 10
-15.9874138916
 20
-27.5045428722
 10
-16.0069745618
 20
-27.5228141484
 10
-16.0287600492
 20
-27.5399736128
 10
-16.0527703538
 20
-27.5560212652
  0
LWPOLYLINE
  5
3AF
100
AcDbEntity
  8
RACCORDO
100
AcDbPolyline
 62
250
  6
CONTINUOUS
 90
13
 70
0
 10
-17.2422981919
 20
-28.4023313458
 10
-17.2437216362
 20
-28.4217717637
 10
-17.2476194341
 20
-28.4408833832
 10
-17.2539256616
 20
-28.4593429667
 10
-17.2625336605
 20
-28.4768383048
 10
-17.2732978427
 20
-28.4930734964
 10
-17.2860361521
 20
-28.5077739533
 10
-17.3005331437
 20
-28.5206910449
 10
-17.316543628
 20
-28.5316063024
 10
-17.3337968175
 20
-28.5403351147
 10
-17.3520009065
 20
-28.5467298501
 10
-17.3708480069
 20
-28.5506823536
 10
-17.3900193549
 20
-28.552125776
  0
LWPOLYLINE
  5
3B0
100
AcDbEntity
  8
0
100
AcDbPolyline
 62
7
  6
CONTINUOUS
 90
7
 70
0
 10
-3.6790968625
 20
-0.6044664313
 10
-3.7037064453
 20
-0.6246264315
 10
-3.7158679956
 20
-0.6341047598
 10
-3.7280781969
 20
-0.642088826
 10
-3.7403802337
 20
-0.6482491907
 10
-3.7527309214
 20
-0.6529152932
 10
-3.7651302598
 20
-0.6560871336
  0
LWPOLYLINE
  5
3B1
100
AcDbEntity
  8
RACCORDO
100
AcDbPolyline
 62
250
  6
CONTINUOUS
 90
10
 70
0
 10
0.5984841588
 20
-0.2636713054
 10
0.6046035699
 20
-0.2602605038
 10
0.610549038
 20
-0.2526848076
 10
0.6161513841
 20
-0.2411594355
 10
0.6212511843
 20
-0.2260119705
 10
0.6257032615
 20
-0.2076731893
 10
0.6293808401
 20
-0.186664911
 10
0.632179215
 20
-0.1635849213
 10
0.6340187129
 20
-0.1390898851
 10
0.634846931
 20
-0.113876856
  0
LWPOLYLINE
  5
3B2
100
AcDbEntity
  8
RACCORDO
100
AcDbPolyline
 62
250
  6
CONTINUOUS
 90
10
 70
0
 10
0.5158564004
 20
-0.2827860207
 10
0.5240270694
 20
-0.2785335732
 10
0.5324602318
 20
-0.2748176349
 10
0.5411220177
 20
-0.2716387108
 10
0.549895224
 20
-0.2690144365
 10
0.5588297826
 20
-0.2669132089
 10
0.5681542942
 20
-0.2652964335
 10
0.5779326973
 20
-0.2641891071
 10
0.5880527257
 20
-0.2636374284
 10
0.5984841588
 20
-0.2636713054
  0
LWPOLYLINE
  5
3B3
100
AcDbEntity
  8
RACCORDO
100
AcDbPolyline
 62
250
  6
CONTINUOUS
 90
10
 70
0
 10
0.4409121637
 20
-0.1543895142
 10
0.460604026
 20
-0.1457609943
 10
0.4806901896
 20
-0.1381720377
 10
0.5011568274
 20
-0.1316226445
 10
0.5218411582
 20
-0.1261231943
 10
0.5428743915
 20
-0.1216633074
 10
0.5646771596
 20
-0.1182118445
 10
0.5873686179
 20
-0.1157584257
 10
0.6107706027
 20
-0.1143134308
 10
0.6348471733
 20
-0.1138768598
  0
LINE
  5
3B4
100
AcDbEntity
  8
RACCORDO
100
AcDbLine
 62
7
  6
CONTINUOUS
 10
1.4169390619
 20
-2.1786068107
 11
1.3743310122
 21
-2.1952724668
  0
LWPOLYLINE
  5
3B5
100
AcDbEntity
  8
RACCORDO
100
AcDbPolyline
 62
7
  6
CONTINUOUS
 90
3
 70
0
 10
1.4582856741
 20
-2.1626915845
 10
1.4445990328
 20
-2.1679110481
 10
1.4169390619
 20
-2.1786068107
  0
LWPOLYLINE
  5
3B6
100
AcDbEntity
  8
RACCORDO
100
AcDbPolyline
 62
7
  6
CONTINUOUS
 90
3
 70
0
 10
1.498972907
 20
-2.1475569032
 10
1.4854837604
 20
-2.1525150698
 10
1.4582856741
 20
-2.1626915845
  0
LINE
  5
3B7
100
AcDbEntity
  8
RACCORDO
100
AcDbLine
 62
250
  6
CONTINUOUS
 10
1.2287583661
 20
-2.0217188747
 11
1.6304400018
 21
-1.9023313458
  0
LINE
  5
3B8
100
AcDbEntity
  8
RACCORDO
100
AcDbLine
 62
250
  6
CONTINUOUS
 10
1.7781611647
 20
-2.052125776
 11
1.2965413721
 21
-2.1952724668
  0
LINE
  5
3B9
100
AcDbEntity
  8
RACCORDO
100
AcDbLine
 62
250
  6
CONTINUOUS
 10
1.6304400018
 20
-25.808079575
 11
1.2287583661
 21
-25.6886920461
  0
LINE
  5
3BA
100
AcDbEntity
  8
RACCORDO
100
AcDbLine
 62
250
  6
CONTINUOUS
 10
1.2965413721
 20
-25.515138454
 11
1.7781611647
 21
-25.6582851448
  0
LWPOLYLINE
  5
3BB
100
AcDbEntity
  8
RACCORDO
100
AcDbPolyline
 62
7
  6
CONTINUOUS
 90
3
 70
0
 10
1.498972907
 20
-25.5628540176
 10
1.4719213494
 20
-25.5528509572
 10
1.4582856741
 20
-25.5477193363
  0
LINE
  5
3BC
100
AcDbEntity
  8
RACCORDO
100
AcDbLine
 62
7
  6
CONTINUOUS
 10
1.4582856741
 20
-25.5477193363
 11
1.4308391272
 21
-25.5371936819
  0
LWPOLYLINE
  5
3BD
100
AcDbEntity
  8
RACCORDO
100
AcDbPolyline
 62
7
  6
CONTINUOUS
 90
3
 70
0
 10
1.4308391272
 20
-25.5371936819
 10
1.3886738551
 20
-25.5207770538
 10
1.3743310122
 20
-25.515138454
  0
LWPOLYLINE
  5
3BE
100
AcDbEntity
  8
RACCORDO
100
AcDbPolyline
 62
250
  6
CONTINUOUS
 90
10
 70
0
 10
0.5984841586
 20
-27.4467396154
 10
0.6046029326
 20
-27.4501512523
 10
0.6105476679
 20
-27.4577286179
 10
0.6161492407
 20
-27.4692559343
 10
0.6212484778
 20
-27.4844050513
 10
0.6257003419
 20
-27.5027447455
 10
0.6293779452
 20
-27.5237529665
 10
0.6321766289
 20
-27.5468317887
 10
0.6340170296
 20
-27.5713244643
 10
0.6348469269
 20
-27.5965340456
  0
LWPOLYLINE
  5
3BF
100
AcDbEntity
  8
0
100
AcDbPolyline
 62
7
  6
CONTINUOUS
 90
10
 70
0
 10
-7.1210112994
 20
-26.169114804
 10
-7.1094762508
 20
-26.1789102269
 10
-7.0982601965
 20
-26.1902651715
 10
-7.0873631365
 20
-26.203179638
 10
-7.0766876766
 20
-26.2176068345
 10
-7.066331211
 20
-26.2335935528
 10
-7.0565859219
 20
-26.2512801685
 10
-7.0475492033
 20
-26.2707134734
 10
-7.0391236612
 20
-26.2918466759
 10
-7.0313092955
 20
-26.3146797757
  0
LWPOLYLINE
  5
3C0
100
AcDbEntity
  8
0
100
AcDbPolyline
 62
7
  6
CONTINUOUS
 90
10
 70
0
 10
-5.6831137364
 20
-26.169114804
 10
-5.6715786878
 20
-26.1789102269
 10
-5.6603626335
 20
-26.1902651715
 10
-5.6494655735
 20
-26.203179638
 10
-5.6387901137
 20
-26.2176068345
 10
-5.6284336481
 20
-26.2335935528
 10
-5.6186883589
 20
-26.2512801685
 10
-5.6096516403
 20
-26.2707134734
 10
-5.6012260982
 20
-26.2918466759
 10
-5.5934117325
 20
-26.3146797757
  0
LWPOLYLINE
  5
3C1
100
AcDbEntity
  8
0
100
AcDbPolyline
 62
7
  6
CONTINUOUS
 90
10
 70
0
 10
-11.3863579025
 20
-26.2351501187
 10
-11.379690821
 20
-26.2478539951
 10
-11.3734824551
 20
-26.2608484364
 10
-11.3677328048
 20
-26.2741334426
 10
-11.3624231614
 20
-26.287727389
 10
-11.3575722335
 20
-26.3016119002
 10
-11.3532361471
 20
-26.3157318505
 10
-11.3494336107
 20
-26.3300688645
 10
-11.3461459158
 20
-26.3446413175
 10
-11.3433730623
 20
-26.3594492096
  0
LWPOLYLINE
  5
3C2
100
AcDbEntity
  8
RACCORDO
100
AcDbPolyline
 62
250
  6
CONTINUOUS
 90
13
 70
0
 10
-16.1666055251
 20
-0.4443718866
 10
-16.168029086
 20
-0.4249306141
 10
-16.1719271838
 20
-0.405818306
 10
-16.178233837
 20
-0.3873582263
 10
-16.1868423381
 20
-0.3698625785
 10
-16.1976070342
 20
-0.3536272827
 10
-16.2103457699
 20
-0.3389269561
 10
-16.2248430277
 20
-0.3260101898
 10
-16.2408535721
 20
-0.3150953843
 10
-16.2581065495
 20
-0.3063670919
 10
-16.2763101224
 20
-0.2999728549
 10
-16.2951564146
 20
-0.2960207256
 10
-16.3143266881
 20
-0.2945774564
  0
LINE
  5
3C3
100
AcDbEntity
  8
0
100
AcDbLine
 62
7
  6
CONTINUOUS
 10
-13.5559290951
 20
-8.1052054604
 11
-13.5559290951
 21
-19.6052054604
  0
LWPOLYLINE
  5
3C4
100
AcDbEntity
  8
RACCORDO
100
AcDbPolyline
 62
250
  6
CONTINUOUS
 90
13
 70
0
 10
-16.1666055251
 20
-27.2660390342
 10
-16.1680289697
 20
-27.2854794524
 10
-16.1719267678
 20
-27.304591072
 10
-16.1782329955
 20
-27.3230506557
 10
-16.1868409946
 20
-27.3405459938
 10
-16.1976051768
 20
-27.3567811853
 10
-16.2103434861
 20
-27.3714816423
 10
-16.2248404777
 20
-27.3843987337
 10
-16.2408509619
 20
-27.3953139911
 10
-16.2581041512
 20
-27.4040428033
 10
-16.2763082401
 20
-27.4104375386
 10
-16.2951553402
 20
-27.4143900421
 10
-16.3143266881
 20
-27.4158334644
  0
LINE
  5
3C5
100
AcDbEntity
  8
0
100
AcDbLine
 62
7
  6
CONTINUOUS
 10
-11.2875920951
 20
-1.0264254604
 11
-10.8358190951
 21
0.5565915396
  0
LINE
  5
3C6
100
AcDbEntity
  8
0
100
AcDbLine
 62
7
  6
CONTINUOUS
 10
-10.3560910951
 20
0.5565915396
 11
-11.0953350951
 21
-1.7431984604
  0
LINE
  5
3C7
100
AcDbEntity
  8
0
100
AcDbLine
 62
7
  6
CONTINUOUS
 10
-13.5559290951
 20
-19.6052054604
 11
-2.0559290951
 21
-19.6052054604
  0
LWPOLYLINE
  5
3C8
100
AcDbEntity
  8
RACCORDO
100
AcDbPolyline
 62
250
  6
CONTINUOUS
 90
13
 70
0
 10
0.5158563993
 20
-27.4276248879
 10
0.5034065699
 20
-27.4198034735
 10
0.4922305193
 20
-27.411202926
 10
0.482329177
 20
-27.4020123258
 10
0.4737749462
 20
-27.3925169779
 10
0.4664153771
 20
-27.3827797213
 10
0.4599688294
 20
-27.3725720475
 10
0.4544654081
 20
-27.3620164946
 10
0.4499002064
 20
-27.3511506556
 10
0.4461326834
 20
-27.3395060046
 10
0.4432600586
 20
-27.326940962
 10
0.4414801121
 20
-27.3136991236
 10
0.4409272867
 20
-27.2998685476
  0
LWPOLYLINE
  5
3C9
100
AcDbEntity
  8
RACCORDO
100
AcDbPolyline
 62
250
  6
CONTINUOUS
 90
13
 70
0
 10
0.4409121637
 20
-27.556021215
 10
0.4166620957
 20
-27.5396228359
 10
0.3948138374
 20
-27.5223977972
 10
0.3753673887
 20
-27.5043460991
 10
0.3585126157
 20
-27.4854546505
 10
0.3440596523
 20
-27.4657365424
 10
0.3314389006
 20
-27.4452310476
 10
0.3204547791
 20
-27.4241687974
 10
0.3113028691
 20
-27.4023191607
 10
0.3040003176
 20
-27.3790295168
 10
0.2985528401
 20
-27.3540823257
 10
0.294954721
 20
-27.3276951275
 10
0.2932059603
 20
-27.2998679223
  0
LWPOLYLINE
  5
3CA
100
AcDbEntity
  8
0
100
AcDbPolyline
 62
7
  6
CONTINUOUS
 90
10
 70
0
 10
-8.2528862377
 20
-26.1715263327
 10
-8.2661321418
 20
-26.1452648498
 10
-8.2806618762
 20
-26.1204816234
 10
-8.296475441
 20
-26.0971766537
 10
-8.3134400393
 20
-26.0754926386
 10
-8.3316884679
 20
-26.0552868801
 10
-8.351619118
 20
-26.0361312838
 10
-8.3733647864
 20
-26.0178831518
 10
-8.3967926763
 20
-26.000685182
 10
-8.4219027875
 20
-25.9845373746
  0
LWPOLYLINE
  5
3CB
100
AcDbEntity
  8
0
100
AcDbPolyline
 62
7
  6
CONTINUOUS
 90
10
 70
0
 10
-9.2014645367
 20
-28.0200499445
 10
-9.1866309425
 20
-28.0511035016
 10
-9.1708622431
 20
-28.079835246
 10
-9.1541584387
 20
-28.1062451778
 10
-9.1366201102
 20
-28.1301008458
 10
-9.1181466766
 20
-28.1516347011
 10
-9.0984363949
 20
-28.1715440974
 10
-9.077388684
 20
-28.1900614859
 10
-9.055104125
 20
-28.2069544155
 10
-9.0315827179
 20
-28.2222228861
  0
LWPOLYLINE
  5
3CC
100
AcDbEntity
  8
0
100
AcDbPolyline
 62
7
  6
CONTINUOUS
 90
10
 70
0
 10
-7.7635669737
 20
-28.0200499445
 10
-7.7487334065
 20
-28.051103424
 10
-7.7329647194
 20
-28.0798351125
 10
-7.7162609124
 20
-28.10624501
 10
-7.6987225661
 20
-28.1301006683
 10
-7.6802491
 20
-28.1516345357
 10
-7.6605387725
 20
-28.1715439567
 10
-7.6394910032
 20
-28.1900613796
 10
-7.6172063726
 20
-28.206954356
 10
-7.5936848807
 20
-28.2222228861
  0
LWPOLYLINE
  5
3CD
100
AcDbEntity
  8
0
100
AcDbPolyline
 62
7
  6
CONTINUOUS
 90
10
 70
0
 10
-11.3373238525
 20
-27.406229446
 10
-11.3326500925
 20
-27.4274235075
 10
-11.3284460974
 20
-27.4497391211
 10
-11.3247118673
 20
-27.4731762869
 10
-11.3214096612
 20
-27.4975911538
 10
-11.3185772201
 20
-27.5231275728
 10
-11.316327766
 20
-27.5502170973
 10
-11.3146990398
 20
-27.5790035785
 10
-11.3136533007
 20
-27.6093431651
 10
-11.3131905486
 20
-27.6412358572
  0
LWPOLYLINE
  5
3CE
100
AcDbEntity
  8
0
100
AcDbPolyline
 62
7
  6
CONTINUOUS
 90
10
 70
0
 10
-11.9176165496
 20
-27.8511943852
 10
-11.9204230401
 20
-27.8349564571
 10
-11.9228710189
 20
-27.8182088839
 10
-11.9249604862
 20
-27.8009516653
 10
-11.926677636
 20
-27.7832193669
 10
-11.9280362742
 20
-27.7649774232
 10
-11.9290778186
 20
-27.7461221384
 10
-11.9298160752
 20
-27.7266189473
 10
-11.9302372379
 20
-27.706502415
 10
-11.9303413068
 20
-27.6857725417
  0
LWPOLYLINE
  5
3CF
100
AcDbEntity
  8
0
100
AcDbPolyline
 62
7
  6
CONTINUOUS
 90
10
 70
0
 10
-11.0618765255
 20
-27.4121902277
 10
-11.0653486925
 20
-27.3918342544
 10
-11.0694497128
 20
-27.3720243936
 10
-11.0741795863
 20
-27.3527606454
 10
-11.0795312023
 20
-27.3341125703
 10
-11.0855116715
 20
-27.3160106077
 10
-11.0921423269
 20
-27.298246076
 10
-11.0994302796
 20
-27.2807494146
 10
-11.1073684185
 20
-27.263590184
 10
-11.1159567436
 20
-27.2467683842
  0
LWPOLYLINE
  5
3D0
100
AcDbEntity
  8
0
100
AcDbPolyline
 62
7
  6
CONTINUOUS
 90
10
 70
0
 10
-11.3433730623
 20
-26.3594492096
 10
-11.3406368926
 20
-26.3761214754
 10
-11.3381651613
 20
-26.3927995448
 10
-11.3359578683
 20
-26.409483418
 10
-11.3339843033
 20
-26.4262092481
 10
-11.3322751766
 20
-26.4429408818
 10
-11.3309226193
 20
-26.4595698597
 10
-11.3299573418
 20
-26.4760600285
 10
-11.3293486338
 20
-26.4924475414
 10
-11.3290964951
 20
-26.5087323984
  0
LWPOLYLINE
  5
3D1
100
AcDbEntity
  8
0
100
AcDbPolyline
 62
7
  6
CONTINUOUS
 90
10
 70
0
 10
-11.0650577148
 20
-26.4896452626
 10
-11.0679782257
 20
-26.4175594274
 10
-11.0739939132
 20
-26.3518901753
 10
-11.0831047773
 20
-26.2926375063
 10
-11.0956663817
 20
-26.2403225361
 10
-11.1113231626
 20
-26.194424149
 10
-11.1290084288
 20
-26.153378998
 10
-11.1483666165
 20
-26.1166659674
 10
-11.1697532895
 20
-26.0848061729
 10
-11.1931684478
 20
-26.0577996146
  0
LWPOLYLINE
  5
3D2
100
AcDbEntity
  8
0
100
AcDbPolyline
 62
7
  6
CONTINUOUS
 90
10
 70
0
 10
-12.191198855
 20
-27.6857725417
 10
-12.1885653103
 20
-27.7616743381
 10
-12.1828162457
 20
-27.8309595607
 10
-12.1739516612
 20
-27.8936282094
 10
-12.1616525557
 20
-27.949192441
 10
-12.1462379303
 20
-27.9981400987
 10
-12.1286647886
 20
-28.0419347127
 10
-12.1092521318
 20
-28.0810641262
 10
-12.0876809588
 20
-28.1150404959
 10
-12.0639512694
 20
-28.1438638219
  0
LINE
  5
3D3
100
AcDbEntity
  8
RACCORDO
100
AcDbLine
 62
7
  6
CONTINUOUS
 10
-13.0559290951
 20
0.8447945396
 11
-13.0559290951
 21
-5.1552054604
  0
LINE
  5
3D4
100
AcDbEntity
  8
RACCORDO
100
AcDbLine
 62
7
  6
CONTINUOUS
 10
-13.0559290951
 20
-25.6552054604
 11
-13.0559290951
 21
-28.6552054604
  0
LINE
  5
3D5
100
AcDbEntity
  8
0
100
AcDbLine
 62
7
  6
CONTINUOUS
 10
-12.1593869535
 20
-26.4705581268
 11
-12.1593869535
 21
-26.4991888305
  0
LINE
  5
3D6
100
AcDbEntity
  8
0
100
AcDbLine
 62
7
  6
CONTINUOUS
 10
-11.7681006526
 20
-26.9636424681
 11
-11.7681006526
 21
-27.1640574624
  0
LWPOLYLINE
  5
3D7
100
AcDbEntity
  8
0
100
AcDbPolyline
 62
7
  6
CONTINUOUS
 90
10
 70
0
 10
-11.9048917925
 20
-26.4991888305
 10
-11.904775219
 20
-26.4817269854
 10
-11.9043746802
 20
-26.4645826329
 10
-11.9036901758
 20
-26.4477557731
 10
-11.9027280508
 20
-26.4312763988
 10
-11.9014819603
 20
-26.4151145171
 10
-11.89993287
 20
-26.3991801494
 10
-11.8980744353
 20
-26.3834433027
 10
-11.8959130009
 20
-26.3679339699
 10
-11.8934485667
 20
-26.352652151
  0
LINE
  5
3D8
100
AcDbEntity
  8
0
100
AcDbLine
 62
7
  6
CONTINUOUS
 10
-8.2771520951
 20
-0.7202594604
 11
-7.7970960951
 21
0.5565915396
  0
LINE
  5
3D9
100
AcDbEntity
  8
0
100
AcDbLine
 62
7
  6
CONTINUOUS
 10
-7.6753230951
 20
-0.2477394604
 11
-8.2461090951
 21
-1.7431984604
  0
LWPOLYLINE
  5
3DA
100
AcDbEntity
  8
RACCORDO
100
AcDbPolyline
 62
250
  6
CONTINUOUS
 90
20
 70
0
 10
-16.8316062788
 20
-25.6527987006
 10
-16.8324277595
 20
-25.6548650863
 10
-16.8332123222
 20
-25.65688719
 10
-16.8339585985
 20
-25.6588622639
 10
-16.8346666113
 20
-25.6608057688
 10
-16.8353359553
 20
-25.6627179298
 10
-16.835965989
 20
-25.6645979241
 10
-16.8365573063
 20
-25.6664598238
 10
-16.837109875
 20
-25.6683004566
 10
-16.8376234713
 20
-25.6701225709
 10
-16.838099538
 20
-25.6719492798
 10
-16.8385411488
 20
-25.673785395
 10
-16.8389465479
 20
-25.6756258434
 10
-16.8393109768
 20
-25.677479009
 10
-16.8396357547
 20
-25.6793542648
 10
-16.8399217263
 20
-25.6812419349
 10
-16.8401631504
 20
-25.6831217936
 10
-16.8403580894
 20
-25.6849869249
 10
-16.840509099
 20
-25.6868437598
 10
-16.8406165562
 20
-25.6886920461
  0
LINE
  5
3DB
100
AcDbEntity
  8
RACCORDO
100
AcDbLine
 62
250
  6
CONTINUOUS
 10
-16.8298547091
 20
-25.6485055079
 11
-16.8316062788
 21
-25.6527987006
  0
LWPOLYLINE
  5
3DC
100
AcDbEntity
  8
RACCORDO
100
AcDbPolyline
 62
250
  6
CONTINUOUS
 90
3
 70
0
 10
-16.8259570868
 20
-25.6390417704
 10
-16.8279655499
 20
-25.6439476949
 10
-16.8298547091
 20
-25.6485055079
  0
LWPOLYLINE
  5
3DD
100
AcDbEntity
  8
RACCORDO
100
AcDbPolyline
 62
7
  6
CONTINUOUS
 90
10
 70
0
 10
-17.4089595938
 20
-16.3074689449
 10
-17.3887296743
 20
-16.291036495
 10
-17.3700981221
 20
-16.2724049506
 10
-17.3536656621
 20
-16.2521750327
 10
-17.3395038024
 20
-16.2302946702
 10
-17.3275410348
 20
-16.2068159343
 10
-17.3181635602
 20
-16.1824957596
 10
-17.3115001122
 20
-16.1575864575
 10
-17.3074219572
 20
-16.1318357165
 10
-17.3059290951
 20
-16.1052435366
  0
LWPOLYLINE
  5
3DE
100
AcDbEntity
  8
RACCORDO
100
AcDbPolyline
 62
250
  6
CONTINUOUS
 90
16
 70
0
 10
1.6304400018
 20
-1.9023313458
 10
1.6349609639
 20
-1.8995048657
 10
1.6393017852
 20
-1.8944179442
 10
1.6434624657
 20
-1.8870705813
 10
1.6474663127
 20
-1.8773745371
 10
1.651290019
 20
-1.8654180516
 10
1.6548636625
 20
-1.8514658445
 10
1.6581951569
 20
-1.8354836546
 10
1.6612765885
 20
-1.8175057432
 10
1.664014295
 20
-1.7978996138
 10
1.6664074367
 20
-1.7765704086
 10
1.6684568532
 20
-1.7536129855
 10
1.6700714008
 20
-1.7296794215
 10
1.6712206983
 20
-1.7049870759
 10
1.6719351269
 20
-1.6793185894
 10
1.6722146867
 20
-1.6526739621
  0
LWPOLYLINE
  5
3DF
100
AcDbEntity
  8
RACCORDO
100
AcDbPolyline
 62
7
  6
CONTINUOUS
 90
22
 70
0
 10
-18.1906184651
 20
-11.7293405157
 10
-18.1670656449
 20
-11.7459410231
 10
-18.1445590374
 20
-11.7624519595
 10
-18.1230986427
 20
-11.778873325
 10
-18.1027407429
 20
-11.7950775519
 10
-18.0834290559
 20
-11.8111922079
 10
-18.0649947354
 20
-11.8275999956
 10
-18.047420729
 20
-11.8442993133
 10
-18.0307240891
 20
-11.8612917627
 10
-18.0147871257
 20
-11.8789648515
 10
-17.9995054902
 20
-11.8973904014
 10
-17.9849835312
 20
-11.9164965907
 10
-17.9714166052
 20
-11.9364554619
 10
-17.9587429746
 20
-11.9573743547
 10
-17.9470243769
 20
-11.9791459295
 10
-17.9366413812
 20
-12.0016202092
 10
-17.9276179944
 20
-12.0248657488
 10
-17.9199302095
 20
-12.0488139933
 10
-17.913886575
 20
-12.0731093009
 10
-17.9095899404
 20
-12.0976331243
 10
-17.9069374563
 20
-12.1225040107
 10
-17.9059291226
 20
-12.1477219602
  0
LWPOLYLINE
  5
3E0
100
AcDbEntity
  8
RACCORDO
100
AcDbPolyline
 62
250
  6
CONTINUOUS
 90
16
 70
0
 10
1.277877904
 20
-26.6556097709
 10
1.2841785971
 20
-26.6603056777
 10
1.2900798605
 20
-26.6679611966
 10
1.2955816939
 20
-26.6785763277
 10
1.3007162567
 20
-26.6926623808
 10
1.3054513896
 20
-26.7097080461
 10
1.3096906155
 20
-26.7281793941
 10
1.3133647482
 20
-26.7476251395
 10
1.3165429739
 20
-26.7684965678
 10
1.3193363731
 20
-26.7906136056
 10
1.3217904843
 20
-26.8136908503
 10
1.3238597691
 20
-26.8380137046
 10
1.3255186931
 20
-26.8642583035
 10
1.3267587447
 20
-26.8926500253
 10
1.3275884356
 20
-26.9229634917
 10
1.3280077657
 20
-26.9551987026
  0
LWPOLYLINE
  5
3E1
100
AcDbEntity
  8
0
100
AcDbPolyline
 62
7
  6
CONTINUOUS
 90
10
 70
0
 10
-6.8149886747
 20
-26.1715263327
 10
-6.8282346441
 20
-26.1452647293
 10
-6.8427644164
 20
-26.1204814199
 10
-6.8585779917
 20
-26.0971764045
 10
-6.8755425684
 20
-26.0754923908
 10
-6.8937909481
 20
-26.055286671
 10
-6.9137215357
 20
-26.0361311218
 10
-6.9354671327
 20
-26.0178830355
 10
-6.9588949376
 20
-26.0006851197
 10
-6.9840049504
 20
-25.9845373746
  0
LWPOLYLINE
  5
3E2
100
AcDbEntity
  8
0
100
AcDbPolyline
 62
7
  6
CONTINUOUS
 90
10
 70
0
 10
-6.3256691365
 20
-28.0200499445
 10
-6.3108355423
 20
-28.0511035016
 10
-6.295066843
 20
-28.079835246
 10
-6.2783630386
 20
-28.1062451778
 10
-6.2608247101
 20
-28.1301008458
 10
-6.2423512765
 20
-28.1516347011
 10
-6.2226409947
 20
-28.1715440974
 10
-6.2015932839
 20
-28.1900614859
 10
-6.1793087249
 20
-28.2069544155
 10
-6.1557873178
 20
-28.2222228861
  0
LWPOLYLINE
  5
3E3
100
AcDbEntity
  8
RACCORDO
100
AcDbPolyline
 62
250
  6
CONTINUOUS
 90
50
 70
0
 10
-16.8298462301
 20
-2.0619260576
 10
-16.8269629358
 20
-2.0689007256
 10
-16.8259435135
 20
-2.0714028426
 10
-16.824900482
 20
-2.0739984653
 10
-16.8238423311
 20
-2.0767277286
 10
-16.8227700594
 20
-2.0795884913
 10
-16.8216932826
 20
-2.0825779995
 10
-16.8206375667
 20
-2.085733735
 10
-16.8196045557
 20
-2.0890596253
 10
-16.8186094892
 20
-2.0925427989
 10
-16.8177024801
 20
-2.0961932984
 10
-16.816891554
 20
-2.1000206705
 10
-16.8161913345
 20
-2.1040007526
 10
-16.815662724
 20
-2.1080917129
 10
-16.8153238895
 20
-2.1123071514
 10
-16.8151790803
 20
-2.1166142804
 10
-16.8152608703
 20
-2.120904972
 10
-16.8155846438
 20
-2.1251629739
 10
-16.8161427852
 20
-2.1293902092
 10
-16.8169214287
 20
-2.1335132156
 10
-16.8179190676
 20
-2.1375096764
 10
-16.8191329272
 20
-2.1413949683
 10
-16.8205408428
 20
-2.1451570637
 10
-16.8221408078
 20
-2.1487945855
 10
-16.8239288745
 20
-2.1523034222
 10
-16.8258775789
 20
-2.1556698975
 10
-16.827981588
 20
-2.1588916299
 10
-16.8302374752
 20
-2.1619692278
 10
-16.832618615
 20
-2.1648961829
 10
-16.8351165653
 20
-2.1676703009
 10
-16.8377297745
 20
-2.1702953
 10
-16.8404412768
 20
-2.1727749408
 10
-16.8432392877
 20
-2.1751063554
 10
-16.8461262182
 20
-2.1772952641
 10
-16.849107458
 20
-2.1793568594
 10
-16.852174206
 20
-2.1812897657
 10
-16.8553283689
 20
-2.1830952799
 10
-16.8585934964
 20
-2.1847882749
 10
-16.8619656601
 20
-2.1863672819
 10
-16.8654440686
 20
-2.1878283998
 10
-16.8690587838
 20
-2.1891776017
 10
-16.8728075515
 20
-2.1904114131
 10
-16.8766885149
 20
-2.1915227035
 10
-16.8807332436
 20
-2.1925073694
 10
-16.8849487678
 20
-2.1933615287
 10
-16.8893230241
 20
-2.1940735323
 10
-16.8938585903
 20
-2.194627154
 10
-16.8985536197
 20
-2.19501382
 10
-16.9034020843
 20
-2.195230837
 10
-16.9083995623
 20
-2.1952724668
  0
LWPOLYLINE
  5
3E4
100
AcDbEntity
  8
0
100
AcDbPolyline
 62
7
  6
CONTINUOUS
 90
10
 70
0
 10
-8.97963085
 20
-27.89621476
 10
-8.9859109638
 20
-27.8758911251
 10
-8.9917395158
 20
-27.8541787885
 10
-8.9971165059
 20
-27.8310777502
 10
-9.0020506493
 20
-27.8066983232
 10
-9.0065332308
 20
-27.7809301945
 10
-9.0105381048
 20
-27.7534424251
 10
-9.0140565561
 20
-27.7241247019
 10
-9.0170972999
 20
-27.6930873379
 10
-9.0196603362
 20
-27.6603303331
  0
LWPOLYLINE
  5
3E5
100
AcDbEntity
  8
0
100
AcDbPolyline
 62
7
  6
CONTINUOUS
 90
10
 70
0
 10
-7.5417331621
 20
-27.8962147194
 10
-7.5480133076
 20
-27.8758911053
 10
-7.5538418864
 20
-27.8541787858
 10
-7.5592188982
 20
-27.8310777608
 10
-7.5641530579
 20
-27.8066983432
 10
-7.5686356507
 20
-27.7809302202
 10
-7.5726405329
 20
-27.7534424534
 10
-7.5761589899
 20
-27.7241247301
 10
-7.5791997362
 20
-27.6930873629
 10
-7.581762772
 20
-27.6603303519
  0
LWPOLYLINE
  5
3E6
100
AcDbEntity
  8
0
100
AcDbPolyline
 62
7
  6
CONTINUOUS
 90
10
 70
0
 10
-8.46920711
 20
-26.3146798511
 10
-8.4627138943
 20
-26.3371856094
 10
-8.4566645352
 20
-26.3607063172
 10
-8.4510590328
 20
-26.3852419747
 10
-8.4458564694
 20
-26.4108111303
 10
-8.4410977626
 20
-26.4373952355
 10
-8.4369056656
 20
-26.4649386445
 10
-8.433321096
 20
-26.4934228087
 10
-8.4303031363
 20
-26.5228662767
 10
-8.4278517862
 20
-26.5532690485
  0
LWPOLYLINE
  5
3E7
100
AcDbEntity
  8
0
100
AcDbPolyline
 62
7
  6
CONTINUOUS
 90
9
 70
0
 10
-9.0196603362
 20
-27.6603303331
 10
-9.0217001627
 20
-27.6277205289
 10
-9.0234871378
 20
-27.5944230141
 10
-9.0250212615
 20
-27.5604377886
 10
-9.0262958562
 20
-27.5257604248
 10
-9.0273175996
 20
-27.4903953504
 10
-9.028106525
 20
-27.4543558487
 10
-9.0286693101
 20
-27.4176463475
 10
-9.0289992774
 20
-27.380262419
  0
LWPOLYLINE
  5
3E8
100
AcDbEntity
  8
0
100
AcDbPolyline
 62
7
  6
CONTINUOUS
 90
10
 70
0
 10
-11.045970579
 20
-27.6126051535
 10
-11.0462051482
 20
-27.5903012318
 10
-11.0468347375
 20
-27.5679998799
 10
-11.0478593467
 20
-27.5457010979
 10
-11.0492947499
 20
-27.5233964466
 10
-11.051125173
 20
-27.5010943651
 10
-11.0533032943
 20
-27.4788201708
 10
-11.0558133399
 20
-27.4565823027
 10
-11.0586710836
 20
-27.4343723216
 10
-11.0618765255
 20
-27.4121902277
  0
LINE
  5
3E9
100
AcDbEntity
  8
0
100
AcDbLine
 62
7
  6
CONTINUOUS
 10
-11.1959290951
 20
-5.0451994604
 11
-11.1959290951
 21
-2.7451984604
  0
LINE
  5
3EA
100
AcDbEntity
  8
0
100
AcDbLine
 62
7
  6
CONTINUOUS
 10
-10.9255280951
 20
-2.7451984604
 11
-10.9255280951
 21
-4.8288784604
  0
LINE
  5
3EB
100
AcDbEntity
  8
0
100
AcDbLine
 62
7
  6
CONTINUOUS
 10
-10.5497050484
 20
-26.301955094
 11
-10.5497050484
 21
-26.5723561843
  0
LINE
  5
3EC
100
AcDbEntity
  8
0
100
AcDbLine
 62
7
  6
CONTINUOUS
 10
-10.2033980951
 20
-4.8288784604
 11
-10.2033980951
 21
-5.0451994604
  0
LINE
  5
3ED
100
AcDbEntity
  8
0
100
AcDbLine
 62
7
  6
CONTINUOUS
 10
-10.1806870898
 20
-28.2552054604
 11
-10.1806870898
 21
-26.2765055796
  0
LINE
  5
3EE
100
AcDbEntity
  8
0
100
AcDbLine
 62
7
  6
CONTINUOUS
 10
-10.1779410951
 20
-1.7431984604
 11
-10.1779410951
 21
0.5567295396
  0
LINE
  5
3EF
100
AcDbEntity
  8
0
100
AcDbLine
 62
7
  6
CONTINUOUS
 10
-9.916648378
 20
-28.2552054604
 11
-9.916648378
 21
-25.9552054604
  0
LINE
  5
3F0
100
AcDbEntity
  8
0
100
AcDbLine
 62
7
  6
CONTINUOUS
 10
-9.8860060951
 20
-5.0451944604
 11
-9.8860060951
 21
-2.7451944604
  0
LINE
  5
3F1
100
AcDbEntity
  8
0
100
AcDbLine
 62
7
  6
CONTINUOUS
 10
-9.6978850951
 20
0.5567295396
 11
-9.6978850951
 21
-1.7431984604
  0
LINE
  5
3F2
100
AcDbEntity
  8
0
100
AcDbLine
 62
7
  6
CONTINUOUS
 10
-9.6156040951
 20
-2.7451944604
 11
-9.6156040951
 21
-5.0451944604
  0
LWPOLYLINE
  5
3F3
100
AcDbEntity
  8
0
100
AcDbPolyline
 62
7
  6
CONTINUOUS
 90
10
 70
0
 10
-11.3131905486
 20
-27.6412358572
 10
-11.3134265669
 20
-27.6623808518
 10
-11.3140512104
 20
-27.6832884502
 10
-11.3150644791
 20
-27.7039586524
 10
-11.3164839183
 20
-27.724405757
 10
-11.3182919828
 20
-27.7446154655
 10
-11.3204360369
 20
-27.7645448814
 10
-11.3228985354
 20
-27.7841797061
 10
-11.3256970235
 20
-27.8035342382
 10
-11.3288315011
 20
-27.8226084779
  0
LWPOLYLINE
  5
3F4
100
AcDbEntity
  8
0
100
AcDbPolyline
 62
7
  6
CONTINUOUS
 90
10
 70
0
 10
-11.3290964951
 20
-26.5087323984
 10
-11.3295951241
 20
-26.5397497381
 10
-11.3307065809
 20
-26.5691952219
 10
-11.3324308654
 20
-26.5970688498
 10
-11.3348235677
 20
-26.6233624385
 10
-11.3378290979
 20
-26.6480841713
 10
-11.3412806855
 20
-26.6712585985
 10
-11.3451227407
 20
-26.6928939034
 10
-11.3494108534
 20
-26.7129819028
 10
-11.3541450237
 20
-26.7315225966
  0
LINE
  5
3F5
100
AcDbEntity
  8
0
100
AcDbLine
 62
7
  6
CONTINUOUS
 10
-8.8766010951
 20
-0.2414794604
 11
-8.9801970951
 21
-1.7431984604
  0
LINE
  5
3F6
100
AcDbEntity
  8
0
100
AcDbLine
 62
7
  6
CONTINUOUS
 10
-9.4394550951
 20
-1.7431984604
 11
-9.2317980951
 21
0.5565915396
  0
LINE
  5
3F7
100
AcDbEntity
  8
0
100
AcDbLine
 62
7
  6
CONTINUOUS
 10
-6.0871500951
 20
-0.0753324604
 11
-6.3261780951
 21
-0.9288134604
  0
LINE
  5
3F8
100
AcDbEntity
  8
0
100
AcDbLine
 62
7
  6
CONTINUOUS
 10
-6.4243760951
 20
-1.2840784604
 11
-6.5568410951
 21
-1.7431984604
  0
LINE
  5
3F9
100
AcDbEntity
  8
RACCORDO
100
AcDbLine
 62
250
  6
CONTINUOUS
 10
-18.7704642911
 20
-39.626140394
 11
-18.7887944362
 21
-39.6873824585
  0
LINE
  5
3FA
100
AcDbEntity
  8
RACCORDO
100
AcDbLine
 62
250
  6
CONTINUOUS
 10
-18.3213370486
 20
-40.0768287371
 11
-18.3396671937
 21
-40.1380708016
  0
LINE
  5
3FB
100
AcDbEntity
  8
0
100
AcDbLine
 62
7
  6
CONTINUOUS
 10
-7.0316890951
 20
-1.7431984604
 11
-6.3103290951
 21
0.5565915396
  0
LWPOLYLINE
  5
3FC
100
AcDbEntity
  8
RACCORDO
100
AcDbPolyline
 62
250
  6
CONTINUOUS
 90
16
 70
0
 10
1.7781604693
 20
-2.052125776
 10
1.782683201
 20
-2.0479391294
 10
1.7870250261
 20
-2.0397439548
 10
1.7911859443
 20
-2.0277086358
 10
1.7951887784
 20
-2.0120984139
 10
1.7990107056
 20
-1.9931091573
 10
1.8025832588
 20
-1.970740891
 10
1.805915216
 20
-1.9451234647
 10
1.8089977991
 20
-1.9165200775
 10
1.8117362068
 20
-1.8850350438
 10
1.8141289688
 20
-1.8508604822
 10
1.8161775555
 20
-1.8143514673
 10
1.8177915756
 20
-1.7758826655
 10
1.818940899
 20
-1.7358434668
 10
1.8196556559
 20
-1.694628993
 10
1.8199358463
 20
-1.6526739621
  0
LWPOLYLINE
  5
3FD
100
AcDbEntity
  8
RACCORDO
100
AcDbPolyline
 62
7
  6
CONTINUOUS
 90
19
 70
0
 10
1.3743310122
 20
-2.1952724668
 10
1.3714940916
 20
-2.1974937646
 10
1.3694726177
 20
-2.2018565692
 10
1.3682665903
 20
-2.2082357159
 10
1.3677301277
 20
-2.2165459671
 10
1.3680091117
 20
-2.2265958396
 10
1.3695411877
 20
-2.2379795765
 10
1.3723054816
 20
-2.2502945612
 10
1.3763228675
 20
-2.2634078067
 10
1.3820936132
 20
-2.2772804805
 10
1.3896478708
 20
-2.2919031778
 10
1.3989554881
 20
-2.3069588836
 10
1.4104262766
 20
-2.3219621536
 10
1.4242758205
 20
-2.3368799262
 10
1.4402885357
 20
-2.3514271386
 10
1.4582274814
 20
-2.3646914318
 10
1.4780136775
 20
-2.3762893569
 10
1.4997261043
 20
-2.38640599
 10
1.5233647616
 20
-2.3949983737
  0
LINE
  5
3FE
100
AcDbEntity
  8
DRAFT
100
AcDbLine
 62
7
  6
CONTINUOUS
 10
2.2940709049
 20
-2.0925287349
 11
2.1437282593
 21
-2.2052054604
  0
LWPOLYLINE
  5
3FF
100
AcDbEntity
  8
RACCORDO
100
AcDbPolyline
 62
7
  6
CONTINUOUS
 90
4
 70
0
 10
-17.5559290951
 20
-16.3552114905
 10
-17.529320004
 20
-16.353715949
 10
-17.5035565826
 20
-16.3496357877
 10
-17.4786388309
 20
-16.3429710066
  0
LINE
  5
400
100
AcDbEntity
  8
RACCORDO
100
AcDbLine
 62
250
  6
CONTINUOUS
 10
-18.7704642911
 20
-15.9810704051
 11
-18.1906184651
 21
-15.9810704051
  0
LINE
  5
401
100
AcDbEntity
  8
RACCORDO
100
AcDbLine
 62
250
  6
CONTINUOUS
 10
2.5787602749
 20
-15.9810704051
 11
3.158606101
 21
-15.9810704051
  0
LINE
  5
402
100
AcDbEntity
  8
RACCORDO
100
AcDbLine
 62
250
  6
CONTINUOUS
 10
-18.7672184735
 20
-15.8333492421
 11
-18.2101067338
 21
-15.8333492421
  0
LINE
  5
403
100
AcDbEntity
  8
RACCORDO
100
AcDbLine
 62
250
  6
CONTINUOUS
 10
2.5982485437
 20
-15.8333492421
 11
3.1553602834
 21
-15.8333492421
  0
LINE
  5
404
100
AcDbEntity
  8
RACCORDO
100
AcDbLine
 62
250
  6
CONTINUOUS
 10
-18.72891184
 20
-15.5754055599
 11
-18.2867725709
 21
-15.5754055599
  0
LINE
  5
405
100
AcDbEntity
  8
RACCORDO
100
AcDbLine
 62
250
  6
CONTINUOUS
 10
2.6749143807
 20
-15.5754055599
 11
3.1170536499
 21
-15.5754055599
  0
LWPOLYLINE
  5
406
100
AcDbEntity
  8
RACCORDO
100
AcDbPolyline
 62
7
  6
CONTINUOUS
 90
4
 70
0
 10
-17.4089595228
 20
-11.4029420275
 10
-17.430838475
 20
-11.388780391
 10
-17.4543158007
 20
-11.3768178468
 10
-17.4786387959
 20
-11.3674399256
  0
LINE
  5
407
100
AcDbEntity
  8
DRAFT
100
AcDbLine
 62
7
  6
CONTINUOUS
 10
2.2940709049
 20
-25.6178821859
 11
2.1437282593
 21
-25.5052054604
  0
LWPOLYLINE
  5
408
100
AcDbEntity
  8
0
100
AcDbPolyline
 62
7
  6
CONTINUOUS
 90
10
 70
0
 10
-5.3770911118
 20
-26.1715263327
 10
-5.3903370811
 20
-26.1452647293
 10
-5.4048668534
 20
-26.1204814199
 10
-5.4206804287
 20
-26.0971764045
 10
-5.4376450054
 20
-26.0754923908
 10
-5.4558933851
 20
-26.055286671
 10
-5.4758239727
 20
-26.0361311218
 10
-5.4975695697
 20
-26.0178830355
 10
-5.5209973746
 20
-26.0006851197
 10
-5.5461073874
 20
-25.9845373746
  0
LWPOLYLINE
  5
409
100
AcDbEntity
  8
0
100
AcDbPolyline
 62
7
  6
CONTINUOUS
 90
10
 70
0
 10
-6.1038355991
 20
-27.8962147194
 10
-6.1101157447
 20
-27.8758911053
 10
-6.1159443234
 20
-27.8541787858
 10
-6.1213213353
 20
-27.8310777608
 10
-6.1262554949
 20
-27.8066983432
 10
-6.1307380877
 20
-27.7809302202
 10
-6.1347429699
 20
-27.7534424534
 10
-6.1382614269
 20
-27.7241247301
 10
-6.1413021732
 20
-27.6930873629
 10
-6.143865209
 20
-27.6603303519
  0
LINE
  5
40A
100
AcDbEntity
  8
RACCORDO
100
AcDbLine
 62
250
  6
CONTINUOUS
 10
-18.7704642911
 20
11.9157294732
 11
-18.7887944362
 21
11.9769715377
  0
LINE
  5
40B
100
AcDbEntity
  8
RACCORDO
100
AcDbLine
 62
250
  6
CONTINUOUS
 10
-18.3213370486
 20
12.3664178163
 11
-18.3396671937
 21
12.4276598808
  0
LWPOLYLINE
  5
40C
100
AcDbEntity
  8
0
100
AcDbPolyline
 62
7
  6
CONTINUOUS
 90
10
 70
0
 10
-7.0313092955
 20
-26.3146797757
 10
-7.0248160709
 20
-26.3371855663
 10
-7.0187667049
 20
-26.3607062988
 10
-7.0131611976
 20
-26.3852419732
 10
-7.0079586319
 20
-26.4108111364
 10
-7.0031999249
 20
-26.4373952415
 10
-6.999007828
 20
-26.4649386476
 10
-6.9954232586
 20
-26.4934228076
 10
-6.9924052993
 20
-26.5228662685
 10
-6.9899539503
 20
-26.5532690303
  0
LWPOLYLINE
  5
40D
100
AcDbEntity
  8
0
100
AcDbPolyline
 62
7
  6
CONTINUOUS
 90
10
 70
0
 10
-8.1767099235
 20
-26.467395943
 10
-8.1818648156
 20
-26.4270996878
 10
-8.1878869021
 20
-26.3887150775
 10
-8.194776183
 20
-26.3522421121
 10
-8.20258587
 20
-26.3177557001
 10
-8.2112627514
 20
-26.285180933
 10
-8.2206471924
 20
-26.2542930853
 10
-8.2306859813
 20
-26.2250172484
 10
-8.2414323297
 20
-26.1974283309
 10
-8.2528862377
 20
-26.1715263327
  0
LWPOLYLINE
  5
40E
100
AcDbEntity
  8
0
100
AcDbPolyline
 62
7
  6
CONTINUOUS
 90
10
 70
0
 10
-9.2756262332
 20
-27.7081758308
 10
-9.2708859713
 20
-27.7507627668
 10
-9.2652172353
 20
-27.7913224434
 10
-9.2586200252
 20
-27.8298548607
 10
-9.2510230176
 20
-27.8663017583
 10
-9.242497536
 20
-27.9007213965
 10
-9.2332575501
 20
-27.9332885562
 10
-9.2233743832
 20
-27.9640614975
 10
-9.2127767121
 20
-27.9929819603
 10
-9.2014645367
 20
-28.0200499445
  0
LWPOLYLINE
  5
40F
100
AcDbEntity
  8
0
100
AcDbPolyline
 62
7
  6
CONTINUOUS
 90
9
 70
0
 10
-7.581762772
 20
-27.6603303519
 10
-7.5838025987
 20
-27.6277205426
 10
-7.5855895742
 20
-27.5944230235
 10
-7.5871236982
 20
-27.5604377947
 10
-7.588398293
 20
-27.5257604286
 10
-7.5894200365
 20
-27.4903953528
 10
-7.5902089619
 20
-27.45435585
 10
-7.5907717472
 20
-27.417646348
 10
-7.5911017144
 20
-27.380262419
  0
LWPOLYLINE
  5
410
100
AcDbEntity
  8
0
100
AcDbPolyline
 62
7
  6
CONTINUOUS
 90
9
 70
0
 10
-8.4278517862
 20
-26.5532690485
 10
-8.4259156297
 20
-26.5842795992
 10
-8.4241929774
 20
-26.6167163968
 10
-8.4226838293
 20
-26.6505794412
 10
-8.4213809428
 20
-26.6858537754
 10
-8.4202915605
 20
-26.7225543565
 10
-8.4194374105
 20
-26.7607260559
 10
-8.4188257352
 20
-26.8003838308
 10
-8.4184492921
 20
-26.841512724
  0
LWPOLYLINE
  5
411
100
AcDbEntity
  8
0
100
AcDbPolyline
 62
7
  6
CONTINUOUS
 90
9
 70
0
 10
-6.9899539503
 20
-26.5532690303
 10
-6.9880178081
 20
-26.5842795998
 10
-6.9862951775
 20
-26.6167164109
 10
-6.9847860587
 20
-26.6505794636
 10
-6.9834832135
 20
-26.6858537995
 10
-6.9823938799
 20
-26.722554377
 10
-6.9815397722
 20
-26.7607260718
 10
-6.9809281284
 20
-26.8003838424
 10
-6.9805517104
 20
-26.8415127304
  0
LWPOLYLINE
  5
412
100
AcDbEntity
  8
0
100
AcDbPolyline
 62
7
  6
CONTINUOUS
 90
9
 70
0
 10
-9.2898694733
 20
-27.3523145674
 10
-9.2894277823
 20
-27.4022179948
 10
-9.2886288761
 20
-27.4505588846
 10
-9.2874989651
 20
-27.4973229812
 10
-9.2860118389
 20
-27.5425245401
 10
-9.2840888657
 20
-27.5862063279
 10
-9.2817038351
 20
-27.6283826
 10
-9.2788829576
 20
-27.669039101
 10
-9.2756262332
 20
-27.7081758308
  0
LWPOLYLINE
  5
413
100
AcDbEntity
  8
0
100
AcDbPolyline
 62
7
  6
CONTINUOUS
 90
9
 70
0
 10
-7.8519719103
 20
-27.3523145674
 10
-7.8515302193
 20
-27.4022179948
 10
-7.8507313131
 20
-27.4505588846
 10
-7.8496014021
 20
-27.4973229812
 10
-7.8481142759
 20
-27.5425245401
 10
-7.8461913028
 20
-27.5862063279
 10
-7.8438062722
 20
-27.6283826
 10
-7.8409853947
 20
-27.669039101
 10
-7.8377286702
 20
-27.7081758308
  0
LWPOLYLINE
  5
414
100
AcDbEntity
  8
0
100
AcDbPolyline
 62
7
  6
CONTINUOUS
 90
10
 70
0
 10
-8.1574505588
 20
-26.8586632212
 10
-8.1576728924
 20
-26.8118015365
 10
-8.1583741571
 20
-26.765744819
 10
-8.1595543527
 20
-26.7204930689
 10
-8.1612128552
 20
-26.6759903949
 10
-8.1633502887
 20
-26.6322926882
 10
-8.1659685251
 20
-26.5895676224
 10
-8.1690681883
 20
-26.5478710884
 10
-8.1726486545
 20
-26.5071471953
 10
-8.1767099235
 20
-26.467395943
  0
LINE
  5
415
100
AcDbEntity
  8
0
100
AcDbLine
 62
7
  6
CONTINUOUS
 10
-9.2899539491
 20
-26.8713879784
 11
-9.2898694733
 21
-27.3523145674
  0
LINE
  5
416
100
AcDbEntity
  8
0
100
AcDbLine
 62
7
  6
CONTINUOUS
 10
-9.1914610951
 20
-5.0451994604
 11
-9.1914610951
 21
-2.7451984604
  0
LINE
  5
417
100
AcDbEntity
  8
0
100
AcDbLine
 62
7
  6
CONTINUOUS
 10
-9.0289992774
 20
-27.380262419
 11
-9.0290964266
 21
-26.8841127356
  0
LINE
  5
418
100
AcDbEntity
  8
0
100
AcDbLine
 62
7
  6
CONTINUOUS
 10
-8.9401470951
 20
-2.9774254604
 11
-8.9401470951
 21
-5.0451994604
  0
LINE
  5
419
100
AcDbEntity
  8
0
100
AcDbLine
 62
7
  6
CONTINUOUS
 10
-8.4184492921
 20
-26.841512724
 11
-8.4183080812
 21
-27.3453852525
  0
LINE
  5
41A
100
AcDbEntity
  8
0
100
AcDbLine
 62
7
  6
CONTINUOUS
 10
-8.1574505588
 20
-27.2944862237
 11
-8.1574505588
 21
-26.8586632212
  0
LINE
  5
41B
100
AcDbEntity
  8
0
100
AcDbLine
 62
7
  6
CONTINUOUS
 10
-7.9985150951
 20
-4.8129724604
 11
-7.9985150951
 21
-2.7451984604
  0
LINE
  5
41C
100
AcDbEntity
  8
0
100
AcDbLine
 62
7
  6
CONTINUOUS
 10
-7.8520563861
 20
-26.8713879784
 11
-7.8519719103
 21
-27.3523145674
  0
LINE
  5
41D
100
AcDbEntity
  8
0
100
AcDbLine
 62
7
  6
CONTINUOUS
 10
-7.7471790951
 20
-2.7451984604
 11
-7.7471790951
 21
-5.0451994604
  0
LINE
  5
41E
100
AcDbEntity
  8
0
100
AcDbLine
 62
7
  6
CONTINUOUS
 10
-7.5911017144
 20
-27.380262419
 11
-7.5911988636
 21
-26.8841127356
  0
LWPOLYLINE
  5
41F
100
AcDbEntity
  8
0
100
AcDbPolyline
 62
7
  6
CONTINUOUS
 90
10
 70
0
 10
-9.0290964266
 20
-26.8841127356
 10
-9.0289552344
 20
-26.8415127285
 10
-9.0285788164
 20
-26.8003838394
 10
-9.0279671726
 20
-26.7607260682
 10
-9.0271130649
 20
-26.7225543732
 10
-9.0260237314
 20
-26.6858537962
 10
-9.0247208863
 20
-26.6505794626
 10
-9.0232117677
 20
-26.6167164144
 10
-9.0214891375
 20
-26.5842796097
 10
-9.0195529958
 20
-26.5532690485
  0
LWPOLYLINE
  5
420
100
AcDbEntity
  8
0
100
AcDbPolyline
 62
7
  6
CONTINUOUS
 90
10
 70
0
 10
-8.4183080812
 20
-27.3453852525
 10
-8.4184505658
 20
-27.3868792934
 10
-8.4188255519
 20
-27.4269139582
 10
-8.4194330394
 20
-27.4654892469
 10
-8.4202810307
 20
-27.5025903997
 10
-8.4213615235
 20
-27.5382321763
 10
-8.4226505112
 20
-27.5724588556
 10
-8.4241399917
 20
-27.6052851973
 10
-8.4258379671
 20
-27.6366964417
 10
-8.4277444375
 20
-27.6666925888
  0
LWPOLYLINE
  5
421
100
AcDbEntity
  8
0
100
AcDbPolyline
 62
7
  6
CONTINUOUS
 90
10
 70
0
 10
-9.0195529958
 20
-26.5532690485
 10
-9.0170179996
 20
-26.5202515852
 10
-9.0140000135
 20
-26.4888911682
 10
-9.0104990373
 20
-26.4591877974
 10
-9.0065042921
 20
-26.4311983946
 10
-9.002026557
 20
-26.4048660381
 10
-8.9970981687
 20
-26.3800199626
 10
-8.9917299063
 20
-26.3566032464
 10
-8.9859109909
 20
-26.3346728111
 10
-8.9796414224
 20
-26.3142286569
  0
LWPOLYLINE
  5
422
100
AcDbEntity
  8
0
100
AcDbPolyline
 62
7
  6
CONTINUOUS
 90
10
 70
0
 10
-9.2708668133
 20
-26.4801016947
 10
-9.2749064024
 20
-26.5202413427
 10
-9.2784636454
 20
-26.5612266376
 10
-9.2815385425
 20
-26.6030575794
 10
-9.2841275642
 20
-26.6457494951
 10
-9.2862342399
 20
-26.6892870577
 10
-9.2878691574
 20
-26.7336242855
 10
-9.2890358461
 20
-26.7787458513
 10
-9.2897307767
 20
-26.8246670823
 10
-9.2899539491
 20
-26.8713879784
  0
LWPOLYLINE
  5
423
100
AcDbEntity
  8
0
100
AcDbPolyline
 62
7
  6
CONTINUOUS
 90
10
 70
0
 10
-11.0822304144
 20
-26.6866653335
 10
-11.0787343897
 20
-26.6660787802
 10
-11.0756243653
 20
-26.6451075625
 10
-11.0729003414
 20
-26.6237516805
 10
-11.0705476693
 20
-26.6019331037
 10
-11.0685809976
 20
-26.5797298626
 10
-11.0670442717
 20
-26.5573760488
 10
-11.0659521402
 20
-26.5349496928
 10
-11.0652899546
 20
-26.512372764
 10
-11.0650577148
 20
-26.4896452626
  0
LWPOLYLINE
  5
424
100
AcDbEntity
  8
0
100
AcDbPolyline
 62
7
  6
CONTINUOUS
 90
10
 70
0
 10
-11.3288315011
 20
-27.8226084779
 10
-11.3326286767
 20
-27.8427046773
 10
-11.3369023308
 20
-27.8617210252
 10
-11.3416524636
 20
-27.8796575216
 10
-11.3468851414
 20
-27.8964727744
 10
-11.3525942979
 20
-27.9122081757
 10
-11.3587617339
 20
-27.9269879015
 10
-11.365381383
 20
-27.940853344
 10
-11.3724593117
 20
-27.953763111
 10
-11.37999552
 20
-27.9657172026
  0
LWPOLYLINE
  5
425
100
AcDbEntity
  8
0
100
AcDbPolyline
 62
7
  6
CONTINUOUS
 90
10
 70
0
 10
-11.8934485667
 20
-26.352652151
 10
-11.8905071955
 20
-26.3376925718
 10
-11.8870018337
 20
-26.3230839963
 10
-11.8829324814
 20
-26.3088264245
 10
-11.8782636637
 20
-26.2948710837
 10
-11.8730308555
 20
-26.2812667465
 10
-11.8673404811
 20
-26.2681597307
 10
-11.8612280153
 20
-26.2555988089
 10
-11.8546579833
 20
-26.2435352084
 10
-11.8476303851
 20
-26.2319689294
  0
LWPOLYLINE
  5
426
100
AcDbEntity
  8
0
100
AcDbPolyline
 62
7
  6
CONTINUOUS
 90
10
 70
0
 10
-11.0746012808
 20
-27.8957310358
 10
-11.0688716226
 20
-27.8693639298
 10
-11.0637561982
 20
-27.8417340589
 10
-11.0592550077
 20
-27.8128414229
 10
-11.0553375398
 20
-27.7826994437
 10
-11.0520343057
 20
-27.7512946995
 10
-11.0494368393
 20
-27.718586925
 10
-11.0475756516
 20
-27.6845626982
 10
-11.0464202315
 20
-27.6492354411
 10
-11.045970579
 20
-27.6126051535
  0
LINE
  5
427
100
AcDbEntity
  8
0
100
AcDbLine
 62
7
  6
CONTINUOUS
 10
-5.2616510951
 20
-2.9965184604
 11
-5.5956760951
 21
-4.2467054604
  0
LINE
  5
428
100
AcDbEntity
  8
0
100
AcDbLine
 62
7
  6
CONTINUOUS
 10
-5.6624820951
 20
-4.4630264604
 11
-5.8247230951
 21
-5.0452054604
  0
LINE
  5
429
100
AcDbEntity
  8
0
100
AcDbLine
 62
7
  6
CONTINUOUS
 10
-6.0951230951
 20
-5.0452054604
 11
-5.4207110951
 21
-2.7451834604
  0
LINE
  5
42A
100
AcDbEntity
  8
RACCORDO
100
AcDbLine
 62
250
  6
CONTINUOUS
 10
-16.1277146381
 20
-26.7827857935
 11
-16.0527703542
 21
-26.6543895139
  0
LWPOLYLINE
  5
42B
100
AcDbEntity
  8
RACCORDO
100
AcDbPolyline
 62
7
  6
CONTINUOUS
 90
4
 70
0
 10
-17.4786388309
 20
-16.3429710066
 10
-17.4543158497
 20
-16.3335930974
 10
-17.4308385381
 20
-16.3216305684
 10
-17.4089595938
 20
-16.3074689449
  0
LWPOLYLINE
  5
42C
100
AcDbEntity
  8
RACCORDO
100
AcDbPolyline
 62
250
  6
CONTINUOUS
 90
13
 70
0
 10
-18.2101067338
 20
-15.8333492421
 10
-18.1712258979
 20
-15.8305023535
 10
-18.133002659
 20
-15.8227067578
 10
-18.0960834919
 20
-15.8100943028
 10
-18.0610928158
 20
-15.7928783048
 10
-18.0286224327
 20
-15.7713499404
 10
-17.9992215187
 20
-15.7458733218
 10
-17.9733873356
 20
-15.7168793386
 10
-17.9515568205
 20
-15.6848583699
 10
-17.9340991959
 20
-15.650351991
 10
-17.9213097251
 20
-15.6139438129
 10
-17.9134047181
 20
-15.5762496122
 10
-17.9105178734
 20
-15.5379069162
  0
LWPOLYLINE
  5
42D
100
AcDbEntity
  8
RACCORDO
100
AcDbPolyline
 62
250
  6
CONTINUOUS
 90
13
 70
0
 10
-18.2867725709
 20
-15.5754055599
 10
-18.247890781
 20
-15.5725585415
 10
-18.2096667835
 20
-15.564762614
 10
-18.1727470816
 20
-15.5521496934
 10
-18.1377560909
 20
-15.5349331575
 10
-18.1052856251
 20
-15.5134042562
 10
-18.0758848745
 20
-15.4879272005
 10
-18.0500510574
 20
-15.4589329568
 10
-18.0282210373
 20
-15.4269119521
 10
-18.0107639663
 20
-15.3924058155
 10
-17.9979750165
 20
-15.3559981836
 10
-17.9900703972
 20
-15.3183048232
 10
-17.9871837104
 20
-15.279963234
  0
LINE
  5
42E
100
AcDbEntity
  8
RACCORDO
100
AcDbLine
 62
250
  6
CONTINUOUS
 10
-18.718092448
 20
-15.0830016834
 11
-17.9958451632
 21
-15.0830016834
  0
LINE
  5
42F
100
AcDbEntity
  8
RACCORDO
100
AcDbLine
 62
250
  6
CONTINUOUS
 10
2.3839869731
 20
-15.0830016834
 11
3.1062342579
 21
-15.0830016834
  0
LWPOLYLINE
  5
430
100
AcDbEntity
  8
RACCORDO
100
AcDbPolyline
 62
250
  6
CONTINUOUS
 90
13
 70
0
 10
2.5982485437
 20
-15.8333492421
 10
2.5593679497
 20
-15.830502387
 10
2.5211449041
 20
-15.8227068761
 10
2.4842258746
 20
-15.8100945406
 10
2.4492352814
 20
-15.7928786817
 10
2.4167649227
 20
-15.7713504574
 10
2.3873639691
 20
-15.7458739538
 10
2.3615296934
 20
-15.7168800403
 10
2.3396990518
 20
-15.6848590838
 10
2.3222412841
 20
-15.6503526437
 10
2.3094516775
 20
-15.6139443236
 10
2.3015465692
 20
-15.576249903
 10
2.2986596833
 20
-15.5379069162
  0
LWPOLYLINE
  5
431
100
AcDbEntity
  8
RACCORDO
100
AcDbPolyline
 62
250
  6
CONTINUOUS
 90
13
 70
0
 10
2.6749143807
 20
-15.5754055599
 10
2.6360335448
 20
-15.5725586713
 10
2.5978103059
 20
-15.5647630755
 10
2.5608911388
 20
-15.5521506206
 10
2.5259004627
 20
-15.5349346226
 10
2.4934300796
 20
-15.5134062582
 10
2.4640291656
 20
-15.4879296396
 10
2.4381949825
 20
-15.4589356563
 10
2.4163644674
 20
-15.4269146877
 10
2.3989068428
 20
-15.3924083087
 10
2.386117372
 20
-15.3560001306
 10
2.378212365
 20
-15.31830593
 10
2.3753255203
 20
-15.279963234
  0
LWPOLYLINE
  5
432
100
AcDbEntity
  8
RACCORDO
100
AcDbPolyline
 62
7
  6
CONTINUOUS
 90
4
 70
0
 10
-17.4786387959
 20
-11.3674399256
 10
-17.5035565594
 20
-11.3607751375
 10
-17.5293199924
 20
-11.3566949724
 10
-17.5559290951
 20
-11.3551994303
  0
LWPOLYLINE
  5
433
100
AcDbEntity
  8
RACCORDO
100
AcDbPolyline
 62
7
  6
CONTINUOUS
 90
4
 70
0
 10
1.8667806058
 20
-16.3429709952
 10
1.8916983693
 20
-16.3496357833
 10
1.9174618023
 20
-16.3537159484
 10
1.9440709049
 20
-16.3552114905
  0
LINE
  5
434
100
AcDbEntity
  8
RACCORDO
100
AcDbLine
 62
250
  6
CONTINUOUS
 10
-16.1277146377
 20
-0.9276251271
 11
-16.0527703491
 21
-1.0560214043
  0
LINE
  5
435
100
AcDbEntity
  8
0
100
AcDbLine
 62
7
  6
CONTINUOUS
 10
-11.5183850951
 20
-1.7431984604
 11
-12.2474630951
 21
0.5565915396
  0
LINE
  5
436
100
AcDbEntity
  8
0
100
AcDbLine
 62
7
  6
CONTINUOUS
 10
-3.420659556
 20
-28.2552054604
 11
-4.0855279823
 21
-25.9552054604
  0
LWPOLYLINE
  5
437
100
AcDbEntity
  8
0
100
AcDbPolyline
 62
7
  6
CONTINUOUS
 90
10
 70
0
 10
-5.5934117325
 20
-26.3146797757
 10
-5.5869185079
 20
-26.3371855663
 10
-5.5808691419
 20
-26.3607062988
 10
-5.5752636347
 20
-26.3852419732
 10
-5.5700610689
 20
-26.4108111364
 10
-5.5653023619
 20
-26.4373952415
 10
-5.561110265
 20
-26.4649386476
 10
-5.5575256956
 20
-26.4934228076
 10
-5.5545077363
 20
-26.5228662685
 10
-5.5520563873
 20
-26.5532690303
  0
LINE
  5
438
100
AcDbEntity
  8
0
100
AcDbLine
 62
7
  6
CONTINUOUS
 10
-3.8628450056
 20
-27.6730477502
 11
-3.7006042143
 21
-28.2552054604
  0
LINE
  5
439
100
AcDbEntity
  8
0
100
AcDbLine
 62
7
  6
CONTINUOUS
 10
-11.7259740951
 20
0.5565915396
 11
-11.2875920951
 21
-1.0264254604
  0
LINE
  5
43A
100
AcDbEntity
  8
0
100
AcDbLine
 62
7
  6
CONTINUOUS
 10
-4.2604935308
 20
-26.206519415
 11
-3.9264687916
 21
-27.4567268779
  0
LWPOLYLINE
  5
43B
100
AcDbEntity
  8
0
100
AcDbPolyline
 62
7
  6
CONTINUOUS
 90
10
 70
0
 10
-6.7388123605
 20
-26.467395943
 10
-6.7439672526
 20
-26.4270996878
 10
-6.7499893391
 20
-26.3887150775
 10
-6.75687862
 20
-26.3522421121
 10
-6.764688307
 20
-26.3177557001
 10
-6.7733651885
 20
-26.285180933
 10
-6.7827496294
 20
-26.2542930853
 10
-6.7927884183
 20
-26.2250172484
 10
-6.8035347668
 20
-26.1974283309
 10
-6.8149886747
 20
-26.1715263327
  0
LWPOLYLINE
  5
43C
100
AcDbEntity
  8
0
100
AcDbPolyline
 62
7
  6
CONTINUOUS
 90
10
 70
0
 10
-7.8377286702
 20
-27.7081758308
 10
-7.8329884083
 20
-27.7507627668
 10
-7.8273196723
 20
-27.7913224434
 10
-7.8207224622
 20
-27.8298548607
 10
-7.8131254546
 20
-27.8663017583
 10
-7.804599973
 20
-27.9007213965
 10
-7.7953599871
 20
-27.9332885562
 10
-7.7854768202
 20
-27.9640614975
 10
-7.7748791491
 20
-27.9929819603
 10
-7.7635669737
 20
-28.0200499445
  0
LWPOLYLINE
  5
43D
100
AcDbEntity
  8
0
100
AcDbPolyline
 62
7
  6
CONTINUOUS
 90
10
 70
0
 10
-6.3998308331
 20
-27.7081758308
 10
-6.3950905712
 20
-27.7507627668
 10
-6.3894218352
 20
-27.7913224434
 10
-6.382824625
 20
-27.8298548607
 10
-6.3752276175
 20
-27.8663017583
 10
-6.3667021358
 20
-27.9007213965
 10
-6.3574621499
 20
-27.9332885562
 10
-6.3475789831
 20
-27.9640614975
 10
-6.3369813119
 20
-27.9929819603
 10
-6.3256691365
 20
-28.0200499445
  0
LINE
  5
43E
100
AcDbEntity
  8
0
100
AcDbLine
 62
7
  6
CONTINUOUS
 10
-7.3221270951
 20
0.5565915396
 11
-7.1070710951
 21
-1.7431984604
  0
LINE
  5
43F
100
AcDbEntity
  8
0
100
AcDbLine
 62
7
  6
CONTINUOUS
 10
-7.5766930951
 20
-1.7431984604
 11
-7.6753230951
 21
-0.2477394604
  0
LWPOLYLINE
  5
440
100
AcDbEntity
  8
0
100
AcDbPolyline
 62
7
  6
CONTINUOUS
 90
9
 70
0
 10
-6.143865209
 20
-27.6603303519
 10
-6.1459050358
 20
-27.6277205426
 10
-6.1476920112
 20
-27.5944230235
 10
-6.1492261352
 20
-27.5604377947
 10
-6.15050073
 20
-27.5257604286
 10
-6.1515224735
 20
-27.4903953528
 10
-6.1523113989
 20
-27.45435585
 10
-6.1528741842
 20
-27.417646348
 10
-6.1532041514
 20
-27.380262419
  0
LWPOLYLINE
  5
441
100
AcDbEntity
  8
0
100
AcDbPolyline
 62
7
  6
CONTINUOUS
 90
9
 70
0
 10
-5.5520563873
 20
-26.5532690303
 10
-5.5501202451
 20
-26.5842795998
 10
-5.5483976146
 20
-26.6167164109
 10
-5.5468884957
 20
-26.6505794636
 10
-5.5455856505
 20
-26.6858537995
 10
-5.5444963169
 20
-26.722554377
 10
-5.5436422092
 20
-26.7607260718
 10
-5.5430305654
 20
-26.8003838424
 10
-5.5426541474
 20
-26.8415127304
  0
LWPOLYLINE
  5
442
100
AcDbEntity
  8
0
100
AcDbPolyline
 62
7
  6
CONTINUOUS
 90
9
 70
0
 10
-6.4140740732
 20
-27.3523145674
 10
-6.4136323822
 20
-27.4022179948
 10
-6.4128334759
 20
-27.4505588846
 10
-6.411703565
 20
-27.4973229812
 10
-6.4102164387
 20
-27.5425245401
 10
-6.4082934656
 20
-27.5862063279
 10
-6.405908435
 20
-27.6283826
 10
-6.4030875575
 20
-27.669039101
 10
-6.3998308331
 20
-27.7081758308
  0
LWPOLYLINE
  5
443
100
AcDbEntity
  8
0
100
AcDbPolyline
 62
7
  6
CONTINUOUS
 90
10
 70
0
 10
-6.7195527216
 20
-26.8586632212
 10
-6.71977507
 20
-26.8118017364
 10
-6.720476352
 20
-26.7657452115
 10
-6.7216565677
 20
-26.7204936463
 10
-6.7233150916
 20
-26.6759912065
 10
-6.7254525491
 20
-26.6322937265
 10
-6.7280708171
 20
-26.5895687098
 10
-6.7311705211
 20
-26.5478719909
 10
-6.7347510356
 20
-26.5071477353
 10
-6.7388123605
 20
-26.467395943
  0
LINE
  5
444
100
AcDbEntity
  8
0
100
AcDbLine
 62
7
  6
CONTINUOUS
 10
-7.3262350951
 20
-5.0451994604
 11
-7.3262350951
 21
-2.7451984604
  0
LINE
  5
445
100
AcDbEntity
  8
0
100
AcDbLine
 62
7
  6
CONTINUOUS
 10
-7.0558340951
 20
-2.9615194604
 11
-7.0558340951
 21
-3.7504544604
  0
LINE
  5
446
100
AcDbEntity
  8
0
100
AcDbLine
 62
7
  6
CONTINUOUS
 10
-7.0558340951
 20
-3.9667764604
 11
-7.0558340951
 21
-4.8288784604
  0
LINE
  5
447
100
AcDbEntity
  8
0
100
AcDbLine
 62
7
  6
CONTINUOUS
 10
-6.9805517104
 20
-26.8415127304
 11
-6.9804105183
 21
-27.3453852525
  0
LINE
  5
448
100
AcDbEntity
  8
0
100
AcDbLine
 62
7
  6
CONTINUOUS
 10
-6.7195527216
 20
-27.2944862237
 11
-6.7195527216
 21
-26.8586632212
  0
LINE
  5
449
100
AcDbEntity
  8
0
100
AcDbLine
 62
7
  6
CONTINUOUS
 10
-6.4141585489
 20
-26.8713879784
 11
-6.4140740732
 21
-27.3523145674
  0
LINE
  5
44A
100
AcDbEntity
  8
0
100
AcDbLine
 62
7
  6
CONTINUOUS
 10
-6.3082550951
 20
-3.7504544604
 11
-6.3082550951
 21
-3.9667764604
  0
LINE
  5
44B
100
AcDbEntity
  8
0
100
AcDbLine
 62
7
  6
CONTINUOUS
 10
-6.2668990951
 20
-2.7451984604
 11
-6.2668990951
 21
-2.9615194604
  0
LINE
  5
44C
100
AcDbEntity
  8
0
100
AcDbLine
 62
7
  6
CONTINUOUS
 10
-6.2446310951
 20
-4.8288784604
 11
-6.2446310951
 21
-5.0451994604
  0
LINE
  5
44D
100
AcDbEntity
  8
0
100
AcDbLine
 62
7
  6
CONTINUOUS
 10
-6.1532041514
 20
-27.380262419
 11
-6.1533013006
 21
-26.8841127356
  0
LWPOLYLINE
  5
44E
100
AcDbEntity
  8
0
100
AcDbPolyline
 62
7
  6
CONTINUOUS
 90
10
 70
0
 10
-7.5911988636
 20
-26.8841127356
 10
-7.5910576715
 20
-26.8415127304
 10
-7.5906812535
 20
-26.8003838424
 10
-7.5900696097
 20
-26.7607260718
 10
-7.589215502
 20
-26.722554377
 10
-7.5881261684
 20
-26.6858537995
 10
-7.5868233232
 20
-26.6505794636
 10
-7.5853142043
 20
-26.6167164109
 10
-7.5835915738
 20
-26.5842795998
 10
-7.5816554316
 20
-26.5532690303
  0
LWPOLYLINE
  5
44F
100
AcDbEntity
  8
0
100
AcDbPolyline
 62
7
  6
CONTINUOUS
 90
10
 70
0
 10
-6.1533013006
 20
-26.8841127356
 10
-6.1531601085
 20
-26.8415127304
 10
-6.1527836905
 20
-26.8003838424
 10
-6.1521720467
 20
-26.7607260718
 10
-6.151317939
 20
-26.722554377
 10
-6.1502286054
 20
-26.6858537995
 10
-6.1489257602
 20
-26.6505794636
 10
-6.1474166413
 20
-26.6167164109
 10
-6.1456940108
 20
-26.5842795998
 10
-6.1437578686
 20
-26.5532690303
  0
LWPOLYLINE
  5
450
100
AcDbEntity
  8
0
100
AcDbPolyline
 62
7
  6
CONTINUOUS
 90
10
 70
0
 10
-6.9804105183
 20
-27.3453852525
 10
-6.9805529841
 20
-27.3868792872
 10
-6.9809279451
 20
-27.4269139468
 10
-6.9815354012
 20
-27.4654892312
 10
-6.9823833501
 20
-27.5025903796
 10
-6.9834637941
 20
-27.5382321527
 10
-6.9847527406
 20
-27.5724588338
 10
-6.9862421918
 20
-27.6052851837
 10
-6.9879401455
 20
-27.6366964414
 10
-6.9898466015
 20
-27.666692607
  0
LWPOLYLINE
  5
451
100
AcDbEntity
  8
0
100
AcDbPolyline
 62
7
  6
CONTINUOUS
 90
10
 70
0
 10
-7.5816554316
 20
-26.5532690303
 10
-7.579120436
 20
-26.5202515605
 10
-7.5761024472
 20
-26.4888911398
 10
-7.5726014653
 20
-26.4591877684
 10
-7.5686067118
 20
-26.4311983678
 10
-7.5641289652
 20
-26.4048660165
 10
-7.5592005604
 20
-26.3800199497
 10
-7.553832276
 20
-26.3566032458
 10
-7.5480133334
 20
-26.3346728266
 10
-7.5417437327
 20
-26.3142286918
  0
LWPOLYLINE
  5
452
100
AcDbEntity
  8
0
100
AcDbPolyline
 62
7
  6
CONTINUOUS
 90
10
 70
0
 10
-8.4277444375
 20
-27.6666925888
 10
-8.4303665814
 20
-27.6981002346
 10
-8.4335442222
 20
-27.7280808614
 10
-8.4372773599
 20
-27.7566344691
 10
-8.4415919597
 20
-27.7836269475
 10
-8.4464620564
 20
-27.809192407
 10
-8.4518097545
 20
-27.8337331778
 10
-8.457609089
 20
-27.8573833703
 10
-8.4638860249
 20
-27.8800088741
 10
-8.4706405622
 20
-27.9016096894
  0
LWPOLYLINE
  5
453
100
AcDbEntity
  8
0
100
AcDbPolyline
 62
7
  6
CONTINUOUS
 90
10
 70
0
 10
-6.9898466015
 20
-27.666692607
 10
-6.9924687627
 20
-27.6981003987
 10
-6.9956464215
 20
-27.728081133
 10
-6.999379578
 20
-27.7566348101
 10
-7.0036941984
 20
-27.7836273165
 10
-7.0085643165
 20
-27.8091927657
 10
-7.013912033
 20
-27.8337334976
 10
-7.0197113816
 20
-27.8573836257
 10
-7.0259883287
 20
-27.8800090365
 10
-7.0327428743
 20
-27.90160973
  0
LWPOLYLINE
  5
454
100
AcDbEntity
  8
0
100
AcDbPolyline
 62
7
  6
CONTINUOUS
 90
10
 70
0
 10
-8.174934739
 20
-27.7015435239
 10
-8.1715051944
 20
-27.6624333571
 10
-8.1684280502
 20
-27.6218054663
 10
-8.1657033063
 20
-27.5796598514
 10
-8.1633052107
 20
-27.5360123542
 10
-8.1612595155
 20
-27.4908471329
 10
-8.159643477
 20
-27.4441166618
 10
-8.1584828475
 20
-27.3958050989
 10
-8.1577518747
 20
-27.3459282862
 10
-8.1574505588
 20
-27.2944862237
  0
LWPOLYLINE
  5
455
100
AcDbEntity
  8
0
100
AcDbPolyline
 62
7
  6
CONTINUOUS
 90
10
 70
0
 10
-7.8329692503
 20
-26.4801016947
 10
-7.8370088394
 20
-26.5202413427
 10
-7.8405660824
 20
-26.5612266376
 10
-7.8436409795
 20
-26.6030575794
 10
-7.8462300012
 20
-26.6457494951
 10
-7.8483366769
 20
-26.6892870577
 10
-7.8499715945
 20
-26.7336242855
 10
-7.8511382832
 20
-26.7787458513
 10
-7.8518332137
 20
-26.8246670823
 10
-7.8520563861
 20
-26.8713879784
  0
LWPOLYLINE
  5
456
100
AcDbEntity
  8
0
100
AcDbPolyline
 62
7
  6
CONTINUOUS
 90
10
 70
0
 10
-11.3541450237
 20
-26.7315225966
 10
-11.3606010843
 20
-26.7529160432
 10
-11.3675884867
 20
-26.7728254186
 10
-11.3751072309
 20
-26.7912507225
 10
-11.3832049998
 20
-26.8081336603
 10
-11.3918341104
 20
-26.8235325267
 10
-11.4008515145
 20
-26.8376222064
 10
-11.4102095292
 20
-26.8504609943
 10
-11.4199558374
 20
-26.8619905954
 10
-11.4300904389
 20
-26.8722110099
  0
LINE
  5
457
100
AcDbEntity
  8
RACCORDO
100
AcDbLine
 62
250
  6
CONTINUOUS
 10
0.5158566344
 20
-0.927624808
 11
0.440912241
 21
-1.0560212763
  0
LWPOLYLINE
  5
458
100
AcDbEntity
  8
RACCORDO
100
AcDbPolyline
 62
250
  6
CONTINUOUS
 90
16
 70
0
 10
-17.3900186594
 20
-25.6582851448
 10
-17.3945413912
 20
-25.6624717914
 10
-17.3988832162
 20
-25.670666966
 10
-17.4030441345
 20
-25.682702285
 10
-17.4070469685
 20
-25.6983125069
 10
-17.4108688958
 20
-25.7173017635
 10
-17.414441449
 20
-25.7396700298
 10
-17.4177734061
 20
-25.7652874561
 10
-17.4208559893
 20
-25.7938908433
 10
-17.4235943969
 20
-25.825375877
 10
-17.425987159
 20
-25.8595504386
 10
-17.4280357456
 20
-25.8960594535
 10
-17.4296497657
 20
-25.9345282553
 10
-17.4307990891
 20
-25.974567454
 10
-17.431513846
 20
-26.0157819278
 10
-17.4317940364
 20
-26.0577369587
  0
LWPOLYLINE
  5
459
100
AcDbEntity
  8
RACCORDO
100
AcDbPolyline
 62
7
  6
CONTINUOUS
 90
4
 70
0
 10
1.8667806408
 20
-11.3674399142
 10
1.8424576595
 20
-11.3768178234
 10
1.8189803479
 20
-11.3887803524
 10
1.7971014036
 20
-11.4029419759
  0
LWPOLYLINE
  5
45A
100
AcDbEntity
  8
RACCORDO
100
AcDbPolyline
 62
250
  6
CONTINUOUS
 90
13
 70
0
 10
2.6749143807
 20
-12.1350053609
 10
2.6360325909
 20
-12.1378523793
 10
2.5978085934
 20
-12.1456483068
 10
2.5608888914
 20
-12.1582612274
 10
2.5258979008
 20
-12.1754777633
 10
2.4934274349
 20
-12.1970066646
 10
2.4640266844
 20
-12.2224837203
 10
2.4381928673
 20
-12.251477964
 10
2.4163628472
 20
-12.2834989687
 10
2.3989057762
 20
-12.3180051053
 10
2.3861168263
 20
-12.3544127372
 10
2.3782122071
 20
-12.3921060976
 10
2.3753255203
 20
-12.4304476868
  0
LWPOLYLINE
  5
45B
100
AcDbEntity
  8
RACCORDO
100
AcDbPolyline
 62
250
  6
CONTINUOUS
 90
13
 70
0
 10
2.5982485437
 20
-11.8770616787
 10
2.5593677078
 20
-11.8799085673
 10
2.5211444688
 20
-11.887704163
 10
2.4842253018
 20
-11.900316618
 10
2.4492346256
 20
-11.917532616
 10
2.4167642425
 20
-11.9390609804
 10
2.3873633286
 20
-11.964537599
 10
2.3615291455
 20
-11.9935315823
 10
2.3396986304
 20
-12.0255525509
 10
2.3222410058
 20
-12.0600589299
 10
2.309451535
 20
-12.0964671079
 10
2.301546528
 20
-12.1341613086
 10
2.2986596833
 20
-12.1725040046
  0
LWPOLYLINE
  5
45C
100
AcDbEntity
  8
RACCORDO
100
AcDbPolyline
 62
7
  6
CONTINUOUS
 90
4
 70
0
 10
1.9440709049
 20
-11.3551994303
 10
1.9174618139
 20
-11.3566949718
 10
1.8916983925
 20
-11.3607751331
 10
1.8667806408
 20
-11.3674399142
  0
LINE
  5
45D
100
AcDbEntity
  8
RACCORDO
100
AcDbLine
 62
250
  6
CONTINUOUS
 10
3.1062342579
 20
-12.6274092374
 11
2.3839869731
 21
-12.6274092374
  0
LINE
  5
45E
100
AcDbEntity
  8
RACCORDO
100
AcDbLine
 62
250
  6
CONTINUOUS
 10
-17.9958451632
 20
-12.6274092374
 11
-18.718092448
 21
-12.6274092374
  0
LINE
  5
45F
100
AcDbEntity
  8
RACCORDO
100
AcDbLine
 62
250
  6
CONTINUOUS
 10
3.1170536499
 20
-12.1350053609
 11
2.6749143807
 21
-12.1350053609
  0
LINE
  5
460
100
AcDbEntity
  8
RACCORDO
100
AcDbLine
 62
250
  6
CONTINUOUS
 10
-18.2867725709
 20
-12.1350053609
 11
-18.72891184
 21
-12.1350053609
  0
LINE
  5
461
100
AcDbEntity
  8
RACCORDO
100
AcDbLine
 62
250
  6
CONTINUOUS
 10
3.1553602834
 20
-11.8770616787
 11
2.5982485437
 21
-11.8770616787
  0
LINE
  5
462
100
AcDbEntity
  8
RACCORDO
100
AcDbLine
 62
250
  6
CONTINUOUS
 10
-18.2101067338
 20
-11.8770616787
 11
-18.7672184735
 21
-11.8770616787
  0
LINE
  5
463
100
AcDbEntity
  8
RACCORDO
100
AcDbLine
 62
250
  6
CONTINUOUS
 10
3.158606101
 20
-11.7293405157
 11
2.5787602749
 21
-11.7293405157
  0
LINE
  5
464
100
AcDbEntity
  8
RACCORDO
100
AcDbLine
 62
250
  6
CONTINUOUS
 10
-18.1906184651
 20
-11.7293405157
 11
-18.7704642911
 21
-11.7293405157
  0
LWPOLYLINE
  5
465
100
AcDbEntity
  8
RACCORDO
100
AcDbPolyline
 62
250
  6
CONTINUOUS
 90
13
 70
0
 10
-18.2867725709
 20
-12.1350053609
 10
-18.2478917349
 20
-12.1378522495
 10
-18.209668496
 20
-12.1456478453
 10
-18.1727493289
 20
-12.1582603002
 10
-18.1377586528
 20
-12.1754762982
 10
-18.1052882697
 20
-12.1970046626
 10
-18.0758873557
 20
-12.2224812812
 10
-18.0500531726
 20
-12.2514752645
 10
-18.0282226575
 20
-12.2834962331
 10
-18.010765033
 20
-12.3180026121
 10
-17.9979755621
 20
-12.3544107902
 10
-17.9900705551
 20
-12.3921049908
 10
-17.9871837104
 20
-12.4304476868
  0
LWPOLYLINE
  5
466
100
AcDbEntity
  8
RACCORDO
100
AcDbPolyline
 62
250
  6
CONTINUOUS
 90
13
 70
0
 10
-18.2101067338
 20
-11.8770616787
 10
-18.1712261398
 20
-11.8799085338
 10
-18.1330030942
 20
-11.8877040447
 10
-18.0960840648
 20
-11.9003163802
 10
-18.0610934715
 20
-11.9175322391
 10
-18.0286231128
 20
-11.9390604634
 10
-17.9992221592
 20
-11.9645369671
 10
-17.9733878835
 20
-11.9935308805
 10
-17.9515572419
 20
-12.025551837
 10
-17.9340994742
 20
-12.0600582771
 10
-17.9213098677
 20
-12.0964665972
 10
-17.9134047593
 20
-12.1341610178
 10
-17.9105178734
 20
-12.1725040046
  0
LINE
  5
467
100
AcDbEntity
  8
RACCORDO
100
AcDbLine
 62
250
  6
CONTINUOUS
 10
0.5158564475
 20
-26.7827857937
 11
0.440912159
 21
-26.6543895165
  0
LWPOLYLINE
  5
468
100
AcDbEntity
  8
0
100
AcDbPolyline
 62
7
  6
CONTINUOUS
 90
10
 70
0
 10
-5.3009147975
 20
-26.467395943
 10
-5.3060696896
 20
-26.4270996878
 10
-5.3120917761
 20
-26.3887150775
 10
-5.318981057
 20
-26.3522421121
 10
-5.326790744
 20
-26.3177557001
 10
-5.3354676255
 20
-26.285180933
 10
-5.3448520664
 20
-26.2542930853
 10
-5.3548908553
 20
-26.2250172484
 10
-5.3656372038
 20
-26.1974283309
 10
-5.3770911118
 20
-26.1715263327
  0
LWPOLYLINE
  5
469
100
AcDbEntity
  8
0
100
AcDbPolyline
 62
7
  6
CONTINUOUS
 90
10
 70
0
 10
-5.2816551586
 20
-26.8586632212
 10
-5.281877507
 20
-26.8118017364
 10
-5.282578789
 20
-26.7657452115
 10
-5.2837590048
 20
-26.7204936463
 10
-5.2854175286
 20
-26.6759912065
 10
-5.2875549861
 20
-26.6322937265
 10
-5.2901732541
 20
-26.5895687098
 10
-5.2932729581
 20
-26.5478719909
 10
-5.2968534726
 20
-26.5071477353
 10
-5.3009147975
 20
-26.467395943
  0
LINE
  5
46A
100
AcDbEntity
  8
0
100
AcDbLine
 62
7
  6
CONTINUOUS
 10
-5.5426541474
 20
-26.8415127304
 11
-5.5425129553
 21
-27.3453852525
  0
LINE
  5
46B
100
AcDbEntity
  8
0
100
AcDbLine
 62
7
  6
CONTINUOUS
 10
-5.2816551586
 20
-27.2944862237
 11
-5.2816551586
 21
-26.8586632212
  0
LINE
  5
46C
100
AcDbEntity
  8
0
100
AcDbLine
 62
7
  6
CONTINUOUS
 10
-4.999331513
 20
-1.743198294
 11
-4.999331513
 21
0.5297221861
  0
LINE
  5
46D
100
AcDbEntity
  8
0
100
AcDbLine
 62
7
  6
CONTINUOUS
 10
-4.5371247389
 20
0.1647994094
 11
-4.5371247389
 21
-0.4665376894
  0
LINE
  5
46E
100
AcDbEntity
  8
0
100
AcDbLine
 62
7
  6
CONTINUOUS
 10
-4.5212067936
 20
-0.8431876631
 11
-4.5212067936
 21
-1.743198294
  0
LINE
  5
46F
100
AcDbEntity
  8
0
100
AcDbLine
 62
7
  6
CONTINUOUS
 10
-3.7651302598
 20
-0.6560871336
 11
-3.7651302598
 21
-0.6696768854
  0
LWPOLYLINE
  5
470
100
AcDbEntity
  8
0
100
AcDbPolyline
 62
7
  6
CONTINUOUS
 90
10
 70
0
 10
-5.5425129553
 20
-27.3453852525
 10
-5.5426554211
 20
-27.3868792872
 10
-5.5430303821
 20
-27.4269139468
 10
-5.5436378382
 20
-27.4654892312
 10
-5.5444857871
 20
-27.5025903796
 10
-5.5455662311
 20
-27.5382321527
 10
-5.5468551776
 20
-27.5724588338
 10
-5.5483446288
 20
-27.6052851837
 10
-5.5500425825
 20
-27.6366964414
 10
-5.5519490386
 20
-27.666692607
  0
LWPOLYLINE
  5
471
100
AcDbEntity
  8
0
100
AcDbPolyline
 62
7
  6
CONTINUOUS
 90
10
 70
0
 10
-6.1437578686
 20
-26.5532690303
 10
-6.141222873
 20
-26.5202515605
 10
-6.1382048842
 20
-26.4888911398
 10
-6.1347039023
 20
-26.4591877684
 10
-6.1307091488
 20
-26.4311983678
 10
-6.1262314022
 20
-26.4048660165
 10
-6.1213029975
 20
-26.3800199497
 10
-6.115934713
 20
-26.3566032458
 10
-6.1101157704
 20
-26.3346728266
 10
-6.1038461697
 20
-26.3142286918
  0
LWPOLYLINE
  5
472
100
AcDbEntity
  8
0
100
AcDbPolyline
 62
7
  6
CONTINUOUS
 90
10
 70
0
 10
-5.5519490386
 20
-27.666692607
 10
-5.5545711998
 20
-27.6981003987
 10
-5.5577488586
 20
-27.728081133
 10
-5.561482015
 20
-27.7566348101
 10
-5.5657966354
 20
-27.7836273165
 10
-5.5706667535
 20
-27.8091927657
 10
-5.57601447
 20
-27.8337334976
 10
-5.5818138187
 20
-27.8573836257
 10
-5.5880907658
 20
-27.8800090365
 10
-5.5948453113
 20
-27.90160973
  0
LWPOLYLINE
  5
473
100
AcDbEntity
  8
0
100
AcDbPolyline
 62
7
  6
CONTINUOUS
 90
10
 70
0
 10
-6.737037176
 20
-27.7015435239
 10
-6.7336076173
 20
-27.6624333749
 10
-6.7305304514
 20
-27.621805496
 10
-6.7278056782
 20
-27.5796598873
 10
-6.725407541
 20
-27.5360123889
 10
-6.7233617966
 20
-27.4908471607
 10
-6.7217457154
 20
-27.4441166821
 10
-6.7205850543
 20
-27.395805113
 10
-6.7198540563
 20
-27.3459282935
 10
-6.7195527216
 20
-27.2944862237
  0
LWPOLYLINE
  5
474
100
AcDbEntity
  8
0
100
AcDbPolyline
 62
7
  6
CONTINUOUS
 90
10
 70
0
 10
-5.2991393375
 20
-27.7015435059
 10
-5.2957098562
 20
-27.6624333813
 10
-5.2926327544
 20
-27.6218055198
 10
-5.2899080321
 20
-27.5796599215
 10
-5.2875099303
 20
-27.5360124246
 10
-5.285464208
 20
-27.4908471908
 10
-5.283848142
 20
-27.4441167053
 10
-5.2826874912
 20
-27.3958051298
 10
-5.2819564968
 20
-27.3459283026
 10
-5.2816551586
 20
-27.2944862237
  0
LWPOLYLINE
  5
475
100
AcDbEntity
  8
0
100
AcDbPolyline
 62
7
  6
CONTINUOUS
 90
10
 70
0
 10
-6.3950716873
 20
-26.4801016947
 10
-6.3991112201
 20
-26.520240795
 10
-6.4026684145
 20
-26.5612257226
 10
-6.4057432707
 20
-26.6030564775
 10
-6.4083322609
 20
-26.645748445
 10
-6.4104389128
 20
-26.6892862398
 10
-6.4120738093
 20
-26.7336237061
 10
-6.4132404779
 20
-26.7787454587
 10
-6.4139353911
 20
-26.8246668828
 10
-6.4141585489
 20
-26.8713879784
  0
LINE
  5
476
100
AcDbEntity
  8
RACCORDO
100
AcDbLine
 62
250
  6
CONTINUOUS
 10
2.7094788584
 20
12.3664178163
 11
2.7278090035
 21
12.4276598808
  0
LINE
  5
477
100
AcDbEntity
  8
RACCORDO
100
AcDbLine
 62
250
  6
CONTINUOUS
 10
3.158606101
 20
11.9157294732
 11
3.1769362461
 21
11.9769715377
  0
LWPOLYLINE
  5
478
100
AcDbEntity
  8
0
100
AcDbPolyline
 62
7
  6
CONTINUOUS
 90
10
 70
0
 10
-8.9796414224
 20
-26.3142286569
 10
-8.9714230147
 20
-26.29154645
 10
-8.9626043219
 20
-26.2705150223
 10
-8.9531853438
 20
-26.2511343737
 10
-8.9430965431
 20
-26.2334478981
 10
-8.9324074572
 20
-26.2174122016
 10
-8.9213266981
 20
-26.2028971027
 10
-8.9099238033
 20
-26.1898592075
 10
-8.8981292354
 20
-26.1783419098
 10
-8.8859429943
 20
-26.1683452097
  0
LWPOLYLINE
  5
479
100
AcDbEntity
  8
RACCORDO
100
AcDbPolyline
 62
250
  6
CONTINUOUS
 90
20
 70
0
 10
1.2197485325
 20
-2.0576123477
 10
1.2205700008
 20
-2.0555459747
 10
1.22135438
 20
-2.0535243456
 10
1.2221003894
 20
-2.0515499431
 10
1.2228082172
 20
-2.0496068298
 10
1.2234775597
 20
-2.0476945555
 10
1.2241076935
 20
-2.0458141646
 10
1.2246991112
 20
-2.0439517771
 10
1.2252518014
 20
-2.0421103366
 10
1.2257655298
 20
-2.0402873225
 10
1.2262415603
 20
-2.0384605035
 10
1.2266827401
 20
-2.0366260098
 10
1.2270874744
 20
-2.0347879792
 10
1.2274514394
 20
-2.032936091
 10
1.2277762364
 20
-2.0310597274
 10
1.2280625249
 20
-2.0291698022
 10
1.2283042985
 20
-2.0272883285
 10
1.2284994902
 20
-2.0254228204
 10
1.2286507278
 20
-2.0235662516
 10
1.2287583661
 20
-2.0217188747
  0
LINE
  5
47A
100
AcDbEntity
  8
RACCORDO
100
AcDbLine
 62
250
  6
CONTINUOUS
 10
1.217996913
 20
-2.0619057713
 11
1.2197485325
 21
-2.0576123477
  0
LWPOLYLINE
  5
47B
100
AcDbEntity
  8
RACCORDO
100
AcDbPolyline
 62
250
  6
CONTINUOUS
 90
3
 70
0
 10
1.2141000037
 20
-2.0713679461
 10
1.2161080416
 20
-2.066462983
 10
1.217996913
 20
-2.0619057713
  0
LWPOLYLINE
  5
47C
100
AcDbEntity
  8
0
100
AcDbPolyline
 62
7
  6
CONTINUOUS
 90
10
 70
0
 10
-9.1945182701
 20
-26.1778887113
 10
-9.2059493004
 20
-26.2038527387
 10
-9.2166831294
 20
-26.2316784266
 10
-9.2267197572
 20
-26.2613657751
 10
-9.2361122019
 20
-26.2928586004
 10
-9.2448074453
 20
-26.3262130863
 10
-9.2526464335
 20
-26.3615977836
 10
-9.2595761486
 20
-26.3990688759
 10
-9.2656496085
 20
-26.4385701796
 10
-9.2708668133
 20
-26.4801016947
  0
LWPOLYLINE
  5
47D
100
AcDbEntity
  8
0
100
AcDbPolyline
 62
7
  6
CONTINUOUS
 90
10
 70
0
 10
-11.1382250687
 20
-26.8554820319
 10
-11.1296347085
 20
-26.8376784996
 10
-11.1216548256
 20
-26.8197155563
 10
-11.1142854199
 20
-26.8015932022
 10
-11.107550884
 20
-26.7834168489
 10
-11.1014268253
 20
-26.7650810848
 10
-11.0958400667
 20
-26.7462696746
 10
-11.0907662158
 20
-26.7268772069
 10
-11.0862296651
 20
-26.7070090932
 10
-11.0822304144
 20
-26.6866653335
  0
LWPOLYLINE
  5
47E
100
AcDbEntity
  8
0
100
AcDbPolyline
 62
7
  6
CONTINUOUS
 90
10
 70
0
 10
-11.8476303851
 20
-26.2319689294
 10
-11.8393144528
 20
-26.2196555441
 10
-11.8306153881
 20
-26.2081436671
 10
-11.8215331912
 20
-26.1974332985
 10
-11.8120840527
 20
-26.1875520214
 10
-11.8022517819
 20
-26.1784722527
 10
-11.7919878066
 20
-26.1701112426
 10
-11.781275936
 20
-26.1624414079
 10
-11.7701323609
 20
-26.1554903319
 10
-11.7585570813
 20
-26.1492580145
  0
LWPOLYLINE
  5
47F
100
AcDbEntity
  8
RACCORDO
100
AcDbPolyline
 62
7
  6
CONTINUOUS
 90
19
 70
0
 10
-16.9861892023
 20
-25.515138454
 10
-16.9833522818
 20
-25.5129171562
 10
-16.9813308078
 20
-25.5085543516
 10
-16.9801247804
 20
-25.5021752049
 10
-16.9795883178
 20
-25.4938649537
 10
-16.9798673018
 20
-25.4838150812
 10
-16.9813993778
 20
-25.4724313443
 10
-16.9841636717
 20
-25.4601163597
 10
-16.9881810577
 20
-25.4470031141
 10
-16.9939518034
 20
-25.4331304403
 10
-17.0015060609
 20
-25.418507743
 10
-17.0108136782
 20
-25.4034520372
 10
-17.0222844667
 20
-25.3884487672
 10
-17.0361340106
 20
-25.3735309946
 10
-17.0521467258
 20
-25.3589837822
 10
-17.0700856715
 20
-25.345719489
 10
-17.0898718677
 20
-25.3341215639
 10
-17.1115842944
 20
-25.3240049308
 10
-17.1352229517
 20
-25.3154125471
  0
LINE
  5
480
100
AcDbEntity
  8
DRAFT
100
AcDbLine
 62
7
  6
CONTINUOUS
 10
-17.7555864494
 20
-25.5052054604
 11
-17.9059290951
 21
-25.6178821859
  0
LWPOLYLINE
  5
481
100
AcDbEntity
  8
RACCORDO
100
AcDbPolyline
 62
7
  6
CONTINUOUS
 90
4
 70
0
 10
1.7971013326
 20
-16.3074688934
 10
1.8189802849
 20
-16.3216305298
 10
1.8424576105
 20
-16.333593074
 10
1.8667806058
 20
-16.3429709952
  0
LINE
  5
482
100
AcDbEntity
  8
DRAFT
100
AcDbLine
 62
7
  6
CONTINUOUS
 10
-17.7555864494
 20
-2.2052054604
 11
-17.9059290951
 21
-2.0925287349
  0
LWPOLYLINE
  5
483
100
AcDbEntity
  8
RACCORDO
100
AcDbPolyline
 62
250
  6
CONTINUOUS
 90
50
 70
0
 10
1.2179887182
 20
-25.6484852065
 10
1.2151058157
 20
-25.6415113427
 10
1.2140866639
 20
-25.6390098614
 10
1.2130439012
 20
-25.6364148913
 10
1.2119856662
 20
-25.6336853233
 10
1.2109126744
 20
-25.6308224391
 10
1.2098349231
 20
-25.6278298873
 10
1.2087785982
 20
-25.6246718336
 10
1.2077456974
 20
-25.6213457339
 10
1.2067510099
 20
-25.6178630406
 10
1.2058441204
 20
-25.6142111817
 10
1.2050327741
 20
-25.6103781497
 10
1.2043321927
 20
-25.6063907333
 10
1.203803905
 20
-25.6022957797
 10
1.2034662312
 20
-25.5980819153
 10
1.2033227674
 20
-25.5937794263
 10
1.2034053203
 20
-25.5894942603
 10
1.2037287846
 20
-25.5852431764
 10
1.2042858429
 20
-25.5810235764
 10
1.2050634744
 20
-25.5769052633
 10
1.2060609762
 20
-25.5729083914
 10
1.2072752908
 20
-25.5690201629
 10
1.2086834901
 20
-25.5652560659
 10
1.2102830321
 20
-25.5616188009
 10
1.2120703081
 20
-25.5581109662
 10
1.2140182237
 20
-25.5547452824
 10
1.2161216887
 20
-25.5515237397
 10
1.2183770793
 20
-25.5484461687
 10
1.2207575232
 20
-25.5455194125
 10
1.2232542906
 20
-25.5427459289
 10
1.2258660778
 20
-25.5401216706
 10
1.2285764921
 20
-25.5376423517
 10
1.2313740368
 20
-25.5353106582
 10
1.2342608981
 20
-25.5331211572
 10
1.2372422927
 20
-25.5310588756
 10
1.2403095382
 20
-25.5291251673
 10
1.2434644386
 20
-25.5273188016
 10
1.2467300036
 20
-25.5256251828
 10
1.2501018415
 20
-25.5240459397
 10
1.2535795888
 20
-25.5225847233
 10
1.2571941095
 20
-25.521235245
 10
1.2609429495
 20
-25.5200010378
 10
1.2648244725
 20
-25.5188892513
 10
1.2688717298
 20
-25.5179038085
 10
1.2730943568
 20
-25.5170483581
 10
1.277477751
 20
-25.5163352855
 10
1.2820181873
 20
-25.5157816391
 10
1.2867116547
 20
-25.5153957347
 10
1.291554191
 20
-25.5151795702
 10
1.2965413721
 20
-25.515138454
  0
LINE
  5
484
100
AcDbEntity
  8
0
100
AcDbLine
 62
7
  6
CONTINUOUS
 10
-8.3134370951
 20
-1.7431984604
 11
-8.8766010951
 21
-0.2414794604
  0
LINE
  5
485
100
AcDbEntity
  8
0
100
AcDbLine
 62
7
  6
CONTINUOUS
 10
-8.1671180951
 20
-5.0451994604
 11
-8.9401470951
 21
-2.9774254604
  0
LINE
  5
486
100
AcDbEntity
  8
0
100
AcDbLine
 62
7
  6
CONTINUOUS
 10
-8.7715440951
 20
-2.7451984604
 11
-7.9985150951
 21
-4.8129724604
  0
LINE
  5
487
100
AcDbEntity
  8
RACCORDO
100
AcDbLine
 62
250
  6
CONTINUOUS
 10
2.7094788584
 20
-40.0768287371
 11
2.7278090035
 21
-40.1380708016
  0
LINE
  5
488
100
AcDbEntity
  8
RACCORDO
100
AcDbLine
 62
250
  6
CONTINUOUS
 10
3.158606101
 20
-39.626140394
 11
3.1769362461
 21
-39.6873824585
  0
LWPOLYLINE
  5
489
100
AcDbEntity
  8
0
100
AcDbPolyline
 62
7
  6
CONTINUOUS
 90
13
 70
0
 10
-3.8898696948
 20
-0.1091513613
 10
-3.8929122765
 20
-0.0735021808
 10
-3.8997746529
 20
-0.0393362893
 10
-3.9104568238
 20
-0.0066536871
 10
-3.9251186383
 20
0.0250126299
 10
-3.9436002475
 20
0.0551956578
 10
-3.9654221046
 20
0.0824943844
 10
-3.9905908602
 20
0.1066113232
 10
-4.0190998636
 20
0.1278439607
 10
-4.0504496171
 20
0.1456837448
 10
-4.0844736212
 20
0.1599611579
 10
-4.1213383752
 20
0.1708457174
 10
-4.1610438792
 20
0.1783374235
  0
LINE
  5
48A
100
AcDbEntity
  8
RACCORDO
100
AcDbLine
 62
7
  6
CONTINUOUS
 10
-2.5559290951
 20
-28.6552054604
 11
-2.5559290951
 21
-25.6552054604
  0
LINE
  5
48B
100
AcDbEntity
  8
RACCORDO
100
AcDbLine
 62
7
  6
CONTINUOUS
 10
-2.5559290951
 20
-5.1552054604
 11
-2.5559290951
 21
0.8447945396
  0
LINE
  5
48C
100
AcDbEntity
  8
0
100
AcDbLine
 62
7
  6
CONTINUOUS
 10
-2.0559290951
 20
-19.6052054604
 11
-2.0559290951
 21
-8.1052054604
  0
LWPOLYLINE
  5
48D
100
AcDbEntity
  8
0
100
AcDbPolyline
 62
7
  6
CONTINUOUS
 90
10
 70
0
 10
-7.5417437327
 20
-26.3142286918
 10
-7.5335253018
 20
-26.2915464718
 10
-7.5247065979
 20
-26.2705150348
 10
-7.5152876211
 20
-26.2511343806
 10
-7.5051988397
 20
-26.2334479029
 10
-7.4945097853
 20
-26.2174122081
 10
-7.4834290527
 20
-26.2028971161
 10
-7.4720261735
 20
-26.1898592333
 10
-7.460231616
 20
-26.1783419533
 10
-7.4480453803
 20
-26.1683452759
  0
LWPOLYLINE
  5
48E
100
AcDbEntity
  8
0
100
AcDbPolyline
 62
7
  6
CONTINUOUS
 90
10
 70
0
 10
-6.1038461697
 20
-26.3142286918
 10
-6.0956277388
 20
-26.2915464718
 10
-6.0868090349
 20
-26.2705150348
 10
-6.0773900581
 20
-26.2511343806
 10
-6.0673012767
 20
-26.2334479029
 10
-6.0566122223
 20
-26.2174122081
 10
-6.0455314897
 20
-26.2028971161
 10
-6.0341286105
 20
-26.1898592333
 10
-6.022334053
 20
-26.1783419533
 10
-6.0101478173
 20
-26.1683452759
  0
LWPOLYLINE
  5
48F
100
AcDbEntity
  8
0
100
AcDbPolyline
 62
7
  6
CONTINUOUS
 90
10
 70
0
 10
-8.4706405622
 20
-27.9016096894
 10
-8.47890934
 20
-27.9241827752
 10
-8.4876997938
 20
-27.9450019008
 10
-8.4970119237
 20
-27.9640670662
 10
-8.5069110947
 20
-27.981273076
 10
-8.5173319417
 20
-27.9967251255
 10
-8.5280783695
 20
-28.0107388013
 10
-8.5390850132
 20
-28.0234192988
 10
-8.5504172376
 20
-28.0346614224
 10
-8.562075043
 20
-28.0444651723
  0
LWPOLYLINE
  5
490
100
AcDbEntity
  8
0
100
AcDbPolyline
 62
7
  6
CONTINUOUS
 90
10
 70
0
 10
-7.0327428743
 20
-27.90160973
 10
-7.0410116753
 20
-27.9241828206
 10
-7.0498021413
 20
-27.9450019516
 10
-7.0591142722
 20
-27.964067123
 10
-7.0690134317
 20
-27.9812731431
 10
-7.0794342561
 20
-27.9967252036
 10
-7.0901806548
 20
-28.0107388793
 10
-7.1011872642
 20
-28.0234193618
 10
-7.1125194478
 20
-28.0346614594
 10
-7.1241772058
 20
-28.0444651723
  0
LWPOLYLINE
  5
491
100
AcDbEntity
  8
0
100
AcDbPolyline
 62
7
  6
CONTINUOUS
 90
10
 70
0
 10
-8.2465238622
 20
-28.0166162445
 10
-8.2352313186
 20
-27.9888122588
 10
-8.2247596788
 20
-27.9592603796
 10
-8.2151089428
 20
-27.9279606068
 10
-8.2062609168
 20
-27.8949837805
 10
-8.1982337945
 20
-27.8602590608
 10
-8.1910821575
 20
-27.8235739272
 10
-8.1848241995
 20
-27.7848575399
 10
-8.1794417267
 20
-27.7441807387
 10
-8.174934739
 20
-27.7015435239
  0
LWPOLYLINE
  5
492
100
AcDbEntity
  8
0
100
AcDbPolyline
 62
7
  6
CONTINUOUS
 90
10
 70
0
 10
-7.7566207071
 20
-26.1778887113
 10
-7.7680517374
 20
-26.2038527387
 10
-7.7787855664
 20
-26.2316784266
 10
-7.7888221943
 20
-26.2613657751
 10
-7.7982146389
 20
-26.2928586004
 10
-7.8069098823
 20
-26.3262130863
 10
-7.8147488706
 20
-26.3615977836
 10
-7.8216785856
 20
-26.3990688759
 10
-7.8277520456
 20
-26.4385701796
 10
-7.8329692503
 20
-26.4801016947
  0
LWPOLYLINE
  5
493
100
AcDbEntity
  8
0
100
AcDbPolyline
 62
7
  6
CONTINUOUS
 90
10
 70
0
 10
-11.37999552
 20
-27.9657172026
 10
-11.3894959605
 20
-27.9792017766
 10
-11.3993000279
 20
-27.9918523082
 10
-11.409407722
 20
-28.0036687975
 10
-11.4198421811
 20
-28.0146424429
 10
-11.4305802669
 20
-28.024782046
 10
-11.4415525652
 20
-28.0341140109
 10
-11.4527359378
 20
-28.0426471387
 10
-11.4641535229
 20
-28.0503726283
 10
-11.4758053204
 20
-28.0572904796
  0
LWPOLYLINE
  5
494
100
AcDbEntity
  8
0
100
AcDbPolyline
 62
7
  6
CONTINUOUS
 90
10
 70
0
 10
-11.1732181961
 20
-28.1088707538
 10
-11.1591166181
 20
-28.0899079207
 10
-11.1457246825
 20
-28.0696936176
 10
-11.1330423894
 20
-28.0482278445
 10
-11.1209678807
 20
-28.0254150938
 10
-11.1096030145
 20
-28.0013508731
 10
-11.0992533641
 20
-27.9763217048
 10
-11.0900207872
 20
-27.9504230962
 10
-11.0818034261
 20
-27.9235595398
 10
-11.0746012808
 20
-27.8957310358
  0
LWPOLYLINE
  5
495
100
AcDbEntity
  8
0
100
AcDbPolyline
 62
7
  6
CONTINUOUS
 90
10
 70
0
 10
-10.1520563861
 20
-25.9552054604
 10
-10.1683949594
 20
-25.975207596
 10
-10.1857925761
 20
-25.9953791224
 10
-10.204249236
 20
-26.0157200396
 10
-10.2236717005
 20
-26.0361720929
 10
-10.2441532082
 20
-26.0567935371
 10
-10.2659734759
 20
-26.0777591364
 10
-10.2892257423
 20
-26.0991271455
 10
-10.3138167685
 20
-26.1208393097
 10
-10.3397465547
 20
-26.142895629
  0
LWPOLYLINE
  5
496
100
AcDbEntity
  8
0
100
AcDbPolyline
 62
7
  6
CONTINUOUS
 90
10
 70
0
 10
-12.0257769904
 20
-26.060184703
 10
-12.0512341796
 20
-26.0893065661
 10
-12.0742172524
 20
-26.1221811676
 10
-12.0947262087
 20
-26.1588085075
 10
-12.1129994394
 20
-26.1987005089
 10
-12.1287985536
 20
-26.2423452487
 10
-12.1414083793
 20
-26.2912069574
 10
-12.1505905258
 20
-26.3457737117
 10
-12.1565833839
 20
-26.4055574348
 10
-12.1593869535
 20
-26.4705581268
  0
LWPOLYLINE
  5
497
100
AcDbEntity
  8
RACCORDO
100
AcDbPolyline
 62
7
  6
CONTINUOUS
 90
10
 70
0
 10
1.7971014036
 20
-11.4029419759
 10
1.7768714842
 20
-11.4193744258
 10
1.758239932
 20
-11.4380059702
 10
1.741807472
 20
-11.4582358881
 10
1.7276456122
 20
-11.4801162506
 10
1.7156828447
 20
-11.5035949865
 10
1.7063053701
 20
-11.5279151612
 10
1.6996419221
 20
-11.5528244633
 10
1.695563767
 20
-11.5785752043
 10
1.6940709049
 20
-11.6051673842
  0
LWPOLYLINE
  5
498
100
AcDbEntity
  8
RACCORDO
100
AcDbPolyline
 62
250
  6
CONTINUOUS
 90
16
 70
0
 10
-17.2422981919
 20
-25.808079575
 10
-17.246819154
 20
-25.8109060551
 10
-17.2511599753
 20
-25.8159929766
 10
-17.2553206558
 20
-25.8233403395
 10
-17.2593245029
 20
-25.8330363837
 10
-17.2631482091
 20
-25.8449928692
 10
-17.2667218526
 20
-25.8589450763
 10
-17.270053347
 20
-25.8749272662
 10
-17.2731347787
 20
-25.8929051776
 10
-17.2758724851
 20
-25.912511307
 10
-17.2782656268
 20
-25.9338405122
 10
-17.2803150433
 20
-25.9567979353
 10
-17.2819295909
 20
-25.9807314993
 10
-17.2830788884
 20
-26.005423845
 10
-17.283793317
 20
-26.0310923314
 10
-17.2840728768
 20
-26.0577369587
  0
LINE
  5
499
100
AcDbEntity
  8
0
100
AcDbLine
 62
7
  6
CONTINUOUS
 10
-2.0559290951
 20
-8.1052054604
 11
-13.5559290951
 21
-8.1052054604
  0
LWPOLYLINE
  5
49A
100
AcDbEntity
  8
RACCORDO
100
AcDbPolyline
 62
7
  6
CONTINUOUS
 90
22
 70
0
 10
2.5787602749
 20
-15.9810704051
 10
2.5552052831
 20
-15.9644682917
 10
2.532697052
 20
-15.9479560972
 10
2.5112355815
 20
-15.9315338216
 10
2.4908772704
 20
-15.9153290874
 10
2.4715657201
 20
-15.899214272
 10
2.4531317346
 20
-15.882806508
 10
2.4355582227
 20
-15.8661073949
 10
2.4188622758
 20
-15.8491153332
 10
2.4029259723
 20
-15.8314426564
 10
2.3876449021
 20
-15.8130175132
 10
2.3731234755
 20
-15.793911755
 10
2.3595570012
 20
-15.7739532688
 10
2.3468837135
 20
-15.7530346823
 10
2.3351653782
 20
-15.7312633678
 10
2.3247826011
 20
-15.7087893293
 10
2.3157593972
 20
-15.6855440105
 10
2.3080717515
 20
-15.6615959677
 10
2.3020282261
 20
-15.6373008741
 10
2.2977316747
 20
-15.6127772872
 10
2.2950792435
 20
-15.5879066494
 10
2.2940709325
 20
-15.5626889607
  0
LWPOLYLINE
  5
49B
100
AcDbEntity
  8
RACCORDO
100
AcDbPolyline
 62
250
  6
CONTINUOUS
 90
16
 70
0
 10
-16.8897360942
 20
-1.0548011499
 10
-16.8960367873
 20
-1.0501052431
 10
-16.9019380506
 20
-1.0424497242
 10
-16.9074398841
 20
-1.0318345931
 10
-16.9125744468
 20
-1.01774854
 10
-16.9173095798
 20
-1.0007028747
 10
-16.9215488056
 20
-0.9822315267
 10
-16.9252229383
 20
-0.9627857813
 10
-16.928401164
 20
-0.9419143531
 10
-16.9311945632
 20
-0.9197973152
 10
-16.9336486744
 20
-0.8967200705
 10
-16.9357179592
 20
-0.8723972162
 10
-16.9373768832
 20
-0.8461526173
 10
-16.9386169349
 20
-0.8177608955
 10
-16.9394466257
 20
-0.7874474292
 10
-16.9398659558
 20
-0.7552122182
  0
LINE
  5
49C
100
AcDbEntity
  8
0
100
AcDbLine
 62
7
  6
CONTINUOUS
 10
-8.7521380951
 20
0.5565915396
 11
-8.2771520951
 21
-0.7202594604
  0
LINE
  5
49D
100
AcDbEntity
  8
0
100
AcDbLine
 62
7
  6
CONTINUOUS
 10
-5.0866860951
 20
-2.7451834604
 11
-4.4218170951
 21
-5.0452054604
  0
LINE
  5
49E
100
AcDbEntity
  8
0
100
AcDbLine
 62
7
  6
CONTINUOUS
 10
-4.7017830951
 20
-5.0452054604
 11
-4.8640020951
 21
-4.4630264604
  0
LINE
  5
49F
100
AcDbEntity
  8
0
100
AcDbLine
 62
7
  6
CONTINUOUS
 10
-5.6462590951
 20
-1.7431984604
 11
-5.7706190951
 21
-1.2840784604
  0
LINE
  5
4A0
100
AcDbEntity
  8
0
100
AcDbLine
 62
7
  6
CONTINUOUS
 10
-4.9276260951
 20
-4.2467054604
 11
-5.2616510951
 21
-2.9965184604
  0
LINE
  5
4A1
100
AcDbEntity
  8
0
100
AcDbLine
 62
7
  6
CONTINUOUS
 10
-5.8665580951
 20
-0.9288134604
 11
-6.0871500951
 21
-0.0753324604
  0
LWPOLYLINE
  5
4A2
100
AcDbEntity
  8
RACCORDO
100
AcDbPolyline
 62
250
  6
CONTINUOUS
 90
25
 70
0
 10
0.4409121637
 20
-28.5217188747
 10
0.4426163624
 20
-28.552011413
 10
0.4482626639
 20
-28.5815969226
 10
0.457851068
 20
-28.6104754034
 10
0.4714555028
 20
-28.6388246766
 10
0.4890020403
 20
-28.666466921
 10
0.5102688962
 20
-28.6928686733
 10
0.5354930126
 20
-28.7179050636
 10
0.5644374473
 20
-28.7417009617
 10
0.5961695906
 20
-28.7640975139
 10
0.6305349759
 20
-28.7850130282
 10
0.6676880696
 20
-28.8045291965
 10
0.7071596614
 20
-28.8227322413
 10
0.7487665892
 20
-28.8398240475
 10
0.792692015
 20
-28.8556027302
 10
0.839016215
 20
-28.8695488567
 10
0.8882663504
 20
-28.8818502737
 10
0.93991526
 20
-28.8923191346
 10
0.9924617356
 20
-28.8998724668
 10
1.0464070666
 20
-28.9036604664
 10
1.1012499637
 20
-28.9045329374
 10
1.1539853503
 20
-28.9039563197
 10
1.2036115345
 20
-28.9024194264
 10
1.2511302082
 20
-28.8994334445
 10
1.2965413715
 20
-28.8949983737
  0
LWPOLYLINE
  5
4A3
100
AcDbEntity
  8
RACCORDO
100
AcDbPolyline
 62
250
  6
CONTINUOUS
 90
13
 70
0
 10
0.4409273057
 20
-0.4105423788
 10
0.4413900186
 20
-0.3976812232
 10
0.442968009
 20
-0.3850844588
 10
0.4456112041
 20
-0.3728368961
 10
0.4492273601
 20
-0.3611183973
 10
0.4537764334
 20
-0.349889309
 10
0.4593521086
 20
-0.3389227705
 10
0.4659769419
 20
-0.3282725454
 10
0.4736273687
 20
-0.3180775992
 10
0.482425334
 20
-0.3083008702
 10
0.4924276095
 20
-0.2990374428
 10
0.5035809719
 20
-0.2904818625
 10
0.5158564004
 20
-0.2827860207
  0
LWPOLYLINE
  5
4A4
100
AcDbEntity
  8
RACCORDO
100
AcDbPolyline
 62
250
  6
CONTINUOUS
 90
13
 70
0
 10
0.2932059603
 20
-0.4105427149
 10
0.2945086413
 20
-0.3846203153
 10
0.2977580255
 20
-0.3595208778
 10
0.3029541129
 20
-0.3352444024
 10
0.3100767444
 20
-0.3118279152
 10
0.3191460792
 20
-0.2892343901
 10
0.3302225945
 20
-0.2673527487
 10
0.343253904
 20
-0.2460126556
 10
0.3582923941
 20
-0.2253844462
 10
0.3755557015
 20
-0.2058680486
 10
0.3951163716
 20
-0.1875967724
 10
0.416901859
 20
-0.170437308
 10
0.4409121637
 20
-0.1543896556
  0
LWPOLYLINE
  5
4A5
100
AcDbEntity
  8
RACCORDO
100
AcDbPolyline
 62
250
  6
CONTINUOUS
 90
13
 70
0
 10
0.554747335
 20
-0.4443718866
 10
0.5561707795
 20
-0.4249314684
 10
0.5600685777
 20
-0.4058198488
 10
0.5663748054
 20
-0.3873602651
 10
0.5749828045
 20
-0.369864927
 10
0.5857469867
 20
-0.3536297355
 10
0.598485296
 20
-0.3389292785
 10
0.6129822876
 20
-0.3260121871
 10
0.6289927717
 20
-0.3150969297
 10
0.646245961
 20
-0.3063681175
 10
0.6644500499
 20
-0.2999733822
 10
0.6832971501
 20
-0.2960208788
 10
0.7024684979
 20
-0.2945774564
  0
LINE
  5
4A6
100
AcDbEntity
  8
0
100
AcDbLine
 62
7
  6
CONTINUOUS
 10
-4.5945182701
 20
-27.4567268779
 11
-4.2604935308
 21
-26.206519415
  0
LINE
  5
4A7
100
AcDbEntity
  8
0
100
AcDbLine
 62
7
  6
CONTINUOUS
 10
-4.8235638996
 20
-28.2552054604
 11
-4.6613231083
 21
-27.6730477502
  0
LINE
  5
4A8
100
AcDbEntity
  8
0
100
AcDbLine
 62
7
  6
CONTINUOUS
 10
-4.4195527216
 20
-25.9552054604
 11
-5.0939648529
 21
-28.2552054604
  0
LWPOLYLINE
  5
4A9
100
AcDbEntity
  8
0
100
AcDbPolyline
 62
7
  6
CONTINUOUS
 90
10
 70
0
 10
-5.5948453113
 20
-27.90160973
 10
-5.6031141123
 20
-27.9241828206
 10
-5.6119045783
 20
-27.9450019516
 10
-5.6212167092
 20
-27.964067123
 10
-5.6311158687
 20
-27.9812731431
 10
-5.6415366931
 20
-27.9967252036
 10
-5.6522830918
 20
-28.0107388793
 10
-5.6632897012
 20
-28.0234193618
 10
-5.6746218849
 20
-28.0346614594
 10
-5.6862796428
 20
-28.0444651723
  0
LWPOLYLINE
  5
4AA
100
AcDbEntity
  8
0
100
AcDbPolyline
 62
7
  6
CONTINUOUS
 90
10
 70
0
 10
-6.8086260251
 20
-28.0166162445
 10
-6.7973334981
 20
-27.9888122679
 10
-6.7868618816
 20
-27.9592603951
 10
-6.7772111753
 20
-27.927960626
 10
-6.7683631898
 20
-27.8949838001
 10
-6.7603361146
 20
-27.8602590779
 10
-6.7531845188
 20
-27.8235739411
 10
-6.7469265919
 20
-27.78485755
 10
-6.7415441443
 20
-27.7441807443
 10
-6.737037176
 20
-27.7015435239
  0
LWPOLYLINE
  5
4AB
100
AcDbEntity
  8
0
100
AcDbPolyline
 62
7
  6
CONTINUOUS
 90
10
 70
0
 10
-5.3707284621
 20
-28.0166162445
 10
-5.3594359005
 20
-27.9888122567
 10
-5.3489642419
 20
-27.9592603765
 10
-5.3393134863
 20
-27.9279606039
 10
-5.3304654328
 20
-27.8949837807
 10
-5.3224382822
 20
-27.8602590651
 10
-5.3152866372
 20
-27.8235739323
 10
-5.3090286985
 20
-27.7848575407
 10
-5.3036462653
 20
-27.7441807319
 10
-5.2991393375
 20
-27.7015435059
  0
LWPOLYLINE
  5
4AC
100
AcDbEntity
  8
0
100
AcDbPolyline
 62
7
  6
CONTINUOUS
 90
10
 70
0
 10
-6.3187231441
 20
-26.1778887113
 10
-6.3301541744
 20
-26.2038527387
 10
-6.3408880034
 20
-26.2316784266
 10
-6.3509246313
 20
-26.2613657751
 10
-6.3603170759
 20
-26.2928586004
 10
-6.3690123193
 20
-26.3262130863
 10
-6.3768513076
 20
-26.3615977836
 10
-6.3837810227
 20
-26.3990688759
 10
-6.3898544826
 20
-26.4385701796
 10
-6.3950716873
 20
-26.4801016947
  0
LWPOLYLINE
  5
4AD
100
AcDbEntity
  8
0
100
AcDbPolyline
 62
7
  6
CONTINUOUS
 90
10
 70
0
 10
-10.1806870898
 20
-26.2765055796
 10
-10.2004032146
 20
-26.2961575392
 10
-10.2200332996
 20
-26.3153351697
 10
-10.2395773446
 20
-26.3340384712
 10
-10.2590183451
 20
-26.3522871515
 10
-10.2783733057
 20
-26.3700615028
 10
-10.2976932402
 20
-26.3873024011
 10
-10.3169951533
 20
-26.4039901384
 10
-10.3362620404
 20
-26.4201444226
 10
-10.3554939015
 20
-26.4357652539
  0
LWPOLYLINE
  5
4AE
100
AcDbEntity
  8
0
100
AcDbPolyline
 62
7
  6
CONTINUOUS
 90
10
 70
0
 10
-11.4300904389
 20
-26.8722110099
 10
-11.4428817775
 20
-26.8837271538
 10
-11.4562202346
 20
-26.8943533711
 10
-11.4701058104
 20
-26.9040896617
 10
-11.4844356552
 20
-26.9129087521
 10
-11.4993126187
 20
-26.9208379159
 10
-11.5150452492
 20
-26.9279589737
 10
-11.5317363965
 20
-26.9342991991
 10
-11.5492832109
 20
-26.9398313187
 10
-11.5676856925
 20
-26.9445553323
  0
LWPOLYLINE
  5
4AF
100
AcDbEntity
  8
0
100
AcDbPolyline
 62
7
  6
CONTINUOUS
 90
10
 70
0
 10
-10.3397465547
 20
-26.142895629
 10
-10.3659957285
 20
-26.1646198572
 10
-10.3915014058
 20
-26.1853297334
 10
-10.4162635867
 20
-26.2050252579
 10
-10.4402644264
 20
-26.2237042794
 10
-10.4635217697
 20
-26.241368949
 10
-10.4860891501
 20
-26.25802572
 10
-10.5079844123
 20
-26.2736767434
 10
-10.5291897118
 20
-26.288319868
 10
-10.5497050484
 20
-26.301955094
  0
LWPOLYLINE
  5
4B0
100
AcDbEntity
  8
RACCORDO
100
AcDbPolyline
 62
250
  6
CONTINUOUS
 90
10
 70
0
 10
-16.210342349
 20
-27.4467396154
 10
-16.21646176
 20
-27.450150417
 10
-16.2224072282
 20
-27.4577261133
 10
-16.2280095742
 20
-27.4692514853
 10
-16.2331093744
 20
-27.4843989503
 10
-16.2375614516
 20
-27.5027377315
 10
-16.2412390302
 20
-27.5237460098
 10
-16.2440374051
 20
-27.5468259995
 10
-16.245876903
 20
-27.5713210357
 10
-16.2467051211
 20
-27.5965340648
  0
LINE
  5
4B1
100
AcDbEntity
  8
RACCORDO
100
AcDbLine
 62
7
  6
CONTINUOUS
 10
-17.028797252
 20
-25.5318041101
 11
-16.9861892023
 21
-25.515138454
  0
LWPOLYLINE
  5
4B2
100
AcDbEntity
  8
RACCORDO
100
AcDbPolyline
 62
7
  6
CONTINUOUS
 90
3
 70
0
 10
-17.0701438642
 20
-25.5477193363
 10
-17.056457223
 20
-25.5424998727
 10
-17.028797252
 20
-25.5318041101
  0
LWPOLYLINE
  5
4B3
100
AcDbEntity
  8
RACCORDO
100
AcDbPolyline
 62
7
  6
CONTINUOUS
 90
3
 70
0
 10
-17.1108310971
 20
-25.5628540176
 10
-17.0973419505
 20
-25.557895851
 10
-17.0701438642
 20
-25.5477193363
  0
LWPOLYLINE
  5
4B4
100
AcDbEntity
  8
RACCORDO
100
AcDbPolyline
 62
7
  6
CONTINUOUS
 90
3
 70
0
 10
-17.1108310971
 20
-2.1475569032
 10
-17.0837795395
 20
-2.1575599636
 10
-17.0701438642
 20
-2.1626915845
  0
LINE
  5
4B5
100
AcDbEntity
  8
RACCORDO
100
AcDbLine
 62
7
  6
CONTINUOUS
 10
-17.0701438642
 20
-2.1626915845
 11
-17.0426973173
 21
-2.1732172389
  0
LWPOLYLINE
  5
4B6
100
AcDbEntity
  8
RACCORDO
100
AcDbPolyline
 62
7
  6
CONTINUOUS
 90
3
 70
0
 10
-17.0426973173
 20
-2.1732172389
 10
-17.0005320452
 20
-2.189633867
 10
-16.9861892023
 20
-2.1952724668
  0
LWPOLYLINE
  5
4B7
100
AcDbEntity
  8
RACCORDO
100
AcDbPolyline
 62
250
  6
CONTINUOUS
 90
10
 70
0
 10
-16.2103423494
 20
-0.2636713054
 10
-16.2164554202
 20
-0.2602613422
 10
-16.2223955731
 20
-0.252687456
 10
-16.2279939376
 20
-0.2411642833
 10
-16.2330919066
 20
-0.2260188865
 10
-16.2375445107
 20
-0.2076815226
 10
-16.2412241353
 20
-0.1866734655
 10
-16.2440257381
 20
-0.1635921623
 10
-16.2458701879
 20
-0.1390942402
 10
-16.2467051418
 20
-0.1138768762
  0
LWPOLYLINE
  5
4B8
100
AcDbEntity
  8
RACCORDO
100
AcDbPolyline
 62
250
  6
CONTINUOUS
 90
28
 70
0
 10
-16.1277146379
 20
-0.2827857936
 10
-16.1209231121
 20
-0.2868417796
 10
-16.1145745437
 20
-0.2910860377
 10
-16.1086628655
 20
-0.2954771224
 10
-16.1031921625
 20
-0.2999664755
 10
-16.0981377039
 20
-0.3045262909
 10
-16.0934508405
 20
-0.3091544268
 10
-16.089120334
 20
-0.3138239553
 10
-16.0851354353
 20
-0.318508831
 10
-16.0814543313
 20
-0.3232187537
 10
-16.0780671986
 20
-0.3279343735
 10
-16.0749638716
 20
-0.3326382106
 10
-16.0721089116
 20
-0.3373506464
 10
-16.0694947533
 20
-0.3420581435
 10
-16.067113627
 20
-0.3467490683
 10
-16.0649373044
 20
-0.3514526032
 10
-16.062961191
 20
-0.3561593511
 10
-16.0611807075
 20
-0.3608615346
 10
-16.0595756547
 20
-0.3655951359
 10
-16.0581449228
 20
-0.3703532859
 10
-16.0568875498
 20
-0.375130647
 10
-16.0557920786
 20
-0.3799685146
 10
-16.054861359
 20
-0.3848609749
 10
-16.0540984857
 20
-0.3898040553
 10
-16.0535016716
 20
-0.3948437108
 10
-16.0530776988
 20
-0.3999921642
 10
-16.0528363659
 20
-0.4052270156
 10
-16.0527853133
 20
-0.4105423246
  0
LWPOLYLINE
  5
4B9
100
AcDbEntity
  8
RACCORDO
100
AcDbPolyline
 62
250
  6
CONTINUOUS
 90
28
 70
0
 10
-16.0527703538
 20
-0.1543895142
 10
-16.0395392904
 20
-0.1627275391
 10
-16.0271347515
 20
-0.1712766646
 10
-16.0155567372
 20
-0.1800368908
 10
-16.0048497501
 20
-0.1890520381
 10
-15.9949692875
 20
-0.198278286
 10
-15.9857818411
 20
-0.2075841733
 10
-15.9772833005
 20
-0.2169491377
 10
-15.969477776
 20
-0.2263937415
 10
-15.9622440907
 20
-0.2358482108
 10
-15.9555761113
 20
-0.2452961805
 10
-15.9494799709
 20
-0.2547540156
 10
-15.9438528928
 20
-0.2642010373
 10
-15.9386868313
 20
-0.2736249108
 10
-15.933989832
 20
-0.2830379707
 10
-15.929683254
 20
-0.2924565426
 10
-15.9257576819
 20
-0.3018718616
 10
-15.9222225311
 20
-0.3112926926
 10
-15.9190274072
 20
-0.3207616556
 10
-15.9161617904
 20
-0.3302728827
 10
-15.9136362005
 20
-0.3398322419
 10
-15.9114318019
 20
-0.3494999571
 10
-15.9095367088
 20
-0.3592723939
 10
-15.9079628071
 20
-0.3691531868
 10
-15.9067269182
 20
-0.3792134635
 10
-15.9058346494
 20
-0.3894769334
 10
-15.9052803934
 20
-0.3999198871
 10
-15.9050641504
 20
-0.4105423246
  0
LINE
  5
4BA
100
AcDbEntity
  8
0
100
AcDbLine
 62
7
  6
CONTINUOUS
 10
-5.8459320951
 20
0.5565915396
 11
-5.1402990951
 21
-1.7431984604
  0
LINE
  5
4BB
100
AcDbEntity
  8
0
100
AcDbLine
 62
7
  6
CONTINUOUS
 10
-3.7860667556
 20
-1.743198294
 11
-3.8571828736
 21
-1.4997221232
  0
LWPOLYLINE
  5
4BC
100
AcDbEntity
  8
0
100
AcDbPolyline
 62
7
  6
CONTINUOUS
 90
6
 70
0
 10
-3.8571828736
 20
-1.4997221232
 10
-3.9015254188
 20
-1.3426420177
 10
-3.9240273507
 20
-1.2661279582
 10
-3.9474447884
 20
-1.1912172222
 10
-3.9714301987
 20
-1.117783479
 10
-3.9959835816
 20
-1.0458267287
  0
LINE
  5
4BD
100
AcDbEntity
  8
0
100
AcDbLine
 62
7
  6
CONTINUOUS
 10
-3.4884201487
 20
-1.1207428223
 11
-3.4321606918
 21
-1.331611492
  0
LINE
  5
4BE
100
AcDbEntity
  8
0
100
AcDbLine
 62
7
  6
CONTINUOUS
 10
-3.4321606918
 20
-1.331611492
 11
-3.3243083744
 21
-1.743198294
  0
LWPOLYLINE
  5
4BF
100
AcDbEntity
  8
RACCORDO
100
AcDbPolyline
 62
250
  6
CONTINUOUS
 90
13
 70
0
 10
1.6304400018
 20
-28.4023313458
 10
1.6318632162
 20
-28.4217701509
 10
1.6357604634
 20
-28.4408805595
 10
1.6420659614
 20
-28.4593393727
 10
1.6506732037
 20
-28.4768343993
 10
1.6614367324
 20
-28.4930696885
 10
1.674174575
 20
-28.507770549
 10
1.6886713853
 20
-28.5206882813
 10
1.7046820307
 20
-28.5316043081
 10
1.7219356764
 20
-28.5403338682
 10
1.7401404871
 20
-28.5467292347
 10
1.7589885839
 20
-28.5506821816
 10
1.7781611647
 20
-28.552125776
  0
LWPOLYLINE
  5
4C0
100
AcDbEntity
  8
RACCORDO
100
AcDbPolyline
 62
250
  6
CONTINUOUS
 90
21
 70
0
 10
1.2287583661
 20
-25.6886920461
 10
1.2286506596
 20
-25.6868438232
 10
1.2284993117
 20
-25.6849863836
 10
1.2283039677
 20
-25.68311998
 10
1.2280619917
 20
-25.6812375593
 10
1.2277754595
 20
-25.6793466633
 10
1.2274503997
 20
-25.6774693879
 10
1.2270861659
 20
-25.6756167217
 10
1.2266811364
 20
-25.6737779721
 10
1.226239608
 20
-25.6719426777
 10
1.225763165
 20
-25.6701149115
 10
1.2252489753
 20
-25.6682908695
 10
1.2246957898
 20
-25.666448376
 10
1.2241038251
 20
-25.6645848866
 10
1.2234731115
 20
-25.6627033695
 10
1.2228032223
 20
-25.6607900725
 10
1.2220949245
 20
-25.6588461646
 10
1.2213484703
 20
-25.6568710702
 10
1.2205635976
 20
-25.6548486053
 10
1.2197416361
 20
-25.6527813285
 10
1.2179887182
 20
-25.6484852065
  0
LWPOLYLINE
  5
4C1
100
AcDbEntity
  8
RACCORDO
100
AcDbPolyline
 62
250
  6
CONTINUOUS
 90
25
 70
0
 10
0.4409121637
 20
-2.0217188747
 10
0.4426163624
 20
-2.052011413
 10
0.4482626639
 20
-2.0815969226
 10
0.457851068
 20
-2.1104754034
 10
0.4714555028
 20
-2.1388246766
 10
0.4890020403
 20
-2.166466921
 10
0.5102688962
 20
-2.1928686733
 10
0.5354930126
 20
-2.2179050636
 10
0.5644374473
 20
-2.2417009617
 10
0.5961695906
 20
-2.2640975139
 10
0.6305349759
 20
-2.2850130282
 10
0.6676880696
 20
-2.3045291965
 10
0.7071596614
 20
-2.3227322413
 10
0.7487665892
 20
-2.3398240475
 10
0.792692015
 20
-2.3556027302
 10
0.839016215
 20
-2.3695488567
 10
0.8882663504
 20
-2.3818502737
 10
0.93991526
 20
-2.3923191346
 10
0.9924617355
 20
-2.3998724668
 10
1.0464070666
 20
-2.4036604664
 10
1.1012499636
 20
-2.4045329374
 10
1.1539853503
 20
-2.4039563197
 10
1.2036115344
 20
-2.4024194264
 10
1.2511302082
 20
-2.3994334445
 10
1.2965413715
 20
-2.3949983737
  0
LWPOLYLINE
  5
4C2
100
AcDbEntity
  8
RACCORDO
100
AcDbPolyline
 62
7
  6
CONTINUOUS
 90
10
 70
0
 10
1.6940709049
 20
-16.1052435366
 10
1.6955637664
 20
-16.1318357049
 10
1.6996419177
 20
-16.1575864342
 10
1.7063053587
 20
-16.1824957245
 10
1.7156828213
 20
-16.2068158853
 10
1.7276455736
 20
-16.2302946072
 10
1.7418074204
 20
-16.2521749617
 10
1.7582398703
 20
-16.2724048812
 10
1.7768714148
 20
-16.2910364334
 10
1.7971013326
 20
-16.3074688934
  0
LWPOLYLINE
  5
4C3
100
AcDbEntity
  8
RACCORDO
100
AcDbPolyline
 62
250
  6
CONTINUOUS
 90
19
 70
0
 10
1.6722146867
 20
-26.0577369587
 10
1.6719456569
 20
-26.0324737868
 10
1.6713109066
 20
-26.0082453803
 10
1.6703104359
 20
-25.9850517391
 10
1.6688922473
 20
-25.9626554801
 10
1.6671083381
 20
-25.9412939864
 10
1.6651147011
 20
-25.9216794074
 10
1.662923917
 20
-25.9040873111
 10
1.6605234051
 20
-25.8882421295
 10
1.658031415
 20
-25.8740293071
 10
1.6554953627
 20
-25.8615538695
 10
1.6528678322
 20
-25.8507107912
 10
1.6501248254
 20
-25.8410704408
 10
1.6472862605
 20
-25.8324728221
 10
1.6443322193
 20
-25.8250779313
 10
1.6411789481
 20
-25.8189361254
 10
1.6377985292
 20
-25.8140641903
 10
1.6342188804
 20
-25.8104453402
 10
1.6304400018
 20
-25.808079575
  0
LWPOLYLINE
  5
4C4
100
AcDbEntity
  8
RACCORDO
100
AcDbPolyline
 62
250
  6
CONTINUOUS
 90
19
 70
0
 10
1.6722146867
 20
0.4422630413
 10
1.6719456569
 20
0.4675262132
 10
1.6713109066
 20
0.4917546197
 10
1.6703104359
 20
0.5149482609
 10
1.6688922473
 20
0.5373445199
 10
1.6671083381
 20
0.5587060136
 10
1.6651147011
 20
0.5783205926
 10
1.662923917
 20
0.5959126889
 10
1.6605234051
 20
0.6117578705
 10
1.658031415
 20
0.6259706929
 10
1.6554953627
 20
0.6384461305
 10
1.6528678322
 20
0.6492892088
 10
1.6501248254
 20
0.6589295592
 10
1.6472862605
 20
0.6675271779
 10
1.6443322193
 20
0.6749220687
 10
1.6411789481
 20
0.6810638746
 10
1.6377985292
 20
0.6859358097
 10
1.6342188804
 20
0.6895546598
 10
1.6304400018
 20
0.691920425
  0
LWPOLYLINE
  5
4C5
100
AcDbEntity
  8
RACCORDO
100
AcDbPolyline
 62
250
  6
CONTINUOUS
 90
19
 70
0
 10
1.8199358443
 20
-26.0577369587
 10
1.8196663782
 20
-26.0178242089
 10
1.8190313767
 20
-25.9789428958
 10
1.8180308398
 20
-25.9414406304
 10
1.8166128819
 20
-25.9054033954
 10
1.8148293886
 20
-25.8713313093
 10
1.8128360164
 20
-25.840044869
 10
1.8106451784
 20
-25.8118450878
 10
1.8082444614
 20
-25.7864825328
 10
1.8057522827
 20
-25.7638047323
 10
1.803216027
 20
-25.7439574341
 10
1.8005883094
 20
-25.7266090657
 10
1.7978453928
 20
-25.7110705584
 10
1.7950075156
 20
-25.6974265644
 10
1.7920544393
 20
-25.6857251906
 10
1.7889017113
 20
-25.6756555756
 10
1.7855211808
 20
-25.6674362823
 10
1.7819409986
 20
-25.6615380821
 10
1.7781611647
 20
-25.6582851448
  0
LWPOLYLINE
  5
4C6
100
AcDbEntity
  8
RACCORDO
100
AcDbPolyline
 62
250
  6
CONTINUOUS
 90
19
 70
0
 10
1.8199358443
 20
0.4422630413
 10
1.8196663782
 20
0.4821757911
 10
1.8190313767
 20
0.5210571042
 10
1.8180308398
 20
0.5585593696
 10
1.8166128819
 20
0.5945966046
 10
1.8148293886
 20
0.6286686907
 10
1.8128360164
 20
0.659955131
 10
1.8106451784
 20
0.6881549122
 10
1.8082444614
 20
0.7135174672
 10
1.8057522827
 20
0.7361952677
 10
1.803216027
 20
0.7560425659
 10
1.8005883094
 20
0.7733909343
 10
1.7978453928
 20
0.7889294416
 10
1.7950075156
 20
0.8025734356
 10
1.7920544393
 20
0.8142748094
 10
1.7889017113
 20
0.8243444244
 10
1.7855211808
 20
0.8325637177
 10
1.7819409986
 20
0.8384619179
 10
1.7781611647
 20
0.8417148552
  0
LINE
  5
4C7
100
AcDbEntity
  8
RACCORDO
100
AcDbLine
 62
250
  6
CONTINUOUS
 10
0.2932059603
 20
-27.2998679223
 11
0.2932059603
 21
-26.9105427149
  0
LINE
  5
4C8
100
AcDbEntity
  8
RACCORDO
100
AcDbLine
 62
250
  6
CONTINUOUS
 10
0.2932059603
 20
-0.7998679223
 11
0.2932059603
 21
-0.4105427149
  0
LINE
  5
4C9
100
AcDbEntity
  8
RACCORDO
100
AcDbLine
 62
250
  6
CONTINUOUS
 10
0.4409121637
 20
-28.5217188747
 11
0.4409121637
 21
-27.556021215
  0
LINE
  5
4CA
100
AcDbEntity
  8
RACCORDO
100
AcDbLine
 62
250
  6
CONTINUOUS
 10
0.4409121637
 20
-26.6543896556
 11
0.4409121637
 21
-25.6886920461
  0
LINE
  5
4CB
100
AcDbEntity
  8
RACCORDO
100
AcDbLine
 62
250
  6
CONTINUOUS
 10
0.4409121637
 20
-2.0217188747
 11
0.4409121637
 21
-1.056021215
  0
LINE
  5
4CC
100
AcDbEntity
  8
RACCORDO
100
AcDbLine
 62
250
  6
CONTINUOUS
 10
0.4409121637
 20
-0.1543896556
 11
0.4409121637
 21
0.8113079539
  0
LINE
  5
4CD
100
AcDbEntity
  8
RACCORDO
100
AcDbLine
 62
250
  6
CONTINUOUS
 10
0.4409271232
 20
-27.2998685962
 11
0.4409271232
 21
-26.9105423246
  0
LINE
  5
4CE
100
AcDbEntity
  8
RACCORDO
100
AcDbLine
 62
250
  6
CONTINUOUS
 10
0.4409271232
 20
-0.7998685962
 11
0.4409271232
 21
-0.4105423246
  0
LINE
  5
4CF
100
AcDbEntity
  8
RACCORDO
100
AcDbLine
 62
250
  6
CONTINUOUS
 10
0.554747335
 20
-0.4443718866
 11
0.554747335
 21
-0.7660390342
  0
LINE
  5
4D0
100
AcDbEntity
  8
RACCORDO
100
AcDbLine
 62
250
  6
CONTINUOUS
 10
0.554747335
 20
-26.9443718866
 11
0.554747335
 21
-27.2660390342
  0
LINE
  5
4D1
100
AcDbEntity
  8
RACCORDO
100
AcDbLine
 62
250
  6
CONTINUOUS
 10
0.9486704362
 20
-26.8054042724
 11
0.9486704362
 21
-27.4050066484
  0
LINE
  5
4D2
100
AcDbEntity
  8
RACCORDO
100
AcDbLine
 62
250
  6
CONTINUOUS
 10
0.9486704362
 20
-0.9050066484
 11
0.9486704362
 21
-0.3054042724
  0
LINE
  5
4D3
100
AcDbEntity
  8
RACCORDO
100
AcDbLine
 62
250
  6
CONTINUOUS
 10
1.1802866027
 20
-0.4551987026
 11
1.1802866027
 21
-0.7552122182
  0
LINE
  5
4D4
100
AcDbEntity
  8
RACCORDO
100
AcDbLine
 62
250
  6
CONTINUOUS
 10
1.1802866027
 20
-26.9551987026
 11
1.1802866027
 21
-27.2552122182
  0
LINE
  5
4D5
100
AcDbEntity
  8
RACCORDO
100
AcDbLine
 62
250
  6
CONTINUOUS
 10
1.2287583661
 20
-28.5217188747
 11
1.2287583661
 21
-27.5694004239
  0
LINE
  5
4D6
100
AcDbEntity
  8
RACCORDO
100
AcDbLine
 62
250
  6
CONTINUOUS
 10
1.2287583661
 20
-26.6410104969
 11
1.2287583661
 21
-25.6886920461
  0
LINE
  5
4D7
100
AcDbEntity
  8
RACCORDO
100
AcDbLine
 62
250
  6
CONTINUOUS
 10
1.2287583661
 20
-2.0217188747
 11
1.2287583661
 21
-1.0694004239
  0
LINE
  5
4D8
100
AcDbEntity
  8
RACCORDO
100
AcDbLine
 62
250
  6
CONTINUOUS
 10
1.2287583661
 20
-0.1410104969
 11
1.2287583661
 21
0.8113079539
  0
LINE
  5
4D9
100
AcDbEntity
  8
RACCORDO
100
AcDbLine
 62
250
  6
CONTINUOUS
 10
1.2965410111
 20
-28.6952724668
 11
1.2965413717
 21
-28.8949983737
  0
LINE
  5
4DA
100
AcDbEntity
  8
RACCORDO
100
AcDbLine
 62
250
  6
CONTINUOUS
 10
1.2965410361
 20
0.984861546
 11
1.2965413718
 21
1.1845874529
  0
LINE
  5
4DB
100
AcDbEntity
  8
RACCORDO
100
AcDbLine
 62
250
  6
CONTINUOUS
 10
1.2965410361
 20
-25.515138454
 11
1.2965413718
 21
-25.3154125471
  0
LINE
  5
4DC
100
AcDbEntity
  8
RACCORDO
100
AcDbLine
 62
250
  6
CONTINUOUS
 10
1.2965410111
 20
-2.1952724668
 11
1.2965413717
 21
-2.3949983737
  0
LINE
  5
4DD
100
AcDbEntity
  8
RACCORDO
100
AcDbLine
 62
250
  6
CONTINUOUS
 10
1.3280077657
 20
-0.4551987026
 11
1.3280077657
 21
-0.7552116249
  0
LINE
  5
4DE
100
AcDbEntity
  8
RACCORDO
100
AcDbLine
 62
250
  6
CONTINUOUS
 10
1.3280077657
 20
-26.9551987026
 11
1.3280077657
 21
-27.2552116249
  0
LINE
  5
4DF
100
AcDbEntity
  8
RACCORDO
100
AcDbLine
 62
250
  6
CONTINUOUS
 10
1.6722146867
 20
-28.1526739621
 11
1.6722146867
 21
-26.0577369587
  0
LINE
  5
4E0
100
AcDbEntity
  8
RACCORDO
100
AcDbLine
 62
250
  6
CONTINUOUS
 10
1.6722146867
 20
-1.6526739621
 11
1.6722146867
 21
0.4422630413
  0
LINE
  5
4E1
100
AcDbEntity
  8
RACCORDO
100
AcDbLine
 62
7
  6
CONTINUOUS
 10
1.6940709049
 20
-11.6051673842
 11
1.6940709049
 21
-16.1052435366
  0
LINE
  5
4E2
100
AcDbEntity
  8
0
100
AcDbLine
 62
7
  6
CONTINUOUS
 10
1.6940709049
 20
-11.6051673842
 11
1.6940709049
 21
-16.1052435366
  0
LINE
  5
4E3
100
AcDbEntity
  8
RACCORDO
100
AcDbLine
 62
250
  6
CONTINUOUS
 10
1.8199358496
 20
-28.1526739621
 11
1.8199358496
 21
-26.0577369587
  0
LINE
  5
4E4
100
AcDbEntity
  8
RACCORDO
100
AcDbLine
 62
250
  6
CONTINUOUS
 10
1.8199358496
 20
-1.6526739621
 11
1.8199358496
 21
0.4422630413
  0
LINE
  5
4E5
100
AcDbEntity
  8
RACCORDO
100
AcDbLine
 62
7
  6
CONTINUOUS
 10
1.9388343855
 20
-38.6000070171
 11
1.9388343855
 21
-31.1433689508
  0
LINE
  5
4E6
100
AcDbEntity
  8
0
100
AcDbLine
 62
7
  6
CONTINUOUS
 10
1.9388343855
 20
-31.1433689508
 11
1.9388343855
 21
-38.6000070171
  0
LINE
  5
4E7
100
AcDbEntity
  8
RACCORDO
100
AcDbLine
 62
7
  6
CONTINUOUS
 10
1.9388343855
 20
3.4329580299
 11
1.9388343855
 21
10.8895960963
  0
LINE
  5
4E8
100
AcDbEntity
  8
0
100
AcDbLine
 62
7
  6
CONTINUOUS
 10
1.9388343855
 20
3.43295803
 11
1.9388343855
 21
10.8895960963
  0
LINE
  5
4E9
100
AcDbEntity
  8
RACCORDO
100
AcDbLine
 62
7
  6
CONTINUOUS
 10
1.9440709049
 20
-30.1427987442
 11
1.9440709049
 21
-28.7221103838
  0
LINE
  5
4EA
100
AcDbEntity
  8
0
100
AcDbLine
 62
7
  6
CONTINUOUS
 10
1.9440709049
 20
-30.1427987442
 11
1.9440709049
 21
-28.7221103838
  0
LINE
  5
4EB
100
AcDbEntity
  8
RACCORDO
100
AcDbLine
 62
7
  6
CONTINUOUS
 10
1.9440709049
 20
-25.488300537
 11
1.9440709049
 21
-16.3552114905
  0
LINE
  5
4EC
100
AcDbEntity
  8
0
100
AcDbLine
 62
7
  6
CONTINUOUS
 10
1.9440709049
 20
-25.488300537
 11
1.9440709049
 21
-16.3552054575
  0
LINE
  5
4ED
100
AcDbEntity
  8
RACCORDO
100
AcDbLine
 62
7
  6
CONTINUOUS
 10
1.9440709049
 20
-11.3551994303
 11
1.9440709049
 21
-2.2221103838
  0
LINE
  5
4EE
100
AcDbEntity
  8
0
100
AcDbLine
 62
7
  6
CONTINUOUS
 10
1.9440709049
 20
-11.3552054633
 11
1.9440709049
 21
-2.2221103838
  0
LINE
  5
4EF
100
AcDbEntity
  8
RACCORDO
100
AcDbLine
 62
7
  6
CONTINUOUS
 10
1.9440709049
 20
1.011699463
 11
1.9440709049
 21
2.4323878234
  0
LINE
  5
4F0
100
AcDbEntity
  8
0
100
AcDbLine
 62
7
  6
CONTINUOUS
 10
1.9440709049
 20
1.011699463
 11
1.9440709049
 21
2.4323878234
  0
LWPOLYLINE
  5
4F1
100
AcDbEntity
  8
RACCORDO
100
AcDbPolyline
 62
250
  6
CONTINUOUS
 90
16
 70
0
 10
1.3280077657
 20
-0.7552116249
 10
1.3275911731
 20
-0.7895330827
 10
1.3266219294
 20
-0.8222309977
 10
1.3251000344
 20
-0.8533053697
 10
1.3229420966
 20
-0.8831064048
 10
1.3202315077
 20
-0.911283897
 10
1.317218442
 20
-0.9367872285
 10
1.3139661761
 20
-0.9591089483
 10
1.3104114335
 20
-0.9787565073
 10
1.3066145591
 20
-0.9962016405
 10
1.3026323746
 20
-1.0116298851
 10
1.2984080582
 20
-1.024855704
 10
1.293831489
 20
-1.0357942204
 10
1.2888659601
 20
-1.0444171422
 10
1.2835481783
 20
-1.0507527616
 10
1.2778781438
 20
-1.0548010786
  0
LWPOLYLINE
  5
4F2
100
AcDbEntity
  8
RACCORDO
100
AcDbPolyline
 62
250
  6
CONTINUOUS
 90
16
 70
0
 10
1.3280077657
 20
-27.2552116249
 10
1.3275911731
 20
-27.2895330827
 10
1.3266219294
 20
-27.3222309977
 10
1.3251000344
 20
-27.3533053697
 10
1.3229420966
 20
-27.3831064048
 10
1.3202315077
 20
-27.411283897
 10
1.317218442
 20
-27.4367872285
 10
1.3139661761
 20
-27.4591089483
 10
1.3104114335
 20
-27.4787565073
 10
1.3066145591
 20
-27.4962016405
 10
1.3026323746
 20
-27.5116298851
 10
1.2984080582
 20
-27.524855704
 10
1.293831489
 20
-27.5357942204
 10
1.2888659601
 20
-27.5444171422
 10
1.2835481783
 20
-27.5507527616
 10
1.2778781438
 20
-27.5548010786
  0
LWPOLYLINE
  5
4F3
100
AcDbEntity
  8
RACCORDO
100
AcDbPolyline
 62
250
  6
CONTINUOUS
 90
15
 70
0
 10
1.1802867469
 20
-0.7552122182
 10
1.1798680717
 20
-0.7721000463
 10
1.1788976548
 20
-0.7885112192
 10
1.1773754962
 20
-0.8042584667
 10
1.175218871
 20
-0.8192691955
 10
1.1725105041
 20
-0.8333025252
 10
1.1694985706
 20
-0.8459999213
 10
1.1662447112
 20
-0.857139354
 10
1.1626872851
 20
-0.8669399908
 10
1.1588895447
 20
-0.8757062994
 10
1.1549106825
 20
-0.8833522896
 10
1.1506915061
 20
-0.8898825697
 10
1.1461176902
 20
-0.895504267
 10
1.1411511267
 20
-0.9000816529
 10
1.1358299238
 20
-0.9033160727
  0
LWPOLYLINE
  5
4F4
100
AcDbEntity
  8
RACCORDO
100
AcDbPolyline
 62
250
  6
CONTINUOUS
 90
15
 70
0
 10
1.1802867469
 20
-27.2552122182
 10
1.1798680717
 20
-27.2721000463
 10
1.1788976548
 20
-27.2885112192
 10
1.1773754962
 20
-27.3042584667
 10
1.175218871
 20
-27.3192691955
 10
1.1725105041
 20
-27.3333025252
 10
1.1694985706
 20
-27.3459999213
 10
1.1662447112
 20
-27.357139354
 10
1.1626872851
 20
-27.3669399908
 10
1.1588895447
 20
-27.3757062994
 10
1.1549106825
 20
-27.3833522896
 10
1.1506915061
 20
-27.3898825697
 10
1.1461176902
 20
-27.395504267
 10
1.1411511267
 20
-27.4000816529
 10
1.1358299238
 20
-27.4033160727
  0
LWPOLYLINE
  5
4F5
100
AcDbEntity
  8
RACCORDO
100
AcDbPolyline
 62
250
  6
CONTINUOUS
 90
13
 70
0
 10
0.4409273057
 20
-26.9105423788
 10
0.4413900186
 20
-26.8976812232
 10
0.442968009
 20
-26.8850844588
 10
0.4456112041
 20
-26.8728368961
 10
0.4492273601
 20
-26.8611183973
 10
0.4537764334
 20
-26.849889309
 10
0.4593521086
 20
-26.8389227705
 10
0.4659769419
 20
-26.8282725454
 10
0.4736273687
 20
-26.8180775992
 10
0.482425334
 20
-26.8083008702
 10
0.4924276095
 20
-26.7990374428
 10
0.5035809719
 20
-26.7904818625
 10
0.5158564004
 20
-26.7827860207
  0
LWPOLYLINE
  5
4F6
100
AcDbEntity
  8
RACCORDO
100
AcDbPolyline
 62
250
  6
CONTINUOUS
 90
13
 70
0
 10
0.2932059603
 20
-26.9105427149
 10
0.2945086413
 20
-26.8846203153
 10
0.2977580255
 20
-26.8595208778
 10
0.3029541129
 20
-26.8352444024
 10
0.3100767444
 20
-26.8118279152
 10
0.3191460792
 20
-26.7892343901
 10
0.3302225945
 20
-26.7673527487
 10
0.343253904
 20
-26.7460126556
 10
0.3582923941
 20
-26.7253844462
 10
0.3755557015
 20
-26.7058680486
 10
0.3951163716
 20
-26.6875967724
 10
0.416901859
 20
-26.670437308
 10
0.4409121637
 20
-26.6543896556
  0
LWPOLYLINE
  5
4F7
100
AcDbEntity
  8
RACCORDO
100
AcDbPolyline
 62
250
  6
CONTINUOUS
 90
13
 70
0
 10
1.6304400018
 20
0.691920425
 10
1.6318634461
 20
0.7113608429
 10
1.635761244
 20
0.7304724624
 10
1.6420674714
 20
0.7489320459
 10
1.6506754704
 20
0.766427384
 10
1.6614396526
 20
0.7826625756
 10
1.6741779619
 20
0.7973630325
 10
1.6886749536
 20
0.8102801241
 10
1.7046854379
 20
0.8211953816
 10
1.7219386274
 20
0.8299241939
 10
1.7401427164
 20
0.8363189293
 10
1.7589898167
 20
0.8402714328
 10
1.7781611647
 20
0.8417148552
  0
LWPOLYLINE
  5
4F8
100
AcDbEntity
  8
RACCORDO
100
AcDbPolyline
 62
250
  6
CONTINUOUS
 90
13
 70
0
 10
0.554747335
 20
-26.9443718866
 10
0.5561707795
 20
-26.9249314684
 10
0.5600685777
 20
-26.9058198488
 10
0.5663748054
 20
-26.8873602651
 10
0.5749828045
 20
-26.869864927
 10
0.5857469867
 20
-26.8536297355
 10
0.598485296
 20
-26.8389292785
 10
0.6129822876
 20
-26.8260121871
 10
0.6289927717
 20
-26.8150969297
 10
0.646245961
 20
-26.8063681175
 10
0.6644500499
 20
-26.7999733822
 10
0.6832971501
 20
-26.7960208788
 10
0.7024684979
 20
-26.7945774564
  0
LWPOLYLINE
  5
4F9
100
AcDbEntity
  8
RACCORDO
100
AcDbPolyline
 62
250
  6
CONTINUOUS
 90
16
 70
0
 10
2.5982485437
 20
-15.8333492421
 10
2.5960405205
 20
-15.8364697324
 10
2.5939346895
 20
-15.8408570738
 10
2.5919310508
 20
-15.8464529117
 10
2.5900197406
 20
-15.8531736356
 10
2.5882106226
 20
-15.8609542528
 10
2.5865332883
 20
-15.8697726097
 10
2.5849838897
 20
-15.8795849081
 10
2.5835662748
 20
-15.8902873585
 10
2.5823215784
 20
-15.9017714852
 10
2.5812563523
 20
-15.9139314814
 10
2.5803640447
 20
-15.9266669142
 10
2.5796661353
 20
-15.9398644765
 10
2.5791697837
 20
-15.953408763
 10
2.5788678303
 20
-15.9671836504
 10
2.5787602749
 20
-15.9810704051
  0
LWPOLYLINE
  5
4FA
100
AcDbEntity
  8
0
100
AcDbPolyline
 62
7
  6
CONTINUOUS
 90
10
 70
0
 10
-11.2432043841
 20
-26.9859107932
 10
-11.2293985324
 20
-26.9745272071
 10
-11.2161189225
 20
-26.9623814547
 10
-11.2033655543
 20
-26.9494735362
 10
-11.1911262559
 20
-26.9358233958
 10
-11.1794131993
 20
-26.9214110893
 10
-11.1682629006
 20
-26.906176783
 10
-11.157687532
 20
-26.8901005324
 10
-11.1476749214
 20
-26.873202282
 10
-11.1382250687
 20
-26.8554820319
  0
LWPOLYLINE
  5
4FB
100
AcDbEntity
  8
0
100
AcDbPolyline
 62
7
  6
CONTINUOUS
 90
10
 70
0
 10
-8.8859429943
 20
-26.1683452097
 10
-8.872052457
 20
-26.1583461474
 10
-8.8571649145
 20
-26.1493936961
 10
-8.8412803669
 20
-26.1414878555
 10
-8.824566028
 20
-26.134576238
 10
-8.8068546839
 20
-26.1287112313
 10
-8.7876446934
 20
-26.1240499992
 10
-8.7667688426
 20
-26.1206449297
 10
-8.7443943454
 20
-26.1184436348
 10
-8.7205212017
 20
-26.1174461146
  0
LWPOLYLINE
  5
4FC
100
AcDbEntity
  8
0
100
AcDbPolyline
 62
7
  6
CONTINUOUS
 90
10
 70
0
 10
-9.022734048
 20
-25.9870173534
 10
-9.0474576199
 20
-26.0026087288
 10
-9.0707033834
 20
-26.0195004711
 10
-9.0924713384
 20
-26.0376925803
 10
-9.1126698857
 20
-26.0570466944
 10
-9.1313906246
 20
-26.0777011754
 10
-9.1489083527
 20
-26.1000711091
 10
-9.1653146692
 20
-26.1242948572
 10
-9.180517975
 20
-26.150234058
 10
-9.1945182701
 20
-26.1778887113
  0
LWPOLYLINE
  5
4FD
100
AcDbEntity
  8
0
100
AcDbPolyline
 62
7
  6
CONTINUOUS
 90
10
 70
0
 10
-10.5497050484
 20
-26.5723561843
 10
-10.527203804
 20
-26.5582282186
 10
-10.5049892481
 20
-26.5438786625
 10
-10.4830613808
 20
-26.5293075159
 10
-10.461495044
 20
-26.5145689265
 10
-10.4402153958
 20
-26.4996087467
 10
-10.4189979101
 20
-26.4842645337
 10
-10.3977677448
 20
-26.4684821402
 10
-10.3765997419
 20
-26.4523157136
 10
-10.3554939015
 20
-26.4357652539
  0
LWPOLYLINE
  5
4FE
100
AcDbEntity
  8
RACCORDO
100
AcDbPolyline
 62
250
  6
CONTINUOUS
 90
10
 70
0
 10
-16.1277145905
 20
-27.4276249001
 10
-16.1358852596
 20
-27.4318773476
 10
-16.1443184219
 20
-27.4355932859
 10
-16.1529802078
 20
-27.43877221
 10
-16.1617534141
 20
-27.4413964843
 10
-16.1706879727
 20
-27.4434977119
 10
-16.1800124844
 20
-27.4451144873
 10
-16.1897908874
 20
-27.4462218137
 10
-16.1999109158
 20
-27.4467734924
 10
-16.210342349
 20
-27.4467396154
  0
LWPOLYLINE
  5
4FF
100
AcDbEntity
  8
0
100
AcDbPolyline
 62
7
  6
CONTINUOUS
 90
10
 70
0
 10
-11.7585570813
 20
-26.1492580145
 10
-11.745266955
 20
-26.1429775934
 10
-11.7313055125
 20
-26.1373576501
 10
-11.7166727536
 20
-26.1323981844
 10
-11.701463353
 20
-26.128064578
 10
-11.6855826361
 20
-26.1243914494
 10
-11.6687465791
 20
-26.1214826532
 10
-11.6508605071
 20
-26.1193728078
 10
-11.632019095
 20
-26.118027295
 10
-11.6122223427
 20
-26.1174461146
  0
LWPOLYLINE
  5
500
100
AcDbEntity
  8
RACCORDO
100
AcDbPolyline
 62
250
  6
CONTINUOUS
 90
10
 70
0
 10
-16.0527703538
 20
-27.5560214066
 10
-16.0724622162
 20
-27.5646499265
 10
-16.0925483797
 20
-27.5722388831
 10
-16.1130150175
 20
-27.5787882764
 10
-16.1336993484
 20
-27.5842877265
 10
-16.1547325816
 20
-27.5887476134
 10
-16.1765353497
 20
-27.5921990763
 10
-16.199226808
 20
-27.5946524951
 10
-16.2226287929
 20
-27.59609749
 10
-16.2467053635
 20
-27.596534061
  0
LINE
  5
501
100
AcDbEntity
  8
RACCORDO
100
AcDbLine
 62
250
  6
CONTINUOUS
 10
-17.3900193549
 20
-25.6582851448
 11
-16.9083995623
 21
-25.515138454
  0
LINE
  5
502
100
AcDbEntity
  8
RACCORDO
100
AcDbLine
 62
250
  6
CONTINUOUS
 10
-16.8406165562
 20
-25.6886920461
 11
-17.2422981919
 21
-25.808079575
  0
LINE
  5
503
100
AcDbEntity
  8
RACCORDO
100
AcDbLine
 62
250
  6
CONTINUOUS
 10
-16.8897363339
 20
-26.6556098422
 11
-16.8406165562
 21
-26.6410104969
  0
LINE
  5
504
100
AcDbEntity
  8
RACCORDO
100
AcDbLine
 62
7
  6
CONTINUOUS
 10
-12.5559290951
 20
-5.6552054604
 11
-3.0559290951
 21
-5.6552054604
  0
LINE
  5
505
100
AcDbEntity
  8
0
100
AcDbLine
 62
7
  6
CONTINUOUS
 10
-4.4218170951
 20
-5.0452054604
 11
-4.7017830951
 21
-5.0452054604
  0
LINE
  5
506
100
AcDbEntity
  8
0
100
AcDbLine
 62
7
  6
CONTINUOUS
 10
-5.8247230951
 20
-5.0452054604
 11
-6.0951230951
 21
-5.0452054604
  0
LINE
  5
507
100
AcDbEntity
  8
0
100
AcDbLine
 62
7
  6
CONTINUOUS
 10
-6.2446310951
 20
-5.0451994604
 11
-7.3262350951
 21
-5.0451994604
  0
LINE
  5
508
100
AcDbEntity
  8
0
100
AcDbLine
 62
7
  6
CONTINUOUS
 10
-7.7471790951
 20
-5.0451994604
 11
-8.1671180951
 21
-5.0451994604
  0
LINE
  5
509
100
AcDbEntity
  8
0
100
AcDbLine
 62
7
  6
CONTINUOUS
 10
-8.9401470951
 20
-5.0451994604
 11
-9.1914610951
 21
-5.0451994604
  0
LINE
  5
50A
100
AcDbEntity
  8
0
100
AcDbLine
 62
7
  6
CONTINUOUS
 10
-10.2033980951
 20
-5.0451994604
 11
-11.1959290951
 21
-5.0451994604
  0
LINE
  5
50B
100
AcDbEntity
  8
0
100
AcDbLine
 62
7
  6
CONTINUOUS
 10
-9.6156040951
 20
-5.0451944604
 11
-9.8860060951
 21
-5.0451944604
  0
LINE
  5
50C
100
AcDbEntity
  8
0
100
AcDbLine
 62
7
  6
CONTINUOUS
 10
-10.9255280951
 20
-4.8288784604
 11
-10.2033980951
 21
-4.8288784604
  0
LINE
  5
50D
100
AcDbEntity
  8
0
100
AcDbLine
 62
7
  6
CONTINUOUS
 10
-7.0558340951
 20
-4.8288784604
 11
-6.2446310951
 21
-4.8288784604
  0
LINE
  5
50E
100
AcDbEntity
  8
0
100
AcDbLine
 62
7
  6
CONTINUOUS
 10
-4.8640020951
 20
-4.4630264604
 11
-5.6624820951
 21
-4.4630264604
  0
LINE
  5
50F
100
AcDbEntity
  8
0
100
AcDbLine
 62
7
  6
CONTINUOUS
 10
-5.5956760951
 20
-4.2467054604
 11
-4.9276260951
 21
-4.2467054604
  0
LINE
  5
510
100
AcDbEntity
  8
RACCORDO
100
AcDbLine
 62
250
  6
CONTINUOUS
 10
-16.9083995623
 20
-2.1952724668
 11
-17.3900193549
 21
-2.052125776
  0
LINE
  5
511
100
AcDbEntity
  8
RACCORDO
100
AcDbLine
 62
250
  6
CONTINUOUS
 10
-17.2422981919
 20
-1.9023313458
 11
-16.8406165562
 21
-2.0217188747
  0
LINE
  5
512
100
AcDbEntity
  8
RACCORDO
100
AcDbLine
 62
250
  6
CONTINUOUS
 10
-16.8406165562
 20
-1.0694004239
 11
-16.8897360942
 21
-1.0548011499
  0
LWPOLYLINE
  5
513
100
AcDbEntity
  8
RACCORDO
100
AcDbPolyline
 62
250
  6
CONTINUOUS
 90
16
 70
0
 10
-16.7420093195
 20
-0.9050066484
 10
-16.7483174018
 20
-0.9030325978
 10
-16.7542232746
 20
-0.8991325638
 10
-16.759726938
 20
-0.8935246206
 10
-16.7648589986
 20
-0.8864144898
 10
-16.7695888498
 20
-0.8780435223
 10
-16.7738246711
 20
-0.8687212646
 10
-16.7774998831
 20
-0.8588548946
 10
-16.7806810652
 20
-0.848535105
 10
-16.7834761358
 20
-0.8375052182
 10
-16.7859288139
 20
-0.8259050648
 10
-16.7879953804
 20
-0.8138074748
 10
-16.7896525968
 20
-0.8006821818
 10
-16.790892717
 20
-0.7863689987
 10
-16.7917234872
 20
-0.7711683202
 10
-16.7921449073
 20
-0.7552122182
  0
LWPOLYLINE
  5
514
100
AcDbEntity
  8
0
100
AcDbPolyline
 62
7
  6
CONTINUOUS
 90
13
 70
0
 10
-3.9959835816
 20
-1.0458267287
 10
-4.0101342046
 20
-1.0138265936
 10
-4.0259697272
 20
-0.9844839698
 10
-4.0434901494
 20
-0.9577988574
 10
-4.0628607764
 20
-0.9336809154
 10
-4.083916303
 20
-0.9122204848
 10
-4.1061608144
 20
-0.893688588
 10
-4.1294213266
 20
-0.8782255954
 10
-4.1538708235
 20
-0.8656911366
 10
-4.1795323422
 20
-0.8559351229
 10
-4.2064135617
 20
-0.8489075246
 10
-4.2345068028
 20
-0.8446583713
 10
-4.2638120657
 20
-0.8431876631
  0
LWPOLYLINE
  5
515
100
AcDbEntity
  8
RACCORDO
100
AcDbPolyline
 62
250
  6
CONTINUOUS
 90
6
 70
0
 10
2.6749143807
 20
-12.1350053609
 10
2.6758706347
 20
-12.1451456868
 10
2.6767762339
 20
-12.1591328531
 10
2.6776311783
 20
-12.1766395388
 10
2.6784408354
 20
-12.1974228951
 10
2.6791998377
 20
-12.2210646545
  0
LWPOLYLINE
  5
516
100
AcDbEntity
  8
RACCORDO
100
AcDbPolyline
 62
250
  6
CONTINUOUS
 90
13
 70
0
 10
1.6304400018
 20
-1.9023313458
 10
1.6318632162
 20
-1.9217701509
 10
1.6357604634
 20
-1.9408805595
 10
1.6420659614
 20
-1.9593393727
 10
1.6506732037
 20
-1.9768343993
 10
1.6614367324
 20
-1.9930696885
 10
1.674174575
 20
-2.007770549
 10
1.6886713853
 20
-2.0206882813
 10
1.7046820307
 20
-2.0316043081
 10
1.7219356764
 20
-2.0403338682
 10
1.7401404871
 20
-2.0467292347
 10
1.7589885839
 20
-2.0506821816
 10
1.7781611647
 20
-2.052125776
  0
LWPOLYLINE
  5
517
100
AcDbEntity
  8
RACCORDO
100
AcDbPolyline
 62
250
  6
CONTINUOUS
 90
21
 70
0
 10
1.2287583661
 20
0.8113079539
 10
1.2286506596
 20
0.8131561768
 10
1.2284993117
 20
0.8150136164
 10
1.2283039677
 20
0.81688002
 10
1.2280619917
 20
0.8187624407
 10
1.2277754595
 20
0.8206533367
 10
1.2274503997
 20
0.8225306121
 10
1.2270861659
 20
0.8243832783
 10
1.2266811364
 20
0.8262220279
 10
1.226239608
 20
0.8280573223
 10
1.225763165
 20
0.8298850885
 10
1.2252489753
 20
0.8317091305
 10
1.2246957898
 20
0.833551624
 10
1.2241038251
 20
0.8354151134
 10
1.2234731115
 20
0.8372966305
 10
1.2228032223
 20
0.8392099275
 10
1.2220949245
 20
0.8411538354
 10
1.2213484703
 20
0.8431289298
 10
1.2205635976
 20
0.8451513947
 10
1.2197416361
 20
0.8472186715
 10
1.2179887182
 20
0.8515147935
  0
LINE
  5
518
100
AcDbEntity
  8
RACCORDO
100
AcDbLine
 62
250
  6
CONTINUOUS
 10
2.6791998377
 20
-12.2210646545
 11
2.6805112752
 21
-12.2741896897
  0
LWPOLYLINE
  5
519
100
AcDbEntity
  8
RACCORDO
100
AcDbPolyline
 62
250
  6
CONTINUOUS
 90
3
 70
0
 10
2.3827376059
 20
-12.5326046628
 10
2.3833180442
 20
-12.5569131842
 10
2.3835431968
 20
-12.5694860051
  0
LINE
  5
51A
100
AcDbEntity
  8
RACCORDO
100
AcDbLine
 62
250
  6
CONTINUOUS
 10
2.6805112752
 20
-12.2741896897
 11
2.6815521713
 21
-12.3320741591
  0
LINE
  5
51B
100
AcDbEntity
  8
RACCORDO
100
AcDbLine
 62
250
  6
CONTINUOUS
 10
2.6815521713
 20
-12.3320741591
 11
2.6826364917
 21
-12.4205040987
  0
LINE
  5
51C
100
AcDbEntity
  8
RACCORDO
100
AcDbLine
 62
250
  6
CONTINUOUS
 10
2.3835431968
 20
-12.5694860051
 11
2.3838564447
 21
-12.5969350611
  0
LWPOLYLINE
  5
51D
100
AcDbEntity
  8
RACCORDO
100
AcDbPolyline
 62
250
  6
CONTINUOUS
 90
19
 70
0
 10
2.5787602749
 20
-11.7293405157
 10
2.5788700804
 20
-11.7426710054
 10
2.5791418108
 20
-11.755735223
 10
2.5795754663
 20
-11.7684379673
 10
2.5801902201
 20
-11.7807620425
 10
2.5809668988
 20
-11.7925560732
 10
2.581847983
 20
-11.8035585305
 10
2.5828314807
 20
-11.8136762757
 10
2.5839193838
 20
-11.8229612471
 10
2.5850601481
 20
-11.8314128213
 10
2.5862330822
 20
-11.8389539277
 10
2.5874588774
 20
-11.8457019723
 10
2.5887480638
 20
-11.851903492
 10
2.5900888521
 20
-11.8575248316
 10
2.5914930316
 20
-11.8625461852
 10
2.5930065007
 20
-11.867106563
 10
2.5946445588
 20
-11.8711492344
 10
2.5963919065
 20
-11.8745043243
 10
2.5982485437
 20
-11.8770616787
  0
LINE
  5
51E
100
AcDbEntity
  8
0
100
AcDbLine
 62
7
  6
CONTINUOUS
 10
1.9393607201
 20
3.2619479583
 11
1.9435445703
 21
2.6033978951
  0
LINE
  5
51F
100
AcDbEntity
  8
RACCORDO
100
AcDbLine
 62
7
  6
CONTINUOUS
 10
1.9435445703
 20
2.6033978951
 11
1.9393607201
 21
3.2619479583
  0
LINE
  5
520
100
AcDbEntity
  8
RACCORDO
100
AcDbLine
 62
250
  6
CONTINUOUS
 10
2.6826364917
 20
-12.4205040987
 11
2.6833112635
 21
-12.5158374757
  0
LINE
  5
521
100
AcDbEntity
  8
RACCORDO
100
AcDbLine
 62
250
  6
CONTINUOUS
 10
2.3838564447
 20
-12.5969350611
 11
2.3839869731
 21
-12.6274092374
  0
LINE
  5
522
100
AcDbEntity
  8
DRAFT
100
AcDbLine
 62
7
  6
CONTINUOUS
 10
2.1437282593
 20
-25.488300537
 11
2.1437282593
 21
-25.5052054604
  0
LINE
  5
523
100
AcDbEntity
  8
DRAFT
100
AcDbLine
 62
7
  6
CONTINUOUS
 10
2.1437282593
 20
-28.7052054604
 11
2.1437282593
 21
-28.7221103838
  0
LINE
  5
524
100
AcDbEntity
  8
DRAFT
100
AcDbLine
 62
7
  6
CONTINUOUS
 10
2.1437282593
 20
-2.2221103838
 11
2.1437282593
 21
-2.2052054604
  0
LINE
  5
525
100
AcDbEntity
  8
DRAFT
100
AcDbLine
 62
7
  6
CONTINUOUS
 10
2.1437282593
 20
0.9947945396
 11
2.1437282593
 21
1.011699463
  0
LINE
  5
526
100
AcDbEntity
  8
RACCORDO
100
AcDbLine
 62
7
  6
CONTINUOUS
 10
2.2940709325
 20
-15.5626885242
 11
2.2940709166
 21
-12.1477222939
  0
LINE
  5
527
100
AcDbEntity
  8
RACCORDO
100
AcDbLine
 62
7
  6
CONTINUOUS
 10
2.3827460395
 20
0.4422630413
 11
2.3827460395
 21
-1.6526739621
  0
LINE
  5
528
100
AcDbEntity
  8
RACCORDO
100
AcDbLine
 62
7
  6
CONTINUOUS
 10
2.3827460395
 20
-28.1526739621
 11
2.3827460395
 21
-26.0577369587
  0
LINE
  5
529
100
AcDbEntity
  8
RACCORDO
100
AcDbLine
 62
7
  6
CONTINUOUS
 10
2.4440709049
 20
11.1447945396
 11
2.4440709049
 21
2.4323878234
  0
LINE
  5
52A
100
AcDbEntity
  8
RACCORDO
100
AcDbLine
 62
7
  6
CONTINUOUS
 10
2.4440709049
 20
-30.1427987442
 11
2.4440709049
 21
-38.8552054604
  0
LINE
  5
52B
100
AcDbEntity
  8
RACCORDO
100
AcDbLine
 62
250
  6
CONTINUOUS
 10
2.6833112635
 20
-12.5158374757
 11
2.6835758335
 21
-15.0830016834
  0
LINE
  5
52C
100
AcDbEntity
  8
DRAFT
100
AcDbLine
 62
7
  6
CONTINUOUS
 10
2.7940709049
 20
-25.6330110086
 11
2.7940709049
 21
-28.5773999122
  0
LINE
  5
52D
100
AcDbEntity
  8
DRAFT
100
AcDbLine
 62
7
  6
CONTINUOUS
 10
2.7940709049
 20
-2.0773999122
 11
2.7940709049
 21
0.8669889914
  0
LINE
  5
52E
100
AcDbEntity
  8
RACCORDO
100
AcDbLine
 62
7
  6
CONTINUOUS
 10
2.8440709049
 20
1.6947945396
 11
2.8440709049
 21
-2.9052054604
  0
LINE
  5
52F
100
AcDbEntity
  8
RACCORDO
100
AcDbLine
 62
7
  6
CONTINUOUS
 10
2.8440709049
 20
-24.8052054604
 11
2.8440709049
 21
-29.4052054604
  0
LINE
  5
530
100
AcDbEntity
  8
RACCORDO
100
AcDbLine
 62
7
  6
CONTINUOUS
 10
3.1062342579
 20
-15.0830016834
 11
3.1062342579
 21
-12.6274092374
  0
LINE
  5
531
100
AcDbEntity
  8
RACCORDO
100
AcDbLine
 62
7
  6
CONTINUOUS
 10
3.158606101
 20
11.9157294732
 11
3.158606101
 21
1.8947945396
  0
LINE
  5
532
100
AcDbEntity
  8
RACCORDO
100
AcDbLine
 62
7
  6
CONTINUOUS
 10
3.158606101
 20
-3.1052054604
 11
3.158606101
 21
-11.7293405157
  0
LINE
  5
533
100
AcDbEntity
  8
RACCORDO
100
AcDbLine
 62
7
  6
CONTINUOUS
 10
3.158606101
 20
-15.9810704051
 11
3.158606101
 21
-24.6052054604
  0
LINE
  5
534
100
AcDbEntity
  8
RACCORDO
100
AcDbLine
 62
7
  6
CONTINUOUS
 10
3.158606101
 20
-29.6052054604
 11
3.158606101
 21
-39.626140394
  0
LINE
  5
535
100
AcDbEntity
  8
RACCORDO
100
AcDbLine
 62
7
  6
CONTINUOUS
 10
3.1769362461
 20
11.9769715377
 11
3.1769362461
 21
1.8947945396
  0
LINE
  5
536
100
AcDbEntity
  8
DRAFT
100
AcDbLine
 62
7
  6
CONTINUOUS
 10
3.1769362461
 20
-3.1052054604
 11
3.1769362461
 21
-24.6052054604
  0
LINE
  5
537
100
AcDbEntity
  8
RACCORDO
100
AcDbLine
 62
7
  6
CONTINUOUS
 10
3.1769362461
 20
-29.6052054604
 11
3.1769362461
 21
-39.6873824585
  0
LINE
  5
538
100
AcDbEntity
  8
0
100
AcDbLine
 62
7
  6
CONTINUOUS
 10
3.228606101
 20
11.9795010732
 11
3.228606101
 21
-39.689911994
  0
LWPOLYLINE
  5
539
100
AcDbEntity
  8
RACCORDO
100
AcDbPolyline
 62
250
  6
CONTINUOUS
 90
19
 70
0
 10
2.3839869731
 20
-12.6274092374
 10
2.3839365202
 20
-15.101213943
 10
2.3838126736
 20
-15.1188065537
 10
2.3836154335
 20
-15.1357795157
 10
2.3833361884
 20
-15.1522894795
 10
2.3829835496
 20
-15.1681797944
 10
2.3825833515
 20
-15.1829805083
 10
2.3821350214
 20
-15.1965599441
 10
2.381639132
 20
-15.2090497787
 10
2.3811232349
 20
-15.2203750907
 10
2.3805983444
 20
-15.2303894549
 10
2.3800534464
 20
-15.2392392964
 10
2.3794830495
 20
-15.2472889691
 10
2.378892312
 20
-15.2546432183
 10
2.3782760758
 20
-15.2611972987
 10
2.377613375
 20
-15.2670013287
 10
2.3768972213
 20
-15.2720720142
 10
2.376134603
 20
-15.2763926494
 10
2.3753255203
 20
-15.279963234
  0
LINE
  5
53A
100
AcDbEntity
  8
RACCORDO
100
AcDbLine
 62
250
  6
CONTINUOUS
 10
2.6835758335
 20
-15.0830016834
 11
2.6832038783
 21
-15.2149462618
  0
LINE
  5
53B
100
AcDbEntity
  8
RACCORDO
100
AcDbLine
 62
7
  6
CONTINUOUS
 10
1.9393607201
 20
-30.9723588791
 11
1.9435445703
 21
-30.3138088159
  0
LINE
  5
53C
100
AcDbEntity
  8
0
100
AcDbLine
 62
7
  6
CONTINUOUS
 10
1.9435445703
 20
-30.3138088159
 11
1.9393607201
 21
-30.9723588791
  0
LINE
  5
53D
100
AcDbEntity
  8
RACCORDO
100
AcDbLine
 62
250
  6
CONTINUOUS
 10
2.6832038783
 20
-15.2149462618
 11
2.6821724234
 21
-15.3329487475
  0
LINE
  5
53E
100
AcDbEntity
  8
RACCORDO
100
AcDbLine
 62
250
  6
CONTINUOUS
 10
2.6821724234
 20
-15.3329487475
 11
2.6812279399
 21
-15.3982174835
  0
LINE
  5
53F
100
AcDbEntity
  8
RACCORDO
100
AcDbLine
 62
250
  6
CONTINUOUS
 10
2.6812279399
 20
-15.3982174835
 11
2.6801868447
 21
-15.4513525815
  0
LWPOLYLINE
  5
540
100
AcDbEntity
  8
RACCORDO
100
AcDbPolyline
 62
250
  6
CONTINUOUS
 90
8
 70
0
 10
2.6801868447
 20
-15.4513525815
 10
2.6790715141
 20
-15.4937198939
 10
2.6784812841
 20
-15.5119798395
 10
2.6778657539
 20
-15.5282286564
 10
2.6772034462
 20
-15.5430008057
 10
2.6764872019
 20
-15.5561315322
 10
2.6757241801
 20
-15.5670512855
 10
2.6749143807
 20
-15.5754055599
  0
LWPOLYLINE
  5
541
100
AcDbEntity
  8
RACCORDO
100
AcDbPolyline
 62
7
  6
CONTINUOUS
 90
22
 70
0
 10
2.2940709166
 20
-12.1477221089
 10
2.2950676904
 20
-12.1226111685
 10
2.2976968082
 20
-12.0978430002
 10
2.30195827
 20
-12.0734176042
 10
2.3079562854
 20
-12.0492138805
 10
2.3155866448
 20
-12.0253529291
 10
2.3245367194
 20
-12.0021980494
 10
2.3348325837
 20
-11.9798171557
 10
2.3464481633
 20
-11.9581423338
 10
2.3589926057
 20
-11.9373331406
 10
2.3723950842
 20
-11.9175077928
 10
2.3867264255
 20
-11.8985480736
 10
2.4018082579
 20
-11.8802588903
 10
2.4175152048
 20
-11.8627225685
 10
2.4339726427
 20
-11.8458567825
 10
2.4513783293
 20
-11.8292194621
 10
2.4697004397
 20
-11.8128102377
 10
2.4889707987
 20
-11.7966294788
 10
2.5094826386
 20
-11.7802362234
 10
2.5313337032
 20
-11.7634834841
 10
2.5544262487
 20
-11.7465182482
 10
2.5787602749
 20
-11.7293405157
  0
LWPOLYLINE
  5
542
100
AcDbEntity
  8
RACCORDO
100
AcDbPolyline
 62
250
  6
CONTINUOUS
 90
13
 70
0
 10
1.6304400018
 20
-25.808079575
 10
1.6318634461
 20
-25.7886391571
 10
1.635761244
 20
-25.7695275376
 10
1.6420674714
 20
-25.7510679541
 10
1.6506754704
 20
-25.733572616
 10
1.6614396526
 20
-25.7173374244
 10
1.6741779619
 20
-25.7026369675
 10
1.6886749536
 20
-25.6897198759
 10
1.7046854379
 20
-25.6788046184
 10
1.7219386274
 20
-25.6700758061
 10
1.7401427164
 20
-25.6636810707
 10
1.7589898167
 20
-25.6597285672
 10
1.7781611647
 20
-25.6582851448
  0
LINE
  5
543
100
AcDbEntity
  8
RACCORDO
100
AcDbLine
 62
7
  6
CONTINUOUS
 10
3.1553602834
 20
-11.8770616787
 11
3.1170536499
 21
-12.1350053609
  0
LWPOLYLINE
  5
544
100
AcDbEntity
  8
RACCORDO
100
AcDbPolyline
 62
250
  6
CONTINUOUS
 90
7
 70
0
 10
2.2986596833
 20
-15.5379069162
 10
2.2978618005
 20
-15.5408946747
 10
2.2970771542
 20
-15.544339437
 10
2.2963057442
 20
-15.5482412031
 10
2.2955475706
 20
-15.552599973
 10
2.2948026333
 20
-15.5574157467
 10
2.2940709325
 20
-15.5626885242
  0
LINE
  5
545
100
AcDbEntity
  8
RACCORDO
100
AcDbLine
 62
250
  6
CONTINUOUS
 10
2.3753255203
 20
-15.279963234
 11
2.2986596833
 21
-15.5379069162
  0
LINE
  5
546
100
AcDbEntity
  8
RACCORDO
100
AcDbLine
 62
250
  6
CONTINUOUS
 10
2.6749143807
 20
-15.5754055599
 11
2.5982485437
 21
-15.8333492421
  0
LWPOLYLINE
  5
547
100
AcDbEntity
  8
0
100
AcDbPolyline
 62
7
  6
CONTINUOUS
 90
10
 70
0
 10
-8.562075043
 20
-28.0444651723
 10
-8.5747310748
 20
-28.0539406007
 10
-8.5886320699
 20
-28.0624465459
 10
-8.6037780284
 20
-28.0699830079
 10
-8.6200613856
 20
-28.0766195364
 10
-8.6375897062
 20
-28.0822865817
 10
-8.6566856839
 20
-28.0867754946
 10
-8.6774568834
 20
-28.0900167252
 10
-8.6997957401
 20
-28.0920798233
 10
-8.7237022539
 20
-28.092964789
  0
LWPOLYLINE
  5
548
100
AcDbEntity
  8
0
100
AcDbPolyline
 62
7
  6
CONTINUOUS
 90
10
 70
0
 10
-7.4480453803
 20
-26.1683452759
 10
-7.4341547279
 20
-26.1583461695
 10
-7.4192670998
 20
-26.1493936858
 10
-7.4033824961
 20
-26.1414878249
 10
-7.3866681295
 20
-26.1345762024
 10
-7.3689567873
 20
-26.1287112026
 10
-7.3497468309
 20
-26.1240499786
 10
-7.3288710476
 20
-26.1206449148
 10
-7.3064966502
 20
-26.1184436268
 10
-7.2826236387
 20
-26.1174461146
  0
LWPOLYLINE
  5
549
100
AcDbEntity
  8
0
100
AcDbPolyline
 62
7
  6
CONTINUOUS
 90
10
 70
0
 10
-6.0101478173
 20
-26.1683452759
 10
-5.9962571649
 20
-26.1583461695
 10
-5.9813695368
 20
-26.1493936858
 10
-5.9654849331
 20
-26.1414878249
 10
-5.9487705665
 20
-26.1345762024
 10
-5.9310592243
 20
-26.1287112026
 10
-5.9118492679
 20
-26.1240499786
 10
-5.8909734847
 20
-26.1206449148
 10
-5.8685990873
 20
-26.1184436268
 10
-5.8447260757
 20
-26.1174461146
  0
LWPOLYLINE
  5
54A
100
AcDbEntity
  8
0
100
AcDbPolyline
 62
7
  6
CONTINUOUS
 90
10
 70
0
 10
-8.418308082
 20
-28.2202123748
 10
-8.3935028534
 20
-28.2035150575
 10
-8.3702127522
 20
-28.185485932
 10
-8.3484377783
 20
-28.1661249985
 10
-8.3282920705
 20
-28.1456313375
 10
-8.30966149
 20
-28.1238058685
 10
-8.2922036205
 20
-28.1000513489
 10
-8.2758043234
 20
-28.074168698
 10
-8.2605777373
 20
-28.0463569966
 10
-8.2465238622
 20
-28.0166162445
  0
LWPOLYLINE
  5
54B
100
AcDbEntity
  8
0
100
AcDbPolyline
 62
7
  6
CONTINUOUS
 90
10
 70
0
 10
-7.5848362108
 20
-25.9870173534
 10
-7.6095598963
 20
-26.0026088049
 10
-7.6328057552
 20
-26.0195006117
 10
-7.6545737874
 20
-26.0376927739
 10
-7.6747723972
 20
-26.0570469396
 10
-7.6934931804
 20
-26.0777014607
 10
-7.7110109242
 20
-26.1000713928
 10
-7.7274172245
 20
-26.1242950879
 10
-7.7426204855
 20
-26.1502341941
 10
-7.7566207071
 20
-26.1778887113
  0
LWPOLYLINE
  5
54C
100
AcDbEntity
  8
0
100
AcDbPolyline
 62
7
  6
CONTINUOUS
 90
10
 70
0
 10
-6.1469386478
 20
-25.9870173534
 10
-6.1716623333
 20
-26.0026088049
 10
-6.1949081922
 20
-26.0195006117
 10
-6.2166762244
 20
-26.0376927739
 10
-6.2368748342
 20
-26.0570469396
 10
-6.2555956174
 20
-26.0777014607
 10
-6.2731133613
 20
-26.1000713928
 10
-6.2895196616
 20
-26.1242950879
 10
-6.3047229225
 20
-26.1502341941
 10
-6.3187231441
 20
-26.1778887113
  0
LWPOLYLINE
  5
54D
100
AcDbEntity
  8
0
100
AcDbPolyline
 62
7
  6
CONTINUOUS
 90
10
 70
0
 10
-11.4758053204
 20
-28.0572904796
 10
-11.4884075775
 20
-28.0638904815
 10
-11.5021182178
 20
-28.0697629397
 10
-11.5169372415
 20
-28.0749078542
 10
-11.532783832
 20
-28.0793517186
 10
-11.5497388059
 20
-28.0830680393
 10
-11.5680446125
 20
-28.0859773358
 10
-11.5877820684
 20
-28.0880531146
 10
-11.6088703571
 20
-28.0893218693
 10
-11.6313094785
 20
-28.0897835997
  0
LWPOLYLINE
  5
54E
100
AcDbEntity
  8
0
100
AcDbPolyline
 62
7
  6
CONTINUOUS
 90
10
 70
0
 10
-11.3513648202
 20
-28.2424807021
 10
-11.3254713911
 20
-28.2302716772
 10
-11.3011639605
 20
-28.217385007
 10
-11.2784425284
 20
-28.2038206914
 10
-11.2573886396
 20
-28.1895540452
 10
-11.2379207495
 20
-28.1746097537
 10
-11.2197942234
 20
-28.1590618732
 10
-11.2029275168
 20
-28.1429350891
 10
-11.1874021743
 20
-28.1262047159
 10
-11.1732181961
 20
-28.1088707538
  0
LINE
  5
54F
100
AcDbEntity
  8
DRAFT
100
AcDbLine
 62
7
  6
CONTINUOUS
 10
-17.3825067656
 20
-28.6783882866
 11
-17.4508780693
 21
-28.7052054604
  0
LINE
  5
550
100
AcDbEntity
  8
DRAFT
100
AcDbLine
 62
7
  6
CONTINUOUS
 10
-17.349568563
 20
-28.665685929
 11
-17.3825067656
 21
-28.6783882866
  0
LWPOLYLINE
  5
551
100
AcDbEntity
  8
DRAFT
100
AcDbPolyline
 62
7
  6
CONTINUOUS
 90
3
 70
0
 10
-17.301027093
 20
-28.6475569032
 10
-17.317080397
 20
-28.6534773501
 10
-17.349568563
 20
-28.665685929
  0
LWPOLYLINE
  5
552
100
AcDbEntity
  8
RACCORDO
100
AcDbPolyline
 62
7
  6
CONTINUOUS
 90
19
 70
0
 10
-17.1352229517
 20
-28.8949983737
 10
-17.1117985412
 20
-28.8865363288
 10
-17.0902277812
 20
-28.8765139875
 10
-17.0705106716
 20
-28.8649736183
 10
-17.0525599621
 20
-28.8517717744
 10
-17.036462903
 20
-28.8372487424
 10
-17.0224812451
 20
-28.8221978732
 10
-17.0107912634
 20
-28.8068226166
 10
-17.001216683
 20
-28.7912858451
 10
-16.9934904296
 20
-28.776264601
 10
-16.9877171962
 20
-28.762067164
 10
-16.9837922898
 20
-28.7487274413
 10
-16.9811345577
 20
-28.7364482885
 10
-16.9797149975
 20
-28.7254081078
 10
-16.9795626115
 20
-28.7158019492
 10
-16.9801832536
 20
-28.7078350875
 10
-16.9814122084
 20
-28.7016693811
 10
-16.9834141913
 20
-28.6974389749
 10
-16.9861892023
 20
-28.6952724668
  0
LINE
  5
553
100
AcDbEntity
  8
RACCORDO
100
AcDbLine
 62
250
  6
CONTINUOUS
 10
-16.7477107685
 20
-26.8071014497
 11
-16.6928953932
 21
-26.7908049272
  0
LINE
  5
554
100
AcDbEntity
  8
RACCORDO
100
AcDbLine
 62
250
  6
CONTINUOUS
 10
-16.210342349
 20
-26.7636713054
 11
-16.3143266881
 21
-26.7945774564
  0
LINE
  5
555
100
AcDbEntity
  8
RACCORDO
100
AcDbLine
 62
250
  6
CONTINUOUS
 10
-16.0527853133
 20
-26.9105423246
 11
-16.1666055251
 21
-26.9443718866
  0
LWPOLYLINE
  5
556
100
AcDbEntity
  8
RACCORDO
100
AcDbPolyline
 62
250
  6
CONTINUOUS
 90
13
 70
0
 10
1.0810372031
 20
-0.9196059937
 10
1.0664043502
 20
-0.9227430449
 10
1.0485291489
 20
-0.9256663518
 10
1.027411599
 20
-0.9283759143
 10
1.0024768281
 20
-0.9308681409
 10
0.9742997087
 20
-0.9331466232
 10
0.9446048585
 20
-0.9352221363
 10
0.914001296
 20
-0.9370768125
 10
0.8818800028
 20
-0.9387285195
 10
0.8481385414
 20
-0.9402416354
 10
0.8132234032
 20
-0.941630177
 10
0.7766880968
 20
-0.9428801274
 10
0.7370907103
 20
-0.9440138137
  0
LWPOLYLINE
  5
557
100
AcDbEntity
  8
RACCORDO
100
AcDbPolyline
 62
250
  6
CONTINUOUS
 90
10
 70
0
 10
1.2287583661
 20
-1.0694003101
 10
1.2122369951
 20
-1.0725376024
 10
1.1899270661
 20
-1.0754610551
 10
1.1627576279
 20
-1.0781706681
 10
1.1316815957
 20
-1.0806627953
 10
1.0975124728
 20
-1.0829410829
 10
1.0608416322
 20
-1.085016469
 10
1.0227533218
 20
-1.0868711774
 10
0.983530603
 20
-1.0885229843
 10
0.9421138612
 20
-1.0900361563
  0
LINE
  5
558
100
AcDbEntity
  8
DRAFT
100
AcDbLine
 62
7
  6
CONTINUOUS
 10
2.7940709049
 20
-2.0773999122
 11
2.2940709049
 21
-2.0925287349
  0
LINE
  5
559
100
AcDbEntity
  8
0
100
AcDbLine
 62
7
  6
CONTINUOUS
 10
-6.3082550951
 20
-3.9667764604
 11
-7.0558340951
 21
-3.9667764604
  0
LINE
  5
55A
100
AcDbEntity
  8
0
100
AcDbLine
 62
7
  6
CONTINUOUS
 10
-7.0558340951
 20
-3.7504544604
 11
-6.3082550951
 21
-3.7504544604
  0
LINE
  5
55B
100
AcDbEntity
  8
RACCORDO
100
AcDbLine
 62
7
  6
CONTINUOUS
 10
-18.7704642911
 20
-3.1052054604
 11
-18.6559290951
 21
-3.1052054604
  0
LINE
  5
55C
100
AcDbEntity
  8
DRAFT
100
AcDbLine
 62
7
  6
CONTINUOUS
 10
-18.7887944362
 20
-3.1052054604
 11
-18.7704642911
 21
-3.1052054604
  0
LINE
  5
55D
100
AcDbEntity
  8
RACCORDO
100
AcDbLine
 62
7
  6
CONTINUOUS
 10
3.158606101
 20
-3.1052054604
 11
3.0440709049
 21
-3.1052054604
  0
LINE
  5
55E
100
AcDbEntity
  8
DRAFT
100
AcDbLine
 62
7
  6
CONTINUOUS
 10
3.1769362461
 20
-3.1052054604
 11
3.158606101
 21
-3.1052054604
  0
LINE
  5
55F
100
AcDbEntity
  8
0
100
AcDbLine
 62
7
  6
CONTINUOUS
 10
-6.2668990951
 20
-2.9615194604
 11
-7.0558340951
 21
-2.9615194604
  0
LINE
  5
560
100
AcDbEntity
  8
0
100
AcDbLine
 62
7
  6
CONTINUOUS
 10
-11.1959290951
 20
-2.7451984604
 11
-10.9255280951
 21
-2.7451984604
  0
LINE
  5
561
100
AcDbEntity
  8
0
100
AcDbLine
 62
7
  6
CONTINUOUS
 10
-9.1914610951
 20
-2.7451984604
 11
-8.7715440951
 21
-2.7451984604
  0
LINE
  5
562
100
AcDbEntity
  8
0
100
AcDbLine
 62
7
  6
CONTINUOUS
 10
-7.9985150951
 20
-2.7451984604
 11
-7.7471790951
 21
-2.7451984604
  0
LINE
  5
563
100
AcDbEntity
  8
0
100
AcDbLine
 62
7
  6
CONTINUOUS
 10
-7.3262350951
 20
-2.7451984604
 11
-6.2668990951
 21
-2.7451984604
  0
LINE
  5
564
100
AcDbEntity
  8
0
100
AcDbLine
 62
7
  6
CONTINUOUS
 10
-9.8860060951
 20
-2.7451944604
 11
-9.6156040951
 21
-2.7451944604
  0
LINE
  5
565
100
AcDbEntity
  8
0
100
AcDbLine
 62
7
  6
CONTINUOUS
 10
-5.4207110951
 20
-2.7451834604
 11
-5.0866860951
 21
-2.7451834604
  0
LINE
  5
566
100
AcDbEntity
  8
RACCORDO
100
AcDbLine
 62
250
  6
CONTINUOUS
 10
1.5233647616
 20
-2.3949983737
 11
1.2965413715
 21
-2.3949983737
  0
LINE
  5
567
100
AcDbEntity
  8
RACCORDO
100
AcDbLine
 62
250
  6
CONTINUOUS
 10
-16.9083995621
 20
-2.3949983737
 11
-17.1352229517
 21
-2.3949983737
  0
LINE
  5
568
100
AcDbEntity
  8
DRAFT
100
AcDbLine
 62
7
  6
CONTINUOUS
 10
2.1437282593
 20
-2.2221103838
 11
1.9440709049
 21
-2.2221103838
  0
LINE
  5
569
100
AcDbEntity
  8
0
100
AcDbLine
 62
7
  6
CONTINUOUS
 10
2.1437282593
 20
-2.2221103838
 11
1.9440709049
 21
-2.2221103838
  0
LINE
  5
56A
100
AcDbEntity
  8
DRAFT
100
AcDbLine
 62
7
  6
CONTINUOUS
 10
-17.5559290951
 20
-2.2221103838
 11
-17.7555864494
 21
-2.2221103838
  0
LINE
  5
56B
100
AcDbEntity
  8
0
100
AcDbLine
 62
7
  6
CONTINUOUS
 10
-17.5559290951
 20
-2.2221103838
 11
-17.7555864494
 21
-2.2221103838
  0
LINE
  5
56C
100
AcDbEntity
  8
DRAFT
100
AcDbLine
 62
7
  6
CONTINUOUS
 10
-17.7555864494
 20
-2.2052054604
 11
-17.4508780693
 21
-2.2052054604
  0
LINE
  5
56D
100
AcDbEntity
  8
DRAFT
100
AcDbLine
 62
7
  6
CONTINUOUS
 10
1.8390198792
 20
-2.2052054604
 11
2.1437282593
 21
-2.2052054604
  0
LINE
  5
56E
100
AcDbEntity
  8
RACCORDO
100
AcDbLine
 62
250
  6
CONTINUOUS
 10
1.2965413721
 20
-2.1952724668
 11
1.3743310122
 21
-2.1952724668
  0
LINE
  5
56F
100
AcDbEntity
  8
RACCORDO
100
AcDbLine
 62
250
  6
CONTINUOUS
 10
-16.9083995623
 20
-2.1952724668
 11
-16.9861892023
 21
-2.1952724668
  0
LINE
  5
570
100
AcDbEntity
  8
DRAFT
100
AcDbLine
 62
7
  6
CONTINUOUS
 10
-17.301027093
 20
-2.1475569032
 11
-17.1108310971
 21
-2.1475569032
  0
LINE
  5
571
100
AcDbEntity
  8
DRAFT
100
AcDbLine
 62
7
  6
CONTINUOUS
 10
1.498972907
 20
-2.1475569032
 11
1.6891689029
 21
-2.1475569032
  0
LINE
  5
572
100
AcDbEntity
  8
DRAFT
100
AcDbLine
 62
7
  6
CONTINUOUS
 10
-17.9059290951
 20
-2.0925287349
 11
-18.4059290951
 21
-2.0773999122
  0
LWPOLYLINE
  5
573
100
AcDbEntity
  8
RACCORDO
100
AcDbPolyline
 62
250
  6
CONTINUOUS
 90
25
 70
0
 10
-16.9083995621
 20
-2.3949983737
 10
-16.8630548008
 20
-2.3993457841
 10
-16.8158819161
 20
-2.4023125889
 10
-16.7668809078
 20
-2.4038987881
 10
-16.7154171552
 20
-2.4046472089
 10
-16.662125279
 20
-2.404015024
 10
-16.6089091422
 20
-2.400373752
 10
-16.5555348675
 20
-2.3927949559
 10
-16.5022363321
 20
-2.3822070727
 10
-16.4516190308
 20
-2.3697669312
 10
-16.4046190911
 20
-2.3556649121
 10
-16.3603003856
 20
-2.3397106348
 10
-16.3184600261
 20
-2.3224897863
 10
-16.2789233538
 20
-2.304237417
 10
-16.2418650275
 20
-2.2847184765
 10
-16.2076061362
 20
-2.2638135001
 10
-16.1759503192
 20
-2.2414324252
 10
-16.147093937
 20
-2.2176653143
 10
-16.1219471606
 20
-2.1926628913
 10
-16.1007399808
 20
-2.1663009296
 10
-16.0832424068
 20
-2.1387036556
 10
-16.0696746372
 20
-2.1103944728
 10
-16.0601100716
 20
-2.0815478489
 10
-16.0544753105
 20
-2.0519893162
 10
-16.0527703538
 20
-2.0217188747
  0
LINE
  5
574
100
AcDbEntity
  8
RACCORDO
100
AcDbLine
 62
250
  6
CONTINUOUS
 10
-16.6928953932
 20
-0.9196059937
 11
-16.742015171
 21
-0.9050066484
  0
LINE
  5
575
100
AcDbEntity
  8
RACCORDO
100
AcDbLine
 62
250
  6
CONTINUOUS
 10
-16.3143266881
 20
-0.9158334644
 11
-16.210342349
 21
-0.9467396154
  0
LINE
  5
576
100
AcDbEntity
  8
RACCORDO
100
AcDbLine
 62
250
  6
CONTINUOUS
 10
-16.1666055251
 20
-0.7660390342
 11
-16.0527853133
 21
-0.7998685962
  0
LWPOLYLINE
  5
577
100
AcDbEntity
  8
DRAFT
100
AcDbPolyline
 62
7
  6
CONTINUOUS
 90
3
 70
0
 10
-17.301027093
 20
0.9371459824
 10
-17.333260887
 20
0.9491094379
 10
-17.349568563
 20
0.9552750082
  0
LINE
  5
578
100
AcDbEntity
  8
DRAFT
100
AcDbLine
 62
7
  6
CONTINUOUS
 10
-17.349568563
 20
0.9552750082
 11
-17.3825067656
 21
0.9679773658
  0
LINE
  5
579
100
AcDbEntity
  8
DRAFT
100
AcDbLine
 62
7
  6
CONTINUOUS
 10
-17.3825067656
 20
0.9679773658
 11
-17.4508780693
 21
0.9947945396
  0
LINE
  5
57A
100
AcDbEntity
  8
RACCORDO
100
AcDbLine
 62
250
  6
CONTINUOUS
 10
2.2986596833
 20
-12.1725040046
 11
2.3753255203
 21
-12.4304476868
  0
LINE
  5
57B
100
AcDbEntity
  8
RACCORDO
100
AcDbLine
 62
250
  6
CONTINUOUS
 10
2.5982485437
 20
-11.8770616787
 11
2.6749143807
 21
-12.1350053609
  0
LWPOLYLINE
  5
57C
100
AcDbEntity
  8
RACCORDO
100
AcDbPolyline
 62
250
  6
CONTINUOUS
 90
12
 70
0
 10
2.3753255203
 20
-12.4304476868
 10
2.3762808652
 20
-12.4347293905
 10
2.3771859437
 20
-12.4402806159
 10
2.3780407558
 20
-12.4471013631
 10
2.3788508909
 20
-12.4553920245
 10
2.3796107595
 20
-12.4649522076
 10
2.3803035937
 20
-12.4751807351
 10
2.3809227635
 20
-12.4860526811
 10
2.381474899
 20
-12.4975929716
 10
2.3819631221
 20
-12.5092752069
 10
2.3823823202
 20
-12.5208689624
 10
2.3827376059
 20
-12.5326046628
  0
LINE
  5
57D
100
AcDbEntity
  8
RACCORDO
100
AcDbLine
 62
7
  6
CONTINUOUS
 10
3.1553602834
 20
-15.8333492421
 11
3.1170536499
 21
-15.5754055599
  0
LWPOLYLINE
  5
57E
100
AcDbEntity
  8
RACCORDO
100
AcDbPolyline
 62
250
  6
CONTINUOUS
 90
7
 70
0
 10
2.2940709166
 20
-12.1477222939
 10
2.2947839345
 20
-12.1528968525
 10
2.295517663
 20
-12.1576537016
 10
2.2962721021
 20
-12.1619928414
 10
2.2970472519
 20
-12.1659142719
 10
2.2978431123
 20
-12.1694179929
 10
2.2986596833
 20
-12.1725040046
  0
LWPOLYLINE
  5
57F
100
AcDbEntity
  8
0
100
AcDbPolyline
 62
7
  6
CONTINUOUS
 90
10
 70
0
 10
-7.1241772058
 20
-28.0444651723
 10
-7.1368332044
 20
-28.0539405776
 10
-7.1507341882
 20
-28.0624465081
 10
-7.1658801573
 20
-28.0699829638
 10
-7.182163555
 20
-28.0766194978
 10
-7.1996919379
 20
-28.082286557
 10
-7.218787976
 20
-28.0867754817
 10
-7.2395592258
 20
-28.0900167187
 10
-7.2618981308
 20
-28.0920798211
 10
-7.2858046909
 20
-28.092964789
  0
LWPOLYLINE
  5
580
100
AcDbEntity
  8
0
100
AcDbPolyline
 62
7
  6
CONTINUOUS
 90
10
 70
0
 10
-5.6862796428
 20
-28.0444651723
 10
-5.6989356414
 20
-28.0539405776
 10
-5.7128366252
 20
-28.0624465081
 10
-5.7279825943
 20
-28.0699829638
 10
-5.744265992
 20
-28.0766194978
 10
-5.7617943749
 20
-28.082286557
 10
-5.780890413
 20
-28.0867754817
 10
-5.8016616629
 20
-28.0900167187
 10
-5.8240005678
 20
-28.0920798211
 10
-5.847907128
 20
-28.092964789
  0
LWPOLYLINE
  5
581
100
AcDbEntity
  8
0
100
AcDbPolyline
 62
7
  6
CONTINUOUS
 90
10
 70
0
 10
-6.980410519
 20
-28.2202123748
 10
-6.9556051758
 20
-28.2035149756
 10
-6.9323149787
 20
-28.1854857812
 10
-6.9105399278
 20
-28.1661247916
 10
-6.8903941589
 20
-28.1456310775
 10
-6.8717635362
 20
-28.1238055683
 10
-6.8543056522
 20
-28.1000510516
 10
-6.8379063711
 20
-28.0741684567
 10
-6.8226798287
 20
-28.0463568543
 10
-6.8086260251
 20
-28.0166162445
  0
LWPOLYLINE
  5
582
100
AcDbEntity
  8
0
100
AcDbPolyline
 62
7
  6
CONTINUOUS
 90
10
 70
0
 10
-5.542512956
 20
-28.2202123748
 10
-5.5177076128
 20
-28.2035149756
 10
-5.4944174157
 20
-28.1854857812
 10
-5.4726423648
 20
-28.1661247916
 10
-5.452496596
 20
-28.1456310775
 10
-5.4338659733
 20
-28.1238055683
 10
-5.4164080893
 20
-28.1000510516
 10
-5.4000088082
 20
-28.0741684567
 10
-5.3847822658
 20
-28.0463568543
 10
-5.3707284621
 20
-28.0166162445
  0
LWPOLYLINE
  5
583
100
AcDbEntity
  8
RACCORDO
100
AcDbPolyline
 62
250
  6
CONTINUOUS
 90
13
 70
0
 10
1.1301569808
 20
-0.3054042724
 10
1.1493284987
 20
-0.3039608261
 10
1.1681757338
 20
-0.3000082617
 10
1.1863799175
 20
-0.2936134412
 10
1.203633162
 20
-0.2848845312
 10
1.21964366
 20
-0.2739691765
 10
1.234140622
 20
-0.2610520062
 10
1.2468788661
 20
-0.2463515028
 10
1.2576429605
 20
-0.2301163058
 10
1.2662508618
 20
-0.2126210124
 10
1.2725569976
 20
-0.194161528
 10
1.2764547273
 20
-0.1750500604
 10
1.2778781438
 20
-0.1556098422
  0
LWPOLYLINE
  5
584
100
AcDbEntity
  8
RACCORDO
100
AcDbPolyline
 62
250
  6
CONTINUOUS
 90
13
 70
0
 10
1.0810372031
 20
-0.2908049272
 10
1.1002085511
 20
-0.2893615048
 10
1.1190556514
 20
-0.2854090013
 10
1.1372597405
 20
-0.2790142659
 10
1.15451293
 20
-0.2702854536
 10
1.1705234143
 20
-0.2593701961
 10
1.1850204059
 20
-0.2464531045
 10
1.1977587152
 20
-0.2317526475
 10
1.2085228974
 20
-0.215517456
 10
1.2171308964
 20
-0.1980221179
 10
1.2234371239
 20
-0.1795625344
 10
1.2273349218
 20
-0.1604509149
 10
1.2287583661
 20
-0.1410104969
  0
LWPOLYLINE
  5
585
100
AcDbEntity
  8
RACCORDO
100
AcDbPolyline
 62
250
  6
CONTINUOUS
 90
13
 70
0
 10
-16.6928953932
 20
-0.9196059937
 10
-16.7120667412
 20
-0.921049416
 10
-16.7309138416
 20
-0.9250019195
 10
-16.7491179306
 20
-0.9313966549
 10
-16.7663711201
 20
-0.9401254672
 10
-16.7823816044
 20
-0.9510407248
 10
-16.796878596
 20
-0.9639578163
 10
-16.8096169053
 20
-0.9786582733
 10
-16.8203810875
 20
-0.9948934648
 10
-16.8289890865
 20
-1.0123888029
 10
-16.835295314
 20
-1.0308483864
 10
-16.8391931119
 20
-1.0499600059
 10
-16.8406165562
 20
-1.0694004239
  0
LWPOLYLINE
  5
586
100
AcDbEntity
  8
RACCORDO
100
AcDbPolyline
 62
250
  6
CONTINUOUS
 90
13
 70
0
 10
-16.742015171
 20
-0.9050066484
 10
-16.7611866888
 20
-0.9064500947
 10
-16.7800339239
 20
-0.9104026591
 10
-16.7982381077
 20
-0.9167974796
 10
-16.8154913522
 20
-0.9255263897
 10
-16.8315018502
 20
-0.9364417443
 10
-16.8459988122
 20
-0.9493589146
 10
-16.8587370562
 20
-0.964059418
 10
-16.8695011506
 20
-0.980294615
 10
-16.8781090519
 20
-0.9977899084
 10
-16.8844151877
 20
-1.0162493928
 10
-16.8883129174
 20
-1.0353608604
 10
-16.8897363339
 20
-1.0548010786
  0
LINE
  5
587
100
AcDbEntity
  8
RACCORDO
100
AcDbLine
 62
7
  6
CONTINUOUS
 10
-18.4059290951
 20
-2.0538164115
 11
-18.3736698472
 21
-2.052125776
  0
LWPOLYLINE
  5
588
100
AcDbEntity
  8
0
100
AcDbPolyline
 62
7
  6
CONTINUOUS
 90
16
 70
0
 10
-4.262777313
 20
-0.4665376894
 10
-4.2189102243
 20
-0.4644672974
 10
-4.1774445531
 20
-0.4595805515
 10
-4.1383802994
 20
-0.4518774516
 10
-4.1015430982
 20
-0.4415409228
 10
-4.0671073146
 20
-0.42838804
 10
-4.0355960431
 20
-0.4118700283
 10
-4.0072147237
 20
-0.3919484994
 10
-3.9817579165
 20
-0.3686618417
 10
-3.9591323964
 20
-0.3415764452
 10
-3.9390396873
 20
-0.3101504387
 10
-3.9217782654
 20
-0.2749256934
 10
-3.9081503348
 20
-0.2370942127
 10
-3.8984232968
 20
-0.197053331
 10
-3.8923297502
 20
-0.1544057139
 10
-3.8898696948
 20
-0.1091513613
  0
LINE
  5
589
100
AcDbEntity
  8
RACCORDO
100
AcDbLine
 62
250
  6
CONTINUOUS
 10
0.9421138612
 20
-1.0900361563
 11
0.8540642782
 21
-1.0926745018
  0
LWPOLYLINE
  5
58A
100
AcDbEntity
  8
RACCORDO
100
AcDbPolyline
 62
250
  6
CONTINUOUS
 90
9
 70
0
 10
0.7141087042
 20
-0.7576998105
 10
0.685948445
 20
-0.7584353728
 10
0.6594392655
 20
-0.7592640522
 10
0.6348364717
 20
-0.7601913822
 10
0.6126195365
 20
-0.7612118293
 10
0.5931558835
 20
-0.7623085255
 10
0.5767998569
 20
-0.7634758484
 10
0.563889765
 20
-0.7647194204
 10
0.554747335
 20
-0.7660392417
  0
LINE
  5
58B
100
AcDbEntity
  8
RACCORDO
100
AcDbLine
 62
250
  6
CONTINUOUS
 10
-16.3044014451
 20
-0.4521609995
 11
-16.3431470909
 21
-0.4530956376
  0
LWPOLYLINE
  5
58C
100
AcDbEntity
  8
RACCORDO
100
AcDbPolyline
 62
250
  6
CONTINUOUS
 90
3
 70
0
 10
0.7370907103
 20
-0.9440138137
 10
0.6477484227
 20
-0.9459472789
 10
0.5984841588
 20
-0.9467396154
  0
LINE
  5
58D
100
AcDbEntity
  8
RACCORDO
100
AcDbLine
 62
250
  6
CONTINUOUS
 10
0.8540642782
 20
-1.0926745018
 11
0.7522470874
 21
-1.0948329961
  0
LINE
  5
58E
100
AcDbEntity
  8
RACCORDO
100
AcDbLine
 62
250
  6
CONTINUOUS
 10
0.7752578929
 20
-0.7565072222
 11
0.7141087042
 21
-0.7576998105
  0
LINE
  5
58F
100
AcDbEntity
  8
RACCORDO
100
AcDbLine
 62
250
  6
CONTINUOUS
 10
-16.3431470909
 20
-0.4530956376
 11
-16.3811787154
 21
-0.4538083826
  0
LINE
  5
590
100
AcDbEntity
  8
RACCORDO
100
AcDbLine
 62
250
  6
CONTINUOUS
 10
0.7522470874
 20
-1.0948329961
 11
0.634846927
 21
-1.0965340456
  0
LINE
  5
591
100
AcDbEntity
  8
RACCORDO
100
AcDbLine
 62
250
  6
CONTINUOUS
 10
-16.3811787154
 20
-0.4538083826
 11
-16.430918257
 21
-0.4544919982
  0
LINE
  5
592
100
AcDbEntity
  8
RACCORDO
100
AcDbLine
 62
250
  6
CONTINUOUS
 10
0.8414695776
 20
-0.7556916714
 11
0.7752578929
 21
-0.7565072222
  0
LWPOLYLINE
  5
593
100
AcDbEntity
  8
RACCORDO
100
AcDbPolyline
 62
250
  6
CONTINUOUS
 90
10
 70
0
 10
0.5984841588
 20
-0.9467396154
 10
0.5899499911
 20
-0.9468207748
 10
0.5812120897
 20
-0.9464743752
 10
0.5722947374
 20
-0.9456564405
 10
0.5632774456
 20
-0.9443371045
 10
0.5541428255
 20
-0.9424652772
 10
0.5447846873
 20
-0.9399370949
 10
0.5352121942
 20
-0.9366579041
 10
0.5255428954
 20
-0.9325757823
 10
0.5158563993
 20
-0.9276248879
  0
LWPOLYLINE
  5
594
100
AcDbEntity
  8
RACCORDO
100
AcDbPolyline
 62
250
  6
CONTINUOUS
 90
15
 70
0
 10
0.9256632037
 20
-0.9050678528
 10
0.9033296912
 20
-0.9052276166
 10
0.8816698987
 20
-0.9054859396
 10
0.8606082083
 20
-0.905844578
 10
0.8402202379
 20
-0.9063017757
 10
0.8207328416
 20
-0.9068522645
 10
0.8020994294
 20
-0.9074942915
 10
0.7843665914
 20
-0.9082296097
 10
0.7679009517
 20
-0.9090582092
 10
0.7526018676
 20
-0.9099858365
 10
0.7385699819
 20
-0.9110067452
 10
0.7264738468
 20
-0.9121036872
 10
0.7165363132
 20
-0.913270913
 10
0.7085345302
 20
-0.9145141721
 10
0.7024684979
 20
-0.9158334644
  0
LINE
  5
595
100
AcDbEntity
  8
RACCORDO
100
AcDbLine
 62
250
  6
CONTINUOUS
 10
-16.430918257
 20
-0.4544919982
 11
-16.4808495916
 21
-0.4549361341
  0
LINE
  5
596
100
AcDbEntity
  8
RACCORDO
100
AcDbLine
 62
250
  6
CONTINUOUS
 10
0.9123041598
 20
-0.7552735353
 11
0.8414695776
 21
-0.7556916714
  0
LINE
  5
597
100
AcDbEntity
  8
RACCORDO
100
AcDbLine
 62
250
  6
CONTINUOUS
 10
-16.5186923876
 20
-0.3052197076
 11
-16.5433171103
 21
-0.3053722847
  0
LINE
  5
598
100
AcDbEntity
  8
RACCORDO
100
AcDbLine
 62
250
  6
CONTINUOUS
 10
-16.4808495916
 20
-0.4549361341
 11
-16.5330077394
 21
-0.4551667116
  0
LINE
  5
599
100
AcDbEntity
  8
RACCORDO
100
AcDbLine
 62
250
  6
CONTINUOUS
 10
2.761811657
 20
-2.052125776
 11
1.7781611647
 21
-2.052125776
  0
LINE
  5
59A
100
AcDbEntity
  8
RACCORDO
100
AcDbLine
 62
250
  6
CONTINUOUS
 10
-17.3900193549
 20
-2.052125776
 11
-18.3736698472
 21
-2.052125776
  0
LINE
  5
59B
100
AcDbEntity
  8
RACCORDO
100
AcDbLine
 62
250
  6
CONTINUOUS
 10
-16.8406165562
 20
-2.0217186895
 11
-16.0527703538
 21
-2.0217188747
  0
LINE
  5
59C
100
AcDbEntity
  8
RACCORDO
100
AcDbLine
 62
250
  6
CONTINUOUS
 10
1.2287583661
 20
-2.0217187425
 11
0.4409121637
 21
-2.0217188747
  0
LINE
  5
59D
100
AcDbEntity
  8
0
100
AcDbLine
 62
7
  6
CONTINUOUS
 10
-3.3243083744
 20
-1.743198294
 11
-3.7860667556
 21
-1.743198294
  0
LINE
  5
59E
100
AcDbEntity
  8
0
100
AcDbLine
 62
7
  6
CONTINUOUS
 10
-4.5212067936
 20
-1.743198294
 11
-4.999331513
 21
-1.743198294
  0
LINE
  5
59F
100
AcDbEntity
  8
0
100
AcDbLine
 62
7
  6
CONTINUOUS
 10
-5.1402990951
 20
-1.7431984604
 11
-5.6462590951
 21
-1.7431984604
  0
LINE
  5
5A0
100
AcDbEntity
  8
0
100
AcDbLine
 62
7
  6
CONTINUOUS
 10
-6.5568410951
 20
-1.7431984604
 11
-7.0316890951
 21
-1.7431984604
  0
LINE
  5
5A1
100
AcDbEntity
  8
0
100
AcDbLine
 62
7
  6
CONTINUOUS
 10
-7.1070710951
 20
-1.7431984604
 11
-7.5766930951
 21
-1.7431984604
  0
LINE
  5
5A2
100
AcDbEntity
  8
0
100
AcDbLine
 62
7
  6
CONTINUOUS
 10
-8.2461090951
 20
-1.7431984604
 11
-8.3134370951
 21
-1.7431984604
  0
LINE
  5
5A3
100
AcDbEntity
  8
0
100
AcDbLine
 62
7
  6
CONTINUOUS
 10
-8.9801970951
 20
-1.7431984604
 11
-9.4394550951
 21
-1.7431984604
  0
LINE
  5
5A4
100
AcDbEntity
  8
0
100
AcDbLine
 62
7
  6
CONTINUOUS
 10
-9.6978850951
 20
-1.7431984604
 11
-10.1779410951
 21
-1.7431984604
  0
LINE
  5
5A5
100
AcDbEntity
  8
0
100
AcDbLine
 62
7
  6
CONTINUOUS
 10
-11.0953350951
 20
-1.7431984604
 11
-11.5183850951
 21
-1.7431984604
  0
LINE
  5
5A6
100
AcDbEntity
  8
RACCORDO
100
AcDbLine
 62
250
  6
CONTINUOUS
 10
1.6722146867
 20
-1.6526739621
 11
2.3827460395
 21
-1.6526739621
  0
LINE
  5
5A7
100
AcDbEntity
  8
RACCORDO
100
AcDbLine
 62
250
  6
CONTINUOUS
 10
-17.2840728768
 20
-1.6526739621
 11
-17.9946042297
 21
-1.6526739621
  0
LINE
  5
5A8
100
AcDbEntity
  8
0
100
AcDbLine
 62
7
  6
CONTINUOUS
 10
-5.7706190951
 20
-1.2840784604
 11
-6.4243760951
 21
-1.2840784604
  0
LINE
  5
5A9
100
AcDbEntity
  8
0
100
AcDbLine
 62
7
  6
CONTINUOUS
 10
-6.3261780951
 20
-0.9288134604
 11
-5.8665580951
 21
-0.9288134604
  0
LINE
  5
5AA
100
AcDbEntity
  8
RACCORDO
100
AcDbLine
 62
250
  6
CONTINUOUS
 10
1.1301569808
 20
-0.9050066484
 11
0.9256632037
 21
-0.9050678528
  0
LINE
  5
5AB
100
AcDbEntity
  8
0
100
AcDbLine
 62
7
  6
CONTINUOUS
 10
-4.2638120657
 20
-0.8431876631
 11
-4.5212067936
 21
-0.8431876631
  0
LINE
  5
5AC
100
AcDbEntity
  8
RACCORDO
100
AcDbLine
 62
250
  6
CONTINUOUS
 10
-16.0527853133
 20
-0.7998685962
 11
-15.9050641504
 21
-0.7998685962
  0
LINE
  5
5AD
100
AcDbEntity
  8
RACCORDO
100
AcDbLine
 62
250
  6
CONTINUOUS
 10
0.4409271232
 20
-0.7998685962
 11
0.2932059603
 21
-0.7998685962
  0
LINE
  5
5AE
100
AcDbEntity
  8
RACCORDO
100
AcDbLine
 62
250
  6
CONTINUOUS
 10
0.9123041598
 20
-0.7552735353
 11
1.3280077657
 21
-0.7552122182
  0
LINE
  5
5AF
100
AcDbEntity
  8
0
100
AcDbLine
 62
7
  6
CONTINUOUS
 10
-4.5371247389
 20
-0.4665376894
 11
-4.262777313
 21
-0.4665376894
  0
LINE
  5
5B0
100
AcDbEntity
  8
RACCORDO
100
AcDbLine
 62
250
  6
CONTINUOUS
 10
-16.5330077394
 20
-0.4551667116
 11
-16.9398659558
 21
-0.4551987026
  0
LINE
  5
5B1
100
AcDbEntity
  8
RACCORDO
100
AcDbLine
 62
250
  6
CONTINUOUS
 10
-16.0527853133
 20
-0.4105423246
 11
-15.9050641504
 21
-0.4105423246
  0
LINE
  5
5B2
100
AcDbEntity
  8
RACCORDO
100
AcDbLine
 62
250
  6
CONTINUOUS
 10
0.4409271232
 20
-0.4105423246
 11
0.2932059603
 21
-0.4105423246
  0
LINE
  5
5B3
100
AcDbEntity
  8
RACCORDO
100
AcDbLine
 62
250
  6
CONTINUOUS
 10
-16.5433171103
 20
-0.3053722847
 11
-16.742015171
 21
-0.3054042724
  0
LWPOLYLINE
  5
5B4
100
AcDbEntity
  8
RACCORDO
100
AcDbPolyline
 62
250
  6
CONTINUOUS
 90
10
 70
0
 10
0.634846927
 20
-1.0965340456
 10
0.6151306358
 20
-1.0965043787
 10
0.5949539562
 20
-1.0954646449
 10
0.5743246577
 20
-1.0934148442
 10
0.5532794073
 20
-1.0904987997
 10
0.531801508
 20
-1.0865726883
 10
0.5098200053
 20
-1.0812050402
 10
0.4873203096
 20
-1.0742520323
 10
0.4643452474
 20
-1.0658574878
 10
0.4409121637
 20
-1.0560214066
  0
LINE
  5
5B5
100
AcDbEntity
  8
RACCORDO
100
AcDbLine
 62
250
  6
CONTINUOUS
 10
-16.742015171
 20
-0.9050066484
 11
-16.5438415148
 21
-0.905045678
  0
LINE
  5
5B6
100
AcDbEntity
  8
RACCORDO
100
AcDbLine
 62
250
  6
CONTINUOUS
 10
1.1301569808
 20
-0.3054042724
 11
0.9319833246
 21
-0.3053652428
  0
LINE
  5
5B7
100
AcDbEntity
  8
RACCORDO
100
AcDbLine
 62
250
  6
CONTINUOUS
 10
-16.9398659558
 20
-0.7552122182
 11
-16.5083892544
 21
-0.7553320491
  0
LINE
  5
5B8
100
AcDbEntity
  8
RACCORDO
100
AcDbLine
 62
250
  6
CONTINUOUS
 10
1.3280077657
 20
-0.4551987026
 11
0.8965310642
 21
-0.4550788717
  0
LINE
  5
5B9
100
AcDbEntity
  8
RACCORDO
100
AcDbLine
 62
250
  6
CONTINUOUS
 10
-16.5083892544
 20
-0.7553320491
 11
-16.4607713928
 21
-0.7556236104
  0
LINE
  5
5BA
100
AcDbEntity
  8
RACCORDO
100
AcDbLine
 62
250
  6
CONTINUOUS
 10
0.8965310642
 20
-0.4550788717
 11
0.8489132027
 21
-0.4547873104
  0
LINE
  5
5BB
100
AcDbEntity
  8
RACCORDO
100
AcDbLine
 62
250
  6
CONTINUOUS
 10
-16.5438415148
 20
-0.905045678
 11
-16.5126747405
 21
-0.9052489153
  0
LINE
  5
5BC
100
AcDbEntity
  8
RACCORDO
100
AcDbLine
 62
250
  6
CONTINUOUS
 10
0.9319833246
 20
-0.3053652428
 11
0.9008165503
 21
-0.3051620055
  0
LWPOLYLINE
  5
5BD
100
AcDbEntity
  8
RACCORDO
100
AcDbPolyline
 62
250
  6
CONTINUOUS
 90
48
 70
0
 10
1.2965413721
 20
-2.1952724668
 10
1.2915557005
 20
-2.195231373
 10
1.2867148996
 20
-2.1950153666
 10
1.282023387
 20
-2.1946297832
 10
1.2774852973
 20
-2.1940766766
 10
1.2731044503
 20
-2.1933643707
 10
1.2688840251
 20
-2.1925098159
 10
1.2648383632
 20
-2.1915253045
 10
1.2609580925
 20
-2.1904145056
 10
1.2572104062
 20
-2.189181382
 10
1.2535970036
 20
-2.1878330943
 10
1.2501202701
 20
-2.1863731576
 10
1.2467493814
 20
-2.1847953067
 10
1.2434846975
 20
-2.1831031881
 10
1.2403306052
 20
-2.1812984351
 10
1.237264127
 20
-2.1793665014
 10
1.2342834829
 20
-2.177306184
 10
1.231397313
 20
-2.1751188242
 10
1.2286003301
 20
-2.1727894414
 10
1.2258903433
 20
-2.1703126142
 10
1.2232788354
 20
-2.1676910229
 10
1.2207821189
 20
-2.1649203406
 10
1.2184014741
 20
-2.1619964964
 10
1.2161456435
 20
-2.1589219619
 10
1.2140414769
 20
-2.1557035893
 10
1.2120925539
 20
-2.1523410956
 10
1.2103040035
 20
-2.1488365695
 10
1.2087029981
 20
-2.1452030875
 10
1.2072933599
 20
-2.1414443364
 10
1.2060773013
 20
-2.1375620171
 10
1.205077202
 20
-2.1335686719
 10
1.2042959004
 20
-2.1294504385
 10
1.2037347519
 20
-2.1252281751
 10
1.203407766
 20
-2.1209712184
 10
1.2033226236
 20
-2.1166756686
 10
1.203464536
 20
-2.1123593267
 10
1.2038020457
 20
-2.1081313775
 10
1.2043317829
 20
-2.1040226091
 10
1.2050350673
 20
-2.1000212921
 10
1.2058494615
 20
-2.0961764389
 10
1.2067594541
 20
-2.0925156208
 10
1.2077572421
 20
-2.089026241
 10
1.2087925828
 20
-2.0856958704
 10
1.2098502647
 20
-2.0825365221
 10
1.2109284644
 20
-2.0795451911
 10
1.2120013171
 20
-2.0766846131
 10
1.2130587229
 20
-2.0739584302
 10
1.2141000037
 20
-2.0713679461
  0
LINE
  5
5BE
100
AcDbEntity
  8
RACCORDO
100
AcDbLine
 62
250
  6
CONTINUOUS
 10
-16.4607713928
 20
-0.7556236104
 11
-16.3983045631
 21
-0.7563360637
  0
LINE
  5
5BF
100
AcDbEntity
  8
RACCORDO
100
AcDbLine
 62
250
  6
CONTINUOUS
 10
0.8489132027
 20
-0.4547873104
 11
0.7864463729
 21
-0.4540748571
  0
LINE
  5
5C0
100
AcDbEntity
  8
RACCORDO
100
AcDbLine
 62
250
  6
CONTINUOUS
 10
-16.5126747405
 20
-0.9052489153
 11
-16.4844642635
 21
-0.9056288377
  0
LWPOLYLINE
  5
5C1
100
AcDbEntity
  8
RACCORDO
100
AcDbPolyline
 62
250
  6
CONTINUOUS
 90
15
 70
0
 10
-16.2467053635
 20
-1.096534061
 10
-16.3727703033
 20
-1.0946794682
 10
-16.4309496224
 20
-1.0935034542
 10
-16.4856181331
 20
-1.0921393699
 10
-16.5365178472
 20
-1.0906094739
 10
-16.5833395465
 20
-1.0889805418
 10
-16.6256281012
 20
-1.0872757652
 10
-16.6638596078
 20
-1.0854719525
 10
-16.69898531
 20
-1.0835663049
 10
-16.7306879979
 20
-1.0815796624
 10
-16.758989781
 20
-1.079491185
 10
-16.7847026429
 20
-1.0772355544
 10
-16.8074881215
 20
-1.0747909975
 10
-16.8263438907
 20
-1.0721792873
 10
-16.8406165562
 20
-1.0694004239
  0
LINE
  5
5C2
100
AcDbEntity
  8
RACCORDO
100
AcDbLine
 62
250
  6
CONTINUOUS
 10
-16.3983045631
 20
-0.7563360637
 11
-16.3459637992
 21
-0.7572551303
  0
LINE
  5
5C3
100
AcDbEntity
  8
RACCORDO
100
AcDbLine
 62
250
  6
CONTINUOUS
 10
0.7864463729
 20
-0.4540748571
 11
0.7341056091
 21
-0.4531557905
  0
LWPOLYLINE
  5
5C4
100
AcDbEntity
  8
RACCORDO
100
AcDbPolyline
 62
250
  6
CONTINUOUS
 90
15
 70
0
 10
-16.210342349
 20
-0.9467396154
 10
-16.3130172185
 20
-0.9448851494
 10
-16.3600410113
 20
-0.943709144
 10
-16.4043361824
 20
-0.9423450054
 10
-16.4457555923
 20
-0.9408150185
 10
-16.4838578216
 20
-0.9391860385
 10
-16.5182906283
 20
-0.9374813184
 10
-16.5494062546
 20
-0.9356776051
 10
-16.5778200076
 20
-0.9337719945
 10
-16.6037332275
 20
-0.9317852474
 10
-16.6269445743
 20
-0.9296966028
 10
-16.6474653355
 20
-0.9274408739
 10
-16.6652992736
 20
-0.9249963316
 10
-16.6804426262
 20
-0.9223847048
 10
-16.6928953932
 20
-0.9196059937
  0
LINE
  5
5C5
100
AcDbEntity
  8
RACCORDO
100
AcDbLine
 62
250
  6
CONTINUOUS
 10
-16.4844642635
 20
-0.9056288377
 11
-16.4591471348
 21
-0.9061305111
  0
LINE
  5
5C6
100
AcDbEntity
  8
RACCORDO
100
AcDbLine
 62
250
  6
CONTINUOUS
 10
0.7341056091
 20
-0.4531557905
 11
0.7044770162
 21
-0.4524738769
  0
LINE
  5
5C7
100
AcDbEntity
  8
RACCORDO
100
AcDbLine
 62
250
  6
CONTINUOUS
 10
-16.3459637992
 20
-0.7572551303
 11
-16.3029974205
 21
-0.7582876123
  0
LINE
  5
5C8
100
AcDbEntity
  8
RACCORDO
100
AcDbLine
 62
250
  6
CONTINUOUS
 10
-16.4591471348
 20
-0.9061305111
 11
-16.4366580709
 21
-0.9067280071
  0
LINE
  5
5C9
100
AcDbEntity
  8
RACCORDO
100
AcDbLine
 62
250
  6
CONTINUOUS
 10
-16.3029974205
 20
-0.7582876123
 11
-16.2790272333
 21
-0.7590059686
  0
LINE
  5
5CA
100
AcDbEntity
  8
RACCORDO
100
AcDbLine
 62
250
  6
CONTINUOUS
 10
-16.4366580709
 20
-0.9067280071
 11
-16.4168652386
 21
-0.9073868709
  0
LINE
  5
5CB
100
AcDbEntity
  8
RACCORDO
100
AcDbLine
 62
250
  6
CONTINUOUS
 10
-16.2790272333
 20
-0.7590059686
 11
-16.2582687169
 21
-0.759732819
  0
LINE
  5
5CC
100
AcDbEntity
  8
RACCORDO
100
AcDbLine
 62
250
  6
CONTINUOUS
 10
-16.4168652386
 20
-0.9073868709
 11
-16.3995659142
 21
-0.9080820417
  0
LINE
  5
5CD
100
AcDbEntity
  8
RACCORDO
100
AcDbLine
 62
250
  6
CONTINUOUS
 10
-16.2582687169
 20
-0.759732819
 11
-16.2402240744
 21
-0.7604656511
  0
LINE
  5
5CE
100
AcDbEntity
  8
RACCORDO
100
AcDbLine
 62
250
  6
CONTINUOUS
 10
-16.2402240744
 20
-0.7604656511
 11
-16.2245564841
 21
-0.7612038174
  0
LWPOLYLINE
  5
5CF
100
AcDbEntity
  8
RACCORDO
100
AcDbPolyline
 62
250
  6
CONTINUOUS
 90
3
 70
0
 10
-16.3995659142
 20
-0.9080820417
 10
-16.3845902556
 20
-0.9088003918
 10
-16.3778535096
 20
-0.909162484
  0
LINE
  5
5D0
100
AcDbEntity
  8
RACCORDO
100
AcDbLine
 62
7
  6
CONTINUOUS
 10
2.761811657
 20
-2.052125776
 11
2.7940709049
 21
-2.0538164115
  0
LWPOLYLINE
  5
5D1
100
AcDbEntity
  8
RACCORDO
100
AcDbPolyline
 62
250
  6
CONTINUOUS
 90
12
 70
0
 10
-16.2245564841
 20
-0.7612038174
 10
-16.2109031648
 20
-0.7619491004
 10
-16.2047365407
 20
-0.762326914
 10
-16.1989837649
 20
-0.762708564
 10
-16.193643879
 20
-0.7630943757
 10
-16.1886611245
 20
-0.7634874664
 10
-16.1840474273
 20
-0.7638876184
 10
-16.1798137412
 20
-0.7642950494
 10
-16.1759296835
 20
-0.7647135295
 10
-16.1724086027
 20
-0.7651443153
 10
-16.169291847
 20
-0.7655861502
 10
-16.1666055251
 20
-0.7660390342
  0
LWPOLYLINE
  5
5D2
100
AcDbEntity
  8
RACCORDO
100
AcDbPolyline
 62
250
  6
CONTINUOUS
 90
17
 70
0
 10
-16.3778535096
 20
-0.909162484
 10
-16.3657789897
 20
-0.9098933367
 10
-16.3603308902
 20
-0.910260079
 10
-16.3552803811
 20
-0.9106281503
 10
-16.3505460374
 20
-0.9109982437
 10
-16.3461194268
 20
-0.911369878
 10
-16.3420089815
 20
-0.9117435343
 10
-16.3381585728
 20
-0.9121213492
 10
-16.3345587632
 20
-0.9125029923
 10
-16.3312189901
 20
-0.912888794
 10
-16.3281114376
 20
-0.9132818822
 10
-16.3252253682
 20
-0.9136820481
 10
-16.3225715193
 20
-0.9140895005
 10
-16.3201542873
 20
-0.914507993
 10
-16.3179751374
 20
-0.9149387767
 10
-16.3160326043
 20
-0.9153806005
 10
-16.3143266881
 20
-0.9158334644
  0
LWPOLYLINE
  5
5D3
100
AcDbEntity
  8
RACCORDO
100
AcDbPolyline
 62
250
  6
CONTINUOUS
 90
13
 70
0
 10
-16.742015171
 20
-0.3054042724
 10
-16.761186519
 20
-0.3039608501
 10
-16.7800336193
 20
-0.3000083466
 10
-16.7982377083
 20
-0.2936136111
 10
-16.8154908978
 20
-0.2848847989
 10
-16.8315013821
 20
-0.2739695413
 10
-16.8459983738
 20
-0.2610524498
 10
-16.8587366831
 20
-0.2463519928
 10
-16.8695008653
 20
-0.2301168012
 10
-16.8781088642
 20
-0.2126214632
 10
-16.8844150917
 20
-0.1941618796
 10
-16.8883128896
 20
-0.1750502602
 10
-16.8897363339
 20
-0.1556098422
  0
LWPOLYLINE
  5
5D4
100
AcDbEntity
  8
RACCORDO
100
AcDbPolyline
 62
250
  6
CONTINUOUS
 90
13
 70
0
 10
-16.6928953932
 20
-0.2908049272
 10
-16.7120651019
 20
-0.2893617372
 10
-16.7309109782
 20
-0.2854098003
 10
-16.7491142967
 20
-0.2790158147
 10
-16.7663671902
 20
-0.2702877728
 10
-16.7823777957
 20
-0.2593731693
 10
-16.7968752088
 20
-0.2464565368
 10
-16.8096141708
 20
-0.2317562442
 10
-16.820379128
 20
-0.2155208652
 10
-16.828987869
 20
-0.1980250506
 10
-16.8352947144
 20
-0.1795647396
 10
-16.8391929439
 20
-0.1604521295
 10
-16.8406165562
 20
-0.1410104969
  0
LWPOLYLINE
  5
5D5
100
AcDbEntity
  8
RACCORDO
100
AcDbPolyline
 62
250
  6
CONTINUOUS
 90
13
 70
0
 10
0.7024684979
 20
-0.9158334644
 10
0.68329715
 20
-0.914390042
 10
0.6644500497
 20
-0.9104375385
 10
0.6462459607
 20
-0.9040428031
 10
0.6289927713
 20
-0.8953139908
 10
0.612982287
 20
-0.8843987333
 10
0.5984852954
 20
-0.8714816417
 10
0.5857469862
 20
-0.8567811848
 10
0.5749828041
 20
-0.8405459932
 10
0.5663748051
 20
-0.8230506551
 10
0.5600685775
 20
-0.8045910716
 10
0.5561707795
 20
-0.7854794521
 10
0.554747335
 20
-0.7660390342
  0
LWPOLYLINE
  5
5D6
100
AcDbEntity
  8
RACCORDO
100
AcDbPolyline
 62
250
  6
CONTINUOUS
 90
13
 70
0
 10
1.0810372031
 20
-0.9196059937
 10
1.1002069118
 20
-0.9210491836
 10
1.1190527881
 20
-0.9250011205
 10
1.1372561065
 20
-0.9313951061
 10
1.154509
 20
-0.940123148
 10
1.1705196056
 20
-0.9510377515
 10
1.1850170187
 20
-0.963954384
 10
1.1977559807
 20
-0.9786546766
 10
1.2085209379
 20
-0.9948900556
 10
1.2171296789
 20
-1.0123858702
 10
1.2234365243
 20
-1.0308461812
 10
1.2273347538
 20
-1.0499587913
 10
1.2287583661
 20
-1.0694004239
  0
LWPOLYLINE
  5
5D7
100
AcDbEntity
  8
RACCORDO
100
AcDbPolyline
 62
250
  6
CONTINUOUS
 90
13
 70
0
 10
1.1301569808
 20
-0.9050066484
 10
1.1493283288
 20
-0.9064500707
 10
1.1681754292
 20
-0.9104025742
 10
1.1863795182
 20
-0.9167973097
 10
1.2036327077
 20
-0.9255261219
 10
1.219643192
 20
-0.9364413795
 10
1.2341401836
 20
-0.949358471
 10
1.2468784929
 20
-0.964058928
 10
1.2576426751
 20
-0.9802941196
 10
1.2662506741
 20
-0.9977894577
 10
1.2725569016
 20
-1.0162490412
 10
1.2764546995
 20
-1.0353606607
 10
1.2778781438
 20
-1.0548010786
  0
LWPOLYLINE
  5
5D8
100
AcDbEntity
  8
RACCORDO
100
AcDbPolyline
 62
250
  6
CONTINUOUS
 90
20
 70
0
 10
1.2197485325
 20
-28.5576123477
 10
1.2205700008
 20
-28.5555459747
 10
1.22135438
 20
-28.5535243456
 10
1.2221003894
 20
-28.5515499431
 10
1.2228082172
 20
-28.5496068298
 10
1.2234775597
 20
-28.5476945555
 10
1.2241076935
 20
-28.5458141646
 10
1.2246991112
 20
-28.5439517771
 10
1.2252518014
 20
-28.5421103366
 10
1.2257655298
 20
-28.5402873225
 10
1.2262415603
 20
-28.5384605035
 10
1.2266827401
 20
-28.5366260098
 10
1.2270874744
 20
-28.5347879792
 10
1.2274514394
 20
-28.532936091
 10
1.2277762364
 20
-28.5310597274
 10
1.2280625249
 20
-28.5291698022
 10
1.2283042985
 20
-28.5272883285
 10
1.2284994902
 20
-28.5254228204
 10
1.2286507278
 20
-28.5235662516
 10
1.2287583661
 20
-28.5217188747
  0
LINE
  5
5D9
100
AcDbEntity
  8
RACCORDO
100
AcDbLine
 62
250
  6
CONTINUOUS
 10
1.217996913
 20
-28.5619057713
 11
1.2197485325
 21
-28.5576123477
  0
LWPOLYLINE
  5
5DA
100
AcDbEntity
  8
RACCORDO
100
AcDbPolyline
 62
250
  6
CONTINUOUS
 90
3
 70
0
 10
1.2141000037
 20
-28.5713679461
 10
1.2161080416
 20
-28.566462983
 10
1.217996913
 20
-28.5619057713
  0
LINE
  5
5DB
100
AcDbEntity
  8
RACCORDO
100
AcDbLine
 62
250
  6
CONTINUOUS
 10
0.5158566344
 20
-27.427624808
 11
0.440912241
 21
-27.5560212763
  0
LWPOLYLINE
  5
5DC
100
AcDbEntity
  8
RACCORDO
100
AcDbPolyline
 62
250
  6
CONTINUOUS
 90
10
 70
0
 10
0.5984841588
 20
-26.7636713054
 10
0.6046035699
 20
-26.7602605038
 10
0.610549038
 20
-26.7526848076
 10
0.6161513841
 20
-26.7411594355
 10
0.6212511843
 20
-26.7260119705
 10
0.6257032615
 20
-26.7076731893
 10
0.6293808401
 20
-26.686664911
 10
0.632179215
 20
-26.6635849213
 10
0.6340187129
 20
-26.6390898851
 10
0.634846931
 20
-26.613876856
  0
LWPOLYLINE
  5
5DD
100
AcDbEntity
  8
RACCORDO
100
AcDbPolyline
 62
250
  6
CONTINUOUS
 90
10
 70
0
 10
0.5158564004
 20
-26.7827860207
 10
0.5240270694
 20
-26.7785335732
 10
0.5324602318
 20
-26.7748176349
 10
0.5411220177
 20
-26.7716387108
 10
0.549895224
 20
-26.7690144365
 10
0.5588297826
 20
-26.7669132089
 10
0.5681542942
 20
-26.7652964335
 10
0.5779326973
 20
-26.7641891071
 10
0.5880527257
 20
-26.7636374284
 10
0.5984841588
 20
-26.7636713054
  0
LWPOLYLINE
  5
5DE
100
AcDbEntity
  8
RACCORDO
100
AcDbPolyline
 62
250
  6
CONTINUOUS
 90
10
 70
0
 10
0.4409121637
 20
-26.6543895142
 10
0.460604026
 20
-26.6457609943
 10
0.4806901896
 20
-26.6381720377
 10
0.5011568274
 20
-26.6316226445
 10
0.5218411582
 20
-26.6261231943
 10
0.5428743915
 20
-26.6216633074
 10
0.5646771596
 20
-26.6182118445
 10
0.5873686179
 20
-26.6157584257
 10
0.6107706027
 20
-26.6143134308
 10
0.6348471733
 20
-26.6138768598
  0
LINE
  5
5DF
100
AcDbEntity
  8
DRAFT
100
AcDbLine
 62
7
  6
CONTINUOUS
 10
1.7706485755
 20
-25.5320226342
 11
1.8390198792
 21
-25.5052054604
  0
LINE
  5
5E0
100
AcDbEntity
  8
DRAFT
100
AcDbLine
 62
7
  6
CONTINUOUS
 10
1.7377103729
 20
-25.5447249918
 11
1.7706485755
 21
-25.5320226342
  0
LWPOLYLINE
  5
5E1
100
AcDbEntity
  8
DRAFT
100
AcDbPolyline
 62
7
  6
CONTINUOUS
 90
3
 70
0
 10
1.6891689029
 20
-25.5628540176
 10
1.7052222069
 20
-25.5569335707
 10
1.7377103729
 20
-25.5447249918
  0
LWPOLYLINE
  5
5E2
100
AcDbEntity
  8
RACCORDO
100
AcDbPolyline
 62
7
  6
CONTINUOUS
 90
19
 70
0
 10
1.5233647616
 20
-25.3154125471
 10
1.4999403511
 20
-25.323874592
 10
1.4783695911
 20
-25.3338969333
 10
1.4586524814
 20
-25.3454373025
 10
1.440701772
 20
-25.3586391465
 10
1.4246047129
 20
-25.3731621784
 10
1.410623055
 20
-25.3882130476
 10
1.3989330733
 20
-25.4035883042
 10
1.3893584928
 20
-25.4191250757
 10
1.3816322394
 20
-25.4341463198
 10
1.375859006
 20
-25.4483437568
 10
1.3719340997
 20
-25.4616834795
 10
1.3692763676
 20
-25.4739626323
 10
1.3678568074
 20
-25.485002813
 10
1.3677044214
 20
-25.4946089716
 10
1.3683250635
 20
-25.5025758333
 10
1.3695540183
 20
-25.5087415397
 10
1.3715560012
 20
-25.5129719459
 10
1.3743310122
 20
-25.515138454
  0
LINE
  5
5E3
100
AcDbEntity
  8
RACCORDO
100
AcDbLine
 62
250
  6
CONTINUOUS
 10
0.554747335
 20
-27.2660390342
 11
0.4409271232
 21
-27.2998685962
  0
LINE
  5
5E4
100
AcDbEntity
  8
RACCORDO
100
AcDbLine
 62
250
  6
CONTINUOUS
 10
0.7024684979
 20
-27.4158334644
 11
0.5984841588
 21
-27.4467396154
  0
LWPOLYLINE
  5
5E5
100
AcDbEntity
  8
RACCORDO
100
AcDbPolyline
 62
250
  6
CONTINUOUS
 90
11
 70
0
 10
-16.3143266881
 20
-0.2945774564
 10
-16.3179618118
 20
-0.2954329272
 10
-16.3222572144
 20
-0.2962432642
 10
-16.3272128958
 20
-0.2970084673
 10
-16.3329198047
 20
-0.2977273958
 10
-16.3392869924
 20
-0.2984011905
 10
-16.3460416129
 20
-0.2990332742
 10
-16.3531601889
 20
-0.2996233353
 10
-16.3606661977
 20
-0.3001716855
 10
-16.3683572252
 20
-0.3006826826
 10
-16.376216016
 20
-0.3011561787
  0
LWPOLYLINE
  5
5E6
100
AcDbEntity
  8
RACCORDO
100
AcDbPolyline
 62
250
  6
CONTINUOUS
 90
13
 70
0
 10
-16.6928953932
 20
-0.2908049272
 10
-16.6782625404
 20
-0.287667876
 10
-16.660387339
 20
-0.2847445691
 10
-16.6392697891
 20
-0.2820350065
 10
-16.6143350182
 20
-0.2795427799
 10
-16.5861578988
 20
-0.2772642976
 10
-16.5564630486
 20
-0.2751887845
 10
-16.5258594862
 20
-0.2733341083
 10
-16.4937381929
 20
-0.2716824013
 10
-16.4599967315
 20
-0.2701692854
 10
-16.4250815933
 20
-0.2687807438
 10
-16.3885462869
 20
-0.2675307934
 10
-16.3489489004
 20
-0.2663971071
  0
LWPOLYLINE
  5
5E7
100
AcDbEntity
  8
RACCORDO
100
AcDbPolyline
 62
250
  6
CONTINUOUS
 90
10
 70
0
 10
-16.8406165562
 20
-0.1410106107
 10
-16.8240951853
 20
-0.1378733184
 10
-16.8017852562
 20
-0.1349498657
 10
-16.774615818
 20
-0.1322402527
 10
-16.7435397858
 20
-0.1297481255
 10
-16.7093706629
 20
-0.1274698379
 10
-16.6726998223
 20
-0.1253944518
 10
-16.6346115119
 20
-0.1235397434
 10
-16.5953887931
 20
-0.1218879365
 10
-16.5539720513
 20
-0.1203747645
  0
LWPOLYLINE
  5
5E8
100
AcDbEntity
  8
RACCORDO
100
AcDbPolyline
 62
250
  6
CONTINUOUS
 90
9
 70
0
 10
-16.1666055251
 20
-0.4443718866
 10
-16.172100922
 20
-0.4452274904
 10
-16.1790401175
 20
-0.4460379028
 10
-16.1872234549
 20
-0.4468031236
 10
-16.1964389042
 20
-0.4475219782
 10
-16.2065157633
 20
-0.4481956414
 10
-16.2173494059
 20
-0.4488276375
 10
-16.2288021502
 20
-0.4494177085
 10
-16.2407280247
 20
-0.4499661126
  0
LWPOLYLINE
  5
5E9
100
AcDbEntity
  8
0
100
AcDbPolyline
 62
7
  6
CONTINUOUS
 90
13
 70
0
 10
-4.999331513
 20
0.5297221861
 10
-4.882397645
 20
0.5465246374
 10
-4.7686050591
 20
0.5601859344
 10
-4.6579537553
 20
0.5707060769
 10
-4.5503829444
 20
0.5782320402
 10
-4.4459534157
 20
0.5826168491
 10
-4.3448475366
 20
0.5834195783
 10
-4.2468945299
 20
0.5807384919
 10
-4.1522651728
 20
0.574475326
 10
-4.0616541642
 20
0.5638943629
 10
-3.9752930707
 20
0.5487503635
 10
-3.8929503258
 20
0.5292885671
 10
-3.8146259295
 20
0.5055089735
  0
LINE
  5
5EA
100
AcDbEntity
  8
RACCORDO
100
AcDbLine
 62
7
  6
CONTINUOUS
 10
2.761811657
 20
0.8417148552
 11
2.7940709049
 21
0.8434054907
  0
LINE
  5
5EB
100
AcDbEntity
  8
RACCORDO
100
AcDbLine
 62
250
  6
CONTINUOUS
 10
-16.376216016
 20
-0.3011561787
 11
-16.392338006
 21
-0.3019959132
  0
LINE
  5
5EC
100
AcDbEntity
  8
RACCORDO
100
AcDbLine
 62
250
  6
CONTINUOUS
 10
-16.392338006
 20
-0.3019959132
 11
-16.4085467654
 21
-0.3027046755
  0
LINE
  5
5ED
100
AcDbEntity
  8
RACCORDO
100
AcDbLine
 62
250
  6
CONTINUOUS
 10
-16.2407280247
 20
-0.4499661126
 11
-16.2656760341
 21
-0.4509506412
  0
LINE
  5
5EE
100
AcDbEntity
  8
RACCORDO
100
AcDbLine
 62
250
  6
CONTINUOUS
 10
-16.4085467654
 20
-0.3027046755
 11
-16.4246477958
 21
-0.3033012026
  0
LWPOLYLINE
  5
5EF
100
AcDbEntity
  8
RACCORDO
100
AcDbPolyline
 62
250
  6
CONTINUOUS
 90
3
 70
0
 10
-16.2656760341
 20
-0.4509506412
 10
-16.2914236338
 20
-0.4517903435
 10
-16.3044014451
 20
-0.4521609995
  0
LINE
  5
5F0
100
AcDbEntity
  8
DRAFT
100
AcDbLine
 62
7
  6
CONTINUOUS
 10
-17.9059290951
 20
0.8821178141
 11
-18.4059290951
 21
0.8669889914
  0
LINE
  5
5F1
100
AcDbEntity
  8
RACCORDO
100
AcDbLine
 62
250
  6
CONTINUOUS
 10
-16.4246477958
 20
-0.3033012026
 11
-16.4405564005
 21
-0.3037970472
  0
LINE
  5
5F2
100
AcDbEntity
  8
RACCORDO
100
AcDbLine
 62
250
  6
CONTINUOUS
 10
-16.5539720513
 20
-0.1203747645
 11
-16.4659224683
 21
-0.117736419
  0
LINE
  5
5F3
100
AcDbEntity
  8
RACCORDO
100
AcDbLine
 62
250
  6
CONTINUOUS
 10
-16.4405564005
 20
-0.3037970472
 11
-16.4562403206
 21
-0.3042098565
  0
LWPOLYLINE
  5
5F4
100
AcDbEntity
  8
RACCORDO
100
AcDbPolyline
 62
250
  6
CONTINUOUS
 90
3
 70
0
 10
-16.3489489004
 20
-0.2663971071
 10
-16.2596066128
 20
-0.2644636419
 10
-16.210342349
 20
-0.2636713054
  0
LINE
  5
5F5
100
AcDbEntity
  8
RACCORDO
100
AcDbLine
 62
250
  6
CONTINUOUS
 10
-16.4659224683
 20
-0.117736419
 11
-16.3641052776
 21
-0.1155779247
  0
LINE
  5
5F6
100
AcDbEntity
  8
RACCORDO
100
AcDbLine
 62
250
  6
CONTINUOUS
 10
-16.4562403206
 20
-0.3042098565
 11
-16.4795231125
 21
-0.3046975689
  0
LINE
  5
5F7
100
AcDbEntity
  8
RACCORDO
100
AcDbLine
 62
250
  6
CONTINUOUS
 10
-16.4795231125
 20
-0.3046975689
 11
-16.5028484852
 21
-0.3050510822
  0
LINE
  5
5F8
100
AcDbEntity
  8
RACCORDO
100
AcDbLine
 62
250
  6
CONTINUOUS
 10
-16.3641052776
 20
-0.1155779247
 11
-16.2467051171
 21
-0.1138768752
  0
LINE
  5
5F9
100
AcDbEntity
  8
RACCORDO
100
AcDbLine
 62
250
  6
CONTINUOUS
 10
-16.5028484852
 20
-0.3050510822
 11
-16.5186923876
 21
-0.3052197076
  0
LWPOLYLINE
  5
5FA
100
AcDbEntity
  8
RACCORDO
100
AcDbPolyline
 62
250
  6
CONTINUOUS
 90
10
 70
0
 10
-16.210342349
 20
-0.2636713054
 10
-16.2012655708
 20
-0.263601959
 10
-16.1921648688
 20
-0.2640003582
 10
-16.1830655673
 20
-0.2648865007
 10
-16.1740988468
 20
-0.2662563976
 10
-16.1651882239
 20
-0.2681385816
 10
-16.1560638082
 20
-0.2706511748
 10
-16.1466807837
 20
-0.2739010356
 10
-16.1372059294
 20
-0.2779251665
 10
-16.1277146379
 20
-0.2827857936
  0
LINE
  5
5FB
100
AcDbEntity
  8
RACCORDO
100
AcDbLine
 62
250
  6
CONTINUOUS
 10
1.6722146867
 20
0.4422630413
 11
2.3827460395
 21
0.4422630413
  0
LINE
  5
5FC
100
AcDbEntity
  8
RACCORDO
100
AcDbLine
 62
250
  6
CONTINUOUS
 10
-17.2840728768
 20
0.4422630413
 11
-17.9946042297
 21
0.4422630413
  0
LINE
  5
5FD
100
AcDbEntity
  8
0
100
AcDbLine
 62
7
  6
CONTINUOUS
 10
-12.2474630951
 20
0.5565915396
 11
-11.7259740951
 21
0.5565915396
  0
LINE
  5
5FE
100
AcDbEntity
  8
0
100
AcDbLine
 62
7
  6
CONTINUOUS
 10
-10.8358190951
 20
0.5565915396
 11
-10.3560910951
 21
0.5565915396
  0
LINE
  5
5FF
100
AcDbEntity
  8
0
100
AcDbLine
 62
7
  6
CONTINUOUS
 10
-9.2317980951
 20
0.5565915396
 11
-8.7521380951
 21
0.5565915396
  0
LINE
  5
600
100
AcDbEntity
  8
0
100
AcDbLine
 62
7
  6
CONTINUOUS
 10
-7.7970960951
 20
0.5565915396
 11
-7.3221270951
 21
0.5565915396
  0
LINE
  5
601
100
AcDbEntity
  8
0
100
AcDbLine
 62
7
  6
CONTINUOUS
 10
-6.3103290951
 20
0.5565915396
 11
-5.8459320951
 21
0.5565915396
  0
LINE
  5
602
100
AcDbEntity
  8
0
100
AcDbLine
 62
7
  6
CONTINUOUS
 10
-10.1779410951
 20
0.5567295396
 11
-9.6978850951
 21
0.5567295396
  0
LINE
  5
603
100
AcDbEntity
  8
RACCORDO
100
AcDbLine
 62
250
  6
CONTINUOUS
 10
-16.8406165562
 20
0.8113077667
 11
-16.0527703538
 21
0.8113079539
  0
LINE
  5
604
100
AcDbEntity
  8
RACCORDO
100
AcDbLine
 62
250
  6
CONTINUOUS
 10
1.2287583661
 20
0.8113078241
 11
0.4409121637
 21
0.8113079539
  0
LINE
  5
605
100
AcDbEntity
  8
RACCORDO
100
AcDbLine
 62
250
  6
CONTINUOUS
 10
-18.3736698472
 20
0.8417148552
 11
-17.3900193549
 21
0.8417148552
  0
LINE
  5
606
100
AcDbEntity
  8
RACCORDO
100
AcDbLine
 62
250
  6
CONTINUOUS
 10
1.7781611647
 20
0.8417148552
 11
2.761811657
 21
0.8417148552
  0
LINE
  5
607
100
AcDbEntity
  8
DRAFT
100
AcDbLine
 62
7
  6
CONTINUOUS
 10
-17.301027093
 20
0.9371459824
 11
-17.1108310971
 21
0.9371459824
  0
LINE
  5
608
100
AcDbEntity
  8
DRAFT
100
AcDbLine
 62
7
  6
CONTINUOUS
 10
1.498972907
 20
0.9371459824
 11
1.6891689029
 21
0.9371459824
  0
LINE
  5
609
100
AcDbEntity
  8
RACCORDO
100
AcDbLine
 62
250
  6
CONTINUOUS
 10
1.3743310122
 20
0.984861546
 11
1.2965413721
 21
0.984861546
  0
LINE
  5
60A
100
AcDbEntity
  8
RACCORDO
100
AcDbLine
 62
250
  6
CONTINUOUS
 10
-16.9083995623
 20
0.984861546
 11
-16.9861892023
 21
0.984861546
  0
LINE
  5
60B
100
AcDbEntity
  8
DRAFT
100
AcDbLine
 62
7
  6
CONTINUOUS
 10
-17.7555864494
 20
0.9947945396
 11
-17.4508780693
 21
0.9947945396
  0
LINE
  5
60C
100
AcDbEntity
  8
DRAFT
100
AcDbLine
 62
7
  6
CONTINUOUS
 10
1.8390198792
 20
0.9947945396
 11
2.1437282593
 21
0.9947945396
  0
LINE
  5
60D
100
AcDbEntity
  8
DRAFT
100
AcDbLine
 62
7
  6
CONTINUOUS
 10
-17.7555864494
 20
1.011699463
 11
-17.5559290951
 21
1.011699463
  0
LINE
  5
60E
100
AcDbEntity
  8
0
100
AcDbLine
 62
7
  6
CONTINUOUS
 10
-17.7555864494
 20
1.011699463
 11
-17.5559290951
 21
1.011699463
  0
LINE
  5
60F
100
AcDbEntity
  8
DRAFT
100
AcDbLine
 62
7
  6
CONTINUOUS
 10
1.9440709049
 20
1.011699463
 11
2.1437282593
 21
1.011699463
  0
LINE
  5
610
100
AcDbEntity
  8
0
100
AcDbLine
 62
7
  6
CONTINUOUS
 10
1.9440709049
 20
1.011699463
 11
2.1437282593
 21
1.011699463
  0
LINE
  5
611
100
AcDbEntity
  8
RACCORDO
100
AcDbLine
 62
250
  6
CONTINUOUS
 10
1.2965413716
 20
1.1845874529
 11
1.5233647616
 21
1.1845874529
  0
LINE
  5
612
100
AcDbEntity
  8
RACCORDO
100
AcDbLine
 62
250
  6
CONTINUOUS
 10
-17.1352229517
 20
1.1845874529
 11
-16.9083712888
 21
1.1845892286
  0
LINE
  5
613
100
AcDbEntity
  8
RACCORDO
100
AcDbLine
 62
7
  6
CONTINUOUS
 10
-3.0559290951
 20
1.3447945396
 11
-12.5559290951
 21
1.3447945396
  0
LWPOLYLINE
  5
614
100
AcDbEntity
  8
RACCORDO
100
AcDbPolyline
 62
250
  6
CONTINUOUS
 90
10
 70
0
 10
-16.2467051171
 20
-0.1138768752
 10
-16.2257456502
 20
-0.1140318701
 10
-16.2047222498
 20
-0.1151713732
 10
-16.1836510816
 20
-0.1172953846
 10
-16.1627070015
 20
-0.1202677787
 10
-16.1417479635
 20
-0.124224681
 10
-16.1203097301
 20
-0.129574468
 10
-16.0982444082
 20
-0.1364532653
 10
-16.0757258258
 20
-0.1447249474
 10
-16.0527703538
 20
-0.1543895142
  0
LWPOLYLINE
  5
615
100
AcDbEntity
  8
RACCORDO
100
AcDbPolyline
 62
250
  6
CONTINUOUS
 90
48
 70
0
 10
-16.9083995623
 20
0.984861546
 10
-16.9034025308
 20
0.9848199212
 10
-16.8985548846
 20
0.9846029774
 10
-16.893861041
 20
0.9842164915
 10
-16.8893271636
 20
0.9836632111
 10
-16.8849549474
 20
0.9829517375
 10
-16.8807413825
 20
0.9820982548
 10
-16.8766984257
 20
0.9811143905
 10
-16.8728191451
 20
0.980004034
 10
-16.8690718539
 20
0.9787712418
 10
-16.8654582985
 20
0.9774230837
 10
-16.8619808452
 20
0.9759630585
 10
-16.8586096452
 20
0.9743852834
 10
-16.8553455664
 20
0.9726937034
 10
-16.8521924455
 20
0.9708897622
 10
-16.8491266852
 20
0.9689585954
 10
-16.8461463666
 20
0.9668989074
 10
-16.8432602865
 20
0.9647120829
 10
-16.8404630172
 20
0.9623829493
 10
-16.8377521699
 20
0.9599058279
 10
-16.8351394835
 20
0.9572835585
 10
-16.8326417898
 20
0.9545122841
 10
-16.8302606118
 20
0.9515882598
 10
-16.828004414
 20
0.9485136892
 10
-16.8258997765
 20
0.9452950205
 10
-16.8239500187
 20
0.9419313659
 10
-16.8221605992
 20
0.9384253445
 10
-16.8205592363
 20
0.9347914037
 10
-16.8191501792
 20
0.9310350527
 10
-16.8179349544
 20
0.9271564208
 10
-16.8169349973
 20
0.9231641703
 10
-16.8161528125
 20
0.9190417929
 10
-16.8155906288
 20
0.9148123554
 10
-16.8152633526
 20
0.9105485582
 10
-16.8151790099
 20
0.9062468056
 10
-16.8153223495
 20
0.9019247139
 10
-16.8156611329
 20
0.897694416
 10
-16.8161912829
 20
0.8935896232
 10
-16.8168942578
 20
0.889595999
 10
-16.8177082672
 20
0.885757121
 10
-16.8186184307
 20
0.882097743
 10
-16.8196166473
 20
0.878607912
 10
-16.8206521102
 20
0.8752778604
 10
-16.8217091206
 20
0.8721211209
 10
-16.8227862372
 20
0.8691332073
 10
-16.8238582779
 20
0.8662750445
 10
-16.8249155555
 20
0.8635493082
 10
-16.8259570868
 20
0.8609582296
  0
LINE
  5
616
100
AcDbEntity
  8
RACCORDO
100
AcDbLine
 62
250
  6
CONTINUOUS
 10
0.9008165503
 20
-0.3051620055
 11
0.8726060734
 21
-0.3047820831
  0
LWPOLYLINE
  5
617
100
AcDbEntity
  8
RACCORDO
100
AcDbPolyline
 62
250
  6
CONTINUOUS
 90
15
 70
0
 10
0.6348471733
 20
-0.1138768598
 10
0.7609121132
 20
-0.1157314526
 10
0.8190914323
 20
-0.1169074666
 10
0.8737599429
 20
-0.1182715509
 10
0.9246596571
 20
-0.1198014469
 10
0.9714813564
 20
-0.121430379
 10
1.0137699111
 20
-0.1231351556
 10
1.0520014177
 20
-0.1249389683
 10
1.0871271198
 20
-0.1268446159
 10
1.1188298078
 20
-0.1288312584
 10
1.1471315909
 20
-0.1309197358
 10
1.1728444528
 20
-0.1331753665
 10
1.1956299314
 20
-0.1356199233
 10
1.2144857005
 20
-0.1382316335
 10
1.2287583661
 20
-0.1410104969
  0
LWPOLYLINE
  5
618
100
AcDbEntity
  8
RACCORDO
100
AcDbPolyline
 62
250
  6
CONTINUOUS
 90
15
 70
0
 10
0.5984841588
 20
-0.2636713054
 10
0.7011590284
 20
-0.2655257715
 10
0.7481828211
 20
-0.2667017768
 10
0.7924779923
 20
-0.2680659154
 10
0.8338974021
 20
-0.2695959023
 10
0.8719996315
 20
-0.2712248823
 10
0.9064324382
 20
-0.2729296024
 10
0.9375480644
 20
-0.2747333157
 10
0.9659618175
 20
-0.2766389263
 10
0.9918750374
 20
-0.2786256735
 10
1.0150863842
 20
-0.280714318
 10
1.0356071454
 20
-0.2829700469
 10
1.0534410835
 20
-0.2854145892
 10
1.0685844361
 20
-0.288026216
 10
1.0810372031
 20
-0.2908049272
  0
LINE
  5
619
100
AcDbEntity
  8
RACCORDO
100
AcDbLine
 62
250
  6
CONTINUOUS
 10
0.8726060734
 20
-0.3047820831
 11
0.8472889446
 21
-0.3042804097
  0
LINE
  5
61A
100
AcDbEntity
  8
RACCORDO
100
AcDbLine
 62
250
  6
CONTINUOUS
 10
0.8472889446
 20
-0.3042804097
 11
0.8247998808
 21
-0.3036829137
  0
LINE
  5
61B
100
AcDbEntity
  8
RACCORDO
100
AcDbLine
 62
250
  6
CONTINUOUS
 10
0.7044770162
 20
-0.4524738769
 11
0.6787417568
 21
-0.4517654645
  0
LINE
  5
61C
100
AcDbEntity
  8
DRAFT
100
AcDbLine
 62
7
  6
CONTINUOUS
 10
2.7940709049
 20
0.8669889914
 11
2.2940709049
 21
0.8821178141
  0
LINE
  5
61D
100
AcDbEntity
  8
RACCORDO
100
AcDbLine
 62
250
  6
CONTINUOUS
 10
0.6787417568
 20
-0.4517654645
 11
0.6564030451
 21
-0.4510428612
  0
LINE
  5
61E
100
AcDbEntity
  8
RACCORDO
100
AcDbLine
 62
250
  6
CONTINUOUS
 10
0.8247998808
 20
-0.3036829137
 11
0.8050070485
 21
-0.3030240499
  0
LINE
  5
61F
100
AcDbEntity
  8
RACCORDO
100
AcDbLine
 62
250
  6
CONTINUOUS
 10
0.6564030451
 20
-0.4510428612
 11
0.6370710176
 21
-0.4503120125
  0
LINE
  5
620
100
AcDbEntity
  8
RACCORDO
100
AcDbLine
 62
250
  6
CONTINUOUS
 10
0.8050070485
 20
-0.3030240499
 11
0.7877077241
 21
-0.3023288791
  0
LINE
  5
621
100
AcDbEntity
  8
RACCORDO
100
AcDbLine
 62
250
  6
CONTINUOUS
 10
0.6370710176
 20
-0.4503120125
 11
0.6202751164
 21
-0.449577197
  0
LWPOLYLINE
  5
622
100
AcDbEntity
  8
RACCORDO
100
AcDbPolyline
 62
250
  6
CONTINUOUS
 90
3
 70
0
 10
0.7877077241
 20
-0.3023288791
 10
0.7727320655
 20
-0.301610529
 10
0.7659953195
 20
-0.3012484368
  0
LINE
  5
623
100
AcDbEntity
  8
RACCORDO
100
AcDbLine
 62
7
  6
CONTINUOUS
 10
-18.4059290951
 20
0.8434054907
 11
-18.3736698472
 21
0.8417148552
  0
LWPOLYLINE
  5
624
100
AcDbEntity
  8
RACCORDO
100
AcDbPolyline
 62
250
  6
CONTINUOUS
 90
13
 70
0
 10
0.6202751164
 20
-0.449577197
 10
0.6056253364
 20
-0.4488354723
 10
0.5990449747
 20
-0.4484618205
 10
0.5928783506
 20
-0.4480840068
 10
0.5871255748
 20
-0.4477023568
 10
0.5817856889
 20
-0.4473165451
 10
0.5768029343
 20
-0.4469234544
 10
0.5721892372
 20
-0.4465233024
 10
0.567955551
 20
-0.4461158714
 10
0.5640714934
 20
-0.4456973913
 10
0.5605504126
 20
-0.4452666055
 10
0.5574336569
 20
-0.4448247706
 10
0.554747335
 20
-0.4443718866
  0
LWPOLYLINE
  5
625
100
AcDbEntity
  8
RACCORDO
100
AcDbPolyline
 62
250
  6
CONTINUOUS
 90
17
 70
0
 10
0.7659953195
 20
-0.3012484368
 10
0.7539207995
 20
-0.3005175841
 10
0.7484727001
 20
-0.3001508419
 10
0.743422191
 20
-0.2997827705
 10
0.7386878473
 20
-0.2994126771
 10
0.7342612367
 20
-0.2990410428
 10
0.7301507914
 20
-0.2986673865
 10
0.7263003827
 20
-0.2982895716
 10
0.722700573
 20
-0.2979079285
 10
0.7193608
 20
-0.2975221268
 10
0.7162532474
 20
-0.2971290386
 10
0.713367178
 20
-0.2967288727
 10
0.7107133292
 20
-0.2963214203
 10
0.7082960971
 20
-0.2959029278
 10
0.7061169473
 20
-0.2954721441
 10
0.7041744142
 20
-0.2950303203
 10
0.7024684979
 20
-0.2945774564
  0
LWPOLYLINE
  5
626
100
AcDbEntity
  8
0
100
AcDbPolyline
 62
7
  6
CONTINUOUS
 90
10
 70
0
 10
-4.1610438792
 20
0.1783374235
 10
-4.2024416364
 20
0.1824252711
 10
-4.2439242992
 20
0.1851077793
 10
-4.2854918676
 20
0.1863849479
 10
-4.3271278807
 20
0.1862470148
 10
-4.3688487993
 20
0.1847037423
 10
-4.4107040062
 20
0.1817844169
 10
-4.4527099622
 20
0.1774988006
 10
-4.4948502065
 20
0.1718371315
 10
-4.5371247389
 20
0.1647994094
  0
LINE
  5
627
100
AcDbEntity
  8
RACCORDO
100
AcDbLine
 62
250
  6
CONTINUOUS
 10
0.554747335
 20
-0.4443718866
 11
0.4409271232
 21
-0.4105423246
  0
LINE
  5
628
100
AcDbEntity
  8
RACCORDO
100
AcDbLine
 62
250
  6
CONTINUOUS
 10
0.7024684979
 20
-0.2945774564
 11
0.5984841588
 21
-0.2636713054
  0
LWPOLYLINE
  5
629
100
AcDbEntity
  8
DRAFT
100
AcDbPolyline
 62
7
  6
CONTINUOUS
 90
3
 70
0
 10
1.6891689029
 20
-2.1475569032
 10
1.7214026969
 20
-2.1595203587
 10
1.7377103729
 20
-2.165685929
  0
LINE
  5
62A
100
AcDbEntity
  8
DRAFT
100
AcDbLine
 62
7
  6
CONTINUOUS
 10
1.7377103729
 20
-2.165685929
 11
1.7706485755
 21
-2.1783882866
  0
LINE
  5
62B
100
AcDbEntity
  8
DRAFT
100
AcDbLine
 62
7
  6
CONTINUOUS
 10
1.7706485755
 20
-2.1783882866
 11
1.8390198792
 21
-2.2052054604
  0
LWPOLYLINE
  5
62C
100
AcDbEntity
  8
0
100
AcDbPolyline
 62
7
  6
CONTINUOUS
 90
42
 70
0
 10
-3.8146259295
 20
0.5055089735
 10
-3.7749271105
 20
0.4885517548
 10
-3.7358679827
 20
0.4671855399
 10
-3.697448546
 20
0.4414103287
 10
-3.6587977632
 20
0.4106477887
 10
-3.6207866715
 20
0.3754762525
 10
-3.5860283829
 20
0.3376307177
 10
-3.5550836942
 20
0.2967277701
 10
-3.5273918086
 20
0.2531508238
 10
-3.5038834478
 20
0.2097851185
 10
-3.4852731252
 20
0.1673426747
 10
-3.4708463274
 20
0.1251114718
 10
-3.4593902354
 20
0.0838406879
 10
-3.4508448854
 20
0.0436975323
 10
-3.4452702412
 20
0.0045147958
 10
-3.4416333759
 20
-0.0334599721
 10
-3.4397545109
 20
-0.07017539
 10
-3.4398134246
 20
-0.1056828392
 10
-3.4413165259
 20
-0.1398889134
 10
-3.4442119977
 20
-0.1727516688
 10
-3.448551657
 20
-0.2043130493
 10
-3.4539973631
 20
-0.2346054798
 10
-3.4605371433
 20
-0.2636143384
 10
-3.4681829702
 20
-0.291354247
 10
-3.4766326208
 20
-0.3179014966
 10
-3.4858834304
 20
-0.3432797073
 10
-3.4959380636
 20
-0.367465259
 10
-3.5065022915
 20
-0.3904635832
 10
-3.517552996
 20
-0.4122608844
 10
-3.5291132953
 20
-0.432870958
 10
-3.5409583154
 20
-0.4523406224
 10
-3.5530683134
 20
-0.4706414688
 10
-3.5654630322
 20
-0.4878019059
 10
-3.5779768268
 20
-0.5039539786
 10
-3.5905954911
 20
-0.5190421778
 10
-3.6033332311
 20
-0.5331220125
 10
-3.6160670201
 20
-0.5464920549
 10
-3.6287809133
 20
-0.5591689274
 10
-3.6414908555
 20
-0.5711360075
 10
-3.6541216537
 20
-0.5826420003
 10
-3.6666488301
 20
-0.5937847595
 10
-3.6790968625
 20
-0.6044664313
  0
LWPOLYLINE
  5
62D
100
AcDbEntity
  8
0
100
AcDbPolyline
 62
7
  6
CONTINUOUS
 90
16
 70
0
 10
-3.7651302598
 20
-0.6696768854
 10
-3.7399402149
 20
-0.681181483
 10
-3.715503892
 20
-0.6957809785
 10
-3.6918212913
 20
-0.713475372
 10
-3.6687883152
 20
-0.7343425996
 10
-3.6465090612
 20
-0.758304725
 10
-3.6252958217
 20
-0.7851279402
 10
-3.6051663508
 20
-0.8150254965
 10
-3.5861028944
 20
-0.8477841425
 10
-3.5683644834
 20
-0.8825303151
 10
-3.5521062723
 20
-0.9193526586
 10
-3.5371731065
 20
-0.9581625288
 10
-3.5233585545
 20
-0.9978204298
 10
-3.5105938056
 20
-1.0379465298
 10
-3.4989476703
 20
-1.0789206606
 10
-3.4884201487
 20
-1.1207428223
  0
LWPOLYLINE
  5
62E
100
AcDbEntity
  8
RACCORDO
100
AcDbPolyline
 62
250
  6
CONTINUOUS
 90
10
 70
0
 10
0.5984841586
 20
-0.9467396154
 10
0.6046029326
 20
-0.9501512523
 10
0.6105476679
 20
-0.9577286179
 10
0.6161492407
 20
-0.9692559343
 10
0.6212484778
 20
-0.9844050513
 10
0.6257003419
 20
-1.0027447455
 10
0.6293779452
 20
-1.0237529665
 10
0.6321766289
 20
-1.0468317887
 10
0.6340170296
 20
-1.0713244643
 10
0.6348469269
 20
-1.0965340456
  0
LWPOLYLINE
  5
62F
100
AcDbEntity
  8
RACCORDO
100
AcDbPolyline
 62
250
  6
CONTINUOUS
 90
13
 70
0
 10
0.5158563993
 20
-0.9276248879
 10
0.5034065699
 20
-0.9198034735
 10
0.4922305193
 20
-0.911202926
 10
0.482329177
 20
-0.9020123258
 10
0.4737749462
 20
-0.8925169779
 10
0.4664153771
 20
-0.8827797213
 10
0.4599688294
 20
-0.8725720475
 10
0.4544654081
 20
-0.8620164946
 10
0.4499002064
 20
-0.8511506556
 10
0.4461326834
 20
-0.8395060046
 10
0.4432600586
 20
-0.826940962
 10
0.4414801121
 20
-0.8136991236
 10
0.4409272867
 20
-0.7998685476
  0
LWPOLYLINE
  5
630
100
AcDbEntity
  8
RACCORDO
100
AcDbPolyline
 62
250
  6
CONTINUOUS
 90
13
 70
0
 10
0.4409121637
 20
-1.056021215
 10
0.4166620957
 20
-1.0396228359
 10
0.3948138374
 20
-1.0223977972
 10
0.3753673887
 20
-1.0043460991
 10
0.3585126157
 20
-0.9854546505
 10
0.3440596523
 20
-0.9657365424
 10
0.3314389006
 20
-0.9452310476
 10
0.3204547791
 20
-0.9241687974
 10
0.3113028691
 20
-0.9023191607
 10
0.3040003176
 20
-0.8790295168
 10
0.2985528401
 20
-0.8540823257
 10
0.294954721
 20
-0.8276951275
 10
0.2932059603
 20
-0.7998679223
  0
LINE
  5
631
100
AcDbEntity
  8
RACCORDO
100
AcDbLine
 62
250
  6
CONTINUOUS
 10
0.5158564475
 20
-0.2827857937
 11
0.440912159
 21
-0.1543895165
  0
LWPOLYLINE
  5
632
100
AcDbEntity
  8
RACCORDO
100
AcDbPolyline
 62
250
  6
CONTINUOUS
 90
50
 70
0
 10
1.2179887182
 20
0.8515147935
 10
1.2151058157
 20
0.8584886573
 10
1.2140866639
 20
0.8609901386
 10
1.2130439012
 20
0.8635851087
 10
1.2119856662
 20
0.8663146767
 10
1.2109126744
 20
0.8691775609
 10
1.2098349231
 20
0.8721701127
 10
1.2087785982
 20
0.8753281664
 10
1.2077456974
 20
0.8786542661
 10
1.2067510099
 20
0.8821369594
 10
1.2058441204
 20
0.8857888183
 10
1.2050327741
 20
0.8896218503
 10
1.2043321927
 20
0.8936092667
 10
1.203803905
 20
0.8977042203
 10
1.2034662312
 20
0.9019180847
 10
1.2033227674
 20
0.9062205737
 10
1.2034053203
 20
0.9105057397
 10
1.2037287846
 20
0.9147568236
 10
1.2042858429
 20
0.9189764236
 10
1.2050634744
 20
0.9230947367
 10
1.2060609762
 20
0.9270916086
 10
1.2072752908
 20
0.9309798371
 10
1.2086834901
 20
0.9347439341
 10
1.2102830321
 20
0.9383811991
 10
1.2120703081
 20
0.9418890338
 10
1.2140182237
 20
0.9452547176
 10
1.2161216887
 20
0.9484762603
 10
1.2183770793
 20
0.9515538313
 10
1.2207575232
 20
0.9544805875
 10
1.2232542906
 20
0.9572540711
 10
1.2258660778
 20
0.9598783294
 10
1.2285764921
 20
0.9623576483
 10
1.2313740368
 20
0.9646893418
 10
1.2342608981
 20
0.9668788428
 10
1.2372422927
 20
0.9689411244
 10
1.2403095382
 20
0.9708748327
 10
1.2434644386
 20
0.9726811984
 10
1.2467300036
 20
0.9743748172
 10
1.2501018415
 20
0.9759540603
 10
1.2535795888
 20
0.9774152767
 10
1.2571941095
 20
0.978764755
 10
1.2609429495
 20
0.9799989622
 10
1.2648244725
 20
0.9811107487
 10
1.2688717298
 20
0.9820961915
 10
1.2730943568
 20
0.9829516419
 10
1.277477751
 20
0.9836647145
 10
1.2820181873
 20
0.9842183609
 10
1.2867116547
 20
0.9846042653
 10
1.291554191
 20
0.9848204298
 10
1.2965413721
 20
0.984861546
  0
LWPOLYLINE
  5
633
100
AcDbEntity
  8
RACCORDO
100
AcDbPolyline
 62
250
  6
CONTINUOUS
 90
16
 70
0
 10
1.7781604693
 20
-28.552125776
 10
1.782683201
 20
-28.5479391294
 10
1.7870250261
 20
-28.5397439548
 10
1.7911859443
 20
-28.5277086358
 10
1.7951887784
 20
-28.5120984139
 10
1.7990107056
 20
-28.4931091573
 10
1.8025832588
 20
-28.470740891
 10
1.805915216
 20
-28.4451234647
 10
1.8089977991
 20
-28.4165200775
 10
1.8117362068
 20
-28.3850350438
 10
1.8141289688
 20
-28.3508604822
 10
1.8161775555
 20
-28.3143514673
 10
1.8177915756
 20
-28.2758826655
 10
1.818940899
 20
-28.2358434668
 10
1.8196556559
 20
-28.194628993
 10
1.8199358463
 20
-28.1526739621
  0
LWPOLYLINE
  5
634
100
AcDbEntity
  8
RACCORDO
100
AcDbPolyline
 62
7
  6
CONTINUOUS
 90
19
 70
0
 10
1.3743310122
 20
-28.6952724668
 10
1.3715554076
 20
-28.6974397877
 10
1.3695531941
 20
-28.7016718353
 10
1.3683243716
 20
-28.7078397018
 10
1.3677041886
 20
-28.7158088124
 10
1.3678573967
 20
-28.7254170998
 10
1.3692782504
 20
-28.7364595562
 10
1.3719380346
 20
-28.7487416193
 10
1.3758654644
 20
-28.762084427
 10
1.3816409403
 20
-28.776283911
 10
1.3893691775
 20
-28.7913052301
 10
1.3989454607
 20
-28.8068404974
 10
1.4106360444
 20
-28.8222134088
 10
1.4246166283
 20
-28.8372610373
 10
1.4407115128
 20
-28.8517800854
 10
1.4586598528
 20
-28.8649785008
 10
1.4783747001
 20
-28.8765165131
 10
1.499943003
 20
-28.8865372183
 10
1.5233647616
 20
-28.8949983737
  0
LWPOLYLINE
  5
635
100
AcDbEntity
  8
RACCORDO
100
AcDbPolyline
 62
250
  6
CONTINUOUS
 90
16
 70
0
 10
1.6304400018
 20
-28.4023313458
 10
1.6349609639
 20
-28.3995048657
 10
1.6393017852
 20
-28.3944179442
 10
1.6434624657
 20
-28.3870705813
 10
1.6474663127
 20
-28.3773745371
 10
1.651290019
 20
-28.3654180516
 10
1.6548636625
 20
-28.3514658445
 10
1.6581951569
 20
-28.3354836546
 10
1.6612765885
 20
-28.3175057432
 10
1.664014295
 20
-28.2978996138
 10
1.6664074367
 20
-28.2765704086
 10
1.6684568532
 20
-28.2536129855
 10
1.6700714008
 20
-28.2296794215
 10
1.6712206983
 20
-28.2049870759
 10
1.6719351269
 20
-28.1793185894
 10
1.6722146867
 20
-28.1526739621
  0
LINE
  5
636
100
AcDbEntity
  8
RACCORDO
100
AcDbLine
 62
7
  6
CONTINUOUS
 10
1.4169390619
 20
-28.6786068107
 11
1.3743310122
 21
-28.6952724668
  0
LWPOLYLINE
  5
637
100
AcDbEntity
  8
RACCORDO
100
AcDbPolyline
 62
7
  6
CONTINUOUS
 90
3
 70
0
 10
1.4582856741
 20
-28.6626915845
 10
1.4445990328
 20
-28.6679110481
 10
1.4169390619
 20
-28.6786068107
  0
LWPOLYLINE
  5
638
100
AcDbEntity
  8
RACCORDO
100
AcDbPolyline
 62
7
  6
CONTINUOUS
 90
3
 70
0
 10
1.498972907
 20
-28.6475569032
 10
1.4854837604
 20
-28.6525150698
 10
1.4582856741
 20
-28.6626915845
  0
LINE
  5
639
100
AcDbEntity
  8
RACCORDO
100
AcDbLine
 62
250
  6
CONTINUOUS
 10
1.1358299238
 20
-27.4033160727
 11
1.0810372031
 21
-27.4196059937
  0
LINE
  5
63A
100
AcDbEntity
  8
RACCORDO
100
AcDbLine
 62
250
  6
CONTINUOUS
 10
1.2778781438
 20
-27.5548010786
 11
1.2287583661
 21
-27.5694004239
  0
LINE
  5
63B
100
AcDbEntity
  8
RACCORDO
100
AcDbLine
 62
250
  6
CONTINUOUS
 10
1.2287583661
 20
-28.5217188747
 11
1.6304400018
 21
-28.4023313458
  0
LINE
  5
63C
100
AcDbEntity
  8
RACCORDO
100
AcDbLine
 62
250
  6
CONTINUOUS
 10
1.7781611647
 20
-28.552125776
 11
1.2965413721
 21
-28.6952724668
  0
LINE
  5
63D
100
AcDbEntity
  8
RACCORDO
100
AcDbLine
 62
7
  6
CONTINUOUS
 10
-18.7704642911
 20
1.8947945396
 11
-18.6559290951
 21
1.8947945396
  0
LINE
  5
63E
100
AcDbEntity
  8
DRAFT
100
AcDbLine
 62
7
  6
CONTINUOUS
 10
-18.7887944362
 20
1.8947945396
 11
-18.7704642911
 21
1.8947945396
  0
LINE
  5
63F
100
AcDbEntity
  8
RACCORDO
100
AcDbLine
 62
7
  6
CONTINUOUS
 10
3.158606101
 20
1.8947945396
 11
3.0440709049
 21
1.8947945396
  0
LINE
  5
640
100
AcDbEntity
  8
DRAFT
100
AcDbLine
 62
7
  6
CONTINUOUS
 10
3.1769362461
 20
1.8947945396
 11
3.158606101
 21
1.8947945396
  0
LINE
  5
641
100
AcDbEntity
  8
0
100
AcDbLine
 62
250
  6
CONTINUOUS
 10
-17.5559290951
 20
2.4323878234
 11
1.9440709049
 21
2.4323878234
  0
LINE
  5
642
100
AcDbEntity
  8
RACCORDO
100
AcDbLine
 62
250
  6
CONTINUOUS
 10
2.4440709049
 20
2.4323878234
 11
1.9440709049
 21
2.4323878234
  0
LINE
  5
643
100
AcDbEntity
  8
RACCORDO
100
AcDbLine
 62
250
  6
CONTINUOUS
 10
-17.5559290951
 20
2.4323878234
 11
-18.0559290951
 21
2.4323878234
  0
LINE
  5
644
100
AcDbEntity
  8
0
100
AcDbLine
 62
250
  6
CONTINUOUS
 10
-17.5554027605
 20
2.6033978951
 11
1.9435445703
 21
2.6033978951
  0
LINE
  5
645
100
AcDbEntity
  8
RACCORDO
100
AcDbLine
 62
250
  6
CONTINUOUS
 10
2.4440709049
 20
2.6033978951
 11
1.9435445703
 21
2.6033978951
  0
LINE
  5
646
100
AcDbEntity
  8
RACCORDO
100
AcDbLine
 62
250
  6
CONTINUOUS
 10
-17.5554027605
 20
2.6033978951
 11
-18.0559290951
 21
2.6033978951
  0
LINE
  5
647
100
AcDbEntity
  8
0
100
AcDbLine
 62
250
  6
CONTINUOUS
 10
-17.5512189102
 20
3.2619479583
 11
1.9393607201
 21
3.2619479583
  0
LINE
  5
648
100
AcDbEntity
  8
RACCORDO
100
AcDbLine
 62
250
  6
CONTINUOUS
 10
2.4440709049
 20
3.2619479583
 11
1.9393607201
 21
3.2619479583
  0
LINE
  5
649
100
AcDbEntity
  8
RACCORDO
100
AcDbLine
 62
250
  6
CONTINUOUS
 10
-17.5512189102
 20
3.2619479583
 11
-18.0559290951
 21
3.2619479583
  0
LINE
  5
64A
100
AcDbEntity
  8
0
100
AcDbLine
 62
250
  6
CONTINUOUS
 10
-17.5506925756
 20
3.43295803
 11
1.9388343855
 21
3.43295803
  0
LINE
  5
64B
100
AcDbEntity
  8
RACCORDO
100
AcDbLine
 62
250
  6
CONTINUOUS
 10
2.4440709049
 20
3.43295803
 11
1.9388343855
 21
3.43295803
  0
LINE
  5
64C
100
AcDbEntity
  8
RACCORDO
100
AcDbLine
 62
250
  6
CONTINUOUS
 10
-17.5506925756
 20
3.43295803
 11
-18.0559290951
 21
3.43295803
  0
LWPOLYLINE
  5
64D
100
AcDbEntity
  8
RACCORDO
100
AcDbPolyline
 62
250
  6
CONTINUOUS
 90
25
 70
0
 10
1.2965413716
 20
1.1845874529
 10
1.251300335
 20
1.1889178953
 10
1.204234409
 20
1.1918796552
 10
1.1553435936
 20
1.1934727326
 10
1.1040139875
 20
1.1942455436
 10
1.050859492
 20
1.1936496721
 10
0.9977218108
 20
1.1900398705
 10
0.9443271095
 20
1.1824821535
 10
0.8909492226
 20
1.1719105065
 10
0.8402513571
 20
1.1594816374
 10
0.7931866675
 20
1.145385025
 10
0.7488019994
 20
1.1294311906
 10
0.7069010968
 20
1.1122084059
 10
0.6673118127
 20
1.093952782
 10
0.630206294
 20
1.0744282078
 10
0.5959047258
 20
1.0535146216
 10
0.56421006
 20
1.0311214818
 10
0.5353193448
 20
1.0073393301
 10
0.5101439092
 20
0.9823197298
 10
0.4889142952
 20
0.9559358272
 10
0.4713999609
 20
0.9283144762
 10
0.4578206103
 20
0.8999878008
 10
0.4482494778
 20
0.8711331761
 10
0.4426133289
 20
0.8415732271
 10
0.4409121637
 20
0.8113079539
  0
LINE
  5
64E
100
AcDbEntity
  8
RACCORDO
100
AcDbLine
 62
250
  6
CONTINUOUS
 10
1.0810372031
 20
-0.2908049272
 11
1.1301569808
 21
-0.3054042724
  0
LINE
  5
64F
100
AcDbEntity
  8
RACCORDO
100
AcDbLine
 62
250
  6
CONTINUOUS
 10
1.2287583661
 20
-0.1410104969
 11
1.277877904
 21
-0.1556097709
  0
LINE
  5
650
100
AcDbEntity
  8
RACCORDO
100
AcDbLine
 62
250
  6
CONTINUOUS
 10
1.6304400018
 20
0.691920425
 11
1.2287583661
 21
0.8113079539
  0
LINE
  5
651
100
AcDbEntity
  8
RACCORDO
100
AcDbLine
 62
250
  6
CONTINUOUS
 10
1.2965413721
 20
0.984861546
 11
1.7781611647
 21
0.8417148552
  0
LWPOLYLINE
  5
652
100
AcDbEntity
  8
RACCORDO
100
AcDbPolyline
 62
250
  6
CONTINUOUS
 90
16
 70
0
 10
1.1301511293
 20
-0.3054042724
 10
1.1364592117
 20
-0.307378323
 10
1.1423650845
 20
-0.3112783571
 10
1.1478687479
 20
-0.3168863002
 10
1.1530008085
 20
-0.323996431
 10
1.1577306596
 20
-0.3323673985
 10
1.161966481
 20
-0.3416896562
 10
1.1656416929
 20
-0.3515560263
 10
1.1688228751
 20
-0.3618758159
 10
1.1716179457
 20
-0.3729057026
 10
1.1740706238
 20
-0.384505856
 10
1.1761371903
 20
-0.396603446
 10
1.1777944067
 20
-0.409728739
 10
1.1790345269
 20
-0.4240419221
 10
1.1798652971
 20
-0.4392426006
 10
1.1802867171
 20
-0.4551987026
  0
LWPOLYLINE
  5
653
100
AcDbEntity
  8
RACCORDO
100
AcDbPolyline
 62
7
  6
CONTINUOUS
 90
3
 70
0
 10
1.498972907
 20
0.9371459824
 10
1.4719213494
 20
0.9471490428
 10
1.4582856741
 20
0.9522806637
  0
LINE
  5
654
100
AcDbEntity
  8
RACCORDO
100
AcDbLine
 62
7
  6
CONTINUOUS
 10
1.4582856741
 20
0.9522806637
 11
1.4308391272
 21
0.9628063181
  0
LWPOLYLINE
  5
655
100
AcDbEntity
  8
RACCORDO
100
AcDbPolyline
 62
7
  6
CONTINUOUS
 90
3
 70
0
 10
1.4308391272
 20
0.9628063181
 10
1.3886738551
 20
0.9792229462
 10
1.3743310122
 20
0.984861546
  0
LWPOLYLINE
  5
656
100
AcDbEntity
  8
RACCORDO
100
AcDbPolyline
 62
250
  6
CONTINUOUS
 90
16
 70
0
 10
1.277877904
 20
-0.1556097709
 10
1.2841785971
 20
-0.1603056777
 10
1.2900798605
 20
-0.1679611966
 10
1.2955816939
 20
-0.1785763277
 10
1.3007162567
 20
-0.1926623808
 10
1.3054513896
 20
-0.2097080461
 10
1.3096906155
 20
-0.2281793941
 10
1.3133647482
 20
-0.2476251395
 10
1.3165429739
 20
-0.2684965678
 10
1.3193363731
 20
-0.2906136056
 10
1.3217904843
 20
-0.3136908503
 10
1.3238597691
 20
-0.3380137046
 10
1.3255186931
 20
-0.3642583035
 10
1.3267587447
 20
-0.3926500253
 10
1.3275884356
 20
-0.4229634917
 10
1.3280077657
 20
-0.4551987026
  0
LINE
  5
657
100
AcDbEntity
  8
DRAFT
100
AcDbLine
 62
7
  6
CONTINUOUS
 10
2.2940709049
 20
-28.5925287349
 11
2.1437282593
 21
-28.7052054604
  0
LINE
  5
658
100
AcDbEntity
  8
DRAFT
100
AcDbLine
 62
7
  6
CONTINUOUS
 10
2.2940709049
 20
0.8821178141
 11
2.1437282593
 21
0.9947945396
  0
LINE
  5
659
100
AcDbEntity
  8
RACCORDO
100
AcDbLine
 62
7
  6
CONTINUOUS
 10
1.6888724617
 20
11.1395580201
 11
-17.3007306518
 21
11.1395580201
  0
LINE
  5
65A
100
AcDbEntity
  8
0
100
AcDbLine
 62
7
  6
CONTINUOUS
 10
1.6888724617
 20
11.1395580201
 11
-17.3007306518
 21
11.1395580201
  0
LINE
  5
65B
100
AcDbEntity
  8
RACCORDO
100
AcDbLine
 62
7
  6
CONTINUOUS
 10
1.9440709049
 20
11.6447945396
 11
-17.5559290951
 21
11.6447945396
  0
LINE
  5
65C
100
AcDbEntity
  8
RACCORDO
100
AcDbLine
 62
7
  6
CONTINUOUS
 10
-18.3213370486
 20
12.3664178163
 11
2.7094788584
 21
12.3664178163
  0
LINE
  5
65D
100
AcDbEntity
  8
RACCORDO
100
AcDbLine
 62
7
  6
CONTINUOUS
 10
-18.3396671937
 20
12.4276598808
 11
2.7278090035
 21
12.4276598808
  0
LINE
  5
65E
100
AcDbEntity
  8
0
100
AcDbLine
 62
7
  6
CONTINUOUS
 10
-18.3406356287
 20
12.4793297357
 11
2.7287774385
 21
12.4793297357
  0
ARC
  5
65F
100
AcDbEntity
  8
RACCORDO
100
AcDbCircle
 62
7
  6
CONTINUOUS
 10
-17.5559290951
 20
-38.8552054604
 40
0.5
100
AcDbArc
 50
180.0
 51
270.0
  0
ARC
  5
660
100
AcDbEntity
  8
RACCORDO
100
AcDbCircle
 62
7
  6
CONTINUOUS
 10
-12.5559290951
 20
-28.6552054604
 40
0.5
100
AcDbArc
 50
180.0
 51
270.0
  0
ARC
  5
661
100
AcDbEntity
  8
RACCORDO
100
AcDbCircle
 62
7
  6
CONTINUOUS
 10
-12.5559290951
 20
-25.6552054604
 40
0.5
100
AcDbArc
 50
90.0
 51
180.0
  0
ARC
  5
662
100
AcDbEntity
  8
RACCORDO
100
AcDbCircle
 62
7
  6
CONTINUOUS
 10
-17.2059290951
 20
-25.5552054604
 40
0.25
100
AcDbArc
 50
73.5711433396
 51
168.4630409672
  0
ARC
  5
663
100
AcDbEntity
  8
RACCORDO
100
AcDbCircle
 62
7
  6
CONTINUOUS
 10
-17.2059290951
 20
-28.6552054604
 40
0.25
100
AcDbArc
 50
191.5369590328
 51
286.4288566604
  0
ARC
  5
664
100
AcDbEntity
  8
RACCORDO
100
AcDbCircle
 62
7
  6
CONTINUOUS
 10
-18.6559290951
 20
-24.8052054604
 40
0.2
100
AcDbArc
 50
0.0
 51
90.0
  0
ARC
  5
665
100
AcDbEntity
  8
RACCORDO
100
AcDbCircle
 62
7
  6
CONTINUOUS
 10
-18.6559290951
 20
-29.4052054604
 40
0.2
100
AcDbArc
 50
270.0
 51
360.0
  0
ARC
  5
666
100
AcDbEntity
  8
DRAFT
100
AcDbCircle
 62
7
  6
CONTINUOUS
 10
-17.2059290951
 20
-25.5552054604
 40
0.0954050818
100
AcDbArc
 50
355.4017036847
 51
184.5982963153
  0
ARC
  5
667
100
AcDbEntity
  8
DRAFT
100
AcDbCircle
 62
7
  6
CONTINUOUS
 10
-17.2059290951
 20
-28.6552054604
 40
0.0954050818
100
AcDbArc
 50
175.4017036847
 51
4.5982963153
  0
CIRCLE
  5
668
100
AcDbEntity
  8
ASSI
100
AcDbCircle
 62
7
  6
CONTINUOUS
 10
-14.8059290951
 20
8.5447945396
 40
2.0
  0
CIRCLE
  5
669
100
AcDbEntity
  8
ASSI
100
AcDbCircle
 62
7
  6
CONTINUOUS
 10
-14.8059290951
 20
8.5447945396
 40
1.7
  0
ARC
  5
66A
100
AcDbEntity
  8
RACCORDO
100
AcDbCircle
 62
7
  6
CONTINUOUS
 10
-17.5559290951
 20
11.1447945396
 40
0.5
100
AcDbArc
 50
90.0
 51
180.0
  0
ARC
  5
66B
100
AcDbEntity
  8
RACCORDO
100
AcDbCircle
 62
7
  6
CONTINUOUS
 10
-12.5559290951
 20
0.8447945396
 40
0.5
100
AcDbArc
 50
90.0
 51
180.0
  0
ARC
  5
66C
100
AcDbEntity
  8
RACCORDO
100
AcDbCircle
 62
7
  6
CONTINUOUS
 10
-12.5559290951
 20
-5.1552054604
 40
0.5
100
AcDbArc
 50
180.0
 51
270.0
  0
ARC
  5
66D
100
AcDbEntity
  8
RACCORDO
100
AcDbCircle
 62
7
  6
CONTINUOUS
 10
-17.2059290951
 20
-2.1552054604
 40
0.25
100
AcDbArc
 50
191.5369590328
 51
286.4288566604
  0
ARC
  5
66E
100
AcDbEntity
  8
RACCORDO
100
AcDbCircle
 62
7
  6
CONTINUOUS
 10
-17.2059290951
 20
0.9447945396
 40
0.25
100
AcDbArc
 50
73.5711433396
 51
168.4630409672
  0
ARC
  5
66F
100
AcDbEntity
  8
RACCORDO
100
AcDbCircle
 62
7
  6
CONTINUOUS
 10
-18.6559290951
 20
1.6947945396
 40
0.2
100
AcDbArc
 50
0.0
 51
90.0
  0
ARC
  5
670
100
AcDbEntity
  8
RACCORDO
100
AcDbCircle
 62
7
  6
CONTINUOUS
 10
-18.6559290951
 20
-2.9052054604
 40
0.2
100
AcDbArc
 50
270.0
 51
360.0
  0
ARC
  5
671
100
AcDbEntity
  8
DRAFT
100
AcDbCircle
 62
7
  6
CONTINUOUS
 10
-17.2059290951
 20
-2.1552054604
 40
0.0954050818
100
AcDbArc
 50
175.4017036847
 51
4.5982963153
  0
ARC
  5
672
100
AcDbEntity
  8
DRAFT
100
AcDbCircle
 62
7
  6
CONTINUOUS
 10
-17.2059290951
 20
0.9447945396
 40
0.0954050818
100
AcDbArc
 50
355.4017036847
 51
184.5982963153
  0
CIRCLE
  5
673
100
AcDbEntity
  8
ASSI
100
AcDbCircle
 62
7
  6
CONTINUOUS
 10
-0.8059290951
 20
-36.2552054604
 40
2.0
  0
CIRCLE
  5
674
100
AcDbEntity
  8
ASSI
100
AcDbCircle
 62
7
  6
CONTINUOUS
 10
-0.8059290951
 20
-36.2552054604
 40
1.7
  0
ARC
  5
675
100
AcDbEntity
  8
RACCORDO
100
AcDbCircle
 62
7
  6
CONTINUOUS
 10
1.9440709049
 20
-38.8552054604
 40
0.5
100
AcDbArc
 50
270.0
 51
360.0
  0
ARC
  5
676
100
AcDbEntity
  8
RACCORDO
100
AcDbCircle
 62
7
  6
CONTINUOUS
 10
-3.0559290951
 20
-28.6552054604
 40
0.5
100
AcDbArc
 50
270.0
 51
360.0
  0
ARC
  5
677
100
AcDbEntity
  8
RACCORDO
100
AcDbCircle
 62
7
  6
CONTINUOUS
 10
-3.0559290951
 20
-25.6552054604
 40
0.5
100
AcDbArc
 50
0.0
 51
90.0
  0
ARC
  5
678
100
AcDbEntity
  8
RACCORDO
100
AcDbCircle
 62
7
  6
CONTINUOUS
 10
1.5940709049
 20
-25.5552054604
 40
0.25
100
AcDbArc
 50
11.5369590328
 51
106.4288566604
  0
ARC
  5
679
100
AcDbEntity
  8
RACCORDO
100
AcDbCircle
 62
7
  6
CONTINUOUS
 10
1.5940709049
 20
-28.6552054604
 40
0.25
100
AcDbArc
 50
253.5711433396
 51
348.4630409672
  0
ARC
  5
67A
100
AcDbEntity
  8
RACCORDO
100
AcDbCircle
 62
7
  6
CONTINUOUS
 10
3.0440709049
 20
-29.4052054604
 40
0.2
100
AcDbArc
 50
180.0
 51
270.0
  0
ARC
  5
67B
100
AcDbEntity
  8
RACCORDO
100
AcDbCircle
 62
7
  6
CONTINUOUS
 10
3.0440709049
 20
-24.8052054604
 40
0.2
100
AcDbArc
 50
90.0
 51
180.0
  0
ARC
  5
67C
100
AcDbEntity
  8
DRAFT
100
AcDbCircle
 62
7
  6
CONTINUOUS
 10
1.5940709049
 20
-25.5552054604
 40
0.0954050818
100
AcDbArc
 50
355.4017036847
 51
184.5982963153
  0
ARC
  5
67D
100
AcDbEntity
  8
DRAFT
100
AcDbCircle
 62
7
  6
CONTINUOUS
 10
1.5940709049
 20
-28.6552054604
 40
0.0954050818
100
AcDbArc
 50
175.4017036847
 51
4.5982963153
  0
ARC
  5
67E
100
AcDbEntity
  8
RACCORDO
100
AcDbCircle
 62
7
  6
CONTINUOUS
 10
1.9440709049
 20
11.1447945396
 40
0.5
100
AcDbArc
 50
0.0
 51
90.0
  0
ARC
  5
67F
100
AcDbEntity
  8
RACCORDO
100
AcDbCircle
 62
7
  6
CONTINUOUS
 10
-3.0559290951
 20
0.8447945396
 40
0.5
100
AcDbArc
 50
0.0
 51
90.0
  0
ARC
  5
680
100
AcDbEntity
  8
RACCORDO
100
AcDbCircle
 62
7
  6
CONTINUOUS
 10
-3.0559290951
 20
-5.1552054604
 40
0.5
100
AcDbArc
 50
270.0
 51
360.0
  0
ARC
  5
681
100
AcDbEntity
  8
RACCORDO
100
AcDbCircle
 62
7
  6
CONTINUOUS
 10
1.5940709049
 20
-2.1552054604
 40
0.25
100
AcDbArc
 50
253.5711433396
 51
348.4630409672
  0
ARC
  5
682
100
AcDbEntity
  8
RACCORDO
100
AcDbCircle
 62
7
  6
CONTINUOUS
 10
1.5940709049
 20
0.9447945396
 40
0.25
100
AcDbArc
 50
11.5369590328
 51
106.4288566604
  0
ARC
  5
683
100
AcDbEntity
  8
RACCORDO
100
AcDbCircle
 62
7
  6
CONTINUOUS
 10
3.0440709049
 20
-2.9052054604
 40
0.2
100
AcDbArc
 50
180.0
 51
270.0
  0
ARC
  5
684
100
AcDbEntity
  8
RACCORDO
100
AcDbCircle
 62
7
  6
CONTINUOUS
 10
3.0440709049
 20
1.6947945396
 40
0.2
100
AcDbArc
 50
90.0
 51
180.0
  0
ARC
  5
685
100
AcDbEntity
  8
DRAFT
100
AcDbCircle
 62
7
  6
CONTINUOUS
 10
1.5940709049
 20
-2.1552054604
 40
0.0954050818
100
AcDbArc
 50
175.4017036847
 51
4.5982963153
  0
ARC
  5
686
100
AcDbEntity
  8
DRAFT
100
AcDbCircle
 62
7
  6
CONTINUOUS
 10
1.5940709049
 20
0.9447945396
 40
0.0954050818
100
AcDbArc
 50
355.4017036847
 51
184.5982963153
  0
ELLIPSE
  5
687
100
AcDbEntity
  8
RACCORDO
100
AcDbEllipse
 62
7
  6
CONTINUOUS
 10
2.7284347048
 20
11.9791583394
 30
0.0
 11
0.35379574
 21
0.35379574
 31
0.0
 40
0.999315002
 41
-0.7850555471
 42
0.7850555471
  0
ELLIPSE
  5
688
100
AcDbEntity
  8
RACCORDO
100
AcDbEllipse
 62
7
  6
CONTINUOUS
 10
2.7284347048
 20
-39.6895692602
 30
0.0
 11
0.35379574
 21
-0.35379574
 31
0.0
 40
0.999315002
 41
-0.7850555471
 42
0.7850555471
  0
ELLIPSE
  5
689
100
AcDbEntity
  8
RACCORDO
100
AcDbEllipse
 62
7
  6
CONTINUOUS
 10
-18.3402928949
 20
-39.6895692602
 30
0.0
 11
0.35379574
 21
0.35379574
 31
0.0
 40
0.999315002
 41
-3.9266482006
 42
-2.3565371065
  0
ELLIPSE
  5
68A
100
AcDbEntity
  8
RACCORDO
100
AcDbEllipse
 62
7
  6
CONTINUOUS
 10
-18.3402928949
 20
11.9791583394
 30
0.0
 11
0.35379574
 21
-0.35379574
 31
0.0
 40
0.999315002
 41
2.3565371065
 42
3.9266482006
  0
ELLIPSE
  5
68B
100
AcDbEntity
  8
RACCORDO
100
AcDbEllipse
 62
7
  6
CONTINUOUS
 10
-18.3203100345
 20
11.9146988894
 30
0.0
 11
0.1295691639
 21
-0.4328979966
 31
0.0
 40
0.9958559188
 41
2.8519110196
 42
4.4204258731
  0
ELLIPSE
  5
68C
100
AcDbEntity
  8
RACCORDO
100
AcDbEllipse
 62
7
  6
CONTINUOUS
 10
2.7084518444
 20
11.9146988894
 30
0.0
 11
-0.1295691639
 21
-0.4328979966
 31
0.0
 40
0.9958559188
 41
1.8627594341
 42
3.4312742875
  0
ELLIPSE
  5
68D
100
AcDbEntity
  8
RACCORDO
100
AcDbEllipse
 62
7
  6
CONTINUOUS
 10
1.9475619179
 20
-31.1433689508
 30
0.0
 11
0.0
 21
0.5
 31
0.0
 40
0.0174550649
 41
1.2217304764
 42
1.5707963268
  0
ELLIPSE
  5
68E
100
AcDbEntity
  8
RACCORDO
100
AcDbEllipse
 62
7
  6
CONTINUOUS
 10
-17.5594201081
 20
-31.1433689508
 30
0.0
 11
-0.0
 21
0.5
 31
0.0
 40
0.0174550649
 41
-1.5707963268
 42
-1.2606130151
  0
ELLIPSE
  5
68F
100
AcDbEntity
  8
RACCORDO
100
AcDbEllipse
 62
7
  6
CONTINUOUS
 10
1.9475619179
 20
3.43295803
 30
0.0
 11
0.0
 21
0.5
 31
0.0
 40
0.0174550649
 41
-4.7123889804
 42
-4.36332313
  0
ELLIPSE
  5
690
100
AcDbEntity
  8
RACCORDO
100
AcDbEllipse
 62
7
  6
CONTINUOUS
 10
-17.5594201081
 20
3.43295803
 30
0.0
 11
0.0
 21
0.5
 31
0.0
 40
0.0174550649
 41
-1.9198621772
 42
-1.6096780974
  0
ELLIPSE
  5
691
100
AcDbEntity
  8
RACCORDO
100
AcDbEllipse
 62
7
  6
CONTINUOUS
 10
-18.3386401796
 20
11.9759409539
 30
0.0
 11
-0.1295691639
 21
0.4328979966
 31
0.0
 40
0.9958559188
 41
-0.289681634
 42
1.2788332195
  0
ELLIPSE
  5
692
100
AcDbEntity
  8
RACCORDO
100
AcDbEllipse
 62
7
  6
CONTINUOUS
 10
2.7084518444
 20
-39.6251098102
 30
0.0
 11
-0.1295691639
 21
0.4328979966
 31
0.0
 40
0.9958559188
 41
2.8519110196
 42
4.4204258731
  0
ELLIPSE
  5
693
100
AcDbEntity
  8
RACCORDO
100
AcDbEllipse
 62
7
  6
CONTINUOUS
 10
-18.3203100345
 20
-39.6251098102
 30
0.0
 11
0.1295691639
 21
0.4328979966
 31
0.0
 40
0.9958559188
 41
1.8627594341
 42
3.4312742875
  0
ELLIPSE
  5
694
100
AcDbEntity
  8
RACCORDO
100
AcDbEllipse
 62
7
  6
CONTINUOUS
 10
2.7267819895
 20
11.9759409539
 30
0.0
 11
0.1295691639
 21
0.4328979966
 31
0.0
 40
0.9958559188
 41
-1.2788332195
 42
0.289681634
  0
ELLIPSE
  5
695
100
AcDbEntity
  8
RACCORDO
100
AcDbEllipse
 62
7
  6
CONTINUOUS
 10
2.7267819895
 20
-39.6863518747
 30
0.0
 11
-0.1295691639
 21
0.4328979966
 31
0.0
 40
0.9958559188
 41
-3.4312742875
 42
-1.8627594341
  0
ELLIPSE
  5
696
100
AcDbEntity
  8
RACCORDO
100
AcDbEllipse
 62
7
  6
CONTINUOUS
 10
-18.3386401796
 20
-39.6863518747
 30
0.0
 11
0.1295691639
 21
0.4328979966
 31
0.0
 40
0.9958559188
 41
-4.4204258731
 42
-2.8519110196
  0
ELLIPSE
  5
697
100
AcDbEntity
  8
RACCORDO
100
AcDbEllipse
 62
7
  6
CONTINUOUS
 10
-18.7665364029
 20
-11.7293405157
 30
0.0
 11
-0.0
 21
0.15
 31
0.0
 40
0.0261859216
 41
1.5707963268
 42
2.9670597284
  0
ELLIPSE
  5
698
100
AcDbEntity
  8
RACCORDO
100
AcDbEllipse
 62
7
  6
CONTINUOUS
 10
-18.7665364029
 20
-15.9810704051
 30
0.0
 11
0.0
 21
0.15
 31
0.0
 40
0.0261859216
 41
0.1745329252
 42
1.5707963268
  0
ELLIPSE
  5
699
100
AcDbEntity
  8
RACCORDO
100
AcDbEllipse
 62
7
  6
CONTINUOUS
 10
3.1546782128
 20
-15.9810704051
 30
0.0
 11
0.0
 21
0.15
 31
0.0
 40
0.0261859216
 41
-1.5707963268
 42
-0.1745329252
  0
ELLIPSE
  5
69A
100
AcDbEntity
  8
RACCORDO
100
AcDbEllipse
 62
7
  6
CONTINUOUS
 10
3.1546782128
 20
-11.7293405157
 30
0.0
 11
0.0
 21
0.15
 31
0.0
 40
0.0261859216
 41
-2.9670597284
 42
-1.5707963268
  0
ELLIPSE
  5
69B
100
AcDbEntity
  8
RACCORDO
100
AcDbEllipse
 62
7
  6
CONTINUOUS
 10
-17.5472015626
 20
-30.1427987442
 30
0.0
 11
-0.0
 21
0.5
 31
0.0
 40
0.0174550649
 41
-4.7123889804
 42
-4.36332313
  0
ELLIPSE
  5
69C
100
AcDbEntity
  8
RACCORDO
100
AcDbEllipse
 62
7
  6
CONTINUOUS
 10
-17.5472015626
 20
2.4323878234
 30
0.0
 11
0.0
 21
0.5
 31
0.0
 40
0.0174550649
 41
1.2217304764
 42
1.5707963268
  0
ELLIPSE
  5
69D
100
AcDbEntity
  8
RACCORDO
100
AcDbEllipse
 62
7
  6
CONTINUOUS
 10
1.9353433725
 20
2.4323878234
 30
0.0
 11
0.0
 21
0.5
 31
0.0
 40
0.0174550649
 41
-1.5707963268
 42
-1.2217304764
  0
ELLIPSE
  5
69E
100
AcDbEntity
  8
RACCORDO
100
AcDbEllipse
 62
7
  6
CONTINUOUS
 10
1.9353433725
 20
-30.1427987442
 30
0.0
 11
0.0
 21
0.5
 31
0.0
 40
0.0174550649
 41
-1.9198621772
 42
-1.5707963268
  0
ELLIPSE
  5
69F
100
AcDbEntity
  8
RACCORDO
100
AcDbEllipse
 62
7
  6
CONTINUOUS
 10
3.1193272187
 20
-15.0830016834
 30
0.0
 11
-0.0
 21
0.5
 31
0.0
 40
0.0261859216
 41
-4.7123889804
 42
-3.3161255788
  0
ELLIPSE
  5
6A0
100
AcDbEntity
  8
RACCORDO
100
AcDbEllipse
 62
7
  6
CONTINUOUS
 10
3.1193272187
 20
-12.6274092374
 30
0.0
 11
0.0
 21
0.5
 31
0.0
 40
0.0261859216
 41
0.1745329252
 42
1.5707963268
  0
ELLIPSE
  5
6A1
100
AcDbEntity
  8
RACCORDO
100
AcDbEllipse
 62
7
  6
CONTINUOUS
 10
-18.7311854088
 20
-12.6274092374
 30
0.0
 11
0.0
 21
0.5
 31
0.0
 40
0.0261859216
 41
-1.5707963268
 42
-0.1745329252
  0
ELLIPSE
  5
6A2
100
AcDbEntity
  8
RACCORDO
100
AcDbEllipse
 62
7
  6
CONTINUOUS
 10
-18.7311854088
 20
-15.0830016834
 30
0.0
 11
0.0
 21
0.5
 31
0.0
 40
0.0261859216
 41
-2.9670597284
 42
-1.5707963268
  0
ELLIPSE
  5
6A3
100
AcDbEntity
  8
RACCORDO
100
AcDbEllipse
 62
7
  6
CONTINUOUS
 10
1.6887963034
 20
10.8895199381
 30
0.0
 11
0.1768305473
 21
0.1768305473
 31
0.0
 40
0.9996954599
 41
-0.7852458701
 42
0.7852458701
  0
ELLIPSE
  5
6A4
100
AcDbEntity
  8
RACCORDO
100
AcDbEllipse
 62
7
  6
CONTINUOUS
 10
1.6887963034
 20
-38.5999308589
 30
0.0
 11
0.1768305473
 21
-0.1768305473
 31
0.0
 40
0.9996954599
 41
-0.7852458701
 42
0.7852458701
  0
ELLIPSE
  5
6A5
100
AcDbEntity
  8
RACCORDO
100
AcDbEllipse
 62
7
  6
CONTINUOUS
 10
-17.3006544936
 20
-38.5999308589
 30
0.0
 11
0.1768305473
 21
0.1768305473
 31
0.0
 40
0.9996954599
 41
2.3563467834
 42
3.9268385237
  0
ELLIPSE
  5
6A6
100
AcDbEntity
  8
RACCORDO
100
AcDbEllipse
 62
7
  6
CONTINUOUS
 10
-17.3006544936
 20
10.8895199381
 30
0.0
 11
-0.1768305473
 21
0.1768305473
 31
0.0
 40
0.9996954599
 41
-0.7852458701
 42
0.7852458701
  0
ELLIPSE
  5
6A7
100
AcDbEntity
  8
0
100
AcDbEllipse
 62
7
  6
CONTINUOUS
 10
1.6887963034
 20
-38.5999308589
 30
0.0
 11
0.1768305473
 21
-0.1768305473
 31
0.0
 40
0.9996954599
 41
-0.7852458701
 42
0.7852458701
  0
ELLIPSE
  5
6A8
100
AcDbEntity
  8
0
100
AcDbEllipse
 62
7
  6
CONTINUOUS
 10
-17.3006544936
 20
-38.5999308589
 30
0.0
 11
0.1768305473
 21
0.1768305473
 31
0.0
 40
0.9996954599
 41
2.3563467834
 42
3.9268385237
  0
ELLIPSE
  5
6A9
100
AcDbEntity
  8
0
100
AcDbEllipse
 62
7
  6
CONTINUOUS
 10
-17.5594201081
 20
-31.1433689508
 30
0.0
 11
0.0
 21
0.5
 31
0.0
 40
0.0174550649
 41
-1.5707963268
 42
-1.2217304764
  0
ELLIPSE
  5
6AA
100
AcDbEntity
  8
0
100
AcDbEllipse
 62
7
  6
CONTINUOUS
 10
1.9475619179
 20
-31.1433689508
 30
0.0
 11
0.0
 21
0.5
 31
0.0
 40
0.0174550649
 41
1.2217304764
 42
1.5707963268
  0
ELLIPSE
  5
6AB
100
AcDbEntity
  8
0
100
AcDbEllipse
 62
7
  6
CONTINUOUS
 10
1.9353433725
 20
-30.1427987442
 30
0.0
 11
0.0
 21
0.5
 31
0.0
 40
0.0174550649
 41
-1.9198621772
 42
-1.5707963268
  0
ELLIPSE
  5
6AC
100
AcDbEntity
  8
0
100
AcDbEllipse
 62
7
  6
CONTINUOUS
 10
-17.5472015626
 20
-30.1427987442
 30
0.0
 11
-0.0
 21
0.5
 31
0.0
 40
0.0174550649
 41
-4.7123889804
 42
-4.36332313
  0
ELLIPSE
  5
6AD
100
AcDbEntity
  8
0
100
AcDbEllipse
 62
7
  6
CONTINUOUS
 10
1.9441089869
 20
-11.6052435424
 30
0.0
 11
-0.1768305473
 21
0.1768305473
 31
0.0
 40
0.9996954599
 41
-0.7853981518
 42
0.7852458701
  0
ELLIPSE
  5
6AE
100
AcDbEntity
  8
0
100
AcDbEllipse
 62
7
  6
CONTINUOUS
 10
1.9441089869
 20
-16.1051673784
 30
0.0
 11
-0.1768305473
 21
-0.1768305473
 31
0.0
 40
0.9996954599
 41
-0.7852458701
 42
0.7853981518
  0
ELLIPSE
  5
6AF
100
AcDbEntity
  8
0
100
AcDbEllipse
 62
7
  6
CONTINUOUS
 10
-17.5559671771
 20
-16.1051673784
 30
0.0
 11
0.1768305473
 21
-0.1768305473
 31
0.0
 40
0.9996954599
 41
-0.7853981518
 42
0.7852458701
  0
ELLIPSE
  5
6B0
100
AcDbEntity
  8
0
100
AcDbEllipse
 62
7
  6
CONTINUOUS
 10
-17.5559671771
 20
-11.6052435424
 30
0.0
 11
0.1768305473
 21
0.1768305473
 31
0.0
 40
0.9996954599
 41
-0.7852458701
 42
0.7853981518
  0
ELLIPSE
  5
6B1
100
AcDbEntity
  8
0
100
AcDbEllipse
 62
7
  6
CONTINUOUS
 10
-17.5472015626
 20
2.4323878234
 30
0.0
 11
0.0
 21
0.5
 31
0.0
 40
0.0174550649
 41
1.2217304764
 42
1.5707963268
  0
ELLIPSE
  5
6B2
100
AcDbEntity
  8
0
100
AcDbEllipse
 62
7
  6
CONTINUOUS
 10
1.9353433725
 20
2.4323878234
 30
0.0
 11
0.0
 21
0.5
 31
0.0
 40
0.0174550649
 41
-1.5707963268
 42
-1.2217304764
  0
ELLIPSE
  5
6B3
100
AcDbEntity
  8
0
100
AcDbEllipse
 62
7
  6
CONTINUOUS
 10
-17.5594201081
 20
3.43295803
 30
0.0
 11
0.0
 21
0.5
 31
0.0
 40
0.0174550649
 41
-1.9198621772
 42
-1.5707963268
  0
ELLIPSE
  5
6B4
100
AcDbEntity
  8
0
100
AcDbEllipse
 62
7
  6
CONTINUOUS
 10
1.9475619179
 20
3.43295803
 30
0.0
 11
-0.0
 21
0.5
 31
0.0
 40
0.0174550649
 41
-4.7123889804
 42
-4.36332313
  0
ELLIPSE
  5
6B5
100
AcDbEntity
  8
0
100
AcDbEllipse
 62
7
  6
CONTINUOUS
 10
1.6887963034
 20
10.8895199381
 30
0.0
 11
0.1768305473
 21
0.1768305473
 31
0.0
 40
0.9996954599
 41
-0.7852458701
 42
0.7852458701
  0
ELLIPSE
  5
6B6
100
AcDbEntity
  8
0
100
AcDbEllipse
 62
7
  6
CONTINUOUS
 10
-17.3006544936
 20
10.8895199381
 30
0.0
 11
-0.1768305473
 21
0.1768305473
 31
0.0
 40
0.9996954599
 41
-0.7852458701
 42
0.7852458701
  0
ELLIPSE
  5
6B7
100
AcDbEntity
  8
RACCORDO
100
AcDbEllipse
 62
7
  6
CONTINUOUS
 10
-18.3946042297
 20
-1.6526739621
 30
0.0
 11
0.0
 21
0.4
 31
0.0
 40
1.0
 41
-3.089232776
 42
-1.5707963268
  0
ELLIPSE
  5
6B8
100
AcDbEntity
  8
RACCORDO
100
AcDbEllipse
 62
7
  6
CONTINUOUS
 10
-18.3946042297
 20
0.4422630413
 30
0.0
 11
0.0
 21
0.4
 31
0.0
 40
1.0
 41
-1.5707963268
 42
-0.0523598776
  0
ELLIPSE
  5
6B9
100
AcDbEntity
  8
RACCORDO
100
AcDbEllipse
 62
7
  6
CONTINUOUS
 10
2.7827460395
 20
-1.6526739621
 30
0.0
 11
-0.0
 21
0.4
 31
0.0
 40
1.0
 41
-4.7123889804
 42
-3.1939525311
  0
ELLIPSE
  5
6BA
100
AcDbEntity
  8
RACCORDO
100
AcDbEllipse
 62
7
  6
CONTINUOUS
 10
2.7827460395
 20
0.4422630413
 30
0.0
 11
0.4
 21
0.0
 31
0.0
 40
1.0
 41
1.6231562044
 42
3.1415926536
  0
ELLIPSE
  5
6BB
100
AcDbEntity
  8
RACCORDO
100
AcDbEllipse
 62
7
  6
CONTINUOUS
 10
-18.3946042297
 20
-28.1526739621
 30
0.0
 11
0.0
 21
0.4
 31
0.0
 40
1.0
 41
-3.089232776
 42
-1.5707963268
  0
ELLIPSE
  5
6BC
100
AcDbEntity
  8
RACCORDO
100
AcDbEllipse
 62
7
  6
CONTINUOUS
 10
-18.3946042297
 20
-26.0577369587
 30
0.0
 11
0.0
 21
0.4
 31
0.0
 40
1.0
 41
-1.5707963268
 42
-0.0523598776
  0
ELLIPSE
  5
6BD
100
AcDbEntity
  8
RACCORDO
100
AcDbEllipse
 62
7
  6
CONTINUOUS
 10
2.7827460395
 20
-28.1526739621
 30
0.0
 11
0.4
 21
0.0
 31
0.0
 40
1.0
 41
-3.1415926536
 42
-1.6231562044
  0
ELLIPSE
  5
6BE
100
AcDbEntity
  8
RACCORDO
100
AcDbEllipse
 62
7
  6
CONTINUOUS
 10
2.7827460395
 20
-26.0577369587
 30
0.0
 11
0.4
 21
0.0
 31
0.0
 40
1.0
 41
1.6231562044
 42
3.1415926536
  0
ENDSEC
  0
SECTION
  2
OBJECTS
  0
DICTIONARY
  5
C
100
AcDbDictionary
280
0
281
1
  3
ACAD_GROUP
350
D
  3
ACAD_MLINESTYLE
350
17
  3
ACAD_LAYOUT
350
1A
  3
ACAD_PLOTSETTINGS
350
19
  3
ACAD_PLOTSTYLENAME
350
E
  0
DICTIONARY
  5
D
102
{ACAD_REACTORS
330
C
102
}
100
AcDbDictionary
280
0
281
1
  0
ACDBDICTIONARYWDFLT
  5
E
102
{ACAD_REACTORS
330
C
102
}
100
AcDbDictionary
281
1
  3
Normal
350
F
100
AcDbDictionaryWithDefault
340
F
  0
DICTIONARY
  5
17
102
{ACAD_REACTORS
330
C
102
}
100
AcDbDictionary
280
0
281
1
  3
Standard
350
18
  0
DICTIONARY
  5
19
102
{ACAD_REACTORS
330
C
102
}
100
AcDbDictionary
281
1
  0
DICTIONARY
  5
1A
102
{ACAD_REACTORS
330
C
102
}
100
AcDbDictionary
281
1
  3
Model
350
6BF
  3
Layout1
350
6C0
  0
ACDBPLACEHOLDER
  5
F
102
{ACAD_REACTORS
330
E
102
}
  0
MLINESTYLE
  5
18
102
{ACAD_REACTORS
330
17
102
}
100
AcDbMlineStyle
  2
STANDARD
 70
0
  3

 62
256
 51
90.0
 52
90.0
 71
2
 49
0.5
 62
256
  6
BYLAYER
 49
-0.5
 62
256
  6
BYLAYER
  0
LAYOUT
  5
6BF
102
{ACAD_REACTORS
330
1A
102
}
100
AcDbPlotSettings
  1

  2
none_device
  4
ISO_A4_(297.00_x_210.00_MM)
  6

 40
0.0
 41
0.0
 42
0.0
 43
0.0
 44
297.0
 45
210.0
 46
0.0
 47
0.0
 48
0.0
 49
0.0
140
0.0
141
0.0
142
1.0
143
1.0
 70
1024
 72
1
 73
0
 74
0
  7

 75
0
147
1.0
148
0.0
149
0.0
100
AcDbLayout
  1
Model
 70
0
 71
0
 10
0.0
 20
0.0
 11
297.0
 21
210.0
 12
0.0
 22
0.0
 32
0.0
 14
0.0
 24
0.0
 34
0.0
 15
0.0
 25
0.0
 35
0.0
146
0.0
 13
0.0
 23
0.0
 33
0.0
 16
1.0
 26
0.0
 36
0.0
 17
0.0
 27
1.0
 37
0.0
 76
0
330
219
345
0
346
0
  0
LAYOUT
  5
6C0
102
{ACAD_REACTORS
330
1A
102
}
100
AcDbPlotSettings
  1

  2
none_device
  4
ISO_A4_(297.00_x_210.00_MM)
  6

 40
0.0
 41
0.0
 42
0.0
 43
0.0
 44
297.0
 45
210.0
 46
0.0
 47
0.0
 48
0.0
 49
0.0
140
0.0
141
0.0
142
1.0
143
1.0
 70
0
 72
1
 73
0
 74
0
  7

 75
0
147
1.0
148
0.0
149
0.0
100
AcDbLayout
  1
Layout1
 70
0
 71
1
 10
0.0
 20
0.0
 11
297.0
 21
210.0
 12
0.0
 22
0.0
 32
0.0
 14
0.0
 24
0.0
 34
0.0
 15
0.0
 25
0.0
 35
0.0
146
0.0
 13
0.0
 23
0.0
 33
0.0
 16
1.0
 26
0.0
 36
0.0
 17
0.0
 27
1.0
 37
0.0
 76
0
330
21A
345
0
346
0
  0
ENDSEC
  0
EOF
