  0
SECTION
  2
HEADER
  9
$ACADVER
  1
AC1024
  9
$DWGCODEPAGE
  3
ANSI_1252
  9
$EXTMAX
 10
297.0
 20
210.0
 30
0.0
  9
$EXTMIN
 10
0.0
 20
0.0
 30
0.0
  9
$LIMMIN
 10
0.0
 20
0.0
  9
$LIMMAX
 10
297.0
 20
210.0
  9
$VIEWCTR
 10
148.5
 20
105.0
  9
$VIEWSIZE
 40
210.0
  9
$CLAYER
  8
0
  9
$LTSCALE
 40
16.335
  9
$CELTYPE
  6
BYLAYER
  9
$DIMSCALE
 40
1.0
  9
$DIMASZ
 40
3.0
  9
$DIMEXO
 40
0.5
  9
$DIMDLI
 40
11.286
  9
$DIMEXE
 40
1.5
  9
$DIMCEN
 40
2.673
  9
$DIMLFAC
 40
1.0
  9
$DIMBLK
  1
_FILLED
  9
$DIMALT
 70
0
  9
$DIMALTF
 40
0.0393700787
  9
$DIMTXT
 40
3.0
  9
$DIMTOL
 70
1
  9
$DIMLIM
 70
0
  9
$DIMTFAC
 40
1.0
  9
$DIMTP
 40
0.01
  9
$DIMTM
 40
0.01
  9
$DIMGAP
 40
0.625
  9
$DIMDSEP
 70
44
  9
$AUNITS
 70
0
  9
$PDMODE
 70
3
  9
$PDSIZE
 40
3.0
  9
$HANDSEED
  5
35B
  9
$TILEMODE
 70
1
  9
$MEASUREMENT
 70
1
  9
$INSUNITS
 70
4
  0
ENDSEC
  0
SECTION
  2
CLASSES
  0
CLASS
  1
ACDBDICTIONARYWDFLT
  2
AcDbDictionaryWithDefault
  3
AutoCAD 2000
 90
0
 91
1
280
0
281
0
  0
CLASS
  1
ACDBPLACEHOLDER
  2
AcDbPlaceHolder
  3
AutoCAD 2000
 90
0
 91
1
280
0
281
0
  0
CLASS
  1
LAYOUT
  2
AcDbLayout
  3
AutoCAD 2000
 90
0
 91
0
280
0
281
0
  0
ENDSEC
  0
SECTION
  2
TABLES
  0
TABLE
  2
VPORT
  5
8
100
AcDbSymbolTable
 70
2
  0
VPORT
  5
1F4
100
AcDbSymbolTableRecord
100
AcDbViewportTableRecord
  2
*ACTIVE
 70
0
 10
0.0
 20
0.0
 11
1.0
 21
1.0
 12
148.5
 22
105.0
 13
0.0
 23
0.0
 14
1.0
 24
1.0
 15
0.0
 25
0.0
 16
0.0
 26
0.0
 36
1.0
 17
0.0
 27
0.0
 37
0.0
 40
210.0
 41
1.4142857143
 42
50.0
 43
0.0
 44
0.0
 50
0.0
 51
0.0
 71
0
 72
100
 73
1
 74
1
 75
0
 76
0
 77
0
 78
0
  0
ENDTAB
  0
TABLE
  2
LTYPE
  5
5
100
AcDbSymbolTable
 70
6
  0
LTYPE
  5
14
100
AcDbSymbolTableRecord
100
AcDbLinetypeTableRecord
  2
BYBLOCK
 70
0
  3

 72
65
 73
0
 40
0.0
  0
LTYPE
  5
15
100
AcDbSymbolTableRecord
100
AcDbLinetypeTableRecord
  2
BYLAYER
 70
0
  3

 72
65
 73
0
 40
0.0
  0
LTYPE
  5
16
100
AcDbSymbolTableRecord
100
AcDbLinetypeTableRecord
  2
CONTINUOUS
 70
64
  3
Solid line
 72
65
 73
0
 40
0.0
  0
LTYPE
  5
1F5
100
AcDbSymbolTableRecord
100
AcDbLinetypeTableRecord
  2
CENTER
 70
64
  3
____ _ ____ _ ____ _ ____ _ ____ _ ____ _ ____
 72
65
 73
4
 40
0.6
 49
0.375
 74
0
 49
-0.075
 74
0
 49
0.075
 74
0
 49
-0.075
 74
0
  0
LTYPE
  5
1F6
100
AcDbSymbolTableRecord
100
AcDbLinetypeTableRecord
  2
HIDDEN
 70
64
  3
- - - - - - - - - - - - - - - - - - - -
 72
65
 73
2
 40
0.2
 49
0.1
 74
0
 49
-0.1
 74
0
  0
LTYPE
  5
1F7
100
AcDbSymbolTableRecord
100
AcDbLinetypeTableRecord
  2
PHANTOM
 70
64
  3
_____ _ _ _____ _ _ _____ _ _ _____
 72
65
 73
6
 40
0.8
 49
0.45
 74
0
 49
-0.05
 74
0
 49
0.1
 74
0
 49
-0.05
 74
0
 49
0.1
 74
0
 49
-0.05
 74
0
  0
LTYPE
  5
1F8
100
AcDbSymbolTableRecord
100
AcDbLinetypeTableRecord
  2
DOT
 70
64
  3
. . . . . . . . . . . . . . . . . . . .
 72
65
 73
2
 40
0.2
 49
0.1
 74
0
 49
-0.1
 74
0
  0
LTYPE
  5
1F9
100
AcDbSymbolTableRecord
100
AcDbLinetypeTableRecord
  2
DASHED
 70
64
  3
- - - - - - - - - - - - - - - - - - - -
 72
65
 73
2
 40
0.2
 49
0.1
 74
0
 49
-0.1
 74
0
  0
ENDTAB
  0
TABLE
  2
LAYER
  5
2
100
AcDbSymbolTable
 70
36
  0
LAYER
  5
10
100
AcDbSymbolTableRecord
100
AcDbLayerTableRecord
  2
0
 70
0
 62
7
  6
CONTINUOUS
370
-3
390
F
  0
LAYER
  5
1FA
100
AcDbSymbolTableRecord
100
AcDbLayerTableRecord
  2
DEFAULT_1
 70
0
 62
7
  6
CENTER
370
-3
390
F
  0
LAYER
  5
1FB
100
AcDbSymbolTableRecord
100
AcDbLayerTableRecord
  2
DEFAULT_2
 70
0
 62
7
  6
HIDDEN
370
-3
390
F
  0
LAYER
  5
1FC
100
AcDbSymbolTableRecord
100
AcDbLayerTableRecord
  2
DEFAULT_3
 70
0
 62
7
  6
PHANTOM
370
-3
390
F
  0
LAYER
  5
1FD
100
AcDbSymbolTableRecord
100
AcDbLayerTableRecord
  2
58020382-145X26_2
 70
0
 62
7
  6
CONTINUOUS
370
-3
390
F
  0
LAYER
  5
1FE
100
AcDbSymbolTableRecord
100
AcDbLayerTableRecord
  2
7009-MICFSTQM_5
 70
0
 62
7
  6
CONTINUOUS
370
-3
390
F
  0
LAYER
  5
1FF
100
AcDbSymbolTableRecord
100
AcDbLayerTableRecord
  2
7028_LJX_RUBBER_33
 70
0
 62
7
  6
CONTINUOUS
370
-3
390
F
  0
LAYER
  5
200
100
AcDbSymbolTableRecord
100
AcDbLayerTableRecord
  2
7221-FCW-A_9
 70
0
 62
7
  6
CONTINUOUS
370
-3
390
F
  0
LAYER
  5
201
100
AcDbSymbolTableRecord
100
AcDbLayerTableRecord
  2
7221-HSQ_19
 70
0
 62
7
  6
CONTINUOUS
370
-3
390
F
  0
LAYER
  5
202
100
AcDbSymbolTableRecord
100
AcDbLayerTableRecord
  2
7221-JT-BJ_3
 70
0
 62
7
  6
CONTINUOUS
370
-3
390
F
  0
LAYER
  5
203
100
AcDbSymbolTableRecord
100
AcDbLayerTableRecord
  2
7221-LABA-PM1_1
 70
0
 62
7
  6
CONTINUOUS
370
-3
390
F
  0
LAYER
  5
204
100
AcDbSymbolTableRecord
100
AcDbLayerTableRecord
  2
7221-LABA-PM_3
 70
0
 62
7
  6
CONTINUOUS
370
-3
390
F
  0
LAYER
  5
205
100
AcDbSymbolTableRecord
100
AcDbLayerTableRecord
  2
7221-MB-BJ_25
 70
0
 62
7
  6
CONTINUOUS
370
-3
390
F
  0
LAYER
  5
206
100
AcDbSymbolTableRecord
100
AcDbLayerTableRecord
  2
7221-TOP-ALL_ASM_105
 70
0
 62
7
  6
CONTINUOUS
370
-3
390
F
  0
LAYER
  5
207
100
AcDbSymbolTableRecord
100
AcDbLayerTableRecord
  2
7221-TOP-ZJ_ASM_12
 70
0
 62
7
  6
CONTINUOUS
370
-3
390
F
  0
LAYER
  5
208
100
AcDbSymbolTableRecord
100
AcDbLayerTableRecord
  2
9903_MIC_2
 70
0
 62
7
  6
CONTINUOUS
370
-3
390
F
  0
LAYER
  5
209
100
AcDbSymbolTableRecord
100
AcDbLayerTableRecord
  2
ASSI
 70
0
 62
7
  6
CONTINUOUS
370
-3
390
F
  0
LAYER
  5
20A
100
AcDbSymbolTableRecord
100
AcDbLayerTableRecord
  2
COORDINATE
 70
0
 62
7
  6
CONTINUOUS
370
-3
390
F
  0
LAYER
  5
20B
100
AcDbSymbolTableRecord
100
AcDbLayerTableRecord
  2
COPY_PUBLISH
 70
0
 62
7
  6
CONTINUOUS
370
-3
390
F
  0
LAYER
  5
20C
100
AcDbSymbolTableRecord
100
AcDbLayerTableRecord
  2
COSMETICI
 70
0
 62
7
  6
CONTINUOUS
370
-3
390
F
  0
LAYER
  5
20D
100
AcDbSymbolTableRecord
100
AcDbLayerTableRecord
  2
CURVE
 70
0
 62
7
  6
CONTINUOUS
370
-3
390
F
  0
LAYER
  5
20E
100
AcDbSymbolTableRecord
100
AcDbLayerTableRecord
  2
DRAFT
 70
0
 62
7
  6
CONTINUOUS
370
-3
390
F
  0
LAYER
  5
20F
100
AcDbSymbolTableRecord
100
AcDbLayerTableRecord
  2
IMPORT_IGES
 70
0
 62
7
  6
CONTINUOUS
370
-3
390
F
  0
LAYER
  5
210
100
AcDbSymbolTableRecord
100
AcDbLayerTableRecord
  2
JD_TP_3
 70
0
 62
7
  6
CONTINUOUS
370
-3
390
F
  0
LAYER
  5
211
100
AcDbSymbolTableRecord
100
AcDbLayerTableRecord
  2
M4-LUMU_3
 70
0
 62
7
  6
CONTINUOUS
370
-3
390
F
  0
LAYER
  5
212
100
AcDbSymbolTableRecord
100
AcDbLayerTableRecord
  2
NOTE
 70
0
 62
7
  6
CONTINUOUS
370
-3
390
F
  0
LAYER
  5
213
100
AcDbSymbolTableRecord
100
AcDbLayerTableRecord
  2
PB25X5_5
 70
0
 62
7
  6
CONTINUOUS
370
-3
390
F
  0
LAYER
  5
214
100
AcDbSymbolTableRecord
100
AcDbLayerTableRecord
  2
PB25X5_5_1
 70
0
 62
7
  6
CONTINUOUS
370
-3
390
F
  0
LAYER
  5
215
100
AcDbSymbolTableRecord
100
AcDbLayerTableRecord
  2
PB25X5_5_2
 70
0
 62
7
  6
CONTINUOUS
370
-3
390
F
  0
LAYER
  5
216
100
AcDbSymbolTableRecord
100
AcDbLayerTableRecord
  2
PB25X5_5_3
 70
0
 62
7
  6
CONTINUOUS
370
-3
390
F
  0
LAYER
  5
217
100
AcDbSymbolTableRecord
100
AcDbLayerTableRecord
  2
PB25X8_4
 70
0
 62
7
  6
CONTINUOUS
370
-3
390
F
  0
LAYER
  5
218
100
AcDbSymbolTableRecord
100
AcDbLayerTableRecord
  2
PIANI
 70
0
 62
7
  6
CONTINUOUS
370
-3
390
F
  0
LAYER
  5
219
100
AcDbSymbolTableRecord
100
AcDbLayerTableRecord
  2
PM4X14_3
 70
0
 62
7
  6
CONTINUOUS
370
-3
390
F
  0
LAYER
  5
21A
100
AcDbSymbolTableRecord
100
AcDbLayerTableRecord
  2
PUNTI
 70
0
 62
7
  6
CONTINUOUS
370
-3
390
F
  0
LAYER
  5
21B
100
AcDbSymbolTableRecord
100
AcDbLayerTableRecord
  2
RACCORDO
 70
0
 62
7
  6
CONTINUOUS
370
-3
390
F
  0
LAYER
  5
21C
100
AcDbSymbolTableRecord
100
AcDbLayerTableRecord
  2
SCHEDA_P40980_P
 70
0
 62
7
  6
CONTINUOUS
370
-3
390
F
  0
LAYER
  5
21D
100
AcDbSymbolTableRecord
100
AcDbLayerTableRecord
  2
SCREW-PB2-5_4_3
 70
0
 62
7
  6
CONTINUOUS
370
-3
390
F
  0
LAYER
  5
21E
100
AcDbSymbolTableRecord
100
AcDbLayerTableRecord
  2
SIMBOLI
 70
0
 62
7
  6
CONTINUOUS
370
-3
390
F
  0
LAYER
  5
21F
100
AcDbSymbolTableRecord
100
AcDbLayerTableRecord
  2
SMUSSO
 70
0
 62
7
  6
CONTINUOUS
370
-3
390
F
  0
LAYER
  5
220
100
AcDbSymbolTableRecord
100
AcDbLayerTableRecord
  2
SUPERFICI
 70
0
 62
7
  6
CONTINUOUS
370
-3
390
F
  0
LAYER
  5
221
100
AcDbSymbolTableRecord
100
AcDbLayerTableRecord
  2
TRASH
 70
0
 62
7
  6
CONTINUOUS
370
-3
390
F
  0
LAYER
  5
222
100
AcDbSymbolTableRecord
100
AcDbLayerTableRecord
  2
___SHELL
 70
0
 62
7
  6
CONTINUOUS
370
-3
390
F
  0
ENDTAB
  0
TABLE
  2
STYLE
  5
3
100
AcDbSymbolTable
 70
1
  0
STYLE
  5
11
100
AcDbSymbolTableRecord
100
AcDbTextStyleTableRecord
  2
STANDARD
 70
0
 40
0.0
 41
0.8
 50
0.0
 71
0
 42
0.2
  3
txt
  4

  0
STYLE
  5
223
100
AcDbSymbolTableRecord
100
AcDbTextStyleTableRecord
  2
TEXTSTYLE_1
 70
0
 40
0.0
 41
0.8
 50
0.0
 71
0
 42
0.2
  3
gdt
  4

  0
ENDTAB
  0
TABLE
  2
VIEW
  5
6
100
AcDbSymbolTable
 70
0
  0
ENDTAB
  0
TABLE
  2
UCS
  5
7
100
AcDbSymbolTable
 70
0
  0
ENDTAB
  0
TABLE
  2
APPID
  5
9
100
AcDbSymbolTable
 70
1
  0
APPID
  5
224
100
AcDbSymbolTableRecord
100
AcDbRegAppTableRecord
  2
ACAD
 70
0
  0
ENDTAB
  0
TABLE
  2
BLOCK_RECORD
  5
1
100
AcDbSymbolTable
 70
0
  0
BLOCK_RECORD
  5
225
100
AcDbSymbolTableRecord
100
AcDbBlockTableRecord
  2
*Model_Space
  0
BLOCK_RECORD
  5
226
100
AcDbSymbolTableRecord
100
AcDbBlockTableRecord
  2
*Paper_Space
  0
BLOCK_RECORD
  5
227
100
AcDbSymbolTableRecord
100
AcDbBlockTableRecord
  2
_FILLED
  0
ENDTAB
  0
TABLE
  2
DIMSTYLE
  5
A
100
AcDbSymbolTable
 70
1
100
AcDbDimStyleTable
 71
0
  0
DIMSTYLE
105
228
100
AcDbSymbolTableRecord
100
AcDbDimStyleTableRecord
  2
STANDARD
 70
0
  3

  4

 40
1.0
 41
3.0
 42
0.5
 43
0.38
 44
1.5
 45
0.0
 46
0.0
 47
0.01
 48
0.01
140
3.0
141
0.09
142
0.0
143
25.4
144
1.0
145
0.0
146
1.0
147
0.625
 71
1
 72
0
 73
0
 74
0
 75
0
 76
0
 77
1
 78
8
 79
2
170
0
171
1
172
0
173
0
174
0
175
0
176
0
177
0
178
0
270
2
179
2
271
2
272
2
273
2
274
2
275
0
280
0
281
0
282
0
283
1
284
8
285
0
286
0
287
3
288
0
340
11
278
44
341
227
342
227
343
227
344
227
  0
ENDTAB
  0
ENDSEC
  0
SECTION
  2
BLOCKS
  0
BLOCK
  5
20
100
AcDbEntity
  8
0
100
AcDbBlockBegin
  2
*Model_Space
 70
0
 10
0.0
 20
0.0
 30
0.0
  3
*Model_Space
  1

  0
ENDBLK
  5
21
100
AcDbEntity
  8
0
100
AcDbBlockEnd
  0
BLOCK
  5
1C
100
AcDbEntity
  8
0
100
AcDbBlockBegin
  2
*Paper_Space
 70
0
 10
0.0
 20
0.0
 30
0.0
  3
*Paper_Space
  1

  0
ENDBLK
  5
1D
100
AcDbEntity
  8
0
100
AcDbBlockEnd
  0
BLOCK
  5
229
100
AcDbEntity
  8
0
100
AcDbBlockBegin
  2
_FILLED
 70
64
 10
0.0
 20
0.0
  3
_FILLED
  1

  0
SOLID
  5
22A
100
AcDbEntity
  8
0
  6
BYBLOCK
 62
0
100
AcDbTrace
 10
0.0
 20
0.0
 11
-1.0
 21
0.3166666667
 12
-1.0
 22
-0.3166666667
 13
-1.0
 23
-0.3166666667
  0
ENDBLK
  5
22B
100
AcDbEntity
  8
0
  6
BYBLOCK
 62
0
100
AcDbBlockEnd
  0
ENDSEC
  0
SECTION
  2
ENTITIES
  0
LINE
  5
22C
100
AcDbEntity
  8
0
100
AcDbLine
 62
250
  6
CONTINUOUS
 10
-51.3968056928
 20
89.6863786334
 11
-50.1560944804
 21
90.6462698426
  0
LWPOLYLINE
  5
22D
100
AcDbEntity
  8
0
100
AcDbPolyline
 62
250
  6
CONTINUOUS
 90
10
 70
0
 10
-15.4609039221
 20
-99.1909749508
 10
-15.4103951361
 20
-99.1865482132
 10
-15.3610366294
 20
-99.1735662333
 10
-15.3142989694
 20
-99.1522518936
 10
-15.2716688466
 20
-99.1231258982
 10
-15.2344391826
 20
-99.0868973592
 10
-15.2037402928
 20
-99.0443724641
 10
-15.180700639
 20
-98.9966383822
 10
-15.1663204096
 20
-98.9451199339
 10
-15.1613150612
 20
-98.8913859146
  0
LWPOLYLINE
  5
22E
100
AcDbEntity
  8
0
100
AcDbPolyline
 62
250
  6
CONTINUOUS
 90
22
 70
0
 10
42.8728561554
 20
-99.021075375
 10
43.3959988776
 20
-99.0014274917
 10
43.9160189872
 20
-98.9427794479
 10
44.430024205
 20
-98.8454854953
 10
44.9351461621
 20
-98.7101237481
 10
45.4285916689
 20
-98.5374670219
 10
45.9076541812
 20
-98.3284664915
 10
46.3696762316
 20
-98.0842933642
 10
46.8120868614
 20
-97.8063241618
 10
47.2324446314
 20
-97.4960930667
 10
47.628411247
 20
-97.1553281405
 10
47.9977844441
 20
-96.7859340596
 10
48.338522468
 20
-96.3899538555
 10
48.6487220051
 20
-95.9695909596
 10
48.9266566477
 20
-95.5271844376
 10
49.1707940734
 20
-95.0651760578
 10
49.3797595883
 20
-94.5861368466
 10
49.5523835912
 20
-94.092724669
 10
49.6877165792
 20
-93.5876465396
 10
49.7849876346
 20
-93.0736955026
 10
49.8436205941
 20
-92.553739115
 10
49.8632630403
 20
-92.0306687701
  0
LWPOLYLINE
  5
22F
100
AcDbEntity
  8
0
100
AcDbPolyline
 62
250
  6
CONTINUOUS
 90
12
 70
0
 10
14.6475938531
 20
-99.2204690929
 10
14.7222084313
 20
-99.219709965
 10
14.7929616389
 20
-99.2184965479
 10
14.8607145888
 20
-99.2167957082
 10
14.9246061681
 20
-99.2146405793
 10
14.982053038
 20
-99.2121305615
 10
15.0328661004
 20
-99.2092563119
 10
15.0772344533
 20
-99.2060271733
 10
15.1131420524
 20
-99.2025705748
 10
15.1399168827
 20
-99.1989289927
 10
15.1582309591
 20
-99.1950599508
 10
15.1680842815
 20
-99.1909634489
  0
LINE
  5
230
100
AcDbEntity
  8
0
100
AcDbLine
 62
7
  6
CONTINUOUS
 10
43.5337431694
 20
-99.681962388
 11
-43.8265743115
 21
-99.6819623894
  0
LINE
  5
231
100
AcDbEntity
  8
0
100
AcDbLine
 62
250
  6
CONTINUOUS
 10
14.6475938531
 20
-99.2204690929
 11
-14.8619433671
 21
-99.2207739317
  0
LINE
  5
232
100
AcDbEntity
  8
0
100
AcDbLine
 62
250
  6
CONTINUOUS
 10
-43.1656877296
 20
-99.0210758045
 11
-15.6308030648
 21
-99.0210758082
  0
LINE
  5
233
100
AcDbEntity
  8
0
100
AcDbLine
 62
250
  6
CONTINUOUS
 10
42.8728565877
 20
-99.0210758082
 11
15.3379719223
 21
-99.0210758081
  0
LINE
  5
234
100
AcDbEntity
  8
0
100
AcDbLine
 62
250
  6
CONTINUOUS
 10
-14.8617262013
 20
-98.921185081
 11
14.5688950592
 21
-98.9211850713
  0
LINE
  5
235
100
AcDbEntity
  8
0
100
AcDbLine
 62
250
  6
CONTINUOUS
 10
-43.1645955434
 20
-98.5217610408
 11
-15.341147184
 21
-98.5217610408
  0
LINE
  5
236
100
AcDbEntity
  8
0
100
AcDbLine
 62
250
  6
CONTINUOUS
 10
15.0483160554
 20
-98.521761019
 11
42.8712251152
 21
-98.5217610408
  0
LINE
  5
237
100
AcDbEntity
  8
0
100
AcDbLine
 62
7
  6
CONTINUOUS
 10
-14.8617262013
 20
-97.2031297493
 11
14.5688950587
 21
-97.2031297493
  0
LINE
  5
238
100
AcDbEntity
  8
0
100
AcDbLine
 62
7
  6
CONTINUOUS
 10
14.9583999873
 20
-96.7613969017
 11
-15.2512311299
 21
-96.7613969017
  0
LWPOLYLINE
  5
239
100
AcDbEntity
  8
0
100
AcDbPolyline
 62
250
  6
CONTINUOUS
 90
10
 70
0
 10
-14.8617262013
 20
-98.921185081
 10
-14.9148106865
 20
-98.9205398694
 10
-14.9658520224
 20
-98.9191036023
 10
-15.0133167911
 20
-98.9168762798
 10
-15.0561379247
 20
-98.9136917702
 10
-15.0927516808
 20
-98.9097162052
 10
-15.1216083833
 20
-98.9054479799
 10
-15.1423956979
 20
-98.9010532261
 10
-15.1555037827
 20
-98.8963658121
 10
-15.1613150615
 20
-98.8913857378
  0
LWPOLYLINE
  5
23A
100
AcDbEntity
  8
0
100
AcDbPolyline
 62
7
  6
CONTINUOUS
 90
22
 70
0
 10
-43.8265738372
 20
-99.6819619136
 10
-44.3497791046
 20
-99.6623519563
 10
-44.8698520274
 20
-99.6037356266
 10
-45.3839001861
 20
-99.5064684966
 10
-45.8890544044
 20
-99.3711304305
 10
-46.3825226498
 20
-99.1984952376
 10
-46.8616012394
 20
-98.9895135789
 10
-47.3236333342
 20
-98.7453569046
 10
-47.7660479872
 20
-98.467402456
 10
-48.1864053736
 20
-98.1571835632
 10
-48.5823674927
 20
-97.8164281961
 10
-48.9517322845
 20
-97.4470412261
 10
-49.2924590806
 20
-97.051064678
 10
-49.6026444553
 20
-96.6307018556
 10
-49.8805621979
 20
-96.1882915753
 10
-50.1246809606
 20
-95.7262740004
 10
-50.3336254452
 20
-95.2472201375
 10
-50.5062258988
 20
-94.7537872575
 10
-50.6415334294
 20
-94.2486795648
 10
-50.7387762443
 20
-93.7346889457
 10
-50.7973765558
 20
-93.2146837079
 10
-50.816980743
 20
-92.69155533
  0
LWPOLYLINE
  5
23B
100
AcDbEntity
  8
0
100
AcDbPolyline
 62
250
  6
CONTINUOUS
 90
10
 70
0
 10
15.3379719222
 20
-99.0210758082
 10
15.2874631343
 20
-99.0166490702
 10
15.2381046264
 20
-99.0036670895
 10
15.1913669659
 20
-98.982352749
 10
15.1487368482
 20
-98.9532267568
 10
15.1115071882
 20
-98.916998223
 10
15.0808082916
 20
-98.8744733193
 10
15.0577686258
 20
-98.8267392046
 10
15.0433883933
 20
-98.7752207027
 10
15.0383830609
 20
-98.7214866118
  0
LWPOLYLINE
  5
23C
100
AcDbEntity
  8
0
100
AcDbPolyline
 62
250
  6
CONTINUOUS
 90
13
 70
0
 10
-15.4609157486
 20
-99.1909631244
 10
-15.4510605908
 20
-99.1950597268
 10
-15.4327451378
 20
-99.1989288368
 10
-15.4059693897
 20
-99.2025704545
 10
-15.3700614218
 20
-99.2060270419
 10
-15.3256931587
 20
-99.2092561369
 10
-15.2748803749
 20
-99.2121303534
 10
-15.2174341399
 20
-99.2146403591
 10
-15.1535433841
 20
-99.2167954863
 10
-15.0857906724
 20
-99.218496346
 10
-15.0150368598
 20
-99.2197098087
 10
-14.9404210914
 20
-99.2204690039
 10
-14.8619433671
 20
-99.2207739317
  0
LINE
  5
23D
100
AcDbEntity
  8
0
100
AcDbLine
 62
250
  6
CONTINUOUS
 10
-43.1508997621
 20
97.6554541244
 11
-42.2806301369
 21
98.9758000931
  0
LWPOLYLINE
  5
23E
100
AcDbEntity
  8
0
100
AcDbPolyline
 62
250
  6
CONTINUOUS
 90
13
 70
0
 10
-15.0414825758
 20
-93.6288261876
 10
-15.1228299079
 20
-93.6350467944
 10
-15.199894163
 20
-93.6504735871
 10
-15.2726753412
 20
-93.6751065655
 10
-15.3420979045
 20
-93.7096622935
 10
-15.4072373907
 20
-93.7534242074
 10
-15.4653204142
 20
-93.8042426154
 10
-15.5161391797
 20
-93.8623259067
 10
-15.5599014824
 20
-93.9274656922
 10
-15.5944573217
 20
-93.9968871135
 10
-15.6190900307
 20
-94.0696652178
 10
-15.6345162763
 20
-94.1467249579
 10
-15.6407360584
 20
-94.2280663338
  0
LWPOLYLINE
  5
23F
100
AcDbEntity
  8
0
100
AcDbPolyline
 62
250
  6
CONTINUOUS
 90
4
 70
0
 10
-4.0419578712
 20
-94.0453464861
 10
-3.013061939
 20
-94.0443759839
 10
2.7202307967
 20
-94.0443759839
 10
3.8728875048
 20
-94.0454632229
  0
LINE
  5
240
100
AcDbEntity
  8
0
100
AcDbLine
 62
250
  6
CONTINUOUS
 10
38.9535844417
 20
-94.923661144
 11
37.9535844151
 21
-94.9236611439
  0
LINE
  5
241
100
AcDbEntity
  8
0
100
AcDbLine
 62
7
  6
CONTINUOUS
 10
-15.2512311299
 20
-94.7601778131
 11
14.9583999873
 21
-94.7601778131
  0
LINE
  5
242
100
AcDbEntity
  8
0
100
AcDbLine
 62
250
  6
CONTINUOUS
 10
37.9535844319
 20
-94.623706837
 11
38.9535844322
 21
-94.623706837
  0
LINE
  5
243
100
AcDbEntity
  8
0
100
AcDbLine
 62
250
  6
CONTINUOUS
 10
38.9535844218
 20
-94.6165420313
 11
37.953584435
 21
-94.6165420313
  0
LINE
  5
244
100
AcDbEntity
  8
0
100
AcDbLine
 62
250
  6
CONTINUOUS
 10
37.9535844312
 20
-94.3165877228
 11
38.9535844284
 21
-94.3165877228
  0
LINE
  5
245
100
AcDbEntity
  8
0
100
AcDbLine
 62
250
  6
CONTINUOUS
 10
15.3479049158
 20
-94.2280039085
 11
15.0483160554
 21
-94.2280039085
  0
LINE
  5
246
100
AcDbEntity
  8
0
100
AcDbLine
 62
250
  6
CONTINUOUS
 10
-15.341147184
 20
-94.2280039064
 11
-15.6407360585
 21
-94.2280039064
  0
LINE
  5
247
100
AcDbEntity
  8
0
100
AcDbLine
 62
7
  6
CONTINUOUS
 10
-15.1688746821
 20
-94.1113969017
 11
-4.0418955694
 21
-94.1113969017
  0
LINE
  5
248
100
AcDbEntity
  8
0
100
AcDbLine
 62
7
  6
CONTINUOUS
 10
3.8992046835
 20
-94.1113969017
 11
14.8758967043
 21
-94.1113969017
  0
LINE
  5
249
100
AcDbEntity
  8
0
100
AcDbLine
 62
7
  6
CONTINUOUS
 10
-15.0377583706
 20
-94.0311176139
 11
-4.1222389222
 21
-94.0311130347
  0
LINE
  5
24A
100
AcDbEntity
  8
0
100
AcDbLine
 62
7
  6
CONTINUOUS
 10
4.0598402232
 20
-94.031103603
 11
14.7448440309
 21
-94.0311040559
  0
LINE
  5
24B
100
AcDbEntity
  8
0
100
AcDbLine
 62
7
  6
CONTINUOUS
 10
14.6588111268
 20
-94.0183311162
 11
-14.9516422694
 21
-94.0183311162
  0
LINE
  5
24C
100
AcDbEntity
  8
0
100
AcDbLine
 62
250
  6
CONTINUOUS
 10
14.748727181
 20
-93.9284150762
 11
-15.0415583381
 21
-93.9284150481
  0
LINE
  5
24D
100
AcDbEntity
  8
0
100
AcDbLine
 62
250
  6
CONTINUOUS
 10
-15.0414825758
 20
-93.6288261876
 11
14.7486650648
 21
-93.6288261876
  0
LINE
  5
24E
100
AcDbEntity
  8
0
100
AcDbLine
 62
250
  6
CONTINUOUS
 10
-50.1560944778
 20
-92.0306690649
 11
-49.6567797104
 21
-92.0306690649
  0
LINE
  5
24F
100
AcDbEntity
  8
0
100
AcDbLine
 62
250
  6
CONTINUOUS
 10
49.3639485678
 20
-92.0306690962
 11
49.8632633352
 21
-92.0306690962
  0
LINE
  5
250
100
AcDbEntity
  8
0
100
AcDbLine
 62
7
  6
CONTINUOUS
 10
37.9535844284
 20
-90.1724896289
 11
38.953584429
 21
-90.1724896289
  0
LINE
  5
251
100
AcDbEntity
  8
0
100
AcDbLine
 62
7
  6
CONTINUOUS
 10
37.9535844287
 20
-90.1113969017
 11
38.9535844287
 21
-90.1113969017
  0
LWPOLYLINE
  5
252
100
AcDbEntity
  8
0
100
AcDbPolyline
 62
7
  6
CONTINUOUS
 90
18
 70
0
 10
-0.1464155406
 20
-94.3882736099
 10
-0.4211946568
 20
-94.387788939
 10
-0.6887580586
 20
-94.3864453083
 10
-0.9491057457
 20
-94.3842427177
 10
-1.2044484946
 20
-94.3811461221
 10
-1.4525755289
 20
-94.3771905666
 10
-1.68685452
 20
-94.3724811875
 10
-1.9069168807
 20
-94.3669975516
 10
-2.1131311982
 20
-94.360760092
 10
-2.2999709058
 20
-94.3539352448
 10
-2.466915923
 20
-94.3465069774
 10
-2.6144863303
 20
-94.3384913223
 10
-2.7387158018
 20
-94.3301028131
 10
-2.8389718429
 20
-94.3213312401
 10
-2.9158869482
 20
-94.3121868129
 10
-2.9673922756
 20
-94.3029146947
 10
-2.9927975985
 20
-94.2935114264
 10
-2.9959714787
 20
-94.288747425
  0
LWPOLYLINE
  5
253
100
AcDbEntity
  8
0
100
AcDbPolyline
 62
7
  6
CONTINUOUS
 90
18
 70
0
 10
-0.1464155406
 20
-94.18922124
 10
0.1283635484
 20
-94.189705911
 10
0.3959269296
 20
-94.1910495417
 10
0.6562746031
 20
-94.1932521322
 10
0.9116173473
 20
-94.1963487279
 10
1.1597443838
 20
-94.2003042833
 10
1.3940233772
 20
-94.2050136624
 10
1.6140857378
 20
-94.2104972984
 10
1.8203000553
 20
-94.2167347579
 10
2.0071397628
 20
-94.2235596052
 10
2.1740847801
 20
-94.2309878726
 10
2.3216551874
 20
-94.2390035276
 10
2.4458846589
 20
-94.2473920368
 10
2.5461407001
 20
-94.2561636098
 10
2.6230558055
 20
-94.265308037
 10
2.6745611329
 20
-94.2745801552
 10
2.6999664558
 20
-94.2839834235
 10
2.7031403361
 20
-94.2887474249
  0
LWPOLYLINE
  5
254
100
AcDbEntity
  8
0
100
AcDbPolyline
 62
250
  6
CONTINUOUS
 90
13
 70
0
 10
14.7487271739
 20
-93.9284150762
 10
14.7893837789
 20
-93.93105902
 10
14.8290866283
 20
-93.9391262538
 10
14.8671329255
 20
-93.9523960703
 10
14.9029796895
 20
-93.9706280849
 10
14.9358891243
 20
-93.9933930722
 10
14.965039177
 20
-94.0199361304
 10
14.9898727311
 20
-94.0493530962
 10
15.0104224498
 20
-94.0812307042
 10
15.0267874299
 20
-94.1155264206
 10
15.038741684
 20
-94.1519046443
 10
15.0459645647
 20
-94.1895995829
 10
15.0483160554
 20
-94.2280039085
  0
LINE
  5
255
100
AcDbEntity
  8
0
100
AcDbLine
 62
250
  6
CONTINUOUS
 10
-41.3075082986
 20
-88.1113969017
 11
-41.2464155713
 21
-88.1113969017
  0
LINE
  5
256
100
AcDbEntity
  8
0
100
AcDbLine
 62
250
  6
CONTINUOUS
 10
-36.2464155713
 20
-88.1113969017
 11
-36.1853228441
 21
-88.1113969017
  0
LINE
  5
257
100
AcDbEntity
  8
0
100
AcDbLine
 62
250
  6
CONTINUOUS
 10
-32.0412247502
 20
-88.1113969017
 11
-31.4341513274
 21
-88.1113969017
  0
LINE
  5
258
100
AcDbEntity
  8
0
100
AcDbLine
 62
250
  6
CONTINUOUS
 10
-45.4516063924
 20
-88.1113969017
 11
-46.0586798152
 21
-88.1113969017
  0
LINE
  5
259
100
AcDbEntity
  8
0
100
AcDbLine
 62
250
  6
CONTINUOUS
 10
-36.1853228441
 20
-87.1113969017
 11
-36.2464155713
 21
-87.1113969017
  0
LINE
  5
25A
100
AcDbEntity
  8
0
100
AcDbLine
 62
250
  6
CONTINUOUS
 10
-41.2464155713
 20
-87.1113969017
 11
-41.3075082986
 21
-87.1113969017
  0
LINE
  5
25B
100
AcDbEntity
  8
0
100
AcDbLine
 62
250
  6
CONTINUOUS
 10
-45.4516063924
 20
-87.1113969017
 11
-46.0586798152
 21
-87.1113969017
  0
LINE
  5
25C
100
AcDbEntity
  8
0
100
AcDbLine
 62
250
  6
CONTINUOUS
 10
-32.0412247502
 20
-87.1113969017
 11
-31.4341513274
 21
-87.1113969017
  0
LINE
  5
25D
100
AcDbEntity
  8
0
100
AcDbLine
 62
7
  6
CONTINUOUS
 10
38.9535844287
 20
-85.1113969017
 11
37.9535844287
 21
-85.1113969017
  0
LINE
  5
25E
100
AcDbEntity
  8
0
100
AcDbLine
 62
7
  6
CONTINUOUS
 10
38.953584429
 20
-85.0503041745
 11
37.9535844284
 21
-85.0503041745
  0
LINE
  5
25F
100
AcDbEntity
  8
0
100
AcDbLine
 62
250
  6
CONTINUOUS
 10
38.9535844262
 20
-80.9062060806
 11
37.9535844289
 21
-80.9062060806
  0
LINE
  5
260
100
AcDbEntity
  8
0
100
AcDbLine
 62
250
  6
CONTINUOUS
 10
37.9535844355
 20
-80.6062517721
 11
38.9535844223
 21
-80.6062517721
  0
LINE
  5
261
100
AcDbEntity
  8
0
100
AcDbLine
 62
250
  6
CONTINUOUS
 10
38.9535844255
 20
-80.5990869664
 11
37.9535844252
 21
-80.5990869664
  0
LINE
  5
262
100
AcDbEntity
  8
0
100
AcDbLine
 62
250
  6
CONTINUOUS
 10
37.9535844157
 20
-80.2991326594
 11
38.9535844423
 21
-80.2991326595
  0
LINE
  5
263
100
AcDbEntity
  8
0
100
AcDbLine
 62
250
  6
CONTINUOUS
 10
-15.6308030648
 20
-99.0210758082
 11
-15.4609157486
 21
-99.1909631244
  0
LINE
  5
264
100
AcDbEntity
  8
0
100
AcDbLine
 62
250
  6
CONTINUOUS
 10
-15.1613150612
 20
-98.8913857383
 11
-15.3312116673
 21
-98.7214894849
  0
LINE
  5
265
100
AcDbEntity
  8
0
100
AcDbLine
 62
7
  6
CONTINUOUS
 10
-15.1613150617
 20
-97.1882302589
 11
-15.2263986459
 21
-97.1231466747
  0
LINE
  5
266
100
AcDbEntity
  8
0
100
AcDbLine
 62
250
  6
CONTINUOUS
 10
-15.3411471699
 20
-94.2280039224
 11
-15.2512311299
 21
-94.3179199766
  0
LINE
  5
267
100
AcDbEntity
  8
0
100
AcDbLine
 62
250
  6
CONTINUOUS
 10
-14.9516422694
 20
-94.0183311162
 11
-15.0415583381
 21
-93.9284150481
  0
LINE
  5
268
100
AcDbEntity
  8
0
100
AcDbLine
 62
7
  6
CONTINUOUS
 10
-4.0418955694
 20
-94.1113969017
 11
-4.122178818
 21
-94.0290236815
  0
LWPOLYLINE
  5
269
100
AcDbEntity
  8
0
100
AcDbPolyline
 62
250
  6
CONTINUOUS
 90
22
 70
0
 10
-50.1560940455
 20
-92.0306686325
 10
-50.1364461621
 20
-92.5538113502
 10
-50.0777981185
 20
-93.0738314575
 10
-49.980504166
 20
-93.5878366752
 10
-49.8451424177
 20
-94.0929586359
 10
-49.6724856891
 20
-94.5864041481
 10
-49.4634851568
 20
-95.0654666627
 10
-49.2193120299
 20
-95.5274887105
 10
-48.9413428299
 20
-95.9698993354
 10
-48.6311117385
 20
-96.3902571004
 10
-48.2903468171
 20
-96.786223711
 10
-47.9209527422
 20
-97.1555969035
 10
-47.5249725436
 20
-97.4963349247
 10
-47.1046096517
 20
-97.8065344614
 10
-46.6622031323
 20
-98.0844691049
 10
-46.2001947536
 20
-98.3286065326
 10
-45.7211555417
 20
-98.5375720503
 10
-45.2277433615
 20
-98.7101960562
 10
-44.722665228
 20
-98.8455290472
 10
-44.2087141852
 20
-98.9428001051
 10
-43.6887577905
 20
-99.0014330663
 10
-43.1656874368
 20
-99.0210755132
  0
LWPOLYLINE
  5
26A
100
AcDbEntity
  8
0
100
AcDbPolyline
 62
7
  6
CONTINUOUS
 90
10
 70
0
 10
-51.3962691773
 20
90.478313374
 10
-51.3898293856
 20
90.602948883
 10
-51.3818080696
 20
90.7246312646
 10
-51.3723344292
 20
90.8433372647
 10
-51.3617223666
 20
90.9572058479
 10
-51.3499592095
 20
91.0680618764
 10
-51.3364511258
 20
91.1814139607
 10
-51.3208225087
 20
91.2990844883
 10
-51.3031705277
 20
91.4192113044
 10
-51.283377706
 20
91.5417701051
  0
LWPOLYLINE
  5
26B
100
AcDbEntity
  8
0
100
AcDbPolyline
 62
7
  6
CONTINUOUS
 90
10
 70
0
 10
-51.3968019193
 20
89.686381552
 10
-51.4002626037
 20
89.7760986505
 10
-51.4028112489
 20
89.8654091625
 10
-51.4044609689
 20
89.9543048269
 10
-51.4052233201
 20
90.0427859958
 10
-51.4051128405
 20
90.1308365297
 10
-51.4041478101
 20
90.218423969
 10
-51.4023438241
 20
90.3055329286
 10
-51.3997130251
 20
90.3921649213
 10
-51.3962691773
 20
90.478313374
  0
LWPOLYLINE
  5
26C
100
AcDbEntity
  8
0
100
AcDbPolyline
 62
7
  6
CONTINUOUS
 90
9
 70
0
 10
-51.3079870096
 20
87.3193627483
 10
-51.3178414823
 20
87.6314921612
 10
-51.3280579307
 20
87.9391242503
 10
-51.3386420001
 20
88.2424106581
 10
-51.3495880452
 20
88.5411997422
 10
-51.3608791306
 20
88.8350365745
 10
-51.3725096111
 20
89.1237695125
 10
-51.3844851318
 20
89.4075501988
 10
-51.3968056928
 20
89.6863786334
  0
LINE
  5
26D
100
AcDbEntity
  8
0
100
AcDbLine
 62
7
  6
CONTINUOUS
 10
-51.2672763648
 20
85.8781297545
 11
-51.3079870096
 21
87.3193627483
  0
LWPOLYLINE
  5
26E
100
AcDbEntity
  8
0
100
AcDbPolyline
 62
7
  6
CONTINUOUS
 90
13
 70
0
 10
-50.8169796719
 20
49.738603099
 10
-50.8202069867
 20
52.8697314874
 10
-50.8297526203
 20
55.9867246305
 10
-50.8456165726
 20
59.0895825283
 10
-50.867842105
 20
62.1829774006
 10
-50.8963859562
 20
65.2622370276
 10
-50.9311183424
 20
68.3133447499
 10
-50.9720677049
 20
71.3361704962
 10
-51.0192056024
 20
74.3308443378
 10
-51.0723169278
 20
77.283739829
 10
-51.1313299789
 20
80.1903148212
 10
-51.1963164578
 20
83.055111463
 10
-51.2672763648
 20
85.8781297545
  0
LINE
  5
26F
100
AcDbEntity
  8
0
100
AcDbLine
 62
7
  6
CONTINUOUS
 10
-50.8169810577
 20
-92.6915556423
 11
-50.8169796719
 21
49.738603099
  0
LINE
  5
270
100
AcDbEntity
  8
0
100
AcDbLine
 62
250
  6
CONTINUOUS
 10
-50.1560944804
 20
90.6462698426
 11
-50.1560944778
 21
-92.0306690604
  0
LINE
  5
271
100
AcDbEntity
  8
0
100
AcDbLine
 62
250
  6
CONTINUOUS
 10
-49.6567797104
 20
90.6440056411
 11
-49.6567797104
 21
-92.0290414237
  0
LINE
  5
272
100
AcDbEntity
  8
0
100
AcDbLine
 62
250
  6
CONTINUOUS
 10
-46.0586798136
 20
-88.1113969146
 11
-46.0586798135
 21
-87.1113968881
  0
LINE
  5
273
100
AcDbEntity
  8
0
100
AcDbLine
 62
250
  6
CONTINUOUS
 10
-45.7587255066
 20
-87.1113969049
 11
-45.7587255066
 21
-88.1113969052
  0
LINE
  5
274
100
AcDbEntity
  8
0
100
AcDbLine
 62
250
  6
CONTINUOUS
 10
-45.7515607009
 20
-88.1113968948
 11
-45.7515607009
 21
-87.111396908
  0
LINE
  5
275
100
AcDbEntity
  8
0
100
AcDbLine
 62
250
  6
CONTINUOUS
 10
-45.4516063924
 20
-87.1113969013
 11
-45.4516063924
 21
-88.1113969017
  0
LWPOLYLINE
  5
276
100
AcDbEntity
  8
0
100
AcDbPolyline
 62
250
  6
CONTINUOUS
 90
10
 70
0
 10
-15.3312116673
 20
-98.7214894849
 10
-15.3330444368
 20
-98.7160540541
 10
-15.3347180551
 20
-98.7059664211
 10
-15.3362325221
 20
-98.6912265857
 10
-15.3376185768
 20
-98.671215502
 10
-15.3388454803
 20
-98.646552216
 10
-15.3398210158
 20
-98.6190938662
 10
-15.3405144445
 20
-98.589459499
 10
-15.3409565052
 20
-98.5570300681
 10
-15.341147198
 20
-98.5218055734
  0
LINE
  5
277
100
AcDbEntity
  8
0
100
AcDbLine
 62
250
  6
CONTINUOUS
 10
-43.1656877647
 20
-98.5217610412
 11
-43.1656877647
 21
-99.0210758082
  0
LINE
  5
278
100
AcDbEntity
  8
0
100
AcDbLine
 62
250
  6
CONTINUOUS
 10
-43.1508997653
 20
97.6554541244
 11
-43.1508997653
 21
97.1557587109
  0
LINE
  5
279
100
AcDbEntity
  8
0
100
AcDbLine
 62
7
  6
CONTINUOUS
 10
-41.3075082986
 20
-87.1113969017
 11
-41.3075082986
 21
-88.1113969017
  0
LINE
  5
27A
100
AcDbEntity
  8
0
100
AcDbLine
 62
7
  6
CONTINUOUS
 10
-41.2464155713
 20
-87.1113969017
 11
-41.2464155713
 21
-88.1113969017
  0
LINE
  5
27B
100
AcDbEntity
  8
0
100
AcDbLine
 62
250
  6
CONTINUOUS
 10
-39.2464155713
 20
86.6496958256
 11
-39.2464155713
 21
86.5886030983
  0
LINE
  5
27C
100
AcDbEntity
  8
0
100
AcDbLine
 62
250
  6
CONTINUOUS
 10
-39.2464155713
 20
81.5886030983
 11
-39.2464155713
 21
81.5275103711
  0
LINE
  5
27D
100
AcDbEntity
  8
0
100
AcDbLine
 62
250
  6
CONTINUOUS
 10
-39.2464155713
 20
77.3834122773
 11
-39.2464155713
 21
77.0711480334
  0
LINE
  5
27E
100
AcDbEntity
  8
0
100
AcDbLine
 62
250
  6
CONTINUOUS
 10
-39.2464155713
 20
90.7937939194
 11
-39.2464155713
 21
91.1060581633
  0
LINE
  5
27F
100
AcDbEntity
  8
0
100
AcDbLine
 62
250
  6
CONTINUOUS
 10
-38.2464155713
 20
81.5275103711
 11
-38.2464155713
 21
81.5886030983
  0
LINE
  5
280
100
AcDbEntity
  8
0
100
AcDbLine
 62
250
  6
CONTINUOUS
 10
-38.2464155713
 20
86.5886030983
 11
-38.2464155713
 21
86.6496958256
  0
LINE
  5
281
100
AcDbEntity
  8
0
100
AcDbLine
 62
250
  6
CONTINUOUS
 10
-38.2464155713
 20
90.7937939194
 11
-38.2464155713
 21
91.1060581633
  0
LINE
  5
282
100
AcDbEntity
  8
0
100
AcDbLine
 62
250
  6
CONTINUOUS
 10
-38.2464155713
 20
77.3834122773
 11
-38.2464155713
 21
77.0711480334
  0
LINE
  5
283
100
AcDbEntity
  8
0
100
AcDbLine
 62
250
  6
CONTINUOUS
 10
42.8728565877
 20
-99.0210758082
 11
43.5337431694
 21
-99.681962388
  0
LINE
  5
284
100
AcDbEntity
  8
0
100
AcDbLine
 62
7
  6
CONTINUOUS
 10
-36.2464155713
 20
-88.1113969017
 11
-36.2464155713
 21
-87.1113969017
  0
LINE
  5
285
100
AcDbEntity
  8
0
100
AcDbLine
 62
7
  6
CONTINUOUS
 10
-36.1853228441
 20
-88.1113969017
 11
-36.1853228441
 21
-87.1113969017
  0
LINE
  5
286
100
AcDbEntity
  8
0
100
AcDbLine
 62
250
  6
CONTINUOUS
 10
-32.0412247502
 20
-88.111396902
 11
-32.0412247502
 21
-87.1113969016
  0
LINE
  5
287
100
AcDbEntity
  8
0
100
AcDbLine
 62
250
  6
CONTINUOUS
 10
-31.7412704417
 20
-87.1113969086
 11
-31.7412704417
 21
-88.1113968953
  0
LINE
  5
288
100
AcDbEntity
  8
0
100
AcDbLine
 62
250
  6
CONTINUOUS
 10
-31.734105636
 20
-88.1113968985
 11
-31.734105636
 21
-87.1113968982
  0
LINE
  5
289
100
AcDbEntity
  8
0
100
AcDbLine
 62
250
  6
CONTINUOUS
 10
-31.434151329
 20
-87.1113968888
 11
-31.4341513291
 21
-88.1113969152
  0
LINE
  5
28A
100
AcDbEntity
  8
0
100
AcDbLine
 62
250
  6
CONTINUOUS
 10
50.5241499164
 20
-92.6915556416
 11
49.8632633316
 21
-92.0306690599
  0
LINE
  5
28B
100
AcDbEntity
  8
0
100
AcDbLine
 62
7
  6
CONTINUOUS
 10
3.8620578269
 20
-94.0183311162
 11
3.8992046835
 21
-94.1113969017
  0
LWPOLYLINE
  5
28C
100
AcDbEntity
  8
0
100
AcDbPolyline
 62
250
  6
CONTINUOUS
 90
7
 70
0
 10
-15.6378574671
 20
-98.8659211276
 10
-15.6368890528
 20
-98.9089420007
 10
-15.63580031
 20
-98.9457724008
 10
-15.6346422392
 20
-98.9758236389
 10
-15.6334318405
 20
-98.9986145695
 10
-15.6321521139
 20
-99.0137797359
 10
-15.6308030593
 20
-99.0210758082
  0
LINE
  5
28D
100
AcDbEntity
  8
0
100
AcDbLine
 62
250
  6
CONTINUOUS
 10
-15.6394217723
 20
-98.7641475063
 11
-15.6378574671
 21
-98.8659211276
  0
LINE
  5
28E
100
AcDbEntity
  8
0
100
AcDbLine
 62
250
  6
CONTINUOUS
 10
-15.6403924504
 20
-98.6469382526
 11
-15.6394217723
 21
-98.7641475063
  0
LINE
  5
28F
100
AcDbEntity
  8
IMPORT_IGES
100
AcDbLine
 62
7
  6
CONTINUOUS
 10
-17.0464155713
 20
10.1245470549
 11
-17.0464155713
 21
1.7386030983
  0
LINE
  5
290
100
AcDbEntity
  8
IMPORT_IGES
100
AcDbLine
 62
7
  6
CONTINUOUS
 10
-17.0464155713
 20
0.7386030983
 11
-17.0464155713
 21
-7.6473408583
  0
LINE
  5
291
100
AcDbEntity
  8
IMPORT_IGES
100
AcDbLine
 62
7
  6
CONTINUOUS
 10
-16.7539155713
 20
10.1361838791
 11
-16.7539155713
 21
4.2314184535
  0
LINE
  5
292
100
AcDbEntity
  8
IMPORT_IGES
100
AcDbLine
 62
7
  6
CONTINUOUS
 10
-16.7539155713
 20
-7.6589776824
 11
-16.7539155713
 21
-1.7542122568
  0
LINE
  5
293
100
AcDbEntity
  8
IMPORT_IGES
100
AcDbLine
 62
7
  6
CONTINUOUS
 10
-16.5964155713
 20
4.2381864027
 11
-16.5964155713
 21
1.2886030983
  0
LINE
  5
294
100
AcDbEntity
  8
IMPORT_IGES
100
AcDbLine
 62
7
  6
CONTINUOUS
 10
-16.5964155713
 20
-1.7609802061
 11
-16.5964155713
 21
1.1886030983
  0
LINE
  5
295
100
AcDbEntity
  8
IMPORT_IGES
100
AcDbLine
 62
7
  6
CONTINUOUS
 10
-16.4964155713
 20
-1.7609802061
 11
-16.4964155713
 21
1.1886030983
  0
LINE
  5
296
100
AcDbEntity
  8
IMPORT_IGES
100
AcDbLine
 62
7
  6
CONTINUOUS
 10
-16.4964155713
 20
1.2886030983
 11
-16.4964155713
 21
4.2381864027
  0
LINE
  5
297
100
AcDbEntity
  8
IMPORT_IGES
100
AcDbLine
 62
7
  6
CONTINUOUS
 10
-16.3389155713
 20
10.1361838791
 11
-16.3389155713
 21
4.2314184535
  0
LINE
  5
298
100
AcDbEntity
  8
IMPORT_IGES
100
AcDbLine
 62
7
  6
CONTINUOUS
 10
-16.3389155713
 20
-7.6589776824
 11
-16.3389155713
 21
-1.7542122568
  0
LINE
  5
299
100
AcDbEntity
  8
IMPORT_IGES
100
AcDbLine
 62
7
  6
CONTINUOUS
 10
-16.0464155713
 20
-7.6473408583
 11
-16.0464155713
 21
0.7386030983
  0
LINE
  5
29A
100
AcDbEntity
  8
IMPORT_IGES
100
AcDbLine
 62
7
  6
CONTINUOUS
 10
-16.0464155713
 20
1.7386030983
 11
-16.0464155713
 21
10.1245470549
  0
LINE
  5
29B
100
AcDbEntity
  8
0
100
AcDbLine
 62
250
  6
CONTINUOUS
 10
-15.6403924504
 20
-98.6469382526
 11
-15.6407360584
 21
-94.2280663338
  0
LINE
  5
29C
100
AcDbEntity
  8
0
100
AcDbLine
 62
250
  6
CONTINUOUS
 10
-15.3411471699
 20
-94.2280039224
 11
-15.341147198
 21
-98.5218055734
  0
LINE
  5
29D
100
AcDbEntity
  8
0
100
AcDbLine
 62
7
  6
CONTINUOUS
 10
-15.2512311299
 20
-94.3179199766
 11
-15.2512311299
 21
-96.6238319074
  0
LINE
  5
29E
100
AcDbEntity
  8
0
100
AcDbLine
 62
250
  6
CONTINUOUS
 10
-15.1613150617
 20
-97.1882302589
 11
-15.1613150612
 21
-98.8913857383
  0
LINE
  5
29F
100
AcDbEntity
  8
0
100
AcDbLine
 62
250
  6
CONTINUOUS
 10
-15.0415583376
 20
-93.6288261876
 11
-15.0415583376
 21
-93.9284150621
  0
LINE
  5
2A0
100
AcDbEntity
  8
0
100
AcDbLine
 62
250
  6
CONTINUOUS
 10
-14.8617262013
 20
-97.2031297493
 11
-14.8617262014
 21
-99.2207739317
  0
LINE
  5
2A1
100
AcDbEntity
  8
0
100
AcDbLine
 62
250
  6
CONTINUOUS
 10
-19.4073646761
 20
1.2555428989
 11
-19.4316203805
 21
1.2886030983
  0
LINE
  5
2A2
100
AcDbEntity
  8
0
100
AcDbLine
 62
7
  6
CONTINUOUS
 10
-4.1226166949
 20
-94.0183311162
 11
-4.1222389222
 21
-94.0308333901
  0
LWPOLYLINE
  5
2A3
100
AcDbEntity
  8
0
100
AcDbPolyline
 62
250
  6
CONTINUOUS
 90
13
 70
0
 10
-15.3411471699
 20
-94.2280039295
 10
-15.338503226
 20
-94.1873473245
 10
-15.3304359922
 20
-94.1476444752
 10
-15.3171661758
 20
-94.109598178
 10
-15.2989341612
 20
-94.073751414
 10
-15.2761691739
 20
-94.0408419792
 10
-15.2496261157
 20
-94.0116919265
 10
-15.2202091499
 20
-93.9868583724
 10
-15.1883315419
 20
-93.9663086536
 10
-15.1540358255
 20
-93.9499436735
 10
-15.1176576017
 20
-93.9379894194
 10
-15.0799626632
 20
-93.9307665388
 10
-15.0415583376
 20
-93.928415048
  0
LWPOLYLINE
  5
2A4
100
AcDbEntity
  8
0
100
AcDbPolyline
 62
250
  6
CONTINUOUS
 90
10
 70
0
 10
-15.3312142029
 20
-98.7214867729
 10
-15.3355781042
 20
-98.7716328251
 10
-15.3484072689
 20
-98.8207469394
 10
-15.3695313655
 20
-98.8673697332
 10
-15.398482223
 20
-98.9100090544
 10
-15.4345976209
 20
-98.947350058
 10
-15.4771080582
 20
-98.978226441
 10
-15.5249505767
 20
-99.0014626379
 10
-15.5767087829
 20
-99.0160035336
 10
-15.6308030638
 20
-99.0210758092
  0
LINE
  5
2A5
100
AcDbEntity
  8
IMPORT_IGES
100
AcDbLine
 62
7
  6
CONTINUOUS
 10
-16.0464155713
 20
1.7386030983
 11
-16.4964155713
 21
1.2886030983
  0
LINE
  5
2A6
100
AcDbEntity
  8
IMPORT_IGES
100
AcDbLine
 62
7
  6
CONTINUOUS
 10
-17.0464155713
 20
0.7386030983
 11
-16.5964155713
 21
1.1886030983
  0
LINE
  5
2A7
100
AcDbEntity
  8
0
100
AcDbLine
 62
7
  6
CONTINUOUS
 10
-17.9051216988
 20
1.2886030983
 11
-17.7752930492
 21
1.1886030983
  0
LWPOLYLINE
  5
2A8
100
AcDbEntity
  8
0
100
AcDbPolyline
 62
250
  6
CONTINUOUS
 90
3
 70
0
 10
-18.713432313
 20
1.1886030983
 10
-18.7322900834
 20
1.206627102
 10
-18.8108271841
 20
1.2886030983
  0
LINE
  5
2A9
100
AcDbEntity
  8
IMPORT_IGES
100
AcDbLine
 62
7
  6
CONTINUOUS
 10
-17.0464155713
 20
1.7386030983
 11
-16.5964155713
 21
1.2886030983
  0
LINE
  5
2AA
100
AcDbEntity
  8
IMPORT_IGES
100
AcDbLine
 62
7
  6
CONTINUOUS
 10
-16.0464155713
 20
0.7386030983
 11
-16.4964155713
 21
1.1886030983
  0
LINE
  5
2AB
100
AcDbEntity
  8
0
100
AcDbLine
 62
250
  6
CONTINUOUS
 10
-19.3481717963
 20
1.1886030983
 11
-19.4073646761
 21
1.2555428989
  0
LINE
  5
2AC
100
AcDbEntity
  8
0
100
AcDbLine
 62
7
  6
CONTINUOUS
 10
-19.3433183621
 20
1.1886030983
 11
-19.4273088631
 21
1.2884471448
  0
LINE
  5
2AD
100
AcDbEntity
  8
0
100
AcDbLine
 62
250
  6
CONTINUOUS
 10
-16.5964155713
 20
-0.9073492323
 11
-16.4964155713
 21
-0.9262463999
  0
LINE
  5
2AE
100
AcDbEntity
  8
0
100
AcDbLine
 62
7
  6
CONTINUOUS
 10
-16.4964155713
 20
-0.5221572177
 11
-16.5964155713
 21
-0.501650202
  0
LINE
  5
2AF
100
AcDbEntity
  8
0
100
AcDbLine
 62
250
  6
CONTINUOUS
 10
-16.4964155713
 20
-0.5237078261
 11
-16.5964155713
 21
-0.5028213702
  0
LINE
  5
2B0
100
AcDbEntity
  8
0
100
AcDbLine
 62
250
  6
CONTINUOUS
 10
-16.4964155713
 20
-0.022219165
 11
-16.5964155713
 21
0.001885017
  0
LINE
  5
2B1
100
AcDbEntity
  8
0
100
AcDbLine
 62
7
  6
CONTINUOUS
 10
-16.5964155713
 20
0.6110562334
 11
-16.4964155713
 21
0.5792391044
  0
LWPOLYLINE
  5
2B2
100
AcDbEntity
  8
0
100
AcDbPolyline
 62
250
  6
CONTINUOUS
 90
10
 70
0
 10
14.8684839182
 20
-98.8913857545
 10
14.8728478052
 20
-98.9415318818
 10
14.8856769743
 20
-98.9906460518
 10
14.906801084
 20
-99.0372688798
 10
14.9357519497
 20
-99.0799082096
 10
14.9718673446
 20
-99.1172492067
 10
15.014377777
 20
-99.1481255845
 10
15.0622202948
 20
-99.1713617805
 10
15.1139784999
 20
-99.1859026756
 10
15.1680727795
 20
-99.1909749509
  0
LWPOLYLINE
  5
2B3
100
AcDbEntity
  8
0
100
AcDbPolyline
 62
250
  6
CONTINUOUS
 90
13
 70
0
 10
15.3479049158
 20
-94.2280800333
 10
15.3416842848
 20
-94.1467325405
 10
15.3262574759
 20
-94.069668164
 10
15.3016244891
 20
-93.9968869036
 10
15.2670687635
 20
-93.9274643109
 10
15.2233068599
 20
-93.8623248344
 10
15.1724884616
 20
-93.8042418197
 10
15.1144051659
 20
-93.7534230462
 10
15.0492653754
 20
-93.7096607346
 10
14.9798439809
 20
-93.6751048922
 10
14.9070659461
 20
-93.6504721881
 10
14.8300063074
 20
-93.6350459533
 10
14.7486650648
 20
-93.6288261876
  0
LINE
  5
2B4
100
AcDbEntity
  8
IMPORT_IGES
100
AcDbLine
 62
7
  6
CONTINUOUS
 10
-25.4323595279
 20
0.7386030983
 11
-17.0464155713
 21
0.7386030983
  0
LINE
  5
2B5
100
AcDbEntity
  8
IMPORT_IGES
100
AcDbLine
 62
7
  6
CONTINUOUS
 10
-16.0464155713
 20
0.7386030983
 11
-7.6604716147
 21
0.7386030983
  0
LINE
  5
2B6
100
AcDbEntity
  8
IMPORT_IGES
100
AcDbLine
 62
7
  6
CONTINUOUS
 10
-25.4439963521
 20
1.0311030983
 11
-19.5392309265
 21
1.0311030983
  0
LINE
  5
2B7
100
AcDbEntity
  8
IMPORT_IGES
100
AcDbLine
 62
7
  6
CONTINUOUS
 10
-7.6488347906
 20
1.0311030983
 11
-13.5536002162
 21
1.0311030983
  0
LINE
  5
2B8
100
AcDbEntity
  8
IMPORT_IGES
100
AcDbLine
 62
7
  6
CONTINUOUS
 10
-16.4964155713
 20
1.1886030983
 11
-13.5468322669
 21
1.1886030983
  0
LINE
  5
2B9
100
AcDbEntity
  8
IMPORT_IGES
100
AcDbLine
 62
7
  6
CONTINUOUS
 10
-16.5964155713
 20
1.1886030983
 11
-19.5459988757
 21
1.1886030983
  0
LINE
  5
2BA
100
AcDbEntity
  8
IMPORT_IGES
100
AcDbLine
 62
7
  6
CONTINUOUS
 10
-13.5468322669
 20
1.2886030983
 11
-16.4964155713
 21
1.2886030983
  0
LINE
  5
2BB
100
AcDbEntity
  8
IMPORT_IGES
100
AcDbLine
 62
7
  6
CONTINUOUS
 10
-16.5964155713
 20
1.2886030983
 11
-19.5459988757
 21
1.2886030983
  0
LINE
  5
2BC
100
AcDbEntity
  8
IMPORT_IGES
100
AcDbLine
 62
7
  6
CONTINUOUS
 10
-13.5536002162
 20
1.4461030983
 11
-7.6488347906
 21
1.4461030983
  0
LINE
  5
2BD
100
AcDbEntity
  8
IMPORT_IGES
100
AcDbLine
 62
7
  6
CONTINUOUS
 10
-19.5392309265
 20
1.4461030983
 11
-25.4439963521
 21
1.4461030983
  0
LINE
  5
2BE
100
AcDbEntity
  8
IMPORT_IGES
100
AcDbLine
 62
7
  6
CONTINUOUS
 10
-7.6604716147
 20
1.7386030983
 11
-16.0464155713
 21
1.7386030983
  0
LINE
  5
2BF
100
AcDbEntity
  8
IMPORT_IGES
100
AcDbLine
 62
7
  6
CONTINUOUS
 10
-17.0464155713
 20
1.7386030983
 11
-25.4323595279
 21
1.7386030983
  0
LINE
  5
2C0
100
AcDbEntity
  8
0
100
AcDbLine
 62
250
  6
CONTINUOUS
 10
14.5688950587
 20
-99.2207739317
 11
14.5688950587
 21
-97.2031297493
  0
LINE
  5
2C1
100
AcDbEntity
  8
0
100
AcDbLine
 62
250
  6
CONTINUOUS
 10
14.748727197
 20
-93.9284150621
 11
14.748727197
 21
-93.6288261876
  0
LINE
  5
2C2
100
AcDbEntity
  8
0
100
AcDbLine
 62
250
  6
CONTINUOUS
 10
14.8684839182
 20
-98.8913854176
 11
14.8684839191
 21
-97.1882302589
  0
LINE
  5
2C3
100
AcDbEntity
  8
0
100
AcDbLine
 62
7
  6
CONTINUOUS
 10
14.9583999873
 20
-94.3179199766
 11
14.9583999873
 21
-96.6238319074
  0
LINE
  5
2C4
100
AcDbEntity
  8
0
100
AcDbLine
 62
250
  6
CONTINUOUS
 10
15.0483160554
 20
-98.5218100995
 11
15.0483160554
 21
-94.2280039079
  0
LINE
  5
2C5
100
AcDbEntity
  8
0
100
AcDbLine
 62
250
  6
CONTINUOUS
 10
15.3475617411
 20
-98.6469359379
 11
15.3479049158
 21
-94.2280800333
  0
LWPOLYLINE
  5
2C6
100
AcDbEntity
  8
0
100
AcDbPolyline
 62
250
  6
CONTINUOUS
 90
10
 70
0
 10
15.0483160554
 20
-98.5218100995
 10
15.0481256717
 20
-98.5570167122
 10
15.0476839004
 20
-98.5894337546
 10
15.0469907415
 20
-98.6190612267
 10
15.0460155241
 20
-98.6465197154
 10
15.0447889191
 20
-98.6711886339
 10
15.0434029397
 20
-98.6912062218
 10
15.0418882568
 20
-98.7059518924
 10
15.0402141995
 20
-98.7160462324
 10
15.0383807677
 20
-98.7214892419
  0
LINE
  5
2C7
100
AcDbEntity
  8
0
100
AcDbLine
 62
7
  6
CONTINUOUS
 10
4.0606127613
 20
-94.0183311162
 11
4.0598402232
 21
-94.031103603
  0
LINE
  5
2C8
100
AcDbEntity
  8
0
100
AcDbLine
 62
7
  6
CONTINUOUS
 10
-4.0233278
 20
-94.0183311162
 11
-4.0418955694
 21
-94.1113969017
  0
LINE
  5
2C9
100
AcDbEntity
  8
0
100
AcDbLine
 62
250
  6
CONTINUOUS
 10
15.3465911266
 20
-98.7641455226
 11
15.3475617411
 21
-98.6469359379
  0
LINE
  5
2CA
100
AcDbEntity
  8
0
100
AcDbLine
 62
250
  6
CONTINUOUS
 10
-50.1560944778
 20
-92.0306690604
 11
-50.8169810577
 21
-92.6915556423
  0
LINE
  5
2CB
100
AcDbEntity
  8
0
100
AcDbLine
 62
7
  6
CONTINUOUS
 10
31.4361293638
 20
84.5886030983
 11
31.4361293638
 21
83.5886030983
  0
LINE
  5
2CC
100
AcDbEntity
  8
0
100
AcDbLine
 62
250
  6
CONTINUOUS
 10
31.4484392991
 20
83.5886031052
 11
31.4484392991
 21
84.588603092
  0
LINE
  5
2CD
100
AcDbEntity
  8
0
100
AcDbLine
 62
250
  6
CONTINUOUS
 10
31.7483936076
 20
84.5886030987
 11
31.7483936076
 21
83.5886030983
  0
LINE
  5
2CE
100
AcDbEntity
  8
0
100
AcDbLine
 62
7
  6
CONTINUOUS
 10
35.8924917014
 20
84.5886030983
 11
35.8924917014
 21
83.5886030983
  0
LINE
  5
2CF
100
AcDbEntity
  8
0
100
AcDbLine
 62
7
  6
CONTINUOUS
 10
35.9535844287
 20
84.5886030983
 11
35.9535844287
 21
83.5886030983
  0
LINE
  5
2D0
100
AcDbEntity
  8
0
100
AcDbLine
 62
250
  6
CONTINUOUS
 10
37.9535844287
 20
-80.2991326578
 11
37.9535844287
 21
-80.9062060806
  0
LINE
  5
2D1
100
AcDbEntity
  8
0
100
AcDbLine
 62
250
  6
CONTINUOUS
 10
37.9535844287
 20
-85.0503041744
 11
37.9535844287
 21
-85.1113969017
  0
LINE
  5
2D2
100
AcDbEntity
  8
0
100
AcDbLine
 62
250
  6
CONTINUOUS
 10
37.9535844287
 20
-90.1113969017
 11
37.9535844287
 21
-90.1724896289
  0
LINE
  5
2D3
100
AcDbEntity
  8
0
100
AcDbLine
 62
250
  6
CONTINUOUS
 10
37.9535844287
 20
-94.3165877228
 11
37.9535844287
 21
-94.9236611456
  0
LWPOLYLINE
  5
2D4
100
AcDbEntity
  8
0
100
AcDbPolyline
 62
250
  6
CONTINUOUS
 90
8
 70
0
 10
15.3379726131
 20
-99.0210758082
 10
15.3393216257
 20
-99.0137799788
 10
15.3406013171
 20
-98.9986152221
 10
15.3418116875
 20
-98.9758246504
 10
15.3429697407
 20
-98.9457734143
 10
15.3440584727
 20
-98.9089425385
 10
15.345026872
 20
-98.8659209817
 10
15.3465911266
 20
-98.7641455226
  0
LINE
  5
2D5
100
AcDbEntity
  8
0
100
AcDbLine
 62
250
  6
CONTINUOUS
 10
38.9535844287
 20
-94.9236611456
 11
38.9535844287
 21
-94.3165877228
  0
LINE
  5
2D6
100
AcDbEntity
  8
0
100
AcDbLine
 62
250
  6
CONTINUOUS
 10
38.9535844287
 20
-90.1724896289
 11
38.9535844287
 21
-90.1113969017
  0
LINE
  5
2D7
100
AcDbEntity
  8
0
100
AcDbLine
 62
250
  6
CONTINUOUS
 10
38.9535844287
 20
-85.1113969017
 11
38.9535844287
 21
-85.0503041744
  0
LINE
  5
2D8
100
AcDbEntity
  8
0
100
AcDbLine
 62
250
  6
CONTINUOUS
 10
38.9535844287
 20
-80.9062060806
 11
38.9535844287
 21
-80.2991326578
  0
LINE
  5
2D9
100
AcDbEntity
  8
0
100
AcDbLine
 62
7
  6
CONTINUOUS
 10
40.9535844287
 20
83.5886030983
 11
40.9535844287
 21
84.5886030983
  0
LINE
  5
2DA
100
AcDbEntity
  8
0
100
AcDbLine
 62
7
  6
CONTINUOUS
 10
41.0146771559
 20
83.5886030983
 11
41.0146771559
 21
84.5886030983
  0
LINE
  5
2DB
100
AcDbEntity
  8
0
100
AcDbLine
 62
250
  6
CONTINUOUS
 10
42.8580686369
 20
97.1557587109
 11
42.8580686369
 21
97.6554541244
  0
LINE
  5
2DC
100
AcDbEntity
  8
0
100
AcDbLine
 62
250
  6
CONTINUOUS
 10
42.8728565919
 20
-99.0210758082
 11
42.8728565919
 21
-98.5217610406
  0
LINE
  5
2DD
100
AcDbEntity
  8
0
100
AcDbLine
 62
250
  6
CONTINUOUS
 10
45.1587752498
 20
83.588603098
 11
45.1587752498
 21
84.5886030984
  0
LINE
  5
2DE
100
AcDbEntity
  8
0
100
AcDbLine
 62
250
  6
CONTINUOUS
 10
45.4587295583
 20
84.5886030915
 11
45.4587295583
 21
83.5886031047
  0
LINE
  5
2DF
100
AcDbEntity
  8
0
100
AcDbLine
 62
7
  6
CONTINUOUS
 10
45.4710394936
 20
83.5886030983
 11
45.4710394936
 21
84.5886030983
  0
LINE
  5
2E0
100
AcDbEntity
  8
0
100
AcDbLine
 62
250
  6
CONTINUOUS
 10
-43.8265743115
 20
-99.6819623894
 11
-43.1656877296
 21
-99.0210758045
  0
LINE
  5
2E1
100
AcDbEntity
  8
0
100
AcDbLine
 62
250
  6
CONTINUOUS
 10
49.3639485678
 20
-92.0295847343
 11
49.3639485678
 21
90.6437570585
  0
LINE
  5
2E2
100
AcDbEntity
  8
0
100
AcDbLine
 62
250
  6
CONTINUOUS
 10
49.8632633316
 20
-92.0306690599
 11
49.8632633352
 21
90.6462698431
  0
LINE
  5
2E3
100
AcDbEntity
  8
0
100
AcDbLine
 62
7
  6
CONTINUOUS
 10
50.5241499164
 20
-92.6915556416
 11
50.5241477245
 21
49.7386030997
  0
LWPOLYLINE
  5
2E4
100
AcDbEntity
  8
0
100
AcDbPolyline
 62
7
  6
CONTINUOUS
 90
12
 70
0
 10
50.9034849012
 20
83.055116336
 10
50.8384988019
 20
80.190316931
 10
50.7794860853
 20
77.2837396321
 10
50.7263750837
 20
74.3308422097
 10
50.6792374648
 20
71.3361668933
 10
50.6382882307
 20
68.3133403723
 10
50.6035557598
 20
65.2622328844
 10
50.5750116737
 20
62.1829741917
 10
50.5527858404
 20
59.0895802694
 10
50.5369215491
 20
55.9867231092
 10
50.5273755104
 20
52.8697307192
 10
50.5241477245
 20
49.7386030997
  0
LINE
  5
2E5
100
AcDbEntity
  8
0
100
AcDbLine
 62
7
  6
CONTINUOUS
 10
51.0056626837
 20
87.0027450177
 11
50.9034849012
 21
83.055116336
  0
LWPOLYLINE
  5
2E6
100
AcDbEntity
  8
0
100
AcDbPolyline
 62
7
  6
CONTINUOUS
 90
10
 70
0
 10
51.1039691493
 20
89.6863828119
 10
51.0916516128
 20
89.4075447742
 10
51.0796784246
 20
89.1237561607
 10
51.0680495847
 20
88.8350169715
 10
51.056759359
 20
88.5411744186
 10
51.0458134817
 20
88.2423812901
 10
51.0352291552
 20
87.9390959493
 10
51.0250121138
 20
87.6314711843
 10
51.0151566233
 20
87.3193542071
 10
51.0056626837
 20
87.0027450177
  0
LWPOLYLINE
  5
2E7
100
AcDbEntity
  8
0
100
AcDbPolyline
 62
7
  6
CONTINUOUS
 90
18
 70
0
 10
-2.9959714787
 20
-94.288747425
 10
-2.9927931434
 20
-94.283980467
 10
-2.9673807478
 20
-94.2745773564
 10
-2.9158708352
 20
-94.2653055964
 10
-2.8389529821
 20
-94.2561616853
 10
-2.7386977555
 20
-94.2473906574
 10
-2.6144744581
 20
-94.2390027361
 10
-2.4669137872
 20
-94.230987698
 10
-2.2999784009
 20
-94.2235599071
 10
-2.1131482753
 20
-94.2167353269
 10
-1.9069434343
 20
-94.2104979939
 10
-1.6868866076
 20
-94.2050143823
 10
-1.4526069964
 20
-94.2003048933
 10
-1.2044753994
 20
-94.1963491256
 10
-0.9491269427
 20
-94.1932523495
 10
-0.688773335
 20
-94.1910496548
 10
-0.4212028676
 20
-94.1897059517
 10
-0.1464155406
 20
-94.18922124
  0
LWPOLYLINE
  5
2E8
100
AcDbEntity
  8
0
100
AcDbPolyline
 62
7
  6
CONTINUOUS
 90
10
 70
0
 10
51.1034380387
 20
90.4783125735
 10
51.1068139733
 20
90.3940304855
 10
51.1094264998
 20
90.3088192109
 10
51.111248145
 20
90.2226857503
 10
51.1122512783
 20
90.1356597769
 10
51.1124084304
 20
90.0477270998
 10
51.1116899095
 20
89.9588299032
 10
51.1100644706
 20
89.8689554347
 10
51.1075017195
 20
89.7781357955
 10
51.1039707595
 20
89.6863815644
  0
LWPOLYLINE
  5
2E9
100
AcDbEntity
  8
0
100
AcDbPolyline
 62
250
  6
CONTINUOUS
 90
22
 70
0
 10
49.8632624316
 20
90.6462705439
 10
49.8437189832
 20
91.1705647907
 10
49.7850775294
 20
91.6918098638
 10
49.6876779254
 20
92.2071030306
 10
49.5520722888
 20
92.7135722992
 10
49.3790312379
 20
93.2083992983
 10
49.1695350918
 20
93.6888382198
 10
48.9247546218
 20
94.1522207337
 10
48.6460587603
 20
94.5959630345
 10
48.3350122353
 20
95.0175927722
 10
47.9933475064
 20
95.4147671427
 10
47.6229692672
 20
95.7852719668
 10
47.2259541767
 20
96.127035801
 10
46.8045126229
 20
96.4381580811
 10
46.3609911628
 20
96.7169042704
 10
45.8978758477
 20
96.9617118998
 10
45.4177459875
 20
97.1712182878
 10
44.9232732061
 20
97.3442545931
 10
44.4172268708
 20
97.4798475509
 10
43.9024308434
 20
97.5772387097
 10
43.381745326
 20
97.6358848383
 10
42.8580684847
 20
97.6554543339
  0
LWPOLYLINE
  5
2EA
100
AcDbEntity
  8
0
100
AcDbPolyline
 62
7
  6
CONTINUOUS
 90
22
 70
0
 10
50.5241494416
 20
-92.6915551713
 10
50.5045394833
 20
-93.2147604495
 10
50.4459231507
 20
-93.7348333837
 10
50.348656016
 20
-94.248881554
 10
50.2133179423
 20
-94.7540357861
 10
50.0406827396
 20
-95.2475040452
 10
49.8317010717
 20
-95.7265826411
 10
49.5875443927
 20
-96.1886147314
 10
49.3095899436
 20
-96.6310293742
 10
48.9993710514
 20
-97.0513867507
 10
48.6586156848
 20
-97.4473488619
 10
48.2892287161
 20
-97.8167136461
 10
47.8932521701
 20
-98.1574404354
 10
47.4728893487
 20
-98.467625805
 10
47.0304790697
 20
-98.745543543
 10
46.5684615003
 20
-98.9896622997
 10
46.0894076532
 20
-99.1986067755
 10
45.595974794
 20
-99.3712072218
 10
45.0908671141
 20
-99.5065147502
 10
44.5768764946
 20
-99.603757567
 10
44.056871247
 20
-99.6623578811
 10
43.5337428499
 20
-99.6819620695
  0
LWPOLYLINE
  5
2EB
100
AcDbEntity
  8
0
100
AcDbPolyline
 62
7
  6
CONTINUOUS
 90
18
 70
0
 10
2.7031403361
 20
-94.2887474249
 10
2.6999620008
 20
-94.293514383
 10
2.6745496053
 20
-94.3029174936
 10
2.6230396928
 20
-94.3121892535
 10
2.5461218398
 20
-94.3213331646
 10
2.4458666132
 20
-94.3301041926
 10
2.3216433159
 20
-94.3384921139
 10
2.174082645
 20
-94.346507152
 10
2.0071472587
 20
-94.3539349428
 10
1.8203171331
 20
-94.360759523
 10
1.6141122921
 20
-94.366996856
 10
1.3940554654
 20
-94.3724804677
 10
1.1597758518
 20
-94.3771899566
 10
0.9116442525
 20
-94.3811457243
 10
0.6562958003
 20
-94.3842425005
 10
0.3959422062
 20
-94.3864451951
 10
0.1283717593
 20
-94.3877888983
 10
-0.1464155406
 20
-94.3882736099
  0
LWPOLYLINE
  5
2EC
100
AcDbEntity
  8
0
100
AcDbPolyline
 62
7
  6
CONTINUOUS
 90
10
 70
0
 10
50.9905500696
 20
91.5417504156
 10
51.009184781
 20
91.4266244274
 10
51.0262464463
 20
91.3114508781
 10
51.0417402752
 20
91.19624693
 10
51.0555491624
 20
91.0820307959
 10
51.0678293696
 20
90.9678186105
 10
51.0788690568
 20
90.8506220975
 10
51.0886234802
 20
90.7294570126
 10
51.0968565331
 20
90.6053457054
 10
51.1034380387
 20
90.4783125735
  0
LINE
  5
2ED
100
AcDbEntity
  8
0
100
AcDbLine
 62
250
  6
CONTINUOUS
 10
14.748727181
 20
-93.9284150762
 11
14.6588111268
 21
-94.0183311162
  0
LINE
  5
2EE
100
AcDbEntity
  8
0
100
AcDbLine
 62
250
  6
CONTINUOUS
 10
14.9583999873
 20
-94.3179199766
 11
15.0483160554
 21
-94.2280039079
  0
LINE
  5
2EF
100
AcDbEntity
  8
0
100
AcDbLine
 62
7
  6
CONTINUOUS
 10
14.8684839191
 20
-97.1882302589
 11
14.9335675032
 21
-97.1231466748
  0
LINE
  5
2F0
100
AcDbEntity
  8
0
100
AcDbLine
 62
250
  6
CONTINUOUS
 10
15.0383807677
 20
-98.7214892419
 11
14.8684839182
 21
-98.8913854176
  0
LINE
  5
2F1
100
AcDbEntity
  8
0
100
AcDbLine
 62
250
  6
CONTINUOUS
 10
15.1680842815
 20
-99.1909634489
 11
15.3379719223
 21
-99.0210758081
  0
LINE
  5
2F2
100
AcDbEntity
  8
0
100
AcDbLine
 62
7
  6
CONTINUOUS
 10
-39.2464155713
 20
77.0711480334
 11
-38.2464155713
 21
77.0711480334
  0
LINE
  5
2F3
100
AcDbEntity
  8
0
100
AcDbLine
 62
250
  6
CONTINUOUS
 10
-38.2464155782
 20
77.0834579687
 11
-39.246415565
 21
77.0834579687
  0
LINE
  5
2F4
100
AcDbEntity
  8
0
100
AcDbLine
 62
250
  6
CONTINUOUS
 10
-39.2464155717
 20
77.3834122773
 11
-38.2464155712
 21
77.3834122773
  0
LINE
  5
2F5
100
AcDbEntity
  8
0
100
AcDbLine
 62
7
  6
CONTINUOUS
 10
-39.2464155713
 20
81.5275103711
 11
-38.2464155713
 21
81.5275103711
  0
LINE
  5
2F6
100
AcDbEntity
  8
0
100
AcDbLine
 62
7
  6
CONTINUOUS
 10
-39.2464155713
 20
81.5886030983
 11
-38.2464155713
 21
81.5886030983
  0
LWPOLYLINE
  5
2F7
100
AcDbEntity
  8
0
100
AcDbPolyline
 62
250
  6
CONTINUOUS
 90
10
 70
0
 10
14.8684839187
 20
-98.8913854167
 10
14.8614159845
 20
-98.8969556677
 10
14.8457261048
 20
-98.9020440195
 10
14.8218143936
 20
-98.9066504719
 10
14.7900344682
 20
-98.9108855521
 10
14.7514641401
 20
-98.9146387331
 10
14.7083979958
 20
-98.9175784336
 10
14.6628285635
 20
-98.9195941266
 10
14.6158766136
 20
-98.9207963391
 10
14.5688950587
 20
-98.9211850713
  0
LINE
  5
2F8
100
AcDbEntity
  8
0
100
AcDbLine
 62
7
  6
CONTINUOUS
 10
3.8992046835
 20
-94.1113969017
 11
4.0598402232
 21
-94.031103603
  0
LINE
  5
2F9
100
AcDbEntity
  8
0
100
AcDbLine
 62
250
  6
CONTINUOUS
 10
31.4361293638
 20
83.5886030983
 11
31.7483936076
 21
83.5886030983
  0
LINE
  5
2FA
100
AcDbEntity
  8
0
100
AcDbLine
 62
250
  6
CONTINUOUS
 10
35.8924917014
 20
83.5886030983
 11
35.9535844287
 21
83.5886030983
  0
LINE
  5
2FB
100
AcDbEntity
  8
0
100
AcDbLine
 62
250
  6
CONTINUOUS
 10
40.9535844287
 20
83.5886030983
 11
41.0146771559
 21
83.5886030983
  0
LINE
  5
2FC
100
AcDbEntity
  8
0
100
AcDbLine
 62
250
  6
CONTINUOUS
 10
45.1587752498
 20
83.5886030983
 11
45.4710394936
 21
83.5886030983
  0
LINE
  5
2FD
100
AcDbEntity
  8
0
100
AcDbLine
 62
250
  6
CONTINUOUS
 10
45.4710394936
 20
84.5886030983
 11
45.1587752498
 21
84.5886030983
  0
LINE
  5
2FE
100
AcDbEntity
  8
0
100
AcDbLine
 62
250
  6
CONTINUOUS
 10
41.0146771559
 20
84.5886030983
 11
40.9535844287
 21
84.5886030983
  0
LINE
  5
2FF
100
AcDbEntity
  8
0
100
AcDbLine
 62
250
  6
CONTINUOUS
 10
35.9535844287
 20
84.5886030983
 11
35.8924917014
 21
84.5886030983
  0
LINE
  5
300
100
AcDbEntity
  8
0
100
AcDbLine
 62
250
  6
CONTINUOUS
 10
31.7483936076
 20
84.5886030983
 11
31.4361293638
 21
84.5886030983
  0
LINE
  5
301
100
AcDbEntity
  8
0
100
AcDbLine
 62
7
  6
CONTINUOUS
 10
-38.2464155713
 20
86.5886030983
 11
-39.2464155713
 21
86.5886030983
  0
LINE
  5
302
100
AcDbEntity
  8
0
100
AcDbLine
 62
7
  6
CONTINUOUS
 10
-38.2464155713
 20
86.6496958256
 11
-39.2464155713
 21
86.6496958256
  0
LINE
  5
303
100
AcDbEntity
  8
0
100
AcDbLine
 62
250
  6
CONTINUOUS
 10
41.9877997127
 20
98.9757990031
 11
42.8580686197
 21
97.6554541255
  0
LINE
  5
304
100
AcDbEntity
  8
0
100
AcDbLine
 62
250
  6
CONTINUOUS
 10
49.8632633352
 20
90.6462698463
 11
49.3639485678
 21
90.6462698463
  0
LINE
  5
305
100
AcDbEntity
  8
0
100
AcDbLine
 62
250
  6
CONTINUOUS
 10
-49.6567797104
 20
90.6462698618
 11
-50.1560944778
 21
90.6462698618
  0
LINE
  5
306
100
AcDbEntity
  8
0
100
AcDbLine
 62
250
  6
CONTINUOUS
 10
-38.2464155709
 20
90.7937939194
 11
-39.2464155714
 21
90.7937939194
  0
LINE
  5
307
100
AcDbEntity
  8
0
100
AcDbLine
 62
250
  6
CONTINUOUS
 10
-39.2464155645
 20
91.0937482279
 11
-38.2464155777
 21
91.0937482279
  0
LINE
  5
308
100
AcDbEntity
  8
0
100
AcDbLine
 62
7
  6
CONTINUOUS
 10
-38.2464155713
 20
91.1060581633
 11
-39.2464155713
 21
91.1060581633
  0
LINE
  5
309
100
AcDbEntity
  8
0
100
AcDbLine
 62
250
  6
CONTINUOUS
 10
42.8595673096
 20
97.1557587109
 11
-43.152298419
 21
97.1557587109
  0
LWPOLYLINE
  5
30A
100
AcDbEntity
  8
0
100
AcDbPolyline
 62
250
  6
CONTINUOUS
 90
22
 70
0
 10
-43.1508995982
 20
97.655454378
 10
-43.6745335199
 20
97.635888114
 10
-44.1951838878
 20
97.5772505541
 10
-44.7099529485
 20
97.4798716221
 10
-45.2159811355
 20
97.3442927068
 10
-45.7104440145
 20
97.1712706553
 10
-46.1905705668
 20
96.9617777409
 10
-46.6536889808
 20
96.7169814107
 10
-47.0972191327
 20
96.4382432423
 10
-47.5186724936
 20
96.1271259909
 10
-47.9157019359
 20
95.7853635829
 10
-48.286096396
 20
95.4148560706
 10
-48.6277770764
 20
95.0176762329
 10
-48.9388388419
 20
94.5960383002
 10
-49.2175488881
 20
94.1522850426
 10
-49.462341219
 20
93.6888906857
 10
-49.6718468964
 20
93.208439389
 10
-49.8448952181
 20
92.7135997381
 10
-49.9805055286
 20
92.2071196295
 10
-50.0779076328
 20
91.6918183885
 10
-50.1365501516
 20
91.1705676672
 10
-50.1560938103
 20
90.6462703619
  0
LWPOLYLINE
  5
30B
100
AcDbEntity
  8
0
100
AcDbPolyline
 62
7
  6
CONTINUOUS
 90
37
 70
0
 10
-42.2806279386
 20
98.9758034283
 10
-42.5462192926
 20
98.968819484
 10
-42.814702699
 20
98.9542493206
 10
-43.0857974606
 20
98.9318554326
 10
-43.3587037067
 20
98.9014832255
 10
-43.6336213637
 20
98.8628632885
 10
-43.9117145404
 20
98.8154759665
 10
-44.1926813965
 20
98.7589822411
 10
-44.476037448
 20
98.6930767243
 10
-44.7625635929
 20
98.6170798092
 10
-45.0516373017
 20
98.5306382005
 10
-45.3428463687
 20
98.4333428227
 10
-45.6371271842
 20
98.3242131002
 10
-45.9338090194
 20
98.2027671616
 10
-46.2321500059
 20
98.0685604961
 10
-46.5327549357
 20
97.9204333645
 10
-46.8348137471
 20
97.7577902167
 10
-47.1372255242
 20
97.580211996
 10
-47.4399053603
 20
97.3866259372
 10
-47.7418709541
 20
97.1763725466
 10
-48.0416349104
 20
96.9491854657
 10
-48.3381595715
 20
96.7045339958
 10
-48.6308813036
 20
96.4412725666
 10
-48.9173808119
 20
96.1599439481
 10
-49.1940958169
 20
95.8628795812
 10
-49.4600664826
 20
95.5499523885
 10
-49.7137949901
 20
95.2217359232
 10
-49.951828311
 20
94.882241077
 10
-50.1732752738
 20
94.5325888115
 10
-50.3778235717
 20
94.1730567586
 10
-50.5638896115
 20
93.806830381
 10
-50.7313083508
 20
93.4348771635
 10
-50.8799919652
 20
93.0579481124
 10
-51.0092548674
 20
92.679083
 10
-51.1192272607
 20
92.2999013842
 10
-51.2104806628
 20
91.9205273293
 10
-51.283377706
 20
91.5417701051
  0
LINE
  5
30C
100
AcDbEntity
  8
0
100
AcDbLine
 62
7
  6
CONTINUOUS
 10
-42.2806301369
 20
98.9758000931
 11
-41.8049285011
 21
98.9816014179
  0
LINE
  5
30D
100
AcDbEntity
  8
0
100
AcDbLine
 62
7
  6
CONTINUOUS
 10
-41.8049285011
 20
98.9816014179
 11
-41.3234143052
 21
98.9867504772
  0
LINE
  5
30E
100
AcDbEntity
  8
0
100
AcDbLine
 62
7
  6
CONTINUOUS
 10
-41.3234143052
 20
98.9867504772
 11
-40.8363595662
 21
98.9912445072
  0
LINE
  5
30F
100
AcDbEntity
  8
0
100
AcDbLine
 62
7
  6
CONTINUOUS
 10
-40.8363595662
 20
98.9912445072
 11
-40.3448523534
 21
98.9950724522
  0
LWPOLYLINE
  5
310
100
AcDbEntity
  8
0
100
AcDbPolyline
 62
7
  6
CONTINUOUS
 90
12
 70
0
 10
-40.3448523534
 20
98.9950724522
 10
-33.4840787188
 20
99.0351429796
 10
-26.8527129449
 20
99.0665736262
 10
-20.2032637432
 20
99.0910292737
 10
-13.5297033045
 20
99.1085195109
 10
-6.8380594379
 20
99.1190347491
 10
-0.1464155713
 20
99.1225462211
 10
6.5452283801
 20
99.1190347653
 10
13.2368723316
 20
99.1085195433
 10
19.9104326006
 20
99.0910292737
 10
26.5598812931
 20
99.0665735291
 10
33.1912463032
 20
99.0351427367
  0
LINE
  5
311
100
AcDbEntity
  8
0
100
AcDbLine
 62
250
  6
CONTINUOUS
 10
42.8580686197
 20
97.6554541255
 11
-43.1508997621
 21
97.6554541244
  0
LINE
  5
312
100
AcDbEntity
  8
0
100
AcDbLine
 62
7
  6
CONTINUOUS
 10
33.1912463032
 20
99.0351427367
 11
40.0520213866
 21
98.9950723958
  0
LINE
  5
313
100
AcDbEntity
  8
0
100
AcDbLine
 62
7
  6
CONTINUOUS
 10
40.0520213866
 20
98.9950723958
 11
40.5435315789
 21
98.9912449161
  0
LINE
  5
314
100
AcDbEntity
  8
0
100
AcDbLine
 62
7
  6
CONTINUOUS
 10
40.5435315789
 20
98.9912449161
 11
41.0305863743
 21
98.9867509951
  0
LINE
  5
315
100
AcDbEntity
  8
0
100
AcDbLine
 62
7
  6
CONTINUOUS
 10
41.0305863743
 20
98.9867509951
 11
41.5120995999
 21
98.9816014556
  0
LINE
  5
316
100
AcDbEntity
  8
0
100
AcDbLine
 62
7
  6
CONTINUOUS
 10
41.5120995999
 20
98.9816014556
 11
41.9877997127
 21
98.9757990031
  0
LWPOLYLINE
  5
317
100
AcDbEntity
  8
0
100
AcDbPolyline
 62
7
  6
CONTINUOUS
 90
37
 70
0
 10
41.987796796
 20
98.9758034283
 10
42.2534683343
 20
98.9688161348
 10
42.5220093672
 20
98.9542398089
 10
42.793139233
 20
98.9318386899
 10
43.0660498438
 20
98.9014609969
 10
43.3409498342
 20
98.8628385516
 10
43.6190284978
 20
98.8154490419
 10
43.8999848064
 20
98.7589531256
 10
44.18333339
 20
98.693045187
 10
44.4698767206
 20
98.6170391395
 10
44.759009056
 20
98.5305739241
 10
45.0502990269
 20
98.4332427982
 10
45.344650977
 20
98.324074758
 10
45.6414113724
 20
98.2025809362
 10
45.9398204158
 20
98.0683240646
 10
46.2404040879
 20
97.9201859497
 10
46.5423176805
 20
97.7576020282
 10
46.844508866
 20
97.5801419451
 10
47.1469416745
 20
97.3867143546
 10
47.4485975046
 20
97.1766940056
 10
47.748038852
 20
96.9497904591
 10
48.0443866295
 20
96.7053448009
 10
48.3371837698
 20
96.4420857351
 10
48.6238657971
 20
96.1606453947
 10
48.9006617276
 20
95.8635568529
 10
49.1665410787
 20
95.5508084011
 10
49.4201178257
 20
95.2228846086
 10
49.6580211471
 20
94.883705015
 10
49.8793704888
 20
94.5343754802
 10
50.0838463581
 20
94.1751856459
 10
50.2698960011
 20
93.8092578315
 10
50.4373100252
 20
93.4376405409
 10
50.5860382829
 20
93.0609978696
 10
50.715490938
 20
92.6820392773
 10
50.825771247
 20
92.3022635771
 10
50.9173550839
 20
91.9218975574
 10
50.9905500696
 20
91.5417504156
  0
LINE
  5
318
100
AcDbEntity
  8
0
100
AcDbLine
 62
250
  6
CONTINUOUS
 10
49.8632633352
 20
90.6462698431
 11
51.1039691493
 21
89.6863828119
  0
ARC
  5
319
100
AcDbEntity
  8
0
100
AcDbCircle
 62
250
  6
CONTINUOUS
 10
-38.7464155713
 20
-87.1113969017
 40
7.3122642439
100
AcDbArc
 50
0.000000101
 51
179.999999894
  0
ARC
  5
31A
100
AcDbEntity
  8
0
100
AcDbCircle
 62
250
  6
CONTINUOUS
 10
-38.7464155713
 20
-88.1113969017
 40
7.3122642439
100
AcDbArc
 50
180.0000001011
 51
359.999999894
  0
ARC
  5
31B
100
AcDbEntity
  8
0
100
AcDbCircle
 62
250
  6
CONTINUOUS
 10
-38.7464155713
 20
-87.1113969017
 40
7.0123099353
100
AcDbArc
 50
0.0
 51
180.0
  0
ARC
  5
31C
100
AcDbEntity
  8
0
100
AcDbCircle
 62
250
  6
CONTINUOUS
 10
-38.7464155713
 20
-88.1113969017
 40
7.0123099353
100
AcDbArc
 50
180.0
 51
360.0
  0
ARC
  5
31D
100
AcDbEntity
  8
0
100
AcDbCircle
 62
250
  6
CONTINUOUS
 10
-38.7464155713
 20
-88.1113969017
 40
7.0051451296
100
AcDbArc
 50
180.0
 51
360.0
  0
ARC
  5
31E
100
AcDbEntity
  8
0
100
AcDbCircle
 62
250
  6
CONTINUOUS
 10
-38.7464155713
 20
-87.1113969017
 40
7.0051451296
100
AcDbArc
 50
0.0
 51
180.0
  0
ARC
  5
31F
100
AcDbEntity
  8
0
100
AcDbCircle
 62
250
  6
CONTINUOUS
 10
-38.7464155713
 20
-87.1113969017
 40
6.7051908211
100
AcDbArc
 50
0.0000000005
 51
179.999999997
  0
ARC
  5
320
100
AcDbEntity
  8
0
100
AcDbCircle
 62
250
  6
CONTINUOUS
 10
-38.7464155713
 20
-88.1113969017
 40
6.7051908211
100
AcDbArc
 50
180.0000000005
 51
359.999999997
  0
ARC
  5
321
100
AcDbEntity
  8
0
100
AcDbCircle
 62
250
  6
CONTINUOUS
 10
-43.168916081
 20
-92.0339506933
 40
6.4878019821
100
AcDbArc
 50
179.9566451495
 51
270.038155944
  0
ARC
  5
322
100
AcDbEntity
  8
0
100
AcDbCircle
 62
7
  6
CONTINUOUS
 10
-38.7464155713
 20
-87.1113969017
 40
2.5610927272
100
AcDbArc
 50
0.0
 51
180.0000000001
  0
ARC
  5
323
100
AcDbEntity
  8
0
100
AcDbCircle
 62
7
  6
CONTINUOUS
 10
-38.7464155713
 20
-88.1113969017
 40
2.5610927272
100
AcDbArc
 50
179.9999999999
 51
360.0
  0
ARC
  5
324
100
AcDbEntity
  8
0
100
AcDbCircle
 62
7
  6
CONTINUOUS
 10
-38.7464155713
 20
-87.1113969017
 40
2.5
100
AcDbArc
 50
0.0
 51
180.0
  0
ARC
  5
325
100
AcDbEntity
  8
0
100
AcDbCircle
 62
7
  6
CONTINUOUS
 10
-38.7464155713
 20
-88.1113969017
 40
2.5
100
AcDbArc
 50
180.0
 51
360.0
  0
ARC
  5
326
100
AcDbEntity
  8
0
100
AcDbCircle
 62
250
  6
CONTINUOUS
 10
-43.150160431
 20
90.6493708541
 40
6.5064928927
100
AcDbArc
 50
90.0188272979
 51
180.0472448089
  0
ARC
  5
327
100
AcDbEntity
  8
0
100
AcDbCircle
 62
7
  6
CONTINUOUS
 10
-39.2464155713
 20
84.0886030983
 40
7.0174550649
100
AcDbArc
 50
89.9999999999
 51
270.0000000001
  0
ARC
  5
328
100
AcDbEntity
  8
0
100
AcDbCircle
 62
7
  6
CONTINUOUS
 10
-38.2464155713
 20
84.0886030983
 40
7.0174550649
100
AcDbArc
 50
269.9999999999
 51
90.0000000001
  0
ARC
  5
329
100
AcDbEntity
  8
0
100
AcDbCircle
 62
250
  6
CONTINUOUS
 10
-39.2464155713
 20
84.0886030983
 40
7.0051451296
100
AcDbArc
 50
89.999999972
 51
270.0000000259
  0
ARC
  5
32A
100
AcDbEntity
  8
0
100
AcDbCircle
 62
250
  6
CONTINUOUS
 10
-38.2464155713
 20
84.0886030983
 40
7.0051451296
100
AcDbArc
 50
269.999999972
 51
90.0000000259
  0
ARC
  5
32B
100
AcDbEntity
  8
0
100
AcDbCircle
 62
250
  6
CONTINUOUS
 10
-39.2464155713
 20
84.0886030983
 40
6.7051908211
100
AcDbArc
 50
90.0000000005
 51
269.999999997
  0
ARC
  5
32C
100
AcDbEntity
  8
0
100
AcDbCircle
 62
250
  6
CONTINUOUS
 10
-38.2464155713
 20
84.0886030983
 40
6.7051908211
100
AcDbArc
 50
270.0000000005
 51
89.999999997
  0
ARC
  5
32D
100
AcDbEntity
  8
0
100
AcDbCircle
 62
7
  6
CONTINUOUS
 10
-38.2464155713
 20
84.0886030983
 40
2.5610927272
100
AcDbArc
 50
269.9999999999
 51
90.0000000001
  0
ARC
  5
32E
100
AcDbEntity
  8
0
100
AcDbCircle
 62
7
  6
CONTINUOUS
 10
-39.2464155713
 20
84.0886030983
 40
2.5610927272
100
AcDbArc
 50
89.9999999999
 51
270.0000000001
  0
ARC
  5
32F
100
AcDbEntity
  8
0
100
AcDbCircle
 62
7
  6
CONTINUOUS
 10
-38.2464155713
 20
84.0886030983
 40
2.5
100
AcDbArc
 50
270.0
 51
90.0
  0
ARC
  5
330
100
AcDbEntity
  8
0
100
AcDbCircle
 62
7
  6
CONTINUOUS
 10
-39.2464155713
 20
84.0886030983
 40
2.5
100
AcDbArc
 50
90.0
 51
270.0
  0
CIRCLE
  5
331
100
AcDbEntity
  8
0
100
AcDbCircle
 62
7
  6
CONTINUOUS
 10
-16.5464155713
 20
1.2386030983
 40
10.9628893351
  0
CIRCLE
  5
332
100
AcDbEntity
  8
0
100
AcDbCircle
 62
7
  6
CONTINUOUS
 10
-16.5464155713
 20
1.2386030983
 40
10.9
  0
CIRCLE
  5
333
100
AcDbEntity
  8
IMPORT_IGES
100
AcDbCircle
 62
250
  6
CONTINUOUS
 10
-16.5464155713
 20
1.2386030983
 40
9.8998936823
  0
CIRCLE
  5
334
100
AcDbEntity
  8
IMPORT_IGES
100
AcDbCircle
 62
7
  6
CONTINUOUS
 10
-16.5464155713
 20
1.2386030983
 40
8.9
  0
ARC
  5
335
100
AcDbEntity
  8
IMPORT_IGES
100
AcDbCircle
 62
7
  6
CONTINUOUS
 10
-15.4544567652
 20
4.4396598136
 40
3.7167542371
100
AcDbArc
 50
252.1027961257
 51
253.7194229039
  0
ARC
  5
336
100
AcDbEntity
  8
IMPORT_IGES
100
AcDbCircle
 62
7
  6
CONTINUOUS
 10
-15.4544567652
 20
4.4396598136
 40
3.7167542371
100
AcDbArc
 50
237.9932582133
 51
241.0375267973
  0
ARC
  5
337
100
AcDbEntity
  8
IMPORT_IGES
100
AcDbCircle
 62
7
  6
CONTINUOUS
 10
-16.5464155717
 20
1.2386030983
 40
3.0000000004
100
AcDbArc
 50
356.0338752787
 51
3.9661247213
  0
ARC
  5
338
100
AcDbEntity
  8
IMPORT_IGES
100
AcDbCircle
 62
7
  6
CONTINUOUS
 10
-16.5464155713
 20
1.2386030987
 40
3.0000000004
100
AcDbArc
 50
266.0338752787
 51
273.9661247213
  0
ARC
  5
339
100
AcDbEntity
  8
IMPORT_IGES
100
AcDbCircle
 62
7
  6
CONTINUOUS
 10
-16.5464155713
 20
1.2386030979
 40
3.0000000004
100
AcDbArc
 50
86.0338752787
 51
93.9661247213
  0
ARC
  5
33A
100
AcDbEntity
  8
IMPORT_IGES
100
AcDbCircle
 62
7
  6
CONTINUOUS
 10
-16.5464155709
 20
1.2386030983
 40
3.0000000004
100
AcDbArc
 50
176.0338752787
 51
183.9661247213
  0
ARC
  5
33B
100
AcDbEntity
  8
0
100
AcDbCircle
 62
250
  6
CONTINUOUS
 10
38.9535844287
 20
-87.6113969017
 40
7.3122642439
100
AcDbArc
 50
270.0000001017
 51
89.9999998934
  0
ARC
  5
33C
100
AcDbEntity
  8
0
100
AcDbCircle
 62
250
  6
CONTINUOUS
 10
37.9535844287
 20
-87.6113969017
 40
7.3122642439
100
AcDbArc
 50
90.0000001017
 51
269.9999998933
  0
ARC
  5
33D
100
AcDbEntity
  8
0
100
AcDbCircle
 62
250
  6
CONTINUOUS
 10
38.9535844287
 20
-87.6113969017
 40
7.0123099353
100
AcDbArc
 50
269.9999999865
 51
90.0000000391
  0
ARC
  5
33E
100
AcDbEntity
  8
0
100
AcDbCircle
 62
250
  6
CONTINUOUS
 10
37.9535844287
 20
-87.6113969017
 40
7.0123099353
100
AcDbArc
 50
89.9999999865
 51
270.0000000391
  0
ARC
  5
33F
100
AcDbEntity
  8
0
100
AcDbCircle
 62
250
  6
CONTINUOUS
 10
37.9535844287
 20
-87.6113969017
 40
7.0051451296
100
AcDbArc
 50
89.9999999865
 51
270.0000000391
  0
ARC
  5
340
100
AcDbEntity
  8
0
100
AcDbCircle
 62
250
  6
CONTINUOUS
 10
38.9535844287
 20
-87.6113969017
 40
7.0051451296
100
AcDbArc
 50
269.9999999865
 51
90.0000000391
  0
ARC
  5
341
100
AcDbEntity
  8
0
100
AcDbCircle
 62
250
  6
CONTINUOUS
 10
38.9535844287
 20
-87.6113969017
 40
6.7051908211
100
AcDbArc
 50
269.9999999979
 51
90.0000000212
  0
ARC
  5
342
100
AcDbEntity
  8
0
100
AcDbCircle
 62
250
  6
CONTINUOUS
 10
37.9535844287
 20
-87.6113969017
 40
6.7051908211
100
AcDbArc
 50
89.9999999979
 51
270.0000000212
  0
ARC
  5
343
100
AcDbEntity
  8
0
100
AcDbCircle
 62
7
  6
CONTINUOUS
 10
38.9535844287
 20
-87.6113969017
 40
2.5610927272
100
AcDbArc
 50
270.0000000069
 51
89.9999999931
  0
ARC
  5
344
100
AcDbEntity
  8
0
100
AcDbCircle
 62
7
  6
CONTINUOUS
 10
37.9535844287
 20
-87.6113969017
 40
2.5610927272
100
AcDbArc
 50
90.0000000069
 51
269.9999999931
  0
ARC
  5
345
100
AcDbEntity
  8
0
100
AcDbCircle
 62
7
  6
CONTINUOUS
 10
38.9535844287
 20
-87.6113969017
 40
2.5
100
AcDbArc
 50
270.0
 51
90.0
  0
ARC
  5
346
100
AcDbEntity
  8
0
100
AcDbCircle
 62
7
  6
CONTINUOUS
 10
37.9535844287
 20
-87.6113969017
 40
2.5
100
AcDbArc
 50
90.0
 51
270.0
  0
ARC
  5
347
100
AcDbEntity
  8
0
100
AcDbCircle
 62
250
  6
CONTINUOUS
 10
42.876137957
 20
-92.0338972361
 40
6.4878022133
100
AcDbArc
 50
269.9566136056
 51
0.0380849737
  0
ARC
  5
348
100
AcDbEntity
  8
0
100
AcDbCircle
 62
7
  6
CONTINUOUS
 10
38.4535844287
 20
83.5886030983
 40
7.0174550649
100
AcDbArc
 50
179.9999999999
 51
360.0
  0
ARC
  5
349
100
AcDbEntity
  8
0
100
AcDbCircle
 62
7
  6
CONTINUOUS
 10
38.4535844287
 20
84.5886030983
 40
7.0174550649
100
AcDbArc
 50
0.0
 51
180.0000000001
  0
ARC
  5
34A
100
AcDbEntity
  8
0
100
AcDbCircle
 62
250
  6
CONTINUOUS
 10
38.4535844287
 20
83.5886030983
 40
7.0051451296
100
AcDbArc
 50
180.0
 51
360.0
  0
ARC
  5
34B
100
AcDbEntity
  8
0
100
AcDbCircle
 62
250
  6
CONTINUOUS
 10
38.4535844287
 20
84.5886030983
 40
7.0051451296
100
AcDbArc
 50
0.0
 51
180.0
  0
ARC
  5
34C
100
AcDbEntity
  8
0
100
AcDbCircle
 62
250
  6
CONTINUOUS
 10
38.4535844287
 20
84.5886030983
 40
6.7051908211
100
AcDbArc
 50
0.0000000005
 51
179.999999997
  0
ARC
  5
34D
100
AcDbEntity
  8
0
100
AcDbCircle
 62
250
  6
CONTINUOUS
 10
38.4535844287
 20
83.5886030983
 40
6.7051908211
100
AcDbArc
 50
180.0000000005
 51
359.999999997
  0
ARC
  5
34E
100
AcDbEntity
  8
0
100
AcDbCircle
 62
250
  6
CONTINUOUS
 10
42.857194006
 20
90.6492690519
 40
6.5066078614
100
AcDbArc
 50
359.9514636886
 51
89.9791008231
  0
ARC
  5
34F
100
AcDbEntity
  8
0
100
AcDbCircle
 62
7
  6
CONTINUOUS
 10
38.4535844287
 20
84.5886030983
 40
2.5610927272
100
AcDbArc
 50
0.0
 51
180.0000000001
  0
ARC
  5
350
100
AcDbEntity
  8
0
100
AcDbCircle
 62
7
  6
CONTINUOUS
 10
38.4535844287
 20
83.5886030983
 40
2.5610927272
100
AcDbArc
 50
179.9999999999
 51
360.0
  0
ARC
  5
351
100
AcDbEntity
  8
0
100
AcDbCircle
 62
7
  6
CONTINUOUS
 10
38.4535844287
 20
84.5886030983
 40
2.5
100
AcDbArc
 50
0.0
 51
180.0
  0
ARC
  5
352
100
AcDbEntity
  8
0
100
AcDbCircle
 62
7
  6
CONTINUOUS
 10
38.4535844287
 20
83.5886030983
 40
2.5
100
AcDbArc
 50
180.0
 51
360.0
  0
ELLIPSE
  5
353
100
AcDbEntity
  8
0
100
AcDbEllipse
 62
7
  6
CONTINUOUS
 10
-15.2250272402
 20
-96.6238319074
 30
0.0
 11
0.0
 21
0.5
 31
0.0
 40
0.0524077793
 41
-4.7123889804
 42
-3.1939525311
  0
ELLIPSE
  5
354
100
AcDbEntity
  8
0
100
AcDbEllipse
 62
7
  6
CONTINUOUS
 10
-14.8617262013
 20
-97.1874074155
 30
0.0
 11
0.3
 21
0.0
 31
0.0
 40
0.0524077793
 41
-3.0892327762
 42
-1.5707963268
  0
ELLIPSE
  5
355
100
AcDbEntity
  8
0
100
AcDbEllipse
 62
7
  6
CONTINUOUS
 10
14.5688950587
 20
-97.1874074155
 30
0.0
 11
0.3
 21
-0.0
 31
0.0
 40
0.0524077793
 41
-1.5707963268
 42
-0.0523598774
  0
ELLIPSE
  5
356
100
AcDbEntity
  8
0
100
AcDbEllipse
 62
7
  6
CONTINUOUS
 10
14.9321960976
 20
-96.6238319074
 30
0.0
 11
-0.0
 21
0.5
 31
0.0
 40
0.0524077793
 41
-3.089232776
 42
-1.5707963268
  0
ELLIPSE
  5
357
100
AcDbEntity
  8
0
100
AcDbEllipse
 62
7
  6
CONTINUOUS
 10
14.6579882835
 20
-94.31874282
 30
0.0
 11
0.212713873
 21
0.212713873
 31
0.0
 40
0.9972646886
 41
-0.7840286354
 42
0.7840286355
  0
ELLIPSE
  5
358
100
AcDbEntity
  8
0
100
AcDbEllipse
 62
7
  6
CONTINUOUS
 10
-14.9508194261
 20
-94.31874282
 30
0.0
 11
-0.212713873
 21
0.212713873
 31
0.0
 40
0.9972646886
 41
-0.7840286355
 42
0.7840286354
  0
ENDSEC
  0
SECTION
  2
OBJECTS
  0
DICTIONARY
  5
C
100
AcDbDictionary
280
0
281
1
  3
ACAD_GROUP
350
D
  3
ACAD_MLINESTYLE
350
17
  3
ACAD_LAYOUT
350
1A
  3
ACAD_PLOTSETTINGS
350
19
  3
ACAD_PLOTSTYLENAME
350
E
  0
DICTIONARY
  5
D
102
{ACAD_REACTORS
330
C
102
}
100
AcDbDictionary
280
0
281
1
  0
ACDBDICTIONARYWDFLT
  5
E
102
{ACAD_REACTORS
330
C
102
}
100
AcDbDictionary
281
1
  3
Normal
350
F
100
AcDbDictionaryWithDefault
340
F
  0
DICTIONARY
  5
17
102
{ACAD_REACTORS
330
C
102
}
100
AcDbDictionary
280
0
281
1
  3
Standard
350
18
  0
DICTIONARY
  5
19
102
{ACAD_REACTORS
330
C
102
}
100
AcDbDictionary
281
1
  0
DICTIONARY
  5
1A
102
{ACAD_REACTORS
330
C
102
}
100
AcDbDictionary
281
1
  3
Model
350
359
  3
Layout1
350
35A
  0
ACDBPLACEHOLDER
  5
F
102
{ACAD_REACTORS
330
E
102
}
  0
MLINESTYLE
  5
18
102
{ACAD_REACTORS
330
17
102
}
100
AcDbMlineStyle
  2
STANDARD
 70
0
  3

 62
256
 51
90.0
 52
90.0
 71
2
 49
0.5
 62
256
  6
BYLAYER
 49
-0.5
 62
256
  6
BYLAYER
  0
LAYOUT
  5
359
102
{ACAD_REACTORS
330
1A
102
}
100
AcDbPlotSettings
  1

  2
none_device
  4
ISO_A4_(297.00_x_210.00_MM)
  6

 40
0.0
 41
0.0
 42
0.0
 43
0.0
 44
297.0
 45
210.0
 46
0.0
 47
0.0
 48
0.0
 49
0.0
140
0.0
141
0.0
142
1.0
143
1.0
 70
1024
 72
1
 73
0
 74
0
  7

 75
0
147
1.0
148
0.0
149
0.0
100
AcDbLayout
  1
Model
 70
0
 71
0
 10
0.0
 20
0.0
 11
297.0
 21
210.0
 12
0.0
 22
0.0
 32
0.0
 14
0.0
 24
0.0
 34
0.0
 15
0.0
 25
0.0
 35
0.0
146
0.0
 13
0.0
 23
0.0
 33
0.0
 16
1.0
 26
0.0
 36
0.0
 17
0.0
 27
1.0
 37
0.0
 76
0
330
225
345
0
346
0
  0
LAYOUT
  5
35A
102
{ACAD_REACTORS
330
1A
102
}
100
AcDbPlotSettings
  1

  2
none_device
  4
ISO_A4_(297.00_x_210.00_MM)
  6

 40
0.0
 41
0.0
 42
0.0
 43
0.0
 44
297.0
 45
210.0
 46
0.0
 47
0.0
 48
0.0
 49
0.0
140
0.0
141
0.0
142
1.0
143
1.0
 70
0
 72
1
 73
0
 74
0
  7

 75
0
147
1.0
148
0.0
149
0.0
100
AcDbLayout
  1
Layout1
 70
0
 71
1
 10
0.0
 20
0.0
 11
297.0
 21
210.0
 12
0.0
 22
0.0
 32
0.0
 14
0.0
 24
0.0
 34
0.0
 15
0.0
 25
0.0
 35
0.0
146
0.0
 13
0.0
 23
0.0
 33
0.0
 16
1.0
 26
0.0
 36
0.0
 17
0.0
 27
1.0
 37
0.0
 76
0
330
226
345
0
346
0
  0
ENDSEC
  0
EOF
