  0
SECTION
  2
HEADER
  9
$ACADVER
  1
AC1024
  9
$DWGCODEPAGE
  3
ANSI_1252
  9
$EXTMAX
 10
558.8
 20
431.8
 30
0.0
  9
$EXTMIN
 10
0.0
 20
0.0
 30
0.0
  9
$LIMMIN
 10
0.0
 20
0.0
  9
$LIMMAX
 10
558.8
 20
431.8
  9
$VIEWCTR
 10
279.4
 20
215.9
  9
$VIEWSIZE
 40
431.8
  9
$CLAYER
  8
0
  9
$LTSCALE
 40
30.734
  9
$CELTYPE
  6
BYLAYER
  9
$DIMSCALE
 40
1.0
  9
$DIMASZ
 40
3.0
  9
$DIMEXO
 40
0.5
  9
$DIMDLI
 40
21.2344
  9
$DIMEXE
 40
1.5
  9
$DIMCEN
 40
5.0292
  9
$DIMLFAC
 40
1.0
  9
$DIMBLK
  1
_FILLED
  9
$DIMALT
 70
0
  9
$DIMALTF
 40
0.0393700787
  9
$DIMTXT
 40
3.0
  9
$DIMTOL
 70
1
  9
$DIMLIM
 70
0
  9
$DIMTFAC
 40
1.0
  9
$DIMTP
 40
0.01
  9
$DIMTM
 40
0.01
  9
$DIMGAP
 40
0.625
  9
$DIMDSEP
 70
44
  9
$AUNITS
 70
0
  9
$PDMODE
 70
3
  9
$PDSIZE
 40
3.0
  9
$HANDSEED
  5
47F
  9
$TILEMODE
 70
1
  9
$MEASUREMENT
 70
1
  9
$INSUNITS
 70
4
  0
ENDSEC
  0
SECTION
  2
CLASSES
  0
CLASS
  1
ACDBDICTIONARYWDFLT
  2
AcDbDictionaryWithDefault
  3
AutoCAD 2000
 90
0
 91
1
280
0
281
0
  0
CLASS
  1
ACDBPLACEHOLDER
  2
AcDbPlaceHolder
  3
AutoCAD 2000
 90
0
 91
1
280
0
281
0
  0
CLASS
  1
LAYOUT
  2
AcDbLayout
  3
AutoCAD 2000
 90
0
 91
0
280
0
281
0
  0
ENDSEC
  0
SECTION
  2
TABLES
  0
TABLE
  2
VPORT
  5
8
100
AcDbSymbolTable
 70
2
  0
VPORT
  5
1F4
100
AcDbSymbolTableRecord
100
AcDbViewportTableRecord
  2
*ACTIVE
 70
0
 10
0.0
 20
0.0
 11
1.0
 21
1.0
 12
279.4
 22
215.9
 13
0.0
 23
0.0
 14
1.0
 24
1.0
 15
0.0
 25
0.0
 16
0.0
 26
0.0
 36
1.0
 17
0.0
 27
0.0
 37
0.0
 40
431.8
 41
1.2941176471
 42
50.0
 43
0.0
 44
0.0
 50
0.0
 51
0.0
 71
0
 72
100
 73
1
 74
1
 75
0
 76
0
 77
0
 78
0
  0
ENDTAB
  0
TABLE
  2
LTYPE
  5
5
100
AcDbSymbolTable
 70
6
  0
LTYPE
  5
14
100
AcDbSymbolTableRecord
100
AcDbLinetypeTableRecord
  2
BYBLOCK
 70
0
  3

 72
65
 73
0
 40
0.0
  0
LTYPE
  5
15
100
AcDbSymbolTableRecord
100
AcDbLinetypeTableRecord
  2
BYLAYER
 70
0
  3

 72
65
 73
0
 40
0.0
  0
LTYPE
  5
16
100
AcDbSymbolTableRecord
100
AcDbLinetypeTableRecord
  2
CONTINUOUS
 70
64
  3
Solid line
 72
65
 73
0
 40
0.0
  0
LTYPE
  5
1F5
100
AcDbSymbolTableRecord
100
AcDbLinetypeTableRecord
  2
CENTER
 70
64
  3
____ _ ____ _ ____ _ ____ _ ____ _ ____ _ ____
 72
65
 73
4
 40
0.6
 49
0.375
 74
0
 49
-0.075
 74
0
 49
0.075
 74
0
 49
-0.075
 74
0
  0
LTYPE
  5
1F6
100
AcDbSymbolTableRecord
100
AcDbLinetypeTableRecord
  2
HIDDEN
 70
64
  3
- - - - - - - - - - - - - - - - - - - -
 72
65
 73
2
 40
0.2
 49
0.1
 74
0
 49
-0.1
 74
0
  0
LTYPE
  5
1F7
100
AcDbSymbolTableRecord
100
AcDbLinetypeTableRecord
  2
PHANTOM
 70
64
  3
_____ _ _ _____ _ _ _____ _ _ _____
 72
65
 73
6
 40
0.8
 49
0.45
 74
0
 49
-0.05
 74
0
 49
0.1
 74
0
 49
-0.05
 74
0
 49
0.1
 74
0
 49
-0.05
 74
0
  0
LTYPE
  5
1F8
100
AcDbSymbolTableRecord
100
AcDbLinetypeTableRecord
  2
DOT
 70
64
  3
. . . . . . . . . . . . . . . . . . . .
 72
65
 73
2
 40
0.2
 49
0.1
 74
0
 49
-0.1
 74
0
  0
LTYPE
  5
1F9
100
AcDbSymbolTableRecord
100
AcDbLinetypeTableRecord
  2
DASHED
 70
64
  3
- - - - - - - - - - - - - - - - - - - -
 72
65
 73
2
 40
0.2
 49
0.1
 74
0
 49
-0.1
 74
0
  0
ENDTAB
  0
TABLE
  2
LAYER
  5
2
100
AcDbSymbolTable
 70
36
  0
LAYER
  5
10
100
AcDbSymbolTableRecord
100
AcDbLayerTableRecord
  2
0
 70
0
 62
7
  6
CONTINUOUS
370
-3
390
F
  0
LAYER
  5
1FA
100
AcDbSymbolTableRecord
100
AcDbLayerTableRecord
  2
DEFAULT_1
 70
0
 62
7
  6
CENTER
370
-3
390
F
  0
LAYER
  5
1FB
100
AcDbSymbolTableRecord
100
AcDbLayerTableRecord
  2
DEFAULT_2
 70
0
 62
7
  6
HIDDEN
370
-3
390
F
  0
LAYER
  5
1FC
100
AcDbSymbolTableRecord
100
AcDbLayerTableRecord
  2
DEFAULT_3
 70
0
 62
7
  6
PHANTOM
370
-3
390
F
  0
LAYER
  5
1FD
100
AcDbSymbolTableRecord
100
AcDbLayerTableRecord
  2
ASSI
 70
0
 62
7
  6
CONTINUOUS
370
-3
390
F
  0
LAYER
  5
1FE
100
AcDbSymbolTableRecord
100
AcDbLayerTableRecord
  2
COORDINATE
 70
0
 62
7
  6
CONTINUOUS
370
-3
390
F
  0
LAYER
  5
1FF
100
AcDbSymbolTableRecord
100
AcDbLayerTableRecord
  2
COPY_PUBLISH
 70
0
 62
7
  6
CONTINUOUS
370
-3
390
F
  0
LAYER
  5
200
100
AcDbSymbolTableRecord
100
AcDbLayerTableRecord
  2
COSMETICI
 70
0
 62
7
  6
CONTINUOUS
370
-3
390
F
  0
LAYER
  5
201
100
AcDbSymbolTableRecord
100
AcDbLayerTableRecord
  2
CURVE
 70
0
 62
7
  6
CONTINUOUS
370
-3
390
F
  0
LAYER
  5
202
100
AcDbSymbolTableRecord
100
AcDbLayerTableRecord
  2
DRAFT
 70
0
 62
7
  6
CONTINUOUS
370
-3
390
F
  0
LAYER
  5
203
100
AcDbSymbolTableRecord
100
AcDbLayerTableRecord
  2
IMPORT_IGES
 70
0
 62
7
  6
CONTINUOUS
370
-3
390
F
  0
LAYER
  5
204
100
AcDbSymbolTableRecord
100
AcDbLayerTableRecord
  2
INTF_1
 70
0
 62
7
  6
CONTINUOUS
370
-3
390
F
  0
LAYER
  5
205
100
AcDbSymbolTableRecord
100
AcDbLayerTableRecord
  2
INTF_11
 70
0
 62
7
  6
CONTINUOUS
370
-3
390
F
  0
LAYER
  5
206
100
AcDbSymbolTableRecord
100
AcDbLayerTableRecord
  2
INTF_2
 70
0
 62
7
  6
CONTINUOUS
370
-3
390
F
  0
LAYER
  5
207
100
AcDbSymbolTableRecord
100
AcDbLayerTableRecord
  2
NOTE
 70
0
 62
7
  6
CONTINUOUS
370
-3
390
F
  0
LAYER
  5
208
100
AcDbSymbolTableRecord
100
AcDbLayerTableRecord
  2
PIANI
 70
0
 62
7
  6
CONTINUOUS
370
-3
390
F
  0
LAYER
  5
209
100
AcDbSymbolTableRecord
100
AcDbLayerTableRecord
  2
PUNTI
 70
0
 62
7
  6
CONTINUOUS
370
-3
390
F
  0
LAYER
  5
20A
100
AcDbSymbolTableRecord
100
AcDbLayerTableRecord
  2
RACCORDO
 70
0
 62
7
  6
CONTINUOUS
370
-3
390
F
  0
LAYER
  5
20B
100
AcDbSymbolTableRecord
100
AcDbLayerTableRecord
  2
RGB__255__255__255__
 70
0
 62
7
  6
CONTINUOUS
370
-3
390
F
  0
LAYER
  5
20C
100
AcDbSymbolTableRecord
100
AcDbLayerTableRecord
  2
SIMBOLI
 70
0
 62
7
  6
CONTINUOUS
370
-3
390
F
  0
LAYER
  5
20D
100
AcDbSymbolTableRecord
100
AcDbLayerTableRecord
  2
SMUSSO
 70
0
 62
7
  6
CONTINUOUS
370
-3
390
F
  0
LAYER
  5
20E
100
AcDbSymbolTableRecord
100
AcDbLayerTableRecord
  2
SNAPLINE
 70
0
 62
7
  6
CONTINUOUS
370
-3
390
F
  0
LAYER
  5
20F
100
AcDbSymbolTableRecord
100
AcDbLayerTableRecord
  2
SUPERFICI
 70
0
 62
7
  6
CONTINUOUS
370
-3
390
F
  0
LAYER
  5
210
100
AcDbSymbolTableRecord
100
AcDbLayerTableRecord
  2
TRASH
 70
0
 62
7
  6
CONTINUOUS
370
-3
390
F
  0
ENDTAB
  0
TABLE
  2
STYLE
  5
3
100
AcDbSymbolTable
 70
1
  0
STYLE
  5
11
100
AcDbSymbolTableRecord
100
AcDbTextStyleTableRecord
  2
STANDARD
 70
0
 40
0.0
 41
0.8
 50
0.0
 71
0
 42
0.2
  3
txt
  4

  0
STYLE
  5
211
100
AcDbSymbolTableRecord
100
AcDbTextStyleTableRecord
  2
TEXTSTYLE_1
 70
0
 40
0.0
 41
0.8
 50
0.0
 71
0
 42
0.2
  3
gdt
  4

  0
ENDTAB
  0
TABLE
  2
VIEW
  5
6
100
AcDbSymbolTable
 70
0
  0
ENDTAB
  0
TABLE
  2
UCS
  5
7
100
AcDbSymbolTable
 70
0
  0
ENDTAB
  0
TABLE
  2
APPID
  5
9
100
AcDbSymbolTable
 70
1
  0
APPID
  5
212
100
AcDbSymbolTableRecord
100
AcDbRegAppTableRecord
  2
ACAD
 70
0
  0
ENDTAB
  0
TABLE
  2
BLOCK_RECORD
  5
1
100
AcDbSymbolTable
 70
0
  0
BLOCK_RECORD
  5
213
100
AcDbSymbolTableRecord
100
AcDbBlockTableRecord
  2
*Model_Space
  0
BLOCK_RECORD
  5
214
100
AcDbSymbolTableRecord
100
AcDbBlockTableRecord
  2
*Paper_Space
  0
BLOCK_RECORD
  5
215
100
AcDbSymbolTableRecord
100
AcDbBlockTableRecord
  2
_FILLED
  0
ENDTAB
  0
TABLE
  2
DIMSTYLE
  5
A
100
AcDbSymbolTable
 70
1
100
AcDbDimStyleTable
 71
0
  0
DIMSTYLE
105
216
100
AcDbSymbolTableRecord
100
AcDbDimStyleTableRecord
  2
STANDARD
 70
0
  3

  4

 40
1.0
 41
3.0
 42
0.5
 43
0.38
 44
1.5
 45
0.0
 46
0.0
 47
0.01
 48
0.01
140
3.0
141
0.09
142
0.0
143
25.4
144
1.0
145
0.0
146
1.0
147
0.625
 71
1
 72
0
 73
0
 74
0
 75
0
 76
0
 77
1
 78
8
 79
2
170
0
171
1
172
0
173
0
174
0
175
0
176
0
177
0
178
0
270
2
179
2
271
2
272
2
273
2
274
2
275
0
280
0
281
0
282
0
283
1
284
8
285
0
286
0
287
3
288
0
340
11
278
44
341
215
342
215
343
215
344
215
  0
ENDTAB
  0
ENDSEC
  0
SECTION
  2
BLOCKS
  0
BLOCK
  5
20
100
AcDbEntity
  8
0
100
AcDbBlockBegin
  2
*Model_Space
 70
0
 10
0.0
 20
0.0
 30
0.0
  3
*Model_Space
  1

  0
ENDBLK
  5
21
100
AcDbEntity
  8
0
100
AcDbBlockEnd
  0
BLOCK
  5
1C
100
AcDbEntity
  8
0
100
AcDbBlockBegin
  2
*Paper_Space
 70
0
 10
0.0
 20
0.0
 30
0.0
  3
*Paper_Space
  1

  0
ENDBLK
  5
1D
100
AcDbEntity
  8
0
100
AcDbBlockEnd
  0
BLOCK
  5
217
100
AcDbEntity
  8
0
100
AcDbBlockBegin
  2
_FILLED
 70
64
 10
0.0
 20
0.0
  3
_FILLED
  1

  0
SOLID
  5
218
100
AcDbEntity
  8
0
  6
BYBLOCK
 62
0
100
AcDbTrace
 10
0.0
 20
0.0
 11
-1.0
 21
0.3166666667
 12
-1.0
 22
-0.3166666667
 13
-1.0
 23
-0.3166666667
  0
ENDBLK
  5
219
100
AcDbEntity
  8
0
  6
BYBLOCK
 62
0
100
AcDbBlockEnd
  0
ENDSEC
  0
SECTION
  2
ENTITIES
  0
LINE
  5
21A
100
AcDbEntity
  8
CURVE
100
AcDbLine
 62
250
  6
CONTINUOUS
 10
-16.1856761955
 20
11.2000380762
 11
-16.4999619238
 21
10.7286094673
  0
LINE
  5
21B
100
AcDbEntity
  8
CURVE
100
AcDbLine
 62
250
  6
CONTINUOUS
 10
-14.4571048371
 20
11.2000380762
 11
-14.7713905327
 21
10.7286094673
  0
LINE
  5
21C
100
AcDbEntity
  8
CURVE
100
AcDbLine
 62
250
  6
CONTINUOUS
 10
-16.4999619238
 20
9.0000380762
 11
-15.3999619238
 21
10.5714666851
  0
LINE
  5
21D
100
AcDbEntity
  8
CURVE
100
AcDbLine
 62
250
  6
CONTINUOUS
 10
-15.3999619238
 20
10.5714666851
 11
-15.3999619238
 21
10.8857523807
  0
LINE
  5
21E
100
AcDbEntity
  8
CURVE
100
AcDbLine
 62
250
  6
CONTINUOUS
 10
-13.0428191416
 20
10.5714666851
 11
-12.8856760971
 21
10.8857523807
  0
LINE
  5
21F
100
AcDbEntity
  8
CURVE
100
AcDbLine
 62
250
  6
CONTINUOUS
 10
-11.9428191416
 20
9.6286095329
 11
-12.0999619238
 21
9.3143238045
  0
LINE
  5
220
100
AcDbEntity
  8
CURVE
100
AcDbLine
 62
250
  6
CONTINUOUS
 10
-14.7713905327
 20
9.0000380762
 11
-13.6713905327
 21
10.5714666851
  0
LINE
  5
221
100
AcDbEntity
  8
CURVE
100
AcDbLine
 62
250
  6
CONTINUOUS
 10
-12.8856760971
 20
10.8857523807
 11
-12.5713905327
 21
11.2000380762
  0
LINE
  5
222
100
AcDbEntity
  8
CURVE
100
AcDbLine
 62
250
  6
CONTINUOUS
 10
-12.0999619238
 20
9.3143238045
 11
-12.4142477505
 21
9.0000380762
  0
LINE
  5
223
100
AcDbEntity
  8
CURVE
100
AcDbLine
 62
250
  6
CONTINUOUS
 10
14.0066222405
 20
-17.3240780629
 11
13.4351939416
 21
-17.3240780629
  0
LINE
  5
224
100
AcDbEntity
  8
CURVE
100
AcDbLine
 62
250
  6
CONTINUOUS
 10
-12.3743305946
 20
-17.3240780629
 11
-11.6600448632
 21
-17.3240780629
  0
LINE
  5
225
100
AcDbEntity
  8
CURVE
100
AcDbLine
 62
250
  6
CONTINUOUS
 10
12.5780505395
 20
-17.3240780629
 11
12.2923354363
 21
-17.3240780629
  0
LINE
  5
226
100
AcDbEntity
  8
CURVE
100
AcDbLine
 62
250
  6
CONTINUOUS
 10
-11.0886163259
 20
-17.3240780629
 11
-10.2314735198
 21
-17.3240780629
  0
LINE
  5
227
100
AcDbEntity
  8
CURVE
100
AcDbLine
 62
250
  6
CONTINUOUS
 10
10.3875750756
 20
-17.3240780629
 11
9.6732882714
 21
-17.3240780629
  0
LINE
  5
228
100
AcDbEntity
  8
CURVE
100
AcDbLine
 62
250
  6
CONTINUOUS
 10
1.5780505395
 20
-17.3240780629
 11
1.29233639
 21
-17.3240780629
  0
LINE
  5
229
100
AcDbEntity
  8
CURVE
100
AcDbLine
 62
250
  6
CONTINUOUS
 10
-0.2790928626
 20
-17.3240780629
 11
0.29233639
 21
-17.3240780629
  0
LINE
  5
22A
100
AcDbEntity
  8
CURVE
100
AcDbLine
 62
250
  6
CONTINUOUS
 10
2.5780505395
 20
-17.3240780629
 11
3.1494788384
 21
-17.3240780629
  0
LINE
  5
22B
100
AcDbEntity
  8
CURVE
100
AcDbLine
 62
250
  6
CONTINUOUS
 10
-4.2790928626
 20
-17.3240780629
 11
-4.5648070121
 21
-17.3240780629
  0
LINE
  5
22C
100
AcDbEntity
  8
CURVE
100
AcDbLine
 62
250
  6
CONTINUOUS
 10
7.3399543023
 20
-17.3240780629
 11
8.0542411065
 21
-17.3240780629
  0
LINE
  5
22D
100
AcDbEntity
  8
CURVE
100
AcDbLine
 62
250
  6
CONTINUOUS
 10
-8.9457591319
 20
-17.3240780629
 11
-9.6600449824
 21
-17.3240780629
  0
LINE
  5
22E
100
AcDbEntity
  8
CURVE
100
AcDbLine
 62
250
  6
CONTINUOUS
 10
14.0066222405
 20
-16.6097923315
 11
13.1494788384
 21
-16.6097923315
  0
LINE
  5
22F
100
AcDbEntity
  8
CURVE
100
AcDbLine
 62
250
  6
CONTINUOUS
 10
-10.5171877885
 20
-16.1812208689
 11
-11.0886163259
 21
-16.1812208689
  0
LINE
  5
230
100
AcDbEntity
  8
CURVE
100
AcDbLine
 62
250
  6
CONTINUOUS
 10
-6.2790923858
 20
-15.8955066002
 11
-5.5648070121
 21
-15.8955066002
  0
LINE
  5
231
100
AcDbEntity
  8
CURVE
100
AcDbLine
 62
250
  6
CONTINUOUS
 10
-4.5648070121
 20
-15.8955066002
 11
-4.2790928626
 21
-15.8955066002
  0
LINE
  5
232
100
AcDbEntity
  8
CURVE
100
AcDbLine
 62
250
  6
CONTINUOUS
 10
-3.4219494605
 20
-15.8955066002
 11
-2.70766361
 21
-15.8955066002
  0
LINE
  5
233
100
AcDbEntity
  8
CURVE
100
AcDbLine
 62
250
  6
CONTINUOUS
 10
-0.2790928626
 20
-15.8955066002
 11
0.29233639
 21
-15.8955066002
  0
LINE
  5
234
100
AcDbEntity
  8
CURVE
100
AcDbLine
 62
250
  6
CONTINUOUS
 10
1.29233639
 20
-15.8955066002
 11
1.5780505395
 21
-15.8955066002
  0
LINE
  5
235
100
AcDbEntity
  8
CURVE
100
AcDbLine
 62
250
  6
CONTINUOUS
 10
2.5780505395
 20
-15.8955066002
 11
3.1494788384
 21
-15.8955066002
  0
LINE
  5
236
100
AcDbEntity
  8
CURVE
100
AcDbLine
 62
250
  6
CONTINUOUS
 10
3.8637637353
 20
-15.8955066002
 11
4.4351939416
 21
-15.8955066002
  0
LINE
  5
237
100
AcDbEntity
  8
CURVE
100
AcDbLine
 62
250
  6
CONTINUOUS
 10
6.0542411065
 20
-15.8955066002
 11
6.6256694054
 21
-15.8955066002
  0
LINE
  5
238
100
AcDbEntity
  8
CURVE
100
AcDbLine
 62
250
  6
CONTINUOUS
 10
9.6732882714
 20
-15.8955066002
 11
10.3875750756
 21
-15.8955066002
  0
LINE
  5
239
100
AcDbEntity
  8
CURVE
100
AcDbLine
 62
250
  6
CONTINUOUS
 10
13.4351939416
 20
-15.8955066002
 11
13.7209071374
 21
-15.8955066002
  0
LINE
  5
23A
100
AcDbEntity
  8
CURVE
100
AcDbLine
 62
250
  6
CONTINUOUS
 10
-11.0886163259
 20
-15.3240780629
 11
-10.2314735198
 21
-15.3240780629
  0
LINE
  5
23B
100
AcDbEntity
  8
CURVE
100
AcDbLine
 62
250
  6
CONTINUOUS
 10
-9.6600449824
 20
-15.3240780629
 11
-8.9457591319
 21
-15.3240780629
  0
LINE
  5
23C
100
AcDbEntity
  8
CURVE
100
AcDbLine
 62
250
  6
CONTINUOUS
 10
5.2923354363
 20
-15.3240780629
 11
5.3399543023
 21
-15.3240780629
  0
LINE
  5
23D
100
AcDbEntity
  8
CURVE
100
AcDbLine
 62
250
  6
CONTINUOUS
 10
8.9113845086
 20
-15.3240780629
 11
8.9590033746
 21
-15.3240780629
  0
LINE
  5
23E
100
AcDbEntity
  8
CURVE
100
AcDbLine
 62
250
  6
CONTINUOUS
 10
11.3875750756
 20
-15.3240780629
 11
11.4351939416
 21
-15.3240780629
  0
LINE
  5
23F
100
AcDbEntity
  8
CURVE
100
AcDbLine
 62
250
  6
CONTINUOUS
 10
0.29233639
 20
-16.6574113763
 11
-0.2790928626
 21
-16.5621732868
  0
LINE
  5
240
100
AcDbEntity
  8
CURVE
100
AcDbLine
 62
250
  6
CONTINUOUS
 10
3.1494788384
 20
-16.6574113763
 11
2.5780505395
 21
-16.5621732868
  0
LINE
  5
241
100
AcDbEntity
  8
CURVE
100
AcDbLine
 62
250
  6
CONTINUOUS
 10
-10.2419619238
 20
-12.4459619238
 11
-10.1179619238
 21
-12.5599619238
  0
LINE
  5
242
100
AcDbEntity
  8
CURVE
100
AcDbLine
 62
250
  6
CONTINUOUS
 10
-9.6639619238
 20
-11.4539619238
 11
-9.7919619238
 21
-11.3339619238
  0
LINE
  5
243
100
AcDbEntity
  8
CURVE
100
AcDbLine
 62
250
  6
CONTINUOUS
 10
-8.9457591319
 20
-15.3240780629
 11
-8.6600449824
 21
-15.6097923315
  0
LINE
  5
244
100
AcDbEntity
  8
CURVE
100
AcDbLine
 62
250
  6
CONTINUOUS
 10
-4.5648070121
 20
-17.3240780629
 11
-4.8505211616
 21
-17.0383637644
  0
LINE
  5
245
100
AcDbEntity
  8
CURVE
100
AcDbLine
 62
250
  6
CONTINUOUS
 10
-5.5648070121
 20
-15.8955066002
 11
-5.4219494605
 21
-16.0383637942
  0
LINE
  5
246
100
AcDbEntity
  8
CURVE
100
AcDbLine
 62
250
  6
CONTINUOUS
 10
-12.5819619238
 20
-9.3979619238
 11
-12.0759619238
 21
-10.6979619238
  0
LINE
  5
247
100
AcDbEntity
  8
CURVE
100
AcDbLine
 62
250
  6
CONTINUOUS
 10
-13.6713905327
 20
10.5714666851
 11
-13.6713905327
 21
10.8857523807
  0
LINE
  5
248
100
AcDbEntity
  8
CURVE
100
AcDbLine
 62
250
  6
CONTINUOUS
 10
-13.0428191416
 20
9.6286095329
 11
-13.0428191416
 21
10.5714666851
  0
LINE
  5
249
100
AcDbEntity
  8
CURVE
100
AcDbLine
 62
250
  6
CONTINUOUS
 10
-12.4999619238
 20
-13.1999619238
 11
-12.4999619238
 21
-14.4999619238
  0
LINE
  5
24A
100
AcDbEntity
  8
CURVE
100
AcDbLine
 62
250
  6
CONTINUOUS
 10
-12.3743305946
 20
-15.3240780629
 11
-12.3743305946
 21
-17.3240780629
  0
LINE
  5
24B
100
AcDbEntity
  8
CURVE
100
AcDbLine
 62
250
  6
CONTINUOUS
 10
-9.4285335772
 20
11.2000380762
 11
-9.7428191416
 21
10.7286094673
  0
LINE
  5
24C
100
AcDbEntity
  8
CURVE
100
AcDbLine
 62
250
  6
CONTINUOUS
 10
-9.7428191416
 20
9.0000380762
 11
-8.6428191416
 21
10.5714666851
  0
LINE
  5
24D
100
AcDbEntity
  8
RACCORDO
100
AcDbLine
 62
250
  6
CONTINUOUS
 10
-16.4131040673
 20
0.0230787257
 11
-16.7174847818
 21
-0.3735979445
  0
LINE
  5
24E
100
AcDbEntity
  8
RACCORDO
100
AcDbLine
 62
7
  6
CONTINUOUS
 10
-11.009279428
 20
7.1798754376
 11
-16.7174847818
 21
2.7998154167
  0
LINE
  5
24F
100
AcDbEntity
  8
CURVE
100
AcDbLine
 62
250
  6
CONTINUOUS
 10
-9.3459619238
 20
-14.4999619238
 11
-8.6019619238
 21
-14.4999619238
  0
LINE
  5
250
100
AcDbEntity
  8
CURVE
100
AcDbLine
 62
250
  6
CONTINUOUS
 10
-10.6579619238
 20
-14.1219619238
 11
-9.8179619238
 21
-14.1219619238
  0
LINE
  5
251
100
AcDbEntity
  8
CURVE
100
AcDbLine
 62
250
  6
CONTINUOUS
 10
17.0924000762
 20
-13.4999619238
 11
12.9076760762
 21
-13.4999619238
  0
LINE
  5
252
100
AcDbEntity
  8
CURVE
100
AcDbLine
 62
250
  6
CONTINUOUS
 10
-12.1719619238
 20
-13.1999619238
 11
-11.0699619238
 21
-13.1999619238
  0
LINE
  5
253
100
AcDbEntity
  8
CURVE
100
AcDbLine
 62
250
  6
CONTINUOUS
 10
12.9076760762
 20
-12.4809499238
 11
17.0924000762
 21
-12.4809499238
  0
LINE
  5
254
100
AcDbEntity
  8
CURVE
100
AcDbLine
 62
250
  6
CONTINUOUS
 10
-10.1179619238
 20
-12.5599619238
 11
-9.9559619238
 21
-12.5959619238
  0
LINE
  5
255
100
AcDbEntity
  8
CURVE
100
AcDbLine
 62
250
  6
CONTINUOUS
 10
-9.7919619238
 20
-11.3339619238
 11
-9.9539619238
 21
-11.2979619238
  0
LINE
  5
256
100
AcDbEntity
  8
CURVE
100
AcDbLine
 62
250
  6
CONTINUOUS
 10
-0.2790928626
 20
-16.5621732868
 11
-0.4219494605
 21
-16.4669351972
  0
LINE
  5
257
100
AcDbEntity
  8
CURVE
100
AcDbLine
 62
250
  6
CONTINUOUS
 10
0.4351929879
 20
-16.7526494659
 11
0.29233639
 21
-16.6574113763
  0
LINE
  5
258
100
AcDbEntity
  8
CURVE
100
AcDbLine
 62
250
  6
CONTINUOUS
 10
2.5780505395
 20
-16.5621732868
 11
2.4351929879
 21
-16.4669351972
  0
LINE
  5
259
100
AcDbEntity
  8
CURVE
100
AcDbLine
 62
250
  6
CONTINUOUS
 10
-4.2790928626
 20
-15.8955066002
 11
-3.9933777595
 21
-16.1812208689
  0
LINE
  5
25A
100
AcDbEntity
  8
CURVE
100
AcDbLine
 62
250
  6
CONTINUOUS
 10
-2.70766361
 20
-15.8955066002
 11
-2.5648070121
 21
-16.0383637942
  0
LINE
  5
25B
100
AcDbEntity
  8
CURVE
100
AcDbLine
 62
250
  6
CONTINUOUS
 10
-0.4219494605
 20
-17.1812209136
 11
-0.2790928626
 21
-17.3240780629
  0
LINE
  5
25C
100
AcDbEntity
  8
CURVE
100
AcDbLine
 62
250
  6
CONTINUOUS
 10
-8.1859619238
 20
-13.1999619238
 11
-7.7079619238
 21
-13.9299619238
  0
LINE
  5
25D
100
AcDbEntity
  8
CURVE
100
AcDbLine
 62
250
  6
CONTINUOUS
 10
-10.2099619238
 20
-13.1999619238
 11
-9.6579619238
 21
-14.4999619238
  0
LINE
  5
25E
100
AcDbEntity
  8
CURVE
100
AcDbLine
 62
250
  6
CONTINUOUS
 10
-10.1999619238
 20
-9.3979619238
 11
-9.6499619238
 21
-10.6979619238
  0
LINE
  5
25F
100
AcDbEntity
  8
CURVE
100
AcDbLine
 62
250
  6
CONTINUOUS
 10
-10.6739619238
 20
-7.4839619238
 11
-10.1399619238
 21
-8.7619619238
  0
LINE
  5
260
100
AcDbEntity
  8
CURVE
100
AcDbLine
 62
250
  6
CONTINUOUS
 10
-12.5759619238
 20
-7.4839619238
 11
-12.0699619238
 21
-8.7839619238
  0
LINE
  5
261
100
AcDbEntity
  8
CURVE
100
AcDbLine
 62
250
  6
CONTINUOUS
 10
-11.9428191416
 20
10.5714666851
 11
-11.9428191416
 21
9.6286095329
  0
LINE
  5
262
100
AcDbEntity
  8
CURVE
100
AcDbLine
 62
250
  6
CONTINUOUS
 10
-11.6159619238
 20
-14.4999619238
 11
-11.6159619238
 21
-13.1999619238
  0
LINE
  5
263
100
AcDbEntity
  8
CURVE
100
AcDbLine
 62
250
  6
CONTINUOUS
 10
-11.1759619238
 20
-9.3979619238
 11
-11.1759619238
 21
-10.6979619238
  0
LINE
  5
264
100
AcDbEntity
  8
CURVE
100
AcDbLine
 62
250
  6
CONTINUOUS
 10
-11.1699619238
 20
-7.4839619238
 11
-11.1699619238
 21
-8.7839619238
  0
LINE
  5
265
100
AcDbEntity
  8
CURVE
100
AcDbLine
 62
250
  6
CONTINUOUS
 10
-11.0886163259
 20
-17.3240780629
 11
-11.0886163259
 21
-15.3240780629
  0
LINE
  5
266
100
AcDbEntity
  8
CURVE
100
AcDbLine
 62
250
  6
CONTINUOUS
 10
-10.7639619238
 20
-8.7839619238
 11
-10.7639619238
 21
-7.4839619238
  0
LINE
  5
267
100
AcDbEntity
  8
CURVE
100
AcDbLine
 62
250
  6
CONTINUOUS
 10
-8.0142474882
 20
9.4714666523
 11
-7.5428186171
 21
11.2000380762
  0
LINE
  5
268
100
AcDbEntity
  8
CURVE
100
AcDbLine
 62
250
  6
CONTINUOUS
 10
-6.2856763594
 20
10.5714666851
 11
-6.1285330526
 21
10.8857523807
  0
LINE
  5
269
100
AcDbEntity
  8
CURVE
100
AcDbLine
 62
250
  6
CONTINUOUS
 10
-6.1285330526
 20
10.8857523807
 11
-5.8142474882
 21
11.2000380762
  0
LINE
  5
26A
100
AcDbEntity
  8
CURVE
100
AcDbLine
 62
250
  6
CONTINUOUS
 10
-5.3428186171
 20
9.3143238045
 11
-5.6571052305
 21
9.0000380762
  0
LINE
  5
26B
100
AcDbEntity
  8
RACCORDO
100
AcDbLine
 62
250
  6
CONTINUOUS
 10
-10.7048987135
 20
6.7831987674
 11
-16.4131040673
 21
2.4031387466
  0
LINE
  5
26C
100
AcDbEntity
  8
CURVE
100
AcDbLine
 62
250
  6
CONTINUOUS
 10
-2.6713907949
 20
9.6809904821
 11
-2.3047234289
 21
9.8381333299
  0
LINE
  5
26D
100
AcDbEntity
  8
CURVE
100
AcDbLine
 62
250
  6
CONTINUOUS
 10
-9.9559619238
 20
-12.5959619238
 11
-9.7919619238
 21
-12.5699619238
  0
LINE
  5
26E
100
AcDbEntity
  8
CURVE
100
AcDbLine
 62
250
  6
CONTINUOUS
 10
-4.0719619238
 20
-12.2219619238
 11
-3.2319619238
 21
-12.2219619238
  0
LINE
  5
26F
100
AcDbEntity
  8
CURVE
100
AcDbLine
 62
250
  6
CONTINUOUS
 10
4.4100380762
 20
-12.2219619238
 11
5.2480380762
 21
-12.2219619238
  0
LINE
  5
270
100
AcDbEntity
  8
CURVE
100
AcDbLine
 62
250
  6
CONTINUOUS
 10
1.1340380762
 20
-11.2999619238
 11
2.2380380762
 21
-11.2999619238
  0
LINE
  5
271
100
AcDbEntity
  8
CURVE
100
AcDbLine
 62
250
  6
CONTINUOUS
 10
14.4379535042
 20
-10.9130998321
 11
14.2990437913
 21
-10.9130998321
  0
LINE
  5
272
100
AcDbEntity
  8
CURVE
100
AcDbLine
 62
250
  6
CONTINUOUS
 10
-9.3379619238
 20
-10.6979619238
 11
-8.5939619238
 21
-10.6979619238
  0
LINE
  5
273
100
AcDbEntity
  8
CURVE
100
AcDbLine
 62
250
  6
CONTINUOUS
 10
-8.2439619238
 20
-10.6979619238
 11
-7.4039619238
 21
-10.6979619238
  0
LINE
  5
274
100
AcDbEntity
  8
CURVE
100
AcDbLine
 62
250
  6
CONTINUOUS
 10
-2.8099619238
 20
-10.6979619238
 11
-1.9699619238
 21
-10.6979619238
  0
LINE
  5
275
100
AcDbEntity
  8
CURVE
100
AcDbLine
 62
250
  6
CONTINUOUS
 10
0.7460380762
 20
-10.6979619238
 11
-0.2379619238
 21
-10.6979619238
  0
LINE
  5
276
100
AcDbEntity
  8
CURVE
100
AcDbLine
 62
250
  6
CONTINUOUS
 10
14.2990437913
 20
-10.6863888724
 11
14.4379535042
 21
-10.6863888724
  0
LINE
  5
277
100
AcDbEntity
  8
CURVE
100
AcDbLine
 62
250
  6
CONTINUOUS
 10
14.2252120762
 20
-10.6704779238
 11
15.5710790762
 21
-10.6704779238
  0
LINE
  5
278
100
AcDbEntity
  8
CURVE
100
AcDbLine
 62
250
  6
CONTINUOUS
 10
5.2580380762
 20
-10.3599619238
 11
4.4220380762
 21
-10.3599619238
  0
LINE
  5
279
100
AcDbEntity
  8
CURVE
100
AcDbLine
 62
250
  6
CONTINUOUS
 10
-10.6499619238
 20
-10.3199619238
 11
-9.8099619238
 21
-10.3199619238
  0
LINE
  5
27A
100
AcDbEntity
  8
CURVE
100
AcDbLine
 62
250
  6
CONTINUOUS
 10
1.1680380762
 20
-10.3199619238
 11
2.0060380762
 21
-10.3199619238
  0
LINE
  5
27B
100
AcDbEntity
  8
CURVE
100
AcDbLine
 62
250
  6
CONTINUOUS
 10
-2.0439619238
 20
-10.0159619238
 11
-2.8099619238
 21
-10.0159619238
  0
LINE
  5
27C
100
AcDbEntity
  8
CURVE
100
AcDbLine
 62
250
  6
CONTINUOUS
 10
-7.4779619238
 20
-10.0159619238
 11
-8.2439619238
 21
-10.0159619238
  0
LINE
  5
27D
100
AcDbEntity
  8
CURVE
100
AcDbLine
 62
250
  6
CONTINUOUS
 10
3.29233639
 20
-16.7526494659
 11
3.1494788384
 21
-16.6574113763
  0
LINE
  5
27E
100
AcDbEntity
  8
RACCORDO
100
AcDbLine
 62
7
  6
CONTINUOUS
 10
-16.7174847818
 20
-0.3735979445
 11
-11.009279428
 21
-4.7536579653
  0
LINE
  5
27F
100
AcDbEntity
  8
RACCORDO
100
AcDbLine
 62
250
  6
CONTINUOUS
 10
-16.4131040673
 20
0.0230787257
 11
-10.7048987135
 21
-4.3569812952
  0
LINE
  5
280
100
AcDbEntity
  8
CURVE
100
AcDbLine
 62
250
  6
CONTINUOUS
 10
1.29233639
 20
-17.3240780629
 11
1.0066222405
 21
-17.0383637644
  0
LINE
  5
281
100
AcDbEntity
  8
CURVE
100
AcDbLine
 62
250
  6
CONTINUOUS
 10
0.29233639
 20
-15.8955066002
 11
0.4351929879
 21
-16.0383637942
  0
LINE
  5
282
100
AcDbEntity
  8
CURVE
100
AcDbLine
 62
250
  6
CONTINUOUS
 10
2.4351929879
 20
-17.1812209136
 11
2.5780505395
 21
-17.3240780629
  0
LINE
  5
283
100
AcDbEntity
  8
CURVE
100
AcDbLine
 62
250
  6
CONTINUOUS
 10
1.5780505395
 20
-15.8955066002
 11
1.863764689
 21
-16.1812208689
  0
LINE
  5
284
100
AcDbEntity
  8
RACCORDO
100
AcDbLine
 62
250
  6
CONTINUOUS
 10
-16.4131040673
 20
2.4031387466
 11
-16.7174847818
 21
2.7998154167
  0
LINE
  5
285
100
AcDbEntity
  8
CURVE
100
AcDbLine
 62
250
  6
CONTINUOUS
 10
-7.2219619238
 20
-8.1619619238
 11
-6.8539619238
 21
-8.7779619238
  0
LINE
  5
286
100
AcDbEntity
  8
CURVE
100
AcDbLine
 62
250
  6
CONTINUOUS
 10
-8.5679619238
 20
-7.4839619238
 11
-8.0159619238
 21
-8.7839619238
  0
LINE
  5
287
100
AcDbEntity
  8
CURVE
100
AcDbLine
 62
250
  6
CONTINUOUS
 10
-9.6600449824
 20
-17.3240780629
 11
-9.6600449824
 21
-15.3240780629
  0
LINE
  5
288
100
AcDbEntity
  8
CURVE
100
AcDbLine
 62
250
  6
CONTINUOUS
 10
-9.5039619238
 20
-7.4839619238
 11
-9.5039619238
 21
-8.7839619238
  0
LINE
  5
289
100
AcDbEntity
  8
CURVE
100
AcDbLine
 62
250
  6
CONTINUOUS
 10
-9.3459619238
 20
-13.1999619238
 11
-9.3459619238
 21
-14.4999619238
  0
LINE
  5
28A
100
AcDbEntity
  8
CURVE
100
AcDbLine
 62
250
  6
CONTINUOUS
 10
-9.3379619238
 20
-9.3979619238
 11
-9.3379619238
 21
-10.6979619238
  0
LINE
  5
28B
100
AcDbEntity
  8
CURVE
100
AcDbLine
 62
250
  6
CONTINUOUS
 10
-8.6600449824
 20
-15.6097923315
 11
-8.6600449824
 21
-17.0383637644
  0
LINE
  5
28C
100
AcDbEntity
  8
CURVE
100
AcDbLine
 62
250
  6
CONTINUOUS
 10
-8.6428191416
 20
10.5714666851
 11
-8.6428191416
 21
10.8857523807
  0
LINE
  5
28D
100
AcDbEntity
  8
CURVE
100
AcDbLine
 62
250
  6
CONTINUOUS
 10
-8.2439619238
 20
-9.3979619238
 11
-8.2439619238
 21
-10.6979619238
  0
LINE
  5
28E
100
AcDbEntity
  8
RACCORDO
100
AcDbLine
 62
250
  6
CONTINUOUS
 10
-7.965472283
 20
-5.2868912639
 11
-7.965472283
 21
-5.7868912639
  0
LINE
  5
28F
100
AcDbEntity
  8
RACCORDO
100
AcDbLine
 62
250
  6
CONTINUOUS
 10
-7.965472283
 20
7.7131087361
 11
-7.965472283
 21
8.2131087361
  0
LINE
  5
290
100
AcDbEntity
  8
CURVE
100
AcDbLine
 62
250
  6
CONTINUOUS
 10
-7.7079619238
 20
-14.4999619238
 11
-7.7079619238
 21
-13.9299619238
  0
LINE
  5
291
100
AcDbEntity
  8
CURVE
100
AcDbLine
 62
250
  6
CONTINUOUS
 10
-7.5999619238
 20
-8.7839619238
 11
-7.5999619238
 21
-7.4839619238
  0
LINE
  5
292
100
AcDbEntity
  8
CURVE
100
AcDbLine
 62
250
  6
CONTINUOUS
 10
-7.2809138052
 20
9.0000380762
 11
-7.2809138052
 21
10.1000380762
  0
LINE
  5
293
100
AcDbEntity
  8
CURVE
100
AcDbLine
 62
250
  6
CONTINUOUS
 10
-12.0359619238
 20
-8.7839619238
 11
-11.5259619238
 21
-7.4839619238
  0
LINE
  5
294
100
AcDbEntity
  8
CURVE
100
AcDbLine
 62
250
  6
CONTINUOUS
 10
-12.0419619238
 20
-10.6979619238
 11
-11.5299619238
 21
-9.3979619238
  0
LINE
  5
295
100
AcDbEntity
  8
CURVE
100
AcDbLine
 62
250
  6
CONTINUOUS
 10
-5.1856763594
 20
9.6286095329
 11
-5.3428186171
 21
9.3143238045
  0
LINE
  5
296
100
AcDbEntity
  8
CURVE
100
AcDbLine
 62
250
  6
CONTINUOUS
 10
-1.8856763594
 20
9.5238476016
 11
-1.4666282408
 21
9.6809904821
  0
LINE
  5
297
100
AcDbEntity
  8
CURVE
100
AcDbLine
 62
250
  6
CONTINUOUS
 10
-9.9539619238
 20
-11.2979619238
 11
-10.1179619238
 21
-11.3359619238
  0
LINE
  5
298
100
AcDbEntity
  8
CURVE
100
AcDbLine
 62
250
  6
CONTINUOUS
 10
15.6294466404
 20
-8.1096453596
 11
14.7881080762
 21
-8.1360469238
  0
LINE
  5
299
100
AcDbEntity
  8
CURVE
100
AcDbLine
 62
250
  6
CONTINUOUS
 10
-1.9819619238
 20
-9.3979619238
 11
-2.8099619238
 21
-9.3979619238
  0
LINE
  5
29A
100
AcDbEntity
  8
CURVE
100
AcDbLine
 62
250
  6
CONTINUOUS
 10
-7.4159619238
 20
-9.3979619238
 11
-8.2439619238
 21
-9.3979619238
  0
LINE
  5
29B
100
AcDbEntity
  8
CURVE
100
AcDbLine
 62
250
  6
CONTINUOUS
 10
0.6500380762
 20
-9.3959619238
 11
-0.2939619238
 21
-9.3959619238
  0
LINE
  5
29C
100
AcDbEntity
  8
CURVE
100
AcDbLine
 62
250
  6
CONTINUOUS
 10
-9.0159619238
 20
-8.4059619238
 11
-8.1779619238
 21
-8.4059619238
  0
LINE
  5
29D
100
AcDbEntity
  8
CURVE
100
AcDbLine
 62
250
  6
CONTINUOUS
 10
-2.4899619238
 20
-8.4059619238
 11
-1.6519619238
 21
-8.4059619238
  0
LINE
  5
29E
100
AcDbEntity
  8
CURVE
100
AcDbLine
 62
250
  6
CONTINUOUS
 10
14.7881080762
 20
-8.3516829238
 11
15.6114480762
 21
-8.3516829238
  0
LINE
  5
29F
100
AcDbEntity
  8
CURVE
100
AcDbLine
 62
250
  6
CONTINUOUS
 10
16.4179850762
 20
-8.0436309238
 11
16.0679250762
 21
-8.0436309238
  0
LINE
  5
2A0
100
AcDbEntity
  8
CURVE
100
AcDbLine
 62
250
  6
CONTINUOUS
 10
16.0679250762
 20
-7.6711669238
 11
16.4179850762
 21
-7.6711669238
  0
LINE
  5
2A1
100
AcDbEntity
  8
CURVE
100
AcDbLine
 62
250
  6
CONTINUOUS
 10
-7.5999619238
 20
-7.4839619238
 11
-7.1699619238
 21
-7.4839619238
  0
LINE
  5
2A2
100
AcDbEntity
  8
CURVE
100
AcDbLine
 62
250
  6
CONTINUOUS
 10
-3.7959619238
 20
-7.4839619238
 11
-3.3919619238
 21
-7.4839619238
  0
LINE
  5
2A3
100
AcDbEntity
  8
CURVE
100
AcDbLine
 62
250
  6
CONTINUOUS
 10
13.6900650685
 20
-7.3084183764
 11
16.1317894422
 21
-7.3084183764
  0
LINE
  5
2A4
100
AcDbEntity
  8
CURVE
100
AcDbLine
 62
250
  6
CONTINUOUS
 10
3.1494788384
 20
-15.8955066002
 11
3.29233639
 21
-16.0383637942
  0
LINE
  5
2A5
100
AcDbEntity
  8
CURVE
100
AcDbLine
 62
250
  6
CONTINUOUS
 10
-2.2779619238
 20
-11.9779619238
 11
-1.9099619238
 21
-12.5939619238
  0
LINE
  5
2A6
100
AcDbEntity
  8
CURVE
100
AcDbLine
 62
250
  6
CONTINUOUS
 10
-12.8856760971
 20
9.3143238045
 11
-13.0428191416
 21
9.6286095329
  0
LINE
  5
2A7
100
AcDbEntity
  8
CURVE
100
AcDbLine
 62
250
  6
CONTINUOUS
 10
-3.6239619238
 20
-11.2999619238
 11
-3.0719619238
 21
-12.5999619238
  0
LINE
  5
2A8
100
AcDbEntity
  8
CURVE
100
AcDbLine
 62
250
  6
CONTINUOUS
 10
-5.7299619238
 20
-11.2999619238
 11
-5.1959619238
 21
-12.5759619238
  0
LINE
  5
2A9
100
AcDbEntity
  8
CURVE
100
AcDbLine
 62
250
  6
CONTINUOUS
 10
-5.9099619238
 20
-9.3979619238
 11
-5.4039619238
 21
-10.6979619238
  0
LINE
  5
2AA
100
AcDbEntity
  8
CURVE
100
AcDbLine
 62
250
  6
CONTINUOUS
 10
-6.7645519238
 20
17.0372440762
 11
-6.7645519238
 21
16.2667180762
  0
LINE
  5
2AB
100
AcDbEntity
  8
CURVE
100
AcDbLine
 62
250
  6
CONTINUOUS
 10
-6.7645519238
 20
12.7333340762
 11
-6.7645519238
 21
11.9628080762
  0
LINE
  5
2AC
100
AcDbEntity
  8
CURVE
100
AcDbLine
 62
250
  6
CONTINUOUS
 10
-6.2856763594
 20
9.6286095329
 11
-6.2856763594
 21
10.5714666851
  0
LINE
  5
2AD
100
AcDbEntity
  8
CURVE
100
AcDbLine
 62
250
  6
CONTINUOUS
 10
-6.2790923858
 20
-17.3240780629
 11
-6.2790923858
 21
-15.8955066002
  0
LINE
  5
2AE
100
AcDbEntity
  8
CURVE
100
AcDbLine
 62
250
  6
CONTINUOUS
 10
-5.8199619238
 20
-12.5999619238
 11
-5.8199619238
 21
-11.2999619238
  0
LINE
  5
2AF
100
AcDbEntity
  8
CURVE
100
AcDbLine
 62
250
  6
CONTINUOUS
 10
-5.4219494605
 20
-16.0383637942
 11
-5.4219494605
 21
-17.3240780629
  0
LINE
  5
2B0
100
AcDbEntity
  8
CURVE
100
AcDbLine
 62
250
  6
CONTINUOUS
 10
-5.1856763594
 20
10.5714666851
 11
-5.1856763594
 21
9.6286095329
  0
LINE
  5
2B1
100
AcDbEntity
  8
CURVE
100
AcDbLine
 62
250
  6
CONTINUOUS
 10
-4.8505211616
 20
-17.0383637644
 11
-4.8505211616
 21
-16.1812208689
  0
LINE
  5
2B2
100
AcDbEntity
  8
CURVE
100
AcDbLine
 62
250
  6
CONTINUOUS
 10
-3.9285330526
 20
9.0000380762
 11
-3.2999619238
 21
11.2000380762
  0
LINE
  5
2B3
100
AcDbEntity
  8
CURVE
100
AcDbLine
 62
250
  6
CONTINUOUS
 10
-10.1399619238
 20
-8.7619619238
 11
-9.5999619238
 21
-7.4839619238
  0
LINE
  5
2B4
100
AcDbEntity
  8
CURVE
100
AcDbLine
 62
250
  6
CONTINUOUS
 10
-9.1759619238
 20
-8.7839619238
 11
-8.6259619238
 21
-7.4839619238
  0
LINE
  5
2B5
100
AcDbEntity
  8
CURVE
100
AcDbLine
 62
250
  6
CONTINUOUS
 10
-10.8099619238
 20
-10.6979619238
 11
-10.2579619238
 21
-9.3979619238
  0
LINE
  5
2B6
100
AcDbEntity
  8
RACCORDO
100
AcDbLine
 62
250
  6
CONTINUOUS
 10
-10.7048987135
 20
-4.3569812952
 11
-11.009279428
 21
-4.7536579653
  0
LINE
  5
2B7
100
AcDbEntity
  8
CURVE
100
AcDbLine
 62
250
  6
CONTINUOUS
 10
2.461941839
 20
10.8857523807
 11
2.7762284525
 21
11.2000380762
  0
LINE
  5
2B8
100
AcDbEntity
  8
CURVE
100
AcDbLine
 62
250
  6
CONTINUOUS
 10
1.361941839
 20
9.0000380762
 11
1.6762284525
 21
9.3143238045
  0
LINE
  5
2B9
100
AcDbEntity
  8
CURVE
100
AcDbLine
 62
250
  6
CONTINUOUS
 10
14.7143115997
 20
16.2703219896
 11
14.976216346
 21
16.4274647718
  0
LINE
  5
2BA
100
AcDbEntity
  8
CURVE
100
AcDbLine
 62
250
  6
CONTINUOUS
 10
16.285740143
 20
16.2703219896
 11
16.5476449549
 21
16.4274647718
  0
LINE
  5
2BB
100
AcDbEntity
  8
RACCORDO
100
AcDbLine
 62
7
  6
CONTINUOUS
 10
-7.965472283
 20
-5.7868912639
 11
7.9655484354
 21
-5.7868912639
  0
LINE
  5
2BC
100
AcDbEntity
  8
RACCORDO
100
AcDbLine
 62
250
  6
CONTINUOUS
 10
-7.965472283
 20
-5.2868912639
 11
7.9655484354
 21
-5.2868912639
  0
LINE
  5
2BD
100
AcDbEntity
  8
CURVE
100
AcDbLine
 62
250
  6
CONTINUOUS
 10
15.4161140762
 20
-7.0387169238
 11
14.8431110762
 21
-7.0381589238
  0
LINE
  5
2BE
100
AcDbEntity
  8
CURVE
100
AcDbLine
 62
250
  6
CONTINUOUS
 10
14.8431110762
 20
-6.8206649238
 11
15.4161140762
 21
-6.8212229238
  0
LINE
  5
2BF
100
AcDbEntity
  8
CURVE
100
AcDbLine
 62
250
  6
CONTINUOUS
 10
7.1970977044
 20
-17.1812209136
 11
7.3399543023
 21
-17.3240780629
  0
LINE
  5
2C0
100
AcDbEntity
  8
CURVE
100
AcDbLine
 62
250
  6
CONTINUOUS
 10
-1.5699619238
 20
-9.3979619238
 11
-0.6579619238
 21
-10.6979619238
  0
LINE
  5
2C1
100
AcDbEntity
  8
CURVE
100
AcDbLine
 62
250
  6
CONTINUOUS
 10
-12.0999619238
 20
10.8857523807
 11
-11.9428191416
 21
10.5714666851
  0
LINE
  5
2C2
100
AcDbEntity
  8
CURVE
100
AcDbLine
 62
250
  6
CONTINUOUS
 10
-2.0419619238
 20
-7.4839619238
 11
-1.4899619238
 21
-8.7839619238
  0
LINE
  5
2C3
100
AcDbEntity
  8
CURVE
100
AcDbLine
 62
250
  6
CONTINUOUS
 10
-4.5599619238
 20
-11.2999619238
 11
-4.5599619238
 21
-12.5999619238
  0
LINE
  5
2C4
100
AcDbEntity
  8
CURVE
100
AcDbLine
 62
250
  6
CONTINUOUS
 10
-4.5039619238
 20
-9.3979619238
 11
-4.5039619238
 21
-10.6979619238
  0
LINE
  5
2C5
100
AcDbEntity
  8
CURVE
100
AcDbLine
 62
250
  6
CONTINUOUS
 10
-3.9933777595
 20
-16.1812208689
 11
-3.9933777595
 21
-17.0383637644
  0
LINE
  5
2C6
100
AcDbEntity
  8
CURVE
100
AcDbLine
 62
250
  6
CONTINUOUS
 10
-3.7959619238
 20
-8.7839619238
 11
-3.7959619238
 21
-7.4839619238
  0
LINE
  5
2C7
100
AcDbEntity
  8
CURVE
100
AcDbLine
 62
250
  6
CONTINUOUS
 10
-3.4219494605
 20
-17.3240780629
 11
-3.4219494605
 21
-15.8955066002
  0
LINE
  5
2C8
100
AcDbEntity
  8
CURVE
100
AcDbLine
 62
250
  6
CONTINUOUS
 10
-2.9395519238
 20
14.8825260762
 11
-2.9395519238
 21
14.1175260762
  0
LINE
  5
2C9
100
AcDbEntity
  8
CURVE
100
AcDbLine
 62
250
  6
CONTINUOUS
 10
-2.8099619238
 20
-9.3979619238
 11
-2.8099619238
 21
-10.6979619238
  0
LINE
  5
2CA
100
AcDbEntity
  8
CURVE
100
AcDbLine
 62
250
  6
CONTINUOUS
 10
-2.6559619238
 20
-12.5999619238
 11
-2.6559619238
 21
-11.2999619238
  0
LINE
  5
2CB
100
AcDbEntity
  8
CURVE
100
AcDbLine
 62
250
  6
CONTINUOUS
 10
-2.5648070121
 20
-16.0383637942
 11
-2.5648070121
 21
-17.3240780629
  0
LINE
  5
2CC
100
AcDbEntity
  8
CURVE
100
AcDbLine
 62
250
  6
CONTINUOUS
 10
-2.4295519238
 20
17.0372440762
 11
-2.4295519238
 21
16.2667180762
  0
LINE
  5
2CD
100
AcDbEntity
  8
CURVE
100
AcDbLine
 62
250
  6
CONTINUOUS
 10
-2.4295519238
 20
12.7333340762
 11
-2.4295519238
 21
11.9628080762
  0
LINE
  5
2CE
100
AcDbEntity
  8
CURVE
100
AcDbLine
 62
250
  6
CONTINUOUS
 10
-10.8179619238
 20
-14.4999619238
 11
-10.2659619238
 21
-13.1999619238
  0
LINE
  5
2CF
100
AcDbEntity
  8
CURVE
100
AcDbLine
 62
250
  6
CONTINUOUS
 10
2.3047995813
 20
10.5714666851
 11
2.461941839
 21
10.8857523807
  0
LINE
  5
2D0
100
AcDbEntity
  8
CURVE
100
AcDbLine
 62
250
  6
CONTINUOUS
 10
3.2476573236
 20
9.3143238045
 11
2.9333707102
 21
9.0000380762
  0
LINE
  5
2D1
100
AcDbEntity
  8
CURVE
100
AcDbLine
 62
250
  6
CONTINUOUS
 10
6.4952765711
 20
11.2000380762
 11
6.0238476999
 21
10.7286094673
  0
LINE
  5
2D2
100
AcDbEntity
  8
CURVE
100
AcDbLine
 62
250
  6
CONTINUOUS
 10
7.5952765711
 20
10.8857523807
 11
7.9095610865
 21
11.2000380762
  0
LINE
  5
2D3
100
AcDbEntity
  8
CURVE
100
AcDbLine
 62
250
  6
CONTINUOUS
 10
10.3875750756
 20
-15.8955066002
 11
10.5304316735
 21
-16.0383637942
  0
LINE
  5
2D4
100
AcDbEntity
  8
CURVE
100
AcDbLine
 62
250
  6
CONTINUOUS
 10
12.2923354363
 20
-17.3240780629
 11
12.1494788384
 21
-17.1812209136
  0
LINE
  5
2D5
100
AcDbEntity
  8
CURVE
100
AcDbLine
 62
250
  6
CONTINUOUS
 10
-15.3999619238
 20
10.8857523807
 11
-15.7142476193
 21
11.2000380762
  0
LINE
  5
2D6
100
AcDbEntity
  8
CURVE
100
AcDbLine
 62
250
  6
CONTINUOUS
 10
13.4351939416
 20
-17.3240780629
 11
13.1494788384
 21
-17.0383637644
  0
LINE
  5
2D7
100
AcDbEntity
  8
CURVE
100
AcDbLine
 62
250
  6
CONTINUOUS
 10
-12.5713905327
 20
9.0000380762
 11
-12.8856760971
 21
9.3143238045
  0
LINE
  5
2D8
100
AcDbEntity
  8
RACCORDO
100
AcDbLine
 62
250
  6
CONTINUOUS
 10
-10.7048987135
 20
6.7831987674
 11
-11.009279428
 21
7.1798754376
  0
LINE
  5
2D9
100
AcDbEntity
  8
CURVE
100
AcDbLine
 62
250
  6
CONTINUOUS
 10
-1.6359619238
 20
-10.6979619238
 11
-1.6359619238
 21
-9.3979619238
  0
LINE
  5
2DA
100
AcDbEntity
  8
CURVE
100
AcDbLine
 62
250
  6
CONTINUOUS
 10
-0.5899619238
 20
-10.6979619238
 11
-0.5899619238
 21
-9.3979619238
  0
LINE
  5
2DB
100
AcDbEntity
  8
CURVE
100
AcDbLine
 62
250
  6
CONTINUOUS
 10
-0.4219494605
 20
-16.4669351972
 11
-0.4219494605
 21
-16.0383637942
  0
LINE
  5
2DC
100
AcDbEntity
  8
RACCORDO
100
AcDbLine
 62
250
  6
CONTINUOUS
 10
0.0000380762
 20
22.8294452421
 11
0.0000380762
 21
26.7500380762
  0
LINE
  5
2DD
100
AcDbEntity
  8
CURVE
100
AcDbLine
 62
250
  6
CONTINUOUS
 10
-5.3699619238
 20
-10.6979619238
 11
-4.8579619238
 21
-9.3979619238
  0
LINE
  5
2DE
100
AcDbEntity
  8
CURVE
100
AcDbLine
 62
250
  6
CONTINUOUS
 10
-5.1959619238
 20
-12.5759619238
 11
-4.6559619238
 21
-11.2999619238
  0
LINE
  5
2DF
100
AcDbEntity
  8
CURVE
100
AcDbLine
 62
250
  6
CONTINUOUS
 10
3.4047995813
 20
9.6286095329
 11
3.2476573236
 21
9.3143238045
  0
LINE
  5
2E0
100
AcDbEntity
  8
CURVE
100
AcDbLine
 62
250
  6
CONTINUOUS
 10
-9.0559619238
 20
-11.7659619238
 11
-8.7599619238
 21
-11.2999619238
  0
LINE
  5
2E1
100
AcDbEntity
  8
CURVE
100
AcDbLine
 62
250
  6
CONTINUOUS
 10
5.290515066
 20
10.9905142792
 11
4.0333707102
 21
9.0524190296
  0
LINE
  5
2E2
100
AcDbEntity
  8
CURVE
100
AcDbLine
 62
250
  6
CONTINUOUS
 10
6.4952765711
 20
9.0000380762
 11
6.8095610865
 21
9.3143238045
  0
LINE
  5
2E3
100
AcDbEntity
  8
CURVE
100
AcDbLine
 62
250
  6
CONTINUOUS
 10
8.3809899576
 20
9.3143238045
 11
8.0667054422
 21
9.0000380762
  0
LINE
  5
2E4
100
AcDbEntity
  8
CURVE
100
AcDbLine
 62
250
  6
CONTINUOUS
 10
14.8714544474
 20
15.0131790762
 11
15.0285972952
 21
15.1703219404
  0
LINE
  5
2E5
100
AcDbEntity
  8
RACCORDO
100
AcDbLine
 62
250
  6
CONTINUOUS
 10
22.8294452421
 20
0.0000380762
 11
26.7500380762
 21
0.0000380762
  0
LINE
  5
2E6
100
AcDbEntity
  8
CURVE
100
AcDbLine
 62
250
  6
CONTINUOUS
 10
-13.6713905327
 20
10.8857523807
 11
-13.9856760971
 21
11.2000380762
  0
LINE
  5
2E7
100
AcDbEntity
  8
CURVE
100
AcDbLine
 62
250
  6
CONTINUOUS
 10
13.7209071374
 20
-15.8955066002
 11
14.0066222405
 21
-16.1812208689
  0
LINE
  5
2E8
100
AcDbEntity
  8
CURVE
100
AcDbLine
 62
250
  6
CONTINUOUS
 10
-12.4142477505
 20
11.2000380762
 11
-12.0999619238
 21
10.8857523807
  0
LINE
  5
2E9
100
AcDbEntity
  8
CURVE
100
AcDbLine
 62
250
  6
CONTINUOUS
 10
-6.1285330526
 20
9.3143238045
 11
-6.2856763594
 21
9.6286095329
  0
LINE
  5
2EA
100
AcDbEntity
  8
CURVE
100
AcDbLine
 62
250
  6
CONTINUOUS
 10
-5.3428186171
 20
10.8857523807
 11
-5.1856763594
 21
10.5714666851
  0
LINE
  5
2EB
100
AcDbEntity
  8
CURVE
100
AcDbLine
 62
250
  6
CONTINUOUS
 10
1.6160380762
 20
-9.3979619238
 11
2.1680380762
 21
-10.6979619238
  0
LINE
  5
2EC
100
AcDbEntity
  8
CURVE
100
AcDbLine
 62
250
  6
CONTINUOUS
 10
4.8580380762
 20
-11.2999619238
 11
5.4080380762
 21
-12.5999619238
  0
LINE
  5
2ED
100
AcDbEntity
  8
CURVE
100
AcDbLine
 62
250
  6
CONTINUOUS
 10
-4.5571052305
 20
11.2000380762
 11
-3.9285330526
 21
9.0000380762
  0
LINE
  5
2EE
100
AcDbEntity
  8
CURVE
100
AcDbLine
 62
250
  6
CONTINUOUS
 10
0.4351929879
 20
-17.1812209136
 11
0.4351929879
 21
-16.7526494659
  0
LINE
  5
2EF
100
AcDbEntity
  8
CURVE
100
AcDbLine
 62
250
  6
CONTINUOUS
 10
0.5521550762
 20
12.0520270762
 11
0.5521550762
 21
16.9480490762
  0
LINE
  5
2F0
100
AcDbEntity
  8
CURVE
100
AcDbLine
 62
250
  6
CONTINUOUS
 10
0.7333717592
 20
10.2571809896
 11
0.7333717592
 21
11.2000380762
  0
LINE
  5
2F1
100
AcDbEntity
  8
CURVE
100
AcDbLine
 62
250
  6
CONTINUOUS
 10
1.0066222405
 20
-17.0383637644
 11
1.0066222405
 21
-16.1812208689
  0
LINE
  5
2F2
100
AcDbEntity
  8
CURVE
100
AcDbLine
 62
250
  6
CONTINUOUS
 10
1.6141450762
 20
13.1145280762
 11
1.6141450762
 21
15.8858030762
  0
LINE
  5
2F3
100
AcDbEntity
  8
CURVE
100
AcDbLine
 62
250
  6
CONTINUOUS
 10
1.6762284525
 20
9.3143238045
 11
1.6762284525
 21
9.9428952284
  0
LINE
  5
2F4
100
AcDbEntity
  8
CURVE
100
AcDbLine
 62
250
  6
CONTINUOUS
 10
1.6920380762
 20
-12.5999619238
 11
1.6920380762
 21
-11.2999619238
  0
LINE
  5
2F5
100
AcDbEntity
  8
CURVE
100
AcDbLine
 62
250
  6
CONTINUOUS
 10
1.863764689
 20
-16.1812208689
 11
1.863764689
 21
-17.0383637644
  0
LINE
  5
2F6
100
AcDbEntity
  8
CURVE
100
AcDbLine
 62
250
  6
CONTINUOUS
 10
2.3047995813
 20
9.6286095329
 11
2.3047995813
 21
10.5714666851
  0
LINE
  5
2F7
100
AcDbEntity
  8
CURVE
100
AcDbLine
 62
250
  6
CONTINUOUS
 10
2.4351929879
 20
-16.4669351972
 11
2.4351929879
 21
-16.0383637942
  0
LINE
  5
2F8
100
AcDbEntity
  8
CURVE
100
AcDbLine
 62
250
  6
CONTINUOUS
 10
2.5800380762
 20
-11.2999619238
 11
2.5800380762
 21
-12.5999619238
  0
LINE
  5
2F9
100
AcDbEntity
  8
CURVE
100
AcDbLine
 62
250
  6
CONTINUOUS
 10
-2.6499619238
 20
-8.7839619238
 11
-2.0999619238
 21
-7.4839619238
  0
LINE
  5
2FA
100
AcDbEntity
  8
CURVE
100
AcDbLine
 62
250
  6
CONTINUOUS
 10
-4.2319619238
 20
-12.5999619238
 11
-3.6799619238
 21
-11.2999619238
  0
LINE
  5
2FB
100
AcDbEntity
  8
CURVE
100
AcDbLine
 62
250
  6
CONTINUOUS
 10
6.0238476999
 20
10.7286094673
 11
5.7095610865
 21
10.1000380762
  0
LINE
  5
2FC
100
AcDbEntity
  8
CURVE
100
AcDbLine
 62
250
  6
CONTINUOUS
 10
7.4381343134
 20
10.5714666851
 11
7.5952765711
 21
10.8857523807
  0
LINE
  5
2FD
100
AcDbEntity
  8
CURVE
100
AcDbLine
 62
250
  6
CONTINUOUS
 10
-7.7079619238
 20
-13.9299619238
 11
-7.2299619238
 21
-13.1999619238
  0
LINE
  5
2FE
100
AcDbEntity
  8
CURVE
100
AcDbLine
 62
250
  6
CONTINUOUS
 10
17.2285973608
 20
16.5846076851
 11
17.8571687519
 21
17.2131790762
  0
LINE
  5
2FF
100
AcDbEntity
  8
CURVE
100
AcDbLine
 62
250
  6
CONTINUOUS
 10
16.4428829252
 20
15.0131790762
 11
16.6000259697
 21
15.1703219404
  0
LINE
  5
300
100
AcDbEntity
  8
CURVE
100
AcDbLine
 62
250
  6
CONTINUOUS
 10
18.6428829252
 20
16.8988933807
 11
18.9571684896
 21
17.2131790762
  0
LINE
  5
301
100
AcDbEntity
  8
CURVE
100
AcDbLine
 62
250
  6
CONTINUOUS
 10
-9.7919619238
 20
-12.5699619238
 11
-9.6699619238
 21
-12.4519619238
  0
LINE
  5
302
100
AcDbEntity
  8
CURVE
100
AcDbLine
 62
250
  6
CONTINUOUS
 10
-10.1179619238
 20
-11.3359619238
 11
-10.2419619238
 21
-11.4519619238
  0
LINE
  5
303
100
AcDbEntity
  8
CURVE
100
AcDbLine
 62
250
  6
CONTINUOUS
 10
-8.6428191416
 20
10.8857523807
 11
-8.957104706
 21
11.2000380762
  0
LINE
  5
304
100
AcDbEntity
  8
CURVE
100
AcDbLine
 62
250
  6
CONTINUOUS
 10
-5.8142474882
 20
9.0000380762
 11
-6.1285330526
 21
9.3143238045
  0
LINE
  5
305
100
AcDbEntity
  8
CURVE
100
AcDbLine
 62
250
  6
CONTINUOUS
 10
6.8680380762
 20
-11.2999619238
 11
7.3740380762
 21
-12.5999619238
  0
LINE
  5
306
100
AcDbEntity
  8
CURVE
100
AcDbLine
 62
250
  6
CONTINUOUS
 10
3.29233639
 20
-17.1812209136
 11
3.29233639
 21
-16.7526494659
  0
LINE
  5
307
100
AcDbEntity
  8
CURVE
100
AcDbLine
 62
250
  6
CONTINUOUS
 10
3.4047995813
 20
10.5714666851
 11
3.4047995813
 21
9.6286095329
  0
LINE
  5
308
100
AcDbEntity
  8
CURVE
100
AcDbLine
 62
250
  6
CONTINUOUS
 10
4.0720380762
 20
-10.6979619238
 11
4.0720380762
 21
-9.3979619238
  0
LINE
  5
309
100
AcDbEntity
  8
CURVE
100
AcDbLine
 62
250
  6
CONTINUOUS
 10
4.1018599725
 20
-17.3240780629
 11
4.1018599725
 21
-15.3240780629
  0
LINE
  5
30A
100
AcDbEntity
  8
CURVE
100
AcDbLine
 62
250
  6
CONTINUOUS
 10
4.3856760762
 20
15.8858030762
 11
4.3856760762
 21
13.1145280762
  0
LINE
  5
30B
100
AcDbEntity
  8
CURVE
100
AcDbLine
 62
250
  6
CONTINUOUS
 10
5.0440380762
 20
-9.3979619238
 11
5.0440380762
 21
-10.6979619238
  0
LINE
  5
30C
100
AcDbEntity
  8
CURVE
100
AcDbLine
 62
250
  6
CONTINUOUS
 10
5.2923354363
 20
-17.3240780629
 11
5.2923354363
 21
-15.8955066002
  0
LINE
  5
30D
100
AcDbEntity
  8
CURVE
100
AcDbLine
 62
250
  6
CONTINUOUS
 10
5.2923354363
 20
-15.4669352568
 11
5.2923354363
 21
-15.3240780629
  0
LINE
  5
30E
100
AcDbEntity
  8
CURVE
100
AcDbLine
 62
250
  6
CONTINUOUS
 10
10.5601630762
 20
19.4480730762
 11
11.1494150762
 21
21.5128180762
  0
LINE
  5
30F
100
AcDbEntity
  8
CURVE
100
AcDbLine
 62
250
  6
CONTINUOUS
 10
11.7751300762
 20
21.5128180762
 11
10.8109260762
 21
18.5131790762
  0
LINE
  5
310
100
AcDbEntity
  8
CURVE
100
AcDbLine
 62
250
  6
CONTINUOUS
 10
1.0080380762
 20
-10.6979619238
 11
1.5580380762
 21
-9.3979619238
  0
LINE
  5
311
100
AcDbEntity
  8
CURVE
100
AcDbLine
 62
250
  6
CONTINUOUS
 10
8.5381343134
 20
9.6286095329
 11
8.3809899576
 21
9.3143238045
  0
LINE
  5
312
100
AcDbEntity
  8
RACCORDO
100
AcDbLine
 62
250
  6
CONTINUOUS
 10
10.704974866
 20
6.7831987674
 11
11.0093555805
 21
7.1798754376
  0
LINE
  5
313
100
AcDbEntity
  8
CURVE
100
AcDbLine
 62
250
  6
CONTINUOUS
 10
19.4285973608
 20
15.3274648045
 11
19.1143117964
 21
15.0131790762
  0
LINE
  5
314
100
AcDbEntity
  8
CURVE
100
AcDbLine
 62
250
  6
CONTINUOUS
 10
16.0809899576
 20
10.8857523807
 11
16.3952765711
 21
11.2000380762
  0
LINE
  5
315
100
AcDbEntity
  8
CURVE
100
AcDbLine
 62
250
  6
CONTINUOUS
 10
16.8667054422
 20
9.3143238045
 11
16.5524188288
 21
9.0000380762
  0
LINE
  5
316
100
AcDbEntity
  8
CURVE
100
AcDbLine
 62
250
  6
CONTINUOUS
 10
-5.6571052305
 20
11.2000380762
 11
-5.3428186171
 21
10.8857523807
  0
LINE
  5
317
100
AcDbEntity
  8
CURVE
100
AcDbLine
 62
250
  6
CONTINUOUS
 10
12.4999080762
 20
-6.4236369238
 11
17.2315940762
 21
-11.4009229238
  0
LINE
  5
318
100
AcDbEntity
  8
CURVE
100
AcDbLine
 62
250
  6
CONTINUOUS
 10
5.4479210762
 20
16.9480490762
 11
5.4479210762
 21
12.0520270762
  0
LINE
  5
319
100
AcDbEntity
  8
CURVE
100
AcDbLine
 62
250
  6
CONTINUOUS
 10
5.7095610865
 20
10.1000380762
 11
5.7095610865
 21
9.3143238045
  0
LINE
  5
31A
100
AcDbEntity
  8
CURVE
100
AcDbLine
 62
250
  6
CONTINUOUS
 10
6.2923354363
 20
-17.3240780629
 11
6.2923354363
 21
-15.3240780629
  0
LINE
  5
31B
100
AcDbEntity
  8
CURVE
100
AcDbLine
 62
250
  6
CONTINUOUS
 10
6.8095610865
 20
9.3143238045
 11
6.8095610865
 21
9.9428952284
  0
LINE
  5
31C
100
AcDbEntity
  8
CURVE
100
AcDbLine
 62
250
  6
CONTINUOUS
 10
7.1970977044
 20
-15.8955066002
 11
7.1970977044
 21
-17.1812209136
  0
LINE
  5
31D
100
AcDbEntity
  8
CURVE
100
AcDbLine
 62
250
  6
CONTINUOUS
 10
7.4381343134
 20
9.6286095329
 11
7.4381343134
 21
10.5714666851
  0
LINE
  5
31E
100
AcDbEntity
  8
CURVE
100
AcDbLine
 62
250
  6
CONTINUOUS
 10
14.4867110762
 20
19.8474090762
 11
15.1128540762
 21
21.5128180762
  0
LINE
  5
31F
100
AcDbEntity
  8
CURVE
100
AcDbLine
 62
250
  6
CONTINUOUS
 10
15.2716840762
 20
20.4637210762
 11
14.5272010762
 21
18.5131790762
  0
LINE
  5
320
100
AcDbEntity
  8
CURVE
100
AcDbLine
 62
250
  6
CONTINUOUS
 10
13.5667054422
 20
10.5714666851
 11
12.6238476999
 21
9.0000380762
  0
LINE
  5
321
100
AcDbEntity
  8
CURVE
100
AcDbLine
 62
250
  6
CONTINUOUS
 10
20.5285973608
 20
17.2131790762
 11
20.2143117964
 21
16.7417504673
  0
LINE
  5
322
100
AcDbEntity
  8
CURVE
100
AcDbLine
 62
250
  6
CONTINUOUS
 10
-0.2379619238
 20
-10.6739619238
 11
0.6500380762
 21
-9.4259619238
  0
LINE
  5
323
100
AcDbEntity
  8
CURVE
100
AcDbLine
 62
250
  6
CONTINUOUS
 10
-8.6600449824
 20
-17.0383637644
 11
-8.9457591319
 21
-17.3240780629
  0
LINE
  5
324
100
AcDbEntity
  8
CURVE
100
AcDbLine
 62
250
  6
CONTINUOUS
 10
18.0190861948
 20
9.3143238045
 11
18.0714669474
 21
9.3667047538
  0
LINE
  5
325
100
AcDbEntity
  8
CURVE
100
AcDbLine
 62
250
  6
CONTINUOUS
 10
18.1762284525
 20
9.2095618896
 11
18.0714669474
 21
9.1047999829
  0
LINE
  5
326
100
AcDbEntity
  8
RACCORDO
100
AcDbLine
 62
250
  6
CONTINUOUS
 10
7.9655484354
 20
7.7131087361
 11
-7.965472283
 21
7.7131087361
  0
LINE
  5
327
100
AcDbEntity
  8
CURVE
100
AcDbLine
 62
250
  6
CONTINUOUS
 10
-2.3047234289
 20
9.8381333299
 11
-1.8856763594
 21
9.5238476016
  0
LINE
  5
328
100
AcDbEntity
  8
RACCORDO
100
AcDbLine
 62
250
  6
CONTINUOUS
 10
10.704974866
 20
-4.3569812952
 11
11.0093555805
 21
-4.7536579653
  0
LINE
  5
329
100
AcDbEntity
  8
CURVE
100
AcDbLine
 62
250
  6
CONTINUOUS
 10
2.461941839
 20
9.3143238045
 11
2.3047995813
 21
9.6286095329
  0
LINE
  5
32A
100
AcDbEntity
  8
CURVE
100
AcDbLine
 62
250
  6
CONTINUOUS
 10
3.2476573236
 20
10.8857523807
 11
3.4047995813
 21
10.5714666851
  0
LINE
  5
32B
100
AcDbEntity
  8
RACCORDO
100
AcDbLine
 62
250
  6
CONTINUOUS
 10
7.9655484354
 20
-5.2868912639
 11
7.9655484354
 21
-5.7868912639
  0
LINE
  5
32C
100
AcDbEntity
  8
RACCORDO
100
AcDbLine
 62
250
  6
CONTINUOUS
 10
7.9655484354
 20
7.7131087361
 11
7.9655484354
 21
8.2131087361
  0
LINE
  5
32D
100
AcDbEntity
  8
CURVE
100
AcDbLine
 62
250
  6
CONTINUOUS
 10
8.0542411065
 20
-17.3240780629
 11
8.0542411065
 21
-15.8955066002
  0
LINE
  5
32E
100
AcDbEntity
  8
CURVE
100
AcDbLine
 62
250
  6
CONTINUOUS
 10
8.2740380762
 20
-11.2999619238
 11
8.2740380762
 21
-12.5999619238
  0
LINE
  5
32F
100
AcDbEntity
  8
CURVE
100
AcDbLine
 62
250
  6
CONTINUOUS
 10
8.5381343134
 20
10.5714666851
 11
8.5381343134
 21
9.6286095329
  0
LINE
  5
330
100
AcDbEntity
  8
CURVE
100
AcDbLine
 62
250
  6
CONTINUOUS
 10
8.9113845086
 20
-17.3240780629
 11
8.9113845086
 21
-15.8955066002
  0
LINE
  5
331
100
AcDbEntity
  8
CURVE
100
AcDbLine
 62
250
  6
CONTINUOUS
 10
8.9113845086
 20
-15.4669352568
 11
8.9113845086
 21
-15.3240780629
  0
LINE
  5
332
100
AcDbEntity
  8
CURVE
100
AcDbLine
 62
250
  6
CONTINUOUS
 10
9.6732882714
 20
-17.3240780629
 11
9.6732882714
 21
-15.3240780629
  0
LINE
  5
333
100
AcDbEntity
  8
CURVE
100
AcDbLine
 62
250
  6
CONTINUOUS
 10
16.1111810762
 20
18.5131790762
 11
17.0520590762
 21
21.5128180762
  0
LINE
  5
334
100
AcDbEntity
  8
CURVE
100
AcDbLine
 62
250
  6
CONTINUOUS
 10
5.3399543023
 20
-15.3240780629
 11
5.2923354363
 21
-15.4669352568
  0
LINE
  5
335
100
AcDbEntity
  8
CURVE
100
AcDbLine
 62
250
  6
CONTINUOUS
 10
4.2500380762
 20
-12.5999619238
 11
4.8000380762
 21
-11.2999619238
  0
LINE
  5
336
100
AcDbEntity
  8
CURVE
100
AcDbLine
 62
250
  6
CONTINUOUS
 10
18.485740143
 20
16.5846076851
 11
18.6428829252
 21
16.8988933807
  0
LINE
  5
337
100
AcDbEntity
  8
CURVE
100
AcDbLine
 62
250
  6
CONTINUOUS
 10
15.9238476999
 20
10.5714666851
 11
16.0809899576
 21
10.8857523807
  0
LINE
  5
338
100
AcDbEntity
  8
CURVE
100
AcDbLine
 62
250
  6
CONTINUOUS
 10
4.4220380762
 20
-10.3119619238
 11
4.9960380762
 21
-9.3979619238
  0
LINE
  5
339
100
AcDbEntity
  8
CURVE
100
AcDbLine
 62
250
  6
CONTINUOUS
 10
19.2238456018
 20
11.2000380762
 11
18.9095610865
 21
10.7286094673
  0
LINE
  5
33A
100
AcDbEntity
  8
CURVE
100
AcDbLine
 62
250
  6
CONTINUOUS
 10
20.2143117964
 20
15.0131790762
 11
21.3143117964
 21
16.5846076851
  0
LINE
  5
33B
100
AcDbEntity
  8
CURVE
100
AcDbLine
 62
250
  6
CONTINUOUS
 10
18.9095610865
 20
9.0000380762
 11
20.0095610865
 21
10.5714666851
  0
LINE
  5
33C
100
AcDbEntity
  8
CURVE
100
AcDbLine
 62
250
  6
CONTINUOUS
 10
-4.8505211616
 20
-16.1812208689
 11
-4.5648070121
 21
-15.8955066002
  0
LINE
  5
33D
100
AcDbEntity
  8
CURVE
100
AcDbLine
 62
250
  6
CONTINUOUS
 10
-3.9933777595
 20
-17.0383637644
 11
-4.2790928626
 21
-17.3240780629
  0
LINE
  5
33E
100
AcDbEntity
  8
CURVE
100
AcDbLine
 62
250
  6
CONTINUOUS
 10
4.0400380762
 20
-9.3979619238
 11
3.7420380762
 21
-9.6359619238
  0
LINE
  5
33F
100
AcDbEntity
  8
RACCORDO
100
AcDbLine
 62
250
  6
CONTINUOUS
 10
10.704974866
 20
-4.3569812952
 11
16.4131802197
 21
0.0230787257
  0
LINE
  5
340
100
AcDbEntity
  8
RACCORDO
100
AcDbLine
 62
7
  6
CONTINUOUS
 10
11.0093555805
 20
-4.7536579653
 11
16.7175609342
 21
-0.3735979445
  0
LINE
  5
341
100
AcDbEntity
  8
RACCORDO
100
AcDbLine
 62
7
  6
CONTINUOUS
 10
7.9655484354
 20
8.2131087361
 11
-7.965472283
 21
8.2131087361
  0
LINE
  5
342
100
AcDbEntity
  8
CURVE
100
AcDbLine
 62
250
  6
CONTINUOUS
 10
20.0095610865
 20
9.0000380762
 11
18.9095610865
 21
9.0000380762
  0
LINE
  5
343
100
AcDbEntity
  8
CURVE
100
AcDbLine
 62
250
  6
CONTINUOUS
 10
16.5524188288
 20
9.0000380762
 11
16.3952765711
 21
9.0000380762
  0
LINE
  5
344
100
AcDbEntity
  8
CURVE
100
AcDbLine
 62
250
  6
CONTINUOUS
 10
8.0667054422
 20
9.0000380762
 11
7.9095610865
 21
9.0000380762
  0
LINE
  5
345
100
AcDbEntity
  8
CURVE
100
AcDbLine
 62
250
  6
CONTINUOUS
 10
2.9333707102
 20
9.0000380762
 11
2.7762284525
 21
9.0000380762
  0
LINE
  5
346
100
AcDbEntity
  8
CURVE
100
AcDbLine
 62
250
  6
CONTINUOUS
 10
0.7333717592
 20
9.0000380762
 11
1.361941839
 21
9.0000380762
  0
LINE
  5
347
100
AcDbEntity
  8
CURVE
100
AcDbLine
 62
250
  6
CONTINUOUS
 10
6.0238476999
 20
9.0000380762
 11
6.4952765711
 21
9.0000380762
  0
LINE
  5
348
100
AcDbEntity
  8
CURVE
100
AcDbLine
 62
250
  6
CONTINUOUS
 10
-5.6571052305
 20
9.0000380762
 11
-5.8142474882
 21
9.0000380762
  0
LINE
  5
349
100
AcDbEntity
  8
CURVE
100
AcDbLine
 62
250
  6
CONTINUOUS
 10
-8.6428191416
 20
9.0000380762
 11
-9.7428191416
 21
9.0000380762
  0
LINE
  5
34A
100
AcDbEntity
  8
CURVE
100
AcDbLine
 62
250
  6
CONTINUOUS
 10
12.6238476999
 20
9.0000380762
 11
13.5667054422
 21
9.0000380762
  0
LINE
  5
34B
100
AcDbEntity
  8
CURVE
100
AcDbLine
 62
250
  6
CONTINUOUS
 10
-12.4142477505
 20
9.0000380762
 11
-12.5713905327
 21
9.0000380762
  0
LINE
  5
34C
100
AcDbEntity
  8
CURVE
100
AcDbLine
 62
250
  6
CONTINUOUS
 10
-13.6713905327
 20
9.0000380762
 11
-14.7713905327
 21
9.0000380762
  0
LINE
  5
34D
100
AcDbEntity
  8
CURVE
100
AcDbLine
 62
250
  6
CONTINUOUS
 10
-15.3999619238
 20
9.0000380762
 11
-16.4999619238
 21
9.0000380762
  0
LINE
  5
34E
100
AcDbEntity
  8
CURVE
100
AcDbLine
 62
250
  6
CONTINUOUS
 10
18.0714669474
 20
9.1047999829
 11
18.0190861948
 21
9.1047999829
  0
LINE
  5
34F
100
AcDbEntity
  8
CURVE
100
AcDbLine
 62
250
  6
CONTINUOUS
 10
18.0714669474
 20
9.3667047538
 11
18.1238476999
 21
9.3667047538
  0
LINE
  5
350
100
AcDbEntity
  8
CURVE
100
AcDbLine
 62
250
  6
CONTINUOUS
 10
-6.9142474882
 20
9.4714666523
 11
-8.0142474882
 21
9.4714666523
  0
LINE
  5
351
100
AcDbEntity
  8
CURVE
100
AcDbLine
 62
250
  6
CONTINUOUS
 10
-11.3142474882
 20
9.7857523807
 11
-10.3713902704
 21
9.7857523807
  0
LINE
  5
352
100
AcDbEntity
  8
CURVE
100
AcDbLine
 62
250
  6
CONTINUOUS
 10
6.4952765711
 20
10.2571809896
 11
5.8143246897
 21
10.2571809896
  0
LINE
  5
353
100
AcDbEntity
  8
CURVE
100
AcDbLine
 62
250
  6
CONTINUOUS
 10
1.361941839
 20
10.2571809896
 11
0.7333717592
 21
10.2571809896
  0
LINE
  5
354
100
AcDbEntity
  8
CURVE
100
AcDbLine
 62
250
  6
CONTINUOUS
 10
10.8952765711
 20
10.2571809896
 11
11.9952765711
 21
10.2571809896
  0
LINE
  5
355
100
AcDbEntity
  8
CURVE
100
AcDbLine
 62
250
  6
CONTINUOUS
 10
1.6762284525
 20
9.9428952284
 11
1.361941839
 21
10.2571809896
  0
LINE
  5
356
100
AcDbEntity
  8
CURVE
100
AcDbLine
 62
250
  6
CONTINUOUS
 10
2.7762284525
 20
9.0000380762
 11
2.461941839
 21
9.3143238045
  0
LINE
  5
357
100
AcDbEntity
  8
CURVE
100
AcDbLine
 62
250
  6
CONTINUOUS
 10
2.9333707102
 20
11.2000380762
 11
3.2476573236
 21
10.8857523807
  0
LINE
  5
358
100
AcDbEntity
  8
CURVE
100
AcDbLine
 62
250
  6
CONTINUOUS
 10
10.5304316735
 20
-16.0383637942
 11
10.5304316735
 21
-17.1812209136
  0
LINE
  5
359
100
AcDbEntity
  8
CURVE
100
AcDbLine
 62
250
  6
CONTINUOUS
 10
10.8952765711
 20
9.0000380762
 11
10.8952765711
 21
11.2000380762
  0
LINE
  5
35A
100
AcDbEntity
  8
CURVE
100
AcDbLine
 62
250
  6
CONTINUOUS
 10
11.3875750756
 20
-17.3240780629
 11
11.3875750756
 21
-15.8955066002
  0
LINE
  5
35B
100
AcDbEntity
  8
CURVE
100
AcDbLine
 62
250
  6
CONTINUOUS
 10
11.3875750756
 20
-15.4669352568
 11
11.3875750756
 21
-15.3240780629
  0
LINE
  5
35C
100
AcDbEntity
  8
CURVE
100
AcDbLine
 62
250
  6
CONTINUOUS
 10
11.9952765711
 20
11.2000380762
 11
11.9952765711
 21
9.0000380762
  0
LINE
  5
35D
100
AcDbEntity
  8
CURVE
100
AcDbLine
 62
250
  6
CONTINUOUS
 10
12.0074930762
 20
21.5129980762
 11
12.0074930762
 21
18.5131790762
  0
LINE
  5
35E
100
AcDbEntity
  8
CURVE
100
AcDbLine
 62
250
  6
CONTINUOUS
 10
12.1494788384
 20
-17.1812209136
 11
12.1494788384
 21
-15.3240780629
  0
LINE
  5
35F
100
AcDbEntity
  8
CURVE
100
AcDbLine
 62
250
  6
CONTINUOUS
 10
12.6336350762
 20
18.5131790762
 11
12.6336350762
 21
21.5129980762
  0
LINE
  5
360
100
AcDbEntity
  8
CURVE
100
AcDbLine
 62
250
  6
CONTINUOUS
 10
12.9076760762
 20
-13.4999619238
 11
12.9076760762
 21
-12.4809499238
  0
LINE
  5
361
100
AcDbEntity
  8
CURVE
100
AcDbLine
 62
250
  6
CONTINUOUS
 10
13.7048430762
 20
20.4718860762
 11
13.5697220762
 21
18.5131790762
  0
LINE
  5
362
100
AcDbEntity
  8
CURVE
100
AcDbLine
 62
250
  6
CONTINUOUS
 10
12.9707080762
 20
18.5131790762
 11
13.2415570762
 21
21.5128180762
  0
LINE
  5
363
100
AcDbEntity
  8
CURVE
100
AcDbLine
 62
250
  6
CONTINUOUS
 10
17.3431540762
 20
20.6885930762
 11
17.0313870762
 21
19.5753890762
  0
LINE
  5
364
100
AcDbEntity
  8
CURVE
100
AcDbLine
 62
250
  6
CONTINUOUS
 10
16.9033070762
 20
19.1120130762
 11
16.7305300762
 21
18.5131790762
  0
LINE
  5
365
100
AcDbEntity
  8
CURVE
100
AcDbLine
 62
250
  6
CONTINUOUS
 10
7.4080380762
 20
-12.5999619238
 11
7.9200380762
 21
-11.2999619238
  0
LINE
  5
366
100
AcDbEntity
  8
CURVE
100
AcDbLine
 62
250
  6
CONTINUOUS
 10
19.585740143
 20
15.6417505329
 11
19.4285973608
 21
15.3274648045
  0
LINE
  5
367
100
AcDbEntity
  8
CURVE
100
AcDbLine
 62
250
  6
CONTINUOUS
 10
17.0238476999
 20
9.6286095329
 11
16.8667054422
 21
9.3143238045
  0
LINE
  5
368
100
AcDbEntity
  8
CURVE
100
AcDbLine
 62
250
  6
CONTINUOUS
 10
17.9667054422
 20
9.2095618896
 11
18.0190861948
 21
9.3143238045
  0
LINE
  5
369
100
AcDbEntity
  8
CURVE
100
AcDbLine
 62
250
  6
CONTINUOUS
 10
18.1238476999
 20
9.0524190296
 11
18.0190861948
 21
8.842895212
  0
LINE
  5
36A
100
AcDbEntity
  8
RACCORDO
100
AcDbLine
 62
250
  6
CONTINUOUS
 10
16.4131802197
 20
2.4031387466
 11
16.7175609342
 21
2.7998154167
  0
LINE
  5
36B
100
AcDbEntity
  8
CURVE
100
AcDbLine
 62
250
  6
CONTINUOUS
 10
-0.4219494605
 20
-16.0383637942
 11
-0.2790928626
 21
-15.8955066002
  0
LINE
  5
36C
100
AcDbEntity
  8
CURVE
100
AcDbLine
 62
250
  6
CONTINUOUS
 10
1.0066222405
 20
-16.1812208689
 11
1.29233639
 21
-15.8955066002
  0
LINE
  5
36D
100
AcDbEntity
  8
CURVE
100
AcDbLine
 62
250
  6
CONTINUOUS
 10
0.29233639
 20
-17.3240780629
 11
0.4351929879
 21
-17.1812209136
  0
LINE
  5
36E
100
AcDbEntity
  8
CURVE
100
AcDbLine
 62
250
  6
CONTINUOUS
 10
12.6238476999
 20
10.5714666851
 11
13.5667054422
 21
10.5714666851
  0
LINE
  5
36F
100
AcDbEntity
  8
CURVE
100
AcDbLine
 62
250
  6
CONTINUOUS
 10
19.6952765711
 20
11.2000380762
 11
19.2238456018
 21
11.2000380762
  0
LINE
  5
370
100
AcDbEntity
  8
CURVE
100
AcDbLine
 62
250
  6
CONTINUOUS
 10
-12.5713905327
 20
11.2000380762
 11
-12.4142477505
 21
11.2000380762
  0
LINE
  5
371
100
AcDbEntity
  8
CURVE
100
AcDbLine
 62
250
  6
CONTINUOUS
 10
-5.8142474882
 20
11.2000380762
 11
-5.6571052305
 21
11.2000380762
  0
LINE
  5
372
100
AcDbEntity
  8
CURVE
100
AcDbLine
 62
250
  6
CONTINUOUS
 10
0.7333717592
 20
11.2000380762
 11
1.6762284525
 21
11.2000380762
  0
LINE
  5
373
100
AcDbEntity
  8
CURVE
100
AcDbLine
 62
250
  6
CONTINUOUS
 10
2.7762284525
 20
11.2000380762
 11
2.9333707102
 21
11.2000380762
  0
LINE
  5
374
100
AcDbEntity
  8
CURVE
100
AcDbLine
 62
250
  6
CONTINUOUS
 10
7.9095610865
 20
11.2000380762
 11
8.0667054422
 21
11.2000380762
  0
LINE
  5
375
100
AcDbEntity
  8
CURVE
100
AcDbLine
 62
250
  6
CONTINUOUS
 10
-8.957104706
 20
11.2000380762
 11
-9.4285335772
 21
11.2000380762
  0
LINE
  5
376
100
AcDbEntity
  8
CURVE
100
AcDbLine
 62
250
  6
CONTINUOUS
 10
-13.9856760971
 20
11.2000380762
 11
-14.4571048371
 21
11.2000380762
  0
LINE
  5
377
100
AcDbEntity
  8
CURVE
100
AcDbLine
 62
250
  6
CONTINUOUS
 10
-15.7142476193
 20
11.2000380762
 11
-16.1856761955
 21
11.2000380762
  0
LINE
  5
378
100
AcDbEntity
  8
CURVE
100
AcDbLine
 62
250
  6
CONTINUOUS
 10
16.3952765711
 20
11.2000380762
 11
16.5524188288
 21
11.2000380762
  0
LINE
  5
379
100
AcDbEntity
  8
CURVE
100
AcDbLine
 62
250
  6
CONTINUOUS
 10
5.4479210762
 20
12.0520270762
 11
0.5521550762
 21
12.0520270762
  0
LINE
  5
37A
100
AcDbEntity
  8
RACCORDO
100
AcDbLine
 62
250
  6
CONTINUOUS
 10
16.4131802197
 20
2.4031387466
 11
10.704974866
 21
6.7831987674
  0
LINE
  5
37B
100
AcDbEntity
  8
RACCORDO
100
AcDbLine
 62
7
  6
CONTINUOUS
 10
16.7175609342
 20
2.7998154167
 11
11.0093555805
 21
7.1798754376
  0
LINE
  5
37C
100
AcDbEntity
  8
CURVE
100
AcDbLine
 62
250
  6
CONTINUOUS
 10
5.7095610865
 20
9.3143238045
 11
6.0238476999
 21
9.0000380762
  0
LINE
  5
37D
100
AcDbEntity
  8
CURVE
100
AcDbLine
 62
250
  6
CONTINUOUS
 10
6.8095610865
 20
9.9428952284
 11
6.4952765711
 21
10.2571809896
  0
LINE
  5
37E
100
AcDbEntity
  8
CURVE
100
AcDbLine
 62
250
  6
CONTINUOUS
 10
7.9095610865
 20
9.0000380762
 11
7.5952765711
 21
9.3143238045
  0
LINE
  5
37F
100
AcDbEntity
  8
CURVE
100
AcDbLine
 62
250
  6
CONTINUOUS
 10
7.5952765711
 20
9.3143238045
 11
7.4381343134
 21
9.6286095329
  0
LINE
  5
380
100
AcDbEntity
  8
CURVE
100
AcDbLine
 62
250
  6
CONTINUOUS
 10
8.3809899576
 20
10.8857523807
 11
8.5381343134
 21
10.5714666851
  0
LINE
  5
381
100
AcDbEntity
  8
CURVE
100
AcDbLine
 62
250
  6
CONTINUOUS
 10
13.9311620762
 20
-7.3082569238
 11
14.2252120762
 21
-10.6704779238
  0
LINE
  5
382
100
AcDbEntity
  8
CURVE
100
AcDbLine
 62
250
  6
CONTINUOUS
 10
13.1494788384
 20
-17.0383637644
 11
13.1494788384
 21
-16.1812208689
  0
LINE
  5
383
100
AcDbEntity
  8
CURVE
100
AcDbLine
 62
250
  6
CONTINUOUS
 10
14.0066222405
 20
-16.1812208689
 11
14.0066222405
 21
-16.6097923315
  0
LINE
  5
384
100
AcDbEntity
  8
CURVE
100
AcDbLine
 62
250
  6
CONTINUOUS
 10
14.2990437913
 20
-10.9130998321
 11
14.2990437913
 21
-10.6863888724
  0
LINE
  5
385
100
AcDbEntity
  8
CURVE
100
AcDbLine
 62
250
  6
CONTINUOUS
 10
14.4379535042
 20
-10.6863888724
 11
14.4379535042
 21
-10.9130998321
  0
LINE
  5
386
100
AcDbEntity
  8
CURVE
100
AcDbLine
 62
250
  6
CONTINUOUS
 10
14.7881080762
 20
-8.1360469238
 11
14.7881080762
 21
-8.3516829238
  0
LINE
  5
387
100
AcDbEntity
  8
CURVE
100
AcDbLine
 62
250
  6
CONTINUOUS
 10
14.8431110762
 20
-7.0381589238
 11
14.8431110762
 21
-6.8206649238
  0
LINE
  5
388
100
AcDbEntity
  8
CURVE
100
AcDbLine
 62
250
  6
CONTINUOUS
 10
14.976216346
 20
16.4274647718
 11
14.976216346
 21
16.8988933807
  0
LINE
  5
389
100
AcDbEntity
  8
CURVE
100
AcDbLine
 62
250
  6
CONTINUOUS
 10
15.0285972952
 20
15.1703219404
 11
15.0285972952
 21
15.9560362284
  0
LINE
  5
38A
100
AcDbEntity
  8
CURVE
100
AcDbLine
 62
250
  6
CONTINUOUS
 10
15.4161140762
 20
-6.8212229238
 11
15.4161140762
 21
-7.0387169238
  0
LINE
  5
38B
100
AcDbEntity
  8
CURVE
100
AcDbLine
 62
250
  6
CONTINUOUS
 10
8.9590033746
 20
-15.3240780629
 11
8.9113845086
 21
-15.4669352568
  0
LINE
  5
38C
100
AcDbEntity
  8
CURVE
100
AcDbLine
 62
250
  6
CONTINUOUS
 10
18.1762284525
 20
9.2095618896
 11
18.1238476999
 21
9.0524190296
  0
LINE
  5
38D
100
AcDbEntity
  8
CURVE
100
AcDbLine
 62
250
  6
CONTINUOUS
 10
2.4351929879
 20
-16.0383637942
 11
2.5780505395
 21
-15.8955066002
  0
LINE
  5
38E
100
AcDbEntity
  8
CURVE
100
AcDbLine
 62
250
  6
CONTINUOUS
 10
1.863764689
 20
-17.0383637644
 11
1.5780505395
 21
-17.3240780629
  0
LINE
  5
38F
100
AcDbEntity
  8
CURVE
100
AcDbLine
 62
250
  6
CONTINUOUS
 10
3.1494788384
 20
-17.3240780629
 11
3.29233639
 21
-17.1812209136
  0
LINE
  5
390
100
AcDbEntity
  8
CURVE
100
AcDbLine
 62
250
  6
CONTINUOUS
 10
4.3856760762
 20
13.1145280762
 11
1.6141450762
 21
13.1145280762
  0
LINE
  5
391
100
AcDbEntity
  8
CURVE
100
AcDbLine
 62
250
  6
CONTINUOUS
 10
-2.9395519238
 20
14.1175260762
 11
-4.4280879238
 21
14.1175260762
  0
LINE
  5
392
100
AcDbEntity
  8
CURVE
100
AcDbLine
 62
250
  6
CONTINUOUS
 10
-2.9395519238
 20
14.8825260762
 11
-4.4280879238
 21
14.8825260762
  0
LINE
  5
393
100
AcDbEntity
  8
CURVE
100
AcDbLine
 62
250
  6
CONTINUOUS
 10
21.3143117964
 20
15.0131790762
 11
20.2143117964
 21
15.0131790762
  0
LINE
  5
394
100
AcDbEntity
  8
CURVE
100
AcDbLine
 62
250
  6
CONTINUOUS
 10
19.1143117964
 20
15.0131790762
 11
18.9571684896
 21
15.0131790762
  0
LINE
  5
395
100
AcDbEntity
  8
CURVE
100
AcDbLine
 62
250
  6
CONTINUOUS
 10
14.085740143
 20
15.0131790762
 11
14.8714544474
 21
15.0131790762
  0
LINE
  5
396
100
AcDbEntity
  8
CURVE
100
AcDbLine
 62
250
  6
CONTINUOUS
 10
15.6571687519
 20
15.0131790762
 11
16.4428829252
 21
15.0131790762
  0
LINE
  5
397
100
AcDbEntity
  8
CURVE
100
AcDbLine
 62
250
  6
CONTINUOUS
 10
8.0667054422
 20
11.2000380762
 11
8.3809899576
 21
10.8857523807
  0
LINE
  5
398
100
AcDbEntity
  8
RACCORDO
100
AcDbLine
 62
250
  6
CONTINUOUS
 10
16.4131802197
 20
0.0230787257
 11
16.7175609342
 21
-0.3735979445
  0
LINE
  5
399
100
AcDbEntity
  8
CURVE
100
AcDbLine
 62
250
  6
CONTINUOUS
 10
10.2591380762
 20
18.5131790762
 11
9.3081940762
 21
21.5128180762
  0
LINE
  5
39A
100
AcDbEntity
  8
CURVE
100
AcDbLine
 62
250
  6
CONTINUOUS
 10
9.9883780762
 20
21.5128180762
 11
10.5601630762
 21
19.4480730762
  0
LINE
  5
39B
100
AcDbEntity
  8
CURVE
100
AcDbLine
 62
250
  6
CONTINUOUS
 10
15.7323600762
 20
21.5128180762
 11
16.0128600762
 21
18.5131790762
  0
LINE
  5
39C
100
AcDbEntity
  8
CURVE
100
AcDbLine
 62
250
  6
CONTINUOUS
 10
15.4003270762
 20
18.5131790762
 11
15.2716840762
 21
20.4637210762
  0
LINE
  5
39D
100
AcDbEntity
  8
CURVE
100
AcDbLine
 62
250
  6
CONTINUOUS
 10
15.9238476999
 20
9.6286095329
 11
15.9238476999
 21
10.5714666851
  0
LINE
  5
39E
100
AcDbEntity
  8
CURVE
100
AcDbLine
 62
250
  6
CONTINUOUS
 10
16.0679250762
 20
-8.0436309238
 11
16.0679250762
 21
-7.6711669238
  0
LINE
  5
39F
100
AcDbEntity
  8
CURVE
100
AcDbLine
 62
250
  6
CONTINUOUS
 10
16.4179850762
 20
-7.6711669238
 11
16.4179850762
 21
-8.0436309238
  0
LINE
  5
3A0
100
AcDbEntity
  8
CURVE
100
AcDbLine
 62
250
  6
CONTINUOUS
 10
16.5476449549
 20
16.4274647718
 11
16.5476449549
 21
16.8988933807
  0
LINE
  5
3A1
100
AcDbEntity
  8
CURVE
100
AcDbLine
 62
250
  6
CONTINUOUS
 10
16.6000259697
 20
15.1703219404
 11
16.6000259697
 21
15.9560362284
  0
LINE
  5
3A2
100
AcDbEntity
  8
CURVE
100
AcDbLine
 62
250
  6
CONTINUOUS
 10
17.0238476999
 20
10.5714666851
 11
17.0238476999
 21
9.6286095329
  0
LINE
  5
3A3
100
AcDbEntity
  8
CURVE
100
AcDbLine
 62
250
  6
CONTINUOUS
 10
17.0924000762
 20
-12.4809499238
 11
17.0924000762
 21
-13.4999619238
  0
LINE
  5
3A4
100
AcDbEntity
  8
CURVE
100
AcDbLine
 62
250
  6
CONTINUOUS
 10
17.8571687519
 20
17.2131790762
 11
17.8571687519
 21
15.0131790762
  0
LINE
  5
3A5
100
AcDbEntity
  8
CURVE
100
AcDbLine
 62
250
  6
CONTINUOUS
 10
17.9667054422
 20
9.1571809404
 11
17.9667054422
 21
9.2095618896
  0
LINE
  5
3A6
100
AcDbEntity
  8
CURVE
100
AcDbLine
 62
250
  6
CONTINUOUS
 10
15.6114480762
 20
-8.3516829238
 11
15.6294466404
 21
-8.1096453596
  0
LINE
  5
3A7
100
AcDbEntity
  8
CURVE
100
AcDbLine
 62
250
  6
CONTINUOUS
 10
15.8768137179
 20
-10.2320110186
 11
16.1317894422
 21
-7.3084183764
  0
LINE
  5
3A8
100
AcDbEntity
  8
CURVE
100
AcDbLine
 62
250
  6
CONTINUOUS
 10
21.1095610865
 20
9.0000380762
 11
21.5809920557
 21
10.5714666851
  0
LINE
  5
3A9
100
AcDbEntity
  8
CURVE
100
AcDbLine
 62
250
  6
CONTINUOUS
 10
11.4351939416
 20
-15.3240780629
 11
11.3875750756
 21
-15.4669352568
  0
LINE
  5
3AA
100
AcDbEntity
  8
CURVE
100
AcDbLine
 62
250
  6
CONTINUOUS
 10
12.6244160762
 20
-11.4102399238
 11
17.5610480762
 21
-6.3999619238
  0
LINE
  5
3AB
100
AcDbEntity
  8
CURVE
100
AcDbLine
 62
250
  6
CONTINUOUS
 10
1.6141450762
 20
15.8858030762
 11
4.3856760762
 21
15.8858030762
  0
LINE
  5
3AC
100
AcDbEntity
  8
CURVE
100
AcDbLine
 62
250
  6
CONTINUOUS
 10
16.285740143
 20
16.2703219896
 11
15.9714544474
 21
16.2703219896
  0
LINE
  5
3AD
100
AcDbEntity
  8
CURVE
100
AcDbLine
 62
250
  6
CONTINUOUS
 10
14.7143115997
 20
16.2703219896
 11
14.4000258713
 21
16.2703219896
  0
LINE
  5
3AE
100
AcDbEntity
  8
CURVE
100
AcDbLine
 62
250
  6
CONTINUOUS
 10
0.5521550762
 20
16.9480490762
 11
5.4479210762
 21
16.9480490762
  0
LINE
  5
3AF
100
AcDbEntity
  8
CURVE
100
AcDbLine
 62
250
  6
CONTINUOUS
 10
21.0000257074
 20
17.2131790762
 11
20.5285973608
 21
17.2131790762
  0
LINE
  5
3B0
100
AcDbEntity
  8
CURVE
100
AcDbLine
 62
250
  6
CONTINUOUS
 10
16.285740143
 20
17.2131790762
 11
15.6571687519
 21
17.2131790762
  0
LINE
  5
3B1
100
AcDbEntity
  8
CURVE
100
AcDbLine
 62
250
  6
CONTINUOUS
 10
14.7143115997
 20
17.2131790762
 11
14.085740143
 21
17.2131790762
  0
LINE
  5
3B2
100
AcDbEntity
  8
CURVE
100
AcDbLine
 62
250
  6
CONTINUOUS
 10
18.9571684896
 20
17.2131790762
 11
19.1143117964
 21
17.2131790762
  0
LINE
  5
3B3
100
AcDbEntity
  8
CURVE
100
AcDbLine
 62
250
  6
CONTINUOUS
 10
16.3952765711
 20
9.0000380762
 11
16.0809899576
 21
9.3143238045
  0
LINE
  5
3B4
100
AcDbEntity
  8
CURVE
100
AcDbLine
 62
250
  6
CONTINUOUS
 10
18.1762284525
 20
9.2619428389
 11
18.1762284525
 21
9.2095618896
  0
LINE
  5
3B5
100
AcDbEntity
  8
CURVE
100
AcDbLine
 62
250
  6
CONTINUOUS
 10
18.485740143
 20
15.6417505329
 11
18.485740143
 21
16.5846076851
  0
LINE
  5
3B6
100
AcDbEntity
  8
CURVE
100
AcDbLine
 62
250
  6
CONTINUOUS
 10
18.7620062998
 20
21.4777720002
 11
18.7620062998
 21
18.5131786229
  0
LINE
  5
3B7
100
AcDbEntity
  8
CURVE
100
AcDbLine
 62
250
  6
CONTINUOUS
 10
19.364867312
 20
20.1783400777
 11
19.364867312
 21
21.0017994985
  0
LINE
  5
3B8
100
AcDbEntity
  8
CURVE
100
AcDbLine
 62
250
  6
CONTINUOUS
 10
19.3856292505
 20
18.5131786229
 11
19.3856292505
 21
19.6870716733
  0
LINE
  5
3B9
100
AcDbEntity
  8
CURVE
100
AcDbLine
 62
250
  6
CONTINUOUS
 10
19.585740143
 20
16.5846076851
 11
19.585740143
 21
15.6417505329
  0
LINE
  5
3BA
100
AcDbEntity
  8
CURVE
100
AcDbLine
 62
250
  6
CONTINUOUS
 10
20.0095610865
 20
10.5714666851
 11
20.0095610865
 21
10.8857523807
  0
LINE
  5
3BB
100
AcDbEntity
  8
CURVE
100
AcDbLine
 62
250
  6
CONTINUOUS
 10
22.0524188288
 20
9.0000380762
 11
22.5238456018
 21
11.2000380762
  0
LINE
  5
3BC
100
AcDbEntity
  8
CURVE
100
AcDbLine
 62
250
  6
CONTINUOUS
 10
10.5304316735
 20
-17.1812209136
 11
10.3875750756
 21
-17.3240780629
  0
LINE
  5
3BD
100
AcDbEntity
  8
CURVE
100
AcDbLine
 62
250
  6
CONTINUOUS
 10
18.5781400762
 20
18.5131790762
 11
17.9182120762
 21
18.5131790762
  0
LINE
  5
3BE
100
AcDbEntity
  8
CURVE
100
AcDbLine
 62
250
  6
CONTINUOUS
 10
16.7305300762
 20
18.5131790762
 11
16.1111810762
 21
18.5131790762
  0
LINE
  5
3BF
100
AcDbEntity
  8
CURVE
100
AcDbLine
 62
250
  6
CONTINUOUS
 10
16.0128600762
 20
18.5131790762
 11
15.4003270762
 21
18.5131790762
  0
LINE
  5
3C0
100
AcDbEntity
  8
CURVE
100
AcDbLine
 62
250
  6
CONTINUOUS
 10
13.5697220762
 20
18.5131790762
 11
12.9707080762
 21
18.5131790762
  0
LINE
  5
3C1
100
AcDbEntity
  8
CURVE
100
AcDbLine
 62
250
  6
CONTINUOUS
 10
10.8109260762
 20
18.5131790762
 11
10.2591380762
 21
18.5131790762
  0
LINE
  5
3C2
100
AcDbEntity
  8
CURVE
100
AcDbLine
 62
250
  6
CONTINUOUS
 10
12.0074930762
 20
18.5131790762
 11
12.6336350762
 21
18.5131790762
  0
LINE
  5
3C3
100
AcDbEntity
  8
CURVE
100
AcDbLine
 62
250
  6
CONTINUOUS
 10
18.7620062998
 20
18.5131786229
 11
19.3856292505
 21
18.5131786229
  0
LINE
  5
3C4
100
AcDbEntity
  8
CURVE
100
AcDbLine
 62
250
  6
CONTINUOUS
 10
20.3444799042
 20
18.5131786229
 11
20.946756073
 21
18.5131786229
  0
LINE
  5
3C5
100
AcDbEntity
  8
CURVE
100
AcDbLine
 62
250
  6
CONTINUOUS
 10
17.7560080762
 20
19.1120130762
 11
16.9033070762
 21
19.1120130762
  0
LINE
  5
3C6
100
AcDbEntity
  8
CURVE
100
AcDbLine
 62
250
  6
CONTINUOUS
 10
17.0313870762
 20
19.5753890762
 11
17.6308740762
 21
19.5753890762
  0
LINE
  5
3C7
100
AcDbEntity
  8
CURVE
100
AcDbLine
 62
250
  6
CONTINUOUS
 10
19.3856292505
 20
19.6870716733
 11
19.7213518209
 21
19.6870716733
  0
LINE
  5
3C8
100
AcDbEntity
  8
CURVE
100
AcDbLine
 62
250
  6
CONTINUOUS
 10
19.7227014593
 20
20.1783400777
 11
19.364867312
 21
20.1783400777
  0
LINE
  5
3C9
100
AcDbEntity
  8
CURVE
100
AcDbLine
 62
250
  6
CONTINUOUS
 10
18.0190861948
 20
9.1047999829
 11
17.9667054422
 21
9.1571809404
  0
LINE
  5
3CA
100
AcDbEntity
  8
CURVE
100
AcDbLine
 62
250
  6
CONTINUOUS
 10
16.5524188288
 20
11.2000380762
 11
16.8667054422
 21
10.8857523807
  0
LINE
  5
3CB
100
AcDbEntity
  8
CURVE
100
AcDbLine
 62
250
  6
CONTINUOUS
 10
16.0809899576
 20
9.3143238045
 11
15.9238476999
 21
9.6286095329
  0
LINE
  5
3CC
100
AcDbEntity
  8
CURVE
100
AcDbLine
 62
250
  6
CONTINUOUS
 10
16.8667054422
 20
10.8857523807
 11
17.0238476999
 21
10.5714666851
  0
LINE
  5
3CD
100
AcDbEntity
  8
CURVE
100
AcDbLine
 62
250
  6
CONTINUOUS
 10
18.1238476999
 20
9.3667047538
 11
18.1762284525
 21
9.2619428389
  0
LINE
  5
3CE
100
AcDbEntity
  8
CURVE
100
AcDbLine
 62
250
  6
CONTINUOUS
 10
14.4393840762
 20
18.5131790762
 11
13.7048430762
 21
20.4718860762
  0
LINE
  5
3CF
100
AcDbEntity
  8
CURVE
100
AcDbLine
 62
250
  6
CONTINUOUS
 10
13.8671820762
 20
21.5128180762
 11
14.4867110762
 21
19.8474090762
  0
LINE
  5
3D0
100
AcDbEntity
  8
CURVE
100
AcDbLine
 62
250
  6
CONTINUOUS
 10
21.3143117964
 20
16.5846076851
 11
21.3143117964
 21
16.8988933807
  0
LINE
  5
3D1
100
AcDbEntity
  8
RACCORDO
100
AcDbLine
 62
250
  6
CONTINUOUS
 10
21.7279601376
 20
22.8294452421
 11
21.7279601376
 21
26.7500380762
  0
LINE
  5
3D2
100
AcDbEntity
  8
RACCORDO
100
AcDbLine
 62
250
  6
CONTINUOUS
 10
22.8294452421
 20
0.0000380762
 11
22.8294452421
 21
21.7279601376
  0
LINE
  5
3D3
100
AcDbEntity
  8
CURVE
100
AcDbLine
 62
250
  6
CONTINUOUS
 10
13.1494788384
 20
-16.1812208689
 11
13.4351939416
 21
-15.8955066002
  0
LINE
  5
3D4
100
AcDbEntity
  8
CURVE
100
AcDbLine
 62
250
  6
CONTINUOUS
 10
9.3081940762
 20
21.5128180762
 11
9.9883780762
 21
21.5128180762
  0
LINE
  5
3D5
100
AcDbEntity
  8
CURVE
100
AcDbLine
 62
250
  6
CONTINUOUS
 10
11.1494150762
 20
21.5128180762
 11
11.7751300762
 21
21.5128180762
  0
LINE
  5
3D6
100
AcDbEntity
  8
CURVE
100
AcDbLine
 62
250
  6
CONTINUOUS
 10
13.2415570762
 20
21.5128180762
 11
13.8671820762
 21
21.5128180762
  0
LINE
  5
3D7
100
AcDbEntity
  8
CURVE
100
AcDbLine
 62
250
  6
CONTINUOUS
 10
15.1128540762
 20
21.5128180762
 11
15.7323600762
 21
21.5128180762
  0
LINE
  5
3D8
100
AcDbEntity
  8
CURVE
100
AcDbLine
 62
250
  6
CONTINUOUS
 10
17.0520590762
 20
21.5128180762
 11
17.6577770762
 21
21.5128180762
  0
LINE
  5
3D9
100
AcDbEntity
  8
CURVE
100
AcDbLine
 62
250
  6
CONTINUOUS
 10
12.6336350762
 20
21.5129980762
 11
12.0074930762
 21
21.5129980762
  0
LINE
  5
3DA
100
AcDbEntity
  8
RACCORDO
100
AcDbLine
 62
250
  6
CONTINUOUS
 10
22.8294452421
 20
21.7279601376
 11
26.7500380762
 21
21.7279601376
  0
LINE
  5
3DB
100
AcDbEntity
  8
RACCORDO
100
AcDbLine
 62
250
  6
CONTINUOUS
 10
21.7279601376
 20
22.8294452421
 11
0.0000380762
 21
22.8294452421
  0
LINE
  5
3DC
100
AcDbEntity
  8
CURVE
100
AcDbLine
 62
250
  6
CONTINUOUS
 10
20.0095610865
 20
10.8857523807
 11
19.6952765711
 21
11.2000380762
  0
LINE
  5
3DD
100
AcDbEntity
  8
CURVE
100
AcDbLine
 62
250
  6
CONTINUOUS
 10
15.0285972952
 20
15.9560362284
 11
14.7143115997
 21
16.2703219896
  0
LINE
  5
3DE
100
AcDbEntity
  8
CURVE
100
AcDbLine
 62
250
  6
CONTINUOUS
 10
16.6000259697
 20
15.9560362284
 11
16.285740143
 21
16.2703219896
  0
LINE
  5
3DF
100
AcDbEntity
  8
CURVE
100
AcDbLine
 62
250
  6
CONTINUOUS
 10
14.976216346
 20
16.8988933807
 11
14.7143115997
 21
17.2131790762
  0
LINE
  5
3E0
100
AcDbEntity
  8
CURVE
100
AcDbLine
 62
250
  6
CONTINUOUS
 10
17.9182120762
 20
18.5131790762
 11
17.7560080762
 21
19.1120130762
  0
LINE
  5
3E1
100
AcDbEntity
  8
CURVE
100
AcDbLine
 62
250
  6
CONTINUOUS
 10
17.6308740762
 20
19.5753890762
 11
17.3431540762
 21
20.6885930762
  0
LINE
  5
3E2
100
AcDbEntity
  8
CURVE
100
AcDbLine
 62
250
  6
CONTINUOUS
 10
20.6381343134
 20
11.2000380762
 11
21.1095610865
 21
9.0000380762
  0
LINE
  5
3E3
100
AcDbEntity
  8
RACCORDO
100
AcDbLine
 62
250
  6
CONTINUOUS
 10
23.3124081553
 20
0.0000380762
 11
23.3124081553
 21
21.7279601376
  0
LINE
  5
3E4
100
AcDbEntity
  8
RACCORDO
100
AcDbLine
 62
250
  6
CONTINUOUS
 10
21.7279601376
 20
23.3124081553
 11
0.0000380762
 21
23.3124081553
  0
LINE
  5
3E5
100
AcDbEntity
  8
CURVE
100
AcDbLine
 62
250
  6
CONTINUOUS
 10
18.9571684896
 20
15.0131790762
 11
18.6428829252
 21
15.3274648045
  0
LINE
  5
3E6
100
AcDbEntity
  8
CURVE
100
AcDbLine
 62
250
  6
CONTINUOUS
 10
19.1143117964
 20
17.2131790762
 11
19.4285973608
 21
16.8988933807
  0
LINE
  5
3E7
100
AcDbEntity
  8
CURVE
100
AcDbLine
 62
250
  6
CONTINUOUS
 10
16.5476449549
 20
16.8988933807
 11
16.285740143
 21
17.2131790762
  0
LINE
  5
3E8
100
AcDbEntity
  8
CURVE
100
AcDbLine
 62
250
  6
CONTINUOUS
 10
18.6428829252
 20
15.3274648045
 11
18.485740143
 21
15.6417505329
  0
LINE
  5
3E9
100
AcDbEntity
  8
CURVE
100
AcDbLine
 62
250
  6
CONTINUOUS
 10
19.4285973608
 20
16.8988933807
 11
19.585740143
 21
16.5846076851
  0
LINE
  5
3EA
100
AcDbEntity
  8
CURVE
100
AcDbLine
 62
250
  6
CONTINUOUS
 10
17.6577770762
 20
21.5128180762
 11
18.5781400762
 21
18.5131790762
  0
LINE
  5
3EB
100
AcDbEntity
  8
CURVE
100
AcDbLine
 62
250
  6
CONTINUOUS
 10
21.5809920557
 20
10.5714666851
 11
22.0524188288
 21
9.0000380762
  0
LINE
  5
3EC
100
AcDbEntity
  8
DRAFT
100
AcDbLine
 62
7
  6
CONTINUOUS
 10
26.7500380762
 20
21.7279601376
 11
26.7500380762
 21
0.0000380762
  0
LINE
  5
3ED
100
AcDbEntity
  8
DRAFT
100
AcDbLine
 62
7
  6
CONTINUOUS
 10
26.7962939983
 20
21.7279601376
 11
26.7962939983
 21
0.0000380762
  0
LINE
  5
3EE
100
AcDbEntity
  8
DRAFT
100
AcDbLine
 62
7
  6
CONTINUOUS
 10
26.8085125437
 20
21.7279601376
 11
26.8085125437
 21
0.0000380762
  0
LINE
  5
3EF
100
AcDbEntity
  8
DRAFT
100
AcDbLine
 62
7
  6
CONTINUOUS
 10
0.0000380762
 20
26.7500380762
 11
21.7279601376
 21
26.7500380762
  0
LINE
  5
3F0
100
AcDbEntity
  8
DRAFT
100
AcDbLine
 62
7
  6
CONTINUOUS
 10
0.0000380762
 20
26.7962939983
 11
21.7279601376
 21
26.7962939983
  0
LINE
  5
3F1
100
AcDbEntity
  8
DRAFT
100
AcDbLine
 62
7
  6
CONTINUOUS
 10
0.0000380762
 20
26.8085125437
 11
21.7279601376
 21
26.8085125437
  0
LINE
  5
3F2
100
AcDbEntity
  8
CURVE
100
AcDbLine
 62
250
  6
CONTINUOUS
 10
21.3143117964
 20
16.8988933807
 11
21.0000257074
 21
17.2131790762
  0
ARC
  5
3F3
100
AcDbEntity
  8
CURVE
100
AcDbCircle
 62
250
  6
CONTINUOUS
 10
-8.2230587564
 20
-11.4196036895
 40
0.8198517726
100
AcDbArc
 50
335.0097229575
 51
347.7211072878
  0
ARC
  5
3F4
100
AcDbEntity
  8
CURVE
100
AcDbCircle
 62
250
  6
CONTINUOUS
 10
-11.2164253384
 20
-12.2732546067
 40
0.5439278404
100
AcDbArc
 50
6.4701357998
 51
26.099709144
  0
ARC
  5
3F5
100
AcDbEntity
  8
CURVE
100
AcDbCircle
 62
250
  6
CONTINUOUS
 10
-9.0004253384
 20
-12.2752546067
 40
0.5439278404
100
AcDbArc
 50
6.4701358001
 51
26.0997091439
  0
ARC
  5
3F6
100
AcDbEntity
  8
CURVE
100
AcDbCircle
 62
250
  6
CONTINUOUS
 10
-12.2497170096
 20
-11.5536142786
 40
0.3995993621
100
AcDbArc
 50
328.2377075758
 51
354.4931226693
  0
ARC
  5
3F7
100
AcDbEntity
  8
CURVE
100
AcDbCircle
 62
250
  6
CONTINUOUS
 10
-12.1721409173
 20
-11.632040933
 40
0.3426051351
100
AcDbArc
 50
37.3976691326
 51
69.1073889616
  0
ARC
  5
3F8
100
AcDbEntity
  8
CURVE
100
AcDbCircle
 62
250
  6
CONTINUOUS
 10
-7.7421409173
 20
-11.634040933
 40
0.3426051351
100
AcDbArc
 50
37.3976691331
 51
69.1073889613
  0
ARC
  5
3F9
100
AcDbEntity
  8
CURVE
100
AcDbCircle
 62
250
  6
CONTINUOUS
 10
-8.8893794692
 20
-12.2544114612
 40
0.3367485652
100
AcDbArc
 50
211.0222599003
 51
246.814237828
  0
ARC
  5
3FA
100
AcDbEntity
  8
CURVE
100
AcDbCircle
 62
250
  6
CONTINUOUS
 10
-11.1237614371
 20
-12.2660364979
 40
0.3164819219
100
AcDbArc
 50
193.1361342479
 51
249.2357160835
  0
ARC
  5
3FB
100
AcDbEntity
  8
CURVE
100
AcDbCircle
 62
250
  6
CONTINUOUS
 10
-12.2599854934
 20
-12.2874371243
 40
0.2947289553
100
AcDbArc
 50
208.919428905
 51
249.7571046777
  0
ARC
  5
3FC
100
AcDbEntity
  8
CURVE
100
AcDbCircle
 62
250
  6
CONTINUOUS
 10
-12.0897303672
 20
-11.5690386219
 40
0.2388709075
100
AcDbArc
 50
354.4931226693
 51
37.3976691326
  0
ARC
  5
3FD
100
AcDbEntity
  8
CURVE
100
AcDbCircle
 62
250
  6
CONTINUOUS
 10
-7.6024619238
 20
-11.5546762095
 40
0.1847257896
100
AcDbArc
 50
347.7211072878
 51
44.1696845138
  0
ARC
  5
3FE
100
AcDbEntity
  8
RACCORDO
100
AcDbCircle
 62
7
  6
CONTINUOUS
 10
-7.965472283
 20
-0.7868912639
 40
5.0
100
AcDbArc
 50
232.5
 51
270.0
  0
ARC
  5
3FF
100
AcDbEntity
  8
RACCORDO
100
AcDbCircle
 62
250
  6
CONTINUOUS
 10
-7.965472283
 20
-0.7868912639
 40
4.5
100
AcDbArc
 50
232.5
 51
270.0
  0
CIRCLE
  5
400
100
AcDbEntity
  8
ASSI
100
AcDbCircle
 62
7
  6
CONTINUOUS
 10
-8.7499619238
 20
0.0000380762
 40
3.0
  0
ARC
  5
401
100
AcDbEntity
  8
RACCORDO
100
AcDbCircle
 62
7
  6
CONTINUOUS
 10
-15.4999619238
 20
1.2131087361
 40
2.0
100
AcDbArc
 50
127.5
 51
232.5
  0
CIRCLE
  5
402
100
AcDbEntity
  8
RACCORDO
100
AcDbCircle
 62
7
  6
CONTINUOUS
 10
-8.7499619238
 20
0.0000380762
 40
2.0
  0
ARC
  5
403
100
AcDbEntity
  8
RACCORDO
100
AcDbCircle
 62
250
  6
CONTINUOUS
 10
-15.4999619238
 20
1.2131087361
 40
1.5
100
AcDbArc
 50
127.5
 51
232.5
  0
ARC
  5
404
100
AcDbEntity
  8
CURVE
100
AcDbCircle
 62
250
  6
CONTINUOUS
 10
-2.4059415153
 20
-16.1774517188
 40
3.8286352778
100
AcDbArc
 50
69.3855109112
 51
72.2065420778
  0
ARC
  5
405
100
AcDbEntity
  8
CURVE
100
AcDbCircle
 62
250
  6
CONTINUOUS
 10
-2.4409619238
 20
-13.9089619238
 40
2.6178437692
100
AcDbArc
 50
84.3220738814
 51
94.7109316969
  0
ARC
  5
406
100
AcDbEntity
  8
CURVE
100
AcDbCircle
 62
250
  6
CONTINUOUS
 10
1.8089980761
 20
-14.2317219239
 40
2.2344696775
100
AcDbArc
 50
50.2422307546
 51
54.2641584709
  0
ARC
  5
407
100
AcDbEntity
  8
CURVE
100
AcDbCircle
 62
250
  6
CONTINUOUS
 10
-3.8016716012
 20
-9.1181716011
 40
1.6847858289
100
AcDbArc
 50
69.5114274086
 51
75.9255758476
  0
ARC
  5
408
100
AcDbEntity
  8
CURVE
100
AcDbCircle
 62
250
  6
CONTINUOUS
 10
-0.0401212181
 20
-11.8219458967
 40
0.9678625993
100
AcDbArc
 50
316.9777142136
 51
320.6241963423
  0
ARC
  5
409
100
AcDbEntity
  8
CURVE
100
AcDbCircle
 62
250
  6
CONTINUOUS
 10
-0.0387210913
 20
-11.8232027563
 40
0.96598145
100
AcDbArc
 50
313.3221199317
 51
316.9755547884
  0
ARC
  5
40A
100
AcDbEntity
  8
CURVE
100
AcDbCircle
 62
250
  6
CONTINUOUS
 10
2.3630380762
 20
-12.8579619238
 40
0.8704027803
100
AcDbArc
 50
30.3654184186
 51
41.7866046941
  0
ARC
  5
40B
100
AcDbEntity
  8
CURVE
100
AcDbCircle
 62
250
  6
CONTINUOUS
 10
-4.8788841206
 20
-8.1103898414
 40
0.6897528288
100
AcDbArc
 50
44.1486135209
 51
61.8961937738
  0
ARC
  5
40C
100
AcDbEntity
  8
CURVE
100
AcDbCircle
 62
250
  6
CONTINUOUS
 10
0.1086170236
 20
-12.1668566606
 40
0.6570564976
100
AcDbArc
 50
335.8226872264
 51
349.2013180211
  0
ARC
  5
40D
100
AcDbEntity
  8
CURVE
100
AcDbCircle
 62
250
  6
CONTINUOUS
 10
-3.5157338999
 20
-10.0587338999
 40
0.6403970619
100
AcDbArc
 50
163.8831920846
 51
286.1168079154
  0
ARC
  5
40E
100
AcDbEntity
  8
CURVE
100
AcDbCircle
 62
250
  6
CONTINUOUS
 10
0.2777597257
 20
-11.8769413052
 40
0.6334805553
100
AcDbArc
 50
42.8698745355
 51
62.3194122016
  0
ARC
  5
40F
100
AcDbEntity
  8
CURVE
100
AcDbCircle
 62
250
  6
CONTINUOUS
 10
-3.5332922809
 20
-10.0116315666
 40
0.6117871832
100
AcDbArc
 50
80.6560383036
 51
167.667371121
  0
ARC
  5
410
100
AcDbEntity
  8
CURVE
100
AcDbCircle
 62
250
  6
CONTINUOUS
 10
-3.5303494899
 20
-9.9937470682
 40
0.5936621921
100
AcDbArc
 50
50.1524186145
 51
80.6560383036
  0
ARC
  5
411
100
AcDbEntity
  8
CURVE
100
AcDbCircle
 62
250
  6
CONTINUOUS
 10
-4.5996285905
 20
-8.0022952571
 40
0.5693296253
100
AcDbArc
 50
127.721991279
 51
136.9929181329
  0
ARC
  5
412
100
AcDbEntity
  8
CURVE
100
AcDbCircle
 62
250
  6
CONTINUOUS
 10
-4.8896285905
 20
-8.401196158
 40
0.5207753525
100
AcDbArc
 50
334.9178384862
 51
351.9680187625
  0
ARC
  5
413
100
AcDbEntity
  8
CURVE
100
AcDbCircle
 62
250
  6
CONTINUOUS
 10
0.376360257
 20
-11.6456855574
 40
0.3426051351
100
AcDbArc
 50
101.5030211908
 51
136.8248283824
  0
ARC
  5
414
100
AcDbEntity
  8
CURVE
100
AcDbCircle
 62
250
  6
CONTINUOUS
 10
0.3295996311
 20
-11.6018125232
 40
0.2784849412
100
AcDbArc
 50
136.8248283824
 51
162.4765787777
  0
ARC
  5
415
100
AcDbEntity
  8
DRAFT
100
AcDbCircle
 62
7
  6
CONTINUOUS
 10
0.0000380762
 20
0.0000380762
 40
26.8084744675
100
AcDbArc
 50
90.0
 51
360.0
  0
ARC
  5
416
100
AcDbEntity
  8
DRAFT
100
AcDbCircle
 62
7
  6
CONTINUOUS
 10
0.0000380762
 20
0.0000380762
 40
26.7962559221
100
AcDbArc
 50
90.0
 51
360.0
  0
ARC
  5
417
100
AcDbEntity
  8
DRAFT
100
AcDbCircle
 62
7
  6
CONTINUOUS
 10
0.0000380762
 20
0.0000380762
 40
26.75
100
AcDbArc
 50
90.0
 51
360.0
  0
ARC
  5
418
100
AcDbEntity
  8
RACCORDO
100
AcDbCircle
 62
250
  6
CONTINUOUS
 10
0.0000380762
 20
0.0000380762
 40
23.3123700791
100
AcDbArc
 50
90.0
 51
360.0
  0
ARC
  5
419
100
AcDbEntity
  8
RACCORDO
100
AcDbCircle
 62
250
  6
CONTINUOUS
 10
0.0000380762
 20
0.0000380762
 40
22.8294071659
100
AcDbArc
 50
90.0
 51
360.0
  0
ARC
  5
41A
100
AcDbEntity
  8
RACCORDO
100
AcDbCircle
 62
7
  6
CONTINUOUS
 10
-7.965472283
 20
3.2131087361
 40
5.0
100
AcDbArc
 50
90.0
 51
127.5
  0
ARC
  5
41B
100
AcDbEntity
  8
RACCORDO
100
AcDbCircle
 62
250
  6
CONTINUOUS
 10
-7.965472283
 20
3.2131087361
 40
4.5
100
AcDbArc
 50
90.0
 51
127.5
  0
ARC
  5
41C
100
AcDbEntity
  8
CURVE
100
AcDbCircle
 62
250
  6
CONTINUOUS
 10
-2.6845519238
 20
14.5000260762
 40
2.5500000352
100
AcDbArc
 50
84.2608296022
 51
275.7391703978
  0
ARC
  5
41D
100
AcDbEntity
  8
CURVE
100
AcDbCircle
 62
250
  6
CONTINUOUS
 10
-7.0195519238
 20
14.5000260762
 40
2.5500000352
100
AcDbArc
 50
84.2608296022
 51
275.7391703978
  0
ARC
  5
41E
100
AcDbEntity
  8
CURVE
100
AcDbCircle
 62
250
  6
CONTINUOUS
 10
-2.6845519238
 20
14.5000260762
 40
1.7850001745
100
AcDbArc
 50
81.7867901066
 51
167.626372977
  0
ARC
  5
41F
100
AcDbEntity
  8
CURVE
100
AcDbCircle
 62
250
  6
CONTINUOUS
 10
-7.0195519238
 20
14.5000260762
 40
1.7850001745
100
AcDbArc
 50
81.7867901066
 51
278.2132098934
  0
ARC
  5
420
100
AcDbEntity
  8
CURVE
100
AcDbCircle
 62
250
  6
CONTINUOUS
 10
-2.6845519238
 20
14.5000260762
 40
1.7849997292
100
AcDbArc
 50
192.373627023
 51
278.2132098934
  0
ARC
  5
421
100
AcDbEntity
  8
RACCORDO
100
AcDbCircle
 62
7
  6
CONTINUOUS
 10
7.9655484354
 20
-0.7868912639
 40
5.0
100
AcDbArc
 50
270.0
 51
307.5
  0
ARC
  5
422
100
AcDbEntity
  8
RACCORDO
100
AcDbCircle
 62
250
  6
CONTINUOUS
 10
7.9655484354
 20
-0.7868912639
 40
4.5
100
AcDbArc
 50
270.0
 51
307.5
  0
CIRCLE
  5
423
100
AcDbEntity
  8
ASSI
100
AcDbCircle
 62
7
  6
CONTINUOUS
 10
8.7500380762
 20
0.0000380762
 40
3.0
  0
ARC
  5
424
100
AcDbEntity
  8
RACCORDO
100
AcDbCircle
 62
7
  6
CONTINUOUS
 10
15.5000380762
 20
1.2131087361
 40
2.0
100
AcDbArc
 50
307.5
 51
52.5
  0
CIRCLE
  5
425
100
AcDbEntity
  8
RACCORDO
100
AcDbCircle
 62
7
  6
CONTINUOUS
 10
8.7500380762
 20
0.0000380762
 40
2.0
  0
ARC
  5
426
100
AcDbEntity
  8
RACCORDO
100
AcDbCircle
 62
250
  6
CONTINUOUS
 10
15.5000380762
 20
1.2131087361
 40
1.5
100
AcDbArc
 50
307.5
 51
52.5
  0
ARC
  5
427
100
AcDbEntity
  8
CURVE
100
AcDbCircle
 62
250
  6
CONTINUOUS
 10
4.1549204292
 20
-10.6687560414
 40
0.7727546584
100
AcDbArc
 50
237.703588857
 51
249.7959264036
  0
CIRCLE
  5
428
100
AcDbEntity
  8
CURVE
100
AcDbCircle
 62
250
  6
CONTINUOUS
 10
15.8647380762
 20
-10.5493339238
 40
0.317592
  0
CIRCLE
  5
429
100
AcDbEntity
  8
CURVE
100
AcDbCircle
 62
250
  6
CONTINUOUS
 10
16.2899510762
 20
-7.2037799238
 40
0.192582
  0
CIRCLE
  5
42A
100
AcDbEntity
  8
CURVE
100
AcDbCircle
 62
250
  6
CONTINUOUS
 10
15.8647380762
 20
-10.5493339238
 40
0.14051
  0
ARC
  5
42B
100
AcDbEntity
  8
DRAFT
100
AcDbCircle
 62
7
  6
CONTINUOUS
 10
21.7279601376
 20
21.7279601376
 40
5.0805524062
100
AcDbArc
 50
0.0
 51
90.0
  0
ARC
  5
42C
100
AcDbEntity
  8
DRAFT
100
AcDbCircle
 62
7
  6
CONTINUOUS
 10
21.7279601376
 20
21.7279601376
 40
5.0683338607
100
AcDbArc
 50
0.0
 51
90.0
  0
ARC
  5
42D
100
AcDbEntity
  8
DRAFT
100
AcDbCircle
 62
7
  6
CONTINUOUS
 10
21.7279601376
 20
21.7279601376
 40
5.0220779386
100
AcDbArc
 50
0.0
 51
90.0
  0
ARC
  5
42E
100
AcDbEntity
  8
RACCORDO
100
AcDbCircle
 62
7
  6
CONTINUOUS
 10
7.9655484354
 20
3.2131087361
 40
5.0
100
AcDbArc
 50
52.5
 51
90.0
  0
ARC
  5
42F
100
AcDbEntity
  8
RACCORDO
100
AcDbCircle
 62
250
  6
CONTINUOUS
 10
7.9655484354
 20
3.2131087361
 40
4.5
100
AcDbArc
 50
52.5
 51
90.0
  0
ARC
  5
430
100
AcDbEntity
  8
RACCORDO
100
AcDbCircle
 62
250
  6
CONTINUOUS
 10
21.7279601376
 20
21.7279601376
 40
1.5844480177
100
AcDbArc
 50
0.0
 51
90.0
  0
ARC
  5
431
100
AcDbEntity
  8
RACCORDO
100
AcDbCircle
 62
250
  6
CONTINUOUS
 10
21.7279601376
 20
21.7279601376
 40
1.1014851046
100
AcDbArc
 50
0.0
 51
90.0
  0
SPLINE
  5
432
100
AcDbEntity
  8
0
100
AcDbSpline
 62
7
  6
CONTINUOUS
 70
0
 71
3
 72
15
 73
11
 74
0
 42
0.0000001
 43
0.0000001
 44
0.0000000001
 40
0.0
 40
0.0
 40
0.0
 40
0.0
 40
0.0561104254
 40
0.1024445212
 40
0.1624275887
 40
0.500033359
 40
0.8376361424
 40
0.8975910839
 40
0.9439076202
 40
1.0
 40
1.0
 40
1.0
 40
1.0
 10
-2.9999619238
 20
-24.8007099866
 30
0.0
 10
-2.9999619238
 20
-24.682072168
 30
0.0
 10
-2.7963844849
 20
-24.5062544599
 30
0.0
 10
-2.4832694706
 20
-24.3986689026
 30
0.0
 10
-1.5576567362
 20
-24.1873528482
 30
0.0
 10
0.0002370939
 20
-24.1692286399
 30
0.0
 10
1.558157476
 20
-24.1872720104
 30
0.0
 10
2.4835915992
 20
-24.3987857452
 30
0.0
 10
2.7966282267
 20
-24.5062708499
 30
0.0
 10
3.0000380762
 20
-24.6821108102
 30
0.0
 10
3.0000380762
 20
-24.8007104739
 30
0.0
  0
SPLINE
  5
433
100
AcDbEntity
  8
0
100
AcDbSpline
 62
7
  6
CONTINUOUS
 70
0
 71
3
 72
13
 73
9
 74
0
 42
0.0000001
 43
0.0000001
 44
0.0000000001
 40
0.0
 40
0.0
 40
0.0
 40
0.0
 40
0.060759071
 40
0.1692691422
 40
0.4999132348
 40
0.8307185221
 40
0.9392437118
 40
1.0
 40
1.0
 40
1.0
 40
1.0
 10
3.0000380762
 20
-24.8007100412
 30
0.0
 10
3.0000380762
 20
-24.9335341134
 30
0.0
 10
2.6960295676
 20
-25.2395059682
 30
0.0
 10
1.7145867111
 20
-25.6501449667
 30
0.0
 10
0.000270919
 20
-25.8863846315
 30
0.0
 10
-1.7141758587
 20
-25.6503532373
 30
0.0
 10
-2.695933213
 20
-25.2395169003
 30
0.0
 10
-2.9999619238
 20
-24.933528036
 30
0.0
 10
-2.9999619238
 20
-24.8007100471
 30
0.0
  0
SPLINE
  5
434
100
AcDbEntity
  8
0
100
AcDbSpline
 62
7
  6
CONTINUOUS
 70
0
 71
3
 72
9
 73
5
 74
0
 42
0.0000001
 43
0.0000001
 44
0.0000000001
 40
0.0
 40
0.0
 40
0.0
 40
0.0
 40
0.3926683497
 40
1.0
 40
1.0
 40
1.0
 40
1.0
 10
2.9452919749
 20
-24.6477914532
 30
0.0
 10
2.855622598
 20
-24.7836388268
 30
0.0
 10
2.4915441596
 20
-25.0218404948
 30
0.0
 10
2.1054978199
 20
-25.162941489
 30
0.0
 10
1.8634477931
 20
-25.2321783958
 30
0.0
  0
SPLINE
  5
435
100
AcDbEntity
  8
0
100
AcDbSpline
 62
7
  6
CONTINUOUS
 70
0
 71
3
 72
9
 73
5
 74
0
 42
0.0000001
 43
0.0000001
 44
0.0000000001
 40
0.0
 40
0.0
 40
0.0
 40
0.0
 40
0.4996681408
 40
1.0
 40
1.0
 40
1.0
 40
1.0
 10
1.8634477931
 20
-25.2321783958
 30
0.0
 10
1.2631401526
 20
-25.4038926681
 30
0.0
 10
0.0052098803
 20
-25.5439966118
 30
0.0
 10
-1.2528231989
 20
-25.4055754717
 30
0.0
 10
-1.8542560544
 20
-25.2347832993
 30
0.0
  0
SPLINE
  5
436
100
AcDbEntity
  8
0
100
AcDbSpline
 62
7
  6
CONTINUOUS
 70
0
 71
3
 72
9
 73
5
 74
0
 42
0.0000001
 43
0.0000001
 44
0.0000000001
 40
0.0
 40
0.0
 40
0.0
 40
0.0
 40
0.6076505865
 40
1.0
 40
1.0
 40
1.0
 40
1.0
 10
-1.8542560544
 20
-25.2347832993
 30
0.0
 10
-2.0984193437
 20
-25.1654469166
 30
0.0
 10
-2.4875863654
 20
-25.023938089
 30
0.0
 10
-2.8550276984
 20
-24.7844952476
 30
0.0
 10
-2.9452770363
 20
-24.6476979654
 30
0.0
  0
SPLINE
  5
437
100
AcDbEntity
  8
CURVE
100
AcDbSpline
 62
250
  6
CONTINUOUS
 70
0
 71
3
 72
17
 73
13
 74
0
 42
0.0000001
 43
0.0000001
 44
0.0000000001
 40
0.0
 40
0.0
 40
0.0
 40
0.0
 40
0.0559780952
 40
0.1687540387
 40
0.321006234
 40
0.4122750837
 40
0.516613223
 40
0.6013931059
 40
0.6776022439
 40
0.8103422694
 40
0.9200404832
 40
1.0
 40
1.0
 40
1.0
 40
1.0
 10
20.3717875893
 20
19.9311088033
 30
0.0
 10
20.4063716891
 20
19.9355712678
 30
0.0
 10
20.4942799987
 20
20.0048061286
 30
0.0
 10
20.6400656951
 20
20.1367870877
 30
0.0
 10
20.7474104718
 20
20.3399512834
 30
0.0
 10
20.7952301099
 20
20.5518975255
 30
0.0
 10
20.7997226691
 20
20.7278084822
 30
0.0
 10
20.776046382
 20
20.8921078888
 30
0.0
 10
20.7186631914
 20
21.0666888253
 30
0.0
 10
20.6108858165
 20
21.2377819489
 30
0.0
 10
20.4587125492
 20
21.3715812661
 30
0.0
 10
20.3540839593
 20
21.4292876861
 30
0.0
 10
20.3072298823
 20
21.4461904599
 30
0.0
  0
SPLINE
  5
438
100
AcDbEntity
  8
CURVE
100
AcDbSpline
 62
250
  6
CONTINUOUS
 70
0
 71
3
 72
9
 73
5
 74
0
 42
0.0000001
 43
0.0000001
 44
0.0000000001
 40
0.0
 40
0.0
 40
0.0
 40
0.0
 40
0.2957417834
 40
1.0
 40
1.0
 40
1.0
 40
1.0
 10
20.3072298823
 20
21.4461904599
 30
0.0
 10
20.1629869984
 20
21.4983021152
 30
0.0
 10
19.6445211506
 20
21.5832472193
 30
0.0
 10
19.1233357078
 20
21.5309297088
 30
0.0
 10
18.7620062998
 20
21.4777720002
 30
0.0
  0
SPLINE
  5
439
100
AcDbEntity
  8
CURVE
100
AcDbSpline
 62
250
  6
CONTINUOUS
 70
0
 71
3
 72
9
 73
5
 74
0
 42
0.0000001
 43
0.0000001
 44
0.0000000001
 40
0.0
 40
0.0
 40
0.0
 40
0.0
 40
0.3559141631
 40
1.0
 40
1.0
 40
1.0
 40
1.0
 10
19.7213518209
 20
19.6870716733
 30
0.0
 10
19.7759156094
 20
19.6870716733
 30
0.0
 10
19.9328809968
 20
19.6540315684
 30
0.0
 10
20.0359891989
 20
19.5152139649
 30
0.0
 10
20.0706832458
 20
19.4227674722
 30
0.0
  0
SPLINE
  5
43A
100
AcDbEntity
  8
CURVE
100
AcDbSpline
 62
250
  6
CONTINUOUS
 70
0
 71
3
 72
9
 73
5
 74
0
 42
0.0000001
 43
0.0000001
 44
0.0000000001
 40
0.0
 40
0.0
 40
0.0
 40
0.0
 40
0.5586214172
 40
1.0
 40
1.0
 40
1.0
 40
1.0
 10
20.0706832458
 20
19.4227674722
 30
0.0
 10
20.1328910825
 20
19.2571828825
 30
0.0
 10
20.2146999182
 20
18.9505669625
 30
0.0
 10
20.3058626645
 20
18.6474975806
 30
0.0
 10
20.3444799042
 20
18.5131786229
 30
0.0
  0
SPLINE
  5
43B
100
AcDbEntity
  8
CURVE
100
AcDbSpline
 62
250
  6
CONTINUOUS
 70
0
 71
3
 72
9
 73
5
 74
0
 42
0.0000001
 43
0.0000001
 44
0.0000000001
 40
0.0
 40
0.0
 40
0.0
 40
0.0
 40
0.1980141723
 40
1.0
 40
1.0
 40
1.0
 40
1.0
 10
20.946756073
 20
18.5131786229
 30
0.0
 10
20.9322306813
 20
18.5666600044
 30
0.0
 10
20.8611353973
 20
18.8373557478
 30
0.0
 10
20.7917042502
 20
19.108492866
 30
0.0
 10
20.7327034111
 20
19.3250536467
 30
0.0
  0
SPLINE
  5
43C
100
AcDbEntity
  8
CURVE
100
AcDbSpline
 62
250
  6
CONTINUOUS
 70
0
 71
3
 72
9
 73
5
 74
0
 42
0.0000001
 43
0.0000001
 44
0.0000000001
 40
0.0
 40
0.0
 40
0.0
 40
0.0
 40
0.2426586216
 40
1.0
 40
1.0
 40
1.0
 40
1.0
 10
20.7327034111
 20
19.3250536467
 30
0.0
 10
20.7178536575
 20
19.379562134
 30
0.0
 10
20.6611298907
 20
19.599680689
 30
0.0
 10
20.5355688934
 20
19.8480757564
 30
0.0
 10
20.3717875893
 20
19.9133835514
 30
0.0
  0
SPLINE
  5
43D
100
AcDbEntity
  8
CURVE
100
AcDbSpline
 62
250
  6
CONTINUOUS
 70
0
 71
3
 72
9
 73
5
 74
0
 42
0.0000001
 43
0.0000001
 44
0.0000000001
 40
0.0
 40
0.0
 40
0.0
 40
0.0
 40
0.2703953699
 40
1.0
 40
1.0
 40
1.0
 40
1.0
 10
19.364867312
 20
21.0017994985
 30
0.0
 10
19.408569348
 20
21.009256571
 30
0.0
 10
19.5706977416
 20
21.033782288
 30
0.0
 10
19.7365661427
 20
21.0332498625
 30
0.0
 10
19.8553934153
 20
21.0194572685
 30
0.0
  0
SPLINE
  5
43E
100
AcDbEntity
  8
CURVE
100
AcDbSpline
 62
250
  6
CONTINUOUS
 70
0
 71
3
 72
9
 73
5
 74
0
 42
0.0000001
 43
0.0000001
 44
0.0000000001
 40
0.0
 40
0.0
 40
0.0
 40
0.0
 40
0.5013510385
 40
1.0
 40
1.0
 40
1.0
 40
1.0
 10
19.8553934153
 20
21.0194572685
 30
0.0
 10
19.9471617535
 20
21.0088029853
 30
0.0
 10
20.1327739376
 20
20.9279876295
 30
0.0
 10
20.207651692
 20
20.7363583077
 30
0.0
 10
20.2090886713
 20
20.6444827126
 30
0.0
  0
SPLINE
  5
43F
100
AcDbEntity
  8
CURVE
100
AcDbSpline
 62
250
  6
CONTINUOUS
 70
0
 71
3
 72
10
 73
6
 74
0
 42
0.0000001
 43
0.0000001
 44
0.0000000001
 40
0.0
 40
0.0
 40
0.0
 40
0.0
 40
0.2929210355
 40
0.5275938042
 40
1.0
 40
1.0
 40
1.0
 40
1.0
 10
20.2090886713
 20
20.6444827126
 30
0.0
 10
20.2102310945
 20
20.5704450813
 30
0.0
 10
20.1942616334
 20
20.4328646983
 30
0.0
 10
20.03731593
 20
20.2200788001
 30
0.0
 10
19.8420895292
 20
20.1810066973
 30
0.0
 10
19.7227014593
 20
20.1783400777
 30
0.0
  0
SPLINE
  5
440
100
AcDbEntity
  8
CURVE
100
AcDbSpline
 62
250
  6
CONTINUOUS
 70
0
 71
3
 72
11
 73
7
 74
0
 42
0.0000001
 43
0.0000001
 44
0.0000000001
 40
0.0
 40
0.0
 40
0.0
 40
0.0
 40
0.6087577627
 40
0.7152346213
 40
0.8768961689
 40
1.0
 40
1.0
 40
1.0
 40
1.0
 10
-7.5659619238
 20
-8.1179619238
 30
0.0
 10
-7.4587397066
 20
-8.1130792426
 30
0.0
 10
-7.3321768309
 20
-8.1277019768
 30
0.0
 10
-7.1781332307
 20
-8.1117662001
 30
0.0
 10
-7.1106481036
 20
-8.0971874745
 30
0.0
 10
-7.0614193128
 20
-8.0872317199
 30
0.0
 10
-7.0399619238
 20
-8.0839619238
 30
0.0
  0
SPLINE
  5
441
100
AcDbEntity
  8
CURVE
100
AcDbSpline
 62
250
  6
CONTINUOUS
 70
0
 71
3
 72
12
 73
8
 74
0
 42
0.0000001
 43
0.0000001
 44
0.0000000001
 40
0.0
 40
0.0
 40
0.0
 40
0.0
 40
0.1800668763
 40
0.3601337526
 40
0.4743069344
 40
0.6999582397
 40
1.0
 40
1.0
 40
1.0
 40
1.0
 10
-6.9739619238
 20
-8.0499619238
 30
0.0
 10
-6.9596749445
 20
-8.0398572494
 30
0.0
 10
-6.9329261919
 20
-8.0169402664
 30
0.0
 10
-6.9031536436
 20
-7.9816038876
 30
0.0
 10
-6.8749756232
 20
-7.9394140997
 30
0.0
 10
-6.8560450508
 20
-7.8791686
 30
0.0
 10
-6.8498057568
 20
-7.8285288949
 30
0.0
 10
-6.8439619238
 20
-7.7999619238
 30
0.0
  0
SPLINE
  5
442
100
AcDbEntity
  8
CURVE
100
AcDbSpline
 62
250
  6
CONTINUOUS
 70
0
 71
3
 72
9
 73
5
 74
0
 42
0.0000001
 43
0.0000001
 44
0.0000000001
 40
0.0
 40
0.0
 40
0.0
 40
0.0
 40
0.4033722051
 40
1.0
 40
1.0
 40
1.0
 40
1.0
 10
-6.8439619238
 20
-7.7999619238
 30
0.0
 10
-6.8455341538
 20
-7.7757826102
 30
0.0
 10
-6.8537435407
 20
-7.7160605498
 30
0.0
 10
-6.8730456849
 20
-7.6585495021
 30
0.0
 10
-6.8879619238
 20
-7.6259619238
 30
0.0
  0
SPLINE
  5
443
100
AcDbEntity
  8
CURVE
100
AcDbSpline
 62
250
  6
CONTINUOUS
 70
0
 71
3
 72
10
 73
6
 74
0
 42
0.0000001
 43
0.0000001
 44
0.0000000001
 40
0.0
 40
0.0
 40
0.0
 40
0.0
 40
0.36486212
 40
0.8210732365
 40
1.0
 40
1.0
 40
1.0
 40
1.0
 10
-6.9399619238
 20
-7.5699619238
 30
0.0
 10
-6.9641791525
 20
-7.5519442396
 30
0.0
 10
-7.0232553602
 20
-7.5173149824
 30
0.0
 10
-7.1030946106
 20
-7.4923734748
 30
0.0
 10
-7.1552167773
 20
-7.4852626028
 30
0.0
 10
-7.1699619238
 20
-7.4839619238
 30
0.0
  0
SPLINE
  5
444
100
AcDbEntity
  8
CURVE
100
AcDbSpline
 62
250
  6
CONTINUOUS
 70
0
 71
3
 72
11
 73
7
 74
0
 42
0.0000001
 43
0.0000001
 44
0.0000000001
 40
0.0
 40
0.0
 40
0.0
 40
0.0
 40
0.2682451529
 40
0.4740415665
 40
0.6577066809
 40
1.0
 40
1.0
 40
1.0
 40
1.0
 10
-4.5539619238
 20
-7.5019619238
 30
0.0
 10
-4.5893490985
 20
-7.4930317579
 30
0.0
 10
-4.6532629726
 20
-7.481960232
 30
0.0
 10
-4.743149468
 20
-7.4815920983
 30
0.0
 10
-4.8417282842
 20
-7.497212578
 30
0.0
 10
-4.909330214
 20
-7.5259526968
 30
0.0
 10
-4.9479619238
 20
-7.5519619238
 30
0.0
  0
SPLINE
  5
445
100
AcDbEntity
  8
CURVE
100
AcDbSpline
 62
250
  6
CONTINUOUS
 70
0
 71
3
 72
10
 73
6
 74
0
 42
0.0000001
 43
0.0000001
 44
0.0000000001
 40
0.0
 40
0.0
 40
0.0
 40
0.0
 40
0.3354674136
 40
0.7533531988
 40
1.0
 40
1.0
 40
1.0
 40
1.0
 10
-5.0619619238
 20
-7.7039619238
 30
0.0
 10
-5.0688218806
 20
-7.7237397704
 30
0.0
 10
-5.0751301761
 20
-7.7713591761
 30
0.0
 10
-5.0669148498
 20
-7.8333133299
 30
0.0
 10
-5.0626032218
 20
-7.8745840948
 30
0.0
 10
-5.0619619238
 20
-7.8899619238
 30
0.0
  0
SPLINE
  5
446
100
AcDbEntity
  8
CURVE
100
AcDbSpline
 62
250
  6
CONTINUOUS
 70
0
 71
3
 72
12
 73
8
 74
0
 42
0.0000001
 43
0.0000001
 44
0.0000000001
 40
0.0
 40
0.0
 40
0.0
 40
0.0
 40
0.1836626646
 40
0.3715515067
 40
0.7138517699
 40
0.8957530122
 40
1.0
 40
1.0
 40
1.0
 40
1.0
 10
-5.0099619238
 20
-7.9859619238
 30
0.0
 10
-4.9811534107
 20
-8.0082594726
 30
0.0
 10
-4.9205916196
 20
-8.050564408
 30
0.0
 10
-4.7938682139
 20
-8.1151641308
 30
0.0
 10
-4.6533673744
 20
-8.1450736849
 30
0.0
 10
-4.5469211078
 20
-8.2112572569
 30
0.0
 10
-4.4939839209
 20
-8.232797121
 30
0.0
 10
-4.4739619238
 20
-8.2379619238
 30
0.0
  0
SPLINE
  5
447
100
AcDbEntity
  8
CURVE
100
AcDbSpline
 62
250
  6
CONTINUOUS
 70
0
 71
3
 72
9
 73
5
 74
0
 42
0.0000001
 43
0.0000001
 44
0.0000000001
 40
0.0
 40
0.0
 40
0.0
 40
0.0
 40
0.5496796532
 40
1.0
 40
1.0
 40
1.0
 40
1.0
 10
-4.4739619238
 20
-8.2379619238
 30
0.0
 10
-4.4529394739
 20
-8.2606543342
 30
0.0
 10
-4.4186197968
 20
-8.3058288139
 30
0.0
 10
-4.3934085992
 20
-8.3564463429
 30
0.0
 10
-4.3839619238
 20
-8.3799619238
 30
0.0
  0
SPLINE
  5
448
100
AcDbEntity
  8
CURVE
100
AcDbSpline
 62
250
  6
CONTINUOUS
 70
0
 71
3
 72
10
 73
6
 74
0
 42
0.0000001
 43
0.0000001
 44
0.0000000001
 40
0.0
 40
0.0
 40
0.0
 40
0.0
 40
0.3132314915
 40
0.6058490146
 40
1.0
 40
1.0
 40
1.0
 40
1.0
 10
-4.5019619238
 20
-8.7119619238
 30
0.0
 10
-4.5209534297
 20
-8.7219724978
 30
0.0
 10
-4.5583559352
 20
-8.7401138302
 30
0.0
 10
-4.6221501732
 20
-8.7653079325
 30
0.0
 10
-4.6675539574
 20
-8.7782700798
 30
0.0
 10
-4.6939619238
 20
-8.7839619238
 30
0.0
  0
SPLINE
  5
449
100
AcDbEntity
  8
CURVE
100
AcDbSpline
 62
250
  6
CONTINUOUS
 70
0
 71
3
 72
12
 73
8
 74
0
 42
0.0000001
 43
0.0000001
 44
0.0000000001
 40
0.0
 40
0.0
 40
0.0
 40
0.0
 40
0.2434805706
 40
0.41354132
 40
0.5874742121
 40
0.7853553113
 40
1.0
 40
1.0
 40
1.0
 40
1.0
 10
-4.6939619238
 20
-8.7839619238
 30
0.0
 10
-4.7318609122
 20
-8.7867308003
 30
0.0
 10
-4.7967107909
 20
-8.7884363334
 30
0.0
 10
-4.8877613359
 20
-8.7712818799
 30
0.0
 10
-4.964014881
 20
-8.7333321787
 30
0.0
 10
-5.041620007
 20
-8.6847103557
 30
0.0
 10
-5.089951516
 20
-8.641215917
 30
0.0
 10
-5.1119619238
 20
-8.6159619238
 30
0.0
  0
SPLINE
  5
44A
100
AcDbEntity
  8
CURVE
100
AcDbSpline
 62
250
  6
CONTINUOUS
 70
0
 71
3
 72
12
 73
8
 74
0
 42
0.0000001
 43
0.0000001
 44
0.0000000001
 40
0.0
 40
0.0
 40
0.0
 40
0.0
 40
0.1082020235
 40
0.3360151056
 40
0.4994638945
 40
0.7138616239
 40
1.0
 40
1.0
 40
1.0
 40
1.0
 10
-3.0819619238
 20
-7.9059619238
 30
0.0
 10
-3.0802836244
 20
-7.8945765052
 30
0.0
 10
-3.0736256387
 20
-7.8595107635
 30
0.0
 10
-3.0632451423
 20
-7.8069411212
 30
0.0
 10
-3.0691704418
 20
-7.7422594053
 30
0.0
 10
-3.0877800048
 20
-7.6738036208
 30
0.0
 10
-3.1137591807
 20
-7.6263521342
 30
0.0
 10
-3.1319619238
 20
-7.6019619238
 30
0.0
  0
SPLINE
  5
44B
100
AcDbEntity
  8
CURVE
100
AcDbSpline
 62
250
  6
CONTINUOUS
 70
0
 71
3
 72
10
 73
6
 74
0
 42
0.0000001
 43
0.0000001
 44
0.0000000001
 40
0.0
 40
0.0
 40
0.0
 40
0.0
 40
0.2379316849
 40
0.4351879682
 40
1.0
 40
1.0
 40
1.0
 40
1.0
 10
-3.2399619238
 20
-8.0759619238
 30
0.0
 10
-3.279362278
 20
-8.092388558
 30
0.0
 10
-3.3564730031
 20
-8.1107867796
 30
0.0
 10
-3.5358277304
 20
-8.1181286972
 30
0.0
 10
-3.6733598457
 20
-8.1018101206
 30
0.0
 10
-3.7739619238
 20
-8.1139619238
 30
0.0
  0
SPLINE
  5
44C
100
AcDbEntity
  8
CURVE
100
AcDbSpline
 62
250
  6
CONTINUOUS
 70
0
 71
3
 72
12
 73
8
 74
0
 42
0.0000001
 43
0.0000001
 44
0.0000000001
 40
0.0
 40
0.0
 40
0.0
 40
0.0
 40
0.200207805
 40
0.3854156326
 40
0.5881105864
 40
0.775644912
 40
1.0
 40
1.0
 40
1.0
 40
1.0
 10
-12.3619619238
 20
-12.5639619238
 30
0.0
 10
-12.3334352136
 20
-12.5744819642
 30
0.0
 10
-12.2766329459
 20
-12.5900220932
 30
0.0
 10
-12.1873544814
 20
-12.5986647566
 30
0.0
 10
-12.0996927711
 20
-12.5912052608
 30
0.0
 10
-12.0094455404
 20
-12.5654530231
 30
0.0
 10
-11.9543148309
 20
-12.5335585248
 30
0.0
 10
-11.9279619238
 20
-12.5119619238
 30
0.0
  0
SPLINE
  5
44D
100
AcDbEntity
  8
CURVE
100
AcDbSpline
 62
250
  6
CONTINUOUS
 70
0
 71
3
 72
9
 73
5
 74
0
 42
0.0000001
 43
0.0000001
 44
0.0000000001
 40
0.0
 40
0.0
 40
0.0
 40
0.0
 40
0.4876173506
 40
1.0
 40
1.0
 40
1.0
 40
1.0
 10
-11.9279619238
 20
-12.5119619238
 30
0.0
 10
-11.9061562024
 20
-12.4916625132
 30
0.0
 10
-11.8659210732
 20
-12.4448420075
 30
0.0
 10
-11.8384899431
 20
-12.3894434571
 30
0.0
 10
-11.8279619238
 20
-12.3599619238
 30
0.0
  0
SPLINE
  5
44E
100
AcDbEntity
  8
CURVE
100
AcDbSpline
 62
250
  6
CONTINUOUS
 70
0
 71
3
 72
9
 73
5
 74
0
 42
0.0000001
 43
0.0000001
 44
0.0000000001
 40
0.0
 40
0.0
 40
0.0
 40
0.0
 40
0.5137292907
 40
1.0
 40
1.0
 40
1.0
 40
1.0
 10
-11.8279619238
 20
-12.3599619238
 30
0.0
 10
-11.8195774145
 20
-12.3254055286
 30
0.0
 10
-11.8113896578
 20
-12.2557811702
 30
0.0
 10
-11.8213783577
 20
-12.1865074501
 30
0.0
 10
-11.8299619238
 20
-12.1539619238
 30
0.0
  0
SPLINE
  5
44F
100
AcDbEntity
  8
CURVE
100
AcDbSpline
 62
250
  6
CONTINUOUS
 70
0
 71
3
 72
9
 73
5
 74
0
 42
0.0000001
 43
0.0000001
 44
0.0000000001
 40
0.0
 40
0.0
 40
0.0
 40
0.0
 40
0.5205413139
 40
1.0
 40
1.0
 40
1.0
 40
1.0
 10
-11.8699619238
 20
-12.0719619238
 30
0.0
 10
-11.8907735343
 20
-12.0469599421
 30
0.0
 10
-11.9358912271
 20
-12.0029106032
 30
0.0
 10
-11.9891913699
 20
-11.9694198293
 30
0.0
 10
-12.0159619238
 20
-11.9559619238
 30
0.0
  0
SPLINE
  5
450
100
AcDbEntity
  8
CURVE
100
AcDbSpline
 62
250
  6
CONTINUOUS
 70
0
 71
3
 72
10
 73
6
 74
0
 42
0.0000001
 43
0.0000001
 44
0.0000000001
 40
0.0
 40
0.0
 40
0.0
 40
0.0
 40
0.3815115945
 40
0.691544499
 40
1.0
 40
1.0
 40
1.0
 40
1.0
 10
-12.1559619238
 20
-11.9139619238
 30
0.0
 10
-12.1192153375
 20
-11.9074709421
 30
0.0
 10
-12.0541313692
 20
-11.8848815798
 30
0.0
 10
-11.9721695993
 20
-11.8304331306
 30
0.0
 10
-11.9291245822
 20
-11.7872646005
 30
0.0
 10
-11.9099619238
 20
-11.7639619238
 30
0.0
  0
SPLINE
  5
451
100
AcDbEntity
  8
CURVE
100
AcDbSpline
 62
250
  6
CONTINUOUS
 70
0
 71
3
 72
13
 73
9
 74
0
 42
0.0000001
 43
0.0000001
 44
0.0000000001
 40
0.0
 40
0.0
 40
0.0
 40
0.0
 40
0.167489503
 40
0.3703874395
 40
0.5235471252
 40
0.6735776431
 40
0.8231113698
 40
1.0
 40
1.0
 40
1.0
 40
1.0
 10
-12.0499619238
 20
-11.3119619238
 30
0.0
 10
-12.0741484077
 20
-11.3027295775
 30
0.0
 10
-12.1314071798
 20
-11.2918002939
 30
0.0
 10
-12.2125407687
 20
-11.2978966407
 30
0.0
 10
-12.2897136819
 20
-11.3102946355
 30
0.0
 10
-12.3574096219
 20
-11.3306927453
 30
0.0
 10
-12.4190030173
 20
-11.3727475883
 30
0.0
 10
-12.4540305965
 20
-11.4093215978
 30
0.0
 10
-12.4719619238
 20
-11.4299619238
 30
0.0
  0
SPLINE
  5
452
100
AcDbEntity
  8
CURVE
100
AcDbSpline
 62
250
  6
CONTINUOUS
 70
0
 71
3
 72
11
 73
7
 74
0
 42
0.0000001
 43
0.0000001
 44
0.0000000001
 40
0.0
 40
0.0
 40
0.0
 40
0.0
 40
0.5881335581
 40
0.737782614
 40
0.9160609051
 40
1.0
 40
1.0
 40
1.0
 40
1.0
 10
-10.9739619238
 20
-11.2979619238
 30
0.0
 10
-11.0732373958
 20
-11.4529068696
 30
0.0
 10
-11.2060514711
 20
-11.642363194
 30
0.0
 10
-11.3416023531
 20
-11.8951841795
 30
0.0
 10
-11.3940786578
 20
-12.0129492829
 30
0.0
 10
-11.4271925543
 20
-12.0880078331
 30
0.0
 10
-11.4379619238
 20
-12.1119619238
 30
0.0
  0
SPLINE
  5
453
100
AcDbEntity
  8
CURVE
100
AcDbSpline
 62
250
  6
CONTINUOUS
 70
0
 71
3
 72
9
 73
5
 74
0
 42
0.0000001
 43
0.0000001
 44
0.0000000001
 40
0.0
 40
0.0
 40
0.0
 40
0.0
 40
0.5643685116
 40
1.0
 40
1.0
 40
1.0
 40
1.0
 10
-11.4379619238
 20
-12.1119619238
 30
0.0
 10
-11.4454100615
 20
-12.1540580139
 30
0.0
 10
-11.450385749
 20
-12.2304514369
 30
0.0
 10
-11.4394613031
 20
-12.3058270798
 30
0.0
 10
-11.4319619238
 20
-12.3379619238
 30
0.0
  0
SPLINE
  5
454
100
AcDbEntity
  8
CURVE
100
AcDbSpline
 62
250
  6
CONTINUOUS
 70
0
 71
3
 72
11
 73
7
 74
0
 42
0.0000001
 43
0.0000001
 44
0.0000000001
 40
0.0
 40
0.0
 40
0.0
 40
0.0
 40
0.2365204416
 40
0.4884423963
 40
0.7369753571
 40
1.0
 40
1.0
 40
1.0
 40
1.0
 10
-11.2359619238
 20
-12.5619619238
 30
0.0
 10
-11.2085196181
 20
-12.5744442612
 30
0.0
 10
-11.1487636316
 20
-12.5938680854
 30
0.0
 10
-11.0541884092
 20
-12.6019813373
 30
0.0
 10
-10.9574667206
 20
-12.5859629974
 30
0.0
 10
-10.8954531523
 20
-12.5654642074
 30
0.0
 10
-10.8639619238
 20
-12.5539619238
 30
0.0
  0
SPLINE
  5
455
100
AcDbEntity
  8
CURVE
100
AcDbSpline
 62
250
  6
CONTINUOUS
 70
0
 71
3
 72
9
 73
5
 74
0
 42
0.0000001
 43
0.0000001
 44
0.0000000001
 40
0.0
 40
0.0
 40
0.0
 40
0.0
 40
0.5104324434
 40
1.0
 40
1.0
 40
1.0
 40
1.0
 10
-10.7839619238
 20
-12.4919619238
 30
0.0
 10
-10.7599977681
 20
-12.4652547188
 30
0.0
 10
-10.718848422
 20
-12.4072945892
 30
0.0
 10
-10.6929445612
 20
-12.3411847573
 30
0.0
 10
-10.6839619238
 20
-12.3079619238
 30
0.0
  0
SPLINE
  5
456
100
AcDbEntity
  8
CURVE
100
AcDbSpline
 62
250
  6
CONTINUOUS
 70
0
 71
3
 72
9
 73
5
 74
0
 42
0.0000001
 43
0.0000001
 44
0.0000000001
 40
0.0
 40
0.0
 40
0.0
 40
0.0
 40
0.5313795039
 40
1.0
 40
1.0
 40
1.0
 40
1.0
 10
-10.7839619238
 20
-11.9599619238
 30
0.0
 10
-10.8100232306
 20
-11.9366684469
 30
0.0
 10
-10.8644759601
 20
-11.8983881916
 30
0.0
 10
-10.9262545638
 20
-11.8741896199
 30
0.0
 10
-10.9559619238
 20
-11.8659619238
 30
0.0
  0
SPLINE
  5
457
100
AcDbEntity
  8
CURVE
100
AcDbSpline
 62
250
  6
CONTINUOUS
 70
0
 71
3
 72
11
 73
7
 74
0
 42
0.0000001
 43
0.0000001
 44
0.0000000001
 40
0.0
 40
0.0
 40
0.0
 40
0.0
 40
0.2648878743
 40
0.531142333
 40
0.7562537397
 40
1.0
 40
1.0
 40
1.0
 40
1.0
 10
-10.9559619238
 20
-11.8659619238
 30
0.0
 10
-10.9895534072
 20
-11.8603394472
 30
0.0
 10
-11.0583662724
 20
-11.8569142546
 30
0.0
 10
-11.1550425283
 20
-11.8694339839
 30
0.0
 10
-11.2472829481
 20
-11.8910137066
 30
0.0
 10
-11.3018510969
 20
-11.91993968
 30
0.0
 10
-11.3259619238
 20
-11.9399619238
 30
0.0
  0
SPLINE
  5
458
100
AcDbEntity
  8
CURVE
100
AcDbSpline
 62
250
  6
CONTINUOUS
 70
0
 71
3
 72
10
 73
6
 74
0
 42
0.0000001
 43
0.0000001
 44
0.0000000001
 40
0.0
 40
0.0
 40
0.0
 40
0.0
 40
0.3617587753
 40
0.7977873145
 40
1.0
 40
1.0
 40
1.0
 40
1.0
 10
-9.0559619238
 20
-11.7659619238
 30
0.0
 10
-9.077555809
 20
-11.8071597354
 30
0.0
 10
-9.1249780402
 20
-11.898114117
 30
0.0
 10
-9.1807543229
 20
-12.0140437607
 30
0.0
 10
-9.2124240036
 20
-12.0897745701
 30
0.0
 10
-9.2219619238
 20
-12.1139619238
 30
0.0
  0
SPLINE
  5
459
100
AcDbEntity
  8
CURVE
100
AcDbSpline
 62
250
  6
CONTINUOUS
 70
0
 71
3
 72
10
 73
6
 74
0
 42
0.0000001
 43
0.0000001
 44
0.0000000001
 40
0.0
 40
0.0
 40
0.0
 40
0.0
 40
0.3968269402
 40
0.7037350064
 40
1.0
 40
1.0
 40
1.0
 40
1.0
 10
-9.2219619238
 20
-12.1139619238
 30
0.0
 10
-9.2305052467
 20
-12.1558971976
 30
0.0
 10
-9.2369255371
 20
-12.2325118987
 30
0.0
 10
-9.2202004016
 20
-12.3398641517
 30
0.0
 10
-9.1944287257
 20
-12.4005806651
 30
0.0
 10
-9.1779619238
 20
-12.4279619238
 30
0.0
  0
SPLINE
  5
45A
100
AcDbEntity
  8
CURVE
100
AcDbSpline
 62
250
  6
CONTINUOUS
 70
0
 71
3
 72
11
 73
7
 74
0
 42
0.0000001
 43
0.0000001
 44
0.0000000001
 40
0.0
 40
0.0
 40
0.0
 40
0.0
 40
0.2353029011
 40
0.4859280327
 40
0.7383293337
 40
1.0
 40
1.0
 40
1.0
 40
1.0
 10
-9.0219619238
 20
-12.5639619238
 30
0.0
 10
-8.994546255
 20
-12.5765026572
 30
0.0
 10
-8.9347466357
 20
-12.5958766592
 30
0.0
 10
-8.8395423141
 20
-12.6039054368
 30
0.0
 10
-8.7421050887
 20
-12.5881893829
 30
0.0
 10
-8.6794054907
 20
-12.5675938668
 30
0.0
 10
-8.6479619238
 20
-12.5559619238
 30
0.0
  0
SPLINE
  5
45B
100
AcDbEntity
  8
CURVE
100
AcDbSpline
 62
250
  6
CONTINUOUS
 70
0
 71
3
 72
10
 73
6
 74
0
 42
0.0000001
 43
0.0000001
 44
0.0000000001
 40
0.0
 40
0.0
 40
0.0
 40
0.0
 40
0.3509922135
 40
0.6852918581
 40
1.0
 40
1.0
 40
1.0
 40
1.0
 10
-8.5679619238
 20
-12.4939619238
 30
0.0
 10
-8.5436537154
 20
-12.467567482
 30
0.0
 10
-8.5028000957
 20
-12.4094960534
 30
0.0
 10
-8.4663087969
 20
-12.3129657532
 30
0.0
 10
-8.4590888963
 20
-12.2461232194
 30
0.0
 10
-8.4599619238
 20
-12.2139619238
 30
0.0
  0
SPLINE
  5
45C
100
AcDbEntity
  8
CURVE
100
AcDbSpline
 62
250
  6
CONTINUOUS
 70
0
 71
3
 72
9
 73
5
 74
0
 42
0.0000001
 43
0.0000001
 44
0.0000000001
 40
0.0
 40
0.0
 40
0.0
 40
0.0
 40
0.5313795039
 40
1.0
 40
1.0
 40
1.0
 40
1.0
 10
-8.5679619238
 20
-11.9619619238
 30
0.0
 10
-8.5940232306
 20
-11.9386684469
 30
0.0
 10
-8.6484759601
 20
-11.9003881916
 30
0.0
 10
-8.7102545638
 20
-11.8761896199
 30
0.0
 10
-8.7399619238
 20
-11.8679619238
 30
0.0
  0
SPLINE
  5
45D
100
AcDbEntity
  8
CURVE
100
AcDbSpline
 62
250
  6
CONTINUOUS
 70
0
 71
3
 72
11
 73
7
 74
0
 42
0.0000001
 43
0.0000001
 44
0.0000000001
 40
0.0
 40
0.0
 40
0.0
 40
0.0
 40
0.2636920443
 40
0.5287445038
 40
0.7528396504
 40
1.0
 40
1.0
 40
1.0
 40
1.0
 10
-8.7399619238
 20
-11.8679619238
 30
0.0
 10
-8.7735583609
 20
-11.8623691234
 30
0.0
 10
-8.8423586421
 20
-11.8589196297
 30
0.0
 10
-8.9390604769
 20
-11.8713736298
 30
0.0
 10
-9.0317957996
 20
-11.8933499418
 30
0.0
 10
-9.0870408655
 20
-11.9220106842
 30
0.0
 10
-9.1119619238
 20
-11.9419619238
 30
0.0
  0
SPLINE
  5
45E
100
AcDbEntity
  8
CURVE
100
AcDbSpline
 62
250
  6
CONTINUOUS
 70
0
 71
3
 72
12
 73
8
 74
0
 42
0.0000001
 43
0.0000001
 44
0.0000000001
 40
0.0
 40
0.0
 40
0.0
 40
0.0
 40
0.200207805
 40
0.3854156326
 40
0.5881105864
 40
0.775644912
 40
1.0
 40
1.0
 40
1.0
 40
1.0
 10
-7.9319619238
 20
-12.5659619238
 30
0.0
 10
-7.9034352136
 20
-12.5764819642
 30
0.0
 10
-7.8466329459
 20
-12.5920220932
 30
0.0
 10
-7.7573544814
 20
-12.6006647566
 30
0.0
 10
-7.6696927711
 20
-12.5932052608
 30
0.0
 10
-7.5794455404
 20
-12.5674530231
 30
0.0
 10
-7.5243148309
 20
-12.5355585248
 30
0.0
 10
-7.4979619238
 20
-12.5139619238
 30
0.0
  0
SPLINE
  5
45F
100
AcDbEntity
  8
CURVE
100
AcDbSpline
 62
250
  6
CONTINUOUS
 70
0
 71
3
 72
9
 73
5
 74
0
 42
0.0000001
 43
0.0000001
 44
0.0000000001
 40
0.0
 40
0.0
 40
0.0
 40
0.0
 40
0.4876173506
 40
1.0
 40
1.0
 40
1.0
 40
1.0
 10
-7.4979619238
 20
-12.5139619238
 30
0.0
 10
-7.4761562024
 20
-12.4936625132
 30
0.0
 10
-7.4359210732
 20
-12.4468420075
 30
0.0
 10
-7.4084899431
 20
-12.3914434571
 30
0.0
 10
-7.3979619238
 20
-12.3619619238
 30
0.0
  0
SPLINE
  5
460
100
AcDbEntity
  8
CURVE
100
AcDbSpline
 62
250
  6
CONTINUOUS
 70
0
 71
3
 72
9
 73
5
 74
0
 42
0.0000001
 43
0.0000001
 44
0.0000000001
 40
0.0
 40
0.0
 40
0.0
 40
0.0
 40
0.5137292907
 40
1.0
 40
1.0
 40
1.0
 40
1.0
 10
-7.3979619238
 20
-12.3619619238
 30
0.0
 10
-7.3895774145
 20
-12.3274055286
 30
0.0
 10
-7.3813896578
 20
-12.2577811702
 30
0.0
 10
-7.3913783577
 20
-12.1885074501
 30
0.0
 10
-7.3999619238
 20
-12.1559619238
 30
0.0
  0
SPLINE
  5
461
100
AcDbEntity
  8
CURVE
100
AcDbSpline
 62
250
  6
CONTINUOUS
 70
0
 71
3
 72
9
 73
5
 74
0
 42
0.0000001
 43
0.0000001
 44
0.0000000001
 40
0.0
 40
0.0
 40
0.0
 40
0.0
 40
0.5205413139
 40
1.0
 40
1.0
 40
1.0
 40
1.0
 10
-7.4399619238
 20
-12.0739619238
 30
0.0
 10
-7.4607735343
 20
-12.0489599421
 30
0.0
 10
-7.5058912271
 20
-12.0049106032
 30
0.0
 10
-7.5591913699
 20
-11.9714198293
 30
0.0
 10
-7.5859619238
 20
-11.9579619238
 30
0.0
  0
SPLINE
  5
462
100
AcDbEntity
  8
CURVE
100
AcDbSpline
 62
250
  6
CONTINUOUS
 70
0
 71
3
 72
10
 73
6
 74
0
 42
0.0000001
 43
0.0000001
 44
0.0000000001
 40
0.0
 40
0.0
 40
0.0
 40
0.0
 40
0.3815115945
 40
0.691544499
 40
1.0
 40
1.0
 40
1.0
 40
1.0
 10
-7.7259619238
 20
-11.9159619238
 30
0.0
 10
-7.6892153375
 20
-11.9094709421
 30
0.0
 10
-7.6241313692
 20
-11.8868815798
 30
0.0
 10
-7.5421695993
 20
-11.8324331306
 30
0.0
 10
-7.4991245822
 20
-11.7892646005
 30
0.0
 10
-7.4799619238
 20
-11.7659619238
 30
0.0
  0
SPLINE
  5
463
100
AcDbEntity
  8
CURVE
100
AcDbSpline
 62
250
  6
CONTINUOUS
 70
0
 71
3
 72
13
 73
9
 74
0
 42
0.0000001
 43
0.0000001
 44
0.0000000001
 40
0.0
 40
0.0
 40
0.0
 40
0.0
 40
0.167489503
 40
0.3703874395
 40
0.5235471252
 40
0.6735776431
 40
0.8231113698
 40
1.0
 40
1.0
 40
1.0
 40
1.0
 10
-7.6199619238
 20
-11.3139619238
 30
0.0
 10
-7.6441484077
 20
-11.3047295775
 30
0.0
 10
-7.7014071798
 20
-11.2938002939
 30
0.0
 10
-7.7825407687
 20
-11.2998966407
 30
0.0
 10
-7.8597136819
 20
-11.3122946355
 30
0.0
 10
-7.9274096219
 20
-11.3326927453
 30
0.0
 10
-7.9890030173
 20
-11.3747475883
 30
0.0
 10
-8.0240305965
 20
-11.4113215978
 30
0.0
 10
-8.0419619238
 20
-11.4319619238
 30
0.0
  0
SPLINE
  5
464
100
AcDbEntity
  8
CURVE
100
AcDbSpline
 62
250
  6
CONTINUOUS
 70
0
 71
3
 72
11
 73
7
 74
0
 42
0.0000001
 43
0.0000001
 44
0.0000000001
 40
0.0
 40
0.0
 40
0.0
 40
0.0
 40
0.6087568318
 40
0.7152335276
 40
0.88061066
 40
1.0
 40
1.0
 40
1.0
 40
1.0
 10
-2.6219619238
 20
-11.9319619238
 30
0.0
 10
-2.5146661109
 20
-11.9291241478
 30
0.0
 10
-2.3881532355
 20
-11.9416977255
 30
0.0
 10
-2.2334988631
 20
-11.9256244617
 30
0.0
 10
-2.1659031819
 20
-11.9115634066
 30
0.0
 10
-2.1167158679
 20
-11.9014811446
 30
0.0
 10
-2.0959619238
 20
-11.8979619238
 30
0.0
  0
SPLINE
  5
465
100
AcDbEntity
  8
CURVE
100
AcDbSpline
 62
250
  6
CONTINUOUS
 70
0
 71
3
 72
12
 73
8
 74
0
 42
0.0000001
 43
0.0000001
 44
0.0000000001
 40
0.0
 40
0.0
 40
0.0
 40
0.0
 40
0.1767614919
 40
0.3587485864
 40
0.4741393015
 40
0.7021969335
 40
1.0
 40
1.0
 40
1.0
 40
1.0
 10
-2.0279619238
 20
-11.8639619238
 30
0.0
 10
-2.0145798173
 20
-11.8534829871
 30
0.0
 10
-1.9887580991
 20
-11.8304172065
 30
0.0
 10
-1.9591369102
 20
-11.795624702
 30
0.0
 10
-1.9309606735
 20
-11.7534074056
 30
0.0
 10
-1.9124450764
 20
-11.6936481247
 30
0.0
 10
-1.9052525087
 20
-11.643653933
 30
0.0
 10
-1.8979619238
 20
-11.6159619238
 30
0.0
  0
SPLINE
  5
466
100
AcDbEntity
  8
CURVE
100
AcDbSpline
 62
250
  6
CONTINUOUS
 70
0
 71
3
 72
9
 73
5
 74
0
 42
0.0000001
 43
0.0000001
 44
0.0000000001
 40
0.0
 40
0.0
 40
0.0
 40
0.0
 40
0.4108120071
 40
1.0
 40
1.0
 40
1.0
 40
1.0
 10
-1.8979619238
 20
-11.6159619238
 30
0.0
 10
-1.9003410976
 20
-11.5910865549
 30
0.0
 10
-1.9100477581
 20
-11.530861546
 30
0.0
 10
-1.9295051735
 20
-11.4727559296
 30
0.0
 10
-1.9439619238
 20
-11.4399619238
 30
0.0
  0
SPLINE
  5
467
100
AcDbEntity
  8
CURVE
100
AcDbSpline
 62
250
  6
CONTINUOUS
 70
0
 71
3
 72
9
 73
5
 74
0
 42
0.0000001
 43
0.0000001
 44
0.0000000001
 40
0.0
 40
0.0
 40
0.0
 40
0.0
 40
0.4490450442
 40
1.0
 40
1.0
 40
1.0
 40
1.0
 10
-1.9939619238
 20
-11.3839619238
 30
0.0
 10
-2.0190482569
 20
-11.3661602915
 30
0.0
 10
-2.0787463234
 20
-11.331636474
 30
0.0
 10
-2.1448886257
 20
-11.3110340531
 30
0.0
 10
-2.1819619238
 20
-11.3039619238
 30
0.0
  0
SPLINE
  5
468
100
AcDbEntity
  8
CURVE
100
AcDbSpline
 62
250
  6
CONTINUOUS
 70
0
 71
3
 72
10
 73
6
 74
0
 42
0.0000001
 43
0.0000001
 44
0.0000000001
 40
0.0
 40
0.0
 40
0.0
 40
0.0
 40
0.4032022773
 40
0.7191421608
 40
1.0
 40
1.0
 40
1.0
 40
1.0
 10
0.5720380762
 20
-11.3159619238
 30
0.0
 10
0.5372461226
 20
-11.3078127609
 30
0.0
 10
0.4739011314
 20
-11.2981277536
 30
0.0
 10
0.3850357213
 20
-11.2979723492
 30
0.0
 10
0.3324289958
 20
-11.3049981957
 30
0.0
 10
0.3080380762
 20
-11.3099619238
 30
0.0
  0
SPLINE
  5
469
100
AcDbEntity
  8
CURVE
100
AcDbSpline
 62
250
  6
CONTINUOUS
 70
0
 71
3
 72
10
 73
6
 74
0
 42
0.0000001
 43
0.0000001
 44
0.0000000001
 40
0.0
 40
0.0
 40
0.0
 40
0.0
 40
0.3354636252
 40
0.7639973447
 40
1.0
 40
1.0
 40
1.0
 40
1.0
 10
0.0640380762
 20
-11.5179619238
 30
0.0
 10
0.0572712564
 20
-11.5377718297
 30
0.0
 10
0.0508178406
 20
-11.5860041697
 30
0.0
 10
0.0588957241
 20
-11.6480047834
 30
0.0
 10
0.0632708765
 20
-11.6892547727
 30
0.0
 10
0.0640380762
 20
-11.7039619238
 30
0.0
  0
SPLINE
  5
46A
100
AcDbEntity
  8
CURVE
100
AcDbSpline
 62
250
  6
CONTINUOUS
 70
0
 71
3
 72
12
 73
8
 74
0
 42
0.0000001
 43
0.0000001
 44
0.0000000001
 40
0.0
 40
0.0
 40
0.0
 40
0.0
 40
0.1834510785
 40
0.3741321348
 40
0.7160380557
 40
0.897729741
 40
1.0
 40
1.0
 40
1.0
 40
1.0
 10
0.1160380762
 20
-11.7999619238
 30
0.0
 10
0.1446089816
 20
-11.822563129
 30
0.0
 10
0.2058775408
 20
-11.8650359519
 30
0.0
 10
0.3338398776
 20
-11.9283869418
 30
0.0
 10
0.4742880534
 20
-11.9597181773
 30
0.0
 10
0.5812253257
 20
-12.0242197787
 30
0.0
 10
0.6327789392
 20
-12.0475175396
 30
0.0
 10
0.6520380762
 20
-12.0539619238
 30
0.0
  0
SPLINE
  5
46B
100
AcDbEntity
  8
CURVE
100
AcDbSpline
 62
250
  6
CONTINUOUS
 70
0
 71
3
 72
9
 73
5
 74
0
 42
0.0000001
 43
0.0000001
 44
0.0000000001
 40
0.0
 40
0.0
 40
0.0
 40
0.0
 40
0.5454068746
 40
1.0
 40
1.0
 40
1.0
 40
1.0
 10
0.6520380762
 20
-12.0539619238
 30
0.0
 10
0.6731271559
 20
-12.0758638681
 30
0.0
 10
0.7077663357
 20
-12.1201910573
 30
0.0
 10
0.7327440833
 20
-12.1703855814
 30
0.0
 10
0.7420380762
 20
-12.1939619238
 30
0.0
  0
SPLINE
  5
46C
100
AcDbEntity
  8
CURVE
100
AcDbSpline
 62
250
  6
CONTINUOUS
 70
0
 71
3
 72
10
 73
6
 74
0
 42
0.0000001
 43
0.0000001
 44
0.0000000001
 40
0.0
 40
0.0
 40
0.0
 40
0.0
 40
0.3123721876
 40
0.6041869582
 40
1.0
 40
1.0
 40
1.0
 40
1.0
 10
0.6240380762
 20
-12.5259619238
 30
0.0
 10
0.6051116268
 20
-12.536094959
 30
0.0
 10
0.567639096
 20
-12.5541182818
 30
0.0
 10
0.5035989861
 20
-12.5791836691
 30
0.0
 10
0.4583362755
 20
-12.593004574
 30
0.0
 10
0.4320380762
 20
-12.5999619238
 30
0.0
  0
SPLINE
  5
46D
100
AcDbEntity
  8
CURVE
100
AcDbSpline
 62
250
  6
CONTINUOUS
 70
0
 71
3
 72
12
 73
8
 74
0
 42
0.0000001
 43
0.0000001
 44
0.0000000001
 40
0.0
 40
0.0
 40
0.0
 40
0.0
 40
0.2432593104
 40
0.4140742578
 40
0.5878490903
 40
0.7855503673
 40
1.0
 40
1.0
 40
1.0
 40
1.0
 10
0.4320380762
 20
-12.5999619238
 30
0.0
 10
0.3942982226
 20
-12.6044007802
 30
0.0
 10
0.3288630191
 20
-12.6049696994
 30
0.0
 10
0.2385303756
 20
-12.5847687618
 30
0.0
 10
0.1619415161
 20
-12.5475056582
 30
0.0
 10
0.0843607385
 20
-12.498682713
 30
0.0
 10
0.036133062
 20
-12.4551419521
 30
0.0
 10
0.0140380762
 20
-12.4299619238
 30
0.0
  0
SPLINE
  5
46E
100
AcDbEntity
  8
CURVE
100
AcDbSpline
 62
250
  6
CONTINUOUS
 70
0
 71
3
 72
9
 73
5
 74
0
 42
0.0000001
 43
0.0000001
 44
0.0000000001
 40
0.0
 40
0.0
 40
0.0
 40
0.0
 40
0.3198235465
 40
1.0
 40
1.0
 40
1.0
 40
1.0
 10
3.6520380762
 20
-11.3099619238
 30
0.0
 10
3.6276841196
 20
-11.3048199054
 30
0.0
 10
3.5503506495
 20
-11.294177434
 30
0.0
 10
3.4712582668
 20
-11.302593517
 30
0.0
 10
3.4200380762
 20
-11.3159619238
 30
0.0
  0
SPLINE
  5
46F
100
AcDbEntity
  8
CURVE
100
AcDbSpline
 62
250
  6
CONTINUOUS
 70
0
 71
3
 72
17
 73
13
 74
0
 42
0.0000001
 43
0.0000001
 44
0.0000000001
 40
0.0
 40
0.0
 40
0.0
 40
0.0
 40
0.1159714276
 40
0.1792729359
 40
0.2605809324
 40
0.3065189725
 40
0.4321655681
 40
0.488808642
 40
0.5972931745
 40
0.7195844133
 40
0.8557079957
 40
1.0
 40
1.0
 40
1.0
 40
1.0
 10
3.4200380762
 20
-11.3159619238
 30
0.0
 10
3.3761438492
 20
-11.3310897919
 30
0.0
 10
3.3085291747
 20
-11.355749528
 30
0.0
 10
3.2150204993
 20
-11.4019006004
 30
0.0
 10
3.1504664899
 20
-11.4442468022
 30
0.0
 10
3.0820918752
 20
-11.5192113362
 30
0.0
 10
3.0277230376
 20
-11.5938874666
 30
0.0
 10
2.9811281097
 20
-11.7007683191
 30
0.0
 10
2.9439857718
 20
-11.8101012944
 30
0.0
 10
2.9272793131
 20
-11.9576732776
 30
0.0
 10
2.9515904807
 20
-12.1186190932
 30
0.0
 10
2.9894855826
 20
-12.2247804052
 30
0.0
 10
3.0120380762
 20
-12.2779619238
 30
0.0
  0
SPLINE
  5
470
100
AcDbEntity
  8
CURVE
100
AcDbSpline
 62
250
  6
CONTINUOUS
 70
0
 71
3
 72
11
 73
7
 74
0
 42
0.0000001
 43
0.0000001
 44
0.0000000001
 40
0.0
 40
0.0
 40
0.0
 40
0.0
 40
0.3482560128
 40
0.5865815243
 40
0.7164230667
 40
1.0
 40
1.0
 40
1.0
 40
1.0
 10
3.2380380762
 20
-12.5139619238
 30
0.0
 10
3.2930524797
 20
-12.5403873717
 30
0.0
 10
3.3872618131
 20
-12.5827257529
 30
0.0
 10
3.5131375132
 20
-12.6042960397
 30
0.0
 10
3.6269727509
 20
-12.5918107114
 30
0.0
 10
3.6983413603
 20
-12.5758427255
 30
0.0
 10
3.7480380762
 20
-12.5759619238
 30
0.0
  0
SPLINE
  5
471
100
AcDbEntity
  8
CURVE
100
AcDbSpline
 62
250
  6
CONTINUOUS
 70
0
 71
3
 72
10
 73
6
 74
0
 42
0.0000001
 43
0.0000001
 44
0.0000000001
 40
0.0
 40
0.0
 40
0.0
 40
0.0
 40
0.1748093869
 40
0.63298637
 40
1.0
 40
1.0
 40
1.0
 40
1.0
 10
3.7480380762
 20
-12.5759619238
 30
0.0
 10
3.7592347957
 20
-12.570347446
 30
0.0
 10
3.8003933121
 20
-12.5512372157
 30
0.0
 10
3.8668682297
 20
-12.5245612612
 30
0.0
 10
3.9188350601
 20
-12.4955178765
 30
0.0
 10
3.9400380762
 20
-12.4799619238
 30
0.0
  0
SPLINE
  5
472
100
AcDbEntity
  8
CURVE
100
AcDbSpline
 62
250
  6
CONTINUOUS
 70
0
 71
3
 72
14
 73
10
 74
0
 42
0.0000001
 43
0.0000001
 44
0.0000000001
 40
0.0
 40
0.0
 40
0.0
 40
0.0
 40
0.1579480472
 40
0.2930053568
 40
0.3885348339
 40
0.6193365127
 40
0.7266424288
 40
0.8489546344
 40
1.0
 40
1.0
 40
1.0
 40
1.0
 10
-10.2419619238
 20
-11.4519619238
 30
0.0
 10
-10.2713658717
 20
-11.4976014177
 30
0.0
 10
-10.3127561452
 20
-11.5910821298
 30
0.0
 10
-10.3401345212
 20
-11.7222356302
 30
0.0
 10
-10.3553939091
 20
-11.8802172555
 30
0.0
 10
-10.3548778853
 20
-12.0296661208
 30
0.0
 10
-10.3403933348
 20
-12.1875685531
 30
0.0
 10
-10.3063773476
 20
-12.3146251097
 30
0.0
 10
-10.2670504887
 20
-12.4005073369
 30
0.0
 10
-10.2419619238
 20
-12.4459619238
 30
0.0
  0
SPLINE
  5
473
100
AcDbEntity
  8
CURVE
100
AcDbSpline
 62
250
  6
CONTINUOUS
 70
0
 71
3
 72
13
 73
9
 74
0
 42
0.0000001
 43
0.0000001
 44
0.0000000001
 40
0.0
 40
0.0
 40
0.0
 40
0.0
 40
0.1693910386
 40
0.2832673534
 40
0.4994624578
 40
0.717029648
 40
0.8443472384
 40
1.0
 40
1.0
 40
1.0
 40
1.0
 10
-9.6699619238
 20
-12.4519619238
 30
0.0
 10
-9.6332716591
 20
-12.4060968799
 30
0.0
 10
-9.5915768517
 20
-12.3135295671
 30
0.0
 10
-9.5602498622
 20
-12.1432802526
 30
0.0
 10
-9.5439451409
 20
-11.9538880088
 30
0.0
 10
-9.5479427808
 20
-11.7577614023
 30
0.0
 10
-9.592996649
 20
-11.5891702745
 30
0.0
 10
-9.635834018
 20
-11.5000239451
 30
0.0
 10
-9.6639619238
 20
-11.4539619238
 30
0.0
  0
SPLINE
  5
474
100
AcDbEntity
  8
CURVE
100
AcDbSpline
 62
250
  6
CONTINUOUS
 70
0
 71
3
 72
17
 73
13
 74
0
 42
0.0000001
 43
0.0000001
 44
0.0000000001
 40
0.0
 40
0.0
 40
0.0
 40
0.0
 40
0.1632602551
 40
0.2288778863
 40
0.3531647103
 40
0.5174857539
 40
0.5793993893
 40
0.658246666
 40
0.7565834304
 40
0.799549281
 40
0.9431137789
 40
1.0
 40
1.0
 40
1.0
 40
1.0
 10
-1.5499619238
 20
-11.7939619238
 30
0.0
 10
-1.5403054593
 20
-11.8396623666
 30
0.0
 10
-1.552576896
 20
-11.9065228865
 30
0.0
 10
-1.5659012366
 20
-12.0064011737
 30
0.0
 10
-1.5523025608
 20
-12.108969008
 30
0.0
 10
-1.5134521685
 20
-12.2011977566
 30
0.0
 10
-1.4895053802
 20
-12.2861198414
 30
0.0
 10
-1.4455167817
 20
-12.3399939986
 30
0.0
 10
-1.4104070556
 20
-12.3918534869
 30
0.0
 10
-1.3582556112
 20
-12.4550661314
 30
0.0
 10
-1.2962158761
 20
-12.4898682945
 30
0.0
 10
-1.2487096384
 20
-12.5218433932
 30
0.0
 10
-1.2359619238
 20
-12.5319619238
 30
0.0
  0
SPLINE
  5
475
100
AcDbEntity
  8
CURVE
100
AcDbSpline
 62
250
  6
CONTINUOUS
 70
0
 71
3
 72
11
 73
7
 74
0
 42
0.0000001
 43
0.0000001
 44
0.0000000001
 40
0.0
 40
0.0
 40
0.0
 40
0.0
 40
0.2717628112
 40
0.5402321889
 40
0.7726959747
 40
1.0
 40
1.0
 40
1.0
 40
1.0
 10
-1.0579619238
 20
-12.5939619238
 30
0.0
 10
-1.014675557
 20
-12.5968023871
 30
0.0
 10
-0.9287609097
 20
-12.6029519735
 30
0.0
 10
-0.8043213128
 20
-12.5946358226
 30
0.0
 10
-0.694325702
 20
-12.5549807872
 30
0.0
 10
-0.626506281
 20
-12.527058402
 30
0.0
 10
-0.5919619238
 20
-12.5159619238
 30
0.0
  0
SPLINE
  5
476
100
AcDbEntity
  8
CURVE
100
AcDbSpline
 62
250
  6
CONTINUOUS
 70
0
 71
3
 72
13
 73
9
 74
0
 42
0.0000001
 43
0.0000001
 44
0.0000000001
 40
0.0
 40
0.0
 40
0.0
 40
0.0
 40
0.2454637522
 40
0.3025864404
 40
0.4810651462
 40
0.6438278428
 40
0.882822989
 40
1.0
 40
1.0
 40
1.0
 40
1.0
 10
-0.5919619238
 20
-12.5159619238
 30
0.0
 10
-0.571900056
 20
-12.4805317215
 30
0.0
 10
-0.5221104978
 20
-12.4576676033
 30
0.0
 10
-0.4594831831
 20
-12.4080921165
 30
0.0
 10
-0.4271827319
 20
-12.3487352238
 30
0.0
 10
-0.3680365252
 20
-12.2720279
 30
0.0
 10
-0.3478357966
 20
-12.1865523542
 30
0.0
 10
-0.3270153096
 20
-12.1311611675
 30
0.0
 10
-0.3179619238
 20
-12.1139619238
 30
0.0
  0
SPLINE
  5
477
100
AcDbEntity
  8
CURVE
100
AcDbSpline
 62
250
  6
CONTINUOUS
 70
0
 71
3
 72
14
 73
10
 74
0
 42
0.0000001
 43
0.0000001
 44
0.0000000001
 40
0.0
 40
0.0
 40
0.0
 40
0.0
 40
0.2362750037
 40
0.4100384284
 40
0.5295070462
 40
0.636171087
 40
0.7431687142
 40
0.9062737933
 40
1.0
 40
1.0
 40
1.0
 40
1.0
 10
-0.3179619238
 20
-12.1139619238
 30
0.0
 10
-0.3114820822
 20
-12.0615892158
 30
0.0
 10
-0.3043263872
 20
-11.9699679379
 30
0.0
 10
-0.3134679164
 20
-11.8515038329
 30
0.0
 10
-0.3341846508
 20
-11.7643874124
 30
0.0
 10
-0.3573218805
 20
-11.6937367375
 30
0.0
 10
-0.3881824594
 20
-11.6149243362
 30
0.0
 10
-0.4383712022
 20
-11.5499856004
 30
0.0
 10
-0.4738500957
 20
-11.5050360516
 30
0.0
 10
-0.4859619238
 20
-11.4879619238
 30
0.0
  0
SPLINE
  5
478
100
AcDbEntity
  8
CURVE
100
AcDbSpline
 62
250
  6
CONTINUOUS
 70
0
 71
3
 72
11
 73
7
 74
0
 42
0.0000001
 43
0.0000001
 44
0.0000000001
 40
0.0
 40
0.0
 40
0.0
 40
0.0
 40
0.2130086241
 40
0.3466724214
 40
0.6543111221
 40
1.0
 40
1.0
 40
1.0
 40
1.0
 10
-0.4859619238
 20
-11.4879619238
 30
0.0
 10
-0.513198849
 20
-11.4662994905
 30
0.0
 10
-0.5584411394
 20
-11.4320714099
 30
0.0
 10
-0.6496604912
 20
-11.376090383
 30
0.0
 10
-0.7701807608
 20
-11.3279389683
 30
0.0
 10
-0.8774846685
 20
-11.3136498096
 30
0.0
 10
-0.9339619238
 20
-11.3139619238
 30
0.0
  0
SPLINE
  5
479
100
AcDbEntity
  8
CURVE
100
AcDbSpline
 62
250
  6
CONTINUOUS
 70
0
 71
3
 72
9
 73
5
 74
0
 42
0.0000001
 43
0.0000001
 44
0.0000000001
 40
0.0
 40
0.0
 40
0.0
 40
0.0
 40
0.528656453
 40
1.0
 40
1.0
 40
1.0
 40
1.0
 10
-0.9339619238
 20
-11.3139619238
 30
0.0
 10
-0.9924235225
 20
-11.3141006987
 30
0.0
 10
-1.1035656573
 20
-11.3277119599
 30
0.0
 10
-1.2076460029
 20
-11.3680511656
 30
0.0
 10
-1.2539619238
 20
-11.3919619238
 30
0.0
  0
SPLINE
  5
47A
100
AcDbEntity
  8
CURVE
100
AcDbSpline
 62
250
  6
CONTINUOUS
 70
0
 71
3
 72
10
 73
6
 74
0
 42
0.0000001
 43
0.0000001
 44
0.0000000001
 40
0.0
 40
0.0
 40
0.0
 40
0.0
 40
0.3427661638
 40
0.6340364104
 40
1.0
 40
1.0
 40
1.0
 40
1.0
 10
-1.2539619238
 20
-11.3919619238
 30
0.0
 10
-1.3026696893
 20
-11.4238436187
 30
0.0
 10
-1.3863277876
 20
-11.4935868782
 30
0.0
 10
-1.4904239831
 20
-11.6290065723
 30
0.0
 10
-1.5349767528
 20
-11.7336414815
 30
0.0
 10
-1.5499619238
 20
-11.7939619238
 30
0.0
  0
SPLINE
  5
47B
100
AcDbEntity
  8
CURVE
100
AcDbSpline
 62
250
  6
CONTINUOUS
 70
0
 71
3
 72
8
 73
4
 74
0
 42
0.0000001
 43
0.0000001
 44
0.0000000001
 40
0.0
 40
0.0
 40
0.0
 40
0.0
 40
1.0
 40
1.0
 40
1.0
 40
1.0
 10
16.1035809672
 20
-7.1550743337
 30
0.0
 10
15.9299974052
 20
-6.9801231244
 30
0.0
 10
15.66012265
 20
-6.9175964353
 30
0.0
 10
15.4161145143
 20
-6.8829668476
 30
0.0
  0
SPLINE
  5
47C
100
AcDbEntity
  8
CURVE
100
AcDbSpline
 62
250
  6
CONTINUOUS
 70
0
 71
3
 72
9
 73
5
 74
0
 42
0.0000001
 43
0.0000001
 44
0.0000000001
 40
0.0
 40
0.0
 40
0.0
 40
0.0
 40
0.839014423
 40
1.0
 40
1.0
 40
1.0
 40
1.0
 10
14.8431107466
 20
-6.8728455917
 30
0.0
 10
14.5403317994
 20
-6.8837020681
 30
0.0
 10
14.1091631199
 20
-6.9114242062
 30
0.0
 10
13.9058262332
 20
-7.25012415
 30
0.0
 10
13.9058262332
 20
-7.3082570803
 30
0.0
  0
ENDSEC
  0
SECTION
  2
OBJECTS
  0
DICTIONARY
  5
C
100
AcDbDictionary
280
0
281
1
  3
ACAD_GROUP
350
D
  3
ACAD_MLINESTYLE
350
17
  3
ACAD_LAYOUT
350
1A
  3
ACAD_PLOTSETTINGS
350
19
  3
ACAD_PLOTSTYLENAME
350
E
  0
DICTIONARY
  5
D
102
{ACAD_REACTORS
330
C
102
}
100
AcDbDictionary
280
0
281
1
  0
ACDBDICTIONARYWDFLT
  5
E
102
{ACAD_REACTORS
330
C
102
}
100
AcDbDictionary
281
1
  3
Normal
350
F
100
AcDbDictionaryWithDefault
340
F
  0
DICTIONARY
  5
17
102
{ACAD_REACTORS
330
C
102
}
100
AcDbDictionary
280
0
281
1
  3
Standard
350
18
  0
DICTIONARY
  5
19
102
{ACAD_REACTORS
330
C
102
}
100
AcDbDictionary
281
1
  0
DICTIONARY
  5
1A
102
{ACAD_REACTORS
330
C
102
}
100
AcDbDictionary
281
1
  3
Model
350
47D
  3
Layout1
350
47E
  0
ACDBPLACEHOLDER
  5
F
102
{ACAD_REACTORS
330
E
102
}
  0
MLINESTYLE
  5
18
102
{ACAD_REACTORS
330
17
102
}
100
AcDbMlineStyle
  2
STANDARD
 70
0
  3

 62
256
 51
90.0
 52
90.0
 71
2
 49
0.5
 62
256
  6
BYLAYER
 49
-0.5
 62
256
  6
BYLAYER
  0
LAYOUT
  5
47D
102
{ACAD_REACTORS
330
1A
102
}
100
AcDbPlotSettings
  1

  2
none_device
  4
ANSI_C_(22.00_x_17.00_Inches)
  6

 40
0.0
 41
0.0
 42
0.0
 43
0.0
 44
558.8
 45
431.8
 46
0.0
 47
0.0
 48
0.0
 49
0.0
140
0.0
141
0.0
142
1.0
143
1.0
 70
1024
 72
1
 73
0
 74
0
  7

 75
0
147
1.0
148
0.0
149
0.0
100
AcDbLayout
  1
Model
 70
0
 71
0
 10
0.0
 20
0.0
 11
558.8
 21
431.8
 12
0.0
 22
0.0
 32
0.0
 14
0.0
 24
0.0
 34
0.0
 15
0.0
 25
0.0
 35
0.0
146
0.0
 13
0.0
 23
0.0
 33
0.0
 16
1.0
 26
0.0
 36
0.0
 17
0.0
 27
1.0
 37
0.0
 76
0
330
213
345
0
346
0
  0
LAYOUT
  5
47E
102
{ACAD_REACTORS
330
1A
102
}
100
AcDbPlotSettings
  1

  2
none_device
  4
ANSI_C_(22.00_x_17.00_Inches)
  6

 40
0.0
 41
0.0
 42
0.0
 43
0.0
 44
558.8
 45
431.8
 46
0.0
 47
0.0
 48
0.0
 49
0.0
140
0.0
141
0.0
142
1.0
143
1.0
 70
0
 72
1
 73
0
 74
0
  7

 75
0
147
1.0
148
0.0
149
0.0
100
AcDbLayout
  1
Layout1
 70
0
 71
1
 10
0.0
 20
0.0
 11
558.8
 21
431.8
 12
0.0
 22
0.0
 32
0.0
 14
0.0
 24
0.0
 34
0.0
 15
0.0
 25
0.0
 35
0.0
146
0.0
 13
0.0
 23
0.0
 33
0.0
 16
1.0
 26
0.0
 36
0.0
 17
0.0
 27
1.0
 37
0.0
 76
0
330
214
345
0
346
0
  0
ENDSEC
  0
EOF
