0
SECTION
2
HEADER
9
$ACADVER
1
AC1015
9
$DWGCODEPAGE
3
ANSI_1252
9
$EXTMAX
10
297.0000000000
20
210.0000000000
30
0.0000000000
9
$EXTMIN
10
0.0000000000
20
0.0000000000
30
0.0000000000
9
$LIMMIN
10
0.0000000000
20
0.0000000000
9
$LIMMAX
10
297.0000000000
20
210.0000000000
9
$VIEWCTR
10
148.5000000000
20
105.0000000000
9
$VIEWSIZE
40
210.0000000000
9
$CLAYER
8
0
9
$LTSCALE
40
16.3350000000
9
$CELTYPE
6
BYLAYER
9
$DIMSCALE
40
1
9
$DIMASZ
40
3.0000000000
9
$DIMEXO
40
1.8562500000
9
$DIMDLI
40
11.2860000000
9
$DIMEXE
40
5.3460000000
9
$DIMCEN
40
2.6730000000
9
$DIMLFAC
40
1.0000000000
9
$DIMBLK
1
_FILLED
9
$DIMTXT
40
3.0000000000
9
$DIMTOL
70
1
9
$DIMLIM
70
0
9
$DIMTFAC
40
1.0000000000
9
$DIMTP
40
0.0100000000
9
$DIMTM
40
0.0100000000
9
$PDMODE
70
3
9
$PDSIZE
40
3.0000000000
9
$HANDSEED
5
393
9
$MEASUREMENT
70
1
9
$INSUNITS
70
4
0
ENDSEC
0
SECTION
2
CLASSES
0
CLASS
1
ACDBDICTIONARYWDFLT
2
AcDbDictionaryWithDefault
3
AutoCAD 2000
90
0
280
0
281
0
0
CLASS
1
ACDBPLACEHOLDER
2
AcDbPlaceHolder
3
AutoCAD 2000
90
0
280
0
281
0
0
CLASS
1
LAYOUT
2
AcDbLayout
3
AutoCAD 2000
90
0
280
0
281
0
0
ENDSEC
0
SECTION
2
TABLES
0
TABLE
2
VPORT
5
8
100
AcDbSymbolTable
70
2
0
VPORT
5
1F4
100
AcDbSymbolTableRecord
100
AcDbViewportTableRecord
2
*ACTIVE
70
0
10
0.0
20
0.0
11
1.0
21
1.0
12
148.5000000000
22
105.0000000000
13
0.0
23
0.0
14
1.0
24
1.0
15
0.0
25
0.0
16
0.0
26
0.0
36
1.0
17
0.0
27
0.0
37
0.0
40
210.0000000000
41
1.4142857143
42
50.0
43
0.0
44
0.0
50
0.0
51
0.0
71
0
72
100
73
1
74
1
75
0
76
0
77
0
78
0
0
ENDTAB
0
TABLE
2
LTYPE
5
5
100
AcDbSymbolTable
70
6
0
LTYPE
5
14
100
AcDbSymbolTableRecord
100
AcDbLinetypeTableRecord
2
BYBLOCK
70
0
3

72
65
73
0
40
0.0
0
LTYPE
5
15
100
AcDbSymbolTableRecord
100
AcDbLinetypeTableRecord
2
BYLAYER
70
0
3

72
65
73
0
40
0.0
0
LTYPE
5
16
100
AcDbSymbolTableRecord
100
AcDbLinetypeTableRecord
2
CONTINUOUS
70
64
3
Solid line
72
65
73
0
40
0
0
LTYPE
5
1F5
100
AcDbSymbolTableRecord
100
AcDbLinetypeTableRecord
2
CENTER
70
64
3
____ _ ____ _ ____ _ ____ _ ____ _ ____ _ ____
72
65
73
4
40
0.6
49
0.375
74
0
49
-0.075
74
0
49
0.075
74
0
49
-0.075
74
0
0
LTYPE
5
1F6
100
AcDbSymbolTableRecord
100
AcDbLinetypeTableRecord
2
HIDDEN
70
64
3
- - - - - - - - - - - - - - - - - - - -
72
65
73
2
40
0.2
49
0.1
74
0
49
-0.1
74
0
0
LTYPE
5
1F7
100
AcDbSymbolTableRecord
100
AcDbLinetypeTableRecord
2
PHANTOM
70
64
3
_____ _ _ _____ _ _ _____ _ _ _____
72
65
73
6
40
0.8
49
0.45
74
0
49
-0.05
74
0
49
0.1
74
0
49
-0.05
74
0
49
0.1
74
0
49
-0.05
74
0
0
LTYPE
5
1F8
100
AcDbSymbolTableRecord
100
AcDbLinetypeTableRecord
2
DOT
70
64
3
. . . . . . . . . . . . . . . . . . . .
72
65
73
2
40
0.2
49
0.1
74
0
49
-0.1
74
0
0
LTYPE
5
1F9
100
AcDbSymbolTableRecord
100
AcDbLinetypeTableRecord
2
DASHED
70
64
3
- - - - - - - - - - - - - - - - - - - -
72
65
73
2
40
0.2
49
0.1
74
0
49
-0.1
74
0
0
ENDTAB
0
TABLE
2
LAYER
5
2
100
AcDbSymbolTable
70
36
0
LAYER
5
10
100
AcDbSymbolTableRecord
100
AcDbLayerTableRecord
2
0
70
0
62
7
6
CONTINUOUS
370
-3
390
F
0
LAYER
5
1FA
100
AcDbSymbolTableRecord
100
AcDbLayerTableRecord
2
DEFAULT_1
70
0
62
7
6
CENTER
370
-3
390
F
0
LAYER
5
1FB
100
AcDbSymbolTableRecord
100
AcDbLayerTableRecord
2
DEFAULT_2
70
0
62
0
6
HIDDEN
370
-3
390
F
0
LAYER
5
1FC
100
AcDbSymbolTableRecord
100
AcDbLayerTableRecord
2
DEFAULT_3
70
0
62
7
6
PHANTOM
370
-3
390
F
0
LAYER
5
1FD
100
AcDbSymbolTableRecord
100
AcDbLayerTableRecord
2
ASSI
70
0
62
7
6
CONTINUOUS
370
-3
390
F
0
LAYER
5
1FE
100
AcDbSymbolTableRecord
100
AcDbLayerTableRecord
2
COORDINATE
70
0
62
7
6
CONTINUOUS
370
-3
390
F
0
LAYER
5
1FF
100
AcDbSymbolTableRecord
100
AcDbLayerTableRecord
2
COORD_ORIGINE
70
0
62
7
6
CONTINUOUS
370
-3
390
F
0
LAYER
5
200
100
AcDbSymbolTableRecord
100
AcDbLayerTableRecord
2
CURVE
70
0
62
7
6
CONTINUOUS
370
-3
390
F
0
LAYER
5
201
100
AcDbSymbolTableRecord
100
AcDbLayerTableRecord
2
IGES
70
0
62
7
6
CONTINUOUS
370
-3
390
F
0
LAYER
5
202
100
AcDbSymbolTableRecord
100
AcDbLayerTableRecord
2
NOTE
70
0
62
7
6
CONTINUOUS
370
-3
390
F
0
LAYER
5
203
100
AcDbSymbolTableRecord
100
AcDbLayerTableRecord
2
PIANI
70
0
62
7
6
CONTINUOUS
370
-3
390
F
0
LAYER
5
204
100
AcDbSymbolTableRecord
100
AcDbLayerTableRecord
2
PIANI_ORIGINE
70
0
62
7
6
CONTINUOUS
370
-3
390
F
0
LAYER
5
205
100
AcDbSymbolTableRecord
100
AcDbLayerTableRecord
2
PUNTI
70
0
62
7
6
CONTINUOUS
370
-3
390
F
0
LAYER
5
206
100
AcDbSymbolTableRecord
100
AcDbLayerTableRecord
2
RACCORDO
70
0
62
7
6
CONTINUOUS
370
-3
390
F
0
LAYER
5
207
100
AcDbSymbolTableRecord
100
AcDbLayerTableRecord
2
SNAPLINE
70
0
62
7
6
CONTINUOUS
370
-3
390
F
0
LAYER
5
208
100
AcDbSymbolTableRecord
100
AcDbLayerTableRecord
2
TRASH
70
0
62
7
6
CONTINUOUS
370
-3
390
F
0
LAYER
5
209
100
AcDbSymbolTableRecord
100
AcDbLayerTableRecord
2
XSEC_DATUMS
70
0
62
7
6
CONTINUOUS
370
-3
390
F
0
ENDTAB
0
TABLE
2
STYLE
5
3
100
AcDbSymbolTable
70
1
0
STYLE
5
11
100
AcDbSymbolTableRecord
100
AcDbTextStyleTableRecord
2
STANDARD
70
0
40
0.0
41
0.8000000000
50
0.0
71
0
42
0.2
3
txt
4

0
ENDTAB
0
TABLE
2
VIEW
5
6
100
AcDbSymbolTable
70
0
0
ENDTAB
0
TABLE
2
UCS
5
7
100
AcDbSymbolTable
70
0
0
ENDTAB
0
TABLE
2
APPID
5
9
100
AcDbSymbolTable
70
1
0
APPID
5
20A
100
AcDbSymbolTableRecord
100
AcDbRegAppTableRecord
2
ACAD
70
0
0
ENDTAB
0
TABLE
2
BLOCK_RECORD
5
1
100
AcDbSymbolTable
70
0
0
BLOCK_RECORD
5
1F
100
AcDbSymbolTableRecord
100
AcDbBlockTableRecord
2
*MODEL_SPACE
0
BLOCK_RECORD
5
1B
100
AcDbSymbolTableRecord
100
AcDbBlockTableRecord
2
*PAPER_SPACE
0
ENDTAB
0
TABLE
2
DIMSTYLE
5
A
100
AcDbSymbolTable
70
1
100
AcDbDimStyleTable
71
0
0
DIMSTYLE
105
20B
100
AcDbSymbolTableRecord
100
AcDbDimStyleTableRecord
2
STANDARD
70
0
3

4

40
1.0
41
3.0000000000
42
0.0625
43
0.38
44
0.18
45
0.0
46
0.0
47
0.0100000000
48
0.0100000000
140
3.0000000000
141
0.09
142
0.0
143
25.4
144
1.0000000000
145
0.0
146
1.0000000000
147
0.09
71
1
72
0
73
0
74
0
75
0
76
0
77
1
78
8
170
0
171
2
172
0
173
0
174
0
175
0
176
0
177
0
178
0
270
2
271
2
272
2
273
2
274
2
275
0
280
0
281
0
282
0
283
1
284
8
285
0
286
0
287
3
288
0
340
11
0
ENDTAB
0
ENDSEC
0
SECTION
2
BLOCKS
0
BLOCK
5
20
100
AcDbEntity
8
0
100
AcDbBlockBegin
2
*MODEL_SPACE
70
0
10
0.0
20
0.0
30
0.0
3
*MODEL_SPACE
1

0
ENDBLK
5
21
100
AcDbEntity
8
0
100
AcDbBlockEnd
0
BLOCK
5
1C
100
AcDbEntity
8
0
100
AcDbBlockBegin
2
*PAPER_SPACE
70
0
10
0.0
20
0.0
30
0.0
3
*PAPER_SPACE
1

0
ENDBLK
5
1D
100
AcDbEntity
8
0
100
AcDbBlockEnd
0
ENDSEC
0
SECTION
2
ENTITIES
0
LINE
5
20C
100
AcDbEntity
8
0
100
AcDbLine
62
0
6
CONTINUOUS
10
-85.6000000000
20
-32.0000000000
11
-85.6000000000
21
24.0000000000
0
LINE
5
20D
100
AcDbEntity
8
0
100
AcDbLine
62
0
6
CONTINUOUS
10
-85.1000000000
20
24.0000000000
11
-85.1000000000
21
1.4500000000
0
LINE
5
20E
100
AcDbEntity
8
0
100
AcDbLine
62
0
6
CONTINUOUS
10
-85.1000000000
20
-32.0000000000
11
-85.1000000000
21
0.3000000000
0
LINE
5
20F
100
AcDbEntity
8
0
100
AcDbLine
62
0
6
CONTINUOUS
10
-84.6000000000
20
-33.0000000000
11
-84.6000000000
21
-32.5000000000
0
LINE
5
210
100
AcDbEntity
8
0
100
AcDbLine
62
0
6
CONTINUOUS
10
-84.6000000000
20
24.5000000000
11
-84.6000000000
21
25.0000000000
0
LINE
5
211
100
AcDbEntity
8
0
100
AcDbLine
62
0
6
CONTINUOUS
10
-77.6454123657
20
24.5000000000
11
-77.6454123657
21
25.0000000000
0
LINE
5
212
100
AcDbEntity
8
0
100
AcDbLine
62
0
6
CONTINUOUS
10
-70.2997367850
20
32.6427876097
11
-76.1133234795
21
25.7144247806
0
LINE
5
213
100
AcDbEntity
8
0
100
AcDbLine
62
0
6
CONTINUOUS
10
-69.9167145634
20
32.3213938048
11
-75.7303012579
21
25.3930309758
0
LINE
5
214
100
AcDbEntity
8
0
100
AcDbLine
62
0
6
CONTINUOUS
10
-69.5336923418
20
32.5000000000
11
-69.5336923418
21
33.0000000000
0
LINE
5
215
100
AcDbEntity
8
0
100
AcDbLine
62
0
6
CONTINUOUS
10
-52.5000000000
20
1.4500000000
11
-52.5000000000
21
0.8500000000
0
LINE
5
216
100
AcDbEntity
8
0
100
AcDbLine
62
0
6
CONTINUOUS
10
-52.5000000000
20
0.6000000000
11
-52.5000000000
21
0.3000000000
0
LINE
5
217
100
AcDbEntity
8
0
100
AcDbLine
62
0
6
CONTINUOUS
10
-51.2000000000
20
-1.0000000000
11
-51.2000000000
21
-32.5000000000
0
LINE
5
218
100
AcDbEntity
8
0
100
AcDbLine
62
0
6
CONTINUOUS
10
-50.9000000000
20
-1.0000000000
11
-50.9000000000
21
-33.0000000000
0
LINE
5
219
100
AcDbEntity
8
0
100
AcDbLine
62
0
6
CONTINUOUS
10
-50.6500000000
20
-1.0000000000
11
-50.6500000000
21
-33.0000000000
0
LINE
5
21A
100
AcDbEntity
8
0
100
AcDbLine
62
0
6
CONTINUOUS
10
-50.0500000000
20
-32.5000000000
11
-50.0500000000
21
-1.0000000000
0
LINE
5
21B
100
AcDbEntity
8
0
100
AcDbLine
62
0
6
CONTINUOUS
10
-48.7000000000
20
-26.9000000000
11
-48.7000000000
21
-29.7000000000
0
LINE
5
21C
100
AcDbEntity
8
0
100
AcDbLine
62
0
6
CONTINUOUS
10
-42.3000000000
20
-29.7000000000
11
-42.3000000000
21
-26.9000000000
0
LINE
5
21D
100
AcDbEntity
8
0
100
AcDbLine
62
0
6
CONTINUOUS
10
-42.0000000000
20
-5.1000000000
11
-42.0000000000
21
-8.0000000000
0
LINE
5
21E
100
AcDbEntity
8
0
100
AcDbLine
62
0
6
CONTINUOUS
10
-41.6203500000
20
-8.0000000000
11
-41.6203500000
21
-5.5683620000
0
LINE
5
21F
100
AcDbEntity
8
0
100
AcDbLine
62
0
6
CONTINUOUS
10
-39.6008530000
20
-5.5643750000
11
-39.6008530000
21
-8.0000000000
0
LINE
5
220
100
AcDbEntity
8
0
100
AcDbLine
62
0
6
CONTINUOUS
10
-39.2210500000
20
-8.0000000000
11
-39.2210500000
21
-5.1000000000
0
LINE
5
221
100
AcDbEntity
8
0
100
AcDbLine
62
0
6
CONTINUOUS
10
-35.9090930000
20
-5.1000000000
11
-35.9090930000
21
-8.0000000000
0
LINE
5
222
100
AcDbEntity
8
0
100
AcDbLine
62
0
6
CONTINUOUS
10
-39.7785120000
20
-5.1000000000
11
-40.6065380000
21
-7.5636030000
0
LINE
5
223
100
AcDbEntity
8
0
100
AcDbLine
62
0
6
CONTINUOUS
10
-36.2887320000
20
-8.0000000000
11
-37.3388290000
21
-5.1000000000
0
LINE
5
224
100
AcDbEntity
8
0
100
AcDbLine
62
0
6
CONTINUOUS
10
-37.0036580000
20
-7.1559160000
11
-36.7169180000
21
-8.0000000000
0
LINE
5
225
100
AcDbEntity
8
0
100
AcDbLine
62
0
6
CONTINUOUS
10
-40.6065380000
20
-7.5636030000
11
-41.4385550000
21
-5.1000000000
0
LINE
5
226
100
AcDbEntity
8
0
100
AcDbLine
62
0
6
CONTINUOUS
10
-41.6203500000
20
-5.5683620000
11
-40.8044030000
21
-8.0000000000
0
LINE
5
227
100
AcDbEntity
8
0
100
AcDbLine
62
0
6
CONTINUOUS
10
-37.5769730000
20
-5.5206410000
11
-37.1449180000
21
-6.8085730000
0
LINE
5
228
100
AcDbEntity
8
0
100
AcDbLine
62
0
6
CONTINUOUS
10
-35.5171880000
20
-7.6648520000
11
-35.5171880000
21
-5.4351480000
0
LINE
5
229
100
AcDbEntity
8
0
100
AcDbLine
62
0
6
CONTINUOUS
10
-32.9726230000
20
-5.1000000000
11
-32.9726230000
21
-8.0000000000
0
LINE
5
22A
100
AcDbEntity
8
0
100
AcDbLine
62
0
6
CONTINUOUS
10
-32.5807420000
20
-7.6526570000
11
-32.5807420000
21
-6.6833320000
0
LINE
5
22B
100
AcDbEntity
8
0
100
AcDbLine
62
0
6
CONTINUOUS
10
-32.5807420000
20
-6.3359890000
11
-32.5807420000
21
-5.4473430000
0
LINE
5
22C
100
AcDbEntity
8
0
100
AcDbLine
62
0
6
CONTINUOUS
10
-30.9934000000
20
-6.6833320000
11
-30.9934000000
21
-6.3359890000
0
LINE
5
22D
100
AcDbEntity
8
0
100
AcDbLine
62
0
6
CONTINUOUS
10
-30.8601140000
20
-5.4473430000
11
-30.8601140000
21
-5.1000000000
0
LINE
5
22E
100
AcDbEntity
8
0
100
AcDbLine
62
0
6
CONTINUOUS
10
-30.8318060000
20
-8.0000000000
11
-30.8318060000
21
-7.6526570000
0
LINE
5
22F
100
AcDbEntity
8
0
100
AcDbLine
62
0
6
CONTINUOUS
10
-30.2000000000
20
-26.9000000000
11
-30.2000000000
21
-29.7000000000
0
LINE
5
230
100
AcDbEntity
8
0
100
AcDbLine
62
0
6
CONTINUOUS
10
-40.4166430000
20
-8.0000000000
11
-39.6008530000
21
-5.5643750000
0
LINE
5
231
100
AcDbEntity
8
0
100
AcDbLine
62
0
6
CONTINUOUS
10
-38.4698180000
20
-8.0000000000
11
-38.1668480000
21
-7.1559160000
0
LINE
5
232
100
AcDbEntity
8
0
100
AcDbLine
62
0
6
CONTINUOUS
10
-38.0456410000
20
-6.8085730000
11
-37.5769730000
21
-5.5206410000
0
LINE
5
233
100
AcDbEntity
8
0
100
AcDbLine
62
0
6
CONTINUOUS
10
-37.7831990000
20
-5.1000000000
11
-38.8736830000
21
-8.0000000000
0
LINE
5
234
100
AcDbEntity
8
0
100
AcDbLine
62
0
6
CONTINUOUS
10
10.0000000000
20
-33.0000000000
11
84.6000000000
21
-33.0000000000
0
LINE
5
235
100
AcDbEntity
8
0
100
AcDbLine
62
0
6
CONTINUOUS
10
-10.0000000000
20
-33.0000000000
11
-84.6000000000
21
-33.0000000000
0
LINE
5
236
100
AcDbEntity
8
0
100
AcDbLine
62
0
6
CONTINUOUS
10
84.6000000000
20
-32.5000000000
11
51.2000000000
21
-32.5000000000
0
LINE
5
237
100
AcDbEntity
8
0
100
AcDbLine
62
0
6
CONTINUOUS
10
-50.0500000000
20
-32.5000000000
11
-10.2071067812
21
-32.5000000000
0
LINE
5
238
100
AcDbEntity
8
0
100
AcDbLine
62
0
6
CONTINUOUS
10
10.2071067812
20
-32.5000000000
11
50.0500000000
21
-32.5000000000
0
LINE
5
239
100
AcDbEntity
8
0
100
AcDbLine
62
0
6
CONTINUOUS
10
-51.2000000000
20
-32.5000000000
11
-84.6000000000
21
-32.5000000000
0
LINE
5
23A
100
AcDbEntity
8
0
100
AcDbLine
62
0
6
CONTINUOUS
10
-85.6000000000
20
-32.0000000000
11
-85.1000000000
21
-32.0000000000
0
LINE
5
23B
100
AcDbEntity
8
0
100
AcDbLine
62
0
6
CONTINUOUS
10
85.6000000000
20
-32.0000000000
11
85.1000000000
21
-32.0000000000
0
LINE
5
23C
100
AcDbEntity
8
0
100
AcDbLine
62
0
6
CONTINUOUS
10
-8.0000000000
20
-31.0000000000
11
8.0000000000
21
-31.0000000000
0
LINE
5
23D
100
AcDbEntity
8
0
100
AcDbLine
62
0
6
CONTINUOUS
10
-8.2071067812
20
-30.5000000000
11
8.2071067812
21
-30.5000000000
0
LINE
5
23E
100
AcDbEntity
8
0
100
AcDbLine
62
0
6
CONTINUOUS
10
-29.1353360000
20
-5.1000000000
11
-29.1353360000
21
-8.0000000000
0
LINE
5
23F
100
AcDbEntity
8
0
100
AcDbLine
62
0
6
CONTINUOUS
10
-28.7435720000
20
-8.0000000000
11
-28.7435720000
21
-5.1000000000
0
LINE
5
240
100
AcDbEntity
8
0
100
AcDbLine
62
0
6
CONTINUOUS
10
-28.0731830000
20
-5.1000000000
11
-28.0731830000
21
-8.0000000000
0
LINE
5
241
100
AcDbEntity
8
0
100
AcDbLine
62
0
6
CONTINUOUS
10
-27.6933570000
20
-8.0000000000
11
-27.6933570000
21
-5.6448530000
0
LINE
5
242
100
AcDbEntity
8
0
100
AcDbLine
62
0
6
CONTINUOUS
10
-26.1503880000
20
-5.1000000000
11
-26.1503880000
21
-7.4556240000
0
LINE
5
243
100
AcDbEntity
8
0
100
AcDbLine
62
0
6
CONTINUOUS
10
-25.7707490000
20
-8.0000000000
11
-25.7707490000
21
-5.1000000000
0
LINE
5
244
100
AcDbEntity
8
0
100
AcDbLine
62
0
6
CONTINUOUS
10
-23.9734290000
20
-5.1000000000
11
-23.9734290000
21
-8.0000000000
0
LINE
5
245
100
AcDbEntity
8
0
100
AcDbLine
62
0
6
CONTINUOUS
10
-23.8000000000
20
-29.7000000000
11
-23.8000000000
21
-26.9000000000
0
LINE
5
246
100
AcDbEntity
8
0
100
AcDbLine
62
0
6
CONTINUOUS
10
-48.7000000000
20
-29.7000000000
11
-42.3000000000
21
-29.7000000000
0
LINE
5
247
100
AcDbEntity
8
0
100
AcDbLine
62
0
6
CONTINUOUS
10
-30.2000000000
20
-29.7000000000
11
-23.8000000000
21
-29.7000000000
0
LINE
5
248
100
AcDbEntity
8
0
100
AcDbLine
62
0
6
CONTINUOUS
10
23.8000000000
20
-29.7000000000
11
30.2000000000
21
-29.7000000000
0
LINE
5
249
100
AcDbEntity
8
0
100
AcDbLine
62
0
6
CONTINUOUS
10
42.3000000000
20
-29.7000000000
11
48.7000000000
21
-29.7000000000
0
LINE
5
24A
100
AcDbEntity
8
0
100
AcDbLine
62
0
6
CONTINUOUS
10
48.7000000000
20
-26.9000000000
11
42.3000000000
21
-26.9000000000
0
LINE
5
24B
100
AcDbEntity
8
0
100
AcDbLine
62
0
6
CONTINUOUS
10
30.2000000000
20
-26.9000000000
11
23.8000000000
21
-26.9000000000
0
LINE
5
24C
100
AcDbEntity
8
0
100
AcDbLine
62
0
6
CONTINUOUS
10
-23.8000000000
20
-26.9000000000
11
-30.2000000000
21
-26.9000000000
0
LINE
5
24D
100
AcDbEntity
8
0
100
AcDbLine
62
0
6
CONTINUOUS
10
-42.3000000000
20
-26.9000000000
11
-48.7000000000
21
-26.9000000000
0
LINE
5
24E
100
AcDbEntity
8
0
100
AcDbLine
62
0
6
CONTINUOUS
10
-75.7303012579
20
25.3930309758
11
-76.1133234795
21
25.7144247806
0
LINE
5
24F
100
AcDbEntity
8
0
100
AcDbLine
62
0
6
CONTINUOUS
10
-27.6933570000
20
-5.6448530000
11
-26.2109910000
21
-8.0000000000
0
LINE
5
250
100
AcDbEntity
8
0
100
AcDbLine
62
0
6
CONTINUOUS
10
-26.1503880000
20
-7.4556240000
11
-27.6085960000
21
-5.1000000000
0
LINE
5
251
100
AcDbEntity
8
0
100
AcDbLine
62
0
6
CONTINUOUS
10
-23.5815480000
20
-8.0000000000
11
-23.5815480000
21
-5.1000000000
0
LINE
5
252
100
AcDbEntity
8
0
100
AcDbLine
62
0
6
CONTINUOUS
10
-23.1614760000
20
-5.1000000000
11
-23.1614760000
21
-5.4473430000
0
LINE
5
253
100
AcDbEntity
8
0
100
AcDbLine
62
0
6
CONTINUOUS
10
-22.1799560000
20
-5.4473430000
11
-22.1799560000
21
-8.0000000000
0
LINE
5
254
100
AcDbEntity
8
0
100
AcDbLine
62
0
6
CONTINUOUS
10
-21.7882160000
20
-8.0000000000
11
-21.7882160000
21
-5.4473430000
0
LINE
5
255
100
AcDbEntity
8
0
100
AcDbLine
62
0
6
CONTINUOUS
10
-20.8066950000
20
-5.4473430000
11
-20.8066950000
21
-5.1000000000
0
LINE
5
256
100
AcDbEntity
8
0
100
AcDbLine
62
0
6
CONTINUOUS
10
-17.7491360000
20
-5.1000000000
11
-17.7491360000
21
-8.0000000000
0
LINE
5
257
100
AcDbEntity
8
0
100
AcDbLine
62
0
6
CONTINUOUS
10
-69.9167145634
20
32.3213938048
11
-70.2997367850
21
32.6427876097
0
LINE
5
258
100
AcDbEntity
8
0
100
AcDbLine
62
0
6
CONTINUOUS
10
-18.1084400000
20
-8.0000000000
11
-19.1587490000
21
-5.1000000000
0
LINE
5
259
100
AcDbEntity
8
0
100
AcDbLine
62
0
6
CONTINUOUS
10
-18.8234610000
20
-7.1559160000
11
-18.5366980000
21
-8.0000000000
0
LINE
5
25A
100
AcDbEntity
8
0
100
AcDbLine
62
0
6
CONTINUOUS
10
-19.3969400000
20
-5.5206410000
11
-18.9648610000
21
-6.8085730000
0
LINE
5
25B
100
AcDbEntity
8
0
100
AcDbLine
62
0
6
CONTINUOUS
10
-17.3572310000
20
-7.6526570000
11
-17.3572310000
21
-5.1000000000
0
LINE
5
25C
100
AcDbEntity
8
0
100
AcDbLine
62
0
6
CONTINUOUS
10
-15.8869440000
20
-8.0000000000
11
-15.8869440000
21
-7.6526570000
0
LINE
5
25D
100
AcDbEntity
8
0
100
AcDbLine
62
0
6
CONTINUOUS
10
-14.6591640000
20
-6.8327290000
11
-14.6591640000
21
-8.0000000000
0
LINE
5
25E
100
AcDbEntity
8
0
100
AcDbLine
62
0
6
CONTINUOUS
10
-14.2674940000
20
-8.0000000000
11
-14.2674940000
21
-6.8327290000
0
LINE
5
25F
100
AcDbEntity
8
0
100
AcDbLine
62
0
6
CONTINUOUS
10
-20.2897610000
20
-8.0000000000
11
-19.9867680000
21
-7.1559160000
0
LINE
5
260
100
AcDbEntity
8
0
100
AcDbLine
62
0
6
CONTINUOUS
10
-19.8655850000
20
-6.8085730000
11
-19.3969400000
21
-5.5206410000
0
LINE
5
261
100
AcDbEntity
8
0
100
AcDbLine
62
0
6
CONTINUOUS
10
-15.2700000000
20
6.0000000000
11
-12.1166668546
21
14.6000000000
0
LINE
5
262
100
AcDbEntity
8
0
100
AcDbLine
62
0
6
CONTINUOUS
10
-13.2991668546
20
14.6000000000
11
-16.0583334273
21
7.0978723377
0
LINE
5
263
100
AcDbEntity
8
0
100
AcDbLine
62
0
6
CONTINUOUS
10
-19.6029780000
20
-5.1000000000
11
-20.6936030000
21
-8.0000000000
0
LINE
5
264
100
AcDbEntity
8
0
100
AcDbLine
62
0
6
CONTINUOUS
10
34.4437497377
20
-7.6170212775
11
34.1687500000
21
-7.6808510572
0
LINE
5
265
100
AcDbEntity
8
0
100
AcDbLine
62
0
6
CONTINUOUS
10
31.4187502623
20
-7.6170212775
11
31.1437497377
21
-7.6808510572
0
LINE
5
266
100
AcDbEntity
8
0
100
AcDbLine
62
0
6
CONTINUOUS
10
33.4812502623
20
-6.4680851102
11
33.7562500000
21
-6.4042553306
0
LINE
5
267
100
AcDbEntity
8
0
100
AcDbLine
62
0
6
CONTINUOUS
10
30.4562500000
20
-6.4680851102
11
30.7312497377
21
-6.4042553306
0
LINE
5
268
100
AcDbEntity
8
0
100
AcDbLine
62
0
6
CONTINUOUS
10
34.1687500000
20
-8.0000000000
11
34.5125002623
21
-7.9361702148
0
LINE
5
269
100
AcDbEntity
8
0
100
AcDbLine
62
0
6
CONTINUOUS
10
31.1437497377
20
-8.0000000000
11
31.4875000000
21
-7.9361702148
0
LINE
5
26A
100
AcDbEntity
8
0
100
AcDbLine
62
0
6
CONTINUOUS
10
33.7562500000
20
-6.0851064324
11
33.4124997377
21
-6.1489362121
0
LINE
5
26B
100
AcDbEntity
8
0
100
AcDbLine
62
0
6
CONTINUOUS
10
30.7312497377
20
-6.0851064324
11
30.3875002623
21
-6.1489362121
0
LINE
5
26C
100
AcDbEntity
8
0
100
AcDbLine
62
0
6
CONTINUOUS
10
8.0000000000
20
-31.0000000000
11
10.0000000000
21
-33.0000000000
0
LINE
5
26D
100
AcDbEntity
8
0
100
AcDbLine
62
0
6
CONTINUOUS
10
8.2071067812
20
-30.5000000000
11
10.2071067812
21
-32.5000000000
0
LINE
5
26E
100
AcDbEntity
8
0
100
AcDbLine
62
0
6
CONTINUOUS
10
-15.7537300000
20
-5.1000000000
11
-14.6591640000
21
-6.8327290000
0
LINE
5
26F
100
AcDbEntity
8
0
100
AcDbLine
62
0
6
CONTINUOUS
10
-14.4652050000
20
-6.4935950000
11
-15.2973280000
21
-5.1000000000
0
LINE
5
270
100
AcDbEntity
8
0
100
AcDbLine
62
0
6
CONTINUOUS
10
-16.0583334273
20
7.0978723377
11
-18.8175000000
21
14.6000000000
0
LINE
5
271
100
AcDbEntity
8
0
100
AcDbLine
62
0
6
CONTINUOUS
10
-20.0000000000
20
14.6000000000
11
-16.8466665727
21
6.0000000000
0
LINE
5
272
100
AcDbEntity
8
0
100
AcDbLine
62
0
6
CONTINUOUS
10
-10.5400000000
20
14.6000000000
11
-10.5400000000
21
6.0000000000
0
LINE
5
273
100
AcDbEntity
8
0
100
AcDbLine
62
0
6
CONTINUOUS
10
-9.3575000000
20
6.0000000000
11
-9.3575000000
21
14.6000000000
0
LINE
5
274
100
AcDbEntity
8
0
100
AcDbLine
62
0
6
CONTINUOUS
10
-7.7808337092
20
14.6000000000
11
-7.7808337092
21
6.0000000000
0
LINE
5
275
100
AcDbEntity
8
0
100
AcDbLine
62
0
6
CONTINUOUS
10
-6.5983337092
20
6.0000000000
11
-6.5983337092
21
12.7702129841
0
LINE
5
276
100
AcDbEntity
8
0
100
AcDbLine
62
0
6
CONTINUOUS
10
-0.0945825815
20
14.6000000000
11
-3.0508337092
21
6.9148936361
0
LINE
5
277
100
AcDbEntity
8
0
100
AcDbLine
62
0
6
CONTINUOUS
10
-13.6333170000
20
-5.1000000000
11
-14.4652050000
21
-6.4935950000
0
LINE
5
278
100
AcDbEntity
8
0
100
AcDbLine
62
0
6
CONTINUOUS
10
-14.2674940000
20
-6.8327290000
11
-13.1726940000
21
-5.1000000000
0
LINE
5
279
100
AcDbEntity
8
0
100
AcDbLine
62
0
6
CONTINUOUS
10
-42.0000000000
20
-8.0000000000
11
-41.6203500000
21
-8.0000000000
0
LINE
5
27A
100
AcDbEntity
8
0
100
AcDbLine
62
0
6
CONTINUOUS
10
-40.8044030000
20
-8.0000000000
11
-40.4166430000
21
-8.0000000000
0
LINE
5
27B
100
AcDbEntity
8
0
100
AcDbLine
62
0
6
CONTINUOUS
10
-39.6008530000
20
-8.0000000000
11
-39.2210500000
21
-8.0000000000
0
LINE
5
27C
100
AcDbEntity
8
0
100
AcDbLine
62
0
6
CONTINUOUS
10
-38.8736830000
20
-8.0000000000
11
-38.4698180000
21
-8.0000000000
0
LINE
5
27D
100
AcDbEntity
8
0
100
AcDbLine
62
0
6
CONTINUOUS
10
-36.7169180000
20
-8.0000000000
11
-36.2887320000
21
-8.0000000000
0
LINE
5
27E
100
AcDbEntity
8
0
100
AcDbLine
62
0
6
CONTINUOUS
10
-35.9090930000
20
-8.0000000000
11
-34.7336842459
21
-8.0000000000
0
LINE
5
27F
100
AcDbEntity
8
0
100
AcDbLine
62
0
6
CONTINUOUS
10
-32.9726230000
20
-8.0000000000
11
-30.8318060000
21
-8.0000000000
0
LINE
5
280
100
AcDbEntity
8
0
100
AcDbLine
62
0
6
CONTINUOUS
10
-29.1353360000
20
-8.0000000000
11
-28.7435720000
21
-8.0000000000
0
LINE
5
281
100
AcDbEntity
8
0
100
AcDbLine
62
0
6
CONTINUOUS
10
-28.0731830000
20
-8.0000000000
11
-27.6933570000
21
-8.0000000000
0
LINE
5
282
100
AcDbEntity
8
0
100
AcDbLine
62
0
6
CONTINUOUS
10
-26.2109910000
20
-8.0000000000
11
-25.7707490000
21
-8.0000000000
0
LINE
5
283
100
AcDbEntity
8
0
100
AcDbLine
62
0
6
CONTINUOUS
10
-23.9734290000
20
-8.0000000000
11
-23.5815480000
21
-8.0000000000
0
LINE
5
284
100
AcDbEntity
8
0
100
AcDbLine
62
0
6
CONTINUOUS
10
-22.1799560000
20
-8.0000000000
11
-21.7882160000
21
-8.0000000000
0
LINE
5
285
100
AcDbEntity
8
0
100
AcDbLine
62
0
6
CONTINUOUS
10
-20.6936030000
20
-8.0000000000
11
-20.2897610000
21
-8.0000000000
0
LINE
5
286
100
AcDbEntity
8
0
100
AcDbLine
62
0
6
CONTINUOUS
10
-18.5366980000
20
-8.0000000000
11
-18.1084400000
21
-8.0000000000
0
LINE
5
287
100
AcDbEntity
8
0
100
AcDbLine
62
0
6
CONTINUOUS
10
-17.7491360000
20
-8.0000000000
11
-15.8869440000
21
-8.0000000000
0
LINE
5
288
100
AcDbEntity
8
0
100
AcDbLine
62
0
6
CONTINUOUS
10
-14.6591640000
20
-8.0000000000
11
-14.2674940000
21
-8.0000000000
0
LINE
5
289
100
AcDbEntity
8
0
100
AcDbLine
62
0
6
CONTINUOUS
10
23.1000000328
20
-8.0000000000
11
23.6500000000
21
-8.0000000000
0
LINE
5
28A
100
AcDbEntity
8
0
100
AcDbLine
62
0
6
CONTINUOUS
10
25.9875001311
20
-8.0000000000
11
26.4000001311
21
-8.0000000000
0
LINE
5
28B
100
AcDbEntity
8
0
100
AcDbLine
62
0
6
CONTINUOUS
10
28.7375002623
20
-8.0000000000
11
29.1500002623
21
-8.0000000000
0
LINE
5
28C
100
AcDbEntity
8
0
100
AcDbLine
62
0
6
CONTINUOUS
10
30.7312497377
20
-8.0000000000
11
31.1437497377
21
-8.0000000000
0
LINE
5
28D
100
AcDbEntity
8
0
100
AcDbLine
62
0
6
CONTINUOUS
10
33.7562500000
20
-8.0000000000
11
34.1687500000
21
-8.0000000000
0
LINE
5
28E
100
AcDbEntity
8
0
100
AcDbLine
62
0
6
CONTINUOUS
10
36.1624994755
20
-8.0000000000
11
36.5749994755
21
-8.0000000000
0
LINE
5
28F
100
AcDbEntity
8
0
100
AcDbLine
62
0
6
CONTINUOUS
10
34.1687500000
20
-7.6808510572
11
33.7562500000
21
-7.6808510572
0
LINE
5
290
100
AcDbEntity
8
0
100
AcDbLine
62
0
6
CONTINUOUS
10
31.1437497377
20
-7.6808510572
11
30.7312497377
21
-7.6808510572
0
LINE
5
291
100
AcDbEntity
8
0
100
AcDbLine
62
0
6
CONTINUOUS
10
-34.7436524738
20
-7.6648520000
11
-35.5171880000
21
-7.6648520000
0
LINE
5
292
100
AcDbEntity
8
0
100
AcDbLine
62
0
6
CONTINUOUS
10
-15.8869440000
20
-7.6526570000
11
-17.3572310000
21
-7.6526570000
0
LINE
5
293
100
AcDbEntity
8
0
100
AcDbLine
62
0
6
CONTINUOUS
10
-30.8318060000
20
-7.6526570000
11
-32.5807420000
21
-7.6526570000
0
LINE
5
294
100
AcDbEntity
8
0
100
AcDbLine
62
0
6
CONTINUOUS
10
33.1375000000
20
-7.2340425551
11
32.7250000000
21
-7.2340425551
0
LINE
5
295
100
AcDbEntity
8
0
100
AcDbLine
62
0
6
CONTINUOUS
10
30.1124997377
20
-7.2340425551
11
29.6999997377
21
-7.2340425551
0
LINE
5
296
100
AcDbEntity
8
0
100
AcDbLine
62
0
6
CONTINUOUS
10
-38.1668480000
20
-7.1559160000
11
-37.0036580000
21
-7.1559160000
0
LINE
5
297
100
AcDbEntity
8
0
100
AcDbLine
62
0
6
CONTINUOUS
10
-19.9867680000
20
-7.1559160000
11
-18.8234610000
21
-7.1559160000
0
LINE
5
298
100
AcDbEntity
8
0
100
AcDbLine
62
0
6
CONTINUOUS
10
-18.9648610000
20
-6.8085730000
11
-19.8655850000
21
-6.8085730000
0
LINE
5
299
100
AcDbEntity
8
0
100
AcDbLine
62
0
6
CONTINUOUS
10
-37.1449180000
20
-6.8085730000
11
-38.0456410000
21
-6.8085730000
0
LINE
5
29A
100
AcDbEntity
8
0
100
AcDbLine
62
0
6
CONTINUOUS
10
-32.5807420000
20
-6.6833320000
11
-30.9934000000
21
-6.6833320000
0
LINE
5
29B
100
AcDbEntity
8
0
100
AcDbLine
62
0
6
CONTINUOUS
10
29.6999997377
20
-6.6595744491
11
30.1812502623
21
-6.6595744491
0
LINE
5
29C
100
AcDbEntity
8
0
100
AcDbLine
62
0
6
CONTINUOUS
10
32.7250000000
20
-6.6595744491
11
33.2062497377
21
-6.6595744491
0
LINE
5
29D
100
AcDbEntity
8
0
100
AcDbLine
62
0
6
CONTINUOUS
10
30.7312497377
20
-6.4042553306
11
31.1437497377
21
-6.4042553306
0
LINE
5
29E
100
AcDbEntity
8
0
100
AcDbLine
62
0
6
CONTINUOUS
10
33.7562500000
20
-6.4042553306
11
34.1687500000
21
-6.4042553306
0
LINE
5
29F
100
AcDbEntity
8
0
100
AcDbLine
62
0
6
CONTINUOUS
10
-30.9934000000
20
-6.3359890000
11
-32.5807420000
21
-6.3359890000
0
LINE
5
2A0
100
AcDbEntity
8
0
100
AcDbLine
62
0
6
CONTINUOUS
10
34.1687500000
20
-6.0851064324
11
33.7562500000
21
-6.0851064324
0
LINE
5
2A1
100
AcDbEntity
8
0
100
AcDbLine
62
0
6
CONTINUOUS
10
31.1437497377
20
-6.0851064324
11
30.7312497377
21
-6.0851064324
0
LINE
5
2A2
100
AcDbEntity
8
0
100
AcDbLine
62
0
6
CONTINUOUS
10
-32.5807420000
20
-5.4473430000
11
-30.8601140000
21
-5.4473430000
0
LINE
5
2A3
100
AcDbEntity
8
0
100
AcDbLine
62
0
6
CONTINUOUS
10
-23.1614760000
20
-5.4473430000
11
-22.1799560000
21
-5.4473430000
0
LINE
5
2A4
100
AcDbEntity
8
0
100
AcDbLine
62
0
6
CONTINUOUS
10
-21.7882160000
20
-5.4473430000
11
-20.8066950000
21
-5.4473430000
0
LINE
5
2A5
100
AcDbEntity
8
0
100
AcDbLine
62
0
6
CONTINUOUS
10
-35.5171880000
20
-5.4351480000
11
-34.7436524737
21
-5.4351480000
0
LINE
5
2A6
100
AcDbEntity
8
0
100
AcDbLine
62
0
6
CONTINUOUS
10
25.3000000000
20
-5.3191488981
11
27.3625000000
21
-5.3191488981
0
LINE
5
2A7
100
AcDbEntity
8
0
100
AcDbLine
62
0
6
CONTINUOUS
10
30.0437500000
20
-5.3191488981
11
32.0375002623
21
-5.3191488981
0
LINE
5
2A8
100
AcDbEntity
8
0
100
AcDbLine
62
0
6
CONTINUOUS
10
33.0687502623
20
-5.3191488981
11
35.0624997377
21
-5.3191488981
0
LINE
5
2A9
100
AcDbEntity
8
0
100
AcDbLine
62
0
6
CONTINUOUS
10
0.4966674185
20
12.7702129841
11
0.4966674185
21
6.0000000000
0
LINE
5
2AA
100
AcDbEntity
8
0
100
AcDbLine
62
0
6
CONTINUOUS
10
-2.2625000000
20
6.0000000000
11
0.4966674185
21
12.7702129841
0
LINE
5
2AB
100
AcDbEntity
8
0
100
AcDbLine
62
0
6
CONTINUOUS
10
18.4312500000
20
10.2085106492
11
19.2195848370
21
10.5744680524
0
LINE
5
2AC
100
AcDbEntity
8
0
100
AcDbLine
62
0
6
CONTINUOUS
10
18.2341651630
20
11.1234041572
11
17.6429174185
21
10.9404254556
0
LINE
5
2AD
100
AcDbEntity
8
0
100
AcDbLine
62
0
6
CONTINUOUS
10
-13.1726940000
20
-5.1000000000
11
-13.6333170000
21
-5.1000000000
0
LINE
5
2AE
100
AcDbEntity
8
0
100
AcDbLine
62
0
6
CONTINUOUS
10
-15.2973280000
20
-5.1000000000
11
-15.7537300000
21
-5.1000000000
0
LINE
5
2AF
100
AcDbEntity
8
0
100
AcDbLine
62
0
6
CONTINUOUS
10
-17.3572310000
20
-5.1000000000
11
-17.7491360000
21
-5.1000000000
0
LINE
5
2B0
100
AcDbEntity
8
0
100
AcDbLine
62
0
6
CONTINUOUS
10
-19.1587490000
20
-5.1000000000
11
-19.6029780000
21
-5.1000000000
0
LINE
5
2B1
100
AcDbEntity
8
0
100
AcDbLine
62
0
6
CONTINUOUS
10
-20.8066950000
20
-5.1000000000
11
-23.1614760000
21
-5.1000000000
0
LINE
5
2B2
100
AcDbEntity
8
0
100
AcDbLine
62
0
6
CONTINUOUS
10
-23.5815480000
20
-5.1000000000
11
-23.9734290000
21
-5.1000000000
0
LINE
5
2B3
100
AcDbEntity
8
0
100
AcDbLine
62
0
6
CONTINUOUS
10
-25.7707490000
20
-5.1000000000
11
-26.1503880000
21
-5.1000000000
0
LINE
5
2B4
100
AcDbEntity
8
0
100
AcDbLine
62
0
6
CONTINUOUS
10
-27.6085960000
20
-5.1000000000
11
-28.0731830000
21
-5.1000000000
0
LINE
5
2B5
100
AcDbEntity
8
0
100
AcDbLine
62
0
6
CONTINUOUS
10
-28.7435720000
20
-5.1000000000
11
-29.1353360000
21
-5.1000000000
0
LINE
5
2B6
100
AcDbEntity
8
0
100
AcDbLine
62
0
6
CONTINUOUS
10
-30.8601140000
20
-5.1000000000
11
-32.9726230000
21
-5.1000000000
0
LINE
5
2B7
100
AcDbEntity
8
0
100
AcDbLine
62
0
6
CONTINUOUS
10
-34.7213541021
20
-5.1000000000
11
-35.9090930000
21
-5.1000000000
0
LINE
5
2B8
100
AcDbEntity
8
0
100
AcDbLine
62
0
6
CONTINUOUS
10
-37.3388290000
20
-5.1000000000
11
-37.7831990000
21
-5.1000000000
0
LINE
5
2B9
100
AcDbEntity
8
0
100
AcDbLine
62
0
6
CONTINUOUS
10
-39.2210500000
20
-5.1000000000
11
-39.7785120000
21
-5.1000000000
0
LINE
5
2BA
100
AcDbEntity
8
0
100
AcDbLine
62
0
6
CONTINUOUS
10
-41.4385550000
20
-5.1000000000
11
-42.0000000000
21
-5.1000000000
0
LINE
5
2BB
100
AcDbEntity
8
0
100
AcDbLine
62
0
6
CONTINUOUS
10
36.5749994755
20
-5.0000000000
11
36.1624994755
21
-5.0000000000
0
LINE
5
2BC
100
AcDbEntity
8
0
100
AcDbLine
62
0
6
CONTINUOUS
10
35.0624997377
20
-5.0000000000
11
32.7250000000
21
-5.0000000000
0
LINE
5
2BD
100
AcDbEntity
8
0
100
AcDbLine
62
0
6
CONTINUOUS
10
32.0375002623
20
-5.0000000000
11
29.6999997377
21
-5.0000000000
0
LINE
5
2BE
100
AcDbEntity
8
0
100
AcDbLine
62
0
6
CONTINUOUS
10
29.1500002623
20
-5.0000000000
11
28.7375002623
21
-5.0000000000
0
LINE
5
2BF
100
AcDbEntity
8
0
100
AcDbLine
62
0
6
CONTINUOUS
10
27.7750000000
20
-5.0000000000
11
25.3000000000
21
-5.0000000000
0
LINE
5
2C0
100
AcDbEntity
8
0
100
AcDbLine
62
0
6
CONTINUOUS
10
24.7499999344
20
-5.0000000000
11
24.3374999344
21
-5.0000000000
0
LINE
5
2C1
100
AcDbEntity
8
0
100
AcDbLine
62
0
6
CONTINUOUS
10
22.4125000000
20
-5.0000000000
11
22.0000000000
21
-5.0000000000
0
LINE
5
2C2
100
AcDbEntity
8
0
100
AcDbLine
62
0
6
CONTINUOUS
10
50.0500000000
20
-1.0000000000
11
50.6500000000
21
-1.0000000000
0
LINE
5
2C3
100
AcDbEntity
8
0
100
AcDbLine
62
0
6
CONTINUOUS
10
-50.0500000000
20
-1.0000000000
11
-50.6500000000
21
-1.0000000000
0
LINE
5
2C4
100
AcDbEntity
8
0
100
AcDbLine
62
0
6
CONTINUOUS
10
50.9000000000
20
-1.0000000000
11
51.2000000000
21
-1.0000000000
0
LINE
5
2C5
100
AcDbEntity
8
0
100
AcDbLine
62
0
6
CONTINUOUS
10
-50.9000000000
20
-1.0000000000
11
-51.2000000000
21
-1.0000000000
0
LINE
5
2C6
100
AcDbEntity
8
0
100
AcDbLine
62
0
6
CONTINUOUS
10
-85.1000000000
20
0.3000000000
11
-52.5000000000
21
0.3000000000
0
LINE
5
2C7
100
AcDbEntity
8
0
100
AcDbLine
62
0
6
CONTINUOUS
10
85.1000000000
20
0.3000000000
11
52.5000000000
21
0.3000000000
0
LINE
5
2C8
100
AcDbEntity
8
0
100
AcDbLine
62
0
6
CONTINUOUS
10
-85.6000000000
20
0.6000000000
11
-52.5000000000
21
0.6000000000
0
LINE
5
2C9
100
AcDbEntity
8
0
100
AcDbLine
62
0
6
CONTINUOUS
10
85.6000000000
20
0.6000000000
11
52.5000000000
21
0.6000000000
0
LINE
5
2CA
100
AcDbEntity
8
0
100
AcDbLine
62
0
6
CONTINUOUS
10
30.3875002623
20
-7.9361702148
11
30.7312497377
21
-8.0000000000
0
LINE
5
2CB
100
AcDbEntity
8
0
100
AcDbLine
62
0
6
CONTINUOUS
10
33.4124997377
20
-7.9361702148
11
33.7562500000
21
-8.0000000000
0
LINE
5
2CC
100
AcDbEntity
8
0
100
AcDbLine
62
0
6
CONTINUOUS
10
31.4875000000
20
-6.1489362121
11
31.1437497377
21
-6.0851064324
0
LINE
5
2CD
100
AcDbEntity
8
0
100
AcDbLine
62
0
6
CONTINUOUS
10
34.5125002623
20
-6.1489362121
11
34.1687500000
21
-6.0851064324
0
LINE
5
2CE
100
AcDbEntity
8
0
100
AcDbLine
62
0
6
CONTINUOUS
10
30.7312497377
20
-7.6808510572
11
30.4562500000
21
-7.6170212775
0
LINE
5
2CF
100
AcDbEntity
8
0
100
AcDbLine
62
0
6
CONTINUOUS
10
33.7562500000
20
-7.6808510572
11
33.4812502623
21
-7.6170212775
0
LINE
5
2D0
100
AcDbEntity
8
0
100
AcDbLine
62
0
6
CONTINUOUS
10
31.1437497377
20
-6.4042553306
11
31.4187502623
21
-6.4680851102
0
LINE
5
2D1
100
AcDbEntity
8
0
100
AcDbLine
62
0
6
CONTINUOUS
10
-6.5983337092
20
12.7702129841
11
-3.8391662908
21
6.0000000000
0
LINE
5
2D2
100
AcDbEntity
8
0
100
AcDbLine
62
0
6
CONTINUOUS
10
-3.0508337092
20
6.9148936361
11
-6.0070837092
21
14.6000000000
0
LINE
5
2D3
100
AcDbEntity
8
0
100
AcDbLine
62
0
6
CONTINUOUS
10
1.6791674185
20
6.0000000000
11
1.6791674185
21
14.6000000000
0
LINE
5
2D4
100
AcDbEntity
8
0
100
AcDbLine
62
0
6
CONTINUOUS
10
5.4237500000
20
8.9276594818
11
7.1975000000
21
13.8680851936
0
LINE
5
2D5
100
AcDbEntity
8
0
100
AcDbLine
62
0
6
CONTINUOUS
10
4.4383325815
20
6.0000000000
11
5.2266674185
21
8.1957446754
0
LINE
5
2D6
100
AcDbEntity
8
0
100
AcDbLine
62
0
6
CONTINUOUS
10
6.4091674185
20
14.6000000000
11
3.2558325815
21
6.0000000000
0
LINE
5
2D7
100
AcDbEntity
8
0
100
AcDbLine
62
0
6
CONTINUOUS
10
18.6283348370
20
11.4893615603
11
18.2341651630
21
11.1234041572
0
LINE
5
2D8
100
AcDbEntity
8
0
100
AcDbLine
62
0
6
CONTINUOUS
10
-85.6000000000
20
0.8500000000
11
-52.5000000000
21
0.8500000000
0
LINE
5
2D9
100
AcDbEntity
8
0
100
AcDbLine
62
0
6
CONTINUOUS
10
85.6000000000
20
0.8500000000
11
52.5000000000
21
0.8500000000
0
LINE
5
2DA
100
AcDbEntity
8
0
100
AcDbLine
62
0
6
CONTINUOUS
10
-85.1000000000
20
1.4500000000
11
-52.5000000000
21
1.4500000000
0
LINE
5
2DB
100
AcDbEntity
8
0
100
AcDbLine
62
0
6
CONTINUOUS
10
85.1000000000
20
1.4500000000
11
52.5000000000
21
1.4500000000
0
LINE
5
2DC
100
AcDbEntity
8
0
100
AcDbLine
62
0
6
CONTINUOUS
10
-16.8466665727
20
6.0000000000
11
-15.2700000000
21
6.0000000000
0
LINE
5
2DD
100
AcDbEntity
8
0
100
AcDbLine
62
0
6
CONTINUOUS
10
-10.5400000000
20
6.0000000000
11
-9.3575000000
21
6.0000000000
0
LINE
5
2DE
100
AcDbEntity
8
0
100
AcDbLine
62
0
6
CONTINUOUS
10
-7.7808337092
20
6.0000000000
11
-6.5983337092
21
6.0000000000
0
LINE
5
2DF
100
AcDbEntity
8
0
100
AcDbLine
62
0
6
CONTINUOUS
10
-3.8391662908
20
6.0000000000
11
-2.2625000000
21
6.0000000000
0
LINE
5
2E0
100
AcDbEntity
8
0
100
AcDbLine
62
0
6
CONTINUOUS
10
0.4966674185
20
6.0000000000
11
1.6791674185
21
6.0000000000
0
LINE
5
2E1
100
AcDbEntity
8
0
100
AcDbLine
62
0
6
CONTINUOUS
10
3.2558325815
20
6.0000000000
11
4.4383325815
21
6.0000000000
0
LINE
5
2E2
100
AcDbEntity
8
0
100
AcDbLine
62
0
6
CONTINUOUS
10
9.9566674185
20
6.0000000000
11
11.1391674185
21
6.0000000000
0
LINE
5
2E3
100
AcDbEntity
8
0
100
AcDbLine
62
0
6
CONTINUOUS
10
12.7158325815
20
6.0000000000
11
13.8983325815
21
6.0000000000
0
LINE
5
2E4
100
AcDbEntity
8
0
100
AcDbLine
62
0
6
CONTINUOUS
10
18.8254151630
20
6.0000000000
11
20.2050000000
21
6.0000000000
0
LINE
5
2E5
100
AcDbEntity
8
0
100
AcDbLine
62
0
6
CONTINUOUS
10
34.1687500000
20
-6.4042553306
11
34.4437497377
21
-6.4680851102
0
LINE
5
2E6
100
AcDbEntity
8
0
100
AcDbLine
62
0
6
CONTINUOUS
10
12.7158325815
20
14.6000000000
11
12.7158325815
21
6.0000000000
0
LINE
5
2E7
100
AcDbEntity
8
0
100
AcDbLine
62
0
6
CONTINUOUS
10
19.2195848370
20
10.5744680524
11
19.8108348370
21
11.3063828588
0
LINE
5
2E8
100
AcDbEntity
8
0
100
AcDbLine
62
0
6
CONTINUOUS
10
5.2266674185
20
8.1957446754
11
9.1683325815
21
8.1957446754
0
LINE
5
2E9
100
AcDbEntity
8
0
100
AcDbLine
62
0
6
CONTINUOUS
10
8.9712500000
20
8.9276594818
11
5.4237500000
21
8.9276594818
0
LINE
5
2EA
100
AcDbEntity
8
0
100
AcDbLine
62
0
6
CONTINUOUS
10
13.8983325815
20
9.8425532460
11
17.2487500000
21
9.8425532460
0
LINE
5
2EB
100
AcDbEntity
8
0
100
AcDbLine
62
0
6
CONTINUOUS
10
17.6429174185
20
10.9404254556
11
13.8983325815
21
10.9404254556
0
LINE
5
2EC
100
AcDbEntity
8
0
100
AcDbLine
62
0
6
CONTINUOUS
10
30.0437500000
20
-7.7446808591
11
30.3875002623
21
-7.9361702148
0
LINE
5
2ED
100
AcDbEntity
8
0
100
AcDbLine
62
0
6
CONTINUOUS
10
33.0687502623
20
-7.7446808591
11
33.4124997377
21
-7.9361702148
0
LINE
5
2EE
100
AcDbEntity
8
0
100
AcDbLine
62
0
6
CONTINUOUS
10
31.8312502623
20
-6.3404255509
11
31.4875000000
21
-6.1489362121
0
LINE
5
2EF
100
AcDbEntity
8
0
100
AcDbLine
62
0
6
CONTINUOUS
10
34.8562497377
20
-6.3404255509
11
34.5125002623
21
-6.1489362121
0
LINE
5
2F0
100
AcDbEntity
8
0
100
AcDbLine
62
0
6
CONTINUOUS
10
30.4562500000
20
-7.6170212775
11
30.2500000000
21
-7.4893617183
0
LINE
5
2F1
100
AcDbEntity
8
0
100
AcDbLine
62
0
6
CONTINUOUS
10
31.4187502623
20
-6.4680851102
11
31.6250002623
21
-6.5957446694
0
LINE
5
2F2
100
AcDbEntity
8
0
100
AcDbLine
62
0
6
CONTINUOUS
10
33.4812502623
20
-7.6170212775
11
33.2750002623
21
-7.4893617183
0
LINE
5
2F3
100
AcDbEntity
8
0
100
AcDbLine
62
0
6
CONTINUOUS
10
34.4437497377
20
-6.4680851102
11
34.6499997377
21
-6.5957446694
0
LINE
5
2F4
100
AcDbEntity
8
0
100
AcDbLine
62
0
6
CONTINUOUS
10
11.1391674185
20
6.0000000000
11
7.9858325815
21
14.6000000000
0
LINE
5
2F5
100
AcDbEntity
8
0
100
AcDbLine
62
0
6
CONTINUOUS
10
9.1683325815
20
8.1957446754
11
9.9566674185
21
6.0000000000
0
LINE
5
2F6
100
AcDbEntity
8
0
100
AcDbLine
62
0
6
CONTINUOUS
10
7.1975000000
20
13.8680851936
11
8.9712500000
21
8.9276594818
0
LINE
5
2F7
100
AcDbEntity
8
0
100
AcDbLine
62
0
6
CONTINUOUS
10
13.8983325815
20
6.0000000000
11
13.8983325815
21
9.8425532460
0
LINE
5
2F8
100
AcDbEntity
8
0
100
AcDbLine
62
0
6
CONTINUOUS
10
13.8983325815
20
10.9404254556
11
13.8983325815
21
13.6851064920
0
LINE
5
2F9
100
AcDbEntity
8
0
100
AcDbLine
62
0
6
CONTINUOUS
10
18.8254151630
20
12.5872342825
11
18.8254151630
21
12.0382976651
0
LINE
5
2FA
100
AcDbEntity
8
0
100
AcDbLine
62
0
6
CONTINUOUS
10
18.8254151630
20
12.0382976651
11
18.6283348370
21
11.4893615603
0
LINE
5
2FB
100
AcDbEntity
8
0
100
AcDbLine
62
0
6
CONTINUOUS
10
19.8108348370
20
11.3063828588
11
20.0079151630
21
11.8553189635
0
LINE
5
2FC
100
AcDbEntity
8
0
100
AcDbLine
62
0
6
CONTINUOUS
10
-10.2071067812
20
-32.5000000000
11
-8.2071067812
21
-30.5000000000
0
LINE
5
2FD
100
AcDbEntity
8
0
100
AcDbLine
62
0
6
CONTINUOUS
10
-10.0000000000
20
-33.0000000000
11
-8.0000000000
21
-31.0000000000
0
LINE
5
2FE
100
AcDbEntity
8
0
100
AcDbLine
62
0
6
CONTINUOUS
10
13.8983325815
20
13.6851064920
11
17.6429174185
21
13.6851064920
0
LINE
5
2FF
100
AcDbEntity
8
0
100
AcDbLine
62
0
6
CONTINUOUS
10
17.4458325815
20
14.6000000000
11
12.7158325815
21
14.6000000000
0
LINE
5
300
100
AcDbEntity
8
0
100
AcDbLine
62
0
6
CONTINUOUS
10
7.9858325815
20
14.6000000000
11
6.4091674185
21
14.6000000000
0
LINE
5
301
100
AcDbEntity
8
0
100
AcDbLine
62
0
6
CONTINUOUS
10
1.6791674185
20
14.6000000000
11
-0.0945825815
21
14.6000000000
0
LINE
5
302
100
AcDbEntity
8
0
100
AcDbLine
62
0
6
CONTINUOUS
10
-6.0070837092
20
14.6000000000
11
-7.7808337092
21
14.6000000000
0
LINE
5
303
100
AcDbEntity
8
0
100
AcDbLine
62
0
6
CONTINUOUS
10
-9.3575000000
20
14.6000000000
11
-10.5400000000
21
14.6000000000
0
LINE
5
304
100
AcDbEntity
8
0
100
AcDbLine
62
0
6
CONTINUOUS
10
-12.1166668546
20
14.6000000000
11
-13.2991668546
21
14.6000000000
0
LINE
5
305
100
AcDbEntity
8
0
100
AcDbLine
62
0
6
CONTINUOUS
10
-18.8175000000
20
14.6000000000
11
-20.0000000000
21
14.6000000000
0
LINE
5
306
100
AcDbEntity
8
0
100
AcDbLine
62
0
6
CONTINUOUS
10
18.4312500000
20
14.4170212984
11
17.4458325815
21
14.6000000000
0
LINE
5
307
100
AcDbEntity
8
0
100
AcDbLine
62
0
6
CONTINUOUS
10
17.6429174185
20
13.6851064920
11
18.2341651630
21
13.5021277905
0
LINE
5
308
100
AcDbEntity
8
0
100
AcDbLine
62
0
6
CONTINUOUS
10
29.8375000000
20
-7.4893617183
11
30.0437500000
21
-7.7446808591
0
LINE
5
309
100
AcDbEntity
8
0
100
AcDbLine
62
0
6
CONTINUOUS
10
22.0000000000
20
-5.0000000000
11
23.1000000328
21
-8.0000000000
0
LINE
5
30A
100
AcDbEntity
8
0
100
AcDbLine
62
0
6
CONTINUOUS
10
20.0079151630
20
11.8553189635
11
20.0079151630
21
12.5872342825
0
LINE
5
30B
100
AcDbEntity
8
0
100
AcDbLine
62
0
6
CONTINUOUS
10
23.8000000000
20
-26.9000000000
11
23.8000000000
21
-29.7000000000
0
LINE
5
30C
100
AcDbEntity
8
0
100
AcDbLine
62
0
6
CONTINUOUS
10
23.6500000000
20
-8.0000000000
11
24.7499999344
21
-5.0000000000
0
LINE
5
30D
100
AcDbEntity
8
0
100
AcDbLine
62
0
6
CONTINUOUS
10
24.3374999344
20
-5.0000000000
11
23.3749999672
21
-7.6170212775
0
LINE
5
30E
100
AcDbEntity
8
0
100
AcDbLine
62
0
6
CONTINUOUS
10
28.7375002623
20
-5.0000000000
11
28.3249998689
21
-5.4468084574
0
LINE
5
30F
100
AcDbEntity
8
0
100
AcDbLine
62
0
6
CONTINUOUS
10
28.3249998689
20
-5.9574468732
11
28.7375002623
21
-5.5106382370
0
LINE
5
310
100
AcDbEntity
8
0
100
AcDbLine
62
0
6
CONTINUOUS
10
69.9167145634
20
32.3213938048
11
70.2997367850
21
32.6427876097
0
LINE
5
311
100
AcDbEntity
8
0
100
AcDbLine
62
0
6
CONTINUOUS
10
30.1812502623
20
-6.6595744491
11
30.4562500000
21
-6.4680851102
0
LINE
5
312
100
AcDbEntity
8
0
100
AcDbLine
62
0
6
CONTINUOUS
10
33.2062497377
20
-6.6595744491
11
33.4812502623
21
-6.4680851102
0
LINE
5
313
100
AcDbEntity
8
0
100
AcDbLine
62
0
6
CONTINUOUS
10
31.6250002623
20
-7.4893617183
11
31.4187502623
21
-7.6170212775
0
LINE
5
314
100
AcDbEntity
8
0
100
AcDbLine
62
0
6
CONTINUOUS
10
34.6499997377
20
-7.4893617183
11
34.4437497377
21
-7.6170212775
0
LINE
5
315
100
AcDbEntity
8
0
100
AcDbLine
62
0
6
CONTINUOUS
10
30.3875002623
20
-6.1489362121
11
30.0437500000
21
-6.3404255509
0
LINE
5
316
100
AcDbEntity
8
0
100
AcDbLine
62
0
6
CONTINUOUS
10
33.4124997377
20
-6.1489362121
11
33.0687502623
21
-6.3404255509
0
LINE
5
317
100
AcDbEntity
8
0
100
AcDbLine
62
0
6
CONTINUOUS
10
31.4875000000
20
-7.9361702148
11
31.8312502623
21
-7.7446808591
0
LINE
5
318
100
AcDbEntity
8
0
100
AcDbLine
62
0
6
CONTINUOUS
10
34.5125002623
20
-7.9361702148
11
34.8562497377
21
-7.7446808591
0
LINE
5
319
100
AcDbEntity
8
0
100
AcDbLine
62
0
6
CONTINUOUS
10
85.1000000000
20
24.0000000000
11
85.6000000000
21
24.0000000000
0
LINE
5
31A
100
AcDbEntity
8
0
100
AcDbLine
62
0
6
CONTINUOUS
10
-85.1000000000
20
24.0000000000
11
-85.6000000000
21
24.0000000000
0
LINE
5
31B
100
AcDbEntity
8
0
100
AcDbLine
62
0
6
CONTINUOUS
10
84.6000000000
20
24.5000000000
11
77.6454123657
21
24.5000000000
0
LINE
5
31C
100
AcDbEntity
8
0
100
AcDbLine
62
0
6
CONTINUOUS
10
-77.6454123657
20
24.5000000000
11
-84.6000000000
21
24.5000000000
0
LINE
5
31D
100
AcDbEntity
8
0
100
AcDbLine
62
0
6
CONTINUOUS
10
84.6000000000
20
25.0000000000
11
77.6454123657
21
25.0000000000
0
LINE
5
31E
100
AcDbEntity
8
0
100
AcDbLine
62
0
6
CONTINUOUS
10
-77.6454123657
20
25.0000000000
11
-84.6000000000
21
25.0000000000
0
LINE
5
31F
100
AcDbEntity
8
0
100
AcDbLine
62
0
6
CONTINUOUS
10
19.2195848370
20
13.8680851936
11
18.4312500000
21
14.4170212984
0
LINE
5
320
100
AcDbEntity
8
0
100
AcDbLine
62
0
6
CONTINUOUS
10
18.2341651630
20
13.5021277905
11
18.6283348370
21
13.1361703873
0
LINE
5
321
100
AcDbEntity
8
0
100
AcDbLine
62
0
6
CONTINUOUS
10
32.0375002623
20
-6.5957446694
11
31.8312502623
21
-6.3404255509
0
LINE
5
322
100
AcDbEntity
8
0
100
AcDbLine
62
0
6
CONTINUOUS
10
32.8625002623
20
-7.4893617183
11
33.0687502623
21
-7.7446808591
0
LINE
5
323
100
AcDbEntity
8
0
100
AcDbLine
62
0
6
CONTINUOUS
10
35.0624997377
20
-6.5957446694
11
34.8562497377
21
-6.3404255509
0
LINE
5
324
100
AcDbEntity
8
0
100
AcDbLine
62
0
6
CONTINUOUS
10
19.8108348370
20
13.1361703873
11
19.2195848370
21
13.8680851936
0
LINE
5
325
100
AcDbEntity
8
0
100
AcDbLine
62
0
6
CONTINUOUS
10
31.6250002623
20
-6.5957446694
11
31.7624997377
21
-6.7872340083
0
LINE
5
326
100
AcDbEntity
8
0
100
AcDbLine
62
0
6
CONTINUOUS
10
34.6499997377
20
-6.5957446694
11
34.7875000000
21
-6.7872340083
0
LINE
5
327
100
AcDbEntity
8
0
100
AcDbLine
62
0
6
CONTINUOUS
10
29.6999997377
20
-7.2340425551
11
29.8375000000
21
-7.4893617183
0
LINE
5
328
100
AcDbEntity
8
0
100
AcDbLine
62
0
6
CONTINUOUS
10
30.2500000000
20
-7.4893617183
11
30.1124997377
21
-7.2340425551
0
LINE
5
329
100
AcDbEntity
8
0
100
AcDbLine
62
0
6
CONTINUOUS
10
20.2050000000
20
6.0000000000
11
18.4312500000
21
10.2085106492
0
LINE
5
32A
100
AcDbEntity
8
0
100
AcDbLine
62
0
6
CONTINUOUS
10
17.2487500000
20
9.8425532460
11
18.8254151630
21
6.0000000000
0
LINE
5
32B
100
AcDbEntity
8
0
100
AcDbLine
62
0
6
CONTINUOUS
10
23.3749999672
20
-7.6170212775
11
22.4125000000
21
-5.0000000000
0
LINE
5
32C
100
AcDbEntity
8
0
100
AcDbLine
62
0
6
CONTINUOUS
10
18.6283348370
20
13.1361703873
11
18.8254151630
21
12.5872342825
0
LINE
5
32D
100
AcDbEntity
8
0
100
AcDbLine
62
0
6
CONTINUOUS
10
20.0079151630
20
12.5872342825
11
19.8108348370
21
13.1361703873
0
LINE
5
32E
100
AcDbEntity
8
0
100
AcDbLine
62
0
6
CONTINUOUS
10
25.3000000000
20
-5.0000000000
11
25.3000000000
21
-5.3191488981
0
LINE
5
32F
100
AcDbEntity
8
0
100
AcDbLine
62
0
6
CONTINUOUS
10
27.7750000000
20
-5.3191488981
11
27.7750000000
21
-5.0000000000
0
LINE
5
330
100
AcDbEntity
8
0
100
AcDbLine
62
0
6
CONTINUOUS
10
28.3249998689
20
-5.4468084574
11
28.3249998689
21
-5.9574468732
0
LINE
5
331
100
AcDbEntity
8
0
100
AcDbLine
62
0
6
CONTINUOUS
10
28.7375002623
20
-5.5106382370
11
28.7375002623
21
-8.0000000000
0
LINE
5
332
100
AcDbEntity
8
0
100
AcDbLine
62
0
6
CONTINUOUS
10
29.1500002623
20
-8.0000000000
11
29.1500002623
21
-5.0000000000
0
LINE
5
333
100
AcDbEntity
8
0
100
AcDbLine
62
0
6
CONTINUOUS
10
29.6999997377
20
-5.0000000000
11
29.6999997377
21
-6.6595744491
0
LINE
5
334
100
AcDbEntity
8
0
100
AcDbLine
62
0
6
CONTINUOUS
10
30.0437500000
20
-6.3404255509
11
30.0437500000
21
-5.3191488981
0
LINE
5
335
100
AcDbEntity
8
0
100
AcDbLine
62
0
6
CONTINUOUS
10
30.2000000000
20
-29.7000000000
11
30.2000000000
21
-26.9000000000
0
LINE
5
336
100
AcDbEntity
8
0
100
AcDbLine
62
0
6
CONTINUOUS
10
27.3625000000
20
-5.3191488981
11
25.9875001311
21
-8.0000000000
0
LINE
5
337
100
AcDbEntity
8
0
100
AcDbLine
62
0
6
CONTINUOUS
10
26.4000001311
20
-8.0000000000
11
27.7750000000
21
-5.3191488981
0
LINE
5
338
100
AcDbEntity
8
0
100
AcDbLine
62
0
6
CONTINUOUS
10
31.7624997377
20
-7.2978723347
11
31.6250002623
21
-7.4893617183
0
LINE
5
339
100
AcDbEntity
8
0
100
AcDbLine
62
0
6
CONTINUOUS
10
31.8312502623
20
-7.7446808591
11
32.0375002623
21
-7.4893617183
0
LINE
5
33A
100
AcDbEntity
8
0
100
AcDbLine
62
0
6
CONTINUOUS
10
36.1624994755
20
-5.0000000000
11
35.7499994755
21
-5.4468084574
0
LINE
5
33B
100
AcDbEntity
8
0
100
AcDbLine
62
0
6
CONTINUOUS
10
35.7499994755
20
-5.9574468732
11
36.1624994755
21
-5.5106382370
0
LINE
5
33C
100
AcDbEntity
8
0
100
AcDbLine
62
0
6
CONTINUOUS
10
75.7303012579
20
25.3930309758
11
76.1133234795
21
25.7144247806
0
LINE
5
33D
100
AcDbEntity
8
0
100
AcDbLine
62
0
6
CONTINUOUS
10
32.7250000000
20
-7.2340425551
11
32.8625002623
21
-7.4893617183
0
LINE
5
33E
100
AcDbEntity
8
0
100
AcDbLine
62
0
6
CONTINUOUS
10
33.2750002623
20
-7.4893617183
11
33.1375000000
21
-7.2340425551
0
LINE
5
33F
100
AcDbEntity
8
0
100
AcDbLine
62
0
6
CONTINUOUS
10
32.1749997377
20
-6.9148936570
11
32.0375002623
21
-6.5957446694
0
LINE
5
340
100
AcDbEntity
8
0
100
AcDbLine
62
0
6
CONTINUOUS
10
35.2000000000
20
-6.9148936570
11
35.0624997377
21
-6.5957446694
0
LINE
5
341
100
AcDbEntity
8
0
100
AcDbLine
62
0
6
CONTINUOUS
10
31.7624997377
20
-6.7872340083
11
31.8312502623
21
-6.9787234366
0
LINE
5
342
100
AcDbEntity
8
0
100
AcDbLine
62
0
6
CONTINUOUS
10
34.7875000000
20
-6.7872340083
11
34.8562497377
21
-6.9787234366
0
LINE
5
343
100
AcDbEntity
8
0
100
AcDbLine
62
0
6
CONTINUOUS
10
31.8312502623
20
-6.9787234366
11
31.8312502623
21
-7.1063829958
0
LINE
5
344
100
AcDbEntity
8
0
100
AcDbLine
62
0
6
CONTINUOUS
10
32.0375002623
20
-5.3191488981
11
32.0375002623
21
-5.0000000000
0
LINE
5
345
100
AcDbEntity
8
0
100
AcDbLine
62
0
6
CONTINUOUS
10
32.1749997377
20
-7.1702127755
11
32.1749997377
21
-6.9148936570
0
LINE
5
346
100
AcDbEntity
8
0
100
AcDbLine
62
0
6
CONTINUOUS
10
32.7250000000
20
-5.0000000000
11
32.7250000000
21
-6.6595744491
0
LINE
5
347
100
AcDbEntity
8
0
100
AcDbLine
62
0
6
CONTINUOUS
10
33.0687502623
20
-6.3404255509
11
33.0687502623
21
-5.3191488981
0
LINE
5
348
100
AcDbEntity
8
0
100
AcDbLine
62
0
6
CONTINUOUS
10
34.8562497377
20
-6.9787234366
11
34.8562497377
21
-7.1063829958
0
LINE
5
349
100
AcDbEntity
8
0
100
AcDbLine
62
0
6
CONTINUOUS
10
35.0624997377
20
-5.3191488981
11
35.0624997377
21
-5.0000000000
0
LINE
5
34A
100
AcDbEntity
8
0
100
AcDbLine
62
0
6
CONTINUOUS
10
35.2000000000
20
-7.1702127755
11
35.2000000000
21
-6.9148936570
0
LINE
5
34B
100
AcDbEntity
8
0
100
AcDbLine
62
0
6
CONTINUOUS
10
35.7499994755
20
-5.4468084574
11
35.7499994755
21
-5.9574468732
0
LINE
5
34C
100
AcDbEntity
8
0
100
AcDbLine
62
0
6
CONTINUOUS
10
36.1624994755
20
-5.5106382370
11
36.1624994755
21
-8.0000000000
0
LINE
5
34D
100
AcDbEntity
8
0
100
AcDbLine
62
0
6
CONTINUOUS
10
36.5749994755
20
-8.0000000000
11
36.5749994755
21
-5.0000000000
0
LINE
5
34E
100
AcDbEntity
8
0
100
AcDbLine
62
0
6
CONTINUOUS
10
31.8312502623
20
-7.1063829958
11
31.7624997377
21
-7.2978723347
0
LINE
5
34F
100
AcDbEntity
8
0
100
AcDbLine
62
0
6
CONTINUOUS
10
34.8562497377
20
-7.1063829958
11
34.7875000000
21
-7.2978723347
0
LINE
5
350
100
AcDbEntity
8
0
100
AcDbLine
62
0
6
CONTINUOUS
10
32.0375002623
20
-7.4893617183
11
32.1749997377
21
-7.1702127755
0
LINE
5
351
100
AcDbEntity
8
0
100
AcDbLine
62
0
6
CONTINUOUS
10
35.0624997377
20
-7.4893617183
11
35.2000000000
21
-7.1702127755
0
LINE
5
352
100
AcDbEntity
8
0
100
AcDbLine
62
0
6
CONTINUOUS
10
34.7875000000
20
-7.2978723347
11
34.6499997377
21
-7.4893617183
0
LINE
5
353
100
AcDbEntity
8
0
100
AcDbLine
62
0
6
CONTINUOUS
10
34.8562497377
20
-7.7446808591
11
35.0624997377
21
-7.4893617183
0
LINE
5
354
100
AcDbEntity
8
0
100
AcDbLine
62
0
6
CONTINUOUS
10
69.5336923418
20
32.5000000000
11
-69.5336923418
21
32.5000000000
0
LINE
5
355
100
AcDbEntity
8
0
100
AcDbLine
62
0
6
CONTINUOUS
10
69.5336923418
20
33.0000000000
11
-69.5336923418
21
33.0000000000
0
LINE
5
356
100
AcDbEntity
8
0
100
AcDbLine
62
0
6
CONTINUOUS
10
42.3000000000
20
-26.9000000000
11
42.3000000000
21
-29.7000000000
0
LINE
5
357
100
AcDbEntity
8
0
100
AcDbLine
62
0
6
CONTINUOUS
10
48.7000000000
20
-29.7000000000
11
48.7000000000
21
-26.9000000000
0
LINE
5
358
100
AcDbEntity
8
0
100
AcDbLine
62
0
6
CONTINUOUS
10
50.0500000000
20
-32.5000000000
11
50.0500000000
21
-1.0000000000
0
LINE
5
359
100
AcDbEntity
8
0
100
AcDbLine
62
0
6
CONTINUOUS
10
50.6500000000
20
-1.0000000000
11
50.6500000000
21
-33.0000000000
0
LINE
5
35A
100
AcDbEntity
8
0
100
AcDbLine
62
0
6
CONTINUOUS
10
50.9000000000
20
-1.0000000000
11
50.9000000000
21
-33.0000000000
0
LINE
5
35B
100
AcDbEntity
8
0
100
AcDbLine
62
0
6
CONTINUOUS
10
51.2000000000
20
-1.0000000000
11
51.2000000000
21
-32.5000000000
0
LINE
5
35C
100
AcDbEntity
8
0
100
AcDbLine
62
0
6
CONTINUOUS
10
52.5000000000
20
1.4500000000
11
52.5000000000
21
0.8500000000
0
LINE
5
35D
100
AcDbEntity
8
0
100
AcDbLine
62
0
6
CONTINUOUS
10
52.5000000000
20
0.6000000000
11
52.5000000000
21
0.3000000000
0
LINE
5
35E
100
AcDbEntity
8
0
100
AcDbLine
62
0
6
CONTINUOUS
10
69.5336923418
20
32.5000000000
11
69.5336923418
21
33.0000000000
0
LINE
5
35F
100
AcDbEntity
8
0
100
AcDbLine
62
0
6
CONTINUOUS
10
77.6454123657
20
24.5000000000
11
77.6454123657
21
25.0000000000
0
LINE
5
360
100
AcDbEntity
8
0
100
AcDbLine
62
0
6
CONTINUOUS
10
75.7303012579
20
25.3930309758
11
69.9167145634
21
32.3213938048
0
LINE
5
361
100
AcDbEntity
8
0
100
AcDbLine
62
0
6
CONTINUOUS
10
76.1133234795
20
25.7144247806
11
70.2997367850
21
32.6427876097
0
LINE
5
362
100
AcDbEntity
8
0
100
AcDbLine
62
0
6
CONTINUOUS
10
84.6000000000
20
-33.0000000000
11
84.6000000000
21
-32.5000000000
0
LINE
5
363
100
AcDbEntity
8
0
100
AcDbLine
62
0
6
CONTINUOUS
10
84.6000000000
20
24.5000000000
11
84.6000000000
21
25.0000000000
0
LINE
5
364
100
AcDbEntity
8
0
100
AcDbLine
62
0
6
CONTINUOUS
10
85.1000000000
20
0.3000000000
11
85.1000000000
21
-32.0000000000
0
LINE
5
365
100
AcDbEntity
8
0
100
AcDbLine
62
0
6
CONTINUOUS
10
85.1000000000
20
1.4500000000
11
85.1000000000
21
24.0000000000
0
LINE
5
366
100
AcDbEntity
8
0
100
AcDbLine
62
0
6
CONTINUOUS
10
85.6000000000
20
-32.0000000000
11
85.6000000000
21
24.0000000000
0
ARC
5
367
100
AcDbEntity
8
0
100
AcDbCircle
62
0
6
CONTINUOUS
10
84.6000000000
20
-32.0000000000
40
1.0000000000
100
AcDbArc
50
270.0000000000
51
360.0000000000
0
ARC
5
368
100
AcDbEntity
8
0
100
AcDbCircle
62
0
6
CONTINUOUS
10
84.6000000000
20
24.0000000000
40
1.0000000000
100
AcDbArc
50
0.0000000000
51
90.0000000000
0
ARC
5
369
100
AcDbEntity
8
0
100
AcDbCircle
62
0
6
CONTINUOUS
10
69.5336923418
20
32.0000000000
40
1.0000000000
100
AcDbArc
50
40.0000000000
51
90.0000000000
0
ARC
5
36A
100
AcDbEntity
8
0
100
AcDbCircle
62
0
6
CONTINUOUS
10
-69.5336923418
20
32.0000000000
40
1.0000000000
100
AcDbArc
50
90.0000000000
51
140.0000000000
0
ARC
5
36B
100
AcDbEntity
8
0
100
AcDbCircle
62
0
6
CONTINUOUS
10
-84.6000000000
20
24.0000000000
40
1.0000000000
100
AcDbArc
50
90.0000000000
51
180.0000000000
0
ARC
5
36C
100
AcDbEntity
8
0
100
AcDbCircle
62
0
6
CONTINUOUS
10
-84.6000000000
20
-32.0000000000
40
1.0000000000
100
AcDbArc
50
180.0000000000
51
270.0000000000
0
ARC
5
36D
100
AcDbEntity
8
0
100
AcDbCircle
62
0
6
CONTINUOUS
10
-77.6454123657
20
27.0000000000
40
2.0000000000
100
AcDbArc
50
270.0000000000
51
320.0000000000
0
ARC
5
36E
100
AcDbEntity
8
0
100
AcDbCircle
62
0
6
CONTINUOUS
10
77.6454123657
20
27.0000000000
40
2.0000000000
100
AcDbArc
50
220.0000000000
51
270.0000000000
0
ARC
5
36F
100
AcDbEntity
8
0
100
AcDbCircle
62
0
6
CONTINUOUS
10
52.5000000000
20
-1.0000000000
40
1.8500000000
100
AcDbArc
50
90.0000000000
51
180.0000000000
0
ARC
5
370
100
AcDbEntity
8
0
100
AcDbCircle
62
0
6
CONTINUOUS
10
52.5000000000
20
-1.0000000000
40
1.6000000000
100
AcDbArc
50
90.0000000000
51
180.0000000000
0
ARC
5
371
100
AcDbEntity
8
0
100
AcDbCircle
62
0
6
CONTINUOUS
10
-52.5000000000
20
-1.0000000000
40
2.4500000000
100
AcDbArc
50
0.0000000000
51
90.0000000000
0
ARC
5
372
100
AcDbEntity
8
0
100
AcDbCircle
62
0
6
CONTINUOUS
10
52.5000000000
20
-1.0000000000
40
2.4500000000
100
AcDbArc
50
90.0000000000
51
180.0000000000
0
ARC
5
373
100
AcDbEntity
8
0
100
AcDbCircle
62
0
6
CONTINUOUS
10
84.6000000000
20
24.0000000000
40
0.4999966591
100
AcDbArc
50
0.0000000000
51
90.0000000000
0
ARC
5
374
100
AcDbEntity
8
0
100
AcDbCircle
62
0
6
CONTINUOUS
10
77.6454123657
20
27.0000000000
40
2.4999998061
100
AcDbArc
50
220.0000000000
51
270.0000000000
0
ARC
5
375
100
AcDbEntity
8
0
100
AcDbCircle
62
0
6
CONTINUOUS
10
69.5336923418
20
32.0000000000
40
0.4999984574
100
AcDbArc
50
40.0000000000
51
90.0000000000
0
ARC
5
376
100
AcDbEntity
8
0
100
AcDbCircle
62
0
6
CONTINUOUS
10
-69.5336923418
20
32.0000000000
40
0.4999984574
100
AcDbArc
50
90.0000000000
51
140.0000000000
0
ARC
5
377
100
AcDbEntity
8
0
100
AcDbCircle
62
0
6
CONTINUOUS
10
-77.6454123657
20
27.0000000000
40
2.4999998053
100
AcDbArc
50
270.0000000000
51
320.0000000000
0
ARC
5
378
100
AcDbEntity
8
0
100
AcDbCircle
62
0
6
CONTINUOUS
10
-84.6000000000
20
24.0000000000
40
0.4999966591
100
AcDbArc
50
90.0000000000
51
180.0000000000
0
ARC
5
379
100
AcDbEntity
8
0
100
AcDbCircle
62
0
6
CONTINUOUS
10
-52.5000000000
20
-1.0000000000
40
1.8500000000
100
AcDbArc
50
0.0000000000
51
90.0000000000
0
ARC
5
37A
100
AcDbEntity
8
0
100
AcDbCircle
62
0
6
CONTINUOUS
10
-52.5000000000
20
-1.0000000000
40
1.6000000000
100
AcDbArc
50
0.0000000000
51
90.0000000000
0
ARC
5
37B
100
AcDbEntity
8
0
100
AcDbCircle
62
0
6
CONTINUOUS
10
84.6000000000
20
-32.0000000000
40
0.4999955810
100
AcDbArc
50
270.0000000000
51
360.0000000000
0
ARC
5
37C
100
AcDbEntity
8
0
100
AcDbCircle
62
0
6
CONTINUOUS
10
52.5000000000
20
-1.0000000000
40
1.3000000000
100
AcDbArc
50
90.0000000000
51
180.0000000000
0
ARC
5
37D
100
AcDbEntity
8
0
100
AcDbCircle
62
0
6
CONTINUOUS
10
-84.6000000000
20
-32.0000000000
40
0.4999955810
100
AcDbArc
50
180.0000000000
51
270.0000000000
0
ARC
5
37E
100
AcDbEntity
8
0
100
AcDbCircle
62
0
6
CONTINUOUS
10
-52.5000000000
20
-1.0000000000
40
1.3000000000
100
AcDbArc
50
0.0000000000
51
90.0000000000
0
SPLINE
5
37F
100
AcDbEntity
8
0
100
AcDbSpline
62
0
6
CONTINUOUS
70
0
71
3
72
15
73
11
74
9
42
0.0000001000
43
0.0000001000
44
0.0000000001
12
0.0365913311
22
2.1221281011
32
0.0000000000
13
-2.1224211779
23
0.0097440516
33
0.0000000000
40
0.0000000000
40
0.0000000000
40
0.0000000000
40
0.0000000000
40
0.1149293105
40
0.2060811432
40
0.3341924356
40
0.4552601699
40
0.5704742312
40
0.6837748557
40
0.8381885424
40
1.0000000000
40
1.0000000000
40
1.0000000000
40
1.0000000000
10
-33.5152467823
20
-6.5500000000
30
0.0000000000
10
-33.5138449768
20
-6.4687017602
30
0.0000000000
10
-33.5176363205
20
-6.3226426179
30
0.0000000000
10
-33.5511908386
20
-6.0879362442
30
0.0000000000
10
-33.6229182420
20
-5.8572793691
30
0.0000000000
10
-33.7315667798
20
-5.6213064883
30
0.0000000000
10
-33.8912831740
20
-5.4298432196
30
0.0000000000
10
-34.0980777975
20
-5.2519423217
30
0.0000000000
10
-34.3822668495
20
-5.1295154707
30
0.0000000000
10
-34.6068767473
20
-5.1005255664
30
0.0000000000
10
-34.7213541021
20
-5.1000000000
30
0.0000000000
11
-33.5152467823
21
-6.5500000000
31
0.0000000000
11
-33.5233300202
21
-6.3062029923
31
0.0000000000
11
-33.5516616013
21
-6.1148241003
31
0.0000000000
11
-33.6301597816
21
-5.8544925192
31
0.0000000000
11
-33.7431577598
21
-5.6237120906
31
0.0000000000
11
-33.8969879256
21
-5.4336231298
31
0.0000000000
11
-34.0817060817
21
-5.2796522442
31
0.0000000000
11
-34.3810404933
21
-5.1462029923
31
0.0000000000
11
-34.7213541021
21
-5.1000000000
31
0.0000000000
0
SPLINE
5
380
100
AcDbEntity
8
0
100
AcDbSpline
62
0
6
CONTINUOUS
70
0
71
3
72
15
73
11
74
9
42
0.0000001000
43
0.0000001000
44
0.0000000001
12
2.1346429542
22
-0.0098038964
32
0.0000000000
13
-0.0368020393
23
2.1343482069
33
0.0000000000
40
0.0000000000
40
0.0000000000
40
0.0000000000
40
0.0000000000
40
0.1666104649
40
0.3201400637
40
0.4327919910
40
0.5473463999
40
0.6677209668
40
0.7950987643
40
0.8857287116
40
1.0000000000
40
1.0000000000
40
1.0000000000
40
1.0000000000
10
-34.7336842459
20
-8.0000000000
30
0.0000000000
10
-34.6151329608
20
-8.0005444772
30
0.0000000000
10
-34.3860462375
20
-7.9721109482
30
0.0000000000
10
-34.0980833909
20
-7.8480604020
30
0.0000000000
10
-33.8912818520
20
-7.6701561366
30
0.0000000000
10
-33.7315671563
20
-7.4786936951
30
0.0000000000
10
-33.6229181311
20
-7.2427205769
30
0.0000000000
10
-33.5511908594
20
-7.0120637659
30
0.0000000000
10
-33.5176363140
20
-6.7773573789
30
0.0000000000
10
-33.5138449768
20
-6.6312982398
30
0.0000000000
10
-33.5152467823
20
-6.5500000000
30
0.0000000000
11
-34.7336842459
21
-8.0000000000
31
0.0000000000
11
-34.3810404933
21
-7.9537970077
31
0.0000000000
11
-34.0817060817
21
-7.8203477558
31
0.0000000000
11
-33.8969879256
21
-7.6663768702
31
0.0000000000
11
-33.7431577598
21
-7.4762879094
31
0.0000000000
11
-33.6301597816
21
-7.2455074808
31
0.0000000000
11
-33.5516616013
21
-6.9851758997
31
0.0000000000
11
-33.5233300202
21
-6.7937970077
31
0.0000000000
11
-33.5152467823
21
-6.5500000000
31
0.0000000000
0
SPLINE
5
381
100
AcDbEntity
8
0
100
AcDbSpline
62
0
6
CONTINUOUS
70
0
71
3
72
14
73
10
74
8
42
0.0000001000
43
0.0000001000
44
0.0000000001
12
1.5560699908
22
-0.0383374254
32
0.0000000000
13
-0.0419851073
23
-1.5559756895
33
0.0000000000
40
0.0000000000
40
0.0000000000
40
0.0000000000
40
0.0000000000
40
0.1344137172
40
0.2464867240
40
0.3932270474
40
0.5898660699
40
0.7257733268
40
0.8770579271
40
1.0000000000
40
1.0000000000
40
1.0000000000
40
1.0000000000
10
-34.7436524649
20
-5.4351476434
30
0.0000000000
10
-34.6739334143
20
-5.4368653354
30
0.0000000000
10
-34.5458078203
20
-5.4555843059
30
0.0000000000
10
-34.3548445645
20
-5.5315330090
30
0.0000000000
10
-34.1629606670
20
-5.6758068181
30
0.0000000000
10
-34.0251401800
20
-5.8908618390
30
0.0000000000
10
-33.9556408767
20
-6.1330752220
30
0.0000000000
10
-33.9215514514
20
-6.3436357513
30
0.0000000000
10
-33.9166447131
20
-6.4862350411
30
0.0000000000
10
-33.9183652918
20
-6.5500000000
30
0.0000000000
11
-34.7436524649
21
-5.4351476434
31
0.0000000000
11
-34.5367000162
21
-5.4658714112
31
0.0000000000
11
-34.3748019167
21
-5.5308370400
31
0.0000000000
11
-34.1923704569
21
-5.6682733522
31
0.0000000000
11
-34.0244096805
21
-5.9241488071
31
0.0000000000
11
-33.9617424747
21
-6.1261989486
31
0.0000000000
11
-33.9246393611
21
-6.3587383744
31
0.0000000000
11
-33.9183652918
21
-6.5500000000
31
0.0000000000
0
SPLINE
5
382
100
AcDbEntity
8
0
100
AcDbSpline
62
0
6
CONTINUOUS
70
0
71
3
72
14
73
10
74
8
42
0.0000001000
43
0.0000001000
44
0.0000000001
12
0.0419851073
22
-1.5559756896
32
0.0000000000
13
-1.5560699909
23
-0.0383374251
33
0.0000000000
40
0.0000000000
40
0.0000000000
40
0.0000000000
40
0.0000000000
40
0.1229420729
40
0.2742266732
40
0.4101339301
40
0.6067729525
40
0.7535132759
40
0.8655862828
40
1.0000000000
40
1.0000000000
40
1.0000000000
40
1.0000000000
10
-33.9183652918
20
-6.5500000000
30
0.0000000000
10
-33.9166447131
20
-6.6137649589
30
0.0000000000
10
-33.9215514514
20
-6.7563642487
30
0.0000000000
10
-33.9556408767
20
-6.9669247780
30
0.0000000000
10
-34.0251401800
20
-7.2091381610
30
0.0000000000
10
-34.1629606670
20
-7.4241931819
30
0.0000000000
10
-34.3548445645
20
-7.5684669910
30
0.0000000000
10
-34.5458078204
20
-7.6444156941
30
0.0000000000
10
-34.6739334144
20
-7.6631346646
30
0.0000000000
10
-34.7436524650
20
-7.6648523566
30
0.0000000000
11
-33.9183652918
21
-6.5500000000
31
0.0000000000
11
-33.9246393611
21
-6.7412616256
31
0.0000000000
11
-33.9617424747
21
-6.9738010514
31
0.0000000000
11
-34.0244096805
21
-7.1758511929
31
0.0000000000
11
-34.1923704569
21
-7.4317266478
31
0.0000000000
11
-34.3748019167
21
-7.5691629600
31
0.0000000000
11
-34.5367000162
21
-7.6341285888
31
0.0000000000
11
-34.7436524650
21
-7.6648523566
31
0.0000000000
0
SPLINE
5
383
100
AcDbEntity
8
0
100
AcDbSpline
62
0
6
CONTINUOUS
70
0
71
3
72
11
73
7
74
5
42
0.0000001000
43
0.0000001000
44
0.0000000001
12
0.0000000000
22
-0.5776117870
32
0.0000000000
13
0.5293899472
23
-0.2310447148
33
0.0000000000
40
0.0000000000
40
0.0000000000
40
0.0000000000
40
0.0000000000
40
0.2445284483
40
0.4931235656
40
0.7452438815
40
1.0000000000
40
1.0000000000
40
1.0000000000
40
1.0000000000
10
-51.2000000000
20
-32.5000000000
30
0.0000000000
10
-51.2000000000
20
-32.5470808380
30
0.0000000000
10
-51.1864167414
20
-32.6425646734
30
0.0000000000
10
-51.1260734217
20
-32.7748777702
30
0.0000000000
10
-51.0291317213
20
-32.8860057869
30
0.0000000000
10
-50.9449551094
20
-32.9386375512
30
0.0000000000
10
-50.9000000000
20
-32.9582575695
30
0.0000000000
11
-51.2000000000
21
-32.5000000000
31
0.0000000000
11
-51.1800505522
21
-32.6398265615
31
0.0000000000
11
-51.1205150274
21
-32.7704941991
31
0.0000000000
11
-51.0247359417
21
-32.8801928039
31
0.0000000000
11
-50.9000000000
21
-32.9582575695
31
0.0000000000
0
SPLINE
5
384
100
AcDbEntity
8
0
100
AcDbSpline
62
0
6
CONTINUOUS
70
0
71
3
72
8
73
4
74
2
42
0.0000001000
43
0.0000001000
44
0.0000000001
12
0.0000000000
22
0.0556565568
32
0.0000000000
13
-0.0062502528
23
0.0555382852
33
0.0000000000
40
0.0000000000
40
0.0000000000
40
0.0000000000
40
0.0000000000
40
1.0000000000
40
1.0000000000
40
1.0000000000
40
1.0000000000
10
85.6000000000
20
0.9500000000
30
0.0000000000
10
85.6000000000
20
0.9685521856
30
0.0000000000
10
85.5989485237
20
0.9871532968
30
0.0000000000
10
85.5968651060
20
1.0056660585
30
0.0000000000
11
85.6000000000
21
0.9500000000
31
0.0000000000
11
85.5968651060
21
1.0056660585
31
0.0000000000
0
SPLINE
5
385
100
AcDbEntity
8
0
100
AcDbSpline
62
0
6
CONTINUOUS
70
0
71
3
72
12
73
8
74
6
42
0.0000001000
43
0.0000001000
44
0.0000000001
12
-0.0815875361
22
0.7249677689
32
0.0000000000
13
-0.7265116255
23
0.0000000000
33
0.0000000000
40
0.0000000000
40
0.0000000000
40
0.0000000000
40
0.0000000000
40
0.1460451767
40
0.3603632158
40
0.5693222382
40
0.7835602223
40
1.0000000000
40
1.0000000000
40
1.0000000000
40
1.0000000000
10
85.5968651060
20
1.0056660585
30
0.0000000000
10
85.5928932840
20
1.0409587404
30
0.0000000000
10
85.5738387819
20
1.1272503566
30
0.0000000000
10
85.5089623304
20
1.2513415698
30
0.0000000000
10
85.3975586157
20
1.3617236345
30
0.0000000000
10
85.2574577999
20
1.4333225882
30
0.0000000000
10
85.1524153382
20
1.4500000000
30
0.0000000000
10
85.1000000000
20
1.4500000000
30
0.0000000000
11
85.5968651060
21
1.0056660585
31
0.0000000000
11
85.5738336780
21
1.1096297141
31
0.0000000000
11
85.5017546563
21
1.2476460921
31
0.0000000000
11
85.3939119348
21
1.3544944680
31
0.0000000000
11
85.2552897897
21
1.4252736909
31
0.0000000000
11
85.1000000000
21
1.4500000000
31
0.0000000000
0
SPLINE
5
386
100
AcDbEntity
8
0
100
AcDbSpline
62
0
6
CONTINUOUS
70
0
71
3
72
11
73
7
74
5
42
0.0000001000
43
0.0000001000
44
0.0000000001
12
0.5776117870
22
0.0000000000
32
0.0000000000
13
0.2310447148
23
0.5293899472
33
0.0000000000
40
0.0000000000
40
0.0000000000
40
0.0000000000
40
0.0000000000
40
0.2445284483
40
0.4931235656
40
0.7452438815
40
1.0000000000
40
1.0000000000
40
1.0000000000
40
1.0000000000
10
85.1000000000
20
0.3000000000
30
0.0000000000
10
85.1470808380
20
0.3000000000
30
0.0000000000
10
85.2425646734
20
0.3135832586
30
0.0000000000
10
85.3748777702
20
0.3739265783
30
0.0000000000
10
85.4860057869
20
0.4708682787
30
0.0000000000
10
85.5386375512
20
0.5550448906
30
0.0000000000
10
85.5582575695
20
0.6000000000
30
0.0000000000
11
85.1000000000
21
0.3000000000
31
0.0000000000
11
85.2398265615
21
0.3199494478
31
0.0000000000
11
85.3704941991
21
0.3794849726
31
0.0000000000
11
85.4801928039
21
0.4752640583
31
0.0000000000
11
85.5582575695
21
0.6000000000
31
0.0000000000
0
SPLINE
5
387
100
AcDbEntity
8
0
100
AcDbSpline
62
0
6
CONTINUOUS
70
0
71
3
72
11
73
7
74
5
42
0.0000001000
43
0.0000001000
44
0.0000000001
12
0.2071067812
22
-0.5000000000
32
0.0000000000
13
0.2071067812
23
-0.5000000000
33
0.0000000000
40
0.0000000000
40
0.0000000000
40
0.0000000000
40
0.0000000000
40
0.3681543155
40
0.6914999463
40
0.9172903629
40
1.0000000000
40
1.0000000000
40
1.0000000000
40
1.0000000000
10
-10.2071067812
20
-32.5000000000
30
0.0000000000
10
-10.1816910294
20
-32.5613590526
30
0.0000000000
10
-10.1339529201
20
-32.6766090436
30
0.0000000000
10
-10.0706272353
20
-32.8294907708
30
0.0000000000
10
-10.0270073933
20
-32.9347983849
30
0.0000000000
10
-10.0057099089
20
-32.9862150605
30
0.0000000000
10
-10.0000000000
20
-33.0000000000
30
0.0000000000
11
-10.2071067812
21
-32.5000000000
31
0.0000000000
11
-10.1308595259
21
-32.6840771578
31
0.0000000000
11
-10.0638924531
21
-32.8457499731
31
0.0000000000
11
-10.0171297267
21
-32.9586451815
31
0.0000000000
11
-10.0000000000
21
-33.0000000000
31
0.0000000000
0
SPLINE
5
388
100
AcDbEntity
8
0
100
AcDbSpline
62
0
6
CONTINUOUS
70
0
71
3
72
11
73
7
74
5
42
0.0000001000
43
0.0000001000
44
0.0000000001
12
-0.2071067812
22
-0.5000000000
32
0.0000000000
13
-0.2071067812
23
-0.5000000000
33
0.0000000000
40
0.0000000000
40
0.0000000000
40
0.0000000000
40
0.0000000000
40
0.3681543155
40
0.6914999463
40
0.9172903629
40
1.0000000000
40
1.0000000000
40
1.0000000000
40
1.0000000000
10
8.2071067812
20
-30.5000000000
30
0.0000000000
10
8.1816910294
20
-30.5613590526
30
0.0000000000
10
8.1339529201
20
-30.6766090436
30
0.0000000000
10
8.0706272353
20
-30.8294907708
30
0.0000000000
10
8.0270073933
20
-30.9347983849
30
0.0000000000
10
8.0057099089
20
-30.9862150605
30
0.0000000000
10
8.0000000000
20
-31.0000000000
30
0.0000000000
11
8.2071067812
21
-30.5000000000
31
0.0000000000
11
8.1308595259
21
-30.6840771578
31
0.0000000000
11
8.0638924531
21
-30.8457499731
31
0.0000000000
11
8.0171297267
21
-30.9586451815
31
0.0000000000
11
8.0000000000
21
-31.0000000000
31
0.0000000000
0
SPLINE
5
389
100
AcDbEntity
8
0
100
AcDbSpline
62
0
6
CONTINUOUS
70
0
71
3
72
11
73
7
74
5
42
0.0000001000
43
0.0000001000
44
0.0000000001
12
0.2071067812
22
-0.5000000000
32
0.0000000000
13
0.2071067812
23
-0.5000000000
33
0.0000000000
40
0.0000000000
40
0.0000000000
40
0.0000000000
40
0.0000000000
40
0.3681543155
40
0.6914999463
40
0.9172903629
40
1.0000000000
40
1.0000000000
40
1.0000000000
40
1.0000000000
10
-8.2071067812
20
-30.5000000000
30
0.0000000000
10
-8.1816910294
20
-30.5613590526
30
0.0000000000
10
-8.1339529201
20
-30.6766090436
30
0.0000000000
10
-8.0706272353
20
-30.8294907708
30
0.0000000000
10
-8.0270073933
20
-30.9347983849
30
0.0000000000
10
-8.0057099089
20
-30.9862150605
30
0.0000000000
10
-8.0000000000
20
-31.0000000000
30
0.0000000000
11
-8.2071067812
21
-30.5000000000
31
0.0000000000
11
-8.1308595259
21
-30.6840771578
31
0.0000000000
11
-8.0638924531
21
-30.8457499731
31
0.0000000000
11
-8.0171297267
21
-30.9586451815
31
0.0000000000
11
-8.0000000000
21
-31.0000000000
31
0.0000000000
0
SPLINE
5
38A
100
AcDbEntity
8
0
100
AcDbSpline
62
0
6
CONTINUOUS
70
0
71
3
72
11
73
7
74
5
42
0.0000001000
43
0.0000001000
44
0.0000000001
12
-0.2071067812
22
-0.5000000000
32
0.0000000000
13
-0.2071067812
23
-0.5000000000
33
0.0000000000
40
0.0000000000
40
0.0000000000
40
0.0000000000
40
0.0000000000
40
0.3681543155
40
0.6914999463
40
0.9172903629
40
1.0000000000
40
1.0000000000
40
1.0000000000
40
1.0000000000
10
10.2071067812
20
-32.5000000000
30
0.0000000000
10
10.1816910294
20
-32.5613590526
30
0.0000000000
10
10.1339529201
20
-32.6766090436
30
0.0000000000
10
10.0706272353
20
-32.8294907708
30
0.0000000000
10
10.0270073933
20
-32.9347983849
30
0.0000000000
10
10.0057099089
20
-32.9862150605
30
0.0000000000
10
10.0000000000
20
-33.0000000000
30
0.0000000000
11
10.2071067812
21
-32.5000000000
31
0.0000000000
11
10.1308595259
21
-32.6840771578
31
0.0000000000
11
10.0638924531
21
-32.8457499731
31
0.0000000000
11
10.0171297267
21
-32.9586451815
31
0.0000000000
11
10.0000000000
21
-33.0000000000
31
0.0000000000
0
SPLINE
5
38B
100
AcDbEntity
8
0
100
AcDbSpline
62
0
6
CONTINUOUS
70
0
71
3
72
12
73
8
74
6
42
0.0000001000
43
0.0000001000
44
0.0000000001
12
0.0000000000
22
-0.7821681091
32
0.0000000000
13
0.7821681091
23
0.0000000000
33
0.0000000000
40
0.0000000000
40
0.0000000000
40
0.0000000000
40
0.0000000000
40
0.2008918470
40
0.3997884155
40
0.5938980902
40
0.7930509518
40
1.0000000000
40
1.0000000000
40
1.0000000000
40
1.0000000000
10
50.0500000000
20
-32.5000000000
30
0.0000000000
10
50.0500000000
20
-32.5523770654
30
0.0000000000
10
50.0666546555
20
-32.6573543754
30
0.0000000000
10
50.1381818580
20
-32.7974223562
30
0.0000000000
10
50.2485243803
20
-32.9088688790
30
0.0000000000
10
50.3893509856
20
-32.9825467056
30
0.0000000000
10
50.4960436848
20
-33.0000000000
30
0.0000000000
10
50.5500000000
20
-33.0000000000
30
0.0000000000
11
50.0500000000
21
-32.5000000000
31
0.0000000000
11
50.0746902128
21
-32.6551792711
31
0.0000000000
11
50.1453920932
21
-32.7937557519
31
0.0000000000
11
50.2522112111
21
-32.9016488979
31
0.0000000000
11
50.3902657392
21
-32.9737984444
31
0.0000000000
11
50.5500000000
21
-33.0000000000
31
0.0000000000
0
SPLINE
5
38C
100
AcDbEntity
8
0
100
AcDbSpline
62
0
6
CONTINUOUS
70
0
71
3
72
9
73
5
74
3
42
0.0000001000
43
0.0000001000
44
0.0000000001
12
0.2239274672
22
0.0977299589
32
0.0000000000
13
0.1520006728
23
0.1923000048
33
0.0000000000
40
0.0000000000
40
0.0000000000
40
0.0000000000
40
0.0000000000
40
0.6017353555
40
1.0000000000
40
1.0000000000
40
1.0000000000
40
1.0000000000
10
50.9000000000
20
-32.9582575695
30
0.0000000000
10
50.9449150247
20
-32.9386550456
30
0.0000000000
10
51.0151645932
20
-32.8947440543
30
0.0000000000
10
51.0720933879
20
-32.8355590153
30
0.0000000000
10
51.0922722192
20
-32.8100302510
30
0.0000000000
11
50.9000000000
21
-32.9582575695
31
0.0000000000
11
51.0246350646
21
-32.8802789434
31
0.0000000000
11
51.0922722192
21
-32.8100302510
31
0.0000000000
0
SPLINE
5
38D
100
AcDbEntity
8
0
100
AcDbSpline
62
0
6
CONTINUOUS
70
0
71
3
72
10
73
6
74
4
42
0.0000001000
43
0.0000001000
44
0.0000000001
12
0.2073462874
22
0.2623191813
32
0.0000000000
13
-0.0000000000
23
0.3332870798
33
0.0000000000
40
0.0000000000
40
0.0000000000
40
0.0000000000
40
0.0000000000
40
0.1445662167
40
0.5754567037
40
1.0000000000
40
1.0000000000
40
1.0000000000
40
1.0000000000
10
51.0922722192
20
-32.8100302510
30
0.0000000000
10
51.1022639753
20
-32.7973894204
30
0.0000000000
10
51.1396029402
20
-32.7451612207
30
0.0000000000
10
51.1863786460
20
-32.6427419972
30
0.0000000000
10
51.2000000000
20
-32.5471649318
30
0.0000000000
10
51.2000000000
20
-32.5000000000
30
0.0000000000
11
51.0922722192
21
-32.8100302510
31
0.0000000000
11
51.1203668420
21
-32.7707244321
31
0.0000000000
11
51.1799792229
21
-32.6400712163
31
0.0000000000
11
51.2000000000
21
-32.5000000000
31
0.0000000000
0
SPLINE
5
38E
100
AcDbEntity
8
0
100
AcDbSpline
62
0
6
CONTINUOUS
70
0
71
3
72
12
73
8
74
6
42
0.0000001000
43
0.0000001000
44
0.0000000001
12
-0.7821681091
22
0.0000000000
32
0.0000000000
13
-0.0000000000
23
-0.7821681091
33
0.0000000000
40
0.0000000000
40
0.0000000000
40
0.0000000000
40
0.0000000000
40
0.2008918470
40
0.3997884155
40
0.5938980902
40
0.7930509518
40
1.0000000000
40
1.0000000000
40
1.0000000000
40
1.0000000000
10
-85.1000000000
20
1.4500000000
30
0.0000000000
10
-85.1523770654
20
1.4500000000
30
0.0000000000
10
-85.2573543754
20
1.4333453445
30
0.0000000000
10
-85.3974223562
20
1.3618181420
30
0.0000000000
10
-85.5088688790
20
1.2514756197
30
0.0000000000
10
-85.5825467056
20
1.1106490144
30
0.0000000000
10
-85.6000000000
20
1.0039563152
30
0.0000000000
10
-85.6000000000
20
0.9500000000
30
0.0000000000
11
-85.1000000000
21
1.4500000000
31
0.0000000000
11
-85.2551792711
21
1.4253097872
31
0.0000000000
11
-85.3937557519
21
1.3546079068
31
0.0000000000
11
-85.5016488979
21
1.2477887889
31
0.0000000000
11
-85.5737984444
21
1.1097342608
31
0.0000000000
11
-85.6000000000
21
0.9500000000
31
0.0000000000
0
SPLINE
5
38F
100
AcDbEntity
8
0
100
AcDbSpline
62
0
6
CONTINUOUS
70
0
71
3
72
9
73
5
74
3
42
0.0000001000
43
0.0000001000
44
0.0000000001
12
0.0977299589
22
-0.2239274672
32
0.0000000000
13
0.1923000048
23
-0.1520006728
33
0.0000000000
40
0.0000000000
40
0.0000000000
40
0.0000000000
40
0.0000000000
40
0.6017353555
40
1.0000000000
40
1.0000000000
40
1.0000000000
40
1.0000000000
10
-85.5582575695
20
0.6000000000
30
0.0000000000
10
-85.5386550456
20
0.5550849753
30
0.0000000000
10
-85.4947440543
20
0.4848354068
30
0.0000000000
10
-85.4355590153
20
0.4279066121
30
0.0000000000
10
-85.4100302510
20
0.4077277808
30
0.0000000000
11
-85.5582575695
21
0.6000000000
31
0.0000000000
11
-85.4802789434
21
0.4753649354
31
0.0000000000
11
-85.4100302510
21
0.4077277808
31
0.0000000000
0
SPLINE
5
390
100
AcDbEntity
8
0
100
AcDbSpline
62
0
6
CONTINUOUS
70
0
71
3
72
10
73
6
74
4
42
0.0000001000
43
0.0000001000
44
0.0000000001
12
0.2623191813
22
-0.2073462874
32
0.0000000000
13
0.3332870798
23
0.0000000000
33
0.0000000000
40
0.0000000000
40
0.0000000000
40
0.0000000000
40
0.0000000000
40
0.1445662167
40
0.5754567037
40
1.0000000000
40
1.0000000000
40
1.0000000000
40
1.0000000000
10
-85.4100302510
20
0.4077277808
30
0.0000000000
10
-85.3973894204
20
0.3977360247
30
0.0000000000
10
-85.3451612207
20
0.3603970598
30
0.0000000000
10
-85.2427419972
20
0.3136213540
30
0.0000000000
10
-85.1471649318
20
0.3000000000
30
0.0000000000
10
-85.1000000000
20
0.3000000000
30
0.0000000000
11
-85.4100302510
21
0.4077277808
31
0.0000000000
11
-85.3707244321
21
0.3796331580
31
0.0000000000
11
-85.2400712163
21
0.3200207771
31
0.0000000000
11
-85.1000000000
21
0.3000000000
31
0.0000000000
0
SPLINE
5
391
100
AcDbEntity
8
0
100
AcDbSpline
62
0
6
CONTINUOUS
70
0
71
3
72
8
73
4
74
2
42
0.0000001000
43
0.0000001000
44
0.0000000001
12
0.0556565568
22
0.0000000000
32
0.0000000000
13
0.0555382852
23
0.0062502528
33
0.0000000000
40
0.0000000000
40
0.0000000000
40
0.0000000000
40
0.0000000000
40
1.0000000000
40
1.0000000000
40
1.0000000000
40
1.0000000000
10
-50.5500000000
20
-33.0000000000
30
0.0000000000
10
-50.5314478144
20
-33.0000000000
30
0.0000000000
10
-50.5128467032
20
-32.9989485237
30
0.0000000000
10
-50.4943339415
20
-32.9968651060
30
0.0000000000
11
-50.5500000000
21
-33.0000000000
31
0.0000000000
11
-50.4943339415
21
-32.9968651060
31
0.0000000000
0
SPLINE
5
392
100
AcDbEntity
8
0
100
AcDbSpline
62
0
6
CONTINUOUS
70
0
71
3
72
12
73
8
74
6
42
0.0000001000
43
0.0000001000
44
0.0000000001
12
0.7249677689
22
0.0815875361
32
0.0000000000
13
0.0000000000
23
0.7265116255
33
0.0000000000
40
0.0000000000
40
0.0000000000
40
0.0000000000
40
0.0000000000
40
0.1460451767
40
0.3603632158
40
0.5693222382
40
0.7835602223
40
1.0000000000
40
1.0000000000
40
1.0000000000
40
1.0000000000
10
-50.4943339415
20
-32.9968651060
30
0.0000000000
10
-50.4590412596
20
-32.9928932840
30
0.0000000000
10
-50.3727496434
20
-32.9738387819
30
0.0000000000
10
-50.2486584302
20
-32.9089623304
30
0.0000000000
10
-50.1382763655
20
-32.7975586157
30
0.0000000000
10
-50.0666774118
20
-32.6574577999
30
0.0000000000
10
-50.0500000000
20
-32.5524153382
30
0.0000000000
10
-50.0500000000
20
-32.5000000000
30
0.0000000000
11
-50.4943339415
21
-32.9968651060
31
0.0000000000
11
-50.3903702859
21
-32.9738336780
31
0.0000000000
11
-50.2523539079
21
-32.9017546563
31
0.0000000000
11
-50.1455055320
21
-32.7939119348
31
0.0000000000
11
-50.0747263091
21
-32.6552897897
31
0.0000000000
11
-50.0500000000
21
-32.5000000000
31
0.0000000000
0
ENDSEC
0
SECTION
2
OBJECTS
0
DICTIONARY
5
C
100
AcDbDictionary
280
0
281
1
3
ACAD_GROUP
350
D
3
ACAD_MLINESTYLE
350
17
3
ACAD_LAYOUT
350
1A
3
ACAD_PLOTSETTINGS
350
19
3
ACAD_PLOTSTYLENAME
350
E
0
DICTIONARY
5
D
102
{ACAD_REACTORS
330
C
102
}
100
AcDbDictionary
280
0
281
1
0
ACDBDICTIONARYWDFLT
5
E
102
{ACAD_REACTORS
330
C
102
}
100
AcDbDictionary
281
1
3
Normal
350
F
100
AcDbDictionaryWithDefault
340
F
0
DICTIONARY
5
17
102
{ACAD_REACTORS
330
C
102
}
100
AcDbDictionary
280
0
281
1
3
Standard
350
18
0
DICTIONARY
5
19
102
{ACAD_REACTORS
330
C
102
}
100
AcDbDictionary
281
1
0
DICTIONARY
5
1A
102
{ACAD_REACTORS
330
C
102
}
100
AcDbDictionary
281
1
3
Layout1
350
1E
3
Model
350
22
0
ACDBPLACEHOLDER
5
F
102
{ACAD_REACTORS
330
E
102
}
0
MLINESTYLE
5
18
102
{ACAD_REACTORS
330
17
102
}
100
AcDbMlineStyle
2
STANDARD
70
0
3

62
256
51
90.0
52
90.0
71
2
49
0.5
62
256
6
BYLAYER
49
-0.5
62
256
6
BYLAYER
0
LAYOUT
5
1E
102
{ACAD_REACTORS
330
1A
102
}
100
AcDbPlotSettings
1

2

4

6

40
0.0
41
0.0
42
0.0
43
0.0
44
0.0
45
0.0
46
0.0
47
0.0
48
0.0
49
0.0
140
0.0
141
0.0
142
1.0
143
1.0
70
0
72
0
73
0
74
0
7

75
0
147
1.0
148
0.0
149
0.0
100
AcDbLayout
1
Layout1
70
0
71
0
10
0.0
20
0.0
11
0.0
21
0.0
12
0.0
22
0.0
32
0.0
14
0.0
24
0.0
34
0.0
15
0.0
25
0.0
35
0.0
146
0.0
13
0.0
23
0.0
33
0.0
16
0.0
26
0.0
36
0.0
17
0.0
27
0.0
37
0.0
76
0
330
1B
331
0
345
0
346
0
0
LAYOUT
5
22
102
{ACAD_REACTORS
330
1A
102
}
100
AcDbPlotSettings
1

2

4

6

40
0.0
41
0.0
42
0.0
43
0.0
44
0.0
45
0.0
46
0.0
47
0.0
48
0.0
49
0.0
140
0.0
141
0.0
142
1.0
143
1.0
70
0
72
0
73
0
74
0
7

75
0
147
1.0
148
0.0
149
0.0
100
AcDbLayout
1
Model
70
0
71
0
10
0.0
20
0.0
11
0.0
21
0.0
12
0.0
22
0.0
32
0.0
14
0.0
24
0.0
34
0.0
15
0.0
25
0.0
35
0.0
146
0.0
13
0.0
23
0.0
33
0.0
16
0.0
26
0.0
36
0.0
17
0.0
27
0.0
37
0.0
76
0
330
1F
331
0
345
0
346
0
0
ENDSEC
0
EOF
