  0
SECTION
  2
HEADER
  9
$ACADVER
  1
AC1024
  9
$DWGCODEPAGE
  3
ANSI_1252
  9
$EXTMAX
 10
297.0
 20
210.0
 30
0.0
  9
$EXTMIN
 10
0.0
 20
0.0
 30
0.0
  9
$LIMMIN
 10
0.0
 20
0.0
  9
$LIMMAX
 10
297.0
 20
210.0
  9
$VIEWCTR
 10
148.5
 20
105.0
  9
$VIEWSIZE
 40
210.0
  9
$CLAYER
  8
0
  9
$LTSCALE
 40
16.335
  9
$CELTYPE
  6
BYLAYER
  9
$DIMSCALE
 40
1.0
  9
$DIMASZ
 40
3.0
  9
$DIMEXO
 40
0.5
  9
$DIMDLI
 40
11.286
  9
$DIMEXE
 40
1.5
  9
$DIMCEN
 40
2.673
  9
$DIMLFAC
 40
1.0
  9
$DIMBLK
  1
_FILLED
  9
$DIMALT
 70
0
  9
$DIMALTF
 40
0.0393700787
  9
$DIMTXT
 40
3.0
  9
$DIMTOL
 70
1
  9
$DIMLIM
 70
0
  9
$DIMTFAC
 40
1.0
  9
$DIMTP
 40
0.01
  9
$DIMTM
 40
0.01
  9
$DIMGAP
 40
0.625
  9
$DIMDSEP
 70
44
  9
$AUNITS
 70
0
  9
$PDMODE
 70
3
  9
$PDSIZE
 40
3.0
  9
$HANDSEED
  5
5C5
  9
$TILEMODE
 70
1
  9
$MEASUREMENT
 70
1
  9
$INSUNITS
 70
4
  0
ENDSEC
  0
SECTION
  2
CLASSES
  0
CLASS
  1
ACDBDICTIONARYWDFLT
  2
AcDbDictionaryWithDefault
  3
AutoCAD 2000
 90
0
 91
1
280
0
281
0
  0
CLASS
  1
ACDBPLACEHOLDER
  2
AcDbPlaceHolder
  3
AutoCAD 2000
 90
0
 91
1
280
0
281
0
  0
CLASS
  1
LAYOUT
  2
AcDbLayout
  3
AutoCAD 2000
 90
0
 91
0
280
0
281
0
  0
ENDSEC
  0
SECTION
  2
TABLES
  0
TABLE
  2
VPORT
  5
8
100
AcDbSymbolTable
 70
2
  0
VPORT
  5
1F4
100
AcDbSymbolTableRecord
100
AcDbViewportTableRecord
  2
*ACTIVE
 70
0
 10
0.0
 20
0.0
 11
1.0
 21
1.0
 12
148.5
 22
105.0
 13
0.0
 23
0.0
 14
1.0
 24
1.0
 15
0.0
 25
0.0
 16
0.0
 26
0.0
 36
1.0
 17
0.0
 27
0.0
 37
0.0
 40
210.0
 41
1.4142857143
 42
50.0
 43
0.0
 44
0.0
 50
0.0
 51
0.0
 71
0
 72
100
 73
1
 74
1
 75
0
 76
0
 77
0
 78
0
  0
ENDTAB
  0
TABLE
  2
LTYPE
  5
5
100
AcDbSymbolTable
 70
6
  0
LTYPE
  5
14
100
AcDbSymbolTableRecord
100
AcDbLinetypeTableRecord
  2
BYBLOCK
 70
0
  3

 72
65
 73
0
 40
0.0
  0
LTYPE
  5
15
100
AcDbSymbolTableRecord
100
AcDbLinetypeTableRecord
  2
BYLAYER
 70
0
  3

 72
65
 73
0
 40
0.0
  0
LTYPE
  5
16
100
AcDbSymbolTableRecord
100
AcDbLinetypeTableRecord
  2
CONTINUOUS
 70
64
  3
Solid line
 72
65
 73
0
 40
0.0
  0
LTYPE
  5
1F5
100
AcDbSymbolTableRecord
100
AcDbLinetypeTableRecord
  2
CENTER
 70
64
  3
____ _ ____ _ ____ _ ____ _ ____ _ ____ _ ____
 72
65
 73
4
 40
0.6
 49
0.375
 74
0
 49
-0.075
 74
0
 49
0.075
 74
0
 49
-0.075
 74
0
  0
LTYPE
  5
1F6
100
AcDbSymbolTableRecord
100
AcDbLinetypeTableRecord
  2
HIDDEN
 70
64
  3
- - - - - - - - - - - - - - - - - - - -
 72
65
 73
2
 40
0.2
 49
0.1
 74
0
 49
-0.1
 74
0
  0
LTYPE
  5
1F7
100
AcDbSymbolTableRecord
100
AcDbLinetypeTableRecord
  2
PHANTOM
 70
64
  3
_____ _ _ _____ _ _ _____ _ _ _____
 72
65
 73
6
 40
0.8
 49
0.45
 74
0
 49
-0.05
 74
0
 49
0.1
 74
0
 49
-0.05
 74
0
 49
0.1
 74
0
 49
-0.05
 74
0
  0
LTYPE
  5
1F8
100
AcDbSymbolTableRecord
100
AcDbLinetypeTableRecord
  2
DOT
 70
64
  3
. . . . . . . . . . . . . . . . . . . .
 72
65
 73
2
 40
0.2
 49
0.1
 74
0
 49
-0.1
 74
0
  0
LTYPE
  5
1F9
100
AcDbSymbolTableRecord
100
AcDbLinetypeTableRecord
  2
DASHED
 70
64
  3
- - - - - - - - - - - - - - - - - - - -
 72
65
 73
2
 40
0.2
 49
0.1
 74
0
 49
-0.1
 74
0
  0
ENDTAB
  0
TABLE
  2
LAYER
  5
2
100
AcDbSymbolTable
 70
36
  0
LAYER
  5
10
100
AcDbSymbolTableRecord
100
AcDbLayerTableRecord
  2
0
 70
0
 62
7
  6
CONTINUOUS
370
-3
390
F
  0
LAYER
  5
1FA
100
AcDbSymbolTableRecord
100
AcDbLayerTableRecord
  2
DEFAULT_1
 70
0
 62
7
  6
CENTER
370
-3
390
F
  0
LAYER
  5
1FB
100
AcDbSymbolTableRecord
100
AcDbLayerTableRecord
  2
DEFAULT_2
 70
0
 62
7
  6
HIDDEN
370
-3
390
F
  0
LAYER
  5
1FC
100
AcDbSymbolTableRecord
100
AcDbLayerTableRecord
  2
DEFAULT_3
 70
0
 62
7
  6
PHANTOM
370
-3
390
F
  0
LAYER
  5
1FD
100
AcDbSymbolTableRecord
100
AcDbLayerTableRecord
  2
ASSI
 70
0
 62
7
  6
CONTINUOUS
370
-3
390
F
  0
LAYER
  5
1FE
100
AcDbSymbolTableRecord
100
AcDbLayerTableRecord
  2
COLOR15
 70
0
 62
7
  6
CONTINUOUS
370
-3
390
F
  0
LAYER
  5
1FF
100
AcDbSymbolTableRecord
100
AcDbLayerTableRecord
  2
COLOR5
 70
0
 62
7
  6
CONTINUOUS
370
-3
390
F
  0
LAYER
  5
200
100
AcDbSymbolTableRecord
100
AcDbLayerTableRecord
  2
COORDINATE
 70
0
 62
7
  6
CONTINUOUS
370
-3
390
F
  0
LAYER
  5
201
100
AcDbSymbolTableRecord
100
AcDbLayerTableRecord
  2
COORD_ORIGINE
 70
0
 62
7
  6
CONTINUOUS
370
-3
390
F
  0
LAYER
  5
202
100
AcDbSymbolTableRecord
100
AcDbLayerTableRecord
  2
COSMETICHE
 70
0
 62
7
  6
CONTINUOUS
370
-3
390
F
  0
LAYER
  5
203
100
AcDbSymbolTableRecord
100
AcDbLayerTableRecord
  2
COSMETICI
 70
0
 62
7
  6
CONTINUOUS
370
-3
390
F
  0
LAYER
  5
204
100
AcDbSymbolTableRecord
100
AcDbLayerTableRecord
  2
CURVE
 70
0
 62
7
  6
CONTINUOUS
370
-3
390
F
  0
LAYER
  5
205
100
AcDbSymbolTableRecord
100
AcDbLayerTableRecord
  2
DRAFT
 70
0
 62
7
  6
CONTINUOUS
370
-3
390
F
  0
LAYER
  5
206
100
AcDbSymbolTableRecord
100
AcDbLayerTableRecord
  2
IMPORT_IGES
 70
0
 62
7
  6
CONTINUOUS
370
-3
390
F
  0
LAYER
  5
207
100
AcDbSymbolTableRecord
100
AcDbLayerTableRecord
  2
INTF_1
 70
0
 62
7
  6
CONTINUOUS
370
-3
390
F
  0
LAYER
  5
208
100
AcDbSymbolTableRecord
100
AcDbLayerTableRecord
  2
INTF_11
 70
0
 62
7
  6
CONTINUOUS
370
-3
390
F
  0
LAYER
  5
209
100
AcDbSymbolTableRecord
100
AcDbLayerTableRecord
  2
INTF_2
 70
0
 62
7
  6
CONTINUOUS
370
-3
390
F
  0
LAYER
  5
20A
100
AcDbSymbolTableRecord
100
AcDbLayerTableRecord
  2
INTF_3
 70
0
 62
7
  6
CONTINUOUS
370
-3
390
F
  0
LAYER
  5
20B
100
AcDbSymbolTableRecord
100
AcDbLayerTableRecord
  2
INTF_5
 70
0
 62
7
  6
CONTINUOUS
370
-3
390
F
  0
LAYER
  5
20C
100
AcDbSymbolTableRecord
100
AcDbLayerTableRecord
  2
INTF_YELLOW
 70
0
 62
7
  6
CONTINUOUS
370
-3
390
F
  0
LAYER
  5
20D
100
AcDbSymbolTableRecord
100
AcDbLayerTableRecord
  2
NOTE
 70
0
 62
7
  6
CONTINUOUS
370
-3
390
F
  0
LAYER
  5
20E
100
AcDbSymbolTableRecord
100
AcDbLayerTableRecord
  2
PIANI
 70
0
 62
7
  6
CONTINUOUS
370
-3
390
F
  0
LAYER
  5
20F
100
AcDbSymbolTableRecord
100
AcDbLayerTableRecord
  2
PIANI_ORIGINE
 70
0
 62
7
  6
CONTINUOUS
370
-3
390
F
  0
LAYER
  5
210
100
AcDbSymbolTableRecord
100
AcDbLayerTableRecord
  2
PUNTI
 70
0
 62
7
  6
CONTINUOUS
370
-3
390
F
  0
LAYER
  5
211
100
AcDbSymbolTableRecord
100
AcDbLayerTableRecord
  2
RACCORDO
 70
0
 62
7
  6
CONTINUOUS
370
-3
390
F
  0
LAYER
  5
212
100
AcDbSymbolTableRecord
100
AcDbLayerTableRecord
  2
RGB__255__255__255__
 70
0
 62
7
  6
CONTINUOUS
370
-3
390
F
  0
LAYER
  5
213
100
AcDbSymbolTableRecord
100
AcDbLayerTableRecord
  2
SIMBOLI
 70
0
 62
7
  6
CONTINUOUS
370
-3
390
F
  0
LAYER
  5
214
100
AcDbSymbolTableRecord
100
AcDbLayerTableRecord
  2
SMUSSO
 70
0
 62
7
  6
CONTINUOUS
370
-3
390
F
  0
LAYER
  5
215
100
AcDbSymbolTableRecord
100
AcDbLayerTableRecord
  2
SNAPLINE
 70
0
 62
7
  6
CONTINUOUS
370
-3
390
F
  0
LAYER
  5
216
100
AcDbSymbolTableRecord
100
AcDbLayerTableRecord
  2
SUPERFICI
 70
0
 62
7
  6
CONTINUOUS
370
-3
390
F
  0
LAYER
  5
217
100
AcDbSymbolTableRecord
100
AcDbLayerTableRecord
  2
TASSELLI
 70
0
 62
7
  6
CONTINUOUS
370
-3
390
F
  0
LAYER
  5
218
100
AcDbSymbolTableRecord
100
AcDbLayerTableRecord
  2
TRASH
 70
0
 62
7
  6
CONTINUOUS
370
-3
390
F
  0
LAYER
  5
219
100
AcDbSymbolTableRecord
100
AcDbLayerTableRecord
  2
VARIE
 70
0
 62
7
  6
CONTINUOUS
370
-3
390
F
  0
LAYER
  5
21A
100
AcDbSymbolTableRecord
100
AcDbLayerTableRecord
  2
XSEC_DATUMS
 70
0
 62
7
  6
CONTINUOUS
370
-3
390
F
  0
ENDTAB
  0
TABLE
  2
STYLE
  5
3
100
AcDbSymbolTable
 70
1
  0
STYLE
  5
11
100
AcDbSymbolTableRecord
100
AcDbTextStyleTableRecord
  2
STANDARD
 70
0
 40
0.0
 41
0.8
 50
0.0
 71
0
 42
0.2
  3
txt
  4

  0
STYLE
  5
21B
100
AcDbSymbolTableRecord
100
AcDbTextStyleTableRecord
  2
TEXTSTYLE_1
 70
0
 40
0.0
 41
0.8
 50
0.0
 71
0
 42
0.2
  3
gdt
  4

  0
ENDTAB
  0
TABLE
  2
VIEW
  5
6
100
AcDbSymbolTable
 70
0
  0
ENDTAB
  0
TABLE
  2
UCS
  5
7
100
AcDbSymbolTable
 70
0
  0
ENDTAB
  0
TABLE
  2
APPID
  5
9
100
AcDbSymbolTable
 70
1
  0
APPID
  5
21C
100
AcDbSymbolTableRecord
100
AcDbRegAppTableRecord
  2
ACAD
 70
0
  0
ENDTAB
  0
TABLE
  2
BLOCK_RECORD
  5
1
100
AcDbSymbolTable
 70
0
  0
BLOCK_RECORD
  5
21D
100
AcDbSymbolTableRecord
100
AcDbBlockTableRecord
  2
*Model_Space
  0
BLOCK_RECORD
  5
21E
100
AcDbSymbolTableRecord
100
AcDbBlockTableRecord
  2
*Paper_Space
  0
BLOCK_RECORD
  5
21F
100
AcDbSymbolTableRecord
100
AcDbBlockTableRecord
  2
_FILLED
  0
ENDTAB
  0
TABLE
  2
DIMSTYLE
  5
A
100
AcDbSymbolTable
 70
1
100
AcDbDimStyleTable
 71
0
  0
DIMSTYLE
105
220
100
AcDbSymbolTableRecord
100
AcDbDimStyleTableRecord
  2
STANDARD
 70
0
  3

  4

 40
1.0
 41
3.0
 42
0.5
 43
0.38
 44
1.5
 45
0.0
 46
0.0
 47
0.01
 48
0.01
140
3.0
141
0.09
142
0.0
143
25.4
144
1.0
145
0.0
146
1.0
147
0.625
 71
1
 72
0
 73
0
 74
0
 75
0
 76
0
 77
1
 78
8
 79
2
170
0
171
1
172
0
173
0
174
0
175
0
176
0
177
0
178
0
270
2
179
2
271
2
272
2
273
2
274
2
275
0
280
0
281
0
282
0
283
1
284
8
285
0
286
0
287
3
288
0
340
11
278
44
341
21F
342
21F
343
21F
344
21F
  0
ENDTAB
  0
ENDSEC
  0
SECTION
  2
BLOCKS
  0
BLOCK
  5
20
100
AcDbEntity
  8
0
100
AcDbBlockBegin
  2
*Model_Space
 70
0
 10
0.0
 20
0.0
 30
0.0
  3
*Model_Space
  1

  0
ENDBLK
  5
21
100
AcDbEntity
  8
0
100
AcDbBlockEnd
  0
BLOCK
  5
1C
100
AcDbEntity
  8
0
100
AcDbBlockBegin
  2
*Paper_Space
 70
0
 10
0.0
 20
0.0
 30
0.0
  3
*Paper_Space
  1

  0
ENDBLK
  5
1D
100
AcDbEntity
  8
0
100
AcDbBlockEnd
  0
BLOCK
  5
221
100
AcDbEntity
  8
0
100
AcDbBlockBegin
  2
_FILLED
 70
64
 10
0.0
 20
0.0
  3
_FILLED
  1

  0
SOLID
  5
222
100
AcDbEntity
  8
0
  6
BYBLOCK
 62
0
100
AcDbTrace
 10
0.0
 20
0.0
 11
-1.0
 21
0.3166666667
 12
-1.0
 22
-0.3166666667
 13
-1.0
 23
-0.3166666667
  0
ENDBLK
  5
223
100
AcDbEntity
  8
0
  6
BYBLOCK
 62
0
100
AcDbBlockEnd
  0
ENDSEC
  0
SECTION
  2
ENTITIES
  0
LWPOLYLINE
  5
224
100
AcDbEntity
  8
0
100
AcDbPolyline
 62
7
  6
CONTINUOUS
 90
18
 70
0
 10
-1.116561382
 20
-50.7957581383
 10
-1.0037683055
 20
-50.8473355873
 10
-0.8348597486
 20
-50.9171445854
 10
-0.6676726962
 20
-50.9773894799
 10
-0.502703041
 20
-51.0282272415
 10
-0.3401315504
 20
-51.0699032379
 10
-0.1797626897
 20
-51.1026615522
 10
-0.0216642819
 20
-51.1266236763
 10
0.1338823221
 20
-51.1418873724
 10
0.2867359912
 20
-51.1485946843
 10
0.4366521522
 20
-51.1468947257
 10
0.5833961143
 20
-51.1369546186
 10
0.7267740489
 20
-51.1189540814
 10
0.8665556013
 20
-51.0930878545
 10
1.0024425598
 20
-51.0595889474
 10
1.1340999877
 20
-51.0187356498
 10
1.2612502747
 20
-50.9708358237
 10
1.3024138437
 20
-50.953435749
  0
LINE
  5
225
100
AcDbEntity
  8
0
100
AcDbLine
 62
7
  6
CONTINUOUS
 10
-1.1162429054
 20
-50.7959084317
 11
-1.1165613798
 21
-50.7957581341
  0
LINE
  5
226
100
AcDbEntity
  8
0
100
AcDbLine
 62
7
  6
CONTINUOUS
 10
-1.3967112551
 20
-50.6603493415
 11
-1.1162429054
 21
-50.7959084317
  0
LWPOLYLINE
  5
227
100
AcDbEntity
  8
0
100
AcDbPolyline
 62
7
  6
CONTINUOUS
 90
15
 70
0
 10
-6.8111603666
 20
-47.7823141225
 10
-6.4292263915
 20
-48.0004292083
 10
-6.0009240201
 20
-48.2422381418
 10
-5.5793903771
 20
-48.4773635786
 10
-5.1647452885
 20
-48.7058917579
 10
-4.7569448045
 20
-48.9279973574
 10
-4.3557809347
 20
-49.1439376908
 10
-3.9611606307
 20
-49.3539013963
 10
-3.5732450691
 20
-49.5579393264
 10
-3.1922176885
 20
-49.7560974451
 10
-2.817819871
 20
-49.9486549197
 10
-2.4503558099
 20
-50.135578902
 10
-2.0908649625
 20
-50.3164502681
 10
-1.7399630565
 20
-50.4911894689
 10
-1.3967112551
 20
-50.6603493415
  0
LINE
  5
228
100
AcDbEntity
  8
0
100
AcDbLine
 62
7
  6
CONTINUOUS
 10
-6.812526496
 20
-47.7815254482
 11
-6.8111603666
 21
-47.7823141225
  0
LINE
  5
229
100
AcDbEntity
  8
0
100
AcDbLine
 62
7
  6
CONTINUOUS
 10
-7.4699443776
 20
-47.3962674833
 11
-6.8125259749
 21
-47.7815257483
  0
LWPOLYLINE
  5
22A
100
AcDbEntity
  8
0
100
AcDbPolyline
 62
7
  6
CONTINUOUS
 90
9
 70
0
 10
-12.3918293188
 20
-44.2858322598
 10
-11.8947455993
 20
-44.619263012
 10
-11.3277034462
 20
-44.9928569195
 10
-10.7384382388
 20
-45.3756936814
 10
-10.126689065
 20
-45.7671713571
 10
-9.4929306211
 20
-46.1663054437
 10
-8.8386856672
 20
-46.5714306884
 10
-8.1644989815
 20
-46.981553287
 10
-7.4699443776
 20
-47.3962674833
  0
LINE
  5
22B
100
AcDbEntity
  8
0
100
AcDbLine
 62
7
  6
CONTINUOUS
 10
-12.3915358931
 20
-44.2860339713
 11
-12.3918293166
 21
-44.2858322565
  0
LWPOLYLINE
  5
22C
100
AcDbEntity
  8
0
100
AcDbPolyline
 62
7
  6
CONTINUOUS
 90
3
 70
0
 10
-12.6266406417
 20
-44.114860072
 10
-12.4801695429
 20
-44.2238609617
 10
-12.3915358931
 20
-44.2860339713
  0
LINE
  5
22D
100
AcDbEntity
  8
0
100
AcDbLine
 62
250
  6
CONTINUOUS
 10
3.6885159273
 20
-37.9321738897
 11
1.1421884921
 21
-36.4619960141
  0
LINE
  5
22E
100
AcDbEntity
  8
0
100
AcDbLine
 62
250
  6
CONTINUOUS
 10
-14.6968837739
 20
-27.3167141979
 11
-17.243212037
 21
-25.846441505
  0
LWPOLYLINE
  5
22F
100
AcDbEntity
  8
0
100
AcDbPolyline
 62
7
  6
CONTINUOUS
 90
22
 70
0
 10
-15.0379984535
 20
-40.5739147007
 10
-14.9742958472
 20
-40.7644480445
 10
-14.9042914271
 20
-40.955723122
 10
-14.8278355073
 20
-41.1479845501
 10
-14.7449230432
 20
-41.3409682153
 10
-14.6558808844
 20
-41.5335508456
 10
-14.5608027503
 20
-41.7252065291
 10
-14.4597938421
 20
-41.915516253
 10
-14.3533332895
 20
-42.103472222
 10
-14.2416037498
 20
-42.2886957418
 10
-14.1248004407
 20
-42.470792687
 10
-14.0035272687
 20
-42.6488090569
 10
-13.8780044721
 20
-42.8224449815
 10
-13.7484862964
 20
-42.9913557501
 10
-13.6157187349
 20
-43.1546230158
 10
-13.4800079147
 20
-43.3119728915
 10
-13.341599961
 20
-43.4632120655
 10
-13.2012441163
 20
-43.6076521588
 10
-13.0594094623
 20
-43.7450286868
 10
-12.9163008104
 20
-43.875358563
 10
-12.7720459429
 20
-43.9986460001
 10
-12.6266406417
 20
-44.114860072
  0
LINE
  5
230
100
AcDbEntity
  8
0
100
AcDbLine
 62
7
  6
CONTINUOUS
 10
-15.0762542501
 20
-40.4496986095
 11
-15.0379984535
 21
-40.5739147007
  0
LINE
  5
231
100
AcDbEntity
  8
0
100
AcDbLine
 62
7
  6
CONTINUOUS
 10
-15.0762837502
 20
-40.4495881565
 11
-15.0762512383
 21
-40.4496976691
  0
LWPOLYLINE
  5
232
100
AcDbEntity
  8
0
100
AcDbPolyline
 62
7
  6
CONTINUOUS
 90
13
 70
0
 10
-16.1633705894
 20
-35.9283712229
 10
-16.0867049832
 20
-36.2990465865
 10
-15.9952456518
 20
-36.7278742907
 10
-15.9028171725
 20
-37.1478903234
 10
-15.8096728871
 20
-37.5589507411
 10
-15.7160393442
 20
-37.9610671684
 10
-15.6220600206
 20
-38.354459734
 10
-15.527652411
 20
-38.7399153478
 10
-15.4331782528
 20
-39.1163844477
 10
-15.3399265575
 20
-39.4807177085
 10
-15.2473180198
 20
-39.8356797987
 10
-15.1528279699
 20
-40.1838144438
 10
-15.0762837502
 20
-40.4495881565
  0
LWPOLYLINE
  5
233
100
AcDbEntity
  8
0
100
AcDbPolyline
 62
7
  6
CONTINUOUS
 90
10
 70
0
 10
-17.5336813821
 20
-25.5076893948
 10
-17.4619057335
 20
-26.5190794607
 10
-17.369439668
 20
-27.6235087981
 10
-17.2591659064
 20
-28.756320874
 10
-17.1287705023
 20
-29.9230174538
 10
-16.9767997969
 20
-31.1182023302
 10
-16.8035925566
 20
-32.3255713621
 10
-16.608786864
 20
-33.5394689453
 10
-16.3906529434
 20
-34.7648935862
 10
-16.1633872579
 20
-35.9282892027
  0
LINE
  5
234
100
AcDbEntity
  8
0
100
AcDbLine
 62
7
  6
CONTINUOUS
 10
-5.8813439331
 20
-31.6657043768
 11
-5.8717306294
 21
-31.6876731354
  0
LINE
  5
235
100
AcDbEntity
  8
0
100
AcDbLine
 62
7
  6
CONTINUOUS
 10
-17.6874923474
 20
-21.2276376713
 11
-17.6874923474
 21
-1.0608218345
  0
LINE
  5
236
100
AcDbEntity
  8
0
100
AcDbLine
 62
250
  6
CONTINUOUS
 10
-17.3945991286
 20
-21.6359122646
 11
-17.3945991286
 21
-1.4690964278
  0
LINE
  5
237
100
AcDbEntity
  8
0
100
AcDbLine
 62
7
  6
CONTINUOUS
 10
-11.4728301179
 20
-11.760813362
 11
-10.9525996382
 21
-12.061187921
  0
LINE
  5
238
100
AcDbEntity
  8
0
100
AcDbLine
 62
7
  6
CONTINUOUS
 10
-9.8244673373
 20
-12.7125573727
 11
-9.2341357055
 21
-13.0534074583
  0
LINE
  5
239
100
AcDbEntity
  8
0
100
AcDbLine
 62
7
  6
CONTINUOUS
 10
-8.916341412
 20
-13.2368979005
 11
-8.3515865395
 21
-13.5629802858
  0
LINE
  5
23A
100
AcDbEntity
  8
0
100
AcDbLine
 62
7
  6
CONTINUOUS
 10
-7.5316622856
 20
-14.0363942739
 11
-7.4488685668
 21
-14.0841983295
  0
LINE
  5
23B
100
AcDbEntity
  8
0
100
AcDbLine
 62
7
  6
CONTINUOUS
 10
-6.6256781867
 20
-14.559498138
 11
-6.0481770074
 21
-14.8929400811
  0
LINE
  5
23C
100
AcDbEntity
  8
0
100
AcDbLine
 62
7
  6
CONTINUOUS
 10
-5.9554795511
 20
-14.9464624307
 11
-5.3715521854
 21
-15.2836147733
  0
LINE
  5
23D
100
AcDbEntity
  8
0
100
AcDbLine
 62
7
  6
CONTINUOUS
 10
-4.2517969786
 20
-15.9301473959
 11
-3.6296116005
 21
-16.2893894354
  0
LINE
  5
23E
100
AcDbEntity
  8
0
100
AcDbLine
 62
7
  6
CONTINUOUS
 10
-3.4562617708
 20
-16.3894795459
 11
-2.8683053736
 21
-16.7289582008
  0
LINE
  5
23F
100
AcDbEntity
  8
0
100
AcDbLine
 62
7
  6
CONTINUOUS
 10
-1.9642937828
 20
-17.2509231634
 11
-1.3964632917
 21
-17.5787813723
  0
LINE
  5
240
100
AcDbEntity
  8
0
100
AcDbLine
 62
7
  6
CONTINUOUS
 10
-5.2086574104
 20
-14.7257615647
 11
-4.4047243763
 21
-15.1899424229
  0
LINE
  5
241
100
AcDbEntity
  8
0
100
AcDbLine
 62
7
  6
CONTINUOUS
 10
-4.5227016073
 20
-14.6173815678
 11
-5.0879019569
 21
-14.2910419695
  0
LINE
  5
242
100
AcDbEntity
  8
0
100
AcDbLine
 62
7
  6
CONTINUOUS
 10
-4.5281849242
 20
-14.5897190937
 11
-5.0666887535
 21
-14.2787937317
  0
LINE
  5
243
100
AcDbEntity
  8
0
100
AcDbLine
 62
7
  6
CONTINUOUS
 10
-2.8683053736
 20
-15.4510285741
 11
-2.5517836152
 21
-15.6337842704
  0
LINE
  5
244
100
AcDbEntity
  8
0
100
AcDbLine
 62
7
  6
CONTINUOUS
 10
-2.550511166
 20
-15.0997117724
 11
-2.887879885
 21
-14.9049193022
  0
LINE
  5
245
100
AcDbEntity
  8
0
100
AcDbLine
 62
7
  6
CONTINUOUS
 10
-2.5292979625
 20
-15.0874635346
 11
-2.8666666816
 21
-14.8926710644
  0
LINE
  5
246
100
AcDbEntity
  8
0
100
AcDbLine
 62
7
  6
CONTINUOUS
 10
-12.3693870692
 20
-7.9776699452
 11
-11.4728301179
 21
-11.760813362
  0
LINE
  5
247
100
AcDbEntity
  8
0
100
AcDbLine
 62
7
  6
CONTINUOUS
 10
-12.9770001773
 20
0.9724476705
 11
-12.9770001773
 21
2.0226618295
  0
LINE
  5
248
100
AcDbEntity
  8
0
100
AcDbLine
 62
250
  6
CONTINUOUS
 10
-12.5685521794
 20
1.2642375951
 11
-12.5685521794
 21
1.2174670927
  0
LINE
  5
249
100
AcDbEntity
  8
0
100
AcDbLine
 62
7
  6
CONTINUOUS
 10
-12.0452931613
 20
1.5663607942
 11
-12.0452931613
 21
1.5233475155
  0
LINE
  5
24A
100
AcDbEntity
  8
0
100
AcDbLine
 62
250
  6
CONTINUOUS
 10
-11.5220341433
 20
1.8684839932
 11
-11.5220341433
 21
1.8234674427
  0
LINE
  5
24B
100
AcDbEntity
  8
0
100
AcDbLine
 62
7
  6
CONTINUOUS
 10
-9.8244673373
 20
-9.4468787501
 11
-9.8244673373
 21
-12.7125573727
  0
LINE
  5
24C
100
AcDbEntity
  8
0
100
AcDbLine
 62
7
  6
CONTINUOUS
 10
-9.2341357055
 20
-13.0534074583
 11
-9.2341357055
 21
-9.7877288358
  0
LINE
  5
24D
100
AcDbEntity
  8
0
100
AcDbLine
 62
7
  6
CONTINUOUS
 10
-9.2129225021
 20
-13.0411592205
 11
-9.2129225021
 21
-9.775480598
  0
LINE
  5
24E
100
AcDbEntity
  8
0
100
AcDbLine
 62
7
  6
CONTINUOUS
 10
-11.7305106689
 20
-0.9938225261
 11
-11.4690458592
 21
-0.4417960683
  0
LINE
  5
24F
100
AcDbEntity
  8
0
100
AcDbLine
 62
7
  6
CONTINUOUS
 10
-12.8938212988
 20
2.0562903062
 11
-12.835578821
 21
2.1043167481
  0
LINE
  5
250
100
AcDbEntity
  8
0
100
AcDbLine
 62
7
  6
CONTINUOUS
 10
-4.497337687
 20
-12.5228925985
 11
-5.0684126798
 21
-12.1931610549
  0
LINE
  5
251
100
AcDbEntity
  8
0
100
AcDbLine
 62
7
  6
CONTINUOUS
 10
-6.3126349436
 20
-11.4747627136
 11
-6.8967100946
 21
-11.1375250415
  0
LINE
  5
252
100
AcDbEntity
  8
0
100
AcDbLine
 62
7
  6
CONTINUOUS
 10
-8.0711380906
 20
-10.4594250357
 11
-8.6609825259
 21
-10.1188562513
  0
LINE
  5
253
100
AcDbEntity
  8
0
100
AcDbLine
 62
7
  6
CONTINUOUS
 10
-10.043541039
 20
-9.3205842933
 11
-10.6334696199
 21
-8.9799669242
  0
LINE
  5
254
100
AcDbEntity
  8
0
100
AcDbLine
 62
7
  6
CONTINUOUS
 10
-11.7281048583
 20
-8.3479382566
 11
-12.3693870692
 21
-7.9776699452
  0
LINE
  5
255
100
AcDbEntity
  8
0
100
AcDbLine
 62
7
  6
CONTINUOUS
 10
-9.2341357055
 20
-9.7877288358
 11
-9.8244673373
 21
-9.4468787501
  0
LINE
  5
256
100
AcDbEntity
  8
0
100
AcDbLine
 62
7
  6
CONTINUOUS
 10
-4.4761244836
 20
-12.5106443607
 11
-5.0471994764
 21
-12.1809128171
  0
LINE
  5
257
100
AcDbEntity
  8
0
100
AcDbLine
 62
7
  6
CONTINUOUS
 10
-6.2914217402
 20
-11.4625144758
 11
-6.8754968912
 21
-11.1252768037
  0
LINE
  5
258
100
AcDbEntity
  8
0
100
AcDbLine
 62
7
  6
CONTINUOUS
 10
-8.0499248872
 20
-10.4471767979
 11
-8.6397693224
 21
-10.1066080135
  0
LINE
  5
259
100
AcDbEntity
  8
0
100
AcDbLine
 62
7
  6
CONTINUOUS
 10
-10.0223278355
 20
-9.3083360555
 11
-10.6122564165
 21
-8.9677186864
  0
LINE
  5
25A
100
AcDbEntity
  8
0
100
AcDbLine
 62
7
  6
CONTINUOUS
 10
-11.7068916549
 20
-8.3356900188
 11
-12.3481738658
 21
-7.9654217074
  0
LINE
  5
25B
100
AcDbEntity
  8
0
100
AcDbLine
 62
7
  6
CONTINUOUS
 10
-9.2129225021
 20
-9.775480598
 11
-9.8032541339
 21
-9.4346305123
  0
LINE
  5
25C
100
AcDbEntity
  8
0
100
AcDbLine
 62
250
  6
CONTINUOUS
 10
3.8399038456
 20
-13.7296323143
 11
-17.3945991286
 21
-1.4690964278
  0
LINE
  5
25D
100
AcDbEntity
  8
0
100
AcDbLine
 62
250
  6
CONTINUOUS
 10
4.1934572362
 20
-13.1172598793
 11
-17.041045738
 21
-0.8567239928
  0
LINE
  5
25E
100
AcDbEntity
  8
0
100
AcDbLine
 62
7
  6
CONTINUOUS
 10
-8.2241927676
 20
-11.5042371794
 11
-7.5316622856
 21
-14.0363942739
  0
LINE
  5
25F
100
AcDbEntity
  8
0
100
AcDbLine
 62
7
  6
CONTINUOUS
 10
-7.4870417264
 20
-12.6096814973
 11
-8.0711380906
 21
-10.4594250357
  0
LINE
  5
260
100
AcDbEntity
  8
0
100
AcDbLine
 62
7
  6
CONTINUOUS
 10
-7.4724118469
 20
-12.5731978153
 11
-8.0499248872
 21
-10.4471767979
  0
LINE
  5
261
100
AcDbEntity
  8
0
100
AcDbLine
 62
7
  6
CONTINUOUS
 10
-11.1890207905
 20
-10.9069315154
 11
-11.7281048583
 21
-8.3479382566
  0
LINE
  5
262
100
AcDbEntity
  8
0
100
AcDbLine
 62
7
  6
CONTINUOUS
 10
-11.1752728868
 20
-10.8592460368
 11
-11.7068916549
 21
-8.3356900188
  0
LINE
  5
263
100
AcDbEntity
  8
0
100
AcDbLine
 62
7
  6
CONTINUOUS
 10
-6.0481770074
 20
-14.8929400811
 11
-6.3126349436
 21
-11.4747627136
  0
LINE
  5
264
100
AcDbEntity
  8
0
100
AcDbLine
 62
7
  6
CONTINUOUS
 10
-6.026963804
 20
-14.8806918433
 11
-6.2914217402
 21
-11.4625144758
  0
LINE
  5
265
100
AcDbEntity
  8
0
100
AcDbLine
 62
7
  6
CONTINUOUS
 10
-4.8571860882
 20
-6.446032084
 11
-4.8576518227
 21
-6.4398770844
  0
LINE
  5
266
100
AcDbEntity
  8
0
100
AcDbLine
 62
7
  6
CONTINUOUS
 10
-5.0131725428
 20
-6.4601067151
 11
-5.012395815
 21
-6.4734710372
  0
LINE
  5
267
100
AcDbEntity
  8
0
100
AcDbLine
 62
7
  6
CONTINUOUS
 10
-6.7469639702
 20
-12.3660594849
 11
-6.6256781867
 21
-14.559498138
  0
LINE
  5
268
100
AcDbEntity
  8
0
100
AcDbLine
 62
7
  6
CONTINUOUS
 10
-5.013106679
 20
-6.4192831173
 11
-5.012395815
 21
-6.4326475233
  0
LINE
  5
269
100
AcDbEntity
  8
0
100
AcDbLine
 62
7
  6
CONTINUOUS
 10
-4.5066216926
 20
-5.812067313
 11
-4.5066714979
 21
-5.8062997998
  0
LINE
  5
26A
100
AcDbEntity
  8
0
100
AcDbLine
 62
7
  6
CONTINUOUS
 10
-4.6602959367
 20
-5.794352241
 11
-4.6602938555
 21
-5.7973560268
  0
LINE
  5
26B
100
AcDbEntity
  8
0
100
AcDbLine
 62
7
  6
CONTINUOUS
 10
-7.8364649063
 20
-2.3232742481
 11
-7.8364649063
 21
-2.2824507343
  0
LINE
  5
26C
100
AcDbEntity
  8
0
100
AcDbLine
 62
7
  6
CONTINUOUS
 10
-7.344021841
 20
-5.1900128194
 11
-7.344021841
 21
-5.1491893055
  0
LINE
  5
26D
100
AcDbEntity
  8
0
100
AcDbLine
 62
7
  6
CONTINUOUS
 10
-7.3162344266
 20
-2.6236488071
 11
-7.3162344266
 21
-2.5828252933
  0
LINE
  5
26E
100
AcDbEntity
  8
0
100
AcDbLine
 62
7
  6
CONTINUOUS
 10
-7.2311548819
 20
-5.255180787
 11
-7.2311548819
 21
-5.2143572731
  0
LINE
  5
26F
100
AcDbEntity
  8
0
100
AcDbLine
 62
7
  6
CONTINUOUS
 10
-6.98660974
 20
-4.7229756495
 11
-6.98660974
 21
-4.6821521357
  0
LINE
  5
270
100
AcDbEntity
  8
0
100
AcDbLine
 62
250
  6
CONTINUOUS
 10
-6.8098802493
 20
-4.7579451165
 11
-6.8098802493
 21
-4.7171216027
  0
LINE
  5
271
100
AcDbEntity
  8
0
100
AcDbLine
 62
250
  6
CONTINUOUS
 10
-6.6580414503
 20
-5.604191515
 11
-6.6580414503
 21
-5.5633680012
  0
LINE
  5
272
100
AcDbEntity
  8
0
100
AcDbLine
 62
250
  6
CONTINUOUS
 10
-6.4373238459
 20
-5.669359501
 11
-6.4373238459
 21
-5.6285359872
  0
LINE
  5
273
100
AcDbEntity
  8
0
100
AcDbLine
 62
250
  6
CONTINUOUS
 10
-6.3727387904
 20
-5.2273033867
 11
-6.3727387904
 21
-5.1864798729
  0
LINE
  5
274
100
AcDbEntity
  8
0
100
AcDbLine
 62
7
  6
CONTINUOUS
 10
-6.3081537942
 20
-4.7222515269
 11
-6.3081537942
 21
-4.681428013
  0
LINE
  5
275
100
AcDbEntity
  8
0
100
AcDbLine
 62
7
  6
CONTINUOUS
 10
-6.2968671593
 20
-5.8127290241
 11
-6.2968671593
 21
-5.7719055103
  0
LINE
  5
276
100
AcDbEntity
  8
0
100
AcDbLine
 62
250
  6
CONTINUOUS
 10
-6.2293398861
 20
0.4753117936
 11
-6.2293398861
 21
0.7600303088
  0
LINE
  5
277
100
AcDbEntity
  8
0
100
AcDbLine
 62
7
  6
CONTINUOUS
 10
-6.2059464772
 20
-5.8652254864
 11
-6.2059464772
 21
-5.8244019726
  0
LINE
  5
278
100
AcDbEntity
  8
0
100
AcDbLine
 62
7
  6
CONTINUOUS
 10
-6.1881021257
 20
-3.2750182588
 11
-6.1881021257
 21
-3.234194745
  0
LINE
  5
279
100
AcDbEntity
  8
0
100
AcDbLine
 62
250
  6
CONTINUOUS
 10
-6.1841884365
 20
-5.6380066655
 11
-6.1841884365
 21
-5.5971831516
  0
LINE
  5
27A
100
AcDbEntity
  8
0
100
AcDbLine
 62
7
  6
CONTINUOUS
 10
-6.1055961994
 20
-29.2697085346
 11
-6.1055961994
 21
-30.1472375081
  0
LINE
  5
27B
100
AcDbEntity
  8
0
100
AcDbLine
 62
7
  6
CONTINUOUS
 10
-6.1055961994
 20
-31.0594219771
 11
-6.1055961994
 21
-32.7212740456
  0
LINE
  5
27C
100
AcDbEntity
  8
0
100
AcDbLine
 62
250
  6
CONTINUOUS
 10
-6.0039839608
 20
-5.0819427452
 11
-6.0039839608
 21
-5.0411192314
  0
LINE
  5
27D
100
AcDbEntity
  8
0
100
AcDbLine
 62
250
  6
CONTINUOUS
 10
-5.8892919147
 20
-5.5064395537
 11
-5.8892919147
 21
-5.4656160399
  0
LINE
  5
27E
100
AcDbEntity
  8
0
100
AcDbLine
 62
7
  6
CONTINUOUS
 10
-5.8855296425
 20
-6.0321279356
 11
-5.8855296425
 21
-5.9913044217
  0
LINE
  5
27F
100
AcDbEntity
  8
0
100
AcDbLine
 62
250
  6
CONTINUOUS
 10
-5.8140472388
 20
-5.1154316847
 11
-5.8140472388
 21
-5.0746081708
  0
LINE
  5
280
100
AcDbEntity
  8
0
100
AcDbLine
 62
250
  6
CONTINUOUS
 10
-5.6930287615
 20
-5.3692247338
 11
-5.6930287615
 21
-5.3284012199
  0
LINE
  5
281
100
AcDbEntity
  8
0
100
AcDbLine
 62
250
  6
CONTINUOUS
 10
-5.6137596525
 20
-5.2573077476
 11
-5.6137596525
 21
-5.2164842338
  0
LINE
  5
282
100
AcDbEntity
  8
0
100
AcDbLine
 62
7
  6
CONTINUOUS
 10
-5.6050876771
 20
-5.1851560751
 11
-5.6050876768
 21
-5.1712349064
  0
LINE
  5
283
100
AcDbEntity
  8
0
100
AcDbLine
 62
7
  6
CONTINUOUS
 10
-5.5977704939
 20
-3.6158683444
 11
-5.5977704939
 21
-3.5750448306
  0
LINE
  5
284
100
AcDbEntity
  8
0
100
AcDbLine
 62
250
  6
CONTINUOUS
 10
-5.5118236413
 20
-6.0522171347
 11
-5.5118236413
 21
-6.0113936209
  0
LINE
  5
285
100
AcDbEntity
  8
0
100
AcDbLine
 62
7
  6
CONTINUOUS
 10
-5.2799762003
 20
-3.7993587866
 11
-5.2799762003
 21
-3.7585352728
  0
LINE
  5
286
100
AcDbEntity
  8
0
100
AcDbLine
 62
7
  6
CONTINUOUS
 10
-5.2779292105
 20
-6.38294881
 11
-5.2779292105
 21
-6.3421252962
  0
LINE
  5
287
100
AcDbEntity
  8
0
100
AcDbLine
 62
250
  6
CONTINUOUS
 10
-5.2653804626
 20
-6.0606750845
 11
-5.2653804626
 21
-6.0198515706
  0
LINE
  5
288
100
AcDbEntity
  8
0
100
AcDbLine
 62
7
  6
CONTINUOUS
 10
-5.2636575901
 20
-0.5429826771
 11
-5.2636575901
 21
-0.5021591632
  0
LINE
  5
289
100
AcDbEntity
  8
0
100
AcDbLine
 62
7
  6
CONTINUOUS
 10
-5.2070736694
 20
-5.6650150217
 11
-5.2070736694
 21
-5.6241915079
  0
LINE
  5
28A
100
AcDbEntity
  8
0
100
AcDbLine
 62
7
  6
CONTINUOUS
 10
-5.1694515027
 20
-6.3203151411
 11
-5.1694515027
 21
-6.2794916272
  0
LINE
  5
28B
100
AcDbEntity
  8
0
100
AcDbLine
 62
7
  6
CONTINUOUS
 10
-5.1029854184
 20
-5.7388719547
 11
-5.1029854184
 21
-5.6980484409
  0
LINE
  5
28C
100
AcDbEntity
  8
0
100
AcDbLine
 62
7
  6
CONTINUOUS
 10
-5.0130933665
 20
-6.4192831149
 11
-5.0130933665
 21
-6.4326475233
  0
LINE
  5
28D
100
AcDbEntity
  8
0
100
AcDbLine
 62
250
  6
CONTINUOUS
 10
-5.012395815
 20
-6.4734710372
 11
-5.012395815
 21
-6.4601066287
  0
LINE
  5
28E
100
AcDbEntity
  8
0
100
AcDbLine
 62
7
  6
CONTINUOUS
 10
-4.9894912678
 20
-5.4698730615
 11
-4.9894912678
 21
-5.4290495477
  0
LINE
  5
28F
100
AcDbEntity
  8
0
100
AcDbLine
 62
250
  6
CONTINUOUS
 10
-4.9299070111
 20
-6.067778855
 11
-4.9299070111
 21
-6.0269553412
  0
LINE
  5
290
100
AcDbEntity
  8
0
100
AcDbLine
 62
250
  6
CONTINUOUS
 10
-4.9180088092
 20
-5.6892719196
 11
-4.9180088092
 21
-5.6484484058
  0
LINE
  5
291
100
AcDbEntity
  8
0
100
AcDbLine
 62
250
  6
CONTINUOUS
 10
-4.8772512981
 20
-6.6323974303
 11
-4.8772512981
 21
-6.5915739165
  0
LINE
  5
292
100
AcDbEntity
  8
0
100
AcDbLine
 62
7
  6
CONTINUOUS
 10
-4.7875847628
 20
-6.3764321018
 11
-4.7875847628
 21
-6.335608588
  0
LINE
  5
293
100
AcDbEntity
  8
0
100
AcDbLine
 62
250
  6
CONTINUOUS
 10
-4.7423734096
 20
-6.0463405373
 11
-4.7423734096
 21
-6.0055170235
  0
LINE
  5
294
100
AcDbEntity
  8
0
100
AcDbLine
 62
250
  6
CONTINUOUS
 10
-4.7386757179
 20
-5.7363377232
 11
-4.7386757179
 21
-5.6955142094
  0
LINE
  5
295
100
AcDbEntity
  8
0
100
AcDbLine
 62
7
  6
CONTINUOUS
 10
-4.7152213279
 20
-4.1254411719
 11
-4.7152213279
 21
-4.0846176581
  0
LINE
  5
296
100
AcDbEntity
  8
0
100
AcDbLine
 62
7
  6
CONTINUOUS
 10
-4.7023076259
 20
-6.213512072
 11
-4.7023076259
 21
-6.1726885582
  0
LINE
  5
297
100
AcDbEntity
  8
0
100
AcDbLine
 62
250
  6
CONTINUOUS
 10
-4.6113869713
 20
-5.9966475245
 11
-4.6113869713
 21
-5.9558240107
  0
LINE
  5
298
100
AcDbEntity
  8
0
100
AcDbLine
 62
7
  6
CONTINUOUS
 10
-4.6101329171
 20
-6.2826625322
 11
-4.6101329171
 21
-6.2418390184
  0
LINE
  5
299
100
AcDbEntity
  8
0
100
AcDbLine
 62
250
  6
CONTINUOUS
 10
-4.5241786898
 20
-6.7075979986
 11
-4.5241786898
 21
-6.6667744847
  0
LINE
  5
29A
100
AcDbEntity
  8
0
100
AcDbLine
 62
250
  6
CONTINUOUS
 10
-4.4771422874
 20
-6.2854386565
 11
-4.4771422874
 21
-6.2446151426
  0
LINE
  5
29B
100
AcDbEntity
  8
0
100
AcDbLine
 62
250
  6
CONTINUOUS
 10
-4.3536739042
 20
-6.3279181795
 11
-4.3536739042
 21
-6.2870946657
  0
LINE
  5
29C
100
AcDbEntity
  8
0
100
AcDbLine
 62
250
  6
CONTINUOUS
 10
-4.2357907831
 20
-6.6247944097
 11
-4.2357907831
 21
-6.5839708959
  0
LINE
  5
29D
100
AcDbEntity
  8
0
100
AcDbLine
 62
250
  6
CONTINUOUS
 10
-4.1586648787
 20
-7.0473002229
 11
-4.1586648787
 21
-7.0064767091
  0
LINE
  5
29E
100
AcDbEntity
  8
0
100
AcDbLine
 62
7
  6
CONTINUOUS
 10
-4.1586648616
 20
-6.1067091019
 11
-4.1586648616
 21
-6.065885588
  0
LINE
  5
29F
100
AcDbEntity
  8
0
100
AcDbLine
 62
7
  6
CONTINUOUS
 10
-8.3515865395
 20
-13.5629802858
 11
-8.2241927676
 21
-11.5042371794
  0
LINE
  5
2A0
100
AcDbEntity
  8
0
100
AcDbLine
 62
7
  6
CONTINUOUS
 10
-8.3303733361
 20
-13.550732048
 11
-8.2075116586
 21
-11.5652297128
  0
LINE
  5
2A1
100
AcDbEntity
  8
0
100
AcDbLine
 62
7
  6
CONTINUOUS
 10
-8.6609825259
 20
-10.1188562513
 11
-8.916341412
 21
-13.2368979005
  0
LINE
  5
2A2
100
AcDbEntity
  8
0
100
AcDbLine
 62
7
  6
CONTINUOUS
 10
-10.6334696199
 20
-8.9799669242
 11
-11.1890207905
 21
-10.9069315154
  0
LINE
  5
2A3
100
AcDbEntity
  8
0
100
AcDbLine
 62
7
  6
CONTINUOUS
 10
-10.9525996382
 20
-12.061187921
 11
-10.043541039
 21
-9.3205842933
  0
LINE
  5
2A4
100
AcDbEntity
  8
0
100
AcDbLine
 62
7
  6
CONTINUOUS
 10
-10.9313864347
 20
-12.0489396832
 11
-10.0223278355
 21
-9.3083360555
  0
LINE
  5
2A5
100
AcDbEntity
  8
0
100
AcDbLine
 62
7
  6
CONTINUOUS
 10
-5.904939801
 20
-0.1318908518
 11
-7.8364649063
 21
-2.2824507343
  0
LINE
  5
2A6
100
AcDbEntity
  8
0
100
AcDbLine
 62
7
  6
CONTINUOUS
 10
-13.737803075
 20
1.8197651553
 11
-12.6912850389
 21
2.4240115534
  0
LINE
  5
2A7
100
AcDbEntity
  8
0
100
AcDbLine
 62
250
  6
CONTINUOUS
 10
-12.4412729588
 20
2.3992409646
 11
-13.487790995
 21
1.7949945664
  0
LINE
  5
2A8
100
AcDbEntity
  8
0
100
AcDbLine
 62
7
  6
CONTINUOUS
 10
-12.5685521794
 20
1.2642375951
 11
-11.5220341433
 21
1.8684839932
  0
LINE
  5
2A9
100
AcDbEntity
  8
0
100
AcDbLine
 62
7
  6
CONTINUOUS
 10
-12.8938212988
 20
2.0562903062
 11
-12.9770001773
 21
2.0226618295
  0
LINE
  5
2AA
100
AcDbEntity
  8
0
100
AcDbLine
 62
7
  6
CONTINUOUS
 10
-4.7875847628
 20
-6.335608588
 11
-4.9161277006
 21
-6.2729749309
  0
LINE
  5
2AB
100
AcDbEntity
  8
0
100
AcDbLine
 62
7
  6
CONTINUOUS
 10
4.4405073858
 20
-12.0772696496
 11
4.7049348731
 21
-12.2299467667
  0
LINE
  5
2AC
100
AcDbEntity
  8
0
100
AcDbLine
 62
7
  6
CONTINUOUS
 10
-15.5866073643
 20
-0.4716983744
 11
4.4360751373
 21
-12.0325443076
  0
LINE
  5
2AD
100
AcDbEntity
  8
0
100
AcDbLine
 62
250
  6
CONTINUOUS
 10
4.4360853883
 20
-12.0325265535
 11
4.6670522934
 21
-12.1658839498
  0
LINE
  5
2AE
100
AcDbEntity
  8
0
100
AcDbLine
 62
7
  6
CONTINUOUS
 10
-6.2968671593
 20
-5.8127290241
 11
-6.2059464772
 21
-5.8652254864
  0
LINE
  5
2AF
100
AcDbEntity
  8
0
100
AcDbLine
 62
7
  6
CONTINUOUS
 10
-7.344021841
 20
-5.1900128194
 11
-7.2311548819
 21
-5.255180787
  0
LINE
  5
2B0
100
AcDbEntity
  8
0
100
AcDbLine
 62
7
  6
CONTINUOUS
 10
-5.8855296425
 20
-6.0321279356
 11
-5.2779292105
 21
-6.38294881
  0
LINE
  5
2B1
100
AcDbEntity
  8
0
100
AcDbLine
 62
7
  6
CONTINUOUS
 10
-6.2968671593
 20
-5.7719055103
 11
-6.2059464772
 21
-5.8244019726
  0
LINE
  5
2B2
100
AcDbEntity
  8
0
100
AcDbLine
 62
7
  6
CONTINUOUS
 10
-7.344021841
 20
-5.1491893055
 11
-7.2311548819
 21
-5.2143572731
  0
LINE
  5
2B3
100
AcDbEntity
  8
0
100
AcDbLine
 62
7
  6
CONTINUOUS
 10
-5.8855296425
 20
-5.9913044217
 11
-5.2779292105
 21
-6.3421252962
  0
LINE
  5
2B4
100
AcDbEntity
  8
0
100
AcDbLine
 62
7
  6
CONTINUOUS
 10
-5.1694515027
 20
-6.2794916272
 11
-5.6202923119
 21
-6.0191817943
  0
LINE
  5
2B5
100
AcDbEntity
  8
0
100
AcDbLine
 62
7
  6
CONTINUOUS
 10
-4.1586648616
 20
-6.1067091019
 11
-3.7918472171
 21
-6.3185050125
  0
LINE
  5
2B6
100
AcDbEntity
  8
0
100
AcDbLine
 62
7
  6
CONTINUOUS
 10
-4.1586648616
 20
-6.065885588
 11
-3.7918472171
 21
-6.2776814986
  0
LINE
  5
2B7
100
AcDbEntity
  8
0
100
AcDbLine
 62
7
  6
CONTINUOUS
 10
-3.6839965296
 20
-6.2154098633
 11
-4.1411078289
 21
-5.951479528
  0
LINE
  5
2B8
100
AcDbEntity
  8
0
100
AcDbLine
 62
7
  6
CONTINUOUS
 10
-6.3081537942
 20
-4.681428013
 11
-6.3808902796
 21
-4.639430878
  0
LINE
  5
2B9
100
AcDbEntity
  8
0
100
AcDbLine
 62
7
  6
CONTINUOUS
 10
-4.9894912678
 20
-5.4290495477
 11
-5.0797848132
 21
-5.3769151863
  0
LINE
  5
2BA
100
AcDbEntity
  8
0
100
AcDbLine
 62
250
  6
CONTINUOUS
 10
2.4680735225
 20
-9.6101561982
 11
-10.96695532
 21
-1.8529389249
  0
LINE
  5
2BB
100
AcDbEntity
  8
0
100
AcDbLine
 62
7
  6
CONTINUOUS
 10
2.5430771465
 20
-9.6027250215
 11
-10.891951696
 21
-1.8455077483
  0
LINE
  5
2BC
100
AcDbEntity
  8
0
100
AcDbLine
 62
7
  6
CONTINUOUS
 10
-10.6444535074
 20
-1.9790713301
 11
2.7349446664
 21
-9.7041681524
  0
LINE
  5
2BD
100
AcDbEntity
  8
0
100
AcDbLine
 62
250
  6
CONTINUOUS
 10
-10.291115492
 20
-1.3810704508
 11
3.1439133505
 21
-9.138287724
  0
LINE
  5
2BE
100
AcDbEntity
  8
0
100
AcDbLine
 62
7
  6
CONTINUOUS
 10
-7.8364649063
 20
-2.3232742481
 11
-7.3162344266
 21
-2.6236488071
  0
LINE
  5
2BF
100
AcDbEntity
  8
0
100
AcDbLine
 62
7
  6
CONTINUOUS
 10
-6.1881021257
 20
-3.2750182588
 11
-5.5977704939
 21
-3.6158683444
  0
LINE
  5
2C0
100
AcDbEntity
  8
0
100
AcDbLine
 62
7
  6
CONTINUOUS
 10
-5.2799762003
 20
-3.7993587866
 11
-4.7152213279
 21
-4.1254411719
  0
LINE
  5
2C1
100
AcDbEntity
  8
0
100
AcDbLine
 62
7
  6
CONTINUOUS
 10
-3.895297074
 20
-4.5988551601
 11
-3.8125033552
 21
-4.6466592157
  0
LINE
  5
2C2
100
AcDbEntity
  8
0
100
AcDbLine
 62
7
  6
CONTINUOUS
 10
-2.9893129751
 20
-5.1219590241
 11
-2.4118117958
 21
-5.4554009673
  0
LINE
  5
2C3
100
AcDbEntity
  8
0
100
AcDbLine
 62
7
  6
CONTINUOUS
 10
-2.3191143394
 20
-5.5089233168
 11
-1.7351869738
 21
-5.8460756594
  0
LINE
  5
2C4
100
AcDbEntity
  8
0
100
AcDbLine
 62
7
  6
CONTINUOUS
 10
-0.615431767
 20
-6.492608282
 11
0.0067536111
 21
-6.8518503215
  0
LINE
  5
2C5
100
AcDbEntity
  8
0
100
AcDbLine
 62
7
  6
CONTINUOUS
 10
0.1801033617
 20
-6.9519403863
 11
0.7680597589
 21
-7.2914190412
  0
LINE
  5
2C6
100
AcDbEntity
  8
0
100
AcDbLine
 62
7
  6
CONTINUOUS
 10
1.6720713497
 20
-7.8133840038
 11
2.2399018408
 21
-8.1412422128
  0
LINE
  5
2C7
100
AcDbEntity
  8
0
100
AcDbLine
 62
7
  6
CONTINUOUS
 10
-7.8364649063
 20
-2.2824507343
 11
-7.3162344266
 21
-2.5828252933
  0
LINE
  5
2C8
100
AcDbEntity
  8
0
100
AcDbLine
 62
7
  6
CONTINUOUS
 10
-6.1881021257
 20
-3.234194745
 11
-5.5977704939
 21
-3.5750448306
  0
LINE
  5
2C9
100
AcDbEntity
  8
0
100
AcDbLine
 62
7
  6
CONTINUOUS
 10
-5.2799762003
 20
-3.7585352728
 11
-4.7152213279
 21
-4.0846176581
  0
LINE
  5
2CA
100
AcDbEntity
  8
0
100
AcDbLine
 62
7
  6
CONTINUOUS
 10
-3.895297074
 20
-4.5580316462
 11
-3.8125033552
 21
-4.6058357018
  0
LINE
  5
2CB
100
AcDbEntity
  8
0
100
AcDbLine
 62
7
  6
CONTINUOUS
 10
-2.9893129751
 20
-5.0811355103
 11
-2.4118117958
 21
-5.4145774534
  0
LINE
  5
2CC
100
AcDbEntity
  8
0
100
AcDbLine
 62
7
  6
CONTINUOUS
 10
-2.3191143394
 20
-5.468099803
 11
-1.7351869738
 21
-5.8052521456
  0
LINE
  5
2CD
100
AcDbEntity
  8
0
100
AcDbLine
 62
7
  6
CONTINUOUS
 10
-0.615431767
 20
-6.4517847682
 11
0.0067536111
 21
-6.8110268076
  0
LINE
  5
2CE
100
AcDbEntity
  8
0
100
AcDbLine
 62
7
  6
CONTINUOUS
 10
0.1801033617
 20
-6.9111168724
 11
0.7680597589
 21
-7.2505955274
  0
LINE
  5
2CF
100
AcDbEntity
  8
0
100
AcDbLine
 62
7
  6
CONTINUOUS
 10
1.6720713497
 20
-7.77256049
 11
2.2399018408
 21
-8.1004186989
  0
LINE
  5
2D0
100
AcDbEntity
  8
0
100
AcDbLine
 62
7
  6
CONTINUOUS
 10
-1.0077063249
 20
-5.6141442533
 11
-0.2295495618
 21
-6.0634422156
  0
LINE
  5
2D1
100
AcDbEntity
  8
0
100
AcDbLine
 62
7
  6
CONTINUOUS
 10
-1.0077063249
 20
-5.5733207394
 11
-0.2037732908
 21
-6.0375015976
  0
LINE
  5
2D2
100
AcDbEntity
  8
0
100
AcDbLine
 62
7
  6
CONTINUOUS
 10
0.1151233822
 20
-5.7171375063
 11
-0.4500769675
 21
-5.390797908
  0
LINE
  5
2D3
100
AcDbEntity
  8
0
100
AcDbLine
 62
7
  6
CONTINUOUS
 10
1.8748149349
 20
-6.6523924735
 11
2.1913366932
 21
-6.8351481698
  0
LINE
  5
2D4
100
AcDbEntity
  8
0
100
AcDbLine
 62
7
  6
CONTINUOUS
 10
1.8748149349
 20
-6.6115689596
 11
2.1913366932
 21
-6.7943246559
  0
LINE
  5
2D5
100
AcDbEntity
  8
0
100
AcDbLine
 62
7
  6
CONTINUOUS
 10
9.2386209524
 20
-10.8043593836
 11
9.1803784746
 21
-10.7707309069
  0
LINE
  5
2D6
100
AcDbEntity
  8
0
100
AcDbLine
 62
7
  6
CONTINUOUS
 10
-12.9770001773
 20
2.0226618295
 11
-13.035242655
 21
2.0562903062
  0
LINE
  5
2D7
100
AcDbEntity
  8
0
100
AcDbLine
 62
7
  6
CONTINUOUS
 10
9.2386209524
 20
-10.722704465
 11
8.3900928149
 21
-10.232774953
  0
LINE
  5
2D8
100
AcDbEntity
  8
0
100
AcDbLine
 62
7
  6
CONTINUOUS
 10
-12.0452931613
 20
1.5663607942
 11
-12.8938212988
 21
2.0562903062
  0
LINE
  5
2D9
100
AcDbEntity
  8
0
100
AcDbLine
 62
7
  6
CONTINUOUS
 10
-12.8938212988
 20
2.1379452248
 11
-12.835578821
 21
2.1043167481
  0
LINE
  5
2DA
100
AcDbEntity
  8
0
100
AcDbLine
 62
7
  6
CONTINUOUS
 10
9.3217998309
 20
-10.6890759883
 11
9.3800423086
 21
-10.722704465
  0
LINE
  5
2DB
100
AcDbEntity
  8
0
100
AcDbLine
 62
7
  6
CONTINUOUS
 10
2.6557806804
 20
-6.5276299112
 11
2.3184119613
 21
-6.332837441
  0
LINE
  5
2DC
100
AcDbEntity
  8
0
100
AcDbLine
 62
7
  6
CONTINUOUS
 10
-5.2070736694
 20
-5.6650150217
 11
-5.1029854184
 21
-5.7388719547
  0
LINE
  5
2DD
100
AcDbEntity
  8
0
100
AcDbLine
 62
7
  6
CONTINUOUS
 10
-5.2070736694
 20
-5.6241915079
 11
-5.1029854184
 21
-5.6980484409
  0
LINE
  5
2DE
100
AcDbEntity
  8
0
100
AcDbLine
 62
7
  6
CONTINUOUS
 10
-4.7023076259
 20
-6.213512072
 11
-4.6101329171
 21
-6.2826625322
  0
LINE
  5
2DF
100
AcDbEntity
  8
0
100
AcDbLine
 62
7
  6
CONTINUOUS
 10
-4.7023076259
 20
-6.1726885582
 11
-4.6101329171
 21
-6.2418390184
  0
LINE
  5
2E0
100
AcDbEntity
  8
0
100
AcDbLine
 62
7
  6
CONTINUOUS
 10
-3.6296116005
 20
-16.2893894354
 11
-4.497337687
 21
-12.5228925985
  0
LINE
  5
2E1
100
AcDbEntity
  8
0
100
AcDbLine
 62
7
  6
CONTINUOUS
 10
-3.608398397
 20
-16.2771411976
 11
-4.4761244836
 21
-12.5106443607
  0
LINE
  5
2E2
100
AcDbEntity
  8
0
100
AcDbLine
 62
7
  6
CONTINUOUS
 10
-4.4047243763
 20
-15.1899424229
 11
-4.2517969786
 21
-15.9301473959
  0
LINE
  5
2E3
100
AcDbEntity
  8
0
100
AcDbLine
 62
7
  6
CONTINUOUS
 10
-4.7939661533
 20
-13.248894481
 11
-4.5227016073
 21
-14.6173815678
  0
LINE
  5
2E4
100
AcDbEntity
  8
0
100
AcDbLine
 62
250
  6
CONTINUOUS
 10
-3.9379475073
 20
-7.1124681676
 11
-3.9379475073
 21
-7.0716446538
  0
LINE
  5
2E5
100
AcDbEntity
  8
0
100
AcDbLine
 62
7
  6
CONTINUOUS
 10
-3.895297074
 20
-4.5988551601
 11
-3.895297074
 21
-4.5580316462
  0
LINE
  5
2E6
100
AcDbEntity
  8
0
100
AcDbLine
 62
250
  6
CONTINUOUS
 10
-3.8733623283
 20
-6.6704120313
 11
-3.8733623283
 21
-6.6295885175
  0
LINE
  5
2E7
100
AcDbEntity
  8
0
100
AcDbLine
 62
7
  6
CONTINUOUS
 10
-3.8125033552
 20
-4.6466592157
 11
-3.8125033552
 21
-4.6058357018
  0
LINE
  5
2E8
100
AcDbEntity
  8
0
100
AcDbLine
 62
7
  6
CONTINUOUS
 10
-3.7918472171
 20
-6.3185050125
 11
-3.7918472171
 21
-6.2776814986
  0
LINE
  5
2E9
100
AcDbEntity
  8
0
100
AcDbLine
 62
250
  6
CONTINUOUS
 10
-3.6848119404
 20
-7.0811153479
 11
-3.6848119404
 21
-7.0402918341
  0
LINE
  5
2EA
100
AcDbEntity
  8
0
100
AcDbLine
 62
7
  6
CONTINUOUS
 10
-3.6839965296
 20
-6.2562333772
 11
-3.6839965296
 21
-6.2154098633
  0
LINE
  5
2EB
100
AcDbEntity
  8
0
100
AcDbLine
 62
7
  6
CONTINUOUS
 10
-3.5790937707
 20
-1.5156287138
 11
-3.5790937707
 21
-1.4748052
  0
LINE
  5
2EC
100
AcDbEntity
  8
0
100
AcDbLine
 62
250
  6
CONTINUOUS
 10
-3.5046074767
 20
-6.5250514623
 11
-3.5046074767
 21
-6.4842279484
  0
LINE
  5
2ED
100
AcDbEntity
  8
0
100
AcDbLine
 62
7
  6
CONTINUOUS
 10
-3.4562617708
 20
-13.162148311
 11
-3.4562617708
 21
-16.3894795459
  0
LINE
  5
2EE
100
AcDbEntity
  8
0
100
AcDbLine
 62
250
  6
CONTINUOUS
 10
-3.3899154527
 20
-6.9495481983
 11
-3.3899154527
 21
-6.9087246845
  0
LINE
  5
2EF
100
AcDbEntity
  8
0
100
AcDbLine
 62
7
  6
CONTINUOUS
 10
-3.3780019105
 20
-7.076625653
 11
-3.3780019105
 21
-7.0358021391
  0
LINE
  5
2F0
100
AcDbEntity
  8
0
100
AcDbLine
 62
250
  6
CONTINUOUS
 10
-3.3146706671
 20
-6.5585403926
 11
-3.3146706671
 21
-6.5177168787
  0
LINE
  5
2F1
100
AcDbEntity
  8
0
100
AcDbLine
 62
250
  6
CONTINUOUS
 10
-3.2224961775
 20
-7.0882111404
 11
-3.2224961775
 21
-7.0473876266
  0
LINE
  5
2F2
100
AcDbEntity
  8
0
100
AcDbLine
 62
250
  6
CONTINUOUS
 10
-3.1936524032
 20
-6.8123333945
 11
-3.1936524032
 21
-6.7715098806
  0
LINE
  5
2F3
100
AcDbEntity
  8
0
100
AcDbLine
 62
250
  6
CONTINUOUS
 10
-3.1290672775
 20
-7.1218813319
 11
-3.1290672775
 21
-7.0810578181
  0
LINE
  5
2F4
100
AcDbEntity
  8
0
100
AcDbLine
 62
250
  6
CONTINUOUS
 10
-3.1143832081
 20
-6.7004164404
 11
-3.1143832081
 21
-6.6595929265
  0
LINE
  5
2F5
100
AcDbEntity
  8
0
100
AcDbLine
 62
7
  6
CONTINUOUS
 10
-3.1057113076
 20
-6.6282647756
 11
-3.1057113074
 21
-6.6143436082
  0
LINE
  5
2F6
100
AcDbEntity
  8
0
100
AcDbLine
 62
250
  6
CONTINUOUS
 10
-3.0391521466
 20
-7.2124748654
 11
-3.0391521466
 21
-7.1716513516
  0
LINE
  5
2F7
100
AcDbEntity
  8
0
100
AcDbLine
 62
7
  6
CONTINUOUS
 10
-2.9893129751
 20
-5.1219590241
 11
-2.9893129751
 21
-5.0811355103
  0
LINE
  5
2F8
100
AcDbEntity
  8
0
100
AcDbLine
 62
250
  6
CONTINUOUS
 10
-2.9726793628
 20
-7.2994062777
 11
-2.9726793628
 21
-7.2585827639
  0
LINE
  5
2F9
100
AcDbEntity
  8
0
100
AcDbLine
 62
250
  6
CONTINUOUS
 10
-2.9089768497
 20
-7.3459866628
 11
-2.9089768497
 21
-7.305163149
  0
LINE
  5
2FA
100
AcDbEntity
  8
0
100
AcDbLine
 62
7
  6
CONTINUOUS
 10
-2.887879885
 20
-14.9049193022
 11
-2.887879885
 21
-14.0084805766
  0
LINE
  5
2FB
100
AcDbEntity
  8
0
100
AcDbLine
 62
7
  6
CONTINUOUS
 10
-2.8683053736
 20
-16.7289582008
 11
-2.8683053736
 21
-15.4510285741
  0
LINE
  5
2FC
100
AcDbEntity
  8
0
100
AcDbLine
 62
7
  6
CONTINUOUS
 10
-2.8666666816
 20
-14.8926710644
 11
-2.8666666816
 21
-14.0166652667
  0
LINE
  5
2FD
100
AcDbEntity
  8
0
100
AcDbLine
 62
7
  6
CONTINUOUS
 10
-2.8470921701
 20
-16.716709963
 11
-2.8470921701
 21
-15.4632768119
  0
LINE
  5
2FE
100
AcDbEntity
  8
0
100
AcDbLine
 62
250
  6
CONTINUOUS
 10
-2.7998718545
 20
-7.3894321284
 11
-2.7998718545
 21
-7.3486086146
  0
LINE
  5
2FF
100
AcDbEntity
  8
0
100
AcDbLine
 62
7
  6
CONTINUOUS
 10
-2.7695187316
 20
-1.9828712232
 11
-2.7695187316
 21
-1.9420477094
  0
LINE
  5
300
100
AcDbEntity
  8
0
100
AcDbLine
 62
7
  6
CONTINUOUS
 10
-2.6638046533
 20
-7.4049999282
 11
-2.6638046533
 21
-7.3641764143
  0
LINE
  5
301
100
AcDbEntity
  8
0
100
AcDbLine
 62
7
  6
CONTINUOUS
 10
-2.5308724436
 20
-7.3282465364
 11
-2.5308724436
 21
-7.2874230225
  0
LINE
  5
302
100
AcDbEntity
  8
0
100
AcDbLine
 62
7
  6
CONTINUOUS
 10
-2.4118117958
 20
-5.4554009673
 11
-2.4118117958
 21
-5.4145774534
  0
LINE
  5
303
100
AcDbEntity
  8
0
100
AcDbLine
 62
7
  6
CONTINUOUS
 10
-2.3191143394
 20
-5.5089233168
 11
-2.3191143394
 21
-5.468099803
  0
LINE
  5
304
100
AcDbEntity
  8
0
100
AcDbLine
 62
7
  6
CONTINUOUS
 10
-1.9385478924
 20
-15.7414900641
 11
-1.9385478924
 21
-15.7221939071
  0
LINE
  5
305
100
AcDbEntity
  8
0
100
AcDbLine
 62
7
  6
CONTINUOUS
 10
-1.7351869738
 20
-5.8460756594
 11
-1.7351869738
 21
-5.8052521456
  0
LINE
  5
306
100
AcDbEntity
  8
0
100
AcDbLine
 62
7
  6
CONTINUOUS
 10
-1.6066908224
 20
-2.6544694562
 11
-1.6066908224
 21
-2.6136459423
  0
LINE
  5
307
100
AcDbEntity
  8
0
100
AcDbLine
 62
7
  6
CONTINUOUS
 10
-1.0077063249
 20
-5.6141442533
 11
-1.0077063249
 21
-5.5733207394
  0
LINE
  5
308
100
AcDbEntity
  8
0
100
AcDbLine
 62
7
  6
CONTINUOUS
 10
-0.615431767
 20
-6.492608282
 11
-0.615431767
 21
-6.4517847682
  0
LINE
  5
309
100
AcDbEntity
  8
0
100
AcDbLine
 62
7
  6
CONTINUOUS
 10
0.0067536111
 20
-6.8518503215
 11
0.0067536111
 21
-6.8110268076
  0
LINE
  5
30A
100
AcDbEntity
  8
0
100
AcDbLine
 62
7
  6
CONTINUOUS
 10
0.1518123247
 20
-3.669807134
 11
0.1518123247
 21
-3.6289836202
  0
LINE
  5
30B
100
AcDbEntity
  8
0
100
AcDbLine
 62
7
  6
CONTINUOUS
 10
0.1801033617
 20
-6.9519403863
 11
0.1801033617
 21
-6.9111168724
  0
LINE
  5
30C
100
AcDbEntity
  8
0
100
AcDbLine
 62
7
  6
CONTINUOUS
 10
-5.8425899459
 20
-29.6343897749
 11
-5.8658235756
 21
-29.7572105129
  0
LINE
  5
30D
100
AcDbEntity
  8
0
100
AcDbLine
 62
7
  6
CONTINUOUS
 10
-5.0879019569
 20
-14.2910419695
 11
-4.7939661533
 21
-13.248894481
  0
LINE
  5
30E
100
AcDbEntity
  8
0
100
AcDbLine
 62
7
  6
CONTINUOUS
 10
-5.0666887535
 20
-14.2787937317
 11
-4.7866366341
 21
-13.2858707557
  0
LINE
  5
30F
100
AcDbEntity
  8
0
100
AcDbLine
 62
7
  6
CONTINUOUS
 10
-5.3715521854
 20
-15.2836147733
 11
-5.2086574104
 21
-14.7257615647
  0
LINE
  5
310
100
AcDbEntity
  8
0
100
AcDbLine
 62
7
  6
CONTINUOUS
 10
-5.3503389819
 20
-15.2713665355
 11
-5.1935652492
 21
-14.7344755894
  0
LINE
  5
311
100
AcDbEntity
  8
0
100
AcDbLine
 62
7
  6
CONTINUOUS
 10
-5.0684126798
 20
-12.1931610549
 11
-5.9554795511
 21
-14.9464624307
  0
LINE
  5
312
100
AcDbEntity
  8
0
100
AcDbLine
 62
7
  6
CONTINUOUS
 10
-6.8967100946
 20
-11.1375250415
 11
-7.4870417264
 21
-12.6096814973
  0
LINE
  5
313
100
AcDbEntity
  8
0
100
AcDbLine
 62
7
  6
CONTINUOUS
 10
-7.4488685668
 20
-14.0841983295
 11
-6.7469639702
 21
-12.3660594849
  0
LINE
  5
314
100
AcDbEntity
  8
0
100
AcDbLine
 62
7
  6
CONTINUOUS
 10
-7.4276553634
 20
-14.0719500917
 11
-6.7450315432
 21
-12.4010071924
  0
LINE
  5
315
100
AcDbEntity
  8
0
100
AcDbLine
 62
7
  6
CONTINUOUS
 10
-2.7411432436
 20
-3.0919208478
 11
-3.895297074
 21
-4.5580316462
  0
LINE
  5
316
100
AcDbEntity
  8
0
100
AcDbLine
 62
7
  6
CONTINUOUS
 10
-2.5927547643
 20
-3.8574867446
 11
-1.6066908224
 21
-2.6136459423
  0
LINE
  5
317
100
AcDbEntity
  8
0
100
AcDbLine
 62
7
  6
CONTINUOUS
 10
-2.5519133875
 20
-3.846792128
 11
-1.6066908224
 21
-2.6544694562
  0
LINE
  5
318
100
AcDbEntity
  8
0
100
AcDbLine
 62
7
  6
CONTINUOUS
 10
-6.6712300055
 20
-1.9373946038
 11
-5.2636575901
 21
-0.5021591632
  0
LINE
  5
319
100
AcDbEntity
  8
0
100
AcDbLine
 62
7
  6
CONTINUOUS
 10
-6.6127983239
 20
-1.918638078
 11
-5.2636575901
 21
-0.5429826771
  0
LINE
  5
31A
100
AcDbEntity
  8
0
100
AcDbLine
 62
7
  6
CONTINUOUS
 10
2.829205756
 20
2.7069379118
 11
7.9320525473
 21
5.6532576955
  0
LINE
  5
31B
100
AcDbEntity
  8
0
100
AcDbLine
 62
7
  6
CONTINUOUS
 10
2.5187715912
 20
2.4988291373
 11
2.84170636
 21
2.6852876255
  0
LINE
  5
31C
100
AcDbEntity
  8
ASSI
100
AcDbLine
 62
7
  6
CONTINUOUS
 10
-0.8031005461
 20
0.5519538196
 11
2.5006535734
 21
2.4595000425
  0
LINE
  5
31D
100
AcDbEntity
  8
0
100
AcDbLine
 62
7
  6
CONTINUOUS
 10
-3.3598503635
 20
-1.6011976238
 11
-6.1881021257
 21
-3.234194745
  0
LINE
  5
31E
100
AcDbEntity
  8
0
100
AcDbLine
 62
7
  6
CONTINUOUS
 10
-5.5977704939
 20
-3.5750448306
 11
-2.7695187316
 21
-1.9420477094
  0
LINE
  5
31F
100
AcDbEntity
  8
0
100
AcDbLine
 62
7
  6
CONTINUOUS
 10
-5.5977704939
 20
-3.6158683444
 11
-2.7695187316
 21
-1.9828712232
  0
LINE
  5
320
100
AcDbEntity
  8
0
100
AcDbLine
 62
7
  6
CONTINUOUS
 10
-6.8775049982
 20
-4.6191564252
 11
-6.98660974
 21
-4.6821521357
  0
LINE
  5
321
100
AcDbEntity
  8
0
100
AcDbLine
 62
7
  6
CONTINUOUS
 10
-4.1690223516
 20
-1.1341878309
 11
-6.6712300055
 21
-1.9373946038
  0
LINE
  5
322
100
AcDbEntity
  8
0
100
AcDbLine
 62
7
  6
CONTINUOUS
 10
-7.3162344266
 20
-2.5828252933
 11
-3.5790937707
 21
-1.4748052
  0
LINE
  5
323
100
AcDbEntity
  8
0
100
AcDbLine
 62
7
  6
CONTINUOUS
 10
-7.3162344266
 20
-2.6236488071
 11
-3.5790937707
 21
-1.5156287138
  0
LINE
  5
324
100
AcDbEntity
  8
0
100
AcDbLine
 62
7
  6
CONTINUOUS
 10
-0.4322628264
 20
-3.2917459482
 11
-2.5927547643
 21
-3.8574867446
  0
LINE
  5
325
100
AcDbEntity
  8
0
100
AcDbLine
 62
7
  6
CONTINUOUS
 10
-3.8125033552
 20
-4.6466592157
 11
-1.3735346549
 21
-4.0164580833
  0
LINE
  5
326
100
AcDbEntity
  8
0
100
AcDbLine
 62
7
  6
CONTINUOUS
 10
-3.8125033552
 20
-4.6058357018
 11
-1.2716127178
 21
-3.9492991269
  0
LINE
  5
327
100
AcDbEntity
  8
0
100
AcDbLine
 62
7
  6
CONTINUOUS
 10
1.9671095812
 20
-4.6771135051
 11
1.3960345884
 21
-4.3473819615
  0
LINE
  5
328
100
AcDbEntity
  8
0
100
AcDbLine
 62
7
  6
CONTINUOUS
 10
0.1518123247
 20
-3.6289836202
 11
-0.4322628264
 21
-3.2917459482
  0
LINE
  5
329
100
AcDbEntity
  8
0
100
AcDbLine
 62
7
  6
CONTINUOUS
 10
-1.6066908224
 20
-2.6136459423
 11
-2.1965352576
 21
-2.2730771579
  0
LINE
  5
32A
100
AcDbEntity
  8
0
100
AcDbLine
 62
7
  6
CONTINUOUS
 10
-3.5790937707
 20
-1.4748052
 11
-4.1690223516
 21
-1.1341878309
  0
LINE
  5
32B
100
AcDbEntity
  8
0
100
AcDbLine
 62
7
  6
CONTINUOUS
 10
-5.2636575901
 20
-0.5021591632
 11
-5.904939801
 21
-0.1318908518
  0
LINE
  5
32C
100
AcDbEntity
  8
0
100
AcDbLine
 62
7
  6
CONTINUOUS
 10
-2.7695187316
 20
-1.9420477094
 11
-3.3598503635
 21
-1.6011976238
  0
LINE
  5
32D
100
AcDbEntity
  8
0
100
AcDbLine
 62
250
  6
CONTINUOUS
 10
6.6359151456
 20
-7.1220496526
 11
-6.7991136969
 21
0.6351676206
  0
LINE
  5
32E
100
AcDbEntity
  8
0
100
AcDbLine
 62
7
  6
CONTINUOUS
 10
6.8859272257
 20
-7.0972790638
 11
-6.5491016169
 21
0.6599382094
  0
LINE
  5
32F
100
AcDbEntity
  8
0
100
AcDbLine
 62
250
  6
CONTINUOUS
 10
-6.2293398861
 20
0.7600303088
 11
7.2056889565
 21
-6.9971869644
  0
LINE
  5
330
100
AcDbEntity
  8
0
100
AcDbLine
 62
250
  6
CONTINUOUS
 10
-6.1232738689
 20
0.9437420394
 11
7.3117549736
 21
-6.8134752339
  0
LINE
  5
331
100
AcDbEntity
  8
0
100
AcDbLine
 62
250
  6
CONTINUOUS
 10
11.7381201053
 20
-8.0831380165
 11
-8.3222526398
 21
3.499469791
  0
LINE
  5
332
100
AcDbEntity
  8
0
100
AcDbLine
 62
7
  6
CONTINUOUS
 10
-8.2951334746
 20
3.5145256056
 11
-8.3328251204
 21
3.5362882895
  0
LINE
  5
333
100
AcDbEntity
  8
0
100
AcDbLine
 62
7
  6
CONTINUOUS
 10
11.8490730105
 20
-8.1050109433
 11
-8.3601352195
 21
3.5635326079
  0
LINE
  5
334
100
AcDbEntity
  8
0
100
AcDbLine
 62
7
  6
CONTINUOUS
 10
11.9314070179
 20
-7.7048336184
 11
-8.0912754837
 21
3.8560123149
  0
LINE
  5
335
100
AcDbEntity
  8
0
100
AcDbLine
 62
250
  6
CONTINUOUS
 10
13.3858453916
 20
-7.809690166
 11
-7.8486575826
 21
4.4508457205
  0
LINE
  5
336
100
AcDbEntity
  8
0
100
AcDbLine
 62
7
  6
CONTINUOUS
 10
-7.5986455025
 20
4.4756163093
 11
13.6358574717
 21
-7.7849195772
  0
LINE
  5
337
100
AcDbEntity
  8
0
100
AcDbLine
 62
7
  6
CONTINUOUS
 10
0.7680597589
 20
-7.2914190412
 11
0.7680597589
 21
-7.2505955274
  0
LINE
  5
338
100
AcDbEntity
  8
0
100
AcDbLine
 62
7
  6
CONTINUOUS
 10
1.6720713497
 20
-7.8133840038
 11
1.6720713497
 21
-7.77256049
  0
LINE
  5
339
100
AcDbEntity
  8
0
100
AcDbLine
 62
7
  6
CONTINUOUS
 10
1.8748149349
 20
-6.6523924735
 11
1.8748149349
 21
-6.6115689596
  0
LINE
  5
33A
100
AcDbEntity
  8
0
100
AcDbLine
 62
7
  6
CONTINUOUS
 10
1.9671095812
 20
-4.717937019
 11
1.9671095812
 21
-4.6771135051
  0
LINE
  5
33B
100
AcDbEntity
  8
0
100
AcDbLine
 62
250
  6
CONTINUOUS
 10
2.1913366932
 20
-6.8351481698
 11
2.1913366932
 21
-6.7943246559
  0
LINE
  5
33C
100
AcDbEntity
  8
0
100
AcDbLine
 62
7
  6
CONTINUOUS
 10
2.2399018408
 20
-8.1412422128
 11
2.2399018408
 21
-8.1004186989
  0
LINE
  5
33D
100
AcDbEntity
  8
0
100
AcDbLine
 62
250
  6
CONTINUOUS
 10
2.8035332492
 20
-7.5827628457
 11
2.8035332492
 21
-7.5419393319
  0
LINE
  5
33E
100
AcDbEntity
  8
0
100
AcDbLine
 62
7
  6
CONTINUOUS
 10
3.0346524534
 20
-7.0504238281
 11
3.0346524534
 21
-7.0155539467
  0
LINE
  5
33F
100
AcDbEntity
  8
0
100
AcDbLine
 62
7
  6
CONTINUOUS
 10
3.0947756819
 20
-5.9253982727
 11
3.0947756819
 21
-5.8845747589
  0
LINE
  5
340
100
AcDbEntity
  8
0
100
AcDbLine
 62
250
  6
CONTINUOUS
 10
3.5738952507
 20
-6.1828113547
 11
3.5738952507
 21
-6.1419878408
  0
LINE
  5
341
100
AcDbEntity
  8
0
100
AcDbLine
 62
250
  6
CONTINUOUS
 10
3.8399038456
 20
-13.7296323143
 11
3.8399038456
 21
-33.8964481511
  0
LINE
  5
342
100
AcDbEntity
  8
0
100
AcDbLine
 62
250
  6
CONTINUOUS
 10
5.1882613301
 20
-13.7644052763
 11
5.1882613301
 21
-33.9312211131
  0
LINE
  5
343
100
AcDbEntity
  8
0
100
AcDbLine
 62
7
  6
CONTINUOUS
 10
0.0067536111
 20
-6.8110268076
 11
1.9671095812
 21
-4.6771135051
  0
LINE
  5
344
100
AcDbEntity
  8
0
100
AcDbLine
 62
7
  6
CONTINUOUS
 10
0.0067536111
 20
-6.8518503215
 11
1.9671095812
 21
-4.717937019
  0
LINE
  5
345
100
AcDbEntity
  8
0
100
AcDbLine
 62
7
  6
CONTINUOUS
 10
-0.2037732908
 20
-6.0375015976
 11
-0.615431767
 21
-6.4517847682
  0
LINE
  5
346
100
AcDbEntity
  8
0
100
AcDbLine
 62
7
  6
CONTINUOUS
 10
0.8933962183
 20
-4.9545230265
 11
0.1151233822
 21
-5.7171375063
  0
LINE
  5
347
100
AcDbEntity
  8
0
100
AcDbLine
 62
7
  6
CONTINUOUS
 10
-2.4118117958
 20
-5.4145774534
 11
0.1518123247
 21
-3.6289836202
  0
LINE
  5
348
100
AcDbEntity
  8
0
100
AcDbLine
 62
7
  6
CONTINUOUS
 10
-2.4118117958
 20
-5.4554009673
 11
0.1518123247
 21
-3.669807134
  0
LINE
  5
349
100
AcDbEntity
  8
0
100
AcDbLine
 62
7
  6
CONTINUOUS
 10
-1.2716127178
 20
-3.9492991269
 11
-2.9893129751
 21
-5.0811355103
  0
LINE
  5
34A
100
AcDbEntity
  8
0
100
AcDbLine
 62
7
  6
CONTINUOUS
 10
-12.3481738658
 20
-7.9654217074
 11
-12.3693870692
 21
-7.9776699452
  0
LINE
  5
34B
100
AcDbEntity
  8
0
100
AcDbLine
 62
7
  6
CONTINUOUS
 10
-6.6248083944
 20
-4.7339244753
 11
-7.344021841
 21
-5.1491893055
  0
LINE
  5
34C
100
AcDbEntity
  8
0
100
AcDbLine
 62
7
  6
CONTINUOUS
 10
-7.2311548819
 20
-5.2143572731
 11
-6.3081537942
 21
-4.681428013
  0
LINE
  5
34D
100
AcDbEntity
  8
0
100
AcDbLine
 62
7
  6
CONTINUOUS
 10
-7.2311548819
 20
-5.255180787
 11
-6.3081537942
 21
-4.7222515269
  0
LINE
  5
34E
100
AcDbEntity
  8
0
100
AcDbLine
 62
7
  6
CONTINUOUS
 10
-11.7068916549
 20
-8.3356900188
 11
-11.7281048583
 21
-8.3479382566
  0
LINE
  5
34F
100
AcDbEntity
  8
0
100
AcDbLine
 62
7
  6
CONTINUOUS
 10
-10.6122564165
 20
-8.9677186864
 11
-10.6334696199
 21
-8.9799669242
  0
LINE
  5
350
100
AcDbEntity
  8
0
100
AcDbLine
 62
7
  6
CONTINUOUS
 10
-5.2779292105
 20
-6.3421252962
 11
-5.1694515027
 21
-6.2794916272
  0
LINE
  5
351
100
AcDbEntity
  8
0
100
AcDbLine
 62
7
  6
CONTINUOUS
 10
-5.2779292105
 20
-6.38294881
 11
-5.1694515027
 21
-6.3203151411
  0
LINE
  5
352
100
AcDbEntity
  8
ASSI
100
AcDbLine
 62
7
  6
CONTINUOUS
 10
3.096711014
 20
-1.699748499
 11
4.450747798
 21
-0.91794463
  0
LINE
  5
353
100
AcDbEntity
  8
0
100
AcDbLine
 62
7
  6
CONTINUOUS
 10
4.4938670238
 20
-0.9219161079
 11
4.8168017926
 21
-0.7354576197
  0
LINE
  5
354
100
AcDbEntity
  8
0
100
AcDbLine
 62
7
  6
CONTINUOUS
 10
-10.0223278355
 20
-9.3083360555
 11
-10.043541039
 21
-9.3205842933
  0
LINE
  5
355
100
AcDbEntity
  8
0
100
AcDbLine
 62
7
  6
CONTINUOUS
 10
4.8293023966
 20
-0.757107906
 11
9.9321491879
 21
2.1892118776
  0
LINE
  5
356
100
AcDbEntity
  8
0
100
AcDbLine
 62
7
  6
CONTINUOUS
 10
-9.8032541339
 20
-9.4346305123
 11
-9.8244673373
 21
-9.4468787501
  0
LINE
  5
357
100
AcDbEntity
  8
0
100
AcDbLine
 62
7
  6
CONTINUOUS
 10
-3.7918472171
 20
-6.2776814986
 11
-3.6839965296
 21
-6.2154098633
  0
LINE
  5
358
100
AcDbEntity
  8
0
100
AcDbLine
 62
7
  6
CONTINUOUS
 10
-3.7918472171
 20
-6.3185050125
 11
-3.6839965296
 21
-6.2562333772
  0
LINE
  5
359
100
AcDbEntity
  8
0
100
AcDbLine
 62
7
  6
CONTINUOUS
 10
-9.2129225021
 20
-9.775480598
 11
-9.2341357055
 21
-9.7877288358
  0
LINE
  5
35A
100
AcDbEntity
  8
0
100
AcDbLine
 62
7
  6
CONTINUOUS
 10
-3.2494589726
 20
-6.9615830578
 11
-3.3780019105
 21
-7.0358021391
  0
LINE
  5
35B
100
AcDbEntity
  8
0
100
AcDbLine
 62
7
  6
CONTINUOUS
 10
-8.6397693224
 20
-10.1066080135
 11
-8.6609825259
 21
-10.1188562513
  0
LINE
  5
35C
100
AcDbEntity
  8
0
100
AcDbLine
 62
7
  6
CONTINUOUS
 10
-10.9313864347
 20
-12.0489396832
 11
-10.9525996382
 21
-12.061187921
  0
LINE
  5
35D
100
AcDbEntity
  8
0
100
AcDbLine
 62
7
  6
CONTINUOUS
 10
-8.0499248872
 20
-10.4471767979
 11
-8.0711380906
 21
-10.4594250357
  0
LINE
  5
35E
100
AcDbEntity
  8
0
100
AcDbLine
 62
7
  6
CONTINUOUS
 10
-2.6638046533
 20
-7.3641764143
 11
-2.5308724436
 21
-7.2874230225
  0
LINE
  5
35F
100
AcDbEntity
  8
0
100
AcDbLine
 62
7
  6
CONTINUOUS
 10
-2.6638046533
 20
-7.4049999282
 11
-2.5308724436
 21
-7.3282465364
  0
LINE
  5
360
100
AcDbEntity
  8
0
100
AcDbLine
 62
7
  6
CONTINUOUS
 10
-4.7152213279
 20
-4.0846176581
 11
-2.7411432436
 21
-3.0919208478
  0
LINE
  5
361
100
AcDbEntity
  8
0
100
AcDbLine
 62
7
  6
CONTINUOUS
 10
-4.7152213279
 20
-4.1254411719
 11
-2.7943387156
 21
-3.1594945574
  0
LINE
  5
362
100
AcDbEntity
  8
0
100
AcDbLine
 62
7
  6
CONTINUOUS
 10
-2.1965352576
 20
-2.2730771579
 11
-5.2799762003
 21
-3.7585352728
  0
LINE
  5
363
100
AcDbEntity
  8
0
100
AcDbLine
 62
7
  6
CONTINUOUS
 10
-4.1411078289
 20
-5.951479528
 11
-4.7023076259
 21
-6.1726885582
  0
LINE
  5
364
100
AcDbEntity
  8
0
100
AcDbLine
 62
7
  6
CONTINUOUS
 10
-4.4552543756
 20
-6.1799294523
 11
-4.1586648616
 21
-6.065885588
  0
LINE
  5
365
100
AcDbEntity
  8
0
100
AcDbLine
 62
7
  6
CONTINUOUS
 10
-4.3792736738
 20
-6.1915370551
 11
-4.1586648616
 21
-6.1067091019
  0
LINE
  5
366
100
AcDbEntity
  8
0
100
AcDbLine
 62
7
  6
CONTINUOUS
 10
-6.2059464772
 20
-5.8244019726
 11
-4.9894912678
 21
-5.4290495477
  0
LINE
  5
367
100
AcDbEntity
  8
0
100
AcDbLine
 62
7
  6
CONTINUOUS
 10
-6.2059464772
 20
-5.8652254864
 11
-4.9894912678
 21
-5.4698730615
  0
LINE
  5
368
100
AcDbEntity
  8
0
100
AcDbLine
 62
7
  6
CONTINUOUS
 10
-0.4500769675
 20
-5.390797908
 11
0.8933962183
 21
-4.9545230265
  0
LINE
  5
369
100
AcDbEntity
  8
0
100
AcDbLine
 62
7
  6
CONTINUOUS
 10
-0.4048243061
 20
-5.4169262276
 11
0.8310839477
 21
-5.0155816137
  0
LINE
  5
36A
100
AcDbEntity
  8
0
100
AcDbLine
 62
7
  6
CONTINUOUS
 10
-5.0797848132
 20
-5.3769151863
 11
-6.2968671593
 21
-5.7719055103
  0
LINE
  5
36B
100
AcDbEntity
  8
0
100
AcDbLine
 62
7
  6
CONTINUOUS
 10
-1.7351869738
 20
-5.8052521456
 11
-1.0077063249
 21
-5.5733207394
  0
LINE
  5
36C
100
AcDbEntity
  8
0
100
AcDbLine
 62
7
  6
CONTINUOUS
 10
-1.7351869738
 20
-5.8460756594
 11
-1.0077063249
 21
-5.6141442533
  0
LINE
  5
36D
100
AcDbEntity
  8
0
100
AcDbLine
 62
7
  6
CONTINUOUS
 10
1.3960345884
 20
-4.3473819615
 11
-2.3191143394
 21
-5.468099803
  0
LINE
  5
36E
100
AcDbEntity
  8
0
100
AcDbLine
 62
7
  6
CONTINUOUS
 10
8.075326277
 20
-8.751073484
 11
7.8153756671
 21
-8.2022439317
  0
LINE
  5
36F
100
AcDbEntity
  8
0
100
AcDbLine
 62
250
  6
CONTINUOUS
 10
7.2056889565
 20
-7.3153032948
 11
7.2056889565
 21
-6.9971869644
  0
LINE
  5
370
100
AcDbEntity
  8
0
100
AcDbLine
 62
250
  6
CONTINUOUS
 10
9.139626003
 20
-11.6780275584
 11
9.139626003
 21
-31.8448433952
  0
LINE
  5
371
100
AcDbEntity
  8
0
100
AcDbLine
 62
7
  6
CONTINUOUS
 10
9.6504168207
 20
-11.0240060273
 11
9.6504168207
 21
-11.2621269769
  0
LINE
  5
372
100
AcDbEntity
  8
0
100
AcDbLine
 62
7
  6
CONTINUOUS
 10
9.6628850211
 20
-11.3759043594
 11
9.6628850211
 21
-31.5427201962
  0
LINE
  5
373
100
AcDbEntity
  8
0
100
AcDbLine
 62
7
  6
CONTINUOUS
 10
5.8644162911
 20
-3.2977868385
 11
14.9324096811
 21
1.9379588962
  0
LINE
  5
374
100
AcDbEntity
  8
0
100
AcDbLine
 62
7
  6
CONTINUOUS
 10
2.9751442421
 20
-5.2972952982
 11
0.1801033617
 21
-6.9111168724
  0
LINE
  5
375
100
AcDbEntity
  8
0
100
AcDbLine
 62
7
  6
CONTINUOUS
 10
-6.8754968912
 20
-11.1252768037
 11
-6.8967100946
 21
-11.1375250415
  0
LINE
  5
376
100
AcDbEntity
  8
0
100
AcDbLine
 62
7
  6
CONTINUOUS
 10
2.3184119613
 20
-6.332837441
 11
3.0947756819
 21
-5.8845747589
  0
LINE
  5
377
100
AcDbEntity
  8
0
100
AcDbLine
 62
7
  6
CONTINUOUS
 10
0.7680597589
 20
-7.2505955274
 11
1.8748149349
 21
-6.6115689596
  0
LINE
  5
378
100
AcDbEntity
  8
0
100
AcDbLine
 62
7
  6
CONTINUOUS
 10
2.3537638837
 20
-6.3532491979
 11
3.0947756819
 21
-5.9253982727
  0
LINE
  5
379
100
AcDbEntity
  8
0
100
AcDbLine
 62
7
  6
CONTINUOUS
 10
-9.2129225021
 20
-13.0411592205
 11
-9.2341357055
 21
-13.0534074583
  0
LINE
  5
37A
100
AcDbEntity
  8
0
100
AcDbLine
 62
7
  6
CONTINUOUS
 10
0.7680597589
 20
-7.2914190412
 11
1.8748149349
 21
-6.6523924735
  0
LINE
  5
37B
100
AcDbEntity
  8
0
100
AcDbLine
 62
7
  6
CONTINUOUS
 10
-6.2914217402
 20
-11.4625144758
 11
-6.3126349436
 21
-11.4747627136
  0
LINE
  5
37C
100
AcDbEntity
  8
0
100
AcDbLine
 62
7
  6
CONTINUOUS
 10
-8.3303733361
 20
-13.550732048
 11
-8.3515865395
 21
-13.5629802858
  0
LINE
  5
37D
100
AcDbEntity
  8
0
100
AcDbLine
 62
7
  6
CONTINUOUS
 10
3.0179409529
 20
-7.0252029577
 11
3.0346524534
 21
-7.0155539467
  0
LINE
  5
37E
100
AcDbEntity
  8
0
100
AcDbLine
 62
7
  6
CONTINUOUS
 10
-5.0471994764
 20
-12.1809128171
 11
-5.0684126798
 21
-12.1931610549
  0
LINE
  5
37F
100
AcDbEntity
  8
0
100
AcDbLine
 62
7
  6
CONTINUOUS
 10
-7.4276553634
 20
-14.0719500917
 11
-7.4488685668
 21
-14.0841983295
  0
LINE
  5
380
100
AcDbEntity
  8
0
100
AcDbLine
 62
7
  6
CONTINUOUS
 10
-4.4761244836
 20
-12.5106443607
 11
-4.497337687
 21
-12.5228925985
  0
LINE
  5
381
100
AcDbEntity
  8
0
100
AcDbLine
 62
7
  6
CONTINUOUS
 10
-3.4350485673
 20
-13.1499000732
 11
-3.4562617708
 21
-13.162148311
  0
LINE
  5
382
100
AcDbEntity
  8
0
100
AcDbLine
 62
7
  6
CONTINUOUS
 10
9.8642230193
 20
-5.6072251141
 11
16.9325063216
 21
-1.5260869217
  0
LINE
  5
383
100
AcDbEntity
  8
0
100
AcDbLine
 62
7
  6
CONTINUOUS
 10
-5.0666887535
 20
-14.2787937317
 11
-5.0879019569
 21
-14.2910419695
  0
LINE
  5
384
100
AcDbEntity
  8
0
100
AcDbLine
 62
7
  6
CONTINUOUS
 10
-6.026963804
 20
-14.8806918433
 11
-6.0481770074
 21
-14.8929400811
  0
LINE
  5
385
100
AcDbEntity
  8
0
100
AcDbLine
 62
250
  6
CONTINUOUS
 10
10.1861440392
 20
-11.0737811603
 11
10.1861440392
 21
-31.2405969971
  0
LINE
  5
386
100
AcDbEntity
  8
0
100
AcDbLine
 62
250
  6
CONTINUOUS
 10
13.7996234389
 20
-8.7923127204
 11
13.7996234389
 21
-28.9591285572
  0
LINE
  5
387
100
AcDbEntity
  8
0
100
AcDbLine
 62
7
  6
CONTINUOUS
 10
14.032292001
 20
-28.5888784379
 11
14.032292001
 21
-8.4220626011
  0
LINE
  5
388
100
AcDbEntity
  8
0
100
AcDbLine
 62
7
  6
CONTINUOUS
 10
9.2386209524
 20
-10.722704465
 11
9.1803784746
 21
-10.7707309069
  0
LINE
  5
389
100
AcDbEntity
  8
0
100
AcDbLine
 62
7
  6
CONTINUOUS
 10
-5.3503389819
 20
-15.2713665355
 11
-5.3715521854
 21
-15.2836147733
  0
LINE
  5
38A
100
AcDbEntity
  8
0
100
AcDbLine
 62
250
  6
CONTINUOUS
 10
-1.9782001795
 20
-14.0254465363
 11
-1.9994133829
 21
-14.0376947741
  0
LINE
  5
38B
100
AcDbEntity
  8
0
100
AcDbLine
 62
7
  6
CONTINUOUS
 10
-2.8666666816
 20
-14.8926710644
 11
-2.887879885
 21
-14.9049193022
  0
LINE
  5
38C
100
AcDbEntity
  8
0
100
AcDbLine
 62
250
  6
CONTINUOUS
 10
-2.5292979625
 20
-15.0874635346
 11
-2.550511166
 21
-15.0997117724
  0
LINE
  5
38D
100
AcDbEntity
  8
0
100
AcDbLine
 62
7
  6
CONTINUOUS
 10
-3.608398397
 20
-16.2771411976
 11
-3.6296116005
 21
-16.2893894354
  0
LINE
  5
38E
100
AcDbEntity
  8
0
100
AcDbLine
 62
7
  6
CONTINUOUS
 10
16.2642345986
 20
-5.0502793614
 11
21.3670813899
 21
-2.1039595778
  0
LINE
  5
38F
100
AcDbEntity
  8
0
100
AcDbLine
 62
7
  6
CONTINUOUS
 10
15.9538004337
 20
-5.2583881359
 11
16.2767352026
 21
-5.0719296477
  0
LINE
  5
390
100
AcDbEntity
  8
ASSI
100
AcDbLine
 62
7
  6
CONTINUOUS
 10
12.6319282965
 20
-7.2052634536
 11
15.935682416
 21
-5.2977172308
  0
LINE
  5
391
100
AcDbEntity
  8
0
100
AcDbLine
 62
7
  6
CONTINUOUS
 10
-1.9173346889
 20
-15.7292418263
 11
-1.9385478924
 21
-15.7414900641
  0
LINE
  5
392
100
AcDbEntity
  8
0
100
AcDbLine
 62
7
  6
CONTINUOUS
 10
-2.8470921701
 20
-16.716709963
 11
-2.8683053736
 21
-16.7289582008
  0
LINE
  5
393
100
AcDbEntity
  8
0
100
AcDbLine
 62
7
  6
CONTINUOUS
 10
7.8668337969
 20
-10.5348981521
 11
8.913351833
 21
-9.9306517539
  0
LINE
  5
394
100
AcDbEntity
  8
0
100
AcDbLine
 62
250
  6
CONTINUOUS
 10
9.8325906486
 20
-10.4614087253
 11
8.7860726124
 21
-11.0656551234
  0
LINE
  5
395
100
AcDbEntity
  8
0
100
AcDbLine
 62
250
  6
CONTINUOUS
 10
-1.5770440588
 20
-16.566262036
 11
-1.5982737475
 21
-16.5784308859
  0
LINE
  5
396
100
AcDbEntity
  8
0
100
AcDbLine
 62
7
  6
CONTINUOUS
 10
9.2386209524
 20
-10.722704465
 11
9.3217998309
 21
-10.6890759883
  0
LINE
  5
397
100
AcDbEntity
  8
0
100
AcDbLine
 62
7
  6
CONTINUOUS
 10
13.8780114493
 20
-32.7005294269
 11
13.8778371904
 21
-32.7028897878
  0
LINE
  5
398
100
AcDbEntity
  8
0
100
AcDbLine
 62
7
  6
CONTINUOUS
 10
-5.8736845203
 20
-29.7912569444
 11
-5.8813438992
 21
-29.7999156465
  0
LINE
  5
399
100
AcDbEntity
  8
0
100
AcDbLine
 62
7
  6
CONTINUOUS
 10
-7.4723169177
 20
-28.8717910595
 11
-7.155761777
 21
-28.6407084796
  0
LINE
  5
39A
100
AcDbEntity
  8
0
100
AcDbLine
 62
7
  6
CONTINUOUS
 10
-1.3752500883
 20
-17.5665331345
 11
-1.3964632917
 21
-17.5787813723
  0
LINE
  5
39B
100
AcDbEntity
  8
0
100
AcDbLine
 62
250
  6
CONTINUOUS
 10
9.139626003
 20
-11.6780275584
 11
10.1861440392
 21
-11.0737811603
  0
LINE
  5
39C
100
AcDbEntity
  8
ASSI
100
AcDbLine
 62
7
  6
CONTINUOUS
 10
14.032292001
 20
-10.9001156385
 11
17.8857766405
 21
-8.6751619032
  0
LINE
  5
39D
100
AcDbEntity
  8
0
100
AcDbLine
 62
7
  6
CONTINUOUS
 10
17.9288958663
 20
-8.6791333811
 11
18.2518306351
 21
-8.4926748929
  0
LINE
  5
39E
100
AcDbEntity
  8
0
100
AcDbLine
 62
7
  6
CONTINUOUS
 10
18.2643312391
 20
-8.5143251793
 11
23.3671780304
 21
-5.5680053957
  0
LWPOLYLINE
  5
39F
100
AcDbEntity
  8
0
100
AcDbPolyline
 62
7
  6
CONTINUOUS
 90
10
 70
0
 10
12.4917965959
 20
-41.2695561809
 10
12.720400917
 20
-40.4021911641
 10
12.9402085921
 20
-39.4678771424
 10
13.1374926221
 20
-38.5172835648
 10
13.3132238479
 20
-37.5482724612
 10
13.4674835347
 20
-36.5652317717
 10
13.6000140528
 20
-35.5797683165
 10
13.7121120892
 20
-34.5971599546
 10
13.8058592224
 20
-33.6154306347
 10
13.8780149427
 20
-32.7005302459
  0
LINE
  5
3A0
100
AcDbEntity
  8
0
100
AcDbLine
 62
7
  6
CONTINUOUS
 10
-5.1472516384
 20
-31.7473289387
 11
-5.6104499139
 21
-32.0882919181
  0
LINE
  5
3A1
100
AcDbEntity
  8
0
100
AcDbLine
 62
7
  6
CONTINUOUS
 10
-7.2907645084
 20
-31.1180992796
 11
-6.1282991194
 21
-30.3851038803
  0
LWPOLYLINE
  5
3A2
100
AcDbEntity
  8
0
100
AcDbPolyline
 62
7
  6
CONTINUOUS
 90
16
 70
0
 10
11.3834369199
 20
-44.5325027221
 10
11.4438145999
 20
-44.3871131224
 10
11.5224864765
 20
-44.1900452037
 10
11.599836222
 20
-43.9893182218
 10
11.6762829314
 20
-43.785712639
 10
11.7522958363
 20
-43.5792354467
 10
11.8284173875
 20
-43.3678949057
 10
11.9049559633
 20
-43.150194051
 10
11.9814899917
 20
-42.9270184213
 10
12.0578602837
 20
-42.6985705447
 10
12.1339556627
 20
-42.4648960383
 10
12.2096984449
 20
-42.2258594941
 10
12.2849689538
 20
-41.9814304521
 10
12.3596600338
 20
-41.7315345796
 10
12.4336760636
 20
-41.476068093
 10
12.4918284128
 20
-41.2694417549
  0
LINE
  5
3A3
100
AcDbEntity
  8
0
100
AcDbLine
 62
7
  6
CONTINUOUS
 10
11.3834391846
 20
-44.5325036737
 11
11.383505265
 21
-44.5323475948
  0
LINE
  5
3A4
100
AcDbEntity
  8
0
100
AcDbLine
 62
7
  6
CONTINUOUS
 10
-5.5677874181
 20
-31.5006287674
 11
-5.8813439331
 21
-31.6657043768
  0
LINE
  5
3A5
100
AcDbEntity
  8
0
100
AcDbLine
 62
7
  6
CONTINUOUS
 10
-5.8813438992
 20
-29.7999156465
 11
-5.875037491
 21
-29.7971542867
  0
LWPOLYLINE
  5
3A6
100
AcDbEntity
  8
0
100
AcDbPolyline
 62
7
  6
CONTINUOUS
 90
3
 70
0
 10
11.2869088971
 20
-44.7384592295
 10
11.3509458391
 20
-44.6065345541
 10
11.383505265
 20
-44.5323475948
  0
LINE
  5
3A7
100
AcDbEntity
  8
0
100
AcDbLine
 62
7
  6
CONTINUOUS
 10
11.2173860593
 20
-44.8649286624
 11
11.2869088971
 21
-44.7384592295
  0
LINE
  5
3A8
100
AcDbEntity
  8
0
100
AcDbLine
 62
250
  6
CONTINUOUS
 10
9.139626003
 20
-31.8448433952
 11
10.1861440392
 21
-31.2405969971
  0
LINE
  5
3A9
100
AcDbEntity
  8
0
100
AcDbLine
 62
250
  6
CONTINUOUS
 10
-4.8649794939
 20
-33.3875381984
 11
-4.8647028486
 21
-33.3874156985
  0
LINE
  5
3AA
100
AcDbEntity
  8
0
100
AcDbLine
 62
7
  6
CONTINUOUS
 10
-4.8649807853
 20
-33.38753877
 11
-4.5069491697
 21
-33.2290748211
  0
LWPOLYLINE
  5
3AB
100
AcDbEntity
  8
0
100
AcDbPolyline
 62
7
  6
CONTINUOUS
 90
9
 70
0
 10
10.5595592333
 20
-45.6082637265
 10
10.598271203
 20
-45.5789493304
 10
10.6988568315
 20
-45.496457566
 10
10.7960160962
 20
-45.4071867574
 10
10.8893542989
 20
-45.3112480973
 10
10.978411815
 20
-45.2089125517
 10
11.0628823356
 20
-45.1003728289
 10
11.1426172799
 20
-44.985658712
 10
11.2173860593
 20
-44.8649286624
  0
LINE
  5
3AC
100
AcDbEntity
  8
0
100
AcDbLine
 62
7
  6
CONTINUOUS
 10
10.5602701255
 20
-45.607738515
 11
10.5595733219
 21
-45.6082547615
  0
LINE
  5
3AD
100
AcDbEntity
  8
0
100
AcDbLine
 62
250
  6
CONTINUOUS
 10
7.395240127
 20
-47.2384101392
 11
6.3487220909
 21
-47.8426565373
  0
LINE
  5
3AE
100
AcDbEntity
  8
0
100
AcDbLine
 62
7
  6
CONTINUOUS
 10
5.5424472378
 20
-48.8178914881
 11
6.588965274
 21
-48.21364509
  0
LINE
  5
3AF
100
AcDbEntity
  8
0
100
AcDbLine
 62
7
  6
CONTINUOUS
 10
1.302412404
 20
-50.953436375
 11
1.3015631031
 21
-50.953805181
  0
ARC
  5
3B0
100
AcDbEntity
  8
0
100
AcDbCircle
 62
7
  6
CONTINUOUS
 10
-190.694017192
 20
189.0644849629
 40
287.2489003047
100
AcDbArc
 50
309.7785435854
 51
309.9176111235
  0
ARC
  5
3B1
100
AcDbEntity
  8
0
100
AcDbCircle
 62
7
  6
CONTINUOUS
 10
41.0380947197
 20
-282.2941037998
 40
256.2961598107
100
AcDbArc
 50
100.6148548649
 51
100.79074659
  0
ARC
  5
3B2
100
AcDbEntity
  8
0
100
AcDbCircle
 62
7
  6
CONTINUOUS
 10
37.2442708089
 20
-167.4076902827
 40
143.9096084176
100
AcDbArc
 50
107.642161685
 51
107.8659327811
  0
ARC
  5
3B3
100
AcDbEntity
  8
0
100
AcDbCircle
 62
250
  6
CONTINUOUS
 10
19.1039125122
 20
-52.7874724127
 40
63.5724229691
100
AcDbArc
 50
115.7580165131
 51
115.9176681257
  0
ARC
  5
3B4
100
AcDbEntity
  8
0
100
AcDbCircle
 62
7
  6
CONTINUOUS
 10
17.7516411858
 20
-50.4459327507
 40
61.0082188549
100
AcDbArc
 50
115.7364794754
 51
119.933672924
  0
ARC
  5
3B5
100
AcDbEntity
  8
0
100
AcDbCircle
 62
250
  6
CONTINUOUS
 10
17.6696916081
 20
-49.8847077886
 40
60.33474525
100
AcDbArc
 50
115.897504219
 51
119.9381655546
  0
ARC
  5
3B6
100
AcDbEntity
  8
0
100
AcDbCircle
 62
7
  6
CONTINUOUS
 10
17.4441084953
 20
-49.5966708423
 40
59.0178406611
100
AcDbArc
 50
115.8862545389
 51
119.9593674125
  0
ARC
  5
3B7
100
AcDbEntity
  8
0
100
AcDbCircle
 62
7
  6
CONTINUOUS
 10
17.6633088947
 20
-48.7764985138
 40
58.4525320357
100
AcDbArc
 50
116.4365479496
 51
119.9536921461
  0
ARC
  5
3B8
100
AcDbEntity
  8
0
100
AcDbCircle
 62
7
  6
CONTINUOUS
 10
-40.2528355084
 20
-28.6107242084
 40
54.2851319051
100
AcDbArc
 50
355.6767822475
 51
0.0230573353
  0
ARC
  5
3B9
100
AcDbEntity
  8
0
100
AcDbCircle
 62
250
  6
CONTINUOUS
 10
-40.3757216005
 20
-28.9813005203
 40
54.1753495765
100
AcDbArc
 50
355.6767863838
 51
0.0234490401
  0
ARC
  5
3BA
100
AcDbEntity
  8
0
100
AcDbCircle
 62
250
  6
CONTINUOUS
 10
-48.9870837093
 20
-33.9533930762
 40
54.1753495765
100
AcDbArc
 50
355.6767863838
 51
0.0234490401
  0
ARC
  5
3BB
100
AcDbEntity
  8
0
100
AcDbCircle
 62
250
  6
CONTINUOUS
 10
-49.4477071633
 20
-33.9182285627
 40
53.2876154601
100
AcDbArc
 50
355.6800436917
 51
0.0234186815
  0
ARC
  5
3BC
100
AcDbEntity
  8
0
100
AcDbCircle
 62
250
  6
CONTINUOUS
 10
-16.6207276906
 20
-7.9648982077
 40
46.0199003982
100
AcDbArc
 50
294.1531849698
 51
299.9417925524
  0
ARC
  5
3BD
100
AcDbEntity
  8
0
100
AcDbCircle
 62
250
  6
CONTINUOUS
 10
-13.4984917588
 20
-10.9620305249
 40
41.8631550416
100
AcDbArc
 50
299.9402077211
 51
306.1337478199
  0
ARC
  5
3BE
100
AcDbEntity
  8
0
100
AcDbCircle
 62
7
  6
CONTINUOUS
 10
-15.2671276431
 20
-12.778334444
 40
41.6159594226
100
AcDbArc
 50
293.4615191413
 51
300.0025359724
  0
ARC
  5
3BF
100
AcDbEntity
  8
0
100
AcDbCircle
 62
7
  6
CONTINUOUS
 10
-14.1973926089
 20
-12.2069937801
 40
41.5758537206
100
AcDbArc
 50
299.9975033248
 51
306.5469870777
  0
ARC
  5
3C0
100
AcDbEntity
  8
TRASH
100
AcDbCircle
 62
7
  6
CONTINUOUS
 10
-6.4526957237
 20
-39.6416873551
 40
9.2622659637
100
AcDbArc
 50
87.9928930641
 51
88.2709681996
  0
ARC
  5
3C1
100
AcDbEntity
  8
TRASH
100
AcDbCircle
 62
7
  6
CONTINUOUS
 10
-10.3307720777
 20
-37.6940820278
 40
8.4310103398
100
AcDbArc
 50
59.0966229582
 51
60.1022045414
  0
ARC
  5
3C2
100
AcDbEntity
  8
0
100
AcDbCircle
 62
7
  6
CONTINUOUS
 10
-4.0232307624
 20
-24.336938387
 40
7.905716898
100
AcDbArc
 50
258.5224228691
 51
262.5876429532
  0
ARC
  5
3C3
100
AcDbEntity
  8
0
100
AcDbCircle
 62
7
  6
CONTINUOUS
 10
-6.16894909
 20
-37.6129896123
 40
7.4660208993
100
AcDbArc
 50
89.3632383152
 51
89.5138110565
  0
ARC
  5
3C4
100
AcDbEntity
  8
0
100
AcDbCircle
 62
250
  6
CONTINUOUS
 10
-9.8207760275
 20
-33.1605001649
 40
5.4916075586
100
AcDbArc
 50
37.8347731303
 51
42.4975704343
  0
ARC
  5
3C5
100
AcDbEntity
  8
0
100
AcDbCircle
 62
250
  6
CONTINUOUS
 10
-9.6711504048
 20
-33.0254032765
 40
5.2900219856
100
AcDbArc
 50
42.5135263591
 51
42.7704563274
  0
ARC
  5
3C6
100
AcDbEntity
  8
0
100
AcDbCircle
 62
7
  6
CONTINUOUS
 10
-9.4478148665
 20
-32.9390973514
 40
4.9656356137
100
AcDbArc
 50
38.4486649142
 51
42.5074777133
  0
ARC
  5
3C7
100
AcDbEntity
  8
0
100
AcDbCircle
 62
250
  6
CONTINUOUS
 10
-4.1367229234
 20
-44.7572556542
 40
4.0983020839
100
AcDbArc
 50
228.4829612085
 51
229.5343543526
  0
ARC
  5
3C8
100
AcDbEntity
  8
0
100
AcDbCircle
 62
7
  6
CONTINUOUS
 10
-3.5869617967
 20
-32.5634865924
 40
3.9412586389
100
AcDbArc
 50
147.3617772121
 51
148.5809588846
  0
ARC
  5
3C9
100
AcDbEntity
  8
0
100
AcDbCircle
 62
250
  6
CONTINUOUS
 10
-4.3351512762
 20
-44.9766991722
 40
3.8024663393
100
AcDbArc
 50
224.6686731235
 51
228.5299494229
  0
ARC
  5
3CA
100
AcDbEntity
  8
0
100
AcDbCircle
 62
7
  6
CONTINUOUS
 10
-4.4452822458
 20
-30.3881765592
 40
3.3222145489
100
AcDbArc
 50
228.6798665965
 51
229.3674304305
  0
ARC
  5
3CB
100
AcDbEntity
  8
0
100
AcDbCircle
 62
7
  6
CONTINUOUS
 10
-4.0447612286
 20
-30.2845721687
 40
3.1913252441
100
AcDbArc
 50
229.7772059777
 51
233.4492804731
  0
ARC
  5
3CC
100
AcDbEntity
  8
0
100
AcDbCircle
 62
7
  6
CONTINUOUS
 10
-3.8566109422
 20
-16.5603024861
 40
2.7295118463
100
AcDbArc
 50
68.0292939499
 51
69.2120712339
  0
ARC
  5
3CD
100
AcDbEntity
  8
0
100
AcDbCircle
 62
7
  6
CONTINUOUS
 10
-4.4454579336
 20
-5.1198961683
 40
2.1122964944
100
AcDbArc
 50
299.9810285425
 51
301.6213590307
  0
ARC
  5
3CE
100
AcDbEntity
  8
0
100
AcDbCircle
 62
7
  6
CONTINUOUS
 10
-4.384854685
 20
-5.2267535268
 40
1.9894535823
100
AcDbArc
 50
299.0807683611
 51
300.0070650021
  0
ARC
  5
3CF
100
AcDbEntity
  8
0
100
AcDbCircle
 62
7
  6
CONTINUOUS
 10
-4.8776497137
 20
-30.6220345898
 40
1.5822436244
100
AcDbArc
 50
232.4191265736
 51
235.5610748293
  0
ARC
  5
3D0
100
AcDbEntity
  8
0
100
AcDbCircle
 62
250
  6
CONTINUOUS
 10
-5.3580077947
 20
-31.8983542714
 40
1.5273230073
100
AcDbArc
 50
253.8247270538
 51
256.0320644028
  0
ARC
  5
3D1
100
AcDbEntity
  8
0
100
AcDbCircle
 62
7
  6
CONTINUOUS
 10
-6.5828886315
 20
-3.3645072921
 40
1.4112902659
100
AcDbArc
 50
264.2384677319
 51
265.6389386754
  0
ARC
  5
3D2
100
AcDbEntity
  8
0
100
AcDbCircle
 62
7
  6
CONTINUOUS
 10
-6.2059991353
 20
-30.5769177447
 40
1.0101609836
100
AcDbArc
 50
68.5726123593
 51
68.9149270214
  0
ARC
  5
3D3
100
AcDbEntity
  8
0
100
AcDbCircle
 62
7
  6
CONTINUOUS
 10
-5.4983538223
 20
-7.0251610967
 40
0.9730371982
100
AcDbArc
 50
90.793174644
 51
91.5332303427
  0
ARC
  5
3D4
100
AcDbEntity
  8
0
100
AcDbCircle
 62
7
  6
CONTINUOUS
 10
-5.4991893931
 20
-6.9996859426
 40
0.9475488202
100
AcDbArc
 50
91.5239401393
 51
93.6698774662
  0
ARC
  5
3D5
100
AcDbEntity
  8
0
100
AcDbCircle
 62
7
  6
CONTINUOUS
 10
-4.8327278186
 20
-5.7000708547
 40
0.2161532948
100
AcDbArc
 50
299.929675928
 51
304.3815716022
  0
ARC
  5
3D6
100
AcDbEntity
  8
0
100
AcDbCircle
 62
7
  6
CONTINUOUS
 10
-6.6568205661
 20
-5.4538550593
 40
0.1177311739
100
AcDbArc
 50
179.9940201405
 51
183.6681533376
  0
ARC
  5
3D7
100
AcDbEntity
  8
0
100
AcDbCircle
 62
7
  6
CONTINUOUS
 10
-4.1574442435
 20
-6.8969637506
 40
0.1177310197
100
AcDbArc
 50
179.9940201886
 51
183.6681443137
  0
ARC
  5
3D8
100
AcDbEntity
  8
0
100
AcDbCircle
 62
7
  6
CONTINUOUS
 10
-4.7726541088
 20
-6.4384641256
 40
0.0848700744
100
AcDbArc
 50
185.1159232244
 51
192.954470975
  0
ARC
  5
3D9
100
AcDbEntity
  8
0
100
AcDbCircle
 62
250
  6
CONTINUOUS
 10
-21.3071191404
 20
21.0329576086
 40
61.0169331319
100
AcDbArc
 50
295.7363051951
 51
299.9330992034
  0
ARC
  5
3DA
100
AcDbEntity
  8
0
100
AcDbCircle
 62
250
  6
CONTINUOUS
 10
-20.7071577594
 20
40.0635140876
 40
59.7328856901
100
AcDbArc
 50
295.6911761879
 51
299.9782282105
  0
ARC
  5
3DB
100
AcDbEntity
  8
0
100
AcDbCircle
 62
7
  6
CONTINUOUS
 10
-21.3005597845
 20
41.3314081271
 40
59.4666052216
100
AcDbArc
 50
295.8919592422
 51
299.3522366111
  0
ARC
  5
3DC
100
AcDbEntity
  8
0
100
AcDbCircle
 62
250
  6
CONTINUOUS
 10
-20.8119878242
 20
40.244706767
 40
59.2351113693
100
AcDbArc
 50
295.691176178
 51
299.9782282204
  0
ARC
  5
3DD
100
AcDbEntity
  8
0
100
AcDbCircle
 62
7
  6
CONTINUOUS
 10
-20.8305133364
 20
39.1997896811
 40
57.4201785643
100
AcDbArc
 50
296.4049205001
 51
299.9853195956
  0
ARC
  5
3DE
100
AcDbEntity
  8
0
100
AcDbCircle
 62
7
  6
CONTINUOUS
 10
-19.3021962461
 20
37.6891901916
 40
55.3124281142
100
AcDbArc
 50
299.5291255113
 51
300.0231350727
  0
ARC
  5
3DF
100
AcDbEntity
  8
0
100
AcDbCircle
 62
7
  6
CONTINUOUS
 10
-18.8434490054
 20
36.8945685117
 40
54.3948920186
100
AcDbArc
 50
300.023550676
 51
300.6588773597
  0
ARC
  5
3E0
100
AcDbEntity
  8
0
100
AcDbCircle
 62
7
  6
CONTINUOUS
 10
-17.2481216418
 20
35.4118191591
 40
52.3484704922
100
AcDbArc
 50
299.9838726252
 51
303.7562460109
  0
ARC
  5
3E1
100
AcDbEntity
  8
0
100
AcDbCircle
 62
250
  6
CONTINUOUS
 10
-15.8535498281
 20
14.0044133509
 40
52.2032242116
100
AcDbArc
 50
299.921559239
 51
304.6132000673
  0
ARC
  5
3E2
100
AcDbEntity
  8
0
100
AcDbCircle
 62
7
  6
CONTINUOUS
 10
-17.2662127888
 20
34.2619979689
 40
51.3260349945
100
AcDbArc
 50
300.6428555178
 51
304.4092229467
  0
ARC
  5
3E3
100
AcDbEntity
  8
0
100
AcDbCircle
 62
7
  6
CONTINUOUS
 10
-9.3841620966
 20
0.7662295517
 40
3.0157256507
100
AcDbArc
 50
238.8476919861
 51
240.0016064291
  0
ARC
  5
3E4
100
AcDbEntity
  8
0
100
AcDbCircle
 62
7
  6
CONTINUOUS
 10
-9.4424181843
 20
0.6700320824
 40
2.9032635848
100
AcDbArc
 50
237.428130797
 51
238.849485884
  0
ARC
  5
3E5
100
AcDbEntity
  8
0
100
AcDbCircle
 62
7
  6
CONTINUOUS
 10
-9.5159208491
 20
0.0299529797
 40
2.3030913547
100
AcDbArc
 50
233.0455272734
 51
233.711055616
  0
ARC
  5
3E6
100
AcDbEntity
  8
0
100
AcDbCircle
 62
250
  6
CONTINUOUS
 10
-10.5203700094
 20
-0.3441490773
 40
1.4712047923
100
AcDbArc
 50
208.6180002918
 51
209.3502169393
  0
ARC
  5
3E7
100
AcDbEntity
  8
0
100
AcDbCircle
 62
7
  6
CONTINUOUS
 10
-10.0851970029
 20
-0.8072879865
 40
1.4326898976
100
AcDbArc
 50
157.3481538042
 51
162.3114661931
  0
ARC
  5
3E8
100
AcDbEntity
  8
0
100
AcDbCircle
 62
7
  6
CONTINUOUS
 10
-8.2368644273
 20
3.442527134
 40
1.1809037539
100
AcDbArc
 50
105.737162171
 51
108.8009617354
  0
ARC
  5
3E9
100
AcDbEntity
  8
0
100
AcDbCircle
 62
7
  6
CONTINUOUS
 10
-8.094841136
 20
3.8021570598
 40
0.356822897
100
AcDbArc
 50
221.9704765269
 51
228.167696036
  0
ARC
  5
3EA
100
AcDbEntity
  8
0
100
AcDbCircle
 62
7
  6
CONTINUOUS
 10
-8.4629409559
 20
3.7881845263
 40
0.321168804
100
AcDbArc
 50
295.979593306
 51
301.500262622
  0
ARC
  5
3EB
100
AcDbEntity
  8
0
100
AcDbCircle
 62
7
  6
CONTINUOUS
 10
12.3347583888
 20
-43.4809860114
 40
52.2679301058
100
AcDbArc
 50
119.9223072272
 51
124.6134727388
  0
ARC
  5
3EC
100
AcDbEntity
  8
0
100
AcDbCircle
 62
7
  6
CONTINUOUS
 10
13.918817796
 20
-43.4085921749
 40
51.8961380254
100
AcDbArc
 50
120.0228488385
 51
124.3900088839
  0
ARC
  5
3ED
100
AcDbEntity
  8
0
100
AcDbCircle
 62
250
  6
CONTINUOUS
 10
12.3349052953
 20
-43.0729738258
 40
51.7681971035
100
AcDbArc
 50
119.9215592281
 51
124.6132000782
  0
ARC
  5
3EE
100
AcDbEntity
  8
0
100
AcDbCircle
 62
7
  6
CONTINUOUS
 10
13.1062626812
 20
-43.2961475573
 40
51.4278527946
100
AcDbArc
 50
119.9496976251
 51
123.7126478696
  0
ARC
  5
3EF
100
AcDbEntity
  8
0
100
AcDbCircle
 62
250
  6
CONTINUOUS
 10
-3.1486101057
 20
-30.8862416212
 40
16.1932587128
100
AcDbArc
 50
234.5997706644
 51
235.5419905234
  0
ARC
  5
3F0
100
AcDbEntity
  8
0
100
AcDbCircle
 62
7
  6
CONTINUOUS
 10
7.1370771263
 20
-27.0049315647
 40
13.7652196152
100
AcDbArc
 50
196.5577585273
 51
197.0674931539
  0
ARC
  5
3F1
100
AcDbEntity
  8
0
100
AcDbCircle
 62
250
  6
CONTINUOUS
 10
-2.5784926325
 20
-36.6733252389
 40
12.9975855513
100
AcDbArc
 50
196.6723232245
 51
197.3405109676
  0
ARC
  5
3F2
100
AcDbEntity
  8
0
100
AcDbCircle
 62
7
  6
CONTINUOUS
 10
1.4223248641
 20
-25.3251308222
 40
9.337043213
100
AcDbArc
 50
221.1306014555
 51
221.2604726034
  0
ARC
  5
3F3
100
AcDbEntity
  8
0
100
AcDbCircle
 62
7
  6
CONTINUOUS
 10
-0.7133316653
 20
-27.2014787805
 40
7.6552295158
100
AcDbArc
 50
210.6168492148
 51
210.7722502415
  0
ARC
  5
3F4
100
AcDbEntity
  8
0
100
AcDbCircle
 62
7
  6
CONTINUOUS
 10
-1.8937596199
 20
-27.5053190115
 40
6.4946010679
100
AcDbArc
 50
213.7985367495
 51
218.8690075585
  0
ARC
  5
3F5
100
AcDbEntity
  8
0
100
AcDbCircle
 62
7
  6
CONTINUOUS
 10
-1.1536336257
 20
-29.3438485866
 40
6.2134119843
100
AcDbArc
 50
201.1029343504
 51
202.2141896696
  0
ARC
  5
3F6
100
AcDbEntity
  8
0
100
AcDbCircle
 62
7
  6
CONTINUOUS
 10
-3.146883791
 20
-27.312420051
 40
5.6220386333
100
AcDbArc
 50
216.6193705089
 51
222.3568330177
  0
ARC
  5
3F7
100
AcDbEntity
  8
0
100
AcDbCircle
 62
250
  6
CONTINUOUS
 10
9.5853667657
 20
-44.2927490593
 40
1.6369577588
100
AcDbArc
 50
306.552552684
 51
308.9648984048
  0
ARC
  5
3F8
100
AcDbEntity
  8
0
100
AcDbCircle
 62
7
  6
CONTINUOUS
 10
1.9666030253
 20
-23.8439269503
 40
17.0231467021
100
AcDbArc
 50
191.8002541733
 51
197.7116286218
  0
ARC
  5
3F9
100
AcDbEntity
  8
0
100
AcDbCircle
 62
7
  6
CONTINUOUS
 10
-0.4304037343
 20
-23.2250571182
 40
9.7405451884
100
AcDbArc
 50
237.9694463268
 51
241.7344316466
  0
ARC
  5
3FA
100
AcDbEntity
  8
0
100
AcDbCircle
 62
250
  6
CONTINUOUS
 10
4.1713769456
 20
-6.6542551961
 40
3.4115645321
100
AcDbArc
 50
241.0849043183
 51
242.5512300852
  0
ARC
  5
3FB
100
AcDbEntity
  8
0
100
AcDbCircle
 62
250
  6
CONTINUOUS
 10
4.1048902796
 20
-6.7749227501
 40
3.2737925715
100
AcDbArc
 50
240.0016071674
 51
241.082347649
  0
ARC
  5
3FC
100
AcDbEntity
  8
0
100
AcDbCircle
 62
7
  6
CONTINUOUS
 10
16.7948699437
 20
-7.5988609967
 40
1.8836265375
100
AcDbArc
 50
0.0002901765
 51
0.3211032863
  0
ARC
  5
3FD
100
AcDbEntity
  8
0
100
AcDbCircle
 62
250
  6
CONTINUOUS
 10
6.8645491045
 20
-8.1010457557
 40
1.4719028446
100
AcDbArc
 50
330.6169084962
 51
331.3808920591
  0
ARC
  5
3FE
100
AcDbEntity
  8
0
100
AcDbCircle
 62
7
  6
CONTINUOUS
 10
-2.1385518204
 20
-14.9374459989
 40
0.8306795101
100
AcDbArc
 50
291.3310226307
 51
292.2190372314
  0
ARC
  5
3FF
100
AcDbEntity
  8
0
100
AcDbCircle
 62
7
  6
CONTINUOUS
 10
-2.5442703904
 20
-6.4959323682
 40
0.7921313614
100
AcDbArc
 50
260.8617188156
 51
264.3739376213
  0
ARC
  5
400
100
AcDbEntity
  8
0
100
AcDbCircle
 62
7
  6
CONTINUOUS
 10
-2.5516215856
 20
-6.5752369011
 40
0.7124883146
100
AcDbArc
 50
264.3370358711
 51
271.6688082421
  0
ARC
  5
401
100
AcDbEntity
  8
0
100
AcDbCircle
 62
7
  6
CONTINUOUS
 10
16.6152383856
 20
-5.6507643288
 40
0.6957759827
100
AcDbArc
 50
126.5270375156
 51
135.1652342347
  0
ARC
  5
402
100
AcDbEntity
  8
0
100
AcDbCircle
 62
7
  6
CONTINUOUS
 10
17.5872222463
 20
-8.0769808082
 40
0.6927578498
100
AcDbArc
 50
284.8410756401
 51
288.9398207742
  0
ARC
  5
403
100
AcDbEntity
  8
0
100
AcDbCircle
 62
7
  6
CONTINUOUS
 10
16.3043798207
 20
-5.8552011546
 40
0.692587538
100
AcDbArc
 50
131.055827355
 51
135.1651657762
  0
ARC
  5
404
100
AcDbEntity
  8
0
100
AcDbCircle
 62
7
  6
CONTINUOUS
 10
17.9218377244
 20
-7.9160945583
 40
0.68947225
100
AcDbArc
 50
284.7979695105
 51
293.506451012
  0
ARC
  5
405
100
AcDbEntity
  8
0
100
AcDbCircle
 62
7
  6
CONTINUOUS
 10
17.5945115131
 20
-8.0982242074
 40
0.6702986553
100
AcDbArc
 50
288.9398590364
 51
296.2740636096
  0
ARC
  5
406
100
AcDbEntity
  8
0
100
AcDbCircle
 62
7
  6
CONTINUOUS
 10
16.2895896174
 20
-5.8382281148
 40
0.6700745602
100
AcDbArc
 50
123.7188338455
 51
131.055395027
  0
ARC
  5
407
100
AcDbEntity
  8
0
100
AcDbCircle
 62
7
  6
CONTINUOUS
 10
16.5991225323
 20
-5.630025081
 40
0.6695185048
100
AcDbArc
 50
113.5177452861
 51
126.475154277
  0
ARC
  5
408
100
AcDbEntity
  8
0
100
AcDbCircle
 62
7
  6
CONTINUOUS
 10
17.9294433054
 20
-7.9345794596
 40
0.6695185048
100
AcDbArc
 50
293.5177452861
 51
306.475154277
  0
ARC
  5
409
100
AcDbEntity
  8
0
100
AcDbCircle
 62
7
  6
CONTINUOUS
 10
16.6070111311
 20
-5.6439941703
 40
0.6605491574
100
AcDbArc
 50
116.2802477448
 51
119.9995936115
  0
ARC
  5
40A
100
AcDbEntity
  8
0
100
AcDbCircle
 62
7
  6
CONTINUOUS
 10
17.5986233217
 20
-8.1070751279
 40
0.660542036
100
AcDbArc
 50
296.2940998657
 51
299.9995911823
  0
ARC
  5
40B
100
AcDbEntity
  8
0
100
AcDbCircle
 62
7
  6
CONTINUOUS
 10
17.9215514582
 20
-7.920677175
 40
0.6604929278
100
AcDbArc
 50
300.0027351638
 51
303.7127844909
  0
ARC
  5
40C
100
AcDbEntity
  8
0
100
AcDbCircle
 62
7
  6
CONTINUOUS
 10
16.2840759791
 20
-5.830379963
 40
0.6604860104
100
AcDbArc
 50
116.2940998657
 51
123.6989304906
  0
ARC
  5
40D
100
AcDbEntity
  8
0
100
AcDbCircle
 62
7
  6
CONTINUOUS
 10
16.2620072109
 20
-5.8631595891
 40
0.6528498544
100
AcDbArc
 50
113.5092094834
 51
119.9898531696
  0
ARC
  5
40E
100
AcDbEntity
  8
0
100
AcDbCircle
 62
7
  6
CONTINUOUS
 10
17.559223957
 20
-8.1098596701
 40
0.6528424541
100
AcDbArc
 50
300.0133227785
 51
306.484450421
  0
ARC
  5
40F
100
AcDbEntity
  8
0
100
AcDbCircle
 62
7
  6
CONTINUOUS
 10
11.5527501859
 20
-7.8171658887
 40
0.3242521905
100
AcDbArc
 50
308.5735355128
 51
309.9417306774
  0
ARC
  5
410
100
AcDbEntity
  8
0
100
AcDbCircle
 62
7
  6
CONTINUOUS
 10
-3.1602699105
 20
-7.2971523314
 40
0.3212586056
100
AcDbArc
 50
44.765329731
 51
60.0528400248
  0
ARC
  5
411
100
AcDbEntity
  8
0
100
AcDbCircle
 62
7
  6
CONTINUOUS
 10
11.5724470184
 20
-7.842260114
 40
0.2923520748
100
AcDbArc
 50
304.5197517391
 51
308.6220534196
  0
ARC
  5
412
100
AcDbEntity
  8
0
100
AcDbCircle
 62
7
  6
CONTINUOUS
 10
2.8386383382
 20
-7.1589190653
 40
0.2236725845
100
AcDbArc
 50
28.8113908664
 51
36.7139777996
  0
ARC
  5
413
100
AcDbEntity
  8
0
100
AcDbCircle
 62
7
  6
CONTINUOUS
 10
4.5645460998
 20
-11.9732286264
 40
0.2175137204
100
AcDbArc
 50
281.3737050475
 51
285.5642233049
  0
ARC
  5
414
100
AcDbEntity
  8
0
100
AcDbCircle
 62
7
  6
CONTINUOUS
 10
2.8507812399
 20
-7.1521231608
 40
0.2097577311
100
AcDbArc
 50
20.5175288827
 51
28.7833538283
  0
ARC
  5
415
100
AcDbEntity
  8
0
100
AcDbCircle
 62
7
  6
CONTINUOUS
 10
2.8564040222
 20
-7.1493050412
 40
0.2036026534
100
AcDbArc
 50
359.9981263004
 51
2.959602399
  0
ARC
  5
416
100
AcDbEntity
  8
0
100
AcDbCircle
 62
7
  6
CONTINUOUS
 10
2.8586527915
 20
-7.1491682118
 40
0.2013498199
100
AcDbArc
 50
2.9537579078
 51
20.51508998
  0
ARC
  5
417
100
AcDbEntity
  8
0
100
AcDbCircle
 62
7
  6
CONTINUOUS
 10
-2.2839841813
 20
-15.0197562693
 40
0.162795857
100
AcDbArc
 50
300.008557301
 51
303.8216968109
  0
ARC
  5
418
100
AcDbEntity
  8
0
100
AcDbCircle
 62
250
  6
CONTINUOUS
 10
43.0536232966
 20
-21.5705182723
 40
60.4482577975
100
AcDbArc
 50
180.0619835978
 51
184.0563142253
  0
ARC
  5
419
100
AcDbEntity
  8
0
100
AcDbCircle
 62
7
  6
CONTINUOUS
 10
42.5496793399
 20
-21.2058017515
 40
60.2371756451
100
AcDbArc
 50
180.0207696669
 51
184.0967300395
  0
ARC
  5
41A
100
AcDbEntity
  8
0
100
AcDbCircle
 62
7
  6
CONTINUOUS
 10
21.7192137687
 20
-4.2102136987
 40
2.199841872
100
AcDbArc
 50
330.6788586739
 51
89.3232607727
  0
ARC
  5
41B
100
AcDbEntity
  8
0
100
AcDbCircle
 62
7
  6
CONTINUOUS
 10
15.284542041
 20
-0.1682952198
 40
2.1998418909
100
AcDbArc
 50
330.6788588026
 51
89.3232607831
  0
ARC
  5
41C
100
AcDbEntity
  8
0
100
AcDbCircle
 62
7
  6
CONTINUOUS
 10
8.2841849261
 20
3.5470035745
 40
2.199841872
100
AcDbArc
 50
330.6788586739
 51
89.3232607727
  0
ARC
  5
41D
100
AcDbEntity
  8
0
100
AcDbCircle
 62
7
  6
CONTINUOUS
 10
3.3598411012
 20
0.1583562765
 40
1.8836265375
100
AcDbArc
 50
0.0002901765
 51
0.3211032863
  0
ARC
  5
41E
100
AcDbEntity
  8
0
100
AcDbCircle
 62
7
  6
CONTINUOUS
 10
3.180209543
 20
2.1064529444
 40
0.6957759827
100
AcDbArc
 50
126.5270375156
 51
135.1652342347
  0
ARC
  5
41F
100
AcDbEntity
  8
0
100
AcDbCircle
 62
7
  6
CONTINUOUS
 10
4.1521934037
 20
-0.319763535
 40
0.6927578498
100
AcDbArc
 50
284.8410756401
 51
288.9398207743
  0
ARC
  5
420
100
AcDbEntity
  8
0
100
AcDbCircle
 62
7
  6
CONTINUOUS
 10
2.8693509781
 20
1.9020161186
 40
0.692587538
100
AcDbArc
 50
131.055827355
 51
135.1651657762
  0
ARC
  5
421
100
AcDbEntity
  8
0
100
AcDbCircle
 62
7
  6
CONTINUOUS
 10
4.4868088818
 20
-0.1588772851
 40
0.68947225
100
AcDbArc
 50
284.7979695105
 51
293.506451012
  0
ARC
  5
422
100
AcDbEntity
  8
0
100
AcDbCircle
 62
7
  6
CONTINUOUS
 10
4.1594826705
 20
-0.3410069342
 40
0.6702986553
100
AcDbArc
 50
288.9398590364
 51
296.2740636096
  0
ARC
  5
423
100
AcDbEntity
  8
0
100
AcDbCircle
 62
7
  6
CONTINUOUS
 10
2.8545607749
 20
1.9189891584
 40
0.6700745602
100
AcDbArc
 50
123.7188338455
 51
131.0553950269
  0
ARC
  5
424
100
AcDbEntity
  8
0
100
AcDbCircle
 62
7
  6
CONTINUOUS
 10
3.1640936898
 20
2.1271921922
 40
0.6695185048
100
AcDbArc
 50
113.5177452861
 51
126.475154277
  0
ARC
  5
425
100
AcDbEntity
  8
0
100
AcDbCircle
 62
7
  6
CONTINUOUS
 10
4.4944144628
 20
-0.1773621864
 40
0.6695185048
100
AcDbArc
 50
293.5177452861
 51
306.475154277
  0
ARC
  5
426
100
AcDbEntity
  8
0
100
AcDbCircle
 62
7
  6
CONTINUOUS
 10
3.1719822885
 20
2.1132231029
 40
0.6605491574
100
AcDbArc
 50
116.2802477448
 51
119.9995936115
  0
ARC
  5
427
100
AcDbEntity
  8
0
100
AcDbCircle
 62
7
  6
CONTINUOUS
 10
4.1635944792
 20
-0.3498578547
 40
0.660542036
100
AcDbArc
 50
296.2940998657
 51
299.9995911823
  0
ARC
  5
428
100
AcDbEntity
  8
0
100
AcDbCircle
 62
7
  6
CONTINUOUS
 10
4.4865226157
 20
-0.1634599017
 40
0.6604929278
100
AcDbArc
 50
300.0027351638
 51
303.7127844909
  0
ARC
  5
429
100
AcDbEntity
  8
0
100
AcDbCircle
 62
7
  6
CONTINUOUS
 10
2.8490471365
 20
1.9268373102
 40
0.6604860104
100
AcDbArc
 50
116.2940998657
 51
123.6989304905
  0
ARC
  5
42A
100
AcDbEntity
  8
0
100
AcDbCircle
 62
7
  6
CONTINUOUS
 10
2.8269783684
 20
1.8940576841
 40
0.6528498544
100
AcDbArc
 50
113.5092094834
 51
119.9898531696
  0
ARC
  5
42B
100
AcDbEntity
  8
0
100
AcDbCircle
 62
7
  6
CONTINUOUS
 10
4.1241951144
 20
-0.3526423969
 40
0.6528424541
100
AcDbArc
 50
300.0133227785
 51
306.484450421
  0
SPLINE
  5
42C
100
AcDbEntity
  8
0
100
AcDbSpline
 62
7
  6
CONTINUOUS
 70
0
 71
3
 72
9
 73
5
 74
0
 42
0.0000001
 43
0.0000001
 44
0.0000000001
 40
0.0
 40
0.0
 40
0.0
 40
0.0
 40
0.2385818386
 40
1.0
 40
1.0
 40
1.0
 40
1.0
 10
-5.043143097
 20
-32.1765900694
 30
0.0
 10
-5.0397890793
 20
-32.1471296171
 30
0.0
 10
-5.0295305698
 20
-32.0232224951
 30
0.0
 10
-5.0336603915
 20
-31.898313887
 30
0.0
 10
-5.0431266169
 20
-31.8041601119
 30
0.0
  0
SPLINE
  5
42D
100
AcDbEntity
  8
0
100
AcDbSpline
 62
7
  6
CONTINUOUS
 70
0
 71
3
 72
9
 73
5
 74
0
 42
0.0000001
 43
0.0000001
 44
0.0000000001
 40
0.0
 40
0.0
 40
0.0
 40
0.0
 40
0.248568844
 40
1.0
 40
1.0
 40
1.0
 40
1.0
 10
-6.0219178835
 20
-31.0449960924
 30
0.0
 10
-5.9886566907
 20
-31.0807435107
 30
0.0
 10
-5.8541296588
 20
-31.2238857364
 30
0.0
 10
-5.7162477865
 20
-31.3638960905
 30
0.0
 10
-5.6104498395
 20
-31.466828953
 30
0.0
  0
SPLINE
  5
42E
100
AcDbEntity
  8
0
100
AcDbSpline
 62
7
  6
CONTINUOUS
 70
0
 71
3
 72
9
 73
5
 74
0
 42
0.0000001
 43
0.0000001
 44
0.0000000001
 40
0.0
 40
0.0
 40
0.0
 40
0.0
 40
0.5103529792
 40
1.0
 40
1.0
 40
1.0
 40
1.0
 10
-5.8159657822
 20
-29.5529365367
 30
0.0
 10
-5.8748170327
 20
-29.7831823772
 30
0.0
 10
-5.9738942481
 20
-30.2386772405
 30
0.0
 10
-6.0366790811
 20
-30.7006998206
 30
0.0
 10
-6.0573392812
 20
-30.9277681303
 30
0.0
  0
SPLINE
  5
42F
100
AcDbEntity
  8
0
100
AcDbSpline
 62
7
  6
CONTINUOUS
 70
0
 71
3
 72
9
 73
5
 74
0
 42
0.0000001
 43
0.0000001
 44
0.0000000001
 40
0.0
 40
0.0
 40
0.0
 40
0.0
 40
0.26343168
 40
1.0
 40
1.0
 40
1.0
 40
1.0
 10
-6.057339136
 20
-32.1828846499
 30
0.0
 10
-6.0465419434
 20
-32.2890838376
 30
0.0
 10
-5.9939343315
 20
-32.6908028995
 30
0.0
 10
-5.8921691069
 20
-33.0872393671
 30
0.0
 10
-5.7834843178
 20
-33.3652166702
 30
0.0
  0
LINE
  5
430
100
AcDbEntity
  8
0
100
AcDbLine
 62
7
  6
CONTINUOUS
 10
-6.0219180426
 20
-32.1170150637
 11
-6.057339136
 21
-32.1828846499
  0
SPLINE
  5
431
100
AcDbEntity
  8
0
100
AcDbSpline
 62
7
  6
CONTINUOUS
 70
0
 71
3
 72
9
 73
5
 74
0
 42
0.0000001
 43
0.0000001
 44
0.0000000001
 40
0.0
 40
0.0
 40
0.0
 40
0.0
 40
0.2381950485
 40
1.0
 40
1.0
 40
1.0
 40
1.0
 10
-7.2907644526
 20
-30.4966363253
 30
0.0
 10
-7.263751225
 20
-30.4979841272
 30
0.0
 10
-7.1503136917
 20
-30.503065246
 30
0.0
 10
-7.0368057569
 20
-30.5062998718
 30
0.0
 10
-6.9503436465
 20
-30.5089350133
 30
0.0
  0
LINE
  5
432
100
AcDbEntity
  8
0
100
AcDbLine
 62
7
  6
CONTINUOUS
 10
-7.2907644526
 20
-30.4966363253
 11
-7.301488358
 21
-30.498414331
  0
SPLINE
  5
433
100
AcDbEntity
  8
0
100
AcDbSpline
 62
7
  6
CONTINUOUS
 70
0
 71
3
 72
9
 73
5
 74
0
 42
0.0000001
 43
0.0000001
 44
0.0000000001
 40
0.0
 40
0.0
 40
0.0
 40
0.0
 40
0.2410861316
 40
1.0
 40
1.0
 40
1.0
 40
1.0
 10
-7.6592046729
 20
-30.2935150942
 30
0.0
 10
-7.6313606712
 20
-30.3114805597
 30
0.0
 10
-7.5148213855
 20
-30.3843750289
 30
0.0
 10
-7.3943855003
 20
-30.4509703596
 30
0.0
 10
-7.301488358
 20
-30.498414331
 30
0.0
  0
SPLINE
  5
434
100
AcDbEntity
  8
0
100
AcDbSpline
 62
7
  6
CONTINUOUS
 70
0
 71
3
 72
10
 73
6
 74
0
 42
0.0000001
 43
0.0000001
 44
0.0000000001
 40
0.0
 40
0.0
 40
0.0
 40
0.0
 40
0.5173427292
 40
0.7589711226
 40
1.0
 40
1.0
 40
1.0
 40
1.0
 10
-5.7834843178
 20
-33.3652166702
 30
0.0
 10
-5.7790938855
 20
-33.3764458453
 30
0.0
 10
-5.7696499891
 20
-33.3922271731
 30
0.0
 10
-5.7511570935
 20
-33.4067411496
 30
0.0
 10
-5.7407260719
 20
-33.4113167417
 30
0.0
 10
-5.7353465537
 20
-33.4129338304
 30
0.0
  0
SPLINE
  5
435
100
AcDbEntity
  8
0
100
AcDbSpline
 62
7
  6
CONTINUOUS
 70
0
 71
3
 72
11
 73
7
 74
0
 42
0.0000001
 43
0.0000001
 44
0.0000000001
 40
0.0
 40
0.0
 40
0.0
 40
0.0
 40
0.2868436637
 40
0.5422563942
 40
0.7750074778
 40
1.0
 40
1.0
 40
1.0
 40
1.0
 10
-6.512119979
 20
-32.9138228039
 30
0.0
 10
-6.5209486341
 20
-32.9180039881
 30
0.0
 10
-6.5384352557
 20
-32.9244307118
 30
0.0
 10
-6.5649877143
 20
-32.9273654064
 30
0.0
 10
-6.589245165
 20
-32.9226322654
 30
0.0
 10
-6.6029114993
 20
-32.9143981493
 30
0.0
 10
-6.6087273364
 20
-32.909409465
 30
0.0
  0
LINE
  5
436
100
AcDbEntity
  8
0
100
AcDbLine
 62
7
  6
CONTINUOUS
 10
-5.9358591969
 20
-30.08465755
 11
-6.0859765181
 21
-30.1474297792
  0
LINE
  5
437
100
AcDbEntity
  8
0
100
AcDbLine
 62
7
  6
CONTINUOUS
 10
-6.3705903478
 20
-30.2664518415
 11
-6.9503436465
 21
-30.5089350133
  0
LINE
  5
438
100
AcDbEntity
  8
0
100
AcDbLine
 62
7
  6
CONTINUOUS
 10
-6.1055961994
 20
-30.1472375081
 11
-6.3705903478
 21
-30.2664518415
  0
LINE
  5
439
100
AcDbEntity
  8
0
100
AcDbLine
 62
7
  6
CONTINUOUS
 10
-5.5220622104
 20
-31.736145454
 11
-6.0219180426
 21
-32.1170150637
  0
LINE
  5
43A
100
AcDbEntity
  8
0
100
AcDbLine
 62
7
  6
CONTINUOUS
 10
-5.3632396444
 20
-31.624193447
 11
-5.5220622104
 21
-31.736145454
  0
LINE
  5
43B
100
AcDbEntity
  8
0
100
AcDbLine
 62
7
  6
CONTINUOUS
 10
-6.1055961994
 20
-32.7212740456
 11
-6.512119979
 21
-32.9138228039
  0
SPLINE
  5
43C
100
AcDbEntity
  8
0
100
AcDbSpline
 62
7
  6
CONTINUOUS
 70
0
 71
3
 72
11
 73
7
 74
0
 42
0.0000001
 43
0.0000001
 44
0.0000000001
 40
0.0
 40
0.0
 40
0.0
 40
0.0
 40
0.264679591
 40
0.5175426911
 40
0.7614633842
 40
1.0
 40
1.0
 40
1.0
 40
1.0
 10
-5.7353466909
 20
-33.4129340095
 30
0.0
 10
-5.6602630527
 20
-33.4355024431
 30
0.0
 10
-5.5101935594
 20
-33.4698323732
 30
0.0
 10
-5.2840810858
 20
-33.4849286935
 30
0.0
 10
-5.0664273128
 20
-33.4601937921
 30
0.0
 10
-4.9292646607
 20
-33.4160280256
 30
0.0
 10
-4.864667468
 20
-33.3873963008
 30
0.0
  0
SPLINE
  5
43D
100
AcDbEntity
  8
0
100
AcDbSpline
 62
7
  6
CONTINUOUS
 70
0
 71
3
 72
20
 73
16
 74
0
 42
0.0000001
 43
0.0000001
 44
0.0000000001
 40
0.0
 40
0.0
 40
0.0
 40
0.0
 40
0.0476806583
 40
0.0964871005
 40
0.1471413246
 40
0.2002633136
 40
0.2562947836
 40
0.3154426526
 40
0.3776837484
 40
0.4427929199
 40
0.5103733442
 40
0.5798944905
 40
0.7220969273
 40
0.8639548482
 40
1.0
 40
1.0
 40
1.0
 40
1.0
 10
-7.4719535415
 20
-28.8715414461
 30
0.0
 10
-7.5304045974
 20
-28.9141500183
 30
0.0
 10
-7.639628402
 20
-29.0134989326
 30
0.0
 10
-7.7718782804
 20
-29.1949513169
 30
0.0
 10
-7.8723992872
 20
-29.4047404667
 30
0.0
 10
-7.9411310771
 20
-29.6381564766
 30
0.0
 10
-7.9786766444
 20
-29.891420611
 30
0.0
 10
-7.9856923426
 20
-30.1610549816
 30
0.0
 10
-7.9628784213
 20
-30.4435343673
 30
0.0
 10
-7.9110376019
 20
-30.7350785492
 30
0.0
 10
-7.8312062471
 20
-31.0316519121
 30
0.0
 10
-7.6882173611
 20
-31.4308967149
 30
0.0
 10
-7.4494000907
 20
-31.9136814588
 30
0.0
 10
-7.0855035164
 20
-32.4394191903
 30
0.0
 10
-6.7938296924
 20
-32.7470014718
 30
0.0
 10
-6.6388262849
 20
-32.8832665491
 30
0.0
  0
LINE
  5
43E
100
AcDbEntity
  8
0
100
AcDbLine
 62
7
  6
CONTINUOUS
 10
-5.5429959019
 20
-31.5159900242
 11
-5.8717306294
 21
-31.6876731354
  0
LINE
  5
43F
100
AcDbEntity
  8
0
100
AcDbLine
 62
7
  6
CONTINUOUS
 10
-5.8426294782
 20
-31.8759520277
 11
-5.5364925055
 21
-31.5199857963
  0
LINE
  5
440
100
AcDbEntity
  8
0
100
AcDbLine
 62
7
  6
CONTINUOUS
 10
-5.1416606131
 20
-31.7504270153
 11
-5.5963452761
 21
-32.0845619193
  0
SPLINE
  5
441
100
AcDbEntity
  8
TRASH
100
AcDbSpline
 62
7
  6
CONTINUOUS
 70
0
 71
3
 72
9
 73
5
 74
0
 42
0.0000001
 43
0.0000001
 44
0.0000000001
 40
0.0
 40
0.0
 40
0.0
 40
0.0
 40
0.259322192
 40
1.0
 40
1.0
 40
1.0
 40
1.0
 10
-6.1282980104
 20
-30.385104872
 30
0.0
 10
-6.1314330765
 20
-30.3662867743
 30
0.0
 10
-6.142052498
 20
-30.2934919324
 30
0.0
 10
-6.1467009977
 20
-30.219757547
 30
0.0
 10
-6.1459638951
 20
-30.1652733647
 30
0.0
  0
SPLINE
  5
442
100
AcDbEntity
  8
0
100
AcDbSpline
 62
7
  6
CONTINUOUS
 70
0
 71
3
 72
9
 73
5
 74
0
 42
0.0000001
 43
0.0000001
 44
0.0000000001
 40
0.0
 40
0.0
 40
0.0
 40
0.0
 40
0.5089532558
 40
1.0
 40
1.0
 40
1.0
 40
1.0
 10
-5.6104499139
 20
-32.0882919181
 30
0.0
 10
-5.6800427226
 20
-32.0957405128
 30
0.0
 10
-5.8170165698
 20
-32.1082701025
 30
0.0
 10
-5.9544106215
 20
-32.1153553878
 30
0.0
 10
-6.0219180426
 20
-32.1170150637
 30
0.0
  0
LINE
  5
443
100
AcDbEntity
  8
0
100
AcDbLine
 62
7
  6
CONTINUOUS
 10
-5.5963452761
 20
-32.0845619193
 11
-5.6104499139
 21
-32.0882919181
  0
SPLINE
  5
444
100
AcDbEntity
  8
0
100
AcDbSpline
 62
7
  6
CONTINUOUS
 70
0
 71
3
 72
9
 73
5
 74
0
 42
0.0000001
 43
0.0000001
 44
0.0000000001
 40
0.0
 40
0.0
 40
0.0
 40
0.0
 40
0.4889255978
 40
1.0
 40
1.0
 40
1.0
 40
1.0
 10
-6.9058672734
 20
-30.4378370221
 30
0.0
 10
-6.8833496857
 20
-30.1903554513
 30
0.0
 10
-6.8128114376
 20
-29.6862124804
 30
0.0
 10
-6.6995751238
 20
-29.1900854413
 30
0.0
 10
-6.6320124552
 20
-28.9392643223
 30
0.0
  0
SPLINE
  5
445
100
AcDbEntity
  8
0
100
AcDbSpline
 62
7
  6
CONTINUOUS
 70
0
 71
3
 72
9
 73
5
 74
0
 42
0.0000001
 43
0.0000001
 44
0.0000000001
 40
0.0
 40
0.0
 40
0.0
 40
0.0
 40
0.2385818386
 40
1.0
 40
1.0
 40
1.0
 40
1.0
 10
-7.6592046729
 20
-30.2935150942
 30
0.0
 10
-7.6625586906
 20
-30.3229755464
 30
0.0
 10
-7.6728172001
 20
-30.4468826682
 30
0.0
 10
-7.6686873783
 20
-30.571791276
 30
0.0
 10
-7.659221153
 20
-30.665945051
 30
0.0
  0
SPLINE
  5
446
100
AcDbEntity
  8
0
100
AcDbSpline
 62
7
  6
CONTINUOUS
 70
0
 71
3
 72
9
 73
5
 74
0
 42
0.0000001
 43
0.0000001
 44
0.0000000001
 40
0.0
 40
0.0
 40
0.0
 40
0.0
 40
0.2373695537
 40
1.0
 40
1.0
 40
1.0
 40
1.0
 10
-6.6320124552
 20
-32.8752871582
 30
0.0
 10
-6.6670418974
 20
-32.7856942176
 30
0.0
 10
-6.7996904994
 20
-32.4024403598
 30
0.0
 10
-6.8746060238
 20
-32.000435797
 30
0.0
 10
-6.9058674186
 20
-31.6929537094
 30
0.0
  0
SPLINE
  5
447
100
AcDbEntity
  8
0
100
AcDbSpline
 62
250
  6
CONTINUOUS
 70
0
 71
3
 72
15
 73
11
 74
0
 42
0.0000001
 43
0.0000001
 44
0.0000000001
 40
0.0
 40
0.0
 40
0.0
 40
0.0
 40
0.1321510548
 40
0.2544907621
 40
0.3702458054
 40
0.4837595317
 40
0.5998146406
 40
0.7226989026
 40
0.8555193834
 40
1.0
 40
1.0
 40
1.0
 40
1.0
 10
-5.7266712684
 20
-33.380515805
 30
0.0
 10
-5.6476346409
 20
-33.4001528989
 30
0.0
 10
-5.4918069768
 20
-33.4255865284
 30
0.0
 10
-5.2620623042
 20
-33.4160528883
 30
0.0
 10
-5.0514510866
 20
-33.356368688
 30
0.0
 10
-4.8660025432
 20
-33.2472382813
 30
0.0
 10
-4.7110935185
 20
-33.0918796626
 30
0.0
 10
-4.5902045535
 20
-32.8951426916
 30
0.0
 10
-4.5051406777
 20
-32.6622185827
 30
0.0
 10
-4.4742707128
 20
-32.4933264438
 30
0.0
 10
-4.4643021504
 20
-32.4048484341
 30
0.0
  0
SPLINE
  5
448
100
AcDbEntity
  8
0
100
AcDbSpline
 62
250
  6
CONTINUOUS
 70
0
 71
3
 72
26
 73
22
 74
0
 42
0.0000001
 43
0.0000001
 44
0.0000000001
 40
0.0
 40
0.0
 40
0.0
 40
0.0
 40
0.0531493204
 40
0.1018054586
 40
0.1249728374
 40
0.147681006
 40
0.1702253987
 40
0.1929145385
 40
0.2160477329
 40
0.23989455
 40
0.2905131071
 40
0.3461028703
 40
0.4071261381
 40
0.4734134707
 40
0.5443195357
 40
0.6188563275
 40
0.695801945
 40
0.7737927886
 40
0.8514066291
 40
0.9272421981
 40
1.0
 40
1.0
 40
1.0
 40
1.0
 10
-6.6320124552
 20
-28.9392643223
 30
0.0
 10
-6.7217451434
 20
-28.9132449049
 30
0.0
 10
-6.8987095804
 20
-28.8784608924
 30
0.0
 10
-7.1207124904
 20
-28.8858125893
 30
0.0
 10
-7.282751361
 20
-28.9247584073
 30
0.0
 10
-7.3950385003
 20
-28.9689897666
 30
0.0
 10
-7.4990750693
 20
-29.0284843917
 30
0.0
 10
-7.5940960944
 20
-29.1027253435
 30
0.0
 10
-7.6793669369
 20
-29.1911725174
 30
0.0
 10
-7.7813016002
 20
-29.3297153792
 30
0.0
 10
-7.8805924301
 20
-29.5381154747
 30
0.0
 10
-7.9501642942
 20
-29.8253965809
 30
0.0
 10
-7.9721170809
 20
-30.1474621318
 30
0.0
 10
-7.9462813993
 20
-30.4959321806
 30
0.0
 10
-7.8735762815
 20
-30.8617873734
 30
0.0
 10
-7.7559894278
 20
-31.2353497366
 30
0.0
 10
-7.5966879183
 20
-31.6066435595
 30
0.0
 10
-7.3999612005
 20
-31.9656851668
 30
0.0
 10
-7.1710936464
 20
-32.3028174615
 30
0.0
 10
-6.916300495
 20
-32.6089135266
 30
0.0
 10
-6.7287523489
 20
-32.7916256216
 30
0.0
 10
-6.6320124552
 20
-32.8752871582
 30
0.0
  0
SPLINE
  5
449
100
AcDbEntity
  8
0
100
AcDbSpline
 62
250
  6
CONTINUOUS
 70
0
 71
3
 72
11
 73
7
 74
0
 42
0.0000001
 43
0.0000001
 44
0.0000000001
 40
0.0
 40
0.0
 40
0.0
 40
0.0
 40
0.2581836214
 40
0.5087610756
 40
0.7548749494
 40
1.0
 40
1.0
 40
1.0
 40
1.0
 10
-6.9827277791
 20
-28.7005431055
 30
0.0
 10
-7.027826188
 20
-28.7033420469
 30
0.0
 10
-7.1164750216
 20
-28.7144868526
 30
0.0
 10
-7.2444627221
 20
-28.7489427888
 30
0.0
 10
-7.3640371121
 20
-28.8006603195
 30
0.0
 10
-7.4373428687
 20
-28.8462825252
 30
0.0
 10
-7.472002619
 20
-28.8715628052
 30
0.0
  0
SPLINE
  5
44A
100
AcDbEntity
  8
0
100
AcDbSpline
 62
7
  6
CONTINUOUS
 70
0
 71
3
 72
9
 73
5
 74
0
 42
0.0000001
 43
0.0000001
 44
0.0000000001
 40
0.0
 40
0.0
 40
0.0
 40
0.0
 40
0.2446746666
 40
1.0
 40
1.0
 40
1.0
 40
1.0
 10
-6.6320124552
 20
-28.9392643223
 30
0.0
 10
-6.6308726995
 20
-28.9350330681
 30
0.0
 10
-6.6258365458
 20
-28.9178430018
 30
0.0
 10
-6.6193479591
 20
-28.9010841536
 30
0.0
 10
-6.6137376821
 20
-28.8887746469
 30
0.0
  0
SPLINE
  5
44B
100
AcDbEntity
  8
0
100
AcDbSpline
 62
7
  6
CONTINUOUS
 70
0
 71
3
 72
9
 73
5
 74
0
 42
0.0000001
 43
0.0000001
 44
0.0000000001
 40
0.0
 40
0.0
 40
0.0
 40
0.0
 40
0.2490996167
 40
1.0
 40
1.0
 40
1.0
 40
1.0
 10
-5.8813438992
 20
-29.7999156465
 30
0.0
 10
-5.8987056445
 20
-29.8285502406
 30
0.0
 10
-5.9681725737
 20
-29.9436396056
 30
0.0
 10
-6.0364728907
 20
-30.0594568576
 30
0.0
 10
-6.0859765181
 20
-30.1474297792
 30
0.0
  0
LINE
  5
44C
100
AcDbEntity
  8
0
100
AcDbLine
 62
7
  6
CONTINUOUS
 10
-6.9463567138
 20
-30.5299007162
 11
-7.659221153
 21
-30.665945051
  0
SPLINE
  5
44D
100
AcDbEntity
  8
0
100
AcDbSpline
 62
7
  6
CONTINUOUS
 70
0
 71
3
 72
9
 73
5
 74
0
 42
0.0000001
 43
0.0000001
 44
0.0000000001
 40
0.0
 40
0.0
 40
0.0
 40
0.0
 40
0.5000170481
 40
1.0
 40
1.0
 40
1.0
 40
1.0
 10
-7.3013631939
 20
-31.1002451902
 30
0.0
 10
-7.1132864568
 20
-30.9808819073
 30
0.0
 10
-6.7370022673
 20
-30.7423894525
 30
0.0
 10
-6.3612918992
 20
-30.5029936456
 30
0.0
 10
-6.1732279871
 20
-30.383638502
 30
0.0
  0
LINE
  5
44E
100
AcDbEntity
  8
0
100
AcDbLine
 62
7
  6
CONTINUOUS
 10
-6.1055961994
 20
-31.0594219771
 11
-6.0859765302
 21
-31.0818857993
  0
LINE
  5
44F
100
AcDbEntity
  8
0
100
AcDbLine
 62
7
  6
CONTINUOUS
 10
-6.3705898563
 20
-31.2462157793
 11
-6.1055961994
 21
-31.0594219771
  0
LINE
  5
450
100
AcDbEntity
  8
0
100
AcDbLine
 62
7
  6
CONTINUOUS
 10
-6.3705898563
 20
-31.2462157793
 11
-6.9503437361
 21
-31.5809539445
  0
SPLINE
  5
451
100
AcDbEntity
  8
0
100
AcDbSpline
 62
250
  6
CONTINUOUS
 70
0
 71
3
 72
11
 73
7
 74
0
 42
0.0000001
 43
0.0000001
 44
0.0000000001
 40
0.0
 40
0.0
 40
0.0
 40
0.0
 40
0.2451181494
 40
0.4912247106
 40
0.7417941095
 40
1.0
 40
1.0
 40
1.0
 40
1.0
 10
-4.8647037043
 20
-33.3874140865
 30
0.0
 10
-4.8254519601
 20
-33.3700234586
 30
0.0
 10
-4.7492260359
 20
-33.3293297654
 30
0.0
 10
-4.6445931688
 20
-33.2515476057
 30
0.0
 10
-4.5506909379
 20
-33.1578563986
 30
0.0
 10
-4.4967064833
 20
-33.0865718352
 30
0.0
 10
-4.4717243175
 20
-33.0488743239
 30
0.0
  0
LINE
  5
452
100
AcDbEntity
  8
0
100
AcDbLine
 62
7
  6
CONTINUOUS
 10
-6.0219596848
 20
-31.0449237672
 11
-6.0859765302
 21
-31.0818857993
  0
SPLINE
  5
453
100
AcDbEntity
  8
0
100
AcDbSpline
 62
7
  6
CONTINUOUS
 70
0
 71
3
 72
9
 73
5
 74
0
 42
0.0000001
 43
0.0000001
 44
0.0000000001
 40
0.0
 40
0.0
 40
0.0
 40
0.0
 40
0.2384670707
 40
1.0
 40
1.0
 40
1.0
 40
1.0
 10
-6.6087273364
 20
-32.909409465
 30
0.0
 10
-6.6112344483
 20
-32.9072589251
 30
0.0
 10
-6.6211171045
 20
-32.8975018214
 30
0.0
 10
-6.6281713985
 20
-32.8851112247
 30
0.0
 10
-6.6320124552
 20
-32.8752871582
 30
0.0
  0
SPLINE
  5
454
100
AcDbEntity
  8
0
100
AcDbSpline
 62
7
  6
CONTINUOUS
 70
0
 71
3
 72
9
 73
5
 74
0
 42
0.0000001
 43
0.0000001
 44
0.0000000001
 40
0.0
 40
0.0
 40
0.0
 40
0.0
 40
0.2495155406
 40
1.0
 40
1.0
 40
1.0
 40
1.0
 10
-6.0859765302
 20
-31.0818857993
 30
0.0
 10
-6.0693664345
 20
-31.1305849829
 30
0.0
 10
-6.002199173
 20
-31.3255561648
 30
0.0
 10
-5.9333288373
 20
-31.5199352073
 30
0.0
 10
-5.8813439331
 20
-31.6657043768
 30
0.0
  0
SPLINE
  5
455
100
AcDbEntity
  8
0
100
AcDbSpline
 62
7
  6
CONTINUOUS
 70
0
 71
3
 72
9
 73
5
 74
0
 42
0.0000001
 43
0.0000001
 44
0.0000000001
 40
0.0
 40
0.0
 40
0.0
 40
0.0
 40
0.512472982
 40
1.0
 40
1.0
 40
1.0
 40
1.0
 10
10.2022014285
 20
2.4697324928
 30
0.0
 10
10.1693228737
 20
2.4112084202
 30
0.0
 10
10.091755561
 20
2.3036888942
 30
0.0
 10
9.9874469303
 20
2.2211526703
 30
0.0
 10
9.9321435086
 20
2.1892217137
 30
0.0
  0
SPLINE
  5
456
100
AcDbEntity
  8
0
100
AcDbSpline
 62
7
  6
CONTINUOUS
 70
0
 71
3
 72
9
 73
5
 74
0
 42
0.0000001
 43
0.0000001
 44
0.0000000001
 40
0.0
 40
0.0
 40
0.0
 40
0.0
 40
0.5124827366
 40
1.0
 40
1.0
 40
1.0
 40
1.0
 10
8.3100111801
 20
5.7468912897
 30
0.0
 10
8.2428872256
 20
5.7476814022
 30
0.0
 10
8.1109883463
 20
5.7342542522
 30
0.0
 10
7.9873606127
 20
5.685178218
 30
0.0
 10
7.9320582266
 20
5.6532478593
 30
0.0
  0
SPLINE
  5
457
100
AcDbEntity
  8
0
100
AcDbSpline
 62
7
  6
CONTINUOUS
 70
0
 71
3
 72
16
 73
12
 74
0
 42
0.0000001
 43
0.0000001
 44
0.0000000001
 40
0.0
 40
0.0
 40
0.0
 40
0.0
 40
0.1217811363
 40
0.2548790589
 40
0.3943988355
 40
0.5345192
 40
0.6693583132
 40
0.7937472861
 40
0.8509093197
 40
0.904338563
 40
1.0
 40
1.0
 40
1.0
 40
1.0
 10
10.34631443
 20
3.1046855999
 30
0.0
 10
10.34631443
 20
3.2505501768
 30
0.0
 10
10.3114369704
 20
3.5561772258
 30
0.0
 10
10.1775303405
 20
4.0110703003
 30
0.0
 10
9.9675035784
 20
4.4605963668
 30
0.0
 10
9.6941014037
 20
4.8770809063
 30
0.0
 10
9.374121878
 20
5.235065122
 30
0.0
 10
9.0763685971
 20
5.4733605715
 30
0.0
 10
8.8310463454
 20
5.612678279
 30
0.0
 10
8.6032767485
 20
5.7087472457
 30
0.0
 10
8.4245826884
 20
5.7455426747
 30
0.0
 10
8.3100111801
 20
5.7468912897
 30
0.0
  0
SPLINE
  5
458
100
AcDbEntity
  8
0
100
AcDbSpline
 62
7
  6
CONTINUOUS
 70
0
 71
3
 72
11
 73
7
 74
0
 42
0.0000001
 43
0.0000001
 44
0.0000000001
 40
0.0
 40
0.0
 40
0.0
 40
0.0
 40
0.2874041877
 40
0.5470476682
 40
0.7819674873
 40
1.0
 40
1.0
 40
1.0
 40
1.0
 10
5.2434676387
 20
0.1583658162
 30
0.0
 10
5.2434676387
 20
0.0650031409
 30
0.0
 10
5.2303902875
 20
-0.1132003961
 30
0.0
 10
5.1645150566
 20
-0.3603944248
 30
0.0
 10
5.0541296651
 20
-0.5666058357
 30
0.0
 10
4.9493840819
 20
-0.6736332964
 30
0.0
 10
4.8924259046
 20
-0.715731874
 30
0.0
  0
SPLINE
  5
459
100
AcDbEntity
  8
0
100
AcDbSpline
 62
7
  6
CONTINUOUS
 70
0
 71
3
 72
18
 73
14
 74
0
 42
0.0000001
 43
0.0000001
 44
0.0000000001
 40
0.0
 40
0.0
 40
0.0
 40
0.0
 40
0.0430035609
 40
0.0883310669
 40
0.1371391233
 40
0.1901077199
 40
0.2474733487
 40
0.3091040416
 40
0.4430986941
 40
0.5866610035
 40
0.7323608032
 40
0.8724036369
 40
1.0
 40
1.0
 40
1.0
 40
1.0
 10
2.8967016646
 20
2.7409638054
 30
0.0
 10
2.9479711225
 20
2.7632823454
 30
0.0
 10
3.0594366254
 20
2.7959815596
 30
0.0
 10
3.2387943618
 20
2.8057945942
 30
0.0
 10
3.4291464515
 20
2.7779487257
 30
0.0
 10
3.6266757346
 20
2.7135646367
 30
0.0
 10
3.8277559153
 20
2.6142484037
 30
0.0
 10
4.1030478994
 20
2.4329451992
 30
0.0
 10
4.4290061599
 20
2.1311903439
 30
0.0
 10
4.7629604042
 20
1.6907890693
 30
0.0
 10
5.0253793127
 20
1.1951808252
 30
0.0
 10
5.1959532511
 20
0.6829764517
 30
0.0
 10
5.2425090846
 20
0.3348210601
 30
0.0
 10
5.243438058
 20
0.1689126475
 30
0.0
  0
SPLINE
  5
45A
100
AcDbEntity
  8
0
100
AcDbSpline
 62
7
  6
CONTINUOUS
 70
0
 71
3
 72
9
 73
5
 74
0
 42
0.0000001
 43
0.0000001
 44
0.0000000001
 40
0.0
 40
0.0
 40
0.0
 40
0.0
 40
0.2753878076
 40
1.0
 40
1.0
 40
1.0
 40
1.0
 10
10.34631443
 20
3.1046855999
 30
0.0
 10
10.34631443
 20
3.0445792511
 30
0.0
 10
10.3360181984
 20
2.82698599
 30
0.0
 10
10.2796645868
 20
2.6076174918
 30
0.0
 10
10.2022014285
 20
2.4697324928
 30
0.0
  0
SPLINE
  5
45B
100
AcDbEntity
  8
0
100
AcDbSpline
 62
7
  6
CONTINUOUS
 70
0
 71
3
 72
9
 73
5
 74
0
 42
0.0000001
 43
0.0000001
 44
0.0000000001
 40
0.0
 40
0.0
 40
0.0
 40
0.0
 40
0.512472982
 40
1.0
 40
1.0
 40
1.0
 40
1.0
 10
17.2025585622
 20
-1.2455663065
 30
0.0
 10
17.1696800074
 20
-1.304090379
 30
0.0
 10
17.0921126948
 20
-1.4116099051
 30
0.0
 10
16.9878040641
 20
-1.494146129
 30
0.0
 10
16.9325006424
 20
-1.5260770856
 30
0.0
  0
SPLINE
  5
45C
100
AcDbEntity
  8
0
100
AcDbSpline
 62
7
  6
CONTINUOUS
 70
0
 71
3
 72
9
 73
5
 74
0
 42
0.0000001
 43
0.0000001
 44
0.0000000001
 40
0.0
 40
0.0
 40
0.0
 40
0.0
 40
0.5124827366
 40
1.0
 40
1.0
 40
1.0
 40
1.0
 10
15.3103683138
 20
2.0315924904
 30
0.0
 10
15.2432443594
 20
2.0323826029
 30
0.0
 10
15.1113454801
 20
2.018955453
 30
0.0
 10
14.9877177465
 20
1.9698794187
 30
0.0
 10
14.9324153603
 20
1.93794906
 30
0.0
  0
SPLINE
  5
45D
100
AcDbEntity
  8
0
100
AcDbSpline
 62
7
  6
CONTINUOUS
 70
0
 71
3
 72
9
 73
5
 74
0
 42
0.0000001
 43
0.0000001
 44
0.0000000001
 40
0.0
 40
0.0
 40
0.0
 40
0.0
 40
0.2753878076
 40
1.0
 40
1.0
 40
1.0
 40
1.0
 10
17.3466715637
 20
-0.6106131994
 30
0.0
 10
17.3466715637
 20
-0.6707195482
 30
0.0
 10
17.3363753321
 20
-0.8883128093
 30
0.0
 10
17.2800217205
 20
-1.1076813075
 30
0.0
 10
17.2025585622
 20
-1.2455663065
 30
0.0
  0
SPLINE
  5
45E
100
AcDbEntity
  8
0
100
AcDbSpline
 62
7
  6
CONTINUOUS
 70
0
 71
3
 72
16
 73
12
 74
0
 42
0.0000001
 43
0.0000001
 44
0.0000000001
 40
0.0
 40
0.0
 40
0.0
 40
0.0
 40
0.1217811363
 40
0.2548790589
 40
0.3943988355
 40
0.5345192
 40
0.6693583132
 40
0.7937472861
 40
0.8509093197
 40
0.904338563
 40
1.0
 40
1.0
 40
1.0
 40
1.0
 10
17.3466715637
 20
-0.6106131994
 30
0.0
 10
17.3466715637
 20
-0.4647486225
 30
0.0
 10
17.3117941042
 20
-0.1591215734
 30
0.0
 10
17.1778874743
 20
0.295771501
 30
0.0
 10
16.9678607121
 20
0.7452975675
 30
0.0
 10
16.6944585374
 20
1.161782107
 30
0.0
 10
16.3744790118
 20
1.5197663227
 30
0.0
 10
16.0767257309
 20
1.7580617722
 30
0.0
 10
15.8314034791
 20
1.8973794797
 30
0.0
 10
15.6036338823
 20
1.9934484464
 30
0.0
 10
15.4249398222
 20
2.0302438754
 30
0.0
 10
15.3103683138
 20
2.0315924904
 30
0.0
  0
SPLINE
  5
45F
100
AcDbEntity
  8
0
100
AcDbSpline
 62
7
  6
CONTINUOUS
 70
0
 71
3
 72
9
 73
5
 74
0
 42
0.0000001
 43
0.0000001
 44
0.0000000001
 40
0.0
 40
0.0
 40
0.0
 40
0.0
 40
0.512472982
 40
1.0
 40
1.0
 40
1.0
 40
1.0
 10
23.637230271
 20
-5.2874847805
 30
0.0
 10
23.6043517162
 20
-5.346008853
 30
0.0
 10
23.5267844036
 20
-5.4535283791
 30
0.0
 10
23.4224757729
 20
-5.5360646029
 30
0.0
 10
23.3671723512
 20
-5.5679955595
 30
0.0
  0
SPLINE
  5
460
100
AcDbEntity
  8
0
100
AcDbSpline
 62
7
  6
CONTINUOUS
 70
0
 71
3
 72
9
 73
5
 74
0
 42
0.0000001
 43
0.0000001
 44
0.0000000001
 40
0.0
 40
0.0
 40
0.0
 40
0.0
 40
0.5124827366
 40
1.0
 40
1.0
 40
1.0
 40
1.0
 10
21.7450400226
 20
-2.0103259835
 30
0.0
 10
21.6779160682
 20
-2.0095358711
 30
0.0
 10
21.5460171889
 20
-2.022963021
 30
0.0
 10
21.4223894553
 20
-2.0720390552
 30
0.0
 10
21.3670870691
 20
-2.1039694139
 30
0.0
  0
SPLINE
  5
461
100
AcDbEntity
  8
0
100
AcDbSpline
 62
7
  6
CONTINUOUS
 70
0
 71
3
 72
16
 73
12
 74
0
 42
0.0000001
 43
0.0000001
 44
0.0000000001
 40
0.0
 40
0.0
 40
0.0
 40
0.0
 40
0.1217811363
 40
0.2548790589
 40
0.3943988355
 40
0.5345192
 40
0.6693583132
 40
0.7937472861
 40
0.8509093197
 40
0.904338563
 40
1.0
 40
1.0
 40
1.0
 40
1.0
 10
23.7813432725
 20
-4.6525316734
 30
0.0
 10
23.7813432725
 20
-4.5066670964
 30
0.0
 10
23.746465813
 20
-4.2010400474
 30
0.0
 10
23.6125591831
 20
-3.7461469729
 30
0.0
 10
23.4025324209
 20
-3.2966209064
 30
0.0
 10
23.1291302462
 20
-2.8801363669
 30
0.0
 10
22.8091507206
 20
-2.5221521512
 30
0.0
 10
22.5113974396
 20
-2.2838567018
 30
0.0
 10
22.2660751879
 20
-2.1445389943
 30
0.0
 10
22.0383055911
 20
-2.0484700275
 30
0.0
 10
21.859611531
 20
-2.0116745986
 30
0.0
 10
21.7450400226
 20
-2.0103259835
 30
0.0
  0
SPLINE
  5
462
100
AcDbEntity
  8
0
100
AcDbSpline
 62
7
  6
CONTINUOUS
 70
0
 71
3
 72
11
 73
7
 74
0
 42
0.0000001
 43
0.0000001
 44
0.0000000001
 40
0.0
 40
0.0
 40
0.0
 40
0.0
 40
0.2874041877
 40
0.5470476682
 40
0.7819674873
 40
1.0
 40
1.0
 40
1.0
 40
1.0
 10
18.6784964812
 20
-7.598851457
 30
0.0
 10
18.6784964812
 20
-7.6922141323
 30
0.0
 10
18.66541913
 20
-7.8704176693
 30
0.0
 10
18.5995438991
 20
-8.117611698
 30
0.0
 10
18.4891585077
 20
-8.3238231089
 30
0.0
 10
18.3844129245
 20
-8.4308505696
 30
0.0
 10
18.3274547471
 20
-8.4729491472
 30
0.0
  0
SPLINE
  5
463
100
AcDbEntity
  8
0
100
AcDbSpline
 62
7
  6
CONTINUOUS
 70
0
 71
3
 72
18
 73
14
 74
0
 42
0.0000001
 43
0.0000001
 44
0.0000000001
 40
0.0
 40
0.0
 40
0.0
 40
0.0
 40
0.0430035609
 40
0.0883310669
 40
0.1371391233
 40
0.1901077199
 40
0.2474733487
 40
0.3091040416
 40
0.4430986941
 40
0.5866610035
 40
0.7323608032
 40
0.8724036369
 40
1.0
 40
1.0
 40
1.0
 40
1.0
 10
16.3317305072
 20
-5.0162534679
 30
0.0
 10
16.382999965
 20
-4.9939349278
 30
0.0
 10
16.494465468
 20
-4.9612357136
 30
0.0
 10
16.6738232044
 20
-4.951422679
 30
0.0
 10
16.8641752941
 20
-4.9792685476
 30
0.0
 10
17.0617045772
 20
-5.0436526365
 30
0.0
 10
17.2627847578
 20
-5.1429688696
 30
0.0
 10
17.5380767419
 20
-5.3242720741
 30
0.0
 10
17.8640350024
 20
-5.6260269293
 30
0.0
 10
18.1979892467
 20
-6.0664282039
 30
0.0
 10
18.4604081552
 20
-6.562036448
 30
0.0
 10
18.6309820936
 20
-7.0742408215
 30
0.0
 10
18.6775379272
 20
-7.4223962131
 30
0.0
 10
18.6784669006
 20
-7.5883046257
 30
0.0
  0
SPLINE
  5
464
100
AcDbEntity
  8
0
100
AcDbSpline
 62
7
  6
CONTINUOUS
 70
0
 71
3
 72
9
 73
5
 74
0
 42
0.0000001
 43
0.0000001
 44
0.0000000001
 40
0.0
 40
0.0
 40
0.0
 40
0.0
 40
0.2753878076
 40
1.0
 40
1.0
 40
1.0
 40
1.0
 10
23.7813432725
 20
-4.6525316734
 30
0.0
 10
23.7813432725
 20
-4.7126380221
 30
0.0
 10
23.7710470409
 20
-4.9302312832
 30
0.0
 10
23.7146934293
 20
-5.1495997814
 30
0.0
 10
23.637230271
 20
-5.2874847805
 30
0.0
  0
SPLINE
  5
465
100
AcDbEntity
  8
0
100
AcDbSpline
 62
7
  6
CONTINUOUS
 70
0
 71
3
 72
10
 73
6
 74
0
 42
0.0000001
 43
0.0000001
 44
0.0000000001
 40
0.0
 40
0.0
 40
0.0
 40
0.0
 40
0.2273045869
 40
0.4642103806
 40
1.0
 40
1.0
 40
1.0
 40
1.0
 10
4.5038329866
 20
-12.1731178233
 30
0.0
 10
4.4931652915
 20
-12.1669585824
 30
0.0
 10
4.4732539652
 20
-12.1507778145
 30
0.0
 10
4.443237914
 20
-12.1048507654
 30
0.0
 10
4.4360751373
 20
-12.0615798782
 30
0.0
 10
4.4360751373
 20
-12.0325443076
 30
0.0
  0
SPLINE
  5
466
100
AcDbEntity
  8
0
100
AcDbSpline
 62
7
  6
CONTINUOUS
 70
0
 71
3
 72
8
 73
4
 74
0
 42
0.0000001
 43
0.0000001
 44
0.0000000001
 40
0.0
 40
0.0
 40
0.0
 40
0.0
 40
1.0
 40
1.0
 40
1.0
 40
1.0
 10
-3.2530321789
 20
-6.6060317541
 30
0.0
 10
-3.2530353383
 20
-6.6164147488
 30
0.0
 10
-3.2548748885
 20
-6.6268599636
 30
0.0
 10
-3.2578618485
 20
-6.6368040401
 30
0.0
  0
SPLINE
  5
467
100
AcDbEntity
  8
0
100
AcDbSpline
 62
7
  6
CONTINUOUS
 70
0
 71
3
 72
9
 73
5
 74
0
 42
0.0000001
 43
0.0000001
 44
0.0000000001
 40
0.0
 40
0.0
 40
0.0
 40
0.0
 40
0.245338008
 40
1.0
 40
1.0
 40
1.0
 40
1.0
 10
-3.1057113074
 20
-6.6143436347
 30
0.0
 10
-3.1057113063
 20
-6.609461391
 30
0.0
 10
-3.106963829
 20
-6.5895588454
 30
0.0
 10
-3.1135559008
 20
-6.5701738358
 30
0.0
 10
-3.1204899418
 20
-6.5568526422
 30
0.0
  0
SPLINE
  5
468
100
AcDbEntity
  8
0
100
AcDbSpline
 62
7
  6
CONTINUOUS
 70
0
 71
3
 72
9
 73
5
 74
0
 42
0.0000001
 43
0.0000001
 44
0.0000000001
 40
0.0
 40
0.0
 40
0.0
 40
0.0
 40
0.4645085009
 40
1.0
 40
1.0
 40
1.0
 40
1.0
 10
-4.6602446035
 20
-5.7973560358
 30
0.0
 10
-4.6602516309
 20
-5.81028542
 30
0.0
 10
-4.6673248499
 20
-5.8385665861
 30
0.0
 10
-4.6868292525
 20
-5.8597264035
 30
0.0
 10
-4.6983313747
 20
-5.8692061273
 30
0.0
  0
SPLINE
  5
469
100
AcDbEntity
  8
0
100
AcDbSpline
 62
7
  6
CONTINUOUS
 70
0
 71
3
 72
8
 73
4
 74
0
 42
0.0000001
 43
0.0000001
 44
0.0000000001
 40
0.0
 40
0.0
 40
0.0
 40
0.0
 40
1.0
 40
1.0
 40
1.0
 40
1.0
 10
-4.6983313747
 20
-5.8692061273
 30
0.0
 10
-4.7022979658
 20
-5.8724752794
 30
0.0
 10
-4.7064272967
 20
-5.8755530233
 30
0.0
 10
-4.7106657098
 20
-5.8784611247
 30
0.0
  0
SPLINE
  5
46A
100
AcDbEntity
  8
0
100
AcDbSpline
 62
7
  6
CONTINUOUS
 70
0
 71
3
 72
8
 73
4
 74
0
 42
0.0000001
 43
0.0000001
 44
0.0000000001
 40
0.0
 40
0.0
 40
0.0
 40
0.0
 40
1.0
 40
1.0
 40
1.0
 40
1.0
 10
-5.7524086782
 20
-5.1629231468
 30
0.0
 10
-5.7524118376
 20
-5.1733061099
 30
0.0
 10
-5.7542513689
 20
-5.1837512916
 30
0.0
 10
-5.757238296
 20
-5.1936953451
 30
0.0
  0
SPLINE
  5
46B
100
AcDbEntity
  8
0
100
AcDbSpline
 62
7
  6
CONTINUOUS
 70
0
 71
3
 72
9
 73
5
 74
0
 42
0.0000001
 43
0.0000001
 44
0.0000000001
 40
0.0
 40
0.0
 40
0.0
 40
0.0
 40
0.2453378755
 40
1.0
 40
1.0
 40
1.0
 40
1.0
 10
-5.6050876768
 20
-5.1712349328
 30
0.0
 10
-5.6050876757
 20
-5.1663527017
 30
0.0
 10
-5.6063402001
 20
-5.1464501966
 30
0.0
 10
-5.6129322661
 20
-5.1270652297
 30
0.0
 10
-5.6198662943
 20
-5.1137440609
 30
0.0
  0
SPLINE
  5
46C
100
AcDbEntity
  8
0
100
AcDbSpline
 62
7
  6
CONTINUOUS
 70
0
 71
3
 72
19
 73
15
 74
0
 42
0.0000001
 43
0.0000001
 44
0.0000000001
 40
0.0
 40
0.0
 40
0.0
 40
0.0
 40
0.0395833701
 40
0.0814933689
 40
0.1274205833
 40
0.1783316322
 40
0.2345031265
 40
0.2957433797
 40
0.3615267767
 40
0.4310954154
 40
0.5776463293
 40
0.7270971722
 40
0.8705519584
 40
1.0
 40
1.0
 40
1.0
 40
1.0
 10
8.1649142481
 20
-8.3342862575
 30
0.0
 10
8.1649142481
 20
-8.4202371257
 30
0.0
 10
8.1413261002
 20
-8.5979410993
 30
0.0
 10
8.0369241936
 20
-8.856823101
 30
0.0
 10
7.8646891061
 20
-9.1065614429
 30
0.0
 10
7.627670333
 20
-9.3416390006
 30
0.0
 10
7.3303475878
 20
-9.5563467425
 30
0.0
 10
6.9791352271
 20
-9.7452124529
 30
0.0
 10
6.5817722747
 20
-9.9034750074
 30
0.0
 10
5.9922018901
 20
-10.0712318131
 30
0.0
 10
5.2014196436
 20
-10.1802373174
 30
0.0
 10
4.24324685
 20
-10.1524626423
 30
0.0
 10
3.3398341128
 20
-9.9712295821
 30
0.0
 10
2.7864973501
 20
-9.7432727963
 30
0.0
 10
2.5430771465
 20
-9.6027250215
 30
0.0
  0
SPLINE
  5
46D
100
AcDbEntity
  8
0
100
AcDbSpline
 62
7
  6
CONTINUOUS
 70
0
 71
3
 72
11
 73
7
 74
0
 42
0.0000001
 43
0.0000001
 44
0.0000000001
 40
0.0
 40
0.0
 40
0.0
 40
0.0
 40
0.2956086433
 40
0.5566090686
 40
0.7874277622
 40
1.0
 40
1.0
 40
1.0
 40
1.0
 10
-11.0054107397
 20
-1.7765969689
 30
0.0
 10
-11.1306684568
 20
-1.6965622933
 30
0.0
 10
-11.3556299866
 20
-1.5270794137
 30
0.0
 10
-11.6197543729
 20
-1.2276899063
 30
0.0
 10
-11.7827219265
 20
-0.9082485826
 30
0.0
 10
-11.8201145945
 20
-0.6839589312
 30
0.0
 10
-11.8201145945
 20
-0.5770689843
 30
0.0
  0
LINE
  5
46E
100
AcDbEntity
  8
0
100
AcDbLine
 62
7
  6
CONTINUOUS
 10
-12.0285579415
 20
1.5351925053
 11
-12.0471720069
 21
1.5244303753
  0
SPLINE
  5
46F
100
AcDbEntity
  8
0
100
AcDbSpline
 62
7
  6
CONTINUOUS
 70
0
 71
3
 72
9
 73
5
 74
0
 42
0.0000001
 43
0.0000001
 44
0.0000000001
 40
0.0
 40
0.0
 40
0.0
 40
0.0
 40
0.2433941464
 40
1.0
 40
1.0
 40
1.0
 40
1.0
 10
-8.2951294616
 20
3.5143438737
 30
0.0
 10
-8.2906653209
 20
3.5170720591
 30
0.0
 10
-8.2725793623
 20
3.5286958531
 30
0.0
 10
-8.2555246087
 20
3.5419041741
 30
0.0
 10
-8.2432607454
 20
3.55258562
 30
0.0
  0
SPLINE
  5
470
100
AcDbEntity
  8
0
100
AcDbSpline
 62
7
  6
CONTINUOUS
 70
0
 71
3
 72
9
 73
5
 74
0
 42
0.0000001
 43
0.0000001
 44
0.0000000001
 40
0.0
 40
0.0
 40
0.0
 40
0.0
 40
0.5204115039
 40
1.0
 40
1.0
 40
1.0
 40
1.0
 10
-8.2432607454
 20
3.55258562
 30
0.0
 10
-8.197957804
 20
3.5920430813
 30
0.0
 10
-8.1260640371
 20
3.6857046112
 30
0.0
 10
-8.0912754837
 20
3.8006479636
 30
0.0
 10
-8.0912754837
 20
3.8560123149
 30
0.0
  0
SPLINE
  5
471
100
AcDbEntity
  8
0
100
AcDbSpline
 62
7
  6
CONTINUOUS
 70
0
 71
3
 72
9
 73
5
 74
0
 42
0.0000001
 43
0.0000001
 44
0.0000000001
 40
0.0
 40
0.0
 40
0.0
 40
0.0
 40
0.5217248533
 40
1.0
 40
1.0
 40
1.0
 40
1.0
 10
-2.6700749152
 20
-7.2780099316
 30
0.0
 10
-2.6896921071
 20
-7.2748636375
 30
0.0
 10
-2.7270047045
 20
-7.2668727383
 30
0.0
 10
-2.7627798922
 20
-7.2527227016
 30
0.0
 10
-2.7785528032
 20
-7.2436156205
 30
0.0
  0
SPLINE
  5
472
100
AcDbEntity
  8
0
100
AcDbSpline
 62
7
  6
CONTINUOUS
 70
0
 71
3
 72
9
 73
5
 74
0
 42
0.0000001
 43
0.0000001
 44
0.0000000001
 40
0.0
 40
0.0
 40
0.0
 40
0.0
 40
0.2635587175
 40
1.0
 40
1.0
 40
1.0
 40
1.0
 10
-2.7785528032
 20
-7.2436156205
 30
0.0
 10
-2.7821918729
 20
-7.2415144673
 30
0.0
 10
-2.7957867876
 20
-7.2331887502
 30
0.0
 10
-2.8084368617
 20
-7.2232534247
 30
0.0
 10
-2.8168021556
 20
-7.2150140589
 30
0.0
  0
SPLINE
  5
473
100
AcDbEntity
  8
0
100
AcDbSpline
 62
7
  6
CONTINUOUS
 70
0
 71
3
 72
9
 73
5
 74
0
 42
0.0000001
 43
0.0000001
 44
0.0000000001
 40
0.0
 40
0.0
 40
0.0
 40
0.0
 40
0.2580806032
 40
1.0
 40
1.0
 40
1.0
 40
1.0
 10
-2.8168021556
 20
-7.2150140589
 30
0.0
 10
-2.8208212819
 20
-7.211055435
 30
0.0
 10
-2.8355847805
 20
-7.1949023987
 30
0.0
 10
-2.8486711665
 20
-7.1773317718
 30
0.0
 10
-2.8580084794
 20
-7.1640721979
 30
0.0
  0
SPLINE
  5
474
100
AcDbEntity
  8
0
100
AcDbSpline
 62
7
  6
CONTINUOUS
 70
0
 71
3
 72
9
 73
5
 74
0
 42
0.0000001
 43
0.0000001
 44
0.0000000001
 40
0.0
 40
0.0
 40
0.0
 40
0.0
 40
0.5724725426
 40
1.0
 40
1.0
 40
1.0
 40
1.0
 10
-2.8580084794
 20
-7.1640721979
 30
0.0
 10
-2.8711007342
 20
-7.1454803696
 30
0.0
 10
-2.8945627976
 20
-7.1134261486
 30
0.0
 10
-2.9202318464
 20
-7.0829905134
 30
0.0
 10
-2.9321772682
 20
-7.0709205075
 30
0.0
  0
SPLINE
  5
475
100
AcDbEntity
  8
0
100
AcDbSpline
 62
7
  6
CONTINUOUS
 70
0
 71
3
 72
9
 73
5
 74
0
 42
0.0000001
 43
0.0000001
 44
0.0000000001
 40
0.0
 40
0.0
 40
0.0
 40
0.0
 40
0.4838121576
 40
1.0
 40
1.0
 40
1.0
 40
1.0
 10
-2.9998972578
 20
-7.0187861986
 30
0.0
 10
-3.0360225983
 20
-6.9979278797
 30
0.0
 10
-3.1178598777
 20
-6.966282672
 30
0.0
 10
-3.2049858309
 20
-6.9598711935
 30
0.0
 10
-3.2494589726
 20
-6.9615830578
 30
0.0
  0
SPLINE
  5
476
100
AcDbEntity
  8
0
100
AcDbSpline
 62
7
  6
CONTINUOUS
 70
0
 71
3
 72
9
 73
5
 74
0
 42
0.0000001
 43
0.0000001
 44
0.0000000001
 40
0.0
 40
0.0
 40
0.0
 40
0.0
 40
0.2354651159
 40
1.0
 40
1.0
 40
1.0
 40
1.0
 10
-3.2578618485
 20
-6.6368040401
 30
0.0
 10
-3.2591369763
 20
-6.6410491481
 30
0.0
 10
-3.2663153834
 20
-6.6585543839
 30
0.0
 10
-3.2781019209
 20
-6.673686742
 30
0.0
 10
-3.2876799536
 20
-6.6844286055
 30
0.0
  0
SPLINE
  5
477
100
AcDbEntity
  8
0
100
AcDbSpline
 62
7
  6
CONTINUOUS
 70
0
 71
3
 72
10
 73
6
 74
0
 42
0.0000001
 43
0.0000001
 44
0.0000000001
 40
0.0
 40
0.0
 40
0.0
 40
0.0
 40
0.2333539786
 40
0.4810525504
 40
1.0
 40
1.0
 40
1.0
 40
1.0
 10
-3.2876799536
 20
-6.6844286055
 30
0.0
 10
-3.3016489774
 20
-6.7000950113
 30
0.0
 10
-3.3340804927
 20
-6.729073662
 30
0.0
 10
-3.4065113294
 20
-6.7824194482
 30
0.0
 10
-3.4654934439
 20
-6.8184062849
 30
0.0
 10
-3.5059174376
 20
-6.8417465922
 30
0.0
  0
SPLINE
  5
478
100
AcDbEntity
  8
0
100
AcDbSpline
 62
7
  6
CONTINUOUS
 70
0
 71
3
 72
10
 73
6
 74
0
 42
0.0000001
 43
0.0000001
 44
0.0000000001
 40
0.0
 40
0.0
 40
0.0
 40
0.0
 40
0.4768397626
 40
0.7294851317
 40
1.0
 40
1.0
 40
1.0
 40
1.0
 10
-3.5059174376
 20
-6.8417465922
 30
0.0
 10
-3.5587980575
 20
-6.8722791994
 30
0.0
 10
-3.6414614449
 20
-6.9163880513
 30
0.0
 10
-3.7602432718
 20
-6.9642565507
 30
0.0
 10
-3.82573181
 20
-6.9812424742
 30
0.0
 10
-3.8601944664
 20
-6.9847539685
 30
0.0
  0
SPLINE
  5
479
100
AcDbEntity
  8
0
100
AcDbSpline
 62
7
  6
CONTINUOUS
 70
0
 71
3
 72
9
 73
5
 74
0
 42
0.0000001
 43
0.0000001
 44
0.0000000001
 40
0.0
 40
0.0
 40
0.0
 40
0.0
 40
0.2634427035
 40
1.0
 40
1.0
 40
1.0
 40
1.0
 10
-3.8601944664
 20
-6.9847539685
 30
0.0
 10
-3.8785151273
 20
-6.9866207108
 30
0.0
 10
-3.9479371017
 20
-6.9907395438
 30
0.0
 10
-4.0212741226
 20
-6.9786392952
 30
0.0
 10
-4.0658631462
 20
-6.9528941518
 30
0.0
  0
SPLINE
  5
47A
100
AcDbEntity
  8
0
100
AcDbSpline
 62
7
  6
CONTINUOUS
 70
0
 71
3
 72
11
 73
7
 74
0
 42
0.0000001
 43
0.0000001
 44
0.0000000001
 40
0.0
 40
0.0
 40
0.0
 40
0.0
 40
0.2910025647
 40
0.5502478838
 40
0.7820558075
 40
1.0
 40
1.0
 40
1.0
 40
1.0
 10
-4.0658631462
 20
-6.9528941518
 30
0.0
 10
-4.0752880798
 20
-6.9474523133
 30
0.0
 10
-4.0924108726
 20
-6.935816604
 30
0.0
 10
-4.1127633168
 20
-6.9143616241
 30
0.0
 10
-4.1248156855
 20
-6.8902601835
 30
0.0
 10
-4.1272551901
 20
-6.8733099459
 30
0.0
 10
-4.1272527537
 20
-6.8651590916
 30
0.0
  0
SPLINE
  5
47B
100
AcDbEntity
  8
0
100
AcDbSpline
 62
7
  6
CONTINUOUS
 70
0
 71
3
 72
8
 73
4
 74
0
 42
0.0000001
 43
0.0000001
 44
0.0000000001
 40
0.0
 40
0.0
 40
0.0
 40
0.0
 40
1.0
 40
1.0
 40
1.0
 40
1.0
 10
-4.2725722738
 20
-6.830856771
 30
0.0
 10
-4.2742569453
 20
-6.8391558058
 30
0.0
 10
-4.2751752684
 20
-6.8476596669
 30
0.0
 10
-4.2751752626
 20
-6.8561279665
 30
0.0
  0
SPLINE
  5
47C
100
AcDbEntity
  8
0
100
AcDbSpline
 62
7
  6
CONTINUOUS
 70
0
 71
3
 72
9
 73
5
 74
0
 42
0.0000001
 43
0.0000001
 44
0.0000000001
 40
0.0
 40
0.0
 40
0.0
 40
0.0
 40
0.2139266894
 40
1.0
 40
1.0
 40
1.0
 40
1.0
 10
-3.1204899418
 20
-6.5568526422
 30
0.0
 10
-3.124996122
 20
-6.5481956846
 30
0.0
 10
-3.1504436888
 20
-6.5099606862
 30
0.0
 10
-3.1889314335
 20
-6.4824279111
 30
0.0
 10
-3.2199878225
 20
-6.4644963413
 30
0.0
  0
SPLINE
  5
47D
100
AcDbEntity
  8
0
100
AcDbSpline
 62
7
  6
CONTINUOUS
 70
0
 71
3
 72
9
 73
5
 74
0
 42
0.0000001
 43
0.0000001
 44
0.0000000001
 40
0.0
 40
0.0
 40
0.0
 40
0.0
 40
0.4961471385
 40
1.0
 40
1.0
 40
1.0
 40
1.0
 10
-3.2199878225
 20
-6.4644963413
 30
0.0
 10
-3.253176294
 20
-6.4453337338
 30
0.0
 10
-3.3249126828
 20
-6.4144839115
 30
0.0
 10
-3.4018820371
 20
-6.4017247685
 30
0.0
 10
-3.4407384015
 20
-6.3995252497
 30
0.0
  0
SPLINE
  5
47E
100
AcDbEntity
  8
0
100
AcDbSpline
 62
7
  6
CONTINUOUS
 70
0
 71
3
 72
9
 73
5
 74
0
 42
0.0000001
 43
0.0000001
 44
0.0000000001
 40
0.0
 40
0.0
 40
0.0
 40
0.0
 40
0.2380319802
 40
1.0
 40
1.0
 40
1.0
 40
1.0
 10
-3.4407384015
 20
-6.3995252497
 30
0.0
 10
-3.4610076709
 20
-6.3983778794
 30
0.0
 10
-3.5463875255
 20
-6.3975283041
 30
0.0
 10
-3.6315236492
 20
-6.4126733468
 30
0.0
 10
-3.6940292315
 20
-6.4304641503
 30
0.0
  0
SPLINE
  5
47F
100
AcDbEntity
  8
0
100
AcDbSpline
 62
7
  6
CONTINUOUS
 70
0
 71
3
 72
9
 73
5
 74
0
 42
0.0000001
 43
0.0000001
 44
0.0000000001
 40
0.0
 40
0.0
 40
0.0
 40
0.0
 40
0.4619236539
 40
1.0
 40
1.0
 40
1.0
 40
1.0
 10
-3.6940292315
 20
-6.4304641503
 30
0.0
 10
-3.7420329493
 20
-6.4441273253
 30
0.0
 10
-3.8433076367
 20
-6.4830484788
 30
0.0
 10
-3.9390159066
 20
-6.5335396331
 30
0.0
 10
-3.9893645325
 20
-6.5626102987
 30
0.0
  0
SPLINE
  5
480
100
AcDbEntity
  8
0
100
AcDbSpline
 62
7
  6
CONTINUOUS
 70
0
 71
3
 72
9
 73
5
 74
0
 42
0.0000001
 43
0.0000001
 44
0.0000000001
 40
0.0
 40
0.0
 40
0.0
 40
0.0
 40
0.2797871464
 40
1.0
 40
1.0
 40
1.0
 40
1.0
 10
-3.9893645325
 20
-6.5626102987
 30
0.0
 10
-4.0052288356
 20
-6.5717701485
 30
0.0
 10
-4.0614450123
 20
-6.605299419
 30
0.0
 10
-4.1158557162
 20
-6.6421559232
 30
0.0
 10
-4.1524742483
 20
-6.6718662752
 30
0.0
  0
SPLINE
  5
481
100
AcDbEntity
  8
0
100
AcDbSpline
 62
7
  6
CONTINUOUS
 70
0
 71
3
 72
9
 73
5
 74
0
 42
0.0000001
 43
0.0000001
 44
0.0000000001
 40
0.0
 40
0.0
 40
0.0
 40
0.0
 40
0.2657531671
 40
1.0
 40
1.0
 40
1.0
 40
1.0
 10
-4.1524742483
 20
-6.6718662752
 30
0.0
 10
-4.1572295237
 20
-6.6757244556
 30
0.0
 10
-4.1749468659
 20
-6.690455145
 30
0.0
 10
-4.1919384341
 20
-6.7060818678
 30
0.0
 10
-4.2037624253
 20
-6.7181830282
 30
0.0
  0
SPLINE
  5
482
100
AcDbEntity
  8
0
100
AcDbSpline
 62
7
  6
CONTINUOUS
 70
0
 71
3
 72
9
 73
5
 74
0
 42
0.0000001
 43
0.0000001
 44
0.0000000001
 40
0.0
 40
0.0
 40
0.0
 40
0.0
 40
0.2950817331
 40
1.0
 40
1.0
 40
1.0
 40
1.0
 10
-4.2037624253
 20
-6.7181830282
 30
0.0
 10
-4.212898493
 20
-6.7275332569
 30
0.0
 10
-4.2423846427
 20
-6.7602898772
 30
0.0
 10
-4.2663595862
 20
-6.8002518073
 30
0.0
 10
-4.2725722738
 20
-6.830856771
 30
0.0
  0
SPLINE
  5
483
100
AcDbEntity
  8
0
100
AcDbSpline
 62
7
  6
CONTINUOUS
 70
0
 71
3
 72
11
 73
7
 74
0
 42
0.0000001
 43
0.0000001
 44
0.0000000001
 40
0.0
 40
0.0
 40
0.0
 40
0.0
 40
0.2188453841
 40
0.4454774486
 40
0.7007721481
 40
1.0
 40
1.0
 40
1.0
 40
1.0
 10
-4.1044251692
 20
-6.4123616292
 30
0.0
 10
-4.104348656
 20
-6.3967679669
 30
0.0
 10
-4.1092750921
 20
-6.3647106117
 30
0.0
 10
-4.1332025134
 20
-6.3199764685
 30
0.0
 10
-4.1724235254
 20
-6.2797261944
 30
0.0
 10
-4.2054123217
 20
-6.2575689417
 30
0.0
 10
-4.2238769944
 20
-6.2469076711
 30
0.0
  0
SPLINE
  5
484
100
AcDbEntity
  8
0
100
AcDbSpline
 62
7
  6
CONTINUOUS
 70
0
 71
3
 72
9
 73
5
 74
0
 42
0.0000001
 43
0.0000001
 44
0.0000000001
 40
0.0
 40
0.0
 40
0.0
 40
0.0
 40
0.2340749978
 40
1.0
 40
1.0
 40
1.0
 40
1.0
 10
-4.2238769944
 20
-6.2469076711
 30
0.0
 10
-4.2338971521
 20
-6.2411221576
 30
0.0
 10
-4.2778359369
 20
-6.2183595726
 30
0.0
 10
-4.3254793171
 20
-6.2032800003
 30
0.0
 10
-4.3624039563
 20
-6.1949157484
 30
0.0
  0
SPLINE
  5
485
100
AcDbEntity
  8
0
100
AcDbSpline
 62
7
  6
CONTINUOUS
 70
0
 71
3
 72
9
 73
5
 74
0
 42
0.0000001
 43
0.0000001
 44
0.0000000001
 40
0.0
 40
0.0
 40
0.0
 40
0.0
 40
0.2396600364
 40
1.0
 40
1.0
 40
1.0
 40
1.0
 10
-4.3624039563
 20
-6.1949157484
 30
0.0
 10
-4.3697342889
 20
-6.193255265
 30
0.0
 10
-4.4004373137
 20
-6.1868440399
 30
0.0
 10
-4.4315385867
 20
-6.1824107785
 30
0.0
 10
-4.4552543756
 20
-6.1799294523
 30
0.0
  0
SPLINE
  5
486
100
AcDbEntity
  8
0
100
AcDbSpline
 62
7
  6
CONTINUOUS
 70
0
 71
3
 72
9
 73
5
 74
0
 42
0.0000001
 43
0.0000001
 44
0.0000000001
 40
0.0
 40
0.0
 40
0.0
 40
0.0
 40
0.4689647856
 40
1.0
 40
1.0
 40
1.0
 40
1.0
 10
-4.2680791537
 20
-6.4011359695
 30
0.0
 10
-4.2683897771
 20
-6.4151863603
 30
0.0
 10
-4.277105777
 20
-6.4452090814
 30
0.0
 10
-4.296948909
 20
-6.4684556861
 30
0.0
 10
-4.3085016511
 20
-6.4794004337
 30
0.0
  0
SPLINE
  5
487
100
AcDbEntity
  8
0
100
AcDbSpline
 62
7
  6
CONTINUOUS
 70
0
 71
3
 72
9
 73
5
 74
0
 42
0.0000001
 43
0.0000001
 44
0.0000000001
 40
0.0
 40
0.0
 40
0.0
 40
0.0
 40
0.2376428875
 40
1.0
 40
1.0
 40
1.0
 40
1.0
 10
-4.3085016511
 20
-6.4794004337
 30
0.0
 10
-4.3125561633
 20
-6.4832415662
 30
0.0
 10
-4.3302900622
 20
-6.4986970733
 30
0.0
 10
-4.3500714665
 20
-6.5116542415
 30
0.0
 10
-4.3655877751
 20
-6.5206131636
 30
0.0
  0
SPLINE
  5
488
100
AcDbEntity
  8
0
100
AcDbSpline
 62
7
  6
CONTINUOUS
 70
0
 71
3
 72
9
 73
5
 74
0
 42
0.0000001
 43
0.0000001
 44
0.0000000001
 40
0.0
 40
0.0
 40
0.0
 40
0.0
 40
0.4725631138
 40
1.0
 40
1.0
 40
1.0
 40
1.0
 10
-4.3655877751
 20
-6.5206131636
 30
0.0
 10
-4.3969345204
 20
-6.5387123815
 30
0.0
 10
-4.4678799285
 20
-6.5696438122
 30
0.0
 10
-4.5446508113
 20
-6.5813115642
 30
0.0
 10
-4.5850377107
 20
-6.5823334857
 30
0.0
  0
SPLINE
  5
489
100
AcDbEntity
  8
0
100
AcDbSpline
 62
7
  6
CONTINUOUS
 70
0
 71
3
 72
9
 73
5
 74
0
 42
0.0000001
 43
0.0000001
 44
0.0000000001
 40
0.0
 40
0.0
 40
0.0
 40
0.0
 40
0.5264204115
 40
1.0
 40
1.0
 40
1.0
 40
1.0
 10
-4.5850377107
 20
-6.5823334857
 30
0.0
 10
-4.6212161001
 20
-6.5832489181
 30
0.0
 10
-4.6905090232
 20
-6.578380792
 30
0.0
 10
-4.7562545652
 20
-6.5542707991
 30
0.0
 10
-4.7844495656
 20
-6.5379913592
 30
0.0
  0
SPLINE
  5
48A
100
AcDbEntity
  8
0
100
AcDbSpline
 62
7
  6
CONTINUOUS
 70
0
 71
3
 72
9
 73
5
 74
0
 42
0.0000001
 43
0.0000001
 44
0.0000000001
 40
0.0
 40
0.0
 40
0.0
 40
0.0
 40
0.5465252903
 40
1.0
 40
1.0
 40
1.0
 40
1.0
 10
-4.7844495656
 20
-6.5379913592
 30
0.0
 10
-4.8017380465
 20
-6.5280092071
 30
0.0
 10
-4.8320943127
 20
-6.5066561593
 30
0.0
 10
-4.8516521863
 20
-6.4736331711
 30
0.0
 10
-4.8553641134
 20
-6.4574900204
 30
0.0
  0
SPLINE
  5
48B
100
AcDbEntity
  8
0
100
AcDbSpline
 62
7
  6
CONTINUOUS
 70
0
 71
3
 72
11
 73
7
 74
0
 42
0.0000001
 43
0.0000001
 44
0.0000000001
 40
0.0
 40
0.0
 40
0.0
 40
0.0
 40
0.3008827809
 40
0.5589023436
 40
0.7861792378
 40
1.0
 40
1.0
 40
1.0
 40
1.0
 10
-4.9161277006
 20
-6.2729749309
 30
0.0
 10
-4.9310891668
 20
-6.2834645767
 30
0.0
 10
-4.9577652309
 20
-6.3046979965
 30
0.0
 10
-4.9893464268
 20
-6.3409744874
 30
0.0
 10
-5.0087820556
 20
-6.3793247932
 30
0.0
 10
-5.0130933668
 20
-6.4062979804
 30
0.0
 10
-5.0130933665
 20
-6.4192831173
 30
0.0
  0
SPLINE
  5
48C
100
AcDbEntity
  8
0
100
AcDbSpline
 62
7
  6
CONTINUOUS
 70
0
 71
3
 72
9
 73
5
 74
0
 42
0.0000001
 43
0.0000001
 44
0.0000000001
 40
0.0
 40
0.0
 40
0.0
 40
0.0
 40
0.7456323626
 40
1.0
 40
1.0
 40
1.0
 40
1.0
 10
-4.5066714979
 20
-5.8062997998
 30
0.0
 10
-4.5070567633
 20
-5.7974020277
 30
0.0
 10
-4.5089817607
 20
-5.7854722351
 30
0.0
 10
-4.5125930728
 20
-5.7740839539
 30
0.0
 10
-4.5136116471
 20
-5.7712215183
 30
0.0
  0
SPLINE
  5
48D
100
AcDbEntity
  8
0
100
AcDbSpline
 62
7
  6
CONTINUOUS
 70
0
 71
3
 72
9
 73
5
 74
0
 42
0.0000001
 43
0.0000001
 44
0.0000000001
 40
0.0
 40
0.0
 40
0.0
 40
0.0
 40
0.4301176622
 40
1.0
 40
1.0
 40
1.0
 40
1.0
 10
-4.5136116471
 20
-5.7712215183
 30
0.0
 10
-4.5224858183
 20
-5.74628299
 30
0.0
 10
-4.5609814628
 20
-5.6951683046
 30
0.0
 10
-4.6123662338
 20
-5.6605544972
 30
0.0
 10
-4.6427388191
 20
-5.6430177471
 30
0.0
  0
SPLINE
  5
48E
100
AcDbEntity
  8
0
100
AcDbSpline
 62
7
  6
CONTINUOUS
 70
0
 71
3
 72
9
 73
5
 74
0
 42
0.0000001
 43
0.0000001
 44
0.0000000001
 40
0.0
 40
0.0
 40
0.0
 40
0.0
 40
0.2534911285
 40
1.0
 40
1.0
 40
1.0
 40
1.0
 10
-6.6041180405
 20
-4.6524846917
 30
0.0
 10
-6.6273943218
 20
-4.651732837
 30
0.0
 10
-6.7191421918
 20
-4.6465995713
 30
0.0
 10
-6.8103620982
 20
-4.6331338116
 30
0.0
 10
-6.8775049982
 20
-4.6191564252
 30
0.0
  0
SPLINE
  5
48F
100
AcDbEntity
  8
0
100
AcDbSpline
 62
7
  6
CONTINUOUS
 70
0
 71
3
 72
9
 73
5
 74
0
 42
0.0000001
 43
0.0000001
 44
0.0000000001
 40
0.0
 40
0.0
 40
0.0
 40
0.0
 40
0.4965918879
 40
1.0
 40
1.0
 40
1.0
 40
1.0
 10
-6.3808902796
 20
-4.639430878
 30
0.0
 10
-6.4172897242
 20
-4.6464364185
 30
0.0
 10
-6.4918734375
 20
-4.6537937287
 30
0.0
 10
-6.5665613721
 20
-4.6536978218
 30
0.0
 10
-6.6041180405
 20
-4.6524846917
 30
0.0
  0
SPLINE
  5
490
100
AcDbEntity
  8
0
100
AcDbSpline
 62
7
  6
CONTINUOUS
 70
0
 71
3
 72
11
 73
7
 74
0
 42
0.0000001
 43
0.0000001
 44
0.0000000001
 40
0.0
 40
0.0
 40
0.0
 40
0.0
 40
0.3415177468
 40
0.616930097
 40
0.8323092605
 40
1.0
 40
1.0
 40
1.0
 40
1.0
 10
-6.4887409945
 20
-5.119501654
 30
0.0
 10
-6.5280496866
 20
-5.1421980002
 30
0.0
 10
-6.5977905735
 20
-5.1855250675
 30
0.0
 10
-6.685174175
 20
-5.2539154696
 30
0.0
 10
-6.744648463
 20
-5.3187844165
 30
0.0
 10
-6.7675149289
 20
-5.3659061087
 30
0.0
 10
-6.7719487577
 20
-5.3877480971
 30
0.0
  0
SPLINE
  5
491
100
AcDbEntity
  8
0
100
AcDbSpline
 62
7
  6
CONTINUOUS
 70
0
 71
3
 72
9
 73
5
 74
0
 42
0.0000001
 43
0.0000001
 44
0.0000000001
 40
0.0
 40
0.0
 40
0.0
 40
0.0
 40
0.4619236424
 40
1.0
 40
1.0
 40
1.0
 40
1.0
 10
-6.1934057098
 20
-4.9873554867
 30
0.0
 10
-6.2414094217
 20
-5.0010186728
 30
0.0
 10
-6.3426841012
 20
-5.039939836
 30
0.0
 10
-6.4383923688
 20
-5.0904309886
 30
0.0
 10
-6.4887409945
 20
-5.119501654
 30
0.0
  0
SPLINE
  5
492
100
AcDbEntity
  8
0
100
AcDbSpline
 62
7
  6
CONTINUOUS
 70
0
 71
3
 72
9
 73
5
 74
0
 42
0.0000001
 43
0.0000001
 44
0.0000000001
 40
0.0
 40
0.0
 40
0.0
 40
0.0
 40
0.2380322479
 40
1.0
 40
1.0
 40
1.0
 40
1.0
 10
-5.9401147426
 20
-4.9564165977
 30
0.0
 10
-5.9603840455
 20
-4.9552692219
 30
0.0
 10
-6.0457639452
 20
-4.9544196231
 30
0.0
 10
-6.1309001202
 20
-4.9695646645
 30
0.0
 10
-6.1934057098
 20
-4.9873554867
 30
0.0
  0
SPLINE
  5
493
100
AcDbEntity
  8
0
100
AcDbSpline
 62
7
  6
CONTINUOUS
 70
0
 71
3
 72
9
 73
5
 74
0
 42
0.0000001
 43
0.0000001
 44
0.0000000001
 40
0.0
 40
0.0
 40
0.0
 40
0.0
 40
0.4961471228
 40
1.0
 40
1.0
 40
1.0
 40
1.0
 10
-5.7193643941
 20
-5.0213876334
 30
0.0
 10
-5.7525528299
 20
-5.0022250465
 30
0.0
 10
-5.8242891491
 20
-4.9713752709
 30
0.0
 10
-5.9012584179
 20
-4.9586161212
 30
0.0
 10
-5.9401147426
 20
-4.9564165977
 30
0.0
  0
SPLINE
  5
494
100
AcDbEntity
  8
0
100
AcDbSpline
 62
7
  6
CONTINUOUS
 70
0
 71
3
 72
9
 73
5
 74
0
 42
0.0000001
 43
0.0000001
 44
0.0000000001
 40
0.0
 40
0.0
 40
0.0
 40
0.0
 40
0.2139265624
 40
1.0
 40
1.0
 40
1.0
 40
1.0
 10
-5.6198662943
 20
-5.1137440609
 30
0.0
 10
-5.6243724799
 20
-5.1050870929
 30
0.0
 10
-5.6498201329
 20
-5.0668520505
 30
0.0
 10
-5.6883079442
 20
-5.0393192383
 30
0.0
 10
-5.7193643941
 20
-5.0213876334
 30
0.0
  0
SPLINE
  5
495
100
AcDbEntity
  8
0
100
AcDbSpline
 62
7
  6
CONTINUOUS
 70
0
 71
3
 72
8
 73
4
 74
0
 42
0.0000001
 43
0.0000001
 44
0.0000000001
 40
0.0
 40
0.0
 40
0.0
 40
0.0
 40
1.0
 40
1.0
 40
1.0
 40
1.0
 10
-6.7719487577
 20
-5.3877480971
 30
0.0
 10
-6.7736334246
 20
-5.3960471266
 30
0.0
 10
-6.7745517451
 20
-5.4045509816
 30
0.0
 10
-6.7745517393
 20
-5.413019275
 30
0.0
  0
SPLINE
  5
496
100
AcDbEntity
  8
0
100
AcDbSpline
 62
7
  6
CONTINUOUS
 70
0
 71
3
 72
11
 73
7
 74
0
 42
0.0000001
 43
0.0000001
 44
0.0000000001
 40
0.0
 40
0.0
 40
0.0
 40
0.0
 40
0.2910026106
 40
0.5502478645
 40
0.7820557515
 40
1.0
 40
1.0
 40
1.0
 40
1.0
 10
-6.5652397178
 20
-5.5097854439
 30
0.0
 10
-6.5746646431
 20
-5.5043436102
 30
0.0
 10
-6.5917874157
 20
-5.4927079087
 30
0.0
 10
-6.6121398129
 20
-5.4712529255
 30
0.0
 10
-6.6241921196
 20
-5.4471514869
 30
0.0
 10
-6.6266316029
 20
-5.4302012668
 30
0.0
 10
-6.6266291668
 20
-5.4220504189
 30
0.0
  0
SPLINE
  5
497
100
AcDbEntity
  8
0
100
AcDbSpline
 62
7
  6
CONTINUOUS
 70
0
 71
3
 72
9
 73
5
 74
0
 42
0.0000001
 43
0.0000001
 44
0.0000000001
 40
0.0
 40
0.0
 40
0.0
 40
0.0
 40
0.2634427338
 40
1.0
 40
1.0
 40
1.0
 40
1.0
 10
-6.3595710159
 20
-5.5416453328
 30
0.0
 10
-6.3778916831
 20
-5.5435120597
 30
0.0
 10
-6.447313669
 20
-5.5476308629
 30
0.0
 10
-6.5206506897
 20
-5.5355305899
 30
0.0
 10
-6.5652397178
 20
-5.5097854439
 30
0.0
  0
SPLINE
  5
498
100
AcDbEntity
  8
0
100
AcDbSpline
 62
7
  6
CONTINUOUS
 70
0
 71
3
 72
10
 73
6
 74
0
 42
0.0000001
 43
0.0000001
 44
0.0000000001
 40
0.0
 40
0.0
 40
0.0
 40
0.0
 40
0.4768397451
 40
0.7294850675
 40
1.0
 40
1.0
 40
1.0
 40
1.0
 10
-6.0052941188
 20
-5.398637821
 30
0.0
 10
-6.0581747282
 20
-5.4291704221
 30
0.0
 10
-6.1408380602
 20
-5.473279321
 30
0.0
 10
-6.2596198181
 20
-5.5211479338
 30
0.0
 10
-6.3251083539
 20
-5.538133868
 30
0.0
 10
-6.3595710159
 20
-5.5416453328
 30
0.0
  0
SPLINE
  5
499
100
AcDbEntity
  8
0
100
AcDbSpline
 62
7
  6
CONTINUOUS
 70
0
 71
3
 72
9
 73
5
 74
0
 42
0.0000001
 43
0.0000001
 44
0.0000000001
 40
0.0
 40
0.0
 40
0.0
 40
0.0
 40
0.235465032
 40
1.0
 40
1.0
 40
1.0
 40
1.0
 10
-5.757238296
 20
-5.1936953451
 30
0.0
 10
-5.7585134131
 20
-5.1979404548
 30
0.0
 10
-5.7656917922
 20
-5.2154457044
 30
0.0
 10
-5.77747834
 20
-5.2305780619
 30
0.0
 10
-5.7870563829
 20
-5.2413199191
 30
0.0
  0
SPLINE
  5
49A
100
AcDbEntity
  8
0
100
AcDbSpline
 62
7
  6
CONTINUOUS
 70
0
 71
3
 72
10
 73
6
 74
0
 42
0.0000001
 43
0.0000001
 44
0.0000000001
 40
0.0
 40
0.0
 40
0.0
 40
0.0
 40
0.2333540163
 40
0.4810526349
 40
1.0
 40
1.0
 40
1.0
 40
1.0
 10
-5.7870563829
 20
-5.2413199191
 30
0.0
 10
-5.8010254295
 20
-5.2569863246
 30
0.0
 10
-5.8334570105
 20
-5.2859649515
 30
0.0
 10
-5.9058879484
 20
-5.3393106814
 30
0.0
 10
-5.9648701094
 20
-5.3752975046
 30
0.0
 10
-6.0052941188
 20
-5.398637821
 30
0.0
  0
SPLINE
  5
49B
100
AcDbEntity
  8
0
100
AcDbSpline
 62
7
  6
CONTINUOUS
 70
0
 71
3
 72
9
 73
5
 74
0
 42
0.0000001
 43
0.0000001
 44
0.0000000001
 40
0.0
 40
0.0
 40
0.0
 40
0.0
 40
0.2665959669
 40
1.0
 40
1.0
 40
1.0
 40
1.0
 10
-5.7942848113
 20
-5.9532546824
 30
0.0
 10
-5.8028032096
 20
-5.9554780785
 30
0.0
 10
-5.8344714821
 20
-5.9647842673
 30
0.0
 10
-5.86507243
 20
-5.9783402358
 30
0.0
 10
-5.8855296425
 20
-5.9913044217
 30
0.0
  0
SPLINE
  5
49C
100
AcDbEntity
  8
0
100
AcDbSpline
 62
7
  6
CONTINUOUS
 70
0
 71
3
 72
9
 73
5
 74
0
 42
0.0000001
 43
0.0000001
 44
0.0000000001
 40
0.0
 40
0.0
 40
0.0
 40
0.0
 40
0.2722220016
 40
1.0
 40
1.0
 40
1.0
 40
1.0
 10
-5.5977189461
 20
-5.9257743532
 30
0.0
 10
-5.6157237568
 20
-5.9266553441
 30
0.0
 10
-5.6817659372
 20
-5.9311690664
 30
0.0
 10
-5.7476540898
 20
-5.9410835486
 30
0.0
 10
-5.7942848113
 20
-5.9532546824
 30
0.0
  0
SPLINE
  5
49D
100
AcDbEntity
  8
0
100
AcDbSpline
 62
7
  6
CONTINUOUS
 70
0
 71
3
 72
9
 73
5
 74
0
 42
0.0000001
 43
0.0000001
 44
0.0000000001
 40
0.0
 40
0.0
 40
0.0
 40
0.0
 40
0.5566899653
 40
1.0
 40
1.0
 40
1.0
 40
1.0
 10
-5.3105261005
 20
-5.9307917727
 30
0.0
 10
-5.3637538279
 20
-5.9276926429
 30
0.0
 10
-5.4594489173
 20
-5.9234580968
 30
0.0
 10
-5.5553109546
 20
-5.9236992938
 30
0.0
 10
-5.5977189461
 20
-5.9257743532
 30
0.0
  0
SPLINE
  5
49E
100
AcDbEntity
  8
0
100
AcDbSpline
 62
7
  6
CONTINUOUS
 70
0
 71
3
 72
10
 73
6
 74
0
 42
0.0000001
 43
0.0000001
 44
0.0000000001
 40
0.0
 40
0.0
 40
0.0
 40
0.0
 40
0.2498653319
 40
0.5002222642
 40
1.0
 40
1.0
 40
1.0
 40
1.0
 10
-4.913619623
 20
-5.9355495764
 30
0.0
 10
-4.9465743822
 20
-5.9384325582
 30
0.0
 10
-5.0128445508
 20
-5.9405622663
 30
0.0
 10
-5.1452286923
 20
-5.9393141142
 30
0.0
 10
-5.2444704894
 20
-5.9346377929
 30
0.0
 10
-5.3105261005
 20
-5.9307917727
 30
0.0
  0
SPLINE
  5
49F
100
AcDbEntity
  8
0
100
AcDbSpline
 62
7
  6
CONTINUOUS
 70
0
 71
3
 72
9
 73
5
 74
0
 42
0.0000001
 43
0.0000001
 44
0.0000000001
 40
0.0
 40
0.0
 40
0.0
 40
0.0
 40
0.4774647453
 40
1.0
 40
1.0
 40
1.0
 40
1.0
 10
-4.7248810123
 20
-5.8873976099
 30
0.0
 10
-4.7518685748
 20
-5.9029798903
 30
0.0
 10
-4.8149785623
 20
-5.9236335588
 30
0.0
 10
-4.8796446789
 20
-5.9325773457
 30
0.0
 10
-4.913619623
 20
-5.9355495764
 30
0.0
  0
SPLINE
  5
4A0
100
AcDbEntity
  8
0
100
AcDbSpline
 62
7
  6
CONTINUOUS
 70
0
 71
3
 72
9
 73
5
 74
0
 42
0.0000001
 43
0.0000001
 44
0.0000000001
 40
0.0
 40
0.0
 40
0.0
 40
0.0
 40
0.4906809335
 40
1.0
 40
1.0
 40
1.0
 40
1.0
 10
-4.9198698594
 20
-5.5617519443
 30
0.0
 10
-4.9682791418
 20
-5.5598523557
 30
0.0
 10
-5.0678650171
 20
-5.5686054689
 30
0.0
 10
-5.161827766
 20
-5.6022469265
 30
0.0
 10
-5.2070736694
 20
-5.6241915079
 30
0.0
  0
SPLINE
  5
4A1
100
AcDbEntity
  8
0
100
AcDbSpline
 62
7
  6
CONTINUOUS
 70
0
 71
3
 72
9
 73
5
 74
0
 42
0.0000001
 43
0.0000001
 44
0.0000000001
 40
0.0
 40
0.0
 40
0.0
 40
0.0
 40
0.5061293645
 40
1.0
 40
1.0
 40
1.0
 40
1.0
 10
-4.6427388191
 20
-5.6430177471
 30
0.0
 10
-4.6852533366
 20
-5.6184703975
 30
0.0
 10
-4.7751216968
 20
-5.5792164626
 30
0.0
 10
-4.8720034134
 20
-5.5636302319
 30
0.0
 10
-4.9198698594
 20
-5.5617519443
 30
0.0
  0
SPLINE
  5
4A2
100
AcDbEntity
  8
0
100
AcDbSpline
 62
7
  6
CONTINUOUS
 70
0
 71
3
 72
8
 73
4
 74
0
 42
0.0000001
 43
0.0000001
 44
0.0000000001
 40
0.0
 40
0.0
 40
0.0
 40
0.0
 40
1.0
 40
1.0
 40
1.0
 40
1.0
 10
-4.1272527537
 20
-6.8651590916
 30
0.0
 10
-4.1272496243
 20
-6.8546894434
 30
0.0
 10
-4.1253569181
 20
-6.8441560481
 30
0.0
 10
-4.1222967302
 20
-6.8341436162
 30
0.0
  0
SPLINE
  5
4A3
100
AcDbEntity
  8
0
100
AcDbSpline
 62
250
  6
CONTINUOUS
 70
0
 71
3
 72
12
 73
8
 74
0
 42
0.0000001
 43
0.0000001
 44
0.0000000001
 40
0.0
 40
0.0
 40
0.0
 40
0.0
 40
0.2895843174
 40
0.5486222321
 40
0.7816308665
 40
0.8918345376
 40
1.0
 40
1.0
 40
1.0
 40
1.0
 10
7.2056889565
 20
-6.9971869644
 30
0.0
 10
7.3494483305
 20
-7.0801918252
 30
0.0
 10
7.610205606
 20
-7.2597869553
 30
0.0
 10
7.9217089445
 20
-7.5870291823
 30
0.0
 10
8.08897299
 20
-7.8953662156
 30
0.0
 10
8.1541324787
 20
-8.1468434407
 30
0.0
 10
8.1649064749
 20
-8.272281332
 30
0.0
 10
8.1649104503
 20
-8.3342862458
 30
0.0
  0
SPLINE
  5
4A4
100
AcDbEntity
  8
0
100
AcDbSpline
 62
7
  6
CONTINUOUS
 70
0
 71
3
 72
9
 73
5
 74
0
 42
0.0000001
 43
0.0000001
 44
0.0000000001
 40
0.0
 40
0.0
 40
0.0
 40
0.0
 40
0.4953582352
 40
1.0
 40
1.0
 40
1.0
 40
1.0
 10
-6.6580414503
 20
-5.604191515
 30
0.0
 10
-6.6248981607
 20
-5.6233280351
 30
0.0
 10
-6.553284729
 20
-5.6544651308
 30
0.0
 10
-6.4762552845
 20
-5.6672521383
 30
0.0
 10
-6.4373238459
 20
-5.669359501
 30
0.0
  0
SPLINE
  5
4A5
100
AcDbEntity
  8
0
100
AcDbSpline
 62
7
  6
CONTINUOUS
 70
0
 71
3
 72
9
 73
5
 74
0
 42
0.0000001
 43
0.0000001
 44
0.0000000001
 40
0.0
 40
0.0
 40
0.0
 40
0.0
 40
0.2381891294
 40
1.0
 40
1.0
 40
1.0
 40
1.0
 10
-6.4373238459
 20
-5.669359501
 30
0.0
 10
-6.4170468219
 20
-5.6704570983
 30
0.0
 10
-6.3317062721
 20
-5.6711545768
 30
0.0
 10
-6.2466049368
 20
-5.6559622636
 30
0.0
 10
-6.1841884365
 20
-5.6380066655
 30
0.0
  0
SPLINE
  5
4A6
100
AcDbEntity
  8
0
100
AcDbSpline
 62
7
  6
CONTINUOUS
 70
0
 71
3
 72
9
 73
5
 74
0
 42
0.0000001
 43
0.0000001
 44
0.0000000001
 40
0.0
 40
0.0
 40
0.0
 40
0.0
 40
0.2435596222
 40
1.0
 40
1.0
 40
1.0
 40
1.0
 10
-4.6101329171
 20
-6.2826625322
 30
0.0
 10
-4.5994088937
 20
-6.2812056375
 30
0.0
 10
-4.5551355278
 20
-6.277039378
 30
0.0
 10
-4.5103153997
 20
-6.2800227689
 30
0.0
 10
-4.4771422874
 20
-6.2854386565
 30
0.0
  0
SPLINE
  5
4A7
100
AcDbEntity
  8
0
100
AcDbSpline
 62
7
  6
CONTINUOUS
 70
0
 71
3
 72
9
 73
5
 74
0
 42
0.0000001
 43
0.0000001
 44
0.0000000001
 40
0.0
 40
0.0
 40
0.0
 40
0.0
 40
0.2587654296
 40
1.0
 40
1.0
 40
1.0
 40
1.0
 10
-4.4771422874
 20
-6.2854386565
 30
0.0
 10
-4.4659943541
 20
-6.2872586833
 30
0.0
 10
-4.4232252385
 20
-6.2959413033
 30
0.0
 10
-4.3816946389
 20
-6.3117393585
 30
0.0
 10
-4.3536739042
 20
-6.3279181795
 30
0.0
  0
SPLINE
  5
4A8
100
AcDbEntity
  8
0
100
AcDbSpline
 62
7
  6
CONTINUOUS
 70
0
 71
3
 72
9
 73
5
 74
0
 42
0.0000001
 43
0.0000001
 44
0.0000000001
 40
0.0
 40
0.0
 40
0.0
 40
0.0
 40
0.565575428
 40
1.0
 40
1.0
 40
1.0
 40
1.0
 10
-4.3536739042
 20
-6.3279181795
 30
0.0
 10
-4.3330467941
 20
-6.3398280144
 30
0.0
 10
-4.2978643224
 20
-6.3640506505
 30
0.0
 10
-4.2746022358
 20
-6.4016926755
 30
0.0
 10
-4.2704142841
 20
-6.4195021567
 30
0.0
  0
SPLINE
  5
4A9
100
AcDbEntity
  8
0
100
AcDbSpline
 62
7
  6
CONTINUOUS
 70
0
 71
3
 72
9
 73
5
 74
0
 42
0.0000001
 43
0.0000001
 44
0.0000000001
 40
0.0
 40
0.0
 40
0.0
 40
0.0
 40
0.4623160364
 40
1.0
 40
1.0
 40
1.0
 40
1.0
 10
-6.1841884365
 20
-5.6380066655
 30
0.0
 10
-6.136279143
 20
-5.6242244122
 30
0.0
 10
-6.0351808458
 20
-5.5855466072
 30
0.0
 10
-5.9395026848
 20
-5.5354306231
 30
0.0
 10
-5.8892919147
 20
-5.5064395537
 30
0.0
  0
SPLINE
  5
4AA
100
AcDbEntity
  8
0
100
AcDbSpline
 62
7
  6
CONTINUOUS
 70
0
 71
3
 72
9
 73
5
 74
0
 42
0.0000001
 43
0.0000001
 44
0.0000000001
 40
0.0
 40
0.0
 40
0.0
 40
0.0
 40
0.5769489415
 40
1.0
 40
1.0
 40
1.0
 40
1.0
 10
-5.8892919147
 20
-5.5064395537
 30
0.0
 10
-5.8493424405
 20
-5.483373228
 30
0.0
 10
-5.7812073306
 20
-5.4415315755
 30
0.0
 10
-5.7172557145
 20
-5.3928300696
 30
0.0
 10
-5.6930287615
 20
-5.3692247338
 30
0.0
  0
SPLINE
  5
4AB
100
AcDbEntity
  8
0
100
AcDbSpline
 62
7
  6
CONTINUOUS
 70
0
 71
3
 72
9
 73
5
 74
0
 42
0.0000001
 43
0.0000001
 44
0.0000000001
 40
0.0
 40
0.0
 40
0.0
 40
0.0
 40
0.2897899052
 40
1.0
 40
1.0
 40
1.0
 40
1.0
 10
-5.6930287615
 20
-5.3692247338
 30
0.0
 10
-5.6835013865
 20
-5.3599418129
 30
0.0
 10
-5.6518920113
 20
-5.3267907437
 30
0.0
 10
-5.6252875457
 20
-5.2878017432
 30
0.0
 10
-5.6137596525
 20
-5.2573077476
 30
0.0
  0
SPLINE
  5
4AC
100
AcDbEntity
  8
0
100
AcDbSpline
 62
7
  6
CONTINUOUS
 70
0
 71
3
 72
9
 73
5
 74
0
 42
0.0000001
 43
0.0000001
 44
0.0000000001
 40
0.0
 40
0.0
 40
0.0
 40
0.0
 40
0.2618152874
 40
1.0
 40
1.0
 40
1.0
 40
1.0
 10
-5.6137596525
 20
-5.2573077476
 30
0.0
 10
-5.6123337856
 20
-5.2535359935
 30
0.0
 10
-5.6074528883
 20
-5.2389281137
 30
0.0
 10
-5.6050886174
 20
-5.2234368715
 30
0.0
 10
-5.6050876772
 20
-5.2120679317
 30
0.0
  0
SPLINE
  5
4AD
100
AcDbEntity
  8
0
100
AcDbSpline
 62
7
  6
CONTINUOUS
 70
0
 71
3
 72
9
 73
5
 74
0
 42
0.0000001
 43
0.0000001
 44
0.0000000001
 40
0.0
 40
0.0
 40
0.0
 40
0.0
 40
0.495358615
 40
1.0
 40
1.0
 40
1.0
 40
1.0
 10
-4.1586648787
 20
-7.0473002229
 30
0.0
 10
-4.1255215974
 20
-7.0664367382
 30
0.0
 10
-4.0539082427
 20
-7.0975737953
 30
0.0
 10
-3.9768788792
 20
-7.1103608503
 30
0.0
 10
-3.9379475073
 20
-7.1124681676
 30
0.0
  0
SPLINE
  5
4AE
100
AcDbEntity
  8
0
100
AcDbSpline
 62
7
  6
CONTINUOUS
 70
0
 71
3
 72
9
 73
5
 74
0
 42
0.0000001
 43
0.0000001
 44
0.0000000001
 40
0.0
 40
0.0
 40
0.0
 40
0.0
 40
0.2381890332
 40
1.0
 40
1.0
 40
1.0
 40
1.0
 10
-3.9379475073
 20
-7.1124681676
 30
0.0
 10
-3.9176704789
 20
-7.1135657435
 30
0.0
 10
-3.8323298808
 20
-7.1142631547
 30
0.0
 10
-3.7472285105
 20
-7.0990708661
 30
0.0
 10
-3.6848119404
 20
-7.0811153479
 30
0.0
  0
SPLINE
  5
4AF
100
AcDbEntity
  8
0
100
AcDbSpline
 62
7
  6
CONTINUOUS
 70
0
 71
3
 72
9
 73
5
 74
0
 42
0.0000001
 43
0.0000001
 44
0.0000000001
 40
0.0
 40
0.0
 40
0.0
 40
0.0
 40
0.2246142514
 40
1.0
 40
1.0
 40
1.0
 40
1.0
 10
-3.6848119404
 20
-7.0811153479
 30
0.0
 10
-3.6638531471
 20
-7.0750860837
 30
0.0
 10
-3.5715695962
 20
-7.0446625243
 30
0.0
 10
-3.4836948124
 20
-7.0019931454
 30
0.0
 10
-3.4178965543
 20
-6.9654074687
 30
0.0
  0
SPLINE
  5
4B0
100
AcDbEntity
  8
0
100
AcDbSpline
 62
7
  6
CONTINUOUS
 70
0
 71
3
 72
9
 73
5
 74
0
 42
0.0000001
 43
0.0000001
 44
0.0000000001
 40
0.0
 40
0.0
 40
0.0
 40
0.0
 40
0.5647248148
 40
1.0
 40
1.0
 40
1.0
 40
1.0
 10
-3.3379737401
 20
-6.9185832565
 30
0.0
 10
-3.3092287507
 20
-6.9008384507
 30
0.0
 10
-3.2591811399
 20
-6.8680258971
 30
0.0
 10
-3.212301393
 20
-6.8305038474
 30
0.0
 10
-3.1936524032
 20
-6.8123333945
 30
0.0
  0
SPLINE
  5
4B1
100
AcDbEntity
  8
0
100
AcDbSpline
 62
7
  6
CONTINUOUS
 70
0
 71
3
 72
9
 73
5
 74
0
 42
0.0000001
 43
0.0000001
 44
0.0000000001
 40
0.0
 40
0.0
 40
0.0
 40
0.0
 40
0.2897902144
 40
1.0
 40
1.0
 40
1.0
 40
1.0
 10
-3.1936524032
 20
-6.8123333945
 30
0.0
 10
-3.1841250059
 20
-6.803050472
 30
0.0
 10
-3.1525155817
 20
-6.7698994467
 30
0.0
 10
-3.125910999
 20
-6.7309104672
 30
0.0
 10
-3.1143832081
 20
-6.7004164404
 30
0.0
  0
SPLINE
  5
4B2
100
AcDbEntity
  8
0
100
AcDbSpline
 62
7
  6
CONTINUOUS
 70
0
 71
3
 72
9
 73
5
 74
0
 42
0.0000001
 43
0.0000001
 44
0.0000000001
 40
0.0
 40
0.0
 40
0.0
 40
0.0
 40
0.2648430535
 40
1.0
 40
1.0
 40
1.0
 40
1.0
 10
-3.2224961775
 20
-7.0473876266
 30
0.0
 10
-3.2138904646
 20
-7.0491622068
 30
0.0
 10
-3.1816269846
 20
-7.0568028302
 30
0.0
 10
-3.1501897456
 20
-7.0688619697
 30
0.0
 10
-3.1290672775
 20
-7.0810578181
 30
0.0
  0
SPLINE
  5
4B3
100
AcDbEntity
  8
0
100
AcDbSpline
 62
7
  6
CONTINUOUS
 70
0
 71
3
 72
9
 73
5
 74
0
 42
0.0000001
 43
0.0000001
 44
0.0000000001
 40
0.0
 40
0.0
 40
0.0
 40
0.0
 40
0.2750451348
 40
1.0
 40
1.0
 40
1.0
 40
1.0
 10
-3.1290672775
 20
-7.0810578181
 30
0.0
 10
-3.1188721516
 20
-7.086944356
 30
0.0
 10
-3.0838047433
 20
-7.1118653025
 30
0.0
 10
-3.0562081525
 20
-7.1457297822
 30
0.0
 10
-3.0391521466
 20
-7.1716513516
 30
0.0
  0
SPLINE
  5
4B4
100
AcDbEntity
  8
0
100
AcDbSpline
 62
7
  6
CONTINUOUS
 70
0
 71
3
 72
9
 73
5
 74
0
 42
0.0000001
 43
0.0000001
 44
0.0000000001
 40
0.0
 40
0.0
 40
0.0
 40
0.0
 40
0.2618153356
 40
1.0
 40
1.0
 40
1.0
 40
1.0
 10
-3.1143832081
 20
-6.7004164404
 30
0.0
 10
-3.1129573542
 20
-6.6966446831
 30
0.0
 10
-3.1080765015
 20
-6.6820367982
 30
0.0
 10
-3.1057122481
 20
-6.6665455674
 30
0.0
 10
-3.1057113078
 20
-6.655176635
 30
0.0
  0
SPLINE
  5
4B5
100
AcDbEntity
  8
0
100
AcDbSpline
 62
7
  6
CONTINUOUS
 70
0
 71
3
 72
9
 73
5
 74
0
 42
0.0000001
 43
0.0000001
 44
0.0000000001
 40
0.0
 40
0.0
 40
0.0
 40
0.0
 40
0.5906731396
 40
1.0
 40
1.0
 40
1.0
 40
1.0
 10
-3.0391521466
 20
-7.1716513516
 30
0.0
 10
-3.0272957897
 20
-7.1896705398
 30
0.0
 10
-3.0064671848
 20
-7.2196598986
 30
0.0
 10
-2.983294691
 20
-7.2480591222
 30
0.0
 10
-2.9726793628
 20
-7.2585827639
 30
0.0
  0
SPLINE
  5
4B6
100
AcDbEntity
  8
0
100
AcDbSpline
 62
7
  6
CONTINUOUS
 70
0
 71
3
 72
9
 73
5
 74
0
 42
0.0000001
 43
0.0000001
 44
0.0000000001
 40
0.0
 40
0.0
 40
0.0
 40
0.0
 40
0.229958039
 40
1.0
 40
1.0
 40
1.0
 40
1.0
 10
-2.9726793628
 20
-7.2585827639
 30
0.0
 10
-2.9683763241
 20
-7.2628486363
 30
0.0
 10
-2.9487628555
 20
-7.2804924736
 30
0.0
 10
-2.9265481603
 20
-7.2950176944
 30
0.0
 10
-2.9089768497
 20
-7.305163149
 30
0.0
  0
SPLINE
  5
4B7
100
AcDbEntity
  8
0
100
AcDbSpline
 62
7
  6
CONTINUOUS
 70
0
 71
3
 72
9
 73
5
 74
0
 42
0.0000001
 43
0.0000001
 44
0.0000000001
 40
0.0
 40
0.0
 40
0.0
 40
0.0
 40
0.7468680499
 40
1.0
 40
1.0
 40
1.0
 40
1.0
 10
-2.9089768497
 20
-7.305163149
 30
0.0
 10
-2.8836087866
 20
-7.3198103506
 30
0.0
 10
-2.8473154108
 20
-7.3357508371
 30
0.0
 10
-2.8095211436
 20
-7.3462722354
 30
0.0
 10
-2.7998718545
 20
-7.3486086146
 30
0.0
  0
SPLINE
  5
4B8
100
AcDbEntity
  8
0
100
AcDbSpline
 62
7
  6
CONTINUOUS
 70
0
 71
3
 72
9
 73
5
 74
0
 42
0.0000001
 43
0.0000001
 44
0.0000000001
 40
0.0
 40
0.0
 40
0.0
 40
0.0
 40
0.2259428845
 40
1.0
 40
1.0
 40
1.0
 40
1.0
 10
-2.7998718545
 20
-7.3486086146
 30
0.0
 10
-2.7898352193
 20
-7.3510387818
 30
0.0
 10
-2.7450136856
 20
-7.3601522075
 30
0.0
 10
-2.6991750056
 20
-7.3634383618
 30
0.0
 10
-2.6638046533
 20
-7.3641764143
 30
0.0
  0
SPLINE
  5
4B9
100
AcDbEntity
  8
0
100
AcDbSpline
 62
7
  6
CONTINUOUS
 70
0
 71
3
 72
10
 73
6
 74
0
 42
0.0000001
 43
0.0000001
 44
0.0000000001
 40
0.0
 40
0.0
 40
0.0
 40
0.0
 40
0.5739473426
 40
0.8041357366
 40
1.0
 40
1.0
 40
1.0
 40
1.0
 10
-3.8733623283
 20
-6.6704120313
 30
0.0
 10
-3.8073119821
 20
-6.6322753892
 30
0.0
 10
-3.7120416663
 20
-6.5826086009
 30
0.0
 10
-3.5862403735
 20
-6.5391640434
 30
0.0
 10
-3.5304944173
 20
-6.527754017
 30
0.0
 10
-3.5046074767
 20
-6.5250514623
 30
0.0
  0
SPLINE
  5
4BA
100
AcDbEntity
  8
0
100
AcDbSpline
 62
7
  6
CONTINUOUS
 70
0
 71
3
 72
9
 73
5
 74
0
 42
0.0000001
 43
0.0000001
 44
0.0000000001
 40
0.0
 40
0.0
 40
0.0
 40
0.0
 40
0.5295823015
 40
1.0
 40
1.0
 40
1.0
 40
1.0
 10
-3.5046074767
 20
-6.5250514623
 30
0.0
 10
-3.470312531
 20
-6.5214711255
 30
0.0
 10
-3.4042699481
 20
-6.5215434539
 30
0.0
 10
-3.3411958162
 20
-6.5432251039
 30
0.0
 10
-3.3146706671
 20
-6.5585403926
 30
0.0
  0
SPLINE
  5
4BB
100
AcDbEntity
  8
0
100
AcDbSpline
 62
7
  6
CONTINUOUS
 70
0
 71
3
 72
9
 73
5
 74
0
 42
0.0000001
 43
0.0000001
 44
0.0000000001
 40
0.0
 40
0.0
 40
0.0
 40
0.0
 40
0.5471936984
 40
1.0
 40
1.0
 40
1.0
 40
1.0
 10
-3.3146706671
 20
-6.5585403926
 30
0.0
 10
-3.300198643
 20
-6.566896358
 30
0.0
 10
-3.274927672
 20
-6.5850917165
 30
0.0
 10
-3.2590116392
 20
-6.612716921
 30
0.0
 10
-3.2555965551
 20
-6.626117157
 30
0.0
  0
SPLINE
  5
4BC
100
AcDbEntity
  8
0
100
AcDbSpline
 62
7
  6
CONTINUOUS
 70
0
 71
3
 72
11
 73
7
 74
0
 42
0.0000001
 43
0.0000001
 44
0.0000000001
 40
0.0
 40
0.0
 40
0.0
 40
0.0
 40
0.2069434773
 40
0.4314655168
 40
0.6918827732
 40
1.0
 40
1.0
 40
1.0
 40
1.0
 10
-4.2749340728
 20
-6.9044958835
 30
0.0
 10
-4.2740880839
 20
-6.9176669819
 30
0.0
 10
-4.2673915955
 20
-6.9450135267
 30
0.0
 10
-4.2432590432
 20
-6.9826592344
 30
0.0
 10
-4.2061359517
 20
-7.0175275108
 30
0.0
 10
-4.1756826971
 20
-7.0374743478
 30
0.0
 10
-4.1586648787
 20
-7.0473002229
 30
0.0
  0
SPLINE
  5
4BD
100
AcDbEntity
  8
0
100
AcDbSpline
 62
7
  6
CONTINUOUS
 70
0
 71
3
 72
10
 73
6
 74
0
 42
0.0000001
 43
0.0000001
 44
0.0000000001
 40
0.0
 40
0.0
 40
0.0
 40
0.0
 40
0.5739472696
 40
0.8041356508
 40
1.0
 40
1.0
 40
1.0
 40
1.0
 10
-6.3727387904
 20
-5.2273033867
 30
0.0
 10
-6.3066884512
 20
-5.1891667487
 30
0.0
 10
-6.2114181613
 20
-5.1394999358
 30
0.0
 10
-6.0856168797
 20
-5.0960553358
 30
0.0
 10
-6.0298709133
 20
-5.0846453012
 30
0.0
 10
-6.0039839608
 20
-5.0819427452
 30
0.0
  0
SPLINE
  5
4BE
100
AcDbEntity
  8
0
100
AcDbSpline
 62
7
  6
CONTINUOUS
 70
0
 71
3
 72
9
 73
5
 74
0
 42
0.0000001
 43
0.0000001
 44
0.0000000001
 40
0.0
 40
0.0
 40
0.0
 40
0.0
 40
0.5295823715
 40
1.0
 40
1.0
 40
1.0
 40
1.0
 10
-6.0039839608
 20
-5.0819427452
 30
0.0
 10
-5.9696890267
 20
-5.0783624096
 30
0.0
 10
-5.9036464763
 20
-5.0784347863
 30
0.0
 10
-5.8405723715
 20
-5.1001164055
 30
0.0
 10
-5.8140472388
 20
-5.1154316847
 30
0.0
  0
SPLINE
  5
4BF
100
AcDbEntity
  8
0
100
AcDbSpline
 62
7
  6
CONTINUOUS
 70
0
 71
3
 72
9
 73
5
 74
0
 42
0.0000001
 43
0.0000001
 44
0.0000000001
 40
0.0
 40
0.0
 40
0.0
 40
0.0
 40
0.4386689693
 40
1.0
 40
1.0
 40
1.0
 40
1.0
 10
-4.1222967302
 20
-6.87496713
 30
0.0
 10
-4.1196778399
 20
-6.8663985512
 30
0.0
 10
-4.1099487935
 20
-6.8480711303
 30
0.0
 10
-4.0968113593
 20
-6.8323523961
 30
0.0
 10
-4.0889823706
 20
-6.8239763078
 30
0.0
  0
SPLINE
  5
4C0
100
AcDbEntity
  8
0
100
AcDbSpline
 62
7
  6
CONTINUOUS
 70
0
 71
3
 72
10
 73
6
 74
0
 42
0.0000001
 43
0.0000001
 44
0.0000000001
 40
0.0
 40
0.0
 40
0.0
 40
0.0
 40
0.1835874335
 40
0.4105582871
 40
1.0
 40
1.0
 40
1.0
 40
1.0
 10
-4.0889823706
 20
-6.8239763078
 30
0.0
 10
-4.0778912528
 20
-6.8121101287
 30
0.0
 10
-4.0509473382
 20
-6.7875897479
 30
0.0
 10
-3.9803029591
 20
-6.7342414145
 30
0.0
 10
-3.9185244849
 20
-6.6964880945
 30
0.0
 10
-3.8733623283
 20
-6.6704120313
 30
0.0
  0
SPLINE
  5
4C1
100
AcDbEntity
  8
0
100
AcDbSpline
 62
7
  6
CONTINUOUS
 70
0
 71
3
 72
9
 73
5
 74
0
 42
0.0000001
 43
0.0000001
 44
0.0000000001
 40
0.0
 40
0.0
 40
0.0
 40
0.0
 40
0.2772558774
 40
1.0
 40
1.0
 40
1.0
 40
1.0
 10
-3.3780019105
 20
-7.076625653
 30
0.0
 10
-3.3695074533
 20
-7.076714843
 30
0.0
 10
-3.3388736205
 20
-7.0772097684
 30
0.0
 10
-3.308239016
 20
-7.0784206298
 30
0.0
 10
-3.2861567704
 20
-7.0800782341
 30
0.0
  0
SPLINE
  5
4C2
100
AcDbEntity
  8
0
100
AcDbSpline
 62
7
  6
CONTINUOUS
 70
0
 71
3
 72
9
 73
5
 74
0
 42
0.0000001
 43
0.0000001
 44
0.0000000001
 40
0.0
 40
0.0
 40
0.0
 40
0.0
 40
0.2841508156
 40
1.0
 40
1.0
 40
1.0
 40
1.0
 10
-3.2861567704
 20
-7.0800782341
 30
0.0
 10
-3.2800930712
 20
-7.0805334058
 30
0.0
 10
-3.2587769675
 20
-7.0823650156
 30
0.0
 10
-3.2374995097
 20
-7.08511731
 30
0.0
 10
-3.2224961775
 20
-7.0882111404
 30
0.0
  0
SPLINE
  5
4C3
100
AcDbEntity
  8
0
100
AcDbSpline
 62
7
  6
CONTINUOUS
 70
0
 71
3
 72
9
 73
5
 74
0
 42
0.0000001
 43
0.0000001
 44
0.0000000001
 40
0.0
 40
0.0
 40
0.0
 40
0.0
 40
0.2646662647
 40
1.0
 40
1.0
 40
1.0
 40
1.0
 10
-3.2224961775
 20
-7.0882111404
 30
0.0
 10
-3.213896212
 20
-7.0899845355
 30
0.0
 10
-3.1816323064
 20
-7.0976232342
 30
0.0
 10
-3.1501948178
 20
-7.1096825549
 30
0.0
 10
-3.1290672775
 20
-7.1218813319
 30
0.0
  0
SPLINE
  5
4C4
100
AcDbEntity
  8
0
100
AcDbSpline
 62
7
  6
CONTINUOUS
 70
0
 71
3
 72
9
 73
5
 74
0
 42
0.0000001
 43
0.0000001
 44
0.0000000001
 40
0.0
 40
0.0
 40
0.0
 40
0.0
 40
0.2258513088
 40
1.0
 40
1.0
 40
1.0
 40
1.0
 10
-3.1290672775
 20
-7.1218813319
 30
0.0
 10
-3.1207005284
 20
-7.126712188
 30
0.0
 10
-3.0852963719
 20
-7.1509841477
 30
0.0
 10
-3.0573548655
 20
-7.1848105315
 30
0.0
 10
-3.0391521466
 20
-7.2124748654
 30
0.0
  0
SPLINE
  5
4C5
100
AcDbEntity
  8
0
100
AcDbSpline
 62
7
  6
CONTINUOUS
 70
0
 71
3
 72
9
 73
5
 74
0
 42
0.0000001
 43
0.0000001
 44
0.0000000001
 40
0.0
 40
0.0
 40
0.0
 40
0.0
 40
0.5906731396
 40
1.0
 40
1.0
 40
1.0
 40
1.0
 10
-3.0391521466
 20
-7.2124748654
 30
0.0
 10
-3.0272957897
 20
-7.2304940537
 30
0.0
 10
-3.0064671848
 20
-7.2604834125
 30
0.0
 10
-2.983294691
 20
-7.288882636
 30
0.0
 10
-2.9726793628
 20
-7.2994062777
 30
0.0
  0
SPLINE
  5
4C6
100
AcDbEntity
  8
0
100
AcDbSpline
 62
7
  6
CONTINUOUS
 70
0
 71
3
 72
9
 73
5
 74
0
 42
0.0000001
 43
0.0000001
 44
0.0000000001
 40
0.0
 40
0.0
 40
0.0
 40
0.0
 40
0.229958039
 40
1.0
 40
1.0
 40
1.0
 40
1.0
 10
-2.9726793628
 20
-7.2994062777
 30
0.0
 10
-2.9683763241
 20
-7.3036721502
 30
0.0
 10
-2.9487628555
 20
-7.3213159874
 30
0.0
 10
-2.9265481603
 20
-7.3358412083
 30
0.0
 10
-2.9089768497
 20
-7.3459866628
 30
0.0
  0
SPLINE
  5
4C7
100
AcDbEntity
  8
0
100
AcDbSpline
 62
7
  6
CONTINUOUS
 70
0
 71
3
 72
9
 73
5
 74
0
 42
0.0000001
 43
0.0000001
 44
0.0000000001
 40
0.0
 40
0.0
 40
0.0
 40
0.0
 40
0.5034497613
 40
1.0
 40
1.0
 40
1.0
 40
1.0
 10
-3.3780019105
 20
-7.0358021391
 30
0.0
 10
-3.3518112151
 20
-7.0360771359
 30
0.0
 10
-3.299847019
 20
-7.0375302188
 30
0.0
 10
-3.2477970401
 20
-7.042170347
 30
0.0
 10
-3.2224961775
 20
-7.0473876266
 30
0.0
  0
SPLINE
  5
4C8
100
AcDbEntity
  8
0
100
AcDbSpline
 62
7
  6
CONTINUOUS
 70
0
 71
3
 72
9
 73
5
 74
0
 42
0.0000001
 43
0.0000001
 44
0.0000000001
 40
0.0
 40
0.0
 40
0.0
 40
0.0
 40
0.5253547005
 40
1.0
 40
1.0
 40
1.0
 40
1.0
 10
-3.5046074767
 20
-6.4842279484
 30
0.0
 10
-3.4705879788
 20
-6.4806763679
 30
0.0
 10
-3.404581665
 20
-6.4807311642
 30
0.0
 10
-3.3414328778
 20
-6.5022647137
 30
0.0
 10
-3.3146706671
 20
-6.5177168787
 30
0.0
  0
SPLINE
  5
4C9
100
AcDbEntity
  8
0
100
AcDbSpline
 62
7
  6
CONTINUOUS
 70
0
 71
3
 72
10
 73
6
 74
0
 42
0.0000001
 43
0.0000001
 44
0.0000000001
 40
0.0
 40
0.0
 40
0.0
 40
0.0
 40
0.5486832378
 40
0.7812484851
 40
1.0
 40
1.0
 40
1.0
 40
1.0
 10
-3.3146706671
 20
-6.5177168787
 30
0.0
 10
-3.2968564295
 20
-6.5280025963
 30
0.0
 10
-3.2724577708
 20
-6.5467007608
 30
0.0
 10
-3.255464701
 20
-6.5807754653
 30
0.0
 10
-3.2530296833
 20
-6.597830638
 30
0.0
 10
-3.2530321789
 20
-6.6060317541
 30
0.0
  0
SPLINE
  5
4CA
100
AcDbEntity
  8
0
100
AcDbSpline
 62
7
  6
CONTINUOUS
 70
0
 71
3
 72
9
 73
5
 74
0
 42
0.0000001
 43
0.0000001
 44
0.0000000001
 40
0.0
 40
0.0
 40
0.0
 40
0.0
 40
0.7468680499
 40
1.0
 40
1.0
 40
1.0
 40
1.0
 10
-2.9089768497
 20
-7.3459866628
 30
0.0
 10
-2.8836087866
 20
-7.3606338645
 30
0.0
 10
-2.8473154108
 20
-7.3765743509
 30
0.0
 10
-2.8095211436
 20
-7.3870957492
 30
0.0
 10
-2.7998718545
 20
-7.3894321284
 30
0.0
  0
SPLINE
  5
4CB
100
AcDbEntity
  8
0
100
AcDbSpline
 62
7
  6
CONTINUOUS
 70
0
 71
3
 72
9
 73
5
 74
0
 42
0.0000001
 43
0.0000001
 44
0.0000000001
 40
0.0
 40
0.0
 40
0.0
 40
0.0
 40
0.2259428845
 40
1.0
 40
1.0
 40
1.0
 40
1.0
 10
-2.7998718545
 20
-7.3894321284
 30
0.0
 10
-2.7898352193
 20
-7.3918622957
 30
0.0
 10
-2.7450136856
 20
-7.4009757214
 30
0.0
 10
-2.6991750056
 20
-7.4042618757
 30
0.0
 10
-2.6638046533
 20
-7.4049999282
 30
0.0
  0
SPLINE
  5
4CC
100
AcDbEntity
  8
0
100
AcDbSpline
 62
7
  6
CONTINUOUS
 70
0
 71
3
 72
9
 73
5
 74
0
 42
0.0000001
 43
0.0000001
 44
0.0000000001
 40
0.0
 40
0.0
 40
0.0
 40
0.0
 40
0.5471940268
 40
1.0
 40
1.0
 40
1.0
 40
1.0
 10
-5.8140472388
 20
-5.1154316847
 30
0.0
 10
-5.7995751824
 20
-5.1237876687
 30
0.0
 10
-5.7743041618
 20
-5.1419830493
 30
0.0
 10
-5.7583881196
 20
-5.169608312
 30
0.0
 10
-5.7549730437
 20
-5.183008563
 30
0.0
  0
SPLINE
  5
4CD
100
AcDbEntity
  8
0
100
AcDbSpline
 62
7
  6
CONTINUOUS
 70
0
 71
3
 72
12
 73
8
 74
0
 42
0.0000001
 43
0.0000001
 44
0.0000000001
 40
0.0
 40
0.0
 40
0.0
 40
0.0
 40
0.1047115923
 40
0.2193801241
 40
0.4671395
 40
0.7294018446
 40
1.0
 40
1.0
 40
1.0
 40
1.0
 10
-4.1222967302
 20
-6.8341436162
 30
0.0
 10
-4.1189642507
 20
-6.8232402909
 30
0.0
 10
-4.1065428687
 20
-6.8022163831
 30
0.0
 10
-4.072493314
 20
-6.7644036726
 30
0.0
 10
-4.0191846416
 20
-6.7215845779
 30
0.0
 10
-3.9486831012
 20
-6.6741527548
 30
0.0
 10
-3.8988778942
 20
-6.6443208854
 30
0.0
 10
-3.8733623283
 20
-6.6295885175
 30
0.0
  0
SPLINE
  5
4CE
100
AcDbEntity
  8
0
100
AcDbSpline
 62
7
  6
CONTINUOUS
 70
0
 71
3
 72
10
 73
6
 74
0
 42
0.0000001
 43
0.0000001
 44
0.0000000001
 40
0.0
 40
0.0
 40
0.0
 40
0.0
 40
0.4761079097
 40
0.7293964529
 40
1.0
 40
1.0
 40
1.0
 40
1.0
 10
-3.8733623283
 20
-6.6295885175
 30
0.0
 10
-3.8185696865
 20
-6.5979519328
 30
0.0
 10
-3.7325826767
 20
-6.5525327557
 30
0.0
 10
-3.6086269793
 20
-6.5043836201
 30
0.0
 10
-3.540373677
 20
-6.4879618818
 30
0.0
 10
-3.5046074767
 20
-6.4842279484
 30
0.0
  0
SPLINE
  5
4CF
100
AcDbEntity
  8
0
100
AcDbSpline
 62
7
  6
CONTINUOUS
 70
0
 71
3
 72
11
 73
7
 74
0
 42
0.0000001
 43
0.0000001
 44
0.0000000001
 40
0.0
 40
0.0
 40
0.0
 40
0.0
 40
0.2079121526
 40
0.4310747284
 40
0.6905882602
 40
1.0
 40
1.0
 40
1.0
 40
1.0
 10
-4.2751752626
 20
-6.8561279665
 30
0.0
 10
-4.2751752532
 20
-6.8699051849
 30
0.0
 10
-4.2699070528
 20
-6.8987332511
 30
0.0
 10
-4.2461370523
 20
-6.9386841348
 30
0.0
 10
-4.2080499026
 20
-6.9754058435
 30
0.0
 10
-4.1764207543
 20
-6.9962246891
 30
0.0
 10
-4.1586648787
 20
-7.0064767091
 30
0.0
  0
SPLINE
  5
4D0
100
AcDbEntity
  8
0
100
AcDbSpline
 62
7
  6
CONTINUOUS
 70
0
 71
3
 72
9
 73
5
 74
0
 42
0.0000001
 43
0.0000001
 44
0.0000000001
 40
0.0
 40
0.0
 40
0.0
 40
0.0
 40
0.495358615
 40
1.0
 40
1.0
 40
1.0
 40
1.0
 10
-4.1586648787
 20
-7.0064767091
 30
0.0
 10
-4.1255215974
 20
-7.0256132243
 30
0.0
 10
-4.0539082427
 20
-7.0567502815
 30
0.0
 10
-3.9768788792
 20
-7.0695373364
 30
0.0
 10
-3.9379475073
 20
-7.0716446538
 30
0.0
  0
SPLINE
  5
4D1
100
AcDbEntity
  8
0
100
AcDbSpline
 62
7
  6
CONTINUOUS
 70
0
 71
3
 72
9
 73
5
 74
0
 42
0.0000001
 43
0.0000001
 44
0.0000000001
 40
0.0
 40
0.0
 40
0.0
 40
0.0
 40
0.2381890332
 40
1.0
 40
1.0
 40
1.0
 40
1.0
 10
-3.9379475073
 20
-7.0716446538
 30
0.0
 10
-3.9176704789
 20
-7.0727422296
 30
0.0
 10
-3.8323298808
 20
-7.0734396408
 30
0.0
 10
-3.7472285105
 20
-7.0582473522
 30
0.0
 10
-3.6848119404
 20
-7.0402918341
 30
0.0
  0
SPLINE
  5
4D2
100
AcDbEntity
  8
0
100
AcDbSpline
 62
7
  6
CONTINUOUS
 70
0
 71
3
 72
9
 73
5
 74
0
 42
0.0000001
 43
0.0000001
 44
0.0000000001
 40
0.0
 40
0.0
 40
0.0
 40
0.0
 40
0.4623161855
 40
1.0
 40
1.0
 40
1.0
 40
1.0
 10
-3.6848119404
 20
-7.0402918341
 30
0.0
 10
-3.6369026124
 20
-7.0265096476
 30
0.0
 10
-3.5358043155
 20
-6.9878318123
 30
0.0
 10
-3.4401262075
 20
-6.937715745
 30
0.0
 10
-3.3899154527
 20
-6.9087246845
 30
0.0
  0
SPLINE
  5
4D3
100
AcDbEntity
  8
0
100
AcDbSpline
 62
7
  6
CONTINUOUS
 70
0
 71
3
 72
9
 73
5
 74
0
 42
0.0000001
 43
0.0000001
 44
0.0000000001
 40
0.0
 40
0.0
 40
0.0
 40
0.0
 40
0.5769490312
 40
1.0
 40
1.0
 40
1.0
 40
1.0
 10
-3.3899154527
 20
-6.9087246845
 30
0.0
 10
-3.3499659884
 20
-6.8856583645
 30
0.0
 10
-3.2818309218
 20
-6.8438166935
 30
0.0
 10
-3.217879367
 20
-6.7951151756
 30
0.0
 10
-3.1936524032
 20
-6.7715098806
 30
0.0
  0
SPLINE
  5
4D4
100
AcDbEntity
  8
0
100
AcDbSpline
 62
7
  6
CONTINUOUS
 70
0
 71
3
 72
9
 73
5
 74
0
 42
0.0000001
 43
0.0000001
 44
0.0000000001
 40
0.0
 40
0.0
 40
0.0
 40
0.0
 40
0.2897902144
 40
1.0
 40
1.0
 40
1.0
 40
1.0
 10
-3.1936524032
 20
-6.7715098806
 30
0.0
 10
-3.1841250059
 20
-6.7622269582
 30
0.0
 10
-3.1525155817
 20
-6.7290759328
 30
0.0
 10
-3.125910999
 20
-6.6900869533
 30
0.0
 10
-3.1143832081
 20
-6.6595929265
 30
0.0
  0
SPLINE
  5
4D5
100
AcDbEntity
  8
0
100
AcDbSpline
 62
7
  6
CONTINUOUS
 70
0
 71
3
 72
9
 73
5
 74
0
 42
0.0000001
 43
0.0000001
 44
0.0000000001
 40
0.0
 40
0.0
 40
0.0
 40
0.0
 40
0.2185125065
 40
1.0
 40
1.0
 40
1.0
 40
1.0
 10
-4.8545878824
 20
-6.4604539312
 30
0.0
 10
-4.8532041466
 20
-6.4555207328
 30
0.0
 10
-4.8447606468
 20
-6.4335191984
 30
0.0
 10
-4.8294570693
 20
-6.4148250972
 30
0.0
 10
-4.816512236
 20
-6.4018559047
 30
0.0
  0
SPLINE
  5
4D6
100
AcDbEntity
  8
0
100
AcDbSpline
 62
7
  6
CONTINUOUS
 70
0
 71
3
 72
9
 73
5
 74
0
 42
0.0000001
 43
0.0000001
 44
0.0000000001
 40
0.0
 40
0.0
 40
0.0
 40
0.0
 40
0.2356879537
 40
1.0
 40
1.0
 40
1.0
 40
1.0
 10
-4.816512236
 20
-6.4018559047
 30
0.0
 10
-4.8143740687
 20
-6.3997137139
 30
0.0
 10
-4.8051373805
 20
-6.3907891141
 30
0.0
 10
-4.7953066151
 20
-6.3824910551
 30
0.0
 10
-4.7875847628
 20
-6.3764321018
 30
0.0
  0
SPLINE
  5
4D7
100
AcDbEntity
  8
0
100
AcDbSpline
 62
7
  6
CONTINUOUS
 70
0
 71
3
 72
9
 73
5
 74
0
 42
0.0000001
 43
0.0000001
 44
0.0000000001
 40
0.0
 40
0.0
 40
0.0
 40
0.0
 40
0.2618169296
 40
1.0
 40
1.0
 40
1.0
 40
1.0
 10
-3.1143832081
 20
-6.6595929265
 30
0.0
 10
-3.1129570551
 20
-6.6558203781
 30
0.0
 10
-3.1080753227
 20
-6.6412094795
 30
0.0
 10
-3.10571131
 20
-6.6257148581
 30
0.0
 10
-3.1057113074
 20
-6.6143436347
 30
0.0
  0
SPLINE
  5
4D8
100
AcDbEntity
  8
0
100
AcDbSpline
 62
7
  6
CONTINUOUS
 70
0
 71
3
 72
10
 73
6
 74
0
 42
0.0000001
 43
0.0000001
 44
0.0000000001
 40
0.0
 40
0.0
 40
0.0
 40
0.0
 40
0.2225363557
 40
0.5887175181
 40
1.0
 40
1.0
 40
1.0
 40
1.0
 10
-4.8574548071
 20
-6.4398771686
 30
0.0
 10
-4.8574425275
 20
-6.4302933849
 30
0.0
 10
-4.8519320767
 20
-6.4048403539
 30
0.0
 10
-4.826604212
 20
-6.368858947
 30
0.0
 10
-4.8015195218
 20
-6.3465424999
 30
0.0
 10
-4.7875847628
 20
-6.335608588
 30
0.0
  0
SPLINE
  5
4D9
100
AcDbEntity
  8
0
100
AcDbSpline
 62
7
  6
CONTINUOUS
 70
0
 71
3
 72
9
 73
5
 74
0
 42
0.0000001
 43
0.0000001
 44
0.0000000001
 40
0.0
 40
0.0
 40
0.0
 40
0.0
 40
0.4386689355
 40
1.0
 40
1.0
 40
1.0
 40
1.0
 10
-6.6216731768
 20
-5.4318584349
 30
0.0
 10
-6.6190543096
 20
-5.4232898583
 30
0.0
 10
-6.6093252934
 20
-5.4049624387
 30
0.0
 10
-6.5961878735
 20
-5.3892437166
 30
0.0
 10
-6.5883588918
 20
-5.3808676353
 30
0.0
  0
SPLINE
  5
4DA
100
AcDbEntity
  8
0
100
AcDbSpline
 62
7
  6
CONTINUOUS
 70
0
 71
3
 72
10
 73
6
 74
0
 42
0.0000001
 43
0.0000001
 44
0.0000000001
 40
0.0
 40
0.0
 40
0.0
 40
0.0
 40
0.183587391
 40
0.4105582452
 40
1.0
 40
1.0
 40
1.0
 40
1.0
 10
-6.5883588918
 20
-5.3808676353
 30
0.0
 10
-6.5772677754
 20
-5.3690014572
 30
0.0
 10
-6.5503238534
 20
-5.3444810829
 30
0.0
 10
-6.4796794471
 20
-5.2911327684
 30
0.0
 10
-6.4179009555
 20
-5.2533794548
 30
0.0
 10
-6.3727387904
 20
-5.2273033867
 30
0.0
  0
SPLINE
  5
4DB
100
AcDbEntity
  8
0
100
AcDbSpline
 62
7
  6
CONTINUOUS
 70
0
 71
3
 72
9
 73
5
 74
0
 42
0.0000001
 43
0.0000001
 44
0.0000000001
 40
0.0
 40
0.0
 40
0.0
 40
0.0
 40
0.2399773511
 40
1.0
 40
1.0
 40
1.0
 40
1.0
 10
-5.012395815
 20
-6.4326475233
 30
0.0
 10
-5.0117665515
 20
-6.4387093714
 30
0.0
 10
-5.0073446466
 20
-6.4637936257
 30
0.0
 10
-4.9954039055
 20
-6.4871871021
 30
0.0
 10
-4.9840797024
 20
-6.5028174062
 30
0.0
  0
SPLINE
  5
4DC
100
AcDbEntity
  8
0
100
AcDbSpline
 62
7
  6
CONTINUOUS
 70
0
 71
3
 72
9
 73
5
 74
0
 42
0.0000001
 43
0.0000001
 44
0.0000000001
 40
0.0
 40
0.0
 40
0.0
 40
0.0
 40
0.4513563217
 40
1.0
 40
1.0
 40
1.0
 40
1.0
 10
-4.9840797024
 20
-6.5028174062
 30
0.0
 10
-4.9717548668
 20
-6.5198288399
 30
0.0
 10
-4.9383687947
 20
-6.5530855917
 30
0.0
 10
-4.8993647607
 20
-6.5788058804
 30
0.0
 10
-4.8772512981
 20
-6.5915739165
 30
0.0
  0
SPLINE
  5
4DD
100
AcDbEntity
  8
0
100
AcDbSpline
 62
7
  6
CONTINUOUS
 70
0
 71
3
 72
9
 73
5
 74
0
 42
0.0000001
 43
0.0000001
 44
0.0000000001
 40
0.0
 40
0.0
 40
0.0
 40
0.0
 40
0.4824532346
 40
1.0
 40
1.0
 40
1.0
 40
1.0
 10
-4.8772512981
 20
-6.5915739165
 30
0.0
 10
-4.8264059209
 20
-6.6209314001
 30
0.0
 10
-4.7103397666
 20
-6.6647880421
 30
0.0
 10
-4.5870255538
 20
-6.6709108293
 30
0.0
 10
-4.5241786898
 20
-6.6667744847
 30
0.0
  0
SPLINE
  5
4DE
100
AcDbEntity
  8
0
100
AcDbSpline
 62
7
  6
CONTINUOUS
 70
0
 71
3
 72
9
 73
5
 74
0
 42
0.0000001
 43
0.0000001
 44
0.0000000001
 40
0.0
 40
0.0
 40
0.0
 40
0.0
 40
0.5157122154
 40
1.0
 40
1.0
 40
1.0
 40
1.0
 10
-4.5241786898
 20
-6.6667744847
 30
0.0
 10
-4.4723675993
 20
-6.6633644733
 30
0.0
 10
-4.3721078242
 20
-6.6473891071
 30
0.0
 10
-4.2780168925
 20
-6.6083517222
 30
0.0
 10
-4.2357907831
 20
-6.5839708959
 30
0.0
  0
SPLINE
  5
4DF
100
AcDbEntity
  8
0
100
AcDbSpline
 62
250
  6
CONTINUOUS
 70
0
 71
3
 72
19
 73
15
 74
0
 42
0.0000001
 43
0.0000001
 44
0.0000000001
 40
0.0
 40
0.0
 40
0.0
 40
0.0
 40
0.042843126
 40
0.0874546706
 40
0.1352687383
 40
0.1872112881
 40
0.2436936526
 40
0.3046894424
 40
0.3698281569
 40
0.4384790221
 40
0.5827600849
 40
0.7298484227
 40
0.8713758557
 40
1.0
 40
1.0
 40
1.0
 40
1.0
 10
-11.8201107967
 20
-0.5770689842
 30
0.0
 10
-11.8201167735
 20
-0.4838309661
 30
0.0
 10
-11.7951801586
 20
-0.2926960449
 30
0.0
 10
-11.6855735344
 20
-0.0167141989
 30
0.0
 10
-11.5077137597
 20
0.2449140955
 30
0.0
 10
-11.2666492427
 20
0.487012573
 30
0.0
 10
-10.9679362096
 20
0.7053056519
 30
0.0
 10
-10.6179399788
 20
0.8956799037
 30
0.0
 10
-10.2239669076
 20
1.05442203
 30
0.0
 10
-9.6416422349
 20
1.2221871977
 30
0.0
 10
-8.8613214801
 20
1.3316610751
 30
0.0
 10
-7.9152536309
 20
1.3055105353
 30
0.0
 10
-7.0206339867
 20
1.1264793666
 30
0.0
 10
-6.4717540648
 20
0.8999972175
 30
0.0
 10
-6.2293398861
 20
0.7600303088
 30
0.0
  0
SPLINE
  5
4E0
100
AcDbEntity
  8
0
100
AcDbSpline
 62
7
  6
CONTINUOUS
 70
0
 71
3
 72
9
 73
5
 74
0
 42
0.0000001
 43
0.0000001
 44
0.0000000001
 40
0.0
 40
0.0
 40
0.0
 40
0.0
 40
0.3691106503
 40
1.0
 40
1.0
 40
1.0
 40
1.0
 10
-5.5118236413
 20
-6.0522171347
 30
0.0
 10
-5.4814850506
 20
-6.0517967631
 30
0.0
 10
-5.3992844608
 20
-6.0545773249
 30
0.0
 10
-5.3171787462
 20
-6.0581428463
 30
0.0
 10
-5.2653804626
 20
-6.0606750845
 30
0.0
  0
SPLINE
  5
4E1
100
AcDbEntity
  8
0
100
AcDbSpline
 62
7
  6
CONTINUOUS
 70
0
 71
3
 72
9
 73
5
 74
0
 42
0.0000001
 43
0.0000001
 44
0.0000000001
 40
0.0
 40
0.0
 40
0.0
 40
0.0
 40
0.5835461564
 40
1.0
 40
1.0
 40
1.0
 40
1.0
 10
-5.2653804626
 20
-6.0606750845
 30
0.0
 10
-5.200178011
 20
-6.0638626058
 30
0.0
 10
-5.0883987442
 20
-6.0682875097
 30
0.0
 10
-4.9764716486
 20
-6.069253603
 30
0.0
 10
-4.9299070111
 20
-6.067778855
 30
0.0
  0
SPLINE
  5
4E2
100
AcDbEntity
  8
0
100
AcDbSpline
 62
7
  6
CONTINUOUS
 70
0
 71
3
 72
11
 73
7
 74
0
 42
0.0000001
 43
0.0000001
 44
0.0000000001
 40
0.0
 40
0.0
 40
0.0
 40
0.0
 40
0.306788008
 40
0.5654239756
 40
0.7896034707
 40
1.0
 40
1.0
 40
1.0
 40
1.0
 10
-4.2357907831
 20
-6.5839708959
 30
0.0
 10
-4.2157883693
 20
-6.5724217528
 30
0.0
 10
-4.1801151318
 20
-6.5488304549
 30
0.0
 10
-4.1372333462
 20
-6.5069515947
 30
0.0
 10
-4.1104909548
 20
-6.4611859723
 30
0.0
 10
-4.1045028908
 20
-6.4282015766
 30
0.0
 10
-4.1044251692
 20
-6.4123616292
 30
0.0
  0
SPLINE
  5
4E3
100
AcDbEntity
  8
0
100
AcDbSpline
 62
7
  6
CONTINUOUS
 70
0
 71
3
 72
9
 73
5
 74
0
 42
0.0000001
 43
0.0000001
 44
0.0000000001
 40
0.0
 40
0.0
 40
0.0
 40
0.0
 40
0.5433888461
 40
1.0
 40
1.0
 40
1.0
 40
1.0
 10
-4.9299070111
 20
-6.067778855
 30
0.0
 10
-4.8956954082
 20
-6.0666953399
 30
0.0
 10
-4.8327722152
 20
-6.0626920132
 30
0.0
 10
-4.7703849447
 20
-6.0528701928
 30
0.0
 10
-4.7423734096
 20
-6.0463405373
 30
0.0
  0
SPLINE
  5
4E4
100
AcDbEntity
  8
0
100
AcDbSpline
 62
7
  6
CONTINUOUS
 70
0
 71
3
 72
9
 73
5
 74
0
 42
0.0000001
 43
0.0000001
 44
0.0000000001
 40
0.0
 40
0.0
 40
0.0
 40
0.0
 40
0.2683457882
 40
1.0
 40
1.0
 40
1.0
 40
1.0
 10
-4.7423734096
 20
-6.0463405373
 30
0.0
 10
-4.7301457077
 20
-6.0434901873
 30
0.0
 10
-4.6849302951
 20
-6.0315295515
 30
0.0
 10
-4.6410332086
 20
-6.0137648904
 30
0.0
 10
-4.6113869713
 20
-5.9966475245
 30
0.0
  0
SPLINE
  5
4E5
100
AcDbEntity
  8
0
100
AcDbSpline
 62
7
  6
CONTINUOUS
 70
0
 71
3
 72
11
 73
7
 74
0
 42
0.0000001
 43
0.0000001
 44
0.0000000001
 40
0.0
 40
0.0
 40
0.0
 40
0.0
 40
0.2988096631
 40
0.5543835
 40
0.7812545427
 40
1.0
 40
1.0
 40
1.0
 40
1.0
 10
-4.6113869713
 20
-5.9966475245
 30
0.0
 10
-4.5953207351
 20
-5.9873710811
 30
0.0
 10
-4.5665672398
 20
-5.9681085118
 30
0.0
 10
-4.5322265945
 20
-5.933213035
 30
0.0
 10
-4.5110494261
 20
-5.8943912264
 30
0.0
 10
-4.5065460587
 20
-5.8664721559
 30
0.0
 10
-4.506546064
 20
-5.8528910569
 30
0.0
  0
SPLINE
  5
4E6
100
AcDbEntity
  8
0
100
AcDbSpline
 62
7
  6
CONTINUOUS
 70
0
 71
3
 72
9
 73
5
 74
0
 42
0.0000001
 43
0.0000001
 44
0.0000000001
 40
0.0
 40
0.0
 40
0.0
 40
0.0
 40
0.7519250153
 40
1.0
 40
1.0
 40
1.0
 40
1.0
 10
-4.6101329171
 20
-6.2418390184
 30
0.0
 10
-4.5770315411
 20
-6.2373420851
 30
0.0
 10
-4.5320610765
 20
-6.2370415903
 30
0.0
 10
-4.488019398
 20
-6.2428393307
 30
0.0
 10
-4.4771422874
 20
-6.2446151426
 30
0.0
  0
SPLINE
  5
4E7
100
AcDbEntity
  8
0
100
AcDbSpline
 62
7
  6
CONTINUOUS
 70
0
 71
3
 72
9
 73
5
 74
0
 42
0.0000001
 43
0.0000001
 44
0.0000000001
 40
0.0
 40
0.0
 40
0.0
 40
0.0
 40
0.2665500972
 40
1.0
 40
1.0
 40
1.0
 40
1.0
 10
-4.4771422874
 20
-6.2446151426
 30
0.0
 10
-4.4656582802
 20
-6.2464900373
 30
0.0
 10
-4.4228938782
 20
-6.2552257656
 30
0.0
 10
-4.3814020491
 20
-6.2710847823
 30
0.0
 10
-4.3536739042
 20
-6.2870946657
 30
0.0
  0
SPLINE
  5
4E8
100
AcDbEntity
  8
0
100
AcDbSpline
 62
7
  6
CONTINUOUS
 70
0
 71
3
 72
11
 73
7
 74
0
 42
0.0000001
 43
0.0000001
 44
0.0000000001
 40
0.0
 40
0.0
 40
0.0
 40
0.0
 40
0.2900870434
 40
0.5518527374
 40
0.7846357451
 40
1.0
 40
1.0
 40
1.0
 40
1.0
 10
-4.3536739042
 20
-6.2870946657
 30
0.0
 10
-4.3411636566
 20
-6.2943179258
 30
0.0
 10
-4.3181065821
 20
-6.3094743447
 30
0.0
 10
-4.2896782671
 20
-6.3367466331
 30
0.0
 10
-4.2714770533
 20
-6.3677820267
 30
0.0
 10
-4.2678421106
 20
-6.39041383
 30
0.0
 10
-4.2680791537
 20
-6.4011359695
 30
0.0
  0
SPLINE
  5
4E9
100
AcDbEntity
  8
0
100
AcDbSpline
 62
250
  6
CONTINUOUS
 70
0
 71
3
 72
9
 73
5
 74
0
 42
0.0000001
 43
0.0000001
 44
0.0000000001
 40
0.0
 40
0.0
 40
0.0
 40
0.0
 40
0.2765465627
 40
1.0
 40
1.0
 40
1.0
 40
1.0
 10
-10.96695532
 20
-1.8529389249
 30
0.0
 10
-11.059203796
 20
-1.7996758111
 30
0.0
 10
-11.3823235799
 20
-1.5915746426
 30
0.0
 10
-11.666148848
 20
-1.3081498787
 30
0.0
 10
-11.8027309809
 20
-1.0652550889
 30
0.0
  0
SPLINE
  5
4EA
100
AcDbEntity
  8
0
100
AcDbSpline
 62
250
  6
CONTINUOUS
 70
0
 71
3
 72
22
 73
18
 74
0
 42
0.0000001
 43
0.0000001
 44
0.0000000001
 40
0.0
 40
0.0
 40
0.0
 40
0.0
 40
0.0461971115
 40
0.0904417551
 40
0.1350844379
 40
0.1823755246
 40
0.2339634964
 40
0.2907173135
 40
0.3527987643
 40
0.4198153889
 40
0.4909666186
 40
0.5651641595
 40
0.7173127943
 40
0.7926611103
 40
0.8656569266
 40
0.935093306
 40
1.0
 40
1.0
 40
1.0
 40
1.0
 10
-11.8118414553
 20
-1.0488086018
 30
0.0
 10
-11.8667809923
 20
-0.9481145177
 30
0.0
 10
-11.9515743931
 20
-0.7368682445
 30
0.0
 10
-11.9851553383
 20
-0.3984821149
 30
0.0
 10
-11.9186107827
 20
-0.0621964888
 30
0.0
 10
-11.7563076836
 20
0.2592879823
 30
0.0
 10
-11.5060343194
 20
0.5574102543
 30
0.0
 10
-11.1760742377
 20
0.8256478079
 30
0.0
 10
-10.7755531669
 20
1.0580278642
 30
0.0
 10
-10.3151037826
 20
1.2489485978
 30
0.0
 10
-9.806871236
 20
1.3935844265
 30
0.0
 10
-9.0781900733
 20
1.5204732193
 30
0.0
 10
-8.323736806
 20
1.5399062507
 30
0.0
 10
-7.5818788292
 20
1.4525538957
 30
0.0
 10
-7.0528793665
 20
1.3354073294
 30
0.0
 10
-6.5643501606
 20
1.1697728274
 30
0.0
 10
-6.2628423943
 20
1.0243271567
 30
0.0
 10
-6.1232738689
 20
0.9437420394
 30
0.0
  0
SPLINE
  5
4EB
100
AcDbEntity
  8
0
100
AcDbSpline
 62
250
  6
CONTINUOUS
 70
0
 71
3
 72
9
 73
5
 74
0
 42
0.0000001
 43
0.0000001
 44
0.0000000001
 40
0.0
 40
0.0
 40
0.0
 40
0.0
 40
0.5508331052
 40
1.0
 40
1.0
 40
1.0
 40
1.0
 10
-10.96695532
 20
-1.8529389249
 30
0.0
 10
-10.9545480778
 20
-1.8457751388
 30
0.0
 10
-10.9297567725
 20
-1.8354693878
 30
0.0
 10
-10.9020724448
 20
-1.8396722085
 30
0.0
 10
-10.8919551805
 20
-1.8455137833
 30
0.0
  0
SPLINE
  5
4EC
100
AcDbEntity
  8
0
100
AcDbSpline
 62
250
  6
CONTINUOUS
 70
0
 71
3
 72
11
 73
7
 74
0
 42
0.0000001
 43
0.0000001
 44
0.0000000001
 40
0.0
 40
0.0
 40
0.0
 40
0.0
 40
0.2372511122
 40
0.5000061058
 40
0.7627577784
 40
1.0
 40
1.0
 40
1.0
 40
1.0
 10
-6.1232738689
 20
0.9437420394
 30
0.0
 10
-6.1383326436
 20
0.9350472916
 30
0.0
 10
-6.1668309807
 20
0.911065588
 30
0.0
 10
-6.2000802199
 20
0.8656103694
 30
0.0
 10
-6.222820791
 20
0.8140887091
 30
0.0
 10
-6.2293398861
 20
0.7774183126
 30
0.0
 10
-6.2293398861
 20
0.7600303088
 30
0.0
  0
SPLINE
  5
4ED
100
AcDbEntity
  8
0
100
AcDbSpline
 62
250
  6
CONTINUOUS
 70
0
 71
3
 72
11
 73
7
 74
0
 42
0.0000001
 43
0.0000001
 44
0.0000000001
 40
0.0
 40
0.0
 40
0.0
 40
0.0
 40
0.2372511122
 40
0.5000061058
 40
0.7627577784
 40
1.0
 40
1.0
 40
1.0
 40
1.0
 10
7.3117549736
 20
-6.8134752339
 30
0.0
 10
7.2966961989
 20
-6.8221699817
 30
0.0
 10
7.2681978618
 20
-6.8461516852
 30
0.0
 10
7.2349486226
 20
-6.8916069038
 30
0.0
 10
7.2122080515
 20
-6.9431285641
 30
0.0
 10
7.2056889565
 20
-6.9797989606
 30
0.0
 10
7.2056889565
 20
-6.9971869644
 30
0.0
  0
SPLINE
  5
4EE
100
AcDbEntity
  8
0
100
AcDbSpline
 62
250
  6
CONTINUOUS
 70
0
 71
3
 72
9
 73
5
 74
0
 42
0.0000001
 43
0.0000001
 44
0.0000000001
 40
0.0
 40
0.0
 40
0.0
 40
0.0
 40
0.5508331053
 40
1.0
 40
1.0
 40
1.0
 40
1.0
 10
2.4680735225
 20
-9.6101561982
 30
0.0
 10
2.4804807647
 20
-9.602992412
 30
0.0
 10
2.50527207
 20
-9.5926866611
 30
0.0
 10
2.5329563977
 20
-9.5968894817
 30
0.0
 10
2.543073662
 20
-9.6027310565
 30
0.0
  0
SPLINE
  5
4EF
100
AcDbEntity
  8
0
100
AcDbSpline
 62
7
  6
CONTINUOUS
 70
0
 71
3
 72
9
 73
5
 74
0
 42
0.0000001
 43
0.0000001
 44
0.0000000001
 40
0.0
 40
0.0
 40
0.0
 40
0.0
 40
0.2409405446
 40
1.0
 40
1.0
 40
1.0
 40
1.0
 10
-6.98660974
 20
-4.7229756495
 30
0.0
 10
-6.9837457791
 20
-4.7237589417
 30
0.0
 10
-6.9718419013
 20
-4.7269465922
 30
0.0
 10
-6.9598737017
 20
-4.729892133
 30
0.0
 10
-6.9507639923
 20
-4.7320159149
 30
0.0
  0
SPLINE
  5
4F0
100
AcDbEntity
  8
0
100
AcDbSpline
 62
7
  6
CONTINUOUS
 70
0
 71
3
 72
9
 73
5
 74
0
 42
0.0000001
 43
0.0000001
 44
0.0000000001
 40
0.0
 40
0.0
 40
0.0
 40
0.0
 40
0.2254111262
 40
1.0
 40
1.0
 40
1.0
 40
1.0
 10
-6.9507639923
 20
-4.7320159149
 30
0.0
 10
-6.9402799604
 20
-4.734460098
 30
0.0
 10
-6.8936140597
 20
-4.7446384265
 30
0.0
 10
-6.8464766219
 20
-4.7525440948
 30
0.0
 10
-6.8098802493
 20
-4.7579451165
 30
0.0
  0
SPLINE
  5
4F1
100
AcDbEntity
  8
0
100
AcDbSpline
 62
7
  6
CONTINUOUS
 70
0
 71
3
 72
9
 73
5
 74
0
 42
0.0000001
 43
0.0000001
 44
0.0000000001
 40
0.0
 40
0.0
 40
0.0
 40
0.0
 40
0.5026140168
 40
1.0
 40
1.0
 40
1.0
 40
1.0
 10
-5.1029854184
 20
-5.7388719547
 30
0.0
 10
-5.0749521294
 20
-5.722685885
 30
0.0
 10
-5.0147932857
 20
-5.6973583736
 30
0.0
 10
-4.9500426759
 20
-5.6892719352
 30
0.0
 10
-4.9180088092
 20
-5.6892719196
 30
0.0
  0
SPLINE
  5
4F2
100
AcDbEntity
  8
0
100
AcDbSpline
 62
7
  6
CONTINUOUS
 70
0
 71
3
 72
9
 73
5
 74
0
 42
0.0000001
 43
0.0000001
 44
0.0000000001
 40
0.0
 40
0.0
 40
0.0
 40
0.0
 40
0.5045983059
 40
1.0
 40
1.0
 40
1.0
 40
1.0
 10
-4.9180088092
 20
-5.6892719196
 30
0.0
 10
-4.8865440182
 20
-5.6892719044
 30
0.0
 10
-4.8238176576
 20
-5.6966130753
 30
0.0
 10
-4.7654279601
 20
-5.7208913139
 30
0.0
 10
-4.7386757179
 20
-5.7363377232
 30
0.0
  0
SPLINE
  5
4F3
100
AcDbEntity
  8
0
100
AcDbSpline
 62
7
  6
CONTINUOUS
 70
0
 71
3
 72
9
 73
5
 74
0
 42
0.0000001
 43
0.0000001
 44
0.0000000001
 40
0.0
 40
0.0
 40
0.0
 40
0.0
 40
0.2482497859
 40
1.0
 40
1.0
 40
1.0
 40
1.0
 10
-5.6202923119
 20
-6.0191817943
 30
0.0
 10
-5.6113692798
 20
-6.0179928573
 30
0.0
 10
-5.5753499673
 20
-6.0137815504
 30
0.0
 10
-5.5390805643
 20
-6.0117712929
 30
0.0
 10
-5.5118236413
 20
-6.0113936209
 30
0.0
  0
SPLINE
  5
4F4
100
AcDbEntity
  8
0
100
AcDbSpline
 62
7
  6
CONTINUOUS
 70
0
 71
3
 72
10
 73
6
 74
0
 42
0.0000001
 43
0.0000001
 44
0.0000000001
 40
0.0
 40
0.0
 40
0.0
 40
0.0
 40
0.2502925575
 40
0.5003323189
 40
1.0
 40
1.0
 40
1.0
 40
1.0
 10
-5.5118236413
 20
-6.0113936209
 30
0.0
 10
-5.4912508543
 20
-6.0111085643
 30
0.0
 10
-5.4501175145
 20
-6.0121162894
 30
0.0
 10
-5.367970669
 20
-6.0149583485
 30
0.0
 10
-5.3064055769
 20
-6.0178459953
 30
0.0
 10
-5.2653804626
 20
-6.0198515706
 30
0.0
  0
SPLINE
  5
4F5
100
AcDbEntity
  8
0
100
AcDbSpline
 62
7
  6
CONTINUOUS
 70
0
 71
3
 72
9
 73
5
 74
0
 42
0.0000001
 43
0.0000001
 44
0.0000000001
 40
0.0
 40
0.0
 40
0.0
 40
0.0
 40
0.5835461564
 40
1.0
 40
1.0
 40
1.0
 40
1.0
 10
-5.2653804626
 20
-6.0198515706
 30
0.0
 10
-5.200178011
 20
-6.023039092
 30
0.0
 10
-5.0883987442
 20
-6.0274639958
 30
0.0
 10
-4.9764716486
 20
-6.0284300891
 30
0.0
 10
-4.9299070111
 20
-6.0269553412
 30
0.0
  0
SPLINE
  5
4F6
100
AcDbEntity
  8
0
100
AcDbSpline
 62
7
  6
CONTINUOUS
 70
0
 71
3
 72
9
 73
5
 74
0
 42
0.0000001
 43
0.0000001
 44
0.0000000001
 40
0.0
 40
0.0
 40
0.0
 40
0.0
 40
0.3075154872
 40
1.0
 40
1.0
 40
1.0
 40
1.0
 10
-4.7386757179
 20
-5.7363377232
 30
0.0
 10
-4.7286694833
 20
-5.7421151977
 30
0.0
 10
-4.6973714951
 20
-5.7621370011
 30
0.0
 10
-4.6694418475
 20
-5.7926513625
 30
0.0
 10
-4.6628407838
 20
-5.8178190563
 30
0.0
  0
SPLINE
  5
4F7
100
AcDbEntity
  8
0
100
AcDbSpline
 62
7
  6
CONTINUOUS
 70
0
 71
3
 72
9
 73
5
 74
0
 42
0.0000001
 43
0.0000001
 44
0.0000000001
 40
0.0
 40
0.0
 40
0.0
 40
0.0
 40
0.5433888461
 40
1.0
 40
1.0
 40
1.0
 40
1.0
 10
-4.9299070111
 20
-6.0269553412
 30
0.0
 10
-4.8956954082
 20
-6.025871826
 30
0.0
 10
-4.8327722152
 20
-6.0218684994
 30
0.0
 10
-4.7703849447
 20
-6.0120466789
 30
0.0
 10
-4.7423734096
 20
-6.0055170235
 30
0.0
  0
SPLINE
  5
4F8
100
AcDbEntity
  8
0
100
AcDbSpline
 62
7
  6
CONTINUOUS
 70
0
 71
3
 72
9
 73
5
 74
0
 42
0.0000001
 43
0.0000001
 44
0.0000000001
 40
0.0
 40
0.0
 40
0.0
 40
0.0
 40
0.2683457882
 40
1.0
 40
1.0
 40
1.0
 40
1.0
 10
-4.7423734096
 20
-6.0055170235
 30
0.0
 10
-4.7301457077
 20
-6.0026666735
 30
0.0
 10
-4.6849302951
 20
-5.9907060377
 30
0.0
 10
-4.6410332086
 20
-5.9729413765
 30
0.0
 10
-4.6113869713
 20
-5.9558240107
 30
0.0
  0
SPLINE
  5
4F9
100
AcDbEntity
  8
0
100
AcDbSpline
 62
7
  6
CONTINUOUS
 70
0
 71
3
 72
11
 73
7
 74
0
 42
0.0000001
 43
0.0000001
 44
0.0000000001
 40
0.0
 40
0.0
 40
0.0
 40
0.0
 40
0.2988096774
 40
0.5543834784
 40
0.7812544908
 40
1.0
 40
1.0
 40
1.0
 40
1.0
 10
-4.6113869713
 20
-5.9558240107
 30
0.0
 10
-4.5953207147
 20
-5.9465475555
 30
0.0
 10
-4.5665671864
 20
-5.9272849608
 30
0.0
 10
-4.5322265155
 20
-5.8923894272
 30
0.0
 10
-4.5110493611
 20
-5.8535675469
 30
0.0
 10
-4.506546035
 20
-5.8256484317
 30
0.0
 10
-4.506546064
 20
-5.8120673129
 30
0.0
  0
SPLINE
  5
4FA
100
AcDbEntity
  8
0
100
AcDbSpline
 62
7
  6
CONTINUOUS
 70
0
 71
3
 72
9
 73
5
 74
0
 42
0.0000001
 43
0.0000001
 44
0.0000000001
 40
0.0
 40
0.0
 40
0.0
 40
0.0
 40
0.2754129674
 40
1.0
 40
1.0
 40
1.0
 40
1.0
 10
-6.8098802493
 20
-4.7171216027
 30
0.0
 10
-6.7929965996
 20
-4.7196133512
 30
0.0
 10
-6.7316069664
 20
-4.7279604708
 30
0.0
 10
-6.6697048698
 20
-4.7333216209
 30
0.0
 10
-6.6248083944
 20
-4.7339244753
 30
0.0
  0
SPLINE
  5
4FB
100
AcDbEntity
  8
0
100
AcDbSpline
 62
7
  6
CONTINUOUS
 70
0
 71
3
 72
9
 73
5
 74
0
 42
0.0000001
 43
0.0000001
 44
0.0000000001
 40
0.0
 40
0.0
 40
0.0
 40
0.0
 40
0.2165769359
 40
1.0
 40
1.0
 40
1.0
 40
1.0
 10
-6.98660974
 20
-4.6821521357
 30
0.0
 10
-6.974060146
 20
-4.6855844447
 30
0.0
 10
-6.9157436517
 20
-4.7000763473
 30
0.0
 10
-6.8564387701
 20
-4.710250332
 30
0.0
 10
-6.8098802493
 20
-4.7171216027
 30
0.0
  0
SPLINE
  5
4FC
100
AcDbEntity
  8
0
100
AcDbSpline
 62
7
  6
CONTINUOUS
 70
0
 71
3
 72
9
 73
5
 74
0
 42
0.0000001
 43
0.0000001
 44
0.0000000001
 40
0.0
 40
0.0
 40
0.0
 40
0.0
 40
0.2604384598
 40
1.0
 40
1.0
 40
1.0
 40
1.0
 10
-6.8098802493
 20
-4.7579451165
 30
0.0
 10
-6.8024952172
 20
-4.7590350256
 30
0.0
 10
-6.7741190989
 20
-4.76308123
 30
0.0
 10
-6.7456572663
 20
-4.7665439552
 30
0.0
 10
-6.7245656944
 20
-4.768668189
 30
0.0
  0
SPLINE
  5
4FD
100
AcDbEntity
  8
0
100
AcDbSpline
 62
7
  6
CONTINUOUS
 70
0
 71
3
 72
8
 73
4
 74
0
 42
0.0000001
 43
0.0000001
 44
0.0000000001
 40
0.0
 40
0.0
 40
0.0
 40
0.0
 40
1.0
 40
1.0
 40
1.0
 40
1.0
 10
-6.6266291668
 20
-5.4220504189
 30
0.0
 10
-6.6266260376
 20
-5.4115807651
 30
0.0
 10
-6.6247333423
 20
-5.4010473656
 30
0.0
 10
-6.6216731768
 20
-5.391034921
 30
0.0
  0
SPLINE
  5
4FE
100
AcDbEntity
  8
0
100
AcDbSpline
 62
250
  6
CONTINUOUS
 70
0
 71
3
 72
15
 73
11
 74
0
 42
0.0000001
 43
0.0000001
 44
0.0000000001
 40
0.0
 40
0.0
 40
0.0
 40
0.0
 40
0.151966788
 40
0.292880255
 40
0.4231594004
 40
0.5442890385
 40
0.6588152903
 40
0.7702719153
 40
0.882707125
 40
1.0
 40
1.0
 40
1.0
 40
1.0
 10
7.3117549736
 20
-6.8134752339
 30
0.0
 10
7.4179163055
 20
-6.8747714564
 30
0.0
 10
7.6161197349
 20
-7.0046784901
 30
0.0
 10
7.8746214737
 20
-7.2294004785
 30
0.0
 10
8.0786651571
 20
-7.4733486199
 30
0.0
 10
8.2239317905
 20
-7.732569801
 30
0.0
 10
8.3066163336
 20
-8.0025640225
 30
0.0
 10
8.3239066064
 20
-8.2776362321
 30
0.0
 10
8.2751727009
 20
-8.550989312
 30
0.0
 10
8.2019382363
 20
-8.7230076232
 30
0.0
 10
8.1566196942
 20
-8.8060646033
 30
0.0
  0
SPLINE
  5
4FF
100
AcDbEntity
  8
0
100
AcDbSpline
 62
250
  6
CONTINUOUS
 70
0
 71
3
 72
16
 73
12
 74
0
 42
0.0000001
 43
0.0000001
 44
0.0000000001
 40
0.0
 40
0.0
 40
0.0
 40
0.0
 40
0.0947417055
 40
0.1475549373
 40
0.2040514668
 40
0.3271283001
 40
0.4609776799
 40
0.6007599502
 40
0.7408482607
 40
0.8755778916
 40
1.0
 40
1.0
 40
1.0
 40
1.0
 10
8.1471043703
 20
-8.823229925
 30
0.0
 10
8.0535374538
 20
-8.9894045626
 30
0.0
 10
7.8572272356
 20
-9.2208179579
 30
0.0
 10
7.5350283878
 20
-9.4760189588
 30
0.0
 10
7.1357123874
 20
-9.721808155
 30
0.0
 10
6.5490220737
 20
-9.9645808813
 30
0.0
 10
5.7677822169
 20
-10.1439069419
 30
0.0
 10
4.9346712623
 20
-10.2091415504
 30
0.0
 10
4.0988890628
 20
-10.1563481882
 30
0.0
 10
3.3099869493
 20
-9.988876341
 30
0.0
 10
2.821041685
 20
-9.7972253999
 30
0.0
 10
2.5987981165
 20
-9.6817571998
 30
0.0
  0
SPLINE
  5
500
100
AcDbEntity
  8
0
100
AcDbSpline
 62
7
  6
CONTINUOUS
 70
0
 71
3
 72
11
 73
7
 74
0
 42
0.0000001
 43
0.0000001
 44
0.0000000001
 40
0.0
 40
0.0
 40
0.0
 40
0.0
 40
0.2069436222
 40
0.4314657268
 40
0.691882941
 40
1.0
 40
1.0
 40
1.0
 40
1.0
 10
-6.774310548
 20
-5.4613872205
 30
0.0
 10
-6.7734645568
 20
-5.4745583212
 30
0.0
 10
-6.7667680702
 20
-5.5019048643
 30
0.0
 10
-6.7426355346
 20
-5.5395505677
 30
0.0
 10
-6.7055124767
 20
-5.5744188283
 30
0.0
 10
-6.6750592506
 20
-5.5943656504
 30
0.0
 10
-6.6580414503
 20
-5.604191515
 30
0.0
  0
SPLINE
  5
501
100
AcDbEntity
  8
0
100
AcDbSpline
 62
7
  6
CONTINUOUS
 70
0
 71
3
 72
9
 73
5
 74
0
 42
0.0000001
 43
0.0000001
 44
0.0000000001
 40
0.0
 40
0.0
 40
0.0
 40
0.0
 40
0.2618168812
 40
1.0
 40
1.0
 40
1.0
 40
1.0
 10
-5.6137596525
 20
-5.2164842338
 30
0.0
 10
-5.6123334865
 20
-5.2127116886
 30
0.0
 10
-5.6074517097
 20
-5.1981007956
 30
0.0
 10
-5.6050876795
 20
-5.1826061633
 30
0.0
 10
-5.6050876768
 20
-5.1712349328
 30
0.0
  0
SPLINE
  5
502
100
AcDbEntity
  8
0
100
AcDbSpline
 62
7
  6
CONTINUOUS
 70
0
 71
3
 72
9
 73
5
 74
0
 42
0.0000001
 43
0.0000001
 44
0.0000000001
 40
0.0
 40
0.0
 40
0.0
 40
0.0
 40
0.2897899052
 40
1.0
 40
1.0
 40
1.0
 40
1.0
 10
-5.6930287615
 20
-5.3284012199
 30
0.0
 10
-5.6835013865
 20
-5.3191182991
 30
0.0
 10
-5.6518920113
 20
-5.2859672298
 30
0.0
 10
-5.6252875457
 20
-5.2469782294
 30
0.0
 10
-5.6137596525
 20
-5.2164842338
 30
0.0
  0
SPLINE
  5
503
100
AcDbEntity
  8
0
100
AcDbSpline
 62
7
  6
CONTINUOUS
 70
0
 71
3
 72
9
 73
5
 74
0
 42
0.0000001
 43
0.0000001
 44
0.0000000001
 40
0.0
 40
0.0
 40
0.0
 40
0.0
 40
0.5769489415
 40
1.0
 40
1.0
 40
1.0
 40
1.0
 10
-5.8892919147
 20
-5.4656160399
 30
0.0
 10
-5.8493424405
 20
-5.4425497142
 30
0.0
 10
-5.7812073306
 20
-5.4007080617
 30
0.0
 10
-5.7172557145
 20
-5.3520065558
 30
0.0
 10
-5.6930287615
 20
-5.3284012199
 30
0.0
  0
SPLINE
  5
504
100
AcDbEntity
  8
0
100
AcDbSpline
 62
7
  6
CONTINUOUS
 70
0
 71
3
 72
9
 73
5
 74
0
 42
0.0000001
 43
0.0000001
 44
0.0000000001
 40
0.0
 40
0.0
 40
0.0
 40
0.0
 40
0.4623160364
 40
1.0
 40
1.0
 40
1.0
 40
1.0
 10
-6.1841884365
 20
-5.5971831516
 30
0.0
 10
-6.136279143
 20
-5.5834008983
 30
0.0
 10
-6.0351808458
 20
-5.5447230934
 30
0.0
 10
-5.9395026848
 20
-5.4946071092
 30
0.0
 10
-5.8892919147
 20
-5.4656160399
 30
0.0
  0
SPLINE
  5
505
100
AcDbEntity
  8
0
100
AcDbSpline
 62
7
  6
CONTINUOUS
 70
0
 71
3
 72
9
 73
5
 74
0
 42
0.0000001
 43
0.0000001
 44
0.0000000001
 40
0.0
 40
0.0
 40
0.0
 40
0.0
 40
0.2381891294
 40
1.0
 40
1.0
 40
1.0
 40
1.0
 10
-6.4373238459
 20
-5.6285359872
 30
0.0
 10
-6.4170468219
 20
-5.6296335845
 30
0.0
 10
-6.3317062721
 20
-5.6303310629
 30
0.0
 10
-6.2466049368
 20
-5.6151387497
 30
0.0
 10
-6.1841884365
 20
-5.5971831516
 30
0.0
  0
SPLINE
  5
506
100
AcDbEntity
  8
0
100
AcDbSpline
 62
7
  6
CONTINUOUS
 70
0
 71
3
 72
9
 73
5
 74
0
 42
0.0000001
 43
0.0000001
 44
0.0000000001
 40
0.0
 40
0.0
 40
0.0
 40
0.0
 40
0.4953582352
 40
1.0
 40
1.0
 40
1.0
 40
1.0
 10
-6.6580414503
 20
-5.5633680012
 30
0.0
 10
-6.6248981607
 20
-5.5825045212
 30
0.0
 10
-6.553284729
 20
-5.613641617
 30
0.0
 10
-6.4762552845
 20
-5.6264286245
 30
0.0
 10
-6.4373238459
 20
-5.6285359872
 30
0.0
  0
SPLINE
  5
507
100
AcDbEntity
  8
0
100
AcDbSpline
 62
7
  6
CONTINUOUS
 70
0
 71
3
 72
9
 73
5
 74
0
 42
0.0000001
 43
0.0000001
 44
0.0000000001
 40
0.0
 40
0.0
 40
0.0
 40
0.0
 40
0.7455055974
 40
1.0
 40
1.0
 40
1.0
 40
1.0
 10
-5.012395815
 20
-6.4734710372
 30
0.0
 10
-5.0114286396
 20
-6.4827880735
 30
0.0
 10
-5.0087138916
 20
-6.495194135
 30
0.0
 10
-5.0043328784
 20
-6.5069731767
 30
0.0
 10
-5.0031188349
 20
-6.5099314094
 30
0.0
  0
SPLINE
  5
508
100
AcDbEntity
  8
0
100
AcDbSpline
 62
7
  6
CONTINUOUS
 70
0
 71
3
 72
9
 73
5
 74
0
 42
0.0000001
 43
0.0000001
 44
0.0000000001
 40
0.0
 40
0.0
 40
0.0
 40
0.0
 40
0.4363225691
 40
1.0
 40
1.0
 40
1.0
 40
1.0
 10
-5.0031188349
 20
-6.5099314094
 30
0.0
 10
-4.9932960526
 20
-6.5338663634
 30
0.0
 10
-4.9556775513
 20
-6.5822383842
 30
0.0
 10
-4.9061966895
 20
-6.6156847241
 30
0.0
 10
-4.8772512981
 20
-6.6323974303
 30
0.0
  0
SPLINE
  5
509
100
AcDbEntity
  8
0
100
AcDbSpline
 62
7
  6
CONTINUOUS
 70
0
 71
3
 72
10
 73
6
 74
0
 42
0.0000001
 43
0.0000001
 44
0.0000000001
 40
0.0
 40
0.0
 40
0.0
 40
0.0
 40
0.4761079092
 40
0.7293964392
 40
1.0
 40
1.0
 40
1.0
 40
1.0
 10
-6.3727387904
 20
-5.1864798729
 30
0.0
 10
-6.3179461476
 20
-5.1548432876
 30
0.0
 10
-6.2319591503
 20
-5.1094240903
 30
0.0
 10
-6.1080034666
 20
-5.061274912
 30
0.0
 10
-6.0397501636
 20
-5.0448531651
 30
0.0
 10
-6.0039839608
 20
-5.0411192314
 30
0.0
  0
SPLINE
  5
50A
100
AcDbEntity
  8
0
100
AcDbSpline
 62
7
  6
CONTINUOUS
 70
0
 71
3
 72
12
 73
8
 74
0
 42
0.0000001
 43
0.0000001
 44
0.0000000001
 40
0.0
 40
0.0
 40
0.0
 40
0.0
 40
0.1047115443
 40
0.2193800662
 40
0.4671394725
 40
0.7294018452
 40
1.0
 40
1.0
 40
1.0
 40
1.0
 10
-6.6216731768
 20
-5.391034921
 30
0.0
 10
-6.6183407252
 20
-5.3801315936
 30
0.0
 10
-6.6059193628
 20
-5.3591076767
 30
0.0
 10
-6.57186981
 20
-5.3212949748
 30
0.0
 10
-6.5185611169
 20
-5.2784759033
 30
0.0
 10
-6.4480595631
 20
-5.2310441026
 30
0.0
 10
-6.3982543541
 20
-5.2012122396
 30
0.0
 10
-6.3727387904
 20
-5.1864798729
 30
0.0
  0
SPLINE
  5
50B
100
AcDbEntity
  8
0
100
AcDbSpline
 62
7
  6
CONTINUOUS
 70
0
 71
3
 72
9
 73
5
 74
0
 42
0.0000001
 43
0.0000001
 44
0.0000000001
 40
0.0
 40
0.0
 40
0.0
 40
0.0
 40
0.4824532346
 40
1.0
 40
1.0
 40
1.0
 40
1.0
 10
-4.8772512981
 20
-6.6323974303
 30
0.0
 10
-4.8264059209
 20
-6.6617549139
 30
0.0
 10
-4.7103397666
 20
-6.705611556
 30
0.0
 10
-4.5870255538
 20
-6.7117343431
 30
0.0
 10
-4.5241786898
 20
-6.7075979986
 30
0.0
  0
SPLINE
  5
50C
100
AcDbEntity
  8
0
100
AcDbSpline
 62
7
  6
CONTINUOUS
 70
0
 71
3
 72
9
 73
5
 74
0
 42
0.0000001
 43
0.0000001
 44
0.0000000001
 40
0.0
 40
0.0
 40
0.0
 40
0.0
 40
0.2561740836
 40
1.0
 40
1.0
 40
1.0
 40
1.0
 10
11.7881986044
 20
-8.0403915651
 30
0.0
 10
11.7859783421
 20
-8.0426710637
 30
0.0
 10
11.7772057116
 20
-8.0514653965
 30
0.0
 10
11.7680072493
 20
-8.0598381936
 30
0.0
 10
11.7609227564
 20
-8.0657693156
 30
0.0
  0
SPLINE
  5
50D
100
AcDbEntity
  8
0
100
AcDbSpline
 62
7
  6
CONTINUOUS
 70
0
 71
3
 72
9
 73
5
 74
0
 42
0.0000001
 43
0.0000001
 44
0.0000000001
 40
0.0
 40
0.0
 40
0.0
 40
0.0
 40
0.5157122154
 40
1.0
 40
1.0
 40
1.0
 40
1.0
 10
-4.5241786898
 20
-6.7075979986
 30
0.0
 10
-4.4723675993
 20
-6.7041879872
 30
0.0
 10
-4.3721078242
 20
-6.6882126209
 30
0.0
 10
-4.2780168925
 20
-6.6491752361
 30
0.0
 10
-4.2357907831
 20
-6.6247944097
 30
0.0
  0
SPLINE
  5
50E
100
AcDbEntity
  8
0
100
AcDbSpline
 62
7
  6
CONTINUOUS
 70
0
 71
3
 72
10
 73
6
 74
0
 42
0.0000001
 43
0.0000001
 44
0.0000000001
 40
0.0
 40
0.0
 40
0.0
 40
0.0
 40
0.5486832682
 40
0.7812484988
 40
1.0
 40
1.0
 40
1.0
 40
1.0
 10
-5.8140472388
 20
-5.0746081708
 30
0.0
 10
-5.7962329787
 20
-5.0848939013
 30
0.0
 10
-5.77183428
 20
-5.1035920779
 30
0.0
 10
-5.7548411968
 20
-5.1376668292
 30
0.0
 10
-5.7524061827
 20
-5.1547220214
 30
0.0
 10
-5.7524086782
 20
-5.1629231468
 30
0.0
  0
SPLINE
  5
50F
100
AcDbEntity
  8
0
100
AcDbSpline
 62
7
  6
CONTINUOUS
 70
0
 71
3
 72
9
 73
5
 74
0
 42
0.0000001
 43
0.0000001
 44
0.0000000001
 40
0.0
 40
0.0
 40
0.0
 40
0.0
 40
0.5253546827
 40
1.0
 40
1.0
 40
1.0
 40
1.0
 10
-6.0039839608
 20
-5.0411192314
 30
0.0
 10
-5.96996448
 20
-5.0375676527
 30
0.0
 10
-5.903958199
 20
-5.0376224944
 30
0.0
 10
-5.840809438
 20
-5.0591560124
 30
0.0
 10
-5.8140472388
 20
-5.0746081708
 30
0.0
  0
SPLINE
  5
510
100
AcDbEntity
  8
0
100
AcDbSpline
 62
7
  6
CONTINUOUS
 70
0
 71
3
 72
9
 73
5
 74
0
 42
0.0000001
 43
0.0000001
 44
0.0000000001
 40
0.0
 40
0.0
 40
0.0
 40
0.0
 40
0.2577958972
 40
1.0
 40
1.0
 40
1.0
 40
1.0
 10
4.6670522934
 20
-12.1658839498
 30
0.0
 10
4.663396416
 20
-12.1676596701
 30
0.0
 10
4.6490748327
 20
-12.1742514264
 30
0.0
 10
4.6341832916
 20
-12.1796338749
 30
0.0
 10
4.6229090222
 20
-12.1827661835
 30
0.0
  0
SPLINE
  5
511
100
AcDbEntity
  8
0
100
AcDbSpline
 62
7
  6
CONTINUOUS
 70
0
 71
3
 72
9
 73
5
 74
0
 42
0.0000001
 43
0.0000001
 44
0.0000000001
 40
0.0
 40
0.0
 40
0.0
 40
0.0
 40
0.5249088974
 40
1.0
 40
1.0
 40
1.0
 40
1.0
 10
4.6074414238
 20
-12.1864707651
 30
0.0
 10
4.5892198228
 20
-12.1901233326
 30
0.0
 10
4.5532059142
 20
-12.192527396
 30
0.0
 10
4.5183996582
 20
-12.1815282288
 30
0.0
 10
4.5038329866
 20
-12.1731178233
 30
0.0
  0
SPLINE
  5
512
100
AcDbEntity
  8
0
100
AcDbSpline
 62
7
  6
CONTINUOUS
 70
0
 71
3
 72
11
 73
7
 74
0
 42
0.0000001
 43
0.0000001
 44
0.0000000001
 40
0.0
 40
0.0
 40
0.0
 40
0.0
 40
0.306788008
 40
0.5654239756
 40
0.7896034707
 40
1.0
 40
1.0
 40
1.0
 40
1.0
 10
-4.2357907831
 20
-6.6247944097
 30
0.0
 10
-4.2157883693
 20
-6.6132452666
 30
0.0
 10
-4.1801151318
 20
-6.5896539688
 30
0.0
 10
-4.1372333462
 20
-6.5477751086
 30
0.0
 10
-4.1104909548
 20
-6.5020094862
 30
0.0
 10
-4.1045028908
 20
-6.4690250905
 30
0.0
 10
-4.1044251692
 20
-6.453185143
 30
0.0
  0
SPLINE
  5
513
100
AcDbEntity
  8
0
100
AcDbSpline
 62
7
  6
CONTINUOUS
 70
0
 71
3
 72
11
 73
7
 74
0
 42
0.0000001
 43
0.0000001
 44
0.0000000001
 40
0.0
 40
0.0
 40
0.0
 40
0.0
 40
0.2079123059
 40
0.4310749466
 40
0.6905884324
 40
1.0
 40
1.0
 40
1.0
 40
1.0
 10
-6.7745517393
 20
-5.413019275
 30
0.0
 10
-6.7745517299
 20
-5.4267964987
 30
0.0
 10
-6.7692835345
 20
-5.4556245691
 30
0.0
 10
-6.7455135518
 20
-5.4955754574
 30
0.0
 10
-6.7074264328
 20
-5.5322971571
 30
0.0
 10
-6.6757973097
 20
-5.5531159905
 30
0.0
 10
-6.6580414503
 20
-5.5633680012
 30
0.0
  0
LINE
  5
514
100
AcDbEntity
  8
0
100
AcDbLine
 62
7
  6
CONTINUOUS
 10
7.8486210686
 20
-10.5010372347
 11
7.9594150579
 21
-10.4384448324
  0
SPLINE
  5
515
100
AcDbEntity
  8
0
100
AcDbSpline
 62
7
  6
CONTINUOUS
 70
0
 71
3
 72
11
 73
7
 74
0
 42
0.0000001
 43
0.0000001
 44
0.0000000001
 40
0.0
 40
0.0
 40
0.0
 40
0.0
 40
0.2885658264
 40
0.5507761
 40
0.784901165
 40
1.0
 40
1.0
 40
1.0
 40
1.0
 10
-4.7386757179
 20
-5.6955142094
 30
0.0
 10
-4.727729679
 20
-5.7018343151
 30
0.0
 10
-4.707452316
 20
-5.71506161
 30
0.0
 10
-4.6820668338
 20
-5.7385977805
 30
0.0
 10
-4.6649988066
 20
-5.7652318272
 30
0.0
 10
-4.6606220823
 20
-5.7849362477
 30
0.0
 10
-4.6602959367
 20
-5.794352241
 30
0.0
  0
SPLINE
  5
516
100
AcDbEntity
  8
0
100
AcDbSpline
 62
7
  6
CONTINUOUS
 70
0
 71
3
 72
9
 73
5
 74
0
 42
0.0000001
 43
0.0000001
 44
0.0000000001
 40
0.0
 40
0.0
 40
0.0
 40
0.0
 40
0.5277508193
 40
1.0
 40
1.0
 40
1.0
 40
1.0
 10
-4.9180088092
 20
-5.6484484058
 30
0.0
 10
-4.8851010437
 20
-5.6484483898
 30
0.0
 10
-4.8223196131
 20
-5.6561842036
 30
0.0
 10
-4.7641771358
 20
-5.6807900103
 30
0.0
 10
-4.7386757179
 20
-5.6955142094
 30
0.0
  0
SPLINE
  5
517
100
AcDbEntity
  8
0
100
AcDbSpline
 62
7
  6
CONTINUOUS
 70
0
 71
3
 72
9
 73
5
 74
0
 42
0.0000001
 43
0.0000001
 44
0.0000000001
 40
0.0
 40
0.0
 40
0.0
 40
0.0
 40
0.4721787376
 40
1.0
 40
1.0
 40
1.0
 40
1.0
 10
-5.1029854184
 20
-5.6980484409
 30
0.0
 10
-5.0766506199
 20
-5.6828430583
 30
0.0
 10
-5.0168191575
 20
-5.6570928019
 30
0.0
 10
-4.9520015997
 20
-5.6484484223
 30
0.0
 10
-4.9180088092
 20
-5.6484484058
 30
0.0
  0
SPLINE
  5
518
100
AcDbEntity
  8
0
100
AcDbSpline
 62
7
  6
CONTINUOUS
 70
0
 71
3
 72
9
 73
5
 74
0
 42
0.0000001
 43
0.0000001
 44
0.0000000001
 40
0.0
 40
0.0
 40
0.0
 40
0.0
 40
0.2503791345
 40
1.0
 40
1.0
 40
1.0
 40
1.0
 10
7.8579223798
 20
-8.4818239535
 30
0.0
 10
7.8564659833
 20
-8.4477828416
 30
0.0
 10
7.8454440681
 20
-8.3120804519
 30
0.0
 10
7.8133830511
 20
-8.178221258
 30
0.0
 10
7.7790446614
 20
-8.0821640186
 30
0.0
  0
SPLINE
  5
519
100
AcDbEntity
  8
0
100
AcDbSpline
 62
7
  6
CONTINUOUS
 70
0
 71
3
 72
11
 73
7
 74
0
 42
0.0000001
 43
0.0000001
 44
0.0000000001
 40
0.0
 40
0.0
 40
0.0
 40
0.0
 40
0.2384605074
 40
0.4825591409
 40
0.7356095322
 40
1.0
 40
1.0
 40
1.0
 40
1.0
 10
7.7790446614
 20
-8.0821640186
 30
0.0
 10
7.742772622
 20
-7.9806976419
 30
0.0
 10
7.645745608
 20
-7.7831805714
 30
0.0
 10
7.4408649877
 20
-7.5190701929
 30
0.0
 10
7.1848354679
 20
-7.2869360866
 30
0.0
 10
6.9893912567
 20
-7.1570178986
 30
0.0
 10
6.8859272257
 20
-7.0972790638
 30
0.0
  0
SPLINE
  5
51A
100
AcDbEntity
  8
0
100
AcDbSpline
 62
7
  6
CONTINUOUS
 70
0
 71
3
 72
17
 73
13
 74
0
 42
0.0000001
 43
0.0000001
 44
0.0000000001
 40
0.0
 40
0.0
 40
0.0
 40
0.0
 40
0.1234402009
 40
0.2553323042
 40
0.3919482037
 40
0.5281773937
 40
0.6590337553
 40
0.7810597995
 40
0.8385443873
 40
0.8938791578
 40
0.9475072853
 40
1.0
 40
1.0
 40
1.0
 40
1.0
 10
-6.5491016169
 20
0.6599382094
 30
0.0
 10
-6.7425698611
 20
0.7716443489
 30
0.0
 10
-7.1704665347
 20
0.9560592287
 30
0.0
 10
-7.8648807958
 20
1.1149806179
 30
0.0
 10
-8.5987921588
 20
1.1632509191
 30
0.0
 10
-9.3295775797
 20
1.0987044842
 30
0.0
 10
-10.0150656814
 20
0.9239161483
 30
0.0
 10
-10.5284281725
 20
0.684704001
 30
0.0
 10
-10.876449875
 20
0.4389273823
 30
0.0
 10
-11.0977674939
 20
0.2330041212
 30
0.0
 10
-11.2794921584
 20
0.002611856
 30
0.0
 10
-11.3708144582
 20
-0.1678298929
 30
0.0
 10
-11.4073722039
 20
-0.2555153153
 30
0.0
  0
SPLINE
  5
51B
100
AcDbEntity
  8
0
100
AcDbSpline
 62
7
  6
CONTINUOUS
 70
0
 71
3
 72
9
 73
5
 74
0
 42
0.0000001
 43
0.0000001
 44
0.0000000001
 40
0.0
 40
0.0
 40
0.0
 40
0.0
 40
0.7492844707
 40
1.0
 40
1.0
 40
1.0
 40
1.0
 10
-11.4501526261
 20
-0.3719760416
 30
0.0
 10
-11.4773492407
 20
-0.4573663556
 30
0.0
 10
-11.5026933363
 20
-0.5753522914
 30
0.0
 10
-11.5118409788
 20
-0.6946477311
 30
0.0
 10
-11.5131227262
 20
-0.7246066803
 30
0.0
  0
SPLINE
  5
51C
100
AcDbEntity
  8
0
100
AcDbSpline
 62
7
  6
CONTINUOUS
 70
0
 71
3
 72
9
 73
5
 74
0
 42
0.0000001
 43
0.0000001
 44
0.0000000001
 40
0.0
 40
0.0
 40
0.0
 40
0.0
 40
0.2436128818
 40
1.0
 40
1.0
 40
1.0
 40
1.0
 10
3.6970647687
 20
-6.3369728542
 30
0.0
 10
3.6970647702
 20
-6.3437993968
 30
0.0
 10
3.6951729015
 20
-6.3718247821
 30
0.0
 10
3.6857083532
 20
-6.3990488011
 30
0.0
 10
3.6758774904
 20
-6.4178265926
 30
0.0
  0
SPLINE
  5
51D
100
AcDbEntity
  8
0
100
AcDbSpline
 62
7
  6
CONTINUOUS
 70
0
 71
3
 72
9
 73
5
 74
0
 42
0.0000001
 43
0.0000001
 44
0.0000000001
 40
0.0
 40
0.0
 40
0.0
 40
0.0
 40
0.2289348772
 40
1.0
 40
1.0
 40
1.0
 40
1.0
 10
3.6758774904
 20
-6.4178265926
 30
0.0
 10
3.6697541127
 20
-6.4295227694
 30
0.0
 10
3.6383274055
 20
-6.4781663198
 30
0.0
 10
3.5920334985
 20
-6.5158929353
 30
0.0
 10
3.553832967
 20
-6.5386503552
 30
0.0
  0
SPLINE
  5
51E
100
AcDbEntity
  8
0
100
AcDbSpline
 62
7
  6
CONTINUOUS
 70
0
 71
3
 72
9
 73
5
 74
0
 42
0.0000001
 43
0.0000001
 44
0.0000000001
 40
0.0
 40
0.0
 40
0.0
 40
0.0
 40
0.2405573569
 40
1.0
 40
1.0
 40
1.0
 40
1.0
 10
4.4810891302
 20
-6.3827998078
 30
0.0
 10
4.4810891363
 20
-6.3633238067
 30
0.0
 10
4.4744215917
 20
-6.2825837844
 30
0.0
 10
4.4410220865
 20
-6.2033471748
 30
0.0
 10
4.4022173168
 20
-6.1556531914
 30
0.0
  0
SPLINE
  5
51F
100
AcDbEntity
  8
0
100
AcDbSpline
 62
7
  6
CONTINUOUS
 70
0
 71
3
 72
9
 73
5
 74
0
 42
0.0000001
 43
0.0000001
 44
0.0000000001
 40
0.0
 40
0.0
 40
0.0
 40
0.0
 40
0.2453221882
 40
1.0
 40
1.0
 40
1.0
 40
1.0
 10
2.3300261633
 20
-6.985276258
 30
0.0
 10
2.3300261639
 20
-6.9918879353
 30
0.0
 10
2.328366757
 20
-7.018845839
 30
0.0
 10
2.3201532758
 20
-7.0451350069
 30
0.0
 10
2.3117471364
 20
-7.0636559328
 30
0.0
  0
SPLINE
  5
520
100
AcDbEntity
  8
0
100
AcDbSpline
 62
7
  6
CONTINUOUS
 70
0
 71
3
 72
9
 73
5
 74
0
 42
0.0000001
 43
0.0000001
 44
0.0000000001
 40
0.0
 40
0.0
 40
0.0
 40
0.0
 40
0.2425488027
 40
1.0
 40
1.0
 40
1.0
 40
1.0
 10
2.3117471364
 20
-7.0636559328
 30
0.0
 10
2.3091971172
 20
-7.0692742928
 30
0.0
 10
2.297817901
 20
-7.0920450706
 30
0.0
 10
2.2834146363
 20
-7.1132230873
 30
0.0
 10
2.2715009979
 20
-7.1283665585
 30
0.0
  0
SPLINE
  5
521
100
AcDbEntity
  8
0
100
AcDbSpline
 62
7
  6
CONTINUOUS
 70
0
 71
3
 72
12
 73
8
 74
0
 42
0.0000001
 43
0.0000001
 44
0.0000000001
 40
0.0
 40
0.0
 40
0.0
 40
0.0
 40
0.1085924585
 40
0.2252496563
 40
0.4728576976
 40
0.7325098722
 40
1.0
 40
1.0
 40
1.0
 40
1.0
 10
4.4022173168
 20
-6.1556531914
 30
0.0
 10
4.3639316854
 20
-6.1085405722
 30
0.0
 10
4.2746509462
 20
-6.0187983018
 30
0.0
 10
4.06593187
 20
-5.8560740515
 30
0.0
 10
3.7673408378
 20
-5.674079594
 30
0.0
 10
3.381427539
 20
-5.4772112271
 30
0.0
 10
3.1125550774
 20
-5.3562841645
 30
0.0
 10
2.9751442421
 20
-5.2972952982
 30
0.0
  0
SPLINE
  5
522
100
AcDbEntity
  8
0
100
AcDbSpline
 62
7
  6
CONTINUOUS
 70
0
 71
3
 72
11
 73
7
 74
0
 42
0.0000001
 43
0.0000001
 44
0.0000000001
 40
0.0
 40
0.0
 40
0.0
 40
0.0
 40
0.2475019199
 40
0.4976401487
 40
0.748495208
 40
1.0
 40
1.0
 40
1.0
 40
1.0
 10
2.2715009979
 20
-7.1283665585
 30
0.0
 10
2.2266363255
 20
-7.1854471213
 30
0.0
 10
2.12544021
 20
-7.2910891691
 30
0.0
 10
1.9766048064
 20
-7.4523460903
 30
0.0
 10
1.8247834562
 20
-7.6126312577
 30
0.0
 10
1.7231204523
 20
-7.7192979791
 30
0.0
 10
1.6720713497
 20
-7.77256049
 30
0.0
  0
SPLINE
  5
523
100
AcDbEntity
  8
0
100
AcDbSpline
 62
7
  6
CONTINUOUS
 70
0
 71
3
 72
12
 73
8
 74
0
 42
0.0000001
 43
0.0000001
 44
0.0000000001
 40
0.0
 40
0.0
 40
0.0
 40
0.0
 40
0.2340582444
 40
0.3641351124
 40
0.4990162734
 40
0.7606614482
 40
1.0
 40
1.0
 40
1.0
 40
1.0
 10
3.553832967
 20
-6.5386503552
 30
0.0
 10
3.4907369833
 20
-6.5762230829
 30
0.0
 10
3.385109629
 20
-6.6241125431
 30
0.0
 10
3.2310782606
 20
-6.6549627951
 30
0.0
 10
3.0654794406
 20
-6.6638995932
 30
0.0
 10
2.8663669326
 20
-6.6276579522
 30
0.0
 10
2.7215178987
 20
-6.563927258
 30
0.0
 10
2.6557806804
 20
-6.5276299112
 30
0.0
  0
SPLINE
  5
524
100
AcDbEntity
  8
0
100
AcDbSpline
 62
7
  6
CONTINUOUS
 70
0
 71
3
 72
17
 73
13
 74
0
 42
0.0000001
 43
0.0000001
 44
0.0000000001
 40
0.0
 40
0.0
 40
0.0
 40
0.0
 40
0.1279030175
 40
0.2685325541
 40
0.4148755398
 40
0.5588592339
 40
0.6928355125
 40
0.8110725881
 40
0.8636498329
 40
0.9120611011
 40
0.9570848555
 40
1.0
 40
1.0
 40
1.0
 40
1.0
 10
5.2257899691
 20
0.1685726811
 30
0.0
 10
5.2257899691
 20
0.3345494082
 30
0.0
 10
5.1801232556
 20
0.68341699
 30
0.0
 10
5.0091183028
 20
1.1965327906
 30
0.0
 10
4.7450655159
 20
1.6924376866
 30
0.0
 10
4.4085534182
 20
2.1316746425
 30
0.0
 10
4.0262806012
 20
2.479743837
 30
0.0
 10
3.6791390042
 20
2.6794552602
 30
0.0
 10
3.4056489894
 20
2.761997897
 30
0.0
 10
3.2162615888
 20
2.7840880248
 30
0.0
 10
3.0386829668
 20
2.767654988
 30
0.0
 10
2.9294496899
 20
2.7301552692
 30
0.0
 10
2.8795161511
 20
2.7054973196
 30
0.0
  0
SPLINE
  5
525
100
AcDbEntity
  8
0
100
AcDbSpline
 62
7
  6
CONTINUOUS
 70
0
 71
3
 72
11
 73
7
 74
0
 42
0.0000001
 43
0.0000001
 44
0.0000000001
 40
0.0
 40
0.0
 40
0.0
 40
0.0
 40
0.2884471702
 40
0.5480215984
 40
0.7821810274
 40
1.0
 40
1.0
 40
1.0
 40
1.0
 10
5.2257899691
 20
0.1685726811
 30
0.0
 10
5.2257899691
 20
0.0730151422
 30
0.0
 10
5.2119380449
 20
-0.1090869027
 30
0.0
 10
5.1418913988
 20
-0.36067074
 30
0.0
 10
5.0242881787
 20
-0.5681438552
 30
0.0
 10
4.9131410124
 20
-0.6728277555
 30
0.0
 10
4.8531160376
 20
-0.7128779309
 30
0.0
  0
SPLINE
  5
526
100
AcDbEntity
  8
0
100
AcDbSpline
 62
7
  6
CONTINUOUS
 70
0
 71
3
 72
17
 73
13
 74
0
 42
0.0000001
 43
0.0000001
 44
0.0000000001
 40
0.0
 40
0.0
 40
0.0
 40
0.0
 40
0.1279030175
 40
0.2685325541
 40
0.4148755398
 40
0.5588592339
 40
0.6928355125
 40
0.8110725881
 40
0.8636498329
 40
0.9120611011
 40
0.9570848555
 40
1.0
 40
1.0
 40
1.0
 40
1.0
 10
18.6608188117
 20
-7.5886445922
 30
0.0
 10
18.6608188117
 20
-7.422667865
 30
0.0
 10
18.6151520981
 20
-7.0738002832
 30
0.0
 10
18.4441471453
 20
-6.5606844826
 30
0.0
 10
18.1800943585
 20
-6.0647795866
 30
0.0
 10
17.8435822607
 20
-5.6255426307
 30
0.0
 10
17.4613094437
 20
-5.2774734362
 30
0.0
 10
17.1141678467
 20
-5.077762013
 30
0.0
 10
16.8406778319
 20
-4.9952193763
 30
0.0
 10
16.6512904313
 20
-4.9731292484
 30
0.0
 10
16.4737118093
 20
-4.9895622853
 30
0.0
 10
16.3644785325
 20
-5.027062004
 30
0.0
 10
16.3145449936
 20
-5.0517199536
 30
0.0
  0
SPLINE
  5
527
100
AcDbEntity
  8
0
100
AcDbSpline
 62
7
  6
CONTINUOUS
 70
0
 71
3
 72
11
 73
7
 74
0
 42
0.0000001
 43
0.0000001
 44
0.0000000001
 40
0.0
 40
0.0
 40
0.0
 40
0.0
 40
0.2884471702
 40
0.5480215984
 40
0.7821810274
 40
1.0
 40
1.0
 40
1.0
 40
1.0
 10
18.6608188117
 20
-7.5886445922
 30
0.0
 10
18.6608188117
 20
-7.6842021311
 30
0.0
 10
18.6469668874
 20
-7.8663041759
 30
0.0
 10
18.5769202414
 20
-8.1178880133
 30
0.0
 10
18.4593170213
 20
-8.3253611284
 30
0.0
 10
18.3481698549
 20
-8.4300450287
 30
0.0
 10
18.2881448802
 20
-8.4700952041
 30
0.0
  0
SPLINE
  5
528
100
AcDbEntity
  8
0
100
AcDbSpline
 62
7
  6
CONTINUOUS
 70
0
 71
3
 72
11
 73
7
 74
0
 42
0.0000001
 43
0.0000001
 44
0.0000000001
 40
0.0
 40
0.0
 40
0.0
 40
0.0
 40
0.2863709551
 40
0.5476702348
 40
0.7830475637
 40
1.0
 40
1.0
 40
1.0
 40
1.0
 10
2.1913366932
 20
-6.8351481698
 30
0.0
 10
2.2100811618
 20
-6.845970991
 30
0.0
 10
2.244548762
 20
-6.8692458503
 30
0.0
 10
2.2874289542
 20
-6.9105745037
 30
0.0
 10
2.31713109
 20
-6.9563259288
 30
0.0
 10
2.3267301451
 20
-6.9897853867
 30
0.0
 10
2.3287733204
 20
-7.0060553783
 30
0.0
  0
SPLINE
  5
529
100
AcDbEntity
  8
0
100
AcDbSpline
 62
7
  6
CONTINUOUS
 70
0
 71
3
 72
10
 73
6
 74
0
 42
0.0000001
 43
0.0000001
 44
0.0000000001
 40
0.0
 40
0.0
 40
0.0
 40
0.0
 40
0.2499099273
 40
0.5003752068
 40
1.0
 40
1.0
 40
1.0
 40
1.0
 10
2.2399018408
 20
-8.1412422128
 30
0.0
 10
2.2864544568
 20
-8.0943188239
 30
0.0
 10
2.3807357121
 20
-8.0014374123
 30
0.0
 10
2.5693805284
 20
-7.8160602423
 30
0.0
 10
2.7105502498
 20
-7.6766581388
 30
0.0
 10
2.8035332492
 20
-7.5827628457
 30
0.0
  0
SPLINE
  5
52A
100
AcDbEntity
  8
0
100
AcDbSpline
 62
7
  6
CONTINUOUS
 70
0
 71
3
 72
12
 73
8
 74
0
 42
0.0000001
 43
0.0000001
 44
0.0000000001
 40
0.0
 40
0.0
 40
0.0
 40
0.0
 40
0.2693715344
 40
0.5299605713
 40
0.6544730942
 40
0.7745527052
 40
1.0
 40
1.0
 40
1.0
 40
1.0
 10
2.8035332492
 20
-7.5827628457
 30
0.0
 10
2.833793344
 20
-7.5522068203
 30
0.0
 10
2.8934760664
 20
-7.4922570946
 30
0.0
 10
2.9624902948
 20
-7.4135228349
 30
0.0
 10
3.0083437214
 20
-7.3469596308
 30
0.0
 10
3.0444376115
 20
-7.2812916254
 30
0.0
 10
3.0600066892
 20
-7.2261268217
 30
0.0
 10
3.0600066755
 20
-7.1901351364
 30
0.0
  0
SPLINE
  5
52B
100
AcDbEntity
  8
0
100
AcDbSpline
 62
7
  6
CONTINUOUS
 70
0
 71
3
 72
9
 73
5
 74
0
 42
0.0000001
 43
0.0000001
 44
0.0000000001
 40
0.0
 40
0.0
 40
0.0
 40
0.0
 40
0.4874257786
 40
1.0
 40
1.0
 40
1.0
 40
1.0
 10
3.0378178405
 20
-7.0577029634
 30
0.0
 10
3.0470989951
 20
-7.0613575682
 30
0.0
 10
3.0672902788
 20
-7.0656332361
 30
0.0
 10
3.0874910451
 20
-7.0685873893
 30
0.0
 10
3.0978685475
 20
-7.0701155051
 30
0.0
  0
SPLINE
  5
52C
100
AcDbEntity
  8
0
100
AcDbSpline
 62
7
  6
CONTINUOUS
 70
0
 71
3
 72
15
 73
11
 74
0
 42
0.0000001
 43
0.0000001
 44
0.0000000001
 40
0.0
 40
0.0
 40
0.0
 40
0.0
 40
0.1504011846
 40
0.3006543347
 40
0.4452552599
 40
0.5800165034
 40
0.7032063973
 40
0.8139335775
 40
0.9114340872
 40
1.0
 40
1.0
 40
1.0
 40
1.0
 10
3.0978685475
 20
-7.0701155051
 30
0.0
 10
3.1807762938
 20
-7.0823238991
 30
0.0
 10
3.3489093723
 20
-7.090905502
 30
0.0
 10
3.5968081417
 20
-7.0712345384
 30
0.0
 10
3.8314565801
 20
-7.019639796
 30
0.0
 10
4.0416071149
 20
-6.9387160734
 30
0.0
 10
4.2203418948
 20
-6.8358484659
 30
0.0
 10
4.3630207464
 20
-6.7163752076
 30
0.0
 10
4.4581164485
 20
-6.5775575867
 30
0.0
 10
4.4810895867
 20
-6.4729678099
 30
0.0
 10
4.4810891302
 20
-6.4236199164
 30
0.0
  0
SPLINE
  5
52D
100
AcDbEntity
  8
0
100
AcDbSpline
 62
7
  6
CONTINUOUS
 70
0
 71
3
 72
9
 73
5
 74
0
 42
0.0000001
 43
0.0000001
 44
0.0000000001
 40
0.0
 40
0.0
 40
0.0
 40
0.0
 40
0.5184997645
 40
1.0
 40
1.0
 40
1.0
 40
1.0
 10
3.0947756819
 20
-5.9253982727
 30
0.0
 10
3.1819605722
 20
-5.9610625377
 30
0.0
 10
3.348585401
 20
-6.0344344121
 30
0.0
 10
3.5032096189
 20
-6.1312796662
 30
0.0
 10
3.5738952507
 20
-6.1828113547
 30
0.0
  0
SPLINE
  5
52E
100
AcDbEntity
  8
0
100
AcDbSpline
 62
7
  6
CONTINUOUS
 70
0
 71
3
 72
9
 73
5
 74
0
 42
0.0000001
 43
0.0000001
 44
0.0000000001
 40
0.0
 40
0.0
 40
0.0
 40
0.0
 40
0.2784334178
 40
1.0
 40
1.0
 40
1.0
 40
1.0
 10
3.5738952507
 20
-6.1828113547
 30
0.0
 10
3.5893993957
 20
-6.194114907
 30
0.0
 10
3.6421866868
 20
-6.2377121922
 30
0.0
 10
3.6849640299
 20
-6.2991622033
 30
0.0
 10
3.694221435
 20
-6.3480169323
 30
0.0
  0
SPLINE
  5
52F
100
AcDbEntity
  8
0
100
AcDbSpline
 62
7
  6
CONTINUOUS
 70
0
 71
3
 72
11
 73
7
 74
0
 42
0.0000001
 43
0.0000001
 44
0.0000000001
 40
0.0
 40
0.0
 40
0.0
 40
0.0
 40
0.2253472445
 40
0.4612698498
 40
0.7175394449
 40
1.0
 40
1.0
 40
1.0
 40
1.0
 10
-11.5131201391
 20
-0.7246067173
 30
0.0
 10
-11.5172865305
 20
-0.8217693671
 30
0.0
 10
-11.4956748289
 20
-1.0230938223
 30
0.0
 10
-11.3750913207
 20
-1.3122022974
 30
0.0
 10
-11.1731596316
 20
-1.5821155559
 30
0.0
 10
-10.9979043966
 20
-1.7371925526
 30
0.0
 10
-10.9004938551
 20
-1.8104783229
 30
0.0
  0
SPLINE
  5
530
100
AcDbEntity
  8
0
100
AcDbSpline
 62
7
  6
CONTINUOUS
 70
0
 71
3
 72
9
 73
5
 74
0
 42
0.0000001
 43
0.0000001
 44
0.0000000001
 40
0.0
 40
0.0
 40
0.0
 40
0.0
 40
0.2443217082
 40
1.0
 40
1.0
 40
1.0
 40
1.0
 10
-10.8790231053
 20
-1.8264365343
 30
0.0
 10
-10.8606469841
 20
-1.8399302222
 30
0.0
 10
-10.7846243002
 20
-1.8940517451
 30
0.0
 10
-10.7055196599
 20
-1.9438124991
 30
0.0
 10
-10.6444535074
 20
-1.9790713301
 30
0.0
  0
SPLINE
  5
531
100
AcDbEntity
  8
0
100
AcDbSpline
 62
250
  6
CONTINUOUS
 70
0
 71
3
 72
23
 73
19
 74
0
 42
0.0000001
 43
0.0000001
 44
0.0000000001
 40
0.0
 40
0.0
 40
0.0
 40
0.0
 40
0.0665847052
 40
0.1384299958
 40
0.2140538879
 40
0.2916461393
 40
0.3692383928
 40
0.444862421
 40
0.5167078857
 40
0.5832940928
 40
0.6436736363
 40
0.6976888326
 40
0.7462729741
 40
0.7916475667
 40
0.8370222097
 40
0.8856064233
 40
0.9396216671
 40
1.0
 40
1.0
 40
1.0
 40
1.0
 10
-6.7991136969
 20
0.6351676206
 30
0.0
 10
-6.9186379656
 20
0.7041794353
 30
0.0
 10
-7.1800020884
 20
0.8258972989
 30
0.0
 10
-7.6056232876
 20
0.9552716132
 30
0.0
 10
-8.0664300777
 20
1.034907754
 30
0.0
 10
-8.5451071534
 20
1.0617775235
 30
0.0
 10
-9.0237951511
 20
1.034905598
 30
0.0
 10
-9.4845723921
 20
0.9552868592
 30
0.0
 10
-9.9103006346
 20
0.8258561058
 30
0.0
 10
-10.2853255929
 20
0.6512346107
 30
0.0
 10
-10.5960460519
 20
0.43725761
 30
0.0
 10
-10.8309712522
 20
0.1903005509
 30
0.0
 10
-10.9796188679
 20
-0.0830094217
 30
0.0
 10
-11.0310965991
 20
-0.3729553185
 30
0.0
 10
-10.9796195547
 20
-0.6628981972
 30
0.0
 10
-10.8309531103
 20
-0.9362165634
 30
0.0
 10
-10.596102146
 20
-1.1831311048
 30
0.0
 10
-10.3994988822
 20
-1.3184912397
 30
0.0
 10
-10.291115492
 20
-1.3810704508
 30
0.0
  0
SPLINE
  5
532
100
AcDbEntity
  8
0
100
AcDbSpline
 62
250
  6
CONTINUOUS
 70
0
 71
3
 72
23
 73
19
 74
0
 42
0.0000001
 43
0.0000001
 44
0.0000000001
 40
0.0
 40
0.0
 40
0.0
 40
0.0
 40
0.0665847052
 40
0.1384299958
 40
0.2140538879
 40
0.2916461393
 40
0.3692383928
 40
0.444862421
 40
0.5167078857
 40
0.5832940928
 40
0.6436736363
 40
0.6976888326
 40
0.7462729741
 40
0.7916475667
 40
0.8370222097
 40
0.8856064233
 40
0.9396216671
 40
1.0
 40
1.0
 40
1.0
 40
1.0
 10
3.1439133505
 20
-9.138287724
 30
0.0
 10
3.2634376192
 20
-9.2072995388
 30
0.0
 10
3.524801742
 20
-9.3290174023
 30
0.0
 10
3.9504229412
 20
-9.4583917166
 30
0.0
 10
4.4112297313
 20
-9.5380278575
 30
0.0
 10
4.889906807
 20
-9.5648976269
 30
0.0
 10
5.3685948047
 20
-9.5380257014
 30
0.0
 10
5.8293720457
 20
-9.4584069626
 30
0.0
 10
6.2551002882
 20
-9.3289762092
 30
0.0
 10
6.6301252465
 20
-9.1543547142
 30
0.0
 10
6.9408457055
 20
-8.9403777135
 30
0.0
 10
7.1757709058
 20
-8.6934206544
 30
0.0
 10
7.3244185215
 20
-8.4201106818
 30
0.0
 10
7.3758962527
 20
-8.1301647849
 30
0.0
 10
7.3244192083
 20
-7.8402219063
 30
0.0
 10
7.1757527638
 20
-7.5669035401
 30
0.0
 10
6.9409017996
 20
-7.3199889987
 30
0.0
 10
6.7442985358
 20
-7.1846288638
 30
0.0
 10
6.6359151456
 20
-7.1220496526
 30
0.0
  0
SPLINE
  5
533
100
AcDbEntity
  8
0
100
AcDbSpline
 62
7
  6
CONTINUOUS
 70
0
 71
3
 72
11
 73
7
 74
0
 42
0.0000001
 43
0.0000001
 44
0.0000000001
 40
0.0
 40
0.0
 40
0.0
 40
0.0
 40
0.2180294859
 40
0.4529522528
 40
0.7125981902
 40
1.0
 40
1.0
 40
1.0
 40
1.0
 10
2.5665588672
 20
2.4927183692
 30
0.0
 10
2.6298755699
 20
2.5202699914
 30
0.0
 10
2.7713088147
 20
2.5565022908
 30
0.0
 10
2.9992251308
 20
2.5491437299
 30
0.0
 10
3.2400423535
 20
2.4842418929
 30
0.0
 10
3.3968745144
 20
2.4084079894
 30
0.0
 10
3.4757006857
 20
2.362894746
 30
0.0
  0
SPLINE
  5
534
100
AcDbEntity
  8
0
100
AcDbSpline
 62
7
  6
CONTINUOUS
 70
0
 71
3
 72
11
 73
7
 74
0
 42
0.0000001
 43
0.0000001
 44
0.0000000001
 40
0.0
 40
0.0
 40
0.0
 40
0.0
 40
0.2180294859
 40
0.4529522528
 40
0.7125981902
 40
1.0
 40
1.0
 40
1.0
 40
1.0
 10
16.0015877098
 20
-5.2644989041
 30
0.0
 10
16.0649044124
 20
-5.2369472818
 30
0.0
 10
16.2063376573
 20
-5.2007149824
 30
0.0
 10
16.4342539734
 20
-5.2080735433
 30
0.0
 10
16.675071196
 20
-5.2729753803
 30
0.0
 10
16.831903357
 20
-5.3488092839
 30
0.0
 10
16.9107295282
 20
-5.3943225272
 30
0.0
  0
SPLINE
  5
535
100
AcDbEntity
  8
0
100
AcDbSpline
 62
7
  6
CONTINUOUS
 70
0
 71
3
 72
23
 73
19
 74
0
 42
0.0000001
 43
0.0000001
 44
0.0000000001
 40
0.0
 40
0.0
 40
0.0
 40
0.0
 40
0.0174998399
 40
0.036143006
 40
0.0546567777
 40
0.0731386459
 40
0.1104722996
 40
0.1481786213
 40
0.1858970193
 40
0.2235148753
 40
0.2982815528
 40
0.3718645794
 40
0.4435699474
 40
0.5792359653
 40
0.7030821333
 40
0.8142914945
 40
0.911850615
 40
1.0
 40
1.0
 40
1.0
 40
1.0
 10
3.0346524534
 20
-7.0155539467
 30
0.0
 10
3.0439068253
 20
-7.0196759661
 30
0.0
 10
3.0645371205
 20
-7.0243998824
 30
0.0
 10
3.0957613263
 20
-7.0290123326
 30
0.0
 10
3.1276748618
 20
-7.0335370301
 30
0.0
 10
3.1704153527
 20
-7.0385019423
 30
0.0
 10
3.2244207683
 20
-7.0426861478
 30
0.0
 10
3.2896744081
 20
-7.0448870377
 30
0.0
 10
3.3551288101
 20
-7.0448892925
 30
0.0
 10
3.4419890876
 20
-7.0419322645
 30
0.0
 10
3.5493427387
 20
-7.0326643287
 30
0.0
 10
3.6752843464
 20
-7.0127416971
 30
0.0
 10
3.8337622018
 20
-6.9756448847
 30
0.0
 10
4.0151246359
 20
-6.9107115375
 30
0.0
 10
4.2037417733
 20
-6.8065588984
 30
0.0
 10
4.3548561578
 20
-6.6848724405
 30
0.0
 10
4.4563588998
 20
-6.5423158762
 30
0.0
 10
4.4810891141
 20
-6.4338305374
 30
0.0
 10
4.4810891302
 20
-6.3827998078
 30
0.0
  0
SPLINE
  5
536
100
AcDbEntity
  8
0
100
AcDbSpline
 62
7
  6
CONTINUOUS
 70
0
 71
3
 72
12
 73
8
 74
0
 42
0.0000001
 43
0.0000001
 44
0.0000000001
 40
0.0
 40
0.0
 40
0.0
 40
0.0
 40
0.2693715291
 40
0.5299605641
 40
0.6544730878
 40
0.774552701
 40
1.0
 40
1.0
 40
1.0
 40
1.0
 10
2.8035332492
 20
-7.5419393319
 30
0.0
 10
2.8337933386
 20
-7.5113833119
 30
0.0
 10
2.8934760508
 20
-7.4514335964
 30
0.0
 10
2.9624902693
 20
-7.3726993517
 30
0.0
 10
3.0083436934
 20
-7.3061361613
 30
0.0
 10
3.0444375858
 20
-7.2404681695
 30
0.0
 10
3.0600066757
 20
-7.1853033797
 30
0.0
 10
3.0600066755
 20
-7.1493116995
 30
0.0
  0
SPLINE
  5
537
100
AcDbEntity
  8
0
100
AcDbSpline
 62
7
  6
CONTINUOUS
 70
0
 71
3
 72
10
 73
6
 74
0
 42
0.0000001
 43
0.0000001
 44
0.0000000001
 40
0.0
 40
0.0
 40
0.0
 40
0.0
 40
0.2499099273
 40
0.5003752068
 40
1.0
 40
1.0
 40
1.0
 40
1.0
 10
2.2399018408
 20
-8.1004186989
 30
0.0
 10
2.2864544568
 20
-8.0534953101
 30
0.0
 10
2.3807357121
 20
-7.9606138984
 30
0.0
 10
2.5693805284
 20
-7.7752367284
 30
0.0
 10
2.7105502498
 20
-7.635834625
 30
0.0
 10
2.8035332492
 20
-7.5419393319
 30
0.0
  0
SPLINE
  5
538
100
AcDbEntity
  8
0
100
AcDbSpline
 62
7
  6
CONTINUOUS
 70
0
 71
3
 72
11
 73
7
 74
0
 42
0.0000001
 43
0.0000001
 44
0.0000000001
 40
0.0
 40
0.0
 40
0.0
 40
0.0
 40
0.2894222699
 40
0.5504204456
 40
0.7833071398
 40
1.0
 40
1.0
 40
1.0
 40
1.0
 10
2.1913366932
 20
-6.7943246559
 30
0.0
 10
2.2119428788
 20
-6.8062224092
 30
0.0
 10
2.2494781236
 20
-6.8319501546
 30
0.0
 10
2.2949820439
 20
-6.8782967584
 30
0.0
 10
2.3237192041
 20
-6.9301958237
 30
0.0
 10
2.3300261617
 20
-6.9674612252
 30
0.0
 10
2.3300261633
 20
-6.985276258
 30
0.0
  0
SPLINE
  5
539
100
AcDbEntity
  8
0
100
AcDbSpline
 62
7
  6
CONTINUOUS
 70
0
 71
3
 72
11
 73
7
 74
0
 42
0.0000001
 43
0.0000001
 44
0.0000000001
 40
0.0
 40
0.0
 40
0.0
 40
0.0
 40
0.2794240565
 40
0.5381227995
 40
0.7761930648
 40
1.0
 40
1.0
 40
1.0
 40
1.0
 10
3.5738952507
 20
-6.1419878408
 30
0.0
 10
3.5918461449
 20
-6.155075236
 30
0.0
 10
3.6246693529
 20
-6.1828494518
 30
0.0
 10
3.6642670554
 20
-6.23068842
 30
0.0
 10
3.6904517158
 20
-6.2822861872
 30
0.0
 10
3.6970647649
 20
-6.3191794226
 30
0.0
 10
3.6970647687
 20
-6.3369728542
 30
0.0
  0
SPLINE
  5
53A
100
AcDbEntity
  8
0
100
AcDbSpline
 62
7
  6
CONTINUOUS
 70
0
 71
3
 72
9
 73
5
 74
0
 42
0.0000001
 43
0.0000001
 44
0.0000000001
 40
0.0
 40
0.0
 40
0.0
 40
0.0
 40
0.5184997645
 40
1.0
 40
1.0
 40
1.0
 40
1.0
 10
3.0947756819
 20
-5.8845747589
 30
0.0
 10
3.1819605722
 20
-5.9202390238
 30
0.0
 10
3.348585401
 20
-5.9936108982
 30
0.0
 10
3.5032096189
 20
-6.0904561524
 30
0.0
 10
3.5738952507
 20
-6.1419878408
 30
0.0
  0
SPLINE
  5
53B
100
AcDbEntity
  8
0
100
AcDbSpline
 62
7
  6
CONTINUOUS
 70
0
 71
3
 72
17
 73
13
 74
0
 42
0.0000001
 43
0.0000001
 44
0.0000000001
 40
0.0
 40
0.0
 40
0.0
 40
0.0
 40
0.1279059594
 40
0.2685390767
 40
0.4148851497
 40
0.558870279
 40
0.6928455226
 40
0.8110790624
 40
0.8636540191
 40
0.9120630878
 40
0.9570852549
 40
1.0
 40
1.0
 40
1.0
 40
1.0
 10
4.9028552003
 20
-0.0178858071
 30
0.0
 10
4.9028552003
 20
0.1481014873
 30
0.0
 10
4.8571827157
 20
0.4969917265
 30
0.0
 10
4.6861582278
 20
1.0101376325
 30
0.0
 10
4.4220773496
 20
1.5060657395
 30
0.0
 10
4.0855330639
 20
1.9453126576
 30
0.0
 10
3.7032295188
 20
2.2933740553
 30
0.0
 10
3.356064327
 20
2.493062286
 30
0.0
 10
3.0825627157
 20
2.5755721486
 30
0.0
 10
2.8931716038
 20
2.5976327817
 30
0.0
 10
2.7155938931
 20
2.5811648451
 30
0.0
 10
2.6063671149
 20
2.5436387796
 30
0.0
 10
2.5564379703
 20
2.5189679909
 30
0.0
  0
SPLINE
  5
53C
100
AcDbEntity
  8
0
100
AcDbSpline
 62
7
  6
CONTINUOUS
 70
0
 71
3
 72
9
 73
5
 74
0
 42
0.0000001
 43
0.0000001
 44
0.0000000001
 40
0.0
 40
0.0
 40
0.0
 40
0.0
 40
0.2778154188
 40
1.0
 40
1.0
 40
1.0
 40
1.0
 10
4.9028552003
 20
-0.0178858071
 30
0.0
 10
4.9028552003
 20
-0.0820654964
 30
0.0
 10
4.8911774724
 20
-0.3121731956
 30
0.0
 10
4.8258397807
 20
-0.5450118487
 30
0.0
 10
4.7361282891
 20
-0.6856747851
 30
0.0
  0
SPLINE
  5
53D
100
AcDbEntity
  8
0
100
AcDbSpline
 62
7
  6
CONTINUOUS
 70
0
 71
3
 72
9
 73
5
 74
0
 42
0.0000001
 43
0.0000001
 44
0.0000000001
 40
0.0
 40
0.0
 40
0.0
 40
0.0
 40
0.5099395509
 40
1.0
 40
1.0
 40
1.0
 40
1.0
 10
4.7361282891
 20
-0.6856747851
 30
0.0
 10
4.7049726428
 20
-0.7345252124
 30
0.0
 10
4.6335066044
 20
-0.824306353
 30
0.0
 10
4.542082238
 20
-0.8940647722
 30
0.0
 10
4.4938614155
 20
-0.9219063947
 30
0.0
  0
SPLINE
  5
53E
100
AcDbEntity
  8
0
100
AcDbSpline
 62
7
  6
CONTINUOUS
 70
0
 71
3
 72
17
 73
13
 74
0
 42
0.0000001
 43
0.0000001
 44
0.0000000001
 40
0.0
 40
0.0
 40
0.0
 40
0.0
 40
0.1279059594
 40
0.2685390767
 40
0.4148851497
 40
0.558870279
 40
0.6928455226
 40
0.8110790624
 40
0.8636540191
 40
0.9120630878
 40
0.9570852549
 40
1.0
 40
1.0
 40
1.0
 40
1.0
 10
18.3378840429
 20
-7.7751030803
 30
0.0
 10
18.3378840429
 20
-7.6091157859
 30
0.0
 10
18.2922115583
 20
-7.2602255467
 30
0.0
 10
18.1211870703
 20
-6.7470796407
 30
0.0
 10
17.8571061922
 20
-6.2511515337
 30
0.0
 10
17.5205619064
 20
-5.8119046156
 30
0.0
 10
17.1382583613
 20
-5.4638432179
 30
0.0
 10
16.7910931696
 20
-5.2641549872
 30
0.0
 10
16.5175915583
 20
-5.1816451246
 30
0.0
 10
16.3282004464
 20
-5.1595844916
 30
0.0
 10
16.1506227356
 20
-5.1760524282
 30
0.0
 10
16.0413959574
 20
-5.2135784937
 30
0.0
 10
15.9914668128
 20
-5.2382492824
 30
0.0
  0
SPLINE
  5
53F
100
AcDbEntity
  8
0
100
AcDbSpline
 62
7
  6
CONTINUOUS
 70
0
 71
3
 72
9
 73
5
 74
0
 42
0.0000001
 43
0.0000001
 44
0.0000000001
 40
0.0
 40
0.0
 40
0.0
 40
0.0
 40
0.2778154188
 40
1.0
 40
1.0
 40
1.0
 40
1.0
 10
18.3378840429
 20
-7.7751030803
 30
0.0
 10
18.3378840429
 20
-7.8392827696
 30
0.0
 10
18.326206315
 20
-8.0693904688
 30
0.0
 10
18.2608686233
 20
-8.3022291219
 30
0.0
 10
18.1711571317
 20
-8.4428920583
 30
0.0
  0
SPLINE
  5
540
100
AcDbEntity
  8
0
100
AcDbSpline
 62
7
  6
CONTINUOUS
 70
0
 71
3
 72
9
 73
5
 74
0
 42
0.0000001
 43
0.0000001
 44
0.0000000001
 40
0.0
 40
0.0
 40
0.0
 40
0.0
 40
0.5099395509
 40
1.0
 40
1.0
 40
1.0
 40
1.0
 10
18.1711571317
 20
-8.4428920583
 30
0.0
 10
18.1400014854
 20
-8.4917424856
 30
0.0
 10
18.068535447
 20
-8.5815236263
 30
0.0
 10
17.9771110805
 20
-8.6512820454
 30
0.0
 10
17.9288902581
 20
-8.6791236679
 30
0.0
  0
SPLINE
  5
541
100
AcDbEntity
  8
0
100
AcDbSpline
 62
250
  6
CONTINUOUS
 70
0
 71
3
 72
11
 73
7
 74
0
 42
0.0000001
 43
0.0000001
 44
0.0000000001
 40
0.0
 40
0.0
 40
0.0
 40
0.0
 40
0.2895673901
 40
0.5491122822
 40
0.7822469675
 40
1.0
 40
1.0
 40
1.0
 40
1.0
 10
-6.7991136969
 20
0.6351676206
 30
0.0
 10
-6.7771837833
 20
0.6478296779
 30
0.0
 10
-6.7335281191
 20
0.6685781178
 30
0.0
 10
-6.6664509285
 20
0.6848098313
 30
0.0
 10
-6.6034828169
 20
0.6832343867
 30
0.0
 10
-6.5656048577
 20
0.6694390965
 30
0.0
 10
-6.5491120302
 20
0.6599201718
 30
0.0
  0
SPLINE
  5
542
100
AcDbEntity
  8
0
100
AcDbSpline
 62
250
  6
CONTINUOUS
 70
0
 71
3
 72
11
 73
7
 74
0
 42
0.0000001
 43
0.0000001
 44
0.0000000001
 40
0.0
 40
0.0
 40
0.0
 40
0.0
 40
0.2362335058
 40
0.497845385
 40
0.7606244278
 40
1.0
 40
1.0
 40
1.0
 40
1.0
 10
-10.291115492
 20
-1.3810704508
 30
0.0
 10
-10.3401263343
 20
-1.4093686969
 30
0.0
 10
-10.433117267
 20
-1.4870151441
 30
0.0
 10
-10.5425994416
 20
-1.6343023498
 30
0.0
 10
-10.6190163658
 20
-1.8019869932
 30
0.0
 10
-10.6427496812
 20
-1.9217501539
 30
0.0
 10
-10.6444535074
 20
-1.9790713301
 30
0.0
  0
SPLINE
  5
543
100
AcDbEntity
  8
0
100
AcDbSpline
 62
7
  6
CONTINUOUS
 70
0
 71
3
 72
11
 73
7
 74
0
 42
0.0000001
 43
0.0000001
 44
0.0000000001
 40
0.0
 40
0.0
 40
0.0
 40
0.0
 40
0.2894612782
 40
0.5480543201
 40
0.7810257417
 40
1.0
 40
1.0
 40
1.0
 40
1.0
 10
7.0283213485
 20
-9.713302141
 30
0.0
 10
7.1569707194
 20
-9.6361698174
 30
0.0
 10
7.3895191947
 20
-9.4696984863
 30
0.0
 10
7.6635737142
 20
-9.1666715701
 30
0.0
 10
7.8309949851
 20
-8.8327000078
 30
0.0
 10
7.8627798283
 20
-8.5951933733
 30
0.0
 10
7.8579206285
 20
-8.4818239786
 30
0.0
  0
SPLINE
  5
544
100
AcDbEntity
  8
0
100
AcDbSpline
 62
250
  6
CONTINUOUS
 70
0
 71
3
 72
11
 73
7
 74
0
 42
0.0000001
 43
0.0000001
 44
0.0000000001
 40
0.0
 40
0.0
 40
0.0
 40
0.0
 40
0.2359305913
 40
0.4971961914
 40
0.7599718339
 40
1.0
 40
1.0
 40
1.0
 40
1.0
 10
3.1439133505
 20
-9.138287724
 30
0.0
 10
3.0952615198
 20
-9.1663786813
 30
0.0
 10
3.0028803691
 20
-9.2433329311
 30
0.0
 10
2.8938226627
 20
-9.3893379789
 30
0.0
 10
2.8172352459
 20
-9.5557831061
 30
0.0
 10
2.7929325842
 20
-9.6747863446
 30
0.0
 10
2.7907254621
 20
-9.7318986173
 30
0.0
  0
SPLINE
  5
545
100
AcDbEntity
  8
0
100
AcDbSpline
 62
250
  6
CONTINUOUS
 70
0
 71
3
 72
11
 73
7
 74
0
 42
0.0000001
 43
0.0000001
 44
0.0000000001
 40
0.0
 40
0.0
 40
0.0
 40
0.0
 40
0.2895673902
 40
0.5491122824
 40
0.7822469677
 40
1.0
 40
1.0
 40
1.0
 40
1.0
 10
6.6359151456
 20
-7.1220496526
 30
0.0
 10
6.6578450593
 20
-7.1093875953
 30
0.0
 10
6.7015007235
 20
-7.0886391555
 30
0.0
 10
6.7685779141
 20
-7.0724074419
 30
0.0
 10
6.8315460256
 20
-7.0739828865
 30
0.0
 10
6.8694239848
 20
-7.0877781767
 30
0.0
 10
6.8859168124
 20
-7.0972971014
 30
0.0
  0
SPLINE
  5
546
100
AcDbEntity
  8
0
100
AcDbSpline
 62
7
  6
CONTINUOUS
 70
0
 71
3
 72
11
 73
7
 74
0
 42
0.0000001
 43
0.0000001
 44
0.0000000001
 40
0.0
 40
0.0
 40
0.0
 40
0.0
 40
0.2874003808
 40
0.5470440995
 40
0.7819663647
 40
1.0
 40
1.0
 40
1.0
 40
1.0
 10
18.2895877516
 20
-7.782575024
 30
0.0
 10
18.2895877516
 20
-7.8735923598
 30
0.0
 10
18.2768404131
 20
-8.0473203375
 30
0.0
 10
18.2126283276
 20
-8.288309245
 30
0.0
 10
18.1050309563
 20
-8.4893523826
 30
0.0
 10
18.0029287996
 20
-8.5937061382
 30
0.0
 10
17.9474070865
 20
-8.6347569246
 30
0.0
  0
SPLINE
  5
547
100
AcDbEntity
  8
0
100
AcDbSpline
 62
7
  6
CONTINUOUS
 70
0
 71
3
 72
13
 73
9
 74
0
 42
0.0000001
 43
0.0000001
 44
0.0000000001
 40
0.0
 40
0.0
 40
0.0
 40
0.0
 40
0.1142582662
 40
0.2375415353
 40
0.5000060652
 40
0.7624672751
 40
0.8857466677
 40
1.0
 40
1.0
 40
1.0
 40
1.0
 10
16.9107295282
 20
-5.3943225272
 30
0.0
 10
17.005122878
 20
-5.4488240643
 30
0.0
 10
17.1915904309
 20
-5.5795230298
 30
0.0
 10
17.5406522593
 20
-5.9062697919
 30
0.0
 10
17.9094051701
 20
-6.409922655
 30
0.0
 10
18.1612044556
 20
-6.9810950767
 30
0.0
 10
18.2696379522
 20
-7.4467546467
 30
0.0
 10
18.2895877516
 20
-7.6735819233
 30
0.0
 10
18.2895877516
 20
-7.782575024
 30
0.0
  0
SPLINE
  5
548
100
AcDbEntity
  8
0
100
AcDbSpline
 62
7
  6
CONTINUOUS
 70
0
 71
3
 72
11
 73
7
 74
0
 42
0.0000001
 43
0.0000001
 44
0.0000000001
 40
0.0
 40
0.0
 40
0.0
 40
0.0
 40
0.2874003808
 40
0.5470440995
 40
0.7819663647
 40
1.0
 40
1.0
 40
1.0
 40
1.0
 10
4.854558909
 20
-0.0253577508
 30
0.0
 10
4.854558909
 20
-0.1163750865
 30
0.0
 10
4.8418115706
 20
-0.2901030643
 30
0.0
 10
4.7775994851
 20
-0.5310919718
 30
0.0
 10
4.6700021137
 20
-0.7321351093
 30
0.0
 10
4.5678999571
 20
-0.836488865
 30
0.0
 10
4.512378244
 20
-0.8775396514
 30
0.0
  0
SPLINE
  5
549
100
AcDbEntity
  8
0
100
AcDbSpline
 62
7
  6
CONTINUOUS
 70
0
 71
3
 72
13
 73
9
 74
0
 42
0.0000001
 43
0.0000001
 44
0.0000000001
 40
0.0
 40
0.0
 40
0.0
 40
0.0
 40
0.1142582662
 40
0.2375415353
 40
0.5000060652
 40
0.7624672751
 40
0.8857466677
 40
1.0
 40
1.0
 40
1.0
 40
1.0
 10
3.4757006857
 20
2.362894746
 30
0.0
 10
3.5700940354
 20
2.3083932089
 30
0.0
 10
3.7565615884
 20
2.1776942434
 30
0.0
 10
4.1056234168
 20
1.8509474813
 30
0.0
 10
4.4743763276
 20
1.3472946182
 30
0.0
 10
4.726175613
 20
0.7761221965
 30
0.0
 10
4.8346091097
 20
0.3104626265
 30
0.0
 10
4.854558909
 20
0.0836353499
 30
0.0
 10
4.854558909
 20
-0.0253577508
 30
0.0
  0
LINE
  5
54A
100
AcDbEntity
  8
0
100
AcDbLine
 62
7
  6
CONTINUOUS
 10
11.8398750723
 20
-8.1111725813
 11
11.8490730105
 21
-8.1050109433
  0
SPLINE
  5
54B
100
AcDbEntity
  8
0
100
AcDbSpline
 62
7
  6
CONTINUOUS
 70
0
 71
3
 72
11
 73
7
 74
0
 42
0.0000001
 43
0.0000001
 44
0.0000000001
 40
0.0
 40
0.0
 40
0.0
 40
0.0
 40
0.2506944764
 40
0.5005419813
 40
0.7496174328
 40
1.0
 40
1.0
 40
1.0
 40
1.0
 10
14.032292001
 20
-8.4220626011
 30
0.0
 10
14.032292001
 20
-8.3565133194
 30
0.0
 10
14.0126129892
 20
-8.2248409704
 30
0.0
 10
13.9282467371
 20
-8.0451567158
 30
0.0
 10
13.7994826148
 20
-7.8947329505
 30
0.0
 10
13.6925532728
 20
-7.8176550222
 30
0.0
 10
13.6358574717
 20
-7.7849195772
 30
0.0
  0
SPLINE
  5
54C
100
AcDbEntity
  8
0
100
AcDbSpline
 62
7
  6
CONTINUOUS
 70
0
 71
3
 72
9
 73
5
 74
0
 42
0.0000001
 43
0.0000001
 44
0.0000000001
 40
0.0
 40
0.0
 40
0.0
 40
0.0
 40
0.2480232712
 40
1.0
 40
1.0
 40
1.0
 40
1.0
 10
-8.7401224487
 20
4.5103155508
 30
0.0
 10
-8.7302521264
 20
4.5150781447
 30
0.0
 10
-8.6901513221
 20
4.5336442127
 30
0.0
 10
-8.648900257
 20
4.5497079906
 30
0.0
 10
-8.617447961
 20
4.5604224108
 30
0.0
  0
SPLINE
  5
54D
100
AcDbEntity
  8
0
100
AcDbSpline
 62
7
  6
CONTINUOUS
 70
0
 71
3
 72
9
 73
5
 74
0
 42
0.0000001
 43
0.0000001
 44
0.0000000001
 40
0.0
 40
0.0
 40
0.0
 40
0.0
 40
0.2538720621
 40
1.0
 40
1.0
 40
1.0
 40
1.0
 10
-8.5571548036
 20
4.5791659293
 30
0.0
 10
-8.4775531774
 20
4.6016119826
 30
0.0
 10
-8.156591852
 20
4.6579392707
 30
0.0
 10
-7.8091482802
 20
4.5971579749
 30
0.0
 10
-7.5986455025
 20
4.4756163093
 30
0.0
  0
SPLINE
  5
54E
100
AcDbEntity
  8
0
100
AcDbSpline
 62
250
  6
CONTINUOUS
 70
0
 71
3
 72
10
 73
6
 74
0
 42
0.0000001
 43
0.0000001
 44
0.0000000001
 40
0.0
 40
0.0
 40
0.0
 40
0.0
 40
0.2693152348
 40
0.5257815932
 40
1.0
 40
1.0
 40
1.0
 40
1.0
 10
10.1861440392
 20
-31.2405969971
 30
0.0
 10
10.1861440392
 20
-32.7058050396
 30
0.0
 10
10.0766948333
 20
-35.56879611
 30
0.0
 10
9.4038196343
 20
-40.9699752714
 30
0.0
 10
8.3628515359
 20
-44.8467499517
 30
0.0
 10
7.395240127
 20
-47.2384101392
 30
0.0
  0
SPLINE
  5
54F
100
AcDbEntity
  8
0
100
AcDbSpline
 62
250
  6
CONTINUOUS
 70
0
 71
3
 72
9
 73
5
 74
0
 42
0.0000001
 43
0.0000001
 44
0.0000000001
 40
0.0
 40
0.0
 40
0.0
 40
0.0
 40
0.5194974581
 40
1.0
 40
1.0
 40
1.0
 40
1.0
 10
11.1870457052
 20
-44.7725021298
 30
0.0
 10
11.1210369947
 20
-44.9298739157
 30
0.0
 10
10.9634386448
 20
-45.2216007828
 30
0.0
 10
10.7374924059
 20
-45.4662813403
 30
0.0
 10
10.6147580983
 20
-45.5655350542
 30
0.0
  0
SPLINE
  5
550
100
AcDbEntity
  8
0
100
AcDbSpline
 62
7
  6
CONTINUOUS
 70
0
 71
3
 72
10
 73
6
 74
0
 42
0.0000001
 43
0.0000001
 44
0.0000000001
 40
0.0
 40
0.0
 40
0.0
 40
0.0
 40
0.5185136175
 40
0.7618512921
 40
1.0
 40
1.0
 40
1.0
 40
1.0
 10
6.8719811089
 20
-47.5405333382
 30
0.0
 10
6.7886244081
 20
-47.7465673936
 30
0.0
 10
6.6245229867
 20
-48.0369541991
 30
0.0
 10
6.3236189839
 20
-48.3446898073
 30
0.0
 10
6.1540215223
 20
-48.4647631766
 30
0.0
 10
6.0656175403
 20
-48.515804736
 30
0.0
  0
SPLINE
  5
551
100
AcDbEntity
  8
0
100
AcDbSpline
 62
250
  6
CONTINUOUS
 70
0
 71
3
 72
10
 73
6
 74
0
 42
0.0000001
 43
0.0000001
 44
0.0000000001
 40
0.0
 40
0.0
 40
0.0
 40
0.0
 40
0.5185141724
 40
0.7618724379
 40
1.0
 40
1.0
 40
1.0
 40
1.0
 10
7.395240127
 20
-47.2384101392
 30
0.0
 10
7.3118894274
 20
-47.4444293614
 30
0.0
 10
7.147806668
 20
-47.7348120334
 30
0.0
 10
6.8469188596
 20
-48.0425149076
 30
0.0
 10
6.6773535242
 20
-48.1626093264
 30
0.0
 10
6.5889587337
 20
-48.2136337617
 30
0.0
  0
SPLINE
  5
552
100
AcDbEntity
  8
0
100
AcDbSpline
 62
250
  6
CONTINUOUS
 70
0
 71
3
 72
11
 73
7
 74
0
 42
0.0000001
 43
0.0000001
 44
0.0000000001
 40
0.0
 40
0.0
 40
0.0
 40
0.0
 40
0.234751853
 40
0.4946558742
 40
0.7574377408
 40
1.0
 40
1.0
 40
1.0
 40
1.0
 10
-7.8486575826
 20
4.4508457205
 30
0.0
 10
-7.8958262108
 20
4.4780802952
 30
0.0
 10
-8.0049306932
 20
4.5188378649
 30
0.0
 10
-8.1804143392
 20
4.541367655
 30
0.0
 10
-8.3586183898
 20
4.5275480593
 30
0.0
 10
-8.4721496757
 20
4.4926893486
 30
0.0
 10
-8.5228363249
 20
4.4682322015
 30
0.0
  0
SPLINE
  5
553
100
AcDbEntity
  8
0
100
AcDbSpline
 62
250
  6
CONTINUOUS
 70
0
 71
3
 72
15
 73
11
 74
0
 42
0.0000001
 43
0.0000001
 44
0.0000000001
 40
0.0
 40
0.0
 40
0.0
 40
0.0
 40
0.1397884508
 40
0.2657554476
 40
0.3805277219
 40
0.489882732
 40
0.6010059686
 40
0.7205538823
 40
0.8530969556
 40
1.0
 40
1.0
 40
1.0
 40
1.0
 10
13.41595772
 20
-8.1989525224
 30
0.0
 10
13.4347149691
 20
-8.1859929212
 30
0.0
 10
13.4684498735
 20
-8.1582904612
 30
0.0
 10
13.507331273
 20
-8.1091827734
 30
0.0
 10
13.5299853636
 20
-8.0558653382
 30
0.0
 10
13.534722671
 20
-8.0004131135
 30
0.0
 10
13.5212096244
 20
-7.9456794562
 30
0.0
 10
13.4905109063
 20
-7.8941784922
 30
0.0
 10
13.4444436131
 20
-7.8475341639
 30
0.0
 10
13.4065943016
 20
-7.8216703266
 30
0.0
 10
13.3858453916
 20
-7.809690166
 30
0.0
  0
SPLINE
  5
554
100
AcDbEntity
  8
0
100
AcDbSpline
 62
250
  6
CONTINUOUS
 70
0
 71
3
 72
9
 73
5
 74
0
 42
0.0000001
 43
0.0000001
 44
0.0000000001
 40
0.0
 40
0.0
 40
0.0
 40
0.0
 40
0.2543738053
 40
1.0
 40
1.0
 40
1.0
 40
1.0
 10
9.8325906486
 20
-10.4614087253
 30
0.0
 10
10.1438228307
 20
-10.281707164
 30
0.0
 10
11.3605149527
 20
-9.5635261119
 30
0.0
 10
12.5492620396
 20
-8.7977626295
 30
0.0
 10
13.41595772
 20
-8.1989525224
 30
0.0
  0
SPLINE
  5
555
100
AcDbEntity
  8
0
100
AcDbSpline
 62
250
  6
CONTINUOUS
 70
0
 71
3
 72
9
 73
5
 74
0
 42
0.0000001
 43
0.0000001
 44
0.0000000001
 40
0.0
 40
0.0
 40
0.0
 40
0.0
 40
0.2543738066
 40
1.0
 40
1.0
 40
1.0
 40
1.0
 10
10.1861440392
 20
-11.0737811603
 30
0.0
 10
10.4999916194
 20
-10.8925695009
 30
0.0
 10
11.7269080447
 20
-10.1683533136
 30
0.0
 10
12.9256446031
 20
-9.3961548442
 30
0.0
 10
13.7996234389
 20
-8.7923127204
 30
0.0
  0
SPLINE
  5
556
100
AcDbEntity
  8
0
100
AcDbSpline
 62
250
  6
CONTINUOUS
 70
0
 71
3
 72
11
 73
7
 74
0
 42
0.0000001
 43
0.0000001
 44
0.0000000001
 40
0.0
 40
0.0
 40
0.0
 40
0.0
 40
0.2177804605
 40
0.4509076931
 40
0.7102935849
 40
1.0
 40
1.0
 40
1.0
 40
1.0
 10
13.6358574717
 20
-7.7849195772
 30
0.0
 10
13.619364035
 20
-7.7753964613
 30
0.0
 10
13.5814664879
 20
-7.7616432092
 30
0.0
 10
13.5185194265
 20
-7.7600521243
 30
0.0
 10
13.4514327821
 20
-7.7762554848
 30
0.0
 10
13.4077860926
 20
-7.7970218803
 30
0.0
 10
13.3858453916
 20
-7.809690166
 30
0.0
  0
SPLINE
  5
557
100
AcDbEntity
  8
0
100
AcDbSpline
 62
250
  6
CONTINUOUS
 70
0
 71
3
 72
11
 73
7
 74
0
 42
0.0000001
 43
0.0000001
 44
0.0000000001
 40
0.0
 40
0.0
 40
0.0
 40
0.0
 40
0.2177804616
 40
0.4509076946
 40
0.7102935855
 40
1.0
 40
1.0
 40
1.0
 40
1.0
 10
-7.5986455025
 20
4.4756163093
 30
0.0
 10
-7.6151389393
 20
4.4851394252
 30
0.0
 10
-7.6530364866
 20
4.4988926773
 30
0.0
 10
-7.715983548
 20
4.5004837622
 30
0.0
 10
-7.7830701924
 20
4.4842804017
 30
0.0
 10
-7.8267168817
 20
4.4635140062
 30
0.0
 10
-7.8486575826
 20
4.4508457205
 30
0.0
  0
SPLINE
  5
558
100
AcDbEntity
  8
0
100
AcDbSpline
 62
250
  6
CONTINUOUS
 70
0
 71
3
 72
11
 73
7
 74
0
 42
0.0000001
 43
0.0000001
 44
0.0000000001
 40
0.0
 40
0.0
 40
0.0
 40
0.0
 40
0.212903269
 40
0.4435610865
 40
0.7043869687
 40
1.0
 40
1.0
 40
1.0
 40
1.0
 10
-8.7401215749
 20
4.5103137395
 30
0.0
 10
-8.7253440666
 20
4.5174384496
 30
0.0
 10
-8.6915611783
 20
4.5266215515
 30
0.0
 10
-8.6366457732
 20
4.5228328774
 30
0.0
 10
-8.5787859872
 20
4.5029943
 30
0.0
 10
-8.5415769615
 20
4.4811803249
 30
0.0
 10
-8.5228363249
 20
4.4682322015
 30
0.0
  0
SPLINE
  5
559
100
AcDbEntity
  8
0
100
AcDbSpline
 62
250
  6
CONTINUOUS
 70
0
 71
3
 72
11
 73
7
 74
0
 42
0.0000001
 43
0.0000001
 44
0.0000000001
 40
0.0
 40
0.0
 40
0.0
 40
0.0
 40
0.2177804605
 40
0.4509076931
 40
0.7102935849
 40
1.0
 40
1.0
 40
1.0
 40
1.0
 10
-12.6912850389
 20
2.4240115534
 30
0.0
 10
-12.6747916021
 20
2.4335346693
 30
0.0
 10
-12.6368940551
 20
2.4472879214
 30
0.0
 10
-12.5739469937
 20
2.4488790063
 30
0.0
 10
-12.5068603492
 20
2.4326756458
 30
0.0
 10
-12.4632136598
 20
2.4119092503
 30
0.0
 10
-12.4412729588
 20
2.3992409646
 30
0.0
  0
SPLINE
  5
55A
100
AcDbEntity
  8
0
100
AcDbSpline
 62
250
  6
CONTINUOUS
 70
0
 71
3
 72
11
 73
7
 74
0
 42
0.0000001
 43
0.0000001
 44
0.0000000001
 40
0.0
 40
0.0
 40
0.0
 40
0.0
 40
0.2843134112
 40
0.5418726594
 40
0.7772143972
 40
1.0
 40
1.0
 40
1.0
 40
1.0
 10
13.7996234389
 20
-28.9591285572
 30
0.0
 10
13.8350112037
 20
-28.9346787397
 30
0.0
 10
13.8990192244
 20
-28.8826493005
 30
0.0
 10
13.97438019
 20
-28.7911673249
 30
0.0
 10
14.0214508298
 20
-28.692279863
 30
0.0
 10
14.0322795326
 20
-28.6225827827
 30
0.0
 10
14.0322879492
 20
-28.5888784375
 30
0.0
  0
SPLINE
  5
55B
100
AcDbEntity
  8
0
100
AcDbSpline
 62
250
  6
CONTINUOUS
 70
0
 71
3
 72
11
 73
7
 74
0
 42
0.0000001
 43
0.0000001
 44
0.0000000001
 40
0.0
 40
0.0
 40
0.0
 40
0.0
 40
0.2300817295
 40
0.4690995402
 40
0.7244389936
 40
1.0
 40
1.0
 40
1.0
 40
1.0
 10
13.8778269945
 20
-32.7028864025
 30
0.0
 10
13.8752115742
 20
-32.7368387277
 30
0.0
 10
13.8606733872
 20
-32.8056627859
 30
0.0
 10
13.8124776633
 20
-32.9025469332
 30
0.0
 10
13.7397244868
 20
-32.9913025853
 30
0.0
 10
13.6788469724
 20
-33.041732804
 30
0.0
 10
13.6454814316
 20
-33.0651864998
 30
0.0
  0
SPLINE
  5
55C
100
AcDbEntity
  8
0
100
AcDbSpline
 62
250
  6
CONTINUOUS
 70
0
 71
3
 72
11
 73
7
 74
0
 42
0.0000001
 43
0.0000001
 44
0.0000000001
 40
0.0
 40
0.0
 40
0.0
 40
0.0
 40
0.2843134112
 40
0.5418726593
 40
0.7772143972
 40
1.0
 40
1.0
 40
1.0
 40
1.0
 10
13.7996234389
 20
-8.7923127204
 30
0.0
 10
13.8350112037
 20
-8.7678629029
 30
0.0
 10
13.8990192244
 20
-8.7158334638
 30
0.0
 10
13.97438019
 20
-8.6243514881
 30
0.0
 10
14.0214508298
 20
-8.5254640262
 30
0.0
 10
14.0322795326
 20
-8.4557669459
 30
0.0
 10
14.0322879492
 20
-8.4220626007
 30
0.0
  0
SPLINE
  5
55D
100
AcDbEntity
  8
0
100
AcDbSpline
 62
7
  6
CONTINUOUS
 70
0
 71
3
 72
11
 73
7
 74
0
 42
0.0000001
 43
0.0000001
 44
0.0000000001
 40
0.0
 40
0.0
 40
0.0
 40
0.0
 40
0.2897386204
 40
0.5490092271
 40
0.7821526144
 40
1.0
 40
1.0
 40
1.0
 40
1.0
 10
-13.035242655
 20
2.0562903062
 30
0.0
 10
-13.0571698345
 20
2.0689507848
 30
0.0
 10
-13.1007728099
 20
2.0897131756
 30
0.0
 10
-13.1678011939
 20
2.1059015575
 30
0.0
 10
-13.2307009836
 20
2.1043756603
 30
0.0
 10
-13.2685837902
 20
2.0906502411
 30
0.0
 10
-13.285083141
 20
2.0811534105
 30
0.0
  0
SPLINE
  5
55E
100
AcDbEntity
  8
0
100
AcDbSpline
 62
250
  6
CONTINUOUS
 70
0
 71
3
 72
11
 73
7
 74
0
 42
0.0000001
 43
0.0000001
 44
0.0000000001
 40
0.0
 40
0.0
 40
0.0
 40
0.0
 40
0.2345161954
 40
0.4944584174
 40
0.7574395255
 40
1.0
 40
1.0
 40
1.0
 40
1.0
 10
13.7996234376
 20
-8.7923127213
 30
0.0
 10
13.7996234376
 20
-8.7347073418
 30
0.0
 10
13.7760682976
 20
-8.6131173354
 30
0.0
 10
13.6932323349
 20
-8.4446543439
 30
0.0
 10
13.5721101028
 20
-8.2986600203
 30
0.0
 10
13.469618874
 20
-8.2248449173
 30
0.0
 10
13.41595772
 20
-8.1989525224
 30
0.0
  0
SPLINE
  5
55F
100
AcDbEntity
  8
0
100
AcDbSpline
 62
250
  6
CONTINUOUS
 70
0
 71
3
 72
11
 73
7
 74
0
 42
0.0000001
 43
0.0000001
 44
0.0000000001
 40
0.0
 40
0.0
 40
0.0
 40
0.0
 40
0.2372324595
 40
0.4999938932
 40
0.7627586504
 40
1.0
 40
1.0
 40
1.0
 40
1.0
 10
10.1861440392
 20
-11.0737811603
 30
0.0
 10
10.1861440392
 20
-11.0158233891
 30
0.0
 10
10.1644042533
 20
-10.8935922433
 30
0.0
 10
10.0886348011
 20
-10.7218343562
 30
0.0
 10
9.9777713069
 20
-10.5703355549
 30
0.0
 10
9.8827846232
 20
-10.4903900971
 30
0.0
 10
9.8325906486
 20
-10.4614087253
 30
0.0
  0
SPLINE
  5
560
100
AcDbEntity
  8
0
100
AcDbSpline
 62
250
  6
CONTINUOUS
 70
0
 71
3
 72
11
 73
7
 74
0
 42
0.0000001
 43
0.0000001
 44
0.0000000001
 40
0.0
 40
0.0
 40
0.0
 40
0.0
 40
0.2619596294
 40
0.5152805234
 40
0.7609343632
 40
1.0
 40
1.0
 40
1.0
 40
1.0
 10
13.6454814316
 20
-33.0651864998
 30
0.0
 10
13.5919604369
 20
-33.8175449257
 30
0.0
 10
13.4595281428
 20
-35.2957143729
 30
0.0
 10
13.1714417345
 20
-37.4684237236
 30
0.0
 10
12.7862622833
 20
-39.5592590088
 30
0.0
 10
12.4547837071
 20
-40.915999243
 30
0.0
 10
12.2705718481
 20
-41.5792333212
 30
0.0
  0
SPLINE
  5
561
100
AcDbEntity
  8
0
100
AcDbSpline
 62
250
  6
CONTINUOUS
 70
0
 71
3
 72
13
 73
9
 74
0
 42
0.0000001
 43
0.0000001
 44
0.0000000001
 40
0.0
 40
0.0
 40
0.0
 40
0.0
 40
0.2528719996
 40
0.5036026556
 40
0.6281513652
 40
0.7521871211
 40
0.8755542757
 40
1.0
 40
1.0
 40
1.0
 40
1.0
 10
12.2705718481
 20
-41.5792333212
 30
0.0
 10
12.1944637781
 20
-41.8532514476
 30
0.0
 10
12.035358043
 20
-42.3969064286
 30
0.0
 10
11.8181638853
 20
-43.0692338821
 30
0.0
 10
11.6345810677
 20
-43.5999481974
 30
0.0
 10
11.4919168393
 20
-43.9931971185
 30
0.0
 10
11.3449154898
 20
-44.3847114922
 30
0.0
 10
11.2415594736
 20
-44.6435980171
 30
0.0
 10
11.1870456593
 20
-44.7725021644
 30
0.0
  0
SPLINE
  5
562
100
AcDbEntity
  8
0
100
AcDbSpline
 62
250
  6
CONTINUOUS
 70
0
 71
3
 72
9
 73
5
 74
0
 42
0.0000001
 43
0.0000001
 44
0.0000000001
 40
0.0
 40
0.0
 40
0.0
 40
0.0
 40
0.508717745
 40
1.0
 40
1.0
 40
1.0
 40
1.0
 10
11.1870196623
 20
-44.772563768
 30
0.0
 10
11.2302592192
 20
-44.7417331524
 30
0.0
 10
11.3082282549
 20
-44.6702639972
 30
0.0
 10
11.3634363945
 20
-44.5797273194
 30
0.0
 10
11.3834325538
 20
-44.5325008674
 30
0.0
  0
SPLINE
  5
563
100
AcDbEntity
  8
0
100
AcDbSpline
 62
250
  6
CONTINUOUS
 70
0
 71
3
 72
9
 73
5
 74
0
 42
0.0000001
 43
0.0000001
 44
0.0000000001
 40
0.0
 40
0.0
 40
0.0
 40
0.0
 40
0.5133005245
 40
1.0
 40
1.0
 40
1.0
 40
1.0
 10
12.2705718493
 20
-41.5792333221
 30
0.0
 10
12.3237146697
 20
-41.5400253099
 30
0.0
 10
12.4173732969
 20
-41.4483483642
 30
0.0
 10
12.4750328135
 20
-41.3298891519
 30
0.0
 10
12.491791727
 20
-41.2695548285
 30
0.0
  0
SPLINE
  5
564
100
AcDbEntity
  8
0
100
AcDbSpline
 62
7
  6
CONTINUOUS
 70
0
 71
3
 72
10
 73
6
 74
0
 42
0.0000001
 43
0.0000001
 44
0.0000000001
 40
0.0
 40
0.0
 40
0.0
 40
0.0
 40
0.2693152348
 40
0.5257815932
 40
1.0
 40
1.0
 40
1.0
 40
1.0
 10
9.6628850211
 20
-31.5427201962
 30
0.0
 10
9.6628850211
 20
-33.0079282387
 30
0.0
 10
9.5534358152
 20
-35.8709193091
 30
0.0
 10
8.8805606162
 20
-41.2720984704
 30
0.0
 10
7.8395925178
 20
-45.1488731508
 30
0.0
 10
6.8719811089
 20
-47.5405333382
 30
0.0
  0
SPLINE
  5
565
100
AcDbEntity
  8
0
100
AcDbSpline
 62
7
  6
CONTINUOUS
 70
0
 71
3
 72
9
 73
5
 74
0
 42
0.0000001
 43
0.0000001
 44
0.0000000001
 40
0.0
 40
0.0
 40
0.0
 40
0.0
 40
0.2571841181
 40
1.0
 40
1.0
 40
1.0
 40
1.0
 10
9.592174343
 20
-11.090135817
 30
0.0
 10
9.5988359159
 20
-11.1042379577
 30
0.0
 10
9.623205463
 20
-11.1597689826
 30
0.0
 10
9.6415051552
 20
-11.2180619213
 30
0.0
 10
9.6506110352
 20
-11.262178437
 30
0.0
  0
SPLINE
  5
566
100
AcDbEntity
  8
0
100
AcDbSpline
 62
7
  6
CONTINUOUS
 70
0
 71
3
 72
9
 73
5
 74
0
 42
0.0000001
 43
0.0000001
 44
0.0000000001
 40
0.0
 40
0.0
 40
0.0
 40
0.0
 40
0.2605332111
 40
1.0
 40
1.0
 40
1.0
 40
1.0
 10
9.6506110352
 20
-11.262178437
 30
0.0
 10
9.6526209761
 20
-11.2719162755
 30
0.0
 10
9.6594845484
 20
-11.3094565641
 30
0.0
 10
9.6628850211
 20
-11.3476830175
 30
0.0
 10
9.6628850211
 20
-11.3759043594
 30
0.0
  0
SPLINE
  5
567
100
AcDbEntity
  8
0
100
AcDbSpline
 62
7
  6
CONTINUOUS
 70
0
 71
3
 72
12
 73
8
 74
0
 42
0.0000001
 43
0.0000001
 44
0.0000000001
 40
0.0
 40
0.0
 40
0.0
 40
0.0
 40
0.0873536083
 40
0.1806581548
 40
0.3976948264
 40
0.6704143512
 40
1.0
 40
1.0
 40
1.0
 40
1.0
 10
-7.9238667313
 20
-28.6789483072
 30
0.0
 10
-7.8906969679
 20
-28.6597965015
 30
0.0
 10
-7.8185089768
 20
-28.6260858175
 30
0.0
 10
-7.6495179813
 20
-28.5801231609
 30
0.0
 10
-7.3897479545
 20
-28.5767996754
 30
0.0
 10
-7.0385740576
 20
-28.6649775742
 30
0.0
 10
-6.7989560324
 20
-28.78008256
 30
0.0
 10
-6.6738063311
 20
-28.852342429
 30
0.0
  0
SPLINE
  5
568
100
AcDbEntity
  8
0
100
AcDbSpline
 62
7
  6
CONTINUOUS
 70
0
 71
3
 72
9
 73
5
 74
0
 42
0.0000001
 43
0.0000001
 44
0.0000000001
 40
0.0
 40
0.0
 40
0.0
 40
0.0
 40
0.4740407705
 40
1.0
 40
1.0
 40
1.0
 40
1.0
 10
-6.6738063311
 20
-28.852342429
 30
0.0
 10
-6.5160685465
 20
-28.9434182489
 30
0.0
 10
-6.2015144568
 20
-29.1675850978
 30
0.0
 10
-5.9237886667
 20
-29.4349378966
 30
0.0
 10
-5.7872021256
 20
-29.5838847784
 30
0.0
  0
SPLINE
  5
569
100
AcDbEntity
  8
0
100
AcDbSpline
 62
7
  6
CONTINUOUS
 70
0
 71
3
 72
17
 73
13
 74
0
 42
0.0000001
 43
0.0000001
 44
0.0000000001
 40
0.0
 40
0.0
 40
0.0
 40
0.0
 40
0.160949948
 40
0.3227236561
 40
0.4788826993
 40
0.6232026414
 40
0.7499668161
 40
0.8545746454
 40
0.8979799503
 40
0.9357803786
 40
0.9692626042
 40
1.0
 40
1.0
 40
1.0
 40
1.0
 10
-5.5588998976
 20
-29.8513995985
 30
0.0
 10
-5.4110302447
 20
-30.0373683494
 30
0.0
 10
-5.1396520482
 20
-30.4308758451
 30
0.0
 10
-4.8147884324
 20
-31.060796191
 30
0.0
 10
-4.5829591902
 20
-31.7048107239
 30
0.0
 10
-4.455856977
 20
-32.3252077026
 30
0.0
 10
-4.4366112417
 20
-32.8823009923
 30
0.0
 10
-4.5081522902
 20
-33.2863963632
 30
0.0
 10
-4.6143218842
 20
-33.5404223201
 30
0.0
 10
-4.7046161953
 20
-33.6846491508
 30
0.0
 10
-4.8070236314
 20
-33.7962859802
 30
0.0
 10
-4.8844273299
 20
-33.8523289165
 30
0.0
 10
-4.9237217705
 20
-33.875017034
 30
0.0
  0
SPLINE
  5
56A
100
AcDbEntity
  8
0
100
AcDbSpline
 62
7
  6
CONTINUOUS
 70
0
 71
3
 72
12
 73
8
 74
0
 42
0.0000001
 43
0.0000001
 44
0.0000000001
 40
0.0
 40
0.0
 40
0.0
 40
0.0
 40
0.2761051223
 40
0.5356875232
 40
0.6584776275
 40
0.7765619271
 40
1.0
 40
1.0
 40
1.0
 40
1.0
 10
-3.5202997947
 20
-49.5865435388
 30
0.0
 10
-3.9241815571
 20
-49.5136847422
 30
0.0
 10
-4.6994684524
 20
-49.3189866364
 30
0.0
 10
-5.6051034518
 20
-48.9345398929
 30
0.0
 10
-6.2426630218
 20
-48.5486699011
 30
0.0
 10
-6.7930961148
 20
-48.1314146051
 30
0.0
 10
-7.1438656083
 20
-47.7537884562
 30
0.0
 10
-7.3304650606
 20
-47.4790480508
 30
0.0
  0
SPLINE
  5
56B
100
AcDbEntity
  8
0
100
AcDbSpline
 62
7
  6
CONTINUOUS
 70
0
 71
3
 72
14
 73
10
 74
0
 42
0.0000001
 43
0.0000001
 44
0.0000000001
 40
0.0
 40
0.0
 40
0.0
 40
0.0
 40
0.2782772214
 40
0.4126558758
 40
0.5417247631
 40
0.6646598928
 40
0.7813972879
 40
0.8927012529
 40
1.0
 40
1.0
 40
1.0
 40
1.0
 10
-1.8446240134
 20
-50.4398213454
 30
0.0
 10
-2.3609161763
 20
-50.4387514422
 30
0.0
 10
-3.1295101463
 20
-50.3660275559
 30
0.0
 10
-4.1055503299
 20
-50.1205516291
 30
0.0
 10
-4.7789407231
 20
-49.8697840767
 30
0.0
 10
-5.3874765163
 20
-49.5529379596
 30
0.0
 10
-5.9185581785
 20
-49.1715833871
 30
0.0
 10
-6.3584914603
 20
-48.7271407106
 30
0.0
 10
-6.5832746321
 20
-48.3850774619
 30
0.0
 10
-6.6725905752
 20
-48.2071647817
 30
0.0
  0
SPLINE
  5
56C
100
AcDbEntity
  8
0
100
AcDbSpline
 62
7
  6
CONTINUOUS
 70
0
 71
3
 72
11
 73
7
 74
0
 42
0.0000001
 43
0.0000001
 44
0.0000000001
 40
0.0
 40
0.0
 40
0.0
 40
0.0
 40
0.2496909777
 40
0.4989064435
 40
0.7490710213
 40
1.0
 40
1.0
 40
1.0
 40
1.0
 10
-17.3553747026
 20
-0.4643320903
 30
0.0
 10
-17.4039132435
 20
-0.4978679317
 30
0.0
 10
-17.4947039929
 20
-0.5746128302
 30
0.0
 10
-17.6020719105
 20
-0.7173567718
 30
0.0
 10
-17.6714572331
 20
-0.882540069
 30
0.0
 10
-17.6874923474
 20
-1.0015323485
 30
0.0
 10
-17.6874923474
 20
-1.0608218345
 30
0.0
  0
SPLINE
  5
56D
100
AcDbEntity
  8
0
100
AcDbSpline
 62
7
  6
CONTINUOUS
 70
0
 71
3
 72
11
 73
7
 74
0
 42
0.0000001
 43
0.0000001
 44
0.0000000001
 40
0.0
 40
0.0
 40
0.0
 40
0.0
 40
0.2178473856
 40
0.4509907729
 40
0.7102613796
 40
1.0
 40
1.0
 40
1.0
 40
1.0
 10
-13.1436617847
 20
2.1628083292
 30
0.0
 10
-13.127162434
 20
2.1723051598
 30
0.0
 10
-13.0892796274
 20
2.186030579
 30
0.0
 10
-13.0263798377
 20
2.1875564762
 30
0.0
 10
-12.9593514537
 20
2.1713680943
 30
0.0
 10
-12.9157484782
 20
2.1506057034
 30
0.0
 10
-12.8938212988
 20
2.1379452248
 30
0.0
  0
SPLINE
  5
56E
100
AcDbEntity
  8
0
100
AcDbSpline
 62
7
  6
CONTINUOUS
 70
0
 71
3
 72
9
 73
5
 74
0
 42
0.0000001
 43
0.0000001
 44
0.0000000001
 40
0.0
 40
0.0
 40
0.0
 40
0.0
 40
0.4747174989
 40
1.0
 40
1.0
 40
1.0
 40
1.0
 10
9.3800423086
 20
-10.722704465
 30
0.0
 10
9.4360498544
 20
-10.75504252
 30
0.0
 10
9.5405991351
 20
-10.8463815337
 30
0.0
 10
9.6177326721
 20
-10.960344248
 30
0.0
 10
9.6504168207
 20
-11.0240060273
 30
0.0
  0
SPLINE
  5
56F
100
AcDbEntity
  8
0
100
AcDbSpline
 62
7
  6
CONTINUOUS
 70
0
 71
3
 72
10
 73
6
 74
0
 42
0.0000001
 43
0.0000001
 44
0.0000000001
 40
0.0
 40
0.0
 40
0.0
 40
0.0
 40
0.2369043583
 40
0.482863368
 40
1.0
 40
1.0
 40
1.0
 40
1.0
 10
-2.8354118575
 20
-14.0290207261
 30
0.0
 10
-2.8010216994
 20
-14.0429206483
 30
0.0
 10
-2.7316377052
 20
-14.0730976207
 30
0.0
 10
-2.5924677296
 20
-14.145019631
 30
0.0
 10
-2.491385756
 20
-14.2093459928
 30
0.0
 10
-2.4254081943
 20
-14.2562832402
 30
0.0
  0
SPLINE
  5
570
100
AcDbEntity
  8
0
100
AcDbSpline
 62
7
  6
CONTINUOUS
 70
0
 71
3
 72
11
 73
7
 74
0
 42
0.0000001
 43
0.0000001
 44
0.0000000001
 40
0.0
 40
0.0
 40
0.0
 40
0.0
 40
0.2413629477
 40
0.5033335929
 40
0.764823587
 40
1.0
 40
1.0
 40
1.0
 40
1.0
 10
-2.4254081943
 20
-14.2562832402
 30
0.0
 10
-2.3789564564
 20
-14.2893310327
 30
0.0
 10
-2.2907333779
 20
-14.3706033071
 30
0.0
 10
-2.1839738169
 20
-14.518063137
 30
0.0
 10
-2.1142514972
 20
-14.6845399788
 30
0.0
 10
-2.0926881565
 20
-14.8014875692
 30
0.0
 10
-2.091941653
 20
-14.8570294151
 30
0.0
  0
SPLINE
  5
571
100
AcDbEntity
  8
0
100
AcDbSpline
 62
7
  6
CONTINUOUS
 70
0
 71
3
 72
11
 73
7
 74
0
 42
0.0000001
 43
0.0000001
 44
0.0000000001
 40
0.0
 40
0.0
 40
0.0
 40
0.0
 40
0.2871075546
 40
0.5514531785
 40
0.7867581016
 40
1.0
 40
1.0
 40
1.0
 40
1.0
 10
-2.091941653
 20
-14.8570294151
 30
0.0
 10
-2.0915267752
 20
-14.8883146334
 30
0.0
 10
-2.0933557209
 20
-14.9485053318
 30
0.0
 10
-2.107857415
 20
-15.0334774761
 30
0.0
 10
-2.1391052788
 20
-15.1058052753
 30
0.0
 10
-2.1740631995
 20
-15.1420700711
 30
0.0
 10
-2.1933703381
 20
-15.1550027941
 30
0.0
  0
SPLINE
  5
572
100
AcDbEntity
  8
0
100
AcDbSpline
 62
7
  6
CONTINUOUS
 70
0
 71
3
 72
12
 73
8
 74
0
 42
0.0000001
 43
0.0000001
 44
0.0000000001
 40
0.0
 40
0.0
 40
0.0
 40
0.0
 40
0.227397735
 40
0.415553412
 40
0.6124702708
 40
0.810409704
 40
1.0
 40
1.0
 40
1.0
 40
1.0
 10
-2.5517836152
 20
-15.6337842704
 30
0.0
 10
-2.5127956904
 20
-15.6562954095
 30
0.0
 10
-2.4468993184
 20
-15.7072031028
 30
0.0
 10
-2.3672042315
 20
-15.7992077645
 30
0.0
 10
-2.3060559583
 20
-15.8975829362
 30
0.0
 10
-2.2570526558
 20
-16.0026332226
 30
0.0
 10
-2.2323389708
 20
-16.075472585
 30
0.0
 10
-2.2224313267
 20
-16.1116763836
 30
0.0
  0
SPLINE
  5
573
100
AcDbEntity
  8
0
100
AcDbSpline
 62
7
  6
CONTINUOUS
 70
0
 71
3
 72
11
 73
7
 74
0
 42
0.0000001
 43
0.0000001
 44
0.0000000001
 40
0.0
 40
0.0
 40
0.0
 40
0.0
 40
0.2523331323
 40
0.5015752641
 40
0.7507266133
 40
1.0
 40
1.0
 40
1.0
 40
1.0
 10
-2.2224313267
 20
-16.1116763836
 30
0.0
 10
-2.1964734899
 20
-16.2064449691
 30
0.0
 10
-2.1502517251
 20
-16.3962930378
 30
0.0
 10
-2.0895335072
 20
-16.6822485903
 30
0.0
 10
-2.0272107228
 20
-16.9666468062
 30
0.0
 10
-1.9849415079
 20
-17.1560767709
 30
0.0
 10
-1.9642937828
 20
-17.2509231634
 30
0.0
  0
SPLINE
  5
574
100
AcDbEntity
  8
0
100
AcDbSpline
 62
7
  6
CONTINUOUS
 70
0
 71
3
 72
9
 73
5
 74
0
 42
0.0000001
 43
0.0000001
 44
0.0000000001
 40
0.0
 40
0.0
 40
0.0
 40
0.0
 40
0.5247191534
 40
1.0
 40
1.0
 40
1.0
 40
1.0
 10
-1.9385478924
 20
-15.7221939071
 30
0.0
 10
-1.9275508496
 20
-15.7269050254
 30
0.0
 10
-1.9043866632
 20
-15.7317369248
 30
0.0
 10
-1.8817055216
 20
-15.7269776219
 30
0.0
 10
-1.8713322706
 20
-15.7238431539
 30
0.0
  0
SPLINE
  5
575
100
AcDbEntity
  8
0
100
AcDbSpline
 62
7
  6
CONTINUOUS
 70
0
 71
3
 72
8
 73
4
 74
0
 42
0.0000001
 43
0.0000001
 44
0.0000000001
 40
0.0
 40
0.0
 40
0.0
 40
0.0
 40
1.0
 40
1.0
 40
1.0
 40
1.0
 10
-1.8713322706
 20
-15.7238431539
 30
0.0
 10
-1.8594766622
 20
-15.7202607644
 30
0.0
 10
-1.8479230624
 20
-15.7157269734
 30
0.0
 10
-1.8363874647
 20
-15.7112193189
 30
0.0
  0
SPLINE
  5
576
100
AcDbEntity
  8
0
100
AcDbSpline
 62
7
  6
CONTINUOUS
 70
0
 71
3
 72
9
 73
5
 74
0
 42
0.0000001
 43
0.0000001
 44
0.0000000001
 40
0.0
 40
0.0
 40
0.0
 40
0.0
 40
0.2536103721
 40
1.0
 40
1.0
 40
1.0
 40
1.0
 10
-1.8244316945
 20
-15.7064433949
 30
0.0
 10
-1.8188645695
 20
-15.7041679088
 30
0.0
 10
-1.7970226634
 20
-15.6949393697
 30
0.0
 10
-1.7756829797
 20
-15.6844476183
 30
0.0
 10
-1.7603544392
 20
-15.6755971132
 30
0.0
  0
SPLINE
  5
577
100
AcDbEntity
  8
0
100
AcDbSpline
 62
250
  6
CONTINUOUS
 70
0
 71
3
 72
11
 73
7
 74
0
 42
0.0000001
 43
0.0000001
 44
0.0000000001
 40
0.0
 40
0.0
 40
0.0
 40
0.0
 40
0.2372324589
 40
0.4999938934
 40
0.7627586513
 40
1.0
 40
1.0
 40
1.0
 40
1.0
 10
-17.3945991286
 20
-1.4690964278
 30
0.0
 10
-17.3945991286
 20
-1.4111386568
 30
0.0
 10
-17.3728593428
 20
-1.2889075109
 30
0.0
 10
-17.2970898906
 20
-1.1171496236
 30
0.0
 10
-17.1862263962
 20
-0.9656508222
 30
0.0
 10
-17.0912397125
 20
-0.8857053645
 30
0.0
 10
-17.041045738
 20
-0.8567239928
 30
0.0
  0
SPLINE
  5
578
100
AcDbEntity
  8
0
100
AcDbSpline
 62
250
  6
CONTINUOUS
 70
0
 71
3
 72
11
 73
7
 74
0
 42
0.0000001
 43
0.0000001
 44
0.0000000001
 40
0.0
 40
0.0
 40
0.0
 40
0.0
 40
0.2372324595
 40
0.4999938932
 40
0.7627586504
 40
1.0
 40
1.0
 40
1.0
 40
1.0
 10
3.8399038456
 20
-13.7296323143
 30
0.0
 10
3.8399038456
 20
-13.6716745432
 30
0.0
 10
3.8616436315
 20
-13.5494433973
 30
0.0
 10
3.9374130836
 20
-13.3776855103
 30
0.0
 10
4.0482765779
 20
-13.226186709
 30
0.0
 10
4.1432632616
 20
-13.1462412512
 30
0.0
 10
4.1934572362
 20
-13.1172598793
 30
0.0
  0
SPLINE
  5
579
100
AcDbEntity
  8
0
100
AcDbSpline
 62
250
  6
CONTINUOUS
 70
0
 71
3
 72
11
 73
7
 74
0
 42
0.0000001
 43
0.0000001
 44
0.0000000001
 40
0.0
 40
0.0
 40
0.0
 40
0.0
 40
0.2401044441
 40
0.5056944015
 40
0.7682085402
 40
1.0
 40
1.0
 40
1.0
 40
1.0
 10
5.1882613316
 20
-13.7644052756
 30
0.0
 10
5.1882613316
 20
-13.7061341043
 30
0.0
 10
5.1685338291
 20
-13.5833672069
 30
0.0
 10
5.1003124598
 20
-13.4086631499
 30
0.0
 10
5.0004750986
 20
-13.2523082817
 30
0.0
 10
4.9139175376
 20
-13.1666228267
 30
0.0
 10
4.8676359784
 20
-13.1346463603
 30
0.0
  0
SPLINE
  5
57A
100
AcDbEntity
  8
0
100
AcDbSpline
 62
250
  6
CONTINUOUS
 70
0
 71
3
 72
11
 73
7
 74
0
 42
0.0000001
 43
0.0000001
 44
0.0000000001
 40
0.0
 40
0.0
 40
0.0
 40
0.0
 40
0.2372324595
 40
0.4999938932
 40
0.7627586504
 40
1.0
 40
1.0
 40
1.0
 40
1.0
 10
9.139626003
 20
-11.6780275584
 30
0.0
 10
9.139626003
 20
-11.6200697873
 30
0.0
 10
9.1178862171
 20
-11.4978386414
 30
0.0
 10
9.042116765
 20
-11.3260807544
 30
0.0
 10
8.9312532708
 20
-11.1745819531
 30
0.0
 10
8.836266587
 20
-11.0946364953
 30
0.0
 10
8.7860726124
 20
-11.0656551234
 30
0.0
  0
LINE
  5
57B
100
AcDbEntity
  8
0
100
AcDbLine
 62
7
  6
CONTINUOUS
 10
-15.4704640782
 20
-0.5387694235
 11
-15.4376389568
 21
-0.5168333699
  0
SPLINE
  5
57C
100
AcDbEntity
  8
0
100
AcDbSpline
 62
250
  6
CONTINUOUS
 70
0
 71
3
 72
11
 73
7
 74
0
 42
0.0000001
 43
0.0000001
 44
0.0000000001
 40
0.0
 40
0.0
 40
0.0
 40
0.0
 40
0.2653705339
 40
0.5165762139
 40
0.7592441621
 40
1.0
 40
1.0
 40
1.0
 40
1.0
 10
2.2095858687
 20
-49.9559749254
 30
0.0
 10
2.1657801448
 20
-50.070240684
 30
0.0
 10
2.0626093362
 20
-50.2865422607
 30
0.0
 10
1.8540129387
 20
-50.5705380166
 30
0.0
 10
1.599991198
 20
-50.7983744512
 30
0.0
 10
1.4042350491
 20
-50.9091851836
 30
0.0
 10
1.3024112568
 20
-50.9534368786
 30
0.0
  0
SPLINE
  5
57D
100
AcDbEntity
  8
0
100
AcDbSpline
 62
7
  6
CONTINUOUS
 70
0
 71
3
 72
9
 73
5
 74
0
 42
0.0000001
 43
0.0000001
 44
0.0000000001
 40
0.0
 40
0.0
 40
0.0
 40
0.0
 40
0.2419167455
 40
1.0
 40
1.0
 40
1.0
 40
1.0
 10
0.6949469713
 20
-37.6516365386
 30
0.0
 10
0.7408621158
 20
-37.560603875
 30
0.0
 10
0.9198719317
 20
-37.178885281
 30
0.0
 10
1.0574145124
 20
-36.7783497818
 30
0.0
 10
1.14209146
 20
-36.47027851
 30
0.0
  0
SPLINE
  5
57E
100
AcDbEntity
  8
0
100
AcDbSpline
 62
250
  6
CONTINUOUS
 70
0
 71
3
 72
29
 73
25
 74
0
 42
0.0000001
 43
0.0000001
 44
0.0000000001
 40
0.0
 40
0.0
 40
0.0
 40
0.0
 40
0.0240525521
 40
0.047500895
 40
0.0704680803
 40
0.0931359783
 40
0.1157065554
 40
0.1383720462
 40
0.1613010898
 40
0.1846832108
 40
0.2334385365
 40
0.2858790086
 40
0.3427388528
 40
0.4042437426
 40
0.4702745305
 40
0.5403438798
 40
0.6137783299
 40
0.6897133004
 40
0.7283324821
 40
0.7672210171
 40
0.8453442034
 40
0.923226903
 40
0.9617995287
 40
1.0
 40
1.0
 40
1.0
 40
1.0
 10
0.6949469713
 20
-37.6516365386
 30
0.0
 10
0.6051087585
 20
-37.7923565133
 30
0.0
 10
0.4171525226
 20
-38.0638671565
 30
0.0
 10
0.0989395372
 20
-38.4365409292
 30
0.0
 10
-0.2514625614
 20
-38.7653990092
 30
0.0
 10
-0.6326679792
 20
-39.0479609344
 30
0.0
 10
-1.0423514002
 20
-39.2831021964
 30
0.0
 10
-1.4769754324
 20
-39.4722647813
 30
0.0
 10
-1.9341939578
 20
-39.6174063444
 30
0.0
 10
-2.5824051583
 20
-39.7470473805
 30
0.0
 10
-3.4531711358
 20
-39.777949075
 30
0.0
 10
-4.5423604997
 20
-39.6051905795
 30
0.0
 10
-5.6707003262
 20
-39.2263637263
 30
0.0
 10
-6.8183511735
 20
-38.6515753263
 30
0.0
 10
-7.9626444175
 20
-37.8899608561
 30
0.0
 10
-9.0834167789
 20
-36.9592302084
 30
0.0
 10
-10.1579367496
 20
-35.8767359562
 30
0.0
 10
-10.9945571247
 20
-34.8732914976
 30
0.0
 10
-11.6267124276
 20
-34.0158292459
 30
0.0
 10
-12.2334361684
 20
-33.1218005846
 30
0.0
 10
-12.9340155461
 20
-31.9630562754
 30
0.0
 10
-13.5417330301
 20
-30.7551964402
 30
0.0
 10
-13.9664529093
 20
-29.7690547451
 30
0.0
 10
-14.158180627
 20
-29.2716988291
 30
0.0
 10
-14.2496423656
 20
-29.0228176679
 30
0.0
  0
SPLINE
  5
57F
100
AcDbEntity
  8
0
100
AcDbSpline
 62
250
  6
CONTINUOUS
 70
0
 71
3
 72
9
 73
5
 74
0
 42
0.0000001
 43
0.0000001
 44
0.0000000001
 40
0.0
 40
0.0
 40
0.0
 40
0.0
 40
0.4804180251
 40
1.0
 40
1.0
 40
1.0
 40
1.0
 10
-6.7773476415
 20
-28.6234739985
 30
0.0
 10
-6.5995441993
 20
-28.7261354776
 30
0.0
 10
-6.2488574351
 20
-28.9741664927
 30
0.0
 10
-5.9386368878
 20
-29.2701433206
 30
0.0
 10
-5.7878504825
 20
-29.4331457243
 30
0.0
  0
SPLINE
  5
580
100
AcDbEntity
  8
0
100
AcDbSpline
 62
250
  6
CONTINUOUS
 70
0
 71
3
 72
22
 73
18
 74
0
 42
0.0000001
 43
0.0000001
 44
0.0000000001
 40
0.0
 40
0.0
 40
0.0
 40
0.0
 40
0.1595075679
 40
0.2389017399
 40
0.3161770078
 40
0.3900953753
 40
0.4596195245
 40
0.5240095863
 40
0.5829405755
 40
0.6366432895
 40
0.6860466992
 40
0.7328347213
 40
0.7792612339
 40
0.827666733
 40
0.8799417289
 40
0.9372430312
 40
1.0
 40
1.0
 40
1.0
 40
1.0
 10
-5.4835983383
 20
-29.7920222787
 30
0.0
 10
-5.2529690461
 20
-30.0884832688
 30
0.0
 10
-4.9495470915
 20
-30.5674202106
 30
0.0
 10
-4.6416136505
 20
-31.2460691721
 30
0.0
 10
-4.4657715055
 20
-31.7608253444
 30
0.0
 10
-4.349410801
 20
-32.2684080167
 30
0.0
 10
-4.2955117267
 20
-32.7560733684
 30
0.0
 10
-4.3056313277
 20
-33.2116147773
 30
0.0
 10
-4.3800131697
 20
-33.6238371641
 30
0.0
 10
-4.5179186186
 20
-33.9825249634
 30
0.0
 10
-4.717745753
 20
-34.2778538509
 30
0.0
 10
-4.9758281055
 20
-34.4995320231
 30
0.0
 10
-5.2840114259
 20
-34.638316687
 30
0.0
 10
-5.6304692841
 20
-34.6899520732
 30
0.0
 10
-6.0038797821
 20
-34.6554192153
 30
0.0
 10
-6.3945719002
 20
-34.5380049893
 30
0.0
 10
-6.6493695966
 20
-34.4126588553
 30
0.0
 10
-6.7773476415
 20
-34.3387659361
 30
0.0
  0
SPLINE
  5
581
100
AcDbEntity
  8
0
100
AcDbSpline
 62
250
  6
CONTINUOUS
 70
0
 71
3
 72
25
 73
21
 74
0
 42
0.0000001
 43
0.0000001
 44
0.0000000001
 40
0.0
 40
0.0
 40
0.0
 40
0.0
 40
0.0665689849
 40
0.1383917137
 40
0.2139949585
 40
0.2915649707
 40
0.3691345692
 40
0.4447358065
 40
0.5165589031
 40
0.5831234347
 40
0.643481922
 40
0.6974771499
 40
0.7460425995
 40
0.7690123007
 40
0.7915572526
 40
0.8141024397
 40
0.8370726839
 40
0.8856409428
 40
0.939636686
 40
1.0
 40
1.0
 40
1.0
 40
1.0
 10
-6.7773476415
 20
-34.3387659361
 30
0.0
 10
-6.9467759831
 20
-34.240940135
 30
0.0
 10
-7.2814190592
 20
-34.0063503884
 30
0.0
 10
-7.7418633913
 20
-33.5755423728
 30
0.0
 10
-8.1661998722
 20
-33.066319318
 30
0.0
 10
-8.5384328806
 20
-32.4977599778
 30
0.0
 10
-8.8447026448
 20
-31.8911068074
 30
0.0
 10
-9.0735371623
 20
-31.2690656062
 30
0.0
 10
-9.2163837864
 20
-30.6547492614
 30
0.0
 10
-9.2678586499
 20
-30.0706653905
 30
0.0
 10
-9.2253463206
 20
-29.5375863833
 30
0.0
 10
-9.0889499493
 20
-29.0743228346
 30
0.0
 10
-8.8929971958
 20
-28.7548139388
 30
0.0
 10
-8.6950194314
 20
-28.5601384559
 30
0.0
 10
-8.5302015846
 20
-28.4450828651
 30
0.0
 10
-8.3481396935
 20
-28.3598955425
 30
0.0
 10
-8.0805419486
 20
-28.2858014296
 30
0.0
 10
-7.7058290374
 20
-28.2759102349
 30
0.0
 10
-7.2365209103
 20
-28.3893789542
 30
0.0
 10
-6.9309815927
 20
-28.5347676806
 30
0.0
 10
-6.7773476415
 20
-28.6234739985
 30
0.0
  0
SPLINE
  5
582
100
AcDbEntity
  8
0
100
AcDbSpline
 62
7
  6
CONTINUOUS
 70
0
 71
3
 72
13
 73
9
 74
0
 42
0.0000001
 43
0.0000001
 44
0.0000000001
 40
0.0
 40
0.0
 40
0.0
 40
0.0
 40
0.1389752388
 40
0.2725460587
 40
0.4015571322
 40
0.5266418481
 40
0.7676590998
 40
1.0
 40
1.0
 40
1.0
 40
1.0
 10
-1.9782001795
 20
-14.0254465363
 30
0.0
 10
-2.0343714844
 20
-13.9695818747
 30
0.0
 10
-2.1501367064
 20
-13.8655391393
 30
0.0
 10
-2.3329941614
 20
-13.7275462432
 30
0.0
 10
-2.5171582557
 20
-13.605218797
 30
0.0
 10
-2.7596668938
 20
-13.4606487904
 30
0.0
 10
-3.0642100938
 20
-13.3060417373
 30
0.0
 10
-3.3123978683
 20
-13.1998822971
 30
0.0
 10
-3.4350485673
 20
-13.1499000732
 30
0.0
  0
SPLINE
  5
583
100
AcDbEntity
  8
0
100
AcDbSpline
 62
250
  6
CONTINUOUS
 70
0
 71
3
 72
9
 73
5
 74
0
 42
0.0000001
 43
0.0000001
 44
0.0000000001
 40
0.0
 40
0.0
 40
0.0
 40
0.0
 40
0.5135093587
 40
1.0
 40
1.0
 40
1.0
 40
1.0
 10
6.3487220909
 20
-47.8426565373
 30
0.0
 10
6.3032428026
 20
-47.9550684022
 30
0.0
 10
6.1990109327
 20
-48.1681040451
 30
0.0
 10
6.0611729021
 20
-48.3615270692
 30
0.0
 10
5.9861048418
 20
-48.4484918833
 30
0.0
  0
SPLINE
  5
584
100
AcDbEntity
  8
0
100
AcDbSpline
 62
250
  6
CONTINUOUS
 70
0
 71
3
 72
9
 73
5
 74
0
 42
0.0000001
 43
0.0000001
 44
0.0000000001
 40
0.0
 40
0.0
 40
0.0
 40
0.0
 40
0.5047872982
 40
1.0
 40
1.0
 40
1.0
 40
1.0
 10
5.9861048418
 20
-48.4484918833
 30
0.0
 10
5.9224056138
 20
-48.5222861373
 30
0.0
 10
5.7844294869
 20
-48.6588014562
 30
0.0
 10
5.6252674253
 20
-48.770069797
 30
0.0
 10
5.5424406976
 20
-48.8178801598
 30
0.0
  0
SPLINE
  5
585
100
AcDbEntity
  8
0
100
AcDbSpline
 62
250
  6
CONTINUOUS
 70
0
 71
3
 72
10
 73
6
 74
0
 42
0.0000001
 43
0.0000001
 44
0.0000000001
 40
0.0
 40
0.0
 40
0.0
 40
0.0
 40
0.2693152348
 40
0.5257815932
 40
1.0
 40
1.0
 40
1.0
 40
1.0
 10
9.139626003
 20
-31.8448433952
 30
0.0
 10
9.139626003
 20
-33.3100514378
 30
0.0
 10
9.0301767972
 20
-36.1730425082
 30
0.0
 10
8.3573015981
 20
-41.5742216695
 30
0.0
 10
7.3163334997
 20
-45.4509963498
 30
0.0
 10
6.3487220909
 20
-47.8426565373
 30
0.0
  0
SPLINE
  5
586
100
AcDbEntity
  8
0
100
AcDbSpline
 62
7
  6
CONTINUOUS
 70
0
 71
3
 72
10
 73
6
 74
0
 42
0.0000001
 43
0.0000001
 44
0.0000000001
 40
0.0
 40
0.0
 40
0.0
 40
0.0
 40
0.2500549459
 40
0.4997800047
 40
1.0
 40
1.0
 40
1.0
 40
1.0
 10
-1.3752500883
 20
-17.5665331345
 30
0.0
 10
-1.3924981238
 20
-17.4832463453
 30
0.0
 10
-1.4258304246
 20
-17.3165481862
 30
0.0
 10
-1.4922521189
 20
-16.9829570718
 30
0.0
 10
-1.5424498829
 20
-16.73285356
 30
0.0
 10
-1.5770440499
 20
-16.5662620767
 30
0.0
  0
SPLINE
  5
587
100
AcDbEntity
  8
0
100
AcDbSpline
 62
7
  6
CONTINUOUS
 70
0
 71
3
 72
11
 73
7
 74
0
 42
0.0000001
 43
0.0000001
 44
0.0000000001
 40
0.0
 40
0.0
 40
0.0
 40
0.0
 40
0.2339879389
 40
0.4889032896
 40
0.7506567472
 40
1.0
 40
1.0
 40
1.0
 40
1.0
 10
-1.5770440503
 20
-16.5662620766
 30
0.0
 10
-1.5915427411
 20
-16.4964422613
 30
0.0
 10
-1.6208120118
 20
-16.3503097772
 30
0.0
 10
-1.684507909
 20
-16.1301173828
 30
0.0
 10
-1.7757831805
 20
-15.9146186704
 30
0.0
 10
-1.8646084122
 20
-15.7839616558
 30
0.0
 10
-1.9173346889
 20
-15.7292418263
 30
0.0
  0
SPLINE
  5
588
100
AcDbEntity
  8
0
100
AcDbSpline
 62
7
  6
CONTINUOUS
 70
0
 71
3
 72
9
 73
5
 74
0
 42
0.0000001
 43
0.0000001
 44
0.0000000001
 40
0.0
 40
0.0
 40
0.0
 40
0.0
 40
0.2457568281
 40
1.0
 40
1.0
 40
1.0
 40
1.0
 10
-2.1905900895
 20
-15.1534202828
 30
0.0
 10
-2.1951448192
 20
-15.1556666235
 30
0.0
 10
-2.214113497
 20
-15.1639274485
 30
0.0
 10
-2.2346362496
 20
-15.1683573568
 30
0.0
 10
-2.2501438929
 20
-15.1699219538
 30
0.0
  0
SPLINE
  5
589
100
AcDbEntity
  8
0
100
AcDbSpline
 62
7
  6
CONTINUOUS
 70
0
 71
3
 72
9
 73
5
 74
0
 42
0.0000001
 43
0.0000001
 44
0.0000000001
 40
0.0
 40
0.0
 40
0.0
 40
0.0
 40
0.4630182466
 40
1.0
 40
1.0
 40
1.0
 40
1.0
 10
-2.2501438929
 20
-15.1699219538
 30
0.0
 10
-2.2952831336
 20
-15.1744761415
 30
0.0
 10
-2.3946444447
 20
-15.1546490964
 30
0.0
 10
-2.4832264067
 20
-15.1128764767
 30
0.0
 10
-2.5292979625
 20
-15.0874635346
 30
0.0
  0
SPLINE
  5
58A
100
AcDbEntity
  8
0
100
AcDbSpline
 62
7
  6
CONTINUOUS
 70
0
 71
3
 72
12
 73
8
 74
0
 42
0.0000001
 43
0.0000001
 44
0.0000000001
 40
0.0
 40
0.0
 40
0.0
 40
0.0
 40
0.1041136146
 40
0.2118670193
 40
0.4483267022
 40
0.71494465
 40
1.0
 40
1.0
 40
1.0
 40
1.0
 10
-2.2025651971
 20
-15.1607294585
 30
0.0
 10
-2.2135979109
 20
-15.1670996152
 30
0.0
 10
-2.2377379835
 20
-15.1773596722
 30
0.0
 10
-2.2922464038
 20
-15.1864002624
 30
0.0
 10
-2.3676842917
 20
-15.1776009715
 30
0.0
 10
-2.4592761862
 20
-15.1465103375
 30
0.0
 10
-2.5199690948
 20
-15.116558694
 30
0.0
 10
-2.550511166
 20
-15.0997117724
 30
0.0
  0
SPLINE
  5
58B
100
AcDbEntity
  8
0
100
AcDbSpline
 62
7
  6
CONTINUOUS
 70
0
 71
3
 72
17
 73
13
 74
0
 42
0.0000001
 43
0.0000001
 44
0.0000000001
 40
0.0
 40
0.0
 40
0.0
 40
0.0
 40
0.0880772335
 40
0.1871805757
 40
0.3000850771
 40
0.4253120703
 40
0.5617520083
 40
0.7071151698
 40
0.7812625584
 40
0.8553468583
 40
0.9287738979
 40
1.0
 40
1.0
 40
1.0
 40
1.0
 10
-1.7124949241
 20
-15.6464290828
 30
0.0
 10
-1.6693242177
 20
-15.6162384851
 30
0.0
 10
-1.5947216501
 20
-15.5274701828
 30
0.0
 10
-1.5315854664
 20
-15.3571460312
 30
0.0
 10
-1.5113595151
 20
-15.1549062497
 30
0.0
 10
-1.5260658143
 20
-14.930551398
 30
0.0
 10
-1.5805480276
 20
-14.6921758021
 30
0.0
 10
-1.6602956011
 20
-14.4938378928
 30
0.0
 10
-1.7428441828
 20
-14.3387162666
 30
0.0
 10
-1.8136339175
 20
-14.2264721641
 30
0.0
 10
-1.8909325267
 20
-14.1208159066
 30
0.0
 10
-1.9479851547
 20
-14.0554783476
 30
0.0
 10
-1.9782001795
 20
-14.0254465363
 30
0.0
  0
SPLINE
  5
58C
100
AcDbEntity
  8
0
100
AcDbSpline
 62
7
  6
CONTINUOUS
 70
0
 71
3
 72
20
 73
16
 74
0
 42
0.0000001
 43
0.0000001
 44
0.0000000001
 40
0.0
 40
0.0
 40
0.0
 40
0.0
 40
0.0427995297
 40
0.0876952451
 40
0.1351222653
 40
0.1857043464
 40
0.2975021172
 40
0.3584295576
 40
0.4223872358
 40
0.5588503581
 40
0.7048566731
 40
0.7795315109
 40
0.854188603
 40
0.9282046959
 40
1.0
 40
1.0
 40
1.0
 40
1.0
 10
-1.7603544392
 20
-15.6755971132
 30
0.0
 10
-1.7377780588
 20
-15.6625617972
 30
0.0
 10
-1.6941293291
 20
-15.6307151014
 30
0.0
 10
-1.6414807729
 20
-15.5666127628
 30
0.0
 10
-1.5987768555
 20
-15.4903245143
 30
0.0
 10
-1.5554851778
 20
-15.3695469137
 30
0.0
 10
-1.537683967
 20
-15.2332103005
 30
0.0
 10
-1.5381100639
 20
-15.089026357
 30
0.0
 10
-1.5514206069
 20
-14.9302028954
 30
0.0
 10
-1.5957238372
 20
-14.7228430452
 30
0.0
 10
-1.6752925341
 20
-14.5193799147
 30
0.0
 10
-1.7588025505
 20
-14.3599036972
 30
0.0
 10
-1.830908261
 20
-14.2443811801
 30
0.0
 10
-1.9099482624
 20
-14.1357084881
 30
0.0
 10
-1.9683971253
 20
-14.0685229598
 30
0.0
 10
-1.9994133829
 20
-14.0376947741
 30
0.0
  0
SPLINE
  5
58D
100
AcDbEntity
  8
0
100
AcDbSpline
 62
250
  6
CONTINUOUS
 70
0
 71
3
 72
11
 73
7
 74
0
 42
0.0000001
 43
0.0000001
 44
0.0000000001
 40
0.0
 40
0.0
 40
0.0
 40
0.0
 40
0.2425622592
 40
0.5053441258
 40
0.765248147
 40
1.0
 40
1.0
 40
1.0
 40
1.0
 10
4.8676359784
 20
-13.1346463603
 30
0.0
 10
4.8169493293
 20
-13.1591035074
 30
0.0
 10
4.7034180433
 20
-13.1939622181
 30
0.0
 10
4.5252139928
 20
-13.2077818139
 30
0.0
 10
4.3497303468
 20
-13.1852520237
 30
0.0
 10
4.2406258643
 20
-13.144494454
 30
0.0
 10
4.1934572362
 20
-13.1172598793
 30
0.0
  0
SPLINE
  5
58E
100
AcDbEntity
  8
0
100
AcDbSpline
 62
250
  6
CONTINUOUS
 70
0
 71
3
 72
15
 73
11
 74
0
 42
0.0000001
 43
0.0000001
 44
0.0000000001
 40
0.0
 40
0.0
 40
0.0
 40
0.0
 40
0.1469030444
 40
0.2794461177
 40
0.3989940314
 40
0.510117268
 40
0.6194722781
 40
0.7342445524
 40
0.8602115492
 40
1.0
 40
1.0
 40
1.0
 40
1.0
 10
-17.041045738
 20
-0.8567239928
 30
0.0
 10
-17.061794648
 20
-0.8447438322
 30
0.0
 10
-17.0996439595
 20
-0.8188799949
 30
0.0
 10
-17.1457112527
 20
-0.7722356666
 30
0.0
 10
-17.1764099708
 20
-0.7207347026
 30
0.0
 10
-17.1899230174
 20
-0.6660010453
 30
0.0
 10
-17.18518571
 20
-0.6105488206
 30
0.0
 10
-17.1625316194
 20
-0.5572313854
 30
0.0
 10
-17.1236502199
 20
-0.5081236976
 30
0.0
 10
-17.0899153155
 20
-0.4804212376
 30
0.0
 10
-17.0711580664
 20
-0.4674616365
 30
0.0
  0
SPLINE
  5
58F
100
AcDbEntity
  8
0
100
AcDbSpline
 62
250
  6
CONTINUOUS
 70
0
 71
3
 72
12
 73
8
 74
0
 42
0.0000001
 43
0.0000001
 44
0.0000000001
 40
0.0
 40
0.0
 40
0.0
 40
0.0
 40
0.1081602423
 40
0.2183594233
 40
0.4513634301
 40
0.7104046075
 40
1.0
 40
1.0
 40
1.0
 40
1.0
 10
-4.9237235104
 20
-33.8750140278
 30
0.0
 10
-4.9729117103
 20
-33.9034104718
 30
0.0
 10
-5.0773532862
 20
-33.9523159273
 30
0.0
 10
-5.3066926218
 20
-34.0158012351
 30
0.0
 10
-5.6279104563
 20
-34.0243184736
 30
0.0
 10
-6.0301917275
 20
-33.9270560129
 30
0.0
 10
-6.2920993848
 20
-33.8024324662
 30
0.0
 10
-6.4237942509
 20
-33.726393501
 30
0.0
  0
SPLINE
  5
590
100
AcDbEntity
  8
0
100
AcDbSpline
 62
250
  6
CONTINUOUS
 70
0
 71
3
 72
13
 73
9
 74
0
 42
0.0000001
 43
0.0000001
 44
0.0000000001
 40
0.0
 40
0.0
 40
0.0
 40
0.0
 40
0.2557476819
 40
0.5078008142
 40
0.6324855273
 40
0.756261524
 40
0.8792782318
 40
1.0
 40
1.0
 40
1.0
 40
1.0
 10
3.3497795856
 20
-46.7299869698
 30
0.0
 10
3.2639800293
 20
-47.0088503814
 30
0.0
 10
3.0881302265
 20
-47.5608768874
 30
0.0
 10
2.854671383
 20
-48.2436901368
 30
0.0
 10
2.6606866875
 20
-48.7807371859
 30
0.0
 10
2.5127172703
 20
-49.1778738545
 30
0.0
 10
2.3603349909
 20
-49.5684776359
 30
0.0
 10
2.2583105688
 20
-49.8271591949
 30
0.0
 10
2.2095859247
 20
-49.9559749012
 30
0.0
  0
SPLINE
  5
591
100
AcDbEntity
  8
0
100
AcDbSpline
 62
250
  6
CONTINUOUS
 70
0
 71
3
 72
16
 73
12
 74
0
 42
0.0000001
 43
0.0000001
 44
0.0000000001
 40
0.0
 40
0.0
 40
0.0
 40
0.0
 40
0.0613375077
 40
0.1228851656
 40
0.184603873
 40
0.2464507895
 40
0.3705619304
 40
0.4952494684
 40
0.6205253057
 40
0.7464029376
 40
1.0
 40
1.0
 40
1.0
 40
1.0
 10
-1.3263031076
 20
-50.5541412842
 30
0.0
 10
-1.4409797899
 20
-50.5028391449
 30
0.0
 10
-1.6688437963
 20
-50.395888984
 30
0.0
 10
-2.0098081739
 20
-50.2324989733
 30
0.0
 10
-2.3510225018
 20
-50.0671999383
 30
0.0
 10
-2.8065036604
 20
-49.8438782826
 30
0.0
 10
-3.3756730038
 20
-49.55948852
 30
0.0
 10
-4.0576886096
 20
-49.2103750251
 30
0.0
 10
-4.7394311185
 20
-48.852865333
 30
0.0
 10
-5.6502539796
 20
-48.3637974323
 30
0.0
 10
-6.3296189588
 20
-47.9861193443
 30
0.0
 10
-6.781174609
 20
-47.7294454999
 30
0.0
  0
LINE
  5
592
100
AcDbEntity
  8
0
100
AcDbLine
 62
250
  6
CONTINUOUS
 10
-6.781174609
 20
-47.7294454999
 11
-6.9521614748
 21
-47.6319818805
  0
SPLINE
  5
593
100
AcDbEntity
  8
0
100
AcDbSpline
 62
250
  6
CONTINUOUS
 70
0
 71
3
 72
9
 73
5
 74
0
 42
0.0000001
 43
0.0000001
 44
0.0000000001
 40
0.0
 40
0.0
 40
0.0
 40
0.0
 40
0.4713134566
 40
1.0
 40
1.0
 40
1.0
 40
1.0
 10
-6.7964881682
 20
-47.8752243541
 30
0.0
 10
-6.5037960156
 20
-48.1249260636
 30
0.0
 10
-5.8097368218
 20
-48.5701975343
 30
0.0
 10
-5.0457327185
 20
-48.8697136943
 30
0.0
 10
-4.6329842968
 20
-48.9957640644
 30
0.0
  0
SPLINE
  5
594
100
AcDbEntity
  8
0
100
AcDbSpline
 62
7
  6
CONTINUOUS
 70
0
 71
3
 72
9
 73
5
 74
0
 42
0.0000001
 43
0.0000001
 44
0.0000000001
 40
0.0
 40
0.0
 40
0.0
 40
0.0
 40
0.2369367764
 40
1.0
 40
1.0
 40
1.0
 40
1.0
 10
-6.9521614748
 20
-47.6319818805
 30
0.0
 10
-7.1481135676
 20
-47.2621447868
 30
0.0
 10
-7.9030561907
 20
-45.6631514169
 30
0.0
 10
-8.3766920042
 20
-43.9392723502
 30
0.0
 10
-8.6089352297
 20
-42.6115039325
 30
0.0
  0
SPLINE
  5
595
100
AcDbEntity
  8
0
100
AcDbSpline
 62
250
  6
CONTINUOUS
 70
0
 71
3
 72
12
 73
8
 74
0
 42
0.0000001
 43
0.0000001
 44
0.0000000001
 40
0.0
 40
0.0
 40
0.0
 40
0.0
 40
0.2092002163
 40
0.3255016114
 40
0.4491875064
 40
0.715496745
 40
1.0
 40
1.0
 40
1.0
 40
1.0
 10
-6.4774539272
 20
-48.3666763043
 30
0.0
 10
-6.2906014643
 20
-48.6061235558
 30
0.0
 10
-5.9350557367
 20
-48.9295843671
 30
0.0
 10
-5.3836595907
 20
-49.278445207
 30
0.0
 10
-4.7230905361
 20
-49.6041525068
 30
0.0
 10
-3.7868126617
 20
-49.9081814399
 30
0.0
 10
-2.993684736
 20
-50.0337862348
 30
0.0
 10
-2.5821648541
 20
-50.069338726
 30
0.0
  0
SPLINE
  5
596
100
AcDbEntity
  8
0
100
AcDbSpline
 62
250
  6
CONTINUOUS
 70
0
 71
3
 72
19
 73
15
 74
0
 42
0.0000001
 43
0.0000001
 44
0.0000000001
 40
0.0
 40
0.0
 40
0.0
 40
0.0
 40
0.0639907331
 40
0.1269459023
 40
0.1890833328
 40
0.2506207087
 40
0.3116232096
 40
0.3721068429
 40
0.4323244433
 40
0.4925062679
 40
0.6135781474
 40
0.7376961358
 40
0.8662382385
 40
1.0
 40
1.0
 40
1.0
 40
1.0
 10
-0.8673682982
 20
-41.7665764488
 30
0.0
 10
-0.9907339922
 20
-41.8975664674
 30
0.0
 10
-1.2472540373
 20
-42.146563795
 30
0.0
 10
-1.6594485596
 20
-42.4834301886
 30
0.0
 10
-2.0950405148
 20
-42.7774773836
 30
0.0
 10
-2.5511168826
 20
-43.0273608782
 30
0.0
 10
-3.0237866434
 20
-43.2326098371
 30
0.0
 10
-3.508571403
 20
-43.3959331799
 30
0.0
 10
-4.0037411906
 20
-43.5152048678
 30
0.0
 10
-4.6760020495
 20
-43.6156619118
 30
0.0
 10
-5.5393953573
 20
-43.6293033466
 30
0.0
 10
-6.5820536722
 20
-43.4641637853
 30
0.0
 10
-7.619069105
 20
-43.1266493807
 30
0.0
 10
-8.2829086751
 20
-42.7990657744
 30
0.0
 10
-8.6089352297
 20
-42.6115039325
 30
0.0
  0
SPLINE
  5
597
100
AcDbEntity
  8
0
100
AcDbSpline
 62
250
  6
CONTINUOUS
 70
0
 71
3
 72
9
 73
5
 74
0
 42
0.0000001
 43
0.0000001
 44
0.0000000001
 40
0.0
 40
0.0
 40
0.0
 40
0.0
 40
0.2480107931
 40
1.0
 40
1.0
 40
1.0
 40
1.0
 10
2.2386944846
 20
-46.6224750925
 30
0.0
 10
1.9588666452
 20
-46.2365658201
 30
0.0
 10
0.8540286346
 20
-44.6636360159
 30
0.0
 10
-0.1582111968
 20
-43.0259957768
 30
0.0
 10
-0.8673682982
 20
-41.7665764488
 30
0.0
  0
SPLINE
  5
598
100
AcDbEntity
  8
0
100
AcDbSpline
 62
250
  6
CONTINUOUS
 70
0
 71
3
 72
17
 73
13
 74
0
 42
0.0000001
 43
0.0000001
 44
0.0000000001
 40
0.0
 40
0.0
 40
0.0
 40
0.0
 40
0.2566349166
 40
0.3833535623
 40
0.5090648496
 40
0.6337655351
 40
0.6957328465
 40
0.757507253
 40
0.8191205463
 40
0.8803085985
 40
0.9407516844
 40
1.0
 40
1.0
 40
1.0
 40
1.0
 10
2.2386944846
 20
-46.6224750925
 30
0.0
 10
2.1608396198
 20
-46.9043829512
 30
0.0
 10
2.0388894807
 20
-47.3239605694
 30
0.0
 10
1.8655520652
 20
-47.8776022832
 30
0.0
 10
1.7314880553
 20
-48.285951332
 30
0.0
 10
1.6154343145
 20
-48.6225059039
 30
0.0
 10
1.5200714318
 20
-48.889089293
 30
0.0
 10
1.4483152734
 20
-49.0877556422
 30
0.0
 10
1.3759968652
 20
-49.2852871287
 30
0.0
 10
1.2992760126
 20
-49.4795285749
 30
0.0
 10
1.2199491558
 20
-49.6698008504
 30
0.0
 10
1.1644995405
 20
-49.794429512
 30
0.0
 10
1.1370233792
 20
-49.8561054534
 30
0.0
  0
SPLINE
  5
599
100
AcDbEntity
  8
0
100
AcDbSpline
 62
250
  6
CONTINUOUS
 70
0
 71
3
 72
11
 73
7
 74
0
 42
0.0000001
 43
0.0000001
 44
0.0000000001
 40
0.0
 40
0.0
 40
0.0
 40
0.0
 40
0.2213911745
 40
0.4564322271
 40
0.7148120541
 40
1.0
 40
1.0
 40
1.0
 40
1.0
 10
-17.3553731715
 20
-0.4643343057
 30
0.0
 10
-17.3373418369
 20
-0.4518688747
 30
0.0
 10
-17.2954417482
 20
-0.4324820567
 30
0.0
 10
-17.2241770652
 20
-0.4242323091
 30
0.0
 10
-17.1472351697
 20
-0.4358526579
 30
0.0
 10
-17.0965897176
 20
-0.4551904438
 30
0.0
 10
-17.0711580664
 20
-0.4674616365
 30
0.0
  0
SPLINE
  5
59A
100
AcDbEntity
  8
0
100
AcDbSpline
 62
250
  6
CONTINUOUS
 70
0
 71
3
 72
15
 73
11
 74
0
 42
0.0000001
 43
0.0000001
 44
0.0000000001
 40
0.0
 40
0.0
 40
0.0
 40
0.0
 40
0.1230480431
 40
0.2396140322
 40
0.3530750577
 40
0.4674483231
 40
0.5867201279
 40
0.7140495622
 40
0.8515969397
 40
1.0
 40
1.0
 40
1.0
 40
1.0
 10
1.1370233792
 20
-49.8561054534
 30
0.0
 10
1.0888048471
 20
-49.964363599
 30
0.0
 10
0.9782454215
 20
-50.1687219293
 30
0.0
 10
0.7550848618
 20
-50.4291039809
 30
0.0
 10
0.4838343607
 20
-50.6255003303
 30
0.0
 10
0.1714584121
 20
-50.7529913334
 30
0.0
 10
-0.1744047019
 20
-50.8088378333
 30
0.0
 10
-0.5462524175
 20
-50.7935905601
 30
0.0
 10
-0.9367154544
 20
-50.7086876168
 30
0.0
 10
-1.1958327166
 20
-50.6125088874
 30
0.0
 10
-1.3263031076
 20
-50.5541412842
 30
0.0
  0
SPLINE
  5
59B
100
AcDbEntity
  8
0
100
AcDbSpline
 62
250
  6
CONTINUOUS
 70
0
 71
3
 72
10
 73
6
 74
0
 42
0.0000001
 43
0.0000001
 44
0.0000000001
 40
0.0
 40
0.0
 40
0.0
 40
0.0
 40
0.2583017717
 40
0.5123073288
 40
1.0
 40
1.0
 40
1.0
 40
1.0
 10
3.688072294
 20
-37.9319174563
 30
0.0
 10
3.6292570819
 20
-38.6891428485
 30
0.0
 10
3.4806750115
 20
-40.1888121461
 30
0.0
 10
3.068219166
 20
-43.1003697867
 30
0.0
 10
2.6180587625
 20
-45.2395622767
 30
0.0
 10
2.2386944846
 20
-46.6224750925
 30
0.0
  0
SPLINE
  5
59C
100
AcDbEntity
  8
0
100
AcDbSpline
 62
250
  6
CONTINUOUS
 70
0
 71
3
 72
11
 73
7
 74
0
 42
0.0000001
 43
0.0000001
 44
0.0000000001
 40
0.0
 40
0.0
 40
0.0
 40
0.0
 40
0.2177804605
 40
0.4509076931
 40
0.7102935849
 40
1.0
 40
1.0
 40
1.0
 40
1.0
 10
-13.737803075
 20
1.8197651553
 30
0.0
 10
-13.7213096383
 20
1.8292882712
 30
0.0
 10
-13.6834120912
 20
1.8430415233
 30
0.0
 10
-13.6204650299
 20
1.8446326082
 30
0.0
 10
-13.5533783854
 20
1.8284292477
 30
0.0
 10
-13.5097316959
 20
1.8076628522
 30
0.0
 10
-13.487790995
 20
1.7949945664
 30
0.0
  0
SPLINE
  5
59D
100
AcDbEntity
  8
0
100
AcDbSpline
 62
250
  6
CONTINUOUS
 70
0
 71
3
 72
14
 73
10
 74
0
 42
0.0000001
 43
0.0000001
 44
0.0000000001
 40
0.0
 40
0.0
 40
0.0
 40
0.0
 40
0.2555372068
 40
0.3818667323
 40
0.507388295
 40
0.6319621917
 40
0.7554519878
 40
0.8780141307
 40
1.0
 40
1.0
 40
1.0
 40
1.0
 10
1.1421749602
 20
-36.4754827566
 30
0.0
 10
1.1497345231
 20
-36.9687655338
 30
0.0
 10
1.085227137
 20
-37.709581364
 30
0.0
 10
0.8615186272
 20
-38.6640883614
 30
0.0
 10
0.6337579576
 20
-39.3552966195
 30
0.0
 10
0.3468955282
 20
-40.0181408661
 30
0.0
 10
0.0006467918
 20
-40.6456417612
 30
0.0
 10
-0.403063658
 20
-41.2317283207
 30
0.0
 10
-0.7080468914
 20
-41.593141
 30
0.0
 10
-0.8673682982
 20
-41.7665764488
 30
0.0
  0
LINE
  5
59E
100
AcDbEntity
  8
0
100
AcDbLine
 62
250
  6
CONTINUOUS
 10
1.14209146
 20
-36.47027851
 11
1.1421884921
 21
-36.4619960141
  0
SPLINE
  5
59F
100
AcDbEntity
  8
0
100
AcDbSpline
 62
250
  6
CONTINUOUS
 70
0
 71
3
 72
14
 73
10
 74
0
 42
0.0000001
 43
0.0000001
 44
0.0000000001
 40
0.0
 40
0.0
 40
0.0
 40
0.0
 40
0.2466453685
 40
0.4955943791
 40
0.6209020861
 40
0.7467454535
 40
0.8731052945
 40
0.9364696175
 40
1.0
 40
1.0
 40
1.0
 40
1.0
 10
-6.9521614748
 20
-47.6319818805
 30
0.0
 10
-7.4027259216
 20
-47.3692142617
 30
0.0
 10
-8.3031171751
 20
-46.8326982798
 30
0.0
 10
-9.4186369587
 20
-46.1399563619
 30
0.0
 10
-10.3094785573
 20
-45.5699589734
 30
0.0
 10
-10.9781714297
 20
-45.1338337123
 30
0.0
 10
-11.5338647761
 20
-44.7642922372
 30
0.0
 10
-11.9780896832
 20
-44.4651355397
 30
0.0
 10
-12.2000690205
 20
-44.3143453832
 30
0.0
 10
-12.3107899744
 20
-44.2382485039
 30
0.0
  0
SPLINE
  5
5A0
100
AcDbEntity
  8
0
100
AcDbSpline
 62
250
  6
CONTINUOUS
 70
0
 71
3
 72
11
 73
7
 74
0
 42
0.0000001
 43
0.0000001
 44
0.0000000001
 40
0.0
 40
0.0
 40
0.0
 40
0.0
 40
0.2177904061
 40
0.4509307997
 40
0.7102719434
 40
1.0
 40
1.0
 40
1.0
 40
1.0
 10
-17.6874882957
 20
-21.2276376716
 30
0.0
 10
-17.6874978079
 20
-21.2657294719
 30
0.0
 10
-17.6734110203
 20
-21.3451265488
 30
0.0
 10
-17.6132310754
 20
-21.4557410725
 30
0.0
 10
-17.5180959034
 20
-21.5557473338
 30
0.0
 10
-17.4384832044
 20
-21.6105741492
 30
0.0
 10
-17.3945991286
 20
-21.6359122646
 30
0.0
  0
SPLINE
  5
5A1
100
AcDbEntity
  8
0
100
AcDbSpline
 62
250
  6
CONTINUOUS
 70
0
 71
3
 72
12
 73
8
 74
0
 42
0.0000001
 43
0.0000001
 44
0.0000000001
 40
0.0
 40
0.0
 40
0.0
 40
0.0
 40
0.1140952148
 40
0.2340763028
 40
0.4867815991
 40
0.7464620286
 40
1.0
 40
1.0
 40
1.0
 40
1.0
 10
-12.5291128303
 20
-44.0857793546
 30
0.0
 10
-12.6646543645
 20
-43.9893037971
 30
0.0
 10
-12.9317602152
 20
-43.775723822
 30
0.0
 10
-13.4451439899
 20
-43.2845602819
 30
0.0
 10
-14.027823829
 20
-42.5642282202
 30
0.0
 10
-14.5948441151
 20
-41.5977703596
 30
0.0
 10
-14.8751125155
 20
-40.9001399638
 30
0.0
 10
-14.9853418462
 20
-40.547253833
 30
0.0
  0
SPLINE
  5
5A2
100
AcDbEntity
  8
0
100
AcDbSpline
 62
250
  6
CONTINUOUS
 70
0
 71
3
 72
14
 73
10
 74
0
 42
0.0000001
 43
0.0000001
 44
0.0000000001
 40
0.0
 40
0.0
 40
0.0
 40
0.0
 40
0.1270637372
 40
0.2530657351
 40
0.3786296098
 40
0.5037963857
 40
0.6285128992
 40
0.7527910487
 40
1.0
 40
1.0
 40
1.0
 40
1.0
 10
-15.0296751912
 20
-40.4023040606
 30
0.0
 10
-15.0838408751
 20
-40.2214621873
 30
0.0
 10
-15.183498616
 20
-39.8588375508
 30
0.0
 10
-15.3212033694
 20
-39.3134266036
 30
0.0
 10
-15.4563095698
 20
-38.7702559321
 30
0.0
 10
-15.5854354215
 20
-38.227593584
 30
0.0
 10
-15.7093632035
 20
-37.6856813497
 30
0.0
 10
-15.8672255242
 20
-36.9655616897
 30
0.0
 10
-15.9777490791
 20
-36.4247721519
 30
0.0
 10
-16.047603064
 20
-36.0641960691
 30
0.0
  0
SPLINE
  5
5A3
100
AcDbEntity
  8
0
100
AcDbSpline
 62
250
  6
CONTINUOUS
 70
0
 71
3
 72
9
 73
5
 74
0
 42
0.0000001
 43
0.0000001
 44
0.0000000001
 40
0.0
 40
0.0
 40
0.0
 40
0.0
 40
0.4788854396
 40
1.0
 40
1.0
 40
1.0
 40
1.0
 10
-12.3918252156
 20
-44.2858262852
 30
0.0
 10
-12.4242046408
 20
-44.2635466273
 30
0.0
 10
-12.4829200672
 20
-44.2031011185
 30
0.0
 10
-12.5168501306
 20
-44.1267536974
 30
0.0
 10
-12.5291127981
 20
-44.085779326
 30
0.0
  0
SPLINE
  5
5A4
100
AcDbEntity
  8
0
100
AcDbSpline
 62
250
  6
CONTINUOUS
 70
0
 71
3
 72
9
 73
5
 74
0
 42
0.0000001
 43
0.0000001
 44
0.0000000001
 40
0.0
 40
0.0
 40
0.0
 40
0.0
 40
0.4693124162
 40
1.0
 40
1.0
 40
1.0
 40
1.0
 10
-16.047603064
 20
-36.0641960691
 30
0.0
 10
-15.7546772255
 20
-35.7537308022
 30
0.0
 10
-15.1311286003
 20
-35.0916236545
 30
0.0
 10
-14.5024315222
 20
-34.4343692864
 30
0.0
 10
-14.166429494
 20
-34.0878632913
 30
0.0
  0
SPLINE
  5
5A5
100
AcDbEntity
  8
0
100
AcDbSpline
 62
250
  6
CONTINUOUS
 70
0
 71
3
 72
16
 73
12
 74
0
 42
0.0000001
 43
0.0000001
 44
0.0000000001
 40
0.0
 40
0.0
 40
0.0
 40
0.0
 40
0.2269564423
 40
0.347770327
 40
0.4728759396
 40
0.6014325597
 40
0.7326770735
 40
0.7991063619
 40
0.8659191636
 40
0.932942917
 40
1.0
 40
1.0
 40
1.0
 40
1.0
 10
-8.60893523
 20
-42.611503931
 30
0.0
 10
-9.2945125141
 20
-42.2146750044
 30
0.0
 10
-10.264703043
 20
-41.4588961565
 30
0.0
 10
-11.3803137138
 20
-40.2403457258
 30
0.0
 10
-12.1555730903
 20
-39.1845130617
 30
0.0
 10
-12.8339068679
 20
-38.0223646773
 30
0.0
 10
-13.3077986888
 20
-36.9847828848
 30
0.0
 10
-13.6288007725
 20
-36.1189629198
 30
0.0
 10
-13.8410479108
 20
-35.4526942769
 30
0.0
 10
-14.0221953571
 20
-34.775080395
 30
0.0
 10
-14.1221708845
 20
-34.3176887572
 30
0.0
 10
-14.166429494
 20
-34.0878632913
 30
0.0
  0
SPLINE
  5
5A6
100
AcDbEntity
  8
0
100
AcDbSpline
 62
250
  6
CONTINUOUS
 70
0
 71
3
 72
9
 73
5
 74
0
 42
0.0000001
 43
0.0000001
 44
0.0000000001
 40
0.0
 40
0.0
 40
0.0
 40
0.0
 40
0.4592310461
 40
1.0
 40
1.0
 40
1.0
 40
1.0
 10
-15.0762531988
 20
-40.4496982522
 30
0.0
 10
-15.0703200108
 20
-40.4696686795
 30
0.0
 10
-15.0453360647
 20
-40.5098308565
 30
0.0
 10
-15.0070508081
 20
-40.5358368293
 30
0.0
 10
-14.9853358596
 20
-40.5472511936
 30
0.0
  0
SPLINE
  5
5A7
100
AcDbEntity
  8
0
100
AcDbSpline
 62
250
  6
CONTINUOUS
 70
0
 71
3
 72
11
 73
7
 74
0
 42
0.0000001
 43
0.0000001
 44
0.0000000001
 40
0.0
 40
0.0
 40
0.0
 40
0.0
 40
0.2567434272
 40
0.5089863167
 40
0.7567804022
 40
1.0
 40
1.0
 40
1.0
 40
1.0
 10
-16.047603064
 20
-36.0641960691
 30
0.0
 10
-16.2146597094
 20
-35.1991668375
 30
0.0
 10
-16.5100532912
 20
-33.4771070209
 30
0.0
 10
-16.84114564
 20
-30.9007621003
 30
0.0
 10
-17.0772036049
 20
-28.3608693842
 30
0.0
 10
-17.1931439924
 20
-26.679826842
 30
0.0
 10
-17.2427679057
 20
-25.846697548
 30
0.0
  0
SPLINE
  5
5A8
100
AcDbEntity
  8
0
100
AcDbSpline
 62
250
  6
CONTINUOUS
 70
0
 71
3
 72
18
 73
14
 74
0
 42
0.0000001
 43
0.0000001
 44
0.0000000001
 40
0.0
 40
0.0
 40
0.0
 40
0.0
 40
0.1286502481
 40
0.2702065548
 40
0.4173243074
 40
0.5616331516
 40
0.6952683531
 40
0.7562744109
 40
0.8127656531
 40
0.8647156576
 40
0.912535846
 40
0.9571524381
 40
1.0
 40
1.0
 40
1.0
 40
1.0
 10
-6.4237942509
 20
-33.726393501
 30
0.0
 10
-6.6458493999
 20
-33.598181641
 30
0.0
 10
-7.076899639
 20
-33.2664605326
 30
0.0
 10
-7.6286240353
 20
-32.6388180061
 30
0.0
 10
-8.0828019285
 20
-31.9000544949
 30
0.0
 10
-8.4017366799
 20
-31.1110279871
 30
0.0
 10
-8.5378649128
 20
-30.4438169051
 30
0.0
 10
-8.5507500679
 20
-29.9422707349
 30
0.0
 10
-8.5143975241
 20
-29.6053237125
 30
0.0
 10
-8.432780638
 20
-29.3032218279
 30
0.0
 10
-8.3067189734
 20
-29.0423095633
 30
0.0
 10
-8.138011955
 20
-28.8289669197
 30
0.0
 10
-7.9978242303
 20
-28.721648127
 30
0.0
 10
-7.9238649946
 20
-28.6789513153
 30
0.0
  0
SPLINE
  5
5A9
100
AcDbEntity
  8
0
100
AcDbSpline
 62
250
  6
CONTINUOUS
 70
0
 71
3
 72
9
 73
5
 74
0
 42
0.0000001
 43
0.0000001
 44
0.0000000001
 40
0.0
 40
0.0
 40
0.0
 40
0.0
 40
0.2052795011
 40
1.0
 40
1.0
 40
1.0
 40
1.0
 10
-14.6968837739
 20
-27.3167141979
 30
0.0
 10
-14.6968865776
 20
-27.3172926612
 30
0.0
 10
-14.6968766671
 20
-27.3195359787
 30
0.0
 10
-14.6971456687
 20
-27.3273773717
 30
0.0
 10
-14.6967846923
 20
-27.3251671623
 30
0.0
  0
SPLINE
  5
5AA
100
AcDbEntity
  8
0
100
AcDbSpline
 62
250
  6
CONTINUOUS
 70
0
 71
3
 72
10
 73
6
 74
0
 42
0.0000001
 43
0.0000001
 44
0.0000000001
 40
0.0
 40
0.0
 40
0.0
 40
0.0
 40
0.2208634699
 40
0.4550880177
 40
1.0
 40
1.0
 40
1.0
 40
1.0
 10
-16.1633720176
 20
-35.9283715139
 30
0.0
 10
-16.1606764101
 20
-35.9416022149
 30
0.0
 10
-16.1512545678
 20
-35.9682142336
 30
0.0
 10
-16.1162993377
 20
-36.0190089165
 30
0.0
 10
-16.0766523763
 20
-36.0478893452
 30
0.0
 10
-16.0476030527
 20
-36.0641960647
 30
0.0
  0
SPLINE
  5
5AB
100
AcDbEntity
  8
0
100
AcDbSpline
 62
250
  6
CONTINUOUS
 70
0
 71
3
 72
15
 73
11
 74
0
 42
0.0000001
 43
0.0000001
 44
0.0000000001
 40
0.0
 40
0.0
 40
0.0
 40
0.0
 40
0.1334278313
 40
0.2657933194
 40
0.3963988998
 40
0.5246028417
 40
0.6498339387
 40
0.7714418703
 40
0.8884977192
 40
1.0
 40
1.0
 40
1.0
 40
1.0
 10
-14.166429494
 20
-34.0878632913
 30
0.0
 10
-14.2222414875
 20
-33.7910883235
 30
0.0
 10
-14.3253581487
 20
-33.1983370062
 30
0.0
 10
-14.4512820172
 20
-32.30992708
 30
0.0
 10
-14.5475223806
 20
-31.4297070188
 30
0.0
 10
-14.6159561569
 20
-30.563123147
 30
0.0
 10
-14.6621018717
 20
-29.7155100026
 30
0.0
 10
-14.6911512066
 20
-28.8923937358
 30
0.0
 10
-14.7033170464
 20
-28.0999367514
 30
0.0
 10
-14.7011811592
 20
-27.5826123103
 30
0.0
 10
-14.6968799009
 20
-27.3302940417
 30
0.0
  0
SPLINE
  5
5AC
100
AcDbEntity
  8
0
100
AcDbSpline
 62
250
  6
CONTINUOUS
 70
0
 71
3
 72
31
 73
27
 74
0
 42
0.0000001
 43
0.0000001
 44
0.0000000001
 40
0.0
 40
0.0
 40
0.0
 40
0.0
 40
0.0131278616
 40
0.0259271886
 40
0.0508447225
 40
0.075096204
 40
0.0988886543
 40
0.1456324406
 40
0.1924015686
 40
0.2411711007
 40
0.2933791497
 40
0.3498643404
 40
0.410904632
 40
0.4764109383
 40
0.5459282485
 40
0.6188106231
 40
0.6942195237
 40
0.7325897066
 40
0.7712302683
 40
0.8100053354
 40
0.8487664339
 40
0.8873504892
 40
0.9255804
 40
0.9632509654
 40
0.9817860288
 40
1.0
 40
1.0
 40
1.0
 40
1.0
 10
0.6949469713
 20
-37.6516365386
 30
0.0
 10
0.6653279726
 20
-37.7425288957
 30
0.0
 10
0.5957785696
 20
-37.9184705532
 30
0.0
 10
0.4332610677
 20
-38.2513576797
 30
0.0
 10
0.1954631772
 20
-38.6364693145
 30
0.0
 10
-0.1390528985
 20
-39.0510931722
 30
0.0
 10
-0.637745564
 20
-39.5303386126
 30
0.0
 10
-1.3640779287
 20
-40.0008006335
 30
0.0
 10
-2.3647775013
 20
-40.3107547022
 30
0.0
 10
-3.4472048522
 20
-40.3782651823
 30
0.0
 10
-4.5889183536
 20
-40.2137922353
 30
0.0
 10
-5.7682203829
 20
-39.8268681062
 30
0.0
 10
-6.9645836582
 20
-39.2302547584
 30
0.0
 10
-8.1543996852
 20
-38.4351734758
 30
0.0
 10
-9.3153627179
 20
-37.4591350967
 30
0.0
 10
-10.4221672866
 20
-36.319679666
 30
0.0
 10
-11.2745570145
 20
-35.2581269229
 30
0.0
 10
-11.9075420826
 20
-34.3460046849
 30
0.0
 10
-12.3543761187
 20
-33.6305305239
 30
0.0
 10
-12.7635214803
 20
-32.8896216124
 30
0.0
 10
-13.1365644822
 20
-32.1304621322
 30
0.0
 10
-13.4747595169
 20
-31.3595026142
 30
0.0
 10
-13.7764467485
 20
-30.5820661567
 30
0.0
 10
-13.9966667559
 20
-29.9303029328
 30
0.0
 10
-14.1507350194
 20
-29.4107040334
 30
0.0
 10
-14.219083237
 20
-29.1518826376
 30
0.0
 10
-14.2496423656
 20
-29.0228176679
 30
0.0
  0
SPLINE
  5
5AD
100
AcDbEntity
  8
0
100
AcDbSpline
 62
250
  6
CONTINUOUS
 70
0
 71
3
 72
20
 73
16
 74
0
 42
0.0000001
 43
0.0000001
 44
0.0000000001
 40
0.0
 40
0.0
 40
0.0
 40
0.0
 40
0.0042523455
 40
0.0084378211
 40
0.0167785362
 40
0.0334278538
 40
0.0665832939
 40
0.1323299646
 40
0.2615198759
 40
0.3879437001
 40
0.5122070293
 40
0.6349215416
 40
0.756677966
 40
0.8781566258
 40
1.0
 40
1.0
 40
1.0
 40
1.0
 10
1.141643675
 20
-36.4747782417
 30
0.0
 10
1.1415340361
 20
-36.4823743682
 30
0.0
 10
1.141983468
 20
-36.4974500599
 30
0.0
 10
1.1412155425
 20
-36.5274207609
 30
0.0
 10
1.140060029
 20
-36.5795277723
 30
0.0
 10
1.136387828
 20
-36.6833475211
 30
0.0
 10
1.1249152871
 20
-36.8894887395
 30
0.0
 10
1.0850439265
 20
-37.295215825
 30
0.0
 10
0.9790792318
 20
-37.8609791404
 30
0.0
 10
0.7741001318
 20
-38.5096007361
 30
0.0
 10
0.4997786347
 20
-39.1193060506
 30
0.0
 10
0.1616104342
 20
-39.6863164691
 30
0.0
 10
-0.2358484128
 20
-40.2071541482
 30
0.0
 10
-0.6867647157
 20
-40.6800415341
 30
0.0
 10
-1.01703313
 20
-40.9637100762
 30
0.0
 10
-1.1875382523
 20
-41.099027839
 30
0.0
  0
SPLINE
  5
5AE
100
AcDbEntity
  8
0
100
AcDbSpline
 62
250
  6
CONTINUOUS
 70
0
 71
3
 72
17
 73
13
 74
0
 42
0.0000001
 43
0.0000001
 44
0.0000000001
 40
0.0
 40
0.0
 40
0.0
 40
0.0
 40
0.061545409
 40
0.1227812799
 40
0.2447106065
 40
0.3055172375
 40
0.3661992164
 40
0.487711732
 40
0.6106030605
 40
0.7362796737
 40
0.8657825178
 40
1.0
 40
1.0
 40
1.0
 40
1.0
 10
-1.1875382523
 20
-41.099027839
 30
0.0
 10
-1.310226189
 20
-41.1963983308
 30
0.0
 10
-1.5621956048
 20
-41.3816781353
 30
0.0
 10
-2.0848344151
 20
-41.7207498668
 30
0.0
 10
-2.6384589426
 20
-42.0070646067
 30
0.0
 10
-3.2169478728
 20
-42.2301641514
 30
0.0
 10
-3.8102354097
 20
-42.4066000945
 30
0.0
 10
-4.5788467353
 20
-42.5398300983
 30
0.0
 10
-5.5246555172
 20
-42.5471093678
 30
0.0
 10
-6.4800250077
 20
-42.4041671492
 30
0.0
 10
-7.4301071614
 20
-42.110273449
 30
0.0
 10
-8.0379975805
 20
-41.8193226378
 30
0.0
 10
-8.3349373579
 20
-41.6504933841
 30
0.0
  0
SPLINE
  5
5AF
100
AcDbEntity
  8
0
100
AcDbSpline
 62
250
  6
CONTINUOUS
 70
0
 71
3
 72
17
 73
13
 74
0
 42
0.0000001
 43
0.0000001
 44
0.0000000001
 40
0.0
 40
0.0
 40
0.0
 40
0.0
 40
0.2278440234
 40
0.3486591588
 40
0.4735150628
 40
0.5373040531
 40
0.6018687019
 40
0.6671151672
 40
0.7329471523
 40
0.8659290837
 40
0.9328819707
 40
1.0
 40
1.0
 40
1.0
 40
1.0
 10
-8.3349373579
 20
-41.6504933841
 30
0.0
 10
-8.9585946792
 20
-41.2845964586
 30
0.0
 10
-9.8334178296
 20
-40.5825915318
 30
0.0
 10
-10.8393332507
 20
-39.4650645795
 30
0.0
 10
-11.4218527498
 20
-38.6718882035
 30
0.0
 10
-11.8499653419
 20
-37.9916396311
 30
0.0
 10
-12.1538203318
 20
-37.457402146
 30
0.0
 10
-12.4376934764
 20
-36.9050038299
 30
0.0
 10
-12.7888272986
 20
-36.1439012883
 30
0.0
 10
-13.1006433798
 20
-35.3594777359
 30
0.0
 10
-13.3794096447
 20
-34.5590970413
 30
0.0
 10
-13.5088386022
 20
-34.1536899049
 30
0.0
 10
-13.5698752897
 20
-33.9496215407
 30
0.0
  0
SPLINE
  5
5B0
100
AcDbEntity
  8
0
100
AcDbSpline
 62
250
  6
CONTINUOUS
 70
0
 71
3
 72
21
 73
17
 74
0
 42
0.0000001
 43
0.0000001
 44
0.0000000001
 40
0.0
 40
0.0
 40
0.0
 40
0.0
 40
0.2632453298
 40
0.3937554827
 40
0.5224682357
 40
0.6485009785
 40
0.7708544958
 40
0.8302940861
 40
0.8883772938
 40
0.9168764191
 40
0.9449969996
 40
0.9727254784
 40
0.9864374692
 40
0.9932555908
 40
0.9966489734
 40
1.0
 40
1.0
 40
1.0
 40
1.0
 10
-13.5698752897
 20
-33.9496215407
 30
0.0
 10
-13.7392411307
 20
-33.3834039359
 30
0.0
 10
-13.9734248017
 20
-32.5303501742
 30
0.0
 10
-14.2293035802
 20
-31.3854311262
 30
0.0
 10
-14.3894852461
 20
-30.5352889343
 30
0.0
 10
-14.5177127311
 20
-29.6982753234
 30
0.0
 10
-14.5977048022
 20
-29.0116451981
 30
0.0
 10
-14.6440675388
 20
-28.4750732759
 30
0.0
 10
-14.6656448173
 20
-28.1479294303
 30
0.0
 10
-14.6788537752
 20
-27.890749388
 30
0.0
 10
-14.6868102828
 20
-27.7015447066
 30
0.0
 10
-14.6918345773
 20
-27.545456231
 30
0.0
 10
-14.6947132472
 20
-27.4371457837
 30
0.0
 10
-14.6957214529
 20
-27.3834500907
 30
0.0
 10
-14.6966563175
 20
-27.3530061722
 30
0.0
 10
-14.6959403121
 20
-27.3378631827
 30
0.0
 10
-14.6961049058
 20
-27.3303416812
 30
0.0
  0
SPLINE
  5
5B1
100
AcDbEntity
  8
0
100
AcDbSpline
 62
250
  6
CONTINUOUS
 70
0
 71
3
 72
10
 73
6
 74
0
 42
0.0000001
 43
0.0000001
 44
0.0000000001
 40
0.0
 40
0.0
 40
0.0
 40
0.0
 40
0.2349503287
 40
0.476795094
 40
1.0
 40
1.0
 40
1.0
 40
1.0
 10
-1.1165591114
 20
-50.7957533466
 30
0.0
 10
-1.1396950663
 20
-50.7848157846
 30
0.0
 10
-1.1843804165
 20
-50.7574125109
 30
0.0
 10
-1.2636763812
 20
-50.6818402724
 30
0.0
 10
-1.3055893832
 20
-50.6072316045
 30
0.0
 10
-1.3263030732
 20
-50.5541412485
 30
0.0
  0
SPLINE
  5
5B2
100
AcDbEntity
  8
0
100
AcDbSpline
 62
250
  6
CONTINUOUS
 70
0
 71
3
 72
10
 73
6
 74
0
 42
0.0000001
 43
0.0000001
 44
0.0000000001
 40
0.0
 40
0.0
 40
0.0
 40
0.0
 40
0.1789111078
 40
0.4126913177
 40
1.0
 40
1.0
 40
1.0
 40
1.0
 10
-14.166429494
 20
-34.0878632913
 30
0.0
 10
-14.1303842891
 20
-34.0819415777
 30
0.0
 10
-14.0476633459
 20
-34.0657611618
 30
0.0
 10
-13.8483823189
 20
-34.0213290567
 30
0.0
 10
-13.6858241998
 20
-33.9801918152
 30
0.0
 10
-13.5698752897
 20
-33.9496215407
 30
0.0
  0
SPLINE
  5
5B3
100
AcDbEntity
  8
0
100
AcDbSpline
 62
250
  6
CONTINUOUS
 70
0
 71
3
 72
9
 73
5
 74
0
 42
0.0000001
 43
0.0000001
 44
0.0000000001
 40
0.0
 40
0.0
 40
0.0
 40
0.0
 40
0.2683280372
 40
1.0
 40
1.0
 40
1.0
 40
1.0
 10
-0.8673682982
 20
-41.7665764488
 30
0.0
 10
-0.9133474183
 20
-41.7179859329
 30
0.0
 10
-1.0707789362
 20
-41.5254053268
 30
0.0
 10
-1.175378806
 20
-41.2810337756
 30
0.0
 10
-1.1875382523
 20
-41.099027839
 30
0.0
  0
SPLINE
  5
5B4
100
AcDbEntity
  8
0
100
AcDbSpline
 62
250
  6
CONTINUOUS
 70
0
 71
3
 72
12
 73
8
 74
0
 42
0.0000001
 43
0.0000001
 44
0.0000000001
 40
0.0
 40
0.0
 40
0.0
 40
0.0
 40
0.2714178402
 40
0.4056945989
 40
0.5366930028
 40
0.7825328603
 40
1.0
 40
1.0
 40
1.0
 40
1.0
 10
-8.334937825
 20
-41.6504929289
 30
0.0
 10
-8.3896652216
 20
-41.7250682445
 30
0.0
 10
-8.4615150234
 20
-41.8444556272
 30
0.0
 10
-8.5326691092
 20
-42.0131371378
 30
0.0
 10
-8.5873387384
 20
-42.1787038299
 30
0.0
 10
-8.6259065443
 20
-42.3787050331
 30
0.0
 10
-8.6219976319
 20
-42.5385571106
 30
0.0
 10
-8.608947893
 20
-42.6115140106
 30
0.0
  0
SPLINE
  5
5B5
100
AcDbEntity
  8
0
100
AcDbSpline
 62
250
  6
CONTINUOUS
 70
0
 71
3
 72
11
 73
7
 74
0
 42
0.0000001
 43
0.0000001
 44
0.0000000001
 40
0.0
 40
0.0
 40
0.0
 40
0.0
 40
0.2425585104
 40
0.5053448986
 40
0.76525162
 40
1.0
 40
1.0
 40
1.0
 40
1.0
 10
5.1882613301
 20
-13.7644052763
 30
0.0
 10
5.086889388
 20
-13.8133189163
 30
0.0
 10
4.8598242343
 20
-13.8830205011
 30
0.0
 10
4.5034160015
 20
-13.9107171117
 30
0.0
 10
4.1524516897
 20
-13.8656002116
 30
0.0
 10
3.934239902
 20
-13.7841007711
 30
0.0
 10
3.8399038456
 20
-13.7296323143
 30
0.0
  0
SPLINE
  5
5B6
100
AcDbEntity
  8
0
100
AcDbSpline
 62
250
  6
CONTINUOUS
 70
0
 71
3
 72
11
 73
7
 74
0
 42
0.0000001
 43
0.0000001
 44
0.0000000001
 40
0.0
 40
0.0
 40
0.0
 40
0.0
 40
0.2399947406
 40
0.5004058008
 40
0.7606044362
 40
1.0
 40
1.0
 40
1.0
 40
1.0
 10
3.688513713
 20
-37.9322122837
 30
0.0
 10
3.7812314016
 20
-37.9950301059
 30
0.0
 10
3.9966174732
 20
-38.0941573792
 30
0.0
 10
4.3480211977
 20
-38.1613840861
 30
0.0
 10
4.7053043473
 20
-38.1494667397
 30
0.0
 10
4.9331070869
 20
-38.0849930615
 30
0.0
 10
5.0341193228
 20
-38.0372790557
 30
0.0
  0
SPLINE
  5
5B7
100
AcDbEntity
  8
0
100
AcDbSpline
 62
250
  6
CONTINUOUS
 70
0
 71
3
 72
11
 73
7
 74
0
 42
0.0000001
 43
0.0000001
 44
0.0000000001
 40
0.0
 40
0.0
 40
0.0
 40
0.0
 40
0.2425585104
 40
0.5053448986
 40
0.76525162
 40
1.0
 40
1.0
 40
1.0
 40
1.0
 10
5.1882613301
 20
-33.9312211131
 30
0.0
 10
5.086889388
 20
-33.980134753
 30
0.0
 10
4.8598242343
 20
-34.0498363379
 30
0.0
 10
4.5034160015
 20
-34.0775329485
 30
0.0
 10
4.1524516897
 20
-34.0324160484
 30
0.0
 10
3.934239902
 20
-33.9509166078
 30
0.0
 10
3.8399038456
 20
-33.8964481511
 30
0.0
  0
SPLINE
  5
5B8
100
AcDbEntity
  8
0
100
AcDbSpline
 62
250
  6
CONTINUOUS
 70
0
 71
3
 72
11
 73
7
 74
0
 42
0.0000001
 43
0.0000001
 44
0.0000000001
 40
0.0
 40
0.0
 40
0.0
 40
0.0
 40
0.2300404067
 40
0.4797629164
 40
0.7402595096
 40
1.0
 40
1.0
 40
1.0
 40
1.0
 10
3.3497795866
 20
-46.7299869708
 30
0.0
 10
3.2689046012
 20
-46.7657393278
 30
0.0
 10
3.0878638721
 20
-46.813480755
 30
0.0
 10
2.801016123
 20
-46.8161988351
 30
0.0
 10
2.5092931633
 20
-46.7548171581
 30
0.0
 10
2.3248230365
 20
-46.6729745196
 30
0.0
 10
2.2386944838
 20
-46.6224750934
 30
0.0
  0
SPLINE
  5
5B9
100
AcDbEntity
  8
0
100
AcDbSpline
 62
250
  6
CONTINUOUS
 70
0
 71
3
 72
11
 73
7
 74
0
 42
0.0000001
 43
0.0000001
 44
0.0000000001
 40
0.0
 40
0.0
 40
0.0
 40
0.0
 40
0.231717
 40
0.4801538775
 40
0.739181316
 40
1.0
 40
1.0
 40
1.0
 40
1.0
 10
2.209562513
 20
-49.956035012
 30
0.0
 10
2.1314152162
 20
-49.9924301596
 30
0.0
 10
1.9569274915
 20
-50.0422769974
 30
0.0
 10
1.6794628623
 20
-50.0475691444
 30
0.0
 10
1.3976676677
 20
-49.9874976747
 30
0.0
 10
1.2201199889
 20
-49.9062107737
 30
0.0
 10
1.1370251258
 20
-49.8561032485
 30
0.0
  0
SPLINE
  5
5BA
100
AcDbEntity
  8
0
100
AcDbSpline
 62
250
  6
CONTINUOUS
 70
0
 71
3
 72
9
 73
5
 74
0
 42
0.0000001
 43
0.0000001
 44
0.0000000001
 40
0.0
 40
0.0
 40
0.0
 40
0.0
 40
0.5133986991
 40
1.0
 40
1.0
 40
1.0
 40
1.0
 10
-6.9521614671
 20
-47.6319818719
 30
0.0
 10
-6.9356048074
 20
-47.6632289461
 30
0.0
 10
-6.8959887677
 20
-47.7206637509
 30
0.0
 10
-6.8415154658
 20
-47.7647022507
 30
0.0
 10
-6.8125255989
 20
-47.7815235018
 30
0.0
  0
SPLINE
  5
5BB
100
AcDbEntity
  8
0
100
AcDbSpline
 62
250
  6
CONTINUOUS
 70
0
 71
3
 72
11
 73
7
 74
0
 42
0.0000001
 43
0.0000001
 44
0.0000000001
 40
0.0
 40
0.0
 40
0.0
 40
0.0
 40
0.2957058371
 40
0.5566811006
 40
0.7874202916
 40
1.0
 40
1.0
 40
1.0
 40
1.0
 10
-17.243208996
 20
-25.8464979276
 30
0.0
 10
-17.2845101716
 20
-25.8266726702
 30
0.0
 10
-17.3597305366
 20
-25.7834384082
 30
0.0
 10
-17.4520610427
 20
-25.7021259817
 30
0.0
 10
-17.5134739
 20
-25.6100963952
 30
0.0
 10
-17.5312652849
 20
-25.5420303282
 30
0.0
 10
-17.5335818468
 20
-25.5091774576
 30
0.0
  0
SPLINE
  5
5BC
100
AcDbEntity
  8
0
100
AcDbSpline
 62
250
  6
CONTINUOUS
 70
0
 71
3
 72
11
 73
7
 74
0
 42
0.0000001
 43
0.0000001
 44
0.0000000001
 40
0.0
 40
0.0
 40
0.0
 40
0.0
 40
0.2897280566
 40
0.5490692003
 40
0.7822095939
 40
1.0
 40
1.0
 40
1.0
 40
1.0
 10
-17.3945991286
 20
-1.4690964278
 30
0.0
 10
-17.4384832045
 20
-1.4437583125
 30
0.0
 10
-17.5180959034
 20
-1.388931497
 30
0.0
 10
-17.6132310754
 20
-1.2889252357
 30
0.0
 10
-17.6734110203
 20
-1.178310712
 30
0.0
 10
-17.6874978079
 20
-1.0989136351
 30
0.0
 10
-17.6874882957
 20
-1.0608218349
 30
0.0
  0
SPLINE
  5
5BD
100
AcDbEntity
  8
0
100
AcDbSpline
 62
7
  6
CONTINUOUS
 70
0
 71
3
 72
10
 73
6
 74
0
 42
0.0000001
 43
0.0000001
 44
0.0000000001
 40
0.0
 40
0.0
 40
0.0
 40
0.0
 40
0.2500548668
 40
0.4997798685
 40
1.0
 40
1.0
 40
1.0
 40
1.0
 10
-1.3964632917
 20
-17.5787813723
 30
0.0
 10
-1.413712693
 20
-17.4954879883
 30
0.0
 10
-1.447047575
 20
-17.3287766102
 30
0.0
 10
-1.5134745388
 20
-16.995158974
 30
0.0
 10
-1.5636764727
 20
-16.745035586
 30
0.0
 10
-1.5982737475
 20
-16.5784308859
 30
0.0
  0
SPLINE
  5
5BE
100
AcDbEntity
  8
0
100
AcDbSpline
 62
7
  6
CONTINUOUS
 70
0
 71
3
 72
11
 73
7
 74
0
 42
0.0000001
 43
0.0000001
 44
0.0000000001
 40
0.0
 40
0.0
 40
0.0
 40
0.0
 40
0.2339894271
 40
0.4889078396
 40
0.750659109
 40
1.0
 40
1.0
 40
1.0
 40
1.0
 10
-1.5982737475
 20
-16.5784308859
 30
0.0
 10
-1.6127707374
 20
-16.5086167014
 30
0.0
 10
-1.6420404113
 20
-16.3624962975
 30
0.0
 10
-1.7057363118
 20
-16.1423242712
 30
0.0
 10
-1.7970083168
 20
-15.9268471435
 30
0.0
 10
-1.8858267826
 20
-15.7962045313
 30
0.0
 10
-1.9385478924
 20
-15.7414900641
 30
0.0
  0
SPLINE
  5
5BF
100
AcDbEntity
  8
0
100
AcDbSpline
 62
7
  6
CONTINUOUS
 70
0
 71
3
 72
13
 73
9
 74
0
 42
0.0000001
 43
0.0000001
 44
0.0000000001
 40
0.0
 40
0.0
 40
0.0
 40
0.0
 40
0.1389752388
 40
0.2725460587
 40
0.4015571322
 40
0.5266418481
 40
0.7676590998
 40
1.0
 40
1.0
 40
1.0
 40
1.0
 10
-1.9994133829
 20
-14.0376947741
 30
0.0
 10
-2.0555846878
 20
-13.9818301125
 30
0.0
 10
-2.1713499099
 20
-13.8777873771
 30
0.0
 10
-2.3542073648
 20
-13.739794481
 30
0.0
 10
-2.5383714591
 20
-13.6174670348
 30
0.0
 10
-2.7808800972
 20
-13.4728970282
 30
0.0
 10
-3.0854232972
 20
-13.3182899751
 30
0.0
 10
-3.3336110717
 20
-13.2121305349
 30
0.0
 10
-3.4562617708
 20
-13.162148311
 30
0.0
  0
SPLINE
  5
5C0
100
AcDbEntity
  8
0
100
AcDbSpline
 62
250
  6
CONTINUOUS
 70
0
 71
3
 72
11
 73
7
 74
0
 42
0.0000001
 43
0.0000001
 44
0.0000000001
 40
0.0
 40
0.0
 40
0.0
 40
0.0
 40
0.2590597853
 40
0.5125626087
 40
0.7597777501
 40
1.0
 40
1.0
 40
1.0
 40
1.0
 10
5.0341193228
 20
-38.0372790557
 30
0.0
 10
4.9701261953
 20
-38.8005731104
 30
0.0
 10
4.8010789882
 20
-40.3075953212
 30
0.0
 10
4.425658314
 20
-42.5235603983
 30
0.0
 10
3.9457787477
 20
-44.6620778918
 30
0.0
 10
3.5586512332
 20
-46.0511187044
 30
0.0
 10
3.3497795856
 20
-46.7299869698
 30
0.0
  0
ELLIPSE
  5
5C1
100
AcDbEntity
  8
0
100
AcDbEllipse
 62
7
  6
CONTINUOUS
 10
365.5303292769
 20
-163.0017661121
 30
0.0
 11
-268.8742183493
 21
461.1557489352
 31
0.0
 40
0.5773176078
 41
0.9728472466
 42
0.9732490779
  0
ELLIPSE
  5
5C2
100
AcDbEntity
  8
0
100
AcDbEllipse
 62
7
  6
CONTINUOUS
 10
10.9134123636
 20
-10.2455909513
 30
0.0
 11
1.6390005321
 21
1.4017366347
 31
0.0
 40
0.1449564464
 41
2.3180826365
 42
2.3747485097
  0
ENDSEC
  0
SECTION
  2
OBJECTS
  0
DICTIONARY
  5
C
100
AcDbDictionary
280
0
281
1
  3
ACAD_GROUP
350
D
  3
ACAD_MLINESTYLE
350
17
  3
ACAD_LAYOUT
350
1A
  3
ACAD_PLOTSETTINGS
350
19
  3
ACAD_PLOTSTYLENAME
350
E
  0
DICTIONARY
  5
D
102
{ACAD_REACTORS
330
C
102
}
100
AcDbDictionary
280
0
281
1
  0
ACDBDICTIONARYWDFLT
  5
E
102
{ACAD_REACTORS
330
C
102
}
100
AcDbDictionary
281
1
  3
Normal
350
F
100
AcDbDictionaryWithDefault
340
F
  0
DICTIONARY
  5
17
102
{ACAD_REACTORS
330
C
102
}
100
AcDbDictionary
280
0
281
1
  3
Standard
350
18
  0
DICTIONARY
  5
19
102
{ACAD_REACTORS
330
C
102
}
100
AcDbDictionary
281
1
  0
DICTIONARY
  5
1A
102
{ACAD_REACTORS
330
C
102
}
100
AcDbDictionary
281
1
  3
Model
350
5C3
  3
Layout1
350
5C4
  0
ACDBPLACEHOLDER
  5
F
102
{ACAD_REACTORS
330
E
102
}
  0
MLINESTYLE
  5
18
102
{ACAD_REACTORS
330
17
102
}
100
AcDbMlineStyle
  2
STANDARD
 70
0
  3

 62
256
 51
90.0
 52
90.0
 71
2
 49
0.5
 62
256
  6
BYLAYER
 49
-0.5
 62
256
  6
BYLAYER
  0
LAYOUT
  5
5C3
102
{ACAD_REACTORS
330
1A
102
}
100
AcDbPlotSettings
  1

  2
none_device
  4
ISO_A4_(297.00_x_210.00_MM)
  6

 40
0.0
 41
0.0
 42
0.0
 43
0.0
 44
297.0
 45
210.0
 46
0.0
 47
0.0
 48
0.0
 49
0.0
140
0.0
141
0.0
142
1.0
143
1.0
 70
1024
 72
1
 73
0
 74
0
  7

 75
0
147
1.0
148
0.0
149
0.0
100
AcDbLayout
  1
Model
 70
0
 71
0
 10
0.0
 20
0.0
 11
297.0
 21
210.0
 12
0.0
 22
0.0
 32
0.0
 14
0.0
 24
0.0
 34
0.0
 15
0.0
 25
0.0
 35
0.0
146
0.0
 13
0.0
 23
0.0
 33
0.0
 16
1.0
 26
0.0
 36
0.0
 17
0.0
 27
1.0
 37
0.0
 76
0
330
21D
345
0
346
0
  0
LAYOUT
  5
5C4
102
{ACAD_REACTORS
330
1A
102
}
100
AcDbPlotSettings
  1

  2
none_device
  4
ISO_A4_(297.00_x_210.00_MM)
  6

 40
0.0
 41
0.0
 42
0.0
 43
0.0
 44
297.0
 45
210.0
 46
0.0
 47
0.0
 48
0.0
 49
0.0
140
0.0
141
0.0
142
1.0
143
1.0
 70
0
 72
1
 73
0
 74
0
  7

 75
0
147
1.0
148
0.0
149
0.0
100
AcDbLayout
  1
Layout1
 70
0
 71
1
 10
0.0
 20
0.0
 11
297.0
 21
210.0
 12
0.0
 22
0.0
 32
0.0
 14
0.0
 24
0.0
 34
0.0
 15
0.0
 25
0.0
 35
0.0
146
0.0
 13
0.0
 23
0.0
 33
0.0
 16
1.0
 26
0.0
 36
0.0
 17
0.0
 27
1.0
 37
0.0
 76
0
330
21E
345
0
346
0
  0
ENDSEC
  0
EOF
