  0
SECTION
  2
HEADER
  9
$ACADVER
  1
AC1024
  9
$DWGCODEPAGE
  3
ANSI_1252
  9
$EXTMAX
 10
297.0
 20
210.0
 30
0.0
  9
$EXTMIN
 10
0.0
 20
0.0
 30
0.0
  9
$LIMMIN
 10
0.0
 20
0.0
  9
$LIMMAX
 10
297.0
 20
210.0
  9
$VIEWCTR
 10
148.5
 20
105.0
  9
$VIEWSIZE
 40
210.0
  9
$CLAYER
  8
0
  9
$LTSCALE
 40
16.335
  9
$CELTYPE
  6
BYLAYER
  9
$DIMSCALE
 40
1.0
  9
$DIMASZ
 40
3.0
  9
$DIMEXO
 40
0.5
  9
$DIMDLI
 40
11.286
  9
$DIMEXE
 40
1.5
  9
$DIMCEN
 40
2.673
  9
$DIMLFAC
 40
1.0
  9
$DIMBLK
  1
_FILLED
  9
$DIMALT
 70
0
  9
$DIMALTF
 40
0.0393700787
  9
$DIMTXT
 40
3.0
  9
$DIMTOL
 70
1
  9
$DIMLIM
 70
0
  9
$DIMTFAC
 40
1.0
  9
$DIMTP
 40
0.01
  9
$DIMTM
 40
0.01
  9
$DIMGAP
 40
0.625
  9
$DIMDSEP
 70
44
  9
$AUNITS
 70
0
  9
$PDMODE
 70
3
  9
$PDSIZE
 40
3.0
  9
$HANDSEED
  5
5F9
  9
$TILEMODE
 70
1
  9
$MEASUREMENT
 70
1
  9
$INSUNITS
 70
4
  0
ENDSEC
  0
SECTION
  2
CLASSES
  0
CLASS
  1
ACDBDICTIONARYWDFLT
  2
AcDbDictionaryWithDefault
  3
AutoCAD 2000
 90
0
 91
1
280
0
281
0
  0
CLASS
  1
ACDBPLACEHOLDER
  2
AcDbPlaceHolder
  3
AutoCAD 2000
 90
0
 91
1
280
0
281
0
  0
CLASS
  1
LAYOUT
  2
AcDbLayout
  3
AutoCAD 2000
 90
0
 91
0
280
0
281
0
  0
ENDSEC
  0
SECTION
  2
TABLES
  0
TABLE
  2
VPORT
  5
8
100
AcDbSymbolTable
 70
2
  0
VPORT
  5
1F4
100
AcDbSymbolTableRecord
100
AcDbViewportTableRecord
  2
*ACTIVE
 70
0
 10
0.0
 20
0.0
 11
1.0
 21
1.0
 12
148.5
 22
105.0
 13
0.0
 23
0.0
 14
1.0
 24
1.0
 15
0.0
 25
0.0
 16
0.0
 26
0.0
 36
1.0
 17
0.0
 27
0.0
 37
0.0
 40
210.0
 41
1.4142857143
 42
50.0
 43
0.0
 44
0.0
 50
0.0
 51
0.0
 71
0
 72
100
 73
1
 74
1
 75
0
 76
0
 77
0
 78
0
  0
ENDTAB
  0
TABLE
  2
LTYPE
  5
5
100
AcDbSymbolTable
 70
6
  0
LTYPE
  5
14
100
AcDbSymbolTableRecord
100
AcDbLinetypeTableRecord
  2
BYBLOCK
 70
0
  3

 72
65
 73
0
 40
0.0
  0
LTYPE
  5
15
100
AcDbSymbolTableRecord
100
AcDbLinetypeTableRecord
  2
BYLAYER
 70
0
  3

 72
65
 73
0
 40
0.0
  0
LTYPE
  5
16
100
AcDbSymbolTableRecord
100
AcDbLinetypeTableRecord
  2
CONTINUOUS
 70
64
  3
Solid line
 72
65
 73
0
 40
0.0
  0
LTYPE
  5
1F5
100
AcDbSymbolTableRecord
100
AcDbLinetypeTableRecord
  2
CENTER
 70
64
  3
____ _ ____ _ ____ _ ____ _ ____ _ ____ _ ____
 72
65
 73
4
 40
0.6
 49
0.375
 74
0
 49
-0.075
 74
0
 49
0.075
 74
0
 49
-0.075
 74
0
  0
LTYPE
  5
1F6
100
AcDbSymbolTableRecord
100
AcDbLinetypeTableRecord
  2
HIDDEN
 70
64
  3
- - - - - - - - - - - - - - - - - - - -
 72
65
 73
2
 40
0.2
 49
0.1
 74
0
 49
-0.1
 74
0
  0
LTYPE
  5
1F7
100
AcDbSymbolTableRecord
100
AcDbLinetypeTableRecord
  2
PHANTOM
 70
64
  3
_____ _ _ _____ _ _ _____ _ _ _____
 72
65
 73
6
 40
0.8
 49
0.45
 74
0
 49
-0.05
 74
0
 49
0.1
 74
0
 49
-0.05
 74
0
 49
0.1
 74
0
 49
-0.05
 74
0
  0
LTYPE
  5
1F8
100
AcDbSymbolTableRecord
100
AcDbLinetypeTableRecord
  2
DOT
 70
64
  3
. . . . . . . . . . . . . . . . . . . .
 72
65
 73
2
 40
0.2
 49
0.1
 74
0
 49
-0.1
 74
0
  0
LTYPE
  5
1F9
100
AcDbSymbolTableRecord
100
AcDbLinetypeTableRecord
  2
DASHED
 70
64
  3
- - - - - - - - - - - - - - - - - - - -
 72
65
 73
2
 40
0.2
 49
0.1
 74
0
 49
-0.1
 74
0
  0
ENDTAB
  0
TABLE
  2
LAYER
  5
2
100
AcDbSymbolTable
 70
36
  0
LAYER
  5
10
100
AcDbSymbolTableRecord
100
AcDbLayerTableRecord
  2
0
 70
0
 62
7
  6
CONTINUOUS
370
-3
390
F
  0
LAYER
  5
1FA
100
AcDbSymbolTableRecord
100
AcDbLayerTableRecord
  2
DEFAULT_1
 70
0
 62
7
  6
CENTER
370
-3
390
F
  0
LAYER
  5
1FB
100
AcDbSymbolTableRecord
100
AcDbLayerTableRecord
  2
DEFAULT_2
 70
0
 62
7
  6
HIDDEN
370
-3
390
F
  0
LAYER
  5
1FC
100
AcDbSymbolTableRecord
100
AcDbLayerTableRecord
  2
DEFAULT_3
 70
0
 62
7
  6
PHANTOM
370
-3
390
F
  0
LAYER
  5
1FD
100
AcDbSymbolTableRecord
100
AcDbLayerTableRecord
  2
ASSI
 70
0
 62
7
  6
CONTINUOUS
370
-3
390
F
  0
LAYER
  5
1FE
100
AcDbSymbolTableRecord
100
AcDbLayerTableRecord
  2
COLOR15
 70
0
 62
7
  6
CONTINUOUS
370
-3
390
F
  0
LAYER
  5
1FF
100
AcDbSymbolTableRecord
100
AcDbLayerTableRecord
  2
COLOR5
 70
0
 62
7
  6
CONTINUOUS
370
-3
390
F
  0
LAYER
  5
200
100
AcDbSymbolTableRecord
100
AcDbLayerTableRecord
  2
COORDINATE
 70
0
 62
7
  6
CONTINUOUS
370
-3
390
F
  0
LAYER
  5
201
100
AcDbSymbolTableRecord
100
AcDbLayerTableRecord
  2
COORD_ORIGINE
 70
0
 62
7
  6
CONTINUOUS
370
-3
390
F
  0
LAYER
  5
202
100
AcDbSymbolTableRecord
100
AcDbLayerTableRecord
  2
COSMETICHE
 70
0
 62
7
  6
CONTINUOUS
370
-3
390
F
  0
LAYER
  5
203
100
AcDbSymbolTableRecord
100
AcDbLayerTableRecord
  2
CURVE
 70
0
 62
7
  6
CONTINUOUS
370
-3
390
F
  0
LAYER
  5
204
100
AcDbSymbolTableRecord
100
AcDbLayerTableRecord
  2
DRAFT
 70
0
 62
7
  6
CONTINUOUS
370
-3
390
F
  0
LAYER
  5
205
100
AcDbSymbolTableRecord
100
AcDbLayerTableRecord
  2
IMPORT_IGES
 70
0
 62
7
  6
CONTINUOUS
370
-3
390
F
  0
LAYER
  5
206
100
AcDbSymbolTableRecord
100
AcDbLayerTableRecord
  2
INTF_1
 70
0
 62
7
  6
CONTINUOUS
370
-3
390
F
  0
LAYER
  5
207
100
AcDbSymbolTableRecord
100
AcDbLayerTableRecord
  2
INTF_11
 70
0
 62
7
  6
CONTINUOUS
370
-3
390
F
  0
LAYER
  5
208
100
AcDbSymbolTableRecord
100
AcDbLayerTableRecord
  2
INTF_2
 70
0
 62
7
  6
CONTINUOUS
370
-3
390
F
  0
LAYER
  5
209
100
AcDbSymbolTableRecord
100
AcDbLayerTableRecord
  2
INTF_3
 70
0
 62
7
  6
CONTINUOUS
370
-3
390
F
  0
LAYER
  5
20A
100
AcDbSymbolTableRecord
100
AcDbLayerTableRecord
  2
INTF_5
 70
0
 62
7
  6
CONTINUOUS
370
-3
390
F
  0
LAYER
  5
20B
100
AcDbSymbolTableRecord
100
AcDbLayerTableRecord
  2
INTF_YELLOW
 70
0
 62
7
  6
CONTINUOUS
370
-3
390
F
  0
LAYER
  5
20C
100
AcDbSymbolTableRecord
100
AcDbLayerTableRecord
  2
NOTE
 70
0
 62
7
  6
CONTINUOUS
370
-3
390
F
  0
LAYER
  5
20D
100
AcDbSymbolTableRecord
100
AcDbLayerTableRecord
  2
PIANI
 70
0
 62
7
  6
CONTINUOUS
370
-3
390
F
  0
LAYER
  5
20E
100
AcDbSymbolTableRecord
100
AcDbLayerTableRecord
  2
PIANI_ORIGINE
 70
0
 62
7
  6
CONTINUOUS
370
-3
390
F
  0
LAYER
  5
20F
100
AcDbSymbolTableRecord
100
AcDbLayerTableRecord
  2
PUNTI
 70
0
 62
7
  6
CONTINUOUS
370
-3
390
F
  0
LAYER
  5
210
100
AcDbSymbolTableRecord
100
AcDbLayerTableRecord
  2
RACCORDO
 70
0
 62
7
  6
CONTINUOUS
370
-3
390
F
  0
LAYER
  5
211
100
AcDbSymbolTableRecord
100
AcDbLayerTableRecord
  2
RGB__255__255__255__
 70
0
 62
7
  6
CONTINUOUS
370
-3
390
F
  0
LAYER
  5
212
100
AcDbSymbolTableRecord
100
AcDbLayerTableRecord
  2
SMUSSO
 70
0
 62
7
  6
CONTINUOUS
370
-3
390
F
  0
LAYER
  5
213
100
AcDbSymbolTableRecord
100
AcDbLayerTableRecord
  2
SNAPLINE
 70
0
 62
7
  6
CONTINUOUS
370
-3
390
F
  0
LAYER
  5
214
100
AcDbSymbolTableRecord
100
AcDbLayerTableRecord
  2
SUPERFICI
 70
0
 62
7
  6
CONTINUOUS
370
-3
390
F
  0
LAYER
  5
215
100
AcDbSymbolTableRecord
100
AcDbLayerTableRecord
  2
TASSELLI
 70
0
 62
7
  6
CONTINUOUS
370
-3
390
F
  0
LAYER
  5
216
100
AcDbSymbolTableRecord
100
AcDbLayerTableRecord
  2
TRASH
 70
0
 62
7
  6
CONTINUOUS
370
-3
390
F
  0
LAYER
  5
217
100
AcDbSymbolTableRecord
100
AcDbLayerTableRecord
  2
VARIE
 70
0
 62
7
  6
CONTINUOUS
370
-3
390
F
  0
LAYER
  5
218
100
AcDbSymbolTableRecord
100
AcDbLayerTableRecord
  2
XSEC_DATUMS
 70
0
 62
7
  6
CONTINUOUS
370
-3
390
F
  0
ENDTAB
  0
TABLE
  2
STYLE
  5
3
100
AcDbSymbolTable
 70
1
  0
STYLE
  5
11
100
AcDbSymbolTableRecord
100
AcDbTextStyleTableRecord
  2
STANDARD
 70
0
 40
0.0
 41
0.8
 50
0.0
 71
0
 42
0.2
  3
txt
  4

  0
STYLE
  5
219
100
AcDbSymbolTableRecord
100
AcDbTextStyleTableRecord
  2
TEXTSTYLE_1
 70
0
 40
0.0
 41
0.8
 50
0.0
 71
0
 42
0.2
  3
gdt
  4

  0
ENDTAB
  0
TABLE
  2
VIEW
  5
6
100
AcDbSymbolTable
 70
0
  0
ENDTAB
  0
TABLE
  2
UCS
  5
7
100
AcDbSymbolTable
 70
0
  0
ENDTAB
  0
TABLE
  2
APPID
  5
9
100
AcDbSymbolTable
 70
1
  0
APPID
  5
21A
100
AcDbSymbolTableRecord
100
AcDbRegAppTableRecord
  2
ACAD
 70
0
  0
ENDTAB
  0
TABLE
  2
BLOCK_RECORD
  5
1
100
AcDbSymbolTable
 70
0
  0
BLOCK_RECORD
  5
21B
100
AcDbSymbolTableRecord
100
AcDbBlockTableRecord
  2
*Model_Space
  0
BLOCK_RECORD
  5
21C
100
AcDbSymbolTableRecord
100
AcDbBlockTableRecord
  2
*Paper_Space
  0
BLOCK_RECORD
  5
21D
100
AcDbSymbolTableRecord
100
AcDbBlockTableRecord
  2
_FILLED
  0
ENDTAB
  0
TABLE
  2
DIMSTYLE
  5
A
100
AcDbSymbolTable
 70
1
100
AcDbDimStyleTable
 71
0
  0
DIMSTYLE
105
21E
100
AcDbSymbolTableRecord
100
AcDbDimStyleTableRecord
  2
STANDARD
 70
0
  3

  4

 40
1.0
 41
3.0
 42
0.5
 43
0.38
 44
1.5
 45
0.0
 46
0.0
 47
0.01
 48
0.01
140
3.0
141
0.09
142
0.0
143
25.4
144
1.0
145
0.0
146
1.0
147
0.625
 71
1
 72
0
 73
0
 74
0
 75
0
 76
0
 77
1
 78
8
 79
2
170
0
171
1
172
0
173
0
174
0
175
0
176
0
177
0
178
0
270
2
179
2
271
2
272
2
273
2
274
2
275
0
280
0
281
0
282
0
283
1
284
8
285
0
286
0
287
3
288
0
340
11
278
44
341
21D
342
21D
343
21D
344
21D
  0
ENDTAB
  0
ENDSEC
  0
SECTION
  2
BLOCKS
  0
BLOCK
  5
20
100
AcDbEntity
  8
0
100
AcDbBlockBegin
  2
*Model_Space
 70
0
 10
0.0
 20
0.0
 30
0.0
  3
*Model_Space
  1

  0
ENDBLK
  5
21
100
AcDbEntity
  8
0
100
AcDbBlockEnd
  0
BLOCK
  5
1C
100
AcDbEntity
  8
0
100
AcDbBlockBegin
  2
*Paper_Space
 70
0
 10
0.0
 20
0.0
 30
0.0
  3
*Paper_Space
  1

  0
ENDBLK
  5
1D
100
AcDbEntity
  8
0
100
AcDbBlockEnd
  0
BLOCK
  5
21F
100
AcDbEntity
  8
0
100
AcDbBlockBegin
  2
_FILLED
 70
64
 10
0.0
 20
0.0
  3
_FILLED
  1

  0
SOLID
  5
220
100
AcDbEntity
  8
0
  6
BYBLOCK
 62
0
100
AcDbTrace
 10
0.0
 20
0.0
 11
-1.0
 21
0.3166666667
 12
-1.0
 22
-0.3166666667
 13
-1.0
 23
-0.3166666667
  0
ENDBLK
  5
221
100
AcDbEntity
  8
0
  6
BYBLOCK
 62
0
100
AcDbBlockEnd
  0
ENDSEC
  0
SECTION
  2
ENTITIES
  0
LWPOLYLINE
  5
222
100
AcDbEntity
  8
0
100
AcDbPolyline
 62
7
  6
CONTINUOUS
 90
15
 70
0
 10
2.7257356357
 20
-58.5623686949
 10
2.8210045705
 20
-58.5969394877
 10
2.9765201173
 20
-58.6469639501
 10
3.1317835394
 20
-58.6889913375
 10
3.2864215544
 20
-58.7229596632
 10
3.4402098968
 20
-58.7488285176
 10
3.5930789253
 20
-58.766569062
 10
3.7448834479
 20
-58.7761312924
 10
3.8952734559
 20
-58.7774607999
 10
4.043842163
 20
-58.7705451969
 10
4.1903204549
 20
-58.7554012328
 10
4.3343616361
 20
-58.7320781764
 10
4.4754042771
 20
-58.7007072079
 10
4.6130450617
 20
-58.6614608311
 10
4.6522433008
 20
-58.6486443503
  0
LINE
  5
223
100
AcDbEntity
  8
0
100
AcDbLine
 62
7
  6
CONTINUOUS
 10
2.7264452554
 20
-58.56263732
 11
2.7257352065
 21
-58.5623698119
  0
LWPOLYLINE
  5
224
100
AcDbEntity
  8
0
100
AcDbPolyline
 62
7
  6
CONTINUOUS
 90
18
 70
0
 10
-2.370951136
 20
-57.0945076892
 10
-2.2451376342
 20
-57.1554813636
 10
-2.0543678573
 20
-57.2410653541
 10
-1.8578374107
 20
-57.3214541985
 10
-1.6560617721
 20
-57.3966163798
 10
-1.4494016261
 20
-57.466590196
 10
-1.2380824929
 20
-57.5314370538
 10
-1.0225310765
 20
-57.5911281717
 10
-0.8032041339
 20
-57.6456412615
 10
-0.5803947014
 20
-57.6949879418
 10
-0.3545550008
 20
-57.7391288257
 10
-0.1261282823
 20
-57.7780435458
 10
0.1045923283
 20
-57.8117310924
 10
0.3371562784
 20
-57.8401549725
 10
0.571111802
 20
-57.8632963996
 10
0.8061585216
 20
-57.8811467354
 10
1.0418461424
 20
-57.8936755491
 10
1.053108193
 20
-57.8940190636
  0
LWPOLYLINE
  5
225
100
AcDbEntity
  8
0
100
AcDbPolyline
 62
7
  6
CONTINUOUS
 90
21
 70
0
 10
-4.1201821274
 20
-55.5554319112
 10
-3.732641211
 20
-55.7450936422
 10
-3.3494617745
 20
-55.9302867309
 10
-2.9706630184
 20
-56.1110883814
 10
-2.5962653005
 20
-56.2875748116
 10
-2.2262895733
 20
-56.4598213366
 10
-1.8608056367
 20
-56.627880313
 10
-1.4997822872
 20
-56.7918501637
 10
-1.1430881136
 20
-56.9518720755
 10
-0.790704672
 20
-57.108033307
 10
-0.4426872314
 20
-57.2603879699
 10
-0.0990133966
 20
-57.4090237406
 10
0.240494566
 20
-57.5540922667
 10
0.5756316625
 20
-57.6955770476
 10
0.9058448442
 20
-57.8333167656
 10
1.2309002279
 20
-57.9673053577
 10
1.5509699677
 20
-58.0977100077
 10
1.8661700669
 20
-58.224614639
 10
2.1763900001
 20
-58.3480456964
 10
2.4816759331
 20
-58.4681982329
 10
2.7264452554
 20
-58.56263732
  0
LINE
  5
226
100
AcDbEntity
  8
0
100
AcDbLine
 62
7
  6
CONTINUOUS
 10
-4.1201821274
 20
-55.5554319112
 11
-4.4594402032
 21
-55.3874454013
  0
LINE
  5
227
100
AcDbEntity
  8
0
100
AcDbLine
 62
7
  6
CONTINUOUS
 10
-4.9465344041
 20
-55.1409403017
 11
-4.4594402032
 21
-55.3874454013
  0
LWPOLYLINE
  5
228
100
AcDbEntity
  8
0
100
AcDbPolyline
 62
7
  6
CONTINUOUS
 90
15
 70
0
 10
-11.5204375656
 20
-51.4397439113
 10
-11.162604618
 20
-51.660013067
 10
-10.7436677231
 20
-51.9139895057
 10
-10.3139220899
 20
-52.171684181
 10
-9.8729556539
 20
-52.4330332188
 10
-9.4212460356
 20
-52.6975677244
 10
-8.9603825303
 20
-52.9640927371
 10
-8.4908433488
 20
-53.2321368733
 10
-8.0121002325
 20
-53.5017922567
 10
-7.5242776518
 20
-53.7727681474
 10
-7.0275167454
 20
-54.0447676309
 10
-6.521620966
 20
-54.3176778744
 10
-6.0062127181
 20
-54.5914732196
 10
-5.4811513193
 20
-54.865990953
 10
-4.9465344041
 20
-55.1409403017
  0
LINE
  5
229
100
AcDbEntity
  8
0
100
AcDbLine
 62
7
  6
CONTINUOUS
 10
-11.5195631102
 20
-51.4402928501
 11
-11.5204367503
 21
-51.4397426222
  0
LWPOLYLINE
  5
22A
100
AcDbEntity
  8
0
100
AcDbPolyline
 62
7
  6
CONTINUOUS
 90
4
 70
0
 10
-11.9010316489
 20
-51.1727128368
 10
-11.7558166199
 20
-51.2812943965
 10
-11.6086064825
 20
-51.3829026873
 10
-11.5195631102
 20
-51.4402928501
  0
LINE
  5
22B
100
AcDbEntity
  8
0
100
AcDbLine
 62
250
  6
CONTINUOUS
 10
8.8734956349
 20
-41.8124808209
 11
6.2600254665
 21
-40.5057668677
  0
LINE
  5
22C
100
AcDbEntity
  8
0
100
AcDbLine
 62
250
  6
CONTINUOUS
 10
-15.235972026
 20
-29.7577771298
 11
-17.8494438948
 21
-28.4510108924
  0
LWPOLYLINE
  5
22D
100
AcDbEntity
  8
0
100
AcDbPolyline
 62
7
  6
CONTINUOUS
 90
19
 70
0
 10
-13.9692088098
 20
-48.2796992531
 10
-13.9163559976
 20
-48.4140535087
 10
-13.8328089839
 20
-48.6120221168
 10
-13.743597423
 20
-48.8072685509
 10
-13.648999399
 20
-48.9992691172
 10
-13.5492623034
 20
-49.187686153
 10
-13.4446252219
 20
-49.372203736
 10
-13.3353224647
 20
-49.5525207334
 10
-13.2216132651
 20
-49.7282939203
 10
-13.103779815
 20
-49.8991644612
 10
-12.9820513508
 20
-50.0648796217
 10
-12.8566966905
 20
-50.2251410867
 10
-12.7280606028
 20
-50.3795894692
 10
-12.5964232787
 20
-50.5279658286
 10
-12.461987369
 20
-50.6701051719
 10
-12.3249893417
 20
-50.8058225617
 10
-12.1856990916
 20
-50.9349148266
 10
-12.0443351537
 20
-51.0572371963
 10
-11.9010316489
 20
-51.1727128368
  0
LWPOLYLINE
  5
22E
100
AcDbEntity
  8
0
100
AcDbPolyline
 62
7
  6
CONTINUOUS
 90
14
 70
0
 10
-3.9523554225
 20
-55.637565957
 10
-3.8954209941
 20
-55.7528667904
 10
-3.8196710364
 20
-55.8830582494
 10
-3.7334181423
 20
-56.0111038134
 10
-3.6369532798
 20
-56.1364297579
 10
-3.5303981146
 20
-56.2588350625
 10
-3.4137151373
 20
-56.378312024
 10
-3.2870025409
 20
-56.4946718749
 10
-3.150287083
 20
-56.6078035048
 10
-3.0035282923
 20
-56.7176536727
 10
-2.8467396006
 20
-56.8240894366
 10
-2.6799393364
 20
-56.9269622497
 10
-2.5031325909
 20
-57.0261382386
 10
-2.3708117383
 20
-57.0945773967
  0
LINE
  5
22F
100
AcDbEntity
  8
0
100
AcDbLine
 62
7
  6
CONTINUOUS
 10
-13.9692119195
 20
-48.2797004406
 11
-13.9691867229
 21
-48.2797662326
  0
LWPOLYLINE
  5
230
100
AcDbEntity
  8
0
100
AcDbPolyline
 62
7
  6
CONTINUOUS
 90
16
 70
0
 10
-17.0810811286
 20
-36.9309271471
 10
-16.9296641913
 20
-37.7289925744
 10
-16.7560896075
 20
-38.5826132071
 10
-16.5737322131
 20
-39.4223338999
 10
-16.3833564708
 20
-40.2477897399
 10
-16.1856364592
 20
-41.0589701918
 10
-15.9811314064
 20
-41.8562197328
 10
-15.7704047875
 20
-42.6397012748
 10
-15.5541531994
 20
-43.4089883184
 10
-15.3331043297
 20
-44.1635611456
 10
-15.1075604918
 20
-44.9042916873
 10
-14.878332497
 20
-45.6301496287
 10
-14.6471612956
 20
-46.3376786589
 10
-14.4147876602
 20
-47.0260912453
 10
-14.182220267
 20
-47.695207778
 10
-13.9691867229
 20
-48.2797662326
  0
LINE
  5
231
100
AcDbEntity
  8
0
100
AcDbLine
 62
7
  6
CONTINUOUS
 10
-17.0810904873
 20
-36.9308759729
 11
-17.0810811313
 21
-36.9309271476
  0
LWPOLYLINE
  5
232
100
AcDbEntity
  8
0
100
AcDbPolyline
 62
7
  6
CONTINUOUS
 90
10
 70
0
 10
-18.1403116205
 20
-28.1610024498
 10
-18.0810848582
 20
-29.0512738961
 10
-18.0044222485
 20
-30.0187172276
 10
-17.9143724264
 20
-30.993394903
 10
-17.8107909919
 20
-31.9737358052
 10
-17.6932511489
 20
-32.9605417401
 10
-17.5608283506
 20
-33.9571341433
 10
-17.4126638097
 20
-34.9645030223
 10
-17.2483181145
 20
-35.9810553373
 10
-17.0810904873
 20
-36.9308759729
  0
LINE
  5
233
100
AcDbEntity
  8
0
100
AcDbLine
 62
7
  6
CONTINUOUS
 10
-18.2632452884
 20
-24.3997180131
 11
-18.2632452884
 21
-1.6232498936
  0
LINE
  5
234
100
AcDbEntity
  8
0
100
AcDbLine
 62
250
  6
CONTINUOUS
 10
-17.9703520696
 20
-24.7532714037
 11
-17.9703520696
 21
-1.9768032842
  0
LINE
  5
235
100
AcDbEntity
  8
0
100
AcDbLine
 62
7
  6
CONTINUOUS
 10
-9.1834566018
 20
-14.5211936951
 11
-8.6632261221
 21
-14.7813089349
  0
LINE
  5
236
100
AcDbEntity
  8
0
100
AcDbLine
 62
7
  6
CONTINUOUS
 10
-7.5350938212
 20
-15.3453750854
 11
-6.9447621894
 21
-15.6405409013
  0
LINE
  5
237
100
AcDbEntity
  8
0
100
AcDbLine
 62
7
  6
CONTINUOUS
 10
-6.6269678959
 20
-15.799438048
 11
-6.0622130234
 21
-16.0818154843
  0
LINE
  5
238
100
AcDbEntity
  8
0
100
AcDbLine
 62
7
  6
CONTINUOUS
 10
-5.2422887695
 20
-16.4917776112
 11
-5.1594950507
 21
-16.5331744706
  0
LINE
  5
239
100
AcDbEntity
  8
0
100
AcDbLine
 62
7
  6
CONTINUOUS
 10
-4.3363046706
 20
-16.9447696607
 11
-3.7588034913
 21
-17.2335202503
  0
LINE
  5
23A
100
AcDbEntity
  8
0
100
AcDbLine
 62
7
  6
CONTINUOUS
 10
-3.666106035
 20
-17.2798689785
 11
-3.0821786693
 21
-17.5718326613
  0
LINE
  5
23B
100
AcDbEntity
  8
0
100
AcDbLine
 62
7
  6
CONTINUOUS
 10
-1.9624234625
 20
-18.1317102647
 11
-1.3402380844
 21
-18.4428029538
  0
LINE
  5
23C
100
AcDbEntity
  8
0
100
AcDbLine
 62
7
  6
CONTINUOUS
 10
-1.1668882547
 20
-18.5294779656
 11
-0.5789318575
 21
-18.8234561642
  0
LINE
  5
23D
100
AcDbEntity
  8
0
100
AcDbLine
 62
7
  6
CONTINUOUS
 10
0.3250797333
 20
-19.2754619596
 11
0.8929102244
 21
-19.5593772051
  0
LINE
  5
23E
100
AcDbEntity
  8
0
100
AcDbLine
 62
7
  6
CONTINUOUS
 10
-2.9192838943
 20
-16.9618063953
 11
-2.1153508603
 21
-17.3637729123
  0
LINE
  5
23F
100
AcDbEntity
  8
0
100
AcDbLine
 62
7
  6
CONTINUOUS
 10
-2.2333280912
 20
-16.7697252236
 11
-2.7985284409
 21
-16.4871250487
  0
LINE
  5
240
100
AcDbEntity
  8
0
100
AcDbLine
 62
7
  6
CONTINUOUS
 10
-2.2378047681
 20
-16.7462736817
 11
-2.7773152374
 21
-16.476518447
  0
LINE
  5
241
100
AcDbEntity
  8
0
100
AcDbLine
 62
7
  6
CONTINUOUS
 10
-0.5789318575
 20
-17.4679634384
 11
-0.2624100992
 21
-17.6262243176
  0
LINE
  5
242
100
AcDbEntity
  8
0
100
AcDbLine
 62
7
  6
CONTINUOUS
 10
-0.2611376499
 20
-17.0595935767
 11
-0.5985063689
 21
-16.8909092172
  0
LINE
  5
243
100
AcDbEntity
  8
0
100
AcDbLine
 62
7
  6
CONTINUOUS
 10
-0.2399244464
 20
-17.048986975
 11
-0.5772931655
 21
-16.8803026155
  0
LINE
  5
244
100
AcDbEntity
  8
0
100
AcDbLine
 62
7
  6
CONTINUOUS
 10
-3.5919704171
 20
-37.6383326705
 11
-3.5823571133
 21
-37.6605539692
  0
LINE
  5
245
100
AcDbEntity
  8
0
100
AcDbLine
 62
7
  6
CONTINUOUS
 10
-12.9508886529
 20
0.5859788175
 11
-12.9566024612
 21
1.5001228458
  0
LINE
  5
246
100
AcDbEntity
  8
0
100
AcDbLine
 62
250
  6
CONTINUOUS
 10
-12.5065650241
 20
0.8579111264
 11
-12.5065650241
 21
0.8174843617
  0
LINE
  5
247
100
AcDbEntity
  8
0
100
AcDbLine
 62
7
  6
CONTINUOUS
 10
-11.983306006
 20
1.1195406354
 11
-11.983306006
 21
1.0819889151
  0
LINE
  5
248
100
AcDbEntity
  8
0
100
AcDbLine
 62
250
  6
CONTINUOUS
 10
-11.4600469879
 20
1.3811701444
 11
-11.4600469879
 21
1.3423749987
  0
LINE
  5
249
100
AcDbEntity
  8
0
100
AcDbLine
 62
7
  6
CONTINUOUS
 10
-12.7444704268
 20
1.606188863
 11
-12.7449311799
 21
1.5003532223
  0
LINE
  5
24A
100
AcDbEntity
  8
0
100
AcDbLine
 62
7
  6
CONTINUOUS
 10
-11.5840492687
 20
-1.0841009198
 11
-11.6520437028
 21
-1.4790104969
  0
LINE
  5
24B
100
AcDbEntity
  8
0
100
AcDbLine
 62
7
  6
CONTINUOUS
 10
-2.2079641709
 20
-14.5452609158
 11
-2.7790391638
 21
-14.2597234194
  0
LINE
  5
24C
100
AcDbEntity
  8
0
100
AcDbLine
 62
7
  6
CONTINUOUS
 10
-4.0232614275
 20
-13.6376122875
 11
-4.6073365785
 21
-13.345574712
  0
LINE
  5
24D
100
AcDbEntity
  8
0
100
AcDbLine
 62
7
  6
CONTINUOUS
 10
-5.7817645745
 20
-12.758360714
 11
-6.3716090098
 21
-12.4634384964
  0
LINE
  5
24E
100
AcDbEntity
  8
0
100
AcDbLine
 62
7
  6
CONTINUOUS
 10
-7.7541675229
 20
-11.7721592398
 11
-8.3440961038
 21
-11.4771949493
  0
LINE
  5
24F
100
AcDbEntity
  8
0
100
AcDbLine
 62
7
  6
CONTINUOUS
 10
-9.4387313422
 20
-10.9298773301
 11
-10.0800135531
 21
-10.6092362247
  0
LINE
  5
250
100
AcDbEntity
  8
0
100
AcDbLine
 62
7
  6
CONTINUOUS
 10
-6.9447621894
 20
-12.1766540604
 11
-7.5350938212
 21
-11.8814882445
  0
LINE
  5
251
100
AcDbEntity
  8
0
100
AcDbLine
 62
7
  6
CONTINUOUS
 10
-2.1867509675
 20
-14.5346543141
 11
-2.7578259603
 21
-14.2491168176
  0
LINE
  5
252
100
AcDbEntity
  8
0
100
AcDbLine
 62
7
  6
CONTINUOUS
 10
-4.0020482241
 20
-13.6270056858
 11
-4.5861233751
 21
-13.3349681103
  0
LINE
  5
253
100
AcDbEntity
  8
0
100
AcDbLine
 62
7
  6
CONTINUOUS
 10
-5.7605513711
 20
-12.7477541123
 11
-6.3503958063
 21
-12.4528318946
  0
LINE
  5
254
100
AcDbEntity
  8
0
100
AcDbLine
 62
7
  6
CONTINUOUS
 10
-7.7329543194
 20
-11.7615526381
 11
-8.3228829004
 21
-11.4665883476
  0
LINE
  5
255
100
AcDbEntity
  8
0
100
AcDbLine
 62
7
  6
CONTINUOUS
 10
-9.4175181388
 20
-10.9192707284
 11
-10.0588003497
 21
-10.598629623
  0
LINE
  5
256
100
AcDbEntity
  8
0
100
AcDbLine
 62
7
  6
CONTINUOUS
 10
-6.923548986
 20
-12.1660474587
 11
-7.5138806178
 21
-11.8708816428
  0
LINE
  5
257
100
AcDbEntity
  8
0
100
AcDbLine
 62
250
  6
CONTINUOUS
 10
8.9944038187
 20
-15.4591812284
 11
-17.9703520696
 21
-1.9768032842
  0
LINE
  5
258
100
AcDbEntity
  8
0
100
AcDbLine
 62
7
  6
CONTINUOUS
 10
-10.0800135531
 20
-10.6092362247
 11
-9.1834566018
 21
-14.5211936951
  0
LINE
  5
259
100
AcDbEntity
  8
0
100
AcDbLine
 62
7
  6
CONTINUOUS
 10
-8.8996472744
 20
-13.5835769084
 11
-9.4387313422
 21
-10.9298773301
  0
LINE
  5
25A
100
AcDbEntity
  8
0
100
AcDbLine
 62
7
  6
CONTINUOUS
 10
-8.8864467659
 20
-13.53352695
 11
-9.4175181388
 21
-10.9192707284
  0
LINE
  5
25B
100
AcDbEntity
  8
0
100
AcDbLine
 62
7
  6
CONTINUOUS
 10
-3.7588034913
 20
-17.2335202503
 11
-4.0232614275
 21
-13.6376122875
  0
LINE
  5
25C
100
AcDbEntity
  8
0
100
AcDbLine
 62
7
  6
CONTINUOUS
 10
-3.7375902879
 20
-17.2229136486
 11
-4.0020482241
 21
-13.6270056858
  0
LINE
  5
25D
100
AcDbEntity
  8
0
100
AcDbLine
 62
7
  6
CONTINUOUS
 10
-4.4575904541
 20
-14.6318380468
 11
-4.3363046706
 21
-16.9447696607
  0
LINE
  5
25E
100
AcDbEntity
  8
0
100
AcDbLine
 62
7
  6
CONTINUOUS
 10
-7.5350938212
 20
-11.8814882445
 11
-7.5350938212
 21
-15.3453750854
  0
LINE
  5
25F
100
AcDbEntity
  8
0
100
AcDbLine
 62
7
  6
CONTINUOUS
 10
-6.9447621894
 20
-15.6405409013
 11
-6.9447621894
 21
-12.1766540604
  0
LINE
  5
260
100
AcDbEntity
  8
0
100
AcDbLine
 62
7
  6
CONTINUOUS
 10
-6.923548986
 20
-15.6299342995
 11
-6.923548986
 21
-12.1660474587
  0
LINE
  5
261
100
AcDbEntity
  8
0
100
AcDbLine
 62
250
  6
CONTINUOUS
 10
-5.3541799324
 20
0.1864685548
 11
-5.3541799324
 21
0.344401887
  0
LINE
  5
262
100
AcDbEntity
  8
0
100
AcDbLine
 62
7
  6
CONTINUOUS
 10
-4.839984609
 20
-3.7001129828
 11
-4.839984609
 21
-3.6568117127
  0
LINE
  5
263
100
AcDbEntity
  8
0
100
AcDbLine
 62
7
  6
CONTINUOUS
 10
-6.0622130234
 20
-16.0818154843
 11
-5.9348192515
 21
-13.8837952295
  0
LINE
  5
264
100
AcDbEntity
  8
0
100
AcDbLine
 62
7
  6
CONTINUOUS
 10
-6.04099982
 20
-16.0712088825
 11
-5.9179112084
 21
-13.9474687858
  0
LINE
  5
265
100
AcDbEntity
  8
0
100
AcDbLine
 62
7
  6
CONTINUOUS
 10
-6.3716090098
 20
-12.4634384964
 11
-6.6269678959
 21
-15.799438048
  0
LINE
  5
266
100
AcDbEntity
  8
0
100
AcDbLine
 62
7
  6
CONTINUOUS
 10
-8.3440961038
 20
-11.4771949493
 11
-8.8996472744
 21
-13.5835769084
  0
LINE
  5
267
100
AcDbEntity
  8
0
100
AcDbLine
 62
7
  6
CONTINUOUS
 10
-12.8318341434
 20
1.5438047041
 11
-12.7444704268
 21
1.606188863
  0
LINE
  5
268
100
AcDbEntity
  8
0
100
AcDbLine
 62
7
  6
CONTINUOUS
 10
-13.6494106374
 20
1.3317314277
 11
-12.6028926012
 21
1.8549904458
  0
LINE
  5
269
100
AcDbEntity
  8
0
100
AcDbLine
 62
250
  6
CONTINUOUS
 10
-12.3792858035
 20
1.8407895522
 11
-13.4258038396
 21
1.3175305341
  0
LINE
  5
26A
100
AcDbEntity
  8
0
100
AcDbLine
 62
7
  6
CONTINUOUS
 10
-11.4600469879
 20
1.3811701444
 11
-12.5065650241
 21
0.8579111264
  0
LINE
  5
26B
100
AcDbEntity
  8
0
100
AcDbLine
 62
7
  6
CONTINUOUS
 10
-15.966139072
 20
-1.0840079319
 11
-15.5815217248
 21
-0.8916992584
  0
LINE
  5
26C
100
AcDbEntity
  8
0
100
AcDbLine
 62
7
  6
CONTINUOUS
 10
-7.5285332845
 20
3.1347949618
 11
-7.9608262185
 21
2.9186484948
  0
LINE
  5
26D
100
AcDbEntity
  8
0
100
AcDbLine
 62
7
  6
CONTINUOUS
 10
-12.8318341434
 20
1.5438047041
 11
-12.9566024612
 21
1.5001228458
  0
LINE
  5
26E
100
AcDbEntity
  8
0
100
AcDbLine
 62
7
  6
CONTINUOUS
 10
5.9714904968
 20
-3.8744377418
 11
4.7550352874
 21
-4.2168009272
  0
LINE
  5
26F
100
AcDbEntity
  8
0
100
AcDbLine
 62
7
  6
CONTINUOUS
 10
2.6018316513
 20
-6.3762600649
 11
3.8135525059
 21
-6.035509613
  0
LINE
  5
270
100
AcDbEntity
  8
0
100
AcDbLine
 62
7
  6
CONTINUOUS
 10
2.5464033298
 20
-6.3485459042
 11
3.8898765156
 21
-5.970745115
  0
LINE
  5
271
100
AcDbEntity
  8
0
100
AcDbLine
 62
7
  6
CONTINUOUS
 10
4.8453288328
 20
-4.30524897
 11
6.0624111788
 21
-3.963199353
  0
LINE
  5
272
100
AcDbEntity
  8
0
100
AcDbLine
 62
7
  6
CONTINUOUS
 10
4.8453288328
 20
-4.2619476999
 11
6.0624111788
 21
-3.9198980828
  0
LINE
  5
273
100
AcDbEntity
  8
0
100
AcDbLine
 62
7
  6
CONTINUOUS
 10
1.2612933235
 20
-6.7507519491
 11
1.9887739724
 21
-6.5499063996
  0
LINE
  5
274
100
AcDbEntity
  8
0
100
AcDbLine
 62
7
  6
CONTINUOUS
 10
1.2612933235
 20
-6.7074506789
 11
1.9887739724
 21
-6.5066051295
  0
LINE
  5
275
100
AcDbEntity
  8
0
100
AcDbLine
 62
7
  6
CONTINUOUS
 10
4.3925148857
 20
-5.4449794034
 11
0.6773659578
 21
-6.4154869961
  0
LINE
  5
276
100
AcDbEntity
  8
0
100
AcDbLine
 62
7
  6
CONTINUOUS
 10
2.5642174709
 20
-4.530830696
 11
0.403725533
 21
-5.0207450331
  0
LINE
  5
277
100
AcDbEntity
  8
0
100
AcDbLine
 62
7
  6
CONTINUOUS
 10
-0.8160230579
 20
-5.7120937584
 11
1.6000271453
 21
-5.1714868912
  0
LINE
  5
278
100
AcDbEntity
  8
0
100
AcDbLine
 62
7
  6
CONTINUOUS
 10
-0.8160230579
 20
-5.6687924882
 11
1.7248675795
 21
-5.1002517661
  0
LINE
  5
279
100
AcDbEntity
  8
0
100
AcDbLine
 62
250
  6
CONTINUOUS
 10
9.3479572093
 20
-14.8493918312
 11
-17.616798679
 21
-1.367013887
  0
LINE
  5
27A
100
AcDbEntity
  8
0
100
AcDbLine
 62
7
  6
CONTINUOUS
 10
9.6711500971
 20
-13.986863266
 11
9.8701386636
 21
-14.0863575493
  0
LINE
  5
27B
100
AcDbEntity
  8
0
100
AcDbLine
 62
250
  6
CONTINUOUS
 10
9.6586659828
 20
-13.9440860461
 11
9.8662935327
 21
-14.0478998211
  0
LINE
  5
27C
100
AcDbEntity
  8
0
100
AcDbLine
 62
7
  6
CONTINUOUS
 10
-16.2259466931
 20
-0.9541041214
 11
9.6541614983
 21
-13.8941582171
  0
LINE
  5
27D
100
AcDbEntity
  8
0
100
AcDbLine
 62
250
  6
CONTINUOUS
 10
7.5858741633
 20
-11.4404435654
 11
-10.7989021475
 21
-2.24805541
  0
LINE
  5
27E
100
AcDbEntity
  8
0
100
AcDbLine
 62
7
  6
CONTINUOUS
 10
7.6529562027
 20
-11.4361832973
 11
-10.7318201082
 21
-2.2437951419
  0
LINE
  5
27F
100
AcDbEntity
  8
0
100
AcDbLine
 62
250
  6
CONTINUOUS
 10
-10.1923921547
 20
-1.8581978732
 11
8.1923841561
 21
-11.0505860287
  0
LINE
  5
280
100
AcDbEntity
  8
0
100
AcDbLine
 62
7
  6
CONTINUOUS
 10
-4.839984609
 20
-3.7001129828
 11
-4.3197541293
 21
-3.9602282227
  0
LINE
  5
281
100
AcDbEntity
  8
0
100
AcDbLine
 62
7
  6
CONTINUOUS
 10
-3.1916218284
 20
-4.5242943731
 11
-2.6012901966
 21
-4.819460189
  0
LINE
  5
282
100
AcDbEntity
  8
0
100
AcDbLine
 62
7
  6
CONTINUOUS
 10
-2.2834959031
 20
-4.9783573358
 11
-1.7187410306
 21
-5.260734772
  0
LINE
  5
283
100
AcDbEntity
  8
0
100
AcDbLine
 62
7
  6
CONTINUOUS
 10
-0.8988167767
 20
-5.670696899
 11
-0.8160230579
 21
-5.7120937584
  0
LINE
  5
284
100
AcDbEntity
  8
0
100
AcDbLine
 62
7
  6
CONTINUOUS
 10
0.0071673222
 20
-6.1236889484
 11
0.5846685015
 21
-6.4124395381
  0
LINE
  5
285
100
AcDbEntity
  8
0
100
AcDbLine
 62
7
  6
CONTINUOUS
 10
0.6773659578
 20
-6.4587882663
 11
1.2612933235
 21
-6.7507519491
  0
LINE
  5
286
100
AcDbEntity
  8
0
100
AcDbLine
 62
7
  6
CONTINUOUS
 10
2.3810485303
 20
-7.3106295525
 11
3.0032339084
 21
-7.6217222416
  0
LINE
  5
287
100
AcDbEntity
  8
0
100
AcDbLine
 62
7
  6
CONTINUOUS
 10
3.176583659
 20
-7.708397196
 11
3.7645400562
 21
-8.0023753946
  0
LINE
  5
288
100
AcDbEntity
  8
0
100
AcDbLine
 62
7
  6
CONTINUOUS
 10
4.6685516469
 20
-8.45438119
 11
5.236382138
 21
-8.7382964355
  0
LINE
  5
289
100
AcDbEntity
  8
0
100
AcDbLine
 62
7
  6
CONTINUOUS
 10
-4.839984609
 20
-3.6568117127
 11
-4.3197541293
 21
-3.9169269525
  0
LINE
  5
28A
100
AcDbEntity
  8
0
100
AcDbLine
 62
7
  6
CONTINUOUS
 10
-3.1916218284
 20
-4.4809931029
 11
-2.6012901966
 21
-4.7761589188
  0
LINE
  5
28B
100
AcDbEntity
  8
0
100
AcDbLine
 62
7
  6
CONTINUOUS
 10
-2.2834959031
 20
-4.9350560656
 11
-1.7187410306
 21
-5.2174335018
  0
LINE
  5
28C
100
AcDbEntity
  8
0
100
AcDbLine
 62
7
  6
CONTINUOUS
 10
-0.8988167767
 20
-5.6273956288
 11
-0.8160230579
 21
-5.6687924882
  0
LINE
  5
28D
100
AcDbEntity
  8
0
100
AcDbLine
 62
7
  6
CONTINUOUS
 10
0.0071673222
 20
-6.0803876783
 11
0.5846685015
 21
-6.3691382679
  0
LINE
  5
28E
100
AcDbEntity
  8
0
100
AcDbLine
 62
7
  6
CONTINUOUS
 10
0.6773659578
 20
-6.4154869961
 11
1.2612933235
 21
-6.7074506789
  0
LINE
  5
28F
100
AcDbEntity
  8
0
100
AcDbLine
 62
7
  6
CONTINUOUS
 10
2.3810485303
 20
-7.2673282823
 11
3.0032339084
 21
-7.5784209714
  0
LINE
  5
290
100
AcDbEntity
  8
0
100
AcDbLine
 62
7
  6
CONTINUOUS
 10
3.176583659
 20
-7.6650959258
 11
3.7645400562
 21
-7.9590741244
  0
LINE
  5
291
100
AcDbEntity
  8
0
100
AcDbLine
 62
7
  6
CONTINUOUS
 10
4.6685516469
 20
-8.4110799198
 11
5.236382138
 21
-8.6949951653
  0
LINE
  5
292
100
AcDbEntity
  8
0
100
AcDbLine
 62
7
  6
CONTINUOUS
 10
1.9887739724
 20
-6.5499063996
 11
2.7611345996
 21
-6.9360867133
  0
LINE
  5
293
100
AcDbEntity
  8
0
100
AcDbLine
 62
7
  6
CONTINUOUS
 10
1.9887739724
 20
-6.5066051295
 11
2.7927070064
 21
-6.9085716465
  0
LINE
  5
294
100
AcDbEntity
  8
0
100
AcDbLine
 62
7
  6
CONTINUOUS
 10
3.1116036795
 20
-6.6311460791
 11
2.5464033298
 21
-6.3485459042
  0
LINE
  5
295
100
AcDbEntity
  8
0
100
AcDbLine
 62
7
  6
CONTINUOUS
 10
-5.9348192515
 20
-13.8837952295
 11
-5.2422887695
 21
-16.4917776112
  0
LINE
  5
296
100
AcDbEntity
  8
0
100
AcDbLine
 62
7
  6
CONTINUOUS
 10
-5.1976682103
 20
-14.9734546783
 11
-5.7817645745
 21
-12.758360714
  0
LINE
  5
297
100
AcDbEntity
  8
0
100
AcDbLine
 62
7
  6
CONTINUOUS
 10
-5.1837665955
 20
-14.9351200219
 11
-5.7605513711
 21
-12.7477541123
  0
LINE
  5
298
100
AcDbEntity
  8
0
100
AcDbLine
 62
7
  6
CONTINUOUS
 10
-1.3402380844
 20
-18.4428029538
 11
-2.2079641709
 21
-14.5452609158
  0
LINE
  5
299
100
AcDbEntity
  8
0
100
AcDbLine
 62
7
  6
CONTINUOUS
 10
-1.319024881
 20
-18.4321963521
 11
-2.1867509675
 21
-14.5346543141
  0
LINE
  5
29A
100
AcDbEntity
  8
0
100
AcDbLine
 62
7
  6
CONTINUOUS
 10
-2.1153508603
 20
-17.3637729123
 11
-1.9624234625
 21
-18.1317102647
  0
LINE
  5
29B
100
AcDbEntity
  8
0
100
AcDbLine
 62
7
  6
CONTINUOUS
 10
-2.5045926372
 20
-15.3486774245
 11
-2.2333280912
 21
-16.7697252236
  0
LINE
  5
29C
100
AcDbEntity
  8
0
100
AcDbLine
 62
7
  6
CONTINUOUS
 10
-4.3197541293
 20
-3.9602282227
 11
-4.3197541293
 21
-3.9169269525
  0
LINE
  5
29D
100
AcDbEntity
  8
0
100
AcDbLine
 62
7
  6
CONTINUOUS
 10
-3.8162226833
 20
-34.8954350279
 11
-3.8162226833
 21
-36.0529164985
  0
LINE
  5
29E
100
AcDbEntity
  8
0
100
AcDbLine
 62
7
  6
CONTINUOUS
 10
-3.8162226833
 20
-37.0204654045
 11
-3.8162226833
 21
-38.7831824924
  0
LINE
  5
29F
100
AcDbEntity
  8
0
100
AcDbLine
 62
7
  6
CONTINUOUS
 10
-3.1916218284
 20
-4.5242943731
 11
-3.1916218284
 21
-4.4809931029
  0
LINE
  5
2A0
100
AcDbEntity
  8
0
100
AcDbLine
 62
7
  6
CONTINUOUS
 10
-2.6012901966
 20
-4.819460189
 11
-2.6012901966
 21
-4.7761589188
  0
LINE
  5
2A1
100
AcDbEntity
  8
0
100
AcDbLine
 62
7
  6
CONTINUOUS
 10
-2.2834959031
 20
-4.9783573358
 11
-2.2834959031
 21
-4.9350560656
  0
LINE
  5
2A2
100
AcDbEntity
  8
0
100
AcDbLine
 62
7
  6
CONTINUOUS
 10
-2.2671772928
 20
-2.1584345843
 11
-2.2671772928
 21
-2.1151333141
  0
LINE
  5
2A3
100
AcDbEntity
  8
0
100
AcDbLine
 62
7
  6
CONTINUOUS
 10
-1.7187410306
 20
-5.260734772
 11
-1.7187410306
 21
-5.2174335018
  0
LINE
  5
2A4
100
AcDbEntity
  8
0
100
AcDbLine
 62
7
  6
CONTINUOUS
 10
-1.1668882547
 20
-15.106265982
 11
-1.1668882547
 21
-18.5294779656
  0
LINE
  5
2A5
100
AcDbEntity
  8
0
100
AcDbLine
 62
7
  6
CONTINUOUS
 10
-0.8988167767
 20
-5.670696899
 11
-0.8988167767
 21
-5.6273956288
  0
LINE
  5
2A6
100
AcDbEntity
  8
0
100
AcDbLine
 62
7
  6
CONTINUOUS
 10
-0.8160230579
 20
-5.7120937584
 11
-0.8160230579
 21
-5.6687924882
  0
LINE
  5
2A7
100
AcDbEntity
  8
0
100
AcDbLine
 62
7
  6
CONTINUOUS
 10
-0.5985063689
 20
-16.8909092172
 11
-0.5985063689
 21
-15.9400617321
  0
LINE
  5
2A8
100
AcDbEntity
  8
0
100
AcDbLine
 62
7
  6
CONTINUOUS
 10
-0.5826134734
 20
-3.000716494
 11
-0.5826134734
 21
-2.9574152238
  0
LINE
  5
2A9
100
AcDbEntity
  8
0
100
AcDbLine
 62
7
  6
CONTINUOUS
 10
-0.5789318575
 20
-18.8234561642
 11
-0.5789318575
 21
-17.4679634384
  0
LINE
  5
2AA
100
AcDbEntity
  8
0
100
AcDbLine
 62
7
  6
CONTINUOUS
 10
-0.5772931655
 20
-16.8803026155
 11
-0.5772931655
 21
-15.9463592119
  0
LINE
  5
2AB
100
AcDbEntity
  8
0
100
AcDbLine
 62
7
  6
CONTINUOUS
 10
-0.5577186541
 20
-18.8128495625
 11
-0.5577186541
 21
-17.4785700402
  0
LINE
  5
2AC
100
AcDbEntity
  8
0
100
AcDbLine
 62
7
  6
CONTINUOUS
 10
0.0071673222
 20
-6.1236889484
 11
0.0071673222
 21
-6.0803876783
  0
LINE
  5
2AD
100
AcDbEntity
  8
0
100
AcDbLine
 62
7
  6
CONTINUOUS
 10
0.2269615656
 20
-3.4053343079
 11
0.2269615656
 21
-3.3620330377
  0
LINE
  5
2AE
100
AcDbEntity
  8
0
100
AcDbLine
 62
7
  6
CONTINUOUS
 10
0.3508256237
 20
-17.671520158
 11
0.3508256237
 21
-17.6510528334
  0
LINE
  5
2AF
100
AcDbEntity
  8
0
100
AcDbLine
 62
7
  6
CONTINUOUS
 10
0.5846685015
 20
-6.4124395381
 11
0.5846685015
 21
-6.3691382679
  0
LINE
  5
2B0
100
AcDbEntity
  8
0
100
AcDbLine
 62
7
  6
CONTINUOUS
 10
0.6773659578
 20
-6.4587882663
 11
0.6773659578
 21
-6.4154869961
  0
LINE
  5
2B1
100
AcDbEntity
  8
0
100
AcDbLine
 62
7
  6
CONTINUOUS
 10
-8.6632261221
 20
-14.7813089349
 11
-7.7541675229
 21
-11.7721592398
  0
LINE
  5
2B2
100
AcDbEntity
  8
0
100
AcDbLine
 62
7
  6
CONTINUOUS
 10
-8.6420129186
 20
-14.7707023332
 11
-7.7329543194
 21
-11.7615526381
  0
LINE
  5
2B3
100
AcDbEntity
  8
0
100
AcDbLine
 62
7
  6
CONTINUOUS
 10
-4.6073365785
 20
-13.345574712
 11
-5.1976682103
 21
-14.9734546783
  0
LINE
  5
2B4
100
AcDbEntity
  8
0
100
AcDbLine
 62
7
  6
CONTINUOUS
 10
-2.9084595037
 20
-1.7944922087
 11
-4.839984609
 21
-3.6568117127
  0
LINE
  5
2B5
100
AcDbEntity
  8
0
100
AcDbLine
 62
7
  6
CONTINUOUS
 10
-3.6747497083
 20
-3.3580035897
 11
-2.2671772928
 21
-2.1151333141
  0
LINE
  5
2B6
100
AcDbEntity
  8
0
100
AcDbLine
 62
7
  6
CONTINUOUS
 10
-3.6031788894
 20
-3.3381086489
 11
-2.2671772928
 21
-2.1584345843
  0
LINE
  5
2B7
100
AcDbEntity
  8
0
100
AcDbLine
 62
7
  6
CONTINUOUS
 10
-1.1725420544
 20
-2.6624509333
 11
-3.6747497083
 21
-3.3580035897
  0
LINE
  5
2B8
100
AcDbEntity
  8
0
100
AcDbLine
 62
7
  6
CONTINUOUS
 10
-4.3197541293
 20
-3.9602282227
 11
-0.5826134734
 21
-3.000716494
  0
LINE
  5
2B9
100
AcDbEntity
  8
0
100
AcDbLine
 62
7
  6
CONTINUOUS
 10
-4.3197541293
 20
-3.9169269525
 11
-0.5826134734
 21
-2.9574152238
  0
LINE
  5
2BA
100
AcDbEntity
  8
0
100
AcDbLine
 62
7
  6
CONTINUOUS
 10
4.5531287823
 20
-3.4750496183
 11
4.6816717202
 21
-3.5292884619
  0
LINE
  5
2BB
100
AcDbEntity
  8
0
100
AcDbLine
 62
7
  6
CONTINUOUS
 10
4.5531287823
 20
-3.4317483481
 11
4.6816717202
 21
-3.4859871917
  0
LINE
  5
2BC
100
AcDbEntity
  8
0
100
AcDbLine
 62
7
  6
CONTINUOUS
 10
5.548866328
 20
-4.3641550066
 11
5.4278478523
 21
-4.3124243124
  0
LINE
  5
2BD
100
AcDbEntity
  8
0
100
AcDbLine
 62
7
  6
CONTINUOUS
 10
4.8712952322
 20
-7.4489978066
 11
5.1878169905
 21
-7.6072586857
  0
LINE
  5
2BE
100
AcDbEntity
  8
0
100
AcDbLine
 62
7
  6
CONTINUOUS
 10
-13.0086108387
 20
1.5261270346
 11
-12.9566024612
 21
1.5001228458
  0
LINE
  5
2BF
100
AcDbEntity
  8
0
100
AcDbLine
 62
7
  6
CONTINUOUS
 10
4.8712952322
 20
-7.4056965364
 11
5.1878169905
 21
-7.5639574155
  0
LINE
  5
2C0
100
AcDbEntity
  8
0
100
AcDbLine
 62
7
  6
CONTINUOUS
 10
15.1695943916
 20
-12.4569095634
 11
14.3210662541
 21
-12.0326454947
  0
LINE
  5
2C1
100
AcDbEntity
  8
0
100
AcDbLine
 62
7
  6
CONTINUOUS
 10
-11.983306006
 20
1.1195406354
 11
-12.8318341434
 21
1.5438047041
  0
LINE
  5
2C2
100
AcDbEntity
  8
0
100
AcDbLine
 62
7
  6
CONTINUOUS
 10
-12.7964788044
 20
1.6321930518
 11
-12.7444704268
 21
1.606188863
  0
LINE
  5
2C3
100
AcDbEntity
  8
0
100
AcDbLine
 62
7
  6
CONTINUOUS
 10
15.3463710869
 20
-12.4392318939
 11
15.2943627093
 21
-12.4132277051
  0
LINE
  5
2C4
100
AcDbEntity
  8
0
100
AcDbLine
 62
7
  6
CONTINUOUS
 10
5.6522609776
 20
-7.3330078713
 11
5.3148922586
 21
-7.1643235118
  0
LINE
  5
2C5
100
AcDbEntity
  8
0
100
AcDbLine
 62
7
  6
CONTINUOUS
 10
4.9635898785
 20
-5.7305168998
 11
4.3925148857
 21
-5.4449794034
  0
LINE
  5
2C6
100
AcDbEntity
  8
0
100
AcDbLine
 62
7
  6
CONTINUOUS
 10
3.1482926219
 20
-4.8228682715
 11
2.5642174709
 21
-4.530830696
  0
LINE
  5
2C7
100
AcDbEntity
  8
0
100
AcDbLine
 62
7
  6
CONTINUOUS
 10
1.3897894749
 20
-3.943616698
 11
0.7999450397
 21
-3.6486944804
  0
LINE
  5
2C8
100
AcDbEntity
  8
0
100
AcDbLine
 62
7
  6
CONTINUOUS
 10
-0.5826134734
 20
-2.9574152238
 11
-1.1725420544
 21
-2.6624509333
  0
LINE
  5
2C9
100
AcDbEntity
  8
0
100
AcDbLine
 62
7
  6
CONTINUOUS
 10
-2.2671772928
 20
-2.1151333141
 11
-2.9084595037
 21
-1.7944922087
  0
LINE
  5
2CA
100
AcDbEntity
  8
0
100
AcDbLine
 62
7
  6
CONTINUOUS
 10
0.2269615656
 20
-3.3620330377
 11
-0.3633700662
 21
-3.0668672218
  0
LINE
  5
2CB
100
AcDbEntity
  8
0
100
AcDbLine
 62
250
  6
CONTINUOUS
 10
12.5301524029
 20
-8.8817019053
 11
-5.854623908
 21
0.3106862502
  0
LINE
  5
2CC
100
AcDbEntity
  8
0
100
AcDbLine
 62
7
  6
CONTINUOUS
 10
12.7537592006
 20
-8.8675010117
 11
-5.6310171102
 21
0.3248871438
  0
LINE
  5
2CD
100
AcDbEntity
  8
0
100
AcDbLine
 62
250
  6
CONTINUOUS
 10
-5.3541799324
 20
0.344401887
 11
13.0305963785
 21
-8.8479862684
  0
LINE
  5
2CE
100
AcDbEntity
  8
0
100
AcDbLine
 62
250
  6
CONTINUOUS
 10
-5.2481139152
 20
0.5273387062
 11
13.1366623957
 21
-8.6650494493
  0
LINE
  5
2CF
100
AcDbEntity
  8
0
100
AcDbLine
 62
7
  6
CONTINUOUS
 10
4.7550352874
 20
-4.2601021974
 11
4.8453288328
 21
-4.30524897
  0
LINE
  5
2D0
100
AcDbEntity
  8
0
100
AcDbLine
 62
7
  6
CONTINUOUS
 10
6.0736978138
 20
-4.9075197266
 11
6.1464342992
 21
-4.9438879693
  0
LINE
  5
2D1
100
AcDbEntity
  8
0
100
AcDbLine
 62
7
  6
CONTINUOUS
 10
3.4495405491
 20
-3.5791380611
 11
3.9066518485
 21
-3.8076937108
  0
LINE
  5
2D2
100
AcDbEntity
  8
0
100
AcDbLine
 62
7
  6
CONTINUOUS
 10
4.7550352874
 20
-4.2168009272
 11
4.8453288328
 21
-4.2619476999
  0
LINE
  5
2D3
100
AcDbEntity
  8
0
100
AcDbLine
 62
7
  6
CONTINUOUS
 10
6.0736978138
 20
-4.8642184564
 11
6.1464342992
 21
-4.9005866991
  0
LINE
  5
2D4
100
AcDbEntity
  8
0
100
AcDbLine
 62
7
  6
CONTINUOUS
 10
3.4495405491
 20
-3.5358367909
 11
3.9066518485
 21
-3.7643924406
  0
LINE
  5
2D5
100
AcDbEntity
  8
0
100
AcDbLine
 62
7
  6
CONTINUOUS
 10
3.9242088811
 20
-3.6653202693
 11
3.5573912367
 21
-3.4819114471
  0
LINE
  5
2D6
100
AcDbEntity
  8
0
100
AcDbLine
 62
7
  6
CONTINUOUS
 10
4.9349955222
 20
-3.5236452009
 11
5.3108818318
 21
-3.7115883557
  0
LINE
  5
2D7
100
AcDbEntity
  8
0
100
AcDbLine
 62
7
  6
CONTINUOUS
 10
4.9349955222
 20
-3.4803439307
 11
5.3858363315
 21
-3.7057643354
  0
LINE
  5
2D8
100
AcDbEntity
  8
0
100
AcDbLine
 62
7
  6
CONTINUOUS
 10
7.1095658606
 20
-4.4591513921
 11
6.9966989015
 21
-4.4027179126
  0
LINE
  5
2D9
100
AcDbEntity
  8
0
100
AcDbLine
 62
7
  6
CONTINUOUS
 10
5.6510736621
 20
-3.7299052929
 11
5.04347323
 21
-3.4261050768
  0
LINE
  5
2DA
100
AcDbEntity
  8
0
100
AcDbLine
 62
7
  6
CONTINUOUS
 10
6.0624111788
 20
-3.9198980828
 11
5.9714904968
 21
-3.8744377418
  0
LINE
  5
2DB
100
AcDbEntity
  8
0
100
AcDbLine
 62
250
  6
CONTINUOUS
 10
18.3515749069
 20
-9.8052591339
 11
-7.5285332845
 21
3.1347949618
  0
LINE
  5
2DC
100
AcDbEntity
  8
0
100
AcDbLine
 62
7
  6
CONTINUOUS
 10
18.4284903633
 20
-9.8071816994
 11
-7.5323784155
 21
3.17325269
  0
LINE
  5
2DD
100
AcDbEntity
  8
0
100
AcDbLine
 62
7
  6
CONTINUOUS
 10
18.5637069413
 20
-9.4393854956
 11
-7.3164012502
 21
3.5006686001
  0
LINE
  5
2DE
100
AcDbEntity
  8
0
100
AcDbLine
 62
250
  6
CONTINUOUS
 10
19.9545589271
 20
-9.5460909723
 11
-7.0101969612
 21
3.9362869719
  0
LINE
  5
2DF
100
AcDbEntity
  8
0
100
AcDbLine
 62
7
  6
CONTINUOUS
 10
-6.7865901634
 20
3.9504878655
 11
20.1781657249
 21
-9.5318900787
  0
LINE
  5
2E0
100
AcDbEntity
  8
0
100
AcDbLine
 62
7
  6
CONTINUOUS
 10
4.972617689
 20
-4.0478139199
 11
4.868529438
 21
-3.9838560604
  0
LINE
  5
2E1
100
AcDbEntity
  8
0
100
AcDbLine
 62
7
  6
CONTINUOUS
 10
4.4678516455
 20
-3.5728321428
 11
4.3756769367
 21
-3.5129499458
  0
LINE
  5
2E2
100
AcDbEntity
  8
0
100
AcDbLine
 62
7
  6
CONTINUOUS
 10
4.6227301078
 20
-3.3361249563
 11
4.6231974541
 21
-3.3414549819
  0
LINE
  5
2E3
100
AcDbEntity
  8
0
100
AcDbLine
 62
7
  6
CONTINUOUS
 10
5.342607747
 20
-4.4700500738
 11
5.3435310986
 21
-4.4814351422
  0
LINE
  5
2E4
100
AcDbEntity
  8
0
100
AcDbLine
 62
7
  6
CONTINUOUS
 10
5.3426445724
 20
-4.4267487116
 11
5.3435310986
 21
-4.438133872
  0
LINE
  5
2E5
100
AcDbEntity
  8
0
100
AcDbLine
 62
7
  6
CONTINUOUS
 10
4.7786506701
 20
-3.3592887485
 11
4.7779398346
 21
-3.347715579
  0
LINE
  5
2E6
100
AcDbEntity
  8
0
100
AcDbLine
 62
7
  6
CONTINUOUS
 10
4.2721234008
 20
-3.9284202557
 11
4.2722155175
 21
-3.9334149435
  0
LINE
  5
2E7
100
AcDbEntity
  8
0
100
AcDbLine
 62
7
  6
CONTINUOUS
 10
4.2721657122
 20
-3.8851191822
 11
4.2722155175
 21
-3.8901136733
  0
LINE
  5
2E8
100
AcDbEntity
  8
0
100
AcDbLine
 62
7
  6
CONTINUOUS
 10
4.4258399563
 20
-3.9004598961
 11
4.4258378751
 21
-3.8978587089
  0
LINE
  5
2E9
100
AcDbEntity
  8
0
100
AcDbLine
 62
7
  6
CONTINUOUS
 10
1.2612933235
 20
-6.7507519491
 11
1.2612933235
 21
-6.7074506789
  0
LINE
  5
2EA
100
AcDbEntity
  8
0
100
AcDbLine
 62
7
  6
CONTINUOUS
 10
1.3897894749
 20
-3.9869179682
 11
1.3897894749
 21
-3.943616698
  0
LINE
  5
2EB
100
AcDbEntity
  8
0
100
AcDbLine
 62
7
  6
CONTINUOUS
 10
1.9887739724
 20
-6.5499063996
 11
1.9887739724
 21
-6.5066051295
  0
LINE
  5
2EC
100
AcDbEntity
  8
0
100
AcDbLine
 62
7
  6
CONTINUOUS
 10
2.2964164632
 20
-2.6508072431
 11
2.2964164632
 21
-2.6075059729
  0
LINE
  5
2ED
100
AcDbEntity
  8
0
100
AcDbLine
 62
7
  6
CONTINUOUS
 10
2.3810485303
 20
-7.3106295525
 11
2.3810485303
 21
-7.2673282823
  0
LINE
  5
2EE
100
AcDbEntity
  8
0
100
AcDbLine
 62
250
  6
CONTINUOUS
 10
2.4356189348
 20
-2.6589586937
 11
2.4356189348
 21
-2.6156574235
  0
LINE
  5
2EF
100
AcDbEntity
  8
0
100
AcDbLine
 62
250
  6
CONTINUOUS
 10
2.5440968228
 20
-2.688743122
 11
2.5440968228
 21
-2.6454418518
  0
LINE
  5
2F0
100
AcDbEntity
  8
0
100
AcDbLine
 62
250
  6
CONTINUOUS
 10
2.5823461751
 20
-2.7135112051
 11
2.5823461751
 21
-2.6702099349
  0
LINE
  5
2F1
100
AcDbEntity
  8
0
100
AcDbLine
 62
250
  6
CONTINUOUS
 10
2.623552499
 20
-2.7576253086
 11
2.623552499
 21
-2.7143240384
  0
LINE
  5
2F2
100
AcDbEntity
  8
0
100
AcDbLine
 62
250
  6
CONTINUOUS
 10
2.6977212878
 20
-2.8382918417
 11
2.6977212878
 21
-2.7949905715
  0
LINE
  5
2F3
100
AcDbEntity
  8
0
100
AcDbLine
 62
250
  6
CONTINUOUS
 10
2.7654412774
 20
-2.8834385689
 11
2.7654412774
 21
-2.8401372987
  0
LINE
  5
2F4
100
AcDbEntity
  8
0
100
AcDbLine
 62
250
  6
CONTINUOUS
 10
2.8860339614
 20
-3.2834589908
 11
2.8860339614
 21
-3.2401577206
  0
LINE
  5
2F5
100
AcDbEntity
  8
0
100
AcDbLine
 62
250
  6
CONTINUOUS
 10
2.9855318421
 20
-3.3634367408
 11
2.9855318421
 21
-3.3201354706
  0
LINE
  5
2F6
100
AcDbEntity
  8
0
100
AcDbLine
 62
7
  6
CONTINUOUS
 10
3.0032339084
 20
-7.6217222416
 11
3.0032339084
 21
-7.5784209714
  0
LINE
  5
2F7
100
AcDbEntity
  8
0
100
AcDbLine
 62
7
  6
CONTINUOUS
 10
3.0150029922
 20
-2.9329747504
 11
3.0150029922
 21
-2.8896734802
  0
LINE
  5
2F8
100
AcDbEntity
  8
0
100
AcDbLine
 62
7
  6
CONTINUOUS
 10
3.14354593
 20
-2.8687032815
 11
3.14354593
 21
-2.8254020113
  0
LINE
  5
2F9
100
AcDbEntity
  8
0
100
AcDbLine
 62
7
  6
CONTINUOUS
 10
3.1482926219
 20
-4.8661695417
 11
3.1482926219
 21
-4.8228682715
  0
LINE
  5
2FA
100
AcDbEntity
  8
0
100
AcDbLine
 62
7
  6
CONTINUOUS
 10
3.176583659
 20
-7.708397196
 11
3.176583659
 21
-7.6650959258
  0
LINE
  5
2FB
100
AcDbEntity
  8
0
100
AcDbLine
 62
250
  6
CONTINUOUS
 10
3.2062824211
 20
-3.4196997316
 11
3.2062824211
 21
-3.3763984614
  0
LINE
  5
2FC
100
AcDbEntity
  8
0
100
AcDbLine
 62
250
  6
CONTINUOUS
 10
3.2714614572
 20
-3.0367494879
 11
3.2714614572
 21
-2.9934482177
  0
LINE
  5
2FD
100
AcDbEntity
  8
0
100
AcDbLine
 62
7
  6
CONTINUOUS
 10
3.4495405491
 20
-3.5791380611
 11
3.4495405491
 21
-3.5358367909
  0
LINE
  5
2FE
100
AcDbEntity
  8
0
100
AcDbLine
 62
250
  6
CONTINUOUS
 10
3.4595732511
 20
-3.3929075839
 11
3.4595732511
 21
-3.3496063137
  0
LINE
  5
2FF
100
AcDbEntity
  8
0
100
AcDbLine
 62
250
  6
CONTINUOUS
 10
3.625738486
 20
-2.9129094459
 11
3.625738486
 21
-2.8696081757
  0
LINE
  5
300
100
AcDbEntity
  8
0
100
AcDbLine
 62
250
  6
CONTINUOUS
 10
3.7549085521
 20
-3.2784730353
 11
3.7549085521
 21
-3.2351717651
  0
LINE
  5
301
100
AcDbEntity
  8
0
100
AcDbLine
 62
7
  6
CONTINUOUS
 10
3.7645400562
 20
-8.0023753946
 11
3.7645400562
 21
-7.9590741244
  0
LINE
  5
302
100
AcDbEntity
  8
0
100
AcDbLine
 62
250
  6
CONTINUOUS
 10
3.8314071658
 20
-2.9404990789
 11
3.8314071658
 21
-2.8971978088
  0
LINE
  5
303
100
AcDbEntity
  8
0
100
AcDbLine
 62
7
  6
CONTINUOUS
 10
3.9066518485
 20
-3.8076937108
 11
3.9066518485
 21
-3.7643924406
  0
LINE
  5
304
100
AcDbEntity
  8
0
100
AcDbLine
 62
250
  6
CONTINUOUS
 10
3.989421014
 20
-3.5518619167
 11
3.989421014
 21
-3.5085606465
  0
LINE
  5
305
100
AcDbEntity
  8
0
100
AcDbLine
 62
250
  6
CONTINUOUS
 10
4.0381162934
 20
-3.0461797421
 11
4.0381162934
 21
-3.0242957254
  0
LINE
  5
306
100
AcDbEntity
  8
0
100
AcDbLine
 62
7
  6
CONTINUOUS
 10
4.0407192822
 20
-3.0242957254
 11
4.0407192822
 21
-3.0028784719
  0
LINE
  5
307
100
AcDbEntity
  8
0
100
AcDbLine
 62
250
  6
CONTINUOUS
 10
4.1311317947
 20
-3.314841278
 11
4.1311317947
 21
-3.2715400078
  0
LINE
  5
308
100
AcDbEntity
  8
0
100
AcDbLine
 62
7
  6
CONTINUOUS
 10
4.2720900836
 20
-3.8851189385
 11
4.2720900836
 21
-3.8901136733
  0
LINE
  5
309
100
AcDbEntity
  8
0
100
AcDbLine
 62
250
  6
CONTINUOUS
 10
4.2722155175
 20
-3.9334149435
 11
4.2722155175
 21
-3.9284202087
  0
LINE
  5
30A
100
AcDbEntity
  8
0
100
AcDbLine
 62
250
  6
CONTINUOUS
 10
4.3505817303
 20
-3.2613933547
 11
4.3505817303
 21
-3.2180920845
  0
LINE
  5
30B
100
AcDbEntity
  8
0
100
AcDbLine
 62
250
  6
CONTINUOUS
 10
4.4082828387
 20
-4.0748122391
 11
4.4082828387
 21
-4.0315109689
  0
LINE
  5
30C
100
AcDbEntity
  8
0
100
AcDbLine
 62
7
  6
CONTINUOUS
 10
4.4678516455
 20
-3.616133413
 11
4.4678516455
 21
-3.5728321428
  0
LINE
  5
30D
100
AcDbEntity
  8
0
100
AcDbLine
 62
250
  6
CONTINUOUS
 10
4.4904250318
 20
-3.8631867045
 11
4.4904250318
 21
-3.8198854343
  0
LINE
  5
30E
100
AcDbEntity
  8
0
100
AcDbLine
 62
250
  6
CONTINUOUS
 10
4.5499935852
 20
-3.2997922887
 11
4.5499935852
 21
-3.2564910185
  0
LINE
  5
30F
100
AcDbEntity
  8
0
100
AcDbLine
 62
7
  6
CONTINUOUS
 10
4.5531287823
 20
-3.4750496183
 11
4.5531287823
 21
-3.4317483481
  0
LINE
  5
310
100
AcDbEntity
  8
0
100
AcDbLine
 62
250
  6
CONTINUOUS
 10
4.6227301078
 20
-3.3414549819
 11
4.6227301078
 21
-3.3361249563
  0
LINE
  5
311
100
AcDbEntity
  8
0
100
AcDbLine
 62
7
  6
CONTINUOUS
 10
4.6685516469
 20
-8.45438119
 11
4.6685516469
 21
-8.4110799198
  0
LINE
  5
312
100
AcDbEntity
  8
0
100
AcDbLine
 62
250
  6
CONTINUOUS
 10
4.6791636426
 20
-3.8214885648
 11
4.6791636426
 21
-3.7781872946
  0
LINE
  5
313
100
AcDbEntity
  8
0
100
AcDbLine
 62
7
  6
CONTINUOUS
 10
4.6816717202
 20
-3.5292884619
 11
4.6816717202
 21
-3.4859871917
  0
LINE
  5
314
100
AcDbEntity
  8
0
100
AcDbLine
 62
250
  6
CONTINUOUS
 10
4.685413879
 20
-4.1451859547
 11
4.685413879
 21
-4.1018846845
  0
LINE
  5
315
100
AcDbEntity
  8
0
100
AcDbLine
 62
7
  6
CONTINUOUS
 10
4.7550352874
 20
-4.2601021974
 11
4.7550352874
 21
-4.2168009272
  0
LINE
  5
316
100
AcDbEntity
  8
0
100
AcDbLine
 62
7
  6
CONTINUOUS
 10
4.8453288328
 20
-4.30524897
 11
4.8453288328
 21
-4.2619476999
  0
LINE
  5
317
100
AcDbEntity
  8
0
100
AcDbLine
 62
7
  6
CONTINUOUS
 10
4.8712952322
 20
-7.4489978066
 11
4.8712952322
 21
-7.4056965364
  0
LINE
  5
318
100
AcDbEntity
  8
0
100
AcDbLine
 62
7
  6
CONTINUOUS
 10
4.9349955222
 20
-3.5236452009
 11
4.9349955222
 21
-3.4803439307
  0
LINE
  5
319
100
AcDbEntity
  8
0
100
AcDbLine
 62
7
  6
CONTINUOUS
 10
4.9635898785
 20
-5.77381817
 11
4.9635898785
 21
-5.7305168998
  0
LINE
  5
31A
100
AcDbEntity
  8
0
100
AcDbLine
 62
7
  6
CONTINUOUS
 10
4.972617689
 20
-4.0911151901
 11
4.972617689
 21
-4.0478139199
  0
LINE
  5
31B
100
AcDbEntity
  8
0
100
AcDbLine
 62
250
  6
CONTINUOUS
 10
5.0760701201
 20
-3.8256086782
 11
5.0760701201
 21
-3.782307408
  0
LINE
  5
31C
100
AcDbEntity
  8
0
100
AcDbLine
 62
250
  6
CONTINUOUS
 10
5.1878169905
 20
-7.6072586857
 11
5.1878169905
 21
-7.5639574155
  0
LINE
  5
31D
100
AcDbEntity
  8
0
100
AcDbLine
 62
7
  6
CONTINUOUS
 10
5.236382138
 20
-8.7382964355
 11
5.236382138
 21
-8.6949951653
  0
LINE
  5
31E
100
AcDbEntity
  8
0
100
AcDbLine
 62
7
  6
CONTINUOUS
 10
5.3427473622
 20
-4.4267486074
 11
5.3427473622
 21
-4.4700498776
  0
LINE
  5
31F
100
AcDbEntity
  8
0
100
AcDbLine
 62
250
  6
CONTINUOUS
 10
5.3435310986
 20
-4.4814351422
 11
5.3435310986
 21
-4.4700498776
  0
LINE
  5
320
100
AcDbEntity
  8
0
100
AcDbLine
 62
250
  6
CONTINUOUS
 10
5.3632629657
 20
-3.829953611
 11
5.3632629657
 21
-3.7866523408
  0
LINE
  5
321
100
AcDbEntity
  8
0
100
AcDbLine
 62
250
  6
CONTINUOUS
 10
5.4598268916
 20
-4.6005842655
 11
5.4598268916
 21
-4.5572829953
  0
LINE
  5
322
100
AcDbEntity
  8
0
100
AcDbLine
 62
250
  6
CONTINUOUS
 10
5.4956334737
 20
-4.4385298022
 11
5.4956334737
 21
-4.4337702157
  0
LINE
  5
323
100
AcDbEntity
  8
0
100
AcDbLine
 62
7
  6
CONTINUOUS
 10
5.548866328
 20
-4.4074562768
 11
5.548866328
 21
-4.3641550066
  0
LINE
  5
324
100
AcDbEntity
  8
0
100
AcDbLine
 62
250
  6
CONTINUOUS
 10
5.5598288309
 20
-3.806156481
 11
5.5598288309
 21
-3.7628552108
  0
LINE
  5
325
100
AcDbEntity
  8
0
100
AcDbLine
 62
7
  6
CONTINUOUS
 10
5.6510736621
 20
-3.7732065631
 11
5.6510736621
 21
-3.7299052929
  0
LINE
  5
326
100
AcDbEntity
  8
0
100
AcDbLine
 62
250
  6
CONTINUOUS
 10
5.7808707911
 20
-4.4344189623
 11
5.7808707911
 21
-4.3911176922
  0
LINE
  5
327
100
AcDbEntity
  8
0
100
AcDbLine
 62
250
  6
CONTINUOUS
 10
5.7965528095
 20
-4.6636314239
 11
5.7965528095
 21
-4.6203301537
  0
LINE
  5
328
100
AcDbEntity
  8
0
100
AcDbLine
 62
250
  6
CONTINUOUS
 10
5.8000135465
 20
-8.2546702755
 11
5.8000135465
 21
-8.2113690053
  0
LINE
  5
329
100
AcDbEntity
  8
0
100
AcDbLine
 62
250
  6
CONTINUOUS
 10
5.8304068214
 20
-4.2659876626
 11
5.8304068214
 21
-4.2610071594
  0
LINE
  5
32A
100
AcDbEntity
  8
0
100
AcDbLine
 62
7
  6
CONTINUOUS
 10
5.6723930083
 20
-4.2534826695
 11
5.6723850982
 21
-4.2587581216
  0
LINE
  5
32B
100
AcDbEntity
  8
0
100
AcDbLine
 62
7
  6
CONTINUOUS
 10
5.4955792917
 20
-4.4376799275
 11
5.4956334737
 21
-4.4337702157
  0
LINE
  5
32C
100
AcDbEntity
  8
0
100
AcDbLine
 62
7
  6
CONTINUOUS
 10
-2.7985284409
 20
-16.4871250487
 11
-2.5045926372
 21
-15.3486774245
  0
LINE
  5
32D
100
AcDbEntity
  8
0
100
AcDbLine
 62
7
  6
CONTINUOUS
 10
-2.7773152374
 20
-16.476518447
 11
-2.4967396088
 21
-15.3898163379
  0
LINE
  5
32E
100
AcDbEntity
  8
0
100
AcDbLine
 62
7
  6
CONTINUOUS
 10
-3.0821786693
 20
-17.5718326613
 11
-2.9192838943
 21
-16.9618063953
  0
LINE
  5
32F
100
AcDbEntity
  8
0
100
AcDbLine
 62
7
  6
CONTINUOUS
 10
-3.0609654658
 20
-17.5612260596
 11
-2.9021263718
 21
-16.9663879534
  0
LINE
  5
330
100
AcDbEntity
  8
0
100
AcDbLine
 62
7
  6
CONTINUOUS
 10
-2.7790391638
 20
-14.2597234194
 11
-3.666106035
 21
-17.2798689785
  0
LINE
  5
331
100
AcDbEntity
  8
0
100
AcDbLine
 62
7
  6
CONTINUOUS
 10
-5.1594950507
 20
-16.5331744706
 11
-4.4575904541
 21
-14.6318380468
  0
LINE
  5
332
100
AcDbEntity
  8
0
100
AcDbLine
 62
7
  6
CONTINUOUS
 10
-5.1382818473
 20
-16.5225678689
 11
-4.4554390048
 21
-14.6728663932
  0
LINE
  5
333
100
AcDbEntity
  8
0
100
AcDbLine
 62
7
  6
CONTINUOUS
 10
0.2553370537
 20
-4.3577882316
 11
-0.8988167767
 21
-5.6273956288
  0
LINE
  5
334
100
AcDbEntity
  8
0
100
AcDbLine
 62
7
  6
CONTINUOUS
 10
0.403725533
 20
-5.0207450331
 11
1.3897894749
 21
-3.943616698
  0
LINE
  5
335
100
AcDbEntity
  8
0
100
AcDbLine
 62
7
  6
CONTINUOUS
 10
0.453750634
 20
-5.0094013138
 11
1.3897894749
 21
-3.9869179682
  0
LINE
  5
336
100
AcDbEntity
  8
0
100
AcDbLine
 62
7
  6
CONTINUOUS
 10
0.5846685015
 20
-6.3691382679
 11
3.1482926219
 21
-4.8228682715
  0
LINE
  5
337
100
AcDbEntity
  8
0
100
AcDbLine
 62
7
  6
CONTINUOUS
 10
0.5846685015
 20
-6.4124395381
 11
3.1482926219
 21
-4.8661695417
  0
LINE
  5
338
100
AcDbEntity
  8
0
100
AcDbLine
 62
7
  6
CONTINUOUS
 10
1.7248675795
 20
-5.1002517661
 11
0.0071673222
 21
-6.0803876783
  0
LINE
  5
339
100
AcDbEntity
  8
0
100
AcDbLine
 62
7
  6
CONTINUOUS
 10
4.0813547881
 20
1.0589547994
 11
8.9036843741
 21
3.4701195924
  0
LINE
  5
33A
100
AcDbEntity
  8
0
100
AcDbLine
 62
7
  6
CONTINUOUS
 10
4.092535128
 20
1.0365941196
 11
3.7696003592
 21
0.8751267352
  0
LINE
  5
33B
100
AcDbEntity
  8
ASSI
100
AcDbLine
 62
7
  6
CONTINUOUS
 10
1.5948170779
 20
-0.2402157552
 11
3.7501620773
 21
0.8374567446
  0
LINE
  5
33C
100
AcDbEntity
  8
0
100
AcDbLine
 62
7
  6
CONTINUOUS
 10
-0.3633700662
 20
-3.0668672218
 11
-3.1916218284
 21
-4.4809931029
  0
LINE
  5
33D
100
AcDbEntity
  8
0
100
AcDbLine
 62
7
  6
CONTINUOUS
 10
-2.6012901966
 20
-4.7761589188
 11
0.2269615656
 21
-3.3620330377
  0
LINE
  5
33E
100
AcDbEntity
  8
0
100
AcDbLine
 62
7
  6
CONTINUOUS
 10
-2.6012901966
 20
-4.819460189
 11
0.2269615656
 21
-3.4053343079
  0
LINE
  5
33F
100
AcDbEntity
  8
0
100
AcDbLine
 62
7
  6
CONTINUOUS
 10
2.4293486728
 20
-2.5410398681
 11
2.2964164632
 21
-2.6075059729
  0
LINE
  5
340
100
AcDbEntity
  8
0
100
AcDbLine
 62
7
  6
CONTINUOUS
 10
3.0150029922
 20
-2.8896734802
 11
3.14354593
 21
-2.8254020113
  0
LINE
  5
341
100
AcDbEntity
  8
0
100
AcDbLine
 62
7
  6
CONTINUOUS
 10
3.0150029922
 20
-2.9329747504
 11
3.14354593
 21
-2.8687032815
  0
LINE
  5
342
100
AcDbEntity
  8
0
100
AcDbLine
 62
7
  6
CONTINUOUS
 10
3.5573912367
 20
-3.4819114471
 11
3.4495405491
 21
-3.5358367909
  0
LINE
  5
343
100
AcDbEntity
  8
0
100
AcDbLine
 62
7
  6
CONTINUOUS
 10
-10.0588003497
 20
-10.598629623
 11
-10.0800135531
 21
-10.6092362247
  0
LINE
  5
344
100
AcDbEntity
  8
0
100
AcDbLine
 62
7
  6
CONTINUOUS
 10
5.04347323
 20
-3.4261050768
 11
4.9349955222
 21
-3.4803439307
  0
LINE
  5
345
100
AcDbEntity
  8
0
100
AcDbLine
 62
7
  6
CONTINUOUS
 10
-9.4175181388
 20
-10.9192707284
 11
-9.4387313422
 21
-10.9298773301
  0
LINE
  5
346
100
AcDbEntity
  8
0
100
AcDbLine
 62
7
  6
CONTINUOUS
 10
7.1290853222
 20
-3.0073498773
 11
11.1397523516
 21
-1.0020163626
  0
LINE
  5
347
100
AcDbEntity
  8
0
100
AcDbLine
 62
7
  6
CONTINUOUS
 10
-1.7187410306
 20
-5.2174335018
 11
0.2553370537
 21
-4.3577882316
  0
LINE
  5
348
100
AcDbEntity
  8
0
100
AcDbLine
 62
7
  6
CONTINUOUS
 10
-1.7187410306
 20
-5.260734772
 11
0.1901798755
 21
-4.4294632832
  0
LINE
  5
349
100
AcDbEntity
  8
0
100
AcDbLine
 62
7
  6
CONTINUOUS
 10
0.7999450397
 20
-3.6486944804
 11
-2.2834959031
 21
-4.9350560656
  0
LINE
  5
34A
100
AcDbEntity
  8
0
100
AcDbLine
 62
7
  6
CONTINUOUS
 10
3.9066518485
 20
-3.7643924406
 11
4.4678516455
 21
-3.5728321428
  0
LINE
  5
34B
100
AcDbEntity
  8
0
100
AcDbLine
 62
7
  6
CONTINUOUS
 10
3.9066518485
 20
-3.8076937108
 11
4.4678516455
 21
-3.616133413
  0
LINE
  5
34C
100
AcDbEntity
  8
0
100
AcDbLine
 62
7
  6
CONTINUOUS
 10
4.2207983952
 20
-3.5665617486
 11
3.9242088811
 21
-3.6653202693
  0
LINE
  5
34D
100
AcDbEntity
  8
0
100
AcDbLine
 62
250
  6
CONTINUOUS
 10
5.9294788973
 20
-4.203982204
 11
5.9294788973
 21
-4.1606809338
  0
LINE
  5
34E
100
AcDbEntity
  8
0
100
AcDbLine
 62
250
  6
CONTINUOUS
 10
5.9344329157
 20
-4.4812294386
 11
5.9344329157
 21
-4.4379281684
  0
LINE
  5
34F
100
AcDbEntity
  8
0
100
AcDbLine
 62
7
  6
CONTINUOUS
 10
6.0311327507
 20
-7.7858258571
 11
6.0311327507
 21
-7.7555352584
  0
LINE
  5
350
100
AcDbEntity
  8
0
100
AcDbLine
 62
7
  6
CONTINUOUS
 10
6.0624111788
 20
-3.963199353
 11
6.0624111788
 21
-3.9198980828
  0
LINE
  5
351
100
AcDbEntity
  8
0
100
AcDbLine
 62
7
  6
CONTINUOUS
 10
6.0736978138
 20
-4.9075197266
 11
6.0736978138
 21
-4.8642184564
  0
LINE
  5
352
100
AcDbEntity
  8
0
100
AcDbLine
 62
7
  6
CONTINUOUS
 10
6.0912559791
 20
-6.8194429217
 11
6.0912559791
 21
-6.7761416515
  0
LINE
  5
353
100
AcDbEntity
  8
0
100
AcDbLine
 62
250
  6
CONTINUOUS
 10
6.1376580615
 20
-4.1513298096
 11
6.1376580615
 21
-4.1080285394
  0
LINE
  5
354
100
AcDbEntity
  8
0
100
AcDbLine
 62
7
  6
CONTINUOUS
 10
6.1464342992
 20
-4.9438879693
 11
6.1464342992
 21
-4.9005866991
  0
LINE
  5
355
100
AcDbEntity
  8
0
100
AcDbLine
 62
250
  6
CONTINUOUS
 10
6.2825017265
 20
-4.5190691817
 11
6.2825017265
 21
-4.4757679115
  0
LINE
  5
356
100
AcDbEntity
  8
0
100
AcDbLine
 62
250
  6
CONTINUOUS
 10
6.3182429763
 20
-4.1839169842
 11
6.3182429763
 21
-4.140615714
  0
LINE
  5
357
100
AcDbEntity
  8
0
100
AcDbLine
 62
250
  6
CONTINUOUS
 10
6.3696620601
 20
-4.9325837634
 11
6.3696620601
 21
-4.8892824932
  0
LINE
  5
358
100
AcDbEntity
  8
0
100
AcDbLine
 62
250
  6
CONTINUOUS
 10
6.3843128786
 20
-4.2443998861
 11
6.3843128786
 21
-4.2010986159
  0
LINE
  5
359
100
AcDbEntity
  8
0
100
AcDbLine
 62
250
  6
CONTINUOUS
 10
6.5361607117
 20
-4.303380783
 11
6.5361607117
 21
-4.2857976663
  0
LINE
  5
35A
100
AcDbEntity
  8
0
100
AcDbLine
 62
250
  6
CONTINUOUS
 10
6.5703755479
 20
-7.042354828
 11
6.5703755479
 21
-6.9990535578
  0
LINE
  5
35B
100
AcDbEntity
  8
0
100
AcDbLine
 62
7
  6
CONTINUOUS
 10
6.6430490178
 20
-4.9614450293
 11
6.6430490178
 21
-4.9181437591
  0
LINE
  5
35C
100
AcDbEntity
  8
0
100
AcDbLine
 62
7
  6
CONTINUOUS
 10
6.7521537595
 20
-4.9068926584
 11
6.7521537595
 21
-4.8635913882
  0
LINE
  5
35D
100
AcDbEntity
  8
0
100
AcDbLine
 62
7
  6
CONTINUOUS
 10
7.1095658606
 20
-4.5024526623
 11
7.1095658606
 21
-4.4591513921
  0
LINE
  5
35E
100
AcDbEntity
  8
0
100
AcDbLine
 62
250
  6
CONTINUOUS
 10
8.9944038187
 20
-15.4591812284
 11
8.9944038187
 21
-38.2356493479
  0
LINE
  5
35F
100
AcDbEntity
  8
0
100
AcDbLine
 62
7
  6
CONTINUOUS
 10
10.2985864666
 20
-13.9062545357
 11
10.2985864666
 21
-13.8317533541
  0
LINE
  5
360
100
AcDbEntity
  8
0
100
AcDbLine
 62
250
  6
CONTINUOUS
 10
10.329600736
 20
-15.4946981338
 11
10.329600736
 21
-38.2711662533
  0
LINE
  5
361
100
AcDbEntity
  8
0
100
AcDbLine
 62
7
  6
CONTINUOUS
 10
5.8303035472
 20
-4.2659876626
 11
5.8304068214
 21
-4.2610071594
  0
LINE
  5
362
100
AcDbEntity
  8
0
100
AcDbLine
 62
7
  6
CONTINUOUS
 10
6.5361607117
 20
-4.2600795128
 11
6.5373473548
 21
-4.2424964805
  0
LINE
  5
363
100
AcDbEntity
  8
0
100
AcDbLine
 62
7
  6
CONTINUOUS
 10
6.5361607117
 20
-4.303380783
 11
6.5373609095
 21
-4.2857977414
  0
LINE
  5
364
100
AcDbEntity
  8
0
100
AcDbLine
 62
7
  6
CONTINUOUS
 10
3.0032339084
 20
-7.5784209714
 11
4.9635898785
 21
-5.7305168998
  0
LINE
  5
365
100
AcDbEntity
  8
0
100
AcDbLine
 62
7
  6
CONTINUOUS
 10
3.0032339084
 20
-7.6217222416
 11
4.9635898785
 21
-5.77381817
  0
LINE
  5
366
100
AcDbEntity
  8
0
100
AcDbLine
 62
7
  6
CONTINUOUS
 10
2.7927070064
 20
-6.9085716465
 11
2.3810485303
 21
-7.2673282823
  0
LINE
  5
367
100
AcDbEntity
  8
0
100
AcDbLine
 62
7
  6
CONTINUOUS
 10
3.8898765156
 20
-5.970745115
 11
3.1116036795
 21
-6.6311460791
  0
LINE
  5
368
100
AcDbEntity
  8
0
100
AcDbLine
 62
7
  6
CONTINUOUS
 10
-8.3228829004
 20
-11.4665883476
 11
-8.3440961038
 21
-11.4771949493
  0
LINE
  5
369
100
AcDbEntity
  8
0
100
AcDbLine
 62
7
  6
CONTINUOUS
 10
-7.7329543194
 20
-11.7615526381
 11
-7.7541675229
 21
-11.7721592398
  0
LINE
  5
36A
100
AcDbEntity
  8
0
100
AcDbLine
 62
7
  6
CONTINUOUS
 10
6.9966989015
 20
-4.4027179126
 11
6.0736978138
 21
-4.8642184564
  0
LINE
  5
36B
100
AcDbEntity
  8
0
100
AcDbLine
 62
7
  6
CONTINUOUS
 10
6.390352414
 20
-4.8187581154
 11
7.1095658606
 21
-4.4591513921
  0
LINE
  5
36C
100
AcDbEntity
  8
0
100
AcDbLine
 62
7
  6
CONTINUOUS
 10
6.4696799609
 20
-4.8223956121
 11
7.1095658606
 21
-4.5024526623
  0
LINE
  5
36D
100
AcDbEntity
  8
0
100
AcDbLine
 62
7
  6
CONTINUOUS
 10
-7.5138806178
 20
-11.8708816428
 11
-7.5350938212
 21
-11.8814882445
  0
LINE
  5
36E
100
AcDbEntity
  8
0
100
AcDbLine
 62
7
  6
CONTINUOUS
 10
6.6430490178
 20
-4.9181437591
 11
6.7521537595
 21
-4.8635913882
  0
LINE
  5
36F
100
AcDbEntity
  8
0
100
AcDbLine
 62
7
  6
CONTINUOUS
 10
6.6430490178
 20
-4.9614450293
 11
6.7521537595
 21
-4.9068926584
  0
LINE
  5
370
100
AcDbEntity
  8
0
100
AcDbLine
 62
7
  6
CONTINUOUS
 10
-6.923548986
 20
-12.1660474587
 11
-6.9447621894
 21
-12.1766540604
  0
LINE
  5
371
100
AcDbEntity
  8
0
100
AcDbLine
 62
7
  6
CONTINUOUS
 10
5.9716245394
 20
-6.2675754856
 11
3.176583659
 21
-7.6650959258
  0
LINE
  5
372
100
AcDbEntity
  8
0
100
AcDbLine
 62
7
  6
CONTINUOUS
 10
-6.3503958063
 20
-12.4528318946
 11
-6.3716090098
 21
-12.4634384964
  0
LINE
  5
373
100
AcDbEntity
  8
0
100
AcDbLine
 62
7
  6
CONTINUOUS
 10
5.3148922586
 20
-7.1643235118
 11
6.0912559791
 21
-6.7761416515
  0
LINE
  5
374
100
AcDbEntity
  8
0
100
AcDbLine
 62
7
  6
CONTINUOUS
 10
3.7645400562
 20
-7.9590741244
 11
4.8712952322
 21
-7.4056965364
  0
LINE
  5
375
100
AcDbEntity
  8
0
100
AcDbLine
 62
7
  6
CONTINUOUS
 10
5.3581935288
 20
-7.1859741468
 11
6.0912559791
 21
-6.8194429217
  0
LINE
  5
376
100
AcDbEntity
  8
0
100
AcDbLine
 62
7
  6
CONTINUOUS
 10
-5.7605513711
 20
-12.7477541123
 11
-5.7817645745
 21
-12.758360714
  0
LINE
  5
377
100
AcDbEntity
  8
0
100
AcDbLine
 62
7
  6
CONTINUOUS
 10
3.7645400562
 20
-8.0023753946
 11
4.8712952322
 21
-7.4489978066
  0
LINE
  5
378
100
AcDbEntity
  8
0
100
AcDbLine
 62
7
  6
CONTINUOUS
 10
10.7313035339
 20
-4.8084589831
 11
18.378915242
 21
-0.9846531291
  0
LINE
  5
379
100
AcDbEntity
  8
0
100
AcDbLine
 62
7
  6
CONTINUOUS
 10
-8.6420129186
 20
-14.7707023332
 11
-8.6632261221
 21
-14.7813089349
  0
LINE
  5
37A
100
AcDbEntity
  8
0
100
AcDbLine
 62
7
  6
CONTINUOUS
 10
6.0144212501
 20
-7.7638910086
 11
6.0311327507
 21
-7.7555352584
  0
LINE
  5
37B
100
AcDbEntity
  8
0
100
AcDbLine
 62
7
  6
CONTINUOUS
 10
-4.5861233751
 20
-13.3349681103
 11
-4.6073365785
 21
-13.345574712
  0
LINE
  5
37C
100
AcDbEntity
  8
0
100
AcDbLine
 62
7
  6
CONTINUOUS
 10
-4.0020482241
 20
-13.6270056858
 11
-4.0232614275
 21
-13.6376122875
  0
LINE
  5
37D
100
AcDbEntity
  8
0
100
AcDbLine
 62
7
  6
CONTINUOUS
 10
-6.923548986
 20
-15.6299342995
 11
-6.9447621894
 21
-15.6405409013
  0
LINE
  5
37E
100
AcDbEntity
  8
0
100
AcDbLine
 62
250
  6
CONTINUOUS
 10
13.0305963785
 20
-9.0232679999
 11
13.0305963785
 21
-8.8479862684
  0
LINE
  5
37F
100
AcDbEntity
  8
0
100
AcDbLine
 62
250
  6
CONTINUOUS
 10
15.0705994422
 20
-13.3636838087
 11
15.0705994422
 21
-36.1401519282
  0
LINE
  5
380
100
AcDbEntity
  8
0
100
AcDbLine
 62
7
  6
CONTINUOUS
 10
15.5938584603
 20
-13.1020542996
 11
15.5938584603
 21
-35.8785224192
  0
LINE
  5
381
100
AcDbEntity
  8
0
100
AcDbLine
 62
250
  6
CONTINUOUS
 10
16.1171174784
 20
-12.8404247906
 11
16.1171174784
 21
-35.6168929101
  0
LINE
  5
382
100
AcDbEntity
  8
0
100
AcDbLine
 62
7
  6
CONTINUOUS
 10
15.6098766505
 20
-12.7171276553
 11
15.6082006092
 21
-13.1021167379
  0
LINE
  5
383
100
AcDbEntity
  8
0
100
AcDbLine
 62
7
  6
CONTINUOUS
 10
-2.7578259603
 20
-14.2491168176
 11
-2.7790391638
 21
-14.2597234194
  0
LINE
  5
384
100
AcDbEntity
  8
0
100
AcDbLine
 62
7
  6
CONTINUOUS
 10
-6.04099982
 20
-16.0712088825
 11
-6.0622130234
 21
-16.0818154843
  0
LINE
  5
385
100
AcDbEntity
  8
0
100
AcDbLine
 62
7
  6
CONTINUOUS
 10
-2.1867509675
 20
-14.5346543141
 11
-2.2079641709
 21
-14.5452609158
  0
LINE
  5
386
100
AcDbEntity
  8
0
100
AcDbLine
 62
7
  6
CONTINUOUS
 10
-5.1382818473
 20
-16.5225678689
 11
-5.1594950507
 21
-16.5331744706
  0
LINE
  5
387
100
AcDbEntity
  8
0
100
AcDbLine
 62
7
  6
CONTINUOUS
 10
-1.1456750513
 20
-15.0956593803
 11
-1.1668882547
 21
-15.106265982
  0
LINE
  5
388
100
AcDbEntity
  8
0
100
AcDbLine
 62
7
  6
CONTINUOUS
 10
-2.7773152374
 20
-16.476518447
 11
-2.7985284409
 21
-16.4871250487
  0
LINE
  5
389
100
AcDbEntity
  8
0
100
AcDbLine
 62
7
  6
CONTINUOUS
 10
-3.7375902879
 20
-17.2229136486
 11
-3.7588034913
 21
-17.2335202503
  0
LINE
  5
38A
100
AcDbEntity
  8
0
100
AcDbLine
 62
7
  6
CONTINUOUS
 10
16.3214734776
 20
-7.603543955
 11
20.6149832195
 21
-5.4567890841
  0
LINE
  5
38B
100
AcDbEntity
  8
0
100
AcDbLine
 62
250
  6
CONTINUOUS
 10
0.3111733366
 20
-15.8605507363
 11
0.2899601332
 21
-15.871157338
  0
LINE
  5
38C
100
AcDbEntity
  8
0
100
AcDbLine
 62
7
  6
CONTINUOUS
 10
-3.0609654658
 20
-17.5612260596
 11
-3.0821786693
 21
-17.5718326613
  0
LINE
  5
38D
100
AcDbEntity
  8
0
100
AcDbLine
 62
7
  6
CONTINUOUS
 10
-0.5772931655
 20
-16.8803026155
 11
-0.5985063689
 21
-16.8909092172
  0
LINE
  5
38E
100
AcDbEntity
  8
0
100
AcDbLine
 62
250
  6
CONTINUOUS
 10
-0.2399244464
 20
-17.048986975
 11
-0.2611376499
 21
-17.0595935767
  0
LINE
  5
38F
100
AcDbEntity
  8
0
100
AcDbLine
 62
7
  6
CONTINUOUS
 10
-1.319024881
 20
-18.4321963521
 11
-1.3402380844
 21
-18.4428029538
  0
LINE
  5
390
100
AcDbEntity
  8
0
100
AcDbLine
 62
7
  6
CONTINUOUS
 10
0.3720388272
 20
-17.6609135563
 11
0.3508256237
 21
-17.671520158
  0
LINE
  5
391
100
AcDbEntity
  8
0
100
AcDbLine
 62
7
  6
CONTINUOUS
 10
13.9898503196
 20
-10.6715979895
 11
13.9228480598
 21
-10.2824482595
  0
LINE
  5
392
100
AcDbEntity
  8
0
100
AcDbLine
 62
7
  6
CONTINUOUS
 10
17.9192819729
 20
-10.1084603492
 11
17.9192819729
 21
-10.0214056009
  0
LINE
  5
393
100
AcDbEntity
  8
0
100
AcDbLine
 62
250
  6
CONTINUOUS
 10
20.3791461286
 20
-10.4699254375
 11
20.3791461286
 21
-33.246393557
  0
LINE
  5
394
100
AcDbEntity
  8
0
100
AcDbLine
 62
7
  6
CONTINUOUS
 10
20.6010055365
 20
-32.932348489
 11
20.6010055365
 21
-10.1558803695
  0
LINE
  5
395
100
AcDbEntity
  8
0
100
AcDbLine
 62
7
  6
CONTINUOUS
 10
15.1695943916
 20
-12.4569095634
 11
15.082230675
 21
-12.5192937223
  0
LINE
  5
396
100
AcDbEntity
  8
0
100
AcDbLine
 62
7
  6
CONTINUOUS
 10
-0.5577186541
 20
-18.8128495625
 11
-0.5789318575
 21
-18.8234561642
  0
LINE
  5
397
100
AcDbEntity
  8
0
100
AcDbLine
 62
7
  6
CONTINUOUS
 10
18.3515749069
 20
-9.8052591339
 11
17.9192819729
 21
-10.0214056009
  0
LINE
  5
398
100
AcDbEntity
  8
0
100
AcDbLine
 62
7
  6
CONTINUOUS
 10
9.8662935327
 20
-14.0478998211
 11
10.2985864666
 21
-13.8317533541
  0
LINE
  5
399
100
AcDbEntity
  8
0
100
AcDbLine
 62
7
  6
CONTINUOUS
 10
13.7978072361
 20
-12.2942750037
 11
14.8443252722
 21
-11.7710159856
  0
LINE
  5
39A
100
AcDbEntity
  8
0
100
AcDbLine
 62
7
  6
CONTINUOUS
 10
22.4661310989
 20
-8.133433356
 11
27.2884606849
 21
-5.722268563
  0
LINE
  5
39B
100
AcDbEntity
  8
0
100
AcDbLine
 62
7
  6
CONTINUOUS
 10
22.15437667
 20
-8.3172614202
 11
22.4773114388
 21
-8.1557940358
  0
LINE
  5
39C
100
AcDbEntity
  8
ASSI
100
AcDbLine
 62
7
  6
CONTINUOUS
 10
19.9795933887
 20
-9.4326039106
 11
22.1349383881
 21
-8.3549314109
  0
LINE
  5
39D
100
AcDbEntity
  8
0
100
AcDbLine
 62
7
  6
CONTINUOUS
 10
0.9141234278
 20
-19.5487706034
 11
0.8929102244
 21
-19.5593772051
  0
LINE
  5
39E
100
AcDbEntity
  8
0
100
AcDbLine
 62
250
  6
CONTINUOUS
 10
14.7170460516
 20
-12.7538944115
 11
15.7635640878
 21
-12.2306353934
  0
LINE
  5
39F
100
AcDbEntity
  8
0
100
AcDbLine
 62
250
  6
CONTINUOUS
 10
15.0705994422
 20
-13.3636838087
 11
16.1171174784
 21
-12.8404247906
  0
LINE
  5
3A0
100
AcDbEntity
  8
0
100
AcDbLine
 62
250
  6
CONTINUOUS
 10
0.7123294573
 20
-18.5104767308
 11
0.6910997686
 21
-18.5210009797
  0
LINE
  5
3A1
100
AcDbEntity
  8
0
100
AcDbLine
 62
7
  6
CONTINUOUS
 10
15.1695943916
 20
-12.4569095634
 11
15.2943627093
 21
-12.4132277051
  0
LINE
  5
3A2
100
AcDbEntity
  8
0
100
AcDbLine
 62
7
  6
CONTINUOUS
 10
20.4775960211
 20
-36.5798963139
 11
20.4776799105
 21
-36.5786414832
  0
LINE
  5
3A3
100
AcDbEntity
  8
0
100
AcDbLine
 62
7
  6
CONTINUOUS
 10
-5.0609748674
 20
-34.6695020192
 11
-4.6633322392
 21
-34.4123101246
  0
LINE
  5
3A4
100
AcDbEntity
  8
ASSI
100
AcDbLine
 62
7
  6
CONTINUOUS
 10
20.6010055365
 20
-14.6002643815
 11
24.3262850061
 21
-12.7376246468
  0
LINE
  5
3A5
100
AcDbEntity
  8
0
100
AcDbLine
 62
7
  6
CONTINUOUS
 10
24.3680839677
 20
-12.7446760157
 11
24.6910187365
 21
-12.5832086313
  0
LINE
  5
3A6
100
AcDbEntity
  8
0
100
AcDbLine
 62
7
  6
CONTINUOUS
 10
24.7021990764
 20
-12.605569311
 11
29.5245286624
 21
-10.194404518
  0
LWPOLYLINE
  5
3A7
100
AcDbEntity
  8
0
100
AcDbPolyline
 62
7
  6
CONTINUOUS
 90
10
 70
0
 10
19.409085756
 20
-44.1276284114
 10
19.5793182005
 20
-43.3611264453
 10
19.7456927767
 20
-42.5304695249
 10
19.8957280025
 20
-41.6914600909
 10
20.0298147957
 20
-40.8453268893
 10
20.1486115217
 20
-39.9923657984
 10
20.2527970454
 20
-39.1320314002
 10
20.3428564022
 20
-38.2645125126
 10
20.4191641994
 20
-37.3907577846
 10
20.4776840758
 20
-36.5786422095
  0
LINE
  5
3A8
100
AcDbEntity
  8
0
100
AcDbLine
 62
7
  6
CONTINUOUS
 10
19.4090857766
 20
-44.1276284162
 11
19.4091089664
 21
-44.1275289458
  0
LINE
  5
3A9
100
AcDbEntity
  8
0
100
AcDbLine
 62
7
  6
CONTINUOUS
 10
-2.7801873856
 20
-37.5269400617
 11
-3.3210763978
 21
-37.8831301508
  0
LINE
  5
3AA
100
AcDbEntity
  8
0
100
AcDbLine
 62
7
  6
CONTINUOUS
 10
-5.0013909923
 20
-37.0429728016
 11
-3.8389256033
 21
-36.3856836008
  0
LINE
  5
3AB
100
AcDbEntity
  8
0
100
AcDbLine
 62
7
  6
CONTINUOUS
 10
-3.2143495538
 20
-37.4629179265
 11
-3.5919704171
 21
-37.6383326705
  0
LINE
  5
3AC
100
AcDbEntity
  8
0
100
AcDbLine
 62
250
  6
CONTINUOUS
 10
-2.729903373
 20
-39.3316252344
 11
-2.7296977719
 21
-39.3315494148
  0
LINE
  5
3AD
100
AcDbEntity
  8
0
100
AcDbLine
 62
7
  6
CONTINUOUS
 10
-2.7299117211
 20
-39.3316283119
 11
-2.2859370172
 21
-39.1679636726
  0
LWPOLYLINE
  5
3AE
100
AcDbEntity
  8
0
100
AcDbPolyline
 62
7
  6
CONTINUOUS
 90
19
 70
0
 10
16.2369935043
 20
-52.3890857427
 10
16.4181125119
 20
-52.0680634282
 10
16.6195546055
 20
-51.6939735322
 10
16.8196941914
 20
-51.3087710968
 10
17.0175707062
 20
-50.9129163103
 10
17.2132412148
 20
-50.5058806802
 10
17.4066789204
 20
-50.0868576715
 10
17.5976315168
 20
-49.6554702806
 10
17.7856767448
 20
-49.2117556383
 10
17.9704430757
 20
-48.7555999489
 10
18.1515636017
 20
-48.2868634313
 10
18.3286772171
 20
-47.8053808397
 10
18.5014042345
 20
-47.3110144053
 10
18.6693565761
 20
-46.8036230011
 10
18.8321307392
 20
-46.2830837774
 10
18.9893097443
 20
-45.7492982819
 10
19.1404741743
 20
-45.2021617497
 10
19.2852022508
 20
-44.6415593017
 10
19.4091089664
 20
-44.1275289458
  0
LINE
  5
3AF
100
AcDbEntity
  8
0
100
AcDbLine
 62
7
  6
CONTINUOUS
 10
16.2369910865
 20
-52.3890843352
 11
16.2371335635
 21
-52.388839711
  0
LINE
  5
3B0
100
AcDbEntity
  8
0
100
AcDbLine
 62
250
  6
CONTINUOUS
 10
15.0705994422
 20
-36.1401519282
 11
16.1171174784
 21
-35.6168929101
  0
LWPOLYLINE
  5
3B1
100
AcDbEntity
  8
0
100
AcDbPolyline
 62
7
  6
CONTINUOUS
 90
3
 70
0
 10
16.0870385457
 20
-52.6211783191
 10
16.1827386004
 20
-52.4787059194
 10
16.2371335635
 20
-52.388839711
  0
LWPOLYLINE
  5
3B2
100
AcDbEntity
  8
0
100
AcDbPolyline
 62
7
  6
CONTINUOUS
 90
7
 70
0
 10
15.4548130444
 20
-53.2471163395
 10
15.5207568131
 20
-53.2001086349
 10
15.6440453525
 20
-53.1028385994
 10
15.7629072099
 20
-52.9961009033
 10
15.8767546269
 20
-52.8800503251
 10
15.9849470435
 20
-52.7550002011
 10
16.0870385457
 20
-52.6211783191
  0
LINE
  5
3B3
100
AcDbEntity
  8
0
100
AcDbLine
 62
7
  6
CONTINUOUS
 10
15.4557932957
 20
-53.246445004
 11
15.4547910042
 21
-53.2471347849
  0
LINE
  5
3B4
100
AcDbEntity
  8
0
100
AcDbLine
 62
250
  6
CONTINUOUS
 10
11.621459238
 20
-55.166548587
 11
10.5749412018
 21
-55.6898076051
  0
LINE
  5
3B5
100
AcDbEntity
  8
0
100
AcDbLine
 62
7
  6
CONTINUOUS
 10
9.6995939753
 20
-56.5498694678
 11
10.7461120115
 21
-56.0266104497
  0
LINE
  5
3B6
100
AcDbEntity
  8
0
100
AcDbLine
 62
7
  6
CONTINUOUS
 10
4.6522404567
 20
-58.6486453314
 11
4.6513815629
 21
-58.6489342502
  0
ARC
  5
3B7
100
AcDbEntity
  8
0
100
AcDbCircle
 62
7
  6
CONTINUOUS
 10
-155.6204508189
 20
158.345502975
 40
247.3818997981
100
AcDbArc
 50
307.6190292348
 51
307.7757112993
  0
ARC
  5
3B8
100
AcDbEntity
  8
0
100
AcDbCircle
 62
250
  6
CONTINUOUS
 10
-43.1961291587
 20
-38.2867050441
 40
53.5257321502
100
AcDbArc
 50
356.1076729533
 51
0.0166332548
  0
ARC
  5
3B9
100
AcDbEntity
  8
0
100
AcDbCircle
 62
250
  6
CONTINUOUS
 10
-43.5217232364
 20
-38.2508979115
 40
52.516129269
100
AcDbArc
 50
356.1112819086
 51
0.0166363813
  0
ARC
  5
3BA
100
AcDbEntity
  8
0
100
AcDbCircle
 62
7
  6
CONTINUOUS
 10
69.4767035688
 20
-487.2700289215
 40
456.8161568315
100
AcDbArc
 50
99.2412029104
 51
99.430082193
  0
ARC
  5
3BB
100
AcDbEntity
  8
0
100
AcDbCircle
 62
250
  6
CONTINUOUS
 10
-33.1464113294
 20
-33.2619381822
 40
53.5255597151
100
AcDbArc
 50
356.1076666544
 51
0.0166395537
  0
ARC
  5
3BC
100
AcDbEntity
  8
0
100
AcDbCircle
 62
7
  6
CONTINUOUS
 10
-32.9136757109
 20
-32.9476181012
 40
53.514683426
100
AcDbArc
 50
356.1080898679
 51
0.0163484915
  0
ARC
  5
3BD
100
AcDbEntity
  8
0
100
AcDbCircle
 62
7
  6
CONTINUOUS
 10
-14.1010532352
 20
45.0278159137
 40
63.7164916797
100
AcDbArc
 50
292.5159574892
 51
295.9529533348
  0
ARC
  5
3BE
100
AcDbEntity
  8
0
100
AcDbCircle
 62
7
  6
CONTINUOUS
 10
-13.6673880955
 20
42.7004654184
 40
61.4716066871
100
AcDbArc
 50
292.5134804138
 51
296.538228013
  0
ARC
  5
3BF
100
AcDbEntity
  8
0
100
AcDbCircle
 62
7
  6
CONTINUOUS
 10
-7.8741191538
 20
-21.4053723647
 40
39.2933972796
100
AcDbArc
 50
288.5884642657
 51
296.5669612961
  0
ARC
  5
3C0
100
AcDbEntity
  8
0
100
AcDbCircle
 62
7
  6
CONTINUOUS
 10
-6.7931443122
 20
-20.935347773
 40
39.2303738018
100
AcDbArc
 50
296.5567234521
 51
304.5507350671
  0
ARC
  5
3C1
100
AcDbEntity
  8
0
100
AcDbCircle
 62
7
  6
CONTINUOUS
 10
5.5911310635
 20
-26.7681289433
 40
21.0405852982
100
AcDbArc
 50
188.1687798484
 51
193.6871548345
  0
ARC
  5
3C2
100
AcDbEntity
  8
0
100
AcDbCircle
 62
250
  6
CONTINUOUS
 10
4.046334933
 20
-41.2388612335
 40
19.2749000101
100
AcDbArc
 50
201.3082890662
 51
201.5280500172
  0
ARC
  5
3C3
100
AcDbEntity
  8
0
100
AcDbCircle
 62
250
  6
CONTINUOUS
 10
4.2634029531
 20
-45.705022097
 40
13.6541633278
100
AcDbArc
 50
329.8405420748
 51
331.1623032071
  0
ARC
  5
3C4
100
AcDbEntity
  8
0
100
AcDbCircle
 62
7
  6
CONTINUOUS
 10
1.9919743332
 20
-28.1464846093
 40
10.5245523957
100
AcDbArc
 50
239.7681754139
 51
243.1972972352
  0
ARC
  5
3C5
100
AcDbEntity
  8
TRASH
100
AcDbCircle
 62
7
  6
CONTINUOUS
 10
-4.5053389235
 20
-46.1386362297
 40
9.7756939239
100
AcDbArc
 50
86.0910901283
 51
86.3549936531
  0
ARC
  5
3C6
100
AcDbEntity
  8
0
100
AcDbCircle
 62
7
  6
CONTINUOUS
 10
3.9707479686
 20
-30.76398945
 40
9.7417536713
100
AcDbArc
 50
221.5383110875
 51
221.6617939534
  0
ARC
  5
3C7
100
AcDbEntity
  8
TRASH
100
AcDbCircle
 62
7
  6
CONTINUOUS
 10
-8.5026719883
 20
-44.5743714605
 40
9.4236473484
100
AcDbArc
 50
59.657002981
 51
60.3369525623
  0
ARC
  5
3C8
100
AcDbEntity
  8
0
100
AcDbCircle
 62
7
  6
CONTINUOUS
 10
-2.0917907752
 20
-28.8601734321
 40
9.0993013308
100
AcDbArc
 50
262.3254133356
 51
265.8280171966
  0
ARC
  5
3C9
100
AcDbEntity
  8
TRASH
100
AcDbCircle
 62
7
  6
CONTINUOUS
 10
-10.6397059818
 20
-33.3429323272
 40
8.4917724546
100
AcDbArc
 50
330.6827412798
 51
330.9761393778
  0
ARC
  5
3CA
100
AcDbEntity
  8
TRASH
100
AcDbCircle
 62
7
  6
CONTINUOUS
 10
-11.4159363131
 20
-37.4469026527
 40
8.2016020829
100
AcDbArc
 50
359.8881268208
 51
1.0802733709
  0
ARC
  5
3CB
100
AcDbEntity
  8
0
100
AcDbCircle
 62
250
  6
CONTINUOUS
 10
0.664093494
 20
-49.3825134489
 40
7.7328574617
100
AcDbArc
 50
252.9252567545
 51
254.409057263
  0
ARC
  5
3CC
100
AcDbEntity
  8
0
100
AcDbCircle
 62
7
  6
CONTINUOUS
 10
1.453752665
 20
-33.0924231003
 40
7.5680725801
100
AcDbArc
 50
211.3125898796
 51
211.4666437772
  0
ARC
  5
3CD
100
AcDbEntity
  8
0
100
AcDbCircle
 62
7
  6
CONTINUOUS
 10
-3.7030928576
 20
-30.3346911911
 40
7.1479682775
100
AcDbArc
 50
275.7470799888
 51
275.9051615616
  0
ARC
  5
3CE
100
AcDbEntity
  8
0
100
AcDbCircle
 62
7
  6
CONTINUOUS
 10
-3.0808243718
 20
-43.1629544581
 40
7.1479682752
100
AcDbArc
 50
95.7470799888
 51
95.9051615617
  0
ARC
  5
3CF
100
AcDbEntity
  8
0
100
AcDbCircle
 62
7
  6
CONTINUOUS
 10
1.4525183842
 20
-35.1854757321
 40
6.5325941711
100
AcDbArc
 50
200.6350817705
 51
201.7150278422
  0
ARC
  5
3D0
100
AcDbEntity
  8
0
100
AcDbCircle
 62
7
  6
CONTINUOUS
 10
0.1581613589
 20
-33.4458151877
 40
6.2897156823
100
AcDbArc
 50
214.8835937038
 51
219.986820832
  0
ARC
  5
3D1
100
AcDbEntity
  8
0
100
AcDbCircle
 62
7
  6
CONTINUOUS
 10
-0.8077087452
 20
-38.4569623695
 40
4.391411691
100
AcDbArc
 50
150.1493610333
 51
151.3367396493
  0
ARC
  5
3D2
100
AcDbEntity
  8
0
100
AcDbCircle
 62
7
  6
CONTINUOUS
 10
-6.4395307934
 20
-38.0219285691
 40
4.0827096008
100
AcDbArc
 50
44.4176923845
 51
44.7307082995
  0
ARC
  5
3D3
100
AcDbEntity
  8
0
100
AcDbCircle
 62
7
  6
CONTINUOUS
 10
-2.5047990798
 20
-36.6637156559
 40
2.9008428049
100
AcDbArc
 50
230.4306036678
 51
231.4695985568
  0
ARC
  5
3D4
100
AcDbEntity
  8
0
100
AcDbCircle
 62
7
  6
CONTINUOUS
 10
-1.2589884544
 20
-18.2158264731
 40
2.3696712307
100
AcDbArc
 50
72.489668299
 51
73.8159905458
  0
ARC
  5
3D5
100
AcDbEntity
  8
0
100
AcDbCircle
 62
250
  6
CONTINUOUS
 10
4.0882330319
 20
-56.9733368493
 40
1.7676997895
100
AcDbArc
 50
288.6061234587
 51
289.3256498954
  0
ARC
  5
3D6
100
AcDbEntity
  8
0
100
AcDbCircle
 62
7
  6
CONTINUOUS
 10
-0.0675194521
 20
-18.1038164311
 40
0.6240186658
100
AcDbArc
 50
42.1871355702
 51
42.8405145791
  0
ARC
  5
3D7
100
AcDbEntity
  8
0
100
AcDbCircle
 62
7
  6
CONTINUOUS
 10
-0.0462133887
 20
-18.083857333
 40
0.5948246417
100
AcDbArc
 50
42.8262852991
 51
45.3195496071
  0
ARC
  5
3D8
100
AcDbEntity
  8
0
100
AcDbCircle
 62
7
  6
CONTINUOUS
 10
0.221810239
 20
-17.2157906221
 40
0.4722564735
100
AcDbArc
 50
296.0123743236
 51
296.5857233563
  0
ARC
  5
3D9
100
AcDbEntity
  8
0
100
AcDbCircle
 62
7
  6
CONTINUOUS
 10
-4.0475654702
 20
-34.7806459897
 40
0.3011440999
100
AcDbArc
 50
141.8624037549
 51
144.5290500177
  0
ARC
  5
3DA
100
AcDbEntity
  8
0
100
AcDbCircle
 62
7
  6
CONTINUOUS
 10
-4.0600830605
 20
-34.7707608893
 40
0.2851940789
100
AcDbArc
 50
138.3391889763
 51
141.8713766609
  0
ARC
  5
3DB
100
AcDbEntity
  8
0
100
AcDbCircle
 62
7
  6
CONTINUOUS
 10
5.8590770694
 20
-7.8974470587
 40
0.2048634497
100
AcDbArc
 50
39.6881381299
 51
40.6870607208
  0
ARC
  5
3DC
100
AcDbEntity
  8
0
100
AcDbCircle
 62
7
  6
CONTINUOUS
 10
5.8698587162
 20
-7.8887949148
 40
0.1910414321
100
AcDbArc
 50
32.3365447569
 51
39.7562638811
  0
ARC
  5
3DD
100
AcDbEntity
  8
0
100
AcDbCircle
 62
7
  6
CONTINUOUS
 10
-0.0167870633
 20
-16.9431838366
 40
0.1757621704
100
AcDbArc
 50
296.5802402883
 51
301.5935856912
  0
ARC
  5
3DE
100
AcDbEntity
  8
0
100
AcDbCircle
 62
7
  6
CONTINUOUS
 10
0.3769090057
 20
-17.5750405435
 40
0.0803629954
100
AcDbArc
 50
251.060501113
 51
259.1148317236
  0
ARC
  5
3DF
100
AcDbEntity
  8
0
100
AcDbCircle
 62
7
  6
CONTINUOUS
 10
-11.701411271
 20
39.9613880928
 40
58.1108613044
100
AcDbArc
 50
296.0951686049
 51
296.588955513
  0
ARC
  5
3E0
100
AcDbEntity
  8
0
100
AcDbCircle
 62
7
  6
CONTINUOUS
 10
-11.1626266725
 20
38.8835305052
 40
56.9058445347
100
AcDbArc
 50
296.5895915582
 51
297.1773032956
  0
ARC
  5
3E1
100
AcDbEntity
  8
0
100
AcDbCircle
 62
7
  6
CONTINUOUS
 10
-9.2573122066
 20
35.2168272564
 40
52.7737148896
100
AcDbArc
 50
297.1553590462
 51
300.9950878185
  0
ARC
  5
3E2
100
AcDbEntity
  8
0
100
AcDbCircle
 62
250
  6
CONTINUOUS
 10
-7.1621324119
 20
-3.2817441526
 40
4.0518671336
100
AcDbArc
 50
63.4997120242
 51
66.9853848709
  0
ARC
  5
3E3
100
AcDbEntity
  8
0
100
AcDbCircle
 62
7
  6
CONTINUOUS
 10
-7.2758092965
 20
-2.9667850139
 40
3.6797346276
100
AcDbArc
 50
63.4494868995
 51
66.5115514641
  0
ARC
  5
3E4
100
AcDbEntity
  8
0
100
AcDbCircle
 62
7
  6
CONTINUOUS
 10
-9.099501764
 20
1.0212132137
 40
3.6503072116
100
AcDbArc
 50
242.5271693391
 51
243.4375577543
  0
ARC
  5
3E5
100
AcDbEntity
  8
0
100
AcDbCircle
 62
7
  6
CONTINUOUS
 10
-9.1672368576
 20
0.8910593381
 40
3.5035827375
100
AcDbArc
 50
241.0552394492
 51
242.52803552
  0
ARC
  5
3E6
100
AcDbEntity
  8
0
100
AcDbCircle
 62
7
  6
CONTINUOUS
 10
-9.2911483018
 20
0.6669852612
 40
3.2475295441
100
AcDbArc
 50
238.5354685248
 51
241.0550451361
  0
ARC
  5
3E7
100
AcDbEntity
  8
0
100
AcDbCircle
 62
7
  6
CONTINUOUS
 10
4.3245922541
 20
-2.0610012359
 40
2.6425634757
100
AcDbArc
 50
0.0000993325
 51
0.1994491093
  0
ARC
  5
3E8
100
AcDbEntity
  8
0
100
AcDbCircle
 62
7
  6
CONTINUOUS
 10
4.1035549679
 20
-4.831509417
 40
2.1198907764
100
AcDbArc
 50
116.0737551432
 51
116.5666079969
  0
ARC
  5
3E9
100
AcDbEntity
  8
0
100
AcDbCircle
 62
7
  6
CONTINUOUS
 10
4.0678686028
 20
-4.7585624796
 40
2.0386825733
100
AcDbArc
 50
115.5436189349
 51
116.0739709005
  0
ARC
  5
3EA
100
AcDbEntity
  8
0
100
AcDbCircle
 62
7
  6
CONTINUOUS
 10
-10.312389105
 20
-1.2073932456
 40
1.2784118254
100
AcDbArc
 50
172.7476448224
 51
173.5628271853
  0
ARC
  5
3EB
100
AcDbEntity
  8
0
100
AcDbCircle
 62
7
  6
CONTINUOUS
 10
-10.3163754724
 20
-1.2069418934
 40
1.2743999878
100
AcDbArc
 50
173.5628982377
 51
178.8584689393
  0
ARC
  5
3EC
100
AcDbEntity
  8
0
100
AcDbCircle
 62
7
  6
CONTINUOUS
 10
5.2639015094
 20
-2.5893369886
 40
1.1232523909
100
AcDbArc
 50
270.6869089568
 51
271.3274015039
  0
ARC
  5
3ED
100
AcDbEntity
  8
0
100
AcDbCircle
 62
7
  6
CONTINUOUS
 10
4.5114197269
 20
0.2027846012
 40
0.9581733886
100
AcDbArc
 50
119.905779008
 51
129.342129847
  0
ARC
  5
3EE
100
AcDbEntity
  8
0
100
AcDbCircle
 62
7
  6
CONTINUOUS
 10
4.2009558534
 20
0.0200204196
 40
0.9579283996
100
AcDbArc
 50
122.5116964182
 51
129.659317048
  0
ARC
  5
3EF
100
AcDbEntity
  8
0
100
AcDbCircle
 62
7
  6
CONTINUOUS
 10
4.5017981146
 20
0.2181244684
 40
0.9400792369
100
AcDbArc
 50
116.5658332475
 51
119.8635797303
  0
ARC
  5
3F0
100
AcDbEntity
  8
0
100
AcDbCircle
 62
7
  6
CONTINUOUS
 10
4.5016154493
 20
0.21842839
 40
0.9397257107
100
AcDbArc
 50
113.734588406
 51
116.564159104
  0
ARC
  5
3F1
100
AcDbEntity
  8
0
100
AcDbCircle
 62
7
  6
CONTINUOUS
 10
4.1873367169
 20
0.0404628461
 40
0.9333699058
100
AcDbArc
 50
118.7637213768
 51
122.4811543311
  0
ARC
  5
3F2
100
AcDbEntity
  8
0
100
AcDbCircle
 62
7
  6
CONTINUOUS
 10
4.1841808909
 20
0.0461001571
 40
0.926909596
100
AcDbArc
 50
116.568768883
 51
118.7603978553
  0
ARC
  5
3F3
100
AcDbEntity
  8
0
100
AcDbCircle
 62
7
  6
CONTINUOUS
 10
4.1833187744
 20
0.0478004251
 40
0.9250032793
100
AcDbArc
 50
115.48650954
 51
116.5681126941
  0
ARC
  5
3F4
100
AcDbEntity
  8
0
100
AcDbCircle
 62
7
  6
CONTINUOUS
 10
4.5062520506
 20
0.2092708834
 40
0.9249998623
100
AcDbArc
 50
115.486508013
 51
116.5603964158
  0
ARC
  5
3F5
100
AcDbEntity
  8
0
100
AcDbCircle
 62
7
  6
CONTINUOUS
 10
4.1619511652
 20
0.0138825501
 40
0.9207762934
100
AcDbArc
 50
113.743119317
 51
116.5651619696
  0
ARC
  5
3F6
100
AcDbEntity
  8
0
100
AcDbCircle
 62
7
  6
CONTINUOUS
 10
2.310252181
 20
-3.5590922913
 40
0.9088219388
100
AcDbArc
 50
82.0710941736
 51
85.1366798368
  0
ARC
  5
3F7
100
AcDbEntity
  8
CURVE
100
AcDbCircle
 62
250
  6
CONTINUOUS
 10
-10.7015473364
 20
-1.1992575023
 40
0.8891498863
100
AcDbArc
 50
178.857032589
 51
179.9970292057
  0
ARC
  5
3F8
100
AcDbEntity
  8
0
100
AcDbCircle
 62
7
  6
CONTINUOUS
 10
5.7472205375
 20
-3.8907366533
 40
0.6552570025
100
AcDbArc
 50
281.8625557349
 51
283.7557367827
  0
ARC
  5
3F9
100
AcDbEntity
  8
0
100
AcDbCircle
 62
7
  6
CONTINUOUS
 10
-7.1920803753
 20
3.4425232128
 40
0.4339462761
100
AcDbArc
 50
218.353811064
 51
223.0030875705
  0
ARC
  5
3FA
100
AcDbEntity
  8
0
100
AcDbCircle
 62
7
  6
CONTINUOUS
 10
5.7713484193
 20
-4.6872218377
 40
0.3574451707
100
AcDbArc
 50
128.4932906233
 51
130.5654576979
  0
ARC
  5
3FB
100
AcDbEntity
  8
0
100
AcDbCircle
 62
250
  6
CONTINUOUS
 10
-7.8093159944
 20
3.846932211
 40
0.1485549012
100
AcDbArc
 50
109.0099287222
 51
111.9808003653
  0
ARC
  5
3FC
100
AcDbEntity
  8
0
100
AcDbCircle
 62
7
  6
CONTINUOUS
 10
3.9522934696
 20
-2.9809864985
 40
0.088425813
100
AcDbArc
 50
359.9948901894
 51
3.7980209903
  0
ARC
  5
3FD
100
AcDbEntity
  8
0
100
AcDbCircle
 62
7
  6
CONTINUOUS
 10
3.9529764257
 20
-2.9809713885
 40
0.0877433611
100
AcDbArc
 50
3.8177164284
 51
12.5796409176
  0
ARC
  5
3FE
100
AcDbEntity
  8
0
100
AcDbCircle
 62
7
  6
CONTINUOUS
 10
4.1009585036
 20
-3.3767092911
 40
0.0673569299
100
AcDbArc
 50
178.5489570337
 51
188.6270520672
  0
ARC
  5
3FF
100
AcDbEntity
  8
0
100
AcDbCircle
 62
7
  6
CONTINUOUS
 10
5.89733533
 20
-4.2659319191
 40
0.0671045217
100
AcDbArc
 50
180.0476110957
 51
185.9303759071
  0
ARC
  5
400
100
AcDbEntity
  8
0
100
AcDbCircle
 62
7
  6
CONTINUOUS
 10
3.0838491522
 20
-3.1975763322
 40
0.0652653112
100
AcDbArc
 50
179.9937092857
 51
185.5266343093
  0
ARC
  5
401
100
AcDbEntity
  8
0
100
AcDbCircle
 62
7
  6
CONTINUOUS
 10
5.5559797269
 20
-4.4376403945
 40
0.0604663894
100
AcDbArc
 50
180.037473716
 51
186.3518834069
  0
ARC
  5
402
100
AcDbEntity
  8
0
100
AcDbCircle
 62
7
  6
CONTINUOUS
 10
4.4852065523
 20
-3.8980431466
 40
0.0594157673
100
AcDbArc
 50
182.3311615868
 51
192.0471618406
  0
ARC
  5
403
100
AcDbEntity
  8
0
100
AcDbCircle
 62
7
  6
CONTINUOUS
 10
23.6525262668
 20
-159.4657011551
 40
126.3963133641
100
AcDbArc
 50
102.6749059185
 51
102.9237313572
  0
ARC
  5
404
100
AcDbEntity
  8
0
100
AcDbCircle
 62
250
  6
CONTINUOUS
 10
18.5649537643
 20
-61.0703948516
 40
70.1203231451
100
AcDbArc
 50
111.9781581534
 51
112.1105323438
  0
ARC
  5
405
100
AcDbEntity
  8
0
100
AcDbCircle
 62
7
  6
CONTINUOUS
 10
18.0894641128
 20
-58.4119215071
 40
66.7024174034
100
AcDbArc
 50
112.599004192
 51
113.0107618006
  0
ARC
  5
406
100
AcDbEntity
  8
0
100
AcDbCircle
 62
7
  6
CONTINUOUS
 10
16.4120637079
 20
-54.5153552021
 40
62.4601961289
100
AcDbArc
 50
112.9917287153
 51
116.5025705249
  0
ARC
  5
407
100
AcDbEntity
  8
0
100
AcDbCircle
 62
7
  6
CONTINUOUS
 10
14.0083728654
 20
-51.3678075045
 40
59.5048373781
100
AcDbArc
 50
116.3783899569
 51
116.5649361965
  0
ARC
  5
408
100
AcDbEntity
  8
0
100
AcDbCircle
 62
250
  6
CONTINUOUS
 10
12.7678717875
 20
-51.0700840446
 40
58.5710748075
100
AcDbArc
 50
116.5649359789
 51
116.7542826112
  0
ARC
  5
409
100
AcDbEntity
  8
0
100
AcDbCircle
 62
7
  6
CONTINUOUS
 10
11.053494276
 20
-46.4057073793
 40
52.8102833591
100
AcDbArc
 50
116.4954252719
 51
120.3365073966
  0
ARC
  5
40A
100
AcDbEntity
  8
0
100
AcDbCircle
 62
7
  6
CONTINUOUS
 10
9.1384845463
 20
-43.0946387182
 40
48.9853616843
100
AcDbArc
 50
120.3593762646
 51
120.8954449252
  0
ARC
  5
40B
100
AcDbEntity
  8
0
100
AcDbCircle
 62
7
  6
CONTINUOUS
 10
7.7480160183
 20
-42.4712684234
 40
48.7347409879
100
AcDbArc
 50
121.507575042
 51
121.7759034745
  0
ARC
  5
40C
100
AcDbEntity
  8
0
100
AcDbCircle
 62
7
  6
CONTINUOUS
 10
10.6394735684
 20
-32.484177664
 40
15.0102987991
100
AcDbArc
 50
196.2935371786
 51
196.7687220882
  0
ARC
  5
40D
100
AcDbEntity
  8
0
100
AcDbCircle
 62
250
  6
CONTINUOUS
 10
8.7623655462
 20
-54.7467125551
 40
2.0355521766
100
AcDbArc
 50
313.5462650221
 51
314.2583257635
  0
ARC
  5
40E
100
AcDbEntity
  8
0
100
AcDbCircle
 62
7
  6
CONTINUOUS
 10
9.2952185087
 20
-54.4949012242
 40
2.0218250741
100
AcDbArc
 50
312.2984829569
 51
313.3850070115
  0
ARC
  5
40F
100
AcDbEntity
  8
0
100
AcDbCircle
 62
250
  6
CONTINUOUS
 10
14.4321058951
 20
-51.7600143978
 40
1.8048269674
100
AcDbArc
 50
304.5551317737
 51
305.4308112471
  0
ARC
  5
410
100
AcDbEntity
  8
0
100
AcDbCircle
 62
250
  6
CONTINUOUS
 10
11.1541191482
 20
-7.4324084178
 40
4.4719253405
100
AcDbArc
 50
292.503707053
 51
293.2802620046
  0
ARC
  5
411
100
AcDbEntity
  8
0
100
AcDbCircle
 62
250
  6
CONTINUOUS
 10
9.560145922
 20
-7.4533459468
 40
4.4494113016
100
AcDbArc
 50
245.6884206947
 51
247.7675261322
  0
ARC
  5
412
100
AcDbEntity
  8
0
100
AcDbCircle
 62
7
  6
CONTINUOUS
 10
9.5346226168
 20
-7.6416262789
 40
4.2357039891
100
AcDbArc
 50
245.7449066201
 51
247.082869459
  0
ARC
  5
413
100
AcDbEntity
  8
0
100
AcDbCircle
 62
250
  6
CONTINUOUS
 10
9.4342471758
 20
-7.7352649249
 40
4.1406607564
100
AcDbArc
 50
244.292619655
 51
245.6699952187
  0
ARC
  5
414
100
AcDbEntity
  8
0
100
AcDbCircle
 62
7
  6
CONTINUOUS
 10
9.412628667
 20
-7.9124015379
 40
3.9387161703
100
AcDbArc
 50
243.4638127776
 51
245.7447691265
  0
ARC
  5
415
100
AcDbEntity
  8
0
100
AcDbCircle
 62
250
  6
CONTINUOUS
 10
9.3451038528
 20
-7.9215972654
 40
3.9341032502
100
AcDbArc
 50
243.4374689023
 51
244.2852456858
  0
ARC
  5
416
100
AcDbEntity
  8
0
100
AcDbCircle
 62
250
  6
CONTINUOUS
 10
11.2872220602
 20
-11.3744795733
 40
2.7854651926
100
AcDbArc
 50
59.7061891691
 51
63.4985780526
  0
ARC
  5
417
100
AcDbEntity
  8
0
100
AcDbCircle
 62
7
  6
CONTINUOUS
 10
9.3006080725
 20
0.8734964984
 40
2.7000000352
100
AcDbArc
 50
325.1044806044
 51
88.0256027656
  0
ARC
  5
418
100
AcDbEntity
  8
0
100
AcDbCircle
 62
7
  6
CONTINUOUS
 10
18.7758389404
 20
-3.5812762231
 40
2.7000000352
100
AcDbArc
 50
325.1044806044
 51
88.0256026172
  0
ARC
  5
419
100
AcDbEntity
  8
0
100
AcDbCircle
 62
7
  6
CONTINUOUS
 10
22.7093685643
 20
-11.2533893914
 40
2.6425634764
100
AcDbArc
 50
0.0000993326
 51
0.1994491092
  0
ARC
  5
41A
100
AcDbEntity
  8
0
100
AcDbCircle
 62
7
  6
CONTINUOUS
 10
12.6555200548
 20
-10.3992781825
 40
1.2730148839
100
AcDbArc
 50
1.1450411269
 51
5.6419720792
  0
ARC
  5
41B
100
AcDbEntity
  8
0
100
AcDbCircle
 62
7
  6
CONTINUOUS
 10
23.8319384017
 20
-11.8197420282
 40
1.0465311243
100
AcDbArc
 50
317.621743246
 51
318.1599087867
  0
ARC
  5
41C
100
AcDbEntity
  8
0
100
AcDbCircle
 62
7
  6
CONTINUOUS
 10
6.519668658
 20
-5.8459842217
 40
1.0095271179
100
AcDbArc
 50
76.6857899018
 51
77.5745070395
  0
ARC
  5
41D
100
AcDbEntity
  8
0
100
AcDbCircle
 62
7
  6
CONTINUOUS
 10
23.9423762113
 20
-11.8843255154
 40
0.9601641506
100
AcDbArc
 50
283.7777122811
 51
288.5027947237
  0
ARC
  5
41E
100
AcDbEntity
  8
0
100
AcDbCircle
 62
7
  6
CONTINUOUS
 10
22.8961960378
 20
-8.9896035542
 40
0.9581733886
100
AcDbArc
 50
119.905779008
 51
129.342129847
  0
ARC
  5
41F
100
AcDbEntity
  8
0
100
AcDbCircle
 62
7
  6
CONTINUOUS
 10
22.5857321643
 20
-9.1723677358
 40
0.9579283996
100
AcDbArc
 50
122.5116964182
 51
129.659317048
  0
ARC
  5
420
100
AcDbEntity
  8
0
100
AcDbCircle
 62
7
  6
CONTINUOUS
 10
24.2776299826
 20
-11.7547631196
 40
0.9508701924
100
AcDbArc
 50
283.7282498428
 51
293.722923257
  0
ARC
  5
421
100
AcDbEntity
  8
0
100
AcDbCircle
 62
7
  6
CONTINUOUS
 10
22.8865744255
 20
-8.9742636871
 40
0.9400792369
100
AcDbArc
 50
116.5658332475
 51
119.8635797303
  0
ARC
  5
422
100
AcDbEntity
  8
0
100
AcDbCircle
 62
7
  6
CONTINUOUS
 10
24.2817557499
 20
-11.76473898
 40
0.9400792369
100
AcDbArc
 50
296.5658332475
 51
299.8635797303
  0
ARC
  5
423
100
AcDbEntity
  8
0
100
AcDbCircle
 62
7
  6
CONTINUOUS
 10
24.2819384152
 20
-11.7650429016
 40
0.9397257108
100
AcDbArc
 50
293.734588406
 51
296.564159104
  0
ARC
  5
424
100
AcDbEntity
  8
0
100
AcDbCircle
 62
7
  6
CONTINUOUS
 10
22.8863917602
 20
-8.9739597655
 40
0.9397257108
100
AcDbArc
 50
113.734588406
 51
116.564159104
  0
ARC
  5
425
100
AcDbEntity
  8
0
100
AcDbCircle
 62
7
  6
CONTINUOUS
 10
23.9499190961
 20
-11.9070607421
 40
0.9362104098
100
AcDbArc
 50
288.50659312
 51
294.319183683
  0
ARC
  5
426
100
AcDbEntity
  8
0
100
AcDbCircle
 62
7
  6
CONTINUOUS
 10
22.5721130277
 20
-9.1519253093
 40
0.9333699058
100
AcDbArc
 50
118.7637213768
 51
122.4811543311
  0
ARC
  5
427
100
AcDbEntity
  8
0
100
AcDbCircle
 62
7
  6
CONTINUOUS
 10
24.2743194297
 20
-11.7502422904
 40
0.9313809707
100
AcDbArc
 50
296.5692776774
 51
302.4703134425
  0
ARC
  5
428
100
AcDbEntity
  8
0
100
AcDbCircle
 62
7
  6
CONTINUOUS
 10
23.910214181
 20
-11.906777059
 40
0.9292114713
100
AcDbArc
 50
298.6662506211
 51
305.9406278983
  0
ARC
  5
429
100
AcDbEntity
  8
0
100
AcDbCircle
 62
7
  6
CONTINUOUS
 10
22.5689572017
 20
-9.1462879983
 40
0.926909596
100
AcDbArc
 50
116.568768883
 51
118.7603978553
  0
ARC
  5
42A
100
AcDbEntity
  8
0
100
AcDbCircle
 62
7
  6
CONTINUOUS
 10
23.9541795517
 20
-11.9169609374
 40
0.9254341858
100
AcDbArc
 50
294.3312372308
 51
296.5676470361
  0
ARC
  5
42B
100
AcDbEntity
  8
0
100
AcDbCircle
 62
7
  6
CONTINUOUS
 10
22.5680950852
 20
-9.1445877303
 40
0.9250032793
100
AcDbArc
 50
115.48650954
 51
116.5681126941
  0
ARC
  5
42C
100
AcDbEntity
  8
0
100
AcDbCircle
 62
7
  6
CONTINUOUS
 10
22.8910283615
 20
-8.9831172721
 40
0.9249998623
100
AcDbArc
 50
115.486508013
 51
116.5603964157
  0
ARC
  5
42D
100
AcDbEntity
  8
0
100
AcDbCircle
 62
7
  6
CONTINUOUS
 10
22.546727476
 20
-9.1785056053
 40
0.9207762933
100
AcDbArc
 50
113.743119317
 51
116.5651619696
  0
ARC
  5
42E
100
AcDbEntity
  8
0
100
AcDbCircle
 62
7
  6
CONTINUOUS
 10
23.9145711987
 20
-11.9142327557
 40
0.92057957
100
AcDbArc
 50
296.5660455094
 51
298.6509134089
  0
ARC
  5
42F
100
AcDbEntity
  8
0
100
AcDbCircle
 62
7
  6
CONTINUOUS
 10
18.2362510403
 20
-9.5751857901
 40
0.2573583838
100
AcDbArc
 50
296.6222392985
 51
301.3887779031
  0
ARC
  5
430
100
AcDbEntity
  8
0
100
AcDbCircle
 62
7
  6
CONTINUOUS
 10
9.7793673632
 20
-13.8862377025
 40
0.1831110071
100
AcDbArc
 50
284.2418707018
 51
285.8159857782
  0
ARC
  5
431
100
AcDbEntity
  8
0
100
AcDbCircle
 62
7
  6
CONTINUOUS
 10
6.4278992682
 20
-4.2425266103
 40
0.1096097853
100
AcDbArc
 50
0.0157495982
 51
15.4850514348
  0
ARC
  5
432
100
AcDbEntity
  8
0
100
AcDbCircle
 62
7
  6
CONTINUOUS
 10
6.3044917282
 20
-4.2804977638
 40
0.0876040686
100
AcDbArc
 50
24.3341237506
 51
30.127141083
  0
ARC
  5
433
100
AcDbEntity
  8
0
100
AcDbCircle
 62
7
  6
CONTINUOUS
 10
39.7983153536
 20
-24.3847734677
 40
58.0615625653
100
AcDbArc
 50
180.0147474396
 51
183.729837978
  0
ARC
  5
434
100
AcDbEntity
  8
0
100
AcDbCircle
 62
250
  6
CONTINUOUS
 10
39.9972974457
 20
-24.7086996746
 40
57.967666651
100
AcDbArc
 50
180.0440551149
 51
183.7015093692
  0
ARC
  5
435
100
AcDbEntity
  8
0
100
AcDbCircle
 62
250
  6
CONTINUOUS
 10
29.3980857394
 20
13.5965196226
 40
76.7379956242
100
AcDbArc
 50
243.6544761444
 51
243.8589920288
  0
ARC
  5
436
100
AcDbEntity
  8
0
100
AcDbCircle
 62
250
  6
CONTINUOUS
 10
44.9837113003
 20
-17.789552253
 40
48.8372201039
100
AcDbArc
 50
215.2601461539
 51
220.3296510182
  0
ARC
  5
437
100
AcDbEntity
  8
0
100
AcDbCircle
 62
7
  6
CONTINUOUS
 10
27.6853843833
 20
-8.318891657
 40
2.7000000352
100
AcDbArc
 50
325.1044806044
 51
88.0256027656
  0
SPLINE
  5
438
100
AcDbEntity
  8
0
100
AcDbSpline
 62
7
  6
CONTINUOUS
 70
0
 71
3
 72
19
 73
15
 74
0
 42
0.0000001
 43
0.0000001
 44
0.0000000001
 40
0.0
 40
0.0
 40
0.0
 40
0.0
 40
0.0489089817
 40
0.098976239
 40
0.1509001083
 40
0.2052613774
 40
0.3223608095
 40
0.3854027291
 40
0.4510603795
 40
0.5881874362
 40
0.729055276
 40
0.7991913149
 40
0.8681485765
 40
1.0
 40
1.0
 40
1.0
 40
1.0
 10
-5.0609302124
 20
-34.6694956811
 30
0.0
 10
-5.1269184326
 20
-34.712168496
 30
0.0
 10
-5.2515894744
 20
-34.8130582006
 30
0.0
 10
-5.4066754193
 20
-35.0012587843
 30
0.0
 10
-5.5292360364
 20
-35.222016479
 30
0.0
 10
-5.6510733966
 20
-35.560944942
 30
0.0
 10
-5.7001236447
 20
-35.9393473438
 30
0.0
 10
-5.6874028123
 20
-36.3344052871
 30
0.0
 10
-5.6308767296
 20
-36.75846897
 30
0.0
 10
-5.4816819865
 20
-37.2931821854
 30
0.0
 10
-5.2439610913
 20
-37.8023640935
 30
0.0
 10
-5.0048825507
 20
-38.1839940775
 30
0.0
 10
-4.743314397
 20
-38.5323395918
 30
0.0
 10
-4.5159829592
 20
-38.7648962319
 30
0.0
 10
-4.3526717456
 20
-38.8998407842
 30
0.0
  0
SPLINE
  5
439
100
AcDbEntity
  8
0
100
AcDbSpline
 62
7
  6
CONTINUOUS
 70
0
 71
3
 72
11
 73
7
 74
0
 42
0.0000001
 43
0.0000001
 44
0.0000000001
 40
0.0
 40
0.0
 40
0.0
 40
0.0
 40
0.259017682
 40
0.5108129945
 40
0.7571537846
 40
1.0
 40
1.0
 40
1.0
 40
1.0
 10
-3.4312071261
 20
-39.3723000307
 30
0.0
 10
-3.371068051
 20
-39.3848096434
 30
0.0
 10
-3.2508582109
 20
-39.4025227533
 30
0.0
 10
-3.070777107
 20
-39.4053029901
 30
0.0
 10
-2.8958463741
 20
-39.3831997379
 30
0.0
 10
-2.7837047611
 20
-39.3514614795
 30
0.0
 10
-2.7296754309
 20
-39.3315218809
 30
0.0
  0
SPLINE
  5
43A
100
AcDbEntity
  8
0
100
AcDbSpline
 62
7
  6
CONTINUOUS
 70
0
 71
3
 72
9
 73
5
 74
0
 42
0.0000001
 43
0.0000001
 44
0.0000000001
 40
0.0
 40
0.0
 40
0.0
 40
0.0
 40
0.2406246448
 40
1.0
 40
1.0
 40
1.0
 40
1.0
 10
-2.7537695809
 20
-37.9353631695
 30
0.0
 10
-2.750424759
 20
-37.9038242447
 30
0.0
 10
-2.7402312876
 20
-37.7723689827
 30
0.0
 10
-2.7442073557
 20
-37.6399610314
 30
0.0
 10
-2.7537531008
 20
-37.5403269676
 30
0.0
  0
SPLINE
  5
43B
100
AcDbEntity
  8
0
100
AcDbSpline
 62
7
  6
CONTINUOUS
 70
0
 71
3
 72
9
 73
5
 74
0
 42
0.0000001
 43
0.0000001
 44
0.0000000001
 40
0.0
 40
0.0
 40
0.0
 40
0.0
 40
0.2480092558
 40
1.0
 40
1.0
 40
1.0
 40
1.0
 10
-3.7325443674
 20
-36.8147862231
 30
0.0
 10
-3.6992558969
 20
-36.8493307554
 30
0.0
 10
-3.5644269836
 20
-36.9880300503
 30
0.0
 10
-3.4266581299
 20
-37.1238917045
 30
0.0
 10
-3.3210763234
 20
-37.2239478931
 30
0.0
  0
SPLINE
  5
43C
100
AcDbEntity
  8
0
100
AcDbSpline
 62
7
  6
CONTINUOUS
 70
0
 71
3
 72
9
 73
5
 74
0
 42
0.0000001
 43
0.0000001
 44
0.0000000001
 40
0.0
 40
0.0
 40
0.0
 40
0.0
 40
0.2560875482
 40
1.0
 40
1.0
 40
1.0
 40
1.0
 10
-3.5061178632
 20
-35.1830773439
 30
0.0
 10
-3.5386827035
 20
-35.3100700897
 30
0.0
 10
-3.6562912912
 20
-35.8083317955
 30
0.0
 10
-3.7351021837
 20
-36.3160254096
 30
0.0
 10
-3.7679657651
 20
-36.6954437313
 30
0.0
  0
SPLINE
  5
43D
100
AcDbEntity
  8
0
100
AcDbSpline
 62
7
  6
CONTINUOUS
 70
0
 71
3
 72
9
 73
5
 74
0
 42
0.0000001
 43
0.0000001
 44
0.0000000001
 40
0.0
 40
0.0
 40
0.0
 40
0.0
 40
0.2615136687
 40
1.0
 40
1.0
 40
1.0
 40
1.0
 10
-3.7679656199
 20
-38.0267387397
 30
0.0
 10
-3.7571394076
 20
-38.1409035827
 30
0.0
 10
-3.7040634288
 20
-38.5761545854
 30
0.0
 10
-3.6021617048
 20
-39.0063439327
 30
0.0
 10
-3.4941108017
 20
-39.3116215659
 30
0.0
  0
LINE
  5
43E
100
AcDbEntity
  8
0
100
AcDbLine
 62
7
  6
CONTINUOUS
 10
-3.7325445265
 20
-37.9518706916
 11
-3.7679656199
 21
-38.0267387397
  0
SPLINE
  5
43F
100
AcDbEntity
  8
0
100
AcDbSpline
 62
7
  6
CONTINUOUS
 70
0
 71
3
 72
9
 73
5
 74
0
 42
0.0000001
 43
0.0000001
 44
0.0000000001
 40
0.0
 40
0.0
 40
0.0
 40
0.0
 40
0.2381270895
 40
1.0
 40
1.0
 40
1.0
 40
1.0
 10
-5.0013909365
 20
-36.3837905533
 30
0.0
 10
-4.9743683473
 20
-36.381168827
 30
0.0
 10
-4.860906233
 20
-36.3699818481
 30
0.0
 10
-4.7474733759
 20
-36.3584717036
 30
0.0
 10
-4.6609701304
 20
-36.3505736738
 30
0.0
  0
LINE
  5
440
100
AcDbEntity
  8
0
100
AcDbLine
 62
7
  6
CONTINUOUS
 10
-5.0013909365
 20
-36.3837905533
 11
-5.0121148419
 21
-36.3872622814
  0
SPLINE
  5
441
100
AcDbEntity
  8
0
100
AcDbSpline
 62
7
  6
CONTINUOUS
 70
0
 71
3
 72
9
 73
5
 74
0
 42
0.0000001
 43
0.0000001
 44
0.0000000001
 40
0.0
 40
0.0
 40
0.0
 40
0.0
 40
0.2392227226
 40
1.0
 40
1.0
 40
1.0
 40
1.0
 10
-5.3698311568
 20
-36.232124237
 30
0.0
 10
-5.3419082326
 20
-36.2458122645
 30
0.0
 10
-5.2244668176
 20
-36.3015635132
 30
0.0
 10
-5.1043997537
 20
-36.3517099262
 30
0.0
 10
-5.0121148419
 20
-36.3872622814
 30
0.0
  0
SPLINE
  5
442
100
AcDbEntity
  8
0
100
AcDbSpline
 62
7
  6
CONTINUOUS
 70
0
 71
3
 72
10
 73
6
 74
0
 42
0.0000001
 43
0.0000001
 44
0.0000000001
 40
0.0
 40
0.0
 40
0.0
 40
0.0
 40
0.5212741917
 40
0.7611968984
 40
1.0
 40
1.0
 40
1.0
 40
1.0
 10
-3.4941108017
 20
-39.3116215659
 30
0.0
 10
-3.4888359217
 20
-39.3265247536
 30
0.0
 10
-3.4768599306
 20
-39.3475824749
 30
0.0
 10
-3.4521928523
 20
-39.3658385683
 30
0.0
 10
-3.4382976872
 20
-39.3708253344
 30
0.0
 10
-3.4312069269
 20
-39.3722995954
 30
0.0
  0
SPLINE
  5
443
100
AcDbEntity
  8
0
100
AcDbSpline
 62
7
  6
CONTINUOUS
 70
0
 71
3
 72
10
 73
6
 74
0
 42
0.0000001
 43
0.0000001
 44
0.0000000001
 40
0.0
 40
0.0
 40
0.0
 40
0.0
 40
0.5263537326
 40
0.7648780543
 40
1.0
 40
1.0
 40
1.0
 40
1.0
 10
-4.2227464629
 20
-38.941711744
 30
0.0
 10
-4.2379985816
 20
-38.9476586242
 30
0.0
 10
-4.2625588918
 20
-38.9524489702
 30
0.0
 10
-4.2931835854
 20
-38.9451299366
 30
0.0
 10
-4.3060992905
 20
-38.9375348589
 30
0.0
 10
-4.3118202913
 20
-38.932980137
 30
0.0
  0
LINE
  5
444
100
AcDbEntity
  8
0
100
AcDbLine
 62
7
  6
CONTINUOUS
 10
-3.8162226833
 20
-38.7831824924
 11
-4.2227464629
 21
-38.941711744
  0
SPLINE
  5
445
100
AcDbEntity
  8
0
100
AcDbSpline
 62
7
  6
CONTINUOUS
 70
0
 71
3
 72
9
 73
5
 74
0
 42
0.0000001
 43
0.0000001
 44
0.0000000001
 40
0.0
 40
0.0
 40
0.0
 40
0.0
 40
0.2457350965
 40
1.0
 40
1.0
 40
1.0
 40
1.0
 10
-3.6113505617
 20
-38.9292133579
 30
0.0
 10
-3.6286820275
 20
-38.9180558904
 30
0.0
 10
-3.6986559843
 20
-38.8717929315
 30
0.0
 10
-3.7664151539
 20
-38.8221959543
 30
0.0
 10
-3.8162226833
 20
-38.7831824924
 30
0.0
  0
LINE
  5
446
100
AcDbEntity
  8
0
100
AcDbLine
 62
7
  6
CONTINUOUS
 10
-3.6811805839
 20
-36.0109081023
 11
-3.796603002
 21
-36.0509145668
  0
LINE
  5
447
100
AcDbEntity
  8
0
100
AcDbLine
 62
7
  6
CONTINUOUS
 10
-4.0812168317
 20
-36.1495727462
 11
-4.6609701304
 21
-36.3505736738
  0
LINE
  5
448
100
AcDbEntity
  8
0
100
AcDbLine
 62
7
  6
CONTINUOUS
 10
-3.8162226833
 20
-36.0529164985
 11
-4.0812168317
 21
-36.1495727462
  0
LINE
  5
449
100
AcDbEntity
  8
0
100
AcDbLine
 62
7
  6
CONTINUOUS
 10
-2.9950247392
 20
-37.4620959179
 11
-2.9873142271
 21
-37.4467310847
  0
LINE
  5
44A
100
AcDbEntity
  8
0
100
AcDbLine
 62
7
  6
CONTINUOUS
 10
-2.9641557122
 20
-37.4310315303
 11
-2.9729423271
 21
-37.4369881419
  0
LINE
  5
44B
100
AcDbEntity
  8
0
100
AcDbLine
 62
7
  6
CONTINUOUS
 10
-2.9729423271
 20
-37.4369881419
 11
-2.9873142271
 21
-37.4467310847
  0
LINE
  5
44C
100
AcDbEntity
  8
0
100
AcDbLine
 62
7
  6
CONTINUOUS
 10
-3.2326886943
 20
-37.6130670537
 11
-3.7325445265
 21
-37.9518706916
  0
LINE
  5
44D
100
AcDbEntity
  8
0
100
AcDbLine
 62
7
  6
CONTINUOUS
 10
-2.9676945459
 20
-37.444729153
 11
-2.9825789676
 21
-37.4541849587
  0
LINE
  5
44E
100
AcDbEntity
  8
0
100
AcDbLine
 62
7
  6
CONTINUOUS
 10
-2.9825789676
 20
-37.4541849587
 11
-2.9950273117
 21
-37.4620931267
  0
LINE
  5
44F
100
AcDbEntity
  8
0
100
AcDbLine
 62
7
  6
CONTINUOUS
 10
-2.9950273117
 20
-37.4620931267
 11
-3.0119240381
 21
-37.472827197
  0
LINE
  5
450
100
AcDbEntity
  8
0
100
AcDbLine
 62
7
  6
CONTINUOUS
 10
-3.0119240381
 20
-37.472827197
 11
-3.2326886943
 21
-37.6130670537
  0
SPLINE
  5
451
100
AcDbEntity
  8
0
100
AcDbSpline
 62
250
  6
CONTINUOUS
 70
0
 71
3
 72
11
 73
7
 74
0
 42
0.0000001
 43
0.0000001
 44
0.0000000001
 40
0.0
 40
0.0
 40
0.0
 40
0.0
 40
0.2436573056
 40
0.4888274517
 40
0.7397139802
 40
1.0
 40
1.0
 40
1.0
 40
1.0
 10
-2.7296995989
 20
-39.331545347
 30
0.0
 10
-2.6777524063
 20
-39.3123838558
 30
0.0
 10
-2.5765675623
 20
-39.2650407952
 30
0.0
 10
-2.4379937172
 20
-39.168547939
 30
0.0
 10
-2.3145058879
 20
-39.0479701887
 30
0.0
 10
-2.244638509
 20
-38.9545489053
 30
0.0
 10
-2.2125896839
 20
-38.9048370677
 30
0.0
  0
SPLINE
  5
452
100
AcDbEntity
  8
0
100
AcDbSpline
 62
7
  6
CONTINUOUS
 70
0
 71
3
 72
9
 73
5
 74
0
 42
0.0000001
 43
0.0000001
 44
0.0000000001
 40
0.0
 40
0.0
 40
0.0
 40
0.0
 40
0.5096386243
 40
1.0
 40
1.0
 40
1.0
 40
1.0
 10
-3.3210763978
 20
-37.8831301508
 30
0.0
 10
-3.3906074125
 20
-37.8968856246
 30
0.0
 10
-3.5273669484
 20
-37.9222554155
 30
0.0
 10
-3.664901608
 20
-37.943190452
 30
0.0
 10
-3.7325445265
 20
-37.9518706916
 30
0.0
  0
LINE
  5
453
100
AcDbEntity
  8
0
100
AcDbLine
 62
7
  6
CONTINUOUS
 10
-3.30697176
 20
-37.8779680562
 11
-3.3210763978
 21
-37.8831301508
  0
SPLINE
  5
454
100
AcDbEntity
  8
0
100
AcDbSpline
 62
7
  6
CONTINUOUS
 70
0
 71
3
 72
9
 73
5
 74
0
 42
0.0000001
 43
0.0000001
 44
0.0000000001
 40
0.0
 40
0.0
 40
0.0
 40
0.0
 40
0.2435315646
 40
1.0
 40
1.0
 40
1.0
 40
1.0
 10
-4.6164937573
 20
-36.2711779858
 30
0.0
 10
-4.6054000128
 20
-36.1430982116
 30
0.0
 10
-4.54775793
 20
-35.6182548581
 30
0.0
 10
-4.4436380811
 20
-35.0987936836
 30
0.0
 10
-4.3426389392
 20
-34.7124403414
 30
0.0
  0
SPLINE
  5
455
100
AcDbEntity
  8
0
100
AcDbSpline
 62
7
  6
CONTINUOUS
 70
0
 71
3
 72
9
 73
5
 74
0
 42
0.0000001
 43
0.0000001
 44
0.0000000001
 40
0.0
 40
0.0
 40
0.0
 40
0.0
 40
0.2406246448
 40
1.0
 40
1.0
 40
1.0
 40
1.0
 10
-5.3698311568
 20
-36.232124237
 30
0.0
 10
-5.3731759788
 20
-36.2636631617
 30
0.0
 10
-5.3833694501
 20
-36.3951184235
 30
0.0
 10
-5.379393382
 20
-36.5275263745
 30
0.0
 10
-5.3698476369
 20
-36.6271604382
 30
0.0
  0
SPLINE
  5
456
100
AcDbEntity
  8
0
100
AcDbSpline
 62
7
  6
CONTINUOUS
 70
0
 71
3
 72
9
 73
5
 74
0
 42
0.0000001
 43
0.0000001
 44
0.0000000001
 40
0.0
 40
0.0
 40
0.0
 40
0.0
 40
0.2538182582
 40
1.0
 40
1.0
 40
1.0
 40
1.0
 10
-5.0119896778
 20
-37.0256022896
 30
0.0
 10
-5.0439120171
 20
-36.9934301859
 30
0.0
 10
-5.1681383416
 20
-36.8651603844
 30
0.0
 10
-5.2860642826
 20
-36.7307601717
 30
0.0
 10
-5.3698476369
 20
-36.6271604382
 30
0.0
  0
SPLINE
  5
457
100
AcDbEntity
  8
0
100
AcDbSpline
 62
7
  6
CONTINUOUS
 70
0
 71
3
 72
9
 73
5
 74
0
 42
0.0000001
 43
0.0000001
 44
0.0000000001
 40
0.0
 40
0.0
 40
0.0
 40
0.0
 40
0.238976479
 40
1.0
 40
1.0
 40
1.0
 40
1.0
 10
-4.3426389392
 20
-38.8873574972
 30
0.0
 10
-4.3776075538
 20
-38.7885602117
 30
0.0
 10
-4.5094019884
 20
-38.3700295683
 30
0.0
 10
-4.5849862204
 20
-37.9347295809
 30
0.0
 10
-4.6164939025
 20
-37.6024731394
 30
0.0
  0
SPLINE
  5
458
100
AcDbEntity
  8
0
100
AcDbSpline
 62
250
  6
CONTINUOUS
 70
0
 71
3
 72
15
 73
11
 74
0
 42
0.0000001
 43
0.0000001
 44
0.0000000001
 40
0.0
 40
0.0
 40
0.0
 40
0.0
 40
0.1244823344
 40
0.2416307681
 40
0.3550441268
 40
0.4690586599
 40
0.5878768005
 40
0.7148178233
 40
0.8519318404
 40
1.0
 40
1.0
 40
1.0
 40
1.0
 10
-3.4941108017
 20
-39.3116215659
 30
0.0
 10
-3.4099370433
 20
-39.3280466895
 30
0.0
 10
-3.2429170654
 20
-39.3448332551
 30
0.0
 10
-2.9979604676
 20
-39.3145895236
 30
0.0
 10
-2.7742598301
 20
-39.2277489681
 30
0.0
 10
-2.5788635805
 20
-39.0865942641
 30
0.0
 10
-2.4171917179
 20
-38.8958566164
 30
0.0
 10
-2.292635177
 20
-38.6613526432
 30
0.0
 10
-2.2072444279
 20
-38.3891841953
 30
0.0
 10
-2.178367601
 20
-38.1940257095
 30
0.0
 10
-2.1700492909
 20
-38.0923547859
 30
0.0
  0
SPLINE
  5
459
100
AcDbEntity
  8
0
100
AcDbSpline
 62
250
  6
CONTINUOUS
 70
0
 71
3
 72
23
 73
19
 74
0
 42
0.0000001
 43
0.0000001
 44
0.0000000001
 40
0.0
 40
0.0
 40
0.0
 40
0.0
 40
0.0510411608
 40
0.0989391472
 40
0.1454734622
 40
0.1927272016
 40
0.2426198965
 40
0.2965326748
 40
0.3551785523
 40
0.4186565144
 40
0.4865725566
 40
0.5581628752
 40
0.6324011534
 40
0.7080908724
 40
0.7839478665
 40
0.8586781016
 40
0.9310549348
 40
1.0
 40
1.0
 40
1.0
 40
1.0
 10
-4.3426389392
 20
-34.7124403414
 30
0.0
 10
-4.4331170274
 20
-34.6947850316
 30
0.0
 10
-4.6127804512
 20
-34.6779700633
 30
0.0
 10
-4.8753807327
 20
-34.7176199499
 30
0.0
 10
-5.1120271376
 20
-34.823279727
 30
0.0
 10
-5.3137715135
 20
-34.9913317646
 30
0.0
 10
-5.4744503184
 20
-35.2149611901
 30
0.0
 10
-5.5906600967
 20
-35.4865031826
 30
0.0
 10
-5.6604680257
 20
-35.7982241764
 30
0.0
 10
-5.6827543336
 20
-36.1419123284
 30
0.0
 10
-5.6572778444
 20
-36.5086008381
 30
0.0
 10
-5.5848590241
 20
-36.8886294901
 30
0.0
 10
-5.4674872371
 20
-37.2718827163
 30
0.0
 10
-5.3083293405
 20
-37.6480906091
 30
0.0
 10
-5.1116772823
 20
-38.0071313606
 30
0.0
 10
-4.8827992641
 20
-38.3393594424
 30
0.0
 10
-4.6278993157
 20
-38.6357861753
 30
0.0
 10
-4.4396424149
 20
-38.8092826532
 30
0.0
 10
-4.3426389392
 20
-38.8873574972
 30
0.0
  0
SPLINE
  5
45A
100
AcDbEntity
  8
0
100
AcDbSpline
 62
250
  6
CONTINUOUS
 70
0
 71
3
 72
11
 73
7
 74
0
 42
0.0000001
 43
0.0000001
 44
0.0000000001
 40
0.0
 40
0.0
 40
0.0
 40
0.0
 40
0.2603154746
 40
0.5111716399
 40
0.7563398573
 40
1.0
 40
1.0
 40
1.0
 40
1.0
 10
-4.4096043389
 20
-34.5116901411
 30
0.0
 10
-4.4685883968
 20
-34.5075218737
 30
0.0
 10
-4.5852014392
 20
-34.507398402
 30
0.0
 10
-4.7556791623
 20
-34.533899723
 30
0.0
 10
-4.9159344169
 20
-34.5868839003
 30
0.0
 10
-5.0144695771
 20
-34.6394282311
 30
0.0
 10
-5.0609446351
 20
-34.6694857619
 30
0.0
  0
SPLINE
  5
45B
100
AcDbEntity
  8
0
100
AcDbSpline
 62
7
  6
CONTINUOUS
 70
0
 71
3
 72
9
 73
5
 74
0
 42
0.0000001
 43
0.0000001
 44
0.0000000001
 40
0.0
 40
0.0
 40
0.0
 40
0.0
 40
0.247431171
 40
1.0
 40
1.0
 40
1.0
 40
1.0
 10
-4.3426389392
 20
-34.7124403414
 30
0.0
 10
-4.3401780507
 20
-34.7030266724
 30
0.0
 10
-4.3284434567
 20
-34.6654745146
 30
0.0
 10
-4.3099976384
 20
-34.6299937239
 30
0.0
 10
-4.2928201887
 20
-34.605895047
 30
0.0
  0
SPLINE
  5
45C
100
AcDbEntity
  8
0
100
AcDbSpline
 62
7
  6
CONTINUOUS
 70
0
 71
3
 72
9
 73
5
 74
0
 42
0.0000001
 43
0.0000001
 44
0.0000000001
 40
0.0
 40
0.0
 40
0.0
 40
0.0
 40
0.2491762422
 40
1.0
 40
1.0
 40
1.0
 40
1.0
 10
-3.6303803917
 20
-35.7310517683
 30
0.0
 10
-3.6444716943
 20
-35.7574695149
 30
0.0
 10
-3.7008300467
 20
-35.8635914827
 30
0.0
 10
-3.7562137723
 20
-35.9702414394
 30
0.0
 10
-3.796603002
 20
-36.0509145668
 30
0.0
  0
SPLINE
  5
45D
100
AcDbEntity
  8
0
100
AcDbSpline
 62
7
  6
CONTINUOUS
 70
0
 71
3
 72
9
 73
5
 74
0
 42
0.0000001
 43
0.0000001
 44
0.0000000001
 40
0.0
 40
0.0
 40
0.0
 40
0.0
 40
0.5000291303
 40
1.0
 40
1.0
 40
1.0
 40
1.0
 10
-5.0119896778
 20
-37.0256022896
 30
0.0
 10
-4.8239129381
 20
-36.9185244916
 30
0.0
 10
-4.4476514677
 20
-36.704609329
 30
0.0
 10
-4.071909297
 20
-36.4897828983
 30
0.0
 10
-3.883854471
 20
-36.3827175764
 30
0.0
  0
LINE
  5
45E
100
AcDbEntity
  8
0
100
AcDbLine
 62
7
  6
CONTINUOUS
 10
-3.8162226833
 20
-37.0204654045
 11
-3.7966030141
 21
-37.0420867825
  0
LINE
  5
45F
100
AcDbEntity
  8
0
100
AcDbLine
 62
7
  6
CONTINUOUS
 10
-4.0812163402
 20
-37.1888028676
 11
-3.8162226833
 21
-37.0204654045
  0
LINE
  5
460
100
AcDbEntity
  8
0
100
AcDbLine
 62
7
  6
CONTINUOUS
 10
-4.0812163402
 20
-37.1888028676
 11
-4.66097022
 21
-37.4876581076
  0
LINE
  5
461
100
AcDbEntity
  8
0
100
AcDbLine
 62
7
  6
CONTINUOUS
 10
-3.6064683777
 20
-36.9440730946
 11
-3.7966030141
 21
-37.0420867825
  0
SPLINE
  5
462
100
AcDbEntity
  8
0
100
AcDbSpline
 62
7
  6
CONTINUOUS
 70
0
 71
3
 72
9
 73
5
 74
0
 42
0.0000001
 43
0.0000001
 44
0.0000000001
 40
0.0
 40
0.0
 40
0.0
 40
0.0
 40
0.2496899485
 40
1.0
 40
1.0
 40
1.0
 40
1.0
 10
-3.7966030141
 20
-37.0420867825
 30
0.0
 10
-3.7799986077
 20
-37.0918571777
 30
0.0
 10
-3.7128762347
 20
-37.2909785268
 30
0.0
 10
-3.6439781514
 20
-37.4894955479
 30
0.0
 10
-3.5919704171
 20
-37.6383326705
 30
0.0
  0
LINE
  5
463
100
AcDbEntity
  8
0
100
AcDbLine
 62
7
  6
CONTINUOUS
 10
-3.2355442851
 20
-37.500887232
 11
-3.5823571133
 21
-37.6605539692
  0
LINE
  5
464
100
AcDbEntity
  8
0
100
AcDbLine
 62
7
  6
CONTINUOUS
 10
-3.4929435687
 20
-37.7894739568
 11
-3.2355725963
 21
-37.5008791284
  0
SPLINE
  5
465
100
AcDbEntity
  8
0
100
AcDbSpline
 62
7
  6
CONTINUOUS
 70
0
 71
3
 72
9
 73
5
 74
0
 42
0.0000001
 43
0.0000001
 44
0.0000000001
 40
0.0
 40
0.0
 40
0.0
 40
0.0
 40
0.478277518
 40
1.0
 40
1.0
 40
1.0
 40
1.0
 10
-4.3118202913
 20
-38.932980137
 30
0.0
 10
-4.318754921
 20
-38.9274591956
 30
0.0
 10
-4.3313278319
 20
-38.9133837826
 30
0.0
 10
-4.339412737
 20
-38.8964725285
 30
0.0
 10
-4.3426389392
 20
-38.8873574972
 30
0.0
  0
SPLINE
  5
466
100
AcDbEntity
  8
TRASH
100
AcDbSpline
 62
7
  6
CONTINUOUS
 70
0
 71
3
 72
9
 73
5
 74
0
 42
0.0000001
 43
0.0000001
 44
0.0000000001
 40
0.0
 40
0.0
 40
0.0
 40
0.0
 40
0.2611924232
 40
1.0
 40
1.0
 40
1.0
 40
1.0
 10
-3.8389244943
 20
-36.3856848345
 30
0.0
 10
-3.8433309752
 20
-36.3581252014
 30
0.0
 10
-3.8572618076
 20
-36.2521928113
 30
0.0
 10
-3.8592610596
 20
-36.1444517975
 30
0.0
 10
-3.8520216574
 20
-36.0658392393
 30
0.0
  0
LINE
  5
467
100
AcDbEntity
  8
0
100
AcDbLine
 62
7
  6
CONTINUOUS
 10
-2.7762946388
 20
-37.5289113301
 11
-2.785627359
 21
-37.5350496744
  0
LINE
  5
468
100
AcDbEntity
  8
0
100
AcDbLine
 62
7
  6
CONTINUOUS
 10
-2.785627359
 20
-37.5350496744
 11
-3.30697176
 21
-37.8779680562
  0
SPLINE
  5
469
100
AcDbEntity
  8
TRASH
100
AcDbSpline
 62
7
  6
CONTINUOUS
 70
0
 71
3
 72
9
 73
5
 74
0
 42
0.0000001
 43
0.0000001
 44
0.0000000001
 40
0.0
 40
0.0
 40
0.0
 40
0.0
 40
0.2447149881
 40
1.0
 40
1.0
 40
1.0
 40
1.0
 10
-3.1087146754
 20
-37.5344618284
 30
0.0
 10
-3.1176581437
 20
-37.5291336672
 30
0.0
 10
-3.1538756678
 20
-37.5068114195
 30
0.0
 10
-3.1887772276
 20
-37.4823691295
 30
0.0
 10
-3.2143498644
 20
-37.4629167243
 30
0.0
  0
SPLINE
  5
46A
100
AcDbEntity
  8
0
100
AcDbSpline
 62
7
  6
CONTINUOUS
 70
0
 71
3
 72
9
 73
5
 74
0
 42
0.0000001
 43
0.0000001
 44
0.0000000001
 40
0.0
 40
0.0
 40
0.0
 40
0.0
 40
0.5100170907
 40
1.0
 40
1.0
 40
1.0
 40
1.0
 10
11.5151312763
 20
-0.6711143989
 30
0.0
 10
11.4660861113
 20
-0.741448761
 30
0.0
 10
11.3542866833
 20
-0.869420379
 30
0.0
 10
11.2134346459
 20
-0.9651789647
 30
0.0
 10
11.1397492498
 20
-1.0020101583
 30
0.0
  0
SPLINE
  5
46B
100
AcDbEntity
  8
0
100
AcDbSpline
 62
7
  6
CONTINUOUS
 70
0
 71
3
 72
9
 73
5
 74
0
 42
0.0000001
 43
0.0000001
 44
0.0000000001
 40
0.0
 40
0.0
 40
0.0
 40
0.0
 40
0.5100123512
 40
1.0
 40
1.0
 40
1.0
 40
1.0
 10
9.3936316802
 20
3.5718875863
 30
0.0
 10
9.307936982
 20
3.5748329786
 30
0.0
 10
9.1384735216
 20
3.5622253657
 30
0.0
 10
8.9773737981
 20
3.5069450447
 30
0.0
 10
8.9036874758
 20
3.4701133881
 30
0.0
  0
SPLINE
  5
46C
100
AcDbEntity
  8
0
100
AcDbSpline
 62
7
  6
CONTINUOUS
 70
0
 71
3
 72
11
 73
7
 74
0
 42
0.0000001
 43
0.0000001
 44
0.0000000001
 40
0.0
 40
0.0
 40
0.0
 40
0.0
 40
0.2761640187
 40
0.5348265295
 40
0.7755574254
 40
1.0
 40
1.0
 40
1.0
 40
1.0
 10
11.7894853158
 20
0.3501681384
 30
0.0
 10
11.7894853158
 20
0.2514284163
 30
0.0
 10
11.7788147944
 20
0.0599593141
 30
0.0
 10
11.7276222934
 20
-0.2134617897
 30
0.0
 10
11.6423906974
 20
-0.4589238721
 30
0.0
 10
11.5610313244
 20
-0.6052903649
 30
0.0
 10
11.5151312763
 20
-0.6711143989
 30
0.0
  0
SPLINE
  5
46D
100
AcDbEntity
  8
0
100
AcDbSpline
 62
7
  6
CONTINUOUS
 70
0
 71
3
 72
9
 73
5
 74
0
 42
0.0000001
 43
0.0000001
 44
0.0000000001
 40
0.0
 40
0.0
 40
0.0
 40
0.0
 40
0.2692320236
 40
1.0
 40
1.0
 40
1.0
 40
1.0
 10
6.9671557298
 20
-2.0609966546
 30
0.0
 10
6.9671557298
 20
-2.1335637584
 30
0.0
 10
6.9561369434
 20
-2.4026468765
 30
0.0
 10
6.8980079652
 20
-2.6723070562
 30
0.0
 10
6.8196620152
 20
-2.8530216174
 30
0.0
  0
SPLINE
  5
46E
100
AcDbEntity
  8
0
100
AcDbSpline
 62
7
  6
CONTINUOUS
 70
0
 71
3
 72
16
 73
12
 74
0
 42
0.0000001
 43
0.0000001
 44
0.0000000001
 40
0.0
 40
0.0
 40
0.0
 40
0.0
 40
0.1261284288
 40
0.260845756
 40
0.3997207102
 40
0.5377448852
 40
0.6700349946
 40
0.7924695707
 40
0.8491817011
 40
0.9026402328
 40
1.0
 40
1.0
 40
1.0
 40
1.0
 10
11.7894853158
 20
0.3501681384
 30
0.0
 10
11.7894853158
 20
0.5323287392
 30
0.0
 10
11.7510635526
 20
0.9095459349
 30
0.0
 10
11.5987696535
 20
1.4685951202
 30
0.0
 10
11.35808842
 20
2.0145494773
 30
0.0
 10
11.042372086
 20
2.5167157137
 30
0.0
 10
10.669291768
 20
2.9470495128
 30
0.0
 10
10.3184945858
 20
3.2333557186
 30
0.0
 10
10.0268955104
 20
3.4017374112
 30
0.0
 10
9.7513231192
 20
3.5203024269
 30
0.0
 10
9.5341602466
 20
3.5670575119
 30
0.0
 10
9.3936316802
 20
3.5718875863
 30
0.0
  0
SPLINE
  5
46F
100
AcDbEntity
  8
0
100
AcDbSpline
 62
7
  6
CONTINUOUS
 70
0
 71
3
 72
18
 73
14
 74
0
 42
0.0000001
 43
0.0000001
 44
0.0000000001
 40
0.0
 40
0.0
 40
0.0
 40
0.0
 40
0.0447725808
 40
0.0911996008
 40
0.1403752113
 40
0.193030776
 40
0.3096291879
 40
0.3735996243
 40
0.4407178599
 40
0.5816268725
 40
0.72630359
 40
0.8678686596
 40
1.0
 40
1.0
 40
1.0
 40
1.0
 10
4.1233754072
 20
1.0786718915
 30
0.0
 10
4.1887004933
 20
1.1073949062
 30
0.0
 10
4.3289842442
 20
1.1506644435
 30
0.0
 10
4.5535291043
 20
1.1687577783
 30
0.0
 10
4.7896007446
 20
1.141058861
 30
0.0
 10
5.1245573299
 20
1.0412248475
 30
0.0
 10
5.451878487
 20
0.8543716657
 30
0.0
 10
5.7581753882
 20
0.604824755
 30
0.0
 10
6.0648013395
 20
0.2972822362
 30
0.0
 10
6.4027492207
 20
-0.1559930504
 30
0.0
 10
6.7135432488
 20
-0.7652491187
 30
0.0
 10
6.9138817616
 20
-1.4045065614
 30
0.0
 10
6.9664069845
 20
-1.8412057448
 30
0.0
 10
6.967139719
 20
-2.0518023757
 30
0.0
  0
SPLINE
  5
470
100
AcDbEntity
  8
0
100
AcDbSpline
 62
7
  6
CONTINUOUS
 70
0
 71
3
 72
9
 73
5
 74
0
 42
0.0000001
 43
0.0000001
 44
0.0000000001
 40
0.0
 40
0.0
 40
0.0
 40
0.0
 40
0.5100170907
 40
1.0
 40
1.0
 40
1.0
 40
1.0
 10
20.9903621442
 20
-5.1258871204
 30
0.0
 10
20.9413169792
 20
-5.1962214825
 30
0.0
 10
20.8295175512
 20
-5.3241931005
 30
0.0
 10
20.6886655138
 20
-5.4199516862
 30
0.0
 10
20.6149801177
 20
-5.4567828798
 30
0.0
  0
SPLINE
  5
471
100
AcDbEntity
  8
0
100
AcDbSpline
 62
7
  6
CONTINUOUS
 70
0
 71
3
 72
9
 73
5
 74
0
 42
0.0000001
 43
0.0000001
 44
0.0000000001
 40
0.0
 40
0.0
 40
0.0
 40
0.0
 40
0.5100123512
 40
1.0
 40
1.0
 40
1.0
 40
1.0
 10
18.8688625481
 20
-0.8828851352
 30
0.0
 10
18.7831678499
 20
-0.8799397428
 30
0.0
 10
18.6137043895
 20
-0.8925473558
 30
0.0
 10
18.452604666
 20
-0.9478276768
 30
0.0
 10
18.3789183437
 20
-0.9846593334
 30
0.0
  0
SPLINE
  5
472
100
AcDbEntity
  8
0
100
AcDbSpline
 62
7
  6
CONTINUOUS
 70
0
 71
3
 72
11
 73
7
 74
0
 42
0.0000001
 43
0.0000001
 44
0.0000000001
 40
0.0
 40
0.0
 40
0.0
 40
0.0
 40
0.2761640187
 40
0.5348265295
 40
0.7755574254
 40
1.0
 40
1.0
 40
1.0
 40
1.0
 10
21.2647161837
 20
-4.1046045831
 30
0.0
 10
21.2647161837
 20
-4.2033443052
 30
0.0
 10
21.2540456623
 20
-4.3948134074
 30
0.0
 10
21.2028531613
 20
-4.6682345112
 30
0.0
 10
21.1176215653
 20
-4.9136965935
 30
0.0
 10
21.0362621923
 20
-5.0600630864
 30
0.0
 10
20.9903621442
 20
-5.1258871204
 30
0.0
  0
SPLINE
  5
473
100
AcDbEntity
  8
0
100
AcDbSpline
 62
7
  6
CONTINUOUS
 70
0
 71
3
 72
16
 73
12
 74
0
 42
0.0000001
 43
0.0000001
 44
0.0000000001
 40
0.0
 40
0.0
 40
0.0
 40
0.0
 40
0.1261284288
 40
0.260845756
 40
0.3997207102
 40
0.5377448852
 40
0.6700349946
 40
0.7924695707
 40
0.8491817011
 40
0.9026402328
 40
1.0
 40
1.0
 40
1.0
 40
1.0
 10
21.2647161837
 20
-4.1046045831
 30
0.0
 10
21.2647161837
 20
-3.9224439823
 30
0.0
 10
21.2262944205
 20
-3.5452267866
 30
0.0
 10
21.0740005214
 20
-2.9861776013
 30
0.0
 10
20.8333192879
 20
-2.4402232442
 30
0.0
 10
20.5176029539
 20
-1.9380570078
 30
0.0
 10
20.1445226359
 20
-1.5077232087
 30
0.0
 10
19.7937254537
 20
-1.2214170029
 30
0.0
 10
19.5021263783
 20
-1.0530353103
 30
0.0
 10
19.2265539871
 20
-0.9344702946
 30
0.0
 10
19.0093911145
 20
-0.8877152096
 30
0.0
 10
18.8688625481
 20
-0.8828851352
 30
0.0
  0
SPLINE
  5
474
100
AcDbEntity
  8
0
100
AcDbSpline
 62
7
  6
CONTINUOUS
 70
0
 71
3
 72
9
 73
5
 74
0
 42
0.0000001
 43
0.0000001
 44
0.0000000001
 40
0.0
 40
0.0
 40
0.0
 40
0.0
 40
0.5100170907
 40
1.0
 40
1.0
 40
1.0
 40
1.0
 10
29.8999075871
 20
-9.8635025544
 30
0.0
 10
29.8508624222
 20
-9.9338369164
 30
0.0
 10
29.7390629941
 20
-10.0618085345
 30
0.0
 10
29.5982109568
 20
-10.1575671201
 30
0.0
 10
29.5245255606
 20
-10.1943983138
 30
0.0
  0
SPLINE
  5
475
100
AcDbEntity
  8
0
100
AcDbSpline
 62
7
  6
CONTINUOUS
 70
0
 71
3
 72
9
 73
5
 74
0
 42
0.0000001
 43
0.0000001
 44
0.0000000001
 40
0.0
 40
0.0
 40
0.0
 40
0.0
 40
0.5100123512
 40
1.0
 40
1.0
 40
1.0
 40
1.0
 10
27.7784079911
 20
-5.6205005691
 30
0.0
 10
27.6927132929
 20
-5.6175551768
 30
0.0
 10
27.5232498325
 20
-5.6301627897
 30
0.0
 10
27.362150109
 20
-5.6854431108
 30
0.0
 10
27.2884637867
 20
-5.7222747673
 30
0.0
  0
SPLINE
  5
476
100
AcDbEntity
  8
0
100
AcDbSpline
 62
7
  6
CONTINUOUS
 70
0
 71
3
 72
11
 73
7
 74
0
 42
0.0000001
 43
0.0000001
 44
0.0000000001
 40
0.0
 40
0.0
 40
0.0
 40
0.0
 40
0.2761640187
 40
0.5348265295
 40
0.7755574254
 40
1.0
 40
1.0
 40
1.0
 40
1.0
 10
30.1742616266
 20
-8.842220017
 30
0.0
 10
30.1742616266
 20
-8.9409597391
 30
0.0
 10
30.1635911052
 20
-9.1324288413
 30
0.0
 10
30.1123986043
 20
-9.4058499451
 30
0.0
 10
30.0271670083
 20
-9.6513120275
 30
0.0
 10
29.9458076353
 20
-9.7976785204
 30
0.0
 10
29.8999075871
 20
-9.8635025544
 30
0.0
  0
SPLINE
  5
477
100
AcDbEntity
  8
0
100
AcDbSpline
 62
7
  6
CONTINUOUS
 70
0
 71
3
 72
12
 73
8
 74
0
 42
0.0000001
 43
0.0000001
 44
0.0000000001
 40
0.0
 40
0.0
 40
0.0
 40
0.0
 40
0.2883807919
 40
0.5482121524
 40
0.7821886363
 40
0.8923927282
 40
1.0
 40
1.0
 40
1.0
 40
1.0
 10
25.3519320407
 20
-11.25338481
 30
0.0
 10
25.3519320407
 20
-11.3996939585
 30
0.0
 10
25.3290736148
 20
-11.6788258521
 30
0.0
 10
25.2150689724
 20
-12.0623376706
 30
0.0
 10
25.0523339311
 20
-12.3277302359
 30
0.0
 10
24.8883836156
 20
-12.4892243323
 30
0.0
 10
24.7972006303
 20
-12.5528041663
 30
0.0
 10
24.7498556023
 20
-12.5799883282
 30
0.0
  0
SPLINE
  5
478
100
AcDbEntity
  8
0
100
AcDbSpline
 62
7
  6
CONTINUOUS
 70
0
 71
3
 72
16
 73
12
 74
0
 42
0.0000001
 43
0.0000001
 44
0.0000000001
 40
0.0
 40
0.0
 40
0.0
 40
0.0
 40
0.1261284288
 40
0.260845756
 40
0.3997207102
 40
0.5377448852
 40
0.6700349946
 40
0.7924695707
 40
0.8491817011
 40
0.9026402328
 40
1.0
 40
1.0
 40
1.0
 40
1.0
 10
30.1742616266
 20
-8.842220017
 30
0.0
 10
30.1742616266
 20
-8.6600594162
 30
0.0
 10
30.1358398634
 20
-8.2828422206
 30
0.0
 10
29.9835459643
 20
-7.7237930353
 30
0.0
 10
29.7428647308
 20
-7.1778386782
 30
0.0
 10
29.4271483969
 20
-6.6756724417
 30
0.0
 10
29.0540680788
 20
-6.2453386426
 30
0.0
 10
28.7032708967
 20
-5.9590324368
 30
0.0
 10
28.4116718213
 20
-5.7906507442
 30
0.0
 10
28.13609943
 20
-5.6720857286
 30
0.0
 10
27.9189365574
 20
-5.6253306435
 30
0.0
 10
27.7784079911
 20
-5.6205005691
 30
0.0
  0
SPLINE
  5
479
100
AcDbEntity
  8
0
100
AcDbSpline
 62
7
  6
CONTINUOUS
 70
0
 71
3
 72
18
 73
14
 74
0
 42
0.0000001
 43
0.0000001
 44
0.0000000001
 40
0.0
 40
0.0
 40
0.0
 40
0.0
 40
0.0447725808
 40
0.0911996008
 40
0.1403752113
 40
0.193030776
 40
0.3096291879
 40
0.3735996243
 40
0.4407178599
 40
0.5816268725
 40
0.72630359
 40
0.8678686596
 40
1.0
 40
1.0
 40
1.0
 40
1.0
 10
22.508151718
 20
-8.1137162639
 30
0.0
 10
22.5734768042
 20
-8.0849932492
 30
0.0
 10
22.7137605551
 20
-8.0417237119
 30
0.0
 10
22.9383054151
 20
-8.0236303771
 30
0.0
 10
23.1743770555
 20
-8.0513292945
 30
0.0
 10
23.5093336407
 20
-8.1511633079
 30
0.0
 10
23.8366547979
 20
-8.3380164898
 30
0.0
 10
24.142951699
 20
-8.5875634004
 30
0.0
 10
24.4495776504
 20
-8.8951059193
 30
0.0
 10
24.7875255316
 20
-9.3483812058
 30
0.0
 10
25.0983195596
 20
-9.9576372741
 30
0.0
 10
25.2986580724
 20
-10.5968947168
 30
0.0
 10
25.3511832954
 20
-11.0335939003
 30
0.0
 10
25.3519160298
 20
-11.2441905311
 30
0.0
  0
SPLINE
  5
47A
100
AcDbEntity
  8
0
100
AcDbSpline
 62
7
  6
CONTINUOUS
 70
0
 71
3
 72
11
 73
7
 74
0
 42
0.0000001
 43
0.0000001
 44
0.0000000001
 40
0.0
 40
0.0
 40
0.0
 40
0.0
 40
0.2171658568
 40
0.4503945097
 40
0.7103124018
 40
1.0
 40
1.0
 40
1.0
 40
1.0
 10
9.7321042649
 20
-14.0564031877
 30
0.0
 10
9.7198751963
 20
-14.0502874374
 30
0.0
 10
9.6967432925
 20
-14.032673245
 30
0.0
 10
9.6719434969
 20
-13.994640508
 30
0.0
 10
9.6571098758
 20
-13.9471314579
 30
0.0
 10
9.6541614983
 20
-13.912397343
 30
0.0
 10
9.6541614983
 20
-13.8941582171
 30
0.0
  0
SPLINE
  5
47B
100
AcDbEntity
  8
0
100
AcDbSpline
 62
7
  6
CONTINUOUS
 70
0
 71
3
 72
8
 73
4
 74
0
 42
0.0000001
 43
0.0000001
 44
0.0000000001
 40
0.0
 40
0.0
 40
0.0
 40
0.0
 40
1.0
 40
1.0
 40
1.0
 40
1.0
 10
3.8927889087
 20
-2.9731747171
 30
0.0
 10
3.8927918821
 20
-2.9822778706
 30
0.0
 10
3.8908704845
 20
-2.9914479853
 30
0.0
 10
3.8878407498
 20
-3.0000321639
 30
0.0
  0
SPLINE
  5
47C
100
AcDbEntity
  8
0
100
AcDbSpline
 62
7
  6
CONTINUOUS
 70
0
 71
3
 72
11
 73
7
 74
0
 42
0.0000001
 43
0.0000001
 44
0.0000000001
 40
0.0
 40
0.0
 40
0.0
 40
0.0
 40
0.1960664033
 40
0.4194240539
 40
0.6845259938
 40
1.0
 40
1.0
 40
1.0
 40
1.0
 10
4.0386134384
 20
-2.9618611958
 30
0.0
 10
4.0362768095
 20
-2.9513896858
 30
0.0
 10
4.0270102239
 20
-2.9298442679
 30
0.0
 10
4.0024645047
 20
-2.9010662714
 30
0.0
 10
3.967442913
 20
-2.8740899324
 30
0.0
 10
3.9396495762
 20
-2.8585172815
 30
0.0
 10
3.9242088983
 20
-2.8507969425
 30
0.0
  0
SPLINE
  5
47D
100
AcDbEntity
  8
0
100
AcDbSpline
 62
7
  6
CONTINUOUS
 70
0
 71
3
 72
9
 73
5
 74
0
 42
0.0000001
 43
0.0000001
 44
0.0000000001
 40
0.0
 40
0.0
 40
0.0
 40
0.0
 40
0.4686779715
 40
1.0
 40
1.0
 40
1.0
 40
1.0
 10
4.6229988429
 20
-3.3414549087
 30
0.0
 10
4.6229847588
 20
-3.3510115168
 30
0.0
 10
4.617010805
 20
-3.3714308325
 30
0.0
 10
4.6042530224
 20
-3.3876573724
 30
0.0
 10
4.5968534189
 20
-3.3955706978
 30
0.0
  0
SPLINE
  5
47E
100
AcDbEntity
  8
0
100
AcDbSpline
 62
7
  6
CONTINUOUS
 70
0
 71
3
 72
8
 73
4
 74
0
 42
0.0000001
 43
0.0000001
 44
0.0000000001
 40
0.0
 40
0.0
 40
0.0
 40
0.0
 40
1.0
 40
1.0
 40
1.0
 40
1.0
 10
4.5968534189
 20
-3.3955706978
 30
0.0
 10
4.5930715811
 20
-3.3996150919
 30
0.0
 10
4.5890855151
 20
-3.4034735861
 30
0.0
 10
4.5849660614
 20
-3.4071735215
 30
0.0
  0
SPLINE
  5
47F
100
AcDbEntity
  8
0
100
AcDbSpline
 62
7
  6
CONTINUOUS
 70
0
 71
3
 72
8
 73
4
 74
0
 42
0.0000001
 43
0.0000001
 44
0.0000000001
 40
0.0
 40
0.0
 40
0.0
 40
0.0
 40
1.0
 40
1.0
 40
1.0
 40
1.0
 10
4.5849660614
 20
-3.4071735215
 30
0.0
 10
4.5802775031
 20
-3.4113846049
 30
0.0
 10
4.5754075693
 20
-3.4153981718
 30
0.0
 10
4.570421108
 20
-3.4192518722
 30
0.0
  0
SPLINE
  5
480
100
AcDbEntity
  8
0
100
AcDbSpline
 62
7
  6
CONTINUOUS
 70
0
 71
3
 72
8
 73
4
 74
0
 42
0.0000001
 43
0.0000001
 44
0.0000000001
 40
0.0
 40
0.0
 40
0.0
 40
0.0
 40
1.0
 40
1.0
 40
1.0
 40
1.0
 10
4.570421108
 20
-3.4192518722
 30
0.0
 10
4.5647940139
 20
-3.4236006746
 30
0.0
 10
4.5590110482
 20
-3.4277514469
 30
0.0
 10
4.5531287823
 20
-3.4317483481
 30
0.0
  0
SPLINE
  5
481
100
AcDbEntity
  8
0
100
AcDbSpline
 62
7
  6
CONTINUOUS
 70
0
 71
3
 72
9
 73
5
 74
0
 42
0.0000001
 43
0.0000001
 44
0.0000000001
 40
0.0
 40
0.0
 40
0.0
 40
0.0
 40
0.2413269669
 40
1.0
 40
1.0
 40
1.0
 40
1.0
 10
6.3904641224
 20
-4.2285300616
 30
0.0
 10
6.3904630651
 20
-4.2318406571
 30
0.0
 10
6.3893628013
 20
-4.24556939
 30
0.0
 10
6.3838725451
 20
-4.2586743625
 30
0.0
 10
6.3784848318
 20
-4.2675790158
 30
0.0
  0
SPLINE
  5
482
100
AcDbEntity
  8
0
100
AcDbSpline
 62
7
  6
CONTINUOUS
 70
0
 71
3
 72
8
 73
4
 74
0
 42
0.0000001
 43
0.0000001
 44
0.0000000001
 40
0.0
 40
0.0
 40
0.0
 40
0.0
 40
1.0
 40
1.0
 40
1.0
 40
1.0
 10
6.3784848318
 20
-4.2675790158
 30
0.0
 10
6.3765851594
 20
-4.2707187383
 30
0.0
 10
6.3745239818
 20
-4.2737644047
 30
0.0
 10
6.3723422459
 20
-4.2767151065
 30
0.0
  0
SPLINE
  5
483
100
AcDbEntity
  8
0
100
AcDbSpline
 62
7
  6
CONTINUOUS
 70
0
 71
3
 72
10
 73
6
 74
0
 42
0.0000001
 43
0.0000001
 44
0.0000000001
 40
0.0
 40
0.0
 40
0.0
 40
0.0
 40
0.2024096766
 40
0.554929122
 40
1.0
 40
1.0
 40
1.0
 40
1.0
 10
6.533530234
 20
-4.2132622276
 30
0.0
 10
6.5303272387
 20
-4.2017441333
 30
0.0
 10
6.5161819067
 20
-4.171534387
 30
0.0
 10
6.473537252
 20
-4.1290336205
 30
0.0
 10
6.4326759756
 20
-4.1050304812
 30
0.0
 10
6.4091635179
 20
-4.0932742524
 30
0.0
  0
SPLINE
  5
484
100
AcDbEntity
  8
0
100
AcDbSpline
 62
7
  6
CONTINUOUS
 70
0
 71
3
 72
20
 73
16
 74
0
 42
0.0000001
 43
0.0000001
 44
0.0000000001
 40
0.0
 40
0.0
 40
0.0
 40
0.0
 40
0.0343292481
 40
0.0716057332
 40
0.113793224
 40
0.1619195387
 40
0.216188302
 40
0.2763287566
 40
0.3417454995
 40
0.4116227173
 40
0.5606432703
 40
0.7146047214
 40
0.8639994694
 40
0.9341884026
 40
1.0
 40
1.0
 40
1.0
 40
1.0
 10
14.1362682795
 20
-10.1826503179
 30
0.0
 10
14.1362682795
 20
-10.2632584356
 30
0.0
 10
14.1109728763
 20
-10.4322186325
 30
0.0
 10
13.9995721263
 20
-10.6781088518
 30
0.0
 10
13.8153875488
 20
-10.9171390611
 30
0.0
 10
13.5610852117
 20
-11.1443537729
 30
0.0
 10
13.2408680618
 20
-11.3541092702
 30
0.0
 10
12.8612958194
 20
-11.5410668471
 30
0.0
 10
12.4302540091
 20
-11.7005985491
 30
0.0
 10
11.7851889241
 20
-11.8753183503
 30
0.0
 10
10.914887002
 20
-12.000124932
 30
0.0
 10
9.8496546521
 20
-12.0030292933
 30
0.0
 10
8.9770602709
 20
-11.882992851
 30
0.0
 10
8.3284493093
 20
-11.7119788446
 30
0.0
 10
8.0275732024
 20
-11.6031839557
 30
0.0
 10
7.8852422249
 20
-11.5430020115
 30
0.0
  0
SPLINE
  5
485
100
AcDbEntity
  8
0
100
AcDbSpline
 62
7
  6
CONTINUOUS
 70
0
 71
3
 72
12
 73
8
 74
0
 42
0.0000001
 43
0.0000001
 44
0.0000000001
 40
0.0
 40
0.0
 40
0.0
 40
0.0
 40
0.3068560475
 40
0.570840669
 40
0.7968468991
 40
0.9002148244
 40
1.0
 40
1.0
 40
1.0
 40
1.0
 10
-10.9862633897
 20
-2.1030387421
 30
0.0
 10
-11.1114476271
 20
-2.026332932
 30
0.0
 10
-11.3349248194
 20
-1.8666042879
 30
0.0
 10
-11.5987510769
 20
-1.5875005102
 30
0.0
 10
-11.7377261192
 20
-1.3348470878
 30
0.0
 10
-11.7900000652
 20
-1.1353991317
 30
0.0
 10
-11.7985080314
 20
-1.0380045452
 30
0.0
 10
-11.7985080314
 20
-0.9902621625
 30
0.0
  0
SPLINE
  5
486
100
AcDbEntity
  8
0
100
AcDbSpline
 62
7
  6
CONTINUOUS
 70
0
 71
3
 72
9
 73
5
 74
0
 42
0.0000001
 43
0.0000001
 44
0.0000000001
 40
0.0
 40
0.0
 40
0.0
 40
0.0
 40
0.2359925172
 40
1.0
 40
1.0
 40
1.0
 40
1.0
 10
-7.5285332845
 20
3.1347949618
 30
0.0
 10
-7.5222463118
 20
3.1379384482
 30
0.0
 10
-7.4961946769
 20
3.1524299261
 30
0.0
 10
-7.4725589764
 20
3.1710632927
 30
0.0
 10
-7.4560241822
 20
3.1866977485
 30
0.0
  0
SPLINE
  5
487
100
AcDbEntity
  8
0
100
AcDbSpline
 62
7
  6
CONTINUOUS
 70
0
 71
3
 72
9
 73
5
 74
0
 42
0.0000001
 43
0.0000001
 44
0.0000000001
 40
0.0
 40
0.0
 40
0.0
 40
0.0
 40
0.506997186
 40
1.0
 40
1.0
 40
1.0
 40
1.0
 10
-7.4560241822
 20
3.1866977485
 30
0.0
 10
-7.4130442532
 20
3.2273373712
 30
0.0
 10
-7.3461892244
 20
3.3266061829
 30
0.0
 10
-7.3164012502
 20
3.4431502113
 30
0.0
 10
-7.3164012502
 20
3.5006686001
 30
0.0
  0
SPLINE
  5
488
100
AcDbEntity
  8
0
100
AcDbSpline
 62
7
  6
CONTINUOUS
 70
0
 71
3
 72
9
 73
5
 74
0
 42
0.0000001
 43
0.0000001
 44
0.0000000001
 40
0.0
 40
0.0
 40
0.0
 40
0.0
 40
0.2549220369
 40
1.0
 40
1.0
 40
1.0
 40
1.0
 10
-7.9608262185
 20
2.9186484948
 30
0.0
 10
-8.3067314394
 20
2.7751243729
 30
0.0
 10
-9.658897864
 20
2.2007939486
 30
0.0
 10
-10.9916760754
 20
1.5805318696
 30
0.0
 10
-11.9704782852
 20
1.0905945451
 30
0.0
  0
LINE
  5
489
100
AcDbEntity
  8
0
100
AcDbLine
 62
7
  6
CONTINUOUS
 10
-11.9704782852
 20
1.0905945451
 11
-11.9854887994
 21
1.0830783217
  0
SPLINE
  5
48A
100
AcDbEntity
  8
0
100
AcDbSpline
 62
7
  6
CONTINUOUS
 70
0
 71
3
 72
9
 73
5
 74
0
 42
0.0000001
 43
0.0000001
 44
0.0000000001
 40
0.0
 40
0.0
 40
0.0
 40
0.0
 40
0.2554488799
 40
1.0
 40
1.0
 40
1.0
 40
1.0
 10
-11.9854887994
 20
1.0830783217
 30
0.0
 10
-12.2978717205
 20
0.9266015344
 30
0.0
 10
-13.5151158388
 20
0.302900186
 30
0.0
 10
-14.7092765012
 20
-0.3661531468
 30
0.0
 10
-15.5815217248
 20
-0.8916992584
 30
0.0
  0
SPLINE
  5
48B
100
AcDbEntity
  8
0
100
AcDbSpline
 62
7
  6
CONTINUOUS
 70
0
 71
3
 72
9
 73
5
 74
0
 42
0.0000001
 43
0.0000001
 44
0.0000000001
 40
0.0
 40
0.0
 40
0.0
 40
0.0
 40
0.2670338199
 40
1.0
 40
1.0
 40
1.0
 40
1.0
 10
2.9880401971
 20
-2.8153693312
 30
0.0
 10
2.9794489714
 20
-2.8138351857
 30
0.0
 10
2.9474545202
 20
-2.8072703202
 30
0.0
 10
2.9160369467
 20
-2.7969247935
 30
0.0
 10
2.8946112971
 20
-2.7862119686
 30
0.0
  0
SPLINE
  5
48C
100
AcDbEntity
  8
0
100
AcDbSpline
 62
7
  6
CONTINUOUS
 70
0
 71
3
 72
9
 73
5
 74
0
 42
0.0000001
 43
0.0000001
 44
0.0000000001
 40
0.0
 40
0.0
 40
0.0
 40
0.0
 40
0.2818757869
 40
1.0
 40
1.0
 40
1.0
 40
1.0
 10
2.8946112971
 20
-2.7862119686
 30
0.0
 10
2.8845248019
 20
-2.781168721
 30
0.0
 10
2.8502597672
 20
-2.7601814589
 30
0.0
 10
2.8220777247
 20
-2.7306364707
 30
0.0
 10
2.8046961662
 20
-2.7077607217
 30
0.0
  0
SPLINE
  5
48D
100
AcDbEntity
  8
0
100
AcDbSpline
 62
7
  6
CONTINUOUS
 70
0
 71
3
 72
9
 73
5
 74
0
 42
0.0000001
 43
0.0000001
 44
0.0000000001
 40
0.0
 40
0.0
 40
0.0
 40
0.0
 40
0.587378298
 40
1.0
 40
1.0
 40
1.0
 40
1.0
 10
2.8046961662
 20
-2.7077607217
 30
0.0
 10
2.7927864699
 20
-2.6920864528
 30
0.0
 10
2.7718153763
 20
-2.6659444124
 30
0.0
 10
2.7487159716
 20
-2.6414885441
 30
0.0
 10
2.7382233823
 20
-2.6324807604
 30
0.0
  0
SPLINE
  5
48E
100
AcDbEntity
  8
0
100
AcDbSpline
 62
7
  6
CONTINUOUS
 70
0
 71
3
 72
9
 73
5
 74
0
 42
0.0000001
 43
0.0000001
 44
0.0000000001
 40
0.0
 40
0.0
 40
0.0
 40
0.0
 40
0.2267178781
 40
1.0
 40
1.0
 40
1.0
 40
1.0
 10
2.7382233823
 20
-2.6324807604
 30
0.0
 10
2.7338933679
 20
-2.6287634861
 30
0.0
 10
2.7140031266
 20
-2.6132879836
 30
0.0
 10
2.6919304013
 20
-2.6008483285
 30
0.0
 10
2.6745208693
 20
-2.5921435625
 30
0.0
  0
SPLINE
  5
48F
100
AcDbEntity
  8
0
100
AcDbSpline
 62
7
  6
CONTINUOUS
 70
0
 71
3
 72
9
 73
5
 74
0
 42
0.0000001
 43
0.0000001
 44
0.0000000001
 40
0.0
 40
0.0
 40
0.0
 40
0.0
 40
0.246220327
 40
1.0
 40
1.0
 40
1.0
 40
1.0
 10
2.6745208693
 20
-2.5921435625
 30
0.0
 10
2.6660354256
 20
-2.5879008406
 30
0.0
 10
2.6310041183
 20
-2.5718185725
 30
0.0
 10
2.5938413165
 20
-2.5604812694
 30
0.0
 10
2.5654158741
 20
-2.5545211095
 30
0.0
  0
SPLINE
  5
490
100
AcDbEntity
  8
0
100
AcDbSpline
 62
7
  6
CONTINUOUS
 70
0
 71
3
 72
9
 73
5
 74
0
 42
0.0000001
 43
0.0000001
 44
0.0000000001
 40
0.0
 40
0.0
 40
0.0
 40
0.0
 40
0.225217463
 40
1.0
 40
1.0
 40
1.0
 40
1.0
 10
2.5654158741
 20
-2.5545211095
 30
0.0
 10
2.5553605887
 20
-2.552412748
 30
0.0
 10
2.5104071724
 20
-2.5445034431
 30
0.0
 10
2.4646868482
 20
-2.5416784177
 30
0.0
 10
2.4293486728
 20
-2.5410398681
 30
0.0
  0
SPLINE
  5
491
100
AcDbEntity
  8
0
100
AcDbSpline
 62
7
  6
CONTINUOUS
 70
0
 71
3
 72
8
 73
4
 74
0
 42
0.0000001
 43
0.0000001
 44
0.0000000001
 40
0.0
 40
0.0
 40
0.0
 40
0.0
 40
1.0
 40
1.0
 40
1.0
 40
1.0
 10
3.14354593
 20
-2.8254020113
 30
0.0
 10
3.115002242
 20
-2.8251424779
 30
0.0
 10
3.0864462062
 20
-2.8244826667
 30
0.0
 10
3.0579507499
 20
-2.8228038407
 30
0.0
  0
SPLINE
  5
492
100
AcDbEntity
  8
0
100
AcDbSpline
 62
7
  6
CONTINUOUS
 70
0
 71
3
 72
9
 73
5
 74
0
 42
0.0000001
 43
0.0000001
 44
0.0000000001
 40
0.0
 40
0.0
 40
0.0
 40
0.0
 40
0.2527474782
 40
1.0
 40
1.0
 40
1.0
 40
1.0
 10
3.0579507499
 20
-2.8228038407
 30
0.0
 10
3.052036432
 20
-2.8224553953
 30
0.0
 10
3.0286549747
 20
-2.8208677748
 30
0.0
 10
3.0052835388
 20
-2.8184484955
 30
0.0
 10
2.9880401971
 20
-2.8153693312
 30
0.0
  0
SPLINE
  5
493
100
AcDbEntity
  8
0
100
AcDbSpline
 62
7
  6
CONTINUOUS
 70
0
 71
3
 72
9
 73
5
 74
0
 42
0.0000001
 43
0.0000001
 44
0.0000000001
 40
0.0
 40
0.0
 40
0.0
 40
0.0
 40
0.5288847734
 40
1.0
 40
1.0
 40
1.0
 40
1.0
 10
3.2701514963
 20
-3.3030484984
 30
0.0
 10
3.2360884261
 20
-3.3061279984
 30
0.0
 10
3.1707851729
 20
-3.3060777425
 30
0.0
 10
3.1074644314
 20
-3.2876729748
 30
0.0
 10
3.0802146867
 20
-3.2740481025
 30
0.0
  0
SPLINE
  5
494
100
AcDbEntity
  8
0
100
AcDbSpline
 62
7
  6
CONTINUOUS
 70
0
 71
3
 72
11
 73
7
 74
0
 42
0.0000001
 43
0.0000001
 44
0.0000000001
 40
0.0
 40
0.0
 40
0.0
 40
0.0
 40
0.3014672864
 40
0.5650265051
 40
0.7932741968
 40
1.0
 40
1.0
 40
1.0
 40
1.0
 10
3.0802146867
 20
-3.2740481025
 30
0.0
 10
3.0714821484
 20
-3.2696818333
 30
0.0
 10
3.0555742498
 20
-3.2604701829
 30
0.0
 10
3.0359914767
 20
-3.243509653
 30
0.0
 10
3.0232029071
 20
-3.2244343066
 30
0.0
 10
3.0195351437
 20
-3.2105254994
 30
0.0
 10
3.0188872245
 20
-3.2038619338
 30
0.0
  0
SPLINE
  5
495
100
AcDbEntity
  8
0
100
AcDbSpline
 62
7
  6
CONTINUOUS
 70
0
 71
3
 72
9
 73
5
 74
0
 42
0.0000001
 43
0.0000001
 44
0.0000000001
 40
0.0
 40
0.0
 40
0.0
 40
0.0
 40
0.4683647218
 40
1.0
 40
1.0
 40
1.0
 40
1.0
 10
3.8878407498
 20
-3.0000321639
 30
0.0
 10
3.8842108682
 20
-3.0103167446
 30
0.0
 10
3.8702917372
 20
-3.029809757
 30
0.0
 10
3.8533212308
 20
-3.0456721305
 30
0.0
 10
3.8438464669
 20
-3.0536398958
 30
0.0
  0
SPLINE
  5
496
100
AcDbEntity
  8
0
100
AcDbSpline
 62
7
  6
CONTINUOUS
 70
0
 71
3
 72
10
 73
6
 74
0
 42
0.0000001
 43
0.0000001
 44
0.0000000001
 40
0.0
 40
0.0
 40
0.0
 40
0.0
 40
0.2335089881
 40
0.4810054767
 40
1.0
 40
1.0
 40
1.0
 40
1.0
 10
3.8438464669
 20
-3.0536398958
 30
0.0
 10
3.8295666397
 20
-3.0656484601
 30
0.0
 10
3.7983268591
 20
-3.0881971021
 30
0.0
 10
3.7302639376
 20
-3.1300847623
 30
0.0
 10
3.6759973087
 20
-3.1586251827
 30
0.0
 10
3.6389063479
 20
-3.177170663
 30
0.0
  0
SPLINE
  5
497
100
AcDbEntity
  8
0
100
AcDbSpline
 62
7
  6
CONTINUOUS
 70
0
 71
3
 72
10
 73
6
 74
0
 42
0.0000001
 43
0.0000001
 44
0.0000000001
 40
0.0
 40
0.0
 40
0.0
 40
0.0
 40
0.472111159
 40
0.7259890943
 40
1.0
 40
1.0
 40
1.0
 40
1.0
 10
3.6389063479
 20
-3.177170663
 30
0.0
 10
3.5838064112
 20
-3.2047206314
 30
0.0
 10
3.4974052587
 20
-3.2441769701
 30
0.0
 10
3.3736376782
 20
-3.2857453981
 30
0.0
 10
3.3057606877
 20
-3.2998292201
 30
0.0
 10
3.2701514963
 20
-3.3030484984
 30
0.0
  0
SPLINE
  5
498
100
AcDbEntity
  8
0
100
AcDbSpline
 62
7
  6
CONTINUOUS
 70
0
 71
3
 72
9
 73
5
 74
0
 42
0.0000001
 43
0.0000001
 44
0.0000000001
 40
0.0
 40
0.0
 40
0.0
 40
0.0
 40
0.4912434759
 40
1.0
 40
1.0
 40
1.0
 40
1.0
 10
3.9242088983
 20
-2.8507969425
 30
0.0
 10
3.8906565495
 20
-2.8340207682
 30
0.0
 10
3.8185007913
 20
-2.8070553714
 30
0.0
 10
3.7422989263
 20
-2.7961825445
 30
0.0
 10
3.7034915269
 20
-2.7943634828
 30
0.0
  0
SPLINE
  5
499
100
AcDbEntity
  8
0
100
AcDbSpline
 62
7
  6
CONTINUOUS
 70
0
 71
3
 72
9
 73
5
 74
0
 42
0.0000001
 43
0.0000001
 44
0.0000000001
 40
0.0
 40
0.0
 40
0.0
 40
0.0
 40
0.2387973964
 40
1.0
 40
1.0
 40
1.0
 40
1.0
 10
3.7034915269
 20
-2.7943634828
 30
0.0
 10
3.6832072777
 20
-2.793412677
 30
0.0
 10
3.5981090543
 20
-2.7928160475
 30
0.0
 10
3.513166421
 20
-2.8058670145
 30
0.0
 10
3.45035596
 20
-2.8215140719
 30
0.0
  0
SPLINE
  5
49A
100
AcDbEntity
  8
0
100
AcDbSpline
 62
7
  6
CONTINUOUS
 70
0
 71
3
 72
9
 73
5
 74
0
 42
0.0000001
 43
0.0000001
 44
0.0000000001
 40
0.0
 40
0.0
 40
0.0
 40
0.0
 40
0.2268707549
 40
1.0
 40
1.0
 40
1.0
 40
1.0
 10
3.45035596
 20
-2.8215140719
 30
0.0
 10
3.4298484006
 20
-2.8266228221
 30
0.0
 10
3.3401994344
 20
-2.8521352847
 30
0.0
 10
3.2537753707
 20
-2.8880928005
 30
0.0
 10
3.188792541
 20
-2.9191462918
 30
0.0
  0
SPLINE
  5
49B
100
AcDbEntity
  8
0
100
AcDbSpline
 62
7
  6
CONTINUOUS
 70
0
 71
3
 72
9
 73
5
 74
0
 42
0.0000001
 43
0.0000001
 44
0.0000000001
 40
0.0
 40
0.0
 40
0.0
 40
0.0
 40
0.580596982
 40
1.0
 40
1.0
 40
1.0
 40
1.0
 10
3.1554594722
 20
-2.9354472252
 30
0.0
 10
3.1156865206
 20
-2.955333701
 30
0.0
 10
3.0480717637
 20
-2.9912820281
 30
0.0
 10
2.9837468421
 20
-3.0335566922
 30
0.0
 10
2.9591964228
 20
-3.0542710755
 30
0.0
  0
SPLINE
  5
49C
100
AcDbEntity
  8
0
100
AcDbSpline
 62
7
  6
CONTINUOUS
 70
0
 71
3
 72
9
 73
5
 74
0
 42
0.0000001
 43
0.0000001
 44
0.0000000001
 40
0.0
 40
0.0
 40
0.0
 40
0.0
 40
0.557081242
 40
1.0
 40
1.0
 40
1.0
 40
1.0
 10
2.9591964228
 20
-3.0542710755
 30
0.0
 10
2.9413139982
 20
-3.0693593472
 30
0.0
 10
2.9108694307
 20
-3.0985951458
 30
0.0
 10
2.8873698092
 20
-3.1341389124
 30
0.0
 10
2.8799272277
 20
-3.1511877566
 30
0.0
  0
SPLINE
  5
49D
100
AcDbEntity
  8
0
100
AcDbSpline
 62
7
  6
CONTINUOUS
 70
0
 71
3
 72
9
 73
5
 74
0
 42
0.0000001
 43
0.0000001
 44
0.0000000001
 40
0.0
 40
0.0
 40
0.0
 40
0.0
 40
0.2643157453
 40
1.0
 40
1.0
 40
1.0
 40
1.0
 10
2.8799272277
 20
-3.1511877566
 30
0.0
 10
2.8785069982
 20
-3.1544410998
 30
0.0
 10
2.8736653201
 20
-3.1669669497
 30
0.0
 10
2.8712553296
 20
-3.1804918348
 30
0.0
 10
2.871255327
 20
-3.1903722683
 30
0.0
  0
SPLINE
  5
49E
100
AcDbEntity
  8
0
100
AcDbSpline
 62
7
  6
CONTINUOUS
 70
0
 71
3
 72
9
 73
5
 74
0
 42
0.0000001
 43
0.0000001
 44
0.0000000001
 40
0.0
 40
0.0
 40
0.0
 40
0.0
 40
0.7435485946
 40
1.0
 40
1.0
 40
1.0
 40
1.0
 10
4.7779398346
 20
-3.347715579
 30
0.0
 10
4.7769987549
 20
-3.3398650018
 30
0.0
 10
4.7743862432
 20
-3.3294144057
 30
0.0
 10
4.7702704432
 20
-3.3196073354
 30
0.0
 10
4.7691262133
 20
-3.3171319323
 30
0.0
  0
SPLINE
  5
49F
100
AcDbEntity
  8
0
100
AcDbSpline
 62
7
  6
CONTINUOUS
 70
0
 71
3
 72
9
 73
5
 74
0
 42
0.0000001
 43
0.0000001
 44
0.0000000001
 40
0.0
 40
0.0
 40
0.0
 40
0.0
 40
0.4245950004
 40
1.0
 40
1.0
 40
1.0
 40
1.0
 10
4.7691262133
 20
-3.3171319323
 30
0.0
 10
4.7591651281
 20
-3.2955823273
 30
0.0
 10
4.7201350517
 20
-3.2526481285
 30
0.0
 10
4.6715714612
 20
-3.224478224
 30
0.0
 10
4.6427953177
 20
-3.2100901522
 30
0.0
  0
SPLINE
  5
4A0
100
AcDbEntity
  8
0
100
AcDbSpline
 62
7
  6
CONTINUOUS
 70
0
 71
3
 72
9
 73
5
 74
0
 42
0.0000001
 43
0.0000001
 44
0.0000000001
 40
0.0
 40
0.0
 40
0.0
 40
0.0
 40
0.4785412549
 40
1.0
 40
1.0
 40
1.0
 40
1.0
 10
4.6427953177
 20
-3.2100901522
 30
0.0
 10
4.5911256036
 20
-3.1842552952
 30
0.0
 10
4.4744585259
 20
-3.1465642838
 30
0.0
 10
4.352570121
 20
-3.1413867656
 30
0.0
 10
4.2897227094
 20
-3.1449687455
 30
0.0
  0
SPLINE
  5
4A1
100
AcDbEntity
  8
0
100
AcDbSpline
 62
7
  6
CONTINUOUS
 70
0
 71
3
 72
9
 73
5
 74
0
 42
0.0000001
 43
0.0000001
 44
0.0000000001
 40
0.0
 40
0.0
 40
0.0
 40
0.0
 40
0.519633693
 40
1.0
 40
1.0
 40
1.0
 40
1.0
 10
4.2897227094
 20
-3.1449687455
 30
0.0
 10
4.2380648595
 20
-3.1479129778
 30
0.0
 10
4.138805288
 20
-3.1615305003
 30
0.0
 10
4.0441167744
 20
-3.1952831512
 30
0.0
 10
4.0013348027
 20
-3.2166741371
 30
0.0
  0
SPLINE
  5
4A2
100
AcDbEntity
  8
0
100
AcDbSpline
 62
7
  6
CONTINUOUS
 70
0
 71
3
 72
11
 73
7
 74
0
 42
0.0000001
 43
0.0000001
 44
0.0000000001
 40
0.0
 40
0.0
 40
0.0
 40
0.0
 40
0.3196564237
 40
0.5820897757
 40
0.8011187528
 40
1.0
 40
1.0
 40
1.0
 40
1.0
 10
4.0013348027
 20
-3.2166741371
 30
0.0
 10
3.9815127626
 20
-3.2265851571
 30
0.0
 10
3.9463213239
 20
-3.2466725118
 30
0.0
 10
3.9034622442
 20
-3.2826618402
 30
0.0
 10
3.8763168884
 20
-3.3222566947
 30
0.0
 10
3.8700473141
 20
-3.351494372
 30
0.0
 10
3.8699691888
 20
-3.3652825469
 30
0.0
  0
SPLINE
  5
4A3
100
AcDbEntity
  8
0
100
AcDbSpline
 62
7
  6
CONTINUOUS
 70
0
 71
3
 72
9
 73
5
 74
0
 42
0.0000001
 43
0.0000001
 44
0.0000000001
 40
0.0
 40
0.0
 40
0.0
 40
0.0
 40
0.7523104731
 40
1.0
 40
1.0
 40
1.0
 40
1.0
 10
4.3756769367
 20
-3.5129499458
 30
0.0
 10
4.3425012363
 20
-3.5168528973
 30
0.0
 10
4.2976898113
 20
-3.5171078986
 30
0.0
 10
4.2535760557
 20
-3.5120854925
 30
0.0
 10
4.242686307
 20
-3.5105459065
 30
0.0
  0
SPLINE
  5
4A4
100
AcDbEntity
  8
0
100
AcDbSpline
 62
7
  6
CONTINUOUS
 70
0
 71
3
 72
9
 73
5
 74
0
 42
0.0000001
 43
0.0000001
 44
0.0000000001
 40
0.0
 40
0.0
 40
0.0
 40
0.0
 40
0.268944285
 40
1.0
 40
1.0
 40
1.0
 40
1.0
 10
4.242686307
 20
-3.5105459065
 30
0.0
 10
4.2312235478
 20
-3.5089253087
 30
0.0
 10
4.1888487189
 20
-3.5014271274
 30
0.0
 10
4.1473641309
 20
-3.4878330341
 30
0.0
 10
4.1192179238
 20
-3.4737599305
 30
0.0
  0
SPLINE
  5
4A5
100
AcDbEntity
  8
0
100
AcDbSpline
 62
7
  6
CONTINUOUS
 70
0
 71
3
 72
10
 73
6
 74
0
 42
0.0000001
 43
0.0000001
 44
0.0000000001
 40
0.0
 40
0.0
 40
0.0
 40
0.0
 40
0.2980969375
 40
0.6844652273
 40
1.0
 40
1.0
 40
1.0
 40
1.0
 10
4.1192179238
 20
-3.4737599305
 30
0.0
 10
4.1080728414
 20
-3.4681873893
 30
0.0
 10
4.083148023
 20
-3.4541023297
 30
0.0
 10
4.0501726003
 20
-3.4274523804
 30
0.0
 10
4.0363439882
 20
-3.3998529533
 30
0.0
 10
4.0343636724
 20
-3.3868129765
 30
0.0
  0
SPLINE
  5
4A6
100
AcDbEntity
  8
0
100
AcDbSpline
 62
7
  6
CONTINUOUS
 70
0
 71
3
 72
9
 73
5
 74
0
 42
0.0000001
 43
0.0000001
 44
0.0000000001
 40
0.0
 40
0.0
 40
0.0
 40
0.0
 40
0.248096644
 40
1.0
 40
1.0
 40
1.0
 40
1.0
 10
5.3858363315
 20
-3.7057643354
 30
0.0
 10
5.3779368337
 20
-3.7066758183
 30
0.0
 10
5.3460517085
 20
-3.7099554302
 30
0.0
 10
5.3140154405
 20
-3.7117294367
 30
0.0
 10
5.2899221614
 20
-3.7122879489
 30
0.0
  0
SPLINE
  5
4A7
100
AcDbEntity
  8
0
100
AcDbSpline
 62
7
  6
CONTINUOUS
 70
0
 71
3
 72
10
 73
6
 74
0
 42
0.0000001
 43
0.0000001
 44
0.0000000001
 40
0.0
 40
0.0
 40
0.0
 40
0.0
 40
0.2503287459
 40
0.5003730091
 40
1.0
 40
1.0
 40
1.0
 40
1.0
 10
5.2773676609
 20
-3.7125086569
 30
0.0
 10
5.2567948551
 20
-3.7127555075
 30
0.0
 10
5.2156662188
 20
-3.7118827956
 30
0.0
 10
5.1335191271
 20
-3.709422407
 30
0.0
 10
5.0719516119
 20
-3.7069211821
 30
0.0
 10
5.0309244822
 20
-3.7051843295
 30
0.0
  0
SPLINE
  5
4A8
100
AcDbEntity
  8
0
100
AcDbSpline
 62
7
  6
CONTINUOUS
 70
0
 71
3
 72
9
 73
5
 74
0
 42
0.0000001
 43
0.0000001
 44
0.0000000001
 40
0.0
 40
0.0
 40
0.0
 40
0.0
 40
0.583505378
 40
1.0
 40
1.0
 40
1.0
 40
1.0
 10
5.0309244822
 20
-3.7051843295
 30
0.0
 10
4.9657135276
 20
-3.7024236729
 30
0.0
 10
4.8539229411
 20
-3.6985920914
 30
0.0
 10
4.7420215025
 20
-3.6977554331
 30
0.0
 10
4.6954510307
 20
-3.69903268
 30
0.0
  0
SPLINE
  5
4A9
100
AcDbEntity
  8
0
100
AcDbSpline
 62
7
  6
CONTINUOUS
 70
0
 71
3
 72
9
 73
5
 74
0
 42
0.0000001
 43
0.0000001
 44
0.0000000001
 40
0.0
 40
0.0
 40
0.0
 40
0.0
 40
0.2832400337
 40
1.0
 40
1.0
 40
1.0
 40
1.0
 10
4.6954510307
 20
-3.69903268
 30
0.0
 10
4.6776547289
 20
-3.6995207634
 30
0.0
 10
4.6148805319
 20
-3.7022051551
 30
0.0
 10
4.5520784634
 20
-3.7086831476
 30
0.0
 10
4.5079174291
 20
-3.7175976117
 30
0.0
  0
SPLINE
  5
4AA
100
AcDbEntity
  8
0
100
AcDbSpline
 62
7
  6
CONTINUOUS
 70
0
 71
3
 72
9
 73
5
 74
0
 42
0.0000001
 43
0.0000001
 44
0.0000000001
 40
0.0
 40
0.0
 40
0.0
 40
0.0
 40
0.2705117338
 40
1.0
 40
1.0
 40
1.0
 40
1.0
 10
4.5079174291
 20
-3.7175976117
 30
0.0
 10
4.4957123776
 20
-3.7200613559
 30
0.0
 10
4.4508645637
 20
-3.7303368902
 30
0.0
 10
4.4069633687
 20
-3.7456140617
 30
0.0
 10
4.3769309909
 20
-3.7606302506
 30
0.0
  0
SPLINE
  5
4AB
100
AcDbEntity
  8
0
100
AcDbSpline
 62
7
  6
CONTINUOUS
 70
0
 71
3
 72
9
 73
5
 74
0
 42
0.0000001
 43
0.0000001
 44
0.0000000001
 40
0.0
 40
0.0
 40
0.0
 40
0.0
 40
0.5610692871
 40
1.0
 40
1.0
 40
1.0
 40
1.0
 10
4.3769309909
 20
-3.7606302506
 30
0.0
 10
4.3557982383
 20
-3.7711966269
 30
0.0
 10
4.3193335352
 20
-3.7928895158
 30
0.0
 10
4.2905855978
 20
-3.8254587893
 30
0.0
 10
4.2823510713
 20
-3.842006971
 30
0.0
  0
SPLINE
  5
4AC
100
AcDbEntity
  8
0
100
AcDbSpline
 62
7
  6
CONTINUOUS
 70
0
 71
3
 72
9
 73
5
 74
0
 42
0.0000001
 43
0.0000001
 44
0.0000000001
 40
0.0
 40
0.0
 40
0.0
 40
0.0
 40
0.2547200297
 40
1.0
 40
1.0
 40
1.0
 40
1.0
 10
4.2823510713
 20
-3.842006971
 30
0.0
 10
4.2806661865
 20
-3.8453929312
 30
0.0
 10
4.2747520481
 20
-3.8590247109
 30
0.0
 10
4.2720900563
 20
-3.8740534929
 30
0.0
 10
4.2720900836
 20
-3.8851191822
 30
0.0
  0
SPLINE
  5
4AD
100
AcDbEntity
  8
0
100
AcDbSpline
 62
7
  6
CONTINUOUS
 70
0
 71
3
 72
9
 73
5
 74
0
 42
0.0000001
 43
0.0000001
 44
0.0000000001
 40
0.0
 40
0.0
 40
0.0
 40
0.0
 40
0.4678925613
 40
1.0
 40
1.0
 40
1.0
 40
1.0
 10
4.868529438
 20
-3.9838560604
 30
0.0
 10
4.841856684
 20
-3.9971924374
 30
0.0
 10
4.781519354
 20
-4.0194904437
 30
0.0
 10
4.7174665976
 20
-4.0268081692
 30
0.0
 10
4.6835528288
 20
-4.0268081835
 30
0.0
  0
SPLINE
  5
4AE
100
AcDbEntity
  8
0
100
AcDbSpline
 62
7
  6
CONTINUOUS
 70
0
 71
3
 72
9
 73
5
 74
0
 42
0.0000001
 43
0.0000001
 44
0.0000000001
 40
0.0
 40
0.0
 40
0.0
 40
0.0
 40
0.5319788477
 40
1.0
 40
1.0
 40
1.0
 40
1.0
 10
4.6835528288
 20
-4.0268081835
 30
0.0
 10
4.6507150617
 20
-4.0268081973
 30
0.0
 10
4.588665227
 20
-4.0202583714
 30
0.0
 10
4.5300595721
 20
-3.9989705452
 30
0.0
 10
4.5042197375
 20
-3.9860506279
 30
0.0
  0
SPLINE
  5
4AF
100
AcDbEntity
  8
0
100
AcDbSpline
 62
7
  6
CONTINUOUS
 70
0
 71
3
 72
9
 73
5
 74
0
 42
0.0000001
 43
0.0000001
 44
0.0000000001
 40
0.0
 40
0.0
 40
0.0
 40
0.0
 40
0.2647567714
 40
1.0
 40
1.0
 40
1.0
 40
1.0
 10
4.5042197375
 20
-3.9860506279
 30
0.0
 10
4.5000313476
 20
-3.9839564329
 30
0.0
 10
4.4843832242
 20
-3.9757314899
 30
0.0
 10
4.4693796222
 20
-3.9661050949
 30
0.0
 10
4.4593676205
 20
-3.9578062437
 30
0.0
  0
SPLINE
  5
4B0
100
AcDbEntity
  8
0
100
AcDbSpline
 62
7
  6
CONTINUOUS
 70
0
 71
3
 72
9
 73
5
 74
0
 42
0.0000001
 43
0.0000001
 44
0.0000000001
 40
0.0
 40
0.0
 40
0.0
 40
0.0
 40
0.2814334707
 40
1.0
 40
1.0
 40
1.0
 40
1.0
 10
4.4593676205
 20
-3.9578062437
 30
0.0
 10
4.4551883622
 20
-3.954342097
 30
0.0
 10
4.4410163941
 20
-3.9413819804
 30
0.0
 10
4.4299866448
 20
-3.9239998903
 30
0.0
 10
4.4270993501
 20
-3.9104442132
 30
0.0
  0
SPLINE
  5
4B1
100
AcDbEntity
  8
0
100
AcDbSpline
 62
7
  6
CONTINUOUS
 70
0
 71
3
 72
9
 73
5
 74
0
 42
0.0000001
 43
0.0000001
 44
0.0000000001
 40
0.0
 40
0.0
 40
0.0
 40
0.0
 40
0.2696379248
 40
1.0
 40
1.0
 40
1.0
 40
1.0
 10
6.0881246307
 20
-4.3900223959
 30
0.0
 10
6.0710800093
 20
-4.3901340447
 30
0.0
 10
6.0080013565
 20
-4.3879495591
 30
0.0
 10
5.9444384576
 20
-4.3732024092
 30
0.0
 10
5.903143321
 20
-4.3525548409
 30
0.0
  0
SPLINE
  5
4B2
100
AcDbEntity
  8
0
100
AcDbSpline
 62
7
  6
CONTINUOUS
 70
0
 71
3
 72
11
 73
7
 74
0
 42
0.0000001
 43
0.0000001
 44
0.0000000001
 40
0.0
 40
0.0
 40
0.0
 40
0.0
 40
0.3000482425
 40
0.5649360897
 40
0.794426961
 40
1.0
 40
1.0
 40
1.0
 40
1.0
 10
5.903143321
 20
-4.3525548409
 30
0.0
 10
5.8931119037
 20
-4.3475391323
 30
0.0
 10
5.874708574
 20
-4.337022986
 30
0.0
 10
5.8516628012
 20
-4.317974037
 30
0.0
 10
5.8360406284
 20
-4.2965047907
 30
0.0
 10
5.831385737
 20
-4.2805079193
 30
0.0
 10
5.8305899396
 20
-4.2728651498
 30
0.0
  0
SPLINE
  5
4B3
100
AcDbEntity
  8
0
100
AcDbSpline
 62
7
  6
CONTINUOUS
 70
0
 71
3
 72
9
 73
5
 74
0
 42
0.0000001
 43
0.0000001
 44
0.0000000001
 40
0.0
 40
0.0
 40
0.0
 40
0.0
 40
0.2218650236
 40
1.0
 40
1.0
 40
1.0
 40
1.0
 10
6.3723422459
 20
-4.2767151065
 30
0.0
 10
6.3674488184
 20
-4.2833332515
 30
0.0
 10
6.3429289272
 20
-4.3113599708
 30
0.0
 10
6.3108295924
 20
-4.3318069591
 30
0.0
 10
6.2850098896
 20
-4.3447168105
 30
0.0
  0
SPLINE
  5
4B4
100
AcDbEntity
  8
0
100
AcDbSpline
 62
7
  6
CONTINUOUS
 70
0
 71
3
 72
9
 73
5
 74
0
 42
0.0000001
 43
0.0000001
 44
0.0000000001
 40
0.0
 40
0.0
 40
0.0
 40
0.0
 40
0.4682894111
 40
1.0
 40
1.0
 40
1.0
 40
1.0
 10
6.2850098896
 20
-4.3447168105
 30
0.0
 10
6.2566144242
 20
-4.3589145432
 30
0.0
 10
6.1922405698
 20
-4.3822234401
 30
0.0
 10
6.1241705124
 20
-4.3897862814
 30
0.0
 10
6.0881246307
 20
-4.3900223959
 30
0.0
  0
SPLINE
  5
4B5
100
AcDbEntity
  8
0
100
AcDbSpline
 62
7
  6
CONTINUOUS
 70
0
 71
3
 72
9
 73
5
 74
0
 42
0.0000001
 43
0.0000001
 44
0.0000000001
 40
0.0
 40
0.0
 40
0.0
 40
0.0
 40
0.2611347908
 40
1.0
 40
1.0
 40
1.0
 40
1.0
 10
6.5754242689
 20
-4.8333088925
 30
0.0
 10
6.567469234
 20
-4.8322922164
 30
0.0
 10
6.5369885403
 20
-4.8285387145
 30
0.0
 10
6.5064326661
 20
-4.8253747261
 30
0.0
 10
6.4838200356
 20
-4.8234860277
 30
0.0
  0
SPLINE
  5
4B6
100
AcDbEntity
  8
0
100
AcDbSpline
 62
7
  6
CONTINUOUS
 70
0
 71
3
 72
9
 73
5
 74
0
 42
0.0000001
 43
0.0000001
 44
0.0000000001
 40
0.0
 40
0.0
 40
0.0
 40
0.0
 40
0.2638333824
 40
1.0
 40
1.0
 40
1.0
 40
1.0
 10
6.4838200356
 20
-4.8234860277
 30
0.0
 10
6.4756171938
 20
-4.8228008931
 30
0.0
 10
6.4445086823
 20
-4.8204317014
 30
0.0
 10
6.4133187108
 20
-4.8190251662
 30
0.0
 10
6.390352414
 20
-4.8187581154
 30
0.0
  0
SPLINE
  5
4B7
100
AcDbEntity
  8
0
100
AcDbSpline
 62
7
  6
CONTINUOUS
 70
0
 71
3
 72
9
 73
5
 74
0
 42
0.0000001
 43
0.0000001
 44
0.0000000001
 40
0.0
 40
0.0
 40
0.0
 40
0.0
 40
0.2200547139
 40
1.0
 40
1.0
 40
1.0
 40
1.0
 10
6.7368884693
 20
-4.8601036228
 30
0.0
 10
6.725162198
 20
-4.8575177497
 30
0.0
 10
6.671677623
 20
-4.8466570466
 30
0.0
 10
6.6176411532
 20
-4.8387043305
 30
0.0
 10
6.5754242689
 20
-4.8333088925
 30
0.0
  0
SPLINE
  5
4B8
100
AcDbEntity
  8
0
100
AcDbSpline
 62
7
  6
CONTINUOUS
 70
0
 71
3
 72
11
 73
7
 74
0
 42
0.0000001
 43
0.0000001
 44
0.0000000001
 40
0.0
 40
0.0
 40
0.0
 40
0.0
 40
0.3139437841
 40
0.5763218265
 40
0.7987326764
 40
1.0
 40
1.0
 40
1.0
 40
1.0
 10
5.4278478523
 20
-4.3124243124
 30
0.0
 10
5.4148645767
 20
-4.3208831243
 30
0.0
 10
5.3918030949
 20
-4.33771335
 30
0.0
 10
5.3641027176
 20
-4.3661254512
 30
0.0
 10
5.3467716665
 20
-4.3957508021
 30
0.0
 10
5.3427473496
 20
-4.4168145142
 30
0.0
 10
5.3427473622
 20
-4.4267487116
 30
0.0
  0
SPLINE
  5
4B9
100
AcDbEntity
  8
0
100
AcDbSpline
 62
7
  6
CONTINUOUS
 70
0
 71
3
 72
8
 73
4
 74
0
 42
0.0000001
 43
0.0000001
 44
0.0000000001
 40
0.0
 40
0.0
 40
0.0
 40
0.0
 40
1.0
 40
1.0
 40
1.0
 40
1.0
 10
5.5595260626
 20
-4.5143308175
 30
0.0
 10
5.5546617915
 20
-4.511898682
 30
0.0
 10
5.5498724339
 20
-4.5093067435
 30
0.0
 10
5.5451991186
 20
-4.5065252797
 30
0.0
  0
SPLINE
  5
4BA
100
AcDbEntity
  8
0
100
AcDbSpline
 62
7
  6
CONTINUOUS
 70
0
 71
3
 72
9
 73
5
 74
0
 42
0.0000001
 43
0.0000001
 44
0.0000000001
 40
0.0
 40
0.0
 40
0.0
 40
0.0
 40
0.5575106991
 40
1.0
 40
1.0
 40
1.0
 40
1.0
 10
5.5451991186
 20
-4.5065252797
 30
0.0
 10
5.5321692049
 20
-4.4987701357
 30
0.0
 10
5.5096391571
 20
-4.4823784699
 30
0.0
 10
5.4972196707
 20
-4.4562905616
 30
0.0
 10
5.4958845297
 20
-4.4443300532
 30
0.0
  0
SPLINE
  5
4BB
100
AcDbEntity
  8
0
100
AcDbSpline
 62
7
  6
CONTINUOUS
 70
0
 71
3
 72
9
 73
5
 74
0
 42
0.0000001
 43
0.0000001
 44
0.0000000001
 40
0.0
 40
0.0
 40
0.0
 40
0.0
 40
0.2707441951
 40
1.0
 40
1.0
 40
1.0
 40
1.0
 10
5.6842879729
 20
-4.5466867504
 30
0.0
 10
5.6726477578
 20
-4.5458170749
 30
0.0
 10
5.6298268737
 20
-4.5409378565
 30
0.0
 10
5.587647369
 20
-4.5283914707
 30
0.0
 10
5.5595260626
 20
-4.5143308175
 30
0.0
  0
SPLINE
  5
4BC
100
AcDbEntity
  8
0
100
AcDbSpline
 62
7
  6
CONTINUOUS
 70
0
 71
3
 72
9
 73
5
 74
0
 42
0.0000001
 43
0.0000001
 44
0.0000000001
 40
0.0
 40
0.0
 40
0.0
 40
0.0
 40
0.2435019262
 40
1.0
 40
1.0
 40
1.0
 40
1.0
 10
5.8819182209
 20
-4.5319996831
 30
0.0
 10
5.8661485901
 20
-4.5353084935
 30
0.0
 10
5.8010423096
 20
-4.5470700913
 30
0.0
 10
5.7342078693
 20
-4.5504164163
 30
0.0
 10
5.6842879729
 20
-4.5466867504
 30
0.0
  0
SPLINE
  5
4BD
100
AcDbEntity
  8
0
100
AcDbSpline
 62
7
  6
CONTINUOUS
 70
0
 71
3
 72
9
 73
5
 74
0
 42
0.0000001
 43
0.0000001
 44
0.0000000001
 40
0.0
 40
0.0
 40
0.0
 40
0.0
 40
0.2451507168
 40
1.0
 40
1.0
 40
1.0
 40
1.0
 10
6.126369076
 20
-4.4415943047
 30
0.0
 10
6.1186703457
 20
-4.4453912985
 30
0.0
 10
6.0871575879
 20
-4.4606564248
 30
0.0
 10
6.0551350293
 20
-4.4748848968
 30
0.0
 10
6.0306545923
 20
-4.484851865
 30
0.0
  0
SPLINE
  5
4BE
100
AcDbEntity
  8
0
100
AcDbSpline
 62
7
  6
CONTINUOUS
 70
0
 71
3
 72
9
 73
5
 74
0
 42
0.0000001
 43
0.0000001
 44
0.0000000001
 40
0.0
 40
0.0
 40
0.0
 40
0.0
 40
0.2411111079
 40
1.0
 40
1.0
 40
1.0
 40
1.0
 10
6.0306545923
 20
-4.484851865
 30
0.0
 10
6.0206407918
 20
-4.4889288849
 30
0.0
 10
5.9788981317
 20
-4.5052937934
 30
0.0
 10
5.9360855626
 20
-4.5191151036
 30
0.0
 10
5.90302961
 20
-4.5271997491
 30
0.0
  0
SPLINE
  5
4BF
100
AcDbEntity
  8
0
100
AcDbSpline
 62
7
  6
CONTINUOUS
 70
0
 71
3
 72
11
 73
7
 74
0
 42
0.0000001
 43
0.0000001
 44
0.0000000001
 40
0.0
 40
0.0
 40
0.0
 40
0.0
 40
0.321523433
 40
0.5853311139
 40
0.8043808044
 40
1.0
 40
1.0
 40
1.0
 40
1.0
 10
5.8072063948
 20
-4.1064421176
 30
0.0
 10
5.7872409437
 20
-4.1164248431
 30
0.0
 10
5.7517815539
 20
-4.1365909586
 30
0.0
 10
5.7084032232
 20
-4.1723734001
 30
0.0
 10
5.680434738
 20
-4.2111965034
 30
0.0
 10
5.6730240009
 20
-4.2399162976
 30
0.0
 10
5.6723930083
 20
-4.2534826695
 30
0.0
  0
SPLINE
  5
4C0
100
AcDbEntity
  8
0
100
AcDbSpline
 62
7
  6
CONTINUOUS
 70
0
 71
3
 72
9
 73
5
 74
0
 42
0.0000001
 43
0.0000001
 44
0.0000000001
 40
0.0
 40
0.0
 40
0.0
 40
0.0
 40
0.2659856336
 40
1.0
 40
1.0
 40
1.0
 40
1.0
 10
6.0059776561
 20
-4.0446787728
 30
0.0
 10
5.9877286995
 20
-4.0476691529
 30
0.0
 10
5.9195203808
 20
-4.0610346632
 30
0.0
 10
5.8528503572
 20
-4.0836201363
 30
0.0
 10
5.8072063948
 20
-4.1064421176
 30
0.0
  0
SPLINE
  5
4C1
100
AcDbEntity
  8
0
100
AcDbSpline
 62
7
  6
CONTINUOUS
 70
0
 71
3
 72
9
 73
5
 74
0
 42
0.0000001
 43
0.0000001
 44
0.0000000001
 40
0.0
 40
0.0
 40
0.0
 40
0.0
 40
0.2439667221
 40
1.0
 40
1.0
 40
1.0
 40
1.0
 10
6.221624377
 20
-4.039146792
 30
0.0
 10
6.2041792603
 20
-4.0369954871
 30
0.0
 10
6.1323453597
 20
-4.0308826656
 30
0.0
 10
6.0597312704
 20
-4.0358703932
 30
0.0
 10
6.0059776561
 20
-4.0446787728
 30
0.0
  0
SPLINE
  5
4C2
100
AcDbEntity
  8
0
100
AcDbSpline
 62
7
  6
CONTINUOUS
 70
0
 71
3
 72
9
 73
5
 74
0
 42
0.0000001
 43
0.0000001
 44
0.0000000001
 40
0.0
 40
0.0
 40
0.0
 40
0.0
 40
0.2384899714
 40
1.0
 40
1.0
 40
1.0
 40
1.0
 10
6.4091635179
 20
-4.0932742524
 30
0.0
 10
6.395244646
 20
-4.0863148164
 30
0.0
 10
6.3354765776
 20
-4.059935407
 30
0.0
 10
6.2709402989
 20
-4.0452283552
 30
0.0
 10
6.221624377
 20
-4.039146792
 30
0.0
  0
SPLINE
  5
4C3
100
AcDbEntity
  8
0
100
AcDbSpline
 62
250
  6
CONTINUOUS
 70
0
 71
3
 72
13
 73
9
 74
0
 42
0.0000001
 43
0.0000001
 44
0.0000000001
 40
0.0
 40
0.0
 40
0.0
 40
0.0
 40
0.3021603033
 40
0.4384728748
 40
0.5651503496
 40
0.7927820951
 40
0.8978251181
 40
1.0
 40
1.0
 40
1.0
 40
1.0
 10
13.0305963785
 20
-8.8479862684
 30
0.0
 10
13.1945019038
 20
-8.9299390311
 30
0.0
 10
13.4248499384
 20
-9.0665406461
 30
0.0
 10
13.6894597176
 20
-9.2855242556
 30
0.0
 10
13.8952429216
 20
-9.5008641254
 30
0.0
 10
14.0473800299
 20
-9.7408164703
 30
0.0
 10
14.1236960685
 20
-9.9946731527
 30
0.0
 10
14.1362681557
 20
-10.1206840505
 30
0.0
 10
14.1362682795
 20
-10.1826503179
 30
0.0
  0
SPLINE
  5
4C4
100
AcDbEntity
  8
0
100
AcDbSpline
 62
7
  6
CONTINUOUS
 70
0
 71
3
 72
11
 73
7
 74
0
 42
0.0000001
 43
0.0000001
 44
0.0000000001
 40
0.0
 40
0.0
 40
0.0
 40
0.0
 40
0.3127077619
 40
0.5739014685
 40
0.7963313436
 40
1.0
 40
1.0
 40
1.0
 40
1.0
 10
4.6816717202
 20
-3.5292884619
 30
0.0
 10
4.6964887506
 20
-3.5202924402
 30
0.0
 10
4.7228170302
 20
-3.5022044139
 30
0.0
 10
4.7544442166
 20
-3.47095007
 30
0.0
 10
4.7741629776
 20
-3.4376939244
 30
0.0
 10
4.778637395
 20
-3.4138797948
 30
0.0
 10
4.7786373861
 20
-3.4025899462
 30
0.0
  0
SPLINE
  5
4C5
100
AcDbEntity
  8
0
100
AcDbSpline
 62
7
  6
CONTINUOUS
 70
0
 71
3
 72
8
 73
4
 74
0
 42
0.0000001
 43
0.0000001
 44
0.0000000001
 40
0.0
 40
0.0
 40
0.0
 40
0.0
 40
1.0
 40
1.0
 40
1.0
 40
1.0
 10
3.0185838414
 20
-3.1975691665
 30
0.0
 10
3.0185810947
 20
-3.1885425972
 30
0.0
 10
3.0204477555
 20
-3.1794503421
 30
0.0
 10
3.0234058681
 20
-3.1709222397
 30
0.0
  0
SPLINE
  5
4C6
100
AcDbEntity
  8
0
100
AcDbSpline
 62
7
  6
CONTINUOUS
 70
0
 71
3
 72
9
 73
5
 74
0
 42
0.0000001
 43
0.0000001
 44
0.0000000001
 40
0.0
 40
0.0
 40
0.0
 40
0.0
 40
0.7431972161
 40
1.0
 40
1.0
 40
1.0
 40
1.0
 10
5.3435310986
 20
-4.4814351422
 30
0.0
 10
5.34451445
 20
-4.4886032862
 30
0.0
 10
5.347064398
 20
-4.4981290699
 30
0.0
 10
5.3509776504
 20
-4.5070452012
 30
0.0
 10
5.3520633129
 20
-4.5092972342
 30
0.0
  0
SPLINE
  5
4C7
100
AcDbEntity
  8
0
100
AcDbSpline
 62
7
  6
CONTINUOUS
 70
0
 71
3
 72
9
 73
5
 74
0
 42
0.0000001
 43
0.0000001
 44
0.0000000001
 40
0.0
 40
0.0
 40
0.0
 40
0.0
 40
0.4271765749
 40
1.0
 40
1.0
 40
1.0
 40
1.0
 10
5.3520633129
 20
-4.5092972342
 30
0.0
 10
5.3609062897
 20
-4.5276405726
 30
0.0
 10
5.3940278729
 20
-4.5641906756
 30
0.0
 10
5.435403108
 20
-4.5883723737
 30
0.0
 10
5.4598268916
 20
-4.6005842655
 30
0.0
  0
SPLINE
  5
4C8
100
AcDbEntity
  8
0
100
AcDbSpline
 62
7
  6
CONTINUOUS
 70
0
 71
3
 72
9
 73
5
 74
0
 42
0.0000001
 43
0.0000001
 44
0.0000000001
 40
0.0
 40
0.0
 40
0.0
 40
0.0
 40
0.4790784959
 40
1.0
 40
1.0
 40
1.0
 40
1.0
 10
5.4598268916
 20
-4.6005842655
 30
0.0
 10
5.5091760355
 20
-4.6252588375
 30
0.0
 10
5.6204074219
 20
-4.6613519333
 30
0.0
 10
5.7366392181
 20
-4.6667162163
 30
0.0
 10
5.7965528095
 20
-4.6636314239
 30
0.0
  0
SPLINE
  5
4C9
100
AcDbEntity
  8
0
100
AcDbSpline
 62
7
  6
CONTINUOUS
 70
0
 71
3
 72
11
 73
7
 74
0
 42
0.0000001
 43
0.0000001
 44
0.0000000001
 40
0.0
 40
0.0
 40
0.0
 40
0.0
 40
0.2072917421
 40
0.4285080736
 40
0.6875148062
 40
1.0
 40
1.0
 40
1.0
 40
1.0
 10
3.8699691888
 20
-3.4085838171
 30
0.0
 10
3.8698923704
 20
-3.4221413109
 30
0.0
 10
3.8750344266
 20
-3.4505082028
 30
0.0
 10
3.8993799196
 20
-3.4893017638
 30
0.0
 10
3.9386385247
 20
-3.5238924504
 30
0.0
 10
3.9711409032
 20
-3.5427218613
 30
0.0
 10
3.989421014
 20
-3.5518619167
 30
0.0
  0
SPLINE
  5
4CA
100
AcDbEntity
  8
0
100
AcDbSpline
 62
7
  6
CONTINUOUS
 70
0
 71
3
 72
9
 73
5
 74
0
 42
0.0000001
 43
0.0000001
 44
0.0000000001
 40
0.0
 40
0.0
 40
0.0
 40
0.0
 40
0.2312099801
 40
1.0
 40
1.0
 40
1.0
 40
1.0
 10
3.989421014
 20
-3.5518619167
 30
0.0
 10
3.9996213468
 20
-3.5569620831
 30
0.0
 10
4.0446898982
 20
-3.5771241155
 30
0.0
 10
4.0927379311
 20
-3.5900803335
 30
0.0
 10
4.1299685907
 20
-3.5972788627
 30
0.0
  0
SPLINE
  5
4CB
100
AcDbEntity
  8
0
100
AcDbSpline
 62
7
  6
CONTINUOUS
 70
0
 71
3
 72
9
 73
5
 74
0
 42
0.0000001
 43
0.0000001
 44
0.0000000001
 40
0.0
 40
0.0
 40
0.0
 40
0.0
 40
0.4614982321
 40
1.0
 40
1.0
 40
1.0
 40
1.0
 10
5.7965528095
 20
-4.6636314239
 30
0.0
 10
5.8748497693
 20
-4.6596001204
 30
0.0
 10
6.0433657554
 20
-4.6262150642
 30
0.0
 10
6.2006775075
 20
-4.5599812912
 30
0.0
 10
6.2825017265
 20
-4.5190691817
 30
0.0
  0
SPLINE
  5
4CC
100
AcDbEntity
  8
0
100
AcDbSpline
 62
7
  6
CONTINUOUS
 70
0
 71
3
 72
11
 73
7
 74
0
 42
0.0000001
 43
0.0000001
 44
0.0000000001
 40
0.0
 40
0.0
 40
0.0
 40
0.0
 40
0.3525344843
 40
0.6310770754
 40
0.8419625069
 40
1.0
 40
1.0
 40
1.0
 40
1.0
 10
6.2825017265
 20
-4.5190691817
 30
0.0
 10
6.3184215812
 20
-4.5011092543
 30
0.0
 10
6.3817783821
 20
-4.4669418899
 30
0.0
 10
6.4609647867
 20
-4.4122623627
 30
0.0
 10
6.5140000566
 20
-4.3603736655
 30
0.0
 10
6.5334624541
 20
-4.3211805646
 30
0.0
 10
6.5361607117
 20
-4.303380783
 30
0.0
  0
SPLINE
  5
4CD
100
AcDbEntity
  8
0
100
AcDbSpline
 62
7
  6
CONTINUOUS
 70
0
 71
3
 72
9
 73
5
 74
0
 42
0.0000001
 43
0.0000001
 44
0.0000000001
 40
0.0
 40
0.0
 40
0.0
 40
0.0
 40
0.2426065828
 40
1.0
 40
1.0
 40
1.0
 40
1.0
 10
2.8712553274
 20
-3.2336653234
 30
0.0
 10
2.8712549232
 20
-3.2378967611
 30
0.0
 10
2.8725234371
 20
-3.2553474696
 30
0.0
 10
2.8792283237
 20
-3.2721368589
 30
0.0
 10
2.8860339614
 20
-3.2834589908
 30
0.0
  0
SPLINE
  5
4CE
100
AcDbEntity
  8
0
100
AcDbSpline
 62
7
  6
CONTINUOUS
 70
0
 71
3
 72
9
 73
5
 74
0
 42
0.0000001
 43
0.0000001
 44
0.0000000001
 40
0.0
 40
0.0
 40
0.0
 40
0.0
 40
0.2426047476
 40
1.0
 40
1.0
 40
1.0
 40
1.0
 10
2.871255327
 20
-3.1903722683
 30
0.0
 10
2.8712553258
 20
-3.1946030209
 30
0.0
 10
2.8725251274
 20
-3.2120509078
 30
0.0
 10
2.8792293575
 20
-3.2288373086
 30
0.0
 10
2.8860339614
 20
-3.2401577206
 30
0.0
  0
SPLINE
  5
4CF
100
AcDbEntity
  8
0
100
AcDbSpline
 62
7
  6
CONTINUOUS
 70
0
 71
3
 72
9
 73
5
 74
0
 42
0.0000001
 43
0.0000001
 44
0.0000000001
 40
0.0
 40
0.0
 40
0.0
 40
0.0
 40
0.4275874758
 40
1.0
 40
1.0
 40
1.0
 40
1.0
 10
4.0371444155
 20
-3.3987598813
 30
0.0
 10
4.0419358735
 20
-3.3846063167
 30
0.0
 10
4.0637302046
 20
-3.3554192644
 30
0.0
 10
4.0929994088
 20
-3.3359027433
 30
0.0
 10
4.110351462
 20
-3.3259501285
 30
0.0
  0
SPLINE
  5
4D0
100
AcDbEntity
  8
0
100
AcDbSpline
 62
7
  6
CONTINUOUS
 70
0
 71
3
 72
9
 73
5
 74
0
 42
0.0000001
 43
0.0000001
 44
0.0000000001
 40
0.0
 40
0.0
 40
0.0
 40
0.0
 40
0.2417137029
 40
1.0
 40
1.0
 40
1.0
 40
1.0
 10
4.110351462
 20
-3.3259501285
 30
0.0
 10
4.1119984493
 20
-3.3250054662
 30
0.0
 10
4.1188430643
 20
-3.3211511097
 30
0.0
 10
4.1258042539
 20
-3.3175050484
 30
0.0
 10
4.1311317947
 20
-3.314841278
 30
0.0
  0
SPLINE
  5
4D1
100
AcDbEntity
  8
0
100
AcDbSpline
 62
7
  6
CONTINUOUS
 70
0
 71
3
 72
9
 73
5
 74
0
 42
0.0000001
 43
0.0000001
 44
0.0000000001
 40
0.0
 40
0.0
 40
0.0
 40
0.0
 40
0.4955112211
 40
1.0
 40
1.0
 40
1.0
 40
1.0
 10
4.1311317947
 20
-3.314841278
 30
0.0
 10
4.1647083679
 20
-3.2980529914
 30
0.0
 10
4.2365147103
 20
-3.27166334
 30
0.0
 10
4.3123710158
 20
-3.2622306233
 30
0.0
 10
4.3505817303
 20
-3.2613933547
 30
0.0
  0
SPLINE
  5
4D2
100
AcDbEntity
  8
0
100
AcDbSpline
 62
7
  6
CONTINUOUS
 70
0
 71
3
 72
9
 73
5
 74
0
 42
0.0000001
 43
0.0000001
 44
0.0000000001
 40
0.0
 40
0.0
 40
0.0
 40
0.0
 40
0.2788862351
 40
1.0
 40
1.0
 40
1.0
 40
1.0
 10
4.3505817303
 20
-3.2613933547
 30
0.0
 10
4.3695541213
 20
-3.2609776339
 30
0.0
 10
4.4374742144
 20
-3.2624229151
 30
0.0
 10
4.5061053619
 20
-3.277848177
 30
0.0
 10
4.5499935852
 20
-3.2997922887
 30
0.0
  0
SPLINE
  5
4D3
100
AcDbEntity
  8
0
100
AcDbSpline
 62
7
  6
CONTINUOUS
 70
0
 71
3
 72
9
 73
5
 74
0
 42
0.0000001
 43
0.0000001
 44
0.0000000001
 40
0.0
 40
0.0
 40
0.0
 40
0.0
 40
0.3051892933
 40
1.0
 40
1.0
 40
1.0
 40
1.0
 10
4.5499935852
 20
-3.2997922887
 30
0.0
 10
4.5585855951
 20
-3.3040882936
 30
0.0
 10
4.5857914856
 20
-3.3192542992
 30
0.0
 10
4.6110576565
 20
-3.3424975837
 30
0.0
 10
4.6188093978
 20
-3.3629476068
 30
0.0
  0
SPLINE
  5
4D4
100
AcDbEntity
  8
0
100
AcDbSpline
 62
7
  6
CONTINUOUS
 70
0
 71
3
 72
9
 73
5
 74
0
 42
0.0000001
 43
0.0000001
 44
0.0000000001
 40
0.0
 40
0.0
 40
0.0
 40
0.0
 40
0.283681362
 40
1.0
 40
1.0
 40
1.0
 40
1.0
 10
3.7549085521
 20
-3.2784730353
 30
0.0
 10
3.771628695
 20
-3.2701129638
 30
0.0
 10
3.8301315078
 20
-3.239834333
 30
0.0
 10
3.8871137256
 20
-3.206218331
 30
0.0
 10
3.9253990719
 20
-3.1786073897
 30
0.0
  0
SPLINE
  5
4D5
100
AcDbEntity
  8
0
100
AcDbSpline
 62
7
  6
CONTINUOUS
 70
0
 71
3
 72
9
 73
5
 74
0
 42
0.0000001
 43
0.0000001
 44
0.0000000001
 40
0.0
 40
0.0
 40
0.0
 40
0.0
 40
0.2766135827
 40
1.0
 40
1.0
 40
1.0
 40
1.0
 10
3.9253990719
 20
-3.1786073897
 30
0.0
 10
3.9321153161
 20
-3.1737637135
 30
0.0
 10
3.9560725822
 20
-3.155830761
 30
0.0
 10
3.9787734474
 20
-3.1360680081
 30
0.0
 10
3.9935913805
 20
-3.1202764168
 30
0.0
  0
SPLINE
  5
4D6
100
AcDbEntity
  8
0
100
AcDbSpline
 62
7
  6
CONTINUOUS
 70
0
 71
3
 72
9
 73
5
 74
0
 42
0.0000001
 43
0.0000001
 44
0.0000000001
 40
0.0
 40
0.0
 40
0.0
 40
0.0
 40
0.289341813
 40
1.0
 40
1.0
 40
1.0
 40
1.0
 10
3.9935913805
 20
-3.1202764168
 30
0.0
 10
3.999328924
 20
-3.1141618702
 30
0.0
 10
4.0182287503
 20
-3.0923319962
 30
0.0
 10
4.0334160742
 20
-3.0662306071
 30
0.0
 10
4.0381162934
 20
-3.0461797421
 30
0.0
  0
SPLINE
  5
4D7
100
AcDbEntity
  8
0
100
AcDbSpline
 62
7
  6
CONTINUOUS
 70
0
 71
3
 72
8
 73
4
 74
0
 42
0.0000001
 43
0.0000001
 44
0.0000000001
 40
0.0
 40
0.0
 40
0.0
 40
0.0
 40
1.0
 40
1.0
 40
1.0
 40
1.0
 10
4.0381162934
 20
-3.0461797421
 30
0.0
 10
4.039792882
 20
-3.0390275113
 30
0.0
 10
4.0407192868
 20
-3.0316417808
 30
0.0
 10
4.0407192822
 20
-3.0242956693
 30
0.0
  0
SPLINE
  5
4D8
100
AcDbEntity
  8
0
100
AcDbSpline
 62
250
  6
CONTINUOUS
 70
0
 71
3
 72
20
 73
16
 74
0
 42
0.0000001
 43
0.0000001
 44
0.0000000001
 40
0.0
 40
0.0
 40
0.0
 40
0.0
 40
0.1483994425
 40
0.2149847984
 40
0.2766457946
 40
0.3338737627
 40
0.3874924266
 40
0.4386683962
 40
0.4888460577
 40
0.5395972925
 40
0.5924200516
 40
0.6485663984
 40
0.7089550482
 40
0.8442707034
 40
1.0
 40
1.0
 40
1.0
 40
1.0
 10
13.1366623957
 20
-8.6650494493
 30
0.0
 10
13.3146089511
 20
-8.754022727
 30
0.0
 10
13.5640702713
 20
-8.9029995661
 30
0.0
 10
13.8473706032
 20
-9.1434701689
 30
0.0
 10
14.0158258346
 20
-9.3274252473
 30
0.0
 10
14.1459877522
 20
-9.5197413959
 30
0.0
 10
14.2361182412
 20
-9.7186735716
 30
0.0
 10
14.2846450525
 20
-9.922108981
 30
0.0
 10
14.2904970016
 20
-10.1274186223
 30
0.0
 10
14.253545881
 20
-10.3316485679
 30
0.0
 10
14.1746289743
 20
-10.5320371309
 30
0.0
 10
14.0552262029
 20
-10.7263565518
 30
0.0
 10
13.835983988
 20
-10.9845703924
 30
0.0
 10
13.4618400496
 20
-11.2782525561
 30
0.0
 10
13.1133300814
 20
-11.4577196456
 30
0.0
 10
12.9215540896
 20
-11.5402411771
 30
0.0
  0
SPLINE
  5
4D9
100
AcDbEntity
  8
0
100
AcDbSpline
 62
250
  6
CONTINUOUS
 70
0
 71
3
 72
15
 73
11
 74
0
 42
0.0000001
 43
0.0000001
 44
0.0000000001
 40
0.0
 40
0.0
 40
0.0
 40
0.0
 40
0.1151856763
 40
0.2385153475
 40
0.3675633348
 40
0.4995778486
 40
0.6316484936
 40
0.7608615678
 40
0.884454685
 40
1.0
 40
1.0
 40
1.0
 40
1.0
 10
12.8657181937
 20
-11.5638179785
 30
0.0
 10
12.6849022505
 20
-11.63873557
 30
0.0
 10
12.3003664473
 20
-11.7700226649
 30
0.0
 10
11.6906268999
 20
-11.9094231715
 30
0.0
 10
11.0422222265
 20
-11.9952079013
 30
0.0
 10
10.3740548782
 20
-12.0248113893
 30
0.0
 10
9.7055151062
 20
-11.9973767781
 30
0.0
 10
9.0560086214
 20
-11.9136957462
 30
0.0
 10
8.444454265
 20
-11.7762683137
 30
0.0
 10
8.0583701436
 20
-11.6462789813
 30
0.0
 10
7.8766422469
 20
-11.5719714829
 30
0.0
  0
SPLINE
  5
4DA
100
AcDbEntity
  8
0
100
AcDbSpline
 62
7
  6
CONTINUOUS
 70
0
 71
3
 72
9
 73
5
 74
0
 42
0.0000001
 43
0.0000001
 44
0.0000000001
 40
0.0
 40
0.0
 40
0.0
 40
0.0
 40
0.2310356775
 40
1.0
 40
1.0
 40
1.0
 40
1.0
 10
5.7808707911
 20
-4.4344189623
 30
0.0
 10
5.7919538637
 20
-4.4399604987
 30
0.0
 10
5.8410704017
 20
-4.4616613154
 30
0.0
 10
5.8937174179
 20
-4.4746589567
 30
0.0
 10
5.9344329157
 20
-4.4812294386
 30
0.0
  0
SPLINE
  5
4DB
100
AcDbEntity
  8
0
100
AcDbSpline
 62
7
  6
CONTINUOUS
 70
0
 71
3
 72
9
 73
5
 74
0
 42
0.0000001
 43
0.0000001
 44
0.0000000001
 40
0.0
 40
0.0
 40
0.0
 40
0.0
 40
0.252133531
 40
1.0
 40
1.0
 40
1.0
 40
1.0
 10
2.2964164632
 20
-2.6075059729
 30
0.0
 10
2.3081393799
 20
-2.6071974807
 30
0.0
 10
2.3546596123
 20
-2.6070174358
 30
0.0
 10
2.4011656531
 20
-2.6108722717
 30
0.0
 10
2.4356189348
 20
-2.6156574235
 30
0.0
  0
SPLINE
  5
4DC
100
AcDbEntity
  8
0
100
AcDbSpline
 62
7
  6
CONTINUOUS
 70
0
 71
3
 72
9
 73
5
 74
0
 42
0.0000001
 43
0.0000001
 44
0.0000000001
 40
0.0
 40
0.0
 40
0.0
 40
0.0
 40
0.5249976548
 40
1.0
 40
1.0
 40
1.0
 40
1.0
 10
2.4356189348
 20
-2.6156574235
 30
0.0
 10
2.4551776277
 20
-2.6183738938
 30
0.0
 10
2.4922106273
 20
-2.6252353597
 30
0.0
 10
2.5281169957
 20
-2.6374519382
 30
0.0
 10
2.5440968228
 20
-2.6454418518
 30
0.0
  0
SPLINE
  5
4DD
100
AcDbEntity
  8
0
100
AcDbSpline
 62
7
  6
CONTINUOUS
 70
0
 71
3
 72
9
 73
5
 74
0
 42
0.0000001
 43
0.0000001
 44
0.0000000001
 40
0.0
 40
0.0
 40
0.0
 40
0.0
 40
0.2666367066
 40
1.0
 40
1.0
 40
1.0
 40
1.0
 10
2.5440968228
 20
-2.6454418518
 30
0.0
 10
2.5477241216
 20
-2.6472555012
 30
0.0
 10
2.5611589776
 20
-2.6543787882
 30
0.0
 10
2.5738596661
 20
-2.6629715061
 30
0.0
 10
2.5823461751
 20
-2.6702099349
 30
0.0
  0
SPLINE
  5
4DE
100
AcDbEntity
  8
0
100
AcDbSpline
 62
7
  6
CONTINUOUS
 70
0
 71
3
 72
9
 73
5
 74
0
 42
0.0000001
 43
0.0000001
 44
0.0000000001
 40
0.0
 40
0.0
 40
0.0
 40
0.0
 40
0.4370801675
 40
1.0
 40
1.0
 40
1.0
 40
1.0
 10
2.8860339614
 20
-3.2834589908
 30
0.0
 10
2.8957058778
 20
-3.2995495789
 30
0.0
 10
2.9266272306
 20
-3.3308785883
 30
0.0
 10
2.9639056009
 20
-3.3526236202
 30
0.0
 10
2.9855318421
 20
-3.3634367408
 30
0.0
  0
SPLINE
  5
4DF
100
AcDbEntity
  8
0
100
AcDbSpline
 62
7
  6
CONTINUOUS
 70
0
 71
3
 72
9
 73
5
 74
0
 42
0.0000001
 43
0.0000001
 44
0.0000000001
 40
0.0
 40
0.0
 40
0.0
 40
0.0
 40
0.4920814333
 40
1.0
 40
1.0
 40
1.0
 40
1.0
 10
2.9855318421
 20
-3.3634367408
 30
0.0
 10
3.0191366222
 20
-3.3802391308
 30
0.0
 10
3.0913915497
 20
-3.4069443038
 30
0.0
 10
3.1675484508
 20
-3.4178010149
 30
0.0
 10
3.2062824211
 20
-3.4196997316
 30
0.0
  0
SPLINE
  5
4E0
100
AcDbEntity
  8
0
100
AcDbSpline
 62
7
  6
CONTINUOUS
 70
0
 71
3
 72
9
 73
5
 74
0
 42
0.0000001
 43
0.0000001
 44
0.0000000001
 40
0.0
 40
0.0
 40
0.0
 40
0.0
 40
0.2386271368
 40
1.0
 40
1.0
 40
1.0
 40
1.0
 10
3.2062824211
 20
-3.4196997316
 30
0.0
 10
3.2265595062
 20
-3.4206937026
 30
0.0
 10
3.311700181
 20
-3.4214218817
 30
0.0
 10
3.3966809671
 20
-3.4084091929
 30
0.0
 10
3.4595732511
 20
-3.3929075839
 30
0.0
  0
SPLINE
  5
4E1
100
AcDbEntity
  8
0
100
AcDbSpline
 62
7
  6
CONTINUOUS
 70
0
 71
3
 72
9
 73
5
 74
0
 42
0.0000001
 43
0.0000001
 44
0.0000000001
 40
0.0
 40
0.0
 40
0.0
 40
0.0
 40
0.260662931
 40
1.0
 40
1.0
 40
1.0
 40
1.0
 10
2.5823461751
 20
-2.6702099349
 30
0.0
 10
2.5863402259
 20
-2.6736165951
 30
0.0
 10
2.6009823666
 20
-2.6874769618
 30
0.0
 10
2.6141584083
 20
-2.702771829
 30
0.0
 10
2.623552499
 20
-2.7143240384
 30
0.0
  0
SPLINE
  5
4E2
100
AcDbEntity
  8
0
100
AcDbSpline
 62
7
  6
CONTINUOUS
 70
0
 71
3
 72
9
 73
5
 74
0
 42
0.0000001
 43
0.0000001
 44
0.0000000001
 40
0.0
 40
0.0
 40
0.0
 40
0.0
 40
0.4648323041
 40
1.0
 40
1.0
 40
1.0
 40
1.0
 10
3.4595732511
 20
-3.3929075839
 30
0.0
 10
3.5072942308
 20
-3.3811453785
 30
0.0
 10
3.607974873
 20
-3.3477221864
 30
0.0
 10
3.7042963991
 20
-3.3037791118
 30
0.0
 10
3.7549085521
 20
-3.2784730353
 30
0.0
  0
SPLINE
  5
4E3
100
AcDbEntity
  8
0
100
AcDbSpline
 62
7
  6
CONTINUOUS
 70
0
 71
3
 72
9
 73
5
 74
0
 42
0.0000001
 43
0.0000001
 44
0.0000000001
 40
0.0
 40
0.0
 40
0.0
 40
0.0
 40
0.5697079775
 40
1.0
 40
1.0
 40
1.0
 40
1.0
 10
2.623552499
 20
-2.7143240384
 30
0.0
 10
2.636692007
 20
-2.7304821055
 30
0.0
 10
2.6602965354
 20
-2.7584017079
 30
0.0
 10
2.6858834841
 20
-2.7846324792
 30
0.0
 10
2.6977212878
 20
-2.7949905715
 30
0.0
  0
SPLINE
  5
4E4
100
AcDbEntity
  8
0
100
AcDbSpline
 62
7
  6
CONTINUOUS
 70
0
 71
3
 72
9
 73
5
 74
0
 42
0.0000001
 43
0.0000001
 44
0.0000000001
 40
0.0
 40
0.0
 40
0.0
 40
0.0
 40
0.2459843815
 40
1.0
 40
1.0
 40
1.0
 40
1.0
 10
2.6977212878
 20
-2.7949905715
 30
0.0
 10
2.7027514326
 20
-2.7993919543
 30
0.0
 10
2.7237907319
 20
-2.8166047035
 30
0.0
 10
2.7471161169
 20
-2.8309747185
 30
0.0
 10
2.7654412774
 20
-2.8401372987
 30
0.0
  0
SPLINE
  5
4E5
100
AcDbEntity
  8
0
100
AcDbSpline
 62
7
  6
CONTINUOUS
 70
0
 71
3
 72
9
 73
5
 74
0
 42
0.0000001
 43
0.0000001
 44
0.0000000001
 40
0.0
 40
0.0
 40
0.0
 40
0.0
 40
0.4798388228
 40
1.0
 40
1.0
 40
1.0
 40
1.0
 10
2.7654412774
 20
-2.8401372987
 30
0.0
 10
2.8021280295
 20
-2.8584806748
 30
0.0
 10
2.8844272734
 20
-2.8857207713
 30
0.0
 10
2.9705638479
 20
-2.8911547695
 30
0.0
 10
3.0150029922
 20
-2.8896734802
 30
0.0
  0
SPLINE
  5
4E6
100
AcDbEntity
  8
0
100
AcDbSpline
 62
7
  6
CONTINUOUS
 70
0
 71
3
 72
9
 73
5
 74
0
 42
0.0000001
 43
0.0000001
 44
0.0000000001
 40
0.0
 40
0.0
 40
0.0
 40
0.0
 40
0.2452591744
 40
1.0
 40
1.0
 40
1.0
 40
1.0
 10
5.9344329157
 20
-4.4812294386
 30
0.0
 10
5.9413493337
 20
-4.4823455786
 30
0.0
 10
5.9696267363
 20
-4.4864118857
 30
0.0
 10
5.9981730547
 20
-4.488557389
 30
0.0
 10
6.0197230231
 20
-4.4891945575
 30
0.0
  0
SPLINE
  5
4E7
100
AcDbEntity
  8
0
100
AcDbSpline
 62
250
  6
CONTINUOUS
 70
0
 71
3
 72
9
 73
5
 74
0
 42
0.0000001
 43
0.0000001
 44
0.0000000001
 40
0.0
 40
0.0
 40
0.0
 40
0.0
 40
0.2553009189
 40
1.0
 40
1.0
 40
1.0
 40
1.0
 10
-10.7989021475
 20
-2.24805541
 30
0.0
 10
-10.8199167007
 20
-2.2375481334
 30
0.0
 10
-10.9018513326
 20
-2.1956420229
 30
0.0
 10
-10.9822400312
 20
-2.1506938145
 30
0.0
 10
-11.0409799208
 20
-2.1153882761
 30
0.0
  0
SPLINE
  5
4E8
100
AcDbEntity
  8
0
100
AcDbSpline
 62
250
  6
CONTINUOUS
 70
0
 71
3
 72
28
 73
24
 74
0
 42
0.0000001
 43
0.0000001
 44
0.0000000001
 40
0.0
 40
0.0
 40
0.0
 40
0.0
 40
0.05659589
 40
0.0820831695
 40
0.1058368169
 40
0.1280972638
 40
0.1492188392
 40
0.1696588116
 40
0.1899452708
 40
0.2106238384
 40
0.2321968989
 40
0.2550786071
 40
0.2795730192
 40
0.3340136154
 40
0.3961203909
 40
0.4652992219
 40
0.5402379181
 40
0.6191573414
 40
0.6999980509
 40
0.7805744319
 40
0.858718427
 40
0.932419685
 40
1.0
 40
1.0
 40
1.0
 40
1.0
 10
-11.0409799208
 20
-2.1153882761
 30
0.0
 10
-11.190113193
 20
-2.0257519063
 30
0.0
 10
-11.3974357547
 20
-1.8780101176
 30
0.0
 10
-11.6266532822
 20
-1.6461213158
 30
0.0
 10
-11.7602106699
 20
-1.4706165509
 30
0.0
 10
-11.8599331054
 20
-1.2889250046
 30
0.0
 10
-11.9245742418
 20
-1.1025829696
 30
0.0
 10
-11.9531332675
 20
-0.9134437034
 30
0.0
 10
-11.9450371483
 20
-0.7236651466
 30
0.0
 10
-11.900469331
 20
-0.5355099522
 30
0.0
 10
-11.8202173979
 20
-0.3510109367
 30
0.0
 10
-11.7054144199
 20
-0.1718665197
 30
0.0
 10
-11.5008606902
 20
0.0661965301
 30
0.0
 10
-11.1593692871
 20
0.3393374733
 30
0.0
 10
-10.6549714305
 20
0.6114555675
 30
0.0
 10
-10.058431296
 20
0.8314551683
 30
0.0
 10
-9.3903404054
 20
0.9917708952
 30
0.0
 10
-8.6738792852
 20
1.0868796014
 30
0.0
 10
-7.9343557245
 20
1.1133446189
 30
0.0
 10
-7.1980063969
 20
1.0702199597
 30
0.0
 10
-6.4908789797
 20
0.9590282985
 30
0.0
 10
-5.8380790669
 20
0.7838558687
 30
0.0
 10
-5.4339479857
 20
0.6202557414
 30
0.0
 10
-5.2481139152
 20
0.5273387062
 30
0.0
  0
SPLINE
  5
4E9
100
AcDbEntity
  8
0
100
AcDbSpline
 62
7
  6
CONTINUOUS
 70
0
 71
3
 72
9
 73
5
 74
0
 42
0.0000001
 43
0.0000001
 44
0.0000000001
 40
0.0
 40
0.0
 40
0.0
 40
0.0
 40
0.4180812463
 40
1.0
 40
1.0
 40
1.0
 40
1.0
 10
3.0234058681
 20
-3.2142235099
 30
0.0
 10
3.0267186839
 20
-3.2046728149
 30
0.0
 10
3.0406610334
 20
-3.1841677432
 30
0.0
 10
3.0584037004
 20
-3.1677278665
 30
0.0
 10
3.0691976357
 20
-3.1587019258
 30
0.0
  0
SPLINE
  5
4EA
100
AcDbEntity
  8
0
100
AcDbSpline
 62
7
  6
CONTINUOUS
 70
0
 71
3
 72
9
 73
5
 74
0
 42
0.0000001
 43
0.0000001
 44
0.0000000001
 40
0.0
 40
0.0
 40
0.0
 40
0.0
 40
0.4178717963
 40
1.0
 40
1.0
 40
1.0
 40
1.0
 10
3.0691976357
 20
-3.1587019258
 30
0.0
 10
3.0944705837
 20
-3.137568565
 30
0.0
 10
3.1608053672
 20
-3.0942609132
 30
0.0
 10
3.2304123565
 20
-3.0572740382
 30
0.0
 10
3.2714614572
 20
-3.0367494879
 30
0.0
  0
SPLINE
  5
4EB
100
AcDbEntity
  8
0
100
AcDbSpline
 62
7
  6
CONTINUOUS
 70
0
 71
3
 72
10
 73
6
 74
0
 42
0.0000001
 43
0.0000001
 44
0.0000000001
 40
0.0
 40
0.0
 40
0.0
 40
0.0
 40
0.5827833974
 40
0.8111806696
 40
1.0
 40
1.0
 40
1.0
 40
1.0
 10
3.2714614572
 20
-3.0367494879
 30
0.0
 10
3.3369603622
 20
-3.0040000354
 30
0.0
 10
3.4301012667
 20
-2.9615677361
 30
0.0
 10
3.5503256025
 20
-2.9245544948
 30
0.0
 10
3.6021041037
 20
-2.9149948495
 30
0.0
 10
3.625738486
 20
-2.9129094459
 30
0.0
  0
SPLINE
  5
4EC
100
AcDbEntity
  8
0
100
AcDbSpline
 62
7
  6
CONTINUOUS
 70
0
 71
3
 72
9
 73
5
 74
0
 42
0.0000001
 43
0.0000001
 44
0.0000000001
 40
0.0
 40
0.0
 40
0.0
 40
0.0
 40
0.5517045672
 40
1.0
 40
1.0
 40
1.0
 40
1.0
 10
3.625738486
 20
-2.9129094459
 30
0.0
 10
3.6641026252
 20
-2.9095243472
 30
0.0
 10
3.7343814895
 20
-2.9086133025
 30
0.0
 10
3.8034165624
 20
-2.9265037773
 30
0.0
 10
3.8314071658
 20
-2.9404990789
 30
0.0
  0
SPLINE
  5
4ED
100
AcDbEntity
  8
0
100
AcDbSpline
 62
7
  6
CONTINUOUS
 70
0
 71
3
 72
12
 73
8
 74
0
 42
0.0000001
 43
0.0000001
 44
0.0000000001
 40
0.0
 40
0.0
 40
0.0
 40
0.0
 40
0.0990439299
 40
0.2109265468
 40
0.4582268175
 40
0.7238295499
 40
1.0
 40
1.0
 40
1.0
 40
1.0
 10
3.0234058681
 20
-3.1709222397
 30
0.0
 10
3.026750334
 20
-3.1612802988
 30
0.0
 10
3.0393238612
 20
-3.1428596239
 30
0.0
 10
3.0732221959
 20
-3.1100270955
 30
0.0
 10
3.1262837813
 20
-3.0729511064
 30
0.0
 10
3.1964321189
 20
-3.0319150883
 30
0.0
 10
3.2460090338
 20
-3.0061744294
 30
0.0
 10
3.2714614572
 20
-2.9934482177
 30
0.0
  0
SPLINE
  5
4EE
100
AcDbEntity
  8
0
100
AcDbSpline
 62
7
  6
CONTINUOUS
 70
0
 71
3
 72
10
 73
6
 74
0
 42
0.0000001
 43
0.0000001
 44
0.0000000001
 40
0.0
 40
0.0
 40
0.0
 40
0.0
 40
0.4729176247
 40
0.7260473195
 40
1.0
 40
1.0
 40
1.0
 40
1.0
 10
3.2714614572
 20
-2.9934482177
 30
0.0
 10
3.3246123705
 20
-2.966872761
 30
0.0
 10
3.4076524251
 20
-2.9285543591
 30
0.0
 10
3.5263234111
 20
-2.8871954493
 30
0.0
 10
3.5914481516
 20
-2.8726338181
 30
0.0
 10
3.625738486
 20
-2.8696081757
 30
0.0
  0
SPLINE
  5
4EF
100
AcDbEntity
  8
0
100
AcDbSpline
 62
7
  6
CONTINUOUS
 70
0
 71
3
 72
9
 73
5
 74
0
 42
0.0000001
 43
0.0000001
 44
0.0000000001
 40
0.0
 40
0.0
 40
0.0
 40
0.0
 40
0.5263313102
 40
1.0
 40
1.0
 40
1.0
 40
1.0
 10
3.625738486
 20
-2.8696081757
 30
0.0
 10
3.6623339132
 20
-2.8663791411
 30
0.0
 10
3.7324684247
 20
-2.8652582956
 30
0.0
 10
3.8018358015
 20
-2.8824121266
 30
0.0
 10
3.8314071658
 20
-2.8971978088
 30
0.0
  0
SPLINE
  5
4F0
100
AcDbEntity
  8
0
100
AcDbSpline
 62
7
  6
CONTINUOUS
 70
0
 71
3
 72
9
 73
5
 74
0
 42
0.0000001
 43
0.0000001
 44
0.0000000001
 40
0.0
 40
0.0
 40
0.0
 40
0.0
 40
0.3001309424
 40
1.0
 40
1.0
 40
1.0
 40
1.0
 10
3.8314071658
 20
-2.9404990789
 30
0.0
 10
3.8386166123
 20
-2.9441038022
 30
0.0
 10
3.8618383358
 20
-2.9570983782
 30
0.0
 10
3.8828164272
 20
-2.9776111752
 30
0.0
 10
3.8891507172
 20
-2.9953075689
 30
0.0
  0
SPLINE
  5
4F1
100
AcDbEntity
  8
0
100
AcDbSpline
 62
7
  6
CONTINUOUS
 70
0
 71
3
 72
11
 73
7
 74
0
 42
0.0000001
 43
0.0000001
 44
0.0000000001
 40
0.0
 40
0.0
 40
0.0
 40
0.0
 40
0.3044360209
 40
0.567317422
 40
0.7932155455
 40
1.0
 40
1.0
 40
1.0
 40
1.0
 10
3.8314071658
 20
-2.8971978088
 30
0.0
 10
3.8407384417
 20
-2.9018634467
 30
0.0
 10
3.8576144639
 20
-2.9117187976
 30
0.0
 10
3.877970633
 20
-2.9301701229
 30
0.0
 10
3.8902882964
 20
-2.9511101844
 30
0.0
 10
3.8927865941
 20
-2.9660884443
 30
0.0
 10
3.8927889087
 20
-2.9731747171
 30
0.0
  0
SPLINE
  5
4F2
100
AcDbEntity
  8
0
100
AcDbSpline
 62
7
  6
CONTINUOUS
 70
0
 71
3
 72
8
 73
4
 74
0
 42
0.0000001
 43
0.0000001
 44
0.0000000001
 40
0.0
 40
0.0
 40
0.0
 40
0.0
 40
1.0
 40
1.0
 40
1.0
 40
1.0
 10
4.0381162934
 20
-3.0028784719
 30
0.0
 10
4.0397928831
 20
-2.9957262364
 30
0.0
 10
4.040719288
 20
-2.9883405009
 30
0.0
 10
4.0407192822
 20
-2.9809943846
 30
0.0
  0
SPLINE
  5
4F3
100
AcDbEntity
  8
0
100
AcDbSpline
 62
7
  6
CONTINUOUS
 70
0
 71
3
 72
9
 73
5
 74
0
 42
0.0000001
 43
0.0000001
 44
0.0000000001
 40
0.0
 40
0.0
 40
0.0
 40
0.0
 40
0.2311521337
 40
1.0
 40
1.0
 40
1.0
 40
1.0
 10
4.4296019524
 20
-3.9197894823
 30
0.0
 10
4.4307063737
 20
-3.9168073114
 30
0.0
 10
4.436470699
 20
-3.9042624534
 30
0.0
 10
4.4459047176
 20
-3.8936737728
 30
0.0
 10
4.4539035264
 20
-3.886752553
 30
0.0
  0
SPLINE
  5
4F4
100
AcDbEntity
  8
0
100
AcDbSpline
 62
7
  6
CONTINUOUS
 70
0
 71
3
 72
8
 73
4
 74
0
 42
0.0000001
 43
0.0000001
 44
0.0000000001
 40
0.0
 40
0.0
 40
0.0
 40
0.0
 40
1.0
 40
1.0
 40
1.0
 40
1.0
 10
4.4539035264
 20
-3.886752553
 30
0.0
 10
4.4572463223
 20
-3.8838600942
 30
0.0
 10
4.4607495457
 20
-3.8811471211
 30
0.0
 10
4.4643563761
 20
-3.8785914652
 30
0.0
  0
SPLINE
  5
4F5
100
AcDbEntity
  8
0
100
AcDbSpline
 62
7
  6
CONTINUOUS
 70
0
 71
3
 72
8
 73
4
 74
0
 42
0.0000001
 43
0.0000001
 44
0.0000000001
 40
0.0
 40
0.0
 40
0.0
 40
0.0
 40
1.0
 40
1.0
 40
1.0
 40
1.0
 10
4.4643563761
 20
-3.8785914652
 30
0.0
 10
4.4682963926
 20
-3.8757997271
 30
0.0
 10
4.4723686558
 20
-3.8731893425
 30
0.0
 10
4.4765254345
 20
-3.8707319612
 30
0.0
  0
SPLINE
  5
4F6
100
AcDbEntity
  8
0
100
AcDbSpline
 62
7
  6
CONTINUOUS
 70
0
 71
3
 72
8
 73
4
 74
0
 42
0.0000001
 43
0.0000001
 44
0.0000000001
 40
0.0
 40
0.0
 40
0.0
 40
0.0
 40
1.0
 40
1.0
 40
1.0
 40
1.0
 10
4.4765254345
 20
-3.8707319612
 30
0.0
 10
4.4810635652
 20
-3.8680491345
 30
0.0
 10
4.4857097639
 20
-3.8655443384
 30
0.0
 10
4.4904250318
 20
-3.8631867045
 30
0.0
  0
SPLINE
  5
4F7
100
AcDbEntity
  8
0
100
AcDbSpline
 62
7
  6
CONTINUOUS
 70
0
 71
3
 72
9
 73
5
 74
0
 42
0.0000001
 43
0.0000001
 44
0.0000000001
 40
0.0
 40
0.0
 40
0.0
 40
0.0
 40
0.4333157555
 40
1.0
 40
1.0
 40
1.0
 40
1.0
 10
5.5002204131
 20
-4.4607705338
 30
0.0
 10
5.503927146
 20
-4.452986084
 30
0.0
 10
5.5158516476
 20
-4.4367079574
 30
0.0
 10
5.5303350474
 20
-4.423022056
 30
0.0
 10
5.5388959799
 20
-4.4156837861
 30
0.0
  0
SPLINE
  5
4F8
100
AcDbEntity
  8
0
100
AcDbSpline
 62
7
  6
CONTINUOUS
 70
0
 71
3
 72
11
 73
7
 74
0
 42
0.0000001
 43
0.0000001
 44
0.0000000001
 40
0.0
 40
0.0
 40
0.0
 40
0.0
 40
0.2058107962
 40
0.4324013585
 40
0.6962600575
 40
1.0
 40
1.0
 40
1.0
 40
1.0
 10
4.4257886231
 20
-3.8978587011
 30
0.0
 10
4.425793209
 20
-3.8905521862
 30
0.0
 10
4.4285687834
 20
-3.8750362997
 30
0.0
 10
4.4418843985
 20
-3.8536445267
 30
0.0
 10
4.4632612094
 20
-3.8348526959
 30
0.0
 10
4.4807803233
 20
-3.8247077886
 30
0.0
 10
4.4904250318
 20
-3.8198854343
 30
0.0
  0
SPLINE
  5
4F9
100
AcDbEntity
  8
0
100
AcDbSpline
 62
7
  6
CONTINUOUS
 70
0
 71
3
 72
9
 73
5
 74
0
 42
0.0000001
 43
0.0000001
 44
0.0000000001
 40
0.0
 40
0.0
 40
0.0
 40
0.0
 40
0.2530742659
 40
1.0
 40
1.0
 40
1.0
 40
1.0
 10
2.2964164632
 20
-2.6508072431
 30
0.0
 10
2.3040864151
 20
-2.6506054059
 30
0.0
 10
2.3344042731
 20
-2.6502530088
 30
0.0
 10
2.3647370285
 20
-2.6516312899
 30
0.0
 10
2.3873012519
 20
-2.6535423164
 30
0.0
  0
SPLINE
  5
4FA
100
AcDbEntity
  8
0
100
AcDbSpline
 62
7
  6
CONTINUOUS
 70
0
 71
3
 72
9
 73
5
 74
0
 42
0.0000001
 43
0.0000001
 44
0.0000000001
 40
0.0
 40
0.0
 40
0.0
 40
0.0
 40
0.5517667981
 40
1.0
 40
1.0
 40
1.0
 40
1.0
 10
2.4356189348
 20
-2.6589586937
 30
0.0
 10
2.4561757669
 20
-2.6618137937
 30
0.0
 10
2.4932225059
 20
-2.6687479851
 30
0.0
 10
2.5290169213
 20
-2.6812031712
 30
0.0
 10
2.5440968228
 20
-2.688743122
 30
0.0
  0
SPLINE
  5
4FB
100
AcDbEntity
  8
0
100
AcDbSpline
 62
7
  6
CONTINUOUS
 70
0
 71
3
 72
9
 73
5
 74
0
 42
0.0000001
 43
0.0000001
 44
0.0000000001
 40
0.0
 40
0.0
 40
0.0
 40
0.0
 40
0.2688119765
 40
1.0
 40
1.0
 40
1.0
 40
1.0
 10
2.5440968228
 20
-2.688743122
 30
0.0
 10
2.5477537439
 20
-2.6905715825
 30
0.0
 10
2.5611875943
 20
-2.6976973353
 30
0.0
 10
2.5738847687
 20
-2.7062941871
 30
0.0
 10
2.5823461751
 20
-2.7135112051
 30
0.0
  0
SPLINE
  5
4FC
100
AcDbEntity
  8
0
100
AcDbSpline
 62
7
  6
CONTINUOUS
 70
0
 71
3
 72
9
 73
5
 74
0
 42
0.0000001
 43
0.0000001
 44
0.0000000001
 40
0.0
 40
0.0
 40
0.0
 40
0.0
 40
0.1922937322
 40
1.0
 40
1.0
 40
1.0
 40
1.0
 10
2.5823461751
 20
-2.7135112051
 30
0.0
 10
2.5852923133
 20
-2.7160240654
 30
0.0
 10
2.6000955836
 20
-2.7296964181
 30
0.0
 10
2.613290797
 20
-2.7450061702
 30
0.0
 10
2.623552499
 20
-2.7576253086
 30
0.0
  0
SPLINE
  5
4FD
100
AcDbEntity
  8
0
100
AcDbSpline
 62
7
  6
CONTINUOUS
 70
0
 71
3
 72
9
 73
5
 74
0
 42
0.0000001
 43
0.0000001
 44
0.0000000001
 40
0.0
 40
0.0
 40
0.0
 40
0.0
 40
0.5697079775
 40
1.0
 40
1.0
 40
1.0
 40
1.0
 10
2.623552499
 20
-2.7576253086
 30
0.0
 10
2.636692007
 20
-2.7737833757
 30
0.0
 10
2.6602965354
 20
-2.8017029781
 30
0.0
 10
2.6858834841
 20
-2.8279337493
 30
0.0
 10
2.6977212878
 20
-2.8382918417
 30
0.0
  0
SPLINE
  5
4FE
100
AcDbEntity
  8
0
100
AcDbSpline
 62
7
  6
CONTINUOUS
 70
0
 71
3
 72
9
 73
5
 74
0
 42
0.0000001
 43
0.0000001
 44
0.0000000001
 40
0.0
 40
0.0
 40
0.0
 40
0.0
 40
0.2459843815
 40
1.0
 40
1.0
 40
1.0
 40
1.0
 10
2.6977212878
 20
-2.8382918417
 30
0.0
 10
2.7027514326
 20
-2.8426932245
 30
0.0
 10
2.7237907319
 20
-2.8599059737
 30
0.0
 10
2.7471161169
 20
-2.8742759887
 30
0.0
 10
2.7654412774
 20
-2.8834385689
 30
0.0
  0
SPLINE
  5
4FF
100
AcDbEntity
  8
0
100
AcDbSpline
 62
7
  6
CONTINUOUS
 70
0
 71
3
 72
9
 73
5
 74
0
 42
0.0000001
 43
0.0000001
 44
0.0000000001
 40
0.0
 40
0.0
 40
0.0
 40
0.0
 40
0.2325940967
 40
1.0
 40
1.0
 40
1.0
 40
1.0
 10
2.8860339614
 20
-3.2401577206
 30
0.0
 10
2.8879114807
 20
-3.243281237
 30
0.0
 10
2.8966217004
 20
-3.2563279043
 30
0.0
 10
2.9076089283
 20
-3.2677519318
 30
0.0
 10
2.9166491094
 20
-3.2756798363
 30
0.0
  0
SPLINE
  5
500
100
AcDbEntity
  8
0
100
AcDbSpline
 62
7
  6
CONTINUOUS
 70
0
 71
3
 72
9
 73
5
 74
0
 42
0.0000001
 43
0.0000001
 44
0.0000000001
 40
0.0
 40
0.0
 40
0.0
 40
0.0
 40
0.2234932876
 40
1.0
 40
1.0
 40
1.0
 40
1.0
 10
2.9166491094
 20
-3.2756798363
 30
0.0
 10
2.9212484225
 20
-3.2797132638
 30
0.0
 10
2.9426287743
 20
-3.2968495988
 30
0.0
 10
2.9665214755
 20
-3.3106302873
 30
0.0
 10
2.9855318421
 20
-3.3201354706
 30
0.0
  0
SPLINE
  5
501
100
AcDbEntity
  8
0
100
AcDbSpline
 62
7
  6
CONTINUOUS
 70
0
 71
3
 72
9
 73
5
 74
0
 42
0.0000001
 43
0.0000001
 44
0.0000000001
 40
0.0
 40
0.0
 40
0.0
 40
0.0
 40
0.4920814333
 40
1.0
 40
1.0
 40
1.0
 40
1.0
 10
2.9855318421
 20
-3.3201354706
 30
0.0
 10
3.0191366222
 20
-3.3369378606
 30
0.0
 10
3.0913915497
 20
-3.3636430336
 30
0.0
 10
3.1675484508
 20
-3.3744997447
 30
0.0
 10
3.2062824211
 20
-3.3763984614
 30
0.0
  0
SPLINE
  5
502
100
AcDbEntity
  8
0
100
AcDbSpline
 62
7
  6
CONTINUOUS
 70
0
 71
3
 72
9
 73
5
 74
0
 42
0.0000001
 43
0.0000001
 44
0.0000000001
 40
0.0
 40
0.0
 40
0.0
 40
0.0
 40
0.2386271368
 40
1.0
 40
1.0
 40
1.0
 40
1.0
 10
3.2062824211
 20
-3.3763984614
 30
0.0
 10
3.2265595062
 20
-3.3773924324
 30
0.0
 10
3.311700181
 20
-3.3781206115
 30
0.0
 10
3.3966809671
 20
-3.3651079227
 30
0.0
 10
3.4595732511
 20
-3.3496063137
 30
0.0
  0
SPLINE
  5
503
100
AcDbEntity
  8
0
100
AcDbSpline
 62
7
  6
CONTINUOUS
 70
0
 71
3
 72
9
 73
5
 74
0
 42
0.0000001
 43
0.0000001
 44
0.0000000001
 40
0.0
 40
0.0
 40
0.0
 40
0.0
 40
0.4648323041
 40
1.0
 40
1.0
 40
1.0
 40
1.0
 10
3.4595732511
 20
-3.3496063137
 30
0.0
 10
3.5072942308
 20
-3.3378441083
 30
0.0
 10
3.607974873
 20
-3.3044209163
 30
0.0
 10
3.7042963991
 20
-3.2604778416
 30
0.0
 10
3.7549085521
 20
-3.2351717651
 30
0.0
  0
SPLINE
  5
504
100
AcDbEntity
  8
0
100
AcDbSpline
 62
7
  6
CONTINUOUS
 70
0
 71
3
 72
10
 73
6
 74
0
 42
0.0000001
 43
0.0000001
 44
0.0000000001
 40
0.0
 40
0.0
 40
0.0
 40
0.0
 40
0.5866948776
 40
0.8136848144
 40
1.0
 40
1.0
 40
1.0
 40
1.0
 10
3.7549085521
 20
-3.2351717651
 30
0.0
 10
3.8081605529
 20
-3.2085457647
 30
0.0
 10
3.8809946371
 20
-3.168817261
 30
0.0
 10
3.962513886
 20
-3.1081550398
 30
0.0
 10
3.9927878928
 20
-3.0787881383
 30
0.0
 10
4.0048566159
 20
-3.0642338399
 30
0.0
  0
SPLINE
  5
505
100
AcDbEntity
  8
0
100
AcDbSpline
 62
7
  6
CONTINUOUS
 70
0
 71
3
 72
9
 73
5
 74
0
 42
0.0000001
 43
0.0000001
 44
0.0000000001
 40
0.0
 40
0.0
 40
0.0
 40
0.0
 40
0.2747299556
 40
1.0
 40
1.0
 40
1.0
 40
1.0
 10
4.0048566159
 20
-3.0642338399
 30
0.0
 10
4.0081087481
 20
-3.0603119252
 30
0.0
 10
4.0194987806
 20
-3.0456953038
 30
0.0
 10
4.0290089239
 20
-3.0294405648
 30
0.0
 10
4.0338001531
 20
-3.0168727107
 30
0.0
  0
SPLINE
  5
506
100
AcDbEntity
  8
0
100
AcDbSpline
 62
7
  6
CONTINUOUS
 70
0
 71
3
 72
8
 73
4
 74
0
 42
0.0000001
 43
0.0000001
 44
0.0000000001
 40
0.0
 40
0.0
 40
0.0
 40
0.0
 40
1.0
 40
1.0
 40
1.0
 40
1.0
 10
4.0338001531
 20
-3.0168727107
 30
0.0
 10
4.0355390716
 20
-3.0123113604
 30
0.0
 10
4.0370021816
 20
-3.0076312089
 30
0.0
 10
4.0381162934
 20
-3.0028784719
 30
0.0
  0
SPLINE
  5
507
100
AcDbEntity
  8
0
100
AcDbSpline
 62
7
  6
CONTINUOUS
 70
0
 71
3
 72
9
 73
5
 74
0
 42
0.0000001
 43
0.0000001
 44
0.0000000001
 40
0.0
 40
0.0
 40
0.0
 40
0.0
 40
0.4798388228
 40
1.0
 40
1.0
 40
1.0
 40
1.0
 10
2.7654412774
 20
-2.8834385689
 30
0.0
 10
2.8021280295
 20
-2.9017819449
 30
0.0
 10
2.8844272734
 20
-2.9290220415
 30
0.0
 10
2.9705638479
 20
-2.9344560397
 30
0.0
 10
3.0150029922
 20
-2.9329747504
 30
0.0
  0
SPLINE
  5
508
100
AcDbEntity
  8
0
100
AcDbSpline
 62
7
  6
CONTINUOUS
 70
0
 71
3
 72
9
 73
5
 74
0
 42
0.0000001
 43
0.0000001
 44
0.0000000001
 40
0.0
 40
0.0
 40
0.0
 40
0.0
 40
0.2331627373
 40
1.0
 40
1.0
 40
1.0
 40
1.0
 10
5.8339726922
 20
-4.2875616349
 30
0.0
 10
5.8348360752
 20
-4.2851389667
 30
0.0
 10
5.8391223993
 20
-4.2749547519
 30
0.0
 10
5.8455598318
 20
-4.2657716194
 30
0.0
 10
5.8510929238
 20
-4.2593736839
 30
0.0
  0
SPLINE
  5
509
100
AcDbEntity
  8
0
100
AcDbSpline
 62
7
  6
CONTINUOUS
 70
0
 71
3
 72
9
 73
5
 74
0
 42
0.0000001
 43
0.0000001
 44
0.0000000001
 40
0.0
 40
0.0
 40
0.0
 40
0.0
 40
0.2238565608
 40
1.0
 40
1.0
 40
1.0
 40
1.0
 10
5.8510929238
 20
-4.2593736839
 30
0.0
 10
5.8536390636
 20
-4.2564295726
 30
0.0
 10
5.8656406226
 20
-4.2438186552
 30
0.0
 10
5.8796607674
 20
-4.2332701375
 30
0.0
 10
5.8909489455
 20
-4.225873909
 30
0.0
  0
SPLINE
  5
50A
100
AcDbEntity
  8
0
100
AcDbSpline
 62
7
  6
CONTINUOUS
 70
0
 71
3
 72
9
 73
5
 74
0
 42
0.0000001
 43
0.0000001
 44
0.0000000001
 40
0.0
 40
0.0
 40
0.0
 40
0.0
 40
0.2335450956
 40
1.0
 40
1.0
 40
1.0
 40
1.0
 10
5.8909489455
 20
-4.225873909
 30
0.0
 10
5.8938354852
 20
-4.2239825934
 30
0.0
 10
5.9063391504
 20
-4.216104197
 30
0.0
 10
5.9193490738
 20
-4.2090471157
 30
0.0
 10
5.9294788973
 20
-4.203982204
 30
0.0
  0
SPLINE
  5
50B
100
AcDbEntity
  8
0
100
AcDbSpline
 62
7
  6
CONTINUOUS
 70
0
 71
3
 72
11
 73
7
 74
0
 42
0.0000001
 43
0.0000001
 44
0.0000000001
 40
0.0
 40
0.0
 40
0.0
 40
0.0
 40
0.2072917421
 40
0.4285080736
 40
0.6875148062
 40
1.0
 40
1.0
 40
1.0
 40
1.0
 10
3.8699691888
 20
-3.3652825469
 30
0.0
 10
3.8698923704
 20
-3.3788400407
 30
0.0
 10
3.8750344266
 20
-3.4072069326
 30
0.0
 10
3.8993799196
 20
-3.4460004936
 30
0.0
 10
3.9386385247
 20
-3.4805911802
 30
0.0
 10
3.9711409032
 20
-3.4994205911
 30
0.0
 10
3.989421014
 20
-3.5085606465
 30
0.0
  0
SPLINE
  5
50C
100
AcDbEntity
  8
0
100
AcDbSpline
 62
7
  6
CONTINUOUS
 70
0
 71
3
 72
9
 73
5
 74
0
 42
0.0000001
 43
0.0000001
 44
0.0000000001
 40
0.0
 40
0.0
 40
0.0
 40
0.0
 40
0.4590161342
 40
1.0
 40
1.0
 40
1.0
 40
1.0
 10
3.989421014
 20
-3.5085606465
 30
0.0
 10
4.0222036165
 20
-3.5249519478
 30
0.0
 10
4.0985163954
 20
-3.5509131135
 30
0.0
 10
4.1777774962
 20
-3.5626638691
 30
0.0
 10
4.2207983952
 20
-3.5665617486
 30
0.0
  0
SPLINE
  5
50D
100
AcDbEntity
  8
0
100
AcDbSpline
 62
7
  6
CONTINUOUS
 70
0
 71
3
 72
9
 73
5
 74
0
 42
0.0000001
 43
0.0000001
 44
0.0000000001
 40
0.0
 40
0.0
 40
0.0
 40
0.0
 40
0.5036957325
 40
1.0
 40
1.0
 40
1.0
 40
1.0
 10
5.9294788973
 20
-4.203982204
 30
0.0
 10
5.961920719
 20
-4.1877612931
 30
0.0
 10
6.0299395833
 20
-4.1621954734
 30
0.0
 10
6.101935517
 20
-4.1524076397
 30
0.0
 10
6.1376580615
 20
-4.1513298096
 30
0.0
  0
SPLINE
  5
50E
100
AcDbEntity
  8
0
100
AcDbSpline
 62
7
  6
CONTINUOUS
 70
0
 71
3
 72
9
 73
5
 74
0
 42
0.0000001
 43
0.0000001
 44
0.0000000001
 40
0.0
 40
0.0
 40
0.0
 40
0.0
 40
0.2844329759
 40
1.0
 40
1.0
 40
1.0
 40
1.0
 10
6.1376580615
 20
-4.1513298096
 30
0.0
 10
6.1551402459
 20
-4.1508023325
 30
0.0
 10
6.2164838615
 20
-4.1514106264
 30
0.0
 10
6.2788871843
 20
-4.1642390882
 30
0.0
 10
6.3182429763
 20
-4.1839169842
 30
0.0
  0
SPLINE
  5
50F
100
AcDbEntity
  8
0
100
AcDbSpline
 62
7
  6
CONTINUOUS
 70
0
 71
3
 72
9
 73
5
 74
0
 42
0.0000001
 43
0.0000001
 44
0.0000000001
 40
0.0
 40
0.0
 40
0.0
 40
0.0
 40
0.283783886
 40
1.0
 40
1.0
 40
1.0
 40
1.0
 10
6.3182429763
 20
-4.1839169842
 30
0.0
 10
6.3251728901
 20
-4.1873819411
 30
0.0
 10
6.3489395989
 20
-4.200596919
 30
0.0
 10
6.3704546992
 20
-4.2196103903
 30
0.0
 10
6.3802616923
 20
-4.2365274855
 30
0.0
  0
SPLINE
  5
510
100
AcDbEntity
  8
0
100
AcDbSpline
 62
7
  6
CONTINUOUS
 70
0
 71
3
 72
9
 73
5
 74
0
 42
0.0000001
 43
0.0000001
 44
0.0000000001
 40
0.0
 40
0.0
 40
0.0
 40
0.0
 40
0.4528332135
 40
1.0
 40
1.0
 40
1.0
 40
1.0
 10
6.1464342992
 20
-4.9438879693
 30
0.0
 10
6.1797502627
 20
-4.9383352986
 30
0.0
 10
6.2542195949
 20
-4.9315100125
 30
0.0
 10
6.3288664315
 20
-4.9314426295
 30
0.0
 10
6.3696620601
 20
-4.9325837634
 30
0.0
  0
SPLINE
  5
511
100
AcDbEntity
  8
0
100
AcDbSpline
 62
7
  6
CONTINUOUS
 70
0
 71
3
 72
10
 73
6
 74
0
 42
0.0000001
 43
0.0000001
 44
0.0000000001
 40
0.0
 40
0.0
 40
0.0
 40
0.0
 40
0.2025570173
 40
0.5617934208
 40
1.0
 40
1.0
 40
1.0
 40
1.0
 10
4.0336231732
 20
-3.3750036271
 30
0.0
 10
4.0338784286
 20
-3.3650051999
 30
0.0
 10
4.0416999104
 20
-3.3372566078
 30
0.0
 10
4.0776773553
 20
-3.3009696757
 30
0.0
 10
4.1117787294
 20
-3.2812165405
 30
0.0
 10
4.1311317947
 20
-3.2715400078
 30
0.0
  0
SPLINE
  5
512
100
AcDbEntity
  8
0
100
AcDbSpline
 62
250
  6
CONTINUOUS
 70
0
 71
3
 72
11
 73
7
 74
0
 42
0.0000001
 43
0.0000001
 44
0.0000000001
 40
0.0
 40
0.0
 40
0.0
 40
0.0
 40
0.2297035147
 40
0.4882167277
 40
0.753177002
 40
1.0
 40
1.0
 40
1.0
 40
1.0
 10
-5.2481139152
 20
0.5273387062
 30
0.0
 10
-5.2631963722
 20
0.5197974777
 30
0.0
 10
-5.2920153502
 20
0.4972544226
 30
0.0
 10
-5.3252794778
 20
0.452491089
 30
0.0
 10
-5.347930227
 20
0.4001575311
 30
0.0
 10
-5.3541799324
 20
0.3625213401
 30
0.0
 10
-5.3541799324
 20
0.344401887
 30
0.0
  0
SPLINE
  5
513
100
AcDbEntity
  8
0
100
AcDbSpline
 62
250
  6
CONTINUOUS
 70
0
 71
3
 72
9
 73
5
 74
0
 42
0.0000001
 43
0.0000001
 44
0.0000000001
 40
0.0
 40
0.0
 40
0.0
 40
0.0
 40
0.5363386419
 40
1.0
 40
1.0
 40
1.0
 40
1.0
 10
-10.7989021475
 20
-2.24805541
 30
0.0
 10
-10.7878528028
 20
-2.2425307376
 30
0.0
 10
-10.7653540572
 20
-2.2350311793
 30
0.0
 10
-10.741370299
 20
-2.2390153061
 30
0.0
 10
-10.7318214869
 20
-2.2437978977
 30
0.0
  0
SPLINE
  5
514
100
AcDbEntity
  8
0
100
AcDbSpline
 62
250
  6
CONTINUOUS
 70
0
 71
3
 72
9
 73
5
 74
0
 42
0.0000001
 43
0.0000001
 44
0.0000000001
 40
0.0
 40
0.0
 40
0.0
 40
0.0
 40
0.5363386419
 40
1.0
 40
1.0
 40
1.0
 40
1.0
 10
7.5858741633
 20
-11.4404435654
 30
0.0
 10
7.5969235081
 20
-11.4349188931
 30
0.0
 10
7.6194222536
 20
-11.4274193348
 30
0.0
 10
7.6434060119
 20
-11.4314034615
 30
0.0
 10
7.6529548239
 20
-11.4361860531
 30
0.0
  0
SPLINE
  5
515
100
AcDbEntity
  8
0
100
AcDbSpline
 62
250
  6
CONTINUOUS
 70
0
 71
3
 72
11
 73
7
 74
0
 42
0.0000001
 43
0.0000001
 44
0.0000000001
 40
0.0
 40
0.0
 40
0.0
 40
0.0
 40
0.2297035147
 40
0.4882167277
 40
0.753177002
 40
1.0
 40
1.0
 40
1.0
 40
1.0
 10
13.1366623957
 20
-8.6650494493
 30
0.0
 10
13.1215799387
 20
-8.6725906778
 30
0.0
 10
13.0927609606
 20
-8.6951337328
 30
0.0
 10
13.0594968331
 20
-8.7398970664
 30
0.0
 10
13.0368460839
 20
-8.7922306243
 30
0.0
 10
13.0305963785
 20
-8.8298668154
 30
0.0
 10
13.0305963785
 20
-8.8479862684
 30
0.0
  0
SPLINE
  5
516
100
AcDbEntity
  8
0
100
AcDbSpline
 62
7
  6
CONTINUOUS
 70
0
 71
3
 72
9
 73
5
 74
0
 42
0.0000001
 43
0.0000001
 44
0.0000000001
 40
0.0
 40
0.0
 40
0.0
 40
0.0
 40
0.4683162476
 40
1.0
 40
1.0
 40
1.0
 40
1.0
 10
4.1311317947
 20
-3.2715400078
 30
0.0
 10
4.1628650399
 20
-3.2556733852
 30
0.0
 10
4.2344101305
 20
-3.2288686668
 30
0.0
 10
4.3103119348
 20
-3.2189744715
 30
0.0
 10
4.3505817303
 20
-3.2180920845
 30
0.0
  0
SPLINE
  5
517
100
AcDbEntity
  8
0
100
AcDbSpline
 62
7
  6
CONTINUOUS
 70
0
 71
3
 72
9
 73
5
 74
0
 42
0.0000001
 43
0.0000001
 44
0.0000000001
 40
0.0
 40
0.0
 40
0.0
 40
0.0
 40
0.2692178916
 40
1.0
 40
1.0
 40
1.0
 40
1.0
 10
4.3505817303
 20
-3.2180920845
 30
0.0
 10
4.3688937812
 20
-3.217690833
 30
0.0
 10
4.4367969666
 20
-3.2190423043
 30
0.0
 10
4.5055232707
 20
-3.2342558612
 30
0.0
 10
4.5499935852
 20
-3.2564910185
 30
0.0
  0
SPLINE
  5
518
100
AcDbEntity
  8
0
100
AcDbSpline
 62
7
  6
CONTINUOUS
 70
0
 71
3
 72
11
 73
7
 74
0
 42
0.0000001
 43
0.0000001
 44
0.0000000001
 40
0.0
 40
0.0
 40
0.0
 40
0.0
 40
0.30000602
 40
0.5649926263
 40
0.7945961539
 40
1.0
 40
1.0
 40
1.0
 40
1.0
 10
4.5499935852
 20
-3.2564910185
 30
0.0
 10
4.5600293114
 20
-3.2615088816
 30
0.0
 10
4.5784472023
 20
-3.2720236296
 30
0.0
 10
4.6015447279
 20
-3.2910481113
 30
0.0
 10
4.6172153364
 20
-3.3124924839
 30
0.0
 10
4.6219422951
 20
-3.3284833151
 30
0.0
 10
4.6227301078
 20
-3.3361249563
 30
0.0
  0
SPLINE
  5
519
100
AcDbEntity
  8
0
100
AcDbSpline
 62
7
  6
CONTINUOUS
 70
0
 71
3
 72
11
 73
7
 74
0
 42
0.0000001
 43
0.0000001
 44
0.0000000001
 40
0.0
 40
0.0
 40
0.0
 40
0.0
 40
0.3127077442
 40
0.5739014606
 40
0.7963313527
 40
1.0
 40
1.0
 40
1.0
 40
1.0
 10
4.6816717202
 20
-3.4859871917
 30
0.0
 10
4.6964887434
 20
-3.4769911744
 30
0.0
 10
4.7228170116
 20
-3.4589031569
 30
0.0
 10
4.754444189
 20
-3.4276488311
 30
0.0
 10
4.7741629542
 20
-3.3943927076
 30
0.0
 10
4.7786373864
 20
-3.3705785918
 30
0.0
 10
4.7786373861
 20
-3.3592887485
 30
0.0
  0
SPLINE
  5
51A
100
AcDbEntity
  8
0
100
AcDbSpline
 62
7
  6
CONTINUOUS
 70
0
 71
3
 72
11
 73
7
 74
0
 42
0.0000001
 43
0.0000001
 44
0.0000000001
 40
0.0
 40
0.0
 40
0.0
 40
0.0
 40
0.2107568873
 40
0.433157024
 40
0.690862497
 40
1.0
 40
1.0
 40
1.0
 40
1.0
 10
5.6722697012
 20
-4.3020592851
 30
0.0
 10
5.6722696276
 20
-4.3147127859
 30
0.0
 10
5.6769641596
 20
-4.3410035922
 30
0.0
 10
5.6990438476
 20
-4.3770127097
 30
0.0
 10
5.7347049104
 20
-4.4089057834
 30
0.0
 10
5.7642701213
 20
-4.4261186275
 30
0.0
 10
5.7808707911
 20
-4.4344189623
 30
0.0
  0
SPLINE
  5
51B
100
AcDbEntity
  8
0
100
AcDbSpline
 62
7
  6
CONTINUOUS
 70
0
 71
3
 72
11
 73
7
 74
0
 42
0.0000001
 43
0.0000001
 44
0.0000000001
 40
0.0
 40
0.0
 40
0.0
 40
0.0
 40
0.2107568609
 40
0.4331570169
 40
0.6908625093
 40
1.0
 40
1.0
 40
1.0
 40
1.0
 10
5.6722697012
 20
-4.2587581215
 30
0.0
 10
5.6722696396
 20
-4.2714116133
 30
0.0
 10
5.6769641932
 20
-4.2977023985
 30
0.0
 10
5.6990438879
 20
-4.3337114817
 30
0.0
 10
5.7347049373
 20
-4.3656045295
 30
0.0
 10
5.7642701317
 20
-4.3828173625
 30
0.0
 10
5.7808707911
 20
-4.3911176922
 30
0.0
  0
SPLINE
  5
51C
100
AcDbEntity
  8
0
100
AcDbSpline
 62
7
  6
CONTINUOUS
 70
0
 71
3
 72
9
 73
5
 74
0
 42
0.0000001
 43
0.0000001
 44
0.0000000001
 40
0.0
 40
0.0
 40
0.0
 40
0.0
 40
0.4610414654
 40
1.0
 40
1.0
 40
1.0
 40
1.0
 10
4.2722155175
 20
-3.8901136733
 30
0.0
 10
4.2728827454
 20
-3.9034580461
 30
0.0
 10
4.2815120677
 20
-3.932218071
 30
0.0
 10
4.3001212722
 20
-3.9551089074
 30
0.0
 10
4.3111886278
 20
-3.9661302333
 30
0.0
  0
SPLINE
  5
51D
100
AcDbEntity
  8
0
100
AcDbSpline
 62
7
  6
CONTINUOUS
 70
0
 71
3
 72
9
 73
5
 74
0
 42
0.0000001
 43
0.0000001
 44
0.0000000001
 40
0.0
 40
0.0
 40
0.0
 40
0.0
 40
0.4514056742
 40
1.0
 40
1.0
 40
1.0
 40
1.0
 10
4.3111886278
 20
-3.9661302333
 30
0.0
 10
4.3237067344
 20
-3.9785962764
 30
0.0
 10
4.3548543708
 20
-4.0027569491
 30
0.0
 10
4.3890793645
 20
-4.0219092317
 30
0.0
 10
4.4082828387
 20
-4.0315109689
 30
0.0
  0
SPLINE
  5
51E
100
AcDbEntity
  8
0
100
AcDbSpline
 62
7
  6
CONTINUOUS
 70
0
 71
3
 72
9
 73
5
 74
0
 42
0.0000001
 43
0.0000001
 44
0.0000000001
 40
0.0
 40
0.0
 40
0.0
 40
0.0
 40
0.5019529617
 40
1.0
 40
1.0
 40
1.0
 40
1.0
 10
4.4082828387
 20
-4.0315109689
 30
0.0
 10
4.451325764
 20
-4.0530324315
 30
0.0
 10
4.5418908807
 20
-4.0870226817
 30
0.0
 10
4.6376924399
 20
-4.1002630719
 30
0.0
 10
4.685413879
 20
-4.1018846845
 30
0.0
  0
SPLINE
  5
51F
100
AcDbEntity
  8
0
100
AcDbSpline
 62
7
  6
CONTINUOUS
 70
0
 71
3
 72
9
 73
5
 74
0
 42
0.0000001
 43
0.0000001
 44
0.0000000001
 40
0.0
 40
0.0
 40
0.0
 40
0.0
 40
0.2469456816
 40
1.0
 40
1.0
 40
1.0
 40
1.0
 10
6.3696620601
 20
-4.9325837634
 30
0.0
 10
6.3922944332
 20
-4.9332168353
 30
0.0
 10
6.4838880821
 20
-4.9376017601
 30
0.0
 10
6.5751004697
 20
-4.9491958016
 30
0.0
 10
6.6430490178
 20
-4.9614450293
 30
0.0
  0
SPLINE
  5
520
100
AcDbEntity
  8
0
100
AcDbSpline
 62
7
  6
CONTINUOUS
 70
0
 71
3
 72
9
 73
5
 74
0
 42
0.0000001
 43
0.0000001
 44
0.0000000001
 40
0.0
 40
0.0
 40
0.0
 40
0.0
 40
0.4938897436
 40
1.0
 40
1.0
 40
1.0
 40
1.0
 10
4.685413879
 20
-4.1018846845
 30
0.0
 10
4.7337863442
 20
-4.1035284194
 30
0.0
 10
4.8324204712
 20
-4.0960850057
 30
0.0
 10
4.9268892656
 20
-4.0670199195
 30
0.0
 10
4.972617689
 20
-4.0478139199
 30
0.0
  0
SPLINE
  5
521
100
AcDbEntity
  8
0
100
AcDbSpline
 62
7
  6
CONTINUOUS
 70
0
 71
3
 72
9
 73
5
 74
0
 42
0.0000001
 43
0.0000001
 44
0.0000000001
 40
0.0
 40
0.0
 40
0.0
 40
0.0
 40
0.7429634336
 40
1.0
 40
1.0
 40
1.0
 40
1.0
 10
4.2722155175
 20
-3.9334149435
 30
0.0
 10
4.2726206377
 20
-3.9415172342
 30
0.0
 10
4.2747434433
 20
-3.9524133685
 30
0.0
 10
4.2786400732
 20
-3.9626159221
 30
0.0
 10
4.2797448266
 20
-3.9651959247
 30
0.0
  0
SPLINE
  5
522
100
AcDbEntity
  8
0
100
AcDbSpline
 62
7
  6
CONTINUOUS
 70
0
 71
3
 72
9
 73
5
 74
0
 42
0.0000001
 43
0.0000001
 44
0.0000000001
 40
0.0
 40
0.0
 40
0.0
 40
0.0
 40
0.4192036062
 40
1.0
 40
1.0
 40
1.0
 40
1.0
 10
4.2797448266
 20
-3.9651959247
 30
0.0
 10
4.2891653475
 20
-3.9871962814
 30
0.0
 10
4.3290527388
 20
-4.0313518912
 30
0.0
 10
4.3786255833
 20
-4.0599836113
 30
0.0
 10
4.4082828387
 20
-4.0748122391
 30
0.0
  0
SPLINE
  5
523
100
AcDbEntity
  8
0
100
AcDbSpline
 62
7
  6
CONTINUOUS
 70
0
 71
3
 72
9
 73
5
 74
0
 42
0.0000001
 43
0.0000001
 44
0.0000000001
 40
0.0
 40
0.0
 40
0.0
 40
0.0
 40
0.5019529617
 40
1.0
 40
1.0
 40
1.0
 40
1.0
 10
4.4082828387
 20
-4.0748122391
 30
0.0
 10
4.451325764
 20
-4.0963337017
 30
0.0
 10
4.5418908807
 20
-4.1303239519
 30
0.0
 10
4.6376924399
 20
-4.1435643421
 30
0.0
 10
4.685413879
 20
-4.1451859547
 30
0.0
  0
SPLINE
  5
524
100
AcDbEntity
  8
0
100
AcDbSpline
 62
7
  6
CONTINUOUS
 70
0
 71
3
 72
9
 73
5
 74
0
 42
0.0000001
 43
0.0000001
 44
0.0000000001
 40
0.0
 40
0.0
 40
0.0
 40
0.0
 40
0.4938897436
 40
1.0
 40
1.0
 40
1.0
 40
1.0
 10
4.685413879
 20
-4.1451859547
 30
0.0
 10
4.7337863442
 20
-4.1468296896
 30
0.0
 10
4.8324204712
 20
-4.1393862759
 30
0.0
 10
4.9268892656
 20
-4.1103211897
 30
0.0
 10
4.972617689
 20
-4.0911151901
 30
0.0
  0
SPLINE
  5
525
100
AcDbEntity
  8
0
100
AcDbSpline
 62
7
  6
CONTINUOUS
 70
0
 71
3
 72
9
 73
5
 74
0
 42
0.0000001
 43
0.0000001
 44
0.0000000001
 40
0.0
 40
0.0
 40
0.0
 40
0.0
 40
0.4743225822
 40
1.0
 40
1.0
 40
1.0
 40
1.0
 10
4.4904250318
 20
-3.8198854343
 30
0.0
 10
4.5178699895
 20
-3.8061629555
 30
0.0
 10
4.5810435537
 20
-3.7884707976
 30
0.0
 10
4.6452542198
 20
-3.7807561923
 30
0.0
 10
4.6791636426
 20
-3.7781872946
 30
0.0
  0
SPLINE
  5
526
100
AcDbEntity
  8
0
100
AcDbSpline
 62
7
  6
CONTINUOUS
 70
0
 71
3
 72
10
 73
6
 74
0
 42
0.0000001
 43
0.0000001
 44
0.0000000001
 40
0.0
 40
0.0
 40
0.0
 40
0.0
 40
0.2498491186
 40
0.5002478547
 40
1.0
 40
1.0
 40
1.0
 40
1.0
 10
4.6791636426
 20
-3.7781872946
 30
0.0
 10
4.7121418962
 20
-3.77568894
 30
0.0
 10
4.7783931811
 20
-3.7738471576
 30
0.0
 10
4.9107567456
 20
-3.7749267245
 30
0.0
 10
5.010001405
 20
-3.7789762106
 30
0.0
 10
5.0760701201
 20
-3.782307408
 30
0.0
  0
SPLINE
  5
527
100
AcDbEntity
  8
0
100
AcDbSpline
 62
7
  6
CONTINUOUS
 70
0
 71
3
 72
9
 73
5
 74
0
 42
0.0000001
 43
0.0000001
 44
0.0000000001
 40
0.0
 40
0.0
 40
0.0
 40
0.0
 40
0.556643914
 40
1.0
 40
1.0
 40
1.0
 40
1.0
 10
5.0760701201
 20
-3.782307408
 30
0.0
 10
5.129309599
 20
-3.7849917527
 30
0.0
 10
5.2250136783
 20
-3.7886578744
 30
0.0
 10
5.3208429515
 20
-3.7884497886
 30
0.0
 10
5.3632629657
 20
-3.7866523408
 30
0.0
  0
SPLINE
  5
528
100
AcDbEntity
  8
0
100
AcDbSpline
 62
250
  6
CONTINUOUS
 70
0
 71
3
 72
19
 73
15
 74
0
 42
0.0000001
 43
0.0000001
 44
0.0000000001
 40
0.0
 40
0.0
 40
0.0
 40
0.0
 40
0.0382410598
 40
0.0786672175
 40
0.122987047
 40
0.1722392374
 40
0.2268448983
 40
0.2867412207
 40
0.3515059791
 40
0.4204532321
 40
0.5671446157
 40
0.7185775744
 40
0.8656729723
 40
1.0
 40
1.0
 40
1.0
 40
1.0
 10
-11.7985080314
 20
-0.9902621625
 30
0.0
 10
-11.7985082114
 20
-0.9001840751
 30
0.0
 10
-11.7711883938
 20
-0.7139475715
 30
0.0
 10
-11.6520476032
 20
-0.4466622579
 30
0.0
 10
-11.4597478401
 20
-0.1934829164
 30
0.0
 10
-11.1995843371
 20
0.04158979
 30
0.0
 10
-10.8769427271
 20
0.2551272774
 30
0.0
 10
-10.4980275648
 20
0.4434974977
 30
0.0
 10
-10.0701120866
 20
0.6032813294
 30
0.0
 10
-9.4322646256
 20
0.7775443975
 30
0.0
 10
-8.5729483447
 20
0.9019789983
 30
0.0
 10
-7.520894885
 20
0.9052420248
 30
0.0
 10
-6.5076661298
 20
0.765173392
 30
0.0
 10
-5.8691740317
 20
0.5714237062
 30
0.0
 10
-5.5779904498
 20
0.4476152445
 30
0.0
  0
SPLINE
  5
529
100
AcDbEntity
  8
0
100
AcDbSpline
 62
7
  6
CONTINUOUS
 70
0
 71
3
 72
9
 73
5
 74
0
 42
0.0000001
 43
0.0000001
 44
0.0000000001
 40
0.0
 40
0.0
 40
0.0
 40
0.0
 40
0.258083522
 40
1.0
 40
1.0
 40
1.0
 40
1.0
 10
9.8662935327
 20
-14.0478998211
 30
0.0
 10
9.8632313979
 20
-14.0494308885
 30
0.0
 10
9.8512419217
 20
-14.0551076065
 30
0.0
 10
9.8387434552
 20
-14.0597349245
 30
0.0
 10
9.8292740301
 20
-14.062416491
 30
0.0
  0
SPLINE
  5
52A
100
AcDbEntity
  8
0
100
AcDbSpline
 62
7
  6
CONTINUOUS
 70
0
 71
3
 72
9
 73
5
 74
0
 42
0.0000001
 43
0.0000001
 44
0.0000000001
 40
0.0
 40
0.0
 40
0.0
 40
0.0
 40
0.2611121099
 40
1.0
 40
1.0
 40
1.0
 40
1.0
 10
9.8244155592
 20
-14.0637209439
 30
0.0
 10
9.8203530162
 20
-14.0647517138
 30
0.0
 10
9.8046678191
 20
-14.0681575594
 30
0.0
 10
9.7884301319
 20
-14.0692246685
 30
0.0
 10
9.7765999067
 20
-14.0683800125
 30
0.0
  0
SPLINE
  5
52B
100
AcDbEntity
  8
0
100
AcDbSpline
 62
7
  6
CONTINUOUS
 70
0
 71
3
 72
9
 73
5
 74
0
 42
0.0000001
 43
0.0000001
 44
0.0000000001
 40
0.0
 40
0.0
 40
0.0
 40
0.0
 40
0.2559042833
 40
1.0
 40
1.0
 40
1.0
 40
1.0
 10
9.7765999067
 20
-14.0683800125
 30
0.0
 10
9.7726650473
 20
-14.0680990709
 30
0.0
 10
9.7573477674
 20
-14.0663126195
 30
0.0
 10
9.7423634373
 20
-14.061533794
 30
0.0
 10
9.7321042649
 20
-14.0564031877
 30
0.0
  0
SPLINE
  5
52C
100
AcDbEntity
  8
0
100
AcDbSpline
 62
7
  6
CONTINUOUS
 70
0
 71
3
 72
9
 73
5
 74
0
 42
0.0000001
 43
0.0000001
 44
0.0000000001
 40
0.0
 40
0.0
 40
0.0
 40
0.0
 40
0.4308537777
 40
1.0
 40
1.0
 40
1.0
 40
1.0
 10
4.4904250318
 20
-3.8631867045
 30
0.0
 10
4.5153579531
 20
-3.8507202438
 30
0.0
 10
4.5781498985
 20
-3.8321329383
 30
0.0
 10
4.6424456076
 20
-3.8242702363
 30
0.0
 10
4.6791636426
 20
-3.8214885648
 30
0.0
  0
SPLINE
  5
52D
100
AcDbEntity
  8
0
100
AcDbSpline
 62
7
  6
CONTINUOUS
 70
0
 71
3
 72
9
 73
5
 74
0
 42
0.0000001
 43
0.0000001
 44
0.0000000001
 40
0.0
 40
0.0
 40
0.0
 40
0.0
 40
0.272774191
 40
1.0
 40
1.0
 40
1.0
 40
1.0
 10
5.3632629657
 20
-3.7866523408
 30
0.0
 10
5.3812623892
 20
-3.7858896577
 30
0.0
 10
5.4471742348
 20
-3.7819855809
 30
0.0
 10
5.5129804609
 20
-3.7734442374
 30
0.0
 10
5.5598288309
 20
-3.7628552108
 30
0.0
  0
SPLINE
  5
52E
100
AcDbEntity
  8
0
100
AcDbSpline
 62
7
  6
CONTINUOUS
 70
0
 71
3
 72
9
 73
5
 74
0
 42
0.0000001
 43
0.0000001
 44
0.0000000001
 40
0.0
 40
0.0
 40
0.0
 40
0.0
 40
0.2690426962
 40
1.0
 40
1.0
 40
1.0
 40
1.0
 10
5.5598288309
 20
-3.7628552108
 30
0.0
 10
5.5683292555
 20
-3.7609338799
 30
0.0
 10
5.5997046488
 20
-3.7529476697
 30
0.0
 10
5.6303166392
 20
-3.7412964151
 30
0.0
 10
5.6510736621
 20
-3.7299052929
 30
0.0
  0
LINE
  5
52F
100
AcDbEntity
  8
0
100
AcDbLine
 62
7
  6
CONTINUOUS
 10
13.7833850232
 20
-12.2631032182
 11
13.8594322719
 21
-12.2259233815
  0
SPLINE
  5
530
100
AcDbEntity
  8
0
100
AcDbSpline
 62
7
  6
CONTINUOUS
 70
0
 71
3
 72
9
 73
5
 74
0
 42
0.0000001
 43
0.0000001
 44
0.0000000001
 40
0.0
 40
0.0
 40
0.0
 40
0.0
 40
0.493002814
 40
1.0
 40
1.0
 40
1.0
 40
1.0
 10
18.5637069413
 20
-9.4393854956
 30
0.0
 10
18.5637069413
 20
-9.4969038844
 30
0.0
 10
18.533918967
 20
-9.6134479128
 30
0.0
 10
18.4670639382
 20
-9.7127167245
 30
0.0
 10
18.4240840093
 20
-9.7533563472
 30
0.0
  0
SPLINE
  5
531
100
AcDbEntity
  8
0
100
AcDbSpline
 62
7
  6
CONTINUOUS
 70
0
 71
3
 72
9
 73
5
 74
0
 42
0.0000001
 43
0.0000001
 44
0.0000000001
 40
0.0
 40
0.0
 40
0.0
 40
0.0
 40
0.2596490489
 40
1.0
 40
1.0
 40
1.0
 40
1.0
 10
18.4240840093
 20
-9.7533563472
 30
0.0
 10
18.4198062659
 20
-9.7574011625
 30
0.0
 10
18.4029694744
 20
-9.7725867496
 30
0.0
 10
18.3846325449
 20
-9.7861511177
 30
0.0
 10
18.3702942097
 20
-9.7948805021
 30
0.0
  0
SPLINE
  5
532
100
AcDbEntity
  8
0
100
AcDbSpline
 62
7
  6
CONTINUOUS
 70
0
 71
3
 72
9
 73
5
 74
0
 42
0.0000001
 43
0.0000001
 44
0.0000000001
 40
0.0
 40
0.0
 40
0.0
 40
0.0
 40
0.4069271398
 40
1.0
 40
1.0
 40
1.0
 40
1.0
 10
4.6791636426
 20
-3.8214885648
 30
0.0
 10
4.7328705814
 20
-3.8174198541
 30
0.0
 10
4.8654331823
 20
-3.8166943123
 30
0.0
 10
4.9976706448
 20
-3.8216557615
 30
0.0
 10
5.0760701201
 20
-3.8256086782
 30
0.0
  0
SPLINE
  5
533
100
AcDbEntity
  8
0
100
AcDbSpline
 62
7
  6
CONTINUOUS
 70
0
 71
3
 72
11
 73
7
 74
0
 42
0.0000001
 43
0.0000001
 44
0.0000000001
 40
0.0
 40
0.0
 40
0.0
 40
0.0
 40
0.2021540363
 40
0.4346336495
 40
0.7027505903
 40
1.0
 40
1.0
 40
1.0
 40
1.0
 10
5.8304068214
 20
-4.2610071594
 30
0.0
 10
5.8311099762
 20
-4.2511628599
 30
0.0
 10
5.8382449167
 20
-4.2302985303
 30
0.0
 10
5.8609661687
 20
-4.2039939907
 30
0.0
 10
5.8922906119
 20
-4.1805627573
 30
0.0
 10
5.9164989345
 20
-4.1671709152
 30
0.0
 10
5.9294788973
 20
-4.1606809338
 30
0.0
  0
SPLINE
  5
534
100
AcDbEntity
  8
0
100
AcDbSpline
 62
7
  6
CONTINUOUS
 70
0
 71
3
 72
9
 73
5
 74
0
 42
0.0000001
 43
0.0000001
 44
0.0000000001
 40
0.0
 40
0.0
 40
0.0
 40
0.0
 40
0.4683224204
 40
1.0
 40
1.0
 40
1.0
 40
1.0
 10
5.9294788973
 20
-4.1606809338
 30
0.0
 10
5.9596414773
 20
-4.1455996438
 30
0.0
 10
6.0273530412
 20
-4.1195614488
 30
0.0
 10
6.0993906314
 20
-4.1091831545
 30
0.0
 10
6.1376580615
 20
-4.1080285394
 30
0.0
  0
SPLINE
  5
535
100
AcDbEntity
  8
0
100
AcDbSpline
 62
7
  6
CONTINUOUS
 70
0
 71
3
 72
9
 73
5
 74
0
 42
0.0000001
 43
0.0000001
 44
0.0000000001
 40
0.0
 40
0.0
 40
0.0
 40
0.0
 40
0.2682893513
 40
1.0
 40
1.0
 40
1.0
 40
1.0
 10
6.1376580615
 20
-4.1080285394
 30
0.0
 10
6.1541440385
 20
-4.1075311201
 30
0.0
 10
6.2154624669
 20
-4.1080034401
 30
0.0
 10
6.2780089758
 20
-4.1204987138
 30
0.0
 10
6.3182429763
 20
-4.140615714
 30
0.0
  0
SPLINE
  5
536
100
AcDbEntity
  8
0
100
AcDbSpline
 62
7
  6
CONTINUOUS
 70
0
 71
3
 72
9
 73
5
 74
0
 42
0.0000001
 43
0.0000001
 44
0.0000000001
 40
0.0
 40
0.0
 40
0.0
 40
0.0
 40
0.2919697157
 40
1.0
 40
1.0
 40
1.0
 40
1.0
 10
6.3182429763
 20
-4.140615714
 30
0.0
 10
6.3261177518
 20
-4.1445531018
 30
0.0
 10
6.3522605087
 20
-4.1592367047
 30
0.0
 10
6.3755253187
 20
-4.1816404329
 30
0.0
 10
6.3843128786
 20
-4.2010986159
 30
0.0
  0
SPLINE
  5
537
100
AcDbEntity
  8
0
100
AcDbSpline
 62
7
  6
CONTINUOUS
 70
0
 71
3
 72
9
 73
5
 74
0
 42
0.0000001
 43
0.0000001
 44
0.0000000001
 40
0.0
 40
0.0
 40
0.0
 40
0.0
 40
0.2580880813
 40
1.0
 40
1.0
 40
1.0
 40
1.0
 10
6.3843128786
 20
-4.2010986159
 30
0.0
 10
6.3853124725
 20
-4.203312004
 30
0.0
 10
6.3887857508
 20
-4.2120590672
 30
0.0
 10
6.390466352
 20
-4.2215485915
 30
0.0
 10
6.3904641224
 20
-4.2285300616
 30
0.0
  0
SPLINE
  5
538
100
AcDbEntity
  8
0
100
AcDbSpline
 62
7
  6
CONTINUOUS
 70
0
 71
3
 72
9
 73
5
 74
0
 42
0.0000001
 43
0.0000001
 44
0.0000000001
 40
0.0
 40
0.0
 40
0.0
 40
0.0
 40
0.4645297176
 40
1.0
 40
1.0
 40
1.0
 40
1.0
 10
5.3435310986
 20
-4.438133872
 30
0.0
 10
5.3451571795
 20
-4.4499871952
 30
0.0
 10
5.3541922554
 20
-4.474885289
 30
0.0
 10
5.3710231834
 20
-4.4949016556
 30
0.0
 10
5.3809443706
 20
-4.5044815675
 30
0.0
  0
SPLINE
  5
539
100
AcDbEntity
  8
0
100
AcDbSpline
 62
7
  6
CONTINUOUS
 70
0
 71
3
 72
9
 73
5
 74
0
 42
0.0000001
 43
0.0000001
 44
0.0000000001
 40
0.0
 40
0.0
 40
0.0
 40
0.0
 40
0.2181870447
 40
1.0
 40
1.0
 40
1.0
 40
1.0
 10
5.3809443706
 20
-4.5044815675
 30
0.0
 10
5.3859219809
 20
-4.5092879548
 30
0.0
 10
5.4099552702
 20
-4.5300585202
 30
0.0
 10
5.437650712
 20
-4.5461949055
 30
0.0
 10
5.4598268916
 20
-4.5572829953
 30
0.0
  0
SPLINE
  5
53A
100
AcDbEntity
  8
0
100
AcDbSpline
 62
7
  6
CONTINUOUS
 70
0
 71
3
 72
9
 73
5
 74
0
 42
0.0000001
 43
0.0000001
 44
0.0000000001
 40
0.0
 40
0.0
 40
0.0
 40
0.0
 40
0.4790784959
 40
1.0
 40
1.0
 40
1.0
 40
1.0
 10
5.4598268916
 20
-4.5572829953
 30
0.0
 10
5.5091760355
 20
-4.5819575673
 30
0.0
 10
5.6204074219
 20
-4.6180506632
 30
0.0
 10
5.7366392181
 20
-4.6234149461
 30
0.0
 10
5.7965528095
 20
-4.6203301537
 30
0.0
  0
SPLINE
  5
53B
100
AcDbEntity
  8
0
100
AcDbSpline
 62
7
  6
CONTINUOUS
 70
0
 71
3
 72
9
 73
5
 74
0
 42
0.0000001
 43
0.0000001
 44
0.0000000001
 40
0.0
 40
0.0
 40
0.0
 40
0.0
 40
0.4614982321
 40
1.0
 40
1.0
 40
1.0
 40
1.0
 10
5.7965528095
 20
-4.6203301537
 30
0.0
 10
5.8748497693
 20
-4.6162988502
 30
0.0
 10
6.0433657554
 20
-4.582913794
 30
0.0
 10
6.2006775075
 20
-4.516680021
 30
0.0
 10
6.2825017265
 20
-4.4757679115
 30
0.0
  0
SPLINE
  5
53C
100
AcDbEntity
  8
0
100
AcDbSpline
 62
7
  6
CONTINUOUS
 70
0
 71
3
 72
9
 73
5
 74
0
 42
0.0000001
 43
0.0000001
 44
0.0000000001
 40
0.0
 40
0.0
 40
0.0
 40
0.0
 40
0.5778546067
 40
1.0
 40
1.0
 40
1.0
 40
1.0
 10
6.2825017265
 20
-4.4757679115
 30
0.0
 10
6.326795838
 20
-4.4536208557
 30
0.0
 10
6.4019456706
 20
-4.4124208734
 30
0.0
 10
6.4710300625
 20
-4.3600702379
 30
0.0
 10
6.4955606963
 20
-4.333478976
 30
0.0
  0
SPLINE
  5
53D
100
AcDbEntity
  8
0
100
AcDbSpline
 62
7
  6
CONTINUOUS
 70
0
 71
3
 72
9
 73
5
 74
0
 42
0.0000001
 43
0.0000001
 44
0.0000000001
 40
0.0
 40
0.0
 40
0.0
 40
0.0
 40
0.2841687547
 40
1.0
 40
1.0
 40
1.0
 40
1.0
 10
6.4955606963
 20
-4.333478976
 30
0.0
 10
6.5001475056
 20
-4.3285068645
 30
0.0
 10
6.5155964269
 20
-4.3104677013
 30
0.0
 10
6.528234416
 20
-4.2894415926
 30
0.0
 10
6.5331824642
 20
-4.273135358
 30
0.0
  0
SPLINE
  5
53E
100
AcDbEntity
  8
0
100
AcDbSpline
 62
7
  6
CONTINUOUS
 70
0
 71
3
 72
8
 73
4
 74
0
 42
0.0000001
 43
0.0000001
 44
0.0000000001
 40
0.0
 40
0.0
 40
0.0
 40
0.0
 40
1.0
 40
1.0
 40
1.0
 40
1.0
 10
6.5331824642
 20
-4.273135358
 30
0.0
 10
6.5344786058
 20
-4.2688639387
 30
0.0
 10
6.5354916987
 20
-4.2644928366
 30
0.0
 10
6.5361607117
 20
-4.2600795128
 30
0.0
  0
SPLINE
  5
53F
100
AcDbEntity
  8
0
100
AcDbSpline
 62
7
  6
CONTINUOUS
 70
0
 71
3
 72
9
 73
5
 74
0
 42
0.0000001
 43
0.0000001
 44
0.0000000001
 40
0.0
 40
0.0
 40
0.0
 40
0.0
 40
0.556643914
 40
1.0
 40
1.0
 40
1.0
 40
1.0
 10
5.0760701201
 20
-3.8256086782
 30
0.0
 10
5.129309599
 20
-3.8282930229
 30
0.0
 10
5.2250136783
 20
-3.8319591446
 30
0.0
 10
5.3208429515
 20
-3.8317510588
 30
0.0
 10
5.3632629657
 20
-3.829953611
 30
0.0
  0
SPLINE
  5
540
100
AcDbEntity
  8
0
100
AcDbSpline
 62
7
  6
CONTINUOUS
 70
0
 71
3
 72
9
 73
5
 74
0
 42
0.0000001
 43
0.0000001
 44
0.0000000001
 40
0.0
 40
0.0
 40
0.0
 40
0.0
 40
0.2539036419
 40
1.0
 40
1.0
 40
1.0
 40
1.0
 10
6.3696620601
 20
-4.8892824932
 30
0.0
 10
6.3929323492
 20
-4.8899334089
 30
0.0
 10
6.4845258768
 20
-4.8943708818
 30
0.0
 10
6.5757276411
 20
-4.9060075929
 30
0.0
 10
6.6430490178
 20
-4.9181437591
 30
0.0
  0
SPLINE
  5
541
100
AcDbEntity
  8
0
100
AcDbSpline
 62
7
  6
CONTINUOUS
 70
0
 71
3
 72
9
 73
5
 74
0
 42
0.0000001
 43
0.0000001
 44
0.0000000001
 40
0.0
 40
0.0
 40
0.0
 40
0.0
 40
0.4961979826
 40
1.0
 40
1.0
 40
1.0
 40
1.0
 10
6.1464342992
 20
-4.9005866991
 30
0.0
 10
6.1829397863
 20
-4.8945024402
 30
0.0
 10
6.2574832846
 20
-4.8881529972
 30
0.0
 10
6.3321005665
 20
-4.8882318244
 30
0.0
 10
6.3696620601
 20
-4.8892824932
 30
0.0
  0
SPLINE
  5
542
100
AcDbEntity
  8
0
100
AcDbSpline
 62
7
  6
CONTINUOUS
 70
0
 71
3
 72
9
 73
5
 74
0
 42
0.0000001
 43
0.0000001
 44
0.0000000001
 40
0.0
 40
0.0
 40
0.0
 40
0.0
 40
0.4559002276
 40
1.0
 40
1.0
 40
1.0
 40
1.0
 10
5.4956334737
 20
-4.4337702157
 30
0.0
 10
5.4964722155
 20
-4.4202664672
 30
0.0
 10
5.5143697211
 20
-4.3934317661
 30
0.0
 10
5.5362346443
 20
-4.3742135847
 30
0.0
 10
5.548866328
 20
-4.3641550066
 30
0.0
  0
SPLINE
  5
543
100
AcDbEntity
  8
0
100
AcDbSpline
 62
7
  6
CONTINUOUS
 70
0
 71
3
 72
9
 73
5
 74
0
 42
0.0000001
 43
0.0000001
 44
0.0000000001
 40
0.0
 40
0.0
 40
0.0
 40
0.0
 40
0.272774191
 40
1.0
 40
1.0
 40
1.0
 40
1.0
 10
5.3632629657
 20
-3.829953611
 30
0.0
 10
5.3812623892
 20
-3.8291909279
 30
0.0
 10
5.4471742348
 20
-3.8252868511
 30
0.0
 10
5.5129804609
 20
-3.8167455076
 30
0.0
 10
5.5598288309
 20
-3.806156481
 30
0.0
  0
SPLINE
  5
544
100
AcDbEntity
  8
0
100
AcDbSpline
 62
7
  6
CONTINUOUS
 70
0
 71
3
 72
9
 73
5
 74
0
 42
0.0000001
 43
0.0000001
 44
0.0000000001
 40
0.0
 40
0.0
 40
0.0
 40
0.0
 40
0.2690426962
 40
1.0
 40
1.0
 40
1.0
 40
1.0
 10
5.5598288309
 20
-3.806156481
 30
0.0
 10
5.5683292555
 20
-3.8042351501
 30
0.0
 10
5.5997046488
 20
-3.7962489399
 30
0.0
 10
5.6303166392
 20
-3.7845976852
 30
0.0
 10
5.6510736621
 20
-3.7732065631
 30
0.0
  0
SPLINE
  5
545
100
AcDbEntity
  8
0
100
AcDbSpline
 62
7
  6
CONTINUOUS
 70
0
 71
3
 72
9
 73
5
 74
0
 42
0.0000001
 43
0.0000001
 44
0.0000000001
 40
0.0
 40
0.0
 40
0.0
 40
0.0
 40
0.2386098814
 40
1.0
 40
1.0
 40
1.0
 40
1.0
 10
5.9344329157
 20
-4.4379281684
 30
0.0
 10
5.9495323291
 20
-4.440364843
 30
0.0
 10
6.013193471
 20
-4.4482039628
 30
0.0
 10
6.0778337779
 20
-4.4467150042
 30
0.0
 10
6.126369076
 20
-4.4415943047
 30
0.0
  0
SPLINE
  5
546
100
AcDbEntity
  8
0
100
AcDbSpline
 62
7
  6
CONTINUOUS
 70
0
 71
3
 72
9
 73
5
 74
0
 42
0.0000001
 43
0.0000001
 44
0.0000000001
 40
0.0
 40
0.0
 40
0.0
 40
0.0
 40
0.2310356775
 40
1.0
 40
1.0
 40
1.0
 40
1.0
 10
5.7808707911
 20
-4.3911176922
 30
0.0
 10
5.7919538637
 20
-4.3966592285
 30
0.0
 10
5.8410704017
 20
-4.4183600452
 30
0.0
 10
5.8937174179
 20
-4.4313576866
 30
0.0
 10
5.9344329157
 20
-4.4379281684
 30
0.0
  0
LINE
  5
547
100
AcDbEntity
  8
0
100
AcDbLine
 62
7
  6
CONTINUOUS
 10
-5.8091989138
 20
0.4080484509
 11
-5.8142049125
 21
0.4102240863
  0
SPLINE
  5
548
100
AcDbEntity
  8
0
100
AcDbSpline
 62
7
  6
CONTINUOUS
 70
0
 71
3
 72
19
 73
15
 74
0
 42
0.0000001
 43
0.0000001
 44
0.0000000001
 40
0.0
 40
0.0
 40
0.0
 40
0.0
 40
0.128910508
 40
0.2677722628
 40
0.4104351528
 40
0.5496727099
 40
0.6159983452
 40
0.6792842861
 40
0.739213852
 40
0.7957908059
 40
0.8493906859
 40
0.900728249
 40
0.9507372837
 40
1.0
 40
1.0
 40
1.0
 40
1.0
 10
-5.8142049125
 20
0.4102240863
 30
0.0
 10
-6.0742034457
 20
0.523006178
 30
0.0
 10
-6.6396331855
 20
0.7002031386
 30
0.0
 10
-7.5354501596
 20
0.8307675721
 30
0.0
 10
-8.4634247854
 20
0.834126694
 30
0.0
 10
-9.2249359147
 20
0.7290579759
 30
0.0
 10
-9.7970090665
 20
0.5780103004
 30
0.0
 10
-10.1894881609
 20
0.436153747
 30
0.0
 10
-10.5465040355
 20
0.264731919
 30
0.0
 10
-10.8631428213
 20
0.0638370617
 30
0.0
 10
-11.134480963
 20
-0.1673516511
 30
0.0
 10
-11.3538547838
 20
-0.430583873
 30
0.0
 10
-11.5110987576
 20
-0.7248374808
 30
0.0
 10
-11.5669014371
 20
-0.9385705825
 30
0.0
 10
-11.5805733307
 20
-1.0460068615
 30
0.0
  0
SPLINE
  5
549
100
AcDbEntity
  8
0
100
AcDbSpline
 62
7
  6
CONTINUOUS
 70
0
 71
3
 72
13
 73
9
 74
0
 42
0.0000001
 43
0.0000001
 44
0.0000000001
 40
0.0
 40
0.0
 40
0.0
 40
0.0
 40
0.1171602701
 40
0.2350232246
 40
0.3542255706
 40
0.4754655079
 40
0.7280086895
 40
1.0
 40
1.0
 40
1.0
 40
1.0
 10
13.9223680071
 20
-10.2741256345
 30
0.0
 10
13.9150468339
 20
-10.2000195115
 30
0.0
 10
13.8871678615
 20
-10.0523544834
 30
0.0
 10
13.8083527485
 20
-9.8404563541
 30
0.0
 10
13.6965375471
 20
-9.6410679796
 30
0.0
 10
13.5055382028
 20
-9.3915586058
 30
0.0
 10
13.1965289551
 20
-9.1158556959
 30
0.0
 10
12.9083853175
 20
-8.9448140701
 30
0.0
 10
12.7537592006
 20
-8.8675010117
 30
0.0
  0
SPLINE
  5
54A
100
AcDbEntity
  8
0
100
AcDbSpline
 62
7
  6
CONTINUOUS
 70
0
 71
3
 72
9
 73
5
 74
0
 42
0.0000001
 43
0.0000001
 44
0.0000000001
 40
0.0
 40
0.0
 40
0.0
 40
0.0
 40
0.2408245889
 40
1.0
 40
1.0
 40
1.0
 40
1.0
 10
6.693545066
 20
-7.1679046539
 30
0.0
 10
6.6935450675
 20
-7.1738206497
 30
0.0
 10
6.6916252693
 20
-7.1983981664
 30
0.0
 10
6.6820064603
 20
-7.2219618939
 30
0.0
 10
6.6723577876
 20
-7.2379215343
 30
0.0
  0
SPLINE
  5
54B
100
AcDbEntity
  8
0
100
AcDbSpline
 62
7
  6
CONTINUOUS
 70
0
 71
3
 72
9
 73
5
 74
0
 42
0.0000001
 43
0.0000001
 44
0.0000000001
 40
0.0
 40
0.0
 40
0.0
 40
0.0
 40
0.4606480986
 40
1.0
 40
1.0
 40
1.0
 40
1.0
 10
6.6723577876
 20
-7.2379215343
 30
0.0
 10
6.6594716957
 20
-7.2592361131
 30
0.0
 10
6.6221333837
 20
-7.2998177733
 30
0.0
 10
6.5762302585
 20
-7.3291809486
 30
0.0
 10
6.5503132643
 20
-7.3425512409
 30
0.0
  0
SPLINE
  5
54C
100
AcDbEntity
  8
0
100
AcDbSpline
 62
7
  6
CONTINUOUS
 70
0
 71
3
 72
9
 73
5
 74
0
 42
0.0000001
 43
0.0000001
 44
0.0000000001
 40
0.0
 40
0.0
 40
0.0
 40
0.0
 40
0.4743004607
 40
1.0
 40
1.0
 40
1.0
 40
1.0
 10
7.4775694274
 20
-7.2075892927
 30
0.0
 10
7.4775694258
 20
-7.1735017045
 30
0.0
 10
7.4634785723
 20
-7.1012780031
 30
0.0
 10
7.4245679971
 20
-7.0384222674
 30
0.0
 10
7.3986976141
 20
-7.0108873361
 30
0.0
  0
SPLINE
  5
54D
100
AcDbEntity
  8
0
100
AcDbSpline
 62
7
  6
CONTINUOUS
 70
0
 71
3
 72
9
 73
5
 74
0
 42
0.0000001
 43
0.0000001
 44
0.0000000001
 40
0.0
 40
0.0
 40
0.0
 40
0.0
 40
0.4855750725
 40
1.0
 40
1.0
 40
1.0
 40
1.0
 10
6.0564869728
 20
-7.8713652842
 30
0.0
 10
6.0564869611
 20
-7.8569065395
 30
0.0
 10
6.052178937
 20
-7.826970401
 30
0.0
 10
6.0394494488
 20
-7.7995618925
 30
0.0
 10
6.0312736029
 20
-7.7866085013
 30
0.0
  0
SPLINE
  5
54E
100
AcDbEntity
  8
0
100
AcDbSpline
 62
7
  6
CONTINUOUS
 70
0
 71
3
 72
9
 73
5
 74
0
 42
0.0000001
 43
0.0000001
 44
0.0000000001
 40
0.0
 40
0.0
 40
0.0
 40
0.0
 40
0.2430143378
 40
1.0
 40
1.0
 40
1.0
 40
1.0
 10
5.3265064606
 20
-7.7293157119
 30
0.0
 10
5.3265064606
 20
-7.735065793
 30
0.0
 10
5.3248138785
 20
-7.7587401205
 30
0.0
 10
5.3164360668
 20
-7.781580418
 30
0.0
 10
5.308099626
 20
-7.7974335657
 30
0.0
  0
SPLINE
  5
54F
100
AcDbEntity
  8
0
100
AcDbSpline
 62
7
  6
CONTINUOUS
 70
0
 71
3
 72
9
 73
5
 74
0
 42
0.0000001
 43
0.0000001
 44
0.0000000001
 40
0.0
 40
0.0
 40
0.0
 40
0.0
 40
0.2395607946
 40
1.0
 40
1.0
 40
1.0
 40
1.0
 10
5.308099626
 20
-7.7974335657
 30
0.0
 10
5.3055415052
 20
-7.8022982636
 30
0.0
 10
5.2940345367
 20
-7.8221698498
 30
0.0
 10
5.27971306
 20
-7.8403139609
 30
0.0
 10
5.2679812951
 20
-7.8532275518
 30
0.0
  0
SPLINE
  5
550
100
AcDbEntity
  8
0
100
AcDbSpline
 62
7
  6
CONTINUOUS
 70
0
 71
3
 72
12
 73
8
 74
0
 42
0.0000001
 43
0.0000001
 44
0.0000000001
 40
0.0
 40
0.0
 40
0.0
 40
0.0
 40
0.1049837383
 40
0.2198263668
 40
0.4670735375
 40
0.7288704334
 40
1.0
 40
1.0
 40
1.0
 40
1.0
 10
7.3986976141
 20
-7.0108873361
 30
0.0
 10
7.3599277059
 20
-6.9695731826
 30
0.0
 10
7.2698392826
 20
-6.8914333476
 30
0.0
 10
7.0606360922
 20
-6.7503799368
 30
0.0
 10
6.7620903693
 20
-6.593075309
 30
0.0
 10
6.3768742008
 20
-6.4229503113
 30
0.0
 10
6.1087745948
 20
-6.3185611061
 30
0.0
 10
5.9716245394
 20
-6.2675754856
 30
0.0
  0
SPLINE
  5
551
100
AcDbEntity
  8
0
100
AcDbSpline
 62
7
  6
CONTINUOUS
 70
0
 71
3
 72
12
 73
8
 74
0
 42
0.0000001
 43
0.0000001
 44
0.0000000001
 40
0.0
 40
0.0
 40
0.0
 40
0.0
 40
0.1217909774
 40
0.2467888174
 40
0.4969572895
 40
0.7480601343
 40
1.0
 40
1.0
 40
1.0
 40
1.0
 10
5.2679812951
 20
-7.8532275518
 30
0.0
 10
5.245636298
 20
-7.8778463416
 30
0.0
 10
5.1976748422
 20
-7.9252631617
 30
0.0
 10
5.0977816248
 20
-8.0170269475
 30
0.0
 10
4.9729348844
 20
-8.1338424028
 30
0.0
 10
4.8212319495
 20
-8.2726377032
 30
0.0
 10
4.7195832778
 20
-8.3649719901
 30
0.0
 10
4.6685516469
 20
-8.4110799198
 30
0.0
  0
SPLINE
  5
552
100
AcDbEntity
  8
0
100
AcDbSpline
 62
7
  6
CONTINUOUS
 70
0
 71
3
 72
12
 73
8
 74
0
 42
0.0000001
 43
0.0000001
 44
0.0000000001
 40
0.0
 40
0.0
 40
0.0
 40
0.0
 40
0.2318562115
 40
0.3627401596
 40
0.4990974298
 40
0.7627500694
 40
1.0
 40
1.0
 40
1.0
 40
1.0
 10
6.5503132643
 20
-7.3425512409
 30
0.0
 10
6.4863798367
 20
-7.3755199277
 30
0.0
 10
6.3802282602
 20
-7.4168489795
 30
0.0
 10
6.2272698398
 20
-7.4432961457
 30
0.0
 10
6.06228193
 20
-7.4509770745
 30
0.0
 10
5.864810181
 20
-7.4201119478
 30
0.0
 10
5.7186670214
 20
-7.364760071
 30
0.0
 10
5.6522609776
 20
-7.3330078713
 30
0.0
  0
SPLINE
  5
553
100
AcDbEntity
  8
0
100
AcDbSpline
 62
7
  6
CONTINUOUS
 70
0
 71
3
 72
9
 73
5
 74
0
 42
0.0000001
 43
0.0000001
 44
0.0000000001
 40
0.0
 40
0.0
 40
0.0
 40
0.0
 40
0.2693966322
 40
1.0
 40
1.0
 40
1.0
 40
1.0
 10
6.9494780603
 20
-2.0521578198
 30
0.0
 10
6.9494780603
 20
-2.1247490813
 30
0.0
 10
6.9383286479
 20
-2.3937416131
 30
0.0
 10
6.8795565303
 20
-2.6633603091
 30
0.0
 10
6.8002773729
 20
-2.8435590787
 30
0.0
  0
SPLINE
  5
554
100
AcDbEntity
  8
0
100
AcDbSpline
 62
7
  6
CONTINUOUS
 70
0
 71
3
 72
17
 73
13
 74
0
 42
0.0000001
 43
0.0000001
 44
0.0000000001
 40
0.0
 40
0.0
 40
0.0
 40
0.0
 40
0.1323491298
 40
0.2742786726
 40
0.419328093
 40
0.5604509805
 40
0.6913023328
 40
0.8075545412
 40
0.859981989
 40
0.9089426337
 40
0.9552289514
 40
1.0
 40
1.0
 40
1.0
 40
1.0
 10
6.9494780603
 20
-2.0521578198
 30
0.0
 10
6.9494780603
 20
-1.8417146244
 30
0.0
 10
6.8977489542
 20
-1.4049362799
 30
0.0
 10
6.6973095924
 20
-0.7657492334
 30
0.0
 10
6.3854632848
 20
-0.1569747905
 30
0.0
 10
5.984956257
 20
0.3759924857
 30
0.0
 10
5.5253298801
 20
0.7939432356
 30
0.0
 10
5.1036800916
 20
1.0289656448
 30
0.0
 10
4.7690793946
 20
1.1229579648
 30
0.0
 10
4.5339240371
 20
1.1457082157
 30
0.0
 10
4.310932297
 20
1.1220956561
 30
0.0
 10
4.1724870915
 20
1.0748881929
 30
0.0
 10
4.1082259563
 20
1.0442558973
 30
0.0
  0
SPLINE
  5
555
100
AcDbEntity
  8
0
100
AcDbSpline
 62
7
  6
CONTINUOUS
 70
0
 71
3
 72
17
 73
13
 74
0
 42
0.0000001
 43
0.0000001
 44
0.0000000001
 40
0.0
 40
0.0
 40
0.0
 40
0.0
 40
0.1323491298
 40
0.2742786726
 40
0.419328093
 40
0.5604509805
 40
0.6913023328
 40
0.8075545412
 40
0.859981989
 40
0.9089426337
 40
0.9552289514
 40
1.0
 40
1.0
 40
1.0
 40
1.0
 10
25.3342543711
 20
-11.2445459752
 30
0.0
 10
25.3342543711
 20
-11.0341027798
 30
0.0
 10
25.2825252651
 20
-10.5973244353
 30
0.0
 10
25.0820859032
 20
-9.9581373888
 30
0.0
 10
24.7702395957
 20
-9.3493629459
 30
0.0
 10
24.3697325678
 20
-8.8163956698
 30
0.0
 10
23.910106191
 20
-8.3984449198
 30
0.0
 10
23.4884564024
 20
-8.1634225106
 30
0.0
 10
23.1538557055
 20
-8.0694301907
 30
0.0
 10
22.918700348
 20
-8.0466799398
 30
0.0
 10
22.6957086078
 20
-8.0702924993
 30
0.0
 10
22.5572634024
 20
-8.1174999625
 30
0.0
 10
22.4930022671
 20
-8.1481322581
 30
0.0
  0
SPLINE
  5
556
100
AcDbEntity
  8
0
100
AcDbSpline
 62
7
  6
CONTINUOUS
 70
0
 71
3
 72
12
 73
8
 74
0
 42
0.0000001
 43
0.0000001
 44
0.0000000001
 40
0.0
 40
0.0
 40
0.0
 40
0.0
 40
0.2873951053
 40
0.5473664995
 40
0.7820349281
 40
0.8924673771
 40
1.0
 40
1.0
 40
1.0
 40
1.0
 10
25.3342543711
 20
-11.2445459752
 30
0.0
 10
25.3342543711
 20
-11.3848830144
 30
0.0
 10
25.3129443615
 20
-11.6530497605
 30
0.0
 10
25.2071918976
 20
-12.0229749565
 30
0.0
 10
25.0563240072
 20
-12.2819479619
 30
0.0
 10
24.9037846829
 20
-12.4430008172
 30
0.0
 10
24.8186456634
 20
-12.5078340244
 30
0.0
 10
24.774342994
 20
-12.5360202157
 30
0.0
  0
SPLINE
  5
557
100
AcDbEntity
  8
0
100
AcDbSpline
 62
7
  6
CONTINUOUS
 70
0
 71
3
 72
11
 73
7
 74
0
 42
0.0000001
 43
0.0000001
 44
0.0000000001
 40
0.0
 40
0.0
 40
0.0
 40
0.0
 40
0.2966356065
 40
0.5616728748
 40
0.7934892247
 40
1.0
 40
1.0
 40
1.0
 40
1.0
 10
5.1878169905
 20
-7.6072586857
 30
0.0
 10
5.2059815255
 20
-7.6163409532
 30
0.0
 10
5.2393642775
 20
-7.6357337642
 30
0.0
 10
5.2815882266
 20
-7.6703827464
 30
0.0
 10
5.3115986537
 20
-7.7087379619
 30
0.0
 10
5.3221650433
 20
-7.7375163837
 30
0.0
 10
5.324637179
 20
-7.7514369256
 30
0.0
  0
SPLINE
  5
558
100
AcDbEntity
  8
0
100
AcDbSpline
 62
7
  6
CONTINUOUS
 70
0
 71
3
 72
10
 73
6
 74
0
 42
0.0000001
 43
0.0000001
 44
0.0000000001
 40
0.0
 40
0.0
 40
0.0
 40
0.0
 40
0.2498843271
 40
0.5004805609
 40
1.0
 40
1.0
 40
1.0
 40
1.0
 10
5.236382138
 20
-8.7382964355
 30
0.0
 10
5.282986944
 20
-8.6976166519
 30
0.0
 10
5.3772499506
 20
-8.6172013952
 30
0.0
 10
5.5657826875
 20
-8.4567645077
 30
0.0
 10
5.7069242079
 20
-8.3360737359
 30
0.0
 10
5.8000135465
 20
-8.2546702755
 30
0.0
  0
SPLINE
  5
559
100
AcDbEntity
  8
0
100
AcDbSpline
 62
7
  6
CONTINUOUS
 70
0
 71
3
 72
13
 73
9
 74
0
 42
0.0000001
 43
0.0000001
 44
0.0000000001
 40
0.0
 40
0.0
 40
0.0
 40
0.0
 40
0.2757437986
 40
0.5399073431
 40
0.6642459608
 40
0.7824354036
 40
0.8937175312
 40
1.0
 40
1.0
 40
1.0
 40
1.0
 10
5.8000135465
 20
-8.2546702755
 30
0.0
 10
5.8302346069
 20
-8.2282438192
 30
0.0
 10
5.8895274153
 20
-8.1766752664
 30
0.0
 10
5.9585365612
 20
-8.1085805499
 30
0.0
 10
6.0045975952
 20
-8.0508292653
 30
0.0
 10
6.0322312243
 20
-8.0071806291
 30
0.0
 10
6.051461046
 20
-7.961918413
 30
0.0
 10
6.0564869918
 20
-7.9301401818
 30
0.0
 10
6.0564869728
 20
-7.9146664896
 30
0.0
  0
SPLINE
  5
55A
100
AcDbEntity
  8
0
100
AcDbSpline
 62
7
  6
CONTINUOUS
 70
0
 71
3
 72
9
 73
5
 74
0
 42
0.0000001
 43
0.0000001
 44
0.0000000001
 40
0.0
 40
0.0
 40
0.0
 40
0.0
 40
0.4912084484
 40
1.0
 40
1.0
 40
1.0
 40
1.0
 10
6.0390586533
 20
-7.8014749965
 30
0.0
 10
6.0486507978
 20
-7.8042342115
 30
0.0
 10
6.0687972878
 20
-7.8074687532
 30
0.0
 10
6.088924617
 20
-7.8100613588
 30
0.0
 10
6.0991831722
 20
-7.8113436589
 30
0.0
  0
SPLINE
  5
55B
100
AcDbEntity
  8
0
100
AcDbSpline
 62
7
  6
CONTINUOUS
 70
0
 71
3
 72
16
 73
12
 74
0
 42
0.0000001
 43
0.0000001
 44
0.0000000001
 40
0.0
 40
0.0
 40
0.0
 40
0.0
 40
0.1556434492
 40
0.3109679816
 40
0.459605657
 40
0.5966328054
 40
0.7198945352
 40
0.8280122419
 40
0.9195554308
 40
0.9605787963
 40
1.0
 40
1.0
 40
1.0
 40
1.0
 10
6.0991831722
 20
-7.8113436589
 30
0.0
 10
6.182124331
 20
-7.8217111481
 30
0.0
 10
6.3496042975
 20
-7.8285973954
 30
0.0
 10
6.5962521541
 20
-7.8112946602
 30
0.0
 10
6.8294960607
 20
-7.7665628404
 30
0.0
 10
7.0384447346
 20
-7.6967733136
 30
0.0
 10
7.2161045473
 20
-7.6081404033
 30
0.0
 10
7.3576320566
 20
-7.5061608501
 30
0.0
 10
7.4400245107
 20
-7.4027325276
 30
0.0
 10
7.4723068658
 20
-7.3154246011
 30
0.0
 10
7.4775696114
 20
-7.2720589813
 30
0.0
 10
7.4775694274
 20
-7.2508882566
 30
0.0
  0
SPLINE
  5
55C
100
AcDbEntity
  8
0
100
AcDbSpline
 62
7
  6
CONTINUOUS
 70
0
 71
3
 72
9
 73
5
 74
0
 42
0.0000001
 43
0.0000001
 44
0.0000000001
 40
0.0
 40
0.0
 40
0.0
 40
0.0
 40
0.5220560345
 40
1.0
 40
1.0
 40
1.0
 40
1.0
 10
6.0912559791
 20
-6.8194429217
 30
0.0
 10
6.1780874262
 20
-6.8502018884
 30
0.0
 10
6.3432840287
 20
-6.9130820664
 30
0.0
 10
6.4990629351
 20
-6.9973341295
 30
0.0
 10
6.5703755479
 20
-7.042354828
 30
0.0
  0
SPLINE
  5
55D
100
AcDbEntity
  8
0
100
AcDbSpline
 62
7
  6
CONTINUOUS
 70
0
 71
3
 72
9
 73
5
 74
0
 42
0.0000001
 43
0.0000001
 44
0.0000000001
 40
0.0
 40
0.0
 40
0.0
 40
0.0
 40
0.5475890474
 40
1.0
 40
1.0
 40
1.0
 40
1.0
 10
6.5703755479
 20
-7.042354828
 30
0.0
 10
6.5997582681
 20
-7.060905591
 30
0.0
 10
6.6502206806
 20
-7.1004272674
 30
0.0
 10
6.6845649384
 20
-7.1573724446
 30
0.0
 10
6.6907017323
 20
-7.1854178377
 30
0.0
  0
SPLINE
  5
55E
100
AcDbEntity
  8
0
100
AcDbSpline
 62
7
  6
CONTINUOUS
 70
0
 71
3
 72
10
 73
6
 74
0
 42
0.0000001
 43
0.0000001
 44
0.0000000001
 40
0.0
 40
0.0
 40
0.0
 40
0.0
 40
0.2374600046
 40
0.480123822
 40
1.0
 40
1.0
 40
1.0
 40
1.0
 10
13.9282790555
 20
-10.3738910035
 30
0.0
 10
13.9293692457
 20
-10.4285087971
 30
0.0
 10
13.9212765281
 20
-10.5394234607
 30
0.0
 10
13.8632924248
 20
-10.7630648821
 30
0.0
 10
13.7748792196
 20
-10.9188322529
 30
0.0
 10
13.7034723057
 20
-11.0147756799
 30
0.0
  0
SPLINE
  5
55F
100
AcDbEntity
  8
0
100
AcDbSpline
 62
250
  6
CONTINUOUS
 70
0
 71
3
 72
25
 73
21
 74
0
 42
0.0000001
 43
0.0000001
 44
0.0000000001
 40
0.0
 40
0.0
 40
0.0
 40
0.0
 40
0.0677083156
 40
0.1416832384
 40
0.2201160355
 40
0.3008589442
 40
0.3816018582
 40
0.4600348064
 40
0.5340099216
 40
0.6017197784
 40
0.6619177209
 40
0.7142254575
 40
0.7595761996
 40
0.7805038825
 40
0.8008603292
 40
0.8212166655
 40
0.8421445782
 40
0.8874954294
 40
0.9398032448
 40
1.0
 40
1.0
 40
1.0
 40
1.0
 10
-5.854623908
 20
0.3106862502
 30
0.0
 10
-6.0044114483
 20
0.3855800203
 30
0.0
 10
-6.3308451259
 20
0.5168118055
 30
0.0
 10
-6.858463045
 20
0.6554024688
 30
0.0
 10
-7.4298540473
 20
0.7407613387
 30
0.0
 10
-8.0234989427
 20
0.7695738925
 30
0.0
 10
-8.6171565421
 20
0.7407590679
 30
0.0
 10
-9.1885135167
 20
0.6554185662
 30
0.0
 10
-9.7162538558
 20
0.5167691075
 30
0.0
 10
-10.1810025045
 20
0.3299705309
 30
0.0
 10
-10.5661902349
 20
0.101208199
 30
0.0
 10
-10.8584629439
 20
-0.1624343307
 30
0.0
 10
-11.0185541772
 20
-0.4147023268
 30
0.0
 10
-11.0805460777
 20
-0.6210677009
 30
0.0
 10
-11.0958157744
 20
-0.7737589296
 30
0.0
 10
-11.0805479001
 20
-0.9264515713
 30
0.0
 10
-11.018550502
 20
-1.1328146022
 30
0.0
 10
-10.8584439372
 20
-1.3850906547
 30
0.0
 10
-10.5662495016
 20
-1.6486912872
 30
0.0
 10
-10.3255622657
 20
-1.7916128177
 30
0.0
 10
-10.1923921547
 20
-1.8581978732
 30
0.0
  0
SPLINE
  5
560
100
AcDbEntity
  8
0
100
AcDbSpline
 62
250
  6
CONTINUOUS
 70
0
 71
3
 72
26
 73
22
 74
0
 42
0.0000001
 43
0.0000001
 44
0.0000000001
 40
0.0
 40
0.0
 40
0.0
 40
0.0
 40
0.0676134987
 40
0.1413782043
 40
0.2195856823
 40
0.3002100668
 40
0.3810602571
 40
0.4599318846
 40
0.5347512784
 40
0.6037340759
 40
0.6655756171
 40
0.7197100781
 40
0.7666846584
 40
0.7881547776
 40
0.8087744317
 40
0.8290575645
 40
0.8495564209
 40
0.8707983649
 40
0.8932340756
 40
0.9428365902
 40
1.0
 40
1.0
 40
1.0
 40
1.0
 10
8.1923841561
 20
-11.0505860287
 30
0.0
 10
8.3382781491
 20
-11.1235330252
 30
0.0
 10
8.6556691879
 20
-11.2518846901
 30
0.0
 10
9.1684016646
 20
-11.3890482835
 30
0.0
 10
9.7238039706
 20
-11.4757227724
 30
0.0
 10
10.3019584295
 20
-11.5087206652
 30
0.0
 10
10.882248974
 20
-11.486853962
 30
0.0
 10
11.4438976369
 20
-11.4109217516
 30
0.0
 10
11.9669227604
 20
-11.2836532348
 30
0.0
 10
12.4329472767
 20
-11.1095908201
 30
0.0
 10
12.8260447178
 20
-10.8943690506
 30
0.0
 10
13.1330651615
 20
-10.6447000273
 30
0.0
 10
13.3131782568
 20
-10.4044451713
 30
0.0
 10
13.3959024282
 20
-10.2050361914
 30
0.0
 10
13.4279035836
 20
-10.0571049082
 30
0.0
 10
13.4311141235
 20
-9.9080854352
 30
0.0
 10
13.4054281982
 20
-9.7597703289
 30
0.0
 10
13.3513746871
 20
-9.6138370287
 30
0.0
 10
13.2388060214
 20
-9.4179470033
 30
0.0
 10
13.0244180922
 20
-9.1864843375
 30
0.0
 10
12.8113522796
 20
-9.0389799819
 30
0.0
 10
12.6923063999
 20
-8.9693695265
 30
0.0
  0
SPLINE
  5
561
100
AcDbEntity
  8
0
100
AcDbSpline
 62
7
  6
CONTINUOUS
 70
0
 71
3
 72
26
 73
22
 74
0
 42
0.0000001
 43
0.0000001
 44
0.0000000001
 40
0.0
 40
0.0
 40
0.0
 40
0.0
 40
0.0179058086
 40
0.0371013796
 40
0.0561789522
 40
0.0752368258
 40
0.113768473
 40
0.1527087061
 40
0.1916675163
 40
0.2305168053
 40
0.3076702263
 40
0.3834388825
 40
0.4570149485
 40
0.5277594331
 40
0.5951877318
 40
0.7192432638
 40
0.8279919584
 40
0.8760308207
 40
0.9200180019
 40
0.9608607592
 40
1.0
 40
1.0
 40
1.0
 40
1.0
 10
6.0311327507
 20
-7.7555352584
 30
0.0
 10
6.0404962125
 20
-7.7591468793
 30
0.0
 10
6.0610860952
 20
-7.7631947001
 30
0.0
 10
6.092254019
 20
-7.7671940282
 30
0.0
 10
6.1241661479
 20
-7.7711086252
 30
0.0
 10
6.1669185559
 20
-7.7754099731
 30
0.0
 10
6.2209203189
 20
-7.7790314969
 30
0.0
 10
6.2861596379
 20
-7.7809368644
 30
0.0
 10
6.3516043369
 20
-7.7809387763
 30
0.0
 10
6.438429893
 20
-7.7783794921
 30
0.0
 10
6.5456869685
 20
-7.7703645486
 30
0.0
 10
6.6715421353
 20
-7.7531391968
 30
0.0
 10
6.7925275971
 20
-7.7286195229
 30
0.0
 10
6.9070703815
 20
-7.6971834255
 30
0.0
 10
7.0457982781
 20
-7.6482740936
 30
0.0
 10
7.1981364494
 20
-7.5756866567
 30
0.0
 10
7.3287184931
 20
-7.4852451347
 30
0.0
 10
7.4059121641
 20
-7.4027381102
 30
0.0
 10
7.4467901558
 20
-7.3399318536
 30
0.0
 10
7.4719018178
 20
-7.2745368009
 30
0.0
 10
7.4775694285
 20
-7.2295260528
 30
0.0
 10
7.4775694274
 20
-7.2075892927
 30
0.0
  0
SPLINE
  5
562
100
AcDbEntity
  8
0
100
AcDbSpline
 62
7
  6
CONTINUOUS
 70
0
 71
3
 72
13
 73
9
 74
0
 42
0.0000001
 43
0.0000001
 44
0.0000000001
 40
0.0
 40
0.0
 40
0.0
 40
0.0
 40
0.2757437916
 40
0.5399073338
 40
0.6642459527
 40
0.7824353986
 40
0.8937175308
 40
1.0
 40
1.0
 40
1.0
 40
1.0
 10
5.8000135465
 20
-8.2113690053
 30
0.0
 10
5.8302346017
 20
-8.1849425536
 30
0.0
 10
5.8895274003
 20
-8.1333740093
 30
0.0
 10
5.9585365365
 20
-8.0652793053
 30
0.0
 10
6.004597568
 20
-8.0075280323
 30
0.0
 10
6.032231199
 20
-7.9638794049
 30
0.0
 10
6.0514610281
 20
-7.9186171991
 30
0.0
 10
6.0564869853
 20
-7.8868389742
 30
0.0
 10
6.0564869728
 20
-7.8713652842
 30
0.0
  0
SPLINE
  5
563
100
AcDbEntity
  8
0
100
AcDbSpline
 62
7
  6
CONTINUOUS
 70
0
 71
3
 72
10
 73
6
 74
0
 42
0.0000001
 43
0.0000001
 44
0.0000000001
 40
0.0
 40
0.0
 40
0.0
 40
0.0
 40
0.2498843271
 40
0.5004805609
 40
1.0
 40
1.0
 40
1.0
 40
1.0
 10
5.236382138
 20
-8.6949951653
 30
0.0
 10
5.282986944
 20
-8.6543153817
 30
0.0
 10
5.3772499506
 20
-8.573900125
 30
0.0
 10
5.5657826875
 20
-8.4134632375
 30
0.0
 10
5.7069242079
 20
-8.2927724657
 30
0.0
 10
5.8000135465
 20
-8.2113690053
 30
0.0
  0
SPLINE
  5
564
100
AcDbEntity
  8
0
100
AcDbSpline
 62
7
  6
CONTINUOUS
 70
0
 71
3
 72
11
 73
7
 74
0
 42
0.0000001
 43
0.0000001
 44
0.0000000001
 40
0.0
 40
0.0
 40
0.0
 40
0.0
 40
0.3020876317
 40
0.5670220992
 40
0.7946611912
 40
1.0
 40
1.0
 40
1.0
 40
1.0
 10
5.1878169905
 20
-7.5639574155
 30
0.0
 10
5.2082093664
 20
-7.5741536035
 30
0.0
 10
5.2452268205
 20
-7.5960412564
 30
0.0
 10
5.2907217463
 20
-7.6358636202
 30
0.0
 10
5.3199225213
 20
-7.6808247975
 30
0.0
 10
5.3265064605
 20
-7.7138182375
 30
0.0
 10
5.3265064606
 20
-7.7293157119
 30
0.0
  0
SPLINE
  5
565
100
AcDbEntity
  8
0
100
AcDbSpline
 62
7
  6
CONTINUOUS
 70
0
 71
3
 72
9
 73
5
 74
0
 42
0.0000001
 43
0.0000001
 44
0.0000000001
 40
0.0
 40
0.0
 40
0.0
 40
0.0
 40
0.5220560345
 40
1.0
 40
1.0
 40
1.0
 40
1.0
 10
6.0912559791
 20
-6.7761416515
 30
0.0
 10
6.1780874262
 20
-6.8069006182
 30
0.0
 10
6.3432840287
 20
-6.8697807962
 30
0.0
 10
6.4990629351
 20
-6.9540328593
 30
0.0
 10
6.5703755479
 20
-6.9990535578
 30
0.0
  0
SPLINE
  5
566
100
AcDbEntity
  8
0
100
AcDbSpline
 62
7
  6
CONTINUOUS
 70
0
 71
3
 72
11
 73
7
 74
0
 42
0.0000001
 43
0.0000001
 44
0.0000000001
 40
0.0
 40
0.0
 40
0.0
 40
0.0
 40
0.2903475262
 40
0.5523179786
 40
0.7860480828
 40
1.0
 40
1.0
 40
1.0
 40
1.0
 10
6.5703755479
 20
-6.9990535578
 30
0.0
 10
6.5881368648
 20
-7.0102671547
 30
0.0
 10
6.6205593158
 20
-7.0339361916
 30
0.0
 10
6.660216415
 20
-7.0751994607
 30
0.0
 10
6.6866969021
 20
-7.1198753743
 30
0.0
 10
6.6935450622
 20
-7.1524264594
 30
0.0
 10
6.693545066
 20
-7.1679046539
 30
0.0
  0
SPLINE
  5
567
100
AcDbEntity
  8
0
100
AcDbSpline
 62
7
  6
CONTINUOUS
 70
0
 71
3
 72
11
 73
7
 74
0
 42
0.0000001
 43
0.0000001
 44
0.0000000001
 40
0.0
 40
0.0
 40
0.0
 40
0.0
 40
0.2270323508
 40
0.4651771154
 40
0.7215595253
 40
1.0
 40
1.0
 40
1.0
 40
1.0
 10
3.7912127756
 20
0.8567241894
 30
0.0
 10
3.8668094105
 20
0.8899769494
 30
0.0
 10
4.0317605543
 20
0.9370570815
 30
0.0
 10
4.2965609051
 20
0.9431408142
 30
0.0
 10
4.5740757403
 20
0.8870929863
 30
0.0
 10
4.7552410983
 20
0.8131695098
 30
0.0
 10
4.8458353862
 20
0.7678723659
 30
0.0
  0
SPLINE
  5
568
100
AcDbEntity
  8
0
100
AcDbSpline
 62
7
  6
CONTINUOUS
 70
0
 71
3
 72
11
 73
7
 74
0
 42
0.0000001
 43
0.0000001
 44
0.0000000001
 40
0.0
 40
0.0
 40
0.0
 40
0.0
 40
0.2270323508
 40
0.4651771154
 40
0.7215595253
 40
1.0
 40
1.0
 40
1.0
 40
1.0
 10
22.1759890864
 20
-8.335663966
 30
0.0
 10
22.2515857213
 20
-8.302411206
 30
0.0
 10
22.4165368652
 20
-8.2553310739
 30
0.0
 10
22.6813372159
 20
-8.2492473412
 30
0.0
 10
22.9588520511
 20
-8.3052951691
 30
0.0
 10
23.1400174091
 20
-8.3792186456
 30
0.0
 10
23.2306116971
 20
-8.4245157896
 30
0.0
  0
SPLINE
  5
569
100
AcDbEntity
  8
0
100
AcDbSpline
 62
7
  6
CONTINUOUS
 70
0
 71
3
 72
11
 73
7
 74
0
 42
0.0000001
 43
0.0000001
 44
0.0000000001
 40
0.0
 40
0.0
 40
0.0
 40
0.0
 40
0.2802284107
 40
0.5397216112
 40
0.7786640096
 40
1.0
 40
1.0
 40
1.0
 40
1.0
 10
24.963023311
 20
-11.4124838358
 30
0.0
 10
24.963023311
 20
-11.5230604283
 30
0.0
 10
24.9494902336
 20
-11.7364127362
 30
0.0
 10
24.8836847033
 20
-12.0379393561
 30
0.0
 10
24.7742151307
 20
-12.3018149164
 30
0.0
 10
24.6698734083
 20
-12.4527674074
 30
0.0
 10
24.6116139567
 20
-12.517834732
 30
0.0
  0
SPLINE
  5
56A
100
AcDbEntity
  8
0
100
AcDbSpline
 62
7
  6
CONTINUOUS
 70
0
 71
3
 72
9
 73
5
 74
0
 42
0.0000001
 43
0.0000001
 44
0.0000000001
 40
0.0
 40
0.0
 40
0.0
 40
0.0
 40
0.2535354625
 40
1.0
 40
1.0
 40
1.0
 40
1.0
 10
24.6050226427
 20
-12.5251271361
 30
0.0
 10
24.5935805753
 20
-12.5376672286
 30
0.0
 10
24.5472558498
 20
-12.586020526
 30
0.0
 10
24.496081141
 20
-12.6297604744
 30
0.0
 10
24.4556116968
 20
-12.6590904965
 30
0.0
  0
SPLINE
  5
56B
100
AcDbEntity
  8
0
100
AcDbSpline
 62
7
  6
CONTINUOUS
 70
0
 71
3
 72
15
 73
11
 74
0
 42
0.0000001
 43
0.0000001
 44
0.0000000001
 40
0.0
 40
0.0
 40
0.0
 40
0.0
 40
0.1103207721
 40
0.2298809776
 40
0.3567647248
 40
0.4883338301
 40
0.6215371336
 40
0.7531869865
 40
0.8802253985
 40
1.0
 40
1.0
 40
1.0
 40
1.0
 10
23.2306116971
 20
-8.4245157896
 30
0.0
 10
23.3492058542
 20
-8.4838128681
 30
0.0
 10
23.5842684867
 20
-8.6322169781
 30
0.0
 10
23.9070774938
 20
-8.9165833527
 30
0.0
 10
24.2043138077
 20
-9.2619541938
 30
0.0
 10
24.4648602513
 20
-9.6553891563
 30
0.0
 10
24.6790906214
 20
-10.0822195871
 30
0.0
 10
24.8389800847
 20
-10.5265279528
 30
0.0
 10
24.9385393731
 20
-10.9715886562
 30
0.0
 10
24.963023311
 20
-11.2685291715
 30
0.0
 10
24.963023311
 20
-11.4124838358
 30
0.0
  0
SPLINE
  5
56C
100
AcDbEntity
  8
0
100
AcDbSpline
 62
7
  6
CONTINUOUS
 70
0
 71
3
 72
15
 73
11
 74
0
 42
0.0000001
 43
0.0000001
 44
0.0000000001
 40
0.0
 40
0.0
 40
0.0
 40
0.0
 40
0.1103207721
 40
0.2298809776
 40
0.3567647248
 40
0.4883338301
 40
0.6215371336
 40
0.7531869865
 40
0.8802253985
 40
1.0
 40
1.0
 40
1.0
 40
1.0
 10
4.8458353862
 20
0.7678723659
 30
0.0
 10
4.9644295433
 20
0.7085752873
 30
0.0
 10
5.1994921759
 20
0.5601711773
 30
0.0
 10
5.5223011829
 20
0.2758048027
 30
0.0
 10
5.8195374969
 20
-0.0695660384
 30
0.0
 10
6.0800839405
 20
-0.4630010009
 30
0.0
 10
6.2943143106
 20
-0.8898314317
 30
0.0
 10
6.4542037739
 20
-1.3341397973
 30
0.0
 10
6.5537630622
 20
-1.7792005007
 30
0.0
 10
6.5782470001
 20
-2.0761410161
 30
0.0
 10
6.5782470001
 20
-2.2200956804
 30
0.0
  0
SPLINE
  5
56D
100
AcDbEntity
  8
0
100
AcDbSpline
 62
7
  6
CONTINUOUS
 70
0
 71
3
 72
9
 73
5
 74
0
 42
0.0000001
 43
0.0000001
 44
0.0000000001
 40
0.0
 40
0.0
 40
0.0
 40
0.0
 40
0.2604186997
 40
1.0
 40
1.0
 40
1.0
 40
1.0
 10
6.5782470001
 20
-2.2200956804
 30
0.0
 10
6.5782470001
 20
-2.2626034611
 30
0.0
 10
6.5742175242
 20
-2.4257729276
 30
0.0
 10
6.5536553524
 20
-2.588797059
 30
0.0
 10
6.5270420207
 20
-2.7065478454
 30
0.0
  0
SPLINE
  5
56E
100
AcDbEntity
  8
0
100
AcDbSpline
 62
7
  6
CONTINUOUS
 70
0
 71
3
 72
9
 73
5
 74
0
 42
0.0000001
 43
0.0000001
 44
0.0000000001
 40
0.0
 40
0.0
 40
0.0
 40
0.0
 40
0.2609322439
 40
1.0
 40
1.0
 40
1.0
 40
1.0
 10
6.6265432915
 20
-2.2136252042
 30
0.0
 10
6.6265432915
 20
-2.2586880562
 30
0.0
 10
6.6220583574
 20
-2.4313154267
 30
0.0
 10
6.5992006323
 20
-2.6037943902
 30
0.0
 10
6.5694940237
 20
-2.7279258351
 30
0.0
  0
SPLINE
  5
56F
100
AcDbEntity
  8
0
100
AcDbSpline
 62
7
  6
CONTINUOUS
 70
0
 71
3
 72
17
 73
13
 74
0
 42
0.0000001
 43
0.0000001
 44
0.0000000001
 40
0.0
 40
0.0
 40
0.0
 40
0.0
 40
0.1323491298
 40
0.2742786726
 40
0.419328093
 40
0.5604509805
 40
0.6913023328
 40
0.8075545412
 40
0.859981989
 40
0.9089426337
 40
0.9552289514
 40
1.0
 40
1.0
 40
1.0
 40
1.0
 10
6.6265432915
 20
-2.2136252042
 30
0.0
 10
6.6265432915
 20
-2.0031820088
 30
0.0
 10
6.5748141854
 20
-1.5664036643
 30
0.0
 10
6.3743748236
 20
-0.9272166178
 30
0.0
 10
6.062528516
 20
-0.3184421749
 30
0.0
 10
5.6620214882
 20
0.2145251013
 30
0.0
 10
5.2023951113
 20
0.6324758512
 30
0.0
 10
4.7807453228
 20
0.8674982604
 30
0.0
 10
4.4461446258
 20
0.9614905804
 30
0.0
 10
4.2109892683
 20
0.9842408313
 30
0.0
 10
3.9879975282
 20
0.9606282717
 30
0.0
 10
3.8495523227
 20
0.9134208085
 30
0.0
 10
3.7852911875
 20
0.8827885129
 30
0.0
  0
SPLINE
  5
570
100
AcDbEntity
  8
0
100
AcDbSpline
 62
7
  6
CONTINUOUS
 70
0
 71
3
 72
17
 73
13
 74
0
 42
0.0000001
 43
0.0000001
 44
0.0000000001
 40
0.0
 40
0.0
 40
0.0
 40
0.0
 40
0.1323491298
 40
0.2742786726
 40
0.419328093
 40
0.5604509805
 40
0.6913023328
 40
0.8075545412
 40
0.859981989
 40
0.9089426337
 40
0.9552289514
 40
1.0
 40
1.0
 40
1.0
 40
1.0
 10
25.0113196023
 20
-11.4060133597
 30
0.0
 10
25.0113196023
 20
-11.1955701642
 30
0.0
 10
24.9595904963
 20
-10.7587918197
 30
0.0
 10
24.7591511344
 20
-10.1196047732
 30
0.0
 10
24.4473048269
 20
-9.5108303303
 30
0.0
 10
24.046797799
 20
-8.9778630542
 30
0.0
 10
23.5871714222
 20
-8.5599123042
 30
0.0
 10
23.1655216336
 20
-8.324889895
 30
0.0
 10
22.8309209367
 20
-8.2308975751
 30
0.0
 10
22.5957655792
 20
-8.2081473242
 30
0.0
 10
22.372773839
 20
-8.2317598837
 30
0.0
 10
22.2343286336
 20
-8.2789673469
 30
0.0
 10
22.1700674983
 20
-8.3095996425
 30
0.0
  0
SPLINE
  5
571
100
AcDbEntity
  8
0
100
AcDbSpline
 62
7
  6
CONTINUOUS
 70
0
 71
3
 72
11
 73
7
 74
0
 42
0.0000001
 43
0.0000001
 44
0.0000000001
 40
0.0
 40
0.0
 40
0.0
 40
0.0
 40
0.2808759879
 40
0.5405525318
 40
0.7791477862
 40
1.0
 40
1.0
 40
1.0
 40
1.0
 10
25.0113196023
 20
-11.4060133597
 30
0.0
 10
25.0113196023
 20
-11.5201664121
 30
0.0
 10
24.9970358245
 20
-11.7402690966
 30
0.0
 10
24.9275645296
 20
-12.0507398194
 30
0.0
 10
24.8119439254
 20
-12.3211553224
 30
0.0
 10
24.7017819549
 20
-12.4744760608
 30
0.0
 10
24.6404386103
 20
-12.5400012355
 30
0.0
  0
SPLINE
  5
572
100
AcDbEntity
  8
0
100
AcDbSpline
 62
7
  6
CONTINUOUS
 70
0
 71
3
 72
9
 73
5
 74
0
 42
0.0000001
 43
0.0000001
 44
0.0000000001
 40
0.0
 40
0.0
 40
0.0
 40
0.0
 40
0.5049971353
 40
1.0
 40
1.0
 40
1.0
 40
1.0
 10
24.6404386103
 20
-12.5400012355
 30
0.0
 10
24.601089102
 20
-12.5820332345
 30
0.0
 10
24.5160357337
 20
-12.6589275857
 30
0.0
 10
24.4185614336
 20
-12.7194335697
 30
0.0
 10
24.3680838024
 20
-12.7446756851
 30
0.0
  0
SPLINE
  5
573
100
AcDbEntity
  8
0
100
AcDbSpline
 62
250
  6
CONTINUOUS
 70
0
 71
3
 72
10
 73
6
 74
0
 42
0.0000001
 43
0.0000001
 44
0.0000000001
 40
0.0
 40
0.0
 40
0.0
 40
0.0
 40
0.5341357406
 40
0.7723438866
 40
1.0
 40
1.0
 40
1.0
 40
1.0
 10
12.5301524029
 20
-8.8817019053
 30
0.0
 10
12.5669837249
 20
-8.8632862443
 30
0.0
 10
12.6257366609
 20
-8.8442217164
 30
0.0
 10
12.7034486843
 20
-8.8481387628
 30
0.0
 10
12.7380612213
 20
-8.8596519127
 30
0.0
 10
12.7537541132
 20
-8.8675111803
 30
0.0
  0
SPLINE
  5
574
100
AcDbEntity
  8
0
100
AcDbSpline
 62
250
  6
CONTINUOUS
 70
0
 71
3
 72
11
 73
7
 74
0
 42
0.0000001
 43
0.0000001
 44
0.0000000001
 40
0.0
 40
0.0
 40
0.0
 40
0.0
 40
0.2250645182
 40
0.4762469172
 40
0.7400415918
 40
1.0
 40
1.0
 40
1.0
 40
1.0
 10
8.1923841561
 20
-11.0505860287
 30
0.0
 10
8.1519448212
 20
-11.0708056961
 30
0.0
 10
8.0733282405
 20
-11.1277577383
 30
0.0
 10
7.9755513033
 20
-11.2410359773
 30
0.0
 10
7.8984241741
 20
-11.3773319228
 30
0.0
 10
7.8647339656
 20
-11.4779026126
 30
0.0
 10
7.8536512228
 20
-11.5289353429
 30
0.0
  0
SPLINE
  5
575
100
AcDbEntity
  8
0
100
AcDbSpline
 62
250
  6
CONTINUOUS
 70
0
 71
3
 72
11
 73
7
 74
0
 42
0.0000001
 43
0.0000001
 44
0.0000000001
 40
0.0
 40
0.0
 40
0.0
 40
0.0
 40
0.225214214
 40
0.4767129835
 40
0.7405902093
 40
1.0
 40
1.0
 40
1.0
 40
1.0
 10
-10.1923921547
 20
-1.8581978732
 30
0.0
 10
-10.2333449741
 20
-1.8786742829
 30
0.0
 10
-10.3128960377
 20
-1.9365405532
 30
0.0
 10
-10.4114748942
 20
-2.0516710489
 30
0.0
 10
-10.4887360728
 20
-2.1900380824
 30
0.0
 10
-10.5219791598
 20
-2.2920293408
 30
0.0
 10
-10.5326354626
 20
-2.3436802185
 30
0.0
  0
SPLINE
  5
576
100
AcDbEntity
  8
0
100
AcDbSpline
 62
7
  6
CONTINUOUS
 70
0
 71
3
 72
10
 73
6
 74
0
 42
0.0000001
 43
0.0000001
 44
0.0000000001
 40
0.0
 40
0.0
 40
0.0
 40
0.0
 40
0.5194944411
 40
0.762301149
 40
1.0
 40
1.0
 40
1.0
 40
1.0
 10
-11.370198796
 20
-1.8166084431
 30
0.0
 10
-11.4403890932
 20
-1.7214534626
 30
0.0
 10
-11.526834254
 20
-1.5668674461
 30
0.0
 10
-11.5836796763
 20
-1.3455057167
 30
0.0
 10
-11.5915916302
 20
-1.2356857105
 30
0.0
 10
-11.5905223049
 20
-1.1815937463
 30
0.0
  0
SPLINE
  5
577
100
AcDbEntity
  8
0
100
AcDbSpline
 62
250
  6
CONTINUOUS
 70
0
 71
3
 72
10
 73
6
 74
0
 42
0.0000001
 43
0.0000001
 44
0.0000000001
 40
0.0
 40
0.0
 40
0.0
 40
0.0
 40
0.5341357405
 40
0.7723438865
 40
1.0
 40
1.0
 40
1.0
 40
1.0
 10
-5.854623908
 20
0.3106862502
 30
0.0
 10
-5.817792586
 20
0.3291019112
 30
0.0
 10
-5.75903965
 20
0.348166439
 30
0.0
 10
-5.6813276266
 20
0.3442493926
 30
0.0
 10
-5.6467150895
 20
0.3327362427
 30
0.0
 10
-5.6310221977
 20
0.3248769751
 30
0.0
  0
SPLINE
  5
578
100
AcDbEntity
  8
CURVE
100
AcDbSpline
 62
250
  6
CONTINUOUS
 70
0
 71
3
 72
9
 73
5
 74
0
 42
0.0000001
 43
0.0000001
 44
0.0000000001
 40
0.0
 40
0.0
 40
0.0
 40
0.0
 40
0.5509713234
 40
1.0
 40
1.0
 40
1.0
 40
1.0
 10
-11.5906972214
 20
-1.1992113998
 30
0.0
 10
-11.5907030108
 20
-1.3159451498
 30
0.0
 10
-11.5489630759
 20
-1.5278186533
 30
0.0
 10
-11.4329293712
 20
-1.7322995955
 30
0.0
 10
-11.3665611841
 20
-1.8214610826
 30
0.0
  0
SPLINE
  5
579
100
AcDbEntity
  8
CURVE
100
AcDbSpline
 62
250
  6
CONTINUOUS
 70
0
 71
3
 72
9
 73
5
 74
0
 42
0.0000001
 43
0.0000001
 44
0.0000000001
 40
0.0
 40
0.0
 40
0.0
 40
0.0
 40
0.4499131626
 40
1.0
 40
1.0
 40
1.0
 40
1.0
 10
13.7036394257
 20
-11.0148145942
 30
0.0
 10
13.7703774028
 20
-10.9253600202
 30
0.0
 10
13.8866235828
 20
-10.7205384835
 30
0.0
 10
13.9284516802
 20
-10.5083333052
 30
0.0
 10
13.9284574696
 20
-10.3915995552
 30
0.0
  0
SPLINE
  5
57A
100
AcDbEntity
  8
0
100
AcDbSpline
 62
7
  6
CONTINUOUS
 70
0
 71
3
 72
9
 73
5
 74
0
 42
0.0000001
 43
0.0000001
 44
0.0000000001
 40
0.0
 40
0.0
 40
0.0
 40
0.0
 40
0.2553908048
 40
1.0
 40
1.0
 40
1.0
 40
1.0
 10
14.8443252722
 20
-11.7710159856
 30
0.0
 10
15.1541153124
 20
-11.6161209655
 30
0.0
 10
16.3615989818
 20
-10.9986781479
 30
0.0
 10
17.5464675028
 20
-10.3367191689
 30
0.0
 10
18.4122458969
 20
-9.8169385901
 30
0.0
  0
LINE
  5
57B
100
AcDbEntity
  8
0
100
AcDbLine
 62
7
  6
CONTINUOUS
 10
18.4122458969
 20
-9.8169385901
 11
18.4284903633
 21
-9.8071816994
  0
SPLINE
  5
57C
100
AcDbEntity
  8
0
100
AcDbSpline
 62
7
  6
CONTINUOUS
 70
0
 71
3
 72
11
 73
7
 74
0
 42
0.0000001
 43
0.0000001
 44
0.0000000001
 40
0.0
 40
0.0
 40
0.0
 40
0.0
 40
0.2525752133
 40
0.5032982962
 40
0.7515145903
 40
1.0
 40
1.0
 40
1.0
 40
1.0
 10
20.6010055365
 20
-10.1558803695
 30
0.0
 10
20.6010055365
 20
-10.0891673956
 30
0.0
 10
20.5792339681
 20
-9.9552795733
 30
0.0
 10
20.48693866
 20
-9.7762247016
 30
0.0
 10
20.3488973271
 20
-9.6318489028
 30
0.0
 10
20.2368694228
 20
-9.5612419276
 30
0.0
 10
20.1781657249
 20
-9.5318900787
 30
0.0
  0
SPLINE
  5
57D
100
AcDbEntity
  8
0
100
AcDbSpline
 62
7
  6
CONTINUOUS
 70
0
 71
3
 72
9
 73
5
 74
0
 42
0.0000001
 43
0.0000001
 44
0.0000000001
 40
0.0
 40
0.0
 40
0.0
 40
0.0
 40
0.2473669502
 40
1.0
 40
1.0
 40
1.0
 40
1.0
 10
-7.8649224204
 20
3.9846958393
 30
0.0
 10
-7.8552710706
 20
3.9885909693
 30
0.0
 10
-7.8160289708
 20
4.003774294
 30
0.0
 10
-7.7759434777
 20
4.016759151
 30
0.0
 10
-7.7454692079
 20
4.0253656893
 30
0.0
  0
SPLINE
  5
57E
100
AcDbEntity
  8
0
100
AcDbSpline
 62
7
  6
CONTINUOUS
 70
0
 71
3
 72
9
 73
5
 74
0
 42
0.0000001
 43
0.0000001
 44
0.0000000001
 40
0.0
 40
0.0
 40
0.0
 40
0.0
 40
0.5007444841
 40
1.0
 40
1.0
 40
1.0
 40
1.0
 10
-7.7454692079
 20
4.0253656893
 30
0.0
 10
-7.6176999889
 20
4.0614502513
 30
0.0
 10
-7.3507358271
 20
4.0937373835
 30
0.0
 10
-7.0842419504
 20
4.0568408928
 30
0.0
 10
-6.9576314547
 20
4.018212164
 30
0.0
  0
SPLINE
  5
57F
100
AcDbEntity
  8
0
100
AcDbSpline
 62
7
  6
CONTINUOUS
 70
0
 71
3
 72
9
 73
5
 74
0
 42
0.0000001
 43
0.0000001
 44
0.0000000001
 40
0.0
 40
0.0
 40
0.0
 40
0.0
 40
0.2532524745
 40
1.0
 40
1.0
 40
1.0
 40
1.0
 10
-6.9576314547
 20
4.018212164
 30
0.0
 10
-6.942768373
 20
4.0136774534
 30
0.0
 10
-6.88443366
 20
3.9946463491
 30
0.0
 10
-6.8275729036
 20
3.9709792356
 30
0.0
 10
-6.7865901634
 20
3.9504878655
 30
0.0
  0
SPLINE
  5
580
100
AcDbEntity
  8
0
100
AcDbSpline
 62
7
  6
CONTINUOUS
 70
0
 71
3
 72
9
 73
5
 74
0
 42
0.0000001
 43
0.0000001
 44
0.0000000001
 40
0.0
 40
0.0
 40
0.0
 40
0.0
 40
0.2552505606
 40
1.0
 40
1.0
 40
1.0
 40
1.0
 10
-7.8649224204
 20
3.9846958393
 30
0.0
 10
-8.2595584506
 20
3.8254270642
 30
0.0
 10
-9.7999539739
 20
3.1875339259
 30
0.0
 10
-11.317077365
 20
2.4930251399
 30
0.0
 10
-12.4294666222
 20
1.9413503825
 30
0.0
  0
SPLINE
  5
581
100
AcDbEntity
  8
0
100
AcDbSpline
 62
250
  6
CONTINUOUS
 70
0
 71
3
 72
11
 73
7
 74
0
 42
0.0000001
 43
0.0000001
 44
0.0000000001
 40
0.0
 40
0.0
 40
0.0
 40
0.0
 40
0.2727944263
 40
0.5303978807
 40
0.7725568667
 40
1.0
 40
1.0
 40
1.0
 40
1.0
 10
16.1171174784
 20
-35.6168929101
 30
0.0
 10
16.1171174784
 20
-37.459586682
 30
0.0
 10
15.9415066972
 20
-41.0458340385
 30
0.0
 10
15.1032491645
 20
-46.2088659529
 30
0.0
 10
13.7081147929
 20
-50.9331891003
 30
0.0
 10
12.3773134789
 20
-53.8289913409
 30
0.0
 10
11.621459238
 20
-55.166548587
 30
0.0
  0
SPLINE
  5
582
100
AcDbEntity
  8
0
100
AcDbSpline
 62
250
  6
CONTINUOUS
 70
0
 71
3
 72
9
 73
5
 74
0
 42
0.0000001
 43
0.0000001
 44
0.0000000001
 40
0.0
 40
0.0
 40
0.0
 40
0.0
 40
0.2472509093
 40
1.0
 40
1.0
 40
1.0
 40
1.0
 10
16.0692089716
 20
-52.5649868264
 30
0.0
 10
15.7178191016
 20
-52.803781822
 30
0.0
 10
14.2801242969
 20
-53.7451269544
 30
0.0
 10
12.7783527919
 20
-54.58810181
 30
0.0
 10
11.621459238
 20
-55.166548587
 30
0.0
  0
SPLINE
  5
583
100
AcDbEntity
  8
0
100
AcDbSpline
 62
250
  6
CONTINUOUS
 70
0
 71
3
 72
9
 73
5
 74
0
 42
0.0000001
 43
0.0000001
 44
0.0000000001
 40
0.0
 40
0.0
 40
0.0
 40
0.0
 40
0.5145362928
 40
1.0
 40
1.0
 40
1.0
 40
1.0
 10
16.0692089716
 20
-52.5649868264
 30
0.0
 10
15.9923512988
 20
-52.6978977263
 30
0.0
 10
15.8191396549
 20
-52.9435842314
 30
0.0
 10
15.5964324492
 20
-53.1466403601
 30
0.0
 10
15.4783991556
 20
-53.2306165858
 30
0.0
  0
SPLINE
  5
584
100
AcDbEntity
  8
0
100
AcDbSpline
 62
7
  6
CONTINUOUS
 70
0
 71
3
 72
10
 73
6
 74
0
 42
0.0000001
 43
0.0000001
 44
0.0000000001
 40
0.0
 40
0.0
 40
0.0
 40
0.0
 40
0.5135895889
 40
0.7586863698
 40
1.0
 40
1.0
 40
1.0
 40
1.0
 10
11.0982002199
 20
-55.428178096
 30
0.0
 10
10.9935282446
 20
-55.6134052886
 30
0.0
 10
10.8029719564
 20
-55.8702938247
 30
0.0
 10
10.4856863492
 20
-56.1385942523
 30
0.0
 10
10.3123859794
 20
-56.243456214
 30
0.0
 10
10.2229761941
 20
-56.2881654575
 30
0.0
  0
SPLINE
  5
585
100
AcDbEntity
  8
0
100
AcDbSpline
 62
250
  6
CONTINUOUS
 70
0
 71
3
 72
10
 73
6
 74
0
 42
0.0000001
 43
0.0000001
 44
0.0000000001
 40
0.0
 40
0.0
 40
0.0
 40
0.0
 40
0.5135654319
 40
0.7587014716
 40
1.0
 40
1.0
 40
1.0
 40
1.0
 10
11.621459238
 20
-55.166548587
 30
0.0
 10
11.5167801131
 20
-55.3517884314
 30
0.0
 10
11.326190136
 20
-55.6087071209
 30
0.0
 10
11.0088603356
 20
-55.8770277522
 30
0.0
 10
10.8355323861
 20
-55.9819105926
 30
0.0
 10
10.7461126944
 20
-56.0266118156
 30
0.0
  0
SPLINE
  5
586
100
AcDbEntity
  8
0
100
AcDbSpline
 62
250
  6
CONTINUOUS
 70
0
 71
3
 72
9
 73
5
 74
0
 42
0.0000001
 43
0.0000001
 44
0.0000000001
 40
0.0
 40
0.0
 40
0.0
 40
0.0
 40
0.2554170265
 40
1.0
 40
1.0
 40
1.0
 40
1.0
 10
-7.8279554685
 20
3.8932415938
 30
0.0
 10
-8.2218244939
 20
3.7332231805
 30
0.0
 10
-9.7581221685
 20
3.0926835197
 30
0.0
 10
-11.2707905728
 20
2.3950371676
 30
0.0
 10
-12.3792858035
 20
1.8407895522
 30
0.0
  0
SPLINE
  5
587
100
AcDbEntity
  8
0
100
AcDbSpline
 62
250
  6
CONTINUOUS
 70
0
 71
3
 72
11
 73
7
 74
0
 42
0.0000001
 43
0.0000001
 44
0.0000000001
 40
0.0
 40
0.0
 40
0.0
 40
0.0
 40
0.2320461719
 40
0.4927855348
 40
0.7573670497
 40
1.0
 40
1.0
 40
1.0
 40
1.0
 10
-7.0101969612
 20
3.9362869719
 30
0.0
 10
-7.0574926457
 20
3.9599348142
 30
0.0
 10
-7.1656306616
 20
3.9947793887
 30
0.0
 10
-7.3379269175
 20
4.0144385063
 30
0.0
 10
-7.5134355997
 20
4.003573434
 30
0.0
 10
-7.6265229263
 20
3.974738181
 30
0.0
 10
-7.6777954198
 20
3.9540454246
 30
0.0
  0
SPLINE
  5
588
100
AcDbEntity
  8
0
100
AcDbSpline
 62
250
  6
CONTINUOUS
 70
0
 71
3
 72
15
 73
11
 74
0
 42
0.0000001
 43
0.0000001
 44
0.0000000001
 40
0.0
 40
0.0
 40
0.0
 40
0.0
 40
0.1435860968
 40
0.2691775717
 40
0.3800717815
 40
0.4839549794
 40
0.5907861555
 40
0.7094553139
 40
0.8454358385
 40
1.0
 40
1.0
 40
1.0
 40
1.0
 10
19.9900758326
 20
-9.8798902016
 30
0.0
 10
20.0080140263
 20
-9.8687783915
 30
0.0
 10
20.0401420373
 20
-9.8452535319
 30
0.0
 10
20.0775907924
 20
-9.8030867699
 30
0.0
 10
20.0993127124
 20
-9.757041937
 30
0.0
 10
20.1031781207
 20
-9.7088125426
 30
0.0
 10
20.0887387011
 20
-9.6615526284
 30
0.0
 10
20.0576490498
 20
-9.6176313663
 30
0.0
 10
20.0118586517
 20
-9.5780087321
 30
0.0
 10
19.9748751943
 20
-9.5562491058
 30
0.0
 10
19.9545589271
 20
-9.5460909723
 30
0.0
  0
SPLINE
  5
589
100
AcDbEntity
  8
0
100
AcDbSpline
 62
250
  6
CONTINUOUS
 70
0
 71
3
 72
9
 73
5
 74
0
 42
0.0000001
 43
0.0000001
 44
0.0000000001
 40
0.0
 40
0.0
 40
0.0
 40
0.0
 40
0.2563541084
 40
1.0
 40
1.0
 40
1.0
 40
1.0
 10
15.7635640878
 20
-12.2306353934
 30
0.0
 10
16.1332698388
 20
-12.0457825179
 30
0.0
 10
17.5677614021
 20
-11.3095193452
 30
0.0
 10
18.9707493345
 20
-10.5113117756
 30
0.0
 10
19.9900758326
 20
-9.8798902016
 30
0.0
  0
SPLINE
  5
58A
100
AcDbEntity
  8
0
100
AcDbSpline
 62
250
  6
CONTINUOUS
 70
0
 71
3
 72
10
 73
6
 74
0
 42
0.0000001
 43
0.0000001
 44
0.0000000001
 40
0.0
 40
0.0
 40
0.0
 40
0.0
 40
0.5357616347
 40
0.7744413666
 40
1.0
 40
1.0
 40
1.0
 40
1.0
 10
20.2559098147
 20
-36.8920837955
 30
0.0
 10
20.3167878363
 20
-36.855976901
 30
0.0
 10
20.3988492636
 20
-36.7879408972
 30
0.0
 10
20.4619971941
 20
-36.6704003742
 30
0.0
 10
20.4755358855
 20
-36.6095593116
 30
0.0
 10
20.4775905558
 20
-36.5798313597
 30
0.0
  0
SPLINE
  5
58B
100
AcDbEntity
  8
0
100
AcDbSpline
 62
250
  6
CONTINUOUS
 70
0
 71
3
 72
11
 73
7
 74
0
 42
0.0000001
 43
0.0000001
 44
0.0000000001
 40
0.0
 40
0.0
 40
0.0
 40
0.0
 40
0.2948079607
 40
0.5550331887
 40
0.7859989576
 40
1.0
 40
1.0
 40
1.0
 40
1.0
 10
20.3791461286
 20
-33.246393557
 30
0.0
 10
20.4125987951
 20
-33.2256713101
 30
0.0
 10
20.4729472291
 20
-33.1819832363
 30
0.0
 10
20.545001171
 20
-33.1045660858
 30
0.0
 10
20.5903967749
 20
-33.0206945122
 30
0.0
 10
20.6009921845
 20
-32.9609132898
 30
0.0
 10
20.6010003863
 20
-32.9323484886
 30
0.0
  0
SPLINE
  5
58C
100
AcDbEntity
  8
0
100
AcDbSpline
 62
250
  6
CONTINUOUS
 70
0
 71
3
 72
11
 73
7
 74
0
 42
0.0000001
 43
0.0000001
 44
0.0000000001
 40
0.0
 40
0.0
 40
0.0
 40
0.0
 40
0.2948079607
 40
0.5550331887
 40
0.7859989576
 40
1.0
 40
1.0
 40
1.0
 40
1.0
 10
20.3791461286
 20
-10.4699254375
 30
0.0
 10
20.4125987952
 20
-10.4492031906
 30
0.0
 10
20.4729472291
 20
-10.4055151168
 30
0.0
 10
20.545001171
 20
-10.3280979662
 30
0.0
 10
20.5903967749
 20
-10.2442263926
 30
0.0
 10
20.6009921845
 20
-10.1844451703
 30
0.0
 10
20.6010003863
 20
-10.1558803691
 30
0.0
  0
SPLINE
  5
58D
100
AcDbEntity
  8
0
100
AcDbSpline
 62
250
  6
CONTINUOUS
 70
0
 71
3
 72
10
 73
6
 74
0
 42
0.0000001
 43
0.0000001
 44
0.0000000001
 40
0.0
 40
0.0
 40
0.0
 40
0.0
 40
0.2277035462
 40
0.4658623024
 40
1.0
 40
1.0
 40
1.0
 40
1.0
 10
20.1781626741
 20
-9.5318961812
 30
0.0
 10
20.1624599274
 20
-9.5240485029
 30
0.0
 10
20.1278543317
 20
-9.5125235348
 30
0.0
 10
20.0501387727
 20
-9.5086188566
 30
0.0
 10
19.9913903239
 20
-9.5276752739
 30
0.0
 10
19.9545589271
 20
-9.5460909723
 30
0.0
  0
SPLINE
  5
58E
100
AcDbEntity
  8
0
100
AcDbSpline
 62
250
  6
CONTINUOUS
 70
0
 71
3
 72
10
 73
6
 74
0
 42
0.0000001
 43
0.0000001
 44
0.0000000001
 40
0.0
 40
0.0
 40
0.0
 40
0.0
 40
0.2277035472
 40
0.4658623038
 40
1.0
 40
1.0
 40
1.0
 40
1.0
 10
-6.7865932173
 20
3.9504817645
 30
0.0
 10
-6.802295964
 20
3.9583294424
 30
0.0
 10
-6.8369015594
 20
3.9698544099
 30
0.0
 10
-6.9146171174
 20
3.973759087
 30
0.0
 10
-6.973365565
 20
3.95470267
 30
0.0
 10
-7.0101969612
 20
3.9362869719
 30
0.0
  0
SPLINE
  5
58F
100
AcDbEntity
  8
0
100
AcDbSpline
 62
250
  6
CONTINUOUS
 70
0
 71
3
 72
10
 73
6
 74
0
 42
0.0000001
 43
0.0000001
 44
0.0000000001
 40
0.0
 40
0.0
 40
0.0
 40
0.0
 40
0.2228283902
 40
0.4591728254
 40
1.0
 40
1.0
 40
1.0
 40
1.0
 10
-7.8577050791
 20
3.9873852464
 30
0.0
 10
-7.8444802943
 20
3.9919415414
 30
0.0
 10
-7.8157331094
 20
3.9974157345
 30
0.0
 10
-7.7526020547
 20
3.9925653254
 30
0.0
 10
-7.7066562879
 20
3.971923283
 30
0.0
 10
-7.6777954198
 20
3.9540454246
 30
0.0
  0
SPLINE
  5
590
100
AcDbEntity
  8
0
100
AcDbSpline
 62
250
  6
CONTINUOUS
 70
0
 71
3
 72
11
 73
7
 74
0
 42
0.0000001
 43
0.0000001
 44
0.0000000001
 40
0.0
 40
0.0
 40
0.0
 40
0.0
 40
0.243198152
 40
0.4390664752
 40
0.6367353159
 40
1.0
 40
1.0
 40
1.0
 40
1.0
 10
20.3791461275
 20
-10.4699254382
 30
0.0
 10
20.3791461275
 20
-10.4098837447
 30
0.0
 10
20.3592189811
 20
-10.3011568938
 30
0.0
 10
20.2946534862
 20
-10.1567919171
 30
0.0
 10
20.1868034625
 20
-10.0037365342
 30
0.0
 10
20.0732423252
 20
-9.9134548647
 30
0.0
 10
19.9900758326
 20
-9.8798902016
 30
0.0
  0
SPLINE
  5
591
100
AcDbEntity
  8
0
100
AcDbSpline
 62
250
  6
CONTINUOUS
 70
0
 71
3
 72
10
 73
6
 74
0
 42
0.0000001
 43
0.0000001
 44
0.0000000001
 40
0.0
 40
0.0
 40
0.0
 40
0.0
 40
0.2277035462
 40
0.4658623024
 40
1.0
 40
1.0
 40
1.0
 40
1.0
 10
-12.6028895505
 20
1.8549843432
 30
0.0
 10
-12.5871868037
 20
1.8628320215
 30
0.0
 10
-12.5525812081
 20
1.8743569897
 30
0.0
 10
-12.474865649
 20
1.8782616679
 30
0.0
 10
-12.4161172003
 20
1.8592052506
 30
0.0
 10
-12.3792858035
 20
1.8407895522
 30
0.0
  0
SPLINE
  5
592
100
AcDbEntity
  8
0
100
AcDbSpline
 62
250
  6
CONTINUOUS
 70
0
 71
3
 72
11
 73
7
 74
0
 42
0.0000001
 43
0.0000001
 44
0.0000000001
 40
0.0
 40
0.0
 40
0.0
 40
0.0
 40
0.2468124806
 40
0.5117852459
 40
0.7703059488
 40
1.0
 40
1.0
 40
1.0
 40
1.0
 10
16.1171174784
 20
-12.8404247906
 30
0.0
 10
16.1171174784
 20
-12.7800290169
 30
0.0
 10
16.096274796
 20
-12.6545783886
 30
0.0
 10
16.0208068599
 20
-12.4801130096
 30
0.0
 10
15.909891902
 20
-12.3309220085
 30
0.0
 10
15.813837015
 20
-12.255771857
 30
0.0
 10
15.7635640878
 20
-12.2306353934
 30
0.0
  0
SPLINE
  5
593
100
AcDbEntity
  8
0
100
AcDbSpline
 62
250
  6
CONTINUOUS
 70
0
 71
3
 72
9
 73
5
 74
0
 42
0.0000001
 43
0.0000001
 44
0.0000000001
 40
0.0
 40
0.0
 40
0.0
 40
0.0
 40
0.2563541087
 40
1.0
 40
1.0
 40
1.0
 40
1.0
 10
16.1171174784
 20
-12.8404247906
 30
0.0
 10
16.4899300008
 20
-12.6540185294
 30
0.0
 10
17.936476115
 20
-11.911568271
 30
0.0
 10
19.351253862
 20
-11.1066530749
 30
0.0
 10
20.3791461286
 20
-10.4699254375
 30
0.0
  0
SPLINE
  5
594
100
AcDbEntity
  8
0
100
AcDbSpline
 62
250
  6
CONTINUOUS
 70
0
 71
3
 72
9
 73
5
 74
0
 42
0.0000001
 43
0.0000001
 44
0.0000000001
 40
0.0
 40
0.0
 40
0.0
 40
0.0
 40
0.5062998749
 40
1.0
 40
1.0
 40
1.0
 40
1.0
 10
16.0691765094
 20
-52.5650392143
 30
0.0
 10
16.1035758453
 20
-52.5421716866
 30
0.0
 10
16.166996756
 20
-52.4896576454
 30
0.0
 10
16.2167116359
 20
-52.4238854266
 30
0.0
 10
16.2369921058
 20
-52.3890849285
 30
0.0
  0
SPLINE
  5
595
100
AcDbEntity
  8
0
100
AcDbSpline
 62
250
  6
CONTINUOUS
 70
0
 71
3
 72
9
 73
5
 74
0
 42
0.0000001
 43
0.0000001
 44
0.0000000001
 40
0.0
 40
0.0
 40
0.0
 40
0.0
 40
0.5207727806
 40
1.0
 40
1.0
 40
1.0
 40
1.0
 10
19.1906776836
 20
-44.4258840796
 30
0.0
 10
19.2447679161
 20
-44.3892450318
 30
0.0
 10
19.3397387928
 20
-44.3030905201
 30
0.0
 10
19.3954428533
 20
-44.1861792985
 30
0.0
 10
19.4090793747
 20
-44.1276269249
 30
0.0
  0
SPLINE
  5
596
100
AcDbEntity
  8
0
100
AcDbSpline
 62
250
  6
CONTINUOUS
 70
0
 71
3
 72
10
 73
6
 74
0
 42
0.0000001
 43
0.0000001
 44
0.0000000001
 40
0.0
 40
0.0
 40
0.0
 40
0.0
 40
0.2595793628
 40
0.5126327598
 40
1.0
 40
1.0
 40
1.0
 40
1.0
 10
20.2556847731
 20
-36.8953490698
 30
0.0
 10
20.2130333526
 20
-37.5526479492
 30
0.0
 10
20.1066796382
 20
-38.8494803846
 30
0.0
 10
19.8062023723
 20
-41.3693653391
 30
0.0
 10
19.4713489909
 20
-43.2214630321
 30
0.0
 10
19.1906776872
 20
-44.4258840821
 30
0.0
  0
SPLINE
  5
597
100
AcDbEntity
  8
0
100
AcDbSpline
 62
250
  6
CONTINUOUS
 70
0
 71
3
 72
13
 73
9
 74
0
 42
0.0000001
 43
0.0000001
 44
0.0000000001
 40
0.0
 40
0.0
 40
0.0
 40
0.0
 40
0.2591233573
 40
0.6362793397
 40
0.8198077181
 40
0.9103207967
 40
0.9552876564
 40
1.0
 40
1.0
 40
1.0
 40
1.0
 10
19.1906776872
 20
-44.4258840821
 30
0.0
 10
19.0254218109
 20
-45.1350278435
 30
0.0
 10
18.5644204117
 20
-46.8637851403
 30
0.0
 10
17.788735743
 20
-49.0377709577
 30
0.0
 10
17.0393661223
 20
-50.7080063606
 30
0.0
 10
16.6398919639
 20
-51.5106327806
 30
0.0
 10
16.4046463032
 20
-51.9590257131
 30
0.0
 10
16.2849527681
 20
-52.1807987616
 30
0.0
 10
16.2243070512
 20
-52.2908363472
 30
0.0
  0
SPLINE
  5
598
100
AcDbEntity
  8
0
100
AcDbSpline
 62
250
  6
CONTINUOUS
 70
0
 71
3
 72
9
 73
5
 74
0
 42
0.0000001
 43
0.0000001
 44
0.0000000001
 40
0.0
 40
0.0
 40
0.0
 40
0.0
 40
0.2436602581
 40
1.0
 40
1.0
 40
1.0
 40
1.0
 10
20.3791461286
 20
-33.246393557
 30
0.0
 10
20.0423485489
 20
-33.4550227433
 30
0.0
 10
18.6496145545
 20
-34.2942574777
 30
0.0
 10
17.2170599615
 20
-35.0669216685
 30
0.0
 10
16.1171174784
 20
-35.6168929101
 30
0.0
  0
LINE
  5
599
100
AcDbEntity
  8
0
100
AcDbLine
 62
7
  6
CONTINUOUS
 10
-7.5323784155
 20
3.17325269
 11
-7.5428926271
 21
3.1688772487
  0
SPLINE
  5
59A
100
AcDbEntity
  8
0
100
AcDbSpline
 62
7
  6
CONTINUOUS
 70
0
 71
3
 72
11
 73
7
 74
0
 42
0.0000001
 43
0.0000001
 44
0.0000000001
 40
0.0
 40
0.0
 40
0.0
 40
0.0
 40
0.2727944263
 40
0.5303978807
 40
0.7725568667
 40
1.0
 40
1.0
 40
1.0
 40
1.0
 10
15.5938584603
 20
-35.8785224192
 30
0.0
 10
15.5938584603
 20
-37.721216191
 30
0.0
 10
15.4182476791
 20
-41.3074635475
 30
0.0
 10
14.5799901464
 20
-46.470495462
 30
0.0
 10
13.1848557748
 20
-51.1948186093
 30
0.0
 10
11.8540544609
 20
-54.0906208499
 30
0.0
 10
11.0982002199
 20
-55.428178096
 30
0.0
  0
SPLINE
  5
59B
100
AcDbEntity
  8
0
100
AcDbSpline
 62
7
  6
CONTINUOUS
 70
0
 71
3
 72
9
 73
5
 74
0
 42
0.0000001
 43
0.0000001
 44
0.0000000001
 40
0.0
 40
0.0
 40
0.0
 40
0.0
 40
0.2623579093
 40
1.0
 40
1.0
 40
1.0
 40
1.0
 10
15.5231477822
 20
-12.8068913394
 30
0.0
 10
15.5344624821
 20
-12.831025517
 30
0.0
 10
15.5730006954
 20
-12.9249728902
 30
0.0
 10
15.5938584603
 20
-13.0271118732
 30
0.0
 10
15.5938584603
 20
-13.1020542996
 30
0.0
  0
SPLINE
  5
59C
100
AcDbEntity
  8
0
100
AcDbSpline
 62
7
  6
CONTINUOUS
 70
0
 71
3
 72
11
 73
7
 74
0
 42
0.0000001
 43
0.0000001
 44
0.0000000001
 40
0.0
 40
0.0
 40
0.0
 40
0.0
 40
0.2006327742
 40
0.4258845019
 40
0.6906441732
 40
1.0
 40
1.0
 40
1.0
 40
1.0
 10
-5.4760615213
 20
-34.4367723129
 30
0.0
 10
-5.4066285737
 20
-34.4020558391
 30
0.0
 10
-5.2476396344
 20
-34.349879735
 30
0.0
 10
-4.9778667018
 20
-34.3385369958
 30
0.0
 10
-4.6720084453
 20
-34.3981744915
 30
0.0
 10
-4.4650862472
 20
-34.4826492108
 30
0.0
 10
-4.3580275327
 20
-34.5361785681
 30
0.0
  0
SPLINE
  5
59D
100
AcDbEntity
  8
0
100
AcDbSpline
 62
7
  6
CONTINUOUS
 70
0
 71
3
 72
9
 73
5
 74
0
 42
0.0000001
 43
0.0000001
 44
0.0000000001
 40
0.0
 40
0.0
 40
0.0
 40
0.0
 40
0.4720848511
 40
1.0
 40
1.0
 40
1.0
 40
1.0
 10
-4.3580275327
 20
-34.5361785681
 30
0.0
 10
-4.2136261384
 20
-34.6083792652
 30
0.0
 10
-3.9232187854
 20
-34.7928749016
 30
0.0
 10
-3.6661417238
 20
-35.0203589782
 30
0.0
 10
-3.5390825231
 20
-35.1486173233
 30
0.0
  0
SPLINE
  5
59E
100
AcDbEntity
  8
0
100
AcDbSpline
 62
7
  6
CONTINUOUS
 70
0
 71
3
 72
18
 73
14
 74
0
 42
0.0000001
 43
0.0000001
 44
0.0000000001
 40
0.0
 40
0.0
 40
0.0
 40
0.0
 40
0.1475730651
 40
0.3018680672
 40
0.4554813427
 40
0.6010484903
 40
0.7317025149
 40
0.789696837
 40
0.8420404117
 40
0.888547717
 40
0.9294905946
 40
0.9660892535
 40
1.0
 40
1.0
 40
1.0
 40
1.0
 10
-3.5234285304
 20
-35.164505731
 30
0.0
 10
-3.3442905127
 20
-35.3473212553
 30
0.0
 10
-3.012045116
 20
-35.7557669936
 30
0.0
 10
-2.6141925304
 20
-36.4415647361
 30
0.0
 10
-2.3259696967
 20
-37.1768932342
 30
0.0
 10
-2.166905788
 20
-37.9085410803
 30
0.0
 10
-2.1473695188
 20
-38.4924573782
 30
0.0
 10
-2.2064465039
 20
-38.9072102378
 30
0.0
 10
-2.2795154271
 20
-39.1701698766
 30
0.0
 10
-2.3787579715
 20
-39.3924957047
 30
0.0
 10
-2.4990816094
 20
-39.5723129408
 30
0.0
 10
-2.6365364604
 20
-39.7100484329
 30
0.0
 10
-2.7401739224
 20
-39.7770324459
 30
0.0
 10
-2.7927799483
 20
-39.8033354589
 30
0.0
  0
SPLINE
  5
59F
100
AcDbEntity
  8
0
100
AcDbSpline
 62
7
  6
CONTINUOUS
 70
0
 71
3
 72
11
 73
7
 74
0
 42
0.0000001
 43
0.0000001
 44
0.0000000001
 40
0.0
 40
0.0
 40
0.0
 40
0.0
 40
0.2702183265
 40
0.5273298438
 40
0.7704519195
 40
1.0
 40
1.0
 40
1.0
 40
1.0
 10
-1.4378174331
 20
-56.8201344464
 30
0.0
 10
-1.6673587153
 20
-56.7609299472
 30
0.0
 10
-2.1109956881
 20
-56.6275367614
 30
0.0
 10
-2.7390275979
 20
-56.3749357624
 30
0.0
 10
-3.3062654343
 20
-56.0754832266
 30
0.0
 10
-3.6480259999
 20
-55.8380677997
 30
0.0
 10
-3.8044148587
 20
-55.7112042332
 30
0.0
  0
SPLINE
  5
5A0
100
AcDbEntity
  8
0
100
AcDbSpline
 62
7
  6
CONTINUOUS
 70
0
 71
3
 72
11
 73
7
 74
0
 42
0.0000001
 43
0.0000001
 44
0.0000000001
 40
0.0
 40
0.0
 40
0.0
 40
0.0
 40
0.2476215766
 40
0.4963054956
 40
0.7473749833
 40
1.0
 40
1.0
 40
1.0
 40
1.0
 10
-17.9156164622
 20
-1.0411713071
 30
0.0
 10
-17.9652203185
 20
-1.0718984049
 30
0.0
 10
-18.0590196619
 20
-1.1434353625
 30
0.0
 10
-18.1719281618
 20
-1.2809127739
 30
0.0
 10
-18.2459808829
 20
-1.4443502164
 30
0.0
 10
-18.2632452884
 20
-1.5637210959
 30
0.0
 10
-18.2632452884
 20
-1.6232498936
 30
0.0
  0
SPLINE
  5
5A1
100
AcDbEntity
  8
0
100
AcDbSpline
 62
7
  6
CONTINUOUS
 70
0
 71
3
 72
9
 73
5
 74
0
 42
0.0000001
 43
0.0000001
 44
0.0000000001
 40
0.0
 40
0.0
 40
0.0
 40
0.0
 40
0.2441201263
 40
1.0
 40
1.0
 40
1.0
 40
1.0
 10
-17.7213097015
 20
-0.9214377794
 30
0.0
 10
-17.398393991
 20
-0.723494253
 30
0.0
 10
-16.0662384771
 20
0.0719932974
 30
0.0
 10
-14.6983583592
 20
0.8072575668
 30
0.0
 10
-13.6494106374
 20
1.3317314277
 30
0.0
  0
SPLINE
  5
5A2
100
AcDbEntity
  8
0
100
AcDbSpline
 62
7
  6
CONTINUOUS
 70
0
 71
3
 72
11
 73
7
 74
0
 42
0.0000001
 43
0.0000001
 44
0.0000000001
 40
0.0
 40
0.0
 40
0.0
 40
0.0
 40
0.2865201793
 40
0.5511737284
 40
0.7871443961
 40
1.0
 40
1.0
 40
1.0
 40
1.0
 10
0.1974318631
 20
-16.75062406
 30
0.0
 10
0.1978844651
 20
-16.7867746049
 30
0.0
 10
0.1956205814
 20
-16.856425226
 30
0.0
 10
0.1780190611
 20
-16.9548236664
 30
0.0
 10
0.1398304116
 20
-17.0378136547
 30
0.0
 10
0.0981737552
 20
-17.0788298307
 30
0.0
 10
0.075293077
 20
-17.0928955205
 30
0.0
  0
SPLINE
  5
5A3
100
AcDbEntity
  8
0
100
AcDbSpline
 62
7
  6
CONTINUOUS
 70
0
 71
3
 72
10
 73
6
 74
0
 42
0.0000001
 43
0.0000001
 44
0.0000000001
 40
0.0
 40
0.0
 40
0.0
 40
0.0
 40
0.2374262482
 40
0.4834061663
 40
1.0
 40
1.0
 40
1.0
 40
1.0
 10
-0.5460070566
 20
-15.9559593824
 30
0.0
 10
-0.5116639656
 20
-15.9668221437
 30
0.0
 10
-0.4423500499
 20
-15.9910003313
 30
0.0
 10
-0.3031720901
 20
-16.0516341623
 30
0.0
 10
-0.2019811171
 20
-16.1085600513
 30
0.0
 10
-0.1360346782
 20
-16.1509081742
 30
0.0
  0
SPLINE
  5
5A4
100
AcDbEntity
  8
0
100
AcDbSpline
 62
7
  6
CONTINUOUS
 70
0
 71
3
 72
11
 73
7
 74
0
 42
0.0000001
 43
0.0000001
 44
0.0000000001
 40
0.0
 40
0.0
 40
0.0
 40
0.0
 40
0.2339806254
 40
0.4918424311
 40
0.7556842856
 40
1.0
 40
1.0
 40
1.0
 40
1.0
 10
-0.1360346782
 20
-16.1509081742
 30
0.0
 10
-0.0894162686
 20
-16.180846172
 30
0.0
 10
-0.0003845498
 20
-16.2579909741
 30
0.0
 10
0.1065671738
 20
-16.4034560971
 30
0.0
 10
0.1758824123
 20
-16.5726976472
 30
0.0
 10
0.196697831
 20
-16.6927778922
 30
0.0
 10
0.1974318631
 20
-16.75062406
 30
0.0
  0
SPLINE
  5
5A5
100
AcDbEntity
  8
0
100
AcDbSpline
 62
7
  6
CONTINUOUS
 70
0
 71
3
 72
12
 73
8
 74
0
 42
0.0000001
 43
0.0000001
 44
0.0000000001
 40
0.0
 40
0.0
 40
0.0
 40
0.0
 40
0.221969864
 40
0.3442403048
 40
0.4723961323
 40
0.7384382407
 40
1.0
 40
1.0
 40
1.0
 40
1.0
 10
-0.2624100992
 20
-17.6262243176
 30
0.0
 10
-0.2233927832
 20
-17.6457329756
 30
0.0
 10
-0.1673491401
 20
-17.6855251844
 30
0.0
 10
-0.1027390011
 20
-17.7523846174
 30
0.0
 10
-0.0418775957
 20
-17.8339248197
 30
0.0
 10
0.0191087267
 20
-17.9482265713
 30
0.0
 10
0.0537417391
 20
-18.0464125215
 30
0.0
 10
0.0669421894
 20
-18.0960921673
 30
0.0
  0
SPLINE
  5
5A6
100
AcDbEntity
  8
0
100
AcDbSpline
 62
7
  6
CONTINUOUS
 70
0
 71
3
 72
11
 73
7
 74
0
 42
0.0000001
 43
0.0000001
 44
0.0000000001
 40
0.0
 40
0.0
 40
0.0
 40
0.0
 40
0.2516929711
 40
0.501169304
 40
0.7505527123
 40
1.0
 40
1.0
 40
1.0
 40
1.0
 10
0.0669421894
 20
-18.0960921673
 30
0.0
 10
0.0929774029
 20
-18.1939851265
 30
0.0
 10
0.1392308128
 20
-18.3903931789
 30
0.0
 10
0.1998314464
 20
-18.6863127662
 30
0.0
 10
0.2621530298
 20
-18.9809595151
 30
0.0
 10
0.3044391923
 20
-19.1772145808
 30
0.0
 10
0.3250797333
 20
-19.2754619596
 30
0.0
  0
SPLINE
  5
5A7
100
AcDbEntity
  8
0
100
AcDbSpline
 62
7
  6
CONTINUOUS
 70
0
 71
3
 72
9
 73
5
 74
0
 42
0.0000001
 43
0.0000001
 44
0.0000000001
 40
0.0
 40
0.0
 40
0.0
 40
0.0
 40
0.5068328575
 40
1.0
 40
1.0
 40
1.0
 40
1.0
 10
0.3617331576
 20
-17.6539576181
 30
0.0
 10
0.3712148197
 20
-17.6557688733
 30
0.0
 10
0.3907978527
 20
-17.6555318026
 30
0.0
 10
0.4089289324
 20
-17.6491623686
 30
0.0
 10
0.4175584253
 20
-17.6454532984
 30
0.0
  0
LINE
  5
5A8
100
AcDbEntity
  8
0
100
AcDbLine
 62
7
  6
CONTINUOUS
 10
0.4175584253
 20
-17.6454532984
 11
0.4289255181
 21
-17.6402072075
  0
SPLINE
  5
5A9
100
AcDbEntity
  8
0
100
AcDbSpline
 62
250
  6
CONTINUOUS
 70
0
 71
3
 72
16
 73
12
 74
0
 42
0.0000001
 43
0.0000001
 44
0.0000000001
 40
0.0
 40
0.0
 40
0.0
 40
0.0
 40
0.2459036142
 40
0.3699084623
 40
0.4945980809
 40
0.6199574872
 40
0.7459707611
 40
0.8092166832
 40
0.8726250059
 40
0.9361749556
 40
1.0
 40
1.0
 40
1.0
 40
1.0
 10
-4.6569587448
 20
-55.1710157237
 30
0.0
 10
-5.2497781324
 20
-54.8717656003
 30
0.0
 10
-6.1358051759
 20
-54.4101094187
 30
0.0
 10
-7.3086626266
 20
-53.7709842172
 30
0.0
 10
-8.1897068915
 20
-53.2768202096
 30
0.0
 10
-9.0694800739
 20
-52.7694611452
 30
0.0
 10
-9.8004963019
 20
-52.3364152749
 30
0.0
 10
-10.3846002053
 20
-51.9837076428
 30
0.0
 10
-10.8228337534
 20
-51.7157587029
 30
0.0
 10
-11.2607576572
 20
-51.4443748992
 30
0.0
 10
-11.5527402063
 20
-51.2624354074
 30
0.0
 10
-11.6968092955
 20
-51.1678186951
 30
0.0
  0
SPLINE
  5
5AA
100
AcDbEntity
  8
0
100
AcDbSpline
 62
250
  6
CONTINUOUS
 70
0
 71
3
 72
12
 73
8
 74
0
 42
0.0000001
 43
0.0000001
 44
0.0000000001
 40
0.0
 40
0.0
 40
0.0
 40
0.0
 40
0.1118817001
 40
0.2292529542
 40
0.4775088086
 40
0.7374499498
 40
1.0
 40
1.0
 40
1.0
 40
1.0
 10
-11.6968092955
 20
-51.1678186951
 30
0.0
 10
-11.8105295696
 20
-51.0931308171
 30
0.0
 10
-12.0355986595
 20
-50.92775859
 30
0.0
 10
-12.4721019794
 20
-50.5439588912
 30
0.0
 10
-12.9782283202
 20
-49.971395819
 30
0.0
 10
-13.4927934811
 20
-49.1847690798
 30
0.0
 10
-13.7667357229
 20
-48.6089092563
 30
0.0
 10
-13.8839100859
 20
-48.3119146027
 30
0.0
  0
LINE
  5
5AB
100
AcDbEntity
  8
0
100
AcDbLine
 62
250
  6
CONTINUOUS
 10
-13.9109071946
 20
-48.2430903538
 11
-13.9243918829
 21
-48.2084185587
  0
SPLINE
  5
5AC
100
AcDbEntity
  8
0
100
AcDbSpline
 62
250
  6
CONTINUOUS
 70
0
 71
3
 72
19
 73
15
 74
0
 42
0.0000001
 43
0.0000001
 44
0.0000000001
 40
0.0
 40
0.0
 40
0.0
 40
0.0
 40
0.0319548155
 40
0.0638095585
 40
0.0956126908
 40
0.1273923732
 40
0.190856271
 40
0.2541764794
 40
0.317350533
 40
0.3803669375
 40
0.50589151
 40
0.6306825844
 40
0.7546731879
 40
1.0
 40
1.0
 40
1.0
 40
1.0
 10
-13.9243918829
 20
-48.2084185587
 30
0.0
 10
-13.9689165359
 20
-48.0936053028
 30
0.0
 10
-14.0556905067
 20
-47.8634884984
 30
0.0
 10
-14.176749719
 20
-47.5154643839
 30
0.0
 10
-14.2973293188
 20
-47.1680081181
 30
0.0
 10
-14.4558036135
 20
-46.7047614693
 30
0.0
 10
-14.6488633038
 20
-46.124991243
 30
0.0
 10
-14.8731872531
 20
-45.4281543378
 30
0.0
 10
-15.0898806762
 20
-44.7307103711
 30
0.0
 10
-15.3679574373
 20
-43.8013722637
 30
0.0
 10
-15.6957478969
 20
-42.6391252155
 30
0.0
 10
-16.0565981347
 20
-41.2423858278
 30
0.0
 10
-16.4903948218
 20
-39.3882066519
 30
0.0
 10
-16.7646089712
 20
-37.9908185683
 30
0.0
 10
-16.9218684834
 20
-37.0585730436
 30
0.0
  0
SPLINE
  5
5AD
100
AcDbEntity
  8
0
100
AcDbSpline
 62
250
  6
CONTINUOUS
 70
0
 71
3
 72
9
 73
5
 74
0
 42
0.0000001
 43
0.0000001
 44
0.0000000001
 40
0.0
 40
0.0
 40
0.0
 40
0.0
 40
0.4793005144
 40
1.0
 40
1.0
 40
1.0
 40
1.0
 10
-16.9218684834
 20
-37.0585730436
 30
0.0
 10
-16.6053978511
 20
-36.8876073706
 30
0.0
 10
-15.9502773285
 20
-36.5213736874
 30
0.0
 10
-15.3010422125
 20
-36.1449407832
 30
0.0
 10
-14.963602365
 20
-35.9478796434
 30
0.0
  0
SPLINE
  5
5AE
100
AcDbEntity
  8
0
100
AcDbSpline
 62
250
  6
CONTINUOUS
 70
0
 71
3
 72
16
 73
12
 74
0
 42
0.0000001
 43
0.0000001
 44
0.0000000001
 40
0.0
 40
0.0
 40
0.0
 40
0.0
 40
0.2233596958
 40
0.2832011903
 40
0.3444070166
 40
0.4701831883
 40
0.5996956545
 40
0.7321546925
 40
0.8661461488
 40
0.933212681
 40
1.0
 40
1.0
 40
1.0
 40
1.0
 10
-6.2215679953
 20
-49.6889988306
 30
0.0
 10
-7.3443465545
 20
-49.1269980409
 30
0.0
 10
-8.6505605247
 20
-48.1617199881
 30
0.0
 10
-10.0076126176
 20
-46.7821641934
 30
0.0
 10
-10.9171303482
 20
-45.7328362015
 30
0.0
 10
-11.9567218877
 20
-44.283664312
 30
0.0
 10
-13.0191706892
 20
-42.3755304741
 30
0.0
 10
-13.8932022237
 20
-40.3243813242
 30
0.0
 10
-14.4510077927
 20
-38.53063912
 30
0.0
 10
-14.7836810949
 20
-37.0616903227
 30
0.0
 10
-14.9116739935
 20
-36.3197044925
 30
0.0
 10
-14.963602365
 20
-35.9478796434
 30
0.0
  0
SPLINE
  5
5AF
100
AcDbEntity
  8
0
100
AcDbSpline
 62
250
  6
CONTINUOUS
 70
0
 71
3
 72
16
 73
12
 74
0
 42
0.0000001
 43
0.0000001
 44
0.0000000001
 40
0.0
 40
0.0
 40
0.0
 40
0.0
 40
0.0611888
 40
0.1226513484
 40
0.1842512061
 40
0.2460109573
 40
0.3700025903
 40
0.4946404695
 40
0.6199435597
 40
0.7459291276
 40
1.0
 40
1.0
 40
1.0
 40
1.0
 10
2.437877612
 20
-58.2351621489
 30
0.0
 10
2.294207224
 20
-58.1851888185
 30
0.0
 10
2.0088533847
 20
-58.0776033205
 30
0.0
 10
1.5809777283
 20
-57.9141775343
 30
0.0
 10
1.1527763732
 20
-57.7475714184
 30
0.0
 10
0.5811573739
 20
-57.5209334994
 30
0.0
 10
-0.1334918852
 20
-57.2298892222
 30
0.0
 10
-0.9899158343
 20
-56.8683503442
 30
0.0
 10
-1.8462366624
 20
-56.4940050878
 30
0.0
 10
-2.9908950407
 20
-55.9761965577
 30
0.0
 10
-3.8442715363
 20
-55.5704122005
 30
0.0
 10
-4.4112782796
 20
-55.2921360259
 30
0.0
  0
SPLINE
  5
5B0
100
AcDbEntity
  8
0
100
AcDbSpline
 62
250
  6
CONTINUOUS
 70
0
 71
3
 72
9
 73
5
 74
0
 42
0.0000001
 43
0.0000001
 44
0.0000000001
 40
0.0
 40
0.0
 40
0.0
 40
0.0
 40
0.4840233606
 40
1.0
 40
1.0
 40
1.0
 40
1.0
 10
-4.6569587448
 20
-55.1710157237
 30
0.0
 10
-5.0356780952
 20
-54.3304705481
 30
0.0
 10
-5.6797092529
 20
-52.5296872829
 30
0.0
 10
-6.0745720159
 20
-50.6607296184
 30
0.0
 10
-6.2215679953
 20
-49.6889988306
 30
0.0
  0
SPLINE
  5
5B1
100
AcDbEntity
  8
0
100
AcDbSpline
 62
250
  6
CONTINUOUS
 70
0
 71
3
 72
21
 73
17
 74
0
 42
0.0000001
 43
0.0000001
 44
0.0000000001
 40
0.0
 40
0.0
 40
0.0
 40
0.0
 40
0.068348201
 40
0.1348129613
 40
0.1995927509
 40
0.262911202
 40
0.3249948194
 40
0.3860854171
 40
0.4464432546
 40
0.4764289854
 40
0.5062627413
 40
0.6247022106
 40
0.6842798969
 40
0.7446688331
 40
0.8690199523
 40
1.0
 40
1.0
 40
1.0
 40
1.0
 10
5.1061998635
 20
-45.9827810337
 30
0.0
 10
4.9662244206
 20
-46.2520048747
 30
0.0
 10
4.6635380251
 20
-46.7694854222
 30
0.0
 10
4.15158741
 20
-47.4940942974
 30
0.0
 10
3.5873474764
 20
-48.1499328626
 30
0.0
 10
2.976983587
 20
-48.7352000465
 30
0.0
 10
2.3251783232
 20
-49.2479661934
 30
0.0
 10
1.6362775689
 20
-49.6856303618
 30
0.0
 10
1.0338526903
 20
-49.9869891865
 30
0.0
 10
0.5392674609
 20
-50.1877170203
 30
0.0
 10
-0.2077196546
 20
-50.449326951
 30
0.0
 10
-1.117582655
 20
-50.6452607391
 30
0.0
 10
-2.1757721802
 20
-50.7053885558
 30
0.0
 10
-3.2610742659
 20
-50.6545206856
 30
0.0
 10
-4.6441414463
 20
-50.3754619364
 30
0.0
 10
-5.7013475232
 20
-49.9488260832
 30
0.0
 10
-6.2215679953
 20
-49.6889988306
 30
0.0
  0
SPLINE
  5
5B2
100
AcDbEntity
  8
0
100
AcDbSpline
 62
250
  6
CONTINUOUS
 70
0
 71
3
 72
22
 73
18
 74
0
 42
0.0000001
 43
0.0000001
 44
0.0000000001
 40
0.0
 40
0.0
 40
0.0
 40
0.0
 40
0.2635987798
 40
0.3917915755
 40
0.5176966966
 40
0.6414171857
 40
0.7024946451
 40
0.7630637766
 40
0.8231425976
 40
0.8827356249
 40
0.9123483465
 40
0.9271207239
 40
0.9418767443
 40
0.9566044732
 40
0.9712325201
 40
0.9857003732
 40
1.0
 40
1.0
 40
1.0
 40
1.0
 10
7.75346194
 20
-49.3962382553
 30
0.0
 10
7.5771158957
 20
-50.1472627053
 30
0.0
 10
7.2812539885
 20
-51.2561533271
 30
0.0
 10
6.8163691938
 20
-52.6984006763
 30
0.0
 10
6.4405599531
 20
-53.7385593554
 30
0.0
 10
6.1009196394
 20
-54.5822863123
 30
0.0
 10
5.8143968824
 20
-55.2407811375
 30
0.0
 10
5.5929375193
 20
-55.7243520602
 30
0.0
 10
5.3647008254
 20
-56.1999506503
 30
0.0
 10
5.1674163542
 20
-56.5898037781
 30
0.0
 10
5.0265108482
 20
-56.859520278
 30
0.0
 10
4.9455557547
 20
-57.0125049022
 30
0.0
 10
4.8846263637
 20
-57.1267969563
 30
0.0
 10
4.822989036
 20
-57.2402424339
 30
0.0
 10
4.7583320263
 20
-57.3510274558
 30
0.0
 10
4.6922061247
 20
-57.4594564796
 30
0.0
 10
4.6489423204
 20
-57.5316820346
 30
0.0
 10
4.627487399
 20
-57.5676133451
 30
0.0
  0
SPLINE
  5
5B3
100
AcDbEntity
  8
0
100
AcDbSpline
 62
250
  6
CONTINUOUS
 70
0
 71
3
 72
15
 73
11
 74
0
 42
0.0000001
 43
0.0000001
 44
0.0000000001
 40
0.0
 40
0.0
 40
0.0
 40
0.0
 40
0.1245453024
 40
0.24444044
 40
0.3619688694
 40
0.47975905
 40
0.60042369
 40
0.7262671594
 40
0.8591347369
 40
1.0
 40
1.0
 40
1.0
 40
1.0
 10
4.627487399
 20
-57.5676133451
 30
0.0
 10
4.5743494229
 20
-57.6566013668
 30
0.0
 10
4.4555904333
 20
-57.8231802041
 30
0.0
 10
4.2392021652
 20
-58.0350790833
 30
0.0
 10
3.991061357
 20
-58.1991655654
 30
0.0
 10
3.7152686995
 20
-58.3122923175
 30
0.0
 10
3.4164697813
 20
-58.3727953985
 30
0.0
 10
3.0993406694
 20
-58.3803449553
 30
0.0
 10
2.7687189993
 20
-58.335204213
 30
0.0
 10
2.5485983303
 20
-58.2736745976
 30
0.0
 10
2.437877612
 20
-58.2351621489
 30
0.0
  0
SPLINE
  5
5B4
100
AcDbEntity
  8
0
100
AcDbSpline
 62
250
  6
CONTINUOUS
 70
0
 71
3
 72
46
 73
42
 74
0
 42
0.0000001
 43
0.0000001
 44
0.0000000001
 40
0.0
 40
0.0
 40
0.0
 40
0.0
 40
0.0076613081
 40
0.0150687582
 40
0.0223537014
 40
0.0295509518
 40
0.0437252595
 40
0.0576383077
 40
0.07130095
 40
0.0847184199
 40
0.1107638057
 40
0.1357951131
 40
0.160143048
 40
0.1840945523
 40
0.2079190473
 40
0.2318767897
 40
0.2562089691
 40
0.2811310755
 40
0.3068267395
 40
0.3610294923
 40
0.4196322376
 40
0.4828287239
 40
0.5503660389
 40
0.6216588703
 40
0.6584743179
 40
0.6959021719
 40
0.7338126396
 40
0.7720704076
 40
0.8105343492
 40
0.8298003912
 40
0.8490629539
 40
0.8683018711
 40
0.8874953981
 40
0.9066199666
 40
0.925650164
 40
0.9445594916
 40
0.9633176086
 40
0.9726273553
 40
0.9818760976
 40
0.9910374276
 40
1.0
 40
1.0
 40
1.0
 40
1.0
 10
5.875999508
 20
-42.1107328126
 30
0.0
 10
5.867620844
 20
-42.1913200495
 30
0.0
 10
5.8353270899
 20
-42.3479512819
 30
0.0
 10
5.7734572765
 20
-42.5760373494
 30
0.0
 10
5.7037639599
 20
-42.7968838693
 30
0.0
 10
5.6033315002
 20
-43.0828399015
 30
0.0
 10
5.464361418
 20
-43.4293883877
 30
0.0
 10
5.2775797698
 20
-43.8296918502
 30
0.0
 10
5.0724561695
 20
-44.2118967685
 30
0.0
 10
4.778887448
 20
-44.6911930753
 30
0.0
 10
4.3724935774
 20
-45.2412249447
 30
0.0
 10
3.8207503935
 20
-45.820078321
 30
0.0
 10
3.2187958604
 20
-46.3122147553
 30
0.0
 10
2.5701473876
 20
-46.7174595882
 30
0.0
 10
1.8786248722
 20
-47.0343989529
 30
0.0
 10
1.1486983819
 20
-47.2622398704
 30
0.0
 10
0.3848589866
 20
-47.3999334568
 30
0.0
 10
-0.4081452938
 20
-47.4473471598
 30
0.0
 10
-1.5171331964
 20
-47.3893492023
 30
0.0
 10
-2.9592090648
 20
-47.0793323505
 30
0.0
 10
-4.68774914
 20
-46.367777867
 30
0.0
 10
-6.4081945722
 20
-45.3302185679
 30
0.0
 10
-8.0809005813
 20
-43.9924623579
 30
0.0
 10
-9.3888176545
 20
-42.6675812258
 30
0.0
 10
-10.379611116
 20
-41.4890815378
 30
0.0
 10
-11.0945075357
 20
-40.5419582133
 30
0.0
 10
-11.7683606966
 20
-39.5467912049
 30
0.0
 10
-12.3959421137
 20
-38.5089833146
 30
0.0
 10
-12.8757252693
 20
-37.6138278787
 30
0.0
 10
-13.2312343134
 20
-36.8812151603
 30
0.0
 10
-13.4821284932
 20
-36.3240884492
 30
0.0
 10
-13.7149599373
 20
-35.7599984586
 30
0.0
 10
-13.9297848359
 20
-35.1903848493
 30
0.0
 10
-14.1280568263
 20
-34.6171519499
 30
0.0
 10
-14.3102883114
 20
-34.0417727874
 30
0.0
 10
-14.4764108739
 20
-33.4655787081
 30
0.0
 10
-14.6017404718
 20
-32.9847698737
 30
0.0
 10
-14.6930202702
 20
-32.600827963
 30
0.0
 10
-14.7562114327
 20
-32.3145273812
 30
0.0
 10
-14.8122383573
 20
-32.03058459
 30
0.0
 10
-14.8430621931
 20
-31.8411247901
 30
0.0
 10
-14.8519477422
 20
-31.7467591399
 30
0.0
  0
SPLINE
  5
5B5
100
AcDbEntity
  8
0
100
AcDbSpline
 62
250
  6
CONTINUOUS
 70
0
 71
3
 72
26
 73
22
 74
0
 42
0.0000001
 43
0.0000001
 44
0.0000000001
 40
0.0
 40
0.0
 40
0.0
 40
0.0
 40
0.008219549
 40
0.0163230626
 40
0.0245015538
 40
0.0326491434
 40
0.048900844
 40
0.0651189888
 40
0.0974394557
 40
0.1296310496
 40
0.1617261548
 40
0.1937952113
 40
0.2258025887
 40
0.2577956112
 40
0.3214101936
 40
0.3846721078
 40
0.5100316287
 40
0.6340009194
 40
0.7567846836
 40
0.8786785967
 40
1.0
 40
1.0
 40
1.0
 40
1.0
 10
6.2600254665
 20
-40.5057668677
 30
0.0
 10
6.2602414314
 20
-40.5201620083
 30
0.0
 10
6.2587802989
 20
-40.5487470067
 30
0.0
 10
6.2562834169
 20
-40.5915782268
 30
0.0
 10
6.2547328002
 20
-40.63434479
 30
0.0
 10
6.2517069628
 20
-40.6913253519
 30
0.0
 10
6.2475395892
 20
-40.7623465723
 30
0.0
 10
6.239949928
 20
-40.8755757514
 30
0.0
 10
6.2285804765
 20
-41.0165264244
 30
0.0
 10
6.2122776209
 20
-41.1849568423
 30
0.0
 10
6.1933426395
 20
-41.3526651988
 30
0.0
 10
6.1727456361
 20
-41.5198535772
 30
0.0
 10
6.1494798847
 20
-41.6865103297
 30
0.0
 10
6.116411573
 20
-41.9075789649
 30
0.0
 10
6.0673294589
 20
-42.1815443765
 30
0.0
 10
5.976416611
 20
-42.6139422912
 30
0.0
 10
5.8364164792
 20
-43.1437325489
 30
0.0
 10
5.6276009333
 20
-43.7616584848
 30
0.0
 10
5.3793119251
 20
-44.3582477547
 30
0.0
 10
5.0941918169
 20
-44.9329059856
 30
0.0
 10
4.8806836214
 20
-45.3018749072
 30
0.0
 10
4.769359862
 20
-45.4828784705
 30
0.0
  0
SPLINE
  5
5B6
100
AcDbEntity
  8
0
100
AcDbSpline
 62
250
  6
CONTINUOUS
 70
0
 71
3
 72
20
 73
16
 74
0
 42
0.0000001
 43
0.0000001
 44
0.0000000001
 40
0.0
 40
0.0
 40
0.0
 40
0.0
 40
0.0662007226
 40
0.1313184708
 40
0.1953233337
 40
0.2582325633
 40
0.3201645908
 40
0.3812702403
 40
0.4417465682
 40
0.5017686261
 40
0.5615128108
 40
0.6213271405
 40
0.7425592518
 40
0.8681982565
 40
1.0
 40
1.0
 40
1.0
 40
1.0
 10
4.769359862
 20
-45.4828784705
 30
0.0
 10
4.6255637091
 20
-45.7167087424
 30
0.0
 10
4.3201144879
 20
-46.168228667
 30
0.0
 10
3.8212670779
 20
-46.8071596756
 30
0.0
 10
3.2802804233
 20
-47.3928117825
 30
0.0
 10
2.7007158774
 20
-47.920863574
 30
0.0
 10
2.0858766903
 20
-48.387934401
 30
0.0
 10
1.4384151958
 20
-48.7899416681
 30
0.0
 10
0.7622122757
 20
-49.1240609759
 30
0.0
 10
0.0609839484
 20
-49.3865373239
 30
0.0
 10
-0.6618328885
 20
-49.5716395544
 30
0.0
 10
-1.6514987717
 20
-49.7153577829
 30
0.0
 10
-2.9325878801
 20
-49.6992052365
 30
0.0
 10
-4.4777862007
 20
-49.3765129717
 30
0.0
 10
-5.4737599568
 20
-48.9763091583
 30
0.0
 10
-5.9636961585
 20
-48.7341233955
 30
0.0
  0
SPLINE
  5
5B7
100
AcDbEntity
  8
0
100
AcDbSpline
 62
250
  6
CONTINUOUS
 70
0
 71
3
 72
20
 73
16
 74
0
 42
0.0000001
 43
0.0000001
 44
0.0000000001
 40
0.0
 40
0.0
 40
0.0
 40
0.0
 40
0.1089400596
 40
0.223789522
 40
0.2833930444
 40
0.3443410948
 40
0.4698277577
 40
0.501893371
 40
0.5341967889
 40
0.5994335767
 40
0.7318560267
 40
0.7987455172
 40
0.8658468552
 40
0.9329865754
 40
1.0
 40
1.0
 40
1.0
 40
1.0
 10
-5.9636961585
 20
-48.7341233955
 30
0.0
 10
-6.4774829989
 20
-48.4742963252
 30
0.0
 10
-7.490708213
 20
-47.8541241085
 30
0.0
 10
-8.6483064808
 20
-46.8966389224
 30
0.0
 10
-9.527281986
 20
-46.0152070727
 30
0.0
 10
-10.3875195398
 20
-45.0392311836
 30
0.0
 10
-11.0691907381
 20
-44.1027717245
 30
0.0
 10
-11.599344152
 20
-43.2508474658
 30
0.0
 10
-11.9441501267
 20
-42.6588740209
 30
0.0
 10
-12.5148732761
 20
-41.5853551311
 30
0.0
 10
-13.0787039189
 20
-40.3032503486
 30
0.0
 10
-13.5586514392
 20
-38.9792751118
 30
0.0
 10
-13.8778790811
 20
-37.9649844145
 30
0.0
 10
-14.1558280318
 20
-36.9381228775
 30
0.0
 10
-14.3194924304
 20
-36.2480638574
 30
0.0
 10
-14.3931246118
 20
-35.9016360782
 30
0.0
  0
SPLINE
  5
5B8
100
AcDbEntity
  8
0
100
AcDbSpline
 62
250
  6
CONTINUOUS
 70
0
 71
3
 72
26
 73
22
 74
0
 42
0.0000001
 43
0.0000001
 44
0.0000000001
 40
0.0
 40
0.0
 40
0.0
 40
0.0
 40
0.1303827754
 40
0.259943433
 40
0.3883186201
 40
0.5151238523
 40
0.5778213939
 40
0.6399852677
 40
0.7015756274
 40
0.7625531539
 40
0.8228885502
 40
0.8528431982
 40
0.8826589053
 40
0.9123019955
 40
0.9417535744
 40
0.9564006379
 40
0.9709914391
 40
0.9782677682
 40
0.9855248067
 40
0.9927708666
 40
1.0
 40
1.0
 40
1.0
 40
1.0
 10
-14.3931246118
 20
-35.9016360782
 30
0.0
 10
-14.4492296573
 20
-35.6377281123
 30
0.0
 10
-14.5578112648
 20
-35.1108671947
 30
0.0
 10
-14.7066366305
 20
-34.3211637876
 30
0.0
 10
-14.8393701645
 20
-33.5360951854
 30
0.0
 10
-14.935378918
 20
-32.885286436
 30
0.0
 10
-15.0029503549
 20
-32.3688969041
 30
0.0
 10
-15.0487181073
 20
-31.9857808733
 30
0.0
 10
-15.0898834568
 20
-31.6057250214
 30
0.0
 10
-15.1266819591
 20
-31.2290202703
 30
0.0
 10
-15.1533263725
 20
-30.9171287877
 30
0.0
 10
-15.1739972332
 20
-30.6694512108
 30
0.0
 10
-15.1891557989
 20
-30.4850460897
 30
0.0
 10
-15.2031207593
 20
-30.3015901758
 30
0.0
 10
-15.2137046348
 20
-30.1493595237
 30
0.0
 10
-15.2213826088
 20
-30.0281542636
 30
0.0
 10
-15.2257857755
 20
-29.9527211754
 30
0.0
 10
-15.2291674638
 20
-29.8925506674
 30
0.0
 10
-15.231627307
 20
-29.847542012
 30
0.0
 10
-15.2333555427
 20
-29.8026245238
 30
0.0
 10
-15.2363183216
 20
-29.7727228333
 30
0.0
 10
-15.2359736806
 20
-29.7577672941
 30
0.0
  0
SPLINE
  5
5B9
100
AcDbEntity
  8
0
100
AcDbSpline
 62
250
  6
CONTINUOUS
 70
0
 71
3
 72
11
 73
7
 74
0
 42
0.0000001
 43
0.0000001
 44
0.0000000001
 40
0.0
 40
0.0
 40
0.0
 40
0.0
 40
0.2289135723
 40
0.4762005695
 40
0.7361809742
 40
1.0
 40
1.0
 40
1.0
 40
1.0
 10
5.672472428
 20
-57.763391255
 30
0.0
 10
5.5935805852
 20
-57.7924077662
 30
0.0
 10
5.4189910407
 20
-57.8259355102
 30
0.0
 10
5.1469092959
 20
-57.8057743983
 30
0.0
 10
4.874487943
 20
-57.7207190772
 30
0.0
 10
4.7058834123
 20
-57.6245267905
 30
0.0
 10
4.6274890562
 20
-57.5676115013
 30
0.0
  0
SPLINE
  5
5BA
100
AcDbEntity
  8
0
100
AcDbSpline
 62
250
  6
CONTINUOUS
 70
0
 71
3
 72
11
 73
7
 74
0
 42
0.0000001
 43
0.0000001
 44
0.0000000001
 40
0.0
 40
0.0
 40
0.0
 40
0.0
 40
0.229764092
 40
0.4823906024
 40
0.7443698298
 40
1.0
 40
1.0
 40
1.0
 40
1.0
 10
8.9204290275
 20
-49.5610084076
 30
0.0
 10
8.8329265444
 20
-49.5920654467
 30
0.0
 10
8.638718673
 20
-49.6286197901
 30
0.0
 10
8.3361733527
 20
-49.6157392057
 30
0.0
 10
8.0320988281
 20
-49.5406948578
 30
0.0
 10
7.8412393736
 20
-49.4507057273
 30
0.0
 10
7.7534619444
 20
-49.3962382519
 30
0.0
  0
SPLINE
  5
5BB
100
AcDbEntity
  8
0
100
AcDbSpline
 62
250
  6
CONTINUOUS
 70
0
 71
3
 72
11
 73
7
 74
0
 42
0.0000001
 43
0.0000001
 44
0.0000000001
 40
0.0
 40
0.0
 40
0.0
 40
0.0
 40
0.2549043145
 40
0.5066757687
 40
0.7551279572
 40
1.0
 40
1.0
 40
1.0
 40
1.0
 10
-16.9218684834
 20
-37.0585730436
 30
0.0
 10
-17.0438995821
 20
-36.3328309451
 30
0.0
 10
-17.2615977883
 20
-34.8859767902
 30
0.0
 10
-17.5176359451
 20
-32.7206496063
 30
0.0
 10
-17.7127587682
 20
-30.5781514292
 30
0.0
 10
-17.8092203212
 20
-29.1570136356
 30
0.0
 10
-17.8491171664
 20
-28.4511741626
 30
0.0
  0
SPLINE
  5
5BC
100
AcDbEntity
  8
0
100
AcDbSpline
 62
250
  6
CONTINUOUS
 70
0
 71
3
 72
24
 73
20
 74
0
 42
0.0000001
 43
0.0000001
 44
0.0000000001
 40
0.0
 40
0.0
 40
0.0
 40
0.0
 40
0.2633931819
 40
0.3929131069
 40
0.5204666856
 40
0.6456869914
 40
0.7073054127
 40
0.7681862547
 40
0.7983408488
 40
0.8282520606
 40
0.857814977
 40
0.8869385978
 40
0.9156904534
 40
0.9440984047
 40
0.958183915
 40
0.9721948034
 40
0.9861327328
 40
0.993075481
 40
1.0
 40
1.0
 40
1.0
 40
1.0
 10
-14.963602365
 20
-35.9478796434
 30
0.0
 10
-15.036815776
 20
-35.4077872496
 30
0.0
 10
-15.130956266
 20
-34.5998899907
 30
0.0
 10
-15.2187186209
 20
-33.5264090015
 30
0.0
 10
-15.2652507484
 20
-32.7366394313
 30
0.0
 10
-15.2891378298
 20
-32.0864612692
 30
0.0
 10
-15.2997712847
 20
-31.5739631702
 30
0.0
 10
-15.3026195914
 20
-31.2580872204
 30
0.0
 10
-15.3031829694
 20
-31.0078153307
 30
0.0
 10
-15.3021570325
 20
-30.822349507
 30
0.0
 10
-15.2983625606
 20
-30.6390406513
 30
0.0
 10
-15.2900901805
 20
-30.4582826115
 30
0.0
 10
-15.2794051464
 20
-30.2800547128
 30
0.0
 10
-15.2685787917
 20
-30.1330226274
 30
0.0
 10
-15.2591112771
 20
-30.0164834841
 30
0.0
 10
-15.2517649159
 20
-29.9298139872
 30
0.0
 10
-15.2451416341
 20
-29.8579155852
 30
0.0
 10
-15.2402418329
 20
-29.8005924418
 30
0.0
 10
-15.2368147475
 20
-29.7720800997
 30
0.0
 10
-15.2359741552
 20
-29.7577760652
 30
0.0
  0
SPLINE
  5
5BD
100
AcDbEntity
  8
0
100
AcDbSpline
 62
250
  6
CONTINUOUS
 70
0
 71
3
 72
9
 73
5
 74
0
 42
0.0000001
 43
0.0000001
 44
0.0000000001
 40
0.0
 40
0.0
 40
0.0
 40
0.0
 40
0.5085545517
 40
1.0
 40
1.0
 40
1.0
 40
1.0
 10
8.8731691017
 20
-41.8123174597
 30
0.0
 10
8.7827549693
 20
-43.1097338406
 30
0.0
 10
8.5087254776
 20
-45.6550739305
 30
0.0
 10
8.0393802132
 20
-48.1723842482
 30
0.0
 10
7.75346194
 20
-49.3962382553
 30
0.0
  0
SPLINE
  5
5BE
100
AcDbEntity
  8
0
100
AcDbSpline
 62
250
  6
CONTINUOUS
 70
0
 71
3
 72
25
 73
21
 74
0
 42
0.0000001
 43
0.0000001
 44
0.0000000001
 40
0.0
 40
0.0
 40
0.0
 40
0.0
 40
0.0082671289
 40
0.0165693404
 40
0.0248319869
 40
0.0330978972
 40
0.0496131872
 40
0.0660973808
 40
0.0989617979
 40
0.1316482499
 40
0.1641116344
 40
0.1962541263
 40
0.2599518312
 40
0.3232965807
 40
0.3863195553
 40
0.5114224858
 40
0.635292989
 40
0.7579420207
 40
0.8794588517
 40
1.0
 40
1.0
 40
1.0
 40
1.0
 10
6.2600250764
 20
-40.5057666726
 30
0.0
 10
6.2608897649
 20
-40.521361286
 30
0.0
 10
6.2638304882
 20
-40.5525365897
 30
0.0
 10
6.2679566936
 20
-40.5992658675
 30
0.0
 10
6.2712300981
 20
-40.6460650259
 30
0.0
 10
6.2757664797
 20
-40.7083269815
 30
0.0
 10
6.2808265098
 20
-40.7861246574
 30
0.0
 10
6.2877520464
 20
-40.9103650991
 30
0.0
 10
6.294186087
 20
-41.0652285808
 30
0.0
 10
6.2976394032
 20
-41.2503813939
 30
0.0
 10
6.2968350377
 20
-41.4342178652
 30
0.0
 10
6.2870928068
 20
-41.676459974
 30
0.0
 10
6.263945115
 20
-41.9763822985
 30
0.0
 10
6.2258215311
 20
-42.3334826254
 30
0.0
 10
6.1598375681
 20
-42.804039073
 30
0.0
 10
6.0505299871
 20
-43.3836816069
 30
0.0
 10
5.876585423
 20
-44.0643668796
 30
0.0
 10
5.6610326838
 20
-44.7259345305
 30
0.0
 10
5.4057469456
 20
-45.3664126322
 30
0.0
 10
5.2095652278
 20
-45.7798600407
 30
0.0
 10
5.1061998635
 20
-45.9827810337
 30
0.0
  0
SPLINE
  5
5BF
100
AcDbEntity
  8
0
100
AcDbSpline
 62
250
  6
CONTINUOUS
 70
0
 71
3
 72
13
 73
9
 74
0
 42
0.0000001
 43
0.0000001
 44
0.0000000001
 40
0.0
 40
0.0
 40
0.0
 40
0.0
 40
0.1166800591
 40
0.2407766557
 40
0.3703462674
 40
0.5028307327
 40
0.7636091291
 40
1.0
 40
1.0
 40
1.0
 40
1.0
 10
10.2063644222
 20
-41.9168564918
 30
0.0
 10
10.1570603621
 20
-41.9378188675
 30
0.0
 10
10.0517206029
 20
-41.9729853074
 30
0.0
 10
9.883953475
 20
-42.0033890782
 30
0.0
 10
9.7066921304
 20
-42.0147408518
 30
0.0
 10
9.4664161273
 20
-42.0073507849
 30
0.0
 10
9.180081158
 20
-41.9557399765
 30
0.0
 10
8.9661878969
 20
-41.868272645
 30
0.0
 10
8.8731678862
 20
-41.8123379999
 30
0.0
  0
SPLINE
  5
5C0
100
AcDbEntity
  8
0
100
AcDbSpline
 62
250
  6
CONTINUOUS
 70
0
 71
3
 72
9
 73
5
 74
0
 42
0.0000001
 43
0.0000001
 44
0.0000000001
 40
0.0
 40
0.0
 40
0.0
 40
0.0
 40
0.5398603783
 40
1.0
 40
1.0
 40
1.0
 40
1.0
 10
5.1061997514
 20
-45.9827810963
 30
0.0
 10
5.0239358966
 20
-45.9102745439
 30
0.0
 10
4.8849453464
 20
-45.7596099479
 30
0.0
 10
4.7916855348
 20
-45.5736366341
 30
0.0
 10
4.7693603222
 20
-45.4828785651
 30
0.0
  0
SPLINE
  5
5C1
100
AcDbEntity
  8
0
100
AcDbSpline
 62
250
  6
CONTINUOUS
 70
0
 71
3
 72
11
 73
7
 74
0
 42
0.0000001
 43
0.0000001
 44
0.0000000001
 40
0.0
 40
0.0
 40
0.0
 40
0.0
 40
0.2641528716
 40
0.5260218345
 40
0.7743249105
 40
1.0
 40
1.0
 40
1.0
 40
1.0
 10
-5.9636966206
 20
-48.7341229119
 30
0.0
 10
-6.0136192973
 20
-48.8076179955
 30
0.0
 10
-6.1008262614
 20
-48.9626262707
 30
0.0
 10
-6.1908162876
 20
-49.2082522447
 30
0.0
 10
-6.2355705639
 20
-49.4529214233
 30
0.0
 10
-6.2328271398
 20
-49.6139332282
 30
0.0
 10
-6.2215677862
 20
-49.688998681
 30
0.0
  0
SPLINE
  5
5C2
100
AcDbEntity
  8
0
100
AcDbSpline
 62
250
  6
CONTINUOUS
 70
0
 71
3
 72
9
 73
5
 74
0
 42
0.0000001
 43
0.0000001
 44
0.0000000001
 40
0.0
 40
0.0
 40
0.0
 40
0.0
 40
0.2443973912
 40
1.0
 40
1.0
 40
1.0
 40
1.0
 10
15.0705994422
 20
-13.3636838087
 30
0.0
 10
14.6917947737
 20
-13.5530861429
 30
0.0
 10
13.1335593909
 20
-14.3114383662
 30
0.0
 10
11.5438273785
 20
-15.004655727
 30
0.0
 10
10.329600736
 20
-15.4946981338
 30
0.0
  0
SPLINE
  5
5C3
100
AcDbEntity
  8
0
100
AcDbSpline
 62
7
  6
CONTINUOUS
 70
0
 71
3
 72
9
 73
5
 74
0
 42
0.0000001
 43
0.0000001
 44
0.0000000001
 40
0.0
 40
0.0
 40
0.0
 40
0.0
 40
0.2566310821
 40
1.0
 40
1.0
 40
1.0
 40
1.0
 10
6.2600254665
 20
-40.5057668677
 30
0.0
 10
6.2367701875
 20
-40.6450766048
 30
0.0
 10
6.1371339721
 20
-41.1863448485
 30
0.0
 10
6.0004991213
 20
-41.7210219283
 30
0.0
 10
5.875999508
 20
-42.1107328126
 30
0.0
  0
SPLINE
  5
5C4
100
AcDbEntity
  8
0
100
AcDbSpline
 62
250
  6
CONTINUOUS
 70
0
 71
3
 72
38
 73
34
 74
0
 42
0.0000001
 43
0.0000001
 44
0.0000000001
 40
0.0
 40
0.0
 40
0.0
 40
0.0
 40
0.0138272297
 40
0.0274527725
 40
0.0408490237
 40
0.0540188322
 40
0.0669751442
 40
0.0797337397
 40
0.0923178249
 40
0.1047527598
 40
0.1292254996
 40
0.1532759452
 40
0.1770867514
 40
0.2008716552
 40
0.2248566549
 40
0.2492633485
 40
0.2742952922
 40
0.3001287059
 40
0.3546751642
 40
0.4136947287
 40
0.4773662202
 40
0.5454203453
 40
0.6172530924
 40
0.6920147356
 40
0.7301930591
 40
0.7687165242
 40
0.8074487239
 40
0.8462593959
 40
0.8850344244
 40
0.9236605005
 40
0.9620115403
 40
0.9810512615
 40
1.0
 40
1.0
 40
1.0
 40
1.0
 10
5.875999508
 20
-42.1107328126
 30
0.0
 10
5.8220485714
 20
-42.2406532058
 30
0.0
 10
5.7133855224
 20
-42.4979965972
 30
0.0
 10
5.5365187721
 20
-42.874221908
 30
0.0
 10
5.3464480267
 20
-43.2364266386
 30
0.0
 10
5.1429024059
 20
-43.58337845
 30
0.0
 10
4.9263476737
 20
-43.9146467219
 30
0.0
 10
4.6969432107
 20
-44.2298098237
 30
0.0
 10
4.455511884
 20
-44.5290685924
 30
0.0
 10
4.1212305605
 20
-44.9057912276
 30
0.0
 10
3.6764728203
 20
-45.3397820442
 30
0.0
 10
3.0935808537
 20
-45.791749812
 30
0.0
 10
2.4669938372
 20
-46.1677056679
 30
0.0
 10
1.7993770502
 20
-46.4632977046
 30
0.0
 10
1.0945970252
 20
-46.6759785642
 30
0.0
 10
0.356800702
 20
-46.8037328321
 30
0.0
 10
-0.4095473583
 20
-46.8456828947
 30
0.0
 10
-1.4821945893
 20
-46.7857108856
 30
0.0
 10
-2.8777320223
 20
-46.4827568608
 30
0.0
 10
-4.5518207291
 20
-45.7924860639
 30
0.0
 10
-6.2197411332
 20
-44.7879561072
 30
0.0
 10
-7.8435706366
 20
-43.4943064406
 30
0.0
 10
-9.3864660163
 20
-41.942748244
 30
0.0
 10
-10.5677459209
 20
-40.4760229719
 30
0.0
 10
-11.4454072995
 20
-39.2088553495
 30
0.0
 10
-12.0680362343
 20
-38.2125496893
 30
0.0
 10
-12.6480372261
 20
-37.1834988146
 30
0.0
 10
-13.1829096042
 20
-36.1274880807
 30
0.0
 10
-13.6762600452
 20
-35.0526770811
 30
0.0
 10
-14.1222505324
 20
-33.9623333096
 30
0.0
 10
-14.4508738429
 20
-33.0420193996
 30
0.0
 10
-14.68761146
 20
-32.3022523855
 30
0.0
 10
-14.7976706979
 20
-31.9317434326
 30
0.0
 10
-14.8519477422
 20
-31.7467591399
 30
0.0
  0
SPLINE
  5
5C5
100
AcDbEntity
  8
0
100
AcDbSpline
 62
250
  6
CONTINUOUS
 70
0
 71
3
 72
23
 73
19
 74
0
 42
0.0000001
 43
0.0000001
 44
0.0000000001
 40
0.0
 40
0.0
 40
0.0
 40
0.0
 40
0.0632914685
 40
0.131879399
 40
0.2046716427
 40
0.2801512211
 40
0.3565684366
 40
0.4320944277
 40
0.5049749798
 40
0.5736884141
 40
0.6371222951
 40
0.6947835754
 40
0.7470409834
 40
0.7953347739
 40
0.8421308593
 40
0.8903526763
 40
0.9424837396
 40
1.0
 40
1.0
 40
1.0
 40
1.0
 10
-4.4879741254
 20
-40.3279194944
 30
0.0
 10
-4.6573988949
 20
-40.2432071096
 30
0.0
 10
-4.9932027556
 20
-40.0312043064
 30
0.0
 10
-5.4543491758
 20
-39.6249575844
 30
0.0
 10
-5.8789749828
 20
-39.1315808338
 30
0.0
 10
-6.2511859093
 20
-38.5695332018
 30
0.0
 10
-6.5572271916
 20
-37.959763255
 30
0.0
 10
-6.7856381455
 20
-37.3250786038
 30
0.0
 10
-6.9278704762
 20
-36.6891287951
 30
0.0
 10
-6.978511107
 20
-36.0753946284
 30
0.0
 10
-6.9352557434
 20
-35.5061714822
 30
0.0
 10
-6.7984622568
 20
-35.0018251898
 30
0.0
 10
-6.5703517605
 20
-34.5809653656
 30
0.0
 10
-6.2554571032
 20
-34.2624482766
 30
0.0
 10
-5.8657296607
 20
-34.0655147409
 30
0.0
 10
-5.4229894575
 20
-34.0013291965
 30
0.0
 10
-4.9500911525
 20
-34.0680194089
 30
0.0
 10
-4.6419392553
 20
-34.188759103
 30
0.0
 10
-4.4879741254
 20
-34.2657416679
 30
0.0
  0
SPLINE
  5
5C6
100
AcDbEntity
  8
0
100
AcDbSpline
 62
250
  6
CONTINUOUS
 70
0
 71
3
 72
23
 73
19
 74
0
 42
0.0000001
 43
0.0000001
 44
0.0000000001
 40
0.0
 40
0.0
 40
0.0
 40
0.0
 40
0.0632914685
 40
0.131879399
 40
0.2046716427
 40
0.2801512211
 40
0.3565684366
 40
0.4320944277
 40
0.5049749798
 40
0.5736884141
 40
0.6371222951
 40
0.6947835754
 40
0.7470409834
 40
0.7953347739
 40
0.8421308593
 40
0.8903526763
 40
0.9424837396
 40
1.0
 40
1.0
 40
1.0
 40
1.0
 10
-4.4879741254
 20
-34.2657416679
 30
0.0
 10
-4.3185493559
 20
-34.3504540527
 30
0.0
 10
-3.9827454953
 20
-34.5624568559
 30
0.0
 10
-3.521599075
 20
-34.9687035779
 30
0.0
 10
-3.096973268
 20
-35.4620803285
 30
0.0
 10
-2.7247623416
 20
-36.0241279605
 30
0.0
 10
-2.4187210592
 20
-36.6338979073
 30
0.0
 10
-2.1903101054
 20
-37.2685825585
 30
0.0
 10
-2.0480777747
 20
-37.9045323673
 30
0.0
 10
-1.9974371438
 20
-38.518266534
 30
0.0
 10
-2.0406925075
 20
-39.0874896802
 30
0.0
 10
-2.177485994
 20
-39.5918359725
 30
0.0
 10
-2.4055964903
 20
-40.0126957967
 30
0.0
 10
-2.7204911476
 20
-40.3312128857
 30
0.0
 10
-3.1102185901
 20
-40.5281464214
 30
0.0
 10
-3.5529587933
 20
-40.5923319658
 30
0.0
 10
-4.0258570983
 20
-40.5256417534
 30
0.0
 10
-4.3340089955
 20
-40.4049020594
 30
0.0
 10
-4.4879741254
 20
-40.3279194944
 30
0.0
  0
SPLINE
  5
5C7
100
AcDbEntity
  8
0
100
AcDbSpline
 62
250
  6
CONTINUOUS
 70
0
 71
3
 72
9
 73
5
 74
0
 42
0.0000001
 43
0.0000001
 44
0.0000000001
 40
0.0
 40
0.0
 40
0.0
 40
0.0
 40
0.2555733887
 40
1.0
 40
1.0
 40
1.0
 40
1.0
 10
10.329600736
 20
-38.2711662533
 30
0.0
 10
10.7402962876
 20
-38.1054161128
 30
0.0
 10
12.3411165925
 20
-37.4418338392
 30
0.0
 10
13.9167777358
 20
-36.7170627814
 30
0.0
 10
15.0705994422
 20
-36.1401519282
 30
0.0
  0
SPLINE
  5
5C8
100
AcDbEntity
  8
0
100
AcDbSpline
 62
250
  6
CONTINUOUS
 70
0
 71
3
 72
16
 73
12
 74
0
 42
0.0000001
 43
0.0000001
 44
0.0000000001
 40
0.0
 40
0.0
 40
0.0
 40
0.0
 40
0.2624809915
 40
0.3904984064
 40
0.5164156587
 40
0.6402889683
 40
0.7621852661
 40
0.8224169402
 40
0.8821839444
 40
0.9414894665
 40
1.0
 40
1.0
 40
1.0
 40
1.0
 10
8.9204290304
 20
-49.5610084106
 30
0.0
 10
8.7207235714
 20
-50.3086413891
 30
0.0
 10
8.3947902562
 20
-51.413615937
 30
0.0
 10
7.9008973228
 20
-52.8539496686
 30
0.0
 10
7.5078991536
 20
-53.8963704819
 30
0.0
 10
7.0891044683
 20
-54.9091895683
 30
0.0
 10
6.7169630328
 20
-55.7312152637
 30
0.0
 10
6.4061829386
 20
-56.3731271351
 30
0.0
 10
6.1673570003
 20
-56.8447533367
 30
0.0
 10
5.9230487214
 20
-57.3078479083
 30
0.0
 10
5.7542924598
 20
-57.6114626357
 30
0.0
 10
5.6725020981
 20
-57.7633402096
 30
0.0
  0
SPLINE
  5
5C9
100
AcDbEntity
  8
0
100
AcDbSpline
 62
7
  6
CONTINUOUS
 70
0
 71
3
 72
10
 73
6
 74
0
 42
0.0000001
 43
0.0000001
 44
0.0000000001
 40
0.0
 40
0.0
 40
0.0
 40
0.0
 40
0.2500416329
 40
0.499834675
 40
1.0
 40
1.0
 40
1.0
 40
1.0
 10
0.9141234278
 20
-19.5487706034
 30
0.0
 10
0.8968654343
 20
-19.462318118
 30
0.0
 10
0.8635370446
 20
-19.2892673084
 30
0.0
 10
0.7971354945
 20
-18.9430042739
 30
0.0
 10
0.7469439746
 20
-18.6833915531
 30
0.0
 10
0.7123294661
 20
-18.5104767726
 30
0.0
  0
SPLINE
  5
5CA
100
AcDbEntity
  8
0
100
AcDbSpline
 62
7
  6
CONTINUOUS
 70
0
 71
3
 72
11
 73
7
 74
0
 42
0.0000001
 43
0.0000001
 44
0.0000000001
 40
0.0
 40
0.0
 40
0.0
 40
0.0
 40
0.2378193536
 40
0.4940426947
 40
0.754806285
 40
1.0
 40
1.0
 40
1.0
 40
1.0
 10
0.7123294657
 20
-18.5104767725
 30
0.0
 10
0.6984163232
 20
-18.4409744735
 30
0.0
 10
0.6705723448
 20
-18.2963543467
 30
0.0
 10
0.6108481143
 20
-18.0790414795
 30
0.0
 10
0.5261708651
 20
-17.867734119
 30
0.0
 10
0.4439281946
 20
-17.7389014418
 30
0.0
 10
0.394850546
 20
-17.684754049
 30
0.0
  0
SPLINE
  5
5CB
100
AcDbEntity
  8
0
100
AcDbSpline
 62
250
  6
CONTINUOUS
 70
0
 71
3
 72
10
 73
6
 74
0
 42
0.0000001
 43
0.0000001
 44
0.0000000001
 40
0.0
 40
0.0
 40
0.0
 40
0.0
 40
0.2570733177
 40
0.5096415994
 40
1.0
 40
1.0
 40
1.0
 40
1.0
 10
10.2061393806
 20
-41.920121766
 30
0.0
 10
10.1570274893
 20
-42.5830904009
 30
0.0
 10
10.0293401893
 20
-43.8954463957
 30
0.0
 10
9.6568382489
 20
-46.4550595015
 30
0.0
 10
9.2476727461
 20
-48.3359067176
 30
0.0
 10
8.9204290304
 20
-49.5610084106
 30
0.0
  0
SPLINE
  5
5CC
100
AcDbEntity
  8
0
100
AcDbSpline
 62
7
  6
CONTINUOUS
 70
0
 71
3
 72
13
 73
9
 74
0
 42
0.0000001
 43
0.0000001
 44
0.0000000001
 40
0.0
 40
0.0
 40
0.0
 40
0.0
 40
0.1392806197
 40
0.2727491983
 40
0.4015400055
 40
0.5264151396
 40
0.7672866377
 40
1.0
 40
1.0
 40
1.0
 40
1.0
 10
0.3111733366
 20
-15.8605507363
 30
0.0
 10
0.2551441501
 20
-15.8077447792
 30
0.0
 10
0.1395013746
 20
-15.7104602722
 30
0.0
 10
-0.0435375247
 20
-15.5845097636
 30
0.0
 10
-0.2277884654
 20
-15.4754105501
 30
0.0
 10
-0.4704458293
 20
-15.3492568907
 30
0.0
 10
-0.7752629619
 20
-15.2194219739
 30
0.0
 10
-1.0231490247
 20
-15.1348455529
 30
0.0
 10
-1.1456750513
 20
-15.0956593803
 30
0.0
  0
SPLINE
  5
5CD
100
AcDbEntity
  8
0
100
AcDbSpline
 62
250
  6
CONTINUOUS
 70
0
 71
3
 72
11
 73
7
 74
0
 42
0.0000001
 43
0.0000001
 44
0.0000000001
 40
0.0
 40
0.0
 40
0.0
 40
0.0
 40
0.2727944263
 40
0.5303978807
 40
0.7725568667
 40
1.0
 40
1.0
 40
1.0
 40
1.0
 10
15.0705994422
 20
-36.1401519282
 30
0.0
 10
15.0705994422
 20
-37.9828457001
 30
0.0
 10
14.894988661
 20
-41.5690930566
 30
0.0
 10
14.0567311283
 20
-46.732124971
 30
0.0
 10
12.6615967568
 20
-51.4564481183
 30
0.0
 10
11.3307954428
 20
-54.352250359
 30
0.0
 10
10.5749412018
 20
-55.6898076051
 30
0.0
  0
SPLINE
  5
5CE
100
AcDbEntity
  8
0
100
AcDbSpline
 62
7
  6
CONTINUOUS
 70
0
 71
3
 72
9
 73
5
 74
0
 42
0.0000001
 43
0.0000001
 44
0.0000000001
 40
0.0
 40
0.0
 40
0.0
 40
0.0
 40
0.4680966236
 40
1.0
 40
1.0
 40
1.0
 40
1.0
 10
0.0395693276
 20
-17.1049895673
 30
0.0
 10
-0.0043860777
 20
-17.1147118377
 30
0.0
 10
-0.1038942949
 20
-17.1057431027
 30
0.0
 10
-0.1936758747
 20
-17.0708461049
 30
0.0
 10
-0.2399244464
 20
-17.048986975
 30
0.0
  0
SPLINE
  5
5CF
100
AcDbEntity
  8
0
100
AcDbSpline
 62
7
  6
CONTINUOUS
 70
0
 71
3
 72
11
 73
7
 74
0
 42
0.0000001
 43
0.0000001
 44
0.0000000001
 40
0.0
 40
0.0
 40
0.0
 40
0.0
 40
0.2212587152
 40
0.4617334924
 40
0.7241282851
 40
1.0
 40
1.0
 40
1.0
 40
1.0
 10
0.0618578416
 20
-17.1003694577
 30
0.0
 10
0.0397389801
 20
-17.1114288629
 30
0.0
 10
-0.0117418193
 20
-17.1242309168
 30
0.0
 10
-0.0931920823
 20
-17.1186249193
 30
0.0
 10
-0.177595542
 20
-17.0959487785
 30
0.0
 10
-0.2332609468
 20
-17.0727693452
 30
0.0
 10
-0.2611376499
 20
-17.0595935767
 30
0.0
  0
SPLINE
  5
5D0
100
AcDbEntity
  8
0
100
AcDbSpline
 62
7
  6
CONTINUOUS
 70
0
 71
3
 72
21
 73
17
 74
0
 42
0.0000001
 43
0.0000001
 44
0.0000000001
 40
0.0
 40
0.0
 40
0.0
 40
0.0
 40
0.045204665
 40
0.0907261154
 40
0.1393055807
 40
0.1908722678
 40
0.2459141151
 40
0.3045549267
 40
0.3663627852
 40
0.4310044512
 40
0.5677905685
 40
0.7125625849
 40
0.7860737352
 40
0.8590529968
 40
0.9308898687
 40
1.0
 40
1.0
 40
1.0
 40
1.0
 10
0.4753919915
 20
-17.616689986
 30
0.0
 10
0.5017847595
 20
-17.6027374009
 30
0.0
 10
0.5537317822
 20
-17.5723510473
 30
0.0
 10
0.6223509104
 20
-17.5097716617
 30
0.0
 10
0.6766514969
 20
-17.4295571501
 30
0.0
 10
0.7199604277
 20
-17.3362665847
 30
0.0
 10
0.7502868184
 20
-17.2310277846
 30
0.0
 10
0.7680825887
 20
-17.1162566891
 30
0.0
 10
0.7740104764
 20
-16.9939749472
 30
0.0
 10
0.7675716865
 20
-16.8200936267
 30
0.0
 10
0.7301002264
 20
-16.5933044191
 30
0.0
 10
0.6514128574
 20
-16.3710868511
 30
0.0
 10
0.5653816759
 20
-16.1988507732
 30
0.0
 10
0.4900420266
 20
-16.0756867503
 30
0.0
 10
0.4066286991
 20
-15.9615177386
 30
0.0
 10
0.3443985451
 20
-15.8918432689
 30
0.0
 10
0.3111733366
 20
-15.8605507363
 30
0.0
  0
SPLINE
  5
5D1
100
AcDbEntity
  8
0
100
AcDbSpline
 62
250
  6
CONTINUOUS
 70
0
 71
3
 72
10
 73
6
 74
0
 42
0.0000001
 43
0.0000001
 44
0.0000000001
 40
0.0
 40
0.0
 40
0.0
 40
0.0
 40
0.1968103882
 40
0.4342929342
 40
1.0
 40
1.0
 40
1.0
 40
1.0
 10
-14.96360362
 20
-35.9478799303
 30
0.0
 10
-14.9260361945
 20
-35.9479402889
 30
0.0
 10
-14.84313689
 20
-35.945377963
 30
0.0
 10
-14.6526770688
 20
-35.932415632
 30
0.0
 10
-14.5002229796
 20
-35.9154340416
 30
0.0
 10
-14.3931250714
 20
-35.901636339
 30
0.0
  0
SPLINE
  5
5D2
100
AcDbEntity
  8
0
100
AcDbSpline
 62
7
  6
CONTINUOUS
 70
0
 71
3
 72
21
 73
17
 74
0
 42
0.0000001
 43
0.0000001
 44
0.0000000001
 40
0.0
 40
0.0
 40
0.0
 40
0.0
 40
0.0457761112
 40
0.0910890439
 40
0.139158247
 40
0.1903250645
 40
0.2449080168
 40
0.3032071946
 40
0.3648100791
 40
0.429342103
 40
0.5661444017
 40
0.7112724464
 40
0.7850931602
 40
0.8584065287
 40
0.9305763308
 40
1.0
 40
1.0
 40
1.0
 40
1.0
 10
0.4331621413
 20
-17.6381134254
 30
0.0
 10
0.4605235302
 20
-17.6244327104
 30
0.0
 10
0.5141385548
 20
-17.5952845794
 30
0.0
 10
0.5871532446
 20
-17.5363340135
 30
0.0
 10
0.6451153705
 20
-17.4580357867
 30
0.0
 10
0.6914525399
 20
-17.3658508999
 30
0.0
 10
0.7247511771
 20
-17.260957056
 30
0.0
 10
0.7449058839
 20
-17.1458258459
 30
0.0
 10
0.7526768692
 20
-17.0226115811
 30
0.0
 10
0.7481089156
 20
-16.8467917537
 30
0.0
 10
0.7124104496
 20
-16.6167393213
 30
0.0
 10
0.6341425183
 20
-16.3908664769
 30
0.0
 10
0.5476131717
 20
-16.2155683844
 30
0.0
 10
0.4714628126
 20
-16.0901129266
 30
0.0
 10
0.3869017979
 20
-15.9738847067
 30
0.0
 10
0.3237332182
 20
-15.9029658777
 30
0.0
 10
0.2899601332
 20
-15.871157338
 30
0.0
  0
SPLINE
  5
5D3
100
AcDbEntity
  8
0
100
AcDbSpline
 62
250
  6
CONTINUOUS
 70
0
 71
3
 72
11
 73
7
 74
0
 42
0.0000001
 43
0.0000001
 44
0.0000000001
 40
0.0
 40
0.0
 40
0.0
 40
0.0
 40
0.2610209813
 40
0.5114729693
 40
0.7559901142
 40
1.0
 40
1.0
 40
1.0
 40
1.0
 10
5.6725024658
 20
-57.7633400793
 30
0.0
 10
5.6159848803
 20
-57.8672681283
 30
0.0
 10
5.4888756035
 20
-58.0626676744
 30
0.0
 10
5.2530044592
 20
-58.31379187
 30
0.0
 10
4.9801487887
 20
-58.5114795321
 30
0.0
 10
4.7775901319
 20
-58.6048324812
 30
0.0
 10
4.6732300776
 20
-58.6414318713
 30
0.0
  0
SPLINE
  5
5D4
100
AcDbEntity
  8
0
100
AcDbSpline
 62
250
  6
CONTINUOUS
 70
0
 71
3
 72
9
 73
5
 74
0
 42
0.0000001
 43
0.0000001
 44
0.0000000001
 40
0.0
 40
0.0
 40
0.0
 40
0.0
 40
0.2532686558
 40
1.0
 40
1.0
 40
1.0
 40
1.0
 10
5.6725024658
 20
-57.7633400793
 30
0.0
 10
6.0964915035
 20
-57.6139459881
 30
0.0
 10
7.7616108074
 20
-56.9990790214
 30
0.0
 10
9.3894583138
 20
-56.2825490491
 30
0.0
 10
10.5749412018
 20
-55.6898076051
 30
0.0
  0
SPLINE
  5
5D5
100
AcDbEntity
  8
0
100
AcDbSpline
 62
250
  6
CONTINUOUS
 70
0
 71
3
 72
11
 73
7
 74
0
 42
0.0000001
 43
0.0000001
 44
0.0000000001
 40
0.0
 40
0.0
 40
0.0
 40
0.0
 40
0.2271105074
 40
0.4646755536
 40
0.7207700441
 40
1.0
 40
1.0
 40
1.0
 40
1.0
 10
-2.7927806547
 20
-39.8033340462
 30
0.0
 10
-2.8869908655
 20
-39.8504459033
 30
0.0
 10
-3.0946122234
 20
-39.9195282109
 30
0.0
 10
-3.4319356467
 20
-39.9364005916
 30
0.0
 10
-3.7869504293
 20
-39.8697024716
 30
0.0
 10
-4.0185869609
 20
-39.7760469842
 30
0.0
 10
-4.1344207348
 20
-39.7181300972
 30
0.0
  0
SPLINE
  5
5D6
100
AcDbEntity
  8
0
100
AcDbSpline
 62
250
  6
CONTINUOUS
 70
0
 71
3
 72
9
 73
5
 74
0
 42
0.0000001
 43
0.0000001
 44
0.0000000001
 40
0.0
 40
0.0
 40
0.0
 40
0.0
 40
0.2578419897
 40
1.0
 40
1.0
 40
1.0
 40
1.0
 10
10.5749412018
 20
-55.6898076051
 30
0.0
 10
10.5475317072
 20
-55.7383113591
 30
0.0
 10
10.4352180642
 20
-55.9229125623
 30
0.0
 10
10.2978169906
 20
-56.0926624603
 30
0.0
 10
10.1829662956
 20
-56.2045761202
 30
0.0
  0
SPLINE
  5
5D7
100
AcDbEntity
  8
0
100
AcDbSpline
 62
250
  6
CONTINUOUS
 70
0
 71
3
 72
9
 73
5
 74
0
 42
0.0000001
 43
0.0000001
 44
0.0000000001
 40
0.0
 40
0.0
 40
0.0
 40
0.0
 40
0.5035274472
 40
1.0
 40
1.0
 40
1.0
 40
1.0
 10
10.164739014
 20
-56.2221180316
 30
0.0
 10
10.0953229941
 20
-56.2880971044
 30
0.0
 10
9.9479393602
 20
-56.4095198399
 30
0.0
 10
9.7840567134
 20
-56.5076479509
 30
0.0
 10
9.6995946582
 20
-56.5498708336
 30
0.0
  0
SPLINE
  5
5D8
100
AcDbEntity
  8
0
100
AcDbSpline
 62
250
  6
CONTINUOUS
 70
0
 71
3
 72
20
 73
16
 74
0
 42
0.0000001
 43
0.0000001
 44
0.0000000001
 40
0.0
 40
0.0
 40
0.0
 40
0.0
 40
0.1235485542
 40
0.1910475218
 40
0.2613272056
 40
0.4062450157
 40
0.5501866985
 40
0.6192971035
 40
0.6852512648
 40
0.7473749794
 40
0.8052573503
 40
0.8588355075
 40
0.9084842781
 40
0.9550833343
 40
1.0
 40
1.0
 40
1.0
 40
1.0
 10
-4.1344207348
 20
-39.7181300972
 30
0.0
 10
-4.3666653749
 20
-39.6020077772
 30
0.0
 10
-4.6982861538
 20
-39.365162374
 30
0.0
 10
-5.0869167696
 20
-38.9765841552
 30
0.0
 10
-5.4616259219
 20
-38.5141018192
 30
0.0
 10
-5.8482301959
 20
-37.8604532201
 30
0.0
 10
-6.1083525086
 20
-37.1492683364
 30
0.0
 10
-6.2247313428
 20
-36.5735930529
 30
0.0
 10
-6.2623293122
 20
-36.1599513569
 30
0.0
 10
-6.2504839366
 20
-35.7682339101
 30
0.0
 10
-6.1892181762
 20
-35.4072428769
 30
0.0
 10
-6.079467013
 20
-35.0851446979
 30
0.0
 10
-5.922844572
 20
-34.8094449929
 30
0.0
 10
-5.7221888478
 20
-34.5874654845
 30
0.0
 10
-5.5604920591
 20
-34.4789954007
 30
0.0
 10
-5.4760608348
 20
-34.4367737355
 30
0.0
  0
SPLINE
  5
5D9
100
AcDbEntity
  8
0
100
AcDbSpline
 62
250
  6
CONTINUOUS
 70
0
 71
3
 72
11
 73
7
 74
0
 42
0.0000001
 43
0.0000001
 44
0.0000000001
 40
0.0
 40
0.0
 40
0.0
 40
0.0
 40
0.3025085859
 40
0.5655129823
 40
0.7934189123
 40
1.0
 40
1.0
 40
1.0
 40
1.0
 10
-17.9703520696
 20
-1.9768032842
 30
0.0
 10
-18.0137596198
 20
-1.9550995091
 30
0.0
 10
-18.0922255863
 20
-1.9085261977
 30
0.0
 10
-18.1874944469
 20
-1.822467817
 30
0.0
 10
-18.2485853257
 20
-1.7266271282
 30
0.0
 10
-18.263249654
 20
-1.6563914671
 30
0.0
 10
-18.2632401382
 20
-1.623249894
 30
0.0
  0
SPLINE
  5
5DA
100
AcDbEntity
  8
0
100
AcDbSpline
 62
250
  6
CONTINUOUS
 70
0
 71
3
 72
11
 73
7
 74
0
 42
0.0000001
 43
0.0000001
 44
0.0000000001
 40
0.0
 40
0.0
 40
0.0
 40
0.0
 40
0.2426293955
 40
0.507215476
 40
0.7679570037
 40
1.0
 40
1.0
 40
1.0
 40
1.0
 10
10.329600736
 20
-38.2711662533
 30
0.0
 10
10.2270570992
 20
-38.3125512212
 30
0.0
 10
10.0008804645
 20
-38.370208537
 30
0.0
 10
9.6498624709
 20
-38.3919864226
 30
0.0
 10
9.305271966
 20
-38.3526205103
 30
0.0
 10
9.0889940337
 20
-38.2829444554
 30
0.0
 10
8.9944038187
 20
-38.2356493479
 30
0.0
  0
SPLINE
  5
5DB
100
AcDbEntity
  8
0
100
AcDbSpline
 62
250
  6
CONTINUOUS
 70
0
 71
3
 72
11
 73
7
 74
0
 42
0.0000001
 43
0.0000001
 44
0.0000000001
 40
0.0
 40
0.0
 40
0.0
 40
0.0
 40
0.2426293955
 40
0.507215476
 40
0.7679570037
 40
1.0
 40
1.0
 40
1.0
 40
1.0
 10
10.329600736
 20
-15.4946981338
 30
0.0
 10
10.2270570992
 20
-15.5360831017
 30
0.0
 10
10.0008804645
 20
-15.5937404174
 30
0.0
 10
9.6498624709
 20
-15.6155183031
 30
0.0
 10
9.305271966
 20
-15.5761523907
 30
0.0
 10
9.0889940336
 20
-15.5064763359
 30
0.0
 10
8.9944038187
 20
-15.4591812284
 30
0.0
  0
SPLINE
  5
5DC
100
AcDbEntity
  8
0
100
AcDbSpline
 62
250
  6
CONTINUOUS
 70
0
 71
3
 72
11
 73
7
 74
0
 42
0.0000001
 43
0.0000001
 44
0.0000000001
 40
0.0
 40
0.0
 40
0.0
 40
0.0
 40
0.2308410991
 40
0.4703443035
 40
0.7255882544
 40
1.0
 40
1.0
 40
1.0
 40
1.0
 10
2.7257373262
 20
-58.5623642058
 30
0.0
 10
2.6933880015
 20
-58.5501479345
 30
0.0
 10
2.6304705118
 20
-58.5164808505
 30
0.0
 10
2.5495354341
 20
-58.4424675542
 30
0.0
 10
2.4834841936
 20
-58.3470655943
 30
0.0
 10
2.4513597792
 20
-58.2739938567
 30
0.0
 10
2.4378780469
 20
-58.2351617367
 30
0.0
  0
SPLINE
  5
5DD
100
AcDbEntity
  8
0
100
AcDbSpline
 62
250
  6
CONTINUOUS
 70
0
 71
3
 72
11
 73
7
 74
0
 42
0.0000001
 43
0.0000001
 44
0.0000000001
 40
0.0
 40
0.0
 40
0.0
 40
0.0
 40
0.24681248
 40
0.5117852462
 40
0.7703059497
 40
1.0
 40
1.0
 40
1.0
 40
1.0
 10
-17.9703520696
 20
-1.9768032842
 30
0.0
 10
-17.9703520696
 20
-1.9164075106
 30
0.0
 10
-17.9495093873
 20
-1.7909568823
 30
0.0
 10
-17.8740414511
 20
-1.6164915031
 30
0.0
 10
-17.763126493
 20
-1.4673005019
 30
0.0
 10
-17.667071606
 20
-1.3921503505
 30
0.0
 10
-17.616798679
 20
-1.367013887
 30
0.0
  0
SPLINE
  5
5DE
100
AcDbEntity
  8
0
100
AcDbSpline
 62
250
  6
CONTINUOUS
 70
0
 71
3
 72
11
 73
7
 74
0
 42
0.0000001
 43
0.0000001
 44
0.0000000001
 40
0.0
 40
0.0
 40
0.0
 40
0.0
 40
0.2468124806
 40
0.5117852459
 40
0.7703059488
 40
1.0
 40
1.0
 40
1.0
 40
1.0
 10
8.9944038187
 20
-15.4591812284
 30
0.0
 10
8.9944038187
 20
-15.3987854546
 30
0.0
 10
9.0152465011
 20
-15.2733348264
 30
0.0
 10
9.0907144372
 20
-15.0988694474
 30
0.0
 10
9.2016293951
 20
-14.9496784462
 30
0.0
 10
9.2976842821
 20
-14.8745282948
 30
0.0
 10
9.3479572093
 20
-14.8493918312
 30
0.0
  0
SPLINE
  5
5DF
100
AcDbEntity
  8
0
100
AcDbSpline
 62
250
  6
CONTINUOUS
 70
0
 71
3
 72
11
 73
7
 74
0
 42
0.0000001
 43
0.0000001
 44
0.0000000001
 40
0.0
 40
0.0
 40
0.0
 40
0.0
 40
0.2510627609
 40
0.5197780374
 40
0.7777663793
 40
1.0
 40
1.0
 40
1.0
 40
1.0
 10
10.3296007374
 20
-15.4946981332
 30
0.0
 10
10.3296007374
 20
-15.4339964147
 30
0.0
 10
10.3111052201
 20
-15.3081816271
 30
0.0
 10
10.2446806259
 20
-15.1309178103
 30
0.0
 10
10.1471459804
 20
-14.9769460832
 30
0.0
 10
10.0612334122
 20
-14.8954453524
 30
0.0
 10
10.015555668
 20
-14.8671502839
 30
0.0
  0
SPLINE
  5
5E0
100
AcDbEntity
  8
0
100
AcDbSpline
 62
250
  6
CONTINUOUS
 70
0
 71
3
 72
9
 73
5
 74
0
 42
0.0000001
 43
0.0000001
 44
0.0000000001
 40
0.0
 40
0.0
 40
0.0
 40
0.0
 40
0.4810060731
 40
1.0
 40
1.0
 40
1.0
 40
1.0
 10
-4.4594387461
 20
-55.3874425001
 30
0.0
 10
-4.5020500776
 20
-55.3660381687
 30
0.0
 10
-4.5824667184
 20
-55.3036751196
 30
0.0
 10
-4.6357797938
 20
-55.2179056712
 30
0.0
 10
-4.6569587435
 20
-55.1710157224
 30
0.0
  0
SPLINE
  5
5E1
100
AcDbEntity
  8
0
100
AcDbSpline
 62
7
  6
CONTINUOUS
 70
0
 71
3
 72
10
 73
6
 74
0
 42
0.0000001
 43
0.0000001
 44
0.0000000001
 40
0.0
 40
0.0
 40
0.0
 40
0.0
 40
0.2500415732
 40
0.4998345724
 40
1.0
 40
1.0
 40
1.0
 40
1.0
 10
0.8929102244
 20
-19.5593772051
 30
0.0
 10
0.8756508639
 20
-19.4729178722
 30
0.0
 10
0.8423198944
 20
-19.2998533386
 30
0.0
 10
0.7759130804
 20
-18.9535627943
 30
0.0
 10
0.7257173913
 20
-18.693929461
 30
0.0
 10
0.6910997686
 20
-18.5210009797
 30
0.0
  0
SPLINE
  5
5E2
100
AcDbEntity
  8
0
100
AcDbSpline
 62
7
  6
CONTINUOUS
 70
0
 71
3
 72
11
 73
7
 74
0
 42
0.0000001
 43
0.0000001
 44
0.0000000001
 40
0.0
 40
0.0
 40
0.0
 40
0.0
 40
0.2388174009
 40
0.4966466538
 40
0.757268356
 40
1.0
 40
1.0
 40
1.0
 40
1.0
 10
0.6910997686
 20
-18.5210009797
 30
0.0
 10
0.6766182835
 20
-18.4486568455
 30
0.0
 10
0.6475691492
 20
-18.2979657375
 30
0.0
 10
0.584197843
 20
-18.072262745
 30
0.0
 10
0.4936157062
 20
-17.8546525295
 30
0.0
 10
0.4041598571
 20
-17.7242339552
 30
0.0
 10
0.3508256237
 20
-17.671520158
 30
0.0
  0
SPLINE
  5
5E3
100
AcDbEntity
  8
0
100
AcDbSpline
 62
250
  6
CONTINUOUS
 70
0
 71
3
 72
10
 73
6
 74
0
 42
0.0000001
 43
0.0000001
 44
0.0000000001
 40
0.0
 40
0.0
 40
0.0
 40
0.0
 40
0.2331993209
 40
0.4741658718
 40
1.0
 40
1.0
 40
1.0
 40
1.0
 10
-11.5204345812
 20
-51.4397391745
 30
0.0
 10
-11.5422145878
 20
-51.4259700892
 30
0.0
 10
-11.5834470884
 20
-51.3927852213
 30
0.0
 10
-11.6527256295
 20
-51.3058281242
 30
0.0
 10
-11.6838238419
 20
-51.2244494235
 30
0.0
 10
-11.6968065011
 20
-51.1678164309
 30
0.0
  0
SPLINE
  5
5E4
100
AcDbEntity
  8
0
100
AcDbSpline
 62
7
  6
CONTINUOUS
 70
0
 71
3
 72
13
 73
9
 74
0
 42
0.0000001
 43
0.0000001
 44
0.0000000001
 40
0.0
 40
0.0
 40
0.0
 40
0.0
 40
0.1392806197
 40
0.2727491983
 40
0.4015400055
 40
0.5264151396
 40
0.7672866377
 40
1.0
 40
1.0
 40
1.0
 40
1.0
 10
0.2899601332
 20
-15.871157338
 30
0.0
 10
0.2339309467
 20
-15.8183513809
 30
0.0
 10
0.1182881711
 20
-15.7210668739
 30
0.0
 10
-0.0647507281
 20
-15.5951163654
 30
0.0
 10
-0.2490016689
 20
-15.4860171518
 30
0.0
 10
-0.4916590328
 20
-15.3598634924
 30
0.0
 10
-0.7964761654
 20
-15.2300285756
 30
0.0
 10
-1.0443622282
 20
-15.1454521546
 30
0.0
 10
-1.1668882547
 20
-15.106265982
 30
0.0
  0
SPLINE
  5
5E5
100
AcDbEntity
  8
0
100
AcDbSpline
 62
250
  6
CONTINUOUS
 70
0
 71
3
 72
11
 73
7
 74
0
 42
0.0000001
 43
0.0000001
 44
0.0000000001
 40
0.0
 40
0.0
 40
0.0
 40
0.0
 40
0.2468124806
 40
0.5117852459
 40
0.7703059488
 40
1.0
 40
1.0
 40
1.0
 40
1.0
 10
15.0705994422
 20
-13.3636838087
 30
0.0
 10
15.0705994422
 20
-13.3032880349
 30
0.0
 10
15.0497567599
 20
-13.1778374067
 30
0.0
 10
14.9742888237
 20
-13.0033720277
 30
0.0
 10
14.8633738658
 20
-12.8541810266
 30
0.0
 10
14.7673189788
 20
-12.7790308751
 30
0.0
 10
14.7170460516
 20
-12.7538944115
 30
0.0
  0
SPLINE
  5
5E6
100
AcDbEntity
  8
0
100
AcDbSpline
 62
250
  6
CONTINUOUS
 70
0
 71
3
 72
10
 73
6
 74
0
 42
0.0000001
 43
0.0000001
 44
0.0000000001
 40
0.0
 40
0.0
 40
0.0
 40
0.0
 40
0.2287980312
 40
0.4736736367
 40
1.0
 40
1.0
 40
1.0
 40
1.0
 10
-2.578785246
 20
-56.6618488852
 30
0.0
 10
-2.4064128332
 20
-56.7480349611
 30
0.0
 10
-2.040159167
 20
-56.9080757775
 30
0.0
 10
-1.241690443
 20
-57.1782969609
 30
0.0
 10
-0.6036704305
 20
-57.3149396109
 30
0.0
 10
-0.1652611713
 20
-57.3807979597
 30
0.0
  0
SPLINE
  5
5E7
100
AcDbEntity
  8
0
100
AcDbSpline
 62
250
  6
CONTINUOUS
 70
0
 71
3
 72
11
 73
7
 74
0
 42
0.0000001
 43
0.0000001
 44
0.0000000001
 40
0.0
 40
0.0
 40
0.0
 40
0.0
 40
0.1684549064
 40
0.3788992231
 40
0.6534333028
 40
1.0
 40
1.0
 40
1.0
 40
1.0
 10
-13.9691875517
 20
-48.2797665492
 30
0.0
 10
-13.9672688584
 20
-48.2847571992
 30
0.0
 10
-13.9593607175
 20
-48.2946333978
 30
0.0
 10
-13.9404321152
 20
-48.30390139
 30
0.0
 10
-13.9146057515
 20
-48.3098608064
 30
0.0
 10
-13.8949014999
 20
-48.3114785174
 30
0.0
 10
-13.883910093
 20
-48.3119146059
 30
0.0
  0
SPLINE
  5
5E8
100
AcDbEntity
  8
0
100
AcDbSpline
 62
250
  6
CONTINUOUS
 70
0
 71
3
 72
11
 73
7
 74
0
 42
0.0000001
 43
0.0000001
 44
0.0000000001
 40
0.0
 40
0.0
 40
0.0
 40
0.0
 40
0.1931228668
 40
0.4139954208
 40
0.6806018486
 40
1.0
 40
1.0
 40
1.0
 40
1.0
 10
-17.0810792198
 20
-36.9309267977
 30
0.0
 10
-17.0786169394
 20
-36.9444185723
 30
0.0
 10
-17.0666012509
 20
-36.9723171512
 30
0.0
 10
-17.0320163896
 20
-37.0071273435
 30
0.0
 10
-16.9824567834
 20
-37.0366425569
 30
0.0
 10
-16.9434639093
 20
-37.0516365701
 30
0.0
 10
-16.9218685167
 20
-37.058573056
 30
0.0
  0
SPLINE
  5
5E9
100
AcDbEntity
  8
0
100
AcDbSpline
 62
250
  6
CONTINUOUS
 70
0
 71
3
 72
9
 73
5
 74
0
 42
0.0000001
 43
0.0000001
 44
0.0000000001
 40
0.0
 40
0.0
 40
0.0
 40
0.0
 40
0.2443973909
 40
1.0
 40
1.0
 40
1.0
 40
1.0
 10
14.7170460516
 20
-12.7538944115
 30
0.0
 10
14.3413980892
 20
-12.9417183927
 30
0.0
 10
12.7961480013
 20
-13.6937510143
 30
0.0
 10
11.2196637556
 20
-14.3811915636
 30
0.0
 10
10.015555668
 20
-14.8671502839
 30
0.0
  0
SPLINE
  5
5EA
100
AcDbEntity
  8
0
100
AcDbSpline
 62
250
  6
CONTINUOUS
 70
0
 71
3
 72
10
 73
6
 74
0
 42
0.0000001
 43
0.0000001
 44
0.0000000001
 40
0.0
 40
0.0
 40
0.0
 40
0.0
 40
0.4571226394
 40
0.7180024842
 40
1.0
 40
1.0
 40
1.0
 40
1.0
 10
-3.8194302093
 20
-55.7029010955
 30
0.0
 10
-3.6757922343
 20
-55.8959794262
 30
0.0
 10
-3.3971194368
 20
-56.1603286089
 30
0.0
 10
-2.9624129872
 20
-56.4572446478
 30
0.0
 10
-2.7115670466
 20
-56.5954580346
 30
0.0
 10
-2.578785246
 20
-56.6618488852
 30
0.0
  0
SPLINE
  5
5EB
100
AcDbEntity
  8
0
100
AcDbSpline
 62
250
  6
CONTINUOUS
 70
0
 71
3
 72
11
 73
7
 74
0
 42
0.0000001
 43
0.0000001
 44
0.0000000001
 40
0.0
 40
0.0
 40
0.0
 40
0.0
 40
0.2426329503
 40
0.5072144652
 40
0.7679538281
 40
1.0
 40
1.0
 40
1.0
 40
1.0
 10
10.015555668
 20
-14.8671502839
 30
0.0
 10
9.9642831745
 20
-14.8878430403
 30
0.0
 10
9.8511958479
 20
-14.9166782933
 30
0.0
 10
9.6756871657
 20
-14.9275433656
 30
0.0
 10
9.5033909098
 20
-14.907884248
 30
0.0
 10
9.3952528939
 20
-14.8730396734
 30
0.0
 10
9.3479572093
 20
-14.8493918312
 30
0.0
  0
SPLINE
  5
5EC
100
AcDbEntity
  8
0
100
AcDbSpline
 62
250
  6
CONTINUOUS
 70
0
 71
3
 72
10
 73
6
 74
0
 42
0.0000001
 43
0.0000001
 44
0.0000000001
 40
0.0
 40
0.0
 40
0.0
 40
0.0
 40
0.2309805326
 40
0.4709498389
 40
1.0
 40
1.0
 40
1.0
 40
1.0
 10
-17.9156153474
 20
-1.0411731072
 30
0.0
 10
-17.8978030664
 20
-1.0301453408
 30
0.0
 10
-17.8581093089
 20
-1.0126841605
 30
0.0
 10
-17.7675548076
 20
-0.9993538087
 30
0.0
 10
-17.6968126487
 20
-1.0152563559
 30
0.0
 10
-17.6523155844
 20
-1.0332146577
 30
0.0
  0
SPLINE
  5
5ED
100
AcDbEntity
  8
0
100
AcDbSpline
 62
250
  6
CONTINUOUS
 70
0
 71
3
 72
15
 73
11
 74
0
 42
0.0000001
 43
0.0000001
 44
0.0000000001
 40
0.0
 40
0.0
 40
0.0
 40
0.0
 40
0.1545641615
 40
0.2905446861
 40
0.4092138445
 40
0.5160450206
 40
0.6199282185
 40
0.7308224283
 40
0.8564139032
 40
1.0
 40
1.0
 40
1.0
 40
1.0
 10
-17.616798679
 20
-1.367013887
 30
0.0
 10
-17.6371149462
 20
-1.3568557534
 30
0.0
 10
-17.6740984035
 20
-1.3350961272
 30
0.0
 10
-17.7198888016
 20
-1.295473493
 30
0.0
 10
-17.750978453
 20
-1.2515522308
 30
0.0
 10
-17.7654178726
 20
-1.2042923167
 30
0.0
 10
-17.7615524643
 20
-1.1560629223
 30
0.0
 10
-17.7398305443
 20
-1.1100180893
 30
0.0
 10
-17.7023817892
 20
-1.0678513273
 30
0.0
 10
-17.6702537781
 20
-1.0443264678
 30
0.0
 10
-17.6523155844
 20
-1.0332146577
 30
0.0
  0
SPLINE
  5
5EE
100
AcDbEntity
  8
0
100
AcDbSpline
 62
250
  6
CONTINUOUS
 70
0
 71
3
 72
10
 73
6
 74
0
 42
0.0000001
 43
0.0000001
 44
0.0000000001
 40
0.0
 40
0.0
 40
0.0
 40
0.0
 40
0.2277035462
 40
0.4658623024
 40
1.0
 40
1.0
 40
1.0
 40
1.0
 10
-13.6494075866
 20
1.3317253252
 30
0.0
 10
-13.6337048399
 20
1.3395730035
 30
0.0
 10
-13.5990992442
 20
1.3510979716
 30
0.0
 10
-13.5213836851
 20
1.3550026498
 30
0.0
 10
-13.4626352364
 20
1.3359462325
 30
0.0
 10
-13.4258038396
 20
1.3175305341
 30
0.0
  0
SPLINE
  5
5EF
100
AcDbEntity
  8
0
100
AcDbSpline
 62
250
  6
CONTINUOUS
 70
0
 71
3
 72
9
 73
5
 74
0
 42
0.0000001
 43
0.0000001
 44
0.0000000001
 40
0.0
 40
0.0
 40
0.0
 40
0.0
 40
0.2438919139
 40
1.0
 40
1.0
 40
1.0
 40
1.0
 10
-17.6523155844
 20
-1.0332146577
 30
0.0
 10
-17.331379177
 20
-0.834410671
 30
0.0
 10
-16.0058855945
 20
-0.0348256138
 30
0.0
 10
-14.6438769767
 20
0.703812488
 30
0.0
 10
-13.5987870025
 20
1.2306818041
 30
0.0
  0
SPLINE
  5
5F0
100
AcDbEntity
  8
0
100
AcDbSpline
 62
250
  6
CONTINUOUS
 70
0
 71
3
 72
11
 73
7
 74
0
 42
0.0000001
 43
0.0000001
 44
0.0000000001
 40
0.0
 40
0.0
 40
0.0
 40
0.0
 40
0.1998997398
 40
0.4246806187
 40
0.6898210047
 40
1.0
 40
1.0
 40
1.0
 40
1.0
 10
-18.1402644207
 20
-28.1617932831
 30
0.0
 10
-18.1384269281
 20
-28.1904024912
 30
0.0
 10
-18.1206145838
 20
-28.2507540818
 30
0.0
 10
-18.0584560212
 20
-28.3297865868
 30
0.0
 10
-17.9655189035
 20
-28.3986448665
 30
0.0
 10
-17.8907431305
 20
-28.4345080646
 30
0.0
 10
-17.8494427139
 20
-28.4510327775
 30
0.0
  0
SPLINE
  5
5F1
100
AcDbEntity
  8
0
100
AcDbSpline
 62
250
  6
CONTINUOUS
 70
0
 71
3
 72
11
 73
7
 74
0
 42
0.0000001
 43
0.0000001
 44
0.0000000001
 40
0.0
 40
0.0
 40
0.0
 40
0.0
 40
0.2065810877
 40
0.4344870177
 40
0.6974914141
 40
1.0
 40
1.0
 40
1.0
 40
1.0
 10
-18.2632401382
 20
-24.3997180135
 30
0.0
 10
-18.263249654
 20
-24.4328595866
 30
0.0
 10
-18.2485853257
 20
-24.5030952477
 30
0.0
 10
-18.1874944469
 20
-24.5989359366
 30
0.0
 10
-18.0922255863
 20
-24.6849943173
 30
0.0
 10
-18.0137596198
 20
-24.7315676286
 30
0.0
 10
-17.9703520696
 20
-24.7532714037
 30
0.0
  0
ELLIPSE
  5
5F2
100
AcDbEntity
  8
0
100
AcDbEllipse
 62
7
  6
CONTINUOUS
 10
367.819702793
 20
-135.1873342733
 30
0.0
 11
-240.8537114857
 21
476.0980197048
 31
0.0
 40
0.6129558008
 41
1.073184042
 42
1.0735363677
  0
ELLIPSE
  5
5F3
100
AcDbEntity
  8
0
100
AcDbEllipse
 62
7
  6
CONTINUOUS
 10
-13.0063150375
 20
1.0942622333
 30
0.0
 11
-0.226432448
 21
0.4457966256
 31
0.0
 40
0.6091103697
 41
-0.6885700407
 42
-0.0042249989
  0
ELLIPSE
  5
5F4
100
AcDbEntity
  8
0
100
AcDbEllipse
 62
7
  6
CONTINUOUS
 10
15.3440752856
 20
-12.8733924964
 30
0.0
 11
-0.2207415481
 21
0.4486418775
 31
0.0
 40
0.6156035148
 41
-1.5250473467
 42
-0.6807774782
  0
ELLIPSE
  5
5F5
100
AcDbEntity
  8
0
100
AcDbEllipse
 62
7
  6
CONTINUOUS
 10
-12.7987746056
 20
1.1980324492
 30
0.0
 11
-0.2207415481
 21
0.4486418775
 31
0.0
 40
0.6156035148
 41
-0.6807774782
 42
0.0035675637
  0
ELLIPSE
  5
5F6
100
AcDbEntity
  8
0
100
AcDbEllipse
 62
7
  6
CONTINUOUS
 10
16.8443858028
 20
-12.1232372378
 30
0.0
 11
1.6382257642
 21
1.2247019201
 31
0.0
 40
0.1709359515
 41
2.2879670452
 42
2.3709923946
  0
ENDSEC
  0
SECTION
  2
OBJECTS
  0
DICTIONARY
  5
C
100
AcDbDictionary
280
0
281
1
  3
ACAD_GROUP
350
D
  3
ACAD_MLINESTYLE
350
17
  3
ACAD_LAYOUT
350
1A
  3
ACAD_PLOTSETTINGS
350
19
  3
ACAD_PLOTSTYLENAME
350
E
  0
DICTIONARY
  5
D
102
{ACAD_REACTORS
330
C
102
}
100
AcDbDictionary
280
0
281
1
  0
ACDBDICTIONARYWDFLT
  5
E
102
{ACAD_REACTORS
330
C
102
}
100
AcDbDictionary
281
1
  3
Normal
350
F
100
AcDbDictionaryWithDefault
340
F
  0
DICTIONARY
  5
17
102
{ACAD_REACTORS
330
C
102
}
100
AcDbDictionary
280
0
281
1
  3
Standard
350
18
  0
DICTIONARY
  5
19
102
{ACAD_REACTORS
330
C
102
}
100
AcDbDictionary
281
1
  0
DICTIONARY
  5
1A
102
{ACAD_REACTORS
330
C
102
}
100
AcDbDictionary
281
1
  3
Model
350
5F7
  3
Layout1
350
5F8
  0
ACDBPLACEHOLDER
  5
F
102
{ACAD_REACTORS
330
E
102
}
  0
MLINESTYLE
  5
18
102
{ACAD_REACTORS
330
17
102
}
100
AcDbMlineStyle
  2
STANDARD
 70
0
  3

 62
256
 51
90.0
 52
90.0
 71
2
 49
0.5
 62
256
  6
BYLAYER
 49
-0.5
 62
256
  6
BYLAYER
  0
LAYOUT
  5
5F7
102
{ACAD_REACTORS
330
1A
102
}
100
AcDbPlotSettings
  1

  2
none_device
  4
ISO_A4_(297.00_x_210.00_MM)
  6

 40
0.0
 41
0.0
 42
0.0
 43
0.0
 44
297.0
 45
210.0
 46
0.0
 47
0.0
 48
0.0
 49
0.0
140
0.0
141
0.0
142
1.0
143
1.0
 70
1024
 72
1
 73
0
 74
0
  7

 75
0
147
1.0
148
0.0
149
0.0
100
AcDbLayout
  1
Model
 70
0
 71
0
 10
0.0
 20
0.0
 11
297.0
 21
210.0
 12
0.0
 22
0.0
 32
0.0
 14
0.0
 24
0.0
 34
0.0
 15
0.0
 25
0.0
 35
0.0
146
0.0
 13
0.0
 23
0.0
 33
0.0
 16
1.0
 26
0.0
 36
0.0
 17
0.0
 27
1.0
 37
0.0
 76
0
330
21B
345
0
346
0
  0
LAYOUT
  5
5F8
102
{ACAD_REACTORS
330
1A
102
}
100
AcDbPlotSettings
  1

  2
none_device
  4
ISO_A4_(297.00_x_210.00_MM)
  6

 40
0.0
 41
0.0
 42
0.0
 43
0.0
 44
297.0
 45
210.0
 46
0.0
 47
0.0
 48
0.0
 49
0.0
140
0.0
141
0.0
142
1.0
143
1.0
 70
0
 72
1
 73
0
 74
0
  7

 75
0
147
1.0
148
0.0
149
0.0
100
AcDbLayout
  1
Layout1
 70
0
 71
1
 10
0.0
 20
0.0
 11
297.0
 21
210.0
 12
0.0
 22
0.0
 32
0.0
 14
0.0
 24
0.0
 34
0.0
 15
0.0
 25
0.0
 35
0.0
146
0.0
 13
0.0
 23
0.0
 33
0.0
 16
1.0
 26
0.0
 36
0.0
 17
0.0
 27
1.0
 37
0.0
 76
0
330
21C
345
0
346
0
  0
ENDSEC
  0
EOF
