  0
SECTION
  2
HEADER
  9
$ACADVER
  1
AC1024
  9
$DWGCODEPAGE
  3
ANSI_1252
  9
$EXTMAX
 10
297.0
 20
210.0
 30
0.0
  9
$EXTMIN
 10
0.0
 20
0.0
 30
0.0
  9
$LIMMIN
 10
0.0
 20
0.0
  9
$LIMMAX
 10
297.0
 20
210.0
  9
$VIEWCTR
 10
148.5
 20
105.0
  9
$VIEWSIZE
 40
210.0
  9
$CLAYER
  8
0
  9
$LTSCALE
 40
16.335
  9
$CELTYPE
  6
BYLAYER
  9
$DIMSCALE
 40
1.0
  9
$DIMASZ
 40
3.0
  9
$DIMEXO
 40
0.5
  9
$DIMDLI
 40
11.286
  9
$DIMEXE
 40
1.5
  9
$DIMCEN
 40
2.673
  9
$DIMLFAC
 40
1.0
  9
$DIMBLK
  1
_FILLED
  9
$DIMALT
 70
0
  9
$DIMALTF
 40
0.0393700787
  9
$DIMTXT
 40
3.0
  9
$DIMTOL
 70
1
  9
$DIMLIM
 70
0
  9
$DIMTFAC
 40
1.0
  9
$DIMTP
 40
0.01
  9
$DIMTM
 40
0.01
  9
$DIMGAP
 40
0.625
  9
$DIMDSEP
 70
44
  9
$AUNITS
 70
0
  9
$PDMODE
 70
3
  9
$PDSIZE
 40
3.0
  9
$HANDSEED
  5
26E
  9
$TILEMODE
 70
1
  9
$MEASUREMENT
 70
1
  9
$INSUNITS
 70
4
  0
ENDSEC
  0
SECTION
  2
CLASSES
  0
CLASS
  1
ACDBDICTIONARYWDFLT
  2
AcDbDictionaryWithDefault
  3
AutoCAD 2000
 90
0
 91
1
280
0
281
0
  0
CLASS
  1
ACDBPLACEHOLDER
  2
AcDbPlaceHolder
  3
AutoCAD 2000
 90
0
 91
1
280
0
281
0
  0
CLASS
  1
LAYOUT
  2
AcDbLayout
  3
AutoCAD 2000
 90
0
 91
0
280
0
281
0
  0
ENDSEC
  0
SECTION
  2
TABLES
  0
TABLE
  2
VPORT
  5
8
100
AcDbSymbolTable
 70
2
  0
VPORT
  5
1F4
100
AcDbSymbolTableRecord
100
AcDbViewportTableRecord
  2
*ACTIVE
 70
0
 10
0.0
 20
0.0
 11
1.0
 21
1.0
 12
148.5
 22
105.0
 13
0.0
 23
0.0
 14
1.0
 24
1.0
 15
0.0
 25
0.0
 16
0.0
 26
0.0
 36
1.0
 17
0.0
 27
0.0
 37
0.0
 40
210.0
 41
1.4142857143
 42
50.0
 43
0.0
 44
0.0
 50
0.0
 51
0.0
 71
0
 72
100
 73
1
 74
1
 75
0
 76
0
 77
0
 78
0
  0
ENDTAB
  0
TABLE
  2
LTYPE
  5
5
100
AcDbSymbolTable
 70
6
  0
LTYPE
  5
14
100
AcDbSymbolTableRecord
100
AcDbLinetypeTableRecord
  2
BYBLOCK
 70
0
  3

 72
65
 73
0
 40
0.0
  0
LTYPE
  5
15
100
AcDbSymbolTableRecord
100
AcDbLinetypeTableRecord
  2
BYLAYER
 70
0
  3

 72
65
 73
0
 40
0.0
  0
LTYPE
  5
16
100
AcDbSymbolTableRecord
100
AcDbLinetypeTableRecord
  2
CONTINUOUS
 70
64
  3
Solid line
 72
65
 73
0
 40
0.0
  0
LTYPE
  5
1F5
100
AcDbSymbolTableRecord
100
AcDbLinetypeTableRecord
  2
CENTER
 70
64
  3
____ _ ____ _ ____ _ ____ _ ____ _ ____ _ ____
 72
65
 73
4
 40
0.6
 49
0.375
 74
0
 49
-0.075
 74
0
 49
0.075
 74
0
 49
-0.075
 74
0
  0
LTYPE
  5
1F6
100
AcDbSymbolTableRecord
100
AcDbLinetypeTableRecord
  2
HIDDEN
 70
64
  3
- - - - - - - - - - - - - - - - - - - -
 72
65
 73
2
 40
0.2
 49
0.1
 74
0
 49
-0.1
 74
0
  0
LTYPE
  5
1F7
100
AcDbSymbolTableRecord
100
AcDbLinetypeTableRecord
  2
PHANTOM
 70
64
  3
_____ _ _ _____ _ _ _____ _ _ _____
 72
65
 73
6
 40
0.8
 49
0.45
 74
0
 49
-0.05
 74
0
 49
0.1
 74
0
 49
-0.05
 74
0
 49
0.1
 74
0
 49
-0.05
 74
0
  0
LTYPE
  5
1F8
100
AcDbSymbolTableRecord
100
AcDbLinetypeTableRecord
  2
DOT
 70
64
  3
. . . . . . . . . . . . . . . . . . . .
 72
65
 73
2
 40
0.2
 49
0.1
 74
0
 49
-0.1
 74
0
  0
LTYPE
  5
1F9
100
AcDbSymbolTableRecord
100
AcDbLinetypeTableRecord
  2
DASHED
 70
64
  3
- - - - - - - - - - - - - - - - - - - -
 72
65
 73
2
 40
0.2
 49
0.1
 74
0
 49
-0.1
 74
0
  0
ENDTAB
  0
TABLE
  2
LAYER
  5
2
100
AcDbSymbolTable
 70
36
  0
LAYER
  5
10
100
AcDbSymbolTableRecord
100
AcDbLayerTableRecord
  2
0
 70
0
 62
7
  6
CONTINUOUS
370
-3
390
F
  0
LAYER
  5
1FA
100
AcDbSymbolTableRecord
100
AcDbLayerTableRecord
  2
DEFAULT_1
 70
0
 62
7
  6
CENTER
370
-3
390
F
  0
LAYER
  5
1FB
100
AcDbSymbolTableRecord
100
AcDbLayerTableRecord
  2
DEFAULT_2
 70
0
 62
7
  6
HIDDEN
370
-3
390
F
  0
LAYER
  5
1FC
100
AcDbSymbolTableRecord
100
AcDbLayerTableRecord
  2
DEFAULT_3
 70
0
 62
7
  6
PHANTOM
370
-3
390
F
  0
LAYER
  5
1FD
100
AcDbSymbolTableRecord
100
AcDbLayerTableRecord
  2
ASSI
 70
0
 62
7
  6
CONTINUOUS
370
-3
390
F
  0
LAYER
  5
1FE
100
AcDbSymbolTableRecord
100
AcDbLayerTableRecord
  2
COORDINATE
 70
0
 62
7
  6
CONTINUOUS
370
-3
390
F
  0
LAYER
  5
1FF
100
AcDbSymbolTableRecord
100
AcDbLayerTableRecord
  2
COPY_PUBLISH
 70
0
 62
7
  6
CONTINUOUS
370
-3
390
F
  0
LAYER
  5
200
100
AcDbSymbolTableRecord
100
AcDbLayerTableRecord
  2
COSMETICI
 70
0
 62
7
  6
CONTINUOUS
370
-3
390
F
  0
LAYER
  5
201
100
AcDbSymbolTableRecord
100
AcDbLayerTableRecord
  2
CURVE
 70
0
 62
7
  6
CONTINUOUS
370
-3
390
F
  0
LAYER
  5
202
100
AcDbSymbolTableRecord
100
AcDbLayerTableRecord
  2
DRAFT
 70
0
 62
7
  6
CONTINUOUS
370
-3
390
F
  0
LAYER
  5
203
100
AcDbSymbolTableRecord
100
AcDbLayerTableRecord
  2
IMPORT_IGES
 70
0
 62
7
  6
CONTINUOUS
370
-3
390
F
  0
LAYER
  5
204
100
AcDbSymbolTableRecord
100
AcDbLayerTableRecord
  2
NOTE
 70
0
 62
7
  6
CONTINUOUS
370
-3
390
F
  0
LAYER
  5
205
100
AcDbSymbolTableRecord
100
AcDbLayerTableRecord
  2
PIANI
 70
0
 62
7
  6
CONTINUOUS
370
-3
390
F
  0
LAYER
  5
206
100
AcDbSymbolTableRecord
100
AcDbLayerTableRecord
  2
PUNTI
 70
0
 62
7
  6
CONTINUOUS
370
-3
390
F
  0
LAYER
  5
207
100
AcDbSymbolTableRecord
100
AcDbLayerTableRecord
  2
RACCORDO
 70
0
 62
7
  6
CONTINUOUS
370
-3
390
F
  0
LAYER
  5
208
100
AcDbSymbolTableRecord
100
AcDbLayerTableRecord
  2
SIMBOLI
 70
0
 62
7
  6
CONTINUOUS
370
-3
390
F
  0
LAYER
  5
209
100
AcDbSymbolTableRecord
100
AcDbLayerTableRecord
  2
SMUSSO
 70
0
 62
7
  6
CONTINUOUS
370
-3
390
F
  0
LAYER
  5
20A
100
AcDbSymbolTableRecord
100
AcDbLayerTableRecord
  2
SUPERFICI
 70
0
 62
7
  6
CONTINUOUS
370
-3
390
F
  0
LAYER
  5
20B
100
AcDbSymbolTableRecord
100
AcDbLayerTableRecord
  2
TRASH
 70
0
 62
7
  6
CONTINUOUS
370
-3
390
F
  0
ENDTAB
  0
TABLE
  2
STYLE
  5
3
100
AcDbSymbolTable
 70
1
  0
STYLE
  5
11
100
AcDbSymbolTableRecord
100
AcDbTextStyleTableRecord
  2
STANDARD
 70
0
 40
0.0
 41
0.8
 50
0.0
 71
0
 42
0.2
  3
txt
  4

  0
STYLE
  5
20C
100
AcDbSymbolTableRecord
100
AcDbTextStyleTableRecord
  2
TEXTSTYLE_1
 70
0
 40
0.0
 41
0.8
 50
0.0
 71
0
 42
0.2
  3
gdt
  4

  0
ENDTAB
  0
TABLE
  2
VIEW
  5
6
100
AcDbSymbolTable
 70
0
  0
ENDTAB
  0
TABLE
  2
UCS
  5
7
100
AcDbSymbolTable
 70
0
  0
ENDTAB
  0
TABLE
  2
APPID
  5
9
100
AcDbSymbolTable
 70
1
  0
APPID
  5
20D
100
AcDbSymbolTableRecord
100
AcDbRegAppTableRecord
  2
ACAD
 70
0
  0
ENDTAB
  0
TABLE
  2
BLOCK_RECORD
  5
1
100
AcDbSymbolTable
 70
0
  0
BLOCK_RECORD
  5
20E
100
AcDbSymbolTableRecord
100
AcDbBlockTableRecord
  2
*Model_Space
  0
BLOCK_RECORD
  5
20F
100
AcDbSymbolTableRecord
100
AcDbBlockTableRecord
  2
*Paper_Space
  0
BLOCK_RECORD
  5
210
100
AcDbSymbolTableRecord
100
AcDbBlockTableRecord
  2
_FILLED
  0
ENDTAB
  0
TABLE
  2
DIMSTYLE
  5
A
100
AcDbSymbolTable
 70
1
100
AcDbDimStyleTable
 71
0
  0
DIMSTYLE
105
211
100
AcDbSymbolTableRecord
100
AcDbDimStyleTableRecord
  2
STANDARD
 70
0
  3

  4

 40
1.0
 41
3.0
 42
0.5
 43
0.38
 44
1.5
 45
0.0
 46
0.0
 47
0.01
 48
0.01
140
3.0
141
0.09
142
0.0
143
25.4
144
1.0
145
0.0
146
1.0
147
0.625
 71
1
 72
0
 73
0
 74
0
 75
0
 76
0
 77
1
 78
8
 79
2
170
0
171
1
172
0
173
0
174
0
175
0
176
0
177
0
178
0
270
2
179
2
271
2
272
2
273
2
274
2
275
0
280
0
281
0
282
0
283
1
284
8
285
0
286
0
287
3
288
0
340
11
278
44
341
210
342
210
343
210
344
210
  0
ENDTAB
  0
ENDSEC
  0
SECTION
  2
BLOCKS
  0
BLOCK
  5
20
100
AcDbEntity
  8
0
100
AcDbBlockBegin
  2
*Model_Space
 70
0
 10
0.0
 20
0.0
 30
0.0
  3
*Model_Space
  1

  0
ENDBLK
  5
21
100
AcDbEntity
  8
0
100
AcDbBlockEnd
  0
BLOCK
  5
1C
100
AcDbEntity
  8
0
100
AcDbBlockBegin
  2
*Paper_Space
 70
0
 10
0.0
 20
0.0
 30
0.0
  3
*Paper_Space
  1

  0
ENDBLK
  5
1D
100
AcDbEntity
  8
0
100
AcDbBlockEnd
  0
BLOCK
  5
212
100
AcDbEntity
  8
0
100
AcDbBlockBegin
  2
_FILLED
 70
64
 10
0.0
 20
0.0
  3
_FILLED
  1

  0
SOLID
  5
213
100
AcDbEntity
  8
0
  6
BYBLOCK
 62
0
100
AcDbTrace
 10
0.0
 20
0.0
 11
-1.0
 21
0.1333333333
 12
-1.0
 22
-0.1333333333
 13
-1.0
 23
-0.1333333333
  0
ENDBLK
  5
214
100
AcDbEntity
  8
0
  6
BYBLOCK
 62
0
100
AcDbBlockEnd
  0
ENDSEC
  0
SECTION
  2
ENTITIES
  0
LWPOLYLINE
  5
215
100
AcDbEntity
  8
0
100
AcDbPolyline
 62
7
  6
CONTINUOUS
 90
23
 70
0
 10
-10.5708768874
 20
22.5733291683
 10
-10.7683624669
 20
22.4511949546
 10
-11.0113507548
 20
22.2764222018
 10
-11.2417929304
 20
22.0817812119
 10
-11.4588694906
 20
21.8677956464
 10
-11.6616699035
 20
21.6352652551
 10
-11.8498214696
 20
21.3845276445
 10
-12.0233283957
 20
21.1152394845
 10
-12.1817522378
 20
20.8274270205
 10
-12.3242740035
 20
20.5218455754
 10
-12.4503042244
 20
20.1990491559
 10
-12.5595285292
 20
19.8588768457
 10
-12.6512405104
 20
19.5023518697
 10
-12.7246316268
 20
19.132065897
 10
-12.7795080007
 20
18.749332274
 10
-12.8158841565
 20
18.3543544881
 10
-12.8336570761
 20
17.9483994521
 10
-12.8327996528
 20
17.5315350015
 10
-12.8132737799
 20
17.1053805549
 10
-12.7754400191
 20
16.6738639798
 10
-12.7198898575
 20
16.2391058239
 10
-12.647012675
 20
15.8011693311
 10
-12.557278274
 20
15.3610823741
  0
LWPOLYLINE
  5
216
100
AcDbEntity
  8
0
100
AcDbPolyline
 62
7
  6
CONTINUOUS
 90
4
 70
0
 10
-9.4395060375
 20
23.2265685176
 10
-9.636991617
 20
23.1044343039
 10
-9.8799799049
 20
22.9296615511
 10
-9.9704425743
 20
22.85325304
  0
LWPOLYLINE
  5
217
100
AcDbEntity
  8
0
100
AcDbPolyline
 62
7
  6
CONTINUOUS
 90
19
 70
0
 10
-9.154980238
 20
21.4285838501
 10
-9.2135662978
 20
21.3682931759
 10
-9.3631048213
 20
21.1826678394
 10
-9.4995369427
 20
20.9791606344
 10
-9.6224288018
 20
20.7588908489
 10
-9.7316114
 20
20.5227472728
 10
-9.826805123
 20
20.2720430176
 10
-9.9076908843
 20
20.0087503295
 10
-9.9744753141
 20
19.7336381632
 10
-10.0275604693
 20
19.4459005746
 10
-10.0668116128
 20
19.1464692065
 10
-10.0921251037
 20
18.8366059095
 10
-10.1035318759
 20
18.5153660388
 10
-10.1008514939
 20
18.1841908955
 10
-10.0839792677
 20
17.8435730373
 10
-10.052418368
 20
17.4905925323
 10
-10.0054782815
 20
17.1246869672
 10
-9.9428103012
 20
16.7480172179
 10
-9.8640397261
 20
16.3615526176
  0
LWPOLYLINE
  5
218
100
AcDbEntity
  8
0
100
AcDbPolyline
 62
7
  6
CONTINUOUS
 90
22
 70
0
 10
-9.7737275743
 20
21.1860417723
 10
-9.8235412699
 20
21.1563300462
 10
-10.0092560687
 20
21.0287516268
 10
-10.1830651731
 20
20.8816356128
 10
-10.3449371477
 20
20.7150538266
 10
-10.4944756712
 20
20.52942849
 10
-10.6309077926
 20
20.325921285
 10
-10.7537996517
 20
20.1056514996
 10
-10.8629822499
 20
19.8695079235
 10
-10.9581759728
 20
19.6188036683
 10
-11.0390617342
 20
19.3555109801
 10
-11.105846164
 20
19.0803988139
 10
-11.1589313192
 20
18.7926612253
 10
-11.1981824627
 20
18.4932298572
 10
-11.2234959536
 20
18.1833665602
 10
-11.2349027258
 20
17.8621266895
 10
-11.2322223438
 20
17.5309515462
 10
-11.2153501176
 20
17.190333688
 10
-11.1837892179
 20
16.837353183
 10
-11.1368491314
 20
16.4714476179
 10
-11.0741811511
 20
16.0947778686
 10
-10.995410576
 20
15.7083132683
  0
LWPOLYLINE
  5
219
100
AcDbEntity
  8
0
100
AcDbPolyline
 62
250
  6
CONTINUOUS
 90
10
 70
0
 10
-10.1023315674
 20
16.059150725
 10
-10.046173989
 20
16.0939972833
 10
-9.9965769841
 20
16.1298730666
 10
-9.9540839479
 20
16.1663850124
 10
-9.9191604431
 20
16.2031330882
 10
-9.8921890988
 20
16.2397146743
 10
-9.8734654188
 20
16.2757289753
 10
-9.8631945436
 20
16.3107814109
 10
-9.8614890031
 20
16.3444879392
 10
-9.8640397261
 20
16.3615526176
  0
LWPOLYLINE
  5
21A
100
AcDbEntity
  8
0
100
AcDbPolyline
 62
250
  6
CONTINUOUS
 90
23
 70
0
 10
-11.2337024173
 20
15.4059113756
 10
-11.2958052952
 20
15.3724758286
 10
-11.3631730603
 20
15.3408176197
 10
-11.4350676174
 20
15.3112836028
 10
-11.5107012745
 20
15.2841973588
 10
-11.5892453737
 20
15.2598556504
 10
-11.6698393691
 20
15.2385251702
 10
-11.7516002563
 20
15.2204396196
 10
-11.8336322458
 20
15.2057971477
 10
-11.9150365779
 20
15.1947581803
 10
-11.9949213697
 20
15.1874436628
 10
-12.0724113868
 20
15.1839337345
 10
-12.1466576323
 20
15.184266851
 10
-12.2168466489
 20
15.1884393624
 10
-12.2822094308
 20
15.1964055541
 10
-12.34202985
 20
15.2080781466
 10
-12.3956525012
 20
15.2233292526
 10
-12.4424898835
 20
15.2419917777
 10
-12.4820288368
 20
15.2638612516
 10
-12.513836164
 20
15.2886980676
 10
-12.5375633774
 20
15.3162301084
 10
-12.5529505167
 20
15.3461557271
 10
-12.557278274
 20
15.3610823741
  0
LINE
  5
21B
100
AcDbEntity
  8
SMUSSO
100
AcDbLine
 62
7
  6
CONTINUOUS
 10
-9.8095804773
 20
-13.2446280202
 11
-11.5773474303
 21
-12.2239415369
  0
LINE
  5
21C
100
AcDbEntity
  8
0
100
AcDbLine
 62
7
  6
CONTINUOUS
 10
-13.168337688
 20
-5.3941420258
 11
-13.168337688
 21
-6.0799770583
  0
LINE
  5
21D
100
AcDbEntity
  8
0
100
AcDbLine
 62
7
  6
CONTINUOUS
 10
-12.602652263
 20
-6.4065967329
 11
-12.602652263
 21
-8.1211211863
  0
LINE
  5
21E
100
AcDbEntity
  8
SMUSSO
100
AcDbLine
 62
7
  6
CONTINUOUS
 10
-12.602652263
 20
-8.1211211863
 11
-11.5773474303
 21
-8.7131193466
  0
LINE
  5
21F
100
AcDbEntity
  8
0
100
AcDbLine
 62
7
  6
CONTINUOUS
 10
-12.2137435334
 20
-5.161501261
 11
-12.2137435334
 21
-5.9453127268
  0
LINE
  5
220
100
AcDbEntity
  8
SMUSSO
100
AcDbLine
 62
7
  6
CONTINUOUS
 10
-11.5773474303
 20
-8.7131193466
 11
-11.5773474303
 21
-12.2239415369
  0
LINE
  5
221
100
AcDbEntity
  8
0
100
AcDbLine
 62
7
  6
CONTINUOUS
 10
-10.799529971
 20
-5.9780504477
 11
-10.799529971
 21
-6.7618619134
  0
LINE
  5
222
100
AcDbEntity
  8
0
100
AcDbLine
 62
7
  6
CONTINUOUS
 10
-9.8449358164
 20
-7.9988676469
 11
-13.168337688
 21
-6.0799770583
  0
LINE
  5
223
100
AcDbEntity
  8
0
100
AcDbLine
 62
7
  6
CONTINUOUS
 10
-9.8449358164
 20
-7.3130326144
 11
-10.799529971
 21
-6.7618619134
  0
LINE
  5
224
100
AcDbEntity
  8
0
100
AcDbLine
 62
7
  6
CONTINUOUS
 10
-12.2137435334
 20
-5.9453127268
 11
-13.168337688
 21
-5.3941420258
  0
LWPOLYLINE
  5
225
100
AcDbEntity
  8
ASSI
100
AcDbPolyline
 62
250
  6
CONTINUOUS
 90
10
 70
0
 10
-10.2560270332
 20
-4.3859485255
 10
-10.2529584976
 20
-4.4261980023
 10
-10.2438285059
 20
-4.4661358648
 10
-10.2287077592
 20
-4.5054598228
 10
-10.2077124937
 20
-4.543870973
 10
-10.1810035639
 20
-4.5810774688
 10
-10.1487839933
 20
-4.6167979295
 10
-10.1112988253
 20
-4.6507613503
 10
-10.0688338987
 20
-4.6827093183
 10
-10.0217125117
 20
-4.7123992084
  0
LINE
  5
226
100
AcDbEntity
  8
ASSI
100
AcDbLine
 62
250
  6
CONTINUOUS
 10
-10.2560270867
 20
-4.3857795337
 11
-10.2560270332
 21
-4.3859485255
  0
LINE
  5
227
100
AcDbEntity
  8
ASSI
100
AcDbLine
 62
7
  6
CONTINUOUS
 10
-10.2560270867
 20
-4.3857795337
 11
-10.2560270867
 21
-5.1486933401
  0
LINE
  5
228
100
AcDbEntity
  8
0
100
AcDbLine
 62
7
  6
CONTINUOUS
 10
-9.8449358164
 20
-7.3130326144
 11
-9.8449358164
 21
-7.9988676469
  0
LINE
  5
229
100
AcDbEntity
  8
0
100
AcDbLine
 62
7
  6
CONTINUOUS
 10
-9.8095804773
 20
-5.406466017
 11
-9.8095804773
 21
-6.1902774828
  0
LINE
  5
22A
100
AcDbEntity
  8
0
100
AcDbLine
 62
7
  6
CONTINUOUS
 10
-9.8095804773
 20
-7.9784539173
 11
-9.8095804773
 21
-13.2446280202
  0
LWPOLYLINE
  5
22B
100
AcDbEntity
  8
ASSI
100
AcDbPolyline
 62
250
  6
CONTINUOUS
 90
19
 70
0
 10
-10.0217125117
 20
-4.7123992084
 10
-9.9702914265
 20
-4.7396065067
 10
-9.9149594877
 20
-4.7641252231
 10
-9.8561369072
 20
-4.7857686893
 10
-9.7942712404
 20
-4.8043718656
 10
-9.729831851
 20
-4.8197932669
 10
-9.6633060734
 20
-4.8319156701
 10
-9.5951993682
 20
-4.8406461997
 10
-9.5260294177
 20
-4.8459177425
 10
-9.4563197702
 20
-4.8476894765
 10
-9.3865984967
 20
-4.8459467211
 10
-9.3173983998
 20
-4.8407015351
 10
-9.2492504173
 20
-4.8319933728
 10
-9.1826815578
 20
-4.8198897597
 10
-9.1181902171
 20
-4.8044815015
 10
-9.0562487688
 20
-4.7858791767
 10
-8.9973260722
 20
-4.764218757
 10
-8.9418813866
 20
-4.7396639811
 10
-8.8903416618
 20
-4.7123992084
  0
LINE
  5
22C
100
AcDbEntity
  8
0
100
AcDbLine
 62
7
  6
CONTINUOUS
 10
-10.799529971
 20
-5.9780504477
 11
-12.2137435334
 21
-5.161501261
  0
LINE
  5
22D
100
AcDbEntity
  8
0
100
AcDbLine
 62
7
  6
CONTINUOUS
 10
-11.2237940397
 20
-4.5899168304
 11
-9.8095804773
 21
-5.406466017
  0
LWPOLYLINE
  5
22E
100
AcDbEntity
  8
0
100
AcDbPolyline
 62
7
  6
CONTINUOUS
 90
16
 70
0
 10
-12.557278274
 20
15.3610823741
 10
-12.2622087187
 20
13.9917197832
 10
-11.98706061
 20
12.6277580144
 10
-11.7319298857
 20
11.2697023565
 10
-11.4969044445
 20
9.9180538247
 10
-11.2820650954
 20
8.5733144925
 10
-11.0874853885
 20
7.2359881211
 10
-10.9132303914
 20
5.9065728942
 10
-10.7593565019
 20
4.5855580255
 10
-10.6259125382
 20
3.2734307833
 10
-10.5129398341
 20
1.9706789461
 10
-10.4204714486
 20
0.6777831956
 10
-10.348532404
 20
-0.6047833121
 10
-10.2971402408
 20
-1.8765467804
 10
-10.2663046272
 20
-3.1370343275
 10
-10.2560270867
 20
-4.3857795337
  0
LINE
  5
22F
100
AcDbEntity
  8
ASSI
100
AcDbLine
 62
7
  6
CONTINUOUS
 10
-8.6560270867
 20
-4.3857795337
 11
-8.6560270867
 21
-5.1695909994
  0
LINE
  5
230
100
AcDbEntity
  8
ASSI
100
AcDbLine
 62
7
  6
CONTINUOUS
 10
-7.5246562368
 20
-3.7325401844
 11
-7.5246562368
 21
-4.5163516501
  0
LWPOLYLINE
  5
231
100
AcDbEntity
  8
ASSI
100
AcDbPolyline
 62
7
  6
CONTINUOUS
 90
24
 70
0
 10
-7.5246562368
 20
-4.5163531981
 10
-7.5256261693
 20
-4.5380469738
 10
-7.5323878917
 20
-4.5804153052
 10
-7.5460438937
 20
-4.6222260207
 10
-7.566423031
 20
-4.6634929777
 10
-7.5930107166
 20
-4.703174493
 10
-7.625967495
 20
-4.7412311858
 10
-7.6651328217
 20
-4.7777024371
 10
-7.7095104765
 20
-4.8116647061
 10
-7.7592298942
 20
-4.8430515046
 10
-7.8141616399
 20
-4.8719293208
 10
-7.8729211895
 20
-4.8975740796
 10
-7.9356058056
 20
-4.9199045568
 10
-8.0021182255
 20
-4.9390019765
 10
-8.0707821367
 20
-4.9543859361
 10
-8.1416526598
 20
-4.9659622773
 10
-8.2146746741
 20
-4.9738251583
 10
-8.2880065048
 20
-4.9777766514
 10
-8.3616559225
 20
-4.9777172547
 10
-8.4356151566
 20
-4.9737464701
 10
-8.5080192208
 20
-4.9659648746
 10
-8.578828431
 20
-4.954275553
 10
-8.6480824712
 20
-4.9387754205
 10
-8.6560270867
 20
-4.9364963845
  0
LWPOLYLINE
  5
232
100
AcDbEntity
  8
ASSI
100
AcDbPolyline
 62
7
  6
CONTINUOUS
 90
10
 70
0
 10
-8.6560270867
 20
-5.1695909994
 10
-8.6591247051
 20
-5.2097431141
 10
-8.6682799543
 20
-5.2498952287
 10
-8.6832864257
 20
-5.2891420977
 10
-8.7042770362
 20
-5.3274631576
 10
-8.7311188688
 20
-5.364878972
 10
-8.7632067637
 20
-5.4005459863
 10
-8.8003390008
 20
-5.4341830156
 10
-8.8427173002
 20
-5.4660712449
 10
-8.8903416618
 20
-5.4962106741
  0
LINE
  5
233
100
AcDbEntity
  8
0
100
AcDbLine
 62
7
  6
CONTINUOUS
 10
-6.5568892839
 20
-4.3122143535
 11
-7.5246562368
 21
-3.7534378438
  0
LWPOLYLINE
  5
234
100
AcDbEntity
  8
0
100
AcDbPolyline
 62
7
  6
CONTINUOUS
 90
16
 70
0
 10
-10.995410576
 20
15.7083132683
 10
-10.6959170871
 20
14.3184161677
 10
-10.4165601768
 20
12.9335821532
 10
-10.1574459562
 20
11.5543080379
 10
-9.9186738612
 20
10.1810905101
 10
-9.7003357485
 20
8.814421081
 10
-9.5025159701
 20
7.4547850833
 10
-9.3252923625
 20
6.1026673939
 10
-9.1687365449
 20
4.7585564626
 10
-9.032912825
 20
3.4229375589
 10
-8.9178778424
 20
2.0962880103
 10
-8.823681488
 20
0.7790857495
 10
-8.7503666661
 20
-0.5281896379
 10
-8.6979685567
 20
-1.8250674613
 10
-8.6665150527
 20
-3.1110847021
 10
-8.6560270867
 20
-4.3857795337
  0
LWPOLYLINE
  5
235
100
AcDbEntity
  8
0
100
AcDbPolyline
 62
250
  6
CONTINUOUS
 90
10
 70
0
 10
-10.995410576
 20
15.7083132683
 10
-10.992859853
 20
15.6912485899
 10
-10.9945653935
 20
15.6575420616
 10
-11.0048362687
 20
15.622489626
 10
-11.0235599487
 20
15.586475325
 10
-11.050531293
 20
15.5498937389
 10
-11.0854547978
 20
15.5131456631
 10
-11.127947834
 20
15.4766337173
 10
-11.1775448389
 20
15.4407579339
 10
-11.2337024173
 20
15.4059113756
  0
LINE
  5
236
100
AcDbEntity
  8
0
100
AcDbLine
 62
7
  6
CONTINUOUS
 10
-6.5568892839
 20
-3.5284028877
 11
-6.5568892839
 21
-4.3122143535
  0
LINE
  5
237
100
AcDbEntity
  8
0
100
AcDbLine
 62
7
  6
CONTINUOUS
 10
-5.7083611464
 20
-5.610461276
 11
-5.7083611464
 21
-10.8766353789
  0
LINE
  5
238
100
AcDbEntity
  8
0
100
AcDbLine
 62
7
  6
CONTINUOUS
 10
-5.5669397902
 20
-2.9568184571
 11
-5.5669397902
 21
-3.7406299228
  0
LWPOLYLINE
  5
239
100
AcDbEntity
  8
0
100
AcDbPolyline
 62
250
  6
CONTINUOUS
 90
7
 70
0
 10
0.9158667532
 20
7.7991211489
 10
0.9720511078
 20
7.8360735779
 10
1.0217281476
 20
7.8782439011
 10
1.0643536005
 20
7.9251700915
 10
1.0994604533
 20
7.9763380159
 10
1.1266640678
 20
8.031187068
 10
1.1360153343
 20
8.0562309313
  0
LWPOLYLINE
  5
23A
100
AcDbEntity
  8
0
100
AcDbPolyline
 62
250
  6
CONTINUOUS
 90
12
 70
0
 10
2.0472376031
 20
8.4523604983
 10
1.9851615014
 20
8.4210308219
 10
1.9178737711
 20
8.3956671528
 10
1.8461116309
 20
8.3765473804
 10
1.7706613216
 20
8.3638809852
 10
1.6923494928
 20
8.3578067426
 10
1.6120341451
 20
8.3583912035
 10
1.5305952304
 20
8.3656279643
 10
1.4489250103
 20
8.3794377376
 10
1.3679182811
 20
8.3996692205
 10
1.2884625692
 20
8.4261007528
 10
1.250917886
 20
8.441863498
  0
LWPOLYLINE
  5
23B
100
AcDbEntity
  8
ASSI
100
AcDbPolyline
 62
250
  6
CONTINUOUS
 90
15
 70
0
 10
-8.6579479697
 20
-4.1523177117
 10
-8.5984610011
 20
-4.1665539176
 10
-8.5319352235
 20
-4.1786763207
 10
-8.4638285183
 20
-4.1874068504
 10
-8.3946585678
 20
-4.1926783931
 10
-8.3249489203
 20
-4.1944501271
 10
-8.2552276468
 20
-4.1927073718
 10
-8.1860275499
 20
-4.1874621858
 10
-8.1178795674
 20
-4.1787540235
 10
-8.0513107079
 20
-4.1666504104
 10
-7.9868193672
 20
-4.1512421521
 10
-7.9248779189
 20
-4.1326398273
 10
-7.8659552223
 20
-4.1109794077
 10
-7.8105105367
 20
-4.0864246318
 10
-7.7589708119
 20
-4.0591598591
  0
LINE
  5
23C
100
AcDbEntity
  8
0
100
AcDbLine
 62
7
  6
CONTINUOUS
 10
-6.5568892839
 20
-3.5284028877
 11
-7.5309633208
 21
-2.9659847468
  0
LINE
  5
23D
100
AcDbEntity
  8
0
100
AcDbLine
 62
7
  6
CONTINUOUS
 10
-5.5669397902
 20
-3.7406299228
 11
-4.6123456356
 21
-4.2918006238
  0
LINE
  5
23E
100
AcDbEntity
  8
0
100
AcDbLine
 62
7
  6
CONTINUOUS
 10
-6.9811533526
 20
-2.1402692704
 11
-5.5669397902
 21
-2.9568184571
  0
LWPOLYLINE
  5
23F
100
AcDbEntity
  8
0
100
AcDbPolyline
 62
7
  6
CONTINUOUS
 90
16
 70
0
 10
-9.8640397261
 20
16.3615526176
 10
-9.5645462372
 20
14.971655517
 10
-9.2851893269
 20
13.5868215025
 10
-9.0260751063
 20
12.2075473872
 10
-8.7873030113
 20
10.8343298595
 10
-8.5689648986
 20
9.4676604303
 10
-8.3711451202
 20
8.1080244327
 10
-8.1939215126
 20
6.7559067432
 10
-8.037365695
 20
5.4117958119
 10
-7.9015419751
 20
4.0761769082
 10
-7.7865069925
 20
2.7495273596
 10
-7.6923106381
 20
1.4323250988
 10
-7.6189958162
 20
0.1250497114
 10
-7.5665977068
 20
-1.171828112
 10
-7.5351442028
 20
-2.4578453527
 10
-7.5246562368
 20
-3.7325401844
  0
LWPOLYLINE
  5
240
100
AcDbEntity
  8
RACCORDO
100
AcDbPolyline
 62
7
  6
CONTINUOUS
 90
46
 70
0
 10
-2.673206038
 20
-18.75641394
 10
-2.663784363
 20
-19.0060049931
 10
-2.6352039096
 20
-19.2571109951
 10
-2.5870493044
 20
-19.5088561704
 10
-2.5189629202
 20
-19.7604278151
 10
-2.4307043177
 20
-20.0108598025
 10
-2.3221751349
 20
-20.2591193141
 10
-2.1933767312
 20
-20.5042524282
 10
-2.0441811569
 20
-20.7456987319
 10
-1.8742567003
 20
-20.9831559709
 10
-1.682787001
 20
-21.216742067
 10
-1.4702470577
 20
-21.4449303722
 10
-1.2386180979
 20
-21.6652118973
 10
-0.9885374346
 20
-21.8769671581
 10
-0.7202054341
 20
-22.0799790142
 10
-0.4357536154
 20
-22.272721867
 10
-0.1362278536
 20
-22.4547521662
 10
0.1779300155
 20
-22.6260184769
 10
0.5049730279
 20
-22.7857973309
 10
0.8437190181
 20
-22.9338023776
 10
1.193534725
 20
-23.0700098705
 10
1.5532244906
 20
-23.194172038
 10
1.9217604393
 20
-23.3061453094
 10
2.298242721
 20
-23.4058419832
 10
2.6815310355
 20
-23.4931282099
 10
3.070470883
 20
-23.5679063751
 10
3.4642158804
 20
-23.630160913
 10
3.8620244373
 20
-23.679884535
 10
4.2628894621
 20
-23.7170347644
 10
4.6658213937
 20
-23.7415902526
 10
5.0700865753
 20
-23.753551448
 10
5.4747474086
 20
-23.752908963
 10
5.8787476021
 20
-23.7396715517
 10
6.2811752982
 20
-23.7138638359
 10
6.6809976155
 20
-23.6755335104
 10
7.0772737659
 20
-23.6247404027
 10
7.4692509126
 20
-23.5615250475
 10
7.8560223198
 20
-23.4859494002
 10
8.2365515252
 20
-23.3981166766
 10
8.6099388165
 20
-23.2981191999
 10
8.9752800679
 20
-23.1860595479
 10
9.3315982703
 20
-23.062076705
 10
9.6779722688
 20
-22.926309222
 10
10.0135223909
 20
-22.7788907372
 10
10.3373462348
 20
-22.619973566
 10
10.6485325818
 20
-22.4497269532
  0
LINE
  5
241
100
AcDbEntity
  8
0
100
AcDbLine
 62
7
  6
CONTINUOUS
 10
-4.6123456356
 20
-4.2918006238
 11
-4.6123456356
 21
-4.9776356563
  0
LWPOLYLINE
  5
242
100
AcDbEntity
  8
0
100
AcDbPolyline
 62
7
  6
CONTINUOUS
 90
3
 70
0
 10
-1.1143241011
 20
3.2844302299
 10
-1.1051118384
 20
3.289563221
 10
-1.088522091
 20
3.2934719571
  0
LWPOLYLINE
  5
243
100
AcDbEntity
  8
0
100
AcDbPolyline
 62
250
  6
CONTINUOUS
 90
41
 70
0
 10
-2.6732058685
 20
0.2663970347
 10
-2.666916509
 20
0.0850778442
 10
-2.6342156259
 20
-0.1859986062
 10
-2.5737042034
 20
-0.4554762969
 10
-2.4855956359
 20
-0.7224049202
 10
-2.3702006379
 20
-0.9858431439
 10
-2.2279261588
 20
-1.2448619252
 10
-2.059273942
 20
-1.4985478106
 10
-1.8648387534
 20
-1.7460061574
 10
-1.6453062805
 20
-1.9863642897
 10
-1.4014507179
 20
-2.2187745701
 10
-1.1341320373
 20
-2.4424173889
 10
-0.8442929569
 20
-2.6565040536
 10
-0.5329556148
 20
-2.8602795723
 10
-0.2012179635
 20
-3.0530253167
 10
0.1497501019
 20
-3.2340615561
 10
0.5187108694
 20
-3.4027498544
 10
0.904363174
 20
-3.5584953208
 10
1.3053469868
 20
-3.7007487084
 10
1.7202482114
 20
-3.8290083511
 10
2.1476036713
 20
-3.9428219328
 10
2.585906268
 20
-4.0417880818
 10
3.0336102959
 20
-4.1255577871
 10
3.4891368961
 20
-4.1938356292
 10
3.9508796236
 20
-4.2463808221
 10
4.4172101112
 20
-4.2830080616
 10
4.8864838024
 20
-4.3035881794
 10
5.3570457825
 20
-4.3080485993
 10
5.8272366147
 20
-4.2963735905
 10
6.2953982104
 20
-4.2686043169
 10
6.7598794929
 20
-4.2248387063
 10
7.2190422575
 20
-4.1652311247
 10
7.671267144
 20
-4.0899918157
 10
8.114959461
 20
-3.9993861194
 10
8.5485546224
 20
-3.8937335475
 10
8.9705235711
 20
-3.7734066807
 10
9.3793781675
 20
-3.6388298713
 10
9.7736765531
 20
-3.4904777197
 10
10.1520282117
 20
-3.3288734038
 10
10.5130988723
 20
-3.1545868331
 10
10.8556152029
 20
-2.9682326428
  0
LINE
  5
244
100
AcDbEntity
  8
0
100
AcDbLine
 62
250
  6
CONTINUOUS
 10
-2.673206038
 20
0.2673435093
 11
-2.6732058685
 21
0.2663970347
  0
LINE
  5
245
100
AcDbEntity
  8
0
100
AcDbLine
 62
7
  6
CONTINUOUS
 10
-2.673206038
 20
-18.75641394
 11
-2.673206038
 21
0.2673435093
  0
LWPOLYLINE
  5
246
100
AcDbEntity
  8
0
100
AcDbPolyline
 62
250
  6
CONTINUOUS
 90
26
 70
0
 10
-0.3797901693
 20
8.5684161274
 10
-0.3894412307
 20
8.5355307487
 10
-0.4000340783
 20
8.4751560018
 10
-0.4021013882
 20
8.4129972282
 10
-0.3956205107
 20
8.3497354524
 10
-0.3806624514
 20
8.2860637839
 10
-0.3573910941
 20
8.2226798226
 10
-0.3260614046
 20
8.1602780165
 10
-0.2870166376
 20
8.0995420528
 10
-0.2406845756
 20
8.0411373676
 10
-0.1875728425
 20
7.9857038547
 10
-0.1282633414
 20
7.9338488552
 10
-0.0634058798
 20
7.8861405036
 10
0.0062889505
 20
7.8431015023
 10
0.0800575583
 20
7.8052033957
 10
0.1570917193
 20
7.7728614035
 10
0.2365474312
 20
7.7464298712
 10
0.3175541604
 20
7.7261983882
 10
0.3992243805
 20
7.712388615
 10
0.4806632952
 20
7.7051518542
 10
0.5609786429
 20
7.7045673933
 10
0.6392904717
 20
7.7106416358
 10
0.714740781
 20
7.7233080311
 10
0.7865029212
 20
7.7424278035
 10
0.8537906515
 20
7.7677914726
 10
0.9158667532
 20
7.7991211489
  0
LWPOLYLINE
  5
247
100
AcDbEntity
  8
0
100
AcDbPolyline
 62
7
  6
CONTINUOUS
 90
53
 70
0
 10
-0.3797901693
 20
8.5684161274
 10
-0.3006928408
 20
8.8289930734
 10
-0.2345123558
 20
9.1049403928
 10
-0.1817459312
 20
9.395518146
 10
-0.1428080622
 20
9.7000998281
 10
-0.1181071785
 20
10.0175535324
 10
-0.1079381916
 20
10.3462631889
 10
-0.1124162417
 20
10.6846961279
 10
-0.1315800842
 20
11.0322376682
 10
-0.1655332627
 20
11.3887199203
 10
-0.2143598378
 20
11.7533280378
 10
-0.2780353506
 20
12.1247901361
 10
-0.3565738127
 20
12.5023803347
 10
-0.4499274087
 20
12.8851417484
 10
-0.557939537
 20
13.2718591992
 10
-0.6804352755
 20
13.6614594506
 10
-0.8172009062
 20
14.0528802789
 10
-0.9679335652
 20
14.4449357766
 10
-1.1322505757
 20
14.8363845713
 10
-1.3098047692
 20
15.22619356
 10
-1.5001132085
 20
15.6131289582
 10
-1.702477032
 20
15.9956790351
 10
-1.9162786582
 20
16.3726570787
 10
-2.1409596473
 20
16.7430745885
 10
-2.3758054361
 20
17.1057658854
 10
-2.6200686724
 20
17.4596208662
 10
-2.8730868903
 20
17.803734893
 10
-3.1342189796
 20
18.1372803956
 10
-3.402876597
 20
18.4595275163
 10
-3.6780865288
 20
18.7693425878
 10
-3.9585507934
 20
19.0653788845
 10
-4.2430898519
 20
19.3465941314
 10
-4.5311040792
 20
19.6126073462
 10
-4.8220971055
 20
19.8631143238
 10
-5.1153818568
 20
20.0976323052
 10
-5.4098131394
 20
20.3153687919
 10
-5.7041451021
 20
20.5155881004
 10
-5.9970606647
 20
20.6976550145
 10
-6.2879661226
 20
20.8614786749
 10
-6.5766021915
 20
21.0071175088
 10
-6.861708251
 20
21.134125939
 10
-7.1425875371
 20
21.2424096476
 10
-7.4196345785
 20
21.3322124351
 10
-7.6914536374
 20
21.4031081182
 10
-7.9573418631
 20
21.4549735408
 10
-8.2183748753
 20
21.4878609513
 10
-8.4740095093
 20
21.5012783998
 10
-8.722399479
 20
21.4947317094
 10
-8.9625515345
 20
21.4679441621
 10
-9.1942328092
 20
21.4205549365
 10
-9.416058427
 20
21.3524529013
 10
-9.6259906408
 20
21.26421294
 10
-9.7737275743
 20
21.1860417723
  0
LWPOLYLINE
  5
248
100
AcDbEntity
  8
0
100
AcDbPolyline
 62
250
  6
CONTINUOUS
 90
58
 70
0
 10
-0.6060477973
 20
3.2163453617
 10
-0.8018585503
 20
3.0255498485
 10
-0.9783555102
 20
2.8296144356
 10
-1.1355386769
 20
2.628539123
 10
-1.273911241
 20
2.421529361
 10
-1.3929700119
 20
2.2093796992
 10
-1.4912054183
 20
1.9944737869
 10
-1.5682767379
 20
1.7769567206
 10
-1.6245246929
 20
1.5566834037
 10
-1.6594618788
 20
1.3356021954
 10
-1.6729045402
 20
1.1136644713
 10
-1.6650364326
 20
0.8909188559
 10
-1.6359214172
 20
0.6694595817
 10
-1.5853600995
 20
0.4493149759
 10
-1.5135518741
 20
0.2304567115
 10
-1.4211587858
 20
0.0148940392
 10
-1.307989874
 20
-0.1973466194
 10
-1.1742360994
 20
-0.4062916859
 10
-1.021132389
 20
-0.6100111733
 10
-0.8485000596
 20
-0.8084557649
 10
-0.6565177944
 20
-1.0016747775
 10
-0.4469565695
 20
-1.1878861747
 10
-0.2196535779
 20
-1.3670253003
 10
0.0252283733
 20
-1.5391568105
 10
0.2854298862
 20
-1.7026926382
 10
0.5610926849
 20
-1.8575531979
 10
0.8520750452
 20
-2.003818075
 10
1.1556923962
 20
-2.1401379581
 10
1.4720616566
 20
-2.2664208158
 10
1.8010659078
 20
-2.3827586794
 10
2.1396698226
 20
-2.4880783317
 10
2.4879622256
 20
-2.5822778075
 10
2.8458542923
 20
-2.6654590721
 10
3.2100442222
 20
-2.7368548044
 10
3.5805902831
 20
-2.7963559396
 10
3.9574342072
 20
-2.8440715425
 10
4.3370993905
 20
-2.8795614864
 10
4.7196119279
 20
-2.9027126356
 10
5.1049457244
 20
-2.9136381259
 10
5.4895458909
 20
-2.912237238
 10
5.8734056276
 20
-2.8983959059
 10
6.2565317343
 20
-2.8722281957
 10
6.6353897211
 20
-2.8339755871
 10
7.0099400809
 20
-2.7835262496
 10
7.3802223208
 20
-2.7209920138
 10
7.7428204721
 20
-2.6469498506
 10
8.0976634156
 20
-2.5612932711
 10
8.4448222704
 20
-2.4641287642
 10
8.7810944249
 20
-2.3563527688
 10
9.1063791251
 20
-2.2378670937
 10
9.420777125
 20
-2.1087699301
 10
9.7213880749
 20
-1.9702522901
 10
10.0080843895
 20
-1.8222270022
 10
10.2809936542
 20
-1.664781238
 10
10.5375982752
 20
-1.4993675237
 10
10.7777473698
 20
-1.3259121288
 10
11.0015918207
 20
-1.1444887839
 10
11.2070666827
 20
-0.9567712072
  0
LWPOLYLINE
  5
249
100
AcDbEntity
  8
RACCORDO
100
AcDbPolyline
 62
7
  6
CONTINUOUS
 90
14
 70
0
 10
-1.1143223806
 20
3.2844080081
 10
-1.2502783623
 20
3.1656541368
 10
-1.4812997209
 20
2.9446662149
 10
-1.6934538157
 20
2.7154316569
 10
-1.8865008459
 20
2.4780394545
 10
-2.0596360436
 20
2.2332541116
 10
-2.212374971
 20
1.9815355376
 10
-2.344190301
 20
1.7234505709
 10
-2.4545301059
 20
1.4597135958
 10
-2.5428529081
 20
1.191223433
 10
-2.6086676081
 20
0.9191466834
 10
-2.6517003288
 20
0.6442540134
 10
-2.6717027398
 20
0.3670756969
 10
-2.6732058685
 20
0.2663970347
  0
LWPOLYLINE
  5
24A
100
AcDbEntity
  8
0
100
AcDbPolyline
 62
7
  6
CONTINUOUS
 90
12
 70
0
 10
0.2455166524
 20
3.3211362119
 10
0.2875063692
 20
3.3474116193
 10
0.3255048818
 20
3.3750771245
 10
0.35951219
 20
3.4041327276
 10
0.3896650177
 20
3.434754879
 10
0.415826641
 20
3.4667671283
 10
0.437586889
 20
3.4996401241
 10
0.4548834707
 20
3.5333981981
 10
0.4677786772
 20
3.5680170187
 10
0.47604921
 20
3.6028942392
 10
0.4796150961
 20
3.6380312275
 10
0.4798312253
 20
3.647789953
  0
LINE
  5
24B
100
AcDbEntity
  8
0
100
AcDbLine
 62
7
  6
CONTINUOUS
 10
-13.168337688
 20
-5.3941420258
 11
-10.2615412631
 21
-3.7157942008
  0
LINE
  5
24C
100
AcDbEntity
  8
0
100
AcDbLine
 62
7
  6
CONTINUOUS
 10
-6.9811533526
 20
-2.1402692704
 11
-7.5351254396
 21
-2.4601258106
  0
LINE
  5
24D
100
AcDbEntity
  8
0
100
AcDbLine
 62
7
  6
CONTINUOUS
 10
-12.2137435334
 20
-5.161501261
 11
-11.2237940397
 21
-4.5899168304
  0
LWPOLYLINE
  5
24E
100
AcDbEntity
  8
0
100
AcDbPolyline
 62
7
  6
CONTINUOUS
 90
17
 70
0
 10
1.3768875023
 20
3.9743755612
 10
1.331380109
 20
3.95013123
 10
1.2834651427
 20
3.9281913677
 10
1.2331426035
 20
3.9085559744
 10
1.180106887
 20
3.8911461062
 10
1.1246635975
 20
3.876040707
 10
1.0677295482
 20
3.8634766085
 10
1.0092626003
 20
3.853489778
 10
0.9493048926
 20
3.846044248
 10
0.8888996538
 20
3.8412689478
 10
0.8280445142
 20
3.8392100529
 10
0.7667418436
 20
3.8398213878
 10
0.7060419805
 20
3.843093354
 10
0.6459541982
 20
3.8490703293
 10
0.5864692235
 20
3.8577079361
 10
0.5286095749
 20
3.8688634435
 10
0.4833712246
 20
3.8798917439
  0
LWPOLYLINE
  5
24F
100
AcDbEntity
  8
0
100
AcDbPolyline
 62
250
  6
CONTINUOUS
 90
14
 70
0
 10
-1.1201687725
 20
3.6477558866
 10
-1.1183314313
 20
3.6164682508
 10
-1.1096184082
 20
3.5729863883
 10
-1.0938161236
 20
3.5301759563
 10
-1.0710664821
 20
3.4884213926
 10
-1.0415737756
 20
3.4480976534
 10
-1.0056028487
 20
3.4095668462
 10
-0.9634767205
 20
3.3731749776
 10
-0.9155736677
 20
3.3392488365
 10
-0.8623238728
 20
3.308093092
 10
-0.804205577
 20
3.2799875483
 10
-0.7417407159
 20
3.2551845911
 10
-0.675490216
 20
3.2339069311
 10
-0.6060490137
 20
3.2163456304
  0
LINE
  5
250
100
AcDbEntity
  8
0
100
AcDbLine
 62
7
  6
CONTINUOUS
 10
-1.1201687725
 20
3.279301343
 11
-1.1201687725
 21
3.6477558866
  0
LWPOLYLINE
  5
251
100
AcDbEntity
  8
0
100
AcDbPolyline
 62
7
  6
CONTINUOUS
 90
10
 70
0
 10
-1.1201687725
 20
3.6477558866
 10
-1.1110026525
 20
4.2428563653
 10
-1.0834915482
 20
4.8274733626
 10
-1.0376274719
 20
5.4009504007
 10
-0.9733963285
 20
5.9627996117
 10
-0.8908321115
 20
6.5122079117
 10
-0.7900681328
 20
7.0480883928
 10
-0.6712403165
 20
7.5697168102
 10
-0.5344372424
 20
8.0766796601
 10
-0.3797901693
 20
8.5684161274
  0
LWPOLYLINE
  5
252
100
AcDbEntity
  8
0
100
AcDbPolyline
 62
7
  6
CONTINUOUS
 90
55
 70
0
 10
1.1360153343
 20
8.0562309313
 10
1.2410061159
 20
8.4009306159
 10
1.327737653
 20
8.7591079888
 10
1.3961788543
 20
9.1299454539
 10
1.4463033271
 20
9.5124469078
 10
1.4781617614
 20
9.9059976453
 10
1.4917864029
 20
10.3103560899
 10
1.4871217593
 20
10.7253427449
 10
1.4641190018
 20
11.1495066911
 10
1.4229508246
 20
11.5805427968
 10
1.3638740815
 20
12.0171714454
 10
1.2871024727
 20
12.4586839841
 10
1.193041779
 20
12.9034404394
 10
1.0820990222
 20
13.3502284391
 10
0.9546299241
 20
13.7981687952
 10
0.8111074292
 20
14.2460407076
 10
0.6520376151
 20
14.6926723412
 10
0.4778677819
 20
15.1371462557
 10
0.2890340384
 20
15.5785939641
 10
0.0860927454
 20
16.0159080235
 10
-0.1304475858
 20
16.448153256
 10
-0.3602323466
 20
16.8747033072
 10
-0.6027765962
 20
17.2946662263
 10
-0.8574414732
 20
17.7069289797
 10
-1.1236431166
 20
18.110534785
 10
-1.4007995953
 20
18.5045693963
 10
-1.68823919
 20
18.8880339499
 10
-1.9852139855
 20
19.2598912126
 10
-2.2908568042
 20
19.6190364735
 10
-2.6046551491
 20
19.9648362058
 10
-2.9264196301
 20
20.2969647557
 10
-3.2558983424
 20
20.6149394584
 10
-3.5919879664
 20
20.9174620066
 10
-3.9332349892
 20
21.2030902095
 10
-4.2785988516
 20
21.4709024842
 10
-4.6276411253
 20
21.7204926101
 10
-4.9798357815
 20
21.9513565516
 10
-5.3351736821
 20
22.1632622469
 10
-5.6922375071
 20
22.3551190618
 10
-6.0484481895
 20
22.5255028793
 10
-6.4025325734
 20
22.6739621845
 10
-6.7543938161
 20
22.8005941925
 10
-7.1032924809
 20
22.9052074697
 10
-7.4488694863
 20
22.9877310219
 10
-7.7901844663
 20
23.0479585459
 10
-8.1256720991
 20
23.0857295312
 10
-8.4545557733
 20
23.1011615713
 10
-8.7763185229
 20
23.0944277777
 10
-9.0897762451
 20
23.0657862923
 10
-9.3935344054
 20
23.0157345092
 10
-9.6876503257
 20
22.9446441489
 10
-9.9729184961
 20
22.8524528864
 10
-10.2487125592
 20
22.7392871326
 10
-10.5139248839
 20
22.6055395606
 10
-10.5708768874
 20
22.5733291683
  0
LWPOLYLINE
  5
253
100
AcDbEntity
  8
0
100
AcDbPolyline
 62
7
  6
CONTINUOUS
 90
55
 70
0
 10
2.2673861842
 20
8.7094702806
 10
2.3723769658
 20
9.0541699652
 10
2.4591085029
 20
9.4123473381
 10
2.5275497042
 20
9.7831848032
 10
2.577674177
 20
10.1656862572
 10
2.6095326113
 20
10.5592369946
 10
2.6231572528
 20
10.9635954393
 10
2.6184926092
 20
11.3785820942
 10
2.5954898517
 20
11.8027460404
 10
2.5543216745
 20
12.2337821461
 10
2.4952449314
 20
12.6704107948
 10
2.4184733226
 20
13.1119233334
 10
2.3244126289
 20
13.5566797888
 10
2.2134698721
 20
14.0034677884
 10
2.086000774
 20
14.4514081445
 10
1.9424782791
 20
14.8992800569
 10
1.783408465
 20
15.3459116906
 10
1.6092386318
 20
15.790385605
 10
1.4204048883
 20
16.2318333134
 10
1.2174635953
 20
16.6691473729
 10
1.0009232641
 20
17.1013926053
 10
0.7711385033
 20
17.5279426565
 10
0.5285942537
 20
17.9479055756
 10
0.2739293767
 20
18.360168329
 10
0.0077277333
 20
18.7637741343
 10
-0.2694287454
 20
19.1578087456
 10
-0.5568683401
 20
19.5412732992
 10
-0.8538431356
 20
19.913130562
 10
-1.1594859543
 20
20.2722758228
 10
-1.4732842992
 20
20.6180755551
 10
-1.7950487802
 20
20.950204105
 10
-2.1245274925
 20
21.2681788077
 10
-2.4606171165
 20
21.5707013559
 10
-2.8018641393
 20
21.8563295588
 10
-3.1472280017
 20
22.1241418335
 10
-3.4962702754
 20
22.3737319594
 10
-3.8484649316
 20
22.6045959009
 10
-4.2038028322
 20
22.8165015962
 10
-4.5608666572
 20
23.0083584111
 10
-4.9170773397
 20
23.1787422286
 10
-5.2711617235
 20
23.3272015338
 10
-5.6230229662
 20
23.4538335418
 10
-5.971921631
 20
23.558446819
 10
-6.3174986364
 20
23.6409703713
 10
-6.6588136164
 20
23.7011978952
 10
-6.9943012492
 20
23.7389688806
 10
-7.3231849234
 20
23.7544009206
 10
-7.644947673
 20
23.747667127
 10
-7.9584053952
 20
23.7190256416
 10
-8.2621635555
 20
23.6689738585
 10
-8.5562794758
 20
23.5978834982
 10
-8.8415476462
 20
23.5056922358
 10
-9.1173417093
 20
23.392526482
 10
-9.382554034
 20
23.25877891
 10
-9.4395060375
 20
23.2265685176
  0
LWPOLYLINE
  5
254
100
AcDbEntity
  8
0
100
AcDbPolyline
 62
250
  6
CONTINUOUS
 90
7
 70
0
 10
2.2673861842
 20
8.7094702806
 10
2.2580349177
 20
8.6844264173
 10
2.2308313032
 20
8.6295773652
 10
2.1957244504
 20
8.5784094408
 10
2.1530989975
 20
8.5314832504
 10
2.1034219577
 20
8.4893129273
 10
2.0472376031
 20
8.4523604983
  0
LWPOLYLINE
  5
255
100
AcDbEntity
  8
ASSI
100
AcDbPolyline
 62
250
  6
CONTINUOUS
 90
10
 70
0
 10
-8.8903416618
 20
-4.7123992084
 10
-8.8431207325
 20
-4.6826408172
 10
-8.800593353
 20
-4.6506277506
 10
-8.7630788227
 20
-4.6166065241
 10
-8.7308607268
 20
-4.5808423082
 10
-8.7041745601
 20
-4.5436058163
 10
-8.6832118378
 20
-4.5051697911
 10
-8.66812983
 20
-4.4658220001
 10
-8.6590454866
 20
-4.4258667315
 10
-8.6560270867
 20
-4.3857795337
  0
LWPOLYLINE
  5
256
100
AcDbEntity
  8
ASSI
100
AcDbPolyline
 62
250
  6
CONTINUOUS
 90
10
 70
0
 10
-7.7589708119
 20
-4.0591598591
 10
-7.7117498826
 20
-4.0294014679
 10
-7.6692225031
 20
-3.9973884013
 10
-7.6317079728
 20
-3.9633671747
 10
-7.5994898769
 20
-3.9276029588
 10
-7.5728037102
 20
-3.890366467
 10
-7.5518409879
 20
-3.8519304418
 10
-7.5367589801
 20
-3.8125826508
 10
-7.5276746367
 20
-3.7726273822
 10
-7.5246562368
 20
-3.7325401844
  0
LINE
  5
257
100
AcDbEntity
  8
0
100
AcDbLine
 62
7
  6
CONTINUOUS
 10
-5.5669397902
 20
-2.9568184571
 11
-6.5568892839
 21
-3.5284028877
  0
LINE
  5
258
100
AcDbEntity
  8
0
100
AcDbLine
 62
7
  6
CONTINUOUS
 10
-10.799529971
 20
-5.9780504477
 11
-9.8095804773
 21
-5.406466017
  0
LWPOLYLINE
  5
259
100
AcDbEntity
  8
0
100
AcDbPolyline
 62
7
  6
CONTINUOUS
 90
10
 70
0
 10
0.4798312275
 20
3.6477558866
 10
0.488073711
 20
4.1882580144
 10
0.5127562477
 20
4.7175763033
 10
0.5537902884
 20
5.2350039379
 10
0.611041388
 20
5.739717935
 10
0.6843758585
 20
6.2312059906
 10
0.773703047
 20
6.7092134861
 10
0.8788927144
 20
7.1732025464
 10
0.999734703
 20
7.6224089442
 10
1.1360153343
 20
8.0562309313
  0
LWPOLYLINE
  5
25A
100
AcDbEntity
  8
0
100
AcDbPolyline
 62
7
  6
CONTINUOUS
 90
10
 70
0
 10
1.6112020774
 20
4.3009952359
 10
1.6194445609
 20
4.8414973637
 10
1.6441270976
 20
5.3708156526
 10
1.6851611383
 20
5.8882432872
 10
1.7424122379
 20
6.3929572843
 10
1.8157467084
 20
6.88444534
 10
1.9050738969
 20
7.3624528354
 10
2.0102635643
 20
7.8264418957
 10
2.1311055529
 20
8.2756482935
 10
2.2673861842
 20
8.7094702806
  0
LWPOLYLINE
  5
25B
100
AcDbEntity
  8
0
100
AcDbPolyline
 62
7
  6
CONTINUOUS
 90
12
 70
0
 10
1.6112020743
 20
4.3010354001
 10
1.6110313537
 20
4.2926288152
 10
1.6076230297
 20
4.25735121
 10
1.5994718526
 20
4.2223279481
 10
1.5866591621
 20
4.1875576336
 10
1.5694081933
 20
4.153649975
 10
1.5476547472
 20
4.1206290844
 10
1.5214630229
 20
4.0884708496
 10
1.4912488531
 20
4.0577126427
 10
1.4571508484
 20
4.0285335877
 10
1.4190303982
 20
4.0007545605
 10
1.3768875023
 20
3.9743755612
  0
LINE
  5
25C
100
AcDbEntity
  8
0
100
AcDbLine
 62
7
  6
CONTINUOUS
 10
-5.5669397902
 20
-3.7406299228
 11
-6.5568892839
 21
-4.3122143535
  0
LINE
  5
25D
100
AcDbEntity
  8
0
100
AcDbLine
 62
7
  6
CONTINUOUS
 10
-9.8095804773
 20
-6.1902774828
 11
-10.799529971
 21
-6.7618619134
  0
LINE
  5
25E
100
AcDbEntity
  8
0
100
AcDbLine
 62
7
  6
CONTINUOUS
 10
-4.6123456356
 20
-4.2918006238
 11
-9.8449358164
 21
-7.3130326144
  0
LINE
  5
25F
100
AcDbEntity
  8
0
100
AcDbLine
 62
7
  6
CONTINUOUS
 10
-4.6123456356
 20
-4.9776356563
 11
-9.8449358164
 21
-7.9988676469
  0
LWPOLYLINE
  5
260
100
AcDbEntity
  8
ASSI
100
AcDbPolyline
 62
7
  6
CONTINUOUS
 90
15
 70
0
 10
-8.8903416618
 20
-5.4962106741
 10
-8.9458567049
 20
-5.5252801204
 10
-9.0046750648
 20
-5.5509242339
 10
-9.0667967415
 20
-5.5731430147
 10
-9.1328051014
 20
-5.5920668407
 10
-9.2021167782
 20
-5.607565334
 10
-9.2729816726
 20
-5.6192473608
 10
-9.3454392841
 20
-5.627015744
 10
-9.4194501133
 20
-5.6309676607
 10
-9.493145563
 20
-5.6310035092
 10
-9.5665175584
 20
-5.6270235868
 10
-9.6395741744
 20
-5.6191275961
 10
-9.7104710384
 20
-5.6075150431
 10
-9.7791531243
 20
-5.5920913138
 10
-9.8095804773
 20
-5.5833365335
  0
LWPOLYLINE
  5
261
100
AcDbEntity
  8
0
100
AcDbPolyline
 62
7
  6
CONTINUOUS
 90
12
 70
0
 10
-1.088522091
 20
3.2934719571
 10
-1.0663893797
 20
3.295173181
 10
-1.0391396852
 20
3.294721333
 10
-1.0074524878
 20
3.2923542995
 10
-0.9716181862
 20
3.2881756162
 10
-0.9312141348
 20
3.2820961808
 10
-0.886097826
 20
3.2743423096
 10
-0.8368209743
 20
3.2651750137
 10
-0.7837998694
 20
3.2546348782
 10
-0.7274274032
 20
3.2428462034
 10
-0.6680427305
 20
3.2300331903
 10
-0.6060490137
 20
3.2163456304
  0
LWPOLYLINE
  5
262
100
AcDbEntity
  8
0
100
AcDbPolyline
 62
7
  6
CONTINUOUS
 90
16
 70
0
 10
-0.6060477973
 20
3.2163453617
 10
-0.547365997
 20
3.2049077863
 10
-0.4880590607
 20
3.196149711
 10
-0.4281269884
 20
3.1900711359
 10
-0.3672153709
 20
3.1866680613
 10
-0.3056786173
 20
3.1859444868
 10
-0.2445799549
 20
3.1879124112
 10
-0.1839218006
 20
3.1926187987
 10
-0.1237017374
 20
3.2000166851
 10
-0.0649757424
 20
3.2099771766
 10
-0.0077855789
 20
3.2225373396
 10
0.0479105165
 20
3.2376601077
 10
0.1011818561
 20
3.2551053883
 10
0.1517182106
 20
3.2747931504
 10
0.1998298094
 20
3.2968034249
 10
0.2455166524
 20
3.3211362119
  0
LINE
  5
263
100
AcDbEntity
  8
0
100
AcDbLine
 62
7
  6
CONTINUOUS
 10
-5.7083611464
 20
-10.8766353789
 11
-9.8095804773
 21
-13.2446280202
  0
LWPOLYLINE
  5
264
100
AcDbEntity
  8
0
100
AcDbPolyline
 62
250
  6
CONTINUOUS
 90
49
 70
0
 10
11.2070666827
 20
-0.9567712072
 10
11.3940019626
 20
-0.7627011593
 10
11.5625676534
 20
-0.5623368796
 10
11.7112087893
 20
-0.357526805
 10
11.8397409912
 20
-0.148229802
 10
11.9483486381
 20
0.0655129958
 10
12.0360299011
 20
0.2817297519
 10
12.1025911345
 20
0.5004433539
 10
12.1482259841
 20
0.7216309142
 10
12.1725135584
 20
0.9432519319
 10
12.1752563187
 20
1.1653104132
 10
12.1566518038
 20
1.3878023521
 10
12.1168717385
 20
1.6086752296
 10
12.0557201751
 20
1.8279140587
 10
11.9733930614
 20
2.0455338264
 10
11.8706499656
 20
2.2595269754
 10
11.7473019714
 20
2.4698599411
 10
11.6035379951
 20
2.676566288
 10
11.4406843536
 20
2.8777391517
 10
11.2585644012
 20
3.0733273267
 10
11.0573547836
 20
3.2633820185
 10
10.8389117555
 20
3.4461499791
 10
10.6030758664
 20
3.62156377
 10
10.3500065667
 20
3.7896908298
 10
10.082038462
 20
3.9489802268
 10
9.7990336434
 20
4.0993501986
 10
9.5011300198
 20
4.2408825076
 10
9.1910759229
 20
4.3722715095
 10
8.8687590913
 20
4.4934232971
 10
8.5342917865
 20
4.6044317775
 10
8.1907591249
 20
4.7042730275
 10
7.8380766925
 20
4.792843796
 10
7.4763289033
 20
4.8702473341
 10
7.1088541154
 20
4.9357694717
 10
6.7356009666
 20
4.9893001637
 10
6.356620819
 20
5.0309494551
 10
5.9754061168
 20
5.0603333113
 10
5.5919316727
 20
5.0773381052
 10
5.206222674
 20
5.0820774639
 10
4.8218471265
 20
5.0745082338
 10
4.438828017
 20
5.0545177206
 10
4.0571423587
 20
5.0222186186
 10
3.6802891975
 20
4.9779058567
 10
3.3082968035
 20
4.9214656733
 10
2.9411369066
 20
4.8530118299
 10
2.5822237428
 20
4.7731805397
 10
2.2326953908
 20
4.6821838739
 10
1.8914137718
 20
4.5798097612
 10
1.6140089943
 20
4.4850592491
  0
LWPOLYLINE
  5
265
100
AcDbEntity
  8
0
100
AcDbPolyline
 62
250
  6
CONTINUOUS
 90
15
 70
0
 10
10.8556152029
 20
-2.9682326428
 10
11.1783693413
 20
-2.7704680015
 10
11.4802230934
 20
-2.5619903234
 10
11.7601119488
 20
-2.3435348144
 10
12.0170488595
 20
-2.115871866
 10
12.250127713
 20
-1.879804345
 10
12.4585265303
 20
-1.6361647636
 10
12.6415103584
 20
-1.3858123564
 10
12.7984339123
 20
-1.1296299806
 10
12.92874382
 20
-0.8685210042
 10
13.0319805286
 20
-0.6034061793
 10
13.1077799067
 20
-0.3352205066
 10
13.1558746011
 20
-0.0649098677
 10
13.1760950071
 20
0.2065724249
 10
13.176793962
 20
0.2673435093
  0
LWPOLYLINE
  5
266
100
AcDbEntity
  8
RACCORDO
100
AcDbPolyline
 62
7
  6
CONTINUOUS
 90
40
 70
0
 10
13.1767939538
 20
0.2675515371
 10
13.1722366781
 20
0.4409680093
 10
13.1460507329
 20
0.7178224662
 10
13.0967584831
 20
0.9927424376
 10
13.0246071195
 20
1.2647251563
 10
12.9301054085
 20
1.5323591898
 10
12.8138690933
 20
1.7945656101
 10
12.6763883272
 20
2.0507935549
 10
12.518037337
 20
2.3006776978
 10
12.3399581714
 20
2.5428192237
 10
12.1421304243
 20
2.7775768952
 10
11.922386627
 20
3.0070928434
 10
11.6787591117
 20
3.2321932715
 10
11.4126313038
 20
3.4504277051
 10
11.1267944262
 20
3.6590246377
 10
10.8220574591
 20
3.8572942366
 10
10.4986551728
 20
4.044951841
 10
10.1595213854
 20
4.2203196694
 10
9.80621798
 20
4.3828387761
 10
9.4391294762
 20
4.5325364852
 10
9.0599879131
 20
4.6688769149
 10
8.6698994668
 20
4.7916507637
 10
8.2699737563
 20
4.9006664665
 10
7.8622255602
 20
4.9955563991
 10
7.4480456681
 20
5.076213343
 10
7.0284790083
 20
5.1426261094
 10
6.6051821854
 20
5.1947167488
 10
6.1796998939
 20
5.2324988076
 10
5.7529341278
 20
5.2560774847
 10
5.3256113454
 20
5.2655420348
 10
4.8988876075
 20
5.2609567593
 10
4.4739546896
 20
5.2424102121
 10
4.051578129
 20
5.2099797595
 10
3.6331068538
 20
5.163790256
 10
3.2194560303
 20
5.103949821
 10
2.8107343238
 20
5.0304025877
 10
2.4079738883
 20
4.9431853551
 10
2.0124240212
 20
4.8423992346
 10
1.6245314052
 20
4.727930195
 10
1.6176773733
 20
4.7256137663
  0
LINE
  5
267
100
AcDbEntity
  8
0
100
AcDbLine
 62
7
  6
CONTINUOUS
 10
13.176793962
 20
-18.75641394
 11
13.176793962
 21
0.2673435093
  0
LWPOLYLINE
  5
268
100
AcDbEntity
  8
RACCORDO
100
AcDbPolyline
 62
250
  6
CONTINUOUS
 90
14
 70
0
 10
13.176793962
 20
-18.75641394
 10
13.168337688
 20
-18.9677412507
 10
13.1307909101
 20
-19.2487301585
 10
13.0633563535
 20
-19.5278515666
 10
12.9662898608
 20
-19.8040465507
 10
12.8399597015
 20
-20.0762673481
 10
12.6848450992
 20
-20.3434814021
 10
12.5015344319
 20
-20.604675154
 10
12.2907230434
 20
-20.8588578332
 10
12.0532106344
 20
-21.1050652149
 10
11.7898981807
 20
-21.3423633486
 10
11.5017845239
 20
-21.5698520835
 10
11.1899625808
 20
-21.7866684828
 10
10.8556152029
 20
-21.9919900921
  0
LWPOLYLINE
  5
269
100
AcDbEntity
  8
0
100
AcDbPolyline
 62
250
  6
CONTINUOUS
 90
14
 70
0
 10
-11.021822323
 20
15.8378947172
 10
-11.0152867824
 20
15.8375062003
 10
-10.9410405369
 20
15.8371730838
 10
-10.8635505198
 20
15.8406830121
 10
-10.783665728
 20
15.8479975296
 10
-10.7022613959
 20
15.859036497
 10
-10.6202294064
 20
15.873678969
 10
-10.5384685192
 20
15.8917645196
 10
-10.4578745238
 20
15.9130949997
 10
-10.3793304246
 20
15.9374367081
 10
-10.3036967675
 20
15.9645229521
 10
-10.2318022104
 20
15.994056969
 10
-10.1644344453
 20
16.0257151779
 10
-10.1023315674
 20
16.059150725
  0
LWPOLYLINE
  5
26A
100
AcDbEntity
  8
RACCORDO
100
AcDbPolyline
 62
7
  6
CONTINUOUS
 90
19
 70
0
 10
10.6485325818
 20
-22.4497269532
 10
10.9164775349
 20
-22.2873293214
 10
11.1713529182
 20
-22.1171269399
 10
11.4127922818
 20
-21.9393736518
 10
11.6408304732
 20
-21.7539823489
 10
11.8546464845
 20
-21.5615328815
 10
12.0528295107
 20
-21.3633960326
 10
12.2351891338
 20
-21.16003585
 10
12.4016975778
 20
-20.9517577668
 10
12.5516178067
 20
-20.7399091507
 10
12.6848505456
 20
-20.5253196392
 10
12.8017463066
 20
-20.308178455
 10
12.9024288888
 20
-20.0890228427
 10
12.9869367697
 20
-19.8687287059
 10
13.0556005507
 20
-19.6475716833
 10
13.1088198787
 20
-19.4252486054
 10
13.1467079789
 20
-19.2020625554
 10
13.1693078189
 20
-18.9789147114
 10
13.176793962
 20
-18.75641394
  0
LWPOLYLINE
  5
26B
100
AcDbEntity
  8
RACCORDO
100
AcDbPolyline
 62
250
  6
CONTINUOUS
 90
40
 70
0
 10
10.8556152029
 20
-21.9919900921
 10
10.5000106604
 20
-22.1850380749
 10
10.124497839
 20
-22.3650801551
 10
9.7305011792
 20
-22.5314333692
 10
9.3195152355
 20
-22.6834666801
 10
8.8930990136
 20
-22.8206033693
 10
8.4528700576
 20
-22.9423232247
 10
8.0004983428
 20
-23.0481645093
 10
7.5376998266
 20
-23.1377257392
 10
7.066229939
 20
-23.2106671908
 10
6.5878770098
 20
-23.2667121664
 10
6.1044556965
 20
-23.3056480329
 10
5.6177999877
 20
-23.3273270706
 10
5.1297560269
 20
-23.3316670492
 10
4.6421750452
 20
-23.3186515161
 10
4.1569065466
 20
-23.2883298442
 10
3.6757912983
 20
-23.2408170499
 10
3.2006543609
 20
-23.1762933656
 10
2.7332981068
 20
-23.0950035534
 10
2.2754953855
 20
-22.9972559751
 10
1.8289827942
 20
-22.8834214206
 10
1.395454105
 20
-22.7539317024
 10
0.97655384
 20
-22.6092780188
 10
0.5738710346
 20
-22.4500090917
 10
0.1889332056
 20
-22.2767290837
 10
-0.1767994443
 20
-22.090095306
 10
-0.5219395659
 20
-21.8908157247
 10
-0.845177924
 20
-21.6796462758
 10
-1.1452883642
 20
-21.4573879976
 10
-1.4211324636
 20
-21.2248839928
 10
-1.6716638504
 20
-20.9830162292
 10
-1.8959321724
 20
-20.732702195
 10
-2.0930867026
 20
-20.4748914176
 10
-2.2623795661
 20
-20.2105618617
 10
-2.4031685775
 20
-19.9407162186
 10
-2.514919674
 20
-19.666378108
 10
-2.5972089435
 20
-19.3885881948
 10
-2.6497242347
 20
-19.1084002453
 10
-2.6722663451
 20
-18.8268770963
 10
-2.673206038
 20
-18.75641394
  0
ENDSEC
  0
SECTION
  2
OBJECTS
  0
DICTIONARY
  5
C
100
AcDbDictionary
280
0
281
1
  3
ACAD_GROUP
350
D
  3
ACAD_MLINESTYLE
350
17
  3
ACAD_LAYOUT
350
1A
  3
ACAD_PLOTSETTINGS
350
19
  3
ACAD_PLOTSTYLENAME
350
E
  0
DICTIONARY
  5
D
102
{ACAD_REACTORS
330
C
102
}
100
AcDbDictionary
280
0
281
1
  0
ACDBDICTIONARYWDFLT
  5
E
102
{ACAD_REACTORS
330
C
102
}
100
AcDbDictionary
281
1
  3
Normal
350
F
100
AcDbDictionaryWithDefault
340
F
  0
DICTIONARY
  5
17
102
{ACAD_REACTORS
330
C
102
}
100
AcDbDictionary
280
0
281
1
  3
Standard
350
18
  0
DICTIONARY
  5
19
102
{ACAD_REACTORS
330
C
102
}
100
AcDbDictionary
281
1
  0
DICTIONARY
  5
1A
102
{ACAD_REACTORS
330
C
102
}
100
AcDbDictionary
281
1
  3
Model
350
26C
  3
Layout1
350
26D
  0
ACDBPLACEHOLDER
  5
F
102
{ACAD_REACTORS
330
E
102
}
  0
MLINESTYLE
  5
18
102
{ACAD_REACTORS
330
17
102
}
100
AcDbMlineStyle
  2
STANDARD
 70
0
  3

 62
256
 51
90.0
 52
90.0
 71
2
 49
0.5
 62
256
  6
BYLAYER
 49
-0.5
 62
256
  6
BYLAYER
  0
LAYOUT
  5
26C
102
{ACAD_REACTORS
330
1A
102
}
100
AcDbPlotSettings
  1

  2
none_device
  4
ISO_A4_(297.00_x_210.00_MM)
  6

 40
0.0
 41
0.0
 42
0.0
 43
0.0
 44
297.0
 45
210.0
 46
0.0
 47
0.0
 48
0.0
 49
0.0
140
0.0
141
0.0
142
1.0
143
1.0
 70
1024
 72
1
 73
0
 74
0
  7

 75
0
147
1.0
148
0.0
149
0.0
100
AcDbLayout
  1
Model
 70
0
 71
0
 10
0.0
 20
0.0
 11
297.0
 21
210.0
 12
0.0
 22
0.0
 32
0.0
 14
0.0
 24
0.0
 34
0.0
 15
0.0
 25
0.0
 35
0.0
146
0.0
 13
0.0
 23
0.0
 33
0.0
 16
1.0
 26
0.0
 36
0.0
 17
0.0
 27
1.0
 37
0.0
 76
0
330
20E
345
0
346
0
  0
LAYOUT
  5
26D
102
{ACAD_REACTORS
330
1A
102
}
100
AcDbPlotSettings
  1

  2
none_device
  4
ISO_A4_(297.00_x_210.00_MM)
  6

 40
0.0
 41
0.0
 42
0.0
 43
0.0
 44
297.0
 45
210.0
 46
0.0
 47
0.0
 48
0.0
 49
0.0
140
0.0
141
0.0
142
1.0
143
1.0
 70
0
 72
1
 73
0
 74
0
  7

 75
0
147
1.0
148
0.0
149
0.0
100
AcDbLayout
  1
Layout1
 70
0
 71
1
 10
0.0
 20
0.0
 11
297.0
 21
210.0
 12
0.0
 22
0.0
 32
0.0
 14
0.0
 24
0.0
 34
0.0
 15
0.0
 25
0.0
 35
0.0
146
0.0
 13
0.0
 23
0.0
 33
0.0
 16
1.0
 26
0.0
 36
0.0
 17
0.0
 27
1.0
 37
0.0
 76
0
330
20F
345
0
346
0
  0
ENDSEC
  0
EOF
