  0
SECTION
  2
HEADER
  9
$ACADVER
  1
AC1021
  9
$DWGCODEPAGE
  3
ANSI_1252
  9
$EXTMAX
 10
297.0
 20
210.0
 30
0.0
  9
$EXTMIN
 10
0.0
 20
0.0
 30
0.0
  9
$LIMMIN
 10
0.0
 20
0.0
  9
$LIMMAX
 10
297.0
 20
210.0
  9
$VIEWCTR
 10
148.5
 20
105.0
  9
$VIEWSIZE
 40
210.0
  9
$CLAYER
  8
0
  9
$LTSCALE
 40
16.335
  9
$CELTYPE
  6
BYLAYER
  9
$DIMSCALE
 40
1.0
  9
$DIMASZ
 40
3.0
  9
$DIMEXO
 40
0.5
  9
$DIMDLI
 40
11.286
  9
$DIMEXE
 40
1.5
  9
$DIMCEN
 40
2.673
  9
$DIMLFAC
 40
1.0
  9
$DIMBLK
  1
_FILLED
  9
$DIMALT
 70
0
  9
$DIMALTF
 40
0.0393700787
  9
$DIMTXT
 40
3.0
  9
$DIMTOL
 70
1
  9
$DIMLIM
 70
0
  9
$DIMTFAC
 40
1.0
  9
$DIMTP
 40
0.01
  9
$DIMTM
 40
0.01
  9
$DIMGAP
 40
0.625
  9
$DIMDSEP
 70
44
  9
$AUNITS
 70
0
  9
$PDMODE
 70
3
  9
$PDSIZE
 40
3.0
  9
$HANDSEED
  5
333
  9
$TILEMODE
 70
1
  9
$MEASUREMENT
 70
1
  9
$INSUNITS
 70
4
  0
ENDSEC
  0
SECTION
  2
CLASSES
  0
CLASS
  1
ACDBDICTIONARYWDFLT
  2
AcDbDictionaryWithDefault
  3
AutoCAD 2000
 90
0
 91
1
280
0
281
0
  0
CLASS
  1
ACDBPLACEHOLDER
  2
AcDbPlaceHolder
  3
AutoCAD 2000
 90
0
 91
1
280
0
281
0
  0
CLASS
  1
LAYOUT
  2
AcDbLayout
  3
AutoCAD 2000
 90
0
 91
0
280
0
281
0
  0
ENDSEC
  0
SECTION
  2
TABLES
  0
TABLE
  2
VPORT
  5
8
100
AcDbSymbolTable
 70
2
  0
VPORT
  5
1F4
100
AcDbSymbolTableRecord
100
AcDbViewportTableRecord
  2
*ACTIVE
 70
0
 10
0.0
 20
0.0
 11
1.0
 21
1.0
 12
148.5
 22
105.0
 13
0.0
 23
0.0
 14
1.0
 24
1.0
 15
0.0
 25
0.0
 16
0.0
 26
0.0
 36
1.0
 17
0.0
 27
0.0
 37
0.0
 40
210.0
 41
1.4142857143
 42
50.0
 43
0.0
 44
0.0
 50
0.0
 51
0.0
 71
0
 72
100
 73
1
 74
1
 75
0
 76
0
 77
0
 78
0
  0
ENDTAB
  0
TABLE
  2
LTYPE
  5
5
100
AcDbSymbolTable
 70
6
  0
LTYPE
  5
14
100
AcDbSymbolTableRecord
100
AcDbLinetypeTableRecord
  2
BYBLOCK
 70
0
  3

 72
65
 73
0
 40
0.0
  0
LTYPE
  5
15
100
AcDbSymbolTableRecord
100
AcDbLinetypeTableRecord
  2
BYLAYER
 70
0
  3

 72
65
 73
0
 40
0.0
  0
LTYPE
  5
16
100
AcDbSymbolTableRecord
100
AcDbLinetypeTableRecord
  2
CONTINUOUS
 70
64
  3
Solid line
 72
65
 73
0
 40
0.0
  0
LTYPE
  5
1F5
100
AcDbSymbolTableRecord
100
AcDbLinetypeTableRecord
  2
CENTER
 70
64
  3
____ _ ____ _ ____ _ ____ _ ____ _ ____ _ ____
 72
65
 73
4
 40
0.6
 49
0.375
 74
0
 49
-0.075
 74
0
 49
0.075
 74
0
 49
-0.075
 74
0
  0
LTYPE
  5
1F6
100
AcDbSymbolTableRecord
100
AcDbLinetypeTableRecord
  2
HIDDEN
 70
64
  3
- - - - - - - - - - - - - - - - - - - -
 72
65
 73
2
 40
0.2
 49
0.1
 74
0
 49
-0.1
 74
0
  0
LTYPE
  5
1F7
100
AcDbSymbolTableRecord
100
AcDbLinetypeTableRecord
  2
PHANTOM
 70
64
  3
_____ _ _ _____ _ _ _____ _ _ _____
 72
65
 73
6
 40
0.8
 49
0.45
 74
0
 49
-0.05
 74
0
 49
0.1
 74
0
 49
-0.05
 74
0
 49
0.1
 74
0
 49
-0.05
 74
0
  0
LTYPE
  5
1F8
100
AcDbSymbolTableRecord
100
AcDbLinetypeTableRecord
  2
DOT
 70
64
  3
. . . . . . . . . . . . . . . . . . . .
 72
65
 73
2
 40
0.2
 49
0.1
 74
0
 49
-0.1
 74
0
  0
LTYPE
  5
1F9
100
AcDbSymbolTableRecord
100
AcDbLinetypeTableRecord
  2
DASHED
 70
64
  3
- - - - - - - - - - - - - - - - - - - -
 72
65
 73
2
 40
0.2
 49
0.1
 74
0
 49
-0.1
 74
0
  0
ENDTAB
  0
TABLE
  2
LAYER
  5
2
100
AcDbSymbolTable
 70
36
  0
LAYER
  5
10
100
AcDbSymbolTableRecord
100
AcDbLayerTableRecord
  2
0
 70
0
 62
7
  6
CONTINUOUS
370
-3
390
F
  0
LAYER
  5
1FA
100
AcDbSymbolTableRecord
100
AcDbLayerTableRecord
  2
DEFAULT_1
 70
0
 62
7
  6
CENTER
370
-3
390
F
  0
LAYER
  5
1FB
100
AcDbSymbolTableRecord
100
AcDbLayerTableRecord
  2
DEFAULT_2
 70
0
 62
7
  6
HIDDEN
370
-3
390
F
  0
LAYER
  5
1FC
100
AcDbSymbolTableRecord
100
AcDbLayerTableRecord
  2
DEFAULT_3
 70
0
 62
7
  6
PHANTOM
370
-3
390
F
  0
LAYER
  5
1FD
100
AcDbSymbolTableRecord
100
AcDbLayerTableRecord
  2
ASSI
 70
0
 62
7
  6
CONTINUOUS
370
-3
390
F
  0
LAYER
  5
1FE
100
AcDbSymbolTableRecord
100
AcDbLayerTableRecord
  2
COLOR5
 70
0
 62
7
  6
CONTINUOUS
370
-3
390
F
  0
LAYER
  5
1FF
100
AcDbSymbolTableRecord
100
AcDbLayerTableRecord
  2
COLOR7
 70
0
 62
7
  6
CONTINUOUS
370
-3
390
F
  0
LAYER
  5
200
100
AcDbSymbolTableRecord
100
AcDbLayerTableRecord
  2
COORDINATE
 70
0
 62
7
  6
CONTINUOUS
370
-3
390
F
  0
LAYER
  5
201
100
AcDbSymbolTableRecord
100
AcDbLayerTableRecord
  2
COPY_PUBLISH
 70
0
 62
7
  6
CONTINUOUS
370
-3
390
F
  0
LAYER
  5
202
100
AcDbSymbolTableRecord
100
AcDbLayerTableRecord
  2
COSMETICI
 70
0
 62
7
  6
CONTINUOUS
370
-3
390
F
  0
LAYER
  5
203
100
AcDbSymbolTableRecord
100
AcDbLayerTableRecord
  2
CURVE
 70
0
 62
7
  6
CONTINUOUS
370
-3
390
F
  0
LAYER
  5
204
100
AcDbSymbolTableRecord
100
AcDbLayerTableRecord
  2
DRAFT
 70
0
 62
7
  6
CONTINUOUS
370
-3
390
F
  0
LAYER
  5
205
100
AcDbSymbolTableRecord
100
AcDbLayerTableRecord
  2
IMPORT_IGES
 70
0
 62
7
  6
CONTINUOUS
370
-3
390
F
  0
LAYER
  5
206
100
AcDbSymbolTableRecord
100
AcDbLayerTableRecord
  2
NOTE
 70
0
 62
7
  6
CONTINUOUS
370
-3
390
F
  0
LAYER
  5
207
100
AcDbSymbolTableRecord
100
AcDbLayerTableRecord
  2
PIANI
 70
0
 62
7
  6
CONTINUOUS
370
-3
390
F
  0
LAYER
  5
208
100
AcDbSymbolTableRecord
100
AcDbLayerTableRecord
  2
PUNTI
 70
0
 62
7
  6
CONTINUOUS
370
-3
390
F
  0
LAYER
  5
209
100
AcDbSymbolTableRecord
100
AcDbLayerTableRecord
  2
RACCORDO
 70
0
 62
7
  6
CONTINUOUS
370
-3
390
F
  0
LAYER
  5
20A
100
AcDbSymbolTableRecord
100
AcDbLayerTableRecord
  2
SIMBOLI
 70
0
 62
7
  6
CONTINUOUS
370
-3
390
F
  0
LAYER
  5
20B
100
AcDbSymbolTableRecord
100
AcDbLayerTableRecord
  2
SMUSSO
 70
0
 62
7
  6
CONTINUOUS
370
-3
390
F
  0
LAYER
  5
20C
100
AcDbSymbolTableRecord
100
AcDbLayerTableRecord
  2
SNAPLINE
 70
0
 62
7
  6
CONTINUOUS
370
-3
390
F
  0
LAYER
  5
20D
100
AcDbSymbolTableRecord
100
AcDbLayerTableRecord
  2
SUPERFICI
 70
0
 62
7
  6
CONTINUOUS
370
-3
390
F
  0
LAYER
  5
20E
100
AcDbSymbolTableRecord
100
AcDbLayerTableRecord
  2
TRASH
 70
0
 62
7
  6
CONTINUOUS
370
-3
390
F
  0
ENDTAB
  0
TABLE
  2
STYLE
  5
3
100
AcDbSymbolTable
 70
1
  0
STYLE
  5
11
100
AcDbSymbolTableRecord
100
AcDbTextStyleTableRecord
  2
STANDARD
 70
0
 40
0.0
 41
0.8
 50
0.0
 71
0
 42
0.2
  3
txt
  4

  0
STYLE
  5
20F
100
AcDbSymbolTableRecord
100
AcDbTextStyleTableRecord
  2
TEXTSTYLE_1
 70
0
 40
0.0
 41
0.8
 50
0.0
 71
0
 42
0.2
  3
gdt
  4

  0
ENDTAB
  0
TABLE
  2
VIEW
  5
6
100
AcDbSymbolTable
 70
0
  0
ENDTAB
  0
TABLE
  2
UCS
  5
7
100
AcDbSymbolTable
 70
0
  0
ENDTAB
  0
TABLE
  2
APPID
  5
9
100
AcDbSymbolTable
 70
1
  0
APPID
  5
210
100
AcDbSymbolTableRecord
100
AcDbRegAppTableRecord
  2
ACAD
 70
0
  0
ENDTAB
  0
TABLE
  2
BLOCK_RECORD
  5
1
100
AcDbSymbolTable
 70
0
  0
BLOCK_RECORD
  5
211
100
AcDbSymbolTableRecord
100
AcDbBlockTableRecord
  2
*Model_Space
  0
BLOCK_RECORD
  5
212
100
AcDbSymbolTableRecord
100
AcDbBlockTableRecord
  2
*Paper_Space
  0
ENDTAB
  0
TABLE
  2
DIMSTYLE
  5
A
100
AcDbSymbolTable
 70
1
100
AcDbDimStyleTable
 71
0
  0
DIMSTYLE
105
213
100
AcDbSymbolTableRecord
100
AcDbDimStyleTableRecord
  2
STANDARD
 70
0
  3

  4

 40
1.0
 41
3.0
 42
0.5
 43
0.38
 44
1.5
 45
0.0
 46
0.0
 47
0.01
 48
0.01
140
3.0
141
0.09
142
0.0
143
25.4
144
1.0
145
0.0
146
1.0
147
0.625
 71
1.0
 72
0.0
 73
0
 74
0
 75
0
 76
0
 77
1
 78
8
170
0
171
2
172
0
173
0
174
0
175
0
176
0
177
0
178
0
270
2
271
2
272
2
273
2
274
2
275
0
280
0
281
0
282
0
283
1
284
8
285
0
286
0
287
3
288
0
340
11
278
44
  0
ENDTAB
  0
ENDSEC
  0
SECTION
  2
BLOCKS
  0
BLOCK
  5
20
100
AcDbEntity
  8
0
100
AcDbBlockBegin
  2
*Model_Space
 70
0
 10
0.0
 20
0.0
 30
0.0
  3
*Model_Space
  1

  0
ENDBLK
  5
21
100
AcDbEntity
  8
0
100
AcDbBlockEnd
  0
BLOCK
  5
1C
100
AcDbEntity
  8
0
100
AcDbBlockBegin
  2
*Paper_Space
 70
0
 10
0.0
 20
0.0
 30
0.0
  3
*Paper_Space
  1

  0
ENDBLK
  5
1D
100
AcDbEntity
  8
0
100
AcDbBlockEnd
  0
ENDSEC
  0
SECTION
  2
ENTITIES
  0
LWPOLYLINE
  5
214
100
AcDbEntity
  8
RACCORDO
100
AcDbPolyline
 62
7
  6
CONTINUOUS
 90
31
 70
0
 10
-151.0539434063
 20
187.0538340867
 10
-151.2002298817
 20
186.9660083598
 10
-151.3435782699
 20
186.8731458393
 10
-151.4837759505
 20
186.7753658109
 10
-151.6203294012
 20
186.6730218146
 10
-151.7533424991
 20
186.5660511992
 10
-151.8834375302
 20
186.4538792867
 10
-152.0108584488
 20
186.3361033744
 10
-152.1348042265
 20
186.2132711373
 10
-152.2543421036
 20
186.0862395198
 10
-152.3689246206
 20
185.9556488128
 10
-152.4788076052
 20
185.821274635
 10
-152.5842975212
 20
185.6827076948
 10
-152.6853444301
 20
185.5398960255
 10
-152.7815890771
 20
185.3932319386
 10
-152.87283152
 20
185.2429358005
 10
-152.9589543783
 20
185.0891127443
 10
-153.0397434438
 20
184.9320599103
 10
-153.1149145379
 20
184.7722983265
 10
-153.1842691703
 20
184.6102986432
 10
-153.2478391361
 20
184.4460453208
 10
-153.3056958311
 20
184.2793155793
 10
-153.3578086205
 20
184.1100373833
 10
-153.4039718038
 20
183.9387059292
 10
-153.4440098264
 20
183.7659231315
 10
-153.4778901237
 20
183.5918546181
 10
-153.5055687045
 20
183.4167490884
 10
-153.5269669175
 20
183.2413052226
 10
-153.5420874482
 20
183.066141912
 10
-153.5510257872
 20
182.8909903198
 10
-153.5538226056
 20
182.7237840183
  0
LINE
  5
215
100
AcDbEntity
  8
RACCORDO
100
AcDbLine
 62
7
  6
CONTINUOUS
 10
-79.9644648306
 20
228.2871425199
 11
-86.5405578956
 21
224.4901888019
  0
LINE
  5
216
100
AcDbEntity
  8
RACCORDO
100
AcDbLine
 62
7
  6
CONTINUOUS
 10
-151.0539434063
 20
187.0538340867
 11
-77.5148381629
 21
229.5143917928
  0
LWPOLYLINE
  5
217
100
AcDbEntity
  8
RACCORDO
100
AcDbPolyline
 62
7
  6
CONTINUOUS
 90
25
 70
0
 10
-77.5148380908
 20
229.5143916678
 10
-77.4245355127
 20
229.5628842578
 10
-77.3388609773
 20
229.6025963927
 10
-77.2508112166
 20
229.6375784754
 10
-77.1603786812
 20
229.6678154764
 10
-77.0675709206
 20
229.6933224251
 10
-76.9726830997
 20
229.7140180815
 10
-76.8757086035
 20
229.7298871581
 10
-76.7766540471
 20
229.7409449425
 10
-76.6758344411
 20
229.7471560567
 10
-76.5732441672
 20
229.7485050998
 10
-76.4688888436
 20
229.7450074727
 10
-76.363100336
 20
229.7366740009
 10
-76.2558740762
 20
229.7234893151
 10
-76.1472146323
 20
229.7054687845
 10
-76.0374675749
 20
229.6826693415
 10
-75.9266291261
 20
229.6550756537
 10
-75.8147030637
 20
229.6227030536
 10
-75.7020462911
 20
229.585654471
 10
-75.5886576717
 20
229.543915597
 10
-75.4745383421
 20
229.4975007404
 10
-75.360048615
 20
229.4465557573
 10
-75.2453085948
 20
229.3911292662
 10
-75.1301981772
 20
229.3311726486
 10
-75.0147173622
 20
229.2666859044
  0
LINE
  5
218
100
AcDbEntity
  8
RACCORDO
100
AcDbLine
 62
253
  6
CONTINUOUS
 10
-148.5538226056
 20
186.8061281983
 11
-75.0147173622
 21
229.2666859044
  0
LINE
  5
219
100
AcDbEntity
  8
RACCORDO
100
AcDbLine
 62
7
  6
CONTINUOUS
 10
-58.2562866481
 20
228.5729347352
 11
-66.0347345753
 21
224.0817563889
  0
LINE
  5
21A
100
AcDbEntity
  8
0
100
AcDbLine
 62
7
  6
CONTINUOUS
 10
-65.1154957598
 20
223.5509994175
 11
-56.8420730858
 21
228.3279699792
  0
LINE
  5
21B
100
AcDbEntity
  8
0
100
AcDbLine
 62
7
  6
CONTINUOUS
 10
-45.1748111962
 20
221.5914391893
 11
-44.2555723806
 21
222.1221961606
  0
LINE
  5
21C
100
AcDbEntity
  8
CURVE
100
AcDbLine
 62
253
  6
CONTINUOUS
 10
35.7358822411
 20
-186.673471278
 11
36.325139016
 21
-186.6662666358
  0
LINE
  5
21D
100
AcDbEntity
  8
CURVE
100
AcDbLine
 62
253
  6
CONTINUOUS
 10
35.1466271521
 20
-185.6383745369
 11
35.5885672044
 21
-185.7198281248
  0
LWPOLYLINE
  5
21E
100
AcDbEntity
  8
0
100
AcDbPolyline
 62
7
  6
CONTINUOUS
 90
16
 70
0
 10
-42.0797954298
 20
-161.7077149098
 10
-42.0331954687
 20
-161.7178674594
 10
-41.9864298419
 20
-161.7277786379
 10
-41.9394985495
 20
-161.7374484452
 10
-41.8923746159
 20
-161.7468801259
 10
-41.8450850167
 20
-161.7560704355
 10
-41.7977106781
 20
-161.7650096406
 10
-41.7502955158
 20
-161.7736895129
 10
-41.7027956142
 20
-161.7821182808
 10
-41.6551601525
 20
-161.7903108948
 10
-41.6074015505
 20
-161.7982669609
 10
-41.5595073886
 20
-161.8059868733
 10
-41.511389587
 20
-161.8134867654
 10
-41.4630187859
 20
-161.8207720153
 10
-41.4144243452
 20
-161.8278372449
 10
-41.3656062649
 20
-161.8346824543
  0
LWPOLYLINE
  5
21F
100
AcDbEntity
  8
RACCORDO
100
AcDbPolyline
 62
253
  6
CONTINUOUS
 90
46
 70
0
 10
70.6492795622
 20
-227.9733979905
 10
70.7748258779
 20
-228.0433995971
 10
70.9045270684
 20
-228.1108286776
 10
71.0382251076
 20
-228.1756030713
 10
71.1757571213
 20
-228.2376438612
 10
71.31695552
 20
-228.2968754411
 10
71.4616481978
 20
-228.3532256114
 10
71.6096588339
 20
-228.4066257061
 10
71.7608071084
 20
-228.4570106698
 10
71.9149088519
 20
-228.504319111
 10
72.0717763051
 20
-228.5484933895
 10
72.2312183319
 20
-228.5894796815
 10
72.3930406457
 20
-228.6272280455
 10
72.5570460744
 20
-228.661692489
 10
72.7230347897
 20
-228.692831022
 10
72.8908045334
 20
-228.7206057045
 10
73.0601508911
 20
-228.7449826979
 10
73.2308675235
 20
-228.7659323031
 10
73.4027464056
 20
-228.7834289954
 10
73.5755781145
 20
-228.7974514603
 10
73.7491520671
 20
-228.8079826162
 10
73.9232567583
 20
-228.815009635
 10
74.0976800538
 20
-228.8185239599
 10
74.2722094329
 20
-228.8185213137
 10
74.4466322297
 20
-228.8150017052
 10
74.6207359099
 20
-228.8079694293
 10
74.7943083579
 20
-228.7974330601
 10
74.9671381196
 20
-228.7834054384
 10
75.1390146275
 20
-228.7659036588
 10
75.3097284561
 20
-228.7449490504
 10
75.4790716051
 20
-228.720567149
 10
75.6468376531
 20
-228.6927876825
 10
75.8128222895
 20
-228.6616444891
 10
75.9768235515
 20
-228.6271754576
 10
76.1386420125
 20
-228.5894224744
 10
76.2980800875
 20
-228.5484316084
 10
76.4549425952
 20
-228.504253059
 10
76.6090379177
 20
-228.4569408674
 10
76.7601788962
 20
-228.4065525728
 10
76.908182098
 20
-228.3531493569
 10
77.052874216
 20
-228.2967934477
 10
77.1940715991
 20
-228.2375560627
 10
77.331582849
 20
-228.1755184301
 10
77.4652357964
 20
-228.1107604508
 10
77.594875996
 20
-228.0433592483
 10
77.720347374
 20
-227.9733979905
  0
LWPOLYLINE
  5
220
100
AcDbEntity
  8
RACCORDO
100
AcDbPolyline
 62
253
  6
CONTINUOUS
 90
24
 70
0
 10
-152.0893565116
 20
-99.3669010922
 10
-152.0872026178
 20
-99.5081341668
 10
-152.0807435571
 20
-99.6467079553
 10
-152.0699871939
 20
-99.7824536121
 10
-152.0549466258
 20
-99.9152057581
 10
-152.0356401747
 20
-100.0448026182
 10
-152.0120913708
 20
-100.1710862239
 10
-151.9843289119
 20
-100.2939026899
 10
-151.9523866221
 20
-100.4131023923
 10
-151.9163034227
 20
-100.5285400915
 10
-151.8761232788
 20
-100.6400751381
 10
-151.8318951488
 20
-100.7475716329
 10
-151.7836729279
 20
-100.8508985895
 10
-151.7315153743
 20
-100.9499301126
 10
-151.67548604
 20
-101.044545543
 10
-151.6156531991
 20
-101.1346295952
 10
-151.5520897558
 20
-101.2200725128
 10
-151.484873161
 20
-101.3007701924
 10
-151.4140853238
 20
-101.3766243058
 10
-151.3398124978
 20
-101.4475424356
 10
-151.2621451825
 20
-101.5134381792
 10
-151.1811780216
 20
-101.5742312471
 10
-151.0970096724
 20
-101.6298475747
 10
-151.0539434063
 20
-101.6555853979
  0
LINE
  5
221
100
AcDbEntity
  8
RACCORDO
100
AcDbLine
 62
253
  6
CONTINUOUS
 10
-153.5538226042
 20
-97.3255978778
 11
-153.5538226056
 21
-97.3255281256
  0
LINE
  5
222
100
AcDbEntity
  8
RACCORDO
100
AcDbLine
 62
7
  6
CONTINUOUS
 10
-153.5538226056
 20
182.7237768144
 11
-153.5538226056
 21
-97.3255281256
  0
LINE
  5
223
100
AcDbEntity
  8
RACCORDO
100
AcDbLine
 62
253
  6
CONTINUOUS
 10
-152.0893565116
 20
180.6824038477
 11
-152.0893565116
 21
-99.3669010922
  0
LWPOLYLINE
  5
224
100
AcDbEntity
  8
RACCORDO
100
AcDbPolyline
 62
253
  6
CONTINUOUS
 90
46
 70
0
 10
-152.0893565116
 20
180.6824038477
 10
-152.0872026176
 20
180.8261241917
 10
-152.0807435563
 20
180.9721567486
 10
-152.0699871921
 20
181.1203235912
 10
-152.0549466226
 20
181.2704442156
 10
-152.0356401696
 20
181.4223356891
 10
-152.0120913635
 20
181.5758128709
 10
-151.984328902
 20
181.7306887362
 10
-151.9523866092
 20
181.886774602
 10
-151.9163034066
 20
182.0438802831
 10
-151.8761232589
 20
182.2018143605
 10
-151.8318951249
 20
182.360384399
 10
-151.7836728995
 20
182.5193971752
 10
-151.7315153412
 20
182.6786589414
 10
-151.6754860017
 20
182.8379756503
 10
-151.6156531554
 20
182.9971531747
 10
-151.5520897064
 20
183.1559975706
 10
-151.4848731056
 20
183.314315296
 10
-151.4140852621
 20
183.4719134362
 10
-151.3398124296
 20
183.6285999705
 10
-151.2621451075
 20
183.7841839892
 10
-151.1811779396
 20
183.9384759109
 10
-151.0970095832
 20
184.0912877442
 10
-151.0097425947
 20
184.2424333026
 10
-150.9194833147
 20
184.3917284163
 10
-150.8263417296
 20
184.5389911724
 10
-150.7304313221
 20
184.6840421595
 10
-150.6318689391
 20
184.8267046721
 10
-150.5307746679
 20
184.9668048987
 10
-150.4272716917
 20
185.1041721342
 10
-150.3214861234
 20
185.2386390108
 10
-150.2135469169
 20
185.3700416238
 10
-150.1035855306
 20
185.4982199505
 10
-149.9917357576
 20
185.6230180254
 10
-149.8781335846
 20
185.7442840782
 10
-149.7629176973
 20
185.8618700265
 10
-149.6462291557
 20
185.9756319353
 10
-149.5282105632
 20
186.0854308768
 10
-149.4090053299
 20
186.1911335274
 10
-149.2887581619
 20
186.2926116075
 10
-149.1676096006
 20
186.3897461375
 10
-149.0457131438
 20
186.4824136737
 10
-148.9232348406
 20
186.5704890611
 10
-148.8003299704
 20
186.6538631396
 10
-148.6771425395
 20
186.7324407139
 10
-148.5538226056
 20
186.8061281983
  0
LINE
  5
225
100
AcDbEntity
  8
0
100
AcDbLine
 62
7
  6
CONTINUOUS
 10
-42.0928555537
 20
-161.7109457969
 11
-42.0798379459
 21
-161.7076115925
  0
LINE
  5
226
100
AcDbEntity
  8
0
100
AcDbLine
 62
7
  6
CONTINUOUS
 10
-43.724259209
 20
-160.0385911463
 11
-44.2888481224
 21
-160.1467754073
  0
LINE
  5
227
100
AcDbEntity
  8
0
100
AcDbLine
 62
7
  6
CONTINUOUS
 10
-42.6633146781
 20
-159.8368057201
 11
-43.215665096
 21
-159.9415187721
  0
LINE
  5
228
100
AcDbEntity
  8
0
100
AcDbLine
 62
7
  6
CONTINUOUS
 10
-43.8107993791
 20
-160.0376825048
 11
-43.8004775871
 21
-160.0359048304
  0
LINE
  5
229
100
AcDbEntity
  8
0
100
AcDbLine
 62
7
  6
CONTINUOUS
 10
-42.0928555537
 20
-161.7109457969
 11
-42.1944292258
 21
-161.7199399886
  0
LINE
  5
22A
100
AcDbEntity
  8
0
100
AcDbLine
 62
7
  6
CONTINUOUS
 10
-42.1944292258
 20
-161.7199399886
 11
-42.228206434
 21
-161.7226422505
  0
LWPOLYLINE
  5
22B
100
AcDbEntity
  8
0
100
AcDbPolyline
 62
7
  6
CONTINUOUS
 90
8
 70
0
 10
-42.228206434
 20
-161.7226422505
 10
-42.2953832609
 20
-161.7272604845
 10
-42.3285366362
 20
-161.7293261139
 10
-42.3614836867
 20
-161.7310944507
 10
-42.3939350458
 20
-161.7326188167
 10
-42.425846027
 20
-161.7339402662
 10
-42.4574151116
 20
-161.7350167401
 10
-42.4887300368
 20
-161.735831425
  0
LWPOLYLINE
  5
22C
100
AcDbEntity
  8
0
100
AcDbPolyline
 62
7
  6
CONTINUOUS
 90
4
 70
0
 10
-43.7466793479
 20
-160.037992283
 10
-43.6916282762
 20
-160.0395100508
 10
-43.6635449888
 20
-160.0403941054
 10
-43.4645630047
 20
-160.0456392975
  0
LINE
  5
22D
100
AcDbEntity
  8
0
100
AcDbLine
 62
7
  6
CONTINUOUS
 10
-43.7737074872
 20
-160.0370976239
 11
-43.7466793479
 21
-160.037992283
  0
LINE
  5
22E
100
AcDbEntity
  8
0
100
AcDbLine
 62
7
  6
CONTINUOUS
 10
-43.8004775871
 20
-160.0359048304
 11
-43.7737074872
 21
-160.0370976239
  0
LINE
  5
22F
100
AcDbEntity
  8
RACCORDO
100
AcDbLine
 62
7
  6
CONTINUOUS
 10
-151.0539434063
 20
-101.6555853979
 11
71.6846926674
 21
-230.2620822962
  0
LINE
  5
230
100
AcDbEntity
  8
RACCORDO
100
AcDbLine
 62
253
  6
CONTINUOUS
 10
-152.0893565116
 20
-99.3669010922
 11
-44.2507989083
 21
-161.6315327178
  0
LINE
  5
231
100
AcDbEntity
  8
RACCORDO
100
AcDbLine
 62
253
  6
CONTINUOUS
 10
-40.2655100056
 20
-163.9325885828
 11
70.6492795622
 21
-227.9733979905
  0
LINE
  5
232
100
AcDbEntity
  8
CURVE
100
AcDbLine
 62
253
  6
CONTINUOUS
 10
30.2852680314
 20
-187.5218477998
 11
29.4013845549
 21
-187.0115045582
  0
LINE
  5
233
100
AcDbEntity
  8
CURVE
100
AcDbLine
 62
253
  6
CONTINUOUS
 10
25.2765938741
 20
-184.6299021148
 11
24.3927103976
 21
-184.1195588732
  0
LINE
  5
234
100
AcDbEntity
  8
CURVE
100
AcDbLine
 62
253
  6
CONTINUOUS
 10
23.2142002195
 20
-183.4391018665
 11
22.3303167431
 21
-182.9287586249
  0
LINE
  5
235
100
AcDbEntity
  8
CURVE
100
AcDbLine
 62
253
  6
CONTINUOUS
 10
20.2679214026
 20
-181.7379574032
 11
19.0894103816
 21
-181.0574999099
  0
LINE
  5
236
100
AcDbEntity
  8
CURVE
100
AcDbLine
 62
253
  6
CONTINUOUS
 10
17.0270150412
 20
-179.8666986882
 11
16.1431315647
 21
-179.3563554466
  0
LINE
  5
237
100
AcDbEntity
  8
CURVE
100
AcDbLine
 62
253
  6
CONTINUOUS
 10
14.9646205437
 20
-178.6758979533
 11
14.0807370673
 21
-178.1655547116
  0
LINE
  5
238
100
AcDbEntity
  8
CURVE
100
AcDbLine
 62
253
  6
CONTINUOUS
 10
10.5452031613
 20
-176.124181745
 11
9.3666919296
 21
-175.44372413
  0
LINE
  5
239
100
AcDbEntity
  8
CURVE
100
AcDbLine
 62
253
  6
CONTINUOUS
 10
31.4637782095
 20
-188.2023048064
 11
32.347661686
 21
-188.7126480481
  0
LINE
  5
23A
100
AcDbEntity
  8
CURVE
100
AcDbLine
 62
253
  6
CONTINUOUS
 10
36.0305089427
 20
-190.8390778972
 11
37.0617074558
 21
-191.4344789947
  0
LWPOLYLINE
  5
23B
100
AcDbEntity
  8
RACCORDO
100
AcDbPolyline
 62
253
  6
CONTINUOUS
 90
24
 70
0
 10
-152.0893565116
 20
-99.3669010922
 10
-152.2105950453
 20
-99.2944122195
 10
-152.3273781197
 20
-99.2195243739
 10
-152.4395634373
 20
-99.1423287978
 10
-152.547014319
 20
-99.0629195327
 10
-152.6495998192
 20
-98.9813933427
 10
-152.7471948925
 20
-98.8978495995
 10
-152.8396806136
 20
-98.8123901086
 10
-152.9269443107
 20
-98.7251189845
 10
-153.0088796572
 20
-98.6361425643
 10
-153.0853868238
 20
-98.5455692579
 10
-153.1563725912
 20
-98.4535094248
 10
-153.2217504632
 20
-98.3600752438
 10
-153.2814407841
 20
-98.2653805596
 10
-153.3353708295
 20
-98.1695407505
 10
-153.3834748898
 20
-98.0726725979
 10
-153.4256943586
 20
-97.9748941281
 10
-153.4619777985
 20
-97.8763244789
 10
-153.4922810026
 20
-97.7770837613
 10
-153.5165670554
 20
-97.6772928935
 10
-153.5348063726
 20
-97.5770734635
 10
-153.5469767369
 20
-97.4765475918
 10
-153.553063328
 20
-97.3758377621
 10
-153.5538226042
 20
-97.3255978778
  0
LWPOLYLINE
  5
23C
100
AcDbEntity
  8
0
100
AcDbPolyline
 62
7
  6
CONTINUOUS
 90
16
 70
0
 10
-44.2888420203
 20
-159.7742390495
 10
-44.2596864793
 20
-159.7924378855
 10
-44.2301819235
 20
-159.8105261098
 10
-44.2003283529
 20
-159.8285037225
 10
-44.1701456685
 20
-159.8463599448
 10
-44.1396139694
 20
-159.8641055553
 10
-44.1086735531
 20
-159.8817728908
 10
-44.0773196001
 20
-159.8993667153
 10
-44.0455569299
 20
-159.9168822646
 10
-44.0133402994
 20
-159.934337583
 10
-43.9806395844
 20
-159.9517487755
 10
-43.947484909
 20
-159.9690997369
 10
-43.9139214023
 20
-159.9863601961
 10
-43.8799641075
 20
-160.0035200627
 10
-43.8455979815
 20
-160.0205894269
 10
-43.8108230243
 20
-160.0375682888
  0
LWPOLYLINE
  5
23D
100
AcDbEntity
  8
0
100
AcDbPolyline
 62
7
  6
CONTINUOUS
 90
16
 70
0
 10
-42.079798676
 20
-161.0370888299
 10
-42.0331834349
 20
-161.0671054582
 10
-41.9864068798
 20
-161.0968884128
 10
-41.9394690107
 20
-161.1264376937
 10
-41.8923442912
 20
-161.1557665517
 10
-41.8450582576
 20
-161.1848617359
 10
-41.79768752
 20
-161.2136834946
 10
-41.7502746031
 20
-161.2422060683
 10
-41.7027769821
 20
-161.2704552164
 10
-41.6551436923
 20
-161.2984684651
 10
-41.6073871091
 20
-161.3262406576
 10
-41.5594948571
 20
-161.3537769508
 10
-41.5113788455
 20
-161.3811303418
 10
-41.4630097109
 20
-161.4083184962
 10
-41.4144168167
 20
-161.4353237485
 10
-41.3656001631
 20
-161.4621460985
  0
LWPOLYLINE
  5
23E
100
AcDbEntity
  8
0
100
AcDbPolyline
 62
7
  6
CONTINUOUS
 90
7
 70
0
 10
-42.9885714841
 20
-162.3989773986
 10
-42.9349188109
 20
-162.4356478628
 10
-42.8811215604
 20
-162.4701285015
 10
-42.8272519542
 20
-162.5023730253
 10
-42.7733823106
 20
-162.5323381469
 10
-42.7195849482
 20
-162.5599836388
 10
-42.6659320886
 20
-162.5852723877
  0
LWPOLYLINE
  5
23F
100
AcDbEntity
  8
0
100
AcDbPolyline
 62
7
  6
CONTINUOUS
 90
7
 70
0
 10
-42.6658768043
 20
-159.2099441051
 10
-42.719529477
 20
-159.1732736413
 10
-42.773326727
 20
-159.138793003
 10
-42.8271963328
 20
-159.1065484795
 10
-42.8810659759
 20
-159.0765833583
 10
-42.9348633378
 20
-159.0489378667
 10
-42.9885161969
 20
-159.023649118
  0
LINE
  5
240
100
AcDbEntity
  8
CURVE
100
AcDbLine
 62
253
  6
CONTINUOUS
 10
28.81212778
 20
-184.5866701246
 11
25.865850649
 21
-182.8855266347
  0
LINE
  5
241
100
AcDbEntity
  8
CURVE
100
AcDbLine
 62
253
  6
CONTINUOUS
 10
28.6648144292
 20
-183.8067450043
 11
26.0131639998
 21
-182.2757152793
  0
LINE
  5
242
100
AcDbEntity
  8
CURVE
100
AcDbLine
 62
253
  6
CONTINUOUS
 10
32.347661686
 20
-185.0645893128
 11
34.8519987646
 21
-186.5105621553
  0
LINE
  5
243
100
AcDbEntity
  8
CURVE
100
AcDbLine
 62
253
  6
CONTINUOUS
 10
32.347661686
 20
-184.022286956
 11
35.1466271521
 21
-185.6383745369
  0
LINE
  5
244
100
AcDbEntity
  8
CURVE
100
AcDbLine
 62
253
  6
CONTINUOUS
 10
35.1466271521
 20
-183.0326181583
 11
32.347661686
 21
-181.4165305775
  0
LINE
  5
245
100
AcDbEntity
  8
CURVE
100
AcDbLine
 62
253
  6
CONTINUOUS
 10
34.9993121154
 20
-182.0789750051
 11
31.4637782095
 21
-180.0376020385
  0
LINE
  5
246
100
AcDbEntity
  8
CURVE
100
AcDbLine
 62
253
  6
CONTINUOUS
 10
7.0096692554
 20
-165.9181060104
 11
7.8935527319
 21
-166.428449252
  0
LINE
  5
247
100
AcDbEntity
  8
CURVE
100
AcDbLine
 62
253
  6
CONTINUOUS
 10
12.0183421483
 20
-168.8100509653
 11
12.9022256248
 21
-169.320394207
  0
LINE
  5
248
100
AcDbEntity
  8
CURVE
100
AcDbLine
 62
253
  6
CONTINUOUS
 10
14.0807370673
 20
-170.0008519437
 11
14.9646205437
 21
-170.5111951853
  0
LINE
  5
249
100
AcDbEntity
  8
CURVE
100
AcDbLine
 62
253
  6
CONTINUOUS
 10
16.1431315647
 20
-171.1916526786
 11
17.4689567795
 21
-171.9571675411
  0
LINE
  5
24A
100
AcDbEntity
  8
CURVE
100
AcDbLine
 62
253
  6
CONTINUOUS
 10
21.8883750048
 20
-174.5088842361
 11
23.2142002195
 21
-175.2743990986
  0
LINE
  5
24B
100
AcDbEntity
  8
CURVE
100
AcDbLine
 62
253
  6
CONTINUOUS
 10
26.7497341255
 20
-177.3157720653
 11
27.9282443035
 21
-177.9962290719
  0
LWPOLYLINE
  5
24C
100
AcDbEntity
  8
0
100
AcDbPolyline
 62
7
  6
CONTINUOUS
 90
3
 70
0
 10
-42.1603737663
 20
-160.9540448301
 10
-42.1267025789
 20
-160.9881204301
 10
-42.0928554806
 20
-161.021864464
  0
LINE
  5
24D
100
AcDbEntity
  8
0
100
AcDbLine
 62
7
  6
CONTINUOUS
 10
-42.2610016022
 20
-160.8506625606
 11
-42.1603737663
 21
-160.9540448301
  0
LINE
  5
24E
100
AcDbEntity
  8
0
100
AcDbLine
 62
7
  6
CONTINUOUS
 10
-42.3273882566
 20
-160.781262178
 11
-42.2610016022
 21
-160.8506625606
  0
LINE
  5
24F
100
AcDbEntity
  8
0
100
AcDbLine
 62
7
  6
CONTINUOUS
 10
-42.392960107
 20
-160.7119363161
 11
-42.3273882566
 21
-160.781262178
  0
LINE
  5
250
100
AcDbEntity
  8
0
100
AcDbLine
 62
7
  6
CONTINUOUS
 10
-42.4887298105
 20
-160.6090728164
 11
-42.392960107
 21
-160.7119363161
  0
LINE
  5
251
100
AcDbEntity
  8
0
100
AcDbLine
 62
7
  6
CONTINUOUS
 10
-42.0928554806
 20
-161.021864464
 11
-42.0798239444
 21
-161.0371342791
  0
LWPOLYLINE
  5
252
100
AcDbEntity
  8
0
100
AcDbPolyline
 62
7
  6
CONTINUOUS
 90
11
 70
0
 10
-43.4645631554
 20
-161.1723978624
 10
-43.4935094463
 20
-161.1365621634
 10
-43.5222373712
 20
-161.1004625206
 10
-43.5508196752
 20
-161.0640415696
 10
-43.5794147878
 20
-161.0271716008
 10
-43.6079844232
 20
-160.9898615521
 10
-43.6362920553
 20
-160.9523254047
 10
-43.664349997
 20
-160.9146751233
 10
-43.6922317212
 20
-160.8768453882
 10
-43.7197762943
 20
-160.8388879093
 10
-43.7469455564
 20
-160.8008812433
  0
LWPOLYLINE
  5
253
100
AcDbEntity
  8
0
100
AcDbPolyline
 62
7
  6
CONTINUOUS
 90
16
 70
0
 10
-44.2888481224
 20
-160.1467754073
 10
-44.2596935911
 20
-160.1849515605
 10
-44.2301901515
 20
-160.2229799795
 10
-44.2003378034
 20
-160.2608606642
 10
-44.1701564459
 20
-160.298570578
 10
-44.13962618
 20
-160.3361327575
 10
-44.1086873088
 20
-160.3736163126
 10
-44.0773350444
 20
-160.4110307515
 10
-44.0455741748
 20
-160.448366566
 10
-44.0133593668
 20
-160.4856643415
 10
-43.9806615215
 20
-160.5229574605
 10
-43.9475097378
 20
-160.5602125406
 10
-43.9139459794
 20
-160.597370019
 10
-43.8799842343
 20
-160.6344100418
 10
-43.8456105146
 20
-160.671352463
 10
-43.8108248202
 20
-160.7081972826
  0
LINE
  5
254
100
AcDbEntity
  8
0
100
AcDbLine
 62
7
  6
CONTINUOUS
 10
-43.7469455564
 20
-160.8008812433
 11
-43.8004776443
 21
-160.7249861541
  0
LINE
  5
255
100
AcDbEntity
  8
0
100
AcDbLine
 62
7
  6
CONTINUOUS
 10
-43.2356501722
 20
112.1789439195
 11
-43.2450571421
 21
112.1693281984
  0
LINE
  5
256
100
AcDbEntity
  8
0
100
AcDbLine
 62
7
  6
CONTINUOUS
 10
-41.8008742504
 20
110.6728575785
 11
-42.4887300368
 21
110.148770747
  0
LINE
  5
257
100
AcDbEntity
  8
0
100
AcDbLine
 62
7
  6
CONTINUOUS
 10
-42.0928555537
 20
110.1736563751
 11
-41.5865281633
 21
110.5463683835
  0
LINE
  5
258
100
AcDbEntity
  8
0
100
AcDbLine
 62
7
  6
CONTINUOUS
 10
-42.0797954298
 20
110.1768872622
 11
-41.581149226
 21
110.5432756913
  0
LWPOLYLINE
  5
259
100
AcDbEntity
  8
RACCORDO
100
AcDbPolyline
 62
253
  6
CONTINUOUS
 90
12
 70
0
 10
-38.9682809275
 20
108.6900699064
 10
-38.836180302
 20
108.7832003358
 10
-38.7146355917
 20
108.8926530732
 10
-38.6042389302
 20
109.0178949214
 10
-38.5055281996
 20
109.158315698
 10
-38.4189843501
 20
109.3132312297
 10
-38.3450290214
 20
109.4818867396
 10
-38.2840224904
 20
109.6634605773
 10
-38.2362619594
 20
109.8570681646
 10
-38.201980111
 20
110.0617662785
 10
-38.1813439663
 20
110.2765576388
 10
-38.1744540624
 20
110.500395804
  0
LINE
  5
25A
100
AcDbEntity
  8
0
100
AcDbLine
 62
7
  6
CONTINUOUS
 10
-43.8108248202
 20
111.1764048894
 11
-42.6579154357
 21
111.9083298606
  0
LINE
  5
25B
100
AcDbEntity
  8
0
100
AcDbLine
 62
7
  6
CONTINUOUS
 10
-42.6566302389
 20
111.8808607146
 11
-43.8004776443
 21
111.1596160179
  0
LWPOLYLINE
  5
25C
100
AcDbEntity
  8
RACCORDO
100
AcDbPolyline
 62
253
  6
CONTINUOUS
 90
13
 70
0
 10
-40.1075372204
 20
108.0315780114
 10
-40.0730465405
 20
108.0521915581
 10
-39.9409464721
 20
108.1453192085
 10
-39.8194014311
 20
108.2547694035
 10
-39.7090033647
 20
108.380009632
 10
-39.6102907419
 20
108.5204296176
 10
-39.5237447772
 20
108.6753452508
 10
-39.4497871858
 20
108.8440021432
 10
-39.3887785435
 20
109.0255785729
 10
-39.3410164337
 20
109.2191890756
 10
-39.3067335613
 20
109.4238899991
 10
-39.2860968279
 20
109.6386842974
 10
-39.2792067362
 20
109.862525456
  0
LINE
  5
25D
100
AcDbEntity
  8
RACCORDO
100
AcDbLine
 62
253
  6
CONTINUOUS
 10
-39.0027845466
 20
108.6694483594
 11
-38.9682809275
 21
108.6900699064
  0
LINE
  5
25E
100
AcDbEntity
  8
0
100
AcDbLine
 62
7
  6
CONTINUOUS
 10
-44.1077305015
 20
114.9596696472
 11
-43.0029778277
 21
115.5975399952
  0
LINE
  5
25F
100
AcDbEntity
  8
0
100
AcDbLine
 62
7
  6
CONTINUOUS
 10
-43.4645631554
 20
110.7122043096
 11
-42.4921942838
 21
111.2736299555
  0
LINE
  5
260
100
AcDbEntity
  8
0
100
AcDbLine
 62
7
  6
CONTINUOUS
 10
-40.1075372204
 20
108.0315780114
 11
-39.0027845466
 21
108.6694483594
  0
LINE
  5
261
100
AcDbEntity
  8
0
100
AcDbLine
 62
7
  6
CONTINUOUS
 10
-43.2450571847
 20
110.1975995802
 11
-42.0487538246
 21
110.8275228467
  0
LINE
  5
262
100
AcDbEntity
  8
0
100
AcDbLine
 62
7
  6
CONTINUOUS
 10
-43.2357278784
 20
110.1802683015
 11
-42.0256453259
 21
110.8126971479
  0
LWPOLYLINE
  5
263
100
AcDbEntity
  8
RACCORDO
100
AcDbPolyline
 62
7
  6
CONTINUOUS
 90
34
 70
0
 10
-43.0029778277
 20
115.5975399952
 10
-42.8508775228
 20
115.6748682054
 10
-42.6887785843
 20
115.736594694
 10
-42.5174040792
 20
115.781822918
 10
-42.3374134665
 20
115.8097818074
 10
-42.1497346629
 20
115.8197695362
 10
-41.9554708031
 20
115.8112579956
 10
-41.7548392903
 20
115.7837634917
 10
-41.5490754889
 20
115.7369499472
 10
-41.340784045
 20
115.6711999859
 10
-41.1308408281
 20
115.5868028709
 10
-40.9199237883
 20
115.484001413
 10
-40.7104593294
 20
115.3640980645
 10
-40.5036828338
 20
115.2281357525
 10
-40.2999857339
 20
115.0766659076
 10
-40.1006283932
 20
114.9108853921
 10
-39.9065995521
 20
114.7319262261
 10
-39.7185025317
 20
114.540626126
 10
-39.5370796354
 20
114.3379642177
 10
-39.3631377253
 20
114.1250440076
 10
-39.1973705341
 20
113.9028956222
 10
-39.040380623
 20
113.6724584245
 10
-38.892870265
 20
113.43485217
 10
-38.7555002518
 20
113.1912066606
 10
-38.628811745
 20
112.9424944099
 10
-38.5134111515
 20
112.6898555876
 10
-38.4098823635
 20
112.4344757404
 10
-38.3187084942
 20
112.1773739095
 10
-38.2403817434
 20
111.9196372566
 10
-38.175412034
 20
111.6625266609
 10
-38.1242428956
 20
111.4072447746
 10
-38.0872649646
 20
111.1549222454
 10
-38.0648393565
 20
110.9066907107
 10
-38.0572967749
 20
110.6637056466
  0
LWPOLYLINE
  5
264
100
AcDbEntity
  8
RACCORDO
100
AcDbPolyline
 62
7
  6
CONTINUOUS
 90
33
 70
0
 10
-40.1075372204
 20
108.0315780114
 10
-40.2596375254
 20
107.9542498012
 10
-40.4217364639
 20
107.8925233126
 10
-40.5931109689
 20
107.8472950886
 10
-40.7731015817
 20
107.8193361992
 10
-40.9607803853
 20
107.8093484704
 10
-41.1550442452
 20
107.817860011
 10
-41.355675758
 20
107.8453545149
 10
-41.5614395594
 20
107.8921680594
 10
-41.7697310033
 20
107.9579180207
 10
-41.9796742203
 20
108.0423151358
 10
-42.1905912601
 20
108.1451165937
 10
-42.400055719
 20
108.2650199423
 10
-42.6068322146
 20
108.4009822543
 10
-42.8105293145
 20
108.5524520992
 10
-43.0098866552
 20
108.7182326148
 10
-43.2039154963
 20
108.8971917808
 10
-43.3920125168
 20
109.0884918809
 10
-43.5734354131
 20
109.2911537893
 10
-43.7473773232
 20
109.5040739994
 10
-43.9131445144
 20
109.7262223849
 10
-44.0701344254
 20
109.9566595826
 10
-44.2176447834
 20
110.1942658371
 10
-44.3550147966
 20
110.4379113466
 10
-44.4817033034
 20
110.6866235973
 10
-44.5971038969
 20
110.9392624197
 10
-44.7006326849
 20
111.1946422669
 10
-44.7918065541
 20
111.4517440978
 10
-44.870133305
 20
111.7094807507
 10
-44.9351030143
 20
111.9665913465
 10
-44.9862721526
 20
112.2218732328
 10
-45.0232500836
 20
112.474195762
 10
-45.0456756917
 20
112.7224272967
  0
LINE
  5
265
100
AcDbEntity
  8
0
100
AcDbLine
 62
7
  6
CONTINUOUS
 10
-43.2356909527
 20
112.1789969978
 11
-42.66897959
 21
112.4277160922
  0
LINE
  5
266
100
AcDbEntity
  8
0
100
AcDbLine
 62
7
  6
CONTINUOUS
 10
-42.669000277
 20
112.4215501309
 11
-43.2450571421
 21
112.1693281984
  0
LINE
  5
267
100
AcDbEntity
  8
0
100
AcDbLine
 62
7
  6
CONTINUOUS
 10
-42.6665900952
 20
112.1727435934
 11
-43.4645630047
 21
111.8389628745
  0
LINE
  5
268
100
AcDbEntity
  8
CURVE
100
AcDbLine
 62
253
  6
CONTINUOUS
 10
35.7358822411
 20
-182.6779784238
 11
34.9993121154
 21
-182.0789750051
  0
LINE
  5
269
100
AcDbEntity
  8
0
100
AcDbLine
 62
7
  6
CONTINUOUS
 10
-43.8108104168
 20
-160.7081581066
 11
-43.8004776443
 21
-160.7249861541
  0
LINE
  5
26A
100
AcDbEntity
  8
0
100
AcDbLine
 62
7
  6
CONTINUOUS
 10
-43.2450571847
 20
-161.6870025918
 11
-43.2356602841
 21
-161.7043462893
  0
LINE
  5
26B
100
AcDbEntity
  8
0
100
AcDbLine
 62
7
  6
CONTINUOUS
 10
-42.5024926598
 20
110.1233210279
 11
-42.5841522245
 21
109.9730154158
  0
LWPOLYLINE
  5
26C
100
AcDbEntity
  8
0
100
AcDbPolyline
 62
7
  6
CONTINUOUS
 90
7
 70
0
 10
-43.4645630047
 20
111.8389628745
 10
-43.4480114849
 20
111.8660228677
 10
-43.4311179684
 20
111.8930862364
 10
-43.4138660608
 20
111.9202476964
 10
-43.3962160878
 20
111.9477239564
 10
-43.3781577005
 20
111.9754551364
 10
-43.359773221
 20
112.003134915
  0
LWPOLYLINE
  5
26D
100
AcDbEntity
  8
0
100
AcDbPolyline
 62
7
  6
CONTINUOUS
 90
3
 70
0
 10
-43.359773221
 20
112.003134915
 10
-43.322329046
 20
112.0587452394
 10
-43.3032216094
 20
112.0864690752
  0
LINE
  5
26E
100
AcDbEntity
  8
0
100
AcDbLine
 62
7
  6
CONTINUOUS
 10
-43.3032216094
 20
112.0864690752
 11
-43.2450571421
 21
112.1693281984
  0
LINE
  5
26F
100
AcDbEntity
  8
0
100
AcDbLine
 62
7
  6
CONTINUOUS
 10
-42.6482759828
 20
109.8530255276
 11
-42.6549841893
 21
109.8449680387
  0
LINE
  5
270
100
AcDbEntity
  8
0
100
AcDbLine
 62
7
  6
CONTINUOUS
 10
-41.9074973809
 20
110.7382663993
 11
-42.2747725949
 21
110.3117765326
  0
LINE
  5
271
100
AcDbEntity
  8
0
100
AcDbLine
 62
7
  6
CONTINUOUS
 10
-42.6121360597
 20
109.9210125801
 11
-42.9885714841
 21
109.4856247734
  0
LINE
  5
272
100
AcDbEntity
  8
RACCORDO
100
AcDbLine
 62
7
  6
CONTINUOUS
 10
144.1169525148
 20
-190.370812385
 11
145.1076236211
 21
-190.9428134658
  0
LINE
  5
273
100
AcDbEntity
  8
CURVE
100
AcDbLine
 62
253
  6
CONTINUOUS
 10
35.5885672044
 20
-183.4615058652
 11
35.1466271521
 21
-183.0326181583
  0
LWPOLYLINE
  5
274
100
AcDbEntity
  8
0
100
AcDbPolyline
 62
7
  6
CONTINUOUS
 90
12
 70
0
 10
-43.2450571847
 20
-161.6870025918
 10
-43.2841201094
 20
-161.602455343
 10
-43.3035493534
 20
-161.5597135011
 10
-43.3227966368
 20
-161.5165597827
 10
-43.3417745979
 20
-161.4731250849
 10
-43.3604459933
 20
-161.4297362307
 10
-43.3788475052
 20
-161.3863158309
 10
-43.3968869832
 20
-161.3428776372
 10
-43.4144450476
 20
-161.2998119775
 10
-43.4315337889
 20
-161.2571785304
 10
-43.4482284215
 20
-161.2147404966
 10
-43.4645631554
 20
-161.1723978624
  0
LINE
  5
275
100
AcDbEntity
  8
0
100
AcDbLine
 62
7
  6
CONTINUOUS
 10
-42.6549770429
 20
-160.0409478069
 11
-42.6482759561
 21
-160.0598480354
  0
LINE
  5
276
100
AcDbEntity
  8
0
100
AcDbLine
 62
7
  6
CONTINUOUS
 10
-86.5405578956
 20
224.4901888019
 11
-86.5405578956
 21
224.303054338
  0
LWPOLYLINE
  5
277
100
AcDbEntity
  8
0
100
AcDbPolyline
 62
7
  6
CONTINUOUS
 90
10
 70
0
 10
-42.9885161969
 20
112.860953054
 10
-43.0189424628
 20
112.7854120449
 10
-43.0486606363
 20
112.7097376799
 10
-43.0776707174
 20
112.6339299588
 10
-43.106016051
 20
112.5578883691
 10
-43.1336532923
 20
112.4817134234
 10
-43.1604524066
 20
112.4057066596
 10
-43.186370049
 20
112.3299685904
 10
-43.2114495643
 20
112.2543987031
 10
-43.2356909527
 20
112.1789969978
  0
LWPOLYLINE
  5
278
100
AcDbEntity
  8
0
100
AcDbPolyline
 62
7
  6
CONTINUOUS
 90
5
 70
0
 10
-42.5841522245
 20
109.9730154158
 10
-42.6104332446
 20
109.9241511391
 10
-42.6233778199
 20
109.9002922282
 10
-42.6360255043
 20
109.8766156839
 10
-42.6482759828
 20
109.8530255276
  0
LINE
  5
279
100
AcDbEntity
  8
0
100
AcDbLine
 62
7
  6
CONTINUOUS
 10
-42.4887300368
 20
110.148770747
 11
-42.5024926598
 21
110.1233210279
  0
LINE
  5
27A
100
AcDbEntity
  8
CURVE
100
AcDbLine
 62
253
  6
CONTINUOUS
 10
36.325139016
 20
-183.5393590789
 11
35.7358822411
 21
-182.6779784238
  0
LINE
  5
27B
100
AcDbEntity
  8
0
100
AcDbLine
 62
7
  6
CONTINUOUS
 10
-42.5158964569
 20
-160.5209070872
 11
-42.4887298105
 21
-160.6090728164
  0
LWPOLYLINE
  5
27C
100
AcDbEntity
  8
0
100
AcDbPolyline
 62
7
  6
CONTINUOUS
 90
10
 70
0
 10
-43.2357278784
 20
-161.7043338705
 10
-43.2114916197
 20
-161.7846904675
 10
-43.1864159307
 20
-161.8643258683
 10
-43.1605008114
 20
-161.9432400728
 10
-43.1337022088
 20
-162.0215294806
 10
-43.106064176
 20
-162.0990976922
 10
-43.0777188712
 20
-162.1756555096
 10
-43.0487103474
 20
-162.2511065334
 10
-43.0189945517
 20
-162.3255471631
 10
-42.9885714841
 20
-162.3989773986
  0
LINE
  5
27D
100
AcDbEntity
  8
0
100
AcDbLine
 62
7
  6
CONTINUOUS
 10
-42.5430567849
 20
-160.4308853821
 11
-42.5158964569
 21
-160.5209070872
  0
LWPOLYLINE
  5
27E
100
AcDbEntity
  8
0
100
AcDbPolyline
 62
7
  6
CONTINUOUS
 90
3
 70
0
 10
-42.5837181123
 20
-160.2922940747
 10
-42.5702841619
 20
-160.338706964
 10
-42.5430567849
 20
-160.4308853821
  0
LWPOLYLINE
  5
27F
100
AcDbEntity
  8
0
100
AcDbPolyline
 62
7
  6
CONTINUOUS
 90
4
 70
0
 10
-42.6482759561
 20
-160.0598480354
 10
-42.6359614697
 20
-160.1061325609
 10
-42.6232390528
 20
-160.1524937333
 10
-42.5837181123
 20
-160.2922940747
  0
LINE
  5
280
100
AcDbEntity
  8
0
100
AcDbLine
 62
7
  6
CONTINUOUS
 10
-56.8420730858
 20
228.3279699792
 11
-56.8420730858
 21
218.7740288559
  0
LWPOLYLINE
  5
281
100
AcDbEntity
  8
0
100
AcDbPolyline
 62
7
  6
CONTINUOUS
 90
7
 70
0
 10
-44.2888420203
 20
112.1103631226
 10
-44.2915530165
 20
112.0809737726
 10
-44.2937723466
 20
112.0512483811
 10
-44.2954992655
 20
112.0211969287
 10
-44.2967331934
 20
111.9908295056
 10
-44.2974737158
 20
111.960156308
 10
-44.2977205843
 20
111.9291876348
  0
LINE
  5
282
100
AcDbEntity
  8
CURVE
100
AcDbLine
 62
253
  6
CONTINUOUS
 10
35.8831972778
 20
-183.9790556959
 11
35.5885672044
 21
-183.4615058652
  0
LINE
  5
283
100
AcDbEntity
  8
RACCORDO
100
AcDbLine
 62
7
  6
CONTINUOUS
 10
-45.0456756917
 20
-159.1621748753
 11
-45.0532182732
 21
-158.9191898077
  0
LINE
  5
284
100
AcDbEntity
  8
RACCORDO
100
AcDbLine
 62
7
  6
CONTINUOUS
 10
-45.0456756917
 20
112.7224272967
 11
-45.0532182732
 21
112.9654123643
  0
LWPOLYLINE
  5
285
100
AcDbEntity
  8
RACCORDO
100
AcDbPolyline
 62
253
  6
CONTINUOUS
 90
46
 70
0
 10
-45.0351267749
 20
-158.9878622642
 10
-45.0286078713
 20
-159.2072134114
 10
-45.0090815485
 20
-159.4330361115
 10
-44.9766408802
 20
-159.6642313798
 10
-44.9314409571
 20
-159.8996780143
 10
-44.8737004697
 20
-160.1382254298
 10
-44.8037028873
 20
-160.3786987883
 10
-44.7217905245
 20
-160.6199230786
 10
-44.6283616423
 20
-160.8607263082
 10
-44.5238728388
 20
-161.0999323182
 10
-44.408835012
 20
-161.3363730719
 10
-44.2838078899
 20
-161.5688995614
 10
-44.1493978828
 20
-161.7963841495
 10
-44.0062578781
 20
-162.0177209471
 10
-43.855086533
 20
-162.2318287793
 10
-43.6966221755
 20
-162.4376618016
 10
-43.5316379229
 20
-162.6342161555
 10
-43.3609367209
 20
-162.8205355974
 10
-43.185349317
 20
-162.995713428
 10
-43.0057306772
 20
-163.1588965416
 10
-42.8229563185
 20
-163.3092894021
 10
-42.6379171177
 20
-163.446158948
 10
-42.4515147932
 20
-163.5688382563
 10
-42.2646572808
 20
-163.6767298343
 10
-42.0782547277
 20
-163.7693081701
 10
-41.8932150784
 20
-163.846122283
 10
-41.7104400413
 20
-163.9067978108
 10
-41.5308204654
 20
-163.9510390494
 10
-41.3552319458
 20
-163.9786304851
 10
-41.1845293676
 20
-163.989437937
 10
-41.019543237
 20
-163.983408739
 10
-40.8610763965
 20
-163.9605717931
 10
-40.709902152
 20
-163.9210380868
 10
-40.5667590376
 20
-163.8650008448
 10
-40.432345608
 20
-163.7927343399
 10
-40.307314921
 20
-163.7045905409
 10
-40.1922738608
 20
-163.6009972418
 10
-40.0877825235
 20
-163.4824578442
 10
-39.994351114
 20
-163.3495500895
 10
-39.9124353232
 20
-163.2029214193
 10
-39.8424339393
 20
-163.0432843942
 10
-39.7846891218
 20
-162.87141782
 10
-39.7394836686
 20
-162.6881644379
 10
-39.7070372521
 20
-162.4944197865
 10
-39.6875065893
 20
-162.291126669
 10
-39.6809859711
 20
-162.0792760611
  0
LWPOLYLINE
  5
286
100
AcDbEntity
  8
RACCORDO
100
AcDbPolyline
 62
253
  6
CONTINUOUS
 90
45
 70
0
 10
-39.6809859711
 20
-162.0792760611
 10
-39.6875048746
 20
-161.8599249139
 10
-39.7070311975
 20
-161.6341022138
 10
-39.7394718657
 20
-161.4029069455
 10
-39.7846717888
 20
-161.167460311
 10
-39.8424122763
 20
-160.9289128955
 10
-39.9124098587
 20
-160.688439537
 10
-39.9943222214
 20
-160.4472152467
 10
-40.0877511036
 20
-160.2064120171
 10
-40.1922399071
 20
-159.9672060071
 10
-40.3072777339
 20
-159.7307652534
 10
-40.4323048561
 20
-159.4982387639
 10
-40.5667148631
 20
-159.2707541758
 10
-40.7098548678
 20
-159.0494173782
 10
-40.8610262129
 20
-158.835309546
 10
-41.0194905705
 20
-158.6294765237
 10
-41.1844748231
 20
-158.4329221698
 10
-41.355176025
 20
-158.2466027279
 10
-41.530763429
 20
-158.0714248973
 10
-41.7103820687
 20
-157.9082417837
 10
-41.8931564274
 20
-157.7578489232
 10
-42.0781956282
 20
-157.6209793773
 10
-42.2645979527
 20
-157.498300069
 10
-42.4514554651
 20
-157.390408491
 10
-42.6378580182
 20
-157.2978301552
 10
-42.8228976675
 20
-157.2210160423
 10
-43.0056727047
 20
-157.1603405145
 10
-43.1852922805
 20
-157.1160992759
 10
-43.3608808001
 20
-157.0885078402
 10
-43.5315833784
 20
-157.0777003884
 10
-43.6965695089
 20
-157.0837295863
 10
-43.8550363494
 20
-157.1065665322
 10
-44.0062105939
 20
-157.1461002386
 10
-44.1493537083
 20
-157.2021374805
 10
-44.2837671379
 20
-157.2744039854
 10
-44.4087978249
 20
-157.3625477845
 10
-44.5238388852
 20
-157.4661410835
 10
-44.6283302224
 20
-157.5846804811
 10
-44.721761632
 20
-157.7175882358
 10
-44.8036774228
 20
-157.864216906
 10
-44.8736788066
 20
-158.0238539311
 10
-44.9314236241
 20
-158.1957205053
 10
-44.9766290774
 20
-158.3789738875
 10
-45.0090754938
 20
-158.5727185388
 10
-45.0286061566
 20
-158.7760116563
  0
LWPOLYLINE
  5
287
100
AcDbEntity
  8
RACCORDO
100
AcDbPolyline
 62
253
  6
CONTINUOUS
 90
35
 70
0
 10
-39.2792067362
 20
-162.022076716
 10
-39.2860966055
 20
-161.7902828538
 10
-39.3067326469
 20
-161.5516620123
 10
-39.3410143244
 20
-161.3073767221
 10
-39.3887746271
 20
-161.0586170882
 10
-39.4497808704
 20
-160.8065950573
 10
-39.5237358188
 20
-160.552538516
 10
-39.6102791414
 20
-160.2976852563
 10
-39.7089892171
 20
-160.0432768299
 10
-39.8193851861
 20
-159.7905525673
 10
-39.9409292413
 20
-159.5407436682
 10
-40.0730292248
 20
-159.2950672125
 10
-40.2150415619
 20
-159.054720117
 10
-40.3662744109
 20
-158.820873295
 10
-40.5259909701
 20
-158.5946660538
 10
-40.6934130495
 20
-158.3772005429
 10
-40.8677249231
 20
-158.1695362878
 10
-41.0480774165
 20
-157.9726849169
 10
-41.2335919821
 20
-157.7876053488
 10
-41.4233648914
 20
-157.6151992171
 10
-41.6164715312
 20
-157.4563065443
 10
-41.8119710129
 20
-157.3117015177
 10
-42.0089108477
 20
-157.1820886498
 10
-42.2063316074
 20
-157.0680993586
 10
-42.4032714994
 20
-156.9702889681
 10
-42.5987710889
 20
-156.8891339801
 10
-42.7918778977
 20
-156.8250297808
 10
-42.9816510646
 20
-156.7782886855
 10
-43.1671658344
 20
-156.7491384069
 10
-43.347518637
 20
-156.7377208695
 10
-43.5218313597
 20
-156.7440917178
 10
-43.6892552543
 20
-156.7682201583
 10
-43.8489740133
 20
-156.8099887842
 10
-44.0002084606
 20
-156.8691937877
 10
-44.1077305015
 20
-156.9249325249
  0
LWPOLYLINE
  5
288
100
AcDbEntity
  8
RACCORDO
100
AcDbPolyline
 62
253
  6
CONTINUOUS
 90
35
 70
0
 10
-38.1744540624
 20
-161.384206368
 10
-38.1813439663
 20
-161.1524119149
 10
-38.2019801109
 20
-160.9137904524
 10
-38.2362619592
 20
-160.6695045196
 10
-38.28402249
 20
-160.4207442689
 10
-38.3450290207
 20
-160.1687216191
 10
-38.4189843492
 20
-159.9146643496
 10
-38.5055281987
 20
-159.6598101496
 10
-38.6042389294
 20
-159.405400695
 10
-38.714635591
 20
-159.1526755489
 10
-38.8361803013
 20
-158.9028660265
 10
-38.9682809267
 20
-158.6571891061
 10
-39.1102939342
 20
-158.4168416093
 10
-39.2615274856
 20
-158.1829944421
 10
-39.4212447632
 20
-157.9567869352
 10
-39.5886676062
 20
-157.7393211999
 10
-39.7629803265
 20
-157.5316567273
 10
-39.9433337062
 20
-157.3348052119
 10
-40.1288490998
 20
-157.1497256738
 10
-40.3186227048
 20
-156.9773197947
 10
-40.5117299546
 20
-156.8184275294
 10
-40.7072300413
 20
-156.6738229928
 10
-40.9041705029
 20
-156.5442106861
 10
-41.1015918701
 20
-156.4302220629
 10
-41.2985323316
 20
-156.332412461
 10
-41.4940324184
 20
-156.2512583977
 10
-41.6871396682
 20
-156.1871552512
 10
-41.8769132733
 20
-156.1404153279
 10
-42.0624286668
 20
-156.1112663396
 10
-42.2427820465
 20
-156.0998502927
 10
-42.4170947668
 20
-156.106222805
 10
-42.5845176099
 20
-156.1303528377
 10
-42.7442348877
 20
-156.1721228357
 10
-42.8954684392
 20
-156.2313292884
 10
-43.0029778277
 20
-156.2870621768
  0
LWPOLYLINE
  5
289
100
AcDbEntity
  8
RACCORDO
100
AcDbPolyline
 62
253
  6
CONTINUOUS
 90
46
 70
0
 10
-45.0351267749
 20
112.8967399078
 10
-45.0286078713
 20
112.6773887606
 10
-45.0090815485
 20
112.4515660605
 10
-44.9766408802
 20
112.2203707922
 10
-44.9314409571
 20
111.9849241578
 10
-44.8737004697
 20
111.7463767422
 10
-44.8037028873
 20
111.5059033837
 10
-44.7217905245
 20
111.2646790934
 10
-44.6283616423
 20
111.0238758638
 10
-44.5238728388
 20
110.7846698538
 10
-44.408835012
 20
110.5482291001
 10
-44.2838078899
 20
110.3157026106
 10
-44.1493978828
 20
110.0882180225
 10
-44.0062578781
 20
109.8668812249
 10
-43.855086533
 20
109.6527733927
 10
-43.6966221755
 20
109.4469403704
 10
-43.5316379229
 20
109.2503860165
 10
-43.3609367209
 20
109.0640665746
 10
-43.185349317
 20
108.888888744
 10
-43.0057306772
 20
108.7257056304
 10
-42.8229563185
 20
108.5753127699
 10
-42.6379171177
 20
108.438443224
 10
-42.4515147932
 20
108.3157639157
 10
-42.2646572808
 20
108.2078723377
 10
-42.0782547277
 20
108.1152940019
 10
-41.8932150784
 20
108.038479889
 10
-41.7104400413
 20
107.9778043612
 10
-41.5308204654
 20
107.9335631226
 10
-41.3552319458
 20
107.9059716869
 10
-41.1845293676
 20
107.8951642351
 10
-41.019543237
 20
107.901193433
 10
-40.8610763965
 20
107.9240303789
 10
-40.709902152
 20
107.9635640853
 10
-40.5667590376
 20
108.0196013272
 10
-40.432345608
 20
108.0918678321
 10
-40.307314921
 20
108.1800116312
 10
-40.1922738608
 20
108.2836049302
 10
-40.0877825235
 20
108.4021443278
 10
-39.994351114
 20
108.5350520825
 10
-39.9124353232
 20
108.6816807527
 10
-39.8424339393
 20
108.8413177778
 10
-39.7846891218
 20
109.013184352
 10
-39.7394836686
 20
109.1964377342
 10
-39.7070372521
 20
109.3901823855
 10
-39.6875065893
 20
109.593475503
 10
-39.6809859711
 20
109.8053261109
  0
LWPOLYLINE
  5
28A
100
AcDbEntity
  8
RACCORDO
100
AcDbPolyline
 62
253
  6
CONTINUOUS
 90
45
 70
0
 10
-39.6809859711
 20
109.8053261109
 10
-39.6875048746
 20
110.0246772581
 10
-39.7070311975
 20
110.2504999582
 10
-39.7394718657
 20
110.4816952265
 10
-39.7846717888
 20
110.717141861
 10
-39.8424122763
 20
110.9556892765
 10
-39.9124098587
 20
111.196162635
 10
-39.9943222214
 20
111.4373869253
 10
-40.0877511036
 20
111.6781901549
 10
-40.1922399071
 20
111.9173961649
 10
-40.3072777339
 20
112.1538369186
 10
-40.4323048561
 20
112.3863634081
 10
-40.5667148631
 20
112.6138479962
 10
-40.7098548678
 20
112.8351847938
 10
-40.8610262129
 20
113.049292626
 10
-41.0194905705
 20
113.2551256483
 10
-41.1844748231
 20
113.4516800022
 10
-41.355176025
 20
113.6379994441
 10
-41.530763429
 20
113.8131772747
 10
-41.7103820687
 20
113.9763603883
 10
-41.8931564274
 20
114.1267532488
 10
-42.0781956282
 20
114.2636227947
 10
-42.2645979527
 20
114.386302103
 10
-42.4514554651
 20
114.494193681
 10
-42.6378580182
 20
114.5867720168
 10
-42.8228976675
 20
114.6635861297
 10
-43.0056727047
 20
114.7242616575
 10
-43.1852922805
 20
114.7685028961
 10
-43.3608808001
 20
114.7960943318
 10
-43.5315833784
 20
114.8069017837
 10
-43.6965695089
 20
114.8008725857
 10
-43.8550363494
 20
114.7780356398
 10
-44.0062105939
 20
114.7385019335
 10
-44.1493537083
 20
114.6824646915
 10
-44.2837671379
 20
114.6101981866
 10
-44.4087978249
 20
114.5220543876
 10
-44.5238388852
 20
114.4184610885
 10
-44.6283302224
 20
114.2999216909
 10
-44.721761632
 20
114.1670139362
 10
-44.8036774228
 20
114.020385266
 10
-44.8736788066
 20
113.8607482409
 10
-44.9314236241
 20
113.6888816667
 10
-44.9766290774
 20
113.5056282846
 10
-45.0090754938
 20
113.3118836332
 10
-45.0286061566
 20
113.1085905157
  0
LWPOLYLINE
  5
28B
100
AcDbEntity
  8
RACCORDO
100
AcDbPolyline
 62
253
  6
CONTINUOUS
 90
35
 70
0
 10
-39.2792067362
 20
109.862525456
 10
-39.2860966055
 20
110.0943193182
 10
-39.3067326469
 20
110.3329401597
 10
-39.3410143244
 20
110.5772254499
 10
-39.3887746271
 20
110.8259850838
 10
-39.4497808704
 20
111.0780071147
 10
-39.5237358188
 20
111.332063656
 10
-39.6102791414
 20
111.5869169157
 10
-39.7089892171
 20
111.8413253421
 10
-39.8193851861
 20
112.0940496047
 10
-39.9409292413
 20
112.3438585038
 10
-40.0730292248
 20
112.5895349595
 10
-40.2150415619
 20
112.829882055
 10
-40.3662744109
 20
113.063728877
 10
-40.5259909701
 20
113.2899361182
 10
-40.6934130495
 20
113.5074016291
 10
-40.8677249231
 20
113.7150658842
 10
-41.0480774165
 20
113.9119172551
 10
-41.2335919821
 20
114.0969968232
 10
-41.4233648914
 20
114.2694029549
 10
-41.6164715312
 20
114.4282956277
 10
-41.8119710129
 20
114.5729006543
 10
-42.0089108477
 20
114.7025135222
 10
-42.2063316074
 20
114.8165028134
 10
-42.4032714994
 20
114.9143132039
 10
-42.5987710889
 20
114.9954681919
 10
-42.7918778977
 20
115.0595723912
 10
-42.9816510646
 20
115.1063134866
 10
-43.1671658344
 20
115.1354637651
 10
-43.347518637
 20
115.1468813025
 10
-43.5218313597
 20
115.1405104542
 10
-43.6892552543
 20
115.1163820137
 10
-43.8489740133
 20
115.0746133878
 10
-44.0002084606
 20
115.0154083843
 10
-44.1077305015
 20
114.9596696472
  0
LWPOLYLINE
  5
28C
100
AcDbEntity
  8
RACCORDO
100
AcDbPolyline
 62
253
  6
CONTINUOUS
 90
35
 70
0
 10
-38.1744540624
 20
110.500395804
 10
-38.1813439663
 20
110.7321902571
 10
-38.2019801109
 20
110.9708117197
 10
-38.2362619592
 20
111.2150976524
 10
-38.28402249
 20
111.4638579031
 10
-38.3450290207
 20
111.715880553
 10
-38.4189843492
 20
111.9699378224
 10
-38.5055281987
 20
112.2247920224
 10
-38.6042389294
 20
112.479201477
 10
-38.714635591
 20
112.7319266231
 10
-38.8361803013
 20
112.9817361455
 10
-38.9682809267
 20
113.2274130659
 10
-39.1102939342
 20
113.4677605627
 10
-39.2615274856
 20
113.70160773
 10
-39.4212447632
 20
113.9278152368
 10
-39.5886676062
 20
114.1452809721
 10
-39.7629803265
 20
114.3529454447
 10
-39.9433337062
 20
114.5497969601
 10
-40.1288490998
 20
114.7348764982
 10
-40.3186227048
 20
114.9072823773
 10
-40.5117299546
 20
115.0661746426
 10
-40.7072300413
 20
115.2107791792
 10
-40.9041705029
 20
115.3403914859
 10
-41.1015918701
 20
115.4543801091
 10
-41.2985323316
 20
115.5521897111
 10
-41.4940324184
 20
115.6333437743
 10
-41.6871396682
 20
115.6974469208
 10
-41.8769132733
 20
115.7441868441
 10
-42.0624286668
 20
115.7733358324
 10
-42.2427820465
 20
115.7847518793
 10
-42.4170947668
 20
115.778379367
 10
-42.5845176099
 20
115.7542493343
 10
-42.7442348877
 20
115.7124793363
 10
-42.8954684392
 20
115.6532728836
 10
-43.0029778277
 20
115.5975399952
  0
LWPOLYLINE
  5
28D
100
AcDbEntity
  8
0
100
AcDbPolyline
 62
7
  6
CONTINUOUS
 90
7
 70
0
 10
-44.2977205843
 20
-159.9554145372
 10
-44.2974738856
 20
-159.9866574874
 10
-44.2967338726
 20
-160.018174836
 10
-44.2955007933
 20
-160.049956008
 10
-44.2937750617
 20
-160.0819903398
 10
-44.2915572566
 20
-160.1142670828
 10
-44.2888481224
 20
-160.1467754073
  0
LWPOLYLINE
  5
28E
100
AcDbEntity
  8
0
100
AcDbPolyline
 62
7
  6
CONTINUOUS
 90
7
 70
0
 10
-44.2977205843
 20
111.9291876348
 10
-44.2974738856
 20
111.8979446846
 10
-44.2967338726
 20
111.866427336
 10
-44.2955007933
 20
111.834646164
 10
-44.2937750617
 20
111.8026118322
 10
-44.2915572566
 20
111.7703350892
 10
-44.2888481224
 20
111.7378267648
  0
LWPOLYLINE
  5
28F
100
AcDbEntity
  8
0
100
AcDbPolyline
 62
7
  6
CONTINUOUS
 90
7
 70
0
 10
-41.3567277012
 20
-161.6535069686
 10
-41.3569743998
 20
-161.6222640183
 10
-41.3577144129
 20
-161.5907466697
 10
-41.3589474921
 20
-161.5589654977
 10
-41.3606732238
 20
-161.5269311659
 10
-41.3628910288
 20
-161.4946544229
 10
-41.3656001631
 20
-161.4621460985
  0
LWPOLYLINE
  5
290
100
AcDbEntity
  8
0
100
AcDbPolyline
 62
7
  6
CONTINUOUS
 90
7
 70
0
 10
-41.3567277012
 20
110.2310952035
 10
-41.3569743998
 20
110.2623381537
 10
-41.3577144129
 20
110.2938555023
 10
-41.3589474921
 20
110.3256366743
 10
-41.3606732238
 20
110.3576710061
 10
-41.3628910288
 20
110.3899477491
 10
-41.3656001631
 20
110.4224560735
  0
LINE
  5
291
100
AcDbEntity
  8
ASSI
100
AcDbLine
 62
7
  6
CONTINUOUS
 10
-45.1748111962
 20
221.5914391893
 11
-45.1748111962
 21
212.037498066
  0
LINE
  5
292
100
AcDbEntity
  8
ASSI
100
AcDbLine
 62
7
  6
CONTINUOUS
 10
-44.2555723806
 20
222.1221961606
 11
-44.2555723806
 21
211.5067410946
  0
LWPOLYLINE
  5
293
100
AcDbEntity
  8
0
100
AcDbPolyline
 62
7
  6
CONTINUOUS
 90
10
 70
0
 10
-42.6658768043
 20
112.6746580669
 10
-42.6677018572
 20
112.5825991449
 10
-42.6687693567
 20
112.4903783354
 10
-42.6690793029
 20
112.3979956382
 10
-42.6686369153
 20
112.3053268428
 10
-42.6674369744
 20
112.2124961597
 10
-42.6654638212
 20
112.1198762214
 10
-42.6627122359
 20
112.0275912386
 10
-42.6591874382
 20
111.9355170007
 10
-42.6548894282
 20
111.8436535075
  0
LWPOLYLINE
  5
294
100
AcDbEntity
  8
0
100
AcDbPolyline
 62
7
  6
CONTINUOUS
 90
10
 70
0
 10
-42.6658768043
 20
-159.2099441051
 10
-42.6677018572
 20
-159.3020030271
 10
-42.6687693567
 20
-159.3942238366
 10
-42.6690793029
 20
-159.4866065338
 10
-42.6686369153
 20
-159.5792753293
 10
-42.6674369744
 20
-159.6721060123
 10
-42.6654638212
 20
-159.7647259506
 10
-42.6627122359
 20
-159.8570109334
 10
-42.6591874382
 20
-159.9490851713
 10
-42.6548894282
 20
-160.0409486645
  0
LINE
  5
295
100
AcDbEntity
  8
RACCORDO
100
AcDbLine
 62
253
  6
CONTINUOUS
 10
-45.0286061566
 20
113.1085905157
 11
-45.0351267749
 21
112.8967399078
  0
LINE
  5
296
100
AcDbEntity
  8
RACCORDO
100
AcDbLine
 62
253
  6
CONTINUOUS
 10
-45.0286061566
 20
-158.7760116563
 11
-45.0351267749
 21
-158.9878622642
  0
LWPOLYLINE
  5
297
100
AcDbEntity
  8
RACCORDO
100
AcDbPolyline
 62
7
  6
CONTINUOUS
 90
13
 70
0
 10
-45.0532182732
 20
112.9654123643
 10
-45.0459477961
 20
113.1964014276
 10
-45.0242505247
 20
113.4182414087
 10
-44.9883051242
 20
113.630233408
 10
-44.9381368726
 20
113.8322725808
 10
-44.8740470989
 20
114.0230406709
 10
-44.7970448141
 20
114.2003010518
 10
-44.7081098245
 20
114.3631629231
 10
-44.607712872
 20
114.5118920803
 10
-44.4965776215
 20
114.6462119286
 10
-44.3755593476
 20
114.7657860431
 10
-44.2456093503
 20
114.8703315217
 10
-44.1077305015
 20
114.9596696472
  0
LWPOLYLINE
  5
298
100
AcDbEntity
  8
RACCORDO
100
AcDbPolyline
 62
7
  6
CONTINUOUS
 90
13
 70
0
 10
-38.0572967749
 20
110.6637056466
 10
-38.0645672518
 20
110.4327165828
 10
-38.0862645229
 20
110.2108766012
 10
-38.1222099233
 20
109.9988846014
 10
-38.1723781749
 20
109.7968454282
 10
-38.2364679484
 20
109.6060773376
 10
-38.3134702332
 20
109.4288169563
 10
-38.4024052229
 20
109.2659550846
 10
-38.5028021755
 20
109.1172259272
 10
-38.6139374261
 20
108.9829060786
 10
-38.7349557001
 20
108.8633319638
 10
-38.8649056976
 20
108.758786485
 10
-39.0027845466
 20
108.6694483594
  0
LWPOLYLINE
  5
299
100
AcDbEntity
  8
RACCORDO
100
AcDbPolyline
 62
7
  6
CONTINUOUS
 90
13
 70
0
 10
-45.0532182732
 20
-158.9191898077
 10
-45.0459477961
 20
-158.6882007444
 10
-45.0242505247
 20
-158.4663607633
 10
-44.9883051242
 20
-158.254368764
 10
-44.9381368726
 20
-158.0523295912
 10
-44.8740470989
 20
-157.8615615011
 10
-44.7970448141
 20
-157.6843011202
 10
-44.7081098245
 20
-157.5214392489
 10
-44.607712872
 20
-157.3727100918
 10
-44.4965776215
 20
-157.2383902434
 10
-44.3755593476
 20
-157.1188161289
 10
-44.2456093503
 20
-157.0142706503
 10
-44.1077305015
 20
-156.9249325249
  0
LWPOLYLINE
  5
29A
100
AcDbEntity
  8
0
100
AcDbPolyline
 62
7
  6
CONTINUOUS
 90
10
 70
0
 10
-42.6549319025
 20
109.8449216039
 10
-42.6592318913
 20
109.7810304492
 10
-42.6627584548
 20
109.7179021417
 10
-42.665511593
 20
109.6555366812
 10
-42.6674859875
 20
109.5938612502
 10
-42.6686869567
 20
109.5329486664
 10
-42.6691304558
 20
109.4730173826
 10
-42.6688218034
 20
109.4141402164
 10
-42.667755681
 20
109.3562443503
 10
-42.6659320886
 20
109.2993297843
  0
LWPOLYLINE
  5
29B
100
AcDbEntity
  8
0
100
AcDbPolyline
 62
7
  6
CONTINUOUS
 90
7
 70
0
 10
-41.3656062649
 20
110.0499197177
 10
-41.3628952688
 20
110.0793090674
 10
-41.3606759387
 20
110.1090344586
 10
-41.3589490199
 20
110.1390859106
 10
-41.3577150921
 20
110.1694533334
 10
-41.3569745696
 20
110.2001265306
 10
-41.3567277012
 20
110.2310952035
  0
LINE
  5
29C
100
AcDbEntity
  8
CURVE
100
AcDbLine
 62
253
  6
CONTINUOUS
 10
36.7670807542
 20
-184.4893989375
 11
36.325139016
 21
-183.5393590789
  0
LWPOLYLINE
  5
29D
100
AcDbEntity
  8
RACCORDO
100
AcDbPolyline
 62
7
  6
CONTINUOUS
 90
13
 70
0
 10
-38.0572967749
 20
-161.2208965254
 10
-38.0645672518
 20
-161.4518855892
 10
-38.0862645229
 20
-161.6737255708
 10
-38.1222099233
 20
-161.8857175706
 10
-38.1723781749
 20
-162.0877567438
 10
-38.2364679484
 20
-162.2785248344
 10
-38.3134702332
 20
-162.4557852157
 10
-38.4024052229
 20
-162.6186470874
 10
-38.5028021755
 20
-162.7673762448
 10
-38.6139374261
 20
-162.9016960934
 10
-38.7349557001
 20
-163.0212702082
 10
-38.8649056976
 20
-163.125815687
 10
-39.0027845466
 20
-163.2151538126
  0
LWPOLYLINE
  5
29E
100
AcDbEntity
  8
0
100
AcDbPolyline
 62
7
  6
CONTINUOUS
 90
10
 70
0
 10
-42.6549319025
 20
-162.0396805681
 10
-42.6592318913
 20
-162.1035717228
 10
-42.6627584548
 20
-162.1667000304
 10
-42.665511593
 20
-162.2290654908
 10
-42.6674859875
 20
-162.2907409218
 10
-42.6686869567
 20
-162.3516535056
 10
-42.6691304558
 20
-162.4115847894
 10
-42.6688218034
 20
-162.4704619556
 10
-42.667755681
 20
-162.5283578217
 10
-42.6659320886
 20
-162.5852723877
  0
LWPOLYLINE
  5
29F
100
AcDbEntity
  8
0
100
AcDbPolyline
 62
7
  6
CONTINUOUS
 90
7
 70
0
 10
-44.2888420203
 20
-159.7742390495
 10
-44.2915530165
 20
-159.8036283994
 10
-44.2937723466
 20
-159.8333537909
 10
-44.2954992655
 20
-159.8634052433
 10
-44.2967331934
 20
-159.8937726664
 10
-44.2974737158
 20
-159.924445864
 10
-44.2977205843
 20
-159.9554145372
  0
LWPOLYLINE
  5
2A0
100
AcDbEntity
  8
0
100
AcDbPolyline
 62
7
  6
CONTINUOUS
 90
7
 70
0
 10
-41.3656062649
 20
-161.8346824543
 10
-41.3628952688
 20
-161.8052931046
 10
-41.3606759387
 20
-161.7755677134
 10
-41.3589490199
 20
-161.7455162614
 10
-41.3577150921
 20
-161.7151488386
 10
-41.3569745696
 20
-161.6844756414
 10
-41.3567277012
 20
-161.6535069686
  0
LINE
  5
2A1
100
AcDbEntity
  8
0
100
AcDbLine
 62
7
  6
CONTINUOUS
 10
140.0871654747
 20
114.6234957374
 11
141.0064042902
 21
115.1542527088
  0
LINE
  5
2A2
100
AcDbEntity
  8
0
100
AcDbLine
 62
7
  6
CONTINUOUS
 10
143.4810046902
 20
103.1099943859
 11
151.7544273643
 21
107.8869649475
  0
LINE
  5
2A3
100
AcDbEntity
  8
RACCORDO
100
AcDbLine
 62
7
  6
CONTINUOUS
 10
152.178691433
 20
107.0704157609
 11
144.4002435058
 21
102.5792374145
  0
LINE
  5
2A4
100
AcDbEntity
  8
CURVE
100
AcDbLine
 62
253
  6
CONTINUOUS
 10
19.0894103816
 20
-181.0574999099
 11
17.0270150412
 21
-173.4391665149
  0
LINE
  5
2A5
100
AcDbEntity
  8
CURVE
100
AcDbLine
 62
253
  6
CONTINUOUS
 10
17.4689567795
 20
-171.9571675411
 11
19.6786654707
 21
-180.5291429942
  0
LINE
  5
2A6
100
AcDbEntity
  8
CURVE
100
AcDbLine
 62
253
  6
CONTINUOUS
 10
7.8935527319
 20
-166.428449252
 11
9.9559474401
 21
-174.7416503982
  0
LINE
  5
2A7
100
AcDbEntity
  8
CURVE
100
AcDbLine
 62
253
  6
CONTINUOUS
 10
9.3666919296
 20
-175.44372413
 11
7.0096692554
 21
-165.9181060104
  0
LWPOLYLINE
  5
2A8
100
AcDbEntity
  8
RACCORDO
100
AcDbPolyline
 62
7
  6
CONTINUOUS
 90
19
 70
0
 10
152.178691433
 20
107.0704157609
 10
152.2392056936
 20
107.106934874
 10
152.2967033997
 20
107.1447904565
 10
152.3511845512
 20
107.1839825084
 10
152.4027412547
 20
107.224590621
 10
152.4512814036
 20
107.266535203
 10
152.4965286782
 20
107.3095774805
 10
152.5384642977
 20
107.3537237141
 10
152.5771070428
 20
107.3989676432
 10
152.6122369356
 20
107.4450517121
 10
152.643833941
 20
107.4919807125
 10
152.6719180942
 20
107.5397498526
 10
152.6963295232
 20
107.5880872018
 10
152.7170472809
 20
107.6369960007
 10
152.7340923145
 20
107.6864730086
 10
152.7473675934
 20
107.7362365725
 10
152.7568516169
 20
107.7862883268
 10
152.7625658857
 20
107.8366266372
 10
152.7644778706
 20
107.8869649475
  0
LWPOLYLINE
  5
2A9
100
AcDbEntity
  8
RACCORDO
100
AcDbPolyline
 62
7
  6
CONTINUOUS
 90
19
 70
0
 10
151.6837166862
 20
94.5363857457
 10
151.7442309468
 20
94.5729048588
 10
151.8017286529
 20
94.6107604414
 10
151.8562098044
 20
94.6499524933
 10
151.9077665079
 20
94.6905606059
 10
151.9563066568
 20
94.7325051878
 10
152.0015539314
 20
94.7755474653
 10
152.0434895508
 20
94.8196936989
 10
152.0821322959
 20
94.8649376281
 10
152.1172621888
 20
94.911021697
 10
152.1488591942
 20
94.9579506973
 10
152.1769433474
 20
95.0057198375
 10
152.2013547764
 20
95.0540571866
 10
152.2220725341
 20
95.1029659855
 10
152.2391175677
 20
95.1524429934
 10
152.2523928465
 20
95.2022065573
 10
152.2618768701
 20
95.2522583117
 10
152.2675911388
 20
95.302596622
 10
152.2695031238
 20
95.3529349324
  0
LINE
  5
2AA
100
AcDbEntity
  8
RACCORDO
100
AcDbLine
 62
253
  6
CONTINUOUS
 10
74.1848134681
 20
58.1996313001
 11
147.7239187115
 21
100.6601890062
  0
LINE
  5
2AB
100
AcDbEntity
  8
RACCORDO
100
AcDbLine
 62
7
  6
CONTINUOUS
 10
151.1880203267
 20
95.3941790418
 11
144.1169525148
 21
91.3114331085
  0
LINE
  5
2AC
100
AcDbEntity
  8
RACCORDO
100
AcDbLine
 62
253
  6
CONTINUOUS
 10
77.720347374
 20
52.0759069495
 11
144.1883848056
 21
90.4537187223
  0
LINE
  5
2AD
100
AcDbEntity
  8
RACCORDO
100
AcDbLine
 62
7
  6
CONTINUOUS
 10
151.6837166862
 20
94.5363857457
 11
145.1076236211
 21
90.7394320278
  0
LINE
  5
2AE
100
AcDbEntity
  8
0
100
AcDbLine
 62
7
  6
CONTINUOUS
 10
-42.6549770429
 20
111.8436543651
 11
-42.6482759561
 21
111.8247541366
  0
LINE
  5
2AF
100
AcDbEntity
  8
0
100
AcDbLine
 62
7
  6
CONTINUOUS
 10
-42.5158964569
 20
111.3636950848
 11
-42.4887298105
 21
111.2755293556
  0
LWPOLYLINE
  5
2B0
100
AcDbEntity
  8
0
100
AcDbPolyline
 62
7
  6
CONTINUOUS
 90
10
 70
0
 10
-43.2357278784
 20
110.1802683015
 10
-43.2114916197
 20
110.0999117045
 10
-43.1864159307
 20
110.0202763038
 10
-43.1605008114
 20
109.9413620992
 10
-43.1337022088
 20
109.8630726914
 10
-43.106064176
 20
109.7855044798
 10
-43.0777188712
 20
109.7089466624
 10
-43.0487103474
 20
109.6334956386
 10
-43.0189945517
 20
109.5590550089
 10
-42.9885714841
 20
109.4856247734
  0
LINE
  5
2B1
100
AcDbEntity
  8
0
100
AcDbLine
 62
7
  6
CONTINUOUS
 10
-42.5430567849
 20
111.4537167899
 11
-42.5158964569
 21
111.3636950848
  0
LWPOLYLINE
  5
2B2
100
AcDbEntity
  8
0
100
AcDbPolyline
 62
7
  6
CONTINUOUS
 90
3
 70
0
 10
-42.5837181123
 20
111.5923080973
 10
-42.5702841619
 20
111.545895208
 10
-42.5430567849
 20
111.4537167899
  0
LINE
  5
2B3
100
AcDbEntity
  8
CURVE
100
AcDbLine
 62
253
  6
CONTINUOUS
 10
37.0617074558
 20
-191.4344789947
 11
35.7358822411
 21
-186.673471278
  0
LINE
  5
2B4
100
AcDbEntity
  8
CURVE
100
AcDbLine
 62
253
  6
CONTINUOUS
 10
34.8519987646
 20
-186.5105621553
 11
36.0305089427
 21
-190.8390778972
  0
LWPOLYLINE
  5
2B5
100
AcDbEntity
  8
0
100
AcDbPolyline
 62
7
  6
CONTINUOUS
 90
4
 70
0
 10
-42.6482759561
 20
111.8247541366
 10
-42.6359614697
 20
111.7784696111
 10
-42.6232390528
 20
111.7321084387
 10
-42.5837181123
 20
111.5923080973
  0
LINE
  5
2B6
100
AcDbEntity
  8
CURVE
100
AcDbLine
 62
253
  6
CONTINUOUS
 10
27.9282443035
 20
-177.9962290719
 11
30.2852680314
 21
-187.5218477998
  0
LINE
  5
2B7
100
AcDbEntity
  8
CURVE
100
AcDbLine
 62
253
  6
CONTINUOUS
 10
29.4013845549
 20
-187.0115045582
 11
28.81212778
 21
-184.5866701246
  0
LINE
  5
2B8
100
AcDbEntity
  8
CURVE
100
AcDbLine
 62
253
  6
CONTINUOUS
 10
27.3389892145
 20
-178.3508688064
 11
28.6648144292
 21
-183.8067450043
  0
LINE
  5
2B9
100
AcDbEntity
  8
CURVE
100
AcDbLine
 62
253
  6
CONTINUOUS
 10
36.0305089427
 20
-184.5852627833
 11
35.8831972778
 21
-183.9790556959
  0
LINE
  5
2BA
100
AcDbEntity
  8
CURVE
100
AcDbLine
 62
253
  6
CONTINUOUS
 10
36.9143924192
 20
-185.095606025
 11
36.7670807542
 21
-184.4893989375
  0
LINE
  5
2BB
100
AcDbEntity
  8
CURVE
100
AcDbLine
 62
253
  6
CONTINUOUS
 10
14.0807370673
 20
-178.1655547116
 11
14.0807370673
 21
-170.0008519437
  0
LINE
  5
2BC
100
AcDbEntity
  8
CURVE
100
AcDbLine
 62
253
  6
CONTINUOUS
 10
14.9646205437
 20
-170.5111951853
 11
14.9646205437
 21
-178.6758979533
  0
LINE
  5
2BD
100
AcDbEntity
  8
CURVE
100
AcDbLine
 62
253
  6
CONTINUOUS
 10
16.1431315647
 20
-179.3563554466
 11
16.1431315647
 21
-171.1916526786
  0
LINE
  5
2BE
100
AcDbEntity
  8
CURVE
100
AcDbLine
 62
253
  6
CONTINUOUS
 10
17.0270150412
 20
-173.4391665149
 11
17.0270150412
 21
-179.8666986882
  0
LWPOLYLINE
  5
2BF
100
AcDbEntity
  8
0
100
AcDbPolyline
 62
7
  6
CONTINUOUS
 90
10
 70
0
 10
-42.9885161969
 20
-159.023649118
 10
-43.0189424628
 20
-159.0991901271
 10
-43.0486606363
 20
-159.1748644922
 10
-43.0776707174
 20
-159.2506722132
 10
-43.106016051
 20
-159.3267138029
 10
-43.1336532923
 20
-159.4028887486
 10
-43.1604524066
 20
-159.4788955124
 10
-43.186370049
 20
-159.5546335816
 10
-43.2114495643
 20
-159.6302034689
 10
-43.2356909527
 20
-159.7056051743
  0
LINE
  5
2C0
100
AcDbEntity
  8
0
100
AcDbLine
 62
7
  6
CONTINUOUS
 10
-43.2450571847
 20
110.1975995802
 11
-43.2356602841
 21
110.1802558827
  0
LWPOLYLINE
  5
2C1
100
AcDbEntity
  8
0
100
AcDbPolyline
 62
7
  6
CONTINUOUS
 90
12
 70
0
 10
-43.2450571847
 20
110.1975995802
 10
-43.2841201094
 20
110.282146829
 10
-43.3035493534
 20
110.3248886709
 10
-43.3227966368
 20
110.3680423893
 10
-43.3417745979
 20
110.4114770871
 10
-43.3604459933
 20
110.4548659413
 10
-43.3788475052
 20
110.4982863411
 10
-43.3968869832
 20
110.5417245348
 10
-43.4144450476
 20
110.5847901945
 10
-43.4315337889
 20
110.6274236416
 10
-43.4482284215
 20
110.6698616754
 10
-43.4645631554
 20
110.7122043096
  0
LINE
  5
2C2
100
AcDbEntity
  8
CURVE
100
AcDbLine
 62
253
  6
CONTINUOUS
 10
22.3303167431
 20
-182.9287586249
 11
22.3303167431
 21
-176.5012264516
  0
LINE
  5
2C3
100
AcDbEntity
  8
CURVE
100
AcDbLine
 62
253
  6
CONTINUOUS
 10
23.2142002195
 20
-175.2743990986
 11
23.2142002195
 21
-183.4391018665
  0
LINE
  5
2C4
100
AcDbEntity
  8
CURVE
100
AcDbLine
 62
253
  6
CONTINUOUS
 10
31.4637782095
 20
-180.0376020385
 11
31.4637782095
 21
-188.2023048064
  0
LINE
  5
2C5
100
AcDbEntity
  8
CURVE
100
AcDbLine
 62
253
  6
CONTINUOUS
 10
32.347661686
 20
-188.7126480481
 11
32.347661686
 21
-185.0645893128
  0
LINE
  5
2C6
100
AcDbEntity
  8
CURVE
100
AcDbLine
 62
253
  6
CONTINUOUS
 10
32.347661686
 20
-181.4165305775
 11
32.347661686
 21
-184.022286956
  0
LINE
  5
2C7
100
AcDbEntity
  8
CURVE
100
AcDbLine
 62
253
  6
CONTINUOUS
 10
36.0305089427
 20
-185.1064144484
 11
36.0305089427
 21
-184.5852627833
  0
LINE
  5
2C8
100
AcDbEntity
  8
CURVE
100
AcDbLine
 62
253
  6
CONTINUOUS
 10
36.9143924192
 20
-185.7904747495
 11
36.9143924192
 21
-185.095606025
  0
LINE
  5
2C9
100
AcDbEntity
  8
0
100
AcDbLine
 62
7
  6
CONTINUOUS
 10
-42.5841522245
 20
-161.9115867562
 11
-42.5973428357
 21
-161.9362013536
  0
LWPOLYLINE
  5
2CA
100
AcDbEntity
  8
0
100
AcDbPolyline
 62
7
  6
CONTINUOUS
 90
11
 70
0
 10
-43.4645631554
 20
110.7122043096
 10
-43.4935094463
 20
110.7480400086
 10
-43.5222373712
 20
110.7841396514
 10
-43.5508196752
 20
110.8205606024
 10
-43.5794147878
 20
110.8574305712
 10
-43.6079844232
 20
110.8947406199
 10
-43.6362920553
 20
110.9322767673
 10
-43.664349997
 20
110.9699270487
 10
-43.6922317212
 20
111.0077567838
 10
-43.7197762943
 20
111.0457142627
 10
-43.7469455564
 20
111.0837209287
  0
LWPOLYLINE
  5
2CB
100
AcDbEntity
  8
0
100
AcDbPolyline
 62
7
  6
CONTINUOUS
 90
16
 70
0
 10
-44.2888481224
 20
111.7378267648
 10
-44.2596935911
 20
111.6996506115
 10
-44.2301901515
 20
111.6616221925
 10
-44.2003378034
 20
111.6237415078
 10
-44.1701564459
 20
111.586031594
 10
-44.13962618
 20
111.5484694145
 10
-44.1086873088
 20
111.5109858594
 10
-44.0773350444
 20
111.4735714205
 10
-44.0455741748
 20
111.436235606
 10
-44.0133593668
 20
111.3989378305
 10
-43.9806615215
 20
111.3616447115
 10
-43.9475097378
 20
111.3243896315
 10
-43.9139459794
 20
111.287232153
 10
-43.8799842343
 20
111.2501921303
 10
-43.8456105146
 20
111.2132497091
 10
-43.8108248202
 20
111.1764048894
  0
LINE
  5
2CC
100
AcDbEntity
  8
0
100
AcDbLine
 62
7
  6
CONTINUOUS
 10
-43.7469455564
 20
111.0837209287
 11
-43.8004776443
 21
111.1596160179
  0
LINE
  5
2CD
100
AcDbEntity
  8
0
100
AcDbLine
 62
7
  6
CONTINUOUS
 10
-43.8108104168
 20
111.1764440654
 11
-43.8004776443
 21
111.1596160179
  0
LWPOLYLINE
  5
2CE
100
AcDbEntity
  8
0
100
AcDbPolyline
 62
7
  6
CONTINUOUS
 90
4
 70
0
 10
-42.5973428357
 20
-161.9362013536
 10
-42.6233778199
 20
-161.9843099438
 10
-42.6360255043
 20
-162.0079864881
 10
-42.6482759828
 20
-162.0315766444
  0
LINE
  5
2CF
100
AcDbEntity
  8
0
100
AcDbLine
 62
7
  6
CONTINUOUS
 10
-42.4887300368
 20
-161.735831425
 11
-42.5841522245
 21
-161.9115867562
  0
LWPOLYLINE
  5
2D0
100
AcDbEntity
  8
0
100
AcDbPolyline
 62
7
  6
CONTINUOUS
 90
7
 70
0
 10
-43.4645630047
 20
-160.0456392975
 10
-43.4480114849
 20
-160.0185793043
 10
-43.4311179684
 20
-159.9915159356
 10
-43.4138660608
 20
-159.9643544756
 10
-43.3962160878
 20
-159.9368782156
 10
-43.3781577005
 20
-159.9091470356
 10
-43.359773221
 20
-159.881467257
  0
LWPOLYLINE
  5
2D1
100
AcDbEntity
  8
0
100
AcDbPolyline
 62
7
  6
CONTINUOUS
 90
3
 70
0
 10
-43.359773221
 20
-159.881467257
 10
-43.322329046
 20
-159.8258569326
 10
-43.3032216094
 20
-159.7981330968
  0
LINE
  5
2D2
100
AcDbEntity
  8
0
100
AcDbLine
 62
7
  6
CONTINUOUS
 10
-43.3032216094
 20
-159.7981330968
 11
-43.2450571421
 21
-159.7152739736
  0
LWPOLYLINE
  5
2D3
100
AcDbEntity
  8
0
100
AcDbPolyline
 62
7
  6
CONTINUOUS
 90
3
 70
0
 10
-42.1603737663
 20
110.9305573419
 10
-42.1267025789
 20
110.8964817419
 10
-42.0928554806
 20
110.862737708
  0
LINE
  5
2D4
100
AcDbEntity
  8
0
100
AcDbLine
 62
7
  6
CONTINUOUS
 10
-42.2610016022
 20
111.0339396114
 11
-42.1603737663
 21
110.9305573419
  0
LINE
  5
2D5
100
AcDbEntity
  8
0
100
AcDbLine
 62
7
  6
CONTINUOUS
 10
-42.3273882566
 20
111.103339994
 11
-42.2610016022
 21
111.0339396114
  0
LINE
  5
2D6
100
AcDbEntity
  8
0
100
AcDbLine
 62
7
  6
CONTINUOUS
 10
-42.392960107
 20
111.1726658559
 11
-42.3273882566
 21
111.103339994
  0
LINE
  5
2D7
100
AcDbEntity
  8
0
100
AcDbLine
 62
7
  6
CONTINUOUS
 10
-42.4887298105
 20
111.2755293556
 11
-42.392960107
 21
111.1726658559
  0
LINE
  5
2D8
100
AcDbEntity
  8
0
100
AcDbLine
 62
7
  6
CONTINUOUS
 10
-42.0928554806
 20
110.862737708
 11
-42.0798239444
 21
110.8474678929
  0
LWPOLYLINE
  5
2D9
100
AcDbEntity
  8
RACCORDO
100
AcDbPolyline
 62
253
  6
CONTINUOUS
 90
24
 70
0
 10
70.6492795622
 20
-227.9733979905
 10
70.651433456
 20
-228.114631065
 10
70.6578925167
 20
-228.2532048535
 10
70.6686488798
 20
-228.3889505103
 10
70.6836894479
 20
-228.5217026563
 10
70.7029958991
 20
-228.6512995165
 10
70.726544703
 20
-228.7775831222
 10
70.7543071619
 20
-228.9003995881
 10
70.7862494517
 20
-229.0195992906
 10
70.822332651
 20
-229.1350369897
 10
70.8625127949
 20
-229.2465720364
 10
70.9067409249
 20
-229.3540685312
 10
70.9549631458
 20
-229.4573954877
 10
71.0071206994
 20
-229.5564270108
 10
71.0631500338
 20
-229.6510424413
 10
71.1229828747
 20
-229.7411264934
 10
71.186546318
 20
-229.826569411
 10
71.2537629127
 20
-229.9072670906
 10
71.32455075
 20
-229.983121204
 10
71.398823576
 20
-230.0540393339
 10
71.4764908913
 20
-230.1199350774
 10
71.5574580521
 20
-230.1807281453
 10
71.6416264014
 20
-230.2363444729
 10
71.6846926674
 20
-230.2620822962
  0
LINE
  5
2DA
100
AcDbEntity
  8
RACCORDO
100
AcDbLine
 62
253
  6
CONTINUOUS
 10
70.6492795622
 20
-227.9733979905
 11
70.6492795622
 21
52.0759069495
  0
LWPOLYLINE
  5
2DB
100
AcDbEntity
  8
RACCORDO
100
AcDbPolyline
 62
253
  6
CONTINUOUS
 90
46
 70
0
 10
70.6492795622
 20
52.0759069495
 10
70.651433456
 20
52.2196272866
 10
70.6578925167
 20
52.3656598364
 10
70.6686488798
 20
52.5138266718
 10
70.6836894479
 20
52.6639472889
 10
70.7029958991
 20
52.8158387549
 10
70.726544703
 20
52.9693159291
 10
70.7543071619
 20
53.1241917867
 10
70.7862494517
 20
53.2802776447
 10
70.822332651
 20
53.437383318
 10
70.8625127949
 20
53.5953173877
 10
70.9067409249
 20
53.7538874184
 10
70.9549631458
 20
53.9129001869
 10
71.0071206994
 20
54.0721619455
 10
71.0631500338
 20
54.2314786469
 10
71.1229828747
 20
54.3906561639
 10
71.186546318
 20
54.5495005526
 10
71.2537629127
 20
54.707818271
 10
71.32455075
 20
54.8654164044
 10
71.398823576
 20
55.0221029321
 10
71.4764908913
 20
55.1776869445
 10
71.5574580521
 20
55.3319788602
 10
71.6416264014
 20
55.4847906878
 10
71.7288933824
 20
55.6359362408
 10
71.8191526548
 20
55.7852313496
 10
71.9122942321
 20
55.932494101
 10
72.0082046317
 20
56.0775450838
 10
72.1067670066
 20
56.2202075926
 10
72.2078612699
 20
56.3603078161
 10
72.3113642382
 20
56.4976750491
 10
72.4171497984
 20
56.6321419235
 10
72.5250889961
 20
56.7635445341
 10
72.6350503735
 20
56.8917228586
 10
72.7469001382
 20
57.0165209329
 10
72.8605023048
 20
57.1377869876
 10
72.9757181866
 20
57.255372939
 10
73.0924067217
 20
57.36913485
 10
73.2104253031
 20
57.4789337902
 10
73.3296305242
 20
57.5846364391
 10
73.4498776872
 20
57.6861145244
 10
73.5710262509
 20
57.7832490657
 10
73.6929227177
 20
57.8759166184
 10
73.8154010472
 20
57.9639920329
 10
73.938305963
 20
58.047366149
 10
74.0614934559
 20
58.1259437673
 10
74.1848134681
 20
58.1996313001
  0
LINE
  5
2DC
100
AcDbEntity
  8
CURVE
100
AcDbLine
 62
253
  6
CONTINUOUS
 10
12.9022256248
 20
-169.320394207
 11
10.5452031613
 21
-176.124181745
  0
LINE
  5
2DD
100
AcDbEntity
  8
CURVE
100
AcDbLine
 62
253
  6
CONTINUOUS
 10
9.9559474401
 20
-174.7416503982
 11
12.0183421483
 21
-168.8100509653
  0
LINE
  5
2DE
100
AcDbEntity
  8
0
100
AcDbLine
 62
7
  6
CONTINUOUS
 10
-42.6482759828
 20
-162.0315766444
 11
-42.6549841893
 21
-162.0396341333
  0
LINE
  5
2DF
100
AcDbEntity
  8
0
100
AcDbLine
 62
7
  6
CONTINUOUS
 10
-41.9074973809
 20
-161.1463357727
 11
-42.2747725949
 21
-161.5728256394
  0
LINE
  5
2E0
100
AcDbEntity
  8
0
100
AcDbLine
 62
7
  6
CONTINUOUS
 10
-42.6121360597
 20
-161.9635895919
 11
-42.9885714841
 21
-162.3989773986
  0
LWPOLYLINE
  5
2E1
100
AcDbEntity
  8
0
100
AcDbPolyline
 62
7
  6
CONTINUOUS
 90
16
 70
0
 10
-44.2888420203
 20
112.1103631226
 10
-44.2596864793
 20
112.0921642865
 10
-44.2301819235
 20
112.0740760622
 10
-44.2003283529
 20
112.0560984495
 10
-44.1701456685
 20
112.0382422272
 10
-44.1396139694
 20
112.0204966167
 10
-44.1086735531
 20
112.0028292812
 10
-44.0773196001
 20
111.9852354567
 10
-44.0455569299
 20
111.9677199074
 10
-44.0133402994
 20
111.950264589
 10
-43.9806395844
 20
111.9328533965
 10
-43.947484909
 20
111.9155024351
 10
-43.9139214023
 20
111.8982419759
 10
-43.8799641075
 20
111.8810821094
 10
-43.8455979815
 20
111.8640127451
 10
-43.8108230243
 20
111.8470338832
  0
LWPOLYLINE
  5
2E2
100
AcDbEntity
  8
0
100
AcDbPolyline
 62
7
  6
CONTINUOUS
 90
16
 70
0
 10
-42.079798676
 20
110.8475133421
 10
-42.0331834349
 20
110.8174967138
 10
-41.9864068798
 20
110.7877137592
 10
-41.9394690107
 20
110.7581644783
 10
-41.8923442912
 20
110.7288356204
 10
-41.8450582576
 20
110.6997404361
 10
-41.79768752
 20
110.6709186774
 10
-41.7502746031
 20
110.6423961038
 10
-41.7027769821
 20
110.6141469557
 10
-41.6551436923
 20
110.5861337069
 10
-41.6073871091
 20
110.5583615144
 10
-41.5594948571
 20
110.5308252212
 10
-41.5113788455
 20
110.5034718302
 10
-41.4630097109
 20
110.4762836758
 10
-41.4144168167
 20
110.4492784236
 10
-41.3656001631
 20
110.4224560735
  0
LWPOLYLINE
  5
2E3
100
AcDbEntity
  8
0
100
AcDbPolyline
 62
7
  6
CONTINUOUS
 90
7
 70
0
 10
-42.9885714841
 20
109.4856247734
 10
-42.9349188109
 20
109.4489543092
 10
-42.8811215604
 20
109.4144736705
 10
-42.8272519542
 20
109.3822291467
 10
-42.7733823106
 20
109.3522640251
 10
-42.7195849482
 20
109.3246185332
 10
-42.6659320886
 20
109.2993297843
  0
LWPOLYLINE
  5
2E4
100
AcDbEntity
  8
0
100
AcDbPolyline
 62
7
  6
CONTINUOUS
 90
7
 70
0
 10
-42.6658768043
 20
112.6746580669
 10
-42.719529477
 20
112.7113285307
 10
-42.773326727
 20
112.745809169
 10
-42.8271963328
 20
112.7780536925
 10
-42.8810659759
 20
112.8080188137
 10
-42.9348633378
 20
112.8356643054
 10
-42.9885161969
 20
112.860953054
  0
LWPOLYLINE
  5
2E5
100
AcDbEntity
  8
RACCORDO
100
AcDbPolyline
 62
253
  6
CONTINUOUS
 90
46
 70
0
 10
77.720347374
 20
52.0759069495
 10
77.7181936223
 20
52.2196225074
 10
77.7117349911
 20
52.3656500685
 10
77.7009793494
 20
52.5138117209
 10
77.6859398011
 20
52.6639269522
 10
77.6666346697
 20
52.8158128702
 10
77.6430874755
 20
52.9692844253
 10
77.6153269071
 20
53.1241546362
 10
77.5833867866
 20
53.2802348171
 10
77.5473060279
 20
53.4373348086
 10
77.5071285901
 20
53.5952632085
 10
77.462903423
 20
53.7538276054
 10
77.4146844082
 20
53.9128348128
 10
77.3625302933
 20
54.0720911052
 10
77.3065046198
 20
54.2314024532
 10
77.2466756466
 20
54.3905747604
 10
77.1831162659
 20
54.5494140999
 10
77.1159039152
 20
54.7077269506
 10
77.0451204822
 20
54.8653204324
 10
76.9708522057
 20
55.0220025421
 10
76.8931895702
 20
55.1775823867
 10
76.8122271956
 20
55.331870416
 10
76.7280637221
 20
55.4846786539
 10
76.6408016899
 20
55.6358209271
 10
76.5505474144
 20
55.7851130919
 10
76.4574108565
 20
55.932373259
 10
76.3615054887
 20
56.0774220143
 10
76.262948157
 20
56.2200826385
 10
76.1618589383
 20
56.3601813215
 10
76.0583609942
 20
56.4975473746
 10
75.9525804211
 20
56.6320134385
 10
75.8446460962
 20
56.7634156869
 10
75.734689521
 20
56.8915940265
 10
75.6228446605
 20
57.0163922917
 10
75.5092477805
 20
57.1376584351
 10
75.3940372814
 20
57.2552447125
 10
75.2773535292
 20
57.3690078631
 10
75.1593386853
 20
57.4788092841
 10
75.0401365326
 20
57.5845151994
 10
74.9198923004
 20
57.6859968226
 10
74.798752488
 20
57.783130514
 10
74.6768646853
 20
57.8757979311
 10
74.5543773941
 20
57.9638861729
 10
74.4314398462
 20
58.0472879175
 10
74.308201822
 20
58.1259015528
 10
74.1848134681
 20
58.1996313001
  0
LINE
  5
2E6
100
AcDbEntity
  8
RACCORDO
100
AcDbLine
 62
253
  6
CONTINUOUS
 10
77.720347374
 20
-227.9733979905
 11
77.720347374
 21
52.0759069495
  0
LINE
  5
2E7
100
AcDbEntity
  8
CURVE
100
AcDbLine
 62
253
  6
CONTINUOUS
 10
26.0131639998
 20
-182.2757152793
 11
27.3389892145
 21
-178.3508688064
  0
LINE
  5
2E8
100
AcDbEntity
  8
CURVE
100
AcDbLine
 62
253
  6
CONTINUOUS
 10
25.865850649
 20
-182.8855266347
 11
25.2765938741
 21
-184.6299021148
  0
LINE
  5
2E9
100
AcDbEntity
  8
CURVE
100
AcDbLine
 62
253
  6
CONTINUOUS
 10
35.8831972778
 20
-185.5425097177
 11
36.0305089427
 21
-185.1064144484
  0
LINE
  5
2EA
100
AcDbEntity
  8
CURVE
100
AcDbLine
 62
253
  6
CONTINUOUS
 10
36.7670807542
 20
-186.2265700188
 11
36.9143924192
 21
-185.7904747495
  0
LINE
  5
2EB
100
AcDbEntity
  8
CURVE
100
AcDbLine
 62
253
  6
CONTINUOUS
 10
24.3927103976
 20
-184.1195588732
 11
26.7497341255
 21
-177.3157720653
  0
LINE
  5
2EC
100
AcDbEntity
  8
CURVE
100
AcDbLine
 62
253
  6
CONTINUOUS
 10
19.6786654707
 20
-180.5291429942
 11
21.8883750048
 21
-174.5088842361
  0
LINE
  5
2ED
100
AcDbEntity
  8
CURVE
100
AcDbLine
 62
253
  6
CONTINUOUS
 10
22.3303167431
 20
-176.5012264516
 11
20.2679214026
 21
-181.7379574032
  0
LINE
  5
2EE
100
AcDbEntity
  8
0
100
AcDbLine
 62
7
  6
CONTINUOUS
 10
-43.2356501722
 20
-159.7056582525
 11
-43.2450571421
 21
-159.7152739736
  0
LWPOLYLINE
  5
2EF
100
AcDbEntity
  8
RACCORDO
100
AcDbPolyline
 62
253
  6
CONTINUOUS
 90
24
 70
0
 10
-148.5538226056
 20
186.8061281983
 10
-148.6772109595
 20
186.8748842293
 10
-148.8004489837
 20
186.9385827753
 10
-148.9233865317
 20
186.9971462294
 10
-149.0458738229
 20
187.0505032413
 10
-149.1677616255
 20
187.0985888034
 10
-149.288901438
 20
187.141344331
 10
-149.4091456701
 20
187.1787177331
 10
-149.5283478229
 20
187.2106634759
 10
-149.6463626668
 20
187.2371426384
 10
-149.7630464189
 20
187.2581229599
 10
-149.878256918
 20
187.2735788792
 10
-149.991853798
 20
187.2834915654
 10
-150.1036986585
 20
187.2878489416
 10
-150.2136552337
 20
187.2866456989
 10
-150.3215895586
 20
187.2798833034
 10
-150.4273701317
 20
187.2675699939
 10
-150.5308680758
 20
187.2497207723
 10
-150.6319572945
 20
187.2263573852
 10
-150.7305146262
 20
187.1975082973
 10
-150.826419994
 20
187.1632086566
 10
-150.9195565519
 20
187.1235002521
 10
-151.0098108274
 20
187.0784314623
 10
-151.0539434063
 20
187.0538340867
  0
LWPOLYLINE
  5
2F0
100
AcDbEntity
  8
RACCORDO
100
AcDbPolyline
 62
253
  6
CONTINUOUS
 90
46
 70
0
 10
70.6492795622
 20
52.0759069495
 10
70.7748258839
 20
52.0059053396
 10
70.9045270809
 20
51.9384762561
 10
71.0382251268
 20
51.8737018597
 10
71.1757571476
 20
51.8116610673
 10
71.3169555537
 20
51.7524294852
 10
71.4616482392
 20
51.696079313
 10
71.6096588833
 20
51.6426792168
 10
71.760807166
 20
51.5922942517
 10
71.9149089179
 20
51.5449858095
 10
72.0717763797
 20
51.5008115304
 10
72.2312184152
 20
51.459825238
 10
72.3930407379
 20
51.422076874
 10
72.5570461756
 20
51.3876124308
 10
72.7230348999
 20
51.3564738985
 10
72.8908046527
 20
51.328699217
 10
73.0601510195
 20
51.3043222249
 10
73.230867661
 20
51.2833726214
 10
73.4027465521
 20
51.2658759311
 10
73.57557827
 20
51.2518534686
 10
73.7491522314
 20
51.2413223155
 10
73.9232569313
 20
51.2342952997
 10
74.0976802354
 20
51.2307809782
 10
74.2722096228
 20
51.2307836281
 10
74.4466324278
 20
51.2343032407
 10
74.6207361159
 20
51.241335521
 10
74.7943085716
 20
51.251871895
 10
74.9671383406
 20
51.2658995218
 10
75.1390148551
 20
51.2834013067
 10
75.3097286898
 20
51.3043559207
 10
75.4790718448
 20
51.328737828
 10
75.6468378993
 20
51.3565173009
 10
75.812822542
 20
51.3876605011
 10
75.9768238087
 20
51.4221295394
 10
76.1386422713
 20
51.4598825289
 10
76.2980803463
 20
51.5008734012
 10
76.4549428553
 20
51.5450519575
 10
76.6090381846
 20
51.592364158
 10
76.7601791706
 20
51.6427524624
 10
76.9081823704
 20
51.6961556852
 10
77.0528744774
 20
51.7525115979
 10
77.1940718412
 20
51.8117489826
 10
77.3315830545
 20
51.873786606
 10
77.4652359466
 20
51.9385445645
 10
77.594876077
 20
52.0059457353
 10
77.720347374
 20
52.0759069495
  0
LINE
  5
2F1
100
AcDbEntity
  8
RACCORDO
100
AcDbLine
 62
253
  6
CONTINUOUS
 10
70.6492795622
 20
52.0759069495
 11
-152.0893565116
 21
180.6824038477
  0
LINE
  5
2F2
100
AcDbEntity
  8
RACCORDO
100
AcDbLine
 62
253
  6
CONTINUOUS
 10
74.1848134681
 20
58.1996313001
 11
-148.5538226056
 21
186.8061281983
  0
LWPOLYLINE
  5
2F3
100
AcDbEntity
  8
RACCORDO
100
AcDbPolyline
 62
253
  6
CONTINUOUS
 90
24
 70
0
 10
-152.0893565116
 20
180.6824038477
 10
-152.2105950397
 20
180.7548927169
 10
-152.3273781089
 20
180.8297805588
 10
-152.4395634217
 20
180.906976131
 10
-152.5470142992
 20
180.986385392
 10
-152.6495997956
 20
181.0679115778
 10
-152.7471948656
 20
181.1514553166
 10
-152.8396805839
 20
181.2369148028
 10
-152.9269442788
 20
181.3241859222
 10
-153.0088796236
 20
181.4131623375
 10
-153.085386789
 20
181.503735639
 10
-153.1563725558
 20
181.595795467
 10
-153.2217504278
 20
181.6892296429
 10
-153.2814407493
 20
181.7839243219
 10
-153.3353707959
 20
181.8797641258
 10
-153.3834748578
 20
181.9766322732
 10
-153.4256943289
 20
182.0744107377
 10
-153.4619777718
 20
182.1729803817
 10
-153.4922809794
 20
182.2722210941
 10
-153.5165670363
 20
182.3720119567
 10
-153.5348063582
 20
182.4722313815
 10
-153.5469767278
 20
182.5727572482
 10
-153.5530633248
 20
182.673467073
 10
-153.5538226056
 20
182.7237768144
  0
LINE
  5
2F4
100
AcDbEntity
  8
0
100
AcDbLine
 62
7
  6
CONTINUOUS
 10
-41.8008742504
 20
-161.2117445935
 11
-42.4887300368
 21
-161.735831425
  0
LINE
  5
2F5
100
AcDbEntity
  8
0
100
AcDbLine
 62
7
  6
CONTINUOUS
 10
-42.0928555537
 20
-161.7109457969
 11
-41.5865281633
 21
-161.3382337885
  0
LINE
  5
2F6
100
AcDbEntity
  8
0
100
AcDbLine
 62
7
  6
CONTINUOUS
 10
-42.0797954298
 20
-161.7077149098
 11
-41.581149226
 21
-161.3413264807
  0
LWPOLYLINE
  5
2F7
100
AcDbEntity
  8
RACCORDO
100
AcDbPolyline
 62
253
  6
CONTINUOUS
 90
12
 70
0
 10
-38.9682809275
 20
-163.1945322656
 10
-38.836180302
 20
-163.1014018363
 10
-38.7146355917
 20
-162.9919490988
 10
-38.6042389302
 20
-162.8667072506
 10
-38.5055281996
 20
-162.726286474
 10
-38.4189843501
 20
-162.5713709423
 10
-38.3450290214
 20
-162.4027154324
 10
-38.2840224904
 20
-162.2211415947
 10
-38.2362619594
 20
-162.0275340074
 10
-38.201980111
 20
-161.8228358935
 10
-38.1813439663
 20
-161.6080445332
 10
-38.1744540624
 20
-161.384206368
  0
LINE
  5
2F8
100
AcDbEntity
  8
0
100
AcDbLine
 62
7
  6
CONTINUOUS
 10
-43.8108248202
 20
-160.7081972826
 11
-42.6579154357
 21
-159.9762723114
  0
LINE
  5
2F9
100
AcDbEntity
  8
0
100
AcDbLine
 62
7
  6
CONTINUOUS
 10
-42.6566302389
 20
-160.0037414574
 11
-43.8004776443
 21
-160.7249861541
  0
LWPOLYLINE
  5
2FA
100
AcDbEntity
  8
0
100
AcDbPolyline
 62
7
  6
CONTINUOUS
 90
4
 70
0
 10
-43.7466793479
 20
111.846609889
 10
-43.6916282762
 20
111.8450921212
 10
-43.6635449888
 20
111.8442080666
 10
-43.4645630047
 20
111.8389628745
  0
LINE
  5
2FB
100
AcDbEntity
  8
0
100
AcDbLine
 62
7
  6
CONTINUOUS
 10
-43.7737074872
 20
111.8475045481
 11
-43.7466793479
 21
111.846609889
  0
LINE
  5
2FC
100
AcDbEntity
  8
0
100
AcDbLine
 62
7
  6
CONTINUOUS
 10
-43.8004775871
 20
111.8486973417
 11
-43.7737074872
 21
111.8475045481
  0
LWPOLYLINE
  5
2FD
100
AcDbEntity
  8
0
100
AcDbPolyline
 62
7
  6
CONTINUOUS
 90
16
 70
0
 10
-42.0797954298
 20
110.1768872622
 10
-42.0331954687
 20
110.1667347126
 10
-41.9864298419
 20
110.1568235341
 10
-41.9394985495
 20
110.1471537268
 10
-41.8923746159
 20
110.1377220461
 10
-41.8450850167
 20
110.1285317365
 10
-41.7977106781
 20
110.1195925314
 10
-41.7502955158
 20
110.1109126591
 10
-41.7027956142
 20
110.1024838913
 10
-41.6551601525
 20
110.0942912772
 10
-41.6074015505
 20
110.0863352111
 10
-41.5595073886
 20
110.0786152987
 10
-41.511389587
 20
110.0711154066
 10
-41.4630187859
 20
110.0638301568
 10
-41.4144243452
 20
110.0567649271
 10
-41.3656062649
 20
110.0499197177
  0
LWPOLYLINE
  5
2FE
100
AcDbEntity
  8
RACCORDO
100
AcDbPolyline
 62
253
  6
CONTINUOUS
 90
13
 70
0
 10
-40.1075372204
 20
-163.8530241606
 10
-40.0730465405
 20
-163.8324106139
 10
-39.9409464721
 20
-163.7392829635
 10
-39.8194014311
 20
-163.6298327685
 10
-39.7090033647
 20
-163.50459254
 10
-39.6102907419
 20
-163.3641725544
 10
-39.5237447772
 20
-163.2092569212
 10
-39.4497871858
 20
-163.0406000288
 10
-39.3887785435
 20
-162.8590235991
 10
-39.3410164337
 20
-162.6654130964
 10
-39.3067335613
 20
-162.4607121729
 10
-39.2860968279
 20
-162.2459178746
 10
-39.2792067362
 20
-162.022076716
  0
LINE
  5
2FF
100
AcDbEntity
  8
RACCORDO
100
AcDbLine
 62
253
  6
CONTINUOUS
 10
-39.0027845466
 20
-163.2151538126
 11
-38.9682809275
 21
-163.1945322656
  0
LINE
  5
300
100
AcDbEntity
  8
0
100
AcDbLine
 62
7
  6
CONTINUOUS
 10
-44.1077305015
 20
-156.9249325249
 11
-43.0029778277
 21
-156.2870621768
  0
LINE
  5
301
100
AcDbEntity
  8
0
100
AcDbLine
 62
7
  6
CONTINUOUS
 10
-43.4645631554
 20
-161.1723978624
 11
-42.4921942838
 21
-160.6109722165
  0
LINE
  5
302
100
AcDbEntity
  8
0
100
AcDbLine
 62
7
  6
CONTINUOUS
 10
-40.1075372204
 20
-163.8530241606
 11
-39.0027845466
 21
-163.2151538126
  0
LINE
  5
303
100
AcDbEntity
  8
0
100
AcDbLine
 62
7
  6
CONTINUOUS
 10
-43.2450571847
 20
-161.6870025918
 11
-42.0487538246
 21
-161.0570793254
  0
LINE
  5
304
100
AcDbEntity
  8
0
100
AcDbLine
 62
7
  6
CONTINUOUS
 10
-43.2357278784
 20
-161.7043338705
 11
-42.0256453259
 21
-161.0719050241
  0
LWPOLYLINE
  5
305
100
AcDbEntity
  8
RACCORDO
100
AcDbPolyline
 62
7
  6
CONTINUOUS
 90
34
 70
0
 10
-43.0029778277
 20
-156.2870621768
 10
-42.8508775228
 20
-156.2097339666
 10
-42.6887785843
 20
-156.1480074781
 10
-42.5174040792
 20
-156.1027792541
 10
-42.3374134665
 20
-156.0748203646
 10
-42.1497346629
 20
-156.0648326358
 10
-41.9554708031
 20
-156.0733441764
 10
-41.7548392903
 20
-156.1008386803
 10
-41.5490754889
 20
-156.1476522248
 10
-41.340784045
 20
-156.2134021861
 10
-41.1308408281
 20
-156.2977993011
 10
-40.9199237883
 20
-156.400600759
 10
-40.7104593294
 20
-156.5205041075
 10
-40.5036828338
 20
-156.6564664195
 10
-40.2999857339
 20
-156.8079362644
 10
-40.1006283932
 20
-156.9737167799
 10
-39.9065995521
 20
-157.1526759459
 10
-39.7185025317
 20
-157.343976046
 10
-39.5370796354
 20
-157.5466379543
 10
-39.3631377253
 20
-157.7595581644
 10
-39.1973705341
 20
-157.9817065499
 10
-39.040380623
 20
-158.2121437475
 10
-38.892870265
 20
-158.449750002
 10
-38.7555002518
 20
-158.6933955115
 10
-38.628811745
 20
-158.9421077621
 10
-38.5134111515
 20
-159.1947465844
 10
-38.4098823635
 20
-159.4501264317
 10
-38.3187084942
 20
-159.7072282625
 10
-38.2403817434
 20
-159.9649649154
 10
-38.175412034
 20
-160.2220755111
 10
-38.1242428956
 20
-160.4773573974
 10
-38.0872649646
 20
-160.7296799266
 10
-38.0648393565
 20
-160.9779114613
 10
-38.0572967749
 20
-161.2208965254
  0
LWPOLYLINE
  5
306
100
AcDbEntity
  8
RACCORDO
100
AcDbPolyline
 62
7
  6
CONTINUOUS
 90
33
 70
0
 10
-40.1075372204
 20
-163.8530241606
 10
-40.2596375254
 20
-163.9303523708
 10
-40.4217364639
 20
-163.9920788594
 10
-40.5931109689
 20
-164.0373070834
 10
-40.7731015817
 20
-164.0652659728
 10
-40.9607803853
 20
-164.0752537016
 10
-41.1550442452
 20
-164.066742161
 10
-41.355675758
 20
-164.0392476571
 10
-41.5614395594
 20
-163.9924341126
 10
-41.7697310033
 20
-163.9266841513
 10
-41.9796742203
 20
-163.8422870362
 10
-42.1905912601
 20
-163.7394855783
 10
-42.400055719
 20
-163.6195822297
 10
-42.6068322146
 20
-163.4836199177
 10
-42.8105293145
 20
-163.3321500728
 10
-43.0098866552
 20
-163.1663695572
 10
-43.2039154963
 20
-162.9874103912
 10
-43.3920125168
 20
-162.7961102911
 10
-43.5734354131
 20
-162.5934483827
 10
-43.7473773232
 20
-162.3805281726
 10
-43.9131445144
 20
-162.1583797871
 10
-44.0701344254
 20
-161.9279425894
 10
-44.2176447834
 20
-161.6903363349
 10
-44.3550147966
 20
-161.4466908254
 10
-44.4817033034
 20
-161.1979785747
 10
-44.5971038969
 20
-160.9453397523
 10
-44.7006326849
 20
-160.6899599051
 10
-44.7918065541
 20
-160.4328580742
 10
-44.870133305
 20
-160.1751214213
 10
-44.9351030143
 20
-159.9180108255
 10
-44.9862721526
 20
-159.6627289392
 10
-45.0232500836
 20
-159.41040641
 10
-45.0456756917
 20
-159.1621748753
  0
LINE
  5
307
100
AcDbEntity
  8
0
100
AcDbLine
 62
7
  6
CONTINUOUS
 10
-43.2356909527
 20
-159.7056051743
 11
-42.66897959
 21
-159.4568860798
  0
LINE
  5
308
100
AcDbEntity
  8
0
100
AcDbLine
 62
7
  6
CONTINUOUS
 10
-42.669000277
 20
-159.4630520411
 11
-43.2450571421
 21
-159.7152739736
  0
LINE
  5
309
100
AcDbEntity
  8
0
100
AcDbLine
 62
7
  6
CONTINUOUS
 10
-42.6665900952
 20
-159.7118585786
 11
-43.4645630047
 21
-160.0456392975
  0
LINE
  5
30A
100
AcDbEntity
  8
0
100
AcDbLine
 62
7
  6
CONTINUOUS
 10
-42.0928555537
 20
110.1736563751
 11
-42.0798379459
 21
110.1769905796
  0
LINE
  5
30B
100
AcDbEntity
  8
0
100
AcDbLine
 62
7
  6
CONTINUOUS
 10
-43.724259209
 20
111.8460110257
 11
-44.2888481224
 21
111.7378267648
  0
LINE
  5
30C
100
AcDbEntity
  8
0
100
AcDbLine
 62
7
  6
CONTINUOUS
 10
-42.6633146781
 20
112.0477964519
 11
-43.215665096
 21
111.9430833999
  0
LINE
  5
30D
100
AcDbEntity
  8
0
100
AcDbLine
 62
7
  6
CONTINUOUS
 10
-43.8107993791
 20
111.8469196672
 11
-43.8004775871
 21
111.8486973417
  0
LINE
  5
30E
100
AcDbEntity
  8
0
100
AcDbLine
 62
7
  6
CONTINUOUS
 10
-42.0928555537
 20
110.1736563751
 11
-42.1944292258
 21
110.1646621834
  0
LINE
  5
30F
100
AcDbEntity
  8
0
100
AcDbLine
 62
7
  6
CONTINUOUS
 10
-42.1944292258
 20
110.1646621834
 11
-42.228206434
 21
110.1619599215
  0
LWPOLYLINE
  5
310
100
AcDbEntity
  8
0
100
AcDbPolyline
 62
7
  6
CONTINUOUS
 90
8
 70
0
 10
-42.228206434
 20
110.1619599215
 10
-42.2953832609
 20
110.1573416875
 10
-42.3285366362
 20
110.1552760581
 10
-42.3614836867
 20
110.1535077214
 10
-42.3939350458
 20
110.1519833553
 10
-42.425846027
 20
110.1506619058
 10
-42.4574151116
 20
110.1495854319
 10
-42.4887300368
 20
110.148770747
  0
LINE
  5
311
100
AcDbEntity
  8
ASSI
100
AcDbLine
 62
7
  6
CONTINUOUS
 10
140.0871654747
 20
114.6234957374
 11
140.0871654747
 21
105.0695546141
  0
LINE
  5
312
100
AcDbEntity
  8
RACCORDO
100
AcDbLine
 62
7
  6
CONTINUOUS
 10
144.1883848056
 20
90.4537187223
 11
144.1883848056
 21
-189.5955862177
  0
LINE
  5
313
100
AcDbEntity
  8
0
100
AcDbLine
 62
7
  6
CONTINUOUS
 10
145.1076236211
 20
90.7394320278
 11
145.1076236211
 21
-190.9428134658
  0
LWPOLYLINE
  5
314
100
AcDbEntity
  8
RACCORDO
100
AcDbPolyline
 62
7
  6
CONTINUOUS
 90
7
 70
0
 10
144.1883848056
 20
-189.5955862177
 10
144.1863750737
 20
-189.7316621521
 10
144.1804070819
 20
-189.8649894572
 10
144.1704808301
 20
-189.9955681331
 10
144.1565963183
 20
-190.1233981797
 10
144.1387535465
 20
-190.248479597
 10
144.1169525148
 20
-190.370812385
  0
LWPOLYLINE
  5
315
100
AcDbEntity
  8
RACCORDO
100
AcDbPolyline
 62
7
  6
CONTINUOUS
 90
19
 70
0
 10
152.2695031238
 20
95.3529349324
 10
152.2675911388
 20
95.4032732427
 10
152.2618768701
 20
95.4536115531
 10
152.2523928465
 20
95.5036633074
 10
152.2391175677
 20
95.5534268713
 10
152.2220725341
 20
95.6029038792
 10
152.2013547764
 20
95.6518126781
 10
152.1769433474
 20
95.7001500273
 10
152.1488591942
 20
95.7479191674
 10
152.1172621888
 20
95.7948481678
 10
152.0821322959
 20
95.8409322367
 10
152.0434895508
 20
95.8861761658
 10
152.0015539314
 20
95.9303223994
 10
151.9563066568
 20
95.9733646769
 10
151.9077665079
 20
96.0153092589
 10
151.8562098044
 20
96.0559173714
 10
151.8017286529
 20
96.0951094233
 10
151.7442309468
 20
96.1329650059
 10
151.6837166862
 20
96.169484119
  0
LWPOLYLINE
  5
316
100
AcDbEntity
  8
RACCORDO
100
AcDbPolyline
 62
7
  6
CONTINUOUS
 90
19
 70
0
 10
152.7644778706
 20
107.8869649475
 10
152.7625658857
 20
107.9373032579
 10
152.7568516169
 20
107.9876415682
 10
152.7473675934
 20
108.0376933225
 10
152.7340923145
 20
108.0874568865
 10
152.7170472809
 20
108.1369338944
 10
152.6963295232
 20
108.1858426933
 10
152.6719180942
 20
108.2341800424
 10
152.643833941
 20
108.2819491826
 10
152.6122369356
 20
108.3288781829
 10
152.5771070428
 20
108.3749622518
 10
152.5384642977
 20
108.420206181
 10
152.4965286782
 20
108.4643524146
 10
152.4512814036
 20
108.5073946921
 10
152.4027412547
 20
108.549339274
 10
152.3511845512
 20
108.5899473866
 10
152.2967033997
 20
108.6291394385
 10
152.2392056936
 20
108.666995021
 10
152.178691433
 20
108.7035141342
  0
LINE
  5
317
100
AcDbEntity
  8
RACCORDO
100
AcDbLine
 62
253
  6
CONTINUOUS
 10
151.6837166862
 20
-187.1458597478
 11
151.6837166862
 21
94.5363857457
  0
LINE
  5
318
100
AcDbEntity
  8
RACCORDO
100
AcDbLine
 62
253
  6
CONTINUOUS
 10
152.178691433
 20
95.6966886229
 11
152.178691433
 21
107.0704157609
  0
LINE
  5
319
100
AcDbEntity
  8
RACCORDO
100
AcDbLine
 62
7
  6
CONTINUOUS
 10
152.2695031238
 20
-186.3293105612
 11
152.2695031238
 21
95.3529349324
  0
LINE
  5
31A
100
AcDbEntity
  8
RACCORDO
100
AcDbLine
 62
7
  6
CONTINUOUS
 10
152.7644778706
 20
-173.795280546
 11
152.7644778706
 21
107.8869649475
  0
LWPOLYLINE
  5
31B
100
AcDbEntity
  8
RACCORDO
100
AcDbPolyline
 62
7
  6
CONTINUOUS
 90
19
 70
0
 10
152.2695031238
 20
-186.3293105612
 10
152.2675911388
 20
-186.3796488715
 10
152.2618768701
 20
-186.4299871819
 10
152.2523928465
 20
-186.4800389362
 10
152.2391175677
 20
-186.5298025001
 10
152.2220725341
 20
-186.579279508
 10
152.2013547764
 20
-186.6281883069
 10
152.1769433474
 20
-186.6765256561
 10
152.1488591942
 20
-186.7242947962
 10
152.1172621888
 20
-186.7712237966
 10
152.0821322959
 20
-186.8173078655
 10
152.0434895508
 20
-186.8625517946
 10
152.0015539314
 20
-186.9066980282
 10
151.9563066568
 20
-186.9497403057
 10
151.9077665079
 20
-186.9916848877
 10
151.8562098044
 20
-187.0322930002
 10
151.8017286529
 20
-187.0714850522
 10
151.7442309468
 20
-187.1093406347
 10
151.6837166862
 20
-187.1458597478
  0
LWPOLYLINE
  5
31C
100
AcDbEntity
  8
RACCORDO
100
AcDbPolyline
 62
7
  6
CONTINUOUS
 90
18
 70
0
 10
152.7644778706
 20
-173.795280546
 10
152.7625658857
 20
-173.8456188564
 10
152.7568516169
 20
-173.8959571667
 10
152.7473675934
 20
-173.946008921
 10
152.7340923145
 20
-173.995772485
 10
152.7170472809
 20
-174.0452494929
 10
152.6963295232
 20
-174.0941582918
 10
152.6719180942
 20
-174.1424956409
 10
152.643833941
 20
-174.190264781
 10
152.6122369356
 20
-174.2371937814
 10
152.5771070428
 20
-174.2832778503
 10
152.5384642977
 20
-174.3285217794
 10
152.4965286782
 20
-174.3726680131
 10
152.4512814036
 20
-174.4157102905
 10
152.4027412547
 20
-174.4576548725
 10
152.3511845512
 20
-174.4982629851
 10
152.2967033997
 20
-174.537455037
 10
152.2695031238
 20
-174.5553632695
  0
LINE
  5
31D
100
AcDbEntity
  8
CURVE
100
AcDbLine
 62
253
  6
CONTINUOUS
 10
36.325139016
 20
-186.6662666358
 11
36.7670807542
 21
-186.2265700188
  0
LINE
  5
31E
100
AcDbEntity
  8
RACCORDO
100
AcDbLine
 62
7
  6
CONTINUOUS
 10
145.1076236211
 20
90.7394320278
 11
144.1169525148
 21
91.3114331085
  0
LINE
  5
31F
100
AcDbEntity
  8
RACCORDO
100
AcDbLine
 62
7
  6
CONTINUOUS
 10
-86.3785051367
 20
224.39662157
 11
-86.5405578956
 21
224.4901888019
  0
LINE
  5
320
100
AcDbEntity
  8
RACCORDO
100
AcDbLine
 62
7
  6
CONTINUOUS
 10
150.8626082431
 20
96.6435818431
 11
151.6837166862
 21
96.169484119
  0
LINE
  5
321
100
AcDbEntity
  8
RACCORDO
100
AcDbLine
 62
7
  6
CONTINUOUS
 10
147.7239187115
 20
100.6601890062
 11
-75.0147173622
 21
229.2666859044
  0
LWPOLYLINE
  5
322
100
AcDbEntity
  8
RACCORDO
100
AcDbPolyline
 62
7
  6
CONTINUOUS
 90
43
 70
0
 10
147.7239187115
 20
100.6601890062
 10
147.8393995265
 20
100.5913213998
 10
147.9545099441
 20
100.5183513926
 10
148.0692499643
 20
100.4412789844
 10
148.1837396913
 20
100.3600141005
 10
148.297859021
 20
100.2746468157
 10
148.4112476404
 20
100.1854473542
 10
148.523904413
 20
100.0924027197
 10
148.6358304754
 20
99.9955259085
 10
148.7466689241
 20
99.8951261339
 10
148.8564159816
 20
99.7911924258
 10
148.9650754255
 20
99.6837357543
 10
149.0723016853
 20
99.5730982429
 10
149.1780901929
 20
99.4592697979
 10
149.2824455164
 20
99.3422605131
 10
149.3850357904
 20
99.2224427931
 10
149.4858553964
 20
99.0998077251
 10
149.5849099528
 20
98.9743642219
 10
149.681884449
 20
98.8465114278
 10
149.7767722698
 20
98.7162416943
 10
149.8695800305
 20
98.5835626699
 10
149.9600125659
 20
98.4488964438
 10
150.0480623266
 20
98.3122367046
 10
150.133736862
 20
98.1735897636
 10
150.2167636549
 20
98.0333966452
 10
150.2971342932
 20
97.8916524341
 10
150.374857189
 20
97.7483620455
 10
150.4496850617
 20
97.6039812491
 10
150.5216087158
 20
97.4585065725
 10
150.5906373467
 20
97.3119414882
 10
150.6565512603
 20
97.1647521826
 10
150.7193405646
 20
97.0169366593
 10
150.7790151515
 20
96.8684969147
 10
150.8353850031
 20
96.7199051249
 10
150.888439624
 20
96.5711607883
 10
150.9381895095
 20
96.4222644063
 10
150.9844761271
 20
96.2736896595
 10
151.0272884774
 20
96.1254375464
 10
151.0666375597
 20
95.9775070684
 10
151.1023978392
 20
95.8303689105
 10
151.1345274711
 20
95.6841799676
 10
151.1630683003
 20
95.5387833447
 10
151.1880203267
 20
95.3941790418
  0
LWPOLYLINE
  5
323
100
AcDbEntity
  8
RACCORDO
100
AcDbPolyline
 62
7
  6
CONTINUOUS
 90
7
 70
0
 10
144.1169525148
 20
91.3114331085
 10
144.1387535465
 20
91.1639250355
 10
144.1565963183
 20
91.0182392326
 10
144.1704808301
 20
90.8743756999
 10
144.1804070819
 20
90.7323344372
 10
144.1863750737
 20
90.5921154447
 10
144.1883848056
 20
90.4537187223
  0
LINE
  5
324
100
AcDbEntity
  8
CURVE
100
AcDbLine
 62
253
  6
CONTINUOUS
 10
35.5885672044
 20
-185.7198281248
 11
35.8831972778
 21
-185.5425097177
  0
LWPOLYLINE
  5
325
100
AcDbEntity
  8
RACCORDO
100
AcDbPolyline
 62
7
  6
CONTINUOUS
 90
37
 70
0
 10
-55.4278595234
 20
228.5729347352
 10
-55.4911084078
 20
228.6078749109
 10
-55.5566719759
 20
228.6410733657
 10
-55.6245502277
 20
228.6725300998
 10
-55.6948810106
 20
228.7022982943
 10
-55.7675264772
 20
228.7303247679
 10
-55.8420730858
 20
228.7564499771
 10
-55.9185316792
 20
228.7806630782
 10
-55.9968914146
 20
228.802974915
 10
-56.076706221
 20
228.8232584748
 10
-56.1579843974
 20
228.8415021897
 10
-56.2407176447
 20
228.8577176278
 10
-56.3244349955
 20
228.871812481
 10
-56.4091420626
 20
228.8837746546
 10
-56.4948332331
 20
228.8936162434
 10
-56.5810207013
 20
228.901281223
 10
-56.6677072977
 20
228.9067571793
 10
-56.7548901917
 20
228.9100565265
 10
-56.8420730858
 20
228.9111604827
 10
-56.9292559798
 20
228.9100565265
 10
-57.0164388738
 20
228.9067571793
 10
-57.1031254702
 20
228.901281223
 10
-57.1893129384
 20
228.8936162434
 10
-57.2750041089
 20
228.8837746546
 10
-57.359711176
 20
228.871812481
 10
-57.4434285268
 20
228.8577176278
 10
-57.5261617742
 20
228.8415021897
 10
-57.6074399505
 20
228.8232584748
 10
-57.6872547569
 20
228.802974915
 10
-57.7656144923
 20
228.7806630782
 10
-57.8420730858
 20
228.7564499771
 10
-57.9166196943
 20
228.7303247679
 10
-57.9892651609
 20
228.7022982943
 10
-58.0595959438
 20
228.6725300998
 10
-58.1274741956
 20
228.6410733657
 10
-58.1930377637
 20
228.6078749109
 10
-58.2562866481
 20
228.5729347352
  0
LINE
  5
326
100
AcDbEntity
  8
0
100
AcDbLine
 62
7
  6
CONTINUOUS
 10
-56.8420730858
 20
228.3279699792
 11
-45.1748111962
 21
221.5914391893
  0
LINE
  5
327
100
AcDbEntity
  8
0
100
AcDbLine
 62
7
  6
CONTINUOUS
 10
151.7544273643
 20
107.8869649475
 11
140.0871654747
 21
114.6234957374
  0
LINE
  5
328
100
AcDbEntity
  8
RACCORDO
100
AcDbLine
 62
7
  6
CONTINUOUS
 10
141.0064042902
 20
115.1542527088
 11
152.178691433
 21
108.7035141342
  0
LINE
  5
329
100
AcDbEntity
  8
RACCORDO
100
AcDbLine
 62
7
  6
CONTINUOUS
 10
-44.2555723806
 20
222.1221961606
 11
-55.4278595234
 21
228.5729347352
  0
LWPOLYLINE
  5
32A
100
AcDbEntity
  8
RACCORDO
100
AcDbPolyline
 62
253
  6
CONTINUOUS
 90
24
 70
0
 10
76.6849342688
 20
-230.2620822962
 10
76.7280637221
 20
-230.2363054061
 10
76.8122271956
 20
-230.1806870378
 10
76.8931895702
 20
-230.1198923292
 10
76.9708522057
 20
-230.0539953495
 10
77.0451204822
 20
-229.9830763839
 10
77.1159039152
 20
-229.9072218361
 10
77.1831162659
 20
-229.8265241235
 10
77.2466756466
 20
-229.7410815635
 10
77.3065046198
 20
-229.6509982549
 10
77.3625302933
 20
-229.5563839503
 10
77.4146844082
 20
-229.4573539226
 10
77.462903423
 20
-229.3540288247
 10
77.5071285901
 20
-229.2465345423
 10
77.5473060279
 20
-229.1350020406
 10
77.5833867866
 20
-229.0195672048
 10
77.6153269071
 20
-228.9003706744
 10
77.6430874755
 20
-228.7775576721
 10
77.6666346697
 20
-228.6512778266
 10
77.6859398011
 20
-228.5216849904
 10
77.7009793494
 20
-228.3889370524
 10
77.7117349911
 20
-228.2531957456
 10
77.7181936223
 20
-228.1146264499
 10
77.720347374
 20
-227.9733979905
  0
LINE
  5
32B
100
AcDbEntity
  8
RACCORDO
100
AcDbLine
 62
253
  6
CONTINUOUS
 10
77.720347374
 20
-227.9733979905
 11
144.1883848056
 21
-189.5955862177
  0
LINE
  5
32C
100
AcDbEntity
  8
RACCORDO
100
AcDbLine
 62
7
  6
CONTINUOUS
 10
76.6849342688
 20
-230.2620822962
 11
144.9455708623
 21
-190.8492462338
  0
LINE
  5
32D
100
AcDbEntity
  8
RACCORDO
100
AcDbLine
 62
7
  6
CONTINUOUS
 10
151.6837166862
 20
-187.1458597478
 11
145.1076236211
 21
-190.9428134658
  0
LWPOLYLINE
  5
32E
100
AcDbEntity
  8
RACCORDO
100
AcDbPolyline
 62
7
  6
CONTINUOUS
 90
31
 70
0
 10
76.6849342688
 20
-230.2620822962
 10
76.5357311481
 20
-230.3448683269
 10
76.3836345558
 20
-230.4225913351
 10
76.2288541202
 20
-230.4951267992
 10
76.0719426133
 20
-230.5622241111
 10
75.9127940332
 20
-230.6239418137
 10
75.7506001143
 20
-230.6805313341
 10
75.5848904707
 20
-230.7320025638
 10
75.4165396273
 20
-230.7779357398
 10
75.2467557241
 20
-230.817951614
 10
75.0763670251
 20
-230.8518961861
 10
74.9050513194
 20
-230.8798788448
 10
74.7323005326
 20
-230.9019604272
 10
74.5580944419
 20
-230.9180716855
 10
74.382952654
 20
-230.9280975673
 10
74.2071662198
 20
-230.931975059
 10
74.0308850615
 20
-230.9296550664
 10
73.8544734899
 20
-230.9211006393
 10
73.6785246037
 20
-230.9063261391
 10
73.5035452254
 20
-230.8853949454
 10
73.3295061115
 20
-230.8583268134
 10
73.1561786252
 20
-230.8250721685
 10
72.9835156956
 20
-230.7855684364
 10
72.8120491386
 20
-230.7398850566
 10
72.6423881742
 20
-230.6881709649
 10
72.4746927476
 20
-230.6304808464
 10
72.3092001121
 20
-230.5669009163
 10
72.1465543354
 20
-230.4977122347
 10
71.9872899378
 20
-230.4232264592
 10
71.8311266289
 20
-230.3433919613
 10
71.6846987318
 20
-230.2620857977
  0
LWPOLYLINE
  5
32F
100
AcDbEntity
  8
RACCORDO
100
AcDbPolyline
 62
7
  6
CONTINUOUS
 90
13
 70
0
 10
-79.1452910457
 20
228.5729887326
 10
-79.1516067092
 20
228.5719254125
 10
-79.2343399566
 20
228.5557099744
 10
-79.3156181329
 20
228.5374662595
 10
-79.3954329393
 20
228.5171826996
 10
-79.4737926747
 20
228.4948708629
 10
-79.5502512682
 20
228.4706577618
 10
-79.6247978767
 20
228.4445325526
 10
-79.6974433433
 20
228.4165060789
 10
-79.7677741262
 20
228.3867378845
 10
-79.8356523781
 20
228.3552811504
 10
-79.9012159462
 20
228.3220826955
 10
-79.9644648306
 20
228.2871425199
  0
ARC
  5
330
100
AcDbEntity
  8
RACCORDO
100
AcDbCircle
 62
7
  6
CONTINUOUS
 10
-148.5538226056
 20
-97.3255281256
 40
5.0
100
AcDbArc
 50
180.0007992625
 51
239.9992007504
  0
ENDSEC
  0
SECTION
  2
OBJECTS
  0
DICTIONARY
  5
C
100
AcDbDictionary
280
0
281
1
  3
ACAD_GROUP
350
D
  3
ACAD_MLINESTYLE
350
17
  3
ACAD_LAYOUT
350
1A
  3
ACAD_PLOTSETTINGS
350
19
  3
ACAD_PLOTSTYLENAME
350
E
  0
DICTIONARY
  5
D
102
{ACAD_REACTORS
330
C
102
}
100
AcDbDictionary
280
0
281
1
  0
ACDBDICTIONARYWDFLT
  5
E
102
{ACAD_REACTORS
330
C
102
}
100
AcDbDictionary
281
1
  3
Normal
350
F
100
AcDbDictionaryWithDefault
340
F
  0
DICTIONARY
  5
17
102
{ACAD_REACTORS
330
C
102
}
100
AcDbDictionary
280
0
281
1
  3
Standard
350
18
  0
DICTIONARY
  5
19
102
{ACAD_REACTORS
330
C
102
}
100
AcDbDictionary
281
1
  0
DICTIONARY
  5
1A
102
{ACAD_REACTORS
330
C
102
}
100
AcDbDictionary
281
1
  3
Model
350
331
  3
Layout1
350
332
  0
ACDBPLACEHOLDER
  5
F
102
{ACAD_REACTORS
330
E
102
}
  0
MLINESTYLE
  5
18
102
{ACAD_REACTORS
330
17
102
}
100
AcDbMlineStyle
  2
STANDARD
 70
0
  3

 62
256
 51
90.0
 52
90.0
 71
2
 49
0.5
 62
256
  6
BYLAYER
 49
-0.5
 62
256
  6
BYLAYER
  0
LAYOUT
  5
331
102
{ACAD_REACTORS
330
1A
102
}
100
AcDbPlotSettings
  1

  2
none_device
  4
ISO_A4_(297.00_x_210.00_MM)
  6

 40
0.0
 41
0.0
 42
0.0
 43
0.0
 44
297.0
 45
210.0
 46
0.0
 47
0.0
 48
0.0
 49
0.0
140
0.0
141
0.0
142
1.0
143
1.0
 70
1024
 72
1
 73
0
 74
0
  7

 75
0
147
1.0
148
0.0
149
0.0
100
AcDbLayout
  1
Model
 70
0
 71
0
 10
0.0
 20
0.0
 11
297.0
 21
210.0
 12
0.0
 22
0.0
 32
0.0
 14
0.0
 24
0.0
 34
0.0
 15
0.0
 25
0.0
 35
0.0
146
0.0
 13
0.0
 23
0.0
 33
0.0
 16
1.0
 26
0.0
 36
0.0
 17
0.0
 27
1.0
 37
0.0
 76
0
330
211
345
0
346
0
  0
LAYOUT
  5
332
102
{ACAD_REACTORS
330
1A
102
}
100
AcDbPlotSettings
  1

  2
none_device
  4
ISO_A4_(297.00_x_210.00_MM)
  6

 40
0.0
 41
0.0
 42
0.0
 43
0.0
 44
297.0
 45
210.0
 46
0.0
 47
0.0
 48
0.0
 49
0.0
140
0.0
141
0.0
142
1.0
143
1.0
 70
0
 72
1
 73
0
 74
0
  7

 75
0
147
1.0
148
0.0
149
0.0
100
AcDbLayout
  1
Layout1
 70
0
 71
1
 10
0.0
 20
0.0
 11
297.0
 21
210.0
 12
0.0
 22
0.0
 32
0.0
 14
0.0
 24
0.0
 34
0.0
 15
0.0
 25
0.0
 35
0.0
146
0.0
 13
0.0
 23
0.0
 33
0.0
 16
1.0
 26
0.0
 36
0.0
 17
0.0
 27
1.0
 37
0.0
 76
0
330
212
345
0
346
0
  0
ENDSEC
  0
EOF
